  0
SECTION
  2
HEADER
  9
$ACADVER
  1
AC1009
  9
$INSBASE
 10
0.0
 20
0.0
 30
0.0
  9
$EXTMIN
 10
31.524425493660821
 20
28.29526935608077
 30
0.0
  9
$EXTMAX
 10
506.8986388145608
 20
417.87675236086369
 30
0.0
  9
$LIMMIN
 10
0.0
 20
0.0
  9
$LIMMAX
 10
420.0
 20
297.0
  9
$ORTHOMODE
 70
     0
  9
$REGENMODE
 70
     1
  9
$FILLMODE
 70
     1
  9
$QTEXTMODE
 70
     0
  9
$MIRRTEXT
 70
     1
  9
$DRAGMODE
 70
     2
  9
$LTSCALE
 40
1.0
  9
$OSMODE
 70
    39
  9
$ATTMODE
 70
     1
  9
$TEXTSIZE
 40
2.5
  9
$TRACEWID
 40
1.0
  9
$TEXTSTYLE
  7
STANDARD
  9
$CLAYER
  8
0
  9
$CELTYPE
  6
BYLAYER
  9
$CECOLOR
 62
   256
  9
$DIMSCALE
 40
1.0
  9
$DIMASZ
 40
2.5
  9
$DIMEXO
 40
0.625
  9
$DIMDLI
 40
3.75
  9
$DIMRND
 40
0.0
  9
$DIMDLE
 40
0.0
  9
$DIMEXE
 40
1.25
  9
$DIMTP
 40
0.0
  9
$DIMTM
 40
0.0
  9
$DIMTXT
 40
2.5
  9
$DIMCEN
 40
2.5
  9
$DIMTSZ
 40
0.0
  9
$DIMTOL
 70
     0
  9
$DIMLIM
 70
     0
  9
$DIMTIH
 70
     0
  9
$DIMTOH
 70
     0
  9
$DIMSE1
 70
     0
  9
$DIMSE2
 70
     0
  9
$DIMTAD
 70
     1
  9
$DIMZIN
 70
     8
  9
$DIMBLK
  1

  9
$DIMASO
 70
     1
  9
$DIMSHO
 70
     1
  9
$DIMPOST
  1

  9
$DIMAPOST
  1

  9
$DIMALT
 70
     0
  9
$DIMALTD
 70
     3
  9
$DIMALTF
 40
0.03937007874016
  9
$DIMLFAC
 40
1.0
  9
$DIMTOFL
 70
     1
  9
$DIMTVP
 40
0.0
  9
$DIMTIX
 70
     0
  9
$DIMSOXD
 70
     0
  9
$DIMSAH
 70
     0
  9
$DIMBLK1
  1

  9
$DIMBLK2
  1

  9
$DIMSTYLE
  2
ISO-25
  9
$DIMCLRD
 70
     0
  9
$DIMCLRE
 70
     0
  9
$DIMCLRT
 70
     0
  9
$DIMTFAC
 40
1.0
  9
$DIMGAP
 40
0.625
  9
$LUNITS
 70
     2
  9
$LUPREC
 70
     4
  9
$SKETCHINC
 40
1.0
  9
$FILLETRAD
 40
10.0
  9
$AUNITS
 70
     0
  9
$AUPREC
 70
     0
  9
$MENU
  1
.
  9
$ELEVATION
 40
0.0
  9
$PELEVATION
 40
0.0
  9
$THICKNESS
 40
0.0
  9
$LIMCHECK
 70
     0
  9
$BLIPMODE
 70
     0
  9
$CHAMFERA
 40
10.0
  9
$CHAMFERB
 40
10.0
  9
$SKPOLY
 70
     0
  9
$TDCREATE
 40
2456583.6822594791
  9
$TDUPDATE
 40
2456585.7820082749
  9
$TDINDWG
 40
0.0095795486
  9
$TDUSRTIMER
 40
0.0095791782
  9
$USRTIMER
 70
     1
  9
$ANGBASE
 50
0.0
  9
$ANGDIR
 70
     0
  9
$PDMODE
 70
     0
  9
$PDSIZE
 40
0.0
  9
$PLINEWID
 40
0.0
  9
$COORDS
 70
     1
  9
$SPLFRAME
 70
     0
  9
$SPLINETYPE
 70
     6
  9
$SPLINESEGS
 70
     8
  9
$ATTDIA
 70
     0
  9
$ATTREQ
 70
     1
  9
$HANDLING
 70
-16383
  9
$HANDSEED
  5
2472
  9
$SURFTAB1
 70
     6
  9
$SURFTAB2
 70
     6
  9
$SURFTYPE
 70
     6
  9
$SURFU
 70
     6
  9
$SURFV
 70
     6
  9
$UCSNAME
  2

  9
$UCSORG
 10
0.0
 20
0.0
 30
0.0
  9
$UCSXDIR
 10
1.0
 20
0.0
 30
0.0
  9
$UCSYDIR
 10
0.0
 20
1.0
 30
0.0
  9
$PUCSNAME
  2

  9
$PUCSORG
 10
0.0
 20
0.0
 30
0.0
  9
$PUCSXDIR
 10
1.0
 20
0.0
 30
0.0
  9
$PUCSYDIR
 10
0.0
 20
1.0
 30
0.0
  9
$USERI1
 70
     0
  9
$USERI2
 70
     0
  9
$USERI3
 70
     0
  9
$USERI4
 70
     0
  9
$USERI5
 70
     0
  9
$USERR1
 40
0.0
  9
$USERR2
 40
0.0
  9
$USERR3
 40
0.0
  9
$USERR4
 40
0.0
  9
$USERR5
 40
0.0
  9
$WORLDVIEW
 70
     1
  9
$SHADEDGE
 70
     3
  9
$SHADEDIF
 70
    70
  9
$TILEMODE
 70
     1
  9
$MAXACTVP
 70
    64
  9
$PLIMCHECK
 70
     0
  9
$PEXTMIN
 10
1.0000000000000000E+020
 20
1.0000000000000000E+020
 30
1.0000000000000000E+020
  9
$PEXTMAX
 10
-1.0000000000000000E+020
 20
-1.0000000000000000E+020
 30
-1.0000000000000000E+020
  9
$PLIMMIN
 10
0.0
 20
0.0
  9
$PLIMMAX
 10
420.0
 20
297.0
  9
$UNITMODE
 70
     0
  9
$VISRETAIN
 70
     1
  9
$PLINEGEN
 70
     0
  9
$PSLTSCALE
 70
     1
  0
ENDSEC
  0
SECTION
  2
TABLES
  0
TABLE
  2
VPORT
 70
     2
  0
VPORT
  2
*ACTIVE
 70
     0
 10
0.0
 20
0.0
 11
1.0
 21
1.0
 12
339.40134534697239
 22
242.28843015127711
 13
0.0
 23
0.0
 14
10.0
 24
10.0
 15
10.0
 25
10.0
 16
0.0
 26
0.0
 36
1.0
 17
0.0
 27
0.0
 37
0.0
 40
389.81792391598651
 41
1.7436194895591639
 42
50.0
 43
0.0
 44
0.0
 50
0.0
 51
0.0
 71
     0
 72
   100
 73
     1
 74
     3
 75
     0
 76
     0
 77
     0
 78
     0
  0
ENDTAB
  0
TABLE
  2
LTYPE
 70
     2
  0
LTYPE
  2
CONTINUOUS
 70
     0
  3
Solid line
 72
    65
 73
     0
 40
0.0
  0
LTYPE
  2
DASHED
 70
     0
  3
Dashed __ __ __ __ __ __ __ __ __ __ __ __ __ _
 72
    65
 73
     2
 40
19.049999999999962
 49
12.699999999999999
 49
-6.349999999999997
  0
ENDTAB
  0
TABLE
  2
LAYER
 70
     4
  0
LAYER
  2
0
 70
     0
 62
     7
  6
CONTINUOUS
  0
LAYER
  2
DANMEN
 70
     0
 62
     7
  6
CONTINUOUS
  0
LAYER
  2
SUNPO
 70
     0
 62
     1
  6
CONTINUOUS
  0
LAYER
  2
WAKU
 70
     0
 62
     3
  6
CONTINUOUS
  0
ENDTAB
  0
TABLE
  2
STYLE
 70
     5
  0
STYLE
  2
STANDARD
 70
     0
 40
0.0
 41
1.0
 50
0.0
 71
     0
 42
2.5
  3
txt
  4

  0
STYLE
  2
MX_NOTE_STANDARD
 70
     0
 40
0.0
 41
1.0
 50
0.0
 71
     0
 42
2.5
  3
txt.shx
  4
extfont.shx
  0
STYLE
  2
MX_DIMTXSTY_2
 70
     0
 40
0.0
 41
1.1999999999999991
 50
0.0
 71
     0
 42
2.5
  3
txt.shx
  4
extfont.shx
  0
STYLE
  2
MX_DIMTXSTY_3
 70
     0
 40
0.0
 41
1.1000000000000001
 50
0.0
 71
     0
 42
2.5
  3
txt.shx
  4
extfont.shx
  0
STYLE
  2
MX_DIMTXSTY_4
 70
     0
 40
0.0
 41
1.3500000000000001
 50
0.0
 71
     0
 42
2.5
  3
txt.shx
  4
extfont.shx
  0
ENDTAB
  0
TABLE
  2
VIEW
 70
     0
  0
ENDTAB
  0
TABLE
  2
UCS
 70
     0
  0
ENDTAB
  0
TABLE
  2
APPID
 70
     1
  0
APPID
  2
ACAD
 70
     0
  0
ENDTAB
  0
TABLE
  2
DIMSTYLE
 70
     2
  0
DIMSTYLE
  2
ISO-25
 70
     0
  3

  4

  5

  6

  7

 40
1.0
 41
2.5
 42
0.625
 43
3.75
 44
1.25
 45
0.0
 46
0.0
 47
0.0
 48
0.0
140
2.5
141
2.5
142
0.0
143
0.03937007874016
144
1.0
145
0.0
146
1.0
147
0.625
 71
     0
 72
     0
 73
     0
 74
     0
 75
     0
 76
     0
 77
     1
 78
     8
170
     0
171
     3
172
     1
173
     0
174
     0
175
     0
176
     0
177
     0
178
     0
  0
DIMSTYLE
  2
MXDIMSTYLE
 70
     0
  3

  4

  5

  6

  7

 40
1.0
 41
2.5
 42
1.5
 43
3.75
 44
0.0
 45
0.0
 46
0.0
 47
0.0
 48
0.0
140
2.5
141
2.5
142
0.0
143
0.039
144
1.0
145
0.0
146
1.0
147
0.5
 71
     0
 72
     0
 73
     0
 74
     0
 75
     0
 76
     0
 77
     1
 78
     8
170
     0
171
     4
172
     1
173
     0
174
     0
175
     0
176
     0
177
     0
178
     0
  0
ENDTAB
  0
ENDSEC
  0
SECTION
  2
BLOCKS
  0
BLOCK
  8
0
  2
$MODEL_SPACE
 70
     0
 10
0.0
 20
0.0
 30
0.0
  3
$MODEL_SPACE
  1

  0
ENDBLK
  5
1D99
  8
0
  0
BLOCK
 67
     1
  8
0
  2
$PAPER_SPACE
 70
     0
 10
0.0
 20
0.0
 30
0.0
  3
$PAPER_SPACE
  1

  0
ENDBLK
  5
1D95
 67
     1
  8
0
  0
ENDSEC
  0
SECTION
  2
ENTITIES
  0
LINE
  5
1DAE
  8
WAKU
  6
CONTINUOUS
 10
494.47477787089508
 20
414.85770574567772
 30
0.0
 11
495.10192687089511
 21
416.5807827456776
 31
0.0
  0
LINE
  5
1DAF
  8
WAKU
  6
CONTINUOUS
 10
493.76923587089539
 20
412.9192447456777
 30
0.0
 11
494.2395968708953
 21
414.2115517456777
 31
0.0
  0
SOLID
  5
1DB0
  8
WAKU
  6
CONTINUOUS
 10
497.25577287089561
 20
416.5807827456776
 30
0.0
 11
494.41499387089561
 21
411.73462874567758
 31
0.0
 12
494.70798087089508
 22
409.58078274567771
 32
0.0
 13
494.70798087089508
 23
409.58078274567771
 33
0.0
  0
SOLID
  5
1DB1
  8
WAKU
  6
CONTINUOUS
 10
494.41499387089561
 20
411.73462874567758
 30
0.0
 11
497.25577287089561
 21
416.5807827456776
 31
0.0
 12
496.17884987089508
 22
416.5807827456776
 32
0.0
 13
496.17884987089508
 23
416.5807827456776
 33
0.0
  0
LINE
  5
1DB2
  8
WAKU
  6
CONTINUOUS
 10
494.41499387089561
 20
411.73462874567758
 30
0.0
 11
496.17884987089508
 21
416.5807827456776
 31
0.0
  0
LINE
  5
1DB3
  8
WAKU
  6
CONTINUOUS
 10
494.70798087089508
 20
409.58078274567771
 30
0.0
 11
497.25577287089561
 21
416.5807827456776
 31
0.0
  0
LINE
  5
1DB4
  8
WAKU
  6
CONTINUOUS
 10
496.17884987089508
 20
416.5807827456776
 30
0.0
 11
497.25577287089561
 21
416.5807827456776
 31
0.0
  0
LINE
  5
1DB5
  8
WAKU
  6
CONTINUOUS
 10
491.87115787089567
 20
416.5807827456776
 30
0.0
 11
491.2440088708953
 21
414.85770574567772
 31
0.0
  0
LINE
  5
1DB6
  8
WAKU
  6
CONTINUOUS
 10
491.00882787089557
 20
414.2115517456777
 30
0.0
 11
490.5384668708956
 21
412.9192447456777
 31
0.0
  0
LINE
  5
1DB7
  8
WAKU
  6
CONTINUOUS
 10
489.3233658708956
 20
409.58078274567771
 30
0.0
 11
490.10730187089513
 21
411.73462874567758
 31
0.0
  0
LINE
  5
1DB8
  8
WAKU
  6
CONTINUOUS
 10
488.05243587089512
 20
414.96539774567742
 30
0.0
 11
489.1293598708948
 21
414.96539774567742
 31
0.0
  0
SOLID
  5
1DB9
  8
WAKU
  6
CONTINUOUS
 10
487.16951987089539
 20
409.58078274567771
 30
0.0
 11
486.68054887089568
 21
411.196167745678
 31
0.0
 12
483.44977887089573
 22
411.196167745678
 32
0.0
 13
483.44977887089573
 23
411.196167745678
 33
0.0
  0
LINE
  5
1DBA
  8
WAKU
  6
CONTINUOUS
 10
483.4497788708951
 20
411.1961677456776
 30
0.0
 11
486.68054887089539
 21
411.1961677456776
 31
0.0
  0
SOLID
  5
1DBB
  8
WAKU
  6
CONTINUOUS
 10
485.11465387089561
 20
412.81155174567812
 30
0.0
 11
485.89858987089542
 21
414.96539774567827
 31
0.0
 12
484.82166687089563
 22
414.96539774567827
 32
0.0
 13
484.82166687089563
 23
414.96539774567827
 33
0.0
  0
LINE
  5
1DBC
  8
WAKU
  6
CONTINUOUS
 10
485.43773087089562
 20
412.81155174567772
 30
0.0
 11
486.22166687089509
 21
414.96539774567742
 31
0.0
  0
LINE
  5
1DBD
  8
WAKU
  6
CONTINUOUS
 10
485.11465387089561
 20
412.81155174567772
 30
0.0
 11
485.89858987089502
 21
414.96539774567742
 31
0.0
  0
LINE
  5
1DBE
  8
WAKU
  6
CONTINUOUS
 10
485.43773087089562
 20
412.81155174567772
 30
0.0
 11
486.51465387089462
 21
412.81155174567772
 31
0.0
  0
LINE
  5
1DBF
  8
WAKU
  6
CONTINUOUS
 10
484.82166687089563
 20
414.96539774567742
 30
0.0
 11
485.89858987089502
 21
414.96539774567742
 31
0.0
  0
SOLID
  5
1DC0
  8
WAKU
  6
CONTINUOUS
 10
486.22166687089538
 20
414.96539774567827
 30
0.0
 11
485.43773087089562
 21
412.81155174567812
 31
0.0
 12
487.29858987089511
 22
414.96539774567827
 32
0.0
 13
487.29858987089511
 23
414.96539774567827
 33
0.0
  0
SOLID
  5
1DC1
  8
WAKU
  6
CONTINUOUS
 10
487.29858987089511
 20
414.96539774567827
 30
0.0
 11
485.43773087089562
 21
412.81155174567812
 31
0.0
 12
486.51465387089559
 22
412.81155174567812
 32
0.0
 13
486.51465387089559
 23
412.81155174567812
 33
0.0
  0
SOLID
  5
1DC2
  8
WAKU
  6
CONTINUOUS
 10
484.82166687089563
 20
414.96539774567827
 30
0.0
 11
484.03773087089581
 21
412.81155174567812
 31
0.0
 12
485.11465387089561
 22
412.81155174567812
 32
0.0
 13
485.11465387089561
 23
412.81155174567812
 33
0.0
  0
LINE
  5
1DC3
  8
WAKU
  6
CONTINUOUS
 10
484.0377308708953
 20
412.81155174567772
 30
0.0
 11
484.82166687089563
 21
414.96539774567742
 31
0.0
  0
LINE
  5
1DC4
  8
WAKU
  6
CONTINUOUS
 10
484.0377308708953
 20
412.81155174567772
 30
0.0
 11
485.11465387089561
 21
412.81155174567772
 31
0.0
  0
LINE
  5
1DC5
  8
WAKU
  6
CONTINUOUS
 10
486.51465387089462
 20
412.81155174567772
 30
0.0
 11
487.29858987089511
 21
414.96539774567742
 31
0.0
  0
LINE
  5
1DC6
  8
WAKU
  6
CONTINUOUS
 10
486.22166687089509
 20
414.96539774567742
 30
0.0
 11
487.29858987089511
 21
414.96539774567742
 31
0.0
  0
SOLID
  5
1DC7
  8
WAKU
  6
CONTINUOUS
 10
488.05243587089541
 20
414.96539774567827
 30
0.0
 11
486.68054887089568
 21
411.196167745678
 31
0.0
 12
487.16951987089539
 22
409.58078274567771
 32
0.0
 13
487.16951987089539
 23
409.58078274567771
 33
0.0
  0
LINE
  5
1DC8
  8
WAKU
  6
CONTINUOUS
 10
486.68054887089539
 20
411.1961677456776
 30
0.0
 11
488.05243587089512
 21
414.96539774567742
 31
0.0
  0
SOLID
  5
1DC9
  8
WAKU
  6
CONTINUOUS
 10
489.12935987089583
 20
414.96539774567827
 30
0.0
 11
488.05243587089541
 21
414.96539774567827
 31
0.0
 12
487.16951987089539
 22
409.58078274567771
 32
0.0
 13
487.16951987089539
 23
409.58078274567771
 33
0.0
  0
LINE
  5
1DCA
  8
WAKU
  6
CONTINUOUS
 10
487.16951987089539
 20
409.58078274567771
 30
0.0
 11
489.1293598708948
 21
414.96539774567742
 31
0.0
  0
SOLID
  5
1DCB
  8
WAKU
  6
CONTINUOUS
 10
482.17884987089542
 20
416.5807827456776
 30
0.0
 11
481.70848787089562
 21
415.28847474567817
 31
0.0
 12
482.78541087089548
 22
415.28847474567817
 32
0.0
 13
482.78541087089548
 23
415.28847474567817
 33
0.0
  0
SOLID
  5
1DCC
  8
WAKU
  6
CONTINUOUS
 10
481.70848787089562
 20
415.28847474567817
 30
0.0
 11
482.19745987089561
 21
413.67309074567771
 31
0.0
 12
483.00515187089542
 22
413.67309074567771
 32
0.0
 13
483.00515187089542
 23
413.67309074567771
 33
0.0
  0
LINE
  5
1DCD
  8
WAKU
  6
CONTINUOUS
 10
481.70848787089471
 20
415.28847474567772
 30
0.0
 11
482.17884987089508
 21
416.5807827456776
 31
0.0
  0
LINE
  5
1DCE
  8
WAKU
  6
CONTINUOUS
 10
482.19745987089539
 20
413.67309074567771
 30
0.0
 11
483.00515187089508
 21
413.67309074567771
 31
0.0
  0
LINE
  5
1DCF
  8
WAKU
  6
CONTINUOUS
 10
479.01618087089508
 20
415.28847474567772
 30
0.0
 11
479.48654187089539
 21
416.5807827456776
 31
0.0
  0
LINE
  5
1DD0
  8
WAKU
  6
CONTINUOUS
 10
478.40961887089509
 20
416.5807827456776
 30
0.0
 11
479.48654187089539
 21
416.5807827456776
 31
0.0
  0
SOLID
  5
1DD1
  8
WAKU
  6
CONTINUOUS
 10
481.12053587089508
 20
413.67309074567771
 30
0.0
 11
480.41499387089561
 21
411.73462874567758
 31
0.0
 12
480.70798087089571
 22
409.58078274567771
 32
0.0
 13
480.70798087089571
 23
409.58078274567771
 33
0.0
  0
LINE
  5
1DD2
  8
WAKU
  6
CONTINUOUS
 10
480.41499387089561
 20
411.73462874567758
 30
0.0
 11
481.12053587089503
 21
413.67309074567771
 31
0.0
  0
LINE
  5
1DD3
  8
WAKU
  6
CONTINUOUS
 10
478.42822887089523
 20
413.67309074567771
 30
0.0
 11
481.12053587089503
 21
413.67309074567771
 31
0.0
  0
SOLID
  5
1DD4
  8
WAKU
  6
CONTINUOUS
 10
482.19745987089561
 20
413.67309074567771
 30
0.0
 11
481.12053587089508
 21
413.67309074567771
 31
0.0
 12
480.70798087089571
 22
409.58078274567771
 32
0.0
 13
480.70798087089571
 23
409.58078274567771
 33
0.0
  0
LINE
  5
1DD5
  8
WAKU
  6
CONTINUOUS
 10
480.70798087089543
 20
409.58078274567771
 30
0.0
 11
482.19745987089539
 21
413.67309074567771
 31
0.0
  0
SOLID
  5
1DD6
  8
WAKU
  6
CONTINUOUS
 10
482.19745987089561
 20
413.67309074567771
 30
0.0
 11
481.70848787089562
 21
415.28847474567817
 31
0.0
 12
479.0161808708956
 22
415.28847474567817
 32
0.0
 13
479.0161808708956
 23
415.28847474567817
 33
0.0
  0
LINE
  5
1DD7
  8
WAKU
  6
CONTINUOUS
 10
479.01618087089508
 20
415.28847474567772
 30
0.0
 11
481.70848787089471
 21
415.28847474567772
 31
0.0
  0
LINE
  5
1DD8
  8
WAKU
  6
CONTINUOUS
 10
476.9593378708953
 20
412.59616774567769
 30
0.0
 11
477.3513058708956
 21
413.67309074567771
 31
0.0
  0
LINE
  5
1DD9
  8
WAKU
  6
CONTINUOUS
 10
476.9593378708953
 20
412.59616774567769
 30
0.0
 11
478.0362608708956
 21
412.59616774567769
 31
0.0
  0
LINE
  5
1DDA
  8
WAKU
  6
CONTINUOUS
 10
475.6464428708947
 20
409.58078274567771
 30
0.0
 11
476.43037887089508
 21
411.73462874567758
 31
0.0
  0
LINE
  5
1DDB
  8
WAKU
  6
CONTINUOUS
 10
476.543612870895
 20
413.67309074567771
 30
0.0
 11
477.3513058708956
 21
413.67309074567771
 31
0.0
  0
LINE
  5
1DDC
  8
WAKU
  6
CONTINUOUS
 10
477.1315648708956
 20
415.28847474567772
 30
0.0
 11
477.93925787089472
 21
415.28847474567772
 31
0.0
  0
LINE
  5
1DDD
  8
WAKU
  6
CONTINUOUS
 10
476.543612870895
 20
413.67309074567771
 30
0.0
 11
477.1315648708956
 21
415.28847474567772
 31
0.0
  0
LINE
  5
1DDE
  8
WAKU
  6
CONTINUOUS
 10
475.62862387089513
 20
414.85770574567772
 30
0.0
 11
476.2557728708951
 21
416.5807827456776
 31
0.0
  0
LINE
  5
1DDF
  8
WAKU
  6
CONTINUOUS
 10
473.70798087089503
 20
409.58078274567771
 30
0.0
 11
474.49191687089473
 21
411.73462874567758
 31
0.0
  0
SOLID
  5
1DE0
  8
WAKU
  6
CONTINUOUS
 10
477.13156487089577
 20
415.28847474567817
 30
0.0
 11
476.54361287089557
 21
413.67309074567771
 31
0.0
 12
479.0161808708956
 22
415.28847474567817
 32
0.0
 13
479.0161808708956
 23
415.28847474567817
 33
0.0
  0
LINE
  5
1DE1
  8
WAKU
  6
CONTINUOUS
 10
477.93925787089472
 20
415.28847474567772
 30
0.0
 11
478.40961887089509
 21
416.5807827456776
 31
0.0
  0
SOLID
  5
1DE2
  8
WAKU
  6
CONTINUOUS
 10
479.48654187089539
 20
416.5807827456776
 30
0.0
 11
477.93925787089591
 21
415.28847474567817
 31
0.0
 12
479.0161808708956
 22
415.28847474567817
 32
0.0
 13
479.0161808708956
 23
415.28847474567817
 33
0.0
  0
SOLID
  5
1DE3
  8
WAKU
  6
CONTINUOUS
 10
477.93925787089591
 20
415.28847474567817
 30
0.0
 11
479.48654187089539
 21
416.5807827456776
 31
0.0
 12
478.40961887089583
 22
416.5807827456776
 32
0.0
 13
478.40961887089583
 23
416.5807827456776
 33
0.0
  0
SOLID
  5
1DE4
  8
WAKU
  6
CONTINUOUS
 10
480.70798087089571
 20
409.58078274567771
 30
0.0
 11
480.41499387089561
 21
411.73462874567758
 31
0.0
 12
476.43037887089599
 22
411.73462874567758
 32
0.0
 13
476.43037887089599
 23
411.73462874567758
 33
0.0
  0
SOLID
  5
1DE5
  8
WAKU
  6
CONTINUOUS
 10
476.43037887089599
 20
411.73462874567758
 30
0.0
 11
475.64644287089561
 21
409.58078274567771
 31
0.0
 12
480.70798087089571
 22
409.58078274567771
 32
0.0
 13
480.70798087089571
 23
409.58078274567771
 33
0.0
  0
LINE
  5
1DE6
  8
WAKU
  6
CONTINUOUS
 10
475.6464428708947
 20
409.58078274567771
 30
0.0
 11
480.70798087089543
 21
409.58078274567771
 31
0.0
  0
SOLID
  5
1DE7
  8
WAKU
  6
CONTINUOUS
 10
476.54361287089557
 20
413.67309074567771
 30
0.0
 11
478.42822887089568
 21
413.67309074567771
 31
0.0
 12
481.12053587089508
 22
413.67309074567771
 32
0.0
 13
481.12053587089508
 23
413.67309074567771
 33
0.0
  0
SOLID
  5
1DE8
  8
WAKU
  6
CONTINUOUS
 10
479.0161808708956
 20
415.28847474567817
 30
0.0
 11
476.54361287089557
 21
413.67309074567771
 31
0.0
 12
482.19745987089561
 22
413.67309074567771
 32
0.0
 13
482.19745987089561
 23
413.67309074567771
 33
0.0
  0
SOLID
  5
1DE9
  8
WAKU
  6
CONTINUOUS
 10
482.19745987089561
 20
413.67309074567771
 30
0.0
 11
476.54361287089557
 21
413.67309074567771
 31
0.0
 12
481.12053587089508
 22
413.67309074567771
 32
0.0
 13
481.12053587089508
 23
413.67309074567771
 33
0.0
  0
SOLID
  5
1DEA
  8
WAKU
  6
CONTINUOUS
 10
477.3513058708956
 20
413.67309074567771
 30
0.0
 11
476.9593378708953
 21
412.5961677456782
 31
0.0
 12
478.42822887089568
 22
413.67309074567771
 32
0.0
 13
478.42822887089568
 23
413.67309074567771
 33
0.0
  0
SOLID
  5
1DEB
  8
WAKU
  6
CONTINUOUS
 10
478.42822887089568
 20
413.67309074567771
 30
0.0
 11
476.9593378708953
 21
412.5961677456782
 31
0.0
 12
478.0362608708956
 22
412.5961677456782
 32
0.0
 13
478.0362608708956
 23
412.5961677456782
 33
0.0
  0
LINE
  5
1DEC
  8
WAKU
  6
CONTINUOUS
 10
478.0362608708956
 20
412.59616774567769
 30
0.0
 11
478.42822887089523
 21
413.67309074567771
 31
0.0
  0
LINE
  5
1DED
  8
WAKU
  6
CONTINUOUS
 10
476.43037887089508
 20
411.73462874567758
 30
0.0
 11
480.41499387089561
 21
411.73462874567758
 31
0.0
  0
SOLID
  5
1DEE
  8
WAKU
  6
CONTINUOUS
 10
476.54361287089557
 20
413.67309074567771
 30
0.0
 11
477.3513058708956
 21
413.67309074567771
 31
0.0
 12
478.42822887089568
 22
413.67309074567771
 32
0.0
 13
478.42822887089568
 23
413.67309074567771
 33
0.0
  0
SOLID
  5
1DEF
  8
WAKU
  6
CONTINUOUS
 10
479.0161808708956
 20
415.28847474567817
 30
0.0
 11
477.93925787089591
 21
415.28847474567817
 31
0.0
 12
477.13156487089577
 22
415.28847474567817
 32
0.0
 13
477.13156487089577
 23
415.28847474567817
 33
0.0
  0
SOLID
  5
1DF0
  8
WAKU
  6
CONTINUOUS
 10
483.44977887089573
 20
411.196167745678
 30
0.0
 11
482.86182787089592
 21
409.58078274567771
 31
0.0
 12
487.16951987089539
 22
409.58078274567771
 32
0.0
 13
487.16951987089539
 23
409.58078274567771
 33
0.0
  0
LINE
  5
1DF1
  8
WAKU
  6
CONTINUOUS
 10
482.86182787089592
 20
409.58078274567771
 30
0.0
 11
487.16951987089539
 21
409.58078274567771
 31
0.0
  0
SOLID
  5
1DF2
  8
WAKU
  6
CONTINUOUS
 10
482.78541087089548
 20
415.28847474567817
 30
0.0
 11
481.70848787089562
 21
415.28847474567817
 31
0.0
 12
483.59310387089562
 22
415.28847474567817
 32
0.0
 13
483.59310387089562
 23
415.28847474567817
 33
0.0
  0
SOLID
  5
1DF3
  8
WAKU
  6
CONTINUOUS
 10
483.59310387089562
 20
415.28847474567817
 30
0.0
 11
481.70848787089562
 21
415.28847474567817
 31
0.0
 12
483.00515187089542
 22
413.67309074567771
 32
0.0
 13
483.00515187089542
 23
413.67309074567771
 33
0.0
  0
LINE
  5
1DF4
  8
WAKU
  6
CONTINUOUS
 10
482.86182787089592
 20
409.58078274567771
 30
0.0
 11
483.4497788708951
 21
411.1961677456776
 31
0.0
  0
SOLID
  5
1DF5
  8
WAKU
  6
CONTINUOUS
 10
483.2557728708955
 20
416.5807827456776
 30
0.0
 11
482.17884987089542
 21
416.5807827456776
 31
0.0
 12
482.78541087089548
 22
415.28847474567817
 32
0.0
 13
482.78541087089548
 23
415.28847474567817
 33
0.0
  0
LINE
  5
1DF6
  8
WAKU
  6
CONTINUOUS
 10
482.17884987089508
 20
416.5807827456776
 30
0.0
 11
483.2557728708947
 21
416.5807827456776
 31
0.0
  0
LINE
  5
1DF7
  8
WAKU
  6
CONTINUOUS
 10
482.78541087089548
 20
415.28847474567772
 30
0.0
 11
483.2557728708947
 21
416.5807827456776
 31
0.0
  0
LINE
  5
1DF8
  8
WAKU
  6
CONTINUOUS
 10
482.78541087089548
 20
415.28847474567772
 30
0.0
 11
483.59310387089562
 21
415.28847474567772
 31
0.0
  0
LINE
  5
1DF9
  8
WAKU
  6
CONTINUOUS
 10
483.00515187089508
 20
413.67309074567771
 30
0.0
 11
483.59310387089562
 21
415.28847474567772
 31
0.0
  0
LINE
  5
1DFA
  8
WAKU
  6
CONTINUOUS
 10
470.2440088708953
 20
414.85770574567772
 30
0.0
 11
470.87115787089562
 21
416.5807827456776
 31
0.0
  0
LINE
  5
1DFB
  8
WAKU
  6
CONTINUOUS
 10
468.3233658708956
 20
409.58078274567771
 30
0.0
 11
469.10730187089513
 21
411.73462874567758
 31
0.0
  0
LINE
  5
1DFC
  8
WAKU
  6
CONTINUOUS
 10
469.5788498708954
 20
416.5807827456776
 30
0.0
 11
468.95170087089468
 21
414.85770574567772
 31
0.0
  0
LINE
  5
1DFD
  8
WAKU
  6
CONTINUOUS
 10
466.78062387089511
 20
414.85770574567772
 30
0.0
 11
468.01097787089509
 21
412.27309074567768
 31
0.0
  0
LINE
  5
1DFE
  8
WAKU
  6
CONTINUOUS
 10
467.0310578708951
 20
409.58078274567771
 30
0.0
 11
468.01097787089509
 21
412.27309074567768
 31
0.0
  0
SOLID
  5
1DFF
  8
WAKU
  6
CONTINUOUS
 10
465.74943987089569
 20
412.27309074567802
 30
0.0
 11
464.65291787089558
 21
412.219244745678
 31
0.0
 12
464.76951987089518
 22
409.58078274567771
 32
0.0
 13
464.76951987089518
 23
409.58078274567771
 33
0.0
  0
LINE
  5
1E00
  8
WAKU
  6
CONTINUOUS
 10
464.76951987089518
 20
409.58078274567771
 30
0.0
 11
465.74943987089512
 21
412.27309074567768
 31
0.0
  0
SOLID
  5
1E01
  8
WAKU
  6
CONTINUOUS
 10
464.65291787089558
 20
412.219244745678
 30
0.0
 11
463.69259687089561
 21
409.58078274567771
 31
0.0
 12
464.76951987089518
 22
409.58078274567771
 32
0.0
 13
464.76951987089518
 23
409.58078274567771
 33
0.0
  0
LINE
  5
1E02
  8
WAKU
  6
CONTINUOUS
 10
463.69259687089561
 20
409.58078274567771
 30
0.0
 11
464.65291787089512
 21
412.219244745678
 31
0.0
  0
LINE
  5
1E03
  8
WAKU
  6
CONTINUOUS
 10
463.69259687089561
 20
409.58078274567771
 30
0.0
 11
464.76951987089518
 21
409.58078274567771
 31
0.0
  0
SOLID
  5
1E04
  8
WAKU
  6
CONTINUOUS
 10
466.78062387089511
 20
414.857705745678
 30
0.0
 11
465.56708587089571
 21
414.857705745678
 31
0.0
 12
465.74943987089569
 22
412.27309074567802
 32
0.0
 13
465.74943987089569
 23
412.27309074567802
 33
0.0
  0
LINE
  5
1E05
  8
WAKU
  6
CONTINUOUS
 10
465.74943987089512
 20
412.27309074567768
 30
0.0
 11
467.0310578708951
 21
409.58078274567771
 31
0.0
  0
SOLID
  5
1E06
  8
WAKU
  6
CONTINUOUS
 10
466.78062387089511
 20
414.857705745678
 30
0.0
 11
465.74943987089569
 21
412.27309074567802
 31
0.0
 12
468.01097787089537
 22
412.27309074567802
 32
0.0
 13
468.01097787089537
 23
412.27309074567802
 33
0.0
  0
SOLID
  5
1E07
  8
WAKU
  6
CONTINUOUS
 10
465.74943987089569
 20
412.27309074567802
 30
0.0
 11
467.03105787089561
 21
409.58078274567771
 31
0.0
 12
468.01097787089537
 22
412.27309074567802
 32
0.0
 13
468.01097787089537
 23
412.27309074567802
 33
0.0
  0
LINE
  5
1E08
  8
WAKU
  6
CONTINUOUS
 10
463.351700870895
 20
414.85770574567772
 30
0.0
 11
465.56708587089503
 21
414.85770574567772
 31
0.0
  0
LINE
  5
1E09
  8
WAKU
  6
CONTINUOUS
 10
463.97884987089509
 20
416.5807827456776
 30
0.0
 11
463.351700870895
 21
414.85770574567772
 31
0.0
  0
SOLID
  5
1E0A
  8
WAKU
  6
CONTINUOUS
 10
463.97884987089571
 20
416.5807827456776
 30
0.0
 11
463.35170087089563
 21
414.857705745678
 31
0.0
 12
466.78062387089511
 22
414.857705745678
 32
0.0
 13
466.78062387089511
 23
414.857705745678
 33
0.0
  0
SOLID
  5
1E0B
  8
WAKU
  6
CONTINUOUS
 10
466.78062387089511
 20
414.857705745678
 30
0.0
 11
463.35170087089563
 21
414.857705745678
 31
0.0
 12
465.56708587089571
 22
414.857705745678
 32
0.0
 13
465.56708587089571
 23
414.857705745678
 33
0.0
  0
LINE
  5
1E0C
  8
WAKU
  6
CONTINUOUS
 10
466.78062387089511
 20
414.85770574567772
 30
0.0
 11
468.95170087089468
 21
414.85770574567772
 31
0.0
  0
SOLID
  5
1E0D
  8
WAKU
  6
CONTINUOUS
 10
469.57884987089562
 20
416.5807827456776
 30
0.0
 11
463.97884987089571
 21
416.5807827456776
 31
0.0
 12
468.95170087089531
 22
414.857705745678
 32
0.0
 13
468.95170087089531
 23
414.857705745678
 33
0.0
  0
SOLID
  5
1E0E
  8
WAKU
  6
CONTINUOUS
 10
463.97884987089571
 20
416.5807827456776
 30
0.0
 11
466.78062387089511
 21
414.857705745678
 31
0.0
 12
468.95170087089531
 22
414.857705745678
 32
0.0
 13
468.95170087089531
 23
414.857705745678
 33
0.0
  0
LINE
  5
1E0F
  8
WAKU
  6
CONTINUOUS
 10
463.97884987089509
 20
416.5807827456776
 30
0.0
 11
469.5788498708954
 21
416.5807827456776
 31
0.0
  0
LINE
  5
1E10
  8
WAKU
  6
CONTINUOUS
 10
461.4310578708953
 20
409.58078274567771
 30
0.0
 11
462.41097787089518
 21
412.27309074567768
 31
0.0
  0
LINE
  5
1E11
  8
WAKU
  6
CONTINUOUS
 10
459.15061587089508
 20
412.86447574567819
 30
0.0
 11
459.4125048708953
 21
413.36581274567772
 31
0.0
  0
SOLID
  5
1E12
  8
WAKU
  6
CONTINUOUS
 10
460.20659987089562
 20
413.67707174567829
 30
0.0
 11
459.81213387089548
 21
413.6506467456777
 31
0.0
 12
460.12175687089558
 22
413.24691674567799
 32
0.0
 13
460.12175687089558
 23
413.24691674567799
 33
0.0
  0
SOLID
  5
1E13
  8
WAKU
  6
CONTINUOUS
 10
459.81213387089548
 20
413.6506467456777
 30
0.0
 11
459.71648287089539
 21
413.25503074567729
 31
0.0
 12
460.12175687089558
 22
413.24691674567799
 32
0.0
 13
460.12175687089558
 23
413.24691674567799
 33
0.0
  0
LINE
  5
1E14
  8
WAKU
  6
CONTINUOUS
 10
460.12175687089518
 20
413.24691674567748
 30
0.0
 11
460.20659987089562
 21
413.67707174567721
 31
0.0
  0
LINE
  5
1E15
  8
WAKU
  6
CONTINUOUS
 10
459.71648287089539
 20
413.25503074567729
 30
0.0
 11
459.81213387089508
 21
413.65064674567708
 31
0.0
  0
SOLID
  5
1E16
  8
WAKU
  6
CONTINUOUS
 10
459.71648287089539
 20
413.25503074567729
 30
0.0
 11
459.52427987089561
 21
412.80006074567802
 31
0.0
 12
460.12175687089558
 22
413.24691674567799
 32
0.0
 13
460.12175687089558
 23
413.24691674567799
 33
0.0
  0
SOLID
  5
1E17
  8
WAKU
  6
CONTINUOUS
 10
460.12175687089558
 20
413.24691674567799
 30
0.0
 11
459.52427987089561
 21
412.80006074567802
 31
0.0
 12
459.94527587089561
 22
412.7776107456782
 32
0.0
 13
459.94527587089561
 23
412.7776107456782
 33
0.0
  0
LINE
  5
1E18
  8
WAKU
  6
CONTINUOUS
 10
459.6836378708951
 20
412.28639174567741
 30
0.0
 11
459.94527587089482
 21
412.77761074567741
 31
0.0
  0
LINE
  5
1E19
  8
WAKU
  6
CONTINUOUS
 10
459.94527587089482
 20
412.77761074567741
 30
0.0
 11
460.12175687089518
 21
413.24691674567748
 31
0.0
  0
LINE
  5
1E1A
  8
WAKU
  6
CONTINUOUS
 10
459.5242798708947
 20
412.80006074567802
 30
0.0
 11
459.71648287089539
 21
413.25503074567729
 31
0.0
  0
LINE
  5
1E1B
  8
WAKU
  6
CONTINUOUS
 10
458.94610787089471
 20
411.31052674567741
 30
0.0
 11
459.34645387089557
 21
411.79130274567768
 31
0.0
  0
SOLID
  5
1E1C
  8
WAKU
  6
CONTINUOUS
 10
459.52427987089561
 20
412.80006074567802
 30
0.0
 11
459.24082287089561
 21
412.31450074567812
 31
0.0
 12
459.94527587089561
 22
412.7776107456782
 32
0.0
 13
459.94527587089561
 23
412.7776107456782
 33
0.0
  0
SOLID
  5
1E1D
  8
WAKU
  6
CONTINUOUS
 10
459.94527587089561
 20
412.7776107456782
 30
0.0
 11
459.24082287089561
 21
412.31450074567812
 31
0.0
 12
459.68363787089561
 22
412.28639174567809
 32
0.0
 13
459.68363787089561
 23
412.28639174567809
 33
0.0
  0
LINE
  5
1E1E
  8
WAKU
  6
CONTINUOUS
 10
459.34645387089557
 20
411.79130274567768
 30
0.0
 11
459.6836378708951
 21
412.28639174567741
 31
0.0
  0
LINE
  5
1E1F
  8
WAKU
  6
CONTINUOUS
 10
459.24082287089561
 20
412.31450074567812
 30
0.0
 11
459.5242798708947
 21
412.80006074567802
 31
0.0
  0
SOLID
  5
1E20
  8
WAKU
  6
CONTINUOUS
 10
460.09238487089573
 20
414.35874974567793
 30
0.0
 11
459.66058287089561
 21
414.27703174567802
 31
0.0
 12
460.19668787089557
 22
414.05227574567829
 32
0.0
 13
460.19668787089557
 23
414.05227574567829
 33
0.0
  0
SOLID
  5
1E21
  8
WAKU
  6
CONTINUOUS
 10
459.66058287089561
 20
414.27703174567802
 30
0.0
 11
459.75872387089561
 21
414.15870074567817
 31
0.0
 12
460.19668787089557
 22
414.05227574567829
 32
0.0
 13
460.19668787089557
 23
414.05227574567829
 33
0.0
  0
SOLID
  5
1E22
  8
WAKU
  6
CONTINUOUS
 10
459.75872387089561
 20
414.15870074567817
 30
0.0
 11
459.81757487089561
 21
413.95803574567771
 31
0.0
 12
460.19668787089557
 22
414.05227574567829
 32
0.0
 13
460.19668787089557
 23
414.05227574567829
 33
0.0
  0
SOLID
  5
1E23
  8
WAKU
  6
CONTINUOUS
 10
460.19668787089557
 20
414.05227574567829
 30
0.0
 11
459.81757487089561
 21
413.95803574567771
 31
0.0
 12
460.20659987089562
 22
413.67707174567829
 32
0.0
 13
460.20659987089562
 23
413.67707174567829
 33
0.0
  0
SOLID
  5
1E24
  8
WAKU
  6
CONTINUOUS
 10
459.81757487089561
 20
413.95803574567771
 30
0.0
 11
459.81213387089548
 21
413.6506467456777
 31
0.0
 12
460.20659987089562
 22
413.67707174567829
 32
0.0
 13
460.20659987089562
 23
413.67707174567829
 33
0.0
  0
LINE
  5
1E25
  8
WAKU
  6
CONTINUOUS
 10
460.0923848708947
 20
414.35874974567793
 30
0.0
 11
459.89752187089562
 21
414.5852347456775
 31
0.0
  0
LINE
  5
1E26
  8
WAKU
  6
CONTINUOUS
 10
460.20659987089562
 20
413.67707174567721
 30
0.0
 11
460.19668787089512
 21
414.05227574567772
 31
0.0
  0
LINE
  5
1E27
  8
WAKU
  6
CONTINUOUS
 10
460.19668787089512
 20
414.05227574567772
 30
0.0
 11
460.0923848708947
 21
414.35874974567793
 31
0.0
  0
LINE
  5
1E28
  8
WAKU
  6
CONTINUOUS
 10
459.81213387089508
 20
413.65064674567708
 30
0.0
 11
459.81757487089482
 21
413.95803574567771
 31
0.0
  0
LINE
  5
1E29
  8
WAKU
  6
CONTINUOUS
 10
459.81757487089482
 20
413.95803574567771
 30
0.0
 11
459.75872387089481
 21
414.15870074567761
 31
0.0
  0
LINE
  5
1E2A
  8
WAKU
  6
CONTINUOUS
 10
459.75872387089481
 20
414.15870074567761
 30
0.0
 11
459.66058287089442
 21
414.27703174567802
 31
0.0
  0
LINE
  5
1E2B
  8
WAKU
  6
CONTINUOUS
 10
459.58469787089513
 20
413.84276974567751
 30
0.0
 11
459.66058287089442
 21
414.27703174567802
 31
0.0
  0
LINE
  5
1E2C
  8
WAKU
  6
CONTINUOUS
 10
459.89752187089562
 20
414.5852347456775
 30
0.0
 11
459.61925687089467
 21
414.72341274567742
 31
0.0
  0
LINE
  5
1E2D
  8
WAKU
  6
CONTINUOUS
 10
459.61925687089467
 20
414.72341274567742
 30
0.0
 11
459.48107887089532
 21
415.00167774567768
 31
0.0
  0
LINE
  5
1E2E
  8
WAKU
  6
CONTINUOUS
 10
459.18784387089522
 20
413.87118474567728
 30
0.0
 11
459.2750018708947
 21
414.37935174567758
 31
0.0
  0
LINE
  5
1E2F
  8
WAKU
  6
CONTINUOUS
 10
459.17271387089539
 20
414.76472674567748
 30
0.0
 11
459.0549208708951
 21
414.8627117456777
 31
0.0
  0
LINE
  5
1E30
  8
WAKU
  6
CONTINUOUS
 10
459.25459387089558
 20
415.1965397456778
 30
0.0
 11
458.94812087089502
 21
415.30084274567793
 31
0.0
  0
SOLID
  5
1E31
  8
WAKU
  6
CONTINUOUS
 10
459.05492087089539
 20
414.8627117456777
 30
0.0
 11
459.17271387089539
 21
414.76472674567799
 31
0.0
 12
459.61925687089558
 22
414.72341274567742
 32
0.0
 13
459.61925687089558
 23
414.72341274567742
 33
0.0
  0
SOLID
  5
1E32
  8
WAKU
  6
CONTINUOUS
 10
459.89752187089562
 20
414.58523474567818
 30
0.0
 11
459.27500187089561
 21
414.37935174567758
 31
0.0
 12
460.09238487089573
 22
414.35874974567793
 32
0.0
 13
460.09238487089573
 23
414.35874974567793
 33
0.0
  0
SOLID
  5
1E33
  8
WAKU
  6
CONTINUOUS
 10
459.27500187089561
 20
414.37935174567758
 30
0.0
 11
459.18784387089562
 21
413.87118474567808
 31
0.0
 12
459.66058287089561
 22
414.27703174567802
 32
0.0
 13
459.66058287089561
 23
414.27703174567802
 33
0.0
  0
SOLID
  5
1E34
  8
WAKU
  6
CONTINUOUS
 10
459.27500187089561
 20
414.37935174567758
 30
0.0
 11
459.66058287089561
 21
414.27703174567802
 31
0.0
 12
460.09238487089573
 22
414.35874974567793
 32
0.0
 13
460.09238487089573
 23
414.35874974567793
 33
0.0
  0
SOLID
  5
1E35
  8
WAKU
  6
CONTINUOUS
 10
459.66058287089561
 20
414.27703174567802
 30
0.0
 11
459.18784387089562
 21
413.87118474567808
 31
0.0
 12
459.5846978708957
 22
413.84276974567808
 32
0.0
 13
459.5846978708957
 23
413.84276974567808
 33
0.0
  0
LINE
  5
1E36
  8
WAKU
  6
CONTINUOUS
 10
459.48107887089532
 20
415.00167774567768
 30
0.0
 11
459.25459387089558
 21
415.1965397456778
 31
0.0
  0
LINE
  5
1E37
  8
WAKU
  6
CONTINUOUS
 10
459.4125048708953
 20
413.36581274567772
 30
0.0
 11
459.58469787089513
 21
413.84276974567751
 31
0.0
  0
LINE
  5
1E38
  8
WAKU
  6
CONTINUOUS
 10
458.73840887089511
 20
414.68879674567768
 30
0.0
 11
458.26141187089507
 21
414.51655074567719
 31
0.0
  0
LINE
  5
1E39
  8
WAKU
  6
CONTINUOUS
 10
458.40103887089469
 20
411.86587174567728
 30
0.0
 11
458.80908887089561
 21
412.35801174567769
 31
0.0
  0
LINE
  5
1E3A
  8
WAKU
  6
CONTINUOUS
 10
458.4760108708947
 20
412.56270274567771
 30
0.0
 11
458.91712587089501
 21
413.240316745678
 31
0.0
  0
LINE
  5
1E3B
  8
WAKU
  6
CONTINUOUS
 10
458.85376887089512
 20
414.92168474567728
 30
0.0
 11
458.54662987089472
 21
414.91636374567759
 31
0.0
  0
SOLID
  5
1E3C
  8
WAKU
  6
CONTINUOUS
 10
458.73840887089563
 20
414.68879674567802
 30
0.0
 11
458.26141187089547
 21
414.5165507456777
 31
0.0
 12
459.89752187089562
 22
414.58523474567818
 32
0.0
 13
459.89752187089562
 23
414.58523474567818
 33
0.0
  0
SOLID
  5
1E3D
  8
WAKU
  6
CONTINUOUS
 10
459.89752187089562
 20
414.58523474567818
 30
0.0
 11
458.26141187089547
 21
414.5165507456777
 31
0.0
 12
459.27500187089561
 22
414.37935174567758
 32
0.0
 13
459.27500187089561
 23
414.37935174567758
 33
0.0
  0
SOLID
  5
1E3E
  8
WAKU
  6
CONTINUOUS
 10
459.4125048708953
 20
413.36581274567772
 30
0.0
 11
458.91712587089592
 21
413.240316745678
 31
0.0
 12
459.15061587089508
 22
412.86447574567819
 32
0.0
 13
459.15061587089508
 23
412.86447574567819
 33
0.0
  0
SOLID
  5
1E3F
  8
WAKU
  6
CONTINUOUS
 10
459.18784387089562
 20
413.87118474567808
 30
0.0
 11
458.91712587089592
 21
413.240316745678
 31
0.0
 12
459.5846978708957
 22
413.84276974567808
 32
0.0
 13
459.5846978708957
 23
413.84276974567808
 33
0.0
  0
SOLID
  5
1E40
  8
WAKU
  6
CONTINUOUS
 10
459.5846978708957
 20
413.84276974567808
 30
0.0
 11
458.91712587089592
 21
413.240316745678
 31
0.0
 12
459.4125048708953
 22
413.36581274567772
 32
0.0
 13
459.4125048708953
 23
413.36581274567772
 33
0.0
  0
LINE
  5
1E41
  8
WAKU
  6
CONTINUOUS
 10
458.91712587089501
 20
413.240316745678
 30
0.0
 11
459.18784387089522
 21
413.87118474567728
 31
0.0
  0
SOLID
  5
1E42
  8
WAKU
  6
CONTINUOUS
 10
458.91712587089592
 20
413.240316745678
 30
0.0
 11
458.47601087089561
 21
412.56270274567771
 31
0.0
 12
459.15061587089508
 22
412.86447574567819
 32
0.0
 13
459.15061587089508
 23
412.86447574567819
 33
0.0
  0
SOLID
  5
1E43
  8
WAKU
  6
CONTINUOUS
 10
459.15061587089508
 20
412.86447574567819
 30
0.0
 11
458.47601087089561
 21
412.56270274567771
 31
0.0
 12
458.80908887089561
 22
412.35801174567769
 32
0.0
 13
458.80908887089561
 23
412.35801174567769
 33
0.0
  0
SOLID
  5
1E44
  8
WAKU
  6
CONTINUOUS
 10
459.34645387089557
 20
411.79130274567802
 30
0.0
 11
458.45173787089561
 21
411.35601474567773
 31
0.0
 12
458.94610787089562
 22
411.3105267456782
 32
0.0
 13
458.94610787089562
 23
411.3105267456782
 33
0.0
  0
LINE
  5
1E45
  8
WAKU
  6
CONTINUOUS
 10
458.4517378708947
 20
411.35601474567773
 30
0.0
 11
459.24082287089561
 21
412.31450074567812
 31
0.0
  0
LINE
  5
1E46
  8
WAKU
  6
CONTINUOUS
 10
458.49730487089522
 20
410.8617237456773
 30
0.0
 11
458.94610787089471
 21
411.31052674567741
 31
0.0
  0
LINE
  5
1E47
  8
WAKU
  6
CONTINUOUS
 10
458.80908887089561
 20
412.35801174567769
 30
0.0
 11
459.15061587089508
 21
412.86447574567819
 31
0.0
  0
SOLID
  5
1E48
  8
WAKU
  6
CONTINUOUS
 10
459.24082287089561
 20
412.31450074567812
 30
0.0
 11
458.45173787089561
 21
411.35601474567773
 31
0.0
 12
459.68363787089561
 22
412.28639174567809
 32
0.0
 13
459.68363787089561
 23
412.28639174567809
 33
0.0
  0
SOLID
  5
1E49
  8
WAKU
  6
CONTINUOUS
 10
459.68363787089561
 20
412.28639174567809
 30
0.0
 11
458.45173787089561
 21
411.35601474567773
 31
0.0
 12
459.34645387089557
 22
411.79130274567802
 32
0.0
 13
459.34645387089557
 23
411.79130274567802
 33
0.0
  0
LINE
  5
1E4A
  8
WAKU
  6
CONTINUOUS
 10
459.2750018708947
 20
414.37935174567758
 30
0.0
 11
458.76651087089539
 21
414.2920227456778
 31
0.0
  0
LINE
  5
1E4B
  8
WAKU
  6
CONTINUOUS
 10
459.17271387089539
 20
414.76472674567748
 30
0.0
 11
458.73840887089511
 21
414.68879674567768
 31
0.0
  0
LINE
  5
1E4C
  8
WAKU
  6
CONTINUOUS
 10
459.0549208708951
 20
414.8627117456777
 30
0.0
 11
458.85376887089512
 21
414.92168474567728
 31
0.0
  0
LINE
  5
1E4D
  8
WAKU
  6
CONTINUOUS
 10
458.94812087089502
 20
415.30084274567793
 30
0.0
 11
458.57291587089509
 21
415.3107547456778
 31
0.0
  0
SOLID
  5
1E4E
  8
WAKU
  6
CONTINUOUS
 10
459.48107887089571
 20
415.00167774567819
 30
0.0
 11
458.85376887089592
 21
414.92168474567819
 31
0.0
 12
459.61925687089558
 22
414.72341274567742
 32
0.0
 13
459.61925687089558
 23
414.72341274567742
 33
0.0
  0
SOLID
  5
1E4F
  8
WAKU
  6
CONTINUOUS
 10
458.85376887089592
 20
414.92168474567819
 30
0.0
 11
459.05492087089539
 21
414.8627117456777
 31
0.0
 12
459.61925687089558
 22
414.72341274567742
 32
0.0
 13
459.61925687089558
 23
414.72341274567742
 33
0.0
  0
SOLID
  5
1E50
  8
WAKU
  6
CONTINUOUS
 10
459.17271387089539
 20
414.76472674567799
 30
0.0
 11
458.73840887089563
 21
414.68879674567802
 31
0.0
 12
459.61925687089558
 22
414.72341274567742
 32
0.0
 13
459.61925687089558
 23
414.72341274567742
 33
0.0
  0
SOLID
  5
1E51
  8
WAKU
  6
CONTINUOUS
 10
459.61925687089558
 20
414.72341274567742
 30
0.0
 11
458.73840887089563
 21
414.68879674567802
 31
0.0
 12
459.89752187089562
 22
414.58523474567818
 32
0.0
 13
459.89752187089562
 23
414.58523474567818
 33
0.0
  0
SOLID
  5
1E52
  8
WAKU
  6
CONTINUOUS
 10
455.75756787089563
 20
413.60145974567752
 30
0.0
 11
455.35722187089539
 21
413.12068374567798
 31
0.0
 12
456.25187087089569
 22
413.55589074567808
 32
0.0
 13
456.25187087089569
 23
413.55589074567808
 33
0.0
  0
SOLID
  5
1E53
  8
WAKU
  6
CONTINUOUS
 10
456.25187087089569
 20
413.55589074567808
 30
0.0
 11
455.35722187089539
 21
413.12068374567798
 31
0.0
 12
455.46280787089557
 22
412.59735274567771
 32
0.0
 13
455.46280787089557
 23
412.59735274567771
 33
0.0
  0
LINE
  5
1E54
  8
WAKU
  6
CONTINUOUS
 10
456.25187087089512
 20
413.55589074567729
 30
0.0
 11
455.46280787089472
 21
412.59735274567771
 31
0.0
  0
SOLID
  5
1E55
  8
WAKU
  6
CONTINUOUS
 10
456.30249287089578
 20
413.0459567456781
 30
0.0
 11
455.89444387089588
 21
412.55378274567778
 31
0.0
 12
456.80159987089559
 22
413.00567574567771
 32
0.0
 13
456.80159987089559
 23
413.00567574567771
 33
0.0
  0
SOLID
  5
1E56
  8
WAKU
  6
CONTINUOUS
 10
456.80159987089559
 20
413.00567574567771
 30
0.0
 11
455.89444387089588
 21
412.55378274567778
 31
0.0
 12
456.2276688708958
 22
412.34925374567808
 32
0.0
 13
456.2276688708958
 23
412.34925374567808
 33
0.0
  0
SOLID
  5
1E57
  8
WAKU
  6
CONTINUOUS
 10
455.89444387089588
 20
412.55378274567778
 30
0.0
 11
455.5529288708957
 21
412.0472917456778
 31
0.0
 12
456.2276688708958
 22
412.34925374567808
 32
0.0
 13
456.2276688708958
 23
412.34925374567808
 33
0.0
  0
SOLID
  5
1E58
  8
WAKU
  6
CONTINUOUS
 10
456.2276688708958
 20
412.34925374567808
 30
0.0
 11
455.5529288708957
 21
412.0472917456778
 31
0.0
 12
455.78648487089561
 22
411.67165774567809
 32
0.0
 13
455.78648487089561
 23
411.67165774567809
 33
0.0
  0
SOLID
  5
1E59
  8
WAKU
  6
CONTINUOUS
 10
456.56803587089581
 20
410.8911147456771
 30
0.0
 11
455.93716787089568
 21
410.61997774567777
 31
0.0
 12
456.9435428708955
 22
410.65732774567817
 32
0.0
 13
456.9435428708955
 23
410.65732774567817
 33
0.0
  0
SOLID
  5
1E5A
  8
WAKU
  6
CONTINUOUS
 10
456.9435428708955
 20
410.65732774567817
 30
0.0
 11
455.93716787089568
 21
410.61997774567777
 31
0.0
 12
456.4422008708957
 22
410.3954077456782
 32
0.0
 13
456.4422008708957
 23
410.3954077456782
 33
0.0
  0
SOLID
  5
1E5B
  8
WAKU
  6
CONTINUOUS
 10
455.93716787089568
 20
410.61997774567777
 30
0.0
 11
455.4286838708955
 21
410.53263874567813
 31
0.0
 12
456.4422008708957
 22
410.3954077456782
 32
0.0
 13
456.4422008708957
 23
410.3954077456782
 33
0.0
  0
SOLID
  5
1E5C
  8
WAKU
  6
CONTINUOUS
 10
455.4286838708955
 20
410.53263874567813
 30
0.0
 11
454.80615387089563
 21
410.32675174567822
 31
0.0
 12
456.4422008708957
 22
410.3954077456782
 32
0.0
 13
456.4422008708957
 23
410.3954077456782
 33
0.0
  0
SOLID
  5
1E5D
  8
WAKU
  6
CONTINUOUS
 10
456.4422008708957
 20
410.3954077456782
 30
0.0
 11
454.80615387089563
 21
410.32675174567822
 31
0.0
 12
455.96523087089508
 22
410.22317974567801
 32
0.0
 13
455.96523087089508
 23
410.22317974567801
 33
0.0
  0
SOLID
  5
1E5E
  8
WAKU
  6
CONTINUOUS
 10
454.80615387089563
 20
410.32675174567822
 30
0.0
 11
455.08441887089589
 21
410.18857374567801
 31
0.0
 12
455.96523087089508
 22
410.22317974567801
 32
0.0
 13
455.96523087089508
 23
410.22317974567801
 33
0.0
  0
SOLID
  5
1E5F
  8
WAKU
  6
CONTINUOUS
 10
455.96523087089508
 20
410.22317974567801
 30
0.0
 11
455.08441887089589
 21
410.18857374567801
 31
0.0
 12
455.5309498708956
 22
410.14725874567807
 32
0.0
 13
455.5309498708956
 23
410.14725874567807
 33
0.0
  0
SOLID
  5
1E60
  8
WAKU
  6
CONTINUOUS
 10
456.15706687089562
 20
409.99564574567802
 30
0.0
 11
455.84994987089573
 21
409.99028074567832
 31
0.0
 12
457.03022087089562
 22
409.86255574567809
 32
0.0
 13
457.03022087089562
 23
409.86255574567809
 33
0.0
  0
SOLID
  5
1E61
  8
WAKU
  6
CONTINUOUS
 10
455.84994987089573
 20
409.99028074567832
 30
0.0
 11
455.2225968708957
 21
409.91030874567792
 31
0.0
 12
457.03022087089562
 22
409.86255574567809
 32
0.0
 13
457.03022087089562
 23
409.86255574567809
 33
0.0
  0
SOLID
  5
1E62
  8
WAKU
  6
CONTINUOUS
 10
455.2225968708957
 20
409.91030874567792
 30
0.0
 11
455.44908187089561
 21
409.7154467456777
 31
0.0
 12
457.03022087089562
 22
409.86255574567809
 32
0.0
 13
457.03022087089562
 23
409.86255574567809
 33
0.0
  0
SOLID
  5
1E63
  8
WAKU
  6
CONTINUOUS
 10
457.03022087089562
 20
409.86255574567809
 30
0.0
 11
455.44908187089561
 21
409.7154467456777
 31
0.0
 12
456.5609148708956
 22
409.68607374567802
 32
0.0
 13
456.5609148708956
 23
409.68607374567802
 33
0.0
  0
SOLID
  5
1E64
  8
WAKU
  6
CONTINUOUS
 10
455.44908187089561
 20
409.7154467456777
 30
0.0
 11
455.75555487089559
 21
409.61114374567819
 31
0.0
 12
456.5609148708956
 22
409.68607374567802
 32
0.0
 13
456.5609148708956
 23
409.68607374567802
 33
0.0
  0
SOLID
  5
1E65
  8
WAKU
  6
CONTINUOUS
 10
456.5609148708956
 20
409.68607374567802
 30
0.0
 11
455.75555487089559
 21
409.61114374567819
 31
0.0
 12
456.13075987089508
 22
409.60123174567792
 32
0.0
 13
456.13075987089508
 23
409.60123174567792
 33
0.0
  0
LINE
  5
1E66
  8
WAKU
  6
CONTINUOUS
 10
455.5309498708956
 20
410.1472587456775
 30
0.0
 11
455.96523087089503
 21
410.22317974567801
 31
0.0
  0
LINE
  5
1E67
  8
WAKU
  6
CONTINUOUS
 10
455.75555487089508
 20
409.61114374567819
 30
0.0
 11
456.13075987089508
 21
409.60123174567792
 31
0.0
  0
LINE
  5
1E68
  8
WAKU
  6
CONTINUOUS
 10
455.93716787089483
 20
410.61997774567777
 30
0.0
 11
456.5680358708953
 21
410.8911147456771
 31
0.0
  0
LINE
  5
1E69
  8
WAKU
  6
CONTINUOUS
 10
455.8499498708951
 20
409.99028074567741
 30
0.0
 11
456.15706687089562
 21
409.99564574567768
 31
0.0
  0
LINE
  5
1E6A
  8
WAKU
  6
CONTINUOUS
 10
456.22766887089512
 20
412.34925374567808
 30
0.0
 11
455.7864848708947
 21
411.67165774567752
 31
0.0
  0
LINE
  5
1E6B
  8
WAKU
  6
CONTINUOUS
 10
456.30249287089561
 20
413.04595674567759
 30
0.0
 11
455.89444387089537
 21
412.55378274567778
 31
0.0
  0
SOLID
  5
1E6C
  8
WAKU
  6
CONTINUOUS
 10
456.20637187089562
 20
414.05026274567751
 30
0.0
 11
455.75756787089563
 21
413.60145974567752
 31
0.0
 12
456.25187087089569
 22
413.55589074567808
 32
0.0
 13
456.25187087089569
 23
413.55589074567808
 33
0.0
  0
LINE
  5
1E6D
  8
WAKU
  6
CONTINUOUS
 10
456.20637187089523
 20
414.05026274567729
 30
0.0
 11
455.75756787089563
 21
413.60145974567752
 31
0.0
  0
LINE
  5
1E6E
  8
WAKU
  6
CONTINUOUS
 10
455.75756787089563
 20
413.60145974567752
 30
0.0
 11
455.35722187089539
 21
413.1206837456777
 31
0.0
  0
SOLID
  5
1E6F
  8
WAKU
  6
CONTINUOUS
 10
455.35722187089539
 20
413.12068374567798
 30
0.0
 11
455.02003787089512
 21
412.62559474567809
 31
0.0
 12
455.46280787089557
 22
412.59735274567771
 32
0.0
 13
455.46280787089557
 23
412.59735274567771
 33
0.0
  0
SOLID
  5
1E70
  8
WAKU
  6
CONTINUOUS
 10
455.02003787089512
 20
412.62559474567809
 30
0.0
 11
454.75839987089557
 21
412.13437574567752
 31
0.0
 12
455.46280787089557
 22
412.59735274567771
 32
0.0
 13
455.46280787089557
 23
412.59735274567771
 33
0.0
  0
SOLID
  5
1E71
  8
WAKU
  6
CONTINUOUS
 10
455.46280787089557
 20
412.59735274567771
 30
0.0
 11
454.75839987089557
 21
412.13437574567752
 31
0.0
 12
455.17929187089572
 22
412.1118107456781
 32
0.0
 13
455.17929187089572
 23
412.1118107456781
 33
0.0
  0
SOLID
  5
1E72
  8
WAKU
  6
CONTINUOUS
 10
455.5529288708957
 20
412.0472917456778
 30
0.0
 11
455.29106587089558
 21
411.54593674567798
 31
0.0
 12
455.78648487089561
 22
411.67165774567809
 32
0.0
 13
455.78648487089561
 23
411.67165774567809
 33
0.0
  0
SOLID
  5
1E73
  8
WAKU
  6
CONTINUOUS
 10
455.78648487089561
 20
411.67165774567809
 30
0.0
 11
455.29106587089558
 21
411.54593674567798
 31
0.0
 12
455.51594087089558
 22
411.04075174567799
 32
0.0
 13
455.51594087089558
 23
411.04075174567799
 33
0.0
  0
SOLID
  5
1E74
  8
WAKU
  6
CONTINUOUS
 10
455.29106587089558
 20
411.54593674567798
 30
0.0
 11
455.1189118708956
 21
411.06897174567769
 31
0.0
 12
455.51594087089558
 22
411.04075174567799
 32
0.0
 13
455.51594087089558
 23
411.04075174567799
 33
0.0
  0
SOLID
  5
1E75
  8
WAKU
  6
CONTINUOUS
 10
455.1189118708956
 20
411.06897174567769
 30
0.0
 11
455.04307787089562
 21
410.63471774567802
 31
0.0
 12
455.51594087089558
 22
411.04075174567799
 32
0.0
 13
455.51594087089558
 23
411.04075174567799
 33
0.0
  0
SOLID
  5
1E76
  8
WAKU
  6
CONTINUOUS
 10
455.51594087089558
 20
411.04075174567799
 30
0.0
 11
455.04307787089562
 21
410.63471774567802
 31
0.0
 12
455.4286838708955
 22
410.53263874567813
 32
0.0
 13
455.4286838708955
 23
410.53263874567813
 33
0.0
  0
SOLID
  5
1E77
  8
WAKU
  6
CONTINUOUS
 10
455.08441887089589
 20
410.18857374567801
 30
0.0
 11
455.2225968708957
 21
409.91030874567792
 31
0.0
 12
455.5309498708956
 22
410.14725874567807
 32
0.0
 13
455.5309498708956
 23
410.14725874567807
 33
0.0
  0
SOLID
  5
1E78
  8
WAKU
  6
CONTINUOUS
 10
455.5309498708956
 20
410.14725874567807
 30
0.0
 11
455.2225968708957
 21
409.91030874567792
 31
0.0
 12
455.6486998708956
 22
410.04935074567823
 32
0.0
 13
455.6486998708956
 23
410.04935074567823
 33
0.0
  0
SOLID
  5
1E79
  8
WAKU
  6
CONTINUOUS
 10
455.6486998708956
 20
410.04935074567823
 30
0.0
 11
455.2225968708957
 21
409.91030874567792
 31
0.0
 12
455.84994987089573
 22
409.99028074567832
 32
0.0
 13
455.84994987089573
 23
409.99028074567832
 33
0.0
  0
LINE
  5
1E7A
  8
WAKU
  6
CONTINUOUS
 10
455.55292887089479
 20
412.0472917456778
 30
0.0
 11
455.29106587089518
 21
411.54593674567769
 31
0.0
  0
LINE
  5
1E7B
  8
WAKU
  6
CONTINUOUS
 10
454.98726287089562
 20
411.65680374567768
 30
0.0
 11
454.89146887089561
 21
411.26118674567761
 31
0.0
  0
LINE
  5
1E7C
  8
WAKU
  6
CONTINUOUS
 10
455.7864848708947
 20
411.67165774567752
 30
0.0
 11
455.51594087089558
 21
411.0407517456772
 31
0.0
  0
LINE
  5
1E7D
  8
WAKU
  6
CONTINUOUS
 10
455.51594087089558
 20
411.0407517456772
 30
0.0
 11
455.4286838708951
 21
410.53263874567801
 31
0.0
  0
LINE
  5
1E7E
  8
WAKU
  6
CONTINUOUS
 10
454.80615387089563
 20
410.32675174567822
 30
0.0
 11
455.08441887089509
 21
410.18857374567727
 31
0.0
  0
LINE
  5
1E7F
  8
WAKU
  6
CONTINUOUS
 10
455.08441887089509
 20
410.18857374567727
 30
0.0
 11
455.2225968708953
 21
409.91030874567792
 31
0.0
  0
LINE
  5
1E80
  8
WAKU
  6
CONTINUOUS
 10
455.2225968708953
 20
409.91030874567792
 30
0.0
 11
455.44908187089538
 21
409.7154467456777
 31
0.0
  0
LINE
  5
1E81
  8
WAKU
  6
CONTINUOUS
 10
455.44908187089538
 20
409.7154467456777
 30
0.0
 11
455.75555487089508
 21
409.61114374567819
 31
0.0
  0
LINE
  5
1E82
  8
WAKU
  6
CONTINUOUS
 10
455.29106587089518
 20
411.54593674567769
 30
0.0
 11
455.1189118708956
 21
411.06897174567769
 31
0.0
  0
LINE
  5
1E83
  8
WAKU
  6
CONTINUOUS
 10
455.1189118708956
 20
411.06897174567769
 30
0.0
 11
455.04307787089562
 21
410.63471774567751
 31
0.0
  0
LINE
  5
1E84
  8
WAKU
  6
CONTINUOUS
 10
455.4286838708951
 20
410.53263874567801
 30
0.0
 11
455.93716787089483
 21
410.61997774567777
 31
0.0
  0
LINE
  5
1E85
  8
WAKU
  6
CONTINUOUS
 10
454.89146887089561
 20
411.26118674567761
 30
0.0
 11
454.8861308708947
 21
410.9538697456772
 31
0.0
  0
LINE
  5
1E86
  8
WAKU
  6
CONTINUOUS
 10
454.8861308708947
 20
410.9538697456772
 30
0.0
 11
454.94492787089558
 21
410.75321774567772
 31
0.0
  0
LINE
  5
1E87
  8
WAKU
  6
CONTINUOUS
 10
454.94492787089558
 20
410.75321774567772
 30
0.0
 11
455.04307787089562
 21
410.63471774567751
 31
0.0
  0
LINE
  5
1E88
  8
WAKU
  6
CONTINUOUS
 10
455.5309498708956
 20
410.1472587456775
 30
0.0
 11
455.6486998708956
 21
410.04935074567823
 31
0.0
  0
LINE
  5
1E89
  8
WAKU
  6
CONTINUOUS
 10
455.6486998708956
 20
410.04935074567823
 30
0.0
 11
455.8499498708951
 21
409.99028074567741
 31
0.0
  0
LINE
  5
1E8A
  8
WAKU
  6
CONTINUOUS
 10
455.89444387089537
 20
412.55378274567778
 30
0.0
 11
455.55292887089479
 21
412.0472917456778
 31
0.0
  0
LINE
  5
1E8B
  8
WAKU
  6
CONTINUOUS
 10
455.46280787089472
 20
412.59735274567771
 30
0.0
 11
455.1792918708947
 21
412.1118107456781
 31
0.0
  0
LINE
  5
1E8C
  8
WAKU
  6
CONTINUOUS
 10
455.1792918708947
 20
412.1118107456781
 30
0.0
 11
454.98726287089562
 21
411.65680374567768
 31
0.0
  0
LINE
  5
1E8D
  8
WAKU
  6
CONTINUOUS
 10
455.02003787089478
 20
412.62559474567809
 30
0.0
 11
454.75839987089557
 21
412.13437574567752
 31
0.0
  0
LINE
  5
1E8E
  8
WAKU
  6
CONTINUOUS
 10
455.35722187089539
 20
413.1206837456777
 30
0.0
 11
455.02003787089478
 21
412.62559474567809
 31
0.0
  0
LINE
  5
1E8F
  8
WAKU
  6
CONTINUOUS
 10
454.5819188708947
 20
411.66506974567727
 30
0.0
 11
454.49707587089563
 21
411.234914745678
 31
0.0
  0
LINE
  5
1E90
  8
WAKU
  6
CONTINUOUS
 10
454.49707587089563
 20
411.234914745678
 30
0.0
 11
454.50698787089539
 21
410.85971074567777
 31
0.0
  0
LINE
  5
1E91
  8
WAKU
  6
CONTINUOUS
 10
454.50698787089539
 20
410.85971074567777
 30
0.0
 11
454.61129087089557
 21
410.55323674567768
 31
0.0
  0
SOLID
  5
1E92
  8
WAKU
  6
CONTINUOUS
 10
454.75839987089557
 20
412.13437574567752
 30
0.0
 11
454.58191887089538
 21
411.66506974567812
 31
0.0
 12
455.17929187089572
 22
412.1118107456781
 32
0.0
 13
455.17929187089572
 23
412.1118107456781
 33
0.0
  0
SOLID
  5
1E93
  8
WAKU
  6
CONTINUOUS
 10
455.17929187089572
 20
412.1118107456781
 30
0.0
 11
454.58191887089538
 21
411.66506974567812
 31
0.0
 12
454.98726287089562
 22
411.65680374567768
 32
0.0
 13
454.98726287089562
 23
411.65680374567768
 33
0.0
  0
SOLID
  5
1E94
  8
WAKU
  6
CONTINUOUS
 10
454.58191887089538
 20
411.66506974567812
 30
0.0
 11
454.49707587089512
 21
411.234914745678
 31
0.0
 12
454.98726287089562
 22
411.65680374567768
 32
0.0
 13
454.98726287089562
 23
411.65680374567768
 33
0.0
  0
SOLID
  5
1E95
  8
WAKU
  6
CONTINUOUS
 10
454.98726287089562
 20
411.65680374567768
 30
0.0
 11
454.49707587089512
 21
411.234914745678
 31
0.0
 12
454.89146887089561
 22
411.26118674567829
 32
0.0
 13
454.89146887089561
 23
411.26118674567829
 33
0.0
  0
SOLID
  5
1E96
  8
WAKU
  6
CONTINUOUS
 10
454.89146887089561
 20
411.26118674567829
 30
0.0
 11
454.49707587089512
 21
411.234914745678
 31
0.0
 12
454.88613087089561
 22
410.95386974567799
 32
0.0
 13
454.88613087089561
 23
410.95386974567799
 33
0.0
  0
SOLID
  5
1E97
  8
WAKU
  6
CONTINUOUS
 10
454.49707587089512
 20
411.234914745678
 30
0.0
 11
454.50698787089561
 21
410.85971074567777
 31
0.0
 12
454.88613087089561
 22
410.95386974567799
 32
0.0
 13
454.88613087089561
 23
410.95386974567799
 33
0.0
  0
SOLID
  5
1E98
  8
WAKU
  6
CONTINUOUS
 10
454.88613087089561
 20
410.95386974567799
 30
0.0
 11
454.50698787089561
 21
410.85971074567777
 31
0.0
 12
454.94492787089558
 22
410.75321774567772
 32
0.0
 13
454.94492787089558
 23
410.75321774567772
 33
0.0
  0
SOLID
  5
1E99
  8
WAKU
  6
CONTINUOUS
 10
454.50698787089561
 20
410.85971074567777
 30
0.0
 11
454.61129087089557
 21
410.55323674567768
 31
0.0
 12
454.94492787089558
 22
410.75321774567772
 32
0.0
 13
454.94492787089558
 23
410.75321774567772
 33
0.0
  0
SOLID
  5
1E9A
  8
WAKU
  6
CONTINUOUS
 10
454.94492787089558
 20
410.75321774567772
 30
0.0
 11
454.61129087089557
 21
410.55323674567768
 31
0.0
 12
455.04307787089562
 22
410.63471774567802
 32
0.0
 13
455.04307787089562
 23
410.63471774567802
 33
0.0
  0
SOLID
  5
1E9B
  8
WAKU
  6
CONTINUOUS
 10
455.04307787089562
 20
410.63471774567802
 30
0.0
 11
454.61129087089557
 21
410.55323674567768
 31
0.0
 12
455.4286838708955
 22
410.53263874567813
 32
0.0
 13
455.4286838708955
 23
410.53263874567813
 33
0.0
  0
SOLID
  5
1E9C
  8
WAKU
  6
CONTINUOUS
 10
454.61129087089557
 20
410.55323674567768
 30
0.0
 11
454.80615387089563
 21
410.32675174567822
 31
0.0
 12
455.4286838708955
 22
410.53263874567813
 32
0.0
 13
455.4286838708955
 23
410.53263874567813
 33
0.0
  0
LINE
  5
1E9D
  8
WAKU
  6
CONTINUOUS
 10
454.61129087089557
 20
410.55323674567768
 30
0.0
 11
454.80615387089563
 21
410.32675174567822
 31
0.0
  0
LINE
  5
1E9E
  8
WAKU
  6
CONTINUOUS
 10
454.75839987089557
 20
412.13437574567752
 30
0.0
 11
454.5819188708947
 21
411.66506974567727
 31
0.0
  0
SOLID
  5
1E9F
  8
WAKU
  6
CONTINUOUS
 10
457.45795387089561
 20
413.57977374567821
 30
0.0
 11
456.76140487089538
 21
413.50491074567771
 31
0.0
 12
456.80159987089559
 22
413.00567574567771
 32
0.0
 13
456.80159987089559
 23
413.00567574567771
 33
0.0
  0
SOLID
  5
1EA0
  8
WAKU
  6
CONTINUOUS
 10
456.76140487089538
 20
413.50491074567771
 30
0.0
 11
456.30249287089578
 21
413.0459567456781
 31
0.0
 12
456.80159987089559
 22
413.00567574567771
 32
0.0
 13
456.80159987089559
 23
413.00567574567771
 33
0.0
  0
LINE
  5
1EA1
  8
WAKU
  6
CONTINUOUS
 10
456.76140487089469
 20
413.50491074567771
 30
0.0
 11
456.30249287089561
 21
413.04595674567759
 31
0.0
  0
LINE
  5
1EA2
  8
WAKU
  6
CONTINUOUS
 10
457.45795387089561
 20
413.57977374567758
 30
0.0
 11
456.80159987089559
 21
413.00567574567771
 31
0.0
  0
SOLID
  5
1EA3
  8
WAKU
  6
CONTINUOUS
 10
457.94213587089558
 20
411.40695374567758
 30
0.0
 11
457.24571287089589
 21
411.33221374567819
 31
0.0
 12
457.45000487089561
 22
410.99888174567798
 32
0.0
 13
457.45000487089561
 23
410.99888174567798
 33
0.0
  0
SOLID
  5
1EA4
  8
WAKU
  6
CONTINUOUS
 10
457.24571287089589
 20
411.33221374567819
 30
0.0
 11
456.56803587089581
 21
410.8911147456771
 31
0.0
 12
457.45000487089561
 22
410.99888174567798
 32
0.0
 13
457.45000487089561
 23
410.99888174567798
 33
0.0
  0
SOLID
  5
1EA5
  8
WAKU
  6
CONTINUOUS
 10
457.45000487089561
 20
410.99888174567798
 30
0.0
 11
456.56803587089581
 21
410.8911147456771
 31
0.0
 12
456.9435428708955
 22
410.65732774567817
 32
0.0
 13
456.9435428708955
 23
410.65732774567817
 33
0.0
  0
SOLID
  5
1EA6
  8
WAKU
  6
CONTINUOUS
 10
457.49326987089557
 20
410.56689974567769
 30
0.0
 11
457.00765487089518
 21
410.28358074567751
 31
0.0
 12
458.01652887089563
 22
410.46137774567819
 32
0.0
 13
458.01652887089563
 23
410.46137774567819
 33
0.0
  0
SOLID
  5
1EA7
  8
WAKU
  6
CONTINUOUS
 10
458.01652887089563
 20
410.46137774567819
 30
0.0
 11
457.00765487089518
 21
410.28358074567751
 31
0.0
 12
457.52143887089562
 22
410.1241937456781
 32
0.0
 13
457.52143887089562
 23
410.1241937456781
 33
0.0
  0
SOLID
  5
1EA8
  8
WAKU
  6
CONTINUOUS
 10
457.00765487089518
 20
410.28358074567751
 30
0.0
 11
456.55275687089471
 21
410.09115074567819
 31
0.0
 12
457.52143887089562
 22
410.1241937456781
 32
0.0
 13
457.52143887089562
 23
410.1241937456781
 33
0.0
  0
SOLID
  5
1EA9
  8
WAKU
  6
CONTINUOUS
 10
457.52143887089562
 20
410.1241937456781
 30
0.0
 11
456.55275687089471
 21
410.09115074567819
 31
0.0
 12
457.03022087089562
 22
409.86255574567809
 32
0.0
 13
457.03022087089562
 23
409.86255574567809
 33
0.0
  0
LINE
  5
1EAA
  8
WAKU
  6
CONTINUOUS
 10
457.24571287089481
 20
411.33221374567728
 30
0.0
 11
457.90206887089562
 21
411.90628874567761
 31
0.0
  0
LINE
  5
1EAB
  8
WAKU
  6
CONTINUOUS
 10
456.9435428708947
 20
410.65732774567772
 30
0.0
 11
457.45000487089561
 21
410.99888174567792
 31
0.0
  0
LINE
  5
1EAC
  8
WAKU
  6
CONTINUOUS
 10
457.03022087089471
 20
409.86255574567758
 30
0.0
 11
457.52143887089522
 21
410.1241937456777
 31
0.0
  0
LINE
  5
1EAD
  8
WAKU
  6
CONTINUOUS
 10
457.00765487089518
 20
410.28358074567751
 30
0.0
 11
457.49326987089512
 21
410.56689974567769
 31
0.0
  0
SOLID
  5
1EAE
  8
WAKU
  6
CONTINUOUS
 10
456.55275687089471
 20
410.09115074567819
 30
0.0
 11
456.15706687089562
 21
409.99564574567802
 31
0.0
 12
457.03022087089562
 22
409.86255574567809
 32
0.0
 13
457.03022087089562
 23
409.86255574567809
 33
0.0
  0
LINE
  5
1EAF
  8
WAKU
  6
CONTINUOUS
 10
456.15706687089562
 20
409.99564574567768
 30
0.0
 11
456.55275687089562
 21
410.09115074567768
 31
0.0
  0
LINE
  5
1EB0
  8
WAKU
  6
CONTINUOUS
 10
455.96523087089503
 20
410.22317974567801
 30
0.0
 11
456.4422008708944
 21
410.3954077456782
 31
0.0
  0
LINE
  5
1EB1
  8
WAKU
  6
CONTINUOUS
 10
456.4422008708944
 20
410.3954077456782
 30
0.0
 11
456.9435428708947
 21
410.65732774567772
 31
0.0
  0
LINE
  5
1EB2
  8
WAKU
  6
CONTINUOUS
 10
456.5609148708956
 20
409.68607374567802
 30
0.0
 11
457.03022087089471
 21
409.86255574567758
 31
0.0
  0
LINE
  5
1EB3
  8
WAKU
  6
CONTINUOUS
 10
456.5680358708953
 20
410.8911147456771
 30
0.0
 11
457.24571287089481
 21
411.33221374567728
 31
0.0
  0
LINE
  5
1EB4
  8
WAKU
  6
CONTINUOUS
 10
456.55275687089562
 20
410.09115074567768
 30
0.0
 11
457.00765487089518
 21
410.28358074567751
 31
0.0
  0
LINE
  5
1EB5
  8
WAKU
  6
CONTINUOUS
 10
456.13075987089508
 20
409.60123174567792
 30
0.0
 11
456.5609148708956
 21
409.68607374567802
 31
0.0
  0
LINE
  5
1EB6
  8
WAKU
  6
CONTINUOUS
 10
456.80159987089559
 20
413.00567574567771
 30
0.0
 11
456.22766887089512
 21
412.34925374567808
 31
0.0
  0
LINE
  5
1EB7
  8
WAKU
  6
CONTINUOUS
 10
457.52143887089522
 20
410.1241937456777
 30
0.0
 11
458.01652887089563
 21
410.46137774567751
 31
0.0
  0
LINE
  5
1EB8
  8
WAKU
  6
CONTINUOUS
 10
457.45000487089561
 20
410.99888174567792
 30
0.0
 11
457.9421358708953
 21
411.40695374567758
 31
0.0
  0
SOLID
  5
1EB9
  8
WAKU
  6
CONTINUOUS
 10
458.15091287089592
 20
414.82084774567818
 30
0.0
 11
457.18223687089562
 21
414.78779274567802
 31
0.0
 12
457.69600787089507
 22
414.6283677456783
 32
0.0
 13
457.69600787089507
 23
414.6283677456783
 33
0.0
  0
SOLID
  5
1EBA
  8
WAKU
  6
CONTINUOUS
 10
457.18223687089562
 20
414.78779274567802
 30
0.0
 11
456.68714687089539
 21
414.4506087456781
 31
0.0
 12
457.69600787089507
 22
414.6283677456783
 32
0.0
 13
457.69600787089507
 23
414.6283677456783
 33
0.0
  0
SOLID
  5
1EBB
  8
WAKU
  6
CONTINUOUS
 10
457.69600787089507
 20
414.6283677456783
 30
0.0
 11
456.68714687089539
 21
414.4506087456781
 31
0.0
 12
457.21035987089562
 22
414.34506674567808
 32
0.0
 13
457.21035987089562
 23
414.34506674567808
 33
0.0
  0
SOLID
  5
1EBC
  8
WAKU
  6
CONTINUOUS
 10
457.76004187089558
 20
414.25460374567729
 30
0.0
 11
457.25355587089558
 21
413.91301774567802
 31
0.0
 12
458.13565087089569
 22
414.02083974567768
 32
0.0
 13
458.13565087089569
 23
414.02083974567768
 33
0.0
  0
LINE
  5
1EBD
  8
WAKU
  6
CONTINUOUS
 10
457.69600787089507
 20
414.62836774567711
 30
0.0
 11
457.21035987089562
 21
414.34506674567729
 31
0.0
  0
LINE
  5
1EBE
  8
WAKU
  6
CONTINUOUS
 10
457.76004187089518
 20
414.25460374567729
 30
0.0
 11
457.25355587089558
 21
413.91301774567768
 31
0.0
  0
LINE
  5
1EBF
  8
WAKU
  6
CONTINUOUS
 10
457.67345587089471
 20
415.0494307456778
 30
0.0
 11
457.18223687089471
 21
414.78779274567802
 31
0.0
  0
SOLID
  5
1EC0
  8
WAKU
  6
CONTINUOUS
 10
458.13565087089569
 20
414.02083974567768
 30
0.0
 11
457.25355587089558
 21
413.91301774567802
 31
0.0
 12
457.45795387089561
 22
413.57977374567821
 32
0.0
 13
457.45795387089561
 23
413.57977374567821
 33
0.0
  0
SOLID
  5
1EC1
  8
WAKU
  6
CONTINUOUS
 10
457.25355587089558
 20
413.91301774567802
 30
0.0
 11
456.76140487089538
 21
413.50491074567771
 31
0.0
 12
457.45795387089561
 22
413.57977374567821
 32
0.0
 13
457.45795387089561
 23
413.57977374567821
 33
0.0
  0
SOLID
  5
1EC2
  8
WAKU
  6
CONTINUOUS
 10
456.68714687089539
 20
414.4506087456781
 30
0.0
 11
456.20637187089562
 21
414.05026274567751
 31
0.0
 12
457.21035987089562
 22
414.34506674567808
 32
0.0
 13
457.21035987089562
 23
414.34506674567808
 33
0.0
  0
LINE
  5
1EC3
  8
WAKU
  6
CONTINUOUS
 10
456.68714687089539
 20
414.4506087456781
 30
0.0
 11
456.20637187089523
 21
414.05026274567729
 31
0.0
  0
LINE
  5
1EC4
  8
WAKU
  6
CONTINUOUS
 10
457.18223687089471
 20
414.78779274567802
 30
0.0
 11
456.68714687089539
 21
414.4506087456781
 31
0.0
  0
SOLID
  5
1EC5
  8
WAKU
  6
CONTINUOUS
 10
457.21035987089562
 20
414.34506674567808
 30
0.0
 11
456.20637187089562
 21
414.05026274567751
 31
0.0
 12
456.25187087089569
 22
413.55589074567808
 32
0.0
 13
456.25187087089569
 23
413.55589074567808
 33
0.0
  0
LINE
  5
1EC6
  8
WAKU
  6
CONTINUOUS
 10
457.25355587089558
 20
413.91301774567768
 30
0.0
 11
456.76140487089469
 21
413.50491074567771
 31
0.0
  0
LINE
  5
1EC7
  8
WAKU
  6
CONTINUOUS
 10
457.21035987089562
 20
414.34506674567729
 30
0.0
 11
456.25187087089512
 21
413.55589074567729
 31
0.0
  0
LINE
  5
1EC8
  8
WAKU
  6
CONTINUOUS
 10
458.15091287089592
 20
414.82084774567818
 30
0.0
 11
457.69600787089507
 21
414.62836774567711
 31
0.0
  0
LINE
  5
1EC9
  8
WAKU
  6
CONTINUOUS
 10
458.14276087089462
 20
415.22591174567771
 30
0.0
 11
457.67345587089471
 21
415.0494307456778
 31
0.0
  0
LINE
  5
1ECA
  8
WAKU
  6
CONTINUOUS
 10
458.13565087089512
 20
414.02083974567768
 30
0.0
 11
457.45795387089561
 21
413.57977374567758
 31
0.0
  0
SOLID
  5
1ECB
  8
WAKU
  6
CONTINUOUS
 10
457.90206887089562
 20
411.90628874567801
 30
0.0
 11
457.24571287089589
 21
411.33221374567819
 31
0.0
 12
458.40103887089572
 22
411.86587174567808
 32
0.0
 13
458.40103887089572
 23
411.86587174567808
 33
0.0
  0
SOLID
  5
1ECC
  8
WAKU
  6
CONTINUOUS
 10
458.40103887089572
 20
411.86587174567808
 30
0.0
 11
457.24571287089589
 21
411.33221374567819
 31
0.0
 12
457.94213587089558
 22
411.40695374567758
 32
0.0
 13
457.94213587089558
 23
411.40695374567758
 33
0.0
  0
SOLID
  5
1ECD
  8
WAKU
  6
CONTINUOUS
 10
458.47601087089561
 20
412.56270274567771
 30
0.0
 11
457.90206887089562
 21
411.90628874567801
 31
0.0
 12
458.80908887089561
 22
412.35801174567769
 32
0.0
 13
458.80908887089561
 23
412.35801174567769
 33
0.0
  0
SOLID
  5
1ECE
  8
WAKU
  6
CONTINUOUS
 10
458.80908887089561
 20
412.35801174567769
 30
0.0
 11
457.90206887089562
 21
411.90628874567801
 31
0.0
 12
458.40103887089572
 22
411.86587174567808
 32
0.0
 13
458.40103887089572
 23
411.86587174567808
 33
0.0
  0
SOLID
  5
1ECF
  8
WAKU
  6
CONTINUOUS
 10
458.49730487089562
 20
410.86172374567798
 30
0.0
 11
457.49326987089557
 21
410.56689974567769
 31
0.0
 12
458.01652887089563
 22
410.46137774567819
 32
0.0
 13
458.01652887089563
 23
410.46137774567819
 33
0.0
  0
LINE
  5
1ED0
  8
WAKU
  6
CONTINUOUS
 10
457.9421358708953
 20
411.40695374567758
 30
0.0
 11
458.40103887089469
 21
411.86587174567728
 31
0.0
  0
LINE
  5
1ED1
  8
WAKU
  6
CONTINUOUS
 10
457.49326987089512
 20
410.56689974567769
 30
0.0
 11
458.4517378708947
 21
411.35601474567773
 31
0.0
  0
LINE
  5
1ED2
  8
WAKU
  6
CONTINUOUS
 10
458.01652887089563
 20
410.46137774567751
 30
0.0
 11
458.49730487089522
 21
410.8617237456773
 31
0.0
  0
LINE
  5
1ED3
  8
WAKU
  6
CONTINUOUS
 10
457.90206887089562
 20
411.90628874567761
 30
0.0
 11
458.4760108708947
 21
412.56270274567771
 31
0.0
  0
SOLID
  5
1ED4
  8
WAKU
  6
CONTINUOUS
 10
457.67345587089562
 20
415.0494307456778
 30
0.0
 11
457.18223687089562
 21
414.78779274567802
 31
0.0
 12
458.54662987089472
 22
414.9163637456781
 32
0.0
 13
458.54662987089472
 23
414.9163637456781
 33
0.0
  0
SOLID
  5
1ED5
  8
WAKU
  6
CONTINUOUS
 10
458.54662987089472
 20
414.9163637456781
 30
0.0
 11
457.18223687089562
 21
414.78779274567802
 31
0.0
 12
458.15091287089592
 22
414.82084774567818
 32
0.0
 13
458.15091287089592
 23
414.82084774567818
 33
0.0
  0
SOLID
  5
1ED6
  8
WAKU
  6
CONTINUOUS
 10
457.67345587089562
 20
415.0494307456778
 30
0.0
 11
458.54662987089472
 21
414.9163637456781
 31
0.0
 12
458.85376887089592
 22
414.92168474567819
 32
0.0
 13
458.85376887089592
 23
414.92168474567819
 33
0.0
  0
SOLID
  5
1ED7
  8
WAKU
  6
CONTINUOUS
 10
458.76651087089539
 20
414.2920227456782
 30
0.0
 11
457.76004187089558
 21
414.25460374567729
 31
0.0
 12
458.13565087089569
 22
414.02083974567768
 32
0.0
 13
458.13565087089569
 23
414.02083974567768
 33
0.0
  0
LINE
  5
1ED8
  8
WAKU
  6
CONTINUOUS
 10
458.76651087089539
 20
414.2920227456778
 30
0.0
 11
458.13565087089512
 21
414.02083974567768
 31
0.0
  0
LINE
  5
1ED9
  8
WAKU
  6
CONTINUOUS
 10
458.54662987089472
 20
414.91636374567759
 30
0.0
 11
458.15091287089592
 21
414.82084774567818
 31
0.0
  0
LINE
  5
1EDA
  8
WAKU
  6
CONTINUOUS
 10
458.57291587089509
 20
415.3107547456778
 30
0.0
 11
458.14276087089462
 21
415.22591174567771
 31
0.0
  0
LINE
  5
1EDB
  8
WAKU
  6
CONTINUOUS
 10
458.26141187089507
 20
414.51655074567719
 30
0.0
 11
457.76004187089518
 21
414.25460374567729
 31
0.0
  0
SOLID
  5
1EDC
  8
WAKU
  6
CONTINUOUS
 10
458.45173787089561
 20
411.35601474567773
 30
0.0
 11
457.49326987089557
 21
410.56689974567769
 31
0.0
 12
458.94610787089562
 22
411.3105267456782
 32
0.0
 13
458.94610787089562
 23
411.3105267456782
 33
0.0
  0
SOLID
  5
1EDD
  8
WAKU
  6
CONTINUOUS
 10
458.94610787089562
 20
411.3105267456782
 30
0.0
 11
457.49326987089557
 21
410.56689974567769
 31
0.0
 12
458.49730487089562
 22
410.86172374567798
 32
0.0
 13
458.49730487089562
 23
410.86172374567798
 33
0.0
  0
SOLID
  5
1EDE
  8
WAKU
  6
CONTINUOUS
 10
458.57291587089588
 20
415.3107547456782
 30
0.0
 11
458.14276087089559
 21
415.22591174567799
 31
0.0
 12
458.94812087089508
 22
415.30084274567798
 32
0.0
 13
458.94812087089508
 23
415.30084274567798
 33
0.0
  0
SOLID
  5
1EDF
  8
WAKU
  6
CONTINUOUS
 10
458.94812087089508
 20
415.30084274567798
 30
0.0
 11
458.14276087089559
 21
415.22591174567799
 31
0.0
 12
459.25459387089558
 22
415.19653974567802
 32
0.0
 13
459.25459387089558
 23
415.19653974567802
 33
0.0
  0
SOLID
  5
1EE0
  8
WAKU
  6
CONTINUOUS
 10
458.14276087089559
 20
415.22591174567799
 30
0.0
 11
457.67345587089562
 21
415.0494307456778
 31
0.0
 12
459.25459387089558
 22
415.19653974567802
 32
0.0
 13
459.25459387089558
 23
415.19653974567802
 33
0.0
  0
SOLID
  5
1EE1
  8
WAKU
  6
CONTINUOUS
 10
458.26141187089547
 20
414.5165507456777
 30
0.0
 11
457.76004187089558
 21
414.25460374567729
 31
0.0
 12
459.27500187089561
 22
414.37935174567758
 32
0.0
 13
459.27500187089561
 23
414.37935174567758
 33
0.0
  0
SOLID
  5
1EE2
  8
WAKU
  6
CONTINUOUS
 10
459.27500187089561
 20
414.37935174567758
 30
0.0
 11
457.76004187089558
 21
414.25460374567729
 31
0.0
 12
458.76651087089539
 22
414.2920227456782
 32
0.0
 13
458.76651087089539
 23
414.2920227456782
 33
0.0
  0
SOLID
  5
1EE3
  8
WAKU
  6
CONTINUOUS
 10
459.25459387089558
 20
415.19653974567802
 30
0.0
 11
457.67345587089562
 21
415.0494307456778
 31
0.0
 12
459.48107887089571
 22
415.00167774567819
 32
0.0
 13
459.48107887089571
 23
415.00167774567819
 33
0.0
  0
SOLID
  5
1EE4
  8
WAKU
  6
CONTINUOUS
 10
457.67345587089562
 20
415.0494307456778
 30
0.0
 11
458.85376887089592
 21
414.92168474567819
 31
0.0
 12
459.48107887089571
 22
415.00167774567819
 32
0.0
 13
459.48107887089571
 23
415.00167774567819
 33
0.0
  0
SOLID
  5
1EE5
  8
WAKU
  6
CONTINUOUS
 10
465.56708587089571
 20
414.857705745678
 30
0.0
 11
462.41097787089558
 21
412.27309074567802
 31
0.0
 12
465.74943987089569
 22
412.27309074567802
 32
0.0
 13
465.74943987089569
 23
412.27309074567802
 33
0.0
  0
LINE
  5
1EE6
  8
WAKU
  6
CONTINUOUS
 10
465.56708587089503
 20
414.85770574567772
 30
0.0
 11
462.41097787089518
 21
412.27309074567768
 31
0.0
  0
SOLID
  5
1EE7
  8
WAKU
  6
CONTINUOUS
 10
465.74943987089569
 20
412.27309074567802
 30
0.0
 11
462.41097787089558
 21
412.27309074567802
 31
0.0
 12
464.65291787089558
 22
412.219244745678
 32
0.0
 13
464.65291787089558
 23
412.219244745678
 33
0.0
  0
SOLID
  5
1EE8
  8
WAKU
  6
CONTINUOUS
 10
462.41097787089558
 20
412.27309074567802
 30
0.0
 11
461.4310578708953
 21
409.58078274567771
 31
0.0
 12
464.65291787089558
 22
412.219244745678
 32
0.0
 13
464.65291787089558
 23
412.219244745678
 33
0.0
  0
LINE
  5
1EE9
  8
WAKU
  6
CONTINUOUS
 10
464.65291787089512
 20
412.219244745678
 30
0.0
 11
461.4310578708953
 21
409.58078274567771
 31
0.0
  0
LINE
  5
1EEA
  8
WAKU
  6
CONTINUOUS
 10
468.3233658708956
 20
409.58078274567771
 30
0.0
 11
473.70798087089503
 21
409.58078274567771
 31
0.0
  0
SOLID
  5
1EEB
  8
WAKU
  6
CONTINUOUS
 10
470.87115787089562
 20
416.5807827456776
 30
0.0
 11
470.2440088708953
 21
414.857705745678
 31
0.0
 12
475.62862387089592
 22
414.857705745678
 32
0.0
 13
475.62862387089592
 23
414.857705745678
 33
0.0
  0
SOLID
  5
1EEC
  8
WAKU
  6
CONTINUOUS
 10
469.1073018708957
 20
411.73462874567758
 30
0.0
 11
468.3233658708956
 21
409.58078274567771
 31
0.0
 12
474.49191687089569
 22
411.73462874567758
 32
0.0
 13
474.49191687089569
 23
411.73462874567758
 33
0.0
  0
SOLID
  5
1EED
  8
WAKU
  6
CONTINUOUS
 10
474.49191687089569
 20
411.73462874567758
 30
0.0
 11
468.3233658708956
 21
409.58078274567771
 31
0.0
 12
473.70798087089508
 22
409.58078274567771
 32
0.0
 13
473.70798087089508
 23
409.58078274567771
 33
0.0
  0
LINE
  5
1EEE
  8
WAKU
  6
CONTINUOUS
 10
469.10730187089513
 20
411.73462874567758
 30
0.0
 11
474.49191687089473
 21
411.73462874567758
 31
0.0
  0
LINE
  5
1EEF
  8
WAKU
  6
CONTINUOUS
 10
470.2440088708953
 20
414.85770574567772
 30
0.0
 11
475.62862387089513
 21
414.85770574567772
 31
0.0
  0
SOLID
  5
1EF0
  8
WAKU
  6
CONTINUOUS
 10
476.25577287089561
 20
416.5807827456776
 30
0.0
 11
470.87115787089562
 21
416.5807827456776
 31
0.0
 12
475.62862387089592
 22
414.857705745678
 32
0.0
 13
475.62862387089592
 23
414.857705745678
 33
0.0
  0
LINE
  5
1EF1
  8
WAKU
  6
CONTINUOUS
 10
470.87115787089562
 20
416.5807827456776
 30
0.0
 11
476.2557728708951
 21
416.5807827456776
 31
0.0
  0
LINE
  5
1EF2
  8
WAKU
  6
CONTINUOUS
 10
453.22704887089509
 20
416.5807827456776
 30
0.0
 11
453.22704887089509
 21
412.3030047456777
 31
0.0
  0
SOLID
  5
1EF3
  8
WAKU
  6
CONTINUOUS
 10
457.50482587089562
 20
416.5807827456776
 30
0.0
 11
453.22704887089571
 21
416.5807827456776
 31
0.0
 12
453.22704887089571
 22
412.3030047456777
 32
0.0
 13
453.22704887089571
 23
412.3030047456777
 33
0.0
  0
LINE
  5
1EF4
  8
WAKU
  6
CONTINUOUS
 10
453.22704887089509
 20
412.3030047456777
 30
0.0
 11
457.50482587089562
 21
416.5807827456776
 31
0.0
  0
LINE
  5
1EF5
  8
WAKU
  6
CONTINUOUS
 10
453.22704887089509
 20
416.5807827456776
 30
0.0
 11
457.50482587089562
 21
416.5807827456776
 31
0.0
  0
LINE
  5
1EF6
  8
WAKU
  6
CONTINUOUS
 10
490.5384668708956
 20
412.9192447456777
 30
0.0
 11
493.76923587089539
 21
412.9192447456777
 31
0.0
  0
SOLID
  5
1EF7
  8
WAKU
  6
CONTINUOUS
 10
491.87115787089567
 20
416.5807827456776
 30
0.0
 11
491.24400887089558
 21
414.857705745678
 31
0.0
 12
494.47477787089508
 22
414.857705745678
 32
0.0
 13
494.47477787089508
 23
414.857705745678
 33
0.0
  0
SOLID
  5
1EF8
  8
WAKU
  6
CONTINUOUS
 10
494.23959687089558
 20
414.21155174567798
 30
0.0
 11
491.00882787089557
 21
414.21155174567798
 31
0.0
 12
493.76923587089561
 22
412.91924474567821
 32
0.0
 13
493.76923587089561
 23
412.91924474567821
 33
0.0
  0
SOLID
  5
1EF9
  8
WAKU
  6
CONTINUOUS
 10
494.70798087089508
 20
409.58078274567771
 30
0.0
 11
494.41499387089561
 21
411.73462874567758
 31
0.0
 12
490.10730187089558
 22
411.73462874567758
 32
0.0
 13
490.10730187089558
 23
411.73462874567758
 33
0.0
  0
SOLID
  5
1EFA
  8
WAKU
  6
CONTINUOUS
 10
490.10730187089558
 20
411.73462874567758
 30
0.0
 11
489.3233658708956
 21
409.58078274567771
 31
0.0
 12
494.70798087089508
 22
409.58078274567771
 32
0.0
 13
494.70798087089508
 23
409.58078274567771
 33
0.0
  0
LINE
  5
1EFB
  8
WAKU
  6
CONTINUOUS
 10
494.70798087089508
 20
409.58078274567771
 30
0.0
 11
489.3233658708956
 21
409.58078274567771
 31
0.0
  0
LINE
  5
1EFC
  8
WAKU
  6
CONTINUOUS
 10
490.10730187089513
 20
411.73462874567758
 30
0.0
 11
494.41499387089561
 21
411.73462874567758
 31
0.0
  0
LINE
  5
1EFD
  8
WAKU
  6
CONTINUOUS
 10
491.2440088708953
 20
414.85770574567772
 30
0.0
 11
494.47477787089508
 21
414.85770574567772
 31
0.0
  0
LINE
  5
1EFE
  8
WAKU
  6
CONTINUOUS
 10
491.00882787089557
 20
414.2115517456777
 30
0.0
 11
494.2395968708953
 21
414.2115517456777
 31
0.0
  0
SOLID
  5
1EFF
  8
WAKU
  6
CONTINUOUS
 10
494.47477787089508
 20
414.857705745678
 30
0.0
 11
495.10192687089562
 21
416.5807827456776
 31
0.0
 12
491.87115787089567
 22
416.5807827456776
 32
0.0
 13
491.87115787089567
 23
416.5807827456776
 33
0.0
  0
LINE
  5
1F00
  8
WAKU
  6
CONTINUOUS
 10
491.87115787089567
 20
416.5807827456776
 30
0.0
 11
495.10192687089511
 21
416.5807827456776
 31
0.0
  0
SOLID
  5
1F01
  8
WAKU
  6
CONTINUOUS
 10
491.00882787089557
 20
414.21155174567798
 30
0.0
 11
490.5384668708956
 21
412.91924474567821
 31
0.0
 12
493.76923587089561
 22
412.91924474567821
 32
0.0
 13
493.76923587089561
 23
412.91924474567821
 33
0.0
  0
LINE
  5
1F02
  8
WAKU
 10
506.8986388145608
 20
417.8041926488375
 30
0.0
 11
506.8986388145608
 21
28.29526935608077
 31
0.0
  0
TEXT
  5
1F03
  8
WAKU
 10
75.69258251726535
 20
411.41594787396718
 30
0.0
 40
5.0
  1
FIX窓 RCアングル付枠断面詳細図
  7
MX_NOTE_STANDARD
 11
75.69258251726535
 21
413.9159478739673
 31
0.0
 73
     2
  0
TEXT
  5
1F04
  8
WAKU
 10
36.524425493660559
 20
411.37675236086397
 30
0.0
 40
3.0
  1
Super70H
 41
0.8679999999999999
  7
MX_NOTE_STANDARD
 11
36.524425493660559
 21
412.87675236086397
 31
0.0
 73
     2
  0
LINE
  5
1F05
  8
WAKU
 10
31.524425493660821
 20
417.87675236086369
 30
0.0
 11
31.524425493660821
 21
28.367829068107071
 31
0.0
  0
LINE
  5
1F06
  8
WAKU
 10
31.524425493660821
 20
28.367829068107071
 30
0.0
 11
506.8986388145608
 21
28.29526935608077
 31
0.0
  0
LINE
  5
1F07
  8
WAKU
 10
31.524425493660821
 20
407.87675236086397
 30
0.0
 11
506.8986388145608
 21
407.80419264883761
 31
0.0
  0
LINE
  5
1F08
  8
WAKU
 10
31.524425493660821
 20
417.87675236086369
 30
0.0
 11
506.8986388145608
 21
417.8041926488375
 31
0.0
  0
LINE
  5
1F09
  8
DANMEN
  6
CONTINUOUS
 10
269.3222815226261
 20
190.16980115288831
 30
0.0
 11
268.59228152262602
 21
190.8998011528883
 31
0.0
  0
LINE
  5
1F0A
  8
DANMEN
  6
CONTINUOUS
 10
268.95328152262601
 20
189.12380115288821
 30
0.0
 11
267.177281522626
 21
190.8998011528883
 31
0.0
  0
LINE
  5
1F0B
  8
DANMEN
  6
CONTINUOUS
 10
270.82228152262587
 20
185.8408011528883
 30
0.0
 11
268.76328152262602
 21
187.8998011528883
 31
0.0
  0
LINE
  5
1F0C
  8
DANMEN
  6
CONTINUOUS
 10
270.82228152262587
 20
184.42680115288829
 30
0.0
 11
264.34928152262597
 21
190.8998011528883
 31
0.0
  0
LINE
  5
1F0D
  8
DANMEN
  6
CONTINUOUS
 10
270.82228152262587
 20
183.01280115288819
 30
0.0
 11
263.02928152262609
 21
190.8048011528883
 31
0.0
  0
LINE
  5
1F0E
  8
DANMEN
  6
CONTINUOUS
 10
270.52028152262608
 20
181.8998011528883
 30
0.0
 11
263.8052815226261
 21
188.61580115288831
 31
0.0
  0
LINE
  5
1F0F
  8
DANMEN
  6
CONTINUOUS
 10
269.10628152262592
 20
181.8998011528883
 30
0.0
 11
263.10628152262609
 21
187.8998011528883
 31
0.0
  0
LINE
  5
1F10
  8
DANMEN
  6
CONTINUOUS
 10
269.153281522626
 20
179.02480115288819
 30
0.0
 11
262.8222815226261
 21
185.35580115288829
 31
0.0
  0
LINE
  5
1F11
  8
DANMEN
  6
CONTINUOUS
 10
268.32228152262599
 20
131.8998011528883
 30
0.0
 11
270.32228152262599
 21
131.8998011528883
 31
0.0
  0
LINE
  5
1F12
  8
DANMEN
  6
CONTINUOUS
 10
268.32228152262599
 20
132.8998011528883
 30
0.0
 11
269.72228152262602
 21
132.8998011528883
 31
0.0
  0
LINE
  5
1F13
  8
DANMEN
  6
CONTINUOUS
 10
261.3222815226261
 20
151.8998011528883
 30
0.0
 11
269.72228152262602
 21
151.8998011528883
 31
0.0
  0
LINE
  5
1F14
  8
DANMEN
  6
CONTINUOUS
 10
261.3222815226261
 20
221.8998011528883
 30
0.0
 11
285.32228152262599
 21
221.8998011528883
 31
0.0
  0
LINE
  5
1F15
  8
DANMEN
  6
CONTINUOUS
 10
262.47228152262602
 20
220.2498011528883
 30
0.0
 11
269.17228152262601
 21
220.2498011528883
 31
0.0
  0
LINE
  5
1F16
  8
DANMEN
  6
CONTINUOUS
 10
262.47228152262602
 20
153.54980115288831
 30
0.0
 11
269.17228152262601
 21
153.54980115288831
 31
0.0
  0
LINE
  5
1F17
  8
DANMEN
  6
CONTINUOUS
 10
262.8222815226261
 20
176.8998011528883
 30
0.0
 11
269.17228152262601
 21
176.8998011528883
 31
0.0
  0
LINE
  5
1F18
  8
DANMEN
  6
CONTINUOUS
 10
262.47228152262602
 20
192.89980115288819
 30
0.0
 11
269.17228152262601
 21
192.89980115288819
 31
0.0
  0
ARC
  5
1F19
  8
DANMEN
  6
CONTINUOUS
 10
268.82228152262587
 20
190.3998011528883
 30
0.0
 40
0.5
 50
0.0
 51
90.0
  0
LINE
  5
1F1A
  8
DANMEN
  6
CONTINUOUS
 10
270.82228152262587
 20
187.8998011528883
 30
0.0
 11
268.32228152262599
 21
187.8998011528883
 31
0.0
  0
LINE
  5
1F1B
  8
DANMEN
  6
CONTINUOUS
 10
270.82228152262587
 20
181.8998011528883
 30
0.0
 11
268.32228152262599
 21
181.8998011528883
 31
0.0
  0
ARC
  5
1F1C
  8
DANMEN
  6
CONTINUOUS
 10
268.32228152262599
 20
189.8998011528883
 30
0.0
 40
1.0
 50
289.47099999999938
 51
0.0
  0
ARC
  5
1F1D
  8
DANMEN
  6
CONTINUOUS
 10
268.32228152262599
 20
179.8998011528883
 30
0.0
 40
1.0
 50
0.0
 51
70.529000000000408
  0
ARC
  5
1F1E
  8
DANMEN
  6
CONTINUOUS
 10
268.82228152262587
 20
179.39980115288819
 30
0.0
 40
0.5
 50
270.0
 51
0.0
  0
LINE
  5
1F1F
  8
SUNPO
  6
CONTINUOUS
 10
285.8222815226261
 20
101.8998011528883
 30
0.0
 11
260.8222815226261
 21
101.8998011528883
 31
0.0
  0
LINE
  5
1F20
  8
SUNPO
  6
CONTINUOUS
 10
260.8222815226261
 20
241.89980115288819
 30
0.0
 11
285.8222815226261
 21
241.89980115288819
 31
0.0
  0
LINE
  5
1F21
  8
SUNPO
  6
CONTINUOUS
 10
260.8222815226261
 20
111.8998011528883
 30
0.0
 11
270.82228152262587
 21
111.8998011528883
 31
0.0
  0
LINE
  5
1F22
  8
DANMEN
  6
CONTINUOUS
 10
183.8222815226259
 20
221.8998011528883
 30
0.0
 11
183.8222815226259
 21
163.3998011528883
 31
0.0
  0
LINE
  5
1F23
  8
DANMEN
  6
CONTINUOUS
 10
113.8222815226261
 20
221.8998011528883
 30
0.0
 11
113.8222815226261
 21
113.3998011528883
 31
0.0
  0
LINE
  5
1F24
  8
SUNPO
  6
CONTINUOUS
 10
223.82228152262601
 20
213.8998011528883
 30
0.0
 11
223.82228152262601
 21
163.8998011528883
 31
0.0
  0
LINE
  5
1F25
  8
DANMEN
  6
CONTINUOUS
 10
203.82228152262601
 20
221.8998011528883
 30
0.0
 11
203.82228152262601
 21
160.8998011528883
 31
0.0
  0
LINE
  5
1F26
  8
DANMEN
  6
CONTINUOUS
 10
135.4722815226261
 20
110.54980115288831
 30
0.0
 11
143.3222815226259
 21
110.54980115288831
 31
0.0
  0
LINE
  5
1F27
  8
DANMEN
  6
CONTINUOUS
 10
134.32228152262621
 20
108.8998011528883
 30
0.0
 11
143.3222815226259
 21
108.8998011528883
 31
0.0
  0
LINE
  5
1F28
  8
DANMEN
  6
CONTINUOUS
 10
129.00528152262601
 20
118.8998011528882
 30
0.0
 11
137.8222815226259
 21
118.8998011528882
 31
0.0
  0
LINE
  5
1F29
  8
DANMEN
  6
CONTINUOUS
 10
125.322281522626
 20
138.0998011528882
 30
0.0
 11
137.8222815226259
 21
138.0998011528882
 31
0.0
  0
LINE
  5
1F2A
  8
DANMEN
  6
CONTINUOUS
 10
135.4722815226261
 20
117.2498011528882
 30
0.0
 11
138.9722815226261
 21
117.2498011528882
 31
0.0
  0
LINE
  5
1F2B
  8
DANMEN
  6
CONTINUOUS
 10
147.8222815226261
 20
139.8998011528883
 30
0.0
 11
125.47228152262601
 21
139.8998011528883
 31
0.0
  0
LINE
  5
1F2C
  8
DANMEN
  6
CONTINUOUS
 10
127.3222815226261
 20
103.8998011528883
 30
0.0
 11
183.8222815226259
 21
103.8998011528883
 31
0.0
  0
TEXT
  5
1F2D
  8
SUNPO
  6
CONTINUOUS
 10
93.322281522626099
 20
106.9310511528883
 30
0.0
 40
2.5
  1
10
 50
90.0
 41
1.3500000000000001
  7
MX_DIMTXSTY_4
  0
LINE
  5
1F2E
  8
DANMEN
  6
CONTINUOUS
 10
113.8222815226261
 20
113.3998011528883
 30
0.0
 11
113.8222815226261
 21
104.3998011528882
 31
0.0
  0
LINE
  5
1F2F
  8
DANMEN
  6
CONTINUOUS
 10
115.47228152262601
 20
112.0788011528883
 30
0.0
 11
115.47228152262601
 21
105.54980115288831
 31
0.0
  0
LINE
  5
1F30
  8
SUNPO
  6
CONTINUOUS
 10
93.822281522626099
 20
103.8998011528883
 30
0.0
 11
93.822281522626099
 21
113.8998011528883
 31
0.0
  0
LINE
  5
1F31
  8
SUNPO
  6
CONTINUOUS
 10
124.322281522626
 20
94.899801152888415
 30
0.0
 11
93.822281522626099
 21
94.899801152888415
 31
0.0
  0
LINE
  5
1F32
  8
SUNPO
  6
CONTINUOUS
 10
112.3222815226262
 20
103.8998011528883
 30
0.0
 11
93.822281522626099
 21
103.8998011528883
 31
0.0
  0
LINE
  5
1F33
  8
SUNPO
  6
CONTINUOUS
 10
93.822281522626099
 20
94.899801152888415
 30
0.0
 11
93.822281522626099
 21
103.8998011528883
 31
0.0
  0
POLYLINE
  5
1F34
  8
SUNPO
  6
BYBLOCK
 66
     1
 10
0.0
 20
0.0
 30
0.0
 70
     1
 40
1.159999999999999
 41
1.159999999999999
  0
VERTEX
  5
23D3
  8
SUNPO
  6
BYBLOCK
 10
93.822281522626099
 20
95.045961152888438
 30
0.0
 42
1.0
  0
VERTEX
  5
23D4
  8
SUNPO
  6
BYBLOCK
 10
93.822281522626099
 20
94.753641152888449
 30
0.0
 42
1.0
  0
SEQEND
  5
23D5
  8
SUNPO
  6
BYBLOCK
  0
TEXT
  5
1F38
  8
SUNPO
  6
CONTINUOUS
 10
93.322281522626099
 20
98.566467819555058
 30
0.0
 40
2.5
  1
9
 50
90.0
  0
POLYLINE
  5
1F39
  8
SUNPO
  6
BYBLOCK
 66
     1
 10
0.0
 20
0.0
 30
0.0
 70
     1
 40
1.159999999999999
 41
1.159999999999999
  0
VERTEX
  5
23D6
  8
SUNPO
  6
BYBLOCK
 10
93.822281522626099
 20
104.0459611528882
 30
0.0
 42
1.0
  0
VERTEX
  5
23D7
  8
SUNPO
  6
BYBLOCK
 10
93.822281522626099
 20
103.75364115288831
 30
0.0
 42
1.0
  0
SEQEND
  5
23D8
  8
SUNPO
  6
BYBLOCK
  0
POLYLINE
  5
1F3D
  8
SUNPO
  6
BYBLOCK
 66
     1
 10
0.0
 20
0.0
 30
0.0
 70
     1
 40
1.159999999999999
 41
1.159999999999999
  0
VERTEX
  5
23D9
  8
SUNPO
  6
BYBLOCK
 10
93.822281522626099
 20
103.75364115288831
 30
0.0
 42
1.0
  0
VERTEX
  5
23DA
  8
SUNPO
  6
BYBLOCK
 10
93.822281522626099
 20
104.0459611528882
 30
0.0
 42
1.0
  0
SEQEND
  5
23DB
  8
SUNPO
  6
BYBLOCK
  0
TEXT
  5
1F41
  8
SUNPO
  6
CONTINUOUS
 10
117.8222815226261
 20
97.399801152888372
 30
0.0
 40
2.5
  1
12
 41
1.1999999999999991
  7
MX_DIMTXSTY_2
  0
LINE
  5
1F42
  8
DANMEN
  6
CONTINUOUS
 10
114.3222815226262
 20
103.8998011528883
 30
0.0
 11
125.8222815226261
 21
103.8998011528883
 31
0.0
  0
LINE
  5
1F43
  8
DANMEN
  6
CONTINUOUS
 10
115.47228152262601
 20
105.54980115288831
 30
0.0
 11
126.3222815226261
 21
105.54980115288831
 31
0.0
  0
LINE
  5
1F44
  8
SUNPO
  6
CONTINUOUS
 10
125.8222815226261
 20
96.899801152888486
 30
0.0
 11
113.8222815226261
 21
96.899801152888486
 31
0.0
  0
POLYLINE
  5
1F45
  8
SUNPO
  6
BYBLOCK
 66
     1
 10
0.0
 20
0.0
 30
0.0
 70
     1
 40
1.159999999999999
 41
1.159999999999999
  0
VERTEX
  5
23DC
  8
SUNPO
  6
BYBLOCK
 10
113.96844152262599
 20
96.899801152888486
 30
0.0
 42
1.0
  0
VERTEX
  5
23DD
  8
SUNPO
  6
BYBLOCK
 10
113.676121522626
 20
96.899801152888486
 30
0.0
 42
1.0
  0
SEQEND
  5
23DE
  8
SUNPO
  6
BYBLOCK
  0
LINE
  5
1F49
  8
SUNPO
  6
CONTINUOUS
 10
113.8222815226261
 20
102.3998011528882
 30
0.0
 11
113.8222815226261
 21
96.899801152888486
 31
0.0
  0
ARC
  5
1F4A
  8
DANMEN
  6
CONTINUOUS
 10
114.3222815226262
 20
104.3998011528882
 30
0.0
 40
0.5
 50
180.0
 51
270.0
  0
POLYLINE
  5
1F4B
  8
SUNPO
  6
BYBLOCK
 66
     1
 10
0.0
 20
0.0
 30
0.0
 70
     1
 40
1.159999999999999
 41
1.159999999999999
  0
VERTEX
  5
23DF
  8
SUNPO
  6
BYBLOCK
 10
125.676121522626
 20
96.899801152888486
 30
0.0
 42
1.0
  0
VERTEX
  5
23E0
  8
SUNPO
  6
BYBLOCK
 10
125.96844152262619
 20
96.899801152888486
 30
0.0
 42
1.0
  0
SEQEND
  5
23E1
  8
SUNPO
  6
BYBLOCK
  0
LINE
  5
1F4F
  8
DANMEN
  6
CONTINUOUS
 10
125.8222815226261
 20
103.8998011528883
 30
0.0
 11
125.8222815226261
 21
95.399801152888358
 31
0.0
  0
LINE
  5
1F50
  8
DANMEN
  6
CONTINUOUS
 10
127.3222815226261
 20
104.54980115288831
 30
0.0
 11
127.3222815226261
 21
95.399801152888358
 31
0.0
  0
LINE
  5
1F51
  8
DANMEN
  6
CONTINUOUS
 10
126.3222815226261
 20
94.899801152888415
 30
0.0
 11
126.8222815226261
 21
94.899801152888415
 31
0.0
  0
ARC
  5
1F52
  8
DANMEN
  6
CONTINUOUS
 10
126.3222815226261
 20
95.399801152888358
 30
0.0
 40
0.5
 50
180.0
 51
270.0
  0
ARC
  5
1F53
  8
DANMEN
  6
CONTINUOUS
 10
126.8222815226261
 20
95.399801152888358
 30
0.0
 40
0.5
 50
270.0
 51
0.0
  0
ARC
  5
1F54
  8
DANMEN
  6
CONTINUOUS
 10
126.3222815226261
 20
104.54980115288831
 30
0.0
 40
1.0
 50
0.0
 51
90.0
  0
LINE
  5
1F55
  8
DANMEN
  6
CONTINUOUS
 10
123.8222815226261
 20
163.3998011528883
 30
0.0
 11
123.8222815226261
 21
132.39980115288819
 31
0.0
  0
LINE
  5
1F56
  8
DANMEN
  6
CONTINUOUS
 10
125.47228152262601
 20
139.8998011528883
 30
0.0
 11
125.47228152262601
 21
158.8998011528883
 31
0.0
  0
LINE
  5
1F57
  8
SUNPO
  6
CONTINUOUS
 10
93.822281522626099
 20
131.8998011528883
 30
0.0
 11
93.822281522626099
 21
163.8998011528883
 31
0.0
  0
LINE
  5
1F58
  8
SUNPO
  6
CONTINUOUS
 10
112.3222815226262
 20
113.8998011528883
 30
0.0
 11
93.822281522626099
 21
113.8998011528883
 31
0.0
  0
LINE
  5
1F59
  8
SUNPO
  6
CONTINUOUS
 10
112.3222815226262
 20
131.8998011528883
 30
0.0
 11
93.822281522626099
 21
131.8998011528883
 31
0.0
  0
POLYLINE
  5
1F5A
  8
SUNPO
  6
BYBLOCK
 66
     1
 10
0.0
 20
0.0
 30
0.0
 70
     1
 40
1.159999999999999
 41
1.159999999999999
  0
VERTEX
  5
23E2
  8
SUNPO
  6
BYBLOCK
 10
93.822281522626099
 20
132.04596115288831
 30
0.0
 42
1.0
  0
VERTEX
  5
23E3
  8
SUNPO
  6
BYBLOCK
 10
93.822281522626099
 20
131.75364115288829
 30
0.0
 42
1.0
  0
SEQEND
  5
23E4
  8
SUNPO
  6
BYBLOCK
  0
POLYLINE
  5
1F5E
  8
SUNPO
  6
BYBLOCK
 66
     1
 10
0.0
 20
0.0
 30
0.0
 70
     1
 40
1.159999999999999
 41
1.159999999999999
  0
VERTEX
  5
23E5
  8
SUNPO
  6
BYBLOCK
 10
93.822281522626099
 20
131.75364115288829
 30
0.0
 42
1.0
  0
VERTEX
  5
23E6
  8
SUNPO
  6
BYBLOCK
 10
93.822281522626099
 20
132.04596115288831
 30
0.0
 42
1.0
  0
SEQEND
  5
23E7
  8
SUNPO
  6
BYBLOCK
  0
LINE
  5
1F62
  8
SUNPO
  6
CONTINUOUS
 10
93.822281522626099
 20
113.8998011528883
 30
0.0
 11
93.822281522626099
 21
131.8998011528883
 31
0.0
  0
POLYLINE
  5
1F63
  8
SUNPO
  6
BYBLOCK
 66
     1
 10
0.0
 20
0.0
 30
0.0
 70
     1
 40
1.159999999999999
 41
1.159999999999999
  0
VERTEX
  5
23E8
  8
SUNPO
  6
BYBLOCK
 10
93.822281522626099
 20
114.0459611528882
 30
0.0
 42
1.0
  0
VERTEX
  5
23E9
  8
SUNPO
  6
BYBLOCK
 10
93.822281522626099
 20
113.75364115288831
 30
0.0
 42
1.0
  0
SEQEND
  5
23EA
  8
SUNPO
  6
BYBLOCK
  0
POLYLINE
  5
1F67
  8
SUNPO
  6
BYBLOCK
 66
     1
 10
0.0
 20
0.0
 30
0.0
 70
     1
 40
1.159999999999999
 41
1.159999999999999
  0
VERTEX
  5
23EB
  8
SUNPO
  6
BYBLOCK
 10
93.822281522626099
 20
113.75364115288831
 30
0.0
 42
1.0
  0
VERTEX
  5
23EC
  8
SUNPO
  6
BYBLOCK
 10
93.822281522626099
 20
114.0459611528882
 30
0.0
 42
1.0
  0
SEQEND
  5
23ED
  8
SUNPO
  6
BYBLOCK
  0
TEXT
  5
1F6B
  8
SUNPO
  6
CONTINUOUS
 10
93.322281522626099
 20
120.8998011528882
 30
0.0
 40
2.5
  1
18
 50
90.0
 41
1.1999999999999991
  7
MX_DIMTXSTY_2
  0
TEXT
  5
1F6C
  8
SUNPO
  6
CONTINUOUS
 10
93.322281522626099
 20
145.8164678195549
 30
0.0
 40
2.5
  1
32
 50
90.0
  0
LINE
  5
1F6D
  8
DANMEN
  6
CONTINUOUS
 10
126.168281522626
 20
116.12980115288831
 30
0.0
 11
115.47228152262601
 21
112.0788011528883
 31
0.0
  0
LINE
  5
1F6E
  8
DANMEN
  6
CONTINUOUS
 10
115.6222815226261
 20
113.8998011528883
 30
0.0
 11
128.65128152262611
 21
118.8348011528883
 31
0.0
  0
ARC
  5
1F6F
  8
DANMEN
  6
CONTINUOUS
 10
114.3222815226262
 20
113.3998011528883
 30
0.0
 40
0.5
 50
90.0
 51
180.0
  0
LINE
  5
1F70
  8
DANMEN
  6
CONTINUOUS
 10
114.3222815226262
 20
113.8998011528883
 30
0.0
 11
115.6222815226261
 21
113.8998011528883
 31
0.0
  0
LINE
  5
1F71
  8
DANMEN
  6
CONTINUOUS
 10
113.8222815226261
 20
113.8998011528883
 30
0.0
 11
115.47228152262601
 21
113.8998011528883
 31
0.0
  0
LINE
  5
1F72
  8
DANMEN
  6
CONTINUOUS
 10
128.2832815226262
 20
113.29980115288831
 30
0.0
 11
129.42228152262601
 21
113.29980115288831
 31
0.0
  0
ARC
  5
1F73
  8
DANMEN
  6
CONTINUOUS
 10
130.022281522626
 20
116.1998011528883
 30
0.0
 40
1.0
 50
90.0
 51
180.0
  0
ARC
  5
1F74
  8
DANMEN
  6
CONTINUOUS
 10
130.022281522626
 20
114.9538011528883
 30
0.0
 40
1.0
 50
180.0
 51
245.37600000000009
  0
ARC
  5
1F75
  8
DANMEN
  6
CONTINUOUS
 10
129.522281522626
 20
114.8698011528882
 30
0.0
 40
2.0
 50
180.0
 51
231.70699999999991
  0
LINE
  5
1F76
  8
DANMEN
  6
CONTINUOUS
 10
129.022281522626
 20
114.9538011528883
 30
0.0
 11
129.022281522626
 21
116.1998011528883
 31
0.0
  0
LINE
  5
1F77
  8
DANMEN
  6
CONTINUOUS
 10
127.522281522626
 20
114.8698011528882
 30
0.0
 11
127.522281522626
 21
115.1948011528883
 31
0.0
  0
ARC
  5
1F78
  8
DANMEN
  6
CONTINUOUS
 10
129.00528152262601
 20
117.8998011528882
 30
0.0
 40
1.0
 50
90.0
 51
110.74600000000071
  0
ARC
  5
1F79
  8
DANMEN
  6
CONTINUOUS
 10
126.5222815226261
 20
115.1948011528883
 30
0.0
 40
1.0
 50
0.0
 51
110.74600000000071
  0
POINT
  5
1F7A
  8
DANMEN
  6
CONTINUOUS
 10
127.522281522626
 20
116.6428011528882
 30
0.0
  0
LINE
  5
1F7B
  8
DANMEN
  6
CONTINUOUS
 10
135.4722815226261
 20
110.54980115288831
 30
0.0
 11
135.4722815226261
 21
117.2498011528882
 31
0.0
  0
ARC
  5
1F7C
  8
DANMEN
  6
CONTINUOUS
 10
131.6222815226262
 20
114.9538011528883
 30
0.0
 40
1.0
 50
294.6239999999998
 51
0.0
  0
LINE
  5
1F7D
  8
DANMEN
  6
CONTINUOUS
 10
132.2222815226261
 20
113.29980115288831
 30
0.0
 11
133.8222815226259
 21
113.29980115288831
 31
0.0
  0
POINT
  5
1F7E
  8
DANMEN
  6
CONTINUOUS
 10
132.5722815226261
 20
113.29980115288831
 30
0.0
  0
ARC
  5
1F7F
  8
DANMEN
  6
CONTINUOUS
 10
129.42228152262601
 20
113.5998011528883
 30
0.0
 40
0.3
 50
270.0
 51
0.0
  0
ARC
  5
1F80
  8
DANMEN
  6
CONTINUOUS
 10
132.2222815226261
 20
113.5998011528883
 30
0.0
 40
0.3
 50
180.0
 51
270.0
  0
LINE
  5
1F81
  8
DANMEN
  6
CONTINUOUS
 10
129.7222815226261
 20
113.5998011528883
 30
0.0
 11
129.7222815226261
 21
113.8628011528882
 31
0.0
  0
ARC
  5
1F82
  8
DANMEN
  6
CONTINUOUS
 10
129.522281522626
 20
113.8628011528882
 30
0.0
 40
0.2
 50
0.0
 51
65.376000000000175
  0
ARC
  5
1F83
  8
DANMEN
  6
CONTINUOUS
 10
132.12228152262611
 20
113.8628011528882
 30
0.0
 40
0.2
 50
114.6239999999998
 51
180.0
  0
LINE
  5
1F84
  8
DANMEN
  6
CONTINUOUS
 10
131.92228152262621
 20
113.5998011528883
 30
0.0
 11
131.92228152262621
 21
113.8628011528882
 31
0.0
  0
POINT
  5
1F85
  8
DANMEN
  6
CONTINUOUS
 10
132.6222815226262
 20
113.29980115288831
 30
0.0
  0
POINT
  5
1F86
  8
DANMEN
  6
CONTINUOUS
 10
132.03928152262611
 20
114.0448011528883
 30
0.0
  0
POINT
  5
1F87
  8
DANMEN
  6
CONTINUOUS
 10
133.8222815226259
 20
108.8998011528883
 30
0.0
  0
POINT
  5
1F88
  8
DANMEN
  6
CONTINUOUS
 10
135.4722815226261
 20
110.54980115288831
 30
0.0
  0
LINE
  5
1F89
  8
DANMEN
  6
CONTINUOUS
 10
133.8222815226259
 20
109.3998011528882
 30
0.0
 11
133.8222815226259
 21
113.29980115288831
 31
0.0
  0
ARC
  5
1F8A
  8
DANMEN
  6
CONTINUOUS
 10
134.32228152262621
 20
109.3998011528882
 30
0.0
 40
0.5
 50
180.0
 51
270.0
  0
POINT
  5
1F8B
  8
DANMEN
  6
CONTINUOUS
 10
133.8222815226259
 20
113.29980115288831
 30
0.0
  0
LINE
  5
1F8C
  8
DANMEN
  6
CONTINUOUS
 10
130.022281522626
 20
117.1998011528883
 30
0.0
 11
131.6222815226262
 21
117.1998011528883
 31
0.0
  0
ARC
  5
1F8D
  8
DANMEN
  6
CONTINUOUS
 10
131.6222815226262
 20
116.1998011528883
 30
0.0
 40
1.0
 50
0.0
 51
90.0
  0
LINE
  5
1F8E
  8
DANMEN
  6
CONTINUOUS
 10
132.6222815226262
 20
114.9538011528883
 30
0.0
 11
132.6222815226262
 21
116.1998011528883
 31
0.0
  0
POINT
  5
1F8F
  8
DANMEN
  6
CONTINUOUS
 10
130.8222815226259
 20
115.3998011528883
 30
0.0
  0
POINT
  5
1F90
  8
DANMEN
  6
CONTINUOUS
 10
135.42228152262601
 20
117.2498011528882
 30
0.0
  0
POINT
  5
1F91
  8
DANMEN
  6
CONTINUOUS
 10
135.4722815226261
 20
117.2498011528882
 30
0.0
  0
LINE
  5
1F92
  8
DANMEN
  6
CONTINUOUS
 10
125.322281522626
 20
138.0998011528882
 30
0.0
 11
125.322281522626
 21
132.39980115288819
 31
0.0
  0
ARC
  5
1F93
  8
DANMEN
  6
CONTINUOUS
 10
124.8222815226261
 20
132.39980115288819
 30
0.0
 40
0.5
 50
270.0
 51
0.0
  0
LINE
  5
1F94
  8
DANMEN
  6
CONTINUOUS
 10
124.322281522626
 20
131.8998011528883
 30
0.0
 11
124.8222815226261
 21
131.8998011528883
 31
0.0
  0
ARC
  5
1F95
  8
DANMEN
  6
CONTINUOUS
 10
124.322281522626
 20
132.39980115288819
 30
0.0
 40
0.5
 50
180.0
 51
270.0
  0
LINE
  5
1F96
  8
SUNPO
  6
CONTINUOUS
 10
112.3222815226262
 20
163.8998011528883
 30
0.0
 11
93.822281522626099
 21
163.8998011528883
 31
0.0
  0
POLYLINE
  5
1F97
  8
SUNPO
  6
BYBLOCK
 66
     1
 10
0.0
 20
0.0
 30
0.0
 70
     1
 40
1.159999999999999
 41
1.159999999999999
  0
VERTEX
  5
23EE
  8
SUNPO
  6
BYBLOCK
 10
93.822281522626099
 20
163.75364115288821
 30
0.0
 42
1.0
  0
VERTEX
  5
23EF
  8
SUNPO
  6
BYBLOCK
 10
93.822281522626099
 20
164.04596115288831
 30
0.0
 42
1.0
  0
SEQEND
  5
23F0
  8
SUNPO
  6
BYBLOCK
  0
LINE
  5
1F9B
  8
DANMEN
  6
CONTINUOUS
 10
126.022281522626
 20
163.3998011528883
 30
0.0
 11
126.022281522626
 21
158.8998011528883
 31
0.0
  0
LINE
  5
1F9C
  8
DANMEN
  6
CONTINUOUS
 10
126.022281522626
 20
158.8998011528883
 30
0.0
 11
125.47228152262601
 21
158.8998011528883
 31
0.0
  0
LINE
  5
1F9D
  8
DANMEN
  6
CONTINUOUS
 10
124.322281522626
 20
163.8998011528883
 30
0.0
 11
125.5222815226261
 21
163.8998011528883
 31
0.0
  0
ARC
  5
1F9E
  8
DANMEN
  6
CONTINUOUS
 10
124.322281522626
 20
163.3998011528883
 30
0.0
 40
0.5
 50
90.0
 51
180.0
  0
ARC
  5
1F9F
  8
DANMEN
  6
CONTINUOUS
 10
125.5222815226261
 20
163.3998011528883
 30
0.0
 40
0.5
 50
0.0
 51
90.0
  0
LINE
  5
1FA0
  8
SUNPO
  6
CONTINUOUS
 10
223.82228152262601
 20
163.8998011528883
 30
0.0
 11
223.82228152262601
 21
103.8998011528883
 31
0.0
  0
LINE
  5
1FA1
  8
SUNPO
  6
CONTINUOUS
 10
260.8222815226261
 20
150.8998011528883
 30
0.0
 11
260.8222815226261
 21
101.8998011528883
 31
0.0
  0
LINE
  5
1FA2
  8
DANMEN
  6
CONTINUOUS
 10
183.8222815226259
 20
103.8998011528883
 30
0.0
 11
183.8222815226259
 21
109.3998011528882
 31
0.0
  0
LINE
  5
1FA3
  8
SUNPO
  6
CONTINUOUS
 10
185.32228152262601
 20
103.8998011528883
 30
0.0
 11
223.82228152262601
 21
103.8998011528883
 31
0.0
  0
POLYLINE
  5
1FA4
  8
SUNPO
  6
BYBLOCK
 66
     1
 10
0.0
 20
0.0
 30
0.0
 70
     1
 40
1.25
 41
1.25
  0
VERTEX
  5
23F1
  8
SUNPO
  6
BYBLOCK
 10
223.82228152262601
 20
104.0573011528882
 30
0.0
 42
1.0
  0
VERTEX
  5
23F2
  8
SUNPO
  6
BYBLOCK
 10
223.82228152262601
 20
103.7423011528882
 30
0.0
 42
1.0
  0
SEQEND
  5
23F3
  8
SUNPO
  6
BYBLOCK
  0
POLYLINE
  5
1FA8
  8
SUNPO
  6
BYBLOCK
 66
     1
 10
0.0
 20
0.0
 30
0.0
 70
     1
 40
1.25
 41
1.25
  0
VERTEX
  5
23F4
  8
SUNPO
  6
BYBLOCK
 10
260.97978152262613
 20
101.8998011528883
 30
0.0
 42
1.0
  0
VERTEX
  5
23F5
  8
SUNPO
  6
BYBLOCK
 10
260.6647815226259
 20
101.8998011528883
 30
0.0
 42
1.0
  0
SEQEND
  5
23F6
  8
SUNPO
  6
BYBLOCK
  0
ARC
  5
1FAC
  8
DANMEN
  6
CONTINUOUS
 10
203.24628152262599
 20
166.3998011528883
 30
0.0
 40
0.5
 50
90.0
 51
170.5379999999997
  0
ARC
  5
1FAD
  8
DANMEN
  6
CONTINUOUS
 10
203.32228152262601
 20
161.3998011528883
 30
0.0
 40
0.5
 50
180.0
 51
0.0
  0
LINE
  5
1FAE
  8
SUNPO
  6
CONTINUOUS
 10
184.82228152262601
 20
108.8998011528883
 30
0.0
 11
210.19728152262601
 21
108.8998011528883
 31
0.0
  0
LINE
  5
1FAF
  8
SUNPO
  6
CONTINUOUS
 10
185.32228152262601
 20
163.8998011528883
 30
0.0
 11
223.82228152262601
 21
163.8998011528883
 31
0.0
  0
LINE
  5
1FB0
  8
DANMEN
  6
CONTINUOUS
 10
183.8222815226259
 20
160.8998011528883
 30
0.0
 11
203.82228152262601
 21
160.8998011528883
 31
0.0
  0
LINE
  5
1FB1
  8
DANMEN
  6
CONTINUOUS
 10
183.8222815226259
 20
162.79980115288831
 30
0.0
 11
183.8222815226259
 21
109.3998011528882
 31
0.0
  0
LINE
  5
1FB2
  8
DANMEN
  6
CONTINUOUS
 10
182.17228152262601
 20
157.2498011528883
 30
0.0
 11
182.17228152262601
 21
144.6258011528883
 31
0.0
  0
LINE
  5
1FB3
  8
DANMEN
  6
CONTINUOUS
 10
162.87228152262611
 20
139.8998011528883
 30
0.0
 11
162.87228152262611
 21
158.8998011528883
 31
0.0
  0
LINE
  5
1FB4
  8
DANMEN
  6
CONTINUOUS
 10
164.5222815226262
 20
139.8998011528883
 30
0.0
 11
164.5222815226262
 21
157.2498011528883
 31
0.0
  0
LINE
  5
1FB5
  8
DANMEN
  6
CONTINUOUS
 10
181.473281522626
 20
143.67180115288821
 30
0.0
 11
169.522281522626
 21
139.8998011528883
 31
0.0
  0
LINE
  5
1FB6
  8
DANMEN
  6
CONTINUOUS
 10
182.17228152262601
 20
142.16280115288831
 30
0.0
 11
169.37428152262609
 21
138.1228011528882
 31
0.0
  0
LINE
  5
1FB7
  8
DANMEN
  6
CONTINUOUS
 10
137.8222815226259
 20
138.0998011528882
 30
0.0
 11
137.8222815226259
 21
118.8998011528882
 31
0.0
  0
LINE
  5
1FB8
  8
DANMEN
  6
CONTINUOUS
 10
139.4722815226261
 20
138.0998011528882
 30
0.0
 11
139.4722815226261
 21
117.7498011528882
 31
0.0
  0
ARC
  5
1FB9
  8
DANMEN
  6
CONTINUOUS
 10
156.8222815226259
 20
131.8998011528883
 30
0.0
 40
2.0
 50
270.0
 51
0.0
  0
ARC
  5
1FBA
  8
DANMEN
  6
CONTINUOUS
 10
144.8222815226261
 20
131.8998011528883
 30
0.0
 40
2.0
 50
180.0
 51
270.0
  0
ARC
  5
1FBB
  8
DANMEN
  6
CONTINUOUS
 10
145.8222815226261
 20
132.8998011528883
 30
0.0
 40
1.0
 50
270.0
 51
340.52899999999948
  0
ARC
  5
1FBC
  8
DANMEN
  6
CONTINUOUS
 10
155.8222815226259
 20
132.8998011528883
 30
0.0
 40
1.0
 50
199.47099999999941
 51
270.0
  0
LINE
  5
1FBD
  8
DANMEN
  6
CONTINUOUS
 10
147.8222815226261
 20
130.0998011528882
 30
0.0
 11
147.8222815226261
 21
132.8998011528883
 31
0.0
  0
LINE
  5
1FBE
  8
DANMEN
  6
CONTINUOUS
 10
153.8222815226259
 20
130.0998011528882
 30
0.0
 11
153.8222815226259
 21
132.8998011528883
 31
0.0
  0
LINE
  5
1FBF
  8
DANMEN
  6
CONTINUOUS
 10
153.8222815226259
 20
130.0998011528882
 30
0.0
 11
154.3222815226259
 21
129.8998011528883
 31
0.0
  0
POINT
  5
1FC0
  8
DANMEN
  6
CONTINUOUS
 10
143.8222815226261
 20
108.8998011528883
 30
0.0
  0
ARC
  5
1FC1
  8
DANMEN
  6
CONTINUOUS
 10
143.3222815226259
 20
109.3998011528882
 30
0.0
 40
0.5
 50
270.0
 51
0.0
  0
POINT
  5
1FC2
  8
DANMEN
  6
CONTINUOUS
 10
143.8222815226261
 20
110.54980115288831
 30
0.0
  0
ARC
  5
1FC3
  8
DANMEN
  6
CONTINUOUS
 10
143.3222815226259
 20
110.04980115288831
 30
0.0
 40
0.5
 50
0.0
 51
90.0
  0
LINE
  5
1FC4
  8
DANMEN
  6
CONTINUOUS
 10
143.8222815226261
 20
109.3998011528882
 30
0.0
 11
143.8222815226261
 21
110.04980115288831
 31
0.0
  0
POINT
  5
1FC5
  8
DANMEN
  6
CONTINUOUS
 10
139.4722815226261
 20
117.2498011528882
 30
0.0
  0
ARC
  5
1FC6
  8
DANMEN
  6
CONTINUOUS
 10
138.9722815226261
 20
117.7498011528882
 30
0.0
 40
0.5
 50
270.0
 51
0.0
  0
LINE
  5
1FC7
  8
DANMEN
  6
CONTINUOUS
 10
144.8222815226261
 20
129.8998011528883
 30
0.0
 11
147.3222815226259
 21
129.8998011528883
 31
0.0
  0
POINT
  5
1FC8
  8
DANMEN
  6
CONTINUOUS
 10
147.8222815226261
 20
130.0998011528882
 30
0.0
  0
POINT
  5
1FC9
  8
DANMEN
  6
CONTINUOUS
 10
147.3222815226259
 20
129.8998011528883
 30
0.0
  0
LINE
  5
1FCA
  8
DANMEN
  6
CONTINUOUS
 10
147.3222815226259
 20
129.8998011528883
 30
0.0
 11
147.8222815226261
 21
130.0998011528882
 31
0.0
  0
POINT
  5
1FCB
  8
DANMEN
  6
CONTINUOUS
 10
153.8222815226259
 20
130.0998011528882
 30
0.0
  0
LINE
  5
1FCC
  8
DANMEN
  6
CONTINUOUS
 10
154.3222815226259
 20
129.8998011528883
 30
0.0
 11
156.8222815226259
 21
129.8998011528883
 31
0.0
  0
POINT
  5
1FCD
  8
DANMEN
  6
CONTINUOUS
 10
154.3222815226259
 20
129.8998011528883
 30
0.0
  0
LINE
  5
1FCE
  8
DANMEN
  6
CONTINUOUS
 10
149.2152815226261
 20
131.8998011528883
 30
0.0
 11
155.7092815226261
 21
138.3938011528883
 31
0.0
  0
LINE
  5
1FCF
  8
DANMEN
  6
CONTINUOUS
 10
150.629281522626
 20
131.8998011528883
 30
0.0
 11
156.79428152262599
 21
138.06480115288821
 31
0.0
  0
LINE
  5
1FD0
  8
DANMEN
  6
CONTINUOUS
 10
152.04428152262591
 20
131.8998011528883
 30
0.0
 11
156.8222815226259
 21
136.67780115288829
 31
0.0
  0
LINE
  5
1FD1
  8
DANMEN
  6
CONTINUOUS
 10
162.87228152262611
 20
139.8998011528883
 30
0.0
 11
153.8222815226259
 21
139.8998011528883
 31
0.0
  0
LINE
  5
1FD2
  8
DANMEN
  6
CONTINUOUS
 10
153.8222815226259
 20
137.3998011528883
 30
0.0
 11
154.4082815226262
 21
137.3998011528883
 31
0.0
  0
LINE
  5
1FD3
  8
DANMEN
  6
CONTINUOUS
 10
153.8222815226259
 20
132.8998011528883
 30
0.0
 11
154.4082815226262
 21
132.8998011528883
 31
0.0
  0
LINE
  5
1FD4
  8
DANMEN
  6
CONTINUOUS
 10
144.8222815226261
 20
137.40580115288819
 30
0.0
 11
145.8162815226261
 21
138.3998011528883
 31
0.0
  0
LINE
  5
1FD5
  8
DANMEN
  6
CONTINUOUS
 10
144.8222815226261
 20
135.99180115288831
 30
0.0
 11
146.7032815226261
 21
137.8728011528882
 31
0.0
  0
LINE
  5
1FD6
  8
DANMEN
  6
CONTINUOUS
 10
144.8222815226261
 20
134.5778011528883
 30
0.0
 11
147.6442815226261
 21
137.3998011528883
 31
0.0
  0
LINE
  5
1FD7
  8
DANMEN
  6
CONTINUOUS
 10
144.8222815226261
 20
133.16380115288831
 30
0.0
 11
151.558281522626
 21
139.8998011528883
 31
0.0
  0
LINE
  5
1FD8
  8
DANMEN
  6
CONTINUOUS
 10
145.052281522626
 20
131.97880115288831
 30
0.0
 11
152.97328152262591
 21
139.8998011528883
 31
0.0
  0
LINE
  5
1FD9
  8
DANMEN
  6
CONTINUOUS
 10
145.3222815226259
 20
138.3998011528883
 30
0.0
 11
145.8222815226261
 21
138.3998011528883
 31
0.0
  0
LINE
  5
1FDA
  8
DANMEN
  6
CONTINUOUS
 10
145.3222815226259
 20
131.8998011528883
 30
0.0
 11
145.8222815226261
 21
131.8998011528883
 31
0.0
  0
LINE
  5
1FDB
  8
DANMEN
  6
CONTINUOUS
 10
144.8222815226261
 20
132.39980115288819
 30
0.0
 11
144.8222815226261
 21
137.8998011528883
 31
0.0
  0
LINE
  5
1FDC
  8
DANMEN
  6
CONTINUOUS
 10
142.8222815226261
 20
131.8998011528883
 30
0.0
 11
142.8222815226261
 21
138.0998011528882
 31
0.0
  0
POINT
  5
1FDD
  8
DANMEN
  6
CONTINUOUS
 10
144.8222815226261
 20
131.8998011528883
 30
0.0
  0
ARC
  5
1FDE
  8
DANMEN
  6
CONTINUOUS
 10
145.3222815226259
 20
132.39980115288819
 30
0.0
 40
0.5
 50
180.0
 51
270.0
  0
LINE
  5
1FDF
  8
DANMEN
  6
CONTINUOUS
 10
139.4722815226261
 20
138.0998011528882
 30
0.0
 11
142.8222815226261
 21
138.0998011528882
 31
0.0
  0
POINT
  5
1FE0
  8
DANMEN
  6
CONTINUOUS
 10
139.4722815226261
 20
138.0998011528882
 30
0.0
  0
ARC
  5
1FE1
  8
DANMEN
  6
CONTINUOUS
 10
145.3222815226259
 20
137.8998011528883
 30
0.0
 40
0.5
 50
90.0
 51
180.0
  0
POINT
  5
1FE2
  8
DANMEN
  6
CONTINUOUS
 10
144.8222815226261
 20
138.3998011528883
 30
0.0
  0
POINT
  5
1FE3
  8
DANMEN
  6
CONTINUOUS
 10
142.8222815226261
 20
138.0998011528882
 30
0.0
  0
LINE
  5
1FE4
  8
DANMEN
  6
CONTINUOUS
 10
147.8222815226261
 20
137.57780115288821
 30
0.0
 11
150.1442815226261
 21
139.8998011528883
 31
0.0
  0
LINE
  5
1FE5
  8
DANMEN
  6
CONTINUOUS
 10
147.38728152262601
 20
132.8998011528883
 30
0.0
 11
153.8222815226259
 21
139.33480115288819
 31
0.0
  0
LINE
  5
1FE6
  8
DANMEN
  6
CONTINUOUS
 10
147.8222815226261
 20
131.9208011528882
 30
0.0
 11
153.8222815226259
 21
137.9208011528882
 31
0.0
  0
LINE
  5
1FE7
  8
DANMEN
  6
CONTINUOUS
 10
147.8222815226261
 20
139.8998011528883
 30
0.0
 11
147.8222815226261
 21
137.3998011528883
 31
0.0
  0
LINE
  5
1FE8
  8
DANMEN
  6
CONTINUOUS
 10
153.8222815226259
 20
139.8998011528883
 30
0.0
 11
153.8222815226259
 21
137.3998011528883
 31
0.0
  0
ARC
  5
1FE9
  8
DANMEN
  6
CONTINUOUS
 10
147.2362815226262
 20
137.8998011528883
 30
0.0
 40
0.5
 50
199.47099999999941
 51
270.0
  0
LINE
  5
1FEA
  8
DANMEN
  6
CONTINUOUS
 10
147.8222815226261
 20
131.8998011528883
 30
0.0
 11
153.8222815226259
 21
131.8998011528883
 31
0.0
  0
POINT
  5
1FEB
  8
DANMEN
  6
CONTINUOUS
 10
147.8222815226261
 20
132.8998011528883
 30
0.0
  0
POINT
  5
1FEC
  8
DANMEN
  6
CONTINUOUS
 10
146.8222815226261
 20
132.8998011528883
 30
0.0
  0
POINT
  5
1FED
  8
DANMEN
  6
CONTINUOUS
 10
145.8222815226261
 20
132.8998011528883
 30
0.0
  0
LINE
  5
1FEE
  8
DANMEN
  6
CONTINUOUS
 10
147.2362815226262
 20
137.3998011528883
 30
0.0
 11
147.8222815226261
 21
137.3998011528883
 31
0.0
  0
POINT
  5
1FEF
  8
DANMEN
  6
CONTINUOUS
 10
145.8222815226261
 20
137.3998011528883
 30
0.0
  0
POINT
  5
1FF0
  8
DANMEN
  6
CONTINUOUS
 10
146.8222815226261
 20
137.3998011528883
 30
0.0
  0
POINT
  5
1FF1
  8
DANMEN
  6
CONTINUOUS
 10
147.8222815226261
 20
137.3998011528883
 30
0.0
  0
POINT
  5
1FF2
  8
DANMEN
  6
CONTINUOUS
 10
147.8222815226261
 20
131.8998011528883
 30
0.0
  0
POINT
  5
1FF3
  8
DANMEN
  6
CONTINUOUS
 10
147.8222815226261
 20
132.8998011528883
 30
0.0
  0
POINT
  5
1FF4
  8
DANMEN
  6
CONTINUOUS
 10
146.8222815226261
 20
132.8998011528883
 30
0.0
  0
ARC
  5
1FF5
  8
DANMEN
  6
CONTINUOUS
 10
147.2362815226262
 20
132.39980115288819
 30
0.0
 40
0.5
 50
90.0
 51
160.5289999999996
  0
LINE
  5
1FF6
  8
DANMEN
  6
CONTINUOUS
 10
147.2362815226262
 20
132.8998011528883
 30
0.0
 11
147.8222815226261
 21
132.8998011528883
 31
0.0
  0
LINE
  5
1FF7
  8
DANMEN
  6
CONTINUOUS
 10
153.45828152262609
 20
131.8998011528883
 30
0.0
 11
153.8222815226259
 21
132.26380115288831
 31
0.0
  0
POINT
  5
1FF8
  8
DANMEN
  6
CONTINUOUS
 10
153.8222815226259
 20
137.3998011528883
 30
0.0
  0
POINT
  5
1FF9
  8
DANMEN
  6
CONTINUOUS
 10
153.8222815226259
 20
131.8998011528883
 30
0.0
  0
POINT
  5
1FFA
  8
DANMEN
  6
CONTINUOUS
 10
153.8222815226259
 20
132.8998011528883
 30
0.0
  0
LINE
  5
1FFB
  8
DANMEN
  6
CONTINUOUS
 10
147.8222815226261
 20
139.8998011528883
 30
0.0
 11
153.8222815226259
 21
139.8998011528883
 31
0.0
  0
LINE
  5
1FFC
  8
DANMEN
  6
CONTINUOUS
 10
147.8222815226261
 20
138.99180115288831
 30
0.0
 11
148.730281522626
 21
139.8998011528883
 31
0.0
  0
ARC
  5
1FFD
  8
DANMEN
  6
CONTINUOUS
 10
145.8222815226261
 20
137.3998011528883
 30
0.0
 40
1.0
 50
19.471000000000359
 51
90.0
  0
POINT
  5
1FFE
  8
DANMEN
  6
CONTINUOUS
 10
150.8222815226261
 20
139.8998011528883
 30
0.0
  0
POINT
  5
1FFF
  8
DANMEN
  6
CONTINUOUS
 10
150.8222815226261
 20
139.8998011528883
 30
0.0
  0
LINE
  5
2000
  8
DANMEN
  6
CONTINUOUS
 10
162.022281522626
 20
138.19980115288831
 30
0.0
 11
163.62228152262611
 21
138.19980115288831
 31
0.0
  0
ARC
  5
2001
  8
DANMEN
  6
CONTINUOUS
 10
162.022281522626
 20
137.19980115288831
 30
0.0
 40
1.0
 50
90.0
 51
180.0
  0
LINE
  5
2002
  8
DANMEN
  6
CONTINUOUS
 10
156.8222815226259
 20
132.39980115288819
 30
0.0
 11
156.8222815226259
 21
137.8998011528883
 31
0.0
  0
ARC
  5
2003
  8
DANMEN
  6
CONTINUOUS
 10
154.4082815226262
 20
137.8998011528883
 30
0.0
 40
0.5
 50
270.0
 51
340.52899999999948
  0
LINE
  5
2004
  8
DANMEN
  6
CONTINUOUS
 10
154.45628152262611
 20
132.89780115288821
 30
0.0
 11
156.8222815226259
 21
135.26380115288831
 31
0.0
  0
LINE
  5
2005
  8
DANMEN
  6
CONTINUOUS
 10
155.14028152262611
 20
132.1678011528883
 30
0.0
 11
156.8222815226259
 21
133.8498011528882
 31
0.0
  0
LINE
  5
2006
  8
DANMEN
  6
CONTINUOUS
 10
156.28628152262601
 20
131.8998011528883
 30
0.0
 11
156.8222815226259
 21
132.4358011528883
 31
0.0
  0
POINT
  5
2007
  8
DANMEN
  6
CONTINUOUS
 10
154.8222815226259
 20
132.8998011528883
 30
0.0
  0
POINT
  5
2008
  8
DANMEN
  6
CONTINUOUS
 10
155.8222815226259
 20
132.8998011528883
 30
0.0
  0
POINT
  5
2009
  8
DANMEN
  6
CONTINUOUS
 10
156.8222815226259
 20
131.8998011528883
 30
0.0
  0
ARC
  5
200A
  8
DANMEN
  6
CONTINUOUS
 10
156.3222815226261
 20
132.39980115288819
 30
0.0
 40
0.5
 50
270.0
 51
0.0
  0
POINT
  5
200B
  8
DANMEN
  6
CONTINUOUS
 10
155.8222815226259
 20
137.3998011528883
 30
0.0
  0
POINT
  5
200C
  8
DANMEN
  6
CONTINUOUS
 10
154.8222815226259
 20
137.3998011528883
 30
0.0
  0
LINE
  5
200D
  8
DANMEN
  6
CONTINUOUS
 10
155.8222815226259
 20
131.8998011528883
 30
0.0
 11
156.3222815226261
 21
131.8998011528883
 31
0.0
  0
POINT
  5
200E
  8
DANMEN
  6
CONTINUOUS
 10
154.8222815226259
 20
132.8998011528883
 30
0.0
  0
ARC
  5
200F
  8
DANMEN
  6
CONTINUOUS
 10
154.4082815226262
 20
132.39980115288819
 30
0.0
 40
0.5
 50
19.471000000000359
 51
90.0
  0
POINT
  5
2010
  8
DANMEN
  6
CONTINUOUS
 10
155.8222815226259
 20
132.8998011528883
 30
0.0
  0
ARC
  5
2011
  8
DANMEN
  6
CONTINUOUS
 10
161.522281522626
 20
134.86280115288821
 30
0.0
 40
0.2
 50
0.0
 51
65.376000000000175
  0
ARC
  5
2012
  8
DANMEN
  6
CONTINUOUS
 10
162.022281522626
 20
135.9538011528883
 30
0.0
 40
1.0
 50
180.0
 51
245.37600000000009
  0
LINE
  5
2013
  8
DANMEN
  6
CONTINUOUS
 10
161.7222815226261
 20
134.5998011528882
 30
0.0
 11
161.7222815226261
 21
134.86280115288821
 31
0.0
  0
LINE
  5
2014
  8
DANMEN
  6
CONTINUOUS
 10
161.022281522626
 20
135.9538011528883
 30
0.0
 11
161.022281522626
 21
137.19980115288831
 31
0.0
  0
LINE
  5
2015
  8
DANMEN
  6
CONTINUOUS
 10
158.8222815226259
 20
134.29980115288831
 30
0.0
 11
161.42228152262601
 21
134.29980115288831
 31
0.0
  0
ARC
  5
2016
  8
DANMEN
  6
CONTINUOUS
 10
161.42228152262601
 20
134.5998011528882
 30
0.0
 40
0.3
 50
270.0
 51
0.0
  0
LINE
  5
2017
  8
DANMEN
  6
CONTINUOUS
 10
158.8222815226259
 20
131.8998011528883
 30
0.0
 11
158.8222815226259
 21
134.29980115288831
 31
0.0
  0
POINT
  5
2018
  8
DANMEN
  6
CONTINUOUS
 10
158.8222815226259
 20
134.29980115288831
 30
0.0
  0
LINE
  5
2019
  8
DANMEN
  6
CONTINUOUS
 10
155.8222815226259
 20
138.3998011528883
 30
0.0
 11
156.3222815226261
 21
138.3998011528883
 31
0.0
  0
ARC
  5
201A
  8
DANMEN
  6
CONTINUOUS
 10
156.3222815226261
 20
137.8998011528883
 30
0.0
 40
0.5
 50
0.0
 51
90.0
  0
POINT
  5
201B
  8
DANMEN
  6
CONTINUOUS
 10
156.8222815226259
 20
138.3998011528883
 30
0.0
  0
ARC
  5
201C
  8
DANMEN
  6
CONTINUOUS
 10
155.8222815226259
 20
137.3998011528883
 30
0.0
 40
1.0
 50
90.0
 51
160.5289999999996
  0
ARC
  5
201D
  8
DANMEN
  6
CONTINUOUS
 10
167.12228152262611
 20
137.0998011528882
 30
0.0
 40
1.0
 50
90.0
 51
180.0
  0
ARC
  5
201E
  8
DANMEN
  6
CONTINUOUS
 10
163.62228152262611
 20
137.19980115288831
 30
0.0
 40
1.0
 50
0.0
 51
90.0
  0
ARC
  5
201F
  8
DANMEN
  6
CONTINUOUS
 10
164.12228152262611
 20
135.86980115288819
 30
0.0
 40
2.0
 50
308.29300000000001
 51
0.0
  0
LINE
  5
2020
  8
DANMEN
  6
CONTINUOUS
 10
163.92228152262601
 20
134.5998011528882
 30
0.0
 11
163.92228152262601
 21
134.86280115288821
 31
0.0
  0
ARC
  5
2021
  8
DANMEN
  6
CONTINUOUS
 10
163.62228152262611
 20
135.9538011528883
 30
0.0
 40
1.0
 50
294.6239999999998
 51
0.0
  0
ARC
  5
2022
  8
DANMEN
  6
CONTINUOUS
 10
164.12228152262611
 20
134.86280115288821
 30
0.0
 40
0.2
 50
114.6239999999998
 51
180.0
  0
LINE
  5
2023
  8
DANMEN
  6
CONTINUOUS
 10
166.12228152262611
 20
135.86980115288819
 30
0.0
 11
166.12228152262611
 21
137.0998011528882
 31
0.0
  0
LINE
  5
2024
  8
DANMEN
  6
CONTINUOUS
 10
164.62228152262611
 20
135.9538011528883
 30
0.0
 11
164.62228152262611
 21
137.19980115288831
 31
0.0
  0
LINE
  5
2025
  8
DANMEN
  6
CONTINUOUS
 10
164.2222815226261
 20
134.29980115288831
 30
0.0
 11
165.361281522626
 21
134.29980115288831
 31
0.0
  0
ARC
  5
2026
  8
DANMEN
  6
CONTINUOUS
 10
164.2222815226261
 20
134.5998011528882
 30
0.0
 40
0.3
 50
180.0
 51
270.0
  0
LINE
  5
2027
  8
DANMEN
  6
CONTINUOUS
 10
169.522281522626
 20
139.8998011528883
 30
0.0
 11
164.5222815226262
 21
139.8998011528883
 31
0.0
  0
LINE
  5
2028
  8
DANMEN
  6
CONTINUOUS
 10
167.12228152262611
 20
138.0998011528882
 30
0.0
 11
169.224281522626
 21
138.0998011528882
 31
0.0
  0
POINT
  5
2029
  8
DANMEN
  6
CONTINUOUS
 10
169.522281522626
 20
139.8998011528883
 30
0.0
  0
ARC
  5
202A
  8
DANMEN
  6
CONTINUOUS
 10
169.224281522626
 20
138.59980115288829
 30
0.0
 40
0.5
 50
270.0
 51
287.51900000000069
  0
POINT
  5
202B
  8
DANMEN
  6
CONTINUOUS
 10
169.301281522626
 20
138.0998011528882
 30
0.0
  0
LINE
  5
202C
  8
DANMEN
  6
CONTINUOUS
 10
182.17228152262601
 20
142.16280115288831
 30
0.0
 11
182.17228152262601
 21
110.54980115288831
 31
0.0
  0
LINE
  5
202D
  8
DANMEN
  6
CONTINUOUS
 10
182.17228152262601
 20
110.54980115288831
 30
0.0
 11
174.3222815226259
 21
110.54980115288831
 31
0.0
  0
LINE
  5
202E
  8
DANMEN
  6
CONTINUOUS
 10
183.32228152262601
 20
108.8998011528883
 30
0.0
 11
174.3222815226259
 21
108.8998011528883
 31
0.0
  0
POINT
  5
202F
  8
DANMEN
  6
CONTINUOUS
 10
173.82228152262601
 20
108.8998011528883
 30
0.0
  0
ARC
  5
2030
  8
DANMEN
  6
CONTINUOUS
 10
174.3222815226259
 20
109.3998011528882
 30
0.0
 40
0.5
 50
180.0
 51
270.0
  0
POINT
  5
2031
  8
DANMEN
  6
CONTINUOUS
 10
173.82228152262601
 20
110.54980115288831
 30
0.0
  0
ARC
  5
2032
  8
DANMEN
  6
CONTINUOUS
 10
174.3222815226259
 20
110.04980115288831
 30
0.0
 40
0.5
 50
90.0
 51
180.0
  0
LINE
  5
2033
  8
DANMEN
  6
CONTINUOUS
 10
173.82228152262601
 20
110.04980115288831
 30
0.0
 11
173.82228152262601
 21
109.3998011528882
 31
0.0
  0
POINT
  5
2034
  8
DANMEN
  6
CONTINUOUS
 10
182.17228152262601
 20
110.54980115288831
 30
0.0
  0
POINT
  5
2035
  8
DANMEN
  6
CONTINUOUS
 10
183.8222815226259
 20
108.8998011528883
 30
0.0
  0
ARC
  5
2036
  8
DANMEN
  6
CONTINUOUS
 10
183.32228152262601
 20
109.3998011528882
 30
0.0
 40
0.5
 50
270.0
 51
0.0
  0
ARC
  5
2037
  8
DANMEN
  6
CONTINUOUS
 10
181.17228152262601
 20
144.6258011528883
 30
0.0
 40
1.0
 50
287.51900000000069
 51
0.0
  0
POINT
  5
2038
  8
DANMEN
  6
CONTINUOUS
 10
182.17228152262601
 20
143.8928011528883
 30
0.0
  0
LINE
  5
2039
  8
DANMEN
  6
CONTINUOUS
 10
164.5222815226262
 20
158.8998011528883
 30
0.0
 11
182.17228152262601
 21
158.8998011528883
 31
0.0
  0
LINE
  5
203A
  8
DANMEN
  6
CONTINUOUS
 10
164.5222815226262
 20
157.2498011528883
 30
0.0
 11
182.17228152262601
 21
157.2498011528883
 31
0.0
  0
LINE
  5
203B
  8
DANMEN
  6
CONTINUOUS
 10
162.87228152262611
 20
158.8998011528883
 30
0.0
 11
162.022281522626
 21
158.8998011528883
 31
0.0
  0
ARC
  5
203C
  8
DANMEN
  6
CONTINUOUS
 10
162.522281522626
 20
163.3998011528883
 30
0.0
 40
0.5
 50
90.0
 51
180.0
  0
LINE
  5
203D
  8
DANMEN
  6
CONTINUOUS
 10
162.022281522626
 20
163.3998011528883
 30
0.0
 11
162.022281522626
 21
158.8998011528883
 31
0.0
  0
LINE
  5
203E
  8
DANMEN
  6
CONTINUOUS
 10
164.5222815226262
 20
163.3998011528883
 30
0.0
 11
164.5222815226262
 21
158.8998011528883
 31
0.0
  0
ARC
  5
203F
  8
DANMEN
  6
CONTINUOUS
 10
164.02228152262609
 20
163.3998011528883
 30
0.0
 40
0.5
 50
0.0
 51
90.0
  0
LINE
  5
2040
  8
DANMEN
  6
CONTINUOUS
 10
164.02228152262609
 20
163.8998011528883
 30
0.0
 11
162.522281522626
 21
163.8998011528883
 31
0.0
  0
LINE
  5
2041
  8
DANMEN
  6
CONTINUOUS
 10
162.522281522626
 20
163.8998011528883
 30
0.0
 11
164.5222815226262
 21
163.8998011528883
 31
0.0
  0
LINE
  5
2042
  8
DANMEN
  6
CONTINUOUS
 10
183.8222815226259
 20
162.79980115288831
 30
0.0
 11
202.82228152262601
 21
162.79980115288831
 31
0.0
  0
LINE
  5
2043
  8
DANMEN
  6
CONTINUOUS
 10
202.32228152262601
 20
163.8998011528883
 30
0.0
 11
180.8222815226259
 21
163.8998011528883
 31
0.0
  0
LINE
  5
2044
  8
DANMEN
  6
CONTINUOUS
 10
182.17228152262601
 20
162.69980115288831
 30
0.0
 11
182.17228152262601
 21
158.8998011528883
 31
0.0
  0
LINE
  5
2045
  8
DANMEN
  6
CONTINUOUS
 10
180.8222815226259
 20
163.8998011528883
 30
0.0
 11
183.32228152262601
 21
163.8998011528883
 31
0.0
  0
LINE
  5
2046
  8
DANMEN
  6
CONTINUOUS
 10
182.17228152262601
 20
163.8998011528883
 30
0.0
 11
183.8222815226259
 21
163.8998011528883
 31
0.0
  0
LINE
  5
2047
  8
DANMEN
  6
CONTINUOUS
 10
180.32228152262601
 20
162.69980115288831
 30
0.0
 11
182.17228152262601
 21
162.69980115288831
 31
0.0
  0
ARC
  5
2048
  8
DANMEN
  6
CONTINUOUS
 10
180.8222815226259
 20
163.3998011528883
 30
0.0
 40
0.5
 50
90.0
 51
180.0
  0
LINE
  5
2049
  8
DANMEN
  6
CONTINUOUS
 10
180.32228152262601
 20
163.3998011528883
 30
0.0
 11
180.32228152262601
 21
162.69980115288831
 31
0.0
  0
LINE
  5
204A
  8
DANMEN
  6
CONTINUOUS
 10
202.82228152262601
 20
162.79980115288831
 30
0.0
 11
202.82228152262601
 21
161.3998011528883
 31
0.0
  0
LINE
  5
204B
  8
DANMEN
  6
CONTINUOUS
 10
202.32228152262601
 20
163.8998011528883
 30
0.0
 11
202.75228152262599
 21
166.48180115288821
 31
0.0
  0
LINE
  5
204C
  8
DANMEN
  6
CONTINUOUS
 10
260.8222815226261
 20
152.3998011528883
 30
0.0
 11
260.8222815226261
 21
161.3998011528883
 31
0.0
  0
LINE
  5
204D
  8
DANMEN
  6
CONTINUOUS
 10
262.47228152262602
 20
153.54980115288831
 30
0.0
 11
262.47228152262602
 21
161.3998011528883
 31
0.0
  0
LINE
  5
204E
  8
SUNPO
  6
CONTINUOUS
 10
210.19728152262601
 20
163.8998011528883
 30
0.0
 11
210.19728152262601
 21
108.8998011528883
 31
0.0
  0
POLYLINE
  5
204F
  8
SUNPO
  6
BYBLOCK
 66
     1
 10
0.0
 20
0.0
 30
0.0
 70
     1
 40
1.159999999999999
 41
1.159999999999999
  0
VERTEX
  5
23F7
  8
SUNPO
  6
BYBLOCK
 10
210.19728152262601
 20
109.0459611528882
 30
0.0
 42
1.0
  0
VERTEX
  5
23F8
  8
SUNPO
  6
BYBLOCK
 10
210.19728152262601
 20
108.75364115288831
 30
0.0
 42
1.0
  0
SEQEND
  5
23F9
  8
SUNPO
  6
BYBLOCK
  0
TEXT
  5
2053
  8
SUNPO
  6
CONTINUOUS
 10
209.69728152262601
 20
134.3164678195549
 30
0.0
 40
2.5
  1
55
 50
90.0
  0
TEXT
  5
2054
  8
SUNPO
  6
CONTINUOUS
 10
223.32228152262601
 20
131.83730115288819
 30
0.0
 40
2.5
  1
60
 50
90.0
 41
1.1000000000000001
  7
MX_DIMTXSTY_3
  0
POLYLINE
  5
2055
  8
SUNPO
  6
BYBLOCK
 66
     1
 10
0.0
 20
0.0
 30
0.0
 70
     1
 40
1.159999999999999
 41
1.159999999999999
  0
VERTEX
  5
23FA
  8
SUNPO
  6
BYBLOCK
 10
260.96844152262599
 20
111.8998011528883
 30
0.0
 42
1.0
  0
VERTEX
  5
23FB
  8
SUNPO
  6
BYBLOCK
 10
260.67612152262598
 20
111.8998011528883
 30
0.0
 42
1.0
  0
SEQEND
  5
23FC
  8
SUNPO
  6
BYBLOCK
  0
TEXT
  5
2059
  8
SUNPO
  6
CONTINUOUS
 10
263.8535315226261
 20
112.3998011528883
 30
0.0
 40
2.5
  1
10
 41
1.3500000000000001
  7
MX_DIMTXSTY_4
  0
ARC
  5
205A
  8
DANMEN
  6
CONTINUOUS
 10
268.32228152262599
 20
132.39980115288819
 30
0.0
 40
0.5
 50
90.0
 51
270.0
  0
ARC
  5
205B
  8
DANMEN
  6
CONTINUOUS
 10
261.3222815226261
 20
152.3998011528883
 30
0.0
 40
0.5
 50
180.0
 51
270.0
  0
POINT
  5
205C
  8
DANMEN
  6
CONTINUOUS
 10
262.47228152262602
 20
153.54980115288831
 30
0.0
 50
180.0
  0
POINT
  5
205D
  8
DANMEN
  6
CONTINUOUS
 10
262.47228152262602
 20
153.54980115288831
 30
0.0
 50
180.0
  0
LINE
  5
205E
  8
SUNPO
  6
CONTINUOUS
 10
218.8222815226259
 20
168.8998011528883
 30
0.0
 11
228.82228152262601
 21
168.8998011528883
 31
0.0
  0
LINE
  5
205F
  8
SUNPO
  6
CONTINUOUS
 10
223.82228152262601
 20
163.8998011528883
 30
0.0
 11
218.8222815226259
 21
168.8998011528883
 31
0.0
  0
ARC
  5
2060
  8
DANMEN
  6
CONTINUOUS
 10
203.32228152262601
 20
166.3998011528883
 30
0.0
 40
0.5
 50
0.0
 51
90.0
  0
LINE
  5
2061
  8
SUNPO
  6
CONTINUOUS
 10
210.19728152262601
 20
166.8998011528883
 30
0.0
 11
210.19728152262601
 21
163.8998011528883
 31
0.0
  0
TEXT
  5
2062
  8
SUNPO
  6
CONTINUOUS
 10
209.69728152262601
 20
164.5664678195549
 30
0.0
 40
2.5
  1
3
 50
90.0
  0
LINE
  5
2063
  8
DANMEN
  6
CONTINUOUS
 10
203.82228152262601
 20
166.3998011528883
 30
0.0
 11
203.82228152262601
 21
161.3998011528883
 31
0.0
  0
POLYLINE
  5
2064
  8
SUNPO
  6
BYBLOCK
 66
     1
 10
0.0
 20
0.0
 30
0.0
 70
     1
 40
1.159999999999999
 41
1.159999999999999
  0
VERTEX
  5
23FD
  8
SUNPO
  6
BYBLOCK
 10
210.19728152262601
 20
164.04596115288831
 30
0.0
 42
1.0
  0
VERTEX
  5
23FE
  8
SUNPO
  6
BYBLOCK
 10
210.19728152262601
 20
163.75364115288821
 30
0.0
 42
1.0
  0
SEQEND
  5
23FF
  8
SUNPO
  6
BYBLOCK
  0
POLYLINE
  5
2068
  8
SUNPO
  6
BYBLOCK
 66
     1
 10
0.0
 20
0.0
 30
0.0
 70
     1
 40
1.159999999999999
 41
1.159999999999999
  0
VERTEX
  5
2400
  8
SUNPO
  6
BYBLOCK
 10
210.19728152262601
 20
163.75364115288821
 30
0.0
 42
1.0
  0
VERTEX
  5
2401
  8
SUNPO
  6
BYBLOCK
 10
210.19728152262601
 20
164.04596115288831
 30
0.0
 42
1.0
  0
SEQEND
  5
2402
  8
SUNPO
  6
BYBLOCK
  0
LINE
  5
206C
  8
SUNPO
  6
CONTINUOUS
 10
204.82228152262601
 20
166.8998011528883
 30
0.0
 11
210.19728152262601
 21
166.8998011528883
 31
0.0
  0
LINE
  5
206D
  8
DANMEN
  6
CONTINUOUS
 10
203.24628152262599
 20
166.8998011528883
 30
0.0
 11
203.32228152262601
 21
166.8998011528883
 31
0.0
  0
POLYLINE
  5
206E
  8
SUNPO
  6
BYBLOCK
 66
     1
 10
0.0
 20
0.0
 30
0.0
 70
     1
 40
1.159999999999999
 41
1.159999999999999
  0
VERTEX
  5
2403
  8
SUNPO
  6
BYBLOCK
 10
210.19728152262601
 20
166.75364115288821
 30
0.0
 42
1.0
  0
VERTEX
  5
2404
  8
SUNPO
  6
BYBLOCK
 10
210.19728152262601
 20
167.04596115288831
 30
0.0
 42
1.0
  0
SEQEND
  5
2405
  8
SUNPO
  6
BYBLOCK
  0
POINT
  5
2072
  8
SUNPO
  6
CONTINUOUS
 10
218.8222815226259
 20
168.8998011528883
 30
0.0
  0
LINE
  5
2073
  8
SUNPO
  6
CONTINUOUS
 10
228.82228152262601
 20
168.8998011528883
 30
0.0
 11
223.82228152262601
 21
163.8998011528883
 31
0.0
  0
POINT
  5
2074
  8
SUNPO
  6
CONTINUOUS
 10
223.82228152262601
 20
163.8998011528883
 30
0.0
  0
POINT
  5
2075
  8
SUNPO
  6
CONTINUOUS
 10
228.82228152262601
 20
168.8998011528883
 30
0.0
  0
ARC
  5
2076
  8
DANMEN
  6
CONTINUOUS
 10
262.8222815226261
 20
178.8998011528883
 30
0.0
 40
2.0
 50
180.0
 51
270.0
  0
LINE
  5
2077
  8
DANMEN
  6
CONTINUOUS
 10
261.3222815226261
 20
161.8998011528883
 30
0.0
 11
261.97228152262602
 21
161.8998011528883
 31
0.0
  0
ARC
  5
2078
  8
DANMEN
  6
CONTINUOUS
 10
261.97228152262602
 20
161.3998011528883
 30
0.0
 40
0.5
 50
0.0
 51
90.0
  0
POINT
  5
2079
  8
DANMEN
  6
CONTINUOUS
 10
262.47228152262602
 20
161.8998011528883
 30
0.0
 50
180.0
  0
ARC
  5
207A
  8
DANMEN
  6
CONTINUOUS
 10
261.3222815226261
 20
161.3998011528883
 30
0.0
 40
0.5
 50
90.0
 51
180.0
  0
POINT
  5
207B
  8
DANMEN
  6
CONTINUOUS
 10
260.8222815226261
 20
161.8998011528883
 30
0.0
 50
180.0
  0
POINT
  5
207C
  8
DANMEN
  6
CONTINUOUS
 10
262.8222815226261
 20
176.8998011528883
 30
0.0
 50
180.0
  0
POINT
  5
207D
  8
DANMEN
  6
CONTINUOUS
 10
260.8222815226261
 20
176.8998011528883
 30
0.0
 50
180.0
  0
LINE
  5
207E
  8
DANMEN
  6
CONTINUOUS
 10
268.32228152262599
 20
188.3408011528883
 30
0.0
 11
265.76328152262602
 21
190.8998011528883
 31
0.0
  0
ARC
  5
207F
  8
DANMEN
  6
CONTINUOUS
 10
263.8222815226261
 20
189.8998011528883
 30
0.0
 40
1.0
 50
180.0
 51
250.52900000000039
  0
LINE
  5
2080
  8
DANMEN
  6
CONTINUOUS
 10
260.8222815226261
 20
188.39980115288819
 30
0.0
 11
260.8222815226261
 21
200.39980115288819
 31
0.0
  0
LINE
  5
2081
  8
DANMEN
  6
CONTINUOUS
 10
268.32428152262599
 20
181.26780115288821
 30
0.0
 11
262.8222815226261
 21
186.76980115288831
 31
0.0
  0
LINE
  5
2082
  8
DANMEN
  6
CONTINUOUS
 10
262.8222815226261
 20
187.8998011528883
 30
0.0
 11
262.8222815226261
 21
181.8998011528883
 31
0.0
  0
LINE
  5
2083
  8
DANMEN
  6
CONTINUOUS
 10
267.86428152262602
 20
178.8998011528883
 30
0.0
 11
262.8222815226261
 21
183.94180115288819
 31
0.0
  0
LINE
  5
2084
  8
DANMEN
  6
CONTINUOUS
 10
266.44928152262599
 20
178.8998011528883
 30
0.0
 11
263.8222815226261
 21
181.52680115288831
 31
0.0
  0
LINE
  5
2085
  8
DANMEN
  6
CONTINUOUS
 10
265.03528152262601
 20
178.8998011528883
 30
0.0
 11
263.230281522626
 21
180.7058011528882
 31
0.0
  0
LINE
  5
2086
  8
DANMEN
  6
CONTINUOUS
 10
263.3222815226261
 20
178.8998011528883
 30
0.0
 11
268.82228152262587
 21
178.8998011528883
 31
0.0
  0
LINE
  5
2087
  8
DANMEN
  6
CONTINUOUS
 10
263.44928152262599
 20
181.8998011528883
 30
0.0
 11
262.8222815226261
 21
182.52680115288831
 31
0.0
  0
LINE
  5
2088
  8
DANMEN
  6
CONTINUOUS
 10
263.62128152262602
 20
178.8998011528883
 30
0.0
 11
262.8222815226261
 21
179.69880115288831
 31
0.0
  0
POINT
  5
2089
  8
DANMEN
  6
CONTINUOUS
 10
262.8222815226261
 20
181.8998011528883
 30
0.0
 50
180.0
  0
LINE
  5
208A
  8
DANMEN
  6
CONTINUOUS
 10
260.8222815226261
 20
178.8998011528883
 30
0.0
 11
260.8222815226261
 21
181.39980115288819
 31
0.0
  0
POINT
  5
208B
  8
DANMEN
  6
CONTINUOUS
 10
262.8222815226261
 20
181.8998011528883
 30
0.0
 50
180.0
  0
POINT
  5
208C
  8
DANMEN
  6
CONTINUOUS
 10
263.8222815226261
 20
181.8998011528883
 30
0.0
 50
180.0
  0
LINE
  5
208D
  8
DANMEN
  6
CONTINUOUS
 10
263.8222815226261
 20
181.8998011528883
 30
0.0
 11
263.8222815226261
 21
181.3138011528882
 31
0.0
  0
POINT
  5
208E
  8
DANMEN
  6
CONTINUOUS
 10
263.8222815226261
 20
180.8998011528883
 30
0.0
 50
180.0
  0
ARC
  5
208F
  8
DANMEN
  6
CONTINUOUS
 10
263.3222815226261
 20
181.3138011528882
 30
0.0
 40
0.5
 50
289.47099999999938
 51
0.0
  0
ARC
  5
2090
  8
DANMEN
  6
CONTINUOUS
 10
263.8222815226261
 20
179.8998011528883
 30
0.0
 40
1.0
 50
109.47099999999951
 51
180.0
  0
POINT
  5
2091
  8
DANMEN
  6
CONTINUOUS
 10
263.8222815226261
 20
179.8998011528883
 30
0.0
 50
180.0
  0
POINT
  5
2092
  8
DANMEN
  6
CONTINUOUS
 10
262.8222815226261
 20
178.8998011528883
 30
0.0
 50
180.0
  0
ARC
  5
2093
  8
DANMEN
  6
CONTINUOUS
 10
263.3222815226261
 20
179.39980115288819
 30
0.0
 40
0.5
 50
180.0
 51
270.0
  0
LINE
  5
2094
  8
DANMEN
  6
CONTINUOUS
 10
262.8222815226261
 20
179.8998011528883
 30
0.0
 11
262.8222815226261
 21
179.39980115288819
 31
0.0
  0
LINE
  5
2095
  8
DANMEN
  6
CONTINUOUS
 10
262.8222815226261
 20
181.8998011528883
 30
0.0
 11
263.8222815226261
 21
181.8998011528883
 31
0.0
  0
POINT
  5
2096
  8
DANMEN
  6
CONTINUOUS
 10
261.02228152262592
 20
181.8998011528883
 30
0.0
 50
180.0
  0
POINT
  5
2097
  8
DANMEN
  6
CONTINUOUS
 10
260.8222815226261
 20
181.39980115288819
 30
0.0
 50
180.0
  0
LINE
  5
2098
  8
DANMEN
  6
CONTINUOUS
 10
261.02228152262592
 20
181.8998011528883
 30
0.0
 11
260.8222815226261
 21
181.39980115288819
 31
0.0
  0
LINE
  5
2099
  8
DANMEN
  6
CONTINUOUS
 10
262.8222815226261
 20
181.8998011528883
 30
0.0
 11
261.02228152262592
 21
181.8998011528883
 31
0.0
  0
POINT
  5
209A
  8
DANMEN
  6
CONTINUOUS
 10
268.32228152262599
 20
179.8998011528883
 30
0.0
 50
180.0
  0
ARC
  5
209B
  8
DANMEN
  6
CONTINUOUS
 10
268.82228152262587
 20
181.3138011528882
 30
0.0
 40
0.5
 50
180.0
 51
250.52900000000039
  0
POINT
  5
209C
  8
DANMEN
  6
CONTINUOUS
 10
268.32228152262599
 20
180.8998011528883
 30
0.0
 50
180.0
  0
LINE
  5
209D
  8
DANMEN
  6
CONTINUOUS
 10
268.32228152262599
 20
181.8998011528883
 30
0.0
 11
268.32228152262599
 21
181.3138011528882
 31
0.0
  0
POINT
  5
209E
  8
DANMEN
  6
CONTINUOUS
 10
268.32228152262599
 20
181.8998011528883
 30
0.0
 50
180.0
  0
LINE
  5
209F
  8
DANMEN
  6
CONTINUOUS
 10
263.44828152262602
 20
188.9728011528882
 30
0.0
 11
262.89528152262602
 21
189.52580115288831
 31
0.0
  0
POINT
  5
20A0
  8
DANMEN
  6
CONTINUOUS
 10
262.8222815226261
 20
187.8998011528883
 30
0.0
 50
180.0
  0
POINT
  5
20A1
  8
DANMEN
  6
CONTINUOUS
 10
262.8222815226261
 20
187.8998011528883
 30
0.0
 50
180.0
  0
POINT
  5
20A2
  8
DANMEN
  6
CONTINUOUS
 10
263.8222815226261
 20
187.8998011528883
 30
0.0
 50
180.0
  0
POINT
  5
20A3
  8
DANMEN
  6
CONTINUOUS
 10
263.8222815226261
 20
188.8998011528883
 30
0.0
 50
180.0
  0
ARC
  5
20A4
  8
DANMEN
  6
CONTINUOUS
 10
263.3222815226261
 20
188.4858011528882
 30
0.0
 40
0.5
 50
0.0
 51
70.529000000000408
  0
LINE
  5
20A5
  8
DANMEN
  6
CONTINUOUS
 10
263.8222815226261
 20
188.4858011528882
 30
0.0
 11
263.8222815226261
 21
187.8998011528883
 31
0.0
  0
LINE
  5
20A6
  8
DANMEN
  6
CONTINUOUS
 10
262.8222815226261
 20
187.8998011528883
 30
0.0
 11
263.8222815226261
 21
187.8998011528883
 31
0.0
  0
POINT
  5
20A7
  8
DANMEN
  6
CONTINUOUS
 10
261.02228152262592
 20
187.8998011528883
 30
0.0
 50
180.0
  0
POINT
  5
20A8
  8
DANMEN
  6
CONTINUOUS
 10
260.8222815226261
 20
188.39980115288819
 30
0.0
 50
180.0
  0
LINE
  5
20A9
  8
DANMEN
  6
CONTINUOUS
 10
260.8222815226261
 20
188.39980115288819
 30
0.0
 11
261.02228152262592
 21
187.8998011528883
 31
0.0
  0
LINE
  5
20AA
  8
DANMEN
  6
CONTINUOUS
 10
262.8222815226261
 20
187.8998011528883
 30
0.0
 11
261.02228152262592
 21
187.8998011528883
 31
0.0
  0
LINE
  5
20AB
  8
DANMEN
  6
CONTINUOUS
 10
268.32228152262599
 20
188.4858011528882
 30
0.0
 11
268.32228152262599
 21
187.8998011528883
 31
0.0
  0
ARC
  5
20AC
  8
DANMEN
  6
CONTINUOUS
 10
268.82228152262587
 20
188.4858011528882
 30
0.0
 40
0.5
 50
109.47099999999951
 51
180.0
  0
POINT
  5
20AD
  8
DANMEN
  6
CONTINUOUS
 10
268.32228152262599
 20
188.8998011528883
 30
0.0
 50
180.0
  0
POINT
  5
20AE
  8
DANMEN
  6
CONTINUOUS
 10
268.32228152262599
 20
187.8998011528883
 30
0.0
 50
180.0
  0
LINE
  5
20AF
  8
DANMEN
  6
CONTINUOUS
 10
262.47228152262602
 20
192.89980115288819
 30
0.0
 11
262.47228152262602
 21
200.39980115288819
 31
0.0
  0
LINE
  5
20B0
  8
DANMEN
  6
CONTINUOUS
 10
263.3222815226261
 20
190.8998011528883
 30
0.0
 11
268.82228152262587
 21
190.8998011528883
 31
0.0
  0
POINT
  5
20B1
  8
DANMEN
  6
CONTINUOUS
 10
263.8222815226261
 20
189.8998011528883
 30
0.0
 50
180.0
  0
POINT
  5
20B2
  8
DANMEN
  6
CONTINUOUS
 10
262.8222815226261
 20
190.8998011528883
 30
0.0
 50
180.0
  0
ARC
  5
20B3
  8
DANMEN
  6
CONTINUOUS
 10
263.3222815226261
 20
190.3998011528883
 30
0.0
 40
0.5
 50
90.0
 51
180.0
  0
LINE
  5
20B4
  8
DANMEN
  6
CONTINUOUS
 10
262.8222815226261
 20
190.3998011528883
 30
0.0
 11
262.8222815226261
 21
189.8998011528883
 31
0.0
  0
POINT
  5
20B5
  8
DANMEN
  6
CONTINUOUS
 10
260.8222815226261
 20
192.89980115288819
 30
0.0
 50
180.0
  0
POINT
  5
20B6
  8
DANMEN
  6
CONTINUOUS
 10
268.32228152262599
 20
189.8998011528883
 30
0.0
 50
180.0
  0
POINT
  5
20B7
  8
DANMEN
  6
CONTINUOUS
 10
262.47228152262602
 20
200.8998011528883
 30
0.0
 50
180.0
  0
ARC
  5
20B8
  8
DANMEN
  6
CONTINUOUS
 10
261.97228152262602
 20
200.39980115288819
 30
0.0
 40
0.5
 50
0.0
 51
90.0
  0
POINT
  5
20B9
  8
DANMEN
  6
CONTINUOUS
 10
260.8222815226261
 20
200.8998011528883
 30
0.0
 50
180.0
  0
ARC
  5
20BA
  8
DANMEN
  6
CONTINUOUS
 10
261.3222815226261
 20
200.39980115288819
 30
0.0
 40
0.5
 50
90.0
 51
180.0
  0
LINE
  5
20BB
  8
DANMEN
  6
CONTINUOUS
 10
261.3222815226261
 20
200.8998011528883
 30
0.0
 11
261.97228152262602
 21
200.8998011528883
 31
0.0
  0
LINE
  5
20BC
  8
DANMEN
  6
CONTINUOUS
 10
135.32228152262621
 20
317.24980115288821
 30
0.0
 11
142.8222815226261
 21
317.24980115288821
 31
0.0
  0
LINE
  5
20BD
  8
DANMEN
  6
CONTINUOUS
 10
144.3222815226259
 20
318.89980115288819
 30
0.0
 11
135.32228152262621
 21
318.89980115288819
 31
0.0
  0
LINE
  5
20BE
  8
DANMEN
  6
CONTINUOUS
 10
125.47228152262601
 20
291.89980115288819
 30
0.0
 11
147.8222815226261
 21
291.89980115288819
 31
0.0
  0
LINE
  5
20BF
  8
DANMEN
  6
CONTINUOUS
 10
135.12228152262611
 20
293.54980115288822
 30
0.0
 11
142.8222815226261
 21
293.54980115288822
 31
0.0
  0
LINE
  5
20C0
  8
SUNPO
  6
CONTINUOUS
 10
183.8222815226259
 20
211.8998011528883
 30
0.0
 11
113.8222815226261
 21
211.8998011528883
 31
0.0
  0
LINE
  5
20C1
  8
DANMEN
  6
CONTINUOUS
 10
119.322281522626
 20
318.89980115288819
 30
0.0
 11
178.32228152262601
 21
318.89980115288819
 31
0.0
  0
ARC
  5
20C2
  8
DANMEN
  6
CONTINUOUS
 10
126.5222815226262
 20
294.54980115288822
 30
0.0
 40
1.0
 50
270.0
 51
0.0
  0
ARC
  5
20C3
  8
DANMEN
  6
CONTINUOUS
 10
116.47228152262601
 20
294.54980115288822
 30
0.0
 40
1.0
 50
180.0
 51
270.0
  0
LINE
  5
20C4
  8
DANMEN
  6
CONTINUOUS
 10
113.8222815226261
 20
318.3998011528883
 30
0.0
 11
113.8222815226261
 21
284.3998011528883
 31
0.0
  0
ARC
  5
20C5
  8
DANMEN
  6
CONTINUOUS
 10
131.6222815226262
 20
294.59980115288818
 30
0.0
 40
1.0
 50
270.0
 51
0.0
  0
ARC
  5
20C6
  8
DANMEN
  6
CONTINUOUS
 10
130.0222815226262
 20
294.59980115288818
 30
0.0
 40
1.0
 50
180.0
 51
270.0
  0
ARC
  5
20C7
  8
DANMEN
  6
CONTINUOUS
 10
135.12228152262611
 20
294.54980115288822
 30
0.0
 40
1.0
 50
180.0
 51
270.0
  0
LINE
  5
20C8
  8
SUNPO
  6
CONTINUOUS
 10
93.822281522626213
 20
283.89980115288819
 30
0.0
 11
93.822281522626213
 21
318.89980115288819
 31
0.0
  0
LINE
  5
20C9
  8
DANMEN
  6
CONTINUOUS
 10
113.8222815226261
 20
284.3998011528883
 30
0.0
 11
113.8222815226261
 21
225.8998011528883
 31
0.0
  0
POLYLINE
  5
20CA
  8
SUNPO
  6
BYBLOCK
 66
     1
 10
0.0
 20
0.0
 30
0.0
 70
     1
 40
1.159999999999999
 41
1.159999999999999
  0
VERTEX
  5
2406
  8
SUNPO
  6
BYBLOCK
 10
113.96844152262599
 20
211.8998011528883
 30
0.0
 42
1.0
  0
VERTEX
  5
2407
  8
SUNPO
  6
BYBLOCK
 10
113.676121522626
 20
211.8998011528883
 30
0.0
 42
1.0
  0
SEQEND
  5
2408
  8
SUNPO
  6
BYBLOCK
  0
LINE
  5
20CE
  8
SUNPO
  6
CONTINUOUS
 10
112.3222815226262
 20
263.8998011528883
 30
0.0
 11
93.822281522626099
 21
263.8998011528883
 31
0.0
  0
LINE
  5
20CF
  8
SUNPO
  6
CONTINUOUS
 10
112.822281522626
 20
283.89980115288819
 30
0.0
 11
93.822281522626213
 21
283.89980115288819
 31
0.0
  0
LINE
  5
20D0
  8
SUNPO
  6
CONTINUOUS
 10
93.822281522626099
 20
263.8998011528883
 30
0.0
 11
93.822281522626213
 21
283.89980115288819
 31
0.0
  0
POLYLINE
  5
20D1
  8
SUNPO
  6
BYBLOCK
 66
     1
 10
0.0
 20
0.0
 30
0.0
 70
     1
 40
1.159999999999999
 41
1.159999999999999
  0
VERTEX
  5
2409
  8
SUNPO
  6
BYBLOCK
 10
93.822281522626099
 20
264.0459611528882
 30
0.0
 42
1.0
  0
VERTEX
  5
240A
  8
SUNPO
  6
BYBLOCK
 10
93.822281522626099
 20
263.75364115288818
 30
0.0
 42
1.0
  0
SEQEND
  5
240B
  8
SUNPO
  6
BYBLOCK
  0
TEXT
  5
20D5
  8
SUNPO
  6
CONTINUOUS
 10
93.322281522626099
 20
271.83730115288819
 30
0.0
 40
2.5
  1
20
 50
90.0
 41
1.1000000000000001
  7
MX_DIMTXSTY_3
  0
POLYLINE
  5
20D6
  8
SUNPO
  6
BYBLOCK
 66
     1
 10
0.0
 20
0.0
 30
0.0
 70
     1
 40
1.159999999999999
 41
1.159999999999999
  0
VERTEX
  5
240C
  8
SUNPO
  6
BYBLOCK
 10
93.822281522626213
 20
284.04596115288831
 30
0.0
 42
1.0
  0
VERTEX
  5
240D
  8
SUNPO
  6
BYBLOCK
 10
93.822281522626213
 20
283.75364115288818
 30
0.0
 42
1.0
  0
SEQEND
  5
240E
  8
SUNPO
  6
BYBLOCK
  0
POLYLINE
  5
20DA
  8
SUNPO
  6
BYBLOCK
 66
     1
 10
0.0
 20
0.0
 30
0.0
 70
     1
 40
1.159999999999999
 41
1.159999999999999
  0
VERTEX
  5
240F
  8
SUNPO
  6
BYBLOCK
 10
93.822281522626213
 20
283.75364115288818
 30
0.0
 42
1.0
  0
VERTEX
  5
2410
  8
SUNPO
  6
BYBLOCK
 10
93.822281522626213
 20
284.04596115288831
 30
0.0
 42
1.0
  0
SEQEND
  5
2411
  8
SUNPO
  6
BYBLOCK
  0
LINE
  5
20DE
  8
DANMEN
  6
CONTINUOUS
 10
125.47228152262601
 20
291.89980115288819
 30
0.0
 11
125.47228152262601
 21
268.89980115288819
 31
0.0
  0
LINE
  5
20DF
  8
DANMEN
  6
CONTINUOUS
 10
123.8222815226261
 20
291.89980115288819
 30
0.0
 11
123.8222815226261
 21
264.3998011528883
 31
0.0
  0
LINE
  5
20E0
  8
DANMEN
  6
CONTINUOUS
 10
126.0222815226262
 20
268.89980115288819
 30
0.0
 11
126.0222815226262
 21
264.3998011528883
 31
0.0
  0
LINE
  5
20E1
  8
DANMEN
  6
CONTINUOUS
 10
124.322281522626
 20
263.8998011528883
 30
0.0
 11
125.5222815226262
 21
263.8998011528883
 31
0.0
  0
POINT
  5
20E2
  8
DANMEN
  6
CONTINUOUS
 10
123.8222815226261
 20
263.8998011528883
 30
0.0
  0
ARC
  5
20E3
  8
DANMEN
  6
CONTINUOUS
 10
124.322281522626
 20
264.3998011528883
 30
0.0
 40
0.5
 50
180.0
 51
270.0
  0
POINT
  5
20E4
  8
DANMEN
  6
CONTINUOUS
 10
126.0222815226262
 20
263.8998011528883
 30
0.0
  0
ARC
  5
20E5
  8
DANMEN
  6
CONTINUOUS
 10
125.5222815226262
 20
264.3998011528883
 30
0.0
 40
0.5
 50
270.0
 51
0.0
  0
POINT
  5
20E6
  8
DANMEN
  6
CONTINUOUS
 10
126.0222815226262
 20
268.89980115288819
 30
0.0
  0
POINT
  5
20E7
  8
DANMEN
  6
CONTINUOUS
 10
125.47228152262601
 20
268.89980115288819
 30
0.0
  0
LINE
  5
20E8
  8
DANMEN
  6
CONTINUOUS
 10
125.47228152262601
 20
268.89980115288819
 30
0.0
 11
126.0222815226262
 21
268.89980115288819
 31
0.0
  0
LINE
  5
20E9
  8
DANMEN
  6
CONTINUOUS
 10
116.47228152262601
 20
293.54980115288822
 30
0.0
 11
126.5222815226262
 21
293.54980115288822
 31
0.0
  0
LINE
  5
20EA
  8
DANMEN
  6
CONTINUOUS
 10
115.322281522626
 20
291.89980115288819
 30
0.0
 11
123.8222815226261
 21
291.89980115288819
 31
0.0
  0
LINE
  5
20EB
  8
DANMEN
  6
CONTINUOUS
 10
115.322281522626
 20
291.89980115288819
 30
0.0
 11
115.322281522626
 21
284.3998011528883
 31
0.0
  0
POINT
  5
20EC
  8
DANMEN
  6
CONTINUOUS
 10
115.322281522626
 20
283.89980115288819
 30
0.0
  0
ARC
  5
20ED
  8
DANMEN
  6
CONTINUOUS
 10
114.8222815226261
 20
284.3998011528883
 30
0.0
 40
0.5
 50
270.0
 51
0.0
  0
POINT
  5
20EE
  8
DANMEN
  6
CONTINUOUS
 10
113.8222815226261
 20
283.89980115288819
 30
0.0
  0
ARC
  5
20EF
  8
DANMEN
  6
CONTINUOUS
 10
114.3222815226262
 20
284.3998011528883
 30
0.0
 40
0.5
 50
180.0
 51
270.0
  0
LINE
  5
20F0
  8
DANMEN
  6
CONTINUOUS
 10
114.3222815226262
 20
283.89980115288819
 30
0.0
 11
114.8222815226261
 21
283.89980115288819
 31
0.0
  0
LINE
  5
20F1
  8
DANMEN
  6
CONTINUOUS
 10
113.8222815226261
 20
283.89980115288819
 30
0.0
 11
115.47228152262601
 21
283.89980115288819
 31
0.0
  0
POINT
  5
20F2
  8
DANMEN
  6
CONTINUOUS
 10
115.322281522626
 20
291.89980115288819
 30
0.0
  0
POINT
  5
20F3
  8
DANMEN
  6
CONTINUOUS
 10
115.47228152262601
 20
293.54980115288822
 30
0.0
  0
POINT
  5
20F4
  8
DANMEN
  6
CONTINUOUS
 10
123.8222815226261
 20
291.89980115288819
 30
0.0
  0
POINT
  5
20F5
  8
DANMEN
  6
CONTINUOUS
 10
127.5222815226262
 20
293.54980115288822
 30
0.0
  0
POINT
  5
20F6
  8
DANMEN
  6
CONTINUOUS
 10
125.47228152262601
 20
291.89980115288819
 30
0.0
  0
LINE
  5
20F7
  8
DANMEN
  6
CONTINUOUS
 10
131.6222815226262
 20
293.59980115288818
 30
0.0
 11
130.0222815226262
 21
293.59980115288818
 31
0.0
  0
LINE
  5
20F8
  8
SUNPO
  6
CONTINUOUS
 10
112.822281522626
 20
318.89980115288819
 30
0.0
 11
93.822281522626213
 21
318.89980115288819
 31
0.0
  0
TEXT
  5
20F9
  8
SUNPO
  6
CONTINUOUS
 10
93.322281522626099
 20
299.31646781955487
 30
0.0
 40
2.5
  1
35
 50
90.0
  0
POLYLINE
  5
20FA
  8
SUNPO
  6
BYBLOCK
 66
     1
 10
0.0
 20
0.0
 30
0.0
 70
     1
 40
1.159999999999999
 41
1.159999999999999
  0
VERTEX
  5
2412
  8
SUNPO
  6
BYBLOCK
 10
93.822281522626213
 20
318.75364115288818
 30
0.0
 42
1.0
  0
VERTEX
  5
2413
  8
SUNPO
  6
BYBLOCK
 10
93.822281522626213
 20
319.04596115288831
 30
0.0
 42
1.0
  0
SEQEND
  5
2414
  8
SUNPO
  6
BYBLOCK
  0
ARC
  5
20FE
  8
DANMEN
  6
CONTINUOUS
 10
119.322281522626
 20
317.74980115288821
 30
0.0
 40
0.5
 50
270.0
 51
0.0
  0
ARC
  5
20FF
  8
DANMEN
  6
CONTINUOUS
 10
135.32228152262621
 20
317.74980115288821
 30
0.0
 40
0.5
 50
180.0
 51
270.0
  0
LINE
  5
2100
  8
DANMEN
  6
CONTINUOUS
 10
115.47228152262601
 20
317.24980115288821
 30
0.0
 11
115.47228152262601
 21
294.54980115288822
 31
0.0
  0
LINE
  5
2101
  8
DANMEN
  6
CONTINUOUS
 10
115.47228152262601
 20
317.24980115288821
 30
0.0
 11
119.322281522626
 21
317.24980115288821
 31
0.0
  0
ARC
  5
2102
  8
DANMEN
  6
CONTINUOUS
 10
130.0222815226262
 20
295.84580115288833
 30
0.0
 40
1.0
 50
114.6239999999998
 51
180.0
  0
LINE
  5
2103
  8
DANMEN
  6
CONTINUOUS
 10
129.42228152262601
 20
297.49980115288832
 30
0.0
 11
128.2832815226262
 21
297.49980115288832
 31
0.0
  0
ARC
  5
2104
  8
DANMEN
  6
CONTINUOUS
 10
129.5222815226262
 20
295.92980115288822
 30
0.0
 40
2.0
 50
128.29300000000001
 51
180.0
  0
LINE
  5
2105
  8
DANMEN
  6
CONTINUOUS
 10
127.5222815226262
 20
295.92980115288822
 30
0.0
 11
127.5222815226262
 21
294.54980115288822
 31
0.0
  0
LINE
  5
2106
  8
DANMEN
  6
CONTINUOUS
 10
129.0222815226262
 20
295.84580115288833
 30
0.0
 11
129.0222815226262
 21
294.59980115288818
 31
0.0
  0
POINT
  5
2107
  8
DANMEN
  6
CONTINUOUS
 10
128.8222815226259
 20
295.3998011528883
 30
0.0
  0
ARC
  5
2108
  8
DANMEN
  6
CONTINUOUS
 10
132.12228152262611
 20
295.92980115288822
 30
0.0
 40
2.0
 50
0.0
 51
51.706999999999923
  0
POINT
  5
2109
  8
DANMEN
  6
CONTINUOUS
 10
130.8222815226259
 20
295.3998011528883
 30
0.0
  0
LINE
  5
210A
  8
DANMEN
  6
CONTINUOUS
 10
129.7222815226261
 20
297.19980115288831
 30
0.0
 11
129.7222815226261
 21
296.93680115288822
 31
0.0
  0
ARC
  5
210B
  8
DANMEN
  6
CONTINUOUS
 10
129.5222815226262
 20
296.93680115288822
 30
0.0
 40
0.2
 50
294.6239999999998
 51
0.0
  0
ARC
  5
210C
  8
DANMEN
  6
CONTINUOUS
 10
132.12228152262611
 20
296.93680115288822
 30
0.0
 40
0.2
 50
180.0
 51
245.37600000000009
  0
ARC
  5
210D
  8
DANMEN
  6
CONTINUOUS
 10
131.6222815226262
 20
295.84580115288833
 30
0.0
 40
1.0
 50
0.0
 51
65.376000000000175
  0
LINE
  5
210E
  8
DANMEN
  6
CONTINUOUS
 10
131.92228152262621
 20
297.19980115288831
 30
0.0
 11
131.92228152262621
 21
296.93680115288822
 31
0.0
  0
LINE
  5
210F
  8
DANMEN
  6
CONTINUOUS
 10
132.6222815226262
 20
295.84580115288833
 30
0.0
 11
132.6222815226262
 21
294.59980115288818
 31
0.0
  0
POINT
  5
2110
  8
DANMEN
  6
CONTINUOUS
 10
130.8222815226259
 20
295.3998011528883
 30
0.0
  0
LINE
  5
2111
  8
DANMEN
  6
CONTINUOUS
 10
133.3612815226262
 20
297.49980115288832
 30
0.0
 11
132.2222815226261
 21
297.49980115288832
 31
0.0
  0
ARC
  5
2112
  8
DANMEN
  6
CONTINUOUS
 10
129.42228152262601
 20
297.19980115288831
 30
0.0
 40
0.3
 50
0.0
 51
90.0
  0
ARC
  5
2113
  8
DANMEN
  6
CONTINUOUS
 10
132.2222815226261
 20
297.19980115288831
 30
0.0
 40
0.3
 50
90.0
 51
180.0
  0
LINE
  5
2114
  8
DANMEN
  6
CONTINUOUS
 10
134.12228152262611
 20
295.92980115288822
 30
0.0
 11
134.12228152262611
 21
294.54980115288822
 31
0.0
  0
POINT
  5
2115
  8
DANMEN
  6
CONTINUOUS
 10
134.8222815226259
 20
317.24980115288821
 30
0.0
  0
LINE
  5
2116
  8
DANMEN
  6
CONTINUOUS
 10
114.3222815226262
 20
318.89980115288819
 30
0.0
 11
119.322281522626
 21
318.89980115288819
 31
0.0
  0
POINT
  5
2117
  8
DANMEN
  6
CONTINUOUS
 10
113.8222815226261
 20
318.89980115288819
 30
0.0
  0
ARC
  5
2118
  8
DANMEN
  6
CONTINUOUS
 10
114.3222815226262
 20
318.3998011528883
 30
0.0
 40
0.5
 50
90.0
 51
180.0
  0
ARC
  5
2119
  8
DANMEN
  6
CONTINUOUS
 10
119.322281522626
 20
318.3998011528883
 30
0.0
 40
0.5
 50
0.0
 51
90.0
  0
LINE
  5
211A
  8
DANMEN
  6
CONTINUOUS
 10
119.8222815226261
 20
318.3998011528883
 30
0.0
 11
119.8222815226261
 21
317.74980115288821
 31
0.0
  0
POINT
  5
211B
  8
DANMEN
  6
CONTINUOUS
 10
134.8222815226259
 20
318.89980115288819
 30
0.0
  0
ARC
  5
211C
  8
DANMEN
  6
CONTINUOUS
 10
135.32228152262621
 20
318.3998011528883
 30
0.0
 40
0.5
 50
90.0
 51
180.0
  0
LINE
  5
211D
  8
DANMEN
  6
CONTINUOUS
 10
134.8222815226259
 20
318.3998011528883
 30
0.0
 11
134.8222815226259
 21
317.74980115288821
 31
0.0
  0
LINE
  5
211E
  8
DANMEN
  6
CONTINUOUS
 10
145.3572815226261
 20
293.3998011528883
 30
0.0
 11
151.85728152262601
 21
299.8998011528883
 31
0.0
  0
LINE
  5
211F
  8
DANMEN
  6
CONTINUOUS
 10
147.8222815226261
 20
293.0368011528883
 30
0.0
 11
153.8222815226259
 21
299.03680115288819
 31
0.0
  0
LINE
  5
2120
  8
DANMEN
  6
CONTINUOUS
 10
148.099281522626
 20
291.89980115288819
 30
0.0
 11
156.0992815226262
 21
299.8998011528883
 31
0.0
  0
LINE
  5
2121
  8
DANMEN
  6
CONTINUOUS
 10
149.51428152262619
 20
291.89980115288819
 30
0.0
 11
156.8222815226259
 21
299.20780115288818
 31
0.0
  0
LINE
  5
2122
  8
DANMEN
  6
CONTINUOUS
 10
150.92828152262601
 20
291.89980115288819
 30
0.0
 11
156.8222815226259
 21
297.79380115288831
 31
0.0
  0
LINE
  5
2123
  8
DANMEN
  6
CONTINUOUS
 10
155.36628152262591
 20
293.50980115288831
 30
0.0
 11
156.8222815226259
 21
294.96580115288822
 31
0.0
  0
LINE
  5
2124
  8
DANMEN
  6
CONTINUOUS
 10
183.8222815226259
 20
298.8998011528883
 30
0.0
 11
183.8222815226259
 21
284.3998011528883
 31
0.0
  0
ARC
  5
2125
  8
DANMEN
  6
CONTINUOUS
 10
181.17228152262601
 20
294.54980115288822
 30
0.0
 40
1.0
 50
270.0
 51
0.0
  0
ARC
  5
2126
  8
DANMEN
  6
CONTINUOUS
 10
167.12228152262611
 20
294.54980115288822
 30
0.0
 40
1.0
 50
180.0
 51
270.0
  0
ARC
  5
2127
  8
DANMEN
  6
CONTINUOUS
 10
162.022281522626
 20
294.59980115288818
 30
0.0
 40
1.0
 50
180.0
 51
270.0
  0
ARC
  5
2128
  8
DANMEN
  6
CONTINUOUS
 10
163.62228152262611
 20
294.59980115288818
 30
0.0
 40
1.0
 50
270.0
 51
0.0
  0
LINE
  5
2129
  8
DANMEN
  6
CONTINUOUS
 10
142.8222815226261
 20
317.24980115288821
 30
0.0
 11
142.8222815226261
 21
293.54980115288822
 31
0.0
  0
ARC
  5
212A
  8
DANMEN
  6
CONTINUOUS
 10
154.4082815226262
 20
293.89980115288819
 30
0.0
 40
0.5
 50
19.471000000000359
 51
90.0
  0
ARC
  5
212B
  8
DANMEN
  6
CONTINUOUS
 10
147.2362815226262
 20
293.89980115288819
 30
0.0
 40
0.5
 50
90.0
 51
160.5289999999996
  0
LINE
  5
212C
  8
DANMEN
  6
CONTINUOUS
 10
156.8222815226259
 20
299.3998011528883
 30
0.0
 11
156.8222815226259
 21
293.89980115288819
 31
0.0
  0
LINE
  5
212D
  8
DANMEN
  6
CONTINUOUS
 10
147.8222815226261
 20
291.89980115288819
 30
0.0
 11
147.8222815226261
 21
294.39980115288819
 31
0.0
  0
LINE
  5
212E
  8
DANMEN
  6
CONTINUOUS
 10
153.8222815226259
 20
291.89980115288819
 30
0.0
 11
153.8222815226259
 21
294.39980115288819
 31
0.0
  0
LINE
  5
212F
  8
DANMEN
  6
CONTINUOUS
 10
144.8222815226261
 20
299.3998011528883
 30
0.0
 11
144.8222815226261
 21
293.89980115288819
 31
0.0
  0
LINE
  5
2130
  8
SUNPO
  6
CONTINUOUS
 10
213.82228152262601
 20
298.8998011528883
 30
0.0
 11
213.82228152262601
 21
283.89980115288819
 31
0.0
  0
LINE
  5
2131
  8
SUNPO
  6
CONTINUOUS
 10
223.82228152262601
 20
318.89980115288819
 30
0.0
 11
223.82228152262601
 21
283.89980115288819
 31
0.0
  0
LINE
  5
2132
  8
DANMEN
  6
CONTINUOUS
 10
203.82228152262601
 20
301.8998011528883
 30
0.0
 11
203.82228152262601
 21
225.8998011528883
 31
0.0
  0
LINE
  5
2133
  8
SUNPO
  6
CONTINUOUS
 10
203.82228152262601
 20
211.8998011528883
 30
0.0
 11
183.8222815226259
 21
211.8998011528883
 31
0.0
  0
LINE
  5
2134
  8
SUNPO
  6
CONTINUOUS
 10
185.32228152262601
 20
283.89980115288819
 30
0.0
 11
223.82228152262601
 21
283.89980115288819
 31
0.0
  0
LINE
  5
2135
  8
DANMEN
  6
CONTINUOUS
 10
183.8222815226259
 20
284.3998011528883
 30
0.0
 11
183.8222815226259
 21
225.8998011528883
 31
0.0
  0
TEXT
  5
2136
  8
SUNPO
  6
CONTINUOUS
 10
142.0217815226259
 20
212.3998011528883
 30
0.0
 40
2.5
  1
70
 41
1.1000000000000001
  7
MX_DIMTXSTY_3
  0
POLYLINE
  5
2137
  8
SUNPO
  6
BYBLOCK
 66
     1
 10
0.0
 20
0.0
 30
0.0
 70
     1
 40
1.159999999999999
 41
1.159999999999999
  0
VERTEX
  5
2415
  8
SUNPO
  6
BYBLOCK
 10
183.676121522626
 20
211.8998011528883
 30
0.0
 42
1.0
  0
VERTEX
  5
2416
  8
SUNPO
  6
BYBLOCK
 10
183.96844152262591
 20
211.8998011528883
 30
0.0
 42
1.0
  0
SEQEND
  5
2417
  8
SUNPO
  6
BYBLOCK
  0
TEXT
  5
213B
  8
SUNPO
  6
CONTINUOUS
 10
191.7597815226259
 20
212.3998011528883
 30
0.0
 40
2.5
  1
20
 41
1.1000000000000001
  7
MX_DIMTXSTY_3
  0
LINE
  5
213C
  8
DANMEN
  6
CONTINUOUS
 10
167.12228152262611
 20
293.54980115288822
 30
0.0
 11
181.17228152262601
 21
293.54980115288822
 31
0.0
  0
LINE
  5
213D
  8
DANMEN
  6
CONTINUOUS
 10
164.5222815226262
 20
291.89980115288819
 30
0.0
 11
182.17228152262601
 21
291.89980115288819
 31
0.0
  0
LINE
  5
213E
  8
DANMEN
  6
CONTINUOUS
 10
153.8222815226259
 20
291.89980115288819
 30
0.0
 11
157.8222815226259
 21
291.89980115288819
 31
0.0
  0
LINE
  5
213F
  8
DANMEN
  6
CONTINUOUS
 10
145.3222815226259
 20
293.3998011528883
 30
0.0
 11
145.8222815226261
 21
293.3998011528883
 31
0.0
  0
POINT
  5
2140
  8
DANMEN
  6
CONTINUOUS
 10
142.12228152262611
 20
293.54980115288822
 30
0.0
  0
POINT
  5
2141
  8
DANMEN
  6
CONTINUOUS
 10
144.8222815226261
 20
293.3998011528883
 30
0.0
  0
ARC
  5
2142
  8
DANMEN
  6
CONTINUOUS
 10
145.3222815226259
 20
293.89980115288819
 30
0.0
 40
0.5
 50
180.0
 51
270.0
  0
POINT
  5
2143
  8
DANMEN
  6
CONTINUOUS
 10
142.8222815226261
 20
293.54980115288822
 30
0.0
  0
LINE
  5
2144
  8
DANMEN
  6
CONTINUOUS
 10
147.8222815226261
 20
291.89980115288819
 30
0.0
 11
153.8222815226259
 21
291.89980115288819
 31
0.0
  0
POINT
  5
2145
  8
DANMEN
  6
CONTINUOUS
 10
147.8222815226261
 20
291.89980115288819
 30
0.0
  0
ARC
  5
2146
  8
DANMEN
  6
CONTINUOUS
 10
145.8222815226261
 20
294.39980115288819
 30
0.0
 40
1.0
 50
270.0
 51
340.52899999999948
  0
LINE
  5
2147
  8
DANMEN
  6
CONTINUOUS
 10
152.34228152262611
 20
291.89980115288819
 30
0.0
 11
153.8222815226259
 21
293.37980115288832
 31
0.0
  0
LINE
  5
2148
  8
DANMEN
  6
CONTINUOUS
 10
153.7562815226261
 20
291.89980115288819
 30
0.0
 11
153.8222815226259
 21
291.96580115288839
 31
0.0
  0
POINT
  5
2149
  8
DANMEN
  6
CONTINUOUS
 10
150.8222815226261
 20
291.89980115288819
 30
0.0
  0
POINT
  5
214A
  8
DANMEN
  6
CONTINUOUS
 10
153.8222815226259
 20
291.89980115288819
 30
0.0
  0
POINT
  5
214B
  8
DANMEN
  6
CONTINUOUS
 10
150.8222815226261
 20
291.89980115288819
 30
0.0
  0
LINE
  5
214C
  8
DANMEN
  6
CONTINUOUS
 10
159.022281522626
 20
291.89980115288819
 30
0.0
 11
162.8722815226262
 21
291.89980115288819
 31
0.0
  0
ARC
  5
214D
  8
DANMEN
  6
CONTINUOUS
 10
162.3222815226261
 20
285.59980115288818
 30
0.0
 40
0.3
 50
90.0
 51
180.0
  0
LINE
  5
214E
  8
DANMEN
  6
CONTINUOUS
 10
162.022281522626
 20
284.8998011528883
 30
0.0
 11
162.3842815226262
 21
284.17580115288831
 31
0.0
  0
LINE
  5
214F
  8
DANMEN
  6
CONTINUOUS
 10
163.62228152262611
 20
293.59980115288818
 30
0.0
 11
162.022281522626
 21
293.59980115288818
 31
0.0
  0
LINE
  5
2150
  8
DANMEN
  6
CONTINUOUS
 10
157.8222815226259
 20
285.89980115288819
 30
0.0
 11
157.8222815226259
 21
291.89980115288819
 31
0.0
  0
LINE
  5
2151
  8
DANMEN
  6
CONTINUOUS
 10
159.022281522626
 20
287.89980115288819
 30
0.0
 11
159.022281522626
 21
291.89980115288819
 31
0.0
  0
LINE
  5
2152
  8
DANMEN
  6
CONTINUOUS
 10
158.2122815226262
 20
285.89980115288819
 30
0.0
 11
157.8222815226259
 21
285.89980115288819
 31
0.0
  0
POINT
  5
2153
  8
DANMEN
  6
CONTINUOUS
 10
157.8222815226259
 20
285.89980115288819
 30
0.0
  0
POINT
  5
2154
  8
DANMEN
  6
CONTINUOUS
 10
157.8222815226259
 20
285.89980115288819
 30
0.0
  0
POINT
  5
2155
  8
DANMEN
  6
CONTINUOUS
 10
159.022281522626
 20
287.89980115288819
 30
0.0
  0
POINT
  5
2156
  8
DANMEN
  6
CONTINUOUS
 10
158.6222815226262
 20
285.89980115288819
 30
0.0
  0
LINE
  5
2157
  8
DANMEN
  6
CONTINUOUS
 10
159.022281522626
 20
287.89980115288819
 30
0.0
 11
158.70228152262601
 21
286.30180115288829
 31
0.0
  0
ARC
  5
2158
  8
DANMEN
  6
CONTINUOUS
 10
158.2122815226262
 20
286.3998011528883
 30
0.0
 40
0.5
 50
270.0
 51
348.69
  0
POINT
  5
2159
  8
DANMEN
  6
CONTINUOUS
 10
158.6222815226262
 20
285.89980115288819
 30
0.0
  0
LINE
  5
215A
  8
DANMEN
  6
CONTINUOUS
 10
162.022281522626
 20
285.59980115288818
 30
0.0
 11
162.022281522626
 21
284.8998011528883
 31
0.0
  0
POINT
  5
215B
  8
DANMEN
  6
CONTINUOUS
 10
162.022281522626
 20
285.89980115288819
 30
0.0
  0
POINT
  5
215C
  8
DANMEN
  6
CONTINUOUS
 10
162.022281522626
 20
283.89980115288819
 30
0.0
  0
POINT
  5
215D
  8
DANMEN
  6
CONTINUOUS
 10
162.022281522626
 20
284.8998011528883
 30
0.0
  0
ARC
  5
215E
  8
DANMEN
  6
CONTINUOUS
 10
155.8222815226259
 20
294.39980115288819
 30
0.0
 40
1.0
 50
199.4710000000002
 51
270.0
  0
POINT
  5
215F
  8
DANMEN
  6
CONTINUOUS
 10
156.8222815226259
 20
293.3998011528883
 30
0.0
  0
ARC
  5
2160
  8
DANMEN
  6
CONTINUOUS
 10
156.3222815226261
 20
293.89980115288819
 30
0.0
 40
0.5
 50
270.0
 51
0.0
  0
LINE
  5
2161
  8
DANMEN
  6
CONTINUOUS
 10
155.8222815226259
 20
293.3998011528883
 30
0.0
 11
156.3222815226261
 21
293.3998011528883
 31
0.0
  0
POINT
  5
2162
  8
DANMEN
  6
CONTINUOUS
 10
156.8222815226259
 20
291.89980115288819
 30
0.0
  0
POINT
  5
2163
  8
DANMEN
  6
CONTINUOUS
 10
158.522281522626
 20
291.89980115288819
 30
0.0
  0
POINT
  5
2164
  8
DANMEN
  6
CONTINUOUS
 10
158.522281522626
 20
293.54980115288822
 30
0.0
  0
LINE
  5
2165
  8
DANMEN
  6
CONTINUOUS
 10
162.8722815226262
 20
285.89980115288819
 30
0.0
 11
162.8722815226262
 21
291.89980115288819
 31
0.0
  0
LINE
  5
2166
  8
DANMEN
  6
CONTINUOUS
 10
164.5222815226262
 20
283.89980115288819
 30
0.0
 11
164.5222815226262
 21
291.89980115288819
 31
0.0
  0
LINE
  5
2167
  8
DANMEN
  6
CONTINUOUS
 10
162.83128152262611
 20
283.89980115288819
 30
0.0
 11
164.5222815226262
 21
283.89980115288819
 31
0.0
  0
POINT
  5
2168
  8
DANMEN
  6
CONTINUOUS
 10
162.522281522626
 20
283.89980115288819
 30
0.0
  0
LINE
  5
2169
  8
DANMEN
  6
CONTINUOUS
 10
162.8722815226262
 20
285.89980115288819
 30
0.0
 11
162.3222815226261
 21
285.89980115288819
 31
0.0
  0
POINT
  5
216A
  8
DANMEN
  6
CONTINUOUS
 10
164.37228152262611
 20
283.89980115288819
 30
0.0
  0
POINT
  5
216B
  8
DANMEN
  6
CONTINUOUS
 10
164.37228152262611
 20
283.89980115288819
 30
0.0
  0
POINT
  5
216C
  8
DANMEN
  6
CONTINUOUS
 10
164.37228152262611
 20
283.89980115288819
 30
0.0
  0
ARC
  5
216D
  8
DANMEN
  6
CONTINUOUS
 10
162.83128152262611
 20
284.3998011528883
 30
0.0
 40
0.5
 50
206.56499999999971
 51
270.0
  0
POINT
  5
216E
  8
DANMEN
  6
CONTINUOUS
 10
162.8722815226262
 20
285.89980115288819
 30
0.0
  0
POINT
  5
216F
  8
DANMEN
  6
CONTINUOUS
 10
164.5222815226262
 20
283.89980115288819
 30
0.0
  0
POINT
  5
2170
  8
DANMEN
  6
CONTINUOUS
 10
166.1222815226262
 20
293.54980115288822
 30
0.0
  0
LINE
  5
2171
  8
DANMEN
  6
CONTINUOUS
 10
182.17228152262601
 20
291.89980115288819
 30
0.0
 11
182.17228152262601
 21
285.09980115288818
 31
0.0
  0
LINE
  5
2172
  8
DANMEN
  6
CONTINUOUS
 10
180.8222815226259
 20
283.89980115288819
 30
0.0
 11
183.32228152262601
 21
283.89980115288819
 31
0.0
  0
LINE
  5
2173
  8
DANMEN
  6
CONTINUOUS
 10
182.17228152262601
 20
283.89980115288819
 30
0.0
 11
183.8222815226259
 21
283.89980115288819
 31
0.0
  0
POINT
  5
2174
  8
DANMEN
  6
CONTINUOUS
 10
180.32228152262601
 20
285.09980115288818
 30
0.0
  0
POINT
  5
2175
  8
DANMEN
  6
CONTINUOUS
 10
180.32228152262601
 20
283.89980115288819
 30
0.0
  0
ARC
  5
2176
  8
DANMEN
  6
CONTINUOUS
 10
180.8222815226259
 20
284.3998011528883
 30
0.0
 40
0.5
 50
180.0
 51
270.0
  0
LINE
  5
2177
  8
DANMEN
  6
CONTINUOUS
 10
180.32228152262601
 20
285.09980115288818
 30
0.0
 11
180.32228152262601
 21
284.3998011528883
 31
0.0
  0
LINE
  5
2178
  8
DANMEN
  6
CONTINUOUS
 10
180.32228152262601
 20
285.09980115288818
 30
0.0
 11
182.17228152262601
 21
285.09980115288818
 31
0.0
  0
POINT
  5
2179
  8
DANMEN
  6
CONTINUOUS
 10
183.8222815226259
 20
283.89980115288819
 30
0.0
  0
ARC
  5
217A
  8
DANMEN
  6
CONTINUOUS
 10
183.32228152262601
 20
284.3998011528883
 30
0.0
 40
0.5
 50
270.0
 51
0.0
  0
POINT
  5
217B
  8
DANMEN
  6
CONTINUOUS
 10
182.17228152262601
 20
293.54980115288822
 30
0.0
  0
LINE
  5
217C
  8
SUNPO
  6
CONTINUOUS
 10
223.82228152262601
 20
283.89980115288819
 30
0.0
 11
223.82228152262601
 21
233.89980115288819
 31
0.0
  0
LINE
  5
217D
  8
SUNPO
  6
CONTINUOUS
 10
219.82228152262601
 20
226.5538011528883
 30
0.0
 11
219.82228152262601
 21
222.82080115288829
 31
0.0
  0
LINE
  5
217E
  8
SUNPO
  6
CONTINUOUS
 10
227.82228152262601
 20
226.5538011528883
 30
0.0
 11
227.82228152262601
 21
222.82080115288829
 31
0.0
  0
POLYLINE
  5
217F
  8
SUNPO
  6
BYBLOCK
 66
     1
 10
0.0
 20
0.0
 30
0.0
 70
     1
 40
1.159999999999999
 41
1.159999999999999
  0
VERTEX
  5
2418
  8
SUNPO
  6
BYBLOCK
 10
203.676121522626
 20
211.8998011528883
 30
0.0
 42
1.0
  0
VERTEX
  5
2419
  8
SUNPO
  6
BYBLOCK
 10
203.96844152262599
 20
211.8998011528883
 30
0.0
 42
1.0
  0
SEQEND
  5
241A
  8
SUNPO
  6
BYBLOCK
  0
LINE
  5
2183
  8
SUNPO
  6
CONTINUOUS
 10
219.82228152262601
 20
219.04080115288821
 30
0.0
 11
227.82228152262601
 21
219.04080115288821
 31
0.0
  0
LINE
  5
2184
  8
SUNPO
  6
CONTINUOUS
 10
219.82228152262601
 20
224.54080115288829
 30
0.0
 11
227.82228152262601
 21
224.54080115288829
 31
0.0
  0
LINE
  5
2185
  8
SUNPO
  6
CONTINUOUS
 10
219.82228152262601
 20
217.04080115288821
 30
0.0
 11
227.82228152262601
 21
217.04080115288821
 31
0.0
  0
LINE
  5
2186
  8
SUNPO
  6
CONTINUOUS
 10
219.82228152262601
 20
220.4408011528883
 30
0.0
 11
219.82228152262601
 21
215.24380115288821
 31
0.0
  0
LINE
  5
2187
  8
SUNPO
  6
CONTINUOUS
 10
223.82228152262601
 20
224.54080115288829
 30
0.0
 11
223.82228152262601
 21
219.04080115288821
 31
0.0
  0
POINT
  5
2188
  8
SUNPO
  6
CONTINUOUS
 10
223.82228152262601
 20
223.8998011528883
 30
0.0
  0
LINE
  5
2189
  8
SUNPO
  6
CONTINUOUS
 10
227.82228152262601
 20
220.4408011528883
 30
0.0
 11
227.82228152262601
 21
215.24380115288821
 31
0.0
  0
LINE
  5
218A
  8
SUNPO
  6
CONTINUOUS
 10
222.62228152262611
 20
232.55580115288831
 30
0.0
 11
222.62228152262611
 21
227.7678011528883
 31
0.0
  0
LINE
  5
218B
  8
SUNPO
  6
CONTINUOUS
 10
225.02228152262609
 20
232.55580115288831
 30
0.0
 11
225.02228152262609
 21
227.7678011528883
 31
0.0
  0
LINE
  5
218C
  8
SUNPO
  6
CONTINUOUS
 10
260.8222815226261
 20
223.39980115288819
 30
0.0
 11
260.8222815226261
 21
241.89980115288819
 31
0.0
  0
LINE
  5
218D
  8
DANMEN
  6
CONTINUOUS
 10
262.47228152262602
 20
216.3998011528883
 30
0.0
 11
262.47228152262602
 21
220.2498011528883
 31
0.0
  0
LINE
  5
218E
  8
DANMEN
  6
CONTINUOUS
 10
260.8222815226261
 20
216.3998011528883
 30
0.0
 11
260.8222815226261
 21
221.39980115288819
 31
0.0
  0
ARC
  5
218F
  8
DANMEN
  6
CONTINUOUS
 10
261.97228152262602
 20
216.3998011528883
 30
0.0
 40
0.5
 50
270.0
 51
0.0
  0
ARC
  5
2190
  8
DANMEN
  6
CONTINUOUS
 10
261.3222815226261
 20
216.3998011528883
 30
0.0
 40
0.5
 50
180.0
 51
270.0
  0
LINE
  5
2191
  8
DANMEN
  6
CONTINUOUS
 10
261.3222815226261
 20
215.8998011528883
 30
0.0
 11
261.97228152262602
 21
215.8998011528883
 31
0.0
  0
ARC
  5
2192
  8
DANMEN
  6
CONTINUOUS
 10
261.3222815226261
 20
221.39980115288819
 30
0.0
 40
0.5
 50
90.0
 51
180.0
  0
POINT
  5
2193
  8
DANMEN
  6
CONTINUOUS
 10
262.47228152262602
 20
220.2498011528883
 30
0.0
 50
180.0
  0
POINT
  5
2194
  8
DANMEN
  6
CONTINUOUS
 10
260.8222815226261
 20
220.2498011528883
 30
0.0
 50
180.0
  0
POLYLINE
  5
2195
  8
SUNPO
  6
BYBLOCK
 66
     1
 10
0.0
 20
0.0
 30
0.0
 70
     1
 40
1.159999999999999
 41
1.159999999999999
  0
VERTEX
  5
241B
  8
SUNPO
  6
BYBLOCK
 10
260.96844152262599
 20
241.89980115288819
 30
0.0
 42
1.0
  0
VERTEX
  5
241C
  8
SUNPO
  6
BYBLOCK
 10
260.67612152262598
 20
241.89980115288819
 30
0.0
 42
1.0
  0
SEQEND
  5
241D
  8
SUNPO
  6
BYBLOCK
  0
LINE
  5
2199
  8
SUNPO
  6
CONTINUOUS
 10
213.82228152262601
 20
283.89980115288819
 30
0.0
 11
213.82228152262601
 21
263.8998011528883
 31
0.0
  0
LINE
  5
219A
  8
SUNPO
  6
CONTINUOUS
 10
205.32228152262601
 20
263.8998011528883
 30
0.0
 11
213.82228152262601
 21
263.8998011528883
 31
0.0
  0
POLYLINE
  5
219B
  8
SUNPO
  6
BYBLOCK
 66
     1
 10
0.0
 20
0.0
 30
0.0
 70
     1
 40
1.159999999999999
 41
1.159999999999999
  0
VERTEX
  5
241E
  8
SUNPO
  6
BYBLOCK
 10
213.82228152262601
 20
264.0459611528882
 30
0.0
 42
1.0
  0
VERTEX
  5
241F
  8
SUNPO
  6
BYBLOCK
 10
213.82228152262601
 20
263.75364115288818
 30
0.0
 42
1.0
  0
SEQEND
  5
2420
  8
SUNPO
  6
BYBLOCK
  0
LINE
  5
219F
  8
SUNPO
  6
CONTINUOUS
 10
228.82228152262601
 20
278.8998011528883
 30
0.0
 11
218.8222815226259
 21
278.8998011528883
 31
0.0
  0
LINE
  5
21A0
  8
SUNPO
  6
CONTINUOUS
 10
218.8222815226259
 20
278.8998011528883
 30
0.0
 11
223.82228152262601
 21
283.89980115288819
 31
0.0
  0
TEXT
  5
21A1
  8
SUNPO
  6
CONTINUOUS
 10
213.32228152262601
 20
271.83730115288819
 30
0.0
 40
2.5
  1
20
 50
90.0
 41
1.1000000000000001
  7
MX_DIMTXSTY_3
  0
POINT
  5
21A2
  8
SUNPO
  6
CONTINUOUS
 10
218.8222815226259
 20
278.8998011528883
 30
0.0
  0
TEXT
  5
21A3
  8
SUNPO
  6
CONTINUOUS
 10
213.32228152262601
 20
289.39980115288819
 30
0.0
 40
2.5
  1
15
 50
90.0
 41
1.1999999999999991
  7
MX_DIMTXSTY_2
  0
POLYLINE
  5
21A4
  8
SUNPO
  6
BYBLOCK
 66
     1
 10
0.0
 20
0.0
 30
0.0
 70
     1
 40
1.159999999999999
 41
1.159999999999999
  0
VERTEX
  5
2421
  8
SUNPO
  6
BYBLOCK
 10
213.82228152262601
 20
283.75364115288818
 30
0.0
 42
1.0
  0
VERTEX
  5
2422
  8
SUNPO
  6
BYBLOCK
 10
213.82228152262601
 20
284.04596115288831
 30
0.0
 42
1.0
  0
SEQEND
  5
2423
  8
SUNPO
  6
BYBLOCK
  0
POLYLINE
  5
21A8
  8
SUNPO
  6
BYBLOCK
 66
     1
 10
0.0
 20
0.0
 30
0.0
 70
     1
 40
1.159999999999999
 41
1.159999999999999
  0
VERTEX
  5
2424
  8
SUNPO
  6
BYBLOCK
 10
213.82228152262601
 20
284.04596115288831
 30
0.0
 42
1.0
  0
VERTEX
  5
2425
  8
SUNPO
  6
BYBLOCK
 10
213.82228152262601
 20
283.75364115288818
 30
0.0
 42
1.0
  0
SEQEND
  5
2426
  8
SUNPO
  6
BYBLOCK
  0
LINE
  5
21AC
  8
SUNPO
  6
CONTINUOUS
 10
223.82228152262601
 20
283.89980115288819
 30
0.0
 11
228.82228152262601
 21
278.8998011528883
 31
0.0
  0
POINT
  5
21AD
  8
SUNPO
  6
CONTINUOUS
 10
228.82228152262601
 20
278.8998011528883
 30
0.0
  0
POINT
  5
21AE
  8
SUNPO
  6
CONTINUOUS
 10
223.82228152262601
 20
283.89980115288819
 30
0.0
  0
ARC
  5
21AF
  8
DANMEN
  6
CONTINUOUS
 10
203.32228152262601
 20
301.3998011528883
 30
0.0
 40
0.5
 50
0.0
 51
180.0
  0
LINE
  5
21B0
  8
DANMEN
  6
CONTINUOUS
 10
183.8222815226259
 20
298.8998011528883
 30
0.0
 11
203.32228152262601
 21
298.8998011528883
 31
0.0
  0
LINE
  5
21B1
  8
SUNPO
  6
CONTINUOUS
 10
185.32228152262601
 20
318.89980115288819
 30
0.0
 11
223.82228152262601
 21
318.89980115288819
 31
0.0
  0
LINE
  5
21B2
  8
DANMEN
  6
CONTINUOUS
 10
183.8222815226259
 20
301.8998011528883
 30
0.0
 11
203.82228152262601
 21
301.8998011528883
 31
0.0
  0
LINE
  5
21B3
  8
DANMEN
  6
CONTINUOUS
 10
144.8222815226261
 20
301.8998011528883
 30
0.0
 11
144.8222815226261
 21
318.3998011528883
 31
0.0
  0
LINE
  5
21B4
  8
DANMEN
  6
CONTINUOUS
 10
153.8222815226259
 20
301.69980115288809
 30
0.0
 11
154.3222815226259
 21
301.8998011528883
 31
0.0
  0
LINE
  5
21B5
  8
DANMEN
  6
CONTINUOUS
 10
153.8222815226259
 20
294.39980115288819
 30
0.0
 11
154.4082815226262
 21
294.39980115288819
 31
0.0
  0
LINE
  5
21B6
  8
DANMEN
  6
CONTINUOUS
 10
153.8222815226259
 20
298.8998011528883
 30
0.0
 11
154.4082815226262
 21
298.8998011528883
 31
0.0
  0
LINE
  5
21B7
  8
DANMEN
  6
CONTINUOUS
 10
144.8222815226261
 20
298.52180115288832
 30
0.0
 11
146.1462815226262
 21
299.84580115288833
 31
0.0
  0
LINE
  5
21B8
  8
DANMEN
  6
CONTINUOUS
 10
144.8222815226261
 20
297.10780115288833
 30
0.0
 11
146.82728152262601
 21
299.11280115288832
 31
0.0
  0
LINE
  5
21B9
  8
DANMEN
  6
CONTINUOUS
 10
144.8222815226261
 20
295.69380115288823
 30
0.0
 11
149.028281522626
 21
299.8998011528883
 31
0.0
  0
LINE
  5
21BA
  8
DANMEN
  6
CONTINUOUS
 10
144.8222815226261
 20
294.27880115288832
 30
0.0
 11
150.44328152262619
 21
299.8998011528883
 31
0.0
  0
LINE
  5
21BB
  8
DANMEN
  6
CONTINUOUS
 10
147.3222815226259
 20
301.8998011528883
 30
0.0
 11
144.8222815226261
 21
301.8998011528883
 31
0.0
  0
LINE
  5
21BC
  8
DANMEN
  6
CONTINUOUS
 10
145.3222815226259
 20
299.8998011528883
 30
0.0
 11
145.8222815226261
 21
299.8998011528883
 31
0.0
  0
POINT
  5
21BD
  8
DANMEN
  6
CONTINUOUS
 10
142.8222815226261
 20
297.54980115288822
 30
0.0
  0
ARC
  5
21BE
  8
DANMEN
  6
CONTINUOUS
 10
145.3222815226259
 20
299.3998011528883
 30
0.0
 40
0.5
 50
90.0
 51
180.0
  0
POINT
  5
21BF
  8
DANMEN
  6
CONTINUOUS
 10
144.8222815226261
 20
299.8998011528883
 30
0.0
  0
POINT
  5
21C0
  8
DANMEN
  6
CONTINUOUS
 10
142.8222815226261
 20
301.8998011528883
 30
0.0
  0
ARC
  5
21C1
  8
DANMEN
  6
CONTINUOUS
 10
145.8222815226261
 20
298.8998011528883
 30
0.0
 40
1.0
 50
19.471000000000359
 51
90.0
  0
LINE
  5
21C2
  8
DANMEN
  6
CONTINUOUS
 10
147.8222815226261
 20
299.8998011528883
 30
0.0
 11
147.8222815226261
 21
301.69980115288809
 31
0.0
  0
LINE
  5
21C3
  8
DANMEN
  6
CONTINUOUS
 10
153.8222815226259
 20
299.8998011528883
 30
0.0
 11
153.8222815226259
 21
301.69980115288809
 31
0.0
  0
LINE
  5
21C4
  8
DANMEN
  6
CONTINUOUS
 10
147.77128152262611
 20
294.39980115288819
 30
0.0
 11
153.27128152262611
 21
299.8998011528883
 31
0.0
  0
LINE
  5
21C5
  8
DANMEN
  6
CONTINUOUS
 10
147.8222815226261
 20
299.8998011528883
 30
0.0
 11
153.8222815226259
 21
299.8998011528883
 31
0.0
  0
POINT
  5
21C6
  8
DANMEN
  6
CONTINUOUS
 10
147.8222815226261
 20
299.8998011528883
 30
0.0
  0
POINT
  5
21C7
  8
DANMEN
  6
CONTINUOUS
 10
147.8222815226261
 20
294.39980115288819
 30
0.0
  0
POINT
  5
21C8
  8
DANMEN
  6
CONTINUOUS
 10
146.8222815226261
 20
294.39980115288819
 30
0.0
  0
POINT
  5
21C9
  8
DANMEN
  6
CONTINUOUS
 10
145.8222815226261
 20
294.39980115288819
 30
0.0
  0
LINE
  5
21CA
  8
DANMEN
  6
CONTINUOUS
 10
147.2362815226262
 20
294.39980115288819
 30
0.0
 11
147.8222815226261
 21
294.39980115288819
 31
0.0
  0
LINE
  5
21CB
  8
DANMEN
  6
CONTINUOUS
 10
147.8222815226261
 20
299.8998011528883
 30
0.0
 11
147.8222815226261
 21
298.8998011528883
 31
0.0
  0
LINE
  5
21CC
  8
DANMEN
  6
CONTINUOUS
 10
147.2362815226262
 20
298.8998011528883
 30
0.0
 11
147.8222815226261
 21
298.8998011528883
 31
0.0
  0
POINT
  5
21CD
  8
DANMEN
  6
CONTINUOUS
 10
145.8222815226261
 20
298.8998011528883
 30
0.0
  0
ARC
  5
21CE
  8
DANMEN
  6
CONTINUOUS
 10
147.2362815226262
 20
299.3998011528883
 30
0.0
 40
0.5
 50
199.4710000000002
 51
270.0
  0
POINT
  5
21CF
  8
DANMEN
  6
CONTINUOUS
 10
146.8222815226261
 20
298.8998011528883
 30
0.0
  0
POINT
  5
21D0
  8
DANMEN
  6
CONTINUOUS
 10
147.8222815226261
 20
298.8998011528883
 30
0.0
  0
POINT
  5
21D1
  8
DANMEN
  6
CONTINUOUS
 10
147.8222815226261
 20
299.8998011528883
 30
0.0
  0
POINT
  5
21D2
  8
DANMEN
  6
CONTINUOUS
 10
153.8222815226259
 20
299.8998011528883
 30
0.0
  0
POINT
  5
21D3
  8
DANMEN
  6
CONTINUOUS
 10
153.8222815226259
 20
294.39980115288819
 30
0.0
  0
LINE
  5
21D4
  8
DANMEN
  6
CONTINUOUS
 10
153.8222815226259
 20
299.8998011528883
 30
0.0
 11
153.8222815226259
 21
298.8998011528883
 31
0.0
  0
POINT
  5
21D5
  8
DANMEN
  6
CONTINUOUS
 10
153.8222815226259
 20
298.8998011528883
 30
0.0
  0
POINT
  5
21D6
  8
DANMEN
  6
CONTINUOUS
 10
153.8222815226259
 20
299.8998011528883
 30
0.0
  0
LINE
  5
21D7
  8
DANMEN
  6
CONTINUOUS
 10
147.3222815226259
 20
301.8998011528883
 30
0.0
 11
147.8222815226261
 21
301.69980115288809
 31
0.0
  0
POINT
  5
21D8
  8
DANMEN
  6
CONTINUOUS
 10
147.3222815226259
 20
301.8998011528883
 30
0.0
  0
POINT
  5
21D9
  8
DANMEN
  6
CONTINUOUS
 10
147.8222815226261
 20
301.69980115288809
 30
0.0
  0
POINT
  5
21DA
  8
DANMEN
  6
CONTINUOUS
 10
153.8222815226259
 20
301.69980115288809
 30
0.0
  0
ARC
  5
21DB
  8
DANMEN
  6
CONTINUOUS
 10
156.8222815226259
 20
299.8998011528883
 30
0.0
 40
2.0
 50
0.0
 51
90.0
  0
ARC
  5
21DC
  8
DANMEN
  6
CONTINUOUS
 10
155.8222815226259
 20
298.8998011528883
 30
0.0
 40
1.0
 50
90.0
 51
160.5289999999996
  0
LINE
  5
21DD
  8
DANMEN
  6
CONTINUOUS
 10
154.7272815226261
 20
294.28480115288818
 30
0.0
 11
156.8222815226259
 21
296.37980115288832
 31
0.0
  0
POINT
  5
21DE
  8
DANMEN
  6
CONTINUOUS
 10
157.8222815226259
 20
295.04980115288822
 30
0.0
  0
POINT
  5
21DF
  8
DANMEN
  6
CONTINUOUS
 10
154.8222815226259
 20
294.39980115288819
 30
0.0
  0
POINT
  5
21E0
  8
DANMEN
  6
CONTINUOUS
 10
155.8222815226259
 20
294.39980115288819
 30
0.0
  0
LINE
  5
21E1
  8
DANMEN
  6
CONTINUOUS
 10
155.8222815226259
 20
299.8998011528883
 30
0.0
 11
156.3222815226261
 21
299.8998011528883
 31
0.0
  0
ARC
  5
21E2
  8
DANMEN
  6
CONTINUOUS
 10
156.3222815226261
 20
299.3998011528883
 30
0.0
 40
0.5
 50
0.0
 51
90.0
  0
POINT
  5
21E3
  8
DANMEN
  6
CONTINUOUS
 10
156.8222815226259
 20
299.8998011528883
 30
0.0
  0
POINT
  5
21E4
  8
DANMEN
  6
CONTINUOUS
 10
155.8222815226259
 20
298.8998011528883
 30
0.0
  0
ARC
  5
21E5
  8
DANMEN
  6
CONTINUOUS
 10
154.4082815226262
 20
299.3998011528883
 30
0.0
 40
0.5
 50
270.0
 51
340.52899999999948
  0
POINT
  5
21E6
  8
DANMEN
  6
CONTINUOUS
 10
154.8222815226259
 20
298.8998011528883
 30
0.0
  0
ARC
  5
21E7
  8
DANMEN
  6
CONTINUOUS
 10
161.42228152262601
 20
297.19980115288831
 30
0.0
 40
0.3
 50
0.0
 51
90.0
  0
LINE
  5
21E8
  8
DANMEN
  6
CONTINUOUS
 10
158.8222815226259
 20
297.49980115288832
 30
0.0
 11
161.42228152262601
 21
297.49980115288832
 31
0.0
  0
POINT
  5
21E9
  8
DANMEN
  6
CONTINUOUS
 10
160.8222815226261
 20
295.3998011528883
 30
0.0
  0
LINE
  5
21EA
  8
DANMEN
  6
CONTINUOUS
 10
161.022281522626
 20
295.84580115288833
 30
0.0
 11
161.022281522626
 21
294.59980115288818
 31
0.0
  0
ARC
  5
21EB
  8
DANMEN
  6
CONTINUOUS
 10
161.522281522626
 20
296.93680115288822
 30
0.0
 40
0.2
 50
294.6239999999998
 51
0.0
  0
ARC
  5
21EC
  8
DANMEN
  6
CONTINUOUS
 10
162.022281522626
 20
295.84580115288833
 30
0.0
 40
1.0
 50
114.6239999999998
 51
180.0
  0
LINE
  5
21ED
  8
DANMEN
  6
CONTINUOUS
 10
161.7222815226261
 20
297.19980115288831
 30
0.0
 11
161.7222815226261
 21
296.93680115288822
 31
0.0
  0
LINE
  5
21EE
  8
DANMEN
  6
CONTINUOUS
 10
158.8222815226259
 20
299.8998011528883
 30
0.0
 11
158.8222815226259
 21
297.49980115288832
 31
0.0
  0
POINT
  5
21EF
  8
DANMEN
  6
CONTINUOUS
 10
158.8222815226259
 20
297.49980115288832
 30
0.0
  0
POINT
  5
21F0
  8
DANMEN
  6
CONTINUOUS
 10
157.8222815226259
 20
301.8998011528883
 30
0.0
  0
POINT
  5
21F1
  8
DANMEN
  6
CONTINUOUS
 10
154.3222815226259
 20
301.8998011528883
 30
0.0
  0
LINE
  5
21F2
  8
DANMEN
  6
CONTINUOUS
 10
156.8222815226259
 20
301.8998011528883
 30
0.0
 11
154.3222815226259
 21
301.8998011528883
 31
0.0
  0
ARC
  5
21F3
  8
DANMEN
  6
CONTINUOUS
 10
164.1222815226262
 20
295.92980115288822
 30
0.0
 40
2.0
 50
0.0
 51
51.706999999999923
  0
POINT
  5
21F4
  8
DANMEN
  6
CONTINUOUS
 10
162.8222815226259
 20
295.3998011528883
 30
0.0
  0
ARC
  5
21F5
  8
DANMEN
  6
CONTINUOUS
 10
164.2222815226261
 20
297.19980115288831
 30
0.0
 40
0.3
 50
90.0
 51
180.0
  0
LINE
  5
21F6
  8
DANMEN
  6
CONTINUOUS
 10
165.3612815226262
 20
297.49980115288832
 30
0.0
 11
164.2222815226261
 21
297.49980115288832
 31
0.0
  0
POINT
  5
21F7
  8
DANMEN
  6
CONTINUOUS
 10
162.8222815226259
 20
295.3998011528883
 30
0.0
  0
LINE
  5
21F8
  8
DANMEN
  6
CONTINUOUS
 10
164.62228152262611
 20
295.84580115288833
 30
0.0
 11
164.62228152262611
 21
294.59980115288818
 31
0.0
  0
LINE
  5
21F9
  8
DANMEN
  6
CONTINUOUS
 10
166.1222815226262
 20
295.92980115288822
 30
0.0
 11
166.1222815226262
 21
294.54980115288822
 31
0.0
  0
LINE
  5
21FA
  8
DANMEN
  6
CONTINUOUS
 10
163.92228152262601
 20
297.19980115288831
 30
0.0
 11
163.92228152262601
 21
296.93680115288822
 31
0.0
  0
ARC
  5
21FB
  8
DANMEN
  6
CONTINUOUS
 10
163.62228152262611
 20
295.84580115288833
 30
0.0
 40
1.0
 50
0.0
 51
65.376000000000175
  0
ARC
  5
21FC
  8
DANMEN
  6
CONTINUOUS
 10
164.1222815226262
 20
296.93680115288822
 30
0.0
 40
0.2
 50
180.0
 51
245.37600000000009
  0
POINT
  5
21FD
  8
DANMEN
  6
CONTINUOUS
 10
162.8222815226259
 20
295.3998011528883
 30
0.0
  0
ARC
  5
21FE
  8
DANMEN
  6
CONTINUOUS
 10
144.3222815226259
 20
318.3998011528883
 30
0.0
 40
0.5
 50
0.0
 51
90.0
  0
ARC
  5
21FF
  8
DANMEN
  6
CONTINUOUS
 10
174.3222815226259
 20
317.74980115288821
 30
0.0
 40
0.5
 50
180.0
 51
270.0
  0
LINE
  5
2200
  8
DANMEN
  6
CONTINUOUS
 10
183.8222815226259
 20
318.3998011528883
 30
0.0
 11
183.8222815226259
 21
299.99980115288832
 31
0.0
  0
LINE
  5
2201
  8
DANMEN
  6
CONTINUOUS
 10
183.8222815226259
 20
299.99980115288832
 30
0.0
 11
202.82228152262601
 21
299.99980115288832
 31
0.0
  0
LINE
  5
2202
  8
DANMEN
  6
CONTINUOUS
 10
182.17228152262601
 20
317.24980115288821
 30
0.0
 11
182.17228152262601
 21
294.54980115288822
 31
0.0
  0
LINE
  5
2203
  8
DANMEN
  6
CONTINUOUS
 10
182.17228152262601
 20
317.24980115288821
 30
0.0
 11
174.3222815226259
 21
317.24980115288821
 31
0.0
  0
POINT
  5
2204
  8
DANMEN
  6
CONTINUOUS
 10
173.82228152262601
 20
317.24980115288821
 30
0.0
  0
POINT
  5
2205
  8
DANMEN
  6
CONTINUOUS
 10
182.17228152262601
 20
317.24980115288821
 30
0.0
  0
LINE
  5
2206
  8
DANMEN
  6
CONTINUOUS
 10
202.82228152262601
 20
301.3998011528883
 30
0.0
 11
202.82228152262601
 21
299.99980115288832
 31
0.0
  0
LINE
  5
2207
  8
DANMEN
  6
CONTINUOUS
 10
183.32228152262601
 20
318.89980115288819
 30
0.0
 11
174.3222815226259
 21
318.89980115288819
 31
0.0
  0
POINT
  5
2208
  8
DANMEN
  6
CONTINUOUS
 10
173.82228152262601
 20
318.89980115288819
 30
0.0
  0
ARC
  5
2209
  8
DANMEN
  6
CONTINUOUS
 10
174.3222815226259
 20
318.3998011528883
 30
0.0
 40
0.5
 50
90.0
 51
180.0
  0
LINE
  5
220A
  8
DANMEN
  6
CONTINUOUS
 10
173.82228152262601
 20
318.3998011528883
 30
0.0
 11
173.82228152262601
 21
317.74980115288821
 31
0.0
  0
POINT
  5
220B
  8
DANMEN
  6
CONTINUOUS
 10
182.17228152262601
 20
318.89980115288819
 30
0.0
  0
POINT
  5
220C
  8
DANMEN
  6
CONTINUOUS
 10
183.8222815226259
 20
318.89980115288819
 30
0.0
  0
ARC
  5
220D
  8
DANMEN
  6
CONTINUOUS
 10
183.32228152262601
 20
318.3998011528883
 30
0.0
 40
0.5
 50
0.0
 51
90.0
  0
LINE
  5
220E
  8
SUNPO
  6
CONTINUOUS
 10
204.82228152262601
 20
298.8998011528883
 30
0.0
 11
213.82228152262601
 21
298.8998011528883
 31
0.0
  0
LINE
  5
220F
  8
DANMEN
  6
CONTINUOUS
 10
203.82228152262601
 20
301.3998011528883
 30
0.0
 11
203.82228152262601
 21
299.3998011528883
 31
0.0
  0
ARC
  5
2210
  8
DANMEN
  6
CONTINUOUS
 10
203.32228152262601
 20
299.3998011528883
 30
0.0
 40
0.5
 50
270.0
 51
0.0
  0
POLYLINE
  5
2211
  8
SUNPO
  6
BYBLOCK
 66
     1
 10
0.0
 20
0.0
 30
0.0
 70
     1
 40
1.159999999999999
 41
1.159999999999999
  0
VERTEX
  5
2427
  8
SUNPO
  6
BYBLOCK
 10
213.82228152262601
 20
298.75364115288818
 30
0.0
 42
1.0
  0
VERTEX
  5
2428
  8
SUNPO
  6
BYBLOCK
 10
213.82228152262601
 20
299.04596115288831
 30
0.0
 42
1.0
  0
SEQEND
  5
2429
  8
SUNPO
  6
BYBLOCK
  0
TEXT
  5
2215
  8
SUNPO
  6
CONTINUOUS
 10
223.32228152262601
 20
299.31646781955487
 30
0.0
 40
2.5
  1
35
 50
90.0
  0
POLYLINE
  5
2216
  8
SUNPO
  6
BYBLOCK
 66
     1
 10
0.0
 20
0.0
 30
0.0
 70
     1
 40
1.159999999999999
 41
1.159999999999999
  0
VERTEX
  5
242A
  8
SUNPO
  6
BYBLOCK
 10
223.82228152262601
 20
318.75364115288818
 30
0.0
 42
1.0
  0
VERTEX
  5
242B
  8
SUNPO
  6
BYBLOCK
 10
223.82228152262601
 20
319.04596115288808
 30
0.0
 42
1.0
  0
SEQEND
  5
242C
  8
SUNPO
  6
BYBLOCK
  0
LINE
  5
221A
  8
DANMEN
  6
CONTINUOUS
 10
269.17228152262601
 20
220.2498011528883
 30
0.0
 11
269.17228152262601
 21
192.89980115288819
 31
0.0
  0
LINE
  5
221B
  8
DANMEN
  6
CONTINUOUS
 10
270.82228152262587
 20
187.8998011528883
 30
0.0
 11
270.82228152262587
 21
212.24980115288821
 31
0.0
  0
LINE
  5
221C
  8
DANMEN
  6
CONTINUOUS
 10
426.47228152262602
 20
220.2498011528883
 30
0.0
 11
426.47228152262602
 21
192.89980115288819
 31
0.0
  0
LINE
  5
221D
  8
DANMEN
  6
CONTINUOUS
 10
424.82228152262599
 20
187.8998011528883
 30
0.0
 11
424.82228152262599
 21
212.24980115288821
 31
0.0
  0
LINE
  5
221E
  8
SUNPO
  6
CONTINUOUS
 10
333.8222815226261
 20
151.8998011528883
 30
0.0
 11
333.8222815226261
 21
221.8998011528883
 31
0.0
  0
TEXT
  5
221F
  8
SUNPO
  6
CONTINUOUS
 10
397.75978152262599
 20
112.3998011528883
 30
0.0
 40
2.5
  1
20
 41
1.1000000000000001
  7
MX_DIMTXSTY_3
  0
LINE
  5
2220
  8
SUNPO
  6
CONTINUOUS
 10
409.8222815226261
 20
111.8998011528883
 30
0.0
 11
389.8222815226261
 21
111.8998011528883
 31
0.0
  0
LINE
  5
2221
  8
SUNPO
  6
CONTINUOUS
 10
364.8222815226261
 20
101.8998011528883
 30
0.0
 11
409.8222815226261
 21
101.8998011528883
 31
0.0
  0
LINE
  5
2222
  8
DANMEN
  6
CONTINUOUS
 10
349.82228152262599
 20
151.8998011528883
 30
0.0
 11
410.3222815226261
 21
151.8998011528883
 31
0.0
  0
LINE
  5
2223
  8
DANMEN
  6
CONTINUOUS
 10
349.82228152262599
 20
131.8998011528883
 30
0.0
 11
425.32228152262581
 21
131.8998011528883
 31
0.0
  0
LINE
  5
2224
  8
SUNPO
  6
CONTINUOUS
 10
285.8222815226261
 20
130.39980115288819
 30
0.0
 11
285.8222815226261
 21
101.8998011528883
 31
0.0
  0
LINE
  5
2225
  8
SUNPO
  6
CONTINUOUS
 10
285.8222815226261
 20
101.8998011528883
 30
0.0
 11
335.8222815226261
 21
101.8998011528883
 31
0.0
  0
TEXT
  5
2226
  8
SUNPO
  6
CONTINUOUS
 10
271.23894818929273
 20
102.3998011528882
 30
0.0
 40
2.5
  1
25
  0
LINE
  5
2227
  8
SUNPO
  6
CONTINUOUS
 10
290.8222815226261
 20
106.8998011528883
 30
0.0
 11
290.8222815226261
 21
96.899801152888486
 31
0.0
  0
LINE
  5
2228
  8
SUNPO
  6
CONTINUOUS
 10
290.8222815226261
 20
96.899801152888486
 30
0.0
 11
285.8222815226261
 21
101.8998011528883
 31
0.0
  0
POINT
  5
2229
  8
SUNPO
  6
CONTINUOUS
 10
290.8222815226261
 20
96.899801152888486
 30
0.0
  0
LINE
  5
222A
  8
SUNPO
  6
CONTINUOUS
 10
285.8222815226261
 20
101.8998011528883
 30
0.0
 11
290.8222815226261
 21
106.8998011528883
 31
0.0
  0
POINT
  5
222B
  8
SUNPO
  6
CONTINUOUS
 10
285.8222815226261
 20
101.8998011528883
 30
0.0
  0
POINT
  5
222C
  8
SUNPO
  6
CONTINUOUS
 10
290.8222815226261
 20
106.8998011528883
 30
0.0
  0
LINE
  5
222D
  8
SUNPO
  6
CONTINUOUS
 10
351.05028152262599
 20
98.399801152888358
 30
0.0
 11
347.00828152262602
 21
105.3998011528882
 31
0.0
  0
LINE
  5
222E
  8
SUNPO
  6
CONTINUOUS
 10
353.35928152262602
 20
98.399801152888358
 30
0.0
 11
349.31828152262602
 21
105.3998011528882
 31
0.0
  0
LINE
  5
222F
  8
SUNPO
  6
CONTINUOUS
 10
353.93628152262602
 20
98.399801152888358
 30
0.0
 11
350.35928152262602
 21
98.399801152888358
 31
0.0
  0
LINE
  5
2230
  8
SUNPO
  6
CONTINUOUS
 10
343.92828152262598
 20
105.3998011528882
 30
0.0
 11
339.55328152262598
 21
105.3998011528882
 31
0.0
  0
LINE
  5
2231
  8
SUNPO
  6
CONTINUOUS
 10
344.69928152262599
 20
98.399801152888358
 30
0.0
 11
340.65728152262602
 21
105.3998011528882
 31
0.0
  0
LINE
  5
2232
  8
SUNPO
  6
CONTINUOUS
 10
347.00828152262602
 20
105.3998011528882
 30
0.0
 11
347.00828152262602
 21
98.399801152888358
 31
0.0
  0
LINE
  5
2233
  8
SUNPO
  6
CONTINUOUS
 10
347.00828152262602
 20
98.399801152888358
 30
0.0
 11
342.96728152262602
 21
105.3998011528882
 31
0.0
  0
LINE
  5
2234
  8
SUNPO
  6
CONTINUOUS
 10
348.00828152262602
 20
98.399801152888358
 30
0.0
 11
343.5312815226261
 21
98.399801152888358
 31
0.0
  0
POINT
  5
2235
  8
SUNPO
  6
CONTINUOUS
 10
350.8222815226261
 20
101.8998011528883
 30
0.0
  0
LINE
  5
2236
  8
SUNPO
  6
CONTINUOUS
 10
350.31828152262602
 20
105.3998011528882
 30
0.0
 11
346.00828152262602
 21
105.3998011528882
 31
0.0
  0
LINE
  5
2237
  8
SUNPO
  6
CONTINUOUS
 10
362.0912815226261
 20
103.3998011528882
 30
0.0
 11
357.0912815226261
 21
103.3998011528882
 31
0.0
  0
LINE
  5
2238
  8
SUNPO
  6
CONTINUOUS
 10
362.0912815226261
 20
100.3998011528883
 30
0.0
 11
357.0912815226261
 21
100.3998011528883
 31
0.0
  0
LINE
  5
2239
  8
SUNPO
  6
CONTINUOUS
 10
353.35928152262602
 20
105.3998011528882
 30
0.0
 11
353.35928152262602
 21
98.399801152888358
 31
0.0
  0
LINE
  5
223A
  8
SUNPO
  6
CONTINUOUS
 10
354.31828152262602
 20
105.3998011528882
 30
0.0
 11
352.2812815226261
 21
105.3998011528882
 31
0.0
  0
LINE
  5
223B
  8
DANMEN
  6
CONTINUOUS
 10
345.82228152262599
 20
151.8998011528883
 30
0.0
 11
285.32228152262599
 21
151.8998011528883
 31
0.0
  0
LINE
  5
223C
  8
DANMEN
  6
CONTINUOUS
 10
345.82228152262599
 20
131.8998011528883
 30
0.0
 11
270.82228152262587
 21
131.8998011528883
 31
0.0
  0
LINE
  5
223D
  8
DANMEN
  6
CONTINUOUS
 10
270.82228152262587
 20
171.19980115288831
 30
0.0
 11
270.82228152262587
 21
152.9998011528883
 31
0.0
  0
LINE
  5
223E
  8
DANMEN
  6
CONTINUOUS
 10
269.17228152262601
 20
176.8998011528883
 30
0.0
 11
269.17228152262601
 21
153.54980115288831
 31
0.0
  0
LINE
  5
223F
  8
SUNPO
  6
CONTINUOUS
 10
305.82228152262599
 20
111.8998011528883
 30
0.0
 11
285.8222815226261
 21
111.8998011528883
 31
0.0
  0
LINE
  5
2240
  8
SUNPO
  6
CONTINUOUS
 10
285.8222815226261
 20
111.8998011528883
 30
0.0
 11
270.82228152262587
 21
111.8998011528883
 31
0.0
  0
LINE
  5
2241
  8
SUNPO
  6
CONTINUOUS
 10
270.82228152262587
 20
130.39980115288819
 30
0.0
 11
270.82228152262587
 21
111.8998011528883
 31
0.0
  0
TEXT
  5
2242
  8
SUNPO
  6
CONTINUOUS
 10
276.3222815226261
 20
112.3998011528883
 30
0.0
 40
2.5
  1
15
 41
1.1999999999999991
  7
MX_DIMTXSTY_2
  0
POLYLINE
  5
2243
  8
SUNPO
  6
BYBLOCK
 66
     1
 10
0.0
 20
0.0
 30
0.0
 70
     1
 40
1.159999999999999
 41
1.159999999999999
  0
VERTEX
  5
242D
  8
SUNPO
  6
BYBLOCK
 10
270.67612152262609
 20
111.8998011528883
 30
0.0
 42
1.0
  0
VERTEX
  5
242E
  8
SUNPO
  6
BYBLOCK
 10
270.96844152262599
 20
111.8998011528883
 30
0.0
 42
1.0
  0
SEQEND
  5
242F
  8
SUNPO
  6
BYBLOCK
  0
POLYLINE
  5
2247
  8
SUNPO
  6
BYBLOCK
 66
     1
 10
0.0
 20
0.0
 30
0.0
 70
     1
 40
1.159999999999999
 41
1.159999999999999
  0
VERTEX
  5
2430
  8
SUNPO
  6
BYBLOCK
 10
270.96844152262599
 20
111.8998011528883
 30
0.0
 42
1.0
  0
VERTEX
  5
2431
  8
SUNPO
  6
BYBLOCK
 10
270.67612152262609
 20
111.8998011528883
 30
0.0
 42
1.0
  0
SEQEND
  5
2432
  8
SUNPO
  6
BYBLOCK
  0
POLYLINE
  5
224B
  8
SUNPO
  6
BYBLOCK
 66
     1
 10
0.0
 20
0.0
 30
0.0
 70
     1
 40
1.159999999999999
 41
1.159999999999999
  0
VERTEX
  5
2433
  8
SUNPO
  6
BYBLOCK
 10
285.96844152262599
 20
111.8998011528883
 30
0.0
 42
1.0
  0
VERTEX
  5
2434
  8
SUNPO
  6
BYBLOCK
 10
285.67612152262598
 20
111.8998011528883
 30
0.0
 42
1.0
  0
SEQEND
  5
2435
  8
SUNPO
  6
BYBLOCK
  0
POLYLINE
  5
224F
  8
SUNPO
  6
BYBLOCK
 66
     1
 10
0.0
 20
0.0
 30
0.0
 70
     1
 40
1.159999999999999
 41
1.159999999999999
  0
VERTEX
  5
2436
  8
SUNPO
  6
BYBLOCK
 10
285.67612152262598
 20
111.8998011528883
 30
0.0
 42
1.0
  0
VERTEX
  5
2437
  8
SUNPO
  6
BYBLOCK
 10
285.96844152262599
 20
111.8998011528883
 30
0.0
 42
1.0
  0
SEQEND
  5
2438
  8
SUNPO
  6
BYBLOCK
  0
TEXT
  5
2253
  8
SUNPO
  6
CONTINUOUS
 10
293.75978152262599
 20
112.3998011528883
 30
0.0
 40
2.5
  1
20
 41
1.1000000000000001
  7
MX_DIMTXSTY_3
  0
LINE
  5
2254
  8
DANMEN
  6
CONTINUOUS
 10
270.82228152262587
 20
151.8998011528883
 30
0.0
 11
285.32228152262599
 21
151.8998011528883
 31
0.0
  0
LINE
  5
2255
  8
DANMEN
  6
CONTINUOUS
 10
272.82228152262587
 20
153.54980115288831
 30
0.0
 11
285.32228152262599
 21
153.54980115288831
 31
0.0
  0
LINE
  5
2256
  8
DANMEN
  6
CONTINUOUS
 10
270.82228152262587
 20
151.8998011528883
 30
0.0
 11
270.82228152262587
 21
132.39980115288819
 31
0.0
  0
LINE
  5
2257
  8
DANMEN
  6
CONTINUOUS
 10
269.72228152262602
 20
151.8998011528883
 30
0.0
 11
269.72228152262602
 21
132.8998011528883
 31
0.0
  0
ARC
  5
2258
  8
DANMEN
  6
CONTINUOUS
 10
270.32228152262599
 20
132.39980115288819
 30
0.0
 40
0.5
 50
270.0
 51
0.0
  0
POINT
  5
2259
  8
DANMEN
  6
CONTINUOUS
 10
270.82228152262587
 20
151.8998011528883
 30
0.0
 50
180.0
  0
LINE
  5
225A
  8
DANMEN
  6
CONTINUOUS
 10
272.82228152262587
 20
152.9998011528883
 30
0.0
 11
272.82228152262587
 21
153.54980115288831
 31
0.0
  0
POINT
  5
225B
  8
DANMEN
  6
CONTINUOUS
 10
269.17228152262601
 20
153.54980115288831
 30
0.0
 50
180.0
  0
LINE
  5
225C
  8
DANMEN
  6
CONTINUOUS
 10
270.82228152262587
 20
152.9998011528883
 30
0.0
 11
272.82228152262587
 21
152.9998011528883
 31
0.0
  0
POINT
  5
225D
  8
DANMEN
  6
CONTINUOUS
 10
272.82228152262587
 20
153.54980115288831
 30
0.0
 50
180.0
  0
POINT
  5
225E
  8
DANMEN
  6
CONTINUOUS
 10
272.82228152262587
 20
152.9998011528883
 30
0.0
 50
180.0
  0
POINT
  5
225F
  8
DANMEN
  6
CONTINUOUS
 10
270.82228152262587
 20
152.9998011528883
 30
0.0
 50
180.0
  0
LINE
  5
2260
  8
DANMEN
  6
CONTINUOUS
 10
285.8222815226261
 20
152.3998011528883
 30
0.0
 11
285.8222815226261
 21
153.04980115288831
 31
0.0
  0
ARC
  5
2261
  8
DANMEN
  6
CONTINUOUS
 10
285.32228152262599
 20
152.3998011528883
 30
0.0
 40
0.5
 50
270.0
 51
0.0
  0
ARC
  5
2262
  8
DANMEN
  6
CONTINUOUS
 10
285.32228152262599
 20
153.04980115288831
 30
0.0
 40
0.5
 50
0.0
 51
90.0
  0
LINE
  5
2263
  8
SUNPO
  6
CONTINUOUS
 10
305.82228152262599
 20
130.39980115288819
 30
0.0
 11
305.82228152262599
 21
111.8998011528883
 31
0.0
  0
POLYLINE
  5
2264
  8
SUNPO
  6
BYBLOCK
 66
     1
 10
0.0
 20
0.0
 30
0.0
 70
     1
 40
1.159999999999999
 41
1.159999999999999
  0
VERTEX
  5
2439
  8
SUNPO
  6
BYBLOCK
 10
305.67612152262609
 20
111.8998011528883
 30
0.0
 42
1.0
  0
VERTEX
  5
243A
  8
SUNPO
  6
BYBLOCK
 10
305.96844152262599
 20
111.8998011528883
 30
0.0
 42
1.0
  0
SEQEND
  5
243B
  8
SUNPO
  6
BYBLOCK
  0
POLYLINE
  5
2268
  8
SUNPO
  6
BYBLOCK
 66
     1
 10
0.0
 20
0.0
 30
0.0
 70
     1
 40
1.159999999999999
 41
1.159999999999999
  0
VERTEX
  5
243C
  8
SUNPO
  6
BYBLOCK
 10
333.8222815226261
 20
152.04596115288831
 30
0.0
 42
1.0
  0
VERTEX
  5
243D
  8
SUNPO
  6
BYBLOCK
 10
333.8222815226261
 20
151.75364115288821
 30
0.0
 42
1.0
  0
SEQEND
  5
243E
  8
SUNPO
  6
BYBLOCK
  0
LINE
  5
226C
  8
DANMEN
  6
CONTINUOUS
 10
270.82228152262587
 20
172.8498011528882
 30
0.0
 11
270.82228152262587
 21
181.8998011528883
 31
0.0
  0
LINE
  5
226D
  8
DANMEN
  6
CONTINUOUS
 10
284.8222815226261
 20
173.6998011528882
 30
0.0
 11
285.54628152262592
 21
173.3378011528882
 31
0.0
  0
LINE
  5
226E
  8
DANMEN
  6
CONTINUOUS
 10
285.8222815226261
 20
171.19980115288831
 30
0.0
 11
270.82228152262587
 21
171.19980115288831
 31
0.0
  0
LINE
  5
226F
  8
DANMEN
  6
CONTINUOUS
 10
283.8222815226261
 20
177.8998011528883
 30
0.0
 11
276.82228152262599
 21
177.8998011528883
 31
0.0
  0
LINE
  5
2270
  8
DANMEN
  6
CONTINUOUS
 10
276.3222815226261
 20
172.8498011528882
 30
0.0
 11
270.82228152262587
 21
172.8498011528882
 31
0.0
  0
ARC
  5
2271
  8
DANMEN
  6
CONTINUOUS
 10
276.82228152262599
 20
177.3998011528883
 30
0.0
 40
0.5
 50
90.0
 51
180.0
  0
LINE
  5
2272
  8
DANMEN
  6
CONTINUOUS
 10
276.3222815226261
 20
177.3998011528883
 30
0.0
 11
276.3222815226261
 21
172.8498011528882
 31
0.0
  0
LINE
  5
2273
  8
DANMEN
  6
CONTINUOUS
 10
281.8222815226261
 20
176.6998011528882
 30
0.0
 11
277.8222815226261
 21
176.6998011528882
 31
0.0
  0
LINE
  5
2274
  8
DANMEN
  6
CONTINUOUS
 10
283.8222815226261
 20
172.8498011528882
 30
0.0
 11
277.8222815226261
 21
172.8498011528882
 31
0.0
  0
LINE
  5
2275
  8
DANMEN
  6
CONTINUOUS
 10
277.8222815226261
 20
176.6998011528882
 30
0.0
 11
277.8222815226261
 21
172.8498011528882
 31
0.0
  0
POINT
  5
2276
  8
DANMEN
  6
CONTINUOUS
 10
277.8222815226261
 20
176.6998011528882
 30
0.0
 50
180.0
  0
LINE
  5
2277
  8
DANMEN
  6
CONTINUOUS
 10
284.122281522626
 20
173.6998011528882
 30
0.0
 11
284.8222815226261
 21
173.6998011528882
 31
0.0
  0
LINE
  5
2278
  8
DANMEN
  6
CONTINUOUS
 10
283.8222815226261
 20
172.8498011528882
 30
0.0
 11
283.8222815226261
 21
173.3998011528883
 31
0.0
  0
ARC
  5
2279
  8
DANMEN
  6
CONTINUOUS
 10
284.122281522626
 20
173.3998011528883
 30
0.0
 40
0.3
 50
90.0
 51
180.0
  0
LINE
  5
227A
  8
DANMEN
  6
CONTINUOUS
 10
281.8222815226261
 20
176.6998011528882
 30
0.0
 11
283.420281522626
 21
177.01980115288831
 31
0.0
  0
LINE
  5
227B
  8
DANMEN
  6
CONTINUOUS
 10
283.8222815226261
 20
177.5098011528882
 30
0.0
 11
283.8222815226261
 21
177.8998011528883
 31
0.0
  0
ARC
  5
227C
  8
DANMEN
  6
CONTINUOUS
 10
283.32228152262587
 20
177.5098011528882
 30
0.0
 40
0.5
 50
281.31000000000063
 51
0.0
  0
LINE
  5
227D
  8
DANMEN
  6
CONTINUOUS
 10
285.8222815226261
 20
172.8908011528882
 30
0.0
 11
285.8222815226261
 21
171.19980115288831
 31
0.0
  0
POINT
  5
227E
  8
DANMEN
  6
CONTINUOUS
 10
285.8222815226261
 20
171.19980115288831
 30
0.0
 50
180.0
  0
ARC
  5
227F
  8
DANMEN
  6
CONTINUOUS
 10
285.32228152262599
 20
172.8908011528882
 30
0.0
 40
0.5
 50
0.0
 51
63.434999999999221
  0
LINE
  5
2280
  8
DANMEN
  6
CONTINUOUS
 10
270.82228152262587
 20
187.8998011528883
 30
0.0
 11
270.82228152262587
 21
181.8998011528883
 31
0.0
  0
LINE
  5
2281
  8
DANMEN
  6
CONTINUOUS
 10
269.182281522626
 20
180.40980115288821
 30
0.0
 11
268.83228152262609
 21
180.75980115288829
 31
0.0
  0
LINE
  5
2282
  8
DANMEN
  6
CONTINUOUS
 10
269.3222815226261
 20
179.8998011528883
 30
0.0
 11
269.3222815226261
 21
179.39980115288819
 31
0.0
  0
POINT
  5
2283
  8
DANMEN
  6
CONTINUOUS
 10
269.3222815226261
 20
178.8998011528883
 30
0.0
 50
180.0
  0
LINE
  5
2284
  8
DANMEN
  6
CONTINUOUS
 10
270.82228152262587
 20
187.25480115288821
 30
0.0
 11
270.177281522626
 21
187.8998011528883
 31
0.0
  0
POINT
  5
2285
  8
DANMEN
  6
CONTINUOUS
 10
270.82228152262587
 20
184.8998011528883
 30
0.0
 50
180.0
  0
POINT
  5
2286
  8
DANMEN
  6
CONTINUOUS
 10
270.82228152262587
 20
184.8998011528883
 30
0.0
 50
180.0
  0
LINE
  5
2287
  8
DANMEN
  6
CONTINUOUS
 10
269.3222815226261
 20
190.3998011528883
 30
0.0
 11
269.3222815226261
 21
189.8998011528883
 31
0.0
  0
POINT
  5
2288
  8
DANMEN
  6
CONTINUOUS
 10
269.3222815226261
 20
190.8998011528883
 30
0.0
 50
180.0
  0
TEXT
  5
2289
  8
SUNPO
  6
CONTINUOUS
 10
333.32228152262587
 20
190.21930115288831
 30
0.0
 40
2.5
  1
70
 50
90.0
 41
1.1000000000000001
  7
MX_DIMTXSTY_3
  0
POLYLINE
  5
228A
  8
SUNPO
  6
BYBLOCK
 66
     1
 10
0.0
 20
0.0
 30
0.0
 70
     1
 40
1.159999999999999
 41
1.159999999999999
  0
VERTEX
  5
243F
  8
SUNPO
  6
BYBLOCK
 10
361.82228152262599
 20
132.04596115288831
 30
0.0
 42
1.0
  0
VERTEX
  5
2440
  8
SUNPO
  6
BYBLOCK
 10
361.82228152262599
 20
131.75364115288829
 30
0.0
 42
1.0
  0
SEQEND
  5
2441
  8
SUNPO
  6
BYBLOCK
  0
TEXT
  5
228E
  8
SUNPO
  6
CONTINUOUS
 10
361.3222815226261
 20
139.8373011528883
 30
0.0
 40
2.5
  1
20
 50
90.0
 41
1.1000000000000001
  7
MX_DIMTXSTY_3
  0
LINE
  5
228F
  8
SUNPO
  6
CONTINUOUS
 10
361.82228152262599
 20
151.8998011528883
 30
0.0
 11
361.82228152262599
 21
131.8998011528883
 31
0.0
  0
POLYLINE
  5
2290
  8
SUNPO
  6
BYBLOCK
 66
     1
 10
0.0
 20
0.0
 30
0.0
 70
     1
 40
1.159999999999999
 41
1.159999999999999
  0
VERTEX
  5
2442
  8
SUNPO
  6
BYBLOCK
 10
361.82228152262599
 20
151.75364115288821
 30
0.0
 42
1.0
  0
VERTEX
  5
2443
  8
SUNPO
  6
BYBLOCK
 10
361.82228152262599
 20
152.04596115288831
 30
0.0
 42
1.0
  0
SEQEND
  5
2444
  8
SUNPO
  6
BYBLOCK
  0
LINE
  5
2294
  8
SUNPO
  6
CONTINUOUS
 10
389.8222815226261
 20
130.39980115288819
 30
0.0
 11
389.8222815226261
 21
111.8998011528883
 31
0.0
  0
POLYLINE
  5
2295
  8
SUNPO
  6
BYBLOCK
 66
     1
 10
0.0
 20
0.0
 30
0.0
 70
     1
 40
1.159999999999999
 41
1.159999999999999
  0
VERTEX
  5
2445
  8
SUNPO
  6
BYBLOCK
 10
389.96844152262599
 20
111.8998011528883
 30
0.0
 42
1.0
  0
VERTEX
  5
2446
  8
SUNPO
  6
BYBLOCK
 10
389.67612152262598
 20
111.8998011528883
 30
0.0
 42
1.0
  0
SEQEND
  5
2447
  8
SUNPO
  6
BYBLOCK
  0
LINE
  5
2299
  8
SUNPO
  6
CONTINUOUS
 10
409.8222815226261
 20
130.39980115288819
 30
0.0
 11
409.8222815226261
 21
101.8998011528883
 31
0.0
  0
LINE
  5
229A
  8
SUNPO
  6
CONTINUOUS
 10
434.8222815226261
 20
150.8998011528883
 30
0.0
 11
434.8222815226261
 21
101.8998011528883
 31
0.0
  0
LINE
  5
229B
  8
SUNPO
  6
CONTINUOUS
 10
434.8222815226261
 20
101.8998011528883
 30
0.0
 11
409.8222815226261
 21
101.8998011528883
 31
0.0
  0
LINE
  5
229C
  8
SUNPO
  6
CONTINUOUS
 10
404.82228152262599
 20
96.899801152888486
 30
0.0
 11
404.82228152262599
 21
106.8998011528883
 31
0.0
  0
LINE
  5
229D
  8
SUNPO
  6
CONTINUOUS
 10
409.8222815226261
 20
101.8998011528883
 30
0.0
 11
404.82228152262599
 21
96.899801152888486
 31
0.0
  0
POINT
  5
229E
  8
SUNPO
  6
CONTINUOUS
 10
404.82228152262599
 20
96.899801152888486
 30
0.0
  0
LINE
  5
229F
  8
SUNPO
  6
CONTINUOUS
 10
404.82228152262599
 20
106.8998011528883
 30
0.0
 11
409.8222815226261
 21
101.8998011528883
 31
0.0
  0
POINT
  5
22A0
  8
SUNPO
  6
CONTINUOUS
 10
404.82228152262599
 20
106.8998011528883
 30
0.0
  0
POINT
  5
22A1
  8
SUNPO
  6
CONTINUOUS
 10
409.8222815226261
 20
101.8998011528883
 30
0.0
  0
TEXT
  5
22A2
  8
SUNPO
  6
CONTINUOUS
 10
420.23894818929273
 20
102.3998011528882
 30
0.0
 40
2.5
  1
25
  0
POLYLINE
  5
22A3
  8
SUNPO
  6
BYBLOCK
 66
     1
 10
0.0
 20
0.0
 30
0.0
 70
     1
 40
1.159999999999999
 41
1.159999999999999
  0
VERTEX
  5
2448
  8
SUNPO
  6
BYBLOCK
 10
434.67612152262592
 20
101.8998011528883
 30
0.0
 42
1.0
  0
VERTEX
  5
2449
  8
SUNPO
  6
BYBLOCK
 10
434.96844152262599
 20
101.8998011528883
 30
0.0
 42
1.0
  0
SEQEND
  5
244A
  8
SUNPO
  6
BYBLOCK
  0
LINE
  5
22A7
  8
DANMEN
  6
CONTINUOUS
 10
434.8222815226261
 20
152.3998011528883
 30
0.0
 11
434.8222815226261
 21
161.3998011528883
 31
0.0
  0
LINE
  5
22A8
  8
DANMEN
  6
CONTINUOUS
 10
424.82228152262599
 20
171.19980115288831
 30
0.0
 11
424.82228152262599
 21
152.9998011528883
 31
0.0
  0
LINE
  5
22A9
  8
DANMEN
  6
CONTINUOUS
 10
433.17228152262578
 20
153.54980115288831
 30
0.0
 11
433.17228152262578
 21
161.3998011528883
 31
0.0
  0
LINE
  5
22AA
  8
DANMEN
  6
CONTINUOUS
 10
426.47228152262602
 20
176.8998011528883
 30
0.0
 11
426.47228152262602
 21
153.54980115288831
 31
0.0
  0
LINE
  5
22AB
  8
DANMEN
  6
CONTINUOUS
 10
434.3222815226261
 20
151.8998011528883
 30
0.0
 11
425.92228152262612
 21
151.8998011528883
 31
0.0
  0
LINE
  5
22AC
  8
DANMEN
  6
CONTINUOUS
 10
433.17228152262578
 20
153.54980115288831
 30
0.0
 11
426.47228152262602
 21
153.54980115288831
 31
0.0
  0
LINE
  5
22AD
  8
SUNPO
  6
CONTINUOUS
 10
424.82228152262599
 20
111.8998011528883
 30
0.0
 11
434.8222815226261
 21
111.8998011528883
 31
0.0
  0
TEXT
  5
22AE
  8
SUNPO
  6
CONTINUOUS
 10
415.3222815226261
 20
112.3998011528883
 30
0.0
 40
2.5
  1
15
 41
1.1999999999999991
  7
MX_DIMTXSTY_2
  0
LINE
  5
22AF
  8
SUNPO
  6
CONTINUOUS
 10
424.82228152262599
 20
111.8998011528883
 30
0.0
 11
409.8222815226261
 21
111.8998011528883
 31
0.0
  0
POLYLINE
  5
22B0
  8
SUNPO
  6
BYBLOCK
 66
     1
 10
0.0
 20
0.0
 30
0.0
 70
     1
 40
1.159999999999999
 41
1.159999999999999
  0
VERTEX
  5
244B
  8
SUNPO
  6
BYBLOCK
 10
409.67612152262592
 20
111.8998011528883
 30
0.0
 42
1.0
  0
VERTEX
  5
244C
  8
SUNPO
  6
BYBLOCK
 10
409.96844152262599
 20
111.8998011528883
 30
0.0
 42
1.0
  0
SEQEND
  5
244D
  8
SUNPO
  6
BYBLOCK
  0
POLYLINE
  5
22B4
  8
SUNPO
  6
BYBLOCK
 66
     1
 10
0.0
 20
0.0
 30
0.0
 70
     1
 40
1.159999999999999
 41
1.159999999999999
  0
VERTEX
  5
244E
  8
SUNPO
  6
BYBLOCK
 10
409.96844152262599
 20
111.8998011528883
 30
0.0
 42
1.0
  0
VERTEX
  5
244F
  8
SUNPO
  6
BYBLOCK
 10
409.67612152262592
 20
111.8998011528883
 30
0.0
 42
1.0
  0
SEQEND
  5
2450
  8
SUNPO
  6
BYBLOCK
  0
LINE
  5
22B8
  8
SUNPO
  6
CONTINUOUS
 10
424.82228152262599
 20
130.39980115288819
 30
0.0
 11
424.82228152262599
 21
111.8998011528883
 31
0.0
  0
POLYLINE
  5
22B9
  8
SUNPO
  6
BYBLOCK
 66
     1
 10
0.0
 20
0.0
 30
0.0
 70
     1
 40
1.159999999999999
 41
1.159999999999999
  0
VERTEX
  5
2451
  8
SUNPO
  6
BYBLOCK
 10
424.96844152262599
 20
111.8998011528883
 30
0.0
 42
1.0
  0
VERTEX
  5
2452
  8
SUNPO
  6
BYBLOCK
 10
424.67612152262598
 20
111.8998011528883
 30
0.0
 42
1.0
  0
SEQEND
  5
2453
  8
SUNPO
  6
BYBLOCK
  0
POLYLINE
  5
22BD
  8
SUNPO
  6
BYBLOCK
 66
     1
 10
0.0
 20
0.0
 30
0.0
 70
     1
 40
1.159999999999999
 41
1.159999999999999
  0
VERTEX
  5
2454
  8
SUNPO
  6
BYBLOCK
 10
424.67612152262598
 20
111.8998011528883
 30
0.0
 42
1.0
  0
VERTEX
  5
2455
  8
SUNPO
  6
BYBLOCK
 10
424.96844152262599
 20
111.8998011528883
 30
0.0
 42
1.0
  0
SEQEND
  5
2456
  8
SUNPO
  6
BYBLOCK
  0
TEXT
  5
22C1
  8
SUNPO
  6
CONTINUOUS
 10
427.85353152262599
 20
112.3998011528883
 30
0.0
 40
2.5
  1
10
 41
1.3500000000000001
  7
MX_DIMTXSTY_4
  0
LINE
  5
22C2
  8
DANMEN
  6
CONTINUOUS
 10
424.82228152262599
 20
151.8998011528883
 30
0.0
 11
410.3222815226261
 21
151.8998011528883
 31
0.0
  0
LINE
  5
22C3
  8
DANMEN
  6
CONTINUOUS
 10
422.8222815226261
 20
153.54980115288831
 30
0.0
 11
410.3222815226261
 21
153.54980115288831
 31
0.0
  0
LINE
  5
22C4
  8
DANMEN
  6
CONTINUOUS
 10
409.8222815226261
 20
152.3998011528883
 30
0.0
 11
409.8222815226261
 21
153.04980115288831
 31
0.0
  0
ARC
  5
22C5
  8
DANMEN
  6
CONTINUOUS
 10
410.3222815226261
 20
152.3998011528883
 30
0.0
 40
0.5
 50
180.0
 51
270.0
  0
ARC
  5
22C6
  8
DANMEN
  6
CONTINUOUS
 10
410.3222815226261
 20
153.04980115288831
 30
0.0
 40
0.5
 50
90.0
 51
180.0
  0
LINE
  5
22C7
  8
DANMEN
  6
CONTINUOUS
 10
424.82228152262599
 20
151.8998011528883
 30
0.0
 11
424.82228152262599
 21
132.39980115288819
 31
0.0
  0
LINE
  5
22C8
  8
DANMEN
  6
CONTINUOUS
 10
425.92228152262612
 20
151.8998011528883
 30
0.0
 11
425.92228152262612
 21
132.8998011528883
 31
0.0
  0
ARC
  5
22C9
  8
DANMEN
  6
CONTINUOUS
 10
425.32228152262581
 20
132.39980115288819
 30
0.0
 40
0.5
 50
180.0
 51
270.0
  0
LINE
  5
22CA
  8
DANMEN
  6
CONTINUOUS
 10
427.32228152262599
 20
131.8998011528883
 30
0.0
 11
425.32228152262581
 21
131.8998011528883
 31
0.0
  0
LINE
  5
22CB
  8
DANMEN
  6
CONTINUOUS
 10
427.32228152262599
 20
132.8998011528883
 30
0.0
 11
425.92228152262612
 21
132.8998011528883
 31
0.0
  0
ARC
  5
22CC
  8
DANMEN
  6
CONTINUOUS
 10
427.32228152262599
 20
132.39980115288819
 30
0.0
 40
0.5
 50
270.0
 51
90.0
  0
LINE
  5
22CD
  8
DANMEN
  6
CONTINUOUS
 10
424.82228152262599
 20
152.9998011528883
 30
0.0
 11
422.8222815226261
 21
152.9998011528883
 31
0.0
  0
LINE
  5
22CE
  8
DANMEN
  6
CONTINUOUS
 10
422.8222815226261
 20
152.9998011528883
 30
0.0
 11
422.8222815226261
 21
153.54980115288831
 31
0.0
  0
POINT
  5
22CF
  8
DANMEN
  6
CONTINUOUS
 10
422.8222815226261
 20
153.54980115288831
 30
0.0
  0
POINT
  5
22D0
  8
DANMEN
  6
CONTINUOUS
 10
422.8222815226261
 20
152.9998011528883
 30
0.0
  0
POINT
  5
22D1
  8
DANMEN
  6
CONTINUOUS
 10
424.82228152262599
 20
151.8998011528883
 30
0.0
  0
POINT
  5
22D2
  8
DANMEN
  6
CONTINUOUS
 10
426.47228152262602
 20
153.54980115288831
 30
0.0
  0
POINT
  5
22D3
  8
DANMEN
  6
CONTINUOUS
 10
424.82228152262599
 20
152.9998011528883
 30
0.0
  0
POLYLINE
  5
22D4
  8
SUNPO
  6
BYBLOCK
 66
     1
 10
0.0
 20
0.0
 30
0.0
 70
     1
 40
1.159999999999999
 41
1.159999999999999
  0
VERTEX
  5
2457
  8
SUNPO
  6
BYBLOCK
 10
434.67612152262592
 20
111.8998011528883
 30
0.0
 42
1.0
  0
VERTEX
  5
2458
  8
SUNPO
  6
BYBLOCK
 10
434.96844152262599
 20
111.8998011528883
 30
0.0
 42
1.0
  0
SEQEND
  5
2459
  8
SUNPO
  6
BYBLOCK
  0
ARC
  5
22D8
  8
DANMEN
  6
CONTINUOUS
 10
434.3222815226261
 20
152.3998011528883
 30
0.0
 40
0.5
 50
270.0
 51
0.0
  0
POINT
  5
22D9
  8
DANMEN
  6
CONTINUOUS
 10
433.17228152262578
 20
153.54980115288831
 30
0.0
  0
POINT
  5
22DA
  8
DANMEN
  6
CONTINUOUS
 10
433.17228152262578
 20
153.54980115288831
 30
0.0
  0
LINE
  5
22DB
  8
DANMEN
  6
CONTINUOUS
 10
433.17228152262578
 20
192.89980115288819
 30
0.0
 11
426.47228152262602
 21
192.89980115288819
 31
0.0
  0
ARC
  5
22DC
  8
DANMEN
  6
CONTINUOUS
 10
431.8222815226261
 20
179.8998011528883
 30
0.0
 40
1.0
 50
0.0
 51
70.529000000000408
  0
ARC
  5
22DD
  8
DANMEN
  6
CONTINUOUS
 10
431.8222815226261
 20
189.8998011528883
 30
0.0
 40
1.0
 50
289.47099999999938
 51
0.0
  0
ARC
  5
22DE
  8
DANMEN
  6
CONTINUOUS
 10
432.32228152262599
 20
190.3998011528883
 30
0.0
 40
0.5
 50
0.0
 51
90.0
  0
ARC
  5
22DF
  8
DANMEN
  6
CONTINUOUS
 10
432.32228152262599
 20
179.39980115288819
 30
0.0
 40
0.5
 50
270.0
 51
0.0
  0
ARC
  5
22E0
  8
DANMEN
  6
CONTINUOUS
 10
432.82228152262599
 20
178.8998011528883
 30
0.0
 40
2.0
 50
270.0
 51
0.0
  0
LINE
  5
22E1
  8
DANMEN
  6
CONTINUOUS
 10
432.82228152262599
 20
187.8998011528883
 30
0.0
 11
434.622281522626
 21
187.8998011528883
 31
0.0
  0
LINE
  5
22E2
  8
DANMEN
  6
CONTINUOUS
 10
432.82228152262599
 20
181.8998011528883
 30
0.0
 11
434.622281522626
 21
181.8998011528883
 31
0.0
  0
LINE
  5
22E3
  8
DANMEN
  6
CONTINUOUS
 10
424.82228152262599
 20
172.8498011528882
 30
0.0
 11
424.82228152262599
 21
181.8998011528883
 31
0.0
  0
LINE
  5
22E4
  8
DANMEN
  6
CONTINUOUS
 10
413.8222815226261
 20
176.6998011528882
 30
0.0
 11
417.8222815226261
 21
176.6998011528882
 31
0.0
  0
LINE
  5
22E5
  8
DANMEN
  6
CONTINUOUS
 10
411.82228152262599
 20
177.8998011528883
 30
0.0
 11
418.8222815226261
 21
177.8998011528883
 31
0.0
  0
LINE
  5
22E6
  8
DANMEN
  6
CONTINUOUS
 10
411.82228152262599
 20
172.8498011528882
 30
0.0
 11
417.8222815226261
 21
172.8498011528882
 31
0.0
  0
LINE
  5
22E7
  8
DANMEN
  6
CONTINUOUS
 10
409.8222815226261
 20
171.19980115288831
 30
0.0
 11
424.82228152262599
 21
171.19980115288831
 31
0.0
  0
LINE
  5
22E8
  8
DANMEN
  6
CONTINUOUS
 10
409.8222815226261
 20
172.8908011528882
 30
0.0
 11
409.8222815226261
 21
171.19980115288831
 31
0.0
  0
POINT
  5
22E9
  8
DANMEN
  6
CONTINUOUS
 10
409.8222815226261
 20
171.19980115288831
 30
0.0
  0
LINE
  5
22EA
  8
DANMEN
  6
CONTINUOUS
 10
413.8222815226261
 20
176.6998011528882
 30
0.0
 11
412.22428152262597
 21
177.01980115288831
 31
0.0
  0
LINE
  5
22EB
  8
DANMEN
  6
CONTINUOUS
 10
411.52228152262592
 20
173.6998011528882
 30
0.0
 11
410.8222815226261
 21
173.6998011528882
 31
0.0
  0
LINE
  5
22EC
  8
DANMEN
  6
CONTINUOUS
 10
411.82228152262599
 20
172.8498011528882
 30
0.0
 11
411.82228152262599
 21
173.3998011528883
 31
0.0
  0
ARC
  5
22ED
  8
DANMEN
  6
CONTINUOUS
 10
411.52228152262592
 20
173.3998011528883
 30
0.0
 40
0.3
 50
0.0
 51
90.0
  0
LINE
  5
22EE
  8
DANMEN
  6
CONTINUOUS
 10
411.82228152262599
 20
177.5098011528882
 30
0.0
 11
411.82228152262599
 21
177.8998011528883
 31
0.0
  0
ARC
  5
22EF
  8
DANMEN
  6
CONTINUOUS
 10
412.32228152262599
 20
177.5098011528882
 30
0.0
 40
0.5
 50
180.0
 51
258.6899999999992
  0
LINE
  5
22F0
  8
DANMEN
  6
CONTINUOUS
 10
410.8222815226261
 20
173.6998011528882
 30
0.0
 11
410.098281522626
 21
173.3378011528882
 31
0.0
  0
ARC
  5
22F1
  8
DANMEN
  6
CONTINUOUS
 10
410.3222815226261
 20
172.8908011528882
 30
0.0
 40
0.5
 50
116.56500000000059
 51
180.0
  0
LINE
  5
22F2
  8
DANMEN
  6
CONTINUOUS
 10
419.3222815226261
 20
172.8498011528882
 30
0.0
 11
424.82228152262599
 21
172.8498011528882
 31
0.0
  0
ARC
  5
22F3
  8
DANMEN
  6
CONTINUOUS
 10
418.8222815226261
 20
177.3998011528883
 30
0.0
 40
0.5
 50
0.0
 51
90.0
  0
LINE
  5
22F4
  8
DANMEN
  6
CONTINUOUS
 10
419.3222815226261
 20
177.3998011528883
 30
0.0
 11
419.3222815226261
 21
172.8498011528882
 31
0.0
  0
LINE
  5
22F5
  8
DANMEN
  6
CONTINUOUS
 10
417.8222815226261
 20
176.6998011528882
 30
0.0
 11
417.8222815226261
 21
172.8498011528882
 31
0.0
  0
POINT
  5
22F6
  8
DANMEN
  6
CONTINUOUS
 10
417.8222815226261
 20
176.6998011528882
 30
0.0
  0
LINE
  5
22F7
  8
DANMEN
  6
CONTINUOUS
 10
432.82228152262599
 20
176.8998011528883
 30
0.0
 11
426.47228152262602
 21
176.8998011528883
 31
0.0
  0
POINT
  5
22F8
  8
DANMEN
  6
CONTINUOUS
 10
432.82228152262599
 20
176.8998011528883
 30
0.0
  0
LINE
  5
22F9
  8
DANMEN
  6
CONTINUOUS
 10
426.6912815226259
 20
189.12380115288821
 30
0.0
 11
428.46728152262602
 21
190.8998011528883
 31
0.0
  0
LINE
  5
22FA
  8
DANMEN
  6
CONTINUOUS
 10
427.32228152262599
 20
188.3408011528883
 30
0.0
 11
429.88128152262601
 21
190.8998011528883
 31
0.0
  0
LINE
  5
22FB
  8
DANMEN
  6
CONTINUOUS
 10
424.82228152262599
 20
184.42680115288829
 30
0.0
 11
431.295281522626
 21
190.8998011528883
 31
0.0
  0
LINE
  5
22FC
  8
DANMEN
  6
CONTINUOUS
 10
424.82228152262599
 20
183.01280115288819
 30
0.0
 11
432.61528152262599
 21
190.8048011528883
 31
0.0
  0
ARC
  5
22FD
  8
DANMEN
  6
CONTINUOUS
 10
427.32228152262599
 20
189.8998011528883
 30
0.0
 40
1.0
 50
180.0
 51
250.52900000000039
  0
LINE
  5
22FE
  8
DANMEN
  6
CONTINUOUS
 10
425.12428152262612
 20
181.8998011528883
 30
0.0
 11
431.83928152262598
 21
188.61580115288831
 31
0.0
  0
LINE
  5
22FF
  8
DANMEN
  6
CONTINUOUS
 10
426.53828152262599
 20
181.8998011528883
 30
0.0
 11
432.53828152262611
 21
187.8998011528883
 31
0.0
  0
LINE
  5
2300
  8
DANMEN
  6
CONTINUOUS
 10
427.32028152262598
 20
181.26780115288821
 30
0.0
 11
432.82228152262599
 21
186.76980115288831
 31
0.0
  0
LINE
  5
2301
  8
DANMEN
  6
CONTINUOUS
 10
426.49128152262602
 20
179.02480115288819
 30
0.0
 11
432.82228152262599
 21
185.35580115288829
 31
0.0
  0
LINE
  5
2302
  8
DANMEN
  6
CONTINUOUS
 10
432.82228152262599
 20
187.8998011528883
 30
0.0
 11
432.82228152262599
 21
181.8998011528883
 31
0.0
  0
LINE
  5
2303
  8
DANMEN
  6
CONTINUOUS
 10
424.82228152262599
 20
187.8998011528883
 30
0.0
 11
424.82228152262599
 21
181.8998011528883
 31
0.0
  0
LINE
  5
2304
  8
DANMEN
  6
CONTINUOUS
 10
427.78028152262601
 20
178.8998011528883
 30
0.0
 11
432.82228152262599
 21
183.94180115288819
 31
0.0
  0
LINE
  5
2305
  8
DANMEN
  6
CONTINUOUS
 10
432.32228152262599
 20
178.8998011528883
 30
0.0
 11
426.8222815226261
 21
178.8998011528883
 31
0.0
  0
LINE
  5
2306
  8
DANMEN
  6
CONTINUOUS
 10
426.46228152262591
 20
180.40980115288821
 30
0.0
 11
426.81228152262599
 21
180.75980115288829
 31
0.0
  0
LINE
  5
2307
  8
DANMEN
  6
CONTINUOUS
 10
426.3222815226261
 20
179.8998011528883
 30
0.0
 11
426.3222815226261
 21
179.39980115288819
 31
0.0
  0
LINE
  5
2308
  8
DANMEN
  6
CONTINUOUS
 10
424.82228152262599
 20
181.8998011528883
 30
0.0
 11
427.32228152262599
 21
181.8998011528883
 31
0.0
  0
POINT
  5
2309
  8
DANMEN
  6
CONTINUOUS
 10
427.32228152262599
 20
179.8998011528883
 30
0.0
  0
ARC
  5
230A
  8
DANMEN
  6
CONTINUOUS
 10
427.32228152262599
 20
179.8998011528883
 30
0.0
 40
1.0
 50
109.47099999999951
 51
180.0
  0
ARC
  5
230B
  8
DANMEN
  6
CONTINUOUS
 10
426.8222815226261
 20
181.3138011528882
 30
0.0
 40
0.5
 50
289.47099999999938
 51
0.0
  0
POINT
  5
230C
  8
DANMEN
  6
CONTINUOUS
 10
427.32228152262599
 20
180.8998011528883
 30
0.0
  0
LINE
  5
230D
  8
DANMEN
  6
CONTINUOUS
 10
427.32228152262599
 20
181.8998011528883
 30
0.0
 11
427.32228152262599
 21
181.3138011528882
 31
0.0
  0
POINT
  5
230E
  8
DANMEN
  6
CONTINUOUS
 10
427.32228152262599
 20
181.8998011528883
 30
0.0
  0
ARC
  5
230F
  8
DANMEN
  6
CONTINUOUS
 10
426.8222815226261
 20
179.39980115288819
 30
0.0
 40
0.5
 50
180.0
 51
270.0
  0
POINT
  5
2310
  8
DANMEN
  6
CONTINUOUS
 10
426.3222815226261
 20
178.8998011528883
 30
0.0
  0
LINE
  5
2311
  8
DANMEN
  6
CONTINUOUS
 10
432.19528152262598
 20
181.8998011528883
 30
0.0
 11
432.82228152262599
 21
182.52680115288831
 31
0.0
  0
LINE
  5
2312
  8
DANMEN
  6
CONTINUOUS
 10
429.19528152262598
 20
178.8998011528883
 30
0.0
 11
431.8222815226261
 21
181.52680115288831
 31
0.0
  0
LINE
  5
2313
  8
DANMEN
  6
CONTINUOUS
 10
430.60928152262602
 20
178.8998011528883
 30
0.0
 11
432.41428152262591
 21
180.7058011528882
 31
0.0
  0
LINE
  5
2314
  8
DANMEN
  6
CONTINUOUS
 10
432.02328152262601
 20
178.8998011528883
 30
0.0
 11
432.82228152262599
 21
179.69880115288831
 31
0.0
  0
POINT
  5
2315
  8
DANMEN
  6
CONTINUOUS
 10
432.82228152262599
 20
181.8998011528883
 30
0.0
  0
POINT
  5
2316
  8
DANMEN
  6
CONTINUOUS
 10
432.82228152262599
 20
181.8998011528883
 30
0.0
  0
POINT
  5
2317
  8
DANMEN
  6
CONTINUOUS
 10
431.8222815226261
 20
181.8998011528883
 30
0.0
  0
LINE
  5
2318
  8
DANMEN
  6
CONTINUOUS
 10
431.8222815226261
 20
181.8998011528883
 30
0.0
 11
431.8222815226261
 21
181.3138011528882
 31
0.0
  0
POINT
  5
2319
  8
DANMEN
  6
CONTINUOUS
 10
431.8222815226261
 20
180.8998011528883
 30
0.0
  0
ARC
  5
231A
  8
DANMEN
  6
CONTINUOUS
 10
432.32228152262599
 20
181.3138011528882
 30
0.0
 40
0.5
 50
180.0
 51
250.52900000000039
  0
POINT
  5
231B
  8
DANMEN
  6
CONTINUOUS
 10
431.8222815226261
 20
179.8998011528883
 30
0.0
  0
POINT
  5
231C
  8
DANMEN
  6
CONTINUOUS
 10
432.82228152262599
 20
178.8998011528883
 30
0.0
  0
LINE
  5
231D
  8
DANMEN
  6
CONTINUOUS
 10
432.82228152262599
 20
179.8998011528883
 30
0.0
 11
432.82228152262599
 21
179.39980115288819
 31
0.0
  0
LINE
  5
231E
  8
DANMEN
  6
CONTINUOUS
 10
432.82228152262599
 20
181.8998011528883
 30
0.0
 11
431.8222815226261
 21
181.8998011528883
 31
0.0
  0
LINE
  5
231F
  8
DANMEN
  6
CONTINUOUS
 10
424.82228152262599
 20
187.25480115288821
 30
0.0
 11
425.46728152262602
 21
187.8998011528883
 31
0.0
  0
LINE
  5
2320
  8
DANMEN
  6
CONTINUOUS
 10
424.82228152262599
 20
185.8408011528883
 30
0.0
 11
426.88128152262601
 21
187.8998011528883
 31
0.0
  0
LINE
  5
2321
  8
DANMEN
  6
CONTINUOUS
 10
424.82228152262599
 20
187.8998011528883
 30
0.0
 11
427.32228152262599
 21
187.8998011528883
 31
0.0
  0
LINE
  5
2322
  8
DANMEN
  6
CONTINUOUS
 10
427.32228152262599
 20
188.4858011528882
 30
0.0
 11
427.32228152262599
 21
187.8998011528883
 31
0.0
  0
ARC
  5
2323
  8
DANMEN
  6
CONTINUOUS
 10
426.8222815226261
 20
188.4858011528882
 30
0.0
 40
0.5
 50
0.0
 51
70.529000000000408
  0
POINT
  5
2324
  8
DANMEN
  6
CONTINUOUS
 10
427.32228152262599
 20
188.8998011528883
 30
0.0
  0
POINT
  5
2325
  8
DANMEN
  6
CONTINUOUS
 10
427.32228152262599
 20
187.8998011528883
 30
0.0
  0
POINT
  5
2326
  8
DANMEN
  6
CONTINUOUS
 10
424.82228152262599
 20
184.8998011528883
 30
0.0
  0
POINT
  5
2327
  8
DANMEN
  6
CONTINUOUS
 10
424.82228152262599
 20
184.8998011528883
 30
0.0
  0
LINE
  5
2328
  8
DANMEN
  6
CONTINUOUS
 10
432.1962815226259
 20
188.9728011528882
 30
0.0
 11
432.74928152262612
 21
189.52580115288831
 31
0.0
  0
POINT
  5
2329
  8
DANMEN
  6
CONTINUOUS
 10
432.82228152262599
 20
187.8998011528883
 30
0.0
  0
POINT
  5
232A
  8
DANMEN
  6
CONTINUOUS
 10
432.82228152262599
 20
187.8998011528883
 30
0.0
  0
POINT
  5
232B
  8
DANMEN
  6
CONTINUOUS
 10
431.8222815226261
 20
187.8998011528883
 30
0.0
  0
POINT
  5
232C
  8
DANMEN
  6
CONTINUOUS
 10
431.8222815226261
 20
188.8998011528883
 30
0.0
  0
ARC
  5
232D
  8
DANMEN
  6
CONTINUOUS
 10
432.32228152262599
 20
188.4858011528882
 30
0.0
 40
0.5
 50
109.47099999999951
 51
180.0
  0
LINE
  5
232E
  8
DANMEN
  6
CONTINUOUS
 10
431.8222815226261
 20
188.4858011528882
 30
0.0
 11
431.8222815226261
 21
187.8998011528883
 31
0.0
  0
LINE
  5
232F
  8
DANMEN
  6
CONTINUOUS
 10
432.82228152262599
 20
187.8998011528883
 30
0.0
 11
431.8222815226261
 21
187.8998011528883
 31
0.0
  0
LINE
  5
2330
  8
DANMEN
  6
CONTINUOUS
 10
432.32228152262599
 20
190.8998011528883
 30
0.0
 11
426.8222815226261
 21
190.8998011528883
 31
0.0
  0
LINE
  5
2331
  8
DANMEN
  6
CONTINUOUS
 10
426.3222815226261
 20
190.16980115288831
 30
0.0
 11
427.052281522626
 21
190.8998011528883
 31
0.0
  0
ARC
  5
2332
  8
DANMEN
  6
CONTINUOUS
 10
426.8222815226261
 20
190.3998011528883
 30
0.0
 40
0.5
 50
90.0
 51
180.0
  0
LINE
  5
2333
  8
DANMEN
  6
CONTINUOUS
 10
426.3222815226261
 20
190.3998011528883
 30
0.0
 11
426.3222815226261
 21
189.8998011528883
 31
0.0
  0
POINT
  5
2334
  8
DANMEN
  6
CONTINUOUS
 10
427.32228152262599
 20
189.8998011528883
 30
0.0
  0
POINT
  5
2335
  8
DANMEN
  6
CONTINUOUS
 10
426.3222815226261
 20
190.8998011528883
 30
0.0
  0
POINT
  5
2336
  8
DANMEN
  6
CONTINUOUS
 10
431.8222815226261
 20
189.8998011528883
 30
0.0
  0
POINT
  5
2337
  8
DANMEN
  6
CONTINUOUS
 10
432.82228152262599
 20
190.8998011528883
 30
0.0
  0
LINE
  5
2338
  8
DANMEN
  6
CONTINUOUS
 10
432.82228152262599
 20
190.3998011528883
 30
0.0
 11
432.82228152262599
 21
189.8998011528883
 31
0.0
  0
LINE
  5
2339
  8
DANMEN
  6
CONTINUOUS
 10
434.3222815226261
 20
161.8998011528883
 30
0.0
 11
433.67228152262601
 21
161.8998011528883
 31
0.0
  0
ARC
  5
233A
  8
DANMEN
  6
CONTINUOUS
 10
433.67228152262601
 20
161.3998011528883
 30
0.0
 40
0.5
 50
90.0
 51
180.0
  0
POINT
  5
233B
  8
DANMEN
  6
CONTINUOUS
 10
433.17228152262578
 20
161.8998011528883
 30
0.0
  0
ARC
  5
233C
  8
DANMEN
  6
CONTINUOUS
 10
434.3222815226261
 20
161.3998011528883
 30
0.0
 40
0.5
 50
0.0
 51
90.0
  0
POINT
  5
233D
  8
DANMEN
  6
CONTINUOUS
 10
434.8222815226261
 20
161.8998011528883
 30
0.0
  0
POINT
  5
233E
  8
DANMEN
  6
CONTINUOUS
 10
434.8222815226261
 20
176.8998011528883
 30
0.0
  0
LINE
  5
233F
  8
DANMEN
  6
CONTINUOUS
 10
434.8222815226261
 20
188.39980115288819
 30
0.0
 11
434.8222815226261
 21
200.39980115288819
 31
0.0
  0
LINE
  5
2340
  8
DANMEN
  6
CONTINUOUS
 10
434.8222815226261
 20
178.8998011528883
 30
0.0
 11
434.8222815226261
 21
181.39980115288819
 31
0.0
  0
POINT
  5
2341
  8
DANMEN
  6
CONTINUOUS
 10
434.622281522626
 20
181.8998011528883
 30
0.0
  0
POINT
  5
2342
  8
DANMEN
  6
CONTINUOUS
 10
434.8222815226261
 20
181.39980115288819
 30
0.0
  0
LINE
  5
2343
  8
DANMEN
  6
CONTINUOUS
 10
434.622281522626
 20
181.8998011528883
 30
0.0
 11
434.8222815226261
 21
181.39980115288819
 31
0.0
  0
POINT
  5
2344
  8
DANMEN
  6
CONTINUOUS
 10
434.622281522626
 20
187.8998011528883
 30
0.0
  0
POINT
  5
2345
  8
DANMEN
  6
CONTINUOUS
 10
434.8222815226261
 20
188.39980115288819
 30
0.0
  0
LINE
  5
2346
  8
DANMEN
  6
CONTINUOUS
 10
434.8222815226261
 20
188.39980115288819
 30
0.0
 11
434.622281522626
 21
187.8998011528883
 31
0.0
  0
LINE
  5
2347
  8
DANMEN
  6
CONTINUOUS
 10
433.17228152262578
 20
192.89980115288819
 30
0.0
 11
433.17228152262578
 21
200.39980115288819
 31
0.0
  0
POINT
  5
2348
  8
DANMEN
  6
CONTINUOUS
 10
434.8222815226261
 20
192.89980115288819
 30
0.0
  0
POINT
  5
2349
  8
DANMEN
  6
CONTINUOUS
 10
433.17228152262578
 20
200.8998011528883
 30
0.0
  0
ARC
  5
234A
  8
DANMEN
  6
CONTINUOUS
 10
433.67228152262601
 20
200.39980115288819
 30
0.0
 40
0.5
 50
90.0
 51
180.0
  0
POINT
  5
234B
  8
DANMEN
  6
CONTINUOUS
 10
434.8222815226261
 20
200.8998011528883
 30
0.0
  0
ARC
  5
234C
  8
DANMEN
  6
CONTINUOUS
 10
434.3222815226261
 20
200.39980115288819
 30
0.0
 40
0.5
 50
0.0
 51
90.0
  0
LINE
  5
234D
  8
DANMEN
  6
CONTINUOUS
 10
434.3222815226261
 20
200.8998011528883
 30
0.0
 11
433.67228152262601
 21
200.8998011528883
 31
0.0
  0
TEXT
  5
234E
  8
SUNPO
  6
CONTINUOUS
 10
397.75978152262599
 20
242.3998011528883
 30
0.0
 40
2.5
  1
20
 41
1.1000000000000001
  7
MX_DIMTXSTY_3
  0
LINE
  5
234F
  8
DANMEN
  6
CONTINUOUS
 10
424.82228152262599
 20
213.8998011528883
 30
0.0
 11
390.3222815226261
 21
213.8998011528883
 31
0.0
  0
LINE
  5
2350
  8
DANMEN
  6
CONTINUOUS
 10
391.02228152262597
 20
212.24980115288821
 30
0.0
 11
424.82228152262599
 21
212.24980115288821
 31
0.0
  0
LINE
  5
2351
  8
SUNPO
  6
CONTINUOUS
 10
389.8222815226261
 20
241.89980115288819
 30
0.0
 11
409.8222815226261
 21
241.89980115288819
 31
0.0
  0
LINE
  5
2352
  8
DANMEN
  6
CONTINUOUS
 10
410.3222815226261
 20
221.8998011528883
 30
0.0
 11
349.82228152262599
 21
221.8998011528883
 31
0.0
  0
LINE
  5
2353
  8
DANMEN
  6
CONTINUOUS
 10
285.32228152262599
 20
221.8998011528883
 30
0.0
 11
345.82228152262599
 21
221.8998011528883
 31
0.0
  0
LINE
  5
2354
  8
DANMEN
  6
CONTINUOUS
 10
301.3222815226261
 20
210.6998011528882
 30
0.0
 11
304.622281522626
 21
210.6998011528882
 31
0.0
  0
LINE
  5
2355
  8
DANMEN
  6
CONTINUOUS
 10
270.82228152262587
 20
213.8998011528883
 30
0.0
 11
305.3222815226261
 21
213.8998011528883
 31
0.0
  0
LINE
  5
2356
  8
DANMEN
  6
CONTINUOUS
 10
304.622281522626
 20
212.24980115288821
 30
0.0
 11
270.82228152262587
 21
212.24980115288821
 31
0.0
  0
LINE
  5
2357
  8
DANMEN
  6
CONTINUOUS
 10
300.8222815226261
 20
209.6998011528882
 30
0.0
 11
305.3222815226261
 21
209.6998011528882
 31
0.0
  0
LINE
  5
2358
  8
SUNPO
  6
CONTINUOUS
 10
285.8222815226261
 20
241.89980115288819
 30
0.0
 11
305.82228152262599
 21
241.89980115288819
 31
0.0
  0
LINE
  5
2359
  8
SUNPO
  6
CONTINUOUS
 10
285.8222815226261
 20
223.39980115288819
 30
0.0
 11
285.8222815226261
 21
241.89980115288819
 31
0.0
  0
LINE
  5
235A
  8
SUNPO
  6
CONTINUOUS
 10
285.8222815226261
 20
222.89980115288819
 30
0.0
 11
285.8222815226261
 21
241.89980115288819
 31
0.0
  0
LINE
  5
235B
  8
DANMEN
  6
CONTINUOUS
 10
272.82228152262587
 20
220.2498011528883
 30
0.0
 11
285.32228152262599
 21
220.2498011528883
 31
0.0
  0
LINE
  5
235C
  8
DANMEN
  6
CONTINUOUS
 10
270.82228152262587
 20
220.79980115288831
 30
0.0
 11
270.82228152262587
 21
213.8998011528883
 31
0.0
  0
LINE
  5
235D
  8
DANMEN
  6
CONTINUOUS
 10
272.82228152262587
 20
220.79980115288831
 30
0.0
 11
272.82228152262587
 21
220.2498011528883
 31
0.0
  0
POINT
  5
235E
  8
DANMEN
  6
CONTINUOUS
 10
269.17228152262601
 20
220.2498011528883
 30
0.0
 50
180.0
  0
LINE
  5
235F
  8
DANMEN
  6
CONTINUOUS
 10
270.82228152262587
 20
220.79980115288831
 30
0.0
 11
272.82228152262587
 21
220.79980115288831
 31
0.0
  0
POINT
  5
2360
  8
DANMEN
  6
CONTINUOUS
 10
272.82228152262587
 20
220.2498011528883
 30
0.0
 50
180.0
  0
POINT
  5
2361
  8
DANMEN
  6
CONTINUOUS
 10
272.82228152262587
 20
220.79980115288831
 30
0.0
 50
180.0
  0
POINT
  5
2362
  8
DANMEN
  6
CONTINUOUS
 10
270.82228152262587
 20
220.79980115288831
 30
0.0
 50
180.0
  0
POINT
  5
2363
  8
DANMEN
  6
CONTINUOUS
 10
295.82228152262587
 20
212.24980115288821
 30
0.0
 50
180.0
  0
POINT
  5
2364
  8
DANMEN
  6
CONTINUOUS
 10
294.8222815226261
 20
212.24980115288821
 30
0.0
 50
180.0
  0
POINT
  5
2365
  8
DANMEN
  6
CONTINUOUS
 10
300.8222815226261
 20
210.6998011528882
 30
0.0
 50
180.0
  0
ARC
  5
2366
  8
DANMEN
  6
CONTINUOUS
 10
301.3222815226261
 20
210.1998011528882
 30
0.0
 40
0.5
 50
90.0
 51
180.0
  0
POINT
  5
2367
  8
DANMEN
  6
CONTINUOUS
 10
300.8222815226261
 20
209.6998011528882
 30
0.0
 50
180.0
  0
POINT
  5
2368
  8
DANMEN
  6
CONTINUOUS
 10
300.8222815226261
 20
212.24980115288821
 30
0.0
 50
180.0
  0
POINT
  5
2369
  8
DANMEN
  6
CONTINUOUS
 10
300.8222815226261
 20
210.1998011528882
 30
0.0
 50
180.0
  0
LINE
  5
236A
  8
DANMEN
  6
CONTINUOUS
 10
300.8222815226261
 20
210.1998011528882
 30
0.0
 11
300.8222815226261
 21
209.6998011528882
 31
0.0
  0
POINT
  5
236B
  8
DANMEN
  6
CONTINUOUS
 10
300.8222815226261
 20
210.1998011528882
 30
0.0
 50
180.0
  0
LINE
  5
236C
  8
DANMEN
  6
CONTINUOUS
 10
285.8222815226261
 20
221.39980115288819
 30
0.0
 11
285.8222815226261
 21
220.74980115288821
 31
0.0
  0
ARC
  5
236D
  8
DANMEN
  6
CONTINUOUS
 10
285.32228152262599
 20
221.39980115288819
 30
0.0
 40
0.5
 50
0.0
 51
90.0
  0
POINT
  5
236E
  8
DANMEN
  6
CONTINUOUS
 10
285.8222815226261
 20
221.8998011528883
 30
0.0
 50
180.0
  0
ARC
  5
236F
  8
DANMEN
  6
CONTINUOUS
 10
285.32228152262599
 20
220.74980115288821
 30
0.0
 40
0.5
 50
270.0
 51
0.0
  0
POINT
  5
2370
  8
DANMEN
  6
CONTINUOUS
 10
285.8222815226261
 20
220.2498011528883
 30
0.0
 50
180.0
  0
TEXT
  5
2371
  8
SUNPO
  6
CONTINUOUS
 10
271.23894818929273
 20
242.3998011528883
 30
0.0
 40
2.5
  1
25
  0
POLYLINE
  5
2372
  8
SUNPO
  6
BYBLOCK
 66
     1
 10
0.0
 20
0.0
 30
0.0
 70
     1
 40
1.159999999999999
 41
1.159999999999999
  0
VERTEX
  5
245A
  8
SUNPO
  6
BYBLOCK
 10
285.96844152262599
 20
241.89980115288819
 30
0.0
 42
1.0
  0
VERTEX
  5
245B
  8
SUNPO
  6
BYBLOCK
 10
285.67612152262598
 20
241.89980115288819
 30
0.0
 42
1.0
  0
SEQEND
  5
245C
  8
SUNPO
  6
BYBLOCK
  0
POLYLINE
  5
2376
  8
SUNPO
  6
BYBLOCK
 66
     1
 10
0.0
 20
0.0
 30
0.0
 70
     1
 40
1.159999999999999
 41
1.159999999999999
  0
VERTEX
  5
245D
  8
SUNPO
  6
BYBLOCK
 10
285.67612152262598
 20
241.89980115288819
 30
0.0
 42
1.0
  0
VERTEX
  5
245E
  8
SUNPO
  6
BYBLOCK
 10
285.96844152262599
 20
241.89980115288819
 30
0.0
 42
1.0
  0
SEQEND
  5
245F
  8
SUNPO
  6
BYBLOCK
  0
TEXT
  5
237A
  8
SUNPO
  6
CONTINUOUS
 10
293.75978152262599
 20
242.3998011528883
 30
0.0
 40
2.5
  1
20
 41
1.1000000000000001
  7
MX_DIMTXSTY_3
  0
LINE
  5
237B
  8
SUNPO
  6
CONTINUOUS
 10
305.82228152262599
 20
223.39980115288819
 30
0.0
 11
305.82228152262599
 21
241.89980115288819
 31
0.0
  0
LINE
  5
237C
  8
DANMEN
  6
CONTINUOUS
 10
305.82228152262599
 20
213.3998011528883
 30
0.0
 11
305.82228152262599
 21
210.1998011528882
 31
0.0
  0
ARC
  5
237D
  8
DANMEN
  6
CONTINUOUS
 10
305.3222815226261
 20
210.1998011528882
 30
0.0
 40
0.5
 50
270.0
 51
0.0
  0
POINT
  5
237E
  8
DANMEN
  6
CONTINUOUS
 10
304.622281522626
 20
210.6998011528882
 30
0.0
 50
180.0
  0
POINT
  5
237F
  8
DANMEN
  6
CONTINUOUS
 10
304.622281522626
 20
211.2498011528883
 30
0.0
 50
180.0
  0
LINE
  5
2380
  8
DANMEN
  6
CONTINUOUS
 10
304.622281522626
 20
210.6998011528882
 30
0.0
 11
304.622281522626
 21
212.24980115288821
 31
0.0
  0
POINT
  5
2381
  8
DANMEN
  6
CONTINUOUS
 10
304.622281522626
 20
212.24980115288821
 30
0.0
 50
180.0
  0
POINT
  5
2382
  8
DANMEN
  6
CONTINUOUS
 10
305.82228152262599
 20
209.6998011528882
 30
0.0
 50
180.0
  0
ARC
  5
2383
  8
DANMEN
  6
CONTINUOUS
 10
305.3222815226261
 20
213.3998011528883
 30
0.0
 40
0.5
 50
0.0
 51
90.0
  0
POINT
  5
2384
  8
DANMEN
  6
CONTINUOUS
 10
305.82228152262599
 20
213.8998011528883
 30
0.0
 50
180.0
  0
POLYLINE
  5
2385
  8
SUNPO
  6
BYBLOCK
 66
     1
 10
0.0
 20
0.0
 30
0.0
 70
     1
 40
1.159999999999999
 41
1.159999999999999
  0
VERTEX
  5
2460
  8
SUNPO
  6
BYBLOCK
 10
333.8222815226261
 20
221.75364115288821
 30
0.0
 42
1.0
  0
VERTEX
  5
2461
  8
SUNPO
  6
BYBLOCK
 10
333.8222815226261
 20
222.04596115288831
 30
0.0
 42
1.0
  0
SEQEND
  5
2462
  8
SUNPO
  6
BYBLOCK
  0
POLYLINE
  5
2389
  8
SUNPO
  6
BYBLOCK
 66
     1
 10
0.0
 20
0.0
 30
0.0
 70
     1
 40
1.159999999999999
 41
1.159999999999999
  0
VERTEX
  5
2463
  8
SUNPO
  6
BYBLOCK
 10
305.67612152262609
 20
241.89980115288819
 30
0.0
 42
1.0
  0
VERTEX
  5
2464
  8
SUNPO
  6
BYBLOCK
 10
305.96844152262599
 20
241.89980115288819
 30
0.0
 42
1.0
  0
SEQEND
  5
2465
  8
SUNPO
  6
BYBLOCK
  0
LINE
  5
238D
  8
SUNPO
  6
CONTINUOUS
 10
389.8222815226261
 20
223.39980115288819
 30
0.0
 11
389.8222815226261
 21
241.89980115288819
 31
0.0
  0
LINE
  5
238E
  8
DANMEN
  6
CONTINUOUS
 10
389.8222815226261
 20
213.3998011528883
 30
0.0
 11
389.8222815226261
 21
210.1998011528882
 31
0.0
  0
LINE
  5
238F
  8
DANMEN
  6
CONTINUOUS
 10
394.3222815226261
 20
210.6998011528882
 30
0.0
 11
391.02228152262597
 21
210.6998011528882
 31
0.0
  0
LINE
  5
2390
  8
DANMEN
  6
CONTINUOUS
 10
394.8222815226261
 20
209.6998011528882
 30
0.0
 11
390.3222815226261
 21
209.6998011528882
 31
0.0
  0
POINT
  5
2391
  8
DANMEN
  6
CONTINUOUS
 10
391.02228152262597
 20
210.6998011528882
 30
0.0
  0
ARC
  5
2392
  8
DANMEN
  6
CONTINUOUS
 10
390.3222815226261
 20
210.1998011528882
 30
0.0
 40
0.5
 50
180.0
 51
270.0
  0
POINT
  5
2393
  8
DANMEN
  6
CONTINUOUS
 10
389.8222815226261
 20
209.6998011528882
 30
0.0
  0
POINT
  5
2394
  8
DANMEN
  6
CONTINUOUS
 10
391.02228152262597
 20
211.2498011528883
 30
0.0
  0
LINE
  5
2395
  8
DANMEN
  6
CONTINUOUS
 10
391.02228152262597
 20
210.6998011528882
 30
0.0
 11
391.02228152262597
 21
212.24980115288821
 31
0.0
  0
POINT
  5
2396
  8
DANMEN
  6
CONTINUOUS
 10
391.02228152262597
 20
212.24980115288821
 30
0.0
  0
POINT
  5
2397
  8
DANMEN
  6
CONTINUOUS
 10
394.8222815226261
 20
210.6998011528882
 30
0.0
  0
ARC
  5
2398
  8
DANMEN
  6
CONTINUOUS
 10
394.3222815226261
 20
210.1998011528882
 30
0.0
 40
0.5
 50
0.0
 51
90.0
  0
POINT
  5
2399
  8
DANMEN
  6
CONTINUOUS
 10
394.8222815226261
 20
209.6998011528882
 30
0.0
  0
POINT
  5
239A
  8
DANMEN
  6
CONTINUOUS
 10
394.8222815226261
 20
212.24980115288821
 30
0.0
  0
POINT
  5
239B
  8
DANMEN
  6
CONTINUOUS
 10
394.8222815226261
 20
210.1998011528882
 30
0.0
  0
LINE
  5
239C
  8
DANMEN
  6
CONTINUOUS
 10
394.8222815226261
 20
210.1998011528882
 30
0.0
 11
394.8222815226261
 21
209.6998011528882
 31
0.0
  0
POINT
  5
239D
  8
DANMEN
  6
CONTINUOUS
 10
394.8222815226261
 20
210.1998011528882
 30
0.0
  0
POINT
  5
239E
  8
DANMEN
  6
CONTINUOUS
 10
399.82228152262599
 20
212.24980115288821
 30
0.0
  0
ARC
  5
239F
  8
DANMEN
  6
CONTINUOUS
 10
390.3222815226261
 20
213.3998011528883
 30
0.0
 40
0.5
 50
90.0
 51
180.0
  0
POINT
  5
23A0
  8
DANMEN
  6
CONTINUOUS
 10
389.8222815226261
 20
213.8998011528883
 30
0.0
  0
POLYLINE
  5
23A1
  8
SUNPO
  6
BYBLOCK
 66
     1
 10
0.0
 20
0.0
 30
0.0
 70
     1
 40
1.159999999999999
 41
1.159999999999999
  0
VERTEX
  5
2466
  8
SUNPO
  6
BYBLOCK
 10
389.96844152262599
 20
241.89980115288819
 30
0.0
 42
1.0
  0
VERTEX
  5
2467
  8
SUNPO
  6
BYBLOCK
 10
389.67612152262598
 20
241.89980115288819
 30
0.0
 42
1.0
  0
SEQEND
  5
2468
  8
SUNPO
  6
BYBLOCK
  0
LINE
  5
23A5
  8
DANMEN
  6
CONTINUOUS
 10
434.3222815226261
 20
221.8998011528883
 30
0.0
 11
410.3222815226261
 21
221.8998011528883
 31
0.0
  0
LINE
  5
23A6
  8
DANMEN
  6
CONTINUOUS
 10
433.17228152262578
 20
220.2498011528883
 30
0.0
 11
426.47228152262602
 21
220.2498011528883
 31
0.0
  0
LINE
  5
23A7
  8
SUNPO
  6
CONTINUOUS
 10
409.8222815226261
 20
241.89980115288819
 30
0.0
 11
434.8222815226261
 21
241.89980115288819
 31
0.0
  0
LINE
  5
23A8
  8
SUNPO
  6
CONTINUOUS
 10
409.8222815226261
 20
223.39980115288819
 30
0.0
 11
409.8222815226261
 21
241.89980115288819
 31
0.0
  0
LINE
  5
23A9
  8
DANMEN
  6
CONTINUOUS
 10
422.8222815226261
 20
220.2498011528883
 30
0.0
 11
410.3222815226261
 21
220.2498011528883
 31
0.0
  0
POINT
  5
23AA
  8
DANMEN
  6
CONTINUOUS
 10
400.82228152262599
 20
212.24980115288821
 30
0.0
  0
LINE
  5
23AB
  8
DANMEN
  6
CONTINUOUS
 10
409.8222815226261
 20
221.39980115288819
 30
0.0
 11
409.8222815226261
 21
220.74980115288821
 31
0.0
  0
ARC
  5
23AC
  8
DANMEN
  6
CONTINUOUS
 10
410.3222815226261
 20
221.39980115288819
 30
0.0
 40
0.5
 50
90.0
 51
180.0
  0
POINT
  5
23AD
  8
DANMEN
  6
CONTINUOUS
 10
409.8222815226261
 20
221.8998011528883
 30
0.0
  0
ARC
  5
23AE
  8
DANMEN
  6
CONTINUOUS
 10
410.3222815226261
 20
220.74980115288821
 30
0.0
 40
0.5
 50
180.0
 51
270.0
  0
POINT
  5
23AF
  8
DANMEN
  6
CONTINUOUS
 10
409.8222815226261
 20
220.2498011528883
 30
0.0
  0
LINE
  5
23B0
  8
DANMEN
  6
CONTINUOUS
 10
424.82228152262599
 20
220.79980115288831
 30
0.0
 11
422.8222815226261
 21
220.79980115288831
 31
0.0
  0
LINE
  5
23B1
  8
DANMEN
  6
CONTINUOUS
 10
422.8222815226261
 20
220.79980115288831
 30
0.0
 11
422.8222815226261
 21
220.2498011528883
 31
0.0
  0
POINT
  5
23B2
  8
DANMEN
  6
CONTINUOUS
 10
422.8222815226261
 20
220.2498011528883
 30
0.0
  0
POINT
  5
23B3
  8
DANMEN
  6
CONTINUOUS
 10
422.8222815226261
 20
220.79980115288831
 30
0.0
  0
LINE
  5
23B4
  8
DANMEN
  6
CONTINUOUS
 10
424.82228152262599
 20
220.79980115288831
 30
0.0
 11
424.82228152262599
 21
213.8998011528883
 31
0.0
  0
POINT
  5
23B5
  8
DANMEN
  6
CONTINUOUS
 10
426.47228152262602
 20
220.2498011528883
 30
0.0
  0
POINT
  5
23B6
  8
DANMEN
  6
CONTINUOUS
 10
424.82228152262599
 20
220.79980115288831
 30
0.0
  0
POLYLINE
  5
23B7
  8
SUNPO
  6
BYBLOCK
 66
     1
 10
0.0
 20
0.0
 30
0.0
 70
     1
 40
1.159999999999999
 41
1.159999999999999
  0
VERTEX
  5
2469
  8
SUNPO
  6
BYBLOCK
 10
409.67612152262592
 20
241.89980115288819
 30
0.0
 42
1.0
  0
VERTEX
  5
246A
  8
SUNPO
  6
BYBLOCK
 10
409.96844152262599
 20
241.89980115288819
 30
0.0
 42
1.0
  0
SEQEND
  5
246B
  8
SUNPO
  6
BYBLOCK
  0
POLYLINE
  5
23BB
  8
SUNPO
  6
BYBLOCK
 66
     1
 10
0.0
 20
0.0
 30
0.0
 70
     1
 40
1.159999999999999
 41
1.159999999999999
  0
VERTEX
  5
246C
  8
SUNPO
  6
BYBLOCK
 10
409.96844152262599
 20
241.89980115288819
 30
0.0
 42
1.0
  0
VERTEX
  5
246D
  8
SUNPO
  6
BYBLOCK
 10
409.67612152262592
 20
241.89980115288819
 30
0.0
 42
1.0
  0
SEQEND
  5
246E
  8
SUNPO
  6
BYBLOCK
  0
TEXT
  5
23BF
  8
SUNPO
  6
CONTINUOUS
 10
420.23894818929273
 20
242.3998011528883
 30
0.0
 40
2.5
  1
25
  0
LINE
  5
23C0
  8
SUNPO
  6
CONTINUOUS
 10
434.8222815226261
 20
223.39980115288819
 30
0.0
 11
434.8222815226261
 21
241.89980115288819
 31
0.0
  0
LINE
  5
23C1
  8
DANMEN
  6
CONTINUOUS
 10
433.17228152262578
 20
216.3998011528883
 30
0.0
 11
433.17228152262578
 21
220.2498011528883
 31
0.0
  0
LINE
  5
23C2
  8
DANMEN
  6
CONTINUOUS
 10
434.8222815226261
 20
216.3998011528883
 30
0.0
 11
434.8222815226261
 21
221.39980115288819
 31
0.0
  0
ARC
  5
23C3
  8
DANMEN
  6
CONTINUOUS
 10
433.67228152262601
 20
216.3998011528883
 30
0.0
 40
0.5
 50
180.0
 51
270.0
  0
ARC
  5
23C4
  8
DANMEN
  6
CONTINUOUS
 10
434.3222815226261
 20
216.3998011528883
 30
0.0
 40
0.5
 50
270.0
 51
0.0
  0
LINE
  5
23C5
  8
DANMEN
  6
CONTINUOUS
 10
434.3222815226261
 20
215.8998011528883
 30
0.0
 11
433.67228152262601
 21
215.8998011528883
 31
0.0
  0
ARC
  5
23C6
  8
DANMEN
  6
CONTINUOUS
 10
434.3222815226261
 20
221.39980115288819
 30
0.0
 40
0.5
 50
0.0
 51
90.0
  0
POINT
  5
23C7
  8
DANMEN
  6
CONTINUOUS
 10
433.17228152262578
 20
220.2498011528883
 30
0.0
  0
POINT
  5
23C8
  8
DANMEN
  6
CONTINUOUS
 10
434.8222815226261
 20
220.2498011528883
 30
0.0
  0
POLYLINE
  5
23C9
  8
SUNPO
  6
BYBLOCK
 66
     1
 10
0.0
 20
0.0
 30
0.0
 70
     1
 40
1.159999999999999
 41
1.159999999999999
  0
VERTEX
  5
246F
  8
SUNPO
  6
BYBLOCK
 10
434.67612152262592
 20
241.89980115288819
 30
0.0
 42
1.0
  0
VERTEX
  5
2470
  8
SUNPO
  6
BYBLOCK
 10
434.96844152262599
 20
241.89980115288819
 30
0.0
 42
1.0
  0
SEQEND
  5
2471
  8
SUNPO
  6
BYBLOCK
  0
ENDSEC
  0
EOF
