  0
SECTION
  2
HEADER
  9
$ACADVER
  1
AC1009
  9
$INSBASE
 10
0.0
 20
0.0
 30
0.0
  9
$EXTMIN
 10
31.5054882114398
 20
28.26783422733001
 30
-0.0000000000112498
  9
$EXTMAX
 10
506.91114265049492
 20
417.88313079458089
 30
0.0000000000002956
  9
$LIMMIN
 10
0.0
 20
0.0
  9
$LIMMAX
 10
420.0
 20
297.0
  9
$ORTHOMODE
 70
     0
  9
$REGENMODE
 70
     1
  9
$FILLMODE
 70
     1
  9
$QTEXTMODE
 70
     0
  9
$MIRRTEXT
 70
     1
  9
$DRAGMODE
 70
     2
  9
$LTSCALE
 40
1.0
  9
$OSMODE
 70
    37
  9
$ATTMODE
 70
     1
  9
$TEXTSIZE
 40
2.5
  9
$TRACEWID
 40
1.0
  9
$TEXTSTYLE
  7
STANDARD
  9
$CLAYER
  8
0
  9
$CELTYPE
  6
BYLAYER
  9
$CECOLOR
 62
   256
  9
$DIMSCALE
 40
1.0
  9
$DIMASZ
 40
2.5
  9
$DIMEXO
 40
0.625
  9
$DIMDLI
 40
3.75
  9
$DIMRND
 40
0.0
  9
$DIMDLE
 40
0.0
  9
$DIMEXE
 40
1.25
  9
$DIMTP
 40
0.0
  9
$DIMTM
 40
0.0
  9
$DIMTXT
 40
2.5
  9
$DIMCEN
 40
2.5
  9
$DIMTSZ
 40
0.0
  9
$DIMTOL
 70
     0
  9
$DIMLIM
 70
     0
  9
$DIMTIH
 70
     0
  9
$DIMTOH
 70
     0
  9
$DIMSE1
 70
     0
  9
$DIMSE2
 70
     0
  9
$DIMTAD
 70
     1
  9
$DIMZIN
 70
     8
  9
$DIMBLK
  1

  9
$DIMASO
 70
     1
  9
$DIMSHO
 70
     1
  9
$DIMPOST
  1

  9
$DIMAPOST
  1

  9
$DIMALT
 70
     0
  9
$DIMALTD
 70
     3
  9
$DIMALTF
 40
0.03937007874016
  9
$DIMLFAC
 40
1.0
  9
$DIMTOFL
 70
     1
  9
$DIMTVP
 40
0.0
  9
$DIMTIX
 70
     0
  9
$DIMSOXD
 70
     0
  9
$DIMSAH
 70
     0
  9
$DIMBLK1
  1

  9
$DIMBLK2
  1

  9
$DIMSTYLE
  2
ISO-25
  9
$DIMCLRD
 70
     0
  9
$DIMCLRE
 70
     0
  9
$DIMCLRT
 70
     0
  9
$DIMTFAC
 40
1.0
  9
$DIMGAP
 40
0.625
  9
$LUNITS
 70
     2
  9
$LUPREC
 70
     4
  9
$SKETCHINC
 40
1.0
  9
$FILLETRAD
 40
10.0
  9
$AUNITS
 70
     0
  9
$AUPREC
 70
     0
  9
$MENU
  1
.
  9
$ELEVATION
 40
0.0
  9
$PELEVATION
 40
0.0
  9
$THICKNESS
 40
0.0
  9
$LIMCHECK
 70
     0
  9
$BLIPMODE
 70
     0
  9
$CHAMFERA
 40
10.0
  9
$CHAMFERB
 40
10.0
  9
$SKPOLY
 70
     0
  9
$TDCREATE
 40
2456583.6822594791
  9
$TDUPDATE
 40
2456655.7780888299
  9
$TDINDWG
 40
0.0425318056
  9
$TDUSRTIMER
 40
0.0425309028
  9
$USRTIMER
 70
     1
  9
$ANGBASE
 50
0.0
  9
$ANGDIR
 70
     0
  9
$PDMODE
 70
     0
  9
$PDSIZE
 40
0.0
  9
$PLINEWID
 40
0.0
  9
$COORDS
 70
     1
  9
$SPLFRAME
 70
     0
  9
$SPLINETYPE
 70
     6
  9
$SPLINESEGS
 70
     8
  9
$ATTDIA
 70
     0
  9
$ATTREQ
 70
     1
  9
$HANDLING
 70
-16383
  9
$HANDSEED
  5
70DD
  9
$SURFTAB1
 70
     6
  9
$SURFTAB2
 70
     6
  9
$SURFTYPE
 70
     6
  9
$SURFU
 70
     6
  9
$SURFV
 70
     6
  9
$UCSNAME
  2

  9
$UCSORG
 10
0.0
 20
0.0
 30
0.0
  9
$UCSXDIR
 10
1.0
 20
0.0
 30
0.0
  9
$UCSYDIR
 10
0.0
 20
1.0
 30
0.0
  9
$PUCSNAME
  2

  9
$PUCSORG
 10
0.0
 20
0.0
 30
0.0
  9
$PUCSXDIR
 10
1.0
 20
0.0
 30
0.0
  9
$PUCSYDIR
 10
0.0
 20
1.0
 30
0.0
  9
$USERI1
 70
     0
  9
$USERI2
 70
     0
  9
$USERI3
 70
     0
  9
$USERI4
 70
     0
  9
$USERI5
 70
     0
  9
$USERR1
 40
0.0
  9
$USERR2
 40
0.0
  9
$USERR3
 40
0.0
  9
$USERR4
 40
0.0
  9
$USERR5
 40
0.0
  9
$WORLDVIEW
 70
     1
  9
$SHADEDGE
 70
     3
  9
$SHADEDIF
 70
    70
  9
$TILEMODE
 70
     1
  9
$MAXACTVP
 70
    64
  9
$PLIMCHECK
 70
     0
  9
$PEXTMIN
 10
1.0000000000000000E+020
 20
1.0000000000000000E+020
 30
1.0000000000000000E+020
  9
$PEXTMAX
 10
-1.0000000000000000E+020
 20
-1.0000000000000000E+020
 30
-1.0000000000000000E+020
  9
$PLIMMIN
 10
0.0
 20
0.0
  9
$PLIMMAX
 10
420.0
 20
297.0
  9
$UNITMODE
 70
     0
  9
$VISRETAIN
 70
     1
  9
$PLINEGEN
 70
     0
  9
$PSLTSCALE
 70
     1
  0
ENDSEC
  0
SECTION
  2
TABLES
  0
TABLE
  2
VPORT
 70
     2
  0
VPORT
  2
*ACTIVE
 70
     0
 10
0.0
 20
0.0
 11
1.0
 21
1.0
 12
269.20831543096728
 22
223.0754825109554
 13
0.0
 23
0.0
 14
10.0
 24
10.0
 15
10.0
 25
10.0
 16
0.0
 26
0.0
 36
1.0
 17
0.0
 27
0.0
 37
0.0
 40
392.61233731007582
 41
1.9293966623876759
 42
50.0
 43
0.0
 44
0.0
 50
0.0
 51
0.0
 71
     0
 72
   100
 73
     1
 74
     3
 75
     0
 76
     0
 77
     0
 78
     0
  0
ENDTAB
  0
TABLE
  2
LTYPE
 70
     2
  0
LTYPE
  2
CONTINUOUS
 70
     0
  3
Solid line
 72
    65
 73
     0
 40
0.0
  0
LTYPE
  2
DASHED
 70
     0
  3
Dashed __ __ __ __ __ __ __ __ __ __ __ __ __ _
 72
    65
 73
     2
 40
19.049999999999962
 49
12.699999999999999
 49
-6.349999999999997
  0
ENDTAB
  0
TABLE
  2
LAYER
 70
     5
  0
LAYER
  2
0
 70
     0
 62
     7
  6
CONTINUOUS
  0
LAYER
  2
DANMEN
 70
     0
 62
     7
  6
CONTINUOUS
  0
LAYER
  2
SUNPO
 70
     0
 62
     1
  6
CONTINUOUS
  0
LAYER
  2
WAKU
 70
     0
 62
     3
  6
CONTINUOUS
  0
ENDTAB
  0
TABLE
  2
STYLE
 70
     7
  0
STYLE
  2
STANDARD
 70
     0
 40
0.0
 41
1.0
 50
0.0
 71
     0
 42
2.5
  3
txt
  4

  0
STYLE
  2
MX_NOTE_STANDARD
 70
     0
 40
0.0
 41
1.0
 50
0.0
 71
     0
 42
2.5
  3
txt.shx
  4
extfont.shx
  0
STYLE
  2
MX_DIMTXSTY_2
 70
     0
 40
0.0
 41
1.1999999999999991
 50
0.0
 71
     0
 42
2.5
  3
txt.shx
  4
extfont.shx
  0
STYLE
  2
MX_DIMTXSTY_3
 70
     0
 40
0.0
 41
1.1000000000000001
 50
0.0
 71
     0
 42
2.5
  3
txt.shx
  4
extfont.shx
  0
STYLE
  2
MX_DIMTXSTY_4
 70
     0
 40
0.0
 41
1.3500000000000001
 50
0.0
 71
     0
 42
2.5
  3
txt.shx
  4
extfont.shx
  0
STYLE
  2
MX_DIMTXSTY_5
 70
     0
 40
0.0
 41
1.1000000000000001
 50
0.0
 71
     0
 42
2.5
  3
txt.shx
  4
extfont.shx
  0
STYLE
  2
MX_DIMTXSTY_6
 70
     0
 40
0.0
 41
1.5
 50
0.0
 71
     0
 42
2.5
  3
txt.shx
  4
extfont.shx
  0
ENDTAB
  0
TABLE
  2
VIEW
 70
     0
  0
ENDTAB
  0
TABLE
  2
UCS
 70
     0
  0
ENDTAB
  0
TABLE
  2
APPID
 70
     1
  0
APPID
  2
ACAD
 70
     0
  0
ENDTAB
  0
TABLE
  2
DIMSTYLE
 70
     2
  0
DIMSTYLE
  2
ISO-25
 70
     0
  3

  4

  5

  6

  7

 40
1.0
 41
2.5
 42
0.625
 43
3.75
 44
1.25
 45
0.0
 46
0.0
 47
0.0
 48
0.0
140
2.5
141
2.5
142
0.0
143
0.03937007874016
144
1.0
145
0.0
146
1.0
147
0.625
 71
     0
 72
     0
 73
     0
 74
     0
 75
     0
 76
     0
 77
     1
 78
     8
170
     0
171
     3
172
     1
173
     0
174
     0
175
     0
176
     0
177
     0
178
     0
  0
DIMSTYLE
  2
MXDIMSTYLE
 70
     0
  3

  4

  5

  6

  7

 40
1.0
 41
2.5
 42
1.5
 43
3.75
 44
0.0
 45
0.0
 46
0.0
 47
0.0
 48
0.0
140
2.5
141
2.5
142
0.0
143
0.03937
144
1.0
145
0.0
146
1.0
147
0.5
 71
     0
 72
     0
 73
     0
 74
     0
 75
     0
 76
     0
 77
     1
 78
     8
170
     0
171
     4
172
     1
173
     1
174
     0
175
     0
176
     0
177
     0
178
     0
  0
ENDTAB
  0
ENDSEC
  0
SECTION
  2
BLOCKS
  0
BLOCK
  8
0
  2
$MODEL_SPACE
 70
     0
 10
0.0
 20
0.0
 30
0.0
  3
$MODEL_SPACE
  1

  0
ENDBLK
  5
5CCC
  8
0
  0
BLOCK
 67
     1
  8
0
  2
$PAPER_SPACE
 70
     0
 10
0.0
 20
0.0
 30
0.0
  3
$PAPER_SPACE
  1

  0
ENDBLK
  5
5CC8
 67
     1
  8
0
  0
BLOCK
  8
0
  6
BYBLOCK
 62
     0
  2
_OPEN30
 70
     2
 10
0.0
 20
0.0
 30
0.0
  3
_OPEN30
  1

  0
LINE
  5
5CE5
  8
0
  6
BYBLOCK
 62
     0
 10
-1.0
 20
0.267949
 30
0.0
 11
0.0
 21
0.0
 31
0.0
  0
LINE
  5
5CE6
  8
0
  6
BYBLOCK
 62
     0
 10
0.0
 20
0.0
 30
0.0
 11
-1.0
 21
-0.267949
 31
0.0
  0
LINE
  5
5CE7
  8
0
  6
BYBLOCK
 62
     0
 10
0.0
 20
0.0
 30
0.0
 11
-1.0
 21
0.0
 31
0.0
  0
ENDBLK
  5
5CE8
  8
0
  6
BYBLOCK
 62
     0
  0
ENDSEC
  0
SECTION
  2
ENTITIES
  0
LINE
  5
5CE9
  8
WAKU
  6
CONTINUOUS
 10
494.47477787089508
 20
414.85770574567772
 30
0.0
 11
495.10192687089511
 21
416.5807827456776
 31
0.0
  0
LINE
  5
5CEA
  8
WAKU
  6
CONTINUOUS
 10
493.76923587089539
 20
412.9192447456777
 30
0.0
 11
494.2395968708953
 21
414.2115517456777
 31
0.0
  0
SOLID
  5
5CEB
  8
WAKU
  6
CONTINUOUS
 10
497.25577287089561
 20
416.5807827456776
 30
0.0
 11
494.41499387089561
 21
411.73462874567758
 31
0.0
 12
494.70798087089508
 22
409.58078274567771
 32
0.0
 13
494.70798087089508
 23
409.58078274567771
 33
0.0
  0
SOLID
  5
5CEC
  8
WAKU
  6
CONTINUOUS
 10
494.41499387089561
 20
411.73462874567758
 30
0.0
 11
497.25577287089561
 21
416.5807827456776
 31
0.0
 12
496.17884987089508
 22
416.5807827456776
 32
0.0
 13
496.17884987089508
 23
416.5807827456776
 33
0.0
  0
LINE
  5
5CED
  8
WAKU
  6
CONTINUOUS
 10
494.41499387089561
 20
411.73462874567758
 30
0.0
 11
496.17884987089508
 21
416.5807827456776
 31
0.0
  0
LINE
  5
5CEE
  8
WAKU
  6
CONTINUOUS
 10
494.70798087089508
 20
409.58078274567771
 30
0.0
 11
497.25577287089561
 21
416.5807827456776
 31
0.0
  0
LINE
  5
5CEF
  8
WAKU
  6
CONTINUOUS
 10
496.17884987089508
 20
416.5807827456776
 30
0.0
 11
497.25577287089561
 21
416.5807827456776
 31
0.0
  0
LINE
  5
5CF0
  8
WAKU
  6
CONTINUOUS
 10
491.87115787089567
 20
416.5807827456776
 30
0.0
 11
491.2440088708953
 21
414.85770574567772
 31
0.0
  0
LINE
  5
5CF1
  8
WAKU
  6
CONTINUOUS
 10
491.00882787089557
 20
414.2115517456777
 30
0.0
 11
490.5384668708956
 21
412.9192447456777
 31
0.0
  0
LINE
  5
5CF2
  8
WAKU
  6
CONTINUOUS
 10
489.3233658708956
 20
409.58078274567771
 30
0.0
 11
490.10730187089513
 21
411.73462874567758
 31
0.0
  0
LINE
  5
5CF3
  8
WAKU
  6
CONTINUOUS
 10
488.05243587089512
 20
414.96539774567742
 30
0.0
 11
489.1293598708948
 21
414.96539774567742
 31
0.0
  0
SOLID
  5
5CF4
  8
WAKU
  6
CONTINUOUS
 10
487.16951987089539
 20
409.58078274567771
 30
0.0
 11
486.68054887089568
 21
411.196167745678
 31
0.0
 12
483.44977887089561
 22
411.196167745678
 32
0.0
 13
483.44977887089561
 23
411.196167745678
 33
0.0
  0
LINE
  5
5CF5
  8
WAKU
  6
CONTINUOUS
 10
483.4497788708951
 20
411.1961677456776
 30
0.0
 11
486.68054887089539
 21
411.1961677456776
 31
0.0
  0
SOLID
  5
5CF6
  8
WAKU
  6
CONTINUOUS
 10
485.11465387089561
 20
412.81155174567812
 30
0.0
 11
485.89858987089542
 21
414.96539774567827
 31
0.0
 12
484.82166687089563
 22
414.96539774567827
 32
0.0
 13
484.82166687089563
 23
414.96539774567827
 33
0.0
  0
LINE
  5
5CF7
  8
WAKU
  6
CONTINUOUS
 10
485.43773087089562
 20
412.81155174567772
 30
0.0
 11
486.22166687089509
 21
414.96539774567742
 31
0.0
  0
LINE
  5
5CF8
  8
WAKU
  6
CONTINUOUS
 10
485.11465387089561
 20
412.81155174567772
 30
0.0
 11
485.89858987089502
 21
414.96539774567742
 31
0.0
  0
LINE
  5
5CF9
  8
WAKU
  6
CONTINUOUS
 10
485.43773087089562
 20
412.81155174567772
 30
0.0
 11
486.51465387089462
 21
412.81155174567772
 31
0.0
  0
LINE
  5
5CFA
  8
WAKU
  6
CONTINUOUS
 10
484.82166687089563
 20
414.96539774567742
 30
0.0
 11
485.89858987089502
 21
414.96539774567742
 31
0.0
  0
SOLID
  5
5CFB
  8
WAKU
  6
CONTINUOUS
 10
486.22166687089538
 20
414.96539774567827
 30
0.0
 11
485.43773087089562
 21
412.81155174567812
 31
0.0
 12
487.29858987089511
 22
414.96539774567827
 32
0.0
 13
487.29858987089511
 23
414.96539774567827
 33
0.0
  0
SOLID
  5
5CFC
  8
WAKU
  6
CONTINUOUS
 10
487.29858987089511
 20
414.96539774567827
 30
0.0
 11
485.43773087089562
 21
412.81155174567812
 31
0.0
 12
486.51465387089559
 22
412.81155174567812
 32
0.0
 13
486.51465387089559
 23
412.81155174567812
 33
0.0
  0
SOLID
  5
5CFD
  8
WAKU
  6
CONTINUOUS
 10
484.82166687089563
 20
414.96539774567827
 30
0.0
 11
484.03773087089581
 21
412.81155174567812
 31
0.0
 12
485.11465387089561
 22
412.81155174567812
 32
0.0
 13
485.11465387089561
 23
412.81155174567812
 33
0.0
  0
LINE
  5
5CFE
  8
WAKU
  6
CONTINUOUS
 10
484.03773087089502
 20
412.81155174567772
 30
0.0
 11
484.82166687089563
 21
414.96539774567742
 31
0.0
  0
LINE
  5
5CFF
  8
WAKU
  6
CONTINUOUS
 10
484.03773087089502
 20
412.81155174567772
 30
0.0
 11
485.11465387089561
 21
412.81155174567772
 31
0.0
  0
LINE
  5
5D00
  8
WAKU
  6
CONTINUOUS
 10
486.51465387089462
 20
412.81155174567772
 30
0.0
 11
487.29858987089511
 21
414.96539774567742
 31
0.0
  0
LINE
  5
5D01
  8
WAKU
  6
CONTINUOUS
 10
486.22166687089509
 20
414.96539774567742
 30
0.0
 11
487.29858987089511
 21
414.96539774567742
 31
0.0
  0
SOLID
  5
5D02
  8
WAKU
  6
CONTINUOUS
 10
488.05243587089541
 20
414.96539774567827
 30
0.0
 11
486.68054887089568
 21
411.196167745678
 31
0.0
 12
487.16951987089539
 22
409.58078274567771
 32
0.0
 13
487.16951987089539
 23
409.58078274567771
 33
0.0
  0
LINE
  5
5D03
  8
WAKU
  6
CONTINUOUS
 10
486.68054887089539
 20
411.1961677456776
 30
0.0
 11
488.05243587089512
 21
414.96539774567742
 31
0.0
  0
SOLID
  5
5D04
  8
WAKU
  6
CONTINUOUS
 10
489.12935987089583
 20
414.96539774567827
 30
0.0
 11
488.05243587089541
 21
414.96539774567827
 31
0.0
 12
487.16951987089539
 22
409.58078274567771
 32
0.0
 13
487.16951987089539
 23
409.58078274567771
 33
0.0
  0
LINE
  5
5D05
  8
WAKU
  6
CONTINUOUS
 10
487.16951987089539
 20
409.58078274567771
 30
0.0
 11
489.1293598708948
 21
414.96539774567742
 31
0.0
  0
SOLID
  5
5D06
  8
WAKU
  6
CONTINUOUS
 10
482.17884987089508
 20
416.5807827456776
 30
0.0
 11
481.70848787089562
 21
415.28847474567817
 31
0.0
 12
482.78541087089548
 22
415.28847474567817
 32
0.0
 13
482.78541087089548
 23
415.28847474567817
 33
0.0
  0
SOLID
  5
5D07
  8
WAKU
  6
CONTINUOUS
 10
481.70848787089562
 20
415.28847474567817
 30
0.0
 11
482.19745987089561
 21
413.67309074567771
 31
0.0
 12
483.00515187089542
 22
413.67309074567771
 32
0.0
 13
483.00515187089542
 23
413.67309074567771
 33
0.0
  0
LINE
  5
5D08
  8
WAKU
  6
CONTINUOUS
 10
481.70848787089471
 20
415.28847474567772
 30
0.0
 11
482.17884987089508
 21
416.5807827456776
 31
0.0
  0
LINE
  5
5D09
  8
WAKU
  6
CONTINUOUS
 10
482.19745987089539
 20
413.67309074567771
 30
0.0
 11
483.00515187089508
 21
413.67309074567771
 31
0.0
  0
LINE
  5
5D0A
  8
WAKU
  6
CONTINUOUS
 10
479.01618087089508
 20
415.28847474567772
 30
0.0
 11
479.48654187089539
 21
416.5807827456776
 31
0.0
  0
LINE
  5
5D0B
  8
WAKU
  6
CONTINUOUS
 10
478.40961887089509
 20
416.5807827456776
 30
0.0
 11
479.48654187089539
 21
416.5807827456776
 31
0.0
  0
SOLID
  5
5D0C
  8
WAKU
  6
CONTINUOUS
 10
481.12053587089508
 20
413.67309074567771
 30
0.0
 11
480.41499387089561
 21
411.73462874567758
 31
0.0
 12
480.70798087089571
 22
409.58078274567771
 32
0.0
 13
480.70798087089571
 23
409.58078274567771
 33
0.0
  0
LINE
  5
5D0D
  8
WAKU
  6
CONTINUOUS
 10
480.41499387089561
 20
411.73462874567758
 30
0.0
 11
481.12053587089503
 21
413.67309074567771
 31
0.0
  0
LINE
  5
5D0E
  8
WAKU
  6
CONTINUOUS
 10
478.42822887089523
 20
413.67309074567771
 30
0.0
 11
481.12053587089503
 21
413.67309074567771
 31
0.0
  0
SOLID
  5
5D0F
  8
WAKU
  6
CONTINUOUS
 10
482.19745987089561
 20
413.67309074567771
 30
0.0
 11
481.12053587089508
 21
413.67309074567771
 31
0.0
 12
480.70798087089571
 22
409.58078274567771
 32
0.0
 13
480.70798087089571
 23
409.58078274567771
 33
0.0
  0
LINE
  5
5D10
  8
WAKU
  6
CONTINUOUS
 10
480.70798087089531
 20
409.58078274567771
 30
0.0
 11
482.19745987089539
 21
413.67309074567771
 31
0.0
  0
SOLID
  5
5D11
  8
WAKU
  6
CONTINUOUS
 10
482.19745987089561
 20
413.67309074567771
 30
0.0
 11
481.70848787089562
 21
415.28847474567817
 31
0.0
 12
479.0161808708956
 22
415.28847474567817
 32
0.0
 13
479.0161808708956
 23
415.28847474567817
 33
0.0
  0
LINE
  5
5D12
  8
WAKU
  6
CONTINUOUS
 10
479.01618087089508
 20
415.28847474567772
 30
0.0
 11
481.70848787089471
 21
415.28847474567772
 31
0.0
  0
LINE
  5
5D13
  8
WAKU
  6
CONTINUOUS
 10
476.9593378708953
 20
412.59616774567769
 30
0.0
 11
477.3513058708956
 21
413.67309074567771
 31
0.0
  0
LINE
  5
5D14
  8
WAKU
  6
CONTINUOUS
 10
476.9593378708953
 20
412.59616774567769
 30
0.0
 11
478.0362608708956
 21
412.59616774567769
 31
0.0
  0
LINE
  5
5D15
  8
WAKU
  6
CONTINUOUS
 10
475.64644287089448
 20
409.58078274567771
 30
0.0
 11
476.43037887089508
 21
411.73462874567758
 31
0.0
  0
LINE
  5
5D16
  8
WAKU
  6
CONTINUOUS
 10
476.543612870895
 20
413.67309074567771
 30
0.0
 11
477.3513058708956
 21
413.67309074567771
 31
0.0
  0
LINE
  5
5D17
  8
WAKU
  6
CONTINUOUS
 10
477.1315648708956
 20
415.28847474567772
 30
0.0
 11
477.93925787089472
 21
415.28847474567772
 31
0.0
  0
LINE
  5
5D18
  8
WAKU
  6
CONTINUOUS
 10
476.543612870895
 20
413.67309074567771
 30
0.0
 11
477.1315648708956
 21
415.28847474567772
 31
0.0
  0
LINE
  5
5D19
  8
WAKU
  6
CONTINUOUS
 10
475.62862387089513
 20
414.85770574567772
 30
0.0
 11
476.2557728708951
 21
416.5807827456776
 31
0.0
  0
LINE
  5
5D1A
  8
WAKU
  6
CONTINUOUS
 10
473.70798087089503
 20
409.58078274567771
 30
0.0
 11
474.49191687089473
 21
411.73462874567758
 31
0.0
  0
SOLID
  5
5D1B
  8
WAKU
  6
CONTINUOUS
 10
477.13156487089577
 20
415.28847474567817
 30
0.0
 11
476.54361287089557
 21
413.67309074567771
 31
0.0
 12
479.0161808708956
 22
415.28847474567817
 32
0.0
 13
479.0161808708956
 23
415.28847474567817
 33
0.0
  0
LINE
  5
5D1C
  8
WAKU
  6
CONTINUOUS
 10
477.93925787089472
 20
415.28847474567772
 30
0.0
 11
478.40961887089509
 21
416.5807827456776
 31
0.0
  0
SOLID
  5
5D1D
  8
WAKU
  6
CONTINUOUS
 10
479.48654187089539
 20
416.5807827456776
 30
0.0
 11
477.93925787089591
 21
415.28847474567817
 31
0.0
 12
479.0161808708956
 22
415.28847474567817
 32
0.0
 13
479.0161808708956
 23
415.28847474567817
 33
0.0
  0
SOLID
  5
5D1E
  8
WAKU
  6
CONTINUOUS
 10
477.93925787089591
 20
415.28847474567817
 30
0.0
 11
479.48654187089539
 21
416.5807827456776
 31
0.0
 12
478.40961887089583
 22
416.5807827456776
 32
0.0
 13
478.40961887089583
 23
416.5807827456776
 33
0.0
  0
SOLID
  5
5D1F
  8
WAKU
  6
CONTINUOUS
 10
480.70798087089571
 20
409.58078274567771
 30
0.0
 11
480.41499387089561
 21
411.73462874567758
 31
0.0
 12
476.43037887089599
 22
411.73462874567758
 32
0.0
 13
476.43037887089599
 23
411.73462874567758
 33
0.0
  0
SOLID
  5
5D20
  8
WAKU
  6
CONTINUOUS
 10
476.43037887089599
 20
411.73462874567758
 30
0.0
 11
475.64644287089561
 21
409.58078274567771
 31
0.0
 12
480.70798087089571
 22
409.58078274567771
 32
0.0
 13
480.70798087089571
 23
409.58078274567771
 33
0.0
  0
LINE
  5
5D21
  8
WAKU
  6
CONTINUOUS
 10
475.64644287089448
 20
409.58078274567771
 30
0.0
 11
480.70798087089531
 21
409.58078274567771
 31
0.0
  0
SOLID
  5
5D22
  8
WAKU
  6
CONTINUOUS
 10
476.54361287089557
 20
413.67309074567771
 30
0.0
 11
478.42822887089568
 21
413.67309074567771
 31
0.0
 12
481.12053587089508
 22
413.67309074567771
 32
0.0
 13
481.12053587089508
 23
413.67309074567771
 33
0.0
  0
SOLID
  5
5D23
  8
WAKU
  6
CONTINUOUS
 10
479.0161808708956
 20
415.28847474567817
 30
0.0
 11
476.54361287089557
 21
413.67309074567771
 31
0.0
 12
482.19745987089561
 22
413.67309074567771
 32
0.0
 13
482.19745987089561
 23
413.67309074567771
 33
0.0
  0
SOLID
  5
5D24
  8
WAKU
  6
CONTINUOUS
 10
482.19745987089561
 20
413.67309074567771
 30
0.0
 11
476.54361287089557
 21
413.67309074567771
 31
0.0
 12
481.12053587089508
 22
413.67309074567771
 32
0.0
 13
481.12053587089508
 23
413.67309074567771
 33
0.0
  0
SOLID
  5
5D25
  8
WAKU
  6
CONTINUOUS
 10
477.3513058708956
 20
413.67309074567771
 30
0.0
 11
476.9593378708953
 21
412.5961677456782
 31
0.0
 12
478.42822887089568
 22
413.67309074567771
 32
0.0
 13
478.42822887089568
 23
413.67309074567771
 33
0.0
  0
SOLID
  5
5D26
  8
WAKU
  6
CONTINUOUS
 10
478.42822887089568
 20
413.67309074567771
 30
0.0
 11
476.9593378708953
 21
412.5961677456782
 31
0.0
 12
478.0362608708956
 22
412.5961677456782
 32
0.0
 13
478.0362608708956
 23
412.5961677456782
 33
0.0
  0
LINE
  5
5D27
  8
WAKU
  6
CONTINUOUS
 10
478.0362608708956
 20
412.59616774567769
 30
0.0
 11
478.42822887089523
 21
413.67309074567771
 31
0.0
  0
LINE
  5
5D28
  8
WAKU
  6
CONTINUOUS
 10
476.43037887089508
 20
411.73462874567758
 30
0.0
 11
480.41499387089561
 21
411.73462874567758
 31
0.0
  0
SOLID
  5
5D29
  8
WAKU
  6
CONTINUOUS
 10
476.54361287089557
 20
413.67309074567771
 30
0.0
 11
477.3513058708956
 21
413.67309074567771
 31
0.0
 12
478.42822887089568
 22
413.67309074567771
 32
0.0
 13
478.42822887089568
 23
413.67309074567771
 33
0.0
  0
SOLID
  5
5D2A
  8
WAKU
  6
CONTINUOUS
 10
479.0161808708956
 20
415.28847474567817
 30
0.0
 11
477.93925787089591
 21
415.28847474567817
 31
0.0
 12
477.13156487089577
 22
415.28847474567817
 32
0.0
 13
477.13156487089577
 23
415.28847474567817
 33
0.0
  0
SOLID
  5
5D2B
  8
WAKU
  6
CONTINUOUS
 10
483.44977887089561
 20
411.196167745678
 30
0.0
 11
482.86182787089592
 21
409.58078274567771
 31
0.0
 12
487.16951987089539
 22
409.58078274567771
 32
0.0
 13
487.16951987089539
 23
409.58078274567771
 33
0.0
  0
LINE
  5
5D2C
  8
WAKU
  6
CONTINUOUS
 10
482.86182787089592
 20
409.58078274567771
 30
0.0
 11
487.16951987089539
 21
409.58078274567771
 31
0.0
  0
SOLID
  5
5D2D
  8
WAKU
  6
CONTINUOUS
 10
482.78541087089548
 20
415.28847474567817
 30
0.0
 11
481.70848787089562
 21
415.28847474567817
 31
0.0
 12
483.59310387089562
 22
415.28847474567817
 32
0.0
 13
483.59310387089562
 23
415.28847474567817
 33
0.0
  0
SOLID
  5
5D2E
  8
WAKU
  6
CONTINUOUS
 10
483.59310387089562
 20
415.28847474567817
 30
0.0
 11
481.70848787089562
 21
415.28847474567817
 31
0.0
 12
483.00515187089542
 22
413.67309074567771
 32
0.0
 13
483.00515187089542
 23
413.67309074567771
 33
0.0
  0
LINE
  5
5D2F
  8
WAKU
  6
CONTINUOUS
 10
482.86182787089592
 20
409.58078274567771
 30
0.0
 11
483.4497788708951
 21
411.1961677456776
 31
0.0
  0
SOLID
  5
5D30
  8
WAKU
  6
CONTINUOUS
 10
483.25577287089538
 20
416.5807827456776
 30
0.0
 11
482.17884987089508
 21
416.5807827456776
 31
0.0
 12
482.78541087089548
 22
415.28847474567817
 32
0.0
 13
482.78541087089548
 23
415.28847474567817
 33
0.0
  0
LINE
  5
5D31
  8
WAKU
  6
CONTINUOUS
 10
482.17884987089508
 20
416.5807827456776
 30
0.0
 11
483.25577287089448
 21
416.5807827456776
 31
0.0
  0
LINE
  5
5D32
  8
WAKU
  6
CONTINUOUS
 10
482.78541087089548
 20
415.28847474567772
 30
0.0
 11
483.25577287089448
 21
416.5807827456776
 31
0.0
  0
LINE
  5
5D33
  8
WAKU
  6
CONTINUOUS
 10
482.78541087089548
 20
415.28847474567772
 30
0.0
 11
483.59310387089562
 21
415.28847474567772
 31
0.0
  0
LINE
  5
5D34
  8
WAKU
  6
CONTINUOUS
 10
483.00515187089508
 20
413.67309074567771
 30
0.0
 11
483.59310387089562
 21
415.28847474567772
 31
0.0
  0
LINE
  5
5D35
  8
WAKU
  6
CONTINUOUS
 10
470.2440088708953
 20
414.85770574567772
 30
0.0
 11
470.87115787089562
 21
416.5807827456776
 31
0.0
  0
LINE
  5
5D36
  8
WAKU
  6
CONTINUOUS
 10
468.3233658708956
 20
409.58078274567771
 30
0.0
 11
469.10730187089513
 21
411.73462874567758
 31
0.0
  0
LINE
  5
5D37
  8
WAKU
  6
CONTINUOUS
 10
469.5788498708954
 20
416.5807827456776
 30
0.0
 11
468.95170087089451
 21
414.85770574567772
 31
0.0
  0
LINE
  5
5D38
  8
WAKU
  6
CONTINUOUS
 10
466.78062387089511
 20
414.85770574567772
 30
0.0
 11
468.01097787089509
 21
412.27309074567768
 31
0.0
  0
LINE
  5
5D39
  8
WAKU
  6
CONTINUOUS
 10
467.0310578708951
 20
409.58078274567771
 30
0.0
 11
468.01097787089509
 21
412.27309074567768
 31
0.0
  0
SOLID
  5
5D3A
  8
WAKU
  6
CONTINUOUS
 10
465.74943987089569
 20
412.27309074567802
 30
0.0
 11
464.65291787089558
 21
412.219244745678
 31
0.0
 12
464.76951987089518
 22
409.58078274567771
 32
0.0
 13
464.76951987089518
 23
409.58078274567771
 33
0.0
  0
LINE
  5
5D3B
  8
WAKU
  6
CONTINUOUS
 10
464.76951987089518
 20
409.58078274567771
 30
0.0
 11
465.74943987089512
 21
412.27309074567768
 31
0.0
  0
SOLID
  5
5D3C
  8
WAKU
  6
CONTINUOUS
 10
464.65291787089558
 20
412.219244745678
 30
0.0
 11
463.69259687089561
 21
409.58078274567771
 31
0.0
 12
464.76951987089518
 22
409.58078274567771
 32
0.0
 13
464.76951987089518
 23
409.58078274567771
 33
0.0
  0
LINE
  5
5D3D
  8
WAKU
  6
CONTINUOUS
 10
463.69259687089561
 20
409.58078274567771
 30
0.0
 11
464.65291787089512
 21
412.219244745678
 31
0.0
  0
LINE
  5
5D3E
  8
WAKU
  6
CONTINUOUS
 10
463.69259687089561
 20
409.58078274567771
 30
0.0
 11
464.76951987089518
 21
409.58078274567771
 31
0.0
  0
SOLID
  5
5D3F
  8
WAKU
  6
CONTINUOUS
 10
466.78062387089511
 20
414.857705745678
 30
0.0
 11
465.56708587089571
 21
414.857705745678
 31
0.0
 12
465.74943987089569
 22
412.27309074567802
 32
0.0
 13
465.74943987089569
 23
412.27309074567802
 33
0.0
  0
LINE
  5
5D40
  8
WAKU
  6
CONTINUOUS
 10
465.74943987089512
 20
412.27309074567768
 30
0.0
 11
467.0310578708951
 21
409.58078274567771
 31
0.0
  0
SOLID
  5
5D41
  8
WAKU
  6
CONTINUOUS
 10
466.78062387089511
 20
414.857705745678
 30
0.0
 11
465.74943987089569
 21
412.27309074567802
 31
0.0
 12
468.01097787089537
 22
412.27309074567802
 32
0.0
 13
468.01097787089537
 23
412.27309074567802
 33
0.0
  0
SOLID
  5
5D42
  8
WAKU
  6
CONTINUOUS
 10
465.74943987089569
 20
412.27309074567802
 30
0.0
 11
467.03105787089561
 21
409.58078274567771
 31
0.0
 12
468.01097787089537
 22
412.27309074567802
 32
0.0
 13
468.01097787089537
 23
412.27309074567802
 33
0.0
  0
LINE
  5
5D43
  8
WAKU
  6
CONTINUOUS
 10
463.351700870895
 20
414.85770574567772
 30
0.0
 11
465.56708587089503
 21
414.85770574567772
 31
0.0
  0
LINE
  5
5D44
  8
WAKU
  6
CONTINUOUS
 10
463.97884987089509
 20
416.5807827456776
 30
0.0
 11
463.351700870895
 21
414.85770574567772
 31
0.0
  0
SOLID
  5
5D45
  8
WAKU
  6
CONTINUOUS
 10
463.97884987089571
 20
416.5807827456776
 30
0.0
 11
463.35170087089563
 21
414.857705745678
 31
0.0
 12
466.78062387089511
 22
414.857705745678
 32
0.0
 13
466.78062387089511
 23
414.857705745678
 33
0.0
  0
SOLID
  5
5D46
  8
WAKU
  6
CONTINUOUS
 10
466.78062387089511
 20
414.857705745678
 30
0.0
 11
463.35170087089563
 21
414.857705745678
 31
0.0
 12
465.56708587089571
 22
414.857705745678
 32
0.0
 13
465.56708587089571
 23
414.857705745678
 33
0.0
  0
LINE
  5
5D47
  8
WAKU
  6
CONTINUOUS
 10
466.78062387089511
 20
414.85770574567772
 30
0.0
 11
468.95170087089451
 21
414.85770574567772
 31
0.0
  0
SOLID
  5
5D48
  8
WAKU
  6
CONTINUOUS
 10
469.57884987089562
 20
416.5807827456776
 30
0.0
 11
463.97884987089571
 21
416.5807827456776
 31
0.0
 12
468.95170087089531
 22
414.857705745678
 32
0.0
 13
468.95170087089531
 23
414.857705745678
 33
0.0
  0
SOLID
  5
5D49
  8
WAKU
  6
CONTINUOUS
 10
463.97884987089571
 20
416.5807827456776
 30
0.0
 11
466.78062387089511
 21
414.857705745678
 31
0.0
 12
468.95170087089531
 22
414.857705745678
 32
0.0
 13
468.95170087089531
 23
414.857705745678
 33
0.0
  0
LINE
  5
5D4A
  8
WAKU
  6
CONTINUOUS
 10
463.97884987089509
 20
416.5807827456776
 30
0.0
 11
469.5788498708954
 21
416.5807827456776
 31
0.0
  0
LINE
  5
5D4B
  8
WAKU
  6
CONTINUOUS
 10
461.4310578708953
 20
409.58078274567771
 30
0.0
 11
462.41097787089518
 21
412.27309074567768
 31
0.0
  0
LINE
  5
5D4C
  8
WAKU
  6
CONTINUOUS
 10
459.15061587089508
 20
412.86447574567819
 30
0.0
 11
459.4125048708953
 21
413.36581274567772
 31
0.0
  0
SOLID
  5
5D4D
  8
WAKU
  6
CONTINUOUS
 10
460.20659987089562
 20
413.67707174567829
 30
0.0
 11
459.81213387089548
 21
413.6506467456777
 31
0.0
 12
460.12175687089558
 22
413.24691674567799
 32
0.0
 13
460.12175687089558
 23
413.24691674567799
 33
0.0
  0
SOLID
  5
5D4E
  8
WAKU
  6
CONTINUOUS
 10
459.81213387089548
 20
413.6506467456777
 30
0.0
 11
459.71648287089539
 21
413.25503074567729
 31
0.0
 12
460.12175687089558
 22
413.24691674567799
 32
0.0
 13
460.12175687089558
 23
413.24691674567799
 33
0.0
  0
LINE
  5
5D4F
  8
WAKU
  6
CONTINUOUS
 10
460.12175687089518
 20
413.24691674567748
 30
0.0
 11
460.20659987089562
 21
413.67707174567721
 31
0.0
  0
LINE
  5
5D50
  8
WAKU
  6
CONTINUOUS
 10
459.71648287089539
 20
413.25503074567729
 30
0.0
 11
459.81213387089508
 21
413.6506467456768
 31
0.0
  0
SOLID
  5
5D51
  8
WAKU
  6
CONTINUOUS
 10
459.71648287089539
 20
413.25503074567729
 30
0.0
 11
459.52427987089561
 21
412.80006074567802
 31
0.0
 12
460.12175687089558
 22
413.24691674567799
 32
0.0
 13
460.12175687089558
 23
413.24691674567799
 33
0.0
  0
SOLID
  5
5D52
  8
WAKU
  6
CONTINUOUS
 10
460.12175687089558
 20
413.24691674567799
 30
0.0
 11
459.52427987089561
 21
412.80006074567802
 31
0.0
 12
459.94527587089561
 22
412.7776107456782
 32
0.0
 13
459.94527587089561
 23
412.7776107456782
 33
0.0
  0
LINE
  5
5D53
  8
WAKU
  6
CONTINUOUS
 10
459.6836378708951
 20
412.28639174567741
 30
0.0
 11
459.9452758708947
 21
412.77761074567741
 31
0.0
  0
LINE
  5
5D54
  8
WAKU
  6
CONTINUOUS
 10
459.9452758708947
 20
412.77761074567741
 30
0.0
 11
460.12175687089518
 21
413.24691674567748
 31
0.0
  0
LINE
  5
5D55
  8
WAKU
  6
CONTINUOUS
 10
459.52427987089447
 20
412.80006074567802
 30
0.0
 11
459.71648287089539
 21
413.25503074567729
 31
0.0
  0
LINE
  5
5D56
  8
WAKU
  6
CONTINUOUS
 10
458.94610787089471
 20
411.31052674567741
 30
0.0
 11
459.34645387089557
 21
411.79130274567768
 31
0.0
  0
SOLID
  5
5D57
  8
WAKU
  6
CONTINUOUS
 10
459.52427987089561
 20
412.80006074567802
 30
0.0
 11
459.24082287089561
 21
412.31450074567812
 31
0.0
 12
459.94527587089561
 22
412.7776107456782
 32
0.0
 13
459.94527587089561
 23
412.7776107456782
 33
0.0
  0
SOLID
  5
5D58
  8
WAKU
  6
CONTINUOUS
 10
459.94527587089561
 20
412.7776107456782
 30
0.0
 11
459.24082287089561
 21
412.31450074567812
 31
0.0
 12
459.68363787089561
 22
412.28639174567809
 32
0.0
 13
459.68363787089561
 23
412.28639174567809
 33
0.0
  0
LINE
  5
5D59
  8
WAKU
  6
CONTINUOUS
 10
459.34645387089557
 20
411.79130274567768
 30
0.0
 11
459.6836378708951
 21
412.28639174567741
 31
0.0
  0
LINE
  5
5D5A
  8
WAKU
  6
CONTINUOUS
 10
459.24082287089561
 20
412.31450074567812
 30
0.0
 11
459.52427987089447
 21
412.80006074567802
 31
0.0
  0
SOLID
  5
5D5B
  8
WAKU
  6
CONTINUOUS
 10
460.09238487089573
 20
414.35874974567793
 30
0.0
 11
459.66058287089538
 21
414.27703174567802
 31
0.0
 12
460.19668787089557
 22
414.05227574567829
 32
0.0
 13
460.19668787089557
 23
414.05227574567829
 33
0.0
  0
SOLID
  5
5D5C
  8
WAKU
  6
CONTINUOUS
 10
459.66058287089538
 20
414.27703174567802
 30
0.0
 11
459.75872387089561
 21
414.15870074567817
 31
0.0
 12
460.19668787089557
 22
414.05227574567829
 32
0.0
 13
460.19668787089557
 23
414.05227574567829
 33
0.0
  0
SOLID
  5
5D5D
  8
WAKU
  6
CONTINUOUS
 10
459.75872387089561
 20
414.15870074567817
 30
0.0
 11
459.81757487089561
 21
413.95803574567771
 31
0.0
 12
460.19668787089557
 22
414.05227574567829
 32
0.0
 13
460.19668787089557
 23
414.05227574567829
 33
0.0
  0
SOLID
  5
5D5E
  8
WAKU
  6
CONTINUOUS
 10
460.19668787089557
 20
414.05227574567829
 30
0.0
 11
459.81757487089561
 21
413.95803574567771
 31
0.0
 12
460.20659987089562
 22
413.67707174567829
 32
0.0
 13
460.20659987089562
 23
413.67707174567829
 33
0.0
  0
SOLID
  5
5D5F
  8
WAKU
  6
CONTINUOUS
 10
459.81757487089561
 20
413.95803574567771
 30
0.0
 11
459.81213387089548
 21
413.6506467456777
 31
0.0
 12
460.20659987089562
 22
413.67707174567829
 32
0.0
 13
460.20659987089562
 23
413.67707174567829
 33
0.0
  0
LINE
  5
5D60
  8
WAKU
  6
CONTINUOUS
 10
460.0923848708947
 20
414.35874974567793
 30
0.0
 11
459.89752187089562
 21
414.5852347456775
 31
0.0
  0
LINE
  5
5D61
  8
WAKU
  6
CONTINUOUS
 10
460.20659987089562
 20
413.67707174567721
 30
0.0
 11
460.19668787089512
 21
414.05227574567772
 31
0.0
  0
LINE
  5
5D62
  8
WAKU
  6
CONTINUOUS
 10
460.19668787089512
 20
414.05227574567772
 30
0.0
 11
460.0923848708947
 21
414.35874974567793
 31
0.0
  0
LINE
  5
5D63
  8
WAKU
  6
CONTINUOUS
 10
459.81213387089508
 20
413.6506467456768
 30
0.0
 11
459.81757487089442
 21
413.95803574567771
 31
0.0
  0
LINE
  5
5D64
  8
WAKU
  6
CONTINUOUS
 10
459.81757487089442
 20
413.95803574567771
 30
0.0
 11
459.75872387089441
 21
414.15870074567761
 31
0.0
  0
LINE
  5
5D65
  8
WAKU
  6
CONTINUOUS
 10
459.75872387089441
 20
414.15870074567761
 30
0.0
 11
459.66058287089442
 21
414.27703174567802
 31
0.0
  0
LINE
  5
5D66
  8
WAKU
  6
CONTINUOUS
 10
459.58469787089513
 20
413.84276974567751
 30
0.0
 11
459.66058287089442
 21
414.27703174567802
 31
0.0
  0
LINE
  5
5D67
  8
WAKU
  6
CONTINUOUS
 10
459.89752187089562
 20
414.5852347456775
 30
0.0
 11
459.61925687089439
 21
414.72341274567742
 31
0.0
  0
LINE
  5
5D68
  8
WAKU
  6
CONTINUOUS
 10
459.61925687089439
 20
414.72341274567742
 30
0.0
 11
459.48107887089532
 21
415.00167774567768
 31
0.0
  0
LINE
  5
5D69
  8
WAKU
  6
CONTINUOUS
 10
459.18784387089522
 20
413.87118474567728
 30
0.0
 11
459.27500187089453
 21
414.37935174567758
 31
0.0
  0
LINE
  5
5D6A
  8
WAKU
  6
CONTINUOUS
 10
459.17271387089539
 20
414.76472674567748
 30
0.0
 11
459.0549208708951
 21
414.8627117456777
 31
0.0
  0
LINE
  5
5D6B
  8
WAKU
  6
CONTINUOUS
 10
459.25459387089558
 20
415.1965397456778
 30
0.0
 11
458.94812087089502
 21
415.30084274567793
 31
0.0
  0
SOLID
  5
5D6C
  8
WAKU
  6
CONTINUOUS
 10
459.05492087089539
 20
414.8627117456777
 30
0.0
 11
459.17271387089539
 21
414.76472674567799
 31
0.0
 12
459.61925687089558
 22
414.72341274567742
 32
0.0
 13
459.61925687089558
 23
414.72341274567742
 33
0.0
  0
SOLID
  5
5D6D
  8
WAKU
  6
CONTINUOUS
 10
459.89752187089562
 20
414.58523474567818
 30
0.0
 11
459.27500187089538
 21
414.37935174567758
 31
0.0
 12
460.09238487089573
 22
414.35874974567793
 32
0.0
 13
460.09238487089573
 23
414.35874974567793
 33
0.0
  0
SOLID
  5
5D6E
  8
WAKU
  6
CONTINUOUS
 10
459.27500187089538
 20
414.37935174567758
 30
0.0
 11
459.18784387089562
 21
413.87118474567808
 31
0.0
 12
459.66058287089538
 22
414.27703174567802
 32
0.0
 13
459.66058287089538
 23
414.27703174567802
 33
0.0
  0
SOLID
  5
5D6F
  8
WAKU
  6
CONTINUOUS
 10
459.27500187089538
 20
414.37935174567758
 30
0.0
 11
459.66058287089538
 21
414.27703174567802
 31
0.0
 12
460.09238487089573
 22
414.35874974567793
 32
0.0
 13
460.09238487089573
 23
414.35874974567793
 33
0.0
  0
SOLID
  5
5D70
  8
WAKU
  6
CONTINUOUS
 10
459.66058287089538
 20
414.27703174567802
 30
0.0
 11
459.18784387089562
 21
413.87118474567808
 31
0.0
 12
459.5846978708957
 22
413.84276974567808
 32
0.0
 13
459.5846978708957
 23
413.84276974567808
 33
0.0
  0
LINE
  5
5D71
  8
WAKU
  6
CONTINUOUS
 10
459.48107887089532
 20
415.00167774567768
 30
0.0
 11
459.25459387089558
 21
415.1965397456778
 31
0.0
  0
LINE
  5
5D72
  8
WAKU
  6
CONTINUOUS
 10
459.4125048708953
 20
413.36581274567772
 30
0.0
 11
459.58469787089513
 21
413.84276974567751
 31
0.0
  0
LINE
  5
5D73
  8
WAKU
  6
CONTINUOUS
 10
458.73840887089511
 20
414.68879674567768
 30
0.0
 11
458.26141187089507
 21
414.51655074567719
 31
0.0
  0
LINE
  5
5D74
  8
WAKU
  6
CONTINUOUS
 10
458.40103887089452
 20
411.86587174567728
 30
0.0
 11
458.80908887089561
 21
412.35801174567769
 31
0.0
  0
LINE
  5
5D75
  8
WAKU
  6
CONTINUOUS
 10
458.47601087089453
 20
412.56270274567771
 30
0.0
 11
458.91712587089501
 21
413.240316745678
 31
0.0
  0
LINE
  5
5D76
  8
WAKU
  6
CONTINUOUS
 10
458.85376887089512
 20
414.92168474567728
 30
0.0
 11
458.54662987089472
 21
414.91636374567759
 31
0.0
  0
SOLID
  5
5D77
  8
WAKU
  6
CONTINUOUS
 10
458.73840887089563
 20
414.68879674567802
 30
0.0
 11
458.26141187089547
 21
414.5165507456777
 31
0.0
 12
459.89752187089562
 22
414.58523474567818
 32
0.0
 13
459.89752187089562
 23
414.58523474567818
 33
0.0
  0
SOLID
  5
5D78
  8
WAKU
  6
CONTINUOUS
 10
459.89752187089562
 20
414.58523474567818
 30
0.0
 11
458.26141187089547
 21
414.5165507456777
 31
0.0
 12
459.27500187089538
 22
414.37935174567758
 32
0.0
 13
459.27500187089538
 23
414.37935174567758
 33
0.0
  0
SOLID
  5
5D79
  8
WAKU
  6
CONTINUOUS
 10
459.4125048708953
 20
413.36581274567772
 30
0.0
 11
458.91712587089592
 21
413.240316745678
 31
0.0
 12
459.15061587089508
 22
412.86447574567819
 32
0.0
 13
459.15061587089508
 23
412.86447574567819
 33
0.0
  0
SOLID
  5
5D7A
  8
WAKU
  6
CONTINUOUS
 10
459.18784387089562
 20
413.87118474567808
 30
0.0
 11
458.91712587089592
 21
413.240316745678
 31
0.0
 12
459.5846978708957
 22
413.84276974567808
 32
0.0
 13
459.5846978708957
 23
413.84276974567808
 33
0.0
  0
SOLID
  5
5D7B
  8
WAKU
  6
CONTINUOUS
 10
459.5846978708957
 20
413.84276974567808
 30
0.0
 11
458.91712587089592
 21
413.240316745678
 31
0.0
 12
459.4125048708953
 22
413.36581274567772
 32
0.0
 13
459.4125048708953
 23
413.36581274567772
 33
0.0
  0
LINE
  5
5D7C
  8
WAKU
  6
CONTINUOUS
 10
458.91712587089501
 20
413.240316745678
 30
0.0
 11
459.18784387089522
 21
413.87118474567728
 31
0.0
  0
SOLID
  5
5D7D
  8
WAKU
  6
CONTINUOUS
 10
458.91712587089592
 20
413.240316745678
 30
0.0
 11
458.47601087089538
 21
412.56270274567771
 31
0.0
 12
459.15061587089508
 22
412.86447574567819
 32
0.0
 13
459.15061587089508
 23
412.86447574567819
 33
0.0
  0
SOLID
  5
5D7E
  8
WAKU
  6
CONTINUOUS
 10
459.15061587089508
 20
412.86447574567819
 30
0.0
 11
458.47601087089538
 21
412.56270274567771
 31
0.0
 12
458.80908887089561
 22
412.35801174567769
 32
0.0
 13
458.80908887089561
 23
412.35801174567769
 33
0.0
  0
SOLID
  5
5D7F
  8
WAKU
  6
CONTINUOUS
 10
459.34645387089557
 20
411.79130274567802
 30
0.0
 11
458.45173787089561
 21
411.35601474567773
 31
0.0
 12
458.94610787089562
 22
411.3105267456782
 32
0.0
 13
458.94610787089562
 23
411.3105267456782
 33
0.0
  0
LINE
  5
5D80
  8
WAKU
  6
CONTINUOUS
 10
458.45173787089448
 20
411.35601474567773
 30
0.0
 11
459.24082287089561
 21
412.31450074567812
 31
0.0
  0
LINE
  5
5D81
  8
WAKU
  6
CONTINUOUS
 10
458.49730487089522
 20
410.8617237456773
 30
0.0
 11
458.94610787089471
 21
411.31052674567741
 31
0.0
  0
LINE
  5
5D82
  8
WAKU
  6
CONTINUOUS
 10
458.80908887089561
 20
412.35801174567769
 30
0.0
 11
459.15061587089508
 21
412.86447574567819
 31
0.0
  0
SOLID
  5
5D83
  8
WAKU
  6
CONTINUOUS
 10
459.24082287089561
 20
412.31450074567812
 30
0.0
 11
458.45173787089561
 21
411.35601474567773
 31
0.0
 12
459.68363787089561
 22
412.28639174567809
 32
0.0
 13
459.68363787089561
 23
412.28639174567809
 33
0.0
  0
SOLID
  5
5D84
  8
WAKU
  6
CONTINUOUS
 10
459.68363787089561
 20
412.28639174567809
 30
0.0
 11
458.45173787089561
 21
411.35601474567773
 31
0.0
 12
459.34645387089557
 22
411.79130274567802
 32
0.0
 13
459.34645387089557
 23
411.79130274567802
 33
0.0
  0
LINE
  5
5D85
  8
WAKU
  6
CONTINUOUS
 10
459.27500187089453
 20
414.37935174567758
 30
0.0
 11
458.76651087089539
 21
414.2920227456778
 31
0.0
  0
LINE
  5
5D86
  8
WAKU
  6
CONTINUOUS
 10
459.17271387089539
 20
414.76472674567748
 30
0.0
 11
458.73840887089511
 21
414.68879674567768
 31
0.0
  0
LINE
  5
5D87
  8
WAKU
  6
CONTINUOUS
 10
459.0549208708951
 20
414.8627117456777
 30
0.0
 11
458.85376887089512
 21
414.92168474567728
 31
0.0
  0
LINE
  5
5D88
  8
WAKU
  6
CONTINUOUS
 10
458.94812087089502
 20
415.30084274567793
 30
0.0
 11
458.57291587089509
 21
415.3107547456778
 31
0.0
  0
SOLID
  5
5D89
  8
WAKU
  6
CONTINUOUS
 10
459.48107887089571
 20
415.00167774567819
 30
0.0
 11
458.85376887089592
 21
414.92168474567819
 31
0.0
 12
459.61925687089558
 22
414.72341274567742
 32
0.0
 13
459.61925687089558
 23
414.72341274567742
 33
0.0
  0
SOLID
  5
5D8A
  8
WAKU
  6
CONTINUOUS
 10
458.85376887089592
 20
414.92168474567819
 30
0.0
 11
459.05492087089539
 21
414.8627117456777
 31
0.0
 12
459.61925687089558
 22
414.72341274567742
 32
0.0
 13
459.61925687089558
 23
414.72341274567742
 33
0.0
  0
SOLID
  5
5D8B
  8
WAKU
  6
CONTINUOUS
 10
459.17271387089539
 20
414.76472674567799
 30
0.0
 11
458.73840887089563
 21
414.68879674567802
 31
0.0
 12
459.61925687089558
 22
414.72341274567742
 32
0.0
 13
459.61925687089558
 23
414.72341274567742
 33
0.0
  0
SOLID
  5
5D8C
  8
WAKU
  6
CONTINUOUS
 10
459.61925687089558
 20
414.72341274567742
 30
0.0
 11
458.73840887089563
 21
414.68879674567802
 31
0.0
 12
459.89752187089562
 22
414.58523474567818
 32
0.0
 13
459.89752187089562
 23
414.58523474567818
 33
0.0
  0
SOLID
  5
5D8D
  8
WAKU
  6
CONTINUOUS
 10
455.75756787089563
 20
413.60145974567752
 30
0.0
 11
455.35722187089539
 21
413.12068374567798
 31
0.0
 12
456.25187087089569
 22
413.55589074567808
 32
0.0
 13
456.25187087089569
 23
413.55589074567808
 33
0.0
  0
SOLID
  5
5D8E
  8
WAKU
  6
CONTINUOUS
 10
456.25187087089569
 20
413.55589074567808
 30
0.0
 11
455.35722187089539
 21
413.12068374567798
 31
0.0
 12
455.46280787089557
 22
412.59735274567771
 32
0.0
 13
455.46280787089557
 23
412.59735274567771
 33
0.0
  0
LINE
  5
5D8F
  8
WAKU
  6
CONTINUOUS
 10
456.25187087089512
 20
413.55589074567729
 30
0.0
 11
455.46280787089472
 21
412.59735274567771
 31
0.0
  0
SOLID
  5
5D90
  8
WAKU
  6
CONTINUOUS
 10
456.30249287089578
 20
413.0459567456781
 30
0.0
 11
455.89444387089588
 21
412.55378274567772
 31
0.0
 12
456.80159987089559
 22
413.00567574567771
 32
0.0
 13
456.80159987089559
 23
413.00567574567771
 33
0.0
  0
SOLID
  5
5D91
  8
WAKU
  6
CONTINUOUS
 10
456.80159987089559
 20
413.00567574567771
 30
0.0
 11
455.89444387089588
 21
412.55378274567772
 31
0.0
 12
456.2276688708958
 22
412.34925374567808
 32
0.0
 13
456.2276688708958
 23
412.34925374567808
 33
0.0
  0
SOLID
  5
5D92
  8
WAKU
  6
CONTINUOUS
 10
455.89444387089588
 20
412.55378274567772
 30
0.0
 11
455.5529288708957
 21
412.0472917456778
 31
0.0
 12
456.2276688708958
 22
412.34925374567808
 32
0.0
 13
456.2276688708958
 23
412.34925374567808
 33
0.0
  0
SOLID
  5
5D93
  8
WAKU
  6
CONTINUOUS
 10
456.2276688708958
 20
412.34925374567808
 30
0.0
 11
455.5529288708957
 21
412.0472917456778
 31
0.0
 12
455.78648487089538
 22
411.67165774567809
 32
0.0
 13
455.78648487089538
 23
411.67165774567809
 33
0.0
  0
SOLID
  5
5D94
  8
WAKU
  6
CONTINUOUS
 10
456.56803587089581
 20
410.8911147456771
 30
0.0
 11
455.93716787089568
 21
410.61997774567772
 31
0.0
 12
456.94354287089539
 22
410.65732774567817
 32
0.0
 13
456.94354287089539
 23
410.65732774567817
 33
0.0
  0
SOLID
  5
5D95
  8
WAKU
  6
CONTINUOUS
 10
456.94354287089539
 20
410.65732774567817
 30
0.0
 11
455.93716787089568
 21
410.61997774567772
 31
0.0
 12
456.4422008708957
 22
410.3954077456782
 32
0.0
 13
456.4422008708957
 23
410.3954077456782
 33
0.0
  0
SOLID
  5
5D96
  8
WAKU
  6
CONTINUOUS
 10
455.93716787089568
 20
410.61997774567772
 30
0.0
 11
455.42868387089538
 21
410.53263874567813
 31
0.0
 12
456.4422008708957
 22
410.3954077456782
 32
0.0
 13
456.4422008708957
 23
410.3954077456782
 33
0.0
  0
SOLID
  5
5D97
  8
WAKU
  6
CONTINUOUS
 10
455.42868387089538
 20
410.53263874567813
 30
0.0
 11
454.80615387089563
 21
410.32675174567822
 31
0.0
 12
456.4422008708957
 22
410.3954077456782
 32
0.0
 13
456.4422008708957
 23
410.3954077456782
 33
0.0
  0
SOLID
  5
5D98
  8
WAKU
  6
CONTINUOUS
 10
456.4422008708957
 20
410.3954077456782
 30
0.0
 11
454.80615387089563
 21
410.32675174567822
 31
0.0
 12
455.96523087089508
 22
410.22317974567801
 32
0.0
 13
455.96523087089508
 23
410.22317974567801
 33
0.0
  0
SOLID
  5
5D99
  8
WAKU
  6
CONTINUOUS
 10
454.80615387089563
 20
410.32675174567822
 30
0.0
 11
455.08441887089589
 21
410.18857374567801
 31
0.0
 12
455.96523087089508
 22
410.22317974567801
 32
0.0
 13
455.96523087089508
 23
410.22317974567801
 33
0.0
  0
SOLID
  5
5D9A
  8
WAKU
  6
CONTINUOUS
 10
455.96523087089508
 20
410.22317974567801
 30
0.0
 11
455.08441887089589
 21
410.18857374567801
 31
0.0
 12
455.5309498708956
 22
410.14725874567807
 32
0.0
 13
455.5309498708956
 23
410.14725874567807
 33
0.0
  0
SOLID
  5
5D9B
  8
WAKU
  6
CONTINUOUS
 10
456.15706687089562
 20
409.99564574567802
 30
0.0
 11
455.84994987089573
 21
409.99028074567832
 31
0.0
 12
457.03022087089562
 22
409.86255574567809
 32
0.0
 13
457.03022087089562
 23
409.86255574567809
 33
0.0
  0
SOLID
  5
5D9C
  8
WAKU
  6
CONTINUOUS
 10
455.84994987089573
 20
409.99028074567832
 30
0.0
 11
455.2225968708957
 21
409.91030874567792
 31
0.0
 12
457.03022087089562
 22
409.86255574567809
 32
0.0
 13
457.03022087089562
 23
409.86255574567809
 33
0.0
  0
SOLID
  5
5D9D
  8
WAKU
  6
CONTINUOUS
 10
455.2225968708957
 20
409.91030874567792
 30
0.0
 11
455.44908187089561
 21
409.7154467456777
 31
0.0
 12
457.03022087089562
 22
409.86255574567809
 32
0.0
 13
457.03022087089562
 23
409.86255574567809
 33
0.0
  0
SOLID
  5
5D9E
  8
WAKU
  6
CONTINUOUS
 10
457.03022087089562
 20
409.86255574567809
 30
0.0
 11
455.44908187089561
 21
409.7154467456777
 31
0.0
 12
456.5609148708956
 22
409.68607374567802
 32
0.0
 13
456.5609148708956
 23
409.68607374567802
 33
0.0
  0
SOLID
  5
5D9F
  8
WAKU
  6
CONTINUOUS
 10
455.44908187089561
 20
409.7154467456777
 30
0.0
 11
455.75555487089559
 21
409.61114374567819
 31
0.0
 12
456.5609148708956
 22
409.68607374567802
 32
0.0
 13
456.5609148708956
 23
409.68607374567802
 33
0.0
  0
SOLID
  5
5DA0
  8
WAKU
  6
CONTINUOUS
 10
456.5609148708956
 20
409.68607374567802
 30
0.0
 11
455.75555487089559
 21
409.61114374567819
 31
0.0
 12
456.13075987089508
 22
409.60123174567792
 32
0.0
 13
456.13075987089508
 23
409.60123174567792
 33
0.0
  0
LINE
  5
5DA1
  8
WAKU
  6
CONTINUOUS
 10
455.5309498708956
 20
410.1472587456775
 30
0.0
 11
455.96523087089503
 21
410.22317974567801
 31
0.0
  0
LINE
  5
5DA2
  8
WAKU
  6
CONTINUOUS
 10
455.75555487089508
 20
409.61114374567819
 30
0.0
 11
456.13075987089508
 21
409.60123174567792
 31
0.0
  0
LINE
  5
5DA3
  8
WAKU
  6
CONTINUOUS
 10
455.93716787089483
 20
410.61997774567772
 30
0.0
 11
456.56803587089507
 21
410.8911147456771
 31
0.0
  0
LINE
  5
5DA4
  8
WAKU
  6
CONTINUOUS
 10
455.8499498708951
 20
409.99028074567741
 30
0.0
 11
456.15706687089562
 21
409.99564574567768
 31
0.0
  0
LINE
  5
5DA5
  8
WAKU
  6
CONTINUOUS
 10
456.22766887089512
 20
412.34925374567808
 30
0.0
 11
455.7864848708947
 21
411.67165774567752
 31
0.0
  0
LINE
  5
5DA6
  8
WAKU
  6
CONTINUOUS
 10
456.30249287089561
 20
413.04595674567759
 30
0.0
 11
455.89444387089532
 21
412.55378274567772
 31
0.0
  0
SOLID
  5
5DA7
  8
WAKU
  6
CONTINUOUS
 10
456.20637187089562
 20
414.05026274567751
 30
0.0
 11
455.75756787089563
 21
413.60145974567752
 31
0.0
 12
456.25187087089569
 22
413.55589074567808
 32
0.0
 13
456.25187087089569
 23
413.55589074567808
 33
0.0
  0
LINE
  5
5DA8
  8
WAKU
  6
CONTINUOUS
 10
456.20637187089523
 20
414.05026274567729
 30
0.0
 11
455.75756787089563
 21
413.60145974567752
 31
0.0
  0
LINE
  5
5DA9
  8
WAKU
  6
CONTINUOUS
 10
455.75756787089563
 20
413.60145974567752
 30
0.0
 11
455.35722187089539
 21
413.1206837456777
 31
0.0
  0
SOLID
  5
5DAA
  8
WAKU
  6
CONTINUOUS
 10
455.35722187089539
 20
413.12068374567798
 30
0.0
 11
455.02003787089512
 21
412.62559474567809
 31
0.0
 12
455.46280787089557
 22
412.59735274567771
 32
0.0
 13
455.46280787089557
 23
412.59735274567771
 33
0.0
  0
SOLID
  5
5DAB
  8
WAKU
  6
CONTINUOUS
 10
455.02003787089512
 20
412.62559474567809
 30
0.0
 11
454.75839987089557
 21
412.13437574567752
 31
0.0
 12
455.46280787089557
 22
412.59735274567771
 32
0.0
 13
455.46280787089557
 23
412.59735274567771
 33
0.0
  0
SOLID
  5
5DAC
  8
WAKU
  6
CONTINUOUS
 10
455.46280787089557
 20
412.59735274567771
 30
0.0
 11
454.75839987089557
 21
412.13437574567752
 31
0.0
 12
455.17929187089538
 22
412.1118107456781
 32
0.0
 13
455.17929187089538
 23
412.1118107456781
 33
0.0
  0
SOLID
  5
5DAD
  8
WAKU
  6
CONTINUOUS
 10
455.5529288708957
 20
412.0472917456778
 30
0.0
 11
455.29106587089558
 21
411.54593674567798
 31
0.0
 12
455.78648487089538
 22
411.67165774567809
 32
0.0
 13
455.78648487089538
 23
411.67165774567809
 33
0.0
  0
SOLID
  5
5DAE
  8
WAKU
  6
CONTINUOUS
 10
455.78648487089538
 20
411.67165774567809
 30
0.0
 11
455.29106587089558
 21
411.54593674567798
 31
0.0
 12
455.51594087089558
 22
411.04075174567799
 32
0.0
 13
455.51594087089558
 23
411.04075174567799
 33
0.0
  0
SOLID
  5
5DAF
  8
WAKU
  6
CONTINUOUS
 10
455.29106587089558
 20
411.54593674567798
 30
0.0
 11
455.1189118708956
 21
411.06897174567769
 31
0.0
 12
455.51594087089558
 22
411.04075174567799
 32
0.0
 13
455.51594087089558
 23
411.04075174567799
 33
0.0
  0
SOLID
  5
5DB0
  8
WAKU
  6
CONTINUOUS
 10
455.1189118708956
 20
411.06897174567769
 30
0.0
 11
455.04307787089562
 21
410.63471774567802
 31
0.0
 12
455.51594087089558
 22
411.04075174567799
 32
0.0
 13
455.51594087089558
 23
411.04075174567799
 33
0.0
  0
SOLID
  5
5DB1
  8
WAKU
  6
CONTINUOUS
 10
455.51594087089558
 20
411.04075174567799
 30
0.0
 11
455.04307787089562
 21
410.63471774567802
 31
0.0
 12
455.42868387089538
 22
410.53263874567813
 32
0.0
 13
455.42868387089538
 23
410.53263874567813
 33
0.0
  0
SOLID
  5
5DB2
  8
WAKU
  6
CONTINUOUS
 10
455.08441887089589
 20
410.18857374567801
 30
0.0
 11
455.2225968708957
 21
409.91030874567792
 31
0.0
 12
455.5309498708956
 22
410.14725874567807
 32
0.0
 13
455.5309498708956
 23
410.14725874567807
 33
0.0
  0
SOLID
  5
5DB3
  8
WAKU
  6
CONTINUOUS
 10
455.5309498708956
 20
410.14725874567807
 30
0.0
 11
455.2225968708957
 21
409.91030874567792
 31
0.0
 12
455.6486998708956
 22
410.04935074567823
 32
0.0
 13
455.6486998708956
 23
410.04935074567823
 33
0.0
  0
SOLID
  5
5DB4
  8
WAKU
  6
CONTINUOUS
 10
455.6486998708956
 20
410.04935074567823
 30
0.0
 11
455.2225968708957
 21
409.91030874567792
 31
0.0
 12
455.84994987089573
 22
409.99028074567832
 32
0.0
 13
455.84994987089573
 23
409.99028074567832
 33
0.0
  0
LINE
  5
5DB5
  8
WAKU
  6
CONTINUOUS
 10
455.55292887089479
 20
412.0472917456778
 30
0.0
 11
455.29106587089518
 21
411.54593674567769
 31
0.0
  0
LINE
  5
5DB6
  8
WAKU
  6
CONTINUOUS
 10
454.98726287089562
 20
411.65680374567768
 30
0.0
 11
454.89146887089561
 21
411.26118674567761
 31
0.0
  0
LINE
  5
5DB7
  8
WAKU
  6
CONTINUOUS
 10
455.7864848708947
 20
411.67165774567752
 30
0.0
 11
455.51594087089558
 21
411.0407517456772
 31
0.0
  0
LINE
  5
5DB8
  8
WAKU
  6
CONTINUOUS
 10
455.51594087089558
 20
411.0407517456772
 30
0.0
 11
455.4286838708951
 21
410.53263874567801
 31
0.0
  0
LINE
  5
5DB9
  8
WAKU
  6
CONTINUOUS
 10
454.80615387089563
 20
410.32675174567822
 30
0.0
 11
455.08441887089509
 21
410.18857374567727
 31
0.0
  0
LINE
  5
5DBA
  8
WAKU
  6
CONTINUOUS
 10
455.08441887089509
 20
410.18857374567727
 30
0.0
 11
455.2225968708953
 21
409.91030874567792
 31
0.0
  0
LINE
  5
5DBB
  8
WAKU
  6
CONTINUOUS
 10
455.2225968708953
 20
409.91030874567792
 30
0.0
 11
455.44908187089538
 21
409.7154467456777
 31
0.0
  0
LINE
  5
5DBC
  8
WAKU
  6
CONTINUOUS
 10
455.44908187089538
 20
409.7154467456777
 30
0.0
 11
455.75555487089508
 21
409.61114374567819
 31
0.0
  0
LINE
  5
5DBD
  8
WAKU
  6
CONTINUOUS
 10
455.29106587089518
 20
411.54593674567769
 30
0.0
 11
455.1189118708956
 21
411.06897174567769
 31
0.0
  0
LINE
  5
5DBE
  8
WAKU
  6
CONTINUOUS
 10
455.1189118708956
 20
411.06897174567769
 30
0.0
 11
455.04307787089562
 21
410.63471774567751
 31
0.0
  0
LINE
  5
5DBF
  8
WAKU
  6
CONTINUOUS
 10
455.4286838708951
 20
410.53263874567801
 30
0.0
 11
455.93716787089483
 21
410.61997774567772
 31
0.0
  0
LINE
  5
5DC0
  8
WAKU
  6
CONTINUOUS
 10
454.89146887089561
 20
411.26118674567761
 30
0.0
 11
454.88613087089448
 21
410.9538697456772
 31
0.0
  0
LINE
  5
5DC1
  8
WAKU
  6
CONTINUOUS
 10
454.88613087089448
 20
410.9538697456772
 30
0.0
 11
454.94492787089558
 21
410.75321774567772
 31
0.0
  0
LINE
  5
5DC2
  8
WAKU
  6
CONTINUOUS
 10
454.94492787089558
 20
410.75321774567772
 30
0.0
 11
455.04307787089562
 21
410.63471774567751
 31
0.0
  0
LINE
  5
5DC3
  8
WAKU
  6
CONTINUOUS
 10
455.5309498708956
 20
410.1472587456775
 30
0.0
 11
455.6486998708956
 21
410.04935074567823
 31
0.0
  0
LINE
  5
5DC4
  8
WAKU
  6
CONTINUOUS
 10
455.6486998708956
 20
410.04935074567823
 30
0.0
 11
455.8499498708951
 21
409.99028074567741
 31
0.0
  0
LINE
  5
5DC5
  8
WAKU
  6
CONTINUOUS
 10
455.89444387089532
 20
412.55378274567772
 30
0.0
 11
455.55292887089479
 21
412.0472917456778
 31
0.0
  0
LINE
  5
5DC6
  8
WAKU
  6
CONTINUOUS
 10
455.46280787089472
 20
412.59735274567771
 30
0.0
 11
455.17929187089447
 21
412.1118107456781
 31
0.0
  0
LINE
  5
5DC7
  8
WAKU
  6
CONTINUOUS
 10
455.17929187089447
 20
412.1118107456781
 30
0.0
 11
454.98726287089562
 21
411.65680374567768
 31
0.0
  0
LINE
  5
5DC8
  8
WAKU
  6
CONTINUOUS
 10
455.02003787089478
 20
412.62559474567809
 30
0.0
 11
454.75839987089557
 21
412.13437574567752
 31
0.0
  0
LINE
  5
5DC9
  8
WAKU
  6
CONTINUOUS
 10
455.35722187089539
 20
413.1206837456777
 30
0.0
 11
455.02003787089478
 21
412.62559474567809
 31
0.0
  0
LINE
  5
5DCA
  8
WAKU
  6
CONTINUOUS
 10
454.58191887089453
 20
411.66506974567727
 30
0.0
 11
454.49707587089563
 21
411.234914745678
 31
0.0
  0
LINE
  5
5DCB
  8
WAKU
  6
CONTINUOUS
 10
454.49707587089563
 20
411.234914745678
 30
0.0
 11
454.50698787089539
 21
410.85971074567772
 31
0.0
  0
LINE
  5
5DCC
  8
WAKU
  6
CONTINUOUS
 10
454.50698787089539
 20
410.85971074567772
 30
0.0
 11
454.61129087089557
 21
410.55323674567768
 31
0.0
  0
SOLID
  5
5DCD
  8
WAKU
  6
CONTINUOUS
 10
454.75839987089557
 20
412.13437574567752
 30
0.0
 11
454.58191887089538
 21
411.66506974567812
 31
0.0
 12
455.17929187089538
 22
412.1118107456781
 32
0.0
 13
455.17929187089538
 23
412.1118107456781
 33
0.0
  0
SOLID
  5
5DCE
  8
WAKU
  6
CONTINUOUS
 10
455.17929187089538
 20
412.1118107456781
 30
0.0
 11
454.58191887089538
 21
411.66506974567812
 31
0.0
 12
454.98726287089562
 22
411.65680374567768
 32
0.0
 13
454.98726287089562
 23
411.65680374567768
 33
0.0
  0
SOLID
  5
5DCF
  8
WAKU
  6
CONTINUOUS
 10
454.58191887089538
 20
411.66506974567812
 30
0.0
 11
454.49707587089512
 21
411.234914745678
 31
0.0
 12
454.98726287089562
 22
411.65680374567768
 32
0.0
 13
454.98726287089562
 23
411.65680374567768
 33
0.0
  0
SOLID
  5
5DD0
  8
WAKU
  6
CONTINUOUS
 10
454.98726287089562
 20
411.65680374567768
 30
0.0
 11
454.49707587089512
 21
411.234914745678
 31
0.0
 12
454.89146887089561
 22
411.26118674567829
 32
0.0
 13
454.89146887089561
 23
411.26118674567829
 33
0.0
  0
SOLID
  5
5DD1
  8
WAKU
  6
CONTINUOUS
 10
454.89146887089561
 20
411.26118674567829
 30
0.0
 11
454.49707587089512
 21
411.234914745678
 31
0.0
 12
454.88613087089561
 22
410.95386974567799
 32
0.0
 13
454.88613087089561
 23
410.95386974567799
 33
0.0
  0
SOLID
  5
5DD2
  8
WAKU
  6
CONTINUOUS
 10
454.49707587089512
 20
411.234914745678
 30
0.0
 11
454.50698787089561
 21
410.85971074567772
 31
0.0
 12
454.88613087089561
 22
410.95386974567799
 32
0.0
 13
454.88613087089561
 23
410.95386974567799
 33
0.0
  0
SOLID
  5
5DD3
  8
WAKU
  6
CONTINUOUS
 10
454.88613087089561
 20
410.95386974567799
 30
0.0
 11
454.50698787089561
 21
410.85971074567772
 31
0.0
 12
454.94492787089558
 22
410.75321774567772
 32
0.0
 13
454.94492787089558
 23
410.75321774567772
 33
0.0
  0
SOLID
  5
5DD4
  8
WAKU
  6
CONTINUOUS
 10
454.50698787089561
 20
410.85971074567772
 30
0.0
 11
454.61129087089557
 21
410.55323674567768
 31
0.0
 12
454.94492787089558
 22
410.75321774567772
 32
0.0
 13
454.94492787089558
 23
410.75321774567772
 33
0.0
  0
SOLID
  5
5DD5
  8
WAKU
  6
CONTINUOUS
 10
454.94492787089558
 20
410.75321774567772
 30
0.0
 11
454.61129087089557
 21
410.55323674567768
 31
0.0
 12
455.04307787089562
 22
410.63471774567802
 32
0.0
 13
455.04307787089562
 23
410.63471774567802
 33
0.0
  0
SOLID
  5
5DD6
  8
WAKU
  6
CONTINUOUS
 10
455.04307787089562
 20
410.63471774567802
 30
0.0
 11
454.61129087089557
 21
410.55323674567768
 31
0.0
 12
455.42868387089538
 22
410.53263874567813
 32
0.0
 13
455.42868387089538
 23
410.53263874567813
 33
0.0
  0
SOLID
  5
5DD7
  8
WAKU
  6
CONTINUOUS
 10
454.61129087089557
 20
410.55323674567768
 30
0.0
 11
454.80615387089563
 21
410.32675174567822
 31
0.0
 12
455.42868387089538
 22
410.53263874567813
 32
0.0
 13
455.42868387089538
 23
410.53263874567813
 33
0.0
  0
LINE
  5
5DD8
  8
WAKU
  6
CONTINUOUS
 10
454.61129087089557
 20
410.55323674567768
 30
0.0
 11
454.80615387089563
 21
410.32675174567822
 31
0.0
  0
LINE
  5
5DD9
  8
WAKU
  6
CONTINUOUS
 10
454.75839987089557
 20
412.13437574567752
 30
0.0
 11
454.58191887089453
 21
411.66506974567727
 31
0.0
  0
SOLID
  5
5DDA
  8
WAKU
  6
CONTINUOUS
 10
457.45795387089561
 20
413.57977374567821
 30
0.0
 11
456.76140487089538
 21
413.50491074567771
 31
0.0
 12
456.80159987089559
 22
413.00567574567771
 32
0.0
 13
456.80159987089559
 23
413.00567574567771
 33
0.0
  0
SOLID
  5
5DDB
  8
WAKU
  6
CONTINUOUS
 10
456.76140487089538
 20
413.50491074567771
 30
0.0
 11
456.30249287089578
 21
413.0459567456781
 31
0.0
 12
456.80159987089559
 22
413.00567574567771
 32
0.0
 13
456.80159987089559
 23
413.00567574567771
 33
0.0
  0
LINE
  5
5DDC
  8
WAKU
  6
CONTINUOUS
 10
456.76140487089452
 20
413.50491074567771
 30
0.0
 11
456.30249287089561
 21
413.04595674567759
 31
0.0
  0
LINE
  5
5DDD
  8
WAKU
  6
CONTINUOUS
 10
457.45795387089561
 20
413.57977374567758
 30
0.0
 11
456.80159987089559
 21
413.00567574567771
 31
0.0
  0
SOLID
  5
5DDE
  8
WAKU
  6
CONTINUOUS
 10
457.94213587089558
 20
411.40695374567758
 30
0.0
 11
457.24571287089589
 21
411.33221374567819
 31
0.0
 12
457.45000487089561
 22
410.99888174567798
 32
0.0
 13
457.45000487089561
 23
410.99888174567798
 33
0.0
  0
SOLID
  5
5DDF
  8
WAKU
  6
CONTINUOUS
 10
457.24571287089589
 20
411.33221374567819
 30
0.0
 11
456.56803587089581
 21
410.8911147456771
 31
0.0
 12
457.45000487089561
 22
410.99888174567798
 32
0.0
 13
457.45000487089561
 23
410.99888174567798
 33
0.0
  0
SOLID
  5
5DE0
  8
WAKU
  6
CONTINUOUS
 10
457.45000487089561
 20
410.99888174567798
 30
0.0
 11
456.56803587089581
 21
410.8911147456771
 31
0.0
 12
456.94354287089539
 22
410.65732774567817
 32
0.0
 13
456.94354287089539
 23
410.65732774567817
 33
0.0
  0
SOLID
  5
5DE1
  8
WAKU
  6
CONTINUOUS
 10
457.49326987089557
 20
410.56689974567769
 30
0.0
 11
457.00765487089518
 21
410.28358074567751
 31
0.0
 12
458.01652887089563
 22
410.46137774567819
 32
0.0
 13
458.01652887089563
 23
410.46137774567819
 33
0.0
  0
SOLID
  5
5DE2
  8
WAKU
  6
CONTINUOUS
 10
458.01652887089563
 20
410.46137774567819
 30
0.0
 11
457.00765487089518
 21
410.28358074567751
 31
0.0
 12
457.52143887089562
 22
410.1241937456781
 32
0.0
 13
457.52143887089562
 23
410.1241937456781
 33
0.0
  0
SOLID
  5
5DE3
  8
WAKU
  6
CONTINUOUS
 10
457.00765487089518
 20
410.28358074567751
 30
0.0
 11
456.55275687089471
 21
410.09115074567819
 31
0.0
 12
457.52143887089562
 22
410.1241937456781
 32
0.0
 13
457.52143887089562
 23
410.1241937456781
 33
0.0
  0
SOLID
  5
5DE4
  8
WAKU
  6
CONTINUOUS
 10
457.52143887089562
 20
410.1241937456781
 30
0.0
 11
456.55275687089471
 21
410.09115074567819
 31
0.0
 12
457.03022087089562
 22
409.86255574567809
 32
0.0
 13
457.03022087089562
 23
409.86255574567809
 33
0.0
  0
LINE
  5
5DE5
  8
WAKU
  6
CONTINUOUS
 10
457.24571287089429
 20
411.33221374567728
 30
0.0
 11
457.90206887089562
 21
411.90628874567761
 31
0.0
  0
LINE
  5
5DE6
  8
WAKU
  6
CONTINUOUS
 10
456.94354287089448
 20
410.65732774567772
 30
0.0
 11
457.45000487089561
 21
410.99888174567792
 31
0.0
  0
LINE
  5
5DE7
  8
WAKU
  6
CONTINUOUS
 10
457.03022087089471
 20
409.86255574567758
 30
0.0
 11
457.52143887089522
 21
410.1241937456777
 31
0.0
  0
LINE
  5
5DE8
  8
WAKU
  6
CONTINUOUS
 10
457.00765487089518
 20
410.28358074567751
 30
0.0
 11
457.49326987089512
 21
410.56689974567769
 31
0.0
  0
SOLID
  5
5DE9
  8
WAKU
  6
CONTINUOUS
 10
456.55275687089471
 20
410.09115074567819
 30
0.0
 11
456.15706687089562
 21
409.99564574567802
 31
0.0
 12
457.03022087089562
 22
409.86255574567809
 32
0.0
 13
457.03022087089562
 23
409.86255574567809
 33
0.0
  0
LINE
  5
5DEA
  8
WAKU
  6
CONTINUOUS
 10
456.15706687089562
 20
409.99564574567768
 30
0.0
 11
456.55275687089562
 21
410.09115074567768
 31
0.0
  0
LINE
  5
5DEB
  8
WAKU
  6
CONTINUOUS
 10
455.96523087089503
 20
410.22317974567801
 30
0.0
 11
456.4422008708944
 21
410.3954077456782
 31
0.0
  0
LINE
  5
5DEC
  8
WAKU
  6
CONTINUOUS
 10
456.4422008708944
 20
410.3954077456782
 30
0.0
 11
456.94354287089448
 21
410.65732774567772
 31
0.0
  0
LINE
  5
5DED
  8
WAKU
  6
CONTINUOUS
 10
456.5609148708956
 20
409.68607374567802
 30
0.0
 11
457.03022087089471
 21
409.86255574567758
 31
0.0
  0
LINE
  5
5DEE
  8
WAKU
  6
CONTINUOUS
 10
456.56803587089507
 20
410.8911147456771
 30
0.0
 11
457.24571287089429
 21
411.33221374567728
 31
0.0
  0
LINE
  5
5DEF
  8
WAKU
  6
CONTINUOUS
 10
456.55275687089562
 20
410.09115074567768
 30
0.0
 11
457.00765487089518
 21
410.28358074567751
 31
0.0
  0
LINE
  5
5DF0
  8
WAKU
  6
CONTINUOUS
 10
456.13075987089508
 20
409.60123174567792
 30
0.0
 11
456.5609148708956
 21
409.68607374567802
 31
0.0
  0
LINE
  5
5DF1
  8
WAKU
  6
CONTINUOUS
 10
456.80159987089559
 20
413.00567574567771
 30
0.0
 11
456.22766887089512
 21
412.34925374567808
 31
0.0
  0
LINE
  5
5DF2
  8
WAKU
  6
CONTINUOUS
 10
457.52143887089522
 20
410.1241937456777
 30
0.0
 11
458.01652887089563
 21
410.46137774567751
 31
0.0
  0
LINE
  5
5DF3
  8
WAKU
  6
CONTINUOUS
 10
457.45000487089561
 20
410.99888174567792
 30
0.0
 11
457.9421358708953
 21
411.40695374567758
 31
0.0
  0
SOLID
  5
5DF4
  8
WAKU
  6
CONTINUOUS
 10
458.15091287089592
 20
414.82084774567818
 30
0.0
 11
457.18223687089562
 21
414.78779274567802
 31
0.0
 12
457.69600787089507
 22
414.6283677456783
 32
0.0
 13
457.69600787089507
 23
414.6283677456783
 33
0.0
  0
SOLID
  5
5DF5
  8
WAKU
  6
CONTINUOUS
 10
457.18223687089562
 20
414.78779274567802
 30
0.0
 11
456.68714687089539
 21
414.4506087456781
 31
0.0
 12
457.69600787089507
 22
414.6283677456783
 32
0.0
 13
457.69600787089507
 23
414.6283677456783
 33
0.0
  0
SOLID
  5
5DF6
  8
WAKU
  6
CONTINUOUS
 10
457.69600787089507
 20
414.6283677456783
 30
0.0
 11
456.68714687089539
 21
414.4506087456781
 31
0.0
 12
457.21035987089562
 22
414.34506674567808
 32
0.0
 13
457.21035987089562
 23
414.34506674567808
 33
0.0
  0
SOLID
  5
5DF7
  8
WAKU
  6
CONTINUOUS
 10
457.76004187089558
 20
414.25460374567729
 30
0.0
 11
457.25355587089558
 21
413.91301774567802
 31
0.0
 12
458.13565087089569
 22
414.02083974567768
 32
0.0
 13
458.13565087089569
 23
414.02083974567768
 33
0.0
  0
LINE
  5
5DF8
  8
WAKU
  6
CONTINUOUS
 10
457.69600787089507
 20
414.62836774567711
 30
0.0
 11
457.21035987089562
 21
414.34506674567729
 31
0.0
  0
LINE
  5
5DF9
  8
WAKU
  6
CONTINUOUS
 10
457.76004187089518
 20
414.25460374567729
 30
0.0
 11
457.25355587089558
 21
413.91301774567768
 31
0.0
  0
LINE
  5
5DFA
  8
WAKU
  6
CONTINUOUS
 10
457.67345587089471
 20
415.0494307456778
 30
0.0
 11
457.18223687089471
 21
414.78779274567802
 31
0.0
  0
SOLID
  5
5DFB
  8
WAKU
  6
CONTINUOUS
 10
458.13565087089569
 20
414.02083974567768
 30
0.0
 11
457.25355587089558
 21
413.91301774567802
 31
0.0
 12
457.45795387089561
 22
413.57977374567821
 32
0.0
 13
457.45795387089561
 23
413.57977374567821
 33
0.0
  0
SOLID
  5
5DFC
  8
WAKU
  6
CONTINUOUS
 10
457.25355587089558
 20
413.91301774567802
 30
0.0
 11
456.76140487089538
 21
413.50491074567771
 31
0.0
 12
457.45795387089561
 22
413.57977374567821
 32
0.0
 13
457.45795387089561
 23
413.57977374567821
 33
0.0
  0
SOLID
  5
5DFD
  8
WAKU
  6
CONTINUOUS
 10
456.68714687089539
 20
414.4506087456781
 30
0.0
 11
456.20637187089562
 21
414.05026274567751
 31
0.0
 12
457.21035987089562
 22
414.34506674567808
 32
0.0
 13
457.21035987089562
 23
414.34506674567808
 33
0.0
  0
LINE
  5
5DFE
  8
WAKU
  6
CONTINUOUS
 10
456.68714687089539
 20
414.4506087456781
 30
0.0
 11
456.20637187089523
 21
414.05026274567729
 31
0.0
  0
LINE
  5
5DFF
  8
WAKU
  6
CONTINUOUS
 10
457.18223687089471
 20
414.78779274567802
 30
0.0
 11
456.68714687089539
 21
414.4506087456781
 31
0.0
  0
SOLID
  5
5E00
  8
WAKU
  6
CONTINUOUS
 10
457.21035987089562
 20
414.34506674567808
 30
0.0
 11
456.20637187089562
 21
414.05026274567751
 31
0.0
 12
456.25187087089569
 22
413.55589074567808
 32
0.0
 13
456.25187087089569
 23
413.55589074567808
 33
0.0
  0
LINE
  5
5E01
  8
WAKU
  6
CONTINUOUS
 10
457.25355587089558
 20
413.91301774567768
 30
0.0
 11
456.76140487089452
 21
413.50491074567771
 31
0.0
  0
LINE
  5
5E02
  8
WAKU
  6
CONTINUOUS
 10
457.21035987089562
 20
414.34506674567729
 30
0.0
 11
456.25187087089512
 21
413.55589074567729
 31
0.0
  0
LINE
  5
5E03
  8
WAKU
  6
CONTINUOUS
 10
458.15091287089592
 20
414.82084774567818
 30
0.0
 11
457.69600787089507
 21
414.62836774567711
 31
0.0
  0
LINE
  5
5E04
  8
WAKU
  6
CONTINUOUS
 10
458.14276087089462
 20
415.22591174567771
 30
0.0
 11
457.67345587089471
 21
415.0494307456778
 31
0.0
  0
LINE
  5
5E05
  8
WAKU
  6
CONTINUOUS
 10
458.13565087089512
 20
414.02083974567768
 30
0.0
 11
457.45795387089561
 21
413.57977374567758
 31
0.0
  0
SOLID
  5
5E06
  8
WAKU
  6
CONTINUOUS
 10
457.90206887089562
 20
411.90628874567801
 30
0.0
 11
457.24571287089589
 21
411.33221374567819
 31
0.0
 12
458.40103887089572
 22
411.86587174567808
 32
0.0
 13
458.40103887089572
 23
411.86587174567808
 33
0.0
  0
SOLID
  5
5E07
  8
WAKU
  6
CONTINUOUS
 10
458.40103887089572
 20
411.86587174567808
 30
0.0
 11
457.24571287089589
 21
411.33221374567819
 31
0.0
 12
457.94213587089558
 22
411.40695374567758
 32
0.0
 13
457.94213587089558
 23
411.40695374567758
 33
0.0
  0
SOLID
  5
5E08
  8
WAKU
  6
CONTINUOUS
 10
458.47601087089538
 20
412.56270274567771
 30
0.0
 11
457.90206887089562
 21
411.90628874567801
 31
0.0
 12
458.80908887089561
 22
412.35801174567769
 32
0.0
 13
458.80908887089561
 23
412.35801174567769
 33
0.0
  0
SOLID
  5
5E09
  8
WAKU
  6
CONTINUOUS
 10
458.80908887089561
 20
412.35801174567769
 30
0.0
 11
457.90206887089562
 21
411.90628874567801
 31
0.0
 12
458.40103887089572
 22
411.86587174567808
 32
0.0
 13
458.40103887089572
 23
411.86587174567808
 33
0.0
  0
SOLID
  5
5E0A
  8
WAKU
  6
CONTINUOUS
 10
458.49730487089562
 20
410.86172374567798
 30
0.0
 11
457.49326987089557
 21
410.56689974567769
 31
0.0
 12
458.01652887089563
 22
410.46137774567819
 32
0.0
 13
458.01652887089563
 23
410.46137774567819
 33
0.0
  0
LINE
  5
5E0B
  8
WAKU
  6
CONTINUOUS
 10
457.9421358708953
 20
411.40695374567758
 30
0.0
 11
458.40103887089452
 21
411.86587174567728
 31
0.0
  0
LINE
  5
5E0C
  8
WAKU
  6
CONTINUOUS
 10
457.49326987089512
 20
410.56689974567769
 30
0.0
 11
458.45173787089448
 21
411.35601474567773
 31
0.0
  0
LINE
  5
5E0D
  8
WAKU
  6
CONTINUOUS
 10
458.01652887089563
 20
410.46137774567751
 30
0.0
 11
458.49730487089522
 21
410.8617237456773
 31
0.0
  0
LINE
  5
5E0E
  8
WAKU
  6
CONTINUOUS
 10
457.90206887089562
 20
411.90628874567761
 30
0.0
 11
458.47601087089453
 21
412.56270274567771
 31
0.0
  0
SOLID
  5
5E0F
  8
WAKU
  6
CONTINUOUS
 10
457.67345587089562
 20
415.0494307456778
 30
0.0
 11
457.18223687089562
 21
414.78779274567802
 31
0.0
 12
458.54662987089472
 22
414.9163637456781
 32
0.0
 13
458.54662987089472
 23
414.9163637456781
 33
0.0
  0
SOLID
  5
5E10
  8
WAKU
  6
CONTINUOUS
 10
458.54662987089472
 20
414.9163637456781
 30
0.0
 11
457.18223687089562
 21
414.78779274567802
 31
0.0
 12
458.15091287089592
 22
414.82084774567818
 32
0.0
 13
458.15091287089592
 23
414.82084774567818
 33
0.0
  0
SOLID
  5
5E11
  8
WAKU
  6
CONTINUOUS
 10
457.67345587089562
 20
415.0494307456778
 30
0.0
 11
458.54662987089472
 21
414.9163637456781
 31
0.0
 12
458.85376887089592
 22
414.92168474567819
 32
0.0
 13
458.85376887089592
 23
414.92168474567819
 33
0.0
  0
SOLID
  5
5E12
  8
WAKU
  6
CONTINUOUS
 10
458.76651087089539
 20
414.2920227456782
 30
0.0
 11
457.76004187089558
 21
414.25460374567729
 31
0.0
 12
458.13565087089569
 22
414.02083974567768
 32
0.0
 13
458.13565087089569
 23
414.02083974567768
 33
0.0
  0
LINE
  5
5E13
  8
WAKU
  6
CONTINUOUS
 10
458.76651087089539
 20
414.2920227456778
 30
0.0
 11
458.13565087089512
 21
414.02083974567768
 31
0.0
  0
LINE
  5
5E14
  8
WAKU
  6
CONTINUOUS
 10
458.54662987089472
 20
414.91636374567759
 30
0.0
 11
458.15091287089592
 21
414.82084774567818
 31
0.0
  0
LINE
  5
5E15
  8
WAKU
  6
CONTINUOUS
 10
458.57291587089509
 20
415.3107547456778
 30
0.0
 11
458.14276087089462
 21
415.22591174567771
 31
0.0
  0
LINE
  5
5E16
  8
WAKU
  6
CONTINUOUS
 10
458.26141187089507
 20
414.51655074567719
 30
0.0
 11
457.76004187089518
 21
414.25460374567729
 31
0.0
  0
SOLID
  5
5E17
  8
WAKU
  6
CONTINUOUS
 10
458.45173787089561
 20
411.35601474567773
 30
0.0
 11
457.49326987089557
 21
410.56689974567769
 31
0.0
 12
458.94610787089562
 22
411.3105267456782
 32
0.0
 13
458.94610787089562
 23
411.3105267456782
 33
0.0
  0
SOLID
  5
5E18
  8
WAKU
  6
CONTINUOUS
 10
458.94610787089562
 20
411.3105267456782
 30
0.0
 11
457.49326987089557
 21
410.56689974567769
 31
0.0
 12
458.49730487089562
 22
410.86172374567798
 32
0.0
 13
458.49730487089562
 23
410.86172374567798
 33
0.0
  0
SOLID
  5
5E19
  8
WAKU
  6
CONTINUOUS
 10
458.57291587089588
 20
415.3107547456782
 30
0.0
 11
458.14276087089559
 21
415.22591174567799
 31
0.0
 12
458.94812087089508
 22
415.30084274567798
 32
0.0
 13
458.94812087089508
 23
415.30084274567798
 33
0.0
  0
SOLID
  5
5E1A
  8
WAKU
  6
CONTINUOUS
 10
458.94812087089508
 20
415.30084274567798
 30
0.0
 11
458.14276087089559
 21
415.22591174567799
 31
0.0
 12
459.25459387089558
 22
415.19653974567802
 32
0.0
 13
459.25459387089558
 23
415.19653974567802
 33
0.0
  0
SOLID
  5
5E1B
  8
WAKU
  6
CONTINUOUS
 10
458.14276087089559
 20
415.22591174567799
 30
0.0
 11
457.67345587089562
 21
415.0494307456778
 31
0.0
 12
459.25459387089558
 22
415.19653974567802
 32
0.0
 13
459.25459387089558
 23
415.19653974567802
 33
0.0
  0
SOLID
  5
5E1C
  8
WAKU
  6
CONTINUOUS
 10
458.26141187089547
 20
414.5165507456777
 30
0.0
 11
457.76004187089558
 21
414.25460374567729
 31
0.0
 12
459.27500187089538
 22
414.37935174567758
 32
0.0
 13
459.27500187089538
 23
414.37935174567758
 33
0.0
  0
SOLID
  5
5E1D
  8
WAKU
  6
CONTINUOUS
 10
459.27500187089538
 20
414.37935174567758
 30
0.0
 11
457.76004187089558
 21
414.25460374567729
 31
0.0
 12
458.76651087089539
 22
414.2920227456782
 32
0.0
 13
458.76651087089539
 23
414.2920227456782
 33
0.0
  0
SOLID
  5
5E1E
  8
WAKU
  6
CONTINUOUS
 10
459.25459387089558
 20
415.19653974567802
 30
0.0
 11
457.67345587089562
 21
415.0494307456778
 31
0.0
 12
459.48107887089571
 22
415.00167774567819
 32
0.0
 13
459.48107887089571
 23
415.00167774567819
 33
0.0
  0
SOLID
  5
5E1F
  8
WAKU
  6
CONTINUOUS
 10
457.67345587089562
 20
415.0494307456778
 30
0.0
 11
458.85376887089592
 21
414.92168474567819
 31
0.0
 12
459.48107887089571
 22
415.00167774567819
 32
0.0
 13
459.48107887089571
 23
415.00167774567819
 33
0.0
  0
SOLID
  5
5E20
  8
WAKU
  6
CONTINUOUS
 10
465.56708587089571
 20
414.857705745678
 30
0.0
 11
462.41097787089558
 21
412.27309074567802
 31
0.0
 12
465.74943987089569
 22
412.27309074567802
 32
0.0
 13
465.74943987089569
 23
412.27309074567802
 33
0.0
  0
LINE
  5
5E21
  8
WAKU
  6
CONTINUOUS
 10
465.56708587089503
 20
414.85770574567772
 30
0.0
 11
462.41097787089518
 21
412.27309074567768
 31
0.0
  0
SOLID
  5
5E22
  8
WAKU
  6
CONTINUOUS
 10
465.74943987089569
 20
412.27309074567802
 30
0.0
 11
462.41097787089558
 21
412.27309074567802
 31
0.0
 12
464.65291787089558
 22
412.219244745678
 32
0.0
 13
464.65291787089558
 23
412.219244745678
 33
0.0
  0
SOLID
  5
5E23
  8
WAKU
  6
CONTINUOUS
 10
462.41097787089558
 20
412.27309074567802
 30
0.0
 11
461.4310578708953
 21
409.58078274567771
 31
0.0
 12
464.65291787089558
 22
412.219244745678
 32
0.0
 13
464.65291787089558
 23
412.219244745678
 33
0.0
  0
LINE
  5
5E24
  8
WAKU
  6
CONTINUOUS
 10
464.65291787089512
 20
412.219244745678
 30
0.0
 11
461.4310578708953
 21
409.58078274567771
 31
0.0
  0
LINE
  5
5E25
  8
WAKU
  6
CONTINUOUS
 10
468.3233658708956
 20
409.58078274567771
 30
0.0
 11
473.70798087089503
 21
409.58078274567771
 31
0.0
  0
SOLID
  5
5E26
  8
WAKU
  6
CONTINUOUS
 10
470.87115787089562
 20
416.5807827456776
 30
0.0
 11
470.2440088708953
 21
414.857705745678
 31
0.0
 12
475.62862387089592
 22
414.857705745678
 32
0.0
 13
475.62862387089592
 23
414.857705745678
 33
0.0
  0
SOLID
  5
5E27
  8
WAKU
  6
CONTINUOUS
 10
469.1073018708957
 20
411.73462874567758
 30
0.0
 11
468.3233658708956
 21
409.58078274567771
 31
0.0
 12
474.49191687089569
 22
411.73462874567758
 32
0.0
 13
474.49191687089569
 23
411.73462874567758
 33
0.0
  0
SOLID
  5
5E28
  8
WAKU
  6
CONTINUOUS
 10
474.49191687089569
 20
411.73462874567758
 30
0.0
 11
468.3233658708956
 21
409.58078274567771
 31
0.0
 12
473.70798087089508
 22
409.58078274567771
 32
0.0
 13
473.70798087089508
 23
409.58078274567771
 33
0.0
  0
LINE
  5
5E29
  8
WAKU
  6
CONTINUOUS
 10
469.10730187089513
 20
411.73462874567758
 30
0.0
 11
474.49191687089473
 21
411.73462874567758
 31
0.0
  0
LINE
  5
5E2A
  8
WAKU
  6
CONTINUOUS
 10
470.2440088708953
 20
414.85770574567772
 30
0.0
 11
475.62862387089513
 21
414.85770574567772
 31
0.0
  0
SOLID
  5
5E2B
  8
WAKU
  6
CONTINUOUS
 10
476.25577287089561
 20
416.5807827456776
 30
0.0
 11
470.87115787089562
 21
416.5807827456776
 31
0.0
 12
475.62862387089592
 22
414.857705745678
 32
0.0
 13
475.62862387089592
 23
414.857705745678
 33
0.0
  0
LINE
  5
5E2C
  8
WAKU
  6
CONTINUOUS
 10
470.87115787089562
 20
416.5807827456776
 30
0.0
 11
476.2557728708951
 21
416.5807827456776
 31
0.0
  0
LINE
  5
5E2D
  8
WAKU
  6
CONTINUOUS
 10
453.22704887089509
 20
416.5807827456776
 30
0.0
 11
453.22704887089509
 21
412.3030047456777
 31
0.0
  0
SOLID
  5
5E2E
  8
WAKU
  6
CONTINUOUS
 10
457.50482587089562
 20
416.5807827456776
 30
0.0
 11
453.22704887089571
 21
416.5807827456776
 31
0.0
 12
453.22704887089571
 22
412.3030047456777
 32
0.0
 13
453.22704887089571
 23
412.3030047456777
 33
0.0
  0
LINE
  5
5E2F
  8
WAKU
  6
CONTINUOUS
 10
453.22704887089509
 20
412.3030047456777
 30
0.0
 11
457.50482587089562
 21
416.5807827456776
 31
0.0
  0
LINE
  5
5E30
  8
WAKU
  6
CONTINUOUS
 10
453.22704887089509
 20
416.5807827456776
 30
0.0
 11
457.50482587089562
 21
416.5807827456776
 31
0.0
  0
LINE
  5
5E31
  8
WAKU
  6
CONTINUOUS
 10
490.5384668708956
 20
412.9192447456777
 30
0.0
 11
493.76923587089539
 21
412.9192447456777
 31
0.0
  0
SOLID
  5
5E32
  8
WAKU
  6
CONTINUOUS
 10
491.87115787089567
 20
416.5807827456776
 30
0.0
 11
491.24400887089558
 21
414.857705745678
 31
0.0
 12
494.47477787089508
 22
414.857705745678
 32
0.0
 13
494.47477787089508
 23
414.857705745678
 33
0.0
  0
SOLID
  5
5E33
  8
WAKU
  6
CONTINUOUS
 10
494.23959687089558
 20
414.21155174567798
 30
0.0
 11
491.00882787089557
 21
414.21155174567798
 31
0.0
 12
493.76923587089561
 22
412.91924474567821
 32
0.0
 13
493.76923587089561
 23
412.91924474567821
 33
0.0
  0
SOLID
  5
5E34
  8
WAKU
  6
CONTINUOUS
 10
494.70798087089508
 20
409.58078274567771
 30
0.0
 11
494.41499387089561
 21
411.73462874567758
 31
0.0
 12
490.10730187089558
 22
411.73462874567758
 32
0.0
 13
490.10730187089558
 23
411.73462874567758
 33
0.0
  0
SOLID
  5
5E35
  8
WAKU
  6
CONTINUOUS
 10
490.10730187089558
 20
411.73462874567758
 30
0.0
 11
489.3233658708956
 21
409.58078274567771
 31
0.0
 12
494.70798087089508
 22
409.58078274567771
 32
0.0
 13
494.70798087089508
 23
409.58078274567771
 33
0.0
  0
LINE
  5
5E36
  8
WAKU
  6
CONTINUOUS
 10
494.70798087089508
 20
409.58078274567771
 30
0.0
 11
489.3233658708956
 21
409.58078274567771
 31
0.0
  0
LINE
  5
5E37
  8
WAKU
  6
CONTINUOUS
 10
490.10730187089513
 20
411.73462874567758
 30
0.0
 11
494.41499387089561
 21
411.73462874567758
 31
0.0
  0
LINE
  5
5E38
  8
WAKU
  6
CONTINUOUS
 10
491.2440088708953
 20
414.85770574567772
 30
0.0
 11
494.47477787089508
 21
414.85770574567772
 31
0.0
  0
LINE
  5
5E39
  8
WAKU
  6
CONTINUOUS
 10
491.00882787089557
 20
414.2115517456777
 30
0.0
 11
494.2395968708953
 21
414.2115517456777
 31
0.0
  0
SOLID
  5
5E3A
  8
WAKU
  6
CONTINUOUS
 10
494.47477787089508
 20
414.857705745678
 30
0.0
 11
495.10192687089562
 21
416.5807827456776
 31
0.0
 12
491.87115787089567
 22
416.5807827456776
 32
0.0
 13
491.87115787089567
 23
416.5807827456776
 33
0.0
  0
LINE
  5
5E3B
  8
WAKU
  6
CONTINUOUS
 10
491.87115787089567
 20
416.5807827456776
 30
0.0
 11
495.10192687089511
 21
416.5807827456776
 31
0.0
  0
SOLID
  5
5E3C
  8
WAKU
  6
CONTINUOUS
 10
491.00882787089557
 20
414.21155174567798
 30
0.0
 11
490.5384668708956
 21
412.91924474567821
 31
0.0
 12
493.76923587089561
 22
412.91924474567821
 32
0.0
 13
493.76923587089561
 23
412.91924474567821
 33
0.0
  0
LINE
  5
5E3D
  8
WAKU
 10
506.89863881456068
 20
417.8041926488375
 30
0.0
 11
506.89863881456068
 21
28.29526935608077
 31
0.0
  0
TEXT
  5
5E3E
  8
WAKU
 10
75.69258251726535
 20
411.41594787396718
 30
0.0
 40
5.0
  1
FIX窓断面詳細図
  7
MX_NOTE_STANDARD
 11
75.69258251726535
 21
413.9159478739673
 31
0.0
 73
     2
  0
TEXT
  5
5E3F
  8
WAKU
 10
36.524425493660559
 20
411.37675236086397
 30
0.0
 40
3.0
  1
Super70AT
 41
0.8679999999999999
  7
MX_NOTE_STANDARD
 11
36.524425493660559
 21
412.87675236086397
 31
0.0
 73
     2
  0
LINE
  5
5E40
  8
WAKU
 10
31.524425493660821
 20
417.87675236086369
 30
0.0
 11
31.524425493660821
 21
28.367829068107071
 31
0.0
  0
LINE
  5
5E41
  8
WAKU
 10
31.524425493660821
 20
28.367829068107071
 30
0.0
 11
506.89863881456068
 21
28.29526935608077
 31
0.0
  0
LINE
  5
5E42
  8
WAKU
 10
31.524425493660821
 20
407.87675236086397
 30
0.0
 11
506.89863881456068
 21
407.80419264883761
 31
0.0
  0
LINE
  5
5E43
  8
WAKU
 10
31.524425493660821
 20
417.87675236086369
 30
0.0
 11
506.89863881456068
 21
417.8041926488375
 31
0.0
  0
POLYLINE
  5
5E44
  8
SUNPO
  6
BYBLOCK
 66
     1
 10
0.0
 20
0.0
 30
0.0
 70
     1
 40
1.159999999999999
 41
1.159999999999999
  0
VERTEX
  5
6FB4
  8
SUNPO
  6
BYBLOCK
 10
97.713513454664877
 20
288.77107363915093
 30
0.0
 42
1.0
  0
VERTEX
  5
6FB5
  8
SUNPO
  6
BYBLOCK
 10
97.713513454664877
 20
288.48107363915102
 30
0.0
 42
1.0
  0
SEQEND
  5
6FB6
  8
SUNPO
  6
BYBLOCK
  0
POLYLINE
  5
5E48
  8
SUNPO
  6
BYBLOCK
 66
     1
 10
0.0
 20
0.0
 30
0.0
 70
     1
 40
1.159999999999999
 41
1.159999999999999
  0
VERTEX
  5
6FB7
  8
SUNPO
  6
BYBLOCK
 10
97.713513454664877
 20
323.48107363915102
 30
0.0
 42
1.0
  0
VERTEX
  5
6FB8
  8
SUNPO
  6
BYBLOCK
 10
97.713513454664877
 20
323.77107363915093
 30
0.0
 42
1.0
  0
SEQEND
  5
6FB9
  8
SUNPO
  6
BYBLOCK
  0
TEXT
  5
5E4C
  8
SUNPO
  6
CONTINUOUS
 10
97.213513454664835
 20
304.04274030581757
 30
0.0
 40
2.5
  1
35
 50
90.0
  7
MX_NOTE_STANDARD
  0
POLYLINE
  5
5E4D
  8
SUNPO
  6
BYBLOCK
 66
     1
 10
0.0
 20
0.0
 30
0.0
 70
     1
 40
1.159999999999999
 41
1.159999999999999
  0
VERTEX
  5
6FBA
  8
SUNPO
  6
BYBLOCK
 10
129.56851345466481
 20
101.6260736391509
 30
0.0
 42
1.0
  0
VERTEX
  5
6FBB
  8
SUNPO
  6
BYBLOCK
 10
129.8585134546648
 20
101.6260736391509
 30
0.0
 42
1.0
  0
SEQEND
  5
6FBC
  8
SUNPO
  6
BYBLOCK
  0
POLYLINE
  5
5E51
  8
SUNPO
  6
BYBLOCK
 66
     1
 10
0.0
 20
0.0
 30
0.0
 70
     1
 40
1.159999999999999
 41
1.159999999999999
  0
VERTEX
  5
6FBD
  8
SUNPO
  6
BYBLOCK
 10
117.8585134546648
 20
101.6260736391509
 30
0.0
 42
1.0
  0
VERTEX
  5
6FBE
  8
SUNPO
  6
BYBLOCK
 10
117.5685134546647
 20
101.6260736391509
 30
0.0
 42
1.0
  0
SEQEND
  5
6FBF
  8
SUNPO
  6
BYBLOCK
  0
TEXT
  5
5E55
  8
SUNPO
  6
CONTINUOUS
 10
121.71351345466481
 20
102.126073639151
 30
0.0
 40
2.5
  1
12
 41
1.1999999999999991
  7
MX_DIMTXSTY_4
  0
POLYLINE
  5
5E56
  8
SUNPO
  6
BYBLOCK
 66
     1
 10
0.0
 20
0.0
 30
0.0
 70
     1
 40
1.159999999999999
 41
1.159999999999999
  0
VERTEX
  5
6FC0
  8
SUNPO
  6
BYBLOCK
 10
97.713513454664835
 20
136.77107363915101
 30
0.0
 42
1.0
  0
VERTEX
  5
6FC1
  8
SUNPO
  6
BYBLOCK
 10
97.713513454664835
 20
136.48107363915091
 30
0.0
 42
1.0
  0
SEQEND
  5
6FC2
  8
SUNPO
  6
BYBLOCK
  0
POLYLINE
  5
5E5A
  8
SUNPO
  6
BYBLOCK
 66
     1
 10
0.0
 20
0.0
 30
0.0
 70
     1
 40
1.159999999999999
 41
1.159999999999999
  0
VERTEX
  5
6FC3
  8
SUNPO
  6
BYBLOCK
 10
97.713513454664835
 20
168.48107363915091
 30
0.0
 42
1.0
  0
VERTEX
  5
6FC4
  8
SUNPO
  6
BYBLOCK
 10
97.713513454664835
 20
168.77107363915101
 30
0.0
 42
1.0
  0
SEQEND
  5
6FC5
  8
SUNPO
  6
BYBLOCK
  0
TEXT
  5
5E5E
  8
SUNPO
  6
CONTINUOUS
 10
97.213513454664835
 20
150.5427403058174
 30
0.0
 40
2.5
  1
32
 50
90.0
  7
MX_NOTE_STANDARD
  0
POLYLINE
  5
5E5F
  8
SUNPO
  6
BYBLOCK
 66
     1
 10
0.0
 20
0.0
 30
0.0
 70
     1
 40
1.159999999999999
 41
1.159999999999999
  0
VERTEX
  5
6FC6
  8
SUNPO
  6
BYBLOCK
 10
97.713513454664835
 20
118.771073639151
 30
0.0
 42
1.0
  0
VERTEX
  5
6FC7
  8
SUNPO
  6
BYBLOCK
 10
97.713513454664835
 20
118.48107363915101
 30
0.0
 42
1.0
  0
SEQEND
  5
6FC8
  8
SUNPO
  6
BYBLOCK
  0
POLYLINE
  5
5E63
  8
SUNPO
  6
BYBLOCK
 66
     1
 10
0.0
 20
0.0
 30
0.0
 70
     1
 40
1.159999999999999
 41
1.159999999999999
  0
VERTEX
  5
6FC9
  8
SUNPO
  6
BYBLOCK
 10
97.713513454664835
 20
136.48107363915091
 30
0.0
 42
1.0
  0
VERTEX
  5
6FCA
  8
SUNPO
  6
BYBLOCK
 10
97.713513454664835
 20
136.7710736391509
 30
0.0
 42
1.0
  0
SEQEND
  5
6FCB
  8
SUNPO
  6
BYBLOCK
  0
TEXT
  5
5E67
  8
SUNPO
  6
CONTINUOUS
 10
97.213513454664835
 20
125.626073639151
 30
0.0
 40
2.5
  1
18
 50
90.0
 41
1.1999999999999991
  7
MX_DIMTXSTY_4
  0
POLYLINE
  5
5E68
  8
SUNPO
  6
BYBLOCK
 66
     1
 10
0.0
 20
0.0
 30
0.0
 70
     1
 40
1.159999999999999
 41
1.159999999999999
  0
VERTEX
  5
6FCC
  8
SUNPO
  6
BYBLOCK
 10
97.713513454664835
 20
108.7710736391509
 30
0.0
 42
1.0
  0
VERTEX
  5
6FCD
  8
SUNPO
  6
BYBLOCK
 10
97.713513454664835
 20
108.48107363915101
 30
0.0
 42
1.0
  0
SEQEND
  5
6FCE
  8
SUNPO
  6
BYBLOCK
  0
POLYLINE
  5
5E6C
  8
SUNPO
  6
BYBLOCK
 66
     1
 10
0.0
 20
0.0
 30
0.0
 70
     1
 40
1.159999999999999
 41
1.159999999999999
  0
VERTEX
  5
6FCF
  8
SUNPO
  6
BYBLOCK
 10
97.713513454664835
 20
118.48107363915101
 30
0.0
 42
1.0
  0
VERTEX
  5
6FD0
  8
SUNPO
  6
BYBLOCK
 10
97.713513454664835
 20
118.771073639151
 30
0.0
 42
1.0
  0
SEQEND
  5
6FD1
  8
SUNPO
  6
BYBLOCK
  0
TEXT
  5
5E70
  8
SUNPO
  6
CONTINUOUS
 10
97.213513454664835
 20
111.6573236391509
 30
0.0
 40
2.5
  1
10
 50
90.0
 41
1.3500000000000001
  7
MX_DIMTXSTY_3
  0
POLYLINE
  5
5E71
  8
SUNPO
  6
BYBLOCK
 66
     1
 10
0.0
 20
0.0
 30
0.0
 70
     1
 40
1.159999999999999
 41
1.159999999999999
  0
VERTEX
  5
6FD2
  8
SUNPO
  6
BYBLOCK
 10
97.713513454664835
 20
99.771073639151027
 30
0.0
 42
1.0
  0
VERTEX
  5
6FD3
  8
SUNPO
  6
BYBLOCK
 10
97.713513454664835
 20
99.48107363915102
 30
0.0
 42
1.0
  0
SEQEND
  5
6FD4
  8
SUNPO
  6
BYBLOCK
  0
POLYLINE
  5
5E75
  8
SUNPO
  6
BYBLOCK
 66
     1
 10
0.0
 20
0.0
 30
0.0
 70
     1
 40
1.159999999999999
 41
1.159999999999999
  0
VERTEX
  5
6FD5
  8
SUNPO
  6
BYBLOCK
 10
97.713513454664835
 20
108.48107363915101
 30
0.0
 42
1.0
  0
VERTEX
  5
6FD6
  8
SUNPO
  6
BYBLOCK
 10
97.713513454664835
 20
108.7710736391509
 30
0.0
 42
1.0
  0
SEQEND
  5
6FD7
  8
SUNPO
  6
BYBLOCK
  0
TEXT
  5
5E79
  8
SUNPO
  6
CONTINUOUS
 10
97.213513454664835
 20
103.2927403058174
 30
0.0
 40
2.5
  1
9
 50
90.0
  7
MX_NOTE_STANDARD
  0
POLYLINE
  5
5E7A
  8
SUNPO
  6
BYBLOCK
 66
     1
 10
0.0
 20
0.0
 30
0.0
 70
     1
 40
1.159999999999999
 41
1.159999999999999
  0
VERTEX
  5
6FD8
  8
SUNPO
  6
BYBLOCK
 10
97.713513454664835
 20
268.77106463915101
 30
0.0
 42
1.0
  0
VERTEX
  5
6FD9
  8
SUNPO
  6
BYBLOCK
 10
97.713513454664835
 20
268.48106463915082
 30
0.0
 42
1.0
  0
SEQEND
  5
6FDA
  8
SUNPO
  6
BYBLOCK
  0
TEXT
  5
5E82
  8
SUNPO
  6
CONTINUOUS
 10
97.213513454664835
 20
276.56356863915101
 30
0.0
 40
2.5
  1
20
 50
90.0
 41
1.1000000000000001
  7
MX_DIMTXSTY_2
  0
POLYLINE
  5
5E83
  8
SUNPO
  6
BYBLOCK
 66
     1
 10
0.0
 20
0.0
 30
0.0
 70
     1
 40
1.159999999999999
 41
1.159999999999999
  0
VERTEX
  5
6FDB
  8
SUNPO
  6
BYBLOCK
 10
130.05851345466471
 20
196.626073639151
 30
0.0
 42
1.0
  0
VERTEX
  5
6FDC
  8
SUNPO
  6
BYBLOCK
 10
129.7685134546648
 20
196.626073639151
 30
0.0
 42
1.0
  0
SEQEND
  5
6FDD
  8
SUNPO
  6
BYBLOCK
  0
POLYLINE
  5
5E87
  8
SUNPO
  6
BYBLOCK
 66
     1
 10
0.0
 20
0.0
 30
0.0
 70
     1
 40
1.159999999999999
 41
1.159999999999999
  0
VERTEX
  5
6FDE
  8
SUNPO
  6
BYBLOCK
 10
165.7685134546648
 20
196.626073639151
 30
0.0
 42
1.0
  0
VERTEX
  5
6FDF
  8
SUNPO
  6
BYBLOCK
 10
166.05851345466479
 20
196.626073639151
 30
0.0
 42
1.0
  0
SEQEND
  5
6FE0
  8
SUNPO
  6
BYBLOCK
  0
TEXT
  5
5E8B
  8
SUNPO
  6
CONTINUOUS
 10
145.83018012133141
 20
197.126073639151
 30
0.0
 40
2.5
  1
36
  7
MX_NOTE_STANDARD
  0
POLYLINE
  5
5E8C
  8
SUNPO
  6
BYBLOCK
 66
     1
 10
0.0
 20
0.0
 30
0.0
 70
     1
 40
1.159999999999999
 41
1.159999999999999
  0
VERTEX
  5
6FE1
  8
SUNPO
  6
BYBLOCK
 10
187.56851345466481
 20
206.626073639151
 30
0.0
 42
1.0
  0
VERTEX
  5
6FE2
  8
SUNPO
  6
BYBLOCK
 10
187.8585134546644
 20
206.626073639151
 30
0.0
 42
1.0
  0
SEQEND
  5
6FE3
  8
SUNPO
  6
BYBLOCK
  0
POLYLINE
  5
5E90
  8
SUNPO
  6
BYBLOCK
 66
     1
 10
0.0
 20
0.0
 30
0.0
 70
     1
 40
1.159999999999999
 41
1.159999999999999
  0
VERTEX
  5
6FE4
  8
SUNPO
  6
BYBLOCK
 10
168.55851345466479
 20
206.626073639151
 30
0.0
 42
1.0
  0
VERTEX
  5
6FE5
  8
SUNPO
  6
BYBLOCK
 10
168.2685134546648
 20
206.626073639151
 30
0.0
 42
1.0
  0
SEQEND
  5
6FE6
  8
SUNPO
  6
BYBLOCK
  0
TEXT
  5
5E94
  8
SUNPO
  6
CONTINUOUS
 10
173.56351345466479
 20
207.126073639151
 30
0.0
 40
2.5
  1
19.3
 41
1.3500000000000001
  7
MX_DIMTXSTY_3
  0
POLYLINE
  5
5E95
  8
SUNPO
  6
BYBLOCK
 66
     1
 10
0.0
 20
0.0
 30
0.0
 70
     1
 40
1.159999999999999
 41
1.159999999999999
  0
VERTEX
  5
6FE7
  8
SUNPO
  6
BYBLOCK
 10
168.2685134546648
 20
206.626073639151
 30
0.0
 42
1.0
  0
VERTEX
  5
6FE8
  8
SUNPO
  6
BYBLOCK
 10
168.55851345466479
 20
206.626073639151
 30
0.0
 42
1.0
  0
SEQEND
  5
6FE9
  8
SUNPO
  6
BYBLOCK
  0
POLYLINE
  5
5E99
  8
SUNPO
  6
BYBLOCK
 66
     1
 10
0.0
 20
0.0
 30
0.0
 70
     1
 40
1.159999999999999
 41
1.159999999999999
  0
VERTEX
  5
6FEA
  8
SUNPO
  6
BYBLOCK
 10
125.8585134546648
 20
206.626073639151
 30
0.0
 42
1.0
  0
VERTEX
  5
6FEB
  8
SUNPO
  6
BYBLOCK
 10
125.5685134546647
 20
206.626073639151
 30
0.0
 42
1.0
  0
SEQEND
  5
6FEC
  8
SUNPO
  6
BYBLOCK
  0
TEXT
  5
5E9D
  8
SUNPO
  6
CONTINUOUS
 10
143.62850045466479
 20
207.126073639151
 30
0.0
 40
2.5
  1
42.7
 41
1.1999999999999991
  7
MX_DIMTXSTY_4
  0
POLYLINE
  5
5EB6
  8
SUNPO
  6
BYBLOCK
 66
     1
 10
0.0
 20
0.0
 30
0.0
 70
     1
 40
1.159999999999999
 41
1.159999999999999
  0
VERTEX
  5
6FED
  8
SUNPO
  6
BYBLOCK
 10
217.71351345466471
 20
288.48107363915102
 30
0.0
 42
1.0
  0
VERTEX
  5
6FEE
  8
SUNPO
  6
BYBLOCK
 10
217.71351345466471
 20
288.77107363915093
 30
0.0
 42
1.0
  0
SEQEND
  5
6FEF
  8
SUNPO
  6
BYBLOCK
  0
POLYLINE
  5
5EBA
  8
SUNPO
  6
BYBLOCK
 66
     1
 10
0.0
 20
0.0
 30
0.0
 70
     1
 40
1.159999999999999
 41
1.159999999999999
  0
VERTEX
  5
6FF0
  8
SUNPO
  6
BYBLOCK
 10
217.71351345466471
 20
268.77107663915081
 30
0.0
 42
1.0
  0
VERTEX
  5
6FF1
  8
SUNPO
  6
BYBLOCK
 10
217.71351345466471
 20
268.48107663915101
 30
0.0
 42
1.0
  0
SEQEND
  5
6FF2
  8
SUNPO
  6
BYBLOCK
  0
TEXT
  5
5EBE
  8
SUNPO
  6
CONTINUOUS
 10
217.21351345466471
 20
276.56357563915088
 30
0.0
 40
2.5
  1
20
 50
90.0
 41
1.1000000000000001
  7
MX_DIMTXSTY_2
  0
POLYLINE
  5
5ED7
  8
SUNPO
  6
BYBLOCK
 66
     1
 10
0.0
 20
0.0
 30
0.0
 70
     1
 40
1.159999999999999
 41
1.159999999999999
  0
VERTEX
  5
6FF3
  8
SUNPO
  6
BYBLOCK
 10
125.5685134546647
 20
206.626073639151
 30
0.0
 42
1.0
  0
VERTEX
  5
6FF4
  8
SUNPO
  6
BYBLOCK
 10
125.8585134546648
 20
206.626073639151
 30
0.0
 42
1.0
  0
SEQEND
  5
6FF5
  8
SUNPO
  6
BYBLOCK
  0
POLYLINE
  5
5EDB
  8
SUNPO
  6
BYBLOCK
 66
     1
 10
0.0
 20
0.0
 30
0.0
 70
     1
 40
1.159999999999999
 41
1.159999999999999
  0
VERTEX
  5
6FF6
  8
SUNPO
  6
BYBLOCK
 10
117.8585134546648
 20
206.626073639151
 30
0.0
 42
1.0
  0
VERTEX
  5
6FF7
  8
SUNPO
  6
BYBLOCK
 10
117.5685134546647
 20
206.626073639151
 30
0.0
 42
1.0
  0
SEQEND
  5
6FF8
  8
SUNPO
  6
BYBLOCK
  0
TEXT
  5
5EDF
  8
SUNPO
  6
CONTINUOUS
 10
120.88018012133151
 20
207.126073639151
 30
0.0
 40
2.5
  1
8
  7
MX_NOTE_STANDARD
  0
POLYLINE
  5
5EE0
  8
SUNPO
  6
BYBLOCK
 66
     1
 10
0.0
 20
0.0
 30
0.0
 70
     1
 40
1.159999999999999
 41
1.159999999999999
  0
VERTEX
  5
6FF9
  8
SUNPO
  6
BYBLOCK
 10
187.56851345466481
 20
216.626073639151
 30
0.0
 42
1.0
  0
VERTEX
  5
6FFA
  8
SUNPO
  6
BYBLOCK
 10
187.8585134546644
 20
216.626073639151
 30
0.0
 42
1.0
  0
SEQEND
  5
6FFB
  8
SUNPO
  6
BYBLOCK
  0
POLYLINE
  5
5EE4
  8
SUNPO
  6
BYBLOCK
 66
     1
 10
0.0
 20
0.0
 30
0.0
 70
     1
 40
1.159999999999999
 41
1.159999999999999
  0
VERTEX
  5
6FFC
  8
SUNPO
  6
BYBLOCK
 10
117.8585134546648
 20
216.626073639151
 30
0.0
 42
1.0
  0
VERTEX
  5
6FFD
  8
SUNPO
  6
BYBLOCK
 10
117.5685134546647
 20
216.626073639151
 30
0.0
 42
1.0
  0
SEQEND
  5
6FFE
  8
SUNPO
  6
BYBLOCK
  0
TEXT
  5
5EE8
  8
SUNPO
  6
CONTINUOUS
 10
146.9521414546648
 20
217.126073639151
 30
0.0
 40
2.5
  1
70
 41
1.1000000000000001
  7
MX_DIMTXSTY_2
  0
POLYLINE
  5
5EE9
  8
SUNPO
  6
BYBLOCK
 66
     1
 10
0.0
 20
0.0
 30
0.0
 70
     1
 40
1.25
 41
1.25
  0
VERTEX
  5
6FFF
  8
SUNPO
  6
BYBLOCK
 10
227.71351345466471
 20
108.782323639151
 30
0.0
 42
1.0
  0
VERTEX
  5
7000
  8
SUNPO
  6
BYBLOCK
 10
227.71351345466471
 20
108.469823639151
 30
0.0
 42
1.0
  0
SEQEND
  5
7001
  8
SUNPO
  6
BYBLOCK
  0
TEXT
  5
5EED
  8
SUNPO
  6
CONTINUOUS
 10
227.21351345466479
 20
136.563573639151
 30
0.0
 40
2.5
  1
60
 50
90.0
 41
1.1000000000000001
  7
MX_DIMTXSTY_2
  0
POLYLINE
  5
5EEE
  8
SUNPO
  6
BYBLOCK
 66
     1
 10
0.0
 20
0.0
 30
0.0
 70
     1
 40
1.159999999999999
 41
1.159999999999999
  0
VERTEX
  5
7002
  8
SUNPO
  6
BYBLOCK
 10
227.71351345466471
 20
323.48107363915102
 30
0.0
 42
1.0
  0
VERTEX
  5
7003
  8
SUNPO
  6
BYBLOCK
 10
227.71351345466471
 20
323.77107363915093
 30
0.0
 42
1.0
  0
SEQEND
  5
7004
  8
SUNPO
  6
BYBLOCK
  0
TEXT
  5
5EF2
  8
SUNPO
  6
CONTINUOUS
 10
227.21351345466479
 20
304.04274030581757
 30
0.0
 40
2.5
  1
35
 50
90.0
  7
MX_NOTE_STANDARD
  0
LINE
  5
5FD5
  8
SUNPO
  6
CONTINUOUS
 10
227.71351345466471
 20
323.626073639151
 30
0.0
 11
227.71351345466471
 21
288.62607363915089
 31
0.0
  0
LINE
  5
5FD6
  8
SUNPO
  6
CONTINUOUS
 10
189.21351345466471
 20
288.62607363915089
 30
0.0
 11
227.71351345466471
 21
288.62607363915089
 31
0.0
  0
LINE
  5
5FD7
  8
SUNPO
  6
CONTINUOUS
 10
189.21351345466471
 20
323.626073639151
 30
0.0
 11
227.71351345466471
 21
323.626073639151
 31
0.0
  0
LINE
  5
5FD8
  8
SUNPO
  6
CONTINUOUS
 10
232.71351345466471
 20
283.626073639151
 30
0.0
 11
222.71351345466479
 21
283.626073639151
 31
0.0
  0
LINE
  5
5FD9
  8
SUNPO
  6
CONTINUOUS
 10
222.71351345466479
 20
283.626073639151
 30
0.0
 11
227.71351345466471
 21
288.62607363915089
 31
0.0
  0
LINE
  5
5FDA
  8
SUNPO
  6
CONTINUOUS
 10
227.71351345466471
 20
288.62607363915089
 30
0.0
 11
232.71351345466471
 21
283.626073639151
 31
0.0
  0
LINE
  5
5FDB
  8
SUNPO
  6
CONTINUOUS
 10
222.71351345466479
 20
173.626073639151
 30
0.0
 11
232.71351345466471
 21
173.626073639151
 31
0.0
  0
LINE
  5
5FDC
  8
SUNPO
  6
CONTINUOUS
 10
232.71351345466471
 20
173.626073639151
 30
0.0
 11
227.71351345466471
 21
168.626073639151
 31
0.0
  0
LINE
  5
5FDD
  8
SUNPO
  6
CONTINUOUS
 10
227.71351345466471
 20
168.626073639151
 30
0.0
 11
222.71351345466479
 21
173.626073639151
 31
0.0
  0
LINE
  5
5FDE
  8
SUNPO
  6
CONTINUOUS
 10
223.71351345466471
 20
223.76711863915079
 30
0.0
 11
231.71351345466471
 21
223.76711863915079
 31
0.0
  0
LINE
  5
5FDF
  8
SUNPO
  6
CONTINUOUS
 10
226.5134404546645
 20
237.28237763915101
 30
0.0
 11
226.5134404546645
 21
232.493834639151
 31
0.0
  0
LINE
  5
5FE0
  8
SUNPO
  6
CONTINUOUS
 10
228.91343445466481
 20
237.28237763915101
 30
0.0
 11
228.91343445466481
 21
232.493834639151
 31
0.0
  0
LINE
  5
5FE1
  8
SUNPO
  6
CONTINUOUS
 10
223.71351345466471
 20
225.1671126391509
 30
0.0
 11
223.71351345466471
 21
219.9697696391508
 31
0.0
  0
LINE
  5
5FE2
  8
SUNPO
  6
CONTINUOUS
 10
223.71351345466471
 20
231.28006463915079
 30
0.0
 11
223.71351345466471
 21
227.54701763915079
 31
0.0
  0
LINE
  5
5FE3
  8
SUNPO
  6
CONTINUOUS
 10
223.71351345466471
 20
229.26711863915079
 30
0.0
 11
231.71351345466471
 21
229.26711863915079
 31
0.0
  0
LINE
  5
5FE4
  8
SUNPO
  6
CONTINUOUS
 10
231.71351345466471
 20
225.1671126391509
 30
0.0
 11
231.71351345466471
 21
219.9697696391508
 31
0.0
  0
LINE
  5
5FE5
  8
SUNPO
  6
CONTINUOUS
 10
227.71351345466471
 20
229.26711863915079
 30
0.0
 11
227.71351345466471
 21
223.76711863915079
 31
0.0
  0
LINE
  5
5FE6
  8
SUNPO
  6
CONTINUOUS
 10
231.71351345466471
 20
231.28006463915079
 30
0.0
 11
231.71351345466471
 21
227.54701763915079
 31
0.0
  0
LINE
  5
5FE7
  8
SUNPO
  6
CONTINUOUS
 10
223.71351345466471
 20
221.76711863915091
 30
0.0
 11
231.71351345466471
 21
221.76711863915091
 31
0.0
  0
LINE
  5
5FE8
  8
SUNPO
  6
CONTINUOUS
 10
227.71351345466471
 20
168.626073639151
 30
0.0
 11
227.71351345466471
 21
108.6260736391509
 31
0.0
  0
LINE
  5
5FE9
  8
SUNPO
  6
CONTINUOUS
 10
189.21351345466471
 20
108.6260736391509
 30
0.0
 11
227.71351345466471
 21
108.6260736391509
 31
0.0
  0
LINE
  5
5FEA
  8
SUNPO
  6
CONTINUOUS
 10
187.71352845466481
 20
168.626073639151
 30
0.0
 11
227.71351345466471
 21
168.626073639151
 31
0.0
  0
LINE
  5
5FEB
  8
SUNPO
  6
CONTINUOUS
 10
187.71351345466479
 20
216.626073639151
 30
0.0
 11
117.71351345466481
 21
216.626073639151
 31
0.0
  0
LINE
  5
5FEC
  8
SUNPO
  6
CONTINUOUS
 10
125.71351345466481
 20
206.626073639151
 30
0.0
 11
117.71351345466481
 21
206.626073639151
 31
0.0
  0
LINE
  5
5FEF
  8
SUNPO
  6
CONTINUOUS
 10
217.71351345466471
 20
288.62607363915089
 30
0.0
 11
217.71351345466471
 21
268.62607663915082
 31
0.0
  0
LINE
  5
5FF0
  8
SUNPO
  6
CONTINUOUS
 10
189.2135234546648
 20
268.62607663915082
 30
0.0
 11
217.71351345466471
 21
268.62607663915082
 31
0.0
  0
LINE
  5
5FF3
  8
SUNPO
  6
CONTINUOUS
 10
168.41351345466481
 20
206.626073639151
 30
0.0
 11
125.71351345466481
 21
206.626073639151
 31
0.0
  0
LINE
  5
5FF4
  8
SUNPO
  6
CONTINUOUS
 10
187.71351345466479
 20
206.626073639151
 30
0.0
 11
168.41351345466481
 21
206.626073639151
 31
0.0
  0
LINE
  5
5FF5
  8
SUNPO
  6
CONTINUOUS
 10
129.91351345466481
 20
196.626073639151
 30
0.0
 11
165.91351345466481
 21
196.626073639151
 31
0.0
  0
LINE
  5
6014
  8
SUNPO
  6
CONTINUOUS
 10
97.713513454664835
 20
268.62606463915091
 30
0.0
 11
97.713513454664877
 21
288.62607363915089
 31
0.0
  0
LINE
  5
6015
  8
SUNPO
  6
CONTINUOUS
 10
116.21351345466481
 20
268.62606463915091
 30
0.0
 11
97.713513454664835
 21
268.62606463915091
 31
0.0
  0
LINE
  5
6016
  8
SUNPO
  6
CONTINUOUS
 10
97.713513454664835
 20
99.626073639151002
 30
0.0
 11
97.713513454664835
 21
108.6260736391509
 31
0.0
  0
LINE
  5
6017
  8
SUNPO
  6
CONTINUOUS
 10
128.21351345466471
 20
99.626073639151002
 30
0.0
 11
97.713513454664835
 21
99.626073639151002
 31
0.0
  0
LINE
  5
6018
  8
SUNPO
  6
CONTINUOUS
 10
97.713513454664835
 20
108.6260736391509
 30
0.0
 11
97.713513454664835
 21
118.626073639151
 31
0.0
  0
LINE
  5
6019
  8
SUNPO
  6
CONTINUOUS
 10
116.21351345466481
 20
108.6260736391509
 30
0.0
 11
97.713513454664835
 21
108.6260736391509
 31
0.0
  0
LINE
  5
601A
  8
SUNPO
  6
CONTINUOUS
 10
97.713513454664835
 20
118.626073639151
 30
0.0
 11
97.713513454664835
 21
136.626073639151
 31
0.0
  0
LINE
  5
601B
  8
SUNPO
  6
CONTINUOUS
 10
116.21351345466481
 20
118.626073639151
 30
0.0
 11
97.713513454664835
 21
118.626073639151
 31
0.0
  0
LINE
  5
601C
  8
SUNPO
  6
CONTINUOUS
 10
97.713513454664835
 20
136.626073639151
 30
0.0
 11
97.713513454664835
 21
168.626073639151
 31
0.0
  0
LINE
  5
601D
  8
SUNPO
  6
CONTINUOUS
 10
116.21351345466481
 20
168.626073639151
 30
0.0
 11
97.713513454664835
 21
168.626073639151
 31
0.0
  0
LINE
  5
601E
  8
SUNPO
  6
CONTINUOUS
 10
116.21351345466481
 20
136.626073639151
 30
0.0
 11
97.713513454664835
 21
136.626073639151
 31
0.0
  0
LINE
  5
601F
  8
SUNPO
  6
CONTINUOUS
 10
129.71351345466471
 20
101.6260736391509
 30
0.0
 11
117.71351345466481
 21
101.6260736391509
 31
0.0
  0
LINE
  5
6020
  8
SUNPO
  6
CONTINUOUS
 10
117.71351345466481
 20
107.126073639151
 30
0.0
 11
117.71351345466481
 21
101.6260736391509
 31
0.0
  0
LINE
  5
6021
  8
SUNPO
  6
CONTINUOUS
 10
97.713513454664877
 20
288.62607363915089
 30
0.0
 11
97.713513454664877
 21
323.626073639151
 31
0.0
  0
LINE
  5
6022
  8
SUNPO
  6
CONTINUOUS
 10
116.71351345466481
 20
323.626073639151
 30
0.0
 11
97.713513454664877
 21
323.626073639151
 31
0.0
  0
LINE
  5
6023
  8
SUNPO
  6
CONTINUOUS
 10
116.71351345466481
 20
288.62607363915089
 30
0.0
 11
97.713513454664877
 21
288.62607363915089
 31
0.0
  0
LINE
  5
6054
  8
SUNPO
  6
CONTINUOUS
 10
227.71351345466471
 20
288.62607363915089
 30
0.0
 11
227.71351345466471
 21
238.626073639151
 31
0.0
  0
LINE
  5
6055
  8
SUNPO
  6
CONTINUOUS
 10
227.71351345466471
 20
218.6260736391508
 30
0.0
 11
227.71351345466471
 21
168.626073639151
 31
0.0
  0
LINE
  5
6056
  8
DANMEN
  6
CONTINUOUS
 10
187.71351345466479
 20
108.6260736391509
 30
0.0
 11
187.71351345466479
 21
134.126073639151
 31
0.0
  0
LINE
  5
6057
  8
DANMEN
  6
CONTINUOUS
 10
131.21351345466471
 20
108.6260736391509
 30
0.0
 11
187.71351345466479
 21
108.6260736391509
 31
0.0
  0
LINE
  5
6058
  8
SUNPO
  6
CONTINUOUS
 10
393.10961029141691
 20
39.571341705227212
 30
0.0
 11
389.53186229141693
 21
39.571341705227212
 31
0.0
  0
LINE
  5
6059
  8
SUNPO
  6
CONTINUOUS
 10
390.22286029141691
 20
39.57134270522711
 30
0.0
 11
386.1814142914169
 21
46.571339705227203
 31
0.0
  0
LINE
  5
605A
  8
SUNPO
  6
CONTINUOUS
 10
392.53225929141689
 20
39.571345705227131
 30
0.0
 11
388.49081529141688
 21
46.57133870522722
 31
0.0
  0
LINE
  5
605B
  8
SUNPO
  6
CONTINUOUS
 10
304.99530029141681
 20
72.071341705226914
 30
0.0
 11
304.99530029141681
 21
43.071341705227212
 31
0.0
  0
LINE
  5
605C
  8
SUNPO
  6
CONTINUOUS
 10
329.99530029141681
 20
71.571341705227198
 30
0.0
 11
329.99530029141681
 21
43.071341705227212
 31
0.0
  0
LINE
  5
605D
  8
SUNPO
  6
CONTINUOUS
 10
314.99530129141681
 20
71.571341705227198
 30
0.0
 11
314.99530129141681
 21
53.071341705227212
 31
0.0
  0
LINE
  5
605E
  8
SUNPO
  6
CONTINUOUS
 10
349.99530129141681
 20
71.571341705227198
 30
0.0
 11
349.99530129141681
 21
53.071341705227212
 31
0.0
  0
LINE
  5
605F
  8
SUNPO
  6
CONTINUOUS
 10
334.99530029141681
 20
38.071341705227212
 30
0.0
 11
329.99530029141681
 21
43.071341705227212
 31
0.0
  0
LINE
  5
6060
  8
SUNPO
  6
CONTINUOUS
 10
329.99530029141681
 20
43.071341705227212
 30
0.0
 11
334.99530029141681
 21
48.071341705226899
 31
0.0
  0
LINE
  5
6061
  8
SUNPO
  6
CONTINUOUS
 10
349.99530129141681
 20
53.071341705227212
 30
0.0
 11
329.99530029141681
 21
53.071341705227212
 31
0.0
  0
LINE
  5
6062
  8
SUNPO
  6
CONTINUOUS
 10
329.99530029141681
 20
43.071341705227212
 30
0.0
 11
374.99530029141692
 21
43.071341705227212
 31
0.0
  0
TEXT
  5
6063
  8
SUNPO
  6
CONTINUOUS
 10
315.41196695808361
 20
43.571341705227212
 30
0.0
 40
2.5
  1
25
  7
MX_NOTE_STANDARD
  0
LINE
  5
6064
  8
SUNPO
  6
CONTINUOUS
 10
329.99530029141681
 20
43.071341705227212
 30
0.0
 11
304.99530029141681
 21
43.071341705227212
 31
0.0
  0
POLYLINE
  5
6065
  8
SUNPO
  6
BYBLOCK
 66
     1
 10
0.0
 20
0.0
 30
0.0
 70
     1
 40
1.25
 41
1.25
  0
VERTEX
  5
7005
  8
SUNPO
  6
BYBLOCK
 10
305.15155029141681
 20
43.071341705227212
 30
0.0
 42
1.0
  0
VERTEX
  5
7006
  8
SUNPO
  6
BYBLOCK
 10
304.83905029141681
 20
43.071341705227212
 30
0.0
 42
1.0
  0
SEQEND
  5
7007
  8
SUNPO
  6
BYBLOCK
  0
LINE
  5
6069
  8
SUNPO
  6
CONTINUOUS
 10
329.99530029141681
 20
53.071341705227212
 30
0.0
 11
314.99530129141681
 21
53.071341705227212
 31
0.0
  0
POLYLINE
  5
606A
  8
SUNPO
  6
BYBLOCK
 66
     1
 10
0.0
 20
0.0
 30
0.0
 70
     1
 40
1.159999999999999
 41
1.159999999999999
  0
VERTEX
  5
7008
  8
SUNPO
  6
BYBLOCK
 10
315.14030129141702
 20
53.071341705227212
 30
0.0
 42
1.0
  0
VERTEX
  5
7009
  8
SUNPO
  6
BYBLOCK
 10
314.850301291417
 20
53.071341705227212
 30
0.0
 42
1.0
  0
SEQEND
  5
700A
  8
SUNPO
  6
BYBLOCK
  0
TEXT
  5
606E
  8
SUNPO
  6
CONTINUOUS
 10
320.49530129141681
 20
53.571341705227212
 30
0.0
 40
2.5
  1
15
 41
1.1999999999999991
  7
MX_DIMTXSTY_4
  0
POLYLINE
  5
606F
  8
SUNPO
  6
BYBLOCK
 66
     1
 10
0.0
 20
0.0
 30
0.0
 70
     1
 40
1.159999999999999
 41
1.159999999999999
  0
VERTEX
  5
700B
  8
SUNPO
  6
BYBLOCK
 10
330.14030029141702
 20
53.071341705227212
 30
0.0
 42
1.0
  0
VERTEX
  5
700C
  8
SUNPO
  6
BYBLOCK
 10
329.85030029141689
 20
53.071341705227212
 30
0.0
 42
1.0
  0
SEQEND
  5
700D
  8
SUNPO
  6
BYBLOCK
  0
POLYLINE
  5
6073
  8
SUNPO
  6
BYBLOCK
 66
     1
 10
0.0
 20
0.0
 30
0.0
 70
     1
 40
1.159999999999999
 41
1.159999999999999
  0
VERTEX
  5
700E
  8
SUNPO
  6
BYBLOCK
 10
329.85030029141689
 20
53.071341705227212
 30
0.0
 42
1.0
  0
VERTEX
  5
700F
  8
SUNPO
  6
BYBLOCK
 10
330.14030029141702
 20
53.071341705227212
 30
0.0
 42
1.0
  0
SEQEND
  5
7010
  8
SUNPO
  6
BYBLOCK
  0
LINE
  5
6077
  8
SUNPO
  6
CONTINUOUS
 10
334.99530029141681
 20
48.071341705226899
 30
0.0
 11
334.99530029141681
 21
38.071341705227212
 31
0.0
  0
TEXT
  5
6078
  8
SUNPO
  6
CONTINUOUS
 10
337.93280129141681
 20
53.571341705227212
 30
0.0
 40
2.5
  1
20
 41
1.1000000000000001
  7
MX_DIMTXSTY_2
  0
POLYLINE
  5
6079
  8
SUNPO
  6
BYBLOCK
 66
     1
 10
0.0
 20
0.0
 30
0.0
 70
     1
 40
1.159999999999999
 41
1.159999999999999
  0
VERTEX
  5
7011
  8
SUNPO
  6
BYBLOCK
 10
349.850301291417
 20
53.071341705227212
 30
0.0
 42
1.0
  0
VERTEX
  5
7012
  8
SUNPO
  6
BYBLOCK
 10
350.14030129141702
 20
53.071341705227212
 30
0.0
 42
1.0
  0
SEQEND
  5
7013
  8
SUNPO
  6
BYBLOCK
  0
LINE
  5
607D
  8
SUNPO
  6
CONTINUOUS
 10
386.1814132914169
 20
46.571341705227212
 30
0.0
 11
386.1814132914169
 21
39.57134270522711
 31
0.0
  0
LINE
  5
607E
  8
SUNPO
  6
CONTINUOUS
 10
386.1814142914169
 20
39.571341705227212
 30
0.0
 11
382.13996829141689
 21
46.57133870522722
 31
0.0
  0
LINE
  5
607F
  8
SUNPO
  6
CONTINUOUS
 10
383.87207629141687
 20
39.57134270522711
 30
0.0
 11
379.83063129141692
 21
46.57133870522722
 31
0.0
  0
LINE
  5
6080
  8
SUNPO
  6
CONTINUOUS
 10
387.1814132914169
 20
39.571341705227212
 30
0.0
 11
382.7038822914169
 21
39.571341705227212
 31
0.0
  0
LINE
  5
6081
  8
SUNPO
  6
CONTINUOUS
 10
383.10164029141691
 20
46.571341705227212
 30
0.0
 11
378.726290291417
 21
46.571341705227212
 31
0.0
  0
LINE
  5
6082
  8
SUNPO
  6
CONTINUOUS
 10
389.49081429141688
 20
46.571341705227212
 30
0.0
 11
385.1814132914169
 21
46.571341705227212
 31
0.0
  0
LINE
  5
608A
  8
DANMEN
  6
CONTINUOUS
 10
313.34530129141689
 20
141.42134170522701
 30
0.0
 11
313.34530129141689
 21
74.721341705227204
 31
0.0
  0
LINE
  5
608C
  8
SUNPO
  6
CONTINUOUS
 10
377.99530029141692
 20
73.071341705227226
 30
0.0
 11
377.99530029141692
 21
143.0713417052271
 31
0.0
  0
POLYLINE
  5
60D9
  8
SUNPO
  6
BYBLOCK
 66
     1
 10
0.0
 20
0.0
 30
0.0
 70
     1
 40
1.159999999999999
 41
1.159999999999999
  0
VERTEX
  5
7014
  8
SUNPO
  6
BYBLOCK
 10
377.99530029141692
 20
73.216341705227123
 30
0.0
 42
1.0
  0
VERTEX
  5
7015
  8
SUNPO
  6
BYBLOCK
 10
377.99530029141692
 20
72.926341705227202
 30
0.0
 42
1.0
  0
SEQEND
  5
7016
  8
SUNPO
  6
BYBLOCK
  0
TEXT
  5
60F6
  8
SUNPO
  6
CONTINUOUS
 10
377.49530029141692
 20
110.7129467052269
 30
0.0
 40
2.5
  1
70
 50
90.0
 41
1.1000000000000001
  7
MX_DIMTXSTY_2
  0
LINE
  5
60FB
  8
SUNPO
  6
CONTINUOUS
 10
329.99530129141681
 20
163.0713417052271
 30
0.0
 11
349.99530129141681
 21
163.0713417052271
 31
0.0
  0
LINE
  5
60FC
  8
SUNPO
  6
CONTINUOUS
 10
329.99530129141681
 20
144.5713417052271
 30
0.0
 11
329.99530129141681
 21
163.0713417052271
 31
0.0
  0
LINE
  5
60FD
  8
SUNPO
  6
CONTINUOUS
 10
304.99530129141681
 20
144.5713417052271
 30
0.0
 11
304.99530129141681
 21
163.0713417052271
 31
0.0
  0
LINE
  5
60FE
  8
SUNPO
  6
CONTINUOUS
 10
329.99530129141681
 20
144.0713417052271
 30
0.0
 11
329.99530129141681
 21
163.0713417052271
 31
0.0
  0
LINE
  5
6102
  8
DANMEN
  6
CONTINUOUS
 10
306.64530129141701
 20
141.42134170522701
 30
0.0
 11
313.34530129141689
 21
141.42134170522701
 31
0.0
  0
TEXT
  5
610E
  8
SUNPO
  6
CONTINUOUS
 10
315.41196795808361
 20
163.5713417052271
 30
0.0
 40
2.5
  1
25
  7
MX_NOTE_STANDARD
  0
LINE
  5
610F
  8
SUNPO
  6
CONTINUOUS
 10
304.99530129141681
 20
163.0713417052271
 30
0.0
 11
329.99530129141681
 21
163.0713417052271
 31
0.0
  0
POLYLINE
  5
6110
  8
SUNPO
  6
BYBLOCK
 66
     1
 10
0.0
 20
0.0
 30
0.0
 70
     1
 40
1.159999999999999
 41
1.159999999999999
  0
VERTEX
  5
7017
  8
SUNPO
  6
BYBLOCK
 10
305.14030129141702
 20
163.0713417052271
 30
0.0
 42
1.0
  0
VERTEX
  5
7018
  8
SUNPO
  6
BYBLOCK
 10
304.85030129141688
 20
163.0713417052271
 30
0.0
 42
1.0
  0
SEQEND
  5
7019
  8
SUNPO
  6
BYBLOCK
  0
POLYLINE
  5
6114
  8
SUNPO
  6
BYBLOCK
 66
     1
 10
0.0
 20
0.0
 30
0.0
 70
     1
 40
1.159999999999999
 41
1.159999999999999
  0
VERTEX
  5
701A
  8
SUNPO
  6
BYBLOCK
 10
330.14030129141702
 20
163.0713417052271
 30
0.0
 42
1.0
  0
VERTEX
  5
701B
  8
SUNPO
  6
BYBLOCK
 10
329.85030129141688
 20
163.0713417052271
 30
0.0
 42
1.0
  0
SEQEND
  5
701C
  8
SUNPO
  6
BYBLOCK
  0
POLYLINE
  5
6118
  8
SUNPO
  6
BYBLOCK
 66
     1
 10
0.0
 20
0.0
 30
0.0
 70
     1
 40
1.159999999999999
 41
1.159999999999999
  0
VERTEX
  5
701D
  8
SUNPO
  6
BYBLOCK
 10
329.85030129141688
 20
163.0713417052271
 30
0.0
 42
1.0
  0
VERTEX
  5
701E
  8
SUNPO
  6
BYBLOCK
 10
330.14030129141702
 20
163.0713417052271
 30
0.0
 42
1.0
  0
SEQEND
  5
701F
  8
SUNPO
  6
BYBLOCK
  0
LINE
  5
611C
  8
SUNPO
  6
CONTINUOUS
 10
349.99530129141681
 20
144.5713417052271
 30
0.0
 11
349.99530129141681
 21
163.0713417052271
 31
0.0
  0
POLYLINE
  5
6129
  8
SUNPO
  6
BYBLOCK
 66
     1
 10
0.0
 20
0.0
 30
0.0
 70
     1
 40
1.159999999999999
 41
1.159999999999999
  0
VERTEX
  5
7020
  8
SUNPO
  6
BYBLOCK
 10
377.99530029141692
 20
142.92634170522689
 30
0.0
 42
1.0
  0
VERTEX
  5
7021
  8
SUNPO
  6
BYBLOCK
 10
377.99530029141692
 20
143.21634170522711
 30
0.0
 42
1.0
  0
SEQEND
  5
7022
  8
SUNPO
  6
BYBLOCK
  0
TEXT
  5
612D
  8
SUNPO
  6
CONTINUOUS
 10
337.93280129141681
 20
163.5713417052271
 30
0.0
 40
2.5
  1
20
 41
1.1000000000000001
  7
MX_DIMTXSTY_2
  0
POLYLINE
  5
612E
  8
SUNPO
  6
BYBLOCK
 66
     1
 10
0.0
 20
0.0
 30
0.0
 70
     1
 40
1.159999999999999
 41
1.159999999999999
  0
VERTEX
  5
7023
  8
SUNPO
  6
BYBLOCK
 10
349.850301291417
 20
163.0713417052271
 30
0.0
 42
1.0
  0
VERTEX
  5
7024
  8
SUNPO
  6
BYBLOCK
 10
350.14030129141702
 20
163.0713417052271
 30
0.0
 42
1.0
  0
SEQEND
  5
7025
  8
SUNPO
  6
BYBLOCK
  0
LINE
  5
6132
  8
SUNPO
  6
CONTINUOUS
 10
449.99530029141681
 20
71.571341705227198
 30
0.0
 11
449.99530029141681
 21
43.071341705227212
 31
0.0
  0
LINE
  5
6133
  8
SUNPO
  6
CONTINUOUS
 10
474.99530029141681
 20
72.071341705226914
 30
0.0
 11
474.99530029141681
 21
43.071341705227212
 31
0.0
  0
LINE
  5
6134
  8
SUNPO
  6
CONTINUOUS
 10
464.99529929141693
 20
71.571341705227198
 30
0.0
 11
464.99529929141693
 21
53.071341705227212
 31
0.0
  0
LINE
  5
6135
  8
SUNPO
  6
CONTINUOUS
 10
429.99529929141693
 20
71.571341705227198
 30
0.0
 11
429.99529929141693
 21
53.071341705227212
 31
0.0
  0
LINE
  5
6136
  8
SUNPO
  6
CONTINUOUS
 10
449.99530029141681
 20
43.071341705227212
 30
0.0
 11
444.99530029141692
 21
38.071341705227212
 31
0.0
  0
LINE
  5
6137
  8
SUNPO
  6
CONTINUOUS
 10
444.99530029141692
 20
48.071341705226899
 30
0.0
 11
449.99530029141681
 21
43.071341705227212
 31
0.0
  0
LINE
  5
6138
  8
SUNPO
  6
CONTINUOUS
 10
449.99530029141681
 20
53.071341705227212
 30
0.0
 11
429.99529929141693
 21
53.071341705227212
 31
0.0
  0
LINE
  5
6139
  8
SUNPO
  6
CONTINUOUS
 10
404.99530029141692
 20
43.071341705227212
 30
0.0
 11
449.99530029141681
 21
43.071341705227212
 31
0.0
  0
LINE
  5
613A
  8
SUNPO
  6
CONTINUOUS
 10
392.532261291417
 20
46.571341705227212
 30
0.0
 11
392.532261291417
 21
39.571344705227197
 31
0.0
  0
LINE
  5
613B
  8
SUNPO
  6
CONTINUOUS
 10
401.2643102914169
 20
44.571341705227212
 30
0.0
 11
396.2643102914169
 21
44.571341705227212
 31
0.0
  0
LINE
  5
613C
  8
SUNPO
  6
CONTINUOUS
 10
401.2643102914169
 20
41.571341705227212
 30
0.0
 11
396.2643102914169
 21
41.571341705227212
 31
0.0
  0
LINE
  5
613D
  8
SUNPO
  6
CONTINUOUS
 10
393.491105291417
 20
46.571341705227212
 30
0.0
 11
391.454585291417
 21
46.571341705227212
 31
0.0
  0
LINE
  5
613E
  8
SUNPO
  6
CONTINUOUS
 10
444.99530029141692
 20
38.071341705227212
 30
0.0
 11
444.99530029141692
 21
48.071341705226899
 31
0.0
  0
POLYLINE
  5
613F
  8
SUNPO
  6
BYBLOCK
 66
     1
 10
0.0
 20
0.0
 30
0.0
 70
     1
 40
1.159999999999999
 41
1.159999999999999
  0
VERTEX
  5
7026
  8
SUNPO
  6
BYBLOCK
 10
430.14029929141691
 20
53.071341705227212
 30
0.0
 42
1.0
  0
VERTEX
  5
7027
  8
SUNPO
  6
BYBLOCK
 10
429.850299291417
 20
53.071341705227212
 30
0.0
 42
1.0
  0
SEQEND
  5
7028
  8
SUNPO
  6
BYBLOCK
  0
TEXT
  5
6143
  8
SUNPO
  6
CONTINUOUS
 10
437.93279929141693
 20
53.571341705227212
 30
0.0
 40
2.5
  1
20
 41
1.1000000000000001
  7
MX_DIMTXSTY_2
  0
TEXT
  5
6144
  8
SUNPO
  6
CONTINUOUS
 10
460.4119669580835
 20
43.571341705227212
 30
0.0
 40
2.5
  1
25
  7
MX_NOTE_STANDARD
  0
LINE
  5
6145
  8
SUNPO
  6
CONTINUOUS
 10
474.99530029141681
 20
43.071341705227212
 30
0.0
 11
449.99530029141681
 21
43.071341705227212
 31
0.0
  0
POLYLINE
  5
6146
  8
SUNPO
  6
BYBLOCK
 66
     1
 10
0.0
 20
0.0
 30
0.0
 70
     1
 40
1.159999999999999
 41
1.159999999999999
  0
VERTEX
  5
7029
  8
SUNPO
  6
BYBLOCK
 10
474.85030029141689
 20
43.071341705227212
 30
0.0
 42
1.0
  0
VERTEX
  5
702A
  8
SUNPO
  6
BYBLOCK
 10
475.14030029141691
 20
43.071341705227212
 30
0.0
 42
1.0
  0
SEQEND
  5
702B
  8
SUNPO
  6
BYBLOCK
  0
LINE
  5
614A
  8
SUNPO
  6
CONTINUOUS
 10
464.99529929141693
 20
53.071341705227212
 30
0.0
 11
449.99530029141681
 21
53.071341705227212
 31
0.0
  0
TEXT
  5
614B
  8
SUNPO
  6
CONTINUOUS
 10
455.49529929141693
 20
53.571341705227212
 30
0.0
 40
2.5
  1
15
 41
1.1999999999999991
  7
MX_DIMTXSTY_4
  0
POLYLINE
  5
614C
  8
SUNPO
  6
BYBLOCK
 66
     1
 10
0.0
 20
0.0
 30
0.0
 70
     1
 40
1.159999999999999
 41
1.159999999999999
  0
VERTEX
  5
702C
  8
SUNPO
  6
BYBLOCK
 10
449.85030029141689
 20
53.071341705227212
 30
0.0
 42
1.0
  0
VERTEX
  5
702D
  8
SUNPO
  6
BYBLOCK
 10
450.14030029141691
 20
53.071341705227212
 30
0.0
 42
1.0
  0
SEQEND
  5
702E
  8
SUNPO
  6
BYBLOCK
  0
POLYLINE
  5
6150
  8
SUNPO
  6
BYBLOCK
 66
     1
 10
0.0
 20
0.0
 30
0.0
 70
     1
 40
1.159999999999999
 41
1.159999999999999
  0
VERTEX
  5
702F
  8
SUNPO
  6
BYBLOCK
 10
450.14030029141691
 20
53.071341705227212
 30
0.0
 42
1.0
  0
VERTEX
  5
7030
  8
SUNPO
  6
BYBLOCK
 10
449.85030029141689
 20
53.071341705227212
 30
0.0
 42
1.0
  0
SEQEND
  5
7031
  8
SUNPO
  6
BYBLOCK
  0
POLYLINE
  5
6154
  8
SUNPO
  6
BYBLOCK
 66
     1
 10
0.0
 20
0.0
 30
0.0
 70
     1
 40
1.159999999999999
 41
1.159999999999999
  0
VERTEX
  5
7032
  8
SUNPO
  6
BYBLOCK
 10
464.850299291417
 20
53.071341705227212
 30
0.0
 42
1.0
  0
VERTEX
  5
7033
  8
SUNPO
  6
BYBLOCK
 10
465.14029929141691
 20
53.071341705227212
 30
0.0
 42
1.0
  0
SEQEND
  5
7034
  8
SUNPO
  6
BYBLOCK
  0
LINE
  5
6161
  8
SUNPO
  6
CONTINUOUS
 10
411.99530029141692
 20
130.8713417052272
 30
0.0
 11
411.99530029141692
 21
94.871341705227223
 31
0.0
  0
LINE
  5
6162
  8
SUNPO
  6
CONTINUOUS
 10
401.99530029141692
 20
135.0713417052269
 30
0.0
 11
401.99530029141692
 21
92.371341705227223
 31
0.0
  0
POLYLINE
  5
616B
  8
SUNPO
  6
BYBLOCK
 66
     1
 10
0.0
 20
0.0
 30
0.0
 70
     1
 40
1.159999999999999
 41
1.159999999999999
  0
VERTEX
  5
7035
  8
SUNPO
  6
BYBLOCK
 10
411.99530029141692
 20
95.016341705227148
 30
0.0
 42
1.0
  0
VERTEX
  5
7036
  8
SUNPO
  6
BYBLOCK
 10
411.99530029141692
 20
94.726341705227014
 30
0.0
 42
1.0
  0
SEQEND
  5
7037
  8
SUNPO
  6
BYBLOCK
  0
TEXT
  5
6173
  8
SUNPO
  6
CONTINUOUS
 10
401.49530029141692
 20
78.221341705227232
 30
0.0
 40
2.5
  1
19.3
 50
90.0
 41
1.3500000000000001
  7
MX_DIMTXSTY_3
  0
LINE
  5
6174
  8
SUNPO
  6
CONTINUOUS
 10
401.99530029141692
 20
73.071341705227226
 30
0.0
 11
401.99530029141692
 21
92.371341705227223
 31
0.0
  0
POLYLINE
  5
6175
  8
SUNPO
  6
BYBLOCK
 66
     1
 10
0.0
 20
0.0
 30
0.0
 70
     1
 40
1.159999999999999
 41
1.159999999999999
  0
VERTEX
  5
7038
  8
SUNPO
  6
BYBLOCK
 10
401.99530029141692
 20
73.216341705227222
 30
0.0
 42
1.0
  0
VERTEX
  5
7039
  8
SUNPO
  6
BYBLOCK
 10
401.99530029141692
 20
72.926341705227202
 30
0.0
 42
1.0
  0
SEQEND
  5
703A
  8
SUNPO
  6
BYBLOCK
  0
POLYLINE
  5
6179
  8
SUNPO
  6
BYBLOCK
 66
     1
 10
0.0
 20
0.0
 30
0.0
 70
     1
 40
1.159999999999999
 41
1.159999999999999
  0
VERTEX
  5
703B
  8
SUNPO
  6
BYBLOCK
 10
401.99530029141692
 20
92.516341705227148
 30
0.0
 42
1.0
  0
VERTEX
  5
703C
  8
SUNPO
  6
BYBLOCK
 10
401.99530029141692
 20
92.226341705227199
 30
0.0
 42
1.0
  0
SEQEND
  5
703D
  8
SUNPO
  6
BYBLOCK
  0
POLYLINE
  5
617D
  8
SUNPO
  6
BYBLOCK
 66
     1
 10
0.0
 20
0.0
 30
0.0
 70
     1
 40
1.159999999999999
 41
1.159999999999999
  0
VERTEX
  5
703E
  8
SUNPO
  6
BYBLOCK
 10
401.99530029141692
 20
92.226341705227199
 30
0.0
 42
1.0
  0
VERTEX
  5
703F
  8
SUNPO
  6
BYBLOCK
 10
401.99530029141692
 20
92.516341705227148
 30
0.0
 42
1.0
  0
SEQEND
  5
7040
  8
SUNPO
  6
BYBLOCK
  0
TEXT
  5
618E
  8
SUNPO
  6
CONTINUOUS
 10
411.49530029141692
 20
110.7880083718937
 30
0.0
 40
2.5
  1
36
 50
90.0
  7
MX_NOTE_STANDARD
  0
TEXT
  5
618F
  8
SUNPO
  6
CONTINUOUS
 10
401.49530029141692
 20
108.611996705227
 30
0.0
 40
2.5
  1
42.7
 50
90.0
 41
1.1999999999999991
  7
MX_DIMTXSTY_4
  0
LINE
  5
61D7
  8
SUNPO
  6
CONTINUOUS
 10
429.99529929141693
 20
163.0713417052271
 30
0.0
 11
449.99529929141693
 21
163.0713417052271
 31
0.0
  0
LINE
  5
61DC
  8
SUNPO
  6
CONTINUOUS
 10
429.99529929141693
 20
144.5713417052271
 30
0.0
 11
429.99529929141693
 21
163.0713417052271
 31
0.0
  0
LINE
  5
61DF
  8
SUNPO
  6
CONTINUOUS
 10
428.99529829141687
 20
135.0713417052269
 30
0.0
 11
401.99530029141692
 21
135.0713417052269
 31
0.0
  0
LINE
  5
61E0
  8
SUNPO
  6
CONTINUOUS
 10
401.99530029141692
 20
135.0713417052269
 30
0.0
 11
401.99530029141692
 21
143.0713417052271
 31
0.0
  0
POLYLINE
  5
61E1
  8
SUNPO
  6
BYBLOCK
 66
     1
 10
0.0
 20
0.0
 30
0.0
 70
     1
 40
1.159999999999999
 41
1.159999999999999
  0
VERTEX
  5
7041
  8
SUNPO
  6
BYBLOCK
 10
401.99530029141692
 20
134.926341705227
 30
0.0
 42
1.0
  0
VERTEX
  5
7042
  8
SUNPO
  6
BYBLOCK
 10
401.99530029141692
 20
135.21634170522719
 30
0.0
 42
1.0
  0
SEQEND
  5
7043
  8
SUNPO
  6
BYBLOCK
  0
POLYLINE
  5
61E5
  8
SUNPO
  6
BYBLOCK
 66
     1
 10
0.0
 20
0.0
 30
0.0
 70
     1
 40
1.159999999999999
 41
1.159999999999999
  0
VERTEX
  5
7044
  8
SUNPO
  6
BYBLOCK
 10
401.99530029141692
 20
135.21634170522719
 30
0.0
 42
1.0
  0
VERTEX
  5
7045
  8
SUNPO
  6
BYBLOCK
 10
401.99530029141692
 20
134.926341705227
 30
0.0
 42
1.0
  0
SEQEND
  5
7046
  8
SUNPO
  6
BYBLOCK
  0
POLYLINE
  5
61E9
  8
SUNPO
  6
BYBLOCK
 66
     1
 10
0.0
 20
0.0
 30
0.0
 70
     1
 40
1.159999999999999
 41
1.159999999999999
  0
VERTEX
  5
7047
  8
SUNPO
  6
BYBLOCK
 10
401.99530029141692
 20
142.92634170522689
 30
0.0
 42
1.0
  0
VERTEX
  5
7048
  8
SUNPO
  6
BYBLOCK
 10
401.99530029141692
 20
143.21634170522711
 30
0.0
 42
1.0
  0
SEQEND
  5
7049
  8
SUNPO
  6
BYBLOCK
  0
TEXT
  5
61ED
  8
SUNPO
  6
CONTINUOUS
 10
401.49530029141692
 20
138.2380083718939
 30
0.0
 40
2.5
  1
8
 50
90.0
  7
MX_NOTE_STANDARD
  0
POLYLINE
  5
61EE
  8
SUNPO
  6
BYBLOCK
 66
     1
 10
0.0
 20
0.0
 30
0.0
 70
     1
 40
1.159999999999999
 41
1.159999999999999
  0
VERTEX
  5
704A
  8
SUNPO
  6
BYBLOCK
 10
411.99530029141692
 20
130.7263417052269
 30
0.0
 42
1.0
  0
VERTEX
  5
704B
  8
SUNPO
  6
BYBLOCK
 10
411.99530029141692
 20
131.01634170522721
 30
0.0
 42
1.0
  0
SEQEND
  5
704C
  8
SUNPO
  6
BYBLOCK
  0
POLYLINE
  5
61FB
  8
SUNPO
  6
BYBLOCK
 66
     1
 10
0.0
 20
0.0
 30
0.0
 70
     1
 40
1.159999999999999
 41
1.159999999999999
  0
VERTEX
  5
704D
  8
SUNPO
  6
BYBLOCK
 10
430.14029929141691
 20
163.0713417052271
 30
0.0
 42
1.0
  0
VERTEX
  5
704E
  8
SUNPO
  6
BYBLOCK
 10
429.850299291417
 20
163.0713417052271
 30
0.0
 42
1.0
  0
SEQEND
  5
704F
  8
SUNPO
  6
BYBLOCK
  0
TEXT
  5
61FF
  8
SUNPO
  6
CONTINUOUS
 10
437.93279929141693
 20
163.5713417052271
 30
0.0
 40
2.5
  1
20
 41
1.1000000000000001
  7
MX_DIMTXSTY_2
  0
LINE
  5
6200
  8
SUNPO
  6
CONTINUOUS
 10
474.99529929141693
 20
144.5713417052271
 30
0.0
 11
474.99529929141693
 21
163.0713417052271
 31
0.0
  0
LINE
  5
6201
  8
SUNPO
  6
CONTINUOUS
 10
449.99529929141693
 20
144.5713417052271
 30
0.0
 11
449.99529929141693
 21
163.0713417052271
 31
0.0
  0
TEXT
  5
6211
  8
SUNPO
  6
CONTINUOUS
 10
460.41196595808361
 20
163.5713417052271
 30
0.0
 40
2.5
  1
25
  7
MX_NOTE_STANDARD
  0
LINE
  5
6212
  8
SUNPO
  6
CONTINUOUS
 10
449.99529929141693
 20
163.0713417052271
 30
0.0
 11
474.99529929141693
 21
163.0713417052271
 31
0.0
  0
POLYLINE
  5
6213
  8
SUNPO
  6
BYBLOCK
 66
     1
 10
0.0
 20
0.0
 30
0.0
 70
     1
 40
1.159999999999999
 41
1.159999999999999
  0
VERTEX
  5
7050
  8
SUNPO
  6
BYBLOCK
 10
449.85029929141672
 20
163.0713417052271
 30
0.0
 42
1.0
  0
VERTEX
  5
7051
  8
SUNPO
  6
BYBLOCK
 10
450.14029929141691
 20
163.0713417052271
 30
0.0
 42
1.0
  0
SEQEND
  5
7052
  8
SUNPO
  6
BYBLOCK
  0
POLYLINE
  5
6217
  8
SUNPO
  6
BYBLOCK
 66
     1
 10
0.0
 20
0.0
 30
0.0
 70
     1
 40
1.159999999999999
 41
1.159999999999999
  0
VERTEX
  5
7053
  8
SUNPO
  6
BYBLOCK
 10
450.14029929141691
 20
163.0713417052271
 30
0.0
 42
1.0
  0
VERTEX
  5
7054
  8
SUNPO
  6
BYBLOCK
 10
449.85029929141672
 20
163.0713417052271
 30
0.0
 42
1.0
  0
SEQEND
  5
7055
  8
SUNPO
  6
BYBLOCK
  0
POLYLINE
  5
621B
  8
SUNPO
  6
BYBLOCK
 66
     1
 10
0.0
 20
0.0
 30
0.0
 70
     1
 40
1.159999999999999
 41
1.159999999999999
  0
VERTEX
  5
7056
  8
SUNPO
  6
BYBLOCK
 10
474.85029929141672
 20
163.0713417052271
 30
0.0
 42
1.0
  0
VERTEX
  5
7057
  8
SUNPO
  6
BYBLOCK
 10
475.14029929141691
 20
163.0713417052271
 30
0.0
 42
1.0
  0
SEQEND
  5
7058
  8
SUNPO
  6
BYBLOCK
  0
LINE
  5
621F
  8
SUNPO
  6
CONTINUOUS
 10
477.94879068434608
 20
216.5237387757989
 30
0.0
 11
477.94879068434608
 21
200.72373877579889
 31
0.0
  0
TEXT
  5
6220
  8
SUNPO
  6
CONTINUOUS
 10
477.44879068434602
 20
204.1237386804315
 30
0.0
 40
2.5
  1
15.8
 50
90.0
 41
1.3500000000000001
  7
MX_DIMTXSTY_4
  0
LINE
  5
6221
  8
DANMEN
  6
CONTINUOUS
 10
443.94879068434608
 20
212.32373877579909
 30
0.0
 11
443.94879068434608
 21
205.72373877579889
 31
0.0
  0
LINE
  5
6222
  8
DANMEN
  6
CONTINUOUS
 10
411.9487906843467
 20
212.32373877579909
 30
0.0
 11
411.9487906843467
 21
205.72373877579889
 31
0.0
  0
LINE
  5
6223
  8
SUNPO
  6
CONTINUOUS
 10
357.9487906843467
 20
200.72373877579889
 30
0.0
 11
357.9487906843467
 21
216.5237387757989
 31
0.0
  0
TEXT
  5
6224
  8
SUNPO
  6
CONTINUOUS
 10
357.44879068434648
 20
204.1237388711663
 30
0.0
 40
2.5
  1
15.8
 50
90.0
 41
1.3500000000000001
  7
MX_DIMTXSTY_4
  0
LINE
  5
6225
  8
DANMEN
  6
CONTINUOUS
 10
323.94879068434659
 20
212.3237387757988
 30
0.0
 11
323.94879068434659
 21
205.72373877579889
 31
0.0
  0
LINE
  5
6226
  8
DANMEN
  6
CONTINUOUS
 10
311.94879068434631
 20
212.3237387757988
 30
0.0
 11
311.94879068434631
 21
205.72373877579889
 31
0.0
  0
LINE
  5
6227
  8
SUNPO
  6
CONTINUOUS
 10
277.94879068434659
 20
267.22373877579878
 30
0.0
 11
277.94879068434659
 21
197.22373877579909
 31
0.0
  0
LINE
  5
6228
  8
SUNPO
  6
CONTINUOUS
 10
377.9487906843467
 20
267.22373877579878
 30
0.0
 11
377.9487906843467
 21
197.22373877579909
 31
0.0
  0
LINE
  5
6229
  8
DANMEN
  6
CONTINUOUS
 10
447.94879068434608
 20
218.21472178142389
 30
0.0
 11
447.94879068434608
 21
201.72373877579889
 31
0.0
  0
LINE
  5
622A
  8
DANMEN
  6
CONTINUOUS
 10
407.9487906843467
 20
218.21472178142389
 30
0.0
 11
407.9487906843467
 21
201.72373877579889
 31
0.0
  0
LINE
  5
622B
  8
DANMEN
  6
CONTINUOUS
 10
327.94879068434659
 20
218.21472178142389
 30
0.0
 11
327.94879068434659
 21
201.72373877579889
 31
0.0
  0
LINE
  5
622C
  8
DANMEN
  6
CONTINUOUS
 10
307.94879068434631
 20
218.21472178142389
 30
0.0
 11
307.94879068434631
 21
201.72373877579889
 31
0.0
  0
LINE
  5
622D
  8
DANMEN
  6
CONTINUOUS
 10
272.94879068434631
 20
200.72373877579889
 30
0.0
 11
362.94879068434602
 21
200.72373877579889
 31
0.0
  0
LINE
  5
622E
  8
DANMEN
  6
CONTINUOUS
 10
272.94879068434631
 20
197.22373877579909
 30
0.0
 11
362.94879068434602
 21
197.22373877579909
 31
0.0
  0
LINE
  5
622F
  8
SUNPO
  6
CONTINUOUS
 10
307.94879070818843
 20
187.22373877579909
 30
0.0
 11
287.94879068434631
 21
187.22373877579909
 31
0.0
  0
LINE
  5
6230
  8
SUNPO
  6
CONTINUOUS
 10
287.94879068434631
 20
195.72373877579881
 30
0.0
 11
287.94879068434631
 21
187.22373877579909
 31
0.0
  0
ARC
  5
6231
  8
SUNPO
  6
BYBLOCK
 10
287.94879068434631
 20
187.22373877579909
 30
0.0
 40
0.145
 50
180.0
 51
0.0
  0
ARC
  5
6232
  8
SUNPO
  6
BYBLOCK
 10
287.94879068434631
 20
187.22373877579909
 30
0.0
 40
0.145
 50
0.0
 51
180.0
  0
ARC
  5
6233
  8
SUNPO
  6
BYBLOCK
 10
277.94879068434659
 20
197.22373877579909
 30
0.0
 40
0.1449999999999996
 50
270.0
 51
90.0
  0
ARC
  5
6234
  8
SUNPO
  6
BYBLOCK
 10
277.94879068434659
 20
197.22373877579909
 30
0.0
 40
0.1449999999999996
 50
90.0
 51
270.0
  0
LINE
  5
6235
  8
SUNPO
  6
CONTINUOUS
 10
327.9487906605047
 20
187.22373877579909
 30
0.0
 11
307.94879070818843
 21
187.22373877579909
 31
0.0
  0
LINE
  5
6236
  8
DANMEN
  6
CONTINUOUS
 10
311.94879068434631
 20
205.72373877579889
 30
0.0
 11
323.94879068434659
 21
205.72373877579889
 31
0.0
  0
LINE
  5
6237
  8
DANMEN
  6
CONTINUOUS
 10
308.94879068434631
 20
200.72373877579889
 30
0.0
 11
326.94879068434631
 21
200.72373877579889
 31
0.0
  0
LINE
  5
6238
  8
SUNPO
  6
CONTINUOUS
 10
307.94879070818843
 20
195.72373877579881
 30
0.0
 11
307.94879070818843
 21
187.22373877579909
 31
0.0
  0
ARC
  5
6239
  8
SUNPO
  6
BYBLOCK
 10
307.94879070818843
 20
187.22373877579909
 30
0.0
 40
0.1449999999999996
 50
180.0
 51
0.0
  0
ARC
  5
623A
  8
SUNPO
  6
BYBLOCK
 10
307.94879070818843
 20
187.22373877579909
 30
0.0
 40
0.1449999999999996
 50
0.0
 51
180.0
  0
ARC
  5
623B
  8
SUNPO
  6
BYBLOCK
 10
307.94879070818843
 20
187.22373877579909
 30
0.0
 40
0.1449999999999996
 50
0.0
 51
180.0
  0
ARC
  5
623C
  8
SUNPO
  6
BYBLOCK
 10
307.94879070818843
 20
187.22373877579909
 30
0.0
 40
0.1449999999999996
 50
180.0
 51
0.0
  0
TEXT
  5
623D
  8
SUNPO
  6
CONTINUOUS
 10
295.88629070818848
 20
187.72373877579881
 30
0.0
 40
2.5
  1
20
 41
1.1000000000000001
  7
MX_DIMTXSTY_5
  0
TEXT
  5
623E
  8
SUNPO
  6
CONTINUOUS
 10
315.8862906605047
 20
187.72373877579881
 30
0.0
 40
2.5
  1
20
 41
1.1000000000000001
  7
MX_DIMTXSTY_5
  0
ARC
  5
623F
  8
DANMEN
  6
CONTINUOUS
 10
308.94879068434631
 20
201.72373877579889
 30
0.0
 40
1.0
 50
180.0
 51
270.0
  0
LINE
  5
6240
  8
SUNPO
  6
CONTINUOUS
 10
347.9487892941396
 20
195.72373877579881
 30
0.0
 11
347.9487892941396
 21
187.22373877579909
 31
0.0
  0
LINE
  5
6241
  8
SUNPO
  6
CONTINUOUS
 10
327.9487906605047
 20
195.72373877579881
 30
0.0
 11
327.9487906605047
 21
187.22373877579909
 31
0.0
  0
TEXT
  5
6242
  8
SUNPO
  6
CONTINUOUS
 10
335.88629024781397
 20
187.72373877579881
 30
0.0
 40
2.5
  1
20
 41
1.1000000000000001
  7
MX_DIMTXSTY_5
  0
LINE
  5
6243
  8
SUNPO
  6
CONTINUOUS
 10
347.9487892941396
 20
187.22373877579909
 30
0.0
 11
327.9487906605047
 21
187.22373877579909
 31
0.0
  0
ARC
  5
6244
  8
SUNPO
  6
BYBLOCK
 10
327.9487906605047
 20
187.22373877579909
 30
0.0
 40
0.1450000000000031
 50
0.0
 51
180.0
  0
ARC
  5
6245
  8
SUNPO
  6
BYBLOCK
 10
327.9487906605047
 20
187.22373877579909
 30
0.0
 40
0.1450000000000031
 50
180.0
 51
0.0
  0
ARC
  5
6246
  8
SUNPO
  6
BYBLOCK
 10
327.9487906605047
 20
187.22373877579909
 30
0.0
 40
0.1450000000000031
 50
180.0
 51
0.0
  0
ARC
  5
6247
  8
SUNPO
  6
BYBLOCK
 10
327.9487906605047
 20
187.22373877579909
 30
0.0
 40
0.1450000000000031
 50
0.0
 51
180.0
  0
ARC
  5
6248
  8
SUNPO
  6
BYBLOCK
 10
347.9487892941396
 20
187.22373877579909
 30
0.0
 40
0.1450000000000031
 50
0.0
 51
180.0
  0
ARC
  5
6249
  8
SUNPO
  6
BYBLOCK
 10
347.9487892941396
 20
187.22373877579909
 30
0.0
 40
0.1450000000000031
 50
180.0
 51
0.0
  0
ARC
  5
624A
  8
DANMEN
  6
CONTINUOUS
 10
326.94879068434631
 20
201.72373877579889
 30
0.0
 40
1.0
 50
270.0
 51
0.0
  0
POINT
  5
624B
  8
DANMEN
  6
CONTINUOUS
 10
324.31131614895088
 20
202.4692825944993
 30
0.0
  0
LINE
  5
624C
  8
SUNPO
  6
CONTINUOUS
 10
467.94878929413937
 20
187.22373877579909
 30
0.0
 11
447.9487906605043
 21
187.22373877579909
 31
0.0
  0
LINE
  5
624D
  8
DANMEN
  6
CONTINUOUS
 10
372.9487906843467
 20
200.72373877579889
 30
0.0
 11
482.94879068434608
 21
200.72373877579889
 31
0.0
  0
LINE
  5
624E
  8
DANMEN
  6
CONTINUOUS
 10
372.9487906843467
 20
197.22373877579909
 30
0.0
 11
482.94879068434608
 21
197.22373877579909
 31
0.0
  0
LINE
  5
624F
  8
SUNPO
  6
CONTINUOUS
 10
447.9487906605043
 20
187.22373877579909
 30
0.0
 11
407.94879070818808
 21
187.22373877579909
 31
0.0
  0
LINE
  5
6250
  8
DANMEN
  6
CONTINUOUS
 10
408.9487906843467
 20
200.72373877579889
 30
0.0
 11
446.94879068434608
 21
200.72373877579889
 31
0.0
  0
TEXT
  5
6251
  8
SUNPO
  6
CONTINUOUS
 10
357.44879068434648
 20
188.289042101452
 30
0.0
 40
2.5
  1
3.5
 50
90.0
 41
1.3
  7
MX_DIMTXSTY_2
  0
LINE
  5
6252
  8
SUNPO
  6
CONTINUOUS
 10
357.9487906843467
 20
187.78904210145191
 30
0.0
 11
357.9487906843467
 21
197.22373877579909
 31
0.0
  0
ARC
  5
6253
  8
SUNPO
  6
BYBLOCK
 10
357.9487906843467
 20
200.72373877579889
 30
0.0
 40
0.1449999999999996
 50
270.0
 51
90.0
  0
ARC
  5
6254
  8
SUNPO
  6
BYBLOCK
 10
357.9487906843467
 20
200.72373877579889
 30
0.0
 40
0.1449999999999996
 50
90.0
 51
270.0
  0
LINE
  5
6255
  8
DANMEN
  6
CONTINUOUS
 10
357.9487906843467
 20
200.72373877579889
 30
0.0
 11
357.9487906843467
 21
200.72373877579889
 31
0.0
  0
ARC
  5
6256
  8
SUNPO
  6
BYBLOCK
 10
357.9487906843467
 20
197.22373877579909
 30
0.0
 40
0.1449999999999996
 50
90.0
 51
270.0
  0
ARC
  5
6257
  8
SUNPO
  6
BYBLOCK
 10
357.9487906843467
 20
197.22373877579909
 30
0.0
 40
0.1449999999999996
 50
270.0
 51
90.0
  0
LINE
  5
6258
  8
DANMEN
  6
CONTINUOUS
 10
357.9487906843467
 20
197.22373877579909
 30
0.0
 11
357.9487906843467
 21
197.22373877579909
 31
0.0
  0
LINE
  5
6259
  8
SUNPO
  6
CONTINUOUS
 10
357.9487906843467
 20
197.22373877579909
 30
0.0
 11
357.9487906843467
 21
200.72373877579889
 31
0.0
  0
ARC
  5
625A
  8
SUNPO
  6
BYBLOCK
 10
377.9487906843467
 20
197.22373877579909
 30
0.0
 40
0.1449999999999996
 50
270.0
 51
90.0
  0
ARC
  5
625B
  8
SUNPO
  6
BYBLOCK
 10
377.9487906843467
 20
197.22373877579909
 30
0.0
 40
0.1449999999999996
 50
90.0
 51
270.0
  0
LINE
  5
625C
  8
SUNPO
  6
CONTINUOUS
 10
407.94879070818808
 20
195.72373877579881
 30
0.0
 11
407.94879070818808
 21
187.22373877579909
 31
0.0
  0
LINE
  5
625D
  8
SUNPO
  6
CONTINUOUS
 10
387.94879068434631
 20
195.72373877579881
 30
0.0
 11
387.94879068434631
 21
187.22373877579909
 31
0.0
  0
LINE
  5
625E
  8
SUNPO
  6
CONTINUOUS
 10
407.94879070818808
 20
187.22373877579909
 30
0.0
 11
387.94879068434631
 21
187.22373877579909
 31
0.0
  0
ARC
  5
625F
  8
SUNPO
  6
BYBLOCK
 10
387.94879068434631
 20
187.22373877579909
 30
0.0
 40
0.144999999999996
 50
180.0
 51
0.0
  0
ARC
  5
6260
  8
SUNPO
  6
BYBLOCK
 10
387.94879068434631
 20
187.22373877579909
 30
0.0
 40
0.144999999999996
 50
0.0
 51
180.0
  0
TEXT
  5
6261
  8
SUNPO
  6
CONTINUOUS
 10
395.88629070818808
 20
187.72373877579881
 30
0.0
 40
2.5
  1
20
 41
1.1000000000000001
  7
MX_DIMTXSTY_5
  0
ARC
  5
6262
  8
SUNPO
  6
BYBLOCK
 10
407.94879070818808
 20
187.22373877579909
 30
0.0
 40
0.144999999999996
 50
0.0
 51
180.0
  0
ARC
  5
6263
  8
SUNPO
  6
BYBLOCK
 10
407.94879070818808
 20
187.22373877579909
 30
0.0
 40
0.144999999999996
 50
180.0
 51
0.0
  0
ARC
  5
6264
  8
SUNPO
  6
BYBLOCK
 10
407.94879070818808
 20
187.22373877579909
 30
0.0
 40
0.144999999999996
 50
180.0
 51
0.0
  0
ARC
  5
6265
  8
SUNPO
  6
BYBLOCK
 10
407.94879070818808
 20
187.22373877579909
 30
0.0
 40
0.144999999999996
 50
0.0
 51
180.0
  0
ARC
  5
6266
  8
DANMEN
  6
CONTINUOUS
 10
408.9487906843467
 20
201.72373877579889
 30
0.0
 40
1.0
 50
180.0
 51
270.0
  0
LINE
  5
6267
  8
DANMEN
  6
CONTINUOUS
 10
411.9487906843467
 20
205.72373877579889
 30
0.0
 11
443.94879068434608
 21
205.72373877579889
 31
0.0
  0
TEXT
  5
6268
  8
SUNPO
  6
CONTINUOUS
 10
425.88629066050441
 20
187.72373877579881
 30
0.0
 40
2.5
  1
40
 41
1.1000000000000001
  7
MX_DIMTXSTY_5
  0
LINE
  5
6269
  8
SUNPO
  6
CONTINUOUS
 10
447.9487906605043
 20
195.72373877579881
 30
0.0
 11
447.9487906605043
 21
187.22373877579909
 31
0.0
  0
ARC
  5
626A
  8
SUNPO
  6
BYBLOCK
 10
447.9487906605043
 20
187.22373877579909
 30
0.0
 40
0.1450000000000102
 50
0.0
 51
180.0
  0
ARC
  5
626B
  8
SUNPO
  6
BYBLOCK
 10
447.9487906605043
 20
187.22373877579909
 30
0.0
 40
0.1450000000000102
 50
180.0
 51
0.0
  0
ARC
  5
626C
  8
SUNPO
  6
BYBLOCK
 10
447.9487906605043
 20
187.22373877579909
 30
0.0
 40
0.1450000000000102
 50
180.0
 51
0.0
  0
ARC
  5
626D
  8
SUNPO
  6
BYBLOCK
 10
447.9487906605043
 20
187.22373877579909
 30
0.0
 40
0.1450000000000102
 50
0.0
 51
180.0
  0
TEXT
  5
626E
  8
SUNPO
  6
CONTINUOUS
 10
455.88629024781369
 20
187.72373877579881
 30
0.0
 40
2.5
  1
20
 41
1.1000000000000001
  7
MX_DIMTXSTY_5
  0
ARC
  5
626F
  8
DANMEN
  6
CONTINUOUS
 10
446.94879068434608
 20
201.72373877579889
 30
0.0
 40
1.0
 50
270.0
 51
0.0
  0
TEXT
  5
6270
  8
SUNPO
  6
CONTINUOUS
 10
477.44879068434602
 20
189.66553078705991
 30
0.0
 40
2.5
  1
3.5
 50
90.0
 41
1.3
  7
MX_DIMTXSTY_2
  0
LINE
  5
6271
  8
SUNPO
  6
CONTINUOUS
 10
477.94879068434608
 20
189.16553078705991
 30
0.0
 11
477.94879068434608
 21
197.22373877579909
 31
0.0
  0
LINE
  5
6272
  8
SUNPO
  6
CONTINUOUS
 10
467.94878929413937
 20
195.72373877579881
 30
0.0
 11
467.94878929413937
 21
187.22373877579909
 31
0.0
  0
ARC
  5
6273
  8
SUNPO
  6
BYBLOCK
 10
467.94878929413937
 20
187.22373877579909
 30
0.0
 40
0.1450000000000102
 50
0.0
 51
180.0
  0
ARC
  5
6274
  8
SUNPO
  6
BYBLOCK
 10
467.94878929413937
 20
187.22373877579909
 30
0.0
 40
0.1450000000000102
 50
180.0
 51
0.0
  0
ARC
  5
6275
  8
SUNPO
  6
BYBLOCK
 10
477.94879068434608
 20
200.72373877579889
 30
0.0
 40
0.1449999999999996
 50
270.0
 51
90.0
  0
ARC
  5
6276
  8
SUNPO
  6
BYBLOCK
 10
477.94879068434608
 20
200.72373877579889
 30
0.0
 40
0.1449999999999996
 50
90.0
 51
270.0
  0
ARC
  5
6277
  8
SUNPO
  6
BYBLOCK
 10
477.94879068434608
 20
200.72373877579889
 30
0.0
 40
0.1449999999999996
 50
270.0
 51
90.0
  0
ARC
  5
6278
  8
SUNPO
  6
BYBLOCK
 10
477.94879068434608
 20
200.72373877579889
 30
0.0
 40
0.1449999999999996
 50
90.0
 51
270.0
  0
LINE
  5
6279
  8
SUNPO
  6
CONTINUOUS
 10
477.94879068434608
 20
200.72373877579889
 30
0.0
 11
477.94879068434608
 21
200.72373877579889
 31
0.0
  0
ARC
  5
627A
  8
SUNPO
  6
BYBLOCK
 10
477.94879068434608
 20
197.22373877579909
 30
0.0
 40
0.1449999999999996
 50
90.0
 51
270.0
  0
ARC
  5
627B
  8
SUNPO
  6
BYBLOCK
 10
477.94879068434608
 20
197.22373877579909
 30
0.0
 40
0.1449999999999996
 50
270.0
 51
90.0
  0
LINE
  5
627C
  8
DANMEN
  6
CONTINUOUS
 10
477.94879068434608
 20
197.22373877579909
 30
0.0
 11
477.94879068434608
 21
197.22373877579909
 31
0.0
  0
LINE
  5
627D
  8
SUNPO
  6
CONTINUOUS
 10
477.94879068434608
 20
197.22373877579909
 30
0.0
 11
477.94879068434608
 21
200.72373877579889
 31
0.0
  0
LINE
  5
627E
  8
SUNPO
  6
CONTINUOUS
 10
348.94879068434619
 20
262.0237387757989
 30
0.0
 11
357.9487906843467
 21
262.0237387757989
 31
0.0
  0
LINE
  5
627F
  8
SUNPO
  6
CONTINUOUS
 10
348.94879068434648
 20
262.0237387757989
 30
0.0
 11
357.9487906843467
 21
262.0237387757989
 31
0.0
  0
LINE
  5
6280
  8
DANMEN
  6
CONTINUOUS
 10
347.94879068434631
 20
257.22373877579912
 30
0.0
 11
362.94879068434631
 21
257.22373877579912
 31
0.0
  0
LINE
  5
6281
  8
DANMEN
  6
CONTINUOUS
 10
362.94879068434631
 20
255.02373869264471
 30
0.0
 11
348.03969978330912
 21
255.02373873150501
 31
0.0
  0
LINE
  5
6282
  8
DANMEN
  6
CONTINUOUS
 10
362.94879068434602
 20
219.02373877579879
 30
0.0
 11
348.0396997752556
 21
219.02373877579879
 31
0.0
  0
LINE
  5
6283
  8
DANMEN
  6
CONTINUOUS
 10
272.94879068434631
 20
265.42373877579888
 30
0.0
 11
362.9487906843467
 21
265.42373877579888
 31
0.0
  0
LINE
  5
6284
  8
DANMEN
  6
CONTINUOUS
 10
272.94879068434631
 20
267.22373877579878
 30
0.0
 11
362.9487906843467
 21
267.22373877579878
 31
0.0
  0
LINE
  5
6285
  8
DANMEN
  6
CONTINUOUS
 10
330.9487906843467
 20
226.5237387757989
 30
0.0
 11
362.94879068434602
 21
226.5237387757989
 31
0.0
  0
LINE
  5
6286
  8
DANMEN
  6
CONTINUOUS
 10
330.9487906843467
 20
224.5237387757989
 30
0.0
 11
362.94879068434602
 21
224.5237387757989
 31
0.0
  0
LINE
  5
6287
  8
DANMEN
  6
CONTINUOUS
 10
330.9487906843467
 20
224.0237387757989
 30
0.0
 11
362.94879068434602
 21
224.0237387757989
 31
0.0
  0
LINE
  5
6288
  8
DANMEN
  6
CONTINUOUS
 10
330.9487906843467
 20
227.5237387757989
 30
0.0
 11
362.94879068434602
 21
227.5237387757989
 31
0.0
  0
LINE
  5
6289
  8
DANMEN
  6
CONTINUOUS
 10
330.9487906843467
 20
227.0237387757989
 30
0.0
 11
362.94879068434602
 21
227.0237387757989
 31
0.0
  0
LINE
  5
628A
  8
DANMEN
  6
CONTINUOUS
 10
330.9487906843467
 20
229.5237387757989
 30
0.0
 11
362.94879068434602
 21
229.5237387757989
 31
0.0
  0
LINE
  5
628B
  8
DANMEN
  6
CONTINUOUS
 10
330.9487906843467
 20
242.52373877579879
 30
0.0
 11
362.94879068434602
 21
242.52373877579879
 31
0.0
  0
LINE
  5
628C
  8
DANMEN
  6
CONTINUOUS
 10
330.9487906843467
 20
249.5237387757989
 30
0.0
 11
362.94879068434602
 21
249.5237387757989
 31
0.0
  0
LINE
  5
628D
  8
DANMEN
  6
CONTINUOUS
 10
330.9487906843467
 20
230.02373877579879
 30
0.0
 11
362.94879068434602
 21
230.02373877579879
 31
0.0
  0
LINE
  5
628E
  8
DANMEN
  6
CONTINUOUS
 10
330.9487906843467
 20
242.0237387757989
 30
0.0
 11
362.94879068434602
 21
242.0237387757989
 31
0.0
  0
LINE
  5
628F
  8
DANMEN
  6
CONTINUOUS
 10
330.9487906843467
 20
250.0237387757989
 30
0.0
 11
362.94879068434602
 21
250.0237387757989
 31
0.0
  0
LINE
  5
6290
  8
DANMEN
  6
CONTINUOUS
 10
347.44878817754523
 20
216.5237387757989
 30
0.0
 11
362.94879068434602
 21
216.5237387757989
 31
0.0
  0
LINE
  5
6291
  8
SUNPO
  6
CONTINUOUS
 10
347.94879068434631
 20
268.72373877579901
 30
0.0
 11
347.94879068434631
 21
287.22373877579901
 31
0.0
  0
LINE
  5
6292
  8
SUNPO
  6
CONTINUOUS
 10
330.94879068434631
 20
268.72373877579901
 30
0.0
 11
330.94879068434631
 21
277.22373877579901
 31
0.0
  0
LINE
  5
6293
  8
SUNPO
  6
CONTINUOUS
 10
315.94879068434619
 20
268.72373877579901
 30
0.0
 11
315.94879068434619
 21
277.22373877579901
 31
0.0
  0
LINE
  5
6294
  8
SUNPO
  6
CONTINUOUS
 10
319.94879068434619
 20
268.72373877579901
 30
0.0
 11
319.94879068434619
 21
277.22373877579901
 31
0.0
  0
LINE
  5
6295
  8
SUNPO
  6
CONTINUOUS
 10
304.94879068434631
 20
268.72373877579901
 30
0.0
 11
304.94879068434631
 21
277.22373877579901
 31
0.0
  0
LINE
  5
6296
  8
SUNPO
  6
CONTINUOUS
 10
304.94879068434631
 20
268.72373877579901
 30
0.0
 11
304.94879068434631
 21
277.22373877579901
 31
0.0
  0
LINE
  5
6297
  8
SUNPO
  6
CONTINUOUS
 10
287.94879068434631
 20
268.72373877579901
 30
0.0
 11
287.94879068434631
 21
287.22373877579901
 31
0.0
  0
LINE
  5
6298
  8
DANMEN
  6
CONTINUOUS
 10
315.94879068434659
 20
257.72373877579912
 30
0.0
 11
289.94879068434631
 21
257.72373877579912
 31
0.0
  0
LINE
  5
6299
  8
DANMEN
  6
CONTINUOUS
 10
292.94879068434562
 20
218.47373858506441
 30
0.0
 11
305.64878782332272
 21
218.47373858506421
 31
0.0
  0
LINE
  5
629A
  8
DANMEN
  6
CONTINUOUS
 10
304.94879068434631
 20
226.5237387757989
 30
0.0
 11
272.94879068434682
 21
226.5237387757989
 31
0.0
  0
LINE
  5
629B
  8
DANMEN
  6
CONTINUOUS
 10
304.94879068434631
 20
224.5237387757989
 30
0.0
 11
272.94879068434682
 21
224.5237387757989
 31
0.0
  0
LINE
  5
629C
  8
DANMEN
  6
CONTINUOUS
 10
304.94879068434631
 20
224.0237387757989
 30
0.0
 11
272.94879068434682
 21
224.0237387757989
 31
0.0
  0
LINE
  5
629D
  8
DANMEN
  6
CONTINUOUS
 10
304.94879068434631
 20
227.5237387757989
 30
0.0
 11
272.94879068434682
 21
227.5237387757989
 31
0.0
  0
LINE
  5
629E
  8
DANMEN
  6
CONTINUOUS
 10
304.94879068434631
 20
227.0237387757989
 30
0.0
 11
272.94879068434682
 21
227.0237387757989
 31
0.0
  0
LINE
  5
629F
  8
DANMEN
  6
CONTINUOUS
 10
304.94879068434631
 20
229.5237387757989
 30
0.0
 11
272.94879068434682
 21
229.5237387757989
 31
0.0
  0
LINE
  5
62A0
  8
DANMEN
  6
CONTINUOUS
 10
304.94879068434631
 20
242.52373877579879
 30
0.0
 11
272.94879068434682
 21
242.52373877579879
 31
0.0
  0
LINE
  5
62A1
  8
DANMEN
  6
CONTINUOUS
 10
304.94879068434631
 20
249.5237387757989
 30
0.0
 11
272.94879068434682
 21
249.5237387757989
 31
0.0
  0
LINE
  5
62A2
  8
DANMEN
  6
CONTINUOUS
 10
304.94879068434631
 20
230.02373877579879
 30
0.0
 11
272.94879068434682
 21
230.02373877579879
 31
0.0
  0
LINE
  5
62A3
  8
DANMEN
  6
CONTINUOUS
 10
304.94879068434631
 20
242.0237387757989
 30
0.0
 11
272.94879068434682
 21
242.0237387757989
 31
0.0
  0
LINE
  5
62A4
  8
DANMEN
  6
CONTINUOUS
 10
304.94879068434631
 20
250.0237387757989
 30
0.0
 11
272.94879068434682
 21
250.0237387757989
 31
0.0
  0
LINE
  5
62A5
  8
DANMEN
  6
CONTINUOUS
 10
347.44879068434631
 20
262.02373877579902
 30
0.0
 11
288.44879052142568
 21
262.02373877579902
 31
0.0
  0
LINE
  5
62A6
  8
DANMEN
  6
CONTINUOUS
 10
288.44879068434562
 20
216.5237387757993
 30
0.0
 11
307.94879068434568
 21
216.52373877579899
 31
0.0
  0
LINE
  5
62A7
  8
DANMEN
  6
CONTINUOUS
 10
272.94879068434631
 20
219.02373877579879
 30
0.0
 11
287.85788159343741
 21
219.02373877579879
 31
0.0
  0
LINE
  5
62A8
  8
DANMEN
  6
CONTINUOUS
 10
288.44879468580621
 20
216.5237387757989
 30
0.0
 11
272.94879068434631
 21
216.5237387757989
 31
0.0
  0
LINE
  5
62A9
  8
DANMEN
  6
CONTINUOUS
 10
287.94879068434562
 20
217.0237387757993
 30
0.0
 11
287.94879068434562
 21
218.5237387757993
 31
0.0
  0
ARC
  5
62AA
  8
DANMEN
  6
CONTINUOUS
 10
288.44879068434562
 20
217.0237387757993
 30
0.0
 40
0.5
 50
179.99999999999821
 51
270.0
  0
LINE
  5
62AB
  8
DANMEN
  6
CONTINUOUS
 10
292.94879068434562
 20
218.47373858506441
 30
0.0
 11
292.94879068434562
 21
219.0237387757993
 31
0.0
  0
LINE
  5
62AC
  8
DANMEN
  6
CONTINUOUS
 10
291.80665506061553
 20
219.0237387757989
 30
0.0
 11
286.98037637850888
 21
223.85001745790549
 31
0.0
  0
LINE
  5
62AD
  8
DANMEN
  6
CONTINUOUS
 10
290.39244149824231
 20
219.0237387757989
 30
0.0
 11
287.2946460590361
 21
222.12153421500511
 31
0.0
  0
LINE
  5
62AE
  8
DANMEN
  6
CONTINUOUS
 10
289.0909263080772
 20
224.0237387757989
 30
0.0
 11
287.27835001107422
 21
222.21116247879581
 31
0.0
  0
LINE
  5
62AF
  8
DANMEN
  6
CONTINUOUS
 10
290.50513987045031
 20
224.0237387757989
 30
0.0
 11
287.4959213283625
 21
221.0145202337109
 31
0.0
  0
LINE
  5
62B0
  8
DANMEN
  6
CONTINUOUS
 10
291.91935343282353
 20
224.0237387757989
 30
0.0
 11
287.71349264565049
 21
219.8178779886259
 31
0.0
  0
LINE
  5
62B1
  8
DANMEN
  6
CONTINUOUS
 10
288.9782279358692
 20
219.0237387757989
 30
0.0
 11
287.6089157395636
 21
220.3930509721045
 31
0.0
  0
LINE
  5
62B2
  8
DANMEN
  6
CONTINUOUS
 10
287.67671274570432
 20
224.0237387757989
 30
0.0
 11
287.06077869378578
 21
223.40780472388059
 31
0.0
  0
ARC
  5
62B3
  8
DANMEN
  6
CONTINUOUS
 10
288.44879068434562
 20
218.5237387757993
 30
0.0
 40
0.5
 50
90.0
 51
179.99999999999821
  0
LINE
  5
62B4
  8
DANMEN
  6
CONTINUOUS
 10
286.94879068434631
 20
224.0237387757989
 30
0.0
 11
287.94879068434631
 21
218.5237387757989
 31
0.0
  0
LINE
  5
62B5
  8
DANMEN
  6
CONTINUOUS
 10
292.94879068434631
 20
219.29581671444109
 30
0.0
 11
288.22086862298852
 21
224.0237387757989
 31
0.0
  0
LINE
  5
62B6
  8
DANMEN
  6
CONTINUOUS
 10
292.94879068434631
 20
223.63896246494861
 30
0.0
 11
288.33356699519652
 21
219.0237387757989
 31
0.0
  0
LINE
  5
62B7
  8
DANMEN
  6
CONTINUOUS
 10
288.44879068434562
 20
219.0237387757993
 30
0.0
 11
292.94879068434562
 21
219.0237387757993
 31
0.0
  0
LINE
  5
62B8
  8
DANMEN
  6
CONTINUOUS
 10
292.94879068434631
 20
223.53845740156021
 30
0.0
 11
292.4635093101079
 21
224.0237387757989
 31
0.0
  0
LINE
  5
62B9
  8
DANMEN
  6
CONTINUOUS
 10
292.94879068434631
 20
222.12424383918719
 30
0.0
 11
291.04929574773462
 21
224.0237387757989
 31
0.0
  0
LINE
  5
62BA
  8
DANMEN
  6
CONTINUOUS
 10
292.94879068434631
 20
220.710030276814
 30
0.0
 11
289.63508218536163
 21
224.0237387757989
 31
0.0
  0
LINE
  5
62BB
  8
DANMEN
  6
CONTINUOUS
 10
292.94879068434631
 20
222.22474890257561
 30
0.0
 11
289.74778055756963
 21
219.0237387757989
 31
0.0
  0
LINE
  5
62BC
  8
DANMEN
  6
CONTINUOUS
 10
292.94879068434631
 20
220.81053534020251
 30
0.0
 11
291.16199411994279
 21
219.0237387757989
 31
0.0
  0
LINE
  5
62BD
  8
DANMEN
  6
CONTINUOUS
 10
292.94879068434631
 20
219.3963217778294
 30
0.0
 11
292.57620768231573
 21
219.0237387757989
 31
0.0
  0
TEXT
  5
62BE
  8
SUNPO
  6
CONTINUOUS
 10
277.44879068434631
 20
232.93493948991031
 30
0.0
 40
2.5
  1
70
 50
90.0
 41
1.1000000000000001
  7
MX_DIMTXSTY_5
  0
LINE
  5
62BF
  8
DANMEN
  6
CONTINUOUS
 10
287.94879068434631
 20
261.52373877579902
 30
0.0
 11
287.94879068434631
 21
255.5237387757989
 31
0.0
  0
LINE
  5
62C0
  8
DANMEN
  6
CONTINUOUS
 10
287.94879068434631
 20
257.22373877579912
 30
0.0
 11
272.94879068434631
 21
257.22373877579912
 31
0.0
  0
LINE
  5
62C1
  8
DANMEN
  6
CONTINUOUS
 10
272.94879068434631
 20
255.02373877579879
 30
0.0
 11
287.85788159343713
 21
255.02373877579879
 31
0.0
  0
LINE
  5
62C2
  8
DANMEN
  6
CONTINUOUS
 10
292.94879068434631
 20
255.5237387757989
 30
0.0
 11
292.94879068434631
 21
255.0237387757989
 31
0.0
  0
ARC
  5
62C3
  8
DANMEN
  6
CONTINUOUS
 10
288.44879068434631
 20
255.5237387757989
 30
0.0
 40
0.5
 50
180.0
 51
270.0
  0
LINE
  5
62C4
  8
DANMEN
  6
CONTINUOUS
 10
287.94879068434631
 20
255.5237387757989
 30
0.0
 11
286.94879068434631
 21
250.02373877579871
 31
0.0
  0
LINE
  5
62C5
  8
DANMEN
  6
CONTINUOUS
 10
291.91935343282358
 20
250.02373877579871
 30
0.0
 11
287.71349264565049
 21
254.22959956297191
 31
0.0
  0
LINE
  5
62C6
  8
DANMEN
  6
CONTINUOUS
 10
290.50513987045048
 20
250.02373877579871
 30
0.0
 11
287.4959213283625
 21
253.0329573178868
 31
0.0
  0
LINE
  5
62C7
  8
DANMEN
  6
CONTINUOUS
 10
289.09092630807748
 20
250.02373877579871
 30
0.0
 11
287.27835001107422
 21
251.83631507280199
 31
0.0
  0
LINE
  5
62C8
  8
DANMEN
  6
CONTINUOUS
 10
290.39244149824231
 20
255.02373877579879
 30
0.0
 11
287.2946460590361
 21
251.92594333659281
 31
0.0
  0
LINE
  5
62C9
  8
DANMEN
  6
CONTINUOUS
 10
291.80665506061553
 20
255.02373877579879
 30
0.0
 11
286.98037637850888
 21
250.19746009369231
 31
0.0
  0
LINE
  5
62CA
  8
DANMEN
  6
CONTINUOUS
 10
287.67671274570438
 20
250.02373877579871
 30
0.0
 11
287.06077869378578
 21
250.63967282771711
 31
0.0
  0
LINE
  5
62CB
  8
DANMEN
  6
CONTINUOUS
 10
288.9782279358692
 20
255.02373877579879
 30
0.0
 11
287.6089157395636
 21
253.65442657949311
 31
0.0
  0
LINE
  5
62CC
  8
DANMEN
  6
CONTINUOUS
 10
292.44879068434631
 20
256.02373877579902
 30
0.0
 11
289.94879068434631
 21
256.02373877579902
 31
0.0
  0
LINE
  5
62CD
  8
DANMEN
  6
CONTINUOUS
 10
289.94879068434631
 20
256.02373877579902
 30
0.0
 11
289.94879068434631
 21
257.72373877579912
 31
0.0
  0
LINE
  5
62CE
  8
DANMEN
  6
CONTINUOUS
 10
292.94879068434631
 20
250.408515086649
 30
0.0
 11
288.33356699519652
 21
255.02373877579879
 31
0.0
  0
LINE
  5
62CF
  8
DANMEN
  6
CONTINUOUS
 10
292.94879068434631
 20
254.75166083715661
 30
0.0
 11
288.22086862298852
 21
250.02373877579871
 31
0.0
  0
LINE
  5
62D0
  8
DANMEN
  6
CONTINUOUS
 10
292.94879068434631
 20
255.0237387757989
 30
0.0
 11
288.44879068434631
 21
255.0237387757989
 31
0.0
  0
LINE
  5
62D1
  8
DANMEN
  6
CONTINUOUS
 10
292.94879068434631
 20
254.65115577376841
 30
0.0
 11
292.57620768231573
 21
255.02373877579879
 31
0.0
  0
LINE
  5
62D2
  8
DANMEN
  6
CONTINUOUS
 10
292.94879068434631
 20
253.2369422113953
 30
0.0
 11
291.16199411994279
 21
255.02373877579879
 31
0.0
  0
LINE
  5
62D3
  8
DANMEN
  6
CONTINUOUS
 10
292.94879068434631
 20
251.82272864902211
 30
0.0
 11
289.74778055756963
 21
255.02373877579879
 31
0.0
  0
LINE
  5
62D4
  8
DANMEN
  6
CONTINUOUS
 10
292.94879068434631
 20
253.33744727478361
 30
0.0
 11
289.63508218536163
 21
250.02373877579871
 31
0.0
  0
LINE
  5
62D5
  8
DANMEN
  6
CONTINUOUS
 10
292.94879068434631
 20
251.92323371241051
 30
0.0
 11
291.04929574773462
 21
250.02373877579871
 31
0.0
  0
LINE
  5
62D6
  8
DANMEN
  6
CONTINUOUS
 10
292.94879068434631
 20
250.5090201500374
 30
0.0
 11
292.4635093101079
 21
250.02373877579871
 31
0.0
  0
ARC
  5
62D7
  8
DANMEN
  6
CONTINUOUS
 10
292.44879068434631
 20
255.5237387757989
 30
0.0
 40
0.5
 50
0.0
 51
90.0
  0
ARC
  5
62D8
  8
SUNPO
  6
BYBLOCK
 10
277.94879068434659
 20
267.22373877579878
 30
0.0
 40
0.1450000000000031
 50
90.0
 51
270.0
  0
ARC
  5
62D9
  8
SUNPO
  6
BYBLOCK
 10
277.94879068434659
 20
267.22373877579878
 30
0.0
 40
0.1450000000000031
 50
270.0
 51
90.0
  0
ARC
  5
62DA
  8
DANMEN
  6
CONTINUOUS
 10
288.44879068434631
 20
261.52373877579902
 30
0.0
 40
0.5
 50
90.000018669335276
 51
180.00005532475791
  0
LINE
  5
62DB
  8
DANMEN
  6
CONTINUOUS
 10
330.94879001078351
 20
245.0237377960708
 30
0.0
 11
319.9487899640132
 21
229.02373798569121
 31
0.0
  0
LINE
  5
62DC
  8
DANMEN
  6
CONTINUOUS
 10
319.9487901929653
 20
245.02373877579871
 30
0.0
 11
319.9487901929653
 21
229.02373877579871
 31
0.0
  0
LINE
  5
62DD
  8
DANMEN
  6
CONTINUOUS
 10
330.9487901929653
 20
245.02373877579871
 30
0.0
 11
330.9487901929653
 21
229.02373877579871
 31
0.0
  0
LINE
  5
62DE
  8
DANMEN
  6
CONTINUOUS
 10
336.9487906843467
 20
242.0237387757989
 30
0.0
 11
336.9487906843467
 21
230.02373877579879
 31
0.0
  0
LINE
  5
62DF
  8
DANMEN
  6
CONTINUOUS
 10
336.9487906843467
 20
242.0237387757989
 30
0.0
 11
330.9487906843467
 21
230.02373877579879
 31
0.0
  0
LINE
  5
62E0
  8
DANMEN
  6
CONTINUOUS
 10
336.9487906843467
 20
230.02373877579879
 30
0.0
 11
330.9487906843467
 21
242.0237387757989
 31
0.0
  0
LINE
  5
62E1
  8
DANMEN
  6
CONTINUOUS
 10
298.94879068434619
 20
230.02373877579879
 30
0.0
 11
304.94879068434631
 21
242.0237387757989
 31
0.0
  0
LINE
  5
62E2
  8
DANMEN
  6
CONTINUOUS
 10
298.94879068434619
 20
242.0237387757989
 30
0.0
 11
304.94879068434631
 21
230.02373877579879
 31
0.0
  0
LINE
  5
62E3
  8
DANMEN
  6
CONTINUOUS
 10
298.94879068434619
 20
242.0237387757989
 30
0.0
 11
298.94879068434619
 21
230.02373877579879
 31
0.0
  0
LINE
  5
62E4
  8
DANMEN
  6
CONTINUOUS
 10
319.94879068434619
 20
257.72373877579912
 30
0.0
 11
319.9487906605047
 21
224.0237387757989
 31
0.0
  0
LINE
  5
62E5
  8
DANMEN
  6
CONTINUOUS
 10
315.94879068434659
 20
257.72373877579912
 30
0.0
 11
315.94879066050459
 21
224.0237387757989
 31
0.0
  0
LINE
  5
62E6
  8
DANMEN
  6
CONTINUOUS
 10
304.94879068434631
 20
250.0237387757989
 30
0.0
 11
304.94879068434631
 21
224.0237387757989
 31
0.0
  0
LINE
  5
62E7
  8
DANMEN
  6
CONTINUOUS
 10
330.9487906843467
 20
250.0237387757989
 30
0.0
 11
330.9487906843467
 21
224.0237387757989
 31
0.0
  0
LINE
  5
62E8
  8
DANMEN
  6
CONTINUOUS
 10
325.36191419199781
 20
218.721855987472
 30
0.0
 11
322.38488796368119
 21
220.9254465434139
 31
0.0
  0
LINE
  5
62E9
  8
DANMEN
  6
CONTINUOUS
 10
325.94879063666269
 20
224.0237387757989
 30
0.0
 11
319.94879063666269
 21
224.0237387757989
 31
0.0
  0
LINE
  5
62EA
  8
DANMEN
  6
CONTINUOUS
 10
323.94879063666269
 20
222.0237387757989
 30
0.0
 11
319.94879063666269
 21
222.0237387757989
 31
0.0
  0
LINE
  5
62EB
  8
DANMEN
  6
CONTINUOUS
 10
322.6478989948323
 20
222.22373877579889
 30
0.0
 11
321.4478989948326
 21
222.22373877579889
 31
0.0
  0
LINE
  5
62EC
  8
DANMEN
  6
CONTINUOUS
 10
330.9487901929653
 20
229.02373877579871
 30
0.0
 11
319.9487901929653
 21
229.02373877579871
 31
0.0
  0
LINE
  5
62ED
  8
DANMEN
  6
CONTINUOUS
 10
319.9487906605047
 20
216.3237387757988
 30
0.0
 11
325.94879068434631
 21
216.3237387757988
 31
0.0
  0
LINE
  5
62EE
  8
DANMEN
  6
CONTINUOUS
 10
311.94879068434631
 20
212.3237387757988
 30
0.0
 11
323.94879068434659
 21
212.3237387757988
 31
0.0
  0
ARC
  5
62EF
  8
DANMEN
  6
CONTINUOUS
 10
308.44879068434631
 20
218.21472178142389
 30
0.0
 40
0.5
 50
116.56505117707999
 51
180.0
  0
LINE
  5
62F0
  8
DANMEN
  6
CONTINUOUS
 10
307.64878782332261
 20
219.0237387757991
 30
0.0
 11
309.64878782332272
 21
219.0237387757989
 31
0.0
  0
LINE
  5
62F1
  8
DANMEN
  6
CONTINUOUS
 10
306.64878782332261
 20
220.22373877579901
 30
0.0
 11
310.54770471263828
 21
220.22373877579889
 31
0.0
  0
LINE
  5
62F2
  8
DANMEN
  6
CONTINUOUS
 10
307.94879068434568
 20
216.52373877579899
 30
0.0
 11
307.94879068434568
 21
218.0237387757991
 31
0.0
  0
LINE
  5
62F3
  8
DANMEN
  6
CONTINUOUS
 10
307.64878782332261
 20
218.0237387757991
 30
0.0
 11
307.94879068434568
 21
218.0237387757991
 31
0.0
  0
LINE
  5
62F4
  8
DANMEN
  6
CONTINUOUS
 10
307.64878782332261
 20
218.0237387757991
 30
0.0
 11
307.64878782332261
 21
219.0237387757991
 31
0.0
  0
ARC
  5
62F5
  8
DANMEN
  6
CONTINUOUS
 10
306.64878782332261
 20
219.72373877579901
 30
0.0
 40
0.5
 50
90.0
 51
179.99999999999821
  0
LINE
  5
62F6
  8
DANMEN
  6
CONTINUOUS
 10
306.14878782332261
 20
218.97373858506421
 30
0.0
 11
306.14878782332261
 21
219.72373877579901
 31
0.0
  0
ARC
  5
62F7
  8
DANMEN
  6
CONTINUOUS
 10
305.64878782332272
 20
218.97373858506421
 30
0.0
 40
0.5
 50
270.0
 51
359.99999999999829
  0
LINE
  5
62F8
  8
DANMEN
  6
CONTINUOUS
 10
319.9487906605047
 20
222.0237387757989
 30
0.0
 11
319.94879068434619
 21
216.3237387757988
 31
0.0
  0
LINE
  5
62F9
  8
DANMEN
  6
CONTINUOUS
 10
315.94879066050459
 20
222.0237387757989
 30
0.0
 11
315.94879068434619
 21
216.3237387757988
 31
0.0
  0
LINE
  5
62FA
  8
DANMEN
  6
CONTINUOUS
 10
309.94879068434631
 20
216.3237387757988
 30
0.0
 11
309.94879068434631
 21
218.72373877579909
 31
0.0
  0
LINE
  5
62FB
  8
DANMEN
  6
CONTINUOUS
 10
309.94879068434631
 20
216.3237387757988
 30
0.0
 11
315.94879070818843
 21
216.3237387757988
 31
0.0
  0
ARC
  5
62FC
  8
DANMEN
  6
CONTINUOUS
 10
314.94968237385962
 20
220.62360325525589
 30
0.0
 40
0.5
 50
270.0
 51
359.99999999999829
  0
LINE
  5
62FD
  8
DANMEN
  6
CONTINUOUS
 10
309.94879068434631
 20
224.0237387757989
 30
0.0
 11
315.94879068434619
 21
224.0237387757989
 31
0.0
  0
LINE
  5
62FE
  8
DANMEN
  6
CONTINUOUS
 10
311.94879068434642
 20
222.0237387757989
 30
0.0
 11
315.94879068434619
 21
222.0237387757989
 31
0.0
  0
LINE
  5
62FF
  8
DANMEN
  6
CONTINUOUS
 10
315.36074136728558
 20
220.90813114406811
 30
0.0
 11
314.44968237385962
 21
222.22373877579889
 31
0.0
  0
LINE
  5
6300
  8
DANMEN
  6
CONTINUOUS
 10
314.94968236983169
 20
220.123603255256
 30
0.0
 11
314.7063177903201
 21
220.123603255256
 31
0.0
  0
LINE
  5
6301
  8
DANMEN
  6
CONTINUOUS
 10
310.53566717669412
 20
218.721855987472
 30
0.0
 11
313.51269340501119
 21
220.9254465434139
 31
0.0
  0
LINE
  5
6302
  8
DANMEN
  6
CONTINUOUS
 10
310.54770471263828
 20
220.22373877579889
 30
0.0
 11
313.24968237385968
 21
222.22373877579889
 31
0.0
  0
LINE
  5
6303
  8
DANMEN
  6
CONTINUOUS
 10
309.64879068434652
 20
219.0237387757989
 30
0.0
 11
308.94879068434631
 21
219.0237387757989
 31
0.0
  0
ARC
  5
6304
  8
DANMEN
  6
CONTINUOUS
 10
309.64879068434652
 20
218.72373877579909
 30
0.0
 40
0.3
 50
0.0
 51
90.0
  0
LINE
  5
6305
  8
DANMEN
  6
CONTINUOUS
 10
311.94879068434642
 20
222.0237387757989
 30
0.0
 11
310.35073261677712
 21
222.34335038931269
 31
0.0
  0
LINE
  5
6306
  8
DANMEN
  6
CONTINUOUS
 10
309.94879068434631
 20
222.83364072715821
 30
0.0
 11
309.94879068434631
 21
224.0237387757989
 31
0.0
  0
ARC
  5
6307
  8
DANMEN
  6
CONTINUOUS
 10
310.44879068434631
 20
222.83364072715821
 30
0.0
 40
0.5
 50
180.0
 51
258.69006752598222
  0
LINE
  5
6308
  8
DANMEN
  6
CONTINUOUS
 10
308.94879068434631
 20
219.0237387757989
 30
0.0
 11
308.22518388659643
 21
218.66193537692399
 31
0.0
  0
ARC
  5
6309
  8
DANMEN
  6
CONTINUOUS
 10
310.21447324827199
 20
218.92373877579891
 30
0.0
 40
0.3
 50
199.47122063448711
 51
270.0
  0
ARC
  5
630A
  8
DANMEN
  6
CONTINUOUS
 10
309.64878782332272
 20
218.72373877579909
 30
0.0
 40
0.3
 50
19.471220634489871
 51
90.0
  0
ARC
  5
630B
  8
DANMEN
  6
CONTINUOUS
 10
310.23819411161679
 20
219.1237387757991
 30
0.0
 40
0.5
 50
270.0
 51
306.508791935548
  0
LINE
  5
630C
  8
DANMEN
  6
CONTINUOUS
 10
310.21447324827199
 20
218.6237387757989
 30
0.0
 11
310.23819411161679
 21
218.6237387757989
 31
0.0
  0
ARC
  5
630D
  8
DANMEN
  6
CONTINUOUS
 10
313.6911772440572
 20
220.6843168704176
 30
0.0
 40
0.3
 50
34.702622165550409
 51
126.5087919355479
  0
LINE
  5
630E
  8
DANMEN
  6
CONTINUOUS
 10
314.29525879689402
 20
220.338944680954
 30
0.0
 11
313.93781264011301
 21
220.85511201499881
 31
0.0
  0
LINE
  5
630F
  8
DANMEN
  6
CONTINUOUS
 10
313.24968237385968
 20
222.22373877579889
 30
0.0
 11
314.44968237385962
 21
222.22373877579889
 31
0.0
  0
ARC
  5
6310
  8
DANMEN
  6
CONTINUOUS
 10
314.70631779032033
 20
220.62360325525589
 30
0.0
 40
0.5
 50
214.70262216555039
 51
270.0
  0
ARC
  5
6311
  8
DANMEN
  6
CONTINUOUS
 10
322.20640412463479
 20
220.6843168704176
 30
0.0
 40
0.3
 50
53.491208064452003
 51
145.29737783444961
  0
ARC
  5
6312
  8
DANMEN
  6
CONTINUOUS
 10
314.94968237385962
 20
220.62347256976599
 30
0.0
 40
0.5
 50
359.99999999999829
 51
34.702622165550409
  0
LINE
  5
6313
  8
DANMEN
  6
CONTINUOUS
 10
315.44968237385962
 20
220.62347254569261
 30
0.0
 11
315.44968237385962
 21
220.62360325525589
 31
0.0
  0
ARC
  5
6314
  8
DANMEN
  6
CONTINUOUS
 10
321.19126357837177
 20
220.62360325525589
 30
0.0
 40
0.5
 50
270.0
 51
325.29737783444938
  0
ARC
  5
6315
  8
DANMEN
  6
CONTINUOUS
 10
320.9478989948326
 20
220.62360325525589
 30
0.0
 40
0.5
 50
180.0
 51
270.0
  0
ARC
  5
6316
  8
DANMEN
  6
CONTINUOUS
 10
320.9478989948326
 20
220.62347256976599
 30
0.0
 40
0.5
 50
145.29737783444961
 51
180.0
  0
LINE
  5
6317
  8
DANMEN
  6
CONTINUOUS
 10
320.94789899886052
 20
220.123603255256
 30
0.0
 11
321.19126357837177
 21
220.123603255256
 31
0.0
  0
LINE
  5
6318
  8
DANMEN
  6
CONTINUOUS
 10
320.44789899483231
 20
220.62347254569261
 30
0.0
 11
320.44789899483231
 21
220.62360325525589
 31
0.0
  0
LINE
  5
6319
  8
DANMEN
  6
CONTINUOUS
 10
320.5368400014068
 20
220.90813114406811
 30
0.0
 11
321.4478989948326
 21
222.22373877579889
 31
0.0
  0
LINE
  5
631A
  8
DANMEN
  6
CONTINUOUS
 10
321.60232257179808
 20
220.338944680954
 30
0.0
 11
321.95976872857921
 21
220.85511201499881
 31
0.0
  0
LINE
  5
631B
  8
DANMEN
  6
CONTINUOUS
 10
342.94879068434619
 20
218.47373858506401
 30
0.0
 11
330.24879354536949
 21
218.47373858506401
 31
0.0
  0
LINE
  5
631C
  8
DANMEN
  6
CONTINUOUS
 10
347.44879068434631
 20
216.5237387757989
 30
0.0
 11
327.94879068434659
 21
216.5237387757989
 31
0.0
  0
LINE
  5
631D
  8
DANMEN
  6
CONTINUOUS
 10
325.94879068434631
 20
216.3237387757988
 30
0.0
 11
325.94879068434631
 21
218.72373877579909
 31
0.0
  0
LINE
  5
631E
  8
DANMEN
  6
CONTINUOUS
 10
327.94879068434659
 20
216.5237387757989
 30
0.0
 11
327.94879068434659
 21
218.0237387757989
 31
0.0
  0
ARC
  5
631F
  8
DANMEN
  6
CONTINUOUS
 10
330.24879354536949
 20
218.97373858506401
 30
0.0
 40
0.5
 50
180.0
 51
270.0
  0
ARC
  5
6320
  8
DANMEN
  6
CONTINUOUS
 10
329.24879354536938
 20
219.72373877579901
 30
0.0
 40
0.5
 50
0.0
 51
90.0
  0
LINE
  5
6321
  8
DANMEN
  6
CONTINUOUS
 10
329.74879354536949
 20
218.97373858506401
 30
0.0
 11
329.74879354536949
 21
219.72373877579901
 31
0.0
  0
LINE
  5
6322
  8
DANMEN
  6
CONTINUOUS
 10
326.94879068434631
 20
219.0237387757989
 30
0.0
 11
327.6723974820963
 21
218.66193537692399
 31
0.0
  0
LINE
  5
6323
  8
DANMEN
  6
CONTINUOUS
 10
328.24879354536949
 20
219.0237387757989
 30
0.0
 11
326.24879354536949
 21
219.0237387757989
 31
0.0
  0
ARC
  5
6324
  8
DANMEN
  6
CONTINUOUS
 10
325.44879063666281
 20
222.83364072715821
 30
0.0
 40
0.5
 50
281.30993247401761
 51
0.0
  0
LINE
  5
6325
  8
DANMEN
  6
CONTINUOUS
 10
325.94879063666269
 20
222.83364072715821
 30
0.0
 11
325.94879063666269
 21
224.0237387757989
 31
0.0
  0
LINE
  5
6326
  8
DANMEN
  6
CONTINUOUS
 10
323.94879063666269
 20
222.0237387757989
 30
0.0
 11
325.54684870423182
 21
222.34335038931269
 31
0.0
  0
ARC
  5
6327
  8
DANMEN
  6
CONTINUOUS
 10
326.24879068434637
 20
218.72373877579909
 30
0.0
 40
0.3
 50
90.0
 51
180.0
  0
LINE
  5
6328
  8
DANMEN
  6
CONTINUOUS
 10
326.24879068434637
 20
219.0237387757989
 30
0.0
 11
326.94879068434631
 21
219.0237387757989
 31
0.0
  0
ARC
  5
6329
  8
DANMEN
  6
CONTINUOUS
 10
325.6831081204204
 20
218.9237387757988
 30
0.0
 40
0.3
 50
270.0
 51
340.5287793655101
  0
ARC
  5
632A
  8
DANMEN
  6
CONTINUOUS
 10
326.24879354536949
 20
218.72373877579881
 30
0.0
 40
0.3
 50
90.0
 51
160.5287793655101
  0
ARC
  5
632B
  8
DANMEN
  6
CONTINUOUS
 10
325.6593872570752
 20
219.1237387757991
 30
0.0
 40
0.5
 50
233.491208064452
 51
270.0
  0
LINE
  5
632C
  8
DANMEN
  6
CONTINUOUS
 10
325.34987665605371
 20
220.22373877579889
 30
0.0
 11
322.6478989948323
 21
222.22373877579889
 31
0.0
  0
LINE
  5
632D
  8
DANMEN
  6
CONTINUOUS
 10
325.6831081204204
 20
218.6237387757989
 30
0.0
 11
325.6593872570752
 21
218.6237387757989
 31
0.0
  0
ARC
  5
632E
  8
DANMEN
  6
CONTINUOUS
 10
327.44879068434631
 20
218.21472178142389
 30
0.0
 40
0.5
 50
0.0
 51
63.434948822919829
  0
LINE
  5
632F
  8
DANMEN
  6
CONTINUOUS
 10
328.24879354536949
 20
218.0237387757989
 30
0.0
 11
327.94879068434659
 21
218.0237387757989
 31
0.0
  0
LINE
  5
6330
  8
DANMEN
  6
CONTINUOUS
 10
328.24879354536949
 20
218.0237387757989
 30
0.0
 11
328.24879354536949
 21
219.0237387757989
 31
0.0
  0
LINE
  5
6331
  8
DANMEN
  6
CONTINUOUS
 10
329.24879354536938
 20
220.22373877579889
 30
0.0
 11
325.34987665605371
 21
220.22373877579889
 31
0.0
  0
LINE
  5
6332
  8
DANMEN
  6
CONTINUOUS
 10
347.94879068434631
 20
217.0237387757989
 30
0.0
 11
347.94879068434631
 21
218.5237387757989
 31
0.0
  0
ARC
  5
6333
  8
DANMEN
  6
CONTINUOUS
 10
347.44879068434631
 20
217.0237387757989
 30
0.0
 40
0.5
 50
270.0
 51
0.0
  0
LINE
  5
6334
  8
DANMEN
  6
CONTINUOUS
 10
344.09092630807743
 20
219.0237387757989
 30
0.0
 11
348.91720499018419
 21
223.85001745790549
 31
0.0
  0
LINE
  5
6335
  8
DANMEN
  6
CONTINUOUS
 10
343.97822793586948
 20
224.0237387757989
 30
0.0
 11
348.18408872304229
 21
219.8178779886259
 31
0.0
  0
LINE
  5
6336
  8
DANMEN
  6
CONTINUOUS
 10
342.94879068434659
 20
219.29581671444109
 30
0.0
 11
347.67671274570432
 21
224.0237387757989
 31
0.0
  0
LINE
  5
6337
  8
DANMEN
  6
CONTINUOUS
 10
342.94879068434659
 20
220.71003027681411
 30
0.0
 11
346.26249918333122
 21
224.0237387757989
 31
0.0
  0
LINE
  5
6338
  8
DANMEN
  6
CONTINUOUS
 10
342.94879068434659
 20
223.63896246494861
 30
0.0
 11
347.56401437349632
 21
219.0237387757989
 31
0.0
  0
LINE
  5
6339
  8
DANMEN
  6
CONTINUOUS
 10
347.44879068434631
 20
219.0237387757989
 30
0.0
 11
342.94879068434619
 21
219.0237387757989
 31
0.0
  0
LINE
  5
633A
  8
DANMEN
  6
CONTINUOUS
 10
342.94879068434659
 20
222.12424383918719
 30
0.0
 11
344.84828562095828
 21
224.0237387757989
 31
0.0
  0
LINE
  5
633B
  8
DANMEN
  6
CONTINUOUS
 10
342.94879068434659
 20
220.81053534020251
 30
0.0
 11
344.73558724875022
 21
219.0237387757989
 31
0.0
  0
LINE
  5
633C
  8
DANMEN
  6
CONTINUOUS
 10
342.94879068434659
 20
222.22474890257561
 30
0.0
 11
346.14980081112321
 21
219.0237387757989
 31
0.0
  0
LINE
  5
633D
  8
DANMEN
  6
CONTINUOUS
 10
342.94879068434659
 20
223.53845740156021
 30
0.0
 11
343.43407205858512
 21
224.0237387757989
 31
0.0
  0
LINE
  5
633E
  8
DANMEN
  6
CONTINUOUS
 10
342.94879068434659
 20
219.3963217778294
 30
0.0
 11
343.32137368637723
 21
219.0237387757989
 31
0.0
  0
LINE
  5
633F
  8
DANMEN
  6
CONTINUOUS
 10
342.94879068434619
 20
218.47373858506401
 30
0.0
 11
342.94879068434619
 21
219.0237387757989
 31
0.0
  0
LINE
  5
6340
  8
DANMEN
  6
CONTINUOUS
 10
345.50513987045048
 20
219.0237387757989
 30
0.0
 11
348.60293530965691
 21
222.12153421500511
 31
0.0
  0
LINE
  5
6341
  8
DANMEN
  6
CONTINUOUS
 10
345.39244149824248
 20
224.0237387757989
 30
0.0
 11
348.40166004033051
 21
221.0145202337109
 31
0.0
  0
LINE
  5
6342
  8
DANMEN
  6
CONTINUOUS
 10
346.91935343282381
 20
219.0237387757989
 30
0.0
 11
348.28866562912918
 21
220.3930509721045
 31
0.0
  0
LINE
  5
6343
  8
DANMEN
  6
CONTINUOUS
 10
346.80665506061558
 20
224.0237387757989
 30
0.0
 11
348.61923135761879
 21
222.21116247879581
 31
0.0
  0
LINE
  5
6344
  8
DANMEN
  6
CONTINUOUS
 10
348.22086862298852
 20
224.0237387757989
 30
0.0
 11
348.83680267490678
 21
223.40780472388059
 31
0.0
  0
ARC
  5
6345
  8
DANMEN
  6
CONTINUOUS
 10
347.44879068434631
 20
218.5237387757989
 30
0.0
 40
0.5
 50
0.0
 51
90.0
  0
LINE
  5
6346
  8
DANMEN
  6
CONTINUOUS
 10
348.94879068434648
 20
224.0237387757989
 30
0.0
 11
347.9487906843467
 21
218.5237387757989
 31
0.0
  0
LINE
  5
6347
  8
DANMEN
  6
CONTINUOUS
 10
330.9487901929653
 20
245.02373877579871
 30
0.0
 11
319.9487901929653
 21
245.02373877579871
 31
0.0
  0
LINE
  5
6348
  8
DANMEN
  6
CONTINUOUS
 10
319.94879068434619
 20
257.72373877579912
 30
0.0
 11
345.94879068434642
 21
257.72373877579889
 31
0.0
  0
LINE
  5
6349
  8
DANMEN
  6
CONTINUOUS
 10
347.94879068434631
 20
261.5237387757989
 30
0.0
 11
347.94879068434631
 21
255.5237387757989
 31
0.0
  0
LINE
  5
634A
  8
DANMEN
  6
CONTINUOUS
 10
343.97822793586943
 20
250.02373877579871
 30
0.0
 11
348.18408872304229
 21
254.22959956297191
 31
0.0
  0
LINE
  5
634B
  8
DANMEN
  6
CONTINUOUS
 10
344.09092630807771
 20
255.02373877579879
 30
0.0
 11
348.91720499018419
 21
250.19746009369231
 31
0.0
  0
LINE
  5
634C
  8
DANMEN
  6
CONTINUOUS
 10
342.94879068434659
 20
250.408515086649
 30
0.0
 11
347.56401437349632
 21
255.02373877579879
 31
0.0
  0
LINE
  5
634D
  8
DANMEN
  6
CONTINUOUS
 10
342.94879068434659
 20
253.33744727478361
 30
0.0
 11
346.26249918333139
 21
250.02373877579871
 31
0.0
  0
LINE
  5
634E
  8
DANMEN
  6
CONTINUOUS
 10
342.94879068434619
 20
254.75166083715681
 30
0.0
 11
347.67671274570432
 21
250.02373877579871
 31
0.0
  0
LINE
  5
634F
  8
DANMEN
  6
CONTINUOUS
 10
342.94879068434619
 20
255.02373877579879
 30
0.0
 11
347.44879068434631
 21
255.02373877579879
 31
0.0
  0
LINE
  5
6350
  8
DANMEN
  6
CONTINUOUS
 10
342.94879068434659
 20
251.82272864902211
 30
0.0
 11
346.14980081112321
 21
255.02373877579879
 31
0.0
  0
LINE
  5
6351
  8
DANMEN
  6
CONTINUOUS
 10
342.94879068434659
 20
253.2369422113953
 30
0.0
 11
344.73558724875022
 21
255.02373877579879
 31
0.0
  0
LINE
  5
6352
  8
DANMEN
  6
CONTINUOUS
 10
342.94879068434619
 20
251.92323371241051
 30
0.0
 11
344.84828562095828
 21
250.02373877579871
 31
0.0
  0
LINE
  5
6353
  8
DANMEN
  6
CONTINUOUS
 10
343.44879068234769
 20
256.02373873939371
 30
0.0
 11
345.94879068234781
 21
256.02373873468241
 31
0.0
  0
LINE
  5
6354
  8
DANMEN
  6
CONTINUOUS
 10
342.94879068163408
 20
255.5237387401074
 30
0.0
 11
342.94879068092001
 21
255.0237387401074
 31
0.0
  0
LINE
  5
6355
  8
DANMEN
  6
CONTINUOUS
 10
342.94879068434659
 20
254.65115577376841
 30
0.0
 11
343.32137368637723
 21
255.02373877579879
 31
0.0
  0
LINE
  5
6356
  8
DANMEN
  6
CONTINUOUS
 10
342.94879068434659
 20
250.5090201500374
 30
0.0
 11
343.43407205858517
 21
250.02373877579871
 31
0.0
  0
ARC
  5
6357
  8
DANMEN
  6
CONTINUOUS
 10
343.44879068163402
 20
255.52373873939359
 30
0.0
 40
0.5
 50
89.999999918200004
 51
179.99999991820161
  0
ARC
  5
6358
  8
DANMEN
  6
CONTINUOUS
 10
347.44879068434631
 20
255.5237387757989
 30
0.0
 40
0.5
 50
270.0
 51
0.0
  0
LINE
  5
6359
  8
DANMEN
  6
CONTINUOUS
 10
347.9487906843467
 20
255.5237387757989
 30
0.0
 11
348.94879068434648
 21
250.02373877579871
 31
0.0
  0
LINE
  5
635A
  8
DANMEN
  6
CONTINUOUS
 10
345.39244149824248
 20
250.02373877579871
 30
0.0
 11
348.40166004033051
 21
253.0329573178868
 31
0.0
  0
LINE
  5
635B
  8
DANMEN
  6
CONTINUOUS
 10
345.50513987045048
 20
255.02373877579879
 30
0.0
 11
348.60293530965691
 21
251.92594333659281
 31
0.0
  0
LINE
  5
635C
  8
DANMEN
  6
CONTINUOUS
 10
348.22086862298852
 20
250.02373877579871
 30
0.0
 11
348.83680267490678
 21
250.63967282771711
 31
0.0
  0
LINE
  5
635D
  8
DANMEN
  6
CONTINUOUS
 10
346.80665506061558
 20
250.02373877579871
 30
0.0
 11
348.61923135761879
 21
251.83631507280199
 31
0.0
  0
LINE
  5
635E
  8
DANMEN
  6
CONTINUOUS
 10
346.91935343282381
 20
255.02373877579879
 30
0.0
 11
348.28866562912918
 21
253.65442657949311
 31
0.0
  0
LINE
  5
635F
  8
DANMEN
  6
CONTINUOUS
 10
345.94879068234781
 20
256.02373873468241
 30
0.0
 11
345.94879068434642
 21
257.7237387346824
 31
0.0
  0
ARC
  5
6360
  8
DANMEN
  6
CONTINUOUS
 10
347.44879068434631
 20
261.5237387757989
 30
0.0
 40
0.5
 50
359.99994467524022
 51
89.99998133066471
  0
LINE
  5
6361
  8
SUNPO
  6
CONTINUOUS
 10
287.94879068434631
 20
277.22373877579901
 30
0.0
 11
304.94879068434631
 21
277.22373877579901
 31
0.0
  0
LINE
  5
6362
  8
SUNPO
  6
CONTINUOUS
 10
287.94879068434631
 20
287.22373877579901
 30
0.0
 11
347.94879068434631
 21
287.22373877579901
 31
0.0
  0
ARC
  5
6363
  8
SUNPO
  6
BYBLOCK
 10
287.94879068434631
 20
277.22373877579901
 30
0.0
 40
0.145
 50
180.0
 51
0.0
  0
ARC
  5
6364
  8
SUNPO
  6
BYBLOCK
 10
287.94879068434631
 20
277.22373877579901
 30
0.0
 40
0.145
 50
0.0
 51
180.0
  0
ARC
  5
6365
  8
SUNPO
  6
BYBLOCK
 10
287.94879068434631
 20
287.22373877579901
 30
0.0
 40
0.145
 50
180.0
 51
0.0
  0
ARC
  5
6366
  8
SUNPO
  6
BYBLOCK
 10
287.94879068434631
 20
287.22373877579901
 30
0.0
 40
0.145
 50
0.0
 51
180.0
  0
LINE
  5
6367
  8
SUNPO
  6
CONTINUOUS
 10
319.94879068434619
 20
277.22373877579901
 30
0.0
 11
330.94879068434631
 21
277.22373877579901
 31
0.0
  0
LINE
  5
6368
  8
SUNPO
  6
CONTINUOUS
 10
304.94879068434631
 20
277.22373877579901
 30
0.0
 11
315.94879068434619
 21
277.22373877579901
 31
0.0
  0
TEXT
  5
6369
  8
SUNPO
  6
CONTINUOUS
 10
294.44879068434631
 20
277.72373877579878
 30
0.0
 40
2.5
  1
17
 41
1.1999999999999991
  7
MX_DIMTXSTY_3
  0
ARC
  5
636A
  8
SUNPO
  6
BYBLOCK
 10
304.94879068434631
 20
277.22373877579901
 30
0.0
 40
0.1449999999999996
 50
0.0
 51
180.0
  0
ARC
  5
636B
  8
SUNPO
  6
BYBLOCK
 10
304.94879068434631
 20
277.22373877579901
 30
0.0
 40
0.1449999999999996
 50
180.0
 51
0.0
  0
ARC
  5
636C
  8
SUNPO
  6
BYBLOCK
 10
304.94879068434631
 20
277.22373877579901
 30
0.0
 40
0.1449999999999996
 50
180.0
 51
0.0
  0
ARC
  5
636D
  8
SUNPO
  6
BYBLOCK
 10
304.94879068434631
 20
277.22373877579901
 30
0.0
 40
0.1449999999999996
 50
0.0
 51
180.0
  0
TEXT
  5
636E
  8
SUNPO
  6
CONTINUOUS
 10
308.57379068434619
 20
277.72373877579878
 30
0.0
 40
2.5
  1
11
 41
1.5
  7
MX_DIMTXSTY_6
  0
ARC
  5
636F
  8
SUNPO
  6
BYBLOCK
 10
315.94879068434619
 20
277.22373877579901
 30
0.0
 40
0.1449999999999996
 50
0.0
 51
180.0
  0
ARC
  5
6370
  8
SUNPO
  6
BYBLOCK
 10
315.94879068434619
 20
277.22373877579901
 30
0.0
 40
0.1449999999999996
 50
180.0
 51
0.0
  0
ARC
  5
6371
  8
SUNPO
  6
BYBLOCK
 10
319.94879068434619
 20
277.22373877579901
 30
0.0
 40
0.1450000000000031
 50
180.0
 51
0.0
  0
ARC
  5
6372
  8
SUNPO
  6
BYBLOCK
 10
319.94879068434619
 20
277.22373877579901
 30
0.0
 40
0.1450000000000031
 50
0.0
 51
180.0
  0
TEXT
  5
6373
  8
SUNPO
  6
CONTINUOUS
 10
315.88629068434631
 20
287.72373877579878
 30
0.0
 40
2.5
  1
60
 41
1.1000000000000001
  7
MX_DIMTXSTY_5
  0
LINE
  5
6374
  8
SUNPO
  6
CONTINUOUS
 10
330.94879068434631
 20
277.22373877579901
 30
0.0
 11
347.94879068434631
 21
277.22373877579901
 31
0.0
  0
TEXT
  5
6375
  8
SUNPO
  6
CONTINUOUS
 10
323.57379068434631
 20
277.72373877579878
 30
0.0
 40
2.5
  1
11
 41
1.5
  7
MX_DIMTXSTY_6
  0
ARC
  5
6376
  8
SUNPO
  6
BYBLOCK
 10
330.94879068434631
 20
277.22373877579901
 30
0.0
 40
0.1450000000000031
 50
180.0
 51
0.0
  0
ARC
  5
6377
  8
SUNPO
  6
BYBLOCK
 10
330.94879068434631
 20
277.22373877579901
 30
0.0
 40
0.1450000000000031
 50
0.0
 51
180.0
  0
ARC
  5
6378
  8
SUNPO
  6
BYBLOCK
 10
330.94879068434631
 20
277.22373877579901
 30
0.0
 40
0.1450000000000031
 50
0.0
 51
180.0
  0
ARC
  5
6379
  8
SUNPO
  6
BYBLOCK
 10
330.94879068434631
 20
277.22373877579901
 30
0.0
 40
0.1450000000000031
 50
180.0
 51
0.0
  0
TEXT
  5
637A
  8
SUNPO
  6
CONTINUOUS
 10
337.44879068434631
 20
277.72373877579878
 30
0.0
 40
2.5
  1
17
 41
1.1999999999999991
  7
MX_DIMTXSTY_3
  0
ARC
  5
637B
  8
SUNPO
  6
BYBLOCK
 10
347.94879068434631
 20
277.22373877579901
 30
0.0
 40
0.1450000000000031
 50
0.0
 51
180.0
  0
ARC
  5
637C
  8
SUNPO
  6
BYBLOCK
 10
347.94879068434631
 20
277.22373877579901
 30
0.0
 40
0.1450000000000031
 50
180.0
 51
0.0
  0
ARC
  5
637D
  8
SUNPO
  6
BYBLOCK
 10
347.94879068434631
 20
287.22373877579901
 30
0.0
 40
0.1450000000000031
 50
0.0
 51
180.0
  0
ARC
  5
637E
  8
SUNPO
  6
BYBLOCK
 10
347.94879068434631
 20
287.22373877579901
 30
0.0
 40
0.1450000000000031
 50
180.0
 51
0.0
  0
ARC
  5
637F
  8
DANMEN
  6
CONTINUOUS
 10
451.04879068434622
 20
339.5131422030704
 30
0.0
 40
0.5
 50
0.0
 51
36.50879193555253
  0
ARC
  5
6380
  8
DANMEN
  6
CONTINUOUS
 10
447.33888875682879
 20
339.72373877579901
 30
0.0
 40
0.5
 50
270.0
 51
348.69006752597909
  0
LINE
  5
6381
  8
DANMEN
  6
CONTINUOUS
 10
449.94879068434608
 20
335.92373591477588
 30
0.0
 11
449.94879068434608
 21
339.8226528040916
 31
0.0
  0
LINE
  5
6382
  8
DANMEN
  6
CONTINUOUS
 10
446.9487907081878
 20
339.22373877579901
 30
0.0
 11
446.9487907081878
 21
340.22373877579901
 31
0.0
  0
LINE
  5
6383
  8
DANMEN
  6
CONTINUOUS
 10
451.69879070818803
 20
339.22373877579901
 30
0.0
 11
451.69879070818803
 21
345.22373877579889
 31
0.0
  0
LINE
  5
6384
  8
DANMEN
  6
CONTINUOUS
 10
414.89879068434601
 20
340.22373877579901
 30
0.0
 11
414.89879068434601
 21
322.22373877579889
 31
0.0
  0
LINE
  5
6385
  8
SUNPO
  6
CONTINUOUS
 10
392.94879068434602
 20
334.22373877579901
 30
0.0
 11
392.94879068434602
 21
340.22373877579878
 31
0.0
  0
LINE
  5
6386
  8
SUNPO
  6
CONTINUOUS
 10
382.94879068434608
 20
317.22373877579878
 30
0.0
 11
382.94879068434608
 21
377.22373877579901
 31
0.0
  0
LINE
  5
6387
  8
SUNPO
  6
CONTINUOUS
 10
482.94879068434608
 20
377.22373877579901
 30
0.0
 11
482.94879068434608
 21
337.22373877579901
 31
0.0
  0
LINE
  5
6388
  8
SUNPO
  6
CONTINUOUS
 10
472.94879068434602
 20
302.22373877579901
 30
0.0
 11
472.94879068434602
 21
392.22373877579878
 31
0.0
  0
LINE
  5
6389
  8
DANMEN
  6
CONTINUOUS
 10
412.94879068434602
 20
376.72373877579901
 30
0.0
 11
412.94879068434602
 21
317.72373877579901
 31
0.0
  0
LINE
  5
638A
  8
DANMEN
  6
CONTINUOUS
 10
404.598790684346
 20
302.22373877579901
 30
0.0
 11
404.598790684346
 21
392.22373877579878
 31
0.0
  0
LINE
  5
638B
  8
DANMEN
  6
CONTINUOUS
 10
410.94879068434602
 20
302.22373877579901
 30
0.0
 11
410.94879068434602
 21
392.22373877579878
 31
0.0
  0
LINE
  5
638C
  8
DANMEN
  6
CONTINUOUS
 10
402.94879068434608
 20
302.22373877579901
 30
0.0
 11
402.94879068434608
 21
392.22373877579878
 31
0.0
  0
LINE
  5
638D
  8
DANMEN
  6
CONTINUOUS
 10
453.64879068434601
 20
376.72373877579901
 30
0.0
 11
453.64879068434601
 21
337.22373877579901
 31
0.0
  0
LINE
  5
638E
  8
DANMEN
  6
CONTINUOUS
 10
471.29879068434582
 20
302.22373877579901
 30
0.0
 11
471.29879068434582
 21
392.22373877579878
 31
0.0
  0
ARC
  5
638F
  8
DANMEN
  6
CONTINUOUS
 10
467.44879068434602
 20
261.5237387757989
 30
0.0
 40
0.5
 50
359.99994467524022
 51
89.99998133066471
  0
ARC
  5
6390
  8
DANMEN
  6
CONTINUOUS
 10
467.44879068434602
 20
255.5237387757989
 30
0.0
 40
0.5
 50
270.0
 51
0.0
  0
LINE
  5
6391
  8
DANMEN
  6
CONTINUOUS
 10
463.97822793586869
 20
250.02373877579871
 30
0.0
 11
468.18408872304201
 21
254.22959956297191
 31
0.0
  0
LINE
  5
6392
  8
DANMEN
  6
CONTINUOUS
 10
464.09092630807709
 20
255.02373877579879
 30
0.0
 11
468.91720499018368
 21
250.19746009369231
 31
0.0
  0
LINE
  5
6393
  8
DANMEN
  6
CONTINUOUS
 10
466.80665506061518
 20
250.02373877579871
 30
0.0
 11
468.61923135761822
 21
251.83631507280199
 31
0.0
  0
LINE
  5
6394
  8
DANMEN
  6
CONTINUOUS
 10
465.39244149824191
 20
250.02373877579871
 30
0.0
 11
468.40166004032977
 21
253.0329573178868
 31
0.0
  0
LINE
  5
6395
  8
DANMEN
  6
CONTINUOUS
 10
465.50513987045002
 20
255.02373877579879
 30
0.0
 11
468.60293530965617
 21
251.92594333659281
 31
0.0
  0
LINE
  5
6396
  8
DANMEN
  6
CONTINUOUS
 10
466.91935343282341
 20
255.02373877579879
 30
0.0
 11
468.28866562912913
 21
253.65442657949311
 31
0.0
  0
ARC
  5
6397
  8
DANMEN
  6
CONTINUOUS
 10
467.44879068434602
 20
218.5237387757989
 30
0.0
 40
0.5
 50
0.0
 51
90.0
  0
LINE
  5
6398
  8
DANMEN
  6
CONTINUOUS
 10
464.09092630807709
 20
219.0237387757989
 30
0.0
 11
468.91720499018368
 21
223.85001745790549
 31
0.0
  0
LINE
  5
6399
  8
DANMEN
  6
CONTINUOUS
 10
463.97822793586909
 20
224.0237387757989
 30
0.0
 11
468.18408872304201
 21
219.8178779886259
 31
0.0
  0
LINE
  5
639A
  8
DANMEN
  6
CONTINUOUS
 10
466.91935343282341
 20
219.0237387757989
 30
0.0
 11
468.28866562912913
 21
220.39305097210459
 31
0.0
  0
LINE
  5
639B
  8
DANMEN
  6
CONTINUOUS
 10
465.50513987045002
 20
219.0237387757989
 30
0.0
 11
468.60293530965617
 21
222.12153421500511
 31
0.0
  0
LINE
  5
639C
  8
DANMEN
  6
CONTINUOUS
 10
465.39244149824191
 20
224.0237387757989
 30
0.0
 11
468.40166004033011
 21
221.0145202337109
 31
0.0
  0
LINE
  5
639D
  8
DANMEN
  6
CONTINUOUS
 10
466.8066550606153
 20
224.0237387757989
 30
0.0
 11
468.61923135761822
 21
222.21116247879581
 31
0.0
  0
LINE
  5
639E
  8
SUNPO
  6
CONTINUOUS
 10
402.94879068434608
 20
307.22373877579901
 30
0.0
 11
472.94879068434602
 21
307.22373877579901
 31
0.0
  0
LINE
  5
639F
  8
SUNPO
  6
CONTINUOUS
 10
387.9487906843467
 20
287.22373877579901
 30
0.0
 11
467.94879068434602
 21
287.22373877579901
 31
0.0
  0
LINE
  5
63A0
  8
SUNPO
  6
CONTINUOUS
 10
467.94879068434602
 20
277.22373877579878
 30
0.0
 11
450.94879068434631
 21
277.22373877579878
 31
0.0
  0
LINE
  5
63A1
  8
DANMEN
  6
CONTINUOUS
 10
372.9487906843467
 20
265.42373877579888
 30
0.0
 11
482.94879068434608
 21
265.42373877579888
 31
0.0
  0
LINE
  5
63A2
  8
DANMEN
  6
CONTINUOUS
 10
372.9487906843467
 20
267.22373877579878
 30
0.0
 11
482.94879068434608
 21
267.22373877579878
 31
0.0
  0
LINE
  5
63A3
  8
DANMEN
  6
CONTINUOUS
 10
450.94879068434608
 20
250.0237387757989
 30
0.0
 11
482.94879068434608
 21
250.0237387757989
 31
0.0
  0
LINE
  5
63A4
  8
DANMEN
  6
CONTINUOUS
 10
450.94879068434608
 20
242.0237387757989
 30
0.0
 11
482.94879068434608
 21
242.0237387757989
 31
0.0
  0
LINE
  5
63A5
  8
DANMEN
  6
CONTINUOUS
 10
450.94879068434608
 20
230.02373877579879
 30
0.0
 11
482.94879068434608
 21
230.02373877579879
 31
0.0
  0
LINE
  5
63A6
  8
DANMEN
  6
CONTINUOUS
 10
450.94879068434608
 20
249.5237387757989
 30
0.0
 11
482.94879068434608
 21
249.5237387757989
 31
0.0
  0
LINE
  5
63A7
  8
DANMEN
  6
CONTINUOUS
 10
450.94879068434608
 20
242.52373877579879
 30
0.0
 11
482.94879068434608
 21
242.52373877579879
 31
0.0
  0
LINE
  5
63A8
  8
DANMEN
  6
CONTINUOUS
 10
450.94879068434608
 20
229.5237387757989
 30
0.0
 11
482.94879068434608
 21
229.5237387757989
 31
0.0
  0
LINE
  5
63A9
  8
DANMEN
  6
CONTINUOUS
 10
450.94879068434608
 20
227.0237387757989
 30
0.0
 11
482.94879068434608
 21
227.0237387757989
 31
0.0
  0
LINE
  5
63AA
  8
DANMEN
  6
CONTINUOUS
 10
450.94879068434608
 20
227.5237387757989
 30
0.0
 11
482.94879068434608
 21
227.5237387757989
 31
0.0
  0
LINE
  5
63AB
  8
DANMEN
  6
CONTINUOUS
 10
450.94879068434608
 20
224.0237387757989
 30
0.0
 11
482.94879068434608
 21
224.0237387757989
 31
0.0
  0
LINE
  5
63AC
  8
DANMEN
  6
CONTINUOUS
 10
450.94879068434608
 20
224.5237387757989
 30
0.0
 11
482.94879068434608
 21
224.5237387757989
 31
0.0
  0
LINE
  5
63AD
  8
DANMEN
  6
CONTINUOUS
 10
450.94879068434608
 20
226.5237387757989
 30
0.0
 11
482.94879068434608
 21
226.5237387757989
 31
0.0
  0
LINE
  5
63AE
  8
DANMEN
  6
CONTINUOUS
 10
467.44878967220359
 20
216.5237387757989
 30
0.0
 11
482.94879068434608
 21
216.5237387757989
 31
0.0
  0
ARC
  5
63AF
  8
DANMEN
  6
CONTINUOUS
 10
467.44879068434602
 20
217.0237387757989
 30
0.0
 40
0.5
 50
270.0
 51
0.0
  0
LINE
  5
63B0
  8
SUNPO
  6
CONTINUOUS
 10
450.94879068434631
 20
268.72373877579901
 30
0.0
 11
450.94879068434631
 21
277.22373877579878
 31
0.0
  0
LINE
  5
63B1
  8
SUNPO
  6
CONTINUOUS
 10
439.94879068434608
 20
268.72373877579878
 30
0.0
 11
439.94879068434608
 21
277.22373877579878
 31
0.0
  0
LINE
  5
63B2
  8
SUNPO
  6
CONTINUOUS
 10
404.94879068434648
 20
268.72373877579901
 30
0.0
 11
404.94879068434648
 21
277.22373877579901
 31
0.0
  0
LINE
  5
63B3
  8
SUNPO
  6
CONTINUOUS
 10
415.94879068434608
 20
268.72373877579878
 30
0.0
 11
415.94879068434619
 21
277.22373877579878
 31
0.0
  0
LINE
  5
63B4
  8
SUNPO
  6
CONTINUOUS
 10
357.9487906843467
 20
267.22373877579878
 30
0.0
 11
357.9487906843467
 21
277.87050238663869
 31
0.0
  0
TEXT
  5
63B5
  8
SUNPO
  6
CONTINUOUS
 10
357.44879068434648
 20
270.87050238663858
 30
0.0
 40
2.5
  1
5.2
 50
90.0
 41
1.3
  7
MX_DIMTXSTY_2
  0
LINE
  5
63B6
  8
SUNPO
  6
CONTINUOUS
 10
387.9487906843467
 20
268.72373877579901
 30
0.0
 11
387.9487906843467
 21
287.22373877579901
 31
0.0
  0
ARC
  5
63B7
  8
DANMEN
  6
CONTINUOUS
 10
409.64879068434658
 20
218.72373877579909
 30
0.0
 40
0.3
 50
0.0
 51
90.0
  0
ARC
  5
63B8
  8
DANMEN
  6
CONTINUOUS
 10
409.64878782332357
 20
218.72373877579881
 30
0.0
 40
0.3
 50
19.471220634489871
 51
90.0
  0
LINE
  5
63B9
  8
DANMEN
  6
CONTINUOUS
 10
406.6487878233234
 20
220.22373877579881
 30
0.0
 11
410.54770471263919
 21
220.22373877579881
 31
0.0
  0
LINE
  5
63BA
  8
DANMEN
  6
CONTINUOUS
 10
415.94879068434619
 20
257.72373877579912
 30
0.0
 11
389.94879068434631
 21
257.72373877579912
 31
0.0
  0
LINE
  5
63BB
  8
DANMEN
  6
CONTINUOUS
 10
467.44879068434648
 20
262.02373877579902
 30
0.0
 11
388.44879052142568
 21
262.02373877579902
 31
0.0
  0
LINE
  5
63BC
  8
DANMEN
  6
CONTINUOUS
 10
404.94879068434648
 20
250.0237387757989
 30
0.0
 11
404.94879068434648
 21
224.0237387757989
 31
0.0
  0
LINE
  5
63BD
  8
DANMEN
  6
CONTINUOUS
 10
398.94879068434648
 20
242.0237387757989
 30
0.0
 11
398.94879068434648
 21
230.02373877579879
 31
0.0
  0
TEXT
  5
63BE
  8
SUNPO
  6
CONTINUOUS
 10
357.44879068434648
 20
234.7737387757989
 30
0.0
 40
2.5
  1
45.5
 50
90.0
 41
1.1999999999999991
  7
MX_DIMTXSTY_3
  0
LINE
  5
63BF
  8
DANMEN
  6
CONTINUOUS
 10
398.94879068434648
 20
242.0237387757989
 30
0.0
 11
404.94879068434648
 21
230.02373877579879
 31
0.0
  0
LINE
  5
63C0
  8
DANMEN
  6
CONTINUOUS
 10
398.94879068434648
 20
230.02373877579879
 30
0.0
 11
404.94879068434648
 21
242.0237387757989
 31
0.0
  0
LINE
  5
63C1
  8
SUNPO
  6
CONTINUOUS
 10
357.9487906843467
 20
262.0237387757989
 30
0.0
 11
357.9487906843467
 21
216.5237387757989
 31
0.0
  0
LINE
  5
63C2
  8
DANMEN
  6
CONTINUOUS
 10
372.9487906843467
 20
219.02373877579879
 30
0.0
 11
387.85788159343741
 21
219.02373877579879
 31
0.0
  0
LINE
  5
63C3
  8
DANMEN
  6
CONTINUOUS
 10
404.94879068434648
 20
226.5237387757989
 30
0.0
 11
372.9487906843467
 21
226.5237387757989
 31
0.0
  0
LINE
  5
63C4
  8
DANMEN
  6
CONTINUOUS
 10
404.94879068434648
 20
224.5237387757989
 30
0.0
 11
372.9487906843467
 21
224.5237387757989
 31
0.0
  0
LINE
  5
63C5
  8
DANMEN
  6
CONTINUOUS
 10
404.94879068434648
 20
224.0237387757989
 30
0.0
 11
372.9487906843467
 21
224.0237387757989
 31
0.0
  0
LINE
  5
63C6
  8
DANMEN
  6
CONTINUOUS
 10
404.94879068434648
 20
227.5237387757989
 30
0.0
 11
372.9487906843467
 21
227.5237387757989
 31
0.0
  0
LINE
  5
63C7
  8
DANMEN
  6
CONTINUOUS
 10
404.94879068434648
 20
227.0237387757989
 30
0.0
 11
372.9487906843467
 21
227.0237387757989
 31
0.0
  0
LINE
  5
63C8
  8
DANMEN
  6
CONTINUOUS
 10
404.94879068434648
 20
229.5237387757989
 30
0.0
 11
372.9487906843467
 21
229.5237387757989
 31
0.0
  0
LINE
  5
63C9
  8
DANMEN
  6
CONTINUOUS
 10
404.94879068434648
 20
230.02373877579879
 30
0.0
 11
372.9487906843467
 21
230.02373877579879
 31
0.0
  0
LINE
  5
63CA
  8
DANMEN
  6
CONTINUOUS
 10
388.44879319114762
 20
216.5237387757989
 30
0.0
 11
372.9487906843467
 21
216.5237387757989
 31
0.0
  0
ARC
  5
63CB
  8
SUNPO
  6
BYBLOCK
 10
357.9487906843467
 20
216.5237387757989
 30
0.0
 40
0.145
 50
270.0
 51
90.0
  0
ARC
  5
63CC
  8
SUNPO
  6
BYBLOCK
 10
357.9487906843467
 20
216.5237387757989
 30
0.0
 40
0.145
 50
90.0
 51
270.0
  0
ARC
  5
63CD
  8
SUNPO
  6
BYBLOCK
 10
357.9487906843467
 20
216.5237387757989
 30
0.0
 40
0.145
 50
270.0
 51
90.0
  0
TEXT
  5
63CE
  8
SUNPO
  6
CONTINUOUS
 10
377.4487906843467
 20
232.74598609025199
 30
0.0
 40
2.5
  1
70
 50
90.0
 41
1.1000000000000001
  7
MX_DIMTXSTY_5
  0
LINE
  5
63CF
  8
DANMEN
  6
CONTINUOUS
 10
392.94879068434648
 20
218.47373858506401
 30
0.0
 11
405.64878782332357
 21
218.47373858506401
 31
0.0
  0
LINE
  5
63D0
  8
DANMEN
  6
CONTINUOUS
 10
388.44879068434648
 20
216.5237387757989
 30
0.0
 11
407.9487906843467
 21
216.5237387757989
 31
0.0
  0
LINE
  5
63D1
  8
DANMEN
  6
CONTINUOUS
 10
387.9487906843467
 20
217.0237387757989
 30
0.0
 11
387.9487906843467
 21
218.5237387757989
 31
0.0
  0
ARC
  5
63D2
  8
DANMEN
  6
CONTINUOUS
 10
388.44879068434648
 20
217.0237387757989
 30
0.0
 40
0.5
 50
180.0
 51
270.0
  0
LINE
  5
63D3
  8
DANMEN
  6
CONTINUOUS
 10
390.39244149824259
 20
219.0237387757989
 30
0.0
 11
387.2946460590361
 21
222.12153421500511
 31
0.0
  0
LINE
  5
63D4
  8
DANMEN
  6
CONTINUOUS
 10
389.09092630807748
 20
224.0237387757989
 30
0.0
 11
387.278350011074
 21
222.21116247879581
 31
0.0
  0
LINE
  5
63D5
  8
DANMEN
  6
CONTINUOUS
 10
390.50513987045048
 20
224.0237387757989
 30
0.0
 11
387.49592132836227
 21
221.0145202337109
 31
0.0
  0
LINE
  5
63D6
  8
DANMEN
  6
CONTINUOUS
 10
391.91935343282358
 20
224.0237387757989
 30
0.0
 11
387.7134926456506
 21
219.8178779886259
 31
0.0
  0
LINE
  5
63D7
  8
DANMEN
  6
CONTINUOUS
 10
388.97822793586943
 20
219.0237387757989
 30
0.0
 11
387.6089157395636
 21
220.3930509721045
 31
0.0
  0
ARC
  5
63D8
  8
DANMEN
  6
CONTINUOUS
 10
388.44879068434648
 20
218.5237387757989
 30
0.0
 40
0.5
 50
90.0
 51
180.0
  0
LINE
  5
63D9
  8
DANMEN
  6
CONTINUOUS
 10
391.8066550606157
 20
219.0237387757989
 30
0.0
 11
386.98037637850888
 21
223.85001745790549
 31
0.0
  0
LINE
  5
63DA
  8
DANMEN
  6
CONTINUOUS
 10
386.94879068434642
 20
224.0237387757989
 30
0.0
 11
387.94879068434642
 21
218.5237387757989
 31
0.0
  0
LINE
  5
63DB
  8
DANMEN
  6
CONTINUOUS
 10
387.67671274570432
 20
224.0237387757989
 30
0.0
 11
387.06077869378612
 21
223.40780472388059
 31
0.0
  0
LINE
  5
63DC
  8
DANMEN
  6
CONTINUOUS
 10
392.94879068434619
 20
219.29581671444109
 30
0.0
 11
388.22086862298852
 21
224.0237387757989
 31
0.0
  0
LINE
  5
63DD
  8
DANMEN
  6
CONTINUOUS
 10
392.94879068434619
 20
223.63896246494861
 30
0.0
 11
388.3335669951968
 21
219.0237387757989
 31
0.0
  0
LINE
  5
63DE
  8
DANMEN
  6
CONTINUOUS
 10
388.44879068434648
 20
219.0237387757989
 30
0.0
 11
392.94879068434648
 21
219.0237387757989
 31
0.0
  0
LINE
  5
63DF
  8
DANMEN
  6
CONTINUOUS
 10
392.94879068434619
 20
223.53845740156021
 30
0.0
 11
392.4635093101079
 21
224.0237387757989
 31
0.0
  0
LINE
  5
63E0
  8
DANMEN
  6
CONTINUOUS
 10
392.94879068434619
 20
222.12424383918719
 30
0.0
 11
391.04929574773479
 21
224.0237387757989
 31
0.0
  0
LINE
  5
63E1
  8
DANMEN
  6
CONTINUOUS
 10
392.94879068434619
 20
220.710030276814
 30
0.0
 11
389.6350821853618
 21
224.0237387757989
 31
0.0
  0
LINE
  5
63E2
  8
DANMEN
  6
CONTINUOUS
 10
392.94879068434619
 20
222.22474890257561
 30
0.0
 11
389.7477805575698
 21
219.0237387757989
 31
0.0
  0
LINE
  5
63E3
  8
DANMEN
  6
CONTINUOUS
 10
392.94879068434619
 20
220.81053534020251
 30
0.0
 11
391.16199411994279
 21
219.0237387757989
 31
0.0
  0
LINE
  5
63E4
  8
DANMEN
  6
CONTINUOUS
 10
392.94879068434619
 20
219.3963217778294
 30
0.0
 11
392.5762076823159
 21
219.0237387757989
 31
0.0
  0
LINE
  5
63E5
  8
DANMEN
  6
CONTINUOUS
 10
392.94879068434648
 20
218.47373858506401
 30
0.0
 11
392.94879068434648
 21
219.0237387757989
 31
0.0
  0
LINE
  5
63E6
  8
DANMEN
  6
CONTINUOUS
 10
407.9487906843467
 20
216.5237387757989
 30
0.0
 11
407.9487906843467
 21
218.0237387757989
 31
0.0
  0
LINE
  5
63E7
  8
DANMEN
  6
CONTINUOUS
 10
408.9487906843467
 20
219.0237387757989
 30
0.0
 11
408.22518388659682
 21
218.66193537692399
 31
0.0
  0
ARC
  5
63E8
  8
DANMEN
  6
CONTINUOUS
 10
408.4487906843467
 20
218.21472178142389
 30
0.0
 40
0.5
 50
116.56505117707999
 51
180.0
  0
ARC
  5
63E9
  8
DANMEN
  6
CONTINUOUS
 10
406.6487878233234
 20
219.72373877579881
 30
0.0
 40
0.5
 50
90.0
 51
180.0
  0
LINE
  5
63EA
  8
DANMEN
  6
CONTINUOUS
 10
407.64878782332352
 20
218.0237387757989
 30
0.0
 11
407.9487906843467
 21
218.0237387757989
 31
0.0
  0
LINE
  5
63EB
  8
DANMEN
  6
CONTINUOUS
 10
407.64878782332352
 20
218.0237387757989
 30
0.0
 11
407.64878782332352
 21
219.0237387757989
 31
0.0
  0
LINE
  5
63EC
  8
DANMEN
  6
CONTINUOUS
 10
406.14878782332352
 20
218.97373858506401
 30
0.0
 11
406.14878782332352
 21
219.72373877579881
 31
0.0
  0
ARC
  5
63ED
  8
DANMEN
  6
CONTINUOUS
 10
405.64878782332357
 20
218.97373858506401
 30
0.0
 40
0.5
 50
270.0
 51
0.0
  0
LINE
  5
63EE
  8
DANMEN
  6
CONTINUOUS
 10
407.64878782332352
 20
219.0237387757989
 30
0.0
 11
409.64878782332357
 21
219.0237387757989
 31
0.0
  0
LINE
  5
63EF
  8
DANMEN
  6
CONTINUOUS
 10
409.64879068434658
 20
219.0237387757989
 30
0.0
 11
408.9487906843467
 21
219.0237387757989
 31
0.0
  0
LINE
  5
63F0
  8
DANMEN
  6
CONTINUOUS
 10
372.9487906843467
 20
255.02373877579879
 30
0.0
 11
387.85788159343741
 21
255.02373877579879
 31
0.0
  0
LINE
  5
63F1
  8
DANMEN
  6
CONTINUOUS
 10
387.9487906843467
 20
257.22373877579912
 30
0.0
 11
372.9487906843467
 21
257.22373877579912
 31
0.0
  0
LINE
  5
63F2
  8
DANMEN
  6
CONTINUOUS
 10
404.94879068434648
 20
242.52373877579879
 30
0.0
 11
372.9487906843467
 21
242.52373877579879
 31
0.0
  0
LINE
  5
63F3
  8
DANMEN
  6
CONTINUOUS
 10
404.94879068434648
 20
249.5237387757989
 30
0.0
 11
372.9487906843467
 21
249.5237387757989
 31
0.0
  0
LINE
  5
63F4
  8
DANMEN
  6
CONTINUOUS
 10
404.94879068434648
 20
242.0237387757989
 30
0.0
 11
372.9487906843467
 21
242.0237387757989
 31
0.0
  0
LINE
  5
63F5
  8
DANMEN
  6
CONTINUOUS
 10
404.94879068434648
 20
250.0237387757989
 30
0.0
 11
372.9487906843467
 21
250.0237387757989
 31
0.0
  0
LINE
  5
63F6
  8
SUNPO
  6
CONTINUOUS
 10
357.9487906843467
 20
262.0237387757989
 30
0.0
 11
357.9487906843467
 21
267.22373877579878
 31
0.0
  0
ARC
  5
63F7
  8
SUNPO
  6
BYBLOCK
 10
357.9487906843467
 20
262.0237387757989
 30
0.0
 40
0.1450000000000031
 50
90.0
 51
270.0
  0
ARC
  5
63F8
  8
SUNPO
  6
BYBLOCK
 10
357.9487906843467
 20
262.0237387757989
 30
0.0
 40
0.1450000000000031
 50
270.0
 51
90.0
  0
ARC
  5
63F9
  8
SUNPO
  6
BYBLOCK
 10
357.9487906843467
 20
262.0237387757989
 30
0.0
 40
0.1450000000000031
 50
90.0
 51
270.0
  0
ARC
  5
63FA
  8
SUNPO
  6
BYBLOCK
 10
357.9487906843467
 20
262.0237387757989
 30
0.0
 40
0.1450000000000031
 50
270.0
 51
90.0
  0
LINE
  5
63FB
  8
SUNPO
  6
CONTINUOUS
 10
357.9487906843467
 20
262.0237387757989
 30
0.0
 11
357.9487906843467
 21
262.0237387757989
 31
0.0
  0
ARC
  5
63FC
  8
SUNPO
  6
BYBLOCK
 10
357.9487906843467
 20
267.22373877579878
 30
0.0
 40
0.1450000000000031
 50
270.0
 51
90.0
  0
ARC
  5
63FD
  8
SUNPO
  6
BYBLOCK
 10
357.9487906843467
 20
267.22373877579878
 30
0.0
 40
0.1450000000000031
 50
90.0
 51
270.0
  0
LINE
  5
63FE
  8
DANMEN
  6
CONTINUOUS
 10
357.9487906843467
 20
267.22373877579878
 30
0.0
 11
357.9487906843467
 21
267.22373877579878
 31
0.0
  0
ARC
  5
63FF
  8
SUNPO
  6
BYBLOCK
 10
377.9487906843467
 20
267.22373877579878
 30
0.0
 40
0.1450000000000031
 50
90.0
 51
270.0
  0
ARC
  5
6400
  8
SUNPO
  6
BYBLOCK
 10
377.9487906843467
 20
267.22373877579878
 30
0.0
 40
0.1450000000000031
 50
270.0
 51
90.0
  0
LINE
  5
6401
  8
DANMEN
  6
CONTINUOUS
 10
387.9487906843467
 20
261.52373877579902
 30
0.0
 11
387.9487906843467
 21
255.5237387757989
 31
0.0
  0
LINE
  5
6402
  8
DANMEN
  6
CONTINUOUS
 10
391.91935343282358
 20
250.02373877579871
 30
0.0
 11
387.71349264565089
 21
254.22959956297191
 31
0.0
  0
LINE
  5
6403
  8
DANMEN
  6
CONTINUOUS
 10
390.50513987045048
 20
250.02373877579871
 30
0.0
 11
387.49592132836227
 21
253.0329573178868
 31
0.0
  0
LINE
  5
6404
  8
DANMEN
  6
CONTINUOUS
 10
389.09092630807748
 20
250.02373877579871
 30
0.0
 11
387.27835001107451
 21
251.83631507280199
 31
0.0
  0
LINE
  5
6405
  8
DANMEN
  6
CONTINUOUS
 10
390.39244149824259
 20
255.02373877579879
 30
0.0
 11
387.2946460590361
 21
251.92594333659281
 31
0.0
  0
ARC
  5
6406
  8
DANMEN
  6
CONTINUOUS
 10
388.44879068434648
 20
255.5237387757989
 30
0.0
 40
0.5
 50
180.0
 51
270.0
  0
LINE
  5
6407
  8
DANMEN
  6
CONTINUOUS
 10
388.97822793586943
 20
255.02373877579879
 30
0.0
 11
387.6089157395636
 21
253.65442657949311
 31
0.0
  0
LINE
  5
6408
  8
DANMEN
  6
CONTINUOUS
 10
391.8066550606157
 20
255.02373877579879
 30
0.0
 11
386.98037637850888
 21
250.19746009369231
 31
0.0
  0
LINE
  5
6409
  8
DANMEN
  6
CONTINUOUS
 10
387.94879068434642
 20
255.5237387757989
 30
0.0
 11
386.94879068434642
 21
250.02373877579871
 31
0.0
  0
LINE
  5
640A
  8
DANMEN
  6
CONTINUOUS
 10
387.67671274570432
 20
250.02373877579871
 30
0.0
 11
387.06077869378612
 21
250.63967282771711
 31
0.0
  0
LINE
  5
640B
  8
DANMEN
  6
CONTINUOUS
 10
392.94879068434619
 20
250.408515086649
 30
0.0
 11
388.3335669951968
 21
255.02373877579879
 31
0.0
  0
LINE
  5
640C
  8
DANMEN
  6
CONTINUOUS
 10
392.94879068434619
 20
254.75166083715661
 30
0.0
 11
388.22086862298852
 21
250.02373877579871
 31
0.0
  0
LINE
  5
640D
  8
DANMEN
  6
CONTINUOUS
 10
392.94879068434648
 20
255.0237387757989
 30
0.0
 11
388.44879068434648
 21
255.0237387757989
 31
0.0
  0
LINE
  5
640E
  8
DANMEN
  6
CONTINUOUS
 10
392.94879068434648
 20
255.5237387757989
 30
0.0
 11
392.94879068434648
 21
255.0237387757989
 31
0.0
  0
LINE
  5
640F
  8
DANMEN
  6
CONTINUOUS
 10
392.94879068434619
 20
254.65115577376841
 30
0.0
 11
392.5762076823159
 21
255.02373877579879
 31
0.0
  0
LINE
  5
6410
  8
DANMEN
  6
CONTINUOUS
 10
392.94879068434619
 20
253.2369422113953
 30
0.0
 11
391.16199411994302
 21
255.02373877579879
 31
0.0
  0
LINE
  5
6411
  8
DANMEN
  6
CONTINUOUS
 10
392.94879068434619
 20
251.82272864902211
 30
0.0
 11
389.7477805575698
 21
255.02373877579879
 31
0.0
  0
LINE
  5
6412
  8
DANMEN
  6
CONTINUOUS
 10
392.94879068434619
 20
253.33744727478361
 30
0.0
 11
389.6350821853618
 21
250.02373877579871
 31
0.0
  0
LINE
  5
6413
  8
DANMEN
  6
CONTINUOUS
 10
392.94879068434619
 20
251.92323371241051
 30
0.0
 11
391.04929574773462
 21
250.02373877579871
 31
0.0
  0
LINE
  5
6414
  8
DANMEN
  6
CONTINUOUS
 10
392.94879068434619
 20
250.5090201500374
 30
0.0
 11
392.4635093101079
 21
250.02373877579871
 31
0.0
  0
ARC
  5
6415
  8
DANMEN
  6
CONTINUOUS
 10
392.44879068434648
 20
255.5237387757989
 30
0.0
 40
0.5
 50
0.0
 51
90.0
  0
LINE
  5
6416
  8
DANMEN
  6
CONTINUOUS
 10
392.44879068434648
 20
256.02373877579902
 30
0.0
 11
389.94879068434631
 21
256.02373877579902
 31
0.0
  0
LINE
  5
6417
  8
DANMEN
  6
CONTINUOUS
 10
389.94879068434631
 20
256.02373877579902
 30
0.0
 11
389.94879068434631
 21
257.72373877579912
 31
0.0
  0
ARC
  5
6418
  8
DANMEN
  6
CONTINUOUS
 10
388.44879068434648
 20
261.52373877579902
 30
0.0
 40
0.5
 50
90.000018669335276
 51
180.00005532475791
  0
LINE
  5
6419
  8
DANMEN
  6
CONTINUOUS
 10
456.94879068434608
 20
242.0237387757989
 30
0.0
 11
450.94879068434608
 21
230.02373877579879
 31
0.0
  0
LINE
  5
641A
  8
DANMEN
  6
CONTINUOUS
 10
456.94879068434608
 20
230.02373877579879
 30
0.0
 11
450.94879068434608
 21
242.0237387757989
 31
0.0
  0
LINE
  5
641B
  8
DANMEN
  6
CONTINUOUS
 10
439.94879019296479
 20
245.02373877579871
 30
0.0
 11
439.94879019296479
 21
229.02373877579871
 31
0.0
  0
LINE
  5
641C
  8
DANMEN
  6
CONTINUOUS
 10
450.94879019296479
 20
245.02373877579871
 30
0.0
 11
450.94879019296479
 21
229.02373877579871
 31
0.0
  0
LINE
  5
641D
  8
DANMEN
  6
CONTINUOUS
 10
450.948790010783
 20
245.0237377960708
 30
0.0
 11
439.9487899640128
 21
229.02373798569121
 31
0.0
  0
LINE
  5
641E
  8
DANMEN
  6
CONTINUOUS
 10
456.94879068434608
 20
242.0237387757989
 30
0.0
 11
456.94879068434608
 21
230.02373877579879
 31
0.0
  0
LINE
  5
641F
  8
DANMEN
  6
CONTINUOUS
 10
415.94879068434619
 20
257.72373877579912
 30
0.0
 11
415.94879068434619
 21
224.0237387757989
 31
0.0
  0
LINE
  5
6420
  8
DANMEN
  6
CONTINUOUS
 10
439.94879068434608
 20
257.72373877579912
 30
0.0
 11
439.94879068434608
 21
224.0237387757989
 31
0.0
  0
LINE
  5
6421
  8
DANMEN
  6
CONTINUOUS
 10
450.94879068434608
 20
250.0237387757989
 30
0.0
 11
450.94879068434608
 21
224.0237387757989
 31
0.0
  0
LINE
  5
6422
  8
DANMEN
  6
CONTINUOUS
 10
435.94879068434608
 20
257.72373877579912
 30
0.0
 11
435.94879068434608
 21
216.32373877579909
 31
0.0
  0
LINE
  5
6423
  8
DANMEN
  6
CONTINUOUS
 10
419.94879068434619
 20
257.72373877579912
 30
0.0
 11
419.94879068434619
 21
216.32373877579909
 31
0.0
  0
LINE
  5
6424
  8
DANMEN
  6
CONTINUOUS
 10
411.9487906843467
 20
212.32373877579909
 30
0.0
 11
443.94879068434608
 21
212.32373877579909
 31
0.0
  0
LINE
  5
6425
  8
DANMEN
  6
CONTINUOUS
 10
419.94879068434619
 20
216.32373877579909
 30
0.0
 11
435.94879068434608
 21
216.32373877579909
 31
0.0
  0
LINE
  5
6426
  8
DANMEN
  6
CONTINUOUS
 10
415.94879068434619
 20
222.0237387757989
 30
0.0
 11
415.94879068434619
 21
216.32373877579909
 31
0.0
  0
LINE
  5
6427
  8
DANMEN
  6
CONTINUOUS
 10
409.94879068434648
 20
216.32373877579909
 30
0.0
 11
409.94879068434648
 21
218.72373877579909
 31
0.0
  0
LINE
  5
6428
  8
DANMEN
  6
CONTINUOUS
 10
409.94879068434648
 20
216.32373877579909
 30
0.0
 11
415.94879070818808
 21
216.32373877579909
 31
0.0
  0
LINE
  5
6429
  8
DANMEN
  6
CONTINUOUS
 10
409.94879070818831
 20
224.0237387757989
 30
0.0
 11
415.94879070818808
 21
224.0237387757989
 31
0.0
  0
LINE
  5
642A
  8
DANMEN
  6
CONTINUOUS
 10
411.94879070818808
 20
222.0237387757989
 30
0.0
 11
415.94879070818808
 21
222.0237387757989
 31
0.0
  0
LINE
  5
642B
  8
DANMEN
  6
CONTINUOUS
 10
410.53566717669509
 20
218.721855987472
 30
0.0
 11
413.51269340501182
 21
220.9254465434139
 31
0.0
  0
LINE
  5
642C
  8
DANMEN
  6
CONTINUOUS
 10
410.54770471263919
 20
220.22373877579881
 30
0.0
 11
413.24968237386048
 21
222.22373877579889
 31
0.0
  0
LINE
  5
642D
  8
DANMEN
  6
CONTINUOUS
 10
411.94879070818808
 20
222.0237387757989
 30
0.0
 11
410.35073264061919
 21
222.3433503893128
 31
0.0
  0
LINE
  5
642E
  8
DANMEN
  6
CONTINUOUS
 10
409.94879070818831
 20
222.83364072715821
 30
0.0
 11
409.94879070818831
 21
224.0237387757989
 31
0.0
  0
ARC
  5
642F
  8
DANMEN
  6
CONTINUOUS
 10
410.44879070818831
 20
222.83364072715821
 30
0.0
 40
0.5
 50
180.0
 51
258.69006752598222
  0
ARC
  5
6430
  8
DANMEN
  6
CONTINUOUS
 10
410.21447324827278
 20
218.9237387757988
 30
0.0
 40
0.3
 50
199.4712206344899
 51
270.0
  0
ARC
  5
6431
  8
DANMEN
  6
CONTINUOUS
 10
410.23819411161782
 20
219.1237387757991
 30
0.0
 40
0.5
 50
270.0
 51
306.508791935548
  0
LINE
  5
6432
  8
DANMEN
  6
CONTINUOUS
 10
410.21447324827278
 20
218.6237387757989
 30
0.0
 11
410.23819411161782
 21
218.6237387757989
 31
0.0
  0
ARC
  5
6433
  8
DANMEN
  6
CONTINUOUS
 10
414.70631779032112
 20
220.62360325525589
 30
0.0
 40
0.5
 50
214.70262216555039
 51
270.0
  0
ARC
  5
6434
  8
DANMEN
  6
CONTINUOUS
 10
413.69117724405828
 20
220.6843168704176
 30
0.0
 40
0.3
 50
34.702622165550409
 51
126.5087919355479
  0
LINE
  5
6435
  8
DANMEN
  6
CONTINUOUS
 10
414.2952587968951
 20
220.338944680954
 30
0.0
 11
413.93781264011398
 21
220.85511201499881
 31
0.0
  0
ARC
  5
6436
  8
DANMEN
  6
CONTINUOUS
 10
414.94968237386053
 20
220.62360325525589
 30
0.0
 40
0.5
 50
270.0
 51
0.0
  0
ARC
  5
6437
  8
DANMEN
  6
CONTINUOUS
 10
414.94968237386053
 20
220.62347256976599
 30
0.0
 40
0.5
 50
0.0
 51
34.702622165550409
  0
LINE
  5
6438
  8
DANMEN
  6
CONTINUOUS
 10
414.94968236983232
 20
220.123603255256
 30
0.0
 11
414.70631779032112
 21
220.123603255256
 31
0.0
  0
LINE
  5
6439
  8
DANMEN
  6
CONTINUOUS
 10
415.44968237386053
 20
220.62347254569261
 30
0.0
 11
415.44968237386053
 21
220.62360325525589
 31
0.0
  0
LINE
  5
643A
  8
DANMEN
  6
CONTINUOUS
 10
415.36074136728638
 20
220.90813114406811
 30
0.0
 11
414.44968237386041
 21
222.22373877579889
 31
0.0
  0
LINE
  5
643B
  8
DANMEN
  6
CONTINUOUS
 10
413.24968237386048
 20
222.22373877579889
 30
0.0
 11
414.44968237386041
 21
222.22373877579889
 31
0.0
  0
LINE
  5
643C
  8
DANMEN
  6
CONTINUOUS
 10
462.94879068434602
 20
218.47373858506401
 30
0.0
 11
450.24879354536893
 21
218.47373858506401
 31
0.0
  0
LINE
  5
643D
  8
DANMEN
  6
CONTINUOUS
 10
467.44879068434602
 20
216.5237387757989
 30
0.0
 11
447.94879068434608
 21
216.5237387757989
 31
0.0
  0
LINE
  5
643E
  8
DANMEN
  6
CONTINUOUS
 10
439.94879068434608
 20
222.0237387757989
 30
0.0
 11
439.94879068434608
 21
216.32373877579909
 31
0.0
  0
LINE
  5
643F
  8
DANMEN
  6
CONTINUOUS
 10
445.94879068434608
 20
216.32373877579909
 30
0.0
 11
445.94879068434608
 21
218.72373877579909
 31
0.0
  0
LINE
  5
6440
  8
DANMEN
  6
CONTINUOUS
 10
447.94879068434608
 20
216.5237387757989
 30
0.0
 11
447.94879068434608
 21
218.0237387757989
 31
0.0
  0
LINE
  5
6441
  8
DANMEN
  6
CONTINUOUS
 10
439.94879066050441
 20
216.32373877579909
 30
0.0
 11
445.94879068434608
 21
216.32373877579909
 31
0.0
  0
ARC
  5
6442
  8
DANMEN
  6
CONTINUOUS
 10
446.24879068434609
 20
218.72373877579909
 30
0.0
 40
0.3
 50
90.0
 51
180.0
  0
ARC
  5
6443
  8
DANMEN
  6
CONTINUOUS
 10
446.24879354536893
 20
218.72373877579881
 30
0.0
 40
0.3
 50
90.0
 51
160.5287793655101
  0
LINE
  5
6444
  8
DANMEN
  6
CONTINUOUS
 10
449.24879354536898
 20
220.22373877579889
 30
0.0
 11
445.34987665605342
 21
220.22373877579889
 31
0.0
  0
ARC
  5
6445
  8
DANMEN
  6
CONTINUOUS
 10
445.4487906605043
 20
222.83364072715821
 30
0.0
 40
0.5
 50
281.30993247401761
 51
0.0
  0
LINE
  5
6446
  8
DANMEN
  6
CONTINUOUS
 10
445.9487906605043
 20
222.83364072715821
 30
0.0
 11
445.9487906605043
 21
224.0237387757989
 31
0.0
  0
ARC
  5
6447
  8
DANMEN
  6
CONTINUOUS
 10
445.68310812041989
 20
218.9237387757988
 30
0.0
 40
0.3
 50
270.0
 51
340.5287793655101
  0
ARC
  5
6448
  8
DANMEN
  6
CONTINUOUS
 10
445.65938725707468
 20
219.1237387757991
 30
0.0
 40
0.5
 50
233.491208064452
 51
270.0
  0
LINE
  5
6449
  8
DANMEN
  6
CONTINUOUS
 10
445.68310812041989
 20
218.6237387757989
 30
0.0
 11
445.65938725707468
 21
218.6237387757989
 31
0.0
  0
LINE
  5
644A
  8
DANMEN
  6
CONTINUOUS
 10
443.94879066050441
 20
222.0237387757989
 30
0.0
 11
439.94879066050441
 21
222.0237387757989
 31
0.0
  0
ARC
  5
644B
  8
DANMEN
  6
CONTINUOUS
 10
441.19126357837132
 20
220.62360325525589
 30
0.0
 40
0.5
 50
270.0
 51
325.29737783444938
  0
LINE
  5
644C
  8
DANMEN
  6
CONTINUOUS
 10
440.53684000140618
 20
220.90813114406811
 30
0.0
 11
441.44789899483209
 21
222.22373877579889
 31
0.0
  0
ARC
  5
644D
  8
DANMEN
  6
CONTINUOUS
 10
440.94789899483209
 20
220.62360325525589
 30
0.0
 40
0.5
 50
180.0
 51
270.0
  0
ARC
  5
644E
  8
DANMEN
  6
CONTINUOUS
 10
440.94789899483209
 20
220.62347256976599
 30
0.0
 40
0.5
 50
145.29737783444961
 51
180.0
  0
LINE
  5
644F
  8
DANMEN
  6
CONTINUOUS
 10
440.9478989988603
 20
220.123603255256
 30
0.0
 11
441.19126357837132
 21
220.123603255256
 31
0.0
  0
LINE
  5
6450
  8
DANMEN
  6
CONTINUOUS
 10
440.44789899483209
 20
220.62347254569261
 30
0.0
 11
440.44789899483209
 21
220.62360325525589
 31
0.0
  0
ARC
  5
6451
  8
DANMEN
  6
CONTINUOUS
 10
442.20640412463422
 20
220.6843168704176
 30
0.0
 40
0.3
 50
53.491208064452003
 51
145.29737783444961
  0
LINE
  5
6452
  8
DANMEN
  6
CONTINUOUS
 10
441.60232257179752
 20
220.338944680954
 30
0.0
 11
441.95976872857858
 21
220.85511201499881
 31
0.0
  0
LINE
  5
6453
  8
DANMEN
  6
CONTINUOUS
 10
442.64789899483208
 20
222.22373877579889
 30
0.0
 11
441.44789899483209
 21
222.22373877579889
 31
0.0
  0
LINE
  5
6454
  8
DANMEN
  6
CONTINUOUS
 10
445.9487906605043
 20
224.0237387757989
 30
0.0
 11
439.94879066050441
 21
224.0237387757989
 31
0.0
  0
LINE
  5
6455
  8
DANMEN
  6
CONTINUOUS
 10
443.94879066050441
 20
222.0237387757989
 30
0.0
 11
445.5468487280736
 21
222.3433503893128
 31
0.0
  0
LINE
  5
6456
  8
DANMEN
  6
CONTINUOUS
 10
445.3619141919973
 20
218.721855987472
 30
0.0
 11
442.38488796368063
 21
220.9254465434139
 31
0.0
  0
LINE
  5
6457
  8
DANMEN
  6
CONTINUOUS
 10
445.34987665605342
 20
220.22373877579889
 30
0.0
 11
442.64789899483208
 21
222.22373877579889
 31
0.0
  0
ARC
  5
6458
  8
DANMEN
  6
CONTINUOUS
 10
447.44879068434608
 20
218.21472178142389
 30
0.0
 40
0.5
 50
0.0
 51
63.434948822919829
  0
LINE
  5
6459
  8
DANMEN
  6
CONTINUOUS
 10
446.94879068434608
 20
219.0237387757989
 30
0.0
 11
447.67239748209619
 21
218.66193537692399
 31
0.0
  0
LINE
  5
645A
  8
DANMEN
  6
CONTINUOUS
 10
446.24879068434609
 20
219.0237387757989
 30
0.0
 11
446.94879068434608
 21
219.0237387757989
 31
0.0
  0
ARC
  5
645B
  8
DANMEN
  6
CONTINUOUS
 10
449.24879354536898
 20
219.72373877579901
 30
0.0
 40
0.5
 50
0.0
 51
90.0
  0
LINE
  5
645C
  8
DANMEN
  6
CONTINUOUS
 10
448.24879354536932
 20
218.0237387757989
 30
0.0
 11
447.94879068434608
 21
218.0237387757989
 31
0.0
  0
LINE
  5
645D
  8
DANMEN
  6
CONTINUOUS
 10
448.24879354536932
 20
218.0237387757989
 30
0.0
 11
448.24879354536932
 21
219.0237387757989
 31
0.0
  0
LINE
  5
645E
  8
DANMEN
  6
CONTINUOUS
 10
449.74879354536898
 20
218.97373858506401
 30
0.0
 11
449.74879354536898
 21
219.72373877579901
 31
0.0
  0
ARC
  5
645F
  8
DANMEN
  6
CONTINUOUS
 10
450.24879354536893
 20
218.97373858506401
 30
0.0
 40
0.5
 50
180.0
 51
270.0
  0
LINE
  5
6460
  8
DANMEN
  6
CONTINUOUS
 10
448.24879354536932
 20
219.0237387757989
 30
0.0
 11
446.24879354536893
 21
219.0237387757989
 31
0.0
  0
LINE
  5
6461
  8
DANMEN
  6
CONTINUOUS
 10
462.94879068434602
 20
220.710030276814
 30
0.0
 11
466.26249918333048
 21
224.0237387757989
 31
0.0
  0
LINE
  5
6462
  8
DANMEN
  6
CONTINUOUS
 10
462.94879068434602
 20
222.22474890257561
 30
0.0
 11
466.14980081112282
 21
219.0237387757989
 31
0.0
  0
LINE
  5
6463
  8
DANMEN
  6
CONTINUOUS
 10
462.94879068434602
 20
222.12424383918719
 30
0.0
 11
464.84828562095771
 21
224.0237387757989
 31
0.0
  0
LINE
  5
6464
  8
DANMEN
  6
CONTINUOUS
 10
462.94879068434602
 20
223.53845740156021
 30
0.0
 11
463.4340720585846
 21
224.0237387757989
 31
0.0
  0
LINE
  5
6465
  8
DANMEN
  6
CONTINUOUS
 10
462.94879068434602
 20
219.3963217778294
 30
0.0
 11
463.3213736863766
 21
219.0237387757989
 31
0.0
  0
LINE
  5
6466
  8
DANMEN
  6
CONTINUOUS
 10
462.94879068434602
 20
220.81053534020251
 30
0.0
 11
464.73558724874999
 21
219.0237387757989
 31
0.0
  0
LINE
  5
6467
  8
DANMEN
  6
CONTINUOUS
 10
462.94879068434602
 20
218.47373858506401
 30
0.0
 11
462.94879068434602
 21
219.0237387757989
 31
0.0
  0
LINE
  5
6468
  8
DANMEN
  6
CONTINUOUS
 10
462.94879068434602
 20
219.29581671444109
 30
0.0
 11
467.67671274570392
 21
224.0237387757989
 31
0.0
  0
LINE
  5
6469
  8
DANMEN
  6
CONTINUOUS
 10
462.94879068434602
 20
223.63896246494861
 30
0.0
 11
467.56401437349609
 21
219.0237387757989
 31
0.0
  0
LINE
  5
646A
  8
DANMEN
  6
CONTINUOUS
 10
467.44879068434602
 20
219.0237387757989
 30
0.0
 11
462.94879068434602
 21
219.0237387757989
 31
0.0
  0
LINE
  5
646B
  8
DANMEN
  6
CONTINUOUS
 10
450.94879019296479
 20
229.02373877579871
 30
0.0
 11
439.94879019296479
 21
229.02373877579871
 31
0.0
  0
LINE
  5
646C
  8
DANMEN
  6
CONTINUOUS
 10
435.94879068434608
 20
257.72373877579912
 30
0.0
 11
419.94879068434619
 21
257.72373877579912
 31
0.0
  0
LINE
  5
646D
  8
DANMEN
  6
CONTINUOUS
 10
439.94879068434608
 20
257.72373877579889
 30
0.0
 11
465.94879068434608
 21
257.72373877579889
 31
0.0
  0
LINE
  5
646E
  8
DANMEN
  6
CONTINUOUS
 10
450.94879019296479
 20
245.02373877579871
 30
0.0
 11
439.94879019296479
 21
245.02373877579871
 31
0.0
  0
LINE
  5
646F
  8
DANMEN
  6
CONTINUOUS
 10
462.94879068434602
 20
251.82272864902211
 30
0.0
 11
466.14980081112282
 21
255.02373877579879
 31
0.0
  0
LINE
  5
6470
  8
DANMEN
  6
CONTINUOUS
 10
462.94879068434602
 20
253.33744727478361
 30
0.0
 11
466.26249918333087
 21
250.02373877579871
 31
0.0
  0
LINE
  5
6471
  8
DANMEN
  6
CONTINUOUS
 10
463.44879068434602
 20
256.02373877579868
 30
0.0
 11
465.94879068434608
 21
256.02373877579868
 31
0.0
  0
LINE
  5
6472
  8
DANMEN
  6
CONTINUOUS
 10
462.94879068434602
 20
255.5237387757989
 30
0.0
 11
462.94879068434602
 21
255.02373877579879
 31
0.0
  0
LINE
  5
6473
  8
DANMEN
  6
CONTINUOUS
 10
462.94879068434602
 20
253.2369422113953
 30
0.0
 11
464.73558724874999
 21
255.02373877579879
 31
0.0
  0
LINE
  5
6474
  8
DANMEN
  6
CONTINUOUS
 10
462.94879068434602
 20
254.65115577376841
 30
0.0
 11
463.3213736863766
 21
255.02373877579879
 31
0.0
  0
LINE
  5
6475
  8
DANMEN
  6
CONTINUOUS
 10
462.94879068434602
 20
250.5090201500374
 30
0.0
 11
463.434072058585
 21
250.02373877579871
 31
0.0
  0
LINE
  5
6476
  8
DANMEN
  6
CONTINUOUS
 10
462.94879068434602
 20
251.92323371241051
 30
0.0
 11
464.84828562095771
 21
250.02373877579871
 31
0.0
  0
ARC
  5
6477
  8
DANMEN
  6
CONTINUOUS
 10
463.44879068434602
 20
255.5237387757989
 30
0.0
 40
0.5
 50
90.0
 51
180.0
  0
LINE
  5
6478
  8
DANMEN
  6
CONTINUOUS
 10
465.94879068434608
 20
256.02373877579868
 30
0.0
 11
465.94879068434608
 21
257.72373877579889
 31
0.0
  0
LINE
  5
6479
  8
DANMEN
  6
CONTINUOUS
 10
462.94879068434602
 20
250.408515086649
 30
0.0
 11
467.56401437349609
 21
255.02373877579879
 31
0.0
  0
LINE
  5
647A
  8
DANMEN
  6
CONTINUOUS
 10
462.94879068434602
 20
254.75166083715681
 30
0.0
 11
467.67671274570398
 21
250.02373877579871
 31
0.0
  0
LINE
  5
647B
  8
DANMEN
  6
CONTINUOUS
 10
462.94879068434602
 20
255.02373877579879
 30
0.0
 11
467.44879068434602
 21
255.02373877579879
 31
0.0
  0
TEXT
  5
647C
  8
SUNPO
  6
CONTINUOUS
 10
408.57379068434648
 20
277.72373877579878
 30
0.0
 40
2.5
  1
11
 41
1.5
  7
MX_DIMTXSTY_6
  0
LINE
  5
647D
  8
SUNPO
  6
CONTINUOUS
 10
404.94879068434648
 20
277.22373877579901
 30
0.0
 11
415.94879068434619
 21
277.22373877579878
 31
0.0
  0
TEXT
  5
647E
  8
SUNPO
  6
CONTINUOUS
 10
394.44879068434648
 20
277.72373877579878
 30
0.0
 40
2.5
  1
17
 41
1.1999999999999991
  7
MX_DIMTXSTY_3
  0
LINE
  5
647F
  8
SUNPO
  6
CONTINUOUS
 10
387.9487906843467
 20
277.22373877579901
 30
0.0
 11
404.94879068434648
 21
277.22373877579901
 31
0.0
  0
ARC
  5
6480
  8
SUNPO
  6
BYBLOCK
 10
387.9487906843467
 20
277.22373877579901
 30
0.0
 40
0.144999999999996
 50
180.0
 51
0.0
  0
ARC
  5
6481
  8
SUNPO
  6
BYBLOCK
 10
387.9487906843467
 20
277.22373877579901
 30
0.0
 40
0.144999999999996
 50
0.0
 51
180.0
  0
ARC
  5
6482
  8
SUNPO
  6
BYBLOCK
 10
387.9487906843467
 20
287.22373877579901
 30
0.0
 40
0.144999999999996
 50
180.0
 51
0.0
  0
ARC
  5
6483
  8
SUNPO
  6
BYBLOCK
 10
387.9487906843467
 20
287.22373877579901
 30
0.0
 40
0.144999999999996
 50
0.0
 51
180.0
  0
ARC
  5
6484
  8
SUNPO
  6
BYBLOCK
 10
404.94879068434648
 20
277.22373877579901
 30
0.0
 40
0.144999999999996
 50
0.0
 51
180.0
  0
ARC
  5
6485
  8
SUNPO
  6
BYBLOCK
 10
404.94879068434648
 20
277.22373877579901
 30
0.0
 40
0.144999999999996
 50
180.0
 51
0.0
  0
ARC
  5
6486
  8
SUNPO
  6
BYBLOCK
 10
404.94879068434648
 20
277.22373877579901
 30
0.0
 40
0.144999999999996
 50
180.0
 51
0.0
  0
ARC
  5
6487
  8
SUNPO
  6
BYBLOCK
 10
404.94879068434648
 20
277.22373877579901
 30
0.0
 40
0.144999999999996
 50
0.0
 51
180.0
  0
LINE
  5
6488
  8
SUNPO
  6
CONTINUOUS
 10
392.94879068434602
 20
317.22373877579878
 30
0.0
 11
392.94879068434602
 21
334.22373877579901
 31
0.0
  0
LINE
  5
6489
  8
SUNPO
  6
CONTINUOUS
 10
401.44879068434602
 20
317.22373877579878
 30
0.0
 11
382.94879068434608
 21
317.22373877579878
 31
0.0
  0
ARC
  5
648A
  8
SUNPO
  6
BYBLOCK
 10
382.94879068434608
 20
317.22373877579878
 30
0.0
 40
0.144999999999996
 50
270.0
 51
90.0
  0
ARC
  5
648B
  8
SUNPO
  6
BYBLOCK
 10
382.94879068434608
 20
317.22373877579878
 30
0.0
 40
0.144999999999996
 50
90.0
 51
270.0
  0
ARC
  5
648C
  8
SUNPO
  6
BYBLOCK
 10
392.94879068434602
 20
317.22373877579878
 30
0.0
 40
0.144999999999996
 50
270.0
 51
90.0
  0
ARC
  5
648D
  8
SUNPO
  6
BYBLOCK
 10
392.94879068434602
 20
317.22373877579878
 30
0.0
 40
0.144999999999996
 50
90.0
 51
270.0
  0
ARC
  5
648E
  8
SUNPO
  6
BYBLOCK
 10
402.94879068434608
 20
307.22373877579901
 30
0.0
 40
0.144999999999996
 50
180.0
 51
0.0
  0
ARC
  5
648F
  8
SUNPO
  6
BYBLOCK
 10
402.94879068434608
 20
307.22373877579901
 30
0.0
 40
0.144999999999996
 50
0.0
 51
180.0
  0
LINE
  5
6490
  8
SUNPO
  6
CONTINUOUS
 10
401.44879068434602
 20
334.22373877579901
 30
0.0
 11
392.94879068434602
 21
334.22373877579901
 31
0.0
  0
TEXT
  5
6491
  8
SUNPO
  6
CONTINUOUS
 10
392.44879068434602
 20
323.72373877579901
 30
0.0
 40
2.5
  1
17
 50
90.0
 41
1.1999999999999991
  7
MX_DIMTXSTY_3
  0
ARC
  5
6492
  8
SUNPO
  6
BYBLOCK
 10
392.94879068434602
 20
334.22373877579901
 30
0.0
 40
0.144999999999996
 50
270.0
 51
90.0
  0
ARC
  5
6493
  8
SUNPO
  6
BYBLOCK
 10
392.94879068434602
 20
334.22373877579901
 30
0.0
 40
0.144999999999996
 50
90.0
 51
270.0
  0
ARC
  5
6494
  8
SUNPO
  6
BYBLOCK
 10
392.94879068434602
 20
334.22373877579901
 30
0.0
 40
0.144999999999996
 50
90.0
 51
270.0
  0
ARC
  5
6495
  8
SUNPO
  6
BYBLOCK
 10
392.94879068434602
 20
334.22373877579901
 30
0.0
 40
0.144999999999996
 50
270.0
 51
90.0
  0
TEXT
  5
6496
  8
SUNPO
  6
CONTINUOUS
 10
392.44879068434602
 20
336.39040544246558
 30
0.0
 40
2.5
  1
6
 50
90.0
  7
MX_NOTE_STANDARD
  0
LINE
  5
6497
  8
DANMEN
  6
CONTINUOUS
 10
420.14879068434601
 20
334.22373877579901
 30
0.0
 11
420.14879068434601
 21
302.22373877579901
 31
0.0
  0
LINE
  5
6498
  8
DANMEN
  6
CONTINUOUS
 10
428.14879068434612
 20
334.22373877579901
 30
0.0
 11
428.14879068434612
 21
302.22373877579901
 31
0.0
  0
LINE
  5
6499
  8
DANMEN
  6
CONTINUOUS
 10
420.64879068434601
 20
334.22373877579901
 30
0.0
 11
420.64879068434601
 21
302.22373877579901
 31
0.0
  0
LINE
  5
649A
  8
DANMEN
  6
CONTINUOUS
 10
427.64879068434618
 20
334.22373877579901
 30
0.0
 11
427.64879068434618
 21
302.22373877579901
 31
0.0
  0
LINE
  5
649B
  8
DANMEN
  6
CONTINUOUS
 10
415.14879068434612
 20
317.72373877579901
 30
0.0
 11
415.14879068434612
 21
302.22373877579901
 31
0.0
  0
LINE
  5
649C
  8
DANMEN
  6
CONTINUOUS
 10
442.6487906843463
 20
334.22373877579901
 30
0.0
 11
442.6487906843463
 21
302.22373877579901
 31
0.0
  0
LINE
  5
649D
  8
DANMEN
  6
CONTINUOUS
 10
443.6487906843463
 20
334.22373877579901
 30
0.0
 11
443.6487906843463
 21
302.22373877579901
 31
0.0
  0
LINE
  5
649E
  8
DANMEN
  6
CONTINUOUS
 10
443.1487906843463
 20
334.22373877579901
 30
0.0
 11
443.1487906843463
 21
302.22373877579901
 31
0.0
  0
LINE
  5
649F
  8
DANMEN
  6
CONTINUOUS
 10
440.14879068434618
 20
334.22373877579901
 30
0.0
 11
440.14879068434618
 21
302.22373877579901
 31
0.0
  0
LINE
  5
64A0
  8
DANMEN
  6
CONTINUOUS
 10
446.1487906843463
 20
334.22373877579901
 30
0.0
 11
446.1487906843463
 21
302.22373877579901
 31
0.0
  0
LINE
  5
64A1
  8
DANMEN
  6
CONTINUOUS
 10
440.64879068434612
 20
334.22373877579901
 30
0.0
 11
440.64879068434612
 21
302.22373877579901
 31
0.0
  0
LINE
  5
64A2
  8
DANMEN
  6
CONTINUOUS
 10
445.64879068434612
 20
334.22373877579901
 30
0.0
 11
445.64879068434612
 21
302.22373877579901
 31
0.0
  0
LINE
  5
64A3
  8
DANMEN
  6
CONTINUOUS
 10
453.64879068434612
 20
317.72373877579901
 30
0.0
 11
453.64879068434612
 21
302.22373877579901
 31
0.0
  0
LINE
  5
64A4
  8
DANMEN
  6
CONTINUOUS
 10
451.1487906843463
 20
317.72373877579901
 30
0.0
 11
451.1487906843463
 21
302.22373877579901
 31
0.0
  0
ARC
  5
64A5
  8
SUNPO
  6
BYBLOCK
 10
415.94879068434619
 20
277.22373877579878
 30
0.0
 40
0.1450000000000102
 50
0.0
 51
180.0
  0
ARC
  5
64A6
  8
SUNPO
  6
BYBLOCK
 10
415.94879068434619
 20
277.22373877579878
 30
0.0
 40
0.1450000000000102
 50
180.0
 51
0.0
  0
TEXT
  5
64A7
  8
SUNPO
  6
CONTINUOUS
 10
425.88629068434648
 20
287.72373877579878
 30
0.0
 40
2.5
  1
80
 41
1.1000000000000001
  7
MX_DIMTXSTY_5
  0
TEXT
  5
64A8
  8
SUNPO
  6
CONTINUOUS
 10
443.57379068434631
 20
277.72373877579878
 30
0.0
 40
2.5
  1
11
 41
1.5
  7
MX_DIMTXSTY_6
  0
LINE
  5
64A9
  8
SUNPO
  6
CONTINUOUS
 10
439.94879068434608
 20
277.22373877579878
 30
0.0
 11
450.94879068434631
 21
277.22373877579878
 31
0.0
  0
ARC
  5
64AA
  8
SUNPO
  6
BYBLOCK
 10
439.94879068434608
 20
277.22373877579878
 30
0.0
 40
0.1450000000000102
 50
180.0
 51
0.0
  0
ARC
  5
64AB
  8
SUNPO
  6
BYBLOCK
 10
439.94879068434608
 20
277.22373877579878
 30
0.0
 40
0.1450000000000102
 50
0.0
 51
180.0
  0
ARC
  5
64AC
  8
SUNPO
  6
BYBLOCK
 10
450.94879068434631
 20
277.22373877579878
 30
0.0
 40
0.1450000000000102
 50
0.0
 51
180.0
  0
ARC
  5
64AD
  8
SUNPO
  6
BYBLOCK
 10
450.94879068434631
 20
277.22373877579878
 30
0.0
 40
0.1450000000000102
 50
180.0
 51
0.0
  0
ARC
  5
64AE
  8
SUNPO
  6
BYBLOCK
 10
450.94879068434631
 20
277.22373877579878
 30
0.0
 40
0.1450000000000102
 50
180.0
 51
0.0
  0
ARC
  5
64AF
  8
SUNPO
  6
BYBLOCK
 10
450.94879068434631
 20
277.22373877579878
 30
0.0
 40
0.1450000000000102
 50
0.0
 51
180.0
  0
TEXT
  5
64B0
  8
SUNPO
  6
CONTINUOUS
 10
457.44879068434608
 20
277.72373877579878
 30
0.0
 40
2.5
  1
17
 41
1.1999999999999991
  7
MX_DIMTXSTY_3
  0
LINE
  5
64B1
  8
DANMEN
  6
CONTINUOUS
 10
440.14879068434618
 20
328.22373877579901
 30
0.0
 11
428.14879068434612
 21
334.22373877579901
 31
0.0
  0
LINE
  5
64B2
  8
DANMEN
  6
CONTINUOUS
 10
428.14879068434612
 20
328.22373877579901
 30
0.0
 11
440.14879068434618
 21
334.22373877579901
 31
0.0
  0
LINE
  5
64B3
  8
DANMEN
  6
CONTINUOUS
 10
428.14879068434612
 20
328.22373877579901
 30
0.0
 11
440.14879068434618
 21
328.22373877579901
 31
0.0
  0
LINE
  5
64B4
  8
DANMEN
  6
CONTINUOUS
 10
420.14879068434601
 20
334.22373877579901
 30
0.0
 11
446.1487906843463
 21
334.22373877579901
 31
0.0
  0
LINE
  5
64B5
  8
DANMEN
  6
CONTINUOUS
 10
416.83508218536127
 20
322.22373877579889
 30
0.0
 11
420.14879068434601
 21
318.9100302768141
 31
0.0
  0
LINE
  5
64B6
  8
DANMEN
  6
CONTINUOUS
 10
418.3498008111228
 20
322.22373877579889
 30
0.0
 11
415.14879068434612
 21
319.02272864902233
 31
0.0
  0
LINE
  5
64B7
  8
DANMEN
  6
CONTINUOUS
 10
419.76401437349568
 20
322.22373877579889
 30
0.0
 11
415.14879068434612
 21
317.60851508664911
 31
0.0
  0
LINE
  5
64B8
  8
DANMEN
  6
CONTINUOUS
 10
420.14879068434601
 20
321.19430152427623
 30
0.0
 11
415.94292989717309
 21
316.98844073710302
 31
0.0
  0
LINE
  5
64B9
  8
DANMEN
  6
CONTINUOUS
 10
415.14879068434612
 20
319.66738958969478
 30
0.0
 11
418.24658612355239
 21
316.5695941504888
 31
0.0
  0
LINE
  5
64BA
  8
DANMEN
  6
CONTINUOUS
 10
415.14879068434612
 20
321.081603152068
 30
0.0
 11
419.9750693664526
 21
316.25532446996129
 31
0.0
  0
LINE
  5
64BB
  8
DANMEN
  6
CONTINUOUS
 10
415.42086862298828
 20
322.22373877579889
 30
0.0
 11
420.14879068434601
 21
317.49581671444088
 31
0.0
  0
LINE
  5
64BC
  8
DANMEN
  6
CONTINUOUS
 10
414.64879068434618
 20
317.22373877579878
 30
0.0
 11
420.14879068434601
 21
316.22373877579901
 31
0.0
  0
LINE
  5
64BD
  8
DANMEN
  6
CONTINUOUS
 10
415.52137368637659
 20
322.22373877579889
 30
0.0
 11
415.14879068434612
 21
321.85115577376843
 31
0.0
  0
LINE
  5
64BE
  8
DANMEN
  6
CONTINUOUS
 10
414.89879068434601
 20
322.22373877579889
 30
0.0
 11
415.14879068434612
 21
322.22373877579889
 31
0.0
  0
LINE
  5
64BF
  8
DANMEN
  6
CONTINUOUS
 10
415.14879068434612
 20
322.22373877579889
 30
0.0
 11
415.14879068434612
 21
317.72373877579901
 31
0.0
  0
ARC
  5
64C0
  8
DANMEN
  6
CONTINUOUS
 10
413.44879068434602
 20
317.72373877579901
 30
0.0
 40
0.5
 50
180.0
 51
270.0
  0
ARC
  5
64C1
  8
DANMEN
  6
CONTINUOUS
 10
414.64879068434618
 20
317.72373877579901
 30
0.0
 40
0.5
 50
270.0
 51
0.0
  0
LINE
  5
64C2
  8
DANMEN
  6
CONTINUOUS
 10
413.44879068434602
 20
317.22373877579878
 30
0.0
 11
414.64879068434618
 21
317.22373877579878
 31
0.0
  0
LINE
  5
64C3
  8
DANMEN
  6
CONTINUOUS
 10
416.93558724874958
 20
322.22373877579889
 30
0.0
 11
415.14879068434612
 21
320.43694221139532
 31
0.0
  0
LINE
  5
64C4
  8
DANMEN
  6
CONTINUOUS
 10
415.14879068434612
 20
318.25317602732167
 30
0.0
 11
416.51810288065172
 21
316.88386383101619
 31
0.0
  0
LINE
  5
64C5
  8
DANMEN
  6
CONTINUOUS
 10
420.14879068434601
 20
319.78008796190312
 30
0.0
 11
417.1395721422582
 21
316.77086941981503
 31
0.0
  0
LINE
  5
64C6
  8
DANMEN
  6
CONTINUOUS
 10
420.14879068434601
 20
316.95166083715679
 30
0.0
 11
419.53285663242769
 21
316.33572678523871
 31
0.0
  0
LINE
  5
64C7
  8
DANMEN
  6
CONTINUOUS
 10
420.14879068434601
 20
318.36587439953001
 30
0.0
 11
418.33621438734292
 21
316.55329810252681
 31
0.0
  0
LINE
  5
64C8
  8
DANMEN
  6
CONTINUOUS
 10
418.24929574773449
 20
322.22373877579889
 30
0.0
 11
420.14879068434601
 21
320.3242438391872
 31
0.0
  0
LINE
  5
64C9
  8
DANMEN
  6
CONTINUOUS
 10
419.66350931010737
 20
322.22373877579889
 30
0.0
 11
420.14879068434601
 21
321.73845740156031
 31
0.0
  0
TEXT
  5
64CA
  8
SUNPO
  6
CONTINUOUS
 10
432.43226350844282
 20
307.72373877579889
 30
0.0
 40
2.5
  1
70
 41
1.1000000000000001
  7
MX_DIMTXSTY_5
  0
LINE
  5
64CB
  8
DANMEN
  6
CONTINUOUS
 10
453.64879068434612
 20
317.72373877579901
 30
0.0
 11
453.64879068434601
 21
337.22373877579901
 31
0.0
  0
LINE
  5
64CC
  8
DANMEN
  6
CONTINUOUS
 10
451.69879087508099
 20
322.22373877579889
 30
0.0
 11
451.69879087508087
 21
334.92373591477588
 31
0.0
  0
ARC
  5
64CD
  8
DANMEN
  6
CONTINUOUS
 10
453.14879068434612
 20
317.72373877579901
 30
0.0
 40
0.5
 50
270.0
 51
0.0
  0
LINE
  5
64CE
  8
DANMEN
  6
CONTINUOUS
 10
451.1487906843463
 20
321.081603152068
 30
0.0
 11
446.32251200223948
 21
316.25532446996129
 31
0.0
  0
LINE
  5
64CF
  8
DANMEN
  6
CONTINUOUS
 10
446.1487906843463
 20
316.95166083715679
 30
0.0
 11
446.7647247362645
 21
316.33572678523871
 31
0.0
  0
LINE
  5
64D0
  8
DANMEN
  6
CONTINUOUS
 10
446.1487906843463
 20
316.22373877579901
 30
0.0
 11
451.6487906843463
 21
317.22373877579878
 31
0.0
  0
LINE
  5
64D1
  8
DANMEN
  6
CONTINUOUS
 10
450.87671274570403
 20
322.22373877579889
 30
0.0
 11
446.1487906843463
 21
317.4958167144411
 31
0.0
  0
LINE
  5
64D2
  8
DANMEN
  6
CONTINUOUS
 10
451.1487906843463
 20
319.66738958969478
 30
0.0
 11
448.05099524513997
 21
316.56959415048863
 31
0.0
  0
LINE
  5
64D3
  8
DANMEN
  6
CONTINUOUS
 10
451.1487906843463
 20
318.25317602732167
 30
0.0
 11
449.77947848804041
 21
316.88386383101619
 31
0.0
  0
LINE
  5
64D4
  8
DANMEN
  6
CONTINUOUS
 10
446.53356699519628
 20
322.22373877579889
 30
0.0
 11
451.1487906843463
 21
317.60851508664911
 31
0.0
  0
LINE
  5
64D5
  8
DANMEN
  6
CONTINUOUS
 10
447.94778055756962
 20
322.22373877579889
 30
0.0
 11
451.1487906843463
 21
319.02272864902233
 31
0.0
  0
LINE
  5
64D6
  8
DANMEN
  6
CONTINUOUS
 10
449.36199411994232
 20
322.22373877579889
 30
0.0
 11
451.1487906843463
 21
320.43694221139532
 31
0.0
  0
LINE
  5
64D7
  8
DANMEN
  6
CONTINUOUS
 10
450.7762076823156
 20
322.22373877579889
 30
0.0
 11
451.1487906843463
 21
321.85115577376843
 31
0.0
  0
LINE
  5
64D8
  8
DANMEN
  6
CONTINUOUS
 10
446.63407205858448
 20
322.22373877579889
 30
0.0
 11
446.1487906843463
 21
321.73845740156031
 31
0.0
  0
LINE
  5
64D9
  8
DANMEN
  6
CONTINUOUS
 10
448.0482856209577
 20
322.22373877579889
 30
0.0
 11
446.1487906843463
 21
320.32424383918732
 31
0.0
  0
LINE
  5
64DA
  8
DANMEN
  6
CONTINUOUS
 10
449.46249918333081
 20
322.22373877579889
 30
0.0
 11
446.1487906843463
 21
318.91003027681433
 31
0.0
  0
LINE
  5
64DB
  8
DANMEN
  6
CONTINUOUS
 10
446.1487906843463
 20
318.3658743995299
 30
0.0
 11
447.96136698134927
 21
316.55329810252681
 31
0.0
  0
LINE
  5
64DC
  8
DANMEN
  6
CONTINUOUS
 10
446.1487906843463
 20
319.78008796190301
 30
0.0
 11
449.15800922643399
 21
316.77086941981503
 31
0.0
  0
LINE
  5
64DD
  8
DANMEN
  6
CONTINUOUS
 10
446.1487906843463
 20
321.194301524276
 30
0.0
 11
450.35465147151911
 21
316.98844073710302
 31
0.0
  0
ARC
  5
64DE
  8
DANMEN
  6
CONTINUOUS
 10
451.6487906843463
 20
317.72373877579901
 30
0.0
 40
0.5
 50
180.0
 51
270.0
  0
LINE
  5
64DF
  8
DANMEN
  6
CONTINUOUS
 10
451.1487906843463
 20
317.72373877579901
 30
0.0
 11
451.1487906843463
 21
322.22373877579889
 31
0.0
  0
LINE
  5
64E0
  8
DANMEN
  6
CONTINUOUS
 10
451.69879087508099
 20
322.22373877579889
 30
0.0
 11
451.1487906843463
 21
322.22373877579889
 31
0.0
  0
LINE
  5
64E1
  8
DANMEN
  6
CONTINUOUS
 10
453.14879068434612
 20
317.22373877579878
 30
0.0
 11
451.6487906843463
 21
317.22373877579878
 31
0.0
  0
LINE
  5
64E2
  8
DANMEN
  6
CONTINUOUS
 10
451.95780767872111
 20
337.22373877579901
 30
0.0
 11
453.64879068434601
 21
337.22373877579901
 31
0.0
  0
LINE
  5
64E3
  8
DANMEN
  6
CONTINUOUS
 10
453.64879068434601
 20
337.22373877579901
 30
0.0
 11
452.1487906843463
 21
337.22373877579901
 31
0.0
  0
LINE
  5
64E4
  8
DANMEN
  6
CONTINUOUS
 10
451.5487906843461
 20
339.4894213397252
 30
0.0
 11
451.5487906843461
 21
339.5131422030704
 31
0.0
  0
ARC
  5
64E5
  8
DANMEN
  6
CONTINUOUS
 10
451.44879068434608
 20
338.92373877579888
 30
0.0
 40
0.3
 50
90.0
 51
180.0
  0
ARC
  5
64E6
  8
DANMEN
  6
CONTINUOUS
 10
451.44879068434608
 20
338.92373591477599
 30
0.0
 40
0.3
 50
109.47122063449279
 51
180.0
  0
LINE
  5
64E7
  8
DANMEN
  6
CONTINUOUS
 10
451.19879087508087
 20
335.42373591477588
 30
0.0
 11
450.44879068434608
 21
335.42373591477588
 31
0.0
  0
ARC
  5
64E8
  8
DANMEN
  6
CONTINUOUS
 10
450.44879068434608
 20
335.92373591477588
 30
0.0
 40
0.5
 50
180.0
 51
270.0
  0
ARC
  5
64E9
  8
DANMEN
  6
CONTINUOUS
 10
451.95780767872111
 20
337.72373877579878
 30
0.0
 40
0.5
 50
206.56505117708221
 51
270.0
  0
LINE
  5
64EA
  8
DANMEN
  6
CONTINUOUS
 10
451.1487906843463
 20
338.22373877579901
 30
0.0
 11
451.51059408322118
 21
337.50013197804901
 31
0.0
  0
LINE
  5
64EB
  8
DANMEN
  6
CONTINUOUS
 10
451.1487906843463
 20
338.92373877579888
 30
0.0
 11
451.1487906843463
 21
338.22373877579901
 31
0.0
  0
LINE
  5
64EC
  8
DANMEN
  6
CONTINUOUS
 10
452.1487906843463
 20
336.92373591477599
 30
0.0
 11
452.1487906843463
 21
337.22373877579901
 31
0.0
  0
LINE
  5
64ED
  8
DANMEN
  6
CONTINUOUS
 10
452.1487906843463
 20
336.92373591477599
 30
0.0
 11
451.1487906843463
 21
336.92373591477599
 31
0.0
  0
ARC
  5
64EE
  8
DANMEN
  6
CONTINUOUS
 10
451.19879087508087
 20
334.92373591477588
 30
0.0
 40
0.5
 50
0.0
 51
90.0
  0
LINE
  5
64EF
  8
DANMEN
  6
CONTINUOUS
 10
451.1487906843463
 20
336.92373591477599
 30
0.0
 11
451.1487906843463
 21
338.92373591477599
 31
0.0
  0
LINE
  5
64F0
  8
DANMEN
  6
CONTINUOUS
 10
446.9487907081878
 20
339.22373877579901
 30
0.0
 11
447.33888875682879
 21
339.22373877579901
 31
0.0
  0
LINE
  5
64F1
  8
DANMEN
  6
CONTINUOUS
 10
451.69879070818803
 20
339.22373877579901
 30
0.0
 11
451.44879068434608
 21
339.22373877579901
 31
0.0
  0
ARC
  5
64F2
  8
DANMEN
  6
CONTINUOUS
 10
451.24879068434632
 20
339.4894213397252
 30
0.0
 40
0.3
 50
289.47122063449279
 51
0.0
  0
LINE
  5
64F3
  8
SUNPO
  6
CONTINUOUS
 10
477.94879068434608
 20
267.22373877579878
 30
0.0
 11
477.94879068434608
 21
278.22191229874801
 31
0.0
  0
TEXT
  5
64F4
  8
SUNPO
  6
CONTINUOUS
 10
477.44879068434602
 20
271.22191229874801
 30
0.0
 40
2.5
  1
5.2
 50
90.0
 41
1.3
  7
MX_DIMTXSTY_2
  0
LINE
  5
64F5
  8
SUNPO
  6
CONTINUOUS
 10
467.94879068434602
 20
268.72373877579901
 30
0.0
 11
467.94879068434602
 21
287.22373877579901
 31
0.0
  0
TEXT
  5
64F6
  8
SUNPO
  6
CONTINUOUS
 10
477.44879068434602
 20
234.7737387757989
 30
0.0
 40
2.5
  1
45.5
 50
90.0
 41
1.1999999999999991
  7
MX_DIMTXSTY_3
  0
LINE
  5
64F7
  8
SUNPO
  6
CONTINUOUS
 10
477.94879068434608
 20
262.0237387757989
 30
0.0
 11
477.94879068434608
 21
216.5237387757989
 31
0.0
  0
LINE
  5
64F8
  8
DANMEN
  6
CONTINUOUS
 10
482.94879068434608
 20
219.02373877579879
 30
0.0
 11
468.0396997752552
 21
219.02373877579879
 31
0.0
  0
LINE
  5
64F9
  8
DANMEN
  6
CONTINUOUS
 10
467.94879068434602
 20
217.0237387757989
 30
0.0
 11
467.94879068434602
 21
218.5237387757989
 31
0.0
  0
ARC
  5
64FA
  8
SUNPO
  6
BYBLOCK
 10
477.94879068434608
 20
216.5237387757989
 30
0.0
 40
0.145
 50
90.0
 51
270.0
  0
ARC
  5
64FB
  8
SUNPO
  6
BYBLOCK
 10
477.94879068434608
 20
216.5237387757989
 30
0.0
 40
0.145
 50
270.0
 51
90.0
  0
LINE
  5
64FC
  8
DANMEN
  6
CONTINUOUS
 10
468.22086862298818
 20
224.0237387757989
 30
0.0
 11
468.83680267490649
 21
223.40780472388059
 31
0.0
  0
LINE
  5
64FD
  8
DANMEN
  6
CONTINUOUS
 10
468.94879068434608
 20
224.0237387757989
 30
0.0
 11
467.94879068434602
 21
218.5237387757989
 31
0.0
  0
LINE
  5
64FE
  8
DANMEN
  6
CONTINUOUS
 10
467.94879068434602
 20
261.5237387757989
 30
0.0
 11
467.94879068434602
 21
255.5237387757989
 31
0.0
  0
LINE
  5
64FF
  8
DANMEN
  6
CONTINUOUS
 10
467.94879217900473
 20
257.22373877579912
 30
0.0
 11
482.94879068434608
 21
257.22373877579912
 31
0.0
  0
LINE
  5
6500
  8
DANMEN
  6
CONTINUOUS
 10
482.94879068434608
 20
255.02373869264451
 30
0.0
 11
468.03969978330878
 21
255.02373873150501
 31
0.0
  0
LINE
  5
6501
  8
DANMEN
  6
CONTINUOUS
 10
467.94879068434602
 20
255.5237387757989
 30
0.0
 11
468.94879068434608
 21
250.02373877579871
 31
0.0
  0
LINE
  5
6502
  8
DANMEN
  6
CONTINUOUS
 10
468.22086862298818
 20
250.02373877579871
 30
0.0
 11
468.83680267490649
 21
250.63967282771711
 31
0.0
  0
LINE
  5
6503
  8
SUNPO
  6
CONTINUOUS
 10
477.94879068434608
 20
262.0237387757989
 30
0.0
 11
477.94879068434608
 21
267.22373877579878
 31
0.0
  0
LINE
  5
6504
  8
SUNPO
  6
CONTINUOUS
 10
468.94879068434608
 20
262.0237387757989
 30
0.0
 11
477.94879068434608
 21
262.0237387757989
 31
0.0
  0
LINE
  5
6505
  8
SUNPO
  6
CONTINUOUS
 10
468.94879068434602
 20
262.0237387757989
 30
0.0
 11
477.94879068434608
 21
262.0237387757989
 31
0.0
  0
ARC
  5
6506
  8
SUNPO
  6
BYBLOCK
 10
477.94879068434608
 20
262.0237387757989
 30
0.0
 40
0.1450000000000031
 50
90.0
 51
270.0
  0
ARC
  5
6507
  8
SUNPO
  6
BYBLOCK
 10
477.94879068434608
 20
262.0237387757989
 30
0.0
 40
0.1450000000000031
 50
270.0
 51
90.0
  0
ARC
  5
6508
  8
SUNPO
  6
BYBLOCK
 10
477.94879068434608
 20
262.0237387757989
 30
0.0
 40
0.1450000000000031
 50
90.0
 51
270.0
  0
ARC
  5
6509
  8
SUNPO
  6
BYBLOCK
 10
477.94879068434608
 20
262.0237387757989
 30
0.0
 40
0.1450000000000031
 50
270.0
 51
90.0
  0
LINE
  5
650A
  8
SUNPO
  6
CONTINUOUS
 10
477.94879068434608
 20
262.0237387757989
 30
0.0
 11
477.94879068434608
 21
262.0237387757989
 31
0.0
  0
ARC
  5
650B
  8
SUNPO
  6
BYBLOCK
 10
477.94879068434608
 20
267.22373877579878
 30
0.0
 40
0.1450000000000031
 50
270.0
 51
90.0
  0
ARC
  5
650C
  8
SUNPO
  6
BYBLOCK
 10
477.94879068434608
 20
267.22373877579878
 30
0.0
 40
0.1450000000000031
 50
90.0
 51
270.0
  0
LINE
  5
650D
  8
DANMEN
  6
CONTINUOUS
 10
477.94879068434608
 20
267.22373877579878
 30
0.0
 11
477.94879068434608
 21
267.22373877579878
 31
0.0
  0
ARC
  5
650E
  8
SUNPO
  6
BYBLOCK
 10
467.94879068434602
 20
277.22373877579878
 30
0.0
 40
0.1450000000000102
 50
0.0
 51
180.0
  0
ARC
  5
650F
  8
SUNPO
  6
BYBLOCK
 10
467.94879068434602
 20
277.22373877579878
 30
0.0
 40
0.1450000000000102
 50
180.0
 51
0.0
  0
ARC
  5
6510
  8
SUNPO
  6
BYBLOCK
 10
467.94879068434602
 20
287.22373877579901
 30
0.0
 40
0.1450000000000102
 50
0.0
 51
180.0
  0
ARC
  5
6511
  8
SUNPO
  6
BYBLOCK
 10
467.94879068434602
 20
287.22373877579901
 30
0.0
 40
0.1450000000000102
 50
180.0
 51
0.0
  0
LINE
  5
6512
  8
SUNPO
  6
CONTINUOUS
 10
482.94879068434608
 20
337.22373877579901
 30
0.0
 11
482.94879068434608
 21
317.22373877579878
 31
0.0
  0
LINE
  5
6513
  8
SUNPO
  6
CONTINUOUS
 10
474.44879068434608
 20
317.22373877579878
 30
0.0
 11
482.94879068434608
 21
317.22373877579878
 31
0.0
  0
ARC
  5
6514
  8
SUNPO
  6
BYBLOCK
 10
472.94879068434602
 20
307.22373877579901
 30
0.0
 40
0.1450000000000102
 50
0.0
 51
180.0
  0
ARC
  5
6515
  8
SUNPO
  6
BYBLOCK
 10
472.94879068434602
 20
307.22373877579901
 30
0.0
 40
0.1450000000000102
 50
180.0
 51
0.0
  0
ARC
  5
6516
  8
SUNPO
  6
BYBLOCK
 10
482.94879068434608
 20
317.22373877579878
 30
0.0
 40
0.144999999999996
 50
270.0
 51
90.0
  0
ARC
  5
6517
  8
SUNPO
  6
BYBLOCK
 10
482.94879068434608
 20
317.22373877579878
 30
0.0
 40
0.144999999999996
 50
90.0
 51
270.0
  0
LINE
  5
6518
  8
SUNPO
  6
CONTINUOUS
 10
474.44879068434608
 20
337.22373877579901
 30
0.0
 11
482.94879068434608
 21
337.22373877579901
 31
0.0
  0
LINE
  5
6519
  8
SUNPO
  6
CONTINUOUS
 10
474.44879068434608
 20
337.22373877579901
 30
0.0
 11
482.94879068434608
 21
337.22373877579901
 31
0.0
  0
TEXT
  5
651A
  8
SUNPO
  6
CONTINUOUS
 10
482.44879068434608
 20
325.16123877579901
 30
0.0
 40
2.5
  1
20
 50
90.0
 41
1.1000000000000001
  7
MX_DIMTXSTY_5
  0
ARC
  5
651B
  8
SUNPO
  6
BYBLOCK
 10
482.94879068434608
 20
337.22373877579901
 30
0.0
 40
0.144999999999996
 50
270.0
 51
90.0
  0
ARC
  5
651C
  8
SUNPO
  6
BYBLOCK
 10
482.94879068434608
 20
337.22373877579901
 30
0.0
 40
0.144999999999996
 50
90.0
 51
270.0
  0
ARC
  5
651D
  8
SUNPO
  6
BYBLOCK
 10
482.94879068434608
 20
337.22373877579901
 30
0.0
 40
0.144999999999996
 50
90.0
 51
270.0
  0
ARC
  5
651E
  8
SUNPO
  6
BYBLOCK
 10
482.94879068434608
 20
337.22373877579901
 30
0.0
 40
0.144999999999996
 50
270.0
 51
90.0
  0
LINE
  5
651F
  8
SUNPO
  6
CONTINUOUS
 10
453.64879068434601
 20
387.22373877579901
 30
0.0
 11
472.94879068434602
 21
387.22373877579901
 31
0.0
  0
LINE
  5
6520
  8
SUNPO
  6
CONTINUOUS
 10
410.94879068434602
 20
387.22373877579901
 30
0.0
 11
402.94879068434608
 21
387.22373877579901
 31
0.0
  0
LINE
  5
6521
  8
SUNPO
  6
CONTINUOUS
 10
392.94879068434602
 20
360.22373877579901
 30
0.0
 11
392.94879068434602
 21
377.22373877579901
 31
0.0
  0
TEXT
  5
6522
  8
SUNPO
  6
CONTINUOUS
 10
382.44879068434602
 20
345.16123877579901
 30
0.0
 40
2.5
  1
60
 50
90.0
 41
1.1000000000000001
  7
MX_DIMTXSTY_5
  0
LINE
  5
6523
  8
SUNPO
  6
CONTINUOUS
 10
392.94879068434602
 20
353.22373877579901
 30
0.0
 11
392.94879068434602
 21
360.22373877579901
 31
0.0
  0
LINE
  5
6524
  8
SUNPO
  6
CONTINUOUS
 10
401.44879068434602
 20
353.22373877579901
 30
0.0
 11
392.94879068434602
 21
353.22373877579901
 31
0.0
  0
LINE
  5
6525
  8
SUNPO
  6
CONTINUOUS
 10
401.44879068434602
 20
340.22373877579878
 30
0.0
 11
392.94879068434602
 21
340.22373877579878
 31
0.0
  0
ARC
  5
6526
  8
SUNPO
  6
BYBLOCK
 10
392.94879068434602
 20
340.22373877579878
 30
0.0
 40
0.144999999999996
 50
90.0
 51
270.0
  0
ARC
  5
6527
  8
SUNPO
  6
BYBLOCK
 10
392.94879068434602
 20
340.22373877579878
 30
0.0
 40
0.144999999999996
 50
270.0
 51
90.0
  0
ARC
  5
6528
  8
SUNPO
  6
BYBLOCK
 10
392.94879068434602
 20
353.22373877579901
 30
0.0
 40
0.1450000000000102
 50
270.0
 51
90.0
  0
ARC
  5
6529
  8
SUNPO
  6
BYBLOCK
 10
392.94879068434602
 20
353.22373877579901
 30
0.0
 40
0.1450000000000102
 50
90.0
 51
270.0
  0
LINE
  5
652A
  8
SUNPO
  6
CONTINUOUS
 10
401.44879068434602
 20
360.22373877579901
 30
0.0
 11
392.94879068434602
 21
360.22373877579901
 31
0.0
  0
ARC
  5
652B
  8
SUNPO
  6
BYBLOCK
 10
392.94879068434602
 20
360.22373877579901
 30
0.0
 40
0.1450000000000102
 50
90.0
 51
270.0
  0
ARC
  5
652C
  8
SUNPO
  6
BYBLOCK
 10
392.94879068434602
 20
360.22373877579901
 30
0.0
 40
0.1450000000000102
 50
270.0
 51
90.0
  0
ARC
  5
652D
  8
SUNPO
  6
BYBLOCK
 10
392.94879068434602
 20
360.22373877579901
 30
0.0
 40
0.1450000000000102
 50
270.0
 51
90.0
  0
ARC
  5
652E
  8
SUNPO
  6
BYBLOCK
 10
392.94879068434602
 20
360.22373877579901
 30
0.0
 40
0.1450000000000102
 50
90.0
 51
270.0
  0
TEXT
  5
652F
  8
SUNPO
  6
CONTINUOUS
 10
392.44879068434602
 20
355.89040544246558
 30
0.0
 40
2.5
  1
7
 50
90.0
  7
MX_NOTE_STANDARD
  0
TEXT
  5
6530
  8
SUNPO
  6
CONTINUOUS
 10
392.44879068434602
 20
366.72373877579901
 30
0.0
 40
2.5
  1
17
 50
90.0
 41
1.1999999999999991
  7
MX_DIMTXSTY_3
  0
TEXT
  5
6531
  8
SUNPO
  6
CONTINUOUS
 10
406.11545735101248
 20
387.72373877579878
 30
0.0
 40
2.5
  1
8
  7
MX_NOTE_STANDARD
  0
LINE
  5
6532
  8
SUNPO
  6
CONTINUOUS
 10
401.44879068434602
 20
377.22373877579901
 30
0.0
 11
382.94879068434608
 21
377.22373877579901
 31
0.0
  0
ARC
  5
6533
  8
SUNPO
  6
BYBLOCK
 10
382.94879068434608
 20
377.22373877579901
 30
0.0
 40
0.1450000000000102
 50
90.0
 51
270.0
  0
ARC
  5
6534
  8
SUNPO
  6
BYBLOCK
 10
382.94879068434608
 20
377.22373877579901
 30
0.0
 40
0.1450000000000102
 50
270.0
 51
90.0
  0
ARC
  5
6535
  8
SUNPO
  6
BYBLOCK
 10
392.94879068434602
 20
377.22373877579901
 30
0.0
 40
0.1450000000000102
 50
90.0
 51
270.0
  0
ARC
  5
6536
  8
SUNPO
  6
BYBLOCK
 10
392.94879068434602
 20
377.22373877579901
 30
0.0
 40
0.1450000000000102
 50
270.0
 51
90.0
  0
ARC
  5
6537
  8
SUNPO
  6
BYBLOCK
 10
402.94879068434608
 20
387.22373877579901
 30
0.0
 40
0.144999999999996
 50
180.0
 51
0.0
  0
ARC
  5
6538
  8
SUNPO
  6
BYBLOCK
 10
402.94879068434608
 20
387.22373877579901
 30
0.0
 40
0.144999999999996
 50
0.0
 51
180.0
  0
LINE
  5
6539
  8
DANMEN
  6
CONTINUOUS
 10
451.69879070818803
 20
353.22373877579901
 30
0.0
 11
451.69879070818803
 21
372.22373877579889
 31
0.0
  0
LINE
  5
653A
  8
DANMEN
  6
CONTINUOUS
 10
414.89879068434601
 20
353.22373877579901
 30
0.0
 11
414.89879068434601
 21
372.22373877579889
 31
0.0
  0
LINE
  5
653B
  8
DANMEN
  6
CONTINUOUS
 10
427.64879068434618
 20
360.22373877579901
 30
0.0
 11
427.64879068434618
 21
392.22373877579878
 31
0.0
  0
LINE
  5
653C
  8
DANMEN
  6
CONTINUOUS
 10
420.64879068434601
 20
360.22373877579901
 30
0.0
 11
420.64879068434601
 21
392.22373877579878
 31
0.0
  0
LINE
  5
653D
  8
DANMEN
  6
CONTINUOUS
 10
428.14879068434612
 20
360.22373877579901
 30
0.0
 11
428.14879068434612
 21
392.22373877579878
 31
0.0
  0
LINE
  5
653E
  8
DANMEN
  6
CONTINUOUS
 10
420.14879068434601
 20
360.22373877579901
 30
0.0
 11
420.14879068434601
 21
392.22373877579878
 31
0.0
  0
LINE
  5
653F
  8
DANMEN
  6
CONTINUOUS
 10
445.64879068434612
 20
360.22373877579901
 30
0.0
 11
445.64879068434612
 21
392.22373877579878
 31
0.0
  0
LINE
  5
6540
  8
DANMEN
  6
CONTINUOUS
 10
440.64879068434612
 20
360.22373877579901
 30
0.0
 11
440.64879068434612
 21
392.22373877579878
 31
0.0
  0
LINE
  5
6541
  8
DANMEN
  6
CONTINUOUS
 10
446.1487906843463
 20
360.22373877579901
 30
0.0
 11
446.1487906843463
 21
392.22373877579878
 31
0.0
  0
LINE
  5
6542
  8
DANMEN
  6
CONTINUOUS
 10
440.14879068434618
 20
360.22373877579901
 30
0.0
 11
440.14879068434618
 21
392.22373877579878
 31
0.0
  0
LINE
  5
6543
  8
DANMEN
  6
CONTINUOUS
 10
443.1487906843463
 20
360.22373877579901
 30
0.0
 11
443.1487906843463
 21
392.22373877579878
 31
0.0
  0
LINE
  5
6544
  8
DANMEN
  6
CONTINUOUS
 10
443.6487906843463
 20
360.22373877579901
 30
0.0
 11
443.6487906843463
 21
392.22373877579878
 31
0.0
  0
LINE
  5
6545
  8
DANMEN
  6
CONTINUOUS
 10
442.6487906843463
 20
360.22373877579901
 30
0.0
 11
442.6487906843463
 21
392.22373877579878
 31
0.0
  0
LINE
  5
6546
  8
DANMEN
  6
CONTINUOUS
 10
451.69879070818803
 20
351.27373877579902
 30
0.0
 11
437.59879068434611
 21
351.27373877579902
 31
0.0
  0
LINE
  5
6547
  8
DANMEN
  6
CONTINUOUS
 10
451.69879070818803
 20
353.22373877579901
 30
0.0
 11
414.89879068434601
 21
353.22373877579901
 31
0.0
  0
LINE
  5
6548
  8
DANMEN
  6
CONTINUOUS
 10
419.14879068434618
 20
353.22373877579901
 30
0.0
 11
447.1487906843463
 21
353.22373877579901
 31
0.0
  0
LINE
  5
6549
  8
DANMEN
  6
CONTINUOUS
 10
419.14879068434618
 20
360.22373877579901
 30
0.0
 11
447.1487906843463
 21
360.22373877579901
 31
0.0
  0
LINE
  5
654A
  8
DANMEN
  6
CONTINUOUS
 10
419.14879076213089
 20
353.22373893332218
 30
0.0
 11
447.1487912929129
 21
360.223738361296
 31
0.0
  0
LINE
  5
654B
  8
DANMEN
  6
CONTINUOUS
 10
420.14879068434601
 20
360.22373877579901
 30
0.0
 11
446.1487906843463
 21
360.22373877579901
 31
0.0
  0
LINE
  5
654C
  8
DANMEN
  6
CONTINUOUS
 10
428.14879068434612
 20
366.22373877579901
 30
0.0
 11
440.14879068434618
 21
366.22373877579901
 31
0.0
  0
LINE
  5
654D
  8
DANMEN
  6
CONTINUOUS
 10
428.14879068434612
 20
366.22373877579901
 30
0.0
 11
440.14879068434618
 21
360.22373877579901
 31
0.0
  0
LINE
  5
654E
  8
DANMEN
  6
CONTINUOUS
 10
440.14879068434618
 20
366.22373877579901
 30
0.0
 11
428.14879068434612
 21
360.22373877579901
 31
0.0
  0
LINE
  5
654F
  8
DANMEN
  6
CONTINUOUS
 10
446.9487907081878
 20
340.22373877579901
 30
0.0
 11
414.89879068434601
 21
340.22373877579901
 31
0.0
  0
LINE
  5
6550
  8
DANMEN
  6
CONTINUOUS
 10
446.19879070818791
 20
342.17373877579888
 30
0.0
 11
414.89878458083029
 21
342.17373877579888
 31
0.0
  0
LINE
  5
6551
  8
DANMEN
  6
CONTINUOUS
 10
419.14879068434618
 20
360.22373877579901
 30
0.0
 11
419.14879068434618
 21
353.22373877579901
 31
0.0
  0
LINE
  5
6552
  8
DANMEN
  6
CONTINUOUS
 10
428.99879068434632
 20
351.27373877579902
 30
0.0
 11
414.89879068434601
 21
351.27373877579902
 31
0.0
  0
LINE
  5
6553
  8
DANMEN
  6
CONTINUOUS
 10
414.89879068434601
 20
351.27373877579902
 30
0.0
 11
414.89879068434601
 21
342.17373877579888
 31
0.0
  0
ARC
  5
6554
  8
DANMEN
  6
CONTINUOUS
 10
434.59879068434589
 20
348.6934326214689
 30
0.0
 40
2.0
 50
308.29347728737707
 51
0.0
  0
ARC
  5
6555
  8
DANMEN
  6
CONTINUOUS
 10
431.99879068434632
 20
348.6934326214689
 30
0.0
 40
2.0
 50
180.0
 51
231.7065227126227
  0
LINE
  5
6556
  8
DANMEN
  6
CONTINUOUS
 10
434.39879068434612
 20
347.42373877579882
 30
0.0
 11
434.39879068434612
 21
347.68680676575241
 31
0.0
  0
LINE
  5
6557
  8
DANMEN
  6
CONTINUOUS
 10
432.19879068434608
 20
347.42373877579882
 30
0.0
 11
432.19879068434608
 21
347.68680676575241
 31
0.0
  0
LINE
  5
6558
  8
DANMEN
  6
CONTINUOUS
 10
430.75941132605448
 20
347.12373877579893
 30
0.0
 11
431.89879070818802
 21
347.12373877579893
 31
0.0
  0
LINE
  5
6559
  8
DANMEN
  6
CONTINUOUS
 10
434.69879068434608
 20
347.12373877579893
 30
0.0
 11
435.83817005760727
 21
347.12373877579893
 31
0.0
  0
ARC
  5
655A
  8
DANMEN
  6
CONTINUOUS
 10
434.69879068434608
 20
347.42373877579882
 30
0.0
 40
0.3
 50
180.0
 51
270.0
  0
ARC
  5
655B
  8
DANMEN
  6
CONTINUOUS
 10
431.8987906843463
 20
347.42373877579882
 30
0.0
 40
0.3
 50
270.0
 51
0.0
  0
ARC
  5
655C
  8
DANMEN
  6
CONTINUOUS
 10
432.49879068434632
 20
348.77767797721589
 30
0.0
 40
1.0
 50
180.0
 51
245.37568164783849
  0
ARC
  5
655D
  8
DANMEN
  6
CONTINUOUS
 10
432.49879068434632
 20
350.02373877579902
 30
0.0
 40
1.0
 50
90.0
 51
180.0
  0
LINE
  5
655E
  8
DANMEN
  6
CONTINUOUS
 10
431.49879068434609
 20
348.77767799908838
 30
0.0
 11
431.49879068434609
 21
350.02373878771988
 31
0.0
  0
LINE
  5
655F
  8
DANMEN
  6
CONTINUOUS
 10
429.99879068434632
 20
348.6934326214689
 30
0.0
 11
429.99879068434632
 21
350.27373877579902
 31
0.0
  0
ARC
  5
6560
  8
DANMEN
  6
CONTINUOUS
 10
428.99879068434632
 20
350.27373877579902
 30
0.0
 40
1.0
 50
0.0
 51
90.0
  0
ARC
  5
6561
  8
DANMEN
  6
CONTINUOUS
 10
437.59879068434611
 20
350.27373877579902
 30
0.0
 40
1.0
 50
90.0
 51
180.0
  0
ARC
  5
6562
  8
DANMEN
  6
CONTINUOUS
 10
434.098790684346
 20
348.77767797721589
 30
0.0
 40
1.0
 50
294.62431835216142
 51
0.0
  0
ARC
  5
6563
  8
DANMEN
  6
CONTINUOUS
 10
434.59879068434589
 20
347.68680676575241
 30
0.0
 40
0.2
 50
114.6243183521614
 51
180.0
  0
LINE
  5
6564
  8
DANMEN
  6
CONTINUOUS
 10
435.098790684346
 20
348.77767799908838
 30
0.0
 11
435.098790684346
 21
350.02373878771988
 31
0.0
  0
ARC
  5
6565
  8
DANMEN
  6
CONTINUOUS
 10
431.99879068434632
 20
347.68680676575241
 30
0.0
 40
0.2
 50
0.0
 51
65.375681647838562
  0
ARC
  5
6566
  8
DANMEN
  6
CONTINUOUS
 10
434.098790684346
 20
350.02373877579902
 30
0.0
 40
1.0
 50
0.0
 51
90.0
  0
LINE
  5
6567
  8
DANMEN
  6
CONTINUOUS
 10
432.49879067242517
 20
351.02373877579902
 30
0.0
 11
434.09879069626709
 21
351.02373877579902
 31
0.0
  0
LINE
  5
6568
  8
DANMEN
  6
CONTINUOUS
 10
436.598790684346
 20
348.6934326214689
 30
0.0
 11
436.598790684346
 21
350.27373877579902
 31
0.0
  0
LINE
  5
6569
  8
DANMEN
  6
CONTINUOUS
 10
447.1487906843463
 20
360.22373877579901
 30
0.0
 11
447.1487906843463
 21
353.22373877579901
 31
0.0
  0
LINE
  5
656A
  8
DANMEN
  6
CONTINUOUS
 10
451.69879070818803
 20
347.17373877579888
 30
0.0
 11
451.69879070818803
 21
351.27373877579902
 31
0.0
  0
ARC
  5
656B
  8
DANMEN
  6
CONTINUOUS
 10
447.19879070818803
 20
346.17373877579888
 30
0.0
 40
1.0
 50
90.0
 51
180.0
  0
LINE
  5
656C
  8
DANMEN
  6
CONTINUOUS
 10
448.14879070818807
 20
345.22373877579889
 30
0.0
 11
451.69879070818803
 21
345.22373877579889
 31
0.0
  0
LINE
  5
656D
  8
DANMEN
  6
CONTINUOUS
 10
451.45067347267297
 20
339.81061526814773
 30
0.0
 11
449.2470829167313
 21
342.78764149646429
 31
0.0
  0
LINE
  5
656E
  8
DANMEN
  6
CONTINUOUS
 10
448.14879070818807
 20
341.22373877579901
 30
0.0
 11
447.82917909467392
 21
339.62568070822982
 31
0.0
  0
LINE
  5
656F
  8
DANMEN
  6
CONTINUOUS
 10
448.14879070818807
 20
341.22373877579901
 30
0.0
 11
448.14879070818807
 21
345.22373877579889
 31
0.0
  0
LINE
  5
6570
  8
DANMEN
  6
CONTINUOUS
 10
446.19879070818791
 20
342.17373877579888
 30
0.0
 11
446.19879070818791
 21
346.17373877579888
 31
0.0
  0
ARC
  5
6571
  8
DANMEN
  6
CONTINUOUS
 10
449.54892620488891
 20
343.98126588177348
 30
0.0
 40
0.5
 50
304.70262216555261
 51
0.0
  0
ARC
  5
6572
  8
DANMEN
  6
CONTINUOUS
 10
449.48821258972742
 20
342.96612533551081
 30
0.0
 40
0.3
 50
124.7026221655525
 51
216.50879193555241
  0
LINE
  5
6573
  8
DANMEN
  6
CONTINUOUS
 10
449.83358477919131
 20
343.57020688834751
 30
0.0
 11
449.31741744514602
 21
343.21276073156628
 31
0.0
  0
ARC
  5
6574
  8
DANMEN
  6
CONTINUOUS
 10
449.54892620488891
 20
344.22463046531283
 30
0.0
 40
0.5
 50
0.0
 51
90.0
  0
ARC
  5
6575
  8
DANMEN
  6
CONTINUOUS
 10
449.54905689037901
 20
344.22463046531283
 30
0.0
 40
0.5
 50
90.0
 51
124.7026221655525
  0
LINE
  5
6576
  8
DANMEN
  6
CONTINUOUS
 10
450.0489262048888
 20
344.22463046128479
 30
0.0
 11
450.0489262048888
 21
343.98126588177348
 31
0.0
  0
LINE
  5
6577
  8
DANMEN
  6
CONTINUOUS
 10
449.54905691445259
 20
344.72463046531283
 30
0.0
 11
449.54892620488891
 21
344.72463046531283
 31
0.0
  0
LINE
  5
6578
  8
DANMEN
  6
CONTINUOUS
 10
449.94879068434608
 20
339.8226528040916
 30
0.0
 11
447.94879068434608
 21
342.52463046531278
 31
0.0
  0
LINE
  5
6579
  8
DANMEN
  6
CONTINUOUS
 10
449.26439831607678
 20
344.6356894587388
 30
0.0
 11
447.94879068434608
 21
343.72463046531283
 31
0.0
  0
LINE
  5
657A
  8
DANMEN
  6
CONTINUOUS
 10
447.94879068434608
 20
342.52463046531278
 30
0.0
 11
447.94879068434608
 21
343.72463046531283
 31
0.0
  0
LINE
  5
657B
  8
DANMEN
  6
CONTINUOUS
 10
447.19879070818803
 20
347.17373877579888
 30
0.0
 11
451.69879070818803
 21
347.17373877579888
 31
0.0
  0
LINE
  5
657C
  8
SUNPO
  6
CONTINUOUS
 10
453.64879068434601
 20
387.22373877579901
 30
0.0
 11
410.94879068434602
 21
387.22373877579901
 31
0.0
  0
TEXT
  5
657D
  8
SUNPO
  6
CONTINUOUS
 10
429.66343149245142
 20
387.72373877579878
 30
0.0
 40
2.5
  1
42.7
 41
1.1999999999999991
  7
MX_DIMTXSTY_3
  0
LINE
  5
657E
  8
DANMEN
  6
CONTINUOUS
 10
415.14879068434612
 20
377.31464786670819
 30
0.0
 11
415.14879068434612
 21
392.22373877579878
 31
0.0
  0
LINE
  5
657F
  8
DANMEN
  6
CONTINUOUS
 10
416.83508218536127
 20
372.22373877579889
 30
0.0
 11
420.14879068434601
 21
375.53744727478369
 31
0.0
  0
LINE
  5
6580
  8
DANMEN
  6
CONTINUOUS
 10
420.14879068434601
 20
373.25317602732167
 30
0.0
 11
415.94292989717309
 21
377.45903681449488
 31
0.0
  0
LINE
  5
6581
  8
DANMEN
  6
CONTINUOUS
 10
419.76401437349568
 20
372.22373877579889
 30
0.0
 11
415.14879068434612
 21
376.83896246494862
 31
0.0
  0
LINE
  5
6582
  8
DANMEN
  6
CONTINUOUS
 10
418.34980081112292
 20
372.22373877579889
 30
0.0
 11
415.14879068434612
 21
375.42474890257557
 31
0.0
  0
LINE
  5
6583
  8
DANMEN
  6
CONTINUOUS
 10
415.42086862298828
 20
372.22373877579889
 30
0.0
 11
420.14879068434601
 21
376.95166083715679
 31
0.0
  0
LINE
  5
6584
  8
DANMEN
  6
CONTINUOUS
 10
415.14879068434612
 20
373.3658743995299
 30
0.0
 11
419.9750693664526
 21
378.1921530816366
 31
0.0
  0
LINE
  5
6585
  8
DANMEN
  6
CONTINUOUS
 10
415.14879068434612
 20
374.78008796190312
 30
0.0
 11
418.24658612355239
 21
377.8778834011091
 31
0.0
  0
LINE
  5
6586
  8
DANMEN
  6
CONTINUOUS
 10
414.64879068434618
 20
377.22373877579901
 30
0.0
 11
420.14879068434601
 21
378.22373877579901
 31
0.0
  0
ARC
  5
6587
  8
DANMEN
  6
CONTINUOUS
 10
414.64879068434618
 20
376.72373877579901
 30
0.0
 40
0.5
 50
0.0
 51
90.0
  0
ARC
  5
6588
  8
DANMEN
  6
CONTINUOUS
 10
413.44879068434602
 20
376.72373877579901
 30
0.0
 40
0.5
 50
90.0
 51
180.0
  0
LINE
  5
6589
  8
DANMEN
  6
CONTINUOUS
 10
415.52137368637671
 20
372.22373877579889
 30
0.0
 11
415.14879068434612
 21
372.59632177782942
 31
0.0
  0
LINE
  5
658A
  8
DANMEN
  6
CONTINUOUS
 10
413.44879068434602
 20
377.22373877579901
 30
0.0
 11
414.64879068434618
 21
377.22373877579901
 31
0.0
  0
LINE
  5
658B
  8
DANMEN
  6
CONTINUOUS
 10
415.14879068434612
 20
376.72373877579901
 30
0.0
 11
415.14879068434612
 21
372.22373877579889
 31
0.0
  0
LINE
  5
658C
  8
DANMEN
  6
CONTINUOUS
 10
415.14879068434612
 20
372.22373877579889
 30
0.0
 11
414.89879068434601
 21
372.22373877579889
 31
0.0
  0
LINE
  5
658D
  8
DANMEN
  6
CONTINUOUS
 10
415.14879068434612
 20
376.194301524276
 30
0.0
 11
416.51810288065172
 21
377.56361372058183
 31
0.0
  0
LINE
  5
658E
  8
DANMEN
  6
CONTINUOUS
 10
416.9355872487497
 20
372.22373877579889
 30
0.0
 11
415.14879068434612
 21
374.01053534020241
 31
0.0
  0
LINE
  5
658F
  8
DANMEN
  6
CONTINUOUS
 10
420.14879068434601
 20
374.66738958969478
 30
0.0
 11
417.1395721422582
 21
377.67660813178281
 31
0.0
  0
LINE
  5
6590
  8
DANMEN
  6
CONTINUOUS
 10
420.14879068434601
 20
376.081603152068
 30
0.0
 11
418.33621438734292
 21
377.89417944907109
 31
0.0
  0
LINE
  5
6591
  8
DANMEN
  6
CONTINUOUS
 10
419.66350931010737
 20
372.22373877579889
 30
0.0
 11
420.14879068434601
 21
372.70902015003747
 31
0.0
  0
LINE
  5
6592
  8
DANMEN
  6
CONTINUOUS
 10
418.24929574773449
 20
372.22373877579889
 30
0.0
 11
420.14879068434601
 21
374.12323371241058
 31
0.0
  0
LINE
  5
6593
  8
DANMEN
  6
CONTINUOUS
 10
420.14879068434601
 20
377.4958167144411
 30
0.0
 11
419.53285663242792
 21
378.11175076635919
 31
0.0
  0
ARC
  5
6594
  8
SUNPO
  6
BYBLOCK
 10
410.94879068434602
 20
387.22373877579901
 30
0.0
 40
0.144999999999996
 50
180.0
 51
0.0
  0
ARC
  5
6595
  8
SUNPO
  6
BYBLOCK
 10
410.94879068434602
 20
387.22373877579901
 30
0.0
 40
0.144999999999996
 50
0.0
 51
180.0
  0
ARC
  5
6596
  8
SUNPO
  6
BYBLOCK
 10
410.94879068434602
 20
387.22373877579901
 30
0.0
 40
0.144999999999996
 50
180.0
 51
0.0
  0
ARC
  5
6597
  8
DANMEN
  6
BYBLOCK
 10
410.94879068434602
 20
387.22373877579901
 30
0.0
 40
0.144999999999996
 50
0.0
 51
180.0
  0
LINE
  5
6598
  8
DANMEN
  6
CONTINUOUS
 10
451.1487906843463
 20
377.31464786670819
 30
0.0
 11
451.1487906843463
 21
392.22373877579878
 31
0.0
  0
LINE
  5
6599
  8
DANMEN
  6
CONTINUOUS
 10
453.64879068434601
 20
376.72373877579901
 30
0.0
 11
453.64879068434601
 21
392.22373877579878
 31
0.0
  0
TEXT
  5
659A
  8
SUNPO
  6
CONTINUOUS
 10
458.79879030287623
 20
387.72373877579878
 30
0.0
 40
2.5
  1
19.3
 41
1.3500000000000001
  7
MX_DIMTXSTY_4
  0
ARC
  5
659B
  8
DANMEN
  6
CONTINUOUS
 10
453.14879068434612
 20
376.72373877579901
 30
0.0
 40
0.5
 50
0.0
 51
90.0
  0
LINE
  5
659C
  8
DANMEN
  6
CONTINUOUS
 10
451.1487906843463
 20
376.194301524276
 30
0.0
 11
449.77947848804041
 21
377.56361372058183
 31
0.0
  0
LINE
  5
659D
  8
DANMEN
  6
CONTINUOUS
 10
451.1487906843463
 20
374.78008796190312
 30
0.0
 11
448.05099524513997
 21
377.8778834011091
 31
0.0
  0
LINE
  5
659E
  8
DANMEN
  6
CONTINUOUS
 10
451.1487906843463
 20
373.3658743995299
 30
0.0
 11
446.32251200223948
 21
378.19215308163649
 31
0.0
  0
LINE
  5
659F
  8
DANMEN
  6
CONTINUOUS
 10
446.1487906843463
 20
373.25317602732179
 30
0.0
 11
450.35465147151911
 21
377.45903681449488
 31
0.0
  0
LINE
  5
65A0
  8
DANMEN
  6
CONTINUOUS
 10
446.1487906843463
 20
374.66738958969501
 30
0.0
 11
449.15800922643399
 21
377.67660813178281
 31
0.0
  0
LINE
  5
65A1
  8
DANMEN
  6
CONTINUOUS
 10
446.1487906843463
 20
376.08160315206811
 30
0.0
 11
447.96136698134927
 21
377.89417944907109
 31
0.0
  0
ARC
  5
65A2
  8
DANMEN
  6
CONTINUOUS
 10
451.6487906843463
 20
376.72373877579901
 30
0.0
 40
0.5
 50
90.0
 51
180.0
  0
LINE
  5
65A3
  8
DANMEN
  6
CONTINUOUS
 10
446.1487906843463
 20
378.22373877579901
 30
0.0
 11
451.6487906843463
 21
377.22373877579901
 31
0.0
  0
LINE
  5
65A4
  8
DANMEN
  6
CONTINUOUS
 10
450.87671274570403
 20
372.22373877579889
 30
0.0
 11
446.1487906843463
 21
376.95166083715662
 31
0.0
  0
LINE
  5
65A5
  8
DANMEN
  6
CONTINUOUS
 10
450.77620768231583
 20
372.22373877579889
 30
0.0
 11
451.1487906843463
 21
372.59632177782942
 31
0.0
  0
LINE
  5
65A6
  8
DANMEN
  6
CONTINUOUS
 10
449.36199411994238
 20
372.22373877579889
 30
0.0
 11
451.1487906843463
 21
374.01053534020241
 31
0.0
  0
LINE
  5
65A7
  8
DANMEN
  6
CONTINUOUS
 10
447.94778055756962
 20
372.22373877579889
 30
0.0
 11
451.1487906843463
 21
375.42474890257557
 31
0.0
  0
LINE
  5
65A8
  8
DANMEN
  6
CONTINUOUS
 10
446.53356699519628
 20
372.22373877579889
 30
0.0
 11
451.1487906843463
 21
376.83896246494862
 31
0.0
  0
LINE
  5
65A9
  8
DANMEN
  6
CONTINUOUS
 10
449.46249918333081
 20
372.22373877579889
 30
0.0
 11
446.1487906843463
 21
375.53744727478357
 31
0.0
  0
LINE
  5
65AA
  8
DANMEN
  6
CONTINUOUS
 10
448.0482856209577
 20
372.22373877579889
 30
0.0
 11
446.1487906843463
 21
374.12323371241058
 31
0.0
  0
LINE
  5
65AB
  8
DANMEN
  6
CONTINUOUS
 10
446.63407205858448
 20
372.22373877579889
 30
0.0
 11
446.1487906843463
 21
372.70902015003742
 31
0.0
  0
LINE
  5
65AC
  8
DANMEN
  6
CONTINUOUS
 10
451.1487906843463
 20
376.72373877579901
 30
0.0
 11
451.1487906843463
 21
372.22373877579889
 31
0.0
  0
LINE
  5
65AD
  8
DANMEN
  6
CONTINUOUS
 10
451.69879068434608
 20
372.22373877579889
 30
0.0
 11
451.1487906843463
 21
372.22373877579889
 31
0.0
  0
LINE
  5
65AE
  8
DANMEN
  6
CONTINUOUS
 10
446.1487906843463
 20
377.49581671444122
 30
0.0
 11
446.7647247362645
 21
378.11175076635919
 31
0.0
  0
LINE
  5
65AF
  8
DANMEN
  6
CONTINUOUS
 10
453.14879068434612
 20
377.22373877579901
 30
0.0
 11
451.6487906843463
 21
377.22373877579901
 31
0.0
  0
ARC
  5
65B0
  8
SUNPO
  6
BYBLOCK
 10
453.64879068434601
 20
387.22373877579901
 30
0.0
 40
0.1450000000000102
 50
0.0
 51
180.0
  0
ARC
  5
65B1
  8
DANMEN
  6
BYBLOCK
 10
453.64879068434601
 20
387.22373877579901
 30
0.0
 40
0.1450000000000102
 50
180.0
 51
0.0
  0
ARC
  5
65B2
  8
DANMEN
  6
BYBLOCK
 10
453.64879068434601
 20
387.22373877579901
 30
0.0
 40
0.1450000000000102
 50
0.0
 51
180.0
  0
ARC
  5
65B3
  8
DANMEN
  6
BYBLOCK
 10
453.64879068434601
 20
387.22373877579901
 30
0.0
 40
0.1450000000000102
 50
180.0
 51
0.0
  0
TEXT
  5
65B4
  8
SUNPO
  6
CONTINUOUS
 10
482.44879068434608
 20
355.16123877579878
 30
0.0
 40
2.5
  1
40
 50
90.0
 41
1.1000000000000001
  7
MX_DIMTXSTY_5
  0
LINE
  5
65B5
  8
SUNPO
  6
CONTINUOUS
 10
474.44879068434608
 20
377.22373877579901
 30
0.0
 11
482.94879068434608
 21
377.22373877579901
 31
0.0
  0
ARC
  5
65B6
  8
SUNPO
  6
BYBLOCK
 10
472.94879068434602
 20
387.22373877579901
 30
0.0
 40
0.1450000000000102
 50
0.0
 51
180.0
  0
ARC
  5
65B7
  8
SUNPO
  6
BYBLOCK
 10
472.94879068434602
 20
387.22373877579901
 30
0.0
 40
0.1450000000000102
 50
180.0
 51
0.0
  0
ARC
  5
65B8
  8
SUNPO
  6
BYBLOCK
 10
482.94879068434608
 20
377.22373877579901
 30
0.0
 40
0.1450000000000102
 50
90.0
 51
270.0
  0
ARC
  5
65B9
  8
SUNPO
  6
BYBLOCK
 10
482.94879068434608
 20
377.22373877579901
 30
0.0
 40
0.1450000000000102
 50
270.0
 51
90.0
  0
LINE
  5
67CF
  8
DANMEN
  6
CONTINUOUS
 10
168.41351345470741
 20
221.6260736391508
 30
0.0
 11
168.41351345470741
 21
168.1260736391508
 31
0.0
  0
LINE
  5
67D0
  8
DANMEN
  6
CONTINUOUS
 10
129.91351345470741
 20
168.7169827300599
 30
0.0
 11
129.91351345470741
 21
221.6260736391508
 31
0.0
  0
LINE
  5
67D1
  8
DANMEN
  6
CONTINUOUS
 10
157.41351345470741
 20
151.6260736391508
 30
0.0
 11
157.41351345470741
 21
221.6260736391508
 31
0.0
  0
LINE
  5
67D2
  8
DANMEN
  6
CONTINUOUS
 10
158.41351345470741
 20
151.6260736391508
 30
0.0
 11
158.41351345470741
 21
221.6260736391508
 31
0.0
  0
LINE
  5
67D3
  8
DANMEN
  6
CONTINUOUS
 10
157.91351345470741
 20
151.6260736391508
 30
0.0
 11
157.91351345470741
 21
221.6260736391508
 31
0.0
  0
LINE
  5
67D4
  8
DANMEN
  6
CONTINUOUS
 10
165.91351345470741
 20
168.7169827300599
 30
0.0
 11
165.91351345470741
 21
221.6260736391508
 31
0.0
  0
LINE
  5
67D5
  8
DANMEN
  6
CONTINUOUS
 10
134.91351345470741
 20
151.6260736391508
 30
0.0
 11
134.91351345470741
 21
221.6260736391508
 31
0.0
  0
LINE
  5
67D6
  8
DANMEN
  6
CONTINUOUS
 10
142.91351345470741
 20
151.6260736391508
 30
0.0
 11
142.91351345470741
 21
221.6260736391508
 31
0.0
  0
LINE
  5
67D7
  8
DANMEN
  6
CONTINUOUS
 10
154.91351345470741
 20
151.6260736391508
 30
0.0
 11
154.91351345470741
 21
221.6260736391508
 31
0.0
  0
LINE
  5
67D8
  8
DANMEN
  6
CONTINUOUS
 10
160.91351345470741
 20
151.6260736391508
 30
0.0
 11
160.91351345470741
 21
221.6260736391508
 31
0.0
  0
LINE
  5
67D9
  8
DANMEN
  6
CONTINUOUS
 10
135.41351345470741
 20
151.6260736391508
 30
0.0
 11
135.41351345470741
 21
221.6260736391508
 31
0.0
  0
LINE
  5
67DA
  8
DANMEN
  6
CONTINUOUS
 10
142.41351345470741
 20
151.6260736391508
 30
0.0
 11
142.41351345470741
 21
221.6260736391508
 31
0.0
  0
LINE
  5
67DB
  8
DANMEN
  6
CONTINUOUS
 10
155.41351345470741
 20
151.6260736391508
 30
0.0
 11
155.41351345470741
 21
221.6260736391508
 31
0.0
  0
LINE
  5
67DC
  8
DANMEN
  6
CONTINUOUS
 10
160.41351345470741
 20
151.6260736391508
 30
0.0
 11
160.41351345470741
 21
221.6260736391508
 31
0.0
  0
LINE
  5
67DD
  8
DANMEN
  6
CONTINUOUS
 10
186.06351345470739
 20
221.6260736391508
 30
0.0
 11
186.06351345470739
 21
168.6260736391508
 31
0.0
  0
LINE
  5
67DE
  8
DANMEN
  6
CONTINUOUS
 10
119.3635134547074
 20
221.6260736391508
 30
0.0
 11
119.3635134547074
 21
118.6260583803618
 31
0.0
  0
LINE
  5
67DF
  8
DANMEN
  6
CONTINUOUS
 10
125.7135134547074
 20
221.6260736391508
 30
0.0
 11
125.7135134547074
 21
136.6260736391508
 31
0.0
  0
LINE
  5
67E0
  8
DANMEN
  6
CONTINUOUS
 10
187.7135134547074
 20
221.6260736391508
 30
0.0
 11
187.7135134547074
 21
168.1260736391508
 31
0.0
  0
LINE
  5
67E1
  8
DANMEN
  6
CONTINUOUS
 10
117.7135134547074
 20
221.6260736391508
 30
0.0
 11
117.7135134547074
 21
118.1260583803618
 31
0.0
  0
LINE
  5
67E2
  8
DANMEN
  6
CONTINUOUS
 10
132.89652169219909
 20
123.6260736391509
 30
0.0
 11
141.7135134547074
 21
123.6260736391509
 31
0.0
  0
LINE
  5
67E3
  8
DANMEN
  6
CONTINUOUS
 10
137.9135134427865
 20
121.9260736391508
 30
0.0
 11
139.5135134666283
 21
121.9260736391508
 31
0.0
  0
LINE
  5
67E4
  8
DANMEN
  6
CONTINUOUS
 10
129.2135134547074
 20
142.82607363915091
 30
0.0
 11
141.7135134547074
 21
142.82607363915091
 31
0.0
  0
LINE
  5
67E5
  8
DANMEN
  6
CONTINUOUS
 10
166.76351347854921
 20
144.62607363915089
 30
0.0
 11
129.3635134547074
 21
144.62607363915089
 31
0.0
  0
LINE
  5
67E6
  8
DANMEN
  6
CONTINUOUS
 10
133.91351345470741
 20
144.62607363915089
 30
0.0
 11
161.91351345470741
 21
144.62607363915089
 31
0.0
  0
LINE
  5
67E7
  8
DANMEN
  6
CONTINUOUS
 10
133.91351345470741
 20
151.6260736391508
 30
0.0
 11
161.91351345470741
 21
151.6260736391508
 31
0.0
  0
LINE
  5
67E8
  8
DANMEN
  6
CONTINUOUS
 10
133.9135135324924
 20
144.62607379667421
 30
0.0
 11
161.91351406327419
 21
151.626073224648
 31
0.0
  0
LINE
  5
67EB
  8
DANMEN
  6
CONTINUOUS
 10
134.91351345470741
 20
151.6260736391508
 30
0.0
 11
160.91351345470741
 21
151.6260736391508
 31
0.0
  0
LINE
  5
67EE
  8
DANMEN
  6
CONTINUOUS
 10
127.7135134547074
 20
168.1260736391508
 30
0.0
 11
127.7135134547074
 21
137.1260736391508
 31
0.0
  0
LINE
  5
67EF
  8
DANMEN
  6
CONTINUOUS
 10
129.3635134547074
 20
144.62607363915089
 30
0.0
 11
129.3635134547074
 21
163.6260736391508
 31
0.0
  0
LINE
  5
6806
  8
DANMEN
  6
CONTINUOUS
 10
119.51351345470739
 20
118.6260736391508
 30
0.0
 11
132.54229368421699
 21
123.5612327263446
 31
0.0
  0
LINE
  5
6807
  8
DANMEN
  6
CONTINUOUS
 10
118.2135134547074
 20
108.6260736391509
 30
0.0
 11
129.7135134547074
 21
108.6260736391509
 31
0.0
  0
LINE
  5
6808
  8
DANMEN
  6
CONTINUOUS
 10
133.0155435136511
 20
121.9760736391509
 30
0.0
 11
119.3635134547074
 21
116.80483435065349
 31
0.0
  0
LINE
  5
6809
  8
DANMEN
  6
CONTINUOUS
 10
119.3635134547074
 20
110.27607363915089
 30
0.0
 11
130.2135134547074
 21
110.27607363915089
 31
0.0
  0
LINE
  5
680D
  8
DANMEN
  6
CONTINUOUS
 10
117.7135134547074
 20
118.1260736391509
 30
0.0
 11
117.7135134547074
 21
109.1260734762302
 31
0.0
  0
LINE
  5
680E
  8
DANMEN
  6
CONTINUOUS
 10
119.3635134547074
 20
116.80483435065349
 30
0.0
 11
119.3635134547074
 21
110.27607363915089
 31
0.0
  0
ARC
  5
680F
  8
DANMEN
  6
CONTINUOUS
 10
118.2135134547074
 20
109.1260736391508
 30
0.0
 40
0.5
 50
180.00001866933439
 51
270.00000068324448
  0
ARC
  5
6810
  8
DANMEN
  6
CONTINUOUS
 10
118.2135134547074
 20
118.1260736391509
 30
0.0
 40
0.5
 50
90.0
 51
180.0
  0
LINE
  5
6811
  8
DANMEN
  6
CONTINUOUS
 10
118.2135134547074
 20
118.6260736391508
 30
0.0
 11
119.51351345470739
 21
118.6260736391508
 31
0.0
  0
LINE
  5
6812
  8
DANMEN
  6
CONTINUOUS
 10
117.7135134547074
 20
118.6260583803618
 30
0.0
 11
119.3635134308655
 21
118.6260583803618
 31
0.0
  0
LINE
  5
6813
  8
DANMEN
  6
CONTINUOUS
 10
129.7135134547074
 20
108.6260736391509
 30
0.0
 11
129.7135134547074
 21
100.1260736391509
 31
0.0
  0
LINE
  5
6814
  8
DANMEN
  6
CONTINUOUS
 10
131.2135134547074
 20
109.27607363915089
 30
0.0
 11
131.2135134547074
 21
100.1260736391509
 31
0.0
  0
LINE
  5
6817
  8
DANMEN
  6
CONTINUOUS
 10
130.2135134547074
 20
99.626073639150903
 30
0.0
 11
130.7135134547074
 21
99.626073639150903
 31
0.0
  0
ARC
  5
6818
  8
DANMEN
  6
CONTINUOUS
 10
130.2135134547074
 20
100.1260736391509
 30
0.0
 40
0.5
 50
180.00001866933439
 51
270.00000068324448
  0
ARC
  5
6819
  8
DANMEN
  6
CONTINUOUS
 10
130.7135134547074
 20
100.1260736391509
 30
0.0
 40
0.5
 50
270.00001798608901
 51
0.0
  0
ARC
  5
681B
  8
DANMEN
  6
CONTINUOUS
 10
130.2135134547074
 20
109.27607363915089
 30
0.0
 40
1.0
 50
0.0
 51
90.0
  0
LINE
  5
681C
  8
DANMEN
  6
CONTINUOUS
 10
133.0155435136511
 20
121.9760736391509
 30
0.0
 11
134.41351345470741
 21
121.9760736391509
 31
0.0
  0
ARC
  5
681D
  8
DANMEN
  6
CONTINUOUS
 10
137.31351345470739
 20
118.32607363915081
 30
0.0
 40
0.3
 50
270.0
 51
0.0
  0
LINE
  5
681E
  8
DANMEN
  6
CONTINUOUS
 10
136.1741340964158
 20
118.02607363915089
 30
0.0
 11
137.3135134785492
 21
118.02607363915089
 31
0.0
  0
LINE
  5
681F
  8
DANMEN
  6
CONTINUOUS
 10
136.91351345470741
 20
119.68001286244029
 30
0.0
 11
136.91351345470741
 21
120.9260736510718
 31
0.0
  0
LINE
  5
6820
  8
DANMEN
  6
CONTINUOUS
 10
135.41351345470741
 20
119.5957674848207
 30
0.0
 11
135.41351345470741
 21
120.9760736391509
 31
0.0
  0
ARC
  5
6821
  8
DANMEN
  6
CONTINUOUS
 10
137.91351345470741
 20
120.9260736391508
 30
0.0
 40
1.0
 50
90.0
 51
180.0
  0
LINE
  5
6822
  8
DANMEN
  6
CONTINUOUS
 10
137.6135134547074
 20
118.32607363915081
 30
0.0
 11
137.6135134547074
 21
118.5891416291042
 31
0.0
  0
ARC
  5
6823
  8
DANMEN
  6
CONTINUOUS
 10
137.91351345470741
 20
119.6800128405678
 30
0.0
 40
1.0
 50
180.0
 51
245.3756816478365
  0
ARC
  5
6824
  8
DANMEN
  6
CONTINUOUS
 10
137.41351345470741
 20
118.5891416291042
 30
0.0
 40
0.2
 50
0.0
 51
65.375681647836572
  0
ARC
  5
6825
  8
DANMEN
  6
CONTINUOUS
 10
137.41351345470741
 20
119.5957674848207
 30
0.0
 40
2.0
 50
180.0
 51
231.70652271262219
  0
ARC
  5
6826
  8
DANMEN
  6
CONTINUOUS
 10
134.41351345470741
 20
120.9760736391509
 30
0.0
 40
1.0
 50
0.0
 51
90.0
  0
LINE
  5
6829
  8
DANMEN
  6
CONTINUOUS
 10
129.2135134547074
 20
142.82607363915091
 30
0.0
 11
129.2135134547074
 21
137.1260736391508
 31
0.0
  0
LINE
  5
682A
  8
DANMEN
  6
CONTINUOUS
 10
128.2135134547074
 20
136.6260736391508
 30
0.0
 11
128.7135134547074
 21
136.6260736391508
 31
0.0
  0
ARC
  5
682B
  8
DANMEN
  6
CONTINUOUS
 10
128.2135134547074
 20
137.1260736391508
 30
0.0
 40
0.5
 50
180.0
 51
270.0
  0
ARC
  5
682C
  8
DANMEN
  6
CONTINUOUS
 10
128.7135134547074
 20
137.1260736391508
 30
0.0
 40
0.5
 50
270.0
 51
0.0
  0
LINE
  5
682D
  8
DANMEN
  6
CONTINUOUS
 10
125.7135134547074
 20
136.6260736391508
 30
0.0
 11
128.2135134547074
 21
136.6260736391508
 31
0.0
  0
ARC
  5
682E
  8
DANMEN
  6
CONTINUOUS
 10
132.89652169219909
 20
122.6260736391509
 30
0.0
 40
1.0
 50
90.0
 51
110.746138197202
  0
LINE
  5
682F
  8
DANMEN
  6
CONTINUOUS
 10
133.91351345470741
 20
151.6260736391508
 30
0.0
 11
133.91351345470741
 21
144.62607363915089
 31
0.0
  0
LINE
  5
6835
  8
DANMEN
  6
CONTINUOUS
 10
134.91351345470741
 20
167.4839380154198
 30
0.0
 11
133.10093715770429
 21
169.296514312423
 31
0.0
  0
LINE
  5
6836
  8
DANMEN
  6
CONTINUOUS
 10
134.91351345470741
 20
166.06972445304669
 30
0.0
 11
131.90429491261929
 21
169.07894299513481
 31
0.0
  0
LINE
  5
6837
  8
DANMEN
  6
CONTINUOUS
 10
134.91351345470741
 20
164.6555108906737
 30
0.0
 11
130.7076526675344
 21
168.86137167784671
 31
0.0
  0
LINE
  5
6838
  8
DANMEN
  6
CONTINUOUS
 10
129.91351345470741
 20
164.76820926288181
 30
0.0
 11
134.73979213681389
 21
169.5944879449884
 31
0.0
  0
LINE
  5
6839
  8
DANMEN
  6
CONTINUOUS
 10
129.91351345470741
 20
166.18242282525489
 30
0.0
 11
133.01130889391351
 21
169.28021826446101
 31
0.0
  0
LINE
  5
683A
  8
DANMEN
  6
CONTINUOUS
 10
129.9135134547073
 20
167.596636387628
 30
0.0
 11
131.2828256510131
 21
168.96594858393371
 31
0.0
  0
LINE
  5
683B
  8
DANMEN
  6
CONTINUOUS
 10
129.41351345470741
 20
168.6260736391508
 30
0.0
 11
134.91351345470741
 21
169.62607363915089
 31
0.0
  0
ARC
  5
683C
  8
DANMEN
  6
CONTINUOUS
 10
129.41351345470741
 20
168.1260736391508
 30
0.0
 40
0.5
 50
0.0
 51
90.0
  0
LINE
  5
683D
  8
DANMEN
  6
CONTINUOUS
 10
129.91351345470741
 20
163.6260736391508
 30
0.0
 11
129.3635134547074
 21
163.6260736391508
 31
0.0
  0
ARC
  5
683E
  8
DANMEN
  6
CONTINUOUS
 10
128.2135134547074
 20
168.1260736391508
 30
0.0
 40
0.5
 50
90.0
 51
180.0
  0
LINE
  5
683F
  8
DANMEN
  6
CONTINUOUS
 10
128.2135134547074
 20
168.6260736391508
 30
0.0
 11
129.41351345470741
 21
168.6260736391508
 31
0.0
  0
LINE
  5
6840
  8
DANMEN
  6
CONTINUOUS
 10
134.5287371438572
 20
163.6260736391508
 30
0.0
 11
129.91351345470741
 21
168.24129732830059
 31
0.0
  0
LINE
  5
6841
  8
DANMEN
  6
CONTINUOUS
 10
133.0140185180957
 20
163.6260736391508
 30
0.0
 11
134.91351345470741
 21
165.52556857576261
 31
0.0
  0
LINE
  5
6842
  8
DANMEN
  6
CONTINUOUS
 10
131.59980495572259
 20
163.6260736391508
 30
0.0
 11
134.91351345470741
 21
166.93978213813571
 31
0.0
  0
LINE
  5
6843
  8
DANMEN
  6
CONTINUOUS
 10
130.18559139334951
 20
163.6260736391508
 30
0.0
 11
134.91351345470741
 21
168.35399570050879
 31
0.0
  0
LINE
  5
6844
  8
DANMEN
  6
CONTINUOUS
 10
133.11452358148409
 20
163.6260736391508
 30
0.0
 11
129.91351345470741
 21
166.82708376592751
 31
0.0
  0
LINE
  5
6845
  8
DANMEN
  6
CONTINUOUS
 10
131.70031001911099
 20
163.6260736391508
 30
0.0
 11
129.91351345470741
 21
165.41287020355441
 31
0.0
  0
LINE
  5
6846
  8
DANMEN
  6
CONTINUOUS
 10
130.28609645673791
 20
163.6260736391508
 30
0.0
 11
129.9135134547073
 21
163.99865664118141
 31
0.0
  0
LINE
  5
6847
  8
DANMEN
  6
CONTINUOUS
 10
129.91351345470741
 20
168.1260736391508
 30
0.0
 11
129.91351345470741
 21
163.6260736391508
 31
0.0
  0
LINE
  5
6848
  8
DANMEN
  6
CONTINUOUS
 10
134.4282320804688
 20
163.6260736391508
 30
0.0
 11
134.91351345470741
 21
164.1113550133895
 31
0.0
  0
LINE
  5
6849
  8
DANMEN
  6
CONTINUOUS
 10
134.91351345470741
 20
168.8981515777929
 30
0.0
 11
134.29757940278921
 21
169.51408562971119
 31
0.0
  0
LINE
  5
6856
  8
DANMEN
  6
CONTINUOUS
 10
187.7135134547074
 20
168.1260736391508
 30
0.0
 11
187.7135134547074
 21
134.12607363915089
 31
0.0
  0
LINE
  5
6857
  8
DANMEN
  6
CONTINUOUS
 10
186.06351345470739
 20
161.97607363915091
 30
0.0
 11
186.06351345470739
 21
149.3520545422177
 31
0.0
  0
LINE
  5
6858
  8
DANMEN
  6
CONTINUOUS
 10
166.76351347854921
 20
144.62607363915089
 30
0.0
 11
166.76351347854921
 21
163.6260736391508
 31
0.0
  0
LINE
  5
6859
  8
DANMEN
  6
CONTINUOUS
 10
168.41351347854919
 20
144.62607363915089
 30
0.0
 11
168.41351347854919
 21
161.97607363915091
 31
0.0
  0
LINE
  5
685A
  8
DANMEN
  6
CONTINUOUS
 10
154.91351345470741
 20
157.6260736391508
 30
0.0
 11
142.91351345470741
 21
151.6260736391508
 31
0.0
  0
LINE
  5
685B
  8
DANMEN
  6
CONTINUOUS
 10
142.91351345470741
 20
157.6260736391508
 30
0.0
 11
154.91351345470741
 21
151.6260736391508
 31
0.0
  0
LINE
  5
685C
  8
DANMEN
  6
CONTINUOUS
 10
186.06351345470739
 20
146.88886726671291
 30
0.0
 11
173.3394799195143
 21
142.87245433238189
 31
0.0
  0
LINE
  5
685D
  8
DANMEN
  6
CONTINUOUS
 10
185.37322974670201
 20
148.4012255257941
 30
0.0
 11
173.41351345470741
 21
144.62607363915089
 31
0.0
  0
ARC
  5
685E
  8
DANMEN
  6
CONTINUOUS
 10
146.6206657856188
 20
123.5119016100885
 30
0.0
 40
0.5
 50
291.80140948635221
 51
21.80140208548821
  0
LINE
  5
685F
  8
DANMEN
  6
CONTINUOUS
 10
142.01351345470741
 20
121.9760736391509
 30
0.0
 11
143.93480465649111
 21
121.9760736391509
 31
0.0
  0
LINE
  5
6860
  8
DANMEN
  6
CONTINUOUS
 10
142.1720484510964
 20
115.8254366469297
 30
0.0
 11
145.8403288428168
 21
117.4203407091602
 31
0.0
  0
LINE
  5
6861
  8
DANMEN
  6
CONTINUOUS
 10
142.56878322018841
 20
117.7971381316847
 30
0.0
 11
145.18243091714669
 21
118.93350637074479
 31
0.0
  0
ARC
  5
6862
  8
DANMEN
  6
CONTINUOUS
 10
140.1135134547074
 20
118.32607363915081
 30
0.0
 40
0.3
 50
180.0
 51
270.0
  0
LINE
  5
6863
  8
DANMEN
  6
CONTINUOUS
 10
140.1135134547074
 20
118.02607363915089
 30
0.0
 11
140.67003543954351
 21
118.02607363915089
 31
0.0
  0
ARC
  5
6864
  8
DANMEN
  6
CONTINUOUS
 10
139.51351345470741
 20
120.9260736391508
 30
0.0
 40
1.0
 50
0.0
 51
90.0
  0
LINE
  5
6865
  8
DANMEN
  6
CONTINUOUS
 10
140.51351345470741
 20
119.68001286244029
 30
0.0
 11
140.51351345470741
 21
120.9260736510718
 31
0.0
  0
LINE
  5
6866
  8
DANMEN
  6
CONTINUOUS
 10
142.01351345470741
 20
119.0742589573602
 30
0.0
 11
142.01351345470741
 21
121.9760736391509
 31
0.0
  0
ARC
  5
6867
  8
DANMEN
  6
CONTINUOUS
 10
140.01351345470741
 20
118.5891416291042
 30
0.0
 40
0.2
 50
114.6243183521634
 51
180.0
  0
ARC
  5
6868
  8
DANMEN
  6
CONTINUOUS
 10
139.51351345470741
 20
119.6800128405678
 30
0.0
 40
1.0
 50
294.62431835216341
 51
0.0
  0
LINE
  5
6869
  8
DANMEN
  6
CONTINUOUS
 10
139.81351345470739
 20
118.32607363915081
 30
0.0
 11
139.81351345470739
 21
118.5891416291042
 31
0.0
  0
LINE
  5
686A
  8
DANMEN
  6
CONTINUOUS
 10
142.01351345470741
 20
119.0742589573602
 30
0.0
 11
142.56878322018841
 21
117.7971381316847
 31
0.0
  0
LINE
  5
686B
  8
DANMEN
  6
CONTINUOUS
 10
141.5141503943525
 20
116.08460868811591
 30
0.0
 11
140.67003543954351
 21
118.02607363915089
 31
0.0
  0
ARC
  5
686C
  8
DANMEN
  6
CONTINUOUS
 10
141.97268544331749
 20
116.28397169589471
 30
0.0
 40
0.5
 50
203.49855968710551
 51
293.49855968710619
  0
LINE
  5
686D
  8
DANMEN
  6
CONTINUOUS
 10
146.80636112379591
 20
123.04766326464591
 30
0.0
 11
144.30619533284519
 21
122.04759694826561
 31
0.0
  0
ARC
  5
686E
  8
DANMEN
  6
CONTINUOUS
 10
143.93480465649111
 20
122.9760736391509
 30
0.0
 40
1.0
 50
270.0
 51
291.80140948635221
  0
LINE
  5
686F
  8
DANMEN
  6
CONTINUOUS
 10
146.09950088400299
 20
118.078238765904
 30
0.0
 11
145.84032897389059
 21
118.6743343295586
 31
0.0
  0
ARC
  5
6870
  8
DANMEN
  6
CONTINUOUS
 10
145.38179392492549
 20
118.4749713217798
 30
0.0
 40
0.5
 50
23.498559687105171
 51
113.49855968710619
  0
ARC
  5
6871
  8
DANMEN
  6
CONTINUOUS
 10
145.640965835038
 20
117.8788757581252
 30
0.0
 40
0.5
 50
293.49855968710619
 51
23.498559687105541
  0
LINE
  5
6872
  8
DANMEN
  6
CONTINUOUS
 10
143.3635134547074
 20
142.82607363915091
 30
0.0
 11
162.41351345470741
 21
142.82607363915091
 31
0.0
  0
LINE
  5
6873
  8
DANMEN
  6
CONTINUOUS
 10
141.7135134547074
 20
142.82607363915091
 30
0.0
 11
141.7135134547074
 21
123.6260736391509
 31
0.0
  0
LINE
  5
6874
  8
DANMEN
  6
CONTINUOUS
 10
143.3635134547074
 20
142.82607363915091
 30
0.0
 11
143.3635134547074
 21
123.6260736391509
 31
0.0
  0
LINE
  5
6875
  8
DANMEN
  6
CONTINUOUS
 10
143.3635134547074
 20
123.6260736391509
 30
0.0
 11
144.2135134547074
 21
123.6260736391509
 31
0.0
  0
LINE
  5
6876
  8
DANMEN
  6
CONTINUOUS
 10
146.2492751144033
 20
124.44037830302921
 30
0.0
 11
144.2135134547074
 21
123.6260736391509
 31
0.0
  0
LINE
  5
6877
  8
DANMEN
  6
CONTINUOUS
 10
147.08490415504761
 20
123.6975968883002
 30
0.0
 11
146.89920874527289
 21
124.1618354127371
 31
0.0
  0
ARC
  5
6878
  8
DANMEN
  6
CONTINUOUS
 10
146.4349704525803
 20
123.9761399575866
 30
0.0
 40
0.5
 50
21.801416566761869
 51
111.8014094863522
  0
ARC
  5
6879
  8
DANMEN
  6
CONTINUOUS
 10
167.51351345470741
 20
141.9260736391509
 30
0.0
 40
1.0
 50
0.0
 51
90.0
  0
LINE
  5
687A
  8
DANMEN
  6
CONTINUOUS
 10
161.91351345470741
 20
151.6260736391508
 30
0.0
 11
161.91351345470741
 21
144.62607363915089
 31
0.0
  0
ARC
  5
687B
  8
DANMEN
  6
CONTINUOUS
 10
162.41351345470741
 20
141.82607363915091
 30
0.0
 40
1.0
 50
0.0
 51
90.0
  0
ARC
  5
687C
  8
DANMEN
  6
CONTINUOUS
 10
165.41351345470741
 20
140.5957674848207
 30
0.0
 40
2.0
 50
180.0
 51
231.70652271262219
  0
ARC
  5
687D
  8
DANMEN
  6
CONTINUOUS
 10
165.41351345470741
 20
139.5891416291042
 30
0.0
 40
0.2
 50
0.0
 51
65.375681647836572
  0
ARC
  5
687E
  8
DANMEN
  6
CONTINUOUS
 10
165.91351345470741
 20
140.6800128405678
 30
0.0
 40
1.0
 50
180.0
 51
245.3756816478365
  0
LINE
  5
687F
  8
DANMEN
  6
CONTINUOUS
 10
165.6135134547074
 20
139.32607363915079
 30
0.0
 11
165.6135134547074
 21
139.5891416291042
 31
0.0
  0
ARC
  5
6880
  8
DANMEN
  6
CONTINUOUS
 10
165.91351345470741
 20
141.9260736391509
 30
0.0
 40
1.0
 50
90.0
 51
180.0
  0
LINE
  5
6881
  8
DANMEN
  6
CONTINUOUS
 10
163.41351345470741
 20
140.5957674848207
 30
0.0
 11
163.41351345470741
 21
141.82607363915091
 31
0.0
  0
LINE
  5
6882
  8
DANMEN
  6
CONTINUOUS
 10
164.91351345470741
 20
140.68001286244029
 30
0.0
 11
164.91351345470741
 21
141.92607365107179
 31
0.0
  0
LINE
  5
6883
  8
DANMEN
  6
CONTINUOUS
 10
165.9135134427865
 20
142.9260736391509
 30
0.0
 11
167.5135134666283
 21
142.9260736391509
 31
0.0
  0
LINE
  5
6884
  8
DANMEN
  6
CONTINUOUS
 10
164.17413409641571
 20
139.02607363915081
 30
0.0
 11
165.3135134785492
 21
139.02607363915081
 31
0.0
  0
ARC
  5
6885
  8
DANMEN
  6
CONTINUOUS
 10
165.31351345470739
 20
139.32607363915079
 30
0.0
 40
0.3
 50
270.0
 51
0.0
  0
LINE
  5
6886
  8
DANMEN
  6
CONTINUOUS
 10
171.01351345470741
 20
142.82607363915091
 30
0.0
 11
173.0384646080141
 21
142.82607363915091
 31
0.0
  0
LINE
  5
6887
  8
DANMEN
  6
CONTINUOUS
 10
173.41351345470741
 20
144.62607363915089
 30
0.0
 11
168.41351347854919
 21
144.62607363915089
 31
0.0
  0
ARC
  5
6888
  8
DANMEN
  6
CONTINUOUS
 10
171.01351345470741
 20
141.82607363915091
 30
0.0
 40
1.0
 50
90.0
 51
180.0
  0
LINE
  5
6889
  8
DANMEN
  6
CONTINUOUS
 10
167.81351345470739
 20
139.32607363915079
 30
0.0
 11
167.81351345470739
 21
139.5891416291042
 31
0.0
  0
ARC
  5
688A
  8
DANMEN
  6
CONTINUOUS
 10
167.51351345470741
 20
140.6800128405678
 30
0.0
 40
1.0
 50
294.62431835216341
 51
0.0
  0
ARC
  5
688B
  8
DANMEN
  6
CONTINUOUS
 10
168.01351345470741
 20
139.5891416291042
 30
0.0
 40
0.2
 50
114.6243183521634
 51
180.0
  0
ARC
  5
688C
  8
DANMEN
  6
CONTINUOUS
 10
168.01351345470741
 20
140.5957674848207
 30
0.0
 40
2.0
 50
308.2934772873777
 51
0.0
  0
LINE
  5
688D
  8
DANMEN
  6
CONTINUOUS
 10
170.01351345470741
 20
140.5957674848207
 30
0.0
 11
170.01351345470741
 21
141.82607363915091
 31
0.0
  0
LINE
  5
688E
  8
DANMEN
  6
CONTINUOUS
 10
168.51351345470741
 20
140.68001286244029
 30
0.0
 11
168.51351345470741
 21
141.92607365107179
 31
0.0
  0
LINE
  5
688F
  8
DANMEN
  6
CONTINUOUS
 10
168.1135134547074
 20
139.02607363915081
 30
0.0
 11
169.25289282796891
 21
139.02607363915081
 31
0.0
  0
ARC
  5
6890
  8
DANMEN
  6
CONTINUOUS
 10
168.1135134547074
 20
139.32607363915079
 30
0.0
 40
0.3
 50
180.0
 51
270.0
  0
ARC
  5
6891
  8
DANMEN
  6
CONTINUOUS
 10
173.0384646080141
 20
143.82607363915091
 30
0.0
 40
1.0
 50
270.0
 51
287.51859528528018
  0
LINE
  5
6893
  8
DANMEN
  6
CONTINUOUS
 10
186.06351345470739
 20
146.88886726671291
 30
0.0
 11
186.06351345470739
 21
136.70789069606849
 31
0.0
  0
LINE
  5
6894
  8
DANMEN
  6
CONTINUOUS
 10
186.6135134547074
 20
133.6260736391508
 30
0.0
 11
187.2135134547074
 21
133.6260736391508
 31
0.0
  0
ARC
  5
6895
  8
DANMEN
  6
CONTINUOUS
 10
186.1135134547074
 20
134.3852070713055
 30
0.0
 40
0.5
 50
0.0
 51
113.49855968710619
  0
LINE
  5
6896
  8
DANMEN
  6
CONTINUOUS
 10
186.6135134547074
 20
134.3852070713055
 30
0.0
 11
186.6135134547074
 21
133.6260736391508
 31
0.0
  0
LINE
  5
6897
  8
DANMEN
  6
CONTINUOUS
 10
186.06351345470739
 20
136.70789069606849
 30
0.0
 11
182.92880008835181
 21
135.3449722307262
 31
0.0
  0
LINE
  5
6898
  8
DANMEN
  6
CONTINUOUS
 10
183.58669801402189
 20
133.83180656914149
 30
0.0
 11
185.9141504469286
 21
134.84374212027049
 31
0.0
  0
LINE
  5
6899
  8
DANMEN
  6
CONTINUOUS
 10
182.92879995727799
 20
134.0909786103278
 30
0.0
 11
182.66962804716559
 21
134.68707417398241
 31
0.0
  0
ARC
  5
689A
  8
DANMEN
  6
CONTINUOUS
 10
183.38733500624309
 20
134.29034161810659
 30
0.0
 40
0.5
 50
203.49855968710509
 51
293.49855968710619
  0
ARC
  5
689B
  8
DANMEN
  6
CONTINUOUS
 10
183.12816309613061
 20
134.88643718176121
 30
0.0
 40
0.5
 50
113.49855968710619
 51
203.4985596871044
  0
ARC
  5
689C
  8
DANMEN
  6
CONTINUOUS
 10
187.2135134547074
 20
134.12607363915089
 30
0.0
 40
0.5
 50
270.0
 51
0.0
  0
ARC
  5
689D
  8
DANMEN
  6
CONTINUOUS
 10
185.06351345470739
 20
149.3520545422177
 30
0.0
 40
1.0
 50
288.04213376645163
 51
0.0
  0
LINE
  5
689F
  8
DANMEN
  6
CONTINUOUS
 10
168.41351347854919
 20
163.6260736391508
 30
0.0
 11
186.06351345470739
 21
163.6260736391508
 31
0.0
  0
LINE
  5
68A0
  8
DANMEN
  6
CONTINUOUS
 10
168.41351347854919
 20
161.97607363915091
 30
0.0
 11
186.06351345470739
 21
161.97607363915091
 31
0.0
  0
LINE
  5
68A1
  8
DANMEN
  6
CONTINUOUS
 10
175.41351347854919
 20
158.82607440209031
 30
0.0
 11
177.41351347854931
 21
158.82607440209031
 31
0.0
  0
LINE
  5
68A2
  8
DANMEN
  6
CONTINUOUS
 10
173.91351347854931
 20
161.82607440209031
 30
0.0
 11
178.91351347854931
 21
161.82607440209031
 31
0.0
  0
LINE
  5
68A3
  8
DANMEN
  6
CONTINUOUS
 10
168.41351347854931
 20
163.6260736391508
 30
0.0
 11
184.41351347854919
 21
163.6260736391508
 31
0.0
  0
LINE
  5
68A4
  8
DANMEN
  6
CONTINUOUS
 10
169.91351347854931
 20
168.6260736391508
 30
0.0
 11
182.91351347854931
 21
168.6260736391508
 31
0.0
  0
LINE
  5
68A5
  8
DANMEN
  6
CONTINUOUS
 10
170.41351347854931
 20
166.826073448416
 30
0.0
 11
182.41351347854931
 21
166.826073448416
 31
0.0
  0
LINE
  5
68A6
  8
DANMEN
  6
CONTINUOUS
 10
182.513513860019
 20
153.6260736391508
 30
0.0
 11
170.31351405075389
 21
153.6260736391508
 31
0.0
  0
LINE
  5
68A8
  8
DANMEN
  6
CONTINUOUS
 10
142.91351345470741
 20
157.6260736391508
 30
0.0
 11
154.91351345470741
 21
157.6260736391508
 31
0.0
  0
LINE
  5
68A9
  8
DANMEN
  6
CONTINUOUS
 10
165.91351345470741
 20
167.596636387628
 30
0.0
 11
164.5442012584017
 21
168.96594858393371
 31
0.0
  0
LINE
  5
68AA
  8
DANMEN
  6
CONTINUOUS
 10
165.91351345470741
 20
166.18242282525489
 30
0.0
 11
162.8157180155012
 21
169.28021826446101
 31
0.0
  0
LINE
  5
68AB
  8
DANMEN
  6
CONTINUOUS
 10
165.91351345470741
 20
164.76820926288181
 30
0.0
 11
161.08723477260079
 21
169.5944879449884
 31
0.0
  0
LINE
  5
68AC
  8
DANMEN
  6
CONTINUOUS
 10
160.9135134547075
 20
164.65551089067381
 30
0.0
 11
165.11937424188031
 21
168.86137167784671
 31
0.0
  0
LINE
  5
68AD
  8
DANMEN
  6
CONTINUOUS
 10
160.91351345470741
 20
166.0697244530468
 30
0.0
 11
163.92273199679539
 21
169.07894299513489
 31
0.0
  0
LINE
  5
68AE
  8
DANMEN
  6
CONTINUOUS
 10
160.91351345470741
 20
167.48393801541999
 30
0.0
 11
162.7260897517105
 21
169.296514312423
 31
0.0
  0
ARC
  5
68AF
  8
DANMEN
  6
CONTINUOUS
 10
169.91351347854931
 20
167.6260736391508
 30
0.0
 40
1.0
 50
90.000017986089034
 51
179.9999640278219
  0
LINE
  5
68B0
  8
DANMEN
  6
CONTINUOUS
 10
160.91351345470741
 20
169.62607363915089
 30
0.0
 11
166.41351345470741
 21
168.6260736391508
 31
0.0
  0
LINE
  5
68B1
  8
DANMEN
  6
CONTINUOUS
 10
167.91351347854919
 20
168.6260736391508
 30
0.0
 11
166.41351345470741
 21
168.6260736391508
 31
0.0
  0
LINE
  5
68B2
  8
DANMEN
  6
CONTINUOUS
 10
165.6414355160652
 20
163.6260736391508
 30
0.0
 11
160.91351345470741
 21
168.35399570050859
 31
0.0
  0
LINE
  5
68B3
  8
DANMEN
  6
CONTINUOUS
 10
164.22722195369209
 20
163.6260736391508
 30
0.0
 11
160.91351345470741
 21
166.9397821381356
 31
0.0
  0
LINE
  5
68B4
  8
DANMEN
  6
CONTINUOUS
 10
162.7125033279307
 20
163.6260736391508
 30
0.0
 11
165.91351345470741
 21
166.82708376592751
 31
0.0
  0
LINE
  5
68B5
  8
DANMEN
  6
CONTINUOUS
 10
161.2982897655576
 20
163.6260736391508
 30
0.0
 11
165.91351345470741
 21
168.24129732830059
 31
0.0
  0
LINE
  5
68B6
  8
DANMEN
  6
CONTINUOUS
 10
162.81300839131899
 20
163.6260736391508
 30
0.0
 11
160.91351345470741
 21
165.52556857576249
 31
0.0
  0
LINE
  5
68B7
  8
DANMEN
  6
CONTINUOUS
 10
161.39879482894591
 20
163.6260736391508
 30
0.0
 11
160.91351345470741
 21
164.11135501338941
 31
0.0
  0
LINE
  5
68B8
  8
DANMEN
  6
CONTINUOUS
 10
165.54093045267689
 20
163.6260736391508
 30
0.0
 11
165.91351345470741
 21
163.99865664118141
 31
0.0
  0
LINE
  5
68B9
  8
DANMEN
  6
CONTINUOUS
 10
164.12671689030381
 20
163.6260736391508
 30
0.0
 11
165.91351345470741
 21
165.41287020355441
 31
0.0
  0
LINE
  5
68BA
  8
DANMEN
  6
CONTINUOUS
 10
165.91351345470741
 20
168.1260736391508
 30
0.0
 11
165.91351345470741
 21
163.6260736391508
 31
0.0
  0
LINE
  5
68BB
  8
DANMEN
  6
CONTINUOUS
 10
166.76351347854921
 20
163.6260736391508
 30
0.0
 11
165.91351345470741
 21
163.6260736391508
 31
0.0
  0
ARC
  5
68BC
  8
DANMEN
  6
CONTINUOUS
 10
166.41351345470741
 20
168.1260736391508
 30
0.0
 40
0.5
 50
90.0
 51
180.0
  0
LINE
  5
68BD
  8
DANMEN
  6
CONTINUOUS
 10
173.9135308514949
 20
161.82605520964361
 30
0.0
 11
175.41352765683669
 21
158.82606159896011
 31
0.0
  0
LINE
  5
68BE
  8
DANMEN
  6
CONTINUOUS
 10
169.91351347854931
 20
154.42607382988569
 30
0.0
 11
169.91351347854931
 21
163.6260736391508
 31
0.0
  0
LINE
  5
68BF
  8
DANMEN
  6
CONTINUOUS
 10
170.3135141244509
 20
153.62607644826451
 30
0.0
 11
169.91351440059009
 21
154.4260766423545
 31
0.0
  0
LINE
  5
68C0
  8
DANMEN
  6
CONTINUOUS
 10
173.41351347854931
 20
164.22607306694621
 30
0.0
 11
171.41351347854931
 21
164.22607306694621
 31
0.0
  0
LINE
  5
68C1
  8
DANMEN
  6
CONTINUOUS
 10
168.41351347854919
 20
168.1260736391508
 30
0.0
 11
168.41351347854919
 21
163.6260736391508
 31
0.0
  0
ARC
  5
68C2
  8
DANMEN
  6
CONTINUOUS
 10
167.91351347854919
 20
168.1260736391508
 30
0.0
 40
0.5
 50
0.0
 51
90.0
  0
LINE
  5
68C3
  8
DANMEN
  6
CONTINUOUS
 10
168.91351347854931
 20
167.6260736391508
 30
0.0
 11
168.91351347854931
 21
163.6260736391508
 31
0.0
  0
LINE
  5
68C4
  8
DANMEN
  6
CONTINUOUS
 10
170.41351347854931
 20
166.826073448416
 30
0.0
 11
170.41351347854931
 21
163.6260736391508
 31
0.0
  0
LINE
  5
68C5
  8
DANMEN
  6
CONTINUOUS
 10
170.9135125248749
 20
165.1260736391508
 30
0.0
 11
170.41351347854931
 21
165.1260736391508
 31
0.0
  0
LINE
  5
68C6
  8
DANMEN
  6
CONTINUOUS
 10
171.41351699430061
 20
164.22606998274779
 30
0.0
 11
170.91352007150201
 21
165.12606502062931
 31
0.0
  0
LINE
  5
68C7
  8
DANMEN
  6
CONTINUOUS
 10
168.4135163531966
 20
164.22607270281469
 30
0.0
 11
168.91351347854931
 21
164.676070404314
 31
0.0
  0
LINE
  5
68C8
  8
DANMEN
  6
DASHED
 10
168.91351347854931
 20
165.1260736391508
 30
0.0
 11
170.41351347854931
 21
165.1260736391508
 31
0.0
  0
LINE
  5
68C9
  8
DANMEN
  6
CONTINUOUS
 10
168.41351347854931
 20
164.22607011563039
 30
0.0
 11
168.41351347854931
 21
163.6260736391508
 31
0.0
  0
LINE
  5
68CA
  8
DANMEN
  6
DASHED
 10
168.91351347854931
 20
164.676070404314
 30
0.0
 11
169.4135161890905
 21
165.1260731324862
 31
0.0
  0
LINE
  5
68CB
  8
DANMEN
  6
CONTINUOUS
 10
173.41351347854931
 20
166.826073448416
 30
0.0
 11
173.41351347854931
 21
163.6260736391508
 31
0.0
  0
LINE
  5
68CC
  8
DANMEN
  6
CONTINUOUS
 10
174.91351347854931
 20
163.6260736391508
 30
0.0
 11
174.91351347854931
 21
161.82607440209031
 31
0.0
  0
LINE
  5
68CD
  8
DANMEN
  6
CONTINUOUS
 10
160.91351345470741
 20
168.8981515777931
 30
0.0
 11
161.5294475066255
 21
169.51408562971119
 31
0.0
  0
ARC
  5
68D3
  8
DANMEN
  6
CONTINUOUS
 10
182.91351347854931
 20
167.6260736391508
 30
0.0
 40
1.0
 50
0.0000359721788891
 51
90.000017986089034
  0
LINE
  5
68D4
  8
DANMEN
  6
CONTINUOUS
 10
187.2135134547074
 20
168.6260736391508
 30
0.0
 11
184.7135134547074
 21
168.6260736391508
 31
0.0
  0
LINE
  5
68D5
  8
DANMEN
  6
CONTINUOUS
 10
184.7135134547074
 20
168.6260736391508
 30
0.0
 11
187.2135134547074
 21
168.6260736391508
 31
0.0
  0
LINE
  5
68D6
  8
DANMEN
  6
CONTINUOUS
 10
177.41354194987329
 20
158.82609571864921
 30
0.0
 11
178.91353875521509
 21
161.8260893293328
 31
0.0
  0
LINE
  5
68D7
  8
DANMEN
  6
CONTINUOUS
 10
182.91351347854931
 20
163.6260736391508
 30
0.0
 11
182.91351347854931
 21
154.42607382988569
 31
0.0
  0
LINE
  5
68D8
  8
DANMEN
  6
CONTINUOUS
 10
182.9135123992809
 20
154.42607658904251
 30
0.0
 11
182.51351310191589
 21
153.62607724794481
 31
0.0
  0
LINE
  5
68D9
  8
DANMEN
  6
CONTINUOUS
 10
181.9135108543849
 20
165.1260712209864
 30
0.0
 11
181.41351068957169
 21
164.2260703474748
 31
0.0
  0
LINE
  5
68DA
  8
DANMEN
  6
CONTINUOUS
 10
179.41351347854919
 20
166.826073448416
 30
0.0
 11
179.41351347854919
 21
163.6260736391508
 31
0.0
  0
LINE
  5
68DB
  8
DANMEN
  6
CONTINUOUS
 10
177.91351347854931
 20
163.6260736391508
 30
0.0
 11
177.91351347854931
 21
161.82607440209031
 31
0.0
  0
LINE
  5
68DC
  8
DANMEN
  6
CONTINUOUS
 10
181.41351347854931
 20
164.22607306694621
 30
0.0
 11
179.41351347854919
 21
164.22607306694621
 31
0.0
  0
LINE
  5
68DD
  8
DANMEN
  6
CONTINUOUS
 10
186.06351345470739
 20
167.42607363915079
 30
0.0
 11
186.06351345470739
 21
163.6260736391508
 31
0.0
  0
LINE
  5
68DE
  8
DANMEN
  6
CONTINUOUS
 10
184.2135134547074
 20
167.42607363915079
 30
0.0
 11
186.06351345470739
 21
167.42607363915079
 31
0.0
  0
ARC
  5
68DF
  8
DANMEN
  6
CONTINUOUS
 10
184.7135134547074
 20
168.1260736391508
 30
0.0
 40
0.5
 50
90.0
 51
180.0
  0
LINE
  5
68E0
  8
DANMEN
  6
CONTINUOUS
 10
184.2135134547074
 20
168.1260736391508
 30
0.0
 11
184.2135134547074
 21
167.42607363915079
 31
0.0
  0
LINE
  5
68E1
  8
DANMEN
  6
DASHED
 10
183.91351347854931
 20
164.676070404314
 30
0.0
 11
183.41351076800811
 21
165.1260731324862
 31
0.0
  0
LINE
  5
68E2
  8
DANMEN
  6
CONTINUOUS
 10
182.41351347854931
 20
165.1260736391508
 30
0.0
 11
181.91351443222359
 21
165.1260736391508
 31
0.0
  0
LINE
  5
68E3
  8
DANMEN
  6
CONTINUOUS
 10
183.91351347854931
 20
167.6260736391508
 30
0.0
 11
183.91351347854931
 21
163.6260736391508
 31
0.0
  0
LINE
  5
68E4
  8
DANMEN
  6
CONTINUOUS
 10
182.41351347854931
 20
166.826073448416
 30
0.0
 11
182.41351347854931
 21
163.6260736391508
 31
0.0
  0
LINE
  5
68E5
  8
DANMEN
  6
CONTINUOUS
 10
182.41351347854931
 20
163.6260736391508
 30
0.0
 11
183.91351347854931
 21
163.6260736391508
 31
0.0
  0
LINE
  5
68E6
  8
DANMEN
  6
CONTINUOUS
 10
184.41351347854919
 20
164.22607306694621
 30
0.0
 11
184.41351347854919
 21
163.6260736391508
 31
0.0
  0
LINE
  5
68E7
  8
DANMEN
  6
DASHED
 10
183.41351347854931
 20
165.1260736391508
 30
0.0
 11
182.41351347854931
 21
165.1260736391508
 31
0.0
  0
LINE
  5
68E8
  8
DANMEN
  6
CONTINUOUS
 10
184.4135106039019
 20
164.22607270281469
 30
0.0
 11
183.91351347854931
 21
164.676070404314
 31
0.0
  0
ARC
  5
68E9
  8
DANMEN
  6
CONTINUOUS
 10
187.2135134547074
 20
168.1260736391508
 30
0.0
 40
0.5
 50
0.0
 51
90.0
  0
LINE
  5
68F5
  8
DANMEN
  6
CONTINUOUS
 10
129.36350735119171
 20
296.62607363915077
 30
0.0
 11
161.7135134547074
 21
296.62607363915077
 31
0.0
  0
LINE
  5
68F6
  8
DANMEN
  6
CONTINUOUS
 10
139.5135134666283
 20
298.32607363915082
 30
0.0
 11
137.9135134427865
 21
298.32607363915082
 31
0.0
  0
LINE
  5
68F8
  8
DANMEN
  6
CONTINUOUS
 10
134.91351345470741
 20
285.62607363915077
 30
0.0
 11
160.91351345470741
 21
285.62607363915077
 31
0.0
  0
LINE
  5
68F9
  8
DANMEN
  6
CONTINUOUS
 10
123.2135134547074
 20
323.62607363915077
 30
0.0
 11
182.2135134547074
 21
323.62607363915077
 31
0.0
  0
LINE
  5
68FA
  8
DANMEN
  6
CONTINUOUS
 10
129.3635134547074
 20
296.62607363915077
 30
0.0
 11
129.3635134547074
 21
273.62607363915077
 31
0.0
  0
LINE
  5
68FB
  8
DANMEN
  6
CONTINUOUS
 10
127.7135134547074
 20
296.62607363915077
 30
0.0
 11
127.7135134547074
 21
269.12607363915077
 31
0.0
  0
LINE
  5
68FE
  8
DANMEN
  6
CONTINUOUS
 10
135.41351345470741
 20
285.62607363915077
 30
0.0
 11
135.41351345470741
 21
225.6260736391508
 31
0.0
  0
LINE
  5
68FF
  8
DANMEN
  6
CONTINUOUS
 10
134.91351345470741
 20
285.62607363915077
 30
0.0
 11
134.91351345470741
 21
225.6260736391508
 31
0.0
  0
LINE
  5
6900
  8
DANMEN
  6
CONTINUOUS
 10
119.3635134547074
 20
288.62607363915089
 30
0.0
 11
119.3635134547074
 21
225.6260736391508
 31
0.0
  0
LINE
  5
6901
  8
DANMEN
  6
CONTINUOUS
 10
125.7135134547074
 20
296.62607363915077
 30
0.0
 11
125.7135134547074
 21
225.6260736391508
 31
0.0
  0
LINE
  5
6902
  8
DANMEN
  6
CONTINUOUS
 10
117.7135134547074
 20
289.12607380207152
 30
0.0
 11
117.7135134547074
 21
225.6260736391508
 31
0.0
  0
LINE
  5
6906
  8
DANMEN
  6
CONTINUOUS
 10
129.91351345470741
 20
269.12607363915077
 30
0.0
 11
129.91351345470741
 21
225.6260736391508
 31
0.0
  0
LINE
  5
690B
  8
DANMEN
  6
CONTINUOUS
 10
134.5287371438572
 20
273.62607363915089
 30
0.0
 11
129.91351345470741
 21
269.0108499500011
 31
0.0
  0
LINE
  5
690C
  8
DANMEN
  6
CONTINUOUS
 10
134.91351345470741
 20
272.596636387628
 30
0.0
 11
130.7076526675344
 21
268.39077560045502
 31
0.0
  0
LINE
  5
690D
  8
DANMEN
  6
CONTINUOUS
 10
134.91351345470741
 20
271.182422825255
 30
0.0
 11
131.90429491261929
 21
268.17320428316691
 31
0.0
  0
LINE
  5
690E
  8
DANMEN
  6
CONTINUOUS
 10
129.91351345470741
 20
271.06972445304677
 30
0.0
 11
133.01130889391351
 21
267.97192901384068
 31
0.0
  0
LINE
  5
690F
  8
DANMEN
  6
CONTINUOUS
 10
129.91351345470741
 20
272.48393801541988
 30
0.0
 11
134.739792136814
 21
267.65765933331329
 31
0.0
  0
LINE
  5
6910
  8
DANMEN
  6
CONTINUOUS
 10
130.18559139334951
 20
273.62607363915077
 30
0.0
 11
134.91351345470741
 21
268.89815157779287
 31
0.0
  0
LINE
  5
6911
  8
DANMEN
  6
CONTINUOUS
 10
129.91351345470741
 20
273.62607363915077
 30
0.0
 11
129.91351345470741
 21
269.12607363915077
 31
0.0
  0
ARC
  5
6912
  8
DANMEN
  6
CONTINUOUS
 10
129.41351345470741
 20
269.12607363915077
 30
0.0
 40
0.5
 50
270.0
 51
0.0
  0
LINE
  5
6913
  8
DANMEN
  6
CONTINUOUS
 10
129.41351345470741
 20
268.62607363915077
 30
0.0
 11
134.91351345470741
 21
267.62607363915077
 31
0.0
  0
ARC
  5
6914
  8
DANMEN
  6
CONTINUOUS
 10
128.2135134547074
 20
269.12607363915077
 30
0.0
 40
0.5
 50
180.0
 51
270.0
  0
LINE
  5
6915
  8
DANMEN
  6
CONTINUOUS
 10
128.2135134547074
 20
268.62607363915077
 30
0.0
 11
129.41351345470741
 21
268.62607363915077
 31
0.0
  0
LINE
  5
6916
  8
DANMEN
  6
CONTINUOUS
 10
134.91351345470741
 20
269.7682092628819
 30
0.0
 11
133.10093715770429
 21
267.95563296587869
 31
0.0
  0
LINE
  5
6917
  8
DANMEN
  6
CONTINUOUS
 10
134.91351345470741
 20
268.35399570050868
 30
0.0
 11
134.29757940278921
 21
267.73806164859047
 31
0.0
  0
LINE
  5
6918
  8
DANMEN
  6
CONTINUOUS
 10
129.91351345470741
 20
269.65551089067372
 30
0.0
 11
131.2828256510131
 21
268.28619869436801
 31
0.0
  0
LINE
  5
6919
  8
DANMEN
  6
CONTINUOUS
 10
129.3635134547074
 20
273.62607363915077
 30
0.0
 11
129.91351345470741
 21
273.62607363915077
 31
0.0
  0
LINE
  5
691A
  8
DANMEN
  6
CONTINUOUS
 10
131.59980495572259
 20
273.62607363915077
 30
0.0
 11
134.91351345470741
 21
270.31236514016598
 31
0.0
  0
LINE
  5
691B
  8
DANMEN
  6
CONTINUOUS
 10
133.0140185180957
 20
273.62607363915077
 30
0.0
 11
134.91351345470741
 21
271.7265787025392
 31
0.0
  0
LINE
  5
691C
  8
DANMEN
  6
CONTINUOUS
 10
130.28609645673779
 20
273.62607363915077
 30
0.0
 11
129.9135134547073
 21
273.25349063712042
 31
0.0
  0
LINE
  5
691D
  8
DANMEN
  6
CONTINUOUS
 10
131.7003100191109
 20
273.62607363915077
 30
0.0
 11
129.91351345470741
 21
271.83927707474732
 31
0.0
  0
LINE
  5
691E
  8
DANMEN
  6
CONTINUOUS
 10
133.11452358148409
 20
273.62607363915089
 30
0.0
 11
129.91351345470741
 21
270.42506351237421
 31
0.0
  0
LINE
  5
691F
  8
DANMEN
  6
CONTINUOUS
 10
134.4282320804688
 20
273.62607363915077
 30
0.0
 11
134.91351345470741
 21
273.14079226491231
 31
0.0
  0
LINE
  5
6928
  8
DANMEN
  6
CONTINUOUS
 10
119.3635134547074
 20
321.97607363915091
 30
0.0
 11
119.3635134547074
 21
299.27607363915092
 31
0.0
  0
LINE
  5
6929
  8
DANMEN
  6
CONTINUOUS
 10
117.7135134547074
 20
323.12607363915077
 30
0.0
 11
117.7135134547074
 21
289.12607363915077
 31
0.0
  0
ARC
  5
692A
  8
DANMEN
  6
CONTINUOUS
 10
120.3635134547074
 20
299.27607363915092
 30
0.0
 40
1.0
 50
180.0
 51
270.0
  0
LINE
  5
692B
  8
DANMEN
  6
CONTINUOUS
 10
119.2135134547074
 20
296.62607363915077
 30
0.0
 11
127.7135134547074
 21
296.62607363915077
 31
0.0
  0
LINE
  5
692E
  8
DANMEN
  6
CONTINUOUS
 10
119.2135134547074
 20
296.62607363915077
 30
0.0
 11
119.2135134547074
 21
289.12607363915077
 31
0.0
  0
ARC
  5
692F
  8
DANMEN
  6
CONTINUOUS
 10
118.7135134547074
 20
289.12607363915077
 30
0.0
 40
0.5
 50
270.0
 51
0.0
  0
ARC
  5
6930
  8
DANMEN
  6
CONTINUOUS
 10
118.2135134547074
 20
289.12607363915077
 30
0.0
 40
0.5
 50
180.00001866933439
 51
270.00005532475791
  0
LINE
  5
6931
  8
DANMEN
  6
CONTINUOUS
 10
118.2135134547074
 20
288.62607363915089
 30
0.0
 11
118.7135134547074
 21
288.62607363915089
 31
0.0
  0
LINE
  5
6932
  8
DANMEN
  6
CONTINUOUS
 10
117.7135134547074
 20
288.62607363915089
 30
0.0
 11
119.3635134547074
 21
288.62607363915089
 31
0.0
  0
LINE
  5
6933
  8
DANMEN
  6
CONTINUOUS
 10
135.41351345470741
 20
300.65637979348099
 30
0.0
 11
135.41351345470741
 21
299.27607363915092
 31
0.0
  0
LINE
  5
6934
  8
DANMEN
  6
CONTINUOUS
 10
136.91351345470741
 20
300.57213441586129
 30
0.0
 11
136.91351345470741
 21
299.3260736272299
 31
0.0
  0
LINE
  5
6935
  8
DANMEN
  6
CONTINUOUS
 10
120.3635134547074
 20
298.27607363915092
 30
0.0
 11
134.41351345470741
 21
298.27607363915092
 31
0.0
  0
ARC
  5
6936
  8
DANMEN
  6
CONTINUOUS
 10
134.41351345470741
 20
299.27607363915092
 30
0.0
 40
1.0
 50
270.0
 51
0.0
  0
ARC
  5
6937
  8
DANMEN
  6
CONTINUOUS
 10
137.91351345470741
 20
299.32607363915082
 30
0.0
 40
1.0
 50
180.0
 51
270.0
  0
LINE
  5
6938
  8
DANMEN
  6
CONTINUOUS
 10
137.6135134547074
 20
301.9260736391509
 30
0.0
 11
137.6135134547074
 21
301.66300564919749
 31
0.0
  0
ARC
  5
6939
  8
DANMEN
  6
CONTINUOUS
 10
137.91351345470741
 20
300.57213443773389
 30
0.0
 40
1.0
 50
114.6243183521634
 51
180.0
  0
ARC
  5
693A
  8
DANMEN
  6
CONTINUOUS
 10
137.41351345470741
 20
301.66300564919749
 30
0.0
 40
0.2
 50
294.62431835216341
 51
0.0
  0
ARC
  5
693B
  8
DANMEN
  6
CONTINUOUS
 10
137.41351345470741
 20
300.65637979348099
 30
0.0
 40
2.0
 50
128.29347728737571
 51
180.0
  0
LINE
  5
693C
  8
DANMEN
  6
CONTINUOUS
 10
137.31351345470739
 20
302.22607363915091
 30
0.0
 11
136.17413408144591
 21
302.22607363915091
 31
0.0
  0
ARC
  5
693D
  8
DANMEN
  6
CONTINUOUS
 10
137.31351345470739
 20
301.9260736391509
 30
0.0
 40
0.3
 50
0.0
 51
90.0
  0
LINE
  5
693E
  8
DANMEN
  6
CONTINUOUS
 10
119.3635134547074
 20
321.97607363915091
 30
0.0
 11
123.2135134547074
 21
321.97607363915091
 31
0.0
  0
LINE
  5
693F
  8
DANMEN
  6
CONTINUOUS
 10
118.2135134547074
 20
323.62607363915077
 30
0.0
 11
123.2135134547074
 21
323.62607363915077
 31
0.0
  0
ARC
  5
6940
  8
DANMEN
  6
CONTINUOUS
 10
118.2135134547074
 20
323.12607363915077
 30
0.0
 40
0.5
 50
89.999982013910966
 51
180.00001866933439
  0
ARC
  5
6941
  8
DANMEN
  6
CONTINUOUS
 10
123.2135134547074
 20
323.12607363915077
 30
0.0
 40
0.5
 50
0.0
 51
90.0
  0
ARC
  5
6942
  8
DANMEN
  6
CONTINUOUS
 10
123.2135134547074
 20
322.47607363915091
 30
0.0
 40
0.5
 50
270.0
 51
0.0
  0
LINE
  5
6943
  8
DANMEN
  6
CONTINUOUS
 10
123.7135134547074
 20
323.12607363915077
 30
0.0
 11
123.7135134547074
 21
322.47607363915091
 31
0.0
  0
LINE
  5
694A
  8
DANMEN
  6
CONTINUOUS
 10
168.4135134547075
 20
269.12607363915077
 30
0.0
 11
168.41351345470741
 21
288.62607363915089
 31
0.0
  0
LINE
  5
694B
  8
DANMEN
  6
CONTINUOUS
 10
166.4635136454423
 20
273.62607363915077
 30
0.0
 11
166.4635136454423
 21
286.32607077812793
 31
0.0
  0
LINE
  5
694C
  8
DANMEN
  6
CONTINUOUS
 10
154.91351345470741
 20
279.62607363915077
 30
0.0
 11
142.91351345470741
 21
285.62607363915077
 31
0.0
  0
LINE
  5
694D
  8
DANMEN
  6
CONTINUOUS
 10
142.91351345470741
 20
279.62607363915077
 30
0.0
 11
154.91351345470741
 21
285.62607363915077
 31
0.0
  0
LINE
  5
694E
  8
DANMEN
  6
CONTINUOUS
 10
157.41351345470741
 20
285.62607363915077
 30
0.0
 11
157.41351345470741
 21
225.6260736391508
 31
0.0
  0
LINE
  5
694F
  8
DANMEN
  6
CONTINUOUS
 10
158.41351345470741
 20
285.62607363915077
 30
0.0
 11
158.41351345470741
 21
225.6260736391508
 31
0.0
  0
LINE
  5
6950
  8
DANMEN
  6
CONTINUOUS
 10
157.91351345470741
 20
285.62607363915077
 30
0.0
 11
157.91351345470741
 21
225.6260736391508
 31
0.0
  0
LINE
  5
6951
  8
DANMEN
  6
CONTINUOUS
 10
160.41351345470741
 20
285.62607363915077
 30
0.0
 11
160.41351345470741
 21
225.6260736391508
 31
0.0
  0
LINE
  5
6952
  8
DANMEN
  6
CONTINUOUS
 10
155.41351345470741
 20
285.62607363915077
 30
0.0
 11
155.41351345470741
 21
225.6260736391508
 31
0.0
  0
LINE
  5
6953
  8
DANMEN
  6
CONTINUOUS
 10
142.41351345470741
 20
285.62607363915077
 30
0.0
 11
142.41351345470741
 21
225.6260736391508
 31
0.0
  0
LINE
  5
6954
  8
DANMEN
  6
CONTINUOUS
 10
160.91351345470741
 20
285.62607363915077
 30
0.0
 11
160.91351345470741
 21
225.6260736391508
 31
0.0
  0
LINE
  5
6955
  8
DANMEN
  6
CONTINUOUS
 10
154.91351345470741
 20
285.62607363915077
 30
0.0
 11
154.91351345470741
 21
225.6260736391508
 31
0.0
  0
LINE
  5
6956
  8
DANMEN
  6
CONTINUOUS
 10
142.91351345470741
 20
285.62607363915077
 30
0.0
 11
142.91351345470741
 21
225.6260736391508
 31
0.0
  0
LINE
  5
6957
  8
DANMEN
  6
CONTINUOUS
 10
186.06351345470739
 20
288.62607363915089
 30
0.0
 11
186.06351345470739
 21
225.6260736391508
 31
0.0
  0
LINE
  5
6958
  8
DANMEN
  6
CONTINUOUS
 10
187.7135134547074
 20
289.12607380207152
 30
0.0
 11
187.7135134547074
 21
225.6260736391508
 31
0.0
  0
LINE
  5
6959
  8
DANMEN
  6
CONTINUOUS
 10
165.91351345470741
 20
269.12607363915077
 30
0.0
 11
165.91351345470741
 21
225.6260736391508
 31
0.0
  0
LINE
  5
695A
  8
DANMEN
  6
CONTINUOUS
 10
168.41351345470741
 20
269.12607363915077
 30
0.0
 11
168.41351345470741
 21
225.6260736391508
 31
0.0
  0
LINE
  5
695C
  8
DANMEN
  6
CONTINUOUS
 10
142.91351345470741
 20
279.62607363915077
 30
0.0
 11
154.91351345470741
 21
279.62607363915077
 31
0.0
  0
LINE
  5
695D
  8
DANMEN
  6
CONTINUOUS
 10
165.6414355160652
 20
273.62607363915077
 30
0.0
 11
160.91351345470741
 21
268.8981515777931
 31
0.0
  0
LINE
  5
695E
  8
DANMEN
  6
CONTINUOUS
 10
165.91351345470741
 20
272.48393801541988
 30
0.0
 11
161.08723477260079
 21
267.65765933331329
 31
0.0
  0
LINE
  5
695F
  8
DANMEN
  6
CONTINUOUS
 10
165.91351345470741
 20
271.06972445304677
 30
0.0
 11
162.8157180155012
 21
267.97192901384068
 31
0.0
  0
LINE
  5
6960
  8
DANMEN
  6
CONTINUOUS
 10
160.91351345470741
 20
271.18242282525478
 30
0.0
 11
163.92273199679539
 21
268.17320428316691
 31
0.0
  0
LINE
  5
6961
  8
DANMEN
  6
CONTINUOUS
 10
160.91351345470741
 20
272.59663638762788
 30
0.0
 11
165.11937424188031
 21
268.39077560045502
 31
0.0
  0
LINE
  5
6962
  8
DANMEN
  6
CONTINUOUS
 10
161.2982897655576
 20
273.62607363915077
 30
0.0
 11
165.91351345470741
 21
269.0108499500011
 31
0.0
  0
LINE
  5
6963
  8
DANMEN
  6
CONTINUOUS
 10
165.9135134547075
 20
269.12607363915077
 30
0.0
 11
165.91351345470741
 21
273.62607363915077
 31
0.0
  0
LINE
  5
6964
  8
DANMEN
  6
CONTINUOUS
 10
167.9135134547075
 20
268.62607363915077
 30
0.0
 11
166.41351345470741
 21
268.62607363915077
 31
0.0
  0
LINE
  5
6965
  8
DANMEN
  6
CONTINUOUS
 10
160.91351345470741
 20
267.62607363915077
 30
0.0
 11
166.41351345470741
 21
268.62607363915077
 31
0.0
  0
LINE
  5
6966
  8
DANMEN
  6
CONTINUOUS
 10
160.91351345470741
 20
268.35399570050862
 30
0.0
 11
161.5294475066255
 21
267.73806164859047
 31
0.0
  0
LINE
  5
6967
  8
DANMEN
  6
CONTINUOUS
 10
160.91351345470741
 20
269.76820926288173
 30
0.0
 11
162.7260897517105
 21
267.95563296587869
 31
0.0
  0
LINE
  5
6968
  8
DANMEN
  6
CONTINUOUS
 10
165.91351345470741
 20
269.65551089067372
 30
0.0
 11
164.5442012584017
 21
268.28619869436801
 31
0.0
  0
ARC
  5
6969
  8
DANMEN
  6
CONTINUOUS
 10
166.41351345470741
 20
269.12607363915077
 30
0.0
 40
0.5
 50
180.0
 51
270.0
  0
ARC
  5
696A
  8
DANMEN
  6
CONTINUOUS
 10
167.9135134547075
 20
269.12607363915077
 30
0.0
 40
0.5
 50
270.0
 51
0.0
  0
LINE
  5
696B
  8
DANMEN
  6
CONTINUOUS
 10
164.22722195369209
 20
273.62607363915077
 30
0.0
 11
160.91351345470741
 21
270.31236514016621
 31
0.0
  0
LINE
  5
696C
  8
DANMEN
  6
CONTINUOUS
 10
162.7125033279307
 20
273.62607363915077
 30
0.0
 11
165.91351345470741
 21
270.42506351237421
 31
0.0
  0
LINE
  5
696D
  8
DANMEN
  6
CONTINUOUS
 10
161.39879482894591
 20
273.62607363915077
 30
0.0
 11
160.91351345470741
 21
273.14079226491231
 31
0.0
  0
LINE
  5
696E
  8
DANMEN
  6
CONTINUOUS
 10
162.8130083913191
 20
273.62607363915077
 30
0.0
 11
160.91351345470741
 21
271.72657870253931
 31
0.0
  0
LINE
  5
696F
  8
DANMEN
  6
CONTINUOUS
 10
164.12671689030381
 20
273.62607363915077
 30
0.0
 11
165.91351345470741
 21
271.83927707474732
 31
0.0
  0
LINE
  5
6970
  8
DANMEN
  6
CONTINUOUS
 10
165.54093045267689
 20
273.62607363915077
 30
0.0
 11
165.91351345470741
 21
273.25349063712042
 31
0.0
  0
LINE
  5
6971
  8
DANMEN
  6
CONTINUOUS
 10
166.4635136454423
 20
273.62607363915077
 30
0.0
 11
165.91351345470741
 21
273.62607363915077
 31
0.0
  0
LINE
  5
6973
  8
DANMEN
  6
CONTINUOUS
 10
171.01351345470741
 20
298.27607363915092
 30
0.0
 11
185.06351345470739
 21
298.27607363915092
 31
0.0
  0
LINE
  5
6974
  8
DANMEN
  6
CONTINUOUS
 10
168.41351345470741
 20
296.62607363915077
 30
0.0
 11
186.06351345470739
 21
296.62607363915077
 31
0.0
  0
LINE
  5
6975
  8
DANMEN
  6
CONTINUOUS
 10
143.01351345470741
 20
298.27607363915092
 30
0.0
 11
162.41351345470741
 21
298.27607363915092
 31
0.0
  0
LINE
  5
6976
  8
DANMEN
  6
CONTINUOUS
 10
142.01351345470741
 20
300.65637979348099
 30
0.0
 11
142.01351345470741
 21
299.27607363915092
 31
0.0
  0
LINE
  5
6977
  8
DANMEN
  6
CONTINUOUS
 10
140.51351345470741
 20
300.57213441586129
 30
0.0
 11
140.51351345470741
 21
299.3260736272299
 31
0.0
  0
ARC
  5
6978
  8
DANMEN
  6
CONTINUOUS
 10
143.01351345470741
 20
299.27607363915092
 30
0.0
 40
1.0
 50
180.0
 51
270.0
  0
ARC
  5
6979
  8
DANMEN
  6
CONTINUOUS
 10
139.51351345470741
 20
299.32607363915082
 30
0.0
 40
1.0
 50
270.0
 51
0.0
  0
ARC
  5
697A
  8
DANMEN
  6
CONTINUOUS
 10
140.01351345470741
 20
300.65637979348099
 30
0.0
 40
2.0
 50
0.0
 51
51.706522712624277
  0
ARC
  5
697B
  8
DANMEN
  6
CONTINUOUS
 10
140.01351345470741
 20
301.66300564919749
 30
0.0
 40
0.2
 50
180.0
 51
245.3756816478346
  0
ARC
  5
697C
  8
DANMEN
  6
CONTINUOUS
 10
139.51351345470741
 20
300.57213443773389
 30
0.0
 40
1.0
 50
0.0
 51
65.375681647836572
  0
LINE
  5
697D
  8
DANMEN
  6
CONTINUOUS
 10
139.81351345470739
 20
301.9260736391509
 30
0.0
 11
139.81351345470739
 21
301.66300564919749
 31
0.0
  0
LINE
  5
697E
  8
DANMEN
  6
CONTINUOUS
 10
141.25289281299899
 20
302.22607363915091
 30
0.0
 11
140.11351343086551
 21
302.22607363915091
 31
0.0
  0
ARC
  5
697F
  8
DANMEN
  6
CONTINUOUS
 10
140.1135134547074
 20
301.9260736391509
 30
0.0
 40
0.3
 50
90.0
 51
180.0
  0
LINE
  5
6980
  8
DANMEN
  6
CONTINUOUS
 10
168.51351345470741
 20
300.57213441586129
 30
0.0
 11
168.51351345470741
 21
299.3260736272299
 31
0.0
  0
LINE
  5
6981
  8
DANMEN
  6
CONTINUOUS
 10
170.01351345470741
 20
300.65637979348099
 30
0.0
 11
170.01351345470741
 21
299.27607363915092
 31
0.0
  0
LINE
  5
6982
  8
DANMEN
  6
CONTINUOUS
 10
164.91351345470741
 20
300.57213441586129
 30
0.0
 11
164.91351345470741
 21
299.3260736272299
 31
0.0
  0
LINE
  5
6983
  8
DANMEN
  6
CONTINUOUS
 10
163.41351345470741
 20
300.65637979348099
 30
0.0
 11
163.41351345470741
 21
299.27607363915092
 31
0.0
  0
LINE
  5
6984
  8
DANMEN
  6
CONTINUOUS
 10
166.72253044908231
 20
288.62607363915089
 30
0.0
 11
168.41351345470741
 21
288.62607363915089
 31
0.0
  0
ARC
  5
6985
  8
DANMEN
  6
CONTINUOUS
 10
167.51351345470741
 20
299.32607363915082
 30
0.0
 40
1.0
 50
270.0
 51
0.0
  0
LINE
  5
6986
  8
DANMEN
  6
CONTINUOUS
 10
168.41351345470741
 20
288.62607363915089
 30
0.0
 11
166.91351345470741
 21
288.62607363915089
 31
0.0
  0
LINE
  5
6987
  8
DANMEN
  6
CONTINUOUS
 10
161.7135134547074
 20
290.62607363915089
 30
0.0
 11
161.7135134547074
 21
296.62607363915077
 31
0.0
  0
LINE
  5
6988
  8
DANMEN
  6
CONTINUOUS
 10
162.91351345470741
 20
292.62607363915089
 30
0.0
 11
162.91351345470741
 21
296.62607363915077
 31
0.0
  0
LINE
  5
6989
  8
DANMEN
  6
CONTINUOUS
 10
166.76351345470741
 20
290.62607363915077
 30
0.0
 11
166.76351345470741
 21
296.62607363915077
 31
0.0
  0
LINE
  5
698A
  8
DANMEN
  6
CONTINUOUS
 10
166.21539624303441
 20
291.21295013149961
 30
0.0
 11
164.0118056870925
 21
294.18997635981623
 31
0.0
  0
LINE
  5
698B
  8
DANMEN
  6
CONTINUOUS
 10
164.7135134547074
 20
291.22498766744349
 30
0.0
 11
162.7135134547074
 21
293.92696532866478
 31
0.0
  0
LINE
  5
698C
  8
DANMEN
  6
CONTINUOUS
 10
162.91351345470741
 20
292.62607363915089
 30
0.0
 11
162.59390184119351
 21
291.02801557158182
 31
0.0
  0
LINE
  5
698D
  8
DANMEN
  6
CONTINUOUS
 10
162.10361150334811
 20
290.62607363915089
 30
0.0
 11
161.7135134547074
 21
290.62607363915089
 31
0.0
  0
ARC
  5
698E
  8
DANMEN
  6
CONTINUOUS
 10
162.10361150334811
 20
291.12607363915089
 30
0.0
 40
0.5
 50
270.0
 51
348.69006752597988
  0
LINE
  5
698F
  8
DANMEN
  6
CONTINUOUS
 10
165.91351345470741
 20
290.32607363915088
 30
0.0
 11
165.91351345470741
 21
289.62607363915089
 31
0.0
  0
LINE
  5
6990
  8
DANMEN
  6
CONTINUOUS
 10
166.76351345470741
 20
290.62607363915077
 30
0.0
 11
166.2135134547074
 21
290.62607363915077
 31
0.0
  0
ARC
  5
6991
  8
DANMEN
  6
CONTINUOUS
 10
166.2135134547074
 20
290.32607363915088
 30
0.0
 40
0.3
 50
90.0
 51
180.0
  0
LINE
  5
6992
  8
DANMEN
  6
CONTINUOUS
 10
165.91351345470741
 20
289.62607363915089
 30
0.0
 11
166.27531685358241
 21
288.90246684140089
 31
0.0
  0
ARC
  5
6993
  8
DANMEN
  6
CONTINUOUS
 10
166.72253044908231
 20
289.12607363915077
 30
0.0
 40
0.5
 50
206.565051177078
 51
270.0
  0
ARC
  5
6994
  8
DANMEN
  6
CONTINUOUS
 10
166.01351345470741
 20
290.89175620307708
 30
0.0
 40
0.3
 50
289.47122063449132
 51
0.0
  0
ARC
  5
6995
  8
DANMEN
  6
CONTINUOUS
 10
166.2135134547074
 20
290.32607077812793
 30
0.0
 40
0.3
 50
109.4712206344912
 51
180.0
  0
ARC
  5
6996
  8
DANMEN
  6
CONTINUOUS
 10
165.81351345470739
 20
290.91547706642223
 30
0.0
 40
0.5
 50
0.0
 51
36.50879193555059
  0
LINE
  5
6997
  8
DANMEN
  6
CONTINUOUS
 10
166.31351345470739
 20
290.89175620307708
 30
0.0
 11
166.31351345470739
 21
290.91547706642223
 31
0.0
  0
ARC
  5
6998
  8
DANMEN
  6
CONTINUOUS
 10
165.2135134547074
 20
287.32607077812793
 30
0.0
 40
0.5
 50
180.0
 51
270.0
  0
LINE
  5
6999
  8
DANMEN
  6
CONTINUOUS
 10
164.7135134547074
 20
287.32607077812793
 30
0.0
 11
164.7135134547074
 21
291.22498766744349
 31
0.0
  0
LINE
  5
699A
  8
DANMEN
  6
CONTINUOUS
 10
166.91351345470741
 20
288.32607077812793
 30
0.0
 11
166.91351345470741
 21
288.62607363915089
 31
0.0
  0
LINE
  5
699B
  8
DANMEN
  6
CONTINUOUS
 10
166.91351345470741
 20
288.32607077812793
 30
0.0
 11
165.91351345470741
 21
288.32607077812793
 31
0.0
  0
LINE
  5
699C
  8
DANMEN
  6
CONTINUOUS
 10
165.9635136454423
 20
286.82607077812793
 30
0.0
 11
165.2135134547074
 21
286.82607077812793
 31
0.0
  0
ARC
  5
699D
  8
DANMEN
  6
CONTINUOUS
 10
165.9635136454423
 20
286.32607077812793
 30
0.0
 40
0.5
 50
0.0
 51
90.0
  0
LINE
  5
699E
  8
DANMEN
  6
CONTINUOUS
 10
165.91351345470741
 20
288.32607077812793
 30
0.0
 11
165.91351345470741
 21
290.32607077812793
 31
0.0
  0
ARC
  5
699F
  8
DANMEN
  6
CONTINUOUS
 10
162.41351345470741
 20
299.27607363915092
 30
0.0
 40
1.0
 50
270.0
 51
0.0
  0
LINE
  5
69A0
  8
DANMEN
  6
CONTINUOUS
 10
164.02912108643821
 20
296.03802432209079
 30
0.0
 11
162.7135134547074
 21
295.12696532866482
 31
0.0
  0
LINE
  5
69A1
  8
DANMEN
  6
CONTINUOUS
 10
162.7135134547074
 20
293.92696532866478
 30
0.0
 11
162.7135134547074
 21
295.12696532866482
 31
0.0
  0
LINE
  5
69A2
  8
DANMEN
  6
CONTINUOUS
 10
162.91351345470741
 20
296.62607363915077
 30
0.0
 11
166.76351345470741
 21
296.62607363915077
 31
0.0
  0
LINE
  5
69A3
  8
DANMEN
  6
CONTINUOUS
 10
167.5135134666283
 20
298.32607363915082
 30
0.0
 11
165.9135134427865
 21
298.32607363915082
 31
0.0
  0
ARC
  5
69A4
  8
DANMEN
  6
CONTINUOUS
 10
165.91351345470741
 20
299.32607363915082
 30
0.0
 40
1.0
 50
180.0
 51
270.0
  0
ARC
  5
69A5
  8
DANMEN
  6
CONTINUOUS
 10
164.31364897525029
 20
295.38360074512542
 30
0.0
 40
0.5
 50
304.70262216555312
 51
0.0
  0
ARC
  5
69A6
  8
DANMEN
  6
CONTINUOUS
 10
164.25293536008871
 20
294.36846019886269
 30
0.0
 40
0.3
 50
124.70262216555309
 51
216.508791935549
  0
LINE
  5
69A7
  8
DANMEN
  6
CONTINUOUS
 10
164.59830754955229
 20
294.9725417516994
 30
0.0
 11
164.08214021550751
 21
294.61509559491822
 31
0.0
  0
ARC
  5
69A8
  8
DANMEN
  6
CONTINUOUS
 10
164.31364897525029
 20
295.62696532866482
 30
0.0
 40
0.5
 50
0.0
 51
90.0
  0
ARC
  5
69A9
  8
DANMEN
  6
CONTINUOUS
 10
164.31377966074021
 20
295.62696532866482
 30
0.0
 40
0.5
 50
90.0
 51
124.70262216555309
  0
LINE
  5
69AA
  8
DANMEN
  6
CONTINUOUS
 10
164.81364897525029
 20
295.62696532463673
 30
0.0
 11
164.81364897525029
 21
295.38360074512542
 31
0.0
  0
LINE
  5
69AB
  8
DANMEN
  6
CONTINUOUS
 10
164.31377968481371
 20
296.12696532866482
 30
0.0
 11
164.31364897525029
 21
296.12696532866482
 31
0.0
  0
LINE
  5
69AC
  8
DANMEN
  6
CONTINUOUS
 10
168.41351345470741
 20
288.62607363915089
 30
0.0
 11
168.41351345470741
 21
296.62607363915077
 31
0.0
  0
ARC
  5
69AD
  8
DANMEN
  6
CONTINUOUS
 10
171.01351345470741
 20
299.27607363915092
 30
0.0
 40
1.0
 50
180.0
 51
270.0
  0
ARC
  5
69AE
  8
DANMEN
  6
CONTINUOUS
 10
165.31351345470739
 20
301.9260736391509
 30
0.0
 40
0.3
 50
0.0
 51
90.0
  0
LINE
  5
69AF
  8
DANMEN
  6
CONTINUOUS
 10
165.31351345470739
 20
302.22607363915091
 30
0.0
 11
164.17413408144591
 21
302.22607363915091
 31
0.0
  0
ARC
  5
69B0
  8
DANMEN
  6
CONTINUOUS
 10
165.41351345470741
 20
300.65637979348099
 30
0.0
 40
2.0
 50
128.29347728737571
 51
180.0
  0
ARC
  5
69B1
  8
DANMEN
  6
CONTINUOUS
 10
165.41351345470741
 20
301.66300564919749
 30
0.0
 40
0.2
 50
294.62431835216341
 51
0.0
  0
ARC
  5
69B2
  8
DANMEN
  6
CONTINUOUS
 10
165.91351345470741
 20
300.57213443773389
 30
0.0
 40
1.0
 50
114.6243183521634
 51
180.0
  0
LINE
  5
69B3
  8
DANMEN
  6
CONTINUOUS
 10
165.6135134547074
 20
301.9260736391509
 30
0.0
 11
165.6135134547074
 21
301.66300564919749
 31
0.0
  0
ARC
  5
69B4
  8
DANMEN
  6
CONTINUOUS
 10
168.1135134547074
 20
301.9260736391509
 30
0.0
 40
0.3
 50
90.0
 51
180.0
  0
LINE
  5
69B5
  8
DANMEN
  6
CONTINUOUS
 10
169.25289281299899
 20
302.22607363915091
 30
0.0
 11
168.11351343086551
 21
302.22607363915091
 31
0.0
  0
LINE
  5
69B6
  8
DANMEN
  6
CONTINUOUS
 10
167.81351345470739
 20
301.9260736391509
 30
0.0
 11
167.81351345470739
 21
301.66300564919749
 31
0.0
  0
ARC
  5
69B7
  8
DANMEN
  6
CONTINUOUS
 10
167.51351345470741
 20
300.57213443773389
 30
0.0
 40
1.0
 50
0.0
 51
65.375681647836572
  0
ARC
  5
69B8
  8
DANMEN
  6
CONTINUOUS
 10
168.01351345470741
 20
301.66300564919749
 30
0.0
 40
0.2
 50
180.0
 51
245.3756816478346
  0
ARC
  5
69B9
  8
DANMEN
  6
CONTINUOUS
 10
168.01351345470741
 20
300.65637979348099
 30
0.0
 40
2.0
 50
0.0
 51
51.706522712624277
  0
LINE
  5
69BA
  8
DANMEN
  6
CONTINUOUS
 10
186.06351345470739
 20
321.97607363915091
 30
0.0
 11
186.06351345470739
 21
299.27607363915092
 31
0.0
  0
LINE
  5
69BB
  8
DANMEN
  6
CONTINUOUS
 10
187.7135134547074
 20
289.12607363915077
 30
0.0
 11
187.7135134547074
 21
323.12607363915077
 31
0.0
  0
LINE
  5
69BC
  8
DANMEN
  6
CONTINUOUS
 10
184.7135134547074
 20
288.62607363915089
 30
0.0
 11
187.2135136116656
 21
288.62607363915089
 31
0.0
  0
LINE
  5
69BD
  8
DANMEN
  6
CONTINUOUS
 10
186.06351345470739
 20
296.62607363915077
 30
0.0
 11
186.06351345470739
 21
289.82607363915082
 31
0.0
  0
ARC
  5
69BE
  8
DANMEN
  6
CONTINUOUS
 10
184.7135134547074
 20
289.12607363915077
 30
0.0
 40
0.5
 50
180.0
 51
270.0
  0
LINE
  5
69BF
  8
DANMEN
  6
CONTINUOUS
 10
184.2135134547074
 20
289.82607363915082
 30
0.0
 11
184.2135134547074
 21
289.12607363915077
 31
0.0
  0
LINE
  5
69C0
  8
DANMEN
  6
CONTINUOUS
 10
184.2135134547074
 20
289.82607363915082
 30
0.0
 11
186.06351345470739
 21
289.82607363915082
 31
0.0
  0
ARC
  5
69C1
  8
DANMEN
  6
CONTINUOUS
 10
185.06351345470739
 20
299.27607363915092
 30
0.0
 40
1.0
 50
270.0
 51
0.0
  0
ARC
  5
69C2
  8
DANMEN
  6
CONTINUOUS
 10
187.2135134547074
 20
289.12607363915077
 30
0.0
 40
0.5
 50
270.00001798608901
 51
0.0
  0
LINE
  5
69C3
  8
DANMEN
  6
CONTINUOUS
 10
182.2135134547074
 20
323.62607363915077
 30
0.0
 11
187.2135134547074
 21
323.62607363915077
 31
0.0
  0
ARC
  5
69C4
  8
DANMEN
  6
CONTINUOUS
 10
182.2135134547074
 20
323.12607363915077
 30
0.0
 40
0.5
 50
90.0
 51
180.0
  0
ARC
  5
69C5
  8
DANMEN
  6
CONTINUOUS
 10
182.2135134547074
 20
322.47607363915091
 30
0.0
 40
0.5
 50
180.0
 51
270.0
  0
LINE
  5
69C6
  8
DANMEN
  6
CONTINUOUS
 10
181.7135134547074
 20
323.12607363915077
 30
0.0
 11
181.7135134547074
 21
322.47607363915091
 31
0.0
  0
LINE
  5
69C7
  8
DANMEN
  6
CONTINUOUS
 10
182.2135134547074
 20
321.97607363915091
 30
0.0
 11
186.06351345470739
 21
321.97607363915091
 31
0.0
  0
ARC
  5
69C8
  8
DANMEN
  6
CONTINUOUS
 10
187.2135134547074
 20
323.12607363915077
 30
0.0
 40
0.5
 50
0.0
 51
89.999982013910966
  0
LINE
  5
6E64
  8
DANMEN
  6
CONTINUOUS
 10
474.99530129141681
 20
135.07134170522701
 30
0.0
 11
440.49530112849601
 21
135.07134170522701
 31
0.0
  0
LINE
  5
6E65
  8
DANMEN
  6
CONTINUOUS
 10
441.19530129141668
 20
133.42134170522701
 30
0.0
 11
474.99530129141681
 21
133.42134170522701
 31
0.0
  0
LINE
  5
6E66
  8
DANMEN
  6
CONTINUOUS
 10
440.49530129141669
 20
92.371341705227053
 30
0.0
 11
459.99530129141669
 21
92.37134170522711
 31
0.0
  0
LINE
  5
6E67
  8
DANMEN
  6
CONTINUOUS
 10
444.99530129141669
 20
94.321341514492204
 30
0.0
 11
457.69529843039379
 21
94.321341514492246
 31
0.0
  0
LINE
  5
6E68
  8
DANMEN
  6
CONTINUOUS
 10
396.99530129141669
 20
73.07134170522707
 30
0.0
 11
460.49530129141669
 21
73.07134170522707
 31
0.0
  0
LINE
  5
6E69
  8
DANMEN
  6
CONTINUOUS
 10
450.99530129141669
 20
117.871341705227
 30
0.0
 11
456.99530129141669
 21
105.871341705227
 31
0.0
  0
LINE
  5
6E6A
  8
DANMEN
  6
CONTINUOUS
 10
450.99530129141669
 20
105.871341705227
 30
0.0
 11
456.99530129141669
 21
117.871341705227
 31
0.0
  0
LINE
  5
6E6B
  8
DANMEN
  6
CONTINUOUS
 10
456.99530129141669
 20
103.371341705227
 30
0.0
 11
396.99530129141669
 21
103.371341705227
 31
0.0
  0
LINE
  5
6E6C
  8
DANMEN
  6
CONTINUOUS
 10
456.99530129141669
 20
102.371341705227
 30
0.0
 11
396.99530129141669
 21
102.371341705227
 31
0.0
  0
LINE
  5
6E6D
  8
DANMEN
  6
CONTINUOUS
 10
456.99530129141669
 20
102.871341705227
 30
0.0
 11
396.99530129141669
 21
102.871341705227
 31
0.0
  0
LINE
  5
6E6E
  8
DANMEN
  6
CONTINUOUS
 10
456.99530129141669
 20
100.371341705227
 30
0.0
 11
396.99530129141669
 21
100.371341705227
 31
0.0
  0
LINE
  5
6E6F
  8
DANMEN
  6
CONTINUOUS
 10
456.99530129141669
 20
105.371341705227
 30
0.0
 11
396.99530129141669
 21
105.371341705227
 31
0.0
  0
LINE
  5
6E70
  8
DANMEN
  6
CONTINUOUS
 10
456.99530129141669
 20
118.371341705227
 30
0.0
 11
396.99530129141669
 21
118.371341705227
 31
0.0
  0
LINE
  5
6E71
  8
DANMEN
  6
CONTINUOUS
 10
456.99530129141669
 20
125.371341705227
 30
0.0
 11
396.99530129141669
 21
125.371341705227
 31
0.0
  0
LINE
  5
6E72
  8
DANMEN
  6
CONTINUOUS
 10
456.99530129141669
 20
99.871341705227024
 30
0.0
 11
396.99530129141669
 21
99.871341705227024
 31
0.0
  0
LINE
  5
6E73
  8
DANMEN
  6
CONTINUOUS
 10
456.99530129141669
 20
105.871341705227
 30
0.0
 11
396.99530129141669
 21
105.871341705227
 31
0.0
  0
LINE
  5
6E74
  8
DANMEN
  6
CONTINUOUS
 10
456.99530129141669
 20
117.871341705227
 30
0.0
 11
396.99530129141669
 21
117.871341705227
 31
0.0
  0
LINE
  5
6E75
  8
DANMEN
  6
CONTINUOUS
 10
456.99530129141669
 20
125.871341705227
 30
0.0
 11
396.99530129141669
 21
125.871341705227
 31
0.0
  0
LINE
  5
6E76
  8
DANMEN
  6
CONTINUOUS
 10
474.99530129141681
 20
141.271341705227
 30
0.0
 11
396.99530129141669
 21
141.271341705227
 31
0.0
  0
LINE
  5
6E77
  8
DANMEN
  6
CONTINUOUS
 10
396.99530129141669
 20
76.57134170522707
 30
0.0
 11
474.99530129141681
 21
76.57134170522707
 31
0.0
  0
LINE
  5
6E78
  8
DANMEN
  6
CONTINUOUS
 10
460.49530278607517
 20
143.07134170522701
 30
0.0
 11
396.99530129141669
 21
143.07134170522701
 31
0.0
  0
LINE
  5
6E7A
  8
DANMEN
  6
CONTINUOUS
 10
314.99530129141669
 20
92.371341705227081
 30
0.0
 11
314.99530129141669
 21
74.171341705227093
 31
0.0
  0
LINE
  5
6E7E
  8
DANMEN
  6
CONTINUOUS
 10
392.99530129141669
 20
73.07134170522707
 30
0.0
 11
329.4953016112957
 21
73.07134170522707
 31
0.0
  0
LINE
  5
6E7F
  8
DANMEN
  6
CONTINUOUS
 10
392.99530129141669
 20
76.571341705226956
 30
0.0
 11
314.99530129141669
 21
76.571341705226956
 31
0.0
  0
LINE
  5
6E82
  8
DANMEN
  6
CONTINUOUS
 10
329.49530129141669
 20
73.071341705227042
 30
0.0
 11
305.49530129141669
 21
73.071341705227098
 31
0.0
  0
LINE
  5
6E83
  8
DANMEN
  6
CONTINUOUS
 10
316.99530129141669
 20
74.721341705227076
 30
0.0
 11
329.49530129141669
 21
74.721341705227033
 31
0.0
  0
LINE
  5
6E84
  8
DANMEN
  6
CONTINUOUS
 10
306.64530129141667
 20
74.721341705227104
 30
0.0
 11
313.34530129141672
 21
74.721341705227076
 31
0.0
  0
LINE
  5
6E85
  8
DANMEN
  6
CONTINUOUS
 10
304.99530129141669
 20
78.571341705227098
 30
0.0
 11
304.99530129141669
 21
73.571341705227098
 31
0.0
  0
LINE
  5
6E86
  8
DANMEN
  6
CONTINUOUS
 10
306.64530129141667
 20
78.571341705227098
 30
0.0
 11
306.64530129141667
 21
74.721341705227104
 31
0.0
  0
ARC
  5
6E87
  8
DANMEN
  6
CONTINUOUS
 10
305.49530129141669
 20
73.571341705227098
 30
0.0
 40
0.5
 50
180.00001866933519
 51
269.9999820139077
  0
LINE
  5
6E88
  8
DANMEN
  6
CONTINUOUS
 10
305.49530129141669
 20
79.071341705227084
 30
0.0
 11
306.14530129141667
 21
79.071341705227084
 31
0.0
  0
ARC
  5
6E89
  8
DANMEN
  6
CONTINUOUS
 10
305.49530129141669
 20
78.571341705227098
 30
0.0
 40
0.5
 50
90.0
 51
180.0
  0
ARC
  5
6E8A
  8
DANMEN
  6
CONTINUOUS
 10
306.14530129141667
 20
78.571341705227098
 30
0.0
 40
0.5
 50
0.0
 51
90.0
  0
LINE
  5
6E8B
  8
DANMEN
  6
CONTINUOUS
 10
314.99530129141669
 20
74.171341705227093
 30
0.0
 11
316.99530129141669
 21
74.171341705227064
 31
0.0
  0
LINE
  5
6E8C
  8
DANMEN
  6
CONTINUOUS
 10
316.99530129141669
 20
74.171341705227064
 30
0.0
 11
316.99530129141669
 21
74.721341705227076
 31
0.0
  0
ARC
  5
6E8D
  8
DANMEN
  6
CONTINUOUS
 10
329.49530129141669
 20
73.571341705227042
 30
0.0
 40
0.5
 50
270.00003665542101
 51
0.0000186693352852
  0
ARC
  5
6E8E
  8
DANMEN
  6
CONTINUOUS
 10
329.49530129141669
 20
74.221335601711417
 30
0.0
 40
0.5
 50
0.0
 51
90.0
  0
LINE
  5
6E8F
  8
DANMEN
  6
CONTINUOUS
 10
329.99530129141669
 20
73.571341705227042
 30
0.0
 11
329.99530129141669
 21
74.221335601711417
 31
0.0
  0
LINE
  5
6E92
  8
DANMEN
  6
CONTINUOUS
 10
332.99530129141681
 20
103.371341705227
 30
0.0
 11
392.99530129141669
 21
103.371341705227
 31
0.0
  0
LINE
  5
6E93
  8
DANMEN
  6
CONTINUOUS
 10
332.99530129141681
 20
102.371341705227
 30
0.0
 11
392.99530129141669
 21
102.371341705227
 31
0.0
  0
LINE
  5
6E94
  8
DANMEN
  6
CONTINUOUS
 10
332.99530129141681
 20
102.871341705227
 30
0.0
 11
392.99530129141669
 21
102.871341705227
 31
0.0
  0
LINE
  5
6E95
  8
DANMEN
  6
CONTINUOUS
 10
332.99530129141681
 20
100.371341705227
 30
0.0
 11
392.99530129141669
 21
100.371341705227
 31
0.0
  0
LINE
  5
6E96
  8
DANMEN
  6
CONTINUOUS
 10
332.99530129141681
 20
105.371341705227
 30
0.0
 11
392.99530129141669
 21
105.371341705227
 31
0.0
  0
LINE
  5
6E97
  8
DANMEN
  6
CONTINUOUS
 10
332.99530129141681
 20
118.371341705227
 30
0.0
 11
392.99530129141669
 21
118.371341705227
 31
0.0
  0
LINE
  5
6E98
  8
DANMEN
  6
CONTINUOUS
 10
332.99530129141681
 20
125.371341705227
 30
0.0
 11
392.99530129141669
 21
125.371341705227
 31
0.0
  0
LINE
  5
6E99
  8
DANMEN
  6
CONTINUOUS
 10
332.99530129141681
 20
99.871341705227024
 30
0.0
 11
392.99530129141669
 21
99.871341705227024
 31
0.0
  0
LINE
  5
6E9A
  8
DANMEN
  6
CONTINUOUS
 10
332.99530129141681
 20
105.871341705227
 30
0.0
 11
392.99530129141669
 21
105.871341705227
 31
0.0
  0
LINE
  5
6E9B
  8
DANMEN
  6
CONTINUOUS
 10
332.99530129141681
 20
117.871341705227
 30
0.0
 11
392.99530129141669
 21
117.871341705227
 31
0.0
  0
LINE
  5
6E9C
  8
DANMEN
  6
CONTINUOUS
 10
332.99530129141681
 20
125.871341705227
 30
0.0
 11
392.99530129141669
 21
125.871341705227
 31
0.0
  0
LINE
  5
6E9D
  8
DANMEN
  6
CONTINUOUS
 10
350.08621038232587
 20
94.871341705226925
 30
0.0
 11
392.99530129141669
 21
94.871341705226925
 31
0.0
  0
LINE
  5
6E9E
  8
DANMEN
  6
CONTINUOUS
 10
350.08621038232587
 20
130.87134170522691
 30
0.0
 11
392.99530129141669
 21
130.87134170522691
 31
0.0
  0
LINE
  5
6E9F
  8
DANMEN
  6
CONTINUOUS
 10
349.4952972899568
 20
92.371341705226968
 30
0.0
 11
392.99530129141669
 21
92.371341705226968
 31
0.0
  0
LINE
  5
6EA0
  8
DANMEN
  6
CONTINUOUS
 10
314.99530129141669
 20
141.27134170522689
 30
0.0
 11
392.99530129141669
 21
141.27134170522689
 31
0.0
  0
LINE
  5
6EA1
  8
DANMEN
  6
CONTINUOUS
 10
349.99530129141669
 20
133.0713417052269
 30
0.0
 11
392.99530129141669
 21
133.0713417052269
 31
0.0
  0
LINE
  5
6EA2
  8
DANMEN
  6
CONTINUOUS
 10
329.4952997967581
 20
143.0713417052269
 30
0.0
 11
392.99530129141669
 21
143.0713417052269
 31
0.0
  0
LINE
  5
6EA9
  8
DANMEN
  6
CONTINUOUS
 10
314.99530129141681
 20
135.07134170522701
 30
0.0
 11
349.49530145433749
 21
135.07134170522701
 31
0.0
  0
LINE
  5
6EAA
  8
DANMEN
  6
CONTINUOUS
 10
348.79530129141682
 20
133.42134170522701
 30
0.0
 11
314.99530129141681
 21
133.42134170522701
 31
0.0
  0
LINE
  5
6EAB
  8
DANMEN
  6
CONTINUOUS
 10
349.49530129141669
 20
92.371341705226996
 30
0.0
 11
329.99530129141669
 21
92.371341705227053
 31
0.0
  0
LINE
  5
6EAC
  8
DANMEN
  6
CONTINUOUS
 10
344.99530129141669
 20
94.321341514492147
 30
0.0
 11
332.29530415243971
 21
94.321341514492175
 31
0.0
  0
LINE
  5
6EAD
  8
DANMEN
  6
CONTINUOUS
 10
332.9953011092349
 20
105.3713426849548
 30
0.0
 11
314.9953010624647
 21
120.3713424953345
 31
0.0
  0
LINE
  5
6EAE
  8
DANMEN
  6
CONTINUOUS
 10
332.99530129141669
 20
105.3713417052269
 30
0.0
 11
332.99530129141669
 21
120.3713417052269
 31
0.0
  0
LINE
  5
6EAF
  8
DANMEN
  6
CONTINUOUS
 10
314.99530129141669
 20
105.3713417052269
 30
0.0
 11
314.99530129141669
 21
120.3713417052269
 31
0.0
  0
LINE
  5
6EB0
  8
DANMEN
  6
CONTINUOUS
 10
314.99530129141681
 20
133.42134170522701
 30
0.0
 11
314.99530129141669
 21
94.021341705227087
 31
0.0
  0
LINE
  5
6EB1
  8
DANMEN
  6
CONTINUOUS
 10
338.99530129141681
 20
105.871341705227
 30
0.0
 11
332.99530129141681
 21
117.871341705227
 31
0.0
  0
LINE
  5
6EB2
  8
DANMEN
  6
CONTINUOUS
 10
338.99530129141681
 20
117.871341705227
 30
0.0
 11
332.99530129141681
 21
105.871341705227
 31
0.0
  0
LINE
  5
6EB3
  8
DANMEN
  6
CONTINUOUS
 10
332.99530129141681
 20
125.871341705227
 30
0.0
 11
332.99530129141681
 21
99.871341705227024
 31
0.0
  0
LINE
  5
6EB4
  8
DANMEN
  6
CONTINUOUS
 10
338.99530129141681
 20
117.871341705227
 30
0.0
 11
338.99530129141681
 21
105.871341705227
 31
0.0
  0
LINE
  5
6EB5
  8
DANMEN
  6
CONTINUOUS
 10
332.99530129141669
 20
105.3713417052269
 30
0.0
 11
314.99530129141669
 21
105.3713417052269
 31
0.0
  0
ARC
  5
6EB6
  8
DANMEN
  6
CONTINUOUS
 10
320.99530129141669
 20
98.57134170522707
 30
0.0
 40
0.5
 50
90.0
 51
180.0
  0
LINE
  5
6EB7
  8
DANMEN
  6
CONTINUOUS
 10
329.99530129141669
 20
92.371341705227053
 30
0.0
 11
314.99530129141669
 21
92.371341705227081
 31
0.0
  0
LINE
  5
6EB8
  8
DANMEN
  6
CONTINUOUS
 10
320.49530129141669
 20
94.021341705227087
 30
0.0
 11
314.99530129141669
 21
94.021341705227087
 31
0.0
  0
ARC
  5
6EB9
  8
DANMEN
  6
CONTINUOUS
 10
329.49530129141669
 20
94.062324710852096
 30
0.0
 40
0.5
 50
0.0
 51
63.43494882292056
  0
LINE
  5
6EBA
  8
DANMEN
  6
CONTINUOUS
 10
331.29530415243971
 20
96.071341705227056
 30
0.0
 11
327.3963872631241
 21
96.071341705227056
 31
0.0
  0
LINE
  5
6EBB
  8
DANMEN
  6
CONTINUOUS
 10
330.29530415243971
 20
94.871341705227053
 30
0.0
 11
328.29530415243971
 21
94.871341705227053
 31
0.0
  0
LINE
  5
6EBC
  8
DANMEN
  6
CONTINUOUS
 10
327.99530129141669
 20
94.021341705227044
 30
0.0
 11
321.99530126757492
 21
94.021341705227073
 31
0.0
  0
LINE
  5
6EBD
  8
DANMEN
  6
CONTINUOUS
 10
325.99530126757492
 20
97.871341705227053
 30
0.0
 11
321.99530126757492
 21
97.871341705227067
 31
0.0
  0
LINE
  5
6EBE
  8
DANMEN
  6
CONTINUOUS
 10
327.99530126757492
 20
99.071341705227056
 30
0.0
 11
320.99530129141669
 21
99.071341705227084
 31
0.0
  0
LINE
  5
6EBF
  8
DANMEN
  6
CONTINUOUS
 10
327.40842479906809
 20
94.569458916900047
 30
0.0
 11
324.4313985707513
 21
96.773049472841976
 31
0.0
  0
LINE
  5
6EC0
  8
DANMEN
  6
CONTINUOUS
 10
327.3963872631241
 20
96.071341705227056
 30
0.0
 11
324.69440960190281
 21
98.071341705227084
 31
0.0
  0
LINE
  5
6EC1
  8
DANMEN
  6
CONTINUOUS
 10
320.49530129141669
 20
98.57134170522707
 30
0.0
 11
320.49530129141669
 21
94.021341705227087
 31
0.0
  0
LINE
  5
6EC2
  8
DANMEN
  6
CONTINUOUS
 10
321.99530129141669
 20
97.871341705227081
 30
0.0
 11
321.99530129141669
 21
94.021341705227073
 31
0.0
  0
ARC
  5
6EC3
  8
DANMEN
  6
CONTINUOUS
 10
323.23777418544222
 20
96.471206184684206
 30
0.0
 40
0.5
 50
270.0
 51
325.29737783444818
  0
ARC
  5
6EC4
  8
DANMEN
  6
CONTINUOUS
 10
324.25291473170489
 20
96.531919799845767
 30
0.0
 40
0.3
 50
53.491208064451769
 51
145.29737783444821
  0
LINE
  5
6EC5
  8
DANMEN
  6
CONTINUOUS
 10
323.64883317886807
 20
96.186547610382206
 30
0.0
 11
324.00627933564931
 21
96.702714944426958
 31
0.0
  0
ARC
  5
6EC6
  8
DANMEN
  6
CONTINUOUS
 10
322.99440960190282
 20
96.471206184684206
 30
0.0
 40
0.5
 50
180.0
 51
270.0
  0
ARC
  5
6EC7
  8
DANMEN
  6
CONTINUOUS
 10
322.99440960190282
 20
96.471075499194257
 30
0.0
 40
0.5
 50
145.29737783444821
 51
180.0
  0
LINE
  5
6EC8
  8
DANMEN
  6
CONTINUOUS
 10
322.99440960593091
 20
95.971206184684192
 30
0.0
 11
323.23777418544222
 21
95.971206184684192
 31
0.0
  0
LINE
  5
6EC9
  8
DANMEN
  6
CONTINUOUS
 10
322.49440960190282
 20
96.471075475120713
 30
0.0
 11
322.49440960190282
 21
96.471206184684206
 31
0.0
  0
LINE
  5
6ECA
  8
DANMEN
  6
CONTINUOUS
 10
322.58335060847679
 20
96.755734073496257
 30
0.0
 11
323.49440960190282
 21
98.071341705227084
 31
0.0
  0
LINE
  5
6ECB
  8
DANMEN
  6
CONTINUOUS
 10
324.69440960190281
 20
98.071341705227084
 30
0.0
 11
323.49440960190282
 21
98.071341705227084
 31
0.0
  0
LINE
  5
6ECC
  8
DANMEN
  6
CONTINUOUS
 10
328.29530129141682
 20
94.871341705227053
 30
0.0
 11
328.99530129141669
 21
94.871341705227053
 31
0.0
  0
LINE
  5
6ECD
  8
DANMEN
  6
CONTINUOUS
 10
327.99530129141669
 20
94.021341705227044
 30
0.0
 11
327.99530129141669
 21
94.571341705227056
 31
0.0
  0
ARC
  5
6ECE
  8
DANMEN
  6
CONTINUOUS
 10
328.29530129141682
 20
94.571341705227056
 30
0.0
 40
0.3
 50
90.0
 51
180.0
  0
LINE
  5
6ECF
  8
DANMEN
  6
CONTINUOUS
 10
325.99530126757492
 20
97.871341705227053
 30
0.0
 11
327.59335933514399
 21
98.190953318740881
 31
0.0
  0
LINE
  5
6ED0
  8
DANMEN
  6
CONTINUOUS
 10
327.99530126757492
 20
98.681243656586332
 30
0.0
 11
327.99530126757492
 21
99.071341705227056
 31
0.0
  0
ARC
  5
6ED1
  8
DANMEN
  6
CONTINUOUS
 10
327.49530126757492
 20
98.681243656586332
 30
0.0
 40
0.5
 50
281.30993247401773
 51
0.0
  0
LINE
  5
6ED2
  8
DANMEN
  6
CONTINUOUS
 10
328.99530129141669
 20
94.871341705227053
 30
0.0
 11
329.71890808916669
 21
94.509538306352056
 31
0.0
  0
ARC
  5
6ED3
  8
DANMEN
  6
CONTINUOUS
 10
327.7296187274905
 20
94.771341705227059
 30
0.0
 40
0.3
 50
270.0
 51
340.52877936551113
  0
ARC
  5
6ED4
  8
DANMEN
  6
CONTINUOUS
 10
328.29530415243971
 20
94.571341705227056
 30
0.0
 40
0.3
 50
90.0
 51
160.5287793655111
  0
ARC
  5
6ED5
  8
DANMEN
  6
CONTINUOUS
 10
327.7058978641453
 20
94.971341705227033
 30
0.0
 40
0.5
 50
233.4912080644512
 51
270.0
  0
LINE
  5
6ED6
  8
DANMEN
  6
CONTINUOUS
 10
327.7296187274905
 20
94.471341705227047
 30
0.0
 11
327.7058978641453
 21
94.471341705227047
 31
0.0
  0
LINE
  5
6ED7
  8
DANMEN
  6
CONTINUOUS
 10
329.99530129141669
 20
94.062324710852096
 30
0.0
 11
329.99530129141669
 21
92.371341705227053
 31
0.0
  0
LINE
  5
6ED8
  8
DANMEN
  6
CONTINUOUS
 10
329.99530129141669
 20
92.371341705227053
 30
0.0
 11
329.99530129141669
 21
93.871341705227039
 31
0.0
  0
ARC
  5
6ED9
  8
DANMEN
  6
CONTINUOUS
 10
331.29530415243971
 20
95.571341705227056
 30
0.0
 40
0.5
 50
0.0
 51
90.0
  0
LINE
  5
6EDA
  8
DANMEN
  6
CONTINUOUS
 10
330.29530415243971
 20
93.871341705227039
 30
0.0
 11
329.99530129141669
 21
93.871341705227039
 31
0.0
  0
LINE
  5
6EDB
  8
DANMEN
  6
CONTINUOUS
 10
330.29530415243971
 20
93.871341705227039
 30
0.0
 11
330.29530415243971
 21
94.871341705227053
 31
0.0
  0
LINE
  5
6EDC
  8
DANMEN
  6
CONTINUOUS
 10
331.79530415243971
 20
94.82134151449219
 30
0.0
 11
331.79530415243971
 21
95.571341705227056
 31
0.0
  0
ARC
  5
6EDD
  8
DANMEN
  6
CONTINUOUS
 10
332.29530415243971
 20
94.82134151449219
 30
0.0
 40
0.5
 50
180.0
 51
270.0
  0
LINE
  5
6EDE
  8
DANMEN
  6
CONTINUOUS
 10
332.99530129141669
 20
120.3713417052269
 30
0.0
 11
314.99530129141669
 21
120.3713417052269
 31
0.0
  0
LINE
  5
6EDF
  8
DANMEN
  6
CONTINUOUS
 10
305.49530129141681
 20
143.0713417052271
 30
0.0
 11
329.49530129141681
 21
143.07134170522701
 31
0.0
  0
LINE
  5
6EE0
  8
DANMEN
  6
CONTINUOUS
 10
316.99530129141681
 20
141.42134170522701
 30
0.0
 11
329.49530129141681
 21
141.42134170522701
 31
0.0
  0
LINE
  5
6EE2
  8
DANMEN
  6
CONTINUOUS
 10
304.99530129141681
 20
142.57134170522701
 30
0.0
 11
304.99530129141681
 21
137.57134170522701
 31
0.0
  0
LINE
  5
6EE3
  8
DANMEN
  6
CONTINUOUS
 10
306.64530129141679
 20
141.42134170522701
 30
0.0
 11
306.64530129141679
 21
137.57134170522701
 31
0.0
  0
LINE
  5
6EE4
  8
DANMEN
  6
CONTINUOUS
 10
305.49530129141681
 20
137.0713417052271
 30
0.0
 11
306.14530129141679
 21
137.0713417052271
 31
0.0
  0
ARC
  5
6EE5
  8
DANMEN
  6
CONTINUOUS
 10
305.49530129141681
 20
137.57134170522701
 30
0.0
 40
0.5
 50
180.0
 51
270.0
  0
ARC
  5
6EE6
  8
DANMEN
  6
CONTINUOUS
 10
306.14530129141679
 20
137.57134170522701
 30
0.0
 40
0.5
 50
270.0
 51
0.0
  0
ARC
  5
6EE7
  8
DANMEN
  6
CONTINUOUS
 10
305.49530129141681
 20
142.57134170522701
 30
0.0
 40
0.5
 50
90.000017986085766
 51
180.0
  0
LINE
  5
6EE8
  8
DANMEN
  6
CONTINUOUS
 10
314.99530129141681
 20
141.9713417052271
 30
0.0
 11
314.99530129141681
 21
135.07134170522701
 31
0.0
  0
LINE
  5
6EE9
  8
DANMEN
  6
CONTINUOUS
 10
314.99530129141681
 20
141.9713417052271
 30
0.0
 11
316.99530129141681
 21
141.97134170522699
 31
0.0
  0
LINE
  5
6EEA
  8
DANMEN
  6
CONTINUOUS
 10
316.99530129141681
 20
141.97134170522699
 30
0.0
 11
316.99530129141681
 21
141.42134170522701
 31
0.0
  0
ARC
  5
6EEB
  8
DANMEN
  6
CONTINUOUS
 10
329.49530129141681
 20
142.57134170522701
 30
0.0
 40
0.5
 50
0.0
 51
90.0
  0
ARC
  5
6EEC
  8
DANMEN
  6
CONTINUOUS
 10
329.49530129141681
 20
141.92134170522701
 30
0.0
 40
0.5
 50
270.0
 51
0.0
  0
LINE
  5
6EED
  8
DANMEN
  6
CONTINUOUS
 10
329.99530129141681
 20
142.57134170522701
 30
0.0
 11
329.99530129141681
 21
141.92134170522701
 31
0.0
  0
LINE
  5
6EEE
  8
DANMEN
  6
CONTINUOUS
 10
347.55165047752092
 20
94.87134170522701
 30
0.0
 11
350.64944591672702
 21
97.969137144433205
 31
0.0
  0
LINE
  5
6EEF
  8
DANMEN
  6
CONTINUOUS
 10
346.13743691514782
 20
94.871341705227024
 30
0.0
 11
350.96371559725441
 21
99.697620387333643
 31
0.0
  0
LINE
  5
6EF0
  8
DANMEN
  6
CONTINUOUS
 10
344.99530129141681
 20
95.14341964386918
 30
0.0
 11
349.72322335277471
 21
99.871341705226996
 31
0.0
  0
LINE
  5
6EF1
  8
DANMEN
  6
CONTINUOUS
 10
344.99530129141681
 20
99.486565394376797
 30
0.0
 11
349.61052498056648
 21
94.87134170522701
 31
0.0
  0
LINE
  5
6EF2
  8
DANMEN
  6
CONTINUOUS
 10
346.02473854293982
 20
99.871341705226968
 30
0.0
 11
350.23059933011268
 21
95.665480918054058
 31
0.0
  0
LINE
  5
6EF3
  8
DANMEN
  6
CONTINUOUS
 10
347.43895210531292
 20
99.871341705226968
 30
0.0
 11
350.4481706474009
 21
96.862123163138975
 31
0.0
  0
LINE
  5
6EF4
  8
DANMEN
  6
CONTINUOUS
 10
348.85316566768591
 20
99.871341705226968
 30
0.0
 11
350.665741964689
 21
98.058765408223906
 31
0.0
  0
LINE
  5
6EF5
  8
DANMEN
  6
CONTINUOUS
 10
349.49530129141669
 20
94.871341705226996
 30
0.0
 11
344.99530129141669
 21
94.871341705227024
 31
0.0
  0
LINE
  5
6EF6
  8
DANMEN
  6
CONTINUOUS
 10
344.99530129141681
 20
96.557633206242258
 30
0.0
 11
348.3090097904016
 21
99.871341705226968
 31
0.0
  0
LINE
  5
6EF7
  8
DANMEN
  6
CONTINUOUS
 10
344.99530129141681
 20
97.971846768615364
 30
0.0
 11
346.8947962280285
 21
99.871341705226996
 31
0.0
  0
LINE
  5
6EF8
  8
DANMEN
  6
CONTINUOUS
 10
344.99530129141681
 20
99.386060330988443
 30
0.0
 11
345.48058266565528
 21
99.871341705226968
 31
0.0
  0
LINE
  5
6EF9
  8
DANMEN
  6
CONTINUOUS
 10
344.99530129141681
 20
95.24392470725752
 30
0.0
 11
345.36788429344728
 21
94.87134170522701
 31
0.0
  0
LINE
  5
6EFA
  8
DANMEN
  6
CONTINUOUS
 10
344.99530129141681
 20
96.658138269630584
 30
0.0
 11
346.78209785582038
 21
94.871341705226996
 31
0.0
  0
LINE
  5
6EFB
  8
DANMEN
  6
CONTINUOUS
 10
344.99530129141681
 20
98.072351832003704
 30
0.0
 11
348.19631141819337
 21
94.87134170522701
 31
0.0
  0
LINE
  5
6EFC
  8
DANMEN
  6
CONTINUOUS
 10
344.99530129141669
 20
94.321341514492147
 30
0.0
 11
344.99530129141669
 21
94.871341705227024
 31
0.0
  0
LINE
  5
6EFD
  8
DANMEN
  6
CONTINUOUS
 10
349.99530129141669
 20
92.871341705226996
 30
0.0
 11
349.99530129141669
 21
94.371341705226996
 31
0.0
  0
ARC
  5
6EFE
  8
DANMEN
  6
CONTINUOUS
 10
349.49530129141669
 20
92.871341705226996
 30
0.0
 40
0.5
 50
270.0
 51
0.0
  0
LINE
  5
6EFF
  8
DANMEN
  6
CONTINUOUS
 10
348.96586403989397
 20
94.871341705227024
 30
0.0
 11
350.33517623619969
 21
96.240653901532767
 31
0.0
  0
LINE
  5
6F00
  8
DANMEN
  6
CONTINUOUS
 10
350.26737923005902
 20
99.871341705226968
 30
0.0
 11
350.88331328197722
 21
99.255407653308836
 31
0.0
  0
ARC
  5
6F01
  8
DANMEN
  6
CONTINUOUS
 10
349.49530129141669
 20
94.371341705226996
 30
0.0
 40
0.5
 50
0.0
 51
90.0
  0
LINE
  5
6F02
  8
DANMEN
  6
CONTINUOUS
 10
350.99530129141681
 20
99.871341705226968
 30
0.0
 11
349.99530129141681
 21
94.371341705227024
 31
0.0
  0
ARC
  5
6F03
  8
DANMEN
  6
CONTINUOUS
 10
345.49530129141681
 20
131.371341705227
 30
0.0
 40
0.5
 50
90.0
 51
180.0
  0
LINE
  5
6F04
  8
DANMEN
  6
CONTINUOUS
 10
349.99530129141681
 20
134.57134170522701
 30
0.0
 11
349.99530129141681
 21
131.371341705227
 31
0.0
  0
LINE
  5
6F05
  8
DANMEN
  6
CONTINUOUS
 10
348.85316566768591
 20
125.8713417052269
 30
0.0
 11
350.665741964689
 21
127.6839180022301
 31
0.0
  0
LINE
  5
6F06
  8
DANMEN
  6
CONTINUOUS
 10
347.43895210531281
 20
125.8713417052269
 30
0.0
 11
350.4481706474009
 21
128.880560247315
 31
0.0
  0
LINE
  5
6F07
  8
DANMEN
  6
CONTINUOUS
 10
346.0247385429397
 20
125.8713417052269
 30
0.0
 11
350.23059933011263
 21
130.07720249239989
 31
0.0
  0
LINE
  5
6F08
  8
DANMEN
  6
CONTINUOUS
 10
344.99530129141681
 20
126.2561180160772
 30
0.0
 11
349.61052498056648
 21
130.871341705227
 31
0.0
  0
LINE
  5
6F09
  8
DANMEN
  6
CONTINUOUS
 10
344.99530129141681
 20
130.59926376658481
 30
0.0
 11
349.72322335277482
 21
125.8713417052269
 31
0.0
  0
LINE
  5
6F0A
  8
DANMEN
  6
CONTINUOUS
 10
346.13743691514782
 20
130.871341705227
 30
0.0
 11
350.96371559725441
 21
126.04506302312041
 31
0.0
  0
LINE
  5
6F0B
  8
DANMEN
  6
CONTINUOUS
 10
347.55165047752092
 20
130.871341705227
 30
0.0
 11
350.64944591672702
 21
127.7735462660208
 31
0.0
  0
LINE
  5
6F0C
  8
DANMEN
  6
CONTINUOUS
 10
344.99530129141681
 20
130.871341705227
 30
0.0
 11
349.49530129141681
 21
130.871341705227
 31
0.0
  0
LINE
  5
6F0D
  8
DANMEN
  6
CONTINUOUS
 10
344.99530129141681
 20
127.6703315784503
 30
0.0
 11
348.19631141819337
 21
130.871341705227
 31
0.0
  0
LINE
  5
6F0E
  8
DANMEN
  6
CONTINUOUS
 10
344.99530129141681
 20
129.08454514082339
 30
0.0
 11
346.78209785582038
 21
130.871341705227
 31
0.0
  0
LINE
  5
6F0F
  8
DANMEN
  6
CONTINUOUS
 10
344.99530129141681
 20
130.4987587031965
 30
0.0
 11
345.36788429344728
 21
130.871341705227
 31
0.0
  0
LINE
  5
6F10
  8
DANMEN
  6
CONTINUOUS
 10
344.99530129141681
 20
126.35662307946561
 30
0.0
 11
345.4805826656555
 21
125.8713417052269
 31
0.0
  0
LINE
  5
6F11
  8
DANMEN
  6
CONTINUOUS
 10
344.99530129141681
 20
127.7708366418387
 30
0.0
 11
346.89479622802861
 21
125.8713417052269
 31
0.0
  0
LINE
  5
6F12
  8
DANMEN
  6
CONTINUOUS
 10
344.99530129141681
 20
129.18505020421179
 30
0.0
 11
348.30900979040172
 21
125.8713417052269
 31
0.0
  0
LINE
  5
6F13
  8
DANMEN
  6
CONTINUOUS
 10
344.99530129141681
 20
131.371341705227
 30
0.0
 11
344.99530129141681
 21
130.871341705227
 31
0.0
  0
LINE
  5
6F14
  8
DANMEN
  6
CONTINUOUS
 10
350.26737923005902
 20
125.8713417052269
 30
0.0
 11
350.88331328197722
 21
126.4872757571451
 31
0.0
  0
LINE
  5
6F15
  8
DANMEN
  6
CONTINUOUS
 10
348.96586403989397
 20
130.871341705227
 30
0.0
 11
350.33517623619969
 21
129.50202950892131
 31
0.0
  0
ARC
  5
6F16
  8
DANMEN
  6
CONTINUOUS
 10
349.49530129141681
 20
131.371341705227
 30
0.0
 40
0.5
 50
270.0
 51
0.0
  0
LINE
  5
6F17
  8
DANMEN
  6
CONTINUOUS
 10
349.99530129141681
 20
131.371341705227
 30
0.0
 11
350.99530129141681
 21
125.8713417052269
 31
0.0
  0
LINE
  5
6F18
  8
DANMEN
  6
CONTINUOUS
 10
345.49530129141681
 20
131.871341705227
 30
0.0
 11
348.79530129141682
 21
131.871341705227
 31
0.0
  0
LINE
  5
6F19
  8
DANMEN
  6
CONTINUOUS
 10
348.79530129141682
 20
131.871341705227
 30
0.0
 11
348.79530129141682
 21
133.42134170522701
 31
0.0
  0
ARC
  5
6F1A
  8
DANMEN
  6
CONTINUOUS
 10
349.49530129141681
 20
134.57134170522701
 30
0.0
 40
0.5
 50
359.99994467524198
 51
89.99998133066471
  0
LINE
  5
6F20
  8
DANMEN
  6
CONTINUOUS
 10
439.90439220050757
 20
94.871341705227024
 30
0.0
 11
396.99530129141669
 21
94.871341705227024
 31
0.0
  0
LINE
  5
6F21
  8
DANMEN
  6
CONTINUOUS
 10
439.90439220050757
 20
130.871341705227
 30
0.0
 11
396.99530129141669
 21
130.871341705227
 31
0.0
  0
LINE
  5
6F22
  8
DANMEN
  6
CONTINUOUS
 10
440.49530417628148
 20
92.371341705227081
 30
0.0
 11
396.99530129141669
 21
92.371341705227081
 31
0.0
  0
LINE
  5
6F23
  8
DANMEN
  6
CONTINUOUS
 10
439.99530129141669
 20
133.07134170522701
 30
0.0
 11
396.99530129141669
 21
133.07134170522701
 31
0.0
  0
LINE
  5
6F30
  8
DANMEN
  6
CONTINUOUS
 10
450.99530129141669
 20
117.871341705227
 30
0.0
 11
450.99530129141669
 21
105.871341705227
 31
0.0
  0
LINE
  5
6F32
  8
DANMEN
  6
CONTINUOUS
 10
444.99530129141669
 20
97.971846768615364
 30
0.0
 11
443.09580635480512
 21
99.871341705226968
 31
0.0
  0
LINE
  5
6F33
  8
DANMEN
  6
CONTINUOUS
 10
444.99530129141669
 20
96.557633206242258
 30
0.0
 11
441.68159279243213
 21
99.871341705226953
 31
0.0
  0
LINE
  5
6F34
  8
DANMEN
  6
CONTINUOUS
 10
444.99530129141669
 20
95.14341964386918
 30
0.0
 11
440.26737923005902
 21
99.871341705226968
 31
0.0
  0
LINE
  5
6F35
  8
DANMEN
  6
CONTINUOUS
 10
444.99530129141669
 20
99.486565394376797
 30
0.0
 11
440.38007760226691
 21
94.87134170522701
 31
0.0
  0
LINE
  5
6F36
  8
DANMEN
  6
CONTINUOUS
 10
444.99530129141669
 20
98.072351832003704
 30
0.0
 11
441.79429116464001
 21
94.871341705227024
 31
0.0
  0
LINE
  5
6F37
  8
DANMEN
  6
CONTINUOUS
 10
444.99530129141669
 20
96.658138269630612
 30
0.0
 11
443.20850472701312
 21
94.87134170522701
 31
0.0
  0
LINE
  5
6F38
  8
DANMEN
  6
CONTINUOUS
 10
440.49530129141669
 20
94.871341705227053
 30
0.0
 11
444.99530129141669
 21
94.871341705227081
 31
0.0
  0
LINE
  5
6F39
  8
DANMEN
  6
CONTINUOUS
 10
439.99530129141669
 20
92.871341705227053
 30
0.0
 11
439.99530129141669
 21
94.371341705227053
 31
0.0
  0
ARC
  5
6F3A
  8
DANMEN
  6
CONTINUOUS
 10
440.49530129141669
 20
92.871341705227053
 30
0.0
 40
0.5
 50
180.0
 51
270.0
  0
LINE
  5
6F3B
  8
DANMEN
  6
CONTINUOUS
 10
443.8531656676858
 20
94.871341705226996
 30
0.0
 11
439.02688698557921
 21
99.697620387333657
 31
0.0
  0
LINE
  5
6F3C
  8
DANMEN
  6
CONTINUOUS
 10
442.43895210531269
 20
94.87134170522701
 30
0.0
 11
439.34115666610649
 21
97.969137144433219
 31
0.0
  0
LINE
  5
6F3D
  8
DANMEN
  6
CONTINUOUS
 10
439.7232233527746
 20
99.87134170522701
 30
0.0
 11
439.10728930085639
 21
99.255407653308822
 31
0.0
  0
LINE
  5
6F3E
  8
DANMEN
  6
CONTINUOUS
 10
441.13743691514748
 20
99.871341705226996
 30
0.0
 11
439.3248606181445
 21
98.058765408223891
 31
0.0
  0
LINE
  5
6F3F
  8
DANMEN
  6
CONTINUOUS
 10
438.99530129141669
 20
99.871341705226968
 30
0.0
 11
439.99530129141669
 21
94.371341705227024
 31
0.0
  0
LINE
  5
6F40
  8
DANMEN
  6
CONTINUOUS
 10
441.02473854293947
 20
94.871341705226996
 30
0.0
 11
439.65542634663382
 21
96.240653901532767
 31
0.0
  0
LINE
  5
6F41
  8
DANMEN
  6
CONTINUOUS
 10
442.5516504775207
 20
99.871341705226968
 30
0.0
 11
439.54243193543272
 21
96.862123163138975
 31
0.0
  0
LINE
  5
6F42
  8
DANMEN
  6
CONTINUOUS
 10
443.96586403989369
 20
99.871341705226968
 30
0.0
 11
439.76000325272088
 21
95.665480918054058
 31
0.0
  0
ARC
  5
6F43
  8
DANMEN
  6
CONTINUOUS
 10
440.49530129141669
 20
94.371341705227053
 30
0.0
 40
0.5
 50
90.0
 51
180.0
  0
LINE
  5
6F44
  8
DANMEN
  6
CONTINUOUS
 10
444.99530129141669
 20
99.386060330988443
 30
0.0
 11
444.51001991717823
 21
99.871341705226953
 31
0.0
  0
LINE
  5
6F45
  8
DANMEN
  6
CONTINUOUS
 10
444.99530129141669
 20
95.243924707257506
 30
0.0
 11
444.62271828938623
 21
94.87134170522701
 31
0.0
  0
LINE
  5
6F46
  8
DANMEN
  6
CONTINUOUS
 10
444.99530129141669
 20
94.321341514492204
 30
0.0
 11
444.99530129141669
 21
94.871341705227081
 31
0.0
  0
ARC
  5
6F48
  8
DANMEN
  6
CONTINUOUS
 10
444.49530129141669
 20
131.371341705227
 30
0.0
 40
0.5
 50
0.0
 51
90.0
  0
LINE
  5
6F49
  8
DANMEN
  6
CONTINUOUS
 10
439.99530129141669
 20
134.57134170522701
 30
0.0
 11
439.99530129141669
 21
131.371341705227
 31
0.0
  0
LINE
  5
6F4A
  8
DANMEN
  6
CONTINUOUS
 10
444.99530129141669
 20
129.08454514082339
 30
0.0
 11
443.20850472701312
 21
130.871341705227
 31
0.0
  0
LINE
  5
6F4B
  8
DANMEN
  6
CONTINUOUS
 10
444.99530129141669
 20
127.6703315784503
 30
0.0
 11
441.79429116464001
 21
130.871341705227
 31
0.0
  0
LINE
  5
6F4C
  8
DANMEN
  6
CONTINUOUS
 10
444.99530129141669
 20
126.2561180160772
 30
0.0
 11
440.38007760226691
 21
130.871341705227
 31
0.0
  0
LINE
  5
6F4D
  8
DANMEN
  6
CONTINUOUS
 10
444.99530129141669
 20
130.59926376658481
 30
0.0
 11
440.26737923005868
 21
125.8713417052269
 31
0.0
  0
LINE
  5
6F4E
  8
DANMEN
  6
CONTINUOUS
 10
444.99530129141669
 20
129.18505020421171
 30
0.0
 11
441.6815927924319
 21
125.8713417052269
 31
0.0
  0
LINE
  5
6F4F
  8
DANMEN
  6
CONTINUOUS
 10
444.99530129141669
 20
127.7708366418386
 30
0.0
 11
443.09580635480489
 21
125.8713417052269
 31
0.0
  0
LINE
  5
6F50
  8
DANMEN
  6
CONTINUOUS
 10
444.99530129141669
 20
130.871341705227
 30
0.0
 11
440.49530129141669
 21
130.871341705227
 31
0.0
  0
LINE
  5
6F51
  8
DANMEN
  6
CONTINUOUS
 10
441.13743691514782
 20
125.8713417052269
 30
0.0
 11
439.3248606181445
 21
127.6839180022301
 31
0.0
  0
LINE
  5
6F52
  8
DANMEN
  6
CONTINUOUS
 10
439.72322335277471
 20
125.8713417052269
 30
0.0
 11
439.10728930085639
 21
126.4872757571452
 31
0.0
  0
LINE
  5
6F53
  8
DANMEN
  6
CONTINUOUS
 10
442.43895210531269
 20
130.871341705227
 30
0.0
 11
439.34115666610649
 21
127.7735462660208
 31
0.0
  0
LINE
  5
6F54
  8
DANMEN
  6
CONTINUOUS
 10
443.8531656676858
 20
130.871341705227
 30
0.0
 11
439.02688698557921
 21
126.04506302312041
 31
0.0
  0
LINE
  5
6F55
  8
DANMEN
  6
CONTINUOUS
 10
439.99530129141669
 20
131.371341705227
 30
0.0
 11
438.99530129141669
 21
125.8713417052269
 31
0.0
  0
LINE
  5
6F56
  8
DANMEN
  6
CONTINUOUS
 10
443.9658640398938
 20
125.8713417052269
 30
0.0
 11
439.76000325272088
 21
130.0772024924
 31
0.0
  0
LINE
  5
6F57
  8
DANMEN
  6
CONTINUOUS
 10
442.55165047752092
 20
125.8713417052269
 30
0.0
 11
439.54243193543277
 21
128.880560247315
 31
0.0
  0
LINE
  5
6F58
  8
DANMEN
  6
CONTINUOUS
 10
441.02473854293947
 20
130.871341705227
 30
0.0
 11
439.65542634663382
 21
129.50202950892131
 31
0.0
  0
ARC
  5
6F59
  8
DANMEN
  6
CONTINUOUS
 10
440.49530129141669
 20
131.371341705227
 30
0.0
 40
0.5
 50
180.0
 51
270.0
  0
LINE
  5
6F5A
  8
DANMEN
  6
CONTINUOUS
 10
444.99530129141669
 20
130.4987587031965
 30
0.0
 11
444.62271828938623
 21
130.871341705227
 31
0.0
  0
LINE
  5
6F5B
  8
DANMEN
  6
CONTINUOUS
 10
444.99530129141669
 20
126.35662307946561
 30
0.0
 11
444.51001991717811
 21
125.8713417052269
 31
0.0
  0
LINE
  5
6F5C
  8
DANMEN
  6
CONTINUOUS
 10
444.99530129141669
 20
131.371341705227
 30
0.0
 11
444.99530129141669
 21
130.871341705227
 31
0.0
  0
LINE
  5
6F5D
  8
DANMEN
  6
CONTINUOUS
 10
444.49530129141669
 20
131.871341705227
 30
0.0
 11
441.19530129141668
 21
131.871341705227
 31
0.0
  0
ARC
  5
6F5E
  8
DANMEN
  6
CONTINUOUS
 10
440.49530129141669
 20
134.57134170522701
 30
0.0
 40
0.5
 50
90.000018669335276
 51
180.00005532475791
  0
LINE
  5
6F5F
  8
DANMEN
  6
CONTINUOUS
 10
441.19530129141668
 20
131.871341705227
 30
0.0
 11
441.19530129141668
 21
133.42134170522701
 31
0.0
  0
LINE
  5
6F60
  8
DANMEN
  6
CONTINUOUS
 10
474.99530129141681
 20
92.371341705227053
 30
0.0
 11
474.99530129141681
 21
74.171341705227064
 31
0.0
  0
LINE
  5
6F61
  8
DANMEN
  6
CONTINUOUS
 10
476.64530129141667
 20
141.42134170522701
 30
0.0
 11
476.64530129141667
 21
74.721341705227076
 31
0.0
  0
LINE
  5
6F64
  8
DANMEN
  6
CONTINUOUS
 10
460.49530129141669
 20
73.07134170522707
 30
0.0
 11
484.49530129141669
 21
73.07134170522707
 31
0.0
  0
LINE
  5
6F65
  8
DANMEN
  6
CONTINUOUS
 10
472.99530129141669
 20
74.721341705227076
 30
0.0
 11
460.49530129141669
 21
74.721341705227076
 31
0.0
  0
LINE
  5
6F66
  8
DANMEN
  6
CONTINUOUS
 10
459.99530129141669
 20
73.57134170522707
 30
0.0
 11
459.99530129141669
 21
74.221335601711445
 31
0.0
  0
ARC
  5
6F67
  8
DANMEN
  6
CONTINUOUS
 10
460.49530129141669
 20
73.57134170522707
 30
0.0
 40
0.5
 50
179.9999813306647
 51
269.99996334457228
  0
ARC
  5
6F68
  8
DANMEN
  6
CONTINUOUS
 10
460.49530129141669
 20
74.221335601711445
 30
0.0
 40
0.5
 50
90.0
 51
180.0
  0
LINE
  5
6F69
  8
DANMEN
  6
CONTINUOUS
 10
483.34530129141672
 20
74.721341705227076
 30
0.0
 11
476.64530129141667
 21
74.721341705227076
 31
0.0
  0
LINE
  5
6F6A
  8
DANMEN
  6
CONTINUOUS
 10
472.99530129141669
 20
74.171341705227064
 30
0.0
 11
472.99530129141669
 21
74.721341705227076
 31
0.0
  0
LINE
  5
6F6B
  8
DANMEN
  6
CONTINUOUS
 10
474.99530129141681
 20
74.171341705227064
 30
0.0
 11
472.99530129141669
 21
74.171341705227064
 31
0.0
  0
LINE
  5
6F6C
  8
DANMEN
  6
CONTINUOUS
 10
484.99530129141669
 20
78.57134170522707
 30
0.0
 11
484.99530129141669
 21
73.57134170522707
 31
0.0
  0
LINE
  5
6F6D
  8
DANMEN
  6
CONTINUOUS
 10
483.34530129141672
 20
78.57134170522707
 30
0.0
 11
483.34530129141672
 21
74.721341705227076
 31
0.0
  0
ARC
  5
6F6E
  8
DANMEN
  6
CONTINUOUS
 10
484.49530129141669
 20
73.57134170522707
 30
0.0
 40
0.5
 50
270.00001798608571
 51
359.99998133066458
  0
LINE
  5
6F6F
  8
DANMEN
  6
CONTINUOUS
 10
484.49530129141669
 20
79.07134170522707
 30
0.0
 11
483.84530129141672
 21
79.07134170522707
 31
0.0
  0
ARC
  5
6F70
  8
DANMEN
  6
CONTINUOUS
 10
483.84530129141672
 20
78.57134170522707
 30
0.0
 40
0.5
 50
90.0
 51
180.0
  0
ARC
  5
6F71
  8
DANMEN
  6
CONTINUOUS
 10
484.49530129141669
 20
78.57134170522707
 30
0.0
 40
0.5
 50
0.0
 51
90.0
  0
LINE
  5
6F76
  8
DANMEN
  6
CONTINUOUS
 10
474.99530129141681
 20
133.42134170522701
 30
0.0
 11
474.99530129141681
 21
94.021341705227087
 31
0.0
  0
LINE
  5
6F77
  8
DANMEN
  6
CONTINUOUS
 10
456.99530129141669
 20
125.871341705227
 30
0.0
 11
456.99530129141669
 21
99.871341705227024
 31
0.0
  0
LINE
  5
6F78
  8
DANMEN
  6
CONTINUOUS
 10
459.99530129141669
 20
92.371341705227053
 30
0.0
 11
474.99530129141681
 21
92.371341705227053
 31
0.0
  0
LINE
  5
6F79
  8
DANMEN
  6
CONTINUOUS
 10
469.49530129141669
 20
94.021341705227087
 30
0.0
 11
474.99530129141681
 21
94.021341705227087
 31
0.0
  0
LINE
  5
6F7A
  8
DANMEN
  6
CONTINUOUS
 10
461.99530129141669
 20
94.021341705227087
 30
0.0
 11
467.99530131525859
 21
94.021341705227087
 31
0.0
  0
LINE
  5
6F7B
  8
DANMEN
  6
CONTINUOUS
 10
463.99530131525859
 20
97.871341705227067
 30
0.0
 11
462.39724324768957
 21
98.190953318740895
 31
0.0
  0
LINE
  5
6F7C
  8
DANMEN
  6
CONTINUOUS
 10
461.99530131525859
 20
99.071341705227084
 30
0.0
 11
468.99530129141669
 21
99.071341705227084
 31
0.0
  0
LINE
  5
6F7D
  8
DANMEN
  6
CONTINUOUS
 10
462.58217778376542
 20
94.569458916900089
 30
0.0
 11
465.55920401208209
 21
96.773049472842018
 31
0.0
  0
LINE
  5
6F7E
  8
DANMEN
  6
CONTINUOUS
 10
462.59421531970929
 20
96.071341705227098
 30
0.0
 11
465.2961929809307
 21
98.071341705227127
 31
0.0
  0
LINE
  5
6F7F
  8
DANMEN
  6
CONTINUOUS
 10
459.99530129141669
 20
94.062324710852124
 30
0.0
 11
459.99530129141669
 21
92.371341705227053
 31
0.0
  0
LINE
  5
6F80
  8
DANMEN
  6
CONTINUOUS
 10
459.99530129141669
 20
92.37134170522711
 30
0.0
 11
459.99530129141669
 21
93.871341705227124
 31
0.0
  0
ARC
  5
6F81
  8
DANMEN
  6
CONTINUOUS
 10
458.69529843039379
 20
95.571341705227098
 30
0.0
 40
0.5
 50
90.0
 51
180.0
  0
LINE
  5
6F82
  8
DANMEN
  6
CONTINUOUS
 10
458.19529843039379
 20
94.821341514492246
 30
0.0
 11
458.19529843039379
 21
95.571341705227098
 31
0.0
  0
ARC
  5
6F83
  8
DANMEN
  6
CONTINUOUS
 10
457.69529843039379
 20
94.821341514492246
 30
0.0
 40
0.5
 50
270.0
 51
0.0
  0
LINE
  5
6F84
  8
DANMEN
  6
CONTINUOUS
 10
461.6953012914168
 20
94.871341705227081
 30
0.0
 11
460.99530129141669
 21
94.871341705227081
 31
0.0
  0
LINE
  5
6F85
  8
DANMEN
  6
CONTINUOUS
 10
461.99530129141669
 20
94.021341705227087
 30
0.0
 11
461.99530129141669
 21
94.571341705227084
 31
0.0
  0
ARC
  5
6F86
  8
DANMEN
  6
CONTINUOUS
 10
461.6953012914168
 20
94.571341705227084
 30
0.0
 40
0.3
 50
0.0
 51
90.0
  0
LINE
  5
6F87
  8
DANMEN
  6
CONTINUOUS
 10
461.99530131525859
 20
98.681243656586346
 30
0.0
 11
461.99530131525859
 21
99.071341705227084
 31
0.0
  0
ARC
  5
6F88
  8
DANMEN
  6
CONTINUOUS
 10
462.49530131525859
 20
98.681243656586346
 30
0.0
 40
0.5
 50
180.0
 51
258.69006752598222
  0
LINE
  5
6F89
  8
DANMEN
  6
CONTINUOUS
 10
460.99530129141669
 20
94.871341705227081
 30
0.0
 11
460.2716944936667
 21
94.509538306352084
 31
0.0
  0
ARC
  5
6F8A
  8
DANMEN
  6
CONTINUOUS
 10
460.49530129141669
 20
94.062324710852124
 30
0.0
 40
0.5
 50
116.5650511770794
 51
180.0
  0
ARC
  5
6F8B
  8
DANMEN
  6
CONTINUOUS
 10
462.26098385534289
 20
94.771341705227101
 30
0.0
 40
0.3
 50
199.47122063449029
 51
270.0
  0
ARC
  5
6F8C
  8
DANMEN
  6
CONTINUOUS
 10
461.69529843039379
 20
94.571341705227098
 30
0.0
 40
0.3
 50
19.471220634490329
 51
90.0
  0
ARC
  5
6F8D
  8
DANMEN
  6
CONTINUOUS
 10
462.28470471868809
 20
94.971341705227104
 30
0.0
 40
0.5
 50
270.0
 51
306.50879193554817
  0
LINE
  5
6F8E
  8
DANMEN
  6
CONTINUOUS
 10
462.26098385534289
 20
94.471341705227104
 30
0.0
 11
462.28470471868809
 21
94.471341705227104
 31
0.0
  0
LINE
  5
6F8F
  8
DANMEN
  6
CONTINUOUS
 10
458.69529843039379
 20
96.071341705227098
 30
0.0
 11
462.59421531970929
 21
96.071341705227098
 31
0.0
  0
LINE
  5
6F90
  8
DANMEN
  6
CONTINUOUS
 10
459.69529843039379
 20
93.871341705227124
 30
0.0
 11
459.99530129141669
 21
93.871341705227124
 31
0.0
  0
LINE
  5
6F91
  8
DANMEN
  6
CONTINUOUS
 10
459.69529843039379
 20
93.871341705227124
 30
0.0
 11
459.69529843039379
 21
94.87134170522711
 31
0.0
  0
LINE
  5
6F92
  8
DANMEN
  6
CONTINUOUS
 10
459.69529843039379
 20
94.87134170522711
 30
0.0
 11
461.69529843039379
 21
94.871341705227096
 31
0.0
  0
LINE
  5
6F93
  8
DANMEN
  6
CONTINUOUS
 10
463.99530131525859
 20
97.871341705227067
 30
0.0
 11
467.99530131525847
 21
97.871341705227067
 31
0.0
  0
ARC
  5
6F94
  8
DANMEN
  6
CONTINUOUS
 10
466.75282839739123
 20
96.471206184684235
 30
0.0
 40
0.5
 50
214.7026221655515
 51
270.0
  0
ARC
  5
6F95
  8
DANMEN
  6
CONTINUOUS
 10
465.7376878511285
 20
96.531919799845824
 30
0.0
 40
0.3
 50
34.702622165551752
 51
126.5087919355482
  0
LINE
  5
6F96
  8
DANMEN
  6
CONTINUOUS
 10
466.34176940396532
 20
96.186547610382235
 30
0.0
 11
465.98432324718408
 21
96.702714944427015
 31
0.0
  0
ARC
  5
6F97
  8
DANMEN
  6
CONTINUOUS
 10
466.99619298093069
 20
96.471206184684235
 30
0.0
 40
0.5
 50
270.0
 51
0.0
  0
ARC
  5
6F98
  8
DANMEN
  6
CONTINUOUS
 10
466.99619298093069
 20
96.471075499194299
 30
0.0
 40
0.5
 50
0.0
 51
34.702622165551752
  0
LINE
  5
6F99
  8
DANMEN
  6
CONTINUOUS
 10
466.99619297690259
 20
95.971206184684235
 30
0.0
 11
466.75282839739123
 21
95.971206184684235
 31
0.0
  0
LINE
  5
6F9A
  8
DANMEN
  6
CONTINUOUS
 10
467.49619298093069
 20
96.471075475120742
 30
0.0
 11
467.49619298093069
 21
96.471206184684235
 31
0.0
  0
LINE
  5
6F9B
  8
DANMEN
  6
CONTINUOUS
 10
467.40725197435671
 20
96.755734073496313
 30
0.0
 11
466.49619298093069
 21
98.071341705227127
 31
0.0
  0
LINE
  5
6F9C
  8
DANMEN
  6
CONTINUOUS
 10
465.2961929809307
 20
98.071341705227127
 30
0.0
 11
466.49619298093069
 21
98.071341705227127
 31
0.0
  0
ARC
  5
6F9D
  8
DANMEN
  6
CONTINUOUS
 10
468.99530129141669
 20
98.57134170522707
 30
0.0
 40
0.5
 50
0.0
 51
90.0
  0
LINE
  5
6F9E
  8
DANMEN
  6
CONTINUOUS
 10
469.49530129141669
 20
98.57134170522707
 30
0.0
 11
469.49530129141669
 21
94.021341705227087
 31
0.0
  0
LINE
  5
6F9F
  8
DANMEN
  6
CONTINUOUS
 10
467.99530129141669
 20
97.871341705227081
 30
0.0
 11
467.99530129141669
 21
94.021341705227087
 31
0.0
  0
LINE
  5
6FA0
  8
DANMEN
  6
CONTINUOUS
 10
484.49530129141669
 20
143.07134170522701
 30
0.0
 11
460.49530129141669
 21
143.07134170522701
 31
0.0
  0
LINE
  5
6FA1
  8
DANMEN
  6
CONTINUOUS
 10
472.99530129141669
 20
141.42134170522701
 30
0.0
 11
460.49530129141669
 21
141.42134170522701
 31
0.0
  0
LINE
  5
6FA2
  8
DANMEN
  6
CONTINUOUS
 10
459.99530129141669
 20
142.57134170522701
 30
0.0
 11
459.99530129141669
 21
141.92134170522701
 31
0.0
  0
ARC
  5
6FA3
  8
DANMEN
  6
CONTINUOUS
 10
460.49530129141669
 20
142.57134170522701
 30
0.0
 40
0.5
 50
90.0
 51
180.0
  0
ARC
  5
6FA4
  8
DANMEN
  6
CONTINUOUS
 10
460.49530129141669
 20
141.92134170522701
 30
0.0
 40
0.5
 50
180.0
 51
270.0
  0
LINE
  5
6FA5
  8
DANMEN
  6
CONTINUOUS
 10
483.34530129141672
 20
141.42134170522701
 30
0.0
 11
476.64530129141667
 21
141.42134170522701
 31
0.0
  0
LINE
  5
6FA6
  8
DANMEN
  6
CONTINUOUS
 10
474.99530129141681
 20
141.97134170522699
 30
0.0
 11
474.99530129141681
 21
135.07134170522701
 31
0.0
  0
LINE
  5
6FA7
  8
DANMEN
  6
CONTINUOUS
 10
472.99530129141669
 20
141.97134170522699
 30
0.0
 11
472.99530129141669
 21
141.42134170522701
 31
0.0
  0
LINE
  5
6FA8
  8
DANMEN
  6
CONTINUOUS
 10
474.99530129141681
 20
141.97134170522699
 30
0.0
 11
472.99530129141669
 21
141.97134170522699
 31
0.0
  0
LINE
  5
6FA9
  8
DANMEN
  6
CONTINUOUS
 10
484.99530129141669
 20
142.57134170522701
 30
0.0
 11
484.99530129141669
 21
137.57134170522701
 31
0.0
  0
LINE
  5
6FAA
  8
DANMEN
  6
CONTINUOUS
 10
483.34530129141672
 20
141.42134170522701
 30
0.0
 11
483.34530129141672
 21
137.57134170522701
 31
0.0
  0
LINE
  5
6FAB
  8
DANMEN
  6
CONTINUOUS
 10
484.49530129141669
 20
137.07134170522701
 30
0.0
 11
483.84530129141672
 21
137.07134170522701
 31
0.0
  0
ARC
  5
6FAC
  8
DANMEN
  6
CONTINUOUS
 10
483.84530129141672
 20
137.57134170522701
 30
0.0
 40
0.5
 50
180.0
 51
270.0
  0
ARC
  5
6FAD
  8
DANMEN
  6
CONTINUOUS
 10
484.49530129141669
 20
137.57134170522701
 30
0.0
 40
0.5
 50
270.0
 51
0.0
  0
ARC
  5
6FAE
  8
DANMEN
  6
CONTINUOUS
 10
484.49530129141669
 20
142.57134170522701
 30
0.0
 40
0.5
 50
0.0
 51
89.999982013907726
  0
ENDSEC
  0
EOF
