  0
SECTION
  2
HEADER
  9
$ACADVER
  1
AC1009
  9
$INSBASE
 10
0.0
 20
0.0
 30
0.0
  9
$EXTMIN
 10
31.524425493660821
 20
28.29526935608077
 30
0.0
  9
$EXTMAX
 10
506.89863881456068
 20
417.87675236086369
 30
0.0
  9
$LIMMIN
 10
0.0
 20
0.0
  9
$LIMMAX
 10
420.0
 20
297.0
  9
$ORTHOMODE
 70
     0
  9
$REGENMODE
 70
     1
  9
$FILLMODE
 70
     1
  9
$QTEXTMODE
 70
     0
  9
$MIRRTEXT
 70
     1
  9
$DRAGMODE
 70
     2
  9
$LTSCALE
 40
1.0
  9
$OSMODE
 70
    39
  9
$ATTMODE
 70
     1
  9
$TEXTSIZE
 40
2.5
  9
$TRACEWID
 40
1.0
  9
$TEXTSTYLE
  7
STANDARD
  9
$CLAYER
  8
0
  9
$CELTYPE
  6
BYLAYER
  9
$CECOLOR
 62
   256
  9
$DIMSCALE
 40
1.0
  9
$DIMASZ
 40
2.5
  9
$DIMEXO
 40
0.625
  9
$DIMDLI
 40
3.75
  9
$DIMRND
 40
0.0
  9
$DIMDLE
 40
0.0
  9
$DIMEXE
 40
1.25
  9
$DIMTP
 40
0.0
  9
$DIMTM
 40
0.0
  9
$DIMTXT
 40
2.5
  9
$DIMCEN
 40
2.5
  9
$DIMTSZ
 40
0.0
  9
$DIMTOL
 70
     0
  9
$DIMLIM
 70
     0
  9
$DIMTIH
 70
     0
  9
$DIMTOH
 70
     0
  9
$DIMSE1
 70
     0
  9
$DIMSE2
 70
     0
  9
$DIMTAD
 70
     1
  9
$DIMZIN
 70
     8
  9
$DIMBLK
  1

  9
$DIMASO
 70
     1
  9
$DIMSHO
 70
     1
  9
$DIMPOST
  1

  9
$DIMAPOST
  1

  9
$DIMALT
 70
     0
  9
$DIMALTD
 70
     3
  9
$DIMALTF
 40
0.03937007874016
  9
$DIMLFAC
 40
1.0
  9
$DIMTOFL
 70
     1
  9
$DIMTVP
 40
0.0
  9
$DIMTIX
 70
     0
  9
$DIMSOXD
 70
     0
  9
$DIMSAH
 70
     0
  9
$DIMBLK1
  1

  9
$DIMBLK2
  1

  9
$DIMSTYLE
  2
ISO-25
  9
$DIMCLRD
 70
     0
  9
$DIMCLRE
 70
     0
  9
$DIMCLRT
 70
     0
  9
$DIMTFAC
 40
1.0
  9
$DIMGAP
 40
0.625
  9
$LUNITS
 70
     2
  9
$LUPREC
 70
     4
  9
$SKETCHINC
 40
1.0
  9
$FILLETRAD
 40
10.0
  9
$AUNITS
 70
     0
  9
$AUPREC
 70
     0
  9
$MENU
  1
.
  9
$ELEVATION
 40
0.0
  9
$PELEVATION
 40
0.0
  9
$THICKNESS
 40
0.0
  9
$LIMCHECK
 70
     0
  9
$BLIPMODE
 70
     0
  9
$CHAMFERA
 40
10.0
  9
$CHAMFERB
 40
10.0
  9
$SKPOLY
 70
     0
  9
$TDCREATE
 40
2456583.6822594791
  9
$TDUPDATE
 40
2456597.5517191081
  9
$TDINDWG
 40
0.0203229861
  9
$TDUSRTIMER
 40
0.0203222569
  9
$USRTIMER
 70
     1
  9
$ANGBASE
 50
0.0
  9
$ANGDIR
 70
     0
  9
$PDMODE
 70
     0
  9
$PDSIZE
 40
0.0
  9
$PLINEWID
 40
0.0
  9
$COORDS
 70
     1
  9
$SPLFRAME
 70
     0
  9
$SPLINETYPE
 70
     6
  9
$SPLINESEGS
 70
     8
  9
$ATTDIA
 70
     0
  9
$ATTREQ
 70
     1
  9
$HANDLING
 70
-16383
  9
$HANDSEED
  5
5237
  9
$SURFTAB1
 70
     6
  9
$SURFTAB2
 70
     6
  9
$SURFTYPE
 70
     6
  9
$SURFU
 70
     6
  9
$SURFV
 70
     6
  9
$UCSNAME
  2

  9
$UCSORG
 10
0.0
 20
0.0
 30
0.0
  9
$UCSXDIR
 10
1.0
 20
0.0
 30
0.0
  9
$UCSYDIR
 10
0.0
 20
1.0
 30
0.0
  9
$PUCSNAME
  2

  9
$PUCSORG
 10
0.0
 20
0.0
 30
0.0
  9
$PUCSXDIR
 10
1.0
 20
0.0
 30
0.0
  9
$PUCSYDIR
 10
0.0
 20
1.0
 30
0.0
  9
$USERI1
 70
     0
  9
$USERI2
 70
     0
  9
$USERI3
 70
     0
  9
$USERI4
 70
     0
  9
$USERI5
 70
     0
  9
$USERR1
 40
0.0
  9
$USERR2
 40
0.0
  9
$USERR3
 40
0.0
  9
$USERR4
 40
0.0
  9
$USERR5
 40
0.0
  9
$WORLDVIEW
 70
     1
  9
$SHADEDGE
 70
     3
  9
$SHADEDIF
 70
    70
  9
$TILEMODE
 70
     1
  9
$MAXACTVP
 70
    64
  9
$PLIMCHECK
 70
     0
  9
$PEXTMIN
 10
1.0000000000000000E+020
 20
1.0000000000000000E+020
 30
1.0000000000000000E+020
  9
$PEXTMAX
 10
-1.0000000000000000E+020
 20
-1.0000000000000000E+020
 30
-1.0000000000000000E+020
  9
$PLIMMIN
 10
0.0
 20
0.0
  9
$PLIMMAX
 10
420.0
 20
297.0
  9
$UNITMODE
 70
     0
  9
$VISRETAIN
 70
     1
  9
$PLINEGEN
 70
     0
  9
$PSLTSCALE
 70
     1
  0
ENDSEC
  0
SECTION
  2
TABLES
  0
TABLE
  2
VPORT
 70
     2
  0
VPORT
  2
*ACTIVE
 70
     0
 10
0.0
 20
0.0
 11
1.0
 21
1.0
 12
452.20240302951368
 22
223.08461569544889
 13
0.0
 23
0.0
 14
10.0
 24
10.0
 15
10.0
 25
10.0
 16
0.0
 26
0.0
 36
1.0
 17
0.0
 27
0.0
 37
0.0
 40
432.40096573988677
 41
2.4309815950920242
 42
50.0
 43
0.0
 44
0.0
 50
0.0
 51
0.0
 71
     0
 72
   100
 73
     1
 74
     3
 75
     0
 76
     0
 77
     0
 78
     0
  0
ENDTAB
  0
TABLE
  2
LTYPE
 70
     3
  0
LTYPE
  2
CONTINUOUS
 70
     0
  3
Solid line
 72
    65
 73
     0
 40
0.0
  0
LTYPE
  2
DASHED
 70
     0
  3
Dashed __ __ __ __ __ __ __ __ __ __ __ __ __ _
 72
    65
 73
     2
 40
19.049999999999962
 49
12.699999999999999
 49
-6.349999999999997
  0
LTYPE
  2
CENTER
 70
     0
  3
Center ____ _ ____ _ ____ _ ____ _ ____ _ ____
 72
    65
 73
     4
 40
50.799999999999997
 49
31.75
 49
-6.349999999999997
 49
6.349999999999997
 49
-6.349999999999997
  0
ENDTAB
  0
TABLE
  2
LAYER
 70
     4
  0
LAYER
  2
0
 70
     0
 62
     7
  6
CONTINUOUS
  0
LAYER
  2
DANMEN
 70
     0
 62
     7
  6
CONTINUOUS
  0
LAYER
  2
SUNPO
 70
     0
 62
     1
  6
CONTINUOUS
  0
LAYER
  2
WAKU
 70
     0
 62
     3
  6
CONTINUOUS
  0
ENDTAB
  0
TABLE
  2
STYLE
 70
     6
  0
STYLE
  2
STANDARD
 70
     0
 40
0.0
 41
1.0
 50
0.0
 71
     0
 42
2.5
  3
txt
  4

  0
STYLE
  2
MX_NOTE_STANDARD
 70
     0
 40
0.0
 41
1.0
 50
0.0
 71
     0
 42
2.5
  3
txt.shx
  4
extfont.shx
  0
STYLE
  2
MX_DIMTXSTY_2
 70
     0
 40
0.0
 41
1.1999999999999991
 50
0.0
 71
     0
 42
2.5
  3
txt.shx
  4
extfont.shx
  0
STYLE
  2
MX_DIMTXSTY_3
 70
     0
 40
0.0
 41
1.1000000000000001
 50
0.0
 71
     0
 42
2.5
  3
txt.shx
  4
extfont.shx
  0
STYLE
  2
MX_DIMTXSTY_4
 70
     0
 40
0.0
 41
1.3500000000000001
 50
0.0
 71
     0
 42
2.5
  3
txt.shx
  4
extfont.shx
  0
STYLE
  2
MX_DIMTXSTY_5
 70
     0
 40
0.0
 41
1.3500000000000001
 50
0.0
 71
     0
 42
2.5
  3
txt.shx
  4
extfont.shx
  0
ENDTAB
  0
TABLE
  2
VIEW
 70
     0
  0
ENDTAB
  0
TABLE
  2
UCS
 70
     0
  0
ENDTAB
  0
TABLE
  2
APPID
 70
     1
  0
APPID
  2
ACAD
 70
     0
  0
ENDTAB
  0
TABLE
  2
DIMSTYLE
 70
     2
  0
DIMSTYLE
  2
ISO-25
 70
     0
  3

  4

  5

  6

  7

 40
1.0
 41
2.5
 42
0.625
 43
3.75
 44
1.25
 45
0.0
 46
0.0
 47
0.0
 48
0.0
140
2.5
141
2.5
142
0.0
143
0.03937007874016
144
1.0
145
0.0
146
1.0
147
0.625
 71
     0
 72
     0
 73
     0
 74
     0
 75
     0
 76
     0
 77
     1
 78
     8
170
     0
171
     3
172
     1
173
     0
174
     0
175
     0
176
     0
177
     0
178
     0
  0
DIMSTYLE
  2
MXDIMSTYLE
 70
     0
  3

  4

  5

  6

  7

 40
1.0
 41
2.5
 42
1.5
 43
3.75
 44
0.0
 45
0.0
 46
0.0
 47
0.0
 48
0.0
140
2.5
141
2.5
142
0.0
143
0.03937007874016
144
1.0
145
0.0
146
1.0
147
0.5
 71
     0
 72
     0
 73
     0
 74
     0
 75
     0
 76
     0
 77
     1
 78
     8
170
     0
171
     4
172
     1
173
     1
174
     0
175
     0
176
     0
177
     0
178
     0
  0
ENDTAB
  0
ENDSEC
  0
SECTION
  2
BLOCKS
  0
BLOCK
  8
0
  2
$MODEL_SPACE
 70
     0
 10
0.0
 20
0.0
 30
0.0
  3
$MODEL_SPACE
  1

  0
ENDBLK
  5
3539
  8
0
  0
BLOCK
 67
     1
  8
0
  2
$PAPER_SPACE
 70
     0
 10
0.0
 20
0.0
 30
0.0
  3
$PAPER_SPACE
  1

  0
ENDBLK
  5
3535
 67
     1
  8
0
  0
BLOCK
  8
0
  6
BYBLOCK
 62
     0
  2
_OPEN30
 70
     2
 10
0.0
 20
0.0
 30
0.0
  3
_OPEN30
  1

  0
LINE
  5
3552
  8
0
  6
BYBLOCK
 62
     0
 10
-1.0
 20
0.267949
 30
0.0
 11
0.0
 21
0.0
 31
0.0
  0
LINE
  5
3553
  8
0
  6
BYBLOCK
 62
     0
 10
0.0
 20
0.0
 30
0.0
 11
-1.0
 21
-0.267949
 31
0.0
  0
LINE
  5
3554
  8
0
  6
BYBLOCK
 62
     0
 10
0.0
 20
0.0
 30
0.0
 11
-1.0
 21
0.0
 31
0.0
  0
ENDBLK
  5
3555
  8
0
  6
BYBLOCK
 62
     0
  0
ENDSEC
  0
SECTION
  2
ENTITIES
  0
LINE
  5
3556
  8
WAKU
  6
CONTINUOUS
 10
494.47477787089508
 20
414.85770574567772
 30
0.0
 11
495.10192687089511
 21
416.5807827456776
 31
0.0
  0
LINE
  5
3557
  8
WAKU
  6
CONTINUOUS
 10
493.76923587089539
 20
412.9192447456777
 30
0.0
 11
494.2395968708953
 21
414.2115517456777
 31
0.0
  0
SOLID
  5
3558
  8
WAKU
  6
CONTINUOUS
 10
497.25577287089561
 20
416.5807827456776
 30
0.0
 11
494.41499387089561
 21
411.73462874567758
 31
0.0
 12
494.70798087089508
 22
409.58078274567771
 32
0.0
 13
494.70798087089508
 23
409.58078274567771
 33
0.0
  0
SOLID
  5
3559
  8
WAKU
  6
CONTINUOUS
 10
494.41499387089561
 20
411.73462874567758
 30
0.0
 11
497.25577287089561
 21
416.5807827456776
 31
0.0
 12
496.17884987089508
 22
416.5807827456776
 32
0.0
 13
496.17884987089508
 23
416.5807827456776
 33
0.0
  0
LINE
  5
355A
  8
WAKU
  6
CONTINUOUS
 10
494.41499387089561
 20
411.73462874567758
 30
0.0
 11
496.17884987089508
 21
416.5807827456776
 31
0.0
  0
LINE
  5
355B
  8
WAKU
  6
CONTINUOUS
 10
494.70798087089508
 20
409.58078274567771
 30
0.0
 11
497.25577287089561
 21
416.5807827456776
 31
0.0
  0
LINE
  5
355C
  8
WAKU
  6
CONTINUOUS
 10
496.17884987089508
 20
416.5807827456776
 30
0.0
 11
497.25577287089561
 21
416.5807827456776
 31
0.0
  0
LINE
  5
355D
  8
WAKU
  6
CONTINUOUS
 10
491.87115787089567
 20
416.5807827456776
 30
0.0
 11
491.2440088708953
 21
414.85770574567772
 31
0.0
  0
LINE
  5
355E
  8
WAKU
  6
CONTINUOUS
 10
491.00882787089557
 20
414.2115517456777
 30
0.0
 11
490.5384668708956
 21
412.9192447456777
 31
0.0
  0
LINE
  5
355F
  8
WAKU
  6
CONTINUOUS
 10
489.3233658708956
 20
409.58078274567771
 30
0.0
 11
490.10730187089513
 21
411.73462874567758
 31
0.0
  0
LINE
  5
3560
  8
WAKU
  6
CONTINUOUS
 10
488.05243587089512
 20
414.96539774567742
 30
0.0
 11
489.1293598708948
 21
414.96539774567742
 31
0.0
  0
SOLID
  5
3561
  8
WAKU
  6
CONTINUOUS
 10
487.16951987089539
 20
409.58078274567771
 30
0.0
 11
486.68054887089568
 21
411.196167745678
 31
0.0
 12
483.44977887089561
 22
411.196167745678
 32
0.0
 13
483.44977887089561
 23
411.196167745678
 33
0.0
  0
LINE
  5
3562
  8
WAKU
  6
CONTINUOUS
 10
483.4497788708951
 20
411.1961677456776
 30
0.0
 11
486.68054887089539
 21
411.1961677456776
 31
0.0
  0
SOLID
  5
3563
  8
WAKU
  6
CONTINUOUS
 10
485.11465387089561
 20
412.81155174567812
 30
0.0
 11
485.89858987089542
 21
414.96539774567827
 31
0.0
 12
484.82166687089563
 22
414.96539774567827
 32
0.0
 13
484.82166687089563
 23
414.96539774567827
 33
0.0
  0
LINE
  5
3564
  8
WAKU
  6
CONTINUOUS
 10
485.43773087089562
 20
412.81155174567772
 30
0.0
 11
486.22166687089509
 21
414.96539774567742
 31
0.0
  0
LINE
  5
3565
  8
WAKU
  6
CONTINUOUS
 10
485.11465387089561
 20
412.81155174567772
 30
0.0
 11
485.89858987089502
 21
414.96539774567742
 31
0.0
  0
LINE
  5
3566
  8
WAKU
  6
CONTINUOUS
 10
485.43773087089562
 20
412.81155174567772
 30
0.0
 11
486.51465387089462
 21
412.81155174567772
 31
0.0
  0
LINE
  5
3567
  8
WAKU
  6
CONTINUOUS
 10
484.82166687089563
 20
414.96539774567742
 30
0.0
 11
485.89858987089502
 21
414.96539774567742
 31
0.0
  0
SOLID
  5
3568
  8
WAKU
  6
CONTINUOUS
 10
486.22166687089538
 20
414.96539774567827
 30
0.0
 11
485.43773087089562
 21
412.81155174567812
 31
0.0
 12
487.29858987089511
 22
414.96539774567827
 32
0.0
 13
487.29858987089511
 23
414.96539774567827
 33
0.0
  0
SOLID
  5
3569
  8
WAKU
  6
CONTINUOUS
 10
487.29858987089511
 20
414.96539774567827
 30
0.0
 11
485.43773087089562
 21
412.81155174567812
 31
0.0
 12
486.51465387089559
 22
412.81155174567812
 32
0.0
 13
486.51465387089559
 23
412.81155174567812
 33
0.0
  0
SOLID
  5
356A
  8
WAKU
  6
CONTINUOUS
 10
484.82166687089563
 20
414.96539774567827
 30
0.0
 11
484.03773087089581
 21
412.81155174567812
 31
0.0
 12
485.11465387089561
 22
412.81155174567812
 32
0.0
 13
485.11465387089561
 23
412.81155174567812
 33
0.0
  0
LINE
  5
356B
  8
WAKU
  6
CONTINUOUS
 10
484.03773087089502
 20
412.81155174567772
 30
0.0
 11
484.82166687089563
 21
414.96539774567742
 31
0.0
  0
LINE
  5
356C
  8
WAKU
  6
CONTINUOUS
 10
484.03773087089502
 20
412.81155174567772
 30
0.0
 11
485.11465387089561
 21
412.81155174567772
 31
0.0
  0
LINE
  5
356D
  8
WAKU
  6
CONTINUOUS
 10
486.51465387089462
 20
412.81155174567772
 30
0.0
 11
487.29858987089511
 21
414.96539774567742
 31
0.0
  0
LINE
  5
356E
  8
WAKU
  6
CONTINUOUS
 10
486.22166687089509
 20
414.96539774567742
 30
0.0
 11
487.29858987089511
 21
414.96539774567742
 31
0.0
  0
SOLID
  5
356F
  8
WAKU
  6
CONTINUOUS
 10
488.05243587089541
 20
414.96539774567827
 30
0.0
 11
486.68054887089568
 21
411.196167745678
 31
0.0
 12
487.16951987089539
 22
409.58078274567771
 32
0.0
 13
487.16951987089539
 23
409.58078274567771
 33
0.0
  0
LINE
  5
3570
  8
WAKU
  6
CONTINUOUS
 10
486.68054887089539
 20
411.1961677456776
 30
0.0
 11
488.05243587089512
 21
414.96539774567742
 31
0.0
  0
SOLID
  5
3571
  8
WAKU
  6
CONTINUOUS
 10
489.12935987089583
 20
414.96539774567827
 30
0.0
 11
488.05243587089541
 21
414.96539774567827
 31
0.0
 12
487.16951987089539
 22
409.58078274567771
 32
0.0
 13
487.16951987089539
 23
409.58078274567771
 33
0.0
  0
LINE
  5
3572
  8
WAKU
  6
CONTINUOUS
 10
487.16951987089539
 20
409.58078274567771
 30
0.0
 11
489.1293598708948
 21
414.96539774567742
 31
0.0
  0
SOLID
  5
3573
  8
WAKU
  6
CONTINUOUS
 10
482.17884987089519
 20
416.5807827456776
 30
0.0
 11
481.70848787089562
 21
415.28847474567817
 31
0.0
 12
482.78541087089548
 22
415.28847474567817
 32
0.0
 13
482.78541087089548
 23
415.28847474567817
 33
0.0
  0
SOLID
  5
3574
  8
WAKU
  6
CONTINUOUS
 10
481.70848787089562
 20
415.28847474567817
 30
0.0
 11
482.19745987089561
 21
413.67309074567771
 31
0.0
 12
483.00515187089542
 22
413.67309074567771
 32
0.0
 13
483.00515187089542
 23
413.67309074567771
 33
0.0
  0
LINE
  5
3575
  8
WAKU
  6
CONTINUOUS
 10
481.70848787089471
 20
415.28847474567772
 30
0.0
 11
482.17884987089508
 21
416.5807827456776
 31
0.0
  0
LINE
  5
3576
  8
WAKU
  6
CONTINUOUS
 10
482.19745987089539
 20
413.67309074567771
 30
0.0
 11
483.00515187089508
 21
413.67309074567771
 31
0.0
  0
LINE
  5
3577
  8
WAKU
  6
CONTINUOUS
 10
479.01618087089508
 20
415.28847474567772
 30
0.0
 11
479.48654187089539
 21
416.5807827456776
 31
0.0
  0
LINE
  5
3578
  8
WAKU
  6
CONTINUOUS
 10
478.40961887089509
 20
416.5807827456776
 30
0.0
 11
479.48654187089539
 21
416.5807827456776
 31
0.0
  0
SOLID
  5
3579
  8
WAKU
  6
CONTINUOUS
 10
481.12053587089508
 20
413.67309074567771
 30
0.0
 11
480.41499387089561
 21
411.73462874567758
 31
0.0
 12
480.70798087089571
 22
409.58078274567771
 32
0.0
 13
480.70798087089571
 23
409.58078274567771
 33
0.0
  0
LINE
  5
357A
  8
WAKU
  6
CONTINUOUS
 10
480.41499387089561
 20
411.73462874567758
 30
0.0
 11
481.12053587089503
 21
413.67309074567771
 31
0.0
  0
LINE
  5
357B
  8
WAKU
  6
CONTINUOUS
 10
478.42822887089523
 20
413.67309074567771
 30
0.0
 11
481.12053587089503
 21
413.67309074567771
 31
0.0
  0
SOLID
  5
357C
  8
WAKU
  6
CONTINUOUS
 10
482.19745987089561
 20
413.67309074567771
 30
0.0
 11
481.12053587089508
 21
413.67309074567771
 31
0.0
 12
480.70798087089571
 22
409.58078274567771
 32
0.0
 13
480.70798087089571
 23
409.58078274567771
 33
0.0
  0
LINE
  5
357D
  8
WAKU
  6
CONTINUOUS
 10
480.70798087089531
 20
409.58078274567771
 30
0.0
 11
482.19745987089539
 21
413.67309074567771
 31
0.0
  0
SOLID
  5
357E
  8
WAKU
  6
CONTINUOUS
 10
482.19745987089561
 20
413.67309074567771
 30
0.0
 11
481.70848787089562
 21
415.28847474567817
 31
0.0
 12
479.0161808708956
 22
415.28847474567817
 32
0.0
 13
479.0161808708956
 23
415.28847474567817
 33
0.0
  0
LINE
  5
357F
  8
WAKU
  6
CONTINUOUS
 10
479.01618087089508
 20
415.28847474567772
 30
0.0
 11
481.70848787089471
 21
415.28847474567772
 31
0.0
  0
LINE
  5
3580
  8
WAKU
  6
CONTINUOUS
 10
476.9593378708953
 20
412.59616774567769
 30
0.0
 11
477.3513058708956
 21
413.67309074567771
 31
0.0
  0
LINE
  5
3581
  8
WAKU
  6
CONTINUOUS
 10
476.9593378708953
 20
412.59616774567769
 30
0.0
 11
478.0362608708956
 21
412.59616774567769
 31
0.0
  0
LINE
  5
3582
  8
WAKU
  6
CONTINUOUS
 10
475.64644287089448
 20
409.58078274567771
 30
0.0
 11
476.43037887089508
 21
411.73462874567758
 31
0.0
  0
LINE
  5
3583
  8
WAKU
  6
CONTINUOUS
 10
476.543612870895
 20
413.67309074567771
 30
0.0
 11
477.3513058708956
 21
413.67309074567771
 31
0.0
  0
LINE
  5
3584
  8
WAKU
  6
CONTINUOUS
 10
477.1315648708956
 20
415.28847474567772
 30
0.0
 11
477.93925787089472
 21
415.28847474567772
 31
0.0
  0
LINE
  5
3585
  8
WAKU
  6
CONTINUOUS
 10
476.543612870895
 20
413.67309074567771
 30
0.0
 11
477.1315648708956
 21
415.28847474567772
 31
0.0
  0
LINE
  5
3586
  8
WAKU
  6
CONTINUOUS
 10
475.62862387089513
 20
414.85770574567772
 30
0.0
 11
476.2557728708951
 21
416.5807827456776
 31
0.0
  0
LINE
  5
3587
  8
WAKU
  6
CONTINUOUS
 10
473.70798087089503
 20
409.58078274567771
 30
0.0
 11
474.49191687089473
 21
411.73462874567758
 31
0.0
  0
SOLID
  5
3588
  8
WAKU
  6
CONTINUOUS
 10
477.13156487089577
 20
415.28847474567817
 30
0.0
 11
476.54361287089557
 21
413.67309074567771
 31
0.0
 12
479.0161808708956
 22
415.28847474567817
 32
0.0
 13
479.0161808708956
 23
415.28847474567817
 33
0.0
  0
LINE
  5
3589
  8
WAKU
  6
CONTINUOUS
 10
477.93925787089472
 20
415.28847474567772
 30
0.0
 11
478.40961887089509
 21
416.5807827456776
 31
0.0
  0
SOLID
  5
358A
  8
WAKU
  6
CONTINUOUS
 10
479.48654187089539
 20
416.5807827456776
 30
0.0
 11
477.93925787089591
 21
415.28847474567817
 31
0.0
 12
479.0161808708956
 22
415.28847474567817
 32
0.0
 13
479.0161808708956
 23
415.28847474567817
 33
0.0
  0
SOLID
  5
358B
  8
WAKU
  6
CONTINUOUS
 10
477.93925787089591
 20
415.28847474567817
 30
0.0
 11
479.48654187089539
 21
416.5807827456776
 31
0.0
 12
478.40961887089583
 22
416.5807827456776
 32
0.0
 13
478.40961887089583
 23
416.5807827456776
 33
0.0
  0
SOLID
  5
358C
  8
WAKU
  6
CONTINUOUS
 10
480.70798087089571
 20
409.58078274567771
 30
0.0
 11
480.41499387089561
 21
411.73462874567758
 31
0.0
 12
476.43037887089599
 22
411.73462874567758
 32
0.0
 13
476.43037887089599
 23
411.73462874567758
 33
0.0
  0
SOLID
  5
358D
  8
WAKU
  6
CONTINUOUS
 10
476.43037887089599
 20
411.73462874567758
 30
0.0
 11
475.64644287089561
 21
409.58078274567771
 31
0.0
 12
480.70798087089571
 22
409.58078274567771
 32
0.0
 13
480.70798087089571
 23
409.58078274567771
 33
0.0
  0
LINE
  5
358E
  8
WAKU
  6
CONTINUOUS
 10
475.64644287089448
 20
409.58078274567771
 30
0.0
 11
480.70798087089531
 21
409.58078274567771
 31
0.0
  0
SOLID
  5
358F
  8
WAKU
  6
CONTINUOUS
 10
476.54361287089557
 20
413.67309074567771
 30
0.0
 11
478.42822887089568
 21
413.67309074567771
 31
0.0
 12
481.12053587089508
 22
413.67309074567771
 32
0.0
 13
481.12053587089508
 23
413.67309074567771
 33
0.0
  0
SOLID
  5
3590
  8
WAKU
  6
CONTINUOUS
 10
479.0161808708956
 20
415.28847474567817
 30
0.0
 11
476.54361287089557
 21
413.67309074567771
 31
0.0
 12
482.19745987089561
 22
413.67309074567771
 32
0.0
 13
482.19745987089561
 23
413.67309074567771
 33
0.0
  0
SOLID
  5
3591
  8
WAKU
  6
CONTINUOUS
 10
482.19745987089561
 20
413.67309074567771
 30
0.0
 11
476.54361287089557
 21
413.67309074567771
 31
0.0
 12
481.12053587089508
 22
413.67309074567771
 32
0.0
 13
481.12053587089508
 23
413.67309074567771
 33
0.0
  0
SOLID
  5
3592
  8
WAKU
  6
CONTINUOUS
 10
477.3513058708956
 20
413.67309074567771
 30
0.0
 11
476.9593378708953
 21
412.5961677456782
 31
0.0
 12
478.42822887089568
 22
413.67309074567771
 32
0.0
 13
478.42822887089568
 23
413.67309074567771
 33
0.0
  0
SOLID
  5
3593
  8
WAKU
  6
CONTINUOUS
 10
478.42822887089568
 20
413.67309074567771
 30
0.0
 11
476.9593378708953
 21
412.5961677456782
 31
0.0
 12
478.0362608708956
 22
412.5961677456782
 32
0.0
 13
478.0362608708956
 23
412.5961677456782
 33
0.0
  0
LINE
  5
3594
  8
WAKU
  6
CONTINUOUS
 10
478.0362608708956
 20
412.59616774567769
 30
0.0
 11
478.42822887089523
 21
413.67309074567771
 31
0.0
  0
LINE
  5
3595
  8
WAKU
  6
CONTINUOUS
 10
476.43037887089508
 20
411.73462874567758
 30
0.0
 11
480.41499387089561
 21
411.73462874567758
 31
0.0
  0
SOLID
  5
3596
  8
WAKU
  6
CONTINUOUS
 10
476.54361287089557
 20
413.67309074567771
 30
0.0
 11
477.3513058708956
 21
413.67309074567771
 31
0.0
 12
478.42822887089568
 22
413.67309074567771
 32
0.0
 13
478.42822887089568
 23
413.67309074567771
 33
0.0
  0
SOLID
  5
3597
  8
WAKU
  6
CONTINUOUS
 10
479.0161808708956
 20
415.28847474567817
 30
0.0
 11
477.93925787089591
 21
415.28847474567817
 31
0.0
 12
477.13156487089577
 22
415.28847474567817
 32
0.0
 13
477.13156487089577
 23
415.28847474567817
 33
0.0
  0
SOLID
  5
3598
  8
WAKU
  6
CONTINUOUS
 10
483.44977887089561
 20
411.196167745678
 30
0.0
 11
482.86182787089592
 21
409.58078274567771
 31
0.0
 12
487.16951987089539
 22
409.58078274567771
 32
0.0
 13
487.16951987089539
 23
409.58078274567771
 33
0.0
  0
LINE
  5
3599
  8
WAKU
  6
CONTINUOUS
 10
482.86182787089592
 20
409.58078274567771
 30
0.0
 11
487.16951987089539
 21
409.58078274567771
 31
0.0
  0
SOLID
  5
359A
  8
WAKU
  6
CONTINUOUS
 10
482.78541087089548
 20
415.28847474567817
 30
0.0
 11
481.70848787089562
 21
415.28847474567817
 31
0.0
 12
483.59310387089562
 22
415.28847474567817
 32
0.0
 13
483.59310387089562
 23
415.28847474567817
 33
0.0
  0
SOLID
  5
359B
  8
WAKU
  6
CONTINUOUS
 10
483.59310387089562
 20
415.28847474567817
 30
0.0
 11
481.70848787089562
 21
415.28847474567817
 31
0.0
 12
483.00515187089542
 22
413.67309074567771
 32
0.0
 13
483.00515187089542
 23
413.67309074567771
 33
0.0
  0
LINE
  5
359C
  8
WAKU
  6
CONTINUOUS
 10
482.86182787089592
 20
409.58078274567771
 30
0.0
 11
483.4497788708951
 21
411.1961677456776
 31
0.0
  0
SOLID
  5
359D
  8
WAKU
  6
CONTINUOUS
 10
483.25577287089538
 20
416.5807827456776
 30
0.0
 11
482.17884987089519
 21
416.5807827456776
 31
0.0
 12
482.78541087089548
 22
415.28847474567817
 32
0.0
 13
482.78541087089548
 23
415.28847474567817
 33
0.0
  0
LINE
  5
359E
  8
WAKU
  6
CONTINUOUS
 10
482.17884987089508
 20
416.5807827456776
 30
0.0
 11
483.25577287089448
 21
416.5807827456776
 31
0.0
  0
LINE
  5
359F
  8
WAKU
  6
CONTINUOUS
 10
482.78541087089548
 20
415.28847474567772
 30
0.0
 11
483.25577287089448
 21
416.5807827456776
 31
0.0
  0
LINE
  5
35A0
  8
WAKU
  6
CONTINUOUS
 10
482.78541087089548
 20
415.28847474567772
 30
0.0
 11
483.59310387089562
 21
415.28847474567772
 31
0.0
  0
LINE
  5
35A1
  8
WAKU
  6
CONTINUOUS
 10
483.00515187089508
 20
413.67309074567771
 30
0.0
 11
483.59310387089562
 21
415.28847474567772
 31
0.0
  0
LINE
  5
35A2
  8
WAKU
  6
CONTINUOUS
 10
470.2440088708953
 20
414.85770574567772
 30
0.0
 11
470.87115787089562
 21
416.5807827456776
 31
0.0
  0
LINE
  5
35A3
  8
WAKU
  6
CONTINUOUS
 10
468.3233658708956
 20
409.58078274567771
 30
0.0
 11
469.10730187089513
 21
411.73462874567758
 31
0.0
  0
LINE
  5
35A4
  8
WAKU
  6
CONTINUOUS
 10
469.5788498708954
 20
416.5807827456776
 30
0.0
 11
468.95170087089451
 21
414.85770574567772
 31
0.0
  0
LINE
  5
35A5
  8
WAKU
  6
CONTINUOUS
 10
466.78062387089511
 20
414.85770574567772
 30
0.0
 11
468.01097787089509
 21
412.27309074567768
 31
0.0
  0
LINE
  5
35A6
  8
WAKU
  6
CONTINUOUS
 10
467.0310578708951
 20
409.58078274567771
 30
0.0
 11
468.01097787089509
 21
412.27309074567768
 31
0.0
  0
SOLID
  5
35A7
  8
WAKU
  6
CONTINUOUS
 10
465.74943987089569
 20
412.27309074567802
 30
0.0
 11
464.65291787089558
 21
412.219244745678
 31
0.0
 12
464.76951987089518
 22
409.58078274567771
 32
0.0
 13
464.76951987089518
 23
409.58078274567771
 33
0.0
  0
LINE
  5
35A8
  8
WAKU
  6
CONTINUOUS
 10
464.76951987089518
 20
409.58078274567771
 30
0.0
 11
465.74943987089512
 21
412.27309074567768
 31
0.0
  0
SOLID
  5
35A9
  8
WAKU
  6
CONTINUOUS
 10
464.65291787089558
 20
412.219244745678
 30
0.0
 11
463.69259687089561
 21
409.58078274567771
 31
0.0
 12
464.76951987089518
 22
409.58078274567771
 32
0.0
 13
464.76951987089518
 23
409.58078274567771
 33
0.0
  0
LINE
  5
35AA
  8
WAKU
  6
CONTINUOUS
 10
463.69259687089561
 20
409.58078274567771
 30
0.0
 11
464.65291787089512
 21
412.219244745678
 31
0.0
  0
LINE
  5
35AB
  8
WAKU
  6
CONTINUOUS
 10
463.69259687089561
 20
409.58078274567771
 30
0.0
 11
464.76951987089518
 21
409.58078274567771
 31
0.0
  0
SOLID
  5
35AC
  8
WAKU
  6
CONTINUOUS
 10
466.78062387089511
 20
414.857705745678
 30
0.0
 11
465.56708587089571
 21
414.857705745678
 31
0.0
 12
465.74943987089569
 22
412.27309074567802
 32
0.0
 13
465.74943987089569
 23
412.27309074567802
 33
0.0
  0
LINE
  5
35AD
  8
WAKU
  6
CONTINUOUS
 10
465.74943987089512
 20
412.27309074567768
 30
0.0
 11
467.0310578708951
 21
409.58078274567771
 31
0.0
  0
SOLID
  5
35AE
  8
WAKU
  6
CONTINUOUS
 10
466.78062387089511
 20
414.857705745678
 30
0.0
 11
465.74943987089569
 21
412.27309074567802
 31
0.0
 12
468.01097787089537
 22
412.27309074567802
 32
0.0
 13
468.01097787089537
 23
412.27309074567802
 33
0.0
  0
SOLID
  5
35AF
  8
WAKU
  6
CONTINUOUS
 10
465.74943987089569
 20
412.27309074567802
 30
0.0
 11
467.03105787089561
 21
409.58078274567771
 31
0.0
 12
468.01097787089537
 22
412.27309074567802
 32
0.0
 13
468.01097787089537
 23
412.27309074567802
 33
0.0
  0
LINE
  5
35B0
  8
WAKU
  6
CONTINUOUS
 10
463.351700870895
 20
414.85770574567772
 30
0.0
 11
465.56708587089503
 21
414.85770574567772
 31
0.0
  0
LINE
  5
35B1
  8
WAKU
  6
CONTINUOUS
 10
463.97884987089509
 20
416.5807827456776
 30
0.0
 11
463.351700870895
 21
414.85770574567772
 31
0.0
  0
SOLID
  5
35B2
  8
WAKU
  6
CONTINUOUS
 10
463.97884987089571
 20
416.5807827456776
 30
0.0
 11
463.35170087089563
 21
414.857705745678
 31
0.0
 12
466.78062387089511
 22
414.857705745678
 32
0.0
 13
466.78062387089511
 23
414.857705745678
 33
0.0
  0
SOLID
  5
35B3
  8
WAKU
  6
CONTINUOUS
 10
466.78062387089511
 20
414.857705745678
 30
0.0
 11
463.35170087089563
 21
414.857705745678
 31
0.0
 12
465.56708587089571
 22
414.857705745678
 32
0.0
 13
465.56708587089571
 23
414.857705745678
 33
0.0
  0
LINE
  5
35B4
  8
WAKU
  6
CONTINUOUS
 10
466.78062387089511
 20
414.85770574567772
 30
0.0
 11
468.95170087089451
 21
414.85770574567772
 31
0.0
  0
SOLID
  5
35B5
  8
WAKU
  6
CONTINUOUS
 10
469.57884987089562
 20
416.5807827456776
 30
0.0
 11
463.97884987089571
 21
416.5807827456776
 31
0.0
 12
468.95170087089531
 22
414.857705745678
 32
0.0
 13
468.95170087089531
 23
414.857705745678
 33
0.0
  0
SOLID
  5
35B6
  8
WAKU
  6
CONTINUOUS
 10
463.97884987089571
 20
416.5807827456776
 30
0.0
 11
466.78062387089511
 21
414.857705745678
 31
0.0
 12
468.95170087089531
 22
414.857705745678
 32
0.0
 13
468.95170087089531
 23
414.857705745678
 33
0.0
  0
LINE
  5
35B7
  8
WAKU
  6
CONTINUOUS
 10
463.97884987089509
 20
416.5807827456776
 30
0.0
 11
469.5788498708954
 21
416.5807827456776
 31
0.0
  0
LINE
  5
35B8
  8
WAKU
  6
CONTINUOUS
 10
461.4310578708953
 20
409.58078274567771
 30
0.0
 11
462.41097787089518
 21
412.27309074567768
 31
0.0
  0
LINE
  5
35B9
  8
WAKU
  6
CONTINUOUS
 10
459.15061587089508
 20
412.86447574567819
 30
0.0
 11
459.4125048708953
 21
413.36581274567772
 31
0.0
  0
SOLID
  5
35BA
  8
WAKU
  6
CONTINUOUS
 10
460.20659987089562
 20
413.67707174567829
 30
0.0
 11
459.81213387089548
 21
413.6506467456777
 31
0.0
 12
460.12175687089558
 22
413.24691674567799
 32
0.0
 13
460.12175687089558
 23
413.24691674567799
 33
0.0
  0
SOLID
  5
35BB
  8
WAKU
  6
CONTINUOUS
 10
459.81213387089548
 20
413.6506467456777
 30
0.0
 11
459.71648287089539
 21
413.25503074567729
 31
0.0
 12
460.12175687089558
 22
413.24691674567799
 32
0.0
 13
460.12175687089558
 23
413.24691674567799
 33
0.0
  0
LINE
  5
35BC
  8
WAKU
  6
CONTINUOUS
 10
460.12175687089518
 20
413.24691674567748
 30
0.0
 11
460.20659987089562
 21
413.67707174567721
 31
0.0
  0
LINE
  5
35BD
  8
WAKU
  6
CONTINUOUS
 10
459.71648287089539
 20
413.25503074567729
 30
0.0
 11
459.81213387089508
 21
413.6506467456768
 31
0.0
  0
SOLID
  5
35BE
  8
WAKU
  6
CONTINUOUS
 10
459.71648287089539
 20
413.25503074567729
 30
0.0
 11
459.52427987089561
 21
412.80006074567802
 31
0.0
 12
460.12175687089558
 22
413.24691674567799
 32
0.0
 13
460.12175687089558
 23
413.24691674567799
 33
0.0
  0
SOLID
  5
35BF
  8
WAKU
  6
CONTINUOUS
 10
460.12175687089558
 20
413.24691674567799
 30
0.0
 11
459.52427987089561
 21
412.80006074567802
 31
0.0
 12
459.94527587089561
 22
412.7776107456782
 32
0.0
 13
459.94527587089561
 23
412.7776107456782
 33
0.0
  0
LINE
  5
35C0
  8
WAKU
  6
CONTINUOUS
 10
459.6836378708951
 20
412.28639174567741
 30
0.0
 11
459.9452758708947
 21
412.77761074567741
 31
0.0
  0
LINE
  5
35C1
  8
WAKU
  6
CONTINUOUS
 10
459.9452758708947
 20
412.77761074567741
 30
0.0
 11
460.12175687089518
 21
413.24691674567748
 31
0.0
  0
LINE
  5
35C2
  8
WAKU
  6
CONTINUOUS
 10
459.52427987089447
 20
412.80006074567802
 30
0.0
 11
459.71648287089539
 21
413.25503074567729
 31
0.0
  0
LINE
  5
35C3
  8
WAKU
  6
CONTINUOUS
 10
458.94610787089471
 20
411.31052674567741
 30
0.0
 11
459.34645387089557
 21
411.79130274567768
 31
0.0
  0
SOLID
  5
35C4
  8
WAKU
  6
CONTINUOUS
 10
459.52427987089561
 20
412.80006074567802
 30
0.0
 11
459.24082287089561
 21
412.31450074567812
 31
0.0
 12
459.94527587089561
 22
412.7776107456782
 32
0.0
 13
459.94527587089561
 23
412.7776107456782
 33
0.0
  0
SOLID
  5
35C5
  8
WAKU
  6
CONTINUOUS
 10
459.94527587089561
 20
412.7776107456782
 30
0.0
 11
459.24082287089561
 21
412.31450074567812
 31
0.0
 12
459.68363787089561
 22
412.28639174567809
 32
0.0
 13
459.68363787089561
 23
412.28639174567809
 33
0.0
  0
LINE
  5
35C6
  8
WAKU
  6
CONTINUOUS
 10
459.34645387089557
 20
411.79130274567768
 30
0.0
 11
459.6836378708951
 21
412.28639174567741
 31
0.0
  0
LINE
  5
35C7
  8
WAKU
  6
CONTINUOUS
 10
459.24082287089561
 20
412.31450074567812
 30
0.0
 11
459.52427987089447
 21
412.80006074567802
 31
0.0
  0
SOLID
  5
35C8
  8
WAKU
  6
CONTINUOUS
 10
460.09238487089573
 20
414.35874974567793
 30
0.0
 11
459.66058287089538
 21
414.27703174567802
 31
0.0
 12
460.19668787089557
 22
414.05227574567829
 32
0.0
 13
460.19668787089557
 23
414.05227574567829
 33
0.0
  0
SOLID
  5
35C9
  8
WAKU
  6
CONTINUOUS
 10
459.66058287089538
 20
414.27703174567802
 30
0.0
 11
459.75872387089561
 21
414.15870074567817
 31
0.0
 12
460.19668787089557
 22
414.05227574567829
 32
0.0
 13
460.19668787089557
 23
414.05227574567829
 33
0.0
  0
SOLID
  5
35CA
  8
WAKU
  6
CONTINUOUS
 10
459.75872387089561
 20
414.15870074567817
 30
0.0
 11
459.81757487089561
 21
413.95803574567771
 31
0.0
 12
460.19668787089557
 22
414.05227574567829
 32
0.0
 13
460.19668787089557
 23
414.05227574567829
 33
0.0
  0
SOLID
  5
35CB
  8
WAKU
  6
CONTINUOUS
 10
460.19668787089557
 20
414.05227574567829
 30
0.0
 11
459.81757487089561
 21
413.95803574567771
 31
0.0
 12
460.20659987089562
 22
413.67707174567829
 32
0.0
 13
460.20659987089562
 23
413.67707174567829
 33
0.0
  0
SOLID
  5
35CC
  8
WAKU
  6
CONTINUOUS
 10
459.81757487089561
 20
413.95803574567771
 30
0.0
 11
459.81213387089548
 21
413.6506467456777
 31
0.0
 12
460.20659987089562
 22
413.67707174567829
 32
0.0
 13
460.20659987089562
 23
413.67707174567829
 33
0.0
  0
LINE
  5
35CD
  8
WAKU
  6
CONTINUOUS
 10
460.0923848708947
 20
414.35874974567793
 30
0.0
 11
459.89752187089562
 21
414.5852347456775
 31
0.0
  0
LINE
  5
35CE
  8
WAKU
  6
CONTINUOUS
 10
460.20659987089562
 20
413.67707174567721
 30
0.0
 11
460.19668787089512
 21
414.05227574567772
 31
0.0
  0
LINE
  5
35CF
  8
WAKU
  6
CONTINUOUS
 10
460.19668787089512
 20
414.05227574567772
 30
0.0
 11
460.0923848708947
 21
414.35874974567793
 31
0.0
  0
LINE
  5
35D0
  8
WAKU
  6
CONTINUOUS
 10
459.81213387089508
 20
413.6506467456768
 30
0.0
 11
459.81757487089459
 21
413.95803574567771
 31
0.0
  0
LINE
  5
35D1
  8
WAKU
  6
CONTINUOUS
 10
459.81757487089459
 20
413.95803574567771
 30
0.0
 11
459.75872387089458
 21
414.15870074567761
 31
0.0
  0
LINE
  5
35D2
  8
WAKU
  6
CONTINUOUS
 10
459.75872387089458
 20
414.15870074567761
 30
0.0
 11
459.66058287089442
 21
414.27703174567802
 31
0.0
  0
LINE
  5
35D3
  8
WAKU
  6
CONTINUOUS
 10
459.58469787089513
 20
413.84276974567751
 30
0.0
 11
459.66058287089442
 21
414.27703174567802
 31
0.0
  0
LINE
  5
35D4
  8
WAKU
  6
CONTINUOUS
 10
459.89752187089562
 20
414.5852347456775
 30
0.0
 11
459.61925687089439
 21
414.72341274567742
 31
0.0
  0
LINE
  5
35D5
  8
WAKU
  6
CONTINUOUS
 10
459.61925687089439
 20
414.72341274567742
 30
0.0
 11
459.48107887089532
 21
415.00167774567768
 31
0.0
  0
LINE
  5
35D6
  8
WAKU
  6
CONTINUOUS
 10
459.18784387089522
 20
413.87118474567728
 30
0.0
 11
459.27500187089453
 21
414.37935174567758
 31
0.0
  0
LINE
  5
35D7
  8
WAKU
  6
CONTINUOUS
 10
459.17271387089539
 20
414.76472674567748
 30
0.0
 11
459.0549208708951
 21
414.8627117456777
 31
0.0
  0
LINE
  5
35D8
  8
WAKU
  6
CONTINUOUS
 10
459.25459387089558
 20
415.1965397456778
 30
0.0
 11
458.94812087089502
 21
415.30084274567793
 31
0.0
  0
SOLID
  5
35D9
  8
WAKU
  6
CONTINUOUS
 10
459.05492087089539
 20
414.8627117456777
 30
0.0
 11
459.17271387089539
 21
414.76472674567799
 31
0.0
 12
459.61925687089558
 22
414.72341274567742
 32
0.0
 13
459.61925687089558
 23
414.72341274567742
 33
0.0
  0
SOLID
  5
35DA
  8
WAKU
  6
CONTINUOUS
 10
459.89752187089562
 20
414.58523474567818
 30
0.0
 11
459.27500187089538
 21
414.37935174567758
 31
0.0
 12
460.09238487089573
 22
414.35874974567793
 32
0.0
 13
460.09238487089573
 23
414.35874974567793
 33
0.0
  0
SOLID
  5
35DB
  8
WAKU
  6
CONTINUOUS
 10
459.27500187089538
 20
414.37935174567758
 30
0.0
 11
459.18784387089562
 21
413.87118474567808
 31
0.0
 12
459.66058287089538
 22
414.27703174567802
 32
0.0
 13
459.66058287089538
 23
414.27703174567802
 33
0.0
  0
SOLID
  5
35DC
  8
WAKU
  6
CONTINUOUS
 10
459.27500187089538
 20
414.37935174567758
 30
0.0
 11
459.66058287089538
 21
414.27703174567802
 31
0.0
 12
460.09238487089573
 22
414.35874974567793
 32
0.0
 13
460.09238487089573
 23
414.35874974567793
 33
0.0
  0
SOLID
  5
35DD
  8
WAKU
  6
CONTINUOUS
 10
459.66058287089538
 20
414.27703174567802
 30
0.0
 11
459.18784387089562
 21
413.87118474567808
 31
0.0
 12
459.5846978708957
 22
413.84276974567808
 32
0.0
 13
459.5846978708957
 23
413.84276974567808
 33
0.0
  0
LINE
  5
35DE
  8
WAKU
  6
CONTINUOUS
 10
459.48107887089532
 20
415.00167774567768
 30
0.0
 11
459.25459387089558
 21
415.1965397456778
 31
0.0
  0
LINE
  5
35DF
  8
WAKU
  6
CONTINUOUS
 10
459.4125048708953
 20
413.36581274567772
 30
0.0
 11
459.58469787089513
 21
413.84276974567751
 31
0.0
  0
LINE
  5
35E0
  8
WAKU
  6
CONTINUOUS
 10
458.73840887089511
 20
414.68879674567768
 30
0.0
 11
458.26141187089507
 21
414.51655074567719
 31
0.0
  0
LINE
  5
35E1
  8
WAKU
  6
CONTINUOUS
 10
458.40103887089452
 20
411.86587174567728
 30
0.0
 11
458.80908887089561
 21
412.35801174567769
 31
0.0
  0
LINE
  5
35E2
  8
WAKU
  6
CONTINUOUS
 10
458.47601087089453
 20
412.56270274567771
 30
0.0
 11
458.91712587089501
 21
413.240316745678
 31
0.0
  0
LINE
  5
35E3
  8
WAKU
  6
CONTINUOUS
 10
458.85376887089512
 20
414.92168474567728
 30
0.0
 11
458.54662987089472
 21
414.91636374567759
 31
0.0
  0
SOLID
  5
35E4
  8
WAKU
  6
CONTINUOUS
 10
458.73840887089563
 20
414.68879674567802
 30
0.0
 11
458.26141187089547
 21
414.5165507456777
 31
0.0
 12
459.89752187089562
 22
414.58523474567818
 32
0.0
 13
459.89752187089562
 23
414.58523474567818
 33
0.0
  0
SOLID
  5
35E5
  8
WAKU
  6
CONTINUOUS
 10
459.89752187089562
 20
414.58523474567818
 30
0.0
 11
458.26141187089547
 21
414.5165507456777
 31
0.0
 12
459.27500187089538
 22
414.37935174567758
 32
0.0
 13
459.27500187089538
 23
414.37935174567758
 33
0.0
  0
SOLID
  5
35E6
  8
WAKU
  6
CONTINUOUS
 10
459.4125048708953
 20
413.36581274567772
 30
0.0
 11
458.91712587089592
 21
413.240316745678
 31
0.0
 12
459.15061587089508
 22
412.86447574567819
 32
0.0
 13
459.15061587089508
 23
412.86447574567819
 33
0.0
  0
SOLID
  5
35E7
  8
WAKU
  6
CONTINUOUS
 10
459.18784387089562
 20
413.87118474567808
 30
0.0
 11
458.91712587089592
 21
413.240316745678
 31
0.0
 12
459.5846978708957
 22
413.84276974567808
 32
0.0
 13
459.5846978708957
 23
413.84276974567808
 33
0.0
  0
SOLID
  5
35E8
  8
WAKU
  6
CONTINUOUS
 10
459.5846978708957
 20
413.84276974567808
 30
0.0
 11
458.91712587089592
 21
413.240316745678
 31
0.0
 12
459.4125048708953
 22
413.36581274567772
 32
0.0
 13
459.4125048708953
 23
413.36581274567772
 33
0.0
  0
LINE
  5
35E9
  8
WAKU
  6
CONTINUOUS
 10
458.91712587089501
 20
413.240316745678
 30
0.0
 11
459.18784387089522
 21
413.87118474567728
 31
0.0
  0
SOLID
  5
35EA
  8
WAKU
  6
CONTINUOUS
 10
458.91712587089592
 20
413.240316745678
 30
0.0
 11
458.47601087089538
 21
412.56270274567771
 31
0.0
 12
459.15061587089508
 22
412.86447574567819
 32
0.0
 13
459.15061587089508
 23
412.86447574567819
 33
0.0
  0
SOLID
  5
35EB
  8
WAKU
  6
CONTINUOUS
 10
459.15061587089508
 20
412.86447574567819
 30
0.0
 11
458.47601087089538
 21
412.56270274567771
 31
0.0
 12
458.80908887089561
 22
412.35801174567769
 32
0.0
 13
458.80908887089561
 23
412.35801174567769
 33
0.0
  0
SOLID
  5
35EC
  8
WAKU
  6
CONTINUOUS
 10
459.34645387089557
 20
411.79130274567802
 30
0.0
 11
458.45173787089561
 21
411.35601474567773
 31
0.0
 12
458.94610787089562
 22
411.3105267456782
 32
0.0
 13
458.94610787089562
 23
411.3105267456782
 33
0.0
  0
LINE
  5
35ED
  8
WAKU
  6
CONTINUOUS
 10
458.45173787089448
 20
411.35601474567773
 30
0.0
 11
459.24082287089561
 21
412.31450074567812
 31
0.0
  0
LINE
  5
35EE
  8
WAKU
  6
CONTINUOUS
 10
458.49730487089522
 20
410.8617237456773
 30
0.0
 11
458.94610787089471
 21
411.31052674567741
 31
0.0
  0
LINE
  5
35EF
  8
WAKU
  6
CONTINUOUS
 10
458.80908887089561
 20
412.35801174567769
 30
0.0
 11
459.15061587089508
 21
412.86447574567819
 31
0.0
  0
SOLID
  5
35F0
  8
WAKU
  6
CONTINUOUS
 10
459.24082287089561
 20
412.31450074567812
 30
0.0
 11
458.45173787089561
 21
411.35601474567773
 31
0.0
 12
459.68363787089561
 22
412.28639174567809
 32
0.0
 13
459.68363787089561
 23
412.28639174567809
 33
0.0
  0
SOLID
  5
35F1
  8
WAKU
  6
CONTINUOUS
 10
459.68363787089561
 20
412.28639174567809
 30
0.0
 11
458.45173787089561
 21
411.35601474567773
 31
0.0
 12
459.34645387089557
 22
411.79130274567802
 32
0.0
 13
459.34645387089557
 23
411.79130274567802
 33
0.0
  0
LINE
  5
35F2
  8
WAKU
  6
CONTINUOUS
 10
459.27500187089453
 20
414.37935174567758
 30
0.0
 11
458.76651087089539
 21
414.2920227456778
 31
0.0
  0
LINE
  5
35F3
  8
WAKU
  6
CONTINUOUS
 10
459.17271387089539
 20
414.76472674567748
 30
0.0
 11
458.73840887089511
 21
414.68879674567768
 31
0.0
  0
LINE
  5
35F4
  8
WAKU
  6
CONTINUOUS
 10
459.0549208708951
 20
414.8627117456777
 30
0.0
 11
458.85376887089512
 21
414.92168474567728
 31
0.0
  0
LINE
  5
35F5
  8
WAKU
  6
CONTINUOUS
 10
458.94812087089502
 20
415.30084274567793
 30
0.0
 11
458.57291587089509
 21
415.3107547456778
 31
0.0
  0
SOLID
  5
35F6
  8
WAKU
  6
CONTINUOUS
 10
459.48107887089571
 20
415.00167774567819
 30
0.0
 11
458.85376887089592
 21
414.92168474567819
 31
0.0
 12
459.61925687089558
 22
414.72341274567742
 32
0.0
 13
459.61925687089558
 23
414.72341274567742
 33
0.0
  0
SOLID
  5
35F7
  8
WAKU
  6
CONTINUOUS
 10
458.85376887089592
 20
414.92168474567819
 30
0.0
 11
459.05492087089539
 21
414.8627117456777
 31
0.0
 12
459.61925687089558
 22
414.72341274567742
 32
0.0
 13
459.61925687089558
 23
414.72341274567742
 33
0.0
  0
SOLID
  5
35F8
  8
WAKU
  6
CONTINUOUS
 10
459.17271387089539
 20
414.76472674567799
 30
0.0
 11
458.73840887089563
 21
414.68879674567802
 31
0.0
 12
459.61925687089558
 22
414.72341274567742
 32
0.0
 13
459.61925687089558
 23
414.72341274567742
 33
0.0
  0
SOLID
  5
35F9
  8
WAKU
  6
CONTINUOUS
 10
459.61925687089558
 20
414.72341274567742
 30
0.0
 11
458.73840887089563
 21
414.68879674567802
 31
0.0
 12
459.89752187089562
 22
414.58523474567818
 32
0.0
 13
459.89752187089562
 23
414.58523474567818
 33
0.0
  0
SOLID
  5
35FA
  8
WAKU
  6
CONTINUOUS
 10
455.75756787089563
 20
413.60145974567752
 30
0.0
 11
455.35722187089539
 21
413.12068374567798
 31
0.0
 12
456.25187087089569
 22
413.55589074567808
 32
0.0
 13
456.25187087089569
 23
413.55589074567808
 33
0.0
  0
SOLID
  5
35FB
  8
WAKU
  6
CONTINUOUS
 10
456.25187087089569
 20
413.55589074567808
 30
0.0
 11
455.35722187089539
 21
413.12068374567798
 31
0.0
 12
455.46280787089557
 22
412.59735274567771
 32
0.0
 13
455.46280787089557
 23
412.59735274567771
 33
0.0
  0
LINE
  5
35FC
  8
WAKU
  6
CONTINUOUS
 10
456.25187087089512
 20
413.55589074567729
 30
0.0
 11
455.46280787089472
 21
412.59735274567771
 31
0.0
  0
SOLID
  5
35FD
  8
WAKU
  6
CONTINUOUS
 10
456.30249287089578
 20
413.0459567456781
 30
0.0
 11
455.89444387089588
 21
412.55378274567772
 31
0.0
 12
456.80159987089559
 22
413.00567574567771
 32
0.0
 13
456.80159987089559
 23
413.00567574567771
 33
0.0
  0
SOLID
  5
35FE
  8
WAKU
  6
CONTINUOUS
 10
456.80159987089559
 20
413.00567574567771
 30
0.0
 11
455.89444387089588
 21
412.55378274567772
 31
0.0
 12
456.2276688708958
 22
412.34925374567808
 32
0.0
 13
456.2276688708958
 23
412.34925374567808
 33
0.0
  0
SOLID
  5
35FF
  8
WAKU
  6
CONTINUOUS
 10
455.89444387089588
 20
412.55378274567772
 30
0.0
 11
455.5529288708957
 21
412.0472917456778
 31
0.0
 12
456.2276688708958
 22
412.34925374567808
 32
0.0
 13
456.2276688708958
 23
412.34925374567808
 33
0.0
  0
SOLID
  5
3600
  8
WAKU
  6
CONTINUOUS
 10
456.2276688708958
 20
412.34925374567808
 30
0.0
 11
455.5529288708957
 21
412.0472917456778
 31
0.0
 12
455.78648487089538
 22
411.67165774567809
 32
0.0
 13
455.78648487089538
 23
411.67165774567809
 33
0.0
  0
SOLID
  5
3601
  8
WAKU
  6
CONTINUOUS
 10
456.56803587089581
 20
410.8911147456771
 30
0.0
 11
455.93716787089568
 21
410.61997774567772
 31
0.0
 12
456.94354287089539
 22
410.65732774567817
 32
0.0
 13
456.94354287089539
 23
410.65732774567817
 33
0.0
  0
SOLID
  5
3602
  8
WAKU
  6
CONTINUOUS
 10
456.94354287089539
 20
410.65732774567817
 30
0.0
 11
455.93716787089568
 21
410.61997774567772
 31
0.0
 12
456.4422008708957
 22
410.3954077456782
 32
0.0
 13
456.4422008708957
 23
410.3954077456782
 33
0.0
  0
SOLID
  5
3603
  8
WAKU
  6
CONTINUOUS
 10
455.93716787089568
 20
410.61997774567772
 30
0.0
 11
455.42868387089538
 21
410.53263874567813
 31
0.0
 12
456.4422008708957
 22
410.3954077456782
 32
0.0
 13
456.4422008708957
 23
410.3954077456782
 33
0.0
  0
SOLID
  5
3604
  8
WAKU
  6
CONTINUOUS
 10
455.42868387089538
 20
410.53263874567813
 30
0.0
 11
454.80615387089563
 21
410.32675174567822
 31
0.0
 12
456.4422008708957
 22
410.3954077456782
 32
0.0
 13
456.4422008708957
 23
410.3954077456782
 33
0.0
  0
SOLID
  5
3605
  8
WAKU
  6
CONTINUOUS
 10
456.4422008708957
 20
410.3954077456782
 30
0.0
 11
454.80615387089563
 21
410.32675174567822
 31
0.0
 12
455.96523087089508
 22
410.22317974567801
 32
0.0
 13
455.96523087089508
 23
410.22317974567801
 33
0.0
  0
SOLID
  5
3606
  8
WAKU
  6
CONTINUOUS
 10
454.80615387089563
 20
410.32675174567822
 30
0.0
 11
455.08441887089589
 21
410.18857374567801
 31
0.0
 12
455.96523087089508
 22
410.22317974567801
 32
0.0
 13
455.96523087089508
 23
410.22317974567801
 33
0.0
  0
SOLID
  5
3607
  8
WAKU
  6
CONTINUOUS
 10
455.96523087089508
 20
410.22317974567801
 30
0.0
 11
455.08441887089589
 21
410.18857374567801
 31
0.0
 12
455.5309498708956
 22
410.14725874567807
 32
0.0
 13
455.5309498708956
 23
410.14725874567807
 33
0.0
  0
SOLID
  5
3608
  8
WAKU
  6
CONTINUOUS
 10
456.15706687089562
 20
409.99564574567802
 30
0.0
 11
455.84994987089573
 21
409.99028074567832
 31
0.0
 12
457.03022087089562
 22
409.86255574567809
 32
0.0
 13
457.03022087089562
 23
409.86255574567809
 33
0.0
  0
SOLID
  5
3609
  8
WAKU
  6
CONTINUOUS
 10
455.84994987089573
 20
409.99028074567832
 30
0.0
 11
455.2225968708957
 21
409.91030874567792
 31
0.0
 12
457.03022087089562
 22
409.86255574567809
 32
0.0
 13
457.03022087089562
 23
409.86255574567809
 33
0.0
  0
SOLID
  5
360A
  8
WAKU
  6
CONTINUOUS
 10
455.2225968708957
 20
409.91030874567792
 30
0.0
 11
455.44908187089561
 21
409.7154467456777
 31
0.0
 12
457.03022087089562
 22
409.86255574567809
 32
0.0
 13
457.03022087089562
 23
409.86255574567809
 33
0.0
  0
SOLID
  5
360B
  8
WAKU
  6
CONTINUOUS
 10
457.03022087089562
 20
409.86255574567809
 30
0.0
 11
455.44908187089561
 21
409.7154467456777
 31
0.0
 12
456.5609148708956
 22
409.68607374567802
 32
0.0
 13
456.5609148708956
 23
409.68607374567802
 33
0.0
  0
SOLID
  5
360C
  8
WAKU
  6
CONTINUOUS
 10
455.44908187089561
 20
409.7154467456777
 30
0.0
 11
455.75555487089559
 21
409.61114374567819
 31
0.0
 12
456.5609148708956
 22
409.68607374567802
 32
0.0
 13
456.5609148708956
 23
409.68607374567802
 33
0.0
  0
SOLID
  5
360D
  8
WAKU
  6
CONTINUOUS
 10
456.5609148708956
 20
409.68607374567802
 30
0.0
 11
455.75555487089559
 21
409.61114374567819
 31
0.0
 12
456.13075987089508
 22
409.60123174567792
 32
0.0
 13
456.13075987089508
 23
409.60123174567792
 33
0.0
  0
LINE
  5
360E
  8
WAKU
  6
CONTINUOUS
 10
455.5309498708956
 20
410.1472587456775
 30
0.0
 11
455.96523087089503
 21
410.22317974567801
 31
0.0
  0
LINE
  5
360F
  8
WAKU
  6
CONTINUOUS
 10
455.75555487089508
 20
409.61114374567819
 30
0.0
 11
456.13075987089508
 21
409.60123174567792
 31
0.0
  0
LINE
  5
3610
  8
WAKU
  6
CONTINUOUS
 10
455.93716787089483
 20
410.61997774567772
 30
0.0
 11
456.56803587089507
 21
410.8911147456771
 31
0.0
  0
LINE
  5
3611
  8
WAKU
  6
CONTINUOUS
 10
455.8499498708951
 20
409.99028074567741
 30
0.0
 11
456.15706687089562
 21
409.99564574567768
 31
0.0
  0
LINE
  5
3612
  8
WAKU
  6
CONTINUOUS
 10
456.22766887089512
 20
412.34925374567808
 30
0.0
 11
455.7864848708947
 21
411.67165774567752
 31
0.0
  0
LINE
  5
3613
  8
WAKU
  6
CONTINUOUS
 10
456.30249287089561
 20
413.04595674567759
 30
0.0
 11
455.89444387089532
 21
412.55378274567772
 31
0.0
  0
SOLID
  5
3614
  8
WAKU
  6
CONTINUOUS
 10
456.20637187089562
 20
414.05026274567751
 30
0.0
 11
455.75756787089563
 21
413.60145974567752
 31
0.0
 12
456.25187087089569
 22
413.55589074567808
 32
0.0
 13
456.25187087089569
 23
413.55589074567808
 33
0.0
  0
LINE
  5
3615
  8
WAKU
  6
CONTINUOUS
 10
456.20637187089523
 20
414.05026274567729
 30
0.0
 11
455.75756787089563
 21
413.60145974567752
 31
0.0
  0
LINE
  5
3616
  8
WAKU
  6
CONTINUOUS
 10
455.75756787089563
 20
413.60145974567752
 30
0.0
 11
455.35722187089539
 21
413.1206837456777
 31
0.0
  0
SOLID
  5
3617
  8
WAKU
  6
CONTINUOUS
 10
455.35722187089539
 20
413.12068374567798
 30
0.0
 11
455.02003787089512
 21
412.62559474567809
 31
0.0
 12
455.46280787089557
 22
412.59735274567771
 32
0.0
 13
455.46280787089557
 23
412.59735274567771
 33
0.0
  0
SOLID
  5
3618
  8
WAKU
  6
CONTINUOUS
 10
455.02003787089512
 20
412.62559474567809
 30
0.0
 11
454.75839987089557
 21
412.13437574567752
 31
0.0
 12
455.46280787089557
 22
412.59735274567771
 32
0.0
 13
455.46280787089557
 23
412.59735274567771
 33
0.0
  0
SOLID
  5
3619
  8
WAKU
  6
CONTINUOUS
 10
455.46280787089557
 20
412.59735274567771
 30
0.0
 11
454.75839987089557
 21
412.13437574567752
 31
0.0
 12
455.1792918708955
 22
412.1118107456781
 32
0.0
 13
455.1792918708955
 23
412.1118107456781
 33
0.0
  0
SOLID
  5
361A
  8
WAKU
  6
CONTINUOUS
 10
455.5529288708957
 20
412.0472917456778
 30
0.0
 11
455.29106587089558
 21
411.54593674567798
 31
0.0
 12
455.78648487089538
 22
411.67165774567809
 32
0.0
 13
455.78648487089538
 23
411.67165774567809
 33
0.0
  0
SOLID
  5
361B
  8
WAKU
  6
CONTINUOUS
 10
455.78648487089538
 20
411.67165774567809
 30
0.0
 11
455.29106587089558
 21
411.54593674567798
 31
0.0
 12
455.51594087089558
 22
411.04075174567799
 32
0.0
 13
455.51594087089558
 23
411.04075174567799
 33
0.0
  0
SOLID
  5
361C
  8
WAKU
  6
CONTINUOUS
 10
455.29106587089558
 20
411.54593674567798
 30
0.0
 11
455.1189118708956
 21
411.06897174567769
 31
0.0
 12
455.51594087089558
 22
411.04075174567799
 32
0.0
 13
455.51594087089558
 23
411.04075174567799
 33
0.0
  0
SOLID
  5
361D
  8
WAKU
  6
CONTINUOUS
 10
455.1189118708956
 20
411.06897174567769
 30
0.0
 11
455.04307787089562
 21
410.63471774567802
 31
0.0
 12
455.51594087089558
 22
411.04075174567799
 32
0.0
 13
455.51594087089558
 23
411.04075174567799
 33
0.0
  0
SOLID
  5
361E
  8
WAKU
  6
CONTINUOUS
 10
455.51594087089558
 20
411.04075174567799
 30
0.0
 11
455.04307787089562
 21
410.63471774567802
 31
0.0
 12
455.42868387089538
 22
410.53263874567813
 32
0.0
 13
455.42868387089538
 23
410.53263874567813
 33
0.0
  0
SOLID
  5
361F
  8
WAKU
  6
CONTINUOUS
 10
455.08441887089589
 20
410.18857374567801
 30
0.0
 11
455.2225968708957
 21
409.91030874567792
 31
0.0
 12
455.5309498708956
 22
410.14725874567807
 32
0.0
 13
455.5309498708956
 23
410.14725874567807
 33
0.0
  0
SOLID
  5
3620
  8
WAKU
  6
CONTINUOUS
 10
455.5309498708956
 20
410.14725874567807
 30
0.0
 11
455.2225968708957
 21
409.91030874567792
 31
0.0
 12
455.6486998708956
 22
410.04935074567823
 32
0.0
 13
455.6486998708956
 23
410.04935074567823
 33
0.0
  0
SOLID
  5
3621
  8
WAKU
  6
CONTINUOUS
 10
455.6486998708956
 20
410.04935074567823
 30
0.0
 11
455.2225968708957
 21
409.91030874567792
 31
0.0
 12
455.84994987089573
 22
409.99028074567832
 32
0.0
 13
455.84994987089573
 23
409.99028074567832
 33
0.0
  0
LINE
  5
3622
  8
WAKU
  6
CONTINUOUS
 10
455.55292887089479
 20
412.0472917456778
 30
0.0
 11
455.29106587089518
 21
411.54593674567769
 31
0.0
  0
LINE
  5
3623
  8
WAKU
  6
CONTINUOUS
 10
454.98726287089562
 20
411.65680374567768
 30
0.0
 11
454.89146887089561
 21
411.26118674567761
 31
0.0
  0
LINE
  5
3624
  8
WAKU
  6
CONTINUOUS
 10
455.7864848708947
 20
411.67165774567752
 30
0.0
 11
455.51594087089558
 21
411.0407517456772
 31
0.0
  0
LINE
  5
3625
  8
WAKU
  6
CONTINUOUS
 10
455.51594087089558
 20
411.0407517456772
 30
0.0
 11
455.4286838708951
 21
410.53263874567801
 31
0.0
  0
LINE
  5
3626
  8
WAKU
  6
CONTINUOUS
 10
454.80615387089563
 20
410.32675174567822
 30
0.0
 11
455.08441887089509
 21
410.18857374567727
 31
0.0
  0
LINE
  5
3627
  8
WAKU
  6
CONTINUOUS
 10
455.08441887089509
 20
410.18857374567727
 30
0.0
 11
455.2225968708953
 21
409.91030874567792
 31
0.0
  0
LINE
  5
3628
  8
WAKU
  6
CONTINUOUS
 10
455.2225968708953
 20
409.91030874567792
 30
0.0
 11
455.44908187089538
 21
409.7154467456777
 31
0.0
  0
LINE
  5
3629
  8
WAKU
  6
CONTINUOUS
 10
455.44908187089538
 20
409.7154467456777
 30
0.0
 11
455.75555487089508
 21
409.61114374567819
 31
0.0
  0
LINE
  5
362A
  8
WAKU
  6
CONTINUOUS
 10
455.29106587089518
 20
411.54593674567769
 30
0.0
 11
455.1189118708956
 21
411.06897174567769
 31
0.0
  0
LINE
  5
362B
  8
WAKU
  6
CONTINUOUS
 10
455.1189118708956
 20
411.06897174567769
 30
0.0
 11
455.04307787089562
 21
410.63471774567751
 31
0.0
  0
LINE
  5
362C
  8
WAKU
  6
CONTINUOUS
 10
455.4286838708951
 20
410.53263874567801
 30
0.0
 11
455.93716787089483
 21
410.61997774567772
 31
0.0
  0
LINE
  5
362D
  8
WAKU
  6
CONTINUOUS
 10
454.89146887089561
 20
411.26118674567761
 30
0.0
 11
454.88613087089448
 21
410.9538697456772
 31
0.0
  0
LINE
  5
362E
  8
WAKU
  6
CONTINUOUS
 10
454.88613087089448
 20
410.9538697456772
 30
0.0
 11
454.94492787089558
 21
410.75321774567772
 31
0.0
  0
LINE
  5
362F
  8
WAKU
  6
CONTINUOUS
 10
454.94492787089558
 20
410.75321774567772
 30
0.0
 11
455.04307787089562
 21
410.63471774567751
 31
0.0
  0
LINE
  5
3630
  8
WAKU
  6
CONTINUOUS
 10
455.5309498708956
 20
410.1472587456775
 30
0.0
 11
455.6486998708956
 21
410.04935074567823
 31
0.0
  0
LINE
  5
3631
  8
WAKU
  6
CONTINUOUS
 10
455.6486998708956
 20
410.04935074567823
 30
0.0
 11
455.8499498708951
 21
409.99028074567741
 31
0.0
  0
LINE
  5
3632
  8
WAKU
  6
CONTINUOUS
 10
455.89444387089532
 20
412.55378274567772
 30
0.0
 11
455.55292887089479
 21
412.0472917456778
 31
0.0
  0
LINE
  5
3633
  8
WAKU
  6
CONTINUOUS
 10
455.46280787089472
 20
412.59735274567771
 30
0.0
 11
455.17929187089447
 21
412.1118107456781
 31
0.0
  0
LINE
  5
3634
  8
WAKU
  6
CONTINUOUS
 10
455.17929187089447
 20
412.1118107456781
 30
0.0
 11
454.98726287089562
 21
411.65680374567768
 31
0.0
  0
LINE
  5
3635
  8
WAKU
  6
CONTINUOUS
 10
455.02003787089478
 20
412.62559474567809
 30
0.0
 11
454.75839987089557
 21
412.13437574567752
 31
0.0
  0
LINE
  5
3636
  8
WAKU
  6
CONTINUOUS
 10
455.35722187089539
 20
413.1206837456777
 30
0.0
 11
455.02003787089478
 21
412.62559474567809
 31
0.0
  0
LINE
  5
3637
  8
WAKU
  6
CONTINUOUS
 10
454.58191887089453
 20
411.66506974567727
 30
0.0
 11
454.49707587089563
 21
411.234914745678
 31
0.0
  0
LINE
  5
3638
  8
WAKU
  6
CONTINUOUS
 10
454.49707587089563
 20
411.234914745678
 30
0.0
 11
454.50698787089539
 21
410.85971074567772
 31
0.0
  0
LINE
  5
3639
  8
WAKU
  6
CONTINUOUS
 10
454.50698787089539
 20
410.85971074567772
 30
0.0
 11
454.61129087089557
 21
410.55323674567768
 31
0.0
  0
SOLID
  5
363A
  8
WAKU
  6
CONTINUOUS
 10
454.75839987089557
 20
412.13437574567752
 30
0.0
 11
454.58191887089538
 21
411.66506974567812
 31
0.0
 12
455.1792918708955
 22
412.1118107456781
 32
0.0
 13
455.1792918708955
 23
412.1118107456781
 33
0.0
  0
SOLID
  5
363B
  8
WAKU
  6
CONTINUOUS
 10
455.1792918708955
 20
412.1118107456781
 30
0.0
 11
454.58191887089538
 21
411.66506974567812
 31
0.0
 12
454.98726287089562
 22
411.65680374567768
 32
0.0
 13
454.98726287089562
 23
411.65680374567768
 33
0.0
  0
SOLID
  5
363C
  8
WAKU
  6
CONTINUOUS
 10
454.58191887089538
 20
411.66506974567812
 30
0.0
 11
454.49707587089512
 21
411.234914745678
 31
0.0
 12
454.98726287089562
 22
411.65680374567768
 32
0.0
 13
454.98726287089562
 23
411.65680374567768
 33
0.0
  0
SOLID
  5
363D
  8
WAKU
  6
CONTINUOUS
 10
454.98726287089562
 20
411.65680374567768
 30
0.0
 11
454.49707587089512
 21
411.234914745678
 31
0.0
 12
454.89146887089561
 22
411.26118674567829
 32
0.0
 13
454.89146887089561
 23
411.26118674567829
 33
0.0
  0
SOLID
  5
363E
  8
WAKU
  6
CONTINUOUS
 10
454.89146887089561
 20
411.26118674567829
 30
0.0
 11
454.49707587089512
 21
411.234914745678
 31
0.0
 12
454.88613087089561
 22
410.95386974567799
 32
0.0
 13
454.88613087089561
 23
410.95386974567799
 33
0.0
  0
SOLID
  5
363F
  8
WAKU
  6
CONTINUOUS
 10
454.49707587089512
 20
411.234914745678
 30
0.0
 11
454.50698787089561
 21
410.85971074567772
 31
0.0
 12
454.88613087089561
 22
410.95386974567799
 32
0.0
 13
454.88613087089561
 23
410.95386974567799
 33
0.0
  0
SOLID
  5
3640
  8
WAKU
  6
CONTINUOUS
 10
454.88613087089561
 20
410.95386974567799
 30
0.0
 11
454.50698787089561
 21
410.85971074567772
 31
0.0
 12
454.94492787089558
 22
410.75321774567772
 32
0.0
 13
454.94492787089558
 23
410.75321774567772
 33
0.0
  0
SOLID
  5
3641
  8
WAKU
  6
CONTINUOUS
 10
454.50698787089561
 20
410.85971074567772
 30
0.0
 11
454.61129087089557
 21
410.55323674567768
 31
0.0
 12
454.94492787089558
 22
410.75321774567772
 32
0.0
 13
454.94492787089558
 23
410.75321774567772
 33
0.0
  0
SOLID
  5
3642
  8
WAKU
  6
CONTINUOUS
 10
454.94492787089558
 20
410.75321774567772
 30
0.0
 11
454.61129087089557
 21
410.55323674567768
 31
0.0
 12
455.04307787089562
 22
410.63471774567802
 32
0.0
 13
455.04307787089562
 23
410.63471774567802
 33
0.0
  0
SOLID
  5
3643
  8
WAKU
  6
CONTINUOUS
 10
455.04307787089562
 20
410.63471774567802
 30
0.0
 11
454.61129087089557
 21
410.55323674567768
 31
0.0
 12
455.42868387089538
 22
410.53263874567813
 32
0.0
 13
455.42868387089538
 23
410.53263874567813
 33
0.0
  0
SOLID
  5
3644
  8
WAKU
  6
CONTINUOUS
 10
454.61129087089557
 20
410.55323674567768
 30
0.0
 11
454.80615387089563
 21
410.32675174567822
 31
0.0
 12
455.42868387089538
 22
410.53263874567813
 32
0.0
 13
455.42868387089538
 23
410.53263874567813
 33
0.0
  0
LINE
  5
3645
  8
WAKU
  6
CONTINUOUS
 10
454.61129087089557
 20
410.55323674567768
 30
0.0
 11
454.80615387089563
 21
410.32675174567822
 31
0.0
  0
LINE
  5
3646
  8
WAKU
  6
CONTINUOUS
 10
454.75839987089557
 20
412.13437574567752
 30
0.0
 11
454.58191887089453
 21
411.66506974567727
 31
0.0
  0
SOLID
  5
3647
  8
WAKU
  6
CONTINUOUS
 10
457.45795387089561
 20
413.57977374567821
 30
0.0
 11
456.76140487089538
 21
413.50491074567771
 31
0.0
 12
456.80159987089559
 22
413.00567574567771
 32
0.0
 13
456.80159987089559
 23
413.00567574567771
 33
0.0
  0
SOLID
  5
3648
  8
WAKU
  6
CONTINUOUS
 10
456.76140487089538
 20
413.50491074567771
 30
0.0
 11
456.30249287089578
 21
413.0459567456781
 31
0.0
 12
456.80159987089559
 22
413.00567574567771
 32
0.0
 13
456.80159987089559
 23
413.00567574567771
 33
0.0
  0
LINE
  5
3649
  8
WAKU
  6
CONTINUOUS
 10
456.76140487089452
 20
413.50491074567771
 30
0.0
 11
456.30249287089561
 21
413.04595674567759
 31
0.0
  0
LINE
  5
364A
  8
WAKU
  6
CONTINUOUS
 10
457.45795387089561
 20
413.57977374567758
 30
0.0
 11
456.80159987089559
 21
413.00567574567771
 31
0.0
  0
SOLID
  5
364B
  8
WAKU
  6
CONTINUOUS
 10
457.94213587089558
 20
411.40695374567758
 30
0.0
 11
457.24571287089589
 21
411.33221374567819
 31
0.0
 12
457.45000487089561
 22
410.99888174567798
 32
0.0
 13
457.45000487089561
 23
410.99888174567798
 33
0.0
  0
SOLID
  5
364C
  8
WAKU
  6
CONTINUOUS
 10
457.24571287089589
 20
411.33221374567819
 30
0.0
 11
456.56803587089581
 21
410.8911147456771
 31
0.0
 12
457.45000487089561
 22
410.99888174567798
 32
0.0
 13
457.45000487089561
 23
410.99888174567798
 33
0.0
  0
SOLID
  5
364D
  8
WAKU
  6
CONTINUOUS
 10
457.45000487089561
 20
410.99888174567798
 30
0.0
 11
456.56803587089581
 21
410.8911147456771
 31
0.0
 12
456.94354287089539
 22
410.65732774567817
 32
0.0
 13
456.94354287089539
 23
410.65732774567817
 33
0.0
  0
SOLID
  5
364E
  8
WAKU
  6
CONTINUOUS
 10
457.49326987089557
 20
410.56689974567769
 30
0.0
 11
457.00765487089518
 21
410.28358074567751
 31
0.0
 12
458.01652887089563
 22
410.46137774567819
 32
0.0
 13
458.01652887089563
 23
410.46137774567819
 33
0.0
  0
SOLID
  5
364F
  8
WAKU
  6
CONTINUOUS
 10
458.01652887089563
 20
410.46137774567819
 30
0.0
 11
457.00765487089518
 21
410.28358074567751
 31
0.0
 12
457.52143887089562
 22
410.1241937456781
 32
0.0
 13
457.52143887089562
 23
410.1241937456781
 33
0.0
  0
SOLID
  5
3650
  8
WAKU
  6
CONTINUOUS
 10
457.00765487089518
 20
410.28358074567751
 30
0.0
 11
456.55275687089471
 21
410.09115074567819
 31
0.0
 12
457.52143887089562
 22
410.1241937456781
 32
0.0
 13
457.52143887089562
 23
410.1241937456781
 33
0.0
  0
SOLID
  5
3651
  8
WAKU
  6
CONTINUOUS
 10
457.52143887089562
 20
410.1241937456781
 30
0.0
 11
456.55275687089471
 21
410.09115074567819
 31
0.0
 12
457.03022087089562
 22
409.86255574567809
 32
0.0
 13
457.03022087089562
 23
409.86255574567809
 33
0.0
  0
LINE
  5
3652
  8
WAKU
  6
CONTINUOUS
 10
457.24571287089458
 20
411.33221374567728
 30
0.0
 11
457.90206887089562
 21
411.90628874567761
 31
0.0
  0
LINE
  5
3653
  8
WAKU
  6
CONTINUOUS
 10
456.94354287089448
 20
410.65732774567772
 30
0.0
 11
457.45000487089561
 21
410.99888174567792
 31
0.0
  0
LINE
  5
3654
  8
WAKU
  6
CONTINUOUS
 10
457.03022087089471
 20
409.86255574567758
 30
0.0
 11
457.52143887089522
 21
410.1241937456777
 31
0.0
  0
LINE
  5
3655
  8
WAKU
  6
CONTINUOUS
 10
457.00765487089518
 20
410.28358074567751
 30
0.0
 11
457.49326987089512
 21
410.56689974567769
 31
0.0
  0
SOLID
  5
3656
  8
WAKU
  6
CONTINUOUS
 10
456.55275687089471
 20
410.09115074567819
 30
0.0
 11
456.15706687089562
 21
409.99564574567802
 31
0.0
 12
457.03022087089562
 22
409.86255574567809
 32
0.0
 13
457.03022087089562
 23
409.86255574567809
 33
0.0
  0
LINE
  5
3657
  8
WAKU
  6
CONTINUOUS
 10
456.15706687089562
 20
409.99564574567768
 30
0.0
 11
456.55275687089562
 21
410.09115074567768
 31
0.0
  0
LINE
  5
3658
  8
WAKU
  6
CONTINUOUS
 10
455.96523087089503
 20
410.22317974567801
 30
0.0
 11
456.4422008708944
 21
410.3954077456782
 31
0.0
  0
LINE
  5
3659
  8
WAKU
  6
CONTINUOUS
 10
456.4422008708944
 20
410.3954077456782
 30
0.0
 11
456.94354287089448
 21
410.65732774567772
 31
0.0
  0
LINE
  5
365A
  8
WAKU
  6
CONTINUOUS
 10
456.5609148708956
 20
409.68607374567802
 30
0.0
 11
457.03022087089471
 21
409.86255574567758
 31
0.0
  0
LINE
  5
365B
  8
WAKU
  6
CONTINUOUS
 10
456.56803587089507
 20
410.8911147456771
 30
0.0
 11
457.24571287089458
 21
411.33221374567728
 31
0.0
  0
LINE
  5
365C
  8
WAKU
  6
CONTINUOUS
 10
456.55275687089562
 20
410.09115074567768
 30
0.0
 11
457.00765487089518
 21
410.28358074567751
 31
0.0
  0
LINE
  5
365D
  8
WAKU
  6
CONTINUOUS
 10
456.13075987089508
 20
409.60123174567792
 30
0.0
 11
456.5609148708956
 21
409.68607374567802
 31
0.0
  0
LINE
  5
365E
  8
WAKU
  6
CONTINUOUS
 10
456.80159987089559
 20
413.00567574567771
 30
0.0
 11
456.22766887089512
 21
412.34925374567808
 31
0.0
  0
LINE
  5
365F
  8
WAKU
  6
CONTINUOUS
 10
457.52143887089522
 20
410.1241937456777
 30
0.0
 11
458.01652887089563
 21
410.46137774567751
 31
0.0
  0
LINE
  5
3660
  8
WAKU
  6
CONTINUOUS
 10
457.45000487089561
 20
410.99888174567792
 30
0.0
 11
457.9421358708953
 21
411.40695374567758
 31
0.0
  0
SOLID
  5
3661
  8
WAKU
  6
CONTINUOUS
 10
458.15091287089592
 20
414.82084774567818
 30
0.0
 11
457.18223687089562
 21
414.78779274567802
 31
0.0
 12
457.69600787089507
 22
414.6283677456783
 32
0.0
 13
457.69600787089507
 23
414.6283677456783
 33
0.0
  0
SOLID
  5
3662
  8
WAKU
  6
CONTINUOUS
 10
457.18223687089562
 20
414.78779274567802
 30
0.0
 11
456.68714687089539
 21
414.4506087456781
 31
0.0
 12
457.69600787089507
 22
414.6283677456783
 32
0.0
 13
457.69600787089507
 23
414.6283677456783
 33
0.0
  0
SOLID
  5
3663
  8
WAKU
  6
CONTINUOUS
 10
457.69600787089507
 20
414.6283677456783
 30
0.0
 11
456.68714687089539
 21
414.4506087456781
 31
0.0
 12
457.21035987089562
 22
414.34506674567808
 32
0.0
 13
457.21035987089562
 23
414.34506674567808
 33
0.0
  0
SOLID
  5
3664
  8
WAKU
  6
CONTINUOUS
 10
457.76004187089558
 20
414.25460374567729
 30
0.0
 11
457.25355587089558
 21
413.91301774567802
 31
0.0
 12
458.13565087089569
 22
414.02083974567768
 32
0.0
 13
458.13565087089569
 23
414.02083974567768
 33
0.0
  0
LINE
  5
3665
  8
WAKU
  6
CONTINUOUS
 10
457.69600787089507
 20
414.62836774567711
 30
0.0
 11
457.21035987089562
 21
414.34506674567729
 31
0.0
  0
LINE
  5
3666
  8
WAKU
  6
CONTINUOUS
 10
457.76004187089518
 20
414.25460374567729
 30
0.0
 11
457.25355587089558
 21
413.91301774567768
 31
0.0
  0
LINE
  5
3667
  8
WAKU
  6
CONTINUOUS
 10
457.67345587089471
 20
415.0494307456778
 30
0.0
 11
457.18223687089471
 21
414.78779274567802
 31
0.0
  0
SOLID
  5
3668
  8
WAKU
  6
CONTINUOUS
 10
458.13565087089569
 20
414.02083974567768
 30
0.0
 11
457.25355587089558
 21
413.91301774567802
 31
0.0
 12
457.45795387089561
 22
413.57977374567821
 32
0.0
 13
457.45795387089561
 23
413.57977374567821
 33
0.0
  0
SOLID
  5
3669
  8
WAKU
  6
CONTINUOUS
 10
457.25355587089558
 20
413.91301774567802
 30
0.0
 11
456.76140487089538
 21
413.50491074567771
 31
0.0
 12
457.45795387089561
 22
413.57977374567821
 32
0.0
 13
457.45795387089561
 23
413.57977374567821
 33
0.0
  0
SOLID
  5
366A
  8
WAKU
  6
CONTINUOUS
 10
456.68714687089539
 20
414.4506087456781
 30
0.0
 11
456.20637187089562
 21
414.05026274567751
 31
0.0
 12
457.21035987089562
 22
414.34506674567808
 32
0.0
 13
457.21035987089562
 23
414.34506674567808
 33
0.0
  0
LINE
  5
366B
  8
WAKU
  6
CONTINUOUS
 10
456.68714687089539
 20
414.4506087456781
 30
0.0
 11
456.20637187089523
 21
414.05026274567729
 31
0.0
  0
LINE
  5
366C
  8
WAKU
  6
CONTINUOUS
 10
457.18223687089471
 20
414.78779274567802
 30
0.0
 11
456.68714687089539
 21
414.4506087456781
 31
0.0
  0
SOLID
  5
366D
  8
WAKU
  6
CONTINUOUS
 10
457.21035987089562
 20
414.34506674567808
 30
0.0
 11
456.20637187089562
 21
414.05026274567751
 31
0.0
 12
456.25187087089569
 22
413.55589074567808
 32
0.0
 13
456.25187087089569
 23
413.55589074567808
 33
0.0
  0
LINE
  5
366E
  8
WAKU
  6
CONTINUOUS
 10
457.25355587089558
 20
413.91301774567768
 30
0.0
 11
456.76140487089452
 21
413.50491074567771
 31
0.0
  0
LINE
  5
366F
  8
WAKU
  6
CONTINUOUS
 10
457.21035987089562
 20
414.34506674567729
 30
0.0
 11
456.25187087089512
 21
413.55589074567729
 31
0.0
  0
LINE
  5
3670
  8
WAKU
  6
CONTINUOUS
 10
458.15091287089592
 20
414.82084774567818
 30
0.0
 11
457.69600787089507
 21
414.62836774567711
 31
0.0
  0
LINE
  5
3671
  8
WAKU
  6
CONTINUOUS
 10
458.14276087089462
 20
415.22591174567771
 30
0.0
 11
457.67345587089471
 21
415.0494307456778
 31
0.0
  0
LINE
  5
3672
  8
WAKU
  6
CONTINUOUS
 10
458.13565087089512
 20
414.02083974567768
 30
0.0
 11
457.45795387089561
 21
413.57977374567758
 31
0.0
  0
SOLID
  5
3673
  8
WAKU
  6
CONTINUOUS
 10
457.90206887089562
 20
411.90628874567801
 30
0.0
 11
457.24571287089589
 21
411.33221374567819
 31
0.0
 12
458.40103887089572
 22
411.86587174567808
 32
0.0
 13
458.40103887089572
 23
411.86587174567808
 33
0.0
  0
SOLID
  5
3674
  8
WAKU
  6
CONTINUOUS
 10
458.40103887089572
 20
411.86587174567808
 30
0.0
 11
457.24571287089589
 21
411.33221374567819
 31
0.0
 12
457.94213587089558
 22
411.40695374567758
 32
0.0
 13
457.94213587089558
 23
411.40695374567758
 33
0.0
  0
SOLID
  5
3675
  8
WAKU
  6
CONTINUOUS
 10
458.47601087089538
 20
412.56270274567771
 30
0.0
 11
457.90206887089562
 21
411.90628874567801
 31
0.0
 12
458.80908887089561
 22
412.35801174567769
 32
0.0
 13
458.80908887089561
 23
412.35801174567769
 33
0.0
  0
SOLID
  5
3676
  8
WAKU
  6
CONTINUOUS
 10
458.80908887089561
 20
412.35801174567769
 30
0.0
 11
457.90206887089562
 21
411.90628874567801
 31
0.0
 12
458.40103887089572
 22
411.86587174567808
 32
0.0
 13
458.40103887089572
 23
411.86587174567808
 33
0.0
  0
SOLID
  5
3677
  8
WAKU
  6
CONTINUOUS
 10
458.49730487089562
 20
410.86172374567798
 30
0.0
 11
457.49326987089557
 21
410.56689974567769
 31
0.0
 12
458.01652887089563
 22
410.46137774567819
 32
0.0
 13
458.01652887089563
 23
410.46137774567819
 33
0.0
  0
LINE
  5
3678
  8
WAKU
  6
CONTINUOUS
 10
457.9421358708953
 20
411.40695374567758
 30
0.0
 11
458.40103887089452
 21
411.86587174567728
 31
0.0
  0
LINE
  5
3679
  8
WAKU
  6
CONTINUOUS
 10
457.49326987089512
 20
410.56689974567769
 30
0.0
 11
458.45173787089448
 21
411.35601474567773
 31
0.0
  0
LINE
  5
367A
  8
WAKU
  6
CONTINUOUS
 10
458.01652887089563
 20
410.46137774567751
 30
0.0
 11
458.49730487089522
 21
410.8617237456773
 31
0.0
  0
LINE
  5
367B
  8
WAKU
  6
CONTINUOUS
 10
457.90206887089562
 20
411.90628874567761
 30
0.0
 11
458.47601087089453
 21
412.56270274567771
 31
0.0
  0
SOLID
  5
367C
  8
WAKU
  6
CONTINUOUS
 10
457.67345587089562
 20
415.0494307456778
 30
0.0
 11
457.18223687089562
 21
414.78779274567802
 31
0.0
 12
458.54662987089472
 22
414.9163637456781
 32
0.0
 13
458.54662987089472
 23
414.9163637456781
 33
0.0
  0
SOLID
  5
367D
  8
WAKU
  6
CONTINUOUS
 10
458.54662987089472
 20
414.9163637456781
 30
0.0
 11
457.18223687089562
 21
414.78779274567802
 31
0.0
 12
458.15091287089592
 22
414.82084774567818
 32
0.0
 13
458.15091287089592
 23
414.82084774567818
 33
0.0
  0
SOLID
  5
367E
  8
WAKU
  6
CONTINUOUS
 10
457.67345587089562
 20
415.0494307456778
 30
0.0
 11
458.54662987089472
 21
414.9163637456781
 31
0.0
 12
458.85376887089592
 22
414.92168474567819
 32
0.0
 13
458.85376887089592
 23
414.92168474567819
 33
0.0
  0
SOLID
  5
367F
  8
WAKU
  6
CONTINUOUS
 10
458.76651087089539
 20
414.2920227456782
 30
0.0
 11
457.76004187089558
 21
414.25460374567729
 31
0.0
 12
458.13565087089569
 22
414.02083974567768
 32
0.0
 13
458.13565087089569
 23
414.02083974567768
 33
0.0
  0
LINE
  5
3680
  8
WAKU
  6
CONTINUOUS
 10
458.76651087089539
 20
414.2920227456778
 30
0.0
 11
458.13565087089512
 21
414.02083974567768
 31
0.0
  0
LINE
  5
3681
  8
WAKU
  6
CONTINUOUS
 10
458.54662987089472
 20
414.91636374567759
 30
0.0
 11
458.15091287089592
 21
414.82084774567818
 31
0.0
  0
LINE
  5
3682
  8
WAKU
  6
CONTINUOUS
 10
458.57291587089509
 20
415.3107547456778
 30
0.0
 11
458.14276087089462
 21
415.22591174567771
 31
0.0
  0
LINE
  5
3683
  8
WAKU
  6
CONTINUOUS
 10
458.26141187089507
 20
414.51655074567719
 30
0.0
 11
457.76004187089518
 21
414.25460374567729
 31
0.0
  0
SOLID
  5
3684
  8
WAKU
  6
CONTINUOUS
 10
458.45173787089561
 20
411.35601474567773
 30
0.0
 11
457.49326987089557
 21
410.56689974567769
 31
0.0
 12
458.94610787089562
 22
411.3105267456782
 32
0.0
 13
458.94610787089562
 23
411.3105267456782
 33
0.0
  0
SOLID
  5
3685
  8
WAKU
  6
CONTINUOUS
 10
458.94610787089562
 20
411.3105267456782
 30
0.0
 11
457.49326987089557
 21
410.56689974567769
 31
0.0
 12
458.49730487089562
 22
410.86172374567798
 32
0.0
 13
458.49730487089562
 23
410.86172374567798
 33
0.0
  0
SOLID
  5
3686
  8
WAKU
  6
CONTINUOUS
 10
458.57291587089588
 20
415.3107547456782
 30
0.0
 11
458.14276087089559
 21
415.22591174567799
 31
0.0
 12
458.94812087089508
 22
415.30084274567798
 32
0.0
 13
458.94812087089508
 23
415.30084274567798
 33
0.0
  0
SOLID
  5
3687
  8
WAKU
  6
CONTINUOUS
 10
458.94812087089508
 20
415.30084274567798
 30
0.0
 11
458.14276087089559
 21
415.22591174567799
 31
0.0
 12
459.25459387089558
 22
415.19653974567802
 32
0.0
 13
459.25459387089558
 23
415.19653974567802
 33
0.0
  0
SOLID
  5
3688
  8
WAKU
  6
CONTINUOUS
 10
458.14276087089559
 20
415.22591174567799
 30
0.0
 11
457.67345587089562
 21
415.0494307456778
 31
0.0
 12
459.25459387089558
 22
415.19653974567802
 32
0.0
 13
459.25459387089558
 23
415.19653974567802
 33
0.0
  0
SOLID
  5
3689
  8
WAKU
  6
CONTINUOUS
 10
458.26141187089547
 20
414.5165507456777
 30
0.0
 11
457.76004187089558
 21
414.25460374567729
 31
0.0
 12
459.27500187089538
 22
414.37935174567758
 32
0.0
 13
459.27500187089538
 23
414.37935174567758
 33
0.0
  0
SOLID
  5
368A
  8
WAKU
  6
CONTINUOUS
 10
459.27500187089538
 20
414.37935174567758
 30
0.0
 11
457.76004187089558
 21
414.25460374567729
 31
0.0
 12
458.76651087089539
 22
414.2920227456782
 32
0.0
 13
458.76651087089539
 23
414.2920227456782
 33
0.0
  0
SOLID
  5
368B
  8
WAKU
  6
CONTINUOUS
 10
459.25459387089558
 20
415.19653974567802
 30
0.0
 11
457.67345587089562
 21
415.0494307456778
 31
0.0
 12
459.48107887089571
 22
415.00167774567819
 32
0.0
 13
459.48107887089571
 23
415.00167774567819
 33
0.0
  0
SOLID
  5
368C
  8
WAKU
  6
CONTINUOUS
 10
457.67345587089562
 20
415.0494307456778
 30
0.0
 11
458.85376887089592
 21
414.92168474567819
 31
0.0
 12
459.48107887089571
 22
415.00167774567819
 32
0.0
 13
459.48107887089571
 23
415.00167774567819
 33
0.0
  0
SOLID
  5
368D
  8
WAKU
  6
CONTINUOUS
 10
465.56708587089571
 20
414.857705745678
 30
0.0
 11
462.41097787089558
 21
412.27309074567802
 31
0.0
 12
465.74943987089569
 22
412.27309074567802
 32
0.0
 13
465.74943987089569
 23
412.27309074567802
 33
0.0
  0
LINE
  5
368E
  8
WAKU
  6
CONTINUOUS
 10
465.56708587089503
 20
414.85770574567772
 30
0.0
 11
462.41097787089518
 21
412.27309074567768
 31
0.0
  0
SOLID
  5
368F
  8
WAKU
  6
CONTINUOUS
 10
465.74943987089569
 20
412.27309074567802
 30
0.0
 11
462.41097787089558
 21
412.27309074567802
 31
0.0
 12
464.65291787089558
 22
412.219244745678
 32
0.0
 13
464.65291787089558
 23
412.219244745678
 33
0.0
  0
SOLID
  5
3690
  8
WAKU
  6
CONTINUOUS
 10
462.41097787089558
 20
412.27309074567802
 30
0.0
 11
461.4310578708953
 21
409.58078274567771
 31
0.0
 12
464.65291787089558
 22
412.219244745678
 32
0.0
 13
464.65291787089558
 23
412.219244745678
 33
0.0
  0
LINE
  5
3691
  8
WAKU
  6
CONTINUOUS
 10
464.65291787089512
 20
412.219244745678
 30
0.0
 11
461.4310578708953
 21
409.58078274567771
 31
0.0
  0
LINE
  5
3692
  8
WAKU
  6
CONTINUOUS
 10
468.3233658708956
 20
409.58078274567771
 30
0.0
 11
473.70798087089503
 21
409.58078274567771
 31
0.0
  0
SOLID
  5
3693
  8
WAKU
  6
CONTINUOUS
 10
470.87115787089562
 20
416.5807827456776
 30
0.0
 11
470.2440088708953
 21
414.857705745678
 31
0.0
 12
475.62862387089592
 22
414.857705745678
 32
0.0
 13
475.62862387089592
 23
414.857705745678
 33
0.0
  0
SOLID
  5
3694
  8
WAKU
  6
CONTINUOUS
 10
469.1073018708957
 20
411.73462874567758
 30
0.0
 11
468.3233658708956
 21
409.58078274567771
 31
0.0
 12
474.49191687089569
 22
411.73462874567758
 32
0.0
 13
474.49191687089569
 23
411.73462874567758
 33
0.0
  0
SOLID
  5
3695
  8
WAKU
  6
CONTINUOUS
 10
474.49191687089569
 20
411.73462874567758
 30
0.0
 11
468.3233658708956
 21
409.58078274567771
 31
0.0
 12
473.70798087089508
 22
409.58078274567771
 32
0.0
 13
473.70798087089508
 23
409.58078274567771
 33
0.0
  0
LINE
  5
3696
  8
WAKU
  6
CONTINUOUS
 10
469.10730187089513
 20
411.73462874567758
 30
0.0
 11
474.49191687089473
 21
411.73462874567758
 31
0.0
  0
LINE
  5
3697
  8
WAKU
  6
CONTINUOUS
 10
470.2440088708953
 20
414.85770574567772
 30
0.0
 11
475.62862387089513
 21
414.85770574567772
 31
0.0
  0
SOLID
  5
3698
  8
WAKU
  6
CONTINUOUS
 10
476.25577287089561
 20
416.5807827456776
 30
0.0
 11
470.87115787089562
 21
416.5807827456776
 31
0.0
 12
475.62862387089592
 22
414.857705745678
 32
0.0
 13
475.62862387089592
 23
414.857705745678
 33
0.0
  0
LINE
  5
3699
  8
WAKU
  6
CONTINUOUS
 10
470.87115787089562
 20
416.5807827456776
 30
0.0
 11
476.2557728708951
 21
416.5807827456776
 31
0.0
  0
LINE
  5
369A
  8
WAKU
  6
CONTINUOUS
 10
453.22704887089509
 20
416.5807827456776
 30
0.0
 11
453.22704887089509
 21
412.3030047456777
 31
0.0
  0
SOLID
  5
369B
  8
WAKU
  6
CONTINUOUS
 10
457.50482587089562
 20
416.5807827456776
 30
0.0
 11
453.22704887089571
 21
416.5807827456776
 31
0.0
 12
453.22704887089571
 22
412.3030047456777
 32
0.0
 13
453.22704887089571
 23
412.3030047456777
 33
0.0
  0
LINE
  5
369C
  8
WAKU
  6
CONTINUOUS
 10
453.22704887089509
 20
412.3030047456777
 30
0.0
 11
457.50482587089562
 21
416.5807827456776
 31
0.0
  0
LINE
  5
369D
  8
WAKU
  6
CONTINUOUS
 10
453.22704887089509
 20
416.5807827456776
 30
0.0
 11
457.50482587089562
 21
416.5807827456776
 31
0.0
  0
LINE
  5
369E
  8
WAKU
  6
CONTINUOUS
 10
490.5384668708956
 20
412.9192447456777
 30
0.0
 11
493.76923587089539
 21
412.9192447456777
 31
0.0
  0
SOLID
  5
369F
  8
WAKU
  6
CONTINUOUS
 10
491.87115787089567
 20
416.5807827456776
 30
0.0
 11
491.24400887089558
 21
414.857705745678
 31
0.0
 12
494.47477787089508
 22
414.857705745678
 32
0.0
 13
494.47477787089508
 23
414.857705745678
 33
0.0
  0
SOLID
  5
36A0
  8
WAKU
  6
CONTINUOUS
 10
494.23959687089558
 20
414.21155174567798
 30
0.0
 11
491.00882787089557
 21
414.21155174567798
 31
0.0
 12
493.76923587089561
 22
412.91924474567821
 32
0.0
 13
493.76923587089561
 23
412.91924474567821
 33
0.0
  0
SOLID
  5
36A1
  8
WAKU
  6
CONTINUOUS
 10
494.70798087089508
 20
409.58078274567771
 30
0.0
 11
494.41499387089561
 21
411.73462874567758
 31
0.0
 12
490.10730187089558
 22
411.73462874567758
 32
0.0
 13
490.10730187089558
 23
411.73462874567758
 33
0.0
  0
SOLID
  5
36A2
  8
WAKU
  6
CONTINUOUS
 10
490.10730187089558
 20
411.73462874567758
 30
0.0
 11
489.3233658708956
 21
409.58078274567771
 31
0.0
 12
494.70798087089508
 22
409.58078274567771
 32
0.0
 13
494.70798087089508
 23
409.58078274567771
 33
0.0
  0
LINE
  5
36A3
  8
WAKU
  6
CONTINUOUS
 10
494.70798087089508
 20
409.58078274567771
 30
0.0
 11
489.3233658708956
 21
409.58078274567771
 31
0.0
  0
LINE
  5
36A4
  8
WAKU
  6
CONTINUOUS
 10
490.10730187089513
 20
411.73462874567758
 30
0.0
 11
494.41499387089561
 21
411.73462874567758
 31
0.0
  0
LINE
  5
36A5
  8
WAKU
  6
CONTINUOUS
 10
491.2440088708953
 20
414.85770574567772
 30
0.0
 11
494.47477787089508
 21
414.85770574567772
 31
0.0
  0
LINE
  5
36A6
  8
WAKU
  6
CONTINUOUS
 10
491.00882787089557
 20
414.2115517456777
 30
0.0
 11
494.2395968708953
 21
414.2115517456777
 31
0.0
  0
SOLID
  5
36A7
  8
WAKU
  6
CONTINUOUS
 10
494.47477787089508
 20
414.857705745678
 30
0.0
 11
495.10192687089562
 21
416.5807827456776
 31
0.0
 12
491.87115787089567
 22
416.5807827456776
 32
0.0
 13
491.87115787089567
 23
416.5807827456776
 33
0.0
  0
LINE
  5
36A8
  8
WAKU
  6
CONTINUOUS
 10
491.87115787089567
 20
416.5807827456776
 30
0.0
 11
495.10192687089511
 21
416.5807827456776
 31
0.0
  0
SOLID
  5
36A9
  8
WAKU
  6
CONTINUOUS
 10
491.00882787089557
 20
414.21155174567798
 30
0.0
 11
490.5384668708956
 21
412.91924474567821
 31
0.0
 12
493.76923587089561
 22
412.91924474567821
 32
0.0
 13
493.76923587089561
 23
412.91924474567821
 33
0.0
  0
LINE
  5
36AA
  8
WAKU
 10
506.89863881456068
 20
417.8041926488375
 30
0.0
 11
506.89863881456068
 21
28.29526935608077
 31
0.0
  0
TEXT
  5
36AB
  8
WAKU
 10
75.69258251726535
 20
411.41594787396718
 30
0.0
 40
5.0
  1
FIX窓（ガラス溝幅43ｍｍ）断面詳細図
  7
MX_NOTE_STANDARD
 11
75.69258251726535
 21
413.9159478739673
 31
0.0
 73
     2
  0
TEXT
  5
36AC
  8
WAKU
 10
36.524425493660559
 20
411.37675236086397
 30
0.0
 40
3.0
  1
FNS-100断熱
 41
0.8679999999999999
  7
MX_NOTE_STANDARD
 11
36.524425493660559
 21
412.87675236086397
 31
0.0
 73
     2
  0
LINE
  5
36AD
  8
WAKU
 10
31.524425493660821
 20
417.87675236086369
 30
0.0
 11
31.524425493660821
 21
28.367829068107071
 31
0.0
  0
LINE
  5
36AE
  8
WAKU
 10
31.524425493660821
 20
28.367829068107071
 30
0.0
 11
506.89863881456068
 21
28.29526935608077
 31
0.0
  0
LINE
  5
36AF
  8
WAKU
 10
31.524425493660821
 20
407.87675236086397
 30
0.0
 11
506.89863881456068
 21
407.80419264883761
 31
0.0
  0
LINE
  5
36B0
  8
WAKU
 10
31.524425493660821
 20
417.87675236086369
 30
0.0
 11
506.89863881456068
 21
417.8041926488375
 31
0.0
  0
POLYLINE
  5
47AD
  8
SUNPO
  6
BYBLOCK
 66
     1
 10
0.0
 20
0.0
 30
0.0
 70
     1
 40
1.159999999999999
 41
1.159999999999999
  0
VERTEX
  5
50DB
  8
SUNPO
  6
BYBLOCK
 10
200.730374161969
 20
272.74318945646212
 30
0.0
 42
1.0
  0
VERTEX
  5
50DC
  8
SUNPO
  6
BYBLOCK
 10
200.730374161969
 20
273.03318945646203
 30
0.0
 42
1.0
  0
SEQEND
  5
50DD
  8
SUNPO
  6
BYBLOCK
  0
POLYLINE
  5
47AE
  8
SUNPO
  6
BYBLOCK
 66
     1
 10
0.0
 20
0.0
 30
0.0
 70
     1
 40
1.159999999999999
 41
1.159999999999999
  0
VERTEX
  5
50DE
  8
SUNPO
  6
BYBLOCK
 10
200.730374161969
 20
249.03318943262019
 30
0.0
 42
1.0
  0
VERTEX
  5
50DF
  8
SUNPO
  6
BYBLOCK
 10
200.730374161969
 20
248.7431894326202
 30
0.0
 42
1.0
  0
SEQEND
  5
50E0
  8
SUNPO
  6
BYBLOCK
  0
TEXT
  5
47AF
  8
SUNPO
  6
CONTINUOUS
 10
200.230374161969
 20
258.80485612312867
 30
0.0
 40
2.5
  1
24
 50
90.0
  0
POLYLINE
  5
47B0
  8
SUNPO
  6
BYBLOCK
 66
     1
 10
0.0
 20
0.0
 30
0.0
 70
     1
 40
1.159999999999999
 41
1.159999999999999
  0
VERTEX
  5
50E1
  8
SUNPO
  6
BYBLOCK
 10
207.76456680308559
 20
312.74318945646201
 30
0.0
 42
1.0
  0
VERTEX
  5
50E2
  8
SUNPO
  6
BYBLOCK
 10
207.76456680308559
 20
313.03318945646208
 30
0.0
 42
1.0
  0
SEQEND
  5
50E3
  8
SUNPO
  6
BYBLOCK
  0
TEXT
  5
47B1
  8
SUNPO
  6
CONTINUOUS
 10
207.26456680308559
 20
290.8256894564621
 30
0.0
 40
2.5
  1
40
 50
90.0
 41
1.1000000000000001
  7
MX_DIMTXSTY_3
  0
POLYLINE
  5
47B2
  8
SUNPO
  6
BYBLOCK
 66
     1
 10
0.0
 20
0.0
 30
0.0
 70
     1
 40
1.159999999999999
 41
1.159999999999999
  0
VERTEX
  5
50E4
  8
SUNPO
  6
BYBLOCK
 10
207.76456680308559
 20
322.74318945646201
 30
0.0
 42
1.0
  0
VERTEX
  5
50E5
  8
SUNPO
  6
BYBLOCK
 10
207.76456680308559
 20
323.03318945646208
 30
0.0
 42
1.0
  0
SEQEND
  5
50E6
  8
SUNPO
  6
BYBLOCK
  0
POLYLINE
  5
47B3
  8
SUNPO
  6
BYBLOCK
 66
     1
 10
0.0
 20
0.0
 30
0.0
 70
     1
 40
1.159999999999999
 41
1.159999999999999
  0
VERTEX
  5
50E7
  8
SUNPO
  6
BYBLOCK
 10
207.76456680308559
 20
313.03318945646208
 30
0.0
 42
1.0
  0
VERTEX
  5
50E8
  8
SUNPO
  6
BYBLOCK
 10
207.76456680308559
 20
312.74318945646201
 30
0.0
 42
1.0
  0
SEQEND
  5
50E9
  8
SUNPO
  6
BYBLOCK
  0
TEXT
  5
47B4
  8
SUNPO
  6
CONTINUOUS
 10
207.26456680308559
 20
315.9194394564621
 30
0.0
 40
2.5
  1
10
 50
90.0
 41
1.3500000000000001
  7
MX_DIMTXSTY_5
  0
POLYLINE
  5
47B5
  8
SUNPO
  6
BYBLOCK
 66
     1
 10
0.0
 20
0.0
 30
0.0
 70
     1
 40
1.159999999999999
 41
1.159999999999999
  0
VERTEX
  5
50EA
  8
SUNPO
  6
BYBLOCK
 10
75.7645668030857
 20
313.03318945646208
 30
0.0
 42
1.0
  0
VERTEX
  5
50EB
  8
SUNPO
  6
BYBLOCK
 10
75.7645668030857
 20
312.74318945646201
 30
0.0
 42
1.0
  0
SEQEND
  5
50EC
  8
SUNPO
  6
BYBLOCK
  0
POLYLINE
  5
47B6
  8
SUNPO
  6
BYBLOCK
 66
     1
 10
0.0
 20
0.0
 30
0.0
 70
     1
 40
1.159999999999999
 41
1.159999999999999
  0
VERTEX
  5
50ED
  8
SUNPO
  6
BYBLOCK
 10
75.7645668030857
 20
322.74318945646201
 30
0.0
 42
1.0
  0
VERTEX
  5
50EE
  8
SUNPO
  6
BYBLOCK
 10
75.7645668030857
 20
323.03318945646208
 30
0.0
 42
1.0
  0
SEQEND
  5
50EF
  8
SUNPO
  6
BYBLOCK
  0
TEXT
  5
47B7
  8
SUNPO
  6
CONTINUOUS
 10
75.264566803085685
 20
315.9194394564621
 30
0.0
 40
2.5
  1
10
 50
90.0
 41
1.3500000000000001
  7
MX_DIMTXSTY_5
  0
POLYLINE
  5
47B8
  8
SUNPO
  6
BYBLOCK
 66
     1
 10
0.0
 20
0.0
 30
0.0
 70
     1
 40
1.159999999999999
 41
1.159999999999999
  0
VERTEX
  5
50F0
  8
SUNPO
  6
BYBLOCK
 10
75.7645668030857
 20
308.03318945646203
 30
0.0
 42
1.0
  0
VERTEX
  5
50F1
  8
SUNPO
  6
BYBLOCK
 10
75.7645668030857
 20
307.74318945646201
 30
0.0
 42
1.0
  0
SEQEND
  5
50F2
  8
SUNPO
  6
BYBLOCK
  0
POLYLINE
  5
47B9
  8
SUNPO
  6
BYBLOCK
 66
     1
 10
0.0
 20
0.0
 30
0.0
 70
     1
 40
1.159999999999999
 41
1.159999999999999
  0
VERTEX
  5
50F3
  8
SUNPO
  6
BYBLOCK
 10
75.7645668030857
 20
312.74318945646201
 30
0.0
 42
1.0
  0
VERTEX
  5
50F4
  8
SUNPO
  6
BYBLOCK
 10
75.7645668030857
 20
313.03318945646208
 30
0.0
 42
1.0
  0
SEQEND
  5
50F5
  8
SUNPO
  6
BYBLOCK
  0
TEXT
  5
47BA
  8
SUNPO
  6
CONTINUOUS
 10
75.264566803085685
 20
309.55485612312862
 30
0.0
 40
2.5
  1
5
 50
90.0
  0
POLYLINE
  5
47BB
  8
SUNPO
  6
BYBLOCK
 66
     1
 10
0.0
 20
0.0
 30
0.0
 70
     1
 40
1.159999999999999
 41
1.159999999999999
  0
VERTEX
  5
50F6
  8
SUNPO
  6
BYBLOCK
 10
75.7645668030857
 20
249.03318945646211
 30
0.0
 42
1.0
  0
VERTEX
  5
50F7
  8
SUNPO
  6
BYBLOCK
 10
75.7645668030857
 20
248.74318945646201
 30
0.0
 42
1.0
  0
SEQEND
  5
50F8
  8
SUNPO
  6
BYBLOCK
  0
POLYLINE
  5
47BC
  8
SUNPO
  6
BYBLOCK
 66
     1
 10
0.0
 20
0.0
 30
0.0
 70
     1
 40
1.159999999999999
 41
1.159999999999999
  0
VERTEX
  5
50F9
  8
SUNPO
  6
BYBLOCK
 10
75.7645668030857
 20
272.74318945646212
 30
0.0
 42
1.0
  0
VERTEX
  5
50FA
  8
SUNPO
  6
BYBLOCK
 10
75.7645668030857
 20
273.03318945646203
 30
0.0
 42
1.0
  0
SEQEND
  5
50FB
  8
SUNPO
  6
BYBLOCK
  0
TEXT
  5
47BD
  8
SUNPO
  6
CONTINUOUS
 10
75.264566803085685
 20
258.80485612312867
 30
0.0
 40
2.5
  1
24
 50
90.0
  0
POLYLINE
  5
47BE
  8
SUNPO
  6
BYBLOCK
 66
     1
 10
0.0
 20
0.0
 30
0.0
 70
     1
 40
1.159999999999999
 41
1.159999999999999
  0
VERTEX
  5
50FC
  8
SUNPO
  6
BYBLOCK
 10
75.7645668030857
 20
273.03318945646203
 30
0.0
 42
1.0
  0
VERTEX
  5
50FD
  8
SUNPO
  6
BYBLOCK
 10
75.7645668030857
 20
272.74318945646212
 30
0.0
 42
1.0
  0
SEQEND
  5
50FE
  8
SUNPO
  6
BYBLOCK
  0
POLYLINE
  5
47BF
  8
SUNPO
  6
BYBLOCK
 66
     1
 10
0.0
 20
0.0
 30
0.0
 70
     1
 40
1.159999999999999
 41
1.159999999999999
  0
VERTEX
  5
50FF
  8
SUNPO
  6
BYBLOCK
 10
75.7645668030857
 20
307.74318945646201
 30
0.0
 42
1.0
  0
VERTEX
  5
5100
  8
SUNPO
  6
BYBLOCK
 10
75.7645668030857
 20
308.03318945646203
 30
0.0
 42
1.0
  0
SEQEND
  5
5101
  8
SUNPO
  6
BYBLOCK
  0
TEXT
  5
47C0
  8
SUNPO
  6
CONTINUOUS
 10
75.264566803085685
 20
288.30485612312867
 30
0.0
 40
2.5
  1
35
 50
90.0
  0
POLYLINE
  5
47C1
  8
SUNPO
  6
BYBLOCK
 66
     1
 10
0.0
 20
0.0
 30
0.0
 70
     1
 40
1.159999999999999
 41
1.159999999999999
  0
VERTEX
  5
5102
  8
SUNPO
  6
BYBLOCK
 10
75.7645668030857
 20
99.033189619382782
 30
0.0
 42
1.0
  0
VERTEX
  5
5103
  8
SUNPO
  6
BYBLOCK
 10
75.7645668030857
 20
98.743189619382875
 30
0.0
 42
1.0
  0
SEQEND
  5
5104
  8
SUNPO
  6
BYBLOCK
  0
POLYLINE
  5
47C2
  8
SUNPO
  6
BYBLOCK
 66
     1
 10
0.0
 20
0.0
 30
0.0
 70
     1
 40
1.159999999999999
 41
1.159999999999999
  0
VERTEX
  5
5105
  8
SUNPO
  6
BYBLOCK
 10
75.7645668030857
 20
108.7431896193827
 30
0.0
 42
1.0
  0
VERTEX
  5
5106
  8
SUNPO
  6
BYBLOCK
 10
75.7645668030857
 20
109.0331896193827
 30
0.0
 42
1.0
  0
SEQEND
  5
5107
  8
SUNPO
  6
BYBLOCK
  0
TEXT
  5
47C3
  8
SUNPO
  6
CONTINUOUS
 10
75.264566803085685
 20
101.9194396193827
 30
0.0
 40
2.5
  1
10
 50
90.0
 41
1.3500000000000001
  7
MX_DIMTXSTY_5
  0
POLYLINE
  5
47C4
  8
SUNPO
  6
BYBLOCK
 66
     1
 10
0.0
 20
0.0
 30
0.0
 70
     1
 40
1.159999999999999
 41
1.159999999999999
  0
VERTEX
  5
5108
  8
SUNPO
  6
BYBLOCK
 10
75.7645668030857
 20
109.0331896193827
 30
0.0
 42
1.0
  0
VERTEX
  5
5109
  8
SUNPO
  6
BYBLOCK
 10
75.7645668030857
 20
108.7431896193827
 30
0.0
 42
1.0
  0
SEQEND
  5
510A
  8
SUNPO
  6
BYBLOCK
  0
POLYLINE
  5
47C5
  8
SUNPO
  6
BYBLOCK
 66
     1
 10
0.0
 20
0.0
 30
0.0
 70
     1
 40
1.159999999999999
 41
1.159999999999999
  0
VERTEX
  5
510B
  8
SUNPO
  6
BYBLOCK
 10
75.7645668030857
 20
118.7431896193828
 30
0.0
 42
1.0
  0
VERTEX
  5
510C
  8
SUNPO
  6
BYBLOCK
 10
75.7645668030857
 20
119.0331896193827
 30
0.0
 42
1.0
  0
SEQEND
  5
510D
  8
SUNPO
  6
BYBLOCK
  0
TEXT
  5
47C6
  8
SUNPO
  6
CONTINUOUS
 10
75.264566803085685
 20
111.9194396193827
 30
0.0
 40
2.5
  1
10
 50
90.0
 41
1.3500000000000001
  7
MX_DIMTXSTY_5
  0
POLYLINE
  5
47C7
  8
SUNPO
  6
BYBLOCK
 66
     1
 10
0.0
 20
0.0
 30
0.0
 70
     1
 40
1.159999999999999
 41
1.159999999999999
  0
VERTEX
  5
510E
  8
SUNPO
  6
BYBLOCK
 10
75.7645668030857
 20
119.0331896193827
 30
0.0
 42
1.0
  0
VERTEX
  5
510F
  8
SUNPO
  6
BYBLOCK
 10
75.7645668030857
 20
118.7431896193828
 30
0.0
 42
1.0
  0
SEQEND
  5
5110
  8
SUNPO
  6
BYBLOCK
  0
POLYLINE
  5
47C8
  8
SUNPO
  6
BYBLOCK
 66
     1
 10
0.0
 20
0.0
 30
0.0
 70
     1
 40
1.159999999999999
 41
1.159999999999999
  0
VERTEX
  5
5111
  8
SUNPO
  6
BYBLOCK
 10
75.7645668030857
 20
136.7431896193828
 30
0.0
 42
1.0
  0
VERTEX
  5
5112
  8
SUNPO
  6
BYBLOCK
 10
75.7645668030857
 20
137.0331896193828
 30
0.0
 42
1.0
  0
SEQEND
  5
5113
  8
SUNPO
  6
BYBLOCK
  0
TEXT
  5
47C9
  8
SUNPO
  6
CONTINUOUS
 10
75.264566803085685
 20
125.8881896193827
 30
0.0
 40
2.5
  1
18
 50
90.0
 41
1.1999999999999991
  7
MX_DIMTXSTY_2
  0
POLYLINE
  5
47CA
  8
SUNPO
  6
BYBLOCK
 66
     1
 10
0.0
 20
0.0
 30
0.0
 70
     1
 40
1.159999999999999
 41
1.159999999999999
  0
VERTEX
  5
5114
  8
SUNPO
  6
BYBLOCK
 10
75.7645668030857
 20
137.0331896193828
 30
0.0
 42
1.0
  0
VERTEX
  5
5115
  8
SUNPO
  6
BYBLOCK
 10
75.7645668030857
 20
136.7431896193828
 30
0.0
 42
1.0
  0
SEQEND
  5
5116
  8
SUNPO
  6
BYBLOCK
  0
POLYLINE
  5
47CB
  8
SUNPO
  6
BYBLOCK
 66
     1
 10
0.0
 20
0.0
 30
0.0
 70
     1
 40
1.159999999999999
 41
1.159999999999999
  0
VERTEX
  5
5117
  8
SUNPO
  6
BYBLOCK
 10
75.7645668030857
 20
168.74318961938269
 30
0.0
 42
1.0
  0
VERTEX
  5
5118
  8
SUNPO
  6
BYBLOCK
 10
75.7645668030857
 20
169.03318961938271
 30
0.0
 42
1.0
  0
SEQEND
  5
5119
  8
SUNPO
  6
BYBLOCK
  0
TEXT
  5
47CC
  8
SUNPO
  6
CONTINUOUS
 10
75.264566803085685
 20
150.80485628604939
 30
0.0
 40
2.5
  1
32
 50
90.0
  0
POLYLINE
  5
47CD
  8
SUNPO
  6
BYBLOCK
 66
     1
 10
0.0
 20
0.0
 30
0.0
 70
     1
 40
1.159999999999999
 41
1.159999999999999
  0
VERTEX
  5
511A
  8
SUNPO
  6
BYBLOCK
 10
101.9095668030858
 20
206.38818332104091
 30
0.0
 42
1.0
  0
VERTEX
  5
511B
  8
SUNPO
  6
BYBLOCK
 10
101.6195668030856
 20
206.38818332104091
 30
0.0
 42
1.0
  0
SEQEND
  5
511C
  8
SUNPO
  6
BYBLOCK
  0
POLYLINE
  5
47CE
  8
SUNPO
  6
BYBLOCK
 66
     1
 10
0.0
 20
0.0
 30
0.0
 70
     1
 40
1.159999999999999
 41
1.159999999999999
  0
VERTEX
  5
511D
  8
SUNPO
  6
BYBLOCK
 10
107.6195668030856
 20
206.38818332104091
 30
0.0
 42
1.0
  0
VERTEX
  5
511E
  8
SUNPO
  6
BYBLOCK
 10
107.9095668030857
 20
206.38818332104091
 30
0.0
 42
1.0
  0
SEQEND
  5
511F
  8
SUNPO
  6
BYBLOCK
  0
TEXT
  5
47CF
  8
SUNPO
  6
CONTINUOUS
 10
103.9312334697524
 20
206.888183321041
 30
0.0
 40
2.5
  1
6
  0
LINE
  5
47D0
  8
DANMEN
  6
CONTINUOUS
 10
172.46305161292059
 20
119.8881896193827
 30
0.0
 11
173.2645668030857
 21
120.68970480954781
 31
0.0
  0
LINE
  5
47D1
  8
DANMEN
  6
CONTINUOUS
 10
171.45787106208539
 20
120.2972226309206
 30
0.0
 11
173.2645668030857
 21
122.1039183719208
 31
0.0
  0
LINE
  5
47D2
  8
DANMEN
  6
CONTINUOUS
 10
169.5488380505476
 20
118.3881896193827
 30
0.0
 11
170.26456680308559
 21
119.1039183719208
 31
0.0
  0
LINE
  5
47D3
  8
DANMEN
  6
CONTINUOUS
 10
170.6346244881745
 20
120.8881896193827
 30
0.0
 11
173.2645668030857
 21
123.518131934294
 31
0.0
  0
LINE
  5
47D4
  8
DANMEN
  6
CONTINUOUS
 10
168.13462448817441
 20
118.3881896193827
 30
0.0
 11
170.26456680308559
 21
120.518131934294
 31
0.0
  0
LINE
  5
47D5
  8
DANMEN
  6
CONTINUOUS
 10
166.7204109258013
 20
118.3881896193827
 30
0.0
 11
173.2645668030857
 21
124.932345496667
 31
0.0
  0
LINE
  5
47D6
  8
DANMEN
  6
CONTINUOUS
 10
165.30619736342831
 20
118.3881896193827
 30
0.0
 11
173.13832219731509
 21
126.22031445326959
 31
0.0
  0
LINE
  5
47D7
  8
DANMEN
  6
CONTINUOUS
 10
171.40796976594709
 20
125.9041755842747
 30
0.0
 11
171.7485808381937
 21
126.2447866565213
 31
0.0
  0
LINE
  5
47D8
  8
DANMEN
  6
CONTINUOUS
 10
164.2645668030857
 20
118.7607726214132
 30
0.0
 11
170.89388217279901
 21
125.39008799112661
 31
0.0
  0
LINE
  5
47D9
  8
DANMEN
  6
CONTINUOUS
 10
164.2645668030857
 20
120.1749861837863
 30
0.0
 11
170.26456680308559
 21
126.1749861837863
 31
0.0
  0
LINE
  5
47DA
  8
DANMEN
  6
CONTINUOUS
 10
163.5454526368475
 20
120.87008557992129
 30
0.0
 11
169.06355667630899
 21
126.3881896193827
 31
0.0
  0
LINE
  5
47DB
  8
DANMEN
  6
CONTINUOUS
 10
162.63449720812039
 20
119.9591301511942
 30
0.0
 11
163.19362627127421
 21
120.51825921434801
 31
0.0
  0
LINE
  5
47DC
  8
DANMEN
  6
CONTINUOUS
 10
161.35812709929559
 20
120.0969736047424
 30
0.0
 11
167.64934311393591
 21
126.3881896193827
 31
0.0
  0
LINE
  5
47DD
  8
DANMEN
  6
CONTINUOUS
 10
161.26456680308559
 20
121.41762687090559
 30
0.0
 11
166.23512955156281
 21
126.3881896193827
 31
0.0
  0
LINE
  5
47DE
  8
DANMEN
  6
CONTINUOUS
 10
164.2645668030857
 20
125.8318404332787
 30
0.0
 11
164.8209159891897
 21
126.3881896193827
 31
0.0
  0
LINE
  5
47DF
  8
DANMEN
  6
CONTINUOUS
 10
161.26456680308559
 20
122.8318404332787
 30
0.0
 11
163.8209159891897
 21
125.3881896193827
 31
0.0
  0
LINE
  5
47E0
  8
DANMEN
  6
CONTINUOUS
 10
161.26456680308559
 20
124.24605399565181
 30
0.0
 11
163.03916099407039
 21
126.02064818663651
 31
0.0
  0
LINE
  5
47E1
  8
DANMEN
  6
CONTINUOUS
 10
161.26456680308559
 20
125.6602675580249
 30
0.0
 11
161.99248886444349
 21
126.3881896193827
 31
0.0
  0
LINE
  5
47E2
  8
DANMEN
  6
CONTINUOUS
 10
173.1924888644435
 20
137.58818961938269
 30
0.0
 11
173.2645668030857
 21
137.66026755802491
 31
0.0
  0
LINE
  5
47E3
  8
DANMEN
  6
CONTINUOUS
 10
171.7782753020704
 20
137.58818961938269
 30
0.0
 11
173.2645668030857
 21
139.07448112039799
 31
0.0
  0
LINE
  5
47E4
  8
DANMEN
  6
CONTINUOUS
 10
170.36406173969729
 20
137.58818961938269
 30
0.0
 11
173.2645668030857
 21
140.4886946827711
 31
0.0
  0
LINE
  5
47E5
  8
DANMEN
  6
CONTINUOUS
 10
168.94984817732421
 20
137.58818961938269
 30
0.0
 11
173.2645668030857
 21
141.9029082451442
 31
0.0
  0
LINE
  5
47E6
  8
DANMEN
  6
CONTINUOUS
 10
167.53563461495111
 20
137.58818961938269
 30
0.0
 11
173.2645668030857
 21
143.31712180751731
 31
0.0
  0
LINE
  5
47E7
  8
DANMEN
  6
CONTINUOUS
 10
166.121421052578
 20
137.58818961938269
 30
0.0
 11
172.42142105257801
 21
143.8881896193827
 31
0.0
  0
LINE
  5
47E8
  8
DANMEN
  6
CONTINUOUS
 10
164.70720749020489
 20
137.58818961938269
 30
0.0
 11
170.26456680308559
 21
143.14554893226341
 31
0.0
  0
LINE
  5
47E9
  8
DANMEN
  6
CONTINUOUS
 10
163.29299392783179
 20
137.58818961938269
 30
0.0
 11
170.26456680308559
 21
144.5597624946366
 31
0.0
  0
LINE
  5
47EA
  8
DANMEN
  6
CONTINUOUS
 10
161.87878036545871
 20
137.58818961938269
 30
0.0
 11
169.67878036545869
 21
145.3881896193827
 31
0.0
  0
LINE
  5
47EB
  8
DANMEN
  6
CONTINUOUS
 10
161.26456680308559
 20
138.3881896193827
 30
0.0
 11
168.2645668030857
 21
145.3881896193827
 31
0.0
  0
LINE
  5
47EC
  8
DANMEN
  6
CONTINUOUS
 10
161.26456680308559
 20
139.80240318175581
 30
0.0
 11
166.85035324071259
 21
145.3881896193827
 31
0.0
  0
LINE
  5
47ED
  8
DANMEN
  6
CONTINUOUS
 10
164.2645668030857
 20
144.216616744129
 30
0.0
 11
165.43613967833949
 21
145.3881896193827
 31
0.0
  0
LINE
  5
47EE
  8
DANMEN
  6
CONTINUOUS
 10
161.26456680308559
 20
141.21661674412891
 30
0.0
 11
163.22537362615461
 21
143.17742356719791
 31
0.0
  0
LINE
  5
47EF
  8
DANMEN
  6
CONTINUOUS
 10
161.26456680308559
 20
142.63083030650199
 30
0.0
 11
162.4950115320076
 21
143.861275035424
 31
0.0
  0
LINE
  5
47F0
  8
DANMEN
  6
CONTINUOUS
 10
171.72447553805119
 20
282.5465830012626
 30
0.0
 11
173.2645668030857
 21
284.08667426629711
 31
0.0
  0
LINE
  5
47F1
  8
DANMEN
  6
CONTINUOUS
 10
170.06608199325069
 20
280.8881894564621
 30
0.0
 11
170.26456680308559
 21
281.086674266297
 31
0.0
  0
LINE
  5
47F2
  8
DANMEN
  6
CONTINUOUS
 10
171.09044981832761
 20
283.32677084391202
 30
0.0
 11
173.2645668030857
 21
285.5008878286701
 31
0.0
  0
LINE
  5
47F3
  8
DANMEN
  6
CONTINUOUS
 10
168.65186843087761
 20
280.8881894564621
 30
0.0
 11
170.26456680308559
 21
282.5008878286701
 31
0.0
  0
LINE
  5
47F4
  8
DANMEN
  6
CONTINUOUS
 10
167.23765486850451
 20
280.8881894564621
 30
0.0
 11
173.2645668030857
 21
286.91510139104321
 31
0.0
  0
LINE
  5
47F5
  8
DANMEN
  6
CONTINUOUS
 10
165.8234413061314
 20
280.8881894564621
 30
0.0
 11
173.2645668030857
 21
288.32931495341631
 31
0.0
  0
LINE
  5
47F6
  8
DANMEN
  6
CONTINUOUS
 10
164.40922774375829
 20
280.8881894564621
 30
0.0
 11
172.40922774375829
 21
288.8881894564621
 31
0.0
  0
LINE
  5
47F7
  8
DANMEN
  6
CONTINUOUS
 10
164.2645668030857
 20
282.15774207816253
 30
0.0
 11
170.26456680308559
 21
288.15774207816253
 31
0.0
  0
LINE
  5
47F8
  8
DANMEN
  6
CONTINUOUS
 10
164.08080061901211
 20
283.3881894564621
 30
0.0
 11
169.58080061901211
 21
288.8881894564621
 31
0.0
  0
LINE
  5
47F9
  8
DANMEN
  6
CONTINUOUS
 10
161.6747248558913
 20
282.39632725571443
 30
0.0
 11
168.166587056639
 21
288.8881894564621
 31
0.0
  0
LINE
  5
47FA
  8
DANMEN
  6
CONTINUOUS
 10
161.26456680308559
 20
283.40038276528179
 30
0.0
 11
166.7523734942659
 21
288.8881894564621
 31
0.0
  0
LINE
  5
47FB
  8
DANMEN
  6
CONTINUOUS
 10
161.26456680308559
 20
284.8145963276549
 30
0.0
 11
165.33815993189279
 21
288.8881894564621
 31
0.0
  0
LINE
  5
47FC
  8
DANMEN
  6
CONTINUOUS
 10
161.26456680308559
 20
286.228809890028
 30
0.0
 11
163.22156811490299
 21
288.1858112018453
 31
0.0
  0
LINE
  5
47FD
  8
DANMEN
  6
CONTINUOUS
 10
161.26456680308559
 20
287.64302345240111
 30
0.0
 11
162.4851100125243
 21
288.8635666618398
 31
0.0
  0
POLYLINE
  5
47FE
  8
SUNPO
  6
BYBLOCK
 66
     1
 10
0.0
 20
0.0
 30
0.0
 70
     1
 40
1.159999999999999
 41
1.159999999999999
  0
VERTEX
  5
5120
  8
SUNPO
  6
BYBLOCK
 10
191.61956680308569
 20
206.38818332104091
 30
0.0
 42
1.0
  0
VERTEX
  5
5121
  8
SUNPO
  6
BYBLOCK
 10
191.90956680308571
 20
206.38818332104091
 30
0.0
 42
1.0
  0
SEQEND
  5
5122
  8
SUNPO
  6
BYBLOCK
  0
POLYLINE
  5
47FF
  8
SUNPO
  6
BYBLOCK
 66
     1
 10
0.0
 20
0.0
 30
0.0
 70
     1
 40
1.159999999999999
 41
1.159999999999999
  0
VERTEX
  5
5123
  8
SUNPO
  6
BYBLOCK
 10
186.90958872644589
 20
206.38818332104091
 30
0.0
 42
1.0
  0
VERTEX
  5
5124
  8
SUNPO
  6
BYBLOCK
 10
186.61958872644601
 20
206.38818332104091
 30
0.0
 42
1.0
  0
SEQEND
  5
5125
  8
SUNPO
  6
BYBLOCK
  0
TEXT
  5
4800
  8
SUNPO
  6
CONTINUOUS
 10
188.431244437007
 20
206.888183321041
 30
0.0
 40
2.5
  1
5
  0
POLYLINE
  5
4801
  8
SUNPO
  6
BYBLOCK
 66
     1
 10
0.0
 20
0.0
 30
0.0
 70
     1
 40
1.159999999999999
 41
1.159999999999999
  0
VERTEX
  5
5126
  8
SUNPO
  6
BYBLOCK
 10
91.909566803085795
 20
211.388183321041
 30
0.0
 42
1.0
  0
VERTEX
  5
5127
  8
SUNPO
  6
BYBLOCK
 10
91.619566803085675
 20
211.388183321041
 30
0.0
 42
1.0
  0
SEQEND
  5
5128
  8
SUNPO
  6
BYBLOCK
  0
POLYLINE
  5
4802
  8
SUNPO
  6
BYBLOCK
 66
     1
 10
0.0
 20
0.0
 30
0.0
 70
     1
 40
1.159999999999999
 41
1.159999999999999
  0
VERTEX
  5
5129
  8
SUNPO
  6
BYBLOCK
 10
191.61956680308569
 20
211.388183321041
 30
0.0
 42
1.0
  0
VERTEX
  5
512A
  8
SUNPO
  6
BYBLOCK
 10
191.90956680308571
 20
211.388183321041
 30
0.0
 42
1.0
  0
SEQEND
  5
512B
  8
SUNPO
  6
BYBLOCK
  0
TEXT
  5
4803
  8
SUNPO
  6
CONTINUOUS
 10
138.51456680308559
 20
211.888183321041
 30
0.0
 40
2.5
  1
100
 41
1.3
  7
MX_DIMTXSTY_4
  0
POLYLINE
  5
4804
  8
SUNPO
  6
BYBLOCK
 66
     1
 10
0.0
 20
0.0
 30
0.0
 70
     1
 40
1.159999999999999
 41
1.159999999999999
  0
VERTEX
  5
512C
  8
SUNPO
  6
BYBLOCK
 10
91.909566803085795
 20
206.38818332104091
 30
0.0
 42
1.0
  0
VERTEX
  5
512D
  8
SUNPO
  6
BYBLOCK
 10
91.619566803085675
 20
206.38818332104091
 30
0.0
 42
1.0
  0
SEQEND
  5
512E
  8
SUNPO
  6
BYBLOCK
  0
POLYLINE
  5
4805
  8
SUNPO
  6
BYBLOCK
 66
     1
 10
0.0
 20
0.0
 30
0.0
 70
     1
 40
1.159999999999999
 41
1.159999999999999
  0
VERTEX
  5
512F
  8
SUNPO
  6
BYBLOCK
 10
99.619566803085689
 20
206.38818332104091
 30
0.0
 42
1.0
  0
VERTEX
  5
5130
  8
SUNPO
  6
BYBLOCK
 10
99.909566803085795
 20
206.38818332104091
 30
0.0
 42
1.0
  0
SEQEND
  5
5131
  8
SUNPO
  6
BYBLOCK
  0
TEXT
  5
4806
  8
SUNPO
  6
CONTINUOUS
 10
94.931233469752414
 20
206.888183321041
 30
0.0
 40
2.5
  1
8
  0
TEXT
  5
4807
  8
SUNPO
  6
CONTINUOUS
 10
99.931233469752414
 20
206.888183321041
 30
0.0
 40
2.5
  1
2
  0
POLYLINE
  5
4808
  8
SUNPO
  6
BYBLOCK
 66
     1
 10
0.0
 20
0.0
 30
0.0
 70
     1
 40
1.159999999999999
 41
1.159999999999999
  0
VERTEX
  5
5132
  8
SUNPO
  6
BYBLOCK
 10
199.76456680308559
 20
168.74318961938269
 30
0.0
 42
1.0
  0
VERTEX
  5
5133
  8
SUNPO
  6
BYBLOCK
 10
199.76456680308559
 20
169.03318961938271
 30
0.0
 42
1.0
  0
SEQEND
  5
5134
  8
SUNPO
  6
BYBLOCK
  0
POLYLINE
  5
4809
  8
SUNPO
  6
BYBLOCK
 66
     1
 10
0.0
 20
0.0
 30
0.0
 70
     1
 40
1.159999999999999
 41
1.159999999999999
  0
VERTEX
  5
5135
  8
SUNPO
  6
BYBLOCK
 10
199.76456680308559
 20
164.0331896193828
 30
0.0
 42
1.0
  0
VERTEX
  5
5136
  8
SUNPO
  6
BYBLOCK
 10
199.76456680308559
 20
163.74318961938269
 30
0.0
 42
1.0
  0
SEQEND
  5
5137
  8
SUNPO
  6
BYBLOCK
  0
TEXT
  5
480A
  8
SUNPO
  6
CONTINUOUS
 10
199.2645668030857
 20
165.55485628604939
 30
0.0
 40
2.5
  1
5
 50
90.0
  0
POLYLINE
  5
480B
  8
SUNPO
  6
BYBLOCK
 66
     1
 10
0.0
 20
0.0
 30
0.0
 70
     1
 40
1.159999999999999
 41
1.159999999999999
  0
VERTEX
  5
5138
  8
SUNPO
  6
BYBLOCK
 10
199.76456680308559
 20
163.74318961938269
 30
0.0
 42
1.0
  0
VERTEX
  5
5139
  8
SUNPO
  6
BYBLOCK
 10
199.76456680308559
 20
164.0331896193828
 30
0.0
 42
1.0
  0
SEQEND
  5
513A
  8
SUNPO
  6
BYBLOCK
  0
POLYLINE
  5
480C
  8
SUNPO
  6
BYBLOCK
 66
     1
 10
0.0
 20
0.0
 30
0.0
 70
     1
 40
1.159999999999999
 41
1.159999999999999
  0
VERTEX
  5
513B
  8
SUNPO
  6
BYBLOCK
 10
199.76456680308559
 20
147.5331896193828
 30
0.0
 42
1.0
  0
VERTEX
  5
513C
  8
SUNPO
  6
BYBLOCK
 10
199.76456680308559
 20
147.24318961938269
 30
0.0
 42
1.0
  0
SEQEND
  5
513D
  8
SUNPO
  6
BYBLOCK
  0
TEXT
  5
480D
  8
SUNPO
  6
CONTINUOUS
 10
199.2645668030857
 20
151.1381896193827
 30
0.0
 40
2.5
  1
16.5
 50
90.0
 41
1.3500000000000001
  7
MX_DIMTXSTY_5
  0
POLYLINE
  5
480E
  8
SUNPO
  6
BYBLOCK
 66
     1
 10
0.0
 20
0.0
 30
0.0
 70
     1
 40
1.159999999999999
 41
1.159999999999999
  0
VERTEX
  5
513E
  8
SUNPO
  6
BYBLOCK
 10
199.76456680308559
 20
147.5331896193828
 30
0.0
 42
1.0
  0
VERTEX
  5
513F
  8
SUNPO
  6
BYBLOCK
 10
199.76456680308559
 20
147.24318961938269
 30
0.0
 42
1.0
  0
SEQEND
  5
5140
  8
SUNPO
  6
BYBLOCK
  0
POLYLINE
  5
480F
  8
SUNPO
  6
BYBLOCK
 66
     1
 10
0.0
 20
0.0
 30
0.0
 70
     1
 40
1.159999999999999
 41
1.159999999999999
  0
VERTEX
  5
5141
  8
SUNPO
  6
BYBLOCK
 10
199.76456680308559
 20
142.74318961938269
 30
0.0
 42
1.0
  0
VERTEX
  5
5142
  8
SUNPO
  6
BYBLOCK
 10
199.76456680308559
 20
143.0331896193828
 30
0.0
 42
1.0
  0
SEQEND
  5
5143
  8
SUNPO
  6
BYBLOCK
  0
TEXT
  5
4810
  8
SUNPO
  6
CONTINUOUS
 10
199.2645668030857
 20
135.3420584853495
 30
0.0
 40
2.5
  1
4.5
 50
90.0
 41
1.3
  7
MX_DIMTXSTY_4
  0
POLYLINE
  5
4811
  8
SUNPO
  6
BYBLOCK
 66
     1
 10
0.0
 20
0.0
 30
0.0
 70
     1
 40
1.159999999999999
 41
1.159999999999999
  0
VERTEX
  5
5144
  8
SUNPO
  6
BYBLOCK
 10
83.764566803085685
 20
273.03318945646203
 30
0.0
 42
1.0
  0
VERTEX
  5
5145
  8
SUNPO
  6
BYBLOCK
 10
83.764566803085685
 20
272.74318945646212
 30
0.0
 42
1.0
  0
SEQEND
  5
5146
  8
SUNPO
  6
BYBLOCK
  0
POLYLINE
  5
4812
  8
SUNPO
  6
BYBLOCK
 66
     1
 10
0.0
 20
0.0
 30
0.0
 70
     1
 40
1.159999999999999
 41
1.159999999999999
  0
VERTEX
  5
5147
  8
SUNPO
  6
BYBLOCK
 10
83.764566803085685
 20
280.74318945646201
 30
0.0
 42
1.0
  0
VERTEX
  5
5148
  8
SUNPO
  6
BYBLOCK
 10
83.764566803085685
 20
281.03318945646203
 30
0.0
 42
1.0
  0
SEQEND
  5
5149
  8
SUNPO
  6
BYBLOCK
  0
TEXT
  5
4813
  8
SUNPO
  6
CONTINUOUS
 10
83.2645668030857
 20
276.05485612312879
 30
0.0
 40
2.5
  1
8
 50
90.0
  0
POLYLINE
  5
4814
  8
SUNPO
  6
BYBLOCK
 66
     1
 10
0.0
 20
0.0
 30
0.0
 70
     1
 40
1.159999999999999
 41
1.159999999999999
  0
VERTEX
  5
514A
  8
SUNPO
  6
BYBLOCK
 10
91.909566803085795
 20
330.8881894564621
 30
0.0
 42
1.0
  0
VERTEX
  5
514B
  8
SUNPO
  6
BYBLOCK
 10
91.619566803085675
 20
330.8881894564621
 30
0.0
 42
1.0
  0
SEQEND
  5
514C
  8
SUNPO
  6
BYBLOCK
  0
POLYLINE
  5
4815
  8
SUNPO
  6
BYBLOCK
 66
     1
 10
0.0
 20
0.0
 30
0.0
 70
     1
 40
1.159999999999999
 41
1.159999999999999
  0
VERTEX
  5
514D
  8
SUNPO
  6
BYBLOCK
 10
146.61956680308569
 20
330.8881894564621
 30
0.0
 42
1.0
  0
VERTEX
  5
514E
  8
SUNPO
  6
BYBLOCK
 10
146.9095668030856
 20
330.8881894564621
 30
0.0
 42
1.0
  0
SEQEND
  5
514F
  8
SUNPO
  6
BYBLOCK
  0
TEXT
  5
4816
  8
SUNPO
  6
CONTINUOUS
 10
117.1812334697524
 20
331.38818945646199
 30
0.0
 40
2.5
  1
55
  0
POLYLINE
  5
4817
  8
SUNPO
  6
BYBLOCK
 66
     1
 10
0.0
 20
0.0
 30
0.0
 70
     1
 40
1.159999999999999
 41
1.159999999999999
  0
VERTEX
  5
5150
  8
SUNPO
  6
BYBLOCK
 10
146.9095668030856
 20
330.8881894564621
 30
0.0
 42
1.0
  0
VERTEX
  5
5151
  8
SUNPO
  6
BYBLOCK
 10
146.61956680308569
 20
330.8881894564621
 30
0.0
 42
1.0
  0
SEQEND
  5
5152
  8
SUNPO
  6
BYBLOCK
  0
POLYLINE
  5
4818
  8
SUNPO
  6
BYBLOCK
 66
     1
 10
0.0
 20
0.0
 30
0.0
 70
     1
 40
1.159999999999999
 41
1.159999999999999
  0
VERTEX
  5
5153
  8
SUNPO
  6
BYBLOCK
 10
191.6195668030856
 20
330.8881894564621
 30
0.0
 42
1.0
  0
VERTEX
  5
5154
  8
SUNPO
  6
BYBLOCK
 10
191.9095668030856
 20
330.8881894564621
 30
0.0
 42
1.0
  0
SEQEND
  5
5155
  8
SUNPO
  6
BYBLOCK
  0
TEXT
  5
4819
  8
SUNPO
  6
CONTINUOUS
 10
167.1812334697523
 20
331.38818945646199
 30
0.0
 40
2.5
  1
45
  0
POLYLINE
  5
481A
  8
SUNPO
  6
BYBLOCK
 66
     1
 10
0.0
 20
0.0
 30
0.0
 70
     1
 40
1.159999999999999
 41
1.159999999999999
  0
VERTEX
  5
5156
  8
SUNPO
  6
BYBLOCK
 10
200.730374161969
 20
280.74318945646201
 30
0.0
 42
1.0
  0
VERTEX
  5
5157
  8
SUNPO
  6
BYBLOCK
 10
200.730374161969
 20
281.03318945646203
 30
0.0
 42
1.0
  0
SEQEND
  5
5158
  8
SUNPO
  6
BYBLOCK
  0
POLYLINE
  5
481B
  8
SUNPO
  6
BYBLOCK
 66
     1
 10
0.0
 20
0.0
 30
0.0
 70
     1
 40
1.159999999999999
 41
1.159999999999999
  0
VERTEX
  5
5159
  8
SUNPO
  6
BYBLOCK
 10
200.730374161969
 20
273.03318945646203
 30
0.0
 42
1.0
  0
VERTEX
  5
515A
  8
SUNPO
  6
BYBLOCK
 10
200.730374161969
 20
272.74318945646212
 30
0.0
 42
1.0
  0
SEQEND
  5
515B
  8
SUNPO
  6
BYBLOCK
  0
TEXT
  5
481C
  8
SUNPO
  6
CONTINUOUS
 10
200.230374161969
 20
276.05485612312879
 30
0.0
 40
2.5
  1
8
 50
90.0
  0
POLYLINE
  5
481D
  8
SUNPO
  6
BYBLOCK
 66
     1
 10
0.0
 20
0.0
 30
0.0
 70
     1
 40
1.159999999999999
 41
1.159999999999999
  0
VERTEX
  5
515C
  8
SUNPO
  6
BYBLOCK
 10
200.730374161969
 20
312.74318945646201
 30
0.0
 42
1.0
  0
VERTEX
  5
515D
  8
SUNPO
  6
BYBLOCK
 10
200.730374161969
 20
313.03318945646208
 30
0.0
 42
1.0
  0
SEQEND
  5
515E
  8
SUNPO
  6
BYBLOCK
  0
POLYLINE
  5
481E
  8
SUNPO
  6
BYBLOCK
 66
     1
 10
0.0
 20
0.0
 30
0.0
 70
     1
 40
1.159999999999999
 41
1.159999999999999
  0
VERTEX
  5
515F
  8
SUNPO
  6
BYBLOCK
 10
200.730374161969
 20
281.03318945646203
 30
0.0
 42
1.0
  0
VERTEX
  5
5160
  8
SUNPO
  6
BYBLOCK
 10
200.730374161969
 20
280.74318945646201
 30
0.0
 42
1.0
  0
SEQEND
  5
5161
  8
SUNPO
  6
BYBLOCK
  0
TEXT
  5
481F
  8
SUNPO
  6
CONTINUOUS
 10
200.230374161969
 20
294.80485612312867
 30
0.0
 40
2.5
  1
32
 50
90.0
  0
POLYLINE
  5
4820
  8
SUNPO
  6
BYBLOCK
 66
     1
 10
0.0
 20
0.0
 30
0.0
 70
     1
 40
1.159999999999999
 41
1.159999999999999
  0
VERTEX
  5
5162
  8
SUNPO
  6
BYBLOCK
 10
83.764566803085685
 20
281.03318945646203
 30
0.0
 42
1.0
  0
VERTEX
  5
5163
  8
SUNPO
  6
BYBLOCK
 10
83.764566803085685
 20
280.74318945646201
 30
0.0
 42
1.0
  0
SEQEND
  5
5164
  8
SUNPO
  6
BYBLOCK
  0
POLYLINE
  5
4821
  8
SUNPO
  6
BYBLOCK
 66
     1
 10
0.0
 20
0.0
 30
0.0
 70
     1
 40
1.159999999999999
 41
1.159999999999999
  0
VERTEX
  5
5165
  8
SUNPO
  6
BYBLOCK
 10
83.764566803085685
 20
307.74318945646201
 30
0.0
 42
1.0
  0
VERTEX
  5
5166
  8
SUNPO
  6
BYBLOCK
 10
83.764566803085685
 20
308.03318945646203
 30
0.0
 42
1.0
  0
SEQEND
  5
5167
  8
SUNPO
  6
BYBLOCK
  0
TEXT
  5
4822
  8
SUNPO
  6
CONTINUOUS
 10
83.2645668030857
 20
292.30485612312867
 30
0.0
 40
2.5
  1
27
 50
90.0
  0
POLYLINE
  5
4823
  8
SUNPO
  6
BYBLOCK
 66
     1
 10
0.0
 20
0.0
 30
0.0
 70
     1
 40
1.159999999999999
 41
1.159999999999999
  0
VERTEX
  5
5168
  8
SUNPO
  6
BYBLOCK
 10
207.76456680308559
 20
113.7431896193828
 30
0.0
 42
1.0
  0
VERTEX
  5
5169
  8
SUNPO
  6
BYBLOCK
 10
207.76456680308559
 20
114.0331896193827
 30
0.0
 42
1.0
  0
SEQEND
  5
516A
  8
SUNPO
  6
BYBLOCK
  0
POLYLINE
  5
4824
  8
SUNPO
  6
BYBLOCK
 66
     1
 10
0.0
 20
0.0
 30
0.0
 70
     1
 40
1.159999999999999
 41
1.159999999999999
  0
VERTEX
  5
516B
  8
SUNPO
  6
BYBLOCK
 10
207.76456680308559
 20
99.033189619382782
 30
0.0
 42
1.0
  0
VERTEX
  5
516C
  8
SUNPO
  6
BYBLOCK
 10
207.76456680308559
 20
98.743189619382875
 30
0.0
 42
1.0
  0
SEQEND
  5
516D
  8
SUNPO
  6
BYBLOCK
  0
TEXT
  5
4825
  8
SUNPO
  6
CONTINUOUS
 10
207.26456680308559
 20
104.3881896193827
 30
0.0
 40
2.5
  1
15
 50
90.0
 41
1.1999999999999991
  7
MX_DIMTXSTY_2
  0
POLYLINE
  5
4826
  8
SUNPO
  6
BYBLOCK
 66
     1
 10
0.0
 20
0.0
 30
0.0
 70
     1
 40
1.159999999999999
 41
1.159999999999999
  0
VERTEX
  5
516E
  8
SUNPO
  6
BYBLOCK
 10
207.76456680308559
 20
114.0331896193827
 30
0.0
 42
1.0
  0
VERTEX
  5
516F
  8
SUNPO
  6
BYBLOCK
 10
207.76456680308559
 20
113.7431896193828
 30
0.0
 42
1.0
  0
SEQEND
  5
5170
  8
SUNPO
  6
BYBLOCK
  0
TEXT
  5
4827
  8
SUNPO
  6
CONTINUOUS
 10
207.26456680308559
 20
139.30485628604939
 30
0.0
 40
2.5
  1
55
 50
90.0
  0
POLYLINE
  5
4828
  8
SUNPO
  6
BYBLOCK
 66
     1
 10
0.0
 20
0.0
 30
0.0
 70
     1
 40
1.159999999999999
 41
1.159999999999999
  0
VERTEX
  5
5171
  8
SUNPO
  6
BYBLOCK
 10
449.67694351114909
 20
166.4909318928143
 30
0.0
 42
1.0
  0
VERTEX
  5
5172
  8
SUNPO
  6
BYBLOCK
 10
449.67694351114909
 20
166.78093189281429
 30
0.0
 42
1.0
  0
SEQEND
  5
5173
  8
SUNPO
  6
BYBLOCK
  0
POLYLINE
  5
4829
  8
SUNPO
  6
BYBLOCK
 66
     1
 10
0.0
 20
0.0
 30
0.0
 70
     1
 40
1.159999999999999
 41
1.159999999999999
  0
VERTEX
  5
5174
  8
SUNPO
  6
BYBLOCK
 10
449.67694351114909
 20
121.78093189281429
 30
0.0
 42
1.0
  0
VERTEX
  5
5175
  8
SUNPO
  6
BYBLOCK
 10
449.67694351114909
 20
121.4909318928143
 30
0.0
 42
1.0
  0
SEQEND
  5
5176
  8
SUNPO
  6
BYBLOCK
  0
TEXT
  5
482A
  8
SUNPO
  6
CONTINUOUS
 10
449.17694351114909
 20
142.05259855948091
 30
0.0
 40
2.5
  1
45
 50
90.0
  0
POLYLINE
  5
482B
  8
SUNPO
  6
BYBLOCK
 66
     1
 10
0.0
 20
0.0
 30
0.0
 70
     1
 40
1.159999999999999
 41
1.159999999999999
  0
VERTEX
  5
5177
  8
SUNPO
  6
BYBLOCK
 10
449.67694351114909
 20
221.4909318928143
 30
0.0
 42
1.0
  0
VERTEX
  5
5178
  8
SUNPO
  6
BYBLOCK
 10
449.67694351114909
 20
221.78093189281421
 30
0.0
 42
1.0
  0
SEQEND
  5
5179
  8
SUNPO
  6
BYBLOCK
  0
TEXT
  5
482C
  8
SUNPO
  6
CONTINUOUS
 10
449.17694351114909
 20
192.05259855948091
 30
0.0
 40
2.5
  1
55
 50
90.0
  0
POLYLINE
  5
482D
  8
SUNPO
  6
BYBLOCK
 66
     1
 10
0.0
 20
0.0
 30
0.0
 70
     1
 40
1.159999999999999
 41
1.159999999999999
  0
VERTEX
  5
517A
  8
SUNPO
  6
BYBLOCK
 10
452.1195668030856
 20
97.635931892814355
 30
0.0
 42
1.0
  0
VERTEX
  5
517B
  8
SUNPO
  6
BYBLOCK
 10
452.40956680308568
 20
97.635931892814355
 30
0.0
 42
1.0
  0
SEQEND
  5
517C
  8
SUNPO
  6
BYBLOCK
  0
POLYLINE
  5
482E
  8
SUNPO
  6
BYBLOCK
 66
     1
 10
0.0
 20
0.0
 30
0.0
 70
     1
 40
1.159999999999999
 41
1.159999999999999
  0
VERTEX
  5
517D
  8
SUNPO
  6
BYBLOCK
 10
442.90956680308562
 20
97.635931892814355
 30
0.0
 42
1.0
  0
VERTEX
  5
517E
  8
SUNPO
  6
BYBLOCK
 10
442.61956680308572
 20
97.635931892814355
 30
0.0
 42
1.0
  0
SEQEND
  5
517F
  8
SUNPO
  6
BYBLOCK
  0
TEXT
  5
482F
  8
SUNPO
  6
CONTINUOUS
 10
444.2645668030857
 20
98.135931892814369
 30
0.0
 40
2.5
  1
9.5
 41
1.3
  7
MX_DIMTXSTY_4
  0
POLYLINE
  5
4830
  8
SUNPO
  6
BYBLOCK
 66
     1
 10
0.0
 20
0.0
 30
0.0
 70
     1
 40
1.159999999999999
 41
1.159999999999999
  0
VERTEX
  5
5180
  8
SUNPO
  6
BYBLOCK
 10
442.90956680308562
 20
237.63593189281431
 30
0.0
 42
1.0
  0
VERTEX
  5
5181
  8
SUNPO
  6
BYBLOCK
 10
442.61956680308572
 20
237.63593189281431
 30
0.0
 42
1.0
  0
SEQEND
  5
5182
  8
SUNPO
  6
BYBLOCK
  0
POLYLINE
  5
4831
  8
SUNPO
  6
BYBLOCK
 66
     1
 10
0.0
 20
0.0
 30
0.0
 70
     1
 40
1.159999999999999
 41
1.159999999999999
  0
VERTEX
  5
5183
  8
SUNPO
  6
BYBLOCK
 10
452.1195668030856
 20
237.63593189281431
 30
0.0
 42
1.0
  0
VERTEX
  5
5184
  8
SUNPO
  6
BYBLOCK
 10
452.40956680308568
 20
237.63593189281431
 30
0.0
 42
1.0
  0
SEQEND
  5
5185
  8
SUNPO
  6
BYBLOCK
  0
TEXT
  5
4832
  8
SUNPO
  6
CONTINUOUS
 10
444.2645668030857
 20
238.13593189281431
 30
0.0
 40
2.5
  1
9.5
 41
1.3
  7
MX_DIMTXSTY_4
  0
POLYLINE
  5
4833
  8
SUNPO
  6
BYBLOCK
 66
     1
 10
0.0
 20
0.0
 30
0.0
 70
     1
 40
1.159999999999999
 41
1.159999999999999
  0
VERTEX
  5
5186
  8
SUNPO
  6
BYBLOCK
 10
243.61956979240281
 20
105.6359318928143
 30
0.0
 42
1.0
  0
VERTEX
  5
5187
  8
SUNPO
  6
BYBLOCK
 10
243.90956979240281
 20
105.6359318928143
 30
0.0
 42
1.0
  0
SEQEND
  5
5188
  8
SUNPO
  6
BYBLOCK
  0
POLYLINE
  5
4834
  8
SUNPO
  6
BYBLOCK
 66
     1
 10
0.0
 20
0.0
 30
0.0
 70
     1
 40
1.159999999999999
 41
1.159999999999999
  0
VERTEX
  5
5189
  8
SUNPO
  6
BYBLOCK
 10
228.90956979240281
 20
105.6359318928143
 30
0.0
 42
1.0
  0
VERTEX
  5
518A
  8
SUNPO
  6
BYBLOCK
 10
228.61956979240281
 20
105.6359318928143
 30
0.0
 42
1.0
  0
SEQEND
  5
518B
  8
SUNPO
  6
BYBLOCK
  0
TEXT
  5
4835
  8
SUNPO
  6
CONTINUOUS
 10
234.2645697924028
 20
106.1359318928143
 30
0.0
 40
2.5
  1
15
 41
1.1999999999999991
  7
MX_DIMTXSTY_2
  0
POLYLINE
  5
4836
  8
SUNPO
  6
BYBLOCK
 66
     1
 10
0.0
 20
0.0
 30
0.0
 70
     1
 40
1.159999999999999
 41
1.159999999999999
  0
VERTEX
  5
518C
  8
SUNPO
  6
BYBLOCK
 10
258.61956979240267
 20
105.6359318928143
 30
0.0
 42
1.0
  0
VERTEX
  5
518D
  8
SUNPO
  6
BYBLOCK
 10
258.90956979240281
 20
105.6359318928143
 30
0.0
 42
1.0
  0
SEQEND
  5
518E
  8
SUNPO
  6
BYBLOCK
  0
POLYLINE
  5
4837
  8
SUNPO
  6
BYBLOCK
 66
     1
 10
0.0
 20
0.0
 30
0.0
 70
     1
 40
1.159999999999999
 41
1.159999999999999
  0
VERTEX
  5
518F
  8
SUNPO
  6
BYBLOCK
 10
243.90956979240281
 20
105.6359318928143
 30
0.0
 42
1.0
  0
VERTEX
  5
5190
  8
SUNPO
  6
BYBLOCK
 10
243.61956979240281
 20
105.6359318928143
 30
0.0
 42
1.0
  0
SEQEND
  5
5191
  8
SUNPO
  6
BYBLOCK
  0
TEXT
  5
4838
  8
SUNPO
  6
CONTINUOUS
 10
249.2645697924028
 20
106.1359318928143
 30
0.0
 40
2.5
  1
15
 41
1.1999999999999991
  7
MX_DIMTXSTY_2
  0
POLYLINE
  5
4839
  8
SUNPO
  6
BYBLOCK
 66
     1
 10
0.0
 20
0.0
 30
0.0
 70
     1
 40
1.159999999999999
 41
1.159999999999999
  0
VERTEX
  5
5192
  8
SUNPO
  6
BYBLOCK
 10
442.61956680308572
 20
105.6359318928143
 30
0.0
 42
1.0
  0
VERTEX
  5
5193
  8
SUNPO
  6
BYBLOCK
 10
442.90956680308562
 20
105.6359318928143
 30
0.0
 42
1.0
  0
SEQEND
  5
5194
  8
SUNPO
  6
BYBLOCK
  0
POLYLINE
  5
483A
  8
SUNPO
  6
BYBLOCK
 66
     1
 10
0.0
 20
0.0
 30
0.0
 70
     1
 40
1.159999999999999
 41
1.159999999999999
  0
VERTEX
  5
5195
  8
SUNPO
  6
BYBLOCK
 10
427.90956680308568
 20
105.6359318928143
 30
0.0
 42
1.0
  0
VERTEX
  5
5196
  8
SUNPO
  6
BYBLOCK
 10
427.61956680308549
 20
105.6359318928143
 30
0.0
 42
1.0
  0
SEQEND
  5
5197
  8
SUNPO
  6
BYBLOCK
  0
TEXT
  5
483B
  8
SUNPO
  6
CONTINUOUS
 10
433.26456680308547
 20
106.1359318928143
 30
0.0
 40
2.5
  1
15
 41
1.1999999999999991
  7
MX_DIMTXSTY_2
  0
POLYLINE
  5
483C
  8
SUNPO
  6
BYBLOCK
 66
     1
 10
0.0
 20
0.0
 30
0.0
 70
     1
 40
1.159999999999999
 41
1.159999999999999
  0
VERTEX
  5
5198
  8
SUNPO
  6
BYBLOCK
 10
427.61956680308549
 20
105.6359318928143
 30
0.0
 42
1.0
  0
VERTEX
  5
5199
  8
SUNPO
  6
BYBLOCK
 10
427.90956680308568
 20
105.6359318928143
 30
0.0
 42
1.0
  0
SEQEND
  5
519A
  8
SUNPO
  6
BYBLOCK
  0
POLYLINE
  5
483D
  8
SUNPO
  6
BYBLOCK
 66
     1
 10
0.0
 20
0.0
 30
0.0
 70
     1
 40
1.159999999999999
 41
1.159999999999999
  0
VERTEX
  5
519B
  8
SUNPO
  6
BYBLOCK
 10
412.90956680308551
 20
105.6359318928143
 30
0.0
 42
1.0
  0
VERTEX
  5
519C
  8
SUNPO
  6
BYBLOCK
 10
412.6195668030856
 20
105.6359318928143
 30
0.0
 42
1.0
  0
SEQEND
  5
519D
  8
SUNPO
  6
BYBLOCK
  0
TEXT
  5
483E
  8
SUNPO
  6
CONTINUOUS
 10
418.2645668030857
 20
106.1359318928143
 30
0.0
 40
2.5
  1
15
 41
1.1999999999999991
  7
MX_DIMTXSTY_2
  0
POLYLINE
  5
483F
  8
SUNPO
  6
BYBLOCK
 66
     1
 10
0.0
 20
0.0
 30
0.0
 70
     1
 40
1.159999999999999
 41
1.159999999999999
  0
VERTEX
  5
519E
  8
SUNPO
  6
BYBLOCK
 10
384.76456888313908
 20
213.78093189281421
 30
0.0
 42
1.0
  0
VERTEX
  5
519F
  8
SUNPO
  6
BYBLOCK
 10
384.76456888313908
 20
213.49093189281419
 30
0.0
 42
1.0
  0
SEQEND
  5
51A0
  8
SUNPO
  6
BYBLOCK
  0
POLYLINE
  5
4840
  8
SUNPO
  6
BYBLOCK
 66
     1
 10
0.0
 20
0.0
 30
0.0
 70
     1
 40
1.159999999999999
 41
1.159999999999999
  0
VERTEX
  5
51A1
  8
SUNPO
  6
BYBLOCK
 10
384.76456888313908
 20
221.4909318928143
 30
0.0
 42
1.0
  0
VERTEX
  5
51A2
  8
SUNPO
  6
BYBLOCK
 10
384.76456888313908
 20
221.78093189281421
 30
0.0
 42
1.0
  0
SEQEND
  5
51A3
  8
SUNPO
  6
BYBLOCK
  0
TEXT
  5
4841
  8
SUNPO
  6
CONTINUOUS
 10
384.26456888313919
 20
216.80259855948091
 30
0.0
 40
2.5
  1
8
 50
90.0
  0
POLYLINE
  5
4842
  8
SUNPO
  6
BYBLOCK
 66
     1
 10
0.0
 20
0.0
 30
0.0
 70
     1
 40
1.159999999999999
 41
1.159999999999999
  0
VERTEX
  5
51A4
  8
SUNPO
  6
BYBLOCK
 10
384.76456888313908
 20
121.78093189281429
 30
0.0
 42
1.0
  0
VERTEX
  5
51A5
  8
SUNPO
  6
BYBLOCK
 10
384.76456888313908
 20
121.4909318928143
 30
0.0
 42
1.0
  0
SEQEND
  5
51A6
  8
SUNPO
  6
BYBLOCK
  0
POLYLINE
  5
4843
  8
SUNPO
  6
BYBLOCK
 66
     1
 10
0.0
 20
0.0
 30
0.0
 70
     1
 40
1.159999999999999
 41
1.159999999999999
  0
VERTEX
  5
51A7
  8
SUNPO
  6
BYBLOCK
 10
384.76456888313908
 20
126.4909318928143
 30
0.0
 42
1.0
  0
VERTEX
  5
51A8
  8
SUNPO
  6
BYBLOCK
 10
384.76456888313908
 20
126.78093189281429
 30
0.0
 42
1.0
  0
SEQEND
  5
51A9
  8
SUNPO
  6
BYBLOCK
  0
TEXT
  5
4844
  8
SUNPO
  6
CONTINUOUS
 10
384.26456888313919
 20
123.3025985594809
 30
0.0
 40
2.5
  1
5
 50
90.0
  0
POLYLINE
  5
4845
  8
SUNPO
  6
BYBLOCK
 66
     1
 10
0.0
 20
0.0
 30
0.0
 70
     1
 40
1.159999999999999
 41
1.159999999999999
  0
VERTEX
  5
51AA
  8
SUNPO
  6
BYBLOCK
 10
219.40956979240281
 20
237.63593189281431
 30
0.0
 42
1.0
  0
VERTEX
  5
51AB
  8
SUNPO
  6
BYBLOCK
 10
219.11956979240281
 20
237.63593189281431
 30
0.0
 42
1.0
  0
SEQEND
  5
51AC
  8
SUNPO
  6
BYBLOCK
  0
POLYLINE
  5
4846
  8
SUNPO
  6
BYBLOCK
 66
     1
 10
0.0
 20
0.0
 30
0.0
 70
     1
 40
1.159999999999999
 41
1.159999999999999
  0
VERTEX
  5
51AD
  8
SUNPO
  6
BYBLOCK
 10
228.61956979240281
 20
237.63593189281431
 30
0.0
 42
1.0
  0
VERTEX
  5
51AE
  8
SUNPO
  6
BYBLOCK
 10
228.90956979240281
 20
237.63593189281431
 30
0.0
 42
1.0
  0
SEQEND
  5
51AF
  8
SUNPO
  6
BYBLOCK
  0
TEXT
  5
4847
  8
SUNPO
  6
CONTINUOUS
 10
220.7645697924028
 20
238.13593189281431
 30
0.0
 40
2.5
  1
9.5
 41
1.3
  7
MX_DIMTXSTY_4
  0
POLYLINE
  5
4848
  8
SUNPO
  6
BYBLOCK
 66
     1
 10
0.0
 20
0.0
 30
0.0
 70
     1
 40
1.159999999999999
 41
1.159999999999999
  0
VERTEX
  5
51B0
  8
SUNPO
  6
BYBLOCK
 10
228.61956979240281
 20
97.635931892814355
 30
0.0
 42
1.0
  0
VERTEX
  5
51B1
  8
SUNPO
  6
BYBLOCK
 10
228.90956979240281
 20
97.635931892814355
 30
0.0
 42
1.0
  0
SEQEND
  5
51B2
  8
SUNPO
  6
BYBLOCK
  0
POLYLINE
  5
4849
  8
SUNPO
  6
BYBLOCK
 66
     1
 10
0.0
 20
0.0
 30
0.0
 70
     1
 40
1.159999999999999
 41
1.159999999999999
  0
VERTEX
  5
51B3
  8
SUNPO
  6
BYBLOCK
 10
219.40956979240281
 20
97.635931892814355
 30
0.0
 42
1.0
  0
VERTEX
  5
51B4
  8
SUNPO
  6
BYBLOCK
 10
219.11956979240281
 20
97.635931892814355
 30
0.0
 42
1.0
  0
SEQEND
  5
51B5
  8
SUNPO
  6
BYBLOCK
  0
TEXT
  5
484A
  8
SUNPO
  6
CONTINUOUS
 10
220.7645697924028
 20
98.135931892814369
 30
0.0
 40
2.5
  1
9.5
 41
1.3
  7
MX_DIMTXSTY_4
  0
POLYLINE
  5
484B
  8
SUNPO
  6
BYBLOCK
 66
     1
 10
0.0
 20
0.0
 30
0.0
 70
     1
 40
1.159999999999999
 41
1.159999999999999
  0
VERTEX
  5
51B6
  8
SUNPO
  6
BYBLOCK
 10
384.76456888313908
 20
205.78093189281421
 30
0.0
 42
1.0
  0
VERTEX
  5
51B7
  8
SUNPO
  6
BYBLOCK
 10
384.76456888313908
 20
205.4909318928143
 30
0.0
 42
1.0
  0
SEQEND
  5
51B8
  8
SUNPO
  6
BYBLOCK
  0
POLYLINE
  5
484C
  8
SUNPO
  6
BYBLOCK
 66
     1
 10
0.0
 20
0.0
 30
0.0
 70
     1
 40
1.159999999999999
 41
1.159999999999999
  0
VERTEX
  5
51B9
  8
SUNPO
  6
BYBLOCK
 10
384.76456888313908
 20
213.49093189281419
 30
0.0
 42
1.0
  0
VERTEX
  5
51BA
  8
SUNPO
  6
BYBLOCK
 10
384.76456888313908
 20
213.78093189281421
 30
0.0
 42
1.0
  0
SEQEND
  5
51BB
  8
SUNPO
  6
BYBLOCK
  0
TEXT
  5
484D
  8
SUNPO
  6
CONTINUOUS
 10
384.26456888313919
 20
208.802598559481
 30
0.0
 40
2.5
  1
8
 50
90.0
  0
POLYLINE
  5
484E
  8
SUNPO
  6
BYBLOCK
 66
     1
 10
0.0
 20
0.0
 30
0.0
 70
     1
 40
1.159999999999999
 41
1.159999999999999
  0
VERTEX
  5
51BC
  8
SUNPO
  6
BYBLOCK
 10
379.76456888313919
 20
221.4909318928143
 30
0.0
 42
1.0
  0
VERTEX
  5
51BD
  8
SUNPO
  6
BYBLOCK
 10
379.76456888313919
 20
221.78093189281421
 30
0.0
 42
1.0
  0
SEQEND
  5
51BE
  8
SUNPO
  6
BYBLOCK
  0
POLYLINE
  5
484F
  8
SUNPO
  6
BYBLOCK
 66
     1
 10
0.0
 20
0.0
 30
0.0
 70
     1
 40
1.159999999999999
 41
1.159999999999999
  0
VERTEX
  5
51BF
  8
SUNPO
  6
BYBLOCK
 10
379.76456888313919
 20
213.78093189281421
 30
0.0
 42
1.0
  0
VERTEX
  5
51C0
  8
SUNPO
  6
BYBLOCK
 10
379.76456888313919
 20
213.49093189281419
 30
0.0
 42
1.0
  0
SEQEND
  5
51C1
  8
SUNPO
  6
BYBLOCK
  0
TEXT
  5
4850
  8
SUNPO
  6
CONTINUOUS
 10
379.26456888313919
 20
216.80259855948091
 30
0.0
 40
2.5
  1
8
 50
90.0
  0
LINE
  5
4851
  8
DANMEN
  6
CONTINUOUS
 10
434.0929939278318
 20
140.13593189281431
 30
0.0
 11
435.61655496947719
 21
141.65949293445959
 31
0.0
  0
LINE
  5
4852
  8
DANMEN
  6
CONTINUOUS
 10
435.67878036545869
 20
143.1359318928142
 30
0.0
 11
435.7645668030857
 21
143.22171833044121
 31
0.0
  0
LINE
  5
4853
  8
DANMEN
  6
CONTINUOUS
 10
432.67878036545881
 20
140.13593189281431
 30
0.0
 11
434.83579248357461
 21
142.2929440109302
 31
0.0
  0
LINE
  5
4854
  8
DANMEN
  6
CONTINUOUS
 10
431.2645668030857
 20
140.13593189281431
 30
0.0
 11
435.7645668030857
 21
144.63593189281431
 31
0.0
  0
LINE
  5
4855
  8
DANMEN
  6
CONTINUOUS
 10
429.85035324071242
 20
140.13593189281431
 30
0.0
 11
435.7645668030857
 21
146.05014545518739
 31
0.0
  0
LINE
  5
4856
  8
DANMEN
  6
CONTINUOUS
 10
429.26456680308559
 20
140.9643590175605
 30
0.0
 11
435.7645668030857
 21
147.4643590175605
 31
0.0
  0
LINE
  5
4857
  8
DANMEN
  6
CONTINUOUS
 10
430.02192611596632
 20
143.13593189281431
 30
0.0
 11
435.7645668030857
 21
148.8785725799336
 31
0.0
  0
LINE
  5
4858
  8
DANMEN
  6
CONTINUOUS
 10
428.60771255359322
 20
143.13593189281431
 30
0.0
 11
434.7645668030857
 21
149.29278614230671
 31
0.0
  0
LINE
  5
4859
  8
DANMEN
  6
CONTINUOUS
 10
427.76456680308559
 20
143.7069997046797
 30
0.0
 11
435.76010992306482
 21
151.70254282465899
 31
0.0
  0
LINE
  5
485A
  8
DANMEN
  6
CONTINUOUS
 10
427.76456680308559
 20
145.12121326705281
 30
0.0
 11
434.779285428847
 21
152.13593189281431
 31
0.0
  0
LINE
  5
485B
  8
DANMEN
  6
CONTINUOUS
 10
427.76456680308559
 20
146.53542682942589
 30
0.0
 11
433.36507186647401
 21
152.13593189281431
 31
0.0
  0
LINE
  5
485C
  8
DANMEN
  6
CONTINUOUS
 10
429.98528903085651
 20
150.17036261956989
 30
0.0
 11
431.9508583041009
 21
152.13593189281431
 31
0.0
  0
LINE
  5
485D
  8
DANMEN
  6
CONTINUOUS
 10
427.76456680308559
 20
147.94964039179899
 30
0.0
 11
428.95085830410079
 21
149.13593189281431
 31
0.0
  0
LINE
  5
485E
  8
DANMEN
  6
CONTINUOUS
 10
429.29436129354752
 20
150.8936484446341
 30
0.0
 11
430.53664474172768
 21
152.13593189281431
 31
0.0
  0
LINE
  5
485F
  8
DANMEN
  6
CONTINUOUS
 10
242.2347753019408
 20
150.8936484446341
 30
0.0
 11
240.9924918537607
 21
152.13593189281431
 31
0.0
  0
LINE
  5
4860
  8
DANMEN
  6
CONTINUOUS
 10
241.5438475646319
 20
150.17036261956989
 30
0.0
 11
239.57827829138759
 21
152.13593189281431
 31
0.0
  0
LINE
  5
4861
  8
DANMEN
  6
CONTINUOUS
 10
243.7645697924028
 20
147.94964039179899
 30
0.0
 11
242.57827829138751
 21
149.13593189281431
 31
0.0
  0
LINE
  5
4862
  8
DANMEN
  6
CONTINUOUS
 10
243.7645697924028
 20
146.53542682942589
 30
0.0
 11
238.16406472901451
 21
152.13593189281431
 31
0.0
  0
LINE
  5
4863
  8
DANMEN
  6
CONTINUOUS
 10
243.7645697924028
 20
145.12121326705281
 30
0.0
 11
236.74985116664141
 21
152.13593189281431
 31
0.0
  0
LINE
  5
4864
  8
DANMEN
  6
CONTINUOUS
 10
243.7645697924028
 20
143.7069997046797
 30
0.0
 11
235.76902667242351
 21
151.70254282465899
 31
0.0
  0
LINE
  5
4865
  8
DANMEN
  6
CONTINUOUS
 10
242.92142404189511
 20
143.13593189281431
 30
0.0
 11
236.7645697924028
 21
149.2927861423066
 31
0.0
  0
LINE
  5
4866
  8
DANMEN
  6
CONTINUOUS
 10
241.50721047952209
 20
143.13593189281431
 30
0.0
 11
235.7645697924028
 21
148.8785725799336
 31
0.0
  0
LINE
  5
4867
  8
DANMEN
  6
CONTINUOUS
 10
242.2645697924028
 20
140.9643590175605
 30
0.0
 11
235.7645697924028
 21
147.46435901756041
 31
0.0
  0
LINE
  5
4868
  8
DANMEN
  6
CONTINUOUS
 10
241.6787833547759
 20
140.13593189281431
 30
0.0
 11
235.7645697924028
 21
146.05014545518739
 31
0.0
  0
LINE
  5
4869
  8
DANMEN
  6
CONTINUOUS
 10
240.2645697924028
 20
140.13593189281431
 30
0.0
 11
235.7645697924028
 21
144.63593189281431
 31
0.0
  0
LINE
  5
486A
  8
DANMEN
  6
CONTINUOUS
 10
235.85035623002969
 20
143.13593189281431
 30
0.0
 11
235.7645697924028
 21
143.22171833044121
 31
0.0
  0
LINE
  5
486B
  8
DANMEN
  6
CONTINUOUS
 10
238.85035623002969
 20
140.13593189281431
 30
0.0
 11
236.69334411191369
 21
142.2929440109302
 31
0.0
  0
LINE
  5
486C
  8
DANMEN
  6
CONTINUOUS
 10
237.43614266765661
 20
140.13593189281431
 30
0.0
 11
235.91258162601119
 21
141.65949293445959
 31
0.0
  0
LINE
  5
486D
  8
DANMEN
  6
CONTINUOUS
 10
345.70316847775678
 20
140.13593189281431
 30
0.0
 11
346.76278938895967
 21
141.1955528040171
 31
0.0
  0
LINE
  5
486E
  8
DANMEN
  6
CONTINUOUS
 10
347.28895491538373
 20
143.13593189281431
 30
0.0
 11
348.26456829774418
 21
144.11154527517479
 31
0.0
  0
LINE
  5
486F
  8
DANMEN
  6
CONTINUOUS
 10
344.28895491538378
 20
140.13593189281431
 30
0.0
 11
346.1926805037503
 21
142.03965748118091
 31
0.0
  0
LINE
  5
4870
  8
DANMEN
  6
CONTINUOUS
 10
345.87474135301062
 20
143.13593189281431
 30
0.0
 11
348.26456829774418
 21
145.5257588375479
 31
0.0
  0
LINE
  5
4871
  8
DANMEN
  6
CONTINUOUS
 10
342.87474135301068
 20
140.13593189281431
 30
0.0
 11
345.76456829774418
 21
143.0257588375479
 31
0.0
  0
LINE
  5
4872
  8
DANMEN
  6
CONTINUOUS
 10
341.46052779063751
 20
140.13593189281431
 30
0.0
 11
348.26456829774418
 21
146.939972399921
 31
0.0
  0
LINE
  5
4873
  8
DANMEN
  6
CONTINUOUS
 10
340.46456829774422
 20
140.5541859622941
 30
0.0
 11
348.26456829774418
 21
148.35418596229411
 31
0.0
  0
LINE
  5
4874
  8
DANMEN
  6
CONTINUOUS
 10
340.46456829774422
 20
141.96839952466709
 30
0.0
 11
347.6321006658913
 21
149.13593189281431
 31
0.0
  0
LINE
  5
4875
  8
DANMEN
  6
CONTINUOUS
 10
340.46456829774422
 20
143.3826130870402
 30
0.0
 11
346.21788710351819
 21
149.13593189281431
 31
0.0
  0
LINE
  5
4876
  8
DANMEN
  6
CONTINUOUS
 10
340.46456829774422
 20
144.7968266494133
 30
0.0
 11
346.7637719105665
 21
151.0960302622357
 31
0.0
  0
LINE
  5
4877
  8
DANMEN
  6
CONTINUOUS
 10
340.46456829774422
 20
146.21104021178641
 30
0.0
 11
346.37671972255617
 21
152.12319163659851
 31
0.0
  0
LINE
  5
4878
  8
DANMEN
  6
CONTINUOUS
 10
340.46456829774422
 20
147.62525377415949
 30
0.0
 11
344.97524641639899
 21
152.13593189281431
 31
0.0
  0
LINE
  5
4879
  8
DANMEN
  6
CONTINUOUS
 10
340.46456829774422
 20
149.0394673365326
 30
0.0
 11
343.56103285402588
 21
152.13593189281431
 31
0.0
  0
LINE
  5
487A
  8
DANMEN
  6
CONTINUOUS
 10
340.46456829774422
 20
150.4536808989057
 30
0.0
 11
342.14681929165278
 21
152.13593189281431
 31
0.0
  0
LINE
  5
487B
  8
DANMEN
  6
CONTINUOUS
 10
340.46456829774422
 20
151.86789446127881
 30
0.0
 11
340.73260572927973
 21
152.13593189281431
 31
0.0
  0
LINE
  5
487C
  8
DANMEN
  6
CONTINUOUS
 10
330.14681929165272
 20
140.13593189281431
 30
0.0
 11
331.25833137570152
 21
141.247443976863
 31
0.0
  0
LINE
  5
487D
  8
DANMEN
  6
CONTINUOUS
 10
328.73260572927961
 20
140.13593189281431
 30
0.0
 11
330.6537617661071
 21
142.05708792964171
 31
0.0
  0
LINE
  5
487E
  8
DANMEN
  6
CONTINUOUS
 10
330.31839216690662
 20
143.13593189281431
 30
0.0
 11
331.06456829774419
 21
143.88210802365191
 31
0.0
  0
LINE
  5
487F
  8
DANMEN
  6
CONTINUOUS
 10
327.31839216690662
 20
140.13593189281431
 30
0.0
 11
330.26456829774429
 21
143.0821080236519
 31
0.0
  0
LINE
  5
4880
  8
DANMEN
  6
CONTINUOUS
 10
325.90417860453351
 20
140.13593189281431
 30
0.0
 11
331.06456829774419
 21
145.29632158602499
 31
0.0
  0
LINE
  5
4881
  8
DANMEN
  6
CONTINUOUS
 10
324.80146264449269
 20
140.44742949514659
 30
0.0
 11
331.06456829774419
 21
146.71053514839809
 31
0.0
  0
LINE
  5
4882
  8
DANMEN
  6
CONTINUOUS
 10
325.76456829774429
 20
142.82474871077119
 30
0.0
 11
331.06456829774419
 21
148.1247487107712
 31
0.0
  0
LINE
  5
4883
  8
DANMEN
  6
CONTINUOUS
 10
324.66153791741419
 20
143.13593189281431
 30
0.0
 11
330.66153791741419
 21
149.13593189281431
 31
0.0
  0
LINE
  5
4884
  8
DANMEN
  6
CONTINUOUS
 10
323.26456829774418
 20
143.1531758355174
 30
0.0
 11
331.26456829774418
 21
151.1531758355174
 31
0.0
  0
LINE
  5
4885
  8
DANMEN
  6
CONTINUOUS
 10
323.26456829774418
 20
144.56738939789051
 30
0.0
 11
330.82894864061058
 21
152.13176974075691
 31
0.0
  0
LINE
  5
4886
  8
DANMEN
  6
CONTINUOUS
 10
323.26456829774418
 20
145.98160296026359
 30
0.0
 11
329.41889723029487
 21
152.13593189281431
 31
0.0
  0
LINE
  5
4887
  8
DANMEN
  6
CONTINUOUS
 10
325.74128185544299
 20
149.87253008033539
 30
0.0
 11
328.00468366792182
 21
152.13593189281431
 31
0.0
  0
LINE
  5
4888
  8
DANMEN
  6
CONTINUOUS
 10
323.26456829774418
 20
147.39581652263669
 30
0.0
 11
325.00468366792182
 21
149.13593189281431
 31
0.0
  0
LINE
  5
4889
  8
DANMEN
  6
CONTINUOUS
 10
324.97579101005908
 20
150.52125279732459
 30
0.0
 11
326.59047010554872
 21
152.13593189281431
 31
0.0
  0
LINE
  5
488A
  8
DANMEN
  6
CONTINUOUS
 10
323.26456829774418
 20
148.8100300850098
 30
0.0
 11
323.59047010554872
 21
149.13593189281431
 31
0.0
  0
LINE
  5
488B
  8
DANMEN
  6
CONTINUOUS
 10
324.77426879996949
 20
151.73394414960811
 30
0.0
 11
325.16655604095041
 21
152.126231390589
 31
0.0
  0
POLYLINE
  5
488C
  8
SUNPO
  6
BYBLOCK
 66
     1
 10
0.0
 20
0.0
 30
0.0
 70
     1
 40
1.159999999999999
 41
1.159999999999999
  0
VERTEX
  5
51C2
  8
SUNPO
  6
BYBLOCK
 10
388.90956680308562
 20
237.63593189281431
 30
0.0
 42
1.0
  0
VERTEX
  5
51C3
  8
SUNPO
  6
BYBLOCK
 10
388.6195668030856
 20
237.63593189281431
 30
0.0
 42
1.0
  0
SEQEND
  5
51C4
  8
SUNPO
  6
BYBLOCK
  0
POLYLINE
  5
488D
  8
SUNPO
  6
BYBLOCK
 66
     1
 10
0.0
 20
0.0
 30
0.0
 70
     1
 40
1.159999999999999
 41
1.159999999999999
  0
VERTEX
  5
51C5
  8
SUNPO
  6
BYBLOCK
 10
412.6195668030856
 20
237.63593189281431
 30
0.0
 42
1.0
  0
VERTEX
  5
51C6
  8
SUNPO
  6
BYBLOCK
 10
412.90956680308551
 20
237.63593189281431
 30
0.0
 42
1.0
  0
SEQEND
  5
51C7
  8
SUNPO
  6
BYBLOCK
  0
TEXT
  5
488E
  8
SUNPO
  6
CONTINUOUS
 10
398.68123346975233
 20
238.13593189281431
 30
0.0
 40
2.5
  1
24
  0
POLYLINE
  5
488F
  8
SUNPO
  6
BYBLOCK
 66
     1
 10
0.0
 20
0.0
 30
0.0
 70
     1
 40
1.159999999999999
 41
1.159999999999999
  0
VERTEX
  5
51C8
  8
SUNPO
  6
BYBLOCK
 10
412.90956680308551
 20
237.63593189281431
 30
0.0
 42
1.0
  0
VERTEX
  5
51C9
  8
SUNPO
  6
BYBLOCK
 10
412.6195668030856
 20
237.63593189281431
 30
0.0
 42
1.0
  0
SEQEND
  5
51CA
  8
SUNPO
  6
BYBLOCK
  0
POLYLINE
  5
4890
  8
SUNPO
  6
BYBLOCK
 66
     1
 10
0.0
 20
0.0
 30
0.0
 70
     1
 40
1.159999999999999
 41
1.159999999999999
  0
VERTEX
  5
51CB
  8
SUNPO
  6
BYBLOCK
 10
442.61956680308572
 20
237.63593189281431
 30
0.0
 42
1.0
  0
VERTEX
  5
51CC
  8
SUNPO
  6
BYBLOCK
 10
442.90956680308562
 20
237.63593189281431
 30
0.0
 42
1.0
  0
SEQEND
  5
51CD
  8
SUNPO
  6
BYBLOCK
  0
TEXT
  5
4891
  8
SUNPO
  6
CONTINUOUS
 10
425.7020668030857
 20
238.13593189281431
 30
0.0
 40
2.5
  1
30
 41
1.1000000000000001
  7
MX_DIMTXSTY_3
  0
POLYLINE
  5
4892
  8
SUNPO
  6
BYBLOCK
 66
     1
 10
0.0
 20
0.0
 30
0.0
 70
     1
 40
1.159999999999999
 41
1.159999999999999
  0
VERTEX
  5
51CE
  8
SUNPO
  6
BYBLOCK
 10
412.6195668030856
 20
105.6359318928143
 30
0.0
 42
1.0
  0
VERTEX
  5
51CF
  8
SUNPO
  6
BYBLOCK
 10
412.90956680308551
 20
105.6359318928143
 30
0.0
 42
1.0
  0
SEQEND
  5
51D0
  8
SUNPO
  6
BYBLOCK
  0
POLYLINE
  5
4893
  8
SUNPO
  6
BYBLOCK
 66
     1
 10
0.0
 20
0.0
 30
0.0
 70
     1
 40
1.159999999999999
 41
1.159999999999999
  0
VERTEX
  5
51D1
  8
SUNPO
  6
BYBLOCK
 10
388.90956946865452
 20
105.6359318928143
 30
0.0
 42
1.0
  0
VERTEX
  5
51D2
  8
SUNPO
  6
BYBLOCK
 10
388.6195694686545
 20
105.6359318928143
 30
0.0
 42
1.0
  0
SEQEND
  5
51D3
  8
SUNPO
  6
BYBLOCK
  0
TEXT
  5
4894
  8
SUNPO
  6
CONTINUOUS
 10
398.68123442342659
 20
106.1359318928143
 30
0.0
 40
2.5
  1
24
  0
POLYLINE
  5
4895
  8
SUNPO
  6
BYBLOCK
 66
     1
 10
0.0
 20
0.0
 30
0.0
 70
     1
 40
1.159999999999999
 41
1.159999999999999
  0
VERTEX
  5
51D4
  8
SUNPO
  6
BYBLOCK
 10
442.61956680308572
 20
97.635931892814355
 30
0.0
 42
1.0
  0
VERTEX
  5
51D5
  8
SUNPO
  6
BYBLOCK
 10
442.90956680308562
 20
97.635931892814355
 30
0.0
 42
1.0
  0
SEQEND
  5
51D6
  8
SUNPO
  6
BYBLOCK
  0
TEXT
  5
4896
  8
SUNPO
  6
CONTINUOUS
 10
425.7020668030857
 20
98.135931892814369
 30
0.0
 40
2.5
  1
30
 41
1.1000000000000001
  7
MX_DIMTXSTY_3
  0
POLYLINE
  5
4897
  8
SUNPO
  6
BYBLOCK
 66
     1
 10
0.0
 20
0.0
 30
0.0
 70
     1
 40
1.159999999999999
 41
1.159999999999999
  0
VERTEX
  5
51D7
  8
SUNPO
  6
BYBLOCK
 10
295.90956829774422
 20
237.63593189281431
 30
0.0
 42
1.0
  0
VERTEX
  5
51D8
  8
SUNPO
  6
BYBLOCK
 10
295.61956829774419
 20
237.63593189281431
 30
0.0
 42
1.0
  0
SEQEND
  5
51D9
  8
SUNPO
  6
BYBLOCK
  0
POLYLINE
  5
4898
  8
SUNPO
  6
BYBLOCK
 66
     1
 10
0.0
 20
0.0
 30
0.0
 70
     1
 40
1.159999999999999
 41
1.159999999999999
  0
VERTEX
  5
51DA
  8
SUNPO
  6
BYBLOCK
 10
375.61956829774419
 20
237.63593189281431
 30
0.0
 42
1.0
  0
VERTEX
  5
51DB
  8
SUNPO
  6
BYBLOCK
 10
375.90956829774422
 20
237.63593189281431
 30
0.0
 42
1.0
  0
SEQEND
  5
51DC
  8
SUNPO
  6
BYBLOCK
  0
TEXT
  5
4899
  8
SUNPO
  6
CONTINUOUS
 10
333.70206829774418
 20
238.13593189281431
 30
0.0
 40
2.5
  1
80
 41
1.1000000000000001
  7
MX_DIMTXSTY_3
  0
POLYLINE
  5
489A
  8
SUNPO
  6
BYBLOCK
 66
     1
 10
0.0
 20
0.0
 30
0.0
 70
     1
 40
1.159999999999999
 41
1.159999999999999
  0
VERTEX
  5
51DD
  8
SUNPO
  6
BYBLOCK
 10
258.90956979240281
 20
237.63593189281431
 30
0.0
 42
1.0
  0
VERTEX
  5
51DE
  8
SUNPO
  6
BYBLOCK
 10
258.61956979240267
 20
237.63593189281431
 30
0.0
 42
1.0
  0
SEQEND
  5
51DF
  8
SUNPO
  6
BYBLOCK
  0
POLYLINE
  5
489B
  8
SUNPO
  6
BYBLOCK
 66
     1
 10
0.0
 20
0.0
 30
0.0
 70
     1
 40
1.159999999999999
 41
1.159999999999999
  0
VERTEX
  5
51E0
  8
SUNPO
  6
BYBLOCK
 10
282.61956979240267
 20
237.63593189281431
 30
0.0
 42
1.0
  0
VERTEX
  5
51E1
  8
SUNPO
  6
BYBLOCK
 10
282.90956979240281
 20
237.63593189281431
 30
0.0
 42
1.0
  0
SEQEND
  5
51E2
  8
SUNPO
  6
BYBLOCK
  0
TEXT
  5
489C
  8
SUNPO
  6
CONTINUOUS
 10
268.68123645906951
 20
238.13593189281431
 30
0.0
 40
2.5
  1
24
  0
POLYLINE
  5
489D
  8
SUNPO
  6
BYBLOCK
 66
     1
 10
0.0
 20
0.0
 30
0.0
 70
     1
 40
1.159999999999999
 41
1.159999999999999
  0
VERTEX
  5
51E3
  8
SUNPO
  6
BYBLOCK
 10
228.90956979240281
 20
237.63593189281431
 30
0.0
 42
1.0
  0
VERTEX
  5
51E4
  8
SUNPO
  6
BYBLOCK
 10
228.61956979240281
 20
237.63593189281431
 30
0.0
 42
1.0
  0
SEQEND
  5
51E5
  8
SUNPO
  6
BYBLOCK
  0
POLYLINE
  5
489E
  8
SUNPO
  6
BYBLOCK
 66
     1
 10
0.0
 20
0.0
 30
0.0
 70
     1
 40
1.159999999999999
 41
1.159999999999999
  0
VERTEX
  5
51E6
  8
SUNPO
  6
BYBLOCK
 10
258.61956979240267
 20
237.63593189281431
 30
0.0
 42
1.0
  0
VERTEX
  5
51E7
  8
SUNPO
  6
BYBLOCK
 10
258.90956979240281
 20
237.63593189281431
 30
0.0
 42
1.0
  0
SEQEND
  5
51E8
  8
SUNPO
  6
BYBLOCK
  0
TEXT
  5
489F
  8
SUNPO
  6
CONTINUOUS
 10
241.7020697924028
 20
238.13593189281431
 30
0.0
 40
2.5
  1
30
 41
1.1000000000000001
  7
MX_DIMTXSTY_3
  0
POLYLINE
  5
48A0
  8
SUNPO
  6
BYBLOCK
 66
     1
 10
0.0
 20
0.0
 30
0.0
 70
     1
 40
1.159999999999999
 41
1.159999999999999
  0
VERTEX
  5
51E9
  8
SUNPO
  6
BYBLOCK
 10
375.6195682976238
 20
105.6359318928143
 30
0.0
 42
1.0
  0
VERTEX
  5
51EA
  8
SUNPO
  6
BYBLOCK
 10
375.90956829762382
 20
105.6359318928143
 30
0.0
 42
1.0
  0
SEQEND
  5
51EB
  8
SUNPO
  6
BYBLOCK
  0
POLYLINE
  5
48A1
  8
SUNPO
  6
BYBLOCK
 66
     1
 10
0.0
 20
0.0
 30
0.0
 70
     1
 40
1.159999999999999
 41
1.159999999999999
  0
VERTEX
  5
51EC
  8
SUNPO
  6
BYBLOCK
 10
351.9095656322956
 20
105.6359318928143
 30
0.0
 42
1.0
  0
VERTEX
  5
51ED
  8
SUNPO
  6
BYBLOCK
 10
351.61956563229569
 20
105.6359318928143
 30
0.0
 42
1.0
  0
SEQEND
  5
51EE
  8
SUNPO
  6
BYBLOCK
  0
TEXT
  5
48A2
  8
SUNPO
  6
CONTINUOUS
 10
361.68123401061621
 20
106.1359318928143
 30
0.0
 40
2.5
  1
24
  0
POLYLINE
  5
48A3
  8
SUNPO
  6
BYBLOCK
 66
     1
 10
0.0
 20
0.0
 30
0.0
 70
     1
 40
1.159999999999999
 41
1.159999999999999
  0
VERTEX
  5
51EF
  8
SUNPO
  6
BYBLOCK
 10
351.61956563229569
 20
105.6359318928143
 30
0.0
 42
1.0
  0
VERTEX
  5
51F0
  8
SUNPO
  6
BYBLOCK
 10
351.9095656322956
 20
105.6359318928143
 30
0.0
 42
1.0
  0
SEQEND
  5
51F1
  8
SUNPO
  6
BYBLOCK
  0
POLYLINE
  5
48A4
  8
SUNPO
  6
BYBLOCK
 66
     1
 10
0.0
 20
0.0
 30
0.0
 70
     1
 40
1.159999999999999
 41
1.159999999999999
  0
VERTEX
  5
51F2
  8
SUNPO
  6
BYBLOCK
 10
319.90957096319278
 20
105.6359318928143
 30
0.0
 42
1.0
  0
VERTEX
  5
51F3
  8
SUNPO
  6
BYBLOCK
 10
319.61957096319281
 20
105.6359318928143
 30
0.0
 42
1.0
  0
SEQEND
  5
51F4
  8
SUNPO
  6
BYBLOCK
  0
TEXT
  5
48A5
  8
SUNPO
  6
CONTINUOUS
 10
333.68123515998531
 20
106.1359318928143
 30
0.0
 40
2.5
  1
32
  0
POLYLINE
  5
48A6
  8
SUNPO
  6
BYBLOCK
 66
     1
 10
0.0
 20
0.0
 30
0.0
 70
     1
 40
1.159999999999999
 41
1.159999999999999
  0
VERTEX
  5
51F5
  8
SUNPO
  6
BYBLOCK
 10
319.61957096319281
 20
105.6359318928143
 30
0.0
 42
1.0
  0
VERTEX
  5
51F6
  8
SUNPO
  6
BYBLOCK
 10
319.90957096319278
 20
105.6359318928143
 30
0.0
 42
1.0
  0
SEQEND
  5
51F7
  8
SUNPO
  6
BYBLOCK
  0
POLYLINE
  5
48A7
  8
SUNPO
  6
BYBLOCK
 66
     1
 10
0.0
 20
0.0
 30
0.0
 70
     1
 40
1.159999999999999
 41
1.159999999999999
  0
VERTEX
  5
51F8
  8
SUNPO
  6
BYBLOCK
 10
295.90956829786461
 20
105.6359318928143
 30
0.0
 42
1.0
  0
VERTEX
  5
51F9
  8
SUNPO
  6
BYBLOCK
 10
295.6195682978647
 20
105.6359318928143
 30
0.0
 42
1.0
  0
SEQEND
  5
51FA
  8
SUNPO
  6
BYBLOCK
  0
TEXT
  5
48A8
  8
SUNPO
  6
CONTINUOUS
 10
305.68123667618511
 20
106.1359318928143
 30
0.0
 40
2.5
  1
24
  0
POLYLINE
  5
48A9
  8
SUNPO
  6
BYBLOCK
 66
     1
 10
0.0
 20
0.0
 30
0.0
 70
     1
 40
1.25
 41
1.25
  0
VERTEX
  5
51FB
  8
SUNPO
  6
BYBLOCK
 10
228.9208197924028
 20
97.635931892814355
 30
0.0
 42
1.0
  0
VERTEX
  5
51FC
  8
SUNPO
  6
BYBLOCK
 10
228.6083197924028
 20
97.635931892814355
 30
0.0
 42
1.0
  0
SEQEND
  5
51FD
  8
SUNPO
  6
BYBLOCK
  0
TEXT
  5
48AA
  8
SUNPO
  6
CONTINUOUS
 10
241.7020697924028
 20
98.135931892814369
 30
0.0
 40
2.5
  1
30
 41
1.1000000000000001
  7
MX_DIMTXSTY_3
  0
POLYLINE
  5
48AB
  8
SUNPO
  6
BYBLOCK
 66
     1
 10
0.0
 20
0.0
 30
0.0
 70
     1
 40
1.159999999999999
 41
1.159999999999999
  0
VERTEX
  5
51FE
  8
SUNPO
  6
BYBLOCK
 10
282.61956712683377
 20
105.6359318928143
 30
0.0
 42
1.0
  0
VERTEX
  5
51FF
  8
SUNPO
  6
BYBLOCK
 10
282.90956712683379
 20
105.6359318928143
 30
0.0
 42
1.0
  0
SEQEND
  5
5200
  8
SUNPO
  6
BYBLOCK
  0
POLYLINE
  5
48AC
  8
SUNPO
  6
BYBLOCK
 66
     1
 10
0.0
 20
0.0
 30
0.0
 70
     1
 40
1.159999999999999
 41
1.159999999999999
  0
VERTEX
  5
5201
  8
SUNPO
  6
BYBLOCK
 10
258.90956979240281
 20
105.6359318928143
 30
0.0
 42
1.0
  0
VERTEX
  5
5202
  8
SUNPO
  6
BYBLOCK
 10
258.61956979240267
 20
105.6359318928143
 30
0.0
 42
1.0
  0
SEQEND
  5
5203
  8
SUNPO
  6
BYBLOCK
  0
TEXT
  5
48AD
  8
SUNPO
  6
CONTINUOUS
 10
268.68123570084907
 20
106.1359318928143
 30
0.0
 40
2.5
  1
24
  0
POLYLINE
  5
48AE
  8
SUNPO
  6
BYBLOCK
 66
     1
 10
0.0
 20
0.0
 30
0.0
 70
     1
 40
1.159999999999999
 41
1.159999999999999
  0
VERTEX
  5
5204
  8
SUNPO
  6
BYBLOCK
 10
379.76456888313919
 20
126.78090994561209
 30
0.0
 42
1.0
  0
VERTEX
  5
5205
  8
SUNPO
  6
BYBLOCK
 10
379.76456888313919
 20
126.4909099456121
 30
0.0
 42
1.0
  0
SEQEND
  5
5206
  8
SUNPO
  6
BYBLOCK
  0
TEXT
  5
48AF
  8
SUNPO
  6
CONTINUOUS
 10
379.26456888313919
 20
168.0525880563705
 30
0.0
 40
2.5
  1
87
 50
90.0
  0
POLYLINE
  5
48B0
  8
SUNPO
  6
BYBLOCK
 66
     1
 10
0.0
 20
0.0
 30
0.0
 70
     1
 40
1.159999999999999
 41
1.159999999999999
  0
VERTEX
  5
5207
  8
SUNPO
  6
BYBLOCK
 10
379.76456888313919
 20
121.78093189281429
 30
0.0
 42
1.0
  0
VERTEX
  5
5208
  8
SUNPO
  6
BYBLOCK
 10
379.76456888313919
 20
121.4909318928143
 30
0.0
 42
1.0
  0
SEQEND
  5
5209
  8
SUNPO
  6
BYBLOCK
  0
TEXT
  5
48B1
  8
SUNPO
  6
CONTINUOUS
 10
379.26456888313919
 20
123.3025875922263
 30
0.0
 40
2.5
  1
5
 50
90.0
  0
POLYLINE
  5
48B2
  8
SUNPO
  6
BYBLOCK
 66
     1
 10
0.0
 20
0.0
 30
0.0
 70
     1
 40
1.159999999999999
 41
1.159999999999999
  0
VERTEX
  5
520A
  8
SUNPO
  6
BYBLOCK
 10
150.90958872644589
 20
206.38818332104091
 30
0.0
 42
1.0
  0
VERTEX
  5
520B
  8
SUNPO
  6
BYBLOCK
 10
150.61958872644601
 20
206.38818332104091
 30
0.0
 42
1.0
  0
SEQEND
  5
520C
  8
SUNPO
  6
BYBLOCK
  0
TEXT
  5
48B3
  8
SUNPO
  6
CONTINUOUS
 10
166.68125539311259
 20
206.888183321041
 30
0.0
 40
2.5
  1
36
  0
TEXT
  5
48B4
  8
SUNPO
  6
CONTINUOUS
 10
127.1812449138441
 20
206.888183321041
 30
0.0
 40
2.5
  1
43
  0
POLYLINE
  5
48B5
  8
SUNPO
  6
BYBLOCK
 66
     1
 10
0.0
 20
0.0
 30
0.0
 70
     1
 40
1.159999999999999
 41
1.159999999999999
  0
VERTEX
  5
520D
  8
SUNPO
  6
BYBLOCK
 10
384.76456888313908
 20
162.4909318928143
 30
0.0
 42
1.0
  0
VERTEX
  5
520E
  8
SUNPO
  6
BYBLOCK
 10
384.76456888313908
 20
162.78093189281429
 30
0.0
 42
1.0
  0
SEQEND
  5
520F
  8
SUNPO
  6
BYBLOCK
  0
TEXT
  5
48B6
  8
SUNPO
  6
CONTINUOUS
 10
384.26456888313919
 20
142.55259855948091
 30
0.0
 40
2.5
  1
36
 50
90.0
  0
POLYLINE
  5
48B7
  8
SUNPO
  6
BYBLOCK
 66
     1
 10
0.0
 20
0.0
 30
0.0
 70
     1
 40
1.159999999999999
 41
1.159999999999999
  0
VERTEX
  5
5210
  8
SUNPO
  6
BYBLOCK
 10
384.76456888313908
 20
205.4909318928143
 30
0.0
 42
1.0
  0
VERTEX
  5
5211
  8
SUNPO
  6
BYBLOCK
 10
384.76456888313908
 20
205.78093189281421
 30
0.0
 42
1.0
  0
SEQEND
  5
5212
  8
SUNPO
  6
BYBLOCK
  0
TEXT
  5
48B8
  8
SUNPO
  6
CONTINUOUS
 10
384.26456888313919
 20
182.05259855948091
 30
0.0
 40
2.5
  1
43
 50
90.0
  0
POLYLINE
  5
48B9
  8
SUNPO
  6
BYBLOCK
 66
     1
 10
0.0
 20
0.0
 30
0.0
 70
     1
 40
1.159999999999999
 41
1.159999999999999
  0
VERTEX
  5
5213
  8
SUNPO
  6
BYBLOCK
 10
263.9095684596785
 20
229.63593189281431
 30
0.0
 42
1.0
  0
VERTEX
  5
5214
  8
SUNPO
  6
BYBLOCK
 10
263.61956845967848
 20
229.63593189281431
 30
0.0
 42
1.0
  0
SEQEND
  5
5215
  8
SUNPO
  6
BYBLOCK
  0
POLYLINE
  5
48BA
  8
SUNPO
  6
BYBLOCK
 66
     1
 10
0.0
 20
0.0
 30
0.0
 70
     1
 40
1.159999999999999
 41
1.159999999999999
  0
VERTEX
  5
5216
  8
SUNPO
  6
BYBLOCK
 10
282.61956979240267
 20
229.63593189281431
 30
0.0
 42
1.0
  0
VERTEX
  5
5217
  8
SUNPO
  6
BYBLOCK
 10
282.90956979240281
 20
229.63593189281431
 30
0.0
 42
1.0
  0
SEQEND
  5
5218
  8
SUNPO
  6
BYBLOCK
  0
TEXT
  5
48BB
  8
SUNPO
  6
CONTINUOUS
 10
271.26456941335289
 20
230.13593189281431
 30
0.0
 40
2.5
  1
19
 41
1.1999999999999991
  7
MX_DIMTXSTY_2
  0
POLYLINE
  5
48BC
  8
SUNPO
  6
BYBLOCK
 66
     1
 10
0.0
 20
0.0
 30
0.0
 70
     1
 40
1.159999999999999
 41
1.159999999999999
  0
VERTEX
  5
5219
  8
SUNPO
  6
BYBLOCK
 10
295.90956829774422
 20
229.63593189281431
 30
0.0
 42
1.0
  0
VERTEX
  5
521A
  8
SUNPO
  6
BYBLOCK
 10
295.61956829774419
 20
229.63593189281431
 30
0.0
 42
1.0
  0
SEQEND
  5
521B
  8
SUNPO
  6
BYBLOCK
  0
POLYLINE
  5
48BD
  8
SUNPO
  6
BYBLOCK
 66
     1
 10
0.0
 20
0.0
 30
0.0
 70
     1
 40
1.159999999999999
 41
1.159999999999999
  0
VERTEX
  5
521C
  8
SUNPO
  6
BYBLOCK
 10
314.61956696502
 20
229.63593189281431
 30
0.0
 42
1.0
  0
VERTEX
  5
521D
  8
SUNPO
  6
BYBLOCK
 10
314.90956696501991
 20
229.63593189281431
 30
0.0
 42
1.0
  0
SEQEND
  5
521E
  8
SUNPO
  6
BYBLOCK
  0
TEXT
  5
48BE
  8
SUNPO
  6
CONTINUOUS
 10
303.26456734406992
 20
230.13593189281431
 30
0.0
 40
2.5
  1
19
 41
1.1999999999999991
  7
MX_DIMTXSTY_2
  0
POLYLINE
  5
48BF
  8
SUNPO
  6
BYBLOCK
 66
     1
 10
0.0
 20
0.0
 30
0.0
 70
     1
 40
1.159999999999999
 41
1.159999999999999
  0
VERTEX
  5
521F
  8
SUNPO
  6
BYBLOCK
 10
356.90956696501991
 20
229.63593189281431
 30
0.0
 42
1.0
  0
VERTEX
  5
5220
  8
SUNPO
  6
BYBLOCK
 10
356.61956696501983
 20
229.63593189281431
 30
0.0
 42
1.0
  0
SEQEND
  5
5221
  8
SUNPO
  6
BYBLOCK
  0
POLYLINE
  5
48C0
  8
SUNPO
  6
BYBLOCK
 66
     1
 10
0.0
 20
0.0
 30
0.0
 70
     1
 40
1.159999999999999
 41
1.159999999999999
  0
VERTEX
  5
5222
  8
SUNPO
  6
BYBLOCK
 10
375.61956829774419
 20
229.63593189281431
 30
0.0
 42
1.0
  0
VERTEX
  5
5223
  8
SUNPO
  6
BYBLOCK
 10
375.90956829774422
 20
229.63593189281431
 30
0.0
 42
1.0
  0
SEQEND
  5
5224
  8
SUNPO
  6
BYBLOCK
  0
TEXT
  5
48C1
  8
SUNPO
  6
CONTINUOUS
 10
364.2645679186943
 20
230.13593189281431
 30
0.0
 40
2.5
  1
19
 41
1.1999999999999991
  7
MX_DIMTXSTY_2
  0
POLYLINE
  5
48C2
  8
SUNPO
  6
BYBLOCK
 66
     1
 10
0.0
 20
0.0
 30
0.0
 70
     1
 40
1.159999999999999
 41
1.159999999999999
  0
VERTEX
  5
5225
  8
SUNPO
  6
BYBLOCK
 10
388.90956680308562
 20
229.63593189281431
 30
0.0
 42
1.0
  0
VERTEX
  5
5226
  8
SUNPO
  6
BYBLOCK
 10
388.6195668030856
 20
229.63593189281431
 30
0.0
 42
1.0
  0
SEQEND
  5
5227
  8
SUNPO
  6
BYBLOCK
  0
POLYLINE
  5
48C3
  8
SUNPO
  6
BYBLOCK
 66
     1
 10
0.0
 20
0.0
 30
0.0
 70
     1
 40
1.159999999999999
 41
1.159999999999999
  0
VERTEX
  5
5228
  8
SUNPO
  6
BYBLOCK
 10
407.61956547036141
 20
229.63593189281431
 30
0.0
 42
1.0
  0
VERTEX
  5
5229
  8
SUNPO
  6
BYBLOCK
 10
407.90956547036131
 20
229.63593189281431
 30
0.0
 42
1.0
  0
SEQEND
  5
522A
  8
SUNPO
  6
BYBLOCK
  0
TEXT
  5
48C4
  8
SUNPO
  6
CONTINUOUS
 10
396.26456584941121
 20
230.13593189281431
 30
0.0
 40
2.5
  1
19
 41
1.1999999999999991
  7
MX_DIMTXSTY_2
  0
POLYLINE
  5
48C5
  8
SUNPO
  6
BYBLOCK
 66
     1
 10
0.0
 20
0.0
 30
0.0
 70
     1
 40
1.159999999999999
 41
1.159999999999999
  0
VERTEX
  5
522B
  8
SUNPO
  6
BYBLOCK
 10
83.764566803085685
 20
249.03318945646211
 30
0.0
 42
1.0
  0
VERTEX
  5
522C
  8
SUNPO
  6
BYBLOCK
 10
83.764566803085685
 20
248.74318945646201
 30
0.0
 42
1.0
  0
SEQEND
  5
522D
  8
SUNPO
  6
BYBLOCK
  0
POLYLINE
  5
48C6
  8
SUNPO
  6
BYBLOCK
 66
     1
 10
0.0
 20
0.0
 30
0.0
 70
     1
 40
1.159999999999999
 41
1.159999999999999
  0
VERTEX
  5
522E
  8
SUNPO
  6
BYBLOCK
 10
83.764566803085685
 20
267.74318945646212
 30
0.0
 42
1.0
  0
VERTEX
  5
522F
  8
SUNPO
  6
BYBLOCK
 10
83.764566803085685
 20
268.03318945646203
 30
0.0
 42
1.0
  0
SEQEND
  5
5230
  8
SUNPO
  6
BYBLOCK
  0
TEXT
  5
48C7
  8
SUNPO
  6
CONTINUOUS
 10
83.2645668030857
 20
256.38818945646199
 30
0.0
 40
2.5
  1
19
 50
90.0
 41
1.1999999999999991
  7
MX_DIMTXSTY_2
  0
POLYLINE
  5
48C8
  8
SUNPO
  6
BYBLOCK
 66
     1
 10
0.0
 20
0.0
 30
0.0
 70
     1
 40
1.159999999999999
 41
1.159999999999999
  0
VERTEX
  5
5231
  8
SUNPO
  6
BYBLOCK
 10
83.764566803085685
 20
150.03318961938271
 30
0.0
 42
1.0
  0
VERTEX
  5
5232
  8
SUNPO
  6
BYBLOCK
 10
83.764566803085685
 20
149.74318961938269
 30
0.0
 42
1.0
  0
SEQEND
  5
5233
  8
SUNPO
  6
BYBLOCK
  0
POLYLINE
  5
48C9
  8
SUNPO
  6
BYBLOCK
 66
     1
 10
0.0
 20
0.0
 30
0.0
 70
     1
 40
1.159999999999999
 41
1.159999999999999
  0
VERTEX
  5
5234
  8
SUNPO
  6
BYBLOCK
 10
83.764566803085685
 20
168.74318961938269
 30
0.0
 42
1.0
  0
VERTEX
  5
5235
  8
SUNPO
  6
BYBLOCK
 10
83.764566803085685
 20
169.03318961938271
 30
0.0
 42
1.0
  0
SEQEND
  5
5236
  8
SUNPO
  6
BYBLOCK
  0
TEXT
  5
48CA
  8
SUNPO
  6
CONTINUOUS
 10
83.2645668030857
 20
157.3881896193827
 30
0.0
 40
2.5
  1
19
 50
90.0
 41
1.1999999999999991
  7
MX_DIMTXSTY_2
  0
LINE
  5
48CB
  8
DANMEN
  6
CONTINUOUS
 10
153.23956213449409
 20
152.50918982690811
 30
0.0
 11
158.4646006629365
 21
152.50919146745909
 31
0.0
  0
LINE
  5
48CC
  8
DANMEN
  6
CONTINUOUS
 10
153.23956315241239
 20
149.26719210809711
 30
0.0
 11
158.46460168085471
 21
149.267193748648
 31
0.0
  0
LINE
  5
48CD
  8
DANMEN
  6
CONTINUOUS
 10
153.23956201549589
 20
152.88819049066549
 30
0.0
 11
158.4646005439383
 21
152.88819213121641
 31
0.0
  0
LINE
  5
48CE
  8
DANMEN
  6
CONTINUOUS
 10
153.2395632714105
 20
148.88819144433981
 30
0.0
 11
158.46460179985289
 21
148.8881930848907
 31
0.0
  0
LINE
  5
48CF
  8
DANMEN
  6
CONTINUOUS
 10
153.23956487651949
 20
152.8881885833178
 30
0.0
 11
153.2395661324326
 21
148.8881943053637
 31
0.0
  0
LINE
  5
48D0
  8
DANMEN
  6
DASHED
 10
150.46458884787799
 20
152.3896034079763
 30
0.0
 11
151.17946281365789
 21
152.03318070794299
 31
0.0
  0
LINE
  5
48D1
  8
DANMEN
  6
DASHED
 10
150.46458859601191
 20
149.38677635299541
 30
0.0
 11
151.1794638706557
 21
149.74320025280741
 31
0.0
  0
LINE
  5
48D2
  8
DANMEN
  6
DASHED
 10
151.17946279620509
 20
152.03317844636749
 30
0.0
 11
151.66345354402091
 21
151.1229256363431
 31
0.0
  0
LINE
  5
48D3
  8
DANMEN
  6
DASHED
 10
151.17946375864659
 20
149.74320169173669
 30
0.0
 11
151.66345406536161
 21
150.65345501951191
 31
0.0
  0
ARC
  5
48D4
  8
DANMEN
  6
DASHED
 10
151.2219909557551
 20
150.88819017116529
 30
0.0
 40
0.5
 50
332.00001265345912
 51
28.000077960232922
  0
LINE
  5
48D5
  8
DANMEN
  6
CONTINUOUS
 10
150.7645887722899
 20
147.88819190527491
 30
0.0
 11
151.99209454105869
 21
149.1156982948699
 31
0.0
  0
LINE
  5
48D6
  8
DANMEN
  6
CONTINUOUS
 10
150.76458767647341
 20
153.88818683615759
 30
0.0
 11
151.9920949703297
 21
152.66068037006991
 31
0.0
  0
LINE
  5
48D7
  8
DANMEN
  6
CONTINUOUS
 10
151.9921026753062
 20
152.66068632243949
 30
0.0
 11
151.99210378835849
 21
149.1156938755401
 31
0.0
  0
LINE
  5
48D8
  8
DANMEN
  6
CONTINUOUS
 10
153.23955183804719
 20
149.26720073027241
 30
0.0
 11
151.99209256049039
 21
149.11570103746399
 31
0.0
  0
LINE
  5
48D9
  8
DANMEN
  6
CONTINUOUS
 10
153.2395511654413
 20
148.88820389864949
 30
0.0
 11
151.9920912060642
 21
149.11570391147731
 31
0.0
  0
LINE
  5
48DA
  8
DANMEN
  6
CONTINUOUS
 10
153.23955396074459
 20
152.88817538862349
 30
0.0
 11
151.99209055089111
 21
152.66067295303219
 31
0.0
  0
LINE
  5
48DB
  8
DANMEN
  6
CONTINUOUS
 10
153.2395530729799
 20
152.50917906455871
 30
0.0
 11
151.99209262400259
 21
152.6606771496256
 31
0.0
  0
LINE
  5
48DC
  8
DANMEN
  6
CONTINUOUS
 10
158.46460149761319
 20
152.88819022386809
 30
0.0
 11
158.46460275352601
 21
148.88819689958831
 31
0.0
  0
LINE
  5
48DD
  8
DANMEN
  6
CENTER
 10
149.3585440048426
 20
150.8881896193827
 30
0.0
 11
159.59667648164921
 21
150.8881896193827
 31
0.0
  0
LINE
  5
48DE
  8
DANMEN
  6
CONTINUOUS
 10
150.46458877412971
 20
147.8881896193827
 30
0.0
 11
150.76458872644599
 21
147.8881896193827
 31
0.0
  0
LINE
  5
48DF
  8
DANMEN
  6
CONTINUOUS
 10
150.46458877412971
 20
153.8881896193827
 30
0.0
 11
150.7645868190973
 21
153.8881896193827
 31
0.0
  0
LINE
  5
48E0
  8
DANMEN
  6
CONTINUOUS
 10
150.76458872644599
 20
147.8881896193827
 30
0.0
 11
150.76458872644599
 21
153.8881877120341
 31
0.0
  0
LINE
  5
48E1
  8
DANMEN
  6
CONTINUOUS
 10
150.46458877412971
 20
147.8881896193827
 30
0.0
 11
150.46458877412971
 21
153.8881896193827
 31
0.0
  0
LINE
  5
48E2
  8
DANMEN
  6
CONTINUOUS
 10
348.26456696501998
 20
190.13592091921319
 30
0.0
 11
356.76456696501992
 21
190.13592091921319
 31
0.0
  0
LINE
  5
48E3
  8
DANMEN
  6
CONTINUOUS
 10
348.26456696501998
 20
178.13592091921319
 30
0.0
 11
348.26456696501998
 21
190.13592091921319
 31
0.0
  0
LINE
  5
48E4
  8
DANMEN
  6
CONTINUOUS
 10
348.26456696501998
 20
178.13592091921319
 30
0.0
 11
356.76456696501992
 21
178.13592091921319
 31
0.0
  0
LINE
  5
48E5
  8
DANMEN
  6
CONTINUOUS
 10
356.76456696501992
 20
178.13592091921319
 30
0.0
 11
356.76456696501992
 21
190.13592091921319
 31
0.0
  0
LINE
  5
48E6
  8
DANMEN
  6
CONTINUOUS
 10
356.76456696501992
 20
190.13592091921319
 30
0.0
 11
348.26456696501998
 21
178.13592091921319
 31
0.0
  0
LINE
  5
48E7
  8
DANMEN
  6
CONTINUOUS
 10
243.76456537108999
 20
190.1359068938543
 30
0.0
 11
262.76456537108999
 21
190.1359068938543
 31
0.0
  0
LINE
  5
48E8
  8
DANMEN
  6
CONTINUOUS
 10
243.76456537108999
 20
190.1359068938543
 30
0.0
 11
243.76456537108999
 21
178.1359068938543
 31
0.0
  0
LINE
  5
48E9
  8
DANMEN
  6
CONTINUOUS
 10
262.76456537108999
 20
190.1359068938543
 30
0.0
 11
262.76456537108999
 21
178.1359068938543
 31
0.0
  0
LINE
  5
48EA
  8
DANMEN
  6
CONTINUOUS
 10
243.76456537108999
 20
178.1359068938543
 30
0.0
 11
262.76456537108999
 21
178.1359068938543
 31
0.0
  0
LINE
  5
48EB
  8
DANMEN
  6
CONTINUOUS
 10
262.76456537108999
 20
190.1359068938543
 30
0.0
 11
243.76456537108999
 21
178.1359068938543
 31
0.0
  0
LINE
  5
48EC
  8
DANMEN
  6
CONTINUOUS
 10
112.7645668030857
 20
142.8881896193827
 30
0.0
 11
145.76456680308559
 21
142.8881896193827
 31
0.0
  0
LINE
  5
48ED
  8
DANMEN
  6
CONTINUOUS
 10
145.76456680308559
 20
149.8881896193827
 30
0.0
 11
145.76456680308559
 21
142.8881896193827
 31
0.0
  0
LINE
  5
48EE
  8
DANMEN
  6
CONTINUOUS
 10
112.7645668030857
 20
149.8881896193827
 30
0.0
 11
112.7645668030857
 21
142.8881896193827
 31
0.0
  0
LINE
  5
48EF
  8
DANMEN
  6
CONTINUOUS
 10
112.7645668030857
 20
149.8881896193827
 30
0.0
 11
145.76456680308559
 21
149.8881896193827
 31
0.0
  0
LINE
  5
48F0
  8
DANMEN
  6
CONTINUOUS
 10
145.76456680308559
 20
149.8881896193827
 30
0.0
 11
112.7645668030857
 21
142.8881896193827
 31
0.0
  0
ARC
  5
48F1
  8
DANMEN
  6
CONTINUOUS
 10
171.2645886587473
 20
274.52089343591467
 30
0.0
 40
0.9999999999999998
 50
98.130104729876379
 51
180.00000237571979
  0
ARC
  5
48F2
  8
DANMEN
  6
CONTINUOUS
 10
173.2645886259578
 20
275.31168407683339
 30
0.0
 40
0.5
 50
0.0000023757198484
 51
98.130104729876379
  0
ARC
  5
48F3
  8
DANMEN
  6
CONTINUOUS
 10
173.26458863852329
 20
275.00863831346783
 30
0.0
 40
0.5
 50
278.13010472987639
 51
0.0000023757198484
  0
LINE
  5
48F4
  8
DANMEN
  6
CONTINUOUS
 10
173.7645886259578
 20
275.31168409756538
 30
0.0
 11
173.76458863852341
 21
275.00863833419982
 31
0.0
  0
LINE
  5
48F5
  8
DANMEN
  6
CONTINUOUS
 10
171.56458866953579
 20
274.26070482784547
 30
0.0
 11
173.33529933716571
 21
274.51366356956919
 31
0.0
  0
LINE
  5
48F6
  8
DANMEN
  6
CONTINUOUS
 10
171.12316726146261
 20
275.510842923712
 30
0.0
 11
173.1938779273155
 21
275.80665882073203
 31
0.0
  0
LINE
  5
48F7
  8
DANMEN
  6
CONTINUOUS
 10
173.7645886352249
 20
275.08818894127012
 30
0.0
 11
173.76458862278571
 21
275.38818894127007
 31
0.0
  0
ARC
  5
48F8
  8
DANMEN
  6
CONTINUOUS
 10
151.26458945206841
 20
255.38818800832709
 30
0.0
 40
0.5
 50
90.000002375719049
 51
180.00000237571979
  0
ARC
  5
48F9
  8
DANMEN
  6
CONTINUOUS
 10
151.96458946450761
 20
255.08818803735201
 30
0.0
 40
0.2999999999999999
 50
270.00000237571902
 51
0.0000023757198484
  0
LINE
  5
48FA
  8
DANMEN
  6
CONTINUOUS
 10
151.8645894769468
 20
254.78818803320561
 30
0.0
 11
151.96458947694691
 21
254.78818803735211
 31
0.0
  0
LINE
  5
48FB
  8
DANMEN
  6
CONTINUOUS
 10
151.8645894769468
 20
254.78818803320561
 30
0.0
 11
151.8645896531695
 21
250.53818803320561
 31
0.0
  0
ARC
  5
48FC
  8
DANMEN
  6
CONTINUOUS
 10
168.26458895449869
 20
267.3881887132174
 30
0.0
 40
1.499999999999998
 50
90.000002375719049
 51
180.00000237571979
  0
ARC
  5
48FD
  8
DANMEN
  6
CONTINUOUS
 10
182.9645886559569
 20
274.58818932274022
 30
0.0
 40
1.499999999999998
 50
90.000002375719049
 51
180.00000237571979
  0
ARC
  5
48FE
  8
DANMEN
  6
CONTINUOUS
 10
174.5645887679101
 20
271.8881889744415
 30
0.0
 40
0.9999999999999998
 50
0.0000023757198484
 51
90.000002375719049
  0
ARC
  5
48FF
  8
DANMEN
  6
CONTINUOUS
 10
171.26458873888521
 20
272.58818883760989
 30
0.0
 40
0.9999999999999998
 50
180.00000237571979
 51
270.00000237571902
  0
ARC
  5
4900
  8
DANMEN
  6
CONTINUOUS
 10
182.4645887596173
 20
272.08818930200812
 30
0.0
 40
0.9999999999999998
 50
180.00000237571979
 51
270.00000237571902
  0
LINE
  5
4901
  8
DANMEN
  6
CONTINUOUS
 10
174.26458878034941
 20
271.58818896200222
 30
0.0
 11
174.2645888923025
 21
268.88818895008131
 31
0.0
  0
LINE
  5
4902
  8
DANMEN
  6
CONTINUOUS
 10
175.5645887679101
 20
271.8881890159056
 30
0.0
 11
175.56458889230251
 21
268.88818900398468
 31
0.0
  0
LINE
  5
4903
  8
DANMEN
  6
CONTINUOUS
 10
171.56458872644589
 20
272.88818885004912
 30
0.0
 11
171.56458866953579
 21
274.26070482784547
 31
0.0
  0
LINE
  5
4904
  8
DANMEN
  6
CONTINUOUS
 10
174.56458872644589
 20
272.88818897444139
 30
0.0
 11
171.56458872644589
 21
272.88818885004912
 31
0.0
  0
LINE
  5
4905
  8
DANMEN
  6
CONTINUOUS
 10
174.2645888923025
 20
268.88818896200218
 30
0.0
 11
168.2645888923025
 21
268.8881887132174
 31
0.0
  0
LINE
  5
4906
  8
DANMEN
  6
CONTINUOUS
 10
170.26458873888521
 20
272.58818879614569
 30
0.0
 11
170.2645886587473
 21
274.52089339445058
 31
0.0
  0
ARC
  5
4907
  8
DANMEN
  6
CONTINUOUS
 10
184.26458861449279
 20
275.58818937664358
 30
0.0
 40
0.5
 50
0.0000023757198484
 51
90.000002375719049
  0
LINE
  5
4908
  8
DANMEN
  6
CONTINUOUS
 10
150.76458945206849
 20
255.3881879875951
 30
0.0
 11
150.76458970085329
 21
249.3881879875951
 31
0.0
  0
LINE
  5
4909
  8
DANMEN
  6
CONTINUOUS
 10
152.2645891618194
 20
262.38818804979132
 30
0.0
 11
152.26458946450751
 21
255.08818804979131
 31
0.0
  0
LINE
  5
490A
  8
DANMEN
  6
CONTINUOUS
 10
151.26458918255159
 20
261.88818800832712
 30
0.0
 11
150.7645891825515
 21
261.88818798759507
 31
0.0
  0
LINE
  5
490B
  8
DANMEN
  6
CONTINUOUS
 10
151.2645894313363
 20
255.88818800832709
 30
0.0
 11
151.26458918255139
 21
261.88818800832712
 31
0.0
  0
LINE
  5
490C
  8
DANMEN
  6
CONTINUOUS
 10
150.7645891825515
 20
261.88818798759507
 30
0.0
 11
150.7645891618194
 21
262.38818798759507
 31
0.0
  0
ARC
  5
490D
  8
DANMEN
  6
CONTINUOUS
 10
151.26458970085329
 20
249.38818800832709
 30
0.0
 40
0.5
 50
180.00000237571979
 51
270.00000237571902
  0
LINE
  5
490E
  8
DANMEN
  6
CONTINUOUS
 10
151.76458914108741
 20
262.88818802905922
 30
0.0
 11
151.26458914108741
 21
262.88818800832712
 31
0.0
  0
ARC
  5
490F
  8
DANMEN
  6
CONTINUOUS
 10
151.7645891618194
 20
262.38818802905922
 30
0.0
 40
0.5
 50
0.0000023757198484
 51
90.000002375719049
  0
ARC
  5
4910
  8
DANMEN
  6
CONTINUOUS
 10
151.26458916181929
 20
262.38818800832712
 30
0.0
 40
0.5
 50
90.000002375719049
 51
180.00000237571979
  0
LINE
  5
4911
  8
DANMEN
  6
CONTINUOUS
 10
151.26458972158531
 20
248.88818800832709
 30
0.0
 11
186.2645897215852
 21
248.88818945957189
 31
0.0
  0
LINE
  5
4912
  8
DANMEN
  6
CONTINUOUS
 10
151.8645896531695
 20
250.53818803320561
 30
0.0
 11
166.76458965316939
 21
250.53818865102119
 31
0.0
  0
LINE
  5
4913
  8
DANMEN
  6
CONTINUOUS
 10
185.11458889230249
 20
268.88818941188811
 30
0.0
 11
175.56458889230251
 21
268.8881890159056
 31
0.0
  0
LINE
  5
4914
  8
DANMEN
  6
CONTINUOUS
 10
185.1145888010814
 20
271.0881894118881
 30
0.0
 11
182.46458880108139
 21
271.08818930200812
 31
0.0
  0
LINE
  5
4915
  8
DANMEN
  6
CONTINUOUS
 10
185.114588747178
 20
272.38818941188811
 30
0.0
 11
182.76458874717801
 21
272.3881893144474
 31
0.0
  0
LINE
  5
4916
  8
DANMEN
  6
CONTINUOUS
 10
185.1145889420595
 20
267.68818941188812
 30
0.0
 11
167.96458894205941
 21
267.6881887007782
 31
0.0
  0
ARC
  5
4917
  8
DANMEN
  6
CONTINUOUS
 10
184.26458862693201
 20
275.28818937664357
 30
0.0
 40
0.5
 50
270.00000237571902
 51
0.0000023757198484
  0
LINE
  5
4918
  8
DANMEN
  6
CONTINUOUS
 10
184.26458859376069
 20
276.08818937664358
 30
0.0
 11
182.96458859376071
 21
276.08818932274022
 31
0.0
  0
LINE
  5
4919
  8
DANMEN
  6
CONTINUOUS
 10
184.7645886269321
 20
275.28818939737562
 30
0.0
 11
184.76458861449279
 21
275.58818939737557
 31
0.0
  0
LINE
  5
491A
  8
DANMEN
  6
CONTINUOUS
 10
184.26458864766411
 20
274.78818937664357
 30
0.0
 11
182.76458864766411
 21
274.78818931444738
 31
0.0
  0
LINE
  5
491B
  8
DANMEN
  6
CONTINUOUS
 10
181.4645887596173
 20
272.08818926054403
 30
0.0
 11
181.4645886559569
 21
274.58818926054403
 31
0.0
  0
LINE
  5
491C
  8
DANMEN
  6
CONTINUOUS
 10
182.76458874717801
 20
272.3881893144474
 30
0.0
 11
182.76458864766411
 21
274.78818931444738
 31
0.0
  0
LINE
  5
491D
  8
DANMEN
  6
CONTINUOUS
 10
186.76458872644591
 20
272.88818948030388
 30
0.0
 11
185.61458872644599
 21
272.88818943262021
 31
0.0
  0
ARC
  5
491E
  8
DANMEN
  6
CONTINUOUS
 10
186.26458970085309
 20
249.38818945957189
 30
0.0
 40
0.5
 50
270.00000237571902
 51
0.0000023757198484
  0
LINE
  5
491F
  8
DANMEN
  6
CONTINUOUS
 10
186.76458970085309
 20
249.38818948030399
 30
0.0
 11
186.76458872644591
 21
272.88818948030388
 31
0.0
  0
LINE
  5
4920
  8
DANMEN
  6
CONTINUOUS
 10
166.76458965316939
 20
250.53818865102119
 30
0.0
 11
166.76458895449869
 21
267.38818865102121
 31
0.0
  0
LINE
  5
4921
  8
DANMEN
  6
CONTINUOUS
 10
174.26458878034941
 20
271.58818896200222
 30
0.0
 11
171.26458878034941
 21
271.58818883760978
 31
0.0
  0
LINE
  5
4922
  8
DANMEN
  6
CONTINUOUS
 10
185.11458965316939
 20
250.53818941188811
 30
0.0
 11
185.1145889420595
 21
267.68818941188812
 31
0.0
  0
LINE
  5
4923
  8
DANMEN
  6
CONTINUOUS
 10
167.96458965316941
 20
250.53818870077819
 30
0.0
 11
185.11458965316939
 21
250.53818941188811
 31
0.0
  0
LINE
  5
4924
  8
DANMEN
  6
CONTINUOUS
 10
185.11458889230249
 20
268.88818941188811
 30
0.0
 11
185.1145888010814
 21
271.0881894118881
 31
0.0
  0
ARC
  5
4925
  8
DANMEN
  6
CONTINUOUS
 10
185.614588747178
 20
272.38818943262009
 30
0.0
 40
0.5
 50
90.000002375719049
 51
180.00000237571979
  0
LINE
  5
4926
  8
DANMEN
  6
CONTINUOUS
 10
167.96458965316941
 20
250.53818870077819
 30
0.0
 11
167.96458894205941
 21
267.6881887007782
 31
0.0
  0
ARC
  5
4927
  8
DANMEN
  6
CONTINUOUS
 10
414.3972715382223
 20
142.13593217612649
 30
0.0
 40
1.0
 50
8.1301047298755762
 51
90.000002375720655
  0
ARC
  5
4928
  8
DANMEN
  6
CONTINUOUS
 10
415.18806217914079
 20
140.1359322089159
 30
0.0
 40
0.5
 50
270.00000237572061
 51
8.1301047298755762
  0
ARC
  5
4929
  8
DANMEN
  6
CONTINUOUS
 10
414.88501641577523
 20
140.13593219635041
 30
0.0
 40
0.5
 50
188.13010472987551
 51
270.00000237572061
  0
LINE
  5
492A
  8
DANMEN
  6
CONTINUOUS
 10
415.188062199873
 20
139.6359322089159
 30
0.0
 11
414.88501643650733
 21
139.63593219635041
 31
0.0
  0
LINE
  5
492B
  8
DANMEN
  6
CONTINUOUS
 10
414.13708293015299
 20
141.83593216533799
 30
0.0
 11
414.39004167187647
 21
140.065221497708
 31
0.0
  0
LINE
  5
492C
  8
DANMEN
  6
CONTINUOUS
 10
415.3872210260194
 20
142.2773535734112
 30
0.0
 11
415.68303692303942
 21
140.20664290755829
 31
0.0
  0
LINE
  5
492D
  8
DANMEN
  6
CONTINUOUS
 10
414.96456704357757
 20
139.63593219964889
 30
0.0
 11
415.26456704357747
 21
139.63593221208811
 31
0.0
  0
ARC
  5
492E
  8
DANMEN
  6
CONTINUOUS
 10
395.26456611063458
 20
162.13593138280541
 30
0.0
 40
0.5
 50
0.0000023757198484
 51
90.000002375720655
  0
ARC
  5
492F
  8
DANMEN
  6
CONTINUOUS
 10
394.9645661396595
 20
161.43593137036621
 30
0.0
 40
0.3
 50
180.00000237571979
 51
270.00000237572061
  0
LINE
  5
4930
  8
DANMEN
  6
CONTINUOUS
 10
394.6645661355131
 20
161.5359313579269
 30
0.0
 11
394.66456613965948
 21
161.43593135792699
 31
0.0
  0
LINE
  5
4931
  8
DANMEN
  6
CONTINUOUS
 10
394.6645661355131
 20
161.5359313579269
 30
0.0
 11
390.41456613551298
 21
161.53593118170431
 31
0.0
  0
ARC
  5
4932
  8
DANMEN
  6
CONTINUOUS
 10
407.2645668155248
 20
145.1359318803751
 30
0.0
 40
1.5
 50
0.0000023757198484
 51
90.000002375720655
  0
ARC
  5
4933
  8
DANMEN
  6
CONTINUOUS
 10
414.46456742504762
 20
130.4359321789168
 30
0.0
 40
1.5
 50
0.0000023757198484
 51
90.000002375720655
  0
ARC
  5
4934
  8
DANMEN
  6
CONTINUOUS
 10
411.7645670767489
 20
138.83593206696361
 30
0.0
 40
1.0
 50
270.00000237572061
 51
0.0000023757198484
  0
ARC
  5
4935
  8
DANMEN
  6
CONTINUOUS
 10
412.46456693991718
 20
142.13593209598849
 30
0.0
 40
1.0
 50
90.000002375720655
 51
180.00000237571979
  0
ARC
  5
4936
  8
DANMEN
  6
CONTINUOUS
 10
411.96456740431557
 20
130.93593207525649
 30
0.0
 40
1.0
 50
90.000002375720655
 51
180.00000237571979
  0
LINE
  5
4937
  8
DANMEN
  6
CONTINUOUS
 10
411.46456706430962
 20
139.1359320545244
 30
0.0
 11
408.76456705238883
 21
139.13593194257129
 31
0.0
  0
LINE
  5
4938
  8
DANMEN
  6
CONTINUOUS
 10
411.76456711821299
 20
137.83593206696361
 30
0.0
 11
408.76456710629202
 21
137.83593194257119
 31
0.0
  0
LINE
  5
4939
  8
DANMEN
  6
CONTINUOUS
 10
412.76456695235657
 20
141.83593210842781
 30
0.0
 11
414.13708293015299
 21
141.83593216533799
 31
0.0
  0
LINE
  5
493A
  8
DANMEN
  6
CONTINUOUS
 10
412.76456707674879
 20
138.83593210842781
 30
0.0
 11
412.76456695235657
 21
141.83593210842781
 31
0.0
  0
LINE
  5
493B
  8
DANMEN
  6
CONTINUOUS
 10
408.76456706430969
 20
139.13593194257129
 30
0.0
 11
408.7645668155248
 21
145.1359319425712
 31
0.0
  0
LINE
  5
493C
  8
DANMEN
  6
CONTINUOUS
 10
412.46456689845309
 20
143.13593209598849
 30
0.0
 11
414.39727149675798
 21
143.13593217612649
 31
0.0
  0
ARC
  5
493D
  8
DANMEN
  6
CONTINUOUS
 10
415.46456747895098
 20
129.13593222038099
 30
0.0
 40
0.5
 50
270.00000237572061
 51
0.0000023757198484
  0
LINE
  5
493E
  8
DANMEN
  6
CONTINUOUS
 10
395.26456608990242
 20
162.63593138280541
 30
0.0
 11
389.26456608990259
 21
162.63593113402061
 31
0.0
  0
LINE
  5
493F
  8
DANMEN
  6
CONTINUOUS
 10
402.26456615209878
 20
161.13593167305439
 30
0.0
 11
394.96456615209871
 21
161.13593137036619
 31
0.0
  0
LINE
  5
4940
  8
DANMEN
  6
CONTINUOUS
 10
401.76456611063458
 20
162.13593165232231
 30
0.0
 11
401.76456608990247
 21
162.63593165232231
 31
0.0
  0
LINE
  5
4941
  8
DANMEN
  6
CONTINUOUS
 10
395.76456611063458
 20
162.13593140353751
 30
0.0
 11
401.76456611063458
 21
162.1359316523224
 31
0.0
  0
LINE
  5
4942
  8
DANMEN
  6
CONTINUOUS
 10
401.76456608990247
 20
162.63593165232231
 30
0.0
 11
402.26456608990247
 21
162.63593167305439
 31
0.0
  0
ARC
  5
4943
  8
DANMEN
  6
CONTINUOUS
 10
389.26456611063458
 20
162.13593113402061
 30
0.0
 40
0.5
 50
90.000002375720655
 51
180.00000237571979
  0
LINE
  5
4944
  8
DANMEN
  6
CONTINUOUS
 10
402.76456613136662
 20
161.63593169378649
 30
0.0
 11
402.76456611063458
 21
162.13593169378649
 31
0.0
  0
ARC
  5
4945
  8
DANMEN
  6
CONTINUOUS
 10
402.26456613136662
 20
161.63593167305439
 30
0.0
 40
0.5
 50
270.00000237572061
 51
0.0000023757198484
  0
ARC
  5
4946
  8
DANMEN
  6
CONTINUOUS
 10
402.26456611063458
 20
162.13593167305439
 30
0.0
 40
0.5
 50
0.0000023757198484
 51
90.000002375720655
  0
LINE
  5
4947
  8
DANMEN
  6
CONTINUOUS
 10
388.76456611063458
 20
162.13593111328851
 30
0.0
 11
388.7645675618794
 21
127.13593111328861
 31
0.0
  0
LINE
  5
4948
  8
DANMEN
  6
CONTINUOUS
 10
390.41456613551298
 20
161.53593118170431
 30
0.0
 11
390.4145667533287
 21
146.63593118170431
 31
0.0
  0
LINE
  5
4949
  8
DANMEN
  6
CONTINUOUS
 10
408.76456751419551
 20
128.28593194257121
 30
0.0
 11
408.76456711821311
 21
137.83593194257119
 31
0.0
  0
LINE
  5
494A
  8
DANMEN
  6
CONTINUOUS
 10
410.96456751419561
 20
128.28593203379239
 30
0.0
 11
410.96456740431552
 21
130.93593203379231
 31
0.0
  0
LINE
  5
494B
  8
DANMEN
  6
CONTINUOUS
 10
412.26456751419562
 20
128.2859320876957
 30
0.0
 11
412.2645674167548
 21
130.63593208769569
 31
0.0
  0
LINE
  5
494C
  8
DANMEN
  6
CONTINUOUS
 10
407.56456751419552
 20
128.28593189281429
 30
0.0
 11
407.56456680308571
 21
145.4359318928143
 31
0.0
  0
ARC
  5
494D
  8
DANMEN
  6
CONTINUOUS
 10
415.16456747895103
 20
129.13593220794169
 30
0.0
 40
0.5
 50
180.00000237571979
 51
270.00000237572061
  0
LINE
  5
494E
  8
DANMEN
  6
CONTINUOUS
 10
415.96456747895098
 20
129.13593224111301
 30
0.0
 11
415.96456742504768
 21
130.43593224111299
 31
0.0
  0
LINE
  5
494F
  8
DANMEN
  6
CONTINUOUS
 10
415.16456749968307
 20
128.63593220794169
 30
0.0
 11
415.46456749968308
 21
128.63593222038091
 31
0.0
  0
LINE
  5
4950
  8
DANMEN
  6
CONTINUOUS
 10
414.66456747895103
 20
129.13593218720959
 30
0.0
 11
414.66456741675478
 21
130.63593218720959
 31
0.0
  0
LINE
  5
4951
  8
DANMEN
  6
CONTINUOUS
 10
411.96456736285148
 20
131.93593207525649
 30
0.0
 11
414.46456736285148
 21
131.9359321789168
 31
0.0
  0
LINE
  5
4952
  8
DANMEN
  6
CONTINUOUS
 10
412.2645674167548
 20
130.63593208769569
 30
0.0
 11
414.66456741675478
 21
130.63593218720959
 31
0.0
  0
LINE
  5
4953
  8
DANMEN
  6
CONTINUOUS
 10
412.76456758261139
 20
126.6359321084278
 30
0.0
 11
412.76456753492761
 21
127.7859321084278
 31
0.0
  0
ARC
  5
4954
  8
DANMEN
  6
CONTINUOUS
 10
389.2645675618794
 20
127.13593113402059
 30
0.0
 40
0.5
 50
180.00000237571979
 51
270.00000237572061
  0
LINE
  5
4955
  8
DANMEN
  6
CONTINUOUS
 10
389.26456758261139
 20
126.63593113402059
 30
0.0
 11
412.76456758261139
 21
126.6359321084278
 31
0.0
  0
LINE
  5
4956
  8
DANMEN
  6
CONTINUOUS
 10
390.4145667533287
 20
146.63593118170431
 30
0.0
 11
407.26456675332861
 21
146.63593188037501
 31
0.0
  0
LINE
  5
4957
  8
DANMEN
  6
CONTINUOUS
 10
411.46456706430962
 20
139.1359320545244
 30
0.0
 11
411.46456693991718
 21
142.1359320545244
 31
0.0
  0
LINE
  5
4958
  8
DANMEN
  6
CONTINUOUS
 10
390.41456751419548
 20
128.2859311817044
 30
0.0
 11
407.56456751419552
 21
128.28593189281429
 31
0.0
  0
LINE
  5
4959
  8
DANMEN
  6
CONTINUOUS
 10
390.41456680308568
 20
145.4359311817044
 30
0.0
 11
390.41456751419548
 21
128.2859311817044
 31
0.0
  0
LINE
  5
495A
  8
DANMEN
  6
CONTINUOUS
 10
408.76456751419551
 20
128.28593194257121
 30
0.0
 11
410.96456751419561
 21
128.28593203379239
 31
0.0
  0
ARC
  5
495B
  8
DANMEN
  6
CONTINUOUS
 10
412.26456753492761
 20
127.7859320876957
 30
0.0
 40
0.5
 50
0.0000023757198484
 51
90.000002375720655
  0
LINE
  5
495C
  8
DANMEN
  6
CONTINUOUS
 10
390.41456680308568
 20
145.4359311817044
 30
0.0
 11
407.56456680308571
 21
145.4359318928143
 31
0.0
  0
ARC
  5
495D
  8
DANMEN
  6
CONTINUOUS
 10
321.39727232177091
 20
142.1359335631017
 30
0.0
 40
1.0
 50
8.1301047298755762
 51
90.000002375719049
  0
ARC
  5
495E
  8
DANMEN
  6
CONTINUOUS
 10
322.18806296268951
 20
140.13593359589109
 30
0.0
 40
0.5
 50
270.00000237571902
 51
8.1301047298755762
  0
ARC
  5
495F
  8
DANMEN
  6
CONTINUOUS
 10
321.88501719932378
 20
140.1359335833256
 30
0.0
 40
0.5
 50
188.13010472987551
 51
270.00000237571902
  0
LINE
  5
4960
  8
DANMEN
  6
CONTINUOUS
 10
322.18806298342162
 20
139.63593359589109
 30
0.0
 11
321.88501722005589
 21
139.6359335833256
 31
0.0
  0
LINE
  5
4961
  8
DANMEN
  6
CONTINUOUS
 10
321.1370837137016
 20
141.83593355231321
 30
0.0
 11
321.3900424554252
 21
140.06522288468329
 31
0.0
  0
LINE
  5
4962
  8
DANMEN
  6
CONTINUOUS
 10
322.38722180956808
 20
142.27735496038639
 30
0.0
 11
322.6830377065881
 21
140.2066442945335
 31
0.0
  0
LINE
  5
4963
  8
DANMEN
  6
CONTINUOUS
 10
321.9645678271263
 20
139.63593358662411
 30
0.0
 11
322.26456782712631
 21
139.63593359906329
 31
0.0
  0
ARC
  5
4964
  8
DANMEN
  6
CONTINUOUS
 10
302.2645668941833
 20
162.13593276978071
 30
0.0
 40
0.5
 50
0.0000023757198484
 51
90.000002375719049
  0
ARC
  5
4965
  8
DANMEN
  6
CONTINUOUS
 10
301.96456692320811
 20
161.4359327573415
 30
0.0
 40
0.3
 50
180.00000237571979
 51
270.00000237571902
  0
LINE
  5
4966
  8
DANMEN
  6
CONTINUOUS
 10
301.66456691906171
 20
161.5359327449022
 30
0.0
 11
301.6645669232081
 21
161.4359327449022
 31
0.0
  0
LINE
  5
4967
  8
DANMEN
  6
CONTINUOUS
 10
301.66456691906171
 20
161.5359327449022
 30
0.0
 11
297.41456691906171
 21
161.53593256867961
 31
0.0
  0
ARC
  5
4968
  8
DANMEN
  6
CONTINUOUS
 10
314.26456759907347
 20
145.13593326735031
 30
0.0
 40
1.5
 50
0.0000023757198484
 51
90.000002375719049
  0
ARC
  5
4969
  8
DANMEN
  6
CONTINUOUS
 10
321.46456820859629
 20
130.43593356589199
 30
0.0
 40
1.5
 50
0.0000023757198484
 51
90.000002375719049
  0
ARC
  5
496A
  8
DANMEN
  6
CONTINUOUS
 10
318.76456786029757
 20
138.83593345393891
 30
0.0
 40
1.0
 50
270.00000237571902
 51
0.0000023757198484
  0
ARC
  5
496B
  8
DANMEN
  6
CONTINUOUS
 10
319.4645677234659
 20
142.13593348296379
 30
0.0
 40
1.0
 50
90.000002375719049
 51
180.00000237571979
  0
ARC
  5
496C
  8
DANMEN
  6
CONTINUOUS
 10
318.96456818786419
 20
130.9359334622317
 30
0.0
 40
1.0
 50
90.000002375719049
 51
180.00000237571979
  0
LINE
  5
496D
  8
DANMEN
  6
CONTINUOUS
 10
318.46456784785829
 20
139.13593344149959
 30
0.0
 11
315.76456783593738
 21
139.1359333295465
 31
0.0
  0
LINE
  5
496E
  8
DANMEN
  6
CONTINUOUS
 10
318.76456790176172
 20
137.83593345393891
 30
0.0
 11
315.76456788984081
 21
137.83593332954649
 31
0.0
  0
LINE
  5
496F
  8
DANMEN
  6
CONTINUOUS
 10
319.76456773590519
 20
141.835933495403
 30
0.0
 11
321.1370837137016
 21
141.83593355231321
 31
0.0
  0
LINE
  5
4970
  8
DANMEN
  6
CONTINUOUS
 10
319.76456786029752
 20
138.835933495403
 30
0.0
 11
319.76456773590519
 21
141.835933495403
 31
0.0
  0
LINE
  5
4971
  8
DANMEN
  6
CONTINUOUS
 10
315.76456784785842
 20
139.1359333295465
 30
0.0
 11
315.76456759907347
 21
145.1359333295465
 31
0.0
  0
LINE
  5
4972
  8
DANMEN
  6
CONTINUOUS
 10
319.46456768200181
 20
143.13593348296379
 30
0.0
 11
321.39727228030671
 21
143.1359335631017
 31
0.0
  0
ARC
  5
4973
  8
DANMEN
  6
CONTINUOUS
 10
322.46456826249971
 20
129.13593360735621
 30
0.0
 40
0.5
 50
270.00000237571902
 51
0.0000023757198484
  0
LINE
  5
4974
  8
DANMEN
  6
CONTINUOUS
 10
302.2645668734512
 20
162.63593276978071
 30
0.0
 11
296.26456687345109
 21
162.63593252099579
 31
0.0
  0
LINE
  5
4975
  8
DANMEN
  6
CONTINUOUS
 10
309.26456693564728
 20
161.1359330600296
 30
0.0
 11
301.96456693564738
 21
161.13593275734149
 31
0.0
  0
LINE
  5
4976
  8
DANMEN
  6
CONTINUOUS
 10
308.7645668941833
 20
162.1359330392975
 30
0.0
 11
308.76456687345109
 21
162.6359330392975
 31
0.0
  0
LINE
  5
4977
  8
DANMEN
  6
CONTINUOUS
 10
302.7645668941833
 20
162.1359327905127
 30
0.0
 11
308.7645668941833
 21
162.13593303929761
 31
0.0
  0
LINE
  5
4978
  8
DANMEN
  6
CONTINUOUS
 10
308.76456687345109
 20
162.63593303929761
 30
0.0
 11
309.2645668734512
 21
162.6359330600296
 31
0.0
  0
ARC
  5
4979
  8
DANMEN
  6
CONTINUOUS
 10
296.2645668941833
 20
162.13593252099579
 30
0.0
 40
0.5
 50
90.000002375719049
 51
180.00000237571979
  0
LINE
  5
497A
  8
DANMEN
  6
CONTINUOUS
 10
309.76456691491529
 20
161.6359330807617
 30
0.0
 11
309.7645668941833
 21
162.1359330807617
 31
0.0
  0
ARC
  5
497B
  8
DANMEN
  6
CONTINUOUS
 10
309.26456691491529
 20
161.6359330600296
 30
0.0
 40
0.5
 50
270.00000237571902
 51
0.0000023757198484
  0
ARC
  5
497C
  8
DANMEN
  6
CONTINUOUS
 10
309.2645668941833
 20
162.1359330600296
 30
0.0
 40
0.5
 50
0.0000023757198484
 51
90.000002375719049
  0
LINE
  5
497D
  8
DANMEN
  6
CONTINUOUS
 10
295.76456689418319
 20
162.13593250026381
 30
0.0
 11
295.76456834542802
 21
127.13593250026381
 31
0.0
  0
LINE
  5
497E
  8
DANMEN
  6
CONTINUOUS
 10
297.41456691906171
 20
161.53593256867961
 30
0.0
 11
297.41456753687731
 21
146.63593256867961
 31
0.0
  0
LINE
  5
497F
  8
DANMEN
  6
CONTINUOUS
 10
315.76456829774418
 20
128.28593332954651
 30
0.0
 11
315.76456790176172
 21
137.83593332954649
 31
0.0
  0
LINE
  5
4980
  8
DANMEN
  6
CONTINUOUS
 10
317.96456829774422
 20
128.28593342076761
 30
0.0
 11
317.9645681878643
 21
130.93593342076761
 31
0.0
  0
LINE
  5
4981
  8
DANMEN
  6
CONTINUOUS
 10
319.26456829774418
 20
128.285933474671
 30
0.0
 11
319.26456820030347
 21
130.63593347467091
 31
0.0
  0
LINE
  5
4982
  8
DANMEN
  6
CONTINUOUS
 10
314.56456829774419
 20
128.2859332797895
 30
0.0
 11
314.56456758663433
 21
145.43593327978951
 31
0.0
  0
ARC
  5
4983
  8
DANMEN
  6
CONTINUOUS
 10
322.1645682624997
 20
129.13593359491691
 30
0.0
 40
0.5
 50
180.00000237571979
 51
270.00000237571902
  0
LINE
  5
4984
  8
DANMEN
  6
CONTINUOUS
 10
322.96456826249971
 20
129.13593362808831
 30
0.0
 11
322.96456820859629
 21
130.43593362808821
 31
0.0
  0
LINE
  5
4985
  8
DANMEN
  6
CONTINUOUS
 10
322.16456828323169
 20
128.63593359491691
 30
0.0
 11
322.46456828323181
 21
128.63593360735621
 31
0.0
  0
LINE
  5
4986
  8
DANMEN
  6
CONTINUOUS
 10
321.6645682624997
 20
129.13593357418489
 30
0.0
 11
321.66456820030351
 21
130.63593357418489
 31
0.0
  0
LINE
  5
4987
  8
DANMEN
  6
CONTINUOUS
 10
318.9645681464001
 20
131.9359334622317
 30
0.0
 11
321.4645681464001
 21
131.9359335658921
 31
0.0
  0
LINE
  5
4988
  8
DANMEN
  6
CONTINUOUS
 10
319.26456820030347
 20
130.63593347467091
 30
0.0
 11
321.66456820030351
 21
130.63593357418489
 31
0.0
  0
LINE
  5
4989
  8
DANMEN
  6
CONTINUOUS
 10
319.76456836616001
 20
126.63593349540299
 30
0.0
 11
319.76456831847628
 21
127.785933495403
 31
0.0
  0
ARC
  5
498A
  8
DANMEN
  6
CONTINUOUS
 10
296.26456834542802
 20
127.13593252099579
 30
0.0
 40
0.5
 50
180.00000237571979
 51
270.00000237571902
  0
LINE
  5
498B
  8
DANMEN
  6
CONTINUOUS
 10
296.26456836616001
 20
126.63593252099579
 30
0.0
 11
319.76456836616001
 21
126.63593349540299
 31
0.0
  0
LINE
  5
498C
  8
DANMEN
  6
CONTINUOUS
 10
297.41456753687731
 20
146.63593256867961
 30
0.0
 11
314.26456753687739
 21
146.63593326735031
 31
0.0
  0
LINE
  5
498D
  8
DANMEN
  6
CONTINUOUS
 10
318.46456784785829
 20
139.13593344149959
 30
0.0
 11
318.4645677234659
 21
142.13593344149959
 31
0.0
  0
LINE
  5
498E
  8
DANMEN
  6
CONTINUOUS
 10
297.41456829774421
 20
128.28593256867961
 30
0.0
 11
314.56456829774419
 21
128.2859332797895
 31
0.0
  0
LINE
  5
498F
  8
DANMEN
  6
CONTINUOUS
 10
297.41456758663429
 20
145.43593256867959
 30
0.0
 11
297.41456829774421
 21
128.28593256867961
 31
0.0
  0
LINE
  5
4990
  8
DANMEN
  6
CONTINUOUS
 10
315.76456829774418
 20
128.28593332954651
 30
0.0
 11
317.96456829774422
 21
128.28593342076761
 31
0.0
  0
ARC
  5
4991
  8
DANMEN
  6
CONTINUOUS
 10
319.26456831847622
 20
127.785933474671
 30
0.0
 40
0.5
 50
0.0000023757198484
 51
90.000002375719049
  0
LINE
  5
4992
  8
DANMEN
  6
CONTINUOUS
 10
297.41456758663429
 20
145.43593256867959
 30
0.0
 11
314.56456758663433
 21
145.43593327978951
 31
0.0
  0
ARC
  5
4993
  8
DANMEN
  6
CONTINUOUS
 10
350.13186312516098
 20
142.1359308983921
 30
0.0
 40
0.9999999999999998
 50
90.000002375719049
 51
171.86990002156361
  0
ARC
  5
4994
  8
DANMEN
  6
CONTINUOUS
 10
349.34107265009891
 20
140.13593086560269
 30
0.0
 40
0.5
 50
171.86990002156361
 51
270.00000237571902
  0
ARC
  5
4995
  8
DANMEN
  6
CONTINUOUS
 10
349.64411841346458
 20
140.13593087816821
 30
0.0
 40
0.5
 50
270.00000237571902
 51
351.86990002156352
  0
LINE
  5
4996
  8
DANMEN
  6
CONTINUOUS
 10
349.34107267083101
 20
139.63593086560269
 30
0.0
 11
349.64411843419663
 21
139.63593087816821
 31
0.0
  0
LINE
  5
4997
  8
DANMEN
  6
CONTINUOUS
 10
350.39205175810878
 20
141.8359309091806
 30
0.0
 11
350.13909316322707
 21
140.06522022057331
 31
0.0
  0
LINE
  5
4998
  8
DANMEN
  6
CONTINUOUS
 10
349.14191362563599
 20
142.27735221358211
 30
0.0
 11
348.84609790033642
 21
140.2066415231977
 31
0.0
  0
LINE
  5
4999
  8
DANMEN
  6
CONTINUOUS
 10
349.56456782712633
 20
139.6359308748697
 30
0.0
 11
349.26456782712631
 21
139.63593086243051
 31
0.0
  0
ARC
  5
499A
  8
DANMEN
  6
CONTINUOUS
 10
369.26456689418308
 20
162.13593169171321
 30
0.0
 40
0.5
 50
90.000002375719049
 51
180.00000237571979
  0
ARC
  5
499B
  8
DANMEN
  6
CONTINUOUS
 10
369.56456692320819
 20
161.43593170415249
 30
0.0
 40
0.2999999999999999
 50
270.00000237571902
 51
0.0000023757198484
  0
LINE
  5
499C
  8
DANMEN
  6
CONTINUOUS
 10
369.8645669190617
 20
161.5359317165917
 30
0.0
 11
369.86456692320809
 21
161.43593171659171
 31
0.0
  0
LINE
  5
499D
  8
DANMEN
  6
CONTINUOUS
 10
369.8645669190617
 20
161.5359317165917
 30
0.0
 11
374.1145669190617
 21
161.53593189281429
 31
0.0
  0
ARC
  5
499E
  8
DANMEN
  6
CONTINUOUS
 10
357.26456759907359
 20
145.13593119414361
 30
0.0
 40
1.499999999999998
 50
90.000002375719049
 51
180.00000237571979
  0
ARC
  5
499F
  8
DANMEN
  6
CONTINUOUS
 10
350.06456820859643
 20
130.43593089560181
 30
0.0
 40
1.499999999999998
 50
90.000002375719049
 51
180.00000237571979
  0
ARC
  5
49A0
  8
DANMEN
  6
CONTINUOUS
 10
352.76456786029757
 20
138.83593100755499
 30
0.0
 40
0.9999999999999998
 50
180.00000237571979
 51
270.00000237571902
  0
ARC
  5
49A1
  8
DANMEN
  6
CONTINUOUS
 10
352.06456772346593
 20
142.1359309785301
 30
0.0
 40
0.9999999999999998
 50
0.0000023757198484
 51
90.000002375719049
  0
ARC
  5
49A2
  8
DANMEN
  6
CONTINUOUS
 10
352.56456818786432
 20
130.93593099926221
 30
0.0
 40
0.9999999999999998
 50
0.0000023757198484
 51
90.000002375719049
  0
LINE
  5
49A3
  8
DANMEN
  6
CONTINUOUS
 10
353.06456784785831
 20
139.13593101999419
 30
0.0
 11
355.76456785977928
 21
139.13593113194739
 31
0.0
  0
LINE
  5
49A4
  8
DANMEN
  6
CONTINUOUS
 10
352.76456790176172
 20
137.83593100755499
 30
0.0
 11
355.7645679136827
 21
137.8359311319474
 31
0.0
  0
LINE
  5
49A5
  8
DANMEN
  6
CONTINUOUS
 10
351.76456773590519
 20
141.83593096609081
 30
0.0
 11
350.39205175810878
 21
141.8359309091806
 31
0.0
  0
LINE
  5
49A6
  8
DANMEN
  6
CONTINUOUS
 10
351.76456786029757
 20
138.83593096609081
 30
0.0
 11
351.76456773590519
 21
141.83593096609081
 31
0.0
  0
LINE
  5
49A7
  8
DANMEN
  6
CONTINUOUS
 10
355.76456784785842
 20
139.13593113194739
 30
0.0
 11
355.76456759907359
 21
145.13593113194739
 31
0.0
  0
LINE
  5
49A8
  8
DANMEN
  6
CONTINUOUS
 10
352.06456768200189
 20
143.1359309785301
 30
0.0
 11
350.131863083697
 21
143.1359308983921
 31
0.0
  0
ARC
  5
49A9
  8
DANMEN
  6
CONTINUOUS
 10
349.06456826249979
 20
129.13593085413771
 30
0.0
 40
0.5
 50
180.00000237571979
 51
270.00000237571902
  0
LINE
  5
49AA
  8
DANMEN
  6
CONTINUOUS
 10
369.26456687345109
 20
162.63593169171321
 30
0.0
 11
375.26456687345109
 21
162.63593194049801
 31
0.0
  0
LINE
  5
49AB
  8
DANMEN
  6
CONTINUOUS
 10
362.26456693564739
 20
161.13593140146429
 30
0.0
 11
369.56456693564741
 21
161.13593170415251
 31
0.0
  0
LINE
  5
49AC
  8
DANMEN
  6
CONTINUOUS
 10
362.7645668941833
 20
162.13593142219631
 30
0.0
 11
362.76456687345109
 21
162.63593142219631
 31
0.0
  0
LINE
  5
49AD
  8
DANMEN
  6
CONTINUOUS
 10
368.7645668941833
 20
162.13593167098119
 30
0.0
 11
362.7645668941833
 21
162.13593142219639
 31
0.0
  0
LINE
  5
49AE
  8
DANMEN
  6
CONTINUOUS
 10
362.76456687345109
 20
162.63593142219639
 30
0.0
 11
362.2645668734512
 21
162.63593140146429
 31
0.0
  0
ARC
  5
49AF
  8
DANMEN
  6
CONTINUOUS
 10
375.2645668941833
 20
162.13593194049801
 30
0.0
 40
0.5
 50
0.0000023757198484
 51
90.000002375719049
  0
LINE
  5
49B0
  8
DANMEN
  6
CONTINUOUS
 10
361.76456691491518
 20
161.6359313807323
 30
0.0
 11
361.7645668941833
 21
162.1359313807323
 31
0.0
  0
ARC
  5
49B1
  8
DANMEN
  6
CONTINUOUS
 10
362.26456691491518
 20
161.63593140146429
 30
0.0
 40
0.5
 50
180.00000237571979
 51
270.00000237571902
  0
ARC
  5
49B2
  8
DANMEN
  6
CONTINUOUS
 10
362.26456689418319
 20
162.13593140146429
 30
0.0
 40
0.5
 50
90.000002375719049
 51
180.00000237571979
  0
LINE
  5
49B3
  8
DANMEN
  6
CONTINUOUS
 10
375.7645668941833
 20
162.13593196123011
 30
0.0
 11
375.76456834542802
 21
127.1359319612301
 31
0.0
  0
LINE
  5
49B4
  8
DANMEN
  6
CONTINUOUS
 10
374.1145669190617
 20
161.53593189281429
 30
0.0
 11
374.11456753687742
 21
146.63593189281431
 31
0.0
  0
LINE
  5
49B5
  8
DANMEN
  6
CONTINUOUS
 10
355.76456829774412
 20
128.28593113194739
 30
0.0
 11
355.76456790176178
 21
137.8359311319474
 31
0.0
  0
LINE
  5
49B6
  8
DANMEN
  6
CONTINUOUS
 10
353.56456829774407
 20
128.2859310407263
 30
0.0
 11
353.56456818786432
 21
130.9359310407263
 31
0.0
  0
LINE
  5
49B7
  8
DANMEN
  6
CONTINUOUS
 10
352.26456829774418
 20
128.2859309868229
 30
0.0
 11
352.26456820030359
 21
130.6359309868229
 31
0.0
  0
LINE
  5
49B8
  8
DANMEN
  6
CONTINUOUS
 10
356.96456829774428
 20
128.2859311817044
 30
0.0
 11
356.9645675866343
 21
145.4359311817044
 31
0.0
  0
ARC
  5
49B9
  8
DANMEN
  6
CONTINUOUS
 10
349.3645682624998
 20
129.1359308665769
 30
0.0
 40
0.5
 50
270.00000237571902
 51
0.0000023757198484
  0
LINE
  5
49BA
  8
DANMEN
  6
CONTINUOUS
 10
348.56456826249979
 20
129.13593083340561
 30
0.0
 11
348.56456820859643
 21
130.43593083340559
 31
0.0
  0
LINE
  5
49BB
  8
DANMEN
  6
CONTINUOUS
 10
349.36456828323179
 20
128.6359308665769
 30
0.0
 11
349.06456828323178
 21
128.63593085413771
 31
0.0
  0
LINE
  5
49BC
  8
DANMEN
  6
CONTINUOUS
 10
349.8645682624998
 20
129.135930887309
 30
0.0
 11
349.86456820030349
 21
130.635930887309
 31
0.0
  0
LINE
  5
49BD
  8
DANMEN
  6
CONTINUOUS
 10
352.56456814640018
 20
131.93593099926221
 30
0.0
 11
350.06456814640012
 21
131.93593089560181
 31
0.0
  0
LINE
  5
49BE
  8
DANMEN
  6
CONTINUOUS
 10
352.26456820030359
 20
130.6359309868229
 30
0.0
 11
349.86456820030349
 21
130.635930887309
 31
0.0
  0
LINE
  5
49BF
  8
DANMEN
  6
CONTINUOUS
 10
351.76456836616012
 20
126.6359309660909
 30
0.0
 11
351.76456831847628
 21
127.7859309660908
 31
0.0
  0
ARC
  5
49C0
  8
DANMEN
  6
CONTINUOUS
 10
375.26456834542802
 20
127.135931940498
 30
0.0
 40
0.5
 50
270.00000237571902
 51
0.0000023757198484
  0
LINE
  5
49C1
  8
DANMEN
  6
CONTINUOUS
 10
375.26456836616001
 20
126.635931940498
 30
0.0
 11
351.76456836616012
 21
126.6359309660909
 31
0.0
  0
LINE
  5
49C2
  8
DANMEN
  6
CONTINUOUS
 10
374.11456753687742
 20
146.63593189281431
 30
0.0
 11
357.26456753687728
 21
146.63593119414361
 31
0.0
  0
LINE
  5
49C3
  8
DANMEN
  6
CONTINUOUS
 10
353.06456784785831
 20
139.13593101999419
 30
0.0
 11
353.06456772346593
 21
142.13593101999419
 31
0.0
  0
LINE
  5
49C4
  8
DANMEN
  6
CONTINUOUS
 10
374.1145682977442
 20
128.28593189281429
 30
0.0
 11
356.96456829774428
 21
128.2859311817044
 31
0.0
  0
LINE
  5
49C5
  8
DANMEN
  6
CONTINUOUS
 10
374.11456758663422
 20
145.43593189281421
 30
0.0
 11
374.1145682977442
 21
128.28593189281429
 31
0.0
  0
LINE
  5
49C6
  8
DANMEN
  6
CONTINUOUS
 10
355.76456829774412
 20
128.28593113194739
 30
0.0
 11
353.56456829774407
 21
128.2859310407263
 31
0.0
  0
ARC
  5
49C7
  8
DANMEN
  6
CONTINUOUS
 10
352.26456831847628
 20
127.7859309868229
 30
0.0
 40
0.5
 50
90.000002375719049
 51
180.00000237571979
  0
LINE
  5
49C8
  8
DANMEN
  6
CONTINUOUS
 10
374.11456758663422
 20
145.43593189281421
 30
0.0
 11
356.9645675866343
 21
145.4359311817044
 31
0.0
  0
ARC
  5
49C9
  8
DANMEN
  6
CONTINUOUS
 10
257.13186461981962
 20
142.1359308983921
 30
0.0
 40
0.9999999999999998
 50
90.000002375720655
 51
171.86990002156361
  0
ARC
  5
49CA
  8
DANMEN
  6
CONTINUOUS
 10
256.3410741447575
 20
140.13593086560269
 30
0.0
 40
0.5
 50
171.86990002156361
 51
270.00000237572061
  0
ARC
  5
49CB
  8
DANMEN
  6
CONTINUOUS
 10
256.64411990812317
 20
140.13593087816821
 30
0.0
 40
0.5
 50
270.00000237572061
 51
351.86990002156352
  0
LINE
  5
49CC
  8
DANMEN
  6
CONTINUOUS
 10
256.34107416548949
 20
139.63593086560269
 30
0.0
 11
256.64411992885522
 21
139.63593087816821
 31
0.0
  0
LINE
  5
49CD
  8
DANMEN
  6
CONTINUOUS
 10
257.39205325276743
 20
141.8359309091806
 30
0.0
 11
257.13909465788572
 21
140.06522022057331
 31
0.0
  0
LINE
  5
49CE
  8
DANMEN
  6
CONTINUOUS
 10
256.14191512029458
 20
142.27735221358211
 30
0.0
 11
255.84609939499501
 21
140.2066415231977
 31
0.0
  0
LINE
  5
49CF
  8
DANMEN
  6
CONTINUOUS
 10
256.56456932178492
 20
139.6359308748697
 30
0.0
 11
256.2645693217849
 21
139.63593086243051
 31
0.0
  0
ARC
  5
49D0
  8
DANMEN
  6
CONTINUOUS
 10
276.26456838884178
 20
162.13593169171321
 30
0.0
 40
0.5
 50
90.000002375720655
 51
180.00000237571979
  0
ARC
  5
49D1
  8
DANMEN
  6
CONTINUOUS
 10
276.56456841786678
 20
161.43593170415241
 30
0.0
 40
0.2999999999999999
 50
270.00000237572061
 51
0.0000023757198484
  0
LINE
  5
49D2
  8
DANMEN
  6
CONTINUOUS
 10
276.86456841372029
 20
161.5359317165917
 30
0.0
 11
276.86456841786668
 21
161.43593171659171
 31
0.0
  0
LINE
  5
49D3
  8
DANMEN
  6
CONTINUOUS
 10
276.86456841372029
 20
161.5359317165917
 30
0.0
 11
281.11456841372029
 21
161.53593189281429
 31
0.0
  0
ARC
  5
49D4
  8
DANMEN
  6
CONTINUOUS
 10
264.26456909373212
 20
145.13593119414361
 30
0.0
 40
1.499999999999998
 50
90.000002375720655
 51
180.00000237571979
  0
ARC
  5
49D5
  8
DANMEN
  6
CONTINUOUS
 10
257.0645697032549
 20
130.43593089560181
 30
0.0
 40
1.499999999999998
 50
90.000002375720655
 51
180.00000237571979
  0
ARC
  5
49D6
  8
DANMEN
  6
CONTINUOUS
 10
259.76456935495622
 20
138.83593100755499
 30
0.0
 40
0.9999999999999998
 50
180.00000237571979
 51
270.00000237572061
  0
ARC
  5
49D7
  8
DANMEN
  6
CONTINUOUS
 10
259.06456921812452
 20
142.1359309785301
 30
0.0
 40
0.9999999999999998
 50
0.0000023757198484
 51
90.000002375720655
  0
ARC
  5
49D8
  8
DANMEN
  6
CONTINUOUS
 10
259.56456968252292
 20
130.93593099926221
 30
0.0
 40
0.9999999999999998
 50
0.0000023757198484
 51
90.000002375720655
  0
LINE
  5
49D9
  8
DANMEN
  6
CONTINUOUS
 10
260.0645693425169
 20
139.13593101999419
 30
0.0
 11
262.76456935443792
 21
139.13593113194739
 31
0.0
  0
LINE
  5
49DA
  8
DANMEN
  6
CONTINUOUS
 10
259.76456939642031
 20
137.83593100755499
 30
0.0
 11
262.76456940834117
 21
137.8359311319474
 31
0.0
  0
LINE
  5
49DB
  8
DANMEN
  6
CONTINUOUS
 10
258.76456923056378
 20
141.83593096609081
 30
0.0
 11
257.39205325276743
 21
141.8359309091806
 31
0.0
  0
LINE
  5
49DC
  8
DANMEN
  6
CONTINUOUS
 10
258.76456935495622
 20
138.83593096609081
 30
0.0
 11
258.76456923056378
 21
141.83593096609081
 31
0.0
  0
LINE
  5
49DD
  8
DANMEN
  6
CONTINUOUS
 10
262.76456934251689
 20
139.13593113194739
 30
0.0
 11
262.76456909373212
 21
145.1359311319473
 31
0.0
  0
LINE
  5
49DE
  8
DANMEN
  6
CONTINUOUS
 10
259.06456917666043
 20
143.1359309785301
 30
0.0
 11
257.13186457835548
 21
143.1359308983921
 31
0.0
  0
ARC
  5
49DF
  8
DANMEN
  6
CONTINUOUS
 10
256.06456975715832
 20
129.13593085413771
 30
0.0
 40
0.5
 50
180.00000237571979
 51
270.00000237572061
  0
LINE
  5
49E0
  8
DANMEN
  6
CONTINUOUS
 10
276.26456836810968
 20
162.63593169171321
 30
0.0
 11
282.26456836810979
 21
162.63593194049801
 31
0.0
  0
LINE
  5
49E1
  8
DANMEN
  6
CONTINUOUS
 10
269.26456843030593
 20
161.13593140146429
 30
0.0
 11
276.564568430306
 21
161.13593170415251
 31
0.0
  0
LINE
  5
49E2
  8
DANMEN
  6
CONTINUOUS
 10
269.76456838884178
 20
162.13593142219631
 30
0.0
 11
269.76456836810979
 21
162.63593142219631
 31
0.0
  0
LINE
  5
49E3
  8
DANMEN
  6
CONTINUOUS
 10
275.76456838884178
 20
162.13593167098111
 30
0.0
 11
269.76456838884178
 21
162.13593142219639
 31
0.0
  0
LINE
  5
49E4
  8
DANMEN
  6
CONTINUOUS
 10
269.76456836810979
 20
162.63593142219631
 30
0.0
 11
269.26456836810979
 21
162.63593140146429
 31
0.0
  0
ARC
  5
49E5
  8
DANMEN
  6
CONTINUOUS
 10
282.26456838884178
 20
162.13593194049801
 30
0.0
 40
0.5
 50
0.0000023757198484
 51
90.000002375720655
  0
LINE
  5
49E6
  8
DANMEN
  6
CONTINUOUS
 10
268.76456840957388
 20
161.63593138073219
 30
0.0
 11
268.76456838884189
 21
162.13593138073219
 31
0.0
  0
ARC
  5
49E7
  8
DANMEN
  6
CONTINUOUS
 10
269.26456840957388
 20
161.63593140146429
 30
0.0
 40
0.5
 50
180.00000237571979
 51
270.00000237572061
  0
ARC
  5
49E8
  8
DANMEN
  6
CONTINUOUS
 10
269.26456838884178
 20
162.13593140146429
 30
0.0
 40
0.5
 50
90.000002375720655
 51
180.00000237571979
  0
LINE
  5
49E9
  8
DANMEN
  6
CONTINUOUS
 10
282.76456838884189
 20
162.13593196123011
 30
0.0
 11
282.76456984008649
 21
127.1359319612301
 31
0.0
  0
LINE
  5
49EA
  8
DANMEN
  6
CONTINUOUS
 10
281.11456841372029
 20
161.53593189281429
 30
0.0
 11
281.11456903153601
 21
146.63593189281431
 31
0.0
  0
LINE
  5
49EB
  8
DANMEN
  6
CONTINUOUS
 10
262.76456979240288
 20
128.28593113194739
 30
0.0
 11
262.76456939642031
 21
137.8359311319474
 31
0.0
  0
LINE
  5
49EC
  8
DANMEN
  6
CONTINUOUS
 10
260.56456979240278
 20
128.2859310407263
 30
0.0
 11
260.56456968252292
 21
130.93593104072619
 31
0.0
  0
LINE
  5
49ED
  8
DANMEN
  6
CONTINUOUS
 10
259.26456979240282
 20
128.2859309868229
 30
0.0
 11
259.26456969496212
 21
130.6359309868229
 31
0.0
  0
LINE
  5
49EE
  8
DANMEN
  6
CONTINUOUS
 10
263.96456979240281
 20
128.28593118170431
 30
0.0
 11
263.96456908129278
 21
145.43593118170429
 31
0.0
  0
ARC
  5
49EF
  8
DANMEN
  6
CONTINUOUS
 10
256.36456975715828
 20
129.1359308665769
 30
0.0
 40
0.5
 50
270.00000237572061
 51
0.0000023757198484
  0
LINE
  5
49F0
  8
DANMEN
  6
CONTINUOUS
 10
255.5645697571583
 20
129.13593083340561
 30
0.0
 11
255.5645697032549
 21
130.43593083340559
 31
0.0
  0
LINE
  5
49F1
  8
DANMEN
  6
CONTINUOUS
 10
256.36456977789038
 20
128.6359308665769
 30
0.0
 11
256.06456977789043
 21
128.63593085413771
 31
0.0
  0
LINE
  5
49F2
  8
DANMEN
  6
CONTINUOUS
 10
256.86456975715828
 20
129.135930887309
 30
0.0
 11
256.86456969496209
 21
130.635930887309
 31
0.0
  0
LINE
  5
49F3
  8
DANMEN
  6
CONTINUOUS
 10
259.56456964105871
 20
131.9359309992621
 30
0.0
 11
257.06456964105871
 21
131.93593089560181
 31
0.0
  0
LINE
  5
49F4
  8
DANMEN
  6
CONTINUOUS
 10
259.26456969496212
 20
130.6359309868229
 30
0.0
 11
256.86456969496209
 21
130.635930887309
 31
0.0
  0
LINE
  5
49F5
  8
DANMEN
  6
CONTINUOUS
 10
258.76456986081871
 20
126.6359309660908
 30
0.0
 11
258.76456981313493
 21
127.7859309660908
 31
0.0
  0
ARC
  5
49F6
  8
DANMEN
  6
CONTINUOUS
 10
282.26456984008649
 20
127.135931940498
 30
0.0
 40
0.5
 50
270.00000237572061
 51
0.0000023757198484
  0
LINE
  5
49F7
  8
DANMEN
  6
CONTINUOUS
 10
282.2645698608186
 20
126.635931940498
 30
0.0
 11
258.76456986081871
 21
126.6359309660908
 31
0.0
  0
LINE
  5
49F8
  8
DANMEN
  6
CONTINUOUS
 10
281.11456903153601
 20
146.63593189281431
 30
0.0
 11
264.26456903153593
 21
146.63593119414361
 31
0.0
  0
LINE
  5
49F9
  8
DANMEN
  6
CONTINUOUS
 10
260.0645693425169
 20
139.13593101999419
 30
0.0
 11
260.06456921812452
 21
142.13593101999419
 31
0.0
  0
LINE
  5
49FA
  8
DANMEN
  6
CONTINUOUS
 10
281.11456979240279
 20
128.2859318928142
 30
0.0
 11
263.96456979240281
 21
128.28593118170431
 31
0.0
  0
LINE
  5
49FB
  8
DANMEN
  6
CONTINUOUS
 10
281.11456908129293
 20
145.43593189281421
 30
0.0
 11
281.11456979240279
 21
128.2859318928142
 31
0.0
  0
LINE
  5
49FC
  8
DANMEN
  6
CONTINUOUS
 10
262.76456979240288
 20
128.28593113194739
 30
0.0
 11
260.56456979240278
 21
128.2859310407263
 31
0.0
  0
ARC
  5
49FD
  8
DANMEN
  6
CONTINUOUS
 10
259.26456981313493
 20
127.7859309868229
 30
0.0
 40
0.5
 50
90.000002375720655
 51
180.00000237571979
  0
LINE
  5
49FE
  8
DANMEN
  6
CONTINUOUS
 10
281.11456908129293
 20
145.43593189281421
 30
0.0
 11
263.96456908129278
 21
145.43593118170429
 31
0.0
  0
LINE
  5
49FF
  8
DANMEN
  6
CONTINUOUS
 10
184.26458872644591
 20
148.3881896193827
 30
0.0
 11
185.56458872644589
 21
148.3881896193827
 31
0.0
  0
LINE
  5
4A00
  8
DANMEN
  6
CONTINUOUS
 10
185.56458872644589
 20
162.23818961938269
 30
0.0
 11
185.56458872644589
 21
148.3881896193827
 31
0.0
  0
LINE
  5
4A01
  8
DANMEN
  6
CONTINUOUS
 10
156.76458872644591
 20
163.8881896193827
 30
0.0
 11
185.1145887264459
 21
163.8881896193827
 31
0.0
  0
LINE
  5
4A02
  8
DANMEN
  6
CONTINUOUS
 10
186.76458872644591
 20
168.8881896193827
 30
0.0
 11
186.76458872644591
 21
158.6881896193828
 31
0.0
  0
ARC
  5
4A03
  8
DANMEN
  6
CONTINUOUS
 10
151.26458872644591
 20
168.3881896193827
 30
0.0
 40
0.5
 50
90.0
 51
180.0
  0
LINE
  5
4A04
  8
DANMEN
  6
CONTINUOUS
 10
151.26458872644591
 20
161.8881896193827
 30
0.0
 11
151.26458872644591
 21
155.8881896193827
 31
0.0
  0
LINE
  5
4A05
  8
DANMEN
  6
CONTINUOUS
 10
151.26458872644591
 20
155.8881896193827
 30
0.0
 11
150.76458872644599
 21
155.8881896193827
 31
0.0
  0
LINE
  5
4A06
  8
DANMEN
  6
CONTINUOUS
 10
151.26458872644591
 20
168.8881896193827
 30
0.0
 11
156.26458872644591
 21
168.8881896193827
 31
0.0
  0
LINE
  5
4A07
  8
DANMEN
  6
CONTINUOUS
 10
156.76458872644591
 20
168.3881896193827
 30
0.0
 11
156.76458872644591
 21
163.8881896193827
 31
0.0
  0
LINE
  5
4A08
  8
DANMEN
  6
CONTINUOUS
 10
185.1145887264459
 20
167.8881896193827
 30
0.0
 11
185.1145887264459
 21
163.8881896193827
 31
0.0
  0
LINE
  5
4A09
  8
DANMEN
  6
CONTINUOUS
 10
184.76458872644591
 20
168.8881896193827
 30
0.0
 11
186.76458872644591
 21
168.8881896193827
 31
0.0
  0
LINE
  5
4A0A
  8
DANMEN
  6
CONTINUOUS
 10
186.76458872644591
 20
158.6881896193828
 30
0.0
 11
188.76458872644591
 21
158.6881896193828
 31
0.0
  0
LINE
  5
4A0B
  8
DANMEN
  6
CONTINUOUS
 10
186.76458872644591
 20
157.68818961938271
 30
0.0
 11
186.76458872644591
 21
147.8881896193827
 31
0.0
  0
LINE
  5
4A0C
  8
DANMEN
  6
CONTINUOUS
 10
184.76458872644591
 20
147.3881896193827
 30
0.0
 11
186.26458872644591
 21
147.3881896193827
 31
0.0
  0
LINE
  5
4A0D
  8
DANMEN
  6
CONTINUOUS
 10
184.26458872644591
 20
148.3881896193827
 30
0.0
 11
184.26458872644591
 21
147.8881896193827
 31
0.0
  0
ARC
  5
4A0E
  8
DANMEN
  6
CONTINUOUS
 10
186.26458872644591
 20
147.8881896193827
 30
0.0
 40
0.5
 50
270.0
 51
0.0
  0
ARC
  5
4A0F
  8
DANMEN
  6
CONTINUOUS
 10
184.76458872644591
 20
147.8881896193827
 30
0.0
 40
0.5
 50
180.0
 51
270.0
  0
LINE
  5
4A10
  8
DANMEN
  6
CONTINUOUS
 10
184.26458872644591
 20
167.8881896193827
 30
0.0
 11
185.1145887264459
 21
167.8881896193827
 31
0.0
  0
ARC
  5
4A11
  8
DANMEN
  6
CONTINUOUS
 10
156.26458872644591
 20
168.3881896193827
 30
0.0
 40
0.5
 50
0.0
 51
90.0
  0
LINE
  5
4A12
  8
DANMEN
  6
CONTINUOUS
 10
186.76458872644591
 20
157.68818961938271
 30
0.0
 11
188.76458872644591
 21
157.68818961938271
 31
0.0
  0
ARC
  5
4A13
  8
DANMEN
  6
CONTINUOUS
 10
188.76458872644591
 20
158.18818961938271
 30
0.0
 40
0.5
 50
270.0
 51
90.0
  0
LINE
  5
4A14
  8
DANMEN
  6
CONTINUOUS
 10
156.6145887264459
 20
162.23818961938269
 30
0.0
 11
185.56458872644589
 21
162.23818961938269
 31
0.0
  0
LINE
  5
4A15
  8
DANMEN
  6
CONTINUOUS
 10
155.1145887264459
 20
167.23818961938269
 30
0.0
 11
155.1145887264459
 21
163.73818961938269
 31
0.0
  0
LINE
  5
4A16
  8
DANMEN
  6
CONTINUOUS
 10
152.26458872644591
 20
167.23818961938269
 30
0.0
 11
155.1145887264459
 21
167.23818961938269
 31
0.0
  0
ARC
  5
4A17
  8
DANMEN
  6
CONTINUOUS
 10
156.6145887264459
 20
163.73818961938269
 30
0.0
 40
1.5
 50
180.0
 51
270.0
  0
ARC
  5
4A18
  8
DANMEN
  6
CONTINUOUS
 10
151.26458872644591
 20
162.3881896193827
 30
0.0
 40
0.5
 50
180.0
 51
270.0
  0
LINE
  5
4A19
  8
DANMEN
  6
CONTINUOUS
 10
184.26458872644591
 20
168.3881896193827
 30
0.0
 11
184.26458872644591
 21
167.8881896193827
 31
0.0
  0
ARC
  5
4A1A
  8
DANMEN
  6
CONTINUOUS
 10
184.76458872644591
 20
168.3881896193827
 30
0.0
 40
0.5
 50
90.0
 51
180.0
  0
LINE
  5
4A1B
  8
DANMEN
  6
CONTINUOUS
 10
150.76458872644599
 20
146.38818962904239
 30
0.0
 11
150.76458872644599
 21
155.8881896193827
 31
0.0
  0
LINE
  5
4A1C
  8
DANMEN
  6
CONTINUOUS
 10
151.26458875495129
 20
145.88818961938281
 30
0.0
 11
151.76458875495121
 21
145.88818961938281
 31
0.0
  0
ARC
  5
4A1D
  8
DANMEN
  6
CONTINUOUS
 10
151.76458872644599
 20
146.38818961938281
 30
0.0
 40
0.5
 50
270.0
 51
0.0
  0
ARC
  5
4A1E
  8
DANMEN
  6
CONTINUOUS
 10
151.26458872644591
 20
146.38818961938281
 30
0.0
 40
0.5
 50
180.0
 51
270.0
  0
LINE
  5
4A1F
  8
DANMEN
  6
CONTINUOUS
 10
150.76458872644599
 20
162.3881896193827
 30
0.0
 11
150.76458872644599
 21
168.3881896193827
 31
0.0
  0
LINE
  5
4A20
  8
DANMEN
  6
CONTINUOUS
 10
152.26458872644591
 20
146.38818962904239
 30
0.0
 11
152.26458872644591
 21
167.23818961938269
 31
0.0
  0
LINE
  5
4A21
  8
SUNPO
  6
CONTINUOUS
 10
90.264566803085685
 20
168.8881896193827
 30
0.0
 11
83.764566803085685
 21
168.8881896193827
 31
0.0
  0
LINE
  5
4A22
  8
SUNPO
  6
CONTINUOUS
 10
90.264566803085685
 20
149.8881896193827
 30
0.0
 11
83.764566803085685
 21
149.8881896193827
 31
0.0
  0
LINE
  5
4A23
  8
SUNPO
  6
CONTINUOUS
 10
83.764566803085685
 20
149.8881896193827
 30
0.0
 11
83.764566803085685
 21
168.8881896193827
 31
0.0
  0
LINE
  5
4A24
  8
SUNPO
  6
CONTINUOUS
 10
90.264566803085685
 20
267.8881894564621
 30
0.0
 11
83.764566803085685
 21
267.8881894564621
 31
0.0
  0
LINE
  5
4A25
  8
SUNPO
  6
CONTINUOUS
 10
90.264566803085685
 20
248.88818945646199
 30
0.0
 11
83.764566803085685
 21
248.88818945646199
 31
0.0
  0
LINE
  5
4A26
  8
SUNPO
  6
CONTINUOUS
 10
83.764566803085685
 20
248.88818945646199
 30
0.0
 11
83.764566803085685
 21
267.8881894564621
 31
0.0
  0
LINE
  5
4A27
  8
SUNPO
  6
CONTINUOUS
 10
388.76456680308559
 20
229.63593189281431
 30
0.0
 11
407.76456547036139
 21
229.63593189281431
 31
0.0
  0
LINE
  5
4A28
  8
SUNPO
  6
CONTINUOUS
 10
407.76456547036139
 20
223.13593189281431
 30
0.0
 11
407.76456547036139
 21
229.63593189281431
 31
0.0
  0
LINE
  5
4A29
  8
SUNPO
  6
CONTINUOUS
 10
356.76456696501992
 20
229.63593189281431
 30
0.0
 11
375.76456829774412
 21
229.63593189281431
 31
0.0
  0
LINE
  5
4A2A
  8
SUNPO
  6
CONTINUOUS
 10
356.76456696501992
 20
223.13593189281431
 30
0.0
 11
356.76456696501992
 21
229.63593189281431
 31
0.0
  0
LINE
  5
4A2B
  8
SUNPO
  6
CONTINUOUS
 10
295.76456829774418
 20
229.63593189281431
 30
0.0
 11
314.76456696501992
 21
229.63593189281431
 31
0.0
  0
LINE
  5
4A2C
  8
SUNPO
  6
CONTINUOUS
 10
314.76456696501992
 20
223.13593189281431
 30
0.0
 11
314.76456696501992
 21
229.63593189281431
 31
0.0
  0
LINE
  5
4A2D
  8
SUNPO
  6
CONTINUOUS
 10
263.76456845967851
 20
229.63593189281431
 30
0.0
 11
282.76456979240282
 21
229.63593189281431
 31
0.0
  0
LINE
  5
4A2E
  8
SUNPO
  6
CONTINUOUS
 10
263.76456845967851
 20
223.13593189281431
 30
0.0
 11
263.76456845967851
 21
229.63593189281431
 31
0.0
  0
LINE
  5
4A2F
  8
DANMEN
  6
CONTINUOUS
 10
151.1800571188279
 20
255.80365174532841
 30
0.0
 11
151.0955194076943
 21
255.8881894564621
 31
0.0
  0
LINE
  5
4A30
  8
DANMEN
  6
CONTINUOUS
 10
150.7645948299616
 20
254.09779369063509
 30
0.0
 11
148.97419906413469
 21
255.88818945646199
 31
0.0
  0
LINE
  5
4A31
  8
DANMEN
  6
CONTINUOUS
 10
150.7645948299616
 20
251.97647334707551
 30
0.0
 11
146.85287872057501
 21
255.8881894564621
 31
0.0
  0
LINE
  5
4A32
  8
DANMEN
  6
CONTINUOUS
 10
150.7645948299616
 20
249.8551530035158
 30
0.0
 11
144.7315583770154
 21
255.88818945646199
 31
0.0
  0
LINE
  5
4A33
  8
DANMEN
  6
CONTINUOUS
 10
149.79405301936069
 20
248.70437447055701
 30
0.0
 11
143.26457290660139
 21
255.23385458331651
 31
0.0
  0
LINE
  5
4A34
  8
DANMEN
  6
CONTINUOUS
 10
147.9084349361967
 20
248.46867221016149
 30
0.0
 11
143.2645729066013
 21
253.1125342397568
 31
0.0
  0
LINE
  5
4A35
  8
DANMEN
  6
CONTINUOUS
 10
146.02281685303251
 20
248.23296994976599
 30
0.0
 11
143.2645729066013
 21
250.99121389619719
 31
0.0
  0
LINE
  5
4A36
  8
DANMEN
  6
CONTINUOUS
 10
144.13719876986841
 20
247.99726768937049
 30
0.0
 11
143.2645729066013
 21
248.86989355263751
 31
0.0
  0
LINE
  5
4A37
  8
DANMEN
  6
CONTINUOUS
 10
149.9917150104059
 20
248.7290822194376
 30
0.0
 11
150.7645948299616
 21
249.50196203899321
 31
0.0
  0
LINE
  5
4A38
  8
DANMEN
  6
CONTINUOUS
 10
147.56734890348071
 20
248.42603645607201
 30
0.0
 11
150.7645948299616
 21
251.6232823825529
 31
0.0
  0
LINE
  5
4A39
  8
DANMEN
  6
CONTINUOUS
 10
145.14298279655529
 20
248.12299069270631
 30
0.0
 11
150.7645948299616
 21
253.7446027261125
 31
0.0
  0
LINE
  5
4A3A
  8
DANMEN
  6
CONTINUOUS
 10
143.2645729066013
 20
248.3659011463119
 30
0.0
 11
150.7868612167515
 21
255.8881894564621
 31
0.0
  0
LINE
  5
4A3B
  8
DANMEN
  6
CONTINUOUS
 10
143.26457290660139
 20
250.4872214898715
 30
0.0
 11
148.6655408731919
 21
255.88818945646199
 31
0.0
  0
LINE
  5
4A3C
  8
DANMEN
  6
CONTINUOUS
 10
143.2645729066013
 20
252.60854183343119
 30
0.0
 11
146.5442205296321
 21
255.8881894564621
 31
0.0
  0
LINE
  5
4A3D
  8
DANMEN
  6
CONTINUOUS
 10
143.26457290660139
 20
254.72986217699079
 30
0.0
 11
144.42290018607261
 21
255.88818945646199
 31
0.0
  0
LINE
  5
4A3E
  8
DANMEN
  6
CONTINUOUS
 10
115.2645729066013
 20
255.65669011704111
 30
0.0
 11
115.0330735671803
 21
255.8881894564621
 31
0.0
  0
LINE
  5
4A3F
  8
DANMEN
  6
CONTINUOUS
 10
115.2645729066013
 20
253.53536977348151
 30
0.0
 11
112.91175322362071
 21
255.88818945646199
 31
0.0
  0
LINE
  5
4A40
  8
DANMEN
  6
CONTINUOUS
 10
115.2645729066013
 20
251.41404942992179
 30
0.0
 11
110.790432880061
 21
255.88818945646199
 31
0.0
  0
LINE
  5
4A41
  8
DANMEN
  6
CONTINUOUS
 10
115.2645729066013
 20
249.29272908636219
 30
0.0
 11
108.6691125365015
 21
255.8881894564621
 31
0.0
  0
LINE
  5
4A42
  8
DANMEN
  6
CONTINUOUS
 10
114.44539494718011
 20
247.99058670222371
 30
0.0
 11
107.7645729066013
 21
254.6714087428025
 31
0.0
  0
LINE
  5
4A43
  8
DANMEN
  6
CONTINUOUS
 10
112.0210288374338
 20
248.29363246841029
 30
0.0
 11
107.7645729066013
 21
252.5500883992429
 31
0.0
  0
LINE
  5
4A44
  8
DANMEN
  6
CONTINUOUS
 10
109.5966627276875
 20
248.59667823459691
 30
0.0
 11
107.7645729066013
 21
250.42876805568321
 31
0.0
  0
LINE
  5
4A45
  8
DANMEN
  6
CONTINUOUS
 10
115.2157941012007
 20
247.8942868071868
 30
0.0
 11
115.2645729066013
 21
247.94306561258719
 31
0.0
  0
LINE
  5
4A46
  8
DANMEN
  6
CONTINUOUS
 10
113.33017601974321
 20
248.1299890692888
 30
0.0
 11
115.2645729066013
 21
250.06438595614691
 31
0.0
  0
LINE
  5
4A47
  8
DANMEN
  6
CONTINUOUS
 10
111.4445579382856
 20
248.36569133139079
 30
0.0
 11
115.2645729066013
 21
252.1857062997066
 31
0.0
  0
LINE
  5
4A48
  8
DANMEN
  6
CONTINUOUS
 10
109.558939856828
 20
248.60139359349279
 30
0.0
 11
115.2645729066013
 21
254.3070266432662
 31
0.0
  0
LINE
  5
4A49
  8
DANMEN
  6
CONTINUOUS
 10
107.6733217753703
 20
248.83709585559481
 30
0.0
 11
114.7244153762376
 21
255.8881894564621
 31
0.0
  0
LINE
  5
4A4A
  8
DANMEN
  6
CONTINUOUS
 10
107.7645729066013
 20
251.04966733038549
 30
0.0
 11
112.6030950326779
 21
255.88818945646199
 31
0.0
  0
LINE
  5
4A4B
  8
DANMEN
  6
CONTINUOUS
 10
107.7645729066013
 20
253.17098767394509
 30
0.0
 11
110.4817746891183
 21
255.8881894564621
 31
0.0
  0
LINE
  5
4A4C
  8
DANMEN
  6
CONTINUOUS
 10
107.7645729066013
 20
255.29230801750481
 30
0.0
 11
108.36045434555849
 21
255.8881894564621
 31
0.0
  0
LINE
  5
4A4D
  8
DANMEN
  6
CONTINUOUS
 10
151.1929775505028
 20
168.8165972277082
 30
0.0
 11
151.10093063822009
 21
168.908644139991
 31
0.0
  0
LINE
  5
4A4E
  8
DANMEN
  6
CONTINUOUS
 10
150.76458872644599
 20
167.12366570820541
 30
0.0
 11
148.6765645312947
 21
169.21168990335661
 31
0.0
  0
LINE
  5
4A4F
  8
DANMEN
  6
CONTINUOUS
 10
150.76458872644599
 20
165.00234536464569
 30
0.0
 11
146.2521984243694
 21
169.51473566672229
 31
0.0
  0
LINE
  5
4A50
  8
DANMEN
  6
CONTINUOUS
 10
150.76458872644599
 20
162.88102502108609
 30
0.0
 11
143.82783231744409
 21
169.8177814300879
 31
0.0
  0
LINE
  5
4A51
  8
DANMEN
  6
CONTINUOUS
 10
149.63610378458961
 20
161.8881896193827
 30
0.0
 11
143.26456680308581
 21
168.25972660088669
 31
0.0
  0
LINE
  5
4A52
  8
DANMEN
  6
CONTINUOUS
 10
147.51478344103
 20
161.8881896193827
 30
0.0
 11
143.2645668030857
 21
166.13840625732701
 31
0.0
  0
LINE
  5
4A53
  8
DANMEN
  6
CONTINUOUS
 10
145.3934630974704
 20
161.8881896193827
 30
0.0
 11
143.26456680308581
 21
164.0170859137674
 31
0.0
  0
LINE
  5
4A54
  8
DANMEN
  6
CONTINUOUS
 10
143.2721427539108
 20
161.8881896193827
 30
0.0
 11
143.26456680308581
 21
161.8957655702078
 31
0.0
  0
LINE
  5
4A55
  8
DANMEN
  6
CONTINUOUS
 10
150.12495649629639
 20
161.8881896193827
 30
0.0
 11
150.76458872644599
 21
162.5278218495323
 31
0.0
  0
LINE
  5
4A56
  8
DANMEN
  6
CONTINUOUS
 10
148.0036361527367
 20
161.8881896193827
 30
0.0
 11
150.76458872644599
 21
164.6491421930919
 31
0.0
  0
LINE
  5
4A57
  8
DANMEN
  6
CONTINUOUS
 10
145.88231580917719
 20
161.8881896193827
 30
0.0
 11
150.76458872644599
 21
166.77046253665159
 31
0.0
  0
LINE
  5
4A58
  8
DANMEN
  6
CONTINUOUS
 10
143.76099546561741
 20
161.8881896193827
 30
0.0
 11
150.8169478364473
 21
168.9441419902125
 31
0.0
  0
LINE
  5
4A59
  8
DANMEN
  6
CONTINUOUS
 10
143.26456680308581
 20
163.51308130041059
 30
0.0
 11
148.93132975328319
 21
169.17984425060811
 31
0.0
  0
LINE
  5
4A5A
  8
DANMEN
  6
CONTINUOUS
 10
143.26456680308581
 20
165.63440164397031
 30
0.0
 11
147.045711670119
 21
169.41554651100361
 31
0.0
  0
LINE
  5
4A5B
  8
DANMEN
  6
CONTINUOUS
 10
143.26456680308581
 20
167.75572198752991
 30
0.0
 11
145.1600935869549
 21
169.65124877139911
 31
0.0
  0
LINE
  5
4A5C
  8
DANMEN
  6
CONTINUOUS
 10
143.26456680308581
 20
169.87704233108951
 30
0.0
 11
143.27447550379071
 21
169.88695103179461
 31
0.0
  0
LINE
  5
4A5D
  8
DANMEN
  6
CONTINUOUS
 10
115.2645668030856
 20
168.6825621346114
 30
0.0
 11
114.1928979287031
 21
169.75423100899391
 31
0.0
  0
LINE
  5
4A5E
  8
DANMEN
  6
CONTINUOUS
 10
115.2645668030856
 20
166.56124179105171
 30
0.0
 11
112.3072798472456
 21
169.5185287468918
 31
0.0
  0
LINE
  5
4A5F
  8
DANMEN
  6
CONTINUOUS
 10
115.2645668030856
 20
164.43992144749211
 30
0.0
 11
110.421661765788
 21
169.28282648478981
 31
0.0
  0
LINE
  5
4A60
  8
DANMEN
  6
CONTINUOUS
 10
115.2645668030856
 20
162.31860110393239
 30
0.0
 11
108.53604368433029
 21
169.04712422268781
 31
0.0
  0
LINE
  5
4A61
  8
DANMEN
  6
CONTINUOUS
 10
113.57365794407571
 20
161.8881896193827
 30
0.0
 11
107.7645668030857
 21
167.69728076037279
 31
0.0
  0
LINE
  5
4A62
  8
DANMEN
  6
CONTINUOUS
 10
111.4523376005161
 20
161.8881896193827
 30
0.0
 11
107.7645668030857
 21
165.5759604168131
 31
0.0
  0
LINE
  5
4A63
  8
DANMEN
  6
CONTINUOUS
 10
109.3310172569565
 20
161.8881896193827
 30
0.0
 11
107.7645668030857
 21
163.4546400732535
 31
0.0
  0
LINE
  5
4A64
  8
DANMEN
  6
CONTINUOUS
 10
114.0625106557825
 20
161.8881896193827
 30
0.0
 11
115.2645668030856
 21
163.090245766686
 31
0.0
  0
LINE
  5
4A65
  8
DANMEN
  6
CONTINUOUS
 10
111.9411903122228
 20
161.8881896193827
 30
0.0
 11
115.2645668030856
 21
165.2115661102456
 31
0.0
  0
LINE
  5
4A66
  8
DANMEN
  6
CONTINUOUS
 10
109.8198699686631
 20
161.8881896193827
 30
0.0
 11
115.2645668030856
 21
167.33288645380529
 31
0.0
  0
LINE
  5
4A67
  8
DANMEN
  6
CONTINUOUS
 10
107.7645668030857
 20
161.95420679736489
 30
0.0
 11
115.2645668030858
 21
169.45420679736489
 31
0.0
  0
LINE
  5
4A68
  8
DANMEN
  6
CONTINUOUS
 10
107.7645668030857
 20
164.07552714092449
 30
0.0
 11
113.3361810619369
 21
169.64714139977579
 31
0.0
  0
LINE
  5
4A69
  8
DANMEN
  6
CONTINUOUS
 10
107.7645668030857
 20
166.19684748448421
 30
0.0
 11
110.9118149521908
 21
169.34409563358921
 31
0.0
  0
LINE
  5
4A6A
  8
DANMEN
  6
CONTINUOUS
 10
107.7645668030858
 20
168.31816782804381
 30
0.0
 11
108.48744884244449
 21
169.04104986740259
 31
0.0
  0
LINE
  5
4A6B
  8
DANMEN
  6
CONTINUOUS
 10
395.76456547036128
 20
168.14307590047491
 30
0.0
 11
393.77172045162303
 21
170.13592091921319
 31
0.0
  0
LINE
  5
4A6C
  8
DANMEN
  6
CONTINUOUS
 10
395.76456547036128
 20
166.02175555691531
 30
0.0
 11
391.65040010806348
 21
170.13592091921319
 31
0.0
  0
LINE
  5
4A6D
  8
DANMEN
  6
CONTINUOUS
 10
395.76456547036128
 20
163.90043521335571
 30
0.0
 11
389.52907976450371
 21
170.13592091921319
 31
0.0
  0
LINE
  5
4A6E
  8
DANMEN
  6
CONTINUOUS
 10
394.9077703945452
 20
162.6359099456121
 30
0.0
 11
387.81553912870481
 21
169.72814121145259
 31
0.0
  0
LINE
  5
4A6F
  8
DANMEN
  6
CONTINUOUS
 10
392.78645005098571
 20
162.6359099456121
 30
0.0
 11
388.11858395542703
 21
167.30377604117069
 31
0.0
  0
LINE
  5
4A70
  8
DANMEN
  6
CONTINUOUS
 10
390.66512970742599
 20
162.6359099456121
 30
0.0
 11
388.42162878214941
 21
164.87941087088871
 31
0.0
  0
LINE
  5
4A71
  8
DANMEN
  6
CONTINUOUS
 10
388.9041829680969
 20
162.27553634138161
 30
0.0
 11
388.72467360887168
 21
162.45504570060669
 31
0.0
  0
LINE
  5
4A72
  8
DANMEN
  6
CONTINUOUS
 10
394.87828924861799
 20
162.6359099456121
 30
0.0
 11
395.76456547036128
 21
163.5221861673553
 31
0.0
  0
LINE
  5
4A73
  8
DANMEN
  6
CONTINUOUS
 10
392.7569689050585
 20
162.6359099456121
 30
0.0
 11
395.76456547036128
 21
165.64350651091499
 31
0.0
  0
LINE
  5
4A74
  8
DANMEN
  6
CONTINUOUS
 10
390.6356485614989
 20
162.6359099456121
 30
0.0
 11
395.76456547036128
 21
167.76482685447459
 31
0.0
  0
LINE
  5
4A75
  8
DANMEN
  6
CONTINUOUS
 10
388.6812059760386
 20
162.8027877037116
 30
0.0
 11
395.76456547036128
 21
169.88614719803431
 31
0.0
  0
LINE
  5
4A76
  8
DANMEN
  6
CONTINUOUS
 10
388.44550428225489
 20
164.68840635348749
 30
0.0
 11
393.89301884798061
 21
170.13592091921319
 31
0.0
  0
LINE
  5
4A77
  8
DANMEN
  6
CONTINUOUS
 10
388.20980258847118
 20
166.57402500326339
 30
0.0
 11
391.77169850442101
 21
170.13592091921319
 31
0.0
  0
LINE
  5
4A78
  8
DANMEN
  6
CONTINUOUS
 10
387.97410089468741
 20
168.45964365303939
 30
0.0
 11
389.65037816086141
 21
170.13592091921319
 31
0.0
  0
LINE
  5
4A79
  8
DANMEN
  6
CONTINUOUS
 10
395.76456547036128
 20
204.2055217409889
 30
0.0
 11
394.33415531853592
 21
205.63593189281431
 31
0.0
  0
LINE
  5
4A7A
  8
DANMEN
  6
CONTINUOUS
 10
395.76456547036128
 20
202.08420139742921
 30
0.0
 11
392.21283497497632
 21
205.63593189281431
 31
0.0
  0
LINE
  5
4A7B
  8
DANMEN
  6
CONTINUOUS
 10
395.76456547036128
 20
199.96288105386961
 30
0.0
 11
390.0915146314166
 21
205.63593189281431
 31
0.0
  0
LINE
  5
4A7C
  8
DANMEN
  6
CONTINUOUS
 10
395.47020526145798
 20
198.13592091921319
 30
0.0
 11
388.620746795814
 21
204.98537938485731
 31
0.0
  0
LINE
  5
4A7D
  8
DANMEN
  6
CONTINUOUS
 10
393.34888491789849
 20
198.13592091921319
 30
0.0
 11
388.38504510203029
 21
203.09976073508139
 31
0.0
  0
LINE
  5
4A7E
  8
DANMEN
  6
CONTINUOUS
 10
391.22756457433871
 20
198.13592091921319
 30
0.0
 11
388.14934340824658
 21
201.2141420853055
 31
0.0
  0
LINE
  5
4A7F
  8
DANMEN
  6
CONTINUOUS
 10
389.10624423077923
 20
198.13592091921319
 30
0.0
 11
387.91364171446281
 21
199.3285234355296
 31
0.0
  0
LINE
  5
4A80
  8
DANMEN
  6
CONTINUOUS
 10
394.31585438170532
 20
198.13592091921319
 30
0.0
 11
395.76456547036128
 21
199.5846320078692
 31
0.0
  0
LINE
  5
4A81
  8
DANMEN
  6
CONTINUOUS
 10
392.19453403814572
 20
198.13592091921319
 30
0.0
 11
395.76456547036128
 21
201.70595235142889
 31
0.0
  0
LINE
  5
4A82
  8
DANMEN
  6
CONTINUOUS
 10
390.073213694586
 20
198.13592091921319
 30
0.0
 11
395.76456547036128
 21
203.82727269498861
 31
0.0
  0
LINE
  5
4A83
  8
DANMEN
  6
CONTINUOUS
 10
387.9518933510264
 20
198.13592091921319
 30
0.0
 11
395.45190432462738
 21
205.63593189281431
 31
0.0
  0
LINE
  5
4A84
  8
DANMEN
  6
CONTINUOUS
 10
388.04085077709971
 20
200.3461986888461
 30
0.0
 11
393.33058398106772
 21
205.63593189281431
 31
0.0
  0
LINE
  5
4A85
  8
DANMEN
  6
CONTINUOUS
 10
388.34389560382198
 20
202.77056385912809
 30
0.0
 11
391.20926363750817
 21
205.63593189281431
 31
0.0
  0
LINE
  5
4A86
  8
DANMEN
  6
CONTINUOUS
 10
388.6469404305443
 20
205.1949290294101
 30
0.0
 11
389.1762532919177
 21
205.7242418907835
 31
0.0
  0
LINE
  5
4A87
  8
DANMEN
  6
CONTINUOUS
 10
376.53293089903229
 20
168.2828273797673
 30
0.0
 11
374.67983735958632
 21
170.13592091921319
 31
0.0
  0
LINE
  5
4A88
  8
DANMEN
  6
CONTINUOUS
 10
376.29722920524853
 20
166.39720872999141
 30
0.0
 11
372.55851701602671
 21
170.13592091921319
 31
0.0
  0
LINE
  5
4A89
  8
DANMEN
  6
CONTINUOUS
 10
376.06152751146482
 20
164.51159008021551
 30
0.0
 11
370.43719667246711
 21
170.13592091921319
 31
0.0
  0
LINE
  5
4A8A
  8
DANMEN
  6
CONTINUOUS
 10
375.82582581768111
 20
162.62597143043951
 30
0.0
 11
368.76456829774412
 21
169.68722895037641
 31
0.0
  0
LINE
  5
4A8B
  8
DANMEN
  6
CONTINUOUS
 10
373.69456695894888
 20
162.6359099456121
 30
0.0
 11
368.76456829774412
 21
167.56590860681681
 31
0.0
  0
LINE
  5
4A8C
  8
DANMEN
  6
CONTINUOUS
 10
371.57324661538922
 20
162.6359099456121
 30
0.0
 11
368.76456829774412
 21
165.44458826325709
 31
0.0
  0
LINE
  5
4A8D
  8
DANMEN
  6
CONTINUOUS
 10
369.45192627182962
 20
162.6359099456121
 30
0.0
 11
368.76456829774412
 21
163.32326791969751
 31
0.0
  0
LINE
  5
4A8E
  8
DANMEN
  6
CONTINUOUS
 10
375.52549044831551
 20
162.3749942373463
 30
0.0
 11
375.83287696392642
 21
162.6823807529573
 31
0.0
  0
LINE
  5
4A8F
  8
DANMEN
  6
CONTINUOUS
 10
373.66508581302168
 20
162.6359099456121
 30
0.0
 11
376.13592179064881
 21
165.1067459232392
 31
0.0
  0
LINE
  5
4A90
  8
DANMEN
  6
CONTINUOUS
 10
371.54376546946202
 20
162.6359099456121
 30
0.0
 11
376.43896661737102
 21
167.53111109352119
 31
0.0
  0
LINE
  5
4A91
  8
DANMEN
  6
CONTINUOUS
 10
369.42244512590241
 20
162.6359099456121
 30
0.0
 11
376.74201144409352
 21
169.95547626380321
 31
0.0
  0
LINE
  5
4A92
  8
DANMEN
  6
CONTINUOUS
 10
368.76456829774412
 20
164.09935346101361
 30
0.0
 11
374.80113575594379
 21
170.13592091921319
 31
0.0
  0
LINE
  5
4A93
  8
DANMEN
  6
CONTINUOUS
 10
368.76456829774412
 20
166.22067380457321
 30
0.0
 11
372.67981541238407
 21
170.13592091921319
 31
0.0
  0
LINE
  5
4A94
  8
DANMEN
  6
CONTINUOUS
 10
368.76456829774412
 20
168.34199414813281
 30
0.0
 11
370.55849506882458
 21
170.13592091921319
 31
0.0
  0
LINE
  5
4A95
  8
DANMEN
  6
CONTINUOUS
 10
375.91061014225392
 20
204.96759397705961
 30
0.0
 11
375.2422722264991
 21
205.63593189281431
 31
0.0
  0
LINE
  5
4A96
  8
DANMEN
  6
CONTINUOUS
 10
376.21365496897619
 20
202.54322880677759
 30
0.0
 11
373.12095188293949
 21
205.63593189281431
 31
0.0
  0
LINE
  5
4A97
  8
DANMEN
  6
CONTINUOUS
 10
376.51669979569851
 20
200.1188636364956
 30
0.0
 11
370.99963153937978
 21
205.63593189281431
 31
0.0
  0
LINE
  5
4A98
  8
DANMEN
  6
CONTINUOUS
 10
376.37832216942121
 20
198.13592091921319
 30
0.0
 11
368.87831119582029
 21
205.63593189281431
 31
0.0
  0
LINE
  5
4A99
  8
DANMEN
  6
CONTINUOUS
 10
374.25700182586172
 20
198.13592091921319
 30
0.0
 11
368.76456829774412
 21
203.62835444733059
 31
0.0
  0
LINE
  5
4A9A
  8
DANMEN
  6
CONTINUOUS
 10
372.13568148230212
 20
198.13592091921319
 30
0.0
 11
368.76456829774412
 21
201.50703410377099
 31
0.0
  0
LINE
  5
4A9B
  8
DANMEN
  6
CONTINUOUS
 10
370.01436113874229
 20
198.13592091921319
 30
0.0
 11
368.76456829774412
 21
199.38571376021139
 31
0.0
  0
LINE
  5
4A9C
  8
DANMEN
  6
CONTINUOUS
 10
375.2239712896685
 20
198.13592091921319
 30
0.0
 11
376.59339007925678
 21
199.50533970880161
 31
0.0
  0
LINE
  5
4A9D
  8
DANMEN
  6
CONTINUOUS
 10
373.10265094610878
 20
198.13592091921319
 30
0.0
 11
376.35768838547318
 21
201.39095835857751
 31
0.0
  0
LINE
  5
4A9E
  8
DANMEN
  6
CONTINUOUS
 10
370.98133060254912
 20
198.13592091921319
 30
0.0
 11
376.12198669168941
 21
203.27657700835351
 31
0.0
  0
LINE
  5
4A9F
  8
DANMEN
  6
CONTINUOUS
 10
368.86001025898958
 20
198.13592091921319
 30
0.0
 11
375.88628499790582
 21
205.16219565812941
 31
0.0
  0
LINE
  5
4AA0
  8
DANMEN
  6
CONTINUOUS
 10
368.76456829774412
 20
200.16179930152751
 30
0.0
 11
374.23870088903089
 21
205.63593189281431
 31
0.0
  0
LINE
  5
4AA1
  8
DANMEN
  6
CONTINUOUS
 10
368.76456829774412
 20
202.28311964508711
 30
0.0
 11
372.11738054547141
 21
205.63593189281431
 31
0.0
  0
LINE
  5
4AA2
  8
DANMEN
  6
CONTINUOUS
 10
368.76456829774412
 20
204.40443998864669
 30
0.0
 11
369.99606020191169
 21
205.63593189281431
 31
0.0
  0
LINE
  5
4AA3
  8
DANMEN
  6
CONTINUOUS
 10
302.76456696501992
 20
169.92629963275181
 30
0.0
 11
302.55494567855851
 21
170.13592091921319
 31
0.0
  0
LINE
  5
4AA4
  8
DANMEN
  6
CONTINUOUS
 10
302.76456696501992
 20
167.80497928919209
 30
0.0
 11
300.43362533499891
 21
170.13592091921319
 31
0.0
  0
LINE
  5
4AA5
  8
DANMEN
  6
CONTINUOUS
 10
302.76456696501992
 20
165.68365894563249
 30
0.0
 11
298.31230499143931
 21
170.13592091921319
 31
0.0
  0
LINE
  5
4AA6
  8
DANMEN
  6
CONTINUOUS
 10
302.76456696501992
 20
163.5623386020728
 30
0.0
 11
296.19098464787959
 21
170.13592091921319
 31
0.0
  0
LINE
  5
4AA7
  8
DANMEN
  6
CONTINUOUS
 10
301.56967527792102
 20
162.6359099456121
 30
0.0
 11
294.86383998997832
 21
169.3417452335548
 31
0.0
  0
LINE
  5
4AA8
  8
DANMEN
  6
CONTINUOUS
 10
299.44835493436142
 20
162.6359099456121
 30
0.0
 11
295.1668848167007
 21
166.91738006327279
 31
0.0
  0
LINE
  5
4AA9
  8
DANMEN
  6
CONTINUOUS
 10
297.3270345908017
 20
162.6359099456121
 30
0.0
 11
295.46992964342297
 21
164.4930148929908
 31
0.0
  0
LINE
  5
4AAA
  8
DANMEN
  6
CONTINUOUS
 10
301.54019413199381
 20
162.6359099456121
 30
0.0
 11
302.76456696501992
 21
163.86028277863821
 31
0.0
  0
LINE
  5
4AAB
  8
DANMEN
  6
CONTINUOUS
 10
299.41887378843421
 20
162.6359099456121
 30
0.0
 11
302.76456696501992
 21
165.98160312219781
 31
0.0
  0
LINE
  5
4AAC
  8
DANMEN
  6
CONTINUOUS
 10
297.2975534448745
 20
162.6359099456121
 30
0.0
 11
302.76456696501992
 21
168.1029234657575
 31
0.0
  0
LINE
  5
4AAD
  8
DANMEN
  6
CONTINUOUS
 10
295.64364127086151
 20
163.1033181151586
 30
0.0
 11
302.67624407491599
 21
170.13592091921319
 31
0.0
  0
LINE
  5
4AAE
  8
DANMEN
  6
CONTINUOUS
 10
295.40793957707768
 20
164.98893676493461
 30
0.0
 11
300.55492373135633
 21
170.13592091921319
 31
0.0
  0
LINE
  5
4AAF
  8
DANMEN
  6
CONTINUOUS
 10
295.17223788329397
 20
166.8745554147105
 30
0.0
 11
298.43360338779672
 21
170.13592091921319
 31
0.0
  0
LINE
  5
4AB0
  8
DANMEN
  6
CONTINUOUS
 10
294.93653618951032
 20
168.76017406448639
 30
0.0
 11
296.31228304423712
 21
170.13592091921319
 31
0.0
  0
LINE
  5
4AB1
  8
DANMEN
  6
CONTINUOUS
 10
302.76456696501992
 20
203.86742512970599
 30
0.0
 11
300.99606020191169
 21
205.63593189281431
 31
0.0
  0
LINE
  5
4AB2
  8
DANMEN
  6
CONTINUOUS
 10
302.76456696501992
 20
201.74610478614639
 30
0.0
 11
298.87473985835197
 21
205.63593189281431
 31
0.0
  0
LINE
  5
4AB3
  8
DANMEN
  6
CONTINUOUS
 10
302.76456696501992
 20
199.62478444258679
 30
0.0
 11
296.75341951479248
 21
205.63593189281431
 31
0.0
  0
LINE
  5
4AB4
  8
DANMEN
  6
CONTINUOUS
 10
302.13211014483392
 20
198.13592091921319
 30
0.0
 11
295.5831820906368
 21
204.68484897341031
 31
0.0
  0
LINE
  5
4AB5
  8
DANMEN
  6
CONTINUOUS
 10
300.0107898012742
 20
198.13592091921319
 30
0.0
 11
295.34748039685297
 21
202.7992303236343
 31
0.0
  0
LINE
  5
4AB6
  8
DANMEN
  6
CONTINUOUS
 10
297.8894694577146
 20
198.13592091921319
 30
0.0
 11
295.11177870306932
 21
200.91361167385841
 31
0.0
  0
LINE
  5
4AB7
  8
DANMEN
  6
CONTINUOUS
 10
295.76814911415499
 20
198.13592091921319
 30
0.0
 11
294.87607700928561
 21
199.02799302408249
 31
0.0
  0
LINE
  5
4AB8
  8
DANMEN
  6
CONTINUOUS
 10
300.97775926508098
 20
198.13592091921319
 30
0.0
 11
302.76456696501992
 21
199.92272861915211
 31
0.0
  0
LINE
  5
4AB9
  8
DANMEN
  6
CONTINUOUS
 10
298.85643892152137
 20
198.13592091921319
 30
0.0
 11
302.76456696501992
 21
202.0440489627118
 31
0.0
  0
LINE
  5
4ABA
  8
DANMEN
  6
CONTINUOUS
 10
296.73511857796171
 20
198.13592091921319
 30
0.0
 11
302.76456696501992
 21
204.1653693062714
 31
0.0
  0
LINE
  5
4ABB
  8
DANMEN
  6
CONTINUOUS
 10
294.78610681165088
 20
198.3082294964621
 30
0.0
 11
302.1138092080032
 21
205.63593189281431
 31
0.0
  0
LINE
  5
4ABC
  8
DANMEN
  6
CONTINUOUS
 10
295.08915163837332
 20
200.73259466674409
 30
0.0
 11
299.99248886444349
 21
205.63593189281431
 31
0.0
  0
LINE
  5
4ABD
  8
DANMEN
  6
CONTINUOUS
 10
295.39219646509559
 20
203.15695983702599
 30
0.0
 11
297.87116852088388
 21
205.63593189281431
 31
0.0
  0
LINE
  5
4ABE
  8
DANMEN
  6
CONTINUOUS
 10
295.69524129181792
 20
205.58132500730801
 30
0.0
 11
296.00720439396321
 21
205.89328810945329
 31
0.0
  0
LINE
  5
4ABF
  8
DANMEN
  6
CONTINUOUS
 10
283.7310678876388
 20
169.86791561809619
 30
0.0
 11
283.4630625865218
 21
170.13592091921319
 31
0.0
  0
LINE
  5
4AC0
  8
DANMEN
  6
CONTINUOUS
 10
283.49536619385498
 20
167.98229696832021
 30
0.0
 11
281.34174224296208
 21
170.13592091921319
 31
0.0
  0
LINE
  5
4AC1
  8
DANMEN
  6
CONTINUOUS
 10
283.25966450007132
 20
166.09667831854429
 30
0.0
 11
279.22042189940248
 21
170.13592091921319
 31
0.0
  0
LINE
  5
4AC2
  8
DANMEN
  6
CONTINUOUS
 10
283.02396280628761
 20
164.2110596687684
 30
0.0
 11
277.09910155584282
 21
170.13592091921319
 31
0.0
  0
LINE
  5
4AC3
  8
DANMEN
  6
CONTINUOUS
 10
282.7882611125039
 20
162.32544101899251
 30
0.0
 11
275.76456979240282
 21
169.34913233909359
 31
0.0
  0
LINE
  5
4AC4
  8
DANMEN
  6
CONTINUOUS
 10
280.35647184232459
 20
162.6359099456121
 30
0.0
 11
275.76456979240282
 21
167.2278119955339
 31
0.0
  0
LINE
  5
4AC5
  8
DANMEN
  6
CONTINUOUS
 10
278.23515149876499
 20
162.6359099456121
 30
0.0
 11
275.76456979240282
 21
165.1064916519743
 31
0.0
  0
LINE
  5
4AC6
  8
DANMEN
  6
CONTINUOUS
 10
276.11383115520528
 20
162.6359099456121
 30
0.0
 11
275.76456979240282
 21
162.98517130841461
 31
0.0
  0
LINE
  5
4AC7
  8
DANMEN
  6
CONTINUOUS
 10
282.35644155036101
 20
162.54404045601601
 30
0.0
 11
282.8811778252001
 21
163.06877673085521
 31
0.0
  0
LINE
  5
4AC8
  8
DANMEN
  6
CONTINUOUS
 10
280.32699069639739
 20
162.6359099456121
 30
0.0
 11
283.18422265192243
 21
165.49314190113711
 31
0.0
  0
LINE
  5
4AC9
  8
DANMEN
  6
CONTINUOUS
 10
278.20567035283779
 20
162.6359099456121
 30
0.0
 11
283.48726747864481
 21
167.9175070714191
 31
0.0
  0
LINE
  5
4ACA
  8
DANMEN
  6
CONTINUOUS
 10
276.08435000927813
 20
162.6359099456121
 30
0.0
 11
283.58436098287922
 21
170.13592091921319
 31
0.0
  0
LINE
  5
4ACB
  8
DANMEN
  6
CONTINUOUS
 10
275.76456979240282
 20
164.4374500722964
 30
0.0
 11
281.46304063931962
 21
170.13592091921319
 31
0.0
  0
LINE
  5
4ACC
  8
DANMEN
  6
CONTINUOUS
 10
275.76456979240282
 20
166.558770415856
 30
0.0
 11
279.3417202957599
 21
170.13592091921319
 31
0.0
  0
LINE
  5
4ACD
  8
DANMEN
  6
CONTINUOUS
 10
275.76456979240282
 20
168.68009075941569
 30
0.0
 11
277.2203999522003
 21
170.13592091921319
 31
0.0
  0
LINE
  5
4ACE
  8
DANMEN
  6
CONTINUOUS
 10
282.95891100352748
 20
204.5811979991617
 30
0.0
 11
281.90417710987492
 21
205.63593189281431
 31
0.0
  0
LINE
  5
4ACF
  8
DANMEN
  6
CONTINUOUS
 10
283.26195583024992
 20
202.15683282887969
 30
0.0
 11
279.78285676631532
 21
205.63593189281431
 31
0.0
  0
LINE
  5
4AD0
  8
DANMEN
  6
CONTINUOUS
 10
283.56500065697219
 20
199.7324676585977
 30
0.0
 11
277.66153642275572
 21
205.63593189281431
 31
0.0
  0
LINE
  5
4AD1
  8
DANMEN
  6
CONTINUOUS
 10
283.04022705279709
 20
198.13592091921319
 30
0.0
 11
275.76456979240282
 21
205.41157817960749
 31
0.0
  0
LINE
  5
4AD2
  8
DANMEN
  6
CONTINUOUS
 10
280.91890670923749
 20
198.13592091921319
 30
0.0
 11
275.76456979240282
 21
203.29025783604791
 31
0.0
  0
LINE
  5
4AD3
  8
DANMEN
  6
CONTINUOUS
 10
278.79758636567777
 20
198.13592091921319
 30
0.0
 11
275.76456979240282
 21
201.1689374924882
 31
0.0
  0
LINE
  5
4AD4
  8
DANMEN
  6
CONTINUOUS
 10
276.67626602211811
 20
198.13592091921319
 30
0.0
 11
275.76456979240282
 21
199.04761714892859
 31
0.0
  0
LINE
  5
4AD5
  8
DANMEN
  6
CONTINUOUS
 10
281.88587617304421
 20
198.13592091921319
 30
0.0
 11
283.55582537407969
 21
199.8058701202487
 31
0.0
  0
LINE
  5
4AD6
  8
DANMEN
  6
CONTINUOUS
 10
279.76455582948461
 20
198.13592091921319
 30
0.0
 11
283.32012368029598
 21
201.69148877002459
 31
0.0
  0
LINE
  5
4AD7
  8
DANMEN
  6
CONTINUOUS
 10
277.64323548592489
 20
198.13592091921319
 30
0.0
 11
283.08442198651233
 21
203.57710741980051
 31
0.0
  0
LINE
  5
4AD8
  8
DANMEN
  6
CONTINUOUS
 10
275.76456979240282
 20
198.3785755692507
 30
0.0
 11
282.8487202927285
 21
205.46272606957641
 31
0.0
  0
LINE
  5
4AD9
  8
DANMEN
  6
CONTINUOUS
 10
275.76456979240282
 20
200.4998959128103
 30
0.0
 11
280.90060577240672
 21
205.63593189281431
 31
0.0
  0
LINE
  5
4ADA
  8
DANMEN
  6
CONTINUOUS
 10
275.76456979240282
 20
202.62121625636999
 30
0.0
 11
278.77928542884712
 21
205.63593189281431
 31
0.0
  0
LINE
  5
4ADB
  8
DANMEN
  6
CONTINUOUS
 10
275.76456979240282
 20
204.74253659992959
 30
0.0
 11
276.65796508528751
 21
205.63593189281431
 31
0.0
  0
LINE
  5
4ADC
  8
SUNPO
  6
CONTINUOUS
 10
384.76456888313908
 20
162.63593189281431
 30
0.0
 11
384.76456888313908
 21
205.63593189281431
 31
0.0
  0
LINE
  5
4ADD
  8
SUNPO
  6
CONTINUOUS
 10
387.7645669757905
 20
205.63593189281431
 30
0.0
 11
384.76456888313908
 21
205.63593189281431
 31
0.0
  0
LINE
  5
4ADE
  8
DANMEN
  6
CONTINUOUS
 10
387.7645669757905
 20
162.63593189281431
 30
0.0
 11
384.76456888313908
 21
162.63593189281431
 31
0.0
  0
LINE
  5
4ADF
  8
SUNPO
  6
CONTINUOUS
 10
384.76456888313908
 20
126.6359318928143
 30
0.0
 11
384.76456888313908
 21
162.63593189281431
 31
0.0
  0
LINE
  5
4AE0
  8
DANMEN
  6
CONTINUOUS
 10
387.7645669757905
 20
162.63593189281431
 30
0.0
 11
384.76456888313908
 21
162.63593189281431
 31
0.0
  0
LINE
  5
4AE1
  8
DANMEN
  6
CONTINUOUS
 10
150.76458872644599
 20
169.8881909504355
 30
0.0
 11
150.76458872644599
 21
206.38818332104091
 31
0.0
  0
LINE
  5
4AE2
  8
DANMEN
  6
CONTINUOUS
 10
107.7645668030857
 20
169.8881909504355
 30
0.0
 11
107.7645668030857
 21
206.38818332104091
 31
0.0
  0
LINE
  5
4AE3
  8
SUNPO
  6
CONTINUOUS
 10
107.7645668030857
 20
206.38818332104091
 30
0.0
 11
150.76458872644599
 21
206.38818332104091
 31
0.0
  0
LINE
  5
4AE4
  8
DANMEN
  6
CONTINUOUS
 10
150.76458872644599
 20
169.8881909504355
 30
0.0
 11
150.76458872644599
 21
206.38818332104091
 31
0.0
  0
LINE
  5
4AE5
  8
SUNPO
  6
CONTINUOUS
 10
150.76458872644599
 20
206.38818332104091
 30
0.0
 11
186.76458872644591
 21
206.38818332104091
 31
0.0
  0
LINE
  5
4AE6
  8
SUNPO
  6
CONTINUOUS
 10
379.76456888313919
 20
121.6359318928143
 30
0.0
 11
379.76456888313919
 21
126.6359099456121
 31
0.0
  0
LINE
  5
4AE7
  8
SUNPO
  6
CONTINUOUS
 10
379.76456888313919
 20
126.6359099456121
 30
0.0
 11
379.76456888313919
 21
213.63593189281431
 31
0.0
  0
LINE
  5
4AE8
  8
SUNPO
  6
CONTINUOUS
 10
282.76456712683381
 20
105.6359318928143
 30
0.0
 11
258.76456979240282
 21
105.6359318928143
 31
0.0
  0
LINE
  5
4AE9
  8
SUNPO
  6
CONTINUOUS
 10
258.76456979240282
 20
120.1359318928143
 30
0.0
 11
258.76456979240282
 21
105.6359318928143
 31
0.0
  0
LINE
  5
4AEA
  8
SUNPO
  6
CONTINUOUS
 10
282.76456712683381
 20
120.1359318928143
 30
0.0
 11
282.76456712683381
 21
105.6359318928143
 31
0.0
  0
LINE
  5
4AEB
  8
SUNPO
  6
CONTINUOUS
 10
258.76456979240282
 20
97.635931892814355
 30
0.0
 11
228.7645697924028
 21
97.635931892814355
 31
0.0
  0
LINE
  5
4AEC
  8
SUNPO
  6
CONTINUOUS
 10
228.7645697924028
 20
120.1359318928143
 30
0.0
 11
228.7645697924028
 21
97.635931892814355
 31
0.0
  0
LINE
  5
4AED
  8
SUNPO
  6
CONTINUOUS
 10
258.76456979240282
 20
120.1359318928143
 30
0.0
 11
258.76456979240282
 21
97.635931892814355
 31
0.0
  0
LINE
  5
4AEE
  8
SUNPO
  6
CONTINUOUS
 10
319.7645709631928
 20
105.6359318928143
 30
0.0
 11
295.76456829786463
 21
105.6359318928143
 31
0.0
  0
LINE
  5
4AEF
  8
SUNPO
  6
CONTINUOUS
 10
295.76456829786463
 20
120.1359318928143
 30
0.0
 11
295.76456829786463
 21
105.6359318928143
 31
0.0
  0
LINE
  5
4AF0
  8
SUNPO
  6
CONTINUOUS
 10
351.76456563229561
 20
105.6359318928143
 30
0.0
 11
319.7645709631928
 21
105.6359318928143
 31
0.0
  0
LINE
  5
4AF1
  8
SUNPO
  6
CONTINUOUS
 10
319.7645709631928
 20
120.1359318928143
 30
0.0
 11
319.7645709631928
 21
105.6359318928143
 31
0.0
  0
LINE
  5
4AF2
  8
SUNPO
  6
CONTINUOUS
 10
375.76456829762373
 20
105.6359318928143
 30
0.0
 11
351.76456563229561
 21
105.6359318928143
 31
0.0
  0
LINE
  5
4AF3
  8
SUNPO
  6
CONTINUOUS
 10
351.76456563229561
 20
120.1359318928143
 30
0.0
 11
351.76456563229561
 21
105.6359318928143
 31
0.0
  0
LINE
  5
4AF4
  8
SUNPO
  6
CONTINUOUS
 10
375.76456829762373
 20
120.1359318928143
 30
0.0
 11
375.76456829762373
 21
105.6359318928143
 31
0.0
  0
LINE
  5
4AF5
  8
SUNPO
  6
CONTINUOUS
 10
228.7645697924028
 20
237.63593189281431
 30
0.0
 11
258.76456979240282
 21
237.63593189281431
 31
0.0
  0
LINE
  5
4AF6
  8
SUNPO
  6
CONTINUOUS
 10
228.7645697924028
 20
223.13593189281431
 30
0.0
 11
228.7645697924028
 21
237.63593189281431
 31
0.0
  0
LINE
  5
4AF7
  8
SUNPO
  6
CONTINUOUS
 10
258.76456979240282
 20
237.63593189281431
 30
0.0
 11
282.76456979240282
 21
237.63593189281431
 31
0.0
  0
LINE
  5
4AF8
  8
SUNPO
  6
CONTINUOUS
 10
282.76456979240282
 20
223.13593189281431
 30
0.0
 11
282.76456979240282
 21
237.63593189281431
 31
0.0
  0
LINE
  5
4AF9
  8
SUNPO
  6
CONTINUOUS
 10
258.76456979240282
 20
223.13593189281431
 30
0.0
 11
258.76456979240282
 21
237.63593189281431
 31
0.0
  0
LINE
  5
4AFA
  8
SUNPO
  6
CONTINUOUS
 10
295.76456829774418
 20
237.63593189281431
 30
0.0
 11
375.76456829774412
 21
237.63593189281431
 31
0.0
  0
LINE
  5
4AFB
  8
SUNPO
  6
CONTINUOUS
 10
375.76456829774412
 20
223.13593189281431
 30
0.0
 11
375.76456829774412
 21
237.63593189281431
 31
0.0
  0
LINE
  5
4AFC
  8
SUNPO
  6
CONTINUOUS
 10
295.76456829774418
 20
223.13593189281431
 30
0.0
 11
295.76456829774418
 21
237.63593189281431
 31
0.0
  0
LINE
  5
4AFD
  8
SUNPO
  6
CONTINUOUS
 10
258.76456979240282
 20
97.635931892814355
 30
0.0
 11
263.76456970555381
 21
92.635931979663383
 31
0.0
  0
LINE
  5
4AFE
  8
SUNPO
  6
CONTINUOUS
 10
263.76456970555381
 20
102.6359318059653
 30
0.0
 11
258.76456979240282
 21
97.635931892814355
 31
0.0
  0
LINE
  5
4AFF
  8
SUNPO
  6
CONTINUOUS
 10
263.76456979240282
 20
92.635931892814355
 30
0.0
 11
263.76456979240282
 21
102.6359318928143
 31
0.0
  0
LINE
  5
4B00
  8
SUNPO
  6
CONTINUOUS
 10
330.64134441741169
 20
94.135932713595466
 30
0.0
 11
326.59989887885399
 21
101.135928530661
 31
0.0
  0
LINE
  5
4B01
  8
SUNPO
  6
CONTINUOUS
 10
332.95068274902837
 20
94.135931756717994
 30
0.0
 11
328.9092365697212
 21
101.1359286835952
 31
0.0
  0
LINE
  5
4B02
  8
SUNPO
  6
CONTINUOUS
 10
339.30152889955082
 20
101.1359318928142
 30
0.0
 11
339.30152889955082
 21
94.13593475383729
 31
0.0
  0
LINE
  5
4B03
  8
SUNPO
  6
CONTINUOUS
 10
339.87887856233158
 20
94.135931892814369
 30
0.0
 11
336.30113026368662
 21
94.135931892814369
 31
0.0
  0
LINE
  5
4B04
  8
SUNPO
  6
CONTINUOUS
 10
333.95068165528812
 20
94.135931892814369
 30
0.0
 11
329.47315022218271
 21
94.135931892814369
 31
0.0
  0
LINE
  5
4B05
  8
SUNPO
  6
CONTINUOUS
 10
339.30152767799831
 20
94.135935401694582
 30
0.0
 11
335.2600834060384
 21
101.13592902494629
 31
0.0
  0
LINE
  5
4B06
  8
SUNPO
  6
CONTINUOUS
 10
336.99212865698098
 20
94.135932876055975
 30
0.0
 11
332.95068247767381
 21
101.1359298029333
 31
0.0
  0
LINE
  5
4B07
  8
SUNPO
  6
CONTINUOUS
 10
340.26037308442631
 20
101.1359318928142
 30
0.0
 11
338.2238530801539
 21
101.1359318928142
 31
0.0
  0
LINE
  5
4B08
  8
SUNPO
  6
CONTINUOUS
 10
336.2600822137598
 20
101.1359318928142
 30
0.0
 11
331.95068165528812
 21
101.1359318928142
 31
0.0
  0
LINE
  5
4B09
  8
SUNPO
  6
CONTINUOUS
 10
329.87090870606937
 20
101.1359318928142
 30
0.0
 11
325.49555870759519
 21
101.1359318928142
 31
0.0
  0
LINE
  5
4B0A
  8
SUNPO
  6
CONTINUOUS
 10
348.0335778878931
 20
96.135931892814384
 30
0.0
 11
343.0335778878931
 21
96.135931892814384
 31
0.0
  0
LINE
  5
4B0B
  8
SUNPO
  6
CONTINUOUS
 10
348.0335778878931
 20
99.135931892814369
 30
0.0
 11
343.0335778878931
 21
99.135931892814369
 31
0.0
  0
LINE
  5
4B0C
  8
SUNPO
  6
CONTINUOUS
 10
332.95068165528812
 20
101.1359318928142
 30
0.0
 11
332.95068165528812
 21
94.135932846488686
 31
0.0
  0
LINE
  5
4B0D
  8
SUNPO
  6
CONTINUOUS
 10
412.76456680308559
 20
97.635931892814355
 30
0.0
 11
407.7645668899346
 21
92.635931979663383
 31
0.0
  0
LINE
  5
4B0E
  8
SUNPO
  6
CONTINUOUS
 10
407.7645668899346
 20
102.6359318059653
 30
0.0
 11
412.76456680308559
 21
97.635931892814355
 31
0.0
  0
LINE
  5
4B0F
  8
SUNPO
  6
CONTINUOUS
 10
407.76456680308559
 20
92.635931892814355
 30
0.0
 11
407.76456680308559
 21
102.6359318928143
 31
0.0
  0
LINE
  5
4B10
  8
SUNPO
  6
CONTINUOUS
 10
442.7645668030857
 20
97.635931892814355
 30
0.0
 11
412.76456680308559
 21
97.635931892814355
 31
0.0
  0
LINE
  5
4B11
  8
SUNPO
  6
CONTINUOUS
 10
412.76456680308559
 20
120.1359318928143
 30
0.0
 11
412.76456680308559
 21
97.635931892814355
 31
0.0
  0
LINE
  5
4B12
  8
SUNPO
  6
CONTINUOUS
 10
442.7645668030857
 20
120.1359318928143
 30
0.0
 11
442.7645668030857
 21
97.635931892814355
 31
0.0
  0
LINE
  5
4B13
  8
SUNPO
  6
CONTINUOUS
 10
412.76456680308559
 20
105.6359318928143
 30
0.0
 11
388.76456946865449
 21
105.6359318928143
 31
0.0
  0
LINE
  5
4B14
  8
SUNPO
  6
CONTINUOUS
 10
388.76456946865449
 20
120.1359318928143
 30
0.0
 11
388.76456946865449
 21
105.6359318928143
 31
0.0
  0
LINE
  5
4B15
  8
SUNPO
  6
CONTINUOUS
 10
412.76456680308559
 20
120.1359318928143
 30
0.0
 11
412.76456680308559
 21
105.6359318928143
 31
0.0
  0
LINE
  5
4B16
  8
SUNPO
  6
CONTINUOUS
 10
412.76456680308559
 20
237.63593189281431
 30
0.0
 11
442.7645668030857
 21
237.63593189281431
 31
0.0
  0
LINE
  5
4B17
  8
SUNPO
  6
CONTINUOUS
 10
442.7645668030857
 20
223.13593189281431
 30
0.0
 11
442.7645668030857
 21
237.63593189281431
 31
0.0
  0
LINE
  5
4B18
  8
SUNPO
  6
CONTINUOUS
 10
388.76456680308559
 20
237.63593189281431
 30
0.0
 11
412.76456680308559
 21
237.63593189281431
 31
0.0
  0
LINE
  5
4B19
  8
SUNPO
  6
CONTINUOUS
 10
412.76456680308559
 20
223.13593189281431
 30
0.0
 11
412.76456680308559
 21
237.63593189281431
 31
0.0
  0
LINE
  5
4B1A
  8
SUNPO
  6
CONTINUOUS
 10
388.76456680308559
 20
223.13593189281431
 30
0.0
 11
388.76456680308559
 21
237.63593189281431
 31
0.0
  0
LINE
  5
4B1B
  8
DANMEN
  6
CONTINUOUS
 10
323.26456829774418
 20
149.13593189281431
 30
0.0
 11
323.26456829774418
 21
143.13593189281431
 31
0.0
  0
LINE
  5
4B1C
  8
DANMEN
  6
CONTINUOUS
 10
331.06456829774419
 20
149.13593189281431
 30
0.0
 11
331.06456829774419
 21
143.13593189281431
 31
0.0
  0
LINE
  5
4B1D
  8
DANMEN
  6
CONTINUOUS
 10
340.46456829774422
 20
149.13593189281431
 30
0.0
 11
340.46456829774422
 21
143.13593189281431
 31
0.0
  0
LINE
  5
4B1E
  8
DANMEN
  6
CONTINUOUS
 10
348.26456829774418
 20
149.13593189281431
 30
0.0
 11
348.26456829774418
 21
143.13593189281431
 31
0.0
  0
LINE
  5
4B1F
  8
DANMEN
  6
CONTINUOUS
 10
351.76456829774418
 20
129.63593189281431
 30
0.0
 11
351.76456829774418
 21
126.6359318928143
 31
0.0
  0
LINE
  5
4B20
  8
DANMEN
  6
CONTINUOUS
 10
350.1145682977442
 20
130.13593189281431
 30
0.0
 11
350.1145682977442
 21
128.28593189281429
 31
0.0
  0
ARC
  5
4B21
  8
DANMEN
  6
CONTINUOUS
 10
350.76456829774429
 20
129.63593189281431
 30
0.0
 40
1.0
 50
0.0
 51
90.0
  0
ARC
  5
4B22
  8
DANMEN
  6
CONTINUOUS
 10
350.6145682977442
 20
130.13593189281431
 30
0.0
 40
0.5
 50
90.0
 51
180.0
  0
LINE
  5
4B23
  8
DANMEN
  6
CONTINUOUS
 10
350.76456829774429
 20
130.63593189281431
 30
0.0
 11
350.6145682977442
 21
130.63593189281431
 31
0.0
  0
LINE
  5
4B24
  8
DANMEN
  6
CONTINUOUS
 10
351.76456829774418
 20
141.13593189281431
 30
0.0
 11
351.76456829774418
 21
139.3359318928143
 31
0.0
  0
LINE
  5
4B25
  8
DANMEN
  6
CONTINUOUS
 10
350.26456829774418
 20
141.13593189281431
 30
0.0
 11
350.26456829774418
 21
139.3359318928143
 31
0.0
  0
LINE
  5
4B26
  8
DANMEN
  6
CONTINUOUS
 10
351.26456829774429
 20
141.63593189281431
 30
0.0
 11
350.76456829774429
 21
141.63593189281431
 31
0.0
  0
ARC
  5
4B27
  8
DANMEN
  6
CONTINUOUS
 10
351.26456829774429
 20
141.13593189281431
 30
0.0
 40
0.5
 50
0.0
 51
90.0
  0
ARC
  5
4B28
  8
DANMEN
  6
CONTINUOUS
 10
350.76456829774429
 20
141.13593189281431
 30
0.0
 40
0.5
 50
90.0
 51
180.0
  0
LINE
  5
4B29
  8
DANMEN
  6
CONTINUOUS
 10
350.1145682977442
 20
128.28593189281429
 30
0.0
 11
348.26456829774418
 21
128.28593189281429
 31
0.0
  0
LINE
  5
4B2A
  8
DANMEN
  6
CONTINUOUS
 10
350.26456829774418
 20
137.8359318928143
 30
0.0
 11
348.26456829774418
 21
137.8359318928143
 31
0.0
  0
LINE
  5
4B2B
  8
DANMEN
  6
CONTINUOUS
 10
350.26456829774418
 20
139.3359318928143
 30
0.0
 11
348.26456829774418
 21
139.3359318928143
 31
0.0
  0
LINE
  5
4B2C
  8
DANMEN
  6
CONTINUOUS
 10
351.76456829774418
 20
126.6359318928143
 30
0.0
 11
319.76456829774429
 21
126.6359318928143
 31
0.0
  0
LINE
  5
4B2D
  8
DANMEN
  6
CONTINUOUS
 10
321.41456829774421
 20
128.28593189281429
 30
0.0
 11
323.26456829774418
 21
128.28593189281429
 31
0.0
  0
ARC
  5
4B2E
  8
DANMEN
  6
CONTINUOUS
 10
320.76456829774418
 20
141.13593189281431
 30
0.0
 40
0.5
 50
0.0
 51
90.0
  0
ARC
  5
4B2F
  8
DANMEN
  6
CONTINUOUS
 10
320.26456829774429
 20
141.13593189281431
 30
0.0
 40
0.5
 50
90.0
 51
180.0
  0
LINE
  5
4B30
  8
DANMEN
  6
CONTINUOUS
 10
320.26456829774429
 20
141.63593189281431
 30
0.0
 11
320.76456829774418
 21
141.63593189281431
 31
0.0
  0
LINE
  5
4B31
  8
DANMEN
  6
CONTINUOUS
 10
321.26456829774418
 20
141.13593189281431
 30
0.0
 11
321.26456829774418
 21
139.3359318928143
 31
0.0
  0
LINE
  5
4B32
  8
DANMEN
  6
CONTINUOUS
 10
319.76456829774429
 20
141.13593189281431
 30
0.0
 11
319.76456829774429
 21
139.3359318928143
 31
0.0
  0
LINE
  5
4B33
  8
DANMEN
  6
CONTINUOUS
 10
320.76456829774418
 20
130.63593189281431
 30
0.0
 11
320.91456829774421
 21
130.63593189281431
 31
0.0
  0
ARC
  5
4B34
  8
DANMEN
  6
CONTINUOUS
 10
320.91456829774421
 20
130.13593189281431
 30
0.0
 40
0.5
 50
0.0
 51
90.0
  0
ARC
  5
4B35
  8
DANMEN
  6
CONTINUOUS
 10
320.76456829774418
 20
129.63593189281431
 30
0.0
 40
1.0
 50
90.0
 51
180.0
  0
LINE
  5
4B36
  8
DANMEN
  6
CONTINUOUS
 10
321.41456829774421
 20
130.13593189281431
 30
0.0
 11
321.41456829774421
 21
128.28593189281429
 31
0.0
  0
LINE
  5
4B37
  8
DANMEN
  6
CONTINUOUS
 10
319.76456829774429
 20
129.63593189281431
 30
0.0
 11
319.76456829774429
 21
126.6359318928143
 31
0.0
  0
LINE
  5
4B38
  8
DANMEN
  6
CONTINUOUS
 10
321.26456829774418
 20
137.8359318928143
 30
0.0
 11
323.26456829774418
 21
137.8359318928143
 31
0.0
  0
LINE
  5
4B39
  8
DANMEN
  6
CONTINUOUS
 10
321.26456829774418
 20
139.3359318928143
 30
0.0
 11
323.26456829774418
 21
139.3359318928143
 31
0.0
  0
LINE
  5
4B3A
  8
DANMEN
  6
CONTINUOUS
 10
362.76456829774412
 20
211.6859318928143
 30
0.0
 11
374.66456829774421
 21
211.6859318928143
 31
0.0
  0
LINE
  5
4B3B
  8
DANMEN
  6
CONTINUOUS
 10
374.66456829774421
 20
211.6859318928143
 30
0.0
 11
374.66456829774421
 21
209.6859318928143
 31
0.0
  0
LINE
  5
4B3C
  8
DANMEN
  6
CONTINUOUS
 10
374.66456829774421
 20
209.6859318928143
 30
0.0
 11
373.81456829774407
 21
209.6859318928143
 31
0.0
  0
LINE
  5
4B3D
  8
DANMEN
  6
CONTINUOUS
 10
373.81456829774407
 20
209.6859318928143
 30
0.0
 11
373.81456829774407
 21
206.8359318928143
 31
0.0
  0
ARC
  5
4B3E
  8
DANMEN
  6
CONTINUOUS
 10
362.26456829774418
 20
206.1359318928142
 30
0.0
 40
0.5
 50
180.0
 51
0.0
  0
LINE
  5
4B3F
  8
DANMEN
  6
CONTINUOUS
 10
361.76456829774412
 20
211.6859318928143
 30
0.0
 11
361.76456829774412
 21
206.1359318928142
 31
0.0
  0
LINE
  5
4B40
  8
DANMEN
  6
CONTINUOUS
 10
362.76456829774412
 20
211.6859318928143
 30
0.0
 11
362.76456829774412
 21
206.1359318928142
 31
0.0
  0
LINE
  5
4B41
  8
DANMEN
  6
CONTINUOUS
 10
296.8645682977442
 20
211.6859318928143
 30
0.0
 11
296.8645682977442
 21
209.6859318928143
 31
0.0
  0
LINE
  5
4B42
  8
DANMEN
  6
CONTINUOUS
 10
296.8645682977442
 20
209.6859318928143
 30
0.0
 11
297.71456829774422
 21
209.6859318928143
 31
0.0
  0
LINE
  5
4B43
  8
DANMEN
  6
CONTINUOUS
 10
309.76456829774429
 20
211.6859318928143
 30
0.0
 11
323.26456829774418
 21
211.6859318928143
 31
0.0
  0
ARC
  5
4B44
  8
DANMEN
  6
CONTINUOUS
 10
309.26456829774429
 20
206.1359318928142
 30
0.0
 40
0.5
 50
180.0
 51
0.0
  0
LINE
  5
4B45
  8
DANMEN
  6
CONTINUOUS
 10
309.76456829774429
 20
211.6859318928143
 30
0.0
 11
309.76456829774429
 21
206.1359318928142
 31
0.0
  0
LINE
  5
4B46
  8
DANMEN
  6
CONTINUOUS
 10
308.76456829774418
 20
211.6859318928143
 30
0.0
 11
308.76456829774418
 21
206.1359318928142
 31
0.0
  0
LINE
  5
4B47
  8
DANMEN
  6
CONTINUOUS
 10
296.26456829774418
 20
213.63593189281431
 30
0.0
 11
375.26456829774412
 21
213.63593189281431
 31
0.0
  0
LINE
  5
4B48
  8
DANMEN
  6
CONTINUOUS
 10
295.76456829774418
 20
213.13593189281431
 30
0.0
 11
295.76456829774418
 21
206.1359318928142
 31
0.0
  0
LINE
  5
4B49
  8
DANMEN
  6
CONTINUOUS
 10
375.76456829774412
 20
213.13593189281431
 30
0.0
 11
375.76456829774412
 21
206.1359318928142
 31
0.0
  0
ARC
  5
4B4A
  8
DANMEN
  6
CONTINUOUS
 10
296.26456829774418
 20
213.13593189281431
 30
0.0
 40
0.5
 50
90.0
 51
180.0
  0
ARC
  5
4B4B
  8
DANMEN
  6
CONTINUOUS
 10
375.26456829774412
 20
213.13593189281431
 30
0.0
 40
0.5
 50
0.0
 51
90.0
  0
LINE
  5
4B4C
  8
DANMEN
  6
CONTINUOUS
 10
296.26456829774418
 20
205.63593189281431
 30
0.0
 11
302.76456829774429
 21
205.63593189281431
 31
0.0
  0
LINE
  5
4B4D
  8
DANMEN
  6
CONTINUOUS
 10
368.76456829774412
 20
205.63593189281431
 30
0.0
 11
375.26456829774412
 21
205.63593189281431
 31
0.0
  0
LINE
  5
4B4E
  8
DANMEN
  6
CONTINUOUS
 10
302.76456829774429
 20
206.3359318928143
 30
0.0
 11
302.76456829774429
 21
205.63593189281431
 31
0.0
  0
LINE
  5
4B4F
  8
DANMEN
  6
CONTINUOUS
 10
297.71456829774422
 20
206.8359318928143
 30
0.0
 11
302.26456829774418
 21
206.8359318928143
 31
0.0
  0
LINE
  5
4B50
  8
DANMEN
  6
CONTINUOUS
 10
297.71456829774422
 20
209.6859318928143
 30
0.0
 11
297.71456829774422
 21
206.8359318928143
 31
0.0
  0
LINE
  5
4B51
  8
DANMEN
  6
CONTINUOUS
 10
296.8645682977442
 20
211.6859318928143
 30
0.0
 11
308.76456829774418
 21
211.6859318928143
 31
0.0
  0
ARC
  5
4B52
  8
DANMEN
  6
CONTINUOUS
 10
296.26456829774418
 20
206.1359318928142
 30
0.0
 40
0.5
 50
180.0
 51
270.0
  0
ARC
  5
4B53
  8
DANMEN
  6
CONTINUOUS
 10
302.26456829774418
 20
206.3359318928143
 30
0.0
 40
0.5
 50
0.0
 51
90.0
  0
LINE
  5
4B54
  8
DANMEN
  6
CONTINUOUS
 10
368.76456829774412
 20
206.3359318928143
 30
0.0
 11
368.76456829774412
 21
205.63593189281431
 31
0.0
  0
LINE
  5
4B55
  8
DANMEN
  6
CONTINUOUS
 10
369.26456829774412
 20
206.8359318928143
 30
0.0
 11
373.81456829774407
 21
206.8359318928143
 31
0.0
  0
ARC
  5
4B56
  8
DANMEN
  6
CONTINUOUS
 10
369.26456829774412
 20
206.3359318928143
 30
0.0
 40
0.5
 50
90.0
 51
180.0
  0
ARC
  5
4B57
  8
DANMEN
  6
CONTINUOUS
 10
375.26456829774412
 20
206.1359318928142
 30
0.0
 40
0.5
 50
270.0
 51
0.0
  0
LINE
  5
4B58
  8
DANMEN
  6
CONTINUOUS
 10
323.26456829774418
 20
211.6859318928143
 30
0.0
 11
323.26456829774418
 21
149.13593189281431
 31
0.0
  0
LINE
  5
4B59
  8
DANMEN
  6
CONTINUOUS
 10
325.21456829774422
 20
211.6859318928143
 30
0.0
 11
325.21456829774422
 21
155.13593189281431
 31
0.0
  0
LINE
  5
4B5A
  8
DANMEN
  6
CONTINUOUS
 10
348.26456829774418
 20
211.6859318928143
 30
0.0
 11
361.76456829774412
 21
211.6859318928143
 31
0.0
  0
LINE
  5
4B5B
  8
DANMEN
  6
CONTINUOUS
 10
325.21456829774422
 20
211.6859318928143
 30
0.0
 11
346.31456829774419
 21
211.6859318928143
 31
0.0
  0
LINE
  5
4B5C
  8
DANMEN
  6
CONTINUOUS
 10
346.31456829774419
 20
155.13593189281431
 30
0.0
 11
325.21456829774422
 21
155.13593189281431
 31
0.0
  0
LINE
  5
4B5D
  8
DANMEN
  6
CONTINUOUS
 10
348.26456829774418
 20
211.6859318928143
 30
0.0
 11
348.26456829774418
 21
149.13593189281431
 31
0.0
  0
LINE
  5
4B5E
  8
DANMEN
  6
CONTINUOUS
 10
346.31456829774419
 20
211.6859318928143
 30
0.0
 11
346.31456829774419
 21
155.13593189281431
 31
0.0
  0
LINE
  5
4B5F
  8
DANMEN
  6
CONTINUOUS
 10
348.26456829774418
 20
143.13593189281431
 30
0.0
 11
348.26456829774418
 21
139.3359318928143
 31
0.0
  0
LINE
  5
4B60
  8
DANMEN
  6
CONTINUOUS
 10
333.26456829773667
 20
152.13593189281431
 30
0.0
 11
338.46456829774422
 21
152.13593189281431
 31
0.0
  0
LINE
  5
4B61
  8
DANMEN
  6
CONTINUOUS
 10
346.31456829774419
 20
138.13593189281431
 30
0.0
 11
340.46456829774422
 21
138.13593189281431
 31
0.0
  0
LINE
  5
4B62
  8
DANMEN
  6
CONTINUOUS
 10
348.26456829774418
 20
143.13593189281431
 30
0.0
 11
345.76456829774418
 21
143.13593189281431
 31
0.0
  0
LINE
  5
4B63
  8
DANMEN
  6
CONTINUOUS
 10
348.26456829774418
 20
149.13593189281431
 30
0.0
 11
345.76456829774418
 21
149.13593189281431
 31
0.0
  0
LINE
  5
4B64
  8
DANMEN
  6
CONTINUOUS
 10
346.26456829774418
 20
152.13593189281431
 30
0.0
 11
340.46456829774422
 21
152.13593189281431
 31
0.0
  0
LINE
  5
4B65
  8
DANMEN
  6
CONTINUOUS
 10
345.76456829774418
 20
149.72171833044121
 30
0.0
 11
345.76456829774418
 21
149.13593189281431
 31
0.0
  0
LINE
  5
4B66
  8
DANMEN
  6
CONTINUOUS
 10
346.26456829774418
 20
140.13593189281431
 30
0.0
 11
340.46456829774422
 21
140.13593189281431
 31
0.0
  0
LINE
  5
4B67
  8
DANMEN
  6
CONTINUOUS
 10
346.76456829774429
 20
141.13593189281431
 30
0.0
 11
346.76456829774429
 21
140.63593189281431
 31
0.0
  0
LINE
  5
4B68
  8
DANMEN
  6
CONTINUOUS
 10
346.76456829774429
 20
151.63593189281431
 30
0.0
 11
346.76456829774429
 21
151.13593189281431
 31
0.0
  0
ARC
  5
4B69
  8
DANMEN
  6
CONTINUOUS
 10
346.26456829774418
 20
140.63593189281431
 30
0.0
 40
0.5
 50
270.0
 51
0.0
  0
ARC
  5
4B6A
  8
DANMEN
  6
CONTINUOUS
 10
346.26456829774418
 20
151.63593189281431
 30
0.0
 40
0.5
 50
0.0
 51
90.0
  0
ARC
  5
4B6B
  8
DANMEN
  6
CONTINUOUS
 10
345.76456829774418
 20
151.13593189281431
 30
0.0
 40
1.0
 50
289.47122063448961
 51
0.0
  0
ARC
  5
4B6C
  8
DANMEN
  6
CONTINUOUS
 10
345.76456829774418
 20
141.13593189281431
 30
0.0
 40
1.0
 50
0.0
 51
70.528779365508854
  0
ARC
  5
4B6D
  8
DANMEN
  6
CONTINUOUS
 10
346.26456829774418
 20
149.72171833044121
 30
0.0
 40
0.5
 50
109.4712206344896
 51
180.0
  0
ARC
  5
4B6E
  8
DANMEN
  6
CONTINUOUS
 10
346.26456829774418
 20
142.55014545518731
 30
0.0
 40
0.5
 50
180.0
 51
250.5287793655103
  0
LINE
  5
4B6F
  8
DANMEN
  6
CONTINUOUS
 10
345.76456829774418
 20
143.13593189281431
 30
0.0
 11
345.76456829774418
 21
142.55014545518731
 31
0.0
  0
LINE
  5
4B70
  8
DANMEN
  6
CONTINUOUS
 10
325.76456829774429
 20
143.13593189281431
 30
0.0
 11
325.76456829774429
 21
142.55014545518731
 31
0.0
  0
ARC
  5
4B71
  8
DANMEN
  6
CONTINUOUS
 10
325.26456829774418
 20
142.55014545518731
 30
0.0
 40
0.5
 50
289.47122063448961
 51
0.0
  0
ARC
  5
4B72
  8
DANMEN
  6
CONTINUOUS
 10
325.26456829774418
 20
149.72171833044121
 30
0.0
 40
0.5
 50
0.0
 51
70.528779365508854
  0
ARC
  5
4B73
  8
DANMEN
  6
CONTINUOUS
 10
325.76456829774429
 20
141.13593189281431
 30
0.0
 40
1.0
 50
109.4712206344896
 51
180.0
  0
ARC
  5
4B74
  8
DANMEN
  6
CONTINUOUS
 10
325.76456829774429
 20
151.13593189281431
 30
0.0
 40
1.0
 50
180.0
 51
250.5287793655088
  0
ARC
  5
4B75
  8
DANMEN
  6
CONTINUOUS
 10
325.26456829774418
 20
151.63593189281431
 30
0.0
 40
0.5
 50
90.0
 51
180.0
  0
ARC
  5
4B76
  8
DANMEN
  6
CONTINUOUS
 10
325.26456829774418
 20
140.63593189281431
 30
0.0
 40
0.5
 50
180.0
 51
270.0
  0
LINE
  5
4B77
  8
DANMEN
  6
CONTINUOUS
 10
324.76456829774418
 20
151.63593189281431
 30
0.0
 11
324.76456829774418
 21
151.13593189281431
 31
0.0
  0
LINE
  5
4B78
  8
DANMEN
  6
CONTINUOUS
 10
324.76456829774418
 20
141.13593189281431
 30
0.0
 11
324.76456829774418
 21
140.63593189281431
 31
0.0
  0
LINE
  5
4B79
  8
DANMEN
  6
CONTINUOUS
 10
325.26456829774418
 20
140.13593189281431
 30
0.0
 11
330.76456829774418
 21
140.13593189281431
 31
0.0
  0
LINE
  5
4B7A
  8
DANMEN
  6
CONTINUOUS
 10
325.76456829774429
 20
149.72171833044121
 30
0.0
 11
325.76456829774429
 21
149.13593189281431
 31
0.0
  0
LINE
  5
4B7B
  8
DANMEN
  6
CONTINUOUS
 10
325.26456829774418
 20
152.13593189281431
 30
0.0
 11
330.76456829774418
 21
152.13593189281431
 31
0.0
  0
LINE
  5
4B7C
  8
DANMEN
  6
CONTINUOUS
 10
323.26456829774418
 20
149.13593189281431
 30
0.0
 11
325.76456829774429
 21
149.13593189281431
 31
0.0
  0
LINE
  5
4B7D
  8
DANMEN
  6
CONTINUOUS
 10
323.26456829774418
 20
143.13593189281431
 30
0.0
 11
325.76456829774429
 21
143.13593189281431
 31
0.0
  0
LINE
  5
4B7E
  8
DANMEN
  6
CONTINUOUS
 10
325.21456829774422
 20
138.13593189281431
 30
0.0
 11
331.26456829774418
 21
138.13593189281431
 31
0.0
  0
LINE
  5
4B7F
  8
DANMEN
  6
CONTINUOUS
 10
323.26456829774418
 20
143.13593189281431
 30
0.0
 11
323.26456829774418
 21
139.3359318928143
 31
0.0
  0
LINE
  5
4B80
  8
DANMEN
  6
CONTINUOUS
 10
323.26456829774418
 20
137.8359318928143
 30
0.0
 11
323.26456829774418
 21
128.28593189281429
 31
0.0
  0
LINE
  5
4B81
  8
DANMEN
  6
CONTINUOUS
 10
325.21456829774422
 20
138.13593189281431
 30
0.0
 11
325.21456829774422
 21
130.13593189281431
 31
0.0
  0
LINE
  5
4B82
  8
DANMEN
  6
CONTINUOUS
 10
348.26456829774418
 20
137.8359318928143
 30
0.0
 11
348.26456829774418
 21
128.28593189281429
 31
0.0
  0
LINE
  5
4B83
  8
DANMEN
  6
CONTINUOUS
 10
346.31456829774419
 20
138.13593189281431
 30
0.0
 11
346.31456829774419
 21
130.13593189281431
 31
0.0
  0
ARC
  5
4B84
  8
DANMEN
  6
CONTINUOUS
 10
340.46456829774422
 20
140.13593189281431
 30
0.0
 40
2.0
 50
180.0
 51
270.0
  0
LINE
  5
4B85
  8
DANMEN
  6
CONTINUOUS
 10
340.46456829774422
 20
143.13593189281431
 30
0.0
 11
340.46456829774422
 21
140.13593189281431
 31
0.0
  0
LINE
  5
4B86
  8
DANMEN
  6
CONTINUOUS
 10
340.46456829774422
 20
152.13593189281431
 30
0.0
 11
340.46456829774422
 21
149.13593189281431
 31
0.0
  0
LINE
  5
4B87
  8
DANMEN
  6
CONTINUOUS
 10
338.46456829774422
 20
152.13593189281431
 30
0.0
 11
338.46456829774422
 21
149.13593189281431
 31
0.0
  0
LINE
  5
4B88
  8
DANMEN
  6
CONTINUOUS
 10
340.46456829774422
 20
149.13593189281431
 30
0.0
 11
338.46456829774422
 21
149.13593189281431
 31
0.0
  0
LINE
  5
4B89
  8
DANMEN
  6
CONTINUOUS
 10
340.46456829774422
 20
143.13593189281431
 30
0.0
 11
338.46456829774422
 21
143.13593189281431
 31
0.0
  0
LINE
  5
4B8A
  8
DANMEN
  6
CONTINUOUS
 10
333.06456829774419
 20
143.13593189281431
 30
0.0
 11
330.26456829774429
 21
143.13593189281431
 31
0.0
  0
LINE
  5
4B8B
  8
DANMEN
  6
CONTINUOUS
 10
333.06456829774419
 20
149.13593189281431
 30
0.0
 11
330.26456829774429
 21
149.13593189281431
 31
0.0
  0
LINE
  5
4B8C
  8
DANMEN
  6
CONTINUOUS
 10
330.26456829774429
 20
149.72171833044121
 30
0.0
 11
330.26456829774429
 21
149.13593189281431
 31
0.0
  0
LINE
  5
4B8D
  8
DANMEN
  6
CONTINUOUS
 10
331.26456829774418
 20
141.13593189281431
 30
0.0
 11
331.26456829774418
 21
140.63593189281431
 31
0.0
  0
LINE
  5
4B8E
  8
DANMEN
  6
CONTINUOUS
 10
331.26456829774418
 20
151.63593189281431
 30
0.0
 11
331.26456829774418
 21
151.13593189281431
 31
0.0
  0
ARC
  5
4B8F
  8
DANMEN
  6
CONTINUOUS
 10
330.76456829774418
 20
140.63593189281431
 30
0.0
 40
0.5
 50
270.0
 51
0.0
  0
ARC
  5
4B90
  8
DANMEN
  6
CONTINUOUS
 10
330.76456829774418
 20
151.63593189281431
 30
0.0
 40
0.5
 50
0.0
 51
90.0
  0
ARC
  5
4B91
  8
DANMEN
  6
CONTINUOUS
 10
330.26456829774429
 20
151.13593189281431
 30
0.0
 40
1.0
 50
289.47122063448961
 51
0.0
  0
ARC
  5
4B92
  8
DANMEN
  6
CONTINUOUS
 10
330.26456829774429
 20
141.13593189281431
 30
0.0
 40
1.0
 50
0.0
 51
70.528779365508854
  0
ARC
  5
4B93
  8
DANMEN
  6
CONTINUOUS
 10
330.76456829774418
 20
149.72171833044121
 30
0.0
 40
0.5
 50
109.4712206344896
 51
180.0
  0
ARC
  5
4B94
  8
DANMEN
  6
CONTINUOUS
 10
330.76456829774418
 20
142.55014545518731
 30
0.0
 40
0.5
 50
180.0
 51
250.5287793655103
  0
LINE
  5
4B95
  8
DANMEN
  6
CONTINUOUS
 10
330.26456829774429
 20
143.13593189281431
 30
0.0
 11
330.26456829774429
 21
142.55014545518731
 31
0.0
  0
ARC
  5
4B96
  8
DANMEN
  6
CONTINUOUS
 10
331.26456829774418
 20
140.13593189281431
 30
0.0
 40
2.0
 50
270.0
 51
0.0
  0
LINE
  5
4B97
  8
DANMEN
  6
CONTINUOUS
 10
333.06456829774419
 20
149.13593189281431
 30
0.0
 11
333.26456829774418
 21
149.63593189281431
 31
0.0
  0
LINE
  5
4B98
  8
DANMEN
  6
CONTINUOUS
 10
333.26456829774418
 20
142.63593189281431
 30
0.0
 11
333.06456829774419
 21
143.13593189281431
 31
0.0
  0
LINE
  5
4B99
  8
DANMEN
  6
CONTINUOUS
 10
333.26456829774418
 20
142.63593189281431
 30
0.0
 11
333.26456829774418
 21
140.13593189281431
 31
0.0
  0
LINE
  5
4B9A
  8
DANMEN
  6
CONTINUOUS
 10
333.26456829773667
 20
152.13593189281431
 30
0.0
 11
333.26456829773667
 21
149.63593189280681
 31
0.0
  0
LINE
  5
4B9B
  8
DANMEN
  6
CONTINUOUS
 10
346.31456829774419
 20
130.13593189281431
 30
0.0
 11
325.21456829774422
 21
130.13593189281431
 31
0.0
  0
LINE
  5
4B9C
  8
DANMEN
  6
CONTINUOUS
 10
338.46456829774422
 20
143.13593189281431
 30
0.0
 11
338.46456829774422
 21
140.13593189281431
 31
0.0
  0
ARC
  5
4B9D
  8
DANMEN
  6
CONTINUOUS
 10
321.26456829774418
 20
139.3359318928143
 30
0.0
 40
1.5
 50
180.0
 51
270.0
  0
ARC
  5
4B9E
  8
DANMEN
  6
CONTINUOUS
 10
350.26456829774418
 20
139.3359318928143
 30
0.0
 40
1.5
 50
270.0
 51
0.0
  0
LINE
  5
4B9F
  8
DANMEN
  6
CONTINUOUS
 10
243.7645697924028
 20
149.13593189281431
 30
0.0
 11
243.7645697924028
 21
143.13593189281431
 31
0.0
  0
LINE
  5
4BA0
  8
DANMEN
  6
CONTINUOUS
 10
235.7645697924028
 20
149.13593189281431
 30
0.0
 11
235.7645697924028
 21
143.13593189281431
 31
0.0
  0
LINE
  5
4BA1
  8
DANMEN
  6
CONTINUOUS
 10
245.7645697924028
 20
139.3359318928143
 30
0.0
 11
245.7645697924028
 21
138.9359318928143
 31
0.0
  0
LINE
  5
4BA2
  8
DANMEN
  6
CONTINUOUS
 10
245.7645697924028
 20
138.9359318928143
 30
0.0
 11
243.7645697924028
 21
138.9359318928143
 31
0.0
  0
ARC
  5
4BA3
  8
DANMEN
  6
CONTINUOUS
 10
257.26456979240282
 20
139.3359318928143
 30
0.0
 40
1.5
 50
270.0
 51
0.0
  0
LINE
  5
4BA4
  8
DANMEN
  6
CONTINUOUS
 10
243.7645697924028
 20
137.8359318928143
 30
0.0
 11
243.7645697924028
 21
122.73593189281431
 31
0.0
  0
LINE
  5
4BA5
  8
DANMEN
  6
CONTINUOUS
 10
241.7645697924028
 20
138.13593189281431
 30
0.0
 11
241.7645697924028
 21
123.2859318928143
 31
0.0
  0
LINE
  5
4BA6
  8
DANMEN
  6
CONTINUOUS
 10
235.7645697924028
 20
154.13593189281431
 30
0.0
 11
241.7645697924028
 21
154.13593189281431
 31
0.0
  0
ARC
  5
4BA7
  8
DANMEN
  6
CONTINUOUS
 10
235.7645697924028
 20
152.13593189281431
 30
0.0
 40
2.0
 50
90.0
 51
180.0
  0
LINE
  5
4BA8
  8
DANMEN
  6
CONTINUOUS
 10
233.7645697924028
 20
152.13593189281431
 30
0.0
 11
233.7645697924028
 21
149.63593189281431
 31
0.0
  0
LINE
  5
4BA9
  8
DANMEN
  6
CONTINUOUS
 10
236.7645697924028
 20
143.13593189281431
 30
0.0
 11
236.7645697924028
 21
142.55014545518731
 31
0.0
  0
ARC
  5
4BAA
  8
DANMEN
  6
CONTINUOUS
 10
236.2645697924028
 20
142.55014545518731
 30
0.0
 40
0.5
 50
289.47122063448961
 51
0.0
  0
ARC
  5
4BAB
  8
DANMEN
  6
CONTINUOUS
 10
236.2645697924028
 20
149.72171833044121
 30
0.0
 40
0.5
 50
0.0
 51
70.528779365510388
  0
ARC
  5
4BAC
  8
DANMEN
  6
CONTINUOUS
 10
236.7645697924028
 20
141.13593189281431
 30
0.0
 40
1.0
 50
109.4712206344911
 51
180.0
  0
ARC
  5
4BAD
  8
DANMEN
  6
CONTINUOUS
 10
236.7645697924028
 20
151.13593189281431
 30
0.0
 40
1.0
 50
180.0
 51
250.5287793655088
  0
ARC
  5
4BAE
  8
DANMEN
  6
CONTINUOUS
 10
236.2645697924028
 20
151.63593189281431
 30
0.0
 40
0.5
 50
90.0
 51
180.0
  0
ARC
  5
4BAF
  8
DANMEN
  6
CONTINUOUS
 10
236.2645697924028
 20
140.63593189281431
 30
0.0
 40
0.5
 50
180.0
 51
270.0
  0
LINE
  5
4BB0
  8
DANMEN
  6
CONTINUOUS
 10
235.7645697924028
 20
151.63593189281431
 30
0.0
 11
235.7645697924028
 21
151.13593189281431
 31
0.0
  0
LINE
  5
4BB1
  8
DANMEN
  6
CONTINUOUS
 10
235.7645697924028
 20
141.13593189281431
 30
0.0
 11
235.7645697924028
 21
140.63593189281431
 31
0.0
  0
LINE
  5
4BB2
  8
DANMEN
  6
CONTINUOUS
 10
236.7645697924028
 20
149.72171833044121
 30
0.0
 11
236.7645697924028
 21
149.13593189281431
 31
0.0
  0
LINE
  5
4BB3
  8
DANMEN
  6
CONTINUOUS
 10
233.96456978048181
 20
149.13593189281431
 30
0.0
 11
236.7645697924028
 21
149.13593189281431
 31
0.0
  0
LINE
  5
4BB4
  8
DANMEN
  6
CONTINUOUS
 10
233.96456979240281
 20
143.13593189281431
 30
0.0
 11
236.7645697924028
 21
143.13593189281431
 31
0.0
  0
LINE
  5
4BB5
  8
DANMEN
  6
CONTINUOUS
 10
236.2645697924028
 20
152.13593189281431
 30
0.0
 11
241.7645697924028
 21
152.13593189281431
 31
0.0
  0
LINE
  5
4BB6
  8
DANMEN
  6
CONTINUOUS
 10
243.7645697924028
 20
143.13593189281431
 30
0.0
 11
241.2645697924028
 21
143.13593189281431
 31
0.0
  0
LINE
  5
4BB7
  8
DANMEN
  6
CONTINUOUS
 10
243.7645697924028
 20
149.13593189281431
 30
0.0
 11
241.2645697924028
 21
149.13593189281431
 31
0.0
  0
LINE
  5
4BB8
  8
DANMEN
  6
CONTINUOUS
 10
241.2645697924028
 20
149.72171833044121
 30
0.0
 11
241.2645697924028
 21
149.13593189281431
 31
0.0
  0
LINE
  5
4BB9
  8
DANMEN
  6
CONTINUOUS
 10
236.2645697924028
 20
140.13593189281431
 30
0.0
 11
241.7645697924028
 21
140.13593189281431
 31
0.0
  0
LINE
  5
4BBA
  8
DANMEN
  6
CONTINUOUS
 10
242.2645697924028
 20
141.13593189281431
 30
0.0
 11
242.2645697924028
 21
140.63593189281431
 31
0.0
  0
LINE
  5
4BBB
  8
DANMEN
  6
CONTINUOUS
 10
242.2645697924028
 20
151.63593189281431
 30
0.0
 11
242.2645697924028
 21
151.13593189281431
 31
0.0
  0
ARC
  5
4BBC
  8
DANMEN
  6
CONTINUOUS
 10
241.7645697924028
 20
140.63593189281431
 30
0.0
 40
0.5
 50
270.0
 51
0.0
  0
ARC
  5
4BBD
  8
DANMEN
  6
CONTINUOUS
 10
241.7645697924028
 20
151.63593189281431
 30
0.0
 40
0.5
 50
0.0
 51
90.0
  0
ARC
  5
4BBE
  8
DANMEN
  6
CONTINUOUS
 10
241.2645697924028
 20
151.13593189281431
 30
0.0
 40
1.0
 50
289.47122063449109
 51
0.0
  0
ARC
  5
4BBF
  8
DANMEN
  6
CONTINUOUS
 10
241.2645697924028
 20
141.13593189281431
 30
0.0
 40
1.0
 50
0.0
 51
70.528779365508854
  0
ARC
  5
4BC0
  8
DANMEN
  6
CONTINUOUS
 10
241.7645697924028
 20
149.72171833044121
 30
0.0
 40
0.5
 50
109.4712206344896
 51
180.0
  0
ARC
  5
4BC1
  8
DANMEN
  6
CONTINUOUS
 10
241.7645697924028
 20
142.55014545518731
 30
0.0
 40
0.5
 50
180.0
 51
250.5287793655103
  0
LINE
  5
4BC2
  8
DANMEN
  6
CONTINUOUS
 10
241.2645697924028
 20
143.13593189281431
 30
0.0
 11
241.2645697924028
 21
142.55014545518731
 31
0.0
  0
LINE
  5
4BC3
  8
DANMEN
  6
CONTINUOUS
 10
235.7645697924028
 20
138.13593189281431
 30
0.0
 11
241.7645697924028
 21
138.13593189281431
 31
0.0
  0
LINE
  5
4BC4
  8
DANMEN
  6
CONTINUOUS
 10
233.7645697924028
 20
142.63593189281431
 30
0.0
 11
233.7645697924028
 21
140.13593189281431
 31
0.0
  0
LINE
  5
4BC5
  8
DANMEN
  6
CONTINUOUS
 10
233.7645697924028
 20
149.63593189281431
 30
0.0
 11
233.96456979240281
 21
149.1359318630119
 31
0.0
  0
LINE
  5
4BC6
  8
DANMEN
  6
CONTINUOUS
 10
233.96456979240281
 20
143.13593189281431
 30
0.0
 11
233.7645697924028
 21
142.63593189281431
 31
0.0
  0
ARC
  5
4BC7
  8
DANMEN
  6
CONTINUOUS
 10
235.7645697924028
 20
140.13593189281431
 30
0.0
 40
2.0
 50
180.0
 51
270.0
  0
LINE
  5
4BC8
  8
DANMEN
  6
CONTINUOUS
 10
229.9145697924028
 20
130.13593189281431
 30
0.0
 11
229.2645697924028
 21
130.13593189281431
 31
0.0
  0
ARC
  5
4BC9
  8
DANMEN
  6
CONTINUOUS
 10
229.9145697924028
 20
129.63593189281431
 30
0.0
 40
0.5
 50
0.0
 51
90.0
  0
ARC
  5
4BCA
  8
DANMEN
  6
CONTINUOUS
 10
229.2645697924028
 20
129.63593189281431
 30
0.0
 40
0.5
 50
90.0
 51
180.0
  0
LINE
  5
4BCB
  8
DANMEN
  6
CONTINUOUS
 10
230.4145697924028
 20
129.63593189281431
 30
0.0
 11
230.4145697924028
 21
123.2859318928143
 31
0.0
  0
LINE
  5
4BCC
  8
DANMEN
  6
CONTINUOUS
 10
228.7645697924028
 20
129.63593189281431
 30
0.0
 11
228.7645697924028
 21
122.1359318928143
 31
0.0
  0
LINE
  5
4BCD
  8
DANMEN
  6
CONTINUOUS
 10
241.7645697924028
 20
123.2859318928143
 30
0.0
 11
230.4145697924028
 21
123.2859318928143
 31
0.0
  0
ARC
  5
4BCE
  8
DANMEN
  6
CONTINUOUS
 10
229.2645697924028
 20
221.13593189281431
 30
0.0
 40
0.5
 50
90.0
 51
180.0
  0
LINE
  5
4BCF
  8
DANMEN
  6
CONTINUOUS
 10
230.4145697924028
 20
219.98593189281431
 30
0.0
 11
230.4145697924028
 21
166.63593189281431
 31
0.0
  0
LINE
  5
4BD0
  8
DANMEN
  6
CONTINUOUS
 10
228.7645697924028
 20
221.13593189281431
 30
0.0
 11
228.7645697924028
 21
166.63593189281431
 31
0.0
  0
LINE
  5
4BD1
  8
DANMEN
  6
CONTINUOUS
 10
228.7645697924028
 20
164.98593189281431
 30
0.0
 11
228.7645697924028
 21
162.63593189281431
 31
0.0
  0
LINE
  5
4BD2
  8
DANMEN
  6
CONTINUOUS
 10
229.2645697924028
 20
162.13593189281431
 30
0.0
 11
229.9145636888872
 21
162.13593189281431
 31
0.0
  0
LINE
  5
4BD3
  8
DANMEN
  6
CONTINUOUS
 10
230.41456368888711
 20
164.98593189281431
 30
0.0
 11
230.41456368888711
 21
162.63593189281431
 31
0.0
  0
ARC
  5
4BD4
  8
DANMEN
  6
CONTINUOUS
 10
229.2645697924028
 20
162.63593189281431
 30
0.0
 40
0.5
 50
180.00003597217889
 51
269.99996334457558
  0
ARC
  5
4BD5
  8
DANMEN
  6
CONTINUOUS
 10
229.9145636888872
 20
162.63593189281431
 30
0.0
 40
0.5
 50
270.00001798608901
 51
359.99998133066458
  0
LINE
  5
4BD6
  8
DANMEN
  6
CONTINUOUS
 10
219.2645697924028
 20
166.13593189281431
 30
0.0
 11
219.2645697924028
 21
165.48593189281431
 31
0.0
  0
LINE
  5
4BD7
  8
DANMEN
  6
CONTINUOUS
 10
219.7645697924028
 20
164.98593189281431
 30
0.0
 11
228.7645697924028
 21
164.98593189281431
 31
0.0
  0
ARC
  5
4BD8
  8
DANMEN
  6
CONTINUOUS
 10
219.7645697924028
 20
165.48593189281431
 30
0.0
 40
0.5
 50
180.00001866933439
 51
270.00000068324448
  0
LINE
  5
4BD9
  8
DANMEN
  6
CONTINUOUS
 10
219.7645697924028
 20
166.63593189281431
 30
0.0
 11
228.7645697924028
 21
166.63593189281431
 31
0.0
  0
ARC
  5
4BDA
  8
DANMEN
  6
CONTINUOUS
 10
219.7645697924028
 20
166.13593189281431
 30
0.0
 40
0.5
 50
89.999982013910966
 51
180.00001866933439
  0
LINE
  5
4BDB
  8
DANMEN
  6
CONTINUOUS
 10
230.41456368888711
 20
166.63593189281431
 30
0.0
 11
242.11457589591839
 21
166.63593189281431
 31
0.0
  0
LINE
  5
4BDC
  8
DANMEN
  6
CONTINUOUS
 10
230.41456368888711
 20
164.98593189281431
 30
0.0
 11
241.7645697924028
 21
164.98593189281431
 31
0.0
  0
LINE
  5
4BDD
  8
DANMEN
  6
CONTINUOUS
 10
258.26456979240282
 20
221.63593189281431
 30
0.0
 11
229.2645697924028
 21
221.63593189281431
 31
0.0
  0
LINE
  5
4BDE
  8
DANMEN
  6
CONTINUOUS
 10
241.7645697924028
 20
219.98593189281431
 30
0.0
 11
230.4145697924028
 21
219.98593189281431
 31
0.0
  0
LINE
  5
4BDF
  8
DANMEN
  6
CONTINUOUS
 10
282.26456979240282
 20
213.63593189281431
 30
0.0
 11
243.7645697924028
 21
213.63593189281431
 31
0.0
  0
LINE
  5
4BE0
  8
DANMEN
  6
CONTINUOUS
 10
282.76456979240282
 20
213.13593189281431
 30
0.0
 11
282.76456979240282
 21
206.1359318928142
 31
0.0
  0
LINE
  5
4BE1
  8
DANMEN
  6
CONTINUOUS
 10
258.76456979240282
 20
221.13593189281431
 30
0.0
 11
258.76456979240282
 21
220.48593189281419
 31
0.0
  0
ARC
  5
4BE2
  8
DANMEN
  6
CONTINUOUS
 10
258.26456979240282
 20
221.13593189281431
 30
0.0
 40
0.5
 50
0.0
 51
90.0
  0
LINE
  5
4BE3
  8
DANMEN
  6
CONTINUOUS
 10
243.7645697924028
 20
220.53593189281429
 30
0.0
 11
243.7645697924028
 21
213.63593189281431
 31
0.0
  0
LINE
  5
4BE4
  8
DANMEN
  6
CONTINUOUS
 10
258.26456979240282
 20
219.98593189281431
 30
0.0
 11
245.7645697924028
 21
219.98593189281431
 31
0.0
  0
ARC
  5
4BE5
  8
DANMEN
  6
CONTINUOUS
 10
258.26456979240282
 20
220.48593189281419
 30
0.0
 40
0.5
 50
270.0
 51
0.0
  0
LINE
  5
4BE6
  8
DANMEN
  6
CONTINUOUS
 10
245.7645697924028
 20
220.53593189281429
 30
0.0
 11
245.7645697924028
 21
219.98593189281431
 31
0.0
  0
LINE
  5
4BE7
  8
DANMEN
  6
CONTINUOUS
 10
245.7645697924028
 20
220.53593189281429
 30
0.0
 11
243.7645697924028
 21
220.53593189281429
 31
0.0
  0
LINE
  5
4BE8
  8
DANMEN
  6
CONTINUOUS
 10
281.6645697924028
 20
211.98593189281419
 30
0.0
 11
269.76456979240282
 21
211.98593189281419
 31
0.0
  0
LINE
  5
4BE9
  8
DANMEN
  6
CONTINUOUS
 10
243.7645697924028
 20
211.98593189281419
 30
0.0
 11
243.7645697924028
 21
149.13593189281431
 31
0.0
  0
LINE
  5
4BEA
  8
DANMEN
  6
CONTINUOUS
 10
282.26456979240282
 20
205.63593189281431
 30
0.0
 11
275.76456979240282
 21
205.63593189281431
 31
0.0
  0
LINE
  5
4BEB
  8
DANMEN
  6
CONTINUOUS
 10
275.76456979240282
 20
206.3359318928143
 30
0.0
 11
275.76456979240282
 21
205.63593189281431
 31
0.0
  0
LINE
  5
4BEC
  8
DANMEN
  6
CONTINUOUS
 10
281.11456979240279
 20
206.8359318928143
 30
0.0
 11
276.26456979240282
 21
206.8359318928143
 31
0.0
  0
LINE
  5
4BED
  8
DANMEN
  6
CONTINUOUS
 10
281.11456979240279
 20
209.98593189281419
 30
0.0
 11
281.11456979240279
 21
206.8359318928143
 31
0.0
  0
ARC
  5
4BEE
  8
DANMEN
  6
CONTINUOUS
 10
276.26456979240282
 20
206.3359318928143
 30
0.0
 40
0.5
 50
90.0
 51
180.0
  0
ARC
  5
4BEF
  8
DANMEN
  6
CONTINUOUS
 10
282.26456979240282
 20
206.1359318928142
 30
0.0
 40
0.5
 50
270.0
 51
0.0
  0
ARC
  5
4BF0
  8
DANMEN
  6
CONTINUOUS
 10
282.26456979240282
 20
213.13593189281431
 30
0.0
 40
0.5
 50
0.0
 51
90.0
  0
LINE
  5
4BF1
  8
DANMEN
  6
CONTINUOUS
 10
241.7645697924028
 20
219.98593189281431
 30
0.0
 11
241.7645697924028
 21
169.63593189281431
 31
0.0
  0
LINE
  5
4BF2
  8
DANMEN
  6
CONTINUOUS
 10
243.7645697924028
 20
143.13593189281431
 30
0.0
 11
243.7645697924028
 21
138.9359318928143
 31
0.0
  0
LINE
  5
4BF3
  8
DANMEN
  6
CONTINUOUS
 10
245.7645697924028
 20
123.2859318928143
 30
0.0
 11
245.7645697924028
 21
122.73593189281431
 31
0.0
  0
LINE
  5
4BF4
  8
DANMEN
  6
CONTINUOUS
 10
245.7645697924028
 20
122.73593189281431
 30
0.0
 11
243.7645697924028
 21
122.73593189281431
 31
0.0
  0
LINE
  5
4BF5
  8
DANMEN
  6
CONTINUOUS
 10
241.7645697924028
 20
164.98593189281431
 30
0.0
 11
241.7645697924028
 21
154.13593189281431
 31
0.0
  0
LINE
  5
4BF6
  8
DANMEN
  6
CONTINUOUS
 10
242.11456979240279
 20
169.63593189281431
 30
0.0
 11
242.11456979240279
 21
166.63593189281431
 31
0.0
  0
LINE
  5
4BF7
  8
DANMEN
  6
CONTINUOUS
 10
242.11456979240279
 20
169.63593189281431
 30
0.0
 11
241.7645697924028
 21
169.63593189281431
 31
0.0
  0
LINE
  5
4BF8
  8
DANMEN
  6
CONTINUOUS
 10
269.76456979240282
 20
211.98593189281419
 30
0.0
 11
269.76456979240282
 21
206.1359318928142
 31
0.0
  0
LINE
  5
4BF9
  8
DANMEN
  6
CONTINUOUS
 10
268.76456979240282
 20
211.98593189281419
 30
0.0
 11
268.76456979240282
 21
206.1359318928142
 31
0.0
  0
ARC
  5
4BFA
  8
DANMEN
  6
CONTINUOUS
 10
269.26456979240282
 20
206.1359318928142
 30
0.0
 40
0.5
 50
180.0
 51
0.0
  0
LINE
  5
4BFB
  8
DANMEN
  6
CONTINUOUS
 10
268.76456979240282
 20
211.98593189281419
 30
0.0
 11
243.7645697924028
 21
211.98593189281419
 31
0.0
  0
LINE
  5
4BFC
  8
DANMEN
  6
CONTINUOUS
 10
281.6645697924028
 20
211.98593189281419
 30
0.0
 11
281.6645697924028
 21
209.98593189281419
 31
0.0
  0
LINE
  5
4BFD
  8
DANMEN
  6
CONTINUOUS
 10
281.6645697924028
 20
209.98593189281419
 30
0.0
 11
281.11456979240279
 21
209.98593189281419
 31
0.0
  0
LINE
  5
4BFE
  8
DANMEN
  6
CONTINUOUS
 10
229.2645697924028
 20
121.6359318928143
 30
0.0
 11
258.26456979240282
 21
121.6359318928143
 31
0.0
  0
LINE
  5
4BFF
  8
DANMEN
  6
CONTINUOUS
 10
257.11456979240268
 20
123.2859318928143
 30
0.0
 11
245.7645697924028
 21
123.2859318928143
 31
0.0
  0
LINE
  5
4C00
  8
DANMEN
  6
CONTINUOUS
 10
257.26456979240282
 20
139.3359318928143
 30
0.0
 11
245.7645697924028
 21
139.3359318928143
 31
0.0
  0
LINE
  5
4C01
  8
DANMEN
  6
CONTINUOUS
 10
257.26456979240282
 20
137.8359318928143
 30
0.0
 11
243.7645697924028
 21
137.8359318928143
 31
0.0
  0
ARC
  5
4C02
  8
DANMEN
  6
CONTINUOUS
 10
257.76456979240282
 20
141.13593189281431
 30
0.0
 40
0.5
 50
90.0
 51
180.0
  0
ARC
  5
4C03
  8
DANMEN
  6
CONTINUOUS
 10
258.26456979240282
 20
141.13593189281431
 30
0.0
 40
0.5
 50
0.0
 51
90.0
  0
LINE
  5
4C04
  8
DANMEN
  6
CONTINUOUS
 10
258.26456979240282
 20
141.63593189281431
 30
0.0
 11
257.76456979240282
 21
141.63593189281431
 31
0.0
  0
LINE
  5
4C05
  8
DANMEN
  6
CONTINUOUS
 10
257.26456979240282
 20
141.13593189281431
 30
0.0
 11
257.26456979240282
 21
139.3359318928143
 31
0.0
  0
LINE
  5
4C06
  8
DANMEN
  6
CONTINUOUS
 10
258.76456979240282
 20
141.13593189281431
 30
0.0
 11
258.76456979240282
 21
139.3359318928143
 31
0.0
  0
ARC
  5
4C07
  8
DANMEN
  6
CONTINUOUS
 10
258.26456979240282
 20
122.1359318928143
 30
0.0
 40
0.5
 50
270.0
 51
0.0
  0
LINE
  5
4C08
  8
DANMEN
  6
CONTINUOUS
 10
257.76456979240282
 20
130.63593189281431
 30
0.0
 11
257.61456979240268
 21
130.63593189281431
 31
0.0
  0
LINE
  5
4C09
  8
DANMEN
  6
CONTINUOUS
 10
258.76456979240282
 20
129.63593189281431
 30
0.0
 11
258.76456979240282
 21
122.1359318928143
 31
0.0
  0
LINE
  5
4C0A
  8
DANMEN
  6
CONTINUOUS
 10
257.11456979240268
 20
130.13593189281431
 30
0.0
 11
257.11456979240268
 21
123.2859318928143
 31
0.0
  0
ARC
  5
4C0B
  8
DANMEN
  6
CONTINUOUS
 10
257.61456979240268
 20
130.13593189281431
 30
0.0
 40
0.5
 50
90.0
 51
180.0
  0
ARC
  5
4C0C
  8
DANMEN
  6
CONTINUOUS
 10
257.76456979240282
 20
129.63593189281431
 30
0.0
 40
1.0
 50
0.0
 51
90.0
  0
ARC
  5
4C0D
  8
DANMEN
  6
CONTINUOUS
 10
229.2645697924028
 20
122.1359318928143
 30
0.0
 40
0.5
 50
180.0
 51
270.0
  0
LINE
  5
4C0E
  8
DANMEN
  6
CONTINUOUS
 10
427.76456680308559
 20
149.13593189281431
 30
0.0
 11
427.76456680308559
 21
143.13593189281431
 31
0.0
  0
LINE
  5
4C0F
  8
DANMEN
  6
CONTINUOUS
 10
435.7645668030857
 20
149.13593189281431
 30
0.0
 11
435.7645668030857
 21
143.13593189281431
 31
0.0
  0
LINE
  5
4C10
  8
DANMEN
  6
CONTINUOUS
 10
425.7645668030857
 20
139.3359318928143
 30
0.0
 11
425.7645668030857
 21
138.9359318928143
 31
0.0
  0
LINE
  5
4C11
  8
DANMEN
  6
CONTINUOUS
 10
425.7645668030857
 20
138.9359318928143
 30
0.0
 11
427.76456680308559
 21
138.9359318928143
 31
0.0
  0
ARC
  5
4C12
  8
DANMEN
  6
CONTINUOUS
 10
414.2645668030857
 20
139.3359318928143
 30
0.0
 40
1.5
 50
180.0
 51
270.0
  0
LINE
  5
4C13
  8
DANMEN
  6
CONTINUOUS
 10
427.76456680308559
 20
137.8359318928143
 30
0.0
 11
427.76456680308559
 21
122.73593189281419
 31
0.0
  0
LINE
  5
4C14
  8
DANMEN
  6
CONTINUOUS
 10
429.7645668030857
 20
138.13593189281431
 30
0.0
 11
429.7645668030857
 21
123.2859318928143
 31
0.0
  0
LINE
  5
4C15
  8
DANMEN
  6
CONTINUOUS
 10
435.7645668030857
 20
154.13593189281431
 30
0.0
 11
429.7645668030857
 21
154.13593189281431
 31
0.0
  0
ARC
  5
4C16
  8
DANMEN
  6
CONTINUOUS
 10
435.7645668030857
 20
152.13593189281431
 30
0.0
 40
2.0
 50
0.0
 51
90.0
  0
LINE
  5
4C17
  8
DANMEN
  6
CONTINUOUS
 10
437.7645668030857
 20
152.13593189281431
 30
0.0
 11
437.7645668030857
 21
149.63593189281431
 31
0.0
  0
LINE
  5
4C18
  8
DANMEN
  6
CONTINUOUS
 10
434.7645668030857
 20
143.13593189281431
 30
0.0
 11
434.7645668030857
 21
142.55014545518731
 31
0.0
  0
ARC
  5
4C19
  8
DANMEN
  6
CONTINUOUS
 10
435.2645668030857
 20
142.55014545518731
 30
0.0
 40
0.5
 50
180.0
 51
250.5287793655103
  0
ARC
  5
4C1A
  8
DANMEN
  6
CONTINUOUS
 10
435.2645668030857
 20
149.72171833044121
 30
0.0
 40
0.5
 50
109.4712206344896
 51
180.0
  0
ARC
  5
4C1B
  8
DANMEN
  6
CONTINUOUS
 10
434.7645668030857
 20
141.13593189281431
 30
0.0
 40
1.0
 50
0.0
 51
70.528779365508854
  0
ARC
  5
4C1C
  8
DANMEN
  6
CONTINUOUS
 10
434.7645668030857
 20
151.13593189281431
 30
0.0
 40
1.0
 50
289.47122063449109
 51
0.0
  0
ARC
  5
4C1D
  8
DANMEN
  6
CONTINUOUS
 10
435.2645668030857
 20
151.63593189281431
 30
0.0
 40
0.5
 50
0.0
 51
90.0
  0
ARC
  5
4C1E
  8
DANMEN
  6
CONTINUOUS
 10
435.2645668030857
 20
140.63593189281431
 30
0.0
 40
0.5
 50
270.0
 51
0.0
  0
LINE
  5
4C1F
  8
DANMEN
  6
CONTINUOUS
 10
435.7645668030857
 20
151.63593189281431
 30
0.0
 11
435.7645668030857
 21
151.13593189281431
 31
0.0
  0
LINE
  5
4C20
  8
DANMEN
  6
CONTINUOUS
 10
435.7645668030857
 20
141.13593189281431
 30
0.0
 11
435.7645668030857
 21
140.63593189281431
 31
0.0
  0
LINE
  5
4C21
  8
DANMEN
  6
CONTINUOUS
 10
434.7645668030857
 20
149.72171833044121
 30
0.0
 11
434.7645668030857
 21
149.13593189281431
 31
0.0
  0
LINE
  5
4C22
  8
DANMEN
  6
CONTINUOUS
 10
437.56456681500657
 20
149.13593189281431
 30
0.0
 11
434.7645668030857
 21
149.13593189281431
 31
0.0
  0
LINE
  5
4C23
  8
DANMEN
  6
CONTINUOUS
 10
437.5645668030856
 20
143.13593189281431
 30
0.0
 11
434.7645668030857
 21
143.13593189281431
 31
0.0
  0
LINE
  5
4C24
  8
DANMEN
  6
CONTINUOUS
 10
435.2645668030857
 20
152.13593189281431
 30
0.0
 11
429.7645668030857
 21
152.13593189281431
 31
0.0
  0
LINE
  5
4C25
  8
DANMEN
  6
CONTINUOUS
 10
427.76456680308559
 20
143.13593189281431
 30
0.0
 11
430.2645668030857
 21
143.13593189281431
 31
0.0
  0
LINE
  5
4C26
  8
DANMEN
  6
CONTINUOUS
 10
427.76456680308559
 20
149.13593189281431
 30
0.0
 11
430.2645668030857
 21
149.13593189281431
 31
0.0
  0
LINE
  5
4C27
  8
DANMEN
  6
CONTINUOUS
 10
430.2645668030857
 20
149.72171833044121
 30
0.0
 11
430.2645668030857
 21
149.13593189281431
 31
0.0
  0
LINE
  5
4C28
  8
DANMEN
  6
CONTINUOUS
 10
435.2645668030857
 20
140.13593189281431
 30
0.0
 11
429.7645668030857
 21
140.13593189281431
 31
0.0
  0
LINE
  5
4C29
  8
DANMEN
  6
CONTINUOUS
 10
429.26456680308559
 20
141.13593189281431
 30
0.0
 11
429.26456680308559
 21
140.63593189281431
 31
0.0
  0
LINE
  5
4C2A
  8
DANMEN
  6
CONTINUOUS
 10
429.26456680308559
 20
151.63593189281431
 30
0.0
 11
429.26456680308559
 21
151.13593189281431
 31
0.0
  0
ARC
  5
4C2B
  8
DANMEN
  6
CONTINUOUS
 10
429.7645668030857
 20
140.63593189281431
 30
0.0
 40
0.5
 50
180.0
 51
270.0
  0
ARC
  5
4C2C
  8
DANMEN
  6
CONTINUOUS
 10
429.7645668030857
 20
151.63593189281431
 30
0.0
 40
0.5
 50
90.0
 51
180.0
  0
ARC
  5
4C2D
  8
DANMEN
  6
CONTINUOUS
 10
430.2645668030857
 20
151.13593189281431
 30
0.0
 40
1.0
 50
180.0
 51
250.5287793655088
  0
ARC
  5
4C2E
  8
DANMEN
  6
CONTINUOUS
 10
430.2645668030857
 20
141.13593189281431
 30
0.0
 40
1.0
 50
109.4712206344911
 51
180.0
  0
ARC
  5
4C2F
  8
DANMEN
  6
CONTINUOUS
 10
429.7645668030857
 20
149.72171833044121
 30
0.0
 40
0.5
 50
0.0
 51
70.528779365510388
  0
ARC
  5
4C30
  8
DANMEN
  6
CONTINUOUS
 10
429.7645668030857
 20
142.55014545518731
 30
0.0
 40
0.5
 50
289.47122063448961
 51
0.0
  0
LINE
  5
4C31
  8
DANMEN
  6
CONTINUOUS
 10
430.2645668030857
 20
143.13593189281431
 30
0.0
 11
430.2645668030857
 21
142.55014545518731
 31
0.0
  0
LINE
  5
4C32
  8
DANMEN
  6
CONTINUOUS
 10
435.7645668030857
 20
138.13593189281431
 30
0.0
 11
429.7645668030857
 21
138.13593189281431
 31
0.0
  0
LINE
  5
4C33
  8
DANMEN
  6
CONTINUOUS
 10
437.7645668030857
 20
142.63593189281431
 30
0.0
 11
437.7645668030857
 21
140.13593189281431
 31
0.0
  0
LINE
  5
4C34
  8
DANMEN
  6
CONTINUOUS
 10
437.7645668030857
 20
149.63593189281431
 30
0.0
 11
437.5645668030856
 21
149.1359318630119
 31
0.0
  0
LINE
  5
4C35
  8
DANMEN
  6
CONTINUOUS
 10
437.5645668030856
 20
143.13593189281431
 30
0.0
 11
437.7645668030857
 21
142.63593189281431
 31
0.0
  0
ARC
  5
4C36
  8
DANMEN
  6
CONTINUOUS
 10
435.7645668030857
 20
140.13593189281431
 30
0.0
 40
2.0
 50
270.0
 51
0.0
  0
LINE
  5
4C37
  8
DANMEN
  6
CONTINUOUS
 10
441.61456680308572
 20
130.13593189281431
 30
0.0
 11
442.26456680308547
 21
130.13593189281431
 31
0.0
  0
ARC
  5
4C38
  8
DANMEN
  6
CONTINUOUS
 10
441.61456680308572
 20
129.63593189281431
 30
0.0
 40
0.5
 50
90.0
 51
180.0
  0
ARC
  5
4C39
  8
DANMEN
  6
CONTINUOUS
 10
442.26456680308547
 20
129.63593189281431
 30
0.0
 40
0.5
 50
0.0
 51
90.0
  0
LINE
  5
4C3A
  8
DANMEN
  6
CONTINUOUS
 10
441.11456680308549
 20
129.63593189281431
 30
0.0
 11
441.11456680308549
 21
123.2859318928143
 31
0.0
  0
LINE
  5
4C3B
  8
DANMEN
  6
CONTINUOUS
 10
442.7645668030857
 20
129.63593189281431
 30
0.0
 11
442.7645668030857
 21
122.1359318928143
 31
0.0
  0
LINE
  5
4C3C
  8
DANMEN
  6
CONTINUOUS
 10
429.7645668030857
 20
123.2859318928143
 30
0.0
 11
441.11456680308549
 21
123.2859318928143
 31
0.0
  0
ARC
  5
4C3D
  8
DANMEN
  6
CONTINUOUS
 10
442.26456680308547
 20
221.13593189281431
 30
0.0
 40
0.5
 50
0.0
 51
90.0
  0
LINE
  5
4C3E
  8
DANMEN
  6
CONTINUOUS
 10
441.11456680308549
 20
219.98593189281431
 30
0.0
 11
441.11456680308549
 21
166.63593189281431
 31
0.0
  0
LINE
  5
4C3F
  8
DANMEN
  6
CONTINUOUS
 10
442.7645668030857
 20
221.13593189281431
 30
0.0
 11
442.7645668030857
 21
166.63593189281431
 31
0.0
  0
LINE
  5
4C40
  8
DANMEN
  6
CONTINUOUS
 10
442.7645668030857
 20
164.98593189281431
 30
0.0
 11
442.7645668030857
 21
162.63593189281431
 31
0.0
  0
LINE
  5
4C41
  8
DANMEN
  6
CONTINUOUS
 10
442.26456680308547
 20
162.13593189281431
 30
0.0
 11
441.61457290660132
 21
162.13593189281431
 31
0.0
  0
LINE
  5
4C42
  8
DANMEN
  6
CONTINUOUS
 10
441.11457290660132
 20
164.98593189281431
 30
0.0
 11
441.11457290660132
 21
162.63593189281431
 31
0.0
  0
ARC
  5
4C43
  8
DANMEN
  6
CONTINUOUS
 10
442.26456680308547
 20
162.63593189281431
 30
0.0
 40
0.5
 50
270.00003665542431
 51
359.99996402782108
  0
ARC
  5
4C44
  8
DANMEN
  6
CONTINUOUS
 10
441.61457290660132
 20
162.63593189281431
 30
0.0
 40
0.5
 50
180.00001866933519
 51
269.99998201391088
  0
LINE
  5
4C45
  8
DANMEN
  6
CONTINUOUS
 10
452.2645668030857
 20
166.13593189281431
 30
0.0
 11
452.2645668030857
 21
165.48593189281431
 31
0.0
  0
LINE
  5
4C46
  8
DANMEN
  6
CONTINUOUS
 10
451.7645668030857
 20
164.98593189281431
 30
0.0
 11
442.7645668030857
 21
164.98593189281431
 31
0.0
  0
ARC
  5
4C47
  8
DANMEN
  6
CONTINUOUS
 10
451.7645668030857
 20
165.48593189281431
 30
0.0
 40
0.5
 50
269.99999931675541
 51
359.99998133066549
  0
LINE
  5
4C48
  8
DANMEN
  6
CONTINUOUS
 10
451.7645668030857
 20
166.63593189281431
 30
0.0
 11
442.7645668030857
 21
166.63593189281431
 31
0.0
  0
ARC
  5
4C49
  8
DANMEN
  6
CONTINUOUS
 10
451.7645668030857
 20
166.13593189281431
 30
0.0
 40
0.5
 50
359.99998133066549
 51
90.000017986089034
  0
LINE
  5
4C4A
  8
DANMEN
  6
CONTINUOUS
 10
441.11457290660132
 20
166.63593189281431
 30
0.0
 11
429.4145606995699
 21
166.63593189281431
 31
0.0
  0
LINE
  5
4C4B
  8
DANMEN
  6
CONTINUOUS
 10
441.11457290660132
 20
164.98593189281431
 30
0.0
 11
429.7645668030857
 21
164.98593189281431
 31
0.0
  0
LINE
  5
4C4C
  8
DANMEN
  6
CONTINUOUS
 10
413.26456680308547
 20
221.63593189281431
 30
0.0
 11
442.26456680308547
 21
221.63593189281431
 31
0.0
  0
LINE
  5
4C4D
  8
DANMEN
  6
CONTINUOUS
 10
429.7645668030857
 20
219.98593189281431
 30
0.0
 11
441.11456680308549
 21
219.98593189281431
 31
0.0
  0
LINE
  5
4C4E
  8
DANMEN
  6
CONTINUOUS
 10
389.26456680308547
 20
213.63593189281431
 30
0.0
 11
427.76456680308559
 21
213.63593189281431
 31
0.0
  0
LINE
  5
4C4F
  8
DANMEN
  6
CONTINUOUS
 10
388.76456680308559
 20
213.13593189281431
 30
0.0
 11
388.76456680308559
 21
206.1359318928142
 31
0.0
  0
LINE
  5
4C50
  8
DANMEN
  6
CONTINUOUS
 10
412.76456680308559
 20
221.13593189281431
 30
0.0
 11
412.76456680308559
 21
220.48593189281419
 31
0.0
  0
ARC
  5
4C51
  8
DANMEN
  6
CONTINUOUS
 10
413.26456680308547
 20
221.13593189281431
 30
0.0
 40
0.5
 50
90.0
 51
180.0
  0
LINE
  5
4C52
  8
DANMEN
  6
CONTINUOUS
 10
427.76456680308559
 20
220.53593189281429
 30
0.0
 11
427.76456680308559
 21
213.63593189281431
 31
0.0
  0
LINE
  5
4C53
  8
DANMEN
  6
CONTINUOUS
 10
413.26456680308547
 20
219.98593189281431
 30
0.0
 11
425.7645668030857
 21
219.98593189281431
 31
0.0
  0
ARC
  5
4C54
  8
DANMEN
  6
CONTINUOUS
 10
413.26456680308547
 20
220.48593189281419
 30
0.0
 40
0.5
 50
180.0
 51
270.0
  0
LINE
  5
4C55
  8
DANMEN
  6
CONTINUOUS
 10
425.7645668030857
 20
220.53593189281429
 30
0.0
 11
425.7645668030857
 21
219.98593189281431
 31
0.0
  0
LINE
  5
4C56
  8
DANMEN
  6
CONTINUOUS
 10
425.7645668030857
 20
220.53593189281429
 30
0.0
 11
427.76456680308559
 21
220.53593189281429
 31
0.0
  0
LINE
  5
4C57
  8
DANMEN
  6
CONTINUOUS
 10
389.86456680308561
 20
211.98593189281419
 30
0.0
 11
401.7645668030857
 21
211.98593189281419
 31
0.0
  0
LINE
  5
4C58
  8
DANMEN
  6
CONTINUOUS
 10
427.76456680308559
 20
211.98593189281419
 30
0.0
 11
427.76456680308559
 21
149.13593189281431
 31
0.0
  0
LINE
  5
4C59
  8
DANMEN
  6
CONTINUOUS
 10
389.26456680308547
 20
205.63593189281431
 30
0.0
 11
395.7645668030857
 21
205.63593189281431
 31
0.0
  0
LINE
  5
4C5A
  8
DANMEN
  6
CONTINUOUS
 10
395.7645668030857
 20
206.3359318928143
 30
0.0
 11
395.7645668030857
 21
205.63593189281431
 31
0.0
  0
LINE
  5
4C5B
  8
DANMEN
  6
CONTINUOUS
 10
390.41456680308568
 20
206.8359318928143
 30
0.0
 11
395.2645668030857
 21
206.8359318928143
 31
0.0
  0
LINE
  5
4C5C
  8
DANMEN
  6
CONTINUOUS
 10
390.41456680308568
 20
209.98593189281419
 30
0.0
 11
390.41456680308568
 21
206.8359318928143
 31
0.0
  0
ARC
  5
4C5D
  8
DANMEN
  6
CONTINUOUS
 10
395.2645668030857
 20
206.3359318928143
 30
0.0
 40
0.5
 50
0.0
 51
90.0
  0
ARC
  5
4C5E
  8
DANMEN
  6
CONTINUOUS
 10
389.26456680308547
 20
206.1359318928142
 30
0.0
 40
0.5
 50
180.0
 51
270.0
  0
ARC
  5
4C5F
  8
DANMEN
  6
CONTINUOUS
 10
389.26456680308547
 20
213.13593189281431
 30
0.0
 40
0.5
 50
90.0
 51
180.0
  0
LINE
  5
4C60
  8
DANMEN
  6
CONTINUOUS
 10
429.7645668030857
 20
219.98593189281431
 30
0.0
 11
429.7645668030857
 21
169.63593189281431
 31
0.0
  0
LINE
  5
4C61
  8
DANMEN
  6
CONTINUOUS
 10
427.76456680308559
 20
143.13593189281431
 30
0.0
 11
427.76456680308559
 21
138.9359318928143
 31
0.0
  0
LINE
  5
4C62
  8
DANMEN
  6
CONTINUOUS
 10
425.7645668030857
 20
123.2859318928143
 30
0.0
 11
425.7645668030857
 21
122.73593189281419
 31
0.0
  0
LINE
  5
4C63
  8
DANMEN
  6
CONTINUOUS
 10
425.7645668030857
 20
122.73593189281419
 30
0.0
 11
427.76456680308559
 21
122.73593189281419
 31
0.0
  0
LINE
  5
4C64
  8
DANMEN
  6
CONTINUOUS
 10
429.7645668030857
 20
164.98593189281431
 30
0.0
 11
429.7645668030857
 21
154.13593189281431
 31
0.0
  0
LINE
  5
4C65
  8
DANMEN
  6
CONTINUOUS
 10
429.41456680308562
 20
169.63593189281431
 30
0.0
 11
429.41456680308562
 21
166.63593189281431
 31
0.0
  0
LINE
  5
4C66
  8
DANMEN
  6
CONTINUOUS
 10
429.41456680308562
 20
169.63593189281431
 30
0.0
 11
429.7645668030857
 21
169.63593189281431
 31
0.0
  0
LINE
  5
4C67
  8
DANMEN
  6
CONTINUOUS
 10
401.7645668030857
 20
211.98593189281419
 30
0.0
 11
401.7645668030857
 21
206.1359318928142
 31
0.0
  0
LINE
  5
4C68
  8
DANMEN
  6
CONTINUOUS
 10
402.76456680308559
 20
211.98593189281419
 30
0.0
 11
402.76456680308559
 21
206.1359318928142
 31
0.0
  0
ARC
  5
4C69
  8
DANMEN
  6
CONTINUOUS
 10
402.2645668030857
 20
206.1359318928142
 30
0.0
 40
0.5
 50
180.0
 51
0.0
  0
LINE
  5
4C6A
  8
DANMEN
  6
CONTINUOUS
 10
402.76456680308559
 20
211.98593189281419
 30
0.0
 11
427.76456680308559
 21
211.98593189281419
 31
0.0
  0
LINE
  5
4C6B
  8
DANMEN
  6
CONTINUOUS
 10
389.86456680308561
 20
211.98593189281419
 30
0.0
 11
389.86456680308561
 21
209.98593189281419
 31
0.0
  0
LINE
  5
4C6C
  8
DANMEN
  6
CONTINUOUS
 10
389.86456680308561
 20
209.98593189281419
 30
0.0
 11
390.41456680308568
 21
209.98593189281419
 31
0.0
  0
LINE
  5
4C6D
  8
DANMEN
  6
CONTINUOUS
 10
442.26456680308547
 20
121.6359318928143
 30
0.0
 11
413.26456680308547
 21
121.6359318928143
 31
0.0
  0
LINE
  5
4C6E
  8
DANMEN
  6
CONTINUOUS
 10
414.41456680308568
 20
123.2859318928143
 30
0.0
 11
425.7645668030857
 21
123.2859318928143
 31
0.0
  0
LINE
  5
4C6F
  8
DANMEN
  6
CONTINUOUS
 10
414.2645668030857
 20
139.3359318928143
 30
0.0
 11
425.7645668030857
 21
139.3359318928143
 31
0.0
  0
LINE
  5
4C70
  8
DANMEN
  6
CONTINUOUS
 10
414.2645668030857
 20
137.8359318928143
 30
0.0
 11
427.76456680308559
 21
137.8359318928143
 31
0.0
  0
ARC
  5
4C71
  8
DANMEN
  6
CONTINUOUS
 10
413.7645668030857
 20
141.13593189281431
 30
0.0
 40
0.5
 50
0.0
 51
90.0
  0
ARC
  5
4C72
  8
DANMEN
  6
CONTINUOUS
 10
413.26456680308547
 20
141.13593189281431
 30
0.0
 40
0.5
 50
90.0
 51
180.0
  0
LINE
  5
4C73
  8
DANMEN
  6
CONTINUOUS
 10
413.26456680308547
 20
141.63593189281431
 30
0.0
 11
413.7645668030857
 21
141.63593189281431
 31
0.0
  0
LINE
  5
4C74
  8
DANMEN
  6
CONTINUOUS
 10
414.2645668030857
 20
141.13593189281431
 30
0.0
 11
414.2645668030857
 21
139.3359318928143
 31
0.0
  0
LINE
  5
4C75
  8
DANMEN
  6
CONTINUOUS
 10
412.76456680308559
 20
141.13593189281431
 30
0.0
 11
412.76456680308559
 21
139.3359318928143
 31
0.0
  0
ARC
  5
4C76
  8
DANMEN
  6
CONTINUOUS
 10
413.26456680308547
 20
122.1359318928143
 30
0.0
 40
0.5
 50
180.0
 51
270.0
  0
LINE
  5
4C77
  8
DANMEN
  6
CONTINUOUS
 10
413.7645668030857
 20
130.63593189281431
 30
0.0
 11
413.91456680308562
 21
130.63593189281431
 31
0.0
  0
LINE
  5
4C78
  8
DANMEN
  6
CONTINUOUS
 10
412.76456680308559
 20
129.63593189281431
 30
0.0
 11
412.76456680308559
 21
122.1359318928143
 31
0.0
  0
LINE
  5
4C79
  8
DANMEN
  6
CONTINUOUS
 10
414.41456680308568
 20
130.13593189281431
 30
0.0
 11
414.41456680308568
 21
123.2859318928143
 31
0.0
  0
ARC
  5
4C7A
  8
DANMEN
  6
CONTINUOUS
 10
413.91456680308562
 20
130.13593189281431
 30
0.0
 40
0.5
 50
0.0
 51
90.0
  0
ARC
  5
4C7B
  8
DANMEN
  6
CONTINUOUS
 10
413.7645668030857
 20
129.63593189281431
 30
0.0
 40
1.0
 50
90.0
 51
180.0
  0
ARC
  5
4C7C
  8
DANMEN
  6
CONTINUOUS
 10
442.26456680308547
 20
122.1359318928143
 30
0.0
 40
0.5
 50
270.0
 51
0.0
  0
LINE
  5
4C7D
  8
SUNPO
  6
CONTINUOUS
 10
379.76456888313919
 20
221.63593189281431
 30
0.0
 11
379.76456888313919
 21
213.63593189281431
 31
0.0
  0
LINE
  5
4C7E
  8
SUNPO
  6
CONTINUOUS
 10
376.76456840630198
 20
213.63593189281431
 30
0.0
 11
379.76456888313919
 21
213.63593189281431
 31
0.0
  0
LINE
  5
4C7F
  8
SUNPO
  6
CONTINUOUS
 10
384.76456888313908
 20
205.63593189281431
 30
0.0
 11
384.76456888313908
 21
213.63593189281431
 31
0.0
  0
LINE
  5
4C80
  8
SUNPO
  6
CONTINUOUS
 10
387.7645669757905
 20
213.63593189281431
 30
0.0
 11
384.76456888313908
 21
213.63593189281431
 31
0.0
  0
LINE
  5
4C81
  8
SUNPO
  6
CONTINUOUS
 10
387.7645669757905
 20
205.63593189281431
 30
0.0
 11
384.76456888313908
 21
205.63593189281431
 31
0.0
  0
LINE
  5
4C82
  8
SUNPO
  6
CONTINUOUS
 10
228.7645697924028
 20
97.635931892814355
 30
0.0
 11
219.2645697924028
 21
97.635931892814355
 31
0.0
  0
LINE
  5
4C83
  8
SUNPO
  6
CONTINUOUS
 10
219.2645697924028
 20
163.48593036693541
 30
0.0
 11
219.2645697924028
 21
97.635931892814355
 31
0.0
  0
LINE
  5
4C84
  8
SUNPO
  6
CONTINUOUS
 10
228.7645697924028
 20
120.1359318928143
 30
0.0
 11
228.7645697924028
 21
97.635931892814355
 31
0.0
  0
LINE
  5
4C85
  8
SUNPO
  6
CONTINUOUS
 10
219.2645697924028
 20
237.63593189281431
 30
0.0
 11
228.7645697924028
 21
237.63593189281431
 31
0.0
  0
LINE
  5
4C86
  8
SUNPO
  6
CONTINUOUS
 10
228.7645697924028
 20
223.13593189281431
 30
0.0
 11
228.7645697924028
 21
237.63593189281431
 31
0.0
  0
LINE
  5
4C87
  8
SUNPO
  6
CONTINUOUS
 10
219.2645697924028
 20
168.13593189281431
 30
0.0
 11
219.2645697924028
 21
237.63593189281431
 31
0.0
  0
LINE
  5
4C88
  8
SUNPO
  6
CONTINUOUS
 10
384.76456888313908
 20
121.6359318928143
 30
0.0
 11
384.76456888313908
 21
126.6359318928143
 31
0.0
  0
LINE
  5
4C89
  8
SUNPO
  6
CONTINUOUS
 10
384.76456888313908
 20
213.63593189281431
 30
0.0
 11
384.76456888313908
 21
221.63593189281431
 31
0.0
  0
LINE
  5
4C8A
  8
SUNPO
  6
CONTINUOUS
 10
387.7645669757905
 20
213.63593189281431
 30
0.0
 11
384.76456888313908
 21
213.63593189281431
 31
0.0
  0
LINE
  5
4C8B
  8
SUNPO
  6
CONTINUOUS
 10
427.76456680308559
 20
105.6359318928143
 30
0.0
 11
412.76456680308559
 21
105.6359318928143
 31
0.0
  0
LINE
  5
4C8C
  8
SUNPO
  6
CONTINUOUS
 10
412.76456680308559
 20
120.1359318928143
 30
0.0
 11
412.76456680308559
 21
105.6359318928143
 31
0.0
  0
LINE
  5
4C8D
  8
SUNPO
  6
CONTINUOUS
 10
427.76456680308559
 20
120.1359318928143
 30
0.0
 11
427.76456680308559
 21
105.6359318928143
 31
0.0
  0
LINE
  5
4C8E
  8
SUNPO
  6
CONTINUOUS
 10
442.7645668030857
 20
105.6359318928143
 30
0.0
 11
427.76456680308559
 21
105.6359318928143
 31
0.0
  0
LINE
  5
4C8F
  8
SUNPO
  6
CONTINUOUS
 10
427.76456680308559
 20
120.1359318928143
 30
0.0
 11
427.76456680308559
 21
105.6359318928143
 31
0.0
  0
LINE
  5
4C90
  8
SUNPO
  6
CONTINUOUS
 10
442.7645668030857
 20
120.1359318928143
 30
0.0
 11
442.7645668030857
 21
105.6359318928143
 31
0.0
  0
LINE
  5
4C91
  8
SUNPO
  6
CONTINUOUS
 10
258.76456979240282
 20
105.6359318928143
 30
0.0
 11
243.7645697924028
 21
105.6359318928143
 31
0.0
  0
LINE
  5
4C92
  8
SUNPO
  6
CONTINUOUS
 10
243.7645697924028
 20
120.1359318928143
 30
0.0
 11
243.7645697924028
 21
105.6359318928143
 31
0.0
  0
LINE
  5
4C93
  8
SUNPO
  6
CONTINUOUS
 10
258.76456979240282
 20
120.1359318928143
 30
0.0
 11
258.76456979240282
 21
105.6359318928143
 31
0.0
  0
LINE
  5
4C94
  8
SUNPO
  6
CONTINUOUS
 10
243.7645697924028
 20
105.6359318928143
 30
0.0
 11
228.7645697924028
 21
105.6359318928143
 31
0.0
  0
LINE
  5
4C95
  8
SUNPO
  6
CONTINUOUS
 10
228.7645697924028
 20
120.6359318928143
 30
0.0
 11
228.7645697924028
 21
105.6359318928143
 31
0.0
  0
LINE
  5
4C96
  8
SUNPO
  6
CONTINUOUS
 10
243.7645697924028
 20
120.1359318928143
 30
0.0
 11
243.7645697924028
 21
105.6359318928143
 31
0.0
  0
LINE
  5
4C97
  8
SUNPO
  6
CONTINUOUS
 10
442.7645668030857
 20
237.63593189281431
 30
0.0
 11
452.2645668030857
 21
237.63593189281431
 31
0.0
  0
LINE
  5
4C98
  8
SUNPO
  6
CONTINUOUS
 10
452.2645668030857
 20
168.13593189281431
 30
0.0
 11
452.2645668030857
 21
237.63593189281431
 31
0.0
  0
LINE
  5
4C99
  8
SUNPO
  6
CONTINUOUS
 10
442.7645668030857
 20
223.13593189281431
 30
0.0
 11
442.7645668030857
 21
237.63593189281431
 31
0.0
  0
LINE
  5
4C9A
  8
SUNPO
  6
CONTINUOUS
 10
452.2645668030857
 20
97.635931892814355
 30
0.0
 11
442.7645668030857
 21
97.635931892814355
 31
0.0
  0
LINE
  5
4C9B
  8
SUNPO
  6
CONTINUOUS
 10
442.7645668030857
 20
120.1359318928143
 30
0.0
 11
442.7645668030857
 21
97.635931892814355
 31
0.0
  0
LINE
  5
4C9C
  8
SUNPO
  6
CONTINUOUS
 10
452.2645668030857
 20
163.48593036693541
 30
0.0
 11
452.2645668030857
 21
97.635931892814355
 31
0.0
  0
LINE
  5
4C9D
  8
SUNPO
  6
CONTINUOUS
 10
449.67694351114909
 20
221.63593189281431
 30
0.0
 11
449.67694351114909
 21
166.63593189281431
 31
0.0
  0
LINE
  5
4C9E
  8
SUNPO
  6
CONTINUOUS
 10
444.26456663050328
 20
221.63593189281431
 30
0.0
 11
449.67694351114909
 21
221.63593189281431
 31
0.0
  0
LINE
  5
4C9F
  8
SUNPO
  6
CONTINUOUS
 10
449.67694351114909
 20
166.63593189281431
 30
0.0
 11
449.67694351114909
 21
121.6359318928143
 31
0.0
  0
LINE
  5
4CA0
  8
SUNPO
  6
CONTINUOUS
 10
444.26456663050328
 20
121.6359318928143
 30
0.0
 11
449.67694351114909
 21
121.6359318928143
 31
0.0
  0
LINE
  5
4CA1
  8
DANMEN
  6
DASHED
 10
164.26456727992269
 20
164.48818904717811
 30
0.0
 11
164.26456727992269
 21
163.8881896193827
 31
0.0
  0
LINE
  5
4CA2
  8
DANMEN
  6
DASHED
 10
165.26456710110881
 20
165.3881896193827
 30
0.0
 11
166.76456632624851
 21
165.3881896193827
 31
0.0
  0
LINE
  5
4CA3
  8
DANMEN
  6
DASHED
 10
165.7645672799228
 20
163.8881896193827
 30
0.0
 11
165.7645672799228
 21
154.68818927367579
 31
0.0
  0
LINE
  5
4CA4
  8
DANMEN
  6
DASHED
 10
164.26456727992269
 20
163.8881896193827
 30
0.0
 11
165.7645672799228
 21
163.8881896193827
 31
0.0
  0
LINE
  5
4CA5
  8
DANMEN
  6
DASHED
 10
164.2645675138468
 20
164.48818794578349
 30
0.0
 11
165.26456734974059
 21
165.388188375455
 31
0.0
  0
LINE
  5
4CA6
  8
DANMEN
  6
DASHED
 10
167.2645672799228
 20
164.48818809350379
 30
0.0
 11
167.2645672799228
 21
162.88818866570841
 31
0.0
  0
LINE
  5
4CA7
  8
DANMEN
  6
DASHED
 10
166.7645666219253
 20
165.38818845096489
 30
0.0
 11
167.2645667867385
 21
164.4881875774534
 31
0.0
  0
LINE
  5
4CA8
  8
DANMEN
  6
DASHED
 10
166.56456651698329
 20
158.2626107390727
 30
0.0
 11
166.56456651698329
 21
153.8881896193827
 31
0.0
  0
LINE
  5
4CA9
  8
DANMEN
  6
DASHED
 10
165.76456698610471
 20
154.68818939097511
 30
0.0
 11
166.16456656002561
 21
153.88818949676531
 31
0.0
  0
LINE
  5
4CAA
  8
DANMEN
  6
DASHED
 10
170.76456659962761
 20
165.38818847412199
 30
0.0
 11
170.26456689795941
 21
164.4881884342719
 31
0.0
  0
LINE
  5
4CAB
  8
DANMEN
  6
DASHED
 10
170.7645663262484
 20
165.3881896193827
 30
0.0
 11
173.76456727992269
 21
165.3881896193827
 31
0.0
  0
LINE
  5
4CAC
  8
DANMEN
  6
DASHED
 10
167.2645672799228
 20
164.48818904717811
 30
0.0
 11
177.2645672799228
 21
164.48818904717811
 31
0.0
  0
LINE
  5
4CAD
  8
DANMEN
  6
DASHED
 10
170.36456670771821
 20
162.88818866570841
 30
0.0
 11
170.36456670771821
 21
160.64353114922889
 31
0.0
  0
LINE
  5
4CAE
  8
DANMEN
  6
DASHED
 10
171.11456670771821
 20
162.88818866570841
 30
0.0
 11
171.11456670771821
 21
160.7994969542826
 31
0.0
  0
LINE
  5
4CAF
  8
DANMEN
  6
DASHED
 10
167.2645672799228
 20
162.88818866570841
 30
0.0
 11
177.2645672799228
 21
162.88818866570841
 31
0.0
  0
LINE
  5
4CB0
  8
DANMEN
  6
DASHED
 10
166.16456594477879
 20
153.8881896193827
 30
0.0
 11
178.3645676613925
 21
153.8881896193827
 31
0.0
  0
LINE
  5
4CB1
  8
DANMEN
  6
DASHED
 10
180.26456727992269
 20
163.8881896193827
 30
0.0
 11
180.26456727992269
 21
164.48818904717811
 31
0.0
  0
LINE
  5
4CB2
  8
DANMEN
  6
DASHED
 10
177.76456823359709
 20
165.3881896193827
 30
0.0
 11
179.2645672799228
 21
165.3881896193827
 31
0.0
  0
LINE
  5
4CB3
  8
DANMEN
  6
DASHED
 10
178.7645672799228
 20
154.68818927367579
 30
0.0
 11
178.7645672799228
 21
163.8881896193827
 31
0.0
  0
LINE
  5
4CB4
  8
DANMEN
  6
DASHED
 10
178.7645672799228
 20
163.8881896193827
 30
0.0
 11
180.26456727992269
 21
163.8881896193827
 31
0.0
  0
LINE
  5
4CB5
  8
DANMEN
  6
DASHED
 10
179.26456442845929
 20
165.38818631975971
 30
0.0
 11
180.26456426435311
 21
164.4881858900882
 31
0.0
  0
LINE
  5
4CB6
  8
DANMEN
  6
DASHED
 10
177.2645672799228
 20
162.88818866570841
 30
0.0
 11
177.2645672799228
 21
164.48818809350379
 31
0.0
  0
LINE
  5
4CB7
  8
DANMEN
  6
DASHED
 10
177.2645658776498
 20
164.48818674379191
 30
0.0
 11
177.7645628004484
 21
165.38818178167341
 31
0.0
  0
LINE
  5
4CB8
  8
DANMEN
  6
DASHED
 10
177.9645680428622
 20
153.8881896193827
 30
0.0
 11
177.9645680428622
 21
158.2626107390727
 31
0.0
  0
LINE
  5
4CB9
  8
DANMEN
  6
DASHED
 10
178.3645656174603
 20
153.8881889103331
 30
0.0
 11
178.76456534132109
 21
154.68818910442309
 31
0.0
  0
LINE
  5
4CBA
  8
DANMEN
  6
DASHED
 10
174.2645666869293
 20
164.48818650643
 30
0.0
 11
173.76456698526101
 21
165.38818654628011
 31
0.0
  0
LINE
  5
4CBB
  8
DANMEN
  6
DASHED
 10
174.16456785212731
 20
160.64353114922889
 30
0.0
 11
174.16456785212731
 21
162.88818866570841
 31
0.0
  0
LINE
  5
4CBC
  8
DANMEN
  6
DASHED
 10
173.41456785212731
 20
160.7994969542826
 30
0.0
 11
173.41456785212731
 21
162.88818866570841
 31
0.0
  0
ARC
  5
4CBD
  8
DANMEN
  6
DASHED
 10
172.2645672799228
 20
153.38818866570841
 30
0.0
 40
7.5
 50
40.53579302581376
 51
139.464157341629
  0
LINE
  5
4CBE
  8
DANMEN
  6
DASHED
 10
177.26456613171749
 20
162.88818856768921
 30
0.0
 11
175.7645663828128
 21
160.02143806732269
 31
0.0
  0
LINE
  5
4CBF
  8
DANMEN
  6
DASHED
 10
167.26456719708881
 20
162.8881877226969
 30
0.0
 11
168.76456694599361
 21
160.02143722233041
 31
0.0
  0
LINE
  5
4CC0
  8
DANMEN
  6
DASHED
 10
171.2645672799228
 20
159.08819038232221
 30
0.0
 11
173.2645672799228
 21
159.08819038232221
 31
0.0
  0
LINE
  5
4CC1
  8
DANMEN
  6
DASHED
 10
164.7645672799228
 20
167.8881896193827
 30
0.0
 11
164.7645672799228
 21
163.8881896193827
 31
0.0
  0
LINE
  5
4CC2
  8
DANMEN
  6
DASHED
 10
184.26456727992269
 20
167.8881896193827
 30
0.0
 11
184.26456727992269
 21
163.8881896193827
 31
0.0
  0
LINE
  5
4CC3
  8
DANMEN
  6
DASHED
 10
169.7645672799228
 20
162.08819038232221
 30
0.0
 11
174.7645672799228
 21
162.08819038232221
 31
0.0
  0
LINE
  5
4CC4
  8
DANMEN
  6
DASHED
 10
164.7645672799228
 20
163.8881896193827
 30
0.0
 11
166.2645672799228
 21
163.8881896193827
 31
0.0
  0
LINE
  5
4CC5
  8
DANMEN
  6
DASHED
 10
165.7645672799228
 20
168.8881896193827
 30
0.0
 11
183.2645672799228
 21
168.8881896193827
 31
0.0
  0
ARC
  5
4CC6
  8
DANMEN
  6
DASHED
 10
165.7645672799228
 20
167.8881896193827
 30
0.0
 40
1.0
 50
90.000017986089034
 51
179.9999640278219
  0
ARC
  5
4CC7
  8
DANMEN
  6
DASHED
 10
183.2645672799228
 20
167.8881896193827
 30
0.0
 40
1.0
 50
0.0000359721788891
 51
90.000017986089034
  0
LINE
  5
4CC8
  8
DANMEN
  6
DASHED
 10
166.2645672799228
 20
167.08818942864789
 30
0.0
 11
181.26456727992269
 21
167.08818942864789
 31
0.0
  0
LINE
  5
4CC9
  8
DANMEN
  6
DASHED
 10
166.2645672799228
 20
167.08818942864789
 30
0.0
 11
166.2645672799228
 21
163.8881896193827
 31
0.0
  0
LINE
  5
4CCA
  8
DANMEN
  6
DASHED
 10
173.2645980502167
 20
159.0882108541357
 30
0.0
 11
174.76459512211849
 21
162.0882049979393
 31
0.0
  0
LINE
  5
4CCB
  8
DANMEN
  6
DASHED
 10
169.7645866852782
 20
162.08817087825011
 30
0.0
 11
171.26458375717999
 21
159.08817673444651
 31
0.0
  0
LINE
  5
4CCC
  8
DANMEN
  6
DASHED
 10
169.2645672799228
 20
167.08818942864789
 30
0.0
 11
169.2645672799228
 21
163.8881896193827
 31
0.0
  0
LINE
  5
4CCD
  8
DANMEN
  6
DASHED
 10
175.2645672799228
 20
167.08818942864789
 30
0.0
 11
175.2645672799228
 21
163.8881896193827
 31
0.0
  0
LINE
  5
4CCE
  8
DANMEN
  6
DASHED
 10
181.26456727992269
 20
163.8881896193827
 30
0.0
 11
184.26456727992269
 21
163.8881896193827
 31
0.0
  0
LINE
  5
4CCF
  8
DANMEN
  6
DASHED
 10
169.2645672799228
 20
163.8881896193827
 30
0.0
 11
175.2645672799228
 21
163.8881896193827
 31
0.0
  0
LINE
  5
4CD0
  8
DANMEN
  6
DASHED
 10
181.26456727992269
 20
167.08818942864789
 30
0.0
 11
181.26456727992269
 21
163.8881896193827
 31
0.0
  0
LINE
  5
4CD1
  8
DANMEN
  6
DASHED
 10
173.76456727992269
 20
163.8881896193827
 30
0.0
 11
173.76456727992269
 21
162.08819038232221
 31
0.0
  0
LINE
  5
4CD2
  8
DANMEN
  6
DASHED
 10
170.7645672799228
 20
163.8881896193827
 30
0.0
 11
170.7645672799228
 21
162.08819038232221
 31
0.0
  0
LINE
  5
4CD3
  8
DANMEN
  6
CONTINUOUS
 10
150.56456680308571
 20
145.8881896193827
 30
0.0
 11
152.2645668030857
 21
145.8881896193827
 31
0.0
  0
LINE
  5
4CD4
  8
DANMEN
  6
DASHED
 10
152.2645668030857
 20
148.8881896193827
 30
0.0
 11
156.7645668030857
 21
148.8881896193827
 31
0.0
  0
LINE
  5
4CD5
  8
DANMEN
  6
DASHED
 10
152.2645668030857
 20
152.8881896193827
 30
0.0
 11
156.7645668030857
 21
152.8881896193827
 31
0.0
  0
LINE
  5
4CD6
  8
DANMEN
  6
CENTER
 10
150.26456680308581
 20
150.8881896193827
 30
0.0
 11
158.7645668030857
 21
150.8881896193827
 31
0.0
  0
LINE
  5
4CD7
  8
DANMEN
  6
CENTER
 10
115.7645668030857
 20
140.8881896193827
 30
0.0
 11
115.7645668030857
 21
147.8881896193827
 31
0.0
  0
LINE
  5
4CD8
  8
DANMEN
  6
DASHED
 10
149.06456680308571
 20
145.8881896193827
 30
0.0
 11
150.56456680308571
 21
145.8881896193827
 31
0.0
  0
ARC
  5
4CD9
  8
DANMEN
  6
CONTINUOUS
 10
149.56456680308571
 20
147.3881896193827
 30
0.0
 40
0.5
 50
90.0
 51
180.0
  0
LINE
  5
4CDA
  8
DANMEN
  6
CONTINUOUS
 10
149.06456680308571
 20
145.8881896193827
 30
0.0
 11
149.06456680308571
 21
147.3881896193827
 31
0.0
  0
LINE
  5
4CDB
  8
DANMEN
  6
CONTINUOUS
 10
149.56456680308571
 20
147.8881896193827
 30
0.0
 11
150.56456680308571
 21
147.8881896193827
 31
0.0
  0
LINE
  5
4CDC
  8
DANMEN
  6
CONTINUOUS
 10
150.56456680308571
 20
145.8881896193827
 30
0.0
 11
150.56456680308571
 21
147.8881896193827
 31
0.0
  0
ARC
  5
4CDD
  8
DANMEN
  6
CONTINUOUS
 10
157.26456680308559
 20
144.68818961938271
 30
0.0
 40
0.5
 50
180.0
 51
270.0
  0
LINE
  5
4CDE
  8
DANMEN
  6
CONTINUOUS
 10
157.26456680308559
 20
144.1881896193828
 30
0.0
 11
159.26456680308559
 21
144.1881896193828
 31
0.0
  0
ARC
  5
4CDF
  8
DANMEN
  6
CONTINUOUS
 10
156.2645668030857
 20
153.8881896193827
 30
0.0
 40
0.5
 50
0.0
 51
90.0
  0
ARC
  5
4CE0
  8
DANMEN
  6
CONTINUOUS
 10
152.76456680308559
 20
153.8881896193827
 30
0.0
 40
0.5
 50
90.0
 51
180.0
  0
ARC
  5
4CE1
  8
DANMEN
  6
CONTINUOUS
 10
110.2645668030856
 20
143.3881896193827
 30
0.0
 40
0.5
 50
180.0
 51
270.0
  0
ARC
  5
4CE2
  8
DANMEN
  6
CONTINUOUS
 10
110.2645668030856
 20
145.3881896193827
 30
0.0
 40
0.5
 50
90.0
 51
180.0
  0
ARC
  5
4CE3
  8
DANMEN
  6
CONTINUOUS
 10
158.7645668030857
 20
143.3881896193827
 30
0.0
 40
0.5
 50
270.0
 51
0.0
  0
LINE
  5
4CE4
  8
DANMEN
  6
CONTINUOUS
 10
109.7645668030857
 20
143.3881896193827
 30
0.0
 11
109.7645668030857
 21
145.3881896193827
 31
0.0
  0
LINE
  5
4CE5
  8
DANMEN
  6
CONTINUOUS
 10
110.2645668030856
 20
142.8881896193827
 30
0.0
 11
158.76456682692751
 21
142.8881896193827
 31
0.0
  0
LINE
  5
4CE6
  8
DANMEN
  6
CONTINUOUS
 10
159.26456680308559
 20
143.3881896193827
 30
0.0
 11
159.26456680308559
 21
144.1881896193828
 31
0.0
  0
LINE
  5
4CE7
  8
DANMEN
  6
CONTINUOUS
 10
110.2645668030856
 20
145.8881896193827
 30
0.0
 11
149.06456680308571
 21
145.8881896193827
 31
0.0
  0
LINE
  5
4CE8
  8
DANMEN
  6
CONTINUOUS
 10
152.2645668030857
 20
145.8881896193827
 30
0.0
 11
152.2645668030857
 21
153.8881896193827
 31
0.0
  0
LINE
  5
4CE9
  8
DANMEN
  6
CONTINUOUS
 10
152.76456680308559
 20
154.3881896193827
 30
0.0
 11
156.2645668030857
 21
154.3881896193827
 31
0.0
  0
LINE
  5
4CEA
  8
DANMEN
  6
CONTINUOUS
 10
156.7645668030857
 20
144.68818961938271
 30
0.0
 11
156.7645668030857
 21
153.8881896193827
 31
0.0
  0
LINE
  5
4CEB
  8
SUNPO
  6
CONTINUOUS
 10
193.2645668030857
 20
113.8881896193827
 30
0.0
 11
207.76456680308559
 21
113.8881896193827
 31
0.0
  0
LINE
  5
4CEC
  8
SUNPO
  6
CONTINUOUS
 10
193.2645668030857
 20
168.8881896193827
 30
0.0
 11
207.76456680308559
 21
168.8881896193827
 31
0.0
  0
LINE
  5
4CED
  8
SUNPO
  6
CONTINUOUS
 10
207.76456680308559
 20
168.8881896193827
 30
0.0
 11
207.76456680308559
 21
113.8881896193827
 31
0.0
  0
LINE
  5
4CEE
  8
SUNPO
  6
CONTINUOUS
 10
193.2645668030857
 20
98.888189619382786
 30
0.0
 11
207.76456680308559
 21
98.888189619382786
 31
0.0
  0
LINE
  5
4CEF
  8
SUNPO
  6
CONTINUOUS
 10
193.2645668030857
 20
113.8881896193827
 30
0.0
 11
207.76456680308559
 21
113.8881896193827
 31
0.0
  0
LINE
  5
4CF0
  8
SUNPO
  6
CONTINUOUS
 10
207.76456680308559
 20
113.8881896193827
 30
0.0
 11
207.76456680308559
 21
98.888189619382786
 31
0.0
  0
LINE
  5
4CF1
  8
SUNPO
  6
CONTINUOUS
 10
90.264566803085685
 20
307.8881894564621
 30
0.0
 11
83.764566803085685
 21
307.8881894564621
 31
0.0
  0
LINE
  5
4CF2
  8
SUNPO
  6
CONTINUOUS
 10
91.7645668030857
 20
280.8881894564621
 30
0.0
 11
83.764566803085685
 21
280.8881894564621
 31
0.0
  0
LINE
  5
4CF3
  8
SUNPO
  6
CONTINUOUS
 10
83.764566803085685
 20
280.8881894564621
 30
0.0
 11
83.764566803085685
 21
307.8881894564621
 31
0.0
  0
LINE
  5
4CF4
  8
SUNPO
  6
CONTINUOUS
 10
193.2645672009094
 20
280.8881894564621
 30
0.0
 11
200.730374161969
 21
280.8881894564621
 31
0.0
  0
LINE
  5
4CF5
  8
SUNPO
  6
CONTINUOUS
 10
193.2645672009094
 20
312.8881894564621
 30
0.0
 11
200.730374161969
 21
312.8881894564621
 31
0.0
  0
LINE
  5
4CF6
  8
SUNPO
  6
CONTINUOUS
 10
200.730374161969
 20
312.8881894564621
 30
0.0
 11
200.730374161969
 21
280.8881894564621
 31
0.0
  0
LINE
  5
4CF7
  8
SUNPO
  6
CONTINUOUS
 10
193.2645672009094
 20
272.88818945646199
 30
0.0
 11
200.730374161969
 21
272.88818945646199
 31
0.0
  0
LINE
  5
4CF8
  8
SUNPO
  6
CONTINUOUS
 10
193.2645672009094
 20
280.8881894564621
 30
0.0
 11
200.730374161969
 21
280.8881894564621
 31
0.0
  0
LINE
  5
4CF9
  8
SUNPO
  6
CONTINUOUS
 10
200.730374161969
 20
280.8881894564621
 30
0.0
 11
200.730374161969
 21
272.88818945646199
 31
0.0
  0
LINE
  5
4CFA
  8
SUNPO
  6
CONTINUOUS
 10
191.76456680308559
 20
324.3881894564621
 30
0.0
 11
191.76456680308559
 21
330.8881894564621
 31
0.0
  0
LINE
  5
4CFB
  8
SUNPO
  6
CONTINUOUS
 10
146.76456680308559
 20
324.3881894564621
 30
0.0
 11
146.76456680308559
 21
330.8881894564621
 31
0.0
  0
LINE
  5
4CFC
  8
SUNPO
  6
CONTINUOUS
 10
146.76456680308559
 20
330.8881894564621
 30
0.0
 11
191.76456680308559
 21
330.8881894564621
 31
0.0
  0
LINE
  5
4CFD
  8
SUNPO
  6
CONTINUOUS
 10
146.76456680308559
 20
324.3881894564621
 30
0.0
 11
146.76456680308559
 21
330.8881894564621
 31
0.0
  0
LINE
  5
4CFE
  8
SUNPO
  6
CONTINUOUS
 10
91.7645668030857
 20
309.3881894564621
 30
0.0
 11
91.7645668030857
 21
330.8881894564621
 31
0.0
  0
LINE
  5
4CFF
  8
SUNPO
  6
CONTINUOUS
 10
91.7645668030857
 20
330.8881894564621
 30
0.0
 11
146.76456680308559
 21
330.8881894564621
 31
0.0
  0
LINE
  5
4D00
  8
SUNPO
  6
CONTINUOUS
 10
91.7645668030857
 20
280.8881894564621
 30
0.0
 11
83.764566803085685
 21
280.8881894564621
 31
0.0
  0
LINE
  5
4D01
  8
SUNPO
  6
CONTINUOUS
 10
90.264566803085685
 20
272.88818945646199
 30
0.0
 11
83.764566803085685
 21
272.88818945646199
 31
0.0
  0
LINE
  5
4D02
  8
SUNPO
  6
CONTINUOUS
 10
83.764566803085685
 20
272.88818945646199
 30
0.0
 11
83.764566803085685
 21
280.8881894564621
 31
0.0
  0
LINE
  5
4D03
  8
SUNPO
  6
CONTINUOUS
 10
199.76456680308559
 20
142.8881896193827
 30
0.0
 11
199.76456680308559
 21
142.8881896193827
 31
0.0
  0
LINE
  5
4D04
  8
SUNPO
  6
CONTINUOUS
 10
199.76456680308559
 20
147.3881896193827
 30
0.0
 11
199.76456680308559
 21
147.3881896193827
 31
0.0
  0
LINE
  5
4D05
  8
SUNPO
  6
CONTINUOUS
 10
193.2645668030857
 20
142.8881896193827
 30
0.0
 11
199.76456680308559
 21
142.8881896193827
 31
0.0
  0
LINE
  5
4D06
  8
SUNPO
  6
CONTINUOUS
 10
193.2645668030857
 20
147.3881896193827
 30
0.0
 11
199.76456680308559
 21
147.3881896193827
 31
0.0
  0
LINE
  5
4D07
  8
SUNPO
  6
CONTINUOUS
 10
199.76456680308559
 20
142.8881896193827
 30
0.0
 11
199.76456680308559
 21
134.8420584853495
 31
0.0
  0
LINE
  5
4D08
  8
SUNPO
  6
CONTINUOUS
 10
199.76456680308559
 20
147.3881896193827
 30
0.0
 11
199.76456680308559
 21
142.8881896193827
 31
0.0
  0
LINE
  5
4D09
  8
SUNPO
  6
CONTINUOUS
 10
193.2645668030857
 20
147.3881896193827
 30
0.0
 11
199.76456680308559
 21
147.3881896193827
 31
0.0
  0
LINE
  5
4D0A
  8
SUNPO
  6
CONTINUOUS
 10
193.2645668030857
 20
163.8881896193827
 30
0.0
 11
199.76456680308559
 21
163.8881896193827
 31
0.0
  0
LINE
  5
4D0B
  8
SUNPO
  6
CONTINUOUS
 10
199.76456680308559
 20
163.8881896193827
 30
0.0
 11
199.76456680308559
 21
147.3881896193827
 31
0.0
  0
LINE
  5
4D0C
  8
SUNPO
  6
CONTINUOUS
 10
193.2645668030857
 20
163.8881896193827
 30
0.0
 11
199.76456680308559
 21
163.8881896193827
 31
0.0
  0
LINE
  5
4D0D
  8
SUNPO
  6
CONTINUOUS
 10
193.2645668030857
 20
168.8881896193827
 30
0.0
 11
199.76456680308559
 21
168.8881896193827
 31
0.0
  0
LINE
  5
4D0E
  8
SUNPO
  6
CONTINUOUS
 10
199.76456680308559
 20
168.8881896193827
 30
0.0
 11
199.76456680308559
 21
163.8881896193827
 31
0.0
  0
LINE
  5
4D0F
  8
DANMEN
  6
CONTINUOUS
 10
101.7645668030856
 20
169.8881909504355
 30
0.0
 11
101.7645668030856
 21
206.38818332104091
 31
0.0
  0
LINE
  5
4D10
  8
SUNPO
  6
CONTINUOUS
 10
99.764566803085714
 20
206.38818332104091
 30
0.0
 11
101.7645668030856
 21
206.38818332104091
 31
0.0
  0
LINE
  5
4D11
  8
SUNPO
  6
CONTINUOUS
 10
91.7645668030857
 20
206.38818332104091
 30
0.0
 11
99.764566803085714
 21
206.38818332104091
 31
0.0
  0
LINE
  5
4D12
  8
SUNPO
  6
CONTINUOUS
 10
91.7645668030857
 20
211.388183321041
 30
0.0
 11
191.7645668030857
 21
211.388183321041
 31
0.0
  0
LINE
  5
4D13
  8
SUNPO
  6
CONTINUOUS
 10
191.7645668030857
 20
206.38818332104091
 30
0.0
 11
186.76458872644591
 21
206.38818332104091
 31
0.0
  0
LINE
  5
4D14
  8
DANMEN
  6
CONTINUOUS
 10
164.2645668030857
 20
288.8881894564621
 30
0.0
 11
170.26456680308559
 21
288.8881894564621
 31
0.0
  0
LINE
  5
4D15
  8
DANMEN
  6
CONTINUOUS
 10
164.2645668030857
 20
280.8881894564621
 30
0.0
 11
170.26456680308559
 21
280.8881894564621
 31
0.0
  0
ARC
  5
4D16
  8
DANMEN
  6
CONTINUOUS
 10
174.06456680308571
 20
274.3881894564621
 30
0.0
 40
1.5
 50
270.0
 51
0.0
  0
LINE
  5
4D17
  8
DANMEN
  6
CONTINUOUS
 10
163.7645668030857
 20
290.8881894564621
 30
0.0
 11
164.2645668030857
 21
290.68818946838297
 31
0.0
  0
LINE
  5
4D18
  8
DANMEN
  6
CONTINUOUS
 10
170.26456680308559
 20
290.68818945646211
 30
0.0
 11
170.76456680308559
 21
290.8881894564621
 31
0.0
  0
LINE
  5
4D19
  8
DANMEN
  6
CONTINUOUS
 10
164.2645668030857
 20
290.68818946838297
 30
0.0
 11
164.2645668030857
 21
287.88818945646199
 31
0.0
  0
LINE
  5
4D1A
  8
DANMEN
  6
CONTINUOUS
 10
170.26456680308559
 20
290.68818945646211
 30
0.0
 11
170.26456680308559
 21
287.88818945646199
 31
0.0
  0
LINE
  5
4D1B
  8
DANMEN
  6
CONTINUOUS
 10
170.76456680308559
 20
290.8881894564621
 30
0.0
 11
173.2645668030857
 21
290.8881894564621
 31
0.0
  0
LINE
  5
4D1C
  8
DANMEN
  6
CONTINUOUS
 10
161.26456680308559
 20
290.8881894564621
 30
0.0
 11
163.7645668030857
 21
290.8881894564621
 31
0.0
  0
ARC
  5
4D1D
  8
DANMEN
  6
CONTINUOUS
 10
183.7645668030857
 20
273.8881894564621
 30
0.0
 40
1.0
 50
180.0
 51
270.0
  0
ARC
  5
4D1E
  8
DANMEN
  6
CONTINUOUS
 10
183.26456680308559
 20
274.03818945646202
 30
0.0
 40
0.5
 50
90.0
 51
180.0
  0
LINE
  5
4D1F
  8
DANMEN
  6
CONTINUOUS
 10
183.26456680308559
 20
274.53818945646202
 30
0.0
 11
190.11456680308561
 21
274.53818945646202
 31
0.0
  0
ARC
  5
4D20
  8
DANMEN
  6
CONTINUOUS
 10
113.2645668030856
 20
307.68386889401171
 30
0.0
 40
0.5
 50
0.0
 51
95.19442890773486
  0
ARC
  5
4D21
  8
DANMEN
  6
CONTINUOUS
 10
116.2645668030858
 20
307.95659616673902
 30
0.0
 40
0.5
 50
95.19442890773486
 51
180.0
  0
LINE
  5
4D22
  8
DANMEN
  6
CONTINUOUS
 10
116.2192989300645
 20
308.45454276997282
 30
0.0
 11
146.76456680308559
 21
311.23138530388388
 31
0.0
  0
LINE
  5
4D23
  8
DANMEN
  6
CONTINUOUS
 10
111.4645668030856
 20
302.85788330213188
 30
0.0
 11
111.4645668030856
 21
304.188189456462
 31
0.0
  0
ARC
  5
4D24
  8
DANMEN
  6
CONTINUOUS
 10
113.2645668030856
 20
307.10537988562498
 30
0.0
 40
0.5
 50
283.49339882155078
 51
0.0
  0
ARC
  5
4D25
  8
DANMEN
  6
CONTINUOUS
 10
116.2645668030858
 20
307.10537988562498
 30
0.0
 40
0.5
 50
180.0
 51
256.5066011784491
  0
ARC
  5
4D26
  8
DANMEN
  6
CONTINUOUS
 10
115.5645668030857
 20
304.188189456462
 30
0.0
 40
2.5
 50
0.0
 51
76.506601178449088
  0
LINE
  5
4D27
  8
DANMEN
  6
CONTINUOUS
 10
113.7645668030857
 20
307.10537988562498
 30
0.0
 11
113.7645668030857
 21
307.68386889401171
 31
0.0
  0
LINE
  5
4D28
  8
DANMEN
  6
CONTINUOUS
 10
113.9645667911648
 20
305.188189456462
 30
0.0
 11
115.5645668150067
 21
305.188189456462
 31
0.0
  0
LINE
  5
4D29
  8
DANMEN
  6
CONTINUOUS
 10
112.9645668030856
 20
302.94212867975159
 30
0.0
 11
112.9645668030856
 21
304.18818946838292
 31
0.0
  0
ARC
  5
4D2A
  8
DANMEN
  6
CONTINUOUS
 10
115.5645668030857
 20
304.188189456462
 30
0.0
 40
1.0
 50
0.0
 51
90.0
  0
ARC
  5
4D2B
  8
DANMEN
  6
CONTINUOUS
 10
113.9645668030856
 20
304.188189456462
 30
0.0
 40
1.0
 50
90.0
 51
180.0
  0
LINE
  5
4D2C
  8
DANMEN
  6
CONTINUOUS
 10
113.66456680308561
 20
301.3881894564621
 30
0.0
 11
113.66456680308561
 21
301.85125744641527
 31
0.0
  0
ARC
  5
4D2D
  8
DANMEN
  6
CONTINUOUS
 10
113.9645668030856
 20
302.94212865787892
 30
0.0
 40
1.0
 50
180.0
 51
245.3756816478363
  0
ARC
  5
4D2E
  8
DANMEN
  6
CONTINUOUS
 10
113.4645668030856
 20
301.85125744641527
 30
0.0
 40
0.2
 50
0.0
 51
65.375681647836402
  0
ARC
  5
4D2F
  8
DANMEN
  6
CONTINUOUS
 10
113.16456680308571
 20
301.3881894564621
 30
0.0
 40
0.5
 50
258.46304096718518
 51
0.0
  0
LINE
  5
4D30
  8
DANMEN
  6
CONTINUOUS
 10
116.5645668030858
 20
302.94212867975159
 30
0.0
 11
116.5645668030858
 21
304.18818946838292
 31
0.0
  0
LINE
  5
4D31
  8
DANMEN
  6
CONTINUOUS
 10
118.0645668030857
 20
302.85788330213188
 30
0.0
 11
118.0645668030857
 21
304.188189456462
 31
0.0
  0
ARC
  5
4D32
  8
DANMEN
  6
CONTINUOUS
 10
116.0645668030857
 20
302.85788330213188
 30
0.0
 40
2.0
 50
281.53695903281471
 51
0.0
  0
ARC
  5
4D33
  8
DANMEN
  6
CONTINUOUS
 10
116.36456680308559
 20
301.3881894564621
 30
0.0
 40
0.5
 50
180.0
 51
281.53695903281471
  0
ARC
  5
4D34
  8
DANMEN
  6
CONTINUOUS
 10
116.0645668030857
 20
301.85125744641527
 30
0.0
 40
0.2
 50
114.6243183521636
 51
180.0
  0
ARC
  5
4D35
  8
DANMEN
  6
CONTINUOUS
 10
115.5645668030857
 20
302.94212865787892
 30
0.0
 40
1.0
 50
294.62431835216358
 51
0.0
  0
LINE
  5
4D36
  8
DANMEN
  6
CONTINUOUS
 10
115.86456680308579
 20
301.3881894564621
 30
0.0
 11
115.86456680308579
 21
301.85125744641527
 31
0.0
  0
ARC
  5
4D37
  8
DANMEN
  6
CONTINUOUS
 10
113.4645668030856
 20
302.85788330213188
 30
0.0
 40
2.0
 50
180.0
 51
258.46304096718518
  0
LINE
  5
4D38
  8
DANMEN
  6
CONTINUOUS
 10
115.7645668030857
 20
307.10537988562498
 30
0.0
 11
115.7645668030857
 21
307.95659616673902
 31
0.0
  0
ARC
  5
4D39
  8
DANMEN
  6
CONTINUOUS
 10
113.9645668030856
 20
304.188189456462
 30
0.0
 40
2.5
 50
103.4933988215509
 51
180.0
  0
LINE
  5
4D3A
  8
DANMEN
  6
CONTINUOUS
 10
148.41456680308579
 20
282.53818945646202
 30
0.0
 11
159.26456680308559
 21
282.53818945646202
 31
0.0
  0
LINE
  5
4D3B
  8
DANMEN
  6
CONTINUOUS
 10
147.26456680308581
 20
322.88818945646199
 30
0.0
 11
147.91456680308579
 21
322.88818945646199
 31
0.0
  0
LINE
  5
4D3C
  8
DANMEN
  6
CONTINUOUS
 10
146.76456680308559
 20
322.3881894564621
 30
0.0
 11
146.76456680308559
 21
312.8881894564621
 31
0.0
  0
LINE
  5
4D3D
  8
DANMEN
  6
CONTINUOUS
 10
92.219298930064525
 20
307.92952874073268
 30
0.0
 11
146.76456680308559
 21
312.8881894564621
 31
0.0
  0
LINE
  5
4D3E
  8
DANMEN
  6
CONTINUOUS
 10
93.414566803085805
 20
306.38138530388392
 30
0.0
 11
113.2192989300645
 21
308.18181549724562
 31
0.0
  0
LINE
  5
4D3F
  8
DANMEN
  6
CONTINUOUS
 10
148.41456680308579
 20
322.3881894564621
 30
0.0
 11
148.41456680308579
 21
312.8881894564621
 31
0.0
  0
ARC
  5
4D40
  8
DANMEN
  6
CONTINUOUS
 10
92.264566803085856
 20
307.43158213749899
 30
0.0
 40
0.5
 50
95.19442890773486
 51
180.0
  0
LINE
  5
4D41
  8
DANMEN
  6
CONTINUOUS
 10
183.26456680308559
 20
312.38818945646199
 30
0.0
 11
183.26456680308559
 21
311.73818945646201
 31
0.0
  0
LINE
  5
4D42
  8
DANMEN
  6
CONTINUOUS
 10
148.41456680308579
 20
311.23818945646201
 30
0.0
 11
150.76456680308559
 21
311.23818945646201
 31
0.0
  0
LINE
  5
4D43
  8
DANMEN
  6
CONTINUOUS
 10
183.7645668030857
 20
312.8881894564621
 30
0.0
 11
191.26456680308559
 21
312.8881894564621
 31
0.0
  0
LINE
  5
4D44
  8
DANMEN
  6
CONTINUOUS
 10
183.7645668030857
 20
311.23818945646201
 30
0.0
 11
190.11456680308561
 21
311.23818945646201
 31
0.0
  0
ARC
  5
4D45
  8
DANMEN
  6
CONTINUOUS
 10
183.7645668030857
 20
312.38818945646199
 30
0.0
 40
0.5
 50
90.0
 51
180.0
  0
ARC
  5
4D46
  8
DANMEN
  6
CONTINUOUS
 10
183.7645668030857
 20
311.73818945646201
 30
0.0
 40
0.5
 50
180.0
 51
270.0
  0
ARC
  5
4D47
  8
DANMEN
  6
CONTINUOUS
 10
191.26456680308559
 20
312.38818945646199
 30
0.0
 40
0.5
 50
0.0
 51
90.0
  0
LINE
  5
4D48
  8
DANMEN
  6
CONTINUOUS
 10
151.2645668030857
 20
312.38818945646199
 30
0.0
 11
151.2645668030857
 21
311.73818945646201
 31
0.0
  0
ARC
  5
4D49
  8
DANMEN
  6
CONTINUOUS
 10
150.76456680308559
 20
311.73818945646201
 30
0.0
 40
0.5
 50
270.0
 51
0.0
  0
ARC
  5
4D4A
  8
DANMEN
  6
CONTINUOUS
 10
150.76456680308559
 20
312.38818945646199
 30
0.0
 40
0.5
 50
0.0
 51
90.0
  0
LINE
  5
4D4B
  8
DANMEN
  6
CONTINUOUS
 10
148.41456680308579
 20
312.8881894564621
 30
0.0
 11
150.76456680308559
 21
312.8881894564621
 31
0.0
  0
ARC
  5
4D4C
  8
DANMEN
  6
CONTINUOUS
 10
147.91456680308579
 20
322.3881894564621
 30
0.0
 40
0.5
 50
0.0
 51
90.0
  0
ARC
  5
4D4D
  8
DANMEN
  6
CONTINUOUS
 10
147.26456680308581
 20
322.3881894564621
 30
0.0
 40
0.5
 50
90.0
 51
180.0
  0
LINE
  5
4D4E
  8
DANMEN
  6
CONTINUOUS
 10
146.76456680308559
 20
311.23138530388388
 30
0.0
 11
146.76456680308559
 21
282.53818945646202
 31
0.0
  0
LINE
  5
4D4F
  8
DANMEN
  6
CONTINUOUS
 10
148.41456680308579
 20
311.23818945646201
 30
0.0
 11
148.41456680308579
 21
282.53818945646202
 31
0.0
  0
LINE
  5
4D50
  8
DANMEN
  6
CONTINUOUS
 10
190.11456680308561
 20
311.23818945646201
 30
0.0
 11
190.11456680308561
 21
282.53818945646202
 31
0.0
  0
LINE
  5
4D51
  8
DANMEN
  6
CONTINUOUS
 10
93.414566803085805
 20
306.38138530388392
 30
0.0
 11
93.414566803085805
 21
282.53818945646202
 31
0.0
  0
LINE
  5
4D52
  8
DANMEN
  6
CONTINUOUS
 10
191.7645668030857
 20
312.38818945646199
 30
0.0
 11
191.7645668030857
 21
273.3881894564621
 31
0.0
  0
LINE
  5
4D53
  8
DANMEN
  6
CONTINUOUS
 10
91.7645668030857
 20
307.43158213749899
 30
0.0
 11
91.7645668030857
 21
273.3881894564621
 31
0.0
  0
LINE
  5
4D54
  8
DANMEN
  6
CONTINUOUS
 10
93.264566803085842
 20
280.8881894564621
 30
0.0
 11
101.7645668030856
 21
280.8881894564621
 31
0.0
  0
LINE
  5
4D55
  8
DANMEN
  6
CONTINUOUS
 10
101.7645668030856
 20
249.38818945646199
 30
0.0
 11
101.7645668030856
 21
280.8881894564621
 31
0.0
  0
LINE
  5
4D56
  8
DANMEN
  6
CONTINUOUS
 10
102.2645668030857
 20
248.88818945646199
 30
0.0
 11
107.2645668030856
 21
248.88818945646199
 31
0.0
  0
ARC
  5
4D57
  8
DANMEN
  6
CONTINUOUS
 10
102.2645668030857
 20
249.38818945646199
 30
0.0
 40
0.5
 50
180.0
 51
270.0
  0
LINE
  5
4D58
  8
DANMEN
  6
CONTINUOUS
 10
93.264566803085842
 20
273.3881894564621
 30
0.0
 11
93.264566803085842
 21
280.8881894564621
 31
0.0
  0
LINE
  5
4D59
  8
DANMEN
  6
CONTINUOUS
 10
92.264566803085856
 20
272.88818945646199
 30
0.0
 11
92.764566803085685
 21
272.88818945646199
 31
0.0
  0
ARC
  5
4D5A
  8
DANMEN
  6
CONTINUOUS
 10
92.264566803085856
 20
273.3881894564621
 30
0.0
 40
0.5
 50
180.0
 51
270.0
  0
ARC
  5
4D5B
  8
DANMEN
  6
CONTINUOUS
 10
92.764566803085685
 20
273.3881894564621
 30
0.0
 40
0.5
 50
270.0
 51
0.0
  0
LINE
  5
4D5C
  8
DANMEN
  6
CONTINUOUS
 10
107.7645668030857
 20
249.38818945646199
 30
0.0
 11
107.7645668030857
 21
255.88818945646199
 31
0.0
  0
LINE
  5
4D5D
  8
DANMEN
  6
CONTINUOUS
 10
103.41456680308571
 20
250.53818945646199
 30
0.0
 11
103.41456680308571
 21
261.8881894564621
 31
0.0
  0
LINE
  5
4D5E
  8
DANMEN
  6
CONTINUOUS
 10
103.41456680308571
 20
250.53818945646199
 30
0.0
 11
106.5645668030857
 21
250.53818945646199
 31
0.0
  0
LINE
  5
4D5F
  8
DANMEN
  6
CONTINUOUS
 10
106.5645668030857
 20
250.53818945646199
 30
0.0
 11
106.5645668030857
 21
255.3881894564621
 31
0.0
  0
LINE
  5
4D60
  8
DANMEN
  6
CONTINUOUS
 10
107.0645668030858
 20
255.88818945646199
 30
0.0
 11
107.7645668030857
 21
255.88818945646199
 31
0.0
  0
ARC
  5
4D61
  8
DANMEN
  6
CONTINUOUS
 10
107.2645668030856
 20
249.38818945646199
 30
0.0
 40
0.5
 50
270.0
 51
0.0
  0
ARC
  5
4D62
  8
DANMEN
  6
CONTINUOUS
 10
107.0645668030858
 20
255.3881894564621
 30
0.0
 40
0.5
 50
90.0
 51
180.0
  0
LINE
  5
4D63
  8
DANMEN
  6
CONTINUOUS
 10
103.41456680308571
 20
280.8881894564621
 30
0.0
 11
164.2645668030857
 21
280.8881894564621
 31
0.0
  0
LINE
  5
4D64
  8
DANMEN
  6
CONTINUOUS
 10
183.7645668030857
 20
272.88818945646199
 30
0.0
 11
191.26456680308559
 21
272.88818945646199
 31
0.0
  0
LINE
  5
4D65
  8
DANMEN
  6
CONTINUOUS
 10
182.76456680308559
 20
273.8881894564621
 30
0.0
 11
182.76456680308559
 21
274.03818945646202
 31
0.0
  0
LINE
  5
4D66
  8
DANMEN
  6
CONTINUOUS
 10
190.11456680308561
 20
274.53818945646202
 30
0.0
 11
190.11456680308561
 21
280.8881894564621
 31
0.0
  0
ARC
  5
4D67
  8
DANMEN
  6
CONTINUOUS
 10
191.26456680308559
 20
273.3881894564621
 30
0.0
 40
0.5
 50
270.0
 51
0.0
  0
LINE
  5
4D68
  8
DANMEN
  6
CONTINUOUS
 10
93.414566803085805
 20
282.53818945646202
 30
0.0
 11
110.4645668030856
 21
282.53818945646202
 31
0.0
  0
ARC
  5
4D69
  8
DANMEN
  6
CONTINUOUS
 10
116.16456680308571
 20
286.18818945646211
 30
0.0
 40
0.3
 50
90.0
 51
180.0
  0
ARC
  5
4D6A
  8
DANMEN
  6
CONTINUOUS
 10
113.36456680308559
 20
286.18818945646211
 30
0.0
 40
0.3
 50
0.0
 51
90.0
  0
LINE
  5
4D6B
  8
DANMEN
  6
CONTINUOUS
 10
113.36456680308559
 20
286.48818945646201
 30
0.0
 11
112.2251874298242
 21
286.48818945646201
 31
0.0
  0
LINE
  5
4D6C
  8
DANMEN
  6
CONTINUOUS
 10
117.3039461613774
 20
286.48818945646201
 30
0.0
 11
116.1645667792438
 21
286.48818945646201
 31
0.0
  0
LINE
  5
4D6D
  8
DANMEN
  6
CONTINUOUS
 10
115.5645668150067
 20
282.58818945646198
 30
0.0
 11
113.9645667911648
 21
282.58818945646198
 31
0.0
  0
LINE
  5
4D6E
  8
DANMEN
  6
CONTINUOUS
 10
116.5645668030858
 20
284.83425023317261
 30
0.0
 11
116.5645668030858
 21
283.58818944454111
 31
0.0
  0
LINE
  5
4D6F
  8
DANMEN
  6
CONTINUOUS
 10
118.0645668030857
 20
284.91849561079221
 30
0.0
 11
118.0645668030857
 21
283.53818945646208
 31
0.0
  0
ARC
  5
4D70
  8
DANMEN
  6
CONTINUOUS
 10
113.9645668030856
 20
283.58818945646209
 30
0.0
 40
1.0
 50
180.0
 51
270.0
  0
ARC
  5
4D71
  8
DANMEN
  6
CONTINUOUS
 10
115.5645668030857
 20
283.58818945646209
 30
0.0
 40
1.0
 50
270.0
 51
0.0
  0
LINE
  5
4D72
  8
DANMEN
  6
CONTINUOUS
 10
115.86456680308579
 20
286.18818945646211
 30
0.0
 11
115.86456680308579
 21
285.9251214665087
 31
0.0
  0
ARC
  5
4D73
  8
DANMEN
  6
CONTINUOUS
 10
115.5645668030857
 20
284.83425025504511
 30
0.0
 40
1.0
 50
0.0
 51
65.375681647836402
  0
ARC
  5
4D74
  8
DANMEN
  6
CONTINUOUS
 10
116.0645668030857
 20
285.9251214665087
 30
0.0
 40
0.2
 50
180.0
 51
245.37568164783491
  0
ARC
  5
4D75
  8
DANMEN
  6
CONTINUOUS
 10
116.0645668030857
 20
284.91849561079221
 30
0.0
 40
2.0
 50
0.0
 51
51.706522712622238
  0
LINE
  5
4D76
  8
DANMEN
  6
CONTINUOUS
 10
112.9645668030856
 20
284.83425023317261
 30
0.0
 11
112.9645668030856
 21
283.58818944454111
 31
0.0
  0
LINE
  5
4D77
  8
DANMEN
  6
CONTINUOUS
 10
111.4645668030856
 20
284.91849561079221
 30
0.0
 11
111.4645668030856
 21
283.53818945646208
 31
0.0
  0
ARC
  5
4D78
  8
DANMEN
  6
CONTINUOUS
 10
113.4645668030856
 20
284.91849561079221
 30
0.0
 40
2.0
 50
128.2934772873777
 51
180.0
  0
ARC
  5
4D79
  8
DANMEN
  6
CONTINUOUS
 10
113.4645668030856
 20
285.9251214665087
 30
0.0
 40
0.2
 50
294.62431835216358
 51
0.0
  0
ARC
  5
4D7A
  8
DANMEN
  6
CONTINUOUS
 10
113.9645668030856
 20
284.83425025504511
 30
0.0
 40
1.0
 50
114.6243183521636
 51
180.0
  0
LINE
  5
4D7B
  8
DANMEN
  6
CONTINUOUS
 10
113.66456680308561
 20
286.18818945646211
 30
0.0
 11
113.66456680308561
 21
285.9251214665087
 31
0.0
  0
LINE
  5
4D7C
  8
DANMEN
  6
CONTINUOUS
 10
177.66456680308571
 20
286.18818945646211
 30
0.0
 11
177.66456680308571
 21
285.9251214665087
 31
0.0
  0
ARC
  5
4D7D
  8
DANMEN
  6
CONTINUOUS
 10
177.96456680308569
 20
284.83425025504511
 30
0.0
 40
1.0
 50
114.6243183521636
 51
180.0
  0
ARC
  5
4D7E
  8
DANMEN
  6
CONTINUOUS
 10
177.46456680308569
 20
285.9251214665087
 30
0.0
 40
0.2
 50
294.62431835216358
 51
0.0
  0
LINE
  5
4D7F
  8
DANMEN
  6
CONTINUOUS
 10
176.96456680308569
 20
284.83425023317261
 30
0.0
 11
176.96456680308569
 21
283.58818944454111
 31
0.0
  0
ARC
  5
4D80
  8
DANMEN
  6
CONTINUOUS
 10
180.06456680308571
 20
284.91849561079221
 30
0.0
 40
2.0
 50
0.0
 51
51.706522712622238
  0
ARC
  5
4D81
  8
DANMEN
  6
CONTINUOUS
 10
180.06456680308571
 20
285.9251214665087
 30
0.0
 40
0.2
 50
180.0
 51
245.37568164783491
  0
ARC
  5
4D82
  8
DANMEN
  6
CONTINUOUS
 10
179.56456680308571
 20
284.83425025504511
 30
0.0
 40
1.0
 50
0.0
 51
65.375681647836402
  0
LINE
  5
4D83
  8
DANMEN
  6
CONTINUOUS
 10
179.86456680308561
 20
286.18818945646211
 30
0.0
 11
179.86456680308561
 21
285.9251214665087
 31
0.0
  0
ARC
  5
4D84
  8
DANMEN
  6
CONTINUOUS
 10
179.56456680308571
 20
283.58818945646209
 30
0.0
 40
1.0
 50
270.0
 51
0.0
  0
ARC
  5
4D85
  8
DANMEN
  6
CONTINUOUS
 10
177.96456680308569
 20
283.58818945646209
 30
0.0
 40
1.0
 50
180.0
 51
270.0
  0
LINE
  5
4D86
  8
DANMEN
  6
CONTINUOUS
 10
182.06456680308571
 20
284.91849561079221
 30
0.0
 11
182.06456680308571
 21
283.53818945646208
 31
0.0
  0
LINE
  5
4D87
  8
DANMEN
  6
CONTINUOUS
 10
180.56456680308571
 20
284.83425023317261
 30
0.0
 11
180.56456680308571
 21
283.58818944454111
 31
0.0
  0
LINE
  5
4D88
  8
DANMEN
  6
CONTINUOUS
 10
179.5645668150066
 20
282.58818945646198
 30
0.0
 11
177.96456679116471
 21
282.58818945646198
 31
0.0
  0
LINE
  5
4D89
  8
DANMEN
  6
CONTINUOUS
 10
181.3039461613773
 20
286.48818945646201
 30
0.0
 11
180.16456677924381
 21
286.48818945646201
 31
0.0
  0
LINE
  5
4D8A
  8
DANMEN
  6
CONTINUOUS
 10
177.36456680308561
 20
286.48818945646201
 30
0.0
 11
175.2645668030857
 21
286.48818945646201
 31
0.0
  0
ARC
  5
4D8B
  8
DANMEN
  6
CONTINUOUS
 10
177.36456680308561
 20
286.18818945646211
 30
0.0
 40
0.3
 50
0.0
 51
90.0
  0
ARC
  5
4D8C
  8
DANMEN
  6
CONTINUOUS
 10
180.16456680308571
 20
286.18818945646211
 30
0.0
 40
0.3
 50
90.0
 51
180.0
  0
LINE
  5
4D8D
  8
DANMEN
  6
CONTINUOUS
 10
183.06456680308571
 20
282.53818945646202
 30
0.0
 11
190.11456680308561
 21
282.53818945646202
 31
0.0
  0
ARC
  5
4D8E
  8
DANMEN
  6
CONTINUOUS
 10
183.06456680308571
 20
283.53818945646208
 30
0.0
 40
1.0
 50
180.0
 51
270.0
  0
LINE
  5
4D8F
  8
DANMEN
  6
CONTINUOUS
 10
119.0645668030857
 20
282.53818945646202
 30
0.0
 11
146.76456680308559
 21
282.53818945646202
 31
0.0
  0
ARC
  5
4D90
  8
DANMEN
  6
CONTINUOUS
 10
110.4645668030856
 20
283.53818945646208
 30
0.0
 40
1.0
 50
270.0
 51
0.0
  0
ARC
  5
4D91
  8
DANMEN
  6
CONTINUOUS
 10
119.0645668030857
 20
283.53818945646208
 30
0.0
 40
1.0
 50
180.0
 51
270.0
  0
LINE
  5
4D92
  8
DANMEN
  6
CONTINUOUS
 10
103.41456680308571
 20
261.8881894564621
 30
0.0
 11
107.2645668030856
 21
261.8881894564621
 31
0.0
  0
LINE
  5
4D93
  8
DANMEN
  6
CONTINUOUS
 10
103.41456680308571
 20
262.88818945646199
 30
0.0
 11
107.2645668030856
 21
262.88818945646199
 31
0.0
  0
ARC
  5
4D94
  8
DANMEN
  6
CONTINUOUS
 10
107.2645668030856
 20
262.38818945646199
 30
0.0
 40
0.5
 50
270.0
 51
90.0
  0
LINE
  5
4D95
  8
DANMEN
  6
CONTINUOUS
 10
103.41456680308571
 20
262.88818945646199
 30
0.0
 11
103.41456680308571
 21
280.8881894564621
 31
0.0
  0
LINE
  5
4D96
  8
DANMEN
  6
CONTINUOUS
 10
170.26456680308559
 20
280.8881894564621
 30
0.0
 11
170.26456680308559
 21
283.3881894564621
 31
0.0
  0
LINE
  5
4D97
  8
DANMEN
  6
CONTINUOUS
 10
164.2645668030857
 20
280.8881894564621
 30
0.0
 11
164.2645668030857
 21
283.3881894564621
 31
0.0
  0
ARC
  5
4D98
  8
DANMEN
  6
CONTINUOUS
 10
173.2645668030857
 20
288.8881894564621
 30
0.0
 40
2.0
 50
0.0
 51
90.0
  0
LINE
  5
4D99
  8
DANMEN
  6
CONTINUOUS
 10
175.2645668030857
 20
288.8881894564621
 30
0.0
 11
175.2645668030857
 21
286.48818945646201
 31
0.0
  0
LINE
  5
4D9A
  8
DANMEN
  6
CONTINUOUS
 10
170.26456680308559
 20
283.3881894564621
 30
0.0
 11
170.85035324071259
 21
283.3881894564621
 31
0.0
  0
ARC
  5
4D9B
  8
DANMEN
  6
CONTINUOUS
 10
170.85035324071259
 20
282.88818945646199
 30
0.0
 40
0.5
 50
19.471220634490379
 51
90.0
  0
ARC
  5
4D9C
  8
DANMEN
  6
CONTINUOUS
 10
163.67878036545869
 20
282.88818945646199
 30
0.0
 40
0.5
 50
90.0
 51
160.52877936550959
  0
ARC
  5
4D9D
  8
DANMEN
  6
CONTINUOUS
 10
172.2645668030857
 20
283.3881894564621
 30
0.0
 40
1.0
 50
199.47122063449029
 51
270.0
  0
ARC
  5
4D9E
  8
DANMEN
  6
CONTINUOUS
 10
162.26456680308559
 20
283.3881894564621
 30
0.0
 40
1.0
 50
270.0
 51
340.52877936550863
  0
ARC
  5
4D9F
  8
DANMEN
  6
CONTINUOUS
 10
161.7645668030857
 20
282.88818945646199
 30
0.0
 40
0.5
 50
180.0
 51
270.0
  0
ARC
  5
4DA0
  8
DANMEN
  6
CONTINUOUS
 10
172.76456680308559
 20
282.88818945646199
 30
0.0
 40
0.5
 50
270.0
 51
0.0
  0
LINE
  5
4DA1
  8
DANMEN
  6
CONTINUOUS
 10
161.7645668030857
 20
282.3881894564621
 30
0.0
 11
162.26456680308559
 21
282.3881894564621
 31
0.0
  0
LINE
  5
4DA2
  8
DANMEN
  6
CONTINUOUS
 10
172.2645668030857
 20
282.3881894564621
 30
0.0
 11
172.76456680308559
 21
282.3881894564621
 31
0.0
  0
LINE
  5
4DA3
  8
DANMEN
  6
CONTINUOUS
 10
173.2645668030857
 20
288.3881894564621
 30
0.0
 11
173.2645668030857
 21
282.88818945646199
 31
0.0
  0
LINE
  5
4DA4
  8
DANMEN
  6
CONTINUOUS
 10
163.67878036545869
 20
283.3881894564621
 30
0.0
 11
164.2645668030857
 21
283.3881894564621
 31
0.0
  0
LINE
  5
4DA5
  8
DANMEN
  6
CONTINUOUS
 10
161.26456680308559
 20
288.3881894564621
 30
0.0
 11
161.26456680308559
 21
282.88818945646199
 31
0.0
  0
LINE
  5
4DA6
  8
DANMEN
  6
CONTINUOUS
 10
163.67878036545869
 20
287.88818945646199
 30
0.0
 11
164.2645668030857
 21
287.88818945646199
 31
0.0
  0
LINE
  5
4DA7
  8
DANMEN
  6
CONTINUOUS
 10
172.2645668030857
 20
288.8881894564621
 30
0.0
 11
172.76456680308559
 21
288.8881894564621
 31
0.0
  0
LINE
  5
4DA8
  8
DANMEN
  6
CONTINUOUS
 10
161.7645668030857
 20
288.8881894564621
 30
0.0
 11
162.26456680308559
 21
288.8881894564621
 31
0.0
  0
ARC
  5
4DA9
  8
DANMEN
  6
CONTINUOUS
 10
172.76456680308559
 20
288.3881894564621
 30
0.0
 40
0.5
 50
0.0
 51
90.0
  0
ARC
  5
4DAA
  8
DANMEN
  6
CONTINUOUS
 10
161.7645668030857
 20
288.3881894564621
 30
0.0
 40
0.5
 50
90.0
 51
180.0
  0
ARC
  5
4DAB
  8
DANMEN
  6
CONTINUOUS
 10
162.26456680308559
 20
287.88818945646199
 30
0.0
 40
1.0
 50
19.47122063449142
 51
90.0
  0
ARC
  5
4DAC
  8
DANMEN
  6
CONTINUOUS
 10
172.2645668030857
 20
287.88818945646199
 30
0.0
 40
1.0
 50
90.0
 51
160.52877936550851
  0
ARC
  5
4DAD
  8
DANMEN
  6
CONTINUOUS
 10
163.67878036545869
 20
288.3881894564621
 30
0.0
 40
0.5
 50
199.47122063449029
 51
270.0
  0
ARC
  5
4DAE
  8
DANMEN
  6
CONTINUOUS
 10
170.85035324071259
 20
288.3881894564621
 30
0.0
 40
0.5
 50
270.0
 51
340.52877936550948
  0
LINE
  5
4DAF
  8
DANMEN
  6
CONTINUOUS
 10
170.26456680308559
 20
287.88818945646199
 30
0.0
 11
170.85035324071259
 21
287.88818945646199
 31
0.0
  0
ARC
  5
4DB0
  8
DANMEN
  6
CONTINUOUS
 10
161.26456680308559
 20
288.8881894564621
 30
0.0
 40
2.0
 50
90.0
 51
180.0
  0
LINE
  5
4DB1
  8
DANMEN
  6
CONTINUOUS
 10
159.26456680308559
 20
288.8881894564621
 30
0.0
 11
159.26456680308559
 21
282.53818945646202
 31
0.0
  0
LINE
  5
4DB2
  8
DANMEN
  6
CONTINUOUS
 10
170.26456680308559
 20
280.8881894564621
 30
0.0
 11
174.06456680308571
 21
280.8881894564621
 31
0.0
  0
LINE
  5
4DB3
  8
DANMEN
  6
CONTINUOUS
 10
175.56456680308571
 20
280.8881894564621
 30
0.0
 11
190.11456680308561
 21
280.8881894564621
 31
0.0
  0
LINE
  5
4DB4
  8
DANMEN
  6
CONTINUOUS
 10
174.06456680308571
 20
274.3881894564621
 30
0.0
 11
174.06456680308571
 21
280.8881894564621
 31
0.0
  0
LINE
  5
4DB5
  8
DANMEN
  6
CONTINUOUS
 10
175.56456680308571
 20
274.3881894564621
 30
0.0
 11
175.56456680308571
 21
280.8881894564621
 31
0.0
  0
LINE
  5
4DB6
  8
DANMEN
  6
CONTINUOUS
 10
172.2645668030857
 20
272.88818945646199
 30
0.0
 11
174.06456680308571
 21
272.88818945646199
 31
0.0
  0
LINE
  5
4DB7
  8
DANMEN
  6
CONTINUOUS
 10
172.2645668030857
 20
274.3881894564621
 30
0.0
 11
174.06456680308571
 21
274.3881894564621
 31
0.0
  0
LINE
  5
4DB8
  8
DANMEN
  6
CONTINUOUS
 10
171.76456680308559
 20
273.3881894564621
 30
0.0
 11
171.76456680308559
 21
273.8881894564621
 31
0.0
  0
ARC
  5
4DB9
  8
DANMEN
  6
CONTINUOUS
 10
172.2645668030857
 20
273.3881894564621
 30
0.0
 40
0.5
 50
180.0
 51
270.0
  0
ARC
  5
4DBA
  8
DANMEN
  6
CONTINUOUS
 10
172.2645668030857
 20
273.8881894564621
 30
0.0
 40
0.5
 50
90.0
 51
180.0
  0
LINE
  5
4DBB
  8
DANMEN
  6
CONTINUOUS
 10
164.2645668030857
 20
137.58818961938269
 30
0.0
 11
170.26456680308559
 21
137.58818961938269
 31
0.0
  0
LINE
  5
4DBC
  8
DANMEN
  6
CONTINUOUS
 10
164.2645668030857
 20
145.3881896193827
 30
0.0
 11
170.26456680308559
 21
145.3881896193827
 31
0.0
  0
LINE
  5
4DBD
  8
DANMEN
  6
CONTINUOUS
 10
164.2645668030857
 20
126.3881896193827
 30
0.0
 11
170.26456680308559
 21
126.3881896193827
 31
0.0
  0
LINE
  5
4DBE
  8
DANMEN
  6
CONTINUOUS
 10
164.2645668030857
 20
118.3881896193827
 30
0.0
 11
170.26456680308559
 21
118.3881896193827
 31
0.0
  0
ARC
  5
4DBF
  8
DANMEN
  6
CONTINUOUS
 10
187.26456069957001
 20
159.58818351586709
 30
0.0
 40
0.499993896484373
 50
90.0
 51
270.0
  0
ARC
  5
4DC0
  8
DANMEN
  6
CONTINUOUS
 10
184.41456680308559
 20
145.23818961938269
 30
0.0
 40
1.5
 50
270.0
 51
0.0
  0
ARC
  5
4DC1
  8
DANMEN
  6
CONTINUOUS
 10
183.06456680308571
 20
142.73818961938269
 30
0.0
 40
1.0
 50
90.0
 51
180.0
  0
LINE
  5
4DC2
  8
DANMEN
  6
CONTINUOUS
 10
185.91456680308571
 20
145.23818961938269
 30
0.0
 11
185.91456680308571
 21
145.73818961938269
 31
0.0
  0
LINE
  5
4DC3
  8
DANMEN
  6
CONTINUOUS
 10
183.06456680308571
 20
143.73818961938281
 30
0.0
 11
184.41456680308559
 21
143.73818961938281
 31
0.0
  0
ARC
  5
4DC4
  8
DANMEN
  6
CONTINUOUS
 10
184.7645668030857
 20
146.8881896193827
 30
0.0
 40
0.5
 50
90.0
 51
180.0
  0
LINE
  5
4DC5
  8
DANMEN
  6
CONTINUOUS
 10
184.26456680308559
 20
145.3881896193827
 30
0.0
 11
184.26456680308559
 21
146.8881896193827
 31
0.0
  0
LINE
  5
4DC6
  8
DANMEN
  6
CONTINUOUS
 10
148.41456680308579
 20
113.8881896193827
 30
0.0
 11
148.41456680308579
 21
99.388189619382786
 31
0.0
  0
LINE
  5
4DC7
  8
DANMEN
  6
CONTINUOUS
 10
151.2645668030857
 20
115.0381835158671
 30
0.0
 11
151.2645668030857
 21
114.3881896193827
 31
0.0
  0
ARC
  5
4DC8
  8
DANMEN
  6
CONTINUOUS
 10
150.76456680308559
 20
114.3881896193827
 30
0.0
 40
0.5
 50
270.00001798608901
 51
0.0
  0
ARC
  5
4DC9
  8
DANMEN
  6
CONTINUOUS
 10
150.76456680308559
 20
115.03818961938281
 30
0.0
 40
0.5
 50
0.0
 51
90.0
  0
LINE
  5
4DCA
  8
DANMEN
  6
CONTINUOUS
 10
148.41456680308579
 20
115.53818961938281
 30
0.0
 11
150.76456680308559
 21
115.53818961938281
 31
0.0
  0
LINE
  5
4DCB
  8
DANMEN
  6
CONTINUOUS
 10
148.41456680308579
 20
113.8881896193827
 30
0.0
 11
150.76456680308559
 21
113.8881896193827
 31
0.0
  0
LINE
  5
4DCC
  8
DANMEN
  6
CONTINUOUS
 10
187.76456680308559
 20
167.23818961938269
 30
0.0
 11
190.11456680308561
 21
167.23818961938269
 31
0.0
  0
LINE
  5
4DCD
  8
DANMEN
  6
CONTINUOUS
 10
170.26456680308559
 20
137.58818961938269
 30
0.0
 11
170.26456680308559
 21
135.58818961938269
 31
0.0
  0
LINE
  5
4DCE
  8
DANMEN
  6
CONTINUOUS
 10
164.2645668030857
 20
137.58818961938269
 30
0.0
 11
164.2645668030857
 21
135.58818961938269
 31
0.0
  0
LINE
  5
4DCF
  8
DANMEN
  6
CONTINUOUS
 10
161.26456680308559
 20
135.58818961938269
 30
0.0
 11
164.2645668030857
 21
135.58818961938269
 31
0.0
  0
LINE
  5
4DD0
  8
DANMEN
  6
CONTINUOUS
 10
161.26456680308559
 20
137.58818961938269
 30
0.0
 11
164.2645668030857
 21
137.58818961938269
 31
0.0
  0
LINE
  5
4DD1
  8
DANMEN
  6
CONTINUOUS
 10
170.26456680308559
 20
137.58818961938269
 30
0.0
 11
173.2645668030857
 21
137.58818961938269
 31
0.0
  0
LINE
  5
4DD2
  8
DANMEN
  6
CONTINUOUS
 10
159.26456680308559
 20
123.53818961938281
 30
0.0
 11
159.26456680308559
 21
126.3881896193753
 31
0.0
  0
LINE
  5
4DD3
  8
DANMEN
  6
CONTINUOUS
 10
175.2645668030857
 20
123.53818961938281
 30
0.0
 11
175.2645668030857
 21
126.3881896193827
 31
0.0
  0
ARC
  5
4DD4
  8
DANMEN
  6
CONTINUOUS
 10
161.26456680308559
 20
120.3881896193827
 30
0.0
 40
2.0
 50
180.0
 51
270.0
  0
ARC
  5
4DD5
  8
DANMEN
  6
CONTINUOUS
 10
173.2645668030857
 20
120.3881896193827
 30
0.0
 40
2.0
 50
270.0
 51
0.0
  0
LINE
  5
4DD6
  8
DANMEN
  6
CONTINUOUS
 10
161.26456680308559
 20
118.3881896193827
 30
0.0
 11
164.2645668030857
 21
118.3881896193827
 31
0.0
  0
LINE
  5
4DD7
  8
DANMEN
  6
CONTINUOUS
 10
170.26456680308559
 20
118.3881896193827
 30
0.0
 11
173.2645668030857
 21
118.3881896193827
 31
0.0
  0
LINE
  5
4DD8
  8
DANMEN
  6
CONTINUOUS
 10
161.26456680308559
 20
128.38818961937531
 30
0.0
 11
163.76456680309309
 21
128.38818961937531
 31
0.0
  0
LINE
  5
4DD9
  8
DANMEN
  6
CONTINUOUS
 10
170.26456680308559
 20
120.8881896193827
 30
0.0
 11
170.85035324071259
 21
120.8881896193827
 31
0.0
  0
ARC
  5
4DDA
  8
DANMEN
  6
CONTINUOUS
 10
170.85035324071259
 20
120.3881896193827
 30
0.0
 40
0.5
 50
19.471220634490379
 51
90.0
  0
ARC
  5
4DDB
  8
DANMEN
  6
CONTINUOUS
 10
163.67878036545869
 20
120.3881896193827
 30
0.0
 40
0.5
 50
90.0
 51
160.52877936550959
  0
ARC
  5
4DDC
  8
DANMEN
  6
CONTINUOUS
 10
172.2645668030857
 20
120.8881896193827
 30
0.0
 40
1.0
 50
199.47122063449029
 51
270.0
  0
ARC
  5
4DDD
  8
DANMEN
  6
CONTINUOUS
 10
162.26456680308559
 20
120.8881896193827
 30
0.0
 40
1.0
 50
270.0
 51
340.52877936550863
  0
ARC
  5
4DDE
  8
DANMEN
  6
CONTINUOUS
 10
161.7645668030857
 20
120.3881896193827
 30
0.0
 40
0.5
 50
180.0
 51
270.0
  0
ARC
  5
4DDF
  8
DANMEN
  6
CONTINUOUS
 10
172.76456680308559
 20
120.3881896193827
 30
0.0
 40
0.5
 50
270.0
 51
0.0
  0
LINE
  5
4DE0
  8
DANMEN
  6
CONTINUOUS
 10
161.7645668030857
 20
119.8881896193827
 30
0.0
 11
162.26456680308559
 21
119.8881896193827
 31
0.0
  0
LINE
  5
4DE1
  8
DANMEN
  6
CONTINUOUS
 10
172.2645668030857
 20
119.8881896193827
 30
0.0
 11
172.76456680308559
 21
119.8881896193827
 31
0.0
  0
LINE
  5
4DE2
  8
DANMEN
  6
CONTINUOUS
 10
163.67878036545869
 20
120.8881896193827
 30
0.0
 11
164.2645668030857
 21
120.8881896193827
 31
0.0
  0
LINE
  5
4DE3
  8
DANMEN
  6
CONTINUOUS
 10
161.26456680308559
 20
120.3881896193827
 30
0.0
 11
161.26456680308559
 21
125.8881896193827
 31
0.0
  0
LINE
  5
4DE4
  8
DANMEN
  6
CONTINUOUS
 10
173.2645668030857
 20
120.3881896193827
 30
0.0
 11
173.2645668030857
 21
125.8881896193827
 31
0.0
  0
LINE
  5
4DE5
  8
DANMEN
  6
CONTINUOUS
 10
170.76456680308559
 20
128.3881896193827
 30
0.0
 11
173.2645668030857
 21
128.3881896193827
 31
0.0
  0
LINE
  5
4DE6
  8
DANMEN
  6
CONTINUOUS
 10
164.2645668030857
 20
118.3881896193827
 30
0.0
 11
164.2645668030857
 21
120.8881896193827
 31
0.0
  0
LINE
  5
4DE7
  8
DANMEN
  6
CONTINUOUS
 10
170.26456680308559
 20
118.3881896193827
 30
0.0
 11
170.26456680308559
 21
120.8881896193827
 31
0.0
  0
LINE
  5
4DE8
  8
DANMEN
  6
CONTINUOUS
 10
170.76456680308559
 20
128.3881896193827
 30
0.0
 11
170.26456680308559
 21
128.1881896193828
 31
0.0
  0
LINE
  5
4DE9
  8
DANMEN
  6
CONTINUOUS
 10
164.2645668030857
 20
128.1881896193828
 30
0.0
 11
163.7645668030857
 21
128.3881896193827
 31
0.0
  0
ARC
  5
4DEA
  8
DANMEN
  6
CONTINUOUS
 10
161.26456680308559
 20
126.3881896193753
 30
0.0
 40
2.0
 50
90.0
 51
180.0
  0
ARC
  5
4DEB
  8
DANMEN
  6
CONTINUOUS
 10
173.2645668030857
 20
126.3881896193827
 30
0.0
 40
2.0
 50
0.0
 51
90.0
  0
LINE
  5
4DEC
  8
DANMEN
  6
CONTINUOUS
 10
175.2645668030857
 20
120.3881896193827
 30
0.0
 11
175.2645668030857
 21
121.8881896193827
 31
0.0
  0
LINE
  5
4DED
  8
DANMEN
  6
CONTINUOUS
 10
159.26456680308559
 20
120.3881896193827
 30
0.0
 11
159.26456680308559
 21
121.8881896193827
 31
0.0
  0
LINE
  5
4DEE
  8
DANMEN
  6
CONTINUOUS
 10
170.26456680308559
 20
125.3881896193827
 30
0.0
 11
170.85035324071259
 21
125.3881896193827
 31
0.0
  0
ARC
  5
4DEF
  8
DANMEN
  6
CONTINUOUS
 10
170.85035324071259
 20
125.8881896193827
 30
0.0
 40
0.5
 50
270.0
 51
340.52877936550948
  0
ARC
  5
4DF0
  8
DANMEN
  6
CONTINUOUS
 10
163.67878036545869
 20
125.8881896193827
 30
0.0
 40
0.5
 50
199.47122063449029
 51
270.0
  0
ARC
  5
4DF1
  8
DANMEN
  6
CONTINUOUS
 10
172.2645668030857
 20
125.3881896193827
 30
0.0
 40
1.0
 50
90.0
 51
160.52877936550851
  0
ARC
  5
4DF2
  8
DANMEN
  6
CONTINUOUS
 10
162.26456680308559
 20
125.3881896193827
 30
0.0
 40
1.0
 50
19.47122063449142
 51
90.0
  0
ARC
  5
4DF3
  8
DANMEN
  6
CONTINUOUS
 10
161.7645668030857
 20
125.8881896193827
 30
0.0
 40
0.5
 50
90.0
 51
180.0
  0
ARC
  5
4DF4
  8
DANMEN
  6
CONTINUOUS
 10
172.76456680308559
 20
125.8881896193827
 30
0.0
 40
0.5
 50
0.0
 51
90.0
  0
LINE
  5
4DF5
  8
DANMEN
  6
CONTINUOUS
 10
161.7645668030857
 20
126.3881896193827
 30
0.0
 11
162.26456680308559
 21
126.3881896193827
 31
0.0
  0
LINE
  5
4DF6
  8
DANMEN
  6
CONTINUOUS
 10
172.2645668030857
 20
126.3881896193827
 30
0.0
 11
172.76456680308559
 21
126.3881896193827
 31
0.0
  0
LINE
  5
4DF7
  8
DANMEN
  6
CONTINUOUS
 10
163.67878036545869
 20
125.3881896193827
 30
0.0
 11
164.2645668030857
 21
125.3881896193827
 31
0.0
  0
LINE
  5
4DF8
  8
DANMEN
  6
CONTINUOUS
 10
164.2645668030857
 20
128.1881896193828
 30
0.0
 11
164.2645668030857
 21
125.3881896193827
 31
0.0
  0
LINE
  5
4DF9
  8
DANMEN
  6
CONTINUOUS
 10
170.26456680308559
 20
128.1881896193828
 30
0.0
 11
170.26456680308559
 21
125.3881896193827
 31
0.0
  0
LINE
  5
4DFA
  8
DANMEN
  6
CONTINUOUS
 10
175.2645668030857
 20
123.53818961938281
 30
0.0
 11
190.11456680308561
 21
123.53818961938281
 31
0.0
  0
LINE
  5
4DFB
  8
DANMEN
  6
CONTINUOUS
 10
148.41456680308579
 20
123.53818961938281
 30
0.0
 11
159.26456680308559
 21
123.53818961938281
 31
0.0
  0
LINE
  5
4DFC
  8
DANMEN
  6
CONTINUOUS
 10
148.41456680308579
 20
121.8881896193827
 30
0.0
 11
159.26456680308559
 21
121.8881896193827
 31
0.0
  0
LINE
  5
4DFD
  8
DANMEN
  6
CONTINUOUS
 10
175.2645668030857
 20
121.8881896193827
 30
0.0
 11
190.11456680308561
 21
121.8881896193827
 31
0.0
  0
LINE
  5
4DFE
  8
DANMEN
  6
CONTINUOUS
 10
159.26456680308559
 20
141.23818961938281
 30
0.0
 11
159.26456680308559
 21
137.58818961938269
 31
0.0
  0
ARC
  5
4DFF
  8
DANMEN
  6
CONTINUOUS
 10
157.76456680308559
 20
144.8881896193827
 30
0.0
 40
0.5
 50
90.0
 51
180.0
  0
LINE
  5
4E00
  8
DANMEN
  6
CONTINUOUS
 10
157.26456680308559
 20
144.3881896193827
 30
0.0
 11
159.26456680308559
 21
144.3881896193827
 31
0.0
  0
LINE
  5
4E01
  8
DANMEN
  6
CONTINUOUS
 10
157.26456680308559
 20
144.8881896193827
 30
0.0
 11
157.26456680308559
 21
144.3881896193827
 31
0.0
  0
LINE
  5
4E02
  8
DANMEN
  6
CONTINUOUS
 10
185.91456680308571
 20
145.73818961938269
 30
0.0
 11
190.11456680308561
 21
145.73818961938269
 31
0.0
  0
LINE
  5
4E03
  8
DANMEN
  6
CONTINUOUS
 10
184.7645668030857
 20
147.3881896193827
 30
0.0
 11
190.11456680308561
 21
147.3881896193827
 31
0.0
  0
LINE
  5
4E04
  8
DANMEN
  6
CONTINUOUS
 10
148.41456680308579
 20
141.23818961938281
 30
0.0
 11
159.26456680308559
 21
141.23818961938281
 31
0.0
  0
LINE
  5
4E05
  8
DANMEN
  6
CONTINUOUS
 10
157.76456680308559
 20
145.3881896193827
 30
0.0
 11
164.2645668030857
 21
145.3881896193827
 31
0.0
  0
LINE
  5
4E06
  8
DANMEN
  6
CONTINUOUS
 10
190.11456680308561
 20
159.0881896193828
 30
0.0
 11
190.11456680308561
 21
147.3881896193827
 31
0.0
  0
LINE
  5
4E07
  8
DANMEN
  6
CONTINUOUS
 10
186.7645668030857
 20
168.3881896193827
 30
0.0
 11
186.7645668030857
 21
164.8881896193827
 31
0.0
  0
LINE
  5
4E08
  8
DANMEN
  6
CONTINUOUS
 10
187.26456069957001
 20
159.0881896193828
 30
0.0
 11
190.11456680308561
 21
159.0881896193828
 31
0.0
  0
LINE
  5
4E09
  8
DANMEN
  6
CONTINUOUS
 10
187.26456680308559
 20
164.3881896193827
 30
0.0
 11
187.76456680308559
 21
164.3881896193827
 31
0.0
  0
LINE
  5
4E0A
  8
DANMEN
  6
CONTINUOUS
 10
187.26456069957001
 20
160.08817741235151
 30
0.0
 11
190.11456680308561
 21
160.08817741235151
 31
0.0
  0
LINE
  5
4E0B
  8
DANMEN
  6
CONTINUOUS
 10
187.76456680308559
 20
167.23818961938269
 30
0.0
 11
187.76456680308559
 21
164.3881896193827
 31
0.0
  0
ARC
  5
4E0C
  8
DANMEN
  6
CONTINUOUS
 10
187.26456680308559
 20
168.3881896193827
 30
0.0
 40
0.5
 50
89.999982013910966
 51
179.99996402782111
  0
ARC
  5
4E0D
  8
DANMEN
  6
CONTINUOUS
 10
187.26456680308559
 20
164.8881896193827
 30
0.0
 40
0.5
 50
179.99998133066549
 51
270.00001798608901
  0
LINE
  5
4E0E
  8
DANMEN
  6
CONTINUOUS
 10
187.26456680308559
 20
168.8881896193827
 30
0.0
 11
191.26456680308559
 21
168.8881896193827
 31
0.0
  0
ARC
  5
4E0F
  8
DANMEN
  6
CONTINUOUS
 10
161.26456680308559
 20
137.58818961938269
 30
0.0
 40
2.0
 50
180.0
 51
270.0
  0
LINE
  5
4E10
  8
DANMEN
  6
CONTINUOUS
 10
159.26456680308559
 20
144.3881896193827
 30
0.0
 11
159.26456680308559
 21
142.8881896193827
 31
0.0
  0
ARC
  5
4E11
  8
DANMEN
  6
CONTINUOUS
 10
173.2645668030857
 20
137.58818961938269
 30
0.0
 40
2.0
 50
270.0
 51
0.0
  0
LINE
  5
4E12
  8
DANMEN
  6
CONTINUOUS
 10
175.2645668030857
 20
138.28818961938271
 30
0.0
 11
175.2645668030857
 21
137.58818961938269
 31
0.0
  0
LINE
  5
4E13
  8
DANMEN
  6
CONTINUOUS
 10
170.26456680308559
 20
145.3881896193827
 30
0.0
 11
170.26456680308559
 21
142.8881896193827
 31
0.0
  0
LINE
  5
4E14
  8
DANMEN
  6
CONTINUOUS
 10
164.2645668030857
 20
145.3881896193827
 30
0.0
 11
164.2645668030857
 21
142.8881896193827
 31
0.0
  0
LINE
  5
4E15
  8
DANMEN
  6
CONTINUOUS
 10
161.26456680308559
 20
143.3881896193827
 30
0.0
 11
161.26456680308559
 21
137.58818961938269
 31
0.0
  0
LINE
  5
4E16
  8
DANMEN
  6
CONTINUOUS
 10
163.67878036545869
 20
142.8881896193827
 30
0.0
 11
164.2645668030857
 21
142.8881896193827
 31
0.0
  0
LINE
  5
4E17
  8
DANMEN
  6
CONTINUOUS
 10
173.2645668030857
 20
143.3881896193827
 30
0.0
 11
173.2645668030857
 21
137.58818961938269
 31
0.0
  0
LINE
  5
4E18
  8
DANMEN
  6
CONTINUOUS
 10
172.2645668030857
 20
143.8881896193827
 30
0.0
 11
172.76456680308559
 21
143.8881896193827
 31
0.0
  0
LINE
  5
4E19
  8
DANMEN
  6
CONTINUOUS
 10
161.7645668030857
 20
143.8881896193827
 30
0.0
 11
162.26456680308559
 21
143.8881896193827
 31
0.0
  0
ARC
  5
4E1A
  8
DANMEN
  6
CONTINUOUS
 10
172.76456680308559
 20
143.3881896193827
 30
0.0
 40
0.5
 50
0.0
 51
90.0
  0
ARC
  5
4E1B
  8
DANMEN
  6
CONTINUOUS
 10
161.7645668030857
 20
143.3881896193827
 30
0.0
 40
0.5
 50
90.0
 51
180.0
  0
ARC
  5
4E1C
  8
DANMEN
  6
CONTINUOUS
 10
162.26456680308559
 20
142.8881896193827
 30
0.0
 40
1.0
 50
19.47122063449142
 51
90.0
  0
ARC
  5
4E1D
  8
DANMEN
  6
CONTINUOUS
 10
172.2645668030857
 20
142.8881896193827
 30
0.0
 40
1.0
 50
90.0
 51
160.52877936550851
  0
ARC
  5
4E1E
  8
DANMEN
  6
CONTINUOUS
 10
163.67878036545869
 20
143.3881896193827
 30
0.0
 40
0.5
 50
199.47122063449029
 51
270.0
  0
ARC
  5
4E1F
  8
DANMEN
  6
CONTINUOUS
 10
170.85035324071259
 20
143.3881896193827
 30
0.0
 40
0.5
 50
270.0
 51
340.52877936550948
  0
LINE
  5
4E20
  8
DANMEN
  6
CONTINUOUS
 10
170.26456680308559
 20
142.8881896193827
 30
0.0
 11
170.85035324071259
 21
142.8881896193827
 31
0.0
  0
ARC
  5
4E21
  8
DANMEN
  6
CONTINUOUS
 10
191.26456680308559
 20
168.3881896193827
 30
0.0
 40
0.5
 50
0.0
 51
90.0
  0
ARC
  5
4E22
  8
DANMEN
  6
CONTINUOUS
 10
121.41456680308571
 20
123.73818961938269
 30
0.0
 40
1.5
 50
270.0
 51
0.0
  0
LINE
  5
4E23
  8
DANMEN
  6
CONTINUOUS
 10
102.2645668030857
 20
168.8881896193827
 30
0.0
 11
107.2645668030856
 21
168.8881896193827
 31
0.0
  0
LINE
  5
4E24
  8
DANMEN
  6
CONTINUOUS
 10
101.7645668030856
 20
168.3881896193827
 30
0.0
 11
101.7645668030856
 21
137.3881896193827
 31
0.0
  0
LINE
  5
4E25
  8
DANMEN
  6
CONTINUOUS
 10
107.7645668030857
 20
168.3881896193827
 30
0.0
 11
107.7645668030857
 21
161.8881896193827
 31
0.0
  0
LINE
  5
4E26
  8
DANMEN
  6
CONTINUOUS
 10
191.7645668030857
 20
168.3881896193827
 30
0.0
 11
191.7645668030857
 21
114.3881896193827
 31
0.0
  0
LINE
  5
4E27
  8
DANMEN
  6
CONTINUOUS
 10
190.11456680308561
 20
167.23818961938269
 30
0.0
 11
190.11456680308561
 21
160.08817741235151
 31
0.0
  0
LINE
  5
4E28
  8
DANMEN
  6
CONTINUOUS
 10
103.41456680308571
 20
167.23818961938269
 30
0.0
 11
106.5645668030857
 21
167.23818961938269
 31
0.0
  0
LINE
  5
4E29
  8
DANMEN
  6
CONTINUOUS
 10
103.41456680308571
 20
167.23818961938269
 30
0.0
 11
103.41456680308571
 21
155.8881896193827
 31
0.0
  0
LINE
  5
4E2A
  8
DANMEN
  6
CONTINUOUS
 10
106.5645668030857
 20
167.23818961938269
 30
0.0
 11
106.5645668030857
 21
162.3881896193827
 31
0.0
  0
LINE
  5
4E2B
  8
DANMEN
  6
CONTINUOUS
 10
107.0645668030858
 20
161.8881896193827
 30
0.0
 11
107.7645668030857
 21
161.8881896193827
 31
0.0
  0
ARC
  5
4E2C
  8
DANMEN
  6
CONTINUOUS
 10
107.2645668030856
 20
168.3881896193827
 30
0.0
 40
0.5
 50
0.0
 51
90.0
  0
ARC
  5
4E2D
  8
DANMEN
  6
CONTINUOUS
 10
102.2645668030857
 20
168.3881896193827
 30
0.0
 40
0.5
 50
90.0
 51
180.0
  0
ARC
  5
4E2E
  8
DANMEN
  6
CONTINUOUS
 10
107.0645668030858
 20
162.3881896193827
 30
0.0
 40
0.5
 50
180.0
 51
270.0
  0
LINE
  5
4E2F
  8
DANMEN
  6
CONTINUOUS
 10
103.41456680308571
 20
142.8881896193827
 30
0.0
 11
159.26456680308559
 21
142.8881896193827
 31
0.0
  0
LINE
  5
4E30
  8
DANMEN
  6
CONTINUOUS
 10
102.9645668030856
 20
141.23818961938281
 30
0.0
 11
121.2645668030858
 21
141.23818961938281
 31
0.0
  0
LINE
  5
4E31
  8
DANMEN
  6
CONTINUOUS
 10
102.2645668030857
 20
136.8881896193827
 30
0.0
 11
102.4645668030856
 21
136.8881896193827
 31
0.0
  0
ARC
  5
4E32
  8
DANMEN
  6
CONTINUOUS
 10
102.2645668030857
 20
137.3881896193827
 30
0.0
 40
0.5
 50
180.0
 51
270.0
  0
LINE
  5
4E33
  8
DANMEN
  6
CONTINUOUS
 10
102.9645668030856
 20
141.23818961938281
 30
0.0
 11
102.9645668030856
 21
137.3881896193827
 31
0.0
  0
ARC
  5
4E34
  8
DANMEN
  6
CONTINUOUS
 10
102.4645668030856
 20
137.3881896193827
 30
0.0
 40
0.5
 50
270.0
 51
0.0
  0
LINE
  5
4E35
  8
DANMEN
  6
CONTINUOUS
 10
170.26456680308559
 20
145.3881896193827
 30
0.0
 11
184.26456680308559
 21
145.3881896193827
 31
0.0
  0
LINE
  5
4E36
  8
DANMEN
  6
CONTINUOUS
 10
190.11456680308561
 20
145.73818961938269
 30
0.0
 11
190.11456680308561
 21
123.53818961938281
 31
0.0
  0
LINE
  5
4E37
  8
DANMEN
  6
CONTINUOUS
 10
91.7645668030857
 20
118.3881896193827
 30
0.0
 11
91.7645668030857
 21
109.3881896193827
 31
0.0
  0
LINE
  5
4E38
  8
DANMEN
  6
CONTINUOUS
 10
92.264566803085856
 20
108.8881896193827
 30
0.0
 11
146.76456680308559
 21
108.8881896193827
 31
0.0
  0
ARC
  5
4E39
  8
DANMEN
  6
CONTINUOUS
 10
92.264566803085856
 20
109.3881896193827
 30
0.0
 40
0.5
 50
180.0
 51
270.0
  0
LINE
  5
4E3A
  8
DANMEN
  6
CONTINUOUS
 10
92.264566803085856
 20
118.8881896193827
 30
0.0
 11
93.564566803085796
 21
118.8881896193827
 31
0.0
  0
LINE
  5
4E3B
  8
DANMEN
  6
CONTINUOUS
 10
106.7645668030857
 20
123.8881896193827
 30
0.0
 11
121.2645668030858
 21
123.8881896193827
 31
0.0
  0
LINE
  5
4E3C
  8
DANMEN
  6
CONTINUOUS
 10
93.564566803085796
 20
118.8881896193827
 30
0.0
 11
106.7645668030857
 21
123.8881896193827
 31
0.0
  0
LINE
  5
4E3D
  8
DANMEN
  6
CONTINUOUS
 10
121.2645668030858
 20
141.23818961938281
 30
0.0
 11
121.2645668030858
 21
123.8881896193827
 31
0.0
  0
ARC
  5
4E3E
  8
DANMEN
  6
CONTINUOUS
 10
92.264566803085856
 20
118.3881896193827
 30
0.0
 40
0.5
 50
90.0
 51
180.0
  0
LINE
  5
4E3F
  8
DANMEN
  6
CONTINUOUS
 10
93.414566803085805
 20
117.06696643870519
 30
0.0
 11
93.414566803085805
 21
110.53818961938271
 31
0.0
  0
LINE
  5
4E40
  8
DANMEN
  6
CONTINUOUS
 10
93.414566803085805
 20
117.06696643870519
 30
0.0
 11
107.0665960000745
 21
122.23818961938269
 31
0.0
  0
LINE
  5
4E41
  8
DANMEN
  6
CONTINUOUS
 10
107.0665960000745
 20
122.23818961938269
 30
0.0
 11
110.4645668030856
 21
122.23818961938269
 31
0.0
  0
LINE
  5
4E42
  8
DANMEN
  6
CONTINUOUS
 10
93.414566803085805
 20
110.53818961938271
 30
0.0
 11
146.76456680308559
 21
110.53818961938271
 31
0.0
  0
LINE
  5
4E43
  8
DANMEN
  6
CONTINUOUS
 10
183.26456680308559
 20
115.03818961938281
 30
0.0
 11
183.26456680308559
 21
114.3881896193827
 31
0.0
  0
LINE
  5
4E44
  8
DANMEN
  6
CONTINUOUS
 10
183.7645668030857
 20
115.53818961938281
 30
0.0
 11
190.11456680308561
 21
115.53818961938281
 31
0.0
  0
LINE
  5
4E45
  8
DANMEN
  6
CONTINUOUS
 10
183.7645668030857
 20
113.8881896193827
 30
0.0
 11
191.26456680308559
 21
113.8881896193827
 31
0.0
  0
ARC
  5
4E46
  8
DANMEN
  6
CONTINUOUS
 10
191.26456680308559
 20
114.3881896193827
 30
0.0
 40
0.5
 50
270.0
 51
0.0
  0
ARC
  5
4E47
  8
DANMEN
  6
CONTINUOUS
 10
183.7645668030857
 20
114.3881896193827
 30
0.0
 40
0.5
 50
180.0
 51
270.0
  0
ARC
  5
4E48
  8
DANMEN
  6
CONTINUOUS
 10
183.7645668030857
 20
115.03818961938281
 30
0.0
 40
0.5
 50
90.0
 51
180.0
  0
LINE
  5
4E49
  8
DANMEN
  6
CONTINUOUS
 10
146.76456680308559
 20
141.23818961938281
 30
0.0
 11
146.76456680308559
 21
110.53818961938271
 31
0.0
  0
LINE
  5
4E4A
  8
DANMEN
  6
CONTINUOUS
 10
147.26456680308581
 20
98.888189619382786
 30
0.0
 11
147.91456680308579
 21
98.888189619382786
 31
0.0
  0
LINE
  5
4E4B
  8
DANMEN
  6
CONTINUOUS
 10
148.41456680308579
 20
141.23818961938281
 30
0.0
 11
148.41456680308579
 21
123.53818961938281
 31
0.0
  0
ARC
  5
4E4C
  8
DANMEN
  6
CONTINUOUS
 10
147.91456680308579
 20
99.388189619382786
 30
0.0
 40
0.5
 50
270.0
 51
0.0
  0
ARC
  5
4E4D
  8
DANMEN
  6
CONTINUOUS
 10
147.26456680308581
 20
99.388189619382786
 30
0.0
 40
0.5
 50
180.0
 51
270.0
  0
LINE
  5
4E4E
  8
DANMEN
  6
CONTINUOUS
 10
146.76456680308559
 20
108.8881896193827
 30
0.0
 11
146.76456680308559
 21
99.388189619382786
 31
0.0
  0
LINE
  5
4E4F
  8
DANMEN
  6
CONTINUOUS
 10
148.41456680308579
 20
121.8881896193827
 30
0.0
 11
148.41456680308579
 21
115.53818961938281
 31
0.0
  0
LINE
  5
4E50
  8
DANMEN
  6
CONTINUOUS
 10
122.91456680308571
 20
141.23818961938281
 30
0.0
 11
122.91456680308571
 21
123.73818961938269
 31
0.0
  0
LINE
  5
4E51
  8
DANMEN
  6
CONTINUOUS
 10
122.91456680308571
 20
141.23818961938281
 30
0.0
 11
131.4645668030856
 21
141.23818961938281
 31
0.0
  0
LINE
  5
4E52
  8
DANMEN
  6
CONTINUOUS
 10
190.11456680308561
 20
121.8881896193827
 30
0.0
 11
190.11456680308561
 21
115.53818961938281
 31
0.0
  0
ARC
  5
4E53
  8
DANMEN
  6
CONTINUOUS
 10
113.36456680308559
 20
118.5881896193827
 30
0.0
 40
0.3
 50
270.0
 51
0.0
  0
ARC
  5
4E54
  8
DANMEN
  6
CONTINUOUS
 10
116.16456680308571
 20
118.5881896193827
 30
0.0
 40
0.3
 50
180.0
 51
270.0
  0
LINE
  5
4E55
  8
DANMEN
  6
CONTINUOUS
 10
116.16456680308571
 20
118.28818961938281
 30
0.0
 11
117.3039461763472
 21
118.28818961938281
 31
0.0
  0
LINE
  5
4E56
  8
DANMEN
  6
CONTINUOUS
 10
112.2251874447941
 20
118.28818961938281
 30
0.0
 11
113.3645668269275
 21
118.28818961938281
 31
0.0
  0
LINE
  5
4E57
  8
DANMEN
  6
CONTINUOUS
 10
113.9645667911648
 20
122.1881896193827
 30
0.0
 11
115.5645668150067
 21
122.1881896193827
 31
0.0
  0
LINE
  5
4E58
  8
DANMEN
  6
CONTINUOUS
 10
112.9645668030856
 20
119.9421288426723
 30
0.0
 11
112.9645668030856
 21
121.1881896313037
 31
0.0
  0
LINE
  5
4E59
  8
DANMEN
  6
CONTINUOUS
 10
111.4645668030856
 20
119.85788346505269
 30
0.0
 11
111.4645668030856
 21
121.23818961938269
 31
0.0
  0
ARC
  5
4E5A
  8
DANMEN
  6
CONTINUOUS
 10
115.5645668030857
 20
121.1881896193827
 30
0.0
 40
1.0
 50
0.0
 51
90.0
  0
ARC
  5
4E5B
  8
DANMEN
  6
CONTINUOUS
 10
113.9645668030856
 20
121.1881896193827
 30
0.0
 40
1.0
 50
90.0
 51
180.0
  0
LINE
  5
4E5C
  8
DANMEN
  6
CONTINUOUS
 10
113.66456680308561
 20
118.5881896193827
 30
0.0
 11
113.66456680308561
 21
118.8512576093361
 31
0.0
  0
ARC
  5
4E5D
  8
DANMEN
  6
CONTINUOUS
 10
113.9645668030856
 20
119.9421288207997
 30
0.0
 40
1.0
 50
180.0
 51
245.3756816478363
  0
ARC
  5
4E5E
  8
DANMEN
  6
CONTINUOUS
 10
113.4645668030856
 20
118.8512576093361
 30
0.0
 40
0.2
 50
0.0
 51
65.375681647836402
  0
ARC
  5
4E5F
  8
DANMEN
  6
CONTINUOUS
 10
113.4645668030856
 20
119.85788346505269
 30
0.0
 40
2.0
 50
180.0
 51
231.70652271262219
  0
LINE
  5
4E60
  8
DANMEN
  6
CONTINUOUS
 10
116.5645668030858
 20
119.9421288426723
 30
0.0
 11
116.5645668030858
 21
121.1881896313037
 31
0.0
  0
LINE
  5
4E61
  8
DANMEN
  6
CONTINUOUS
 10
118.0645668030857
 20
119.85788346505269
 30
0.0
 11
118.0645668030857
 21
121.23818961938269
 31
0.0
  0
ARC
  5
4E62
  8
DANMEN
  6
CONTINUOUS
 10
116.0645668030857
 20
119.85788346505269
 30
0.0
 40
2.0
 50
308.2934772873777
 51
0.0
  0
ARC
  5
4E63
  8
DANMEN
  6
CONTINUOUS
 10
116.0645668030857
 20
118.8512576093361
 30
0.0
 40
0.2
 50
114.6243183521636
 51
180.0
  0
ARC
  5
4E64
  8
DANMEN
  6
CONTINUOUS
 10
115.5645668030857
 20
119.9421288207997
 30
0.0
 40
1.0
 50
294.62431835216358
 51
0.0
  0
LINE
  5
4E65
  8
DANMEN
  6
CONTINUOUS
 10
115.86456680308579
 20
118.5881896193827
 30
0.0
 11
115.86456680308579
 21
118.8512576093361
 31
0.0
  0
ARC
  5
4E66
  8
DANMEN
  6
CONTINUOUS
 10
134.36456680308569
 20
137.58818961938269
 30
0.0
 40
0.3
 50
270.0
 51
0.0
  0
ARC
  5
4E67
  8
DANMEN
  6
CONTINUOUS
 10
137.16456680308579
 20
137.58818961938269
 30
0.0
 40
0.3
 50
180.0
 51
270.0
  0
LINE
  5
4E68
  8
DANMEN
  6
CONTINUOUS
 10
137.16456680308579
 20
137.28818961938271
 30
0.0
 11
138.30394617634721
 21
137.28818961938271
 31
0.0
  0
LINE
  5
4E69
  8
DANMEN
  6
CONTINUOUS
 10
133.2251874447941
 20
137.28818961938271
 30
0.0
 11
134.36456682692759
 21
137.28818961938271
 31
0.0
  0
LINE
  5
4E6A
  8
DANMEN
  6
CONTINUOUS
 10
134.96456679116471
 20
141.18818961938271
 30
0.0
 11
136.5645668150066
 21
141.18818961938271
 31
0.0
  0
LINE
  5
4E6B
  8
DANMEN
  6
CONTINUOUS
 10
133.96456680308569
 20
138.94212884267219
 30
0.0
 11
133.96456680308569
 21
140.18818963130369
 31
0.0
  0
LINE
  5
4E6C
  8
DANMEN
  6
CONTINUOUS
 10
132.4645668030856
 20
138.85788346505259
 30
0.0
 11
132.4645668030856
 21
140.23818961938269
 31
0.0
  0
ARC
  5
4E6D
  8
DANMEN
  6
CONTINUOUS
 10
136.56456680308571
 20
140.18818961938271
 30
0.0
 40
1.0
 50
0.0
 51
90.0
  0
ARC
  5
4E6E
  8
DANMEN
  6
CONTINUOUS
 10
134.96456680308569
 20
140.18818961938271
 30
0.0
 40
1.0
 50
90.0
 51
180.0
  0
LINE
  5
4E6F
  8
DANMEN
  6
CONTINUOUS
 10
134.66456680308571
 20
137.58818961938269
 30
0.0
 11
134.66456680308571
 21
137.8512576093361
 31
0.0
  0
ARC
  5
4E70
  8
DANMEN
  6
CONTINUOUS
 10
134.96456680308569
 20
138.9421288207997
 30
0.0
 40
1.0
 50
180.0
 51
245.3756816478363
  0
ARC
  5
4E71
  8
DANMEN
  6
CONTINUOUS
 10
134.4645668030856
 20
137.8512576093361
 30
0.0
 40
0.2
 50
0.0
 51
65.375681647836402
  0
ARC
  5
4E72
  8
DANMEN
  6
CONTINUOUS
 10
134.4645668030856
 20
138.85788346505259
 30
0.0
 40
2.0
 50
180.0
 51
231.70652271262219
  0
LINE
  5
4E73
  8
DANMEN
  6
CONTINUOUS
 10
137.56456680308571
 20
138.94212884267219
 30
0.0
 11
137.56456680308571
 21
140.18818963130369
 31
0.0
  0
LINE
  5
4E74
  8
DANMEN
  6
CONTINUOUS
 10
139.06456680308571
 20
138.85788346505259
 30
0.0
 11
139.06456680308571
 21
140.23818961938269
 31
0.0
  0
ARC
  5
4E75
  8
DANMEN
  6
CONTINUOUS
 10
137.06456680308571
 20
138.85788346505259
 30
0.0
 40
2.0
 50
308.2934772873777
 51
0.0
  0
ARC
  5
4E76
  8
DANMEN
  6
CONTINUOUS
 10
137.06456680308571
 20
137.8512576093361
 30
0.0
 40
0.2
 50
114.6243183521636
 51
180.0
  0
ARC
  5
4E77
  8
DANMEN
  6
CONTINUOUS
 10
136.56456680308571
 20
138.9421288207997
 30
0.0
 40
1.0
 50
294.62431835216358
 51
0.0
  0
LINE
  5
4E78
  8
DANMEN
  6
CONTINUOUS
 10
136.86456680308561
 20
137.58818961938269
 30
0.0
 11
136.86456680308561
 21
137.8512576093361
 31
0.0
  0
LINE
  5
4E79
  8
DANMEN
  6
CONTINUOUS
 10
119.0645668030857
 20
122.23818961938269
 30
0.0
 11
121.41456680308571
 21
122.23818961938269
 31
0.0
  0
ARC
  5
4E7A
  8
DANMEN
  6
CONTINUOUS
 10
110.4645668030856
 20
121.23818961938269
 30
0.0
 40
1.0
 50
0.0
 51
90.0
  0
ARC
  5
4E7B
  8
DANMEN
  6
CONTINUOUS
 10
119.0645668030857
 20
121.23818961938269
 30
0.0
 40
1.0
 50
90.0
 51
180.0
  0
LINE
  5
4E7C
  8
DANMEN
  6
CONTINUOUS
 10
140.06456680308571
 20
141.23818961938281
 30
0.0
 11
146.76456680308559
 21
141.23818961938281
 31
0.0
  0
ARC
  5
4E7D
  8
DANMEN
  6
CONTINUOUS
 10
131.4645668030856
 20
140.23818961938269
 30
0.0
 40
1.0
 50
0.0
 51
90.0
  0
ARC
  5
4E7E
  8
DANMEN
  6
CONTINUOUS
 10
140.06456680308571
 20
140.23818961938269
 30
0.0
 40
1.0
 50
90.0
 51
180.0
  0
LINE
  5
4E7F
  8
DANMEN
  6
CONTINUOUS
 10
103.41456680308571
 20
155.8881896193827
 30
0.0
 11
107.2645668030856
 21
155.8881896193827
 31
0.0
  0
LINE
  5
4E80
  8
DANMEN
  6
CONTINUOUS
 10
103.41456680308571
 20
154.88818961938281
 30
0.0
 11
107.2645668030856
 21
154.88818961938281
 31
0.0
  0
ARC
  5
4E81
  8
DANMEN
  6
CONTINUOUS
 10
107.2645668030856
 20
155.3881896193827
 30
0.0
 40
0.5
 50
270.0
 51
90.0
  0
LINE
  5
4E82
  8
DANMEN
  6
CONTINUOUS
 10
103.41456680308571
 20
154.88818961938281
 30
0.0
 11
103.41456680308571
 21
142.8881896193827
 31
0.0
  0
LINE
  5
4E83
  8
DANMEN
  6
CONTINUOUS
 10
176.96456680308569
 20
139.94212884267219
 30
0.0
 11
176.96456680308569
 21
141.18818963130369
 31
0.0
  0
LINE
  5
4E84
  8
DANMEN
  6
CONTINUOUS
 10
180.56456680308571
 20
139.94212884267219
 30
0.0
 11
180.56456680308571
 21
141.18818963130369
 31
0.0
  0
ARC
  5
4E85
  8
DANMEN
  6
CONTINUOUS
 10
180.06456680308571
 20
139.85788346505259
 30
0.0
 40
2.0
 50
308.2934772873777
 51
0.0
  0
LINE
  5
4E86
  8
DANMEN
  6
CONTINUOUS
 10
179.86456680308561
 20
138.58818961938269
 30
0.0
 11
179.86456680308561
 21
138.8512576093361
 31
0.0
  0
ARC
  5
4E87
  8
DANMEN
  6
CONTINUOUS
 10
179.56456680308571
 20
139.9421288207997
 30
0.0
 40
1.0
 50
294.62431835216358
 51
0.0
  0
ARC
  5
4E88
  8
DANMEN
  6
CONTINUOUS
 10
180.06456680308571
 20
138.8512576093361
 30
0.0
 40
0.2
 50
114.6243183521636
 51
180.0
  0
ARC
  5
4E89
  8
DANMEN
  6
CONTINUOUS
 10
177.46456680308569
 20
138.8512576093361
 30
0.0
 40
0.2
 50
0.0
 51
65.375681647836402
  0
ARC
  5
4E8A
  8
DANMEN
  6
CONTINUOUS
 10
177.96456680308569
 20
139.9421288207997
 30
0.0
 40
1.0
 50
180.0
 51
245.3756816478363
  0
LINE
  5
4E8B
  8
DANMEN
  6
CONTINUOUS
 10
177.66456680308571
 20
138.58818961938269
 30
0.0
 11
177.66456680308571
 21
138.8512576093361
 31
0.0
  0
LINE
  5
4E8C
  8
DANMEN
  6
CONTINUOUS
 10
175.2645668030857
 20
138.28818961938271
 30
0.0
 11
177.3645668269275
 21
138.28818961938271
 31
0.0
  0
LINE
  5
4E8D
  8
DANMEN
  6
CONTINUOUS
 10
180.16456680308571
 20
138.28818961938271
 30
0.0
 11
181.3039461763471
 21
138.28818961938271
 31
0.0
  0
ARC
  5
4E8E
  8
DANMEN
  6
CONTINUOUS
 10
180.16456680308571
 20
138.58818961938269
 30
0.0
 40
0.3
 50
180.0
 51
270.0
  0
ARC
  5
4E8F
  8
DANMEN
  6
CONTINUOUS
 10
177.36456680308561
 20
138.58818961938269
 30
0.0
 40
0.3
 50
270.0
 51
0.0
  0
ARC
  5
4E90
  8
DANMEN
  6
CONTINUOUS
 10
177.96456680308569
 20
141.18818961938271
 30
0.0
 40
1.0
 50
90.0
 51
180.0
  0
ARC
  5
4E91
  8
DANMEN
  6
CONTINUOUS
 10
179.56456680308571
 20
141.18818961938271
 30
0.0
 40
1.0
 50
0.0
 51
90.0
  0
LINE
  5
4E92
  8
DANMEN
  6
CONTINUOUS
 10
177.96456679116471
 20
142.18818961938271
 30
0.0
 11
179.5645668150066
 21
142.18818961938271
 31
0.0
  0
LINE
  5
4E93
  8
DANMEN
  6
CONTINUOUS
 10
182.06456680308571
 20
139.85788346505259
 30
0.0
 11
182.06456680308571
 21
142.73818961938269
 31
0.0
  0
LINE
  5
4E94
  8
DANMEN
  6
CONTINUOUS
 10
170.26456680308559
 20
135.58818961938269
 30
0.0
 11
173.2645668030857
 21
135.58818961938269
 31
0.0
  0
LINE
  5
4E95
  8
DANMEN
  6
CONTINUOUS
 10
107.7645668030857
 20
170.3881909504355
 30
0.0
 11
107.7645668030857
 21
206.38818332104091
 31
0.0
  0
LINE
  5
4E96
  8
DANMEN
  6
CONTINUOUS
 10
101.7645668030856
 20
169.8881909504355
 30
0.0
 11
101.7645668030856
 21
206.38818332104091
 31
0.0
  0
LINE
  5
4E97
  8
SUNPO
  6
CONTINUOUS
 10
101.7645668030856
 20
206.38818332104091
 30
0.0
 11
107.7645668030857
 21
206.38818332104091
 31
0.0
  0
LINE
  5
4E98
  8
DANMEN
  6
CONTINUOUS
 10
119.2645658494114
 20
145.88819071830801
 30
0.0
 11
112.2645677567601
 21
145.8881885204575
 31
0.0
  0
LINE
  5
4E99
  8
DANMEN
  6
CONTINUOUS
 10
117.38556625832651
 20
145.5091896433986
 30
0.0
 11
117.3855686511575
 21
139.88819203569071
 31
0.0
  0
LINE
  5
4E9A
  8
DANMEN
  6
CONTINUOUS
 10
114.1435675858411
 20
145.50918862548011
 30
0.0
 11
114.1435699786721
 21
139.8881910177721
 31
0.0
  0
LINE
  5
4E9B
  8
DANMEN
  6
CONTINUOUS
 10
117.7645672426552
 20
144.48819253615849
 30
0.0
 11
117.76456931491489
 21
139.8881921546888
 31
0.0
  0
LINE
  5
4E9C
  8
DANMEN
  6
CONTINUOUS
 10
113.7645672426552
 20
144.48819128024371
 30
0.0
 11
113.76456931491479
 21
139.8881908987739
 31
0.0
  0
LINE
  5
4E9D
  8
DANMEN
  6
CONTINUOUS
 10
119.16662247742519
 20
147.0076029131873
 30
0.0
 11
119.26455855773131
 21
145.88819094471
 31
0.0
  0
LINE
  5
4E9E
  8
DANMEN
  6
CONTINUOUS
 10
112.36250938218549
 20
147.00760016528051
 30
0.0
 11
112.26457410096479
 21
145.88818884236011
 31
0.0
  0
ARC
  5
4E9F
  8
DANMEN
  6
CONTINUOUS
 10
115.7645688125497
 20
139.48818904717811
 30
0.0
 40
9.0
 50
74.119191136984583
 51
105.8808821738634
  0
ARC
  5
4EA0
  8
DANMEN
  6
CONTINUOUS
 10
117.8715757371066
 20
146.89430267175089
 30
0.0
 40
1.2999992370605451
 50
5.0000809630422873
 51
74.119191136984583
  0
ARC
  5
4EA1
  8
DANMEN
  6
CONTINUOUS
 10
113.6575569153903
 20
146.8943017180766
 30
0.0
 40
1.2999992370605451
 50
105.8808821738634
 51
174.99999234780509
  0
LINE
  5
4EA2
  8
DANMEN
  6
CONTINUOUS
 10
117.7645653353071
 20
144.48819062880929
 30
0.0
 11
113.7645691500045
 21
144.48818937289559
 31
0.0
  0
ARC
  5
4EA3
  8
DANMEN
  6
CONTINUOUS
 10
117.7645668030857
 20
145.5091896708812
 30
0.0
 40
0.3790005445480347
 50
90.00003665542431
 51
201.79007065010251
  0
ARC
  5
4EA4
  8
DANMEN
  6
CONTINUOUS
 10
113.76456775676
 20
145.5091884191836
 30
0.0
 40
0.3790005445480347
 50
338.21000266074509
 51
90.00003665542431
  0
LINE
  5
4EA5
  8
DANMEN
  6
CONTINUOUS
 10
117.76455457729109
 20
144.4881963275129
 30
0.0
 11
117.4126341430387
 21
145.36850564596861
 31
0.0
  0
LINE
  5
4EA6
  8
DANMEN
  6
CONTINUOUS
 10
113.7645789200967
 20
144.48819547714291
 30
0.0
 11
114.1164988457773
 21
145.3685050216306
 31
0.0
  0
LINE
  5
4EA7
  8
DANMEN
  6
DASHED
 10
117.764561301897
 20
148.26314525842031
 30
0.0
 11
116.9095620298898
 21
146.54828051983449
 31
0.0
  0
LINE
  5
4EA8
  8
DANMEN
  6
DASHED
 10
113.7645713818643
 20
148.263143140468
 30
0.0
 11
114.6195712562684
 21
146.54827982642709
 31
0.0
  0
LINE
  5
4EA9
  8
DANMEN
  6
DASHED
 10
116.9095576188998
 20
146.54828255340189
 30
0.0
 11
115.9993020196043
 21
146.0642903225019
 31
0.0
  0
LINE
  5
4EAA
  8
DANMEN
  6
DASHED
 10
114.6195747255374
 20
146.54828230276649
 30
0.0
 11
115.52983152674589
 21
146.06429014919399
 31
0.0
  0
ARC
  5
4EAB
  8
DANMEN
  6
DASHED
 10
115.76456660918041
 20
146.50576437075981
 30
0.0
 40
0.5
 50
242.00001265345799
 51
298.00007796023289
  0
LINE
  5
4EAC
  8
DANMEN
  6
CONTINUOUS
 10
117.7645674075669
 20
139.88819024733959
 30
0.0
 11
113.764571222264
 21
139.88818899142589
 31
0.0
  0
LINE
  5
4EAD
  8
DANMEN
  6
CENTER
 10
115.7645668030857
 20
150.48818809350379
 30
0.0
 11
115.7645668030857
 21
137.8881896193827
 31
0.0
  0
ARC
  5
4EAE
  8
DANMEN
  6
CONTINUOUS
 10
187.81456756602509
 20
164.51954776605021
 30
0.0
 40
0.8000000119209291
 50
314.99999533266589
 51
82.819212894179444
  0
ARC
  5
4EAF
  8
DANMEN
  6
CONTINUOUS
 10
188.31456756602509
 20
162.16244251092331
 30
0.0
 40
0.3000000119209289
 50
0.0
 51
120.5792307016785
  0
ARC
  5
4EB0
  8
DANMEN
  6
CONTINUOUS
 10
186.61456680308561
 20
161.73866683801069
 30
0.0
 40
0.199999988079071
 50
179.9999813306647
 51
300.5792666738559
  0
ARC
  5
4EB1
  8
DANMEN
  6
CONTINUOUS
 10
188.9145669938205
 20
160.48817742427241
 30
0.0
 40
0.3000000119209289
 50
179.9999813306647
 51
270.00001798608901
  0
ARC
  5
4EB2
  8
DANMEN
  6
CONTINUOUS
 10
189.61456680308569
 20
166.4881776030864
 30
0.0
 40
0.5
 50
0.0
 51
89.999982013910966
  0
ARC
  5
4EB3
  8
DANMEN
  6
CONTINUOUS
 10
188.4145669938205
 20
166.4881776030864
 30
0.0
 40
0.5
 50
89.999982013910966
 51
179.99996402782111
  0
LINE
  5
4EB4
  8
DANMEN
  6
CONTINUOUS
 10
188.61456680308569
 20
162.16244251092331
 30
0.0
 11
188.61456680308569
 21
160.48817742427241
 31
0.0
  0
LINE
  5
4EB5
  8
DANMEN
  6
CONTINUOUS
 10
188.3802524248419
 20
163.95386227554619
 30
0.0
 11
186.4145677853123
 21
161.9881778017114
 31
0.0
  0
LINE
  5
4EB6
  8
DANMEN
  6
CONTINUOUS
 10
188.16194809587179
 20
162.4207207784215
 30
0.0
 11
186.71631330585231
 21
161.5664820343151
 31
0.0
  0
LINE
  5
4EB7
  8
DANMEN
  6
CONTINUOUS
 10
186.4145669938205
 20
161.988176649412
 30
0.0
 11
186.4145669938205
 21
161.73866683801069
 31
0.0
  0
LINE
  5
4EB8
  8
DANMEN
  6
CONTINUOUS
 10
190.11456680308561
 20
166.4881776030864
 30
0.0
 11
190.11456680308561
 21
160.18817741235151
 31
0.0
  0
LINE
  5
4EB9
  8
DANMEN
  6
CONTINUOUS
 10
188.4145669938205
 20
166.98817760308631
 30
0.0
 11
189.61456680308569
 21
166.98817760308631
 31
0.0
  0
LINE
  5
4EBA
  8
DANMEN
  6
CONTINUOUS
 10
188.9145669938205
 20
160.18817741235151
 30
0.0
 11
190.11456680308561
 21
160.18817741235151
 31
0.0
  0
LINE
  5
4EBB
  8
DANMEN
  6
CONTINUOUS
 10
187.9145669938205
 20
166.4881776030864
 30
0.0
 11
187.9145669938205
 21
165.31327373345741
 31
0.0
  0
LINE
  5
4EBC
  8
SUNPO
  6
CONTINUOUS
 10
90.264566803085685
 20
168.8881896193827
 30
0.0
 11
75.7645668030857
 21
168.8881896193827
 31
0.0
  0
LINE
  5
4EBD
  8
SUNPO
  6
CONTINUOUS
 10
90.264566803085685
 20
136.8881896193827
 30
0.0
 11
75.7645668030857
 21
136.8881896193827
 31
0.0
  0
LINE
  5
4EBE
  8
SUNPO
  6
CONTINUOUS
 10
75.7645668030857
 20
136.8881896193827
 30
0.0
 11
75.7645668030857
 21
168.8881896193827
 31
0.0
  0
LINE
  5
4EBF
  8
SUNPO
  6
CONTINUOUS
 10
90.264566803085685
 20
118.8881896193827
 30
0.0
 11
75.7645668030857
 21
118.8881896193827
 31
0.0
  0
LINE
  5
4EC0
  8
SUNPO
  6
CONTINUOUS
 10
75.7645668030857
 20
118.8881896193827
 30
0.0
 11
75.7645668030857
 21
136.8881896193827
 31
0.0
  0
LINE
  5
4EC1
  8
SUNPO
  6
CONTINUOUS
 10
90.264566803085685
 20
108.8881896193827
 30
0.0
 11
75.7645668030857
 21
108.8881896193827
 31
0.0
  0
LINE
  5
4EC2
  8
SUNPO
  6
CONTINUOUS
 10
75.7645668030857
 20
108.8881896193827
 30
0.0
 11
75.7645668030857
 21
118.8881896193827
 31
0.0
  0
LINE
  5
4EC3
  8
SUNPO
  6
CONTINUOUS
 10
145.26456680308581
 20
98.888189619382786
 30
0.0
 11
75.7645668030857
 21
98.888189619382786
 31
0.0
  0
LINE
  5
4EC4
  8
SUNPO
  6
CONTINUOUS
 10
75.7645668030857
 20
98.888189619382786
 30
0.0
 11
75.7645668030857
 21
108.8881896193827
 31
0.0
  0
LINE
  5
4EC5
  8
SUNPO
  6
CONTINUOUS
 10
90.264566803085685
 20
307.8881894564621
 30
0.0
 11
75.7645668030857
 21
307.8881894564621
 31
0.0
  0
LINE
  5
4EC6
  8
SUNPO
  6
CONTINUOUS
 10
90.264566803085685
 20
272.88818945646199
 30
0.0
 11
75.7645668030857
 21
272.88818945646199
 31
0.0
  0
LINE
  5
4EC7
  8
SUNPO
  6
CONTINUOUS
 10
75.7645668030857
 20
272.88818945646199
 30
0.0
 11
75.7645668030857
 21
307.8881894564621
 31
0.0
  0
LINE
  5
4EC8
  8
SUNPO
  6
CONTINUOUS
 10
90.264566803085685
 20
248.88818945646199
 30
0.0
 11
75.7645668030857
 21
248.88818945646199
 31
0.0
  0
LINE
  5
4EC9
  8
SUNPO
  6
CONTINUOUS
 10
75.7645668030857
 20
248.88818945646199
 30
0.0
 11
75.7645668030857
 21
272.88818945646199
 31
0.0
  0
LINE
  5
4ECA
  8
SUNPO
  6
CONTINUOUS
 10
145.26456680308581
 20
312.8881894564621
 30
0.0
 11
75.7645668030857
 21
312.8881894564621
 31
0.0
  0
LINE
  5
4ECB
  8
SUNPO
  6
CONTINUOUS
 10
75.7645668030857
 20
307.8881894564621
 30
0.0
 11
75.7645668030857
 21
312.8881894564621
 31
0.0
  0
LINE
  5
4ECC
  8
SUNPO
  6
CONTINUOUS
 10
145.26456680308581
 20
322.88818945646199
 30
0.0
 11
75.7645668030857
 21
322.88818945646199
 31
0.0
  0
LINE
  5
4ECD
  8
SUNPO
  6
CONTINUOUS
 10
75.7645668030857
 20
312.8881894564621
 30
0.0
 11
75.7645668030857
 21
322.88818945646199
 31
0.0
  0
LINE
  5
4ECE
  8
SUNPO
  6
CONTINUOUS
 10
193.2645668030857
 20
312.8881894564621
 30
0.0
 11
207.76456680308559
 21
312.8881894564621
 31
0.0
  0
LINE
  5
4ECF
  8
SUNPO
  6
CONTINUOUS
 10
193.2645668030857
 20
322.88818945646199
 30
0.0
 11
207.76456680308559
 21
322.88818945646199
 31
0.0
  0
LINE
  5
4ED0
  8
SUNPO
  6
CONTINUOUS
 10
207.76456680308559
 20
322.88818945646199
 30
0.0
 11
207.76456680308559
 21
312.8881894564621
 31
0.0
  0
LINE
  5
4ED1
  8
SUNPO
  6
CONTINUOUS
 10
193.2645668030857
 20
272.88818945646199
 30
0.0
 11
207.76456680308559
 21
272.88818945646199
 31
0.0
  0
LINE
  5
4ED2
  8
SUNPO
  6
CONTINUOUS
 10
207.76456680308559
 20
312.8881894564621
 30
0.0
 11
207.76456680308559
 21
272.88818945646199
 31
0.0
  0
LINE
  5
4ED3
  8
SUNPO
  6
CONTINUOUS
 10
193.2645672009094
 20
248.88818943262021
 30
0.0
 11
200.730374161969
 21
248.88818943262021
 31
0.0
  0
LINE
  5
4ED4
  8
SUNPO
  6
CONTINUOUS
 10
200.730374161969
 20
272.88818945646199
 30
0.0
 11
200.730374161969
 21
248.88818943262021
 31
0.0
  0
LINE
  5
4ED5
  8
SUNPO
  6
CONTINUOUS
 10
207.76456680308559
 20
272.88818945646199
 30
0.0
 11
212.7645667162366
 21
267.88818954331111
 31
0.0
  0
LINE
  5
4ED6
  8
SUNPO
  6
CONTINUOUS
 10
202.76456688993471
 20
267.88818954331111
 30
0.0
 11
207.76456680308559
 21
272.88818945646199
 31
0.0
  0
LINE
  5
4ED7
  8
SUNPO
  6
CONTINUOUS
 10
212.7645668030857
 20
267.8881894564621
 30
0.0
 11
202.76456680308559
 21
267.8881894564621
 31
0.0
  0
LINE
  5
4ED8
  8
SUNPO
  6
CONTINUOUS
 10
203.7645668030857
 20
218.02923415462161
 30
0.0
 11
211.76456680308559
 21
218.02923415462161
 31
0.0
  0
LINE
  5
4ED9
  8
SUNPO
  6
CONTINUOUS
 10
206.5644935608982
 20
231.54449389735839
 30
0.0
 11
206.5644935608982
 21
226.7559501961866
 31
0.0
  0
LINE
  5
4EDA
  8
SUNPO
  6
CONTINUOUS
 10
208.9644874573826
 20
231.54449389735839
 30
0.0
 11
208.96448745738249
 21
226.7559501961866
 31
0.0
  0
LINE
  5
4EDB
  8
SUNPO
  6
CONTINUOUS
 10
203.7645668030857
 20
219.42922805110601
 30
0.0
 11
203.7645668030857
 21
214.23188517848641
 31
0.0
  0
LINE
  5
4EDC
  8
SUNPO
  6
CONTINUOUS
 10
203.7645668030857
 20
225.54218028346691
 30
0.0
 11
203.7645668030857
 21
221.8091337517896
 31
0.0
  0
LINE
  5
4EDD
  8
SUNPO
  6
CONTINUOUS
 10
203.7645668030857
 20
223.52923463145879
 30
0.0
 11
211.76456680308559
 21
223.52923463145879
 31
0.0
  0
LINE
  5
4EDE
  8
SUNPO
  6
CONTINUOUS
 10
211.76456680308559
 20
219.42922805110601
 30
0.0
 11
211.76456680308559
 21
214.23188517848641
 31
0.0
  0
LINE
  5
4EDF
  8
SUNPO
  6
CONTINUOUS
 10
207.76456680308559
 20
223.52923463145879
 30
0.0
 11
207.76456680308559
 21
218.02923415462161
 31
0.0
  0
LINE
  5
4EE0
  8
SUNPO
  6
CONTINUOUS
 10
211.76456680308559
 20
225.54218028346691
 30
0.0
 11
211.76456680308559
 21
221.8091337517896
 31
0.0
  0
LINE
  5
4EE1
  8
SUNPO
  6
CONTINUOUS
 10
203.7645668030857
 20
216.02923415462161
 30
0.0
 11
211.76456680308559
 21
216.02923415462161
 31
0.0
  0
LINE
  5
4EE2
  8
SUNPO
  6
CONTINUOUS
 10
207.76456680308559
 20
168.8881896193827
 30
0.0
 11
202.76456688993471
 21
173.88818953253369
 31
0.0
  0
LINE
  5
4EE3
  8
SUNPO
  6
CONTINUOUS
 10
212.7645667162366
 20
173.88818953253369
 30
0.0
 11
207.76456680308559
 21
168.8881896193827
 31
0.0
  0
LINE
  5
4EE4
  8
SUNPO
  6
CONTINUOUS
 10
202.76456680308559
 20
173.8881896193827
 30
0.0
 11
212.7645668030857
 21
173.8881896193827
 31
0.0
  0
LINE
  5
4EE5
  8
SUNPO
  6
CONTINUOUS
 10
207.76456680308559
 20
272.88818945646199
 30
0.0
 11
207.76456680308559
 21
235.03222293288661
 31
0.0
  0
LINE
  5
4EE6
  8
SUNPO
  6
CONTINUOUS
 10
207.76456680308559
 20
211.84896012254671
 30
0.0
 11
207.76456680308559
 21
168.8881896193827
 31
0.0
  0
LINE
  5
4EE7
  8
DANMEN
  6
CONTINUOUS
 10
186.76458872644591
 20
206.38818332104091
 30
0.0
 11
186.76458872644591
 21
168.8881896193827
 31
0.0
  0
LINE
  5
4EE8
  8
DANMEN
  6
CONTINUOUS
 10
186.76458872644591
 20
211.388183321041
 30
0.0
 11
186.76458872644591
 21
248.88818945646199
 31
0.0
  0
LINE
  5
4EE9
  8
DANMEN
  6
CONTINUOUS
 10
191.7645668030857
 20
272.88818945646199
 30
0.0
 11
191.7645668030857
 21
211.388183321041
 31
0.0
  0
LINE
  5
4EEA
  8
DANMEN
  6
CONTINUOUS
 10
147.91456680308579
 20
322.88818945646199
 30
0.0
 11
191.76456680308559
 21
322.88818945646199
 31
0.0
  0
LINE
  5
4EEB
  8
DANMEN
  6
CONTINUOUS
 10
115.2645729066013
 20
267.8881894564621
 30
0.0
 11
143.26457290660139
 21
267.8881894564621
 31
0.0
  0
LINE
  5
4EEC
  8
DANMEN
  6
CONTINUOUS
 10
135.26457290660119
 20
211.388183321041
 30
0.0
 11
135.26457290660119
 21
267.8881894564621
 31
0.0
  0
LINE
  5
4EED
  8
DANMEN
  6
CONTINUOUS
 10
123.2645729066012
 20
211.388183321041
 30
0.0
 11
123.2645729066012
 21
267.8881894564621
 31
0.0
  0
LINE
  5
4EEE
  8
DANMEN
  6
CONTINUOUS
 10
143.26457290660139
 20
211.388183321041
 30
0.0
 11
143.26457290660139
 21
267.8881894564621
 31
0.0
  0
LINE
  5
4EEF
  8
DANMEN
  6
CONTINUOUS
 10
115.2645729066013
 20
211.388183321041
 30
0.0
 11
115.2645729066013
 21
267.8881894564621
 31
0.0
  0
LINE
  5
4EF0
  8
DANMEN
  6
CONTINUOUS
 10
123.2645729066012
 20
261.8881894564621
 30
0.0
 11
135.26457290660119
 21
261.8881894564621
 31
0.0
  0
LINE
  5
4EF1
  8
DANMEN
  6
CONTINUOUS
 10
115.7645729066012
 20
211.388183321041
 30
0.0
 11
115.7645729066012
 21
267.8881894564621
 31
0.0
  0
LINE
  5
4EF2
  8
DANMEN
  6
CONTINUOUS
 10
122.7645729066012
 20
211.388183321041
 30
0.0
 11
122.7645729066012
 21
267.8881894564621
 31
0.0
  0
LINE
  5
4EF3
  8
DANMEN
  6
CONTINUOUS
 10
135.7645729066013
 20
211.388183321041
 30
0.0
 11
135.7645729066013
 21
267.8881894564621
 31
0.0
  0
LINE
  5
4EF4
  8
DANMEN
  6
CONTINUOUS
 10
142.76457290660119
 20
211.388183321041
 30
0.0
 11
142.76457290660119
 21
267.8881894564621
 31
0.0
  0
LINE
  5
4EF5
  8
DANMEN
  6
CONTINUOUS
 10
115.2645668030856
 20
149.8881896193827
 30
0.0
 11
143.26456680308581
 21
149.8881896193827
 31
0.0
  0
LINE
  5
4EF6
  8
DANMEN
  6
CONTINUOUS
 10
135.26456680308559
 20
149.8881896193827
 30
0.0
 11
135.26456680308559
 21
206.38818332104091
 31
0.0
  0
LINE
  5
4EF7
  8
DANMEN
  6
CONTINUOUS
 10
123.2645668030858
 20
149.8881896193827
 30
0.0
 11
123.2645668030858
 21
206.38818332104091
 31
0.0
  0
LINE
  5
4EF8
  8
DANMEN
  6
CONTINUOUS
 10
143.26456680308581
 20
149.8881896193827
 30
0.0
 11
143.26456680308581
 21
206.38818332104091
 31
0.0
  0
LINE
  5
4EF9
  8
DANMEN
  6
CONTINUOUS
 10
115.2645668030856
 20
149.8881896193827
 30
0.0
 11
115.2645668030856
 21
206.38818332104091
 31
0.0
  0
LINE
  5
4EFA
  8
DANMEN
  6
CONTINUOUS
 10
123.2645668030858
 20
155.8881896193827
 30
0.0
 11
135.26456680308559
 21
155.8881896193827
 31
0.0
  0
LINE
  5
4EFB
  8
DANMEN
  6
CONTINUOUS
 10
115.7645668030857
 20
149.8881896193827
 30
0.0
 11
115.7645668030857
 21
206.38818332104091
 31
0.0
  0
LINE
  5
4EFC
  8
DANMEN
  6
CONTINUOUS
 10
122.7645668030856
 20
149.8881896193827
 30
0.0
 11
122.7645668030856
 21
206.38818332104091
 31
0.0
  0
LINE
  5
4EFD
  8
DANMEN
  6
CONTINUOUS
 10
135.7645668030857
 20
149.8881896193827
 30
0.0
 11
135.7645668030857
 21
206.38818332104091
 31
0.0
  0
LINE
  5
4EFE
  8
DANMEN
  6
CONTINUOUS
 10
142.7645668030857
 20
149.8881896193827
 30
0.0
 11
142.7645668030857
 21
206.38818332104091
 31
0.0
  0
LINE
  5
4EFF
  8
DANMEN
  6
CONTINUOUS
 10
107.2645729066012
 20
211.388183321041
 30
0.0
 11
107.2645729066012
 21
248.88818945646199
 31
0.0
  0
LINE
  5
4F00
  8
DANMEN
  6
CONTINUOUS
 10
107.2645668030856
 20
168.88818961123769
 30
0.0
 11
107.2645668030856
 21
206.38818332104091
 31
0.0
  0
LINE
  5
4F01
  8
DANMEN
  6
CONTINUOUS
 10
151.2645729066013
 20
211.388183321041
 30
0.0
 11
151.2645729066013
 21
248.88818945646199
 31
0.0
  0
LINE
  5
4F02
  8
DANMEN
  6
CONTINUOUS
 10
151.2645668030857
 20
168.8881896193827
 30
0.0
 11
151.2645668030857
 21
206.38818332104091
 31
0.0
  0
LINE
  5
4F03
  8
DANMEN
  6
CONTINUOUS
 10
191.7645668030857
 20
322.88818945646199
 30
0.0
 11
191.7645668030857
 21
312.8881894564621
 31
0.0
  0
LINE
  5
4F04
  8
DANMEN
  6
CONTINUOUS
 10
147.91456680308579
 20
98.888189619382786
 30
0.0
 11
191.76456680308559
 21
98.888189619382786
 31
0.0
  0
LINE
  5
4F05
  8
DANMEN
  6
CONTINUOUS
 10
191.76456680308559
 20
113.8881896193827
 30
0.0
 11
191.76456680308559
 21
98.888189619382786
 31
0.0
  0
LINE
  5
4F06
  8
DANMEN
  6
CONTINUOUS
 10
91.7645668030857
 20
272.8881894564621
 30
0.0
 11
93.414566803085805
 21
272.8881894564621
 31
0.0
  0
LINE
  5
4F07
  8
DANMEN
  6
CONTINUOUS
 10
93.414566803085805
 20
272.8881894564621
 30
0.0
 11
93.414566803085805
 21
211.388183321041
 31
0.0
  0
LINE
  5
4F08
  8
DANMEN
  6
CONTINUOUS
 10
99.764566803085714
 20
280.8881894564621
 30
0.0
 11
99.764566803085714
 21
211.388183321041
 31
0.0
  0
LINE
  5
4F09
  8
DANMEN
  6
CONTINUOUS
 10
91.7645668030857
 20
272.88818945646199
 30
0.0
 11
91.7645668030857
 21
211.388183321041
 31
0.0
  0
LINE
  5
4F0A
  8
DANMEN
  6
CONTINUOUS
 10
99.764566803085714
 20
136.8881896193827
 30
0.0
 11
101.7645729066012
 21
136.8881896193827
 31
0.0
  0
LINE
  5
4F0B
  8
DANMEN
  6
CONTINUOUS
 10
93.414566803085805
 20
206.38818332104091
 30
0.0
 11
93.414566803085805
 21
118.88817436059369
 31
0.0
  0
LINE
  5
4F0C
  8
DANMEN
  6
CONTINUOUS
 10
91.7645668030857
 20
206.38818332104091
 30
0.0
 11
91.7645668030857
 21
118.88817436059369
 31
0.0
  0
LINE
  5
4F0D
  8
DANMEN
  6
CONTINUOUS
 10
191.7645668030857
 20
206.38818332104091
 30
0.0
 11
191.7645668030857
 21
168.8881896193827
 31
0.0
  0
LINE
  5
4F0E
  8
DANMEN
  6
CONTINUOUS
 10
99.764566803085714
 20
206.38818332104091
 30
0.0
 11
99.764566803085714
 21
136.8881896193827
 31
0.0
  0
LINE
  5
4F0F
  8
DANMEN
  6
CONTINUOUS
 10
379.76456888313919
 20
129.1359099456121
 30
0.0
 11
375.76456829762373
 21
129.1359099456121
 31
0.0
  0
LINE
  5
4F10
  8
DANMEN
  6
CONTINUOUS
 10
384.76456888313908
 20
129.13593189281431
 30
0.0
 11
388.76456946865449
 21
129.13593189281431
 31
0.0
  0
LINE
  5
4F11
  8
DANMEN
  6
CONTINUOUS
 10
291.76456771234922
 20
129.1359099456121
 30
0.0
 11
295.76456829786463
 21
129.1359099456121
 31
0.0
  0
LINE
  5
4F12
  8
DANMEN
  6
CONTINUOUS
 10
286.76456771234922
 20
129.13593189281431
 30
0.0
 11
282.76456712683381
 21
129.13593189281431
 31
0.0
  0
LINE
  5
4F13
  8
DANMEN
  6
CONTINUOUS
 10
427.76456680308559
 20
219.8359318928143
 30
0.0
 11
384.76456888313908
 21
219.8359318928143
 31
0.0
  0
LINE
  5
4F14
  8
DANMEN
  6
CONTINUOUS
 10
412.76456680308559
 20
221.63593189281431
 30
0.0
 11
384.76456888313908
 21
221.63593189281431
 31
0.0
  0
LINE
  5
4F15
  8
DANMEN
  6
CONTINUOUS
 10
384.76456888313908
 20
211.9359318928143
 30
0.0
 11
388.76456946853432
 21
211.9359318928143
 31
0.0
  0
LINE
  5
4F16
  8
DANMEN
  6
CONTINUOUS
 10
286.76456771234922
 20
211.63593189281431
 30
0.0
 11
282.7645671269542
 21
211.63593189281431
 31
0.0
  0
LINE
  5
4F17
  8
DANMEN
  6
CONTINUOUS
 10
258.76456979240282
 20
221.63593189281431
 30
0.0
 11
286.76456771234922
 21
221.63593189281431
 31
0.0
  0
LINE
  5
4F18
  8
DANMEN
  6
CONTINUOUS
 10
243.7645697924028
 20
219.8359318928143
 30
0.0
 11
286.76456771234922
 21
219.8359318928143
 31
0.0
  0
LINE
  5
4F19
  8
DANMEN
  6
CONTINUOUS
 10
263.76456845967851
 20
198.13592091921319
 30
0.0
 11
263.76456845967851
 21
170.13592091921319
 31
0.0
  0
LINE
  5
4F1A
  8
DANMEN
  6
CONTINUOUS
 10
269.76456845967851
 20
190.13592091921319
 30
0.0
 11
269.76456845967851
 21
178.13592091921319
 31
0.0
  0
LINE
  5
4F1B
  8
DANMEN
  6
CONTINUOUS
 10
269.76456845967851
 20
190.13592091921319
 30
0.0
 11
263.76456845967851
 21
178.13592091921319
 31
0.0
  0
LINE
  5
4F1C
  8
DANMEN
  6
CONTINUOUS
 10
263.76456845967851
 20
190.13592091921319
 30
0.0
 11
269.76456845967851
 21
178.13592091921319
 31
0.0
  0
LINE
  5
4F1D
  8
DANMEN
  6
CONTINUOUS
 10
286.76457037791818
 20
162.13593189281431
 30
0.0
 11
282.76456979240282
 21
162.13593189281431
 31
0.0
  0
LINE
  5
4F1E
  8
DANMEN
  6
CONTINUOUS
 10
286.76456771234922
 20
206.13592091921319
 30
0.0
 11
282.76456979193489
 21
206.13592091921319
 31
0.0
  0
LINE
  5
4F1F
  8
DANMEN
  6
CONTINUOUS
 10
286.76456771234922
 20
170.63592091921319
 30
0.0
 11
263.76456845967851
 21
170.63592091921319
 31
0.0
  0
LINE
  5
4F20
  8
DANMEN
  6
CONTINUOUS
 10
286.76456771234922
 20
177.63592091921319
 30
0.0
 11
263.76456845967851
 21
177.63592091921319
 31
0.0
  0
LINE
  5
4F21
  8
DANMEN
  6
CONTINUOUS
 10
286.76456771234922
 20
190.63592091921319
 30
0.0
 11
263.76456845967851
 21
190.63592091921319
 31
0.0
  0
LINE
  5
4F22
  8
DANMEN
  6
CONTINUOUS
 10
286.76456771234922
 20
197.63592091921319
 30
0.0
 11
263.76456845967851
 21
197.63592091921319
 31
0.0
  0
LINE
  5
4F23
  8
DANMEN
  6
CONTINUOUS
 10
286.76456771234922
 20
198.13592091921319
 30
0.0
 11
263.76456845967851
 21
198.13592091921319
 31
0.0
  0
LINE
  5
4F24
  8
DANMEN
  6
CONTINUOUS
 10
286.76456771234922
 20
170.13592091921319
 30
0.0
 11
263.76456845967851
 21
170.13592091921319
 31
0.0
  0
LINE
  5
4F25
  8
DANMEN
  6
CONTINUOUS
 10
286.76456771234922
 20
190.13592091921319
 30
0.0
 11
263.76456845967851
 21
190.13592091921319
 31
0.0
  0
LINE
  5
4F26
  8
DANMEN
  6
CONTINUOUS
 10
286.76456771234922
 20
178.13592091921319
 30
0.0
 11
263.76456845967851
 21
178.13592091921319
 31
0.0
  0
LINE
  5
4F27
  8
DANMEN
  6
CONTINUOUS
 10
384.76456888313908
 20
121.6359318928143
 30
0.0
 11
412.76456680308559
 21
121.6359318928143
 31
0.0
  0
LINE
  5
4F28
  8
DANMEN
  6
CONTINUOUS
 10
286.76456771234922
 20
121.6359318928143
 30
0.0
 11
258.76456979240282
 21
121.6359318928143
 31
0.0
  0
LINE
  5
4F29
  8
DANMEN
  6
CONTINUOUS
 10
379.76456888313919
 20
211.9359318928143
 30
0.0
 11
375.76456829774412
 21
211.9359318928143
 31
0.0
  0
LINE
  5
4F2A
  8
DANMEN
  6
CONTINUOUS
 10
291.76456771234922
 20
206.13592091921319
 30
0.0
 11
295.76456563276361
 21
206.13592091921319
 31
0.0
  0
LINE
  5
4F2B
  8
DANMEN
  6
CONTINUOUS
 10
291.76456771234922
 20
211.63593189281431
 30
0.0
 11
295.76456829774418
 21
211.63593189281431
 31
0.0
  0
LINE
  5
4F2C
  8
DANMEN
  6
CONTINUOUS
 10
291.76457037791818
 20
162.13593189281431
 30
0.0
 11
295.76457096343358
 21
162.13593189281431
 31
0.0
  0
LINE
  5
4F2D
  8
DANMEN
  6
CONTINUOUS
 10
291.76456771234922
 20
170.63592091921319
 30
0.0
 11
314.76456696501992
 21
170.63592091921319
 31
0.0
  0
LINE
  5
4F2E
  8
DANMEN
  6
CONTINUOUS
 10
291.76456771234922
 20
177.63592091921319
 30
0.0
 11
314.76456696501992
 21
177.63592091921319
 31
0.0
  0
LINE
  5
4F2F
  8
DANMEN
  6
CONTINUOUS
 10
291.76456771234922
 20
190.63592091921319
 30
0.0
 11
314.76456696501992
 21
190.63592091921319
 31
0.0
  0
LINE
  5
4F30
  8
DANMEN
  6
CONTINUOUS
 10
291.76456771234922
 20
197.63592091921319
 30
0.0
 11
314.76456696501992
 21
197.63592091921319
 31
0.0
  0
LINE
  5
4F31
  8
DANMEN
  6
CONTINUOUS
 10
291.76456771234922
 20
198.13592091921319
 30
0.0
 11
314.76456696501992
 21
198.13592091921319
 31
0.0
  0
LINE
  5
4F32
  8
DANMEN
  6
CONTINUOUS
 10
291.76456771234922
 20
170.13592091921319
 30
0.0
 11
314.76456696501992
 21
170.13592091921319
 31
0.0
  0
LINE
  5
4F33
  8
DANMEN
  6
CONTINUOUS
 10
291.76456771234922
 20
190.13592091921319
 30
0.0
 11
314.76456696501992
 21
190.13592091921319
 31
0.0
  0
LINE
  5
4F34
  8
DANMEN
  6
CONTINUOUS
 10
291.76456771234922
 20
178.13592091921319
 30
0.0
 11
314.76456696501992
 21
178.13592091921319
 31
0.0
  0
LINE
  5
4F35
  8
DANMEN
  6
CONTINUOUS
 10
314.76456696501992
 20
190.13592091921319
 30
0.0
 11
308.76456696501992
 21
178.13592091921319
 31
0.0
  0
LINE
  5
4F36
  8
DANMEN
  6
CONTINUOUS
 10
308.76456696501992
 20
190.13592091921319
 30
0.0
 11
314.76456696501992
 21
178.13592091921319
 31
0.0
  0
LINE
  5
4F37
  8
DANMEN
  6
CONTINUOUS
 10
308.76456696501992
 20
190.13592091921319
 30
0.0
 11
308.76456696501992
 21
178.13592091921319
 31
0.0
  0
LINE
  5
4F38
  8
DANMEN
  6
CONTINUOUS
 10
314.76456696501992
 20
198.13592091921319
 30
0.0
 11
314.76456696501992
 21
170.13592091921319
 31
0.0
  0
LINE
  5
4F39
  8
DANMEN
  6
CONTINUOUS
 10
291.76456771234922
 20
121.6359318928143
 30
0.0
 11
379.76456888313919
 21
121.6359318928143
 31
0.0
  0
LINE
  5
4F3A
  8
DANMEN
  6
CONTINUOUS
 10
291.76456771234922
 20
219.8359318928143
 30
0.0
 11
379.76456888313919
 21
219.8359318928143
 31
0.0
  0
LINE
  5
4F3B
  8
DANMEN
  6
CONTINUOUS
 10
291.76456771234922
 20
221.63593189281431
 30
0.0
 11
379.76456888313919
 21
221.63593189281431
 31
0.0
  0
LINE
  5
4F3C
  8
DANMEN
  6
CONTINUOUS
 10
286.76456771234922
 20
126.6359318928143
 30
0.0
 11
258.76456979240282
 21
126.6359318928143
 31
0.0
  0
LINE
  5
4F3D
  8
DANMEN
  6
CONTINUOUS
 10
291.76456771234922
 20
126.6359099456121
 30
0.0
 11
295.76456829786463
 21
126.6359099456121
 31
0.0
  0
LINE
  5
4F3E
  8
SUNPO
  6
CONTINUOUS
 10
384.76456888313908
 20
126.6359318928143
 30
0.0
 11
388.76456946865449
 21
126.6359318928143
 31
0.0
  0
LINE
  5
4F3F
  8
SUNPO
  6
CONTINUOUS
 10
379.76456888313919
 20
126.6359099456121
 30
0.0
 11
375.76456829762373
 21
126.6359099456121
 31
0.0
  0
LINE
  5
4F40
  8
SUNPO
  6
CONTINUOUS
 10
351.14448252266169
 20
97.635931892814355
 30
0.0
 11
412.76456680308559
 21
97.635931892814355
 31
0.0
  0
LINE
  5
4F41
  8
SUNPO
  6
CONTINUOUS
 10
324.29368615764929
 20
97.635931892814355
 30
0.0
 11
258.76456979240282
 21
97.635931892814355
 31
0.0
  0
LINE
  5
4F42
  8
DANMEN
  6
CONTINUOUS
 10
282.76456979240282
 20
206.1359318928142
 30
0.0
 11
283.76456845967851
 21
198.13592091921319
 31
0.0
  0
LINE
  5
4F43
  8
DANMEN
  6
CONTINUOUS
 10
295.76456829786463
 20
206.13592091921319
 30
0.0
 11
294.76456829774429
 21
198.13592091921319
 31
0.0
  0
LINE
  5
4F44
  8
DANMEN
  6
CONTINUOUS
 10
282.76456979240282
 20
162.1359099456121
 30
0.0
 11
283.76456845967851
 21
170.13592091921319
 31
0.0
  0
LINE
  5
4F45
  8
DANMEN
  6
CONTINUOUS
 10
295.76456829786463
 20
162.13592091921319
 30
0.0
 11
294.76456829774429
 21
170.13592091921319
 31
0.0
  0
LINE
  5
4F46
  8
DANMEN
  6
CONTINUOUS
 10
291.76457037767739
 20
156.63593189281431
 30
0.0
 11
295.7645709631928
 21
156.63593189281431
 31
0.0
  0
LINE
  5
4F47
  8
DANMEN
  6
CONTINUOUS
 10
286.76457037791818
 20
156.63593189281431
 30
0.0
 11
282.76456979240282
 21
156.63593189281431
 31
0.0
  0
LINE
  5
4F48
  8
DANMEN
  6
CONTINUOUS
 10
379.76456888325959
 20
162.13593189281431
 30
0.0
 11
375.76456829774412
 21
162.13593189281431
 31
0.0
  0
LINE
  5
4F49
  8
DANMEN
  6
CONTINUOUS
 10
379.76456621769057
 20
206.13592091921319
 30
0.0
 11
375.76456829727618
 21
206.13592091921319
 31
0.0
  0
LINE
  5
4F4A
  8
DANMEN
  6
CONTINUOUS
 10
379.76456621769057
 20
170.63592091921319
 30
0.0
 11
356.76456696501992
 21
170.63592091921319
 31
0.0
  0
LINE
  5
4F4B
  8
DANMEN
  6
CONTINUOUS
 10
379.76456621769057
 20
177.63592091921319
 30
0.0
 11
356.76456696501992
 21
177.63592091921319
 31
0.0
  0
LINE
  5
4F4C
  8
DANMEN
  6
CONTINUOUS
 10
379.76456621769057
 20
190.63592091921319
 30
0.0
 11
356.76456696501992
 21
190.63592091921319
 31
0.0
  0
LINE
  5
4F4D
  8
DANMEN
  6
CONTINUOUS
 10
379.76456621769057
 20
197.63592091921319
 30
0.0
 11
356.76456696501992
 21
197.63592091921319
 31
0.0
  0
LINE
  5
4F4E
  8
DANMEN
  6
CONTINUOUS
 10
379.76456621769057
 20
198.13592091921319
 30
0.0
 11
356.76456696501992
 21
198.13592091921319
 31
0.0
  0
LINE
  5
4F4F
  8
DANMEN
  6
CONTINUOUS
 10
379.76456621769057
 20
170.13592091921319
 30
0.0
 11
356.76456696501992
 21
170.13592091921319
 31
0.0
  0
LINE
  5
4F50
  8
DANMEN
  6
CONTINUOUS
 10
379.76456621769057
 20
190.13592091921319
 30
0.0
 11
356.76456696501992
 21
190.13592091921319
 31
0.0
  0
LINE
  5
4F51
  8
DANMEN
  6
CONTINUOUS
 10
379.76456621769057
 20
178.13592091921319
 30
0.0
 11
356.76456696501992
 21
178.13592091921319
 31
0.0
  0
LINE
  5
4F52
  8
DANMEN
  6
CONTINUOUS
 10
384.76456621769051
 20
206.13592091921319
 30
0.0
 11
388.76456413810502
 21
206.13592091921319
 31
0.0
  0
LINE
  5
4F53
  8
DANMEN
  6
CONTINUOUS
 10
384.76456888325959
 20
162.13593189281431
 30
0.0
 11
388.76456946877511
 21
162.13593189281431
 31
0.0
  0
LINE
  5
4F54
  8
DANMEN
  6
CONTINUOUS
 10
384.76456621769051
 20
170.63592091921319
 30
0.0
 11
407.76456547036139
 21
170.63592091921319
 31
0.0
  0
LINE
  5
4F55
  8
DANMEN
  6
CONTINUOUS
 10
384.76456621769051
 20
177.63592091921319
 30
0.0
 11
407.76456547036139
 21
177.63592091921319
 31
0.0
  0
LINE
  5
4F56
  8
DANMEN
  6
CONTINUOUS
 10
384.76456621769051
 20
190.63592091921319
 30
0.0
 11
407.76456547036139
 21
190.63592091921319
 31
0.0
  0
LINE
  5
4F57
  8
DANMEN
  6
CONTINUOUS
 10
384.76456621769051
 20
197.63592091921319
 30
0.0
 11
407.76456547036139
 21
197.63592091921319
 31
0.0
  0
LINE
  5
4F58
  8
DANMEN
  6
CONTINUOUS
 10
384.76456621769051
 20
198.13592091921319
 30
0.0
 11
407.76456547036139
 21
198.13592091921319
 31
0.0
  0
LINE
  5
4F59
  8
DANMEN
  6
CONTINUOUS
 10
384.76456621769051
 20
170.13592091921319
 30
0.0
 11
407.76456547036139
 21
170.13592091921319
 31
0.0
  0
LINE
  5
4F5A
  8
DANMEN
  6
CONTINUOUS
 10
384.76456621769051
 20
190.13592091921319
 30
0.0
 11
407.76456547036139
 21
190.13592091921319
 31
0.0
  0
LINE
  5
4F5B
  8
DANMEN
  6
CONTINUOUS
 10
384.76456621769051
 20
178.13592091921319
 30
0.0
 11
407.76456547036139
 21
178.13592091921319
 31
0.0
  0
LINE
  5
4F5C
  8
DANMEN
  6
CONTINUOUS
 10
384.76456888301868
 20
156.63593189281431
 30
0.0
 11
388.76456946853421
 21
156.63593189281431
 31
0.0
  0
LINE
  5
4F5D
  8
DANMEN
  6
CONTINUOUS
 10
379.76456888325959
 20
156.63593189281431
 30
0.0
 11
375.76456829774412
 21
156.63593189281431
 31
0.0
  0
LINE
  5
4F5E
  8
DANMEN
  6
CONTINUOUS
 10
362.76456696501992
 20
190.13592091921319
 30
0.0
 11
356.76456696501992
 21
178.13592091921319
 31
0.0
  0
LINE
  5
4F5F
  8
DANMEN
  6
CONTINUOUS
 10
356.76456696501992
 20
190.13592091921319
 30
0.0
 11
362.76456696501992
 21
178.13592091921319
 31
0.0
  0
LINE
  5
4F60
  8
DANMEN
  6
CONTINUOUS
 10
375.76456829774412
 20
206.1359318928142
 30
0.0
 11
376.76456696501992
 21
198.13592091921319
 31
0.0
  0
LINE
  5
4F61
  8
DANMEN
  6
CONTINUOUS
 10
388.76456680320609
 20
206.13592091921319
 30
0.0
 11
387.76456680308559
 21
198.13592091921319
 31
0.0
  0
LINE
  5
4F62
  8
DANMEN
  6
CONTINUOUS
 10
375.76456829774412
 20
162.1359099456121
 30
0.0
 11
376.76456696501992
 21
170.13592091921319
 31
0.0
  0
LINE
  5
4F63
  8
DANMEN
  6
CONTINUOUS
 10
388.76456680320609
 20
162.13592091921319
 30
0.0
 11
387.76456680308559
 21
170.13592091921319
 31
0.0
  0
LINE
  5
4F64
  8
DANMEN
  6
CONTINUOUS
 10
407.76456547036139
 20
198.13592091921319
 30
0.0
 11
407.76456547036139
 21
170.13592091921319
 31
0.0
  0
LINE
  5
4F65
  8
DANMEN
  6
CONTINUOUS
 10
401.76456547036128
 20
190.13592091921319
 30
0.0
 11
401.76456547036128
 21
178.13592091921319
 31
0.0
  0
LINE
  5
4F66
  8
DANMEN
  6
CONTINUOUS
 10
401.76456547036128
 20
190.13592091921319
 30
0.0
 11
407.76456547036139
 21
178.13592091921319
 31
0.0
  0
LINE
  5
4F67
  8
DANMEN
  6
CONTINUOUS
 10
407.76456547036139
 20
190.13592091921319
 30
0.0
 11
401.76456547036128
 21
178.13592091921319
 31
0.0
  0
LINE
  5
4F68
  8
DANMEN
  6
CONTINUOUS
 10
362.76456696501992
 20
190.13592091921319
 30
0.0
 11
362.76456696501992
 21
178.13592091921319
 31
0.0
  0
LINE
  5
4F69
  8
DANMEN
  6
CONTINUOUS
 10
356.76456696501992
 20
198.13592091921319
 30
0.0
 11
356.76456696501992
 21
170.13592091921319
 31
0.0
  0
LINE
  5
4F6A
  8
DANMEN
  6
CONTINUOUS
 10
123.2645729066012
 20
267.8881894564621
 30
0.0
 11
135.26457290660119
 21
261.8881894564621
 31
0.0
  0
LINE
  5
4F6B
  8
DANMEN
  6
CONTINUOUS
 10
135.26457290660119
 20
267.8881894564621
 30
0.0
 11
123.2645729066012
 21
261.8881894564621
 31
0.0
  0
LINE
  5
4F6C
  8
DANMEN
  6
CONTINUOUS
 10
123.2645668030858
 20
155.8881896193827
 30
0.0
 11
135.26456680308559
 21
149.8881896193827
 31
0.0
  0
LINE
  5
4F6D
  8
DANMEN
  6
CONTINUOUS
 10
135.26456680308559
 20
155.8881896193827
 30
0.0
 11
123.2645668030858
 21
149.8881896193827
 31
0.0
  0
LINE
  5
4F6E
  8
DANMEN
  6
CONTINUOUS
 10
115.2645668030856
 20
169.8881896193827
 30
0.0
 11
107.2645668030856
 21
168.8881896193827
 31
0.0
  0
LINE
  5
4F6F
  8
DANMEN
  6
CONTINUOUS
 10
143.26456680308581
 20
169.8881896193827
 30
0.0
 11
151.2645668030857
 21
168.8881896193827
 31
0.0
  0
LINE
  5
4F70
  8
DANMEN
  6
CONTINUOUS
 10
115.2645729066013
 20
247.88818945646199
 30
0.0
 11
107.2645729066012
 21
248.88818945646199
 31
0.0
  0
LINE
  5
4F71
  8
DANMEN
  6
CONTINUOUS
 10
143.26457290660139
 20
247.88818945646199
 30
0.0
 11
151.2645729066013
 21
248.88818945646199
 31
0.0
  0
LINE
  5
4F72
  8
DANMEN
  6
CONTINUOUS
 10
258.76456979240282
 20
126.6359309660908
 30
0.0
 11
258.76456979240282
 21
162.63593096609091
 31
0.0
  0
LINE
  5
4F73
  8
DANMEN
  6
CONTINUOUS
 10
258.76456979240282
 20
162.63593096609091
 30
0.0
 11
286.76457037791818
 21
162.63593096609091
 31
0.0
  0
LINE
  5
4F74
  8
DANMEN
  6
CONTINUOUS
 10
291.76457037791818
 20
162.63593096609091
 30
0.0
 11
319.7645668734512
 21
162.63593096609091
 31
0.0
  0
LINE
  5
4F75
  8
DANMEN
  6
CONTINUOUS
 10
319.7645668734512
 20
162.63593096609091
 30
0.0
 11
319.7645668734512
 21
126.6359099456121
 31
0.0
  0
LINE
  5
4F76
  8
DANMEN
  6
CONTINUOUS
 10
384.7645695943695
 20
162.6359295791157
 30
0.0
 11
412.76456608990247
 21
162.6359295791157
 31
0.0
  0
LINE
  5
4F77
  8
DANMEN
  6
CONTINUOUS
 10
412.76456608990247
 20
162.6359295791157
 30
0.0
 11
412.76456608990247
 21
126.6359085586369
 31
0.0
  0
LINE
  5
4F78
  8
DANMEN
  6
CONTINUOUS
 10
351.76456829774418
 20
126.6359309660909
 30
0.0
 11
351.76456829774418
 21
162.63593096609091
 31
0.0
  0
LINE
  5
4F79
  8
DANMEN
  6
CONTINUOUS
 10
351.76456829774418
 20
162.63593096609091
 30
0.0
 11
379.76456888325959
 21
162.63593096609091
 31
0.0
  0
ENDSEC
  0
EOF
