  0
SECTION
  2
HEADER
  9
$ACADVER
  1
AC1009
  9
$INSBASE
 10
0.0
 20
0.0
 30
0.0
  9
$EXTMIN
 10
31.524425493660821
 20
28.29526935608077
 30
0.0
  9
$EXTMAX
 10
506.89863881456068
 20
417.87675236086369
 30
0.0
  9
$LIMMIN
 10
0.0
 20
0.0
  9
$LIMMAX
 10
420.0
 20
297.0
  9
$ORTHOMODE
 70
     0
  9
$REGENMODE
 70
     1
  9
$FILLMODE
 70
     1
  9
$QTEXTMODE
 70
     0
  9
$MIRRTEXT
 70
     1
  9
$DRAGMODE
 70
     2
  9
$LTSCALE
 40
1.0
  9
$OSMODE
 70
    39
  9
$ATTMODE
 70
     1
  9
$TEXTSIZE
 40
2.5
  9
$TRACEWID
 40
1.0
  9
$TEXTSTYLE
  7
STANDARD
  9
$CLAYER
  8
0
  9
$CELTYPE
  6
BYLAYER
  9
$CECOLOR
 62
   256
  9
$DIMSCALE
 40
1.0
  9
$DIMASZ
 40
2.5
  9
$DIMEXO
 40
0.625
  9
$DIMDLI
 40
3.75
  9
$DIMRND
 40
0.0
  9
$DIMDLE
 40
0.0
  9
$DIMEXE
 40
1.25
  9
$DIMTP
 40
0.0
  9
$DIMTM
 40
0.0
  9
$DIMTXT
 40
2.5
  9
$DIMCEN
 40
2.5
  9
$DIMTSZ
 40
0.0
  9
$DIMTOL
 70
     0
  9
$DIMLIM
 70
     0
  9
$DIMTIH
 70
     0
  9
$DIMTOH
 70
     0
  9
$DIMSE1
 70
     0
  9
$DIMSE2
 70
     0
  9
$DIMTAD
 70
     1
  9
$DIMZIN
 70
     8
  9
$DIMBLK
  1

  9
$DIMASO
 70
     1
  9
$DIMSHO
 70
     1
  9
$DIMPOST
  1

  9
$DIMAPOST
  1

  9
$DIMALT
 70
     0
  9
$DIMALTD
 70
     3
  9
$DIMALTF
 40
0.03937007874016
  9
$DIMLFAC
 40
1.0
  9
$DIMTOFL
 70
     1
  9
$DIMTVP
 40
0.0
  9
$DIMTIX
 70
     0
  9
$DIMSOXD
 70
     0
  9
$DIMSAH
 70
     0
  9
$DIMBLK1
  1

  9
$DIMBLK2
  1

  9
$DIMSTYLE
  2
ISO-25
  9
$DIMCLRD
 70
     0
  9
$DIMCLRE
 70
     0
  9
$DIMCLRT
 70
     0
  9
$DIMTFAC
 40
1.0
  9
$DIMGAP
 40
0.625
  9
$LUNITS
 70
     2
  9
$LUPREC
 70
     4
  9
$SKETCHINC
 40
1.0
  9
$FILLETRAD
 40
10.0
  9
$AUNITS
 70
     0
  9
$AUPREC
 70
     0
  9
$MENU
  1
.
  9
$ELEVATION
 40
0.0
  9
$PELEVATION
 40
0.0
  9
$THICKNESS
 40
0.0
  9
$LIMCHECK
 70
     0
  9
$BLIPMODE
 70
     0
  9
$CHAMFERA
 40
10.0
  9
$CHAMFERB
 40
10.0
  9
$SKPOLY
 70
     0
  9
$TDCREATE
 40
2456583.6822594791
  9
$TDUPDATE
 40
2456667.6150611341
  9
$TDINDWG
 40
0.0237024074
  9
$TDUSRTIMER
 40
0.0237015046
  9
$USRTIMER
 70
     1
  9
$ANGBASE
 50
0.0
  9
$ANGDIR
 70
     0
  9
$PDMODE
 70
     0
  9
$PDSIZE
 40
0.0
  9
$PLINEWID
 40
0.0
  9
$COORDS
 70
     1
  9
$SPLFRAME
 70
     0
  9
$SPLINETYPE
 70
     6
  9
$SPLINESEGS
 70
     8
  9
$ATTDIA
 70
     0
  9
$ATTREQ
 70
     1
  9
$HANDLING
 70
-16383
  9
$HANDSEED
  5
71E2
  9
$SURFTAB1
 70
     6
  9
$SURFTAB2
 70
     6
  9
$SURFTYPE
 70
     6
  9
$SURFU
 70
     6
  9
$SURFV
 70
     6
  9
$UCSNAME
  2

  9
$UCSORG
 10
0.0
 20
0.0
 30
0.0
  9
$UCSXDIR
 10
1.0
 20
0.0
 30
0.0
  9
$UCSYDIR
 10
0.0
 20
1.0
 30
0.0
  9
$PUCSNAME
  2

  9
$PUCSORG
 10
0.0
 20
0.0
 30
0.0
  9
$PUCSXDIR
 10
1.0
 20
0.0
 30
0.0
  9
$PUCSYDIR
 10
0.0
 20
1.0
 30
0.0
  9
$USERI1
 70
     0
  9
$USERI2
 70
     0
  9
$USERI3
 70
     0
  9
$USERI4
 70
     0
  9
$USERI5
 70
     0
  9
$USERR1
 40
0.0
  9
$USERR2
 40
0.0
  9
$USERR3
 40
0.0
  9
$USERR4
 40
0.0
  9
$USERR5
 40
0.0
  9
$WORLDVIEW
 70
     1
  9
$SHADEDGE
 70
     3
  9
$SHADEDIF
 70
    70
  9
$TILEMODE
 70
     1
  9
$MAXACTVP
 70
    64
  9
$PLIMCHECK
 70
     0
  9
$PEXTMIN
 10
1.0000000000000000E+020
 20
1.0000000000000000E+020
 30
1.0000000000000000E+020
  9
$PEXTMAX
 10
-1.0000000000000000E+020
 20
-1.0000000000000000E+020
 30
-1.0000000000000000E+020
  9
$PLIMMIN
 10
0.0
 20
0.0
  9
$PLIMMAX
 10
420.0
 20
297.0
  9
$UNITMODE
 70
     0
  9
$VISRETAIN
 70
     1
  9
$PLINEGEN
 70
     0
  9
$PSLTSCALE
 70
     1
  0
ENDSEC
  0
SECTION
  2
TABLES
  0
TABLE
  2
VPORT
 70
     2
  0
VPORT
  2
*ACTIVE
 70
     0
 10
0.0
 20
0.0
 11
1.0
 21
1.0
 12
119.5376261386435
 22
381.0163340592245
 13
0.0
 23
0.0
 14
10.0
 24
10.0
 15
10.0
 25
10.0
 16
0.0
 26
0.0
 36
1.0
 17
0.0
 27
0.0
 37
0.0
 40
116.753062721573
 41
1.588794926004228
 42
50.0
 43
0.0
 44
0.0
 50
0.0
 51
0.0
 71
     0
 72
   100
 73
     1
 74
     3
 75
     0
 76
     0
 77
     0
 78
     0
  0
ENDTAB
  0
TABLE
  2
LTYPE
 70
     4
  0
LTYPE
  2
CONTINUOUS
 70
     0
  3
Solid line
 72
    65
 73
     0
 40
0.0
  0
LTYPE
  2
DASHED
 70
     0
  3
Dashed __ __ __ __ __ __ __ __ __ __ __ __ __ _
 72
    65
 73
     2
 40
19.049999999999962
 49
12.699999999999999
 49
-6.349999999999997
  0
LTYPE
  2
CENTER
 70
     0
  3
Center ____ _ ____ _ ____ _ ____ _ ____ _ ____
 72
    65
 73
     4
 40
50.799999999999997
 49
31.75
 49
-6.349999999999997
 49
6.349999999999997
 49
-6.349999999999997
  0
LTYPE
  2
PHANTOM
 70
     0
  3
Phantom ______  __  __  ______  __  __  ______
 72
    65
 73
     6
 40
63.500000000000007
 49
31.75
 49
-6.349999999999997
 49
6.349999999999997
 49
-6.349999999999997
 49
6.349999999999997
 49
-6.349999999999997
  0
ENDTAB
  0
TABLE
  2
LAYER
 70
     4
  0
LAYER
  2
0
 70
     0
 62
     7
  6
CONTINUOUS
  0
LAYER
  2
DANMEN
 70
     0
 62
     7
  6
CONTINUOUS
  0
LAYER
  2
SUNPO
 70
     0
 62
     1
  6
CONTINUOUS
  0
LAYER
  2
WAKU
 70
     0
 62
     3
  6
CONTINUOUS
  0
ENDTAB
  0
TABLE
  2
STYLE
 70
     6
  0
STYLE
  2
STANDARD
 70
     0
 40
0.0
 41
1.0
 50
0.0
 71
     0
 42
2.5
  3
txt
  4

  0
STYLE
  2
MX_NOTE_STANDARD
 70
     0
 40
0.0
 41
1.0
 50
0.0
 71
     0
 42
2.5
  3
txt.shx
  4
extfont.shx
  0
STYLE
  2
MX_DIMTXSTY_2
 70
     0
 40
0.0
 41
1.1999999999999991
 50
0.0
 71
     0
 42
2.5
  3
txt.shx
  4
extfont.shx
  0
STYLE
  2
MX_DIMTXSTY_3
 70
     0
 40
0.0
 41
1.1000000000000001
 50
0.0
 71
     0
 42
2.5
  3
txt.shx
  4
extfont.shx
  0
STYLE
  2
MX_DIMTXSTY_4
 70
     0
 40
0.0
 41
1.3500000000000001
 50
0.0
 71
     0
 42
2.5
  3
txt.shx
  4
extfont.shx
  0
STYLE
  2
MX_DIMTXSTY_5
 70
     0
 40
0.0
 41
1.3500000000000001
 50
0.0
 71
     0
 42
2.5
  3
txt.shx
  4
extfont.shx
  0
ENDTAB
  0
TABLE
  2
VIEW
 70
     0
  0
ENDTAB
  0
TABLE
  2
UCS
 70
     0
  0
ENDTAB
  0
TABLE
  2
APPID
 70
     1
  0
APPID
  2
ACAD
 70
     0
  0
ENDTAB
  0
TABLE
  2
DIMSTYLE
 70
     2
  0
DIMSTYLE
  2
ISO-25
 70
     0
  3

  4

  5

  6

  7

 40
1.0
 41
2.5
 42
0.625
 43
3.75
 44
1.25
 45
0.0
 46
0.0
 47
0.0
 48
0.0
140
2.5
141
2.5
142
0.0
143
0.03937007874016
144
1.0
145
0.0
146
1.0
147
0.625
 71
     0
 72
     0
 73
     0
 74
     0
 75
     0
 76
     0
 77
     1
 78
     8
170
     0
171
     3
172
     1
173
     0
174
     0
175
     0
176
     0
177
     0
178
     0
  0
DIMSTYLE
  2
MXDIMSTYLE
 70
     0
  3

  4

  5

  6

  7

 40
1.0
 41
2.5
 42
1.5
 43
3.75
 44
0.0
 45
0.0
 46
0.0
 47
0.0
 48
0.0
140
2.5
141
2.5
142
0.0
143
0.03937007874016
144
1.0
145
0.0
146
1.0
147
0.5
 71
     0
 72
     0
 73
     0
 74
     0
 75
     0
 76
     0
 77
     1
 78
     8
170
     0
171
     4
172
     1
173
     1
174
     0
175
     0
176
     0
177
     0
178
     0
  0
ENDTAB
  0
ENDSEC
  0
SECTION
  2
BLOCKS
  0
BLOCK
  8
0
  2
$MODEL_SPACE
 70
     0
 10
0.0
 20
0.0
 30
0.0
  3
$MODEL_SPACE
  1

  0
ENDBLK
  5
6905
  8
0
  0
BLOCK
 67
     1
  8
0
  2
$PAPER_SPACE
 70
     0
 10
0.0
 20
0.0
 30
0.0
  3
$PAPER_SPACE
  1

  0
ENDBLK
  5
6901
 67
     1
  8
0
  0
BLOCK
  8
0
  6
BYBLOCK
 62
     0
  2
_OPEN30
 70
     2
 10
0.0
 20
0.0
 30
0.0
  3
_OPEN30
  1

  0
LINE
  5
691F
  8
0
  6
BYBLOCK
 62
     0
 10
-1.0
 20
0.267949
 30
0.0
 11
0.0
 21
0.0
 31
0.0
  0
LINE
  5
6920
  8
0
  6
BYBLOCK
 62
     0
 10
0.0
 20
0.0
 30
0.0
 11
-1.0
 21
-0.267949
 31
0.0
  0
LINE
  5
6921
  8
0
  6
BYBLOCK
 62
     0
 10
0.0
 20
0.0
 30
0.0
 11
-1.0
 21
0.0
 31
0.0
  0
ENDBLK
  5
6922
  8
0
  6
BYBLOCK
 62
     0
  0
ENDSEC
  0
SECTION
  2
ENTITIES
  0
LINE
  5
6923
  8
WAKU
  6
CONTINUOUS
 10
494.47477787089508
 20
414.85770574567772
 30
0.0
 11
495.10192687089511
 21
416.5807827456776
 31
0.0
  0
LINE
  5
6924
  8
WAKU
  6
CONTINUOUS
 10
493.76923587089539
 20
412.9192447456777
 30
0.0
 11
494.2395968708953
 21
414.2115517456777
 31
0.0
  0
SOLID
  5
6925
  8
WAKU
  6
CONTINUOUS
 10
497.25577287089561
 20
416.5807827456776
 30
0.0
 11
494.41499387089561
 21
411.73462874567758
 31
0.0
 12
494.70798087089508
 22
409.58078274567771
 32
0.0
 13
494.70798087089508
 23
409.58078274567771
 33
0.0
  0
SOLID
  5
6926
  8
WAKU
  6
CONTINUOUS
 10
494.41499387089561
 20
411.73462874567758
 30
0.0
 11
497.25577287089561
 21
416.5807827456776
 31
0.0
 12
496.17884987089508
 22
416.5807827456776
 32
0.0
 13
496.17884987089508
 23
416.5807827456776
 33
0.0
  0
LINE
  5
6927
  8
WAKU
  6
CONTINUOUS
 10
494.41499387089561
 20
411.73462874567758
 30
0.0
 11
496.17884987089508
 21
416.5807827456776
 31
0.0
  0
LINE
  5
6928
  8
WAKU
  6
CONTINUOUS
 10
494.70798087089508
 20
409.58078274567771
 30
0.0
 11
497.25577287089561
 21
416.5807827456776
 31
0.0
  0
LINE
  5
6929
  8
WAKU
  6
CONTINUOUS
 10
496.17884987089508
 20
416.5807827456776
 30
0.0
 11
497.25577287089561
 21
416.5807827456776
 31
0.0
  0
LINE
  5
692A
  8
WAKU
  6
CONTINUOUS
 10
491.87115787089567
 20
416.5807827456776
 30
0.0
 11
491.2440088708953
 21
414.85770574567772
 31
0.0
  0
LINE
  5
692B
  8
WAKU
  6
CONTINUOUS
 10
491.00882787089557
 20
414.2115517456777
 30
0.0
 11
490.5384668708956
 21
412.9192447456777
 31
0.0
  0
LINE
  5
692C
  8
WAKU
  6
CONTINUOUS
 10
489.3233658708956
 20
409.58078274567771
 30
0.0
 11
490.10730187089513
 21
411.73462874567758
 31
0.0
  0
LINE
  5
692D
  8
WAKU
  6
CONTINUOUS
 10
488.05243587089512
 20
414.96539774567742
 30
0.0
 11
489.1293598708948
 21
414.96539774567742
 31
0.0
  0
SOLID
  5
692E
  8
WAKU
  6
CONTINUOUS
 10
487.16951987089539
 20
409.58078274567771
 30
0.0
 11
486.68054887089568
 21
411.196167745678
 31
0.0
 12
483.44977887089561
 22
411.196167745678
 32
0.0
 13
483.44977887089561
 23
411.196167745678
 33
0.0
  0
LINE
  5
692F
  8
WAKU
  6
CONTINUOUS
 10
483.4497788708951
 20
411.1961677456776
 30
0.0
 11
486.68054887089539
 21
411.1961677456776
 31
0.0
  0
SOLID
  5
6930
  8
WAKU
  6
CONTINUOUS
 10
485.11465387089561
 20
412.81155174567812
 30
0.0
 11
485.89858987089542
 21
414.96539774567827
 31
0.0
 12
484.82166687089563
 22
414.96539774567827
 32
0.0
 13
484.82166687089563
 23
414.96539774567827
 33
0.0
  0
LINE
  5
6931
  8
WAKU
  6
CONTINUOUS
 10
485.43773087089562
 20
412.81155174567772
 30
0.0
 11
486.22166687089509
 21
414.96539774567742
 31
0.0
  0
LINE
  5
6932
  8
WAKU
  6
CONTINUOUS
 10
485.11465387089561
 20
412.81155174567772
 30
0.0
 11
485.89858987089502
 21
414.96539774567742
 31
0.0
  0
LINE
  5
6933
  8
WAKU
  6
CONTINUOUS
 10
485.43773087089562
 20
412.81155174567772
 30
0.0
 11
486.51465387089462
 21
412.81155174567772
 31
0.0
  0
LINE
  5
6934
  8
WAKU
  6
CONTINUOUS
 10
484.82166687089563
 20
414.96539774567742
 30
0.0
 11
485.89858987089502
 21
414.96539774567742
 31
0.0
  0
SOLID
  5
6935
  8
WAKU
  6
CONTINUOUS
 10
486.22166687089538
 20
414.96539774567827
 30
0.0
 11
485.43773087089562
 21
412.81155174567812
 31
0.0
 12
487.29858987089511
 22
414.96539774567827
 32
0.0
 13
487.29858987089511
 23
414.96539774567827
 33
0.0
  0
SOLID
  5
6936
  8
WAKU
  6
CONTINUOUS
 10
487.29858987089511
 20
414.96539774567827
 30
0.0
 11
485.43773087089562
 21
412.81155174567812
 31
0.0
 12
486.51465387089559
 22
412.81155174567812
 32
0.0
 13
486.51465387089559
 23
412.81155174567812
 33
0.0
  0
SOLID
  5
6937
  8
WAKU
  6
CONTINUOUS
 10
484.82166687089563
 20
414.96539774567827
 30
0.0
 11
484.03773087089581
 21
412.81155174567812
 31
0.0
 12
485.11465387089561
 22
412.81155174567812
 32
0.0
 13
485.11465387089561
 23
412.81155174567812
 33
0.0
  0
LINE
  5
6938
  8
WAKU
  6
CONTINUOUS
 10
484.03773087089502
 20
412.81155174567772
 30
0.0
 11
484.82166687089563
 21
414.96539774567742
 31
0.0
  0
LINE
  5
6939
  8
WAKU
  6
CONTINUOUS
 10
484.03773087089502
 20
412.81155174567772
 30
0.0
 11
485.11465387089561
 21
412.81155174567772
 31
0.0
  0
LINE
  5
693A
  8
WAKU
  6
CONTINUOUS
 10
486.51465387089462
 20
412.81155174567772
 30
0.0
 11
487.29858987089511
 21
414.96539774567742
 31
0.0
  0
LINE
  5
693B
  8
WAKU
  6
CONTINUOUS
 10
486.22166687089509
 20
414.96539774567742
 30
0.0
 11
487.29858987089511
 21
414.96539774567742
 31
0.0
  0
SOLID
  5
693C
  8
WAKU
  6
CONTINUOUS
 10
488.05243587089541
 20
414.96539774567827
 30
0.0
 11
486.68054887089568
 21
411.196167745678
 31
0.0
 12
487.16951987089539
 22
409.58078274567771
 32
0.0
 13
487.16951987089539
 23
409.58078274567771
 33
0.0
  0
LINE
  5
693D
  8
WAKU
  6
CONTINUOUS
 10
486.68054887089539
 20
411.1961677456776
 30
0.0
 11
488.05243587089512
 21
414.96539774567742
 31
0.0
  0
SOLID
  5
693E
  8
WAKU
  6
CONTINUOUS
 10
489.12935987089583
 20
414.96539774567827
 30
0.0
 11
488.05243587089541
 21
414.96539774567827
 31
0.0
 12
487.16951987089539
 22
409.58078274567771
 32
0.0
 13
487.16951987089539
 23
409.58078274567771
 33
0.0
  0
LINE
  5
693F
  8
WAKU
  6
CONTINUOUS
 10
487.16951987089539
 20
409.58078274567771
 30
0.0
 11
489.1293598708948
 21
414.96539774567742
 31
0.0
  0
SOLID
  5
6940
  8
WAKU
  6
CONTINUOUS
 10
482.17884987089508
 20
416.5807827456776
 30
0.0
 11
481.70848787089562
 21
415.28847474567817
 31
0.0
 12
482.78541087089548
 22
415.28847474567817
 32
0.0
 13
482.78541087089548
 23
415.28847474567817
 33
0.0
  0
SOLID
  5
6941
  8
WAKU
  6
CONTINUOUS
 10
481.70848787089562
 20
415.28847474567817
 30
0.0
 11
482.19745987089561
 21
413.67309074567771
 31
0.0
 12
483.00515187089542
 22
413.67309074567771
 32
0.0
 13
483.00515187089542
 23
413.67309074567771
 33
0.0
  0
LINE
  5
6942
  8
WAKU
  6
CONTINUOUS
 10
481.70848787089471
 20
415.28847474567772
 30
0.0
 11
482.17884987089508
 21
416.5807827456776
 31
0.0
  0
LINE
  5
6943
  8
WAKU
  6
CONTINUOUS
 10
482.19745987089539
 20
413.67309074567771
 30
0.0
 11
483.00515187089508
 21
413.67309074567771
 31
0.0
  0
LINE
  5
6944
  8
WAKU
  6
CONTINUOUS
 10
479.01618087089508
 20
415.28847474567772
 30
0.0
 11
479.48654187089539
 21
416.5807827456776
 31
0.0
  0
LINE
  5
6945
  8
WAKU
  6
CONTINUOUS
 10
478.40961887089509
 20
416.5807827456776
 30
0.0
 11
479.48654187089539
 21
416.5807827456776
 31
0.0
  0
SOLID
  5
6946
  8
WAKU
  6
CONTINUOUS
 10
481.12053587089508
 20
413.67309074567771
 30
0.0
 11
480.41499387089561
 21
411.73462874567758
 31
0.0
 12
480.70798087089571
 22
409.58078274567771
 32
0.0
 13
480.70798087089571
 23
409.58078274567771
 33
0.0
  0
LINE
  5
6947
  8
WAKU
  6
CONTINUOUS
 10
480.41499387089561
 20
411.73462874567758
 30
0.0
 11
481.12053587089503
 21
413.67309074567771
 31
0.0
  0
LINE
  5
6948
  8
WAKU
  6
CONTINUOUS
 10
478.42822887089523
 20
413.67309074567771
 30
0.0
 11
481.12053587089503
 21
413.67309074567771
 31
0.0
  0
SOLID
  5
6949
  8
WAKU
  6
CONTINUOUS
 10
482.19745987089561
 20
413.67309074567771
 30
0.0
 11
481.12053587089508
 21
413.67309074567771
 31
0.0
 12
480.70798087089571
 22
409.58078274567771
 32
0.0
 13
480.70798087089571
 23
409.58078274567771
 33
0.0
  0
LINE
  5
694A
  8
WAKU
  6
CONTINUOUS
 10
480.70798087089531
 20
409.58078274567771
 30
0.0
 11
482.19745987089539
 21
413.67309074567771
 31
0.0
  0
SOLID
  5
694B
  8
WAKU
  6
CONTINUOUS
 10
482.19745987089561
 20
413.67309074567771
 30
0.0
 11
481.70848787089562
 21
415.28847474567817
 31
0.0
 12
479.0161808708956
 22
415.28847474567817
 32
0.0
 13
479.0161808708956
 23
415.28847474567817
 33
0.0
  0
LINE
  5
694C
  8
WAKU
  6
CONTINUOUS
 10
479.01618087089508
 20
415.28847474567772
 30
0.0
 11
481.70848787089471
 21
415.28847474567772
 31
0.0
  0
LINE
  5
694D
  8
WAKU
  6
CONTINUOUS
 10
476.9593378708953
 20
412.59616774567769
 30
0.0
 11
477.3513058708956
 21
413.67309074567771
 31
0.0
  0
LINE
  5
694E
  8
WAKU
  6
CONTINUOUS
 10
476.9593378708953
 20
412.59616774567769
 30
0.0
 11
478.0362608708956
 21
412.59616774567769
 31
0.0
  0
LINE
  5
694F
  8
WAKU
  6
CONTINUOUS
 10
475.64644287089448
 20
409.58078274567771
 30
0.0
 11
476.43037887089508
 21
411.73462874567758
 31
0.0
  0
LINE
  5
6950
  8
WAKU
  6
CONTINUOUS
 10
476.543612870895
 20
413.67309074567771
 30
0.0
 11
477.3513058708956
 21
413.67309074567771
 31
0.0
  0
LINE
  5
6951
  8
WAKU
  6
CONTINUOUS
 10
477.1315648708956
 20
415.28847474567772
 30
0.0
 11
477.93925787089472
 21
415.28847474567772
 31
0.0
  0
LINE
  5
6952
  8
WAKU
  6
CONTINUOUS
 10
476.543612870895
 20
413.67309074567771
 30
0.0
 11
477.1315648708956
 21
415.28847474567772
 31
0.0
  0
LINE
  5
6953
  8
WAKU
  6
CONTINUOUS
 10
475.62862387089513
 20
414.85770574567772
 30
0.0
 11
476.2557728708951
 21
416.5807827456776
 31
0.0
  0
LINE
  5
6954
  8
WAKU
  6
CONTINUOUS
 10
473.70798087089503
 20
409.58078274567771
 30
0.0
 11
474.49191687089473
 21
411.73462874567758
 31
0.0
  0
SOLID
  5
6955
  8
WAKU
  6
CONTINUOUS
 10
477.13156487089577
 20
415.28847474567817
 30
0.0
 11
476.54361287089557
 21
413.67309074567771
 31
0.0
 12
479.0161808708956
 22
415.28847474567817
 32
0.0
 13
479.0161808708956
 23
415.28847474567817
 33
0.0
  0
LINE
  5
6956
  8
WAKU
  6
CONTINUOUS
 10
477.93925787089472
 20
415.28847474567772
 30
0.0
 11
478.40961887089509
 21
416.5807827456776
 31
0.0
  0
SOLID
  5
6957
  8
WAKU
  6
CONTINUOUS
 10
479.48654187089539
 20
416.5807827456776
 30
0.0
 11
477.93925787089591
 21
415.28847474567817
 31
0.0
 12
479.0161808708956
 22
415.28847474567817
 32
0.0
 13
479.0161808708956
 23
415.28847474567817
 33
0.0
  0
SOLID
  5
6958
  8
WAKU
  6
CONTINUOUS
 10
477.93925787089591
 20
415.28847474567817
 30
0.0
 11
479.48654187089539
 21
416.5807827456776
 31
0.0
 12
478.40961887089583
 22
416.5807827456776
 32
0.0
 13
478.40961887089583
 23
416.5807827456776
 33
0.0
  0
SOLID
  5
6959
  8
WAKU
  6
CONTINUOUS
 10
480.70798087089571
 20
409.58078274567771
 30
0.0
 11
480.41499387089561
 21
411.73462874567758
 31
0.0
 12
476.43037887089599
 22
411.73462874567758
 32
0.0
 13
476.43037887089599
 23
411.73462874567758
 33
0.0
  0
SOLID
  5
695A
  8
WAKU
  6
CONTINUOUS
 10
476.43037887089599
 20
411.73462874567758
 30
0.0
 11
475.64644287089561
 21
409.58078274567771
 31
0.0
 12
480.70798087089571
 22
409.58078274567771
 32
0.0
 13
480.70798087089571
 23
409.58078274567771
 33
0.0
  0
LINE
  5
695B
  8
WAKU
  6
CONTINUOUS
 10
475.64644287089448
 20
409.58078274567771
 30
0.0
 11
480.70798087089531
 21
409.58078274567771
 31
0.0
  0
SOLID
  5
695C
  8
WAKU
  6
CONTINUOUS
 10
476.54361287089557
 20
413.67309074567771
 30
0.0
 11
478.42822887089568
 21
413.67309074567771
 31
0.0
 12
481.12053587089508
 22
413.67309074567771
 32
0.0
 13
481.12053587089508
 23
413.67309074567771
 33
0.0
  0
SOLID
  5
695D
  8
WAKU
  6
CONTINUOUS
 10
479.0161808708956
 20
415.28847474567817
 30
0.0
 11
476.54361287089557
 21
413.67309074567771
 31
0.0
 12
482.19745987089561
 22
413.67309074567771
 32
0.0
 13
482.19745987089561
 23
413.67309074567771
 33
0.0
  0
SOLID
  5
695E
  8
WAKU
  6
CONTINUOUS
 10
482.19745987089561
 20
413.67309074567771
 30
0.0
 11
476.54361287089557
 21
413.67309074567771
 31
0.0
 12
481.12053587089508
 22
413.67309074567771
 32
0.0
 13
481.12053587089508
 23
413.67309074567771
 33
0.0
  0
SOLID
  5
695F
  8
WAKU
  6
CONTINUOUS
 10
477.3513058708956
 20
413.67309074567771
 30
0.0
 11
476.9593378708953
 21
412.5961677456782
 31
0.0
 12
478.42822887089568
 22
413.67309074567771
 32
0.0
 13
478.42822887089568
 23
413.67309074567771
 33
0.0
  0
SOLID
  5
6960
  8
WAKU
  6
CONTINUOUS
 10
478.42822887089568
 20
413.67309074567771
 30
0.0
 11
476.9593378708953
 21
412.5961677456782
 31
0.0
 12
478.0362608708956
 22
412.5961677456782
 32
0.0
 13
478.0362608708956
 23
412.5961677456782
 33
0.0
  0
LINE
  5
6961
  8
WAKU
  6
CONTINUOUS
 10
478.0362608708956
 20
412.59616774567769
 30
0.0
 11
478.42822887089523
 21
413.67309074567771
 31
0.0
  0
LINE
  5
6962
  8
WAKU
  6
CONTINUOUS
 10
476.43037887089508
 20
411.73462874567758
 30
0.0
 11
480.41499387089561
 21
411.73462874567758
 31
0.0
  0
SOLID
  5
6963
  8
WAKU
  6
CONTINUOUS
 10
476.54361287089557
 20
413.67309074567771
 30
0.0
 11
477.3513058708956
 21
413.67309074567771
 31
0.0
 12
478.42822887089568
 22
413.67309074567771
 32
0.0
 13
478.42822887089568
 23
413.67309074567771
 33
0.0
  0
SOLID
  5
6964
  8
WAKU
  6
CONTINUOUS
 10
479.0161808708956
 20
415.28847474567817
 30
0.0
 11
477.93925787089591
 21
415.28847474567817
 31
0.0
 12
477.13156487089577
 22
415.28847474567817
 32
0.0
 13
477.13156487089577
 23
415.28847474567817
 33
0.0
  0
SOLID
  5
6965
  8
WAKU
  6
CONTINUOUS
 10
483.44977887089561
 20
411.196167745678
 30
0.0
 11
482.86182787089592
 21
409.58078274567771
 31
0.0
 12
487.16951987089539
 22
409.58078274567771
 32
0.0
 13
487.16951987089539
 23
409.58078274567771
 33
0.0
  0
LINE
  5
6966
  8
WAKU
  6
CONTINUOUS
 10
482.86182787089592
 20
409.58078274567771
 30
0.0
 11
487.16951987089539
 21
409.58078274567771
 31
0.0
  0
SOLID
  5
6967
  8
WAKU
  6
CONTINUOUS
 10
482.78541087089548
 20
415.28847474567817
 30
0.0
 11
481.70848787089562
 21
415.28847474567817
 31
0.0
 12
483.59310387089562
 22
415.28847474567817
 32
0.0
 13
483.59310387089562
 23
415.28847474567817
 33
0.0
  0
SOLID
  5
6968
  8
WAKU
  6
CONTINUOUS
 10
483.59310387089562
 20
415.28847474567817
 30
0.0
 11
481.70848787089562
 21
415.28847474567817
 31
0.0
 12
483.00515187089542
 22
413.67309074567771
 32
0.0
 13
483.00515187089542
 23
413.67309074567771
 33
0.0
  0
LINE
  5
6969
  8
WAKU
  6
CONTINUOUS
 10
482.86182787089592
 20
409.58078274567771
 30
0.0
 11
483.4497788708951
 21
411.1961677456776
 31
0.0
  0
SOLID
  5
696A
  8
WAKU
  6
CONTINUOUS
 10
483.25577287089538
 20
416.5807827456776
 30
0.0
 11
482.17884987089508
 21
416.5807827456776
 31
0.0
 12
482.78541087089548
 22
415.28847474567817
 32
0.0
 13
482.78541087089548
 23
415.28847474567817
 33
0.0
  0
LINE
  5
696B
  8
WAKU
  6
CONTINUOUS
 10
482.17884987089508
 20
416.5807827456776
 30
0.0
 11
483.25577287089448
 21
416.5807827456776
 31
0.0
  0
LINE
  5
696C
  8
WAKU
  6
CONTINUOUS
 10
482.78541087089548
 20
415.28847474567772
 30
0.0
 11
483.25577287089448
 21
416.5807827456776
 31
0.0
  0
LINE
  5
696D
  8
WAKU
  6
CONTINUOUS
 10
482.78541087089548
 20
415.28847474567772
 30
0.0
 11
483.59310387089562
 21
415.28847474567772
 31
0.0
  0
LINE
  5
696E
  8
WAKU
  6
CONTINUOUS
 10
483.00515187089508
 20
413.67309074567771
 30
0.0
 11
483.59310387089562
 21
415.28847474567772
 31
0.0
  0
LINE
  5
696F
  8
WAKU
  6
CONTINUOUS
 10
470.2440088708953
 20
414.85770574567772
 30
0.0
 11
470.87115787089562
 21
416.5807827456776
 31
0.0
  0
LINE
  5
6970
  8
WAKU
  6
CONTINUOUS
 10
468.3233658708956
 20
409.58078274567771
 30
0.0
 11
469.10730187089513
 21
411.73462874567758
 31
0.0
  0
LINE
  5
6971
  8
WAKU
  6
CONTINUOUS
 10
469.5788498708954
 20
416.5807827456776
 30
0.0
 11
468.95170087089451
 21
414.85770574567772
 31
0.0
  0
LINE
  5
6972
  8
WAKU
  6
CONTINUOUS
 10
466.78062387089511
 20
414.85770574567772
 30
0.0
 11
468.01097787089509
 21
412.27309074567768
 31
0.0
  0
LINE
  5
6973
  8
WAKU
  6
CONTINUOUS
 10
467.0310578708951
 20
409.58078274567771
 30
0.0
 11
468.01097787089509
 21
412.27309074567768
 31
0.0
  0
SOLID
  5
6974
  8
WAKU
  6
CONTINUOUS
 10
465.74943987089569
 20
412.27309074567802
 30
0.0
 11
464.65291787089558
 21
412.219244745678
 31
0.0
 12
464.76951987089518
 22
409.58078274567771
 32
0.0
 13
464.76951987089518
 23
409.58078274567771
 33
0.0
  0
LINE
  5
6975
  8
WAKU
  6
CONTINUOUS
 10
464.76951987089518
 20
409.58078274567771
 30
0.0
 11
465.74943987089512
 21
412.27309074567768
 31
0.0
  0
SOLID
  5
6976
  8
WAKU
  6
CONTINUOUS
 10
464.65291787089558
 20
412.219244745678
 30
0.0
 11
463.69259687089561
 21
409.58078274567771
 31
0.0
 12
464.76951987089518
 22
409.58078274567771
 32
0.0
 13
464.76951987089518
 23
409.58078274567771
 33
0.0
  0
LINE
  5
6977
  8
WAKU
  6
CONTINUOUS
 10
463.69259687089561
 20
409.58078274567771
 30
0.0
 11
464.65291787089512
 21
412.219244745678
 31
0.0
  0
LINE
  5
6978
  8
WAKU
  6
CONTINUOUS
 10
463.69259687089561
 20
409.58078274567771
 30
0.0
 11
464.76951987089518
 21
409.58078274567771
 31
0.0
  0
SOLID
  5
6979
  8
WAKU
  6
CONTINUOUS
 10
466.78062387089511
 20
414.857705745678
 30
0.0
 11
465.56708587089571
 21
414.857705745678
 31
0.0
 12
465.74943987089569
 22
412.27309074567802
 32
0.0
 13
465.74943987089569
 23
412.27309074567802
 33
0.0
  0
LINE
  5
697A
  8
WAKU
  6
CONTINUOUS
 10
465.74943987089512
 20
412.27309074567768
 30
0.0
 11
467.0310578708951
 21
409.58078274567771
 31
0.0
  0
SOLID
  5
697B
  8
WAKU
  6
CONTINUOUS
 10
466.78062387089511
 20
414.857705745678
 30
0.0
 11
465.74943987089569
 21
412.27309074567802
 31
0.0
 12
468.01097787089537
 22
412.27309074567802
 32
0.0
 13
468.01097787089537
 23
412.27309074567802
 33
0.0
  0
SOLID
  5
697C
  8
WAKU
  6
CONTINUOUS
 10
465.74943987089569
 20
412.27309074567802
 30
0.0
 11
467.03105787089561
 21
409.58078274567771
 31
0.0
 12
468.01097787089537
 22
412.27309074567802
 32
0.0
 13
468.01097787089537
 23
412.27309074567802
 33
0.0
  0
LINE
  5
697D
  8
WAKU
  6
CONTINUOUS
 10
463.351700870895
 20
414.85770574567772
 30
0.0
 11
465.56708587089503
 21
414.85770574567772
 31
0.0
  0
LINE
  5
697E
  8
WAKU
  6
CONTINUOUS
 10
463.97884987089509
 20
416.5807827456776
 30
0.0
 11
463.351700870895
 21
414.85770574567772
 31
0.0
  0
SOLID
  5
697F
  8
WAKU
  6
CONTINUOUS
 10
463.97884987089571
 20
416.5807827456776
 30
0.0
 11
463.35170087089563
 21
414.857705745678
 31
0.0
 12
466.78062387089511
 22
414.857705745678
 32
0.0
 13
466.78062387089511
 23
414.857705745678
 33
0.0
  0
SOLID
  5
6980
  8
WAKU
  6
CONTINUOUS
 10
466.78062387089511
 20
414.857705745678
 30
0.0
 11
463.35170087089563
 21
414.857705745678
 31
0.0
 12
465.56708587089571
 22
414.857705745678
 32
0.0
 13
465.56708587089571
 23
414.857705745678
 33
0.0
  0
LINE
  5
6981
  8
WAKU
  6
CONTINUOUS
 10
466.78062387089511
 20
414.85770574567772
 30
0.0
 11
468.95170087089451
 21
414.85770574567772
 31
0.0
  0
SOLID
  5
6982
  8
WAKU
  6
CONTINUOUS
 10
469.57884987089562
 20
416.5807827456776
 30
0.0
 11
463.97884987089571
 21
416.5807827456776
 31
0.0
 12
468.95170087089531
 22
414.857705745678
 32
0.0
 13
468.95170087089531
 23
414.857705745678
 33
0.0
  0
SOLID
  5
6983
  8
WAKU
  6
CONTINUOUS
 10
463.97884987089571
 20
416.5807827456776
 30
0.0
 11
466.78062387089511
 21
414.857705745678
 31
0.0
 12
468.95170087089531
 22
414.857705745678
 32
0.0
 13
468.95170087089531
 23
414.857705745678
 33
0.0
  0
LINE
  5
6984
  8
WAKU
  6
CONTINUOUS
 10
463.97884987089509
 20
416.5807827456776
 30
0.0
 11
469.5788498708954
 21
416.5807827456776
 31
0.0
  0
LINE
  5
6985
  8
WAKU
  6
CONTINUOUS
 10
461.4310578708953
 20
409.58078274567771
 30
0.0
 11
462.41097787089518
 21
412.27309074567768
 31
0.0
  0
LINE
  5
6986
  8
WAKU
  6
CONTINUOUS
 10
459.15061587089508
 20
412.86447574567819
 30
0.0
 11
459.4125048708953
 21
413.36581274567772
 31
0.0
  0
SOLID
  5
6987
  8
WAKU
  6
CONTINUOUS
 10
460.20659987089562
 20
413.67707174567829
 30
0.0
 11
459.81213387089548
 21
413.6506467456777
 31
0.0
 12
460.12175687089558
 22
413.24691674567799
 32
0.0
 13
460.12175687089558
 23
413.24691674567799
 33
0.0
  0
SOLID
  5
6988
  8
WAKU
  6
CONTINUOUS
 10
459.81213387089548
 20
413.6506467456777
 30
0.0
 11
459.71648287089539
 21
413.25503074567729
 31
0.0
 12
460.12175687089558
 22
413.24691674567799
 32
0.0
 13
460.12175687089558
 23
413.24691674567799
 33
0.0
  0
LINE
  5
6989
  8
WAKU
  6
CONTINUOUS
 10
460.12175687089518
 20
413.24691674567748
 30
0.0
 11
460.20659987089562
 21
413.67707174567721
 31
0.0
  0
LINE
  5
698A
  8
WAKU
  6
CONTINUOUS
 10
459.71648287089539
 20
413.25503074567729
 30
0.0
 11
459.81213387089508
 21
413.6506467456768
 31
0.0
  0
SOLID
  5
698B
  8
WAKU
  6
CONTINUOUS
 10
459.71648287089539
 20
413.25503074567729
 30
0.0
 11
459.52427987089561
 21
412.80006074567802
 31
0.0
 12
460.12175687089558
 22
413.24691674567799
 32
0.0
 13
460.12175687089558
 23
413.24691674567799
 33
0.0
  0
SOLID
  5
698C
  8
WAKU
  6
CONTINUOUS
 10
460.12175687089558
 20
413.24691674567799
 30
0.0
 11
459.52427987089561
 21
412.80006074567802
 31
0.0
 12
459.94527587089561
 22
412.7776107456782
 32
0.0
 13
459.94527587089561
 23
412.7776107456782
 33
0.0
  0
LINE
  5
698D
  8
WAKU
  6
CONTINUOUS
 10
459.6836378708951
 20
412.28639174567741
 30
0.0
 11
459.9452758708947
 21
412.77761074567741
 31
0.0
  0
LINE
  5
698E
  8
WAKU
  6
CONTINUOUS
 10
459.9452758708947
 20
412.77761074567741
 30
0.0
 11
460.12175687089518
 21
413.24691674567748
 31
0.0
  0
LINE
  5
698F
  8
WAKU
  6
CONTINUOUS
 10
459.52427987089447
 20
412.80006074567802
 30
0.0
 11
459.71648287089539
 21
413.25503074567729
 31
0.0
  0
LINE
  5
6990
  8
WAKU
  6
CONTINUOUS
 10
458.94610787089471
 20
411.31052674567741
 30
0.0
 11
459.34645387089557
 21
411.79130274567768
 31
0.0
  0
SOLID
  5
6991
  8
WAKU
  6
CONTINUOUS
 10
459.52427987089561
 20
412.80006074567802
 30
0.0
 11
459.24082287089561
 21
412.31450074567812
 31
0.0
 12
459.94527587089561
 22
412.7776107456782
 32
0.0
 13
459.94527587089561
 23
412.7776107456782
 33
0.0
  0
SOLID
  5
6992
  8
WAKU
  6
CONTINUOUS
 10
459.94527587089561
 20
412.7776107456782
 30
0.0
 11
459.24082287089561
 21
412.31450074567812
 31
0.0
 12
459.68363787089561
 22
412.28639174567809
 32
0.0
 13
459.68363787089561
 23
412.28639174567809
 33
0.0
  0
LINE
  5
6993
  8
WAKU
  6
CONTINUOUS
 10
459.34645387089557
 20
411.79130274567768
 30
0.0
 11
459.6836378708951
 21
412.28639174567741
 31
0.0
  0
LINE
  5
6994
  8
WAKU
  6
CONTINUOUS
 10
459.24082287089561
 20
412.31450074567812
 30
0.0
 11
459.52427987089447
 21
412.80006074567802
 31
0.0
  0
SOLID
  5
6995
  8
WAKU
  6
CONTINUOUS
 10
460.09238487089573
 20
414.35874974567793
 30
0.0
 11
459.66058287089538
 21
414.27703174567802
 31
0.0
 12
460.19668787089557
 22
414.05227574567829
 32
0.0
 13
460.19668787089557
 23
414.05227574567829
 33
0.0
  0
SOLID
  5
6996
  8
WAKU
  6
CONTINUOUS
 10
459.66058287089538
 20
414.27703174567802
 30
0.0
 11
459.75872387089561
 21
414.15870074567817
 31
0.0
 12
460.19668787089557
 22
414.05227574567829
 32
0.0
 13
460.19668787089557
 23
414.05227574567829
 33
0.0
  0
SOLID
  5
6997
  8
WAKU
  6
CONTINUOUS
 10
459.75872387089561
 20
414.15870074567817
 30
0.0
 11
459.81757487089561
 21
413.95803574567771
 31
0.0
 12
460.19668787089557
 22
414.05227574567829
 32
0.0
 13
460.19668787089557
 23
414.05227574567829
 33
0.0
  0
SOLID
  5
6998
  8
WAKU
  6
CONTINUOUS
 10
460.19668787089557
 20
414.05227574567829
 30
0.0
 11
459.81757487089561
 21
413.95803574567771
 31
0.0
 12
460.20659987089562
 22
413.67707174567829
 32
0.0
 13
460.20659987089562
 23
413.67707174567829
 33
0.0
  0
SOLID
  5
6999
  8
WAKU
  6
CONTINUOUS
 10
459.81757487089561
 20
413.95803574567771
 30
0.0
 11
459.81213387089548
 21
413.6506467456777
 31
0.0
 12
460.20659987089562
 22
413.67707174567829
 32
0.0
 13
460.20659987089562
 23
413.67707174567829
 33
0.0
  0
LINE
  5
699A
  8
WAKU
  6
CONTINUOUS
 10
460.0923848708947
 20
414.35874974567793
 30
0.0
 11
459.89752187089562
 21
414.5852347456775
 31
0.0
  0
LINE
  5
699B
  8
WAKU
  6
CONTINUOUS
 10
460.20659987089562
 20
413.67707174567721
 30
0.0
 11
460.19668787089512
 21
414.05227574567772
 31
0.0
  0
LINE
  5
699C
  8
WAKU
  6
CONTINUOUS
 10
460.19668787089512
 20
414.05227574567772
 30
0.0
 11
460.0923848708947
 21
414.35874974567793
 31
0.0
  0
LINE
  5
699D
  8
WAKU
  6
CONTINUOUS
 10
459.81213387089508
 20
413.6506467456768
 30
0.0
 11
459.81757487089442
 21
413.95803574567771
 31
0.0
  0
LINE
  5
699E
  8
WAKU
  6
CONTINUOUS
 10
459.81757487089442
 20
413.95803574567771
 30
0.0
 11
459.75872387089441
 21
414.15870074567761
 31
0.0
  0
LINE
  5
699F
  8
WAKU
  6
CONTINUOUS
 10
459.75872387089441
 20
414.15870074567761
 30
0.0
 11
459.66058287089442
 21
414.27703174567802
 31
0.0
  0
LINE
  5
69A0
  8
WAKU
  6
CONTINUOUS
 10
459.58469787089513
 20
413.84276974567751
 30
0.0
 11
459.66058287089442
 21
414.27703174567802
 31
0.0
  0
LINE
  5
69A1
  8
WAKU
  6
CONTINUOUS
 10
459.89752187089562
 20
414.5852347456775
 30
0.0
 11
459.61925687089439
 21
414.72341274567742
 31
0.0
  0
LINE
  5
69A2
  8
WAKU
  6
CONTINUOUS
 10
459.61925687089439
 20
414.72341274567742
 30
0.0
 11
459.48107887089532
 21
415.00167774567768
 31
0.0
  0
LINE
  5
69A3
  8
WAKU
  6
CONTINUOUS
 10
459.18784387089522
 20
413.87118474567728
 30
0.0
 11
459.27500187089453
 21
414.37935174567758
 31
0.0
  0
LINE
  5
69A4
  8
WAKU
  6
CONTINUOUS
 10
459.17271387089539
 20
414.76472674567748
 30
0.0
 11
459.0549208708951
 21
414.8627117456777
 31
0.0
  0
LINE
  5
69A5
  8
WAKU
  6
CONTINUOUS
 10
459.25459387089558
 20
415.1965397456778
 30
0.0
 11
458.94812087089502
 21
415.30084274567793
 31
0.0
  0
SOLID
  5
69A6
  8
WAKU
  6
CONTINUOUS
 10
459.05492087089539
 20
414.8627117456777
 30
0.0
 11
459.17271387089539
 21
414.76472674567799
 31
0.0
 12
459.61925687089558
 22
414.72341274567742
 32
0.0
 13
459.61925687089558
 23
414.72341274567742
 33
0.0
  0
SOLID
  5
69A7
  8
WAKU
  6
CONTINUOUS
 10
459.89752187089562
 20
414.58523474567818
 30
0.0
 11
459.27500187089538
 21
414.37935174567758
 31
0.0
 12
460.09238487089573
 22
414.35874974567793
 32
0.0
 13
460.09238487089573
 23
414.35874974567793
 33
0.0
  0
SOLID
  5
69A8
  8
WAKU
  6
CONTINUOUS
 10
459.27500187089538
 20
414.37935174567758
 30
0.0
 11
459.18784387089562
 21
413.87118474567808
 31
0.0
 12
459.66058287089538
 22
414.27703174567802
 32
0.0
 13
459.66058287089538
 23
414.27703174567802
 33
0.0
  0
SOLID
  5
69A9
  8
WAKU
  6
CONTINUOUS
 10
459.27500187089538
 20
414.37935174567758
 30
0.0
 11
459.66058287089538
 21
414.27703174567802
 31
0.0
 12
460.09238487089573
 22
414.35874974567793
 32
0.0
 13
460.09238487089573
 23
414.35874974567793
 33
0.0
  0
SOLID
  5
69AA
  8
WAKU
  6
CONTINUOUS
 10
459.66058287089538
 20
414.27703174567802
 30
0.0
 11
459.18784387089562
 21
413.87118474567808
 31
0.0
 12
459.5846978708957
 22
413.84276974567808
 32
0.0
 13
459.5846978708957
 23
413.84276974567808
 33
0.0
  0
LINE
  5
69AB
  8
WAKU
  6
CONTINUOUS
 10
459.48107887089532
 20
415.00167774567768
 30
0.0
 11
459.25459387089558
 21
415.1965397456778
 31
0.0
  0
LINE
  5
69AC
  8
WAKU
  6
CONTINUOUS
 10
459.4125048708953
 20
413.36581274567772
 30
0.0
 11
459.58469787089513
 21
413.84276974567751
 31
0.0
  0
LINE
  5
69AD
  8
WAKU
  6
CONTINUOUS
 10
458.73840887089511
 20
414.68879674567768
 30
0.0
 11
458.26141187089507
 21
414.51655074567719
 31
0.0
  0
LINE
  5
69AE
  8
WAKU
  6
CONTINUOUS
 10
458.40103887089452
 20
411.86587174567728
 30
0.0
 11
458.80908887089561
 21
412.35801174567769
 31
0.0
  0
LINE
  5
69AF
  8
WAKU
  6
CONTINUOUS
 10
458.47601087089453
 20
412.56270274567771
 30
0.0
 11
458.91712587089501
 21
413.240316745678
 31
0.0
  0
LINE
  5
69B0
  8
WAKU
  6
CONTINUOUS
 10
458.85376887089512
 20
414.92168474567728
 30
0.0
 11
458.54662987089472
 21
414.91636374567759
 31
0.0
  0
SOLID
  5
69B1
  8
WAKU
  6
CONTINUOUS
 10
458.73840887089563
 20
414.68879674567802
 30
0.0
 11
458.26141187089547
 21
414.5165507456777
 31
0.0
 12
459.89752187089562
 22
414.58523474567818
 32
0.0
 13
459.89752187089562
 23
414.58523474567818
 33
0.0
  0
SOLID
  5
69B2
  8
WAKU
  6
CONTINUOUS
 10
459.89752187089562
 20
414.58523474567818
 30
0.0
 11
458.26141187089547
 21
414.5165507456777
 31
0.0
 12
459.27500187089538
 22
414.37935174567758
 32
0.0
 13
459.27500187089538
 23
414.37935174567758
 33
0.0
  0
SOLID
  5
69B3
  8
WAKU
  6
CONTINUOUS
 10
459.4125048708953
 20
413.36581274567772
 30
0.0
 11
458.91712587089592
 21
413.240316745678
 31
0.0
 12
459.15061587089508
 22
412.86447574567819
 32
0.0
 13
459.15061587089508
 23
412.86447574567819
 33
0.0
  0
SOLID
  5
69B4
  8
WAKU
  6
CONTINUOUS
 10
459.18784387089562
 20
413.87118474567808
 30
0.0
 11
458.91712587089592
 21
413.240316745678
 31
0.0
 12
459.5846978708957
 22
413.84276974567808
 32
0.0
 13
459.5846978708957
 23
413.84276974567808
 33
0.0
  0
SOLID
  5
69B5
  8
WAKU
  6
CONTINUOUS
 10
459.5846978708957
 20
413.84276974567808
 30
0.0
 11
458.91712587089592
 21
413.240316745678
 31
0.0
 12
459.4125048708953
 22
413.36581274567772
 32
0.0
 13
459.4125048708953
 23
413.36581274567772
 33
0.0
  0
LINE
  5
69B6
  8
WAKU
  6
CONTINUOUS
 10
458.91712587089501
 20
413.240316745678
 30
0.0
 11
459.18784387089522
 21
413.87118474567728
 31
0.0
  0
SOLID
  5
69B7
  8
WAKU
  6
CONTINUOUS
 10
458.91712587089592
 20
413.240316745678
 30
0.0
 11
458.47601087089538
 21
412.56270274567771
 31
0.0
 12
459.15061587089508
 22
412.86447574567819
 32
0.0
 13
459.15061587089508
 23
412.86447574567819
 33
0.0
  0
SOLID
  5
69B8
  8
WAKU
  6
CONTINUOUS
 10
459.15061587089508
 20
412.86447574567819
 30
0.0
 11
458.47601087089538
 21
412.56270274567771
 31
0.0
 12
458.80908887089561
 22
412.35801174567769
 32
0.0
 13
458.80908887089561
 23
412.35801174567769
 33
0.0
  0
SOLID
  5
69B9
  8
WAKU
  6
CONTINUOUS
 10
459.34645387089557
 20
411.79130274567802
 30
0.0
 11
458.45173787089561
 21
411.35601474567773
 31
0.0
 12
458.94610787089562
 22
411.3105267456782
 32
0.0
 13
458.94610787089562
 23
411.3105267456782
 33
0.0
  0
LINE
  5
69BA
  8
WAKU
  6
CONTINUOUS
 10
458.45173787089448
 20
411.35601474567773
 30
0.0
 11
459.24082287089561
 21
412.31450074567812
 31
0.0
  0
LINE
  5
69BB
  8
WAKU
  6
CONTINUOUS
 10
458.49730487089522
 20
410.8617237456773
 30
0.0
 11
458.94610787089471
 21
411.31052674567741
 31
0.0
  0
LINE
  5
69BC
  8
WAKU
  6
CONTINUOUS
 10
458.80908887089561
 20
412.35801174567769
 30
0.0
 11
459.15061587089508
 21
412.86447574567819
 31
0.0
  0
SOLID
  5
69BD
  8
WAKU
  6
CONTINUOUS
 10
459.24082287089561
 20
412.31450074567812
 30
0.0
 11
458.45173787089561
 21
411.35601474567773
 31
0.0
 12
459.68363787089561
 22
412.28639174567809
 32
0.0
 13
459.68363787089561
 23
412.28639174567809
 33
0.0
  0
SOLID
  5
69BE
  8
WAKU
  6
CONTINUOUS
 10
459.68363787089561
 20
412.28639174567809
 30
0.0
 11
458.45173787089561
 21
411.35601474567773
 31
0.0
 12
459.34645387089557
 22
411.79130274567802
 32
0.0
 13
459.34645387089557
 23
411.79130274567802
 33
0.0
  0
LINE
  5
69BF
  8
WAKU
  6
CONTINUOUS
 10
459.27500187089453
 20
414.37935174567758
 30
0.0
 11
458.76651087089539
 21
414.2920227456778
 31
0.0
  0
LINE
  5
69C0
  8
WAKU
  6
CONTINUOUS
 10
459.17271387089539
 20
414.76472674567748
 30
0.0
 11
458.73840887089511
 21
414.68879674567768
 31
0.0
  0
LINE
  5
69C1
  8
WAKU
  6
CONTINUOUS
 10
459.0549208708951
 20
414.8627117456777
 30
0.0
 11
458.85376887089512
 21
414.92168474567728
 31
0.0
  0
LINE
  5
69C2
  8
WAKU
  6
CONTINUOUS
 10
458.94812087089502
 20
415.30084274567793
 30
0.0
 11
458.57291587089509
 21
415.3107547456778
 31
0.0
  0
SOLID
  5
69C3
  8
WAKU
  6
CONTINUOUS
 10
459.48107887089571
 20
415.00167774567819
 30
0.0
 11
458.85376887089592
 21
414.92168474567819
 31
0.0
 12
459.61925687089558
 22
414.72341274567742
 32
0.0
 13
459.61925687089558
 23
414.72341274567742
 33
0.0
  0
SOLID
  5
69C4
  8
WAKU
  6
CONTINUOUS
 10
458.85376887089592
 20
414.92168474567819
 30
0.0
 11
459.05492087089539
 21
414.8627117456777
 31
0.0
 12
459.61925687089558
 22
414.72341274567742
 32
0.0
 13
459.61925687089558
 23
414.72341274567742
 33
0.0
  0
SOLID
  5
69C5
  8
WAKU
  6
CONTINUOUS
 10
459.17271387089539
 20
414.76472674567799
 30
0.0
 11
458.73840887089563
 21
414.68879674567802
 31
0.0
 12
459.61925687089558
 22
414.72341274567742
 32
0.0
 13
459.61925687089558
 23
414.72341274567742
 33
0.0
  0
SOLID
  5
69C6
  8
WAKU
  6
CONTINUOUS
 10
459.61925687089558
 20
414.72341274567742
 30
0.0
 11
458.73840887089563
 21
414.68879674567802
 31
0.0
 12
459.89752187089562
 22
414.58523474567818
 32
0.0
 13
459.89752187089562
 23
414.58523474567818
 33
0.0
  0
SOLID
  5
69C7
  8
WAKU
  6
CONTINUOUS
 10
455.75756787089563
 20
413.60145974567752
 30
0.0
 11
455.35722187089539
 21
413.12068374567798
 31
0.0
 12
456.25187087089569
 22
413.55589074567808
 32
0.0
 13
456.25187087089569
 23
413.55589074567808
 33
0.0
  0
SOLID
  5
69C8
  8
WAKU
  6
CONTINUOUS
 10
456.25187087089569
 20
413.55589074567808
 30
0.0
 11
455.35722187089539
 21
413.12068374567798
 31
0.0
 12
455.46280787089557
 22
412.59735274567771
 32
0.0
 13
455.46280787089557
 23
412.59735274567771
 33
0.0
  0
LINE
  5
69C9
  8
WAKU
  6
CONTINUOUS
 10
456.25187087089512
 20
413.55589074567729
 30
0.0
 11
455.46280787089472
 21
412.59735274567771
 31
0.0
  0
SOLID
  5
69CA
  8
WAKU
  6
CONTINUOUS
 10
456.30249287089578
 20
413.0459567456781
 30
0.0
 11
455.89444387089588
 21
412.55378274567772
 31
0.0
 12
456.80159987089559
 22
413.00567574567771
 32
0.0
 13
456.80159987089559
 23
413.00567574567771
 33
0.0
  0
SOLID
  5
69CB
  8
WAKU
  6
CONTINUOUS
 10
456.80159987089559
 20
413.00567574567771
 30
0.0
 11
455.89444387089588
 21
412.55378274567772
 31
0.0
 12
456.2276688708958
 22
412.34925374567808
 32
0.0
 13
456.2276688708958
 23
412.34925374567808
 33
0.0
  0
SOLID
  5
69CC
  8
WAKU
  6
CONTINUOUS
 10
455.89444387089588
 20
412.55378274567772
 30
0.0
 11
455.5529288708957
 21
412.0472917456778
 31
0.0
 12
456.2276688708958
 22
412.34925374567808
 32
0.0
 13
456.2276688708958
 23
412.34925374567808
 33
0.0
  0
SOLID
  5
69CD
  8
WAKU
  6
CONTINUOUS
 10
456.2276688708958
 20
412.34925374567808
 30
0.0
 11
455.5529288708957
 21
412.0472917456778
 31
0.0
 12
455.78648487089538
 22
411.67165774567809
 32
0.0
 13
455.78648487089538
 23
411.67165774567809
 33
0.0
  0
SOLID
  5
69CE
  8
WAKU
  6
CONTINUOUS
 10
456.56803587089581
 20
410.8911147456771
 30
0.0
 11
455.93716787089568
 21
410.61997774567772
 31
0.0
 12
456.94354287089539
 22
410.65732774567817
 32
0.0
 13
456.94354287089539
 23
410.65732774567817
 33
0.0
  0
SOLID
  5
69CF
  8
WAKU
  6
CONTINUOUS
 10
456.94354287089539
 20
410.65732774567817
 30
0.0
 11
455.93716787089568
 21
410.61997774567772
 31
0.0
 12
456.4422008708957
 22
410.3954077456782
 32
0.0
 13
456.4422008708957
 23
410.3954077456782
 33
0.0
  0
SOLID
  5
69D0
  8
WAKU
  6
CONTINUOUS
 10
455.93716787089568
 20
410.61997774567772
 30
0.0
 11
455.42868387089538
 21
410.53263874567813
 31
0.0
 12
456.4422008708957
 22
410.3954077456782
 32
0.0
 13
456.4422008708957
 23
410.3954077456782
 33
0.0
  0
SOLID
  5
69D1
  8
WAKU
  6
CONTINUOUS
 10
455.42868387089538
 20
410.53263874567813
 30
0.0
 11
454.80615387089563
 21
410.32675174567822
 31
0.0
 12
456.4422008708957
 22
410.3954077456782
 32
0.0
 13
456.4422008708957
 23
410.3954077456782
 33
0.0
  0
SOLID
  5
69D2
  8
WAKU
  6
CONTINUOUS
 10
456.4422008708957
 20
410.3954077456782
 30
0.0
 11
454.80615387089563
 21
410.32675174567822
 31
0.0
 12
455.96523087089508
 22
410.22317974567801
 32
0.0
 13
455.96523087089508
 23
410.22317974567801
 33
0.0
  0
SOLID
  5
69D3
  8
WAKU
  6
CONTINUOUS
 10
454.80615387089563
 20
410.32675174567822
 30
0.0
 11
455.08441887089589
 21
410.18857374567801
 31
0.0
 12
455.96523087089508
 22
410.22317974567801
 32
0.0
 13
455.96523087089508
 23
410.22317974567801
 33
0.0
  0
SOLID
  5
69D4
  8
WAKU
  6
CONTINUOUS
 10
455.96523087089508
 20
410.22317974567801
 30
0.0
 11
455.08441887089589
 21
410.18857374567801
 31
0.0
 12
455.5309498708956
 22
410.14725874567807
 32
0.0
 13
455.5309498708956
 23
410.14725874567807
 33
0.0
  0
SOLID
  5
69D5
  8
WAKU
  6
CONTINUOUS
 10
456.15706687089562
 20
409.99564574567802
 30
0.0
 11
455.84994987089573
 21
409.99028074567832
 31
0.0
 12
457.03022087089562
 22
409.86255574567809
 32
0.0
 13
457.03022087089562
 23
409.86255574567809
 33
0.0
  0
SOLID
  5
69D6
  8
WAKU
  6
CONTINUOUS
 10
455.84994987089573
 20
409.99028074567832
 30
0.0
 11
455.2225968708957
 21
409.91030874567792
 31
0.0
 12
457.03022087089562
 22
409.86255574567809
 32
0.0
 13
457.03022087089562
 23
409.86255574567809
 33
0.0
  0
SOLID
  5
69D7
  8
WAKU
  6
CONTINUOUS
 10
455.2225968708957
 20
409.91030874567792
 30
0.0
 11
455.44908187089561
 21
409.7154467456777
 31
0.0
 12
457.03022087089562
 22
409.86255574567809
 32
0.0
 13
457.03022087089562
 23
409.86255574567809
 33
0.0
  0
SOLID
  5
69D8
  8
WAKU
  6
CONTINUOUS
 10
457.03022087089562
 20
409.86255574567809
 30
0.0
 11
455.44908187089561
 21
409.7154467456777
 31
0.0
 12
456.5609148708956
 22
409.68607374567802
 32
0.0
 13
456.5609148708956
 23
409.68607374567802
 33
0.0
  0
SOLID
  5
69D9
  8
WAKU
  6
CONTINUOUS
 10
455.44908187089561
 20
409.7154467456777
 30
0.0
 11
455.75555487089559
 21
409.61114374567819
 31
0.0
 12
456.5609148708956
 22
409.68607374567802
 32
0.0
 13
456.5609148708956
 23
409.68607374567802
 33
0.0
  0
SOLID
  5
69DA
  8
WAKU
  6
CONTINUOUS
 10
456.5609148708956
 20
409.68607374567802
 30
0.0
 11
455.75555487089559
 21
409.61114374567819
 31
0.0
 12
456.13075987089508
 22
409.60123174567792
 32
0.0
 13
456.13075987089508
 23
409.60123174567792
 33
0.0
  0
LINE
  5
69DB
  8
WAKU
  6
CONTINUOUS
 10
455.5309498708956
 20
410.1472587456775
 30
0.0
 11
455.96523087089503
 21
410.22317974567801
 31
0.0
  0
LINE
  5
69DC
  8
WAKU
  6
CONTINUOUS
 10
455.75555487089508
 20
409.61114374567819
 30
0.0
 11
456.13075987089508
 21
409.60123174567792
 31
0.0
  0
LINE
  5
69DD
  8
WAKU
  6
CONTINUOUS
 10
455.93716787089483
 20
410.61997774567772
 30
0.0
 11
456.56803587089507
 21
410.8911147456771
 31
0.0
  0
LINE
  5
69DE
  8
WAKU
  6
CONTINUOUS
 10
455.8499498708951
 20
409.99028074567741
 30
0.0
 11
456.15706687089562
 21
409.99564574567768
 31
0.0
  0
LINE
  5
69DF
  8
WAKU
  6
CONTINUOUS
 10
456.22766887089512
 20
412.34925374567808
 30
0.0
 11
455.7864848708947
 21
411.67165774567752
 31
0.0
  0
LINE
  5
69E0
  8
WAKU
  6
CONTINUOUS
 10
456.30249287089561
 20
413.04595674567759
 30
0.0
 11
455.89444387089532
 21
412.55378274567772
 31
0.0
  0
SOLID
  5
69E1
  8
WAKU
  6
CONTINUOUS
 10
456.20637187089562
 20
414.05026274567751
 30
0.0
 11
455.75756787089563
 21
413.60145974567752
 31
0.0
 12
456.25187087089569
 22
413.55589074567808
 32
0.0
 13
456.25187087089569
 23
413.55589074567808
 33
0.0
  0
LINE
  5
69E2
  8
WAKU
  6
CONTINUOUS
 10
456.20637187089523
 20
414.05026274567729
 30
0.0
 11
455.75756787089563
 21
413.60145974567752
 31
0.0
  0
LINE
  5
69E3
  8
WAKU
  6
CONTINUOUS
 10
455.75756787089563
 20
413.60145974567752
 30
0.0
 11
455.35722187089539
 21
413.1206837456777
 31
0.0
  0
SOLID
  5
69E4
  8
WAKU
  6
CONTINUOUS
 10
455.35722187089539
 20
413.12068374567798
 30
0.0
 11
455.02003787089512
 21
412.62559474567809
 31
0.0
 12
455.46280787089557
 22
412.59735274567771
 32
0.0
 13
455.46280787089557
 23
412.59735274567771
 33
0.0
  0
SOLID
  5
69E5
  8
WAKU
  6
CONTINUOUS
 10
455.02003787089512
 20
412.62559474567809
 30
0.0
 11
454.75839987089557
 21
412.13437574567752
 31
0.0
 12
455.46280787089557
 22
412.59735274567771
 32
0.0
 13
455.46280787089557
 23
412.59735274567771
 33
0.0
  0
SOLID
  5
69E6
  8
WAKU
  6
CONTINUOUS
 10
455.46280787089557
 20
412.59735274567771
 30
0.0
 11
454.75839987089557
 21
412.13437574567752
 31
0.0
 12
455.17929187089538
 22
412.1118107456781
 32
0.0
 13
455.17929187089538
 23
412.1118107456781
 33
0.0
  0
SOLID
  5
69E7
  8
WAKU
  6
CONTINUOUS
 10
455.5529288708957
 20
412.0472917456778
 30
0.0
 11
455.29106587089558
 21
411.54593674567798
 31
0.0
 12
455.78648487089538
 22
411.67165774567809
 32
0.0
 13
455.78648487089538
 23
411.67165774567809
 33
0.0
  0
SOLID
  5
69E8
  8
WAKU
  6
CONTINUOUS
 10
455.78648487089538
 20
411.67165774567809
 30
0.0
 11
455.29106587089558
 21
411.54593674567798
 31
0.0
 12
455.51594087089558
 22
411.04075174567799
 32
0.0
 13
455.51594087089558
 23
411.04075174567799
 33
0.0
  0
SOLID
  5
69E9
  8
WAKU
  6
CONTINUOUS
 10
455.29106587089558
 20
411.54593674567798
 30
0.0
 11
455.1189118708956
 21
411.06897174567769
 31
0.0
 12
455.51594087089558
 22
411.04075174567799
 32
0.0
 13
455.51594087089558
 23
411.04075174567799
 33
0.0
  0
SOLID
  5
69EA
  8
WAKU
  6
CONTINUOUS
 10
455.1189118708956
 20
411.06897174567769
 30
0.0
 11
455.04307787089562
 21
410.63471774567802
 31
0.0
 12
455.51594087089558
 22
411.04075174567799
 32
0.0
 13
455.51594087089558
 23
411.04075174567799
 33
0.0
  0
SOLID
  5
69EB
  8
WAKU
  6
CONTINUOUS
 10
455.51594087089558
 20
411.04075174567799
 30
0.0
 11
455.04307787089562
 21
410.63471774567802
 31
0.0
 12
455.42868387089538
 22
410.53263874567813
 32
0.0
 13
455.42868387089538
 23
410.53263874567813
 33
0.0
  0
SOLID
  5
69EC
  8
WAKU
  6
CONTINUOUS
 10
455.08441887089589
 20
410.18857374567801
 30
0.0
 11
455.2225968708957
 21
409.91030874567792
 31
0.0
 12
455.5309498708956
 22
410.14725874567807
 32
0.0
 13
455.5309498708956
 23
410.14725874567807
 33
0.0
  0
SOLID
  5
69ED
  8
WAKU
  6
CONTINUOUS
 10
455.5309498708956
 20
410.14725874567807
 30
0.0
 11
455.2225968708957
 21
409.91030874567792
 31
0.0
 12
455.6486998708956
 22
410.04935074567823
 32
0.0
 13
455.6486998708956
 23
410.04935074567823
 33
0.0
  0
SOLID
  5
69EE
  8
WAKU
  6
CONTINUOUS
 10
455.6486998708956
 20
410.04935074567823
 30
0.0
 11
455.2225968708957
 21
409.91030874567792
 31
0.0
 12
455.84994987089573
 22
409.99028074567832
 32
0.0
 13
455.84994987089573
 23
409.99028074567832
 33
0.0
  0
LINE
  5
69EF
  8
WAKU
  6
CONTINUOUS
 10
455.55292887089479
 20
412.0472917456778
 30
0.0
 11
455.29106587089518
 21
411.54593674567769
 31
0.0
  0
LINE
  5
69F0
  8
WAKU
  6
CONTINUOUS
 10
454.98726287089562
 20
411.65680374567768
 30
0.0
 11
454.89146887089561
 21
411.26118674567761
 31
0.0
  0
LINE
  5
69F1
  8
WAKU
  6
CONTINUOUS
 10
455.7864848708947
 20
411.67165774567752
 30
0.0
 11
455.51594087089558
 21
411.0407517456772
 31
0.0
  0
LINE
  5
69F2
  8
WAKU
  6
CONTINUOUS
 10
455.51594087089558
 20
411.0407517456772
 30
0.0
 11
455.4286838708951
 21
410.53263874567801
 31
0.0
  0
LINE
  5
69F3
  8
WAKU
  6
CONTINUOUS
 10
454.80615387089563
 20
410.32675174567822
 30
0.0
 11
455.08441887089509
 21
410.18857374567727
 31
0.0
  0
LINE
  5
69F4
  8
WAKU
  6
CONTINUOUS
 10
455.08441887089509
 20
410.18857374567727
 30
0.0
 11
455.2225968708953
 21
409.91030874567792
 31
0.0
  0
LINE
  5
69F5
  8
WAKU
  6
CONTINUOUS
 10
455.2225968708953
 20
409.91030874567792
 30
0.0
 11
455.44908187089538
 21
409.7154467456777
 31
0.0
  0
LINE
  5
69F6
  8
WAKU
  6
CONTINUOUS
 10
455.44908187089538
 20
409.7154467456777
 30
0.0
 11
455.75555487089508
 21
409.61114374567819
 31
0.0
  0
LINE
  5
69F7
  8
WAKU
  6
CONTINUOUS
 10
455.29106587089518
 20
411.54593674567769
 30
0.0
 11
455.1189118708956
 21
411.06897174567769
 31
0.0
  0
LINE
  5
69F8
  8
WAKU
  6
CONTINUOUS
 10
455.1189118708956
 20
411.06897174567769
 30
0.0
 11
455.04307787089562
 21
410.63471774567751
 31
0.0
  0
LINE
  5
69F9
  8
WAKU
  6
CONTINUOUS
 10
455.4286838708951
 20
410.53263874567801
 30
0.0
 11
455.93716787089483
 21
410.61997774567772
 31
0.0
  0
LINE
  5
69FA
  8
WAKU
  6
CONTINUOUS
 10
454.89146887089561
 20
411.26118674567761
 30
0.0
 11
454.88613087089448
 21
410.9538697456772
 31
0.0
  0
LINE
  5
69FB
  8
WAKU
  6
CONTINUOUS
 10
454.88613087089448
 20
410.9538697456772
 30
0.0
 11
454.94492787089558
 21
410.75321774567772
 31
0.0
  0
LINE
  5
69FC
  8
WAKU
  6
CONTINUOUS
 10
454.94492787089558
 20
410.75321774567772
 30
0.0
 11
455.04307787089562
 21
410.63471774567751
 31
0.0
  0
LINE
  5
69FD
  8
WAKU
  6
CONTINUOUS
 10
455.5309498708956
 20
410.1472587456775
 30
0.0
 11
455.6486998708956
 21
410.04935074567823
 31
0.0
  0
LINE
  5
69FE
  8
WAKU
  6
CONTINUOUS
 10
455.6486998708956
 20
410.04935074567823
 30
0.0
 11
455.8499498708951
 21
409.99028074567741
 31
0.0
  0
LINE
  5
69FF
  8
WAKU
  6
CONTINUOUS
 10
455.89444387089532
 20
412.55378274567772
 30
0.0
 11
455.55292887089479
 21
412.0472917456778
 31
0.0
  0
LINE
  5
6A00
  8
WAKU
  6
CONTINUOUS
 10
455.46280787089472
 20
412.59735274567771
 30
0.0
 11
455.17929187089447
 21
412.1118107456781
 31
0.0
  0
LINE
  5
6A01
  8
WAKU
  6
CONTINUOUS
 10
455.17929187089447
 20
412.1118107456781
 30
0.0
 11
454.98726287089562
 21
411.65680374567768
 31
0.0
  0
LINE
  5
6A02
  8
WAKU
  6
CONTINUOUS
 10
455.02003787089478
 20
412.62559474567809
 30
0.0
 11
454.75839987089557
 21
412.13437574567752
 31
0.0
  0
LINE
  5
6A03
  8
WAKU
  6
CONTINUOUS
 10
455.35722187089539
 20
413.1206837456777
 30
0.0
 11
455.02003787089478
 21
412.62559474567809
 31
0.0
  0
LINE
  5
6A04
  8
WAKU
  6
CONTINUOUS
 10
454.58191887089453
 20
411.66506974567727
 30
0.0
 11
454.49707587089563
 21
411.234914745678
 31
0.0
  0
LINE
  5
6A05
  8
WAKU
  6
CONTINUOUS
 10
454.49707587089563
 20
411.234914745678
 30
0.0
 11
454.50698787089539
 21
410.85971074567772
 31
0.0
  0
LINE
  5
6A06
  8
WAKU
  6
CONTINUOUS
 10
454.50698787089539
 20
410.85971074567772
 30
0.0
 11
454.61129087089557
 21
410.55323674567768
 31
0.0
  0
SOLID
  5
6A07
  8
WAKU
  6
CONTINUOUS
 10
454.75839987089557
 20
412.13437574567752
 30
0.0
 11
454.58191887089538
 21
411.66506974567812
 31
0.0
 12
455.17929187089538
 22
412.1118107456781
 32
0.0
 13
455.17929187089538
 23
412.1118107456781
 33
0.0
  0
SOLID
  5
6A08
  8
WAKU
  6
CONTINUOUS
 10
455.17929187089538
 20
412.1118107456781
 30
0.0
 11
454.58191887089538
 21
411.66506974567812
 31
0.0
 12
454.98726287089562
 22
411.65680374567768
 32
0.0
 13
454.98726287089562
 23
411.65680374567768
 33
0.0
  0
SOLID
  5
6A09
  8
WAKU
  6
CONTINUOUS
 10
454.58191887089538
 20
411.66506974567812
 30
0.0
 11
454.49707587089512
 21
411.234914745678
 31
0.0
 12
454.98726287089562
 22
411.65680374567768
 32
0.0
 13
454.98726287089562
 23
411.65680374567768
 33
0.0
  0
SOLID
  5
6A0A
  8
WAKU
  6
CONTINUOUS
 10
454.98726287089562
 20
411.65680374567768
 30
0.0
 11
454.49707587089512
 21
411.234914745678
 31
0.0
 12
454.89146887089561
 22
411.26118674567829
 32
0.0
 13
454.89146887089561
 23
411.26118674567829
 33
0.0
  0
SOLID
  5
6A0B
  8
WAKU
  6
CONTINUOUS
 10
454.89146887089561
 20
411.26118674567829
 30
0.0
 11
454.49707587089512
 21
411.234914745678
 31
0.0
 12
454.88613087089561
 22
410.95386974567799
 32
0.0
 13
454.88613087089561
 23
410.95386974567799
 33
0.0
  0
SOLID
  5
6A0C
  8
WAKU
  6
CONTINUOUS
 10
454.49707587089512
 20
411.234914745678
 30
0.0
 11
454.50698787089561
 21
410.85971074567772
 31
0.0
 12
454.88613087089561
 22
410.95386974567799
 32
0.0
 13
454.88613087089561
 23
410.95386974567799
 33
0.0
  0
SOLID
  5
6A0D
  8
WAKU
  6
CONTINUOUS
 10
454.88613087089561
 20
410.95386974567799
 30
0.0
 11
454.50698787089561
 21
410.85971074567772
 31
0.0
 12
454.94492787089558
 22
410.75321774567772
 32
0.0
 13
454.94492787089558
 23
410.75321774567772
 33
0.0
  0
SOLID
  5
6A0E
  8
WAKU
  6
CONTINUOUS
 10
454.50698787089561
 20
410.85971074567772
 30
0.0
 11
454.61129087089557
 21
410.55323674567768
 31
0.0
 12
454.94492787089558
 22
410.75321774567772
 32
0.0
 13
454.94492787089558
 23
410.75321774567772
 33
0.0
  0
SOLID
  5
6A0F
  8
WAKU
  6
CONTINUOUS
 10
454.94492787089558
 20
410.75321774567772
 30
0.0
 11
454.61129087089557
 21
410.55323674567768
 31
0.0
 12
455.04307787089562
 22
410.63471774567802
 32
0.0
 13
455.04307787089562
 23
410.63471774567802
 33
0.0
  0
SOLID
  5
6A10
  8
WAKU
  6
CONTINUOUS
 10
455.04307787089562
 20
410.63471774567802
 30
0.0
 11
454.61129087089557
 21
410.55323674567768
 31
0.0
 12
455.42868387089538
 22
410.53263874567813
 32
0.0
 13
455.42868387089538
 23
410.53263874567813
 33
0.0
  0
SOLID
  5
6A11
  8
WAKU
  6
CONTINUOUS
 10
454.61129087089557
 20
410.55323674567768
 30
0.0
 11
454.80615387089563
 21
410.32675174567822
 31
0.0
 12
455.42868387089538
 22
410.53263874567813
 32
0.0
 13
455.42868387089538
 23
410.53263874567813
 33
0.0
  0
LINE
  5
6A12
  8
WAKU
  6
CONTINUOUS
 10
454.61129087089557
 20
410.55323674567768
 30
0.0
 11
454.80615387089563
 21
410.32675174567822
 31
0.0
  0
LINE
  5
6A13
  8
WAKU
  6
CONTINUOUS
 10
454.75839987089557
 20
412.13437574567752
 30
0.0
 11
454.58191887089453
 21
411.66506974567727
 31
0.0
  0
SOLID
  5
6A14
  8
WAKU
  6
CONTINUOUS
 10
457.45795387089561
 20
413.57977374567821
 30
0.0
 11
456.76140487089538
 21
413.50491074567771
 31
0.0
 12
456.80159987089559
 22
413.00567574567771
 32
0.0
 13
456.80159987089559
 23
413.00567574567771
 33
0.0
  0
SOLID
  5
6A15
  8
WAKU
  6
CONTINUOUS
 10
456.76140487089538
 20
413.50491074567771
 30
0.0
 11
456.30249287089578
 21
413.0459567456781
 31
0.0
 12
456.80159987089559
 22
413.00567574567771
 32
0.0
 13
456.80159987089559
 23
413.00567574567771
 33
0.0
  0
LINE
  5
6A16
  8
WAKU
  6
CONTINUOUS
 10
456.76140487089452
 20
413.50491074567771
 30
0.0
 11
456.30249287089561
 21
413.04595674567759
 31
0.0
  0
LINE
  5
6A17
  8
WAKU
  6
CONTINUOUS
 10
457.45795387089561
 20
413.57977374567758
 30
0.0
 11
456.80159987089559
 21
413.00567574567771
 31
0.0
  0
SOLID
  5
6A18
  8
WAKU
  6
CONTINUOUS
 10
457.94213587089558
 20
411.40695374567758
 30
0.0
 11
457.24571287089589
 21
411.33221374567819
 31
0.0
 12
457.45000487089561
 22
410.99888174567798
 32
0.0
 13
457.45000487089561
 23
410.99888174567798
 33
0.0
  0
SOLID
  5
6A19
  8
WAKU
  6
CONTINUOUS
 10
457.24571287089589
 20
411.33221374567819
 30
0.0
 11
456.56803587089581
 21
410.8911147456771
 31
0.0
 12
457.45000487089561
 22
410.99888174567798
 32
0.0
 13
457.45000487089561
 23
410.99888174567798
 33
0.0
  0
SOLID
  5
6A1A
  8
WAKU
  6
CONTINUOUS
 10
457.45000487089561
 20
410.99888174567798
 30
0.0
 11
456.56803587089581
 21
410.8911147456771
 31
0.0
 12
456.94354287089539
 22
410.65732774567817
 32
0.0
 13
456.94354287089539
 23
410.65732774567817
 33
0.0
  0
SOLID
  5
6A1B
  8
WAKU
  6
CONTINUOUS
 10
457.49326987089557
 20
410.56689974567769
 30
0.0
 11
457.00765487089518
 21
410.28358074567751
 31
0.0
 12
458.01652887089563
 22
410.46137774567819
 32
0.0
 13
458.01652887089563
 23
410.46137774567819
 33
0.0
  0
SOLID
  5
6A1C
  8
WAKU
  6
CONTINUOUS
 10
458.01652887089563
 20
410.46137774567819
 30
0.0
 11
457.00765487089518
 21
410.28358074567751
 31
0.0
 12
457.52143887089562
 22
410.1241937456781
 32
0.0
 13
457.52143887089562
 23
410.1241937456781
 33
0.0
  0
SOLID
  5
6A1D
  8
WAKU
  6
CONTINUOUS
 10
457.00765487089518
 20
410.28358074567751
 30
0.0
 11
456.55275687089471
 21
410.09115074567819
 31
0.0
 12
457.52143887089562
 22
410.1241937456781
 32
0.0
 13
457.52143887089562
 23
410.1241937456781
 33
0.0
  0
SOLID
  5
6A1E
  8
WAKU
  6
CONTINUOUS
 10
457.52143887089562
 20
410.1241937456781
 30
0.0
 11
456.55275687089471
 21
410.09115074567819
 31
0.0
 12
457.03022087089562
 22
409.86255574567809
 32
0.0
 13
457.03022087089562
 23
409.86255574567809
 33
0.0
  0
LINE
  5
6A1F
  8
WAKU
  6
CONTINUOUS
 10
457.24571287089441
 20
411.33221374567728
 30
0.0
 11
457.90206887089562
 21
411.90628874567761
 31
0.0
  0
LINE
  5
6A20
  8
WAKU
  6
CONTINUOUS
 10
456.94354287089448
 20
410.65732774567772
 30
0.0
 11
457.45000487089561
 21
410.99888174567792
 31
0.0
  0
LINE
  5
6A21
  8
WAKU
  6
CONTINUOUS
 10
457.03022087089471
 20
409.86255574567758
 30
0.0
 11
457.52143887089522
 21
410.1241937456777
 31
0.0
  0
LINE
  5
6A22
  8
WAKU
  6
CONTINUOUS
 10
457.00765487089518
 20
410.28358074567751
 30
0.0
 11
457.49326987089512
 21
410.56689974567769
 31
0.0
  0
SOLID
  5
6A23
  8
WAKU
  6
CONTINUOUS
 10
456.55275687089471
 20
410.09115074567819
 30
0.0
 11
456.15706687089562
 21
409.99564574567802
 31
0.0
 12
457.03022087089562
 22
409.86255574567809
 32
0.0
 13
457.03022087089562
 23
409.86255574567809
 33
0.0
  0
LINE
  5
6A24
  8
WAKU
  6
CONTINUOUS
 10
456.15706687089562
 20
409.99564574567768
 30
0.0
 11
456.55275687089562
 21
410.09115074567768
 31
0.0
  0
LINE
  5
6A25
  8
WAKU
  6
CONTINUOUS
 10
455.96523087089503
 20
410.22317974567801
 30
0.0
 11
456.4422008708944
 21
410.3954077456782
 31
0.0
  0
LINE
  5
6A26
  8
WAKU
  6
CONTINUOUS
 10
456.4422008708944
 20
410.3954077456782
 30
0.0
 11
456.94354287089448
 21
410.65732774567772
 31
0.0
  0
LINE
  5
6A27
  8
WAKU
  6
CONTINUOUS
 10
456.5609148708956
 20
409.68607374567802
 30
0.0
 11
457.03022087089471
 21
409.86255574567758
 31
0.0
  0
LINE
  5
6A28
  8
WAKU
  6
CONTINUOUS
 10
456.56803587089507
 20
410.8911147456771
 30
0.0
 11
457.24571287089441
 21
411.33221374567728
 31
0.0
  0
LINE
  5
6A29
  8
WAKU
  6
CONTINUOUS
 10
456.55275687089562
 20
410.09115074567768
 30
0.0
 11
457.00765487089518
 21
410.28358074567751
 31
0.0
  0
LINE
  5
6A2A
  8
WAKU
  6
CONTINUOUS
 10
456.13075987089508
 20
409.60123174567792
 30
0.0
 11
456.5609148708956
 21
409.68607374567802
 31
0.0
  0
LINE
  5
6A2B
  8
WAKU
  6
CONTINUOUS
 10
456.80159987089559
 20
413.00567574567771
 30
0.0
 11
456.22766887089512
 21
412.34925374567808
 31
0.0
  0
LINE
  5
6A2C
  8
WAKU
  6
CONTINUOUS
 10
457.52143887089522
 20
410.1241937456777
 30
0.0
 11
458.01652887089563
 21
410.46137774567751
 31
0.0
  0
LINE
  5
6A2D
  8
WAKU
  6
CONTINUOUS
 10
457.45000487089561
 20
410.99888174567792
 30
0.0
 11
457.9421358708953
 21
411.40695374567758
 31
0.0
  0
SOLID
  5
6A2E
  8
WAKU
  6
CONTINUOUS
 10
458.15091287089592
 20
414.82084774567818
 30
0.0
 11
457.18223687089562
 21
414.78779274567802
 31
0.0
 12
457.69600787089507
 22
414.6283677456783
 32
0.0
 13
457.69600787089507
 23
414.6283677456783
 33
0.0
  0
SOLID
  5
6A2F
  8
WAKU
  6
CONTINUOUS
 10
457.18223687089562
 20
414.78779274567802
 30
0.0
 11
456.68714687089539
 21
414.4506087456781
 31
0.0
 12
457.69600787089507
 22
414.6283677456783
 32
0.0
 13
457.69600787089507
 23
414.6283677456783
 33
0.0
  0
SOLID
  5
6A30
  8
WAKU
  6
CONTINUOUS
 10
457.69600787089507
 20
414.6283677456783
 30
0.0
 11
456.68714687089539
 21
414.4506087456781
 31
0.0
 12
457.21035987089562
 22
414.34506674567808
 32
0.0
 13
457.21035987089562
 23
414.34506674567808
 33
0.0
  0
SOLID
  5
6A31
  8
WAKU
  6
CONTINUOUS
 10
457.76004187089558
 20
414.25460374567729
 30
0.0
 11
457.25355587089558
 21
413.91301774567802
 31
0.0
 12
458.13565087089569
 22
414.02083974567768
 32
0.0
 13
458.13565087089569
 23
414.02083974567768
 33
0.0
  0
LINE
  5
6A32
  8
WAKU
  6
CONTINUOUS
 10
457.69600787089507
 20
414.62836774567711
 30
0.0
 11
457.21035987089562
 21
414.34506674567729
 31
0.0
  0
LINE
  5
6A33
  8
WAKU
  6
CONTINUOUS
 10
457.76004187089518
 20
414.25460374567729
 30
0.0
 11
457.25355587089558
 21
413.91301774567768
 31
0.0
  0
LINE
  5
6A34
  8
WAKU
  6
CONTINUOUS
 10
457.67345587089471
 20
415.0494307456778
 30
0.0
 11
457.18223687089471
 21
414.78779274567802
 31
0.0
  0
SOLID
  5
6A35
  8
WAKU
  6
CONTINUOUS
 10
458.13565087089569
 20
414.02083974567768
 30
0.0
 11
457.25355587089558
 21
413.91301774567802
 31
0.0
 12
457.45795387089561
 22
413.57977374567821
 32
0.0
 13
457.45795387089561
 23
413.57977374567821
 33
0.0
  0
SOLID
  5
6A36
  8
WAKU
  6
CONTINUOUS
 10
457.25355587089558
 20
413.91301774567802
 30
0.0
 11
456.76140487089538
 21
413.50491074567771
 31
0.0
 12
457.45795387089561
 22
413.57977374567821
 32
0.0
 13
457.45795387089561
 23
413.57977374567821
 33
0.0
  0
SOLID
  5
6A37
  8
WAKU
  6
CONTINUOUS
 10
456.68714687089539
 20
414.4506087456781
 30
0.0
 11
456.20637187089562
 21
414.05026274567751
 31
0.0
 12
457.21035987089562
 22
414.34506674567808
 32
0.0
 13
457.21035987089562
 23
414.34506674567808
 33
0.0
  0
LINE
  5
6A38
  8
WAKU
  6
CONTINUOUS
 10
456.68714687089539
 20
414.4506087456781
 30
0.0
 11
456.20637187089523
 21
414.05026274567729
 31
0.0
  0
LINE
  5
6A39
  8
WAKU
  6
CONTINUOUS
 10
457.18223687089471
 20
414.78779274567802
 30
0.0
 11
456.68714687089539
 21
414.4506087456781
 31
0.0
  0
SOLID
  5
6A3A
  8
WAKU
  6
CONTINUOUS
 10
457.21035987089562
 20
414.34506674567808
 30
0.0
 11
456.20637187089562
 21
414.05026274567751
 31
0.0
 12
456.25187087089569
 22
413.55589074567808
 32
0.0
 13
456.25187087089569
 23
413.55589074567808
 33
0.0
  0
LINE
  5
6A3B
  8
WAKU
  6
CONTINUOUS
 10
457.25355587089558
 20
413.91301774567768
 30
0.0
 11
456.76140487089452
 21
413.50491074567771
 31
0.0
  0
LINE
  5
6A3C
  8
WAKU
  6
CONTINUOUS
 10
457.21035987089562
 20
414.34506674567729
 30
0.0
 11
456.25187087089512
 21
413.55589074567729
 31
0.0
  0
LINE
  5
6A3D
  8
WAKU
  6
CONTINUOUS
 10
458.15091287089592
 20
414.82084774567818
 30
0.0
 11
457.69600787089507
 21
414.62836774567711
 31
0.0
  0
LINE
  5
6A3E
  8
WAKU
  6
CONTINUOUS
 10
458.14276087089462
 20
415.22591174567771
 30
0.0
 11
457.67345587089471
 21
415.0494307456778
 31
0.0
  0
LINE
  5
6A3F
  8
WAKU
  6
CONTINUOUS
 10
458.13565087089512
 20
414.02083974567768
 30
0.0
 11
457.45795387089561
 21
413.57977374567758
 31
0.0
  0
SOLID
  5
6A40
  8
WAKU
  6
CONTINUOUS
 10
457.90206887089562
 20
411.90628874567801
 30
0.0
 11
457.24571287089589
 21
411.33221374567819
 31
0.0
 12
458.40103887089572
 22
411.86587174567808
 32
0.0
 13
458.40103887089572
 23
411.86587174567808
 33
0.0
  0
SOLID
  5
6A41
  8
WAKU
  6
CONTINUOUS
 10
458.40103887089572
 20
411.86587174567808
 30
0.0
 11
457.24571287089589
 21
411.33221374567819
 31
0.0
 12
457.94213587089558
 22
411.40695374567758
 32
0.0
 13
457.94213587089558
 23
411.40695374567758
 33
0.0
  0
SOLID
  5
6A42
  8
WAKU
  6
CONTINUOUS
 10
458.47601087089538
 20
412.56270274567771
 30
0.0
 11
457.90206887089562
 21
411.90628874567801
 31
0.0
 12
458.80908887089561
 22
412.35801174567769
 32
0.0
 13
458.80908887089561
 23
412.35801174567769
 33
0.0
  0
SOLID
  5
6A43
  8
WAKU
  6
CONTINUOUS
 10
458.80908887089561
 20
412.35801174567769
 30
0.0
 11
457.90206887089562
 21
411.90628874567801
 31
0.0
 12
458.40103887089572
 22
411.86587174567808
 32
0.0
 13
458.40103887089572
 23
411.86587174567808
 33
0.0
  0
SOLID
  5
6A44
  8
WAKU
  6
CONTINUOUS
 10
458.49730487089562
 20
410.86172374567798
 30
0.0
 11
457.49326987089557
 21
410.56689974567769
 31
0.0
 12
458.01652887089563
 22
410.46137774567819
 32
0.0
 13
458.01652887089563
 23
410.46137774567819
 33
0.0
  0
LINE
  5
6A45
  8
WAKU
  6
CONTINUOUS
 10
457.9421358708953
 20
411.40695374567758
 30
0.0
 11
458.40103887089452
 21
411.86587174567728
 31
0.0
  0
LINE
  5
6A46
  8
WAKU
  6
CONTINUOUS
 10
457.49326987089512
 20
410.56689974567769
 30
0.0
 11
458.45173787089448
 21
411.35601474567773
 31
0.0
  0
LINE
  5
6A47
  8
WAKU
  6
CONTINUOUS
 10
458.01652887089563
 20
410.46137774567751
 30
0.0
 11
458.49730487089522
 21
410.8617237456773
 31
0.0
  0
LINE
  5
6A48
  8
WAKU
  6
CONTINUOUS
 10
457.90206887089562
 20
411.90628874567761
 30
0.0
 11
458.47601087089453
 21
412.56270274567771
 31
0.0
  0
SOLID
  5
6A49
  8
WAKU
  6
CONTINUOUS
 10
457.67345587089562
 20
415.0494307456778
 30
0.0
 11
457.18223687089562
 21
414.78779274567802
 31
0.0
 12
458.54662987089472
 22
414.9163637456781
 32
0.0
 13
458.54662987089472
 23
414.9163637456781
 33
0.0
  0
SOLID
  5
6A4A
  8
WAKU
  6
CONTINUOUS
 10
458.54662987089472
 20
414.9163637456781
 30
0.0
 11
457.18223687089562
 21
414.78779274567802
 31
0.0
 12
458.15091287089592
 22
414.82084774567818
 32
0.0
 13
458.15091287089592
 23
414.82084774567818
 33
0.0
  0
SOLID
  5
6A4B
  8
WAKU
  6
CONTINUOUS
 10
457.67345587089562
 20
415.0494307456778
 30
0.0
 11
458.54662987089472
 21
414.9163637456781
 31
0.0
 12
458.85376887089592
 22
414.92168474567819
 32
0.0
 13
458.85376887089592
 23
414.92168474567819
 33
0.0
  0
SOLID
  5
6A4C
  8
WAKU
  6
CONTINUOUS
 10
458.76651087089539
 20
414.2920227456782
 30
0.0
 11
457.76004187089558
 21
414.25460374567729
 31
0.0
 12
458.13565087089569
 22
414.02083974567768
 32
0.0
 13
458.13565087089569
 23
414.02083974567768
 33
0.0
  0
LINE
  5
6A4D
  8
WAKU
  6
CONTINUOUS
 10
458.76651087089539
 20
414.2920227456778
 30
0.0
 11
458.13565087089512
 21
414.02083974567768
 31
0.0
  0
LINE
  5
6A4E
  8
WAKU
  6
CONTINUOUS
 10
458.54662987089472
 20
414.91636374567759
 30
0.0
 11
458.15091287089592
 21
414.82084774567818
 31
0.0
  0
LINE
  5
6A4F
  8
WAKU
  6
CONTINUOUS
 10
458.57291587089509
 20
415.3107547456778
 30
0.0
 11
458.14276087089462
 21
415.22591174567771
 31
0.0
  0
LINE
  5
6A50
  8
WAKU
  6
CONTINUOUS
 10
458.26141187089507
 20
414.51655074567719
 30
0.0
 11
457.76004187089518
 21
414.25460374567729
 31
0.0
  0
SOLID
  5
6A51
  8
WAKU
  6
CONTINUOUS
 10
458.45173787089561
 20
411.35601474567773
 30
0.0
 11
457.49326987089557
 21
410.56689974567769
 31
0.0
 12
458.94610787089562
 22
411.3105267456782
 32
0.0
 13
458.94610787089562
 23
411.3105267456782
 33
0.0
  0
SOLID
  5
6A52
  8
WAKU
  6
CONTINUOUS
 10
458.94610787089562
 20
411.3105267456782
 30
0.0
 11
457.49326987089557
 21
410.56689974567769
 31
0.0
 12
458.49730487089562
 22
410.86172374567798
 32
0.0
 13
458.49730487089562
 23
410.86172374567798
 33
0.0
  0
SOLID
  5
6A53
  8
WAKU
  6
CONTINUOUS
 10
458.57291587089588
 20
415.3107547456782
 30
0.0
 11
458.14276087089559
 21
415.22591174567799
 31
0.0
 12
458.94812087089508
 22
415.30084274567798
 32
0.0
 13
458.94812087089508
 23
415.30084274567798
 33
0.0
  0
SOLID
  5
6A54
  8
WAKU
  6
CONTINUOUS
 10
458.94812087089508
 20
415.30084274567798
 30
0.0
 11
458.14276087089559
 21
415.22591174567799
 31
0.0
 12
459.25459387089558
 22
415.19653974567802
 32
0.0
 13
459.25459387089558
 23
415.19653974567802
 33
0.0
  0
SOLID
  5
6A55
  8
WAKU
  6
CONTINUOUS
 10
458.14276087089559
 20
415.22591174567799
 30
0.0
 11
457.67345587089562
 21
415.0494307456778
 31
0.0
 12
459.25459387089558
 22
415.19653974567802
 32
0.0
 13
459.25459387089558
 23
415.19653974567802
 33
0.0
  0
SOLID
  5
6A56
  8
WAKU
  6
CONTINUOUS
 10
458.26141187089547
 20
414.5165507456777
 30
0.0
 11
457.76004187089558
 21
414.25460374567729
 31
0.0
 12
459.27500187089538
 22
414.37935174567758
 32
0.0
 13
459.27500187089538
 23
414.37935174567758
 33
0.0
  0
SOLID
  5
6A57
  8
WAKU
  6
CONTINUOUS
 10
459.27500187089538
 20
414.37935174567758
 30
0.0
 11
457.76004187089558
 21
414.25460374567729
 31
0.0
 12
458.76651087089539
 22
414.2920227456782
 32
0.0
 13
458.76651087089539
 23
414.2920227456782
 33
0.0
  0
SOLID
  5
6A58
  8
WAKU
  6
CONTINUOUS
 10
459.25459387089558
 20
415.19653974567802
 30
0.0
 11
457.67345587089562
 21
415.0494307456778
 31
0.0
 12
459.48107887089571
 22
415.00167774567819
 32
0.0
 13
459.48107887089571
 23
415.00167774567819
 33
0.0
  0
SOLID
  5
6A59
  8
WAKU
  6
CONTINUOUS
 10
457.67345587089562
 20
415.0494307456778
 30
0.0
 11
458.85376887089592
 21
414.92168474567819
 31
0.0
 12
459.48107887089571
 22
415.00167774567819
 32
0.0
 13
459.48107887089571
 23
415.00167774567819
 33
0.0
  0
SOLID
  5
6A5A
  8
WAKU
  6
CONTINUOUS
 10
465.56708587089571
 20
414.857705745678
 30
0.0
 11
462.41097787089558
 21
412.27309074567802
 31
0.0
 12
465.74943987089569
 22
412.27309074567802
 32
0.0
 13
465.74943987089569
 23
412.27309074567802
 33
0.0
  0
LINE
  5
6A5B
  8
WAKU
  6
CONTINUOUS
 10
465.56708587089503
 20
414.85770574567772
 30
0.0
 11
462.41097787089518
 21
412.27309074567768
 31
0.0
  0
SOLID
  5
6A5C
  8
WAKU
  6
CONTINUOUS
 10
465.74943987089569
 20
412.27309074567802
 30
0.0
 11
462.41097787089558
 21
412.27309074567802
 31
0.0
 12
464.65291787089558
 22
412.219244745678
 32
0.0
 13
464.65291787089558
 23
412.219244745678
 33
0.0
  0
SOLID
  5
6A5D
  8
WAKU
  6
CONTINUOUS
 10
462.41097787089558
 20
412.27309074567802
 30
0.0
 11
461.4310578708953
 21
409.58078274567771
 31
0.0
 12
464.65291787089558
 22
412.219244745678
 32
0.0
 13
464.65291787089558
 23
412.219244745678
 33
0.0
  0
LINE
  5
6A5E
  8
WAKU
  6
CONTINUOUS
 10
464.65291787089512
 20
412.219244745678
 30
0.0
 11
461.4310578708953
 21
409.58078274567771
 31
0.0
  0
LINE
  5
6A5F
  8
WAKU
  6
CONTINUOUS
 10
468.3233658708956
 20
409.58078274567771
 30
0.0
 11
473.70798087089503
 21
409.58078274567771
 31
0.0
  0
SOLID
  5
6A60
  8
WAKU
  6
CONTINUOUS
 10
470.87115787089562
 20
416.5807827456776
 30
0.0
 11
470.2440088708953
 21
414.857705745678
 31
0.0
 12
475.62862387089592
 22
414.857705745678
 32
0.0
 13
475.62862387089592
 23
414.857705745678
 33
0.0
  0
SOLID
  5
6A61
  8
WAKU
  6
CONTINUOUS
 10
469.1073018708957
 20
411.73462874567758
 30
0.0
 11
468.3233658708956
 21
409.58078274567771
 31
0.0
 12
474.49191687089569
 22
411.73462874567758
 32
0.0
 13
474.49191687089569
 23
411.73462874567758
 33
0.0
  0
SOLID
  5
6A62
  8
WAKU
  6
CONTINUOUS
 10
474.49191687089569
 20
411.73462874567758
 30
0.0
 11
468.3233658708956
 21
409.58078274567771
 31
0.0
 12
473.70798087089508
 22
409.58078274567771
 32
0.0
 13
473.70798087089508
 23
409.58078274567771
 33
0.0
  0
LINE
  5
6A63
  8
WAKU
  6
CONTINUOUS
 10
469.10730187089513
 20
411.73462874567758
 30
0.0
 11
474.49191687089473
 21
411.73462874567758
 31
0.0
  0
LINE
  5
6A64
  8
WAKU
  6
CONTINUOUS
 10
470.2440088708953
 20
414.85770574567772
 30
0.0
 11
475.62862387089513
 21
414.85770574567772
 31
0.0
  0
SOLID
  5
6A65
  8
WAKU
  6
CONTINUOUS
 10
476.25577287089561
 20
416.5807827456776
 30
0.0
 11
470.87115787089562
 21
416.5807827456776
 31
0.0
 12
475.62862387089592
 22
414.857705745678
 32
0.0
 13
475.62862387089592
 23
414.857705745678
 33
0.0
  0
LINE
  5
6A66
  8
WAKU
  6
CONTINUOUS
 10
470.87115787089562
 20
416.5807827456776
 30
0.0
 11
476.2557728708951
 21
416.5807827456776
 31
0.0
  0
LINE
  5
6A67
  8
WAKU
  6
CONTINUOUS
 10
453.22704887089509
 20
416.5807827456776
 30
0.0
 11
453.22704887089509
 21
412.3030047456777
 31
0.0
  0
SOLID
  5
6A68
  8
WAKU
  6
CONTINUOUS
 10
457.50482587089562
 20
416.5807827456776
 30
0.0
 11
453.22704887089571
 21
416.5807827456776
 31
0.0
 12
453.22704887089571
 22
412.3030047456777
 32
0.0
 13
453.22704887089571
 23
412.3030047456777
 33
0.0
  0
LINE
  5
6A69
  8
WAKU
  6
CONTINUOUS
 10
453.22704887089509
 20
412.3030047456777
 30
0.0
 11
457.50482587089562
 21
416.5807827456776
 31
0.0
  0
LINE
  5
6A6A
  8
WAKU
  6
CONTINUOUS
 10
453.22704887089509
 20
416.5807827456776
 30
0.0
 11
457.50482587089562
 21
416.5807827456776
 31
0.0
  0
LINE
  5
6A6B
  8
WAKU
  6
CONTINUOUS
 10
490.5384668708956
 20
412.9192447456777
 30
0.0
 11
493.76923587089539
 21
412.9192447456777
 31
0.0
  0
SOLID
  5
6A6C
  8
WAKU
  6
CONTINUOUS
 10
491.87115787089567
 20
416.5807827456776
 30
0.0
 11
491.24400887089558
 21
414.857705745678
 31
0.0
 12
494.47477787089508
 22
414.857705745678
 32
0.0
 13
494.47477787089508
 23
414.857705745678
 33
0.0
  0
SOLID
  5
6A6D
  8
WAKU
  6
CONTINUOUS
 10
494.23959687089558
 20
414.21155174567798
 30
0.0
 11
491.00882787089557
 21
414.21155174567798
 31
0.0
 12
493.76923587089561
 22
412.91924474567821
 32
0.0
 13
493.76923587089561
 23
412.91924474567821
 33
0.0
  0
SOLID
  5
6A6E
  8
WAKU
  6
CONTINUOUS
 10
494.70798087089508
 20
409.58078274567771
 30
0.0
 11
494.41499387089561
 21
411.73462874567758
 31
0.0
 12
490.10730187089558
 22
411.73462874567758
 32
0.0
 13
490.10730187089558
 23
411.73462874567758
 33
0.0
  0
SOLID
  5
6A6F
  8
WAKU
  6
CONTINUOUS
 10
490.10730187089558
 20
411.73462874567758
 30
0.0
 11
489.3233658708956
 21
409.58078274567771
 31
0.0
 12
494.70798087089508
 22
409.58078274567771
 32
0.0
 13
494.70798087089508
 23
409.58078274567771
 33
0.0
  0
LINE
  5
6A70
  8
WAKU
  6
CONTINUOUS
 10
494.70798087089508
 20
409.58078274567771
 30
0.0
 11
489.3233658708956
 21
409.58078274567771
 31
0.0
  0
LINE
  5
6A71
  8
WAKU
  6
CONTINUOUS
 10
490.10730187089513
 20
411.73462874567758
 30
0.0
 11
494.41499387089561
 21
411.73462874567758
 31
0.0
  0
LINE
  5
6A72
  8
WAKU
  6
CONTINUOUS
 10
491.2440088708953
 20
414.85770574567772
 30
0.0
 11
494.47477787089508
 21
414.85770574567772
 31
0.0
  0
LINE
  5
6A73
  8
WAKU
  6
CONTINUOUS
 10
491.00882787089557
 20
414.2115517456777
 30
0.0
 11
494.2395968708953
 21
414.2115517456777
 31
0.0
  0
SOLID
  5
6A74
  8
WAKU
  6
CONTINUOUS
 10
494.47477787089508
 20
414.857705745678
 30
0.0
 11
495.10192687089562
 21
416.5807827456776
 31
0.0
 12
491.87115787089567
 22
416.5807827456776
 32
0.0
 13
491.87115787089567
 23
416.5807827456776
 33
0.0
  0
LINE
  5
6A75
  8
WAKU
  6
CONTINUOUS
 10
491.87115787089567
 20
416.5807827456776
 30
0.0
 11
495.10192687089511
 21
416.5807827456776
 31
0.0
  0
SOLID
  5
6A76
  8
WAKU
  6
CONTINUOUS
 10
491.00882787089557
 20
414.21155174567798
 30
0.0
 11
490.5384668708956
 21
412.91924474567821
 31
0.0
 12
493.76923587089561
 22
412.91924474567821
 32
0.0
 13
493.76923587089561
 23
412.91924474567821
 33
0.0
  0
LINE
  5
6A77
  8
WAKU
 10
506.89863881456068
 20
417.8041926488375
 30
0.0
 11
506.89863881456068
 21
28.29526935608077
 31
0.0
  0
TEXT
  5
6A78
  8
WAKU
 10
75.69258251726535
 20
409.98884751032978
 30
0.0
 40
5.0
  1
FIX窓面付け枠（ガラス溝幅30ｍｍ）断面詳細図
  7
MX_NOTE_STANDARD
 11
75.69258251726535
 21
412.48884751032978
 31
0.0
 73
     2
  0
TEXT
  5
6A79
  8
WAKU
 10
36.524425493660559
 20
411.37675236086397
 30
0.0
 40
3.0
  1
FP-AT70
 41
0.8679999999999999
  7
MX_NOTE_STANDARD
 11
36.524425493660559
 21
412.87675236086397
 31
0.0
 73
     2
  0
LINE
  5
6A7A
  8
WAKU
 10
31.524425493660821
 20
417.87675236086369
 30
0.0
 11
31.524425493660821
 21
28.367829068107071
 31
0.0
  0
LINE
  5
6A7B
  8
WAKU
 10
31.524425493660821
 20
28.367829068107071
 30
0.0
 11
506.89863881456068
 21
28.29526935608077
 31
0.0
  0
LINE
  5
6A7C
  8
WAKU
 10
31.524425493660821
 20
407.87675236086397
 30
0.0
 11
506.89863881456068
 21
407.80419264883761
 31
0.0
  0
LINE
  5
6A7D
  8
WAKU
 10
31.524425493660821
 20
417.87675236086369
 30
0.0
 11
506.89863881456068
 21
417.8041926488375
 31
0.0
  0
POLYLINE
  5
6A7E
  8
SUNPO
  6
BYBLOCK
 66
     1
 10
0.0
 20
0.0
 30
0.0
 70
     1
 40
1.159999999999999
 41
1.159999999999999
  0
VERTEX
  5
713D
  8
SUNPO
  6
BYBLOCK
 10
203.74845943610771
 20
123.0421311205307
 30
0.0
 42
1.0
  0
VERTEX
  5
713E
  8
SUNPO
  6
BYBLOCK
 10
203.74845943610771
 20
122.75213112053071
 30
0.0
 42
1.0
  0
SEQEND
  5
713F
  8
SUNPO
  6
BYBLOCK
  0
TEXT
  5
6A82
  8
SUNPO
  6
CONTINUOUS
 10
203.24845943610771
 20
151.02213112053059
 30
0.0
 40
2.5
  1
60
 50
90.0
  7
MX_NOTE_STANDARD
  0
POLYLINE
  5
6A83
  8
SUNPO
  6
BYBLOCK
 66
     1
 10
0.0
 20
0.0
 30
0.0
 70
     1
 40
1.159999999999999
 41
1.159999999999999
  0
VERTEX
  5
7140
  8
SUNPO
  6
BYBLOCK
 10
63.748459436107858
 20
182.75188697990569
 30
0.0
 42
1.0
  0
VERTEX
  5
7141
  8
SUNPO
  6
BYBLOCK
 10
63.748459436107858
 20
183.04188697990571
 30
0.0
 42
1.0
  0
SEQEND
  5
7142
  8
SUNPO
  6
BYBLOCK
  0
POLYLINE
  5
6A87
  8
SUNPO
  6
BYBLOCK
 66
     1
 10
0.0
 20
0.0
 30
0.0
 70
     1
 40
1.159999999999999
 41
1.159999999999999
  0
VERTEX
  5
7143
  8
SUNPO
  6
BYBLOCK
 10
63.748459436107858
 20
138.04213112053071
 30
0.0
 42
1.0
  0
VERTEX
  5
7144
  8
SUNPO
  6
BYBLOCK
 10
63.748459436107858
 20
137.75213112053061
 30
0.0
 42
1.0
  0
SEQEND
  5
7145
  8
SUNPO
  6
BYBLOCK
  0
TEXT
  5
6A8B
  8
SUNPO
  6
CONTINUOUS
 10
63.248459436107851
 20
158.31379778719719
 30
0.0
 40
2.5
  1
45
 50
90.0
  7
MX_NOTE_STANDARD
  0
POLYLINE
  5
6A8C
  8
SUNPO
  6
BYBLOCK
 66
     1
 10
0.0
 20
0.0
 30
0.0
 70
     1
 40
1.159999999999999
 41
1.159999999999999
  0
VERTEX
  5
7146
  8
SUNPO
  6
BYBLOCK
 10
63.748459436107858
 20
137.75213112053061
 30
0.0
 42
1.0
  0
VERTEX
  5
7147
  8
SUNPO
  6
BYBLOCK
 10
63.748459436107858
 20
138.04213112053071
 30
0.0
 42
1.0
  0
SEQEND
  5
7148
  8
SUNPO
  6
BYBLOCK
  0
POLYLINE
  5
6A90
  8
SUNPO
  6
BYBLOCK
 66
     1
 10
0.0
 20
0.0
 30
0.0
 70
     1
 40
1.159999999999999
 41
1.159999999999999
  0
VERTEX
  5
7149
  8
SUNPO
  6
BYBLOCK
 10
63.748459436107858
 20
123.0421311205307
 30
0.0
 42
1.0
  0
VERTEX
  5
714A
  8
SUNPO
  6
BYBLOCK
 10
63.748459436107858
 20
122.75213112053071
 30
0.0
 42
1.0
  0
SEQEND
  5
714B
  8
SUNPO
  6
BYBLOCK
  0
TEXT
  5
6A94
  8
SUNPO
  6
CONTINUOUS
 10
63.248459436107851
 20
128.73046445386399
 30
0.0
 40
2.5
  1
15
 50
90.0
  7
MX_NOTE_STANDARD
  0
POLYLINE
  5
6A95
  8
SUNPO
  6
BYBLOCK
 66
     1
 10
0.0
 20
0.0
 30
0.0
 70
     1
 40
1.159999999999999
 41
1.159999999999999
  0
VERTEX
  5
714C
  8
SUNPO
  6
BYBLOCK
 10
63.748459436107858
 20
122.75213112053071
 30
0.0
 42
1.0
  0
VERTEX
  5
714D
  8
SUNPO
  6
BYBLOCK
 10
63.748459436107858
 20
123.0421311205307
 30
0.0
 42
1.0
  0
SEQEND
  5
714E
  8
SUNPO
  6
BYBLOCK
  0
POLYLINE
  5
6A99
  8
SUNPO
  6
BYBLOCK
 66
     1
 10
0.0
 20
0.0
 30
0.0
 70
     1
 40
1.159999999999999
 41
1.159999999999999
  0
VERTEX
  5
714F
  8
SUNPO
  6
BYBLOCK
 10
63.748459436107858
 20
113.0421311205306
 30
0.0
 42
1.0
  0
VERTEX
  5
7150
  8
SUNPO
  6
BYBLOCK
 10
63.748459436107858
 20
112.75213112053071
 30
0.0
 42
1.0
  0
SEQEND
  5
7151
  8
SUNPO
  6
BYBLOCK
  0
TEXT
  5
6A9D
  8
SUNPO
  6
CONTINUOUS
 10
63.248459436107851
 20
116.4387977871974
 30
0.0
 40
2.5
  1
10
 50
90.0
  7
MX_NOTE_STANDARD
  0
POLYLINE
  5
6A9E
  8
SUNPO
  6
BYBLOCK
 66
     1
 10
0.0
 20
0.0
 30
0.0
 70
     1
 40
1.159999999999999
 41
1.159999999999999
  0
VERTEX
  5
7152
  8
SUNPO
  6
BYBLOCK
 10
68.748459436107851
 20
273.04188697990571
 30
0.0
 42
1.0
  0
VERTEX
  5
7153
  8
SUNPO
  6
BYBLOCK
 10
68.748459436107851
 20
272.75188697990569
 30
0.0
 42
1.0
  0
SEQEND
  5
7154
  8
SUNPO
  6
BYBLOCK
  0
POLYLINE
  5
6AA2
  8
SUNPO
  6
BYBLOCK
 66
     1
 10
0.0
 20
0.0
 30
0.0
 70
     1
 40
1.159999999999999
 41
1.159999999999999
  0
VERTEX
  5
7155
  8
SUNPO
  6
BYBLOCK
 10
68.748459436107851
 20
307.75164283928069
 30
0.0
 42
1.0
  0
VERTEX
  5
7156
  8
SUNPO
  6
BYBLOCK
 10
68.748459436107851
 20
308.04164283928071
 30
0.0
 42
1.0
  0
SEQEND
  5
7157
  8
SUNPO
  6
BYBLOCK
  0
TEXT
  5
6AA6
  8
SUNPO
  6
CONTINUOUS
 10
68.248459436107851
 20
288.31330950594742
 30
0.0
 40
2.5
  1
35
 50
90.0
  7
MX_NOTE_STANDARD
  0
POLYLINE
  5
6AA7
  8
SUNPO
  6
BYBLOCK
 66
     1
 10
0.0
 20
0.0
 30
0.0
 70
     1
 40
1.159999999999999
 41
1.159999999999999
  0
VERTEX
  5
7158
  8
SUNPO
  6
BYBLOCK
 10
68.748459436107851
 20
320.75164283928069
 30
0.0
 42
1.0
  0
VERTEX
  5
7159
  8
SUNPO
  6
BYBLOCK
 10
68.748459436107851
 20
321.04164283928071
 30
0.0
 42
1.0
  0
SEQEND
  5
715A
  8
SUNPO
  6
BYBLOCK
  0
POLYLINE
  5
6AAB
  8
SUNPO
  6
BYBLOCK
 66
     1
 10
0.0
 20
0.0
 30
0.0
 70
     1
 40
1.159999999999999
 41
1.159999999999999
  0
VERTEX
  5
715B
  8
SUNPO
  6
BYBLOCK
 10
68.748459436107851
 20
308.04164283928071
 30
0.0
 42
1.0
  0
VERTEX
  5
715C
  8
SUNPO
  6
BYBLOCK
 10
68.748459436107851
 20
307.75164283928069
 30
0.0
 42
1.0
  0
SEQEND
  5
715D
  8
SUNPO
  6
BYBLOCK
  0
TEXT
  5
6AAF
  8
SUNPO
  6
CONTINUOUS
 10
68.248459436107851
 20
312.72997617261387
 30
0.0
 40
2.5
  1
13
 50
90.0
  7
MX_NOTE_STANDARD
  0
POLYLINE
  5
6AB0
  8
SUNPO
  6
BYBLOCK
 66
     1
 10
0.0
 20
0.0
 30
0.0
 70
     1
 40
1.159999999999999
 41
1.159999999999999
  0
VERTEX
  5
715E
  8
SUNPO
  6
BYBLOCK
 10
68.748459436107851
 20
330.75164283928069
 30
0.0
 42
1.0
  0
VERTEX
  5
715F
  8
SUNPO
  6
BYBLOCK
 10
68.748459436107851
 20
331.04164283928071
 30
0.0
 42
1.0
  0
SEQEND
  5
7160
  8
SUNPO
  6
BYBLOCK
  0
POLYLINE
  5
6AB4
  8
SUNPO
  6
BYBLOCK
 66
     1
 10
0.0
 20
0.0
 30
0.0
 70
     1
 40
1.159999999999999
 41
1.159999999999999
  0
VERTEX
  5
7161
  8
SUNPO
  6
BYBLOCK
 10
68.748459436107851
 20
321.04164283928071
 30
0.0
 42
1.0
  0
VERTEX
  5
7162
  8
SUNPO
  6
BYBLOCK
 10
68.748459436107851
 20
320.75164283928069
 30
0.0
 42
1.0
  0
SEQEND
  5
7163
  8
SUNPO
  6
BYBLOCK
  0
TEXT
  5
6AB8
  8
SUNPO
  6
CONTINUOUS
 10
68.248459436107851
 20
324.43830950594742
 30
0.0
 40
2.5
  1
10
 50
90.0
  7
MX_NOTE_STANDARD
  0
POLYLINE
  5
6AB9
  8
SUNPO
  6
BYBLOCK
 66
     1
 10
0.0
 20
0.0
 30
0.0
 70
     1
 40
1.159999999999999
 41
1.159999999999999
  0
VERTEX
  5
7164
  8
SUNPO
  6
BYBLOCK
 10
203.74845943610771
 20
330.75164283928069
 30
0.0
 42
1.0
  0
VERTEX
  5
7165
  8
SUNPO
  6
BYBLOCK
 10
203.74845943610771
 20
331.04164283928071
 30
0.0
 42
1.0
  0
SEQEND
  5
7166
  8
SUNPO
  6
BYBLOCK
  0
TEXT
  5
6ABD
  8
SUNPO
  6
CONTINUOUS
 10
203.24845943610771
 20
299.81330950594742
 30
0.0
 40
2.5
  1
58
 50
90.0
  7
MX_NOTE_STANDARD
  0
POLYLINE
  5
6ABE
  8
SUNPO
  6
BYBLOCK
 66
     1
 10
0.0
 20
0.0
 30
0.0
 70
     1
 40
1.159999999999999
 41
1.159999999999999
  0
VERTEX
  5
7167
  8
SUNPO
  6
BYBLOCK
 10
193.74845943610771
 20
287.75164283928069
 30
0.0
 42
1.0
  0
VERTEX
  5
7168
  8
SUNPO
  6
BYBLOCK
 10
193.74845943610771
 20
288.04164283928071
 30
0.0
 42
1.0
  0
SEQEND
  5
7169
  8
SUNPO
  6
BYBLOCK
  0
POLYLINE
  5
6AC2
  8
SUNPO
  6
BYBLOCK
 66
     1
 10
0.0
 20
0.0
 30
0.0
 70
     1
 40
1.159999999999999
 41
1.159999999999999
  0
VERTEX
  5
716A
  8
SUNPO
  6
BYBLOCK
 10
193.74845943610771
 20
273.04188697990571
 30
0.0
 42
1.0
  0
VERTEX
  5
716B
  8
SUNPO
  6
BYBLOCK
 10
193.74845943610771
 20
272.75188697990569
 30
0.0
 42
1.0
  0
SEQEND
  5
716C
  8
SUNPO
  6
BYBLOCK
  0
TEXT
  5
6AC6
  8
SUNPO
  6
CONTINUOUS
 10
193.24845943610771
 20
278.73022031323887
 30
0.0
 40
2.5
  1
15
 50
90.0
  7
MX_NOTE_STANDARD
  0
POLYLINE
  5
6AC7
  8
SUNPO
  6
BYBLOCK
 66
     1
 10
0.0
 20
0.0
 30
0.0
 70
     1
 40
1.159999999999999
 41
1.159999999999999
  0
VERTEX
  5
716D
  8
SUNPO
  6
BYBLOCK
 10
193.74845943610771
 20
321.04164283928071
 30
0.0
 42
1.0
  0
VERTEX
  5
716E
  8
SUNPO
  6
BYBLOCK
 10
193.74845943610771
 20
320.75164283928069
 30
0.0
 42
1.0
  0
SEQEND
  5
716F
  8
SUNPO
  6
BYBLOCK
  0
POLYLINE
  5
6ACB
  8
SUNPO
  6
BYBLOCK
 66
     1
 10
0.0
 20
0.0
 30
0.0
 70
     1
 40
1.159999999999999
 41
1.159999999999999
  0
VERTEX
  5
7170
  8
SUNPO
  6
BYBLOCK
 10
193.74845943610771
 20
330.75164283928069
 30
0.0
 42
1.0
  0
VERTEX
  5
7171
  8
SUNPO
  6
BYBLOCK
 10
193.74845943610771
 20
331.04164283928071
 30
0.0
 42
1.0
  0
SEQEND
  5
7172
  8
SUNPO
  6
BYBLOCK
  0
TEXT
  5
6ACF
  8
SUNPO
  6
CONTINUOUS
 10
193.24845943610771
 20
324.43830950594742
 30
0.0
 40
2.5
  1
10
 50
90.0
  7
MX_NOTE_STANDARD
  0
POLYLINE
  5
6AD0
  8
SUNPO
  6
BYBLOCK
 66
     1
 10
0.0
 20
0.0
 30
0.0
 70
     1
 40
1.159999999999999
 41
1.159999999999999
  0
VERTEX
  5
7173
  8
SUNPO
  6
BYBLOCK
 10
93.893459436107861
 20
245.7523557299057
 30
0.0
 42
1.0
  0
VERTEX
  5
7174
  8
SUNPO
  6
BYBLOCK
 10
93.60345943610784
 20
245.7523557299057
 30
0.0
 42
1.0
  0
SEQEND
  5
7175
  8
SUNPO
  6
BYBLOCK
  0
POLYLINE
  5
6AD4
  8
SUNPO
  6
BYBLOCK
 66
     1
 10
0.0
 20
0.0
 30
0.0
 70
     1
 40
1.159999999999999
 41
1.159999999999999
  0
VERTEX
  5
7176
  8
SUNPO
  6
BYBLOCK
 10
163.60345943610781
 20
245.7523557299057
 30
0.0
 42
1.0
  0
VERTEX
  5
7177
  8
SUNPO
  6
BYBLOCK
 10
163.8934594361078
 20
245.7523557299057
 30
0.0
 42
1.0
  0
SEQEND
  5
7178
  8
SUNPO
  6
BYBLOCK
  0
TEXT
  5
6AD8
  8
SUNPO
  6
CONTINUOUS
 10
123.779266931225
 20
246.2523557299057
 30
0.0
 40
2.5
  1
70
  7
MX_NOTE_STANDARD
  0
POLYLINE
  5
6AD9
  8
SUNPO
  6
BYBLOCK
 66
     1
 10
0.0
 20
0.0
 30
0.0
 70
     1
 40
1.159999999999999
 41
1.159999999999999
  0
VERTEX
  5
7179
  8
SUNPO
  6
BYBLOCK
 10
183.60345943610781
 20
245.7523557299057
 30
0.0
 42
1.0
  0
VERTEX
  5
717A
  8
SUNPO
  6
BYBLOCK
 10
183.8934594361078
 20
245.7523557299057
 30
0.0
 42
1.0
  0
SEQEND
  5
717B
  8
SUNPO
  6
BYBLOCK
  0
TEXT
  5
6ADD
  8
SUNPO
  6
CONTINUOUS
 10
171.87345943610779
 20
246.2523557299057
 30
0.0
 40
2.5
  1
20
  7
MX_NOTE_STANDARD
  0
POLYLINE
  5
6ADE
  8
SUNPO
  6
BYBLOCK
 66
     1
 10
0.0
 20
0.0
 30
0.0
 70
     1
 40
1.159999999999999
 41
1.159999999999999
  0
VERTEX
  5
717C
  8
SUNPO
  6
BYBLOCK
 10
193.74845943610771
 20
315.04164283928071
 30
0.0
 42
1.0
  0
VERTEX
  5
717D
  8
SUNPO
  6
BYBLOCK
 10
193.74845943610771
 20
314.75164283928058
 30
0.0
 42
1.0
  0
SEQEND
  5
717E
  8
SUNPO
  6
BYBLOCK
  0
POLYLINE
  5
6AE2
  8
SUNPO
  6
BYBLOCK
 66
     1
 10
0.0
 20
0.0
 30
0.0
 70
     1
 40
1.159999999999999
 41
1.159999999999999
  0
VERTEX
  5
717F
  8
SUNPO
  6
BYBLOCK
 10
193.74845943610771
 20
320.75164283928069
 30
0.0
 42
1.0
  0
VERTEX
  5
7180
  8
SUNPO
  6
BYBLOCK
 10
193.74845943610771
 20
321.04164283928071
 30
0.0
 42
1.0
  0
SEQEND
  5
7181
  8
SUNPO
  6
BYBLOCK
  0
TEXT
  5
6AE6
  8
SUNPO
  6
CONTINUOUS
 10
193.24845943610771
 20
317.06330950594742
 30
0.0
 40
2.5
  1
6
 50
90.0
  7
MX_NOTE_STANDARD
  0
POLYLINE
  5
6AE7
  8
SUNPO
  6
BYBLOCK
 66
     1
 10
0.0
 20
0.0
 30
0.0
 70
     1
 40
1.159999999999999
 41
1.159999999999999
  0
VERTEX
  5
7182
  8
SUNPO
  6
BYBLOCK
 10
193.74845943610771
 20
314.75164283928058
 30
0.0
 42
1.0
  0
VERTEX
  5
7183
  8
SUNPO
  6
BYBLOCK
 10
193.74845943610771
 20
315.04164283928071
 30
0.0
 42
1.0
  0
SEQEND
  5
7184
  8
SUNPO
  6
BYBLOCK
  0
POLYLINE
  5
6AEB
  8
SUNPO
  6
BYBLOCK
 66
     1
 10
0.0
 20
0.0
 30
0.0
 70
     1
 40
1.159999999999999
 41
1.159999999999999
  0
VERTEX
  5
7185
  8
SUNPO
  6
BYBLOCK
 10
193.74845943610771
 20
288.04164283928071
 30
0.0
 42
1.0
  0
VERTEX
  5
7186
  8
SUNPO
  6
BYBLOCK
 10
193.74845943610771
 20
287.75164283928069
 30
0.0
 42
1.0
  0
SEQEND
  5
7187
  8
SUNPO
  6
BYBLOCK
  0
TEXT
  5
6AEF
  8
SUNPO
  6
CONTINUOUS
 10
193.24845943610771
 20
299.31330950594742
 30
0.0
 40
2.5
  1
27
 50
90.0
  7
MX_NOTE_STANDARD
  0
POLYLINE
  5
6AF0
  8
SUNPO
  6
BYBLOCK
 66
     1
 10
0.0
 20
0.0
 30
0.0
 70
     1
 40
1.159999999999999
 41
1.159999999999999
  0
VERTEX
  5
7188
  8
SUNPO
  6
BYBLOCK
 10
193.74845943610771
 20
137.75213112053061
 30
0.0
 42
1.0
  0
VERTEX
  5
7189
  8
SUNPO
  6
BYBLOCK
 10
193.74845943610771
 20
138.04213112053071
 30
0.0
 42
1.0
  0
SEQEND
  5
718A
  8
SUNPO
  6
BYBLOCK
  0
POLYLINE
  5
6AF4
  8
SUNPO
  6
BYBLOCK
 66
     1
 10
0.0
 20
0.0
 30
0.0
 70
     1
 40
1.159999999999999
 41
1.159999999999999
  0
VERTEX
  5
718B
  8
SUNPO
  6
BYBLOCK
 10
193.74845943610771
 20
136.04213112053071
 30
0.0
 42
1.0
  0
VERTEX
  5
718C
  8
SUNPO
  6
BYBLOCK
 10
193.74845943610771
 20
135.75213112053061
 30
0.0
 42
1.0
  0
SEQEND
  5
718D
  8
SUNPO
  6
BYBLOCK
  0
TEXT
  5
6AF8
  8
SUNPO
  6
CONTINUOUS
 10
193.24845943610771
 20
136.0637977871973
 30
0.0
 40
2.5
  1
2
 50
90.0
  7
MX_NOTE_STANDARD
  0
POLYLINE
  5
6AF9
  8
SUNPO
  6
BYBLOCK
 66
     1
 10
0.0
 20
0.0
 30
0.0
 70
     1
 40
1.159999999999999
 41
1.159999999999999
  0
VERTEX
  5
718E
  8
SUNPO
  6
BYBLOCK
 10
193.74845943610771
 20
138.04213112053071
 30
0.0
 42
1.0
  0
VERTEX
  5
718F
  8
SUNPO
  6
BYBLOCK
 10
193.74845943610771
 20
137.75213112053061
 30
0.0
 42
1.0
  0
SEQEND
  5
7190
  8
SUNPO
  6
BYBLOCK
  0
POLYLINE
  5
6AFD
  8
SUNPO
  6
BYBLOCK
 66
     1
 10
0.0
 20
0.0
 30
0.0
 70
     1
 40
1.159999999999999
 41
1.159999999999999
  0
VERTEX
  5
7191
  8
SUNPO
  6
BYBLOCK
 10
193.74845943610771
 20
182.75213112053061
 30
0.0
 42
1.0
  0
VERTEX
  5
7192
  8
SUNPO
  6
BYBLOCK
 10
193.74845943610771
 20
183.04213112053071
 30
0.0
 42
1.0
  0
SEQEND
  5
7193
  8
SUNPO
  6
BYBLOCK
  0
TEXT
  5
6B01
  8
SUNPO
  6
CONTINUOUS
 10
193.24845943610771
 20
158.31379778719719
 30
0.0
 40
2.5
  1
45
 50
90.0
  7
MX_NOTE_STANDARD
  0
LINE
  5
6B02
  8
DANMEN
  6
CONTINUOUS
 10
125.8737202839482
 20
143.79707314452489
 30
0.0
 11
127.0639929385064
 21
144.98734585111129
 31
0.0
  0
LINE
  5
6B03
  8
DANMEN
  6
CONTINUOUS
 10
123.77372442383449
 20
141.69707719261729
 30
0.0
 11
124.2483678833734
 21
142.1717206729034
 31
0.0
  0
LINE
  5
6B04
  8
DANMEN
  6
CONTINUOUS
 10
122.7484054024186
 20
142.91682217200051
 30
0.0
 11
124.92866542752149
 21
145.09708229240559
 31
0.0
  0
LINE
  5
6B05
  8
DANMEN
  6
CONTINUOUS
 10
113.00337141703559
 20
144.3971079887346
 30
0.0
 11
113.24845943610769
 21
144.64219601852011
 31
0.0
  0
LINE
  5
6B06
  8
DANMEN
  6
CONTINUOUS
 10
110.30331878653671
 20
141.69705524021279
 30
0.0
 11
110.398407556225
 21
141.7921440140575
 31
0.0
  0
LINE
  5
6B07
  8
DANMEN
  6
CONTINUOUS
 10
110.7582353486425
 20
144.39703586782079
 30
0.0
 11
112.2583152769927
 21
145.89711586174161
 31
0.0
  0
LINE
  5
6B08
  8
DANMEN
  6
CONTINUOUS
 10
108.7484443552255
 20
142.38724478655311
 30
0.0
 11
110.398407556225
 21
144.03720805967481
 31
0.0
  0
LINE
  5
6B09
  8
DANMEN
  6
CONTINUOUS
 10
108.74844493388851
 20
144.6323094108333
 30
0.0
 11
110.0132513295102
 21
145.89711586174161
 31
0.0
  0
LINE
  5
6B0A
  8
DANMEN
  6
CONTINUOUS
 10
137.97378057228411
 20
150.89688697990559
 30
0.0
 11
139.43825062369041
 21
152.36135709532601
 31
0.0
  0
LINE
  5
6B0B
  8
DANMEN
  6
CONTINUOUS
 10
135.47378068156249
 20
148.39688697990559
 30
0.0
 11
136.24847469489691
 21
149.1715810271028
 31
0.0
  0
LINE
  5
6B0C
  8
DANMEN
  6
CONTINUOUS
 10
134.74848870884699
 20
149.91665902110381
 30
0.0
 11
137.22871655923461
 21
152.39688697990559
 31
0.0
  0
LINE
  5
6B0D
  8
DANMEN
  6
CONTINUOUS
 10
134.74848596829361
 20
152.16172032616751
 30
0.0
 11
136.24847469489691
 21
153.6617091183374
 31
0.0
  0
LINE
  5
6B0E
  8
DANMEN
  6
CONTINUOUS
 10
134.74848322774031
 20
154.40678163123141
 30
0.0
 11
136.24847469489691
 21
155.9067731639546
 31
0.0
  0
LINE
  5
6B0F
  8
DANMEN
  6
CONTINUOUS
 10
134.74848048718701
 20
156.65184293629511
 30
0.0
 11
136.24847469489691
 21
158.15183720957191
 31
0.0
  0
LINE
  5
6B10
  8
DANMEN
  6
CONTINUOUS
 10
134.7484777466336
 20
158.89690424135881
 30
0.0
 11
136.24847469489691
 21
160.39690125518911
 31
0.0
  0
LINE
  5
6B11
  8
DANMEN
  6
CONTINUOUS
 10
135.04847774665461
 20
161.44196830011049
 30
0.0
 11
136.00339638470891
 21
162.39688697990559
 31
0.0
  0
LINE
  5
6B12
  8
DANMEN
  6
CONTINUOUS
 10
134.74847500608021
 20
161.14196554642271
 30
0.0
 11
135.00339642842019
 21
161.39688697990559
 31
0.0
  0
LINE
  5
6B13
  8
DANMEN
  6
CONTINUOUS
 10
129.29327555515911
 20
141.7462436358349
 30
0.0
 11
129.4993186212111
 21
141.95228671089311
 31
0.0
  0
LINE
  5
6B14
  8
DANMEN
  6
CONTINUOUS
 10
127.499101170747
 20
142.19713321861411
 30
0.0
 11
129.54843197028751
 21
144.24646410773369
 31
0.0
  0
LINE
  5
6B15
  8
DANMEN
  6
CONTINUOUS
 10
127.5984197632562
 20
144.5415158610819
 30
0.0
 11
129.54843197028751
 21
146.49152815335091
 31
0.0
  0
LINE
  5
6B16
  8
DANMEN
  6
CONTINUOUS
 10
125.2540372232646
 20
142.19713321861411
 30
0.0
 11
126.55403735717471
 21
143.49713340934889
 31
0.0
  0
LINE
  5
6B17
  8
DANMEN
  6
CONTINUOUS
 10
127.5984197632562
 20
146.78657990669899
 30
0.0
 11
129.54843197028751
 21
148.73659219896811
 31
0.0
  0
LINE
  5
6B18
  8
DANMEN
  6
CONTINUOUS
 10
127.5984197632562
 20
149.0316439523163
 30
0.0
 11
129.54843197028751
 21
150.98165624458531
 31
0.0
  0
LINE
  5
6B19
  8
DANMEN
  6
CONTINUOUS
 10
127.2688144807661
 20
150.9471027010361
 30
0.0
 11
128.94339744480959
 21
152.62168573827779
 31
0.0
  0
LINE
  5
6B1A
  8
DANMEN
  6
CONTINUOUS
 10
125.0237505332838
 20
150.9471027010361
 30
0.0
 11
126.97375121098599
 21
152.89710346397541
 31
0.0
  0
LINE
  5
6B1B
  8
DANMEN
  6
CONTINUOUS
 10
122.7786865858014
 20
150.9471027010361
 30
0.0
 11
124.7286872635035
 21
152.89710346397541
 31
0.0
  0
LINE
  5
6B1C
  8
DANMEN
  6
CONTINUOUS
 10
120.533622638319
 20
150.9471027010361
 30
0.0
 11
122.48362331602119
 21
152.89710346397541
 31
0.0
  0
LINE
  5
6B1D
  8
DANMEN
  6
CONTINUOUS
 10
112.3836519862647
 20
142.79713169273521
 30
0.0
 11
114.5484462754021
 21
144.96192607649891
 31
0.0
  0
LINE
  5
6B1E
  8
DANMEN
  6
CONTINUOUS
 10
113.24845848243351
 20
145.90700227232301
 30
0.0
 11
114.4642000843784
 21
147.1227439274098
 31
0.0
  0
LINE
  5
6B1F
  8
DANMEN
  6
CONTINUOUS
 10
118.2885586908366
 20
150.9471027010361
 30
0.0
 11
120.2385593685389
 21
152.89710346397541
 31
0.0
  0
LINE
  5
6B20
  8
DANMEN
  6
CONTINUOUS
 10
111.24845848243341
 20
143.90700218490031
 30
0.0
 11
111.4385872190182
 21
144.09713092979581
 31
0.0
  0
LINE
  5
6B21
  8
DANMEN
  6
CONTINUOUS
 10
116.0434947433543
 20
150.9471027010361
 30
0.0
 11
117.99349542105639
 21
152.89710346397541
 31
0.0
  0
LINE
  5
6B22
  8
DANMEN
  6
CONTINUOUS
 10
111.4935233617345
 20
146.39713112053059
 30
0.0
 11
112.7935225419703
 21
147.69713035759111
 31
0.0
  0
LINE
  5
6B23
  8
DANMEN
  6
CONTINUOUS
 10
113.79843079587179
 20
150.9471027010361
 30
0.0
 11
115.748431473574
 21
152.89710346397541
 31
0.0
  0
LINE
  5
6B24
  8
DANMEN
  6
CONTINUOUS
 10
108.74845943610779
 20
145.89713112053059
 30
0.0
 11
110.6984601990472
 21
147.8471319687074
 31
0.0
  0
LINE
  5
6B25
  8
DANMEN
  6
CONTINUOUS
 10
111.5533668483894
 20
150.9471027010361
 30
0.0
 11
113.50336752609159
 21
152.89710346397541
 31
0.0
  0
LINE
  5
6B26
  8
DANMEN
  6
CONTINUOUS
 10
108.74845943610779
 20
148.1421951661479
 30
0.0
 11
110.6984601990472
 21
150.09219601432449
 31
0.0
  0
LINE
  5
6B27
  8
DANMEN
  6
CONTINUOUS
 10
108.74845943610779
 20
150.3872592117651
 30
0.0
 11
111.2583035786093
 21
152.89710346397541
 31
0.0
  0
LINE
  5
6B28
  8
DANMEN
  6
CONTINUOUS
 10
107.0632389534247
 20
150.9471027010361
 30
0.0
 11
109.01323963112689
 21
152.89710346397541
 31
0.0
  0
LINE
  5
6B29
  8
DANMEN
  6
CONTINUOUS
 10
104.81817500594239
 20
150.9471027010361
 30
0.0
 11
106.7681756836446
 21
152.89710346397541
 31
0.0
  0
LINE
  5
6B2A
  8
DANMEN
  6
CONTINUOUS
 10
102.57311105846
 20
150.9471027010361
 30
0.0
 11
104.52311173616209
 21
152.89710346397541
 31
0.0
  0
LINE
  5
6B2B
  8
DANMEN
  6
CONTINUOUS
 10
100.32804711097759
 20
150.9471027010361
 30
0.0
 11
102.2780477886797
 21
152.89710346397541
 31
0.0
  0
LINE
  5
6B2C
  8
DANMEN
  6
CONTINUOUS
 10
99.698459245372987
 20
152.56257885352841
 30
0.0
 11
100.03298384119741
 21
152.89710346397541
 31
0.0
  0
POLYLINE
  5
6B2D
  8
SUNPO
  6
BYBLOCK
 66
     1
 10
0.0
 20
0.0
 30
0.0
 70
     1
 40
1.159999999999999
 41
1.159999999999999
  0
VERTEX
  5
7194
  8
SUNPO
  6
BYBLOCK
 10
406.93980037849059
 20
257.75781837638999
 30
0.0
 42
1.0
  0
VERTEX
  5
7195
  8
SUNPO
  6
BYBLOCK
 10
406.64980037849051
 20
257.75781837638999
 30
0.0
 42
1.0
  0
SEQEND
  5
7196
  8
SUNPO
  6
BYBLOCK
  0
POLYLINE
  5
6B31
  8
SUNPO
  6
BYBLOCK
 66
     1
 10
0.0
 20
0.0
 30
0.0
 70
     1
 40
1.159999999999999
 41
1.159999999999999
  0
VERTEX
  5
7197
  8
SUNPO
  6
BYBLOCK
 10
436.64980037849062
 20
257.75781837638999
 30
0.0
 42
1.0
  0
VERTEX
  5
7198
  8
SUNPO
  6
BYBLOCK
 10
436.93980037849059
 20
257.75781837638999
 30
0.0
 42
1.0
  0
SEQEND
  5
7199
  8
SUNPO
  6
BYBLOCK
  0
TEXT
  5
6B35
  8
SUNPO
  6
CONTINUOUS
 10
419.91980037849049
 20
258.25781837638999
 30
0.0
 40
2.5
  1
30
  7
MX_NOTE_STANDARD
  0
POLYLINE
  5
6B36
  8
SUNPO
  6
BYBLOCK
 66
     1
 10
0.0
 20
0.0
 30
0.0
 70
     1
 40
1.159999999999999
 41
1.159999999999999
  0
VERTEX
  5
719A
  8
SUNPO
  6
BYBLOCK
 10
448.64976986091261
 20
257.75781837638999
 30
0.0
 42
1.0
  0
VERTEX
  5
719B
  8
SUNPO
  6
BYBLOCK
 10
448.93976986091241
 20
257.75781837638999
 30
0.0
 42
1.0
  0
SEQEND
  5
719C
  8
SUNPO
  6
BYBLOCK
  0
POLYLINE
  5
6B3A
  8
SUNPO
  6
BYBLOCK
 66
     1
 10
0.0
 20
0.0
 30
0.0
 70
     1
 40
1.159999999999999
 41
1.159999999999999
  0
VERTEX
  5
719D
  8
SUNPO
  6
BYBLOCK
 10
436.93980037849059
 20
257.75781837638999
 30
0.0
 42
1.0
  0
VERTEX
  5
719E
  8
SUNPO
  6
BYBLOCK
 10
436.64980037849062
 20
257.75781837638999
 30
0.0
 42
1.0
  0
SEQEND
  5
719F
  8
SUNPO
  6
BYBLOCK
  0
TEXT
  5
6B3E
  8
SUNPO
  6
CONTINUOUS
 10
441.1280421590896
 20
258.25781837638999
 30
0.0
 40
2.5
  1
12
  7
MX_NOTE_STANDARD
  0
POLYLINE
  5
6B3F
  8
SUNPO
  6
BYBLOCK
 66
     1
 10
0.0
 20
0.0
 30
0.0
 70
     1
 40
1.159999999999999
 41
1.159999999999999
  0
VERTEX
  5
71A0
  8
SUNPO
  6
BYBLOCK
 10
448.93976986091241
 20
257.75781837638999
 30
0.0
 42
1.0
  0
VERTEX
  5
71A1
  8
SUNPO
  6
BYBLOCK
 10
448.64976986091261
 20
257.75781837638999
 30
0.0
 42
1.0
  0
SEQEND
  5
71A2
  8
SUNPO
  6
BYBLOCK
  0
POLYLINE
  5
6B43
  8
SUNPO
  6
BYBLOCK
 66
     1
 10
0.0
 20
0.0
 30
0.0
 70
     1
 40
1.159999999999999
 41
1.159999999999999
  0
VERTEX
  5
71A3
  8
SUNPO
  6
BYBLOCK
 10
458.64978511970162
 20
257.75781837638999
 30
0.0
 42
1.0
  0
VERTEX
  5
71A4
  8
SUNPO
  6
BYBLOCK
 10
458.93978511970153
 20
257.75781837638999
 30
0.0
 42
1.0
  0
SEQEND
  5
71A5
  8
SUNPO
  6
BYBLOCK
  0
TEXT
  5
6B47
  8
SUNPO
  6
CONTINUOUS
 10
452.3363754924228
 20
258.25781837638999
 30
0.0
 40
2.5
  1
10
  7
MX_NOTE_STANDARD
  0
POLYLINE
  5
6B48
  8
SUNPO
  6
BYBLOCK
 66
     1
 10
0.0
 20
0.0
 30
0.0
 70
     1
 40
1.159999999999999
 41
1.159999999999999
  0
VERTEX
  5
71A6
  8
SUNPO
  6
BYBLOCK
 10
421.64980037849062
 20
122.75786415275719
 30
0.0
 42
1.0
  0
VERTEX
  5
71A7
  8
SUNPO
  6
BYBLOCK
 10
421.93980037849047
 20
122.75786415275719
 30
0.0
 42
1.0
  0
SEQEND
  5
71A8
  8
SUNPO
  6
BYBLOCK
  0
TEXT
  5
6B4C
  8
SUNPO
  6
CONTINUOUS
 10
412.62807267666778
 20
123.25786415275731
 30
0.0
 40
2.5
  1
15
  7
MX_NOTE_STANDARD
  0
POLYLINE
  5
6B4D
  8
SUNPO
  6
BYBLOCK
 66
     1
 10
0.0
 20
0.0
 30
0.0
 70
     1
 40
1.159999999999999
 41
1.159999999999999
  0
VERTEX
  5
71A9
  8
SUNPO
  6
BYBLOCK
 10
446.84978206794381
 20
112.75790992912439
 30
0.0
 42
1.0
  0
VERTEX
  5
71AA
  8
SUNPO
  6
BYBLOCK
 10
447.1397820679436
 20
112.75790992912439
 30
0.0
 42
1.0
  0
SEQEND
  5
71AB
  8
SUNPO
  6
BYBLOCK
  0
TEXT
  5
6B51
  8
SUNPO
  6
CONTINUOUS
 10
423.35306352139429
 20
113.25790992912439
 30
0.0
 40
2.5
  1
40.2
  7
MX_NOTE_STANDARD
  0
POLYLINE
  5
6B52
  8
SUNPO
  6
BYBLOCK
 66
     1
 10
0.0
 20
0.0
 30
0.0
 70
     1
 40
1.159999999999999
 41
1.159999999999999
  0
VERTEX
  5
71AC
  8
SUNPO
  6
BYBLOCK
 10
452.84978206794369
 20
112.75790992912439
 30
0.0
 42
1.0
  0
VERTEX
  5
71AD
  8
SUNPO
  6
BYBLOCK
 10
453.13978206794371
 20
112.75790992912439
 30
0.0
 42
1.0
  0
SEQEND
  5
71AE
  8
SUNPO
  6
BYBLOCK
  0
POLYLINE
  5
6B56
  8
SUNPO
  6
BYBLOCK
 66
     1
 10
0.0
 20
0.0
 30
0.0
 70
     1
 40
1.159999999999999
 41
1.159999999999999
  0
VERTEX
  5
71AF
  8
SUNPO
  6
BYBLOCK
 10
447.1397820679436
 20
112.75790992912439
 30
0.0
 42
1.0
  0
VERTEX
  5
71B0
  8
SUNPO
  6
BYBLOCK
 10
446.84978206794381
 20
112.75790992912439
 30
0.0
 42
1.0
  0
SEQEND
  5
71B1
  8
SUNPO
  6
BYBLOCK
  0
TEXT
  5
6B5A
  8
SUNPO
  6
CONTINUOUS
 10
449.16144873461042
 20
113.25790992912439
 30
0.0
 40
2.5
  1
6
  7
MX_NOTE_STANDARD
  0
POLYLINE
  5
6B5B
  8
SUNPO
  6
BYBLOCK
 66
     1
 10
0.0
 20
0.0
 30
0.0
 70
     1
 40
1.159999999999999
 41
1.159999999999999
  0
VERTEX
  5
71B2
  8
SUNPO
  6
BYBLOCK
 10
455.82210574636798
 20
112.6323750677262
 30
0.0
 42
1.0
  0
VERTEX
  5
71B3
  8
SUNPO
  6
BYBLOCK
 10
455.96710815657758
 20
112.88352104327311
 30
0.0
 42
1.0
  0
SEQEND
  5
71B4
  8
SUNPO
  6
BYBLOCK
  0
POLYLINE
  5
6B5F
  8
SUNPO
  6
BYBLOCK
 66
     1
 10
0.0
 20
0.0
 30
0.0
 70
     1
 40
1.159999999999999
 41
1.159999999999999
  0
VERTEX
  5
71B5
  8
SUNPO
  6
BYBLOCK
 10
453.13978206794371
 20
112.75790992912439
 30
0.0
 42
1.0
  0
VERTEX
  5
71B6
  8
SUNPO
  6
BYBLOCK
 10
452.84978206794369
 20
112.75790992912439
 30
0.0
 42
1.0
  0
SEQEND
  5
71B7
  8
SUNPO
  6
BYBLOCK
  0
POLYLINE
  5
6B63
  8
SUNPO
  6
BYBLOCK
 66
     1
 10
0.0
 20
0.0
 30
0.0
 70
     1
 40
1.159999999999999
 41
1.159999999999999
  0
VERTEX
  5
71B8
  8
SUNPO
  6
BYBLOCK
 10
458.64978511970162
 20
112.75790992912439
 30
0.0
 42
1.0
  0
VERTEX
  5
71B9
  8
SUNPO
  6
BYBLOCK
 10
458.93978511970153
 20
112.75790992912439
 30
0.0
 42
1.0
  0
SEQEND
  5
71BA
  8
SUNPO
  6
BYBLOCK
  0
TEXT
  5
6B67
  8
SUNPO
  6
CONTINUOUS
 10
443.72305964752462
 20
105.9757118551745
 30
0.0
 40
2.5
  1
5.8
 50
359.99927147207001
  7
MX_NOTE_STANDARD
  0
POLYLINE
  5
6B68
  8
SUNPO
  6
BYBLOCK
 66
     1
 10
0.0
 20
0.0
 30
0.0
 70
     1
 40
1.159999999999999
 41
1.159999999999999
  0
VERTEX
  5
71BB
  8
SUNPO
  6
BYBLOCK
 10
446.84978206794381
 20
122.75786415275719
 30
0.0
 42
1.0
  0
VERTEX
  5
71BC
  8
SUNPO
  6
BYBLOCK
 10
447.1397820679436
 20
122.75786415275719
 30
0.0
 42
1.0
  0
SEQEND
  5
71BD
  8
SUNPO
  6
BYBLOCK
  0
POLYLINE
  5
6B6C
  8
SUNPO
  6
BYBLOCK
 66
     1
 10
0.0
 20
0.0
 30
0.0
 70
     1
 40
1.159999999999999
 41
1.159999999999999
  0
VERTEX
  5
71BE
  8
SUNPO
  6
BYBLOCK
 10
421.93980037849047
 20
122.75786415275719
 30
0.0
 42
1.0
  0
VERTEX
  5
71BF
  8
SUNPO
  6
BYBLOCK
 10
421.64980037849062
 20
122.75786415275719
 30
0.0
 42
1.0
  0
SEQEND
  5
71C0
  8
SUNPO
  6
BYBLOCK
  0
TEXT
  5
6B70
  8
SUNPO
  6
CONTINUOUS
 10
430.64468441169367
 20
123.25786415275731
 30
0.0
 40
2.5
  1
25.2
  7
MX_NOTE_STANDARD
  0
POLYLINE
  5
6B71
  8
SUNPO
  6
BYBLOCK
 66
     1
 10
0.0
 20
0.0
 30
0.0
 70
     1
 40
1.159999999999999
 41
1.159999999999999
  0
VERTEX
  5
71C1
  8
SUNPO
  6
BYBLOCK
 10
314.67735347907649
 20
147.90303199943691
 30
0.0
 42
1.0
  0
VERTEX
  5
71C2
  8
SUNPO
  6
BYBLOCK
 10
314.67735347907649
 20
147.61303199943691
 30
0.0
 42
1.0
  0
SEQEND
  5
71C3
  8
SUNPO
  6
BYBLOCK
  0
TEXT
  5
6B75
  8
SUNPO
  6
CONTINUOUS
 10
314.1773534790766
 20
155.8830167406478
 30
0.0
 40
2.5
  1
20
 50
90.0
  7
MX_NOTE_STANDARD
  0
POLYLINE
  5
6B76
  8
SUNPO
  6
BYBLOCK
 66
     1
 10
0.0
 20
0.0
 30
0.0
 70
     1
 40
1.159999999999999
 41
1.159999999999999
  0
VERTEX
  5
71C4
  8
SUNPO
  6
BYBLOCK
 10
314.67721932816232
 20
167.90316070869059
 30
0.0
 42
1.0
  0
VERTEX
  5
71C5
  8
SUNPO
  6
BYBLOCK
 10
314.67721926494681
 20
167.6131607086906
 30
0.0
 42
1.0
  0
SEQEND
  5
71C6
  8
SUNPO
  6
BYBLOCK
  0
POLYLINE
  5
6B7A
  8
SUNPO
  6
BYBLOCK
 66
     1
 10
0.0
 20
0.0
 30
0.0
 70
     1
 40
1.159999999999999
 41
1.159999999999999
  0
VERTEX
  5
71C7
  8
SUNPO
  6
BYBLOCK
 10
314.6772345236825
 20
237.6121494563474
 30
0.0
 42
1.0
  0
VERTEX
  5
71C8
  8
SUNPO
  6
BYBLOCK
 10
314.67723458689812
 20
237.90214945634739
 30
0.0
 42
1.0
  0
SEQEND
  5
71C9
  8
SUNPO
  6
BYBLOCK
  0
TEXT
  5
6B7E
  8
SUNPO
  6
CONTINUOUS
 10
314.17722683904032
 20
202.35908626323891
 30
0.0
 40
2.5
  1
70
 50
89.999987510375206
  7
MX_NOTE_STANDARD
  0
TEXT
  5
6B7F
  8
SUNPO
  6
CONTINUOUS
 10
263.71038875739691
 20
123.25786415275731
 30
0.0
 40
2.5
  1
50
  7
MX_NOTE_STANDARD
  0
POLYLINE
  5
6B80
  8
SUNPO
  6
BYBLOCK
 66
     1
 10
0.0
 20
0.0
 30
0.0
 70
     1
 40
1.159999999999999
 41
1.159999999999999
  0
VERTEX
  5
71CA
  8
SUNPO
  6
BYBLOCK
 10
73.748459436107851
 20
147.75213112053061
 30
0.0
 42
1.0
  0
VERTEX
  5
71CB
  8
SUNPO
  6
BYBLOCK
 10
73.748459436107851
 20
148.04213112053071
 30
0.0
 42
1.0
  0
SEQEND
  5
71CC
  8
SUNPO
  6
BYBLOCK
  0
POLYLINE
  5
6B84
  8
SUNPO
  6
BYBLOCK
 66
     1
 10
0.0
 20
0.0
 30
0.0
 70
     1
 40
1.159999999999999
 41
1.159999999999999
  0
VERTEX
  5
71CD
  8
SUNPO
  6
BYBLOCK
 10
73.748459436107851
 20
138.04213112053071
 30
0.0
 42
1.0
  0
VERTEX
  5
71CE
  8
SUNPO
  6
BYBLOCK
 10
73.748459436107851
 20
137.75213112053061
 30
0.0
 42
1.0
  0
SEQEND
  5
71CF
  8
SUNPO
  6
BYBLOCK
  0
TEXT
  5
6B88
  8
SUNPO
  6
CONTINUOUS
 10
73.248459436107851
 20
141.4387977871973
 30
0.0
 40
2.5
  1
10
 50
90.0
  7
MX_NOTE_STANDARD
  0
POLYLINE
  5
6B89
  8
SUNPO
  6
BYBLOCK
 66
     1
 10
0.0
 20
0.0
 30
0.0
 70
     1
 40
1.159999999999999
 41
1.159999999999999
  0
VERTEX
  5
71D0
  8
SUNPO
  6
BYBLOCK
 10
73.748459436107851
 20
148.04213112053071
 30
0.0
 42
1.0
  0
VERTEX
  5
71D1
  8
SUNPO
  6
BYBLOCK
 10
73.748459436107851
 20
147.75213112053061
 30
0.0
 42
1.0
  0
SEQEND
  5
71D2
  8
SUNPO
  6
BYBLOCK
  0
POLYLINE
  5
6B8D
  8
SUNPO
  6
BYBLOCK
 66
     1
 10
0.0
 20
0.0
 30
0.0
 70
     1
 40
1.159999999999999
 41
1.159999999999999
  0
VERTEX
  5
71D3
  8
SUNPO
  6
BYBLOCK
 10
73.748459436107851
 20
182.75188697990569
 30
0.0
 42
1.0
  0
VERTEX
  5
71D4
  8
SUNPO
  6
BYBLOCK
 10
73.748459436107851
 20
183.04188697990571
 30
0.0
 42
1.0
  0
SEQEND
  5
71D5
  8
SUNPO
  6
BYBLOCK
  0
TEXT
  5
6B91
  8
SUNPO
  6
CONTINUOUS
 10
73.248459436107851
 20
163.31367571688469
 30
0.0
 40
2.5
  1
35
 50
90.0
  7
MX_NOTE_STANDARD
  0
POLYLINE
  5
6B92
  8
SUNPO
  6
BYBLOCK
 66
     1
 10
0.0
 20
0.0
 30
0.0
 70
     1
 40
1.159999999999999
 41
1.159999999999999
  0
VERTEX
  5
71D6
  8
SUNPO
  6
BYBLOCK
 10
240.7303887573969
 20
257.75781837638999
 30
0.0
 42
1.0
  0
VERTEX
  5
71D7
  8
SUNPO
  6
BYBLOCK
 10
240.44038875739679
 20
257.75781837638999
 30
0.0
 42
1.0
  0
SEQEND
  5
71D8
  8
SUNPO
  6
BYBLOCK
  0
POLYLINE
  5
6B96
  8
SUNPO
  6
BYBLOCK
 66
     1
 10
0.0
 20
0.0
 30
0.0
 70
     1
 40
1.159999999999999
 41
1.159999999999999
  0
VERTEX
  5
71D9
  8
SUNPO
  6
BYBLOCK
 10
290.44038875739682
 20
257.75781837638999
 30
0.0
 42
1.0
  0
VERTEX
  5
71DA
  8
SUNPO
  6
BYBLOCK
 10
290.7303887573969
 20
257.75781837638999
 30
0.0
 42
1.0
  0
SEQEND
  5
71DB
  8
SUNPO
  6
BYBLOCK
  0
TEXT
  5
6B9A
  8
SUNPO
  6
CONTINUOUS
 10
263.71038875739691
 20
258.25781837638999
 30
0.0
 40
2.5
  1
50
  7
MX_NOTE_STANDARD
  0
TEXT
  5
6B9B
  8
SUNPO
  6
CONTINUOUS
 10
343.7103887573968
 20
123.25786415275731
 30
0.0
 40
2.5
  1
50
  7
MX_NOTE_STANDARD
  0
POLYLINE
  5
6B9C
  8
SUNPO
  6
BYBLOCK
 66
     1
 10
0.0
 20
0.0
 30
0.0
 70
     1
 40
1.159999999999999
 41
1.159999999999999
  0
VERTEX
  5
71DC
  8
SUNPO
  6
BYBLOCK
 10
320.7303887573969
 20
257.75781837638999
 30
0.0
 42
1.0
  0
VERTEX
  5
71DD
  8
SUNPO
  6
BYBLOCK
 10
320.44038875739682
 20
257.75781837638999
 30
0.0
 42
1.0
  0
SEQEND
  5
71DE
  8
SUNPO
  6
BYBLOCK
  0
POLYLINE
  5
6BA0
  8
SUNPO
  6
BYBLOCK
 66
     1
 10
0.0
 20
0.0
 30
0.0
 70
     1
 40
1.159999999999999
 41
1.159999999999999
  0
VERTEX
  5
71DF
  8
SUNPO
  6
BYBLOCK
 10
370.44038875739682
 20
257.75781837638999
 30
0.0
 42
1.0
  0
VERTEX
  5
71E0
  8
SUNPO
  6
BYBLOCK
 10
370.73038875739678
 20
257.75781837638999
 30
0.0
 42
1.0
  0
SEQEND
  5
71E1
  8
SUNPO
  6
BYBLOCK
  0
TEXT
  5
6BA4
  8
SUNPO
  6
CONTINUOUS
 10
343.7103887573968
 20
258.25781837638999
 30
0.0
 40
2.5
  1
50
  7
MX_NOTE_STANDARD
  0
LINE
  5
6BA5
  8
DANMEN
  6
CONTINUOUS
 10
242.0853887573968
 20
172.75798622306971
 30
0.0
 11
242.3853918091547
 21
172.75798622306971
 31
0.0
  0
LINE
  5
6BA6
  8
DANMEN
  6
CONTINUOUS
 10
240.58538875739691
 20
170.25798622306979
 30
0.0
 11
240.58538875739691
 21
158.75798622306979
 31
0.0
  0
LINE
  5
6BA7
  8
DANMEN
  6
CONTINUOUS
 10
241.5853887573968
 20
157.75798622306979
 30
0.0
 11
289.58538875739691
 21
157.75798622306979
 31
0.0
  0
ARC
  5
6BA8
  8
DANMEN
  6
CONTINUOUS
 10
241.5853887573968
 20
158.75798622306979
 30
0.0
 40
1.0
 50
179.99996402782111
 51
270.00000068324448
  0
LINE
  5
6BA9
  8
DANMEN
  6
CONTINUOUS
 10
241.0853887573968
 20
170.75798622306971
 30
0.0
 11
241.5853887573968
 21
170.75798622306971
 31
0.0
  0
LINE
  5
6BAA
  8
DANMEN
  6
CONTINUOUS
 10
241.8853918091547
 20
169.4579860323349
 30
0.0
 11
242.3853918091547
 21
169.4579860323349
 31
0.0
  0
ARC
  5
6BAB
  8
DANMEN
  6
CONTINUOUS
 10
241.0853887573968
 20
170.25798622306979
 30
0.0
 40
0.5
 50
89.999982013910966
 51
179.99996402782111
  0
LINE
  5
6BAC
  8
DANMEN
  6
CONTINUOUS
 10
241.5853887573968
 20
172.25798622306979
 30
0.0
 11
241.5853887573968
 21
170.75798622306971
 31
0.0
  0
ARC
  5
6BAD
  8
DANMEN
  6
CONTINUOUS
 10
242.0853887573968
 20
172.25798622306979
 30
0.0
 40
0.5
 50
89.999982013910966
 51
179.99996402782111
  0
LINE
  5
6BAE
  8
DANMEN
  6
CONTINUOUS
 10
242.88539180915461
 20
172.25798622306979
 30
0.0
 11
242.88539180915461
 21
169.95798603233479
 31
0.0
  0
ARC
  5
6BAF
  8
DANMEN
  6
CONTINUOUS
 10
242.3853918091547
 20
172.25798622306979
 30
0.0
 40
0.5
 50
0.0
 51
89.999982013910966
  0
ARC
  5
6BB0
  8
DANMEN
  6
CONTINUOUS
 10
242.3853918091547
 20
169.95798603233479
 30
0.0
 40
0.5
 50
270.00001798608889
 51
0.0
  0
LINE
  5
6BB1
  8
DANMEN
  6
CONTINUOUS
 10
257.88537655036561
 20
170.75798622306971
 30
0.0
 11
258.5558935181391
 21
170.75798622306971
 31
0.0
  0
LINE
  5
6BB2
  8
DANMEN
  6
CONTINUOUS
 10
257.88537655036561
 20
170.75798622306971
 30
0.0
 11
257.88537655036561
 21
159.05798641380451
 31
0.0
  0
LINE
  5
6BB3
  8
DANMEN
  6
CONTINUOUS
 10
259.08538875739691
 20
165.55798832115309
 30
0.0
 11
259.08538875739691
 21
159.25798622306971
 31
0.0
  0
LINE
  5
6BB4
  8
DANMEN
  6
CONTINUOUS
 10
259.08538875739691
 20
159.25798622306971
 30
0.0
 11
272.08537349860768
 21
159.25798622306971
 31
0.0
  0
ARC
  5
6BB5
  8
DANMEN
  6
CONTINUOUS
 10
259.38537655036561
 20
167.05798546013031
 30
0.0
 40
1.0
 50
307.8673278201648
 51
23.231570235289009
  0
LINE
  5
6BB6
  8
DANMEN
  6
CONTINUOUS
 10
260.30429563748271
 20
167.45242822721431
 30
0.0
 11
259.01534508878541
 21
170.45520473939189
 31
0.0
  0
LINE
  5
6BB7
  8
DANMEN
  6
CONTINUOUS
 10
241.8853918091547
 20
159.05798641380451
 30
0.0
 11
257.88537655036561
 21
159.05798641380451
 31
0.0
  0
LINE
  5
6BB8
  8
DANMEN
  6
CONTINUOUS
 10
241.8853918091547
 20
169.4579860323349
 30
0.0
 11
241.8853918091547
 21
159.05798641380451
 31
0.0
  0
ARC
  5
6BB9
  8
DANMEN
  6
CONTINUOUS
 10
258.5558935181391
 20
170.25798622306979
 30
0.0
 40
0.5
 50
23.231597556044829
 51
90.00003665542431
  0
LINE
  5
6BBA
  8
DANMEN
  6
CONTINUOUS
 10
288.78538570563887
 20
172.75798622306971
 30
0.0
 11
289.08538875739691
 21
172.75798622306971
 31
0.0
  0
LINE
  5
6BBB
  8
DANMEN
  6
CONTINUOUS
 10
290.5853887573968
 20
158.75798622306979
 30
0.0
 11
290.5853887573968
 21
170.25798622306979
 31
0.0
  0
ARC
  5
6BBC
  8
DANMEN
  6
CONTINUOUS
 10
289.58538875739691
 20
158.75798622306979
 30
0.0
 40
1.0
 50
270.00001798608889
 51
0.0000359721780749
  0
LINE
  5
6BBD
  8
DANMEN
  6
CONTINUOUS
 10
289.58538875739691
 20
170.75798622306971
 30
0.0
 11
290.08538875739691
 21
170.75798622306971
 31
0.0
  0
LINE
  5
6BBE
  8
DANMEN
  6
CONTINUOUS
 10
288.78538570563887
 20
169.4579860323349
 30
0.0
 11
289.28538570563887
 21
169.4579860323349
 31
0.0
  0
ARC
  5
6BBF
  8
DANMEN
  6
CONTINUOUS
 10
290.08538875739691
 20
170.25798622306979
 30
0.0
 40
0.5
 50
0.0000359721780749
 51
89.999982013910966
  0
LINE
  5
6BC0
  8
DANMEN
  6
CONTINUOUS
 10
289.58538875739691
 20
170.75798622306971
 30
0.0
 11
289.58538875739691
 21
172.25798622306979
 31
0.0
  0
ARC
  5
6BC1
  8
DANMEN
  6
CONTINUOUS
 10
289.08538875739691
 20
172.25798622306979
 30
0.0
 40
0.5
 50
0.0000359721780749
 51
89.999982013910966
  0
LINE
  5
6BC2
  8
DANMEN
  6
CONTINUOUS
 10
288.2853857056391
 20
169.95798603233479
 30
0.0
 11
288.2853857056391
 21
172.25798622306979
 31
0.0
  0
ARC
  5
6BC3
  8
DANMEN
  6
CONTINUOUS
 10
288.78538570563887
 20
172.25798622306979
 30
0.0
 40
0.5
 50
89.999982013910966
 51
179.99996402782111
  0
ARC
  5
6BC4
  8
DANMEN
  6
CONTINUOUS
 10
288.78538570563887
 20
169.95798603233479
 30
0.0
 40
0.5
 50
180.00003597217801
 51
270.00001798608889
  0
LINE
  5
6BC5
  8
DANMEN
  6
CONTINUOUS
 10
272.61486873786561
 20
170.75798622306971
 30
0.0
 11
273.2853857056391
 21
170.75798622306971
 31
0.0
  0
LINE
  5
6BC6
  8
DANMEN
  6
CONTINUOUS
 10
273.2853857056391
 20
159.05798641380451
 30
0.0
 11
273.2853857056391
 21
170.75798622306971
 31
0.0
  0
LINE
  5
6BC7
  8
DANMEN
  6
CONTINUOUS
 10
272.08537349860768
 20
159.25798622306971
 30
0.0
 11
272.08537349860768
 21
165.55798641380451
 31
0.0
  0
ARC
  5
6BC8
  8
DANMEN
  6
CONTINUOUS
 10
271.7853857056391
 20
167.05798546013031
 30
0.0
 40
1.0
 50
156.7684142831003
 51
232.13228445291421
  0
LINE
  5
6BC9
  8
DANMEN
  6
CONTINUOUS
 10
272.15539585064079
 20
170.4551872291415
 30
0.0
 11
270.86644492576812
 21
167.45240984061519
 31
0.0
  0
LINE
  5
6BCA
  8
DANMEN
  6
CONTINUOUS
 10
273.2853857056391
 20
159.05798641380451
 30
0.0
 11
289.28538570563887
 21
159.05798641380451
 31
0.0
  0
LINE
  5
6BCB
  8
DANMEN
  6
CONTINUOUS
 10
289.28538570563887
 20
159.05798641380451
 30
0.0
 11
289.28538570563887
 21
169.4579860323349
 31
0.0
  0
ARC
  5
6BCC
  8
DANMEN
  6
CONTINUOUS
 10
272.61486873786561
 20
170.25798622306979
 30
0.0
 40
0.5
 50
89.999927372397593
 51
156.7683596415865
  0
LINE
  5
6BCD
  8
DANMEN
  6
CONTINUOUS
 10
259.99920082290112
 20
166.26853684566541
 30
0.0
 11
259.0853815267921
 21
165.55798450679811
 31
0.0
  0
LINE
  5
6BCE
  8
DANMEN
  6
CONTINUOUS
 10
271.17152618658491
 20
166.26855087341801
 30
0.0
 11
272.08535283670898
 21
165.55798316543161
 31
0.0
  0
LINE
  5
6BCF
  8
DANMEN
  6
PHANTOM
 10
448.79476986091248
 20
183.75807777580411
 30
0.0
 11
448.79476986091248
 21
169.75807777580411
 31
0.0
  0
LINE
  5
6BD0
  8
DANMEN
  6
PHANTOM
 10
450.19476947944281
 20
183.75807777580411
 30
0.0
 11
450.19476947944281
 21
169.75807777580411
 31
0.0
  0
LINE
  5
6BD1
  8
DANMEN
  6
PHANTOM
 10
447.19476947944281
 20
180.25807777580411
 30
0.0
 11
447.19476947944281
 21
173.25807777580411
 31
0.0
  0
LINE
  5
6BD2
  8
DANMEN
  6
PHANTOM
 10
447.19476947944281
 20
180.25807777580411
 30
0.0
 11
448.79476986091248
 21
180.25807777580411
 31
0.0
  0
LINE
  5
6BD3
  8
DANMEN
  6
PHANTOM
 10
447.19476947944281
 20
173.25807777580411
 30
0.0
 11
448.79476986091248
 21
173.25807777580411
 31
0.0
  0
LINE
  5
6BD4
  8
DANMEN
  6
PHANTOM
 10
448.79476986091248
 20
183.75807777580411
 30
0.0
 11
450.19476947944281
 21
183.75807777580411
 31
0.0
  0
LINE
  5
6BD5
  8
DANMEN
  6
PHANTOM
 10
448.79476986091248
 20
169.75807777580411
 30
0.0
 11
450.19476947944281
 21
169.75807777580411
 31
0.0
  0
LINE
  5
6BD6
  8
DANMEN
  6
CONTINUOUS
 10
341.08538875739691
 20
172.75798622306971
 30
0.0
 11
350.0853887573968
 21
172.75798622306971
 31
0.0
  0
LINE
  5
6BD7
  8
DANMEN
  6
CONTINUOUS
 10
342.2853857056391
 20
174.70799843010099
 30
0.0
 11
344.0853887573968
 21
174.70799843010099
 31
0.0
  0
LINE
  5
6BD8
  8
DANMEN
  6
CONTINUOUS
 10
370.5853887573968
 20
235.25798622306971
 30
0.0
 11
370.5853887573968
 21
232.25798622306971
 31
0.0
  0
LINE
  5
6BD9
  8
DANMEN
  6
CONTINUOUS
 10
320.58538875739691
 20
235.25798622306971
 30
0.0
 11
320.58538875739691
 21
232.25798622306971
 31
0.0
  0
LINE
  5
6BDA
  8
DANMEN
  6
CONTINUOUS
 10
321.08538875739691
 20
235.75798622306959
 30
0.0
 11
342.58538875739691
 21
235.75798622306959
 31
0.0
  0
LINE
  5
6BDB
  8
DANMEN
  6
CONTINUOUS
 10
321.08538875739691
 20
231.75798622306959
 30
0.0
 11
327.58538875739691
 21
231.75798622306959
 31
0.0
  0
LINE
  5
6BDC
  8
DANMEN
  6
CONTINUOUS
 10
347.0853887573968
 20
211.95798317131201
 30
0.0
 11
347.0853887573968
 21
202.45798317131181
 31
0.0
  0
LINE
  5
6BDD
  8
DANMEN
  6
CONTINUOUS
 10
344.0853887573968
 20
213.45798317131181
 30
0.0
 11
344.0853887573968
 21
202.45798317131181
 31
0.0
  0
LINE
  5
6BDE
  8
DANMEN
  6
CONTINUOUS
 10
363.5853887573968
 20
231.75798622306959
 30
0.0
 11
370.0853887573968
 21
231.75798622306959
 31
0.0
  0
LINE
  5
6BDF
  8
DANMEN
  6
CONTINUOUS
 10
350.5853887573968
 20
176.25798622306979
 30
0.0
 11
350.5853887573968
 21
173.25798622306971
 31
0.0
  0
LINE
  5
6BE0
  8
DANMEN
  6
CONTINUOUS
 10
340.58538875739691
 20
176.25798622306979
 30
0.0
 11
340.58538875739691
 21
173.25798622306971
 31
0.0
  0
LINE
  5
6BE1
  8
DANMEN
  6
CONTINUOUS
 10
348.88537655036561
 20
176.75798622306971
 30
0.0
 11
348.88537655036561
 21
174.70799843010099
 31
0.0
  0
LINE
  5
6BE2
  8
DANMEN
  6
CONTINUOUS
 10
342.2853857056391
 20
176.75798622306971
 30
0.0
 11
342.2853857056391
 21
174.70799843010099
 31
0.0
  0
LINE
  5
6BE3
  8
DANMEN
  6
CONTINUOUS
 10
341.08538875739691
 20
176.75798622306971
 30
0.0
 11
342.2853857056391
 21
176.75798622306971
 31
0.0
  0
LINE
  5
6BE4
  8
DANMEN
  6
CONTINUOUS
 10
348.88537655036561
 20
176.75798622306971
 30
0.0
 11
350.0853887573968
 21
176.75798622306971
 31
0.0
  0
LINE
  5
6BE5
  8
DANMEN
  6
CONTINUOUS
 10
347.0853887573968
 20
174.70799843010099
 30
0.0
 11
348.88537655036561
 21
174.70799843010099
 31
0.0
  0
LINE
  5
6BE6
  8
DANMEN
  6
CONTINUOUS
 10
349.78538952033631
 20
205.95798317131181
 30
0.0
 11
350.0853887573968
 21
205.95798317131181
 31
0.0
  0
LINE
  5
6BE7
  8
DANMEN
  6
CONTINUOUS
 10
350.5853887573968
 20
205.45798317131181
 30
0.0
 11
350.5853887573968
 21
201.95798317131181
 31
0.0
  0
LINE
  5
6BE8
  8
DANMEN
  6
CONTINUOUS
 10
347.0853887573968
 20
200.95798317131181
 30
0.0
 11
349.5853887573968
 21
200.95798317131181
 31
0.0
  0
LINE
  5
6BE9
  8
DANMEN
  6
CONTINUOUS
 10
347.0853887573968
 20
202.45798317131181
 30
0.0
 11
349.28538952033631
 21
202.45798317131181
 31
0.0
  0
ARC
  5
6BEA
  8
DANMEN
  6
CONTINUOUS
 10
349.5853887573968
 20
201.95798317131181
 30
0.0
 40
1.0
 50
270.00001798608889
 51
0.0
  0
ARC
  5
6BEB
  8
DANMEN
  6
CONTINUOUS
 10
350.0853887573968
 20
205.45798317131181
 30
0.0
 40
0.5
 50
0.0
 51
89.999982013910966
  0
LINE
  5
6BEC
  8
DANMEN
  6
CONTINUOUS
 10
347.0853887573968
 20
200.95798317131181
 30
0.0
 11
347.0853887573968
 21
174.70799843010099
 31
0.0
  0
LINE
  5
6BED
  8
DANMEN
  6
CONTINUOUS
 10
341.08538875739691
 20
205.95798317131181
 30
0.0
 11
341.38538894813161
 21
205.95798317131181
 31
0.0
  0
LINE
  5
6BEE
  8
DANMEN
  6
CONTINUOUS
 10
340.58538875739691
 20
201.95798317131181
 30
0.0
 11
340.58538875739691
 21
205.45798317131181
 31
0.0
  0
LINE
  5
6BEF
  8
DANMEN
  6
CONTINUOUS
 10
341.58538875739691
 20
200.95798317131181
 30
0.0
 11
344.0853887573968
 21
200.95798317131181
 31
0.0
  0
LINE
  5
6BF0
  8
DANMEN
  6
CONTINUOUS
 10
341.88538894813161
 20
202.45798317131181
 30
0.0
 11
344.0853887573968
 21
202.45798317131181
 31
0.0
  0
ARC
  5
6BF1
  8
DANMEN
  6
CONTINUOUS
 10
341.58538875739691
 20
201.95798317131181
 30
0.0
 40
1.0
 50
180.00003597217801
 51
270.00001798608889
  0
ARC
  5
6BF2
  8
DANMEN
  6
CONTINUOUS
 10
341.08538875739691
 20
205.45798317131181
 30
0.0
 40
0.5
 50
89.999982013910966
 51
179.99996402782111
  0
LINE
  5
6BF3
  8
DANMEN
  6
CONTINUOUS
 10
344.0853887573968
 20
200.95798317131181
 30
0.0
 11
344.0853887573968
 21
174.70799843010099
 31
0.0
  0
ARC
  5
6BF4
  8
DANMEN
  6
CONTINUOUS
 10
370.0853887573968
 20
235.25798622306971
 30
0.0
 40
0.5
 50
0.0
 51
89.999982013910966
  0
ARC
  5
6BF5
  8
DANMEN
  6
CONTINUOUS
 10
370.0853887573968
 20
232.25798622306971
 30
0.0
 40
0.5
 50
270.00001798608889
 51
0.0
  0
ARC
  5
6BF6
  8
DANMEN
  6
CONTINUOUS
 10
321.08538875739691
 20
235.25798622306971
 30
0.0
 40
0.5
 50
89.999982013910966
 51
179.99996402782111
  0
ARC
  5
6BF7
  8
DANMEN
  6
CONTINUOUS
 10
321.08538875739691
 20
232.25798622306971
 30
0.0
 40
0.5
 50
179.99996402782111
 51
270.00000068324448
  0
ARC
  5
6BF8
  8
DANMEN
  6
CONTINUOUS
 10
350.0853887573968
 20
176.25798622306979
 30
0.0
 40
0.5
 50
0.0
 51
89.999982013910966
  0
ARC
  5
6BF9
  8
DANMEN
  6
CONTINUOUS
 10
350.0853887573968
 20
173.25798622306971
 30
0.0
 40
0.5
 50
270.00001798608889
 51
0.0
  0
ARC
  5
6BFA
  8
DANMEN
  6
CONTINUOUS
 10
341.08538875739691
 20
173.25798622306971
 30
0.0
 40
0.5
 50
179.99996402782111
 51
270.00000068324448
  0
ARC
  5
6BFB
  8
DANMEN
  6
CONTINUOUS
 10
341.08538875739691
 20
176.25798622306979
 30
0.0
 40
0.5
 50
89.999982013910966
 51
179.99996402782111
  0
LINE
  5
6BFC
  8
DANMEN
  6
CONTINUOUS
 10
349.5853887573968
 20
232.25798622306971
 30
0.0
 11
363.5853887573968
 21
232.25798622306971
 31
0.0
  0
LINE
  5
6BFD
  8
DANMEN
  6
CONTINUOUS
 10
327.58538875739691
 20
232.25798622306971
 30
0.0
 11
346.5853887573968
 21
232.25798622306971
 31
0.0
  0
LINE
  5
6BFE
  8
DANMEN
  6
CONTINUOUS
 10
363.5853887573968
 20
232.25798622306971
 30
0.0
 11
363.5853887573968
 21
231.75798622306959
 31
0.0
  0
LINE
  5
6BFF
  8
DANMEN
  6
CONTINUOUS
 10
327.58538875739691
 20
232.25798622306971
 30
0.0
 11
327.58538875739691
 21
231.75798622306959
 31
0.0
  0
LINE
  5
6C00
  8
DANMEN
  6
CONTINUOUS
 10
343.08538875739691
 20
235.25798622306971
 30
0.0
 11
348.0853887573968
 21
235.25798622306971
 31
0.0
  0
LINE
  5
6C01
  8
DANMEN
  6
CONTINUOUS
 10
348.5853887573968
 20
235.75798622306959
 30
0.0
 11
370.0853887573968
 21
235.75798622306959
 31
0.0
  0
LINE
  5
6C02
  8
DANMEN
  6
CONTINUOUS
 10
348.58538115257238
 20
235.75795599687089
 30
0.0
 11
348.08539141137061
 21
235.25796625566929
 31
0.0
  0
LINE
  5
6C03
  8
DANMEN
  6
CONTINUOUS
 10
343.08538610342299
 20
235.25796625566929
 30
0.0
 11
342.5853855726283
 21
235.75796678646401
 31
0.0
  0
LINE
  5
6C04
  8
DANMEN
  6
CONTINUOUS
 10
349.28538952033631
 20
205.45798317131181
 30
0.0
 11
349.28538952033631
 21
202.45798317131181
 31
0.0
  0
LINE
  5
6C05
  8
DANMEN
  6
CONTINUOUS
 10
341.88538894813161
 20
202.45798317131181
 30
0.0
 11
341.88538894813161
 21
205.45798317131181
 31
0.0
  0
ARC
  5
6C06
  8
DANMEN
  6
CONTINUOUS
 10
349.78538952033631
 20
205.45798317131181
 30
0.0
 40
0.5
 50
89.999982013910966
 51
179.99996402782111
  0
ARC
  5
6C07
  8
DANMEN
  6
CONTINUOUS
 10
341.38538894813161
 20
205.45798317131181
 30
0.0
 40
0.5
 50
0.0
 51
89.999982013910966
  0
LINE
  5
6C08
  8
DANMEN
  6
CONTINUOUS
 10
347.0853887573968
 20
211.95798317131201
 30
0.0
 11
348.0853887573968
 21
211.95798317131201
 31
0.0
  0
LINE
  5
6C09
  8
DANMEN
  6
CONTINUOUS
 10
345.5853887573968
 20
214.95798317131181
 30
0.0
 11
346.5853887573968
 21
214.95798317131181
 31
0.0
  0
LINE
  5
6C0A
  8
DANMEN
  6
CONTINUOUS
 10
349.5853887573968
 20
232.25798622306971
 30
0.0
 11
349.5853887573968
 21
213.45798317131181
 31
0.0
  0
LINE
  5
6C0B
  8
DANMEN
  6
CONTINUOUS
 10
346.5853887573968
 20
232.25798622306971
 30
0.0
 11
346.5853887573968
 21
214.95798317131181
 31
0.0
  0
ARC
  5
6C0C
  8
DANMEN
  6
CONTINUOUS
 10
345.5853887573968
 20
213.45798317131181
 30
0.0
 40
1.5
 50
89.999982013910966
 51
179.99996402782111
  0
ARC
  5
6C0D
  8
DANMEN
  6
CONTINUOUS
 10
348.0853887573968
 20
213.45798317131181
 30
0.0
 40
1.5
 50
270.00001798608889
 51
0.0
  0
LINE
  5
6C0E
  8
DANMEN
  6
CONTINUOUS
 10
261.08538875739691
 20
172.7579938524643
 30
0.0
 11
264.08538875739691
 21
172.7579938524643
 31
0.0
  0
LINE
  5
6C0F
  8
DANMEN
  6
CONTINUOUS
 10
262.28538570563887
 20
174.7080060594954
 30
0.0
 11
264.08538875739691
 21
174.7080060594954
 31
0.0
  0
LINE
  5
6C10
  8
DANMEN
  6
CONTINUOUS
 10
290.5853887573968
 20
235.2579709642807
 30
0.0
 11
290.5853887573968
 21
232.25797096428059
 31
0.0
  0
LINE
  5
6C11
  8
DANMEN
  6
CONTINUOUS
 10
240.58538875739691
 20
235.2579709642807
 30
0.0
 11
240.58538875739691
 21
232.25797096428059
 31
0.0
  0
LINE
  5
6C12
  8
DANMEN
  6
CONTINUOUS
 10
241.0853887573968
 20
235.7579709642807
 30
0.0
 11
262.58538875739691
 21
235.7579709642807
 31
0.0
  0
LINE
  5
6C13
  8
DANMEN
  6
CONTINUOUS
 10
241.0853887573968
 20
231.7579709642807
 30
0.0
 11
247.5853887573968
 21
231.7579709642807
 31
0.0
  0
LINE
  5
6C14
  8
DANMEN
  6
CONTINUOUS
 10
267.08538875739691
 20
211.9579679125228
 30
0.0
 11
267.08538875739691
 21
202.45796791252289
 31
0.0
  0
LINE
  5
6C15
  8
DANMEN
  6
CONTINUOUS
 10
264.08538875739691
 20
213.4579679125228
 30
0.0
 11
264.08538875739691
 21
202.45796791252289
 31
0.0
  0
LINE
  5
6C16
  8
DANMEN
  6
CONTINUOUS
 10
283.58538875739691
 20
231.7579709642807
 30
0.0
 11
290.08538875739691
 21
231.7579709642807
 31
0.0
  0
LINE
  5
6C17
  8
DANMEN
  6
CONTINUOUS
 10
260.58538875739691
 20
176.2579709642807
 30
0.0
 11
260.58538875739691
 21
173.2579938524643
 31
0.0
  0
LINE
  5
6C18
  8
DANMEN
  6
CONTINUOUS
 10
268.88537655036549
 20
176.7579709642807
 30
0.0
 11
268.88537655036549
 21
174.7080060594954
 31
0.0
  0
LINE
  5
6C19
  8
DANMEN
  6
CONTINUOUS
 10
262.28538570563887
 20
176.7579709642807
 30
0.0
 11
262.28538570563887
 21
174.7080060594954
 31
0.0
  0
LINE
  5
6C1A
  8
DANMEN
  6
CONTINUOUS
 10
261.08538875739691
 20
176.7579709642807
 30
0.0
 11
262.28538570563887
 21
176.7579709642807
 31
0.0
  0
LINE
  5
6C1B
  8
DANMEN
  6
CONTINUOUS
 10
268.88537655036549
 20
176.7579709642807
 30
0.0
 11
270.08538875739691
 21
176.7579709642807
 31
0.0
  0
LINE
  5
6C1C
  8
DANMEN
  6
CONTINUOUS
 10
267.08538875739691
 20
174.7080060594954
 30
0.0
 11
268.88537655036549
 21
174.7080060594954
 31
0.0
  0
LINE
  5
6C1D
  8
DANMEN
  6
CONTINUOUS
 10
269.7853857056391
 20
205.9579679125228
 30
0.0
 11
270.08538875739691
 21
205.9579679125228
 31
0.0
  0
LINE
  5
6C1E
  8
DANMEN
  6
CONTINUOUS
 10
270.58538875739691
 20
205.4579679125228
 30
0.0
 11
270.58538875739691
 21
201.9579679125228
 31
0.0
  0
LINE
  5
6C1F
  8
DANMEN
  6
CONTINUOUS
 10
267.08538875739691
 20
200.9579679125228
 30
0.0
 11
269.58538875739691
 21
200.9579679125228
 31
0.0
  0
LINE
  5
6C20
  8
DANMEN
  6
CONTINUOUS
 10
267.08538875739691
 20
202.45796791252289
 30
0.0
 11
269.2853857056391
 21
202.45796791252289
 31
0.0
  0
ARC
  5
6C21
  8
DANMEN
  6
CONTINUOUS
 10
269.58538875739691
 20
201.9579679125228
 30
0.0
 40
1.0
 50
270.00001798608889
 51
0.0
  0
ARC
  5
6C22
  8
DANMEN
  6
CONTINUOUS
 10
270.08538875739691
 20
205.4579679125228
 30
0.0
 40
0.5
 50
0.0
 51
89.999982013910966
  0
LINE
  5
6C23
  8
DANMEN
  6
CONTINUOUS
 10
267.08538875739691
 20
200.9579679125228
 30
0.0
 11
267.08538875739691
 21
174.7080060594954
 31
0.0
  0
LINE
  5
6C24
  8
DANMEN
  6
CONTINUOUS
 10
261.08538875739691
 20
205.9579679125228
 30
0.0
 11
261.38537655036561
 21
205.9579679125228
 31
0.0
  0
LINE
  5
6C25
  8
DANMEN
  6
CONTINUOUS
 10
260.58538875739691
 20
201.9579679125228
 30
0.0
 11
260.58538875739691
 21
205.4579679125228
 31
0.0
  0
LINE
  5
6C26
  8
DANMEN
  6
CONTINUOUS
 10
261.5853887573968
 20
200.9579679125228
 30
0.0
 11
264.08538875739691
 21
200.9579679125228
 31
0.0
  0
LINE
  5
6C27
  8
DANMEN
  6
CONTINUOUS
 10
261.88537655036561
 20
202.45796791252289
 30
0.0
 11
264.08538875739691
 21
202.45796791252289
 31
0.0
  0
ARC
  5
6C28
  8
DANMEN
  6
CONTINUOUS
 10
261.5853887573968
 20
201.9579679125228
 30
0.0
 40
1.0
 50
180.00003597217801
 51
270.00001798608889
  0
ARC
  5
6C29
  8
DANMEN
  6
CONTINUOUS
 10
261.08538875739691
 20
205.4579679125228
 30
0.0
 40
0.5
 50
89.999982013910966
 51
179.99996402782111
  0
LINE
  5
6C2A
  8
DANMEN
  6
CONTINUOUS
 10
264.08538875739691
 20
200.9579679125228
 30
0.0
 11
264.08538875739691
 21
174.7080060594954
 31
0.0
  0
ARC
  5
6C2B
  8
DANMEN
  6
CONTINUOUS
 10
290.08538875739691
 20
235.2579709642807
 30
0.0
 40
0.5
 50
0.0
 51
89.999982013910966
  0
ARC
  5
6C2C
  8
DANMEN
  6
CONTINUOUS
 10
290.08538875739691
 20
232.25797096428059
 30
0.0
 40
0.5
 50
270.00001798608889
 51
0.0
  0
ARC
  5
6C2D
  8
DANMEN
  6
CONTINUOUS
 10
241.0853887573968
 20
235.2579709642807
 30
0.0
 40
0.5
 50
89.999982013910966
 51
179.99996402782111
  0
ARC
  5
6C2E
  8
DANMEN
  6
CONTINUOUS
 10
241.0853887573968
 20
232.25797096428059
 30
0.0
 40
0.5
 50
179.99996402782111
 51
270.00000068324448
  0
ARC
  5
6C2F
  8
DANMEN
  6
CONTINUOUS
 10
270.08538875739691
 20
176.2579709642807
 30
0.0
 40
0.5
 50
0.0
 51
89.999982013910966
  0
ARC
  5
6C30
  8
DANMEN
  6
CONTINUOUS
 10
261.08538875739691
 20
176.2579709642807
 30
0.0
 40
0.5
 50
89.999982013910966
 51
179.99996402782111
  0
LINE
  5
6C31
  8
DANMEN
  6
CONTINUOUS
 10
269.58538875739691
 20
232.25797096428059
 30
0.0
 11
283.58538875739691
 21
232.25797096428059
 31
0.0
  0
LINE
  5
6C32
  8
DANMEN
  6
CONTINUOUS
 10
247.5853887573968
 20
232.25797096428059
 30
0.0
 11
266.58538875739691
 21
232.25797096428059
 31
0.0
  0
LINE
  5
6C33
  8
DANMEN
  6
CONTINUOUS
 10
283.58538875739691
 20
232.25797096428059
 30
0.0
 11
283.58538875739691
 21
231.7579709642807
 31
0.0
  0
LINE
  5
6C34
  8
DANMEN
  6
CONTINUOUS
 10
247.5853887573968
 20
232.25797096428059
 30
0.0
 11
247.5853887573968
 21
231.7579709642807
 31
0.0
  0
LINE
  5
6C35
  8
DANMEN
  6
CONTINUOUS
 10
263.08538875739691
 20
235.2579709642807
 30
0.0
 11
268.08538875739691
 21
235.2579709642807
 31
0.0
  0
LINE
  5
6C36
  8
DANMEN
  6
CONTINUOUS
 10
268.58538875739691
 20
235.7579709642807
 30
0.0
 11
290.08538875739691
 21
235.7579709642807
 31
0.0
  0
LINE
  5
6C37
  8
DANMEN
  6
CONTINUOUS
 10
268.58538646051983
 20
235.7579111117285
 30
0.0
 11
268.08538592972502
 21
235.25791058093381
 31
0.0
  0
LINE
  5
6C38
  8
DANMEN
  6
CONTINUOUS
 10
263.08541299055662
 20
235.2578997913408
 30
0.0
 11
262.58541245976193
 21
235.7579003221355
 31
0.0
  0
LINE
  5
6C39
  8
DANMEN
  6
CONTINUOUS
 10
261.08538875739691
 20
159.45799843010099
 30
0.0
 11
270.08538875739691
 21
159.45799843010099
 31
0.0
  0
ARC
  5
6C3A
  8
DANMEN
  6
CONTINUOUS
 10
261.08538875739691
 20
159.9579984301009
 30
0.0
 40
0.5
 50
179.99996402782111
 51
270.00000068324448
  0
LINE
  5
6C3B
  8
DANMEN
  6
CONTINUOUS
 10
262.20526180427191
 20
162.4579936617294
 30
0.0
 11
264.08538875739691
 21
162.4579936617294
 31
0.0
  0
ARC
  5
6C3C
  8
DANMEN
  6
CONTINUOUS
 10
260.18538818519232
 20
165.55799308952481
 30
0.0
 40
0.7999992370605469
 50
128.9766477578853
 51
202.18179565938161
  0
LINE
  5
6C3D
  8
DANMEN
  6
CONTINUOUS
 10
260.58538875739691
 20
162.4579936617294
 30
0.0
 11
260.58538875739691
 21
159.9579984301009
 31
0.0
  0
LINE
  5
6C3E
  8
DANMEN
  6
CONTINUOUS
 10
270.58538875739691
 20
173.2579938524643
 30
0.0
 11
270.58538875739691
 21
176.2579709642807
 31
0.0
  0
LINE
  5
6C3F
  8
DANMEN
  6
CONTINUOUS
 10
267.08538875739691
 20
172.7579938524643
 30
0.0
 11
267.08538875739691
 21
162.4579936617294
 31
0.0
  0
LINE
  5
6C40
  8
DANMEN
  6
CONTINUOUS
 10
264.08538875739691
 20
172.7579938524643
 30
0.0
 11
264.08538875739691
 21
162.4579936617294
 31
0.0
  0
ARC
  5
6C41
  8
DANMEN
  6
CONTINUOUS
 10
261.08538875739691
 20
173.2579938524643
 30
0.0
 40
0.5
 50
179.99996402782111
 51
270.00000068324448
  0
ARC
  5
6C42
  8
DANMEN
  6
CONTINUOUS
 10
270.08538875739691
 20
173.2579938524643
 30
0.0
 40
0.5
 50
270.00001798608889
 51
0.0
  0
LINE
  5
6C43
  8
DANMEN
  6
CONTINUOUS
 10
267.08538875739691
 20
172.7579938524643
 30
0.0
 11
270.08538875739691
 21
172.7579938524643
 31
0.0
  0
LINE
  5
6C44
  8
DANMEN
  6
CONTINUOUS
 10
267.08538875739691
 20
162.4579936617294
 30
0.0
 11
268.96550045173279
 21
162.4579936617294
 31
0.0
  0
ARC
  5
6C45
  8
DANMEN
  6
CONTINUOUS
 10
260.88538894813161
 20
166.55799308952481
 30
0.0
 40
0.5
 50
0.0
 51
130.7806373214683
  0
LINE
  5
6C46
  8
DANMEN
  6
CONTINUOUS
 10
260.55879811396352
 20
166.93659260228441
 30
0.0
 11
259.66285590956568
 21
166.1637632289376
 31
0.0
  0
LINE
  5
6C47
  8
DANMEN
  6
CONTINUOUS
 10
261.38538894813161
 20
166.55799308952481
 30
0.0
 11
261.38538894813161
 21
164.46888843711989
 31
0.0
  0
LINE
  5
6C48
  8
DANMEN
  6
CONTINUOUS
 10
259.44459608984619
 20
165.25595560241251
 30
0.0
 11
260.58538795507081
 21
162.45799399219399
 31
0.0
  0
LINE
  5
6C49
  8
DANMEN
  6
CONTINUOUS
 10
261.38538568713921
 20
164.46888712272099
 30
0.0
 11
262.20527246744342
 21
162.4579929307595
 31
0.0
  0
ARC
  5
6C4A
  8
DANMEN
  6
CONTINUOUS
 10
270.08538875739691
 20
159.9579984301009
 30
0.0
 40
0.5
 50
270.00001798608889
 51
0.0000359721780749
  0
ARC
  5
6C4B
  8
DANMEN
  6
CONTINUOUS
 10
270.98538265388112
 20
165.55799308952481
 30
0.0
 40
0.7999992370605469
 50
337.81820593448009
 51
51.023350420882203
  0
LINE
  5
6C4C
  8
DANMEN
  6
CONTINUOUS
 10
270.58538875739691
 20
159.9579984301009
 30
0.0
 11
270.58538875739691
 21
162.4579936617294
 31
0.0
  0
ARC
  5
6C4D
  8
DANMEN
  6
CONTINUOUS
 10
270.28538570563899
 20
166.55799308952481
 30
0.0
 40
0.5
 50
49.219360857298213
 51
179.99996402782111
  0
LINE
  5
6C4E
  8
DANMEN
  6
CONTINUOUS
 10
271.50791408184392
 20
166.1637606904147
 30
0.0
 11
270.61196465607742
 21
166.9365962928305
 31
0.0
  0
LINE
  5
6C4F
  8
DANMEN
  6
CONTINUOUS
 10
269.7853857056391
 20
164.46888843711989
 30
0.0
 11
269.7853857056391
 21
166.55799308952481
 31
0.0
  0
LINE
  5
6C50
  8
DANMEN
  6
CONTINUOUS
 10
270.58537499787548
 20
162.45799946269011
 30
0.0
 11
271.72616686309999
 21
165.2559610729088
 31
0.0
  0
LINE
  5
6C51
  8
DANMEN
  6
CONTINUOUS
 10
268.9654878362233
 20
162.4579994814267
 30
0.0
 11
269.78537461652741
 21
164.4688936733881
 31
0.0
  0
LINE
  5
6C52
  8
DANMEN
  6
CONTINUOUS
 10
269.2853857056391
 20
205.4579679125228
 30
0.0
 11
269.2853857056391
 21
202.45796791252289
 31
0.0
  0
LINE
  5
6C53
  8
DANMEN
  6
CONTINUOUS
 10
261.88537655036561
 20
202.45796791252289
 30
0.0
 11
261.88537655036561
 21
205.4579679125228
 31
0.0
  0
ARC
  5
6C54
  8
DANMEN
  6
CONTINUOUS
 10
269.7853857056391
 20
205.4579679125228
 30
0.0
 40
0.5
 50
89.999982013910966
 51
179.99996402782111
  0
ARC
  5
6C55
  8
DANMEN
  6
CONTINUOUS
 10
261.38537655036561
 20
205.4579679125228
 30
0.0
 40
0.5
 50
0.0
 51
89.999982013910966
  0
LINE
  5
6C56
  8
DANMEN
  6
CONTINUOUS
 10
267.08538875739691
 20
211.9579679125228
 30
0.0
 11
268.08538875739691
 21
211.9579679125228
 31
0.0
  0
LINE
  5
6C57
  8
DANMEN
  6
CONTINUOUS
 10
265.58538875739691
 20
214.95796791252289
 30
0.0
 11
266.58538875739691
 21
214.95796791252289
 31
0.0
  0
LINE
  5
6C58
  8
DANMEN
  6
CONTINUOUS
 10
266.58538875739691
 20
232.25797096428059
 30
0.0
 11
266.58538875739691
 21
214.95796791252289
 31
0.0
  0
LINE
  5
6C59
  8
DANMEN
  6
CONTINUOUS
 10
269.58538875739691
 20
232.25797096428059
 30
0.0
 11
269.58538875739691
 21
213.4579679125228
 31
0.0
  0
ARC
  5
6C5A
  8
DANMEN
  6
CONTINUOUS
 10
268.08538875739691
 20
213.4579679125228
 30
0.0
 40
1.5
 50
270.00001798608889
 51
0.0
  0
ARC
  5
6C5B
  8
DANMEN
  6
CONTINUOUS
 10
265.58538875739691
 20
213.4579679125228
 30
0.0
 40
1.5
 50
89.999982013910966
 51
179.99996402782111
  0
LINE
  5
6C5C
  8
DANMEN
  6
CONTINUOUS
 10
158.7484597187391
 20
273.3966275804915
 30
0.0
 11
158.7484679150518
 21
287.89662758048922
 31
0.0
  0
LINE
  5
6C5D
  8
DANMEN
  6
CONTINUOUS
 10
131.74845943611211
 20
272.89664284259089
 30
0.0
 11
158.24845943610791
 21
272.89662786312311
 31
0.0
  0
LINE
  5
6C5E
  8
DANMEN
  6
CONTINUOUS
 10
124.2484893917387
 20
298.89664708204998
 30
0.0
 11
125.0484924434964
 21
298.89664662983802
 31
0.0
  0
ARC
  5
6C5F
  8
DANMEN
  6
CONTINUOUS
 10
158.24845971873941
 20
273.396627863123
 30
0.0
 40
0.5
 50
269.99993164064051
 51
359.99996829606482
  0
LINE
  5
6C60
  8
DANMEN
  6
CONTINUOUS
 10
125.0484737931297
 20
292.89664662984762
 30
0.0
 11
125.0484759411133
 21
296.69661916402669
 31
0.0
  0
LINE
  5
6C61
  8
DANMEN
  6
CONTINUOUS
 10
125.0484911999024
 20
296.6966191640181
 30
0.0
 11
128.04847594111291
 21
296.69661746823778
 31
0.0
  0
LINE
  5
6C62
  8
DANMEN
  6
CONTINUOUS
 10
125.0484919347373
 20
297.99660695698662
 30
0.0
 11
128.0484766759478
 21
297.9966052612063
 31
0.0
  0
LINE
  5
6C63
  8
DANMEN
  6
CONTINUOUS
 10
125.0484919347373
 20
297.99660695698662
 30
0.0
 11
125.0484924434964
 21
298.89664662983802
 31
0.0
  0
LINE
  5
6C64
  8
DANMEN
  6
CONTINUOUS
 10
128.5484762237443
 20
297.19661718560633
 30
0.0
 11
128.54847639331621
 21
297.49660497857502
 31
0.0
  0
ARC
  5
6C65
  8
DANMEN
  6
CONTINUOUS
 10
128.04847639331621
 20
297.49660526120653
 30
0.0
 40
0.5
 50
359.99998559890838
 51
89.99996761281858
  0
ARC
  5
6C66
  8
DANMEN
  6
CONTINUOUS
 10
128.04847622374439
 20
297.19661746823778
 30
0.0
 40
0.5
 50
269.99993164064051
 51
359.99996829606482
  0
LINE
  5
6C67
  8
DANMEN
  6
CONTINUOUS
 10
157.2984681057869
 20
287.89662840012039
 30
0.0
 11
158.7484679150518
 21
287.89662758048922
 31
0.0
  0
ARC
  5
6C68
  8
DANMEN
  6
CONTINUOUS
 10
157.29846782315551
 20
287.39662840012051
 30
0.0
 40
0.5
 50
89.99996761281858
 51
179.9999496267294
  0
LINE
  5
6C69
  8
DANMEN
  6
CONTINUOUS
 10
154.74846763242101
 20
287.39662984154103
 30
0.0
 11
154.7484690455783
 21
289.89662984154052
 31
0.0
  0
LINE
  5
6C6A
  8
DANMEN
  6
CONTINUOUS
 10
153.44846822578211
 20
287.09663133932202
 30
0.0
 11
153.44846997808131
 21
290.19660311056168
 31
0.0
  0
LINE
  5
6C6B
  8
DANMEN
  6
CONTINUOUS
 10
154.7484690455783
 20
289.89662984154052
 30
0.0
 11
156.54846923631291
 21
289.89662882406719
 31
0.0
  0
LINE
  5
6C6C
  8
DANMEN
  6
CONTINUOUS
 10
156.54846923631291
 20
289.89662882406719
 30
0.0
 11
156.54846968851641
 21
290.69661661703577
 31
0.0
  0
ARC
  5
6C6D
  8
DANMEN
  6
CONTINUOUS
 10
156.04846968851641
 20
290.69661689966728
 30
0.0
 40
0.5
 50
359.99998559890838
 51
89.99996761281858
  0
ARC
  5
6C6E
  8
DANMEN
  6
CONTINUOUS
 10
124.2484891091072
 20
298.39664708205009
 30
0.0
 40
0.5
 50
89.99996761281858
 51
179.9999496267294
  0
LINE
  5
6C6F
  8
DANMEN
  6
CONTINUOUS
 10
154.44846766051899
 20
286.09663077405912
 30
0.0
 11
157.098467279049
 21
286.09662927611248
 31
0.0
  0
LINE
  5
6C70
  8
DANMEN
  6
CONTINUOUS
 10
154.74846763242101
 20
287.39662984154103
 30
0.0
 11
156.79846782315551
 21
287.39662868275178
 31
0.0
  0
LINE
  5
6C71
  8
DANMEN
  6
CONTINUOUS
 10
154.44847054334409
 20
291.19660254529862
 30
0.0
 11
156.0484699711393
 21
291.1966016408781
 31
0.0
  0
ARC
  5
6C72
  8
DANMEN
  6
CONTINUOUS
 10
154.44846822578211
 20
287.09663077405889
 30
0.0
 40
1.0
 50
179.9999496267294
 51
269.99993164064051
  0
ARC
  5
6C73
  8
DANMEN
  6
CONTINUOUS
 10
154.44846997808111
 20
290.19660254529862
 30
0.0
 40
1.0
 50
89.99996761281858
 51
179.9999496267294
  0
LINE
  5
6C74
  8
DANMEN
  6
CONTINUOUS
 10
123.748485547949
 20
292.09664431292481
 30
0.0
 11
123.7484891091072
 21
298.3966473646816
 31
0.0
  0
LINE
  5
6C75
  8
DANMEN
  6
CONTINUOUS
 10
129.74845689242909
 20
268.39664397311742
 30
0.0
 11
129.7484700065275
 21
291.59664092135591
 31
0.0
  0
LINE
  5
6C76
  8
DANMEN
  6
CONTINUOUS
 10
131.04846342055359
 20
274.54664285680309
 30
0.0
 11
131.0484735104973
 21
292.39664323826997
 31
0.0
  0
LINE
  5
6C77
  8
DANMEN
  6
CONTINUOUS
 10
125.0484737931297
 20
292.89664662984762
 30
0.0
 11
130.54847379312881
 21
292.89664352090142
 31
0.0
  0
LINE
  5
6C78
  8
DANMEN
  6
CONTINUOUS
 10
124.2484852653175
 20
291.59664403029342
 30
0.0
 11
129.7484700065275
 21
291.59664092135591
 31
0.0
  0
ARC
  5
6C79
  8
DANMEN
  6
CONTINUOUS
 10
124.248485547949
 20
292.09664403029319
 30
0.0
 40
0.5
 50
179.9999496267294
 51
269.99993164064051
  0
ARC
  5
6C7A
  8
DANMEN
  6
CONTINUOUS
 10
130.5484735104973
 20
292.39664352090159
 30
0.0
 40
0.5
 50
359.99998559890838
 51
89.99996761281858
  0
LINE
  5
6C7B
  8
DANMEN
  6
CONTINUOUS
 10
130.24845660979761
 20
267.89664369048609
 30
0.0
 11
131.24845660979739
 21
267.89664312522319
 31
0.0
  0
ARC
  5
6C7C
  8
DANMEN
  6
CONTINUOUS
 10
130.2484568924292
 20
268.39664369048592
 30
0.0
 40
0.5
 50
179.9999496267294
 51
269.99993164064051
  0
LINE
  5
6C7D
  8
DANMEN
  6
CONTINUOUS
 10
131.74845689242881
 20
268.39664284259152
 30
0.0
 11
131.74845943611211
 21
272.89664284259089
 31
0.0
  0
ARC
  5
6C7E
  8
DANMEN
  6
CONTINUOUS
 10
131.248456892429
 20
268.39664312522302
 30
0.0
 40
0.5
 50
269.99993164064051
 51
359.99996829606482
  0
LINE
  5
6C7F
  8
DANMEN
  6
CONTINUOUS
 10
157.09846075026141
 20
274.54662813170529
 30
0.0
 11
157.098467279049
 21
286.09662927611248
 31
0.0
  0
LINE
  5
6C80
  8
DANMEN
  6
CONTINUOUS
 10
131.04846342055359
 20
274.54664285680309
 30
0.0
 11
157.09846075026141
 21
274.54662813170529
 31
0.0
  0
LINE
  5
6C81
  8
DANMEN
  6
CONTINUOUS
 10
407.29480037849049
 20
172.75781837639011
 30
0.0
 11
421.79480037849061
 21
172.75781837639011
 31
0.0
  0
LINE
  5
6C82
  8
DANMEN
  6
CONTINUOUS
 10
406.79480037849061
 20
199.75781837638999
 30
0.0
 11
406.79480037849061
 21
173.25781837639011
 31
0.0
  0
LINE
  5
6C83
  8
DANMEN
  6
CONTINUOUS
 10
432.79480037849049
 20
207.2578031176009
 30
0.0
 11
432.79480037849049
 21
206.45780006584309
 31
0.0
  0
ARC
  5
6C84
  8
DANMEN
  6
CONTINUOUS
 10
407.29480037849049
 20
173.25781837639011
 30
0.0
 40
0.5
 50
179.99996402782111
 51
270.00000068324448
  0
LINE
  5
6C85
  8
DANMEN
  6
CONTINUOUS
 10
426.79480037849078
 20
206.45781532463209
 30
0.0
 11
430.59477291267018
 21
206.45781532463209
 31
0.0
  0
LINE
  5
6C86
  8
DANMEN
  6
CONTINUOUS
 10
430.59477291267018
 20
206.45780006584309
 30
0.0
 11
430.59477291267018
 21
203.45781532463209
 31
0.0
  0
LINE
  5
6C87
  8
DANMEN
  6
CONTINUOUS
 10
431.8947607056391
 20
206.45780006584309
 30
0.0
 11
431.8947607056391
 21
203.45781532463209
 31
0.0
  0
LINE
  5
6C88
  8
DANMEN
  6
CONTINUOUS
 10
431.8947607056391
 20
206.45780006584309
 30
0.0
 11
432.79480037849049
 21
206.45780006584309
 31
0.0
  0
LINE
  5
6C89
  8
DANMEN
  6
CONTINUOUS
 10
431.09477291267018
 20
202.95781532463221
 30
0.0
 11
431.39476070563887
 21
202.95781532463221
 31
0.0
  0
ARC
  5
6C8A
  8
DANMEN
  6
CONTINUOUS
 10
431.39476070563887
 20
203.45781532463209
 30
0.0
 40
0.5
 50
270.00001798608889
 51
0.0
  0
ARC
  5
6C8B
  8
DANMEN
  6
CONTINUOUS
 10
431.09477291267018
 20
203.45781532463209
 30
0.0
 40
0.5
 50
179.99996402782111
 51
270.00000068324448
  0
LINE
  5
6C8C
  8
DANMEN
  6
CONTINUOUS
 10
421.79480037849061
 20
174.2078181856551
 30
0.0
 11
421.79480037849061
 21
172.75781837639011
 31
0.0
  0
ARC
  5
6C8D
  8
DANMEN
  6
CONTINUOUS
 10
421.29480037849061
 20
174.2078181856551
 30
0.0
 40
0.5
 50
0.0
 51
89.999982013910966
  0
LINE
  5
6C8E
  8
DANMEN
  6
CONTINUOUS
 10
421.29480037849061
 20
176.75781837639011
 30
0.0
 11
423.79480037849049
 21
176.75781837639011
 31
0.0
  0
LINE
  5
6C8F
  8
DANMEN
  6
CONTINUOUS
 10
420.99480114143
 20
178.0578176134506
 30
0.0
 11
424.09477291267029
 21
178.0578176134506
 31
0.0
  0
LINE
  5
6C90
  8
DANMEN
  6
CONTINUOUS
 10
423.79480037849049
 20
176.75781837639011
 30
0.0
 11
423.79480037849049
 21
174.9578181856551
 31
0.0
  0
LINE
  5
6C91
  8
DANMEN
  6
CONTINUOUS
 10
423.79480037849049
 20
174.9578181856551
 30
0.0
 11
424.5947881714593
 21
174.9578181856551
 31
0.0
  0
ARC
  5
6C92
  8
DANMEN
  6
CONTINUOUS
 10
424.5947881714593
 20
175.4578181856551
 30
0.0
 40
0.5
 50
270.00001798608889
 51
0.0
  0
ARC
  5
6C93
  8
DANMEN
  6
CONTINUOUS
 10
432.29480037849049
 20
207.2578031176009
 30
0.0
 40
0.5
 50
0.0
 51
89.999982013910966
  0
LINE
  5
6C94
  8
DANMEN
  6
CONTINUOUS
 10
419.99480114143
 20
177.0578176134506
 30
0.0
 11
419.99480114143
 21
174.40781799492021
 31
0.0
  0
LINE
  5
6C95
  8
DANMEN
  6
CONTINUOUS
 10
421.29480037849061
 20
176.75781837639011
 30
0.0
 11
421.29480037849061
 21
174.7078181856551
 31
0.0
  0
LINE
  5
6C96
  8
DANMEN
  6
CONTINUOUS
 10
425.09477291267029
 20
177.0578176134506
 30
0.0
 11
425.09477291267029
 21
175.4578181856551
 31
0.0
  0
ARC
  5
6C97
  8
DANMEN
  6
CONTINUOUS
 10
420.99480114143
 20
177.0578176134506
 30
0.0
 40
1.0
 50
89.999982013910966
 51
179.99996402782111
  0
ARC
  5
6C98
  8
DANMEN
  6
CONTINUOUS
 10
424.09477291267029
 20
177.0578176134506
 30
0.0
 40
1.0
 50
0.0
 51
89.999982013910966
  0
LINE
  5
6C99
  8
DANMEN
  6
CONTINUOUS
 10
425.99479732673279
 20
207.7578031176009
 30
0.0
 11
432.29480037849049
 21
207.7578031176009
 31
0.0
  0
LINE
  5
6C9A
  8
DANMEN
  6
CONTINUOUS
 10
402.29480037849072
 20
201.75781837638999
 30
0.0
 11
425.49479732673268
 21
201.75781837638999
 31
0.0
  0
LINE
  5
6C9B
  8
DANMEN
  6
CONTINUOUS
 10
408.44479999702082
 20
200.45781532463221
 30
0.0
 11
426.29480037849061
 21
200.45781532463221
 31
0.0
  0
LINE
  5
6C9C
  8
DANMEN
  6
CONTINUOUS
 10
426.79480037849078
 20
206.45781532463209
 30
0.0
 11
426.79480037849078
 21
200.95781532463221
 31
0.0
  0
LINE
  5
6C9D
  8
DANMEN
  6
CONTINUOUS
 10
425.49479732673268
 20
207.2578031176009
 30
0.0
 11
425.49479732673268
 21
201.75781837638999
 31
0.0
  0
ARC
  5
6C9E
  8
DANMEN
  6
CONTINUOUS
 10
425.99479732673279
 20
207.2578031176009
 30
0.0
 40
0.5
 50
89.999982013910966
 51
179.99996402782111
  0
ARC
  5
6C9F
  8
DANMEN
  6
CONTINUOUS
 10
426.29480037849061
 20
200.95781532463221
 30
0.0
 40
0.5
 50
270.00001798608889
 51
0.0
  0
LINE
  5
6CA0
  8
DANMEN
  6
CONTINUOUS
 10
401.79480037849078
 20
201.25781837638999
 30
0.0
 11
401.79480037849078
 21
200.25781837638999
 31
0.0
  0
ARC
  5
6CA1
  8
DANMEN
  6
CONTINUOUS
 10
402.29480037849072
 20
201.25781837638999
 30
0.0
 40
0.5
 50
89.999982013910966
 51
179.99996402782111
  0
LINE
  5
6CA2
  8
DANMEN
  6
CONTINUOUS
 10
402.29480037849072
 20
199.75781837638999
 30
0.0
 11
406.79480037849061
 21
199.75781837638999
 31
0.0
  0
ARC
  5
6CA3
  8
DANMEN
  6
CONTINUOUS
 10
402.29480037849072
 20
200.25781837638999
 30
0.0
 40
0.5
 50
179.99996402782111
 51
270.00000068324448
  0
LINE
  5
6CA4
  8
DANMEN
  6
CONTINUOUS
 10
408.44479999702082
 20
174.40781799492021
 30
0.0
 11
419.99480114143
 21
174.40781799492021
 31
0.0
  0
LINE
  5
6CA5
  8
DANMEN
  6
CONTINUOUS
 10
408.44479999702082
 20
200.45781532463221
 30
0.0
 11
408.44479999702082
 21
174.40781799492021
 31
0.0
  0
TEXT
  5
6CA6
  8
SUNPO
  6
CONTINUOUS
 10
252.23959434373671
 20
263.75781837638999
 30
0.0
 40
4.0
  1
中間方立(B)
 41
0.981
  7
MX_NOTE_STANDARD
  0
TEXT
  5
6CA7
  8
SUNPO
  6
CONTINUOUS
 10
332.23959434373671
 20
263.75781837638999
 30
0.0
 40
4.0
  1
中間方立(A)
 41
0.981
  7
MX_NOTE_STANDARD
  0
LINE
  5
6CA8
  8
SUNPO
  6
CONTINUOUS
 10
370.5853887573968
 20
239.25729957756181
 30
0.0
 11
370.5853887573968
 21
257.75781837638999
 31
0.0
  0
LINE
  5
6CA9
  8
SUNPO
  6
CONTINUOUS
 10
320.58538875739691
 20
239.25729957756181
 30
0.0
 11
320.58538875739691
 21
257.75781837638999
 31
0.0
  0
LINE
  5
6CAA
  8
SUNPO
  6
CONTINUOUS
 10
320.58538875739691
 20
257.75781837638999
 30
0.0
 11
370.5853887573968
 21
257.75781837638999
 31
0.0
  0
LINE
  5
6CAB
  8
SUNPO
  6
CONTINUOUS
 10
370.5853887573968
 20
166.25798622306971
 30
0.0
 11
370.5853887573968
 21
122.75786415275719
 31
0.0
  0
LINE
  5
6CAC
  8
SUNPO
  6
CONTINUOUS
 10
320.58538875739691
 20
166.25798622306971
 30
0.0
 11
320.58538875739691
 21
122.75786415275719
 31
0.0
  0
LINE
  5
6CAD
  8
SUNPO
  6
CONTINUOUS
 10
320.58538875739691
 20
122.75786415275719
 30
0.0
 11
370.5853887573968
 21
122.75786415275719
 31
0.0
  0
LINE
  5
6CAE
  8
DANMEN
  6
CONTINUOUS
 10
370.5853887573968
 20
207.75795570549161
 30
0.0
 11
370.5853887573968
 21
201.7579557054915
 31
0.0
  0
LINE
  5
6CAF
  8
DANMEN
  6
CONTINUOUS
 10
363.5855566040766
 20
208.7579251879134
 30
0.0
 11
363.5855566040766
 21
201.7579557054915
 31
0.0
  0
ARC
  5
6CB0
  8
DANMEN
  6
CONTINUOUS
 10
371.5853887573968
 20
207.75795570549161
 30
0.0
 40
1.0
 50
90.00003665542431
 51
180.0000733108478
  0
LINE
  5
6CB1
  8
DANMEN
  6
CONTINUOUS
 10
363.58555665715721
 20
203.87928472431531
 30
0.0
 11
365.70688505660678
 21
201.75795632486569
 31
0.0
  0
LINE
  5
6CB2
  8
DANMEN
  6
CONTINUOUS
 10
363.58555665715721
 20
206.00060503156999
 30
0.0
 11
367.8282053638614
 21
201.75795632486569
 31
0.0
  0
LINE
  5
6CB3
  8
DANMEN
  6
CONTINUOUS
 10
363.58555665715721
 20
208.12192533882481
 30
0.0
 11
369.94952567111631
 21
201.75795632486569
 31
0.0
  0
LINE
  5
6CB4
  8
DANMEN
  6
CONTINUOUS
 10
365.0708763108201
 20
208.7579259924166
 30
0.0
 11
370.58538808304718
 21
203.24341422018941
 31
0.0
  0
LINE
  5
6CB5
  8
DANMEN
  6
CONTINUOUS
 10
367.192196618075
 20
208.7579259924166
 30
0.0
 11
370.58538808304718
 21
205.36473452744431
 31
0.0
  0
LINE
  5
6CB6
  8
DANMEN
  6
CONTINUOUS
 10
369.31351692532968
 20
208.7579259924166
 30
0.0
 11
370.58538808304718
 21
207.4860548346991
 31
0.0
  0
LINE
  5
6CB7
  8
DANMEN
  6
CONTINUOUS
 10
371.43483723258453
 20
208.7579259924166
 30
0.0
 11
371.44474612508731
 21
208.74801709991391
 31
0.0
  0
LINE
  5
6CB8
  8
DANMEN
  6
CONTINUOUS
 10
363.58555733150672
 20
206.63660635951129
 30
0.0
 11
365.706876964412
 21
208.7579259924166
 31
0.0
  0
LINE
  5
6CB9
  8
DANMEN
  6
CONTINUOUS
 10
363.58555733150672
 20
204.5152860522565
 30
0.0
 11
367.8281972716668
 21
208.7579259924166
 31
0.0
  0
LINE
  5
6CBA
  8
DANMEN
  6
CONTINUOUS
 10
363.58555800585623
 20
202.3939664193513
 30
0.0
 11
369.94951757892147
 21
208.7579259924166
 31
0.0
  0
LINE
  5
6CBB
  8
DANMEN
  6
CONTINUOUS
 10
365.07087496212102
 20
201.75796306836119
 30
0.0
 11
370.58538943174631
 21
207.27247753798659
 31
0.0
  0
LINE
  5
6CBC
  8
DANMEN
  6
CONTINUOUS
 10
367.19218852588023
 20
201.75795632486569
 30
0.0
 11
370.58538943174631
 21
205.1511572307318
 31
0.0
  0
LINE
  5
6CBD
  8
DANMEN
  6
CONTINUOUS
 10
369.31350883313502
 20
201.75795632486569
 30
0.0
 11
370.58538943174631
 21
203.02983692347701
 31
0.0
  0
LINE
  5
6CBE
  8
DANMEN
  6
CONTINUOUS
 10
370.5853887573968
 20
231.75795570549161
 30
0.0
 11
370.5853887573968
 21
225.75795570549161
 31
0.0
  0
LINE
  5
6CBF
  8
DANMEN
  6
CONTINUOUS
 10
363.5855566040766
 20
231.75795570549161
 30
0.0
 11
363.5855566040766
 21
224.75798622306971
 31
0.0
  0
ARC
  5
6CC0
  8
DANMEN
  6
CONTINUOUS
 10
371.5853887573968
 20
225.75795570549161
 30
0.0
 40
1.0
 50
179.99990938630759
 51
269.99994604173111
  0
LINE
  5
6CC1
  8
DANMEN
  6
CONTINUOUS
 10
365.70688505660678
 20
231.75795445507239
 30
0.0
 11
363.58555665715721
 21
229.6366260556228
 31
0.0
  0
LINE
  5
6CC2
  8
DANMEN
  6
CONTINUOUS
 10
367.8282053638614
 20
231.75795445507239
 30
0.0
 11
363.58555678359772
 21
227.5153058748086
 31
0.0
  0
LINE
  5
6CC3
  8
DANMEN
  6
CONTINUOUS
 10
369.94952567111631
 20
231.75795445507239
 30
0.0
 11
363.58555678359772
 21
225.3939855675539
 31
0.0
  0
LINE
  5
6CC4
  8
DANMEN
  6
CONTINUOUS
 10
370.58538808304718
 20
230.27249655974859
 30
0.0
 11
365.07087647940762
 21
224.75798495610891
 31
0.0
  0
LINE
  5
6CC5
  8
DANMEN
  6
CONTINUOUS
 10
370.58538808304718
 20
228.1511762524938
 30
0.0
 11
367.192196618075
 21
224.75798478752151
 31
0.0
  0
LINE
  5
6CC6
  8
DANMEN
  6
CONTINUOUS
 10
370.58538808304718
 20
226.02985594523901
 30
0.0
 11
369.31351692532968
 21
224.75798478752151
 31
0.0
  0
LINE
  5
6CC7
  8
DANMEN
  6
CONTINUOUS
 10
371.44474612508731
 20
224.7678936800242
 30
0.0
 11
371.43483723258453
 21
224.75798478752151
 31
0.0
  0
LINE
  5
6CC8
  8
DANMEN
  6
CONTINUOUS
 10
365.70687725943992
 20
224.7579850825494
 30
0.0
 11
363.58555762653452
 21
226.87930471545459
 31
0.0
  0
LINE
  5
6CC9
  8
DANMEN
  6
CONTINUOUS
 10
367.8281972716668
 20
224.75798478752151
 30
0.0
 11
363.58555733150672
 21
229.0006247276815
 31
0.0
  0
LINE
  5
6CCA
  8
DANMEN
  6
CONTINUOUS
 10
369.94951757892147
 20
224.75798478752151
 30
0.0
 11
363.58555800585623
 21
231.1219443605867
 31
0.0
  0
LINE
  5
6CCB
  8
DANMEN
  6
CONTINUOUS
 10
370.58538943174631
 20
226.24343324195141
 30
0.0
 11
365.07087496212102
 21
231.7579477115768
 31
0.0
  0
LINE
  5
6CCC
  8
DANMEN
  6
CONTINUOUS
 10
370.58538943174631
 20
228.36475354920631
 30
0.0
 11
367.19218852588023
 21
231.75795445507239
 31
0.0
  0
LINE
  5
6CCD
  8
DANMEN
  6
CONTINUOUS
 10
370.58538943174631
 20
230.48607385646099
 30
0.0
 11
369.31350883313502
 21
231.75795445507239
 31
0.0
  0
LINE
  5
6CCE
  8
DANMEN
  6
CONTINUOUS
 10
320.58538875739691
 20
207.75795570549161
 30
0.0
 11
320.58538875739691
 21
201.7579557054915
 31
0.0
  0
LINE
  5
6CCF
  8
DANMEN
  6
CONTINUOUS
 10
327.58522091071723
 20
208.7579251879134
 30
0.0
 11
327.58522091071723
 21
201.7579557054915
 31
0.0
  0
ARC
  5
6CD0
  8
DANMEN
  6
CONTINUOUS
 10
319.58538875739691
 20
207.75795570549161
 30
0.0
 40
1.0
 50
359.99992668915201
 51
89.999963344575647
  0
LINE
  5
6CD1
  8
DANMEN
  6
CONTINUOUS
 10
327.58522085763661
 20
203.87928472431531
 30
0.0
 11
325.46389245818688
 21
201.75795632486569
 31
0.0
  0
LINE
  5
6CD2
  8
DANMEN
  6
CONTINUOUS
 10
327.58522085763661
 20
206.00060503156999
 30
0.0
 11
323.3425721509322
 21
201.75795632486569
 31
0.0
  0
LINE
  5
6CD3
  8
DANMEN
  6
CONTINUOUS
 10
327.58522085763661
 20
208.12192533882481
 30
0.0
 11
321.22125184367729
 21
201.75795632486569
 31
0.0
  0
LINE
  5
6CD4
  8
DANMEN
  6
CONTINUOUS
 10
326.09990120397339
 20
208.7579259924166
 30
0.0
 11
320.58538943174631
 21
203.24341422018941
 31
0.0
  0
LINE
  5
6CD5
  8
DANMEN
  6
CONTINUOUS
 10
323.97858089671871
 20
208.7579259924166
 30
0.0
 11
320.58538943174631
 21
205.36473452744431
 31
0.0
  0
LINE
  5
6CD6
  8
DANMEN
  6
CONTINUOUS
 10
321.85726058946392
 20
208.7579259924166
 30
0.0
 11
320.58538943174631
 21
207.4860548346991
 31
0.0
  0
LINE
  5
6CD7
  8
DANMEN
  6
CONTINUOUS
 10
319.73594028220913
 20
208.7579259924166
 30
0.0
 11
319.72603138970641
 21
208.74801709991391
 31
0.0
  0
LINE
  5
6CD8
  8
DANMEN
  6
CONTINUOUS
 10
327.58522018328688
 20
206.63660635951129
 30
0.0
 11
325.46390055038182
 21
208.7579259924166
 31
0.0
  0
LINE
  5
6CD9
  8
DANMEN
  6
CONTINUOUS
 10
327.58522018328688
 20
204.5152860522565
 30
0.0
 11
323.34258024312692
 21
208.7579259924166
 31
0.0
  0
LINE
  5
6CDA
  8
DANMEN
  6
CONTINUOUS
 10
327.58521950893743
 20
202.3939664193513
 30
0.0
 11
321.22125993587213
 21
208.7579259924166
 31
0.0
  0
LINE
  5
6CDB
  8
DANMEN
  6
CONTINUOUS
 10
326.09990255267252
 20
201.75796306836119
 30
0.0
 11
320.58538808304718
 21
207.27247753798659
 31
0.0
  0
LINE
  5
6CDC
  8
DANMEN
  6
CONTINUOUS
 10
323.97858898891337
 20
201.75795632486569
 30
0.0
 11
320.58538808304718
 21
205.1511572307318
 31
0.0
  0
LINE
  5
6CDD
  8
DANMEN
  6
CONTINUOUS
 10
321.8572686816587
 20
201.75795632486569
 30
0.0
 11
320.58538808304718
 21
203.02983692347701
 31
0.0
  0
LINE
  5
6CDE
  8
DANMEN
  6
CONTINUOUS
 10
320.58538875739691
 20
231.75795570549161
 30
0.0
 11
320.58538875739691
 21
225.75795570549161
 31
0.0
  0
LINE
  5
6CDF
  8
DANMEN
  6
CONTINUOUS
 10
327.58522091071723
 20
231.75795570549161
 30
0.0
 11
327.58522091071723
 21
224.75798622306971
 31
0.0
  0
ARC
  5
6CE0
  8
DANMEN
  6
CONTINUOUS
 10
319.58538875739691
 20
225.75795570549161
 30
0.0
 40
1.0
 50
270.00005395826702
 51
0.0000906136922492
  0
LINE
  5
6CE1
  8
DANMEN
  6
CONTINUOUS
 10
325.46389245818688
 20
231.75795445507239
 30
0.0
 11
327.58522085763661
 21
229.6366260556228
 31
0.0
  0
LINE
  5
6CE2
  8
DANMEN
  6
CONTINUOUS
 10
323.3425721509322
 20
231.75795445507239
 30
0.0
 11
327.58522073119599
 21
227.5153058748086
 31
0.0
  0
LINE
  5
6CE3
  8
DANMEN
  6
CONTINUOUS
 10
321.22125184367729
 20
231.75795445507239
 30
0.0
 11
327.58522073119599
 21
225.3939855675539
 31
0.0
  0
LINE
  5
6CE4
  8
DANMEN
  6
CONTINUOUS
 10
320.58538943174631
 20
230.27249655974859
 30
0.0
 11
326.09990103538598
 21
224.75798495610891
 31
0.0
  0
LINE
  5
6CE5
  8
DANMEN
  6
CONTINUOUS
 10
320.58538943174631
 20
228.1511762524938
 30
0.0
 11
323.97858089671871
 21
224.75798478752151
 31
0.0
  0
LINE
  5
6CE6
  8
DANMEN
  6
CONTINUOUS
 10
320.58538943174631
 20
226.02985594523901
 30
0.0
 11
321.85726058946392
 21
224.75798478752151
 31
0.0
  0
LINE
  5
6CE7
  8
DANMEN
  6
CONTINUOUS
 10
319.72603138970641
 20
224.7678936800242
 30
0.0
 11
319.73594028220913
 21
224.75798478752151
 31
0.0
  0
LINE
  5
6CE8
  8
DANMEN
  6
CONTINUOUS
 10
325.46390025535391
 20
224.7579850825494
 30
0.0
 11
327.58521988825902
 21
226.87930471545459
 31
0.0
  0
LINE
  5
6CE9
  8
DANMEN
  6
CONTINUOUS
 10
323.34258024312692
 20
224.75798478752151
 30
0.0
 11
327.58522018328688
 21
229.0006247276815
 31
0.0
  0
LINE
  5
6CEA
  8
DANMEN
  6
CONTINUOUS
 10
321.22125993587213
 20
224.75798478752151
 30
0.0
 11
327.58521950893743
 21
231.1219443605867
 31
0.0
  0
LINE
  5
6CEB
  8
DANMEN
  6
CONTINUOUS
 10
320.58538808304718
 20
226.24343324195141
 30
0.0
 11
326.09990255267252
 21
231.7579477115768
 31
0.0
  0
LINE
  5
6CEC
  8
DANMEN
  6
CONTINUOUS
 10
320.58538808304718
 20
228.36475354920631
 30
0.0
 11
323.97858898891337
 21
231.75795445507239
 31
0.0
  0
LINE
  5
6CED
  8
DANMEN
  6
CONTINUOUS
 10
320.58538808304718
 20
230.48607385646099
 30
0.0
 11
321.8572686816587
 21
231.75795445507239
 31
0.0
  0
LINE
  5
6CEE
  8
DANMEN
  6
CONTINUOUS
 10
370.0853887573968
 20
172.75798622306971
 30
0.0
 11
350.5853887573968
 21
172.75798622306971
 31
0.0
  0
LINE
  5
6CEF
  8
DANMEN
  6
CONTINUOUS
 10
370.5853887573968
 20
201.25798622306971
 30
0.0
 11
370.5853887573968
 21
173.25798622306971
 31
0.0
  0
LINE
  5
6CF0
  8
DANMEN
  6
CONTINUOUS
 10
347.0853887573968
 20
207.25797096428059
 30
0.0
 11
347.0853887573968
 21
206.45796791252289
 31
0.0
  0
ARC
  5
6CF1
  8
DANMEN
  6
CONTINUOUS
 10
370.0853887573968
 20
173.25798622306971
 30
0.0
 40
0.5
 50
269.9999993167537
 51
0.0000359721788891
  0
LINE
  5
6CF2
  8
DANMEN
  6
CONTINUOUS
 10
352.5853887573968
 20
206.45798317131181
 30
0.0
 11
348.98540172736762
 21
206.45798317131181
 31
0.0
  0
LINE
  5
6CF3
  8
DANMEN
  6
CONTINUOUS
 10
348.98540172736762
 20
206.45796791252289
 30
0.0
 11
348.98540172736762
 21
203.45798317131181
 31
0.0
  0
LINE
  5
6CF4
  8
DANMEN
  6
CONTINUOUS
 10
347.68541393439881
 20
206.45796791252289
 30
0.0
 11
347.68541393439881
 21
203.45798317131181
 31
0.0
  0
LINE
  5
6CF5
  8
DANMEN
  6
CONTINUOUS
 10
347.68541393439881
 20
206.45796791252289
 30
0.0
 11
347.0853887573968
 21
206.45796791252289
 31
0.0
  0
LINE
  5
6CF6
  8
DANMEN
  6
CONTINUOUS
 10
348.48540172736762
 20
202.95798317131181
 30
0.0
 11
348.18541393439881
 21
202.95798317131181
 31
0.0
  0
ARC
  5
6CF7
  8
DANMEN
  6
CONTINUOUS
 10
348.18541393439881
 20
203.45798317131181
 30
0.0
 40
0.5
 50
180.0
 51
269.99998201391088
  0
ARC
  5
6CF8
  8
DANMEN
  6
CONTINUOUS
 10
348.48540172736762
 20
203.45798317131181
 30
0.0
 40
0.5
 50
269.9999993167537
 51
0.0000359721788891
  0
LINE
  5
6CF9
  8
DANMEN
  6
CONTINUOUS
 10
368.63537655036561
 20
174.70799843010099
 30
0.0
 11
352.38539180915473
 21
174.70799843010099
 31
0.0
  0
LINE
  5
6CFA
  8
DANMEN
  6
CONTINUOUS
 10
350.5853887573968
 20
174.20799843010099
 30
0.0
 11
350.5853887573968
 21
172.75798622306971
 31
0.0
  0
ARC
  5
6CFB
  8
DANMEN
  6
CONTINUOUS
 10
351.0853887573968
 20
174.20799843010099
 30
0.0
 40
0.5
 50
90.000017986089006
 51
180.0
  0
LINE
  5
6CFC
  8
DANMEN
  6
CONTINUOUS
 10
351.0853887573968
 20
176.75798622306971
 30
0.0
 11
348.5853887573968
 21
176.75798622306971
 31
0.0
  0
LINE
  5
6CFD
  8
DANMEN
  6
CONTINUOUS
 10
351.3853879944574
 20
178.05798927482749
 30
0.0
 11
348.28541622321723
 21
178.05798927482749
 31
0.0
  0
LINE
  5
6CFE
  8
DANMEN
  6
CONTINUOUS
 10
348.5853887573968
 20
176.75798622306971
 30
0.0
 11
348.5853887573968
 21
174.95799843010099
 31
0.0
  0
LINE
  5
6CFF
  8
DANMEN
  6
CONTINUOUS
 10
348.5853887573968
 20
174.95799843010099
 30
0.0
 11
347.78540096442811
 21
174.95799843010099
 31
0.0
  0
ARC
  5
6D00
  8
DANMEN
  6
CONTINUOUS
 10
347.78540096442811
 20
175.45799843010099
 30
0.0
 40
0.5
 50
180.0
 51
269.99998201391088
  0
ARC
  5
6D01
  8
DANMEN
  6
CONTINUOUS
 10
347.5853887573968
 20
207.25797096428059
 30
0.0
 40
0.5
 50
90.000017986089006
 51
180.0
  0
LINE
  5
6D02
  8
DANMEN
  6
CONTINUOUS
 10
352.38538799445729
 20
177.05798927482749
 30
0.0
 11
352.38538799445729
 21
174.70799843010099
 31
0.0
  0
LINE
  5
6D03
  8
DANMEN
  6
CONTINUOUS
 10
351.0853887573968
 20
176.75798622306971
 30
0.0
 11
351.0853887573968
 21
174.70799843010099
 31
0.0
  0
LINE
  5
6D04
  8
DANMEN
  6
CONTINUOUS
 10
347.28541622321723
 20
177.05798927482749
 30
0.0
 11
347.28541622321723
 21
175.45799843010099
 31
0.0
  0
ARC
  5
6D05
  8
DANMEN
  6
CONTINUOUS
 10
351.3853879944574
 20
177.05798927482749
 30
0.0
 40
1.0
 50
0.0000359721788891
 51
90.000017986089006
  0
ARC
  5
6D06
  8
DANMEN
  6
CONTINUOUS
 10
348.28541622321723
 20
177.05798927482749
 30
0.0
 40
1.0
 50
90.000017986089006
 51
180.0
  0
LINE
  5
6D07
  8
DANMEN
  6
CONTINUOUS
 10
368.63537655036561
 20
200.45798317131181
 30
0.0
 11
368.63537655036561
 21
174.70799843010099
 31
0.0
  0
LINE
  5
6D08
  8
DANMEN
  6
CONTINUOUS
 10
353.3853879944574
 20
207.7579709642807
 30
0.0
 11
347.5853887573968
 21
207.7579709642807
 31
0.0
  0
LINE
  5
6D09
  8
DANMEN
  6
CONTINUOUS
 10
352.5853887573968
 20
206.45798317131181
 30
0.0
 11
352.5853887573968
 21
200.95798317131181
 31
0.0
  0
LINE
  5
6D0A
  8
DANMEN
  6
CONTINUOUS
 10
370.0853887573968
 20
201.75798622306959
 30
0.0
 11
353.8853879944574
 21
201.75798622306959
 31
0.0
  0
LINE
  5
6D0B
  8
DANMEN
  6
CONTINUOUS
 10
368.63537655036561
 20
200.45798317131181
 30
0.0
 11
353.0853887573968
 21
200.45798317131181
 31
0.0
  0
ARC
  5
6D0C
  8
DANMEN
  6
CONTINUOUS
 10
370.0853887573968
 20
201.25798622306971
 30
0.0
 40
0.5
 50
0.0000359721788891
 51
90.000017986089006
  0
LINE
  5
6D0D
  8
DANMEN
  6
CONTINUOUS
 10
353.8853879944574
 20
207.25797096428059
 30
0.0
 11
353.8853879944574
 21
201.75798622306959
 31
0.0
  0
ARC
  5
6D0E
  8
DANMEN
  6
CONTINUOUS
 10
353.0853887573968
 20
200.95798317131181
 30
0.0
 40
0.5
 50
180.0
 51
269.99998201391088
  0
ARC
  5
6D0F
  8
DANMEN
  6
CONTINUOUS
 10
353.3853879944574
 20
207.25797096428059
 30
0.0
 40
0.5
 50
0.0000359721788891
 51
90.000017986089006
  0
LINE
  5
6D10
  8
DANMEN
  6
CONTINUOUS
 10
321.08538875739691
 20
172.75798622306971
 30
0.0
 11
340.58538875739691
 21
172.75798622306971
 31
0.0
  0
LINE
  5
6D11
  8
DANMEN
  6
CONTINUOUS
 10
320.58538875739691
 20
201.25798622306971
 30
0.0
 11
320.58538875739691
 21
173.25798622306971
 31
0.0
  0
LINE
  5
6D12
  8
DANMEN
  6
CONTINUOUS
 10
344.0853887573968
 20
207.25797096428059
 30
0.0
 11
344.0853887573968
 21
206.45796791252289
 31
0.0
  0
ARC
  5
6D13
  8
DANMEN
  6
CONTINUOUS
 10
321.08538875739691
 20
173.25798622306971
 30
0.0
 40
0.5
 50
179.99996402782111
 51
270.00000068324448
  0
LINE
  5
6D14
  8
DANMEN
  6
CONTINUOUS
 10
338.5853887573968
 20
206.45798317131181
 30
0.0
 11
342.18537578742621
 21
206.45798317131181
 31
0.0
  0
LINE
  5
6D15
  8
DANMEN
  6
CONTINUOUS
 10
342.18537578742621
 20
206.45796791252289
 30
0.0
 11
342.18537578742621
 21
203.45798317131181
 31
0.0
  0
LINE
  5
6D16
  8
DANMEN
  6
CONTINUOUS
 10
343.48536358039479
 20
206.45796791252289
 30
0.0
 11
343.48536358039479
 21
203.45798317131181
 31
0.0
  0
LINE
  5
6D17
  8
DANMEN
  6
CONTINUOUS
 10
343.48536358039479
 20
206.45796791252289
 30
0.0
 11
344.0853887573968
 21
206.45796791252289
 31
0.0
  0
LINE
  5
6D18
  8
DANMEN
  6
CONTINUOUS
 10
342.68537578742621
 20
202.95798317131181
 30
0.0
 11
342.98536358039479
 21
202.95798317131181
 31
0.0
  0
ARC
  5
6D19
  8
DANMEN
  6
CONTINUOUS
 10
342.98536358039479
 20
203.45798317131181
 30
0.0
 40
0.5
 50
270.00001798608889
 51
0.0
  0
ARC
  5
6D1A
  8
DANMEN
  6
CONTINUOUS
 10
342.68537578742621
 20
203.45798317131181
 30
0.0
 40
0.5
 50
179.99996402782111
 51
270.00000068324448
  0
LINE
  5
6D1B
  8
DANMEN
  6
CONTINUOUS
 10
322.53540096442799
 20
174.70799843010099
 30
0.0
 11
338.78538570563887
 21
174.70799843010099
 31
0.0
  0
LINE
  5
6D1C
  8
DANMEN
  6
CONTINUOUS
 10
340.58538875739691
 20
174.20799843010099
 30
0.0
 11
340.58538875739691
 21
172.75798622306971
 31
0.0
  0
ARC
  5
6D1D
  8
DANMEN
  6
CONTINUOUS
 10
340.08538875739691
 20
174.20799843010099
 30
0.0
 40
0.5
 50
0.0
 51
89.999982013910966
  0
LINE
  5
6D1E
  8
DANMEN
  6
CONTINUOUS
 10
340.08538875739691
 20
176.75798622306971
 30
0.0
 11
342.58538875739691
 21
176.75798622306971
 31
0.0
  0
LINE
  5
6D1F
  8
DANMEN
  6
CONTINUOUS
 10
339.78538952033631
 20
178.05798927482749
 30
0.0
 11
342.8853612915766
 21
178.05798927482749
 31
0.0
  0
LINE
  5
6D20
  8
DANMEN
  6
CONTINUOUS
 10
342.58538875739691
 20
176.75798622306971
 30
0.0
 11
342.58538875739691
 21
174.95799843010099
 31
0.0
  0
LINE
  5
6D21
  8
DANMEN
  6
CONTINUOUS
 10
342.58538875739691
 20
174.95799843010099
 30
0.0
 11
343.38537655036561
 21
174.95799843010099
 31
0.0
  0
ARC
  5
6D22
  8
DANMEN
  6
CONTINUOUS
 10
343.38537655036561
 20
175.45799843010099
 30
0.0
 40
0.5
 50
270.00001798608889
 51
0.0
  0
ARC
  5
6D23
  8
DANMEN
  6
CONTINUOUS
 10
343.58538875739691
 20
207.25797096428059
 30
0.0
 40
0.5
 50
0.0
 51
89.999982013910966
  0
LINE
  5
6D24
  8
DANMEN
  6
CONTINUOUS
 10
338.78538952033631
 20
177.05798927482749
 30
0.0
 11
338.78538952033631
 21
174.70799843010099
 31
0.0
  0
LINE
  5
6D25
  8
DANMEN
  6
CONTINUOUS
 10
340.08538875739691
 20
176.75798622306971
 30
0.0
 11
340.08538875739691
 21
174.70799843010099
 31
0.0
  0
LINE
  5
6D26
  8
DANMEN
  6
CONTINUOUS
 10
343.8853612915766
 20
177.05798927482749
 30
0.0
 11
343.8853612915766
 21
175.45799843010099
 31
0.0
  0
ARC
  5
6D27
  8
DANMEN
  6
CONTINUOUS
 10
339.78538952033631
 20
177.05798927482749
 30
0.0
 40
1.0
 50
89.999982013910966
 51
179.99996402782111
  0
ARC
  5
6D28
  8
DANMEN
  6
CONTINUOUS
 10
342.8853612915766
 20
177.05798927482749
 30
0.0
 40
1.0
 50
0.0
 51
89.999982013910966
  0
LINE
  5
6D29
  8
DANMEN
  6
CONTINUOUS
 10
322.53540096442799
 20
200.45798317131181
 30
0.0
 11
322.53540096442799
 21
174.70799843010099
 31
0.0
  0
LINE
  5
6D2A
  8
DANMEN
  6
CONTINUOUS
 10
337.7853895203362
 20
207.7579709642807
 30
0.0
 11
343.58538875739691
 21
207.7579709642807
 31
0.0
  0
LINE
  5
6D2B
  8
DANMEN
  6
CONTINUOUS
 10
338.5853887573968
 20
206.45798317131181
 30
0.0
 11
338.5853887573968
 21
200.95798317131181
 31
0.0
  0
LINE
  5
6D2C
  8
DANMEN
  6
CONTINUOUS
 10
321.08538875739691
 20
201.75798622306959
 30
0.0
 11
337.28538952033631
 21
201.75798622306959
 31
0.0
  0
LINE
  5
6D2D
  8
DANMEN
  6
CONTINUOUS
 10
322.53540096442799
 20
200.45798317131181
 30
0.0
 11
338.08538875739691
 21
200.45798317131181
 31
0.0
  0
ARC
  5
6D2E
  8
DANMEN
  6
CONTINUOUS
 10
321.08538875739691
 20
201.25798622306971
 30
0.0
 40
0.5
 50
89.999982013910966
 51
179.99996402782111
  0
LINE
  5
6D2F
  8
DANMEN
  6
CONTINUOUS
 10
337.28538952033631
 20
207.25797096428059
 30
0.0
 11
337.28538952033631
 21
201.75798622306959
 31
0.0
  0
ARC
  5
6D30
  8
DANMEN
  6
CONTINUOUS
 10
338.08538875739691
 20
200.95798317131181
 30
0.0
 40
0.5
 50
270.00001798608889
 51
0.0
  0
ARC
  5
6D31
  8
DANMEN
  6
CONTINUOUS
 10
337.7853895203362
 20
207.25797096428059
 30
0.0
 40
0.5
 50
89.999982013910966
 51
179.99996402782111
  0
LINE
  5
6D32
  8
SUNPO
  6
CONTINUOUS
 10
290.5853887573968
 20
239.25729957756181
 30
0.0
 11
290.5853887573968
 21
257.75781837638999
 31
0.0
  0
LINE
  5
6D33
  8
SUNPO
  6
CONTINUOUS
 10
240.58538875739691
 20
239.25729957756181
 30
0.0
 11
240.58538875739691
 21
257.75781837638999
 31
0.0
  0
LINE
  5
6D34
  8
SUNPO
  6
CONTINUOUS
 10
240.58538875739691
 20
257.75781837638999
 30
0.0
 11
290.5853887573968
 21
257.75781837638999
 31
0.0
  0
LINE
  5
6D35
  8
SUNPO
  6
CONTINUOUS
 10
73.748459436107851
 20
147.89713112053059
 30
0.0
 11
73.748459436107851
 21
182.8968869799057
 31
0.0
  0
LINE
  5
6D36
  8
SUNPO
  6
CONTINUOUS
 10
92.248459436107865
 20
147.89713112053059
 30
0.0
 11
73.748459436107851
 21
147.89713112053059
 31
0.0
  0
LINE
  5
6D37
  8
SUNPO
  6
CONTINUOUS
 10
73.748459436107851
 20
147.89713112053059
 30
0.0
 11
73.748459436107851
 21
137.8971311205307
 31
0.0
  0
LINE
  5
6D38
  8
SUNPO
  6
CONTINUOUS
 10
290.5853887573968
 20
156.25798622306971
 30
0.0
 11
290.5853887573968
 21
122.75786415275719
 31
0.0
  0
LINE
  5
6D39
  8
SUNPO
  6
CONTINUOUS
 10
240.58538875739691
 20
166.25798622306971
 30
0.0
 11
240.58538875739691
 21
122.75786415275719
 31
0.0
  0
LINE
  5
6D3A
  8
SUNPO
  6
CONTINUOUS
 10
240.58538875739691
 20
122.75786415275719
 30
0.0
 11
290.5853887573968
 21
122.75786415275719
 31
0.0
  0
LINE
  5
6D3B
  8
DANMEN
  6
CONTINUOUS
 10
290.5853887573968
 20
207.75795570549161
 30
0.0
 11
290.5853887573968
 21
201.7579557054915
 31
0.0
  0
LINE
  5
6D3C
  8
DANMEN
  6
CONTINUOUS
 10
283.5855566040766
 20
208.7579251879134
 30
0.0
 11
283.5855566040766
 21
201.7579557054915
 31
0.0
  0
ARC
  5
6D3D
  8
DANMEN
  6
CONTINUOUS
 10
291.58538875739691
 20
207.75795570549161
 30
0.0
 40
1.0
 50
90.00003665542431
 51
180.0000733108478
  0
LINE
  5
6D3E
  8
DANMEN
  6
CONTINUOUS
 10
283.5855566571571
 20
203.87928472431531
 30
0.0
 11
285.70688505660672
 21
201.75795632486569
 31
0.0
  0
LINE
  5
6D3F
  8
DANMEN
  6
CONTINUOUS
 10
283.5855566571571
 20
206.00060503156999
 30
0.0
 11
287.82820536386151
 21
201.75795632486569
 31
0.0
  0
LINE
  5
6D40
  8
DANMEN
  6
CONTINUOUS
 10
283.5855566571571
 20
208.12192533882481
 30
0.0
 11
289.94952567111619
 21
201.75795632486569
 31
0.0
  0
LINE
  5
6D41
  8
DANMEN
  6
CONTINUOUS
 10
285.0708763108201
 20
208.7579259924166
 30
0.0
 11
290.58538808304718
 21
203.24341422018941
 31
0.0
  0
LINE
  5
6D42
  8
DANMEN
  6
CONTINUOUS
 10
287.192196618075
 20
208.7579259924166
 30
0.0
 11
290.58538808304718
 21
205.36473452744431
 31
0.0
  0
LINE
  5
6D43
  8
DANMEN
  6
CONTINUOUS
 10
289.31351692532968
 20
208.7579259924166
 30
0.0
 11
290.58538808304718
 21
207.4860548346991
 31
0.0
  0
LINE
  5
6D44
  8
DANMEN
  6
CONTINUOUS
 10
291.43483723258458
 20
208.7579259924166
 30
0.0
 11
291.44474612508719
 21
208.74801709991391
 31
0.0
  0
LINE
  5
6D45
  8
DANMEN
  6
CONTINUOUS
 10
283.58555733150672
 20
206.63660635951129
 30
0.0
 11
285.70687696441189
 21
208.7579259924166
 31
0.0
  0
LINE
  5
6D46
  8
DANMEN
  6
CONTINUOUS
 10
283.58555733150672
 20
204.5152860522565
 30
0.0
 11
287.82819727166668
 21
208.7579259924166
 31
0.0
  0
LINE
  5
6D47
  8
DANMEN
  6
CONTINUOUS
 10
283.58555800585623
 20
202.3939664193513
 30
0.0
 11
289.94951757892159
 21
208.7579259924166
 31
0.0
  0
LINE
  5
6D48
  8
DANMEN
  6
CONTINUOUS
 10
285.07087496212102
 20
201.75796306836119
 30
0.0
 11
290.58538943174631
 21
207.27247753798659
 31
0.0
  0
LINE
  5
6D49
  8
DANMEN
  6
CONTINUOUS
 10
287.19218852588023
 20
201.75795632486569
 30
0.0
 11
290.58538943174631
 21
205.1511572307318
 31
0.0
  0
LINE
  5
6D4A
  8
DANMEN
  6
CONTINUOUS
 10
289.31350883313502
 20
201.75795632486569
 30
0.0
 11
290.58538943174631
 21
203.02983692347701
 31
0.0
  0
LINE
  5
6D4B
  8
DANMEN
  6
CONTINUOUS
 10
290.5853887573968
 20
231.75795570549161
 30
0.0
 11
290.5853887573968
 21
225.75795570549161
 31
0.0
  0
LINE
  5
6D4C
  8
DANMEN
  6
CONTINUOUS
 10
283.5855566040766
 20
231.75795570549161
 30
0.0
 11
283.5855566040766
 21
224.75798622306971
 31
0.0
  0
ARC
  5
6D4D
  8
DANMEN
  6
CONTINUOUS
 10
291.58538875739691
 20
225.75795570549161
 30
0.0
 40
1.0
 50
179.99990938630759
 51
269.99994604173111
  0
LINE
  5
6D4E
  8
DANMEN
  6
CONTINUOUS
 10
285.70688505660672
 20
231.75795445507239
 30
0.0
 11
283.5855566571571
 21
229.6366260556228
 31
0.0
  0
LINE
  5
6D4F
  8
DANMEN
  6
CONTINUOUS
 10
287.82820536386151
 20
231.75795445507239
 30
0.0
 11
283.58555678359761
 21
227.5153058748086
 31
0.0
  0
LINE
  5
6D50
  8
DANMEN
  6
CONTINUOUS
 10
289.94952567111619
 20
231.75795445507239
 30
0.0
 11
283.58555678359761
 21
225.3939855675539
 31
0.0
  0
LINE
  5
6D51
  8
DANMEN
  6
CONTINUOUS
 10
290.58538808304718
 20
230.27249655974859
 30
0.0
 11
285.07087647940762
 21
224.75798495610891
 31
0.0
  0
LINE
  5
6D52
  8
DANMEN
  6
CONTINUOUS
 10
290.58538808304718
 20
228.1511762524938
 30
0.0
 11
287.192196618075
 21
224.75798478752151
 31
0.0
  0
LINE
  5
6D53
  8
DANMEN
  6
CONTINUOUS
 10
290.58538808304718
 20
226.02985594523901
 30
0.0
 11
289.31351692532968
 21
224.75798478752151
 31
0.0
  0
LINE
  5
6D54
  8
DANMEN
  6
CONTINUOUS
 10
291.44474612508719
 20
224.7678936800242
 30
0.0
 11
291.43483723258458
 21
224.75798478752151
 31
0.0
  0
LINE
  5
6D55
  8
DANMEN
  6
CONTINUOUS
 10
285.70687725943992
 20
224.7579850825494
 30
0.0
 11
283.58555762653469
 21
226.87930471545459
 31
0.0
  0
LINE
  5
6D56
  8
DANMEN
  6
CONTINUOUS
 10
287.82819727166668
 20
224.75798478752151
 30
0.0
 11
283.58555733150672
 21
229.0006247276815
 31
0.0
  0
LINE
  5
6D57
  8
DANMEN
  6
CONTINUOUS
 10
289.94951757892159
 20
224.75798478752151
 30
0.0
 11
283.58555800585623
 21
231.1219443605867
 31
0.0
  0
LINE
  5
6D58
  8
DANMEN
  6
CONTINUOUS
 10
290.58538943174631
 20
226.24343324195141
 30
0.0
 11
285.07087496212102
 21
231.7579477115768
 31
0.0
  0
LINE
  5
6D59
  8
DANMEN
  6
CONTINUOUS
 10
290.58538943174631
 20
228.36475354920631
 30
0.0
 11
287.19218852588023
 21
231.75795445507239
 31
0.0
  0
LINE
  5
6D5A
  8
DANMEN
  6
CONTINUOUS
 10
290.58538943174631
 20
230.48607385646099
 30
0.0
 11
289.31350883313502
 21
231.75795445507239
 31
0.0
  0
LINE
  5
6D5B
  8
SUNPO
  6
CONTINUOUS
 10
314.6772192965546
 20
167.7581607086905
 30
0.0
 11
314.67723455529028
 21
237.75714945634729
 31
0.0
  0
LINE
  5
6D5C
  8
SUNPO
  6
CONTINUOUS
 10
314.67735347907649
 20
147.75803199943681
 30
0.0
 11
314.67735347907649
 21
167.75798622306971
 31
0.0
  0
LINE
  5
6D5D
  8
SUNPO
  6
CONTINUOUS
 10
238.2426189854404
 20
115.4151165168129
 30
0.0
 11
235.5854179525941
 21
112.7579154839664
 31
0.0
  0
LINE
  5
6D5E
  8
SUNPO
  6
CONTINUOUS
 10
238.242615436194
 20
115.41511318584421
 30
0.0
 11
238.242615436194
 21
110.1007137679055
 31
0.0
  0
LINE
  5
6D5F
  8
SUNPO
  6
CONTINUOUS
 10
235.5854179525941
 20
112.7579040159055
 30
0.0
 11
238.24261916462899
 21
110.1007028038706
 31
0.0
  0
LINE
  5
6D60
  8
DANMEN
  6
CONTINUOUS
 10
240.58538875739691
 20
207.75795570549161
 30
0.0
 11
240.58538875739691
 21
201.7579557054915
 31
0.0
  0
LINE
  5
6D61
  8
DANMEN
  6
CONTINUOUS
 10
247.5852209107172
 20
208.7579251879134
 30
0.0
 11
247.5852209107172
 21
201.7579557054915
 31
0.0
  0
ARC
  5
6D62
  8
DANMEN
  6
CONTINUOUS
 10
239.5853887573968
 20
207.75795570549161
 30
0.0
 40
1.0
 50
359.99992668915201
 51
89.999963344575647
  0
LINE
  5
6D63
  8
DANMEN
  6
CONTINUOUS
 10
247.58522085763661
 20
203.87928472431531
 30
0.0
 11
245.4638924581869
 21
201.75795632486569
 31
0.0
  0
LINE
  5
6D64
  8
DANMEN
  6
CONTINUOUS
 10
247.58522085763661
 20
206.00060503156999
 30
0.0
 11
243.3425721509322
 21
201.75795632486569
 31
0.0
  0
LINE
  5
6D65
  8
DANMEN
  6
CONTINUOUS
 10
247.58522085763661
 20
208.12192533882481
 30
0.0
 11
241.22125184367741
 21
201.75795632486569
 31
0.0
  0
LINE
  5
6D66
  8
DANMEN
  6
CONTINUOUS
 10
246.0999012039735
 20
208.7579259924166
 30
0.0
 11
240.58538943174639
 21
203.24341422018941
 31
0.0
  0
LINE
  5
6D67
  8
DANMEN
  6
CONTINUOUS
 10
243.97858089671871
 20
208.7579259924166
 30
0.0
 11
240.58538943174639
 21
205.36473452744431
 31
0.0
  0
LINE
  5
6D68
  8
DANMEN
  6
CONTINUOUS
 10
241.85726058946389
 20
208.7579259924166
 30
0.0
 11
240.58538943174639
 21
207.4860548346991
 31
0.0
  0
LINE
  5
6D69
  8
DANMEN
  6
CONTINUOUS
 10
239.7359402822091
 20
208.7579259924166
 30
0.0
 11
239.72603138970641
 21
208.74801709991391
 31
0.0
  0
LINE
  5
6D6A
  8
DANMEN
  6
CONTINUOUS
 10
247.58522018328691
 20
206.63660635951129
 30
0.0
 11
245.46390055038171
 21
208.7579259924166
 31
0.0
  0
LINE
  5
6D6B
  8
DANMEN
  6
CONTINUOUS
 10
247.58522018328691
 20
204.5152860522565
 30
0.0
 11
243.34258024312689
 21
208.7579259924166
 31
0.0
  0
LINE
  5
6D6C
  8
DANMEN
  6
CONTINUOUS
 10
247.58521950893751
 20
202.3939664193513
 30
0.0
 11
241.22125993587221
 21
208.7579259924166
 31
0.0
  0
LINE
  5
6D6D
  8
DANMEN
  6
CONTINUOUS
 10
246.09990255267269
 20
201.75796306836119
 30
0.0
 11
240.58538808304729
 21
207.27247753798659
 31
0.0
  0
LINE
  5
6D6E
  8
DANMEN
  6
CONTINUOUS
 10
243.9785889889134
 20
201.75795632486569
 30
0.0
 11
240.58538808304729
 21
205.1511572307318
 31
0.0
  0
LINE
  5
6D6F
  8
DANMEN
  6
CONTINUOUS
 10
241.85726868165861
 20
201.75795632486569
 30
0.0
 11
240.58538808304729
 21
203.02983692347701
 31
0.0
  0
LINE
  5
6D70
  8
DANMEN
  6
CONTINUOUS
 10
240.58538875739691
 20
231.75795570549161
 30
0.0
 11
240.58538875739691
 21
225.75795570549161
 31
0.0
  0
LINE
  5
6D71
  8
DANMEN
  6
CONTINUOUS
 10
247.5852209107172
 20
231.75795570549161
 30
0.0
 11
247.5852209107172
 21
224.75798622306971
 31
0.0
  0
ARC
  5
6D72
  8
DANMEN
  6
CONTINUOUS
 10
239.5853887573968
 20
225.75795570549161
 30
0.0
 40
1.0
 50
270.00005395826872
 51
0.0000906136922492
  0
LINE
  5
6D73
  8
DANMEN
  6
CONTINUOUS
 10
245.4638924581869
 20
231.75795445507239
 30
0.0
 11
247.58522085763661
 21
229.6366260556228
 31
0.0
  0
LINE
  5
6D74
  8
DANMEN
  6
CONTINUOUS
 10
243.3425721509322
 20
231.75795445507239
 30
0.0
 11
247.5852207311959
 21
227.5153058748086
 31
0.0
  0
LINE
  5
6D75
  8
DANMEN
  6
CONTINUOUS
 10
241.22125184367741
 20
231.75795445507239
 30
0.0
 11
247.5852207311959
 21
225.3939855675539
 31
0.0
  0
LINE
  5
6D76
  8
DANMEN
  6
CONTINUOUS
 10
240.58538943174639
 20
230.27249655974859
 30
0.0
 11
246.0999010353861
 21
224.75798495610891
 31
0.0
  0
LINE
  5
6D77
  8
DANMEN
  6
CONTINUOUS
 10
240.58538943174639
 20
228.1511762524938
 30
0.0
 11
243.97858089671871
 21
224.75798478752151
 31
0.0
  0
LINE
  5
6D78
  8
DANMEN
  6
CONTINUOUS
 10
240.58538943174639
 20
226.02985594523901
 30
0.0
 11
241.85726058946389
 21
224.75798478752151
 31
0.0
  0
LINE
  5
6D79
  8
DANMEN
  6
CONTINUOUS
 10
239.72603138970641
 20
224.7678936800242
 30
0.0
 11
239.7359402822091
 21
224.75798478752151
 31
0.0
  0
LINE
  5
6D7A
  8
DANMEN
  6
CONTINUOUS
 10
245.46390025535371
 20
224.7579850825494
 30
0.0
 11
247.5852198882591
 21
226.87930471545459
 31
0.0
  0
LINE
  5
6D7B
  8
DANMEN
  6
CONTINUOUS
 10
243.34258024312689
 20
224.75798478752151
 30
0.0
 11
247.58522018328691
 21
229.0006247276815
 31
0.0
  0
LINE
  5
6D7C
  8
DANMEN
  6
CONTINUOUS
 10
241.22125993587221
 20
224.75798478752151
 30
0.0
 11
247.58521950893751
 21
231.1219443605867
 31
0.0
  0
LINE
  5
6D7D
  8
DANMEN
  6
CONTINUOUS
 10
240.58538808304729
 20
226.24343324195141
 30
0.0
 11
246.09990255267269
 21
231.7579477115768
 31
0.0
  0
LINE
  5
6D7E
  8
DANMEN
  6
CONTINUOUS
 10
240.58538808304729
 20
228.36475354920631
 30
0.0
 11
243.9785889889134
 21
231.75795445507239
 31
0.0
  0
LINE
  5
6D7F
  8
DANMEN
  6
CONTINUOUS
 10
240.58538808304729
 20
230.48607385646099
 30
0.0
 11
241.85726868165861
 21
231.75795445507239
 31
0.0
  0
LINE
  5
6D80
  8
DANMEN
  6
CONTINUOUS
 10
290.08538875739691
 20
172.75798622306971
 30
0.0
 11
270.58538875739691
 21
172.75798622306971
 31
0.0
  0
LINE
  5
6D81
  8
DANMEN
  6
CONTINUOUS
 10
290.5853887573968
 20
201.25798622306971
 30
0.0
 11
290.5853887573968
 21
173.25798622306971
 31
0.0
  0
LINE
  5
6D82
  8
DANMEN
  6
CONTINUOUS
 10
267.08538875739691
 20
207.25797096428059
 30
0.0
 11
267.08538875739691
 21
206.45796791252289
 31
0.0
  0
ARC
  5
6D83
  8
DANMEN
  6
CONTINUOUS
 10
290.08538875739691
 20
173.25798622306971
 30
0.0
 40
0.5
 50
269.99999931675541
 51
0.0000359721780749
  0
LINE
  5
6D84
  8
DANMEN
  6
CONTINUOUS
 10
272.58538875739691
 20
206.45798317131181
 30
0.0
 11
268.98540172736762
 21
206.45798317131181
 31
0.0
  0
LINE
  5
6D85
  8
DANMEN
  6
CONTINUOUS
 10
268.98540172736762
 20
206.45796791252289
 30
0.0
 11
268.98540172736762
 21
203.45798317131181
 31
0.0
  0
LINE
  5
6D86
  8
DANMEN
  6
CONTINUOUS
 10
267.6854139343987
 20
206.45796791252289
 30
0.0
 11
267.6854139343987
 21
203.45798317131181
 31
0.0
  0
LINE
  5
6D87
  8
DANMEN
  6
CONTINUOUS
 10
267.6854139343987
 20
206.45796791252289
 30
0.0
 11
267.08538875739691
 21
206.45796791252289
 31
0.0
  0
LINE
  5
6D88
  8
DANMEN
  6
CONTINUOUS
 10
268.48540172736762
 20
202.95798317131181
 30
0.0
 11
268.18541393439881
 21
202.95798317131181
 31
0.0
  0
ARC
  5
6D89
  8
DANMEN
  6
CONTINUOUS
 10
268.18541393439881
 20
203.45798317131181
 30
0.0
 40
0.5
 50
180.0
 51
269.99998201391088
  0
ARC
  5
6D8A
  8
DANMEN
  6
CONTINUOUS
 10
268.48540172736762
 20
203.45798317131181
 30
0.0
 40
0.5
 50
269.99999931675541
 51
0.0000359721780749
  0
LINE
  5
6D8B
  8
DANMEN
  6
CONTINUOUS
 10
288.63537655036561
 20
174.70799843010099
 30
0.0
 11
272.38539180915473
 21
174.70799843010099
 31
0.0
  0
LINE
  5
6D8C
  8
DANMEN
  6
CONTINUOUS
 10
270.58538875739691
 20
174.20799843010099
 30
0.0
 11
270.58538875739691
 21
172.75798622306971
 31
0.0
  0
ARC
  5
6D8D
  8
DANMEN
  6
CONTINUOUS
 10
271.08538875739691
 20
174.20799843010099
 30
0.0
 40
0.5
 50
90.000017986089006
 51
180.0
  0
LINE
  5
6D8E
  8
DANMEN
  6
CONTINUOUS
 10
271.08538875739691
 20
176.75798622306971
 30
0.0
 11
268.58538875739691
 21
176.75798622306971
 31
0.0
  0
LINE
  5
6D8F
  8
DANMEN
  6
CONTINUOUS
 10
271.38538799445729
 20
178.05798927482749
 30
0.0
 11
268.28541622321723
 21
178.05798927482749
 31
0.0
  0
LINE
  5
6D90
  8
DANMEN
  6
CONTINUOUS
 10
268.58538875739691
 20
176.75798622306971
 30
0.0
 11
268.58538875739691
 21
174.95799843010099
 31
0.0
  0
LINE
  5
6D91
  8
DANMEN
  6
CONTINUOUS
 10
268.58538875739691
 20
174.95799843010099
 30
0.0
 11
267.78540096442811
 21
174.95799843010099
 31
0.0
  0
ARC
  5
6D92
  8
DANMEN
  6
CONTINUOUS
 10
267.78540096442811
 20
175.45799843010099
 30
0.0
 40
0.5
 50
180.0
 51
269.99998201391088
  0
ARC
  5
6D93
  8
DANMEN
  6
CONTINUOUS
 10
267.58538875739691
 20
207.25797096428059
 30
0.0
 40
0.5
 50
90.000017986089006
 51
180.0
  0
LINE
  5
6D94
  8
DANMEN
  6
CONTINUOUS
 10
272.3853879944574
 20
177.05798927482749
 30
0.0
 11
272.3853879944574
 21
174.70799843010099
 31
0.0
  0
LINE
  5
6D95
  8
DANMEN
  6
CONTINUOUS
 10
271.08538875739691
 20
176.75798622306971
 30
0.0
 11
271.08538875739691
 21
174.70799843010099
 31
0.0
  0
LINE
  5
6D96
  8
DANMEN
  6
CONTINUOUS
 10
267.28541622321723
 20
177.05798927482749
 30
0.0
 11
267.28541622321723
 21
175.45799843010099
 31
0.0
  0
ARC
  5
6D97
  8
DANMEN
  6
CONTINUOUS
 10
271.38538799445729
 20
177.05798927482749
 30
0.0
 40
1.0
 50
0.0000359721780749
 51
90.000017986089006
  0
ARC
  5
6D98
  8
DANMEN
  6
CONTINUOUS
 10
268.28541622321723
 20
177.05798927482749
 30
0.0
 40
1.0
 50
90.000017986089006
 51
180.0
  0
LINE
  5
6D99
  8
DANMEN
  6
CONTINUOUS
 10
288.63537655036561
 20
200.45798317131181
 30
0.0
 11
288.63537655036561
 21
174.70799843010099
 31
0.0
  0
LINE
  5
6D9A
  8
DANMEN
  6
CONTINUOUS
 10
273.38538799445729
 20
207.7579709642807
 30
0.0
 11
267.58538875739691
 21
207.7579709642807
 31
0.0
  0
LINE
  5
6D9B
  8
DANMEN
  6
CONTINUOUS
 10
272.58538875739691
 20
206.45798317131181
 30
0.0
 11
272.58538875739691
 21
200.95798317131181
 31
0.0
  0
LINE
  5
6D9C
  8
DANMEN
  6
CONTINUOUS
 10
290.08538875739691
 20
201.75798622306959
 30
0.0
 11
273.8853879944574
 21
201.75798622306959
 31
0.0
  0
LINE
  5
6D9D
  8
DANMEN
  6
CONTINUOUS
 10
288.63537655036561
 20
200.45798317131181
 30
0.0
 11
273.08538875739691
 21
200.45798317131181
 31
0.0
  0
ARC
  5
6D9E
  8
DANMEN
  6
CONTINUOUS
 10
290.08538875739691
 20
201.25798622306971
 30
0.0
 40
0.5
 50
0.0000359721780749
 51
90.000017986089006
  0
LINE
  5
6D9F
  8
DANMEN
  6
CONTINUOUS
 10
273.8853879944574
 20
207.25797096428059
 30
0.0
 11
273.8853879944574
 21
201.75798622306959
 31
0.0
  0
ARC
  5
6DA0
  8
DANMEN
  6
CONTINUOUS
 10
273.08538875739691
 20
200.95798317131181
 30
0.0
 40
0.5
 50
180.0
 51
269.99998201391088
  0
ARC
  5
6DA1
  8
DANMEN
  6
CONTINUOUS
 10
273.38538799445729
 20
207.25797096428059
 30
0.0
 40
0.5
 50
0.0000359721780749
 51
90.000017986089006
  0
LINE
  5
6DA2
  8
DANMEN
  6
CONTINUOUS
 10
241.0853887573968
 20
172.75798622306971
 30
0.0
 11
260.58538875739691
 21
172.75798622306971
 31
0.0
  0
LINE
  5
6DA3
  8
DANMEN
  6
CONTINUOUS
 10
240.58538875739691
 20
201.25798622306971
 30
0.0
 11
240.58538875739691
 21
173.25798622306971
 31
0.0
  0
LINE
  5
6DA4
  8
DANMEN
  6
CONTINUOUS
 10
264.08538875739691
 20
207.25797096428059
 30
0.0
 11
264.08538875739691
 21
206.45796791252289
 31
0.0
  0
ARC
  5
6DA5
  8
DANMEN
  6
CONTINUOUS
 10
241.0853887573968
 20
173.25798622306971
 30
0.0
 40
0.5
 50
179.99996402782111
 51
270.00000068324448
  0
LINE
  5
6DA6
  8
DANMEN
  6
CONTINUOUS
 10
258.58538875739691
 20
206.45798317131181
 30
0.0
 11
262.18537578742621
 21
206.45798317131181
 31
0.0
  0
LINE
  5
6DA7
  8
DANMEN
  6
CONTINUOUS
 10
262.18537578742621
 20
206.45796791252289
 30
0.0
 11
262.18537578742621
 21
203.45798317131181
 31
0.0
  0
LINE
  5
6DA8
  8
DANMEN
  6
CONTINUOUS
 10
263.4853635803949
 20
206.45796791252289
 30
0.0
 11
263.4853635803949
 21
203.45798317131181
 31
0.0
  0
LINE
  5
6DA9
  8
DANMEN
  6
CONTINUOUS
 10
263.4853635803949
 20
206.45796791252289
 30
0.0
 11
264.08538875739691
 21
206.45796791252289
 31
0.0
  0
LINE
  5
6DAA
  8
DANMEN
  6
CONTINUOUS
 10
262.68537578742621
 20
202.95798317131181
 30
0.0
 11
262.9853635803949
 21
202.95798317131181
 31
0.0
  0
ARC
  5
6DAB
  8
DANMEN
  6
CONTINUOUS
 10
262.9853635803949
 20
203.45798317131181
 30
0.0
 40
0.5
 50
270.00001798608889
 51
0.0
  0
ARC
  5
6DAC
  8
DANMEN
  6
CONTINUOUS
 10
262.68537578742621
 20
203.45798317131181
 30
0.0
 40
0.5
 50
179.99996402782111
 51
270.00000068324448
  0
LINE
  5
6DAD
  8
DANMEN
  6
CONTINUOUS
 10
242.53540096442799
 20
174.70799843010099
 30
0.0
 11
258.7853857056391
 21
174.70799843010099
 31
0.0
  0
LINE
  5
6DAE
  8
DANMEN
  6
CONTINUOUS
 10
260.58538875739691
 20
174.20799843010099
 30
0.0
 11
260.58538875739691
 21
172.75798622306971
 31
0.0
  0
ARC
  5
6DAF
  8
DANMEN
  6
CONTINUOUS
 10
260.08538875739691
 20
174.20799843010099
 30
0.0
 40
0.5
 50
0.0
 51
89.999982013910966
  0
LINE
  5
6DB0
  8
DANMEN
  6
CONTINUOUS
 10
260.08538875739691
 20
176.75798622306971
 30
0.0
 11
262.58538875739691
 21
176.75798622306971
 31
0.0
  0
LINE
  5
6DB1
  8
DANMEN
  6
CONTINUOUS
 10
259.78538952033631
 20
178.05798927482749
 30
0.0
 11
262.8853612915766
 21
178.05798927482749
 31
0.0
  0
LINE
  5
6DB2
  8
DANMEN
  6
CONTINUOUS
 10
262.58538875739691
 20
176.75798622306971
 30
0.0
 11
262.58538875739691
 21
174.95799843010099
 31
0.0
  0
LINE
  5
6DB3
  8
DANMEN
  6
CONTINUOUS
 10
262.58538875739691
 20
174.95799843010099
 30
0.0
 11
263.38537655036561
 21
174.95799843010099
 31
0.0
  0
ARC
  5
6DB4
  8
DANMEN
  6
CONTINUOUS
 10
263.38537655036561
 20
175.45799843010099
 30
0.0
 40
0.5
 50
270.00001798608889
 51
0.0
  0
ARC
  5
6DB5
  8
DANMEN
  6
CONTINUOUS
 10
263.5853887573968
 20
207.25797096428059
 30
0.0
 40
0.5
 50
0.0
 51
89.999982013910966
  0
LINE
  5
6DB6
  8
DANMEN
  6
CONTINUOUS
 10
258.7853895203362
 20
177.05798927482749
 30
0.0
 11
258.7853895203362
 21
174.70799843010099
 31
0.0
  0
LINE
  5
6DB7
  8
DANMEN
  6
CONTINUOUS
 10
260.08538875739691
 20
176.75798622306971
 30
0.0
 11
260.08538875739691
 21
174.70799843010099
 31
0.0
  0
LINE
  5
6DB8
  8
DANMEN
  6
CONTINUOUS
 10
263.8853612915766
 20
177.05798927482749
 30
0.0
 11
263.8853612915766
 21
175.45799843010099
 31
0.0
  0
ARC
  5
6DB9
  8
DANMEN
  6
CONTINUOUS
 10
259.78538952033631
 20
177.05798927482749
 30
0.0
 40
1.0
 50
89.999982013910966
 51
179.99996402782111
  0
ARC
  5
6DBA
  8
DANMEN
  6
CONTINUOUS
 10
262.8853612915766
 20
177.05798927482749
 30
0.0
 40
1.0
 50
0.0
 51
89.999982013910966
  0
LINE
  5
6DBB
  8
DANMEN
  6
CONTINUOUS
 10
242.53540096442799
 20
200.45798317131181
 30
0.0
 11
242.53540096442799
 21
174.70799843010099
 31
0.0
  0
LINE
  5
6DBC
  8
DANMEN
  6
CONTINUOUS
 10
257.78538952033631
 20
207.7579709642807
 30
0.0
 11
263.5853887573968
 21
207.7579709642807
 31
0.0
  0
LINE
  5
6DBD
  8
DANMEN
  6
CONTINUOUS
 10
258.58538875739691
 20
206.45798317131181
 30
0.0
 11
258.58538875739691
 21
200.95798317131181
 31
0.0
  0
LINE
  5
6DBE
  8
DANMEN
  6
CONTINUOUS
 10
241.0853887573968
 20
201.75798622306959
 30
0.0
 11
257.28538952033631
 21
201.75798622306959
 31
0.0
  0
LINE
  5
6DBF
  8
DANMEN
  6
CONTINUOUS
 10
242.53540096442799
 20
200.45798317131181
 30
0.0
 11
258.08538875739691
 21
200.45798317131181
 31
0.0
  0
ARC
  5
6DC0
  8
DANMEN
  6
CONTINUOUS
 10
241.0853887573968
 20
201.25798622306971
 30
0.0
 40
0.5
 50
89.999982013910966
 51
179.99996402782111
  0
LINE
  5
6DC1
  8
DANMEN
  6
CONTINUOUS
 10
257.28538952033631
 20
207.25797096428059
 30
0.0
 11
257.28538952033631
 21
201.75798622306959
 31
0.0
  0
ARC
  5
6DC2
  8
DANMEN
  6
CONTINUOUS
 10
258.08538875739691
 20
200.95798317131181
 30
0.0
 40
0.5
 50
270.00001798608889
 51
0.0
  0
ARC
  5
6DC3
  8
DANMEN
  6
CONTINUOUS
 10
257.78538952033631
 20
207.25797096428059
 30
0.0
 40
0.5
 50
89.999982013910966
 51
179.99996402782111
  0
LINE
  5
6DC4
  8
DANMEN
  6
CONTINUOUS
 10
406.79480037849061
 20
237.25781837638999
 30
0.0
 11
406.79480037849061
 21
233.75781837638999
 31
0.0
  0
LINE
  5
6DC5
  8
DANMEN
  6
CONTINUOUS
 10
407.29480037849049
 20
237.75781837638999
 30
0.0
 11
436.29480037849049
 21
237.75781837638999
 31
0.0
  0
LINE
  5
6DC6
  8
DANMEN
  6
CONTINUOUS
 10
402.29480037849072
 20
231.75781837638999
 30
0.0
 11
413.49481258552191
 21
231.75781837638999
 31
0.0
  0
ARC
  5
6DC7
  8
DANMEN
  6
CONTINUOUS
 10
407.29480037849049
 20
237.25781837638999
 30
0.0
 40
0.5
 50
89.999982013910966
 51
179.99996402782111
  0
LINE
  5
6DC8
  8
DANMEN
  6
CONTINUOUS
 10
435.29480037849072
 20
232.6870938890853
 30
0.0
 11
435.29480037849072
 21
202.75781837638999
 31
0.0
  0
LINE
  5
6DC9
  8
DANMEN
  6
CONTINUOUS
 10
432.79480037849049
 20
235.95781532463221
 30
0.0
 11
432.79480037849049
 21
202.4578458422103
 31
0.0
  0
LINE
  5
6DCA
  8
DANMEN
  6
CONTINUOUS
 10
422.29480037849061
 20
167.75781837638991
 30
0.0
 11
446.99478206794367
 21
167.75781837638991
 31
0.0
  0
LINE
  5
6DCB
  8
DANMEN
  6
CONTINUOUS
 10
423.49479732673279
 20
169.45781532463209
 30
0.0
 11
432.79480037849049
 21
169.45781532463209
 31
0.0
  0
LINE
  5
6DCC
  8
DANMEN
  6
CONTINUOUS
 10
421.79480037849061
 20
176.25781837639011
 30
0.0
 11
421.79480037849061
 21
168.25781837639011
 31
0.0
  0
LINE
  5
6DCD
  8
DANMEN
  6
CONTINUOUS
 10
423.49479732673279
 20
176.75781837639011
 30
0.0
 11
423.49479732673279
 21
169.45781532463209
 31
0.0
  0
LINE
  5
6DCE
  8
DANMEN
  6
CONTINUOUS
 10
422.29480037849061
 20
176.75781837639011
 30
0.0
 11
423.49479732673279
 21
176.75781837639011
 31
0.0
  0
ARC
  5
6DCF
  8
DANMEN
  6
CONTINUOUS
 10
422.29480037849061
 20
176.25781837639011
 30
0.0
 40
0.5
 50
89.999982013910966
 51
179.99996402782111
  0
ARC
  5
6DD0
  8
DANMEN
  6
CONTINUOUS
 10
422.29480037849061
 20
168.25781837639011
 30
0.0
 40
0.5
 50
179.99996402782111
 51
270.00000068324448
  0
LINE
  5
6DD1
  8
DANMEN
  6
CONTINUOUS
 10
434.44479427497492
 20
169.40781227287439
 30
0.0
 11
447.1447607056391
 21
169.40781227287439
 31
0.0
  0
LINE
  5
6DD2
  8
DANMEN
  6
CONTINUOUS
 10
428.79480037849049
 20
205.45784584221039
 30
0.0
 11
428.79480037849049
 21
201.9578458422103
 31
0.0
  0
LINE
  5
6DD3
  8
DANMEN
  6
CONTINUOUS
 10
430.29480037849061
 20
205.45784584221039
 30
0.0
 11
430.29480037849061
 21
202.4578458422103
 31
0.0
  0
LINE
  5
6DD4
  8
DANMEN
  6
CONTINUOUS
 10
429.29480037849061
 20
205.9578458422103
 30
0.0
 11
429.79480037849061
 21
205.9578458422103
 31
0.0
  0
LINE
  5
6DD5
  8
DANMEN
  6
CONTINUOUS
 10
429.79480037849061
 20
200.95784584221039
 30
0.0
 11
432.79480037849049
 21
200.95784584221039
 31
0.0
  0
LINE
  5
6DD6
  8
DANMEN
  6
CONTINUOUS
 10
430.29480037849061
 20
202.4578458422103
 30
0.0
 11
432.79480037849049
 21
202.4578458422103
 31
0.0
  0
LINE
  5
6DD7
  8
DANMEN
  6
CONTINUOUS
 10
432.79480037849049
 20
200.95784584221039
 30
0.0
 11
432.79480037849049
 21
169.45781532463209
 31
0.0
  0
ARC
  5
6DD8
  8
DANMEN
  6
CONTINUOUS
 10
429.79480037849061
 20
205.45784584221039
 30
0.0
 40
0.5
 50
0.0
 51
89.999982013910966
  0
ARC
  5
6DD9
  8
DANMEN
  6
CONTINUOUS
 10
429.29480037849061
 20
205.45784584221039
 30
0.0
 40
0.5
 50
89.999982013910966
 51
179.99996402782111
  0
ARC
  5
6DDA
  8
DANMEN
  6
CONTINUOUS
 10
429.79480037849061
 20
201.9578458422103
 30
0.0
 40
1.0
 50
179.99996402782111
 51
270.00000068324448
  0
LINE
  5
6DDB
  8
DANMEN
  6
CONTINUOUS
 10
408.44480953376399
 20
235.95781532463221
 30
0.0
 11
408.44480953376399
 21
232.75781837638999
 31
0.0
  0
LINE
  5
6DDC
  8
DANMEN
  6
CONTINUOUS
 10
424.29480037849049
 20
235.95781532463221
 30
0.0
 11
432.79480037849049
 21
235.95781532463221
 31
0.0
  0
LINE
  5
6DDD
  8
DANMEN
  6
CONTINUOUS
 10
408.44480953376399
 20
232.75781837638999
 30
0.0
 11
413.49481258552191
 21
232.75781837638999
 31
0.0
  0
LINE
  5
6DDE
  8
DANMEN
  6
CONTINUOUS
 10
424.29480037849049
 20
235.95781532463221
 30
0.0
 11
424.29480037849049
 21
232.25781837639011
 31
0.0
  0
LINE
  5
6DDF
  8
DANMEN
  6
CONTINUOUS
 10
423.0947881714593
 20
235.95781532463221
 30
0.0
 11
423.0947881714593
 21
232.75781837638999
 31
0.0
  0
ARC
  5
6DE0
  8
DANMEN
  6
CONTINUOUS
 10
423.79480037849049
 20
232.25781837639011
 30
0.0
 40
0.5
 50
270.00001798608889
 51
0.0
  0
LINE
  5
6DE1
  8
DANMEN
  6
CONTINUOUS
 10
408.44480953376399
 20
235.95781532463221
 30
0.0
 11
423.0947881714593
 21
235.95781532463221
 31
0.0
  0
LINE
  5
6DE2
  8
DANMEN
  6
CONTINUOUS
 10
421.09480343024842
 20
232.75781837638999
 30
0.0
 11
423.0947881714593
 21
232.75781837638999
 31
0.0
  0
LINE
  5
6DE3
  8
DANMEN
  6
CONTINUOUS
 10
421.09480343024842
 20
231.75781837638999
 30
0.0
 11
423.79480037849049
 21
231.75781837638999
 31
0.0
  0
LINE
  5
6DE4
  8
DANMEN
  6
CONTINUOUS
 10
413.79480037849061
 20
232.45781532463209
 30
0.0
 11
413.79480037849061
 21
232.0578061693588
 31
0.0
  0
LINE
  5
6DE5
  8
DANMEN
  6
CONTINUOUS
 10
420.79480037849049
 20
232.45781532463209
 30
0.0
 11
420.79480037849049
 21
232.0578061693588
 31
0.0
  0
ARC
  5
6DE6
  8
DANMEN
  6
CONTINUOUS
 10
413.49481258552191
 20
232.0578061693588
 30
0.0
 40
0.2999999523162842
 50
270.00001798608889
 51
0.0
  0
ARC
  5
6DE7
  8
DANMEN
  6
CONTINUOUS
 10
413.49481258552191
 20
232.45781532463209
 30
0.0
 40
0.2999999523162842
 50
0.0
 51
89.999982013910966
  0
ARC
  5
6DE8
  8
DANMEN
  6
CONTINUOUS
 10
421.09480343024842
 20
232.0578061693588
 30
0.0
 40
0.2999999523162842
 50
179.99996402782111
 51
270.00000068324448
  0
ARC
  5
6DE9
  8
DANMEN
  6
CONTINUOUS
 10
421.09480343024842
 20
232.45781532463209
 30
0.0
 40
0.2999999523162842
 50
89.999982013910966
 51
179.99996402782111
  0
LINE
  5
6DEA
  8
DANMEN
  6
CONTINUOUS
 10
436.79480037849049
 20
237.25781837638999
 30
0.0
 11
436.79480037849049
 21
236.25781837638999
 31
0.0
  0
ARC
  5
6DEB
  8
DANMEN
  6
CONTINUOUS
 10
436.29480037849049
 20
237.25781837638999
 30
0.0
 40
0.5
 50
0.0
 51
89.999982013910966
  0
ARC
  5
6DEC
  8
DANMEN
  6
CONTINUOUS
 10
440.29480037849061
 20
232.6870938890853
 30
0.0
 40
5.0
 50
134.42697479101551
 51
179.99996402782111
  0
LINE
  5
6DED
  8
DANMEN
  6
CONTINUOUS
 10
434.44479427497492
 20
200.75781837638999
 30
0.0
 11
434.44479427497492
 21
169.40781227287439
 31
0.0
  0
LINE
  5
6DEE
  8
DANMEN
  6
CONTINUOUS
 10
448.79476986091248
 20
187.75781837638999
 30
0.0
 11
458.29478511970149
 21
187.75781837638999
 31
0.0
  0
LINE
  5
6DEF
  8
DANMEN
  6
CONTINUOUS
 10
448.79476986091248
 20
202.25781837638999
 30
0.0
 11
448.79476986091248
 21
187.75781837638999
 31
0.0
  0
LINE
  5
6DF0
  8
DANMEN
  6
CONTINUOUS
 10
447.1447607056391
 20
200.75781837638999
 30
0.0
 11
447.1447607056391
 21
169.40781227287439
 31
0.0
  0
LINE
  5
6DF1
  8
DANMEN
  6
CONTINUOUS
 10
435.29480037849072
 20
202.75781837638999
 30
0.0
 11
448.29476986091242
 21
202.75781837638999
 31
0.0
  0
LINE
  5
6DF2
  8
DANMEN
  6
CONTINUOUS
 10
434.44479427497492
 20
200.75781837638999
 30
0.0
 11
447.1447607056391
 21
200.75781837638999
 31
0.0
  0
LINE
  5
6DF3
  8
DANMEN
  6
CONTINUOUS
 10
458.79478511970149
 20
187.25781837638999
 30
0.0
 11
458.79478511970149
 21
186.75781837638999
 31
0.0
  0
LINE
  5
6DF4
  8
DANMEN
  6
CONTINUOUS
 10
452.99478206794367
 20
186.25781837638999
 30
0.0
 11
458.29478511970149
 21
186.25781837638999
 31
0.0
  0
ARC
  5
6DF5
  8
DANMEN
  6
CONTINUOUS
 10
458.29478511970149
 20
187.25781837638999
 30
0.0
 40
0.5
 50
0.0
 51
89.999982013910966
  0
ARC
  5
6DF6
  8
DANMEN
  6
CONTINUOUS
 10
458.29478511970149
 20
186.75781837638999
 30
0.0
 40
0.5
 50
270.00001798608889
 51
0.0
  0
ARC
  5
6DF7
  8
DANMEN
  6
CONTINUOUS
 10
448.29476986091242
 20
202.25781837638999
 30
0.0
 40
0.5
 50
0.0
 51
89.999982013910966
  0
LINE
  5
6DF8
  8
DANMEN
  6
CONTINUOUS
 10
446.99478206794367
 20
167.75781837638991
 30
0.0
 11
446.99478206794367
 21
148.25781837639011
 31
0.0
  0
LINE
  5
6DF9
  8
DANMEN
  6
CONTINUOUS
 10
447.49478206794367
 20
147.75781837639011
 30
0.0
 11
452.49478206794367
 21
147.75781837639011
 31
0.0
  0
LINE
  5
6DFA
  8
DANMEN
  6
CONTINUOUS
 10
452.99478206794367
 20
153.25781837638991
 30
0.0
 11
452.99478206794367
 21
148.25781837639011
 31
0.0
  0
ARC
  5
6DFB
  8
DANMEN
  6
CONTINUOUS
 10
452.49478206794367
 20
148.25781837639011
 30
0.0
 40
0.5
 50
270.00001798608889
 51
0.0
  0
LINE
  5
6DFC
  8
DANMEN
  6
CONTINUOUS
 10
451.84477291267041
 20
153.75781837639011
 30
0.0
 11
452.49478206794367
 21
153.75781837639011
 31
0.0
  0
LINE
  5
6DFD
  8
DANMEN
  6
CONTINUOUS
 10
451.34477291267029
 20
153.25781837638991
 30
0.0
 11
451.34477291267029
 21
149.4078275316634
 31
0.0
  0
LINE
  5
6DFE
  8
DANMEN
  6
CONTINUOUS
 10
448.79476986091248
 20
149.4078275316634
 30
0.0
 11
451.34477291267029
 21
149.4078275316634
 31
0.0
  0
ARC
  5
6DFF
  8
DANMEN
  6
CONTINUOUS
 10
452.49478206794367
 20
153.25781837638991
 30
0.0
 40
0.5
 50
0.0
 51
89.999982013910966
  0
ARC
  5
6E00
  8
DANMEN
  6
CONTINUOUS
 10
451.84477291267041
 20
153.25781837638991
 30
0.0
 40
0.5
 50
89.999982013910966
 51
179.99996402782111
  0
ARC
  5
6E01
  8
DANMEN
  6
CONTINUOUS
 10
447.49478206794367
 20
148.25781837639011
 30
0.0
 40
0.5
 50
179.99996402782111
 51
270.00000068324448
  0
LINE
  5
6E02
  8
DANMEN
  6
CONTINUOUS
 10
452.99478206794367
 20
186.25781837638999
 30
0.0
 11
452.99478206794367
 21
182.25781837638999
 31
0.0
  0
LINE
  5
6E03
  8
DANMEN
  6
CONTINUOUS
 10
452.49478206794367
 20
181.75781837638999
 30
0.0
 11
451.84477291267041
 21
181.75781837638999
 31
0.0
  0
LINE
  5
6E04
  8
DANMEN
  6
CONTINUOUS
 10
451.34477291267029
 20
186.10780922111661
 30
0.0
 11
451.34477291267029
 21
182.25781837638999
 31
0.0
  0
LINE
  5
6E05
  8
DANMEN
  6
CONTINUOUS
 10
451.34477291267029
 20
186.10780922111661
 30
0.0
 11
448.79476986091248
 21
186.10780922111661
 31
0.0
  0
ARC
  5
6E06
  8
DANMEN
  6
CONTINUOUS
 10
452.49478206794367
 20
182.25781837638999
 30
0.0
 40
0.5
 50
270.00007262760232
 51
0.0
  0
ARC
  5
6E07
  8
DANMEN
  6
CONTINUOUS
 10
451.84477291267041
 20
182.25781837638999
 30
0.0
 40
0.5
 50
180.00009061369221
 51
270.00007262760232
  0
LINE
  5
6E08
  8
DANMEN
  6
CONTINUOUS
 10
448.79476986091248
 20
186.10780922111661
 30
0.0
 11
448.79476986091248
 21
149.4078275316634
 31
0.0
  0
LINE
  5
6E09
  8
DANMEN
  6
CONTINUOUS
 10
401.79480037849078
 20
233.25781837638999
 30
0.0
 11
401.79480037849078
 21
232.25781837639011
 31
0.0
  0
ARC
  5
6E0A
  8
DANMEN
  6
CONTINUOUS
 10
402.29480037849072
 20
232.25781837639011
 30
0.0
 40
0.5
 50
179.99996402782111
 51
270.00000068324448
  0
LINE
  5
6E0B
  8
DANMEN
  6
CONTINUOUS
 10
402.29480037849072
 20
233.75781837638999
 30
0.0
 11
406.79480037849061
 21
233.75781837638999
 31
0.0
  0
ARC
  5
6E0C
  8
DANMEN
  6
CONTINUOUS
 10
402.29480037849072
 20
233.25781837638999
 30
0.0
 40
0.5
 50
89.999982013910966
 51
179.99996402782111
  0
LINE
  5
6E0D
  8
SUNPO
  6
CONTINUOUS
 10
446.99478206794367
 20
122.75786415275719
 30
0.0
 11
421.79480037849061
 21
122.75786415275719
 31
0.0
  0
LINE
  5
6E0E
  8
SUNPO
  6
BYBLOCK
 10
451.69005425057878
 20
105.475610553116
 30
0.0
 11
442.47305329002018
 21
105.4757277492287
 31
0.0
  0
LINE
  5
6E0F
  8
SUNPO
  6
BYBLOCK
 10
455.89460695147272
 20
112.7579480554997
 30
0.0
 11
451.69005425057878
 21
105.475610553116
 31
0.0
  0
LINE
  5
6E10
  8
SUNPO
  6
BYBLOCK
 10
458.79478511970149
 20
184.75781837638999
 30
0.0
 11
458.79478511970149
 21
112.75790992912439
 31
0.0
  0
LINE
  5
6E11
  8
SUNPO
  6
BYBLOCK
 10
452.99478206794367
 20
112.75790992912439
 30
0.0
 11
458.79478511970149
 21
112.75790992912439
 31
0.0
  0
LINE
  5
6E12
  8
SUNPO
  6
CONTINUOUS
 10
452.99478206794367
 20
146.25803199943681
 30
0.0
 11
452.99478206794367
 21
112.75790992912439
 31
0.0
  0
LINE
  5
6E13
  8
SUNPO
  6
CONTINUOUS
 10
452.99478206794367
 20
112.75790992912439
 30
0.0
 11
446.99478206794367
 21
112.75790992912439
 31
0.0
  0
LINE
  5
6E14
  8
SUNPO
  6
CONTINUOUS
 10
406.79467830817799
 20
166.25798622306971
 30
0.0
 11
406.79467830817799
 21
112.75790992912439
 31
0.0
  0
LINE
  5
6E15
  8
SUNPO
  6
CONTINUOUS
 10
446.99478206794367
 20
146.25803199943681
 30
0.0
 11
446.99478206794367
 21
112.75790992912439
 31
0.0
  0
LINE
  5
6E16
  8
SUNPO
  6
CONTINUOUS
 10
446.99478206794367
 20
112.75790992912439
 30
0.0
 11
348.46017513434992
 21
112.75790992912439
 31
0.0
  0
LINE
  5
6E17
  8
SUNPO
  6
CONTINUOUS
 10
421.79480037849061
 20
166.25798622306971
 30
0.0
 11
421.79480037849061
 21
122.75786415275719
 31
0.0
  0
LINE
  5
6E18
  8
SUNPO
  6
CONTINUOUS
 10
421.79480037849061
 20
122.75786415275719
 30
0.0
 11
406.79467830817799
 21
122.75786415275719
 31
0.0
  0
LINE
  5
6E19
  8
SUNPO
  6
CONTINUOUS
 10
458.79478511970149
 20
189.25781837638999
 30
0.0
 11
458.79478511970149
 21
257.75781837638999
 31
0.0
  0
LINE
  5
6E1A
  8
SUNPO
  6
CONTINUOUS
 10
448.79476986091248
 20
257.75781837638999
 30
0.0
 11
458.79478511970149
 21
257.75781837638999
 31
0.0
  0
LINE
  5
6E1B
  8
SUNPO
  6
CONTINUOUS
 10
448.79476986091248
 20
204.25781837638999
 30
0.0
 11
448.79476986091248
 21
257.75781837638999
 31
0.0
  0
LINE
  5
6E1C
  8
SUNPO
  6
CONTINUOUS
 10
448.79476986091248
 20
257.75781837638999
 30
0.0
 11
436.79480037849049
 21
257.75781837638999
 31
0.0
  0
LINE
  5
6E1D
  8
SUNPO
  6
CONTINUOUS
 10
436.79480037849049
 20
239.25781837638999
 30
0.0
 11
436.79480037849049
 21
257.75781837638999
 31
0.0
  0
LINE
  5
6E1E
  8
SUNPO
  6
CONTINUOUS
 10
406.79480037849061
 20
239.25729957756181
 30
0.0
 11
406.79480037849061
 21
257.75781837638999
 31
0.0
  0
LINE
  5
6E1F
  8
SUNPO
  6
CONTINUOUS
 10
406.79480037849061
 20
257.75781837638999
 30
0.0
 11
436.79480037849049
 21
257.75781837638999
 31
0.0
  0
LINE
  5
6E20
  8
DANMEN
  6
CONTINUOUS
 10
401.79484615444039
 20
207.75780311701399
 30
0.0
 11
401.79480419266588
 21
201.75780311716071
 31
0.0
  0
LINE
  5
6E21
  8
DANMEN
  6
CONTINUOUS
 10
408.79468530100502
 20
208.75772364518201
 30
0.0
 11
408.79463634581521
 21
201.75775416293141
 31
0.0
  0
ARC
  5
6E22
  8
DANMEN
  6
CONTINUOUS
 10
400.79484615446472
 20
207.75781011064311
 30
0.0
 40
0.9999999999999998
 50
359.99952598372357
 51
89.999562639148849
  0
LINE
  5
6E23
  8
DANMEN
  6
CONTINUOUS
 10
408.79464377702078
 20
201.75776547356639
 30
0.0
 11
401.794728459591
 21
208.7577787013031
 31
0.0
  0
LINE
  5
6E24
  8
DANMEN
  6
CONTINUOUS
 10
408.79464782323038
 20
203.87909657043781
 30
0.0
 11
403.91604876679389
 21
208.75776386557581
 31
0.0
  0
LINE
  5
6E25
  8
DANMEN
  6
CONTINUOUS
 10
408.7946626589578
 20
206.00041687764079
 30
0.0
 11
406.0373690739969
 21
208.7577490298485
 31
0.0
  0
LINE
  5
6E26
  8
DANMEN
  6
CONTINUOUS
 10
408.79467749468517
 20
208.12173718484371
 30
0.0
 11
408.15868938120002
 21
208.7577341941211
 31
0.0
  0
LINE
  5
6E27
  8
DANMEN
  6
CONTINUOUS
 10
406.67332346981777
 20
201.75778030929371
 30
0.0
 11
401.79483230855698
 21
206.6363397077468
 31
0.0
  0
LINE
  5
6E28
  8
DANMEN
  6
CONTINUOUS
 10
404.55200316261499
 20
201.75779514502111
 30
0.0
 11
401.79481747282972
 21
204.51501940054391
 31
0.0
  0
LINE
  5
6E29
  8
DANMEN
  6
CONTINUOUS
 10
402.4306828554121
 20
201.75780998074839
 30
0.0
 11
401.79480263710229
 21
202.3936990933409
 31
0.0
  0
LINE
  5
6E2A
  8
DANMEN
  6
CONTINUOUS
 10
408.79465119485081
 20
203.87907836297589
 30
0.0
 11
406.67332346981777
 21
201.75778030929371
 31
0.0
  0
LINE
  5
6E2B
  8
DANMEN
  6
CONTINUOUS
 10
408.7946660305783
 20
206.0003986701789
 30
0.0
 11
404.55200316261499
 21
201.75779514502111
 31
0.0
  0
LINE
  5
6E2C
  8
DANMEN
  6
CONTINUOUS
 10
408.79468086630573
 20
208.12171897738179
 30
0.0
 11
402.4306828554121
 21
201.75780998074839
 31
0.0
  0
LINE
  5
6E2D
  8
DANMEN
  6
CONTINUOUS
 10
407.3093710554657
 20
208.7577354134915
 30
0.0
 11
401.7948193682152
 21
203.24326085915919
 31
0.0
  0
LINE
  5
6E2E
  8
DANMEN
  6
CONTINUOUS
 10
405.18805074826281
 20
208.7577502492189
 30
0.0
 11
401.79483420394263
 21
205.3645811663622
 31
0.0
  0
LINE
  5
6E2F
  8
DANMEN
  6
CONTINUOUS
 10
403.06673044105997
 20
208.7577650849461
 30
0.0
 11
401.79484903966971
 21
207.48590147356509
 31
0.0
  0
LINE
  5
6E30
  8
DANMEN
  6
CONTINUOUS
 10
401.79501400111047
 20
231.75774208127081
 30
0.0
 11
401.7949720393363
 21
225.75774208141749
 31
0.0
  0
LINE
  5
6E31
  8
DANMEN
  6
CONTINUOUS
 10
408.79484615425969
 20
231.75769312704131
 30
0.0
 11
408.79479719906982
 21
224.7577236447907
 31
0.0
  0
ARC
  5
6E32
  8
DANMEN
  6
CONTINUOUS
 10
400.79497203936069
 20
225.7577490750466
 30
0.0
 40
0.9999999999999998
 50
269.99965325284012
 51
359.9996899082638
  0
LINE
  5
6E33
  8
DANMEN
  6
CONTINUOUS
 10
401.79484035757662
 20
224.7577673636622
 30
0.0
 11
408.79485291095881
 21
231.7576820067469
 31
0.0
  0
LINE
  5
6E34
  8
DANMEN
  6
CONTINUOUS
 10
403.91616066477951
 20
224.7577525279348
 30
0.0
 11
408.7948272855632
 21
229.63635091002641
 31
0.0
  0
LINE
  5
6E35
  8
DANMEN
  6
CONTINUOUS
 10
406.03748097198229
 20
224.75773769220751
 30
0.0
 11
408.79481244983572
 21
227.5150306028236
 31
0.0
  0
LINE
  5
6E36
  8
DANMEN
  6
CONTINUOUS
 10
408.1588008577138
 20
224.75772243501461
 30
0.0
 11
408.79479782484418
 21
225.3937105063533
 31
0.0
  0
LINE
  5
6E37
  8
DANMEN
  6
CONTINUOUS
 10
401.79497387965728
 20
226.87920635555841
 30
0.0
 11
406.67353260375597
 21
231.7576968424743
 31
0.0
  0
LINE
  5
6E38
  8
DANMEN
  6
CONTINUOUS
 10
401.79498871538459
 20
229.0005266627613
 30
0.0
 11
404.55221229655302
 21
231.75771167820159
 31
0.0
  0
LINE
  5
6E39
  8
DANMEN
  6
CONTINUOUS
 10
401.79500355110599
 20
231.1218461270272
 30
0.0
 11
402.43089262155138
 21
231.75772630319031
 31
0.0
  0
LINE
  5
6E3A
  8
DANMEN
  6
CONTINUOUS
 10
406.67353260375597
 20
231.7576968424743
 30
0.0
 11
408.79483065743813
 21
229.63636911744109
 31
0.0
  0
LINE
  5
6E3B
  8
DANMEN
  6
CONTINUOUS
 10
404.55221229655302
 20
231.75771167820159
 30
0.0
 11
408.79481582171093
 21
227.5150488102382
 31
0.0
  0
LINE
  5
6E3C
  8
DANMEN
  6
CONTINUOUS
 10
402.43089262155138
 20
231.75772630319031
 30
0.0
 11
408.79480119671928
 21
225.39372871376801
 31
0.0
  0
LINE
  5
6E3D
  8
DANMEN
  6
CONTINUOUS
 10
401.79500839918512
 20
230.27228520399481
 30
0.0
 11
407.30948295351737
 21
224.75773351674439
 31
0.0
  0
LINE
  5
6E3E
  8
DANMEN
  6
CONTINUOUS
 10
401.79499356345758
 20
228.150964896792
 30
0.0
 11
405.18816264631448
 21
224.75774835247171
 31
0.0
  0
LINE
  5
6E3F
  8
DANMEN
  6
CONTINUOUS
 10
401.79497872773049
 20
226.02964458958911
 30
0.0
 11
403.06684233911142
 21
224.75776318819911
 31
0.0
  0
LINE
  5
6E40
  8
SUNPO
  6
CONTINUOUS
 10
401.79477844116622
 20
117.7579142895827
 30
0.0
 11
406.79477234920608
 21
112.7579203815427
 31
0.0
  0
LINE
  5
6E41
  8
SUNPO
  6
CONTINUOUS
 10
401.7947851197016
 20
117.7579080217758
 30
0.0
 11
401.7947851197016
 21
107.7579251879134
 31
0.0
  0
LINE
  5
6E42
  8
SUNPO
  6
CONTINUOUS
 10
406.79477234920608
 20
112.75789880235661
 30
0.0
 11
401.7947781039914
 21
107.7579045571418
 31
0.0
  0
LINE
  5
6E43
  8
SUNPO
  6
CONTINUOUS
 10
243.24260673964309
 20
117.7579142895827
 30
0.0
 11
238.2426128316032
 21
112.7579203815427
 31
0.0
  0
LINE
  5
6E44
  8
SUNPO
  6
CONTINUOUS
 10
243.24260006110771
 20
117.7579080217758
 30
0.0
 11
243.24260006110771
 21
107.7579251879134
 31
0.0
  0
LINE
  5
6E45
  8
SUNPO
  6
CONTINUOUS
 10
238.2426128316032
 20
112.75789880235661
 30
0.0
 11
243.24260707681799
 21
107.7579045571418
 31
0.0
  0
LINE
  5
6E46
  8
SUNPO
  6
CONTINUOUS
 10
342.95936641852973
 20
117.7578946703354
 30
0.0
 11
342.95936641852973
 21
107.75790992912439
 31
0.0
  0
LINE
  5
6E47
  8
SUNPO
  6
CONTINUOUS
 10
342.95920781837538
 20
107.75821595625951
 30
0.0
 11
337.18574509539138
 21
117.75815695794419
 31
0.0
  0
LINE
  5
6E48
  8
SUNPO
  6
CONTINUOUS
 10
340.64983911614848
 20
107.7582275733633
 30
0.0
 11
334.87637639316409
 21
117.758168575048
 31
0.0
  0
LINE
  5
6E49
  8
SUNPO
  6
CONTINUOUS
 10
334.87648067634223
 20
117.7578946703354
 30
0.0
 11
334.87648067634223
 21
107.75790992912439
 31
0.0
  0
LINE
  5
6E4A
  8
SUNPO
  6
CONTINUOUS
 10
334.87643255217381
 20
107.75824776765801
 30
0.0
 11
329.10296982918942
 21
117.75818876934279
 31
0.0
  0
LINE
  5
6E4B
  8
SUNPO
  6
CONTINUOUS
 10
332.56704068319539
 20
107.7582636287718
 30
0.0
 11
326.79357033082312
 21
117.7582178449581
 31
0.0
  0
LINE
  5
6E4C
  8
SUNPO
  6
CONTINUOUS
 10
335.87648067634223
 20
107.75790992912439
 30
0.0
 11
331.56709346931081
 21
107.75790992912439
 31
0.0
  0
LINE
  5
6E4D
  8
SUNPO
  6
CONTINUOUS
 10
338.18588314216248
 20
117.7578946703354
 30
0.0
 11
333.87648067634223
 21
117.7578946703354
 31
0.0
  0
LINE
  5
6E4E
  8
SUNPO
  6
CONTINUOUS
 10
330.10299739997492
 20
117.7578946703354
 30
0.0
 11
325.79359493415473
 21
117.7578946703354
 31
0.0
  0
LINE
  5
6E4F
  8
SUNPO
  6
CONTINUOUS
 10
343.95936641852973
 20
117.7578946703354
 30
0.0
 11
341.95936641852973
 21
117.7578946703354
 31
0.0
  0
LINE
  5
6E50
  8
SUNPO
  6
CONTINUOUS
 10
343.95936641852973
 20
107.75790992912439
 30
0.0
 11
339.64997921149831
 21
107.75790992912439
 31
0.0
  0
LINE
  5
6E51
  8
DANMEN
  6
CONTINUOUS
 10
97.74845848243352
 20
182.3970853441634
 30
0.0
 11
97.74845848243352
 21
148.3971225374618
 31
0.0
  0
LINE
  5
6E52
  8
DANMEN
  6
CONTINUOUS
 10
98.248458482433506
 20
182.8970853441634
 30
0.0
 11
99.248458482433506
 21
182.8970853441634
 31
0.0
  0
LINE
  5
6E53
  8
DANMEN
  6
CONTINUOUS
 10
99.748458482433506
 20
182.3970853441634
 30
0.0
 11
99.748458482433506
 21
167.89708534416349
 31
0.0
  0
ARC
  5
6E54
  8
DANMEN
  6
CONTINUOUS
 10
98.248458482433506
 20
182.3970853441634
 30
0.0
 40
0.5
 50
89.999982013910966
 51
179.99996402782111
  0
ARC
  5
6E55
  8
DANMEN
  6
CONTINUOUS
 10
99.248458482433506
 20
182.3970853441634
 30
0.0
 40
0.5
 50
0.0
 51
89.999982013910966
  0
LINE
  5
6E56
  8
DANMEN
  6
CONTINUOUS
 10
99.048461534191361
 20
150.9471027010361
 30
0.0
 11
99.048461534191361
 21
148.3971225374618
 31
0.0
  0
LINE
  5
6E57
  8
DANMEN
  6
CONTINUOUS
 10
98.248458482433506
 20
147.8971225374618
 30
0.0
 11
98.548461534191347
 21
147.8971225374618
 31
0.0
  0
ARC
  5
6E58
  8
DANMEN
  6
CONTINUOUS
 10
98.248458482433506
 20
148.3971225374618
 30
0.0
 40
0.5
 50
179.99996402782111
 51
270.00000068324448
  0
ARC
  5
6E59
  8
DANMEN
  6
CONTINUOUS
 10
98.548461534191347
 20
148.3971225374618
 30
0.0
 40
0.5
 50
270.00001798608889
 51
0.0
  0
LINE
  5
6E5A
  8
DANMEN
  6
CONTINUOUS
 10
99.748458482433506
 20
167.89708534416349
 30
0.0
 11
100.24845848243351
 21
167.89708534416349
 31
0.0
  0
LINE
  5
6E5B
  8
DANMEN
  6
CONTINUOUS
 10
99.698459245372987
 20
166.8970853441634
 30
0.0
 11
100.24845848243351
 21
166.8970853441634
 31
0.0
  0
ARC
  5
6E5C
  8
DANMEN
  6
CONTINUOUS
 10
100.24845848243351
 20
167.3970853441634
 30
0.0
 40
0.5
 50
270.00001798608889
 51
89.999982013910966
  0
LINE
  5
6E5D
  8
DANMEN
  6
CONTINUOUS
 10
99.698459245372987
 20
152.89710346397541
 30
0.0
 11
128.04843197028751
 21
152.89710346397541
 31
0.0
  0
LINE
  5
6E5E
  8
DANMEN
  6
CONTINUOUS
 10
99.048461534191361
 20
150.9471027010361
 30
0.0
 11
108.74845943610779
 21
150.9471027010361
 31
0.0
  0
LINE
  5
6E5F
  8
DANMEN
  6
CONTINUOUS
 10
113.24845848243351
 20
146.39713112053059
 30
0.0
 11
113.24845848243351
 21
144.09713092979581
 31
0.0
  0
LINE
  5
6E60
  8
DANMEN
  6
CONTINUOUS
 10
129.54843197028751
 20
151.39710346397541
 30
0.0
 11
129.54843197028751
 21
142.19713321861411
 31
0.0
  0
LINE
  5
6E61
  8
DANMEN
  6
CONTINUOUS
 10
111.24845848243341
 20
144.09713092979581
 30
0.0
 11
113.24845848243351
 21
144.09713092979581
 31
0.0
  0
LINE
  5
6E62
  8
DANMEN
  6
CONTINUOUS
 10
111.74845848243351
 20
142.79713169273521
 30
0.0
 11
113.5484462754021
 21
142.79713169273521
 31
0.0
  0
LINE
  5
6E63
  8
DANMEN
  6
CONTINUOUS
 10
111.24845848243341
 20
144.09713092979581
 30
0.0
 11
111.24845848243341
 21
143.297130739061
 31
0.0
  0
ARC
  5
6E64
  8
DANMEN
  6
CONTINUOUS
 10
111.74845848243351
 20
143.297130739061
 30
0.0
 40
0.5
 50
179.99996402782111
 51
270.00000068324448
  0
LINE
  5
6E65
  8
DANMEN
  6
CONTINUOUS
 10
108.74845943610779
 20
150.9471027010361
 30
0.0
 11
108.74845943610779
 21
145.89713112053059
 31
0.0
  0
LINE
  5
6E66
  8
DANMEN
  6
CONTINUOUS
 10
114.5484462754021
 20
146.69713035759111
 30
0.0
 11
114.5484462754021
 21
143.79713169273521
 31
0.0
  0
LINE
  5
6E67
  8
DANMEN
  6
CONTINUOUS
 10
110.6984601990472
 20
150.9471027010361
 30
0.0
 11
110.6984601990472
 21
147.69713035759111
 31
0.0
  0
ARC
  5
6E68
  8
DANMEN
  6
CONTINUOUS
 10
113.5484462754021
 20
146.69713035759111
 30
0.0
 40
1.0
 50
0.0
 51
89.999982013910966
  0
ARC
  5
6E69
  8
DANMEN
  6
CONTINUOUS
 10
113.5484462754021
 20
143.79713169273521
 30
0.0
 40
1.0
 50
270.00001798608889
 51
0.0
  0
LINE
  5
6E6A
  8
DANMEN
  6
CONTINUOUS
 10
125.2484441773187
 20
142.19713321861411
 30
0.0
 11
127.5984197632562
 21
142.19713321861411
 31
0.0
  0
LINE
  5
6E6B
  8
DANMEN
  6
CONTINUOUS
 10
125.2484441773187
 20
143.49713340934889
 30
0.0
 11
127.5984197632562
 21
143.49713340934889
 31
0.0
  0
LINE
  5
6E6C
  8
DANMEN
  6
CONTINUOUS
 10
124.74845848243341
 20
142.997133409349
 30
0.0
 11
124.74845848243341
 21
142.69713321861411
 31
0.0
  0
ARC
  5
6E6D
  8
DANMEN
  6
CONTINUOUS
 10
125.2484441773187
 20
142.69713321861411
 30
0.0
 40
0.5
 50
179.99996402782111
 51
270.00000068324448
  0
LINE
  5
6E6E
  8
DANMEN
  6
CONTINUOUS
 10
127.5984197632562
 20
141.69713321861411
 30
0.0
 11
129.04843197028751
 21
141.69713321861411
 31
0.0
  0
ARC
  5
6E6F
  8
DANMEN
  6
CONTINUOUS
 10
129.04843197028751
 20
142.19713321861411
 30
0.0
 40
0.5
 50
270.00001798608889
 51
0.0
  0
ARC
  5
6E70
  8
DANMEN
  6
CONTINUOUS
 10
125.2484441773187
 20
142.997133409349
 30
0.0
 40
0.5
 50
89.999982013910966
 51
179.99996402782111
  0
ARC
  5
6E71
  8
DANMEN
  6
CONTINUOUS
 10
128.04843197028751
 20
151.39710346397541
 30
0.0
 40
1.5
 50
0.0
 51
89.999982013910966
  0
LINE
  5
6E72
  8
DANMEN
  6
CONTINUOUS
 10
110.6984601990472
 20
147.69713035759111
 30
0.0
 11
113.5484462754021
 21
147.69713035759111
 31
0.0
  0
LINE
  5
6E73
  8
DANMEN
  6
CONTINUOUS
 10
110.6984601990472
 20
146.39713112053059
 30
0.0
 11
113.24845848243351
 21
146.39713112053059
 31
0.0
  0
LINE
  5
6E74
  8
DANMEN
  6
CONTINUOUS
 10
108.74845943610779
 20
145.89713112053059
 30
0.0
 11
110.1984601990473
 21
145.89713112053059
 31
0.0
  0
ARC
  5
6E75
  8
DANMEN
  6
CONTINUOUS
 10
110.1984601990473
 20
146.39713112053059
 30
0.0
 40
0.5
 50
270.00001798608889
 51
0.0
  0
LINE
  5
6E76
  8
DANMEN
  6
CONTINUOUS
 10
99.698459245372987
 20
166.8970853441634
 30
0.0
 11
99.698459245372987
 21
152.89710346397541
 31
0.0
  0
LINE
  5
6E77
  8
DANMEN
  6
CONTINUOUS
 10
110.6984601990472
 20
150.9471027010361
 30
0.0
 11
127.5984197632562
 21
150.9471027010361
 31
0.0
  0
LINE
  5
6E78
  8
DANMEN
  6
CONTINUOUS
 10
127.5984197632562
 20
150.9471027010361
 30
0.0
 11
127.5984197632562
 21
143.49713340934889
 31
0.0
  0
LINE
  5
6E79
  8
DANMEN
  6
CONTINUOUS
 10
127.5984197632562
 20
142.19713321861411
 30
0.0
 11
127.5984197632562
 21
141.69713321861411
 31
0.0
  0
LINE
  5
6E7A
  8
DANMEN
  6
CONTINUOUS
 10
99.698459245372987
 20
150.9471027010361
 30
0.0
 11
99.698459245372987
 21
152.89710346397541
 31
0.0
  0
LINE
  5
6E7B
  8
DANMEN
  6
CONTINUOUS
 10
135.24847469489691
 20
148.39688697990559
 30
0.0
 11
135.74847469489691
 21
148.39688697990559
 31
0.0
  0
LINE
  5
6E7C
  8
DANMEN
  6
CONTINUOUS
 10
158.74845943610779
 20
182.8968869799057
 30
0.0
 11
158.74845943610779
 21
172.69687477287439
 31
0.0
  0
LINE
  5
6E7D
  8
DANMEN
  6
CONTINUOUS
 10
130.24845943610771
 20
182.8968869799057
 30
0.0
 11
131.24845943610771
 21
182.8968869799057
 31
0.0
  0
ARC
  5
6E7E
  8
DANMEN
  6
CONTINUOUS
 10
135.24847469489691
 20
148.89688697990559
 30
0.0
 40
0.5
 50
179.99996402782111
 51
270.00000068324448
  0
ARC
  5
6E7F
  8
DANMEN
  6
CONTINUOUS
 10
135.74847469489691
 20
148.89688697990559
 30
0.0
 40
0.5
 50
270.00001798608889
 51
0.0
  0
LINE
  5
6E80
  8
DANMEN
  6
CONTINUOUS
 10
139.74847469489691
 20
151.89688697990559
 30
0.0
 11
139.74847469489691
 21
150.89688697990559
 31
0.0
  0
LINE
  5
6E81
  8
DANMEN
  6
CONTINUOUS
 10
136.24847469489691
 20
150.89688697990559
 30
0.0
 11
139.74847469489691
 21
150.89688697990559
 31
0.0
  0
LINE
  5
6E82
  8
DANMEN
  6
CONTINUOUS
 10
136.24847469489691
 20
152.39688697990559
 30
0.0
 11
139.24847469489691
 21
152.39688697990559
 31
0.0
  0
ARC
  5
6E83
  8
DANMEN
  6
CONTINUOUS
 10
139.24847469489691
 20
151.89688697990559
 30
0.0
 40
0.5
 50
0.0
 51
89.999982013910966
  0
LINE
  5
6E84
  8
DANMEN
  6
CONTINUOUS
 10
136.24847469489691
 20
150.89688697990559
 30
0.0
 11
136.24847469489691
 21
148.89688697990559
 31
0.0
  0
LINE
  5
6E85
  8
DANMEN
  6
CONTINUOUS
 10
131.74845943610779
 20
177.8968869799057
 30
0.0
 11
157.09845028083441
 21
177.8968869799057
 31
0.0
  0
LINE
  5
6E86
  8
DANMEN
  6
CONTINUOUS
 10
153.74845943610771
 20
182.8968869799057
 30
0.0
 11
158.74845943610779
 21
182.8968869799057
 31
0.0
  0
LINE
  5
6E87
  8
DANMEN
  6
CONTINUOUS
 10
153.24845943610771
 20
182.39688697990559
 30
0.0
 11
153.24845943610771
 21
181.19687477287439
 31
0.0
  0
ARC
  5
6E88
  8
DANMEN
  6
CONTINUOUS
 10
153.74845943610771
 20
182.39688697990559
 30
0.0
 40
0.5
 50
89.999982013910966
 51
179.99996402782111
  0
LINE
  5
6E89
  8
DANMEN
  6
CONTINUOUS
 10
154.24845943610771
 20
181.5968839281478
 30
0.0
 11
157.09845028083441
 21
181.5968839281478
 31
0.0
  0
LINE
  5
6E8A
  8
DANMEN
  6
CONTINUOUS
 10
153.5484472290766
 20
180.8968869799057
 30
0.0
 11
153.9484563843499
 21
180.8968869799057
 31
0.0
  0
LINE
  5
6E8B
  8
DANMEN
  6
CONTINUOUS
 10
154.24845943610771
 20
181.5968839281478
 30
0.0
 11
154.24845943610771
 21
181.19687477287439
 31
0.0
  0
LINE
  5
6E8C
  8
DANMEN
  6
CONTINUOUS
 10
157.09845028083441
 20
181.5968839281478
 30
0.0
 11
157.09845028083441
 21
177.8968869799057
 31
0.0
  0
ARC
  5
6E8D
  8
DANMEN
  6
CONTINUOUS
 10
153.5484472290766
 20
181.19687477287439
 30
0.0
 40
0.2999999523162842
 50
179.99996402782111
 51
270.00000068324448
  0
ARC
  5
6E8E
  8
DANMEN
  6
CONTINUOUS
 10
153.9484563843499
 20
181.19687477287439
 30
0.0
 40
0.2999999523162842
 50
270.00001798608889
 51
0.0
  0
LINE
  5
6E8F
  8
DANMEN
  6
CONTINUOUS
 10
158.74845943610779
 20
172.69687477287439
 30
0.0
 11
160.74845943610779
 21
172.69687477287439
 31
0.0
  0
LINE
  5
6E90
  8
DANMEN
  6
CONTINUOUS
 10
161.24845943610771
 20
172.19687477287439
 30
0.0
 11
161.24845943610771
 21
171.69687477287439
 31
0.0
  0
LINE
  5
6E91
  8
DANMEN
  6
CONTINUOUS
 10
158.4484563843499
 20
171.49686256584309
 30
0.0
 11
160.0484472290766
 21
171.49686256584309
 31
0.0
  0
ARC
  5
6E92
  8
DANMEN
  6
CONTINUOUS
 10
160.74845943610779
 20
172.19687477287439
 30
0.0
 40
0.5
 50
0.0
 51
89.999982013910966
  0
LINE
  5
6E93
  8
DANMEN
  6
CONTINUOUS
 10
157.4484563843499
 20
176.24687782463209
 30
0.0
 11
157.4484563843499
 21
172.4968625658432
 31
0.0
  0
LINE
  5
6E94
  8
DANMEN
  6
CONTINUOUS
 10
134.74847469489691
 20
166.89688697990559
 30
0.0
 11
134.74847469489691
 21
162.39688697990559
 31
0.0
  0
LINE
  5
6E95
  8
DANMEN
  6
CONTINUOUS
 10
136.24847469489691
 20
168.04688755211029
 30
0.0
 11
136.24847469489691
 21
162.39688697990559
 31
0.0
  0
LINE
  5
6E96
  8
DANMEN
  6
CONTINUOUS
 10
131.74845943610779
 20
182.39688697990559
 30
0.0
 11
131.74845943610779
 21
177.8968869799057
 31
0.0
  0
ARC
  5
6E97
  8
DANMEN
  6
CONTINUOUS
 10
131.24845943610771
 20
182.39688697990559
 30
0.0
 40
0.5
 50
0.0
 51
89.999982013910966
  0
LINE
  5
6E98
  8
DANMEN
  6
CONTINUOUS
 10
131.3984685913812
 20
176.24687782463209
 30
0.0
 11
157.4484563843499
 21
176.24687782463209
 31
0.0
  0
LINE
  5
6E99
  8
DANMEN
  6
CONTINUOUS
 10
134.74847469489691
 20
162.39688697990559
 30
0.0
 11
135.04847774665461
 21
162.39688697990559
 31
0.0
  0
LINE
  5
6E9A
  8
DANMEN
  6
CONTINUOUS
 10
134.74847469489691
 20
161.39688697990559
 30
0.0
 11
135.04847774665461
 21
161.39688697990559
 31
0.0
  0
LINE
  5
6E9B
  8
DANMEN
  6
CONTINUOUS
 10
135.04847774665461
 20
162.39688697990559
 30
0.0
 11
135.04847774665461
 21
161.39688697990559
 31
0.0
  0
LINE
  5
6E9C
  8
DANMEN
  6
CONTINUOUS
 10
134.74847469489691
 20
161.39688697990559
 30
0.0
 11
134.74847469489691
 21
148.89688697990559
 31
0.0
  0
LINE
  5
6E9D
  8
DANMEN
  6
CONTINUOUS
 10
160.0484472290766
 20
171.19687477287439
 30
0.0
 11
160.74845943610779
 21
171.19687477287439
 31
0.0
  0
LINE
  5
6E9E
  8
DANMEN
  6
CONTINUOUS
 10
160.0484472290766
 20
171.49686256584309
 30
0.0
 11
160.0484472290766
 21
171.19687477287439
 31
0.0
  0
ARC
  5
6E9F
  8
DANMEN
  6
CONTINUOUS
 10
160.74845943610779
 20
171.69687477287439
 30
0.0
 40
0.5
 50
270.00001798608889
 51
0.0
  0
ARC
  5
6EA0
  8
DANMEN
  6
CONTINUOUS
 10
158.4484563843499
 20
172.4968625658432
 30
0.0
 40
1.0
 50
179.99996402782111
 51
270.00000068324448
  0
LINE
  5
6EA1
  8
DANMEN
  6
CONTINUOUS
 10
129.74845943610771
 20
182.39688697990559
 30
0.0
 11
129.74845943610771
 21
167.89688697990559
 31
0.0
  0
ARC
  5
6EA2
  8
DANMEN
  6
CONTINUOUS
 10
130.24845943610771
 20
182.39688697990559
 30
0.0
 40
0.5
 50
89.999982013910966
 51
179.99996402782111
  0
LINE
  5
6EA3
  8
DANMEN
  6
CONTINUOUS
 10
129.24845943610771
 20
167.89688697990559
 30
0.0
 11
129.74845943610771
 21
167.89688697990559
 31
0.0
  0
LINE
  5
6EA4
  8
DANMEN
  6
CONTINUOUS
 10
129.24845943610771
 20
166.89688697990559
 30
0.0
 11
134.74847469489691
 21
166.89688697990559
 31
0.0
  0
LINE
  5
6EA5
  8
DANMEN
  6
CONTINUOUS
 10
131.3984685913812
 20
176.24687782463209
 30
0.0
 11
131.3984685913812
 21
168.54688755211021
 31
0.0
  0
ARC
  5
6EA6
  8
DANMEN
  6
CONTINUOUS
 10
129.24845943610771
 20
167.39688697990559
 30
0.0
 40
0.5
 50
179.99996402782111
 51
270.00000068324448
  0
ARC
  5
6EA7
  8
DANMEN
  6
CONTINUOUS
 10
129.24845943610771
 20
167.39688697990559
 30
0.0
 40
0.5
 50
89.999982013910966
 51
179.99996402782111
  0
LINE
  5
6EA8
  8
DANMEN
  6
CONTINUOUS
 10
131.3984685913812
 20
168.54688755211021
 30
0.0
 11
135.74847469489691
 21
168.54688755211021
 31
0.0
  0
ARC
  5
6EA9
  8
DANMEN
  6
CONTINUOUS
 10
135.74847469489691
 20
168.04688755211029
 30
0.0
 40
0.5
 50
0.0
 51
89.999982013910966
  0
LINE
  5
6EAA
  8
DANMEN
  6
CONTINUOUS
 10
135.04847774665461
 20
162.39688697990559
 30
0.0
 11
136.24847469489691
 21
162.39688697990559
 31
0.0
  0
LINE
  5
6EAB
  8
DANMEN
  6
CONTINUOUS
 10
136.24847469489691
 20
162.39688697990559
 30
0.0
 11
136.24847469489691
 21
152.39688697990559
 31
0.0
  0
LINE
  5
6EAC
  8
DANMEN
  6
CONTINUOUS
 10
93.748459436107836
 20
137.3971311205307
 30
0.0
 11
93.748459436107836
 21
123.3971311205307
 31
0.0
  0
LINE
  5
6EAD
  8
DANMEN
  6
CONTINUOUS
 10
144.24845943610779
 20
112.8971311205307
 30
0.0
 11
144.74845943610771
 21
112.8971311205307
 31
0.0
  0
LINE
  5
6EAE
  8
DANMEN
  6
CONTINUOUS
 10
183.74845943610771
 20
137.39711586174161
 30
0.0
 11
183.74845943610771
 21
136.3971311205307
 31
0.0
  0
LINE
  5
6EAF
  8
DANMEN
  6
CONTINUOUS
 10
159.24845943610771
 20
182.89713112053059
 30
0.0
 11
163.24845943610771
 21
182.89713112053059
 31
0.0
  0
LINE
  5
6EB0
  8
DANMEN
  6
CONTINUOUS
 10
95.048458673168426
 20
124.8971311205307
 30
0.0
 11
143.74845943610771
 21
124.8971311205307
 31
0.0
  0
LINE
  5
6EB1
  8
DANMEN
  6
CONTINUOUS
 10
95.398459054638124
 20
126.5471307390609
 30
0.0
 11
143.59845028083441
 21
126.5471307390609
 31
0.0
  0
LINE
  5
6EB2
  8
DANMEN
  6
CONTINUOUS
 10
145.24845943610771
 20
126.8971311205307
 30
0.0
 11
145.24845943610771
 21
113.3971311205307
 31
0.0
  0
ARC
  5
6EB3
  8
DANMEN
  6
CONTINUOUS
 10
144.24845943610779
 20
113.3971311205307
 30
0.0
 40
0.5
 50
179.99996402782111
 51
270.00000068324448
  0
ARC
  5
6EB4
  8
DANMEN
  6
CONTINUOUS
 10
144.74845943610771
 20
113.3971311205307
 30
0.0
 40
0.5
 50
270.00001798608889
 51
0.0
  0
LINE
  5
6EB5
  8
DANMEN
  6
CONTINUOUS
 10
95.398459054638124
 20
136.24712196525729
 30
0.0
 11
95.398459054638124
 21
126.5471307390609
 31
0.0
  0
LINE
  5
6EB6
  8
DANMEN
  6
CONTINUOUS
 10
94.248459436107851
 20
137.8971311205307
 30
0.0
 11
100.7485013977777
 21
137.8971311205307
 31
0.0
  0
ARC
  5
6EB7
  8
DANMEN
  6
CONTINUOUS
 10
94.248459436107851
 20
137.3971311205307
 30
0.0
 40
0.5
 50
89.999982013910966
 51
179.99996402782111
  0
LINE
  5
6EB8
  8
DANMEN
  6
CONTINUOUS
 10
95.398459054638124
 20
136.24712196525729
 30
0.0
 11
100.89502010505311
 21
136.24712196525729
 31
0.0
  0
LINE
  5
6EB9
  8
DANMEN
  6
CONTINUOUS
 10
108.74844538421119
 20
145.3970514490571
 30
0.0
 11
108.7484448818899
 21
141.69703946256379
 31
0.0
  0
LINE
  5
6EBA
  8
DANMEN
  6
CONTINUOUS
 10
110.3984250783632
 20
144.39705102376209
 30
0.0
 11
110.3984246695034
 21
141.69708475402871
 31
0.0
  0
LINE
  5
6EBB
  8
DANMEN
  6
CONTINUOUS
 10
109.24845943610769
 20
145.89711586174161
 30
0.0
 11
112.74845943610779
 21
145.89711586174161
 31
0.0
  0
LINE
  5
6EBC
  8
DANMEN
  6
CONTINUOUS
 10
110.3984533325921
 20
144.39711586174161
 30
0.0
 11
113.24845943610769
 21
144.39711586174161
 31
0.0
  0
LINE
  5
6EBD
  8
DANMEN
  6
CONTINUOUS
 10
113.24845943610769
 20
145.39711586174161
 30
0.0
 11
113.24845943610769
 21
144.39711586174161
 31
0.0
  0
LINE
  5
6EBE
  8
DANMEN
  6
CONTINUOUS
 10
163.74845943610779
 20
136.0971280687728
 30
0.0
 11
181.74845943610771
 21
136.0971280687728
 31
0.0
  0
LINE
  5
6EBF
  8
DANMEN
  6
CONTINUOUS
 10
163.74845943610779
 20
182.3971311205307
 30
0.0
 11
163.74845943610779
 21
137.89711586174161
 31
0.0
  0
ARC
  5
6EC0
  8
DANMEN
  6
CONTINUOUS
 10
163.24845943610771
 20
182.3971311205307
 30
0.0
 40
0.5
 50
0.0
 51
89.999982013910966
  0
LINE
  5
6EC1
  8
DANMEN
  6
CONTINUOUS
 10
159.74845943610779
 20
181.19711891349931
 30
0.0
 11
161.9484563843499
 21
181.19711891349931
 31
0.0
  0
LINE
  5
6EC2
  8
DANMEN
  6
CONTINUOUS
 10
158.74845943610779
 20
182.3971311205307
 30
0.0
 11
158.74845943610779
 21
178.3971311205307
 31
0.0
  0
ARC
  5
6EC3
  8
DANMEN
  6
CONTINUOUS
 10
159.24845943610771
 20
182.3971311205307
 30
0.0
 40
0.5
 50
89.999982013910966
 51
179.99996402782111
  0
LINE
  5
6EC4
  8
DANMEN
  6
CONTINUOUS
 10
159.74845943610779
 20
181.19711891349931
 30
0.0
 11
159.74845943610779
 21
178.3971311205307
 31
0.0
  0
LINE
  5
6EC5
  8
DANMEN
  6
CONTINUOUS
 10
158.74845943610779
 20
178.3971311205307
 30
0.0
 11
159.74845943610779
 21
178.3971311205307
 31
0.0
  0
LINE
  5
6EC6
  8
DANMEN
  6
CONTINUOUS
 10
158.74845943610779
 20
174.19711891349939
 30
0.0
 11
158.74845943610779
 21
173.39711586174161
 31
0.0
  0
LINE
  5
6EC7
  8
DANMEN
  6
CONTINUOUS
 10
158.74845943610779
 20
174.19711891349939
 30
0.0
 11
161.9484563843499
 21
174.19711891349939
 31
0.0
  0
LINE
  5
6EC8
  8
DANMEN
  6
CONTINUOUS
 10
159.24845943610771
 20
172.89711586174161
 30
0.0
 11
161.9484563843499
 21
172.89711586174161
 31
0.0
  0
ARC
  5
6EC9
  8
DANMEN
  6
CONTINUOUS
 10
159.24845943610771
 20
173.39711586174161
 30
0.0
 40
0.5
 50
179.99996402782111
 51
270.00000068324448
  0
LINE
  5
6ECA
  8
DANMEN
  6
CONTINUOUS
 10
137.24845943610771
 20
150.89713112053059
 30
0.0
 11
160.9484563843499
 21
150.89713112053059
 31
0.0
  0
LINE
  5
6ECB
  8
DANMEN
  6
CONTINUOUS
 10
162.09846553962339
 20
148.24712196525709
 30
0.0
 11
162.09846553962339
 21
137.54712501701511
 31
0.0
  0
ARC
  5
6ECC
  8
DANMEN
  6
CONTINUOUS
 10
161.09846553962339
 20
148.24712196525709
 30
0.0
 40
1.0
 50
0.0
 51
89.999982013910966
  0
LINE
  5
6ECD
  8
DANMEN
  6
CONTINUOUS
 10
159.0484472290766
 20
149.24712196525709
 30
0.0
 11
161.09846553962339
 21
149.24712196525709
 31
0.0
  0
LINE
  5
6ECE
  8
DANMEN
  6
CONTINUOUS
 10
136.74845943610779
 20
150.39713112053059
 30
0.0
 11
136.74845943610779
 21
149.5971280687728
 31
0.0
  0
ARC
  5
6ECF
  8
DANMEN
  6
CONTINUOUS
 10
137.24845943610771
 20
150.39713112053059
 30
0.0
 40
0.5
 50
89.999982013910966
 51
179.99996402782111
  0
LINE
  5
6ED0
  8
DANMEN
  6
CONTINUOUS
 10
147.24845943610779
 20
148.89713112053059
 30
0.0
 11
147.24845943610779
 21
142.19711891349939
 31
0.0
  0
LINE
  5
6ED1
  8
DANMEN
  6
CONTINUOUS
 10
148.89845333259211
 20
148.24712196525709
 30
0.0
 11
148.89845333259211
 21
142.0471097582259
 31
0.0
  0
LINE
  5
6ED2
  8
DANMEN
  6
CONTINUOUS
 10
138.74845943610779
 20
147.89713112053059
 30
0.0
 11
146.24845943610779
 21
147.89713112053059
 31
0.0
  0
LINE
  5
6ED3
  8
DANMEN
  6
CONTINUOUS
 10
149.89845333259211
 20
149.24712196525709
 30
0.0
 11
150.4484563843499
 21
149.24712196525709
 31
0.0
  0
ARC
  5
6ED4
  8
DANMEN
  6
CONTINUOUS
 10
149.89845333259211
 20
148.24712196525709
 30
0.0
 40
1.0
 50
89.999982013910966
 51
179.99996402782111
  0
LINE
  5
6ED5
  8
DANMEN
  6
CONTINUOUS
 10
110.39843807380311
 20
141.69711891349939
 30
0.0
 11
122.7484441773187
 21
141.69711891349939
 31
0.0
  0
LINE
  5
6ED6
  8
DANMEN
  6
CONTINUOUS
 10
124.0484472290765
 20
140.0471097582259
 30
0.0
 11
146.89845333259211
 21
140.0471097582259
 31
0.0
  0
LINE
  5
6ED7
  8
DANMEN
  6
CONTINUOUS
 10
161.9484563843499
 20
181.19711891349931
 30
0.0
 11
161.9484563843499
 21
174.19711891349939
 31
0.0
  0
LINE
  5
6ED8
  8
DANMEN
  6
CONTINUOUS
 10
161.9484563843499
 20
172.89711586174161
 30
0.0
 11
161.9484563843499
 21
171.19710365471039
 31
0.0
  0
ARC
  5
6ED9
  8
DANMEN
  6
CONTINUOUS
 10
160.9484563843499
 20
151.89713112053059
 30
0.0
 40
1.0
 50
270.00001798608889
 51
0.0
  0
LINE
  5
6EDA
  8
DANMEN
  6
CONTINUOUS
 10
163.74845943610779
 20
137.89711586174161
 30
0.0
 11
183.24845943610771
 21
137.89711586174161
 31
0.0
  0
ARC
  5
6EDB
  8
DANMEN
  6
CONTINUOUS
 10
183.24845943610771
 20
137.39711586174161
 30
0.0
 40
0.5
 50
0.0
 51
89.999982013910966
  0
ARC
  5
6EDC
  8
DANMEN
  6
CONTINUOUS
 10
94.248459436107851
 20
123.3971311205307
 30
0.0
 40
0.5
 50
179.99996402782111
 51
270.00000068324448
  0
ARC
  5
6EDD
  8
DANMEN
  6
CONTINUOUS
 10
109.24845943610769
 20
145.39711586174161
 30
0.0
 40
0.5
 50
89.999982013910966
 51
179.99996402782111
  0
ARC
  5
6EDE
  8
DANMEN
  6
CONTINUOUS
 10
112.74845943610779
 20
145.39711586174161
 30
0.0
 40
0.5
 50
0.0
 51
89.999982013910966
  0
ARC
  5
6EDF
  8
DANMEN
  6
CONTINUOUS
 10
100.9350963608514
 20
136.74712196525721
 30
0.0
 40
0.5
 50
269.99996334457552
 51
288.43497176352082
  0
LINE
  5
6EE0
  8
DANMEN
  6
CONTINUOUS
 10
156.5484472290766
 20
146.95105568107741
 30
0.0
 11
156.5484472290766
 21
148.19711891349939
 31
0.0
  0
LINE
  5
6EE1
  8
DANMEN
  6
CONTINUOUS
 10
158.0484472290766
 20
146.86653724846039
 30
0.0
 11
158.0484472290766
 21
148.24712196525709
 31
0.0
  0
ARC
  5
6EE2
  8
DANMEN
  6
CONTINUOUS
 10
155.5484472290766
 20
148.19711891349939
 30
0.0
 40
1.0
 50
359.99994535848663
 51
89.999982013910966
  0
LINE
  5
6EE3
  8
DANMEN
  6
CONTINUOUS
 10
155.84845028083441
 20
145.5971280687728
 30
0.0
 11
155.84845028083441
 21
145.86018959221039
 31
0.0
  0
ARC
  5
6EE4
  8
DANMEN
  6
CONTINUOUS
 10
156.0484472290766
 20
146.86653724846039
 30
0.0
 40
2.0
 50
308.30634164416182
 51
359.99994535848663
  0
LINE
  5
6EE5
  8
DANMEN
  6
CONTINUOUS
 10
152.9484563843499
 20
148.19711891349939
 30
0.0
 11
152.9484563843499
 21
146.95105568107741
 31
0.0
  0
LINE
  5
6EE6
  8
DANMEN
  6
CONTINUOUS
 10
151.4484563843499
 20
148.24712196525709
 30
0.0
 11
151.4484563843499
 21
146.86653724846039
 31
0.0
  0
LINE
  5
6EE7
  8
DANMEN
  6
CONTINUOUS
 10
153.9484563843499
 20
149.19711891349939
 30
0.0
 11
155.5484472290766
 21
149.19711891349939
 31
0.0
  0
ARC
  5
6EE8
  8
DANMEN
  6
CONTINUOUS
 10
153.9484563843499
 20
148.19711891349939
 30
0.0
 40
1.0
 50
89.999982013910966
 51
180.00001866933439
  0
LINE
  5
6EE9
  8
DANMEN
  6
CONTINUOUS
 10
153.64845333259211
 20
145.86018959221039
 30
0.0
 11
153.64845333259211
 21
145.5971280687728
 31
0.0
  0
ARC
  5
6EEA
  8
DANMEN
  6
CONTINUOUS
 10
153.4484563843499
 20
146.86653724846039
 30
0.0
 40
2.0
 50
180.00001866933439
 51
231.6936770251726
  0
ARC
  5
6EEB
  8
DANMEN
  6
CONTINUOUS
 10
153.9484563843499
 20
146.95105568107741
 30
0.0
 40
1.0
 50
180.00001866933439
 51
245.37563876297449
  0
ARC
  5
6EEC
  8
DANMEN
  6
CONTINUOUS
 10
153.4484563843499
 20
145.86018959221039
 30
0.0
 40
0.199999988079071
 50
0.0
 51
65.375674735154149
  0
ARC
  5
6EED
  8
DANMEN
  6
CONTINUOUS
 10
155.5484472290766
 20
146.95105568107741
 30
0.0
 40
1.0
 50
294.6243799063601
 51
0.0
  0
ARC
  5
6EEE
  8
DANMEN
  6
CONTINUOUS
 10
156.0484472290766
 20
145.86018959221039
 30
0.0
 40
0.199999988079071
 50
114.6243439341807
 51
180.00001866933439
  0
LINE
  5
6EEF
  8
DANMEN
  6
CONTINUOUS
 10
152.2087255493891
 20
145.29712501701511
 30
0.0
 11
153.34845028083441
 21
145.29712501701511
 31
0.0
  0
ARC
  5
6EF0
  8
DANMEN
  6
CONTINUOUS
 10
153.34845028083441
 20
145.5971280687728
 30
0.0
 40
0.2999999523162842
 50
270.00001798608889
 51
0.0
  0
LINE
  5
6EF1
  8
DANMEN
  6
CONTINUOUS
 10
156.14845333259211
 20
145.29712501701511
 30
0.0
 11
157.28817806403751
 21
145.29712501701511
 31
0.0
  0
ARC
  5
6EF2
  8
DANMEN
  6
CONTINUOUS
 10
156.14845333259211
 20
145.5971280687728
 30
0.0
 40
0.2999999523162842
 50
180.00001866933439
 51
270.00005532475791
  0
ARC
  5
6EF3
  8
DANMEN
  6
CONTINUOUS
 10
150.4484563843499
 20
148.24712196525709
 30
0.0
 40
1.0
 50
0.0
 51
89.999982013910966
  0
ARC
  5
6EF4
  8
DANMEN
  6
CONTINUOUS
 10
159.0484472290766
 20
148.24712196525709
 30
0.0
 40
1.0
 50
89.999982013910966
 51
179.99996402782111
  0
LINE
  5
6EF5
  8
DANMEN
  6
CONTINUOUS
 10
158.74845943610779
 20
135.8971311205307
 30
0.0
 11
163.74845943610779
 21
135.8971311205307
 31
0.0
  0
LINE
  5
6EF6
  8
DANMEN
  6
CONTINUOUS
 10
181.74845943610771
 20
136.0971280687728
 30
0.0
 11
181.74845943610771
 21
135.8971311205307
 31
0.0
  0
ARC
  5
6EF7
  8
DANMEN
  6
CONTINUOUS
 10
183.24845943610771
 20
136.3971311205307
 30
0.0
 40
0.5
 50
270.00001798608889
 51
0.0
  0
LINE
  5
6EF8
  8
DANMEN
  6
CONTINUOUS
 10
181.74845943610771
 20
135.8971311205307
 30
0.0
 11
183.24845943610771
 21
135.8971311205307
 31
0.0
  0
LINE
  5
6EF9
  8
DANMEN
  6
CONTINUOUS
 10
163.74845943610779
 20
136.0971280687728
 30
0.0
 11
163.74845943610779
 21
135.8971311205307
 31
0.0
  0
LINE
  5
6EFA
  8
DANMEN
  6
CONTINUOUS
 10
95.048458673168426
 20
124.8971311205307
 30
0.0
 11
95.048458673168426
 21
123.3971311205307
 31
0.0
  0
LINE
  5
6EFB
  8
DANMEN
  6
CONTINUOUS
 10
94.248459436107851
 20
122.8971311205307
 30
0.0
 11
94.548459388424135
 21
122.8971311205307
 31
0.0
  0
ARC
  5
6EFC
  8
DANMEN
  6
CONTINUOUS
 10
94.548459388424135
 20
123.3971311205307
 30
0.0
 40
0.5
 50
270.00001798608889
 51
0.0
  0
LINE
  5
6EFD
  8
DANMEN
  6
CONTINUOUS
 10
108.74842579770269
 20
141.69710362791341
 30
0.0
 11
100.7484947207615
 21
137.89711020927891
 31
0.0
  0
LINE
  5
6EFE
  8
DANMEN
  6
CONTINUOUS
 10
109.1203714386713
 20
140.0471097582259
 30
0.0
 11
115.4484563843499
 21
140.0471097582259
 31
0.0
  0
LINE
  5
6EFF
  8
DANMEN
  6
CONTINUOUS
 10
143.74845943610771
 20
124.8971311205307
 30
0.0
 11
143.74845943610771
 21
113.3971311205307
 31
0.0
  0
LINE
  5
6F00
  8
DANMEN
  6
CONTINUOUS
 10
121.5484472290766
 20
137.75104347404621
 30
0.0
 11
121.5484472290766
 21
138.9971067064682
 31
0.0
  0
LINE
  5
6F01
  8
DANMEN
  6
CONTINUOUS
 10
123.0484472290765
 20
137.66652504142911
 30
0.0
 11
123.0484472290765
 21
139.0471097582259
 31
0.0
  0
ARC
  5
6F02
  8
DANMEN
  6
CONTINUOUS
 10
120.5484472290766
 20
138.9971067064682
 30
0.0
 40
1.0
 50
359.99994535848663
 51
89.999982013910966
  0
LINE
  5
6F03
  8
DANMEN
  6
CONTINUOUS
 10
120.8484502808344
 20
136.19711891349939
 30
0.0
 11
120.8484502808344
 21
136.66017738517911
 31
0.0
  0
ARC
  5
6F04
  8
DANMEN
  6
CONTINUOUS
 10
121.3484502808344
 20
136.19711891349939
 30
0.0
 40
0.5
 50
179.99996402782111
 51
281.53903155009192
  0
ARC
  5
6F05
  8
DANMEN
  6
CONTINUOUS
 10
121.0484472290765
 20
137.66652504142911
 30
0.0
 40
2.0
 50
281.53904885293559
 51
359.99994535848663
  0
LINE
  5
6F06
  8
DANMEN
  6
CONTINUOUS
 10
117.94845638435
 20
138.9971067064682
 30
0.0
 11
117.94845638435
 21
137.75104347404621
 31
0.0
  0
LINE
  5
6F07
  8
DANMEN
  6
CONTINUOUS
 10
116.4484563843499
 20
139.0471097582259
 30
0.0
 11
116.4484563843499
 21
137.66652504142911
 31
0.0
  0
LINE
  5
6F08
  8
DANMEN
  6
CONTINUOUS
 10
118.9484563843499
 20
139.9971067064682
 30
0.0
 11
120.5484472290766
 21
139.9971067064682
 31
0.0
  0
ARC
  5
6F09
  8
DANMEN
  6
CONTINUOUS
 10
118.9484563843499
 20
138.9971067064682
 30
0.0
 40
1.0
 50
89.999982013910966
 51
180.00001866933439
  0
LINE
  5
6F0A
  8
DANMEN
  6
CONTINUOUS
 10
118.6484533325921
 20
136.66017738517911
 30
0.0
 11
118.6484533325921
 21
136.19711891349939
 31
0.0
  0
ARC
  5
6F0B
  8
DANMEN
  6
CONTINUOUS
 10
118.1484533325922
 20
136.19711891349939
 30
0.0
 40
0.5
 50
258.46093247773001
 51
0.0
  0
ARC
  5
6F0C
  8
DANMEN
  6
CONTINUOUS
 10
118.4484563843499
 20
137.66652504142911
 30
0.0
 40
2.0
 50
180.00001866933439
 51
258.4609151748856
  0
ARC
  5
6F0D
  8
DANMEN
  6
CONTINUOUS
 10
118.9484563843499
 20
137.75104347404621
 30
0.0
 40
1.0
 50
180.00001866933439
 51
245.37563876297449
  0
ARC
  5
6F0E
  8
DANMEN
  6
CONTINUOUS
 10
118.4484563843499
 20
136.66017738517911
 30
0.0
 40
0.199999988079071
 50
0.0
 51
65.375674735154149
  0
ARC
  5
6F0F
  8
DANMEN
  6
CONTINUOUS
 10
120.5484472290766
 20
137.75104347404621
 30
0.0
 40
1.0
 50
294.6243799063601
 51
0.0
  0
ARC
  5
6F10
  8
DANMEN
  6
CONTINUOUS
 10
121.0484472290765
 20
136.66017738517911
 30
0.0
 40
0.199999988079071
 50
114.6243439341807
 51
180.00001866933439
  0
ARC
  5
6F11
  8
DANMEN
  6
CONTINUOUS
 10
124.0484472290765
 20
139.0471097582259
 30
0.0
 40
1.0
 50
89.999982013910966
 51
179.99996402782111
  0
ARC
  5
6F12
  8
DANMEN
  6
CONTINUOUS
 10
115.4484563843499
 20
139.0471097582259
 30
0.0
 40
1.0
 50
0.0
 51
89.999982013910966
  0
LINE
  5
6F13
  8
DANMEN
  6
CONTINUOUS
 10
158.59845028083441
 20
137.54712501701511
 30
0.0
 11
162.09846553962339
 21
137.54712501701511
 31
0.0
  0
LINE
  5
6F14
  8
DANMEN
  6
CONTINUOUS
 10
145.24845943610771
 20
126.8971311205307
 30
0.0
 11
157.74845943610771
 21
126.8971311205307
 31
0.0
  0
LINE
  5
6F15
  8
DANMEN
  6
CONTINUOUS
 10
145.09845028083441
 20
128.547130739061
 30
0.0
 11
157.09845028083441
 21
128.547130739061
 31
0.0
  0
LINE
  5
6F16
  8
DANMEN
  6
CONTINUOUS
 10
143.59845028083441
 20
127.0471307390609
 30
0.0
 11
143.59845028083441
 21
126.5471307390609
 31
0.0
  0
LINE
  5
6F17
  8
DANMEN
  6
CONTINUOUS
 10
158.74845943610779
 20
135.8971311205307
 30
0.0
 11
158.74845943610779
 21
127.8971311205306
 31
0.0
  0
LINE
  5
6F18
  8
DANMEN
  6
CONTINUOUS
 10
157.09845028083441
 20
136.04712501701511
 30
0.0
 11
157.09845028083441
 21
128.547130739061
 31
0.0
  0
ARC
  5
6F19
  8
DANMEN
  6
CONTINUOUS
 10
157.74845943610771
 20
127.8971311205306
 30
0.0
 40
1.0
 50
270.00001798608889
 51
0.0
  0
LINE
  5
6F1A
  8
DANMEN
  6
CONTINUOUS
 10
109.1203574814769
 20
140.0470957472522
 30
0.0
 11
101.32406879484211
 21
136.3438331298556
 31
0.0
  0
ARC
  5
6F1B
  8
DANMEN
  6
CONTINUOUS
 10
100.89502010505311
 20
137.24712196525729
 30
0.0
 40
1.0
 50
269.99996334457552
 51
295.40788456643043
  0
LINE
  5
6F1C
  8
DANMEN
  6
CONTINUOUS
 10
138.74845943610779
 20
148.5971280687728
 30
0.0
 11
138.74845943610779
 21
147.89713112053059
 31
0.0
  0
LINE
  5
6F1D
  8
DANMEN
  6
CONTINUOUS
 10
137.24845943610771
 20
149.0971280687728
 30
0.0
 11
138.24845943610771
 21
149.0971280687728
 31
0.0
  0
ARC
  5
6F1E
  8
DANMEN
  6
CONTINUOUS
 10
137.24845943610771
 20
149.5971280687728
 30
0.0
 40
0.5
 50
179.99996402782111
 51
270.00000068324448
  0
ARC
  5
6F1F
  8
DANMEN
  6
CONTINUOUS
 10
138.24845943610771
 20
148.5971280687728
 30
0.0
 40
0.5
 50
0.0
 51
89.999982013910966
  0
LINE
  5
6F20
  8
DANMEN
  6
CONTINUOUS
 10
124.2483844318766
 20
143.79705820103331
 30
0.0
 11
124.2483841196271
 21
141.69708274026419
 31
0.0
  0
LINE
  5
6F21
  8
DANMEN
  6
CONTINUOUS
 10
122.74838453162531
 20
144.09704624602981
 30
0.0
 11
122.7483841786491
 21
141.69708301017261
 31
0.0
  0
LINE
  5
6F22
  8
DANMEN
  6
CONTINUOUS
 10
124.2484441773187
 20
143.79709449943681
 30
0.0
 11
126.7484441773186
 21
143.79709449943681
 31
0.0
  0
LINE
  5
6F23
  8
DANMEN
  6
CONTINUOUS
 10
123.7484441773186
 20
145.09708229240559
 30
0.0
 11
126.7484441773186
 21
145.09708229240559
 31
0.0
  0
ARC
  5
6F24
  8
DANMEN
  6
CONTINUOUS
 10
123.7484441773186
 20
144.09708229240559
 30
0.0
 40
1.0
 50
90.000255221477786
 51
179.99996402782111
  0
LINE
  5
6F25
  8
DANMEN
  6
CONTINUOUS
 10
127.248399350227
 20
144.59706119217961
 30
0.0
 11
127.2483993095
 21
144.29707341709161
 31
0.0
  0
ARC
  5
6F26
  8
DANMEN
  6
CONTINUOUS
 10
126.7484441773186
 20
144.59708229240559
 30
0.0
 40
0.5
 50
359.9999922213334
 51
90.000528429044564
  0
ARC
  5
6F27
  8
DANMEN
  6
CONTINUOUS
 10
126.7484441773186
 20
144.29709449943681
 30
0.0
 40
0.5
 50
269.99947157095539
 51
359.99999222133658
  0
LINE
  5
6F28
  8
DANMEN
  6
CONTINUOUS
 10
124.2484441773187
 20
141.69711891349939
 30
0.0
 11
146.74845943610771
 21
141.69711891349939
 31
0.0
  0
LINE
  5
6F29
  8
DANMEN
  6
CONTINUOUS
 10
159.24845943610771
 20
171.19710365471039
 30
0.0
 11
161.9484563843499
 21
171.19710365471039
 31
0.0
  0
LINE
  5
6F2A
  8
DANMEN
  6
CONTINUOUS
 10
159.24845943610771
 20
169.89710060295241
 30
0.0
 11
161.9484563843499
 21
169.89710060295241
 31
0.0
  0
LINE
  5
6F2B
  8
DANMEN
  6
CONTINUOUS
 10
158.74845943610779
 20
170.69710365471039
 30
0.0
 11
158.74845943610779
 21
170.39710060295261
 31
0.0
  0
LINE
  5
6F2C
  8
DANMEN
  6
CONTINUOUS
 10
161.9484563843499
 20
169.89710060295241
 30
0.0
 11
161.9484563843499
 21
151.89713112053059
 31
0.0
  0
ARC
  5
6F2D
  8
DANMEN
  6
CONTINUOUS
 10
159.24845943610771
 20
170.69710365471039
 30
0.0
 40
0.5
 50
89.999982013910966
 51
179.99996402782111
  0
ARC
  5
6F2E
  8
DANMEN
  6
CONTINUOUS
 10
145.09845028083441
 20
127.0471307390609
 30
0.0
 40
1.5
 50
89.999982013910966
 51
179.99996402782111
  0
ARC
  5
6F2F
  8
DANMEN
  6
CONTINUOUS
 10
158.59845028083441
 20
136.04712501701511
 30
0.0
 40
1.5
 50
89.999982013910966
 51
179.99996402782111
  0
ARC
  5
6F30
  8
DANMEN
  6
CONTINUOUS
 10
146.74845943610771
 20
142.19711891349939
 30
0.0
 40
0.5
 50
270.00001798608889
 51
0.0
  0
ARC
  5
6F31
  8
DANMEN
  6
CONTINUOUS
 10
146.89845333259211
 20
142.0471097582259
 30
0.0
 40
2.0
 50
270.00001798608889
 51
0.0
  0
ARC
  5
6F32
  8
DANMEN
  6
CONTINUOUS
 10
159.24845943610771
 20
170.39710060295261
 30
0.0
 40
0.5
 50
179.99996402782111
 51
270.00000068324448
  0
LINE
  5
6F33
  8
DANMEN
  6
CONTINUOUS
 10
146.24845943610779
 20
148.89713112053059
 30
0.0
 11
146.24845943610779
 21
147.89713112053059
 31
0.0
  0
LINE
  5
6F34
  8
DANMEN
  6
CONTINUOUS
 10
146.24845943610779
 20
148.89713112053059
 30
0.0
 11
147.24845943610779
 21
148.89713112053059
 31
0.0
  0
LINE
  5
6F35
  8
DANMEN
  6
CONTINUOUS
 10
108.7484441773187
 20
141.69711891349939
 30
0.0
 11
110.39843807380311
 21
141.69711891349939
 31
0.0
  0
LINE
  5
6F36
  8
DANMEN
  6
CONTINUOUS
 10
122.7484441773187
 20
141.69711891349939
 30
0.0
 11
124.2484441773187
 21
141.69711891349939
 31
0.0
  0
LINE
  5
6F37
  8
DANMEN
  6
CONTINUOUS
 10
88.748459436107808
 20
277.61354557212968
 30
0.0
 11
88.748459436107808
 21
273.39664283928062
 31
0.0
  0
LINE
  5
6F38
  8
DANMEN
  6
CONTINUOUS
 10
89.248459436107865
 20
272.89664283928062
 30
0.0
 11
90.248459436107851
 21
272.89664283928062
 31
0.0
  0
LINE
  5
6F39
  8
DANMEN
  6
CONTINUOUS
 10
90.248459436107851
 20
273.89664283928062
 30
0.0
 11
90.248459436107851
 21
272.89664283928062
 31
0.0
  0
ARC
  5
6F3A
  8
DANMEN
  6
CONTINUOUS
 10
89.248459436107865
 20
273.39664283928062
 30
0.0
 40
0.5
 50
179.99996402782111
 51
270.00000068324448
  0
LINE
  5
6F3B
  8
DANMEN
  6
CONTINUOUS
 10
90.048458673168355
 20
273.89664283928062
 30
0.0
 11
90.248459436107851
 21
273.89664283928062
 31
0.0
  0
LINE
  5
6F3C
  8
DANMEN
  6
CONTINUOUS
 10
90.048458673168355
 20
277.16059318718112
 30
0.0
 11
90.048458673168355
 21
273.89664283928062
 31
0.0
  0
LINE
  5
6F3D
  8
DANMEN
  6
CONTINUOUS
 10
93.748459436107836
 20
307.44002357658542
 30
0.0
 11
93.748459436107836
 21
280.89664283928062
 31
0.0
  0
LINE
  5
6F3E
  8
DANMEN
  6
CONTINUOUS
 10
94.248459436107851
 20
272.89664283928062
 30
0.0
 11
97.748459436107851
 21
272.89664283928062
 31
0.0
  0
ARC
  5
6F3F
  8
DANMEN
  6
CONTINUOUS
 10
94.248459436107851
 20
273.39664283928062
 30
0.0
 40
0.5
 50
179.99996402782111
 51
270.00000068324448
  0
LINE
  5
6F40
  8
DANMEN
  6
CONTINUOUS
 10
88.991212544693425
 20
278.04229126707162
 30
0.0
 11
93.748458454785009
 21
280.89663868085529
 31
0.0
  0
LINE
  5
6F41
  8
DANMEN
  6
CONTINUOUS
 10
90.048459330575483
 20
277.16059163479889
 30
0.0
 11
93.748457933129188
 21
279.3805906934557
 31
0.0
  0
LINE
  5
6F42
  8
DANMEN
  6
CONTINUOUS
 10
93.748459436107836
 20
279.38059440788408
 30
0.0
 11
93.748459436107836
 21
273.39664283928062
 31
0.0
  0
LINE
  5
6F43
  8
DANMEN
  6
CONTINUOUS
 10
95.448459245372945
 20
291.19663063224942
 30
0.0
 11
95.448459245372945
 21
274.59664264854581
 31
0.0
  0
LINE
  5
6F44
  8
DANMEN
  6
CONTINUOUS
 10
95.448459245372945
 20
274.59664264854581
 30
0.0
 11
98.748459436107865
 21
274.59664264854581
 31
0.0
  0
LINE
  5
6F45
  8
DANMEN
  6
CONTINUOUS
 10
95.548458673168426
 20
292.39662758049161
 30
0.0
 11
99.248459436107851
 21
292.39662758049161
 31
0.0
  0
LINE
  5
6F46
  8
DANMEN
  6
CONTINUOUS
 10
99.748459436107865
 20
279.39664283928062
 30
0.0
 11
99.748459436107865
 21
268.39664283928062
 31
0.0
  0
LINE
  5
6F47
  8
DANMEN
  6
CONTINUOUS
 10
98.748459436107865
 20
279.39664283928062
 30
0.0
 11
98.748459436107865
 21
274.59664264854581
 31
0.0
  0
ARC
  5
6F48
  8
DANMEN
  6
CONTINUOUS
 10
99.248459436107851
 20
279.39664283928062
 30
0.0
 40
0.5
 50
89.999982013910966
 51
179.99996402782111
  0
ARC
  5
6F49
  8
DANMEN
  6
CONTINUOUS
 10
99.248459436107851
 20
279.39664283928062
 30
0.0
 40
0.5
 50
0.0
 51
89.999982013910966
  0
LINE
  5
6F4A
  8
DANMEN
  6
CONTINUOUS
 10
99.748459436107865
 20
291.8966275804915
 30
0.0
 11
99.748459436107865
 21
289.39664283928062
 31
0.0
  0
ARC
  5
6F4B
  8
DANMEN
  6
CONTINUOUS
 10
99.248459436107851
 20
291.8966275804915
 30
0.0
 40
0.5
 50
0.0
 51
89.999982013910966
  0
LINE
  5
6F4C
  8
DANMEN
  6
CONTINUOUS
 10
98.748459436107865
 20
291.19663063224942
 30
0.0
 11
98.748459436107865
 21
289.39664283928062
 31
0.0
  0
ARC
  5
6F4D
  8
DANMEN
  6
CONTINUOUS
 10
99.248459436107851
 20
289.39664283928062
 30
0.0
 40
0.5
 50
179.99996402782111
 51
270.00000068324448
  0
ARC
  5
6F4E
  8
DANMEN
  6
CONTINUOUS
 10
99.248459436107851
 20
289.39664283928062
 30
0.0
 40
0.5
 50
270.00001798608889
 51
0.0
  0
LINE
  5
6F4F
  8
DANMEN
  6
CONTINUOUS
 10
95.448459245372945
 20
291.19663063224942
 30
0.0
 11
98.748459436107865
 21
291.19663063224942
 31
0.0
  0
LINE
  5
6F50
  8
DANMEN
  6
CONTINUOUS
 10
95.548458673168426
 20
306.26360145744462
 30
0.0
 11
95.548458673168426
 21
292.39662758049161
 31
0.0
  0
LINE
  5
6F51
  8
DANMEN
  6
CONTINUOUS
 10
155.24845943610771
 20
287.89664283928062
 30
0.0
 11
163.24845943610771
 21
287.89664283928062
 31
0.0
  0
ARC
  5
6F52
  8
DANMEN
  6
CONTINUOUS
 10
163.24845943610771
 20
288.39664283928062
 30
0.0
 40
0.5
 50
270.00001798608889
 51
0.0
  0
LINE
  5
6F53
  8
DANMEN
  6
CONTINUOUS
 10
162.0484472290766
 20
298.89664283928067
 30
0.0
 11
162.0484472290766
 21
289.5966397875228
 31
0.0
  0
LINE
  5
6F54
  8
DANMEN
  6
CONTINUOUS
 10
154.74845943610771
 20
289.5966397875228
 30
0.0
 11
162.0484472290766
 21
289.5966397875228
 31
0.0
  0
LINE
  5
6F55
  8
DANMEN
  6
CONTINUOUS
 10
154.74845943610771
 20
289.5966397875228
 30
0.0
 11
154.74845943610771
 21
288.39664283928062
 31
0.0
  0
ARC
  5
6F56
  8
DANMEN
  6
CONTINUOUS
 10
155.24845943610771
 20
288.39664283928062
 30
0.0
 40
0.5
 50
179.99996402782111
 51
270.00000068324448
  0
LINE
  5
6F57
  8
DANMEN
  6
CONTINUOUS
 10
125.5484167114984
 20
295.89664283928062
 30
0.0
 11
125.5484167114984
 21
295.39664283928062
 31
0.0
  0
LINE
  5
6F58
  8
DANMEN
  6
CONTINUOUS
 10
130.54841671149839
 20
298.89664283928067
 30
0.0
 11
130.54841671149839
 21
295.89664283928062
 31
0.0
  0
LINE
  5
6F59
  8
DANMEN
  6
CONTINUOUS
 10
129.04841671149839
 20
298.89664283928067
 30
0.0
 11
129.04841671149839
 21
296.39664283928062
 31
0.0
  0
LINE
  5
6F5A
  8
DANMEN
  6
CONTINUOUS
 10
126.0484167114984
 20
294.89664283928062
 30
0.0
 11
129.54841671149839
 21
294.89664283928062
 31
0.0
  0
LINE
  5
6F5B
  8
DANMEN
  6
CONTINUOUS
 10
126.0484167114984
 20
296.39664283928062
 30
0.0
 11
129.04841671149839
 21
296.39664283928062
 31
0.0
  0
ARC
  5
6F5C
  8
DANMEN
  6
CONTINUOUS
 10
126.0484167114984
 20
295.89664283928062
 30
0.0
 40
0.5
 50
89.999982013910966
 51
179.99996402782111
  0
ARC
  5
6F5D
  8
DANMEN
  6
CONTINUOUS
 10
126.0484167114984
 20
295.39664283928062
 30
0.0
 40
0.5
 50
179.99996402782111
 51
270.00000068324448
  0
ARC
  5
6F5E
  8
DANMEN
  6
CONTINUOUS
 10
129.54841671149839
 20
295.89664283928062
 30
0.0
 40
1.0
 50
270.00001798608889
 51
0.0
  0
LINE
  5
6F5F
  8
DANMEN
  6
CONTINUOUS
 10
130.54841671149839
 20
298.89664283928067
 30
0.0
 11
162.0484472290766
 21
298.89664283928067
 31
0.0
  0
LINE
  5
6F60
  8
DANMEN
  6
CONTINUOUS
 10
159.0484472290766
 20
300.54663673576511
 30
0.0
 11
162.09846553962339
 21
300.54663673576511
 31
0.0
  0
LINE
  5
6F61
  8
DANMEN
  6
CONTINUOUS
 10
118.84843502204519
 20
307.4926358812728
 30
0.0
 11
118.84843502204519
 21
304.694601213304
 31
0.0
  0
LINE
  5
6F62
  8
DANMEN
  6
CONTINUOUS
 10
120.64843807380311
 20
308.92836586174161
 30
0.0
 11
120.64843807380311
 21
304.84471718010087
 31
0.0
  0
LINE
  5
6F63
  8
DANMEN
  6
CONTINUOUS
 10
115.0484167114984
 20
299.89662758049161
 30
0.0
 11
116.4484563843499
 21
299.89662758049161
 31
0.0
  0
LINE
  5
6F64
  8
DANMEN
  6
CONTINUOUS
 10
114.7484289185296
 20
299.5966245287338
 30
0.0
 11
114.7484289185296
 21
299.1966153734603
 31
0.0
  0
LINE
  5
6F65
  8
DANMEN
  6
CONTINUOUS
 10
121.3484502808344
 20
298.89662758049161
 30
0.0
 11
129.04841671149839
 21
298.89662758049161
 31
0.0
  0
ARC
  5
6F66
  8
DANMEN
  6
CONTINUOUS
 10
115.0484167114984
 20
299.5966245287338
 30
0.0
 40
0.2999999523162842
 50
89.999982013910966
 51
179.99996402782111
  0
ARC
  5
6F67
  8
DANMEN
  6
CONTINUOUS
 10
115.0484167114984
 20
299.1966153734603
 30
0.0
 40
0.2999999523162842
 50
179.99996402782111
 51
270.00000068324448
  0
LINE
  5
6F68
  8
DANMEN
  6
CONTINUOUS
 10
145.0484472290764
 20
300.54663673576511
 30
0.0
 11
150.4484563843499
 21
300.54663673576511
 31
0.0
  0
LINE
  5
6F69
  8
DANMEN
  6
CONTINUOUS
 10
123.1984411255609
 20
300.54663673576511
 30
0.0
 11
134.74845943610779
 21
300.54663673576511
 31
0.0
  0
LINE
  5
6F6A
  8
DANMEN
  6
CONTINUOUS
 10
135.24845943610771
 20
301.89662758049161
 30
0.0
 11
143.74845943610771
 21
301.89662758049161
 31
0.0
  0
LINE
  5
6F6B
  8
DANMEN
  6
CONTINUOUS
 10
115.0484167114984
 20
298.89661232170249
 30
0.0
 11
118.1484533325922
 21
298.89661232170249
 31
0.0
  0
LINE
  5
6F6C
  8
DANMEN
  6
CONTINUOUS
 10
152.9484563843499
 20
302.84267250236661
 30
0.0
 11
152.9484563843499
 21
301.59660926994462
 31
0.0
  0
LINE
  5
6F6D
  8
DANMEN
  6
CONTINUOUS
 10
151.4484563843499
 20
302.9271909349838
 30
0.0
 11
151.4484563843499
 21
301.54660621818681
 31
0.0
  0
ARC
  5
6F6E
  8
DANMEN
  6
CONTINUOUS
 10
153.9484563843499
 20
301.5966397875228
 30
0.0
 40
1.0
 50
179.99990938630759
 51
269.99994604173111
  0
LINE
  5
6F6F
  8
DANMEN
  6
CONTINUOUS
 10
153.64845333259211
 20
304.19660011467118
 30
0.0
 11
153.64845333259211
 21
303.93353859123368
 31
0.0
  0
ARC
  5
6F70
  8
DANMEN
  6
CONTINUOUS
 10
153.4484563843499
 20
302.92722145256192
 30
0.0
 40
2.0
 50
128.30630567198341
 51
179.99990938630759
  0
LINE
  5
6F71
  8
DANMEN
  6
CONTINUOUS
 10
156.5484472290766
 20
301.59660926994462
 30
0.0
 11
156.5484472290766
 21
302.84267250236661
 31
0.0
  0
LINE
  5
6F72
  8
DANMEN
  6
CONTINUOUS
 10
158.0484472290766
 20
301.54660621818681
 30
0.0
 11
158.0484472290766
 21
302.9271909349838
 31
0.0
  0
LINE
  5
6F73
  8
DANMEN
  6
CONTINUOUS
 10
155.5484472290766
 20
300.59660926994479
 30
0.0
 11
153.9484563843499
 21
300.59660926994479
 31
0.0
  0
ARC
  5
6F74
  8
DANMEN
  6
CONTINUOUS
 10
155.5484472290766
 20
301.5966397875228
 30
0.0
 40
1.0
 50
270.00001798608889
 51
0.0000186693320283
  0
LINE
  5
6F75
  8
DANMEN
  6
CONTINUOUS
 10
155.84845028083441
 20
303.93353859123368
 30
0.0
 11
155.84845028083441
 21
304.19660011467118
 31
0.0
  0
ARC
  5
6F76
  8
DANMEN
  6
CONTINUOUS
 10
156.0484472290766
 20
302.92722145256192
 30
0.0
 40
2.0
 50
0.0000186693320283
 51
51.693675431310453
  0
ARC
  5
6F77
  8
DANMEN
  6
CONTINUOUS
 10
155.5484472290766
 20
302.84270301994479
 30
0.0
 40
1.0
 50
0.0000186693320283
 51
65.375620093639839
  0
ARC
  5
6F78
  8
DANMEN
  6
CONTINUOUS
 10
156.0484472290766
 20
303.93356910881192
 30
0.0
 40
0.199999988079071
 50
180.00003597217801
 51
245.3757107073321
  0
ARC
  5
6F79
  8
DANMEN
  6
CONTINUOUS
 10
153.9484563843499
 20
302.84270301994479
 30
0.0
 40
1.0
 50
114.6243439341807
 51
179.99996402782111
  0
ARC
  5
6F7A
  8
DANMEN
  6
CONTINUOUS
 10
153.4484563843499
 20
303.93356910881192
 30
0.0
 40
0.199999988079071
 50
294.6243799063601
 51
0.0000186693320283
  0
LINE
  5
6F7B
  8
DANMEN
  6
CONTINUOUS
 10
157.28817806403751
 20
304.49660316642911
 30
0.0
 11
156.14845333259211
 21
304.49660316642911
 31
0.0
  0
ARC
  5
6F7C
  8
DANMEN
  6
CONTINUOUS
 10
156.14845333259211
 20
304.19663063224942
 30
0.0
 40
0.2999999523162842
 50
89.999982013910966
 51
179.99996402782111
  0
LINE
  5
6F7D
  8
DANMEN
  6
CONTINUOUS
 10
153.34845028083441
 20
304.49660316642911
 30
0.0
 11
152.2087255493891
 21
304.49660316642911
 31
0.0
  0
ARC
  5
6F7E
  8
DANMEN
  6
CONTINUOUS
 10
153.34845028083441
 20
304.19663063224942
 30
0.0
 40
0.2999999523162842
 50
0.0000186693320283
 51
90.00003665542431
  0
ARC
  5
6F7F
  8
DANMEN
  6
CONTINUOUS
 10
159.0484472290766
 20
301.54663673576488
 30
0.0
 40
1.0
 50
179.99996402782111
 51
270.00000068324448
  0
ARC
  5
6F80
  8
DANMEN
  6
CONTINUOUS
 10
150.4484563843499
 20
301.54663673576488
 30
0.0
 40
1.0
 50
270.00001798608889
 51
0.0
  0
LINE
  5
6F81
  8
DANMEN
  6
CONTINUOUS
 10
121.5484472290766
 20
300.95055214103837
 30
0.0
 11
121.5484472290766
 21
302.1966153734603
 31
0.0
  0
ARC
  5
6F82
  8
DANMEN
  6
CONTINUOUS
 10
120.5484472290766
 20
302.1966153734603
 30
0.0
 40
1.0
 50
359.99994535848663
 51
89.999982013910966
  0
LINE
  5
6F83
  8
DANMEN
  6
CONTINUOUS
 10
120.8484502808344
 20
299.39662758049161
 30
0.0
 11
120.8484502808344
 21
299.8596860521713
 31
0.0
  0
ARC
  5
6F84
  8
DANMEN
  6
CONTINUOUS
 10
121.3484502808344
 20
299.39662758049161
 30
0.0
 40
0.5
 50
179.99996402782111
 51
269.99994604173111
  0
LINE
  5
6F85
  8
DANMEN
  6
CONTINUOUS
 10
117.94845638435
 20
302.1966153734603
 30
0.0
 11
117.94845638435
 21
300.95055214103837
 31
0.0
  0
LINE
  5
6F86
  8
DANMEN
  6
CONTINUOUS
 10
116.4484563843499
 20
302.1966153734603
 30
0.0
 11
116.4484563843499
 21
299.89662758049161
 31
0.0
  0
LINE
  5
6F87
  8
DANMEN
  6
CONTINUOUS
 10
118.9484563843499
 20
303.1966153734603
 30
0.0
 11
120.5484472290766
 21
303.1966153734603
 31
0.0
  0
ARC
  5
6F88
  8
DANMEN
  6
CONTINUOUS
 10
118.9484563843499
 20
302.1966153734603
 30
0.0
 40
1.0
 50
89.999982013910966
 51
180.00001866933439
  0
LINE
  5
6F89
  8
DANMEN
  6
CONTINUOUS
 10
118.6484533325921
 20
299.8596860521713
 30
0.0
 11
118.6484533325921
 21
299.39662758049161
 31
0.0
  0
ARC
  5
6F8A
  8
DANMEN
  6
CONTINUOUS
 10
118.1484533325922
 20
299.39662758049161
 30
0.0
 40
0.5
 50
270.00001798608889
 51
0.0
  0
ARC
  5
6F8B
  8
DANMEN
  6
CONTINUOUS
 10
118.9484563843499
 20
300.95055214103837
 30
0.0
 40
1.0
 50
180.00001866933439
 51
245.37563876297449
  0
ARC
  5
6F8C
  8
DANMEN
  6
CONTINUOUS
 10
118.4484563843499
 20
299.8596860521713
 30
0.0
 40
0.199999988079071
 50
0.0
 51
65.375674735154149
  0
ARC
  5
6F8D
  8
DANMEN
  6
CONTINUOUS
 10
120.5484472290766
 20
300.95055214103837
 30
0.0
 40
1.0
 50
294.6243799063601
 51
0.0
  0
ARC
  5
6F8E
  8
DANMEN
  6
CONTINUOUS
 10
121.0484472290765
 20
299.8596860521713
 30
0.0
 40
0.199999988079071
 50
114.6243439341807
 51
180.00001866933439
  0
ARC
  5
6F8F
  8
DANMEN
  6
CONTINUOUS
 10
118.9484563843499
 20
302.1966153734603
 30
0.0
 40
2.5
 50
92.292903839040363
 51
179.99996402782111
  0
ARC
  5
6F90
  8
DANMEN
  6
CONTINUOUS
 10
120.5484472290766
 20
302.1966153734603
 30
0.0
 40
2.6499996185302721
 50
359.99994535848663
 51
87.837544122684264
  0
LINE
  5
6F91
  8
DANMEN
  6
CONTINUOUS
 10
123.1984411255609
 20
302.1966153734603
 30
0.0
 11
123.1984411255609
 21
300.54663673576511
 31
0.0
  0
ARC
  5
6F92
  8
DANMEN
  6
CONTINUOUS
 10
89.248459436107865
 20
277.61354557212968
 30
0.0
 40
0.5
 50
120.96374303119229
 51
180.0000733108478
  0
LINE
  5
6F93
  8
DANMEN
  6
CONTINUOUS
 10
163.74845943610779
 20
288.3966418856063
 30
0.0
 11
163.74845943610779
 21
314.89661232170261
 31
0.0
  0
LINE
  5
6F94
  8
DANMEN
  6
CONTINUOUS
 10
162.09846553962339
 20
300.54662147697587
 30
0.0
 11
162.09846553962339
 21
315.0465757006088
 31
0.0
  0
LINE
  5
6F95
  8
DANMEN
  6
CONTINUOUS
 10
163.74845943610779
 20
314.89661232170261
 30
0.0
 11
183.24844417731859
 21
314.89661232170261
 31
0.0
  0
LINE
  5
6F96
  8
DANMEN
  6
CONTINUOUS
 10
183.74844417731859
 20
315.39661232170249
 30
0.0
 11
183.74844417731859
 21
320.39661232170261
 31
0.0
  0
LINE
  5
6F97
  8
DANMEN
  6
CONTINUOUS
 10
178.24844417731859
 20
320.89659706291337
 30
0.0
 11
183.24844417731859
 21
320.89659706291337
 31
0.0
  0
ARC
  5
6F98
  8
DANMEN
  6
CONTINUOUS
 10
183.24844417731859
 20
320.39662758049161
 30
0.0
 40
0.5
 50
0.0000179860890374
 51
89.999982013910966
  0
LINE
  5
6F99
  8
DANMEN
  6
CONTINUOUS
 10
177.74844417731859
 20
319.74660316642911
 30
0.0
 11
177.74844417731859
 21
320.39661232170261
 31
0.0
  0
LINE
  5
6F9A
  8
DANMEN
  6
CONTINUOUS
 10
178.24844417731859
 20
319.24660316642911
 30
0.0
 11
182.09843502204521
 21
319.24660316642911
 31
0.0
  0
LINE
  5
6F9B
  8
DANMEN
  6
CONTINUOUS
 10
182.09843502204521
 20
316.69660011467118
 30
0.0
 11
182.09843502204521
 21
319.24660316642911
 31
0.0
  0
ARC
  5
6F9C
  8
DANMEN
  6
CONTINUOUS
 10
178.24845943610779
 20
320.39662758049161
 30
0.0
 40
0.5
 50
89.999982013910966
 51
179.99996402782111
  0
ARC
  5
6F9D
  8
DANMEN
  6
CONTINUOUS
 10
178.24845943610779
 20
319.74661842521812
 30
0.0
 40
0.5
 50
179.99996402782111
 51
269.99994604173111
  0
ARC
  5
6F9E
  8
DANMEN
  6
CONTINUOUS
 10
183.24844417731859
 20
315.39662758049161
 30
0.0
 40
0.5
 50
270.00001798608889
 51
0.0000006832454336
  0
LINE
  5
6F9F
  8
DANMEN
  6
CONTINUOUS
 10
145.39845333259211
 20
319.24660316642911
 30
0.0
 11
149.24844417731859
 21
319.24660316642911
 31
0.0
  0
LINE
  5
6FA0
  8
DANMEN
  6
CONTINUOUS
 10
145.39846859138109
 20
319.24658790763999
 30
0.0
 11
145.39846859138109
 21
316.69658485588218
 31
0.0
  0
LINE
  5
6FA1
  8
DANMEN
  6
CONTINUOUS
 10
145.39845333259211
 20
316.69658485588218
 30
0.0
 11
182.09843502204521
 21
316.69658485588218
 31
0.0
  0
LINE
  5
6FA2
  8
DANMEN
  6
CONTINUOUS
 10
145.0484472290764
 20
315.04659095939792
 30
0.0
 11
162.09846553962339
 21
315.04659095939792
 31
0.0
  0
LINE
  5
6FA3
  8
DANMEN
  6
CONTINUOUS
 10
134.74845943610779
 20
301.39662758049161
 30
0.0
 11
134.74845943610779
 21
300.54663673576511
 31
0.0
  0
ARC
  5
6FA4
  8
DANMEN
  6
CONTINUOUS
 10
135.24845943610771
 20
301.39662758049161
 30
0.0
 40
0.5
 50
89.999982013910966
 51
179.99996402782111
  0
LINE
  5
6FA5
  8
DANMEN
  6
CONTINUOUS
 10
143.74845943610771
 20
320.89659706291337
 30
0.0
 11
143.74845943610771
 21
330.39659706291349
 31
0.0
  0
LINE
  5
6FA6
  8
DANMEN
  6
CONTINUOUS
 10
128.74845943610771
 20
311.3953305834213
 30
0.0
 11
128.74845943610771
 21
318.944112932054
 31
0.0
  0
LINE
  5
6FA7
  8
DANMEN
  6
CONTINUOUS
 10
130.39845333259211
 20
311.26082435783542
 30
0.0
 11
130.39845333259211
 21
317.90335670646812
 31
0.0
  0
LINE
  5
6FA8
  8
DANMEN
  6
CONTINUOUS
 10
144.24842891852961
 20
330.89661232170261
 30
0.0
 11
144.74842891852961
 21
330.89661232170261
 31
0.0
  0
ARC
  5
6FA9
  8
DANMEN
  6
CONTINUOUS
 10
144.24845943610779
 20
330.39661232170261
 30
0.0
 40
0.5
 50
89.999982013910966
 51
180.00176719776209
  0
LINE
  5
6FAA
  8
DANMEN
  6
CONTINUOUS
 10
145.24845943610771
 20
320.89659706291337
 30
0.0
 11
145.24845943610771
 21
330.39659706291349
 31
0.0
  0
ARC
  5
6FAB
  8
DANMEN
  6
CONTINUOUS
 10
144.74845943610771
 20
330.39661232170261
 30
0.0
 40
0.5
 50
359.99825147240682
 51
89.999982013910966
  0
LINE
  5
6FAC
  8
DANMEN
  6
CONTINUOUS
 10
143.74845943610771
 20
301.89661232170261
 30
0.0
 11
143.74845943610771
 21
319.2383481615463
 31
0.0
  0
LINE
  5
6FAD
  8
DANMEN
  6
CONTINUOUS
 10
145.24844417731859
 20
320.89661232170261
 30
0.0
 11
149.24844417731859
 21
320.89661232170261
 31
0.0
  0
LINE
  5
6FAE
  8
DANMEN
  6
CONTINUOUS
 10
149.74844417731859
 20
320.39661232170261
 30
0.0
 11
149.74844417731859
 21
319.74660316642911
 31
0.0
  0
ARC
  5
6FAF
  8
DANMEN
  6
CONTINUOUS
 10
149.24845943610779
 20
320.39662758049161
 30
0.0
 40
0.5
 50
0.000072627560058
 51
89.999982013910966
  0
ARC
  5
6FB0
  8
DANMEN
  6
CONTINUOUS
 10
149.24845943610779
 20
319.74661842521812
 30
0.0
 40
0.5
 50
270.00012726911569
 51
0.000072627560058
  0
LINE
  5
6FB1
  8
DANMEN
  6
CONTINUOUS
 10
128.74843287578651
 20
311.39659918923383
 30
0.0
 11
94.198705785574134
 21
307.94162710109123
 31
0.0
  0
LINE
  5
6FB2
  8
DANMEN
  6
CONTINUOUS
 10
117.74890429671279
 20
308.48766595072908
 30
0.0
 11
95.548458122213731
 21
306.2676217322342
 31
0.0
  0
LINE
  5
6FB3
  8
DANMEN
  6
CONTINUOUS
 10
129.04769858599241
 20
309.76828716859478
 30
0.0
 11
120.64841361232359
 21
308.92835882216798
 31
0.0
  0
ARC
  5
6FB4
  8
DANMEN
  6
CONTINUOUS
 10
117.84843502204519
 20
307.4926358812728
 30
0.0
 40
1.0
 50
359.99917315946249
 51
95.710621216688708
  0
ARC
  5
6FB5
  8
DANMEN
  6
CONTINUOUS
 10
94.248459436107851
 20
307.444112932054
 30
0.0
 40
0.5
 50
95.710730499715694
 51
180.0017125562488
  0
LINE
  5
6FB6
  8
DANMEN
  6
CONTINUOUS
 10
145.0484472290764
 20
300.54662147697587
 30
0.0
 11
145.0484472290764
 21
315.0465757006088
 31
0.0
  0
LINE
  5
6FB7
  8
DANMEN
  6
CONTINUOUS
 10
143.7484521359921
 20
320.8966057084865
 30
0.0
 11
129.19868927868271
 21
319.44164467503401
 31
0.0
  0
LINE
  5
6FB8
  8
DANMEN
  6
CONTINUOUS
 10
143.74844282336659
 20
319.23836633060472
 30
0.0
 11
130.3984456536366
 21
317.90338060821529
 31
0.0
  0
ARC
  5
6FB9
  8
DANMEN
  6
CONTINUOUS
 10
129.24845943610771
 20
318.94412819084312
 30
0.0
 40
0.5
 50
95.710566575174795
 51
180.000401159928
  0
ARC
  5
6FBA
  8
DANMEN
  6
CONTINUOUS
 10
128.8984533325922
 20
311.26083961662431
 30
0.0
 40
1.5
 50
275.71054790584009
 51
359.99947562331528
  0
LINE
  5
6FBB
  8
DANMEN
  6
CONTINUOUS
 10
98.248459436107851
 20
267.89664283928062
 30
0.0
 11
99.248459436107851
 21
267.89664283928062
 31
0.0
  0
ARC
  5
6FBC
  8
DANMEN
  6
CONTINUOUS
 10
99.248459436107851
 20
268.39664283928062
 30
0.0
 40
0.5
 50
270.00001798608889
 51
0.0
  0
LINE
  5
6FBD
  8
DANMEN
  6
CONTINUOUS
 10
97.748459436107851
 20
272.89664283928062
 30
0.0
 11
97.748459436107851
 21
268.39664283928062
 31
0.0
  0
ARC
  5
6FBE
  8
DANMEN
  6
CONTINUOUS
 10
98.248459436107851
 20
268.39664283928062
 30
0.0
 40
0.5
 50
179.99996402782111
 51
270.00000068324448
  0
LINE
  5
6FBF
  8
SUNPO
  6
CONTINUOUS
 10
193.74845943610771
 20
137.8971311205307
 30
0.0
 11
193.74845943610771
 21
182.89713112053059
 31
0.0
  0
LINE
  5
6FC0
  8
SUNPO
  6
CONTINUOUS
 10
185.24845943610771
 20
137.8971311205307
 30
0.0
 11
193.74845943610771
 21
137.8971311205307
 31
0.0
  0
LINE
  5
6FC1
  8
SUNPO
  6
CONTINUOUS
 10
193.74845943610771
 20
137.8971311205307
 30
0.0
 11
193.74845943610771
 21
135.8971311205307
 31
0.0
  0
LINE
  5
6FC2
  8
SUNPO
  6
CONTINUOUS
 10
185.24845943610771
 20
314.89664283928062
 30
0.0
 11
193.74845943610771
 21
314.89664283928062
 31
0.0
  0
LINE
  5
6FC3
  8
SUNPO
  6
CONTINUOUS
 10
193.74845943610771
 20
314.89664283928062
 30
0.0
 11
193.74845943610771
 21
287.89664283928062
 31
0.0
  0
LINE
  5
6FC4
  8
SUNPO
  6
CONTINUOUS
 10
185.24845943610771
 20
320.89664283928062
 30
0.0
 11
193.74845943610771
 21
320.89664283928062
 31
0.0
  0
LINE
  5
6FC5
  8
SUNPO
  6
CONTINUOUS
 10
193.74845943610771
 20
314.89664283928062
 30
0.0
 11
193.74845943610771
 21
320.89664283928062
 31
0.0
  0
LINE
  5
6FC6
  8
SUNPO
  6
CONTINUOUS
 10
163.74845943610779
 20
245.7523557299057
 30
0.0
 11
183.74845943610771
 21
245.7523557299057
 31
0.0
  0
LINE
  5
6FC7
  8
SUNPO
  6
CONTINUOUS
 10
93.748459436107836
 20
245.7523557299057
 30
0.0
 11
163.74845943610779
 21
245.7523557299057
 31
0.0
  0
LINE
  5
6FC8
  8
SUNPO
  6
CONTINUOUS
 10
193.74845943610771
 20
320.89664283928062
 30
0.0
 11
193.74845943610771
 21
330.89664283928062
 31
0.0
  0
LINE
  5
6FC9
  8
SUNPO
  6
CONTINUOUS
 10
165.24845943610771
 20
287.89664283928062
 30
0.0
 11
193.74845943610771
 21
287.89664283928062
 31
0.0
  0
LINE
  5
6FCA
  8
SUNPO
  6
CONTINUOUS
 10
193.74845943610771
 20
287.89664283928062
 30
0.0
 11
193.74845943610771
 21
272.89688697990562
 31
0.0
  0
LINE
  5
6FCB
  8
SUNPO
  6
CONTINUOUS
 10
165.24845943610771
 20
330.89664283928062
 30
0.0
 11
203.74845943610771
 21
330.89664283928062
 31
0.0
  0
LINE
  5
6FCC
  8
SUNPO
  6
CONTINUOUS
 10
175.24845943610779
 20
272.89688697990562
 30
0.0
 11
203.74845943610771
 21
272.89688697990562
 31
0.0
  0
LINE
  5
6FCD
  8
SUNPO
  6
CONTINUOUS
 10
203.74845943610771
 20
230.06430641349931
 30
0.0
 11
203.74845943610771
 21
330.89664283928062
 31
0.0
  0
LINE
  5
6FCE
  8
SUNPO
  6
CONTINUOUS
 10
142.24845943610771
 20
330.89664283928062
 30
0.0
 11
68.748459436107851
 21
330.89664283928062
 31
0.0
  0
LINE
  5
6FCF
  8
SUNPO
  6
CONTINUOUS
 10
68.748459436107851
 20
330.89664283928062
 30
0.0
 11
68.748459436107851
 21
320.89664283928062
 31
0.0
  0
LINE
  5
6FD0
  8
SUNPO
  6
CONTINUOUS
 10
136.85168514411561
 20
320.89664283928062
 30
0.0
 11
68.748459436107851
 21
320.89664283928062
 31
0.0
  0
LINE
  5
6FD1
  8
SUNPO
  6
CONTINUOUS
 10
68.748459436107851
 20
320.89664283928062
 30
0.0
 11
68.748459436107851
 21
307.89664283928062
 31
0.0
  0
LINE
  5
6FD2
  8
SUNPO
  6
CONTINUOUS
 10
198.7484550756495
 20
267.89665141953441
 30
0.0
 11
203.74844898368951
 21
272.89664532757422
 31
0.0
  0
LINE
  5
6FD3
  8
SUNPO
  6
CONTINUOUS
 10
198.7484613434564
 20
267.89665809806968
 30
0.0
 11
208.74844417731859
 21
267.89665809806968
 31
0.0
  0
LINE
  5
6FD4
  8
SUNPO
  6
CONTINUOUS
 10
203.7484705628755
 20
272.89664532757422
 30
0.0
 11
208.74846480809029
 21
267.89665108235943
 31
0.0
  0
LINE
  5
6FD5
  8
SUNPO
  6
CONTINUOUS
 10
198.7484550756495
 20
187.89687839965191
 30
0.0
 11
203.74844898368951
 21
182.89688449161201
 31
0.0
  0
LINE
  5
6FD6
  8
SUNPO
  6
CONTINUOUS
 10
198.7484613434564
 20
187.89687172111661
 30
0.0
 11
208.74844417731859
 21
187.89687172111661
 31
0.0
  0
LINE
  5
6FD7
  8
SUNPO
  6
CONTINUOUS
 10
203.7484705628755
 20
182.89688449161201
 30
0.0
 11
208.74846480809029
 21
187.89687873682681
 31
0.0
  0
LINE
  5
6FD8
  8
SUNPO
  6
CONTINUOUS
 10
198.74845943610771
 20
212.70010963615559
 30
0.0
 11
208.74845943610771
 21
212.70010963615559
 31
0.0
  0
LINE
  5
6FD9
  8
SUNPO
  6
CONTINUOUS
 10
208.74845943610771
 20
224.70010963615559
 30
0.0
 11
208.74845943610771
 21
222.70010963615559
 31
0.0
  0
LINE
  5
6FDA
  8
SUNPO
  6
CONTINUOUS
 10
198.74845943610771
 20
224.70010963615559
 30
0.0
 11
198.74845943610771
 21
222.70010963615559
 31
0.0
  0
LINE
  5
6FDB
  8
SUNPO
  6
CONTINUOUS
 10
198.74845943610771
 20
215.7001096361557
 30
0.0
 11
208.74845943610771
 21
215.7001096361557
 31
0.0
  0
LINE
  5
6FDC
  8
SUNPO
  6
CONTINUOUS
 10
198.74845943610771
 20
223.7001096361557
 30
0.0
 11
208.74845943610771
 21
223.7001096361557
 31
0.0
  0
LINE
  5
6FDD
  8
SUNPO
  6
CONTINUOUS
 10
208.74845943610771
 20
216.70010963615559
 30
0.0
 11
208.74845943610771
 21
211.7001096361557
 31
0.0
  0
LINE
  5
6FDE
  8
SUNPO
  6
CONTINUOUS
 10
198.74845943610771
 20
216.70010963615559
 30
0.0
 11
198.74845943610771
 21
211.7001096361557
 31
0.0
  0
LINE
  5
6FDF
  8
SUNPO
  6
CONTINUOUS
 10
203.74845943610771
 20
223.7001096361557
 30
0.0
 11
203.74845943610771
 21
215.7001096361557
 31
0.0
  0
LINE
  5
6FE0
  8
SUNPO
  6
CONTINUOUS
 10
92.248459436107865
 20
307.89664283928062
 30
0.0
 11
68.748459436107851
 21
307.89664283928062
 31
0.0
  0
LINE
  5
6FE1
  8
SUNPO
  6
CONTINUOUS
 10
87.248459436107865
 20
272.89688697990562
 30
0.0
 11
68.748459436107851
 21
272.89688697990562
 31
0.0
  0
LINE
  5
6FE2
  8
SUNPO
  6
CONTINUOUS
 10
68.748459436107851
 20
272.89688697990562
 30
0.0
 11
68.748459436107851
 21
307.89664283928062
 31
0.0
  0
LINE
  5
6FE3
  8
DANMEN
  6
CONTINUOUS
 10
129.7484441759982
 20
267.89685264816382
 30
0.0
 11
123.7484441761449
 21
267.8968106863872
 31
0.0
  0
LINE
  5
6FE4
  8
DANMEN
  6
CONTINUOUS
 10
129.7483952217658
 20
274.89668480131292
 30
0.0
 11
122.7483952219371
 21
274.89663584590693
 31
0.0
  0
ARC
  5
6FE5
  8
DANMEN
  6
CONTINUOUS
 10
123.7484511697743
 20
266.8968106864117
 30
0.0
 40
1.0
 50
90.000310091758195
 51
180.00029210566831
  0
LINE
  5
6FE6
  8
DANMEN
  6
CONTINUOUS
 10
105.748444176585
 20
267.8966848010574
 30
0.0
 11
99.748444176731837
 21
267.89664283928062
 31
0.0
  0
LINE
  5
6FE7
  8
DANMEN
  6
CONTINUOUS
 10
106.7483952223284
 20
274.89652394783582
 30
0.0
 11
99.748395222499653
 21
274.89647499242972
 31
0.0
  0
ARC
  5
6FE8
  8
DANMEN
  6
CONTINUOUS
 10
105.74845117021439
 20
266.89668480108168
 30
0.0
 40
1.0
 50
0.0004373608739546
 51
90.000474016298256
  0
LINE
  5
6FE9
  8
DANMEN
  6
CONTINUOUS
 10
99.748445377497916
 20
269.23961748149623
 30
0.0
 11
101.0914354147325
 21
267.8966462288796
 31
0.0
  0
LINE
  5
6FEA
  8
DANMEN
  6
CONTINUOUS
 10
101.1626227254155
 20
274.89648489629428
 30
0.0
 11
99.748406265213717
 21
273.48224865494223
 31
0.0
  0
LINE
  5
6FEB
  8
DANMEN
  6
CONTINUOUS
 10
99.748430541769793
 20
271.36093778869912
 30
0.0
 11
103.21275032710111
 21
267.89666645936637
 31
0.0
  0
LINE
  5
6FEC
  8
DANMEN
  6
CONTINUOUS
 10
99.748415706041627
 20
273.48225809590213
 30
0.0
 11
105.334070634304
 21
267.8966812950946
 31
0.0
  0
LINE
  5
6FED
  8
DANMEN
  6
CONTINUOUS
 10
100.4555125846237
 20
274.89647657928009
 30
0.0
 11
106.7484403978697
 21
268.603636786229
 31
0.0
  0
LINE
  5
6FEE
  8
DANMEN
  6
CONTINUOUS
 10
102.5768328918267
 20
274.89649141500831
 30
0.0
 11
106.74842556214151
 21
270.72495709343173
 31
0.0
  0
LINE
  5
6FEF
  8
DANMEN
  6
CONTINUOUS
 10
104.69815319902951
 20
274.89650625073631
 30
0.0
 11
106.7484107264135
 21
272.84627740063462
 31
0.0
  0
LINE
  5
6FF0
  8
DANMEN
  6
CONTINUOUS
 10
103.2839430326185
 20
274.89649973202239
 30
0.0
 11
99.748421100941854
 21
271.36092834773922
 31
0.0
  0
LINE
  5
6FF1
  8
DANMEN
  6
CONTINUOUS
 10
105.4052633398214
 20
274.8965145677505
 30
0.0
 11
99.748445377497916
 21
269.23961748149623
 31
0.0
  0
LINE
  5
6FF2
  8
DANMEN
  6
CONTINUOUS
 10
106.7484018301021
 20
274.11833670184973
 30
0.0
 11
100.52680522160171
 21
267.89665306965833
 31
0.0
  0
LINE
  5
6FF3
  8
DANMEN
  6
CONTINUOUS
 10
106.74841666583021
 20
271.99701639464672
 30
0.0
 11
102.6481208083906
 21
267.8966631849064
 31
0.0
  0
LINE
  5
6FF4
  8
DANMEN
  6
CONTINUOUS
 10
106.7484315015583
 20
269.87569608744388
 30
0.0
 11
104.76944111559339
 21
267.89667802063468
 31
0.0
  0
LINE
  5
6FF5
  8
DANMEN
  6
CONTINUOUS
 10
106.7484463372865
 20
267.75437578024099
 30
0.0
 11
106.52312344699951
 21
267.52904973828231
 31
0.0
  0
LINE
  5
6FF6
  8
DANMEN
  6
CONTINUOUS
 10
128.4054520238673
 20
267.89683725299022
 30
0.0
 11
129.748423276484
 21
269.23982729022481
 31
0.0
  0
LINE
  5
6FF7
  8
DANMEN
  6
CONTINUOUS
 10
129.7484034674591
 20
273.48245804233733
 30
0.0
 11
128.33416747898991
 21
274.89667424966001
 31
0.0
  0
LINE
  5
6FF8
  8
DANMEN
  6
CONTINUOUS
 10
126.28413711142321
 20
267.89682781209632
 30
0.0
 11
129.7484084407559
 21
271.36114759742782
 31
0.0
  0
LINE
  5
6FF9
  8
DANMEN
  6
CONTINUOUS
 10
124.1628176471572
 20
267.89681297637401
 30
0.0
 11
129.7483940264992
 21
273.48246748316518
 31
0.0
  0
LINE
  5
6FFA
  8
DANMEN
  6
CONTINUOUS
 10
122.7484382903899
 20
268.60374847355092
 30
0.0
 11
129.0412776198288
 21
274.89667582317833
 31
0.0
  0
LINE
  5
6FFB
  8
DANMEN
  6
CONTINUOUS
 10
122.74842299104959
 20
270.72506831713542
 30
0.0
 11
126.9199573126261
 21
274.89666098745022
 31
0.0
  0
LINE
  5
6FFC
  8
DANMEN
  6
CONTINUOUS
 10
122.7484081553215
 20
272.84638862433832
 30
0.0
 11
124.798637005423
 21
274.89664615172211
 31
0.0
  0
LINE
  5
6FFD
  8
DANMEN
  6
CONTINUOUS
 10
129.7484178817158
 20
271.36113815659991
 30
0.0
 11
126.212847171787
 21
274.89665941393167
 31
0.0
  0
LINE
  5
6FFE
  8
DANMEN
  6
CONTINUOUS
 10
129.748423276484
 20
269.23982729022481
 30
0.0
 11
124.091526864584
 21
274.89664457820351
 31
0.0
  0
LINE
  5
6FFF
  8
DANMEN
  6
CONTINUOUS
 10
128.9700822168472
 20
267.89685199139763
 30
0.0
 11
122.74839925901
 21
274.11844792555308
 31
0.0
  0
LINE
  5
7000
  8
DANMEN
  6
CONTINUOUS
 10
126.8487666301242
 20
267.89683243525542
 30
0.0
 11
122.74841409473819
 21
271.99712761835031
 31
0.0
  0
LINE
  5
7001
  8
DANMEN
  6
CONTINUOUS
 10
124.72744716585839
 20
267.89681759953322
 30
0.0
 11
122.7484293519319
 21
269.87580773261863
 31
0.0
  0
LINE
  5
7002
  8
DANMEN
  6
CONTINUOUS
 10
122.9737701453233
 20
267.52916478800933
 30
0.0
 11
122.7484441033646
 21
267.75448767829641
 31
0.0
  0
LINE
  5
7003
  8
SUNPO
  6
CONTINUOUS
 10
142.24845943610771
 20
112.8971311205307
 30
0.0
 11
63.748459436107858
 21
112.8971311205307
 31
0.0
  0
LINE
  5
7004
  8
SUNPO
  6
CONTINUOUS
 10
63.748459436107858
 20
122.8971311205307
 30
0.0
 11
63.748459436107858
 21
112.8971311205307
 31
0.0
  0
LINE
  5
7005
  8
SUNPO
  6
CONTINUOUS
 10
92.248459436107865
 20
122.8971311205307
 30
0.0
 11
63.748459436107858
 21
122.8971311205307
 31
0.0
  0
LINE
  5
7006
  8
SUNPO
  6
CONTINUOUS
 10
63.748459436107858
 20
137.8971311205307
 30
0.0
 11
63.748459436107858
 21
122.8971311205307
 31
0.0
  0
LINE
  5
7007
  8
SUNPO
  6
CONTINUOUS
 10
92.248459436107865
 20
137.8971311205307
 30
0.0
 11
63.748459436107858
 21
137.8971311205307
 31
0.0
  0
LINE
  5
7008
  8
SUNPO
  6
CONTINUOUS
 10
92.248459436107865
 20
182.8968869799057
 30
0.0
 11
63.748459436107858
 21
182.8968869799057
 31
0.0
  0
LINE
  5
7009
  8
SUNPO
  6
CONTINUOUS
 10
63.748459436107858
 20
182.8968869799057
 30
0.0
 11
63.748459436107858
 21
137.8971311205307
 31
0.0
  0
LINE
  5
700A
  8
SUNPO
  6
CONTINUOUS
 10
146.6143651978264
 20
122.8971311205307
 30
0.0
 11
203.74845943610771
 21
122.8971311205307
 31
0.0
  0
LINE
  5
700B
  8
SUNPO
  6
CONTINUOUS
 10
165.24845943610771
 20
182.8968869799057
 30
0.0
 11
203.74845943610771
 21
182.8968869799057
 31
0.0
  0
LINE
  5
700C
  8
SUNPO
  6
CONTINUOUS
 10
203.74845943610771
 20
208.5783292406478
 30
0.0
 11
203.74845943610771
 21
122.8971311205307
 31
0.0
  0
LINE
  5
700D
  8
DANMEN
  6
CONTINUOUS
 10
159.74848995368581
 20
179.9969388597884
 30
0.0
 11
159.74848995368581
 21
179.32204261955411
 31
0.0
  0
LINE
  5
700E
  8
DANMEN
  6
CONTINUOUS
 10
158.24848995368581
 20
175.99695411857749
 30
0.0
 11
158.24848995368581
 21
175.74741188224939
 31
0.0
  0
LINE
  5
700F
  8
DANMEN
  6
CONTINUOUS
 10
160.44850216071711
 20
176.1712094896713
 30
0.0
 11
160.44850216071711
 21
174.4969388597884
 31
0.0
  0
LINE
  5
7010
  8
DANMEN
  6
CONTINUOUS
 10
158.24846124150201
 20
175.99694203472899
 30
0.0
 11
160.21415178448291
 21
177.96263257770991
 31
0.0
  0
LINE
  5
7011
  8
DANMEN
  6
CONTINUOUS
 10
158.550210997568
 20
175.57522408559541
 30
0.0
 11
159.9958610095083
 21
176.42947908078861
 31
0.0
  0
ARC
  5
7012
  8
DANMEN
  6
CONTINUOUS
 10
158.44848690192811
 20
175.74741188224939
 30
0.0
 40
0.199999988079071
 50
180.0027134063329
 51
300.57811920207553
  0
ARC
  5
7013
  8
DANMEN
  6
CONTINUOUS
 10
159.64849910895941
 20
178.52832618889011
 30
0.0
 40
0.7999999523162842
 50
315.00000216285559
 51
82.819868592338807
  0
ARC
  5
7014
  8
DANMEN
  6
CONTINUOUS
 10
160.14849910895941
 20
176.1712094896713
 30
0.0
 40
0.2999999523162842
 50
359.99960263006602
 51
120.5796131922707
  0
ARC
  5
7015
  8
DANMEN
  6
CONTINUOUS
 10
160.74848995368581
 20
174.4969388597884
 30
0.0
 40
0.2999999523162842
 50
179.99996402782111
 51
270.00000068324448
  0
ARC
  5
7016
  8
DANMEN
  6
CONTINUOUS
 10
161.64849910895941
 20
174.4969388597884
 30
0.0
 40
0.2999999523162842
 50
270.00001798608889
 51
0.0
  0
LINE
  5
7017
  8
DANMEN
  6
CONTINUOUS
 10
160.24848995368581
 20
180.4969388597884
 30
0.0
 11
161.44850216071711
 21
180.4969388597884
 31
0.0
  0
ARC
  5
7018
  8
DANMEN
  6
CONTINUOUS
 10
160.24848995368581
 20
179.9969388597884
 30
0.0
 40
0.5
 50
89.999982013910966
 51
179.99996402782111
  0
ARC
  5
7019
  8
DANMEN
  6
CONTINUOUS
 10
161.44850216071711
 20
179.9969388597884
 30
0.0
 40
0.5
 50
0.0
 51
89.999982013910966
  0
LINE
  5
701A
  8
DANMEN
  6
CONTINUOUS
 10
160.74848995368581
 20
174.1969358080307
 30
0.0
 11
161.64849910895941
 21
174.1969358080307
 31
0.0
  0
LINE
  5
701B
  8
DANMEN
  6
CONTINUOUS
 10
161.9484692718604
 20
174.4969203048723
 30
0.0
 11
161.94848453064341
 21
179.9969194406051
 31
0.0
  0
LINE
  5
701C
  8
DANMEN
  6
CONTINUOUS
 10
129.7485204699434
 20
182.89667717100309
 30
0.0
 11
123.7485204700901
 21
182.89671913279909
 31
0.0
  0
LINE
  5
701D
  8
DANMEN
  6
CONTINUOUS
 10
129.74847151568849
 20
175.89684501785391
 30
0.0
 11
122.74847151585971
 21
175.8968939732826
 31
0.0
  0
ARC
  5
701E
  8
DANMEN
  6
CONTINUOUS
 10
123.74852746372279
 20
183.89671913277471
 30
0.0
 40
1.0
 50
179.99970789414601
 51
269.9996899080561
  0
LINE
  5
701F
  8
DANMEN
  6
CONTINUOUS
 10
105.74852047053039
 20
182.89684501818721
 30
0.0
 11
99.74852047067715
 21
182.89688697998321
 31
0.0
  0
LINE
  5
7020
  8
DANMEN
  6
CONTINUOUS
 10
106.748471516251
 20
175.8970058714055
 30
0.0
 11
99.748471516422313
 21
175.89705482683411
 31
0.0
  0
ARC
  5
7021
  8
DANMEN
  6
CONTINUOUS
 10
105.7485274641631
 20
183.89684501816279
 30
0.0
 40
1.0
 50
269.99952598351592
 51
359.99956263894029
  0
LINE
  5
7022
  8
DANMEN
  6
CONTINUOUS
 10
99.748521671438866
 20
181.55391233776771
 30
0.0
 11
101.0915117086777
 21
182.89688359038001
 31
0.0
  0
LINE
  5
7023
  8
DANMEN
  6
CONTINUOUS
 10
101.16269901933831
 20
175.89704492296519
 30
0.0
 11
99.748482559140953
 21
177.3112811643218
 31
0.0
  0
LINE
  5
7024
  8
DANMEN
  6
CONTINUOUS
 10
99.748506835703864
 20
179.43259203056471
 30
0.0
 11
103.2128266210464
 21
182.89686335988631
 31
0.0
  0
LINE
  5
7025
  8
DANMEN
  6
CONTINUOUS
 10
99.748491999968849
 20
177.31127172336181
 30
0.0
 11
105.3341469282494
 21
182.89684852415121
 31
0.0
  0
LINE
  5
7026
  8
DANMEN
  6
CONTINUOUS
 10
100.45558887854639
 20
175.89705323998149
 30
0.0
 11
106.7485166918128
 21
182.1898930330124
 31
0.0
  0
LINE
  5
7027
  8
DANMEN
  6
CONTINUOUS
 10
102.5769091857493
 20
175.8970384042465
 30
0.0
 11
106.74850185607779
 21
180.0685727258095
 31
0.0
  0
LINE
  5
7028
  8
DANMEN
  6
CONTINUOUS
 10
104.69822949295219
 20
175.89702356851149
 30
0.0
 11
106.74848702034259
 21
177.94725241860661
 31
0.0
  0
LINE
  5
7029
  8
DANMEN
  6
CONTINUOUS
 10
103.2840193265412
 20
175.89703008723009
 30
0.0
 11
99.748497394875983
 21
179.43260147152461
 31
0.0
  0
LINE
  5
702A
  8
DANMEN
  6
CONTINUOUS
 10
105.40533963374411
 20
175.89701525149511
 30
0.0
 11
99.748521671438866
 21
181.55391233776771
 31
0.0
  0
LINE
  5
702B
  8
DANMEN
  6
CONTINUOUS
 10
106.7484781240272
 20
176.6751931173917
 30
0.0
 11
100.526881515547
 21
182.89687674960311
 31
0.0
  0
LINE
  5
702C
  8
DANMEN
  6
CONTINUOUS
 10
106.7484929597622
 20
178.79651342459451
 30
0.0
 11
102.6481971023359
 21
182.8968666343481
 31
0.0
  0
LINE
  5
702D
  8
DANMEN
  6
CONTINUOUS
 10
106.7485077954973
 20
180.9178337317974
 30
0.0
 11
104.76951740953891
 21
182.89685179861311
 31
0.0
  0
LINE
  5
702E
  8
DANMEN
  6
CONTINUOUS
 10
106.74852263123231
 20
183.03915403900041
 30
0.0
 11
106.5231997409461
 21
183.2644800809598
 31
0.0
  0
LINE
  5
702F
  8
DANMEN
  6
CONTINUOUS
 10
128.4055283178125
 20
182.89669256618109
 30
0.0
 11
129.748499570425
 21
181.5537025289421
 31
0.0
  0
LINE
  5
7030
  8
DANMEN
  6
CONTINUOUS
 10
129.74847976138631
 20
177.31107177682969
 30
0.0
 11
128.3342437729126
 21
175.89685556951159
 31
0.0
  0
LINE
  5
7031
  8
DANMEN
  6
CONTINUOUS
 10
126.2842134053685
 20
182.8967020070819
 30
0.0
 11
129.74848473469001
 21
179.4323822217392
 31
0.0
  0
LINE
  5
7032
  8
DANMEN
  6
CONTINUOUS
 10
124.1628939411026
 20
182.896716842811
 30
0.0
 11
129.74847032042641
 21
177.31106233600181
 31
0.0
  0
LINE
  5
7033
  8
DANMEN
  6
CONTINUOUS
 10
122.7485145843329
 20
182.18978134563849
 30
0.0
 11
129.04135391375149
 21
175.8968539959908
 31
0.0
  0
LINE
  5
7034
  8
DANMEN
  6
CONTINUOUS
 10
122.7484992849857
 20
180.0684615020543
 30
0.0
 11
126.9200336065487
 21
175.8968688317259
 31
0.0
  0
LINE
  5
7035
  8
DANMEN
  6
CONTINUOUS
 10
122.7484844492507
 20
177.9471411948513
 30
0.0
 11
124.79871329934571
 21
175.89688366746091
 31
0.0
  0
LINE
  5
7036
  8
DANMEN
  6
CONTINUOUS
 10
129.74849417564991
 20
179.43239166256711
 30
0.0
 11
126.21292346570959
 21
175.89687040524649
 31
0.0
  0
LINE
  5
7037
  8
DANMEN
  6
CONTINUOUS
 10
129.748499570425
 20
181.5537025289421
 30
0.0
 11
124.0916031585068
 21
175.8968852409815
 31
0.0
  0
LINE
  5
7038
  8
DANMEN
  6
CONTINUOUS
 10
128.9701585107926
 20
182.8966778277719
 30
0.0
 11
122.7484755529352
 21
176.6750818936363
 31
0.0
  0
LINE
  5
7039
  8
DANMEN
  6
CONTINUOUS
 10
126.8488429240697
 20
182.8966973839207
 30
0.0
 11
122.74849038867031
 21
178.79640220083931
 31
0.0
  0
LINE
  5
703A
  8
DANMEN
  6
CONTINUOUS
 10
124.72752345980371
 20
182.89671221965
 30
0.0
 11
122.74850564587091
 21
180.91772208657079
 31
0.0
  0
LINE
  5
703B
  8
DANMEN
  6
CONTINUOUS
 10
122.97384643926971
 20
183.26436503117941
 30
0.0
 11
122.7485203973104
 21
183.03904214089309
 31
0.0
  0
LINE
  5
703C
  8
DANMEN
  6
CONTINUOUS
 10
93.748459436107836
 20
226.89688697990559
 30
0.0
 11
93.748459436107836
 21
137.8971311205307
 31
0.0
  0
LINE
  5
703D
  8
DANMEN
  6
CONTINUOUS
 10
163.74845943610779
 20
226.89688697990559
 30
0.0
 11
163.74845943610779
 21
181.2901975267807
 31
0.0
  0
LINE
  5
703E
  8
DANMEN
  6
CONTINUOUS
 10
99.748459436107865
 20
226.89688697990559
 30
0.0
 11
99.748459436107865
 21
182.8968869799057
 31
0.0
  0
LINE
  5
703F
  8
DANMEN
  6
CONTINUOUS
 10
99.748459436107865
 20
150.94693580803059
 30
0.0
 11
99.748459436107865
 21
137.8971311205307
 31
0.0
  0
LINE
  5
7040
  8
DANMEN
  6
CONTINUOUS
 10
131.74845943610779
 20
182.8968869799057
 30
0.0
 11
153.24845943610771
 21
182.8968869799057
 31
0.0
  0
LINE
  5
7041
  8
DANMEN
  6
CONTINUOUS
 10
99.748459436107865
 20
267.89664283928062
 30
0.0
 11
99.748459436107865
 21
228.89688697990559
 31
0.0
  0
LINE
  5
7042
  8
DANMEN
  6
CONTINUOUS
 10
93.748459436107836
 20
272.89688697990562
 30
0.0
 11
93.748459436107836
 21
228.89688697990559
 31
0.0
  0
LINE
  5
7043
  8
DANMEN
  6
CONTINUOUS
 10
99.748459436107865
 20
306.68765846428062
 30
0.0
 11
99.748459436107865
 21
279.89688697990562
 31
0.0
  0
LINE
  5
7044
  8
DANMEN
  6
CONTINUOUS
 10
100.74845943610769
 20
305.78287330803062
 30
0.0
 11
100.74845943610769
 21
275.89645973381198
 31
0.0
  0
LINE
  5
7045
  8
DANMEN
  6
CONTINUOUS
 10
163.74845943610779
 20
287.89664283928062
 30
0.0
 11
163.74845943610779
 21
228.89688697990559
 31
0.0
  0
LINE
  5
7046
  8
DANMEN
  6
CONTINUOUS
 10
105.7483984009516
 20
174.8971311205307
 30
0.0
 11
100.74845943610769
 21
174.8971311205307
 31
0.0
  0
LINE
  5
7047
  8
DANMEN
  6
CONTINUOUS
 10
100.74845943610769
 20
168.89713112053059
 30
0.0
 11
105.7483984009516
 21
168.89713112053059
 31
0.0
  0
LINE
  5
7048
  8
DANMEN
  6
CONTINUOUS
 10
153.24845943610771
 20
180.89713112053059
 30
0.0
 11
153.24845943610771
 21
177.8971311205307
 31
0.0
  0
LINE
  5
7049
  8
DANMEN
  6
CONTINUOUS
 10
153.24811488310741
 20
182.8979198441256
 30
0.0
 11
131.74810943051301
 21
177.89791964699731
 31
0.0
  0
LINE
  5
704A
  8
DANMEN
  6
CONTINUOUS
 10
158.74845943610779
 20
272.89688697990562
 30
0.0
 11
158.74845943610779
 21
228.89688697990559
 31
0.0
  0
LINE
  5
704B
  8
DANMEN
  6
CONTINUOUS
 10
158.74845943610779
 20
226.89688697990559
 30
0.0
 11
158.74845943610779
 21
181.2901975267807
 31
0.0
  0
LINE
  5
704C
  8
DANMEN
  6
CONTINUOUS
 10
105.7484178713095
 20
306.28279723288802
 30
0.0
 11
100.7483319576387
 21
305.78278783283088
 31
0.0
  0
LINE
  5
704D
  8
DANMEN
  6
CONTINUOUS
 10
163.74845943610779
 20
330.89664283928062
 30
0.0
 11
163.74845943610779
 21
316.69669166740562
 31
0.0
  0
LINE
  5
704E
  8
DANMEN
  6
CONTINUOUS
 10
145.24845943610771
 20
330.89664283928062
 30
0.0
 11
163.74845943610779
 21
330.89664283928062
 31
0.0
  0
LINE
  5
704F
  8
DANMEN
  6
CONTINUOUS
 10
183.74845943610771
 20
314.89664283928062
 30
0.0
 11
183.74845943610771
 21
228.89688697990559
 31
0.0
  0
LINE
  5
7050
  8
DANMEN
  6
CONTINUOUS
 10
145.24845943610771
 20
112.8971311205307
 30
0.0
 11
163.74845943610779
 21
112.8971311205307
 31
0.0
  0
LINE
  5
7051
  8
DANMEN
  6
CONTINUOUS
 10
163.74845943610779
 20
135.8971311205307
 30
0.0
 11
163.74845943610779
 21
112.8971311205307
 31
0.0
  0
LINE
  5
7052
  8
DANMEN
  6
CONTINUOUS
 10
183.74845943610771
 20
226.89688697990559
 30
0.0
 11
183.74845943610771
 21
137.8971311205307
 31
0.0
  0
LINE
  5
7053
  8
DANMEN
  6
CONTINUOUS
 10
95.048447229076615
 20
122.8971311205307
 30
0.0
 11
143.74845943610771
 21
122.8971311205307
 31
0.0
  0
LINE
  5
7054
  8
DANMEN
  6
CONTINUOUS
 10
235.58541927497501
 20
237.7572843187728
 30
0.0
 11
304.58537349860768
 21
237.7572843187728
 31
0.0
  0
LINE
  5
7055
  8
DANMEN
  6
CONTINUOUS
 10
235.58541927497501
 20
231.7574063890853
 30
0.0
 11
240.58537349860771
 21
231.7574063890853
 31
0.0
  0
LINE
  5
7056
  8
DANMEN
  6
CONTINUOUS
 10
409.7946630493891
 20
230.7574369066634
 30
0.0
 11
431.79455623786561
 21
230.7574369066634
 31
0.0
  0
LINE
  5
7057
  8
DANMEN
  6
CONTINUOUS
 10
431.79467830817799
 20
225.75755897697579
 30
0.0
 11
431.79467830817799
 21
230.7574826830305
 31
0.0
  0
LINE
  5
7058
  8
DANMEN
  6
CONTINUOUS
 10
413.79458675544367
 20
231.75742164787439
 30
0.0
 11
432.79460201423268
 21
231.75742164787439
 31
0.0
  0
LINE
  5
7059
  8
DANMEN
  6
CONTINUOUS
 10
235.58541927497501
 20
167.7580472582259
 30
0.0
 11
240.58541927497501
 21
167.7580472582259
 31
0.0
  0
LINE
  5
705A
  8
DANMEN
  6
CONTINUOUS
 10
432.79470882575617
 20
147.75807777580411
 30
0.0
 11
432.79470882575617
 21
167.7578946703353
 31
0.0
  0
LINE
  5
705B
  8
DANMEN
  6
CONTINUOUS
 10
235.58541927497501
 20
172.75804725822599
 30
0.0
 11
240.58538875739691
 21
172.75804725822599
 31
0.0
  0
LINE
  5
705C
  8
DANMEN
  6
CONTINUOUS
 10
235.58541927497501
 20
147.75809303459309
 30
0.0
 11
304.58538875739691
 21
147.75809303459309
 31
0.0
  0
LINE
  5
705D
  8
DANMEN
  6
CONTINUOUS
 10
256.58535823981879
 20
202.75800529655601
 30
0.0
 11
248.5854650513422
 21
202.75800529655601
 31
0.0
  0
LINE
  5
705E
  8
DANMEN
  6
CONTINUOUS
 10
248.58548031013109
 20
207.7575465792099
 30
0.0
 11
248.58548031013109
 21
202.75795952018879
 31
0.0
  0
LINE
  5
705F
  8
DANMEN
  6
CONTINUOUS
 10
256.58537349860768
 20
207.75756183799879
 30
0.0
 11
256.58537349860768
 21
202.75799003776689
 31
0.0
  0
LINE
  5
7060
  8
DANMEN
  6
CONTINUOUS
 10
248.58544979255311
 20
231.2578946703353
 30
0.0
 11
248.58544979255311
 21
225.75748268303059
 31
0.0
  0
LINE
  5
7061
  8
DANMEN
  6
CONTINUOUS
 10
265.58540401618592
 20
225.75754371818681
 30
0.0
 11
265.58540401618592
 21
231.25798622306971
 31
0.0
  0
LINE
  5
7062
  8
DANMEN
  6
CONTINUOUS
 10
248.58548031013109
 20
231.25798622306971
 30
0.0
 11
265.58540401618592
 21
231.25798622306971
 31
0.0
  0
LINE
  5
7063
  8
DANMEN
  6
CONTINUOUS
 10
290.58535823981862
 20
231.7574063890853
 30
0.0
 11
304.58537349860768
 21
231.7574063890853
 31
0.0
  0
LINE
  5
7064
  8
DANMEN
  6
CONTINUOUS
 10
387.68998775642018
 20
231.75742164787439
 30
0.0
 11
401.79476986091242
 21
231.75742164787439
 31
0.0
  0
LINE
  5
7065
  8
DANMEN
  6
CONTINUOUS
 10
387.68998775642018
 20
237.75729957756181
 30
0.0
 11
406.79466304938899
 21
237.75729957756181
 31
0.0
  0
LINE
  5
7066
  8
DANMEN
  6
CONTINUOUS
 10
290.5853887573968
 20
172.75804725822599
 30
0.0
 11
304.58538875739691
 21
172.75804725822599
 31
0.0
  0
LINE
  5
7067
  8
DANMEN
  6
CONTINUOUS
 10
387.69000301520941
 20
172.75803199943681
 30
0.0
 11
406.79470882575617
 21
172.75803199943681
 31
0.0
  0
LINE
  5
7068
  8
DANMEN
  6
CONTINUOUS
 10
387.69000301520941
 20
167.75803199943681
 30
0.0
 11
421.79480037849061
 21
167.75803199943681
 31
0.0
  0
LINE
  5
7069
  8
DANMEN
  6
CONTINUOUS
 10
290.58534298102973
 20
201.75798908409271
 30
0.0
 11
304.58537349860768
 21
201.75798908409271
 31
0.0
  0
LINE
  5
706A
  8
DANMEN
  6
CONTINUOUS
 10
235.58541927497501
 20
201.7579909914412
 30
0.0
 11
240.58537349860771
 21
201.7579909914412
 31
0.0
  0
LINE
  5
706B
  8
SUNPO
  6
CONTINUOUS
 10
324.94534359138112
 20
112.75790992912439
 30
0.0
 11
235.58541927497501
 21
112.75790992912439
 31
0.0
  0
LINE
  5
706C
  8
DANMEN
  6
CONTINUOUS
 10
387.68997249763117
 20
147.75807777580411
 30
0.0
 11
446.99478206794367
 21
147.75807777580411
 31
0.0
  0
LINE
  5
706D
  8
SUNPO
  6
CONTINUOUS
 10
228.0297246948968
 20
122.75786415275719
 30
0.0
 11
240.58494625251399
 21
122.75786415275719
 31
0.0
  0
LINE
  5
706E
  8
SUNPO
  6
CONTINUOUS
 10
230.88645967060731
 20
124.46805703472199
 30
0.0
 11
240.58490963678221
 21
122.7579591722135
 31
0.0
  0
LINE
  5
706F
  8
SUNPO
  6
CONTINUOUS
 10
230.29668447691461
 20
121.1236306633219
 30
0.0
 11
230.88640734801459
 21
124.4680003715423
 31
0.0
  0
LINE
  5
7070
  8
DANMEN
  6
CONTINUOUS
 10
111.7484289185296
 20
282.89664283928062
 30
0.0
 11
117.7484289185297
 21
282.89664283928062
 31
0.0
  0
LINE
  5
7071
  8
DANMEN
  6
CONTINUOUS
 10
111.7484289185296
 20
276.89664283928062
 30
0.0
 11
117.7484289185297
 21
276.89664283928062
 31
0.0
  0
LINE
  5
7072
  8
DANMEN
  6
CONTINUOUS
 10
111.7484640401992
 20
276.89662415981292
 30
0.0
 11
117.7484704097361
 21
282.89663052934992
 31
0.0
  0
LINE
  5
7073
  8
DANMEN
  6
CONTINUOUS
 10
111.7484640401992
 20
282.89663052934992
 30
0.0
 11
117.748459620143
 21
276.89663494940601
 31
0.0
  0
LINE
  5
7074
  8
DANMEN
  6
CONTINUOUS
 10
106.7483984009516
 20
282.89664283928062
 30
0.0
 11
111.74845943610779
 21
282.89664283928062
 31
0.0
  0
LINE
  5
7075
  8
DANMEN
  6
CONTINUOUS
 10
117.74845943610769
 20
282.89664283928062
 30
0.0
 11
122.7483984009515
 21
282.89664283928062
 31
0.0
  0
LINE
  5
7076
  8
DANMEN
  6
CONTINUOUS
 10
106.7483984009516
 20
307.3631040209213
 30
0.0
 11
106.7483984009516
 21
228.89688697990559
 31
0.0
  0
LINE
  5
7077
  8
DANMEN
  6
CONTINUOUS
 10
111.74845943610779
 20
282.89664283928062
 30
0.0
 11
111.74845943610779
 21
228.89688697990559
 31
0.0
  0
LINE
  5
7078
  8
DANMEN
  6
CONTINUOUS
 10
117.74845943610769
 20
282.89664283928062
 30
0.0
 11
117.74845943610769
 21
228.89688697990559
 31
0.0
  0
LINE
  5
7079
  8
DANMEN
  6
CONTINUOUS
 10
122.7483984009515
 20
291.5966397875228
 30
0.0
 11
122.7483984009515
 21
228.89688697990559
 31
0.0
  0
LINE
  5
707A
  8
DANMEN
  6
CONTINUOUS
 10
107.2483984009515
 20
282.89664283928062
 30
0.0
 11
107.2483984009515
 21
228.89688697990559
 31
0.0
  0
LINE
  5
707B
  8
DANMEN
  6
CONTINUOUS
 10
111.24845943610769
 20
282.89664283928062
 30
0.0
 11
111.24845943610769
 21
228.89688697990559
 31
0.0
  0
LINE
  5
707C
  8
DANMEN
  6
CONTINUOUS
 10
118.24845943610779
 20
282.89664283928062
 30
0.0
 11
118.24845943610779
 21
228.89688697990559
 31
0.0
  0
LINE
  5
707D
  8
DANMEN
  6
CONTINUOUS
 10
122.2483984009516
 20
282.89664283928062
 30
0.0
 11
122.2483984009516
 21
228.89688697990559
 31
0.0
  0
LINE
  5
707E
  8
DANMEN
  6
CONTINUOUS
 10
123.7483984009515
 20
275.89645973381198
 30
0.0
 11
128.7483984009516
 21
275.89645973381198
 31
0.0
  0
LINE
  5
707F
  8
DANMEN
  6
CONTINUOUS
 10
100.74845943610769
 20
275.89645973381198
 30
0.0
 11
105.7483984009516
 21
275.89645973381198
 31
0.0
  0
LINE
  5
7080
  8
DANMEN
  6
CONTINUOUS
 10
105.7483984009516
 20
306.28279701408542
 30
0.0
 11
105.7483984009516
 21
275.89645973381198
 31
0.0
  0
LINE
  5
7081
  8
DANMEN
  6
CONTINUOUS
 10
128.7483984009516
 20
290.5966397875228
 30
0.0
 11
128.7483984009516
 21
275.89645973381198
 31
0.0
  0
LINE
  5
7082
  8
DANMEN
  6
CONTINUOUS
 10
123.7483984009515
 20
290.5966397875228
 30
0.0
 11
128.7483984009516
 21
290.5966397875228
 31
0.0
  0
LINE
  5
7083
  8
DANMEN
  6
CONTINUOUS
 10
123.7483984009515
 20
290.5966397875228
 30
0.0
 11
123.7483984009515
 21
275.89645973381198
 31
0.0
  0
LINE
  5
7084
  8
DANMEN
  6
CONTINUOUS
 10
122.7483984009515
 20
291.5966397875228
 30
0.0
 11
123.7484899536859
 21
291.5966397875228
 31
0.0
  0
LINE
  5
7085
  8
DANMEN
  6
CONTINUOUS
 10
117.7484289185297
 20
167.89708534416349
 30
0.0
 11
111.7484289185296
 21
167.89708534416349
 31
0.0
  0
LINE
  5
7086
  8
DANMEN
  6
CONTINUOUS
 10
117.7484289185297
 20
173.8970853441634
 30
0.0
 11
111.7484289185296
 21
173.8970853441634
 31
0.0
  0
LINE
  5
7087
  8
DANMEN
  6
CONTINUOUS
 10
117.74848119932921
 20
167.8971018741741
 30
0.0
 11
111.7484748297921
 21
173.89710824371119
 31
0.0
  0
LINE
  5
7088
  8
DANMEN
  6
CONTINUOUS
 10
117.7484704097361
 20
173.8970974541181
 30
0.0
 11
111.7484748297921
 21
167.8971018741741
 31
0.0
  0
LINE
  5
7089
  8
DANMEN
  6
CONTINUOUS
 10
111.74845943610779
 20
167.89708534416349
 30
0.0
 11
100.74845943610769
 21
167.89708534416349
 31
0.0
  0
LINE
  5
708A
  8
DANMEN
  6
CONTINUOUS
 10
128.74845943610771
 20
167.89708534416349
 30
0.0
 11
117.74845943610769
 21
167.89708534416349
 31
0.0
  0
LINE
  5
708B
  8
DANMEN
  6
CONTINUOUS
 10
111.74845943610779
 20
226.89688697990559
 30
0.0
 11
111.74845943610779
 21
167.89708534416349
 31
0.0
  0
LINE
  5
708C
  8
DANMEN
  6
CONTINUOUS
 10
117.74845943610769
 20
226.89688697990559
 30
0.0
 11
117.74845943610769
 21
167.89708534416349
 31
0.0
  0
LINE
  5
708D
  8
DANMEN
  6
CONTINUOUS
 10
107.2483984009515
 20
226.89688697990559
 30
0.0
 11
107.2483984009515
 21
167.89708534416349
 31
0.0
  0
LINE
  5
708E
  8
DANMEN
  6
CONTINUOUS
 10
111.24845943610769
 20
226.89688697990559
 30
0.0
 11
111.24845943610769
 21
167.89708534416349
 31
0.0
  0
LINE
  5
708F
  8
DANMEN
  6
CONTINUOUS
 10
118.24845943610779
 20
226.89688697990559
 30
0.0
 11
118.24845943610779
 21
167.89708534416349
 31
0.0
  0
LINE
  5
7090
  8
DANMEN
  6
CONTINUOUS
 10
122.2483984009516
 20
226.89688697990559
 30
0.0
 11
122.2483984009516
 21
167.89708534416349
 31
0.0
  0
LINE
  5
7091
  8
DANMEN
  6
CONTINUOUS
 10
106.7483984009516
 20
226.89688697990559
 30
0.0
 11
106.7483984009516
 21
167.89708534416349
 31
0.0
  0
LINE
  5
7092
  8
DANMEN
  6
CONTINUOUS
 10
105.7483984009516
 20
174.8971311205307
 30
0.0
 11
105.7483984009516
 21
168.89713112053059
 31
0.0
  0
LINE
  5
7093
  8
DANMEN
  6
CONTINUOUS
 10
122.7483984009515
 20
226.89688697990559
 30
0.0
 11
122.7483984009515
 21
167.89708534416349
 31
0.0
  0
LINE
  5
7094
  8
DANMEN
  6
CONTINUOUS
 10
128.74848995368581
 20
174.8971311205307
 30
0.0
 11
123.7485509888422
 21
174.8971311205307
 31
0.0
  0
LINE
  5
7095
  8
DANMEN
  6
CONTINUOUS
 10
123.7485509888422
 20
168.89713112053059
 30
0.0
 11
128.74848995368581
 21
168.89713112053059
 31
0.0
  0
LINE
  5
7096
  8
DANMEN
  6
CONTINUOUS
 10
123.7485509888422
 20
168.89713112053059
 30
0.0
 11
123.7485509888422
 21
174.8971311205307
 31
0.0
  0
LINE
  5
7097
  8
DANMEN
  6
CONTINUOUS
 10
128.74848995368581
 20
168.89713112053059
 30
0.0
 11
128.74848995368581
 21
174.8971311205307
 31
0.0
  0
LINE
  5
7098
  8
DANMEN
  6
CONTINUOUS
 10
129.74845943610771
 20
267.89664283928062
 30
0.0
 11
129.74845943610771
 21
228.89688697990559
 31
0.0
  0
LINE
  5
7099
  8
DANMEN
  6
CONTINUOUS
 10
129.74845943610771
 20
226.89688697990559
 30
0.0
 11
129.74845943610771
 21
182.8968869799057
 31
0.0
  0
LINE
  5
709A
  8
DANMEN
  6
CONTINUOUS
 10
255.58537349860771
 20
219.75755706962741
 30
0.0
 11
235.58541927497501
 21
219.75755706962741
 31
0.0
  0
LINE
  5
709B
  8
DANMEN
  6
CONTINUOUS
 10
266.58537349860768
 20
224.75755706962741
 30
0.0
 11
235.58543453376399
 21
224.75755706962741
 31
0.0
  0
LINE
  5
709C
  8
DANMEN
  6
CONTINUOUS
 10
255.58537349860771
 20
213.75755706962741
 30
0.0
 11
235.58541927497501
 21
213.75755706962741
 31
0.0
  0
LINE
  5
709D
  8
DANMEN
  6
CONTINUOUS
 10
257.28537044684998
 20
208.75755915578981
 30
0.0
 11
235.58541927497501
 21
208.75755915578981
 31
0.0
  0
LINE
  5
709E
  8
DANMEN
  6
CONTINUOUS
 10
255.58537349860771
 20
224.25755706962741
 30
0.0
 11
235.58541927497501
 21
224.25755706962741
 31
0.0
  0
LINE
  5
709F
  8
DANMEN
  6
CONTINUOUS
 10
255.58537349860771
 20
209.25755915578981
 30
0.0
 11
235.58541927497501
 21
209.25755915578981
 31
0.0
  0
LINE
  5
70A0
  8
DANMEN
  6
CONTINUOUS
 10
256.58537349860768
 20
207.75756183799879
 30
0.0
 11
248.5854650513422
 21
207.75756183799879
 31
0.0
  0
LINE
  5
70A1
  8
DANMEN
  6
CONTINUOUS
 10
265.58538875739691
 20
225.75752845939789
 30
0.0
 11
248.58548126380549
 21
225.75752845939789
 31
0.0
  0
LINE
  5
70A2
  8
DANMEN
  6
CONTINUOUS
 10
255.58537349860771
 20
224.75754371818681
 30
0.0
 11
255.58537349860771
 21
208.75754371818681
 31
0.0
  0
LINE
  5
70A3
  8
DANMEN
  6
CONTINUOUS
 10
249.58537349860771
 20
219.75754371818681
 30
0.0
 11
249.58537349860771
 21
213.75754371818681
 31
0.0
  0
LINE
  5
70A4
  8
DANMEN
  6
CONTINUOUS
 10
255.58537349860771
 20
213.25755706962741
 30
0.0
 11
235.58541927497501
 21
213.25755706962741
 31
0.0
  0
LINE
  5
70A5
  8
DANMEN
  6
CONTINUOUS
 10
255.58537349860771
 20
220.25755706962741
 30
0.0
 11
235.58541927497501
 21
220.25755706962741
 31
0.0
  0
LINE
  5
70A6
  8
DANMEN
  6
CONTINUOUS
 10
255.58529653542479
 20
213.7575333734296
 30
0.0
 11
249.5853110707242
 21
219.7575188381301
 31
0.0
  0
LINE
  5
70A7
  8
DANMEN
  6
CONTINUOUS
 10
255.58530732501771
 20
219.75752895337359
 30
0.0
 11
249.58530095548079
 21
213.75752258383639
 31
0.0
  0
LINE
  5
70A8
  8
DANMEN
  6
CONTINUOUS
 10
257.28527854731232
 20
208.757536467373
 30
0.0
 11
257.28529380608143
 21
207.7579649055341
 31
0.0
  0
LINE
  5
70A9
  8
DANMEN
  6
CONTINUOUS
 10
282.58526668708441
 20
202.75800243553309
 30
0.0
 11
274.58537349860768
 21
202.75800243553309
 31
0.0
  0
LINE
  5
70AA
  8
DANMEN
  6
CONTINUOUS
 10
282.58525142829518
 20
202.75795665916601
 30
0.0
 11
282.58525142829518
 21
207.75752941307209
 31
0.0
  0
LINE
  5
70AB
  8
DANMEN
  6
CONTINUOUS
 10
274.58535823981862
 20
202.757987176744
 30
0.0
 11
274.58535823981862
 21
207.7575446718613
 31
0.0
  0
LINE
  5
70AC
  8
DANMEN
  6
CONTINUOUS
 10
282.58528194587342
 20
225.7575132006088
 30
0.0
 11
282.58528194587342
 21
231.2579251879134
 31
0.0
  0
LINE
  5
70AD
  8
DANMEN
  6
CONTINUOUS
 10
270.58537349860768
 20
231.25798622306971
 30
0.0
 11
270.58537349860768
 21
225.75754371818681
 31
0.0
  0
LINE
  5
70AE
  8
DANMEN
  6
CONTINUOUS
 10
270.58537349860768
 20
231.25798622306971
 30
0.0
 11
282.58529720466248
 21
231.25798622306971
 31
0.0
  0
LINE
  5
70AF
  8
DANMEN
  6
CONTINUOUS
 10
304.58538875739691
 20
219.7575399034896
 30
0.0
 11
275.58534298102973
 21
219.7575399034896
 31
0.0
  0
LINE
  5
70B0
  8
DANMEN
  6
CONTINUOUS
 10
304.58537349860768
 20
224.75752464470051
 30
0.0
 11
269.58532772224049
 21
224.75752464470051
 31
0.0
  0
LINE
  5
70B1
  8
DANMEN
  6
CONTINUOUS
 10
304.58538875739691
 20
213.75753990348969
 30
0.0
 11
275.58532772224061
 21
213.75753990348969
 31
0.0
  0
LINE
  5
70B2
  8
DANMEN
  6
CONTINUOUS
 10
304.58537349860768
 20
208.7575428837219
 30
0.0
 11
273.88533077399842
 21
208.7575428837219
 31
0.0
  0
LINE
  5
70B3
  8
DANMEN
  6
CONTINUOUS
 10
304.58538875739691
 20
224.2575255983748
 30
0.0
 11
275.58532772224061
 21
224.2575255983748
 31
0.0
  0
LINE
  5
70B4
  8
DANMEN
  6
CONTINUOUS
 10
304.58538875739691
 20
209.2575428837219
 30
0.0
 11
275.58534298102973
 21
209.2575428837219
 31
0.0
  0
LINE
  5
70B5
  8
DANMEN
  6
CONTINUOUS
 10
282.58526668708441
 20
207.7575446718613
 30
0.0
 11
274.58535823981862
 21
207.7575446718613
 31
0.0
  0
LINE
  5
70B6
  8
DANMEN
  6
CONTINUOUS
 10
282.58523616950612
 20
225.75746742424161
 30
0.0
 11
270.58534202735541
 21
225.75746742424161
 31
0.0
  0
LINE
  5
70B7
  8
DANMEN
  6
CONTINUOUS
 10
275.58540401618592
 20
208.75754371818681
 30
0.0
 11
275.58540401618592
 21
224.75754371818681
 31
0.0
  0
LINE
  5
70B8
  8
DANMEN
  6
CONTINUOUS
 10
281.58540401618592
 20
213.75754371818681
 30
0.0
 11
281.58540401618592
 21
219.75754371818681
 31
0.0
  0
LINE
  5
70B9
  8
DANMEN
  6
CONTINUOUS
 10
304.58538875739691
 20
213.2575399034896
 30
0.0
 11
275.58532772224061
 21
213.2575399034896
 31
0.0
  0
LINE
  5
70BA
  8
DANMEN
  6
CONTINUOUS
 10
304.58538875739691
 20
220.25753990348969
 30
0.0
 11
275.58534298102973
 21
220.25753990348969
 31
0.0
  0
LINE
  5
70BB
  8
DANMEN
  6
CONTINUOUS
 10
281.5853234624023
 20
219.75753906861689
 30
0.0
 11
275.5853177672148
 21
213.7575333734296
 31
0.0
  0
LINE
  5
70BC
  8
DANMEN
  6
CONTINUOUS
 10
281.58532413675181
 20
213.7575333734296
 30
0.0
 11
275.5853177672148
 21
219.75753974296649
 31
0.0
  0
LINE
  5
70BD
  8
DANMEN
  6
CONTINUOUS
 10
273.88532518055041
 20
207.7579574632189
 30
0.0
 11
273.88534043928041
 21
208.75752646205811
 31
0.0
  0
LINE
  5
70BE
  8
DANMEN
  6
CONTINUOUS
 10
416.79476986091248
 20
213.75757328209059
 30
0.0
 11
387.69000301520941
 21
213.75757328209059
 31
0.0
  0
LINE
  5
70BF
  8
DANMEN
  6
CONTINUOUS
 10
425.49479732673268
 20
208.75757435497431
 30
0.0
 11
387.69001827399842
 21
208.75757435497431
 31
0.0
  0
LINE
  5
70C0
  8
DANMEN
  6
CONTINUOUS
 10
416.79476986091248
 20
219.75757328209059
 30
0.0
 11
387.69000301520941
 21
219.75757328209059
 31
0.0
  0
LINE
  5
70C1
  8
DANMEN
  6
CONTINUOUS
 10
432.79476986091248
 20
224.75757328209059
 30
0.0
 11
387.69000301520941
 21
224.75757328209059
 31
0.0
  0
LINE
  5
70C2
  8
DANMEN
  6
CONTINUOUS
 10
416.79476986091248
 20
224.25757328209059
 30
0.0
 11
387.69000301520941
 21
224.25757328209059
 31
0.0
  0
LINE
  5
70C3
  8
DANMEN
  6
CONTINUOUS
 10
416.79478511970149
 20
209.25757435497431
 30
0.0
 11
387.69001827399842
 21
209.25757435497431
 31
0.0
  0
LINE
  5
70C4
  8
DANMEN
  6
CONTINUOUS
 10
416.79480037849049
 20
224.75755897697599
 30
0.0
 11
416.79480037849049
 21
208.75755897697599
 31
0.0
  0
LINE
  5
70C5
  8
DANMEN
  6
CONTINUOUS
 10
416.79476986091248
 20
213.25757328209059
 30
0.0
 11
387.69000301520941
 21
213.25757328209059
 31
0.0
  0
LINE
  5
70C6
  8
DANMEN
  6
CONTINUOUS
 10
416.79476986091248
 20
220.2575732820907
 30
0.0
 11
387.69000301520941
 21
220.2575732820907
 31
0.0
  0
LINE
  5
70C7
  8
DANMEN
  6
CONTINUOUS
 10
410.79480037849061
 20
219.75755897697599
 30
0.0
 11
410.79480037849061
 21
213.75755897697599
 31
0.0
  0
LINE
  5
70C8
  8
DANMEN
  6
CONTINUOUS
 10
431.79466304938899
 20
225.75755897697579
 30
0.0
 11
409.7946630493891
 21
225.75755897697579
 31
0.0
  0
LINE
  5
70C9
  8
DANMEN
  6
CONTINUOUS
 10
409.79467830817811
 20
230.7574369066634
 30
0.0
 11
409.79467830817811
 21
225.75755897697599
 31
0.0
  0
LINE
  5
70CA
  8
DANMEN
  6
CONTINUOUS
 10
409.79467830817811
 20
207.75755897697599
 30
0.0
 11
409.79467830817811
 21
202.75781837638999
 31
0.0
  0
LINE
  5
70CB
  8
DANMEN
  6
CONTINUOUS
 10
409.79467830817811
 20
202.75781837638999
 30
0.0
 11
424.49479732673268
 21
202.75781837638999
 31
0.0
  0
LINE
  5
70CC
  8
DANMEN
  6
CONTINUOUS
 10
424.49479732673268
 20
207.75755897697599
 30
0.0
 11
424.49479732673268
 21
202.75781837638999
 31
0.0
  0
LINE
  5
70CD
  8
DANMEN
  6
CONTINUOUS
 10
424.49478206794367
 20
207.75757518943919
 30
0.0
 11
409.7946630493891
 21
207.75757518943919
 31
0.0
  0
LINE
  5
70CE
  8
DANMEN
  6
CONTINUOUS
 10
416.79474104912538
 20
219.75756132215261
 30
0.0
 11
410.7947346795882
 21
213.75755495261569
 31
0.0
  0
LINE
  5
70CF
  8
DANMEN
  6
CONTINUOUS
 10
410.79474777992721
 20
219.75756960873079
 30
0.0
 11
416.7947357734439
 21
213.7575664423594
 31
0.0
  0
LINE
  5
70D0
  8
DANMEN
  6
CONTINUOUS
 10
387.69000301520941
 20
201.7576085680403
 30
0.0
 11
401.79476986091242
 21
201.7576085680403
 31
0.0
  0
LINE
  5
70D1
  8
DANMEN
  6
CONTINUOUS
 10
97.748459436107851
 20
226.89688697990559
 30
0.0
 11
97.748459436107851
 21
182.8968869799057
 31
0.0
  0
LINE
  5
70D2
  8
DANMEN
  6
CONTINUOUS
 10
97.748459436107851
 20
267.89664283928062
 30
0.0
 11
97.748459436107851
 21
228.89688697990559
 31
0.0
  0
LINE
  5
70D3
  8
DANMEN
  6
CONTINUOUS
 10
387.68998775642018
 20
233.75742164787439
 30
0.0
 11
401.79476986091242
 21
233.75742164787439
 31
0.0
  0
LINE
  5
70D4
  8
DANMEN
  6
CONTINUOUS
 10
290.58535823981862
 20
233.7574063890853
 30
0.0
 11
304.58537349860768
 21
233.7574063890853
 31
0.0
  0
LINE
  5
70D5
  8
DANMEN
  6
CONTINUOUS
 10
235.58541927497501
 20
233.7574063890853
 30
0.0
 11
240.58537349860771
 21
233.7574063890853
 31
0.0
  0
LINE
  5
70D6
  8
DANMEN
  6
CONTINUOUS
 10
131.74845943610779
 20
226.89688697990559
 30
0.0
 11
131.74845943610779
 21
182.8968869799057
 31
0.0
  0
LINE
  5
70D7
  8
DANMEN
  6
CONTINUOUS
 10
131.74845943610779
 20
267.89664283928062
 30
0.0
 11
131.74845943610779
 21
228.89688697990559
 31
0.0
  0
LINE
  5
70D8
  8
DANMEN
  6
CONTINUOUS
 10
387.69000301520941
 20
199.7576085680403
 30
0.0
 11
401.79476986091242
 21
199.7576085680403
 31
0.0
  0
LINE
  5
70D9
  8
DANMEN
  6
CONTINUOUS
 10
270.58535823981862
 20
199.75798908409271
 30
0.0
 11
288.63534603278748
 21
199.75798908409271
 31
0.0
  0
LINE
  5
70DA
  8
DANMEN
  6
CONTINUOUS
 10
421.79480037849061
 20
200.45781532463221
 30
0.0
 11
421.79480037849061
 21
199.75781837638999
 31
0.0
  0
LINE
  5
70DB
  8
DANMEN
  6
CONTINUOUS
 10
408.7448125855218
 20
199.75781837638999
 30
0.0
 11
421.79480037849061
 21
199.75781837638999
 31
0.0
  0
LINE
  5
70DC
  8
DANMEN
  6
CONTINUOUS
 10
405.79480037849061
 20
199.75760570701749
 30
0.0
 11
405.79480037849061
 21
178.75803199943681
 31
0.0
  0
LINE
  5
70DD
  8
DANMEN
  6
CONTINUOUS
 10
270.58538875739691
 20
200.95798317131181
 30
0.0
 11
270.58538875739691
 21
199.7579881304184
 31
0.0
  0
LINE
  5
70DE
  8
DANMEN
  6
CONTINUOUS
 10
291.58538875739691
 20
199.7579881304184
 30
0.0
 11
291.58538875739691
 21
178.75804725822599
 31
0.0
  0
LINE
  5
70DF
  8
DANMEN
  6
CONTINUOUS
 10
290.58534298102973
 20
199.75798908409271
 30
0.0
 11
304.58537349860768
 21
199.75798908409271
 31
0.0
  0
LINE
  5
70E0
  8
DANMEN
  6
CONTINUOUS
 10
242.5354162232172
 20
199.75799194511549
 30
0.0
 11
260.58540401618592
 21
199.75799194511549
 31
0.0
  0
LINE
  5
70E1
  8
DANMEN
  6
CONTINUOUS
 10
260.58538875739691
 20
199.7579881304184
 30
0.0
 11
260.58538875739691
 21
200.95798317131181
 31
0.0
  0
LINE
  5
70E2
  8
DANMEN
  6
CONTINUOUS
 10
239.5853887573968
 20
178.75806251701511
 30
0.0
 11
239.5853887573968
 21
199.7579881304184
 31
0.0
  0
LINE
  5
70E3
  8
DANMEN
  6
CONTINUOUS
 10
235.58541927497501
 20
199.7579909914412
 30
0.0
 11
240.58537349860771
 21
199.7579909914412
 31
0.0
  0
LINE
  5
70E4
  8
DANMEN
  6
CONTINUOUS
 10
306.58537349860768
 20
237.75729957756181
 30
0.0
 11
385.68997249763117
 21
237.75729957756181
 31
0.0
  0
LINE
  5
70E5
  8
DANMEN
  6
CONTINUOUS
 10
306.58537349860768
 20
231.75742164787439
 30
0.0
 11
320.58537349860768
 21
231.75742164787439
 31
0.0
  0
LINE
  5
70E6
  8
DANMEN
  6
CONTINUOUS
 10
306.58538875739691
 20
167.7580472582259
 30
0.0
 11
385.68998775642018
 21
167.75804725822579
 31
0.0
  0
LINE
  5
70E7
  8
DANMEN
  6
CONTINUOUS
 10
306.58538875739691
 20
172.75804725822599
 30
0.0
 11
320.58538875739691
 21
172.75804725822599
 31
0.0
  0
LINE
  5
70E8
  8
DANMEN
  6
CONTINUOUS
 10
306.58538875739691
 20
147.75809303459309
 30
0.0
 11
384.68998775642029
 21
147.758093034593
 31
0.0
  0
LINE
  5
70E9
  8
DANMEN
  6
CONTINUOUS
 10
336.58535823981862
 20
202.75800529655601
 30
0.0
 11
328.58546505134223
 21
202.75800529655601
 31
0.0
  0
LINE
  5
70EA
  8
DANMEN
  6
CONTINUOUS
 10
328.58548031013129
 20
207.7575465792099
 30
0.0
 11
328.58548031013129
 21
202.75795952018879
 31
0.0
  0
LINE
  5
70EB
  8
DANMEN
  6
CONTINUOUS
 10
336.58537349860768
 20
207.75756183799879
 30
0.0
 11
336.58537349860768
 21
202.75799003776689
 31
0.0
  0
LINE
  5
70EC
  8
DANMEN
  6
CONTINUOUS
 10
328.58544979255311
 20
231.2578946703353
 30
0.0
 11
328.58544979255311
 21
225.75748268303059
 31
0.0
  0
LINE
  5
70ED
  8
DANMEN
  6
CONTINUOUS
 10
345.58540401618598
 20
225.75754371818681
 30
0.0
 11
345.58540401618598
 21
231.25798622306971
 31
0.0
  0
LINE
  5
70EE
  8
DANMEN
  6
CONTINUOUS
 10
328.58548031013129
 20
231.25798622306971
 30
0.0
 11
345.58540401618598
 21
231.25798622306971
 31
0.0
  0
LINE
  5
70EF
  8
DANMEN
  6
CONTINUOUS
 10
370.58535823981862
 20
231.75742164787439
 30
0.0
 11
385.68997249763117
 21
231.75742164787439
 31
0.0
  0
LINE
  5
70F0
  8
DANMEN
  6
CONTINUOUS
 10
370.5853887573968
 20
172.7580472582259
 30
0.0
 11
385.68998775642018
 21
172.7580472582259
 31
0.0
  0
LINE
  5
70F1
  8
DANMEN
  6
CONTINUOUS
 10
370.58534298102961
 20
201.75798813041831
 30
0.0
 11
385.68997249763117
 21
201.75798813041831
 31
0.0
  0
LINE
  5
70F2
  8
DANMEN
  6
CONTINUOUS
 10
306.58538875739691
 20
201.7579909914412
 30
0.0
 11
320.58537349860768
 21
201.7579909914412
 31
0.0
  0
LINE
  5
70F3
  8
DANMEN
  6
CONTINUOUS
 10
335.58537349860768
 20
219.7575580233017
 30
0.0
 11
306.58537349860768
 21
219.7575580233017
 31
0.0
  0
LINE
  5
70F4
  8
DANMEN
  6
CONTINUOUS
 10
346.58535823981867
 20
224.7575570696273
 30
0.0
 11
306.58535823981879
 21
224.75755706962741
 31
0.0
  0
LINE
  5
70F5
  8
DANMEN
  6
CONTINUOUS
 10
335.58537349860768
 20
213.7575580233017
 30
0.0
 11
306.58537349860768
 21
213.7575580233017
 31
0.0
  0
LINE
  5
70F6
  8
DANMEN
  6
CONTINUOUS
 10
337.28537044684998
 20
208.75755915578981
 30
0.0
 11
306.58538875739691
 21
208.75755915578981
 31
0.0
  0
LINE
  5
70F7
  8
DANMEN
  6
CONTINUOUS
 10
335.58537349860768
 20
224.2575580233017
 30
0.0
 11
306.58537349860768
 21
224.2575580233017
 31
0.0
  0
LINE
  5
70F8
  8
DANMEN
  6
CONTINUOUS
 10
335.58537349860768
 20
209.25755915578981
 30
0.0
 11
306.58538875739691
 21
209.25755915578981
 31
0.0
  0
LINE
  5
70F9
  8
DANMEN
  6
CONTINUOUS
 10
336.58537349860768
 20
207.75756183799879
 30
0.0
 11
328.58546505134223
 21
207.75756183799879
 31
0.0
  0
LINE
  5
70FA
  8
DANMEN
  6
CONTINUOUS
 10
345.58537349860779
 20
225.75754371818681
 30
0.0
 11
328.58546505134223
 21
225.75754371818681
 31
0.0
  0
LINE
  5
70FB
  8
DANMEN
  6
CONTINUOUS
 10
335.58537349860768
 20
224.75754371818681
 30
0.0
 11
335.58537349860768
 21
208.75754371818681
 31
0.0
  0
LINE
  5
70FC
  8
DANMEN
  6
CONTINUOUS
 10
329.58537349860768
 20
219.75754371818681
 30
0.0
 11
329.58537349860768
 21
213.75754371818681
 31
0.0
  0
LINE
  5
70FD
  8
DANMEN
  6
CONTINUOUS
 10
335.58537349860768
 20
213.2575580233015
 30
0.0
 11
306.58537349860768
 21
213.25755802330161
 31
0.0
  0
LINE
  5
70FE
  8
DANMEN
  6
CONTINUOUS
 10
335.58537349860768
 20
220.2575580233017
 30
0.0
 11
306.58537349860768
 21
220.2575580233017
 31
0.0
  0
LINE
  5
70FF
  8
DANMEN
  6
CONTINUOUS
 10
335.5852937971415
 20
213.7575333734296
 30
0.0
 11
329.58529821719742
 21
219.75752895337359
 31
0.0
  0
LINE
  5
7100
  8
DANMEN
  6
CONTINUOUS
 10
335.58530458673442
 20
219.75752895337359
 30
0.0
 11
329.58529821719742
 21
213.75752258383639
 31
0.0
  0
LINE
  5
7101
  8
DANMEN
  6
CONTINUOUS
 10
337.28526902921197
 20
208.75753645247181
 30
0.0
 11
337.28528428798751
 21
207.75796447340039
 31
0.0
  0
LINE
  5
7102
  8
DANMEN
  6
CONTINUOUS
 10
362.5852666870843
 20
202.7580014818588
 30
0.0
 11
354.58537349860768
 21
202.7580014818588
 31
0.0
  0
LINE
  5
7103
  8
DANMEN
  6
CONTINUOUS
 10
362.58525142829529
 20
202.75795570549161
 30
0.0
 11
362.58525142829529
 21
207.7575284593978
 31
0.0
  0
LINE
  5
7104
  8
DANMEN
  6
CONTINUOUS
 10
354.58535823981879
 20
202.75798622306971
 30
0.0
 11
354.58535823981879
 21
207.75754371818689
 31
0.0
  0
LINE
  5
7105
  8
DANMEN
  6
CONTINUOUS
 10
362.58528194587342
 20
225.75752845939789
 30
0.0
 11
362.58528194587342
 21
231.25794044670261
 31
0.0
  0
LINE
  5
7106
  8
DANMEN
  6
CONTINUOUS
 10
350.58537349860768
 20
231.25798622306971
 30
0.0
 11
350.58537349860768
 21
225.75754371818681
 31
0.0
  0
LINE
  5
7107
  8
DANMEN
  6
CONTINUOUS
 10
350.58537349860768
 20
231.25798622306971
 30
0.0
 11
362.58529720466248
 21
231.25798622306971
 31
0.0
  0
LINE
  5
7108
  8
DANMEN
  6
CONTINUOUS
 10
385.68998775642018
 20
219.7575399034896
 30
0.0
 11
355.58534298102973
 21
219.7575399034896
 31
0.0
  0
LINE
  5
7109
  8
DANMEN
  6
CONTINUOUS
 10
385.68995723884223
 20
224.75752464470071
 30
0.0
 11
349.58531246345149
 21
224.75752464470051
 31
0.0
  0
LINE
  5
710A
  8
DANMEN
  6
CONTINUOUS
 10
385.68997249763117
 20
213.75753990348969
 30
0.0
 11
355.58532772224061
 21
213.75753990348969
 31
0.0
  0
LINE
  5
710B
  8
DANMEN
  6
CONTINUOUS
 10
385.68997249763117
 20
208.75754282411719
 30
0.0
 11
353.88533077399842
 21
208.75754282411719
 31
0.0
  0
LINE
  5
710C
  8
DANMEN
  6
CONTINUOUS
 10
385.68997249763117
 20
224.257525598375
 30
0.0
 11
355.58532772224061
 21
224.257525598375
 31
0.0
  0
LINE
  5
710D
  8
DANMEN
  6
CONTINUOUS
 10
385.68998775642018
 20
209.25754282411719
 30
0.0
 11
355.58534298102973
 21
209.25754282411719
 31
0.0
  0
LINE
  5
710E
  8
DANMEN
  6
CONTINUOUS
 10
362.5852666870843
 20
207.75754371818689
 30
0.0
 11
354.58535823981879
 21
207.75754371818689
 31
0.0
  0
LINE
  5
710F
  8
DANMEN
  6
CONTINUOUS
 10
362.58525142829529
 20
225.75746742424161
 30
0.0
 11
350.58534298102973
 21
225.75746742424161
 31
0.0
  0
LINE
  5
7110
  8
DANMEN
  6
CONTINUOUS
 10
355.58540401618592
 20
208.75754371818681
 30
0.0
 11
355.58540401618592
 21
224.75754371818681
 31
0.0
  0
LINE
  5
7111
  8
DANMEN
  6
CONTINUOUS
 10
361.58540401618592
 20
213.75754371818681
 30
0.0
 11
361.58540401618592
 21
219.75754371818681
 31
0.0
  0
LINE
  5
7112
  8
DANMEN
  6
CONTINUOUS
 10
385.68997249763117
 20
213.2575399034896
 30
0.0
 11
355.58532772224061
 21
213.2575399034896
 31
0.0
  0
LINE
  5
7113
  8
DANMEN
  6
CONTINUOUS
 10
385.68998775642018
 20
220.25753990348969
 30
0.0
 11
355.58534298102973
 21
220.25753990348969
 31
0.0
  0
LINE
  5
7114
  8
DANMEN
  6
CONTINUOUS
 10
361.58532139846841
 20
219.75753974296649
 30
0.0
 11
355.58531502893152
 21
213.7575333734296
 31
0.0
  0
LINE
  5
7115
  8
DANMEN
  6
CONTINUOUS
 10
361.58532139846841
 20
213.7575333734296
 30
0.0
 11
355.58531502893152
 21
219.75753974296649
 31
0.0
  0
LINE
  5
7116
  8
DANMEN
  6
CONTINUOUS
 10
353.885315662442
 20
207.75795694167829
 30
0.0
 11
353.88533092117922
 21
208.7575264173548
 31
0.0
  0
LINE
  5
7117
  8
DANMEN
  6
CONTINUOUS
 10
370.58535823981862
 20
233.75742164787439
 30
0.0
 11
385.68997249763117
 21
233.75742164787439
 31
0.0
  0
LINE
  5
7118
  8
DANMEN
  6
CONTINUOUS
 10
306.58537349860768
 20
233.75742164787439
 30
0.0
 11
320.58537349860768
 21
233.75742164787439
 31
0.0
  0
LINE
  5
7119
  8
DANMEN
  6
CONTINUOUS
 10
350.58535823981879
 20
199.7579881304184
 30
0.0
 11
368.63534603278742
 21
199.7579881304184
 31
0.0
  0
LINE
  5
711A
  8
DANMEN
  6
CONTINUOUS
 10
350.5853887573968
 20
200.95798317131181
 30
0.0
 11
350.5853887573968
 21
199.7579881304184
 31
0.0
  0
LINE
  5
711B
  8
DANMEN
  6
CONTINUOUS
 10
371.5853887573968
 20
199.7579881304184
 30
0.0
 11
371.5853887573968
 21
178.75804725822599
 31
0.0
  0
LINE
  5
711C
  8
DANMEN
  6
CONTINUOUS
 10
370.58534298102961
 20
199.7579881304184
 30
0.0
 11
385.68997249763117
 21
199.75798813041851
 31
0.0
  0
LINE
  5
711D
  8
DANMEN
  6
CONTINUOUS
 10
322.53541622321723
 20
199.75799194511549
 30
0.0
 11
340.58540401618592
 21
199.75799194511549
 31
0.0
  0
LINE
  5
711E
  8
DANMEN
  6
CONTINUOUS
 10
340.58538875739691
 20
199.7579881304184
 30
0.0
 11
340.58538875739691
 21
200.95798317131181
 31
0.0
  0
LINE
  5
711F
  8
DANMEN
  6
CONTINUOUS
 10
319.58538875739691
 20
178.75804725822599
 30
0.0
 11
319.58538875739691
 21
199.7579881304184
 31
0.0
  0
LINE
  5
7120
  8
DANMEN
  6
CONTINUOUS
 10
306.58538875739691
 20
199.7579909914412
 30
0.0
 11
320.58537349860768
 21
199.7579909914412
 31
0.0
  0
LINE
  5
7121
  8
DANMEN
  6
CONTINUOUS
 10
290.58540401618592
 20
167.7580472582259
 30
0.0
 11
304.58538875739691
 21
167.7580472582259
 31
0.0
  0
LINE
  5
7122
  8
DANMEN
  6
PHANTOM
 10
173.74845943610779
 20
272.89688697990562
 30
0.0
 11
173.74845943610779
 21
228.89688697990559
 31
0.0
  0
LINE
  5
7123
  8
DANMEN
  6
PHANTOM
 10
173.74845943610779
 20
226.89688697990559
 30
0.0
 11
173.74845943610779
 21
196.55712906059409
 31
0.0
  0
LINE
  5
7124
  8
DANMEN
  6
PHANTOM
 10
158.74845943610779
 20
272.89688697990562
 30
0.0
 11
173.74845943610779
 21
272.89688697990562
 31
0.0
  0
LINE
  5
7125
  8
DANMEN
  6
PHANTOM
 10
158.74850215832711
 20
187.89686324977271
 30
0.0
 11
173.74850430407531
 21
196.55711764951869
 31
0.0
  0
LINE
  5
7126
  8
DANMEN
  6
CONTINUOUS
 10
423.49479732673279
 20
172.75803199943681
 30
0.0
 11
432.79480037849049
 21
172.75803199943681
 31
0.0
  0
LINE
  5
7127
  8
DANMEN
  6
CONTINUOUS
 10
235.58541927497501
 20
178.75804725822599
 30
0.0
 11
240.58540401618581
 21
178.75804725822599
 31
0.0
  0
LINE
  5
7128
  8
DANMEN
  6
CONTINUOUS
 10
270.58538875739691
 20
178.75804725822599
 30
0.0
 11
288.63537655036561
 21
178.75804725822599
 31
0.0
  0
LINE
  5
7129
  8
DANMEN
  6
CONTINUOUS
 10
306.58538875739691
 20
178.75804725822599
 30
0.0
 11
320.58538875739691
 21
178.75804725822599
 31
0.0
  0
LINE
  5
712A
  8
DANMEN
  6
CONTINUOUS
 10
350.5853887573968
 20
178.7580472582259
 30
0.0
 11
368.63537655036561
 21
178.7580472582259
 31
0.0
  0
LINE
  5
712B
  8
DANMEN
  6
CONTINUOUS
 10
387.69000301520941
 20
178.75803199943681
 30
0.0
 11
406.79480037849061
 21
178.75803199943681
 31
0.0
  0
LINE
  5
712C
  8
DANMEN
  6
CONTINUOUS
 10
242.5354162232172
 20
178.75804725822599
 30
0.0
 11
260.58538971107117
 21
178.75804725822599
 31
0.0
  0
LINE
  5
712D
  8
DANMEN
  6
CONTINUOUS
 10
290.5853887573968
 20
178.75804725822599
 30
0.0
 11
304.58538875739691
 21
178.75804725822599
 31
0.0
  0
LINE
  5
712E
  8
DANMEN
  6
CONTINUOUS
 10
322.53540096442799
 20
178.75804725822599
 30
0.0
 11
340.58538875739691
 21
178.75804725822599
 31
0.0
  0
LINE
  5
712F
  8
DANMEN
  6
CONTINUOUS
 10
370.5853887573968
 20
178.7580472582259
 30
0.0
 11
385.68998775642018
 21
178.7580472582259
 31
0.0
  0
LINE
  5
7130
  8
DANMEN
  6
CONTINUOUS
 10
408.44479427497498
 20
178.75803199943681
 30
0.0
 11
421.79480037849061
 21
178.75803199943681
 31
0.0
  0
LINE
  5
7131
  8
DANMEN
  6
CONTINUOUS
 10
103.2483984009516
 20
167.89708534416349
 30
0.0
 11
103.2483984009516
 21
152.89711586174161
 31
0.0
  0
LINE
  5
7132
  8
DANMEN
  6
CONTINUOUS
 10
126.2483984009516
 20
167.89708534416349
 30
0.0
 11
126.2483984009516
 21
152.89711586174161
 31
0.0
  0
LINE
  5
7133
  8
DANMEN
  6
CONTINUOUS
 10
126.24841098479391
 20
167.89707612351791
 30
0.0
 11
103.2484231054825
 21
152.8971148407029
 31
0.0
  0
LINE
  5
7134
  8
DANMEN
  6
CONTINUOUS
 10
100.74845943610769
 20
174.8971311205307
 30
0.0
 11
100.74845943610769
 21
168.89713112053059
 31
0.0
  0
LINE
  5
7135
  8
DANMEN
  6
CONTINUOUS
 10
435.29478511970183
 20
206.7575742357846
 30
0.0
 11
435.29478511970069
 21
216.7575742357846
 31
0.0
  0
LINE
  5
7136
  8
DANMEN
  6
CONTINUOUS
 10
425.49479732673268
 20
208.75757435497439
 30
0.0
 11
425.49479732673268
 21
207.3549510591904
 31
0.0
  0
ENDSEC
  0
EOF
