  0
SECTION
  2
HEADER
  9
$ACADVER
  1
AC1009
  9
$INSBASE
 10
0.0
 20
0.0
 30
0.0
  9
$EXTMIN
 10
31.524425493660821
 20
28.29526935608077
 30
0.0
  9
$EXTMAX
 10
506.89863881456068
 20
417.87675236086369
 30
0.0
  9
$LIMMIN
 10
0.0
 20
0.0
  9
$LIMMAX
 10
420.0
 20
297.0
  9
$ORTHOMODE
 70
     0
  9
$REGENMODE
 70
     1
  9
$FILLMODE
 70
     1
  9
$QTEXTMODE
 70
     0
  9
$MIRRTEXT
 70
     1
  9
$DRAGMODE
 70
     2
  9
$LTSCALE
 40
1.0
  9
$OSMODE
 70
    39
  9
$ATTMODE
 70
     1
  9
$TEXTSIZE
 40
2.5
  9
$TRACEWID
 40
1.0
  9
$TEXTSTYLE
  7
STANDARD
  9
$CLAYER
  8
0
  9
$CELTYPE
  6
BYLAYER
  9
$CECOLOR
 62
   256
  9
$DIMSCALE
 40
1.0
  9
$DIMASZ
 40
2.5
  9
$DIMEXO
 40
0.625
  9
$DIMDLI
 40
3.75
  9
$DIMRND
 40
0.0
  9
$DIMDLE
 40
0.0
  9
$DIMEXE
 40
1.25
  9
$DIMTP
 40
0.0
  9
$DIMTM
 40
0.0
  9
$DIMTXT
 40
2.5
  9
$DIMCEN
 40
2.5
  9
$DIMTSZ
 40
0.0
  9
$DIMTOL
 70
     0
  9
$DIMLIM
 70
     0
  9
$DIMTIH
 70
     0
  9
$DIMTOH
 70
     0
  9
$DIMSE1
 70
     0
  9
$DIMSE2
 70
     0
  9
$DIMTAD
 70
     1
  9
$DIMZIN
 70
     8
  9
$DIMBLK
  1

  9
$DIMASO
 70
     1
  9
$DIMSHO
 70
     1
  9
$DIMPOST
  1

  9
$DIMAPOST
  1

  9
$DIMALT
 70
     0
  9
$DIMALTD
 70
     3
  9
$DIMALTF
 40
0.03937007874016
  9
$DIMLFAC
 40
1.0
  9
$DIMTOFL
 70
     1
  9
$DIMTVP
 40
0.0
  9
$DIMTIX
 70
     0
  9
$DIMSOXD
 70
     0
  9
$DIMSAH
 70
     0
  9
$DIMBLK1
  1

  9
$DIMBLK2
  1

  9
$DIMSTYLE
  2
ISO-25
  9
$DIMCLRD
 70
     0
  9
$DIMCLRE
 70
     0
  9
$DIMCLRT
 70
     0
  9
$DIMTFAC
 40
1.0
  9
$DIMGAP
 40
0.625
  9
$LUNITS
 70
     2
  9
$LUPREC
 70
     4
  9
$SKETCHINC
 40
1.0
  9
$FILLETRAD
 40
10.0
  9
$AUNITS
 70
     0
  9
$AUPREC
 70
     0
  9
$MENU
  1
.
  9
$ELEVATION
 40
0.0
  9
$PELEVATION
 40
0.0
  9
$THICKNESS
 40
0.0
  9
$LIMCHECK
 70
     0
  9
$BLIPMODE
 70
     0
  9
$CHAMFERA
 40
10.0
  9
$CHAMFERB
 40
10.0
  9
$SKPOLY
 70
     0
  9
$TDCREATE
 40
2456583.6822594791
  9
$TDUPDATE
 40
2456666.599919884
  9
$TDINDWG
 40
0.0203007292
  9
$TDUSRTIMER
 40
0.0202996528
  9
$USRTIMER
 70
     1
  9
$ANGBASE
 50
0.0
  9
$ANGDIR
 70
     0
  9
$PDMODE
 70
     0
  9
$PDSIZE
 40
0.0
  9
$PLINEWID
 40
0.0
  9
$COORDS
 70
     1
  9
$SPLFRAME
 70
     0
  9
$SPLINETYPE
 70
     6
  9
$SPLINESEGS
 70
     8
  9
$ATTDIA
 70
     0
  9
$ATTREQ
 70
     1
  9
$HANDLING
 70
-16383
  9
$HANDSEED
  5
47C5
  9
$SURFTAB1
 70
     6
  9
$SURFTAB2
 70
     6
  9
$SURFTYPE
 70
     6
  9
$SURFU
 70
     6
  9
$SURFV
 70
     6
  9
$UCSNAME
  2

  9
$UCSORG
 10
0.0
 20
0.0
 30
0.0
  9
$UCSXDIR
 10
1.0
 20
0.0
 30
0.0
  9
$UCSYDIR
 10
0.0
 20
1.0
 30
0.0
  9
$PUCSNAME
  2

  9
$PUCSORG
 10
0.0
 20
0.0
 30
0.0
  9
$PUCSXDIR
 10
1.0
 20
0.0
 30
0.0
  9
$PUCSYDIR
 10
0.0
 20
1.0
 30
0.0
  9
$USERI1
 70
     0
  9
$USERI2
 70
     0
  9
$USERI3
 70
     0
  9
$USERI4
 70
     0
  9
$USERI5
 70
     0
  9
$USERR1
 40
0.0
  9
$USERR2
 40
0.0
  9
$USERR3
 40
0.0
  9
$USERR4
 40
0.0
  9
$USERR5
 40
0.0
  9
$WORLDVIEW
 70
     1
  9
$SHADEDGE
 70
     3
  9
$SHADEDIF
 70
    70
  9
$TILEMODE
 70
     1
  9
$MAXACTVP
 70
    64
  9
$PLIMCHECK
 70
     0
  9
$PEXTMIN
 10
1.0000000000000000E+020
 20
1.0000000000000000E+020
 30
1.0000000000000000E+020
  9
$PEXTMAX
 10
-1.0000000000000000E+020
 20
-1.0000000000000000E+020
 30
-1.0000000000000000E+020
  9
$PLIMMIN
 10
0.0
 20
0.0
  9
$PLIMMAX
 10
420.0
 20
297.0
  9
$UNITMODE
 70
     0
  9
$VISRETAIN
 70
     1
  9
$PLINEGEN
 70
     0
  9
$PSLTSCALE
 70
     1
  0
ENDSEC
  0
SECTION
  2
TABLES
  0
TABLE
  2
VPORT
 70
     2
  0
VPORT
  2
*ACTIVE
 70
     0
 10
0.0
 20
0.0
 11
1.0
 21
1.0
 12
452.30199211659362
 22
251.28833835183889
 13
0.0
 23
0.0
 14
10.0
 24
10.0
 15
10.0
 25
10.0
 16
0.0
 26
0.0
 36
1.0
 17
0.0
 27
0.0
 37
0.0
 40
449.08437207675081
 41
1.949260042283298
 42
50.0
 43
0.0
 44
0.0
 50
0.0
 51
0.0
 71
     0
 72
   100
 73
     1
 74
     3
 75
     0
 76
     0
 77
     0
 78
     0
  0
ENDTAB
  0
TABLE
  2
LTYPE
 70
     2
  0
LTYPE
  2
CONTINUOUS
 70
     0
  3
Solid line
 72
    65
 73
     0
 40
0.0
  0
LTYPE
  2
DASHED
 70
     0
  3
Dashed __ __ __ __ __ __ __ __ __ __ __ __ __ _
 72
    65
 73
     2
 40
19.049999999999962
 49
12.699999999999999
 49
-6.349999999999997
  0
ENDTAB
  0
TABLE
  2
LAYER
 70
     4
  0
LAYER
  2
0
 70
     0
 62
     7
  6
CONTINUOUS
  0
LAYER
  2
DANMEN
 70
     0
 62
     7
  6
CONTINUOUS
  0
LAYER
  2
SUNPO
 70
     0
 62
     1
  6
CONTINUOUS
  0
LAYER
  2
WAKU
 70
     0
 62
     3
  6
CONTINUOUS
  0
ENDTAB
  0
TABLE
  2
STYLE
 70
     5
  0
STYLE
  2
STANDARD
 70
     0
 40
0.0
 41
1.0
 50
0.0
 71
     0
 42
2.5
  3
txt
  4

  0
STYLE
  2
MX_NOTE_STANDARD
 70
     0
 40
0.0
 41
1.0
 50
0.0
 71
     0
 42
2.5
  3
txt.shx
  4
extfont.shx
  0
STYLE
  2
MX_DIMTXSTY_2
 70
     0
 40
0.0
 41
1.1999999999999991
 50
0.0
 71
     0
 42
2.5
  3
txt.shx
  4
extfont.shx
  0
STYLE
  2
MX_DIMTXSTY_3
 70
     0
 40
0.0
 41
1.1000000000000001
 50
0.0
 71
     0
 42
2.5
  3
txt.shx
  4
extfont.shx
  0
STYLE
  2
MX_DIMTXSTY_4
 70
     0
 40
0.0
 41
1.3500000000000001
 50
0.0
 71
     0
 42
2.5
  3
txt.shx
  4
extfont.shx
  0
ENDTAB
  0
TABLE
  2
VIEW
 70
     0
  0
ENDTAB
  0
TABLE
  2
UCS
 70
     0
  0
ENDTAB
  0
TABLE
  2
APPID
 70
     1
  0
APPID
  2
ACAD
 70
     0
  0
ENDTAB
  0
TABLE
  2
DIMSTYLE
 70
     2
  0
DIMSTYLE
  2
ISO-25
 70
     0
  3

  4

  5

  6

  7

 40
1.0
 41
2.5
 42
0.625
 43
3.75
 44
1.25
 45
0.0
 46
0.0
 47
0.0
 48
0.0
140
2.5
141
2.5
142
0.0
143
0.03937007874016
144
1.0
145
0.0
146
1.0
147
0.625
 71
     0
 72
     0
 73
     0
 74
     0
 75
     0
 76
     0
 77
     1
 78
     8
170
     0
171
     3
172
     1
173
     0
174
     0
175
     0
176
     0
177
     0
178
     0
  0
DIMSTYLE
  2
MXDIMSTYLE
 70
     0
  3

  4

  5

  6

  7

 40
1.0
 41
2.5
 42
1.5
 43
3.75
 44
0.0
 45
0.0
 46
0.0
 47
0.0
 48
0.0
140
2.5
141
2.5
142
0.0
143
0.03937
144
1.0
145
0.0
146
1.0
147
0.5
 71
     0
 72
     0
 73
     0
 74
     0
 75
     0
 76
     0
 77
     1
 78
     8
170
     0
171
     4
172
     1
173
     1
174
     0
175
     0
176
     0
177
     0
178
     0
  0
ENDTAB
  0
ENDSEC
  0
SECTION
  2
BLOCKS
  0
BLOCK
  8
0
  2
$MODEL_SPACE
 70
     0
 10
0.0
 20
0.0
 30
0.0
  3
$MODEL_SPACE
  1

  0
ENDBLK
  5
40CB
  8
0
  0
BLOCK
 67
     1
  8
0
  2
$PAPER_SPACE
 70
     0
 10
0.0
 20
0.0
 30
0.0
  3
$PAPER_SPACE
  1

  0
ENDBLK
  5
40C7
 67
     1
  8
0
  0
BLOCK
  8
0
  6
BYBLOCK
 62
     0
  2
_OPEN30
 70
     2
 10
0.0
 20
0.0
 30
0.0
  3
_OPEN30
  1

  0
LINE
  5
40E2
  8
0
  6
BYBLOCK
 62
     0
 10
-1.0
 20
0.267949
 30
0.0
 11
0.0
 21
0.0
 31
0.0
  0
LINE
  5
40E3
  8
0
  6
BYBLOCK
 62
     0
 10
0.0
 20
0.0
 30
0.0
 11
-1.0
 21
-0.267949
 31
0.0
  0
LINE
  5
40E4
  8
0
  6
BYBLOCK
 62
     0
 10
0.0
 20
0.0
 30
0.0
 11
-1.0
 21
0.0
 31
0.0
  0
ENDBLK
  5
40E5
  8
0
  6
BYBLOCK
 62
     0
  0
ENDSEC
  0
SECTION
  2
ENTITIES
  0
LINE
  5
40E6
  8
WAKU
  6
CONTINUOUS
 10
494.47477787089508
 20
414.85770574567772
 30
0.0
 11
495.10192687089511
 21
416.5807827456776
 31
0.0
  0
LINE
  5
40E7
  8
WAKU
  6
CONTINUOUS
 10
493.76923587089539
 20
412.9192447456777
 30
0.0
 11
494.2395968708953
 21
414.2115517456777
 31
0.0
  0
SOLID
  5
40E8
  8
WAKU
  6
CONTINUOUS
 10
497.25577287089561
 20
416.5807827456776
 30
0.0
 11
494.41499387089561
 21
411.73462874567758
 31
0.0
 12
494.70798087089508
 22
409.58078274567771
 32
0.0
 13
494.70798087089508
 23
409.58078274567771
 33
0.0
  0
SOLID
  5
40E9
  8
WAKU
  6
CONTINUOUS
 10
494.41499387089561
 20
411.73462874567758
 30
0.0
 11
497.25577287089561
 21
416.5807827456776
 31
0.0
 12
496.17884987089508
 22
416.5807827456776
 32
0.0
 13
496.17884987089508
 23
416.5807827456776
 33
0.0
  0
LINE
  5
40EA
  8
WAKU
  6
CONTINUOUS
 10
494.41499387089561
 20
411.73462874567758
 30
0.0
 11
496.17884987089508
 21
416.5807827456776
 31
0.0
  0
LINE
  5
40EB
  8
WAKU
  6
CONTINUOUS
 10
494.70798087089508
 20
409.58078274567771
 30
0.0
 11
497.25577287089561
 21
416.5807827456776
 31
0.0
  0
LINE
  5
40EC
  8
WAKU
  6
CONTINUOUS
 10
496.17884987089508
 20
416.5807827456776
 30
0.0
 11
497.25577287089561
 21
416.5807827456776
 31
0.0
  0
LINE
  5
40ED
  8
WAKU
  6
CONTINUOUS
 10
491.87115787089567
 20
416.5807827456776
 30
0.0
 11
491.2440088708953
 21
414.85770574567772
 31
0.0
  0
LINE
  5
40EE
  8
WAKU
  6
CONTINUOUS
 10
491.00882787089557
 20
414.2115517456777
 30
0.0
 11
490.5384668708956
 21
412.9192447456777
 31
0.0
  0
LINE
  5
40EF
  8
WAKU
  6
CONTINUOUS
 10
489.3233658708956
 20
409.58078274567771
 30
0.0
 11
490.10730187089513
 21
411.73462874567758
 31
0.0
  0
LINE
  5
40F0
  8
WAKU
  6
CONTINUOUS
 10
488.05243587089512
 20
414.96539774567742
 30
0.0
 11
489.1293598708948
 21
414.96539774567742
 31
0.0
  0
SOLID
  5
40F1
  8
WAKU
  6
CONTINUOUS
 10
487.16951987089539
 20
409.58078274567771
 30
0.0
 11
486.68054887089568
 21
411.196167745678
 31
0.0
 12
483.44977887089561
 22
411.196167745678
 32
0.0
 13
483.44977887089561
 23
411.196167745678
 33
0.0
  0
LINE
  5
40F2
  8
WAKU
  6
CONTINUOUS
 10
483.4497788708951
 20
411.1961677456776
 30
0.0
 11
486.68054887089539
 21
411.1961677456776
 31
0.0
  0
SOLID
  5
40F3
  8
WAKU
  6
CONTINUOUS
 10
485.11465387089561
 20
412.81155174567812
 30
0.0
 11
485.89858987089542
 21
414.96539774567827
 31
0.0
 12
484.82166687089563
 22
414.96539774567827
 32
0.0
 13
484.82166687089563
 23
414.96539774567827
 33
0.0
  0
LINE
  5
40F4
  8
WAKU
  6
CONTINUOUS
 10
485.43773087089562
 20
412.81155174567772
 30
0.0
 11
486.22166687089509
 21
414.96539774567742
 31
0.0
  0
LINE
  5
40F5
  8
WAKU
  6
CONTINUOUS
 10
485.11465387089561
 20
412.81155174567772
 30
0.0
 11
485.89858987089502
 21
414.96539774567742
 31
0.0
  0
LINE
  5
40F6
  8
WAKU
  6
CONTINUOUS
 10
485.43773087089562
 20
412.81155174567772
 30
0.0
 11
486.51465387089462
 21
412.81155174567772
 31
0.0
  0
LINE
  5
40F7
  8
WAKU
  6
CONTINUOUS
 10
484.82166687089563
 20
414.96539774567742
 30
0.0
 11
485.89858987089502
 21
414.96539774567742
 31
0.0
  0
SOLID
  5
40F8
  8
WAKU
  6
CONTINUOUS
 10
486.22166687089538
 20
414.96539774567827
 30
0.0
 11
485.43773087089562
 21
412.81155174567812
 31
0.0
 12
487.29858987089511
 22
414.96539774567827
 32
0.0
 13
487.29858987089511
 23
414.96539774567827
 33
0.0
  0
SOLID
  5
40F9
  8
WAKU
  6
CONTINUOUS
 10
487.29858987089511
 20
414.96539774567827
 30
0.0
 11
485.43773087089562
 21
412.81155174567812
 31
0.0
 12
486.51465387089559
 22
412.81155174567812
 32
0.0
 13
486.51465387089559
 23
412.81155174567812
 33
0.0
  0
SOLID
  5
40FA
  8
WAKU
  6
CONTINUOUS
 10
484.82166687089563
 20
414.96539774567827
 30
0.0
 11
484.03773087089581
 21
412.81155174567812
 31
0.0
 12
485.11465387089561
 22
412.81155174567812
 32
0.0
 13
485.11465387089561
 23
412.81155174567812
 33
0.0
  0
LINE
  5
40FB
  8
WAKU
  6
CONTINUOUS
 10
484.03773087089502
 20
412.81155174567772
 30
0.0
 11
484.82166687089563
 21
414.96539774567742
 31
0.0
  0
LINE
  5
40FC
  8
WAKU
  6
CONTINUOUS
 10
484.03773087089502
 20
412.81155174567772
 30
0.0
 11
485.11465387089561
 21
412.81155174567772
 31
0.0
  0
LINE
  5
40FD
  8
WAKU
  6
CONTINUOUS
 10
486.51465387089462
 20
412.81155174567772
 30
0.0
 11
487.29858987089511
 21
414.96539774567742
 31
0.0
  0
LINE
  5
40FE
  8
WAKU
  6
CONTINUOUS
 10
486.22166687089509
 20
414.96539774567742
 30
0.0
 11
487.29858987089511
 21
414.96539774567742
 31
0.0
  0
SOLID
  5
40FF
  8
WAKU
  6
CONTINUOUS
 10
488.05243587089541
 20
414.96539774567827
 30
0.0
 11
486.68054887089568
 21
411.196167745678
 31
0.0
 12
487.16951987089539
 22
409.58078274567771
 32
0.0
 13
487.16951987089539
 23
409.58078274567771
 33
0.0
  0
LINE
  5
4100
  8
WAKU
  6
CONTINUOUS
 10
486.68054887089539
 20
411.1961677456776
 30
0.0
 11
488.05243587089512
 21
414.96539774567742
 31
0.0
  0
SOLID
  5
4101
  8
WAKU
  6
CONTINUOUS
 10
489.12935987089583
 20
414.96539774567827
 30
0.0
 11
488.05243587089541
 21
414.96539774567827
 31
0.0
 12
487.16951987089539
 22
409.58078274567771
 32
0.0
 13
487.16951987089539
 23
409.58078274567771
 33
0.0
  0
LINE
  5
4102
  8
WAKU
  6
CONTINUOUS
 10
487.16951987089539
 20
409.58078274567771
 30
0.0
 11
489.1293598708948
 21
414.96539774567742
 31
0.0
  0
SOLID
  5
4103
  8
WAKU
  6
CONTINUOUS
 10
482.17884987089508
 20
416.5807827456776
 30
0.0
 11
481.70848787089562
 21
415.28847474567817
 31
0.0
 12
482.78541087089548
 22
415.28847474567817
 32
0.0
 13
482.78541087089548
 23
415.28847474567817
 33
0.0
  0
SOLID
  5
4104
  8
WAKU
  6
CONTINUOUS
 10
481.70848787089562
 20
415.28847474567817
 30
0.0
 11
482.19745987089561
 21
413.67309074567771
 31
0.0
 12
483.00515187089542
 22
413.67309074567771
 32
0.0
 13
483.00515187089542
 23
413.67309074567771
 33
0.0
  0
LINE
  5
4105
  8
WAKU
  6
CONTINUOUS
 10
481.70848787089471
 20
415.28847474567772
 30
0.0
 11
482.17884987089508
 21
416.5807827456776
 31
0.0
  0
LINE
  5
4106
  8
WAKU
  6
CONTINUOUS
 10
482.19745987089539
 20
413.67309074567771
 30
0.0
 11
483.00515187089508
 21
413.67309074567771
 31
0.0
  0
LINE
  5
4107
  8
WAKU
  6
CONTINUOUS
 10
479.01618087089508
 20
415.28847474567772
 30
0.0
 11
479.48654187089539
 21
416.5807827456776
 31
0.0
  0
LINE
  5
4108
  8
WAKU
  6
CONTINUOUS
 10
478.40961887089509
 20
416.5807827456776
 30
0.0
 11
479.48654187089539
 21
416.5807827456776
 31
0.0
  0
SOLID
  5
4109
  8
WAKU
  6
CONTINUOUS
 10
481.12053587089508
 20
413.67309074567771
 30
0.0
 11
480.41499387089561
 21
411.73462874567758
 31
0.0
 12
480.70798087089571
 22
409.58078274567771
 32
0.0
 13
480.70798087089571
 23
409.58078274567771
 33
0.0
  0
LINE
  5
410A
  8
WAKU
  6
CONTINUOUS
 10
480.41499387089561
 20
411.73462874567758
 30
0.0
 11
481.12053587089503
 21
413.67309074567771
 31
0.0
  0
LINE
  5
410B
  8
WAKU
  6
CONTINUOUS
 10
478.42822887089523
 20
413.67309074567771
 30
0.0
 11
481.12053587089503
 21
413.67309074567771
 31
0.0
  0
SOLID
  5
410C
  8
WAKU
  6
CONTINUOUS
 10
482.19745987089561
 20
413.67309074567771
 30
0.0
 11
481.12053587089508
 21
413.67309074567771
 31
0.0
 12
480.70798087089571
 22
409.58078274567771
 32
0.0
 13
480.70798087089571
 23
409.58078274567771
 33
0.0
  0
LINE
  5
410D
  8
WAKU
  6
CONTINUOUS
 10
480.70798087089531
 20
409.58078274567771
 30
0.0
 11
482.19745987089539
 21
413.67309074567771
 31
0.0
  0
SOLID
  5
410E
  8
WAKU
  6
CONTINUOUS
 10
482.19745987089561
 20
413.67309074567771
 30
0.0
 11
481.70848787089562
 21
415.28847474567817
 31
0.0
 12
479.0161808708956
 22
415.28847474567817
 32
0.0
 13
479.0161808708956
 23
415.28847474567817
 33
0.0
  0
LINE
  5
410F
  8
WAKU
  6
CONTINUOUS
 10
479.01618087089508
 20
415.28847474567772
 30
0.0
 11
481.70848787089471
 21
415.28847474567772
 31
0.0
  0
LINE
  5
4110
  8
WAKU
  6
CONTINUOUS
 10
476.9593378708953
 20
412.59616774567769
 30
0.0
 11
477.3513058708956
 21
413.67309074567771
 31
0.0
  0
LINE
  5
4111
  8
WAKU
  6
CONTINUOUS
 10
476.9593378708953
 20
412.59616774567769
 30
0.0
 11
478.0362608708956
 21
412.59616774567769
 31
0.0
  0
LINE
  5
4112
  8
WAKU
  6
CONTINUOUS
 10
475.64644287089448
 20
409.58078274567771
 30
0.0
 11
476.43037887089508
 21
411.73462874567758
 31
0.0
  0
LINE
  5
4113
  8
WAKU
  6
CONTINUOUS
 10
476.543612870895
 20
413.67309074567771
 30
0.0
 11
477.3513058708956
 21
413.67309074567771
 31
0.0
  0
LINE
  5
4114
  8
WAKU
  6
CONTINUOUS
 10
477.1315648708956
 20
415.28847474567772
 30
0.0
 11
477.93925787089472
 21
415.28847474567772
 31
0.0
  0
LINE
  5
4115
  8
WAKU
  6
CONTINUOUS
 10
476.543612870895
 20
413.67309074567771
 30
0.0
 11
477.1315648708956
 21
415.28847474567772
 31
0.0
  0
LINE
  5
4116
  8
WAKU
  6
CONTINUOUS
 10
475.62862387089513
 20
414.85770574567772
 30
0.0
 11
476.2557728708951
 21
416.5807827456776
 31
0.0
  0
LINE
  5
4117
  8
WAKU
  6
CONTINUOUS
 10
473.70798087089503
 20
409.58078274567771
 30
0.0
 11
474.49191687089473
 21
411.73462874567758
 31
0.0
  0
SOLID
  5
4118
  8
WAKU
  6
CONTINUOUS
 10
477.13156487089577
 20
415.28847474567817
 30
0.0
 11
476.54361287089557
 21
413.67309074567771
 31
0.0
 12
479.0161808708956
 22
415.28847474567817
 32
0.0
 13
479.0161808708956
 23
415.28847474567817
 33
0.0
  0
LINE
  5
4119
  8
WAKU
  6
CONTINUOUS
 10
477.93925787089472
 20
415.28847474567772
 30
0.0
 11
478.40961887089509
 21
416.5807827456776
 31
0.0
  0
SOLID
  5
411A
  8
WAKU
  6
CONTINUOUS
 10
479.48654187089539
 20
416.5807827456776
 30
0.0
 11
477.93925787089591
 21
415.28847474567817
 31
0.0
 12
479.0161808708956
 22
415.28847474567817
 32
0.0
 13
479.0161808708956
 23
415.28847474567817
 33
0.0
  0
SOLID
  5
411B
  8
WAKU
  6
CONTINUOUS
 10
477.93925787089591
 20
415.28847474567817
 30
0.0
 11
479.48654187089539
 21
416.5807827456776
 31
0.0
 12
478.40961887089583
 22
416.5807827456776
 32
0.0
 13
478.40961887089583
 23
416.5807827456776
 33
0.0
  0
SOLID
  5
411C
  8
WAKU
  6
CONTINUOUS
 10
480.70798087089571
 20
409.58078274567771
 30
0.0
 11
480.41499387089561
 21
411.73462874567758
 31
0.0
 12
476.43037887089599
 22
411.73462874567758
 32
0.0
 13
476.43037887089599
 23
411.73462874567758
 33
0.0
  0
SOLID
  5
411D
  8
WAKU
  6
CONTINUOUS
 10
476.43037887089599
 20
411.73462874567758
 30
0.0
 11
475.64644287089561
 21
409.58078274567771
 31
0.0
 12
480.70798087089571
 22
409.58078274567771
 32
0.0
 13
480.70798087089571
 23
409.58078274567771
 33
0.0
  0
LINE
  5
411E
  8
WAKU
  6
CONTINUOUS
 10
475.64644287089448
 20
409.58078274567771
 30
0.0
 11
480.70798087089531
 21
409.58078274567771
 31
0.0
  0
SOLID
  5
411F
  8
WAKU
  6
CONTINUOUS
 10
476.54361287089557
 20
413.67309074567771
 30
0.0
 11
478.42822887089568
 21
413.67309074567771
 31
0.0
 12
481.12053587089508
 22
413.67309074567771
 32
0.0
 13
481.12053587089508
 23
413.67309074567771
 33
0.0
  0
SOLID
  5
4120
  8
WAKU
  6
CONTINUOUS
 10
479.0161808708956
 20
415.28847474567817
 30
0.0
 11
476.54361287089557
 21
413.67309074567771
 31
0.0
 12
482.19745987089561
 22
413.67309074567771
 32
0.0
 13
482.19745987089561
 23
413.67309074567771
 33
0.0
  0
SOLID
  5
4121
  8
WAKU
  6
CONTINUOUS
 10
482.19745987089561
 20
413.67309074567771
 30
0.0
 11
476.54361287089557
 21
413.67309074567771
 31
0.0
 12
481.12053587089508
 22
413.67309074567771
 32
0.0
 13
481.12053587089508
 23
413.67309074567771
 33
0.0
  0
SOLID
  5
4122
  8
WAKU
  6
CONTINUOUS
 10
477.3513058708956
 20
413.67309074567771
 30
0.0
 11
476.9593378708953
 21
412.5961677456782
 31
0.0
 12
478.42822887089568
 22
413.67309074567771
 32
0.0
 13
478.42822887089568
 23
413.67309074567771
 33
0.0
  0
SOLID
  5
4123
  8
WAKU
  6
CONTINUOUS
 10
478.42822887089568
 20
413.67309074567771
 30
0.0
 11
476.9593378708953
 21
412.5961677456782
 31
0.0
 12
478.0362608708956
 22
412.5961677456782
 32
0.0
 13
478.0362608708956
 23
412.5961677456782
 33
0.0
  0
LINE
  5
4124
  8
WAKU
  6
CONTINUOUS
 10
478.0362608708956
 20
412.59616774567769
 30
0.0
 11
478.42822887089523
 21
413.67309074567771
 31
0.0
  0
LINE
  5
4125
  8
WAKU
  6
CONTINUOUS
 10
476.43037887089508
 20
411.73462874567758
 30
0.0
 11
480.41499387089561
 21
411.73462874567758
 31
0.0
  0
SOLID
  5
4126
  8
WAKU
  6
CONTINUOUS
 10
476.54361287089557
 20
413.67309074567771
 30
0.0
 11
477.3513058708956
 21
413.67309074567771
 31
0.0
 12
478.42822887089568
 22
413.67309074567771
 32
0.0
 13
478.42822887089568
 23
413.67309074567771
 33
0.0
  0
SOLID
  5
4127
  8
WAKU
  6
CONTINUOUS
 10
479.0161808708956
 20
415.28847474567817
 30
0.0
 11
477.93925787089591
 21
415.28847474567817
 31
0.0
 12
477.13156487089577
 22
415.28847474567817
 32
0.0
 13
477.13156487089577
 23
415.28847474567817
 33
0.0
  0
SOLID
  5
4128
  8
WAKU
  6
CONTINUOUS
 10
483.44977887089561
 20
411.196167745678
 30
0.0
 11
482.86182787089592
 21
409.58078274567771
 31
0.0
 12
487.16951987089539
 22
409.58078274567771
 32
0.0
 13
487.16951987089539
 23
409.58078274567771
 33
0.0
  0
LINE
  5
4129
  8
WAKU
  6
CONTINUOUS
 10
482.86182787089592
 20
409.58078274567771
 30
0.0
 11
487.16951987089539
 21
409.58078274567771
 31
0.0
  0
SOLID
  5
412A
  8
WAKU
  6
CONTINUOUS
 10
482.78541087089548
 20
415.28847474567817
 30
0.0
 11
481.70848787089562
 21
415.28847474567817
 31
0.0
 12
483.59310387089562
 22
415.28847474567817
 32
0.0
 13
483.59310387089562
 23
415.28847474567817
 33
0.0
  0
SOLID
  5
412B
  8
WAKU
  6
CONTINUOUS
 10
483.59310387089562
 20
415.28847474567817
 30
0.0
 11
481.70848787089562
 21
415.28847474567817
 31
0.0
 12
483.00515187089542
 22
413.67309074567771
 32
0.0
 13
483.00515187089542
 23
413.67309074567771
 33
0.0
  0
LINE
  5
412C
  8
WAKU
  6
CONTINUOUS
 10
482.86182787089592
 20
409.58078274567771
 30
0.0
 11
483.4497788708951
 21
411.1961677456776
 31
0.0
  0
SOLID
  5
412D
  8
WAKU
  6
CONTINUOUS
 10
483.25577287089538
 20
416.5807827456776
 30
0.0
 11
482.17884987089508
 21
416.5807827456776
 31
0.0
 12
482.78541087089548
 22
415.28847474567817
 32
0.0
 13
482.78541087089548
 23
415.28847474567817
 33
0.0
  0
LINE
  5
412E
  8
WAKU
  6
CONTINUOUS
 10
482.17884987089508
 20
416.5807827456776
 30
0.0
 11
483.25577287089448
 21
416.5807827456776
 31
0.0
  0
LINE
  5
412F
  8
WAKU
  6
CONTINUOUS
 10
482.78541087089548
 20
415.28847474567772
 30
0.0
 11
483.25577287089448
 21
416.5807827456776
 31
0.0
  0
LINE
  5
4130
  8
WAKU
  6
CONTINUOUS
 10
482.78541087089548
 20
415.28847474567772
 30
0.0
 11
483.59310387089562
 21
415.28847474567772
 31
0.0
  0
LINE
  5
4131
  8
WAKU
  6
CONTINUOUS
 10
483.00515187089508
 20
413.67309074567771
 30
0.0
 11
483.59310387089562
 21
415.28847474567772
 31
0.0
  0
LINE
  5
4132
  8
WAKU
  6
CONTINUOUS
 10
470.2440088708953
 20
414.85770574567772
 30
0.0
 11
470.87115787089562
 21
416.5807827456776
 31
0.0
  0
LINE
  5
4133
  8
WAKU
  6
CONTINUOUS
 10
468.3233658708956
 20
409.58078274567771
 30
0.0
 11
469.10730187089513
 21
411.73462874567758
 31
0.0
  0
LINE
  5
4134
  8
WAKU
  6
CONTINUOUS
 10
469.5788498708954
 20
416.5807827456776
 30
0.0
 11
468.95170087089451
 21
414.85770574567772
 31
0.0
  0
LINE
  5
4135
  8
WAKU
  6
CONTINUOUS
 10
466.78062387089511
 20
414.85770574567772
 30
0.0
 11
468.01097787089509
 21
412.27309074567768
 31
0.0
  0
LINE
  5
4136
  8
WAKU
  6
CONTINUOUS
 10
467.0310578708951
 20
409.58078274567771
 30
0.0
 11
468.01097787089509
 21
412.27309074567768
 31
0.0
  0
SOLID
  5
4137
  8
WAKU
  6
CONTINUOUS
 10
465.74943987089569
 20
412.27309074567802
 30
0.0
 11
464.65291787089558
 21
412.219244745678
 31
0.0
 12
464.76951987089518
 22
409.58078274567771
 32
0.0
 13
464.76951987089518
 23
409.58078274567771
 33
0.0
  0
LINE
  5
4138
  8
WAKU
  6
CONTINUOUS
 10
464.76951987089518
 20
409.58078274567771
 30
0.0
 11
465.74943987089512
 21
412.27309074567768
 31
0.0
  0
SOLID
  5
4139
  8
WAKU
  6
CONTINUOUS
 10
464.65291787089558
 20
412.219244745678
 30
0.0
 11
463.69259687089561
 21
409.58078274567771
 31
0.0
 12
464.76951987089518
 22
409.58078274567771
 32
0.0
 13
464.76951987089518
 23
409.58078274567771
 33
0.0
  0
LINE
  5
413A
  8
WAKU
  6
CONTINUOUS
 10
463.69259687089561
 20
409.58078274567771
 30
0.0
 11
464.65291787089512
 21
412.219244745678
 31
0.0
  0
LINE
  5
413B
  8
WAKU
  6
CONTINUOUS
 10
463.69259687089561
 20
409.58078274567771
 30
0.0
 11
464.76951987089518
 21
409.58078274567771
 31
0.0
  0
SOLID
  5
413C
  8
WAKU
  6
CONTINUOUS
 10
466.78062387089511
 20
414.857705745678
 30
0.0
 11
465.56708587089571
 21
414.857705745678
 31
0.0
 12
465.74943987089569
 22
412.27309074567802
 32
0.0
 13
465.74943987089569
 23
412.27309074567802
 33
0.0
  0
LINE
  5
413D
  8
WAKU
  6
CONTINUOUS
 10
465.74943987089512
 20
412.27309074567768
 30
0.0
 11
467.0310578708951
 21
409.58078274567771
 31
0.0
  0
SOLID
  5
413E
  8
WAKU
  6
CONTINUOUS
 10
466.78062387089511
 20
414.857705745678
 30
0.0
 11
465.74943987089569
 21
412.27309074567802
 31
0.0
 12
468.01097787089537
 22
412.27309074567802
 32
0.0
 13
468.01097787089537
 23
412.27309074567802
 33
0.0
  0
SOLID
  5
413F
  8
WAKU
  6
CONTINUOUS
 10
465.74943987089569
 20
412.27309074567802
 30
0.0
 11
467.03105787089561
 21
409.58078274567771
 31
0.0
 12
468.01097787089537
 22
412.27309074567802
 32
0.0
 13
468.01097787089537
 23
412.27309074567802
 33
0.0
  0
LINE
  5
4140
  8
WAKU
  6
CONTINUOUS
 10
463.351700870895
 20
414.85770574567772
 30
0.0
 11
465.56708587089503
 21
414.85770574567772
 31
0.0
  0
LINE
  5
4141
  8
WAKU
  6
CONTINUOUS
 10
463.97884987089509
 20
416.5807827456776
 30
0.0
 11
463.351700870895
 21
414.85770574567772
 31
0.0
  0
SOLID
  5
4142
  8
WAKU
  6
CONTINUOUS
 10
463.97884987089571
 20
416.5807827456776
 30
0.0
 11
463.35170087089563
 21
414.857705745678
 31
0.0
 12
466.78062387089511
 22
414.857705745678
 32
0.0
 13
466.78062387089511
 23
414.857705745678
 33
0.0
  0
SOLID
  5
4143
  8
WAKU
  6
CONTINUOUS
 10
466.78062387089511
 20
414.857705745678
 30
0.0
 11
463.35170087089563
 21
414.857705745678
 31
0.0
 12
465.56708587089571
 22
414.857705745678
 32
0.0
 13
465.56708587089571
 23
414.857705745678
 33
0.0
  0
LINE
  5
4144
  8
WAKU
  6
CONTINUOUS
 10
466.78062387089511
 20
414.85770574567772
 30
0.0
 11
468.95170087089451
 21
414.85770574567772
 31
0.0
  0
SOLID
  5
4145
  8
WAKU
  6
CONTINUOUS
 10
469.57884987089562
 20
416.5807827456776
 30
0.0
 11
463.97884987089571
 21
416.5807827456776
 31
0.0
 12
468.95170087089531
 22
414.857705745678
 32
0.0
 13
468.95170087089531
 23
414.857705745678
 33
0.0
  0
SOLID
  5
4146
  8
WAKU
  6
CONTINUOUS
 10
463.97884987089571
 20
416.5807827456776
 30
0.0
 11
466.78062387089511
 21
414.857705745678
 31
0.0
 12
468.95170087089531
 22
414.857705745678
 32
0.0
 13
468.95170087089531
 23
414.857705745678
 33
0.0
  0
LINE
  5
4147
  8
WAKU
  6
CONTINUOUS
 10
463.97884987089509
 20
416.5807827456776
 30
0.0
 11
469.5788498708954
 21
416.5807827456776
 31
0.0
  0
LINE
  5
4148
  8
WAKU
  6
CONTINUOUS
 10
461.4310578708953
 20
409.58078274567771
 30
0.0
 11
462.41097787089518
 21
412.27309074567768
 31
0.0
  0
LINE
  5
4149
  8
WAKU
  6
CONTINUOUS
 10
459.15061587089508
 20
412.86447574567819
 30
0.0
 11
459.4125048708953
 21
413.36581274567772
 31
0.0
  0
SOLID
  5
414A
  8
WAKU
  6
CONTINUOUS
 10
460.20659987089562
 20
413.67707174567829
 30
0.0
 11
459.81213387089548
 21
413.6506467456777
 31
0.0
 12
460.12175687089558
 22
413.24691674567799
 32
0.0
 13
460.12175687089558
 23
413.24691674567799
 33
0.0
  0
SOLID
  5
414B
  8
WAKU
  6
CONTINUOUS
 10
459.81213387089548
 20
413.6506467456777
 30
0.0
 11
459.71648287089539
 21
413.25503074567729
 31
0.0
 12
460.12175687089558
 22
413.24691674567799
 32
0.0
 13
460.12175687089558
 23
413.24691674567799
 33
0.0
  0
LINE
  5
414C
  8
WAKU
  6
CONTINUOUS
 10
460.12175687089518
 20
413.24691674567748
 30
0.0
 11
460.20659987089562
 21
413.67707174567721
 31
0.0
  0
LINE
  5
414D
  8
WAKU
  6
CONTINUOUS
 10
459.71648287089539
 20
413.25503074567729
 30
0.0
 11
459.81213387089508
 21
413.6506467456768
 31
0.0
  0
SOLID
  5
414E
  8
WAKU
  6
CONTINUOUS
 10
459.71648287089539
 20
413.25503074567729
 30
0.0
 11
459.52427987089561
 21
412.80006074567802
 31
0.0
 12
460.12175687089558
 22
413.24691674567799
 32
0.0
 13
460.12175687089558
 23
413.24691674567799
 33
0.0
  0
SOLID
  5
414F
  8
WAKU
  6
CONTINUOUS
 10
460.12175687089558
 20
413.24691674567799
 30
0.0
 11
459.52427987089561
 21
412.80006074567802
 31
0.0
 12
459.94527587089561
 22
412.7776107456782
 32
0.0
 13
459.94527587089561
 23
412.7776107456782
 33
0.0
  0
LINE
  5
4150
  8
WAKU
  6
CONTINUOUS
 10
459.6836378708951
 20
412.28639174567741
 30
0.0
 11
459.9452758708947
 21
412.77761074567741
 31
0.0
  0
LINE
  5
4151
  8
WAKU
  6
CONTINUOUS
 10
459.9452758708947
 20
412.77761074567741
 30
0.0
 11
460.12175687089518
 21
413.24691674567748
 31
0.0
  0
LINE
  5
4152
  8
WAKU
  6
CONTINUOUS
 10
459.52427987089447
 20
412.80006074567802
 30
0.0
 11
459.71648287089539
 21
413.25503074567729
 31
0.0
  0
LINE
  5
4153
  8
WAKU
  6
CONTINUOUS
 10
458.94610787089471
 20
411.31052674567741
 30
0.0
 11
459.34645387089557
 21
411.79130274567768
 31
0.0
  0
SOLID
  5
4154
  8
WAKU
  6
CONTINUOUS
 10
459.52427987089561
 20
412.80006074567802
 30
0.0
 11
459.24082287089561
 21
412.31450074567812
 31
0.0
 12
459.94527587089561
 22
412.7776107456782
 32
0.0
 13
459.94527587089561
 23
412.7776107456782
 33
0.0
  0
SOLID
  5
4155
  8
WAKU
  6
CONTINUOUS
 10
459.94527587089561
 20
412.7776107456782
 30
0.0
 11
459.24082287089561
 21
412.31450074567812
 31
0.0
 12
459.68363787089561
 22
412.28639174567809
 32
0.0
 13
459.68363787089561
 23
412.28639174567809
 33
0.0
  0
LINE
  5
4156
  8
WAKU
  6
CONTINUOUS
 10
459.34645387089557
 20
411.79130274567768
 30
0.0
 11
459.6836378708951
 21
412.28639174567741
 31
0.0
  0
LINE
  5
4157
  8
WAKU
  6
CONTINUOUS
 10
459.24082287089561
 20
412.31450074567812
 30
0.0
 11
459.52427987089447
 21
412.80006074567802
 31
0.0
  0
SOLID
  5
4158
  8
WAKU
  6
CONTINUOUS
 10
460.09238487089573
 20
414.35874974567793
 30
0.0
 11
459.66058287089538
 21
414.27703174567802
 31
0.0
 12
460.19668787089557
 22
414.05227574567829
 32
0.0
 13
460.19668787089557
 23
414.05227574567829
 33
0.0
  0
SOLID
  5
4159
  8
WAKU
  6
CONTINUOUS
 10
459.66058287089538
 20
414.27703174567802
 30
0.0
 11
459.75872387089561
 21
414.15870074567817
 31
0.0
 12
460.19668787089557
 22
414.05227574567829
 32
0.0
 13
460.19668787089557
 23
414.05227574567829
 33
0.0
  0
SOLID
  5
415A
  8
WAKU
  6
CONTINUOUS
 10
459.75872387089561
 20
414.15870074567817
 30
0.0
 11
459.81757487089561
 21
413.95803574567771
 31
0.0
 12
460.19668787089557
 22
414.05227574567829
 32
0.0
 13
460.19668787089557
 23
414.05227574567829
 33
0.0
  0
SOLID
  5
415B
  8
WAKU
  6
CONTINUOUS
 10
460.19668787089557
 20
414.05227574567829
 30
0.0
 11
459.81757487089561
 21
413.95803574567771
 31
0.0
 12
460.20659987089562
 22
413.67707174567829
 32
0.0
 13
460.20659987089562
 23
413.67707174567829
 33
0.0
  0
SOLID
  5
415C
  8
WAKU
  6
CONTINUOUS
 10
459.81757487089561
 20
413.95803574567771
 30
0.0
 11
459.81213387089548
 21
413.6506467456777
 31
0.0
 12
460.20659987089562
 22
413.67707174567829
 32
0.0
 13
460.20659987089562
 23
413.67707174567829
 33
0.0
  0
LINE
  5
415D
  8
WAKU
  6
CONTINUOUS
 10
460.0923848708947
 20
414.35874974567793
 30
0.0
 11
459.89752187089562
 21
414.5852347456775
 31
0.0
  0
LINE
  5
415E
  8
WAKU
  6
CONTINUOUS
 10
460.20659987089562
 20
413.67707174567721
 30
0.0
 11
460.19668787089512
 21
414.05227574567772
 31
0.0
  0
LINE
  5
415F
  8
WAKU
  6
CONTINUOUS
 10
460.19668787089512
 20
414.05227574567772
 30
0.0
 11
460.0923848708947
 21
414.35874974567793
 31
0.0
  0
LINE
  5
4160
  8
WAKU
  6
CONTINUOUS
 10
459.81213387089508
 20
413.6506467456768
 30
0.0
 11
459.81757487089442
 21
413.95803574567771
 31
0.0
  0
LINE
  5
4161
  8
WAKU
  6
CONTINUOUS
 10
459.81757487089442
 20
413.95803574567771
 30
0.0
 11
459.75872387089441
 21
414.15870074567761
 31
0.0
  0
LINE
  5
4162
  8
WAKU
  6
CONTINUOUS
 10
459.75872387089441
 20
414.15870074567761
 30
0.0
 11
459.66058287089442
 21
414.27703174567802
 31
0.0
  0
LINE
  5
4163
  8
WAKU
  6
CONTINUOUS
 10
459.58469787089513
 20
413.84276974567751
 30
0.0
 11
459.66058287089442
 21
414.27703174567802
 31
0.0
  0
LINE
  5
4164
  8
WAKU
  6
CONTINUOUS
 10
459.89752187089562
 20
414.5852347456775
 30
0.0
 11
459.61925687089439
 21
414.72341274567742
 31
0.0
  0
LINE
  5
4165
  8
WAKU
  6
CONTINUOUS
 10
459.61925687089439
 20
414.72341274567742
 30
0.0
 11
459.48107887089532
 21
415.00167774567768
 31
0.0
  0
LINE
  5
4166
  8
WAKU
  6
CONTINUOUS
 10
459.18784387089522
 20
413.87118474567728
 30
0.0
 11
459.27500187089453
 21
414.37935174567758
 31
0.0
  0
LINE
  5
4167
  8
WAKU
  6
CONTINUOUS
 10
459.17271387089539
 20
414.76472674567748
 30
0.0
 11
459.0549208708951
 21
414.8627117456777
 31
0.0
  0
LINE
  5
4168
  8
WAKU
  6
CONTINUOUS
 10
459.25459387089558
 20
415.1965397456778
 30
0.0
 11
458.94812087089502
 21
415.30084274567793
 31
0.0
  0
SOLID
  5
4169
  8
WAKU
  6
CONTINUOUS
 10
459.05492087089539
 20
414.8627117456777
 30
0.0
 11
459.17271387089539
 21
414.76472674567799
 31
0.0
 12
459.61925687089558
 22
414.72341274567742
 32
0.0
 13
459.61925687089558
 23
414.72341274567742
 33
0.0
  0
SOLID
  5
416A
  8
WAKU
  6
CONTINUOUS
 10
459.89752187089562
 20
414.58523474567818
 30
0.0
 11
459.27500187089538
 21
414.37935174567758
 31
0.0
 12
460.09238487089573
 22
414.35874974567793
 32
0.0
 13
460.09238487089573
 23
414.35874974567793
 33
0.0
  0
SOLID
  5
416B
  8
WAKU
  6
CONTINUOUS
 10
459.27500187089538
 20
414.37935174567758
 30
0.0
 11
459.18784387089562
 21
413.87118474567808
 31
0.0
 12
459.66058287089538
 22
414.27703174567802
 32
0.0
 13
459.66058287089538
 23
414.27703174567802
 33
0.0
  0
SOLID
  5
416C
  8
WAKU
  6
CONTINUOUS
 10
459.27500187089538
 20
414.37935174567758
 30
0.0
 11
459.66058287089538
 21
414.27703174567802
 31
0.0
 12
460.09238487089573
 22
414.35874974567793
 32
0.0
 13
460.09238487089573
 23
414.35874974567793
 33
0.0
  0
SOLID
  5
416D
  8
WAKU
  6
CONTINUOUS
 10
459.66058287089538
 20
414.27703174567802
 30
0.0
 11
459.18784387089562
 21
413.87118474567808
 31
0.0
 12
459.5846978708957
 22
413.84276974567808
 32
0.0
 13
459.5846978708957
 23
413.84276974567808
 33
0.0
  0
LINE
  5
416E
  8
WAKU
  6
CONTINUOUS
 10
459.48107887089532
 20
415.00167774567768
 30
0.0
 11
459.25459387089558
 21
415.1965397456778
 31
0.0
  0
LINE
  5
416F
  8
WAKU
  6
CONTINUOUS
 10
459.4125048708953
 20
413.36581274567772
 30
0.0
 11
459.58469787089513
 21
413.84276974567751
 31
0.0
  0
LINE
  5
4170
  8
WAKU
  6
CONTINUOUS
 10
458.73840887089511
 20
414.68879674567768
 30
0.0
 11
458.26141187089507
 21
414.51655074567719
 31
0.0
  0
LINE
  5
4171
  8
WAKU
  6
CONTINUOUS
 10
458.40103887089452
 20
411.86587174567728
 30
0.0
 11
458.80908887089561
 21
412.35801174567769
 31
0.0
  0
LINE
  5
4172
  8
WAKU
  6
CONTINUOUS
 10
458.47601087089453
 20
412.56270274567771
 30
0.0
 11
458.91712587089501
 21
413.240316745678
 31
0.0
  0
LINE
  5
4173
  8
WAKU
  6
CONTINUOUS
 10
458.85376887089512
 20
414.92168474567728
 30
0.0
 11
458.54662987089472
 21
414.91636374567759
 31
0.0
  0
SOLID
  5
4174
  8
WAKU
  6
CONTINUOUS
 10
458.73840887089563
 20
414.68879674567802
 30
0.0
 11
458.26141187089547
 21
414.5165507456777
 31
0.0
 12
459.89752187089562
 22
414.58523474567818
 32
0.0
 13
459.89752187089562
 23
414.58523474567818
 33
0.0
  0
SOLID
  5
4175
  8
WAKU
  6
CONTINUOUS
 10
459.89752187089562
 20
414.58523474567818
 30
0.0
 11
458.26141187089547
 21
414.5165507456777
 31
0.0
 12
459.27500187089538
 22
414.37935174567758
 32
0.0
 13
459.27500187089538
 23
414.37935174567758
 33
0.0
  0
SOLID
  5
4176
  8
WAKU
  6
CONTINUOUS
 10
459.4125048708953
 20
413.36581274567772
 30
0.0
 11
458.91712587089592
 21
413.240316745678
 31
0.0
 12
459.15061587089508
 22
412.86447574567819
 32
0.0
 13
459.15061587089508
 23
412.86447574567819
 33
0.0
  0
SOLID
  5
4177
  8
WAKU
  6
CONTINUOUS
 10
459.18784387089562
 20
413.87118474567808
 30
0.0
 11
458.91712587089592
 21
413.240316745678
 31
0.0
 12
459.5846978708957
 22
413.84276974567808
 32
0.0
 13
459.5846978708957
 23
413.84276974567808
 33
0.0
  0
SOLID
  5
4178
  8
WAKU
  6
CONTINUOUS
 10
459.5846978708957
 20
413.84276974567808
 30
0.0
 11
458.91712587089592
 21
413.240316745678
 31
0.0
 12
459.4125048708953
 22
413.36581274567772
 32
0.0
 13
459.4125048708953
 23
413.36581274567772
 33
0.0
  0
LINE
  5
4179
  8
WAKU
  6
CONTINUOUS
 10
458.91712587089501
 20
413.240316745678
 30
0.0
 11
459.18784387089522
 21
413.87118474567728
 31
0.0
  0
SOLID
  5
417A
  8
WAKU
  6
CONTINUOUS
 10
458.91712587089592
 20
413.240316745678
 30
0.0
 11
458.47601087089538
 21
412.56270274567771
 31
0.0
 12
459.15061587089508
 22
412.86447574567819
 32
0.0
 13
459.15061587089508
 23
412.86447574567819
 33
0.0
  0
SOLID
  5
417B
  8
WAKU
  6
CONTINUOUS
 10
459.15061587089508
 20
412.86447574567819
 30
0.0
 11
458.47601087089538
 21
412.56270274567771
 31
0.0
 12
458.80908887089561
 22
412.35801174567769
 32
0.0
 13
458.80908887089561
 23
412.35801174567769
 33
0.0
  0
SOLID
  5
417C
  8
WAKU
  6
CONTINUOUS
 10
459.34645387089557
 20
411.79130274567802
 30
0.0
 11
458.45173787089561
 21
411.35601474567773
 31
0.0
 12
458.94610787089562
 22
411.3105267456782
 32
0.0
 13
458.94610787089562
 23
411.3105267456782
 33
0.0
  0
LINE
  5
417D
  8
WAKU
  6
CONTINUOUS
 10
458.45173787089448
 20
411.35601474567773
 30
0.0
 11
459.24082287089561
 21
412.31450074567812
 31
0.0
  0
LINE
  5
417E
  8
WAKU
  6
CONTINUOUS
 10
458.49730487089522
 20
410.8617237456773
 30
0.0
 11
458.94610787089471
 21
411.31052674567741
 31
0.0
  0
LINE
  5
417F
  8
WAKU
  6
CONTINUOUS
 10
458.80908887089561
 20
412.35801174567769
 30
0.0
 11
459.15061587089508
 21
412.86447574567819
 31
0.0
  0
SOLID
  5
4180
  8
WAKU
  6
CONTINUOUS
 10
459.24082287089561
 20
412.31450074567812
 30
0.0
 11
458.45173787089561
 21
411.35601474567773
 31
0.0
 12
459.68363787089561
 22
412.28639174567809
 32
0.0
 13
459.68363787089561
 23
412.28639174567809
 33
0.0
  0
SOLID
  5
4181
  8
WAKU
  6
CONTINUOUS
 10
459.68363787089561
 20
412.28639174567809
 30
0.0
 11
458.45173787089561
 21
411.35601474567773
 31
0.0
 12
459.34645387089557
 22
411.79130274567802
 32
0.0
 13
459.34645387089557
 23
411.79130274567802
 33
0.0
  0
LINE
  5
4182
  8
WAKU
  6
CONTINUOUS
 10
459.27500187089453
 20
414.37935174567758
 30
0.0
 11
458.76651087089539
 21
414.2920227456778
 31
0.0
  0
LINE
  5
4183
  8
WAKU
  6
CONTINUOUS
 10
459.17271387089539
 20
414.76472674567748
 30
0.0
 11
458.73840887089511
 21
414.68879674567768
 31
0.0
  0
LINE
  5
4184
  8
WAKU
  6
CONTINUOUS
 10
459.0549208708951
 20
414.8627117456777
 30
0.0
 11
458.85376887089512
 21
414.92168474567728
 31
0.0
  0
LINE
  5
4185
  8
WAKU
  6
CONTINUOUS
 10
458.94812087089502
 20
415.30084274567793
 30
0.0
 11
458.57291587089509
 21
415.3107547456778
 31
0.0
  0
SOLID
  5
4186
  8
WAKU
  6
CONTINUOUS
 10
459.48107887089571
 20
415.00167774567819
 30
0.0
 11
458.85376887089592
 21
414.92168474567819
 31
0.0
 12
459.61925687089558
 22
414.72341274567742
 32
0.0
 13
459.61925687089558
 23
414.72341274567742
 33
0.0
  0
SOLID
  5
4187
  8
WAKU
  6
CONTINUOUS
 10
458.85376887089592
 20
414.92168474567819
 30
0.0
 11
459.05492087089539
 21
414.8627117456777
 31
0.0
 12
459.61925687089558
 22
414.72341274567742
 32
0.0
 13
459.61925687089558
 23
414.72341274567742
 33
0.0
  0
SOLID
  5
4188
  8
WAKU
  6
CONTINUOUS
 10
459.17271387089539
 20
414.76472674567799
 30
0.0
 11
458.73840887089563
 21
414.68879674567802
 31
0.0
 12
459.61925687089558
 22
414.72341274567742
 32
0.0
 13
459.61925687089558
 23
414.72341274567742
 33
0.0
  0
SOLID
  5
4189
  8
WAKU
  6
CONTINUOUS
 10
459.61925687089558
 20
414.72341274567742
 30
0.0
 11
458.73840887089563
 21
414.68879674567802
 31
0.0
 12
459.89752187089562
 22
414.58523474567818
 32
0.0
 13
459.89752187089562
 23
414.58523474567818
 33
0.0
  0
SOLID
  5
418A
  8
WAKU
  6
CONTINUOUS
 10
455.75756787089563
 20
413.60145974567752
 30
0.0
 11
455.35722187089539
 21
413.12068374567798
 31
0.0
 12
456.25187087089569
 22
413.55589074567808
 32
0.0
 13
456.25187087089569
 23
413.55589074567808
 33
0.0
  0
SOLID
  5
418B
  8
WAKU
  6
CONTINUOUS
 10
456.25187087089569
 20
413.55589074567808
 30
0.0
 11
455.35722187089539
 21
413.12068374567798
 31
0.0
 12
455.46280787089557
 22
412.59735274567771
 32
0.0
 13
455.46280787089557
 23
412.59735274567771
 33
0.0
  0
LINE
  5
418C
  8
WAKU
  6
CONTINUOUS
 10
456.25187087089512
 20
413.55589074567729
 30
0.0
 11
455.46280787089472
 21
412.59735274567771
 31
0.0
  0
SOLID
  5
418D
  8
WAKU
  6
CONTINUOUS
 10
456.30249287089578
 20
413.0459567456781
 30
0.0
 11
455.89444387089588
 21
412.55378274567772
 31
0.0
 12
456.80159987089559
 22
413.00567574567771
 32
0.0
 13
456.80159987089559
 23
413.00567574567771
 33
0.0
  0
SOLID
  5
418E
  8
WAKU
  6
CONTINUOUS
 10
456.80159987089559
 20
413.00567574567771
 30
0.0
 11
455.89444387089588
 21
412.55378274567772
 31
0.0
 12
456.2276688708958
 22
412.34925374567808
 32
0.0
 13
456.2276688708958
 23
412.34925374567808
 33
0.0
  0
SOLID
  5
418F
  8
WAKU
  6
CONTINUOUS
 10
455.89444387089588
 20
412.55378274567772
 30
0.0
 11
455.5529288708957
 21
412.0472917456778
 31
0.0
 12
456.2276688708958
 22
412.34925374567808
 32
0.0
 13
456.2276688708958
 23
412.34925374567808
 33
0.0
  0
SOLID
  5
4190
  8
WAKU
  6
CONTINUOUS
 10
456.2276688708958
 20
412.34925374567808
 30
0.0
 11
455.5529288708957
 21
412.0472917456778
 31
0.0
 12
455.78648487089538
 22
411.67165774567809
 32
0.0
 13
455.78648487089538
 23
411.67165774567809
 33
0.0
  0
SOLID
  5
4191
  8
WAKU
  6
CONTINUOUS
 10
456.56803587089581
 20
410.8911147456771
 30
0.0
 11
455.93716787089568
 21
410.61997774567772
 31
0.0
 12
456.94354287089539
 22
410.65732774567817
 32
0.0
 13
456.94354287089539
 23
410.65732774567817
 33
0.0
  0
SOLID
  5
4192
  8
WAKU
  6
CONTINUOUS
 10
456.94354287089539
 20
410.65732774567817
 30
0.0
 11
455.93716787089568
 21
410.61997774567772
 31
0.0
 12
456.4422008708957
 22
410.3954077456782
 32
0.0
 13
456.4422008708957
 23
410.3954077456782
 33
0.0
  0
SOLID
  5
4193
  8
WAKU
  6
CONTINUOUS
 10
455.93716787089568
 20
410.61997774567772
 30
0.0
 11
455.42868387089538
 21
410.53263874567813
 31
0.0
 12
456.4422008708957
 22
410.3954077456782
 32
0.0
 13
456.4422008708957
 23
410.3954077456782
 33
0.0
  0
SOLID
  5
4194
  8
WAKU
  6
CONTINUOUS
 10
455.42868387089538
 20
410.53263874567813
 30
0.0
 11
454.80615387089563
 21
410.32675174567822
 31
0.0
 12
456.4422008708957
 22
410.3954077456782
 32
0.0
 13
456.4422008708957
 23
410.3954077456782
 33
0.0
  0
SOLID
  5
4195
  8
WAKU
  6
CONTINUOUS
 10
456.4422008708957
 20
410.3954077456782
 30
0.0
 11
454.80615387089563
 21
410.32675174567822
 31
0.0
 12
455.96523087089508
 22
410.22317974567801
 32
0.0
 13
455.96523087089508
 23
410.22317974567801
 33
0.0
  0
SOLID
  5
4196
  8
WAKU
  6
CONTINUOUS
 10
454.80615387089563
 20
410.32675174567822
 30
0.0
 11
455.08441887089589
 21
410.18857374567801
 31
0.0
 12
455.96523087089508
 22
410.22317974567801
 32
0.0
 13
455.96523087089508
 23
410.22317974567801
 33
0.0
  0
SOLID
  5
4197
  8
WAKU
  6
CONTINUOUS
 10
455.96523087089508
 20
410.22317974567801
 30
0.0
 11
455.08441887089589
 21
410.18857374567801
 31
0.0
 12
455.5309498708956
 22
410.14725874567807
 32
0.0
 13
455.5309498708956
 23
410.14725874567807
 33
0.0
  0
SOLID
  5
4198
  8
WAKU
  6
CONTINUOUS
 10
456.15706687089562
 20
409.99564574567802
 30
0.0
 11
455.84994987089573
 21
409.99028074567832
 31
0.0
 12
457.03022087089562
 22
409.86255574567809
 32
0.0
 13
457.03022087089562
 23
409.86255574567809
 33
0.0
  0
SOLID
  5
4199
  8
WAKU
  6
CONTINUOUS
 10
455.84994987089573
 20
409.99028074567832
 30
0.0
 11
455.2225968708957
 21
409.91030874567792
 31
0.0
 12
457.03022087089562
 22
409.86255574567809
 32
0.0
 13
457.03022087089562
 23
409.86255574567809
 33
0.0
  0
SOLID
  5
419A
  8
WAKU
  6
CONTINUOUS
 10
455.2225968708957
 20
409.91030874567792
 30
0.0
 11
455.44908187089561
 21
409.7154467456777
 31
0.0
 12
457.03022087089562
 22
409.86255574567809
 32
0.0
 13
457.03022087089562
 23
409.86255574567809
 33
0.0
  0
SOLID
  5
419B
  8
WAKU
  6
CONTINUOUS
 10
457.03022087089562
 20
409.86255574567809
 30
0.0
 11
455.44908187089561
 21
409.7154467456777
 31
0.0
 12
456.5609148708956
 22
409.68607374567802
 32
0.0
 13
456.5609148708956
 23
409.68607374567802
 33
0.0
  0
SOLID
  5
419C
  8
WAKU
  6
CONTINUOUS
 10
455.44908187089561
 20
409.7154467456777
 30
0.0
 11
455.75555487089559
 21
409.61114374567819
 31
0.0
 12
456.5609148708956
 22
409.68607374567802
 32
0.0
 13
456.5609148708956
 23
409.68607374567802
 33
0.0
  0
SOLID
  5
419D
  8
WAKU
  6
CONTINUOUS
 10
456.5609148708956
 20
409.68607374567802
 30
0.0
 11
455.75555487089559
 21
409.61114374567819
 31
0.0
 12
456.13075987089508
 22
409.60123174567792
 32
0.0
 13
456.13075987089508
 23
409.60123174567792
 33
0.0
  0
LINE
  5
419E
  8
WAKU
  6
CONTINUOUS
 10
455.5309498708956
 20
410.1472587456775
 30
0.0
 11
455.96523087089503
 21
410.22317974567801
 31
0.0
  0
LINE
  5
419F
  8
WAKU
  6
CONTINUOUS
 10
455.75555487089508
 20
409.61114374567819
 30
0.0
 11
456.13075987089508
 21
409.60123174567792
 31
0.0
  0
LINE
  5
41A0
  8
WAKU
  6
CONTINUOUS
 10
455.93716787089483
 20
410.61997774567772
 30
0.0
 11
456.56803587089507
 21
410.8911147456771
 31
0.0
  0
LINE
  5
41A1
  8
WAKU
  6
CONTINUOUS
 10
455.8499498708951
 20
409.99028074567741
 30
0.0
 11
456.15706687089562
 21
409.99564574567768
 31
0.0
  0
LINE
  5
41A2
  8
WAKU
  6
CONTINUOUS
 10
456.22766887089512
 20
412.34925374567808
 30
0.0
 11
455.7864848708947
 21
411.67165774567752
 31
0.0
  0
LINE
  5
41A3
  8
WAKU
  6
CONTINUOUS
 10
456.30249287089561
 20
413.04595674567759
 30
0.0
 11
455.89444387089532
 21
412.55378274567772
 31
0.0
  0
SOLID
  5
41A4
  8
WAKU
  6
CONTINUOUS
 10
456.20637187089562
 20
414.05026274567751
 30
0.0
 11
455.75756787089563
 21
413.60145974567752
 31
0.0
 12
456.25187087089569
 22
413.55589074567808
 32
0.0
 13
456.25187087089569
 23
413.55589074567808
 33
0.0
  0
LINE
  5
41A5
  8
WAKU
  6
CONTINUOUS
 10
456.20637187089523
 20
414.05026274567729
 30
0.0
 11
455.75756787089563
 21
413.60145974567752
 31
0.0
  0
LINE
  5
41A6
  8
WAKU
  6
CONTINUOUS
 10
455.75756787089563
 20
413.60145974567752
 30
0.0
 11
455.35722187089539
 21
413.1206837456777
 31
0.0
  0
SOLID
  5
41A7
  8
WAKU
  6
CONTINUOUS
 10
455.35722187089539
 20
413.12068374567798
 30
0.0
 11
455.02003787089512
 21
412.62559474567809
 31
0.0
 12
455.46280787089557
 22
412.59735274567771
 32
0.0
 13
455.46280787089557
 23
412.59735274567771
 33
0.0
  0
SOLID
  5
41A8
  8
WAKU
  6
CONTINUOUS
 10
455.02003787089512
 20
412.62559474567809
 30
0.0
 11
454.75839987089557
 21
412.13437574567752
 31
0.0
 12
455.46280787089557
 22
412.59735274567771
 32
0.0
 13
455.46280787089557
 23
412.59735274567771
 33
0.0
  0
SOLID
  5
41A9
  8
WAKU
  6
CONTINUOUS
 10
455.46280787089557
 20
412.59735274567771
 30
0.0
 11
454.75839987089557
 21
412.13437574567752
 31
0.0
 12
455.17929187089538
 22
412.1118107456781
 32
0.0
 13
455.17929187089538
 23
412.1118107456781
 33
0.0
  0
SOLID
  5
41AA
  8
WAKU
  6
CONTINUOUS
 10
455.5529288708957
 20
412.0472917456778
 30
0.0
 11
455.29106587089558
 21
411.54593674567798
 31
0.0
 12
455.78648487089538
 22
411.67165774567809
 32
0.0
 13
455.78648487089538
 23
411.67165774567809
 33
0.0
  0
SOLID
  5
41AB
  8
WAKU
  6
CONTINUOUS
 10
455.78648487089538
 20
411.67165774567809
 30
0.0
 11
455.29106587089558
 21
411.54593674567798
 31
0.0
 12
455.51594087089558
 22
411.04075174567799
 32
0.0
 13
455.51594087089558
 23
411.04075174567799
 33
0.0
  0
SOLID
  5
41AC
  8
WAKU
  6
CONTINUOUS
 10
455.29106587089558
 20
411.54593674567798
 30
0.0
 11
455.1189118708956
 21
411.06897174567769
 31
0.0
 12
455.51594087089558
 22
411.04075174567799
 32
0.0
 13
455.51594087089558
 23
411.04075174567799
 33
0.0
  0
SOLID
  5
41AD
  8
WAKU
  6
CONTINUOUS
 10
455.1189118708956
 20
411.06897174567769
 30
0.0
 11
455.04307787089562
 21
410.63471774567802
 31
0.0
 12
455.51594087089558
 22
411.04075174567799
 32
0.0
 13
455.51594087089558
 23
411.04075174567799
 33
0.0
  0
SOLID
  5
41AE
  8
WAKU
  6
CONTINUOUS
 10
455.51594087089558
 20
411.04075174567799
 30
0.0
 11
455.04307787089562
 21
410.63471774567802
 31
0.0
 12
455.42868387089538
 22
410.53263874567813
 32
0.0
 13
455.42868387089538
 23
410.53263874567813
 33
0.0
  0
SOLID
  5
41AF
  8
WAKU
  6
CONTINUOUS
 10
455.08441887089589
 20
410.18857374567801
 30
0.0
 11
455.2225968708957
 21
409.91030874567792
 31
0.0
 12
455.5309498708956
 22
410.14725874567807
 32
0.0
 13
455.5309498708956
 23
410.14725874567807
 33
0.0
  0
SOLID
  5
41B0
  8
WAKU
  6
CONTINUOUS
 10
455.5309498708956
 20
410.14725874567807
 30
0.0
 11
455.2225968708957
 21
409.91030874567792
 31
0.0
 12
455.6486998708956
 22
410.04935074567823
 32
0.0
 13
455.6486998708956
 23
410.04935074567823
 33
0.0
  0
SOLID
  5
41B1
  8
WAKU
  6
CONTINUOUS
 10
455.6486998708956
 20
410.04935074567823
 30
0.0
 11
455.2225968708957
 21
409.91030874567792
 31
0.0
 12
455.84994987089573
 22
409.99028074567832
 32
0.0
 13
455.84994987089573
 23
409.99028074567832
 33
0.0
  0
LINE
  5
41B2
  8
WAKU
  6
CONTINUOUS
 10
455.55292887089479
 20
412.0472917456778
 30
0.0
 11
455.29106587089518
 21
411.54593674567769
 31
0.0
  0
LINE
  5
41B3
  8
WAKU
  6
CONTINUOUS
 10
454.98726287089562
 20
411.65680374567768
 30
0.0
 11
454.89146887089561
 21
411.26118674567761
 31
0.0
  0
LINE
  5
41B4
  8
WAKU
  6
CONTINUOUS
 10
455.7864848708947
 20
411.67165774567752
 30
0.0
 11
455.51594087089558
 21
411.0407517456772
 31
0.0
  0
LINE
  5
41B5
  8
WAKU
  6
CONTINUOUS
 10
455.51594087089558
 20
411.0407517456772
 30
0.0
 11
455.4286838708951
 21
410.53263874567801
 31
0.0
  0
LINE
  5
41B6
  8
WAKU
  6
CONTINUOUS
 10
454.80615387089563
 20
410.32675174567822
 30
0.0
 11
455.08441887089509
 21
410.18857374567727
 31
0.0
  0
LINE
  5
41B7
  8
WAKU
  6
CONTINUOUS
 10
455.08441887089509
 20
410.18857374567727
 30
0.0
 11
455.2225968708953
 21
409.91030874567792
 31
0.0
  0
LINE
  5
41B8
  8
WAKU
  6
CONTINUOUS
 10
455.2225968708953
 20
409.91030874567792
 30
0.0
 11
455.44908187089538
 21
409.7154467456777
 31
0.0
  0
LINE
  5
41B9
  8
WAKU
  6
CONTINUOUS
 10
455.44908187089538
 20
409.7154467456777
 30
0.0
 11
455.75555487089508
 21
409.61114374567819
 31
0.0
  0
LINE
  5
41BA
  8
WAKU
  6
CONTINUOUS
 10
455.29106587089518
 20
411.54593674567769
 30
0.0
 11
455.1189118708956
 21
411.06897174567769
 31
0.0
  0
LINE
  5
41BB
  8
WAKU
  6
CONTINUOUS
 10
455.1189118708956
 20
411.06897174567769
 30
0.0
 11
455.04307787089562
 21
410.63471774567751
 31
0.0
  0
LINE
  5
41BC
  8
WAKU
  6
CONTINUOUS
 10
455.4286838708951
 20
410.53263874567801
 30
0.0
 11
455.93716787089483
 21
410.61997774567772
 31
0.0
  0
LINE
  5
41BD
  8
WAKU
  6
CONTINUOUS
 10
454.89146887089561
 20
411.26118674567761
 30
0.0
 11
454.88613087089448
 21
410.9538697456772
 31
0.0
  0
LINE
  5
41BE
  8
WAKU
  6
CONTINUOUS
 10
454.88613087089448
 20
410.9538697456772
 30
0.0
 11
454.94492787089558
 21
410.75321774567772
 31
0.0
  0
LINE
  5
41BF
  8
WAKU
  6
CONTINUOUS
 10
454.94492787089558
 20
410.75321774567772
 30
0.0
 11
455.04307787089562
 21
410.63471774567751
 31
0.0
  0
LINE
  5
41C0
  8
WAKU
  6
CONTINUOUS
 10
455.5309498708956
 20
410.1472587456775
 30
0.0
 11
455.6486998708956
 21
410.04935074567823
 31
0.0
  0
LINE
  5
41C1
  8
WAKU
  6
CONTINUOUS
 10
455.6486998708956
 20
410.04935074567823
 30
0.0
 11
455.8499498708951
 21
409.99028074567741
 31
0.0
  0
LINE
  5
41C2
  8
WAKU
  6
CONTINUOUS
 10
455.89444387089532
 20
412.55378274567772
 30
0.0
 11
455.55292887089479
 21
412.0472917456778
 31
0.0
  0
LINE
  5
41C3
  8
WAKU
  6
CONTINUOUS
 10
455.46280787089472
 20
412.59735274567771
 30
0.0
 11
455.17929187089447
 21
412.1118107456781
 31
0.0
  0
LINE
  5
41C4
  8
WAKU
  6
CONTINUOUS
 10
455.17929187089447
 20
412.1118107456781
 30
0.0
 11
454.98726287089562
 21
411.65680374567768
 31
0.0
  0
LINE
  5
41C5
  8
WAKU
  6
CONTINUOUS
 10
455.02003787089478
 20
412.62559474567809
 30
0.0
 11
454.75839987089557
 21
412.13437574567752
 31
0.0
  0
LINE
  5
41C6
  8
WAKU
  6
CONTINUOUS
 10
455.35722187089539
 20
413.1206837456777
 30
0.0
 11
455.02003787089478
 21
412.62559474567809
 31
0.0
  0
LINE
  5
41C7
  8
WAKU
  6
CONTINUOUS
 10
454.58191887089453
 20
411.66506974567727
 30
0.0
 11
454.49707587089563
 21
411.234914745678
 31
0.0
  0
LINE
  5
41C8
  8
WAKU
  6
CONTINUOUS
 10
454.49707587089563
 20
411.234914745678
 30
0.0
 11
454.50698787089539
 21
410.85971074567772
 31
0.0
  0
LINE
  5
41C9
  8
WAKU
  6
CONTINUOUS
 10
454.50698787089539
 20
410.85971074567772
 30
0.0
 11
454.61129087089557
 21
410.55323674567768
 31
0.0
  0
SOLID
  5
41CA
  8
WAKU
  6
CONTINUOUS
 10
454.75839987089557
 20
412.13437574567752
 30
0.0
 11
454.58191887089538
 21
411.66506974567812
 31
0.0
 12
455.17929187089538
 22
412.1118107456781
 32
0.0
 13
455.17929187089538
 23
412.1118107456781
 33
0.0
  0
SOLID
  5
41CB
  8
WAKU
  6
CONTINUOUS
 10
455.17929187089538
 20
412.1118107456781
 30
0.0
 11
454.58191887089538
 21
411.66506974567812
 31
0.0
 12
454.98726287089562
 22
411.65680374567768
 32
0.0
 13
454.98726287089562
 23
411.65680374567768
 33
0.0
  0
SOLID
  5
41CC
  8
WAKU
  6
CONTINUOUS
 10
454.58191887089538
 20
411.66506974567812
 30
0.0
 11
454.49707587089512
 21
411.234914745678
 31
0.0
 12
454.98726287089562
 22
411.65680374567768
 32
0.0
 13
454.98726287089562
 23
411.65680374567768
 33
0.0
  0
SOLID
  5
41CD
  8
WAKU
  6
CONTINUOUS
 10
454.98726287089562
 20
411.65680374567768
 30
0.0
 11
454.49707587089512
 21
411.234914745678
 31
0.0
 12
454.89146887089561
 22
411.26118674567829
 32
0.0
 13
454.89146887089561
 23
411.26118674567829
 33
0.0
  0
SOLID
  5
41CE
  8
WAKU
  6
CONTINUOUS
 10
454.89146887089561
 20
411.26118674567829
 30
0.0
 11
454.49707587089512
 21
411.234914745678
 31
0.0
 12
454.88613087089561
 22
410.95386974567799
 32
0.0
 13
454.88613087089561
 23
410.95386974567799
 33
0.0
  0
SOLID
  5
41CF
  8
WAKU
  6
CONTINUOUS
 10
454.49707587089512
 20
411.234914745678
 30
0.0
 11
454.50698787089561
 21
410.85971074567772
 31
0.0
 12
454.88613087089561
 22
410.95386974567799
 32
0.0
 13
454.88613087089561
 23
410.95386974567799
 33
0.0
  0
SOLID
  5
41D0
  8
WAKU
  6
CONTINUOUS
 10
454.88613087089561
 20
410.95386974567799
 30
0.0
 11
454.50698787089561
 21
410.85971074567772
 31
0.0
 12
454.94492787089558
 22
410.75321774567772
 32
0.0
 13
454.94492787089558
 23
410.75321774567772
 33
0.0
  0
SOLID
  5
41D1
  8
WAKU
  6
CONTINUOUS
 10
454.50698787089561
 20
410.85971074567772
 30
0.0
 11
454.61129087089557
 21
410.55323674567768
 31
0.0
 12
454.94492787089558
 22
410.75321774567772
 32
0.0
 13
454.94492787089558
 23
410.75321774567772
 33
0.0
  0
SOLID
  5
41D2
  8
WAKU
  6
CONTINUOUS
 10
454.94492787089558
 20
410.75321774567772
 30
0.0
 11
454.61129087089557
 21
410.55323674567768
 31
0.0
 12
455.04307787089562
 22
410.63471774567802
 32
0.0
 13
455.04307787089562
 23
410.63471774567802
 33
0.0
  0
SOLID
  5
41D3
  8
WAKU
  6
CONTINUOUS
 10
455.04307787089562
 20
410.63471774567802
 30
0.0
 11
454.61129087089557
 21
410.55323674567768
 31
0.0
 12
455.42868387089538
 22
410.53263874567813
 32
0.0
 13
455.42868387089538
 23
410.53263874567813
 33
0.0
  0
SOLID
  5
41D4
  8
WAKU
  6
CONTINUOUS
 10
454.61129087089557
 20
410.55323674567768
 30
0.0
 11
454.80615387089563
 21
410.32675174567822
 31
0.0
 12
455.42868387089538
 22
410.53263874567813
 32
0.0
 13
455.42868387089538
 23
410.53263874567813
 33
0.0
  0
LINE
  5
41D5
  8
WAKU
  6
CONTINUOUS
 10
454.61129087089557
 20
410.55323674567768
 30
0.0
 11
454.80615387089563
 21
410.32675174567822
 31
0.0
  0
LINE
  5
41D6
  8
WAKU
  6
CONTINUOUS
 10
454.75839987089557
 20
412.13437574567752
 30
0.0
 11
454.58191887089453
 21
411.66506974567727
 31
0.0
  0
SOLID
  5
41D7
  8
WAKU
  6
CONTINUOUS
 10
457.45795387089561
 20
413.57977374567821
 30
0.0
 11
456.76140487089538
 21
413.50491074567771
 31
0.0
 12
456.80159987089559
 22
413.00567574567771
 32
0.0
 13
456.80159987089559
 23
413.00567574567771
 33
0.0
  0
SOLID
  5
41D8
  8
WAKU
  6
CONTINUOUS
 10
456.76140487089538
 20
413.50491074567771
 30
0.0
 11
456.30249287089578
 21
413.0459567456781
 31
0.0
 12
456.80159987089559
 22
413.00567574567771
 32
0.0
 13
456.80159987089559
 23
413.00567574567771
 33
0.0
  0
LINE
  5
41D9
  8
WAKU
  6
CONTINUOUS
 10
456.76140487089452
 20
413.50491074567771
 30
0.0
 11
456.30249287089561
 21
413.04595674567759
 31
0.0
  0
LINE
  5
41DA
  8
WAKU
  6
CONTINUOUS
 10
457.45795387089561
 20
413.57977374567758
 30
0.0
 11
456.80159987089559
 21
413.00567574567771
 31
0.0
  0
SOLID
  5
41DB
  8
WAKU
  6
CONTINUOUS
 10
457.94213587089558
 20
411.40695374567758
 30
0.0
 11
457.24571287089589
 21
411.33221374567819
 31
0.0
 12
457.45000487089561
 22
410.99888174567798
 32
0.0
 13
457.45000487089561
 23
410.99888174567798
 33
0.0
  0
SOLID
  5
41DC
  8
WAKU
  6
CONTINUOUS
 10
457.24571287089589
 20
411.33221374567819
 30
0.0
 11
456.56803587089581
 21
410.8911147456771
 31
0.0
 12
457.45000487089561
 22
410.99888174567798
 32
0.0
 13
457.45000487089561
 23
410.99888174567798
 33
0.0
  0
SOLID
  5
41DD
  8
WAKU
  6
CONTINUOUS
 10
457.45000487089561
 20
410.99888174567798
 30
0.0
 11
456.56803587089581
 21
410.8911147456771
 31
0.0
 12
456.94354287089539
 22
410.65732774567817
 32
0.0
 13
456.94354287089539
 23
410.65732774567817
 33
0.0
  0
SOLID
  5
41DE
  8
WAKU
  6
CONTINUOUS
 10
457.49326987089557
 20
410.56689974567769
 30
0.0
 11
457.00765487089518
 21
410.28358074567751
 31
0.0
 12
458.01652887089563
 22
410.46137774567819
 32
0.0
 13
458.01652887089563
 23
410.46137774567819
 33
0.0
  0
SOLID
  5
41DF
  8
WAKU
  6
CONTINUOUS
 10
458.01652887089563
 20
410.46137774567819
 30
0.0
 11
457.00765487089518
 21
410.28358074567751
 31
0.0
 12
457.52143887089562
 22
410.1241937456781
 32
0.0
 13
457.52143887089562
 23
410.1241937456781
 33
0.0
  0
SOLID
  5
41E0
  8
WAKU
  6
CONTINUOUS
 10
457.00765487089518
 20
410.28358074567751
 30
0.0
 11
456.55275687089471
 21
410.09115074567819
 31
0.0
 12
457.52143887089562
 22
410.1241937456781
 32
0.0
 13
457.52143887089562
 23
410.1241937456781
 33
0.0
  0
SOLID
  5
41E1
  8
WAKU
  6
CONTINUOUS
 10
457.52143887089562
 20
410.1241937456781
 30
0.0
 11
456.55275687089471
 21
410.09115074567819
 31
0.0
 12
457.03022087089562
 22
409.86255574567809
 32
0.0
 13
457.03022087089562
 23
409.86255574567809
 33
0.0
  0
LINE
  5
41E2
  8
WAKU
  6
CONTINUOUS
 10
457.24571287089441
 20
411.33221374567728
 30
0.0
 11
457.90206887089562
 21
411.90628874567761
 31
0.0
  0
LINE
  5
41E3
  8
WAKU
  6
CONTINUOUS
 10
456.94354287089448
 20
410.65732774567772
 30
0.0
 11
457.45000487089561
 21
410.99888174567792
 31
0.0
  0
LINE
  5
41E4
  8
WAKU
  6
CONTINUOUS
 10
457.03022087089471
 20
409.86255574567758
 30
0.0
 11
457.52143887089522
 21
410.1241937456777
 31
0.0
  0
LINE
  5
41E5
  8
WAKU
  6
CONTINUOUS
 10
457.00765487089518
 20
410.28358074567751
 30
0.0
 11
457.49326987089512
 21
410.56689974567769
 31
0.0
  0
SOLID
  5
41E6
  8
WAKU
  6
CONTINUOUS
 10
456.55275687089471
 20
410.09115074567819
 30
0.0
 11
456.15706687089562
 21
409.99564574567802
 31
0.0
 12
457.03022087089562
 22
409.86255574567809
 32
0.0
 13
457.03022087089562
 23
409.86255574567809
 33
0.0
  0
LINE
  5
41E7
  8
WAKU
  6
CONTINUOUS
 10
456.15706687089562
 20
409.99564574567768
 30
0.0
 11
456.55275687089562
 21
410.09115074567768
 31
0.0
  0
LINE
  5
41E8
  8
WAKU
  6
CONTINUOUS
 10
455.96523087089503
 20
410.22317974567801
 30
0.0
 11
456.4422008708944
 21
410.3954077456782
 31
0.0
  0
LINE
  5
41E9
  8
WAKU
  6
CONTINUOUS
 10
456.4422008708944
 20
410.3954077456782
 30
0.0
 11
456.94354287089448
 21
410.65732774567772
 31
0.0
  0
LINE
  5
41EA
  8
WAKU
  6
CONTINUOUS
 10
456.5609148708956
 20
409.68607374567802
 30
0.0
 11
457.03022087089471
 21
409.86255574567758
 31
0.0
  0
LINE
  5
41EB
  8
WAKU
  6
CONTINUOUS
 10
456.56803587089507
 20
410.8911147456771
 30
0.0
 11
457.24571287089441
 21
411.33221374567728
 31
0.0
  0
LINE
  5
41EC
  8
WAKU
  6
CONTINUOUS
 10
456.55275687089562
 20
410.09115074567768
 30
0.0
 11
457.00765487089518
 21
410.28358074567751
 31
0.0
  0
LINE
  5
41ED
  8
WAKU
  6
CONTINUOUS
 10
456.13075987089508
 20
409.60123174567792
 30
0.0
 11
456.5609148708956
 21
409.68607374567802
 31
0.0
  0
LINE
  5
41EE
  8
WAKU
  6
CONTINUOUS
 10
456.80159987089559
 20
413.00567574567771
 30
0.0
 11
456.22766887089512
 21
412.34925374567808
 31
0.0
  0
LINE
  5
41EF
  8
WAKU
  6
CONTINUOUS
 10
457.52143887089522
 20
410.1241937456777
 30
0.0
 11
458.01652887089563
 21
410.46137774567751
 31
0.0
  0
LINE
  5
41F0
  8
WAKU
  6
CONTINUOUS
 10
457.45000487089561
 20
410.99888174567792
 30
0.0
 11
457.9421358708953
 21
411.40695374567758
 31
0.0
  0
SOLID
  5
41F1
  8
WAKU
  6
CONTINUOUS
 10
458.15091287089592
 20
414.82084774567818
 30
0.0
 11
457.18223687089562
 21
414.78779274567802
 31
0.0
 12
457.69600787089507
 22
414.6283677456783
 32
0.0
 13
457.69600787089507
 23
414.6283677456783
 33
0.0
  0
SOLID
  5
41F2
  8
WAKU
  6
CONTINUOUS
 10
457.18223687089562
 20
414.78779274567802
 30
0.0
 11
456.68714687089539
 21
414.4506087456781
 31
0.0
 12
457.69600787089507
 22
414.6283677456783
 32
0.0
 13
457.69600787089507
 23
414.6283677456783
 33
0.0
  0
SOLID
  5
41F3
  8
WAKU
  6
CONTINUOUS
 10
457.69600787089507
 20
414.6283677456783
 30
0.0
 11
456.68714687089539
 21
414.4506087456781
 31
0.0
 12
457.21035987089562
 22
414.34506674567808
 32
0.0
 13
457.21035987089562
 23
414.34506674567808
 33
0.0
  0
SOLID
  5
41F4
  8
WAKU
  6
CONTINUOUS
 10
457.76004187089558
 20
414.25460374567729
 30
0.0
 11
457.25355587089558
 21
413.91301774567802
 31
0.0
 12
458.13565087089569
 22
414.02083974567768
 32
0.0
 13
458.13565087089569
 23
414.02083974567768
 33
0.0
  0
LINE
  5
41F5
  8
WAKU
  6
CONTINUOUS
 10
457.69600787089507
 20
414.62836774567711
 30
0.0
 11
457.21035987089562
 21
414.34506674567729
 31
0.0
  0
LINE
  5
41F6
  8
WAKU
  6
CONTINUOUS
 10
457.76004187089518
 20
414.25460374567729
 30
0.0
 11
457.25355587089558
 21
413.91301774567768
 31
0.0
  0
LINE
  5
41F7
  8
WAKU
  6
CONTINUOUS
 10
457.67345587089471
 20
415.0494307456778
 30
0.0
 11
457.18223687089471
 21
414.78779274567802
 31
0.0
  0
SOLID
  5
41F8
  8
WAKU
  6
CONTINUOUS
 10
458.13565087089569
 20
414.02083974567768
 30
0.0
 11
457.25355587089558
 21
413.91301774567802
 31
0.0
 12
457.45795387089561
 22
413.57977374567821
 32
0.0
 13
457.45795387089561
 23
413.57977374567821
 33
0.0
  0
SOLID
  5
41F9
  8
WAKU
  6
CONTINUOUS
 10
457.25355587089558
 20
413.91301774567802
 30
0.0
 11
456.76140487089538
 21
413.50491074567771
 31
0.0
 12
457.45795387089561
 22
413.57977374567821
 32
0.0
 13
457.45795387089561
 23
413.57977374567821
 33
0.0
  0
SOLID
  5
41FA
  8
WAKU
  6
CONTINUOUS
 10
456.68714687089539
 20
414.4506087456781
 30
0.0
 11
456.20637187089562
 21
414.05026274567751
 31
0.0
 12
457.21035987089562
 22
414.34506674567808
 32
0.0
 13
457.21035987089562
 23
414.34506674567808
 33
0.0
  0
LINE
  5
41FB
  8
WAKU
  6
CONTINUOUS
 10
456.68714687089539
 20
414.4506087456781
 30
0.0
 11
456.20637187089523
 21
414.05026274567729
 31
0.0
  0
LINE
  5
41FC
  8
WAKU
  6
CONTINUOUS
 10
457.18223687089471
 20
414.78779274567802
 30
0.0
 11
456.68714687089539
 21
414.4506087456781
 31
0.0
  0
SOLID
  5
41FD
  8
WAKU
  6
CONTINUOUS
 10
457.21035987089562
 20
414.34506674567808
 30
0.0
 11
456.20637187089562
 21
414.05026274567751
 31
0.0
 12
456.25187087089569
 22
413.55589074567808
 32
0.0
 13
456.25187087089569
 23
413.55589074567808
 33
0.0
  0
LINE
  5
41FE
  8
WAKU
  6
CONTINUOUS
 10
457.25355587089558
 20
413.91301774567768
 30
0.0
 11
456.76140487089452
 21
413.50491074567771
 31
0.0
  0
LINE
  5
41FF
  8
WAKU
  6
CONTINUOUS
 10
457.21035987089562
 20
414.34506674567729
 30
0.0
 11
456.25187087089512
 21
413.55589074567729
 31
0.0
  0
LINE
  5
4200
  8
WAKU
  6
CONTINUOUS
 10
458.15091287089592
 20
414.82084774567818
 30
0.0
 11
457.69600787089507
 21
414.62836774567711
 31
0.0
  0
LINE
  5
4201
  8
WAKU
  6
CONTINUOUS
 10
458.14276087089462
 20
415.22591174567771
 30
0.0
 11
457.67345587089471
 21
415.0494307456778
 31
0.0
  0
LINE
  5
4202
  8
WAKU
  6
CONTINUOUS
 10
458.13565087089512
 20
414.02083974567768
 30
0.0
 11
457.45795387089561
 21
413.57977374567758
 31
0.0
  0
SOLID
  5
4203
  8
WAKU
  6
CONTINUOUS
 10
457.90206887089562
 20
411.90628874567801
 30
0.0
 11
457.24571287089589
 21
411.33221374567819
 31
0.0
 12
458.40103887089572
 22
411.86587174567808
 32
0.0
 13
458.40103887089572
 23
411.86587174567808
 33
0.0
  0
SOLID
  5
4204
  8
WAKU
  6
CONTINUOUS
 10
458.40103887089572
 20
411.86587174567808
 30
0.0
 11
457.24571287089589
 21
411.33221374567819
 31
0.0
 12
457.94213587089558
 22
411.40695374567758
 32
0.0
 13
457.94213587089558
 23
411.40695374567758
 33
0.0
  0
SOLID
  5
4205
  8
WAKU
  6
CONTINUOUS
 10
458.47601087089538
 20
412.56270274567771
 30
0.0
 11
457.90206887089562
 21
411.90628874567801
 31
0.0
 12
458.80908887089561
 22
412.35801174567769
 32
0.0
 13
458.80908887089561
 23
412.35801174567769
 33
0.0
  0
SOLID
  5
4206
  8
WAKU
  6
CONTINUOUS
 10
458.80908887089561
 20
412.35801174567769
 30
0.0
 11
457.90206887089562
 21
411.90628874567801
 31
0.0
 12
458.40103887089572
 22
411.86587174567808
 32
0.0
 13
458.40103887089572
 23
411.86587174567808
 33
0.0
  0
SOLID
  5
4207
  8
WAKU
  6
CONTINUOUS
 10
458.49730487089562
 20
410.86172374567798
 30
0.0
 11
457.49326987089557
 21
410.56689974567769
 31
0.0
 12
458.01652887089563
 22
410.46137774567819
 32
0.0
 13
458.01652887089563
 23
410.46137774567819
 33
0.0
  0
LINE
  5
4208
  8
WAKU
  6
CONTINUOUS
 10
457.9421358708953
 20
411.40695374567758
 30
0.0
 11
458.40103887089452
 21
411.86587174567728
 31
0.0
  0
LINE
  5
4209
  8
WAKU
  6
CONTINUOUS
 10
457.49326987089512
 20
410.56689974567769
 30
0.0
 11
458.45173787089448
 21
411.35601474567773
 31
0.0
  0
LINE
  5
420A
  8
WAKU
  6
CONTINUOUS
 10
458.01652887089563
 20
410.46137774567751
 30
0.0
 11
458.49730487089522
 21
410.8617237456773
 31
0.0
  0
LINE
  5
420B
  8
WAKU
  6
CONTINUOUS
 10
457.90206887089562
 20
411.90628874567761
 30
0.0
 11
458.47601087089453
 21
412.56270274567771
 31
0.0
  0
SOLID
  5
420C
  8
WAKU
  6
CONTINUOUS
 10
457.67345587089562
 20
415.0494307456778
 30
0.0
 11
457.18223687089562
 21
414.78779274567802
 31
0.0
 12
458.54662987089472
 22
414.9163637456781
 32
0.0
 13
458.54662987089472
 23
414.9163637456781
 33
0.0
  0
SOLID
  5
420D
  8
WAKU
  6
CONTINUOUS
 10
458.54662987089472
 20
414.9163637456781
 30
0.0
 11
457.18223687089562
 21
414.78779274567802
 31
0.0
 12
458.15091287089592
 22
414.82084774567818
 32
0.0
 13
458.15091287089592
 23
414.82084774567818
 33
0.0
  0
SOLID
  5
420E
  8
WAKU
  6
CONTINUOUS
 10
457.67345587089562
 20
415.0494307456778
 30
0.0
 11
458.54662987089472
 21
414.9163637456781
 31
0.0
 12
458.85376887089592
 22
414.92168474567819
 32
0.0
 13
458.85376887089592
 23
414.92168474567819
 33
0.0
  0
SOLID
  5
420F
  8
WAKU
  6
CONTINUOUS
 10
458.76651087089539
 20
414.2920227456782
 30
0.0
 11
457.76004187089558
 21
414.25460374567729
 31
0.0
 12
458.13565087089569
 22
414.02083974567768
 32
0.0
 13
458.13565087089569
 23
414.02083974567768
 33
0.0
  0
LINE
  5
4210
  8
WAKU
  6
CONTINUOUS
 10
458.76651087089539
 20
414.2920227456778
 30
0.0
 11
458.13565087089512
 21
414.02083974567768
 31
0.0
  0
LINE
  5
4211
  8
WAKU
  6
CONTINUOUS
 10
458.54662987089472
 20
414.91636374567759
 30
0.0
 11
458.15091287089592
 21
414.82084774567818
 31
0.0
  0
LINE
  5
4212
  8
WAKU
  6
CONTINUOUS
 10
458.57291587089509
 20
415.3107547456778
 30
0.0
 11
458.14276087089462
 21
415.22591174567771
 31
0.0
  0
LINE
  5
4213
  8
WAKU
  6
CONTINUOUS
 10
458.26141187089507
 20
414.51655074567719
 30
0.0
 11
457.76004187089518
 21
414.25460374567729
 31
0.0
  0
SOLID
  5
4214
  8
WAKU
  6
CONTINUOUS
 10
458.45173787089561
 20
411.35601474567773
 30
0.0
 11
457.49326987089557
 21
410.56689974567769
 31
0.0
 12
458.94610787089562
 22
411.3105267456782
 32
0.0
 13
458.94610787089562
 23
411.3105267456782
 33
0.0
  0
SOLID
  5
4215
  8
WAKU
  6
CONTINUOUS
 10
458.94610787089562
 20
411.3105267456782
 30
0.0
 11
457.49326987089557
 21
410.56689974567769
 31
0.0
 12
458.49730487089562
 22
410.86172374567798
 32
0.0
 13
458.49730487089562
 23
410.86172374567798
 33
0.0
  0
SOLID
  5
4216
  8
WAKU
  6
CONTINUOUS
 10
458.57291587089588
 20
415.3107547456782
 30
0.0
 11
458.14276087089559
 21
415.22591174567799
 31
0.0
 12
458.94812087089508
 22
415.30084274567798
 32
0.0
 13
458.94812087089508
 23
415.30084274567798
 33
0.0
  0
SOLID
  5
4217
  8
WAKU
  6
CONTINUOUS
 10
458.94812087089508
 20
415.30084274567798
 30
0.0
 11
458.14276087089559
 21
415.22591174567799
 31
0.0
 12
459.25459387089558
 22
415.19653974567802
 32
0.0
 13
459.25459387089558
 23
415.19653974567802
 33
0.0
  0
SOLID
  5
4218
  8
WAKU
  6
CONTINUOUS
 10
458.14276087089559
 20
415.22591174567799
 30
0.0
 11
457.67345587089562
 21
415.0494307456778
 31
0.0
 12
459.25459387089558
 22
415.19653974567802
 32
0.0
 13
459.25459387089558
 23
415.19653974567802
 33
0.0
  0
SOLID
  5
4219
  8
WAKU
  6
CONTINUOUS
 10
458.26141187089547
 20
414.5165507456777
 30
0.0
 11
457.76004187089558
 21
414.25460374567729
 31
0.0
 12
459.27500187089538
 22
414.37935174567758
 32
0.0
 13
459.27500187089538
 23
414.37935174567758
 33
0.0
  0
SOLID
  5
421A
  8
WAKU
  6
CONTINUOUS
 10
459.27500187089538
 20
414.37935174567758
 30
0.0
 11
457.76004187089558
 21
414.25460374567729
 31
0.0
 12
458.76651087089539
 22
414.2920227456782
 32
0.0
 13
458.76651087089539
 23
414.2920227456782
 33
0.0
  0
SOLID
  5
421B
  8
WAKU
  6
CONTINUOUS
 10
459.25459387089558
 20
415.19653974567802
 30
0.0
 11
457.67345587089562
 21
415.0494307456778
 31
0.0
 12
459.48107887089571
 22
415.00167774567819
 32
0.0
 13
459.48107887089571
 23
415.00167774567819
 33
0.0
  0
SOLID
  5
421C
  8
WAKU
  6
CONTINUOUS
 10
457.67345587089562
 20
415.0494307456778
 30
0.0
 11
458.85376887089592
 21
414.92168474567819
 31
0.0
 12
459.48107887089571
 22
415.00167774567819
 32
0.0
 13
459.48107887089571
 23
415.00167774567819
 33
0.0
  0
SOLID
  5
421D
  8
WAKU
  6
CONTINUOUS
 10
465.56708587089571
 20
414.857705745678
 30
0.0
 11
462.41097787089558
 21
412.27309074567802
 31
0.0
 12
465.74943987089569
 22
412.27309074567802
 32
0.0
 13
465.74943987089569
 23
412.27309074567802
 33
0.0
  0
LINE
  5
421E
  8
WAKU
  6
CONTINUOUS
 10
465.56708587089503
 20
414.85770574567772
 30
0.0
 11
462.41097787089518
 21
412.27309074567768
 31
0.0
  0
SOLID
  5
421F
  8
WAKU
  6
CONTINUOUS
 10
465.74943987089569
 20
412.27309074567802
 30
0.0
 11
462.41097787089558
 21
412.27309074567802
 31
0.0
 12
464.65291787089558
 22
412.219244745678
 32
0.0
 13
464.65291787089558
 23
412.219244745678
 33
0.0
  0
SOLID
  5
4220
  8
WAKU
  6
CONTINUOUS
 10
462.41097787089558
 20
412.27309074567802
 30
0.0
 11
461.4310578708953
 21
409.58078274567771
 31
0.0
 12
464.65291787089558
 22
412.219244745678
 32
0.0
 13
464.65291787089558
 23
412.219244745678
 33
0.0
  0
LINE
  5
4221
  8
WAKU
  6
CONTINUOUS
 10
464.65291787089512
 20
412.219244745678
 30
0.0
 11
461.4310578708953
 21
409.58078274567771
 31
0.0
  0
LINE
  5
4222
  8
WAKU
  6
CONTINUOUS
 10
468.3233658708956
 20
409.58078274567771
 30
0.0
 11
473.70798087089503
 21
409.58078274567771
 31
0.0
  0
SOLID
  5
4223
  8
WAKU
  6
CONTINUOUS
 10
470.87115787089562
 20
416.5807827456776
 30
0.0
 11
470.2440088708953
 21
414.857705745678
 31
0.0
 12
475.62862387089592
 22
414.857705745678
 32
0.0
 13
475.62862387089592
 23
414.857705745678
 33
0.0
  0
SOLID
  5
4224
  8
WAKU
  6
CONTINUOUS
 10
469.1073018708957
 20
411.73462874567758
 30
0.0
 11
468.3233658708956
 21
409.58078274567771
 31
0.0
 12
474.49191687089569
 22
411.73462874567758
 32
0.0
 13
474.49191687089569
 23
411.73462874567758
 33
0.0
  0
SOLID
  5
4225
  8
WAKU
  6
CONTINUOUS
 10
474.49191687089569
 20
411.73462874567758
 30
0.0
 11
468.3233658708956
 21
409.58078274567771
 31
0.0
 12
473.70798087089508
 22
409.58078274567771
 32
0.0
 13
473.70798087089508
 23
409.58078274567771
 33
0.0
  0
LINE
  5
4226
  8
WAKU
  6
CONTINUOUS
 10
469.10730187089513
 20
411.73462874567758
 30
0.0
 11
474.49191687089473
 21
411.73462874567758
 31
0.0
  0
LINE
  5
4227
  8
WAKU
  6
CONTINUOUS
 10
470.2440088708953
 20
414.85770574567772
 30
0.0
 11
475.62862387089513
 21
414.85770574567772
 31
0.0
  0
SOLID
  5
4228
  8
WAKU
  6
CONTINUOUS
 10
476.25577287089561
 20
416.5807827456776
 30
0.0
 11
470.87115787089562
 21
416.5807827456776
 31
0.0
 12
475.62862387089592
 22
414.857705745678
 32
0.0
 13
475.62862387089592
 23
414.857705745678
 33
0.0
  0
LINE
  5
4229
  8
WAKU
  6
CONTINUOUS
 10
470.87115787089562
 20
416.5807827456776
 30
0.0
 11
476.2557728708951
 21
416.5807827456776
 31
0.0
  0
LINE
  5
422A
  8
WAKU
  6
CONTINUOUS
 10
453.22704887089509
 20
416.5807827456776
 30
0.0
 11
453.22704887089509
 21
412.3030047456777
 31
0.0
  0
SOLID
  5
422B
  8
WAKU
  6
CONTINUOUS
 10
457.50482587089562
 20
416.5807827456776
 30
0.0
 11
453.22704887089571
 21
416.5807827456776
 31
0.0
 12
453.22704887089571
 22
412.3030047456777
 32
0.0
 13
453.22704887089571
 23
412.3030047456777
 33
0.0
  0
LINE
  5
422C
  8
WAKU
  6
CONTINUOUS
 10
453.22704887089509
 20
412.3030047456777
 30
0.0
 11
457.50482587089562
 21
416.5807827456776
 31
0.0
  0
LINE
  5
422D
  8
WAKU
  6
CONTINUOUS
 10
453.22704887089509
 20
416.5807827456776
 30
0.0
 11
457.50482587089562
 21
416.5807827456776
 31
0.0
  0
LINE
  5
422E
  8
WAKU
  6
CONTINUOUS
 10
490.5384668708956
 20
412.9192447456777
 30
0.0
 11
493.76923587089539
 21
412.9192447456777
 31
0.0
  0
SOLID
  5
422F
  8
WAKU
  6
CONTINUOUS
 10
491.87115787089567
 20
416.5807827456776
 30
0.0
 11
491.24400887089558
 21
414.857705745678
 31
0.0
 12
494.47477787089508
 22
414.857705745678
 32
0.0
 13
494.47477787089508
 23
414.857705745678
 33
0.0
  0
SOLID
  5
4230
  8
WAKU
  6
CONTINUOUS
 10
494.23959687089558
 20
414.21155174567798
 30
0.0
 11
491.00882787089557
 21
414.21155174567798
 31
0.0
 12
493.76923587089561
 22
412.91924474567821
 32
0.0
 13
493.76923587089561
 23
412.91924474567821
 33
0.0
  0
SOLID
  5
4231
  8
WAKU
  6
CONTINUOUS
 10
494.70798087089508
 20
409.58078274567771
 30
0.0
 11
494.41499387089561
 21
411.73462874567758
 31
0.0
 12
490.10730187089558
 22
411.73462874567758
 32
0.0
 13
490.10730187089558
 23
411.73462874567758
 33
0.0
  0
SOLID
  5
4232
  8
WAKU
  6
CONTINUOUS
 10
490.10730187089558
 20
411.73462874567758
 30
0.0
 11
489.3233658708956
 21
409.58078274567771
 31
0.0
 12
494.70798087089508
 22
409.58078274567771
 32
0.0
 13
494.70798087089508
 23
409.58078274567771
 33
0.0
  0
LINE
  5
4233
  8
WAKU
  6
CONTINUOUS
 10
494.70798087089508
 20
409.58078274567771
 30
0.0
 11
489.3233658708956
 21
409.58078274567771
 31
0.0
  0
LINE
  5
4234
  8
WAKU
  6
CONTINUOUS
 10
490.10730187089513
 20
411.73462874567758
 30
0.0
 11
494.41499387089561
 21
411.73462874567758
 31
0.0
  0
LINE
  5
4235
  8
WAKU
  6
CONTINUOUS
 10
491.2440088708953
 20
414.85770574567772
 30
0.0
 11
494.47477787089508
 21
414.85770574567772
 31
0.0
  0
LINE
  5
4236
  8
WAKU
  6
CONTINUOUS
 10
491.00882787089557
 20
414.2115517456777
 30
0.0
 11
494.2395968708953
 21
414.2115517456777
 31
0.0
  0
SOLID
  5
4237
  8
WAKU
  6
CONTINUOUS
 10
494.47477787089508
 20
414.857705745678
 30
0.0
 11
495.10192687089562
 21
416.5807827456776
 31
0.0
 12
491.87115787089567
 22
416.5807827456776
 32
0.0
 13
491.87115787089567
 23
416.5807827456776
 33
0.0
  0
LINE
  5
4238
  8
WAKU
  6
CONTINUOUS
 10
491.87115787089567
 20
416.5807827456776
 30
0.0
 11
495.10192687089511
 21
416.5807827456776
 31
0.0
  0
SOLID
  5
4239
  8
WAKU
  6
CONTINUOUS
 10
491.00882787089557
 20
414.21155174567798
 30
0.0
 11
490.5384668708956
 21
412.91924474567821
 31
0.0
 12
493.76923587089561
 22
412.91924474567821
 32
0.0
 13
493.76923587089561
 23
412.91924474567821
 33
0.0
  0
LINE
  5
423A
  8
WAKU
 10
506.89863881456068
 20
417.8041926488375
 30
0.0
 11
506.89863881456068
 21
28.29526935608077
 31
0.0
  0
TEXT
  5
423B
  8
WAKU
 10
75.69258251726535
 20
411.41594787396718
 30
0.0
 40
5.0
  1
FIX窓断面詳細図
  7
MX_NOTE_STANDARD
 11
75.69258251726535
 21
413.9159478739673
 31
0.0
 73
     2
  0
TEXT
  5
423C
  8
WAKU
 10
36.524425493660559
 20
411.37675236086397
 30
0.0
 40
3.0
  1
AE-70N
 41
0.8679999999999999
  7
MX_NOTE_STANDARD
 11
36.524425493660559
 21
412.87675236086397
 31
0.0
 73
     2
  0
LINE
  5
423D
  8
WAKU
 10
31.524425493660821
 20
417.87675236086369
 30
0.0
 11
31.524425493660821
 21
28.367829068107071
 31
0.0
  0
LINE
  5
423E
  8
WAKU
 10
31.524425493660821
 20
28.367829068107071
 30
0.0
 11
506.89863881456068
 21
28.29526935608077
 31
0.0
  0
LINE
  5
423F
  8
WAKU
 10
31.524425493660821
 20
407.87675236086397
 30
0.0
 11
506.89863881456068
 21
407.80419264883761
 31
0.0
  0
LINE
  5
4240
  8
WAKU
 10
31.524425493660821
 20
417.87675236086369
 30
0.0
 11
506.89863881456068
 21
417.8041926488375
 31
0.0
  0
LINE
  5
4241
  8
SUNPO
  6
CONTINUOUS
 10
138.08236591481119
 20
237.63919670915291
 30
0.0
 11
138.08236591481119
 21
233.7891967091528
 31
0.0
  0
LINE
  5
4242
  8
SUNPO
  6
CONTINUOUS
 10
140.8823659148112
 20
239.04825890915291
 30
0.0
 11
140.8823659148112
 21
236.4351260091529
 31
0.0
  0
LINE
  5
4243
  8
SUNPO
  6
CONTINUOUS
 10
140.8823659148112
 20
234.7691925091529
 30
0.0
 11
140.8823659148112
 21
231.13105240915289
 31
0.0
  0
LINE
  5
4244
  8
SUNPO
  6
CONTINUOUS
 10
135.28236591481121
 20
239.04825890915291
 30
0.0
 11
135.28236591481121
 21
236.4351260091529
 31
0.0
  0
LINE
  5
4245
  8
SUNPO
  6
CONTINUOUS
 10
135.28236591481121
 20
234.7691925091529
 30
0.0
 11
135.28236591481121
 21
231.13105240915289
 31
0.0
  0
LINE
  5
4246
  8
SUNPO
  6
CONTINUOUS
 10
135.28236591481121
 20
232.3891967091528
 30
0.0
 11
140.8823659148112
 21
232.3891967091528
 31
0.0
  0
LINE
  5
4247
  8
SUNPO
  6
CONTINUOUS
 10
135.28236591481121
 20
237.63919670915291
 30
0.0
 11
140.8823659148112
 21
237.63919670915291
 31
0.0
  0
LINE
  5
4248
  8
SUNPO
  6
CONTINUOUS
 10
135.28236591481121
 20
233.7891967091528
 30
0.0
 11
140.8823659148112
 21
233.7891967091528
 31
0.0
  0
LINE
  5
4249
  8
SUNPO
  6
CONTINUOUS
 10
138.92231061481121
 20
243.24987800915289
 30
0.0
 11
138.92231061481121
 21
239.8978979091529
 31
0.0
  0
LINE
  5
424A
  8
SUNPO
  6
CONTINUOUS
 10
137.24231481481121
 20
243.24987800915289
 30
0.0
 11
137.24231481481121
 21
239.8978979091529
 31
0.0
  0
LINE
  5
424B
  8
SUNPO
  6
CONTINUOUS
 10
133.3146765845822
 20
312.64087917682252
 30
0.0
 11
138.3146765845822
 21
317.64087917682252
 31
0.0
  0
LINE
  5
424C
  8
SUNPO
  6
CONTINUOUS
 10
143.3146765845822
 20
312.64087917682252
 30
0.0
 11
133.3146765845822
 21
312.64087917682252
 31
0.0
  0
LINE
  5
424D
  8
SUNPO
  6
CONTINUOUS
 10
138.3146765845822
 20
317.64087917682252
 30
0.0
 11
143.3146765845822
 21
312.64087917682252
 31
0.0
  0
LINE
  5
424E
  8
SUNPO
  6
CONTINUOUS
 10
138.3146765845822
 20
317.64087917682252
 30
0.0
 11
138.3146765845822
 21
245.78276517682241
 31
0.0
  0
LINE
  5
424F
  8
SUNPO
  6
CONTINUOUS
 10
138.31419833158091
 20
137.64011223825599
 30
0.0
 11
133.314198331581
 21
142.64011223825591
 31
0.0
  0
LINE
  5
4250
  8
SUNPO
  6
CONTINUOUS
 10
133.314198331581
 20
142.64011223825591
 30
0.0
 11
143.31419833158091
 21
142.64011223825591
 31
0.0
  0
LINE
  5
4251
  8
SUNPO
  6
CONTINUOUS
 10
143.31419833158091
 20
142.64011223825591
 30
0.0
 11
138.31419833158091
 21
137.64011223825599
 31
0.0
  0
LINE
  5
4252
  8
SUNPO
  6
CONTINUOUS
 10
138.31419833158091
 20
137.64011223825599
 30
0.0
 11
138.31419833158091
 21
230.04510223825591
 31
0.0
  0
POLYLINE
  5
4253
  8
SUNPO
  6
BYBLOCK
 66
     1
 10
0.0
 20
0.0
 30
0.0
 70
     1
 40
1.159999999999999
 41
1.159999999999999
  0
VERTEX
  5
4793
  8
SUNPO
  6
BYBLOCK
 10
52.248733829816778
 20
194.38596250741151
 30
0.0
 42
1.0
  0
VERTEX
  5
4794
  8
SUNPO
  6
BYBLOCK
 10
52.382282750358449
 20
194.39395422203521
 30
0.0
 42
1.0
  0
SEQEND
  5
4795
  8
SUNPO
  6
BYBLOCK
  0
POLYLINE
  5
4257
  8
SUNPO
  6
BYBLOCK
 66
     1
 10
0.0
 20
0.0
 30
0.0
 70
     1
 40
1.159999999999999
 41
1.159999999999999
  0
VERTEX
  5
4796
  8
SUNPO
  6
BYBLOCK
 10
122.24702108655509
 20
194.39154067208341
 30
0.0
 42
1.0
  0
VERTEX
  5
4797
  8
SUNPO
  6
BYBLOCK
 10
122.38057000709679
 20
194.39953238670711
 30
0.0
 42
1.0
  0
SEQEND
  5
4798
  8
SUNPO
  6
BYBLOCK
  0
TEXT
  5
425B
  8
SUNPO
  6
CONTINUOUS
 10
85.193201987296092
 20
195.12421838955481
 30
0.0
 40
3.0
  1
70
 50
0.0000572957793684
 41
1.1000000000000001
  7
MX_DIMTXSTY_3
  0
POLYLINE
  5
425C
  8
SUNPO
  6
BYBLOCK
 66
     1
 10
0.0
 20
0.0
 30
0.0
 70
     1
 40
1.159999999999999
 41
1.159999999999999
  0
VERTEX
  5
4799
  8
SUNPO
  6
BYBLOCK
 10
138.2497918403468
 20
77.63998603571342
 30
0.0
 42
1.0
  0
VERTEX
  5
479A
  8
SUNPO
  6
BYBLOCK
 10
138.3833407608885
 20
77.647977750337148
 30
0.0
 42
1.0
  0
SEQEND
  5
479B
  8
SUNPO
  6
BYBLOCK
  0
TEXT
  5
4260
  8
SUNPO
  6
CONTINUOUS
 10
137.8737305024209
 20
105.5102327379135
 30
0.0
 40
3.0
  1
60
 50
90.000057295779328
 41
1.1000000000000001
  7
MX_DIMTXSTY_3
  0
POLYLINE
  5
4261
  8
SUNPO
  6
BYBLOCK
 66
     1
 10
0.0
 20
0.0
 30
0.0
 70
     1
 40
1.159999999999999
 41
1.159999999999999
  0
VERTEX
  5
479C
  8
SUNPO
  6
BYBLOCK
 10
138.24951351277991
 20
372.64228917098541
 30
0.0
 42
1.0
  0
VERTEX
  5
479D
  8
SUNPO
  6
BYBLOCK
 10
138.3830624333215
 20
372.65028088560922
 30
0.0
 42
1.0
  0
SEQEND
  5
479E
  8
SUNPO
  6
BYBLOCK
  0
TEXT
  5
4265
  8
SUNPO
  6
CONTINUOUS
 10
137.57061610228499
 20
342.01461977780423
 30
0.0
 40
3.0
  1
55
 50
90.000057295779328
 41
1.1000000000000001
  7
MX_DIMTXSTY_3
  0
POLYLINE
  5
4266
  8
SUNPO
  6
BYBLOCK
 66
     1
 10
0.0
 20
0.0
 30
0.0
 70
     1
 40
1.159999999999999
 41
1.159999999999999
  0
VERTEX
  5
479F
  8
SUNPO
  6
BYBLOCK
 10
238.14421518068249
 20
324.88265906514488
 30
0.0
 42
1.0
  0
VERTEX
  5
47A0
  8
SUNPO
  6
BYBLOCK
 10
238.27776410122411
 20
324.89065077976881
 30
0.0
 42
1.0
  0
SEQEND
  5
47A1
  8
SUNPO
  6
BYBLOCK
  0
POLYLINE
  5
426A
  8
SUNPO
  6
BYBLOCK
 66
     1
 10
0.0
 20
0.0
 30
0.0
 70
     1
 40
1.159999999999999
 41
1.159999999999999
  0
VERTEX
  5
47A2
  8
SUNPO
  6
BYBLOCK
 10
238.1436800861357
 20
274.89796474728701
 30
0.0
 42
1.0
  0
VERTEX
  5
47A3
  8
SUNPO
  6
BYBLOCK
 10
238.2772290066774
 20
274.90595646191048
 30
0.0
 42
1.0
  0
SEQEND
  5
47A4
  8
SUNPO
  6
BYBLOCK
  0
TEXT
  5
426E
  8
SUNPO
  6
CONTINUOUS
 10
237.081592258646
 20
296.94720214614023
 30
0.0
 40
3.0
  1
50
 50
90.000057295779328
 41
1.1000000000000001
  7
MX_DIMTXSTY_3
  0
POLYLINE
  5
426F
  8
SUNPO
  6
BYBLOCK
 66
     1
 10
0.0
 20
0.0
 30
0.0
 70
     1
 40
1.159999999999999
 41
1.159999999999999
  0
VERTEX
  5
47A5
  8
SUNPO
  6
BYBLOCK
 10
324.29870028211292
 20
354.88225810937581
 30
0.0
 42
1.0
  0
VERTEX
  5
47A6
  8
SUNPO
  6
BYBLOCK
 10
324.43224920265459
 20
354.8902498239994
 30
0.0
 42
1.0
  0
SEQEND
  5
47A7
  8
SUNPO
  6
BYBLOCK
  0
LINE
  5
4273
  8
SUNPO
 10
310.36963547073071
 20
354.89324229007048
 30
0.0
 11
324.36963547073071
 21
354.89324229007048
 31
0.0
  0
ARC
  5
4274
  8
DANMEN
  6
CONTINUOUS
 10
305.36963547073071
 20
354.39324229007042
 30
0.0
 40
0.5
 50
0.0
 51
90.0
  0
LINE
  5
4275
  8
DANMEN
  6
CONTINUOUS
 10
304.36963547073071
 20
355.03764229007049
 30
0.0
 11
304.36963547073071
 21
354.89324229007048
 31
0.0
  0
LINE
  5
4276
  8
DANMEN
  6
CONTINUOUS
 10
302.36963547073071
 20
354.89324229007048
 30
0.0
 11
302.36963547073071
 21
352.39324229007042
 31
0.0
  0
ARC
  5
4277
  8
DANMEN
  6
CONTINUOUS
 10
303.36963547073071
 20
353.89324229007042
 30
0.0
 40
1.0
 50
90.0
 51
180.0
  0
LINE
  5
4278
  8
DANMEN
  6
CONTINUOUS
 10
302.36963547073071
 20
351.89324229007042
 30
0.0
 11
303.36963547073071
 21
351.89324229007042
 31
0.0
  0
LINE
  5
4279
  8
DANMEN
  6
CONTINUOUS
 10
301.59563147073072
 20
351.97644229007051
 30
0.0
 11
302.36963547073071
 21
352.39324229007042
 31
0.0
  0
LINE
  5
427A
  8
DANMEN
  6
CONTINUOUS
 10
302.36963547073071
 20
353.89324229007042
 30
0.0
 11
302.36963547073071
 21
351.89324229007042
 31
0.0
  0
LINE
  5
427B
  8
DANMEN
  6
CONTINUOUS
 10
302.36963547073071
 20
354.89324229007048
 30
0.0
 11
304.36963547073071
 21
354.89324229007048
 31
0.0
  0
ARC
  5
427C
  8
DANMEN
  6
CONTINUOUS
 10
302.86963547073071
 20
355.03764229007049
 30
0.0
 40
1.5
 50
0.0
 51
84.217697000000015
  0
LINE
  5
427D
  8
DANMEN
  6
CONTINUOUS
 10
303.36963547073071
 20
354.89324229007048
 30
0.0
 11
305.36963547073071
 21
354.89324229007048
 31
0.0
  0
LINE
  5
427E
  8
DANMEN
  6
CONTINUOUS
 10
299.86963547073071
 20
347.89324229007048
 30
0.0
 11
299.86963547073071
 21
343.89324229007042
 31
0.0
  0
LINE
  5
427F
  8
DANMEN
  6
CONTINUOUS
 10
301.06963147073071
 20
351.09603829007068
 30
0.0
 11
301.06963147073071
 21
351.03163829007048
 31
0.0
  0
LINE
  5
4280
  8
DANMEN
  6
CONTINUOUS
 10
303.06963147073071
 20
351.09323829007047
 30
0.0
 11
303.06963147073071
 21
350.39324229007042
 31
0.0
  0
LINE
  5
4281
  8
DANMEN
  6
CONTINUOUS
 10
301.75523147073051
 20
350.5676422900703
 30
0.0
 11
303.06963147073071
 21
351.09323829007047
 31
0.0
  0
LINE
  5
4282
  8
DANMEN
  6
CONTINUOUS
 10
303.06963147073071
 20
350.39324229007042
 30
0.0
 11
299.91243547073071
 21
348.53604229007072
 31
0.0
  0
LINE
  5
4283
  8
DANMEN
  6
CONTINUOUS
 10
302.86963547073071
 20
348.89324229007059
 30
0.0
 11
303.36963547073071
 21
348.89324229007059
 31
0.0
  0
LINE
  5
4284
  8
DANMEN
  6
CONTINUOUS
 10
302.36963547073071
 20
348.39324229007042
 30
0.0
 11
302.36963547073071
 21
343.89324229007042
 31
0.0
  0
ARC
  5
4285
  8
DANMEN
  6
CONTINUOUS
 10
301.5696314707306
 20
351.03163829007048
 30
0.0
 40
0.5
 50
180.0
 51
291.80099499999932
  0
ARC
  5
4286
  8
DANMEN
  6
CONTINUOUS
 10
299.65883547073071
 20
348.96684229007059
 30
0.0
 40
0.5000040000000002
 50
241.6990050000006
 51
300.46499600000118
  0
ARC
  5
4287
  8
DANMEN
  6
CONTINUOUS
 10
302.86963547073071
 20
348.39324229007042
 30
0.0
 40
0.5
 50
90.0
 51
180.0
  0
LINE
  5
4288
  8
DANMEN
  6
CONTINUOUS
 10
303.36963547073071
 20
351.89324229007042
 30
0.0
 11
303.36963547073071
 21
348.89324229007059
 31
0.0
  0
ARC
  5
4289
  8
DANMEN
  6
CONTINUOUS
 10
302.06963147073071
 20
351.09603829007068
 30
0.0
 40
1.0
 50
118.3010029999996
 51
180.0
  0
LINE
  5
428A
  8
DANMEN
  6
CONTINUOUS
 10
289.86963547073071
 20
347.89324229007048
 30
0.0
 11
289.86963547073071
 21
343.89324229007042
 31
0.0
  0
LINE
  5
428B
  8
DANMEN
  6
CONTINUOUS
 10
289.76963547073058
 20
348.5932382900707
 30
0.0
 11
292.36963547073071
 21
348.5932382900707
 31
0.0
  0
LINE
  5
428C
  8
DANMEN
  6
CONTINUOUS
 10
303.02083547073067
 20
356.52964229007029
 30
0.0
 11
297.36963547073037
 21
357.10204229007007
 31
0.0
  0
LINE
  5
428D
  8
DANMEN
  6
CONTINUOUS
 10
289.86963547073071
 20
347.89324229007048
 30
0.0
 11
299.86963547073071
 21
347.89324229007048
 31
0.0
  0
LINE
  5
428E
  8
DANMEN
  6
CONTINUOUS
 10
299.86963547073071
 20
347.89324229007048
 30
0.0
 11
289.86963547073071
 21
343.89324229007042
 31
0.0
  0
LINE
  5
428F
  8
DANMEN
  6
CONTINUOUS
 10
297.36963547073037
 20
349.63164629007008
 30
0.0
 11
299.42163547073022
 21
348.52684229007059
 31
0.0
  0
ARC
  5
4290
  8
DANMEN
  6
CONTINUOUS
 10
302.16963947073071
 20
340.89324229007059
 30
0.0
 40
1.0
 50
0.0
 51
90.0
  0
LINE
  5
4291
  8
DANMEN
  6
CONTINUOUS
 10
295.16963547073073
 20
339.38404229007079
 30
0.0
 11
295.16963547073073
 21
340.69324629007059
 31
0.0
  0
LINE
  5
4292
  8
DANMEN
  6
CONTINUOUS
 10
296.66963547073073
 20
339.36283829007021
 30
0.0
 11
296.66963547073073
 21
340.39324229007048
 31
0.0
  0
LINE
  5
4293
  8
DANMEN
  6
CONTINUOUS
 10
294.46963547073068
 20
337.89324229007042
 30
0.0
 11
294.46963547073068
 21
338.29324229007079
 31
0.0
  0
ARC
  5
4294
  8
DANMEN
  6
CONTINUOUS
 10
294.16963547073073
 20
340.69324629007059
 30
0.0
 40
1.0
 50
0.0
 51
90.0
  0
ARC
  5
4295
  8
DANMEN
  6
CONTINUOUS
 10
294.66963547073073
 20
338.29324229007079
 30
0.0
 40
0.2
 50
116.9730000000007
 51
180.0
  0
ARC
  5
4296
  8
DANMEN
  6
CONTINUOUS
 10
294.96963547073062
 20
337.89324229007042
 30
0.0
 40
0.5
 50
180.0
 51
281.53900100000112
  0
ARC
  5
4297
  8
DANMEN
  6
CONTINUOUS
 10
294.66963547073073
 20
339.36283829007021
 30
0.0
 40
2.0
 50
281.53900100000112
 51
0.0
  0
ARC
  5
4298
  8
DANMEN
  6
CONTINUOUS
 10
294.16963547073073
 20
339.38404229007079
 30
0.0
 40
1.000003999999999
 50
294.16000400000001
 51
0.0
  0
ARC
  5
4299
  8
DANMEN
  6
CONTINUOUS
 10
298.16963947073071
 20
340.39324229007048
 30
0.0
 40
1.5
 50
90.0
 51
180.0
  0
ARC
  5
429A
  8
DANMEN
  6
CONTINUOUS
 10
294.66963547073073
 20
338.29324229007079
 30
0.0
 40
0.2
 50
116.9730000000007
 51
180.0
  0
LINE
  5
429B
  8
DANMEN
  6
CONTINUOUS
 10
291.5696354707307
 20
340.69324629007059
 30
0.0
 11
291.5696354707307
 21
339.38404229007079
 31
0.0
  0
LINE
  5
429C
  8
DANMEN
  6
CONTINUOUS
 10
290.0696354707307
 20
340.39324229007048
 30
0.0
 11
290.0696354707307
 21
339.36283829007021
 31
0.0
  0
LINE
  5
429D
  8
DANMEN
  6
CONTINUOUS
 10
292.56963547073047
 20
341.6932462900707
 30
0.0
 11
293.36963547073071
 21
341.6932462900707
 31
0.0
  0
LINE
  5
429E
  8
DANMEN
  6
CONTINUOUS
 10
292.26963547073052
 20
338.29324229007079
 30
0.0
 11
292.26963547073052
 21
337.89324229007042
 31
0.0
  0
ARC
  5
429F
  8
DANMEN
  6
CONTINUOUS
 10
292.56963547073047
 20
340.69324629007059
 30
0.0
 40
1.0
 50
90.0
 51
180.0
  0
ARC
  5
42A0
  8
DANMEN
  6
CONTINUOUS
 10
292.06963547073047
 20
338.29324229007079
 30
0.0
 40
0.2
 50
0.0
 51
63.027302000000219
  0
ARC
  5
42A1
  8
DANMEN
  6
CONTINUOUS
 10
291.76963547073058
 20
337.89324229007042
 30
0.0
 40
0.499996
 50
258.46099899999888
 51
0.0
  0
ARC
  5
42A2
  8
DANMEN
  6
CONTINUOUS
 10
292.06963547073047
 20
339.36283829007021
 30
0.0
 40
2.0
 50
180.0
 51
258.46099899999888
  0
ARC
  5
42A3
  8
DANMEN
  6
CONTINUOUS
 10
292.56963547073047
 20
339.38404229007079
 30
0.0
 40
1.0
 50
180.0
 51
245.8399959999999
  0
ARC
  5
42A4
  8
DANMEN
  6
CONTINUOUS
 10
292.06963547073047
 20
338.29324229007079
 30
0.0
 40
0.2
 50
0.0
 51
63.027302000000219
  0
LINE
  5
42A5
  8
DANMEN
  6
CONTINUOUS
 10
293.36963547073071
 20
341.6932462900707
 30
0.0
 11
294.16963547073073
 21
341.6932462900707
 31
0.0
  0
LINE
  5
42A6
  8
DANMEN
  6
CONTINUOUS
 10
298.16963947073071
 20
341.89324229007042
 30
0.0
 11
302.16963947073071
 21
341.89324229007042
 31
0.0
  0
TEXT
  5
42A7
  8
SUNPO
  6
CONTINUOUS
 10
323.56289468457447
 20
311.78317463943972
 30
0.0
 40
3.0
  1
80
 50
90.000057295779328
 41
1.1000000000000001
  7
MX_DIMTXSTY_3
  0
LINE
  5
42A8
  8
DANMEN
  6
CONTINUOUS
 10
303.56963147073071
 20
296.69324229007071
 30
0.0
 11
303.56963147073071
 21
297.27764229007062
 31
0.0
  0
LINE
  5
42A9
  8
DANMEN
  6
CONTINUOUS
 10
303.86963547073071
 20
298.89324229007059
 30
0.0
 11
303.86963547073071
 21
296.39324229007042
 31
0.0
  0
ARC
  5
42AA
  8
DANMEN
  6
CONTINUOUS
 10
302.16963947073071
 20
302.89324229007048
 30
0.0
 40
1.0
 50
270.0
 51
0.0
  0
LINE
  5
42AB
  8
DANMEN
  6
CONTINUOUS
 10
302.36963547073071
 20
295.89324229007048
 30
0.0
 11
302.36963547073071
 21
295.39324229007059
 31
0.0
  0
ARC
  5
42AC
  8
DANMEN
  6
CONTINUOUS
 10
299.86963547073071
 20
295.8396422900708
 30
0.0
 40
1.0
 50
0.0
 51
79.448402000000456
  0
ARC
  5
42AD
  8
DANMEN
  6
CONTINUOUS
 10
302.86963547073071
 20
295.89324229007048
 30
0.0
 40
0.5
 50
90.0
 51
180.0
  0
LINE
  5
42AE
  8
DANMEN
  6
CONTINUOUS
 10
303.56963147073071
 20
296.69324229007071
 30
0.0
 11
302.36963547073071
 21
296.69324229007071
 31
0.0
  0
LINE
  5
42AF
  8
DANMEN
  6
CONTINUOUS
 10
302.86963547073071
 20
296.39324229007042
 30
0.0
 11
303.86963547073071
 21
296.39324229007042
 31
0.0
  0
ARC
  5
42B0
  8
DANMEN
  6
CONTINUOUS
 10
303.06963147073071
 20
297.27764229007062
 30
0.0
 40
0.5
 50
0.0
 51
79.448402000000456
  0
ARC
  5
42B1
  8
DANMEN
  6
CONTINUOUS
 10
302.86963547073071
 20
298.89324229007059
 30
0.0
 40
1.0
 50
0.0
 51
90.0
  0
LINE
  5
42B2
  8
DANMEN
  6
CONTINUOUS
 10
296.66963547073073
 20
303.39324229007059
 30
0.0
 11
296.66963547073073
 21
304.42364229007069
 31
0.0
  0
LINE
  5
42B3
  8
DANMEN
  6
CONTINUOUS
 10
294.46963547073068
 20
305.49324229007073
 30
0.0
 11
294.46963547073068
 21
305.89324229007042
 31
0.0
  0
ARC
  5
42B4
  8
DANMEN
  6
CONTINUOUS
 10
294.66963547073073
 20
305.49324229007073
 30
0.0
 40
0.2
 50
180.0
 51
243.02699300000009
  0
ARC
  5
42B5
  8
DANMEN
  6
CONTINUOUS
 10
294.96963547073062
 20
305.89324229007042
 30
0.0
 40
0.5
 50
78.460998999998836
 51
180.0
  0
ARC
  5
42B6
  8
DANMEN
  6
CONTINUOUS
 10
294.66963547073073
 20
304.42364229007069
 30
0.0
 40
2.0
 50
0.0
 51
78.460898999999813
  0
ARC
  5
42B7
  8
DANMEN
  6
CONTINUOUS
 10
294.16963547073073
 20
304.40244229007078
 30
0.0
 40
1.0
 50
0.0
 51
65.839699000000792
  0
LINE
  5
42B8
  8
DANMEN
  6
CONTINUOUS
 10
290.0696354707307
 20
304.42364229007069
 30
0.0
 11
290.0696354707307
 21
303.39324229007059
 31
0.0
  0
LINE
  5
42B9
  8
DANMEN
  6
CONTINUOUS
 10
292.26963547073052
 20
305.89324229007042
 30
0.0
 11
292.26963547073052
 21
305.49324229007073
 31
0.0
  0
ARC
  5
42BA
  8
DANMEN
  6
CONTINUOUS
 10
292.06963547073047
 20
305.49324229007073
 30
0.0
 40
0.2
 50
296.97299199999981
 51
0.0
  0
ARC
  5
42BB
  8
DANMEN
  6
CONTINUOUS
 10
291.76963547073058
 20
305.89324229007042
 30
0.0
 40
0.5
 50
0.0
 51
101.5390009999993
  0
ARC
  5
42BC
  8
DANMEN
  6
CONTINUOUS
 10
292.06963547073047
 20
304.42364229007069
 30
0.0
 40
2.0
 50
101.5390009999993
 51
180.0
  0
ARC
  5
42BD
  8
DANMEN
  6
CONTINUOUS
 10
292.56963547073047
 20
304.40244229007078
 30
0.0
 40
1.0
 50
114.1600039999999
 51
180.0
  0
ARC
  5
42BE
  8
DANMEN
  6
CONTINUOUS
 10
294.16963547073073
 20
303.09324229007058
 30
0.0
 40
1.0
 50
270.0
 51
0.0
  0
LINE
  5
42BF
  8
DANMEN
  6
CONTINUOUS
 10
293.36963547073071
 20
302.09324229007069
 30
0.0
 11
292.56963547073047
 21
302.09324229007069
 31
0.0
  0
ARC
  5
42C0
  8
DANMEN
  6
CONTINUOUS
 10
292.56963547073047
 20
303.09324229007058
 30
0.0
 40
1.0
 50
180.0
 51
270.0
  0
LINE
  5
42C1
  8
DANMEN
  6
CONTINUOUS
 10
294.16963547073073
 20
302.09324229007069
 30
0.0
 11
293.36963547073071
 21
302.09324229007069
 31
0.0
  0
LINE
  5
42C2
  8
DANMEN
  6
CONTINUOUS
 10
291.5696354707307
 20
304.40244229007078
 30
0.0
 11
291.5696354707307
 21
303.09324229007058
 31
0.0
  0
LINE
  5
42C3
  8
DANMEN
  6
CONTINUOUS
 10
295.16963547073073
 20
303.09324229007058
 30
0.0
 11
295.16963547073073
 21
304.40244229007078
 31
0.0
  0
ARC
  5
42C4
  8
DANMEN
  6
CONTINUOUS
 10
298.16963947073071
 20
303.39324229007059
 30
0.0
 40
1.5
 50
180.0
 51
270.0
  0
LINE
  5
42C5
  8
DANMEN
  6
CONTINUOUS
 10
298.16963947073071
 20
301.89324229007042
 30
0.0
 11
302.16963947073071
 21
301.89324229007042
 31
0.0
  0
LINE
  5
42C6
  8
DANMEN
  6
CONTINUOUS
 10
303.16123947073072
 20
297.76924229007062
 30
0.0
 11
293.36963547073071
 21
299.59324229007069
 31
0.0
  0
LINE
  5
42C7
  8
DANMEN
  6
CONTINUOUS
 10
300.05283147073072
 20
296.82244229007068
 30
0.0
 11
293.23123547073072
 21
298.09324229007069
 31
0.0
  0
LINE
  5
42C8
  8
DANMEN
  6
CONTINUOUS
 10
305.86963547073071
 20
354.39324229007042
 30
0.0
 11
305.86963547073071
 21
295.39324229007059
 31
0.0
  0
LINE
  5
42C9
  8
DANMEN
  6
CONTINUOUS
 10
303.1696394707306
 20
340.89324229007059
 30
0.0
 11
303.1696394707306
 21
302.89324229007048
 31
0.0
  0
LINE
  5
42CA
  8
DANMEN
  6
CONTINUOUS
 10
285.36963547073071
 20
354.89324229007048
 30
0.0
 11
287.36963547073071
 21
354.89324229007048
 31
0.0
  0
LINE
  5
42CB
  8
DANMEN
  6
CONTINUOUS
 10
285.36963547073071
 20
355.59323829007059
 30
0.0
 11
285.36963547073071
 21
354.89324229007048
 31
0.0
  0
ARC
  5
42CC
  8
DANMEN
  6
CONTINUOUS
 10
286.36963547073071
 20
355.59323829007059
 30
0.0
 40
1.0
 50
90.0
 51
180.0
  0
ARC
  5
42CD
  8
DANMEN
  6
CONTINUOUS
 10
286.86963547073071
 20
354.39324229007042
 30
0.0
 40
0.5
 50
0.0
 51
90.0
  0
LINE
  5
42CE
  8
DANMEN
  6
CONTINUOUS
 10
285.86963547073071
 20
351.59323829007059
 30
0.0
 11
287.36963547073071
 21
351.59323829007059
 31
0.0
  0
LINE
  5
42CF
  8
DANMEN
  6
CONTINUOUS
 10
285.86963547073071
 20
352.19324629007042
 30
0.0
 11
285.86963547073071
 21
351.59323829007059
 31
0.0
  0
LINE
  5
42D0
  8
DANMEN
  6
CONTINUOUS
 10
286.36963547073071
 20
351.89324229007042
 30
0.0
 11
287.36963547073071
 21
351.89324229007042
 31
0.0
  0
LINE
  5
42D1
  8
DANMEN
  6
CONTINUOUS
 10
287.36963547073071
 20
354.89324229007048
 30
0.0
 11
287.36963547073071
 21
351.59323829007059
 31
0.0
  0
LINE
  5
42D2
  8
DANMEN
  6
CONTINUOUS
 10
287.36963547073071
 20
354.39324229007042
 30
0.0
 11
287.36963547073071
 21
351.89324229007042
 31
0.0
  0
LINE
  5
42D3
  8
DANMEN
  6
CONTINUOUS
 10
286.36963547073071
 20
352.94324629007059
 30
0.0
 11
286.36963547073071
 21
351.89324229007042
 31
0.0
  0
ARC
  5
42D4
  8
DANMEN
  6
CONTINUOUS
 10
285.36963547073071
 20
352.19324629007042
 30
0.0
 40
0.5
 50
0.0
 51
135.12300100000121
  0
ARC
  5
42D5
  8
DANMEN
  6
CONTINUOUS
 10
281.86963547073083
 20
354.39324229007042
 30
0.0
 40
0.5
 50
90.0
 51
180.0
  0
LINE
  5
42D6
  8
DANMEN
  6
CONTINUOUS
 10
281.86963547073083
 20
354.89324229007048
 30
0.0
 11
286.86963547073071
 21
354.89324229007048
 31
0.0
  0
LINE
  5
42D7
  8
DANMEN
  6
CONTINUOUS
 10
283.3196354707307
 20
352.94324629007059
 30
0.0
 11
286.36963547073071
 21
352.94324629007059
 31
0.0
  0
LINE
  5
42D8
  8
DANMEN
  6
CONTINUOUS
 10
288.86963547073071
 20
348.5932382900707
 30
0.0
 11
288.86963547073071
 21
346.0932382900707
 31
0.0
  0
LINE
  5
42D9
  8
DANMEN
  6
CONTINUOUS
 10
285.86963547073071
 20
348.19324629007048
 30
0.0
 11
287.36963547073071
 21
348.19324629007048
 31
0.0
  0
LINE
  5
42DA
  8
DANMEN
  6
CONTINUOUS
 10
285.86963547073071
 20
348.19324629007048
 30
0.0
 11
285.86963547073071
 21
347.59323829007059
 31
0.0
  0
LINE
  5
42DB
  8
DANMEN
  6
CONTINUOUS
 10
284.86963547073071
 20
350.39324229007042
 30
0.0
 11
286.36963547073071
 21
350.39324229007042
 31
0.0
  0
LINE
  5
42DC
  8
DANMEN
  6
CONTINUOUS
 10
284.86963547073071
 20
349.39324229007059
 30
0.0
 11
286.36963547073071
 21
349.39324229007059
 31
0.0
  0
LINE
  5
42DD
  8
DANMEN
  6
CONTINUOUS
 10
287.36963547073071
 20
348.19324629007048
 30
0.0
 11
287.36963547073071
 21
346.0932382900707
 31
0.0
  0
LINE
  5
42DE
  8
DANMEN
  6
CONTINUOUS
 10
286.36963547073071
 20
347.89324229007048
 30
0.0
 11
286.86963547073071
 21
347.89324229007048
 31
0.0
  0
LINE
  5
42DF
  8
DANMEN
  6
CONTINUOUS
 10
287.36963547073071
 20
347.39324229007059
 30
0.0
 11
287.36963547073071
 21
343.89324229007042
 31
0.0
  0
LINE
  5
42E0
  8
DANMEN
  6
CONTINUOUS
 10
286.36963547073071
 20
347.89324229007048
 30
0.0
 11
286.36963547073071
 21
345.4432462900707
 31
0.0
  0
ARC
  5
42E1
  8
DANMEN
  6
CONTINUOUS
 10
285.36963547073071
 20
347.59323829007059
 30
0.0
 40
0.5
 50
224.87699899999879
 51
0.0
  0
ARC
  5
42E2
  8
DANMEN
  6
CONTINUOUS
 10
286.36963547073071
 20
349.89324229007042
 30
0.0
 40
0.5
 50
270.0
 51
90.0
  0
ARC
  5
42E3
  8
DANMEN
  6
CONTINUOUS
 10
286.86963547073071
 20
347.39324229007059
 30
0.0
 40
0.5
 50
0.0
 51
90.0
  0
LINE
  5
42E4
  8
DANMEN
  6
CONTINUOUS
 10
287.36963547073071
 20
346.0932382900707
 30
0.0
 11
288.86963547073071
 21
346.0932382900707
 31
0.0
  0
LINE
  5
42E5
  8
DANMEN
  6
CONTINUOUS
 10
283.36963547073071
 20
350.89324229007059
 30
0.0
 11
283.36963547073071
 21
348.89324229007059
 31
0.0
  0
LINE
  5
42E6
  8
DANMEN
  6
CONTINUOUS
 10
285.01523547073072
 20
347.2404422900708
 30
0.0
 11
283.36963547073071
 21
348.89324229007059
 31
0.0
  0
ARC
  5
42E7
  8
DANMEN
  6
CONTINUOUS
 10
284.86963547073071
 20
349.89324229007042
 30
0.0
 40
0.5
 50
90.0
 51
270.0
  0
ARC
  5
42E8
  8
DANMEN
  6
CONTINUOUS
 10
284.84443547073067
 20
345.41804629007038
 30
0.0
 40
1.524999999999999
 50
180.0
 51
0.0
  0
LINE
  5
42E9
  8
DANMEN
  6
CONTINUOUS
 10
285.01523547073072
 20
352.54604229007072
 30
0.0
 11
283.36963547073071
 21
350.89324229007059
 31
0.0
  0
LINE
  5
42EA
  8
DANMEN
  6
CONTINUOUS
 10
283.3196354707307
 20
352.94324629007059
 30
0.0
 11
283.3196354707307
 21
345.41804629007038
 31
0.0
  0
LINE
  5
42EB
  8
DANMEN
  6
CONTINUOUS
 10
285.0696354707307
 20
341.89324229007042
 30
0.0
 11
288.56963547073047
 21
341.89324229007042
 31
0.0
  0
ARC
  5
42EC
  8
DANMEN
  6
CONTINUOUS
 10
285.0696354707307
 20
340.89324229007059
 30
0.0
 40
1.0
 50
90.0
 51
180.0
  0
LINE
  5
42ED
  8
DANMEN
  6
CONTINUOUS
 10
285.0696354707307
 20
301.89324229007042
 30
0.0
 11
288.56963547073047
 21
301.89324229007042
 31
0.0
  0
LINE
  5
42EE
  8
DANMEN
  6
CONTINUOUS
 10
285.36963547073071
 20
298.51124229007053
 30
0.0
 11
285.36963547073071
 21
298.68324229007072
 31
0.0
  0
LINE
  5
42EF
  8
DANMEN
  6
CONTINUOUS
 10
285.86963547073071
 20
295.1932422900706
 30
0.0
 11
285.86963547073071
 21
297.39324229007059
 31
0.0
  0
LINE
  5
42F0
  8
DANMEN
  6
CONTINUOUS
 10
287.36963547073071
 20
295.39324229007059
 30
0.0
 11
287.36963547073071
 21
297.09324229007058
 31
0.0
  0
LINE
  5
42F1
  8
DANMEN
  6
CONTINUOUS
 10
287.86963547073071
 20
299.59324229007069
 30
0.0
 11
285.7716354707307
 21
299.17364229007052
 31
0.0
  0
ARC
  5
42F2
  8
DANMEN
  6
CONTINUOUS
 10
285.36963547073071
 20
297.39324229007059
 30
0.0
 40
0.5
 50
0.0
 51
48.189700999999623
  0
ARC
  5
42F3
  8
DANMEN
  6
CONTINUOUS
 10
285.86963547073071
 20
298.68324229007072
 30
0.0
 40
0.5
 50
101.30999800000041
 51
180.0
  0
ARC
  5
42F4
  8
DANMEN
  6
CONTINUOUS
 10
288.36963547073071
 20
297.09324229007058
 30
0.0
 40
1.0
 50
90.0
 51
180.0
  0
ARC
  5
42F5
  8
DANMEN
  6
CONTINUOUS
 10
286.36963547073071
 20
298.51124229007053
 30
0.0
 40
1.0
 50
180.0
 51
228.1900020000009
  0
ARC
  5
42F6
  8
DANMEN
  6
CONTINUOUS
 10
284.31963547073047
 20
298.89324229007059
 30
0.0
 40
1.0
 50
90.0
 51
180.0
  0
ARC
  5
42F7
  8
DANMEN
  6
CONTINUOUS
 10
285.0696354707307
 20
302.89324229007048
 30
0.0
 40
1.0
 50
180.0
 51
270.0
  0
LINE
  5
42F8
  8
DANMEN
  6
CONTINUOUS
 10
284.06963547073047
 20
340.89324229007059
 30
0.0
 11
284.06963547073047
 21
302.89324229007048
 31
0.0
  0
ARC
  5
42F9
  8
DANMEN
  6
CONTINUOUS
 10
289.3196354707307
 20
348.5932382900707
 30
0.0
 40
0.45
 50
0.0
 51
180.0
  0
LINE
  5
42FA
  8
DANMEN
  6
CONTINUOUS
 10
293.36963547073071
 20
299.59324229007069
 30
0.0
 11
287.86963547073071
 21
299.59324229007069
 31
0.0
  0
LINE
  5
42FB
  8
DANMEN
  6
CONTINUOUS
 10
293.23123547073072
 20
298.09324229007069
 30
0.0
 11
288.36963547073071
 21
298.09324229007069
 31
0.0
  0
LINE
  5
42FC
  8
DANMEN
  6
CONTINUOUS
 10
286.36963547073071
 20
356.5932382900707
 30
0.0
 11
292.36963547073071
 21
356.5932382900707
 31
0.0
  0
LINE
  5
42FD
  8
DANMEN
  6
CONTINUOUS
 10
284.31963547073047
 20
299.89324229007059
 30
0.0
 11
302.86963547073071
 21
299.89324229007059
 31
0.0
  0
LINE
  5
42FE
  8
DANMEN
  6
CONTINUOUS
 10
287.36963547073071
 20
343.89324229007042
 30
0.0
 11
302.36963547073071
 21
343.89324229007042
 31
0.0
  0
ARC
  5
42FF
  8
DANMEN
  6
CONTINUOUS
 10
288.56963547073047
 20
340.39324229007048
 30
0.0
 40
1.5
 50
0.0
 51
90.0
  0
ARC
  5
4300
  8
DANMEN
  6
CONTINUOUS
 10
288.56963547073047
 20
303.39324229007059
 30
0.0
 40
1.5
 50
270.0
 51
359.9989930000001
  0
LINE
  5
4301
  8
DANMEN
  6
CONTINUOUS
 10
304.36963547073071
 20
369.89324229007059
 30
0.0
 11
304.36963547073071
 21
354.89324229007048
 31
0.0
  0
LINE
  5
4302
  8
DANMEN
  6
CONTINUOUS
 10
292.36963547073071
 20
369.89324229007059
 30
0.0
 11
292.36963547073071
 21
347.89324229007048
 31
0.0
  0
LINE
  5
4303
  8
DANMEN
  6
CONTINUOUS
 10
297.36963547073037
 20
369.89324229007059
 30
0.0
 11
297.36963547073037
 21
347.89324229007048
 31
0.0
  0
LINE
  5
4304
  8
DANMEN
  6
CONTINUOUS
 10
293.06963547073047
 20
369.89324229007059
 30
0.0
 11
293.06963547073047
 21
347.89324229007048
 31
0.0
  0
LINE
  5
4305
  8
DANMEN
  6
CONTINUOUS
 10
296.66963547073073
 20
369.89324229007059
 30
0.0
 11
296.66963547073073
 21
347.89324229007048
 31
0.0
  0
LINE
  5
4306
  8
DANMEN
  6
CONTINUOUS
 10
281.36963547073071
 20
369.89324229007059
 30
0.0
 11
281.36963547073071
 21
354.39324229007042
 31
0.0
  0
LINE
  5
4307
  8
DANMEN
  6
CONTINUOUS
 10
285.36963547073071
 20
369.89324229007059
 30
0.0
 11
285.36963547073071
 21
354.89324229007048
 31
0.0
  0
POLYLINE
  5
4308
  8
SUNPO
  6
BYBLOCK
 66
     1
 10
0.0
 20
0.0
 30
0.0
 70
     1
 40
1.159999999999999
 41
1.159999999999999
  0
VERTEX
  5
47A8
  8
SUNPO
  6
BYBLOCK
 10
324.30137967495222
 20
274.9000407798269
 30
0.0
 42
1.0
  0
VERTEX
  5
47A9
  8
SUNPO
  6
BYBLOCK
 10
324.43492859549372
 20
274.90803249445059
 30
0.0
 42
1.0
  0
SEQEND
  5
47AA
  8
SUNPO
  6
BYBLOCK
  0
LINE
  5
430C
  8
SUNPO
 10
310.36963547073071
 20
274.8932422900707
 30
0.0
 11
324.36963547073071
 21
274.8932422900707
 31
0.0
  0
LINE
  5
430D
  8
DANMEN
  6
CONTINUOUS
 10
303.91963947073071
 20
294.39324229007042
 30
0.0
 11
303.91963947073071
 21
294.89324229007059
 31
0.0
  0
LINE
  5
430E
  8
DANMEN
  6
CONTINUOUS
 10
305.86963547073071
 20
294.89324229007059
 30
0.0
 11
303.91963947073071
 21
294.89324229007059
 31
0.0
  0
LINE
  5
430F
  8
DANMEN
  6
CONTINUOUS
 10
302.91963947073071
 20
292.89324229007059
 30
0.0
 11
301.86963547073071
 21
292.89324229007059
 31
0.0
  0
ARC
  5
4310
  8
DANMEN
  6
CONTINUOUS
 10
301.86963547073071
 20
293.89324229007042
 30
0.0
 40
1.0
 50
180.0
 51
270.0
  0
LINE
  5
4311
  8
DANMEN
  6
CONTINUOUS
 10
303.91963947073071
 20
294.39324229007042
 30
0.0
 11
302.36963547073071
 21
294.39324229007042
 31
0.0
  0
ARC
  5
4312
  8
DANMEN
  6
CONTINUOUS
 10
302.91963947073071
 20
291.8932422900707
 30
0.0
 40
1.0
 50
0.0
 51
90.0
  0
LINE
  5
4313
  8
DANMEN
  6
CONTINUOUS
 10
302.86963547073071
 20
294.89324229007059
 30
0.0
 11
305.36963547073071
 21
294.89324229007059
 31
0.0
  0
LINE
  5
4314
  8
DANMEN
  6
CONTINUOUS
 10
303.06963147073071
 20
279.3932422900707
 30
0.0
 11
299.91243547073071
 21
281.25048229007058
 31
0.0
  0
ARC
  5
4315
  8
DANMEN
  6
CONTINUOUS
 10
299.65883547073071
 20
280.81952229007072
 30
0.0
 40
0.5
 50
59.534400999999299
 51
118.3010029999996
  0
LINE
  5
4316
  8
DANMEN
  6
CONTINUOUS
 10
289.76963547073058
 20
281.1932422900706
 30
0.0
 11
292.36963547073071
 21
281.1932422900706
 31
0.0
  0
LINE
  5
4317
  8
DANMEN
  6
CONTINUOUS
 10
292.36963547073071
 20
281.89324229007048
 30
0.0
 11
297.36963547073037
 21
281.89324229007048
 31
0.0
  0
LINE
  5
4318
  8
DANMEN
  6
CONTINUOUS
 10
297.36963547073037
 20
280.15476229007072
 30
0.0
 11
299.42163547073022
 21
281.25976229007063
 31
0.0
  0
LINE
  5
4319
  8
DANMEN
  6
CONTINUOUS
 10
304.36963547073071
 20
274.74900229007062
 30
0.0
 11
304.36963547073071
 21
274.8932422900707
 31
0.0
  0
ARC
  5
431A
  8
DANMEN
  6
CONTINUOUS
 10
305.36963547073071
 20
275.3932422900707
 30
0.0
 40
0.5
 50
270.0
 51
0.0
  0
LINE
  5
431B
  8
DANMEN
  6
CONTINUOUS
 10
302.36963547073071
 20
275.89324229007048
 30
0.0
 11
302.36963547073071
 21
277.89324229007048
 31
0.0
  0
LINE
  5
431C
  8
DANMEN
  6
CONTINUOUS
 10
301.06963147073071
 20
278.6905222900707
 30
0.0
 11
301.06963147073071
 21
278.75472229007079
 31
0.0
  0
LINE
  5
431D
  8
DANMEN
  6
CONTINUOUS
 10
301.59563147073072
 20
277.8100822900708
 30
0.0
 11
302.36963547073071
 21
277.3932422900707
 31
0.0
  0
ARC
  5
431E
  8
DANMEN
  6
CONTINUOUS
 10
302.06963147073071
 20
278.6905222900707
 30
0.0
 40
1.0
 50
180.0
 51
241.6990050000006
  0
LINE
  5
431F
  8
DANMEN
  6
CONTINUOUS
 10
302.36963547073071
 20
274.8932422900707
 30
0.0
 11
302.36963547073071
 21
277.3932422900707
 31
0.0
  0
ARC
  5
4320
  8
DANMEN
  6
CONTINUOUS
 10
303.36963547073071
 20
275.89324229007048
 30
0.0
 40
1.0
 50
180.0
 51
270.0
  0
LINE
  5
4321
  8
DANMEN
  6
CONTINUOUS
 10
303.91963947073071
 20
277.89324229007048
 30
0.0
 11
302.36963547073071
 21
277.89324229007048
 31
0.0
  0
LINE
  5
4322
  8
DANMEN
  6
CONTINUOUS
 10
302.36963547073071
 20
274.8932422900707
 30
0.0
 11
304.36963547073071
 21
274.8932422900707
 31
0.0
  0
ARC
  5
4323
  8
DANMEN
  6
CONTINUOUS
 10
302.86963547073071
 20
274.74900229007062
 30
0.0
 40
1.5
 50
275.78201300000018
 51
0.0
  0
LINE
  5
4324
  8
DANMEN
  6
CONTINUOUS
 10
305.36963547073071
 20
274.8932422900707
 30
0.0
 11
303.36963547073071
 21
274.8932422900707
 31
0.0
  0
LINE
  5
4325
  8
DANMEN
  6
CONTINUOUS
 10
303.02083547073067
 20
273.25664229007072
 30
0.0
 11
297.36963547073037
 21
272.68436229007079
 31
0.0
  0
LINE
  5
4326
  8
DANMEN
  6
CONTINUOUS
 10
305.86963547073071
 20
275.3932422900707
 30
0.0
 11
305.86963547073071
 21
294.89324229007059
 31
0.0
  0
LINE
  5
4327
  8
DANMEN
  6
CONTINUOUS
 10
303.91963947073071
 20
277.89324229007048
 30
0.0
 11
303.91963947073071
 21
291.8932422900707
 31
0.0
  0
LINE
  5
4328
  8
DANMEN
  6
CONTINUOUS
 10
303.06963147073071
 20
278.69324229007071
 30
0.0
 11
303.06963147073071
 21
279.3932422900707
 31
0.0
  0
LINE
  5
4329
  8
DANMEN
  6
CONTINUOUS
 10
301.75523147073051
 20
279.21896229007069
 30
0.0
 11
303.06963147073071
 21
278.69324229007071
 31
0.0
  0
ARC
  5
432A
  8
DANMEN
  6
CONTINUOUS
 10
301.5696314707306
 20
278.75472229007079
 30
0.0
 40
0.5
 50
68.198096999999493
 51
180.0
  0
LINE
  5
432B
  8
DANMEN
  6
CONTINUOUS
 10
304.36963547073071
 20
274.8932422900707
 30
0.0
 11
304.36963547073071
 21
259.89324229007059
 31
0.0
  0
LINE
  5
432C
  8
DANMEN
  6
CONTINUOUS
 10
292.36963547073071
 20
281.89324229007048
 30
0.0
 11
292.36963547073071
 21
259.89324229007059
 31
0.0
  0
LINE
  5
432D
  8
DANMEN
  6
CONTINUOUS
 10
297.36963547073037
 20
281.89324229007048
 30
0.0
 11
297.36963547073037
 21
259.89324229007059
 31
0.0
  0
LINE
  5
432E
  8
DANMEN
  6
CONTINUOUS
 10
293.06963547073047
 20
281.89324229007048
 30
0.0
 11
293.06963547073047
 21
259.89324229007059
 31
0.0
  0
LINE
  5
432F
  8
DANMEN
  6
CONTINUOUS
 10
296.66963547073073
 20
281.89324229007048
 30
0.0
 11
296.66963547073073
 21
259.89324229007059
 31
0.0
  0
LINE
  5
4330
  8
DANMEN
  6
CONTINUOUS
 10
286.86963547073071
 20
294.89324229007059
 30
0.0
 11
286.16963547073073
 21
294.89324229007059
 31
0.0
  0
LINE
  5
4331
  8
DANMEN
  6
CONTINUOUS
 10
287.36963547073071
 20
294.39324229007042
 30
0.0
 11
287.36963547073071
 21
293.89324229007042
 31
0.0
  0
ARC
  5
4332
  8
DANMEN
  6
CONTINUOUS
 10
286.86963547073071
 20
293.89324229007042
 30
0.0
 40
0.5
 50
270.0
 51
0.0
  0
ARC
  5
4333
  8
DANMEN
  6
CONTINUOUS
 10
286.86963547073071
 20
294.39324229007042
 30
0.0
 40
0.5
 50
0.0
 51
90.0
  0
ARC
  5
4334
  8
DANMEN
  6
CONTINUOUS
 10
284.31963547073047
 20
292.39324229007048
 30
0.0
 40
1.0
 50
90.0
 51
180.0
  0
LINE
  5
4335
  8
DANMEN
  6
CONTINUOUS
 10
284.31963547073047
 20
293.39324229007059
 30
0.0
 11
286.86963547073071
 21
293.39324229007059
 31
0.0
  0
LINE
  5
4336
  8
DANMEN
  6
CONTINUOUS
 10
283.3196354707307
 20
294.89324229007059
 30
0.0
 11
286.86963547073071
 21
294.89324229007059
 31
0.0
  0
LINE
  5
4337
  8
DANMEN
  6
CONTINUOUS
 10
288.86963547073071
 20
281.1932422900706
 30
0.0
 11
288.86963547073071
 21
283.69324229007071
 31
0.0
  0
LINE
  5
4338
  8
DANMEN
  6
CONTINUOUS
 10
285.86963547073071
 20
281.59324229007069
 30
0.0
 11
287.36963547073071
 21
281.59324229007069
 31
0.0
  0
LINE
  5
4339
  8
DANMEN
  6
CONTINUOUS
 10
285.86963547073071
 20
281.59324229007069
 30
0.0
 11
285.86963547073071
 21
282.19324229007071
 31
0.0
  0
LINE
  5
433A
  8
DANMEN
  6
CONTINUOUS
 10
284.86963547073071
 20
279.3932422900707
 30
0.0
 11
286.36963547073071
 21
279.3932422900707
 31
0.0
  0
LINE
  5
433B
  8
DANMEN
  6
CONTINUOUS
 10
284.86963547073071
 20
280.39324229007059
 30
0.0
 11
286.36963547073071
 21
280.39324229007059
 31
0.0
  0
LINE
  5
433C
  8
DANMEN
  6
CONTINUOUS
 10
287.36963547073071
 20
281.59324229007069
 30
0.0
 11
287.36963547073071
 21
283.69324229007071
 31
0.0
  0
LINE
  5
433D
  8
DANMEN
  6
CONTINUOUS
 10
286.36963547073071
 20
282.89324229007059
 30
0.0
 11
286.36963547073071
 21
281.89324229007048
 31
0.0
  0
LINE
  5
433E
  8
DANMEN
  6
CONTINUOUS
 10
287.36963547073071
 20
283.89324229007048
 30
0.0
 11
287.36963547073071
 21
282.39324229007059
 31
0.0
  0
LINE
  5
433F
  8
DANMEN
  6
CONTINUOUS
 10
286.36963547073071
 20
281.89324229007048
 30
0.0
 11
286.86963547073071
 21
281.89324229007048
 31
0.0
  0
ARC
  5
4340
  8
DANMEN
  6
CONTINUOUS
 10
285.36963547073071
 20
282.19324229007071
 30
0.0
 40
0.5
 50
0.0
 51
135.12300100000121
  0
ARC
  5
4341
  8
DANMEN
  6
CONTINUOUS
 10
286.36963547073071
 20
279.89324229007048
 30
0.0
 40
0.5
 50
270.0
 51
90.0
  0
ARC
  5
4342
  8
DANMEN
  6
CONTINUOUS
 10
286.86963547073071
 20
282.39324229007059
 30
0.0
 40
0.5
 50
270.0
 51
0.0
  0
ARC
  5
4343
  8
DANMEN
  6
CONTINUOUS
 10
286.86963547073071
 20
283.89324229007048
 30
0.0
 40
0.5
 50
0.0
 51
90.0
  0
LINE
  5
4344
  8
DANMEN
  6
CONTINUOUS
 10
287.36963547073071
 20
283.69324229007071
 30
0.0
 11
288.86963547073071
 21
283.69324229007071
 31
0.0
  0
ARC
  5
4345
  8
DANMEN
  6
CONTINUOUS
 10
284.31963547073047
 20
285.3932422900707
 30
0.0
 40
1.0
 50
180.0
 51
270.0
  0
ARC
  5
4346
  8
DANMEN
  6
CONTINUOUS
 10
284.31963547073047
 20
281.89324229007048
 30
0.0
 40
1.0
 50
90.0
 51
180.0
  0
LINE
  5
4347
  8
DANMEN
  6
CONTINUOUS
 10
285.01523547073072
 20
282.54604229007072
 30
0.0
 11
283.36963547073071
 21
280.89324229007059
 31
0.0
  0
LINE
  5
4348
  8
DANMEN
  6
CONTINUOUS
 10
284.31963547073047
 20
284.39324229007059
 30
0.0
 11
286.86963547073071
 21
284.39324229007059
 31
0.0
  0
LINE
  5
4349
  8
DANMEN
  6
CONTINUOUS
 10
284.31963547073047
 20
282.89324229007059
 30
0.0
 11
286.36963547073071
 21
282.89324229007059
 31
0.0
  0
ARC
  5
434A
  8
DANMEN
  6
CONTINUOUS
 10
284.86963547073071
 20
279.89324229007048
 30
0.0
 40
0.5
 50
90.0
 51
270.0
  0
LINE
  5
434B
  8
DANMEN
  6
CONTINUOUS
 10
283.3196354707307
 20
292.39324229007048
 30
0.0
 11
283.3196354707307
 21
285.3932422900707
 31
0.0
  0
LINE
  5
434C
  8
DANMEN
  6
CONTINUOUS
 10
285.86963547073071
 20
278.19324229007071
 30
0.0
 11
287.36963547073071
 21
278.19324229007071
 31
0.0
  0
LINE
  5
434D
  8
DANMEN
  6
CONTINUOUS
 10
285.86963547073071
 20
277.5932422900708
 30
0.0
 11
285.86963547073071
 21
278.19324229007071
 31
0.0
  0
LINE
  5
434E
  8
DANMEN
  6
CONTINUOUS
 10
286.36963547073071
 20
277.89324229007048
 30
0.0
 11
286.36963547073071
 21
276.84324229007052
 31
0.0
  0
LINE
  5
434F
  8
DANMEN
  6
CONTINUOUS
 10
287.36963547073071
 20
277.89324229007048
 30
0.0
 11
287.36963547073071
 21
275.3932422900707
 31
0.0
  0
LINE
  5
4350
  8
DANMEN
  6
CONTINUOUS
 10
286.36963547073071
 20
277.89324229007048
 30
0.0
 11
287.36963547073071
 21
277.89324229007048
 31
0.0
  0
ARC
  5
4351
  8
DANMEN
  6
CONTINUOUS
 10
285.36963547073071
 20
277.5932422900708
 30
0.0
 40
0.5
 50
224.87699899999879
 51
0.0
  0
LINE
  5
4352
  8
DANMEN
  6
CONTINUOUS
 10
285.36963547073071
 20
274.8932422900707
 30
0.0
 11
287.36963547073071
 21
274.8932422900707
 31
0.0
  0
LINE
  5
4353
  8
DANMEN
  6
CONTINUOUS
 10
285.36963547073071
 20
274.19324229007071
 30
0.0
 11
285.36963547073071
 21
274.8932422900707
 31
0.0
  0
ARC
  5
4354
  8
DANMEN
  6
CONTINUOUS
 10
286.36963547073071
 20
274.19324229007071
 30
0.0
 40
1.0
 50
180.0
 51
270.0
  0
LINE
  5
4355
  8
DANMEN
  6
CONTINUOUS
 10
287.36963547073071
 20
274.8932422900707
 30
0.0
 11
287.36963547073071
 21
278.19324229007071
 31
0.0
  0
ARC
  5
4356
  8
DANMEN
  6
CONTINUOUS
 10
286.86963547073071
 20
275.3932422900707
 30
0.0
 40
0.5
 50
270.0
 51
0.0
  0
ARC
  5
4357
  8
DANMEN
  6
CONTINUOUS
 10
281.86963547073083
 20
275.3932422900707
 30
0.0
 40
0.5
 50
180.0
 51
270.0
  0
LINE
  5
4358
  8
DANMEN
  6
CONTINUOUS
 10
285.01523547073072
 20
277.24044229007058
 30
0.0
 11
283.36963547073071
 21
278.89324229007059
 31
0.0
  0
LINE
  5
4359
  8
DANMEN
  6
CONTINUOUS
 10
283.3196354707307
 20
276.84324229007052
 30
0.0
 11
286.36963547073071
 21
276.84324229007052
 31
0.0
  0
LINE
  5
435A
  8
DANMEN
  6
CONTINUOUS
 10
281.86963547073083
 20
274.8932422900707
 30
0.0
 11
286.86963547073071
 21
274.8932422900707
 31
0.0
  0
LINE
  5
435B
  8
DANMEN
  6
CONTINUOUS
 10
283.36963547073071
 20
278.89324229007059
 30
0.0
 11
283.36963547073071
 21
280.89324229007059
 31
0.0
  0
LINE
  5
435C
  8
DANMEN
  6
CONTINUOUS
 10
283.3196354707307
 20
281.89324229007048
 30
0.0
 11
283.3196354707307
 21
276.84324229007052
 31
0.0
  0
LINE
  5
435D
  8
DANMEN
  6
CONTINUOUS
 10
285.36963547073071
 20
274.8932422900707
 30
0.0
 11
285.36963547073071
 21
259.89324229007059
 31
0.0
  0
LINE
  5
435E
  8
DANMEN
  6
CONTINUOUS
 10
281.36963547073071
 20
275.3932422900707
 30
0.0
 11
281.36963547073071
 21
259.89324229007059
 31
0.0
  0
ARC
  5
435F
  8
DANMEN
  6
CONTINUOUS
 10
289.3196354707307
 20
281.1932422900706
 30
0.0
 40
0.45
 50
180.0
 51
0.0
  0
LINE
  5
4360
  8
DANMEN
  6
CONTINUOUS
 10
286.36963547073071
 20
273.19324229007071
 30
0.0
 11
292.36963547073071
 21
273.19324229007071
 31
0.0
  0
ARC
  5
4361
  8
DANMEN
  6
CONTINUOUS
 10
305.36963547073071
 20
295.39324229007059
 30
0.0
 40
0.5
 50
270.0
 51
0.0
  0
LINE
  5
4362
  8
DANMEN
  6
CONTINUOUS
 10
302.36963547073071
 20
294.39324229007042
 30
0.0
 11
302.36963547073071
 21
296.69324229007071
 31
0.0
  0
LINE
  5
4363
  8
DANMEN
  6
CONTINUOUS
 10
300.86963547073071
 20
293.89324229007042
 30
0.0
 11
300.86963547073071
 21
295.8396422900708
 31
0.0
  0
ARC
  5
4364
  8
DANMEN
  6
CONTINUOUS
 10
302.86963547073071
 20
295.39324229007059
 30
0.0
 40
0.5
 50
180.0
 51
270.0
  0
LINE
  5
4365
  8
DANMEN
  6
CONTINUOUS
 10
308.36963547073071
 20
369.89324229007059
 30
0.0
 11
308.36963547073071
 21
259.89324229007059
 31
0.0
  0
LINE
  5
4366
  8
SUNPO
 10
324.36963547073071
 20
354.89324229007048
 30
0.0
 11
324.36963547073071
 21
274.8932422900707
 31
0.0
  0
LINE
  5
4367
  8
DANMEN
  6
CONTINUOUS
 10
283.3196354707307
 20
298.89324229007059
 30
0.0
 11
283.3196354707307
 21
294.89324229007059
 31
0.0
  0
ARC
  5
4368
  8
DANMEN
  6
CONTINUOUS
 10
286.86963547073071
 20
295.39324229007059
 30
0.0
 40
0.5
 50
270.0
 51
0.0
  0
ARC
  5
4369
  8
DANMEN
  6
CONTINUOUS
 10
286.16963547073073
 20
295.1932422900706
 30
0.0
 40
0.3
 50
180.0
 51
270.0
  0
LINE
  5
436A
  8
DANMEN
  6
CONTINUOUS
 10
281.36963547073071
 20
354.39324229007042
 30
0.0
 11
281.36963547073071
 21
275.3932422900707
 31
0.0
  0
LINE
  5
436B
  8
DANMEN
  6
CONTINUOUS
 10
278.21963547073062
 20
369.89324229007059
 30
0.0
 11
278.21963547073062
 21
259.89324229007059
 31
0.0
  0
ARC
  5
436C
  8
DANMEN
  6
CONTINUOUS
 10
219.21152332827759
 20
324.39321522092467
 30
0.0
 40
0.5
 50
0.0
 51
90.0
  0
LINE
  5
436D
  8
DANMEN
  6
CONTINUOUS
 10
216.21152332827751
 20
323.89321522092479
 30
0.0
 11
216.21152332827751
 21
321.89321522092462
 31
0.0
  0
LINE
  5
436E
  8
DANMEN
  6
CONTINUOUS
 10
216.21152332827751
 20
321.89321522092462
 30
0.0
 11
217.21152332827759
 21
321.89321522092462
 31
0.0
  0
LINE
  5
436F
  8
DANMEN
  6
CONTINUOUS
 10
216.21152332827751
 20
324.89321522092467
 30
0.0
 11
216.21152332827751
 21
322.39321522092467
 31
0.0
  0
LINE
  5
4370
  8
DANMEN
  6
CONTINUOUS
 10
218.21152332827751
 20
325.03761522092469
 30
0.0
 11
218.21152332827751
 21
324.89321522092467
 31
0.0
  0
LINE
  5
4371
  8
DANMEN
  6
CONTINUOUS
 10
216.21152332827751
 20
324.89321522092467
 30
0.0
 11
218.21152332827751
 21
324.89321522092467
 31
0.0
  0
LINE
  5
4372
  8
DANMEN
  6
CONTINUOUS
 10
214.9115193282779
 20
321.09601122092471
 30
0.0
 11
214.9115193282779
 21
321.03161122092462
 31
0.0
  0
LINE
  5
4373
  8
DANMEN
  6
CONTINUOUS
 10
215.43751932827789
 20
321.97641522092482
 30
0.0
 11
216.21152332827751
 21
322.39321522092467
 31
0.0
  0
LINE
  5
4374
  8
DANMEN
  6
CONTINUOUS
 10
216.91151932827759
 20
321.09321122092462
 30
0.0
 11
216.91151932827759
 21
320.39321522092462
 31
0.0
  0
LINE
  5
4375
  8
DANMEN
  6
CONTINUOUS
 10
215.59711932827801
 20
320.56761522092449
 30
0.0
 11
216.91151932827759
 21
321.09321122092462
 31
0.0
  0
ARC
  5
4376
  8
DANMEN
  6
CONTINUOUS
 10
217.21152332827759
 20
323.89321522092479
 30
0.0
 40
1.0
 50
90.0
 51
180.0
  0
ARC
  5
4377
  8
DANMEN
  6
CONTINUOUS
 10
215.91151932827799
 20
321.09601122092471
 30
0.0
 40
1.0
 50
118.3010029999996
 51
180.0
  0
ARC
  5
4378
  8
DANMEN
  6
CONTINUOUS
 10
215.4115193282779
 20
321.03161122092462
 30
0.0
 40
0.5
 50
180.0
 51
291.80099499999932
  0
ARC
  5
4379
  8
DANMEN
  6
CONTINUOUS
 10
216.71152332827759
 20
325.03761522092469
 30
0.0
 40
1.5
 50
0.0
 51
84.217697000000015
  0
LINE
  5
437A
  8
DANMEN
  6
CONTINUOUS
 10
217.21152332827759
 20
324.89321522092467
 30
0.0
 11
219.21152332827759
 21
324.89321522092467
 31
0.0
  0
LINE
  5
437B
  8
DANMEN
  6
CONTINUOUS
 10
216.71152332827759
 20
318.89321522092462
 30
0.0
 11
217.21152332827759
 21
318.89321522092462
 31
0.0
  0
LINE
  5
437C
  8
DANMEN
  6
CONTINUOUS
 10
216.21152332827751
 20
318.39321522092462
 30
0.0
 11
216.21152332827751
 21
313.89321522092462
 31
0.0
  0
ARC
  5
437D
  8
DANMEN
  6
CONTINUOUS
 10
216.71152332827759
 20
318.39321522092462
 30
0.0
 40
0.5
 50
90.0
 51
180.0
  0
LINE
  5
437E
  8
DANMEN
  6
CONTINUOUS
 10
217.21152332827759
 20
321.89321522092462
 30
0.0
 11
217.21152332827759
 21
318.89321522092462
 31
0.0
  0
ARC
  5
437F
  8
DANMEN
  6
CONTINUOUS
 10
216.01152732827759
 20
302.89321522092479
 30
0.0
 40
1.0
 50
270.0
 51
0.0
  0
LINE
  5
4380
  8
DANMEN
  6
CONTINUOUS
 10
216.71152332827759
 20
296.39321522092479
 30
0.0
 11
217.71152332827751
 21
296.39321522092479
 31
0.0
  0
LINE
  5
4381
  8
DANMEN
  6
CONTINUOUS
 10
217.71152332827751
 20
298.89321522092479
 30
0.0
 11
217.71152332827751
 21
296.39321522092479
 31
0.0
  0
LINE
  5
4382
  8
DANMEN
  6
CONTINUOUS
 10
216.21152332827751
 20
295.89321522092462
 30
0.0
 11
216.21152332827751
 21
295.39321522092462
 31
0.0
  0
LINE
  5
4383
  8
DANMEN
  6
CONTINUOUS
 10
217.41151932827759
 20
296.69321522092451
 30
0.0
 11
217.41151932827759
 21
297.2776152209247
 31
0.0
  0
LINE
  5
4384
  8
DANMEN
  6
CONTINUOUS
 10
217.41151932827759
 20
296.69321522092451
 30
0.0
 11
216.21152332827751
 21
296.69321522092451
 31
0.0
  0
ARC
  5
4385
  8
DANMEN
  6
CONTINUOUS
 10
216.71152332827759
 20
295.89321522092462
 30
0.0
 40
0.5
 50
90.0
 51
180.0
  0
ARC
  5
4386
  8
DANMEN
  6
CONTINUOUS
 10
216.71152332827759
 20
298.89321522092479
 30
0.0
 40
1.0
 50
0.0
 51
90.0
  0
ARC
  5
4387
  8
DANMEN
  6
CONTINUOUS
 10
216.91151932827759
 20
297.2776152209247
 30
0.0
 40
0.5
 50
0.0
 51
79.448402000000456
  0
LINE
  5
4388
  8
DANMEN
  6
CONTINUOUS
 10
217.01152732827751
 20
310.89321522092479
 30
0.0
 11
217.01152732827751
 21
302.89321522092479
 31
0.0
  0
ARC
  5
4389
  8
DANMEN
  6
CONTINUOUS
 10
216.01152732827759
 20
310.89321522092479
 30
0.0
 40
1.0
 50
0.0
 51
90.0
  0
LINE
  5
438A
  8
DANMEN
  6
CONTINUOUS
 10
219.71152332827751
 20
324.39321522092467
 30
0.0
 11
219.71152332827751
 21
295.39321522092462
 31
0.0
  0
LINE
  5
438B
  8
SUNPO
 10
224.21152332827751
 20
324.89321522092467
 30
0.0
 11
238.21152332827751
 21
324.89321522092467
 31
0.0
  0
LINE
  5
438C
  8
DANMEN
  6
CONTINUOUS
 10
213.71152332827751
 20
317.89321522092462
 30
0.0
 11
213.71152332827751
 21
313.89321522092462
 31
0.0
  0
ARC
  5
438D
  8
DANMEN
  6
CONTINUOUS
 10
213.50072332827759
 20
318.96681522092462
 30
0.0
 40
0.5000040000000002
 50
241.6990050000006
 51
300.46499600000118
  0
LINE
  5
438E
  8
DANMEN
  6
CONTINUOUS
 10
207.21152332827751
 20
311.6932192209245
 30
0.0
 11
208.01152732827759
 21
311.6932192209245
 31
0.0
  0
LINE
  5
438F
  8
DANMEN
  6
CONTINUOUS
 10
206.41151932827799
 20
311.6932192209245
 30
0.0
 11
207.21152332827751
 21
311.6932192209245
 31
0.0
  0
LINE
  5
4390
  8
DANMEN
  6
CONTINUOUS
 10
211.21152332827751
 20
319.63161922092479
 30
0.0
 11
213.26352332827781
 21
318.52681522092479
 31
0.0
  0
LINE
  5
4391
  8
DANMEN
  6
CONTINUOUS
 10
201.21152332827751
 20
324.39321522092467
 30
0.0
 11
201.21152332827751
 21
321.89321522092462
 31
0.0
  0
LINE
  5
4392
  8
DANMEN
  6
CONTINUOUS
 10
200.21152332827759
 20
321.89321522092462
 30
0.0
 11
201.21152332827751
 21
321.89321522092462
 31
0.0
  0
LINE
  5
4393
  8
DANMEN
  6
CONTINUOUS
 10
200.21152332827759
 20
322.94321922092479
 30
0.0
 11
200.21152332827759
 21
321.89321522092462
 31
0.0
  0
LINE
  5
4394
  8
DANMEN
  6
CONTINUOUS
 10
201.21152332827751
 20
324.89321522092467
 30
0.0
 11
201.21152332827751
 21
321.59321122092462
 31
0.0
  0
ARC
  5
4395
  8
DANMEN
  6
CONTINUOUS
 10
200.71152332827751
 20
324.39321522092467
 30
0.0
 40
0.5
 50
0.0
 51
90.0
  0
ARC
  5
4396
  8
DANMEN
  6
CONTINUOUS
 10
200.21152332827759
 20
319.89321522092462
 30
0.0
 40
0.5
 50
270.0
 51
90.0
  0
LINE
  5
4397
  8
DANMEN
  6
CONTINUOUS
 10
199.21152332827759
 20
325.59321122092462
 30
0.0
 11
199.21152332827759
 21
324.89321522092467
 31
0.0
  0
LINE
  5
4398
  8
DANMEN
  6
CONTINUOUS
 10
198.85712332827799
 20
322.54601522092452
 30
0.0
 11
197.21152332827759
 21
320.89321522092467
 31
0.0
  0
LINE
  5
4399
  8
DANMEN
  6
CONTINUOUS
 10
199.71152332827759
 20
322.19321922092462
 30
0.0
 11
199.71152332827759
 21
321.59321122092462
 31
0.0
  0
ARC
  5
439A
  8
DANMEN
  6
CONTINUOUS
 10
195.71152332827751
 20
324.39321522092467
 30
0.0
 40
0.5
 50
90.0
 51
180.0
  0
ARC
  5
439B
  8
DANMEN
  6
CONTINUOUS
 10
198.71152332827751
 20
319.89321522092462
 30
0.0
 40
0.5
 50
90.0
 51
270.0
  0
LINE
  5
439C
  8
DANMEN
  6
CONTINUOUS
 10
195.71152332827751
 20
324.89321522092467
 30
0.0
 11
200.71152332827751
 21
324.89321522092467
 31
0.0
  0
LINE
  5
439D
  8
DANMEN
  6
CONTINUOUS
 10
197.16151932827799
 20
322.94321922092479
 30
0.0
 11
200.21152332827759
 21
322.94321922092479
 31
0.0
  0
LINE
  5
439E
  8
DANMEN
  6
CONTINUOUS
 10
199.21152332827759
 20
324.89321522092467
 30
0.0
 11
201.21152332827751
 21
324.89321522092467
 31
0.0
  0
LINE
  5
439F
  8
DANMEN
  6
CONTINUOUS
 10
199.71152332827759
 20
321.59321122092462
 30
0.0
 11
201.21152332827751
 21
321.59321122092462
 31
0.0
  0
LINE
  5
43A0
  8
DANMEN
  6
CONTINUOUS
 10
198.71152332827751
 20
320.39321522092462
 30
0.0
 11
200.21152332827759
 21
320.39321522092462
 31
0.0
  0
LINE
  5
43A1
  8
DANMEN
  6
CONTINUOUS
 10
198.71152332827751
 20
319.39321522092479
 30
0.0
 11
200.21152332827759
 21
319.39321522092479
 31
0.0
  0
ARC
  5
43A2
  8
DANMEN
  6
CONTINUOUS
 10
199.21152332827759
 20
322.19321922092462
 30
0.0
 40
0.5
 50
0.0
 51
135.1239929999993
  0
ARC
  5
43A3
  8
DANMEN
  6
CONTINUOUS
 10
200.21152332827759
 20
325.59321122092462
 30
0.0
 40
1.0
 50
90.0
 51
180.0
  0
LINE
  5
43A4
  8
DANMEN
  6
CONTINUOUS
 10
203.71152332827751
 20
317.89321522092462
 30
0.0
 11
203.71152332827751
 21
313.89321522092462
 31
0.0
  0
LINE
  5
43A5
  8
DANMEN
  6
CONTINUOUS
 10
200.21152332827759
 20
317.89321522092462
 30
0.0
 11
200.71152332827751
 21
317.89321522092462
 31
0.0
  0
LINE
  5
43A6
  8
DANMEN
  6
CONTINUOUS
 10
201.21152332827751
 20
317.39321522092479
 30
0.0
 11
201.21152332827751
 21
313.89321522092462
 31
0.0
  0
LINE
  5
43A7
  8
DANMEN
  6
CONTINUOUS
 10
200.21152332827759
 20
317.89321522092462
 30
0.0
 11
200.21152332827759
 21
315.44321922092462
 31
0.0
  0
LINE
  5
43A8
  8
DANMEN
  6
CONTINUOUS
 10
201.21152332827751
 20
318.19321922092462
 30
0.0
 11
201.21152332827751
 21
316.09321122092462
 31
0.0
  0
LINE
  5
43A9
  8
DANMEN
  6
CONTINUOUS
 10
201.21152332827751
 20
316.09321122092462
 30
0.0
 11
202.71152332827751
 21
316.09321122092462
 31
0.0
  0
LINE
  5
43AA
  8
DANMEN
  6
CONTINUOUS
 10
202.71152332827751
 20
318.5932112209245
 30
0.0
 11
202.71152332827751
 21
316.09321122092462
 31
0.0
  0
ARC
  5
43AB
  8
DANMEN
  6
CONTINUOUS
 10
200.71152332827751
 20
317.39321522092479
 30
0.0
 40
0.5
 50
0.0
 51
90.0
  0
ARC
  5
43AC
  8
DANMEN
  6
CONTINUOUS
 10
203.16151932827751
 20
318.5932112209245
 30
0.0
 40
0.449996
 50
0.0
 51
180.0
  0
LINE
  5
43AD
  8
DANMEN
  6
CONTINUOUS
 10
198.85712332827799
 20
317.24041522092472
 30
0.0
 11
197.21152332827759
 21
318.89321522092462
 31
0.0
  0
LINE
  5
43AE
  8
DANMEN
  6
CONTINUOUS
 10
199.71152332827759
 20
318.19321922092462
 30
0.0
 11
199.71152332827759
 21
317.59321122092462
 31
0.0
  0
LINE
  5
43AF
  8
DANMEN
  6
CONTINUOUS
 10
198.91151932827799
 20
311.89321522092467
 30
0.0
 11
202.41151932827799
 21
311.89321522092467
 31
0.0
  0
LINE
  5
43B0
  8
DANMEN
  6
CONTINUOUS
 10
199.71152332827759
 20
318.19321922092462
 30
0.0
 11
201.21152332827751
 21
318.19321922092462
 31
0.0
  0
ARC
  5
43B1
  8
DANMEN
  6
CONTINUOUS
 10
198.6863233282775
 20
315.4180192209248
 30
0.0
 40
1.524999999999999
 50
180.0
 51
0.0
  0
ARC
  5
43B2
  8
DANMEN
  6
CONTINUOUS
 10
199.21152332827759
 20
317.59321122092462
 30
0.0
 40
0.5
 50
224.87600700000041
 51
0.0
  0
LINE
  5
43B3
  8
DANMEN
  6
CONTINUOUS
 10
197.16151932827799
 20
322.94321922092479
 30
0.0
 11
197.16151932827799
 21
315.4180192209248
 31
0.0
  0
LINE
  5
43B4
  8
DANMEN
  6
CONTINUOUS
 10
197.21152332827759
 20
320.89321522092467
 30
0.0
 11
197.21152332827759
 21
318.89321522092462
 31
0.0
  0
LINE
  5
43B5
  8
DANMEN
  6
CONTINUOUS
 10
200.21152332827759
 20
326.59321122092462
 30
0.0
 11
206.21152332827751
 21
326.59321122092462
 31
0.0
  0
LINE
  5
43B6
  8
DANMEN
  6
CONTINUOUS
 10
203.6115233282778
 20
318.5932112209245
 30
0.0
 11
206.21152332827751
 21
318.5932112209245
 31
0.0
  0
LINE
  5
43B7
  8
DANMEN
  6
CONTINUOUS
 10
203.71152332827751
 20
317.89321522092462
 30
0.0
 11
213.71152332827751
 21
317.89321522092462
 31
0.0
  0
LINE
  5
43B8
  8
DANMEN
  6
CONTINUOUS
 10
213.71152332827751
 20
317.89321522092462
 30
0.0
 11
203.71152332827751
 21
313.89321522092462
 31
0.0
  0
LINE
  5
43B9
  8
DANMEN
  6
CONTINUOUS
 10
210.51152732827759
 20
309.36281522092457
 30
0.0
 11
210.51152732827759
 21
310.39321522092467
 31
0.0
  0
LINE
  5
43BA
  8
DANMEN
  6
CONTINUOUS
 10
209.01152732827751
 20
309.38401522092471
 30
0.0
 11
209.01152732827751
 21
310.69321922092462
 31
0.0
  0
LINE
  5
43BB
  8
DANMEN
  6
CONTINUOUS
 10
208.31152332827759
 20
307.89321522092462
 30
0.0
 11
208.31152332827759
 21
308.29321522092471
 31
0.0
  0
ARC
  5
43BC
  8
DANMEN
  6
CONTINUOUS
 10
208.51152732827759
 20
308.29321522092471
 30
0.0
 40
0.2
 50
116.9730000000007
 51
180.0
  0
ARC
  5
43BD
  8
DANMEN
  6
CONTINUOUS
 10
208.8115233282775
 20
307.89321522092462
 30
0.0
 40
0.5
 50
180.0
 51
281.53900100000112
  0
ARC
  5
43BE
  8
DANMEN
  6
CONTINUOUS
 10
208.01152732827759
 20
309.38401522092471
 30
0.0
 40
1.0
 50
294.16000400000001
 51
0.0
  0
LINE
  5
43BF
  8
DANMEN
  6
CONTINUOUS
 10
205.41151932827751
 20
310.69321922092462
 30
0.0
 11
205.41151932827751
 21
309.38401522092471
 31
0.0
  0
LINE
  5
43C0
  8
DANMEN
  6
CONTINUOUS
 10
206.1115233282776
 20
308.29321522092471
 30
0.0
 11
206.1115233282776
 21
307.89321522092462
 31
0.0
  0
ARC
  5
43C1
  8
DANMEN
  6
CONTINUOUS
 10
205.91151932827751
 20
308.29321522092471
 30
0.0
 40
0.199996
 50
0.0
 51
63.027302000000219
  0
ARC
  5
43C2
  8
DANMEN
  6
CONTINUOUS
 10
205.61152332827791
 20
307.89321522092462
 30
0.0
 40
0.5
 50
258.46099899999888
 51
0.0
  0
ARC
  5
43C3
  8
DANMEN
  6
CONTINUOUS
 10
206.41151932827799
 20
309.38401522092471
 30
0.0
 40
1.0
 50
180.0
 51
245.8399959999999
  0
ARC
  5
43C4
  8
DANMEN
  6
CONTINUOUS
 10
208.51152732827759
 20
309.36281522092457
 30
0.0
 40
2.0
 50
281.53900100000112
 51
0.0
  0
LINE
  5
43C5
  8
DANMEN
  6
CONTINUOUS
 10
213.8947193282774
 20
296.82241522092471
 30
0.0
 11
207.07312732827751
 21
298.09321522092461
 31
0.0
  0
LINE
  5
43C6
  8
DANMEN
  6
CONTINUOUS
 10
203.91151932827751
 20
310.39321522092467
 30
0.0
 11
203.91151932827751
 21
309.36281522092457
 31
0.0
  0
LINE
  5
43C7
  8
DANMEN
  6
CONTINUOUS
 10
201.21152332827751
 20
295.39321522092462
 30
0.0
 11
201.21152332827751
 21
297.09321522092472
 31
0.0
  0
ARC
  5
43C8
  8
DANMEN
  6
CONTINUOUS
 10
202.21152332827759
 20
297.09321522092472
 30
0.0
 40
1.0
 50
90.0
 51
180.0
  0
ARC
  5
43C9
  8
DANMEN
  6
CONTINUOUS
 10
198.91151932827799
 20
302.89321522092479
 30
0.0
 40
1.0
 50
180.0
 51
270.0
  0
LINE
  5
43CA
  8
DANMEN
  6
CONTINUOUS
 10
199.21152332827759
 20
298.51121522092473
 30
0.0
 11
199.21152332827759
 21
298.68321522092452
 31
0.0
  0
LINE
  5
43CB
  8
DANMEN
  6
CONTINUOUS
 10
199.71152332827759
 20
295.19321522092463
 30
0.0
 11
199.71152332827759
 21
297.39321522092467
 31
0.0
  0
ARC
  5
43CC
  8
DANMEN
  6
CONTINUOUS
 10
198.16151932827751
 20
298.89321522092479
 30
0.0
 40
1.0
 50
90.0
 51
180.0
  0
ARC
  5
43CD
  8
DANMEN
  6
CONTINUOUS
 10
199.21152332827759
 20
297.39321522092467
 30
0.0
 40
0.5
 50
0.0
 51
48.18940000000039
  0
ARC
  5
43CE
  8
DANMEN
  6
CONTINUOUS
 10
199.71152332827759
 20
298.68321522092452
 30
0.0
 40
0.5
 50
101.30999800000041
 51
180.0
  0
ARC
  5
43CF
  8
DANMEN
  6
CONTINUOUS
 10
200.21152332827759
 20
298.51121522092473
 30
0.0
 40
1.0
 50
180.0
 51
228.1900020000009
  0
LINE
  5
43D0
  8
DANMEN
  6
CONTINUOUS
 10
201.71152332827751
 20
299.59321522092472
 30
0.0
 11
199.61352332827741
 21
299.17361522092449
 31
0.0
  0
LINE
  5
43D1
  8
DANMEN
  6
CONTINUOUS
 10
197.91151932827799
 20
310.89321522092479
 30
0.0
 11
197.91151932827799
 21
302.89321522092479
 31
0.0
  0
ARC
  5
43D2
  8
DANMEN
  6
CONTINUOUS
 10
205.91151932827751
 20
309.36281522092457
 30
0.0
 40
2.0
 50
180.0
 51
258.46099899999888
  0
LINE
  5
43D3
  8
DANMEN
  6
CONTINUOUS
 10
207.21152332827751
 20
299.59321522092472
 30
0.0
 11
201.71152332827751
 21
299.59321522092472
 31
0.0
  0
LINE
  5
43D4
  8
DANMEN
  6
CONTINUOUS
 10
207.07312732827751
 20
298.09321522092461
 30
0.0
 11
202.21152332827759
 21
298.09321522092461
 31
0.0
  0
ARC
  5
43D5
  8
DANMEN
  6
CONTINUOUS
 10
208.01152732827759
 20
310.69321922092462
 30
0.0
 40
1.0
 50
0.0
 51
90.0
  0
ARC
  5
43D6
  8
DANMEN
  6
CONTINUOUS
 10
212.01152732827759
 20
310.39321522092467
 30
0.0
 40
1.5
 50
90.0
 51
180.0
  0
ARC
  5
43D7
  8
DANMEN
  6
CONTINUOUS
 10
198.91151932827799
 20
310.89321522092479
 30
0.0
 40
1.0
 50
90.0
 51
180.0
  0
ARC
  5
43D8
  8
DANMEN
  6
CONTINUOUS
 10
206.41151932827799
 20
310.69321922092462
 30
0.0
 40
1.0
 50
90.0
 51
180.0
  0
ARC
  5
43D9
  8
DANMEN
  6
CONTINUOUS
 10
202.41151932827799
 20
310.39321522092467
 30
0.0
 40
1.5
 50
0.0
 51
90.0
  0
LINE
  5
43DA
  8
DANMEN
  6
CONTINUOUS
 10
212.01152732827759
 20
311.89321522092467
 30
0.0
 11
216.01152732827759
 21
311.89321522092467
 31
0.0
  0
LINE
  5
43DB
  8
DANMEN
  6
CONTINUOUS
 10
216.91151932827759
 20
320.39321522092462
 30
0.0
 11
213.75432332827759
 21
318.5360152209247
 31
0.0
  0
LINE
  5
43DC
  8
DANMEN
  6
CONTINUOUS
 10
198.91151932827799
 20
301.89321522092462
 30
0.0
 11
216.01152732827759
 21
301.89321522092462
 31
0.0
  0
LINE
  5
43DD
  8
DANMEN
  6
CONTINUOUS
 10
201.21152332827751
 20
313.89321522092462
 30
0.0
 11
216.21152332827751
 21
313.89321522092462
 31
0.0
  0
LINE
  5
43DE
  8
DANMEN
  6
CONTINUOUS
 10
217.0031273282776
 20
297.76921522092448
 30
0.0
 11
207.21152332827751
 21
299.59321522092472
 31
0.0
  0
ARC
  5
43DF
  8
DANMEN
  6
CONTINUOUS
 10
213.71152332827751
 20
295.83961522092471
 30
0.0
 40
1.0
 50
0.0
 51
79.448402000000456
  0
LINE
  5
43E0
  8
DANMEN
  6
CONTINUOUS
 10
198.16151932827751
 20
299.89321522092462
 30
0.0
 11
216.71152332827759
 21
299.89321522092462
 31
0.0
  0
LINE
  5
43E1
  8
DANMEN
  6
CONTINUOUS
 10
216.86272332827761
 20
326.52961522092448
 30
0.0
 11
211.21152332827751
 21
327.1020152209245
 31
0.0
  0
LINE
  5
43E2
  8
DANMEN
  6
CONTINUOUS
 10
195.21152332827759
 20
369.89321522092462
 30
0.0
 11
195.21152332827759
 21
324.39321522092467
 31
0.0
  0
LINE
  5
43E3
  8
DANMEN
  6
CONTINUOUS
 10
206.21152332827751
 20
369.89321522092462
 30
0.0
 11
206.21152332827751
 21
317.89321522092462
 31
0.0
  0
LINE
  5
43E4
  8
DANMEN
  6
CONTINUOUS
 10
211.21152332827751
 20
369.89321522092462
 30
0.0
 11
211.21152332827751
 21
317.89321522092462
 31
0.0
  0
LINE
  5
43E5
  8
DANMEN
  6
CONTINUOUS
 10
206.9115193282779
 20
369.89321522092462
 30
0.0
 11
206.9115193282779
 21
317.89321522092462
 31
0.0
  0
LINE
  5
43E6
  8
DANMEN
  6
CONTINUOUS
 10
210.51152732827759
 20
369.89321522092462
 30
0.0
 11
210.51152732827759
 21
317.89321522092462
 31
0.0
  0
LINE
  5
43E7
  8
DANMEN
  6
CONTINUOUS
 10
199.21152332827759
 20
369.89321522092462
 30
0.0
 11
199.21152332827759
 21
324.89321522092467
 31
0.0
  0
LINE
  5
43E8
  8
DANMEN
  6
CONTINUOUS
 10
218.21152332827751
 20
369.89321522092462
 30
0.0
 11
218.21152332827751
 21
324.89321522092467
 31
0.0
  0
LINE
  5
43E9
  8
DANMEN
  6
CONTINUOUS
 10
217.76152732827751
 20
294.39321522092479
 30
0.0
 11
216.21152332827751
 21
294.39321522092479
 31
0.0
  0
LINE
  5
43EA
  8
DANMEN
  6
CONTINUOUS
 10
216.76152732827759
 20
292.89321522092462
 30
0.0
 11
215.71152332827751
 21
292.89321522092462
 31
0.0
  0
LINE
  5
43EB
  8
DANMEN
  6
CONTINUOUS
 10
217.76152732827751
 20
294.39321522092479
 30
0.0
 11
217.76152732827751
 21
294.89321522092462
 31
0.0
  0
ARC
  5
43EC
  8
DANMEN
  6
CONTINUOUS
 10
215.71152332827751
 20
293.89321522092462
 30
0.0
 40
1.0
 50
180.0
 51
270.0
  0
ARC
  5
43ED
  8
DANMEN
  6
CONTINUOUS
 10
216.76152732827759
 20
291.8932152209249
 30
0.0
 40
1.0
 50
0.0
 51
90.0
  0
LINE
  5
43EE
  8
DANMEN
  6
CONTINUOUS
 10
216.71152332827759
 20
294.89321522092462
 30
0.0
 11
219.21152332827759
 21
294.89321522092462
 31
0.0
  0
LINE
  5
43EF
  8
DANMEN
  6
CONTINUOUS
 10
219.71152332827751
 20
294.89321522092462
 30
0.0
 11
217.76152732827751
 21
294.89321522092462
 31
0.0
  0
ARC
  5
43F0
  8
DANMEN
  6
CONTINUOUS
 10
219.21152332827759
 20
275.39321522092479
 30
0.0
 40
0.5
 50
270.0
 51
0.0
  0
LINE
  5
43F1
  8
DANMEN
  6
CONTINUOUS
 10
217.76152732827751
 20
277.89321522092479
 30
0.0
 11
216.21152332827751
 21
277.89321522092479
 31
0.0
  0
LINE
  5
43F2
  8
DANMEN
  6
CONTINUOUS
 10
216.21152332827751
 20
275.89321522092479
 30
0.0
 11
216.21152332827751
 21
277.89321522092479
 31
0.0
  0
LINE
  5
43F3
  8
DANMEN
  6
CONTINUOUS
 10
214.9115193282779
 20
278.6904952209249
 30
0.0
 11
214.9115193282779
 21
278.75469522092459
 31
0.0
  0
LINE
  5
43F4
  8
DANMEN
  6
CONTINUOUS
 10
215.43751932827789
 20
277.8100552209246
 30
0.0
 11
216.21152332827751
 21
277.3932152209249
 31
0.0
  0
ARC
  5
43F5
  8
DANMEN
  6
CONTINUOUS
 10
215.91151932827799
 20
278.6904952209249
 30
0.0
 40
1.0
 50
180.0
 51
241.6990050000006
  0
LINE
  5
43F6
  8
DANMEN
  6
CONTINUOUS
 10
218.21152332827751
 20
274.74897522092471
 30
0.0
 11
218.21152332827751
 21
274.89321522092462
 31
0.0
  0
LINE
  5
43F7
  8
DANMEN
  6
CONTINUOUS
 10
216.21152332827751
 20
274.89321522092462
 30
0.0
 11
218.21152332827751
 21
274.89321522092462
 31
0.0
  0
ARC
  5
43F8
  8
DANMEN
  6
CONTINUOUS
 10
216.71152332827759
 20
274.74897522092471
 30
0.0
 40
1.5
 50
275.78201300000018
 51
0.0
  0
LINE
  5
43F9
  8
DANMEN
  6
CONTINUOUS
 10
216.21152332827751
 20
274.89321522092462
 30
0.0
 11
216.21152332827751
 21
277.3932152209249
 31
0.0
  0
ARC
  5
43FA
  8
DANMEN
  6
CONTINUOUS
 10
217.21152332827759
 20
275.89321522092479
 30
0.0
 40
1.0
 50
180.0
 51
270.0
  0
LINE
  5
43FB
  8
DANMEN
  6
CONTINUOUS
 10
219.21152332827759
 20
274.89321522092462
 30
0.0
 11
217.21152332827759
 21
274.89321522092462
 31
0.0
  0
LINE
  5
43FC
  8
DANMEN
  6
CONTINUOUS
 10
219.71152332827751
 20
275.39321522092479
 30
0.0
 11
219.71152332827751
 21
294.89321522092462
 31
0.0
  0
LINE
  5
43FD
  8
DANMEN
  6
CONTINUOUS
 10
217.76152732827751
 20
277.89321522092479
 30
0.0
 11
217.76152732827751
 21
291.8932152209249
 31
0.0
  0
LINE
  5
43FE
  8
DANMEN
  6
CONTINUOUS
 10
216.91151932827759
 20
278.69321522092463
 30
0.0
 11
216.91151932827759
 21
279.3932152209249
 31
0.0
  0
LINE
  5
43FF
  8
DANMEN
  6
CONTINUOUS
 10
215.59711932827801
 20
279.21893522092461
 30
0.0
 11
216.91151932827759
 21
278.69321522092463
 31
0.0
  0
ARC
  5
4400
  8
DANMEN
  6
CONTINUOUS
 10
215.4115193282779
 20
278.75469522092459
 30
0.0
 40
0.5
 50
68.198096999999493
 51
180.0
  0
LINE
  5
4401
  8
SUNPO
 10
224.21152332827751
 20
274.89321522092462
 30
0.0
 11
238.21152332827751
 21
274.89321522092462
 31
0.0
  0
LINE
  5
4402
  8
DANMEN
  6
CONTINUOUS
 10
218.21152332827751
 20
274.89321522092462
 30
0.0
 11
218.21152332827751
 21
259.89321522092467
 31
0.0
  0
LINE
  5
4403
  8
DANMEN
  6
CONTINUOUS
 10
211.21152332827751
 20
280.15473522092481
 30
0.0
 11
213.26352332827781
 21
281.25973522092471
 31
0.0
  0
ARC
  5
4404
  8
DANMEN
  6
CONTINUOUS
 10
213.50072332827759
 20
280.81949522092481
 30
0.0
 40
0.5
 50
59.534400999999299
 51
118.3010029999996
  0
LINE
  5
4405
  8
DANMEN
  6
CONTINUOUS
 10
206.21152332827751
 20
281.89321522092479
 30
0.0
 11
211.21152332827751
 21
281.89321522092479
 31
0.0
  0
LINE
  5
4406
  8
DANMEN
  6
CONTINUOUS
 10
201.21152332827751
 20
294.39321522092479
 30
0.0
 11
201.21152332827751
 21
293.89321522092462
 31
0.0
  0
LINE
  5
4407
  8
DANMEN
  6
CONTINUOUS
 10
200.71152332827751
 20
294.89321522092462
 30
0.0
 11
200.01152732827759
 21
294.89321522092462
 31
0.0
  0
ARC
  5
4408
  8
DANMEN
  6
CONTINUOUS
 10
200.71152332827751
 20
293.89321522092462
 30
0.0
 40
0.5
 50
270.0
 51
0.0
  0
ARC
  5
4409
  8
DANMEN
  6
CONTINUOUS
 10
200.71152332827751
 20
294.39321522092479
 30
0.0
 40
0.5
 50
0.0
 51
90.0
  0
ARC
  5
440A
  8
DANMEN
  6
CONTINUOUS
 10
198.16151932827751
 20
292.39321522092479
 30
0.0
 40
1.0
 50
90.0
 51
180.0
  0
LINE
  5
440B
  8
DANMEN
  6
CONTINUOUS
 10
198.16151932827751
 20
293.39321522092462
 30
0.0
 11
200.71152332827751
 21
293.39321522092462
 31
0.0
  0
LINE
  5
440C
  8
DANMEN
  6
CONTINUOUS
 10
197.16151932827799
 20
294.89321522092462
 30
0.0
 11
200.71152332827751
 21
294.89321522092462
 31
0.0
  0
LINE
  5
440D
  8
DANMEN
  6
CONTINUOUS
 10
200.21152332827759
 20
282.89321522092462
 30
0.0
 11
200.21152332827759
 21
281.89321522092479
 31
0.0
  0
LINE
  5
440E
  8
DANMEN
  6
CONTINUOUS
 10
200.21152332827759
 20
281.89321522092479
 30
0.0
 11
200.71152332827751
 21
281.89321522092479
 31
0.0
  0
LINE
  5
440F
  8
DANMEN
  6
CONTINUOUS
 10
201.21152332827751
 20
283.89321522092479
 30
0.0
 11
201.21152332827751
 21
282.39321522092462
 31
0.0
  0
LINE
  5
4410
  8
DANMEN
  6
CONTINUOUS
 10
201.21152332827751
 20
281.59321522092461
 30
0.0
 11
201.21152332827751
 21
283.69321522092463
 31
0.0
  0
LINE
  5
4411
  8
DANMEN
  6
CONTINUOUS
 10
201.21152332827751
 20
283.69321522092463
 30
0.0
 11
202.71152332827751
 21
283.69321522092463
 31
0.0
  0
LINE
  5
4412
  8
DANMEN
  6
CONTINUOUS
 10
202.71152332827751
 20
281.19321522092463
 30
0.0
 11
202.71152332827751
 21
283.69321522092463
 31
0.0
  0
ARC
  5
4413
  8
DANMEN
  6
CONTINUOUS
 10
200.71152332827751
 20
282.39321522092462
 30
0.0
 40
0.5
 50
270.0
 51
0.0
  0
ARC
  5
4414
  8
DANMEN
  6
CONTINUOUS
 10
200.71152332827751
 20
283.89321522092479
 30
0.0
 40
0.5
 50
0.0
 51
90.0
  0
ARC
  5
4415
  8
DANMEN
  6
CONTINUOUS
 10
200.21152332827759
 20
279.89321522092479
 30
0.0
 40
0.5
 50
270.0
 51
90.0
  0
ARC
  5
4416
  8
DANMEN
  6
CONTINUOUS
 10
203.16151932827751
 20
281.19321522092463
 30
0.0
 40
0.449996
 50
180.0
 51
0.0
  0
LINE
  5
4417
  8
DANMEN
  6
CONTINUOUS
 10
198.85712332827799
 20
282.54601522092452
 30
0.0
 11
197.21152332827759
 21
280.89321522092462
 31
0.0
  0
LINE
  5
4418
  8
DANMEN
  6
CONTINUOUS
 10
199.71152332827759
 20
281.59321522092461
 30
0.0
 11
199.71152332827759
 21
282.19321522092463
 31
0.0
  0
ARC
  5
4419
  8
DANMEN
  6
CONTINUOUS
 10
198.16151932827751
 20
285.39321522092462
 30
0.0
 40
1.0
 50
180.0
 51
270.0
  0
ARC
  5
441A
  8
DANMEN
  6
CONTINUOUS
 10
198.16151932827751
 20
281.89321522092479
 30
0.0
 40
1.0
 50
90.0
 51
180.0
  0
ARC
  5
441B
  8
DANMEN
  6
CONTINUOUS
 10
198.71152332827751
 20
279.89321522092479
 30
0.0
 40
0.5
 50
90.0
 51
270.0
  0
LINE
  5
441C
  8
DANMEN
  6
CONTINUOUS
 10
198.16151932827751
 20
284.39321522092479
 30
0.0
 11
200.71152332827751
 21
284.39321522092479
 31
0.0
  0
LINE
  5
441D
  8
DANMEN
  6
CONTINUOUS
 10
198.16151932827751
 20
282.89321522092462
 30
0.0
 11
200.21152332827759
 21
282.89321522092462
 31
0.0
  0
LINE
  5
441E
  8
DANMEN
  6
CONTINUOUS
 10
199.71152332827759
 20
281.59321522092461
 30
0.0
 11
201.21152332827751
 21
281.59321522092461
 31
0.0
  0
LINE
  5
441F
  8
DANMEN
  6
CONTINUOUS
 10
198.71152332827751
 20
279.3932152209249
 30
0.0
 11
200.21152332827759
 21
279.3932152209249
 31
0.0
  0
LINE
  5
4420
  8
DANMEN
  6
CONTINUOUS
 10
198.71152332827751
 20
280.39321522092462
 30
0.0
 11
200.21152332827759
 21
280.39321522092462
 31
0.0
  0
ARC
  5
4421
  8
DANMEN
  6
CONTINUOUS
 10
199.21152332827759
 20
282.19321522092463
 30
0.0
 40
0.5
 50
0.0
 51
135.1239929999993
  0
LINE
  5
4422
  8
DANMEN
  6
CONTINUOUS
 10
197.16151932827799
 20
292.39321522092479
 30
0.0
 11
197.16151932827799
 21
285.39321522092462
 31
0.0
  0
LINE
  5
4423
  8
DANMEN
  6
CONTINUOUS
 10
203.6115233282778
 20
281.19321522092463
 30
0.0
 11
206.21152332827751
 21
281.19321522092463
 31
0.0
  0
LINE
  5
4424
  8
DANMEN
  6
CONTINUOUS
 10
200.21152332827759
 20
277.89321522092479
 30
0.0
 11
201.21152332827751
 21
277.89321522092479
 31
0.0
  0
LINE
  5
4425
  8
DANMEN
  6
CONTINUOUS
 10
201.21152332827751
 20
277.89321522092479
 30
0.0
 11
201.21152332827751
 21
275.39321522092479
 31
0.0
  0
LINE
  5
4426
  8
DANMEN
  6
CONTINUOUS
 10
200.21152332827759
 20
277.89321522092479
 30
0.0
 11
200.21152332827759
 21
276.84321522092472
 31
0.0
  0
LINE
  5
4427
  8
DANMEN
  6
CONTINUOUS
 10
201.21152332827751
 20
274.89321522092462
 30
0.0
 11
201.21152332827751
 21
278.19321522092463
 31
0.0
  0
ARC
  5
4428
  8
DANMEN
  6
CONTINUOUS
 10
200.71152332827751
 20
275.39321522092479
 30
0.0
 40
0.5
 50
270.0
 51
0.0
  0
LINE
  5
4429
  8
DANMEN
  6
CONTINUOUS
 10
198.85712332827799
 20
277.24041522092472
 30
0.0
 11
197.21152332827759
 21
278.89321522092462
 31
0.0
  0
LINE
  5
442A
  8
DANMEN
  6
CONTINUOUS
 10
199.71152332827759
 20
277.59321522092472
 30
0.0
 11
199.71152332827759
 21
278.19321522092463
 31
0.0
  0
LINE
  5
442B
  8
DANMEN
  6
CONTINUOUS
 10
199.21152332827759
 20
274.19321522092463
 30
0.0
 11
199.21152332827759
 21
274.89321522092462
 31
0.0
  0
ARC
  5
442C
  8
DANMEN
  6
CONTINUOUS
 10
195.71152332827751
 20
275.39321522092479
 30
0.0
 40
0.5
 50
180.0
 51
270.0
  0
LINE
  5
442D
  8
DANMEN
  6
CONTINUOUS
 10
197.16151932827799
 20
276.84321522092472
 30
0.0
 11
200.21152332827759
 21
276.84321522092472
 31
0.0
  0
LINE
  5
442E
  8
DANMEN
  6
CONTINUOUS
 10
199.71152332827759
 20
278.19321522092463
 30
0.0
 11
201.21152332827751
 21
278.19321522092463
 31
0.0
  0
ARC
  5
442F
  8
DANMEN
  6
CONTINUOUS
 10
199.21152332827759
 20
277.59321522092472
 30
0.0
 40
0.5
 50
224.87600700000041
 51
0.0
  0
LINE
  5
4430
  8
DANMEN
  6
CONTINUOUS
 10
195.71152332827751
 20
274.89321522092462
 30
0.0
 11
200.71152332827751
 21
274.89321522092462
 31
0.0
  0
LINE
  5
4431
  8
DANMEN
  6
CONTINUOUS
 10
199.21152332827759
 20
274.89321522092462
 30
0.0
 11
201.21152332827751
 21
274.89321522092462
 31
0.0
  0
ARC
  5
4432
  8
DANMEN
  6
CONTINUOUS
 10
200.21152332827759
 20
274.19321522092463
 30
0.0
 40
1.0
 50
180.0
 51
270.0
  0
LINE
  5
4433
  8
DANMEN
  6
CONTINUOUS
 10
200.21152332827759
 20
273.19321522092469
 30
0.0
 11
206.21152332827751
 21
273.19321522092469
 31
0.0
  0
LINE
  5
4434
  8
DANMEN
  6
CONTINUOUS
 10
197.16151932827799
 20
281.89321522092479
 30
0.0
 11
197.16151932827799
 21
276.84321522092472
 31
0.0
  0
LINE
  5
4435
  8
DANMEN
  6
CONTINUOUS
 10
197.21152332827759
 20
278.89321522092462
 30
0.0
 11
197.21152332827759
 21
280.89321522092462
 31
0.0
  0
LINE
  5
4437
  8
DANMEN
  6
CONTINUOUS
 10
199.21152332827759
 20
274.89321522092462
 30
0.0
 11
199.21152332827759
 21
259.89321522092467
 31
0.0
  0
LINE
  5
4438
  8
DANMEN
  6
CONTINUOUS
 10
195.21152332827759
 20
275.39321522092479
 30
0.0
 11
195.21152332827759
 21
259.89321522092467
 31
0.0
  0
LINE
  5
4439
  8
DANMEN
  6
CONTINUOUS
 10
206.21152332827751
 20
281.89321522092479
 30
0.0
 11
206.21152332827751
 21
259.89321522092467
 31
0.0
  0
LINE
  5
443A
  8
DANMEN
  6
CONTINUOUS
 10
211.21152332827751
 20
281.89321522092479
 30
0.0
 11
211.21152332827751
 21
259.89321522092467
 31
0.0
  0
LINE
  5
443B
  8
DANMEN
  6
CONTINUOUS
 10
206.9115193282779
 20
281.89321522092479
 30
0.0
 11
206.9115193282779
 21
259.89321522092467
 31
0.0
  0
LINE
  5
443C
  8
DANMEN
  6
CONTINUOUS
 10
210.51152732827759
 20
281.89321522092479
 30
0.0
 11
210.51152732827759
 21
259.89321522092467
 31
0.0
  0
LINE
  5
443D
  8
DANMEN
  6
CONTINUOUS
 10
216.91151932827759
 20
279.3932152209249
 30
0.0
 11
213.75432332827759
 21
281.25045522092472
 31
0.0
  0
LINE
  5
443E
  8
DANMEN
  6
CONTINUOUS
 10
216.86272332827761
 20
273.25661522092452
 30
0.0
 11
211.21152332827751
 21
272.68433522092471
 31
0.0
  0
LINE
  5
443F
  8
DANMEN
  6
CONTINUOUS
 10
216.21152332827751
 20
294.39321522092479
 30
0.0
 11
216.21152332827751
 21
296.69321522092451
 31
0.0
  0
LINE
  5
4440
  8
DANMEN
  6
CONTINUOUS
 10
214.71152332827759
 20
293.89321522092462
 30
0.0
 11
214.71152332827759
 21
295.83961522092471
 31
0.0
  0
ARC
  5
4441
  8
DANMEN
  6
CONTINUOUS
 10
216.71152332827759
 20
295.39321522092462
 30
0.0
 40
0.5
 50
180.0
 51
270.0
  0
ARC
  5
4442
  8
DANMEN
  6
CONTINUOUS
 10
219.21152332827759
 20
295.39321522092462
 30
0.0
 40
0.5
 50
270.0
 51
0.0
  0
LINE
  5
4443
  8
DANMEN
  6
CONTINUOUS
 10
197.16151932827799
 20
298.89321522092479
 30
0.0
 11
197.16151932827799
 21
294.89321522092462
 31
0.0
  0
ARC
  5
4444
  8
DANMEN
  6
CONTINUOUS
 10
200.71152332827751
 20
295.39321522092462
 30
0.0
 40
0.5
 50
270.0
 51
0.0
  0
ARC
  5
4445
  8
DANMEN
  6
CONTINUOUS
 10
200.01152732827759
 20
295.19321522092463
 30
0.0
 40
0.300004
 50
180.0
 51
270.0
  0
LINE
  5
4446
  8
DANMEN
  6
CONTINUOUS
 10
195.21152332827759
 20
324.39321522092467
 30
0.0
 11
195.21152332827759
 21
275.39321522092479
 31
0.0
  0
LINE
  5
4447
  8
DANMEN
  6
CONTINUOUS
 10
192.0615233282775
 20
369.89321522092462
 30
0.0
 11
192.0615233282775
 21
259.89321522092467
 31
0.0
  0
LINE
  5
4448
  8
DANMEN
  6
CONTINUOUS
 10
222.21152332827751
 20
369.89321522092462
 30
0.0
 11
222.21152332827751
 21
259.89321522092467
 31
0.0
  0
LINE
  5
4449
  8
SUNPO
 10
238.21152332827751
 20
324.89321522092467
 30
0.0
 11
238.21152332827751
 21
274.89321522092462
 31
0.0
  0
POLYLINE
  5
444A
  8
SUNPO
  6
BYBLOCK
 66
     1
 10
0.0
 20
0.0
 30
0.0
 70
     1
 40
1.159999999999999
 41
1.159999999999999
  0
VERTEX
  5
47AB
  8
SUNPO
  6
BYBLOCK
 10
183.29977411980241
 20
77.643280905763433
 30
0.0
 42
1.0
  0
VERTEX
  5
47AC
  8
SUNPO
  6
BYBLOCK
 10
183.43332304034411
 20
77.651272620387147
 30
0.0
 42
1.0
  0
SEQEND
  5
47AD
  8
SUNPO
  6
BYBLOCK
  0
POLYLINE
  5
444E
  8
SUNPO
  6
BYBLOCK
 66
     1
 10
0.0
 20
0.0
 30
0.0
 70
     1
 40
1.159999999999999
 41
1.159999999999999
  0
VERTEX
  5
47AE
  8
SUNPO
  6
BYBLOCK
 10
318.29645459163839
 20
93.640215318398702
 30
0.0
 42
1.0
  0
VERTEX
  5
47AF
  8
SUNPO
  6
BYBLOCK
 10
318.43000351218001
 20
93.648207033022416
 30
0.0
 42
1.0
  0
SEQEND
  5
47B0
  8
SUNPO
  6
BYBLOCK
  0
POLYLINE
  5
4452
  8
SUNPO
  6
BYBLOCK
 66
     1
 10
0.0
 20
0.0
 30
0.0
 70
     1
 40
1.159999999999999
 41
1.159999999999999
  0
VERTEX
  5
47B1
  8
SUNPO
  6
BYBLOCK
 10
348.29698899329469
 20
93.645383223558895
 30
0.0
 42
1.0
  0
VERTEX
  5
47B2
  8
SUNPO
  6
BYBLOCK
 10
348.43053791383619
 20
93.653374938182566
 30
0.0
 42
1.0
  0
SEQEND
  5
47B3
  8
SUNPO
  6
BYBLOCK
  0
TEXT
  5
4456
  8
SUNPO
  6
CONTINUOUS
 10
426.81103191530121
 20
141.7212631425688
 30
0.0
 40
3.0
  1
70
 50
90.000057295779328
 41
1.1000000000000001
  7
MX_DIMTXSTY_3
  0
POLYLINE
  5
4457
  8
SUNPO
  6
BYBLOCK
 66
     1
 10
0.0
 20
0.0
 30
0.0
 70
     1
 40
1.159999999999999
 41
1.159999999999999
  0
VERTEX
  5
47B4
  8
SUNPO
  6
BYBLOCK
 10
427.55107710809341
 20
179.62871548799939
 30
0.0
 42
1.0
  0
VERTEX
  5
47B5
  8
SUNPO
  6
BYBLOCK
 10
427.68462602863519
 20
179.63670720262311
 30
0.0
 42
1.0
  0
SEQEND
  5
47B6
  8
SUNPO
  6
BYBLOCK
  0
POLYLINE
  5
445B
  8
SUNPO
  6
BYBLOCK
 66
     1
 10
0.0
 20
0.0
 30
0.0
 70
     1
 40
1.159999999999999
 41
1.159999999999999
  0
VERTEX
  5
47B7
  8
SUNPO
  6
BYBLOCK
 10
427.54673166996309
 20
109.64081647872879
 30
0.0
 42
1.0
  0
VERTEX
  5
47B8
  8
SUNPO
  6
BYBLOCK
 10
427.68028059050482
 20
109.64880819335249
 30
0.0
 42
1.0
  0
SEQEND
  5
47B9
  8
SUNPO
  6
BYBLOCK
  0
TEXT
  5
445F
  8
SUNPO
  6
CONTINUOUS
 10
331.34437090326043
 20
94.548606075968195
 30
0.0
 40
3.0
  1
30
 50
0.0000572957793684
 41
1.1000000000000001
  7
MX_DIMTXSTY_3
  0
LINE
  5
4460
  8
DANMEN
  6
CONTINUOUS
 10
318.36479042842609
 20
113.63996127035659
 30
0.0
 11
266.86479042842609
 21
113.63996127035659
 31
0.0
  0
LINE
  5
4461
  8
DANMEN
  6
CONTINUOUS
 10
318.36479042842609
 20
132.63996127035631
 30
0.0
 11
266.86479042842609
 21
132.63996127035631
 31
0.0
  0
LINE
  5
4462
  8
DANMEN
  6
CONTINUOUS
 10
325.36479042842609
 20
124.9399652703564
 30
0.0
 11
266.86479042842609
 21
124.9399652703564
 31
0.0
  0
LINE
  5
4463
  8
DANMEN
  6
CONTINUOUS
 10
325.36479042842609
 20
121.33995727035661
 30
0.0
 11
266.86479042842609
 21
121.33995727035661
 31
0.0
  0
LINE
  5
4464
  8
DANMEN
  6
CONTINUOUS
 10
325.36479042842609
 20
125.63996127035639
 30
0.0
 11
266.86479042842609
 21
125.63996127035639
 31
0.0
  0
LINE
  5
4465
  8
DANMEN
  6
CONTINUOUS
 10
325.36479042842609
 20
120.63996127035649
 30
0.0
 11
266.86479042842609
 21
120.63996127035649
 31
0.0
  0
LINE
  5
4466
  8
DANMEN
  6
CONTINUOUS
 10
318.36479042842609
 20
136.63996127035639
 30
0.0
 11
266.86479042842609
 21
136.63996127035639
 31
0.0
  0
LINE
  5
4467
  8
DANMEN
  6
CONTINUOUS
 10
399.8647904284262
 20
179.63996127035631
 30
0.0
 11
266.86479042842609
 21
179.63996127035631
 31
0.0
  0
LINE
  5
4468
  8
DANMEN
  6
CONTINUOUS
 10
266.86479042842609
 20
111.13996127035669
 30
0.0
 11
399.8647904284262
 21
111.13996127035669
 31
0.0
  0
LINE
  5
4469
  8
DANMEN
  6
CONTINUOUS
 10
266.86479042842609
 20
109.63996127035659
 30
0.0
 11
399.8647904284262
 21
109.63996127035659
 31
0.0
  0
LINE
  5
446A
  8
DANMEN
  6
CONTINUOUS
 10
118.31435912449371
 20
233.1400336209158
 30
0.0
 11
118.31435912449371
 21
135.6400336209158
 31
0.0
  0
LINE
  5
446B
  8
DANMEN
  6
CONTINUOUS
 10
99.314359124493805
 20
233.1400336209158
 30
0.0
 11
99.314359124493805
 21
135.6400336209158
 31
0.0
  0
LINE
  5
446C
  8
DANMEN
  6
CONTINUOUS
 10
62.314359124493819
 20
233.14003362091589
 30
0.0
 11
62.314359124493819
 21
88.221393620916487
 31
0.0
  0
LINE
  5
446D
  8
DANMEN
  6
CONTINUOUS
 10
122.31435912449371
 20
233.1400336209158
 30
0.0
 11
122.31435912449371
 21
137.140033620916
 31
0.0
  0
LINE
  5
446E
  8
DANMEN
  6
CONTINUOUS
 10
110.61436312449371
 20
233.1400336209158
 30
0.0
 11
110.61436312449371
 21
128.640033620916
 31
0.0
  0
LINE
  5
446F
  8
DANMEN
  6
CONTINUOUS
 10
107.0143551244936
 20
233.1400336209158
 30
0.0
 11
107.0143551244936
 21
128.640033620916
 31
0.0
  0
LINE
  5
4470
  8
DANMEN
  6
CONTINUOUS
 10
111.31435912449371
 20
233.1400336209158
 30
0.0
 11
111.31435912449371
 21
128.640033620916
 31
0.0
  0
LINE
  5
4471
  8
DANMEN
  6
CONTINUOUS
 10
106.31435912449371
 20
233.1400336209158
 30
0.0
 11
106.31435912449371
 21
128.640033620916
 31
0.0
  0
LINE
  5
4472
  8
DANMEN
  6
CONTINUOUS
 10
120.31435912449371
 20
233.1400336209158
 30
0.0
 11
120.31435912449371
 21
135.6400336209158
 31
0.0
  0
LINE
  5
4473
  8
DANMEN
  6
CONTINUOUS
 10
52.314359124494153
 20
233.1400336209158
 30
0.0
 11
52.314359124494153
 21
87.140033620916569
 31
0.0
  0
LINE
  5
4474
  8
SUNPO
 10
138.31435912449371
 20
137.6400336209158
 30
0.0
 11
138.31435912449371
 21
77.640033620916554
 31
0.0
  0
ARC
  5
4475
  8
DANMEN
  6
CONTINUOUS
 10
100.81435912449371
 20
126.640033620916
 30
0.0
 40
0.5
 50
270.0
 51
0.0
  0
LINE
  5
4476
  8
DANMEN
  6
CONTINUOUS
 10
120.6643591244937
 20
127.53999362091599
 30
0.0
 11
120.6643591244937
 21
123.139993620916
 31
0.0
  0
LINE
  5
4477
  8
DANMEN
  6
CONTINUOUS
 10
95.314359124493805
 20
135.140033620916
 30
0.0
 11
95.314359124493805
 21
112.1399936209165
 31
0.0
  0
LINE
  5
4478
  8
DANMEN
  6
CONTINUOUS
 10
122.31435912449371
 20
137.140033620916
 30
0.0
 11
122.31435912449371
 21
93.140033620916554
 31
0.0
  0
LINE
  5
4479
  8
DANMEN
  6
CONTINUOUS
 10
113.31435912449371
 20
128.640033620916
 30
0.0
 11
103.31435912449371
 21
117.2900336209165
 31
0.0
  0
LINE
  5
447A
  8
DANMEN
  6
CONTINUOUS
 10
103.31435912449371
 20
126.640033620916
 30
0.0
 11
103.31435912449371
 21
117.2900336209165
 31
0.0
  0
LINE
  5
447B
  8
DANMEN
  6
CONTINUOUS
 10
113.31435912449371
 20
128.640033620916
 30
0.0
 11
113.31435912449371
 21
117.2900336209165
 31
0.0
  0
LINE
  5
447C
  8
DANMEN
  6
CONTINUOUS
 10
77.556355124493805
 20
87.454753620916478
 30
0.0
 11
94.806355124493876
 21
88.457673620916466
 31
0.0
  0
LINE
  5
447D
  8
DANMEN
  6
CONTINUOUS
 10
52.78555912449405
 20
87.667393620916528
 30
0.0
 11
93.430355124493843
 21
90.030473620916538
 31
0.0
  0
LINE
  5
447E
  8
DANMEN
  6
CONTINUOUS
 10
65.814359124493819
 20
77.640033620916554
 30
0.0
 11
122.31435912449371
 21
77.640033620916554
 31
0.0
  0
LINE
  5
447F
  8
DANMEN
  6
CONTINUOUS
 10
65.814359124493819
 20
77.790033620916446
 30
0.0
 11
65.814359124493819
 21
68.140033620916569
 31
0.0
  0
LINE
  5
4480
  8
DANMEN
  6
CONTINUOUS
 10
64.314359124493819
 20
77.640033620916554
 30
0.0
 11
64.314359124493819
 21
68.140033620916569
 31
0.0
  0
ARC
  5
4481
  8
DANMEN
  6
CONTINUOUS
 10
65.314359124493805
 20
68.140033620916569
 30
0.0
 40
0.5
 50
270.0
 51
0.0
  0
ARC
  5
4482
  8
DANMEN
  6
CONTINUOUS
 10
64.814359124493819
 20
68.140033620916569
 30
0.0
 40
0.5
 50
180.0
 51
270.0
  0
LINE
  5
4483
  8
DANMEN
  6
CONTINUOUS
 10
64.814359124493819
 20
67.640033620916554
 30
0.0
 11
65.314359124493805
 21
67.640033620916554
 31
0.0
  0
LINE
  5
4484
  8
DANMEN
  6
CONTINUOUS
 10
54.906359124494323
 20
86.137873620916537
 30
0.0
 11
68.95635912449427
 21
86.954753620916463
 31
0.0
  0
ARC
  5
4485
  8
DANMEN
  6
CONTINUOUS
 10
52.814359124494167
 20
78.140033620916583
 30
0.0
 40
0.5
 50
180.0
 51
270.0
  0
ARC
  5
4486
  8
DANMEN
  6
CONTINUOUS
 10
56.814359124493819
 20
82.890033620916583
 30
0.0
 40
0.5
 50
0.0
 51
90.0
  0
ARC
  5
4487
  8
DANMEN
  6
CONTINUOUS
 10
54.964359124493853
 20
84.390033620916597
 30
0.0
 40
1.0
 50
180.0
 51
270.0
  0
ARC
  5
4488
  8
DANMEN
  6
CONTINUOUS
 10
54.964359124493853
 20
85.139593620916571
 30
0.0
 40
1.0
 50
93.327399999999628
 51
180.0
  0
ARC
  5
4489
  8
DANMEN
  6
CONTINUOUS
 10
52.814359124494167
 20
87.168233620916467
 30
0.0
 40
0.5
 50
93.327598999999637
 51
180.0
  0
ARC
  5
448A
  8
DANMEN
  6
CONTINUOUS
 10
56.814359124493819
 20
82.240033620916634
 30
0.0
 40
0.5
 50
270.0
 51
0.0
  0
ARC
  5
448B
  8
DANMEN
  6
CONTINUOUS
 10
64.314359124493819
 20
77.790033620916446
 30
0.0
 40
1.5
 50
0.0
 51
90.0
  0
LINE
  5
448C
  8
DANMEN
  6
CONTINUOUS
 10
53.964359124494301
 20
81.740033620916478
 30
0.0
 11
53.964359124494301
 21
79.290033620916446
 31
0.0
  0
LINE
  5
448D
  8
DANMEN
  6
CONTINUOUS
 10
52.814359124494167
 20
77.640033620916554
 30
0.0
 11
64.314359124493819
 21
77.640033620916554
 31
0.0
  0
LINE
  5
448E
  8
DANMEN
  6
CONTINUOUS
 10
54.964359124493853
 20
83.390033620916569
 30
0.0
 11
56.814359124493819
 21
83.390033620916569
 31
0.0
  0
LINE
  5
448F
  8
DANMEN
  6
CONTINUOUS
 10
53.964359124494301
 20
85.139593620916571
 30
0.0
 11
53.964359124494301
 21
84.390033620916597
 31
0.0
  0
LINE
  5
4490
  8
DANMEN
  6
CONTINUOUS
 10
53.964359124494301
 20
81.740033620916478
 30
0.0
 11
56.814359124493819
 21
81.740033620916478
 31
0.0
  0
LINE
  5
4491
  8
DANMEN
  6
CONTINUOUS
 10
53.964359124494301
 20
79.290033620916446
 30
0.0
 11
64.314359124493819
 21
79.290033620916446
 31
0.0
  0
LINE
  5
4492
  8
DANMEN
  6
CONTINUOUS
 10
57.314359124493819
 20
82.890033620916583
 30
0.0
 11
57.314359124493819
 21
82.240033620916634
 31
0.0
  0
LINE
  5
4493
  8
DANMEN
  6
CONTINUOUS
 10
52.314359124494153
 20
87.168233620916467
 30
0.0
 11
52.314359124494153
 21
78.140033620916583
 31
0.0
  0
ARC
  5
4494
  8
DANMEN
  6
CONTINUOUS
 10
69.014359124493808
 20
85.956433620916556
 30
0.0
 40
1.0
 50
0.0
 51
93.327399999999628
  0
ARC
  5
4495
  8
DANMEN
  6
CONTINUOUS
 10
77.614363124493806
 20
86.456433620916542
 30
0.0
 40
1.0
 50
93.327598999999637
 51
180.0
  0
ARC
  5
4496
  8
DANMEN
  6
CONTINUOUS
 10
74.614363124493806
 20
83.603113620916446
 30
0.0
 40
0.2
 50
114.62499999999881
 51
180.0
  0
ARC
  5
4497
  8
DANMEN
  6
CONTINUOUS
 10
74.114359124493845
 20
84.693953620916574
 30
0.0
 40
1.0
 50
294.62399299999947
 51
0.0
  0
ARC
  5
4498
  8
DANMEN
  6
CONTINUOUS
 10
72.014359124493794
 20
83.603113620916446
 30
0.0
 40
0.2
 50
0.0
 51
65.376099000000409
  0
ARC
  5
4499
  8
DANMEN
  6
CONTINUOUS
 10
72.514359124493794
 20
84.693953620916574
 30
0.0
 40
1.0
 50
180.0
 51
245.37600699999959
  0
ARC
  5
449A
  8
DANMEN
  6
CONTINUOUS
 10
72.014359124493794
 20
84.609433620916448
 30
0.0
 40
2.0
 50
180.0
 51
258.46099899999928
  0
ARC
  5
449B
  8
DANMEN
  6
CONTINUOUS
 10
71.714359124494308
 20
83.140033620916597
 30
0.0
 40
0.5
 50
258.46099899999928
 51
0.0
  0
ARC
  5
449C
  8
DANMEN
  6
CONTINUOUS
 10
72.514359124493794
 20
85.940033620916466
 30
0.0
 40
1.0
 50
90.0
 51
180.0
  0
ARC
  5
449D
  8
DANMEN
  6
CONTINUOUS
 10
74.614363124493806
 20
84.609433620916448
 30
0.0
 40
2.0
 50
281.5390010000001
 51
0.0
  0
ARC
  5
449E
  8
DANMEN
  6
CONTINUOUS
 10
74.914359124493842
 20
83.140033620916597
 30
0.0
 40
0.5
 50
180.0
 51
281.5390010000001
  0
ARC
  5
449F
  8
DANMEN
  6
CONTINUOUS
 10
74.114359124493845
 20
85.940033620916466
 30
0.0
 40
1.0
 50
0.0
 51
90.0
  0
LINE
  5
44A0
  8
DANMEN
  6
CONTINUOUS
 10
72.214359124494294
 20
83.603113620916446
 30
0.0
 11
72.214359124494294
 21
83.140033620916597
 31
0.0
  0
LINE
  5
44A1
  8
DANMEN
  6
CONTINUOUS
 10
72.514359124493794
 20
86.940033620916466
 30
0.0
 11
74.114359124493845
 21
86.940033620916466
 31
0.0
  0
LINE
  5
44A2
  8
DANMEN
  6
CONTINUOUS
 10
70.01435912449432
 20
85.956433620916556
 30
0.0
 11
70.01435912449432
 21
84.609433620916448
 31
0.0
  0
LINE
  5
44A3
  8
DANMEN
  6
CONTINUOUS
 10
71.514359124493808
 20
85.940033620916466
 30
0.0
 11
71.514359124493808
 21
84.693953620916574
 31
0.0
  0
LINE
  5
44A4
  8
DANMEN
  6
CONTINUOUS
 10
74.414359124493842
 20
83.140033620916597
 30
0.0
 11
74.414359124493842
 21
83.603113620916446
 31
0.0
  0
LINE
  5
44A5
  8
DANMEN
  6
CONTINUOUS
 10
76.614363124493806
 20
84.609433620916448
 30
0.0
 11
76.614363124493806
 21
86.456433620916542
 31
0.0
  0
LINE
  5
44A6
  8
DANMEN
  6
CONTINUOUS
 10
75.114363124493806
 20
84.693953620916574
 30
0.0
 11
75.114363124493806
 21
85.940033620916466
 31
0.0
  0
ARC
  5
44A7
  8
DANMEN
  6
CONTINUOUS
 10
116.31435912449371
 20
119.1399936209164
 30
0.0
 40
1.0
 50
90.0
 51
180.0
  0
LINE
  5
44A8
  8
DANMEN
  6
CONTINUOUS
 10
110.9495591244936
 20
103.3043976209164
 30
0.0
 11
119.3947591244936
 21
105.6690016209165
 31
0.0
  0
LINE
  5
44A9
  8
DANMEN
  6
CONTINUOUS
 10
113.81435912449371
 20
122.139993620916
 30
0.0
 11
119.6643591244937
 21
122.139993620916
 31
0.0
  0
LINE
  5
44AA
  8
DANMEN
  6
CONTINUOUS
 10
96.044759124493865
 20
100.8444696209165
 30
0.0
 11
118.1231591244936
 21
107.0264456209165
 31
0.0
  0
ARC
  5
44AB
  8
DANMEN
  6
CONTINUOUS
 10
102.9379551244937
 20
100.02261762091629
 30
0.0
 40
1.0
 50
15.641900000000311
 51
105.6419980000001
  0
ARC
  5
44AC
  8
DANMEN
  6
CONTINUOUS
 10
106.3283591244942
 20
100.89467362091651
 30
0.0
 40
1.0
 50
105.6419980000001
 51
195.64199800000009
  0
ARC
  5
44AD
  8
DANMEN
  6
CONTINUOUS
 10
96.314359124493791
 20
99.881533620916485
 30
0.0
 40
1.0
 50
105.64299799999959
 51
180.0
  0
LINE
  5
44AE
  8
DANMEN
  6
CONTINUOUS
 10
110.6351591244937
 20
100.7188496209163
 30
0.0
 11
110.2563591244937
 21
102.0717976209164
 31
0.0
  0
LINE
  5
44AF
  8
DANMEN
  6
CONTINUOUS
 10
109.16795912449371
 20
100.39579362091651
 30
0.0
 11
108.8319591244942
 21
101.5957056209165
 31
0.0
  0
LINE
  5
44B0
  8
DANMEN
  6
CONTINUOUS
 10
97.694759124493814
 20
99.593001620916581
 30
0.0
 11
102.6683551244937
 21
100.98558162091651
 31
0.0
  0
LINE
  5
44B1
  8
DANMEN
  6
CONTINUOUS
 10
95.314359124493805
 20
112.1399936209165
 30
0.0
 11
95.314359124493805
 21
99.881533620916485
 31
0.0
  0
ARC
  5
44B2
  8
DANMEN
  6
CONTINUOUS
 10
94.864363124493792
 20
83.635033620916573
 30
0.0
 40
1.0
 50
275.7399900000002
 51
0.0
  0
ARC
  5
44B3
  8
DANMEN
  6
CONTINUOUS
 10
94.864363124493792
 20
87.459353620916616
 30
0.0
 40
1.0
 50
359.9989930000001
 51
93.327598999999637
  0
ARC
  5
44B4
  8
DANMEN
  6
CONTINUOUS
 10
95.464359124494294
 20
82.140033620916569
 30
0.0
 40
0.5
 50
180.0
 51
270.0
  0
ARC
  5
44B5
  8
DANMEN
  6
CONTINUOUS
 10
96.464359124494308
 20
82.140033620916569
 30
0.0
 40
0.5
 50
270.0
 51
0.0
  0
ARC
  5
44B6
  8
DANMEN
  6
CONTINUOUS
 10
97.964359124494322
 20
98.630033620916564
 30
0.0
 40
1.0
 50
105.6419980000001
 51
180.0
  0
ARC
  5
44B7
  8
DANMEN
  6
CONTINUOUS
 10
93.314359124493791
 20
92.027113620916467
 30
0.0
 40
2.0
 50
273.32699600000001
 51
0.0
  0
LINE
  5
44B8
  8
DANMEN
  6
CONTINUOUS
 10
94.964359124494308
 20
82.640033620916554
 30
0.0
 11
94.964359124494308
 21
82.140033620916569
 31
0.0
  0
LINE
  5
44B9
  8
DANMEN
  6
CONTINUOUS
 10
95.864363124493792
 20
87.459353620916616
 30
0.0
 11
95.864363124493792
 21
83.635033620916573
 31
0.0
  0
LINE
  5
44BA
  8
DANMEN
  6
CONTINUOUS
 10
96.964359124493882
 20
98.630033620916564
 30
0.0
 11
96.964359124493882
 21
82.140033620916569
 31
0.0
  0
LINE
  5
44BB
  8
DANMEN
  6
CONTINUOUS
 10
95.464359124494294
 20
81.640033620916583
 30
0.0
 11
96.464359124494308
 21
81.640033620916583
 31
0.0
  0
LINE
  5
44BC
  8
DANMEN
  6
CONTINUOUS
 10
95.314359124493805
 20
99.881533620916485
 30
0.0
 11
95.314359124493805
 21
92.027113620916467
 31
0.0
  0
ARC
  5
44BD
  8
DANMEN
  6
CONTINUOUS
 10
108.98075512449419
 20
99.210513620916444
 30
0.0
 40
0.200004
 50
130.266998
 51
195.64199800000009
  0
ARC
  5
44BE
  8
DANMEN
  6
CONTINUOUS
 10
108.205159124494
 20
100.12616162091651
 30
0.0
 40
1.0
 50
310.266998
 51
15.64219999999948
  0
ARC
  5
44BF
  8
DANMEN
  6
CONTINUOUS
 10
106.4767591244935
 20
98.509473620916452
 30
0.0
 40
0.200004
 50
15.64199999999965
 51
81.017403000000272
  0
ARC
  5
44C0
  8
DANMEN
  6
CONTINUOUS
 10
106.6643591244937
 20
99.69476562091657
 30
0.0
 40
1.000003999999999
 50
195.64199800000009
 51
261.01800499999968
  0
ARC
  5
44C1
  8
DANMEN
  6
CONTINUOUS
 10
106.2055551244937
 20
99.478565620916484
 30
0.0
 40
2.0
 50
195.64199800000009
 51
274.1029970000003
  0
ARC
  5
44C2
  8
DANMEN
  6
CONTINUOUS
 10
106.31275512449371
 20
97.982673620916501
 30
0.0
 40
0.5
 50
274.1029970000003
 51
15.64219999999948
  0
ARC
  5
44C3
  8
DANMEN
  6
CONTINUOUS
 10
108.7091591244937
 20
100.1796016209165
 30
0.0
 40
2.0
 50
297.18100000000021
 51
15.64219999999948
  0
ARC
  5
44C4
  8
DANMEN
  6
CONTINUOUS
 10
109.3943591244936
 20
98.845473620916493
 30
0.0
 40
0.5
 50
195.64199800000009
 51
297.18100000000021
  0
LINE
  5
44C5
  8
DANMEN
  6
CONTINUOUS
 10
106.6695591244937
 20
98.563393620916543
 30
0.0
 11
106.7943631244937
 21
98.117473620916485
 31
0.0
  0
LINE
  5
44C6
  8
DANMEN
  6
CONTINUOUS
 10
103.9007631244942
 20
100.2922456209164
 30
0.0
 11
104.27956312449371
 21
98.939313620916437
 31
0.0
  0
LINE
  5
44C7
  8
DANMEN
  6
CONTINUOUS
 10
105.3651551244936
 20
100.6250496209164
 30
0.0
 11
105.7011631244936
 21
99.42513362091654
 31
0.0
  0
LINE
  5
44C8
  8
DANMEN
  6
CONTINUOUS
 10
108.9127551244937
 20
98.710673620916651
 30
0.0
 11
108.7879631244937
 21
99.15660562091648
 31
0.0
  0
LINE
  5
44C9
  8
DANMEN
  6
CONTINUOUS
 10
96.514355124493846
 20
115.6399936209165
 30
0.0
 11
102.31435912449371
 21
115.6399936209165
 31
0.0
  0
LINE
  5
44CA
  8
DANMEN
  6
CONTINUOUS
 10
96.964359124493882
 20
117.28999362091641
 30
0.0
 11
113.31435912449371
 21
117.28999362091641
 31
0.0
  0
LINE
  5
44CB
  8
DANMEN
  6
CONTINUOUS
 10
96.964359124493882
 20
126.1400336209159
 30
0.0
 11
100.81435912449371
 21
126.1400336209159
 31
0.0
  0
ARC
  5
44CC
  8
DANMEN
  6
CONTINUOUS
 10
96.014355124494287
 20
112.1399936209165
 30
0.0
 40
0.5
 50
270.0
 51
0.0
  0
ARC
  5
44CD
  8
DANMEN
  6
CONTINUOUS
 10
95.814359124493791
 20
112.1399936209165
 30
0.0
 40
0.5
 50
180.0
 51
270.0
  0
LINE
  5
44CE
  8
DANMEN
  6
CONTINUOUS
 10
96.964359124493882
 20
126.1400336209159
 30
0.0
 11
96.964359124493882
 21
117.28999362091641
 31
0.0
  0
LINE
  5
44CF
  8
DANMEN
  6
CONTINUOUS
 10
96.514355124493846
 20
115.6399936209165
 30
0.0
 11
96.514355124493846
 21
112.1399936209165
 31
0.0
  0
LINE
  5
44D0
  8
DANMEN
  6
CONTINUOUS
 10
95.814359124493791
 20
111.6399936209164
 30
0.0
 11
96.014355124494287
 21
111.6399936209164
 31
0.0
  0
ARC
  5
44D1
  8
DANMEN
  6
CONTINUOUS
 10
111.2191591244936
 20
102.3414336209164
 30
0.0
 40
1.0
 50
105.64299799999959
 51
195.64199800000009
  0
ARC
  5
44D2
  8
DANMEN
  6
CONTINUOUS
 10
107.86915912449371
 20
101.3260856209164
 30
0.0
 40
1.000003999999999
 50
15.642100000000539
 51
105.6419980000001
  0
ARC
  5
44D3
  8
DANMEN
  6
CONTINUOUS
 10
114.81435912449371
 20
116.1399936209164
 30
0.0
 40
0.5
 50
270.0
 51
0.0
  0
ARC
  5
44D4
  8
DANMEN
  6
CONTINUOUS
 10
102.31435912449371
 20
114.6399936209165
 30
0.0
 40
1.0
 50
0.0006009999999193
 51
90.0
  0
ARC
  5
44D5
  8
DANMEN
  6
CONTINUOUS
 10
112.31435912449371
 20
114.6399936209165
 30
0.0
 40
1.0
 50
90.000900000000286
 51
179.9989930000001
  0
ARC
  5
44D6
  8
DANMEN
  6
CONTINUOUS
 10
103.81435912449371
 20
114.6399936209165
 30
0.0
 40
0.5
 50
180.0010069999997
 51
270.0
  0
ARC
  5
44D7
  8
DANMEN
  6
CONTINUOUS
 10
110.81435912449371
 20
114.6399936209165
 30
0.0
 40
0.5
 50
270.0
 51
359.9989930000001
  0
ARC
  5
44D8
  8
DANMEN
  6
CONTINUOUS
 10
113.81435912449371
 20
121.6399936209163
 30
0.0
 40
0.5
 50
90.0
 51
180.0
  0
LINE
  5
44D9
  8
DANMEN
  6
CONTINUOUS
 10
106.0587591244937
 20
101.8576416209165
 30
0.0
 11
107.5995631244937
 21
102.28904162091639
 31
0.0
  0
LINE
  5
44DA
  8
DANMEN
  6
CONTINUOUS
 10
112.31435912449371
 20
115.6399936209165
 30
0.0
 11
114.81435912449371
 21
115.6399936209165
 31
0.0
  0
LINE
  5
44DB
  8
DANMEN
  6
CONTINUOUS
 10
103.81435912449371
 20
114.1399936209164
 30
0.0
 11
110.81435912449371
 21
114.1399936209164
 31
0.0
  0
LINE
  5
44DC
  8
DANMEN
  6
CONTINUOUS
 10
113.31435912449371
 20
121.6399936209163
 30
0.0
 11
113.31435912449371
 21
117.28999362091641
 31
0.0
  0
LINE
  5
44DD
  8
DANMEN
  6
CONTINUOUS
 10
115.31435912449371
 20
119.1399936209164
 30
0.0
 11
115.31435912449371
 21
116.1399936209164
 31
0.0
  0
LINE
  5
44DE
  8
DANMEN
  6
CONTINUOUS
 10
120.6643591244937
 20
104.7060296209165
 30
0.0
 11
120.6643591244937
 21
94.289993620916505
 31
0.0
  0
LINE
  5
44DF
  8
SUNPO
 10
124.31435912449371
 20
77.640033620916554
 30
0.0
 11
138.31435912449371
 21
77.640033620916554
 31
0.0
  0
ARC
  5
44E0
  8
DANMEN
  6
CONTINUOUS
 10
121.81435912449371
 20
93.140033620916554
 30
0.0
 40
0.5
 50
270.0
 51
0.0
  0
ARC
  5
44E1
  8
DANMEN
  6
CONTINUOUS
 10
116.81435912449371
 20
93.789993620916476
 30
0.0
 40
0.5
 50
90.0
 51
180.0
  0
ARC
  5
44E2
  8
DANMEN
  6
CONTINUOUS
 10
116.81435912449371
 20
93.140033620916554
 30
0.0
 40
0.5
 50
180.0
 51
270.0
  0
LINE
  5
44E3
  8
DANMEN
  6
CONTINUOUS
 10
116.81435912449371
 20
94.289993620916505
 30
0.0
 11
120.6643591244937
 21
94.289993620916505
 31
0.0
  0
LINE
  5
44E4
  8
DANMEN
  6
CONTINUOUS
 10
116.31435912449371
 20
93.789993620916476
 30
0.0
 11
116.31435912449371
 21
93.140033620916554
 31
0.0
  0
LINE
  5
44E5
  8
DANMEN
  6
CONTINUOUS
 10
116.81435912449371
 20
92.640033620916554
 30
0.0
 11
121.81435912449371
 21
92.640033620916554
 31
0.0
  0
LINE
  5
44E6
  8
DANMEN
  6
CONTINUOUS
 10
122.31435912449371
 20
93.140033620916554
 30
0.0
 11
122.31435912449371
 21
77.640033620916554
 31
0.0
  0
ARC
  5
44E7
  8
DANMEN
  6
CONTINUOUS
 10
119.6643591244937
 20
104.7060296209165
 30
0.0
 40
1.0
 50
359.9989930000001
 51
105.6419980000001
  0
ARC
  5
44E8
  8
DANMEN
  6
CONTINUOUS
 10
119.6643591244937
 20
123.139993620916
 30
0.0
 40
1.0
 50
270.0
 51
0.0
  0
ARC
  5
44E9
  8
DANMEN
  6
CONTINUOUS
 10
119.31435912449371
 20
119.1399936209164
 30
0.0
 40
1.0
 50
0.0
 51
90.0
  0
ARC
  5
44EA
  8
DANMEN
  6
CONTINUOUS
 10
117.31435912449371
 20
109.9153936209164
 30
0.0
 40
3.0
 50
285.641998
 51
0.0
  0
LINE
  5
44EB
  8
DANMEN
  6
CONTINUOUS
 10
116.31435912449371
 20
120.1399936209164
 30
0.0
 11
119.31435912449371
 21
120.1399936209164
 31
0.0
  0
LINE
  5
44EC
  8
DANMEN
  6
CONTINUOUS
 10
120.31435912449371
 20
119.1399936209164
 30
0.0
 11
120.31435912449371
 21
109.9153936209164
 31
0.0
  0
LINE
  5
44ED
  8
SUNPO
 10
122.31435912449371
 20
194.3900336209158
 30
0.0
 11
52.314359124494153
 21
194.3900336209158
 31
0.0
  0
LINE
  5
44EE
  8
DANMEN
  6
CONTINUOUS
 10
116.96555912449359
 20
137.27663362091641
 30
0.0
 11
111.31435912449371
 21
137.84891362091599
 31
0.0
  0
LINE
  5
44EF
  8
DANMEN
  6
CONTINUOUS
 10
117.0143551244942
 20
131.14003362091589
 30
0.0
 11
113.85715912449371
 21
129.28279362091601
 31
0.0
  0
LINE
  5
44F0
  8
DANMEN
  6
CONTINUOUS
 10
115.699955124494
 20
131.3143136209159
 30
0.0
 11
117.0143551244942
 21
131.84003362091639
 31
0.0
  0
LINE
  5
44F1
  8
DANMEN
  6
CONTINUOUS
 10
115.5403551244942
 20
132.72319362091619
 30
0.0
 11
116.31435912449371
 21
133.14003362091589
 31
0.0
  0
ARC
  5
44F2
  8
DANMEN
  6
CONTINUOUS
 10
99.314359124493805
 20
128.34003362091639
 30
0.0
 40
0.5
 50
224.87600700000041
 51
0.0
  0
ARC
  5
44F3
  8
DANMEN
  6
CONTINUOUS
 10
99.314359124493805
 20
132.94003362091601
 30
0.0
 40
0.5
 50
0.0
 51
135.1239929999995
  0
ARC
  5
44F4
  8
DANMEN
  6
CONTINUOUS
 10
100.31435912449381
 20
136.34003362091639
 30
0.0
 40
1.0
 50
90.0
 51
180.0
  0
LINE
  5
44F5
  8
DANMEN
  6
CONTINUOUS
 10
98.814359124493791
 20
130.14003362091589
 30
0.0
 11
100.31435912449381
 21
130.14003362091589
 31
0.0
  0
LINE
  5
44F6
  8
DANMEN
  6
CONTINUOUS
 10
98.814359124493791
 20
131.14003362091589
 30
0.0
 11
100.31435912449381
 21
131.14003362091589
 31
0.0
  0
LINE
  5
44F7
  8
DANMEN
  6
CONTINUOUS
 10
99.314359124493805
 20
135.6400336209158
 30
0.0
 11
101.31435912449381
 21
135.6400336209158
 31
0.0
  0
LINE
  5
44F8
  8
DANMEN
  6
CONTINUOUS
 10
96.964359124493882
 20
127.640033620916
 30
0.0
 11
100.31435912449381
 21
127.640033620916
 31
0.0
  0
LINE
  5
44F9
  8
DANMEN
  6
CONTINUOUS
 10
96.964359124493882
 20
133.9899936209161
 30
0.0
 11
100.31435912449381
 21
133.9899936209161
 31
0.0
  0
LINE
  5
44FA
  8
DANMEN
  6
CONTINUOUS
 10
95.814359124493791
 20
135.6400336209158
 30
0.0
 11
100.81435912449371
 21
135.6400336209158
 31
0.0
  0
ARC
  5
44FB
  8
DANMEN
  6
CONTINUOUS
 10
98.814359124493791
 20
130.640033620916
 30
0.0
 40
0.5
 50
90.0
 51
270.0
  0
ARC
  5
44FC
  8
DANMEN
  6
CONTINUOUS
 10
95.814359124493791
 20
135.140033620916
 30
0.0
 40
0.5
 50
90.0
 51
180.0
  0
LINE
  5
44FD
  8
DANMEN
  6
CONTINUOUS
 10
98.959959124493793
 20
127.9872336209161
 30
0.0
 11
97.314359124493791
 21
129.640033620916
 31
0.0
  0
LINE
  5
44FE
  8
DANMEN
  6
CONTINUOUS
 10
98.959959124493793
 20
133.29283362091601
 30
0.0
 11
97.314359124493791
 21
131.640033620916
 31
0.0
  0
LINE
  5
44FF
  8
DANMEN
  6
CONTINUOUS
 10
97.314359124493791
 20
131.640033620916
 30
0.0
 11
97.314359124493791
 21
129.640033620916
 31
0.0
  0
LINE
  5
4500
  8
DANMEN
  6
CONTINUOUS
 10
99.314359124493805
 20
136.34003362091639
 30
0.0
 11
99.314359124493805
 21
135.6400336209158
 31
0.0
  0
LINE
  5
4501
  8
DANMEN
  6
CONTINUOUS
 10
96.964359124493882
 20
133.9899936209161
 30
0.0
 11
96.964359124493882
 21
127.640033620916
 31
0.0
  0
ARC
  5
4502
  8
DANMEN
  6
CONTINUOUS
 10
113.6035591244937
 20
129.71375362091601
 30
0.0
 40
0.5
 50
241.6990050000002
 51
300.46499600000101
  0
ARC
  5
4503
  8
DANMEN
  6
CONTINUOUS
 10
115.5143551244936
 20
131.77855362091611
 30
0.0
 40
0.5
 50
180.0
 51
291.80099499999892
  0
ARC
  5
4504
  8
DANMEN
  6
CONTINUOUS
 10
116.0143551244937
 20
131.84275362091589
 30
0.0
 40
1.0
 50
118.3010029999993
 51
180.0
  0
ARC
  5
4505
  8
DANMEN
  6
CONTINUOUS
 10
103.2643551244937
 20
129.3400336209161
 30
0.0
 40
0.449996
 50
0.0
 51
180.0
  0
ARC
  5
4506
  8
DANMEN
  6
CONTINUOUS
 10
100.31435912449381
 20
130.640033620916
 30
0.0
 40
0.5
 50
270.0
 51
90.0
  0
ARC
  5
4507
  8
DANMEN
  6
CONTINUOUS
 10
100.81435912449371
 20
128.14003362091589
 30
0.0
 40
0.5
 50
0.0
 51
90.0
  0
ARC
  5
4508
  8
DANMEN
  6
CONTINUOUS
 10
100.81435912449371
 20
135.140033620916
 30
0.0
 40
0.5
 50
0.0
 51
90.0
  0
LINE
  5
4509
  8
DANMEN
  6
CONTINUOUS
 10
111.31435912449371
 20
130.37847362091591
 30
0.0
 11
113.3663591244942
 21
129.27351362091591
 31
0.0
  0
LINE
  5
450A
  8
DANMEN
  6
CONTINUOUS
 10
115.0143551244937
 20
131.84275362091589
 30
0.0
 11
115.0143551244937
 21
131.77855362091611
 31
0.0
  0
LINE
  5
450B
  8
DANMEN
  6
CONTINUOUS
 10
103.7143591244936
 20
129.3400336209161
 30
0.0
 11
106.31435912449371
 21
129.3400336209161
 31
0.0
  0
LINE
  5
450C
  8
DANMEN
  6
CONTINUOUS
 10
102.81435912449371
 20
129.3400336209161
 30
0.0
 11
102.81435912449371
 21
126.8400336209161
 31
0.0
  0
LINE
  5
450D
  8
DANMEN
  6
CONTINUOUS
 10
101.31435912449381
 20
126.8400336209161
 30
0.0
 11
102.81435912449371
 21
126.8400336209161
 31
0.0
  0
LINE
  5
450E
  8
DANMEN
  6
CONTINUOUS
 10
101.31435912449381
 20
128.94003362091601
 30
0.0
 11
101.31435912449381
 21
126.8400336209161
 31
0.0
  0
LINE
  5
450F
  8
DANMEN
  6
CONTINUOUS
 10
99.814359124493791
 20
128.94003362091601
 30
0.0
 11
99.814359124493791
 21
128.34003362091639
 31
0.0
  0
LINE
  5
4510
  8
DANMEN
  6
CONTINUOUS
 10
99.814359124493791
 20
132.94003362091601
 30
0.0
 11
99.814359124493791
 21
132.34003362091639
 31
0.0
  0
LINE
  5
4511
  8
DANMEN
  6
CONTINUOUS
 10
99.814359124493791
 20
128.94003362091601
 30
0.0
 11
101.31435912449381
 21
128.94003362091601
 31
0.0
  0
LINE
  5
4512
  8
DANMEN
  6
CONTINUOUS
 10
99.814359124493791
 20
132.34003362091639
 30
0.0
 11
101.31435912449381
 21
132.34003362091639
 31
0.0
  0
LINE
  5
4513
  8
DANMEN
  6
CONTINUOUS
 10
100.31435912449381
 20
137.34003362091599
 30
0.0
 11
106.31435912449371
 21
137.34003362091599
 31
0.0
  0
LINE
  5
4514
  8
DANMEN
  6
CONTINUOUS
 10
101.31435912449381
 20
135.6400336209158
 30
0.0
 11
101.31435912449381
 21
132.34003362091639
 31
0.0
  0
LINE
  5
4515
  8
DANMEN
  6
CONTINUOUS
 10
100.31435912449381
 20
128.640033620916
 30
0.0
 11
100.81435912449371
 21
128.640033620916
 31
0.0
  0
LINE
  5
4516
  8
DANMEN
  6
CONTINUOUS
 10
101.31435912449381
 20
128.14003362091589
 30
0.0
 11
101.31435912449381
 21
126.640033620916
 31
0.0
  0
LINE
  5
4517
  8
DANMEN
  6
CONTINUOUS
 10
100.31435912449381
 20
128.640033620916
 30
0.0
 11
100.31435912449381
 21
127.640033620916
 31
0.0
  0
LINE
  5
4518
  8
DANMEN
  6
CONTINUOUS
 10
100.31435912449381
 20
133.9899936209161
 30
0.0
 11
100.31435912449381
 21
132.640033620916
 31
0.0
  0
LINE
  5
4519
  8
DANMEN
  6
CONTINUOUS
 10
101.31435912449381
 20
135.140033620916
 30
0.0
 11
101.31435912449381
 21
132.640033620916
 31
0.0
  0
LINE
  5
451A
  8
DANMEN
  6
CONTINUOUS
 10
100.31435912449381
 20
132.640033620916
 30
0.0
 11
101.31435912449381
 21
132.640033620916
 31
0.0
  0
LINE
  5
451B
  8
DANMEN
  6
CONTINUOUS
 10
103.31435912449371
 20
126.639993620916
 30
0.0
 11
105.31435912449371
 21
128.640033620916
 31
0.0
  0
LINE
  5
451C
  8
DANMEN
  6
CONTINUOUS
 10
105.31435912449371
 20
128.640033620916
 30
0.0
 11
113.31435912449371
 21
128.640033620916
 31
0.0
  0
LINE
  5
451D
  8
SUNPO
 10
124.31435912449371
 20
137.6400336209158
 30
0.0
 11
138.31435912449371
 21
137.6400336209158
 31
0.0
  0
ARC
  5
451E
  8
DANMEN
  6
CONTINUOUS
 10
116.81435912449371
 20
135.78427362091611
 30
0.0
 40
1.5
 50
0.0
 51
84.217697000000015
  0
ARC
  5
451F
  8
DANMEN
  6
CONTINUOUS
 10
116.81435912449371
 20
128.03999362091611
 30
0.0
 40
0.5
 50
180.0
 51
270.0
  0
ARC
  5
4520
  8
DANMEN
  6
CONTINUOUS
 10
116.81435912449371
 20
128.14003362091589
 30
0.0
 40
0.5
 50
90.0
 51
180.0
  0
ARC
  5
4521
  8
DANMEN
  6
CONTINUOUS
 10
117.0143551244942
 20
133.14003362091589
 30
0.0
 40
0.5
 50
270.0
 51
0.0
  0
ARC
  5
4522
  8
DANMEN
  6
CONTINUOUS
 10
116.81435912449371
 20
135.140033620916
 30
0.0
 40
0.5
 50
90.0
 51
180.0
  0
ARC
  5
4523
  8
DANMEN
  6
CONTINUOUS
 10
121.81435912449371
 20
137.140033620916
 30
0.0
 40
0.5
 50
0.0
 51
90.0
  0
LINE
  5
4524
  8
DANMEN
  6
CONTINUOUS
 10
117.0143551244942
 20
131.84003362091639
 30
0.0
 11
117.0143551244942
 21
131.14003362091589
 31
0.0
  0
LINE
  5
4525
  8
DANMEN
  6
CONTINUOUS
 10
116.31435912449371
 20
135.6400336209158
 30
0.0
 11
118.31435912449371
 21
135.6400336209158
 31
0.0
  0
LINE
  5
4526
  8
DANMEN
  6
CONTINUOUS
 10
118.31435912449371
 20
135.78427362091611
 30
0.0
 11
118.31435912449371
 21
135.6400336209158
 31
0.0
  0
LINE
  5
4527
  8
DANMEN
  6
CONTINUOUS
 10
116.31435912449371
 20
135.6400336209158
 30
0.0
 11
116.31435912449371
 21
133.14003362091589
 31
0.0
  0
LINE
  5
4528
  8
DANMEN
  6
CONTINUOUS
 10
116.81435912449371
 20
127.53999362091599
 30
0.0
 11
120.6643591244937
 21
127.53999362091599
 31
0.0
  0
LINE
  5
4529
  8
DANMEN
  6
CONTINUOUS
 10
120.6643591244937
 20
133.9899936209161
 30
0.0
 11
120.6643591244937
 21
128.640033620916
 31
0.0
  0
LINE
  5
452A
  8
DANMEN
  6
CONTINUOUS
 10
117.5143551244936
 20
133.9899936209161
 30
0.0
 11
120.6643591244937
 21
133.9899936209161
 31
0.0
  0
LINE
  5
452B
  8
DANMEN
  6
CONTINUOUS
 10
116.81435912449371
 20
128.640033620916
 30
0.0
 11
120.6643591244937
 21
128.640033620916
 31
0.0
  0
LINE
  5
452C
  8
DANMEN
  6
CONTINUOUS
 10
116.31435912449371
 20
132.640033620916
 30
0.0
 11
117.0143551244942
 21
132.640033620916
 31
0.0
  0
LINE
  5
452D
  8
DANMEN
  6
CONTINUOUS
 10
116.31435912449371
 20
128.14003362091589
 30
0.0
 11
116.31435912449371
 21
128.03999362091611
 31
0.0
  0
LINE
  5
452E
  8
DANMEN
  6
CONTINUOUS
 10
116.31435912449371
 20
135.140033620916
 30
0.0
 11
116.31435912449371
 21
132.640033620916
 31
0.0
  0
LINE
  5
452F
  8
DANMEN
  6
CONTINUOUS
 10
117.5143551244936
 20
133.9899936209161
 30
0.0
 11
117.5143551244936
 21
133.14003362091589
 31
0.0
  0
LINE
  5
4530
  8
DANMEN
  6
CONTINUOUS
 10
120.81435912449371
 20
137.6400336209158
 30
0.0
 11
120.81435912449371
 21
135.6400336209158
 31
0.0
  0
LINE
  5
4531
  8
DANMEN
  6
CONTINUOUS
 10
116.81435912449371
 20
135.6400336209158
 30
0.0
 11
120.81435912449371
 21
135.6400336209158
 31
0.0
  0
LINE
  5
4532
  8
DANMEN
  6
CONTINUOUS
 10
120.81435912449371
 20
137.6400336209158
 30
0.0
 11
121.81435912449371
 21
137.6400336209158
 31
0.0
  0
LINE
  5
4533
  8
DANMEN
  6
CONTINUOUS
 10
207.064786428426
 20
128.23996927035631
 30
0.0
 11
207.064786428426
 21
125.63996127035639
 31
0.0
  0
LINE
  5
4534
  8
DANMEN
  6
CONTINUOUS
 10
215.0647864284258
 20
131.63996127035631
 30
0.0
 11
215.0647864284258
 21
125.63996127035639
 31
0.0
  0
LINE
  5
4535
  8
DANMEN
  6
CONTINUOUS
 10
189.71479842842589
 20
177.9899692703564
 30
0.0
 11
189.71479842842589
 21
111.2899532703567
 31
0.0
  0
LINE
  5
4536
  8
DANMEN
  6
CONTINUOUS
 10
191.36479042842601
 20
134.9899692703564
 30
0.0
 11
191.36479042842601
 21
111.2899532703567
 31
0.0
  0
POLYLINE
  5
4537
  8
SUNPO
 66
     1
 10
0.0
 20
0.0
 30
0.0
 70
     1
  0
VERTEX
  5
47BA
  8
SUNPO
 10
218.35979273072809
 20
82.634963572658634
 30
0.0
  0
VERTEX
  5
47BB
  8
SUNPO
 10
213.36479042842609
 20
77.639961270356764
 30
0.0
  0
VERTEX
  5
47BC
  8
SUNPO
 10
218.35979273072809
 20
72.644958968055022
 30
0.0
  0
SEQEND
  5
47BD
  8
SUNPO
  0
LINE
  5
453C
  8
SUNPO
 10
213.36479042842609
 20
77.639961270356764
 30
0.0
 11
218.35979273072809
 21
72.644958968054851
 31
0.0
  0
LINE
  5
453D
  8
SUNPO
 10
218.35979273072809
 20
82.634963572658535
 30
0.0
 11
213.36479042842609
 21
77.639961270356764
 31
0.0
  0
ARC
  5
453E
  8
DANMEN
  6
CONTINUOUS
 10
213.5091824284261
 20
115.13996127035669
 30
0.0
 40
1.5
 50
270.0
 51
354.2179869999996
  0
LINE
  5
453F
  8
DANMEN
  6
CONTINUOUS
 10
264.86479042842609
 20
113.63996127035659
 30
0.0
 11
213.36479042842609
 21
113.63996127035659
 31
0.0
  0
LINE
  5
4540
  8
DANMEN
  6
CONTINUOUS
 10
264.86479042842609
 20
121.33995727035661
 30
0.0
 11
206.36479042842609
 21
121.33995727035661
 31
0.0
  0
LINE
  5
4541
  8
DANMEN
  6
CONTINUOUS
 10
264.86479042842609
 20
124.9399652703564
 30
0.0
 11
206.36479042842609
 21
124.9399652703564
 31
0.0
  0
LINE
  5
4542
  8
DANMEN
  6
CONTINUOUS
 10
264.86479042842609
 20
125.63996127035639
 30
0.0
 11
206.36479042842609
 21
125.63996127035639
 31
0.0
  0
LINE
  5
4543
  8
DANMEN
  6
CONTINUOUS
 10
264.86479042842609
 20
120.63996127035649
 30
0.0
 11
206.36479042842609
 21
120.63996127035649
 31
0.0
  0
LINE
  5
4544
  8
DANMEN
  6
CONTINUOUS
 10
264.86479042842609
 20
111.13996127035669
 30
0.0
 11
213.36479042842609
 21
111.13996127035669
 31
0.0
  0
LINE
  5
4545
  8
DANMEN
  6
CONTINUOUS
 10
264.86479042842609
 20
109.63996127035659
 30
0.0
 11
212.86479042842609
 21
109.63996127035659
 31
0.0
  0
LINE
  5
4546
  8
SUNPO
 10
213.36479042842609
 20
107.63996127035659
 30
0.0
 11
213.36479042842609
 21
77.639961270356764
 31
0.0
  0
LINE
  5
4547
  8
SUNPO
 10
183.36479042842609
 20
107.63996127035659
 30
0.0
 11
183.36479042842609
 21
77.639961270356764
 31
0.0
  0
LINE
  5
4548
  8
SUNPO
 10
183.36479042842609
 20
77.639961270356764
 30
0.0
 11
213.36479042842609
 21
77.639961270356764
 31
0.0
  0
LINE
  5
4549
  8
DANMEN
  6
CONTINUOUS
 10
211.71479842842609
 20
111.2899532703567
 30
0.0
 11
191.36479042842601
 21
111.2899532703567
 31
0.0
  0
LINE
  5
454A
  8
DANMEN
  6
CONTINUOUS
 10
212.86479042842609
 20
109.63996127035659
 30
0.0
 11
184.36479042842601
 21
109.63996127035659
 31
0.0
  0
ARC
  5
454B
  8
DANMEN
  6
CONTINUOUS
 10
184.5147824284264
 20
115.13996127035669
 30
0.0
 40
0.5
 50
0.0
 51
90.0
  0
ARC
  5
454C
  8
DANMEN
  6
CONTINUOUS
 10
184.36479042842601
 20
110.63996127035659
 30
0.0
 40
1.0
 50
180.0
 51
270.0
  0
ARC
  5
454D
  8
DANMEN
  6
CONTINUOUS
 10
183.86479042842601
 20
115.13996127035669
 30
0.0
 40
0.5
 50
90.0
 51
180.0
  0
LINE
  5
454E
  8
DANMEN
  6
CONTINUOUS
 10
189.71479842842589
 20
111.2899532703567
 30
0.0
 11
185.014782428426
 21
111.2899532703567
 31
0.0
  0
LINE
  5
454F
  8
DANMEN
  6
CONTINUOUS
 10
185.014782428426
 20
115.13996127035669
 30
0.0
 11
185.014782428426
 21
111.2899532703567
 31
0.0
  0
LINE
  5
4550
  8
DANMEN
  6
CONTINUOUS
 10
184.5147824284264
 20
115.63996127035659
 30
0.0
 11
183.86479042842601
 21
115.63996127035659
 31
0.0
  0
LINE
  5
4551
  8
DANMEN
  6
CONTINUOUS
 10
183.36479042842609
 20
115.13996127035669
 30
0.0
 11
183.36479042842609
 21
110.63996127035659
 31
0.0
  0
ARC
  5
4552
  8
DANMEN
  6
CONTINUOUS
 10
207.43838242842591
 20
118.3507612703565
 30
0.0
 40
0.499996
 50
151.69900500000051
 51
210.4649959999995
  0
ARC
  5
4553
  8
DANMEN
  6
CONTINUOUS
 10
209.50318642842609
 20
116.43996527035659
 30
0.0
 40
0.5
 50
90.0
 51
201.80200200000061
  0
ARC
  5
4554
  8
DANMEN
  6
CONTINUOUS
 10
209.5675944284261
 20
115.93996527035669
 30
0.0
 40
1.000008
 50
28.300900000000969
 51
90.0
  0
ARC
  5
4555
  8
DANMEN
  6
CONTINUOUS
 10
210.86479042842609
 20
114.93996527035669
 30
0.0
 40
0.5
 50
180.0
 51
270.0
  0
ARC
  5
4556
  8
DANMEN
  6
CONTINUOUS
 10
212.86479042842609
 20
115.13996127035669
 30
0.0
 40
0.5
 50
0.0
 51
90.0
  0
ARC
  5
4557
  8
DANMEN
  6
CONTINUOUS
 10
212.86479042842609
 20
110.13996127035669
 30
0.0
 40
0.5
 50
270.0
 51
0.0
  0
LINE
  5
4558
  8
DANMEN
  6
CONTINUOUS
 10
208.10319442842581
 20
120.63996127035649
 30
0.0
 11
206.99839442842639
 21
118.5879612703566
 31
0.0
  0
LINE
  5
4559
  8
DANMEN
  6
CONTINUOUS
 10
208.86479042842609
 20
114.93996527035669
 30
0.0
 11
207.00759842842581
 21
118.09716127035649
 31
0.0
  0
LINE
  5
455A
  8
DANMEN
  6
CONTINUOUS
 10
209.0391824284261
 20
116.25435727035671
 30
0.0
 11
209.56478642842609
 21
114.93996527035669
 31
0.0
  0
LINE
  5
455B
  8
DANMEN
  6
CONTINUOUS
 10
209.56478642842609
 20
114.93996527035669
 30
0.0
 11
208.86479042842609
 21
114.93996527035669
 31
0.0
  0
LINE
  5
455C
  8
DANMEN
  6
CONTINUOUS
 10
210.4479984284261
 20
116.4139652703567
 30
0.0
 11
210.86479042842609
 21
115.63996127035659
 31
0.0
  0
LINE
  5
455D
  8
DANMEN
  6
CONTINUOUS
 10
209.5675944284261
 20
116.93996527035669
 30
0.0
 11
209.50318642842609
 21
116.93996527035669
 31
0.0
  0
LINE
  5
455E
  8
DANMEN
  6
CONTINUOUS
 10
213.36479042842609
 20
115.63996127035659
 30
0.0
 11
213.36479042842609
 21
113.63996127035659
 31
0.0
  0
LINE
  5
455F
  8
DANMEN
  6
CONTINUOUS
 10
213.5091824284261
 20
113.63996127035659
 30
0.0
 11
213.36479042842609
 21
113.63996127035659
 31
0.0
  0
LINE
  5
4560
  8
DANMEN
  6
CONTINUOUS
 10
213.36479042842609
 20
115.63996127035659
 30
0.0
 11
210.86479042842609
 21
115.63996127035659
 31
0.0
  0
LINE
  5
4561
  8
DANMEN
  6
CONTINUOUS
 10
211.71479842842609
 20
114.43996527035659
 30
0.0
 11
211.71479842842609
 21
111.2899532703567
 31
0.0
  0
LINE
  5
4562
  8
DANMEN
  6
CONTINUOUS
 10
211.71479842842609
 20
114.43996527035659
 30
0.0
 11
210.86479042842609
 21
114.43996527035659
 31
0.0
  0
LINE
  5
4563
  8
DANMEN
  6
CONTINUOUS
 10
210.36479042842609
 20
115.63996127035659
 30
0.0
 11
210.36479042842609
 21
114.93996527035669
 31
0.0
  0
LINE
  5
4564
  8
DANMEN
  6
CONTINUOUS
 10
212.86479042842609
 20
115.63996127035659
 30
0.0
 11
210.36479042842609
 21
115.63996127035659
 31
0.0
  0
LINE
  5
4565
  8
DANMEN
  6
CONTINUOUS
 10
213.36479042842609
 20
115.13996127035669
 30
0.0
 11
213.36479042842609
 21
110.13996127035669
 31
0.0
  0
LINE
  5
4566
  8
DANMEN
  6
CONTINUOUS
 10
206.36479042842609
 20
125.63996127035639
 30
0.0
 11
206.36479042842609
 21
120.63996127035649
 31
0.0
  0
LINE
  5
4567
  8
SUNPO
 10
218.35979273072809
 20
82.634963572658535
 30
0.0
 11
218.35979273072809
 21
72.644958968054851
 31
0.0
  0
LINE
  5
4568
  8
DANMEN
  6
CONTINUOUS
 10
215.0011904284261
 20
114.9887612703567
 30
0.0
 11
215.57359042842609
 21
120.63996127035649
 31
0.0
  0
ARC
  5
4569
  8
DANMEN
  6
CONTINUOUS
 10
214.064786428426
 20
131.63996127035631
 30
0.0
 40
1.0
 50
0.0
 51
90.0
  0
LINE
  5
456A
  8
DANMEN
  6
CONTINUOUS
 10
264.86479042842609
 20
132.63996127035631
 30
0.0
 11
213.36479042842609
 21
132.63996127035631
 31
0.0
  0
LINE
  5
456B
  8
DANMEN
  6
CONTINUOUS
 10
264.86479042842609
 20
136.63996127035639
 30
0.0
 11
212.86479042842609
 21
136.63996127035639
 31
0.0
  0
LINE
  5
456C
  8
DANMEN
  6
CONTINUOUS
 10
264.86479042842609
 20
179.63996127035631
 30
0.0
 11
212.86479042842609
 21
179.63996127035631
 31
0.0
  0
ARC
  5
456D
  8
DANMEN
  6
CONTINUOUS
 10
212.86479042842609
 20
178.33995727035631
 30
0.0
 40
0.5
 50
270.0
 51
0.0
  0
LINE
  5
456E
  8
DANMEN
  6
CONTINUOUS
 10
183.36479042842609
 20
178.63996127035631
 30
0.0
 11
183.36479042842609
 21
174.13996127035631
 31
0.0
  0
LINE
  5
456F
  8
DANMEN
  6
CONTINUOUS
 10
191.36479042842601
 20
177.9899692703564
 30
0.0
 11
191.36479042842601
 21
136.63996127035639
 31
0.0
  0
LINE
  5
4570
  8
DANMEN
  6
CONTINUOUS
 10
203.86479042842609
 20
134.9899692703564
 30
0.0
 11
191.36479042842601
 21
134.9899692703564
 31
0.0
  0
LINE
  5
4571
  8
DANMEN
  6
CONTINUOUS
 10
212.86479042842609
 20
136.63996127035639
 30
0.0
 11
191.36479042842601
 21
136.63996127035639
 31
0.0
  0
ARC
  5
4572
  8
DANMEN
  6
CONTINUOUS
 10
207.064786428426
 20
128.68996527035631
 30
0.0
 40
0.449996
 50
270.0
 51
90.0
  0
ARC
  5
4573
  8
DANMEN
  6
CONTINUOUS
 10
208.36479042842609
 20
131.63996127035631
 30
0.0
 40
0.5
 50
180.0
 51
0.0
  0
ARC
  5
4574
  8
DANMEN
  6
CONTINUOUS
 10
208.36479042842609
 20
133.13996127035631
 30
0.0
 40
0.5
 50
0.0
 51
180.0
  0
ARC
  5
4575
  8
DANMEN
  6
CONTINUOUS
 10
206.064786428426
 20
132.63996127035631
 30
0.0
 40
0.5
 50
134.87800600000031
 51
270.0
  0
ARC
  5
4576
  8
DANMEN
  6
CONTINUOUS
 10
210.66479442842601
 20
132.63996127035631
 30
0.0
 40
0.5
 50
270.0
 51
45.123599999999783
  0
ARC
  5
4577
  8
DANMEN
  6
CONTINUOUS
 10
205.86479042842609
 20
131.13996127035631
 30
0.0
 40
0.5
 50
270.0
 51
0.0
  0
ARC
  5
4578
  8
DANMEN
  6
CONTINUOUS
 10
204.36479042842609
 20
131.13996127035631
 30
0.0
 40
0.5
 50
180.0
 51
270.0
  0
ARC
  5
4579
  8
DANMEN
  6
CONTINUOUS
 10
212.86479042842609
 20
131.13996127035631
 30
0.0
 40
0.5
 50
270.0
 51
0.0
  0
ARC
  5
457A
  8
DANMEN
  6
CONTINUOUS
 10
212.86479042842609
 20
136.13996127035631
 30
0.0
 40
0.5
 50
0.0
 51
90.0
  0
LINE
  5
457B
  8
DANMEN
  6
CONTINUOUS
 10
207.064786428426
 20
129.13996127035631
 30
0.0
 11
204.5647864284258
 21
129.13996127035631
 31
0.0
  0
LINE
  5
457C
  8
DANMEN
  6
CONTINUOUS
 10
204.5647864284258
 20
130.63996127035631
 30
0.0
 11
204.5647864284258
 21
129.13996127035631
 31
0.0
  0
LINE
  5
457D
  8
DANMEN
  6
CONTINUOUS
 10
206.66479442842609
 20
130.63996127035631
 30
0.0
 11
204.5647864284258
 21
130.63996127035631
 31
0.0
  0
LINE
  5
457E
  8
DANMEN
  6
CONTINUOUS
 10
207.86479042842609
 20
133.13996127035631
 30
0.0
 11
207.86479042842609
 21
131.63996127035631
 31
0.0
  0
LINE
  5
457F
  8
DANMEN
  6
CONTINUOUS
 10
208.86479042842609
 20
133.13996127035631
 30
0.0
 11
208.86479042842609
 21
131.63996127035631
 31
0.0
  0
LINE
  5
4580
  8
DANMEN
  6
CONTINUOUS
 10
206.66479442842609
 20
132.13996127035631
 30
0.0
 11
206.064786428426
 21
132.13996127035631
 31
0.0
  0
LINE
  5
4581
  8
DANMEN
  6
CONTINUOUS
 10
210.66479442842601
 20
132.13996127035631
 30
0.0
 11
210.064786428426
 21
132.13996127035631
 31
0.0
  0
LINE
  5
4582
  8
DANMEN
  6
CONTINUOUS
 10
205.71199042842611
 20
132.99436127035639
 30
0.0
 11
207.36479042842609
 21
134.63996127035639
 31
0.0
  0
LINE
  5
4583
  8
DANMEN
  6
CONTINUOUS
 10
211.0175904284261
 20
132.99436127035639
 30
0.0
 11
209.36479042842609
 21
134.63996127035639
 31
0.0
  0
LINE
  5
4584
  8
DANMEN
  6
CONTINUOUS
 10
206.66479442842609
 20
132.13996127035631
 30
0.0
 11
206.66479442842609
 21
130.63996127035631
 31
0.0
  0
LINE
  5
4585
  8
DANMEN
  6
CONTINUOUS
 10
210.064786428426
 20
132.13996127035631
 30
0.0
 11
210.064786428426
 21
130.63996127035631
 31
0.0
  0
LINE
  5
4586
  8
DANMEN
  6
CONTINUOUS
 10
209.36479042842609
 20
134.63996127035639
 30
0.0
 11
207.36479042842609
 21
134.63996127035639
 31
0.0
  0
LINE
  5
4587
  8
DANMEN
  6
CONTINUOUS
 10
214.064786428426
 20
132.63996127035631
 30
0.0
 11
213.36479042842609
 21
132.63996127035631
 31
0.0
  0
LINE
  5
4588
  8
DANMEN
  6
CONTINUOUS
 10
213.36479042842609
 20
132.63996127035631
 30
0.0
 11
213.36479042842609
 21
130.63996127035631
 31
0.0
  0
LINE
  5
4589
  8
DANMEN
  6
CONTINUOUS
 10
213.36479042842609
 20
130.63996127035631
 30
0.0
 11
210.064786428426
 21
130.63996127035631
 31
0.0
  0
LINE
  5
458A
  8
DANMEN
  6
CONTINUOUS
 10
211.71479842842609
 20
134.9899692703564
 30
0.0
 11
205.36479042842609
 21
134.9899692703564
 31
0.0
  0
LINE
  5
458B
  8
DANMEN
  6
CONTINUOUS
 10
211.71479842842609
 20
134.9899692703564
 30
0.0
 11
211.71479842842609
 21
131.63996127035631
 31
0.0
  0
LINE
  5
458C
  8
DANMEN
  6
CONTINUOUS
 10
206.36479042842609
 20
131.63996127035631
 30
0.0
 11
205.36479042842609
 21
131.63996127035631
 31
0.0
  0
LINE
  5
458D
  8
DANMEN
  6
CONTINUOUS
 10
205.86479042842609
 20
130.63996127035631
 30
0.0
 11
204.36479042842609
 21
130.63996127035631
 31
0.0
  0
LINE
  5
458E
  8
DANMEN
  6
CONTINUOUS
 10
206.36479042842609
 20
131.63996127035631
 30
0.0
 11
206.36479042842609
 21
131.13996127035631
 31
0.0
  0
LINE
  5
458F
  8
DANMEN
  6
CONTINUOUS
 10
205.36479042842609
 20
134.9899692703564
 30
0.0
 11
205.36479042842609
 21
131.63996127035631
 31
0.0
  0
LINE
  5
4590
  8
DANMEN
  6
CONTINUOUS
 10
203.86479042842609
 20
134.9899692703564
 30
0.0
 11
203.86479042842609
 21
131.13996127035631
 31
0.0
  0
LINE
  5
4591
  8
DANMEN
  6
CONTINUOUS
 10
210.36479042842609
 20
131.63996127035631
 30
0.0
 11
210.36479042842609
 21
130.63996127035631
 31
0.0
  0
LINE
  5
4592
  8
DANMEN
  6
CONTINUOUS
 10
213.36479042842609
 20
136.13996127035631
 30
0.0
 11
213.36479042842609
 21
131.13996127035631
 31
0.0
  0
LINE
  5
4593
  8
DANMEN
  6
CONTINUOUS
 10
211.71479842842609
 20
131.63996127035631
 30
0.0
 11
210.36479042842609
 21
131.63996127035631
 31
0.0
  0
LINE
  5
4594
  8
DANMEN
  6
CONTINUOUS
 10
212.86479042842609
 20
130.63996127035631
 30
0.0
 11
210.36479042842609
 21
130.63996127035631
 31
0.0
  0
LINE
  5
4595
  8
DANMEN
  6
CONTINUOUS
 10
210.8379944284261
 20
177.9899692703564
 30
0.0
 11
191.36479042842601
 21
177.9899692703564
 31
0.0
  0
ARC
  5
4596
  8
DANMEN
  6
CONTINUOUS
 10
184.5147824284264
 20
174.13996127035631
 30
0.0
 40
0.5
 50
270.0
 51
0.0
  0
ARC
  5
4597
  8
DANMEN
  6
CONTINUOUS
 10
183.86479042842601
 20
174.13996127035631
 30
0.0
 40
0.5
 50
180.0
 51
270.0
  0
LINE
  5
4598
  8
DANMEN
  6
CONTINUOUS
 10
189.71479842842589
 20
177.9899692703564
 30
0.0
 11
185.014782428426
 21
177.9899692703564
 31
0.0
  0
LINE
  5
4599
  8
DANMEN
  6
CONTINUOUS
 10
185.014782428426
 20
177.9899692703564
 30
0.0
 11
185.014782428426
 21
174.13996127035631
 31
0.0
  0
LINE
  5
459A
  8
DANMEN
  6
CONTINUOUS
 10
184.5147824284264
 20
173.63996127035631
 30
0.0
 11
183.86479042842601
 21
173.63996127035631
 31
0.0
  0
ARC
  5
459B
  8
DANMEN
  6
CONTINUOUS
 10
210.8379944284261
 20
176.98996927035631
 30
0.0
 40
1.000003999999999
 50
58.212002000000531
 51
90.0
  0
LINE
  5
459C
  8
DANMEN
  6
CONTINUOUS
 10
212.86479042842609
 20
177.83995727035631
 30
0.0
 11
211.36479042842609
 21
177.83995727035631
 31
0.0
  0
LINE
  5
459D
  8
DANMEN
  6
CONTINUOUS
 10
212.86479042842609
 20
179.63996127035631
 30
0.0
 11
184.36479042842601
 21
179.63996127035631
 31
0.0
  0
ARC
  5
459E
  8
DANMEN
  6
CONTINUOUS
 10
184.36479042842601
 20
178.63996127035631
 30
0.0
 40
1.0
 50
90.0
 51
180.0
  0
ARC
  5
459F
  8
DANMEN
  6
CONTINUOUS
 10
212.86479042842609
 20
179.13996127035639
 30
0.0
 40
0.5
 50
0.0
 51
90.0
  0
LINE
  5
45A0
  8
DANMEN
  6
CONTINUOUS
 10
213.36479042842609
 20
179.13996127035639
 30
0.0
 11
213.36479042842609
 21
178.33995727035631
 31
0.0
  0
LINE
  5
45A1
  8
DANMEN
  6
CONTINUOUS
 10
118.31435912449371
 20
317.64613889830753
 30
0.0
 11
118.31435912449371
 21
235.1400336209158
 31
0.0
  0
LINE
  5
45A2
  8
DANMEN
  6
CONTINUOUS
 10
99.314359124493805
 20
317.64613889830753
 30
0.0
 11
99.314359124493805
 21
235.1400336209158
 31
0.0
  0
LINE
  5
45A3
  8
DANMEN
  6
CONTINUOUS
 10
62.314359124493819
 20
362.64613889830781
 30
0.0
 11
62.314359124493819
 21
235.1400336209158
 31
0.0
  0
LINE
  5
45A4
  8
DANMEN
  6
CONTINUOUS
 10
110.61436312449371
 20
324.64613889830758
 30
0.0
 11
110.61436312449371
 21
235.1400336209158
 31
0.0
  0
LINE
  5
45A5
  8
DANMEN
  6
CONTINUOUS
 10
107.0143551244936
 20
324.64613889830758
 30
0.0
 11
107.0143551244936
 21
235.1400336209158
 31
0.0
  0
LINE
  5
45A6
  8
DANMEN
  6
CONTINUOUS
 10
111.31435912449371
 20
324.64613889830758
 30
0.0
 11
111.31435912449371
 21
235.1400336209158
 31
0.0
  0
LINE
  5
45A7
  8
DANMEN
  6
CONTINUOUS
 10
106.31435912449371
 20
324.64613889830758
 30
0.0
 11
106.31435912449371
 21
235.1400336209158
 31
0.0
  0
LINE
  5
45A8
  8
DANMEN
  6
CONTINUOUS
 10
120.31435912449371
 20
337.6461388983077
 30
0.0
 11
120.31435912449371
 21
235.1400336209158
 31
0.0
  0
LINE
  5
45A9
  8
DANMEN
  6
CONTINUOUS
 10
122.31435912449371
 20
338.14613889830753
 30
0.0
 11
122.31435912449371
 21
235.1400336209158
 31
0.0
  0
LINE
  5
45AA
  8
DANMEN
  6
CONTINUOUS
 10
52.314359124494153
 20
338.14613889830753
 30
0.0
 11
52.314359124494153
 21
235.1400336209158
 31
0.0
  0
LINE
  5
45AB
  8
DANMEN
  6
CONTINUOUS
 10
76.814359124493805
 20
366.99614689830759
 30
0.0
 11
95.314359124493805
 21
366.99614689830759
 31
0.0
  0
LINE
  5
45AC
  8
DANMEN
  6
CONTINUOUS
 10
74.914359124493842
 20
368.64613889830781
 30
0.0
 11
96.464359124494308
 21
368.64613889830781
 31
0.0
  0
LINE
  5
45AD
  8
DANMEN
  6
CONTINUOUS
 10
76.814359124493805
 20
362.64613889830781
 30
0.0
 11
95.314359124493805
 21
362.64613889830781
 31
0.0
  0
LINE
  5
45AE
  8
DANMEN
  6
CONTINUOUS
 10
57.814359124493812
 20
372.64613889830781
 30
0.0
 11
116.81435912449371
 21
372.64613889830781
 31
0.0
  0
LINE
  5
45AF
  8
DANMEN
  6
CONTINUOUS
 10
52.314359124494153
 20
372.14613889830781
 30
0.0
 11
52.314359124494153
 21
338.14613889830753
 31
0.0
  0
LINE
  5
45B0
  8
DANMEN
  6
CONTINUOUS
 10
53.964359124494301
 20
361.64613889830781
 30
0.0
 11
53.964359124494301
 21
338.14613889830753
 31
0.0
  0
LINE
  5
45B1
  8
DANMEN
  6
CONTINUOUS
 10
74.314359124493805
 20
362.64613889830781
 30
0.0
 11
74.314359124493805
 21
350.64613889830758
 31
0.0
  0
LINE
  5
45B2
  8
DANMEN
  6
CONTINUOUS
 10
76.814359124493805
 20
366.99614689830759
 30
0.0
 11
76.814359124493805
 21
350.64613889830758
 31
0.0
  0
ARC
  5
45B3
  8
DANMEN
  6
CONTINUOUS
 10
53.464359124494287
 20
338.14613889830753
 30
0.0
 40
0.5
 50
270.0
 51
0.0
  0
ARC
  5
45B4
  8
DANMEN
  6
CONTINUOUS
 10
52.814359124494167
 20
338.14613889830753
 30
0.0
 40
0.5
 50
180.0
 51
270.0
  0
LINE
  5
45B5
  8
DANMEN
  6
CONTINUOUS
 10
52.814359124494167
 20
337.6461388983077
 30
0.0
 11
53.464359124494287
 21
337.6461388983077
 31
0.0
  0
ARC
  5
45B6
  8
DANMEN
  6
CONTINUOUS
 10
74.814359124493805
 20
350.64613889830758
 30
0.0
 40
0.5
 50
180.0
 51
270.0
  0
ARC
  5
45B7
  8
DANMEN
  6
CONTINUOUS
 10
76.314359124493805
 20
350.64613889830758
 30
0.0
 40
0.5
 50
270.0
 51
0.0
  0
LINE
  5
45B8
  8
DANMEN
  6
CONTINUOUS
 10
74.814359124493805
 20
350.1461388983077
 30
0.0
 11
76.314359124493805
 21
350.1461388983077
 31
0.0
  0
LINE
  5
45B9
  8
DANMEN
  6
CONTINUOUS
 10
63.847159124493828
 20
365.44612689830763
 30
0.0
 11
69.014359124493808
 21
365.44612689830763
 31
0.0
  0
LINE
  5
45BA
  8
DANMEN
  6
CONTINUOUS
 10
54.964359124493853
 20
362.64613889830781
 30
0.0
 11
74.314359124493805
 21
362.64613889830781
 31
0.0
  0
ARC
  5
45BB
  8
DANMEN
  6
CONTINUOUS
 10
54.964359124493853
 20
361.64613889830781
 30
0.0
 40
1.0
 50
90.0
 51
180.0
  0
ARC
  5
45BC
  8
DANMEN
  6
CONTINUOUS
 10
62.38835912449381
 20
365.29613089830821
 30
0.0
 40
1.0
 50
270.0
 51
346.50601199999909
  0
ARC
  5
45BD
  8
DANMEN
  6
CONTINUOUS
 10
54.964359124493853
 20
365.29613089830821
 30
0.0
 40
1.0
 50
180.0
 51
270.0
  0
ARC
  5
45BE
  8
DANMEN
  6
CONTINUOUS
 10
57.814359124493812
 20
371.49614689830781
 30
0.0
 40
0.5
 50
270.0
 51
0.0
  0
ARC
  5
45BF
  8
DANMEN
  6
CONTINUOUS
 10
63.847159124493828
 20
364.94612689830763
 30
0.0
 40
0.5
 50
90.0
 51
166.50599699999981
  0
ARC
  5
45C0
  8
DANMEN
  6
CONTINUOUS
 10
57.814359124493812
 20
372.14613889830781
 30
0.0
 40
0.5
 50
0.0
 51
90.0
  0
ARC
  5
45C1
  8
DANMEN
  6
CONTINUOUS
 10
52.814359124494167
 20
372.14613889830781
 30
0.0
 40
0.5
 50
90.0
 51
180.0
  0
LINE
  5
45C2
  8
DANMEN
  6
CONTINUOUS
 10
54.964359124493853
 20
364.29613089830798
 30
0.0
 11
62.38835912449381
 21
364.29613089830798
 31
0.0
  0
LINE
  5
45C3
  8
DANMEN
  6
CONTINUOUS
 10
53.964359124494301
 20
370.99614689830759
 30
0.0
 11
53.964359124494301
 21
365.29613089830821
 31
0.0
  0
LINE
  5
45C4
  8
DANMEN
  6
CONTINUOUS
 10
53.964359124494301
 20
370.99614689830759
 30
0.0
 11
57.814359124493812
 21
370.99614689830759
 31
0.0
  0
LINE
  5
45C5
  8
DANMEN
  6
CONTINUOUS
 10
58.314359124493819
 20
372.14613889830781
 30
0.0
 11
58.314359124493819
 21
371.49614689830781
 31
0.0
  0
LINE
  5
45C6
  8
DANMEN
  6
CONTINUOUS
 10
52.814359124494167
 20
372.64613889830781
 30
0.0
 11
57.814359124493812
 21
372.64613889830781
 31
0.0
  0
ARC
  5
45C7
  8
DANMEN
  6
CONTINUOUS
 10
69.014359124493808
 20
366.44612689830763
 30
0.0
 40
1.0
 50
270.0
 51
0.0
  0
ARC
  5
45C8
  8
DANMEN
  6
CONTINUOUS
 10
72.014359124493794
 20
367.68294289830789
 30
0.0
 40
0.200012
 50
294.6229860000002
 51
0.0
  0
ARC
  5
45C9
  8
DANMEN
  6
CONTINUOUS
 10
72.514359124493794
 20
366.59215489830819
 30
0.0
 40
1.0
 50
114.62400099999959
 51
180.0
  0
ARC
  5
45CA
  8
DANMEN
  6
CONTINUOUS
 10
74.614363124493806
 20
367.68294289830789
 30
0.0
 40
0.199996
 50
180.0
 51
245.37600699999959
  0
ARC
  5
45CB
  8
DANMEN
  6
CONTINUOUS
 10
74.114359124493845
 20
366.59215489830819
 30
0.0
 40
1.0
 50
0.0
 51
65.37580099999991
  0
ARC
  5
45CC
  8
DANMEN
  6
CONTINUOUS
 10
74.914359124493842
 20
368.14613889830758
 30
0.0
 40
0.5
 50
90.0
 51
180.0
  0
ARC
  5
45CD
  8
DANMEN
  6
CONTINUOUS
 10
74.114359124493845
 20
365.3461508983076
 30
0.0
 40
1.0
 50
270.0
 51
0.0
  0
ARC
  5
45CE
  8
DANMEN
  6
CONTINUOUS
 10
72.014359124493794
 20
366.67653489830798
 30
0.0
 40
1.9999880000000001
 50
101.5390010000001
 51
180.0
  0
ARC
  5
45CF
  8
DANMEN
  6
CONTINUOUS
 10
71.714359124494308
 20
368.14613889830758
 30
0.0
 40
0.5
 50
0.0
 51
101.5390010000001
  0
ARC
  5
45D0
  8
DANMEN
  6
CONTINUOUS
 10
72.514359124493794
 20
365.3461508983076
 30
0.0
 40
1.0
 50
180.0
 51
270.0
  0
LINE
  5
45D1
  8
DANMEN
  6
CONTINUOUS
 10
74.414359124493842
 20
367.68294289830789
 30
0.0
 11
74.414359124493842
 21
368.14613889830758
 31
0.0
  0
LINE
  5
45D2
  8
DANMEN
  6
CONTINUOUS
 10
74.114359124493845
 20
364.34615089830783
 30
0.0
 11
72.514359124493794
 21
364.34615089830783
 31
0.0
  0
LINE
  5
45D3
  8
DANMEN
  6
CONTINUOUS
 10
75.114363124493806
 20
365.3461508983076
 30
0.0
 11
75.114363124493806
 21
366.59215489830819
 31
0.0
  0
LINE
  5
45D4
  8
DANMEN
  6
CONTINUOUS
 10
72.214359124494294
 20
368.14613889830758
 30
0.0
 11
72.214359124494294
 21
367.68294289830789
 31
0.0
  0
LINE
  5
45D5
  8
DANMEN
  6
CONTINUOUS
 10
70.01435912449432
 20
366.67653489830798
 30
0.0
 11
70.01435912449432
 21
366.44612689830763
 31
0.0
  0
LINE
  5
45D6
  8
DANMEN
  6
CONTINUOUS
 10
71.514359124493808
 20
366.59215489830819
 30
0.0
 11
71.514359124493808
 21
365.3461508983076
 31
0.0
  0
LINE
  5
45D7
  8
SUNPO
 10
138.31435912449371
 20
317.64613889830753
 30
0.0
 11
138.31435912449371
 21
372.64613889830781
 31
0.0
  0
LINE
  5
45D8
  8
DANMEN
  6
CONTINUOUS
 10
117.86436312449371
 20
320.64613889830753
 30
0.0
 11
117.86436312449371
 21
334.64613889830758
 31
0.0
  0
LINE
  5
45D9
  8
DANMEN
  6
CONTINUOUS
 10
119.81435912449351
 20
318.14613889830758
 30
0.0
 11
119.81435912449351
 21
337.6461388983077
 31
0.0
  0
LINE
  5
45DA
  8
DANMEN
  6
CONTINUOUS
 10
101.31435912449381
 20
337.14613889830758
 30
0.0
 11
101.31435912449381
 21
325.1461388983077
 31
0.0
  0
LINE
  5
45DB
  8
DANMEN
  6
CONTINUOUS
 10
99.66435912449387
 20
335.9961468983077
 30
0.0
 11
99.66435912449387
 21
327.29613089830821
 31
0.0
  0
LINE
  5
45DC
  8
DANMEN
  6
CONTINUOUS
 10
95.314359124493805
 20
335.14613889830753
 30
0.0
 11
95.314359124493805
 21
328.14613889830753
 31
0.0
  0
LINE
  5
45DD
  8
DANMEN
  6
CONTINUOUS
 10
116.96555912449359
 20
316.00972689830769
 30
0.0
 11
111.31435912449371
 21
315.43733889830759
 31
0.0
  0
LINE
  5
45DE
  8
DANMEN
  6
CONTINUOUS
 10
117.0143551244942
 20
322.14613889830758
 30
0.0
 11
113.85715912449371
 21
324.00334689830771
 31
0.0
  0
LINE
  5
45DF
  8
DANMEN
  6
CONTINUOUS
 10
115.699955124494
 20
321.97173089830773
 30
0.0
 11
117.0143551244942
 21
321.44612689830763
 31
0.0
  0
LINE
  5
45E0
  8
DANMEN
  6
CONTINUOUS
 10
115.5403551244942
 20
320.56294689830781
 30
0.0
 11
116.31435912449371
 21
320.14613889830758
 31
0.0
  0
ARC
  5
45E1
  8
DANMEN
  6
CONTINUOUS
 10
99.314359124493805
 20
324.94612689830763
 30
0.0
 40
0.5
 50
0.0
 51
135.1239929999995
  0
ARC
  5
45E2
  8
DANMEN
  6
CONTINUOUS
 10
99.314359124493805
 20
320.34615089830783
 30
0.0
 40
0.499996
 50
224.87600700000041
 51
0.0
  0
ARC
  5
45E3
  8
DANMEN
  6
CONTINUOUS
 10
100.31435912449381
 20
316.94612689830763
 30
0.0
 40
1.0
 50
180.0
 51
270.0
  0
LINE
  5
45E4
  8
DANMEN
  6
CONTINUOUS
 10
98.814359124493791
 20
323.1461388983077
 30
0.0
 11
100.31435912449381
 21
323.1461388983077
 31
0.0
  0
LINE
  5
45E5
  8
DANMEN
  6
CONTINUOUS
 10
98.814359124493791
 20
322.14613889830758
 30
0.0
 11
100.31435912449381
 21
322.14613889830758
 31
0.0
  0
LINE
  5
45E6
  8
DANMEN
  6
CONTINUOUS
 10
99.314359124493805
 20
317.64613889830753
 30
0.0
 11
101.31435912449381
 21
317.64613889830753
 31
0.0
  0
LINE
  5
45E7
  8
DANMEN
  6
CONTINUOUS
 10
96.964359124493882
 20
319.29613089830821
 30
0.0
 11
100.31435912449381
 21
319.29613089830821
 31
0.0
  0
LINE
  5
45E8
  8
DANMEN
  6
CONTINUOUS
 10
96.964359124493882
 20
325.64613889830753
 30
0.0
 11
100.31435912449381
 21
325.64613889830753
 31
0.0
  0
LINE
  5
45E9
  8
DANMEN
  6
CONTINUOUS
 10
95.814359124493791
 20
317.64613889830753
 30
0.0
 11
100.81435912449371
 21
317.64613889830753
 31
0.0
  0
ARC
  5
45EA
  8
DANMEN
  6
CONTINUOUS
 10
98.814359124493791
 20
322.64613889830753
 30
0.0
 40
0.5
 50
90.0
 51
270.0
  0
ARC
  5
45EB
  8
DANMEN
  6
CONTINUOUS
 10
95.814359124493791
 20
328.14613889830753
 30
0.0
 40
0.5
 50
90.0
 51
180.0
  0
ARC
  5
45EC
  8
DANMEN
  6
CONTINUOUS
 10
95.814359124493791
 20
318.14613889830758
 30
0.0
 40
0.5
 50
180.0
 51
270.0
  0
LINE
  5
45ED
  8
DANMEN
  6
CONTINUOUS
 10
98.959959124493793
 20
325.29893889830799
 30
0.0
 11
97.314359124493791
 21
323.64613889830753
 31
0.0
  0
LINE
  5
45EE
  8
DANMEN
  6
CONTINUOUS
 10
98.959959124493793
 20
319.99333889830763
 30
0.0
 11
97.314359124493791
 21
321.64613889830753
 31
0.0
  0
LINE
  5
45EF
  8
DANMEN
  6
CONTINUOUS
 10
97.314359124493791
 20
321.64613889830753
 30
0.0
 11
97.314359124493791
 21
323.64613889830753
 31
0.0
  0
LINE
  5
45F0
  8
DANMEN
  6
CONTINUOUS
 10
99.314359124493805
 20
316.94612689830763
 30
0.0
 11
99.314359124493805
 21
317.64613889830753
 31
0.0
  0
LINE
  5
45F1
  8
DANMEN
  6
CONTINUOUS
 10
96.964359124493882
 20
325.64613889830753
 30
0.0
 11
96.964359124493882
 21
319.29613089830821
 31
0.0
  0
LINE
  5
45F2
  8
DANMEN
  6
CONTINUOUS
 10
96.314359124493791
 20
327.29613089830821
 30
0.0
 11
99.66435912449387
 21
327.29613089830821
 31
0.0
  0
LINE
  5
45F3
  8
DANMEN
  6
CONTINUOUS
 10
95.314359124493805
 20
328.14613889830753
 30
0.0
 11
95.314359124493805
 21
318.14613889830758
 31
0.0
  0
LINE
  5
45F4
  8
DANMEN
  6
CONTINUOUS
 10
96.314359124493791
 20
328.64613889830758
 30
0.0
 11
96.314359124493791
 21
327.29613089830821
 31
0.0
  0
LINE
  5
45F5
  8
DANMEN
  6
CONTINUOUS
 10
95.814359124493791
 20
328.64613889830758
 30
0.0
 11
96.314359124493791
 21
328.64613889830758
 31
0.0
  0
ARC
  5
45F6
  8
DANMEN
  6
CONTINUOUS
 10
113.6035591244937
 20
323.5725308983076
 30
0.0
 40
0.5
 50
59.534599000000341
 51
118.30000299999909
  0
ARC
  5
45F7
  8
DANMEN
  6
CONTINUOUS
 10
115.5143551244936
 20
321.5077428983077
 30
0.0
 40
0.499996
 50
68.197898999999722
 51
180.0
  0
ARC
  5
45F8
  8
DANMEN
  6
CONTINUOUS
 10
116.0143551244937
 20
321.4433508983077
 30
0.0
 40
1.0
 50
180.0
 51
241.6990050000002
  0
ARC
  5
45F9
  8
DANMEN
  6
CONTINUOUS
 10
103.2643551244937
 20
323.94612689830763
 30
0.0
 40
0.449996
 50
180.0
 51
0.0
  0
ARC
  5
45FA
  8
DANMEN
  6
CONTINUOUS
 10
100.31435912449381
 20
322.64613889830753
 30
0.0
 40
0.5
 50
270.0
 51
90.0
  0
ARC
  5
45FB
  8
DANMEN
  6
CONTINUOUS
 10
100.81435912449371
 20
325.1461388983077
 30
0.0
 40
0.5
 50
270.0
 51
0.0
  0
ARC
  5
45FC
  8
DANMEN
  6
CONTINUOUS
 10
100.81435912449371
 20
318.14613889830758
 30
0.0
 40
0.5
 50
270.0
 51
0.0
  0
LINE
  5
45FD
  8
DANMEN
  6
CONTINUOUS
 10
111.31435912449371
 20
322.90773489830792
 30
0.0
 11
113.3663591244942
 21
324.01253489830759
 31
0.0
  0
LINE
  5
45FE
  8
DANMEN
  6
CONTINUOUS
 10
115.0143551244937
 20
321.4433508983077
 30
0.0
 11
115.0143551244937
 21
321.5077428983077
 31
0.0
  0
LINE
  5
45FF
  8
DANMEN
  6
CONTINUOUS
 10
103.7143591244936
 20
323.94612689830763
 30
0.0
 11
106.31435912449371
 21
323.94612689830763
 31
0.0
  0
LINE
  5
4600
  8
DANMEN
  6
CONTINUOUS
 10
102.81435912449371
 20
323.94612689830763
 30
0.0
 11
102.81435912449371
 21
326.44612689830763
 31
0.0
  0
LINE
  5
4601
  8
DANMEN
  6
CONTINUOUS
 10
101.31435912449381
 20
326.44612689830763
 30
0.0
 11
102.81435912449371
 21
326.44612689830763
 31
0.0
  0
LINE
  5
4602
  8
DANMEN
  6
CONTINUOUS
 10
101.31435912449381
 20
324.34615089830783
 30
0.0
 11
101.31435912449381
 21
326.44612689830763
 31
0.0
  0
LINE
  5
4603
  8
DANMEN
  6
CONTINUOUS
 10
99.814359124493791
 20
324.34615089830783
 30
0.0
 11
99.814359124493791
 21
324.94612689830763
 31
0.0
  0
LINE
  5
4604
  8
DANMEN
  6
CONTINUOUS
 10
99.814359124493791
 20
320.34615089830783
 30
0.0
 11
99.814359124493791
 21
320.94612689830763
 31
0.0
  0
LINE
  5
4605
  8
DANMEN
  6
CONTINUOUS
 10
99.814359124493791
 20
324.34615089830783
 30
0.0
 11
101.31435912449381
 21
324.34615089830783
 31
0.0
  0
LINE
  5
4606
  8
DANMEN
  6
CONTINUOUS
 10
99.814359124493791
 20
320.94612689830763
 30
0.0
 11
101.31435912449381
 21
320.94612689830763
 31
0.0
  0
LINE
  5
4607
  8
DANMEN
  6
CONTINUOUS
 10
100.31435912449381
 20
315.94612689830763
 30
0.0
 11
106.31435912449371
 21
315.94612689830763
 31
0.0
  0
LINE
  5
4608
  8
DANMEN
  6
CONTINUOUS
 10
101.31435912449381
 20
317.64613889830753
 30
0.0
 11
101.31435912449381
 21
320.94612689830763
 31
0.0
  0
LINE
  5
4609
  8
DANMEN
  6
CONTINUOUS
 10
100.31435912449381
 20
325.64613889830753
 30
0.0
 11
100.31435912449381
 21
324.64613889830758
 31
0.0
  0
LINE
  5
460A
  8
DANMEN
  6
CONTINUOUS
 10
100.31435912449381
 20
320.64613889830753
 30
0.0
 11
100.31435912449381
 21
319.29613089830821
 31
0.0
  0
LINE
  5
460B
  8
DANMEN
  6
CONTINUOUS
 10
101.31435912449381
 20
320.64613889830753
 30
0.0
 11
101.31435912449381
 21
318.14613889830758
 31
0.0
  0
LINE
  5
460C
  8
DANMEN
  6
CONTINUOUS
 10
100.31435912449381
 20
324.64613889830758
 30
0.0
 11
100.81435912449371
 21
324.64613889830758
 31
0.0
  0
LINE
  5
460D
  8
DANMEN
  6
CONTINUOUS
 10
100.31435912449381
 20
320.64613889830753
 30
0.0
 11
101.31435912449381
 21
320.64613889830753
 31
0.0
  0
LINE
  5
460E
  8
DANMEN
  6
CONTINUOUS
 10
106.31435912449371
 20
324.64613889830758
 30
0.0
 11
111.31435912449371
 21
324.64613889830758
 31
0.0
  0
LINE
  5
460F
  8
SUNPO
 10
124.31435912449371
 20
317.64613889830753
 30
0.0
 11
138.31435912449371
 21
317.64613889830753
 31
0.0
  0
ARC
  5
4610
  8
DANMEN
  6
CONTINUOUS
 10
116.81435912449371
 20
317.50173089830753
 30
0.0
 40
1.500003999999999
 50
275.78201300000018
 51
0.0
  0
ARC
  5
4611
  8
DANMEN
  6
CONTINUOUS
 10
119.31435912449371
 20
318.14613889830758
 30
0.0
 40
0.5
 50
270.0
 51
0.0
  0
ARC
  5
4612
  8
DANMEN
  6
CONTINUOUS
 10
117.31435912449371
 20
318.64613889830753
 30
0.0
 40
1.0
 50
180.0
 51
270.0
  0
LINE
  5
4613
  8
DANMEN
  6
CONTINUOUS
 10
117.0143551244942
 20
321.44612689830763
 30
0.0
 11
117.0143551244942
 21
322.14613889830758
 31
0.0
  0
LINE
  5
4614
  8
DANMEN
  6
CONTINUOUS
 10
116.31435912449371
 20
317.64613889830753
 30
0.0
 11
118.31435912449371
 21
317.64613889830753
 31
0.0
  0
LINE
  5
4615
  8
DANMEN
  6
CONTINUOUS
 10
118.31435912449371
 20
317.50173089830753
 30
0.0
 11
118.31435912449371
 21
317.64613889830753
 31
0.0
  0
LINE
  5
4616
  8
DANMEN
  6
CONTINUOUS
 10
116.31435912449371
 20
317.64613889830753
 30
0.0
 11
116.31435912449371
 21
320.14613889830758
 31
0.0
  0
LINE
  5
4617
  8
DANMEN
  6
CONTINUOUS
 10
116.31435912449371
 20
318.64613889830753
 30
0.0
 11
116.31435912449371
 21
320.64613889830753
 31
0.0
  0
LINE
  5
4618
  8
DANMEN
  6
CONTINUOUS
 10
117.86436312449371
 20
320.64613889830753
 30
0.0
 11
116.31435912449371
 21
320.64613889830753
 31
0.0
  0
LINE
  5
4619
  8
DANMEN
  6
CONTINUOUS
 10
119.31435912449371
 20
317.64613889830753
 30
0.0
 11
117.31435912449371
 21
317.64613889830753
 31
0.0
  0
LINE
  5
461A
  8
DANMEN
  6
CONTINUOUS
 10
116.86436312449371
 20
335.6461388983077
 30
0.0
 11
115.81435912449371
 21
335.6461388983077
 31
0.0
  0
LINE
  5
461B
  8
DANMEN
  6
CONTINUOUS
 10
117.1059631244937
 20
340.52214689830782
 30
0.0
 11
107.31435912449371
 21
342.3461508983076
 31
0.0
  0
LINE
  5
461C
  8
DANMEN
  6
CONTINUOUS
 10
111.61436312449371
 20
347.29613089830809
 30
0.0
 11
119.6643591244937
 21
347.29613089830809
 31
0.0
  0
LINE
  5
461D
  8
DANMEN
  6
CONTINUOUS
 10
114.81435912449371
 20
345.64613889830758
 30
0.0
 11
119.6643591244937
 21
345.64613889830758
 31
0.0
  0
LINE
  5
461E
  8
DANMEN
  6
CONTINUOUS
 10
96.964359124493882
 20
368.14613889830758
 30
0.0
 11
96.964359124493882
 21
345.29613089830809
 31
0.0
  0
LINE
  5
461F
  8
DANMEN
  6
CONTINUOUS
 10
95.314359124493805
 20
366.99614689830759
 30
0.0
 11
95.314359124493805
 21
335.14613889830753
 31
0.0
  0
ARC
  5
4620
  8
DANMEN
  6
CONTINUOUS
 10
99.814359124493791
 20
341.4361468983077
 30
0.0
 40
0.5000040000000002
 50
101.30999800000041
 51
180.0
  0
ARC
  5
4621
  8
DANMEN
  6
CONTINUOUS
 10
99.314359124493805
 20
340.14613889830753
 30
0.0
 40
0.5
 50
0.0
 51
48.189700999999623
  0
ARC
  5
4622
  8
DANMEN
  6
CONTINUOUS
 10
100.1643591244937
 20
346.79613089830821
 30
0.0
 40
0.5
 50
90.0
 51
180.0
  0
ARC
  5
4623
  8
DANMEN
  6
CONTINUOUS
 10
98.664359124493842
 20
345.29613089830809
 30
0.0
 40
1.0
 50
270.0
 51
0.0
  0
LINE
  5
4624
  8
DANMEN
  6
CONTINUOUS
 10
97.964359124494322
 20
342.64613889830753
 30
0.0
 11
100.81435912449371
 21
342.64613889830753
 31
0.0
  0
LINE
  5
4625
  8
DANMEN
  6
CONTINUOUS
 10
96.964359124493882
 20
337.6461388983077
 30
0.0
 11
100.81435912449371
 21
337.6461388983077
 31
0.0
  0
ARC
  5
4626
  8
DANMEN
  6
CONTINUOUS
 10
100.31435912449381
 20
341.26415089830761
 30
0.0
 40
1.0
 50
180.0
 51
228.19000200000011
  0
ARC
  5
4627
  8
DANMEN
  6
CONTINUOUS
 10
97.964359124494322
 20
341.64613889830753
 30
0.0
 40
1.0
 50
90.0
 51
180.0
  0
ARC
  5
4628
  8
DANMEN
  6
CONTINUOUS
 10
97.964359124494322
 20
345.29613089830809
 30
0.0
 40
1.0
 50
180.0
 51
270.0
  0
ARC
  5
4629
  8
DANMEN
  6
CONTINUOUS
 10
95.814359124493791
 20
335.14613889830753
 30
0.0
 40
0.5
 50
180.0
 51
270.0
  0
LINE
  5
462A
  8
DANMEN
  6
CONTINUOUS
 10
99.314359124493805
 20
341.26415089830761
 30
0.0
 11
99.314359124493805
 21
341.4361468983077
 31
0.0
  0
LINE
  5
462B
  8
DANMEN
  6
CONTINUOUS
 10
96.314359124493791
 20
335.9961468983077
 30
0.0
 11
99.66435912449387
 21
335.9961468983077
 31
0.0
  0
LINE
  5
462C
  8
DANMEN
  6
CONTINUOUS
 10
96.964359124493882
 20
341.64613889830753
 30
0.0
 11
96.964359124493882
 21
337.6461388983077
 31
0.0
  0
LINE
  5
462D
  8
DANMEN
  6
CONTINUOUS
 10
99.66435912449387
 20
346.79613089830821
 30
0.0
 11
99.66435912449387
 21
345.29613089830809
 31
0.0
  0
LINE
  5
462E
  8
DANMEN
  6
CONTINUOUS
 10
97.964359124494322
 20
344.29613089830821
 30
0.0
 11
98.664359124493842
 21
344.29613089830821
 31
0.0
  0
LINE
  5
462F
  8
DANMEN
  6
CONTINUOUS
 10
96.314359124493791
 20
335.9961468983077
 30
0.0
 11
96.314359124493791
 21
334.64613889830758
 31
0.0
  0
LINE
  5
4630
  8
DANMEN
  6
CONTINUOUS
 10
95.814359124493791
 20
334.64613889830758
 30
0.0
 11
96.314359124493791
 21
334.64613889830758
 31
0.0
  0
ARC
  5
4631
  8
DANMEN
  6
CONTINUOUS
 10
113.81435912449371
 20
338.59215489830808
 30
0.0
 40
1.0
 50
0.0
 51
79.448401999999675
  0
ARC
  5
4632
  8
DANMEN
  6
CONTINUOUS
 10
115.81435912449371
 20
336.6461388983077
 30
0.0
 40
1.0
 50
180.0
 51
270.0
  0
ARC
  5
4633
  8
DANMEN
  6
CONTINUOUS
 10
102.31435912449371
 20
339.84615089830749
 30
0.0
 40
1.0
 50
90.0
 51
180.0
  0
ARC
  5
4634
  8
DANMEN
  6
CONTINUOUS
 10
100.11436312449371
 20
337.94612689830763
 30
0.0
 40
0.300004
 50
180.0
 51
270.0
  0
ARC
  5
4635
  8
DANMEN
  6
CONTINUOUS
 10
100.81435912449371
 20
338.14613889830753
 30
0.0
 40
0.5
 50
270.0
 51
0.0
  0
ARC
  5
4636
  8
DANMEN
  6
CONTINUOUS
 10
111.61436312449371
 20
348.29613089830821
 30
0.0
 40
1.0
 50
180.0
 51
270.0
  0
ARC
  5
4637
  8
DANMEN
  6
CONTINUOUS
 10
103.0143551244936
 20
348.29613089830821
 30
0.0
 40
1.0
 50
270.0
 51
0.0
  0
ARC
  5
4638
  8
DANMEN
  6
CONTINUOUS
 10
106.0143551244936
 20
350.682942898308
 30
0.0
 40
0.200012
 50
294.62399299999947
 51
0.0
  0
ARC
  5
4639
  8
DANMEN
  6
CONTINUOUS
 10
106.5143551244937
 20
349.59215489830819
 30
0.0
 40
0.9999959999999996
 50
114.62400099999959
 51
180.0
  0
ARC
  5
463A
  8
DANMEN
  6
CONTINUOUS
 10
108.61436312449371
 20
350.682942898308
 30
0.0
 40
0.199996
 50
180.0
 51
245.37600699999959
  0
ARC
  5
463B
  8
DANMEN
  6
CONTINUOUS
 10
108.11436312449371
 20
349.59215489830819
 30
0.0
 40
1.0
 50
0.0
 51
65.37580099999991
  0
ARC
  5
463C
  8
DANMEN
  6
CONTINUOUS
 10
108.61436312449371
 20
349.6765348983082
 30
0.0
 40
2.0
 50
0.0
 51
78.460898999999813
  0
ARC
  5
463D
  8
DANMEN
  6
CONTINUOUS
 10
108.9143591244937
 20
351.1461388983077
 30
0.0
 40
0.5000040000000002
 50
78.460701000000299
 51
180.0
  0
ARC
  5
463E
  8
DANMEN
  6
CONTINUOUS
 10
108.11436312449371
 20
348.34615089830771
 30
0.0
 40
1.0
 50
270.0
 51
0.0
  0
ARC
  5
463F
  8
DANMEN
  6
CONTINUOUS
 10
106.0143551244936
 20
349.6765348983082
 30
0.0
 40
1.9999880000000001
 50
101.5390010000001
 51
180.0
  0
ARC
  5
4640
  8
DANMEN
  6
CONTINUOUS
 10
105.71435912449419
 20
351.1461388983077
 30
0.0
 40
0.5
 50
0.0
 51
101.5390010000001
  0
ARC
  5
4641
  8
DANMEN
  6
CONTINUOUS
 10
106.5143551244937
 20
348.34615089830771
 30
0.0
 40
1.0
 50
180.0
 51
270.0
  0
ARC
  5
4642
  8
DANMEN
  6
CONTINUOUS
 10
100.81435912449371
 20
337.14613889830758
 30
0.0
 40
0.5
 50
0.0
 51
90.0
  0
ARC
  5
4643
  8
DANMEN
  6
CONTINUOUS
 10
100.81435912449371
 20
343.14613889830758
 30
0.0
 40
0.5
 50
270.0
 51
0.0
  0
ARC
  5
4644
  8
DANMEN
  6
CONTINUOUS
 10
113.81435912449371
 20
345.34615089830783
 30
0.0
 40
0.5
 50
180.0
 51
270.0
  0
LINE
  5
4645
  8
DANMEN
  6
CONTINUOUS
 10
113.9975551244937
 20
339.57533889830768
 30
0.0
 11
107.17596312449371
 21
340.8461508983076
 31
0.0
  0
LINE
  5
4646
  8
DANMEN
  6
CONTINUOUS
 10
114.81435912449371
 20
336.6461388983077
 30
0.0
 11
114.81435912449371
 21
338.59215489830808
 31
0.0
  0
LINE
  5
4647
  8
DANMEN
  6
CONTINUOUS
 10
107.17596312449371
 20
340.8461508983076
 30
0.0
 11
102.31435912449371
 21
340.8461508983076
 31
0.0
  0
LINE
  5
4648
  8
DANMEN
  6
CONTINUOUS
 10
101.81435912449371
 20
342.3461508983076
 30
0.0
 11
99.716359124493863
 21
341.9265348983082
 31
0.0
  0
LINE
  5
4649
  8
DANMEN
  6
CONTINUOUS
 10
101.31435912449381
 20
338.14613889830753
 30
0.0
 11
101.31435912449381
 21
339.84615089830749
 31
0.0
  0
LINE
  5
464A
  8
DANMEN
  6
CONTINUOUS
 10
99.814359124493791
 20
337.94612689830763
 30
0.0
 11
99.814359124493791
 21
340.14613889830753
 31
0.0
  0
LINE
  5
464B
  8
DANMEN
  6
CONTINUOUS
 10
100.81435912449371
 20
337.6461388983077
 30
0.0
 11
100.11436312449371
 21
337.6461388983077
 31
0.0
  0
LINE
  5
464C
  8
DANMEN
  6
CONTINUOUS
 10
107.31435912449371
 20
342.3461508983076
 30
0.0
 11
101.81435912449371
 21
342.3461508983076
 31
0.0
  0
LINE
  5
464D
  8
DANMEN
  6
CONTINUOUS
 10
108.4143591244937
 20
350.682942898308
 30
0.0
 11
108.4143591244937
 21
351.1461388983077
 31
0.0
  0
LINE
  5
464E
  8
DANMEN
  6
CONTINUOUS
 10
108.11436312449371
 20
347.34615089830783
 30
0.0
 11
106.5143551244937
 21
347.34615089830783
 31
0.0
  0
LINE
  5
464F
  8
DANMEN
  6
CONTINUOUS
 10
110.61436312449371
 20
348.29613089830821
 30
0.0
 11
110.61436312449371
 21
349.6765348983082
 31
0.0
  0
LINE
  5
4650
  8
DANMEN
  6
CONTINUOUS
 10
109.11436312449371
 20
348.34615089830771
 30
0.0
 11
109.11436312449371
 21
349.59215489830819
 31
0.0
  0
LINE
  5
4651
  8
DANMEN
  6
CONTINUOUS
 10
106.21435912449419
 20
351.1461388983077
 30
0.0
 11
106.21435912449419
 21
350.682942898308
 31
0.0
  0
LINE
  5
4652
  8
DANMEN
  6
CONTINUOUS
 10
104.014355124494
 20
349.6765348983082
 30
0.0
 11
104.014355124494
 21
348.29613089830821
 31
0.0
  0
LINE
  5
4653
  8
DANMEN
  6
CONTINUOUS
 10
105.5143551244937
 20
349.59215489830819
 30
0.0
 11
105.5143551244937
 21
348.34615089830771
 31
0.0
  0
LINE
  5
4654
  8
DANMEN
  6
CONTINUOUS
 10
100.1643591244937
 20
347.29613089830809
 30
0.0
 11
103.0143551244936
 21
347.29613089830809
 31
0.0
  0
LINE
  5
4655
  8
DANMEN
  6
CONTINUOUS
 10
113.81435912449371
 20
344.84615089830783
 30
0.0
 11
114.81435912449371
 21
344.84615089830783
 31
0.0
  0
LINE
  5
4656
  8
DANMEN
  6
CONTINUOUS
 10
101.31435912449381
 20
345.64613889830758
 30
0.0
 11
113.31435912449371
 21
345.64613889830758
 31
0.0
  0
LINE
  5
4657
  8
DANMEN
  6
CONTINUOUS
 10
114.81435912449371
 20
345.64613889830758
 30
0.0
 11
114.81435912449371
 21
344.84615089830783
 31
0.0
  0
LINE
  5
4658
  8
DANMEN
  6
CONTINUOUS
 10
101.31435912449381
 20
345.64613889830758
 30
0.0
 11
101.31435912449381
 21
343.14613889830758
 31
0.0
  0
LINE
  5
4659
  8
DANMEN
  6
CONTINUOUS
 10
113.31435912449371
 20
345.64613889830758
 30
0.0
 11
113.31435912449371
 21
345.34615089830783
 31
0.0
  0
ARC
  5
465A
  8
DANMEN
  6
CONTINUOUS
 10
96.464359124494308
 20
368.14613889830758
 30
0.0
 40
0.5
 50
0.0
 51
90.0
  0
LINE
  5
465B
  8
DANMEN
  6
CONTINUOUS
 10
120.6643591244937
 20
370.99614689830759
 30
0.0
 11
120.6643591244937
 21
348.29613089830821
 31
0.0
  0
LINE
  5
465C
  8
DANMEN
  6
CONTINUOUS
 10
122.31435912449371
 20
372.14613889830781
 30
0.0
 11
122.31435912449371
 21
338.14613889830753
 31
0.0
  0
ARC
  5
465D
  8
DANMEN
  6
CONTINUOUS
 10
116.86436312449371
 20
334.64613889830758
 30
0.0
 40
1.0
 50
0.0
 51
90.0
  0
ARC
  5
465E
  8
DANMEN
  6
CONTINUOUS
 10
117.0143551244942
 20
340.03053889830778
 30
0.0
 40
0.5
 50
0.0
 51
79.448401999999675
  0
ARC
  5
465F
  8
DANMEN
  6
CONTINUOUS
 10
116.81435912449371
 20
338.64613889830753
 30
0.0
 40
0.5
 50
90.0
 51
180.0
  0
ARC
  5
4660
  8
DANMEN
  6
CONTINUOUS
 10
119.6643591244937
 20
348.29613089830821
 30
0.0
 40
1.0
 50
270.0
 51
0.0
  0
ARC
  5
4661
  8
DANMEN
  6
CONTINUOUS
 10
119.6643591244937
 20
344.64613889830758
 30
0.0
 40
1.0
 50
0.0
 51
90.0
  0
ARC
  5
4662
  8
DANMEN
  6
CONTINUOUS
 10
116.81435912449371
 20
338.14613889830753
 30
0.0
 40
0.5
 50
180.0
 51
270.0
  0
ARC
  5
4663
  8
DANMEN
  6
CONTINUOUS
 10
121.81435912449371
 20
338.14613889830753
 30
0.0
 40
0.5
 50
270.0
 51
0.0
  0
LINE
  5
4664
  8
DANMEN
  6
CONTINUOUS
 10
117.86436312449371
 20
337.14613889830758
 30
0.0
 11
117.86436312449371
 21
337.6461388983077
 31
0.0
  0
LINE
  5
4665
  8
DANMEN
  6
CONTINUOUS
 10
117.86436312449371
 20
337.14613889830758
 30
0.0
 11
116.31435912449371
 21
337.14613889830758
 31
0.0
  0
LINE
  5
4666
  8
DANMEN
  6
CONTINUOUS
 10
117.5143551244936
 20
339.44612689830763
 30
0.0
 11
116.31435912449371
 21
339.44612689830763
 31
0.0
  0
LINE
  5
4667
  8
DANMEN
  6
CONTINUOUS
 10
119.81435912449351
 20
337.6461388983077
 30
0.0
 11
117.86436312449371
 21
337.6461388983077
 31
0.0
  0
LINE
  5
4668
  8
DANMEN
  6
CONTINUOUS
 10
117.5143551244936
 20
339.44612689830763
 30
0.0
 11
117.5143551244936
 21
340.03053889830778
 31
0.0
  0
LINE
  5
4669
  8
DANMEN
  6
CONTINUOUS
 10
116.31435912449371
 20
337.14613889830758
 30
0.0
 11
116.31435912449371
 21
339.44612689830763
 31
0.0
  0
LINE
  5
466A
  8
DANMEN
  6
CONTINUOUS
 10
116.81435912449371
 20
339.14613889830758
 30
0.0
 11
120.6643591244937
 21
339.14613889830758
 31
0.0
  0
LINE
  5
466B
  8
DANMEN
  6
CONTINUOUS
 10
120.6643591244937
 20
344.64613889830758
 30
0.0
 11
120.6643591244937
 21
339.14613889830758
 31
0.0
  0
LINE
  5
466C
  8
DANMEN
  6
CONTINUOUS
 10
116.31435912449371
 20
338.64613889830753
 30
0.0
 11
116.31435912449371
 21
338.14613889830753
 31
0.0
  0
LINE
  5
466D
  8
DANMEN
  6
CONTINUOUS
 10
116.81435912449371
 20
337.6461388983077
 30
0.0
 11
121.81435912449371
 21
337.6461388983077
 31
0.0
  0
LINE
  5
466E
  8
SUNPO
 10
124.31435912449371
 20
372.64613889830781
 30
0.0
 11
138.31435912449371
 21
372.64613889830781
 31
0.0
  0
ARC
  5
466F
  8
DANMEN
  6
CONTINUOUS
 10
116.81435912449371
 20
371.49614689830781
 30
0.0
 40
0.5
 50
180.0
 51
270.0
  0
ARC
  5
4670
  8
DANMEN
  6
CONTINUOUS
 10
116.81435912449371
 20
372.14613889830781
 30
0.0
 40
0.5
 50
90.0
 51
180.0
  0
ARC
  5
4671
  8
DANMEN
  6
CONTINUOUS
 10
121.81435912449371
 20
372.14613889830781
 30
0.0
 40
0.5
 50
0.0
 51
90.0
  0
LINE
  5
4672
  8
DANMEN
  6
CONTINUOUS
 10
116.81435912449371
 20
370.99614689830759
 30
0.0
 11
120.6643591244937
 21
370.99614689830759
 31
0.0
  0
LINE
  5
4673
  8
DANMEN
  6
CONTINUOUS
 10
116.31435912449371
 20
372.14613889830781
 30
0.0
 11
116.31435912449371
 21
371.49614689830781
 31
0.0
  0
LINE
  5
4674
  8
DANMEN
  6
CONTINUOUS
 10
116.81435912449371
 20
372.64613889830781
 30
0.0
 11
121.81435912449371
 21
372.64613889830781
 31
0.0
  0
LINE
  5
4675
  8
DANMEN
  6
CONTINUOUS
 10
401.8647904284262
 20
113.63996127035659
 30
0.0
 11
453.36479042842632
 21
113.63996127035659
 31
0.0
  0
LINE
  5
4676
  8
DANMEN
  6
CONTINUOUS
 10
401.8647904284262
 20
132.63996127035631
 30
0.0
 11
453.36479042842632
 21
132.63996127035631
 31
0.0
  0
LINE
  5
4677
  8
DANMEN
  6
CONTINUOUS
 10
401.8647904284262
 20
121.33995727035661
 30
0.0
 11
460.3647904284262
 21
121.33995727035661
 31
0.0
  0
LINE
  5
4678
  8
DANMEN
  6
CONTINUOUS
 10
401.8647904284262
 20
124.9399652703564
 30
0.0
 11
460.3647904284262
 21
124.9399652703564
 31
0.0
  0
LINE
  5
4679
  8
DANMEN
  6
CONTINUOUS
 10
401.8647904284262
 20
125.63996127035639
 30
0.0
 11
460.3647904284262
 21
125.63996127035639
 31
0.0
  0
LINE
  5
467A
  8
DANMEN
  6
CONTINUOUS
 10
401.8647904284262
 20
120.63996127035649
 30
0.0
 11
460.3647904284262
 21
120.63996127035649
 31
0.0
  0
LINE
  5
467B
  8
DANMEN
  6
CONTINUOUS
 10
401.8647904284262
 20
136.63996127035639
 30
0.0
 11
453.86479042842609
 21
136.63996127035639
 31
0.0
  0
LINE
  5
467C
  8
DANMEN
  6
CONTINUOUS
 10
401.8647904284262
 20
111.13996127035669
 30
0.0
 11
453.36479042842632
 21
111.13996127035669
 31
0.0
  0
LINE
  5
467D
  8
DANMEN
  6
CONTINUOUS
 10
401.8647904284262
 20
179.63996127035631
 30
0.0
 11
453.86479042842609
 21
179.63996127035631
 31
0.0
  0
LINE
  5
467E
  8
DANMEN
  6
CONTINUOUS
 10
401.8647904284262
 20
109.63996127035659
 30
0.0
 11
453.86479042842609
 21
109.63996127035659
 31
0.0
  0
LINE
  5
467F
  8
DANMEN
  6
CONTINUOUS
 10
324.66477842842602
 20
128.23996927035631
 30
0.0
 11
324.66477842842602
 21
125.63996127035639
 31
0.0
  0
LINE
  5
4680
  8
DANMEN
  6
CONTINUOUS
 10
316.66477842842602
 20
131.63996127035631
 30
0.0
 11
316.66477842842602
 21
125.63996127035639
 31
0.0
  0
LINE
  5
4681
  8
DANMEN
  6
CONTINUOUS
 10
332.36479042842598
 20
114.58995727035671
 30
0.0
 11
332.36479042842598
 21
130.63996127035631
 31
0.0
  0
LINE
  5
4682
  8
DANMEN
  6
CONTINUOUS
 10
334.36479042842598
 20
130.63996127035631
 30
0.0
 11
334.36479042842598
 21
114.58995727035671
 31
0.0
  0
LINE
  5
4683
  8
DANMEN
  6
CONTINUOUS
 10
342.06480242842622
 20
128.23996927035631
 30
0.0
 11
342.06480242842622
 21
125.63996127035639
 31
0.0
  0
LINE
  5
4684
  8
DANMEN
  6
CONTINUOUS
 10
350.06480242842628
 20
131.63996127035631
 30
0.0
 11
350.06480242842628
 21
125.63996127035639
 31
0.0
  0
LINE
  5
4685
  8
DANMEN
  6
CONTINUOUS
 10
334.36479042842598
 20
118.13996127035649
 30
0.0
 11
341.36479042842609
 21
128.13996127035631
 31
0.0
  0
LINE
  5
4686
  8
DANMEN
  6
CONTINUOUS
 10
332.36479042842598
 20
128.13996127035631
 30
0.0
 11
325.36479042842609
 21
118.13996127035649
 31
0.0
  0
LINE
  5
4687
  8
DANMEN
  6
CONTINUOUS
 10
325.36479042842609
 20
128.13996127035631
 30
0.0
 11
325.36479042842609
 21
118.13996127035649
 31
0.0
  0
LINE
  5
4688
  8
DANMEN
  6
CONTINUOUS
 10
341.36479042842609
 20
128.13996127035631
 30
0.0
 11
341.36479042842609
 21
118.13996127035649
 31
0.0
  0
LINE
  5
4689
  8
SUNPO
 10
318.36479042842609
 20
93.639961270356707
 30
0.0
 11
348.3647904284262
 21
93.639961270356707
 31
0.0
  0
LINE
  5
468A
  8
DANMEN
  6
CONTINUOUS
 10
333.86479042842609
 20
111.63996127035659
 30
0.0
 11
347.3647904284262
 21
111.63996127035659
 31
0.0
  0
LINE
  5
468B
  8
DANMEN
  6
CONTINUOUS
 10
345.3647904284262
 20
115.63996127035659
 30
0.0
 11
347.3647904284262
 21
115.63996127035659
 31
0.0
  0
LINE
  5
468C
  8
DANMEN
  6
CONTINUOUS
 10
345.4479824284262
 20
116.4139652703567
 30
0.0
 11
345.8647904284262
 21
115.63996127035659
 31
0.0
  0
LINE
  5
468D
  8
DANMEN
  6
CONTINUOUS
 10
341.36479042842609
 20
124.9399652703564
 30
0.0
 11
399.8647904284262
 21
124.9399652703564
 31
0.0
  0
LINE
  5
468E
  8
DANMEN
  6
CONTINUOUS
 10
341.36479042842609
 20
121.33995727035661
 30
0.0
 11
399.8647904284262
 21
121.33995727035661
 31
0.0
  0
LINE
  5
468F
  8
DANMEN
  6
CONTINUOUS
 10
341.36479042842609
 20
125.63996127035639
 30
0.0
 11
399.8647904284262
 21
125.63996127035639
 31
0.0
  0
LINE
  5
4690
  8
DANMEN
  6
CONTINUOUS
 10
341.36479042842609
 20
120.63996127035649
 30
0.0
 11
399.8647904284262
 21
120.63996127035649
 31
0.0
  0
LINE
  5
4691
  8
SUNPO
 10
318.36479042842609
 20
107.63996127035659
 30
0.0
 11
318.36479042842609
 21
93.639961270356707
 31
0.0
  0
LINE
  5
4692
  8
DANMEN
  6
CONTINUOUS
 10
321.36479042842609
 20
113.58995727035671
 30
0.0
 11
331.36479042842609
 21
113.58995727035671
 31
0.0
  0
LINE
  5
4693
  8
DANMEN
  6
CONTINUOUS
 10
319.36479042842598
 20
111.63996127035659
 30
0.0
 11
332.86479042842609
 21
111.63996127035659
 31
0.0
  0
LINE
  5
4694
  8
DANMEN
  6
CONTINUOUS
 10
332.36479042842598
 20
118.13996127035649
 30
0.0
 11
325.36479042842609
 21
118.13996127035649
 31
0.0
  0
ARC
  5
4695
  8
DANMEN
  6
CONTINUOUS
 10
318.22038242842609
 20
115.13996127035669
 30
0.0
 40
1.500003999999999
 50
185.78199799999919
 51
270.0
  0
ARC
  5
4696
  8
DANMEN
  6
CONTINUOUS
 10
324.291182428426
 20
118.3507612703565
 30
0.0
 40
0.5
 50
329.5350040000003
 51
28.299699999999639
  0
ARC
  5
4697
  8
DANMEN
  6
CONTINUOUS
 10
322.22639442842598
 20
116.43996527035659
 30
0.0
 40
0.499996
 50
338.19799799999942
 51
90.0
  0
ARC
  5
4698
  8
DANMEN
  6
CONTINUOUS
 10
322.16200242842598
 20
115.93996527035669
 30
0.0
 40
1.0
 50
90.0
 51
151.69900500000051
  0
ARC
  5
4699
  8
DANMEN
  6
CONTINUOUS
 10
319.36479042842598
 20
114.63996127035659
 30
0.0
 40
1.0
 50
90.0
 51
180.0
  0
ARC
  5
469A
  8
DANMEN
  6
CONTINUOUS
 10
319.36479042842598
 20
112.63996127035659
 30
0.0
 40
1.0
 50
180.0
 51
270.0
  0
LINE
  5
469B
  8
DANMEN
  6
CONTINUOUS
 10
316.72837842842631
 20
114.9887612703567
 30
0.0
 11
316.15599042842661
 21
120.63996127035649
 31
0.0
  0
LINE
  5
469C
  8
DANMEN
  6
CONTINUOUS
 10
323.62638642842597
 20
120.63996127035649
 30
0.0
 11
324.7311864284261
 21
118.5879612703566
 31
0.0
  0
LINE
  5
469D
  8
DANMEN
  6
CONTINUOUS
 10
322.86479042842609
 20
114.93996527035669
 30
0.0
 11
324.72199842842622
 21
118.09716127035649
 31
0.0
  0
LINE
  5
469E
  8
DANMEN
  6
CONTINUOUS
 10
322.69038242842612
 20
116.25435727035671
 30
0.0
 11
322.16477842842608
 21
114.93996527035669
 31
0.0
  0
LINE
  5
469F
  8
DANMEN
  6
CONTINUOUS
 10
322.16477842842608
 20
114.93996527035669
 30
0.0
 11
322.86479042842609
 21
114.93996527035669
 31
0.0
  0
LINE
  5
46A0
  8
DANMEN
  6
CONTINUOUS
 10
321.28159842842598
 20
116.4139652703567
 30
0.0
 11
320.86479042842609
 21
115.63996127035659
 31
0.0
  0
LINE
  5
46A1
  8
DANMEN
  6
CONTINUOUS
 10
322.16200242842598
 20
116.93996527035669
 30
0.0
 11
322.22639442842598
 21
116.93996527035669
 31
0.0
  0
LINE
  5
46A2
  8
DANMEN
  6
CONTINUOUS
 10
318.36479042842609
 20
115.63996127035659
 30
0.0
 11
318.36479042842609
 21
113.63996127035659
 31
0.0
  0
LINE
  5
46A3
  8
DANMEN
  6
CONTINUOUS
 10
318.22038242842609
 20
113.63996127035659
 30
0.0
 11
318.36479042842609
 21
113.63996127035659
 31
0.0
  0
LINE
  5
46A4
  8
DANMEN
  6
CONTINUOUS
 10
318.36479042842609
 20
115.63996127035659
 30
0.0
 11
320.86479042842609
 21
115.63996127035659
 31
0.0
  0
LINE
  5
46A5
  8
DANMEN
  6
CONTINUOUS
 10
318.36479042842609
 20
112.63996127035659
 30
0.0
 11
318.36479042842609
 21
114.63996127035659
 31
0.0
  0
LINE
  5
46A6
  8
DANMEN
  6
CONTINUOUS
 10
319.36479042842598
 20
115.63996127035659
 30
0.0
 11
321.36479042842609
 21
115.63996127035659
 31
0.0
  0
LINE
  5
46A7
  8
DANMEN
  6
CONTINUOUS
 10
321.36479042842609
 20
113.58995727035671
 30
0.0
 11
321.36479042842609
 21
115.63996127035659
 31
0.0
  0
ARC
  5
46A8
  8
DANMEN
  6
CONTINUOUS
 10
331.36479042842609
 20
114.58995727035671
 30
0.0
 40
1.0
 50
270.0
 51
0.0
  0
ARC
  5
46A9
  8
DANMEN
  6
CONTINUOUS
 10
335.36479042842609
 20
114.58995727035671
 30
0.0
 40
1.0
 50
180.0
 51
270.0
  0
ARC
  5
46AA
  8
DANMEN
  6
CONTINUOUS
 10
342.43839842842601
 20
118.3507612703565
 30
0.0
 40
0.5000080000000005
 50
151.69999699999909
 51
210.4649959999995
  0
ARC
  5
46AB
  8
DANMEN
  6
CONTINUOUS
 10
344.5031864284262
 20
116.43996527035659
 30
0.0
 40
0.5
 50
90.0
 51
201.80200200000061
  0
ARC
  5
46AC
  8
DANMEN
  6
CONTINUOUS
 10
344.56757842842597
 20
115.93996527035669
 30
0.0
 40
0.9999959999999996
 50
28.301299999999461
 51
90.0
  0
LINE
  5
46AD
  8
DANMEN
  6
CONTINUOUS
 10
335.36479042842609
 20
113.58995727035671
 30
0.0
 11
345.3647904284262
 21
113.58995727035671
 31
0.0
  0
LINE
  5
46AE
  8
DANMEN
  6
CONTINUOUS
 10
332.86479042842609
 20
111.63996127035659
 30
0.0
 11
332.86479042842609
 21
111.93996527035669
 31
0.0
  0
LINE
  5
46AF
  8
DANMEN
  6
CONTINUOUS
 10
332.86479042842609
 20
111.93996527035669
 30
0.0
 11
333.36479042842609
 21
111.93996527035669
 31
0.0
  0
LINE
  5
46B0
  8
DANMEN
  6
CONTINUOUS
 10
333.86479042842609
 20
111.93996527035669
 30
0.0
 11
333.86479042842609
 21
111.63996127035659
 31
0.0
  0
LINE
  5
46B1
  8
DANMEN
  6
CONTINUOUS
 10
333.36479042842609
 20
111.93996527035669
 30
0.0
 11
333.86479042842609
 21
111.93996527035669
 31
0.0
  0
LINE
  5
46B2
  8
DANMEN
  6
CONTINUOUS
 10
345.3647904284262
 20
115.63996127035659
 30
0.0
 11
345.3647904284262
 21
113.58995727035671
 31
0.0
  0
LINE
  5
46B3
  8
DANMEN
  6
CONTINUOUS
 10
343.10319442842609
 20
120.63996127035649
 30
0.0
 11
341.9983944284262
 21
118.5879612703566
 31
0.0
  0
LINE
  5
46B4
  8
DANMEN
  6
CONTINUOUS
 10
343.8647904284262
 20
114.93996527035669
 30
0.0
 11
342.00758242842608
 21
118.09716127035649
 31
0.0
  0
LINE
  5
46B5
  8
DANMEN
  6
CONTINUOUS
 10
344.03919842842618
 20
116.25435727035671
 30
0.0
 11
344.56480242842622
 21
114.93996527035669
 31
0.0
  0
LINE
  5
46B6
  8
DANMEN
  6
CONTINUOUS
 10
344.56480242842622
 20
114.93996527035669
 30
0.0
 11
343.8647904284262
 21
114.93996527035669
 31
0.0
  0
LINE
  5
46B7
  8
DANMEN
  6
CONTINUOUS
 10
344.56757842842597
 20
116.93996527035669
 30
0.0
 11
344.5031864284262
 21
116.93996527035669
 31
0.0
  0
LINE
  5
46B8
  8
DANMEN
  6
CONTINUOUS
 10
334.36479042842598
 20
118.13996127035649
 30
0.0
 11
341.36479042842609
 21
118.13996127035649
 31
0.0
  0
LINE
  5
46B9
  8
DANMEN
  6
CONTINUOUS
 10
348.3647904284262
 20
113.63996127035659
 30
0.0
 11
399.8647904284262
 21
113.63996127035659
 31
0.0
  0
LINE
  5
46BA
  8
SUNPO
 10
348.3647904284262
 20
107.63996127035659
 30
0.0
 11
348.3647904284262
 21
93.639961270356707
 31
0.0
  0
ARC
  5
46BB
  8
DANMEN
  6
CONTINUOUS
 10
347.3647904284262
 20
114.63996127035659
 30
0.0
 40
1.0
 50
0.0
 51
90.0
  0
ARC
  5
46BC
  8
DANMEN
  6
CONTINUOUS
 10
347.3647904284262
 20
112.63996127035659
 30
0.0
 40
1.0
 50
270.0
 51
0.0
  0
ARC
  5
46BD
  8
DANMEN
  6
CONTINUOUS
 10
348.5091984284262
 20
115.13996127035669
 30
0.0
 40
1.5
 50
270.0
 51
354.2179869999996
  0
LINE
  5
46BE
  8
DANMEN
  6
CONTINUOUS
 10
348.3647904284262
 20
114.63996127035659
 30
0.0
 11
348.3647904284262
 21
112.63996127035659
 31
0.0
  0
LINE
  5
46BF
  8
DANMEN
  6
CONTINUOUS
 10
350.00160242842628
 20
114.9887612703567
 30
0.0
 11
350.5735904284262
 21
120.63996127035649
 31
0.0
  0
LINE
  5
46C0
  8
DANMEN
  6
CONTINUOUS
 10
348.3647904284262
 20
115.63996127035659
 30
0.0
 11
348.3647904284262
 21
113.63996127035659
 31
0.0
  0
LINE
  5
46C1
  8
DANMEN
  6
CONTINUOUS
 10
348.5091984284262
 20
113.63996127035659
 30
0.0
 11
348.3647904284262
 21
113.63996127035659
 31
0.0
  0
LINE
  5
46C2
  8
DANMEN
  6
CONTINUOUS
 10
348.3647904284262
 20
115.63996127035659
 30
0.0
 11
345.8647904284262
 21
115.63996127035659
 31
0.0
  0
ARC
  5
46C3
  8
DANMEN
  6
CONTINUOUS
 10
345.6647784284263
 20
132.63996127035631
 30
0.0
 40
0.5
 50
270.0
 51
45.123599999999783
  0
LINE
  5
46C4
  8
DANMEN
  6
CONTINUOUS
 10
340.36479042842598
 20
134.68996527035631
 30
0.0
 11
346.41477842842619
 21
134.68996527035631
 31
0.0
  0
LINE
  5
46C5
  8
DANMEN
  6
CONTINUOUS
 10
320.36479042842609
 20
167.13996127035631
 30
0.0
 11
346.3647904284262
 21
167.13996127035631
 31
0.0
  0
LINE
  5
46C6
  8
DANMEN
  6
CONTINUOUS
 10
319.36479042842598
 20
169.63996127035631
 30
0.0
 11
347.3647904284262
 21
169.63996127035631
 31
0.0
  0
LINE
  5
46C7
  8
DANMEN
  6
CONTINUOUS
 10
345.3647904284262
 20
131.63996127035631
 30
0.0
 11
346.41477842842619
 21
131.63996127035631
 31
0.0
  0
LINE
  5
46C8
  8
DANMEN
  6
CONTINUOUS
 10
339.41477842842602
 20
136.63996127035639
 30
0.0
 11
346.3647904284262
 21
136.63996127035639
 31
0.0
  0
LINE
  5
46C9
  8
DANMEN
  6
CONTINUOUS
 10
345.3647904284262
 20
130.63996127035631
 30
0.0
 11
347.8647904284262
 21
130.63996127035631
 31
0.0
  0
LINE
  5
46CA
  8
DANMEN
  6
CONTINUOUS
 10
346.01759042842627
 20
132.99436127035639
 30
0.0
 11
344.3647904284262
 21
134.63996127035639
 31
0.0
  0
LINE
  5
46CB
  8
DANMEN
  6
CONTINUOUS
 10
348.3647904284262
 20
130.63996127035631
 30
0.0
 11
345.06480242842622
 21
130.63996127035631
 31
0.0
  0
LINE
  5
46CC
  8
DANMEN
  6
CONTINUOUS
 10
320.36479042842609
 20
136.63996127035639
 30
0.0
 11
320.36479042842609
 21
167.13996127035631
 31
0.0
  0
LINE
  5
46CD
  8
DANMEN
  6
CONTINUOUS
 10
318.36479042842609
 20
131.13996127035631
 30
0.0
 11
318.36479042842609
 21
168.63996127035639
 31
0.0
  0
LINE
  5
46CE
  8
DANMEN
  6
CONTINUOUS
 10
328.31480242842622
 20
132.58995727035631
 30
0.0
 11
338.41477842842602
 21
132.58995727035631
 31
0.0
  0
LINE
  5
46CF
  8
DANMEN
  6
CONTINUOUS
 10
325.86479042842598
 20
130.63996127035631
 30
0.0
 11
332.36479042842598
 21
130.63996127035631
 31
0.0
  0
LINE
  5
46D0
  8
DANMEN
  6
CONTINUOUS
 10
332.36479042842598
 20
128.13996127035631
 30
0.0
 11
325.36479042842609
 21
128.13996127035631
 31
0.0
  0
ARC
  5
46D1
  8
DANMEN
  6
CONTINUOUS
 10
324.66477842842602
 20
128.68996527035631
 30
0.0
 40
0.449996
 50
90.0
 51
270.0
  0
ARC
  5
46D2
  8
DANMEN
  6
CONTINUOUS
 10
323.36479042842609
 20
131.63996127035631
 30
0.0
 40
0.5
 50
180.0
 51
0.0
  0
ARC
  5
46D3
  8
DANMEN
  6
CONTINUOUS
 10
323.36479042842609
 20
133.13996127035631
 30
0.0
 40
0.5
 50
0.0
 51
180.0
  0
ARC
  5
46D4
  8
DANMEN
  6
CONTINUOUS
 10
325.66477842842602
 20
132.63996127035631
 30
0.0
 40
0.5
 50
270.0
 51
45.123599999999783
  0
ARC
  5
46D5
  8
DANMEN
  6
CONTINUOUS
 10
321.06480242842622
 20
132.63996127035631
 30
0.0
 40
0.499992
 50
134.8760070000005
 51
270.0
  0
ARC
  5
46D6
  8
DANMEN
  6
CONTINUOUS
 10
317.66477842842602
 20
131.63996127035631
 30
0.0
 40
1.0
 50
90.0
 51
180.0
  0
ARC
  5
46D7
  8
DANMEN
  6
CONTINUOUS
 10
327.31480242842622
 20
135.63996127035639
 30
0.0
 40
1.0
 50
0.0
 51
90.0
  0
ARC
  5
46D8
  8
DANMEN
  6
CONTINUOUS
 10
325.86479042842598
 20
131.13996127035631
 30
0.0
 40
0.5
 50
180.0
 51
270.0
  0
ARC
  5
46D9
  8
DANMEN
  6
CONTINUOUS
 10
318.86479042842609
 20
131.13996127035631
 30
0.0
 40
0.5
 50
180.0
 51
270.0
  0
LINE
  5
46DA
  8
DANMEN
  6
CONTINUOUS
 10
324.66477842842602
 20
129.13996127035631
 30
0.0
 11
327.16477842842602
 21
129.13996127035631
 31
0.0
  0
LINE
  5
46DB
  8
DANMEN
  6
CONTINUOUS
 10
327.16477842842602
 20
130.63996127035631
 30
0.0
 11
327.16477842842602
 21
129.13996127035631
 31
0.0
  0
LINE
  5
46DC
  8
DANMEN
  6
CONTINUOUS
 10
325.06480242842622
 20
130.63996127035631
 30
0.0
 11
327.16477842842602
 21
130.63996127035631
 31
0.0
  0
LINE
  5
46DD
  8
DANMEN
  6
CONTINUOUS
 10
323.86479042842598
 20
133.13996127035631
 30
0.0
 11
323.86479042842598
 21
131.63996127035631
 31
0.0
  0
LINE
  5
46DE
  8
DANMEN
  6
CONTINUOUS
 10
322.86479042842609
 20
133.13996127035631
 30
0.0
 11
322.86479042842609
 21
131.63996127035631
 31
0.0
  0
LINE
  5
46DF
  8
DANMEN
  6
CONTINUOUS
 10
325.06480242842622
 20
132.13996127035631
 30
0.0
 11
325.66477842842602
 21
132.13996127035631
 31
0.0
  0
LINE
  5
46E0
  8
DANMEN
  6
CONTINUOUS
 10
321.06480242842622
 20
132.13996127035631
 30
0.0
 11
321.66477842842602
 21
132.13996127035631
 31
0.0
  0
LINE
  5
46E1
  8
DANMEN
  6
CONTINUOUS
 10
326.0175904284261
 20
132.99436127035639
 30
0.0
 11
324.36479042842609
 21
134.63996127035639
 31
0.0
  0
LINE
  5
46E2
  8
DANMEN
  6
CONTINUOUS
 10
320.71199042842602
 20
132.99436127035639
 30
0.0
 11
322.36479042842609
 21
134.63996127035639
 31
0.0
  0
LINE
  5
46E3
  8
DANMEN
  6
CONTINUOUS
 10
325.06480242842622
 20
132.13996127035631
 30
0.0
 11
325.06480242842622
 21
130.63996127035631
 31
0.0
  0
LINE
  5
46E4
  8
DANMEN
  6
CONTINUOUS
 10
321.66477842842602
 20
132.13996127035631
 30
0.0
 11
321.66477842842602
 21
130.63996127035631
 31
0.0
  0
LINE
  5
46E5
  8
DANMEN
  6
CONTINUOUS
 10
322.36479042842609
 20
134.63996127035639
 30
0.0
 11
324.36479042842609
 21
134.63996127035639
 31
0.0
  0
LINE
  5
46E6
  8
DANMEN
  6
CONTINUOUS
 10
317.66477842842602
 20
132.63996127035631
 30
0.0
 11
318.36479042842609
 21
132.63996127035631
 31
0.0
  0
LINE
  5
46E7
  8
DANMEN
  6
CONTINUOUS
 10
318.36479042842609
 20
132.63996127035631
 30
0.0
 11
318.36479042842609
 21
130.63996127035631
 31
0.0
  0
LINE
  5
46E8
  8
DANMEN
  6
CONTINUOUS
 10
318.36479042842609
 20
130.63996127035631
 30
0.0
 11
321.66477842842602
 21
130.63996127035631
 31
0.0
  0
LINE
  5
46E9
  8
DANMEN
  6
CONTINUOUS
 10
328.31480242842622
 20
132.58995727035631
 30
0.0
 11
328.31480242842622
 21
135.63996127035639
 31
0.0
  0
LINE
  5
46EA
  8
DANMEN
  6
CONTINUOUS
 10
320.31480242842622
 20
131.63996127035631
 30
0.0
 11
320.31480242842622
 21
134.68996527035631
 31
0.0
  0
LINE
  5
46EB
  8
DANMEN
  6
CONTINUOUS
 10
320.31480242842622
 20
134.68996527035631
 30
0.0
 11
326.36479042842598
 21
134.68996527035631
 31
0.0
  0
LINE
  5
46EC
  8
DANMEN
  6
CONTINUOUS
 10
325.36479042842609
 20
131.13996127035631
 30
0.0
 11
325.36479042842609
 21
131.63996127035631
 31
0.0
  0
LINE
  5
46ED
  8
DANMEN
  6
CONTINUOUS
 10
326.36479042842598
 20
131.63996127035631
 30
0.0
 11
326.36479042842598
 21
134.68996527035631
 31
0.0
  0
LINE
  5
46EE
  8
DANMEN
  6
CONTINUOUS
 10
325.36479042842609
 20
131.63996127035631
 30
0.0
 11
326.36479042842598
 21
131.63996127035631
 31
0.0
  0
LINE
  5
46EF
  8
DANMEN
  6
CONTINUOUS
 10
320.31480242842622
 20
131.63996127035631
 30
0.0
 11
321.36479042842609
 21
131.63996127035631
 31
0.0
  0
LINE
  5
46F0
  8
DANMEN
  6
CONTINUOUS
 10
321.36479042842609
 20
130.63996127035631
 30
0.0
 11
321.36479042842609
 21
131.63996127035631
 31
0.0
  0
LINE
  5
46F1
  8
DANMEN
  6
CONTINUOUS
 10
320.36479042842609
 20
136.63996127035639
 30
0.0
 11
327.31480242842622
 21
136.63996127035639
 31
0.0
  0
LINE
  5
46F2
  8
DANMEN
  6
CONTINUOUS
 10
318.86479042842609
 20
130.63996127035631
 30
0.0
 11
321.36479042842609
 21
130.63996127035631
 31
0.0
  0
ARC
  5
46F3
  8
DANMEN
  6
CONTINUOUS
 10
339.41477842842602
 20
135.63996127035639
 30
0.0
 40
1.0
 50
90.0
 51
180.0
  0
ARC
  5
46F4
  8
DANMEN
  6
CONTINUOUS
 10
340.86479042842598
 20
131.13996127035631
 30
0.0
 40
0.5
 50
270.0
 51
0.0
  0
ARC
  5
46F5
  8
DANMEN
  6
CONTINUOUS
 10
342.06480242842622
 20
128.68996527035631
 30
0.0
 40
0.449996
 50
270.0
 51
90.0
  0
ARC
  5
46F6
  8
DANMEN
  6
CONTINUOUS
 10
343.36479042842609
 20
131.63996127035631
 30
0.0
 40
0.5
 50
180.0
 51
0.0
  0
ARC
  5
46F7
  8
DANMEN
  6
CONTINUOUS
 10
343.36479042842609
 20
133.13996127035631
 30
0.0
 40
0.5
 50
0.0
 51
180.0
  0
ARC
  5
46F8
  8
DANMEN
  6
CONTINUOUS
 10
341.06480242842622
 20
132.63996127035631
 30
0.0
 40
0.499992
 50
134.8760070000005
 51
270.0
  0
LINE
  5
46F9
  8
DANMEN
  6
CONTINUOUS
 10
338.41477842842602
 20
135.63996127035639
 30
0.0
 11
338.41477842842602
 21
132.58995727035631
 31
0.0
  0
LINE
  5
46FA
  8
DANMEN
  6
CONTINUOUS
 10
341.36479042842609
 20
131.63996127035631
 30
0.0
 11
341.36479042842609
 21
131.13996127035631
 31
0.0
  0
LINE
  5
46FB
  8
DANMEN
  6
CONTINUOUS
 10
340.36479042842598
 20
134.68996527035631
 30
0.0
 11
340.36479042842598
 21
131.63996127035631
 31
0.0
  0
LINE
  5
46FC
  8
DANMEN
  6
CONTINUOUS
 10
340.36479042842598
 20
131.63996127035631
 30
0.0
 11
341.36479042842609
 21
131.63996127035631
 31
0.0
  0
LINE
  5
46FD
  8
DANMEN
  6
CONTINUOUS
 10
334.36479042842598
 20
130.63996127035631
 30
0.0
 11
340.86479042842598
 21
130.63996127035631
 31
0.0
  0
LINE
  5
46FE
  8
DANMEN
  6
CONTINUOUS
 10
345.3647904284262
 20
131.63996127035631
 30
0.0
 11
345.3647904284262
 21
130.63996127035631
 31
0.0
  0
LINE
  5
46FF
  8
DANMEN
  6
CONTINUOUS
 10
342.06480242842622
 20
129.13996127035631
 30
0.0
 11
339.56480242842622
 21
129.13996127035631
 31
0.0
  0
LINE
  5
4700
  8
DANMEN
  6
CONTINUOUS
 10
339.56480242842622
 20
130.63996127035631
 30
0.0
 11
339.56480242842622
 21
129.13996127035631
 31
0.0
  0
LINE
  5
4701
  8
DANMEN
  6
CONTINUOUS
 10
341.66477842842602
 20
130.63996127035631
 30
0.0
 11
339.56480242842622
 21
130.63996127035631
 31
0.0
  0
LINE
  5
4702
  8
DANMEN
  6
CONTINUOUS
 10
342.86479042842598
 20
133.13996127035631
 30
0.0
 11
342.86479042842598
 21
131.63996127035631
 31
0.0
  0
LINE
  5
4703
  8
DANMEN
  6
CONTINUOUS
 10
343.8647904284262
 20
133.13996127035631
 30
0.0
 11
343.8647904284262
 21
131.63996127035631
 31
0.0
  0
LINE
  5
4704
  8
DANMEN
  6
CONTINUOUS
 10
341.66477842842602
 20
132.13996127035631
 30
0.0
 11
341.06480242842622
 21
132.13996127035631
 31
0.0
  0
LINE
  5
4705
  8
DANMEN
  6
CONTINUOUS
 10
345.6647784284263
 20
132.13996127035631
 30
0.0
 11
345.06480242842622
 21
132.13996127035631
 31
0.0
  0
LINE
  5
4706
  8
DANMEN
  6
CONTINUOUS
 10
340.71199042842608
 20
132.99436127035639
 30
0.0
 11
342.36479042842609
 21
134.63996127035639
 31
0.0
  0
LINE
  5
4707
  8
DANMEN
  6
CONTINUOUS
 10
341.66477842842602
 20
132.13996127035631
 30
0.0
 11
341.66477842842602
 21
130.63996127035631
 31
0.0
  0
LINE
  5
4708
  8
DANMEN
  6
CONTINUOUS
 10
345.06480242842622
 20
132.13996127035631
 30
0.0
 11
345.06480242842622
 21
130.63996127035631
 31
0.0
  0
LINE
  5
4709
  8
DANMEN
  6
CONTINUOUS
 10
344.3647904284262
 20
134.63996127035639
 30
0.0
 11
342.36479042842609
 21
134.63996127035639
 31
0.0
  0
LINE
  5
470A
  8
DANMEN
  6
CONTINUOUS
 10
334.36479042842598
 20
128.13996127035631
 30
0.0
 11
341.36479042842609
 21
128.13996127035631
 31
0.0
  0
ARC
  5
470B
  8
DANMEN
  6
CONTINUOUS
 10
319.36479042842598
 20
168.63996127035639
 30
0.0
 40
1.0
 50
90.0
 51
180.0
  0
LINE
  5
470C
  8
DANMEN
  6
CONTINUOUS
 10
348.3647904284262
 20
132.63996127035631
 30
0.0
 11
399.8647904284262
 21
132.63996127035631
 31
0.0
  0
LINE
  5
470D
  8
DANMEN
  6
CONTINUOUS
 10
348.3647904284262
 20
136.63996127035639
 30
0.0
 11
399.8647904284262
 21
136.63996127035639
 31
0.0
  0
LINE
  5
470E
  8
DANMEN
  6
CONTINUOUS
 10
346.3647904284262
 20
167.13996127035631
 30
0.0
 11
346.3647904284262
 21
136.63996127035639
 31
0.0
  0
LINE
  5
470F
  8
DANMEN
  6
CONTINUOUS
 10
348.3647904284262
 20
168.63996127035639
 30
0.0
 11
348.3647904284262
 21
131.13996127035631
 31
0.0
  0
ARC
  5
4710
  8
DANMEN
  6
CONTINUOUS
 10
347.8647904284262
 20
131.13996127035631
 30
0.0
 40
0.5
 50
270.0
 51
0.0
  0
ARC
  5
4711
  8
DANMEN
  6
CONTINUOUS
 10
349.06480242842622
 20
131.63996127035631
 30
0.0
 40
1.0
 50
0.0
 51
90.0
  0
LINE
  5
4712
  8
DANMEN
  6
CONTINUOUS
 10
346.41477842842619
 20
134.68996527035631
 30
0.0
 11
346.41477842842619
 21
131.63996127035631
 31
0.0
  0
LINE
  5
4713
  8
DANMEN
  6
CONTINUOUS
 10
349.06480242842622
 20
132.63996127035631
 30
0.0
 11
348.3647904284262
 21
132.63996127035631
 31
0.0
  0
LINE
  5
4714
  8
DANMEN
  6
CONTINUOUS
 10
348.3647904284262
 20
132.63996127035631
 30
0.0
 11
348.3647904284262
 21
130.63996127035631
 31
0.0
  0
ARC
  5
4715
  8
DANMEN
  6
CONTINUOUS
 10
347.3647904284262
 20
168.63996127035639
 30
0.0
 40
1.0
 50
0.0
 51
90.0
  0
LINE
  5
4716
  8
SUNPO
 10
427.6147904284262
 20
109.63996127035659
 30
0.0
 11
427.6147904284262
 21
179.63996127035631
 31
0.0
  0
LINE
  5
4717
  8
DANMEN
  6
CONTINUOUS
 10
459.66477842842619
 20
128.23996927035631
 30
0.0
 11
459.66477842842619
 21
125.63996127035639
 31
0.0
  0
LINE
  5
4718
  8
DANMEN
  6
CONTINUOUS
 10
451.66477842842619
 20
131.63996127035631
 30
0.0
 11
451.66477842842619
 21
125.63996127035639
 31
0.0
  0
LINE
  5
4719
  8
DANMEN
  6
CONTINUOUS
 10
477.01280242842648
 20
177.9899692703564
 30
0.0
 11
477.01280242842648
 21
111.2899532703567
 31
0.0
  0
LINE
  5
471A
  8
DANMEN
  6
CONTINUOUS
 10
475.3647904284262
 20
134.9899692703564
 30
0.0
 11
475.3647904284262
 21
111.2899532703567
 31
0.0
  0
LINE
  5
471B
  8
SUNPO
 10
453.36479042842632
 20
77.639961270356764
 30
0.0
 11
483.36479042842609
 21
77.639961270356764
 31
0.0
  0
LINE
  5
471C
  8
DANMEN
  6
CONTINUOUS
 10
477.01280242842648
 20
111.2899532703567
 30
0.0
 11
481.71278242842629
 21
111.2899532703567
 31
0.0
  0
LINE
  5
471D
  8
DANMEN
  6
CONTINUOUS
 10
453.86479042842609
 20
109.63996127035659
 30
0.0
 11
482.36479042842632
 21
109.63996127035659
 31
0.0
  0
POLYLINE
  5
471E
  8
SUNPO
 66
     1
 10
0.0
 20
0.0
 30
0.0
 70
     1
  0
VERTEX
  5
47BE
  8
SUNPO
 10
448.36978812612398
 20
72.644958968054851
 30
0.0
  0
VERTEX
  5
47BF
  8
SUNPO
 10
453.36479042842632
 20
77.639961270356764
 30
0.0
  0
VERTEX
  5
47C0
  8
SUNPO
 10
448.36978812612398
 20
82.634963572658535
 30
0.0
  0
SEQEND
  5
47C1
  8
SUNPO
  0
LINE
  5
4723
  8
SUNPO
 10
453.36479042842632
 20
107.63996127035659
 30
0.0
 11
453.36479042842632
 21
77.639961270356764
 31
0.0
  0
LINE
  5
4724
  8
DANMEN
  6
CONTINUOUS
 10
455.01280242842603
 20
111.2899532703567
 30
0.0
 11
475.3647904284262
 21
111.2899532703567
 31
0.0
  0
ARC
  5
4725
  8
DANMEN
  6
CONTINUOUS
 10
453.22077842842617
 20
115.13996127035669
 30
0.0
 40
1.500003999999999
 50
185.78199799999919
 51
270.0
  0
ARC
  5
4726
  8
DANMEN
  6
CONTINUOUS
 10
459.29279842842601
 20
118.3507612703565
 30
0.0
 40
0.5
 50
329.5350040000003
 51
28.299699999999639
  0
ARC
  5
4727
  8
DANMEN
  6
CONTINUOUS
 10
457.22477442842609
 20
116.43996527035659
 30
0.0
 40
0.499996
 50
338.19799799999942
 51
90.0
  0
ARC
  5
4728
  8
DANMEN
  6
CONTINUOUS
 10
457.16077842842623
 20
115.93996527035669
 30
0.0
 40
1.0
 50
90.0
 51
151.69900500000051
  0
ARC
  5
4729
  8
DANMEN
  6
CONTINUOUS
 10
455.8647904284262
 20
114.93996527035669
 30
0.0
 40
0.5
 50
270.0
 51
0.0
  0
ARC
  5
472A
  8
DANMEN
  6
CONTINUOUS
 10
453.86479042842609
 20
115.13996127035669
 30
0.0
 40
0.5
 50
90.0
 51
180.0
  0
ARC
  5
472B
  8
DANMEN
  6
CONTINUOUS
 10
453.86479042842609
 20
110.13996127035669
 30
0.0
 40
0.5
 50
180.0
 51
270.0
  0
LINE
  5
472C
  8
DANMEN
  6
CONTINUOUS
 10
451.72880242842621
 20
114.9887612703567
 30
0.0
 11
451.1567824284262
 21
120.63996127035649
 31
0.0
  0
LINE
  5
472D
  8
DANMEN
  6
CONTINUOUS
 10
458.62479842842629
 20
120.63996127035649
 30
0.0
 11
459.73280242842623
 21
118.5879612703566
 31
0.0
  0
LINE
  5
472E
  8
DANMEN
  6
CONTINUOUS
 10
457.86479042842598
 20
114.93996527035669
 30
0.0
 11
459.720778428426
 21
118.09716127035649
 31
0.0
  0
LINE
  5
472F
  8
DANMEN
  6
CONTINUOUS
 10
457.68879442842598
 20
116.25435727035671
 30
0.0
 11
457.16477842842608
 21
114.93996527035669
 31
0.0
  0
LINE
  5
4730
  8
DANMEN
  6
CONTINUOUS
 10
457.16477842842608
 20
114.93996527035669
 30
0.0
 11
457.86479042842598
 21
114.93996527035669
 31
0.0
  0
LINE
  5
4731
  8
DANMEN
  6
CONTINUOUS
 10
456.28077442842618
 20
116.4139652703567
 30
0.0
 11
455.8647904284262
 21
115.63996127035659
 31
0.0
  0
LINE
  5
4732
  8
DANMEN
  6
CONTINUOUS
 10
457.16077842842623
 20
116.93996527035669
 30
0.0
 11
457.22477442842609
 21
116.93996527035669
 31
0.0
  0
LINE
  5
4733
  8
DANMEN
  6
CONTINUOUS
 10
453.36479042842632
 20
115.63996127035659
 30
0.0
 11
453.36479042842632
 21
113.63996127035659
 31
0.0
  0
LINE
  5
4734
  8
DANMEN
  6
CONTINUOUS
 10
453.22077842842617
 20
113.63996127035659
 30
0.0
 11
453.36479042842632
 21
113.63996127035659
 31
0.0
  0
LINE
  5
4735
  8
DANMEN
  6
CONTINUOUS
 10
453.36479042842632
 20
115.63996127035659
 30
0.0
 11
455.8647904284262
 21
115.63996127035659
 31
0.0
  0
LINE
  5
4736
  8
DANMEN
  6
CONTINUOUS
 10
455.01280242842603
 20
114.43996527035659
 30
0.0
 11
455.01280242842603
 21
111.2899532703567
 31
0.0
  0
LINE
  5
4737
  8
DANMEN
  6
CONTINUOUS
 10
455.01280242842603
 20
114.43996527035659
 30
0.0
 11
455.8647904284262
 21
114.43996527035659
 31
0.0
  0
LINE
  5
4738
  8
DANMEN
  6
CONTINUOUS
 10
456.3647904284262
 20
115.63996127035659
 30
0.0
 11
456.3647904284262
 21
114.93996527035669
 31
0.0
  0
LINE
  5
4739
  8
DANMEN
  6
CONTINUOUS
 10
453.86479042842609
 20
115.63996127035659
 30
0.0
 11
456.3647904284262
 21
115.63996127035659
 31
0.0
  0
LINE
  5
473A
  8
DANMEN
  6
CONTINUOUS
 10
453.36479042842632
 20
115.13996127035669
 30
0.0
 11
453.36479042842632
 21
110.13996127035669
 31
0.0
  0
LINE
  5
473B
  8
DANMEN
  6
CONTINUOUS
 10
460.3647904284262
 20
125.63996127035639
 30
0.0
 11
460.3647904284262
 21
120.63996127035649
 31
0.0
  0
LINE
  5
473C
  8
SUNPO
 10
483.36479042842609
 20
107.63996127035659
 30
0.0
 11
483.36479042842609
 21
77.639961270356764
 31
0.0
  0
ARC
  5
473D
  8
DANMEN
  6
CONTINUOUS
 10
482.21278242842641
 20
115.13996127035669
 30
0.0
 40
0.5
 50
90.0
 51
180.0
  0
ARC
  5
473E
  8
DANMEN
  6
CONTINUOUS
 10
482.36479042842632
 20
110.63996127035659
 30
0.0
 40
1.0
 50
270.0
 51
0.0
  0
ARC
  5
473F
  8
DANMEN
  6
CONTINUOUS
 10
482.86479042842598
 20
115.13996127035669
 30
0.0
 40
0.5
 50
0.0
 51
90.0
  0
LINE
  5
4740
  8
DANMEN
  6
CONTINUOUS
 10
481.71278242842629
 20
115.13996127035669
 30
0.0
 11
481.71278242842629
 21
111.2899532703567
 31
0.0
  0
LINE
  5
4741
  8
DANMEN
  6
CONTINUOUS
 10
482.21278242842641
 20
115.63996127035659
 30
0.0
 11
482.86479042842598
 21
115.63996127035659
 31
0.0
  0
LINE
  5
4742
  8
DANMEN
  6
CONTINUOUS
 10
483.36479042842609
 20
115.13996127035669
 30
0.0
 11
483.36479042842609
 21
110.63996127035659
 31
0.0
  0
LINE
  5
4743
  8
DANMEN
  6
CONTINUOUS
 10
477.01280242842648
 20
177.9899692703564
 30
0.0
 11
481.71278242842629
 21
177.9899692703564
 31
0.0
  0
LINE
  5
4744
  8
DANMEN
  6
CONTINUOUS
 10
453.86479042842609
 20
179.63996127035631
 30
0.0
 11
482.36479042842632
 21
179.63996127035631
 31
0.0
  0
ARC
  5
4745
  8
DANMEN
  6
CONTINUOUS
 10
453.86479042842609
 20
178.33995727035631
 30
0.0
 40
0.5
 50
180.0
 51
270.0
  0
LINE
  5
4746
  8
DANMEN
  6
CONTINUOUS
 10
475.3647904284262
 20
177.9899692703564
 30
0.0
 11
475.3647904284262
 21
136.63996127035639
 31
0.0
  0
ARC
  5
4747
  8
DANMEN
  6
CONTINUOUS
 10
460.8647904284262
 20
131.13996127035631
 30
0.0
 40
0.5
 50
180.0
 51
270.0
  0
LINE
  5
4748
  8
DANMEN
  6
CONTINUOUS
 10
459.66477842842619
 20
129.13996127035631
 30
0.0
 11
462.16477842842608
 21
129.13996127035631
 31
0.0
  0
LINE
  5
4749
  8
DANMEN
  6
CONTINUOUS
 10
460.06480242842628
 20
130.63996127035631
 30
0.0
 11
462.16477842842608
 21
130.63996127035631
 31
0.0
  0
LINE
  5
474A
  8
DANMEN
  6
CONTINUOUS
 10
460.06480242842628
 20
132.13996127035631
 30
0.0
 11
460.6647784284263
 21
132.13996127035631
 31
0.0
  0
LINE
  5
474B
  8
DANMEN
  6
CONTINUOUS
 10
461.01679842842623
 20
132.99436127035639
 30
0.0
 11
459.3647904284262
 21
134.63996127035639
 31
0.0
  0
LINE
  5
474C
  8
DANMEN
  6
CONTINUOUS
 10
455.01280242842603
 20
134.9899692703564
 30
0.0
 11
461.36479042842632
 21
134.9899692703564
 31
0.0
  0
LINE
  5
474D
  8
DANMEN
  6
CONTINUOUS
 10
460.3647904284262
 20
131.63996127035631
 30
0.0
 11
461.36479042842632
 21
131.63996127035631
 31
0.0
  0
LINE
  5
474E
  8
DANMEN
  6
CONTINUOUS
 10
453.86479042842609
 20
136.63996127035639
 30
0.0
 11
475.3647904284262
 21
136.63996127035639
 31
0.0
  0
ARC
  5
474F
  8
DANMEN
  6
CONTINUOUS
 10
459.66477842842619
 20
128.68996527035631
 30
0.0
 40
0.449996
 50
90.0
 51
270.0
  0
ARC
  5
4750
  8
DANMEN
  6
CONTINUOUS
 10
458.36479042842609
 20
131.63996127035631
 30
0.0
 40
0.5
 50
180.0
 51
0.0
  0
ARC
  5
4751
  8
DANMEN
  6
CONTINUOUS
 10
458.36479042842609
 20
133.13996127035631
 30
0.0
 40
0.5
 50
0.0
 51
180.0
  0
ARC
  5
4752
  8
DANMEN
  6
CONTINUOUS
 10
456.06480242842628
 20
132.63996127035631
 30
0.0
 40
0.499992
 50
134.8760070000005
 51
270.0
  0
ARC
  5
4753
  8
DANMEN
  6
CONTINUOUS
 10
452.66477842842619
 20
131.63996127035631
 30
0.0
 40
1.0
 50
90.0
 51
180.0
  0
ARC
  5
4754
  8
DANMEN
  6
CONTINUOUS
 10
453.86479042842609
 20
131.13996127035631
 30
0.0
 40
0.5
 50
180.0
 51
270.0
  0
ARC
  5
4755
  8
DANMEN
  6
CONTINUOUS
 10
453.86479042842609
 20
136.13996127035631
 30
0.0
 40
0.5
 50
90.0
 51
180.0
  0
LINE
  5
4756
  8
DANMEN
  6
CONTINUOUS
 10
458.8647904284262
 20
133.13996127035631
 30
0.0
 11
458.8647904284262
 21
131.63996127035631
 31
0.0
  0
LINE
  5
4757
  8
DANMEN
  6
CONTINUOUS
 10
457.86479042842598
 20
133.13996127035631
 30
0.0
 11
457.86479042842598
 21
131.63996127035631
 31
0.0
  0
LINE
  5
4758
  8
DANMEN
  6
CONTINUOUS
 10
456.06480242842628
 20
132.13996127035631
 30
0.0
 11
456.66477842842619
 21
132.13996127035631
 31
0.0
  0
LINE
  5
4759
  8
DANMEN
  6
CONTINUOUS
 10
455.71278242842601
 20
132.99436127035639
 30
0.0
 11
457.36479042842632
 21
134.63996127035639
 31
0.0
  0
LINE
  5
475A
  8
DANMEN
  6
CONTINUOUS
 10
460.06480242842628
 20
132.13996127035631
 30
0.0
 11
460.06480242842628
 21
130.63996127035631
 31
0.0
  0
LINE
  5
475B
  8
DANMEN
  6
CONTINUOUS
 10
456.66477842842619
 20
132.13996127035631
 30
0.0
 11
456.66477842842619
 21
130.63996127035631
 31
0.0
  0
LINE
  5
475C
  8
DANMEN
  6
CONTINUOUS
 10
457.36479042842632
 20
134.63996127035639
 30
0.0
 11
459.3647904284262
 21
134.63996127035639
 31
0.0
  0
LINE
  5
475D
  8
DANMEN
  6
CONTINUOUS
 10
452.66477842842619
 20
132.63996127035631
 30
0.0
 11
453.36479042842632
 21
132.63996127035631
 31
0.0
  0
LINE
  5
475E
  8
DANMEN
  6
CONTINUOUS
 10
453.36479042842632
 20
132.63996127035631
 30
0.0
 11
453.36479042842632
 21
130.63996127035631
 31
0.0
  0
LINE
  5
475F
  8
DANMEN
  6
CONTINUOUS
 10
453.36479042842632
 20
130.63996127035631
 30
0.0
 11
456.66477842842619
 21
130.63996127035631
 31
0.0
  0
LINE
  5
4760
  8
DANMEN
  6
CONTINUOUS
 10
455.01280242842603
 20
134.9899692703564
 30
0.0
 11
455.01280242842603
 21
131.63996127035631
 31
0.0
  0
LINE
  5
4761
  8
DANMEN
  6
CONTINUOUS
 10
460.3647904284262
 20
131.63996127035631
 30
0.0
 11
460.3647904284262
 21
131.13996127035631
 31
0.0
  0
LINE
  5
4762
  8
DANMEN
  6
CONTINUOUS
 10
456.3647904284262
 20
131.63996127035631
 30
0.0
 11
456.3647904284262
 21
130.63996127035631
 31
0.0
  0
LINE
  5
4763
  8
DANMEN
  6
CONTINUOUS
 10
453.36479042842632
 20
136.13996127035631
 30
0.0
 11
453.36479042842632
 21
131.13996127035631
 31
0.0
  0
LINE
  5
4764
  8
DANMEN
  6
CONTINUOUS
 10
455.01280242842603
 20
131.63996127035631
 30
0.0
 11
456.3647904284262
 21
131.63996127035631
 31
0.0
  0
LINE
  5
4765
  8
DANMEN
  6
CONTINUOUS
 10
453.86479042842609
 20
130.63996127035631
 30
0.0
 11
456.3647904284262
 21
130.63996127035631
 31
0.0
  0
ARC
  5
4766
  8
DANMEN
  6
CONTINUOUS
 10
460.6647784284263
 20
132.63996127035631
 30
0.0
 40
0.5
 50
270.0
 51
45.123599999999783
  0
ARC
  5
4767
  8
DANMEN
  6
CONTINUOUS
 10
462.36479042842609
 20
131.13996127035631
 30
0.0
 40
0.5
 50
270.0
 51
0.0
  0
LINE
  5
4768
  8
DANMEN
  6
CONTINUOUS
 10
462.16477842842608
 20
130.63996127035631
 30
0.0
 11
462.16477842842608
 21
129.13996127035631
 31
0.0
  0
LINE
  5
4769
  8
DANMEN
  6
CONTINUOUS
 10
462.8647904284262
 20
134.9899692703564
 30
0.0
 11
475.3647904284262
 21
134.9899692703564
 31
0.0
  0
LINE
  5
476A
  8
DANMEN
  6
CONTINUOUS
 10
460.8647904284262
 20
130.63996127035631
 30
0.0
 11
462.36479042842609
 21
130.63996127035631
 31
0.0
  0
LINE
  5
476B
  8
DANMEN
  6
CONTINUOUS
 10
461.36479042842632
 20
134.9899692703564
 30
0.0
 11
461.36479042842632
 21
131.63996127035631
 31
0.0
  0
LINE
  5
476C
  8
DANMEN
  6
CONTINUOUS
 10
462.8647904284262
 20
134.9899692703564
 30
0.0
 11
462.8647904284262
 21
131.13996127035631
 31
0.0
  0
LINE
  5
476D
  8
DANMEN
  6
CONTINUOUS
 10
455.89280642842641
 20
177.9899692703564
 30
0.0
 11
475.3647904284262
 21
177.9899692703564
 31
0.0
  0
ARC
  5
476E
  8
DANMEN
  6
CONTINUOUS
 10
455.89280642842641
 20
176.98996927035631
 30
0.0
 40
1.0
 50
90.0
 51
121.7870030000004
  0
LINE
  5
476F
  8
DANMEN
  6
CONTINUOUS
 10
453.86479042842609
 20
177.83995727035631
 30
0.0
 11
455.3647904284262
 21
177.83995727035631
 31
0.0
  0
ARC
  5
4770
  8
DANMEN
  6
CONTINUOUS
 10
453.86479042842609
 20
179.13996127035639
 30
0.0
 40
0.5
 50
90.0
 51
180.0
  0
LINE
  5
4771
  8
DANMEN
  6
CONTINUOUS
 10
453.36479042842632
 20
179.13996127035639
 30
0.0
 11
453.36479042842632
 21
178.33995727035631
 31
0.0
  0
LINE
  5
4772
  8
DANMEN
  6
CONTINUOUS
 10
483.36479042842609
 20
178.63996127035631
 30
0.0
 11
483.36479042842609
 21
174.13996127035631
 31
0.0
  0
ARC
  5
4773
  8
DANMEN
  6
CONTINUOUS
 10
482.21278242842641
 20
174.13996127035631
 30
0.0
 40
0.5
 50
180.0
 51
270.0
  0
ARC
  5
4774
  8
DANMEN
  6
CONTINUOUS
 10
482.86479042842598
 20
174.13996127035631
 30
0.0
 40
0.5
 50
270.0
 51
0.0
  0
LINE
  5
4775
  8
DANMEN
  6
CONTINUOUS
 10
481.71278242842629
 20
177.9899692703564
 30
0.0
 11
481.71278242842629
 21
174.13996127035631
 31
0.0
  0
LINE
  5
4776
  8
DANMEN
  6
CONTINUOUS
 10
482.21278242842641
 20
173.63996127035631
 30
0.0
 11
482.86479042842598
 21
173.63996127035631
 31
0.0
  0
ARC
  5
4777
  8
DANMEN
  6
CONTINUOUS
 10
482.36479042842632
 20
178.63996127035631
 30
0.0
 40
1.0
 50
0.0
 51
90.0
  0
LINE
  5
4778
  8
SUNPO
 10
213.3382698876261
 20
77.719320281416216
 30
0.0
 11
321.4310673556933
 21
77.719320281416216
 31
0.0
  0
LINE
  5
4779
  8
SUNPO
  6
CONTINUOUS
 10
333.27077792983391
 20
81.774201536375045
 30
0.0
 11
329.82325712983368
 21
81.774201536375045
 31
0.0
  0
LINE
  5
477A
  8
SUNPO
  6
CONTINUOUS
 10
336.47101072983401
 20
81.774201536375045
 30
0.0
 11
334.84179472983391
 21
81.774201536375045
 31
0.0
  0
LINE
  5
477B
  8
SUNPO
  6
CONTINUOUS
 10
342.68957472983391
 20
77.774201536375045
 30
0.0
 11
338.68957472983391
 21
77.774201536375045
 31
0.0
  0
LINE
  5
477C
  8
SUNPO
  6
CONTINUOUS
 10
342.68957472983391
 20
80.174201536375065
 30
0.0
 11
338.68957472983391
 21
80.174201536375065
 31
0.0
  0
LINE
  5
477D
  8
SUNPO
  6
CONTINUOUS
 10
331.42325712983393
 20
76.174201536375023
 30
0.0
 11
327.84123232983382
 21
76.174201536375023
 31
0.0
  0
LINE
  5
477E
  8
SUNPO
  6
CONTINUOUS
 10
336.16581472983398
 20
76.174201536375023
 30
0.0
 11
333.30361632983391
 21
76.174201536375023
 31
0.0
  0
LINE
  5
477F
  8
SUNPO
  6
CONTINUOUS
 10
335.70393392983391
 20
76.174204736375003
 30
0.0
 11
332.4707787298338
 21
81.774199136375046
 31
0.0
  0
LINE
  5
4780
  8
SUNPO
  6
CONTINUOUS
 10
330.62325712983409
 20
81.774201536375045
 30
0.0
 11
330.62325712983409
 21
76.17420233637506
 31
0.0
  0
LINE
  5
4781
  8
SUNPO
  6
CONTINUOUS
 10
333.856414729834
 20
76.17420233637506
 30
0.0
 11
330.62325792983393
 21
81.774199936375055
 31
0.0
  0
LINE
  5
4782
  8
SUNPO
  6
CONTINUOUS
 10
330.62325792983393
 20
76.174201536375023
 30
0.0
 11
327.39010112983391
 21
81.774199136375046
 31
0.0
  0
LINE
  5
4783
  8
SUNPO
  6
CONTINUOUS
 10
335.70393552983393
 20
81.774201536375045
 30
0.0
 11
335.70393552983393
 21
76.174203936375065
 31
0.0
  0
LINE
  5
4784
  8
SUNPO
  6
CONTINUOUS
 10
328.1594387298336
 20
81.774201536375045
 30
0.0
 11
324.65915872983379
 21
81.774201536375045
 31
0.0
  0
LINE
  5
4785
  8
SUNPO
  6
CONTINUOUS
 10
328.77578752983391
 20
76.17420233637506
 30
0.0
 11
325.54263152983373
 21
81.774199136375046
 31
0.0
  0
LINE
  5
4786
  8
SUNPO
 10
453.35795418582302
 20
77.639977000544533
 30
0.0
 11
345.12958992844813
 21
77.639977000544533
 31
0.0
  0
TEXT
  5
4787
  8
SUNPO
  6
CONTINUOUS
 10
194.8450610890682
 20
78.763983161300672
 30
0.0
 40
3.0
  1
30
 50
359.99982811266023
 41
1.1000000000000001
  7
MX_DIMTXSTY_3
  0
TEXT
  5
4788
  8
SUNPO
  6
CONTINUOUS
 10
464.87742270808963
 20
78.763911634080529
 30
0.0
 40
3.0
  1
30
 50
0.0000572957793684
 41
1.1000000000000001
  7
MX_DIMTXSTY_3
  0
POLYLINE
  5
4789
  8
SUNPO
  6
BYBLOCK
 66
     1
 10
0.0
 20
0.0
 30
0.0
 70
     1
 40
1.159999999999999
 41
1.159999999999999
  0
VERTEX
  5
47C2
  8
SUNPO
  6
BYBLOCK
 10
483.29967898849918
 20
77.639942536263973
 30
0.0
 42
1.0
  0
VERTEX
  5
47C3
  8
SUNPO
  6
BYBLOCK
 10
483.43322790904068
 20
77.647934250887658
 30
0.0
 42
1.0
  0
SEQEND
  5
47C4
  8
SUNPO
  6
BYBLOCK
  0
ENDSEC
  0
EOF
