  0
SECTION
  2
HEADER
  9
$ACADVER
  1
AC1009
  9
$INSBASE
 10
0.0
 20
0.0
 30
0.0
  9
$EXTMIN
 10
5.0
 20
5.0
 30
0.0
  9
$EXTMAX
 10
956.42871344548291
 20
1239.765142632632
 30
0.0
  9
$LIMMIN
 10
-210.0
 20
-148.5
  9
$LIMMAX
 10
210.0
 20
148.5
  9
$ORTHOMODE
 70
     1
  9
$REGENMODE
 70
     1
  9
$FILLMODE
 70
     1
  9
$QTEXTMODE
 70
     0
  9
$MIRRTEXT
 70
     1
  9
$DRAGMODE
 70
     2
  9
$LTSCALE
 40
0.5
  9
$OSMODE
 70
  3071
  9
$ATTMODE
 70
     1
  9
$TEXTSIZE
 40
2.5
  9
$TRACEWID
 40
0.05
  9
$TEXTSTYLE
  7
MX_NOTE_STANDARD
  9
$CLAYER
  8
0
  9
$CELTYPE
  6
CONTINUOUS
  9
$CECOLOR
 62
     7
  9
$DIMSCALE
 40
1.0
  9
$DIMASZ
 40
2.5
  9
$DIMEXO
 40
1.5
  9
$DIMDLI
 40
3.75
  9
$DIMRND
 40
0.0
  9
$DIMDLE
 40
0.0
  9
$DIMEXE
 40
0.0
  9
$DIMTP
 40
0.0
  9
$DIMTM
 40
0.0
  9
$DIMTXT
 40
2.5
  9
$DIMCEN
 40
2.5
  9
$DIMTSZ
 40
0.0
  9
$DIMTOL
 70
     0
  9
$DIMLIM
 70
     0
  9
$DIMTIH
 70
     0
  9
$DIMTOH
 70
     0
  9
$DIMSE1
 70
     0
  9
$DIMSE2
 70
     0
  9
$DIMTAD
 70
     1
  9
$DIMZIN
 70
     8
  9
$DIMBLK
  1

  9
$DIMASO
 70
     1
  9
$DIMSHO
 70
     1
  9
$DIMPOST
  1

  9
$DIMAPOST
  1

  9
$DIMALT
 70
     0
  9
$DIMALTD
 70
     4
  9
$DIMALTF
 40
0.0394
  9
$DIMLFAC
 40
1.0
  9
$DIMTOFL
 70
     1
  9
$DIMTVP
 40
0.0
  9
$DIMTIX
 70
     0
  9
$DIMSOXD
 70
     0
  9
$DIMSAH
 70
     0
  9
$DIMBLK1
  1

  9
$DIMBLK2
  1

  9
$DIMSTYLE
  2
MXDIMSTYLE
  9
$DIMCLRD
 70
     0
  9
$DIMCLRE
 70
     0
  9
$DIMCLRT
 70
     0
  9
$DIMTFAC
 40
1.0
  9
$DIMGAP
 40
1.0
  9
$LUNITS
 70
     2
  9
$LUPREC
 70
     4
  9
$SKETCHINC
 40
0.1
  9
$FILLETRAD
 40
0.0
  9
$AUNITS
 70
     0
  9
$AUPREC
 70
     0
  9
$MENU
  1
acad
  9
$ELEVATION
 40
0.0
  9
$PELEVATION
 40
0.0
  9
$THICKNESS
 40
0.0
  9
$LIMCHECK
 70
     0
  9
$BLIPMODE
 70
     0
  9
$CHAMFERA
 40
0.0
  9
$CHAMFERB
 40
0.0
  9
$SKPOLY
 70
     0
  9
$TDCREATE
 40
2452006.3716199999
  9
$TDUPDATE
 40
2453980.824690972
  9
$TDINDWG
 40
0.2212492477
  9
$TDUSRTIMER
 40
0.2212428009
  9
$USRTIMER
 70
     1
  9
$ANGBASE
 50
0.0
  9
$ANGDIR
 70
     0
  9
$PDMODE
 70
     3
  9
$PDSIZE
 40
-100.0
  9
$PLINEWID
 40
0.0
  9
$COORDS
 70
     2
  9
$SPLFRAME
 70
     0
  9
$SPLINETYPE
 70
     6
  9
$SPLINESEGS
 70
     8
  9
$ATTDIA
 70
     0
  9
$ATTREQ
 70
     1
  9
$HANDLING
 70
 22529
  9
$HANDSEED
  5
344B0
  9
$SURFTAB1
 70
     6
  9
$SURFTAB2
 70
     6
  9
$SURFTYPE
 70
     6
  9
$SURFU
 70
     6
  9
$SURFV
 70
     6
  9
$UCSNAME
  2

  9
$UCSORG
 10
0.0
 20
0.0
 30
0.0
  9
$UCSXDIR
 10
1.0
 20
0.0
 30
0.0
  9
$UCSYDIR
 10
0.0
 20
1.0
 30
0.0
  9
$PUCSNAME
  2

  9
$PUCSORG
 10
0.0
 20
0.0
 30
0.0
  9
$PUCSXDIR
 10
1.0
 20
0.0
 30
0.0
  9
$PUCSYDIR
 10
0.0
 20
1.0
 30
0.0
  9
$USERI1
 70
     0
  9
$USERI2
 70
     0
  9
$USERI3
 70
     0
  9
$USERI4
 70
     0
  9
$USERI5
 70
     0
  9
$USERR1
 40
0.0
  9
$USERR2
 40
0.0
  9
$USERR3
 40
0.0
  9
$USERR4
 40
0.0
  9
$USERR5
 40
0.0
  9
$WORLDVIEW
 70
     1
  9
$SHADEDGE
 70
     3
  9
$SHADEDIF
 70
    70
  9
$TILEMODE
 70
     1
  9
$MAXACTVP
 70
    16
  9
$PLIMCHECK
 70
     0
  9
$PEXTMIN
 10
1.129217233320474
 20
0.7865820019901693
 30
-0.0015258207003583
  9
$PEXTMAX
 10
10.168283311334459
 20
7.080917635795565
 30
0.0000000349246037
  9
$PLIMMIN
 10
-0.1979161059762549
 20
-0.1979166691697489
  9
$PLIMMAX
 10
11.49541659617984
 20
8.0654162684763495
  9
$UNITMODE
 70
     0
  9
$VISRETAIN
 70
     0
  9
$PLINEGEN
 70
     1
  9
$PSLTSCALE
 70
     0
  0
ENDSEC
  0
SECTION
  2
TABLES
  0
TABLE
  2
VPORT
 70
     2
  0
VPORT
  2
*ACTIVE
 70
     0
 10
0.0
 20
0.0
 11
1.0
 21
1.0
 12
387.8686864714623
 22
1130.6222891071909
 13
0.0
 23
0.0
 14
1.0
 24
1.0
 15
0.0
 25
0.0
 16
0.0
 26
0.0
 36
1.0
 17
0.0
 27
0.0
 37
0.0
 40
672.39336646261654
 41
1.487619047619047
 42
50.0
 43
0.0
 44
0.0
 50
0.0
 51
0.0
 71
     0
 72
   100
 73
     1
 74
     0
 75
     0
 76
     0
 77
     0
 78
     0
  0
ENDTAB
  0
TABLE
  2
LTYPE
 70
     2
  0
LTYPE
  2
CONTINUOUS
 70
     0
  3
Solid line
 72
    65
 73
     0
 40
0.0
  0
LTYPE
  2
DASHED
 70
     0
  3
Dashed __ __ __ __ __ __ __ __ __ __ __ __ __ _
 72
    65
 73
     2
 40
19.050000000000001
 49
12.699999999999999
 49
-6.349999999999997
  0
ENDTAB
  0
TABLE
  2
LAYER
 70
     4
  0
LAYER
  2
0
 70
     0
 62
     7
  6
CONTINUOUS
  0
LAYER
  2
WAKU
 70
     0
 62
     3
  6
CONTINUOUS
  0
LAYER
  2
DANMEN
 70
     0
 62
     7
  6
CONTINUOUS
  0
LAYER
  2
SUNPO
 70
     0
 62
     1
  6
CONTINUOUS
  0
ENDTAB
  0
TABLE
  2
STYLE
 70
     2
  0
STYLE
  2
STANDARD
 70
     0
 40
0.0
 41
1.0
 50
0.0
 71
     0
 42
0.2
  3
txt.shx
  4
extfont.shx
  0
STYLE
  2
MX_NOTE_STANDARD
 70
     0
 40
2.5
 41
1.0
 50
0.0
 71
     0
 42
2.5
  3
txt.shx
  4
extfont.shx
  0
ENDTAB
  0
TABLE
  2
VIEW
 70
     0
  0
ENDTAB
  0
TABLE
  2
UCS
 70
     0
  0
ENDTAB
  0
TABLE
  2
APPID
 70
     2
  0
APPID
  2
ACAD
 70
     0
  0
APPID
  2
CONTENTBLOCKICON
 70
     0
  0
ENDTAB
  0
TABLE
  2
DIMSTYLE
 70
     2
  0
DIMSTYLE
  2
MXDIMSTYLE
 70
     0
  3

  4

  5

  6

  7

 40
1.0
 41
2.5
 42
1.5
 43
3.75
 44
0.0
 45
0.0
 46
0.0
 47
0.0
 48
0.0
140
2.5
141
2.5
142
0.0
143
0.0394
144
1.0
145
0.0
146
1.0
147
1.0
 71
     0
 72
     0
 73
     0
 74
     0
 75
     0
 76
     0
 77
     1
 78
     8
170
     0
171
     4
172
     1
173
     0
174
     0
175
     0
176
     0
177
     0
178
     0
  0
DIMSTYLE
  2
STANDARD
 70
     0
  3

  4

  5

  6

  7

 40
1.0
 41
0.18
 42
0.0625
 43
0.38
 44
0.18
 45
0.0
 46
0.0
 47
0.0
 48
0.0
140
0.18
141
0.09
142
0.0
143
25.399999999999999
144
1.0
145
0.0
146
1.0
147
0.09
 71
     0
 72
     0
 73
     1
 74
     1
 75
     0
 76
     0
 77
     0
 78
     0
170
     0
171
     2
172
     0
173
     0
174
     0
175
     0
176
     0
177
     0
178
     0
  0
ENDTAB
  0
ENDSEC
  0
SECTION
  2
BLOCKS
  0
BLOCK
  8
0
  2
$MODEL_SPACE
 70
     0
 10
0.0
 20
0.0
 30
0.0
  3
$MODEL_SPACE
  1

  0
ENDBLK
  5
33BC5
  8
0
  0
BLOCK
 67
     1
  8
0
  2
$PAPER_SPACE
 70
     0
 10
0.0
 20
0.0
 30
0.0
  3
$PAPER_SPACE
  1

  0
ENDBLK
  5
33BC1
 67
     1
  8
0
  0
BLOCK
  8
0
  2
*U2
 70
     1
 10
0.0
 20
0.0
 30
0.0
  3
*U2
  1

  0
SOLID
  5
33BDA
  8
WAKU
  6
CONTINUOUS
 10
371.30514199999988
 20
283.60529100000002
 30
0.0
 11
370.49978199999993
 21
283.53036100000003
 31
0.0
 12
370.87498699999992
 22
283.52044899999993
 32
0.0
 13
370.87498699999992
 23
283.52044899999993
 33
0.0
  0
SOLID
  5
33BDB
  8
WAKU
  6
CONTINUOUS
 10
370.193309
 20
283.63466399999999
 30
0.0
 11
370.49978199999993
 21
283.53036100000003
 31
0.0
 12
371.30514199999988
 22
283.60529100000002
 32
0.0
 13
371.30514199999988
 23
283.60529100000002
 33
0.0
  0
SOLID
  5
33BDC
  8
WAKU
  6
CONTINUOUS
 10
371.77444800000001
 20
283.78177299999987
 30
0.0
 11
370.193309
 21
283.63466399999999
 31
0.0
 12
371.30514199999988
 22
283.60529100000002
 32
0.0
 13
371.30514199999988
 23
283.60529100000002
 33
0.0
  0
SOLID
  5
33BDD
  8
WAKU
  6
CONTINUOUS
 10
369.96682399999992
 20
283.82952599999982
 30
0.0
 11
370.193309
 21
283.63466399999999
 31
0.0
 12
371.77444800000001
 22
283.78177299999987
 32
0.0
 13
371.77444800000001
 23
283.78177299999987
 33
0.0
  0
SOLID
  5
33BDE
  8
WAKU
  6
CONTINUOUS
 10
370.59417699999989
 20
283.90949799999999
 30
0.0
 11
369.96682399999992
 21
283.82952599999982
 31
0.0
 12
371.77444800000001
 22
283.78177299999987
 32
0.0
 13
371.77444800000001
 23
283.78177299999987
 33
0.0
  0
SOLID
  5
33BDF
  8
WAKU
  6
CONTINUOUS
 10
370.90129400000001
 20
283.91486300000003
 30
0.0
 11
370.59417699999989
 21
283.90949799999999
 31
0.0
 12
371.77444800000001
 22
283.78177299999987
 32
0.0
 13
371.77444800000001
 23
283.78177299999987
 33
0.0
  0
SOLID
  5
33BE0
  8
WAKU
  6
CONTINUOUS
 10
370.39292699999987
 20
283.968568
 30
0.0
 11
369.96682399999992
 21
283.82952599999982
 31
0.0
 12
370.59417699999989
 22
283.90949799999999
 32
0.0
 13
370.59417699999989
 23
283.90949799999999
 33
0.0
  0
SOLID
  5
33BE1
  8
WAKU
  6
CONTINUOUS
 10
371.2969839999991
 20
284.01036800000003
 30
0.0
 11
370.90129400000001
 21
283.91486300000003
 31
0.0
 12
371.77444800000001
 22
283.78177299999987
 32
0.0
 13
371.77444800000001
 23
283.78177299999987
 33
0.0
  0
SOLID
  5
33BE2
  8
WAKU
  6
CONTINUOUS
 10
372.26566600000001
 20
284.04341099999982
 30
0.0
 11
371.2969839999991
 21
284.01036800000003
 31
0.0
 12
371.77444800000001
 22
283.78177299999987
 32
0.0
 13
371.77444800000001
 23
283.78177299999987
 33
0.0
  0
SOLID
  5
33BE3
  8
WAKU
  6
CONTINUOUS
 10
370.27517699999993
 20
284.06647599999991
 30
0.0
 11
369.96682399999992
 21
283.82952599999982
 31
0.0
 12
370.39292699999987
 22
283.968568
 32
0.0
 13
370.39292699999987
 23
283.968568
 33
0.0
  0
SOLID
  5
33BE4
  8
WAKU
  6
CONTINUOUS
 10
369.82864599999988
 20
284.10779100000002
 30
0.0
 11
369.96682399999992
 21
283.82952599999982
 31
0.0
 12
370.27517699999993
 22
284.06647599999991
 32
0.0
 13
370.27517699999993
 23
284.06647599999991
 33
0.0
  0
SOLID
  5
33BE5
  8
WAKU
  6
CONTINUOUS
 10
370.70945799999993
 20
284.14239700000002
 30
0.0
 11
369.82864599999988
 21
284.10779100000002
 31
0.0
 12
370.27517699999993
 22
284.06647599999991
 32
0.0
 13
370.27517699999993
 23
284.06647599999991
 33
0.0
  0
SOLID
  5
33BE6
  8
WAKU
  6
CONTINUOUS
 10
371.75188199999991
 20
284.20279799999992
 30
0.0
 11
371.2969839999991
 21
284.01036800000003
 31
0.0
 12
372.26566600000001
 22
284.04341099999982
 32
0.0
 13
372.26566600000001
 23
284.04341099999982
 33
0.0
  0
SOLID
  5
33BE7
  8
WAKU
  6
CONTINUOUS
 10
369.55038100000002
 20
284.245969
 30
0.0
 11
369.82864599999988
 21
284.10779100000002
 31
0.0
 12
370.70945799999993
 22
284.14239700000002
 32
0.0
 13
370.70945799999993
 23
284.14239700000002
 33
0.0
  0
SOLID
  5
33BE8
  8
WAKU
  6
CONTINUOUS
 10
371.18642799999992
 20
284.31462499999992
 30
0.0
 11
369.55038100000002
 21
284.245969
 31
0.0
 12
370.70945799999993
 22
284.14239700000002
 32
0.0
 13
370.70945799999993
 23
284.14239700000002
 33
0.0
  0
SOLID
  5
33BE9
  8
WAKU
  6
CONTINUOUS
 10
372.76075600000001
 20
284.38059500000008
 30
0.0
 11
371.75188199999991
 21
284.20279799999992
 31
0.0
 12
372.26566600000001
 22
284.04341099999982
 32
0.0
 13
372.26566600000001
 23
284.04341099999982
 33
0.0
  0
SOLID
  5
33BEA
  8
WAKU
  6
CONTINUOUS
 10
370.172911
 20
284.45185600000002
 30
0.0
 11
369.55038100000002
 21
284.245969
 31
0.0
 12
371.18642799999992
 22
284.31462499999992
 32
0.0
 13
371.18642799999992
 23
284.31462499999992
 33
0.0
  0
SOLID
  5
33BEB
  8
WAKU
  6
CONTINUOUS
 10
369.35551800000002
 20
284.47245400000008
 30
0.0
 11
369.55038100000002
 21
284.245969
 31
0.0
 12
370.172911
 22
284.45185600000002
 32
0.0
 13
370.172911
 23
284.45185600000002
 33
0.0
  0
SOLID
  5
33BEC
  8
WAKU
  6
CONTINUOUS
 10
372.23749700000002
 20
284.48611699999992
 30
0.0
 11
371.75188199999991
 21
284.20279799999992
 31
0.0
 12
372.76075600000001
 22
284.38059500000008
 32
0.0
 13
372.76075600000001
 23
284.38059500000008
 33
0.0
  0
SOLID
  5
33BED
  8
WAKU
  6
CONTINUOUS
 10
370.68139500000001
 20
284.53919500000001
 30
0.0
 11
370.172911
 21
284.45185600000002
 31
0.0
 12
371.18642799999992
 22
284.31462499999992
 32
0.0
 13
371.18642799999992
 23
284.31462499999992
 33
0.0
  0
SOLID
  5
33BEE
  8
WAKU
  6
CONTINUOUS
 10
369.787305
 20
284.55393500000002
 30
0.0
 11
369.35551800000002
 21
284.47245400000008
 31
0.0
 12
370.172911
 22
284.45185600000002
 32
0.0
 13
370.172911
 23
284.45185600000002
 33
0.0
  0
SOLID
  5
33BEF
  8
WAKU
  6
CONTINUOUS
 10
371.68776999999989
 20
284.57654500000001
 30
0.0
 11
370.68139500000001
 21
284.53919500000001
 31
0.0
 12
371.18642799999992
 22
284.31462499999992
 32
0.0
 13
371.18642799999992
 23
284.31462499999992
 33
0.0
  0
SOLID
  5
33BF0
  8
WAKU
  6
CONTINUOUS
 10
369.68915499999991
 20
284.67243500000001
 30
0.0
 11
369.35551800000002
 21
284.47245400000008
 31
0.0
 12
369.787305
 22
284.55393500000002
 32
0.0
 13
369.787305
 23
284.55393500000002
 33
0.0
  0
SOLID
  5
33BF1
  8
WAKU
  6
CONTINUOUS
 10
369.251215
 20
284.77892800000001
 30
0.0
 11
369.35551800000002
 21
284.47245400000008
 31
0.0
 12
369.68915499999991
 22
284.67243500000001
 32
0.0
 13
369.68915499999991
 23
284.67243500000001
 33
0.0
  0
SOLID
  5
33BF2
  8
WAKU
  6
CONTINUOUS
 10
373.24153200000001
 20
284.78094099999993
 30
0.0
 11
372.23749700000002
 21
284.48611699999992
 31
0.0
 12
372.76075600000001
 22
284.38059500000008
 32
0.0
 13
372.76075600000001
 23
284.38059500000008
 33
0.0
  0
SOLID
  5
33BF3
  8
WAKU
  6
CONTINUOUS
 10
371.31226299999992
 20
284.81033199999962
 30
0.0
 11
370.68139500000001
 21
284.53919500000001
 31
0.0
 12
371.68776999999989
 22
284.57654500000001
 32
0.0
 13
371.68776999999989
 23
284.57654500000001
 33
0.0
  0
SOLID
  5
33BF4
  8
WAKU
  6
CONTINUOUS
 10
369.63035799999989
 20
284.873087
 30
0.0
 11
369.251215
 21
284.77892800000001
 31
0.0
 12
369.68915499999991
 22
284.67243500000001
 32
0.0
 13
369.68915499999991
 23
284.67243500000001
 33
0.0
  0
SOLID
  5
33BF5
  8
WAKU
  6
CONTINUOUS
 10
372.194232
 20
284.91809899999993
 30
0.0
 11
371.31226299999992
 21
284.81033199999962
 31
0.0
 12
371.68776999999989
 22
284.57654500000001
 32
0.0
 13
371.68776999999989
 23
284.57654500000001
 33
0.0
  0
SOLID
  5
33BF6
  8
WAKU
  6
CONTINUOUS
 10
370.26016800000002
 20
284.959969
 30
0.0
 11
369.787305
 21
284.55393500000002
 31
0.0
 12
370.172911
 22
284.45185600000002
 32
0.0
 13
370.172911
 23
284.45185600000002
 33
0.0
  0
SOLID
  5
33BF7
  8
WAKU
  6
CONTINUOUS
 10
369.86313899999999
 20
284.98818899999992
 30
0.0
 11
369.787305
 21
284.55393500000002
 31
0.0
 12
370.26016800000002
 22
284.959969
 32
0.0
 13
370.26016800000002
 23
284.959969
 33
0.0
  0
SOLID
  5
33BF8
  8
WAKU
  6
CONTINUOUS
 10
398.19400599999989
 20
285.115385
 30
0.0
 11
397.60605499999991
 21
283.49999999999989
 31
0.0
 12
401.913747
 22
283.49999999999989
 32
0.0
 13
401.913747
 23
283.49999999999989
 33
0.0
  0
SOLID
  5
33BF9
  8
WAKU
  6
CONTINUOUS
 10
401.913747
 20
283.49999999999989
 30
0.0
 11
401.42477599999989
 21
285.115385
 31
0.0
 12
398.19400599999989
 22
285.115385
 32
0.0
 13
398.19400599999989
 23
285.115385
 33
0.0
  0
SOLID
  5
33BFA
  8
WAKU
  6
CONTINUOUS
 10
369.24130299999962
 20
285.15413199999989
 30
0.0
 11
369.251215
 21
284.77892800000001
 31
0.0
 12
369.63035799999989
 22
284.873087
 32
0.0
 13
369.63035799999989
 23
284.873087
 33
0.0
  0
SOLID
  5
33BFB
  8
WAKU
  6
CONTINUOUS
 10
369.635696
 20
285.18040400000001
 30
0.0
 11
369.24130299999962
 21
285.15413199999989
 31
0.0
 12
369.63035799999989
 22
284.873087
 32
0.0
 13
369.63035799999989
 23
284.873087
 33
0.0
  0
SOLID
  5
33BFC
  8
WAKU
  6
CONTINUOUS
 10
373.69033499999989
 20
285.22974399999998
 30
0.0
 11
372.23749700000002
 21
284.48611699999992
 31
0.0
 12
373.24153200000001
 22
284.78094099999993
 32
0.0
 13
373.24153200000001
 23
284.78094099999993
 33
0.0
  0
SOLID
  5
33BFD
  8
WAKU
  6
CONTINUOUS
 10
371.98993999999999
 20
285.25143100000003
 30
0.0
 11
371.31226299999992
 21
284.81033199999962
 31
0.0
 12
372.194232
 22
284.91809899999993
 32
0.0
 13
372.194232
 23
284.91809899999993
 33
0.0
  0
SOLID
  5
33BFE
  8
WAKU
  6
CONTINUOUS
 10
373.195965
 20
285.2752319999999
 30
0.0
 11
372.23749700000002
 21
284.48611699999992
 31
0.0
 12
373.69033499999989
 22
285.22974399999998
 32
0.0
 13
373.69033499999989
 23
285.22974399999998
 33
0.0
  0
SOLID
  5
33BFF
  8
WAKU
  6
CONTINUOUS
 10
372.68636299999991
 20
285.32617099999982
 30
0.0
 11
371.98993999999999
 21
285.25143100000003
 31
0.0
 12
372.194232
 22
284.91809899999993
 32
0.0
 13
372.194232
 23
284.91809899999993
 33
0.0
  0
SOLID
  5
33C00
  8
WAKU
  6
CONTINUOUS
 10
370.03529300000002
 20
285.46515399999993
 30
0.0
 11
369.86313899999999
 21
284.98818899999992
 31
0.0
 12
370.26016800000002
 22
284.959969
 32
0.0
 13
370.26016800000002
 23
284.959969
 33
0.0
  0
SOLID
  5
33C01
  8
WAKU
  6
CONTINUOUS
 10
369.73149000000001
 20
285.57602099999991
 30
0.0
 11
369.24130299999962
 21
285.15413199999989
 31
0.0
 12
369.635696
 22
285.18040400000001
 32
0.0
 13
369.635696
 23
285.18040400000001
 33
0.0
  0
SOLID
  5
33C02
  8
WAKU
  6
CONTINUOUS
 10
369.32614599999988
 20
285.58428700000002
 30
0.0
 11
369.24130299999962
 21
285.15413199999989
 31
0.0
 12
369.73149000000001
 22
285.57602099999991
 32
0.0
 13
369.73149000000001
 23
285.57602099999991
 33
0.0
  0
SOLID
  5
33C03
  8
WAKU
  6
CONTINUOUS
 10
370.53071199999999
 20
285.59087499999993
 30
0.0
 11
370.03529300000002
 21
285.46515399999993
 31
0.0
 12
370.26016800000002
 22
284.959969
 32
0.0
 13
370.26016800000002
 23
284.959969
 33
0.0
  0
SOLID
  5
33C04
  8
WAKU
  6
CONTINUOUS
 10
389.23614399999991
 20
285.65384599999987
 30
0.0
 11
383.06759299999987
 21
283.49999999999989
 31
0.0
 12
388.45220799999993
 22
283.49999999999989
 32
0.0
 13
388.45220799999993
 23
283.49999999999989
 33
0.0
  0
SOLID
  5
33C05
  8
WAKU
  6
CONTINUOUS
 10
383.85152900000003
 20
285.65384599999987
 30
0.0
 11
383.06759299999987
 21
283.49999999999989
 31
0.0
 12
389.23614399999991
 22
285.65384599999987
 32
0.0
 13
389.23614399999991
 23
285.65384599999987
 33
0.0
  0
SOLID
  5
33C06
  8
WAKU
  6
CONTINUOUS
 10
404.85152900000003
 20
285.65384599999987
 30
0.0
 11
404.06759299999987
 21
283.49999999999989
 31
0.0
 12
409.45220799999993
 22
283.49999999999989
 32
0.0
 13
409.45220799999993
 23
283.49999999999989
 33
0.0
  0
SOLID
  5
33C07
  8
WAKU
  6
CONTINUOUS
 10
409.45220799999993
 20
283.49999999999989
 30
0.0
 11
409.15922099999989
 21
285.65384599999987
 31
0.0
 12
404.85152900000003
 22
285.65384599999987
 32
0.0
 13
404.85152900000003
 23
285.65384599999987
 33
0.0
  0
SOLID
  5
33C08
  8
WAKU
  6
CONTINUOUS
 10
391.17460599999998
 20
285.65384599999987
 30
0.0
 11
390.39067
 21
283.49999999999989
 31
0.0
 12
395.45220799999993
 22
283.49999999999989
 32
0.0
 13
395.45220799999993
 23
283.49999999999989
 33
0.0
  0
SOLID
  5
33C09
  8
WAKU
  6
CONTINUOUS
 10
395.45220799999993
 20
283.49999999999989
 30
0.0
 11
395.159221
 21
285.65384599999987
 31
0.0
 12
391.17460599999998
 22
285.65384599999987
 32
0.0
 13
391.17460599999998
 23
285.65384599999987
 33
0.0
  0
SOLID
  5
33C0A
  8
WAKU
  6
CONTINUOUS
 10
374.09068100000002
 20
285.71051999999992
 30
0.0
 11
373.195965
 21
285.2752319999999
 31
0.0
 12
373.69033499999989
 22
285.22974399999998
 32
0.0
 13
373.69033499999989
 23
285.22974399999998
 33
0.0
  0
SOLID
  5
33C0B
  8
WAKU
  6
CONTINUOUS
 10
373.14526599999988
 20
285.78508900000003
 30
0.0
 11
371.98993999999999
 21
285.25143100000003
 31
0.0
 12
372.68636299999991
 22
285.32617099999982
 32
0.0
 13
372.68636299999991
 23
285.32617099999982
 33
0.0
  0
SOLID
  5
33C0C
  8
WAKU
  6
CONTINUOUS
 10
372.64629600000001
 20
285.82550600000002
 30
0.0
 11
371.98993999999999
 21
285.25143100000003
 31
0.0
 12
373.14526599999988
 22
285.78508900000003
 32
0.0
 13
373.14526599999988
 23
285.78508900000003
 33
0.0
  0
SOLID
  5
33C0D
  8
WAKU
  6
CONTINUOUS
 10
370.29715599999992
 20
285.96650899999992
 30
0.0
 11
370.03529300000002
 21
285.46515399999993
 31
0.0
 12
370.53071199999999
 22
285.59087499999993
 32
0.0
 13
370.53071199999999
 23
285.59087499999993
 33
0.0
  0
SOLID
  5
33C0E
  8
WAKU
  6
CONTINUOUS
 10
369.923519
 20
286.03102799999982
 30
0.0
 11
369.32614599999988
 21
285.58428700000002
 31
0.0
 12
369.73149000000001
 22
285.57602099999991
 32
0.0
 13
369.73149000000001
 23
285.57602099999991
 33
0.0
  0
SOLID
  5
33C0F
  8
WAKU
  6
CONTINUOUS
 10
369.50262700000002
 20
286.05359299999992
 30
0.0
 11
369.32614599999988
 21
285.58428700000002
 31
0.0
 12
369.923519
 22
286.03102799999982
 32
0.0
 13
369.923519
 23
286.03102799999982
 33
0.0
  0
SOLID
  5
33C10
  8
WAKU
  6
CONTINUOUS
 10
379.39714500000002
 20
286.13846199999989
 30
0.0
 11
378.436824
 21
283.49999999999989
 31
0.0
 12
379.51374700000002
 22
283.49999999999989
 32
0.0
 13
379.51374700000002
 23
283.49999999999989
 33
0.0
  0
SOLID
  5
33C11
  8
WAKU
  6
CONTINUOUS
 10
377.15520499999991
 20
286.19230800000003
 30
0.0
 11
376.17528499999992
 21
283.49999999999989
 31
0.0
 12
379.39714500000002
 22
286.13846199999989
 32
0.0
 13
379.39714500000002
 23
286.13846199999989
 33
0.0
  0
SOLID
  5
33C12
  8
WAKU
  6
CONTINUOUS
 10
380.49366700000002
 20
286.19230800000003
 30
0.0
 11
377.15520499999991
 21
286.19230800000003
 31
0.0
 12
379.39714500000002
 22
286.13846199999989
 32
0.0
 13
379.39714500000002
 23
286.13846199999989
 33
0.0
  0
SOLID
  5
33C13
  8
WAKU
  6
CONTINUOUS
 10
380.49366700000002
 20
286.19230800000003
 30
0.0
 11
379.39714500000002
 21
286.13846199999989
 31
0.0
 12
379.51374700000002
 22
283.49999999999989
 32
0.0
 13
379.51374700000002
 23
283.49999999999989
 33
0.0
  0
SOLID
  5
33C14
  8
WAKU
  6
CONTINUOUS
 10
380.49366700000002
 20
286.19230800000003
 30
0.0
 11
381.775285
 21
283.49999999999989
 31
0.0
 12
382.75520499999988
 22
286.19230800000003
 32
0.0
 13
382.75520499999988
 23
286.19230800000003
 33
0.0
  0
SOLID
  5
33C15
  8
WAKU
  6
CONTINUOUS
 10
374.427865
 20
286.20560899999992
 30
0.0
 11
373.195965
 21
285.2752319999999
 31
0.0
 12
374.09068100000002
 22
285.71051999999992
 32
0.0
 13
374.09068100000002
 23
285.71051999999992
 33
0.0
  0
SOLID
  5
33C16
  8
WAKU
  6
CONTINUOUS
 10
373.98505
 20
286.23371800000001
 30
0.0
 11
373.195965
 21
285.2752319999999
 31
0.0
 12
374.427865
 22
286.20560899999992
 32
0.0
 13
374.427865
 23
286.20560899999992
 33
0.0
  0
SOLID
  5
33C17
  8
WAKU
  6
CONTINUOUS
 10
370.97189600000002
 20
286.26847099999992
 30
0.0
 11
370.29715599999992
 21
285.96650899999992
 31
0.0
 12
370.53071199999999
 22
285.59087499999993
 32
0.0
 13
370.53071199999999
 23
285.59087499999993
 33
0.0
  0
SOLID
  5
33C18
  8
WAKU
  6
CONTINUOUS
 10
373.553316
 20
286.27722899999992
 30
0.0
 11
372.64629600000001
 21
285.82550600000002
 31
0.0
 12
373.14526599999988
 22
285.78508900000003
 32
0.0
 13
373.14526599999988
 23
285.78508900000003
 33
0.0
  0
SOLID
  5
33C19
  8
WAKU
  6
CONTINUOUS
 10
370.63867099999987
 20
286.47300000000001
 30
0.0
 11
370.29715599999992
 21
285.96650899999992
 31
0.0
 12
370.97189600000002
 22
286.26847099999992
 32
0.0
 13
370.97189600000002
 23
286.26847099999992
 33
0.0
  0
SOLID
  5
33C1A
  8
WAKU
  6
CONTINUOUS
 10
373.22023799999988
 20
286.48191999999989
 30
0.0
 11
372.64629600000001
 21
285.82550600000002
 31
0.0
 12
373.553316
 22
286.27722899999992
 32
0.0
 13
373.553316
 23
286.27722899999992
 33
0.0
  0
SOLID
  5
33C1B
  8
WAKU
  6
CONTINUOUS
 10
370.20703500000002
 20
286.51657
 30
0.0
 11
369.50262700000002
 21
286.05359299999992
 31
0.0
 12
369.923519
 22
286.03102799999982
 32
0.0
 13
369.923519
 23
286.03102799999982
 33
0.0
  0
SOLID
  5
33C1C
  8
WAKU
  6
CONTINUOUS
 10
369.76426499999991
 20
286.54481199999992
 30
0.0
 11
369.50262700000002
 21
286.05359299999992
 31
0.0
 12
370.20703500000002
 22
286.51657
 32
0.0
 13
370.20703500000002
 23
286.51657
 33
0.0
  0
SOLID
  5
33C1D
  8
WAKU
  6
CONTINUOUS
 10
374.689503
 20
286.69682799999998
 30
0.0
 11
373.98505
 21
286.23371800000001
 31
0.0
 12
374.427865
 22
286.20560899999992
 32
0.0
 13
374.427865
 23
286.20560899999992
 33
0.0
  0
SOLID
  5
33C1E
  8
WAKU
  6
CONTINUOUS
 10
374.268507
 20
286.71927799999992
 30
0.0
 11
373.98505
 21
286.23371800000001
 31
0.0
 12
374.689503
 22
286.69682799999998
 32
0.0
 13
374.689503
 23
286.69682799999998
 33
0.0
  0
SOLID
  5
33C1F
  8
WAKU
  6
CONTINUOUS
 10
373.89484299999992
 20
286.78369300000008
 30
0.0
 11
373.22023799999988
 21
286.48191999999989
 31
0.0
 12
373.553316
 22
286.27722899999992
 32
0.0
 13
373.553316
 23
286.27722899999992
 33
0.0
  0
SOLID
  5
33C20
  8
WAKU
  6
CONTINUOUS
 10
371.54582699999992
 20
286.92489299999988
 30
0.0
 11
370.63867099999987
 21
286.47300000000001
 31
0.0
 12
370.97189600000002
 22
286.26847099999992
 32
0.0
 13
370.97189600000002
 23
286.26847099999992
 33
0.0
  0
SOLID
  5
33C21
  8
WAKU
  6
CONTINUOUS
 10
371.04671999999999
 20
286.96517399999999
 30
0.0
 11
370.63867099999987
 21
286.47300000000001
 31
0.0
 12
371.54582699999992
 22
286.92489299999988
 32
0.0
 13
371.54582699999992
 23
286.92489299999988
 33
0.0
  0
SOLID
  5
33C22
  8
WAKU
  6
CONTINUOUS
 10
370.10144899999989
 20
287.03990099999982
 30
0.0
 11
369.76426499999991
 21
286.54481199999992
 31
0.0
 12
370.20703500000002
 22
286.51657
 32
0.0
 13
370.20703500000002
 23
286.51657
 33
0.0
  0
SOLID
  5
33C23
  8
WAKU
  6
CONTINUOUS
 10
373.66135299999991
 20
287.15953400000001
 30
0.0
 11
373.22023799999988
 21
286.48191999999989
 31
0.0
 12
373.89484299999992
 22
286.78369300000008
 32
0.0
 13
373.89484299999992
 23
286.78369300000008
 33
0.0
  0
SOLID
  5
33C24
  8
WAKU
  6
CONTINUOUS
 10
374.86598399999991
 20
287.166134
 30
0.0
 11
374.268507
 21
286.71927799999992
 31
0.0
 12
374.689503
 22
286.69682799999998
 32
0.0
 13
374.689503
 23
286.69682799999998
 33
0.0
  0
SOLID
  5
33C25
  8
WAKU
  6
CONTINUOUS
 10
374.46071000000001
 20
287.17424799999992
 30
0.0
 11
374.268507
 21
286.71927799999992
 31
0.0
 12
374.86598399999991
 22
287.166134
 32
0.0
 13
374.86598399999991
 23
287.166134
 33
0.0
  0
SOLID
  5
33C26
  8
WAKU
  6
CONTINUOUS
 10
374.15673199999992
 20
287.28502999999989
 30
0.0
 11
373.66135299999991
 21
287.15953400000001
 31
0.0
 12
373.89484299999992
 22
286.78369300000008
 32
0.0
 13
373.89484299999992
 23
286.78369300000008
 33
0.0
  0
SOLID
  5
33C27
  8
WAKU
  6
CONTINUOUS
 10
371.50563199999988
 20
287.424128
 30
0.0
 11
371.04671999999999
 21
286.96517399999999
 31
0.0
 12
371.54582699999992
 22
286.92489299999988
 32
0.0
 13
371.54582699999992
 23
286.92489299999988
 33
0.0
  0
SOLID
  5
33C28
  8
WAKU
  6
CONTINUOUS
 10
370.99609800000002
 20
287.47510799999992
 30
0.0
 11
370.10144899999989
 21
287.03990099999982
 31
0.0
 12
370.20703500000002
 22
286.51657
 32
0.0
 13
370.20703500000002
 23
286.51657
 33
0.0
  0
SOLID
  5
33C29
  8
WAKU
  6
CONTINUOUS
 10
372.202181
 20
287.49899099999999
 30
0.0
 11
371.50563199999988
 21
287.424128
 31
0.0
 12
371.54582699999992
 22
286.92489299999988
 32
0.0
 13
371.54582699999992
 23
286.92489299999988
 33
0.0
  0
SOLID
  5
33C2A
  8
WAKU
  6
CONTINUOUS
 10
370.50179500000002
 20
287.52067699999992
 30
0.0
 11
370.10144899999989
 21
287.03990099999982
 31
0.0
 12
370.99609800000002
 22
287.47510799999992
 32
0.0
 13
370.99609800000002
 23
287.47510799999992
 33
0.0
  0
SOLID
  5
33C2B
  8
WAKU
  6
CONTINUOUS
 10
374.55636099999998
 20
287.56986399999988
 30
0.0
 11
374.46071000000001
 21
287.17424799999992
 31
0.0
 12
374.86598399999991
 22
287.166134
 32
0.0
 13
374.86598399999991
 23
287.166134
 33
0.0
  0
SOLID
  5
33C2C
  8
WAKU
  6
CONTINUOUS
 10
395.86476299999993
 20
287.592308
 30
0.0
 11
395.159221
 21
285.65384599999987
 31
0.0
 12
395.45220799999993
 22
283.49999999999989
 32
0.0
 13
395.45220799999993
 23
283.49999999999989
 33
0.0
  0
SOLID
  5
33C2D
  8
WAKU
  6
CONTINUOUS
 10
393.17245600000001
 20
287.592308
 30
0.0
 11
391.70356499999991
 21
286.51538499999998
 31
0.0
 12
392.78048799999999
 22
286.51538499999998
 32
0.0
 13
392.78048799999999
 23
286.51538499999998
 33
0.0
  0
SOLID
  5
33C2E
  8
WAKU
  6
CONTINUOUS
 10
392.09553299999988
 20
287.592308
 30
0.0
 11
391.70356499999991
 21
286.51538499999998
 31
0.0
 12
393.17245600000001
 22
287.592308
 32
0.0
 13
393.17245600000001
 23
287.592308
 33
0.0
  0
SOLID
  5
33C2F
  8
WAKU
  6
CONTINUOUS
 10
391.28784000000002
 20
287.592308
 30
0.0
 11
392.09553299999988
 21
287.592308
 31
0.0
 12
393.17245600000001
 22
287.592308
 32
0.0
 13
393.17245600000001
 23
287.592308
 33
0.0
  0
SOLID
  5
33C30
  8
WAKU
  6
CONTINUOUS
 10
391.28784000000002
 20
287.592308
 30
0.0
 11
393.17245600000001
 21
287.592308
 31
0.0
 12
395.86476299999993
 22
287.592308
 32
0.0
 13
395.86476299999993
 23
287.592308
 33
0.0
  0
SOLID
  5
33C31
  8
WAKU
  6
CONTINUOUS
 10
396.941687
 20
287.592308
 30
0.0
 11
391.28784000000002
 21
287.592308
 31
0.0
 12
395.86476299999993
 22
287.592308
 32
0.0
 13
395.86476299999993
 23
287.592308
 33
0.0
  0
SOLID
  5
33C32
  8
WAKU
  6
CONTINUOUS
 10
396.941687
 20
287.592308
 30
0.0
 11
395.86476299999993
 21
287.592308
 31
0.0
 12
395.45220799999993
 22
283.49999999999989
 32
0.0
 13
395.45220799999993
 23
283.49999999999989
 33
0.0
  0
SOLID
  5
33C33
  8
WAKU
  6
CONTINUOUS
 10
374.950827
 20
287.59628900000001
 30
0.0
 11
374.55636099999998
 21
287.56986399999988
 31
0.0
 12
374.86598399999991
 22
287.166134
 32
0.0
 13
374.86598399999991
 23
287.166134
 33
0.0
  0
SOLID
  5
33C34
  8
WAKU
  6
CONTINUOUS
 10
374.32892500000003
 20
287.76198699999992
 30
0.0
 11
373.66135299999991
 21
287.15953400000001
 31
0.0
 12
374.15673199999992
 22
287.28502999999989
 32
0.0
 13
374.15673199999992
 23
287.28502999999989
 33
0.0
  0
SOLID
  5
33C35
  8
WAKU
  6
CONTINUOUS
 10
373.93207100000001
 20
287.79040199999992
 30
0.0
 11
373.66135299999991
 21
287.15953400000001
 31
0.0
 12
374.32892500000003
 22
287.76198699999992
 32
0.0
 13
374.32892500000003
 23
287.76198699999992
 33
0.0
  0
SOLID
  5
33C36
  8
WAKU
  6
CONTINUOUS
 10
371.99778300000003
 20
287.83223500000003
 30
0.0
 11
371.50563199999988
 21
287.424128
 31
0.0
 12
372.202181
 22
287.49899099999999
 32
0.0
 13
372.202181
 23
287.49899099999999
 33
0.0
  0
SOLID
  5
33C37
  8
WAKU
  6
CONTINUOUS
 10
374.561802
 20
287.87725299999983
 30
0.0
 11
374.55636099999998
 21
287.56986399999988
 31
0.0
 12
374.950827
 22
287.59628900000001
 32
0.0
 13
374.950827
 23
287.59628900000001
 33
0.0
  0
SOLID
  5
33C38
  8
WAKU
  6
CONTINUOUS
 10
372.87987799999991
 20
287.94005699999991
 30
0.0
 11
371.99778300000003
 21
287.83223500000003
 31
0.0
 12
372.202181
 22
287.49899099999999
 32
0.0
 13
372.202181
 23
287.49899099999999
 33
0.0
  0
SOLID
  5
33C39
  8
WAKU
  6
CONTINUOUS
 10
370.95059900000001
 20
287.96947999999992
 30
0.0
 11
370.50179500000002
 21
287.52067699999992
 31
0.0
 12
370.99609800000002
 22
287.47510799999992
 32
0.0
 13
370.99609800000002
 23
287.47510799999992
 33
0.0
  0
SOLID
  5
33C3A
  8
WAKU
  6
CONTINUOUS
 10
374.94091500000002
 20
287.97149300000001
 30
0.0
 11
374.561802
 21
287.87725299999983
 31
0.0
 12
374.950827
 22
287.59628900000001
 32
0.0
 13
374.950827
 23
287.59628900000001
 33
0.0
  0
SOLID
  5
33C3B
  8
WAKU
  6
CONTINUOUS
 10
374.502951
 20
288.07791800000001
 30
0.0
 11
374.561802
 21
287.87725299999983
 31
0.0
 12
374.94091500000002
 22
287.97149300000001
 32
0.0
 13
374.94091500000002
 23
287.97149300000001
 33
0.0
  0
SOLID
  5
33C3C
  8
WAKU
  6
CONTINUOUS
 10
405.75305500000002
 20
288.13076899999982
 30
0.0
 11
405.28269399999999
 21
286.83846199999999
 31
0.0
 12
408.51346299999989
 22
286.83846199999999
 32
0.0
 13
408.51346299999989
 23
286.83846199999999
 33
0.0
  0
SOLID
  5
33C3D
  8
WAKU
  6
CONTINUOUS
 10
408.98382400000003
 20
288.13076899999982
 30
0.0
 11
405.75305500000002
 21
288.13076899999982
 31
0.0
 12
408.51346299999989
 22
286.83846199999999
 32
0.0
 13
408.51346299999989
 23
286.83846199999999
 33
0.0
  0
SOLID
  5
33C3E
  8
WAKU
  6
CONTINUOUS
 10
372.50426900000002
 20
288.17382099999992
 30
0.0
 11
371.99778300000003
 21
287.83223500000003
 31
0.0
 12
372.87987799999991
 22
287.94005699999991
 32
0.0
 13
372.87987799999991
 23
287.94005699999991
 33
0.0
  0
SOLID
  5
33C3F
  8
WAKU
  6
CONTINUOUS
 10
374.40481
 20
288.19624900000002
 30
0.0
 11
373.93207100000001
 21
287.79040199999992
 31
0.0
 12
374.32892500000003
 22
287.76198699999992
 32
0.0
 13
374.32892500000003
 23
287.76198699999992
 33
0.0
  0
SOLID
  5
33C40
  8
WAKU
  6
CONTINUOUS
 10
374.40481
 20
288.19624900000002
 30
0.0
 11
374.502951
 21
288.07791800000001
 31
0.0
 12
374.94091500000002
 22
287.97149300000001
 32
0.0
 13
374.94091500000002
 23
287.97149300000001
 33
0.0
  0
SOLID
  5
33C41
  8
WAKU
  6
CONTINUOUS
 10
373.510738
 20
288.21123999999998
 30
0.0
 11
372.50426900000002
 21
288.17382099999992
 31
0.0
 12
372.87987799999991
 22
287.94005699999991
 32
0.0
 13
372.87987799999991
 23
287.94005699999991
 33
0.0
  0
SOLID
  5
33C42
  8
WAKU
  6
CONTINUOUS
 10
371.954587
 20
288.26428399999992
 30
0.0
 11
370.95059900000001
 21
287.96947999999992
 31
0.0
 12
370.99609800000002
 22
287.47510799999992
 32
0.0
 13
370.99609800000002
 23
287.47510799999992
 33
0.0
  0
SOLID
  5
33C43
  8
WAKU
  6
CONTINUOUS
 10
374.836612
 20
288.27796699999999
 30
0.0
 11
374.40481
 21
288.19624900000002
 31
0.0
 12
374.94091500000002
 22
287.97149300000001
 32
0.0
 13
374.94091500000002
 23
287.97149300000001
 33
0.0
  0
SOLID
  5
33C44
  8
WAKU
  6
CONTINUOUS
 10
374.01922899999988
 20
288.29856899999982
 30
0.0
 11
372.50426900000002
 21
288.17382099999992
 31
0.0
 12
373.510738
 22
288.21123999999998
 32
0.0
 13
373.510738
 23
288.21123999999998
 33
0.0
  0
SOLID
  5
33C45
  8
WAKU
  6
CONTINUOUS
 10
374.01922899999988
 20
288.29856899999982
 30
0.0
 11
374.40481
 21
288.19624900000002
 31
0.0
 12
374.836612
 22
288.27796699999999
 32
0.0
 13
374.836612
 23
288.27796699999999
 33
0.0
  0
SOLID
  5
33C46
  8
WAKU
  6
CONTINUOUS
 10
374.01922899999988
 20
288.29856899999982
 30
0.0
 11
373.93207100000001
 21
287.79040199999992
 31
0.0
 12
374.40481
 22
288.19624900000002
 32
0.0
 13
374.40481
 23
288.19624900000002
 33
0.0
  0
SOLID
  5
33C47
  8
WAKU
  6
CONTINUOUS
 10
371.43137400000001
 20
288.36982599999999
 30
0.0
 11
370.95059900000001
 21
287.96947999999992
 31
0.0
 12
371.954587
 22
288.26428399999992
 32
0.0
 13
371.954587
 23
288.26428399999992
 33
0.0
  0
SOLID
  5
33C48
  8
WAKU
  6
CONTINUOUS
 10
373.00563899999992
 20
288.43576799999988
 30
0.0
 11
372.50426900000002
 21
288.17382099999992
 31
0.0
 12
374.01922899999988
 22
288.29856899999982
 32
0.0
 13
374.01922899999988
 23
288.29856899999982
 33
0.0
  0
SOLID
  5
33C49
  8
WAKU
  6
CONTINUOUS
 10
374.641749
 20
288.50445200000001
 30
0.0
 11
373.00563899999992
 21
288.43576799999988
 31
0.0
 12
374.01922899999988
 22
288.29856899999982
 32
0.0
 13
374.01922899999988
 23
288.29856899999982
 33
0.0
  0
SOLID
  5
33C4A
  8
WAKU
  6
CONTINUOUS
 10
374.641749
 20
288.50445200000001
 30
0.0
 11
374.01922899999988
 21
288.29856899999982
 31
0.0
 12
374.836612
 22
288.27796699999999
 32
0.0
 13
374.836612
 23
288.27796699999999
 33
0.0
  0
SOLID
  5
33C4B
  8
WAKU
  6
CONTINUOUS
 10
372.44023499999992
 20
288.54758500000003
 30
0.0
 11
371.43137400000001
 21
288.36982599999999
 31
0.0
 12
371.954587
 22
288.26428399999992
 32
0.0
 13
371.954587
 23
288.26428399999992
 33
0.0
  0
SOLID
  5
33C4C
  8
WAKU
  6
CONTINUOUS
 10
373.48263600000001
 20
288.60801400000003
 30
0.0
 11
373.00563899999992
 21
288.43576799999988
 31
0.0
 12
374.641749
 22
288.50445200000001
 32
0.0
 13
374.641749
 23
288.50445200000001
 33
0.0
  0
SOLID
  5
33C4D
  8
WAKU
  6
CONTINUOUS
 10
374.36348399999991
 20
288.64263
 30
0.0
 11
373.48263600000001
 21
288.60801400000003
 31
0.0
 12
374.641749
 22
288.50445200000001
 32
0.0
 13
374.641749
 23
288.50445200000001
 33
0.0
  0
SOLID
  5
33C4E
  8
WAKU
  6
CONTINUOUS
 10
373.91694100000001
 20
288.683944
 30
0.0
 11
373.48263600000001
 21
288.60801400000003
 31
0.0
 12
374.36348399999991
 22
288.64263
 32
0.0
 13
374.36348399999991
 23
288.64263
 33
0.0
  0
SOLID
  5
33C4F
  8
WAKU
  6
CONTINUOUS
 10
371.92646400000001
 20
288.70701000000003
 30
0.0
 11
371.43137400000001
 21
288.36982599999999
 31
0.0
 12
372.44023499999992
 22
288.54758500000003
 32
0.0
 13
372.44023499999992
 23
288.54758500000003
 33
0.0
  0
SOLID
  5
33C50
  8
WAKU
  6
CONTINUOUS
 10
372.89513999999991
 20
288.74006500000002
 30
0.0
 11
371.92646400000001
 21
288.70701000000003
 31
0.0
 12
372.44023499999992
 22
288.54758500000003
 32
0.0
 13
372.44023499999992
 23
288.54758500000003
 33
0.0
  0
SOLID
  5
33C51
  8
WAKU
  6
CONTINUOUS
 10
380.31131299999993
 20
288.7769229999999
 30
0.0
 11
377.15520499999991
 21
286.19230800000003
 31
0.0
 12
380.49366700000002
 22
286.19230800000003
 32
0.0
 13
380.49366700000002
 23
286.19230800000003
 33
0.0
  0
SOLID
  5
33C52
  8
WAKU
  6
CONTINUOUS
 10
381.52485099999961
 20
288.7769229999999
 30
0.0
 11
378.09592799999979
 21
288.7769229999999
 31
0.0
 12
380.31131299999993
 22
288.7769229999999
 32
0.0
 13
380.31131299999993
 23
288.7769229999999
 33
0.0
  0
SOLID
  5
33C53
  8
WAKU
  6
CONTINUOUS
 10
381.52485099999961
 20
288.7769229999999
 30
0.0
 11
380.31131299999993
 21
288.7769229999999
 31
0.0
 12
380.49366700000002
 22
286.19230800000003
 32
0.0
 13
380.49366700000002
 23
286.19230800000003
 33
0.0
  0
SOLID
  5
33C54
  8
WAKU
  6
CONTINUOUS
 10
381.52485099999961
 20
288.7769229999999
 30
0.0
 11
380.49366700000002
 21
286.19230800000003
 31
0.0
 12
382.75520499999988
 22
286.19230800000003
 32
0.0
 13
382.75520499999988
 23
286.19230800000003
 33
0.0
  0
SOLID
  5
33C55
  8
WAKU
  6
CONTINUOUS
 10
373.799148
 20
288.78192899999988
 30
0.0
 11
373.91694100000001
 21
288.683944
 31
0.0
 12
374.36348399999991
 22
288.64263
 32
0.0
 13
374.36348399999991
 23
288.64263
 33
0.0
  0
SOLID
  5
33C56
  8
WAKU
  6
CONTINUOUS
 10
373.29085699999962
 20
288.83558099999982
 30
0.0
 11
371.92646400000001
 21
288.70701000000003
 31
0.0
 12
372.89513999999991
 22
288.74006500000002
 32
0.0
 13
372.89513999999991
 23
288.74006500000002
 33
0.0
  0
SOLID
  5
33C57
  8
WAKU
  6
CONTINUOUS
 10
373.59799600000002
 20
288.84090200000003
 30
0.0
 11
373.799148
 21
288.78192899999988
 31
0.0
 12
374.36348399999991
 22
288.64263
 32
0.0
 13
374.36348399999991
 23
288.64263
 33
0.0
  0
SOLID
  5
33C58
  8
WAKU
  6
CONTINUOUS
 10
402.04281700000001
 20
288.884615
 30
0.0
 11
400.18195800000001
 21
286.73076900000001
 31
0.0
 12
401.25888099999992
 22
286.73076900000001
 32
0.0
 13
401.25888099999992
 23
286.73076900000001
 33
0.0
  0
SOLID
  5
33C59
  8
WAKU
  6
CONTINUOUS
 10
402.7966629999998
 20
288.884615
 30
0.0
 11
401.42477599999989
 21
285.115385
 31
0.0
 12
401.913747
 22
283.49999999999989
 32
0.0
 13
401.913747
 23
283.49999999999989
 33
0.0
  0
SOLID
  5
33C5A
  8
WAKU
  6
CONTINUOUS
 10
403.87358699999999
 20
288.884615
 30
0.0
 11
402.7966629999998
 21
288.884615
 31
0.0
 12
401.913747
 22
283.49999999999989
 32
0.0
 13
401.913747
 23
283.49999999999989
 33
0.0
  0
SOLID
  5
33C5B
  8
WAKU
  6
CONTINUOUS
 10
400.96589399999988
 20
288.884615
 30
0.0
 11
400.18195800000001
 21
286.73076900000001
 31
0.0
 12
402.04281700000001
 22
288.884615
 32
0.0
 13
402.04281700000001
 23
288.884615
 33
0.0
  0
SOLID
  5
33C5C
  8
WAKU
  6
CONTINUOUS
 10
399.858881
 20
286.73076900000001
 30
0.0
 11
400.64281699999992
 21
288.884615
 31
0.0
 12
399.56589400000001
 22
288.884615
 32
0.0
 13
399.56589400000001
 23
288.884615
 33
0.0
  0
SOLID
  5
33C5D
  8
WAKU
  6
CONTINUOUS
 10
399.56589400000001
 20
288.884615
 30
0.0
 11
398.78195799999997
 21
286.73076900000001
 31
0.0
 12
399.858881
 22
286.73076900000001
 32
0.0
 13
399.858881
 23
286.73076900000001
 33
0.0
  0
SOLID
  5
33C5E
  8
WAKU
  6
CONTINUOUS
 10
374.22530599999988
 20
288.92089499999997
 30
0.0
 11
373.59799600000002
 21
288.84090200000003
 31
0.0
 12
374.36348399999991
 22
288.64263
 32
0.0
 13
374.36348399999991
 23
288.64263
 33
0.0
  0
SOLID
  5
33C5F
  8
WAKU
  6
CONTINUOUS
 10
372.41768300000001
 20
288.96864799999992
 30
0.0
 11
373.59799600000002
 21
288.84090200000003
 31
0.0
 12
374.22530599999988
 22
288.92089499999997
 32
0.0
 13
374.22530599999988
 23
288.92089499999997
 33
0.0
  0
SOLID
  5
33C60
  8
WAKU
  6
CONTINUOUS
 10
372.41768300000001
 20
288.96864799999992
 30
0.0
 11
373.29085699999962
 21
288.83558099999982
 31
0.0
 12
373.59799600000002
 22
288.84090200000003
 32
0.0
 13
373.59799600000002
 23
288.84090200000003
 33
0.0
  0
SOLID
  5
33C61
  8
WAKU
  6
CONTINUOUS
 10
372.41768300000001
 20
288.96864799999992
 30
0.0
 11
371.92646400000001
 21
288.70701000000003
 31
0.0
 12
373.29085699999962
 22
288.83558099999982
 32
0.0
 13
373.29085699999962
 23
288.83558099999982
 33
0.0
  0
SOLID
  5
33C62
  8
WAKU
  6
CONTINUOUS
 10
373.99882100000002
 20
289.11575699999992
 30
0.0
 11
372.41768300000001
 21
288.96864799999992
 31
0.0
 12
374.22530599999988
 22
288.92089499999997
 32
0.0
 13
374.22530599999988
 23
288.92089499999997
 33
0.0
  0
SOLID
  5
33C63
  8
WAKU
  6
CONTINUOUS
 10
372.88698799999992
 20
289.145129
 30
0.0
 11
372.41768300000001
 21
288.96864799999992
 31
0.0
 12
373.99882100000002
 22
289.11575699999992
 32
0.0
 13
373.99882100000002
 23
289.11575699999992
 33
0.0
  0
SOLID
  5
33C64
  8
WAKU
  6
CONTINUOUS
 10
396.941687
 20
287.592308
 30
0.0
 11
396.45271500000001
 21
289.20769200000001
 31
0.0
 12
393.76040799999993
 22
289.20769200000001
 32
0.0
 13
393.76040799999993
 23
289.20769200000001
 33
0.0
  0
SOLID
  5
33C65
  8
WAKU
  6
CONTINUOUS
 10
396.45271500000001
 20
289.20769200000001
 30
0.0
 11
396.941687
 21
287.592308
 31
0.0
 12
397.74937899999998
 22
287.592308
 32
0.0
 13
397.74937899999998
 23
287.592308
 33
0.0
  0
SOLID
  5
33C66
  8
WAKU
  6
CONTINUOUS
 10
393.76040799999993
 20
289.20769200000001
 30
0.0
 11
391.28784000000002
 21
287.592308
 31
0.0
 12
396.941687
 22
287.592308
 32
0.0
 13
396.941687
 23
287.592308
 33
0.0
  0
SOLID
  5
33C67
  8
WAKU
  6
CONTINUOUS
 10
398.33733100000001
 20
289.20769200000001
 30
0.0
 11
396.45271500000001
 21
289.20769200000001
 31
0.0
 12
397.74937899999998
 22
287.592308
 32
0.0
 13
397.74937899999998
 23
287.592308
 33
0.0
  0
SOLID
  5
33C68
  8
WAKU
  6
CONTINUOUS
 10
391.87579199999999
 20
289.20769200000001
 30
0.0
 11
391.28784000000002
 21
287.592308
 31
0.0
 12
393.76040799999993
 22
289.20769200000001
 32
0.0
 13
393.76040799999993
 23
289.20769200000001
 33
0.0
  0
SOLID
  5
33C69
  8
WAKU
  6
CONTINUOUS
 10
393.76040799999993
 20
289.20769200000001
 30
0.0
 11
392.68348500000002
 21
289.20769200000001
 31
0.0
 12
391.87579199999999
 22
289.20769200000001
 32
0.0
 13
391.87579199999999
 23
289.20769200000001
 33
0.0
  0
SOLID
  5
33C6A
  8
WAKU
  6
CONTINUOUS
 10
397.52963799999992
 20
289.20769200000001
 30
0.0
 11
396.45271500000001
 21
289.20769200000001
 31
0.0
 12
398.33733100000001
 22
289.20769200000001
 32
0.0
 13
398.33733100000001
 23
289.20769200000001
 33
0.0
  0
SOLID
  5
33C6B
  8
WAKU
  6
CONTINUOUS
 10
373.69234799999992
 20
289.22005999999982
 30
0.0
 11
372.88698799999992
 21
289.145129
 31
0.0
 12
373.99882100000002
 22
289.11575699999992
 32
0.0
 13
373.99882100000002
 23
289.11575699999992
 33
0.0
  0
SOLID
  5
33C6C
  8
WAKU
  6
CONTINUOUS
 10
373.31714299999999
 20
289.22997199999998
 30
0.0
 11
372.88698799999992
 21
289.145129
 31
0.0
 12
373.69234799999992
 22
289.22005999999982
 32
0.0
 13
373.69234799999992
 23
289.22005999999982
 33
0.0
  0
SOLID
  5
33C6D
  8
WAKU
  6
CONTINUOUS
 10
378.72307699999988
 20
290.5
 30
0.0
 11
381.52485099999961
 21
288.7769229999999
 31
0.0
 12
383.69592799999992
 22
288.7769229999999
 32
0.0
 13
383.69592799999992
 23
288.7769229999999
 33
0.0
  0
SOLID
  5
33C6E
  8
WAKU
  6
CONTINUOUS
 10
378.72307699999988
 20
290.5
 30
0.0
 11
378.09592799999979
 21
288.7769229999999
 31
0.0
 12
381.52485099999961
 22
288.7769229999999
 32
0.0
 13
381.52485099999961
 23
288.7769229999999
 33
0.0
  0
SOLID
  5
33C6F
  8
WAKU
  6
CONTINUOUS
 10
372.24905299999989
 20
290.5
 30
0.0
 11
367.97127599999999
 21
290.5
 31
0.0
 12
367.97127599999999
 22
286.22222199999982
 32
0.0
 13
367.97127599999999
 23
286.22222199999982
 33
0.0
  0
SOLID
  5
33C70
  8
WAKU
  6
CONTINUOUS
 10
409.21900499999998
 20
288.7769229999999
 30
0.0
 11
409.84615400000001
 21
290.5
 31
0.0
 12
406.615385
 22
290.5
 32
0.0
 13
406.615385
 23
290.5
 33
0.0
  0
SOLID
  5
33C71
  8
WAKU
  6
CONTINUOUS
 10
406.615385
 20
290.5
 30
0.0
 11
405.98823599999992
 21
288.7769229999999
 31
0.0
 12
409.21900499999998
 22
288.7769229999999
 32
0.0
 13
409.21900499999998
 23
288.7769229999999
 33
0.0
  0
SOLID
  5
33C72
  8
WAKU
  6
CONTINUOUS
 10
392.68348500000002
 20
289.20769200000001
 30
0.0
 11
394.23076900000001
 21
290.5
 31
0.0
 12
393.15384599999999
 22
290.5
 32
0.0
 13
393.15384599999999
 23
290.5
 33
0.0
  0
SOLID
  5
33C73
  8
WAKU
  6
CONTINUOUS
 10
394.23076900000001
 20
290.5
 30
0.0
 11
392.68348500000002
 21
289.20769200000001
 31
0.0
 12
393.76040799999993
 22
289.20769200000001
 32
0.0
 13
393.76040799999993
 23
289.20769200000001
 33
0.0
  0
SOLID
  5
33C74
  8
WAKU
  6
CONTINUOUS
 10
409.15922099999989
 20
285.65384599999987
 30
0.0
 11
412.0
 21
290.5
 31
0.0
 12
410.92307699999992
 22
290.5
 32
0.0
 13
410.92307699999992
 23
290.5
 33
0.0
  0
SOLID
  5
33C75
  8
WAKU
  6
CONTINUOUS
 10
412.0
 20
290.5
 30
0.0
 11
409.15922099999989
 21
285.65384599999987
 31
0.0
 12
409.45220799999993
 22
283.49999999999989
 32
0.0
 13
409.45220799999993
 23
283.49999999999989
 33
0.0
  0
SOLID
  5
33C76
  8
WAKU
  6
CONTINUOUS
 10
384.32307700000001
 20
290.5
 30
0.0
 11
378.72307699999988
 21
290.5
 31
0.0
 12
383.69592799999992
 22
288.7769229999999
 32
0.0
 13
383.69592799999992
 23
288.7769229999999
 33
0.0
  0
SOLID
  5
33C77
  8
WAKU
  6
CONTINUOUS
 10
385.615385
 20
290.5
 30
0.0
 11
384.98823599999992
 21
288.7769229999999
 31
0.0
 12
390.37285099999991
 22
288.7769229999999
 32
0.0
 13
390.37285099999991
 23
288.7769229999999
 33
0.0
  0
SOLID
  5
33C78
  8
WAKU
  6
CONTINUOUS
 10
396.92307699999992
 20
290.5
 30
0.0
 11
396.45271500000001
 21
289.20769200000001
 31
0.0
 12
397.52963799999992
 22
289.20769200000001
 32
0.0
 13
397.52963799999992
 23
289.20769200000001
 33
0.0
  0
SOLID
  5
33C79
  8
WAKU
  6
CONTINUOUS
 10
391.0
 20
290.5
 30
0.0
 11
385.615385
 21
290.5
 31
0.0
 12
390.37285099999991
 22
288.7769229999999
 32
0.0
 13
390.37285099999991
 23
288.7769229999999
 33
0.0
  0
SOLID
  5
33C7A
  8
WAKU
  6
CONTINUOUS
 10
398.0
 20
290.5
 30
0.0
 11
396.92307699999992
 21
290.5
 31
0.0
 12
397.52963799999992
 22
289.20769200000001
 32
0.0
 13
397.52963799999992
 23
289.20769200000001
 33
0.0
  0
ENDBLK
  5
33C7B
  8
0
  0
BLOCK
  8
0
  2
A$C67723BAD
 70
     0
 10
0.0
 20
0.0
 30
0.0
  3
A$C67723BAD
  1

  0
LINE
  5
33C7E
  8
WAKU
 10
-0.0000002957303877
 20
0.0000000917262923
 30
0.0
 11
409.9999997042695
 21
0.0000000917262923
 31
0.0
  0
ENDBLK
  5
33C7F
  8
0
  0
BLOCK
  8
0
  2
WAKU
 70
     0
 10
0.0
 20
0.0
 30
0.0
  3
WAKU
  1

  0
LINE
  5
33C82
  8
WAKU
 10
0.0
 20
1234.765142632632
 30
0.0
 11
951.4287134454828
 21
1234.765142632632
 31
0.0
  0
TEXT
  5
33C83
  8
WAKU
 10
187.84875517152881
 20
1204.765142632632
 30
0.0
 40
20.0
  1
FIXスクリーン　防火戸　非防火戸
 11
187.84875517152881
 21
1214.765142632632
 31
0.0
 73
     2
  0
TEXT
  5
33C84
  8
WAKU
 10
20.0
 20
1208.765142632632
 30
0.0
 40
12.0
  1
ニュー三フェイスF型
 41
0.8679999999999999
 11
20.0
 21
1214.765142632632
 31
0.0
 73
     2
  0
INSERT
  5
33C85
  8
WAKU
  6
CONTINUOUS
  2
*U2
 10
-722.23353613215045
 20
66.765142632631964
 30
0.0
 41
4.0
 42
4.0
 43
4.0
  0
LINE
  5
33C86
  8
WAKU
 10
0.0
 20
1194.765142632632
 30
0.0
 11
951.4287134454828
 21
1194.765142632632
 31
0.0
  0
LINE
  5
33C87
  8
WAKU
 10
951.4287134454828
 20
1234.765142632632
 30
0.0
 11
951.4287134454828
 21
0.0
 31
0.0
  0
LINE
  5
33C88
  8
WAKU
 10
0.0
 20
1234.765142632632
 30
0.0
 11
0.0
 21
0.0
 31
0.0
  0
LINE
  5
33C89
  8
WAKU
 10
0.0
 20
0.0
 30
0.0
 11
951.4287134454828
 21
0.0
 31
0.0
  0
ENDBLK
  5
33C8A
  8
0
  0
BLOCK
  8
0
  2
*X5
 70
     1
 10
0.0
 20
0.0
 30
0.0
  3
*X5
  1
ARR5
  0
LINE
  5
33C8D
  8
0
  6
CONTINUOUS
 62
     0
 10
28.5
 20
69.512193308819761
 30
0.0
 11
30.0
 21
71.012193308819747
 31
0.0
  0
LINE
  5
33C8E
  8
0
  6
CONTINUOUS
 62
     0
 10
28.5
 20
70.2193000900063
 30
0.0
 11
30.0
 21
71.7193000900063
 31
0.0
  0
LINE
  5
33C8F
  8
0
  6
CONTINUOUS
 62
     0
 10
28.5
 20
70.926406871192853
 30
0.0
 11
30.0
 21
72.426406871192853
 31
0.0
  0
LINE
  5
33C90
  8
0
  6
CONTINUOUS
 62
     0
 10
28.5
 20
71.633513652379392
 30
0.0
 11
30.0
 21
73.133513652379392
 31
0.0
  0
LINE
  5
33C91
  8
0
  6
CONTINUOUS
 62
     0
 10
28.5
 20
72.340620433565945
 30
0.0
 11
30.0
 21
73.840620433565945
 31
0.0
  0
LINE
  5
33C92
  8
0
  6
CONTINUOUS
 62
     0
 10
28.5
 20
73.047727214752484
 30
0.0
 11
30.0
 21
74.547727214752484
 31
0.0
  0
LINE
  5
33C93
  8
0
  6
CONTINUOUS
 62
     0
 10
28.5
 20
73.754833995939023
 30
0.0
 11
30.0
 21
75.254833995939066
 31
0.0
  0
LINE
  5
33C94
  8
0
  6
CONTINUOUS
 62
     0
 10
28.5
 20
74.461940777125562
 30
0.0
 11
30.0
 21
75.961940777125562
 31
0.0
  0
LINE
  5
33C95
  8
0
  6
CONTINUOUS
 62
     0
 10
28.5
 20
75.169047558312116
 30
0.0
 11
30.0
 21
76.669047558312116
 31
0.0
  0
LINE
  5
33C96
  8
0
  6
CONTINUOUS
 62
     0
 10
28.5
 20
75.876154339498697
 30
0.0
 11
30.0
 21
77.376154339498669
 31
0.0
  0
LINE
  5
33C97
  8
0
  6
CONTINUOUS
 62
     0
 10
28.5
 20
76.583261120685222
 30
0.0
 11
30.0
 21
78.083261120685222
 31
0.0
  0
LINE
  5
33C98
  8
0
  6
CONTINUOUS
 62
     0
 10
28.5
 20
77.290367901871775
 30
0.0
 11
30.0
 21
78.790367901871775
 31
0.0
  0
LINE
  5
33C99
  8
0
  6
CONTINUOUS
 62
     0
 10
28.5
 20
77.9974746830583
 30
0.0
 11
30.0
 21
79.4974746830583
 31
0.0
  0
LINE
  5
33C9A
  8
0
  6
CONTINUOUS
 62
     0
 10
28.5
 20
78.704581464244839
 30
0.0
 11
30.0
 21
80.204581464244839
 31
0.0
  0
LINE
  5
33C9B
  8
0
  6
CONTINUOUS
 62
     0
 10
28.5
 20
79.411688245431421
 30
0.0
 11
30.0
 21
80.911688245431392
 31
0.0
  0
LINE
  5
33C9C
  8
0
  6
CONTINUOUS
 62
     0
 10
28.5
 20
80.118795026617974
 30
0.0
 11
30.0
 21
81.618795026617931
 31
0.0
  0
LINE
  5
33C9D
  8
0
  6
CONTINUOUS
 62
     0
 10
28.5
 20
80.825901807804513
 30
0.0
 11
30.0
 21
82.325901807804513
 31
0.0
  0
LINE
  5
33C9E
  8
0
  6
CONTINUOUS
 62
     0
 10
28.5
 20
81.533008588991066
 30
0.0
 11
30.0
 21
83.033008588991038
 31
0.0
  0
LINE
  5
33C9F
  8
0
  6
CONTINUOUS
 62
     0
 10
28.5
 20
82.240115370177577
 30
0.0
 11
29.232559188256602
 21
82.972674558434207
 31
0.0
  0
LINE
  5
33CA0
  8
0
  6
CONTINUOUS
 62
     0
 10
28.5
 20
68.805086527633208
 30
0.0
 11
30.0
 21
70.305086527633193
 31
0.0
  0
LINE
  5
33CA1
  8
0
  6
CONTINUOUS
 62
     0
 10
28.5
 20
68.097979746446654
 30
0.0
 11
30.0
 21
69.597979746446654
 31
0.0
  0
LINE
  5
33CA2
  8
0
  6
CONTINUOUS
 62
     0
 10
28.5
 20
67.390872965260115
 30
0.0
 11
30.0
 21
68.890872965260115
 31
0.0
  0
LINE
  5
33CA3
  8
0
  6
CONTINUOUS
 62
     0
 10
28.5
 20
66.683766184073562
 30
0.0
 11
30.0
 21
68.183766184073562
 31
0.0
  0
LINE
  5
33CA4
  8
0
  6
CONTINUOUS
 62
     0
 10
28.5
 20
65.976659402887023
 30
0.0
 11
30.0
 21
67.476659402887009
 31
0.0
  0
LINE
  5
33CA5
  8
0
  6
CONTINUOUS
 62
     0
 10
28.5
 20
65.26955262170047
 30
0.0
 11
30.0
 21
66.769552621700456
 31
0.0
  0
LINE
  5
33CA6
  8
0
  6
CONTINUOUS
 62
     0
 10
28.5
 20
64.562445840513931
 30
0.0
 11
30.0
 21
66.062445840513931
 31
0.0
  0
LINE
  5
33CA7
  8
0
  6
CONTINUOUS
 62
     0
 10
28.5
 20
63.855339059327392
 30
0.0
 11
30.0
 21
65.355339059327363
 31
0.0
  0
LINE
  5
33CA8
  8
0
  6
CONTINUOUS
 62
     0
 10
28.5
 20
63.148232278140817
 30
0.0
 11
30.0
 21
64.648232278140824
 31
0.0
  0
LINE
  5
33CA9
  8
0
  6
CONTINUOUS
 62
     0
 10
28.5
 20
62.441125496954278
 30
0.0
 11
30.0
 21
63.941125496954278
 31
0.0
  0
LINE
  5
33CAA
  8
0
  6
CONTINUOUS
 62
     0
 10
28.5
 20
61.734018715767711
 30
0.0
 11
30.0
 21
63.234018715767732
 31
0.0
  0
LINE
  5
33CAB
  8
0
  6
CONTINUOUS
 62
     0
 10
28.5
 20
61.026911934581179
 30
0.0
 11
30.0
 21
62.526911934581193
 31
0.0
  0
LINE
  5
33CAC
  8
0
  6
CONTINUOUS
 62
     0
 10
28.5
 20
60.319805153394633
 30
0.0
 11
30.0
 21
61.819805153394633
 31
0.0
  0
LINE
  5
33CAD
  8
0
  6
CONTINUOUS
 62
     0
 10
28.5
 20
59.612698372208072
 30
0.0
 11
30.0
 21
61.112698372208087
 31
0.0
  0
LINE
  5
33CAE
  8
0
  6
CONTINUOUS
 62
     0
 10
28.5
 20
58.90559159102154
 30
0.0
 11
30.0
 21
60.40559159102154
 31
0.0
  0
LINE
  5
33CAF
  8
0
  6
CONTINUOUS
 62
     0
 10
28.551515190164999
 20
58.25
 30
0.0
 11
30.0
 21
59.698484809834973
 31
0.0
  0
LINE
  5
33CB0
  8
0
  6
CONTINUOUS
 62
     0
 10
29.258621971351548
 20
58.25
 30
0.0
 11
30.0
 21
58.99137802864842
 31
0.0
  0
LINE
  5
33CB1
  8
0
  6
CONTINUOUS
 62
     0
 10
29.965728752538102
 20
58.25
 30
0.0
 11
30.0
 21
58.284271247461881
 31
0.0
  0
LINE
  5
33CB2
  8
0
  6
CONTINUOUS
 62
     0
 10
30.0
 20
69.702056147303182
 30
0.0
 11
28.5
 21
71.202056147303196
 31
0.0
  0
LINE
  5
33CB3
  8
0
  6
CONTINUOUS
 62
     0
 10
30.0
 20
68.994949366116643
 30
0.0
 11
28.5
 21
70.494949366116643
 31
0.0
  0
LINE
  5
33CB4
  8
0
  6
CONTINUOUS
 62
     0
 10
30.0
 20
68.287842584930075
 30
0.0
 11
28.5
 21
69.78784258493009
 31
0.0
  0
LINE
  5
33CB5
  8
0
  6
CONTINUOUS
 62
     0
 10
30.0
 20
67.580735803743551
 30
0.0
 11
28.5
 21
69.080735803743551
 31
0.0
  0
LINE
  5
33CB6
  8
0
  6
CONTINUOUS
 62
     0
 10
30.0
 20
66.873629022556969
 30
0.0
 11
28.5
 21
68.373629022556997
 31
0.0
  0
LINE
  5
33CB7
  8
0
  6
CONTINUOUS
 62
     0
 10
30.0
 20
66.166522241370444
 30
0.0
 11
28.5
 21
67.666522241370458
 31
0.0
  0
LINE
  5
33CB8
  8
0
  6
CONTINUOUS
 62
     0
 10
30.0
 20
65.459415460183905
 30
0.0
 11
28.5
 21
66.959415460183905
 31
0.0
  0
LINE
  5
33CB9
  8
0
  6
CONTINUOUS
 62
     0
 10
30.0
 20
64.752308678997352
 30
0.0
 11
28.5
 21
66.252308678997352
 31
0.0
  0
LINE
  5
33CBA
  8
0
  6
CONTINUOUS
 62
     0
 10
30.0
 20
64.045201897810813
 30
0.0
 11
28.5
 21
65.545201897810813
 31
0.0
  0
LINE
  5
33CBB
  8
0
  6
CONTINUOUS
 62
     0
 10
30.0
 20
63.33809511662426
 30
0.0
 11
28.5
 21
64.83809511662426
 31
0.0
  0
LINE
  5
33CBC
  8
0
  6
CONTINUOUS
 62
     0
 10
30.0
 20
62.630988335437721
 30
0.0
 11
28.5
 21
64.130988335437721
 31
0.0
  0
LINE
  5
33CBD
  8
0
  6
CONTINUOUS
 62
     0
 10
30.0
 20
61.923881554251132
 30
0.0
 11
28.5
 21
63.42388155425116
 31
0.0
  0
LINE
  5
33CBE
  8
0
  6
CONTINUOUS
 62
     0
 10
30.0
 20
61.216774773064607
 30
0.0
 11
28.5
 21
62.716774773064607
 31
0.0
  0
LINE
  5
33CBF
  8
0
  6
CONTINUOUS
 62
     0
 10
30.0
 20
60.509667991878068
 30
0.0
 11
28.5
 21
62.009667991878061
 31
0.0
  0
LINE
  5
33CC0
  8
0
  6
CONTINUOUS
 62
     0
 10
30.0
 20
59.802561210691522
 30
0.0
 11
28.5
 21
61.302561210691522
 31
0.0
  0
LINE
  5
33CC1
  8
0
  6
CONTINUOUS
 62
     0
 10
30.0
 20
59.095454429504983
 30
0.0
 11
28.5
 21
60.595454429504969
 31
0.0
  0
LINE
  5
33CC2
  8
0
  6
CONTINUOUS
 62
     0
 10
30.0
 20
58.388347648318423
 30
0.0
 11
28.5
 21
59.888347648318423
 31
0.0
  0
LINE
  5
33CC3
  8
0
  6
CONTINUOUS
 62
     0
 10
29.431240867131869
 20
58.25
 30
0.0
 11
28.5
 21
59.181240867131883
 31
0.0
  0
LINE
  5
33CC4
  8
0
  6
CONTINUOUS
 62
     0
 10
28.72413408594533
 20
58.25
 30
0.0
 11
28.5
 21
58.47413408594533
 31
0.0
  0
LINE
  5
33CC5
  8
0
  6
CONTINUOUS
 62
     0
 10
30.0
 20
70.409162928489735
 30
0.0
 11
28.5
 21
71.909162928489735
 31
0.0
  0
LINE
  5
33CC6
  8
0
  6
CONTINUOUS
 62
     0
 10
30.0
 20
71.116269709676288
 30
0.0
 11
28.5
 21
72.616269709676288
 31
0.0
  0
LINE
  5
33CC7
  8
0
  6
CONTINUOUS
 62
     0
 10
30.0
 20
71.823376490862813
 30
0.0
 11
28.5
 21
73.323376490862813
 31
0.0
  0
LINE
  5
33CC8
  8
0
  6
CONTINUOUS
 62
     0
 10
30.0
 20
72.530483272049381
 30
0.0
 11
28.5
 21
74.030483272049381
 31
0.0
  0
LINE
  5
33CC9
  8
0
  6
CONTINUOUS
 62
     0
 10
30.0
 20
73.23759005323592
 30
0.0
 11
28.5
 21
74.737590053235934
 31
0.0
  0
LINE
  5
33CCA
  8
0
  6
CONTINUOUS
 62
     0
 10
30.0
 20
73.94469683442243
 30
0.0
 11
28.5
 21
75.444696834422459
 31
0.0
  0
LINE
  5
33CCB
  8
0
  6
CONTINUOUS
 62
     0
 10
30.0
 20
74.651803615609012
 30
0.0
 11
28.5
 21
76.151803615609012
 31
0.0
  0
LINE
  5
33CCC
  8
0
  6
CONTINUOUS
 62
     0
 10
30.0
 20
75.358910396795551
 30
0.0
 11
28.5
 21
76.858910396795551
 31
0.0
  0
LINE
  5
33CCD
  8
0
  6
CONTINUOUS
 62
     0
 10
30.0
 20
76.06601717798209
 30
0.0
 11
28.5
 21
77.56601717798209
 31
0.0
  0
LINE
  5
33CCE
  8
0
  6
CONTINUOUS
 62
     0
 10
30.0
 20
76.773123959168657
 30
0.0
 11
28.5
 21
78.273123959168672
 31
0.0
  0
LINE
  5
33CCF
  8
0
  6
CONTINUOUS
 62
     0
 10
30.0
 20
77.480230740355211
 30
0.0
 11
28.5
 21
78.980230740355211
 31
0.0
  0
LINE
  5
33CD0
  8
0
  6
CONTINUOUS
 62
     0
 10
30.0
 20
78.187337521541764
 30
0.0
 11
28.5
 21
79.687337521541764
 31
0.0
  0
LINE
  5
33CD1
  8
0
  6
CONTINUOUS
 62
     0
 10
30.0
 20
78.894444302728303
 30
0.0
 11
28.5
 21
80.394444302728303
 31
0.0
  0
LINE
  5
33CD2
  8
0
  6
CONTINUOUS
 62
     0
 10
30.0
 20
79.601551083914842
 30
0.0
 11
28.5
 21
81.101551083914842
 31
0.0
  0
LINE
  5
33CD3
  8
0
  6
CONTINUOUS
 62
     0
 10
30.0
 20
80.308657865101395
 30
0.0
 11
28.5
 21
81.808657865101424
 31
0.0
  0
LINE
  5
33CD4
  8
0
  6
CONTINUOUS
 62
     0
 10
30.0
 20
81.015764646287934
 30
0.0
 11
28.5
 21
82.515764646287934
 31
0.0
  0
LINE
  5
33CD5
  8
0
  6
CONTINUOUS
 62
     0
 10
30.0
 20
81.722871427474502
 30
0.0
 11
28.806945377183371
 21
82.915926050291134
 31
0.0
  0
LINE
  5
33CD6
  8
0
  6
CONTINUOUS
 62
     0
 10
30.0
 20
82.429978208661055
 30
0.0
 11
29.43086312528915
 21
82.999115083371876
 31
0.0
  0
ENDBLK
  5
33CD7
  8
0
  0
BLOCK
  8
0
  2
*X6
 70
     1
 10
0.0
 20
0.0
 30
0.0
  3
*X6
  1

  0
LINE
  5
33CDA
  8
0
  6
CONTINUOUS
 62
     0
 10
28.5
 20
44.056349186104043
 30
0.0
 11
30.0
 21
45.556349186104043
 31
0.0
  0
LINE
  5
33CDB
  8
0
  6
CONTINUOUS
 62
     0
 10
28.5
 20
44.763455967290582
 30
0.0
 11
30.0
 21
46.263455967290582
 31
0.0
  0
LINE
  5
33CDC
  8
0
  6
CONTINUOUS
 62
     0
 10
28.5
 20
45.470562748477143
 30
0.0
 11
30.0
 21
46.970562748477128
 31
0.0
  0
LINE
  5
33CDD
  8
0
  6
CONTINUOUS
 62
     0
 10
28.5
 20
46.177669529663689
 30
0.0
 11
30.0
 21
47.677669529663667
 31
0.0
  0
LINE
  5
33CDE
  8
0
  6
CONTINUOUS
 62
     0
 10
28.5
 20
46.884776310850242
 30
0.0
 11
30.0
 21
48.384776310850228
 31
0.0
  0
LINE
  5
33CDF
  8
0
  6
CONTINUOUS
 62
     0
 10
28.5
 20
47.591883092036781
 30
0.0
 11
30.0
 21
49.091883092036781
 31
0.0
  0
LINE
  5
33CE0
  8
0
  6
CONTINUOUS
 62
     0
 10
28.5
 20
48.298989873223327
 30
0.0
 11
30.0
 21
49.79898987322332
 31
0.0
  0
LINE
  5
33CE1
  8
0
  6
CONTINUOUS
 62
     0
 10
28.5
 20
49.00609665440988
 30
0.0
 11
30.0
 21
50.506096654409873
 31
0.0
  0
LINE
  5
33CE2
  8
0
  6
CONTINUOUS
 62
     0
 10
28.5
 20
49.713203435596419
 30
0.0
 11
30.0
 21
51.213203435596412
 31
0.0
  0
LINE
  5
33CE3
  8
0
  6
CONTINUOUS
 62
     0
 10
28.5
 20
50.420310216782973
 30
0.0
 11
30.0
 21
51.920310216782958
 31
0.0
  0
LINE
  5
33CE4
  8
0
  6
CONTINUOUS
 62
     0
 10
28.5
 20
51.127416997969519
 30
0.0
 11
30.0
 21
52.627416997969512
 31
0.0
  0
LINE
  5
33CE5
  8
0
  6
CONTINUOUS
 62
     0
 10
28.5
 20
51.834523779156072
 30
0.0
 11
30.0
 21
53.334523779156058
 31
0.0
  0
LINE
  5
33CE6
  8
0
  6
CONTINUOUS
 62
     0
 10
28.5
 20
52.541630560342611
 30
0.0
 11
30.0
 21
54.041630560342611
 31
0.0
  0
LINE
  5
33CE7
  8
0
  6
CONTINUOUS
 62
     0
 10
28.5
 20
53.248737341529157
 30
0.0
 11
30.0
 21
54.74873734152915
 31
0.0
  0
LINE
  5
33CE8
  8
0
  6
CONTINUOUS
 62
     0
 10
28.5
 20
53.95584412271571
 30
0.0
 11
30.0
 21
55.455844122715703
 31
0.0
  0
LINE
  5
33CE9
  8
0
  6
CONTINUOUS
 62
     0
 10
28.5
 20
54.662950903902249
 30
0.0
 11
30.0
 21
56.162950903902257
 31
0.0
  0
LINE
  5
33CEA
  8
0
  6
CONTINUOUS
 62
     0
 10
28.5
 20
55.370057685088803
 30
0.0
 11
30.0
 21
56.870057685088767
 31
0.0
  0
LINE
  5
33CEB
  8
0
  6
CONTINUOUS
 62
     0
 10
28.5
 20
56.077164466275342
 30
0.0
 11
29.922835533724641
 21
57.5
 31
0.0
  0
LINE
  5
33CEC
  8
0
  6
CONTINUOUS
 62
     0
 10
28.5
 20
56.784271247461888
 30
0.0
 11
29.215728752538102
 21
57.5
 31
0.0
  0
LINE
  5
33CED
  8
0
  6
CONTINUOUS
 62
     0
 10
28.5
 20
57.491378028648441
 30
0.0
 11
28.508621971351548
 21
57.5
 31
0.0
  0
LINE
  5
33CEE
  8
0
  6
CONTINUOUS
 62
     0
 10
28.5
 20
43.34924240491749
 30
0.0
 11
30.0
 21
44.84924240491749
 31
0.0
  0
LINE
  5
33CEF
  8
0
  6
CONTINUOUS
 62
     0
 10
28.5
 20
42.642135623730958
 30
0.0
 11
30.0
 21
44.142135623730937
 31
0.0
  0
LINE
  5
33CF0
  8
0
  6
CONTINUOUS
 62
     0
 10
28.5
 20
41.935028842544391
 30
0.0
 11
30.0
 21
43.435028842544398
 31
0.0
  0
LINE
  5
33CF1
  8
0
  6
CONTINUOUS
 62
     0
 10
28.5
 20
41.227922061357852
 30
0.0
 11
30.0
 21
42.727922061357852
 31
0.0
  0
LINE
  5
33CF2
  8
0
  6
CONTINUOUS
 62
     0
 10
28.5
 20
40.520815280171277
 30
0.0
 11
30.0
 21
42.020815280171313
 31
0.0
  0
LINE
  5
33CF3
  8
0
  6
CONTINUOUS
 62
     0
 10
28.5
 20
39.813708498984759
 30
0.0
 11
30.0
 21
41.313708498984759
 31
0.0
  0
LINE
  5
33CF4
  8
0
  6
CONTINUOUS
 62
     0
 10
28.5
 20
39.106601717798199
 30
0.0
 11
30.0
 21
40.606601717798199
 31
0.0
  0
LINE
  5
33CF5
  8
0
  6
CONTINUOUS
 62
     0
 10
28.5
 20
38.39949493661166
 30
0.0
 11
30.0
 21
39.89949493661166
 31
0.0
  0
LINE
  5
33CF6
  8
0
  6
CONTINUOUS
 62
     0
 10
28.5
 20
37.6923881554251
 30
0.0
 11
30.0
 21
39.192388155425093
 31
0.0
  0
LINE
  5
33CF7
  8
0
  6
CONTINUOUS
 62
     0
 10
28.5
 20
36.985281374238561
 30
0.0
 11
30.0
 21
38.485281374238568
 31
0.0
  0
LINE
  5
33CF8
  8
0
  6
CONTINUOUS
 62
     0
 10
28.5
 20
36.278174593052
 30
0.0
 11
30.0
 21
37.778174593052
 31
0.0
  0
LINE
  5
33CF9
  8
0
  6
CONTINUOUS
 62
     0
 10
28.5
 20
35.571067811865468
 30
0.0
 11
30.0
 21
37.071067811865468
 31
0.0
  0
LINE
  5
33CFA
  8
0
  6
CONTINUOUS
 62
     0
 10
28.5
 20
34.863961030678922
 30
0.0
 11
30.0
 21
36.363961030678922
 31
0.0
  0
LINE
  5
33CFB
  8
0
  6
CONTINUOUS
 62
     0
 10
28.5
 20
34.156854249492369
 30
0.0
 11
30.0
 21
35.656854249492362
 31
0.0
  0
LINE
  5
33CFC
  8
0
  6
CONTINUOUS
 62
     0
 10
28.5
 20
33.449747468305823
 30
0.0
 11
30.0
 21
34.949747468305823
 31
0.0
  0
LINE
  5
33CFD
  8
0
  6
CONTINUOUS
 62
     0
 10
28.616787629012371
 20
32.859428316131677
 30
0.0
 11
30.0
 21
34.24264068711927
 31
0.0
  0
LINE
  5
33CFE
  8
0
  6
CONTINUOUS
 62
     0
 10
29.240705377118172
 20
32.776239283050913
 30
0.0
 11
30.0
 21
33.535533905932731
 31
0.0
  0
LINE
  5
33CFF
  8
0
  6
CONTINUOUS
 62
     0
 10
29.86462312522395
 20
32.693050249970142
 30
0.0
 11
30.0
 21
32.828427124746192
 31
0.0
  0
LINE
  5
33D00
  8
0
  6
CONTINUOUS
 62
     0
 10
30.0
 20
44.246212024587471
 30
0.0
 11
28.5
 21
45.746212024587479
 31
0.0
  0
LINE
  5
33D01
  8
0
  6
CONTINUOUS
 62
     0
 10
30.0
 20
43.539105243400932
 30
0.0
 11
28.5
 21
45.03910524340094
 31
0.0
  0
LINE
  5
33D02
  8
0
  6
CONTINUOUS
 62
     0
 10
30.0
 20
42.831998462214337
 30
0.0
 11
28.5
 21
44.331998462214393
 31
0.0
  0
LINE
  5
33D03
  8
0
  6
CONTINUOUS
 62
     0
 10
30.0
 20
42.124891681027812
 30
0.0
 11
28.5
 21
43.62489168102784
 31
0.0
  0
LINE
  5
33D04
  8
0
  6
CONTINUOUS
 62
     0
 10
30.0
 20
41.417784899841287
 30
0.0
 11
28.5
 21
42.917784899841273
 31
0.0
  0
LINE
  5
33D05
  8
0
  6
CONTINUOUS
 62
     0
 10
30.0
 20
40.710678118654712
 30
0.0
 11
28.5
 21
42.210678118654727
 31
0.0
  0
LINE
  5
33D06
  8
0
  6
CONTINUOUS
 62
     0
 10
30.0
 20
40.003571337468202
 30
0.0
 11
28.5
 21
41.503571337468202
 31
0.0
  0
LINE
  5
33D07
  8
0
  6
CONTINUOUS
 62
     0
 10
30.0
 20
39.296464556281641
 30
0.0
 11
28.5
 21
40.796464556281627
 31
0.0
  0
LINE
  5
33D08
  8
0
  6
CONTINUOUS
 62
     0
 10
30.0
 20
38.589357775095102
 30
0.0
 11
28.5
 21
40.089357775095102
 31
0.0
  0
LINE
  5
33D09
  8
0
  6
CONTINUOUS
 62
     0
 10
30.0
 20
37.882250993908549
 30
0.0
 11
28.5
 21
39.382250993908549
 31
0.0
  0
LINE
  5
33D0A
  8
0
  6
CONTINUOUS
 62
     0
 10
30.0
 20
37.175144212722003
 30
0.0
 11
28.5
 21
38.675144212722003
 31
0.0
  0
LINE
  5
33D0B
  8
0
  6
CONTINUOUS
 62
     0
 10
30.0
 20
36.468037431535457
 30
0.0
 11
28.5
 21
37.96803743153545
 31
0.0
  0
LINE
  5
33D0C
  8
0
  6
CONTINUOUS
 62
     0
 10
30.0
 20
35.76093065034889
 30
0.0
 11
28.5
 21
37.260930650348897
 31
0.0
  0
LINE
  5
33D0D
  8
0
  6
CONTINUOUS
 62
     0
 10
30.0
 20
35.05382386916235
 30
0.0
 11
28.5
 21
36.55382386916235
 31
0.0
  0
LINE
  5
33D0E
  8
0
  6
CONTINUOUS
 62
     0
 10
30.0
 20
34.346717087975819
 30
0.0
 11
28.5
 21
35.846717087975811
 31
0.0
  0
LINE
  5
33D0F
  8
0
  6
CONTINUOUS
 62
     0
 10
30.0
 20
33.639610306789272
 30
0.0
 11
28.5
 21
35.139610306789272
 31
0.0
  0
LINE
  5
33D10
  8
0
  6
CONTINUOUS
 62
     0
 10
30.0
 20
32.932503525602719
 30
0.0
 11
28.5
 21
34.432503525602719
 31
0.0
  0
LINE
  5
33D11
  8
0
  6
CONTINUOUS
 62
     0
 10
29.481227012787901
 20
32.744169731628283
 30
0.0
 11
28.5
 21
33.72539674441618
 31
0.0
  0
LINE
  5
33D12
  8
0
  6
CONTINUOUS
 62
     0
 10
28.665334572957271
 20
32.852955390272363
 30
0.0
 11
28.5
 21
33.01828996322962
 31
0.0
  0
LINE
  5
33D13
  8
0
  6
CONTINUOUS
 62
     0
 10
30.0
 20
44.953318805774032
 30
0.0
 11
28.5
 21
46.453318805774032
 31
0.0
  0
LINE
  5
33D14
  8
0
  6
CONTINUOUS
 62
     0
 10
30.0
 20
45.660425586960557
 30
0.0
 11
28.5
 21
47.160425586960592
 31
0.0
  0
LINE
  5
33D15
  8
0
  6
CONTINUOUS
 62
     0
 10
30.0
 20
46.367532368147103
 30
0.0
 11
28.5
 21
47.867532368147131
 31
0.0
  0
LINE
  5
33D16
  8
0
  6
CONTINUOUS
 62
     0
 10
30.0
 20
47.07463914933367
 30
0.0
 11
28.5
 21
48.574639149333677
 31
0.0
  0
LINE
  5
33D17
  8
0
  6
CONTINUOUS
 62
     0
 10
30.0
 20
47.781745930520202
 30
0.0
 11
28.5
 21
49.281745930520209
 31
0.0
  0
LINE
  5
33D18
  8
0
  6
CONTINUOUS
 62
     0
 10
30.0
 20
48.48885271170677
 30
0.0
 11
28.5
 21
49.98885271170677
 31
0.0
  0
LINE
  5
33D19
  8
0
  6
CONTINUOUS
 62
     0
 10
30.0
 20
49.195959492893287
 30
0.0
 11
28.5
 21
50.695959492893323
 31
0.0
  0
LINE
  5
33D1A
  8
0
  6
CONTINUOUS
 62
     0
 10
30.0
 20
49.903066274079848
 30
0.0
 11
28.5
 21
51.403066274079841
 31
0.0
  0
LINE
  5
33D1B
  8
0
  6
CONTINUOUS
 62
     0
 10
30.0
 20
50.610173055266401
 30
0.0
 11
28.5
 21
52.110173055266422
 31
0.0
  0
LINE
  5
33D1C
  8
0
  6
CONTINUOUS
 62
     0
 10
30.0
 20
51.317279836452947
 30
0.0
 11
28.5
 21
52.817279836452961
 31
0.0
  0
LINE
  5
33D1D
  8
0
  6
CONTINUOUS
 62
     0
 10
30.0
 20
52.0243866176395
 30
0.0
 11
28.5
 21
53.5243866176395
 31
0.0
  0
LINE
  5
33D1E
  8
0
  6
CONTINUOUS
 62
     0
 10
30.0
 20
52.731493398826032
 30
0.0
 11
28.5
 21
54.231493398826061
 31
0.0
  0
LINE
  5
33D1F
  8
0
  6
CONTINUOUS
 62
     0
 10
30.0
 20
53.4386001800126
 30
0.0
 11
28.5
 21
54.9386001800126
 31
0.0
  0
LINE
  5
33D20
  8
0
  6
CONTINUOUS
 62
     0
 10
30.0
 20
54.145706961199139
 30
0.0
 11
28.5
 21
55.645706961199153
 31
0.0
  0
LINE
  5
33D21
  8
0
  6
CONTINUOUS
 62
     0
 10
30.0
 20
54.852813742385678
 30
0.0
 11
28.5
 21
56.352813742385692
 31
0.0
  0
LINE
  5
33D22
  8
0
  6
CONTINUOUS
 62
     0
 10
30.0
 20
55.559920523572217
 30
0.0
 11
28.5
 21
57.059920523572238
 31
0.0
  0
LINE
  5
33D23
  8
0
  6
CONTINUOUS
 62
     0
 10
30.0
 20
56.26702730475877
 30
0.0
 11
28.767027304758781
 21
57.5
 31
0.0
  0
LINE
  5
33D24
  8
0
  6
CONTINUOUS
 62
     0
 10
30.0
 20
56.97413408594533
 30
0.0
 11
29.47413408594533
 21
57.5
 31
0.0
  0
ENDBLK
  5
33D25
  8
0
  0
BLOCK
  8
0
  2
*X7
 70
     1
 10
0.0
 20
0.0
 30
0.0
  3
*X7
  1

  0
LINE
  5
33D28
  8
0
  6
CONTINUOUS
 62
     0
 10
30.0
 20
39.89949493661166
 30
0.0
 11
31.499999999999989
 21
41.399494936611639
 31
0.0
  0
LINE
  5
33D29
  8
0
  6
CONTINUOUS
 62
     0
 10
40.75
 20
50.649494936611667
 30
0.0
 11
42.25
 21
52.14949493661166
 31
0.0
  0
LINE
  5
33D2A
  8
0
  6
CONTINUOUS
 62
     0
 10
30.0
 20
40.606601717798199
 30
0.0
 11
31.499999999999989
 21
42.106601717798199
 31
0.0
  0
LINE
  5
33D2B
  8
0
  6
CONTINUOUS
 62
     0
 10
40.75
 20
51.35660171779822
 30
0.0
 11
42.25
 21
52.856601717798213
 31
0.0
  0
LINE
  5
33D2C
  8
0
  6
CONTINUOUS
 62
     0
 10
30.0
 20
41.313708498984759
 30
0.0
 11
31.5
 21
42.813708498984752
 31
0.0
  0
LINE
  5
33D2D
  8
0
  6
CONTINUOUS
 62
     0
 10
40.75
 20
52.063708498984759
 30
0.0
 11
42.25
 21
53.563708498984759
 31
0.0
  0
LINE
  5
33D2E
  8
0
  6
CONTINUOUS
 62
     0
 10
30.0
 20
42.020815280171313
 30
0.0
 11
31.5
 21
43.520815280171291
 31
0.0
  0
LINE
  5
33D2F
  8
0
  6
CONTINUOUS
 62
     0
 10
40.75
 20
52.770815280171313
 30
0.0
 11
42.091684719828677
 21
54.11249999999999
 31
0.0
  0
LINE
  5
33D30
  8
0
  6
CONTINUOUS
 62
     0
 10
30.0
 20
42.727922061357852
 30
0.0
 11
31.5
 21
44.227922061357852
 31
0.0
  0
LINE
  5
33D31
  8
0
  6
CONTINUOUS
 62
     0
 10
40.75
 20
53.477922061357852
 30
0.0
 11
41.384577938642131
 21
54.11249999999999
 31
0.0
  0
LINE
  5
33D32
  8
0
  6
CONTINUOUS
 62
     0
 10
30.0
 20
43.435028842544398
 30
0.0
 11
31.5
 21
44.935028842544376
 31
0.0
  0
LINE
  5
33D33
  8
0
  6
CONTINUOUS
 62
     0
 10
30.0
 20
44.142135623730937
 30
0.0
 11
31.5
 21
45.642135623730972
 31
0.0
  0
LINE
  5
33D34
  8
0
  6
CONTINUOUS
 62
     0
 10
30.0
 20
44.84924240491749
 30
0.0
 11
31.5
 21
46.34924240491749
 31
0.0
  0
LINE
  5
33D35
  8
0
  6
CONTINUOUS
 62
     0
 10
30.0
 20
45.556349186104043
 30
0.0
 11
31.5
 21
47.056349186104043
 31
0.0
  0
LINE
  5
33D36
  8
0
  6
CONTINUOUS
 62
     0
 10
30.0
 20
46.263455967290582
 30
0.0
 11
31.5
 21
47.763455967290582
 31
0.0
  0
LINE
  5
33D37
  8
0
  6
CONTINUOUS
 62
     0
 10
30.0
 20
46.970562748477128
 30
0.0
 11
31.5
 21
48.470562748477128
 31
0.0
  0
LINE
  5
33D38
  8
0
  6
CONTINUOUS
 62
     0
 10
30.0
 20
47.677669529663667
 30
0.0
 11
31.5
 21
49.177669529663689
 31
0.0
  0
LINE
  5
33D39
  8
0
  6
CONTINUOUS
 62
     0
 10
30.0
 20
48.384776310850228
 30
0.0
 11
31.5
 21
49.884776310850221
 31
0.0
  0
LINE
  5
33D3A
  8
0
  6
CONTINUOUS
 62
     0
 10
30.0
 20
49.091883092036781
 30
0.0
 11
31.5
 21
50.591883092036781
 31
0.0
  0
LINE
  5
33D3B
  8
0
  6
CONTINUOUS
 62
     0
 10
30.0
 20
49.79898987322332
 30
0.0
 11
31.5
 21
51.298989873223327
 31
0.0
  0
LINE
  5
33D3C
  8
0
  6
CONTINUOUS
 62
     0
 10
30.0
 20
50.506096654409887
 30
0.0
 11
31.5
 21
52.006096654409887
 31
0.0
  0
LINE
  5
33D3D
  8
0
  6
CONTINUOUS
 62
     0
 10
30.0
 20
51.213203435596412
 30
0.0
 11
31.5
 21
52.713203435596419
 31
0.0
  0
LINE
  5
33D3E
  8
0
  6
CONTINUOUS
 62
     0
 10
30.0
 20
51.920310216782973
 30
0.0
 11
31.5
 21
53.420310216782973
 31
0.0
  0
LINE
  5
33D3F
  8
0
  6
CONTINUOUS
 62
     0
 10
30.0
 20
52.627416997969519
 30
0.0
 11
31.485083002030478
 21
54.112500000000011
 31
0.0
  0
LINE
  5
33D40
  8
0
  6
CONTINUOUS
 62
     0
 10
30.0
 20
53.334523779156058
 30
0.0
 11
30.777976220843929
 21
54.112500000000011
 31
0.0
  0
LINE
  5
33D41
  8
0
  6
CONTINUOUS
 62
     0
 10
30.0
 20
54.041630560342611
 30
0.0
 11
30.07086943965739
 21
54.112500000000011
 31
0.0
  0
LINE
  5
33D42
  8
0
  6
CONTINUOUS
 62
     0
 10
30.0
 20
39.192388155425093
 30
0.0
 11
31.499999999999989
 21
40.692388155425107
 31
0.0
  0
LINE
  5
33D43
  8
0
  6
CONTINUOUS
 62
     0
 10
40.75
 20
49.942388155425121
 30
0.0
 11
42.25
 21
51.442388155425121
 31
0.0
  0
LINE
  5
33D44
  8
0
  6
CONTINUOUS
 62
     0
 10
30.377218625761412
 20
38.862499999999997
 30
0.0
 11
31.499999999999989
 21
39.985281374238568
 31
0.0
  0
LINE
  5
33D45
  8
0
  6
CONTINUOUS
 62
     0
 10
40.75
 20
49.235281374238582
 30
0.0
 11
42.25
 21
50.735281374238561
 31
0.0
  0
LINE
  5
33D46
  8
0
  6
CONTINUOUS
 62
     0
 10
31.084325406947968
 20
38.862499999999997
 30
0.0
 11
31.499999999999989
 21
39.278174593052007
 31
0.0
  0
LINE
  5
33D47
  8
0
  6
CONTINUOUS
 62
     0
 10
40.75
 20
48.528174593052022
 30
0.0
 11
42.25
 21
50.028174593052022
 31
0.0
  0
LINE
  5
33D48
  8
0
  6
CONTINUOUS
 62
     0
 10
40.75
 20
47.821067811865483
 30
0.0
 11
42.25
 21
49.321067811865461
 31
0.0
  0
LINE
  5
33D49
  8
0
  6
CONTINUOUS
 62
     0
 10
40.75
 20
47.113961030678929
 30
0.0
 11
42.25
 21
48.613961030678922
 31
0.0
  0
LINE
  5
33D4A
  8
0
  6
CONTINUOUS
 62
     0
 10
40.75
 20
46.406854249492369
 30
0.0
 11
42.25
 21
47.906854249492369
 31
0.0
  0
LINE
  5
33D4B
  8
0
  6
CONTINUOUS
 62
     0
 10
40.75
 20
45.699747468305837
 30
0.0
 11
42.25
 21
47.199747468305809
 31
0.0
  0
LINE
  5
33D4C
  8
0
  6
CONTINUOUS
 62
     0
 10
40.75
 20
44.992640687119291
 30
0.0
 11
42.25
 21
46.492640687119291
 31
0.0
  0
LINE
  5
33D4D
  8
0
  6
CONTINUOUS
 62
     0
 10
40.75
 20
44.285533905932724
 30
0.0
 11
42.25
 21
45.785533905932724
 31
0.0
  0
LINE
  5
33D4E
  8
0
  6
CONTINUOUS
 62
     0
 10
40.75
 20
43.578427124746192
 30
0.0
 11
42.25
 21
45.078427124746177
 31
0.0
  0
LINE
  5
33D4F
  8
0
  6
CONTINUOUS
 62
     0
 10
40.75
 20
42.871320343559638
 30
0.0
 11
42.25
 21
44.371320343559638
 31
0.0
  0
LINE
  5
33D50
  8
0
  6
CONTINUOUS
 62
     0
 10
40.75
 20
42.164213562373092
 30
0.0
 11
42.25
 21
43.664213562373092
 31
0.0
  0
LINE
  5
33D51
  8
0
  6
CONTINUOUS
 62
     0
 10
40.75
 20
41.457106781186532
 30
0.0
 11
42.25
 21
42.957106781186532
 31
0.0
  0
LINE
  5
33D52
  8
0
  6
CONTINUOUS
 62
     0
 10
40.75
 20
40.75
 30
0.0
 11
42.25
 21
42.25
 31
0.0
  0
LINE
  5
33D53
  8
0
  6
CONTINUOUS
 62
     0
 10
40.75
 20
40.042893218813447
 30
0.0
 11
42.25
 21
41.542893218813447
 31
0.0
  0
LINE
  5
33D54
  8
0
  6
CONTINUOUS
 62
     0
 10
40.75
 20
39.335786437626901
 30
0.0
 11
42.25
 21
40.835786437626908
 31
0.0
  0
LINE
  5
33D55
  8
0
  6
CONTINUOUS
 62
     0
 10
40.983820343559643
 20
38.862499999999997
 30
0.0
 11
42.25
 21
40.128679656440362
 31
0.0
  0
LINE
  5
33D56
  8
0
  6
CONTINUOUS
 62
     0
 10
41.690927124746167
 20
38.862499999999997
 30
0.0
 11
42.25
 21
39.421572875253808
 31
0.0
  0
LINE
  5
33D57
  8
0
  6
CONTINUOUS
 62
     0
 10
42.25
 20
39.774386617639507
 30
0.0
 11
40.75
 21
41.2743866176395
 31
0.0
  0
LINE
  5
33D58
  8
0
  6
CONTINUOUS
 62
     0
 10
31.5
 20
50.5243866176395
 30
0.0
 11
30.0
 21
52.0243866176395
 31
0.0
  0
LINE
  5
33D59
  8
0
  6
CONTINUOUS
 62
     0
 10
42.25
 20
39.067279836452961
 30
0.0
 11
40.75
 21
40.567279836452968
 31
0.0
  0
LINE
  5
33D5A
  8
0
  6
CONTINUOUS
 62
     0
 10
31.5
 20
49.817279836452961
 30
0.0
 11
30.0
 21
51.317279836452968
 31
0.0
  0
LINE
  5
33D5B
  8
0
  6
CONTINUOUS
 62
     0
 10
41.747673055266382
 20
38.862499999999997
 30
0.0
 11
40.75
 21
39.860173055266401
 31
0.0
  0
LINE
  5
33D5C
  8
0
  6
CONTINUOUS
 62
     0
 10
31.5
 20
49.110173055266408
 30
0.0
 11
30.0
 21
50.610173055266401
 31
0.0
  0
LINE
  5
33D5D
  8
0
  6
CONTINUOUS
 62
     0
 10
41.04056627407985
 20
38.862499999999997
 30
0.0
 11
40.75
 21
39.153066274079869
 31
0.0
  0
LINE
  5
33D5E
  8
0
  6
CONTINUOUS
 62
     0
 10
31.5
 20
48.403066274079862
 30
0.0
 11
30.0
 21
49.903066274079848
 31
0.0
  0
LINE
  5
33D5F
  8
0
  6
CONTINUOUS
 62
     0
 10
31.5
 20
47.69595949289328
 30
0.0
 11
30.0
 21
49.195959492893323
 31
0.0
  0
LINE
  5
33D60
  8
0
  6
CONTINUOUS
 62
     0
 10
31.5
 20
46.988852711706762
 30
0.0
 11
30.0
 21
48.488852711706777
 31
0.0
  0
LINE
  5
33D61
  8
0
  6
CONTINUOUS
 62
     0
 10
31.499999999999989
 20
46.281745930520223
 30
0.0
 11
30.0
 21
47.781745930520231
 31
0.0
  0
LINE
  5
33D62
  8
0
  6
CONTINUOUS
 62
     0
 10
31.499999999999989
 20
45.57463914933367
 30
0.0
 11
30.0
 21
47.07463914933367
 31
0.0
  0
LINE
  5
33D63
  8
0
  6
CONTINUOUS
 62
     0
 10
31.499999999999989
 20
44.867532368147117
 30
0.0
 11
30.0
 21
46.367532368147153
 31
0.0
  0
LINE
  5
33D64
  8
0
  6
CONTINUOUS
 62
     0
 10
31.499999999999989
 20
44.160425586960578
 30
0.0
 11
30.0
 21
45.660425586960578
 31
0.0
  0
LINE
  5
33D65
  8
0
  6
CONTINUOUS
 62
     0
 10
31.499999999999989
 20
43.453318805774032
 30
0.0
 11
30.0
 21
44.953318805774039
 31
0.0
  0
LINE
  5
33D66
  8
0
  6
CONTINUOUS
 62
     0
 10
31.499999999999989
 20
42.746212024587493
 30
0.0
 11
30.0
 21
44.246212024587471
 31
0.0
  0
LINE
  5
33D67
  8
0
  6
CONTINUOUS
 62
     0
 10
31.499999999999989
 20
42.03910524340094
 30
0.0
 11
30.0
 21
43.539105243400932
 31
0.0
  0
LINE
  5
33D68
  8
0
  6
CONTINUOUS
 62
     0
 10
31.499999999999989
 20
41.331998462214358
 30
0.0
 11
30.0
 21
42.831998462214337
 31
0.0
  0
LINE
  5
33D69
  8
0
  6
CONTINUOUS
 62
     0
 10
31.499999999999989
 20
40.62489168102784
 30
0.0
 11
30.0
 21
42.124891681027812
 31
0.0
  0
LINE
  5
33D6A
  8
0
  6
CONTINUOUS
 62
     0
 10
31.499999999999989
 20
39.917784899841273
 30
0.0
 11
30.0
 21
41.417784899841301
 31
0.0
  0
LINE
  5
33D6B
  8
0
  6
CONTINUOUS
 62
     0
 10
31.499999999999989
 20
39.210678118654727
 30
0.0
 11
30.0
 21
40.710678118654712
 31
0.0
  0
LINE
  5
33D6C
  8
0
  6
CONTINUOUS
 62
     0
 10
31.141071337468201
 20
38.862499999999997
 30
0.0
 11
30.0
 21
40.003571337468202
 31
0.0
  0
LINE
  5
33D6D
  8
0
  6
CONTINUOUS
 62
     0
 10
30.433964556281641
 20
38.862499999999997
 30
0.0
 11
30.0
 21
39.296464556281641
 31
0.0
  0
LINE
  5
33D6E
  8
0
  6
CONTINUOUS
 62
     0
 10
42.25
 20
40.481493398826061
 30
0.0
 11
40.75
 21
41.981493398826061
 31
0.0
  0
LINE
  5
33D6F
  8
0
  6
CONTINUOUS
 62
     0
 10
31.5
 20
51.231493398826053
 30
0.0
 11
30.0
 21
52.731493398826068
 31
0.0
  0
LINE
  5
33D70
  8
0
  6
CONTINUOUS
 62
     0
 10
42.25
 20
41.188600180012592
 30
0.0
 11
40.75
 21
42.688600180012607
 31
0.0
  0
LINE
  5
33D71
  8
0
  6
CONTINUOUS
 62
     0
 10
31.5
 20
51.938600180012592
 30
0.0
 11
30.0
 21
53.438600180012621
 31
0.0
  0
LINE
  5
33D72
  8
0
  6
CONTINUOUS
 62
     0
 10
42.25
 20
41.895706961199153
 30
0.0
 11
40.75
 21
43.395706961199153
 31
0.0
  0
LINE
  5
33D73
  8
0
  6
CONTINUOUS
 62
     0
 10
31.5
 20
52.645706961199139
 30
0.0
 11
30.033206961199149
 21
54.112500000000011
 31
0.0
  0
LINE
  5
33D74
  8
0
  6
CONTINUOUS
 62
     0
 10
42.25
 20
42.602813742385692
 30
0.0
 11
40.75
 21
44.102813742385713
 31
0.0
  0
LINE
  5
33D75
  8
0
  6
CONTINUOUS
 62
     0
 10
31.5
 20
53.352813742385699
 30
0.0
 11
30.740313742385691
 21
54.112500000000011
 31
0.0
  0
LINE
  5
33D76
  8
0
  6
CONTINUOUS
 62
     0
 10
42.25
 20
43.309920523572202
 30
0.0
 11
40.75
 21
44.809920523572217
 31
0.0
  0
LINE
  5
33D77
  8
0
  6
CONTINUOUS
 62
     0
 10
31.5
 20
54.059920523572217
 30
0.0
 11
31.44742052357223
 21
54.112500000000011
 31
0.0
  0
LINE
  5
33D78
  8
0
  6
CONTINUOUS
 62
     0
 10
42.25
 20
44.017027304758777
 30
0.0
 11
40.75
 21
45.51702730475877
 31
0.0
  0
LINE
  5
33D79
  8
0
  6
CONTINUOUS
 62
     0
 10
42.25
 20
44.724134085945323
 30
0.0
 11
40.75
 21
46.224134085945337
 31
0.0
  0
LINE
  5
33D7A
  8
0
  6
CONTINUOUS
 62
     0
 10
42.25
 20
45.431240867131883
 30
0.0
 11
40.75
 21
46.931240867131883
 31
0.0
  0
LINE
  5
33D7B
  8
0
  6
CONTINUOUS
 62
     0
 10
42.25
 20
46.138347648318423
 30
0.0
 11
40.75
 21
47.638347648318437
 31
0.0
  0
LINE
  5
33D7C
  8
0
  6
CONTINUOUS
 62
     0
 10
42.25
 20
46.845454429504947
 30
0.0
 11
40.75
 21
48.345454429504969
 31
0.0
  0
LINE
  5
33D7D
  8
0
  6
CONTINUOUS
 62
     0
 10
42.25
 20
47.552561210691529
 30
0.0
 11
40.75
 21
49.052561210691529
 31
0.0
  0
LINE
  5
33D7E
  8
0
  6
CONTINUOUS
 62
     0
 10
42.25
 20
48.259667991878061
 30
0.0
 11
40.75
 21
49.759667991878082
 31
0.0
  0
LINE
  5
33D7F
  8
0
  6
CONTINUOUS
 62
     0
 10
42.25
 20
48.966774773064607
 30
0.0
 11
40.75
 21
50.466774773064607
 31
0.0
  0
LINE
  5
33D80
  8
0
  6
CONTINUOUS
 62
     0
 10
42.25
 20
49.67388155425116
 30
0.0
 11
40.75
 21
51.173881554251182
 31
0.0
  0
LINE
  5
33D81
  8
0
  6
CONTINUOUS
 62
     0
 10
42.25
 20
50.380988335437721
 30
0.0
 11
40.75
 21
51.880988335437721
 31
0.0
  0
LINE
  5
33D82
  8
0
  6
CONTINUOUS
 62
     0
 10
42.25
 20
51.08809511662426
 30
0.0
 11
40.75
 21
52.58809511662426
 31
0.0
  0
LINE
  5
33D83
  8
0
  6
CONTINUOUS
 62
     0
 10
42.25
 20
51.795201897810813
 30
0.0
 11
40.75
 21
53.295201897810813
 31
0.0
  0
LINE
  5
33D84
  8
0
  6
CONTINUOUS
 62
     0
 10
42.25
 20
52.502308678997373
 30
0.0
 11
40.75
 21
54.002308678997359
 31
0.0
  0
LINE
  5
33D85
  8
0
  6
CONTINUOUS
 62
     0
 10
42.25
 20
53.209415460183891
 30
0.0
 11
41.346915460183901
 21
54.11249999999999
 31
0.0
  0
LINE
  5
33D86
  8
0
  6
CONTINUOUS
 62
     0
 10
42.25
 20
53.916522241370458
 30
0.0
 11
42.054022241370468
 21
54.11249999999999
 31
0.0
  0
ENDBLK
  5
33D87
  8
0
  0
ENDSEC
  0
SECTION
  2
ENTITIES
  0
LINE
  5
33D88
  8
WAKU
  6
CONTINUOUS
 62
     3
 10
857.80809586784915
 20
1228.595910632632
 30
0.0
 11
868.5773238678496
 21
1228.595910632632
 31
0.0
  0
LINE
  5
33D89
  8
WAKU
  6
CONTINUOUS
 62
     3
 10
855.45628786784948
 20
1222.134374632632
 30
0.0
 11
866.22551586784925
 21
1222.134374632632
 31
0.0
  0
LINE
  5
33D8A
  8
WAKU
  6
CONTINUOUS
 62
     3
 10
844.32914386784944
 20
1205.765142632632
 30
0.0
 11
864.57529586784915
 21
1205.765142632632
 31
0.0
  0
LINE
  5
33D8B
  8
WAKU
  6
CONTINUOUS
 62
     3
 10
863.40334786784945
 20
1214.380526632631
 30
0.0
 11
866.22551586784925
 21
1222.134374632632
 31
0.0
  0
LINE
  5
33D8C
  8
WAKU
  6
CONTINUOUS
 62
     3
 10
754.65156786784939
 20
1233.7651426326311
 30
0.0
 11
771.76267586784945
 21
1233.7651426326311
 31
0.0
  0
LINE
  5
33D8D
  8
WAKU
  6
CONTINUOUS
 62
     3
 10
754.65156786784939
 20
1216.6540306326319
 30
0.0
 11
771.76267586784945
 21
1233.7651426326311
 31
0.0
  0
LINE
  5
33D8E
  8
WAKU
  6
CONTINUOUS
 62
     3
 10
754.65156786784939
 20
1233.7651426326311
 30
0.0
 11
754.65156786784939
 21
1216.6540306326319
 31
0.0
  0
LINE
  5
33D8F
  8
WAKU
  6
CONTINUOUS
 62
     3
 10
808.86586786784926
 20
1226.872834632632
 30
0.0
 11
817.55017586784925
 21
1226.872834632632
 31
0.0
  0
LINE
  5
33D90
  8
WAKU
  6
CONTINUOUS
 62
     3
 10
797.65877186784928
 20
1233.7651426326311
 30
0.0
 11
820.0587718678496
 21
1233.7651426326311
 31
0.0
  0
LINE
  5
33D91
  8
WAKU
  6
CONTINUOUS
 62
     3
 10
804.01171586784915
 20
1226.872834632632
 30
0.0
 11
791.38728386784942
 21
1216.5343746326321
 31
0.0
  0
LINE
  5
33D92
  8
WAKU
  6
CONTINUOUS
 62
     3
 10
808.86586786784926
 20
1226.872834632632
 30
0.0
 11
813.78728386784928
 21
1216.5343746326321
 31
0.0
  0
LINE
  5
33D93
  8
WAKU
  6
CONTINUOUS
 62
     3
 10
787.46760386784945
 20
1205.765142632632
 30
0.0
 11
791.38728386784942
 21
1216.5343746326321
 31
0.0
  0
LINE
  5
33D94
  8
WAKU
  6
CONTINUOUS
 62
     3
 10
800.35504386784953
 20
1216.318990632632
 30
0.0
 11
787.46760386784945
 21
1205.765142632632
 31
0.0
  0
LINE
  5
33D95
  8
WAKU
  6
CONTINUOUS
 62
     3
 10
809.86760386784965
 20
1205.765142632632
 30
0.0
 11
813.78728386784928
 21
1216.5343746326321
 31
0.0
  0
LINE
  5
33D96
  8
WAKU
  6
CONTINUOUS
 62
     3
 10
804.74113186784928
 20
1216.5343746326321
 30
0.0
 11
809.86760386784965
 21
1205.765142632632
 31
0.0
  0
LINE
  5
33D97
  8
WAKU
  6
CONTINUOUS
 62
     3
 10
800.82145186784965
 20
1205.765142632632
 30
0.0
 11
804.74113186784928
 21
1216.5343746326321
 31
0.0
  0
LINE
  5
33D98
  8
WAKU
  6
CONTINUOUS
 62
     3
 10
796.51375986784944
 20
1205.765142632632
 30
0.0
 11
800.82145186784965
 21
1205.765142632632
 31
0.0
  0
LINE
  5
33D99
  8
WAKU
  6
CONTINUOUS
 62
     3
 10
796.51375986784944
 20
1205.765142632632
 30
0.0
 11
800.35504386784953
 21
1216.318990632632
 31
0.0
  0
LINE
  5
33D9A
  8
WAKU
  6
CONTINUOUS
 62
     3
 10
795.15017586784893
 20
1226.872834632632
 30
0.0
 11
804.01171586784915
 21
1226.872834632632
 31
0.0
  0
LINE
  5
33D9B
  8
WAKU
  6
CONTINUOUS
 62
     3
 10
797.65877186784928
 20
1233.7651426326311
 30
0.0
 11
795.15017586784893
 21
1226.872834632632
 31
0.0
  0
LINE
  5
33D9C
  8
WAKU
  6
CONTINUOUS
 62
     3
 10
853.88841586784929
 20
1217.8266826326319
 30
0.0
 11
855.45628786784948
 21
1222.134374632632
 31
0.0
  0
LINE
  5
33D9D
  8
WAKU
  6
CONTINUOUS
 62
     3
 10
849.58072386784943
 20
1217.8266826326319
 30
0.0
 11
851.14859586784928
 21
1222.134374632632
 31
0.0
  0
LINE
  5
33D9E
  8
WAKU
  6
CONTINUOUS
 62
     3
 10
836.57529586784949
 20
1205.765142632632
 30
0.0
 11
839.71103986784942
 21
1214.380526632631
 31
0.0
  0
LINE
  5
33D9F
  8
WAKU
  6
CONTINUOUS
 62
     3
 10
818.17257986784944
 20
1214.380526632631
 30
0.0
 11
839.71103986784942
 21
1214.380526632631
 31
0.0
  0
LINE
  5
33DA0
  8
WAKU
  6
CONTINUOUS
 62
     3
 10
815.03683586784962
 20
1205.765142632632
 30
0.0
 11
818.17257986784944
 21
1214.380526632631
 31
0.0
  0
LINE
  5
33DA1
  8
WAKU
  6
CONTINUOUS
 62
     3
 10
815.03683586784962
 20
1205.765142632632
 30
0.0
 11
836.57529586784949
 21
1205.765142632632
 31
0.0
  0
LINE
  5
33DA2
  8
WAKU
  6
CONTINUOUS
 62
     3
 10
847.46488786784948
 20
1214.380526632631
 30
0.0
 11
863.40334786784945
 21
1214.380526632631
 31
0.0
  0
LINE
  5
33DA3
  8
WAKU
  6
CONTINUOUS
 62
     3
 10
849.58072386784943
 20
1217.8266826326319
 30
0.0
 11
853.88841586784929
 21
1217.8266826326319
 31
0.0
  0
LINE
  5
33DA4
  8
WAKU
  6
CONTINUOUS
 62
     3
 10
844.32914386784944
 20
1205.765142632632
 30
0.0
 11
847.46488786784948
 21
1214.380526632631
 31
0.0
  0
LINE
  5
33DA5
  8
WAKU
  6
CONTINUOUS
 62
     3
 10
822.71940786784933
 20
1226.872834632632
 30
0.0
 11
844.25786786784931
 21
1226.872834632632
 31
0.0
  0
LINE
  5
33DA6
  8
WAKU
  6
CONTINUOUS
 62
     3
 10
825.22800386784945
 20
1233.7651426326311
 30
0.0
 11
846.76646386784944
 21
1233.7651426326311
 31
0.0
  0
LINE
  5
33DA7
  8
WAKU
  6
CONTINUOUS
 62
     3
 10
822.71940786784933
 20
1226.872834632632
 30
0.0
 11
825.22800386784945
 21
1233.7651426326311
 31
0.0
  0
LINE
  5
33DA8
  8
WAKU
  6
CONTINUOUS
 62
     3
 10
820.0587718678496
 20
1233.7651426326311
 30
0.0
 11
817.55017586784925
 21
1226.872834632632
 31
0.0
  0
LINE
  5
33DA9
  8
WAKU
  6
CONTINUOUS
 62
     3
 10
855.38184786784916
 20
1233.7651426326311
 30
0.0
 11
859.68953986784959
 21
1233.7651426326311
 31
0.0
  0
LINE
  5
33DAA
  8
WAKU
  6
CONTINUOUS
 62
     3
 10
857.80809586784915
 20
1228.595910632632
 30
0.0
 11
859.68953986784959
 21
1233.7651426326311
 31
0.0
  0
LINE
  5
33DAB
  8
WAKU
  6
CONTINUOUS
 62
     3
 10
850.26963186784928
 20
1228.595910632632
 30
0.0
 11
853.50040386784929
 21
1228.595910632632
 31
0.0
  0
LINE
  5
33DAC
  8
WAKU
  6
CONTINUOUS
 62
     3
 10
847.91782386784962
 20
1222.134374632632
 30
0.0
 11
851.14859586784928
 21
1222.134374632632
 31
0.0
  0
LINE
  5
33DAD
  8
WAKU
  6
CONTINUOUS
 62
     3
 10
847.91782386784962
 20
1222.134374632632
 30
0.0
 11
850.26963186784928
 21
1228.595910632632
 31
0.0
  0
LINE
  5
33DAE
  8
WAKU
  6
CONTINUOUS
 62
     3
 10
853.50040386784929
 20
1228.595910632632
 30
0.0
 11
855.38184786784916
 21
1233.7651426326311
 31
0.0
  0
LINE
  5
33DAF
  8
WAKU
  6
CONTINUOUS
 62
     3
 10
844.25786786784931
 20
1226.872834632632
 30
0.0
 11
846.76646386784944
 21
1233.7651426326311
 31
0.0
  0
LINE
  5
33DB0
  8
WAKU
  6
CONTINUOUS
 62
     3
 10
905.77868386784928
 20
1224.2882186326319
 30
0.0
 11
918.70175986784955
 21
1224.2882186326319
 31
0.0
  0
LINE
  5
33DB1
  8
WAKU
  6
CONTINUOUS
 62
     3
 10
903.89723986784952
 20
1219.1189906326319
 30
0.0
 11
916.82031586784956
 21
1219.1189906326319
 31
0.0
  0
LINE
  5
33DB2
  8
WAKU
  6
CONTINUOUS
 62
     3
 10
920.5752958678496
 20
1205.765142632632
 30
0.0
 11
899.03683586784962
 21
1205.765142632632
 31
0.0
  0
LINE
  5
33DB3
  8
WAKU
  6
CONTINUOUS
 62
     3
 10
902.17257986784955
 20
1214.380526632631
 30
0.0
 11
919.40334786784945
 21
1214.380526632631
 31
0.0
  0
LINE
  5
33DB4
  8
WAKU
  6
CONTINUOUS
 62
     3
 10
906.71940786784955
 20
1226.872834632632
 30
0.0
 11
919.64248386784925
 21
1226.872834632632
 31
0.0
  0
LINE
  5
33DB5
  8
WAKU
  6
CONTINUOUS
 62
     3
 10
909.22800386784922
 20
1233.7651426326311
 30
0.0
 11
922.1510798678496
 21
1233.7651426326311
 31
0.0
  0
LINE
  5
33DB6
  8
WAKU
  6
CONTINUOUS
 62
     3
 10
877.89429586784945
 20
1218.688218632632
 30
0.0
 11
881.03003986784961
 21
1227.303602632632
 31
0.0
  0
LINE
  5
33DB7
  8
WAKU
  6
CONTINUOUS
 62
     3
 10
883.49429586784959
 20
1218.688218632632
 30
0.0
 11
886.63003986784929
 21
1227.303602632632
 31
0.0
  0
LINE
  5
33DB8
  8
WAKU
  6
CONTINUOUS
 62
     3
 10
882.20198786784965
 20
1218.688218632632
 30
0.0
 11
885.33773186784947
 21
1227.303602632632
 31
0.0
  0
LINE
  5
33DB9
  8
WAKU
  6
CONTINUOUS
 62
     3
 10
887.80198786784945
 20
1218.688218632632
 30
0.0
 11
890.93773186784961
 21
1227.303602632632
 31
0.0
  0
LINE
  5
33DBA
  8
WAKU
  6
CONTINUOUS
 62
     3
 10
890.42145186784956
 20
1205.765142632632
 30
0.0
 11
898.26081186784927
 21
1227.303602632632
 31
0.0
  0
LINE
  5
33DBB
  8
WAKU
  6
CONTINUOUS
 62
     3
 10
888.46556786784924
 20
1212.226682632632
 30
0.0
 11
893.95311586784942
 21
1227.303602632632
 31
0.0
  0
LINE
  5
33DBC
  8
WAKU
  6
CONTINUOUS
 62
     3
 10
864.57529586784915
 20
1205.765142632632
 30
0.0
 11
870.53321186784945
 21
1222.134374632632
 31
0.0
  0
LINE
  5
33DBD
  8
WAKU
  6
CONTINUOUS
 62
     3
 10
873.19068386784943
 20
1205.765142632632
 30
0.0
 11
890.42145186784956
 21
1205.765142632632
 31
0.0
  0
LINE
  5
33DBE
  8
WAKU
  6
CONTINUOUS
 62
     3
 10
877.89429586784945
 20
1218.688218632632
 30
0.0
 11
882.20198786784965
 21
1218.688218632632
 31
0.0
  0
LINE
  5
33DBF
  8
WAKU
  6
CONTINUOUS
 62
     3
 10
875.54248786784945
 20
1212.226682632632
 30
0.0
 11
888.46556786784924
 21
1212.226682632632
 31
0.0
  0
LINE
  5
33DC0
  8
WAKU
  6
CONTINUOUS
 62
     3
 10
873.19068386784943
 20
1205.765142632632
 30
0.0
 11
875.54248786784945
 21
1212.226682632632
 31
0.0
  0
LINE
  5
33DC1
  8
WAKU
  6
CONTINUOUS
 62
     3
 10
883.49429586784959
 20
1218.688218632632
 30
0.0
 11
887.80198786784945
 21
1218.688218632632
 31
0.0
  0
LINE
  5
33DC2
  8
WAKU
  6
CONTINUOUS
 62
     3
 10
899.03683586784962
 20
1205.765142632632
 30
0.0
 11
902.17257986784955
 21
1214.380526632631
 31
0.0
  0
LINE
  5
33DC3
  8
WAKU
  6
CONTINUOUS
 62
     3
 10
886.63003986784929
 20
1227.303602632632
 30
0.0
 11
890.93773186784961
 21
1227.303602632632
 31
0.0
  0
LINE
  5
33DC4
  8
WAKU
  6
CONTINUOUS
 62
     3
 10
870.45877186784924
 20
1233.7651426326311
 30
0.0
 11
874.76646386784955
 21
1233.7651426326311
 31
0.0
  0
LINE
  5
33DC5
  8
WAKU
  6
CONTINUOUS
 62
     3
 10
872.88501586784946
 20
1228.595910632632
 30
0.0
 11
874.76646386784955
 21
1233.7651426326311
 31
0.0
  0
LINE
  5
33DC6
  8
WAKU
  6
CONTINUOUS
 62
     3
 10
872.88501586784946
 20
1228.595910632632
 30
0.0
 11
876.11578786784958
 21
1228.595910632632
 31
0.0
  0
LINE
  5
33DC7
  8
WAKU
  6
CONTINUOUS
 62
     3
 10
870.53321186784945
 20
1222.134374632632
 30
0.0
 11
873.76397986784946
 21
1222.134374632632
 31
0.0
  0
LINE
  5
33DC8
  8
WAKU
  6
CONTINUOUS
 62
     3
 10
873.76397986784946
 20
1222.134374632632
 30
0.0
 11
876.11578786784958
 21
1228.595910632632
 31
0.0
  0
LINE
  5
33DC9
  8
WAKU
  6
CONTINUOUS
 62
     3
 10
881.03003986784961
 20
1227.303602632632
 30
0.0
 11
885.33773186784947
 21
1227.303602632632
 31
0.0
  0
LINE
  5
33DCA
  8
WAKU
  6
CONTINUOUS
 62
     3
 10
868.5773238678496
 20
1228.595910632632
 30
0.0
 11
870.45877186784924
 21
1233.7651426326311
 31
0.0
  0
LINE
  5
33DCB
  8
WAKU
  6
CONTINUOUS
 62
     3
 10
909.22800386784922
 20
1233.7651426326311
 30
0.0
 11
906.71940786784955
 21
1226.872834632632
 31
0.0
  0
LINE
  5
33DCC
  8
WAKU
  6
CONTINUOUS
 62
     3
 10
905.77868386784928
 20
1224.2882186326319
 30
0.0
 11
903.89723986784952
 21
1219.1189906326319
 31
0.0
  0
LINE
  5
33DCD
  8
WAKU
  6
CONTINUOUS
 62
     3
 10
893.95311586784942
 20
1227.303602632632
 30
0.0
 11
898.26081186784927
 21
1227.303602632632
 31
0.0
  0
LINE
  5
33DCE
  8
WAKU
  6
CONTINUOUS
 62
     3
 10
919.40334786784945
 20
1214.380526632631
 30
0.0
 11
926.45877186784946
 21
1233.7651426326311
 31
0.0
  0
LINE
  5
33DCF
  8
WAKU
  6
CONTINUOUS
 62
     3
 10
920.5752958678496
 20
1205.765142632632
 30
0.0
 11
930.76646386784955
 21
1233.7651426326311
 31
0.0
  0
LINE
  5
33DD0
  8
WAKU
  6
CONTINUOUS
 62
     3
 10
919.64248386784925
 20
1226.872834632632
 30
0.0
 11
922.1510798678496
 21
1233.7651426326311
 31
0.0
  0
LINE
  5
33DD1
  8
WAKU
  6
CONTINUOUS
 62
     3
 10
926.45877186784946
 20
1233.7651426326311
 30
0.0
 11
930.76646386784955
 21
1233.7651426326311
 31
0.0
  0
LINE
  5
33DD2
  8
WAKU
  6
CONTINUOUS
 62
     3
 10
916.82031586784956
 20
1219.1189906326319
 30
0.0
 11
918.70175986784955
 21
1224.2882186326319
 31
0.0
  0
LINE
  5
33DD3
  8
WAKU
  6
CONTINUOUS
 62
     3
 10
762.08104786784929
 20
1208.1963066326321
 30
0.0
 11
762.63375986784945
 21
1207.0832466326319
 31
0.0
  0
LINE
  5
33DD4
  8
WAKU
  6
CONTINUOUS
 62
     3
 10
762.63375986784945
 20
1207.0832466326319
 30
0.0
 11
763.53969986784944
 21
1206.3037986326319
 31
0.0
  0
LINE
  5
33DD5
  8
WAKU
  6
CONTINUOUS
 62
     3
 10
763.53969986784944
 20
1206.3037986326319
 30
0.0
 11
764.76559186784959
 21
1205.886586632631
 31
0.0
  0
LINE
  5
33DD6
  8
WAKU
  6
CONTINUOUS
 62
     3
 10
764.76559186784959
 20
1205.886586632631
 30
0.0
 11
766.26641186784946
 21
1205.8469386326319
 31
0.0
  0
LINE
  5
33DD7
  8
WAKU
  6
CONTINUOUS
 62
     3
 10
766.26641186784946
 20
1205.8469386326319
 30
0.0
 11
767.9870318678494
 21
1206.1863066326321
 31
0.0
  0
LINE
  5
33DD8
  8
WAKU
  6
CONTINUOUS
 62
     3
 10
767.9870318678494
 20
1206.1863066326321
 30
0.0
 11
769.86425586784947
 21
1206.8922346326319
 31
0.0
  0
LINE
  5
33DD9
  8
WAKU
  6
CONTINUOUS
 62
     3
 10
769.86425586784947
 20
1206.8922346326319
 30
0.0
 11
771.82912786784959
 21
1207.9387866326319
 31
0.0
  0
LINE
  5
33DDA
  8
WAKU
  6
CONTINUOUS
 62
     3
 10
771.82912786784959
 20
1207.9387866326319
 30
0.0
 11
773.80948786784961
 21
1209.2875226326321
 31
0.0
  0
LINE
  5
33DDB
  8
WAKU
  6
CONTINUOUS
 62
     3
 10
773.80948786784961
 20
1209.2875226326321
 30
0.0
 11
775.73259186784924
 21
1210.8889066326319
 31
0.0
  0
LINE
  5
33DDC
  8
WAKU
  6
CONTINUOUS
 62
     3
 10
775.73259186784924
 20
1210.8889066326319
 30
0.0
 11
777.52780386784946
 21
1212.6841186326319
 31
0.0
  0
LINE
  5
33DDD
  8
WAKU
  6
CONTINUOUS
 62
     3
 10
777.52780386784946
 20
1212.6841186326319
 30
0.0
 11
779.12918786784962
 21
1214.6072226326321
 31
0.0
  0
LINE
  5
33DDE
  8
WAKU
  6
CONTINUOUS
 62
     3
 10
779.12918786784962
 20
1214.6072226326321
 30
0.0
 11
780.47792386784943
 21
1216.5875786326319
 31
0.0
  0
LINE
  5
33DDF
  8
WAKU
  6
CONTINUOUS
 62
     3
 10
780.47792386784943
 20
1216.5875786326319
 30
0.0
 11
781.52447586784945
 21
1218.5524546326319
 31
0.0
  0
LINE
  5
33DE0
  8
WAKU
  6
CONTINUOUS
 62
     3
 10
781.52447586784945
 20
1218.5524546326319
 30
0.0
 11
782.23039986784943
 21
1220.429678632632
 31
0.0
  0
LINE
  5
33DE1
  8
WAKU
  6
CONTINUOUS
 62
     3
 10
782.23039986784943
 20
1220.429678632632
 30
0.0
 11
782.56977186784945
 21
1222.150298632632
 31
0.0
  0
LINE
  5
33DE2
  8
WAKU
  6
CONTINUOUS
 62
     3
 10
782.56977186784945
 20
1222.150298632632
 30
0.0
 11
782.53012386784962
 21
1223.651114632632
 31
0.0
  0
LINE
  5
33DE3
  8
WAKU
  6
CONTINUOUS
 62
     3
 10
782.53012386784962
 20
1223.651114632632
 30
0.0
 11
782.11291186784945
 21
1224.8770106326299
 31
0.0
  0
LINE
  5
33DE4
  8
WAKU
  6
CONTINUOUS
 62
     3
 10
782.11291186784945
 20
1224.8770106326299
 30
0.0
 11
781.33345986784946
 21
1225.782950632632
 31
0.0
  0
LINE
  5
33DE5
  8
WAKU
  6
CONTINUOUS
 62
     3
 10
781.33345986784946
 20
1225.782950632632
 30
0.0
 11
780.22039986784944
 21
1226.335662632632
 31
0.0
  0
LINE
  5
33DE6
  8
WAKU
  6
CONTINUOUS
 62
     3
 10
778.43422786784947
 20
1226.500918632632
 30
0.0
 11
776.69700786784961
 21
1226.1971986326321
 31
0.0
  0
LINE
  5
33DE7
  8
WAKU
  6
CONTINUOUS
 62
     3
 10
776.69700786784961
 20
1226.1971986326321
 30
0.0
 11
774.78901986784945
 21
1225.508214632632
 31
0.0
  0
LINE
  5
33DE8
  8
WAKU
  6
CONTINUOUS
 62
     3
 10
774.78901986784945
 20
1225.508214632632
 30
0.0
 11
772.78353986784941
 21
1224.460426632631
 31
0.0
  0
LINE
  5
33DE9
  8
WAKU
  6
CONTINUOUS
 62
     3
 10
772.78353986784941
 20
1224.460426632631
 30
0.0
 11
770.75759586784943
 21
1223.0940826326321
 31
0.0
  0
LINE
  5
33DEA
  8
WAKU
  6
CONTINUOUS
 62
     3
 10
770.75759586784943
 20
1223.0940826326321
 30
0.0
 11
768.7889918678494
 21
1221.461654632632
 31
0.0
  0
LINE
  5
33DEB
  8
WAKU
  6
CONTINUOUS
 62
     3
 10
768.7889918678494
 20
1221.461654632632
 30
0.0
 11
766.9533438678493
 21
1219.6258386326319
 31
0.0
  0
LINE
  5
33DEC
  8
WAKU
  6
CONTINUOUS
 62
     3
 10
766.9533438678493
 20
1219.6258386326319
 30
0.0
 11
765.32114786784928
 21
1217.657142632632
 31
0.0
  0
LINE
  5
33DED
  8
WAKU
  6
CONTINUOUS
 62
     3
 10
765.32114786784928
 20
1217.657142632632
 30
0.0
 11
763.95508786784944
 21
1215.631178632631
 31
0.0
  0
LINE
  5
33DEE
  8
WAKU
  6
CONTINUOUS
 62
     3
 10
763.95508786784944
 20
1215.631178632631
 30
0.0
 11
762.90763586784942
 21
1213.6257586326319
 31
0.0
  0
LINE
  5
33DEF
  8
WAKU
  6
CONTINUOUS
 62
     3
 10
762.90763586784942
 20
1213.6257586326319
 30
0.0
 11
762.21901986784928
 21
1211.7178986326319
 31
0.0
  0
LINE
  5
33DF0
  8
WAKU
  6
CONTINUOUS
 62
     3
 10
762.21901986784928
 20
1211.7178986326319
 30
0.0
 11
761.91568386784945
 21
1209.9808826326321
 31
0.0
  0
LINE
  5
33DF1
  8
WAKU
  6
CONTINUOUS
 62
     3
 10
763.45810786784944
 20
1209.5725666326321
 30
0.0
 11
765.49204386784947
 21
1209.921922632632
 31
0.0
  0
LINE
  5
33DF2
  8
WAKU
  6
CONTINUOUS
 62
     3
 10
765.49204386784947
 20
1209.921922632632
 30
0.0
 11
768.01551586784944
 21
1211.00647063263
 31
0.0
  0
LINE
  5
33DF3
  8
WAKU
  6
CONTINUOUS
 62
     3
 10
768.01551586784944
 20
1211.00647063263
 30
0.0
 11
770.72622386784928
 21
1212.7708666326321
 31
0.0
  0
LINE
  5
33DF4
  8
WAKU
  6
CONTINUOUS
 62
     3
 10
770.72622386784928
 20
1212.7708666326321
 30
0.0
 11
773.35164786784924
 21
1215.0671666326321
 31
0.0
  0
LINE
  5
33DF5
  8
WAKU
  6
CONTINUOUS
 62
     3
 10
773.35164786784924
 20
1215.0671666326321
 30
0.0
 11
775.64741586784942
 21
1217.692822632632
 31
0.0
  0
LINE
  5
33DF6
  8
WAKU
  6
CONTINUOUS
 62
     3
 10
775.64741586784942
 20
1217.692822632632
 30
0.0
 11
777.41187586784929
 21
1220.403278632632
 31
0.0
  0
LINE
  5
33DF7
  8
WAKU
  6
CONTINUOUS
 62
     3
 10
777.41187586784929
 20
1220.403278632632
 30
0.0
 11
778.49474786784924
 21
1222.9267506326321
 31
0.0
  0
LINE
  5
33DF8
  8
WAKU
  6
CONTINUOUS
 62
     3
 10
778.49474786784924
 20
1222.9267506326321
 30
0.0
 11
778.84337986784942
 21
1224.9594186326319
 31
0.0
  0
LINE
  5
33DF9
  8
WAKU
  6
CONTINUOUS
 62
     3
 10
778.43422786784947
 20
1226.500918632632
 30
0.0
 11
777.96305586784945
 21
1226.892858632631
 31
0.0
  0
LINE
  5
33DFA
  8
WAKU
  6
CONTINUOUS
 62
     3
 10
777.96305586784945
 20
1226.892858632631
 30
0.0
 11
777.15844786784942
 21
1227.1287506326321
 31
0.0
  0
LINE
  5
33DFB
  8
WAKU
  6
CONTINUOUS
 62
     3
 10
777.15844786784942
 20
1227.1287506326321
 30
0.0
 11
775.92989186784939
 21
1227.1074666326319
 31
0.0
  0
LINE
  5
33DFC
  8
WAKU
  6
CONTINUOUS
 62
     3
 10
775.92989186784939
 20
1227.1074666326319
 30
0.0
 11
774.34702386784943
 21
1226.725402632632
 31
0.0
  0
LINE
  5
33DFD
  8
WAKU
  6
CONTINUOUS
 62
     3
 10
774.34702386784943
 20
1226.725402632632
 30
0.0
 11
772.52740386784944
 21
1225.9554826326321
 31
0.0
  0
LINE
  5
33DFE
  8
WAKU
  6
CONTINUOUS
 62
     3
 10
772.52740386784944
 20
1225.9554826326321
 30
0.0
 11
770.58481186784945
 21
1224.8222786326321
 31
0.0
  0
LINE
  5
33DFF
  8
WAKU
  6
CONTINUOUS
 62
     3
 10
770.58481186784945
 20
1224.8222786326321
 30
0.0
 11
766.75085586784962
 21
1221.665574632631
 31
0.0
  0
LINE
  5
33E00
  8
WAKU
  6
CONTINUOUS
 62
     3
 10
766.75085586784962
 20
1221.665574632631
 30
0.0
 11
763.59460386784963
 21
1217.831422632632
 31
0.0
  0
LINE
  5
33E01
  8
WAKU
  6
CONTINUOUS
 62
     3
 10
763.59460386784963
 20
1217.831422632632
 30
0.0
 11
762.46053986784943
 21
1215.8892546326319
 31
0.0
  0
LINE
  5
33E02
  8
WAKU
  6
CONTINUOUS
 62
     3
 10
762.46053986784943
 20
1215.8892546326319
 30
0.0
 11
761.69242386784924
 21
1214.0692266326321
 31
0.0
  0
LINE
  5
33E03
  8
WAKU
  6
CONTINUOUS
 62
     3
 10
761.69242386784924
 20
1214.0692266326321
 30
0.0
 11
761.30924786784942
 21
1212.486758632632
 31
0.0
  0
LINE
  5
33E04
  8
WAKU
  6
CONTINUOUS
 62
     3
 10
761.30924786784942
 20
1212.486758632632
 30
0.0
 11
761.28789586784944
 21
1211.257490632632
 31
0.0
  0
LINE
  5
33E05
  8
WAKU
  6
CONTINUOUS
 62
     3
 10
761.28789586784944
 20
1211.257490632632
 30
0.0
 11
761.52308386784944
 21
1210.454882632632
 31
0.0
  0
LINE
  5
33E06
  8
WAKU
  6
CONTINUOUS
 62
     3
 10
761.52308386784944
 20
1210.454882632632
 30
0.0
 11
761.91568386784945
 21
1209.9808826326321
 31
0.0
  0
LINE
  5
33E07
  8
WAKU
  6
CONTINUOUS
 62
     3
 10
763.86717186784927
 20
1208.0310466326321
 30
0.0
 11
764.33817186784916
 21
1207.639414632632
 31
0.0
  0
LINE
  5
33E08
  8
WAKU
  6
CONTINUOUS
 62
     3
 10
764.33817186784916
 20
1207.639414632632
 30
0.0
 11
765.14317186784945
 21
1207.4031346326319
 31
0.0
  0
LINE
  5
33E09
  8
WAKU
  6
CONTINUOUS
 62
     3
 10
765.14317186784945
 20
1207.4031346326319
 30
0.0
 11
766.37163986784924
 21
1207.42459463263
 31
0.0
  0
LINE
  5
33E0A
  8
WAKU
  6
CONTINUOUS
 62
     3
 10
766.37163986784924
 20
1207.42459463263
 30
0.0
 11
767.95439986784959
 21
1207.8066146326321
 31
0.0
  0
LINE
  5
33E0B
  8
WAKU
  6
CONTINUOUS
 62
     3
 10
767.95439986784959
 20
1207.8066146326321
 30
0.0
 11
769.77399186784942
 21
1208.576334632631
 31
0.0
  0
LINE
  5
33E0C
  8
WAKU
  6
CONTINUOUS
 62
     3
 10
769.77399186784942
 20
1208.576334632631
 30
0.0
 11
771.71645186784963
 21
1209.709610632631
 31
0.0
  0
LINE
  5
33E0D
  8
WAKU
  6
CONTINUOUS
 62
     3
 10
771.71645186784963
 20
1209.709610632631
 30
0.0
 11
775.55032386784944
 21
1212.86607063263
 31
0.0
  0
LINE
  5
33E0E
  8
WAKU
  6
CONTINUOUS
 62
     3
 10
775.55032386784944
 20
1212.86607063263
 30
0.0
 11
778.70666386784944
 21
1216.700014632632
 31
0.0
  0
LINE
  5
33E0F
  8
WAKU
  6
CONTINUOUS
 62
     3
 10
778.70666386784944
 20
1216.700014632632
 30
0.0
 11
779.84049186784944
 21
1218.6422546326321
 31
0.0
  0
LINE
  5
33E10
  8
WAKU
  6
CONTINUOUS
 62
     3
 10
779.84049186784944
 20
1218.6422546326321
 30
0.0
 11
780.60930386784923
 21
1220.4621346326319
 31
0.0
  0
LINE
  5
33E11
  8
WAKU
  6
CONTINUOUS
 62
     3
 10
780.60930386784923
 20
1220.4621346326319
 30
0.0
 11
780.99190786784925
 21
1222.044598632632
 31
0.0
  0
LINE
  5
33E12
  8
WAKU
  6
CONTINUOUS
 62
     3
 10
780.99190786784925
 20
1222.044598632632
 30
0.0
 11
781.01367186784944
 21
1223.274154632632
 31
0.0
  0
LINE
  5
33E13
  8
WAKU
  6
CONTINUOUS
 62
     3
 10
781.01367186784944
 20
1223.274154632632
 30
0.0
 11
780.77826786784942
 21
1224.076814632632
 31
0.0
  0
LINE
  5
33E14
  8
WAKU
  6
CONTINUOUS
 62
     3
 10
780.77826786784942
 20
1224.076814632632
 30
0.0
 11
780.38570386784943
 21
1224.5501386326321
 31
0.0
  0
LINE
  5
33E15
  8
WAKU
  6
CONTINUOUS
 62
     3
 10
778.84337986784942
 20
1224.9594186326319
 30
0.0
 11
776.80941586784945
 21
1224.610102632631
 31
0.0
  0
LINE
  5
33E16
  8
WAKU
  6
CONTINUOUS
 62
     3
 10
776.80941586784945
 20
1224.610102632631
 30
0.0
 11
774.2859758678494
 21
1223.52537063263
 31
0.0
  0
LINE
  5
33E17
  8
WAKU
  6
CONTINUOUS
 62
     3
 10
774.2859758678494
 20
1223.52537063263
 30
0.0
 11
771.57518786784942
 21
1221.7611066326319
 31
0.0
  0
LINE
  5
33E18
  8
WAKU
  6
CONTINUOUS
 62
     3
 10
771.57518786784942
 20
1221.7611066326319
 30
0.0
 11
768.94977186784945
 21
1219.464714632632
 31
0.0
  0
LINE
  5
33E19
  8
WAKU
  6
CONTINUOUS
 62
     3
 10
768.94977186784945
 20
1219.464714632632
 30
0.0
 11
766.65404786784961
 21
1216.8390266326321
 31
0.0
  0
LINE
  5
33E1A
  8
WAKU
  6
CONTINUOUS
 62
     3
 10
766.65404786784961
 20
1216.8390266326321
 30
0.0
 11
764.88931186784919
 21
1214.1286426326319
 31
0.0
  0
LINE
  5
33E1B
  8
WAKU
  6
CONTINUOUS
 62
     3
 10
764.88931186784919
 20
1214.1286426326319
 30
0.0
 11
763.80713586784941
 21
1211.6050186326311
 31
0.0
  0
LINE
  5
33E1C
  8
WAKU
  6
CONTINUOUS
 62
     3
 10
763.80713586784941
 20
1211.6050186326311
 30
0.0
 11
763.45810786784944
 21
1209.5725666326321
 31
0.0
  0
LINE
  5
33E1D
  8
WAKU
  6
CONTINUOUS
 62
     3
 10
763.86717186784927
 20
1208.0310466326321
 30
0.0
 11
765.60429586784949
 21
1208.334730632632
 31
0.0
  0
LINE
  5
33E1E
  8
WAKU
  6
CONTINUOUS
 62
     3
 10
765.60429586784949
 20
1208.334730632632
 30
0.0
 11
767.51217586784924
 21
1209.023642632631
 31
0.0
  0
LINE
  5
33E1F
  8
WAKU
  6
CONTINUOUS
 62
     3
 10
767.51217586784924
 20
1209.023642632631
 30
0.0
 11
769.51754386784944
 21
1210.071322632632
 31
0.0
  0
LINE
  5
33E20
  8
WAKU
  6
CONTINUOUS
 62
     3
 10
769.51754386784944
 20
1210.071322632632
 30
0.0
 11
771.54339186784944
 21
1211.437538632631
 31
0.0
  0
LINE
  5
33E21
  8
WAKU
  6
CONTINUOUS
 62
     3
 10
771.54339186784944
 20
1211.437538632631
 30
0.0
 11
773.51191586784944
 21
1213.0698266326319
 31
0.0
  0
LINE
  5
33E22
  8
WAKU
  6
CONTINUOUS
 62
     3
 10
773.51191586784944
 20
1213.0698266326319
 30
0.0
 11
775.34752786784941
 21
1214.9054986326321
 31
0.0
  0
LINE
  5
33E23
  8
WAKU
  6
CONTINUOUS
 62
     3
 10
775.34752786784941
 20
1214.9054986326321
 30
0.0
 11
776.97972786784942
 21
1216.8740586326301
 31
0.0
  0
LINE
  5
33E24
  8
WAKU
  6
CONTINUOUS
 62
     3
 10
776.97972786784942
 20
1216.8740586326301
 30
0.0
 11
778.3458358678497
 21
1218.8999146326321
 31
0.0
  0
LINE
  5
33E25
  8
WAKU
  6
CONTINUOUS
 62
     3
 10
778.3458358678497
 20
1218.8999146326321
 30
0.0
 11
779.39339186784946
 21
1220.905262632632
 31
0.0
  0
LINE
  5
33E26
  8
WAKU
  6
CONTINUOUS
 62
     3
 10
779.39339186784946
 20
1220.905262632632
 30
0.0
 11
780.08216386784943
 21
1222.813090632631
 31
0.0
  0
LINE
  5
33E27
  8
WAKU
  6
CONTINUOUS
 62
     3
 10
780.08216386784943
 20
1222.813090632631
 30
0.0
 11
780.38570386784943
 21
1224.5501386326321
 31
0.0
  0
LINE
  5
33E28
  8
WAKU
  6
CONTINUOUS
 62
     3
 10
780.22039986784944
 20
1226.335662632632
 30
0.0
 11
779.66768786784939
 21
1227.4487226326321
 31
0.0
  0
LINE
  5
33E29
  8
WAKU
  6
CONTINUOUS
 62
     3
 10
779.66768786784939
 20
1227.4487226326321
 30
0.0
 11
778.76174786784964
 21
1228.2281706326321
 31
0.0
  0
LINE
  5
33E2A
  8
WAKU
  6
CONTINUOUS
 62
     3
 10
778.76174786784964
 20
1228.2281706326321
 30
0.0
 11
777.53585586784959
 21
1228.6453826326319
 31
0.0
  0
LINE
  5
33E2B
  8
WAKU
  6
CONTINUOUS
 62
     3
 10
777.53585586784959
 20
1228.6453826326319
 30
0.0
 11
776.03503586784973
 21
1228.6850306326321
 31
0.0
  0
LINE
  5
33E2C
  8
WAKU
  6
CONTINUOUS
 62
     3
 10
776.03503586784973
 20
1228.6850306326321
 30
0.0
 11
774.31441586784945
 21
1228.345658632632
 31
0.0
  0
LINE
  5
33E2D
  8
WAKU
  6
CONTINUOUS
 62
     3
 10
774.31441586784945
 20
1228.345658632632
 30
0.0
 11
772.4371958678496
 21
1227.639734632631
 31
0.0
  0
LINE
  5
33E2E
  8
WAKU
  6
CONTINUOUS
 62
     3
 10
772.4371958678496
 20
1227.639734632631
 30
0.0
 11
770.47231986784959
 21
1226.5931826326321
 31
0.0
  0
LINE
  5
33E2F
  8
WAKU
  6
CONTINUOUS
 62
     3
 10
770.47231986784959
 20
1226.5931826326321
 30
0.0
 11
768.49195986784946
 21
1225.2444466326319
 31
0.0
  0
LINE
  5
33E30
  8
WAKU
  6
CONTINUOUS
 62
     3
 10
768.49195986784946
 20
1225.2444466326319
 30
0.0
 11
766.5688598678496
 21
1223.6430626326321
 31
0.0
  0
LINE
  5
33E31
  8
WAKU
  6
CONTINUOUS
 62
     3
 10
766.5688598678496
 20
1223.6430626326321
 30
0.0
 11
764.77364386784961
 21
1221.8478506326319
 31
0.0
  0
LINE
  5
33E32
  8
WAKU
  6
CONTINUOUS
 62
     3
 10
764.77364386784961
 20
1221.8478506326319
 30
0.0
 11
763.17225986784945
 21
1219.924746632631
 31
0.0
  0
LINE
  5
33E33
  8
WAKU
  6
CONTINUOUS
 62
     3
 10
763.17225986784945
 20
1219.924746632631
 30
0.0
 11
761.82352386784942
 21
1217.9443906326319
 31
0.0
  0
LINE
  5
33E34
  8
WAKU
  6
CONTINUOUS
 62
     3
 10
761.82352386784942
 20
1217.9443906326319
 30
0.0
 11
760.77697186784962
 21
1215.979514632631
 31
0.0
  0
LINE
  5
33E35
  8
WAKU
  6
CONTINUOUS
 62
     3
 10
760.77697186784962
 20
1215.979514632631
 30
0.0
 11
760.07104786784942
 21
1214.102290632632
 31
0.0
  0
LINE
  5
33E36
  8
WAKU
  6
CONTINUOUS
 62
     3
 10
760.07104786784942
 20
1214.102290632632
 30
0.0
 11
759.73167586784939
 21
1212.381670632632
 31
0.0
  0
LINE
  5
33E37
  8
WAKU
  6
CONTINUOUS
 62
     3
 10
759.73167586784939
 20
1212.381670632632
 30
0.0
 11
759.77132386784945
 21
1210.880854632632
 31
0.0
  0
LINE
  5
33E38
  8
WAKU
  6
CONTINUOUS
 62
     3
 10
759.77132386784945
 20
1210.880854632632
 30
0.0
 11
760.18853586784962
 21
1209.6549586326321
 31
0.0
  0
LINE
  5
33E39
  8
WAKU
  6
CONTINUOUS
 62
     3
 10
760.18853586784962
 20
1209.6549586326321
 30
0.0
 11
760.96798786784962
 21
1208.749018632632
 31
0.0
  0
LINE
  5
33E3A
  8
WAKU
  6
CONTINUOUS
 62
     3
 10
760.96798786784962
 20
1208.749018632632
 30
0.0
 11
762.08104786784929
 21
1208.1963066326321
 31
0.0
  0
LINE
  5
33E3B
  8
WAKU
 62
     3
 10
5.0
 20
1239.765142632632
 30
0.0
 11
956.42871344548291
 21
1239.765142632632
 31
0.0
  0
TEXT
  5
33E3C
  8
WAKU
 62
     3
 10
192.84875517152881
 20
1209.765142632632
 30
0.0
 40
20.0
  1
リブガラススクリーン　非防火戸
 11
192.84875517152881
 21
1219.765142632632
 31
0.0
 73
     2
  0
TEXT
  5
33E3D
  8
WAKU
 62
     3
 10
25.0
 20
1213.765142632632
 30
0.0
 40
12.0
  1
ニューサンフェイスF型
 41
0.8679999999999999
 11
25.0
 21
1219.765142632632
 31
0.0
 73
     2
  0
INSERT
  5
33E3E
  8
WAKU
  6
CONTINUOUS
 62
     3
  2
*U2
 10
-717.23353613215045
 20
71.765142632631964
 30
0.0
 41
4.0
 42
4.0
 43
4.0
  0
LINE
  5
33E3F
  8
WAKU
 62
     3
 10
5.0
 20
1199.7651426326311
 30
0.0
 11
956.42871344548291
 21
1199.7651426326311
 31
0.0
  0
LINE
  5
33E40
  8
WAKU
 62
     3
 10
956.42871344548291
 20
1239.765142632632
 30
0.0
 11
956.42871344548291
 21
5.0
 31
0.0
  0
LINE
  5
33E41
  8
WAKU
 62
     3
 10
5.0
 20
1239.765142632632
 30
0.0
 11
5.0
 21
5.0
 31
0.0
  0
LINE
  5
33E42
  8
WAKU
 62
     3
 10
5.0
 20
5.0
 30
0.0
 11
956.42871344548291
 21
5.0
 31
0.0
  0
LINE
  5
33E43
  8
SUNPO
 62
     1
 10
454.69845291323941
 20
49.588871056218423
 30
0.0
 11
440.69845291323918
 21
49.588871056218423
 31
0.0
  0
LINE
  5
33E44
  8
SUNPO
 62
     1
 10
454.69845291323941
 20
75.588871056218522
 30
0.0
 11
440.69845291323918
 21
75.588871056218522
 31
0.0
  0
LINE
  5
33E45
  8
SUNPO
 62
     1
 10
454.69845291323941
 20
49.588871056218423
 30
0.0
 11
440.69845291323918
 21
49.588871056218423
 31
0.0
  0
LINE
  5
33E46
  8
SUNPO
 62
     1
 10
454.69845291323941
 20
75.588871056218522
 30
0.0
 11
440.69845291323918
 21
75.588871056218522
 31
0.0
  0
LINE
  5
33E47
  8
SUNPO
 62
     1
 10
470.69845291323918
 20
49.588871056218423
 30
0.0
 11
440.69845291323918
 21
49.588871056218423
 31
0.0
  0
LINE
  5
33E48
  8
SUNPO
 62
     1
 10
284.19845291323912
 20
17.588871056218519
 30
0.0
 11
609.1984529132377
 21
17.588871056218519
 31
0.0
  0
LINE
  5
33E49
  8
SUNPO
 62
     1
 10
377.89845291323923
 20
699.08887105621852
 30
0.0
 11
464.39845291323923
 21
699.08887105621852
 31
0.0
  0
LINE
  5
33E4A
  8
SUNPO
  6
CONTINUOUS
 62
     1
 10
449.89845291323923
 20
468.0888710562183
 30
0.0
 11
467.89845291323911
 21
468.0888710562183
 31
0.0
  0
LINE
  5
33E4B
  8
SUNPO
  6
CONTINUOUS
 62
     1
 10
449.89845291323923
 20
484.08887105621659
 30
0.0
 11
519.89845291323945
 21
484.08887105621659
 31
0.0
  0
LINE
  5
33E4C
  8
SUNPO
 62
     1
 10
378.648452913239
 20
975.33887105621864
 30
0.0
 11
478.648452913239
 21
975.33887105621864
 31
0.0
  0
LINE
  5
33E4D
  8
SUNPO
 62
     1
 10
417.64845291323871
 20
954.43887105621752
 30
0.0
 11
478.648452913239
 21
954.43887105621752
 31
0.0
  0
LINE
  5
33E4E
  8
SUNPO
 62
     1
 10
377.89845291323923
 20
452.08887105621699
 30
0.0
 11
377.89845291323923
 21
654.08887105621795
 31
0.0
  0
LINE
  5
33E4F
  8
SUNPO
 62
     1
 10
438.69845291323918
 20
33.58887105621848
 30
0.0
 11
368.69845291323918
 21
33.58887105621848
 31
0.0
  0
LINE
  5
33E50
  8
SUNPO
 62
     1
 10
386.69845291323918
 20
86.33887105621838
 30
0.0
 11
420.69845291323918
 21
86.33887105621838
 31
0.0
  0
CIRCLE
  5
33E51
  8
SUNPO
 62
     1
 10
368.69845291323918
 20
33.58887105621848
 30
0.0
 40
1.0
  0
TEXT
  5
33E52
  8
SUNPO
 62
     1
 10
372.69845291323952
 20
88.588899999999995
 30
0.0
 40
7.5
  1
18
 72
     4
 11
377.69845291323952
 21
92.338899999999995
 31
0.0
  0
LINE
  5
33E53
  8
SUNPO
 62
     1
 10
368.69845291323918
 20
86.33887105621838
 30
0.0
 11
386.69845291323918
 21
86.33887105621838
 31
0.0
  0
LINE
  5
33E54
  8
SUNPO
 62
     1
 10
368.69845291323918
 20
33.58887105621848
 30
0.0
 11
368.69845291323918
 21
47.588871056218423
 31
0.0
  0
CIRCLE
  5
33E55
  8
SUNPO
 62
     1
 10
368.69845291323918
 20
86.33887105621838
 30
0.0
 40
1.0
  0
CIRCLE
  5
33E56
  8
SUNPO
 62
     1
 10
386.69845291323918
 20
86.33887105621838
 30
0.0
 40
1.0
  0
LINE
  5
33E57
  8
SUNPO
 62
     1
 10
420.69845291323918
 20
86.33887105621838
 30
0.0
 11
438.69845291323918
 21
86.33887105621838
 31
0.0
  0
CIRCLE
  5
33E58
  8
SUNPO
 62
     1
 10
420.69845291323918
 20
86.33887105621838
 30
0.0
 40
1.0
  0
CIRCLE
  5
33E59
  8
SUNPO
 62
     1
 10
438.69845291323918
 20
33.58887105621848
 30
0.0
 40
1.0
  0
LINE
  5
33E5A
  8
SUNPO
 62
     1
 10
438.69845291323918
 20
33.58887105621848
 30
0.0
 11
438.69845291323918
 21
47.588871056218423
 31
0.0
  0
CIRCLE
  5
33E5B
  8
SUNPO
 62
     1
 10
438.69845291323918
 20
86.33887105621838
 30
0.0
 40
1.0
  0
LINE
  5
33E5C
  8
SUNPO
 62
     1
 10
428.19845291323918
 20
114.83887105621849
 30
0.0
 11
379.19845291323912
 21
114.83887105621849
 31
0.0
  0
CIRCLE
  5
33E5D
  8
SUNPO
 62
     1
 10
379.19845291323912
 20
114.83887105621849
 30
0.0
 40
1.0
  0
LINE
  5
33E5E
  8
SUNPO
 62
     1
 10
379.19845291323912
 20
114.83887105621849
 30
0.0
 11
379.19845291323912
 21
127.58887105621839
 31
0.0
  0
TEXT
  5
33E5F
  8
SUNPO
 62
     1
 10
397.44845291323912
 20
117.0888999999999
 30
0.0
 40
7.5
  1
49
 72
     4
 11
403.69845291323912
 21
120.8388999999999
 31
0.0
  0
LINE
  5
33E60
  8
SUNPO
 62
     1
 10
428.19845291323918
 20
114.83887105621849
 30
0.0
 11
428.19845291323918
 21
127.58887105621839
 31
0.0
  0
CIRCLE
  5
33E61
  8
SUNPO
 62
     1
 10
428.19845291323918
 20
114.83887105621849
 30
0.0
 40
1.0
  0
TEXT
  5
33E62
  8
SUNPO
 62
     1
 10
391.64850000000001
 20
431.53323445144389
 30
0.0
 40
7.5
  1
30
 50
90.0
 72
     4
 11
387.89850000000001
 21
437.15823445144389
 31
0.0
  0
CIRCLE
  5
33E63
  8
SUNPO
 62
     1
 10
393.89845291323923
 20
452.08887105621699
 30
0.0
 40
1.0
  0
CIRCLE
  5
33E64
  8
SUNPO
 62
     1
 10
393.89845291323923
 20
422.08887105621801
 30
0.0
 40
1.0
  0
LINE
  5
33E65
  8
SUNPO
 62
     1
 10
377.89845291323923
 20
452.08887105621699
 30
0.0
 11
407.89845291323923
 21
452.08887105621699
 31
0.0
  0
LINE
  5
33E66
  8
SUNPO
 62
     1
 10
377.89845291323923
 20
407.0888710562183
 30
0.0
 11
407.89845291323923
 21
407.0888710562183
 31
0.0
  0
TEXT
  5
33E67
  8
SUNPO
 62
     1
 10
375.64849999999979
 20
423.3388710562183
 30
0.0
 40
7.5
  1
45
 50
90.0
 72
     4
 11
371.89849999999979
 21
429.5888710562183
 31
0.0
  0
LINE
  5
33E68
  8
SUNPO
 62
     1
 10
377.89845291323923
 20
407.0888710562183
 30
0.0
 11
377.89845291323923
 21
452.08887105621699
 31
0.0
  0
CIRCLE
  5
33E69
  8
SUNPO
 62
     1
 10
377.89845291323923
 20
407.0888710562183
 30
0.0
 40
1.0
  0
POLYLINE
  5
33E6A
  8
SUNPO
 62
     1
 66
     1
 10
0.0
 20
0.0
 30
0.0
 70
     1
  0
VERTEX
  5
34461
  8
SUNPO
 62
     1
 10
377.89845291323923
 20
452.08887105621699
 30
0.0
  0
VERTEX
  5
34462
  8
SUNPO
 62
     1
 10
375.39845291323923
 20
458.33887105621801
 30
0.0
  0
VERTEX
  5
34463
  8
SUNPO
 62
     1
 10
380.39845291323923
 20
458.33887105621801
 30
0.0
  0
SEQEND
  5
34464
  8
SUNPO
 62
     1
  0
LINE
  5
33E6F
  8
SUNPO
 62
     1
 10
377.89845291323923
 20
452.08887105621699
 30
0.0
 11
377.89845291323923
 21
452.08887105621699
 31
0.0
  0
LINE
  5
33E70
  8
SUNPO
  6
CONTINUOUS
 62
     1
 10
377.89845291323923
 20
452.08887105621699
 30
0.0
 11
377.89845291323923
 21
452.08887105621699
 31
0.0
  0
LINE
  5
33E71
  8
SUNPO
 62
     1
 10
377.89845291323923
 20
452.08887105621699
 30
0.0
 11
377.89845291323923
 21
452.08887105621699
 31
0.0
  0
LINE
  5
33E72
  8
SUNPO
 62
     1
 10
393.89845291323923
 20
422.08887105621801
 30
0.0
 11
393.89845291323923
 21
452.08887105621699
 31
0.0
  0
LINE
  5
33E73
  8
SUNPO
 62
     1
 10
393.89845291323923
 20
422.08887105621801
 30
0.0
 11
447.89845291323923
 21
422.08887105621801
 31
0.0
  0
LINE
  5
33E74
  8
SUNPO
 62
     1
 10
393.89845291323923
 20
452.08887105621699
 30
0.0
 11
407.89845291323923
 21
452.08887105621699
 31
0.0
  0
CIRCLE
  5
33E75
  8
SUNPO
 62
     1
 10
449.89845291323923
 20
484.08887105621659
 30
0.0
 40
1.0
  0
LINE
  5
33E76
  8
SUNPO
  6
CONTINUOUS
 62
     1
 10
449.89845291323923
 20
484.08887105621659
 30
0.0
 11
449.89845291323923
 21
454.08887105621818
 31
0.0
  0
LINE
  5
33E77
  8
SUNPO
 62
     1
 10
449.89845291323923
 20
468.0888710562183
 30
0.0
 11
449.89845291323923
 21
454.08887105621818
 31
0.0
  0
CIRCLE
  5
33E78
  8
SUNPO
 62
     1
 10
449.89845291323923
 20
468.0888710562183
 30
0.0
 40
1.0
  0
TEXT
  5
33E79
  8
SUNPO
 62
     1
 10
391.64850000000001
 20
663.46387105621795
 30
0.0
 40
7.5
  1
30
 50
90.0
 72
     4
 11
387.89850000000001
 21
669.08887105621795
 31
0.0
  0
CIRCLE
  5
33E7A
  8
SUNPO
 62
     1
 10
393.89845291323923
 20
684.08887105621807
 30
0.0
 40
1.0
  0
CIRCLE
  5
33E7B
  8
SUNPO
 62
     1
 10
393.89845291323923
 20
654.08887105621795
 30
0.0
 40
1.0
  0
LINE
  5
33E7C
  8
SUNPO
 62
     1
 10
377.89845291323923
 20
654.08887105621795
 30
0.0
 11
407.89845291323923
 21
654.08887105621795
 31
0.0
  0
LINE
  5
33E7D
  8
SUNPO
 62
     1
 10
377.89845291323923
 20
654.08887105621795
 30
0.0
 11
377.89845291323923
 21
699.08887105621852
 31
0.0
  0
TEXT
  5
33E7E
  8
SUNPO
 62
     1
 10
375.7439
 20
550.62362587016401
 30
0.0
 40
7.5
  1
H
 50
90.0
 72
     1
 11
375.7439
 21
553.12362587016401
 31
0.0
  0
POLYLINE
  5
33E7F
  8
SUNPO
 62
     1
 66
     1
 10
0.0
 20
0.0
 30
0.0
 70
     1
  0
VERTEX
  5
34465
  8
SUNPO
 62
     1
 10
377.89845291323923
 20
654.08887105621795
 30
0.0
  0
VERTEX
  5
34466
  8
SUNPO
 62
     1
 10
375.39845291323923
 20
647.83887105621852
 30
0.0
  0
VERTEX
  5
34467
  8
SUNPO
 62
     1
 10
380.39845291323923
 20
647.83887105621852
 30
0.0
  0
SEQEND
  5
34468
  8
SUNPO
 62
     1
  0
LINE
  5
33E84
  8
SUNPO
  6
CONTINUOUS
 62
     1
 10
377.89845291323923
 20
654.08887105621795
 30
0.0
 11
377.89845291323923
 21
654.08887105621795
 31
0.0
  0
LINE
  5
33E85
  8
SUNPO
 62
     1
 10
377.89845291323923
 20
654.08887105621795
 30
0.0
 11
377.89845291323923
 21
654.08887105621795
 31
0.0
  0
TEXT
  5
33E86
  8
SUNPO
 62
     1
 10
375.64849999999979
 20
670.33887105621727
 30
0.0
 40
7.5
  1
45
 50
90.0
 72
     4
 11
371.89849999999979
 21
676.58887105621727
 31
0.0
  0
CIRCLE
  5
33E87
  8
SUNPO
 62
     1
 10
377.89845291323923
 20
699.08887105621852
 30
0.0
 40
1.0
  0
LINE
  5
33E88
  8
SUNPO
 62
     1
 10
393.89845291323923
 20
654.08887105621795
 30
0.0
 11
393.89845291323923
 21
684.08887105621807
 31
0.0
  0
LINE
  5
33E89
  8
SUNPO
 62
     1
 10
393.89845291323923
 20
654.08887105621795
 30
0.0
 11
407.89845291323923
 21
654.08887105621795
 31
0.0
  0
LINE
  5
33E8A
  8
SUNPO
 62
     1
 10
393.89845291323923
 20
684.08887105621807
 30
0.0
 11
447.89845291323923
 21
684.08887105621807
 31
0.0
  0
TEXT
  5
33E8B
  8
SUNPO
 62
     1
 10
388.02345291323883
 20
833.83889999999985
 30
0.0
 40
7.5
  1
30
 72
     4
 11
393.64845291323888
 21
837.58889999999985
 31
0.0
  0
LINE
  5
33E8C
  8
SUNPO
 62
     1
 10
387.64845291323888
 20
954.43887105621752
 30
0.0
 11
417.64845291323871
 21
954.43887105621752
 31
0.0
  0
LINE
  5
33E8D
  8
SUNPO
 62
     1
 10
408.64845291323888
 20
831.58887105621795
 30
0.0
 11
378.648452913239
 21
831.58887105621795
 31
0.0
  0
LINE
  5
33E8E
  8
SUNPO
 62
     1
 10
346.64845291323923
 20
847.58887105621818
 30
0.0
 11
406.64845291323923
 21
847.58887105621818
 31
0.0
  0
LINE
  5
33E8F
  8
SUNPO
  6
CONTINUOUS
 62
     1
 10
362.64845291323888
 20
885.5888710562167
 30
0.0
 11
362.64845291323888
 21
917.58887105621761
 31
0.0
  0
LINE
  5
33E90
  8
SUNPO
 62
     1
 10
346.64845291323923
 20
857.58887105621784
 30
0.0
 11
346.64845291323923
 21
917.58887105621761
 31
0.0
  0
TEXT
  5
33E91
  8
SUNPO
 62
     1
 10
360.39850000000001
 20
860.08887105621795
 30
0.0
 40
7.5
  1
15
 50
90.0
 72
     4
 11
356.64850000000001
 21
865.08887105621784
 31
0.0
  0
TEXT
  5
33E92
  8
SUNPO
 62
     1
 10
360.39850000000001
 20
874.08887105621852
 30
0.0
 40
7.5
  1
13
 50
90.0
 72
     4
 11
356.64850000000001
 21
879.08887105621841
 31
0.0
  0
LINE
  5
33E93
  8
SUNPO
  6
CONTINUOUS
 62
     1
 10
362.64845291323888
 20
885.5888710562167
 30
0.0
 11
376.64845291323911
 21
885.5888710562167
 31
0.0
  0
LINE
  5
33E94
  8
SUNPO
  6
CONTINUOUS
 62
     1
 10
362.64845291323888
 20
885.5888710562167
 30
0.0
 11
376.64845291323911
 21
885.5888710562167
 31
0.0
  0
LINE
  5
33E95
  8
SUNPO
  6
CONTINUOUS
 62
     1
 10
362.64845291323888
 20
872.58887105621659
 30
0.0
 11
376.64845291323911
 21
872.58887105621659
 31
0.0
  0
LINE
  5
33E96
  8
SUNPO
 62
     1
 10
362.64845291323888
 20
857.58887105621784
 30
0.0
 11
376.64845291323911
 21
857.58887105621784
 31
0.0
  0
LINE
  5
33E97
  8
SUNPO
  6
CONTINUOUS
 62
     1
 10
362.64845291323888
 20
872.58887105621659
 30
0.0
 11
376.64845291323911
 21
872.58887105621659
 31
0.0
  0
LINE
  5
33E98
  8
SUNPO
 62
     1
 10
346.64845291323923
 20
857.58887105621784
 30
0.0
 11
376.64845291323911
 21
857.58887105621784
 31
0.0
  0
LINE
  5
33E99
  8
SUNPO
 62
     1
 10
346.64845291323923
 20
857.58887105621784
 30
0.0
 11
376.64845291323911
 21
857.58887105621784
 31
0.0
  0
TEXT
  5
33E9A
  8
SUNPO
 62
     1
 10
343.39850000000001
 20
881.96387105621716
 30
0.0
 40
7.5
  1
60
 50
90.0
 72
     4
 11
339.64850000000001
 21
887.58887105621716
 31
0.0
  0
TEXT
  5
33E9B
  8
SUNPO
 62
     1
 10
343.39845291323923
 20
848.21387105621852
 30
0.0
 40
7.5
  1
10
 50
90.0
 72
     4
 11
339.64845291323923
 21
852.58887105621852
 31
0.0
  0
CIRCLE
  5
33E9C
  8
SUNPO
 62
     1
 10
346.64845291323923
 20
857.58887105621784
 30
0.0
 40
1.0
  0
CIRCLE
  5
33E9D
  8
SUNPO
 62
     1
 10
346.64845291323923
 20
847.58887105621818
 30
0.0
 40
1.0
  0
LINE
  5
33E9E
  8
SUNPO
  6
CONTINUOUS
 62
     1
 10
346.64845291323923
 20
847.58887105621818
 30
0.0
 11
346.64845291323923
 21
857.58887105621784
 31
0.0
  0
LINE
  5
33E9F
  8
SUNPO
  6
CONTINUOUS
 62
     1
 10
362.64845291323888
 20
857.58887105621784
 30
0.0
 11
362.64845291323888
 21
872.58887105621659
 31
0.0
  0
CIRCLE
  5
33EA0
  8
SUNPO
 62
     1
 10
362.64845291323888
 20
857.58887105621784
 30
0.0
 40
1.0
  0
CIRCLE
  5
33EA1
  8
SUNPO
 62
     1
 10
361.64845291323923
 20
857.58887105621784
 30
0.0
 40
1.0
  0
CIRCLE
  5
33EA2
  8
SUNPO
 62
     1
 10
362.64845291323888
 20
885.5888710562167
 30
0.0
 40
1.0
  0
CIRCLE
  5
33EA3
  8
SUNPO
 62
     1
 10
362.64845291323888
 20
872.58887105621659
 30
0.0
 40
1.0
  0
LINE
  5
33EA4
  8
SUNPO
  6
CONTINUOUS
 62
     1
 10
362.64845291323888
 20
872.58887105621659
 30
0.0
 11
362.64845291323888
 21
885.5888710562167
 31
0.0
  0
LINE
  5
33EA5
  8
SUNPO
 62
     1
 10
378.648452913239
 20
831.58887105621795
 30
0.0
 11
378.648452913239
 21
855.58887105621716
 31
0.0
  0
CIRCLE
  5
33EA6
  8
SUNPO
 62
     1
 10
378.648452913239
 20
831.58887105621795
 30
0.0
 40
1.0
  0
TEXT
  5
33EA7
  8
SUNPO
 62
     1
 10
360.39850000000001
 20
895.33887105621784
 30
0.0
 40
7.5
  1
32
 50
90.0
 72
     4
 11
356.64850000000001
 21
901.58887105621784
 31
0.0
  0
LINE
  5
33EA8
  8
SUNPO
 62
     1
 10
362.64845291323888
 20
917.58887105621761
 30
0.0
 11
376.64845291323911
 21
917.58887105621761
 31
0.0
  0
LINE
  5
33EA9
  8
SUNPO
 62
     1
 10
346.64845291323923
 20
917.58887105621761
 30
0.0
 11
376.64845291323911
 21
917.58887105621761
 31
0.0
  0
CIRCLE
  5
33EAA
  8
SUNPO
 62
     1
 10
346.64845291323923
 20
917.58887105621761
 30
0.0
 40
1.0
  0
CIRCLE
  5
33EAB
  8
SUNPO
 62
     1
 10
362.64845291323888
 20
917.58887105621761
 30
0.0
 40
1.0
  0
CIRCLE
  5
33EAC
  8
SUNPO
 62
     1
 10
378.648452913239
 20
954.43887105621752
 30
0.0
 40
1.0
  0
CIRCLE
  5
33EAD
  8
SUNPO
 62
     1
 10
378.648452913239
 20
975.33887105621864
 30
0.0
 40
1.0
  0
LINE
  5
33EAE
  8
SUNPO
 62
     1
 10
378.648452913239
 20
954.43887105621752
 30
0.0
 11
387.64845291323888
 21
954.43887105621752
 31
0.0
  0
LINE
  5
33EAF
  8
SUNPO
 62
     1
 10
378.648452913239
 20
975.33887105621864
 30
0.0
 11
378.648452913239
 21
975.33887105621864
 31
0.0
  0
LINE
  5
33EB0
  8
SUNPO
 62
     1
 10
378.648452913239
 20
954.43887105621752
 30
0.0
 11
378.648452913239
 21
954.43887105621752
 31
0.0
  0
CIRCLE
  5
33EB1
  8
SUNPO
 62
     1
 10
387.64845291323888
 20
954.43887105621752
 30
0.0
 40
1.0
  0
LINE
  5
33EB2
  8
SUNPO
 62
     1
 10
387.64845291323888
 20
954.43887105621752
 30
0.0
 11
387.64845291323888
 21
954.43887105621752
 31
0.0
  0
LINE
  5
33EB3
  8
SUNPO
 62
     1
 10
387.64845291323888
 20
954.43887105621752
 30
0.0
 11
387.64845291323888
 21
954.43887105621752
 31
0.0
  0
LINE
  5
33EB4
  8
SUNPO
 62
     1
 10
408.64845291323888
 20
831.58887105621795
 30
0.0
 11
408.64845291323888
 21
845.5888710562167
 31
0.0
  0
CIRCLE
  5
33EB5
  8
SUNPO
 62
     1
 10
408.64845291323888
 20
831.58887105621795
 30
0.0
 40
1.0
  0
TEXT
  5
33EB6
  8
SUNPO
 62
     1
 10
397.02345291323883
 20
956.68889999999988
 30
0.0
 40
7.5
  1
30
 72
     4
 11
402.64845291323883
 21
960.43889999999988
 31
0.0
  0
CIRCLE
  5
33EB7
  8
SUNPO
 62
     1
 10
417.64845291323871
 20
954.43887105621752
 30
0.0
 40
1.0
  0
LINE
  5
33EB8
  8
SUNPO
 62
     1
 10
417.64845291323871
 20
954.43887105621752
 30
0.0
 11
417.64845291323871
 21
954.43887105621752
 31
0.0
  0
LINE
  5
33EB9
  8
SUNPO
 62
     1
 10
417.64845291323871
 20
954.43887105621752
 30
0.0
 11
417.64845291323871
 21
954.43887105621752
 31
0.0
  0
TEXT
  5
33EBA
  8
SUNPO
 62
     1
 10
388.02345291323883
 20
1185.8389
 30
0.0
 40
7.5
  1
30
 72
     4
 11
393.64845291323888
 21
1189.5889
 31
0.0
  0
LINE
  5
33EBB
  8
SUNPO
  6
CONTINUOUS
 62
     1
 10
378.648452913239
 20
1183.5888710562181
 30
0.0
 11
408.64845291323888
 21
1183.5888710562181
 31
0.0
  0
LINE
  5
33EBC
  8
SUNPO
  6
CONTINUOUS
 62
     1
 10
346.64845291323923
 20
1157.5888710562181
 30
0.0
 11
406.64845291323923
 21
1157.5888710562181
 31
0.0
  0
LINE
  5
33EBD
  8
SUNPO
  6
CONTINUOUS
 62
     1
 10
346.64845291323923
 20
1157.5888710562181
 30
0.0
 11
406.64845291323923
 21
1157.5888710562181
 31
0.0
  0
LINE
  5
33EBE
  8
SUNPO
  6
CONTINUOUS
 62
     1
 10
346.64845291323923
 20
1167.5888710562181
 30
0.0
 11
406.64845291323923
 21
1167.5888710562181
 31
0.0
  0
LINE
  5
33EBF
  8
SUNPO
  6
CONTINUOUS
 62
     1
 10
346.64845291323923
 20
1119.588871056216
 30
0.0
 11
346.64845291323923
 21
1154.5888710562181
 31
0.0
  0
LINE
  5
33EC0
  8
SUNPO
  6
CONTINUOUS
 62
     1
 10
346.64845291323923
 20
1119.588871056216
 30
0.0
 11
376.64845291323911
 21
1119.588871056216
 31
0.0
  0
CIRCLE
  5
33EC1
  8
SUNPO
 62
     1
 10
346.64845291323923
 20
1119.588871056216
 30
0.0
 40
1.0
  0
LINE
  5
33EC2
  8
SUNPO
  6
CONTINUOUS
 62
     1
 10
346.64845291323923
 20
1154.5888710562181
 30
0.0
 11
376.64845291323911
 21
1154.5888710562181
 31
0.0
  0
LINE
  5
33EC3
  8
SUNPO
  6
CONTINUOUS
 62
     1
 10
346.64845291323923
 20
1154.5888710562181
 30
0.0
 11
376.64845291323911
 21
1154.5888710562181
 31
0.0
  0
TEXT
  5
33EC4
  8
SUNPO
 62
     1
 10
343.39850000000001
 20
1130.8388710562181
 30
0.0
 40
7.5
  1
35
 50
90.0
 72
     4
 11
339.64850000000001
 21
1137.0888710562181
 31
0.0
  0
TEXT
  5
33EC5
  8
SUNPO
 62
     1
 10
350.39845291323923
 20
1171.6638710562161
 30
0.0
 40
7.5
  1
10
 50
90.0
 72
     4
 11
346.64845291323923
 21
1176.0388710562161
 31
0.0
  0
CIRCLE
  5
33EC6
  8
SUNPO
 62
     1
 10
346.64845291323923
 20
1154.5888710562181
 30
0.0
 40
1.0
  0
TEXT
  5
33EC7
  8
SUNPO
 62
     1
 10
343.39845291323923
 20
1153.588871056216
 30
0.0
 40
7.5
  1
3
 50
90.0
 72
     4
 11
339.64845291323923
 21
1156.088871056216
 31
0.0
  0
LINE
  5
33EC8
  8
SUNPO
  6
CONTINUOUS
 62
     1
 10
346.64845291323923
 20
1154.5888710562181
 30
0.0
 11
346.64845291323923
 21
1157.5888710562181
 31
0.0
  0
CIRCLE
  5
33EC9
  8
SUNPO
 62
     1
 10
346.64845291323923
 20
1157.5888710562181
 30
0.0
 40
1.0
  0
CIRCLE
  5
33ECA
  8
SUNPO
 62
     1
 10
346.64845291323923
 20
1167.5888710562181
 30
0.0
 40
1.0
  0
LINE
  5
33ECB
  8
SUNPO
  6
CONTINUOUS
 62
     1
 10
346.64845291323923
 20
1157.5888710562181
 30
0.0
 11
346.64845291323923
 21
1167.5888710562181
 31
0.0
  0
CIRCLE
  5
33ECC
  8
SUNPO
 62
     1
 10
378.648452913239
 20
1183.5888710562181
 30
0.0
 40
1.0
  0
LINE
  5
33ECD
  8
SUNPO
  6
CONTINUOUS
 62
     1
 10
378.648452913239
 20
1183.5888710562181
 30
0.0
 11
378.648452913239
 21
1156.588871056216
 31
0.0
  0
CIRCLE
  5
33ECE
  8
SUNPO
 62
     1
 10
408.64845291323888
 20
1183.5888710562181
 30
0.0
 40
1.0
  0
LINE
  5
33ECF
  8
SUNPO
  6
CONTINUOUS
 62
     1
 10
408.64845291323888
 20
1183.5888710562181
 30
0.0
 11
408.64845291323888
 21
1169.5888710562181
 31
0.0
  0
TEXT
  5
33ED0
  8
SUNPO
 62
     1
 10
468.44849999999991
 20
87.088871056218537
 30
0.0
 40
7.5
  1
D
 50
90.0
 72
     4
 11
464.69849999999991
 21
89.588871056218537
 31
0.0
  0
LINE
  5
33ED1
  8
SUNPO
  6
CONTINUOUS
 62
     1
 10
470.69845291323918
 20
129.58887105621849
 30
0.0
 11
470.69845291323918
 21
49.588871056218423
 31
0.0
  0
LINE
  5
33ED2
  8
SUNPO
 62
     1
 10
609.1984529132377
 20
17.588871056218519
 30
0.0
 11
609.1984529132377
 21
127.58887105621839
 31
0.0
  0
LINE
  5
33ED3
  8
SUNPO
 62
     1
 10
634.1984529132377
 20
17.588871056218519
 30
0.0
 11
634.1984529132377
 21
127.58887105621839
 31
0.0
  0
LINE
  5
33ED4
  8
SUNPO
 62
     1
 10
454.69845291323941
 20
75.588871056218522
 30
0.0
 11
454.69845291323941
 21
49.588871056218423
 31
0.0
  0
CIRCLE
  5
33ED5
  8
SUNPO
 62
     1
 10
454.69845291323941
 20
49.588871056218423
 30
0.0
 40
1.0
  0
CIRCLE
  5
33ED6
  8
SUNPO
 62
     1
 10
454.69845291323941
 20
75.588871056218522
 30
0.0
 40
1.0
  0
CIRCLE
  5
33ED7
  8
SUNPO
 62
     1
 10
470.69845291323918
 20
49.588871056218423
 30
0.0
 40
1.0
  0
LINE
  5
33ED8
  8
SUNPO
 62
     1
 10
634.1984529132377
 20
17.588871056218519
 30
0.0
 11
609.1984529132377
 21
17.588871056218519
 31
0.0
  0
POLYLINE
  5
33ED9
  8
SUNPO
 62
     1
 66
     1
 10
0.0
 20
0.0
 30
0.0
 70
     1
  0
VERTEX
  5
34469
  8
SUNPO
 62
     1
 10
609.19845691323894
 20
17.588871056218519
 30
0.0
  0
VERTEX
  5
3446A
  8
SUNPO
 62
     1
 10
602.94845691323962
 20
20.088871056218451
 30
0.0
  0
VERTEX
  5
3446B
  8
SUNPO
 62
     1
 10
602.94845691323962
 20
15.088871056218521
 30
0.0
  0
SEQEND
  5
3446C
  8
SUNPO
 62
     1
  0
LINE
  5
33EDE
  8
SUNPO
  6
CONTINUOUS
 62
     1
 10
609.19845691323894
 20
17.588871056218519
 30
0.0
 11
609.19845691323894
 21
17.588871056218519
 31
0.0
  0
TEXT
  5
33EDF
  8
SUNPO
 62
     1
 10
615.44845291323816
 20
19.838899999999992
 30
0.0
 40
7.5
  1
25
 72
     4
 11
621.69845291323816
 21
23.588899999999999
 31
0.0
  0
CIRCLE
  5
33EE0
  8
SUNPO
 62
     1
 10
634.1984529132377
 20
17.588871056218519
 30
0.0
 40
1.0
  0
LINE
  5
33EE1
  8
SUNPO
  6
CONTINUOUS
 62
     1
 10
575.89845291323923
 20
452.08887105621699
 30
0.0
 11
561.89845291323945
 21
452.08887105621699
 31
0.0
  0
LINE
  5
33EE2
  8
SUNPO
  6
CONTINUOUS
 62
     1
 10
575.89845291323923
 20
439.0888710562183
 30
0.0
 11
521.89845291323945
 21
439.0888710562183
 31
0.0
  0
LINE
  5
33EE3
  8
SUNPO
 62
     1
 10
470.69845291323918
 20
229.58887105621841
 30
0.0
 11
470.69845291323918
 21
129.58887105621849
 31
0.0
  0
CIRCLE
  5
33EE4
  8
SUNPO
 62
     1
 10
470.69845291323918
 20
129.58887105621849
 30
0.0
 40
1.0
  0
TEXT
  5
33EE5
  8
SUNPO
 62
     1
 10
468.44849999999991
 20
172.08887105621841
 30
0.0
 40
7.5
  1
100
 50
90.0
 72
     4
 11
464.69849999999991
 21
179.58887105621841
 31
0.0
  0
CIRCLE
  5
33EE6
  8
SUNPO
 62
     1
 10
470.69845291323918
 20
229.58887105621841
 30
0.0
 40
1.0
  0
LINE
  5
33EE7
  8
SUNPO
  6
CONTINUOUS
 62
     1
 10
501.89845291323923
 20
468.0888710562183
 30
0.0
 11
519.89845291323945
 21
468.0888710562183
 31
0.0
  0
TEXT
  5
33EE8
  8
SUNPO
 62
     1
 10
479.27345291323888
 20
486.33890000000002
 30
0.0
 40
7.5
  1
70
 72
     4
 11
484.898452913239
 21
490.08890000000002
 31
0.0
  0
LINE
  5
33EE9
  8
SUNPO
  6
CONTINUOUS
 62
     1
 10
501.89845291323923
 20
468.0888710562183
 30
0.0
 11
467.89845291323911
 21
468.0888710562183
 31
0.0
  0
LINE
  5
33EEA
  8
SUNPO
  6
CONTINUOUS
 62
     1
 10
467.89845291323911
 20
468.0888710562183
 30
0.0
 11
467.89845291323911
 21
454.08887105621818
 31
0.0
  0
CIRCLE
  5
33EEB
  8
SUNPO
 62
     1
 10
467.89845291323911
 20
468.0888710562183
 30
0.0
 40
1.0
  0
LINE
  5
33EEC
  8
SUNPO
  6
CONTINUOUS
 62
     1
 10
501.89845291323923
 20
468.0888710562183
 30
0.0
 11
501.89845291323923
 21
454.08887105621818
 31
0.0
  0
CIRCLE
  5
33EED
  8
SUNPO
 62
     1
 10
501.89845291323923
 20
468.0888710562183
 30
0.0
 40
1.0
  0
LINE
  5
33EEE
  8
SUNPO
  6
CONTINUOUS
 62
     1
 10
501.89845291323923
 20
468.0888710562183
 30
0.0
 11
501.89845291323923
 21
468.0888710562183
 31
0.0
  0
CIRCLE
  5
33EEF
  8
SUNPO
 62
     1
 10
519.89845291323945
 20
484.08887105621659
 30
0.0
 40
1.0
  0
LINE
  5
33EF0
  8
SUNPO
  6
CONTINUOUS
 62
     1
 10
519.89845291323945
 20
484.08887105621659
 30
0.0
 11
519.89845291323945
 21
454.08887105621818
 31
0.0
  0
LINE
  5
33EF1
  8
SUNPO
  6
CONTINUOUS
 62
     1
 10
519.89845291323945
 20
468.0888710562183
 30
0.0
 11
519.89845291323945
 21
454.08887105621818
 31
0.0
  0
CIRCLE
  5
33EF2
  8
SUNPO
 62
     1
 10
519.89845291323945
 20
469.08887105621687
 30
0.0
 40
1.0
  0
TEXT
  5
33EF3
  8
SUNPO
 62
     1
 10
618.82539683830407
 20
248.74350000000001
 30
0.0
 40
7.5
  1
30
 72
     1
 11
624.45039683830419
 21
248.74350000000001
 31
0.0
  0
LINE
  5
33EF4
  8
SUNPO
 62
     1
 10
609.1984529132377
 20
245.58887105621841
 30
0.0
 11
639.19845291323782
 21
245.58887105621841
 31
0.0
  0
LINE
  5
33EF5
  8
SUNPO
 62
     1
 10
572.19845291323918
 20
220.58887105621841
 30
0.0
 11
572.19845291323918
 21
190.58887105621841
 31
0.0
  0
LINE
  5
33EF6
  8
SUNPO
 62
     1
 10
572.19845291323918
 20
190.58887105621841
 30
0.0
 11
572.19845291323918
 21
129.58887105621849
 31
0.0
  0
CIRCLE
  5
33EF7
  8
SUNPO
 62
     1
 10
572.19845291323918
 20
129.58887105621849
 30
0.0
 40
1.0
  0
CIRCLE
  5
33EF8
  8
SUNPO
 62
     1
 10
572.19845291323918
 20
190.58887105621841
 30
0.0
 40
1.0
  0
CIRCLE
  5
33EF9
  8
SUNPO
 62
     1
 10
572.19845291323918
 20
220.58887105621841
 30
0.0
 40
1.0
  0
CIRCLE
  5
33EFA
  8
SUNPO
 62
     1
 10
572.19845291323918
 20
229.58887105621841
 30
0.0
 40
1.0
  0
LINE
  5
33EFB
  8
SUNPO
 62
     1
 10
572.19845291323918
 20
229.58887105621841
 30
0.0
 11
572.19845291323918
 21
220.58887105621841
 31
0.0
  0
LINE
  5
33EFC
  8
SUNPO
 62
     1
 10
609.1984529132377
 20
245.58887105621841
 30
0.0
 11
609.1984529132377
 21
231.5888710562183
 31
0.0
  0
CIRCLE
  5
33EFD
  8
SUNPO
 62
     1
 10
609.1984529132377
 20
245.58887105621841
 30
0.0
 40
1.0
  0
LINE
  5
33EFE
  8
SUNPO
 62
     1
 10
665.0984529132395
 20
229.58887105621841
 30
0.0
 11
665.0984529132395
 21
199.58887105621841
 31
0.0
  0
LINE
  5
33EFF
  8
SUNPO
 62
     1
 10
649.09845291323893
 20
245.58887105621841
 30
0.0
 11
649.09845291323893
 21
201.58887105621841
 31
0.0
  0
LINE
  5
33F00
  8
SUNPO
 62
     1
 10
665.0984529132395
 20
199.58887105621841
 30
0.0
 11
651.0984529132395
 21
199.58887105621841
 31
0.0
  0
CIRCLE
  5
33F01
  8
SUNPO
 62
     1
 10
665.0984529132395
 20
199.58887105621841
 30
0.0
 40
1.0
  0
LINE
  5
33F02
  8
SUNPO
 62
     1
 10
665.0984529132395
 20
229.58887105621841
 30
0.0
 11
641.19845291323895
 21
229.58887105621841
 31
0.0
  0
TEXT
  5
33F03
  8
SUNPO
 62
     1
 10
640.02539283830492
 20
248.74346010171911
 30
0.0
 40
7.5
  1
10
 72
     1
 11
644.40039283830492
 21
248.74346010171911
 31
0.0
  0
LINE
  5
33F04
  8
SUNPO
 62
     1
 10
639.19845291323782
 20
245.58887105621841
 30
0.0
 11
649.09845291323893
 21
245.58887105621841
 31
0.0
  0
LINE
  5
33F05
  8
SUNPO
 62
     1
 10
639.19845291323782
 20
245.58887105621841
 30
0.0
 11
639.19845291323782
 21
231.5888710562183
 31
0.0
  0
LINE
  5
33F06
  8
SUNPO
 62
     1
 10
639.19845291323782
 20
245.58887105621841
 30
0.0
 11
639.19845291323782
 21
231.5888710562183
 31
0.0
  0
CIRCLE
  5
33F07
  8
SUNPO
 62
     1
 10
639.19845291323782
 20
245.58887105621841
 30
0.0
 40
1.0
  0
CIRCLE
  5
33F08
  8
SUNPO
 62
     1
 10
649.09845291323893
 20
245.58887105621841
 30
0.0
 40
1.0
  0
CIRCLE
  5
33F09
  8
SUNPO
 62
     1
 10
665.0984529132395
 20
229.58887105621841
 30
0.0
 40
1.0
  0
TEXT
  5
33F0A
  8
SUNPO
 62
     1
 10
662.84849999999994
 20
208.9638710562183
 30
0.0
 40
7.5
  1
30
 50
90.0
 72
     4
 11
659.09849999999994
 21
214.5888710562183
 31
0.0
  0
CIRCLE
  5
33F0B
  8
SUNPO
 62
     1
 10
575.89845291323923
 20
439.0888710562183
 30
0.0
 40
1.0
  0
CIRCLE
  5
33F0C
  8
SUNPO
 62
     1
 10
575.89845291323923
 20
452.08887105621699
 30
0.0
 40
1.0
  0
LINE
  5
33F0D
  8
SUNPO
  6
CONTINUOUS
 62
     1
 10
575.89845291323923
 20
452.08887105621699
 30
0.0
 11
575.89845291323923
 21
439.0888710562183
 31
0.0
  0
LINE
  5
33F0E
  8
SUNPO
 62
     1
 10
494.648452913239
 20
1119.588871056216
 30
0.0
 11
494.648452913239
 21
917.58887105621761
 31
0.0
  0
LINE
  5
33F0F
  8
SUNPO
 62
     1
 10
575.89845291323923
 20
654.08887105621795
 30
0.0
 11
561.89845291323945
 21
654.08887105621795
 31
0.0
  0
LINE
  5
33F10
  8
SUNPO
 62
     1
 10
575.89845291323923
 20
669.08887105621795
 30
0.0
 11
521.89845291323945
 21
669.08887105621795
 31
0.0
  0
LINE
  5
33F11
  8
SUNPO
  6
CONTINUOUS
 62
     1
 10
478.648452913239
 20
975.33887105621864
 30
0.0
 11
618.64845291323843
 21
975.33887105621864
 31
0.0
  0
TEXT
  5
33F12
  8
SUNPO
 62
     1
 10
492.39850000000001
 20
888.83887105621784
 30
0.0
 40
7.5
  1
45
 50
90.0
 72
     4
 11
488.64850000000001
 21
895.08887105621784
 31
0.0
  0
LINE
  5
33F13
  8
SUNPO
 62
     1
 10
494.64845291323923
 20
917.58887105621761
 30
0.0
 11
494.648452913239
 21
872.58887105621659
 31
0.0
  0
LINE
  5
33F14
  8
SUNPO
 62
     1
 10
494.648452913239
 20
872.58887105621659
 30
0.0
 11
480.64845291323883
 21
872.58887105621659
 31
0.0
  0
LINE
  5
33F15
  8
SUNPO
 62
     1
 10
494.648452913239
 20
857.58887105621784
 30
0.0
 11
480.64845291323883
 21
857.58887105621784
 31
0.0
  0
LINE
  5
33F16
  8
SUNPO
 62
     1
 10
494.648452913239
 20
872.58887105621659
 30
0.0
 11
480.64845291323883
 21
872.58887105621659
 31
0.0
  0
TEXT
  5
33F17
  8
SUNPO
 62
     1
 10
492.39850000000001
 20
860.08887105621864
 30
0.0
 40
7.5
  1
15
 50
90.0
 72
     4
 11
488.64850000000001
 21
865.08887105621852
 31
0.0
  0
LINE
  5
33F18
  8
SUNPO
 62
     1
 10
494.648452913239
 20
872.58887105621659
 30
0.0
 11
494.648452913239
 21
857.58887105621784
 31
0.0
  0
CIRCLE
  5
33F19
  8
SUNPO
 62
     1
 10
494.648452913239
 20
857.58887105621784
 30
0.0
 40
1.0
  0
CIRCLE
  5
33F1A
  8
SUNPO
 62
     1
 10
494.648452913239
 20
872.58887105621659
 30
0.0
 40
1.0
  0
LINE
  5
33F1B
  8
SUNPO
 62
     1
 10
494.648452913239
 20
917.58887105621761
 30
0.0
 11
480.64845291323883
 21
917.58887105621761
 31
0.0
  0
CIRCLE
  5
33F1C
  8
SUNPO
 62
     1
 10
478.648452913239
 20
954.43887105621752
 30
0.0
 40
1.0
  0
CIRCLE
  5
33F1D
  8
SUNPO
 62
     1
 10
478.648452913239
 20
975.33887105621864
 30
0.0
 40
1.0
  0
POLYLINE
  5
33F1E
  8
SUNPO
 62
     1
 66
     1
 10
0.0
 20
0.0
 30
0.0
 70
     1
  0
VERTEX
  5
3446D
  8
SUNPO
 62
     1
 10
494.648452913239
 20
917.58887105621761
 30
0.0
  0
VERTEX
  5
3446E
  8
SUNPO
 62
     1
 10
492.14845291323883
 20
923.83887105621761
 30
0.0
  0
VERTEX
  5
3446F
  8
SUNPO
 62
     1
 10
497.14845291323883
 20
923.83887105621761
 30
0.0
  0
SEQEND
  5
34470
  8
SUNPO
 62
     1
  0
LINE
  5
33F23
  8
SUNPO
 62
     1
 10
494.648452913239
 20
917.58887105621761
 30
0.0
 11
494.648452913239
 21
917.58887105621761
 31
0.0
  0
LINE
  5
33F24
  8
SUNPO
  6
CONTINUOUS
 62
     1
 10
494.648452913239
 20
917.58887105621761
 30
0.0
 11
494.648452913239
 21
917.58887105621761
 31
0.0
  0
LINE
  5
33F25
  8
SUNPO
 62
     1
 10
494.648452913239
 20
917.58887105621761
 30
0.0
 11
494.648452913239
 21
917.58887105621761
 31
0.0
  0
LINE
  5
33F26
  8
SUNPO
 62
     1
 10
537.64845291323923
 20
887.58887105621716
 30
0.0
 11
537.64845291323923
 21
917.58887105621761
 31
0.0
  0
CIRCLE
  5
33F27
  8
SUNPO
 62
     1
 10
537.64845291323923
 20
887.58887105621716
 30
0.0
 40
1.0
  0
LINE
  5
33F28
  8
SUNPO
 62
     1
 10
537.64845291323923
 20
887.58887105621716
 30
0.0
 11
537.64845291323923
 21
887.58887105621716
 31
0.0
  0
TEXT
  5
33F29
  8
SUNPO
 62
     1
 10
535.39850000000001
 20
896.96387105621704
 30
0.0
 40
7.5
  1
30
 50
90.0
 72
     4
 11
531.64850000000001
 21
902.58887105621704
 31
0.0
  0
CIRCLE
  5
33F2A
  8
SUNPO
 62
     1
 10
537.64845291323923
 20
917.58887105621761
 30
0.0
 40
1.0
  0
LINE
  5
33F2B
  8
SUNPO
 62
     1
 10
537.64845291323923
 20
917.58887105621761
 30
0.0
 11
537.64845291323923
 21
917.58887105621761
 31
0.0
  0
TEXT
  5
33F2C
  8
SUNPO
 62
     1
 10
573.64850000000001
 20
656.58887105621761
 30
0.0
 40
7.5
  1
15
 50
90.0
 72
     4
 11
569.89850000000001
 21
661.58887105621761
 31
0.0
  0
LINE
  5
33F2D
  8
SUNPO
 62
     1
 10
575.89845291323923
 20
669.08887105621795
 30
0.0
 11
575.89845291323923
 21
654.08887105621795
 31
0.0
  0
CIRCLE
  5
33F2E
  8
SUNPO
 62
     1
 10
575.89845291323923
 20
654.08887105621795
 30
0.0
 40
1.0
  0
CIRCLE
  5
33F2F
  8
SUNPO
 62
     1
 10
575.89845291323923
 20
669.08887105621795
 30
0.0
 40
1.0
  0
LINE
  5
33F30
  8
SUNPO
  6
CONTINUOUS
 62
     1
 10
592.64845291323923
 20
996.18887105621855
 30
0.0
 11
618.64845291323843
 21
996.18887105621855
 31
0.0
  0
CIRCLE
  5
33F31
  8
SUNPO
 62
     1
 10
592.64845291323923
 20
996.18887105621855
 30
0.0
 40
1.0
  0
LINE
  5
33F32
  8
SUNPO
  6
CONTINUOUS
 62
     1
 10
618.64845291323843
 20
988.18887105621855
 30
0.0
 11
618.64845291323843
 21
967.33887105621784
 31
0.0
  0
CIRCLE
  5
33F33
  8
SUNPO
 62
     1
 10
618.64845291323843
 20
975.33887105621864
 30
0.0
 40
1.0
  0
CIRCLE
  5
33F34
  8
SUNPO
 62
     1
 10
618.64845291323843
 20
996.18887105621855
 30
0.0
 40
1.0
  0
LINE
  5
33F35
  8
SUNPO
 62
     1
 10
618.64845291323843
 20
1004.188871056218
 30
0.0
 11
618.64845291323843
 21
988.18887105621855
 31
0.0
  0
LINE
  5
33F36
  8
SUNPO
 62
     1
 10
494.648452913239
 20
1154.5888710562181
 30
0.0
 11
494.648452913239
 21
1119.588871056216
 31
0.0
  0
LINE
  5
33F37
  8
SUNPO
 62
     1
 10
494.648452913239
 20
1119.588871056216
 30
0.0
 11
480.64845291323883
 21
1119.588871056216
 31
0.0
  0
TEXT
  5
33F38
  8
SUNPO
 62
     1
 10
492.4939
 20
1016.123625870164
 30
0.0
 40
7.5
  1
H
 50
90.0
 72
     1
 11
492.4939
 21
1018.623625870164
 31
0.0
  0
POLYLINE
  5
33F39
  8
SUNPO
 62
     1
 66
     1
 10
0.0
 20
0.0
 30
0.0
 70
     1
  0
VERTEX
  5
34471
  8
SUNPO
 62
     1
 10
494.648452913239
 20
1119.588871056216
 30
0.0
  0
VERTEX
  5
34472
  8
SUNPO
 62
     1
 10
492.14845291323883
 20
1113.3388710562151
 30
0.0
  0
VERTEX
  5
34473
  8
SUNPO
 62
     1
 10
497.14845291323883
 20
1113.3388710562151
 30
0.0
  0
SEQEND
  5
34474
  8
SUNPO
 62
     1
  0
LINE
  5
33F3E
  8
SUNPO
 62
     1
 10
494.648452913239
 20
1119.588871056216
 30
0.0
 11
494.648452913239
 21
1119.588871056216
 31
0.0
  0
LINE
  5
33F3F
  8
SUNPO
  6
CONTINUOUS
 62
     1
 10
494.648452913239
 20
1119.588871056216
 30
0.0
 11
494.648452913239
 21
1119.588871056216
 31
0.0
  0
LINE
  5
33F40
  8
SUNPO
 62
     1
 10
494.648452913239
 20
1154.5888710562181
 30
0.0
 11
480.64845291323883
 21
1154.5888710562181
 31
0.0
  0
TEXT
  5
33F41
  8
SUNPO
 62
     1
 10
492.39850000000001
 20
1130.8388710562181
 30
0.0
 40
7.5
  1
35
 50
90.0
 72
     4
 11
488.64850000000001
 21
1137.0888710562181
 31
0.0
  0
CIRCLE
  5
33F42
  8
SUNPO
 62
     1
 10
494.648452913239
 20
1154.5888710562181
 30
0.0
 40
1.0
  0
LINE
  5
33F43
  8
SUNPO
 62
     1
 10
537.64845291323923
 20
1119.588871056216
 30
0.0
 11
537.64845291323923
 21
1149.5888710562181
 31
0.0
  0
LINE
  5
33F44
  8
SUNPO
 62
     1
 10
521.64845291323877
 20
1119.588871056216
 30
0.0
 11
521.64845291323877
 21
1164.5888710562181
 31
0.0
  0
CIRCLE
  5
33F45
  8
SUNPO
 62
     1
 10
521.64845291323877
 20
1119.588871056216
 30
0.0
 40
1.0
  0
CIRCLE
  5
33F46
  8
SUNPO
 62
     1
 10
537.64845291323923
 20
1119.588871056216
 30
0.0
 40
1.0
  0
TEXT
  5
33F47
  8
SUNPO
 62
     1
 10
535.39850000000001
 20
1128.9638710562151
 30
0.0
 40
7.5
  1
30
 50
90.0
 72
     4
 11
531.64850000000001
 21
1134.588871056216
 31
0.0
  0
TEXT
  5
33F48
  8
SUNPO
 62
     1
 10
519.39849999999979
 20
1135.8388710562181
 30
0.0
 40
7.5
  1
45
 50
90.0
 72
     4
 11
515.6484999999999
 21
1142.0888710562181
 31
0.0
  0
CIRCLE
  5
33F49
  8
SUNPO
 62
     1
 10
521.64845291323877
 20
1164.5888710562181
 30
0.0
 40
1.0
  0
LINE
  5
33F4A
  8
SUNPO
 62
     1
 10
521.64845291323877
 20
1164.5888710562181
 30
0.0
 11
521.64845291323877
 21
1164.5888710562181
 31
0.0
  0
CIRCLE
  5
33F4B
  8
SUNPO
 62
     1
 10
537.64845291323923
 20
1149.5888710562181
 30
0.0
 40
1.0
  0
LINE
  5
33F4C
  8
SUNPO
 62
     1
 10
537.64845291323923
 20
1149.5888710562181
 30
0.0
 11
537.64845291323923
 21
1149.5888710562181
 31
0.0
  0
LINE
  5
33F4D
  8
DANMEN
  6
CONTINUOUS
 62
     7
 10
395.148452913239
 20
905.08887105621784
 30
0.0
 11
410.148452913239
 21
905.08887105621784
 31
0.0
  0
LINE
  5
33F4E
  8
DANMEN
  6
CONTINUOUS
 62
     7
 10
395.148452913239
 20
1134.0888710562181
 30
0.0
 11
410.148452913239
 21
1134.0888710562181
 31
0.0
  0
LINE
  5
33F4F
  8
DANMEN
  6
CONTINUOUS
 62
     7
 10
475.39845291323923
 20
668.58887105621852
 30
0.0
 11
494.39845291323923
 21
668.58887105621852
 31
0.0
  0
LINE
  5
33F50
  8
DANMEN
 62
     7
 10
413.19845291323941
 20
191.58887105621841
 30
0.0
 11
394.19845291323912
 21
191.58887105621841
 31
0.0
  0
LINE
  5
33F51
  8
DANMEN
 62
     7
 10
407.19845291323912
 20
213.08887105621841
 30
0.0
 11
407.19845291323912
 21
198.08887105621841
 31
0.0
  0
LINE
  5
33F52
  8
DANMEN
 62
     7
 10
400.19845291323918
 20
213.08887105621841
 30
0.0
 11
400.19845291323918
 21
198.08887105621841
 31
0.0
  0
LINE
  5
33F53
  8
DANMEN
 62
     7
 10
412.09462904407678
 20
192.08887105621841
 30
0.0
 11
413.19845291323941
 21
193.19269492538101
 31
0.0
  0
LINE
  5
33F54
  8
DANMEN
 62
     7
 10
406.69845291323901
 20
211.30496002169991
 30
0.0
 11
404.9145418787208
 21
213.08887105621841
 31
0.0
  0
LINE
  5
33F55
  8
DANMEN
 62
     7
 10
406.69845291323901
 20
208.47653289695401
 30
0.0
 11
402.08611475397481
 21
213.08887105621841
 31
0.0
  0
LINE
  5
33F56
  8
DANMEN
 62
     7
 10
406.69845291323901
 20
205.648105772208
 30
0.0
 11
400.69845291323941
 21
211.6481057722078
 31
0.0
  0
LINE
  5
33F57
  8
DANMEN
 62
     7
 10
406.69845291323901
 20
202.8196786474615
 30
0.0
 11
400.69845291323941
 21
208.81967864746159
 31
0.0
  0
LINE
  5
33F58
  8
DANMEN
 62
     7
 10
413.19845291323941
 20
196.3196786474615
 30
0.0
 11
411.42926050448222
 21
198.08887105621841
 31
0.0
  0
LINE
  5
33F59
  8
DANMEN
 62
     7
 10
397.63027063125912
 20
192.08887105621841
 30
0.0
 11
394.19845291323912
 21
195.52068877423841
 31
0.0
  0
LINE
  5
33F5A
  8
DANMEN
 62
     7
 10
400.45869775600511
 20
192.08887105621841
 30
0.0
 11
394.45869775600511
 21
198.08887105621841
 31
0.0
  0
LINE
  5
33F5B
  8
DANMEN
 62
     7
 10
403.28712488075161
 20
192.08887105621841
 30
0.0
 11
397.28712488075109
 21
198.08887105621841
 31
0.0
  0
LINE
  5
33F5C
  8
DANMEN
 62
     7
 10
406.11555200549782
 20
192.08887105621841
 30
0.0
 11
400.11555200549748
 21
198.08887105621841
 31
0.0
  0
LINE
  5
33F5D
  8
DANMEN
 62
     7
 10
408.94397913024397
 20
192.08887105621841
 30
0.0
 11
400.69845291323941
 21
200.33439727322289
 31
0.0
  0
LINE
  5
33F5E
  8
DANMEN
 62
     7
 10
411.77240625499007
 20
192.08887105621841
 30
0.0
 11
400.69845291323941
 21
203.1628243979693
 31
0.0
  0
LINE
  5
33F5F
  8
DANMEN
 62
     7
 10
406.69845291323901
 20
199.9912515227154
 30
0.0
 11
400.69845291323941
 21
205.9912515227154
 31
0.0
  0
LINE
  5
33F60
  8
DANMEN
 62
     7
 10
413.19845291323941
 20
193.4912515227154
 30
0.0
 11
408.6008333797364
 21
198.08887105621841
 31
0.0
  0
LINE
  5
33F61
  8
DANMEN
 62
     7
 10
409.26620191933051
 20
192.08887105621841
 30
0.0
 11
413.19845291323941
 21
196.02112205012679
 31
0.0
  0
LINE
  5
33F62
  8
DANMEN
 62
     7
 10
406.43777479458453
 20
192.08887105621841
 30
0.0
 11
412.43777479458453
 21
198.08887105621841
 31
0.0
  0
LINE
  5
33F63
  8
DANMEN
 62
     7
 10
403.60934766983843
 20
192.08887105621841
 30
0.0
 11
409.60934766983831
 21
198.08887105621841
 31
0.0
  0
LINE
  5
33F64
  8
DANMEN
 62
     7
 10
400.78092054509221
 20
192.08887105621841
 30
0.0
 11
406.78092054509182
 21
198.08887105621841
 31
0.0
  0
LINE
  5
33F65
  8
DANMEN
 62
     7
 10
397.95249342034572
 20
192.08887105621841
 30
0.0
 11
406.69845291323901
 21
200.8348305491115
 31
0.0
  0
LINE
  5
33F66
  8
DANMEN
 62
     7
 10
400.69845291323941
 20
211.80539329758889
 30
0.0
 11
401.98193067186878
 21
213.08887105621841
 31
0.0
  0
LINE
  5
33F67
  8
DANMEN
 62
     7
 10
400.69845291323941
 20
208.9769661728424
 30
0.0
 11
404.81035779661482
 21
213.08887105621841
 31
0.0
  0
LINE
  5
33F68
  8
DANMEN
 62
     7
 10
400.69845291323941
 20
206.1485390480963
 30
0.0
 11
406.69845291323901
 21
212.1485390480963
 31
0.0
  0
LINE
  5
33F69
  8
DANMEN
 62
     7
 10
400.69845291323941
 20
203.3201119233504
 30
0.0
 11
406.69845291323901
 21
209.3201119233504
 31
0.0
  0
LINE
  5
33F6A
  8
DANMEN
 62
     7
 10
394.19845291323912
 20
196.82011192335051
 30
0.0
 11
395.46721204610719
 21
198.08887105621841
 31
0.0
  0
LINE
  5
33F6B
  8
DANMEN
 62
     7
 10
400.69845291323941
 20
200.4916847986041
 30
0.0
 11
406.69845291323901
 21
206.49168479860421
 31
0.0
  0
LINE
  5
33F6C
  8
DANMEN
 62
     7
 10
394.19845291323912
 20
193.99168479860401
 30
0.0
 11
398.29563917085358
 21
198.08887105621841
 31
0.0
  0
LINE
  5
33F6D
  8
DANMEN
 62
     7
 10
395.12406629559962
 20
192.08887105621841
 30
0.0
 11
406.69845291323901
 21
203.663257673858
 31
0.0
  0
ARC
  5
33F6E
  8
DANMEN
  6
DASHED
 62
     7
 10
616.64845291323775
 20
1147.1888710562171
 30
0.0
 40
0.5
 50
0.0
 51
53.100000000000492
  0
ARC
  5
33F6F
  8
DANMEN
  6
DASHED
 62
     7
 10
617.44845291323895
 20
1149.0888710562181
 30
0.0
 40
0.5
 50
90.0
 51
180.0
  0
ARC
  5
33F70
  8
DANMEN
  6
DASHED
 62
     7
 10
618.148452913239
 20
1149.0888710562181
 30
0.0
 40
0.5
 50
0.0
 51
90.0
  0
LINE
  5
33F71
  8
DANMEN
  6
DASHED
 62
     7
 10
616.94845291323895
 20
1147.5888710562181
 30
0.0
 11
616.94845291323895
 21
1149.0888710562181
 31
0.0
  0
LINE
  5
33F72
  8
DANMEN
  6
DASHED
 62
     7
 10
618.148452913239
 20
1149.5888710562181
 30
0.0
 11
617.44845291323895
 21
1149.5888710562181
 31
0.0
  0
LINE
  5
33F73
  8
DANMEN
  6
CONTINUOUS
 62
     7
 10
602.14845291323923
 20
1156.6888710562171
 30
0.0
 11
602.14845291323923
 21
1164.088871056216
 31
0.0
  0
ARC
  5
33F74
  8
DANMEN
  6
CONTINUOUS
 62
     7
 10
601.64845291323923
 20
1164.088871056216
 30
0.0
 40
0.5
 50
0.0
 51
90.0
  0
LINE
  5
33F75
  8
DANMEN
  6
CONTINUOUS
 62
     7
 10
600.64845291323877
 20
1164.5888710562181
 30
0.0
 11
601.64845291323923
 21
1164.5888710562181
 31
0.0
  0
LINE
  5
33F76
  8
DANMEN
  6
CONTINUOUS
 62
     7
 10
602.14845291323923
 20
1149.5888710562181
 30
0.0
 11
602.14845291323923
 21
1153.288871056217
 31
0.0
  0
LINE
  5
33F77
  8
DANMEN
  6
CONTINUOUS
 62
     7
 10
602.14845291323923
 20
1153.8888710562171
 30
0.0
 11
602.14845291323923
 21
1156.088871056216
 31
0.0
  0
LINE
  5
33F78
  8
DANMEN
  6
CONTINUOUS
 62
     7
 10
602.14845291323923
 20
1150.088871056216
 30
0.0
 11
602.14845291323923
 21
1157.0888710562181
 31
0.0
  0
LINE
  5
33F79
  8
DANMEN
  6
DASHED
 62
     7
 10
592.64845291323923
 20
1152.5888710562181
 30
0.0
 11
594.648452913239
 21
1152.5888710562181
 31
0.0
  0
LINE
  5
33F7A
  8
DANMEN
  6
DASHED
 62
     7
 10
594.648452913239
 20
1152.5888710562181
 30
0.0
 11
600.64845291323877
 21
1146.5888710562151
 31
0.0
  0
ARC
  5
33F7B
  8
DANMEN
  6
DASHED
 62
     7
 10
618.148452913239
 20
1120.0888710562181
 30
0.0
 40
0.5
 50
270.0
 51
0.0
  0
LINE
  5
33F7C
  8
DANMEN
  6
DASHED
 62
     7
 10
617.14845291323877
 20
1124.3888710562171
 30
0.0
 11
615.64845291323775
 21
1124.3888710562171
 31
0.0
  0
LINE
  5
33F7D
  8
DANMEN
  6
DASHED
 62
     7
 10
617.14845291323877
 20
1123.388871056218
 30
0.0
 11
615.64845291323775
 21
1123.388871056218
 31
0.0
  0
LINE
  5
33F7E
  8
DANMEN
  6
DASHED
 62
     7
 10
615.64845291323775
 20
1123.388871056218
 30
0.0
 11
615.64845291323775
 21
1124.3888710562171
 31
0.0
  0
LINE
  5
33F7F
  8
DANMEN
  6
DASHED
 62
     7
 10
617.14845291323877
 20
1121.0888710562181
 30
0.0
 11
617.14845291323877
 21
1123.388871056218
 31
0.0
  0
LINE
  5
33F80
  8
DANMEN
  6
DASHED
 62
     7
 10
607.648452913239
 20
1123.388871056218
 30
0.0
 11
607.648452913239
 21
1124.3888710562171
 31
0.0
  0
ARC
  5
33F81
  8
DANMEN
  6
DASHED
 62
     7
 10
605.64845291323923
 20
1123.8888710562171
 30
0.0
 40
0.5
 50
90.0
 51
180.0
  0
ARC
  5
33F82
  8
DANMEN
  6
DASHED
 62
     7
 10
601.14845291323866
 20
1120.0888710562181
 30
0.0
 40
0.5
 50
180.0
 51
270.0
  0
LINE
  5
33F83
  8
DANMEN
  6
DASHED
 62
     7
 10
605.14845291323923
 20
1121.0888710562181
 30
0.0
 11
602.14845291323923
 21
1121.0888710562181
 31
0.0
  0
LINE
  5
33F84
  8
DANMEN
  6
DASHED
 62
     7
 10
606.148452913239
 20
1121.0888710562181
 30
0.0
 11
606.148452913239
 21
1123.388871056218
 31
0.0
  0
LINE
  5
33F85
  8
DANMEN
  6
DASHED
 62
     7
 10
605.14845291323923
 20
1121.0888710562181
 30
0.0
 11
605.14845291323923
 21
1123.8888710562171
 31
0.0
  0
LINE
  5
33F86
  8
DANMEN
  6
DASHED
 62
     7
 10
607.648452913239
 20
1124.3888710562171
 30
0.0
 11
605.64845291323923
 21
1124.3888710562171
 31
0.0
  0
LINE
  5
33F87
  8
DANMEN
  6
DASHED
 62
     7
 10
607.648452913239
 20
1123.388871056218
 30
0.0
 11
606.148452913239
 21
1123.388871056218
 31
0.0
  0
LINE
  5
33F88
  8
DANMEN
  6
DASHED
 62
     7
 10
617.14845291323877
 20
1121.0888710562181
 30
0.0
 11
606.148452913239
 21
1121.0888710562181
 31
0.0
  0
LINE
  5
33F89
  8
DANMEN
  6
DASHED
 62
     7
 10
618.148452913239
 20
1119.588871056216
 30
0.0
 11
601.14845291323866
 21
1119.588871056216
 31
0.0
  0
LINE
  5
33F8A
  8
DANMEN
  6
CONTINUOUS
 62
     7
 10
592.64845291323923
 20
1119.588871056216
 30
0.0
 11
592.64845291323923
 21
1020.088871056216
 31
0.0
  0
LINE
  5
33F8B
  8
DANMEN
  6
DASHED
 62
     7
 10
592.64845291323923
 20
1124.5888710562181
 30
0.0
 11
600.64845291323877
 21
1124.5888710562181
 31
0.0
  0
LINE
  5
33F8C
  8
DANMEN
  6
CONTINUOUS
 62
     7
 10
618.64845291323843
 20
1149.5888710562181
 30
0.0
 11
618.64845291323843
 21
1119.588871056216
 31
0.0
  0
LINE
  5
33F8D
  8
DANMEN
  6
DASHED
 62
     7
 10
617.14845291323877
 20
1124.3888710562171
 30
0.0
 11
617.14845291323877
 21
1147.1888710562171
 31
0.0
  0
LINE
  5
33F8E
  8
DANMEN
  6
DASHED
 62
     7
 10
602.14845291323923
 20
1121.0888710562181
 30
0.0
 11
602.14845291323923
 21
1149.5888710562181
 31
0.0
  0
LINE
  5
33F8F
  8
DANMEN
  6
DASHED
 62
     7
 10
600.64845291323877
 20
1120.0888710562181
 30
0.0
 11
600.64845291323877
 21
1164.5888710562181
 31
0.0
  0
LINE
  5
33F90
  8
DANMEN
  6
DASHED
 62
     7
 10
618.64845291323843
 20
1120.0888710562181
 30
0.0
 11
618.64845291323843
 21
1149.0888710562181
 31
0.0
  0
LINE
  5
33F91
  8
DANMEN
  6
DASHED
 62
     7
 10
599.34845291323893
 20
1147.9388710562171
 30
0.0
 11
592.64845291323923
 21
1124.5888710562181
 31
0.0
  0
LINE
  5
33F92
  8
DANMEN
  6
DASHED
 62
     7
 10
592.64845291323923
 20
1152.5888710562181
 30
0.0
 11
592.64845291323923
 21
1124.5888710562181
 31
0.0
  0
LINE
  5
33F93
  8
DANMEN
  6
DASHED
 62
     7
 10
592.64845291323923
 20
1134.588871056216
 30
0.0
 11
592.64845291323923
 21
1119.588871056216
 31
0.0
  0
LINE
  5
33F94
  8
SUNPO
 62
     1
 10
537.64845291323923
 20
1149.5888710562181
 30
0.0
 11
537.64845291323923
 21
1149.5888710562181
 31
0.0
  0
CIRCLE
  5
33F95
  8
SUNPO
 62
     1
 10
537.64845291323923
 20
1149.5888710562181
 30
0.0
 40
1.0
  0
LINE
  5
33F96
  8
SUNPO
 62
     1
 10
521.64845291323877
 20
1164.5888710562181
 30
0.0
 11
521.64845291323877
 21
1164.5888710562181
 31
0.0
  0
CIRCLE
  5
33F97
  8
SUNPO
 62
     1
 10
521.64845291323877
 20
1164.5888710562181
 30
0.0
 40
1.0
  0
CIRCLE
  5
33F98
  8
SUNPO
 62
     1
 10
537.64845291323923
 20
1119.588871056216
 30
0.0
 40
1.0
  0
CIRCLE
  5
33F99
  8
SUNPO
 62
     1
 10
521.64845291323877
 20
1119.588871056216
 30
0.0
 40
1.0
  0
LINE
  5
33F9A
  8
DANMEN
  6
CONTINUOUS
 62
     7
 10
519.39845291323877
 20
1020.088871056216
 30
0.0
 11
538.04845291323909
 21
1038.738871056217
 31
0.0
  0
LINE
  5
33F9B
  8
DANMEN
  6
CONTINUOUS
 62
     7
 10
515.14845291323923
 20
1020.088871056216
 30
0.0
 11
530.2984529132392
 21
1035.238871056217
 31
0.0
  0
LINE
  5
33F9C
  8
DANMEN
  6
CONTINUOUS
 62
     7
 10
523.648452913239
 20
1020.088871056216
 30
0.0
 11
534.54845291323909
 21
1030.9888710562161
 31
0.0
  0
LINE
  5
33F9D
  8
SUNPO
 62
     1
 10
521.64845291323877
 20
1119.588871056216
 30
0.0
 11
521.64845291323877
 21
1164.5888710562181
 31
0.0
  0
LINE
  5
33F9E
  8
SUNPO
 62
     1
 10
537.64845291323923
 20
1119.588871056216
 30
0.0
 11
537.64845291323923
 21
1149.5888710562181
 31
0.0
  0
CIRCLE
  5
33F9F
  8
SUNPO
 62
     1
 10
494.648452913239
 20
1154.5888710562181
 30
0.0
 40
1.0
  0
ARC
  5
33FA0
  8
DANMEN
  6
CONTINUOUS
 62
     7
 10
478.14845291323888
 20
1154.088871056216
 30
0.0
 40
0.5
 50
0.0
 51
90.0
  0
LINE
  5
33FA1
  8
DANMEN
  6
CONTINUOUS
 62
     7
 10
476.44845291323912
 20
1150.438871056218
 30
0.0
 11
476.99845291323879
 21
1150.438871056218
 31
0.0
  0
LINE
  5
33FA2
  8
DANMEN
  6
CONTINUOUS
 62
     7
 10
476.99845291323879
 20
1152.9388710562171
 30
0.0
 11
476.99845291323879
 21
1150.438871056218
 31
0.0
  0
ARC
  5
33FA3
  8
DANMEN
  6
CONTINUOUS
 62
     7
 10
473.14845291323883
 20
1153.4388710562171
 30
0.0
 40
0.5
 50
180.0
 51
270.0
  0
ARC
  5
33FA4
  8
DANMEN
  6
CONTINUOUS
 62
     7
 10
473.14845291323883
 20
1154.088871056216
 30
0.0
 40
0.5
 50
90.0
 51
180.0
  0
LINE
  5
33FA5
  8
DANMEN
  6
CONTINUOUS
 62
     7
 10
472.64845291323911
 20
1154.088871056216
 30
0.0
 11
472.64845291323911
 21
1153.4388710562171
 31
0.0
  0
LINE
  5
33FA6
  8
DANMEN
  6
CONTINUOUS
 62
     7
 10
473.14845291323883
 20
1152.9388710562171
 30
0.0
 11
476.99845291323879
 21
1152.9388710562171
 31
0.0
  0
LINE
  5
33FA7
  8
DANMEN
  6
CONTINUOUS
 62
     7
 10
473.14845291323883
 20
1154.5888710562181
 30
0.0
 11
478.14845291323888
 21
1154.5888710562181
 31
0.0
  0
LINE
  5
33FA8
  8
SUNPO
 62
     1
 10
494.648452913239
 20
1154.5888710562181
 30
0.0
 11
480.64845291323883
 21
1154.5888710562181
 31
0.0
  0
LINE
  5
33FA9
  8
SUNPO
  6
CONTINUOUS
 62
     1
 10
494.648452913239
 20
1119.588871056216
 30
0.0
 11
494.648452913239
 21
1119.588871056216
 31
0.0
  0
LINE
  5
33FAA
  8
SUNPO
 62
     1
 10
494.648452913239
 20
1119.588871056216
 30
0.0
 11
494.648452913239
 21
1119.588871056216
 31
0.0
  0
POLYLINE
  5
33FAB
  8
SUNPO
 62
     1
 66
     1
 10
0.0
 20
0.0
 30
0.0
 70
     1
  0
VERTEX
  5
34475
  8
SUNPO
 62
     1
 10
494.648452913239
 20
1119.588871056216
 30
0.0
  0
VERTEX
  5
34476
  8
SUNPO
 62
     1
 10
492.14845291323883
 20
1113.3388710562151
 30
0.0
  0
VERTEX
  5
34477
  8
SUNPO
 62
     1
 10
497.14845291323883
 20
1113.3388710562151
 30
0.0
  0
SEQEND
  5
34478
  8
SUNPO
 62
     1
  0
ARC
  5
33FB0
  8
DANMEN
  6
CONTINUOUS
 62
     7
 10
475.44845291323901
 20
1122.5888710562151
 30
0.0
 40
1.0
 50
270.0
 51
0.0
  0
ARC
  5
33FB1
  8
DANMEN
  6
CONTINUOUS
 62
     7
 10
478.14845291323888
 20
1120.0888710562181
 30
0.0
 40
0.5
 50
270.0
 51
0.0
  0
ARC
  5
33FB2
  8
DANMEN
  6
CONTINUOUS
 62
     7
 10
462.94845291323918
 20
1122.5888710562151
 30
0.0
 40
1.0
 50
180.0
 51
270.0
  0
ARC
  5
33FB3
  8
DANMEN
  6
CONTINUOUS
 62
     7
 10
459.94845291323901
 20
1124.9388710562171
 30
0.0
 40
0.2
 50
180.0
 51
245.3999999999993
  0
ARC
  5
33FB4
  8
DANMEN
  6
CONTINUOUS
 62
     7
 10
459.4484529132389
 20
1123.838871056216
 30
0.0
 40
1.0
 50
0.0
 51
65.399999999999537
  0
ARC
  5
33FB5
  8
DANMEN
  6
CONTINUOUS
 62
     7
 10
459.4484529132389
 20
1122.5888710562151
 30
0.0
 40
1.0
 50
270.0
 51
0.0
  0
LINE
  5
33FB6
  8
DANMEN
  6
CONTINUOUS
 62
     7
 10
459.74845291323891
 20
1124.9388710562171
 30
0.0
 11
459.74845291323891
 21
1125.388871056218
 31
0.0
  0
LINE
  5
33FB7
  8
DANMEN
  6
CONTINUOUS
 62
     7
 10
461.9484529132389
 20
1122.5888710562151
 30
0.0
 11
461.9484529132389
 21
1123.9388710562171
 31
0.0
  0
LINE
  5
33FB8
  8
DANMEN
  6
CONTINUOUS
 62
     7
 10
460.44845291323918
 20
1122.5888710562151
 30
0.0
 11
460.44845291323918
 21
1123.838871056216
 31
0.0
  0
ARC
  5
33FB9
  8
DANMEN
  6
CONTINUOUS
 62
     7
 10
454.34845291323887
 20
1122.5888710562151
 30
0.0
 40
1.0
 50
270.0
 51
0.0
  0
ARC
  5
33FBA
  8
DANMEN
  6
CONTINUOUS
 62
     7
 10
457.34845291323887
 20
1124.9388710562171
 30
0.0
 40
0.2
 50
294.60000000000031
 51
0.0
  0
ARC
  5
33FBB
  8
DANMEN
  6
CONTINUOUS
 62
     7
 10
457.84845291323921
 20
1123.838871056216
 30
0.0
 40
1.0
 50
114.60000000000041
 51
180.0
  0
ARC
  5
33FBC
  8
DANMEN
  6
CONTINUOUS
 62
     7
 10
457.84845291323921
 20
1122.5888710562151
 30
0.0
 40
1.0
 50
180.0
 51
270.0
  0
LINE
  5
33FBD
  8
DANMEN
  6
CONTINUOUS
 62
     7
 10
457.5484529132392
 20
1125.388871056218
 30
0.0
 11
457.5484529132392
 21
1124.9388710562171
 31
0.0
  0
LINE
  5
33FBE
  8
DANMEN
  6
CONTINUOUS
 62
     7
 10
455.34845291323921
 20
1123.9388710562171
 30
0.0
 11
455.34845291323921
 21
1122.5888710562151
 31
0.0
  0
LINE
  5
33FBF
  8
DANMEN
  6
CONTINUOUS
 62
     7
 10
456.84845291323887
 20
1123.838871056216
 30
0.0
 11
456.84845291323887
 21
1122.5888710562151
 31
0.0
  0
LINE
  5
33FC0
  8
DANMEN
  6
CONTINUOUS
 62
     7
 10
459.4484529132389
 20
1121.5888710562181
 30
0.0
 11
457.84845291323921
 21
1121.5888710562181
 31
0.0
  0
LINE
  5
33FC1
  8
DANMEN
  6
CONTINUOUS
 62
     7
 10
462.94845291323918
 20
1121.5888710562181
 30
0.0
 11
475.44845291323901
 21
1121.5888710562181
 31
0.0
  0
LINE
  5
33FC2
  8
DANMEN
  6
CONTINUOUS
 62
     7
 10
478.648452913239
 20
1119.588871056216
 30
0.0
 11
478.648452913239
 21
1020.088871056216
 31
0.0
  0
LINE
  5
33FC3
  8
SUNPO
 62
     1
 10
494.648452913239
 20
1119.588871056216
 30
0.0
 11
480.64845291323883
 21
1119.588871056216
 31
0.0
  0
LINE
  5
33FC4
  8
DANMEN
  6
CONTINUOUS
 62
     7
 10
478.648452913239
 20
1149.5888710562181
 30
0.0
 11
478.648452913239
 21
1119.588871056216
 31
0.0
  0
LINE
  5
33FC5
  8
DANMEN
  6
CONTINUOUS
 62
     7
 10
476.44845291323912
 20
1150.438871056218
 30
0.0
 11
476.44845291323912
 21
1122.5888710562151
 31
0.0
  0
LINE
  5
33FC6
  8
DANMEN
  6
CONTINUOUS
 62
     7
 10
478.648452913239
 20
1154.088871056216
 30
0.0
 11
478.648452913239
 21
1120.0888710562181
 31
0.0
  0
ARC
  5
33FC7
  8
DANMEN
  6
CONTINUOUS
 62
     7
 10
457.34845291323887
 20
1123.9388710562171
 30
0.0
 40
2.0
 50
101.4999999999991
 51
180.0
  0
ARC
  5
33FC8
  8
DANMEN
  6
CONTINUOUS
 62
     7
 10
457.04845291323892
 20
1125.388871056218
 30
0.0
 40
0.5
 50
0.0
 51
101.4999999999991
  0
ARC
  5
33FC9
  8
DANMEN
  6
CONTINUOUS
 62
     7
 10
459.94845291323901
 20
1123.9388710562171
 30
0.0
 40
2.0
 50
0.0
 51
78.500000000000782
  0
ARC
  5
33FCA
  8
DANMEN
  6
CONTINUOUS
 62
     7
 10
460.24845291323902
 20
1125.388871056218
 30
0.0
 40
0.5
 50
78.500000000000782
 51
180.0
  0
LINE
  5
33FCB
  8
SUNPO
 62
     1
 10
494.648452913239
 20
1154.5888710562181
 30
0.0
 11
494.648452913239
 21
1119.588871056216
 31
0.0
  0
LINE
  5
33FCC
  8
DANMEN
  6
CONTINUOUS
 62
     7
 10
478.648452913239
 20
1149.5888710562181
 30
0.0
 11
553.648452913239
 21
1149.5888710562181
 31
0.0
  0
LINE
  5
33FCD
  8
DANMEN
  6
DASHED
 62
     7
 10
558.64845291323888
 20
1152.5888710562181
 30
0.0
 11
600.64845291323877
 21
1152.5888710562181
 31
0.0
  0
LINE
  5
33FCE
  8
DANMEN
  6
DASHED
 62
     7
 10
558.64845291323888
 20
1154.1888710562171
 30
0.0
 11
600.64845291323877
 21
1154.1888710562171
 31
0.0
  0
LINE
  5
33FCF
  8
DANMEN
  6
DASHED
 62
     7
 10
558.64845291323888
 20
1134.588871056216
 30
0.0
 11
592.64845291323923
 21
1134.588871056216
 31
0.0
  0
LINE
  5
33FD0
  8
DANMEN
  6
CONTINUOUS
 62
     7
 10
558.64845291323888
 20
1164.5888710562181
 30
0.0
 11
600.64845291323877
 21
1164.5888710562181
 31
0.0
  0
LINE
  5
33FD1
  8
DANMEN
  6
CONTINUOUS
 62
     7
 10
558.64845291323888
 20
1149.5888710562181
 30
0.0
 11
618.64845291323843
 21
1149.5888710562181
 31
0.0
  0
LINE
  5
33FD2
  8
DANMEN
  6
CONTINUOUS
 62
     7
 10
558.64845291323888
 20
1119.588871056216
 30
0.0
 11
618.64845291323843
 21
1119.588871056216
 31
0.0
  0
LINE
  5
33FD3
  8
SUNPO
 62
     1
 10
618.64845291323843
 20
1004.188871056218
 30
0.0
 11
618.64845291323843
 21
988.18887105621855
 31
0.0
  0
CIRCLE
  5
33FD4
  8
SUNPO
 62
     1
 10
618.64845291323843
 20
996.18887105621855
 30
0.0
 40
1.0
  0
CIRCLE
  5
33FD5
  8
SUNPO
 62
     1
 10
618.64845291323843
 20
975.33887105621864
 30
0.0
 40
1.0
  0
LINE
  5
33FD6
  8
SUNPO
  6
CONTINUOUS
 62
     1
 10
618.64845291323843
 20
988.18887105621855
 30
0.0
 11
618.64845291323843
 21
967.33887105621784
 31
0.0
  0
TEXT
  5
33FD7
  8
SUNPO
 62
     1
 10
599.39845291323923
 20
998.43889999999885
 30
0.0
 40
7.5
  1
26
 72
     4
 11
605.64845291323923
 21
1002.188899999999
 31
0.0
  0
ARC
  5
33FD8
  8
DANMEN
  6
DASHED
 62
     7
 10
618.148452913239
 20
917.08887105621841
 30
0.0
 40
0.5
 50
0.0
 51
90.0
  0
LINE
  5
33FD9
  8
DANMEN
  6
DASHED
 62
     7
 10
617.14845291323877
 20
912.78887105621845
 30
0.0
 11
615.64845291323775
 21
912.78887105621845
 31
0.0
  0
LINE
  5
33FDA
  8
DANMEN
  6
DASHED
 62
     7
 10
617.14845291323877
 20
913.78887105621845
 30
0.0
 11
615.64845291323775
 21
913.78887105621845
 31
0.0
  0
LINE
  5
33FDB
  8
DANMEN
  6
DASHED
 62
     7
 10
615.64845291323775
 20
913.78887105621845
 30
0.0
 11
615.64845291323775
 21
912.78887105621845
 31
0.0
  0
LINE
  5
33FDC
  8
DANMEN
  6
DASHED
 62
     7
 10
617.14845291323877
 20
916.08887105621761
 30
0.0
 11
617.14845291323877
 21
913.78887105621845
 31
0.0
  0
LINE
  5
33FDD
  8
DANMEN
  6
DASHED
 62
     7
 10
607.648452913239
 20
913.78887105621845
 30
0.0
 11
607.648452913239
 21
912.78887105621845
 31
0.0
  0
LINE
  5
33FDE
  8
DANMEN
  6
DASHED
 62
     7
 10
600.64845291323877
 20
912.58887105621716
 30
0.0
 11
600.64845291323877
 21
901.08887105621795
 31
0.0
  0
ARC
  5
33FDF
  8
DANMEN
  6
DASHED
 62
     7
 10
605.64845291323923
 20
913.28887105621823
 30
0.0
 40
0.5
 50
180.0
 51
270.0
  0
ARC
  5
33FE0
  8
DANMEN
  6
DASHED
 62
     7
 10
601.14845291323866
 20
917.08887105621841
 30
0.0
 40
0.5
 50
90.0
 51
180.0
  0
LINE
  5
33FE1
  8
DANMEN
  6
DASHED
 62
     7
 10
605.14845291323923
 20
916.08887105621761
 30
0.0
 11
602.14845291323923
 21
916.08887105621761
 31
0.0
  0
LINE
  5
33FE2
  8
DANMEN
  6
DASHED
 62
     7
 10
606.148452913239
 20
916.08887105621761
 30
0.0
 11
606.148452913239
 21
913.78887105621845
 31
0.0
  0
LINE
  5
33FE3
  8
DANMEN
  6
DASHED
 62
     7
 10
605.14845291323923
 20
916.08887105621761
 30
0.0
 11
605.14845291323923
 21
913.28887105621823
 31
0.0
  0
LINE
  5
33FE4
  8
DANMEN
  6
DASHED
 62
     7
 10
607.648452913239
 20
912.78887105621845
 30
0.0
 11
605.64845291323923
 21
912.78887105621845
 31
0.0
  0
LINE
  5
33FE5
  8
DANMEN
  6
DASHED
 62
     7
 10
607.648452913239
 20
913.78887105621845
 30
0.0
 11
606.148452913239
 21
913.78887105621845
 31
0.0
  0
LINE
  5
33FE6
  8
DANMEN
  6
DASHED
 62
     7
 10
617.14845291323877
 20
916.08887105621761
 30
0.0
 11
606.148452913239
 21
916.08887105621761
 31
0.0
  0
LINE
  5
33FE7
  8
DANMEN
  6
DASHED
 62
     7
 10
618.148452913239
 20
917.58887105621761
 30
0.0
 11
601.14845291323866
 21
917.58887105621761
 31
0.0
  0
CIRCLE
  5
33FE8
  8
SUNPO
 62
     1
 10
592.64845291323923
 20
996.18887105621855
 30
0.0
 40
1.0
  0
LINE
  5
33FE9
  8
DANMEN
  6
DASHED
 62
     7
 10
592.64845291323923
 20
917.58887105621761
 30
0.0
 11
592.64845291323923
 21
904.58887105621841
 31
0.0
  0
LINE
  5
33FEA
  8
DANMEN
  6
DASHED
 62
     7
 10
592.64845291323923
 20
912.58887105621716
 30
0.0
 11
592.64845291323923
 21
904.58887105621841
 31
0.0
  0
LINE
  5
33FEB
  8
DANMEN
  6
DASHED
 62
     7
 10
572.64845291323923
 20
904.58887105621841
 30
0.0
 11
572.64845291323923
 21
895.08887105621784
 31
0.0
  0
LINE
  5
33FEC
  8
DANMEN
  6
DASHED
 62
     7
 10
572.64845291323923
 20
895.08887105621784
 30
0.0
 11
587.84845291323893
 21
904.58887105621841
 31
0.0
  0
LINE
  5
33FED
  8
DANMEN
  6
DASHED
 62
     7
 10
572.64845291323923
 20
904.58887105621841
 30
0.0
 11
592.64845291323923
 21
904.58887105621841
 31
0.0
  0
LINE
  5
33FEE
  8
DANMEN
  6
DASHED
 62
     7
 10
594.648452913239
 20
895.08887105621784
 30
0.0
 11
600.64845291323877
 21
901.08887105621795
 31
0.0
  0
LINE
  5
33FEF
  8
DANMEN
  6
DASHED
 62
     7
 10
592.64845291323923
 20
907.58887105621773
 30
0.0
 11
600.64845291323877
 21
912.58887105621716
 31
0.0
  0
LINE
  5
33FF0
  8
DANMEN
  6
DASHED
 62
     7
 10
592.64845291323923
 20
912.58887105621716
 30
0.0
 11
600.64845291323877
 21
912.58887105621716
 31
0.0
  0
LINE
  5
33FF1
  8
SUNPO
  6
CONTINUOUS
 62
     1
 10
592.64845291323923
 20
996.18887105621855
 30
0.0
 11
618.64845291323843
 21
996.18887105621855
 31
0.0
  0
ARC
  5
33FF2
  8
DANMEN
  6
DASHED
 62
     7
 10
616.64845291323775
 20
889.9888710562185
 30
0.0
 40
0.5
 50
306.89999999999941
 51
0.0
  0
ARC
  5
33FF3
  8
DANMEN
  6
DASHED
 62
     7
 10
617.44845291323895
 20
888.08887105621852
 30
0.0
 40
0.5
 50
180.0
 51
270.0
  0
ARC
  5
33FF4
  8
DANMEN
  6
DASHED
 62
     7
 10
618.148452913239
 20
888.08887105621852
 30
0.0
 40
0.5
 50
270.0
 51
0.0
  0
LINE
  5
33FF5
  8
DANMEN
  6
DASHED
 62
     7
 10
616.94845291323895
 20
889.58887105621864
 30
0.0
 11
616.94845291323895
 21
888.08887105621852
 31
0.0
  0
LINE
  5
33FF6
  8
DANMEN
  6
DASHED
 62
     7
 10
618.148452913239
 20
887.58887105621716
 30
0.0
 11
617.44845291323895
 21
887.58887105621716
 31
0.0
  0
LINE
  5
33FF7
  8
DANMEN
  6
CONTINUOUS
 62
     7
 10
602.14845291323923
 20
880.48887105621827
 30
0.0
 11
602.14845291323923
 21
873.08887105621852
 31
0.0
  0
ARC
  5
33FF8
  8
DANMEN
  6
CONTINUOUS
 62
     7
 10
601.64845291323923
 20
873.08887105621852
 30
0.0
 40
0.5
 50
270.0
 51
0.0
  0
LINE
  5
33FF9
  8
DANMEN
  6
CONTINUOUS
 62
     7
 10
600.64845291323877
 20
872.58887105621659
 30
0.0
 11
601.64845291323923
 21
872.58887105621659
 31
0.0
  0
LINE
  5
33FFA
  8
DANMEN
  6
CONTINUOUS
 62
     7
 10
602.14845291323923
 20
887.58887105621716
 30
0.0
 11
602.14845291323923
 21
883.88887105621689
 31
0.0
  0
LINE
  5
33FFB
  8
DANMEN
  6
CONTINUOUS
 62
     7
 10
602.14845291323923
 20
883.28887105621823
 30
0.0
 11
602.14845291323923
 21
881.08887105621784
 31
0.0
  0
LINE
  5
33FFC
  8
DANMEN
  6
CONTINUOUS
 62
     7
 10
602.14845291323923
 20
880.08887105621761
 30
0.0
 11
602.14845291323923
 21
887.08887105621852
 31
0.0
  0
LINE
  5
33FFD
  8
DANMEN
  6
DASHED
 62
     7
 10
600.64845291323877
 20
917.08887105621841
 30
0.0
 11
600.64845291323877
 21
872.58887105621659
 31
0.0
  0
LINE
  5
33FFE
  8
DANMEN
  6
DASHED
 62
     7
 10
602.14845291323923
 20
916.08887105621761
 30
0.0
 11
602.14845291323923
 21
887.58887105621716
 31
0.0
  0
LINE
  5
33FFF
  8
DANMEN
  6
CONTINUOUS
 62
     7
 10
618.64845291323843
 20
917.58887105621761
 30
0.0
 11
618.64845291323843
 21
887.58887105621716
 31
0.0
  0
LINE
  5
34000
  8
DANMEN
  6
DASHED
 62
     7
 10
617.14845291323877
 20
912.78887105621845
 30
0.0
 11
617.14845291323877
 21
889.9888710562185
 31
0.0
  0
LINE
  5
34001
  8
DANMEN
  6
DASHED
 62
     7
 10
618.64845291323843
 20
917.08887105621841
 30
0.0
 11
618.64845291323843
 21
888.08887105621852
 31
0.0
  0
CIRCLE
  5
34002
  8
SUNPO
 62
     1
 10
575.89845291323923
 20
669.08887105621795
 30
0.0
 40
1.0
  0
CIRCLE
  5
34003
  8
SUNPO
 62
     1
 10
575.89845291323923
 20
654.08887105621795
 30
0.0
 40
1.0
  0
LINE
  5
34004
  8
SUNPO
 62
     1
 10
575.89845291323923
 20
669.08887105621795
 30
0.0
 11
575.89845291323923
 21
654.08887105621795
 31
0.0
  0
TEXT
  5
34005
  8
SUNPO
 62
     1
 10
546.14845291323888
 20
977.58889999999985
 30
0.0
 40
7.5
  1
D
 72
     4
 11
548.648452913239
 21
981.33889999999985
 31
0.0
  0
LINE
  5
34006
  8
SUNPO
 62
     1
 10
537.64845291323923
 20
917.58887105621761
 30
0.0
 11
537.64845291323923
 21
917.58887105621761
 31
0.0
  0
CIRCLE
  5
34007
  8
SUNPO
 62
     1
 10
537.64845291323923
 20
917.58887105621761
 30
0.0
 40
1.0
  0
LINE
  5
34008
  8
SUNPO
 62
     1
 10
537.64845291323923
 20
887.58887105621716
 30
0.0
 11
537.64845291323923
 21
887.58887105621716
 31
0.0
  0
CIRCLE
  5
34009
  8
SUNPO
 62
     1
 10
537.64845291323923
 20
887.58887105621716
 30
0.0
 40
1.0
  0
LINE
  5
3400A
  8
SUNPO
 62
     1
 10
537.64845291323923
 20
887.58887105621716
 30
0.0
 11
537.64845291323923
 21
917.58887105621761
 31
0.0
  0
LINE
  5
3400B
  8
SUNPO
 62
     1
 10
494.648452913239
 20
917.58887105621761
 30
0.0
 11
494.648452913239
 21
917.58887105621761
 31
0.0
  0
LINE
  5
3400C
  8
SUNPO
  6
CONTINUOUS
 62
     1
 10
494.648452913239
 20
917.58887105621761
 30
0.0
 11
494.648452913239
 21
917.58887105621761
 31
0.0
  0
LINE
  5
3400D
  8
SUNPO
 62
     1
 10
494.648452913239
 20
917.58887105621761
 30
0.0
 11
494.648452913239
 21
917.58887105621761
 31
0.0
  0
POLYLINE
  5
3400E
  8
SUNPO
 62
     1
 66
     1
 10
0.0
 20
0.0
 30
0.0
 70
     1
  0
VERTEX
  5
34479
  8
SUNPO
 62
     1
 10
494.648452913239
 20
917.58887105621761
 30
0.0
  0
VERTEX
  5
3447A
  8
SUNPO
 62
     1
 10
492.14845291323883
 20
923.83887105621761
 30
0.0
  0
VERTEX
  5
3447B
  8
SUNPO
 62
     1
 10
497.14845291323883
 20
923.83887105621761
 30
0.0
  0
SEQEND
  5
3447C
  8
SUNPO
 62
     1
  0
CIRCLE
  5
34013
  8
SUNPO
 62
     1
 10
478.648452913239
 20
975.33887105621864
 30
0.0
 40
1.0
  0
CIRCLE
  5
34014
  8
SUNPO
 62
     1
 10
478.648452913239
 20
954.43887105621752
 30
0.0
 40
1.0
  0
LINE
  5
34015
  8
DANMEN
  6
CONTINUOUS
 62
     7
 10
474.14845291323911
 20
916.08887105621761
 30
0.0
 11
477.148452913239
 21
916.08887105621761
 31
0.0
  0
LINE
  5
34016
  8
DANMEN
  6
CONTINUOUS
 62
     7
 10
474.14845291323911
 20
917.58887105621761
 30
0.0
 11
478.14845291323888
 21
917.58887105621761
 31
0.0
  0
ARC
  5
34017
  8
DANMEN
  6
CONTINUOUS
 62
     7
 10
475.8484529132391
 20
909.78887105621675
 30
0.0
 40
1.0
 50
0.0
 51
90.0
  0
ARC
  5
34018
  8
DANMEN
  6
CONTINUOUS
 62
     7
 10
476.648452913239
 20
913.0888710562183
 30
0.0
 40
0.5
 50
270.0
 51
0.0
  0
ARC
  5
34019
  8
DANMEN
  6
CONTINUOUS
 62
     7
 10
478.14845291323888
 20
917.08887105621841
 30
0.0
 40
0.5
 50
0.0
 51
90.0
  0
LINE
  5
3401A
  8
DANMEN
  6
CONTINUOUS
 62
     7
 10
477.148452913239
 20
916.08887105621761
 30
0.0
 11
477.148452913239
 21
913.0888710562183
 31
0.0
  0
LINE
  5
3401B
  8
DANMEN
  6
CONTINUOUS
 62
     7
 10
473.64845291323888
 20
917.08887105621841
 30
0.0
 11
473.64845291323888
 21
916.58887105621784
 31
0.0
  0
ARC
  5
3401C
  8
DANMEN
  6
CONTINUOUS
 62
     7
 10
474.14845291323911
 20
916.58887105621784
 30
0.0
 40
0.5
 50
180.0
 51
270.0
  0
ARC
  5
3401D
  8
DANMEN
  6
CONTINUOUS
 62
     7
 10
474.14845291323911
 20
917.08887105621841
 30
0.0
 40
0.5
 50
90.0
 51
180.0
  0
LINE
  5
3401E
  8
DANMEN
  6
DASHED
 62
     7
 10
459.39845291323911
 20
904.58887105621841
 30
0.0
 11
459.39845291323911
 21
895.08887105621784
 31
0.0
  0
ARC
  5
3401F
  8
DANMEN
  6
CONTINUOUS
 62
     7
 10
462.94845291323918
 20
909.78887105621675
 30
0.0
 40
1.0
 50
90.0
 51
180.0
  0
ARC
  5
34020
  8
DANMEN
  6
CONTINUOUS
 62
     7
 10
459.94845291323901
 20
907.28887105621754
 30
0.0
 40
0.2
 50
114.60000000000041
 51
180.0
  0
ARC
  5
34021
  8
DANMEN
  6
CONTINUOUS
 62
     7
 10
459.4484529132389
 20
908.33887105621864
 30
0.0
 40
1.0
 50
294.60000000000031
 51
0.0
  0
ARC
  5
34022
  8
DANMEN
  6
CONTINUOUS
 62
     7
 10
459.94845291323901
 20
908.28887105621845
 30
0.0
 40
2.0
 50
281.49999999999892
 51
0.0
  0
ARC
  5
34023
  8
DANMEN
  6
CONTINUOUS
 62
     7
 10
460.24845291323902
 20
906.78887105621845
 30
0.0
 40
0.5
 50
180.0
 51
281.49999999999892
  0
ARC
  5
34024
  8
DANMEN
  6
CONTINUOUS
 62
     7
 10
459.4484529132389
 20
909.58887105621784
 30
0.0
 40
1.0
 50
0.0
 51
90.0
  0
LINE
  5
34025
  8
DANMEN
  6
CONTINUOUS
 62
     7
 10
459.74845291323891
 20
906.78887105621845
 30
0.0
 11
459.74845291323891
 21
907.28887105621754
 31
0.0
  0
LINE
  5
34026
  8
DANMEN
  6
CONTINUOUS
 62
     7
 10
461.9484529132389
 20
908.28887105621845
 30
0.0
 11
461.9484529132389
 21
909.78887105621675
 31
0.0
  0
LINE
  5
34027
  8
DANMEN
  6
CONTINUOUS
 62
     7
 10
460.44845291323918
 20
908.33887105621864
 30
0.0
 11
460.44845291323918
 21
909.58887105621784
 31
0.0
  0
ARC
  5
34028
  8
DANMEN
  6
CONTINUOUS
 62
     7
 10
454.34845291323887
 20
909.78887105621675
 30
0.0
 40
1.0
 50
0.0
 51
90.0
  0
ARC
  5
34029
  8
DANMEN
  6
CONTINUOUS
 62
     7
 10
457.34845291323887
 20
907.28887105621754
 30
0.0
 40
0.2
 50
0.0
 51
65.399999999999537
  0
ARC
  5
3402A
  8
DANMEN
  6
CONTINUOUS
 62
     7
 10
457.84845291323921
 20
908.33887105621864
 30
0.0
 40
1.0
 50
180.0
 51
245.3999999999993
  0
ARC
  5
3402B
  8
DANMEN
  6
CONTINUOUS
 62
     7
 10
457.34845291323887
 20
908.28887105621845
 30
0.0
 40
2.0
 50
180.0
 51
258.50000000000068
  0
ARC
  5
3402C
  8
DANMEN
  6
CONTINUOUS
 62
     7
 10
457.04845291323892
 20
906.78887105621845
 30
0.0
 40
0.5
 50
258.50000000000068
 51
0.0
  0
ARC
  5
3402D
  8
DANMEN
  6
CONTINUOUS
 62
     7
 10
457.84845291323921
 20
909.58887105621784
 30
0.0
 40
1.0
 50
90.0
 51
180.0
  0
LINE
  5
3402E
  8
DANMEN
  6
CONTINUOUS
 62
     7
 10
457.5484529132392
 20
907.28887105621754
 30
0.0
 11
457.5484529132392
 21
906.78887105621845
 31
0.0
  0
LINE
  5
3402F
  8
DANMEN
  6
CONTINUOUS
 62
     7
 10
455.34845291323921
 20
909.78887105621675
 30
0.0
 11
455.34845291323921
 21
908.28887105621845
 31
0.0
  0
LINE
  5
34030
  8
DANMEN
  6
CONTINUOUS
 62
     7
 10
456.84845291323887
 20
909.58887105621784
 30
0.0
 11
456.84845291323887
 21
908.33887105621864
 31
0.0
  0
LINE
  5
34031
  8
DANMEN
  6
CONTINUOUS
 62
     7
 10
457.84845291323921
 20
910.5888710562183
 30
0.0
 11
459.4484529132389
 21
910.5888710562183
 31
0.0
  0
LINE
  5
34032
  8
DANMEN
  6
CONTINUOUS
 62
     7
 10
462.94845291323918
 20
910.78887105621845
 30
0.0
 11
475.8484529132391
 21
910.78887105621845
 31
0.0
  0
LINE
  5
34033
  8
SUNPO
 62
     1
 10
494.648452913239
 20
917.58887105621761
 30
0.0
 11
480.64845291323883
 21
917.58887105621761
 31
0.0
  0
CIRCLE
  5
34034
  8
SUNPO
 62
     1
 10
494.648452913239
 20
872.58887105621659
 30
0.0
 40
1.0
  0
CIRCLE
  5
34035
  8
SUNPO
 62
     1
 10
494.648452913239
 20
857.58887105621784
 30
0.0
 40
1.0
  0
LINE
  5
34036
  8
SUNPO
 62
     1
 10
494.648452913239
 20
872.58887105621659
 30
0.0
 11
494.648452913239
 21
857.58887105621784
 31
0.0
  0
ARC
  5
34037
  8
DANMEN
  6
CONTINUOUS
 62
     7
 10
478.14845291323888
 20
873.08887105621852
 30
0.0
 40
0.5
 50
270.0
 51
0.0
  0
ARC
  5
34038
  8
DANMEN
  6
CONTINUOUS
 62
     7
 10
473.14845291323883
 20
873.08887105621852
 30
0.0
 40
0.5
 50
180.0
 51
270.0
  0
ARC
  5
34039
  8
DANMEN
  6
CONTINUOUS
 62
     7
 10
473.14845291323883
 20
873.73887105621816
 30
0.0
 40
0.5
 50
90.0
 51
180.0
  0
LINE
  5
3403A
  8
DANMEN
  6
CONTINUOUS
 62
     7
 10
472.64845291323911
 20
873.73887105621816
 30
0.0
 11
472.64845291323911
 21
873.08887105621852
 31
0.0
  0
LINE
  5
3403B
  8
DANMEN
  6
CONTINUOUS
 62
     7
 10
473.14845291323883
 20
874.23887105621827
 30
0.0
 11
476.84845291323887
 21
874.23887105621827
 31
0.0
  0
LINE
  5
3403C
  8
DANMEN
  6
CONTINUOUS
 62
     7
 10
473.14845291323883
 20
872.58887105621659
 30
0.0
 11
478.14845291323888
 21
872.58887105621659
 31
0.0
  0
LINE
  5
3403D
  8
SUNPO
 62
     1
 10
494.648452913239
 20
872.58887105621659
 30
0.0
 11
480.64845291323883
 21
872.58887105621659
 31
0.0
  0
LINE
  5
3403E
  8
SUNPO
 62
     1
 10
494.648452913239
 20
857.58887105621784
 30
0.0
 11
480.64845291323883
 21
857.58887105621784
 31
0.0
  0
LINE
  5
3403F
  8
SUNPO
 62
     1
 10
494.648452913239
 20
872.58887105621659
 30
0.0
 11
480.64845291323883
 21
872.58887105621659
 31
0.0
  0
LINE
  5
34040
  8
SUNPO
 62
     1
 10
494.64845291323923
 20
917.58887105621761
 30
0.0
 11
494.648452913239
 21
872.58887105621659
 31
0.0
  0
LINE
  5
34041
  8
DANMEN
  6
CONTINUOUS
 62
     7
 10
478.648452913239
 20
917.58887105621761
 30
0.0
 11
478.648452913239
 21
872.58887105621659
 31
0.0
  0
LINE
  5
34042
  8
DANMEN
  6
CONTINUOUS
 62
     7
 10
476.84845291323887
 20
909.78887105621675
 30
0.0
 11
476.84845291323887
 21
874.23887105621827
 31
0.0
  0
LINE
  5
34043
  8
DANMEN
  6
CONTINUOUS
 62
     7
 10
478.648452913239
 20
917.08887105621841
 30
0.0
 11
478.648452913239
 21
873.08887105621852
 31
0.0
  0
LINE
  5
34044
  8
DANMEN
  6
DASHED
 62
     7
 10
478.648452913239
 20
893.58887105621784
 30
0.0
 11
553.648452913239
 21
893.58887105621784
 31
0.0
  0
LINE
  5
34045
  8
DANMEN
  6
DASHED
 62
     7
 10
459.39845291323911
 20
895.08887105621784
 30
0.0
 11
553.648452913239
 21
895.08887105621784
 31
0.0
  0
LINE
  5
34046
  8
DANMEN
  6
CONTINUOUS
 62
     7
 10
478.648452913239
 20
887.58887105621716
 30
0.0
 11
553.648452913239
 21
887.58887105621716
 31
0.0
  0
LINE
  5
34047
  8
DANMEN
  6
CONTINUOUS
 62
     7
 10
478.648452913239
 20
872.58887105621659
 30
0.0
 11
553.648452913239
 21
872.58887105621659
 31
0.0
  0
LINE
  5
34048
  8
DANMEN
  6
DASHED
 62
     7
 10
459.39845291323911
 20
895.08887105621784
 30
0.0
 11
553.64845291323945
 21
904.03887105621754
 31
0.0
  0
LINE
  5
34049
  8
DANMEN
  6
CONTINUOUS
 62
     7
 10
518.39845291323923
 20
658.88887105621836
 30
0.0
 11
518.39845291323923
 21
681.6888710562182
 31
0.0
  0
LINE
  5
3404A
  8
DANMEN
  6
CONTINUOUS
 62
     7
 10
519.39845291323945
 20
684.08887105621807
 30
0.0
 11
518.69845291323941
 21
684.08887105621807
 31
0.0
  0
ARC
  5
3404B
  8
DANMEN
  6
CONTINUOUS
 62
     7
 10
517.89845291323945
 20
681.6888710562182
 30
0.0
 40
0.5
 50
0.0
 51
53.100000000000492
  0
ARC
  5
3404C
  8
DANMEN
  6
CONTINUOUS
 62
     7
 10
518.69845291323941
 20
683.58887105621795
 30
0.0
 40
0.5
 50
90.0
 51
180.0
  0
LINE
  5
3404D
  8
DANMEN
  6
CONTINUOUS
 62
     7
 10
518.19845291323918
 20
682.08887105621795
 30
0.0
 11
518.19845291323918
 21
683.58887105621795
 31
0.0
  0
ARC
  5
3404E
  8
DANMEN
  6
CONTINUOUS
 62
     7
 10
519.39845291323945
 20
683.58887105621795
 30
0.0
 40
0.5
 50
0.0
 51
90.0
  0
LINE
  5
3404F
  8
DANMEN
  6
CONTINUOUS
 62
     7
 10
516.89845291323945
 20
657.88887105621745
 30
0.0
 11
516.89845291323945
 21
658.88887105621836
 31
0.0
  0
LINE
  5
34050
  8
DANMEN
  6
CONTINUOUS
 62
     7
 10
518.39845291323923
 20
658.88887105621836
 30
0.0
 11
516.89845291323945
 21
658.88887105621836
 31
0.0
  0
LINE
  5
34051
  8
DANMEN
  6
CONTINUOUS
 62
     7
 10
518.39845291323923
 20
657.88887105621745
 30
0.0
 11
516.89845291323945
 21
657.88887105621745
 31
0.0
  0
ARC
  5
34052
  8
DANMEN
  6
CONTINUOUS
 62
     7
 10
519.39845291323945
 20
654.5888710562175
 30
0.0
 40
0.5
 50
270.0
 51
0.0
  0
LINE
  5
34053
  8
DANMEN
  6
CONTINUOUS
 62
     7
 10
511.89845291323923
 20
554.58887105621693
 30
0.0
 11
523.8484529132395
 21
566.53887105621777
 31
0.0
  0
LINE
  5
34054
  8
DANMEN
  6
CONTINUOUS
 62
     7
 10
516.14845291323945
 20
554.58887105621693
 30
0.0
 11
530.39845291323945
 21
568.88887105621825
 31
0.0
  0
LINE
  5
34055
  8
DANMEN
  6
CONTINUOUS
 62
     7
 10
520.39845291323945
 20
554.58887105621693
 30
0.0
 11
528.09845291323938
 21
562.28887105621754
 31
0.0
  0
LINE
  5
34056
  8
DANMEN
  6
CONTINUOUS
 62
     7
 10
519.89845291323945
 20
654.5888710562175
 30
0.0
 11
519.89845291323945
 21
683.58887105621795
 31
0.0
  0
LINE
  5
34057
  8
DANMEN
  6
CONTINUOUS
 62
     7
 10
518.39845291323923
 20
655.58887105621807
 30
0.0
 11
518.39845291323923
 21
657.88887105621745
 31
0.0
  0
ARC
  5
34058
  8
DANMEN
  6
CONTINUOUS
 62
     7
 10
500.89845291323923
 20
692.28887105621754
 30
0.0
 40
1.0
 50
270.0
 51
0.0
  0
ARC
  5
34059
  8
DANMEN
  6
CONTINUOUS
 62
     7
 10
499.24845291323942
 20
690.53887105621845
 30
0.0
 40
0.75
 50
90.0
 51
270.0
  0
ARC
  5
3405A
  8
DANMEN
  6
CONTINUOUS
 62
     7
 10
496.64845291323923
 20
687.93887105621775
 30
0.0
 40
0.75
 50
0.0
 51
90.0
  0
ARC
  5
3405B
  8
DANMEN
  6
CONTINUOUS
 62
     7
 10
499.89845291323923
 20
688.78887105621754
 30
0.0
 40
1.0
 50
0.0
 51
90.0
  0
ARC
  5
3405C
  8
DANMEN
  6
CONTINUOUS
 62
     7
 10
501.39845291323923
 20
696.58887105621807
 30
0.0
 40
0.5
 50
0.0
 51
90.0
  0
LINE
  5
3405D
  8
DANMEN
  6
CONTINUOUS
 62
     7
 10
499.24845291323942
 20
691.28887105621845
 30
0.0
 11
500.89845291323923
 21
691.28887105621845
 31
0.0
  0
LINE
  5
3405E
  8
DANMEN
  6
CONTINUOUS
 62
     7
 10
499.24845291323942
 20
689.78887105621845
 30
0.0
 11
499.89845291323923
 21
689.78887105621845
 31
0.0
  0
LINE
  5
3405F
  8
DANMEN
  6
CONTINUOUS
 62
     7
 10
497.39845291323951
 20
687.28887105621845
 30
0.0
 11
497.39845291323951
 21
687.93887105621775
 31
0.0
  0
LINE
  5
34060
  8
DANMEN
  6
CONTINUOUS
 62
     7
 10
500.89845291323923
 20
687.28887105621845
 30
0.0
 11
500.89845291323923
 21
688.78887105621754
 31
0.0
  0
LINE
  5
34061
  8
DANMEN
  6
CONTINUOUS
 62
     7
 10
501.89845291323923
 20
692.28887105621754
 30
0.0
 11
501.89845291323923
 21
696.58887105621807
 31
0.0
  0
ARC
  5
34062
  8
DANMEN
  6
CONTINUOUS
 62
     7
 10
502.39845291323951
 20
698.08887105621852
 30
0.0
 40
1.0
 50
0.0
 51
90.0
  0
ARC
  5
34063
  8
DANMEN
  6
CONTINUOUS
 62
     7
 10
506.89845291323923
 20
658.38887105621768
 30
0.0
 40
0.5
 50
90.0
 51
180.0
  0
LINE
  5
34064
  8
DANMEN
  6
CONTINUOUS
 62
     7
 10
508.89845291323923
 20
657.88887105621745
 30
0.0
 11
507.39845291323951
 21
657.88887105621745
 31
0.0
  0
LINE
  5
34065
  8
DANMEN
  6
CONTINUOUS
 62
     7
 10
508.89845291323923
 20
658.88887105621836
 30
0.0
 11
506.89845291323923
 21
658.88887105621836
 31
0.0
  0
LINE
  5
34066
  8
DANMEN
  6
CONTINUOUS
 62
     7
 10
508.89845291323923
 20
657.88887105621745
 30
0.0
 11
508.89845291323923
 21
658.88887105621836
 31
0.0
  0
LINE
  5
34067
  8
DANMEN
  6
CONTINUOUS
 62
     7
 10
501.89845291323923
 20
683.78887105621754
 30
0.0
 11
501.89845291323923
 21
670.08887105621852
 31
0.0
  0
LINE
  5
34068
  8
DANMEN
  6
CONTINUOUS
 62
     7
 10
500.89845291323923
 20
669.08887105621795
 30
0.0
 11
500.89845291323923
 21
670.08887105621852
 31
0.0
  0
LINE
  5
34069
  8
DANMEN
  6
CONTINUOUS
 62
     7
 10
501.89845291323923
 20
670.08887105621852
 30
0.0
 11
500.89845291323923
 21
670.08887105621852
 31
0.0
  0
LINE
  5
3406A
  8
DANMEN
  6
CONTINUOUS
 62
     7
 10
501.89845291323923
 20
669.08887105621795
 30
0.0
 11
500.89845291323923
 21
669.08887105621795
 31
0.0
  0
ARC
  5
3406B
  8
DANMEN
  6
CONTINUOUS
 62
     7
 10
500.89845291323923
 20
683.78887105621754
 30
0.0
 40
1.0
 50
0.0
 51
90.0
  0
LINE
  5
3406C
  8
DANMEN
  6
CONTINUOUS
 62
     7
 10
498.39845291323923
 20
684.78887105621845
 30
0.0
 11
500.89845291323923
 21
684.78887105621845
 31
0.0
  0
LINE
  5
3406D
  8
DANMEN
  6
CONTINUOUS
 62
     7
 10
498.39845291323923
 20
686.28887105621754
 30
0.0
 11
499.89845291323923
 21
686.28887105621754
 31
0.0
  0
ARC
  5
3406E
  8
DANMEN
  6
CONTINUOUS
 62
     7
 10
498.39845291323923
 20
687.28887105621845
 30
0.0
 40
1.0
 50
180.0
 51
270.0
  0
ARC
  5
3406F
  8
DANMEN
  6
CONTINUOUS
 62
     7
 10
499.89845291323923
 20
687.28887105621845
 30
0.0
 40
1.0
 50
270.0
 51
0.0
  0
ARC
  5
34070
  8
DANMEN
  6
CONTINUOUS
 62
     7
 10
495.4984529132393
 20
686.58887105621761
 30
0.0
 40
0.5
 50
13.499999999999901
 51
90.0
  0
ARC
  5
34071
  8
DANMEN
  6
CONTINUOUS
 62
     7
 10
498.39845291323923
 20
687.28887105621845
 30
0.0
 40
2.5
 50
193.4999999999998
 51
270.0
  0
ARC
  5
34072
  8
DANMEN
  6
CONTINUOUS
 62
     7
 10
469.89845291323951
 20
688.78887105621754
 30
0.0
 40
1.0
 50
90.0
 51
180.0
  0
LINE
  5
34073
  8
DANMEN
  6
CONTINUOUS
 62
     7
 10
470.54845291323937
 20
691.28887105621845
 30
0.0
 11
468.89845291323923
 21
691.28887105621845
 31
0.0
  0
ARC
  5
34074
  8
DANMEN
  6
CONTINUOUS
 62
     7
 10
468.89845291323923
 20
692.28887105621754
 30
0.0
 40
1.0
 50
180.0
 51
270.0
  0
ARC
  5
34075
  8
DANMEN
  6
CONTINUOUS
 62
     7
 10
468.398452913239
 20
696.58887105621807
 30
0.0
 40
0.5
 50
90.0
 51
180.0
  0
LINE
  5
34076
  8
DANMEN
  6
CONTINUOUS
 62
     7
 10
468.89845291323923
 20
687.28887105621845
 30
0.0
 11
468.89845291323923
 21
688.78887105621754
 31
0.0
  0
LINE
  5
34077
  8
DANMEN
  6
CONTINUOUS
 62
     7
 10
467.89845291323911
 20
692.28887105621754
 30
0.0
 11
467.89845291323911
 21
696.58887105621807
 31
0.0
  0
ARC
  5
34078
  8
DANMEN
  6
CONTINUOUS
 62
     7
 10
470.54845291323937
 20
690.53887105621845
 30
0.0
 40
0.75
 50
270.0
 51
90.0
  0
ARC
  5
34079
  8
DANMEN
  6
CONTINUOUS
 62
     7
 10
473.14845291323923
 20
687.93887105621775
 30
0.0
 40
0.75
 50
90.0
 51
180.0
  0
LINE
  5
3407A
  8
DANMEN
  6
CONTINUOUS
 62
     7
 10
470.54845291323937
 20
689.78887105621845
 30
0.0
 11
469.89845291323951
 21
689.78887105621845
 31
0.0
  0
LINE
  5
3407B
  8
DANMEN
  6
CONTINUOUS
 62
     7
 10
472.39845291323951
 20
687.28887105621845
 30
0.0
 11
472.39845291323951
 21
687.93887105621775
 31
0.0
  0
ARC
  5
3407C
  8
DANMEN
  6
CONTINUOUS
 62
     7
 10
474.29845291323909
 20
686.58887105621761
 30
0.0
 40
0.5
 50
90.0
 51
166.50000000000011
  0
LINE
  5
3407D
  8
DANMEN
  6
CONTINUOUS
 62
     7
 10
467.89845291323911
 20
683.78887105621754
 30
0.0
 11
467.89845291323911
 21
670.08887105621852
 31
0.0
  0
LINE
  5
3407E
  8
DANMEN
  6
CONTINUOUS
 62
     7
 10
468.89845291323923
 20
669.08887105621795
 30
0.0
 11
468.89845291323923
 21
670.08887105621852
 31
0.0
  0
LINE
  5
3407F
  8
DANMEN
  6
CONTINUOUS
 62
     7
 10
467.89845291323911
 20
670.08887105621852
 30
0.0
 11
468.89845291323923
 21
670.08887105621852
 31
0.0
  0
LINE
  5
34080
  8
DANMEN
  6
CONTINUOUS
 62
     7
 10
467.89845291323911
 20
669.08887105621795
 30
0.0
 11
468.89845291323923
 21
669.08887105621795
 31
0.0
  0
LINE
  5
34081
  8
DANMEN
  6
CONTINUOUS
 62
     7
 10
471.39845291323923
 20
684.78887105621845
 30
0.0
 11
468.89845291323923
 21
684.78887105621845
 31
0.0
  0
ARC
  5
34082
  8
DANMEN
  6
CONTINUOUS
 62
     7
 10
468.89845291323923
 20
683.78887105621754
 30
0.0
 40
1.0
 50
90.0
 51
180.0
  0
LINE
  5
34083
  8
DANMEN
  6
CONTINUOUS
 62
     7
 10
471.39845291323923
 20
686.28887105621754
 30
0.0
 11
469.89845291323951
 21
686.28887105621754
 31
0.0
  0
ARC
  5
34084
  8
DANMEN
  6
CONTINUOUS
 62
     7
 10
469.89845291323951
 20
687.28887105621845
 30
0.0
 40
1.0
 50
180.0
 51
270.0
  0
ARC
  5
34085
  8
DANMEN
  6
CONTINUOUS
 62
     7
 10
471.39845291323923
 20
687.28887105621845
 30
0.0
 40
2.5
 50
270.0
 51
346.49999999999972
  0
ARC
  5
34086
  8
DANMEN
  6
CONTINUOUS
 62
     7
 10
471.39845291323923
 20
687.28887105621845
 30
0.0
 40
1.0
 50
270.0
 51
0.0
  0
ARC
  5
34087
  8
DANMEN
  6
CONTINUOUS
 62
     7
 10
462.89845291323923
 20
658.38887105621768
 30
0.0
 40
0.5
 50
0.0
 51
90.0
  0
LINE
  5
34088
  8
DANMEN
  6
CONTINUOUS
 62
     7
 10
460.89845291323923
 20
657.88887105621745
 30
0.0
 11
462.39845291323928
 21
657.88887105621745
 31
0.0
  0
LINE
  5
34089
  8
DANMEN
  6
CONTINUOUS
 62
     7
 10
460.89845291323923
 20
658.88887105621836
 30
0.0
 11
462.89845291323923
 21
658.88887105621836
 31
0.0
  0
LINE
  5
3408A
  8
DANMEN
  6
CONTINUOUS
 62
     7
 10
460.89845291323923
 20
657.88887105621745
 30
0.0
 11
460.89845291323923
 21
658.88887105621836
 31
0.0
  0
LINE
  5
3408B
  8
DANMEN
  6
CONTINUOUS
 62
     7
 10
452.89845291323923
 20
657.88887105621745
 30
0.0
 11
452.89845291323923
 21
658.88887105621836
 31
0.0
  0
ARC
  5
3408C
  8
DANMEN
  6
CONTINUOUS
 62
     7
 10
467.39845291323951
 20
698.08887105621852
 30
0.0
 40
1.0
 50
90.0
 51
180.0
  0
LINE
  5
3408D
  8
DANMEN
  6
CONTINUOUS
 62
     7
 10
475.39845291323923
 20
669.08887105621795
 30
0.0
 11
494.39845291323923
 21
669.08887105621795
 31
0.0
  0
LINE
  5
3408E
  8
DANMEN
  6
CONTINUOUS
 62
     7
 10
468.398452913239
 20
697.08887105621704
 30
0.0
 11
501.39845291323923
 21
697.08887105621704
 31
0.0
  0
LINE
  5
3408F
  8
DANMEN
  6
CONTINUOUS
 62
     7
 10
467.39845291323951
 20
699.08887105621852
 30
0.0
 11
502.39845291323951
 21
699.08887105621852
 31
0.0
  0
LINE
  5
34090
  8
DANMEN
  6
CONTINUOUS
 62
     7
 10
473.14845291323923
 20
688.68887105621855
 30
0.0
 11
496.64845291323923
 21
688.68887105621855
 31
0.0
  0
LINE
  5
34091
  8
DANMEN
  6
CONTINUOUS
 62
     7
 10
474.29845291323909
 20
687.08887105621795
 30
0.0
 11
495.4984529132393
 21
687.08887105621795
 31
0.0
  0
LINE
  5
34092
  8
DANMEN
  6
CONTINUOUS
 62
     7
 10
506.39845291323923
 20
655.58887105621807
 30
0.0
 11
503.39845291323923
 21
655.58887105621807
 31
0.0
  0
ARC
  5
34093
  8
DANMEN
  6
CONTINUOUS
 62
     7
 10
502.39845291323951
 20
654.5888710562175
 30
0.0
 40
0.5
 50
180.0
 51
270.0
  0
LINE
  5
34094
  8
DANMEN
  6
CONTINUOUS
 62
     7
 10
494.39845291323923
 20
653.08887105621852
 30
0.0
 11
501.89845291323923
 21
654.08887105621795
 31
0.0
  0
LINE
  5
34095
  8
DANMEN
  6
CONTINUOUS
 62
     7
 10
501.95894242372879
 20
544.63887105621677
 30
0.0
 11
508.90894242372889
 21
551.58887105621693
 31
0.0
  0
ARC
  5
34096
  8
DANMEN
  6
CONTINUOUS
 62
     7
 10
467.39845291323951
 20
654.5888710562175
 30
0.0
 40
0.5
 50
270.0
 51
0.0
  0
LINE
  5
34097
  8
DANMEN
  6
CONTINUOUS
 62
     7
 10
475.39845291323923
 20
653.08887105621852
 30
0.0
 11
467.89845291323911
 21
654.08887105621795
 31
0.0
  0
LINE
  5
34098
  8
DANMEN
  6
CONTINUOUS
 62
     7
 10
463.39845291323923
 20
655.58887105621807
 30
0.0
 11
466.398452913239
 21
655.58887105621807
 31
0.0
  0
LINE
  5
34099
  8
DANMEN
  6
CONTINUOUS
 62
     7
 10
475.39845291323923
 20
669.08887105621795
 30
0.0
 11
475.39845291323923
 21
554.58887105621693
 31
0.0
  0
LINE
  5
3409A
  8
DANMEN
  6
CONTINUOUS
 62
     7
 10
494.39845291323923
 20
669.08887105621795
 30
0.0
 11
494.39845291323923
 21
554.58887105621693
 31
0.0
  0
LINE
  5
3409B
  8
DANMEN
  6
CONTINUOUS
 62
     7
 10
493.89845291323923
 20
669.08887105621795
 30
0.0
 11
493.89845291323923
 21
554.58887105621693
 31
0.0
  0
LINE
  5
3409C
  8
DANMEN
  6
CONTINUOUS
 62
     7
 10
475.89845291323923
 20
669.08887105621795
 30
0.0
 11
475.89845291323923
 21
554.58887105621693
 31
0.0
  0
LINE
  5
3409D
  8
DANMEN
  6
CONTINUOUS
 62
     7
 10
509.39845291323911
 20
689.08887105621795
 30
0.0
 11
509.39845291323911
 21
655.58887105621807
 31
0.0
  0
LINE
  5
3409E
  8
DANMEN
  6
CONTINUOUS
 62
     7
 10
460.39845291323923
 20
689.08887105621795
 30
0.0
 11
460.39845291323923
 21
655.58887105621807
 31
0.0
  0
LINE
  5
3409F
  8
DANMEN
  6
CONTINUOUS
 62
     7
 10
503.39845291323923
 20
655.58887105621807
 30
0.0
 11
503.39845291323923
 21
698.08887105621852
 31
0.0
  0
LINE
  5
340A0
  8
DANMEN
  6
CONTINUOUS
 62
     7
 10
466.398452913239
 20
655.58887105621807
 30
0.0
 11
466.398452913239
 21
698.08887105621852
 31
0.0
  0
LINE
  5
340A1
  8
DANMEN
  6
CONTINUOUS
 62
     7
 10
462.39845291323928
 20
655.58887105621807
 30
0.0
 11
462.39845291323928
 21
657.88887105621745
 31
0.0
  0
LINE
  5
340A2
  8
DANMEN
  6
CONTINUOUS
 62
     7
 10
463.39845291323923
 20
655.58887105621807
 30
0.0
 11
463.39845291323923
 21
658.38887105621768
 31
0.0
  0
LINE
  5
340A3
  8
DANMEN
  6
CONTINUOUS
 62
     7
 10
467.89845291323911
 20
654.5888710562175
 30
0.0
 11
467.89845291323911
 21
669.08887105621795
 31
0.0
  0
LINE
  5
340A4
  8
DANMEN
  6
CONTINUOUS
 62
     7
 10
501.89845291323923
 20
654.5888710562175
 30
0.0
 11
501.89845291323923
 21
669.08887105621795
 31
0.0
  0
LINE
  5
340A5
  8
DANMEN
  6
CONTINUOUS
 62
     7
 10
507.39845291323951
 20
655.58887105621807
 30
0.0
 11
507.39845291323951
 21
657.88887105621745
 31
0.0
  0
LINE
  5
340A6
  8
DANMEN
  6
CONTINUOUS
 62
     7
 10
506.39845291323923
 20
655.58887105621807
 30
0.0
 11
506.39845291323923
 21
658.38887105621768
 31
0.0
  0
LINE
  5
340A7
  8
DANMEN
  6
CONTINUOUS
 62
     7
 10
519.39845291323945
 20
654.08887105621795
 30
0.0
 11
502.39845291323951
 21
654.08887105621795
 31
0.0
  0
LINE
  5
340A8
  8
DANMEN
  6
CONTINUOUS
 62
     7
 10
509.39845291323911
 20
654.08887105621795
 30
0.0
 11
559.89845291323968
 21
654.08887105621795
 31
0.0
  0
LINE
  5
340A9
  8
DANMEN
  6
CONTINUOUS
 62
     7
 10
518.39845291323923
 20
655.58887105621807
 30
0.0
 11
507.39845291323951
 21
655.58887105621807
 31
0.0
  0
LINE
  5
340AA
  8
DANMEN
  6
CONTINUOUS
 62
     7
 10
509.39845291323911
 20
689.08887105621795
 30
0.0
 11
559.89845291323968
 21
689.08887105621795
 31
0.0
  0
LINE
  5
340AB
  8
SUNPO
  6
CONTINUOUS
 62
     1
 10
478.648452913239
 20
975.33887105621864
 30
0.0
 11
618.64845291323843
 21
975.33887105621864
 31
0.0
  0
LINE
  5
340AC
  8
DANMEN
  6
DASHED
 62
     7
 10
558.64845291323888
 20
893.58887105621784
 30
0.0
 11
600.64845291323877
 21
893.58887105621784
 31
0.0
  0
LINE
  5
340AD
  8
DANMEN
  6
DASHED
 62
     7
 10
558.64845291323888
 20
904.58887105621841
 30
0.0
 11
592.64845291323923
 21
904.58887105621841
 31
0.0
  0
LINE
  5
340AE
  8
DANMEN
  6
DASHED
 62
     7
 10
558.64845291323888
 20
895.08887105621784
 30
0.0
 11
600.64845291323877
 21
895.08887105621784
 31
0.0
  0
LINE
  5
340AF
  8
DANMEN
  6
CONTINUOUS
 62
     7
 10
558.64845291323888
 20
872.58887105621659
 30
0.0
 11
600.64845291323877
 21
872.58887105621659
 31
0.0
  0
LINE
  5
340B0
  8
DANMEN
  6
CONTINUOUS
 62
     7
 10
558.64845291323888
 20
917.58887105621761
 30
0.0
 11
618.64845291323843
 21
917.58887105621761
 31
0.0
  0
LINE
  5
340B1
  8
DANMEN
  6
CONTINUOUS
 62
     7
 10
558.64845291323888
 20
887.58887105621716
 30
0.0
 11
618.64845291323843
 21
887.58887105621716
 31
0.0
  0
LINE
  5
340B2
  8
SUNPO
 62
     1
 10
575.89845291323923
 20
669.08887105621795
 30
0.0
 11
521.89845291323945
 21
669.08887105621795
 31
0.0
  0
LINE
  5
340B3
  8
SUNPO
 62
     1
 10
575.89845291323923
 20
654.08887105621795
 30
0.0
 11
561.89845291323945
 21
654.08887105621795
 31
0.0
  0
LINE
  5
340B4
  8
SUNPO
 62
     1
 10
494.648452913239
 20
1119.588871056216
 30
0.0
 11
494.648452913239
 21
917.58887105621761
 31
0.0
  0
LINE
  5
340B5
  8
DANMEN
  6
CONTINUOUS
 62
     7
 10
478.648452913239
 20
1017.088871056218
 30
0.0
 11
478.648452913239
 21
857.58887105621784
 31
0.0
  0
LINE
  5
340B6
  8
DANMEN
  6
CONTINUOUS
 62
     7
 10
503.59845291323887
 20
1002.038871056217
 30
0.0
 11
518.64845291323923
 21
1017.088871056218
 31
0.0
  0
LINE
  5
340B7
  8
DANMEN
  6
CONTINUOUS
 62
     7
 10
498.44845291323878
 20
1005.388871056217
 30
0.0
 11
510.14845291323911
 21
1017.088871056218
 31
0.0
  0
LINE
  5
340B8
  8
DANMEN
  6
CONTINUOUS
 62
     7
 10
497.398452913239
 20
1000.088871056216
 30
0.0
 11
514.39845291323888
 21
1017.088871056218
 31
0.0
  0
LINE
  5
340B9
  8
DANMEN
  6
CONTINUOUS
 62
     7
 10
592.64845291323923
 20
1017.088871056218
 30
0.0
 11
592.64845291323923
 21
917.58887105621761
 31
0.0
  0
LINE
  5
340BA
  8
SUNPO
  6
CONTINUOUS
 62
     1
 10
575.89845291323923
 20
452.08887105621699
 30
0.0
 11
575.89845291323923
 21
439.0888710562183
 31
0.0
  0
CIRCLE
  5
340BB
  8
SUNPO
 62
     1
 10
575.89845291323923
 20
452.08887105621699
 30
0.0
 40
1.0
  0
CIRCLE
  5
340BC
  8
SUNPO
 62
     1
 10
575.89845291323923
 20
439.0888710562183
 30
0.0
 40
1.0
  0
TEXT
  5
340BD
  8
SUNPO
 62
     1
 10
573.64850000000001
 20
440.58887105621773
 30
0.0
 40
7.5
  1
13
 50
90.0
 72
     4
 11
569.89850000000001
 21
445.58887105621761
 31
0.0
  0
CIRCLE
  5
340BE
  8
SUNPO
 62
     1
 10
665.0984529132395
 20
229.58887105621841
 30
0.0
 40
1.0
  0
CIRCLE
  5
340BF
  8
SUNPO
 62
     1
 10
649.09845291323893
 20
245.58887105621841
 30
0.0
 40
1.0
  0
CIRCLE
  5
340C0
  8
SUNPO
 62
     1
 10
639.19845291323782
 20
245.58887105621841
 30
0.0
 40
1.0
  0
ARC
  5
340C1
  8
DANMEN
 62
     7
 10
638.69845291323918
 20
229.08887105621841
 30
0.0
 40
0.5
 50
0.0
 51
90.0
  0
ARC
  5
340C2
  8
DANMEN
 62
     7
 10
637.0484529132392
 20
227.4388710562184
 30
0.0
 40
0.5
 50
0.0
 51
90.0
  0
LINE
  5
340C3
  8
SUNPO
 62
     1
 10
639.19845291323782
 20
245.58887105621841
 30
0.0
 11
639.19845291323782
 21
231.5888710562183
 31
0.0
  0
LINE
  5
340C4
  8
SUNPO
 62
     1
 10
639.19845291323782
 20
245.58887105621841
 30
0.0
 11
639.19845291323782
 21
231.5888710562183
 31
0.0
  0
LINE
  5
340C5
  8
SUNPO
 62
     1
 10
639.19845291323782
 20
245.58887105621841
 30
0.0
 11
649.09845291323893
 21
245.58887105621841
 31
0.0
  0
LINE
  5
340C6
  8
SUNPO
 62
     1
 10
665.0984529132395
 20
229.58887105621841
 30
0.0
 11
641.19845291323895
 21
229.58887105621841
 31
0.0
  0
CIRCLE
  5
340C7
  8
SUNPO
 62
     1
 10
665.0984529132395
 20
199.58887105621841
 30
0.0
 40
1.0
  0
LINE
  5
340C8
  8
DANMEN
 62
     7
 10
647.998452913238
 20
193.9888710562185
 30
0.0
 11
649.0484529132392
 21
198.9388710562184
 31
0.0
  0
LINE
  5
340C9
  8
DANMEN
 62
     7
 10
646.39845291323945
 20
194.33887105621841
 30
0.0
 11
647.14845291323934
 21
197.9388710562184
 31
0.0
  0
LINE
  5
340CA
  8
DANMEN
 62
     7
 10
647.3984529132382
 20
193.58887105621861
 30
0.0
 11
646.748452913238
 21
193.73887105621839
 31
0.0
  0
ARC
  5
340CB
  8
DANMEN
 62
     7
 10
648.59845291323938
 20
199.0888710562181
 30
0.0
 40
0.5
 50
347.89999999999981
 51
90.0
  0
ARC
  5
340CC
  8
DANMEN
 62
     7
 10
647.49845291323925
 20
194.08887105621841
 30
0.0
 40
0.5
 50
257.90000000000038
 51
347.89999999999981
  0
ARC
  5
340CD
  8
DANMEN
 62
     7
 10
646.89845291323945
 20
194.2388710562185
 30
0.0
 40
0.5
 50
167.89999999999981
 51
257.90000000000038
  0
LINE
  5
340CE
  8
DANMEN
 62
     7
 10
639.19845291323782
 20
197.9388710562184
 30
0.0
 11
639.19845291323782
 21
189.4388710562184
 31
0.0
  0
ARC
  5
340CF
  8
DANMEN
 62
     7
 10
637.0484529132392
 20
191.08887105621841
 30
0.0
 40
0.5
 50
270.0
 51
0.0
  0
ARC
  5
340D0
  8
DANMEN
 62
     7
 10
638.69845291323918
 20
189.4388710562184
 30
0.0
 40
0.5
 50
270.0
 51
0.0
  0
LINE
  5
340D1
  8
DANMEN
 62
     7
 10
648.59845291323938
 20
199.58887105621841
 30
0.0
 11
639.19845291323782
 21
199.58887105621841
 31
0.0
  0
LINE
  5
340D2
  8
DANMEN
 62
     7
 10
647.14845291323934
 20
197.9388710562184
 30
0.0
 11
639.19845291323782
 21
197.9388710562184
 31
0.0
  0
LINE
  5
340D3
  8
DANMEN
 62
     7
 10
634.29845291323875
 20
129.93887105621809
 30
0.0
 11
635.39845291323888
 21
135.13887105621851
 31
0.0
  0
LINE
  5
340D4
  8
DANMEN
 62
     7
 10
632.8484529132395
 20
131.23887105621839
 30
0.0
 11
633.79845291323898
 21
135.48887105621839
 31
0.0
  0
LINE
  5
340D5
  8
DANMEN
 62
     7
 10
634.99845291323925
 20
135.7388710562185
 30
0.0
 11
634.34845291323893
 21
135.88887105621851
 31
0.0
  0
ARC
  5
340D6
  8
DANMEN
 62
     7
 10
633.79845291323898
 20
130.08887105621841
 30
0.0
 40
0.5
 50
270.0
 51
347.89999999999981
  0
ARC
  5
340D7
  8
DANMEN
 62
     7
 10
634.89845291323945
 20
135.2388710562185
 30
0.0
 40
0.5
 50
347.89999999999981
 51
77.900000000000517
  0
ARC
  5
340D8
  8
DANMEN
 62
     7
 10
634.24845291323891
 20
135.38887105621851
 30
0.0
 40
0.5
 50
77.900000000000517
 51
167.89999999999981
  0
LINE
  5
340D9
  8
SUNPO
 62
     1
 10
665.0984529132395
 20
199.58887105621841
 30
0.0
 11
651.0984529132395
 21
199.58887105621841
 31
0.0
  0
LINE
  5
340DA
  8
DANMEN
 62
     7
 10
639.19845291323782
 20
229.08887105621841
 30
0.0
 11
639.19845291323782
 21
199.58887105621841
 31
0.0
  0
LINE
  5
340DB
  8
DANMEN
 62
     7
 10
637.54845291323875
 20
227.4388710562184
 30
0.0
 11
637.54845291323875
 21
191.08887105621841
 31
0.0
  0
LINE
  5
340DC
  8
SUNPO
 62
     1
 10
649.09845291323893
 20
245.58887105621841
 30
0.0
 11
649.09845291323893
 21
201.58887105621841
 31
0.0
  0
LINE
  5
340DD
  8
SUNPO
 62
     1
 10
665.0984529132395
 20
229.58887105621841
 30
0.0
 11
665.0984529132395
 21
199.58887105621841
 31
0.0
  0
LINE
  5
340DE
  8
DANMEN
 62
     7
 10
614.19845291323782
 20
221.58887105621841
 30
0.0
 11
614.19845291323782
 21
220.58887105621841
 31
0.0
  0
LINE
  5
340DF
  8
DANMEN
 62
     7
 10
619.19845291323782
 20
221.58887105621841
 30
0.0
 11
619.19845291323782
 21
220.58887105621841
 31
0.0
  0
LINE
  5
340E0
  8
DANMEN
 62
     7
 10
620.19845291323895
 20
222.08887105621841
 30
0.0
 11
620.19845291323895
 21
220.58887105621841
 31
0.0
  0
LINE
  5
340E1
  8
DANMEN
 62
     7
 10
619.69845291323941
 20
222.58887105621841
 30
0.0
 11
613.69845291323918
 21
222.58887105621841
 31
0.0
  0
LINE
  5
340E2
  8
DANMEN
 62
     7
 10
619.19845291323782
 20
221.58887105621841
 30
0.0
 11
614.19845291323782
 21
221.58887105621841
 31
0.0
  0
LINE
  5
340E3
  8
DANMEN
 62
     7
 10
620.19845291323895
 20
220.58887105621841
 30
0.0
 11
619.19845291323782
 21
220.58887105621841
 31
0.0
  0
ARC
  5
340E4
  8
DANMEN
 62
     7
 10
619.69845291323941
 20
222.08887105621841
 30
0.0
 40
0.5
 50
0.0
 51
90.0
  0
CIRCLE
  5
340E5
  8
SUNPO
 62
     1
 10
609.1984529132377
 20
245.58887105621841
 30
0.0
 40
1.0
  0
LINE
  5
340E6
  8
DANMEN
 62
     7
 10
608.19845291323907
 20
213.08887105621841
 30
0.0
 11
609.1984529132377
 21
220.58887105621841
 31
0.0
  0
LINE
  5
340E7
  8
DANMEN
 62
     7
 10
609.1984529132377
 20
229.08887105621841
 30
0.0
 11
609.1984529132377
 21
221.0888710562183
 31
0.0
  0
LINE
  5
340E8
  8
DANMEN
 62
     7
 10
610.8484529132395
 20
227.4388710562184
 30
0.0
 11
610.8484529132395
 21
222.08887105621841
 31
0.0
  0
LINE
  5
340E9
  8
DANMEN
 62
     7
 10
613.19845291323941
 20
222.08887105621841
 30
0.0
 11
610.8484529132395
 21
222.08887105621841
 31
0.0
  0
ARC
  5
340EA
  8
DANMEN
 62
     7
 10
609.69845291323918
 20
229.08887105621841
 30
0.0
 40
0.5
 50
90.0
 51
180.0
  0
ARC
  5
340EB
  8
DANMEN
 62
     7
 10
609.69845291323918
 20
221.0888710562183
 30
0.0
 40
0.5
 50
180.0
 51
270.0
  0
ARC
  5
340EC
  8
DANMEN
 62
     7
 10
611.3484529132395
 20
227.4388710562184
 30
0.0
 40
0.5
 50
90.0
 51
180.0
  0
LINE
  5
340ED
  8
SUNPO
 62
     1
 10
609.1984529132377
 20
245.58887105621841
 30
0.0
 11
609.1984529132377
 21
231.5888710562183
 31
0.0
  0
LINE
  5
340EE
  8
DANMEN
 62
     7
 10
614.19845291323782
 20
220.58887105621841
 30
0.0
 11
609.69845291323918
 21
220.58887105621841
 31
0.0
  0
ARC
  5
340EF
  8
DANMEN
 62
     7
 10
613.69845291323918
 20
222.08887105621841
 30
0.0
 40
0.5
 50
90.0
 51
180.0
  0
LINE
  5
340F0
  8
SUNPO
 62
     1
 10
572.19845291323918
 20
229.58887105621841
 30
0.0
 11
572.19845291323918
 21
220.58887105621841
 31
0.0
  0
CIRCLE
  5
340F1
  8
SUNPO
 62
     1
 10
572.19845291323918
 20
229.58887105621841
 30
0.0
 40
1.0
  0
CIRCLE
  5
340F2
  8
SUNPO
 62
     1
 10
572.19845291323918
 20
220.58887105621841
 30
0.0
 40
1.0
  0
LINE
  5
340F3
  8
DANMEN
 62
     7
 10
614.19845291323782
 20
190.58887105621841
 30
0.0
 11
614.19845291323782
 21
189.58887105621841
 31
0.0
  0
LINE
  5
340F4
  8
DANMEN
 62
     7
 10
619.19845291323782
 20
190.58887105621841
 30
0.0
 11
619.19845291323782
 21
189.58887105621841
 31
0.0
  0
LINE
  5
340F5
  8
DANMEN
 62
     7
 10
619.19845291323782
 20
189.58887105621841
 30
0.0
 11
614.19845291323782
 21
189.58887105621841
 31
0.0
  0
LINE
  5
340F6
  8
DANMEN
 62
     7
 10
620.8484529132395
 20
188.9388710562186
 30
0.0
 11
620.8484529132395
 21
188.4388710562184
 31
0.0
  0
ARC
  5
340F7
  8
DANMEN
 62
     7
 10
620.3484529132387
 20
188.4388710562184
 30
0.0
 40
0.5
 50
270.0
 51
0.0
  0
LINE
  5
340F8
  8
DANMEN
 62
     7
 10
608.19845291323907
 20
198.08887105621841
 30
0.0
 11
609.1984529132377
 21
190.58887105621841
 31
0.0
  0
ARC
  5
340F9
  8
DANMEN
 62
     7
 10
609.69845291323918
 20
190.08887105621841
 30
0.0
 40
0.5
 50
90.0
 51
180.0
  0
LINE
  5
340FC
  8
DANMEN
 62
     7
 10
609.1984529132377
 20
190.58887105621841
 30
0.0
 11
614.19845291323782
 21
190.58887105621841
 31
0.0
  0
LINE
  5
340FD
  8
DANMEN
 62
     7
 10
620.3484529132387
 20
187.9388710562182
 30
0.0
 11
610.8484529132395
 21
187.9388710562182
 31
0.0
  0
ARC
  5
340FF
  8
DANMEN
 62
     7
 10
609.69845291323918
 20
130.08887105621841
 30
0.0
 40
0.5
 50
180.0
 51
270.0
  0
ARC
  5
34100
  8
DANMEN
 62
     7
 10
611.8484529132395
 20
132.23887105621819
 30
0.0
 40
1.0
 50
180.0
 51
270.0
  0
LINE
  5
34102
  8
DANMEN
 62
     7
 10
609.1984529132377
 20
190.08887105621841
 30
0.0
 11
609.1984529132377
 21
130.08887105621841
 31
0.0
  0
LINE
  5
34103
  8
DANMEN
 62
     7
 10
610.8484529132395
 20
187.9388710562182
 30
0.0
 11
610.8484529132395
 21
132.23887105621819
 31
0.0
  0
LINE
  5
34104
  8
DANMEN
 62
     7
 10
610.8484529132395
 20
146.08887105621841
 30
0.0
 11
610.8484529132395
 21
153.08887105621841
 31
0.0
  0
CIRCLE
  5
34106
  8
SUNPO
 62
     1
 10
572.19845291323918
 20
190.58887105621841
 30
0.0
 40
1.0
  0
CIRCLE
  5
34107
  8
SUNPO
 62
     1
 10
572.19845291323918
 20
129.58887105621849
 30
0.0
 40
1.0
  0
LINE
  5
34108
  8
SUNPO
 62
     1
 10
572.19845291323918
 20
190.58887105621841
 30
0.0
 11
572.19845291323918
 21
129.58887105621849
 31
0.0
  0
LINE
  5
34109
  8
DANMEN
 62
     7
 10
624.19845291323782
 20
198.08887105621841
 30
0.0
 11
624.19845291323782
 21
213.08887105621841
 31
0.0
  0
LINE
  5
3410A
  8
SUNPO
 62
     1
 10
572.19845291323918
 20
220.58887105621841
 30
0.0
 11
572.19845291323918
 21
190.58887105621841
 31
0.0
  0
LINE
  5
3410B
  8
DANMEN
 62
     7
 10
638.69845291323918
 20
229.58887105621841
 30
0.0
 11
609.69845291323918
 21
229.58887105621841
 31
0.0
  0
LINE
  5
3410C
  8
DANMEN
 62
     7
 10
633.79845291323898
 20
129.58887105621849
 30
0.0
 11
609.69845291323918
 21
129.58887105621849
 31
0.0
  0
LINE
  5
3410D
  8
DANMEN
 62
     7
 10
637.0484529132392
 20
190.58887105621841
 30
0.0
 11
619.19845291323782
 21
190.58887105621841
 31
0.0
  0
LINE
  5
3410E
  8
DANMEN
 62
     7
 10
637.0484529132392
 20
227.9388710562184
 30
0.0
 11
611.3484529132395
 21
227.9388710562184
 31
0.0
  0
LINE
  5
3410F
  8
DANMEN
 62
     7
 10
632.8484529132395
 20
131.23887105621839
 30
0.0
 11
611.8484529132395
 21
131.23887105621839
 31
0.0
  0
LINE
  5
34110
  8
DANMEN
 62
     7
 10
638.69845291323918
 20
188.9388710562186
 30
0.0
 11
620.8484529132395
 21
188.9388710562186
 31
0.0
  0
LINE
  5
34111
  8
SUNPO
 62
     1
 10
609.1984529132377
 20
245.58887105621841
 30
0.0
 11
639.19845291323782
 21
245.58887105621841
 31
0.0
  0
CIRCLE
  5
34112
  8
SUNPO
 62
     1
 10
519.89845291323945
 20
469.08887105621687
 30
0.0
 40
1.0
  0
LINE
  5
34113
  8
DANMEN
  6
CONTINUOUS
 62
     7
 10
518.39845291323923
 20
450.58887105621818
 30
0.0
 11
518.39845291323923
 21
448.28887105621772
 31
0.0
  0
ARC
  5
34114
  8
DANMEN
  6
CONTINUOUS
 62
     7
 10
519.39845291323945
 20
451.58887105621801
 30
0.0
 40
0.5
 50
0.0
 51
90.0
  0
LINE
  5
34115
  8
DANMEN
  6
CONTINUOUS
 62
     7
 10
516.89845291323945
 20
448.28887105621772
 30
0.0
 11
516.89845291323945
 21
447.2888710562176
 31
0.0
  0
LINE
  5
34116
  8
DANMEN
  6
CONTINUOUS
 62
     7
 10
518.39845291323923
 20
447.2888710562176
 30
0.0
 11
516.89845291323945
 21
447.2888710562176
 31
0.0
  0
LINE
  5
34117
  8
DANMEN
  6
CONTINUOUS
 62
     7
 10
518.39845291323923
 20
448.28887105621772
 30
0.0
 11
516.89845291323945
 21
448.28887105621772
 31
0.0
  0
LINE
  5
34118
  8
SUNPO
  6
CONTINUOUS
 62
     1
 10
519.89845291323945
 20
468.0888710562183
 30
0.0
 11
519.89845291323945
 21
454.08887105621818
 31
0.0
  0
LINE
  5
34119
  8
SUNPO
  6
CONTINUOUS
 62
     1
 10
519.89845291323945
 20
484.08887105621659
 30
0.0
 11
519.89845291323945
 21
454.08887105621818
 31
0.0
  0
CIRCLE
  5
3411A
  8
SUNPO
 62
     1
 10
519.89845291323945
 20
484.08887105621659
 30
0.0
 40
1.0
  0
LINE
  5
3411B
  8
DANMEN
  6
CONTINUOUS
 62
     7
 10
519.39845291323945
 20
422.08887105621801
 30
0.0
 11
518.69845291323941
 21
422.08887105621801
 31
0.0
  0
ARC
  5
3411C
  8
DANMEN
  6
CONTINUOUS
 62
     7
 10
517.89845291323945
 20
424.48887105621827
 30
0.0
 40
0.5
 50
306.89999999999941
 51
0.0
  0
ARC
  5
3411D
  8
DANMEN
  6
CONTINUOUS
 62
     7
 10
518.69845291323941
 20
422.58887105621801
 30
0.0
 40
0.5
 50
180.0
 51
270.0
  0
LINE
  5
3411E
  8
DANMEN
  6
CONTINUOUS
 62
     7
 10
518.19845291323918
 20
424.08887105621778
 30
0.0
 11
518.19845291323918
 21
422.58887105621801
 31
0.0
  0
ARC
  5
3411F
  8
DANMEN
  6
CONTINUOUS
 62
     7
 10
519.39845291323945
 20
422.58887105621801
 30
0.0
 40
0.5
 50
270.0
 51
0.0
  0
LINE
  5
34120
  8
DANMEN
  6
CONTINUOUS
 62
     7
 10
518.39845291323923
 20
447.2888710562176
 30
0.0
 11
518.39845291323923
 21
424.48887105621827
 31
0.0
  0
LINE
  5
34121
  8
DANMEN
  6
CONTINUOUS
 62
     7
 10
519.89845291323945
 20
451.58887105621801
 30
0.0
 11
519.89845291323945
 21
422.58887105621801
 31
0.0
  0
LINE
  5
34122
  8
SUNPO
  6
CONTINUOUS
 62
     1
 10
501.89845291323923
 20
468.0888710562183
 30
0.0
 11
501.89845291323923
 21
468.0888710562183
 31
0.0
  0
CIRCLE
  5
34123
  8
SUNPO
 62
     1
 10
501.89845291323923
 20
468.0888710562183
 30
0.0
 40
1.0
  0
LINE
  5
34124
  8
DANMEN
  6
CONTINUOUS
 62
     7
 10
509.39845291323911
 20
450.58887105621818
 30
0.0
 11
509.39845291323911
 21
428.08887105621852
 31
0.0
  0
ARC
  5
34125
  8
DANMEN
  6
CONTINUOUS
 62
     7
 10
506.89845291323923
 20
447.78887105621851
 30
0.0
 40
0.5
 50
180.0
 51
270.0
  0
LINE
  5
34126
  8
DANMEN
  6
CONTINUOUS
 62
     7
 10
506.39845291323923
 20
450.58887105621818
 30
0.0
 11
503.39845291323923
 21
450.58887105621818
 31
0.0
  0
LINE
  5
34127
  8
DANMEN
  6
CONTINUOUS
 62
     7
 10
508.89845291323923
 20
447.2888710562176
 30
0.0
 11
506.89845291323923
 21
447.2888710562176
 31
0.0
  0
LINE
  5
34128
  8
DANMEN
  6
CONTINUOUS
 62
     7
 10
508.89845291323923
 20
448.28887105621772
 30
0.0
 11
507.39845291323951
 21
448.28887105621772
 31
0.0
  0
LINE
  5
34129
  8
DANMEN
  6
CONTINUOUS
 62
     7
 10
507.39845291323951
 20
450.58887105621818
 30
0.0
 11
507.39845291323951
 21
448.28887105621772
 31
0.0
  0
LINE
  5
3412A
  8
DANMEN
  6
CONTINUOUS
 62
     7
 10
508.89845291323923
 20
448.28887105621772
 30
0.0
 11
508.89845291323923
 21
447.2888710562176
 31
0.0
  0
LINE
  5
3412B
  8
DANMEN
  6
CONTINUOUS
 62
     7
 10
506.39845291323923
 20
450.58887105621818
 30
0.0
 11
506.39845291323923
 21
447.78887105621851
 31
0.0
  0
LINE
  5
3412C
  8
DANMEN
  6
CONTINUOUS
 62
     7
 10
501.89845291323923
 20
451.58887105621801
 30
0.0
 11
501.89845291323923
 21
439.0888710562183
 31
0.0
  0
ARC
  5
3412D
  8
DANMEN
  6
CONTINUOUS
 62
     7
 10
501.39845291323923
 20
430.08887105621818
 30
0.0
 40
0.5
 50
270.0
 51
0.0
  0
ARC
  5
3412E
  8
DANMEN
  6
CONTINUOUS
 62
     7
 10
497.39845291323951
 20
434.33887105621852
 30
0.0
 40
0.5
 50
90.0
 51
270.0
  0
LINE
  5
3412F
  8
DANMEN
  6
CONTINUOUS
 62
     7
 10
501.89845291323923
 20
438.0888710562183
 30
0.0
 11
501.89845291323923
 21
430.08887105621818
 31
0.0
  0
LINE
  5
34130
  8
DANMEN
  6
CONTINUOUS
 62
     7
 10
500.89845291323923
 20
439.0888710562183
 30
0.0
 11
500.89845291323923
 21
438.0888710562183
 31
0.0
  0
LINE
  5
34131
  8
DANMEN
  6
CONTINUOUS
 62
     7
 10
501.89845291323923
 20
438.0888710562183
 30
0.0
 11
500.89845291323923
 21
438.0888710562183
 31
0.0
  0
LINE
  5
34132
  8
DANMEN
  6
CONTINUOUS
 62
     7
 10
501.89845291323923
 20
439.0888710562183
 30
0.0
 11
500.89845291323923
 21
439.0888710562183
 31
0.0
  0
LINE
  5
34133
  8
DANMEN
  6
CONTINUOUS
 62
     7
 10
497.39845291323951
 20
433.8388710562183
 30
0.0
 11
497.39845291323951
 21
429.5888710562183
 31
0.0
  0
LINE
  5
34134
  8
DANMEN
  6
CONTINUOUS
 62
     7
 10
497.39845291323951
 20
439.0888710562183
 30
0.0
 11
497.39845291323951
 21
434.83887105621852
 31
0.0
  0
ARC
  5
34135
  8
DANMEN
  6
CONTINUOUS
 62
     7
 10
502.39845291323951
 20
451.58887105621801
 30
0.0
 40
0.5
 50
90.0
 51
180.0
  0
LINE
  5
34136
  8
SUNPO
  6
CONTINUOUS
 62
     1
 10
501.89845291323923
 20
468.0888710562183
 30
0.0
 11
501.89845291323923
 21
454.08887105621818
 31
0.0
  0
LINE
  5
34137
  8
DANMEN
  6
CONTINUOUS
 62
     7
 10
494.39845291323923
 20
445.08887105621801
 30
0.0
 11
494.39845291323923
 21
453.08887105621852
 31
0.0
  0
LINE
  5
34138
  8
DANMEN
  6
CONTINUOUS
 62
     7
 10
494.39845291323923
 20
445.08887105621801
 30
0.0
 11
494.39845291323923
 21
453.08887105621852
 31
0.0
  0
LINE
  5
34139
  8
DANMEN
  6
CONTINUOUS
 62
     7
 10
494.39845291323923
 20
453.08887105621852
 30
0.0
 11
501.89845291323923
 21
452.08887105621699
 31
0.0
  0
CIRCLE
  5
3413A
  8
SUNPO
 62
     1
 10
467.89845291323911
 20
468.0888710562183
 30
0.0
 40
1.0
  0
LINE
  5
3413B
  8
DANMEN
  6
CONTINUOUS
 62
     7
 10
475.39845291323923
 20
445.08887105621801
 30
0.0
 11
475.39845291323923
 21
453.08887105621852
 31
0.0
  0
LINE
  5
3413C
  8
DANMEN
  6
CONTINUOUS
 62
     7
 10
475.39845291323923
 20
445.08887105621801
 30
0.0
 11
475.39845291323923
 21
453.08887105621852
 31
0.0
  0
LINE
  5
3413D
  8
DANMEN
  6
CONTINUOUS
 62
     7
 10
467.89845291323911
 20
451.58887105621801
 30
0.0
 11
467.89845291323911
 21
439.0888710562183
 31
0.0
  0
ARC
  5
3413E
  8
DANMEN
  6
CONTINUOUS
 62
     7
 10
468.398452913239
 20
430.08887105621818
 30
0.0
 40
0.5
 50
180.0
 51
270.0
  0
LINE
  5
3413F
  8
DANMEN
  6
CONTINUOUS
 62
     7
 10
467.89845291323911
 20
438.0888710562183
 30
0.0
 11
467.89845291323911
 21
430.08887105621818
 31
0.0
  0
LINE
  5
34140
  8
DANMEN
  6
CONTINUOUS
 62
     7
 10
468.89845291323923
 20
439.0888710562183
 30
0.0
 11
468.89845291323923
 21
438.0888710562183
 31
0.0
  0
LINE
  5
34141
  8
DANMEN
  6
CONTINUOUS
 62
     7
 10
467.89845291323911
 20
438.0888710562183
 30
0.0
 11
468.89845291323923
 21
438.0888710562183
 31
0.0
  0
LINE
  5
34142
  8
DANMEN
  6
CONTINUOUS
 62
     7
 10
467.89845291323911
 20
439.0888710562183
 30
0.0
 11
468.89845291323923
 21
439.0888710562183
 31
0.0
  0
ARC
  5
34143
  8
DANMEN
  6
CONTINUOUS
 62
     7
 10
467.39845291323951
 20
451.58887105621801
 30
0.0
 40
0.5
 50
0.0
 51
90.0
  0
ARC
  5
34144
  8
DANMEN
  6
CONTINUOUS
 62
     7
 10
472.39845291323951
 20
434.33887105621852
 30
0.0
 40
0.5
 50
270.0
 51
90.0
  0
LINE
  5
34145
  8
DANMEN
  6
CONTINUOUS
 62
     7
 10
472.39845291323951
 20
433.8388710562183
 30
0.0
 11
472.39845291323951
 21
429.5888710562183
 31
0.0
  0
LINE
  5
34146
  8
DANMEN
  6
CONTINUOUS
 62
     7
 10
472.39845291323951
 20
439.0888710562183
 30
0.0
 11
472.39845291323951
 21
434.83887105621852
 31
0.0
  0
LINE
  5
34147
  8
DANMEN
  6
CONTINUOUS
 62
     7
 10
475.39845291323923
 20
453.08887105621852
 30
0.0
 11
467.89845291323911
 21
452.08887105621699
 31
0.0
  0
LINE
  5
34148
  8
SUNPO
  6
CONTINUOUS
 62
     1
 10
467.89845291323911
 20
468.0888710562183
 30
0.0
 11
467.89845291323911
 21
454.08887105621818
 31
0.0
  0
TEXT
  5
34149
  8
SUNPO
 62
     1
 10
453.89845291323923
 20
470.33890000000002
 30
0.0
 40
7.5
  1
18
 72
     4
 11
458.89845291323923
 21
474.08890000000002
 31
0.0
  0
LINE
  5
3414A
  8
DANMEN
  6
CONTINUOUS
 62
     7
 10
460.39845291323923
 20
450.58887105621818
 30
0.0
 11
460.39845291323923
 21
428.08887105621852
 31
0.0
  0
ARC
  5
3414B
  8
DANMEN
  6
CONTINUOUS
 62
     7
 10
462.89845291323923
 20
447.78887105621851
 30
0.0
 40
0.5
 50
270.0
 51
0.0
  0
LINE
  5
3414C
  8
DANMEN
  6
CONTINUOUS
 62
     7
 10
463.39845291323923
 20
450.58887105621818
 30
0.0
 11
463.39845291323923
 21
447.78887105621851
 31
0.0
  0
LINE
  5
3414D
  8
DANMEN
  6
CONTINUOUS
 62
     7
 10
463.39845291323923
 20
450.58887105621818
 30
0.0
 11
466.398452913239
 21
450.58887105621818
 31
0.0
  0
LINE
  5
3414E
  8
DANMEN
  6
CONTINUOUS
 62
     7
 10
460.89845291323923
 20
447.2888710562176
 30
0.0
 11
462.89845291323923
 21
447.2888710562176
 31
0.0
  0
LINE
  5
3414F
  8
DANMEN
  6
CONTINUOUS
 62
     7
 10
460.89845291323923
 20
448.28887105621772
 30
0.0
 11
462.39845291323928
 21
448.28887105621772
 31
0.0
  0
LINE
  5
34150
  8
DANMEN
  6
CONTINUOUS
 62
     7
 10
462.39845291323928
 20
450.58887105621818
 30
0.0
 11
462.39845291323928
 21
448.28887105621772
 31
0.0
  0
LINE
  5
34151
  8
DANMEN
  6
CONTINUOUS
 62
     7
 10
460.89845291323923
 20
448.28887105621772
 30
0.0
 11
460.89845291323923
 21
447.2888710562176
 31
0.0
  0
LINE
  5
34152
  8
DANMEN
  6
CONTINUOUS
 62
     7
 10
452.89845291323923
 20
448.28887105621772
 30
0.0
 11
452.89845291323923
 21
447.2888710562176
 31
0.0
  0
LINE
  5
34153
  8
DANMEN
  6
CONTINUOUS
 62
     7
 10
460.39845291323923
 20
428.08887105621852
 30
0.0
 11
509.39845291323911
 21
428.08887105621852
 31
0.0
  0
LINE
  5
34154
  8
DANMEN
  6
CONTINUOUS
 62
     7
 10
468.398452913239
 20
429.5888710562183
 30
0.0
 11
501.39845291323923
 21
429.5888710562183
 31
0.0
  0
LINE
  5
34155
  8
DANMEN
  6
CONTINUOUS
 62
     7
 10
467.89845291323911
 20
428.08887105621852
 30
0.0
 11
501.89845291323923
 21
428.08887105621852
 31
0.0
  0
LINE
  5
34156
  8
DANMEN
  6
CONTINUOUS
 62
     7
 10
475.39845291323923
 20
439.0888710562183
 30
0.0
 11
494.39845291323923
 21
439.0888710562183
 31
0.0
  0
LINE
  5
34157
  8
DANMEN
  6
CONTINUOUS
 62
     7
 10
472.39845291323951
 20
429.5888710562183
 30
0.0
 11
497.39845291323951
 21
439.0888710562183
 31
0.0
  0
LINE
  5
34158
  8
DANMEN
  6
CONTINUOUS
 62
     7
 10
472.39845291323951
 20
429.5888710562183
 30
0.0
 11
497.39845291323951
 21
429.5888710562183
 31
0.0
  0
LINE
  5
34159
  8
DANMEN
  6
CONTINUOUS
 62
     7
 10
472.39845291323951
 20
439.0888710562183
 30
0.0
 11
497.39845291323951
 21
439.0888710562183
 31
0.0
  0
LINE
  5
3415A
  8
SUNPO
  6
CONTINUOUS
 62
     1
 10
501.89845291323923
 20
468.0888710562183
 30
0.0
 11
467.89845291323911
 21
468.0888710562183
 31
0.0
  0
TEXT
  5
3415B
  8
SUNPO
 62
     1
 10
478.648452913239
 20
470.33890000000002
 30
0.0
 40
7.5
  1
34
 72
     4
 11
484.898452913239
 21
474.08890000000002
 31
0.0
  0
LINE
  5
3415C
  8
DANMEN
  6
CONTINUOUS
 62
     7
 10
503.39845291323923
 20
417.78887105621828
 30
0.0
 11
503.39845291323923
 21
407.5888710562183
 31
0.0
  0
ARC
  5
3415D
  8
DANMEN
  6
CONTINUOUS
 62
     7
 10
500.89845291323923
 20
413.78887105621828
 30
0.0
 40
1.0
 50
0.0
 51
90.0
  0
ARC
  5
3415E
  8
DANMEN
  6
CONTINUOUS
 62
     7
 10
501.39845291323923
 20
409.0888710562183
 30
0.0
 40
0.5
 50
270.0
 51
0.0
  0
LINE
  5
3415F
  8
DANMEN
  6
CONTINUOUS
 62
     7
 10
497.99845291323919
 20
410.08887105621801
 30
0.0
 11
497.99845291323919
 21
408.5888710562183
 31
0.0
  0
LINE
  5
34160
  8
DANMEN
  6
CONTINUOUS
 62
     7
 10
496.99845291323942
 20
410.08887105621801
 30
0.0
 11
496.99845291323942
 21
409.0888710562183
 31
0.0
  0
LINE
  5
34161
  8
DANMEN
  6
CONTINUOUS
 62
     7
 10
497.99845291323919
 20
408.5888710562183
 30
0.0
 11
501.39845291323923
 21
408.5888710562183
 31
0.0
  0
LINE
  5
34162
  8
DANMEN
  6
CONTINUOUS
 62
     7
 10
496.99845291323942
 20
410.08887105621801
 30
0.0
 11
497.99845291323919
 21
410.08887105621801
 31
0.0
  0
LINE
  5
34163
  8
DANMEN
  6
CONTINUOUS
 62
     7
 10
501.89845291323923
 20
413.78887105621828
 30
0.0
 11
501.89845291323923
 21
409.0888710562183
 31
0.0
  0
ARC
  5
34164
  8
DANMEN
  6
CONTINUOUS
 62
     7
 10
500.89845291323923
 20
422.38887105621831
 30
0.0
 40
1.0
 50
270.0
 51
0.0
  0
ARC
  5
34165
  8
DANMEN
  6
CONTINUOUS
 62
     7
 10
497.29845291323937
 20
416.68887105621849
 30
0.0
 40
0.3
 50
90.0
 51
180.0
  0
ARC
  5
34166
  8
DANMEN
  6
CONTINUOUS
 62
     7
 10
497.29845291323937
 20
419.48887105621827
 30
0.0
 40
0.3
 50
180.0
 51
270.0
  0
ARC
  5
34167
  8
DANMEN
  6
CONTINUOUS
 62
     7
 10
497.54845291323909
 20
416.78887105621851
 30
0.0
 40
0.2
 50
24.599999999999579
 51
90.0
  0
ARC
  5
34168
  8
DANMEN
  6
CONTINUOUS
 62
     7
 10
498.64845291323951
 20
417.28887105621851
 30
0.0
 40
1.0
 50
204.59999999999951
 51
270.0
  0
ARC
  5
34169
  8
DANMEN
  6
CONTINUOUS
 62
     7
 10
497.54845291323909
 20
419.38887105621831
 30
0.0
 40
0.2
 50
270.0
 51
335.39999999999981
  0
ARC
  5
3416A
  8
DANMEN
  6
CONTINUOUS
 62
     7
 10
498.64845291323951
 20
418.88887105621802
 30
0.0
 40
1.0
 50
90.0
 51
155.4000000000004
  0
ARC
  5
3416B
  8
DANMEN
  6
CONTINUOUS
 62
     7
 10
498.59845291323938
 20
419.38887105621831
 30
0.0
 40
2.0
 50
90.0
 51
141.6999999999986
  0
ARC
  5
3416C
  8
DANMEN
  6
CONTINUOUS
 62
     7
 10
499.89845291323923
 20
418.88887105621802
 30
0.0
 40
1.0
 50
0.0
 51
90.0
  0
ARC
  5
3416D
  8
DANMEN
  6
CONTINUOUS
 62
     7
 10
498.59845291323938
 20
416.78887105621851
 30
0.0
 40
2.0
 50
218.2999999999989
 51
270.0
  0
ARC
  5
3416E
  8
DANMEN
  6
CONTINUOUS
 62
     7
 10
499.89845291323923
 20
417.28887105621851
 30
0.0
 40
1.0
 50
270.0
 51
0.0
  0
LINE
  5
3416F
  8
DANMEN
  6
CONTINUOUS
 62
     7
 10
496.99845291323942
 20
416.68887105621849
 30
0.0
 11
496.99845291323942
 21
415.58887105621852
 31
0.0
  0
LINE
  5
34170
  8
DANMEN
  6
CONTINUOUS
 62
     7
 10
496.99845291323942
 20
420.63887105621831
 30
0.0
 11
496.99845291323942
 21
419.48887105621827
 31
0.0
  0
LINE
  5
34171
  8
DANMEN
  6
CONTINUOUS
 62
     7
 10
497.54845291323909
 20
419.1888710562182
 30
0.0
 11
497.29845291323937
 21
419.1888710562182
 31
0.0
  0
LINE
  5
34172
  8
DANMEN
  6
CONTINUOUS
 62
     7
 10
500.89845291323923
 20
418.88887105621802
 30
0.0
 11
500.89845291323923
 21
417.28887105621851
 31
0.0
  0
LINE
  5
34173
  8
DANMEN
  6
CONTINUOUS
 62
     7
 10
500.89845291323923
 20
421.38887105621842
 30
0.0
 11
498.59845291323938
 21
421.38887105621842
 31
0.0
  0
LINE
  5
34174
  8
DANMEN
  6
CONTINUOUS
 62
     7
 10
499.89845291323923
 20
419.88887105621831
 30
0.0
 11
498.64845291323951
 21
419.88887105621831
 31
0.0
  0
LINE
  5
34175
  8
DANMEN
  6
CONTINUOUS
 62
     7
 10
497.29845291323937
 20
416.98887105621799
 30
0.0
 11
497.54845291323909
 21
416.98887105621799
 31
0.0
  0
LINE
  5
34176
  8
DANMEN
  6
CONTINUOUS
 62
     7
 10
498.59845291323938
 20
414.78887105621851
 30
0.0
 11
500.89845291323923
 21
414.78887105621851
 31
0.0
  0
LINE
  5
34177
  8
DANMEN
  6
CONTINUOUS
 62
     7
 10
498.64845291323951
 20
416.28887105621828
 30
0.0
 11
499.89845291323923
 21
416.28887105621828
 31
0.0
  0
LINE
  5
34178
  8
DANMEN
  6
CONTINUOUS
 62
     7
 10
503.09845291323938
 20
418.38887105621819
 30
0.0
 11
503.09845291323938
 21
417.78887105621828
 31
0.0
  0
ARC
  5
34179
  8
DANMEN
  6
CONTINUOUS
 62
     7
 10
502.89845291323923
 20
407.5888710562183
 30
0.0
 40
0.5
 50
270.0
 51
0.0
  0
LINE
  5
3417A
  8
DANMEN
  6
CONTINUOUS
 62
     7
 10
503.09845291323938
 20
417.78887105621828
 30
0.0
 11
503.39845291323923
 21
417.78887105621828
 31
0.0
  0
LINE
  5
3417B
  8
DANMEN
  6
CONTINUOUS
 62
     7
 10
503.09845291323938
 20
418.38887105621819
 30
0.0
 11
503.39845291323923
 21
418.38887105621819
 31
0.0
  0
ARC
  5
3417C
  8
DANMEN
  6
CONTINUOUS
 62
     7
 10
468.89845291323923
 20
413.78887105621828
 30
0.0
 40
1.0
 50
90.0
 51
180.0
  0
LINE
  5
3417D
  8
DANMEN
  6
CONTINUOUS
 62
     7
 10
468.398452913239
 20
408.5888710562183
 30
0.0
 11
471.7984529132392
 21
408.5888710562183
 31
0.0
  0
ARC
  5
3417E
  8
DANMEN
  6
CONTINUOUS
 62
     7
 10
468.398452913239
 20
409.0888710562183
 30
0.0
 40
0.5
 50
180.0
 51
270.0
  0
LINE
  5
3417F
  8
DANMEN
  6
CONTINUOUS
 62
     7
 10
467.89845291323911
 20
413.78887105621828
 30
0.0
 11
467.89845291323911
 21
409.0888710562183
 31
0.0
  0
LINE
  5
34180
  8
DANMEN
  6
CONTINUOUS
 62
     7
 10
471.7984529132392
 20
410.08887105621801
 30
0.0
 11
471.7984529132392
 21
408.5888710562183
 31
0.0
  0
LINE
  5
34181
  8
DANMEN
  6
CONTINUOUS
 62
     7
 10
472.79845291323937
 20
410.08887105621801
 30
0.0
 11
472.79845291323937
 21
409.0888710562183
 31
0.0
  0
LINE
  5
34182
  8
DANMEN
  6
CONTINUOUS
 62
     7
 10
471.7984529132392
 20
410.08887105621801
 30
0.0
 11
472.79845291323937
 21
410.08887105621801
 31
0.0
  0
ARC
  5
34183
  8
DANMEN
  6
CONTINUOUS
 62
     7
 10
469.89845291323951
 20
417.28887105621851
 30
0.0
 40
1.0
 50
180.0
 51
270.0
  0
ARC
  5
34184
  8
DANMEN
  6
CONTINUOUS
 62
     7
 10
469.89845291323951
 20
418.88887105621802
 30
0.0
 40
1.0
 50
90.0
 51
180.0
  0
LINE
  5
34185
  8
DANMEN
  6
CONTINUOUS
 62
     7
 10
468.89845291323923
 20
414.78887105621851
 30
0.0
 11
471.24845291323919
 21
414.78887105621851
 31
0.0
  0
LINE
  5
34186
  8
DANMEN
  6
CONTINUOUS
 62
     7
 10
471.24845291323919
 20
421.38887105621842
 30
0.0
 11
468.89845291323923
 21
421.38887105621842
 31
0.0
  0
ARC
  5
34187
  8
DANMEN
  6
CONTINUOUS
 62
     7
 10
468.89845291323923
 20
422.38887105621831
 30
0.0
 40
1.0
 50
180.0
 51
270.0
  0
LINE
  5
34188
  8
DANMEN
  6
CONTINUOUS
 62
     7
 10
466.69845291323918
 20
418.38887105621819
 30
0.0
 11
466.69845291323918
 21
417.78887105621828
 31
0.0
  0
LINE
  5
34189
  8
DANMEN
  6
CONTINUOUS
 62
     7
 10
468.89845291323923
 20
417.28887105621851
 30
0.0
 11
468.89845291323923
 21
418.88887105621802
 31
0.0
  0
ARC
  5
3418A
  8
DANMEN
  6
CONTINUOUS
 62
     7
 10
472.4984529132393
 20
419.48887105621827
 30
0.0
 40
0.3
 50
270.0
 51
0.0
  0
ARC
  5
3418B
  8
DANMEN
  6
CONTINUOUS
 62
     7
 10
472.4984529132393
 20
416.68887105621849
 30
0.0
 40
0.3
 50
0.0
 51
90.0
  0
ARC
  5
3418C
  8
DANMEN
  6
CONTINUOUS
 62
     7
 10
472.24845291323982
 20
419.38887105621831
 30
0.0
 40
0.2
 50
204.59999999999951
 51
270.0
  0
ARC
  5
3418D
  8
DANMEN
  6
CONTINUOUS
 62
     7
 10
471.14845291323951
 20
418.88887105621802
 30
0.0
 40
1.0
 50
24.599999999999579
 51
90.0
  0
ARC
  5
3418E
  8
DANMEN
  6
CONTINUOUS
 62
     7
 10
472.24845291323982
 20
416.78887105621851
 30
0.0
 40
0.2
 50
90.0
 51
155.4000000000004
  0
ARC
  5
3418F
  8
DANMEN
  6
CONTINUOUS
 62
     7
 10
471.14845291323951
 20
417.28887105621851
 30
0.0
 40
1.0
 50
270.0
 51
335.39999999999981
  0
ARC
  5
34190
  8
DANMEN
  6
CONTINUOUS
 62
     7
 10
471.24845291323919
 20
416.78887105621851
 30
0.0
 40
2.0
 50
270.0
 51
321.69999999999862
  0
ARC
  5
34191
  8
DANMEN
  6
CONTINUOUS
 62
     7
 10
471.24845291323919
 20
419.38887105621831
 30
0.0
 40
2.0
 50
38.29999999999891
 51
90.0
  0
LINE
  5
34192
  8
DANMEN
  6
CONTINUOUS
 62
     7
 10
472.79845291323937
 20
419.48887105621827
 30
0.0
 11
472.79845291323937
 21
420.63887105621831
 31
0.0
  0
LINE
  5
34193
  8
DANMEN
  6
CONTINUOUS
 62
     7
 10
472.79845291323937
 20
415.58887105621852
 30
0.0
 11
472.79845291323937
 21
416.68887105621849
 31
0.0
  0
LINE
  5
34194
  8
DANMEN
  6
CONTINUOUS
 62
     7
 10
472.24845291323982
 20
416.98887105621799
 30
0.0
 11
472.4984529132393
 21
416.98887105621799
 31
0.0
  0
LINE
  5
34195
  8
DANMEN
  6
CONTINUOUS
 62
     7
 10
469.89845291323951
 20
416.28887105621828
 30
0.0
 11
471.14845291323951
 21
416.28887105621828
 31
0.0
  0
LINE
  5
34196
  8
DANMEN
  6
CONTINUOUS
 62
     7
 10
472.4984529132393
 20
419.1888710562182
 30
0.0
 11
472.24845291323982
 21
419.1888710562182
 31
0.0
  0
LINE
  5
34197
  8
DANMEN
  6
CONTINUOUS
 62
     7
 10
471.14845291323951
 20
419.88887105621831
 30
0.0
 11
469.89845291323951
 21
419.88887105621831
 31
0.0
  0
LINE
  5
34198
  8
DANMEN
  6
CONTINUOUS
 62
     7
 10
466.398452913239
 20
417.78887105621828
 30
0.0
 11
466.398452913239
 21
407.5888710562183
 31
0.0
  0
ARC
  5
34199
  8
DANMEN
  6
CONTINUOUS
 62
     7
 10
466.89845291323923
 20
407.5888710562183
 30
0.0
 40
0.5
 50
180.0
 51
270.0
  0
LINE
  5
3419A
  8
DANMEN
  6
CONTINUOUS
 62
     7
 10
466.398452913239
 20
418.38887105621819
 30
0.0
 11
466.69845291323918
 21
418.38887105621819
 31
0.0
  0
LINE
  5
3419B
  8
DANMEN
  6
CONTINUOUS
 62
     7
 10
466.398452913239
 20
417.78887105621828
 30
0.0
 11
466.69845291323918
 21
417.78887105621828
 31
0.0
  0
LINE
  5
3419C
  8
DANMEN
  6
CONTINUOUS
 62
     7
 10
466.89845291323923
 20
407.0888710562183
 30
0.0
 11
502.89845291323923
 21
407.0888710562183
 31
0.0
  0
LINE
  5
3419D
  8
DANMEN
  6
CONTINUOUS
 62
     7
 10
472.79845291323937
 20
409.0888710562183
 30
0.0
 11
496.99845291323942
 21
409.0888710562183
 31
0.0
  0
LINE
  5
3419E
  8
DANMEN
  6
CONTINUOUS
 62
     7
 10
466.398452913239
 20
450.58887105621818
 30
0.0
 11
466.398452913239
 21
418.38887105621819
 31
0.0
  0
LINE
  5
3419F
  8
DANMEN
  6
CONTINUOUS
 62
     7
 10
467.89845291323911
 20
428.08887105621852
 30
0.0
 11
467.89845291323911
 21
422.38887105621831
 31
0.0
  0
LINE
  5
341A0
  8
DANMEN
  6
CONTINUOUS
 62
     7
 10
501.89845291323923
 20
428.08887105621852
 30
0.0
 11
501.89845291323923
 21
422.38887105621831
 31
0.0
  0
LINE
  5
341A1
  8
DANMEN
  6
CONTINUOUS
 62
     7
 10
503.39845291323923
 20
450.58887105621818
 30
0.0
 11
503.39845291323923
 21
418.38887105621819
 31
0.0
  0
LINE
  5
341A2
  8
DANMEN
  6
CONTINUOUS
 62
     7
 10
519.39845291323945
 20
452.08887105621699
 30
0.0
 11
502.39845291323951
 21
452.08887105621699
 31
0.0
  0
LINE
  5
341A3
  8
DANMEN
  6
CONTINUOUS
 62
     7
 10
509.39845291323911
 20
452.08887105621699
 30
0.0
 11
559.89845291323968
 21
452.08887105621699
 31
0.0
  0
LINE
  5
341A4
  8
DANMEN
  6
CONTINUOUS
 62
     7
 10
518.39845291323923
 20
450.58887105621818
 30
0.0
 11
507.39845291323951
 21
450.58887105621818
 31
0.0
  0
LINE
  5
341A5
  8
SUNPO
  6
CONTINUOUS
 62
     1
 10
501.89845291323923
 20
468.0888710562183
 30
0.0
 11
519.89845291323945
 21
468.0888710562183
 31
0.0
  0
TEXT
  5
341A6
  8
SUNPO
 62
     1
 10
505.898452913239
 20
470.33890000000002
 30
0.0
 40
7.5
  1
18
 72
     4
 11
510.89845291323911
 21
474.08890000000002
 31
0.0
  0
CIRCLE
  5
341A7
  8
SUNPO
 62
     1
 10
470.69845291323918
 20
229.58887105621841
 30
0.0
 40
1.0
  0
CIRCLE
  5
341A8
  8
SUNPO
 62
     1
 10
470.69845291323918
 20
129.58887105621849
 30
0.0
 40
1.0
  0
LINE
  5
341A9
  8
SUNPO
 62
     1
 10
470.69845291323918
 20
229.58887105621841
 30
0.0
 11
470.69845291323918
 21
129.58887105621849
 31
0.0
  0
LINE
  5
341AA
  8
SUNPO
  6
CONTINUOUS
 62
     1
 10
575.89845291323923
 20
439.0888710562183
 30
0.0
 11
521.89845291323945
 21
439.0888710562183
 31
0.0
  0
LINE
  5
341AB
  8
SUNPO
  6
CONTINUOUS
 62
     1
 10
575.89845291323923
 20
452.08887105621699
 30
0.0
 11
561.89845291323945
 21
452.08887105621699
 31
0.0
  0
LINE
  5
341AC
  8
DANMEN
 62
     7
 10
520.19845291323941
 20
129.58887105621849
 30
0.0
 11
609.1984529132377
 21
129.58887105621849
 31
0.0
  0
LINE
  5
341AD
  8
DANMEN
 62
     7
 10
624.19845291323782
 20
213.08887105621841
 30
0.0
 11
520.19845291323941
 21
213.08887105621841
 31
0.0
  0
LINE
  5
341AE
  8
DANMEN
 62
     7
 10
624.19845291323782
 20
198.08887105621841
 30
0.0
 11
520.19845291323941
 21
198.08887105621841
 31
0.0
  0
LINE
  5
341AF
  8
DANMEN
 62
     7
 10
624.19845291323782
 20
212.5888710562183
 30
0.0
 11
520.19845291323941
 21
212.5888710562183
 31
0.0
  0
LINE
  5
341B0
  8
DANMEN
 62
     7
 10
624.19845291323782
 20
198.58887105621841
 30
0.0
 11
520.19845291323941
 21
198.58887105621841
 31
0.0
  0
LINE
  5
341B1
  8
DANMEN
 62
     7
 10
520.19845291323941
 20
229.58887105621841
 30
0.0
 11
609.1984529132377
 21
229.58887105621841
 31
0.0
  0
LINE
  5
341B2
  8
DANMEN
 62
     7
 10
520.19845291323941
 20
220.58887105621841
 30
0.0
 11
609.1984529132377
 21
220.58887105621841
 31
0.0
  0
LINE
  5
341B3
  8
DANMEN
 62
     7
 10
520.19845291323941
 20
190.58887105621841
 30
0.0
 11
609.1984529132377
 21
190.58887105621841
 31
0.0
  0
LINE
  5
341B4
  8
DANMEN
 62
     7
 10
520.19845291323941
 20
183.08887105621841
 30
0.0
 11
609.1984529132377
 21
183.08887105621841
 31
0.0
  0
LINE
  5
341B5
  8
DANMEN
 62
     7
 10
520.19845291323941
 20
134.58887105621849
 30
0.0
 11
609.1984529132377
 21
134.58887105621849
 31
0.0
  0
TEXT
  5
341B6
  8
SUNPO
 62
     1
 10
569.94849999999985
 20
199.96387105621801
 30
0.0
 40
7.5
  1
30
 50
90.0
 72
     4
 11
566.19849999999985
 21
205.5888710562181
 31
0.0
  0
TEXT
  5
341B7
  8
SUNPO
 62
     1
 10
569.94849999999985
 20
222.5888710562183
 30
0.0
 40
7.5
  1
9
 50
90.0
 72
     4
 11
566.19849999999985
 21
225.0888710562183
 31
0.0
  0
TEXT
  5
341B8
  8
SUNPO
 62
     1
 10
569.94849999999985
 20
155.08887105621781
 30
0.0
 40
7.5
  1
61
 50
90.0
 72
     4
 11
566.19849999999985
 21
160.0888710562179
 31
0.0
  0
CIRCLE
  5
341B9
  8
SUNPO
 62
     1
 10
634.1984529132377
 20
17.588871056218519
 30
0.0
 40
1.0
  0
LINE
  5
341BA
  8
SUNPO
  6
CONTINUOUS
 62
     1
 10
609.19845691323894
 20
17.588871056218519
 30
0.0
 11
609.19845691323894
 21
17.588871056218519
 31
0.0
  0
POLYLINE
  5
341BB
  8
SUNPO
 62
     1
 66
     1
 10
0.0
 20
0.0
 30
0.0
 70
     1
  0
VERTEX
  5
3447D
  8
SUNPO
 62
     1
 10
609.19845691323894
 20
17.588871056218519
 30
0.0
  0
VERTEX
  5
3447E
  8
SUNPO
 62
     1
 10
602.94845691323962
 20
20.088871056218451
 30
0.0
  0
VERTEX
  5
3447F
  8
SUNPO
 62
     1
 10
602.94845691323962
 20
15.088871056218521
 30
0.0
  0
SEQEND
  5
34480
  8
SUNPO
 62
     1
  0
LINE
  5
341C0
  8
SUNPO
 62
     1
 10
634.1984529132377
 20
17.588871056218519
 30
0.0
 11
609.1984529132377
 21
17.588871056218519
 31
0.0
  0
CIRCLE
  5
341C1
  8
SUNPO
 62
     1
 10
470.69845291323918
 20
49.588871056218423
 30
0.0
 40
1.0
  0
CIRCLE
  5
341C2
  8
SUNPO
 62
     1
 10
454.69845291323941
 20
75.588871056218522
 30
0.0
 40
1.0
  0
CIRCLE
  5
341C3
  8
SUNPO
 62
     1
 10
454.69845291323941
 20
49.588871056218423
 30
0.0
 40
1.0
  0
LINE
  5
341C4
  8
SUNPO
 62
     1
 10
454.69845291323941
 20
75.588871056218522
 30
0.0
 11
454.69845291323941
 21
49.588871056218423
 31
0.0
  0
LINE
  5
341C5
  8
SUNPO
 62
     1
 10
634.1984529132377
 20
17.588871056218519
 30
0.0
 11
634.1984529132377
 21
127.58887105621839
 31
0.0
  0
LINE
  5
341C6
  8
SUNPO
 62
     1
 10
609.1984529132377
 20
17.588871056218519
 30
0.0
 11
609.1984529132377
 21
127.58887105621839
 31
0.0
  0
LINE
  5
341C7
  8
SUNPO
  6
CONTINUOUS
 62
     1
 10
470.69845291323918
 20
129.58887105621849
 30
0.0
 11
470.69845291323918
 21
49.588871056218423
 31
0.0
  0
LINE
  5
341C8
  8
DANMEN
  6
CONTINUOUS
 62
     7
 10
475.39845291323923
 20
551.58887105621693
 30
0.0
 11
475.39845291323923
 21
439.0888710562183
 31
0.0
  0
LINE
  5
341C9
  8
DANMEN
  6
CONTINUOUS
 62
     7
 10
494.39845291323923
 20
551.58887105621693
 30
0.0
 11
494.39845291323923
 21
439.0888710562183
 31
0.0
  0
LINE
  5
341CA
  8
DANMEN
  6
CONTINUOUS
 62
     7
 10
493.89845291323923
 20
551.58887105621693
 30
0.0
 11
493.89845291323923
 21
439.0888710562183
 31
0.0
  0
LINE
  5
341CB
  8
DANMEN
  6
CONTINUOUS
 62
     7
 10
475.89845291323923
 20
551.58887105621693
 30
0.0
 11
475.89845291323923
 21
439.0888710562183
 31
0.0
  0
LINE
  5
341CC
  8
DANMEN
  6
CONTINUOUS
 62
     7
 10
498.70894242372879
 20
537.13887105621802
 30
0.0
 11
513.15894242372894
 21
551.58887105621693
 31
0.0
  0
LINE
  5
341CD
  8
DANMEN
  6
CONTINUOUS
 62
     7
 10
506.30894242372909
 20
540.53887105621834
 30
0.0
 11
517.40894242372906
 21
551.58887105621693
 31
0.0
  0
LINE
  5
341CE
  8
DANMEN
  6
CONTINUOUS
 62
     7
 10
426.64845291323911
 20
1145.0388710562161
 30
0.0
 11
425.64845291323883
 21
1145.0388710562161
 31
0.0
  0
LINE
  5
341CF
  8
DANMEN
  6
CONTINUOUS
 62
     7
 10
426.64845291323911
 20
1145.0388710562161
 30
0.0
 11
425.64845291323883
 21
1145.0388710562161
 31
0.0
  0
ARC
  5
341D0
  8
DANMEN
  6
CONTINUOUS
 62
     7
 10
427.34845291323887
 20
1141.3888710562171
 30
0.0
 40
0.5
 50
270.0
 51
0.0
  0
ARC
  5
341D1
  8
DANMEN
  6
CONTINUOUS
 62
     7
 10
427.14845291323923
 20
1149.5888710562181
 30
0.0
 40
0.5
 50
90.0
 51
180.0
  0
ARC
  5
341D2
  8
DANMEN
  6
CONTINUOUS
 62
     7
 10
427.34845291323887
 20
1149.5888710562181
 30
0.0
 40
0.5
 50
0.0
 51
90.0
  0
ARC
  5
341D3
  8
DANMEN
  6
CONTINUOUS
 62
     7
 10
426.14845291323871
 20
1143.8888710562171
 30
0.0
 40
0.5
 50
270.0
 51
0.0
  0
ARC
  5
341D4
  8
DANMEN
  6
CONTINUOUS
 62
     7
 10
426.14845291323871
 20
1144.5388710562161
 30
0.0
 40
0.5
 50
0.0
 51
90.0
  0
LINE
  5
341D5
  8
DANMEN
  6
CONTINUOUS
 62
     7
 10
427.14845291323923
 20
1150.088871056216
 30
0.0
 11
427.34845291323887
 21
1150.088871056216
 31
0.0
  0
LINE
  5
341D6
  8
DANMEN
  6
CONTINUOUS
 62
     7
 10
427.8484529132391
 20
1149.5888710562181
 30
0.0
 11
427.8484529132391
 21
1141.3888710562171
 31
0.0
  0
LINE
  5
341D7
  8
DANMEN
  6
CONTINUOUS
 62
     7
 10
426.64845291323911
 20
1149.5888710562181
 30
0.0
 11
426.64845291323911
 21
1143.3888710562171
 31
0.0
  0
LINE
  5
341D8
  8
DANMEN
  6
CONTINUOUS
 62
     7
 10
426.64845291323911
 20
1144.5388710562161
 30
0.0
 11
426.64845291323911
 21
1143.8888710562171
 31
0.0
  0
ARC
  5
341D9
  8
DANMEN
  6
CONTINUOUS
 62
     7
 10
409.4484529132389
 20
1167.0888710562181
 30
0.0
 40
0.5
 50
0.0
 51
90.0
  0
LINE
  5
341DA
  8
DANMEN
  6
CONTINUOUS
 62
     7
 10
408.64845291323888
 20
1167.0888710562181
 30
0.0
 11
408.64845291323888
 21
1157.5888710562181
 31
0.0
  0
LINE
  5
341DB
  8
SUNPO
  6
CONTINUOUS
 62
     1
 10
408.64845291323888
 20
1183.5888710562181
 30
0.0
 11
408.64845291323888
 21
1169.5888710562181
 31
0.0
  0
ARC
  5
341DC
  8
DANMEN
  6
CONTINUOUS
 62
     7
 10
409.14845291323911
 20
1167.0888710562181
 30
0.0
 40
0.5
 50
90.0
 51
180.0
  0
LINE
  5
341DD
  8
DANMEN
  6
CONTINUOUS
 62
     7
 10
409.14845291323911
 20
1167.5888710562181
 30
0.0
 11
409.4484529132389
 21
1167.5888710562181
 31
0.0
  0
LINE
  5
341DE
  8
DANMEN
  6
CONTINUOUS
 62
     7
 10
417.64845291323871
 20
1142.888871056216
 30
0.0
 11
417.64845291323871
 21
1130.5888710562181
 31
0.0
  0
LINE
  5
341DF
  8
DANMEN
  6
CONTINUOUS
 62
     7
 10
416.148452913239
 20
1134.588871056216
 30
0.0
 11
417.64845291323871
 21
1134.588871056216
 31
0.0
  0
LINE
  5
341E0
  8
DANMEN
  6
CONTINUOUS
 62
     7
 10
416.64845291323888
 20
1130.5888710562181
 30
0.0
 11
416.64845291323888
 21
1129.5888710562181
 31
0.0
  0
LINE
  5
341E1
  8
DANMEN
  6
CONTINUOUS
 62
     7
 10
416.64845291323888
 20
1130.5888710562181
 30
0.0
 11
417.64845291323871
 21
1130.5888710562181
 31
0.0
  0
LINE
  5
341E2
  8
DANMEN
  6
CONTINUOUS
 62
     7
 10
416.64845291323888
 20
1129.5888710562181
 30
0.0
 11
417.64845291323871
 21
1129.5888710562181
 31
0.0
  0
ARC
  5
341E3
  8
DANMEN
  6
CONTINUOUS
 62
     7
 10
418.14845291323883
 20
1142.888871056216
 30
0.0
 40
0.5
 50
90.0
 51
180.0
  0
ARC
  5
341E4
  8
DANMEN
  6
CONTINUOUS
 62
     7
 10
417.5984529132391
 20
1149.5888710562181
 30
0.0
 40
0.5
 50
0.0
 51
90.0
  0
ARC
  5
341E5
  8
DANMEN
  6
CONTINUOUS
 62
     7
 10
415.44845291323918
 20
1145.8888710562171
 30
0.0
 40
1.0
 50
270.0
 51
0.0
  0
ARC
  5
341E6
  8
DANMEN
  6
CONTINUOUS
 62
     7
 10
415.44845291323918
 20
1147.388871056218
 30
0.0
 40
1.0
 50
0.0
 51
90.0
  0
LINE
  5
341E7
  8
DANMEN
  6
DASHED
 62
     7
 10
417.64845291323871
 20
1150.088871056216
 30
0.0
 11
417.64845291323871
 21
1143.3888710562171
 31
0.0
  0
LINE
  5
341E8
  8
DANMEN
  6
CONTINUOUS
 62
     7
 10
418.14845291323883
 20
1143.3888710562171
 30
0.0
 11
421.84845291323887
 21
1143.3888710562171
 31
0.0
  0
LINE
  5
341E9
  8
DANMEN
  6
CONTINUOUS
 62
     7
 10
418.09845291323887
 20
1145.0388710562161
 30
0.0
 11
421.84845291323887
 21
1145.0388710562161
 31
0.0
  0
LINE
  5
341EA
  8
DANMEN
  6
CONTINUOUS
 62
     7
 10
418.09845291323887
 20
1145.0388710562161
 30
0.0
 11
418.09845291323887
 21
1149.5888710562181
 31
0.0
  0
LINE
  5
341EB
  8
DANMEN
  6
CONTINUOUS
 62
     7
 10
416.44845291323912
 20
1145.8888710562171
 30
0.0
 11
416.44845291323912
 21
1147.388871056218
 31
0.0
  0
LINE
  5
341EC
  8
DANMEN
  6
CONTINUOUS
 62
     7
 10
418.648452913239
 20
1145.0388710562161
 30
0.0
 11
418.09845291323887
 21
1145.0388710562161
 31
0.0
  0
LINE
  5
341ED
  8
DANMEN
  6
CONTINUOUS
 62
     7
 10
418.648452913239
 20
1145.0388710562161
 30
0.0
 11
418.09845291323887
 21
1145.0388710562161
 31
0.0
  0
LINE
  5
341EE
  8
DANMEN
  6
DASHED
 62
     7
 10
407.94845291323918
 20
1154.5888710562181
 30
0.0
 11
409.94845291323901
 21
1154.5888710562181
 31
0.0
  0
LINE
  5
341EF
  8
DANMEN
  6
CONTINUOUS
 62
     7
 10
408.44845291323878
 20
1148.438871056218
 30
0.0
 11
410.44845291323912
 21
1148.438871056218
 31
0.0
  0
ARC
  5
341F0
  8
DANMEN
  6
CONTINUOUS
 62
     7
 10
408.44845291323878
 20
1148.9388710562171
 30
0.0
 40
0.5
 50
180.0
 51
270.0
  0
ARC
  5
341F1
  8
DANMEN
  6
CONTINUOUS
 62
     7
 10
410.44845291323912
 20
1147.4388710562171
 30
0.0
 40
1.0
 50
0.0
 51
90.0
  0
ARC
  5
341F2
  8
DANMEN
  6
CONTINUOUS
 62
     7
 10
412.19845291323878
 20
1146.788871056217
 30
0.0
 40
0.75
 50
180.0
 51
0.0
  0
ARC
  5
341F3
  8
DANMEN
  6
CONTINUOUS
 62
     7
 10
414.84845291323887
 20
1144.1388710562171
 30
0.0
 40
0.75
 50
90.0
 51
270.0
  0
ARC
  5
341F4
  8
DANMEN
  6
CONTINUOUS
 62
     7
 10
413.94845291323901
 20
1147.388871056218
 30
0.0
 40
1.0
 50
90.0
 51
180.0
  0
ARC
  5
341F5
  8
DANMEN
  6
CONTINUOUS
 62
     7
 10
414.14845291323911
 20
1154.088871056216
 30
0.0
 40
0.5
 50
0.0
 51
90.0
  0
ARC
  5
341F6
  8
DANMEN
  6
CONTINUOUS
 62
     7
 10
414.14845291323911
 20
1153.4388710562171
 30
0.0
 40
0.5
 50
270.0
 51
0.0
  0
LINE
  5
341F7
  8
DANMEN
  6
CONTINUOUS
 62
     7
 10
411.44845291323901
 20
1146.788871056217
 30
0.0
 11
411.44845291323901
 21
1147.4388710562171
 31
0.0
  0
LINE
  5
341F8
  8
DANMEN
  6
CONTINUOUS
 62
     7
 10
412.94845291323901
 20
1146.788871056217
 30
0.0
 11
412.94845291323901
 21
1147.388871056218
 31
0.0
  0
LINE
  5
341F9
  8
DANMEN
  6
CONTINUOUS
 62
     7
 10
414.648452913239
 20
1154.088871056216
 30
0.0
 11
414.648452913239
 21
1153.4388710562171
 31
0.0
  0
LINE
  5
341FA
  8
DANMEN
  6
CONTINUOUS
 62
     7
 10
409.94845291323901
 20
1152.9388710562171
 30
0.0
 11
409.94845291323901
 21
1150.088871056216
 31
0.0
  0
LINE
  5
341FB
  8
DANMEN
  6
CONTINUOUS
 62
     7
 10
409.94845291323901
 20
1152.9388710562171
 30
0.0
 11
414.14845291323911
 21
1152.9388710562171
 31
0.0
  0
LINE
  5
341FC
  8
DANMEN
  6
CONTINUOUS
 62
     7
 10
409.94845291323901
 20
1154.5888710562181
 30
0.0
 11
414.14845291323911
 21
1154.5888710562181
 31
0.0
  0
LINE
  5
341FD
  8
DANMEN
  6
CONTINUOUS
 62
     7
 10
409.94845291323901
 20
1154.5888710562181
 30
0.0
 11
417.64845291323871
 21
1154.5888710562181
 31
0.0
  0
LINE
  5
341FE
  8
DANMEN
  6
CONTINUOUS
 62
     7
 10
409.94845291323901
 20
1150.088871056216
 30
0.0
 11
417.5984529132391
 21
1150.088871056216
 31
0.0
  0
LINE
  5
341FF
  8
DANMEN
  6
CONTINUOUS
 62
     7
 10
415.44845291323918
 20
1144.8888710562171
 30
0.0
 11
414.84845291323887
 21
1144.8888710562171
 31
0.0
  0
LINE
  5
34200
  8
DANMEN
  6
CONTINUOUS
 62
     7
 10
415.44845291323918
 20
1148.3888710562171
 30
0.0
 11
413.94845291323901
 21
1148.3888710562171
 31
0.0
  0
LINE
  5
34201
  8
DANMEN
  6
CONTINUOUS
 62
     7
 10
407.94845291323918
 20
1155.338871056216
 30
0.0
 11
407.94845291323918
 21
1148.9388710562171
 31
0.0
  0
LINE
  5
34202
  8
DANMEN
  6
CONTINUOUS
 62
     7
 10
417.64845291323871
 20
1164.5888710562181
 30
0.0
 11
417.64845291323871
 21
1150.088871056216
 31
0.0
  0
LINE
  5
34203
  8
DANMEN
  6
CONTINUOUS
 62
     7
 10
409.94845291323901
 20
1167.0888710562181
 30
0.0
 11
409.94845291323901
 21
1154.5888710562181
 31
0.0
  0
LINE
  5
34204
  8
DANMEN
  6
CONTINUOUS
 62
     7
 10
395.148452913239
 20
1134.588871056216
 30
0.0
 11
410.148452913239
 21
1134.588871056216
 31
0.0
  0
ARC
  5
34205
  8
DANMEN
  6
CONTINUOUS
 62
     7
 10
407.44845291323901
 20
1155.338871056216
 30
0.0
 40
0.5
 50
0.0
 51
95.700000000000188
  0
LINE
  5
34206
  8
DANMEN
  6
CONTINUOUS
 62
     7
 10
395.24845291323908
 20
1154.5888710562181
 30
0.0
 11
407.94845291323918
 21
1154.5888710562181
 31
0.0
  0
CIRCLE
  5
34207
  8
SUNPO
 62
     1
 10
408.64845291323888
 20
1183.5888710562181
 30
0.0
 40
1.0
  0
LINE
  5
34208
  8
DANMEN
  6
CONTINUOUS
 62
     7
 10
422.44845291323901
 20
1143.3888710562171
 30
0.0
 11
426.64845291323911
 21
1143.3888710562171
 31
0.0
  0
LINE
  5
34209
  8
DANMEN
  6
CONTINUOUS
 62
     7
 10
419.648452913239
 20
1140.8888710562151
 30
0.0
 11
427.34845291323887
 21
1140.8888710562151
 31
0.0
  0
LINE
  5
3420A
  8
DANMEN
  6
CONTINUOUS
 62
     7
 10
422.44845291323901
 20
1145.0388710562161
 30
0.0
 11
426.14845291323871
 21
1145.0388710562161
 31
0.0
  0
LINE
  5
3420B
  8
DANMEN
  6
CONTINUOUS
 62
     7
 10
414.84845291323887
 20
1143.3888710562171
 30
0.0
 11
426.14845291323871
 21
1143.3888710562171
 31
0.0
  0
LINE
  5
3420C
  8
DANMEN
  6
CONTINUOUS
 62
     7
 10
425.64845291323883
 20
1145.0388710562161
 30
0.0
 11
418.648452913239
 21
1145.0388710562161
 31
0.0
  0
ARC
  5
3420D
  8
DANMEN
  6
CONTINUOUS
 62
     7
 10
420.64845291323888
 20
1122.5888710562151
 30
0.0
 40
1.0
 50
180.0
 51
270.0
  0
ARC
  5
3420E
  8
DANMEN
  6
CONTINUOUS
 62
     7
 10
418.14845291323883
 20
1120.0888710562181
 30
0.0
 40
0.5
 50
180.0
 51
270.0
  0
LINE
  5
3420F
  8
DANMEN
  6
CONTINUOUS
 62
     7
 10
416.148452913239
 20
1119.388871056218
 30
0.0
 11
417.64845291323871
 21
1119.588871056216
 31
0.0
  0
LINE
  5
34210
  8
DANMEN
  6
CONTINUOUS
 62
     7
 10
410.148452913239
 20
1118.588871056216
 30
0.0
 11
410.148452913239
 21
1124.5888710562181
 31
0.0
  0
LINE
  5
34211
  8
DANMEN
  6
CONTINUOUS
 62
     7
 10
410.148452913239
 20
1118.588871056216
 30
0.0
 11
410.148452913239
 21
1124.5888710562181
 31
0.0
  0
LINE
  5
34212
  8
DANMEN
  6
CONTINUOUS
 62
     7
 10
410.148452913239
 20
1020.088871056216
 30
0.0
 11
416.148452913239
 21
1020.088871056216
 31
0.0
  0
LINE
  5
34213
  8
DANMEN
  6
CONTINUOUS
 62
     7
 10
410.148452913239
 20
1020.088871056216
 30
0.0
 11
416.148452913239
 21
1020.088871056216
 31
0.0
  0
LINE
  5
34214
  8
DANMEN
  6
CONTINUOUS
 62
     7
 10
410.148452913239
 20
1017.088871056218
 30
0.0
 11
416.148452913239
 21
1017.088871056218
 31
0.0
  0
LINE
  5
34215
  8
DANMEN
  6
CONTINUOUS
 62
     7
 10
410.148452913239
 20
1017.088871056218
 30
0.0
 11
416.148452913239
 21
1017.088871056218
 31
0.0
  0
INSERT
  5
34216
  8
DANMEN
  6
CONTINUOUS
 62
     7
  2
*X5
 10
296.14845291323888
 20
787.08887105621784
 30
0.0
 41
4.0
 42
4.0
 43
4.0
1001
ACAD
1000
HATCH
1002
{
1070
    16
1000
ANSI37
1040
4.0
1040
0.0
1002
}
  0
POLYLINE
  5
34217
  8
DANMEN
  6
CONTINUOUS
 62
     7
 66
     1
 10
0.0
 20
0.0
 30
0.0
 70
     1
  0
VERTEX
  5
34481
  8
DANMEN
  6
CONTINUOUS
 62
     7
 10
416.148452913239
 20
1119.388871056218
 30
0.0
  0
VERTEX
  5
34482
  8
DANMEN
  6
CONTINUOUS
 62
     7
 10
410.148452913239
 20
1118.588871056216
 30
0.0
  0
VERTEX
  5
34483
  8
DANMEN
  6
CONTINUOUS
 62
     7
 10
410.148452913239
 20
1020.088871056216
 30
0.0
  0
VERTEX
  5
34484
  8
DANMEN
  6
CONTINUOUS
 62
     7
 10
416.148452913239
 20
1020.088871056216
 30
0.0
  0
SEQEND
  5
34485
  8
DANMEN
  6
CONTINUOUS
 62
     7
  0
LINE
  5
3421D
  8
DANMEN
  6
DASHED
 62
     7
 10
417.64845291323871
 20
1119.588871056216
 30
0.0
 11
417.64845291323871
 21
1020.088871056216
 31
0.0
  0
LINE
  5
3421E
  8
DANMEN
  6
CONTINUOUS
 62
     7
 10
416.148452913239
 20
1119.388871056218
 30
0.0
 11
416.148452913239
 21
1020.088871056216
 31
0.0
  0
LINE
  5
3421F
  8
DANMEN
  6
CONTINUOUS
 62
     7
 10
410.148452913239
 20
1118.588871056216
 30
0.0
 11
410.148452913239
 21
1020.088871056216
 31
0.0
  0
LINE
  5
34220
  8
DANMEN
  6
CONTINUOUS
 62
     7
 10
416.148452913239
 20
1119.388871056218
 30
0.0
 11
416.148452913239
 21
1020.088871056216
 31
0.0
  0
LINE
  5
34221
  8
DANMEN
  6
CONTINUOUS
 62
     7
 10
410.148452913239
 20
1118.588871056216
 30
0.0
 11
410.148452913239
 21
1020.088871056216
 31
0.0
  0
LINE
  5
34222
  8
DANMEN
  6
CONTINUOUS
 62
     7
 10
416.148452913239
 20
1119.388871056218
 30
0.0
 11
416.148452913239
 21
1020.088871056216
 31
0.0
  0
LINE
  5
34223
  8
DANMEN
  6
CONTINUOUS
 62
     7
 10
410.148452913239
 20
1134.588871056216
 30
0.0
 11
410.148452913239
 21
1020.088871056216
 31
0.0
  0
LINE
  5
34224
  8
DANMEN
  6
CONTINUOUS
 62
     7
 10
395.148452913239
 20
1134.588871056216
 30
0.0
 11
395.148452913239
 21
1020.088871056216
 31
0.0
  0
LINE
  5
34225
  8
DANMEN
  6
CONTINUOUS
 62
     7
 10
409.64845291323871
 20
1134.588871056216
 30
0.0
 11
409.64845291323871
 21
1020.088871056216
 31
0.0
  0
LINE
  5
34226
  8
DANMEN
  6
CONTINUOUS
 62
     7
 10
395.64845291323888
 20
1134.588871056216
 30
0.0
 11
395.64845291323888
 21
1020.088871056216
 31
0.0
  0
LINE
  5
34227
  8
DANMEN
  6
CONTINUOUS
 62
     7
 10
417.64845291323871
 20
1143.3888710562171
 30
0.0
 11
417.64845291323871
 21
1119.588871056216
 31
0.0
  0
LINE
  5
34228
  8
DANMEN
  6
CONTINUOUS
 62
     7
 10
419.648452913239
 20
1140.8888710562151
 30
0.0
 11
419.648452913239
 21
1122.5888710562151
 31
0.0
  0
LINE
  5
34229
  8
DANMEN
  6
CONTINUOUS
 62
     7
 10
416.148452913239
 20
1134.588871056216
 30
0.0
 11
416.148452913239
 21
1119.388871056218
 31
0.0
  0
LINE
  5
3422A
  8
DANMEN
  6
CONTINUOUS
 62
     7
 10
417.64845291323871
 20
1128.5888710562151
 30
0.0
 11
417.64845291323871
 21
1125.5888710562181
 31
0.0
  0
LINE
  5
3422B
  8
SUNPO
  6
CONTINUOUS
 62
     1
 10
378.648452913239
 20
1183.5888710562181
 30
0.0
 11
378.648452913239
 21
1156.588871056216
 31
0.0
  0
LINE
  5
3422C
  8
DANMEN
  6
CONTINUOUS
 62
     7
 10
388.648452913239
 20
1130.5888710562181
 30
0.0
 11
388.648452913239
 21
1129.5888710562181
 31
0.0
  0
LINE
  5
3422D
  8
DANMEN
  6
CONTINUOUS
 62
     7
 10
387.64845291323888
 20
1129.5888710562181
 30
0.0
 11
388.648452913239
 21
1129.5888710562181
 31
0.0
  0
LINE
  5
3422E
  8
DANMEN
  6
CONTINUOUS
 62
     7
 10
380.59845291323887
 20
1152.6888710562171
 30
0.0
 11
380.59845291323887
 21
1126.238871056217
 31
0.0
  0
ARC
  5
3422F
  8
DANMEN
  6
CONTINUOUS
 62
     7
 10
385.49845291323902
 20
1130.088871056216
 30
0.0
 40
0.5
 50
90.0
 51
180.0
  0
LINE
  5
34230
  8
DANMEN
  6
CONTINUOUS
 62
     7
 10
380.59845291323887
 20
1126.238871056217
 30
0.0
 11
384.99845291323908
 21
1126.238871056217
 31
0.0
  0
LINE
  5
34231
  8
DANMEN
  6
CONTINUOUS
 62
     7
 10
384.99845291323908
 20
1130.088871056216
 30
0.0
 11
384.99845291323908
 21
1126.238871056217
 31
0.0
  0
ARC
  5
34232
  8
DANMEN
  6
CONTINUOUS
 62
     7
 10
381.09845291323887
 20
1152.6888710562171
 30
0.0
 40
0.5
 50
95.700000000000188
 51
180.0
  0
ARC
  5
34233
  8
DANMEN
  6
CONTINUOUS
 62
     7
 10
379.14845291323911
 20
1154.1388710562151
 30
0.0
 40
0.5
 50
95.700000000000188
 51
180.0
  0
LINE
  5
34234
  8
DANMEN
  6
CONTINUOUS
 62
     7
 10
385.49845291323902
 20
1130.5888710562181
 30
0.0
 11
388.648452913239
 21
1130.5888710562181
 31
0.0
  0
CIRCLE
  5
34235
  8
SUNPO
 62
     1
 10
378.648452913239
 20
1183.5888710562181
 30
0.0
 40
1.0
  0
LINE
  5
34236
  8
SUNPO
  6
CONTINUOUS
 62
     1
 10
346.64845291323923
 20
1157.5888710562181
 30
0.0
 11
346.64845291323923
 21
1167.5888710562181
 31
0.0
  0
CIRCLE
  5
34237
  8
SUNPO
 62
     1
 10
346.64845291323923
 20
1167.5888710562181
 30
0.0
 40
1.0
  0
CIRCLE
  5
34238
  8
SUNPO
 62
     1
 10
346.64845291323923
 20
1157.5888710562181
 30
0.0
 40
1.0
  0
LINE
  5
34239
  8
SUNPO
  6
CONTINUOUS
 62
     1
 10
346.64845291323923
 20
1154.5888710562181
 30
0.0
 11
346.64845291323923
 21
1157.5888710562181
 31
0.0
  0
TEXT
  5
3423A
  8
SUNPO
 62
     1
 10
343.39845291323923
 20
1153.588871056216
 30
0.0
 40
7.5
  1
3
 50
90.0
 72
     4
 11
339.64845291323923
 21
1156.088871056216
 31
0.0
  0
CIRCLE
  5
3423B
  8
SUNPO
 62
     1
 10
346.64845291323923
 20
1154.5888710562181
 30
0.0
 40
1.0
  0
LINE
  5
3423C
  8
SUNPO
  6
CONTINUOUS
 62
     1
 10
346.64845291323923
 20
1154.5888710562181
 30
0.0
 11
376.64845291323911
 21
1154.5888710562181
 31
0.0
  0
LINE
  5
3423D
  8
SUNPO
  6
CONTINUOUS
 62
     1
 10
346.64845291323923
 20
1154.5888710562181
 30
0.0
 11
376.64845291323911
 21
1154.5888710562181
 31
0.0
  0
ARC
  5
3423E
  8
DANMEN
  6
CONTINUOUS
 62
     7
 10
387.148452913239
 20
1120.0888710562181
 30
0.0
 40
0.5
 50
270.0
 51
0.0
  0
ARC
  5
3423F
  8
DANMEN
  6
CONTINUOUS
 62
     7
 10
385.49845291323902
 20
1120.0888710562181
 30
0.0
 40
0.5
 50
180.0
 51
270.0
  0
ARC
  5
34240
  8
DANMEN
  6
CONTINUOUS
 62
     7
 10
380.0984529132391
 20
1120.0888710562181
 30
0.0
 40
0.5
 50
270.0
 51
0.0
  0
ARC
  5
34241
  8
DANMEN
  6
CONTINUOUS
 62
     7
 10
379.14845291323911
 20
1120.0888710562181
 30
0.0
 40
0.5
 50
180.0
 51
270.0
  0
LINE
  5
34242
  8
DANMEN
  6
CONTINUOUS
 62
     7
 10
380.59845291323887
 20
1124.5888710562181
 30
0.0
 11
380.59845291323887
 21
1120.0888710562181
 31
0.0
  0
LINE
  5
34243
  8
DANMEN
  6
CONTINUOUS
 62
     7
 10
384.99845291323908
 20
1124.5888710562181
 30
0.0
 11
384.99845291323908
 21
1120.0888710562181
 31
0.0
  0
LINE
  5
34244
  8
DANMEN
  6
CONTINUOUS
 62
     7
 10
380.59845291323887
 20
1124.5888710562181
 30
0.0
 11
384.99845291323908
 21
1124.5888710562181
 31
0.0
  0
LINE
  5
34245
  8
DANMEN
  6
CONTINUOUS
 62
     7
 10
379.14845291323911
 20
1119.588871056216
 30
0.0
 11
380.0984529132391
 21
1119.588871056216
 31
0.0
  0
LINE
  5
34246
  8
DANMEN
  6
CONTINUOUS
 62
     7
 10
385.49845291323902
 20
1119.588871056216
 30
0.0
 11
387.148452913239
 21
1119.588871056216
 31
0.0
  0
LINE
  5
34247
  8
DANMEN
  6
CONTINUOUS
 62
     7
 10
378.648452913239
 20
1020.088871056216
 30
0.0
 11
378.648452913239
 21
1119.588871056216
 31
0.0
  0
LINE
  5
34248
  8
DANMEN
  6
CONTINUOUS
 62
     7
 10
387.64845291323888
 20
1020.088871056216
 30
0.0
 11
387.64845291323888
 21
1119.588871056216
 31
0.0
  0
CIRCLE
  5
34249
  8
SUNPO
 62
     1
 10
346.64845291323923
 20
1119.588871056216
 30
0.0
 40
1.0
  0
LINE
  5
3424A
  8
SUNPO
  6
CONTINUOUS
 62
     1
 10
346.64845291323923
 20
1119.588871056216
 30
0.0
 11
376.64845291323911
 21
1119.588871056216
 31
0.0
  0
LINE
  5
3424B
  8
SUNPO
  6
CONTINUOUS
 62
     1
 10
346.64845291323923
 20
1119.588871056216
 30
0.0
 11
346.64845291323923
 21
1154.5888710562181
 31
0.0
  0
LINE
  5
3424C
  8
DANMEN
  6
CONTINUOUS
 62
     7
 10
378.648452913239
 20
1154.1388710562151
 30
0.0
 11
378.648452913239
 21
1120.0888710562181
 31
0.0
  0
LINE
  5
3424D
  8
DANMEN
  6
CONTINUOUS
 62
     7
 10
387.64845291323888
 20
1129.5888710562181
 30
0.0
 11
387.64845291323888
 21
1120.0888710562181
 31
0.0
  0
LINE
  5
3424E
  8
DANMEN
  6
CONTINUOUS
 62
     7
 10
395.148452913239
 20
1118.588871056216
 30
0.0
 11
387.64845291323888
 21
1119.588871056216
 31
0.0
  0
LINE
  5
3424F
  8
SUNPO
  6
CONTINUOUS
 62
     1
 10
346.64845291323923
 20
1167.5888710562181
 30
0.0
 11
406.64845291323923
 21
1167.5888710562181
 31
0.0
  0
LINE
  5
34250
  8
SUNPO
  6
CONTINUOUS
 62
     1
 10
346.64845291323923
 20
1157.5888710562181
 30
0.0
 11
406.64845291323923
 21
1157.5888710562181
 31
0.0
  0
LINE
  5
34251
  8
SUNPO
  6
CONTINUOUS
 62
     1
 10
346.64845291323923
 20
1157.5888710562181
 30
0.0
 11
406.64845291323923
 21
1157.5888710562181
 31
0.0
  0
LINE
  5
34252
  8
DANMEN
  6
DASHED
 62
     7
 10
378.648452913239
 20
1154.5888710562181
 30
0.0
 11
395.24845291323908
 21
1154.5888710562181
 31
0.0
  0
LINE
  5
34253
  8
DANMEN
  6
CONTINUOUS
 62
     7
 10
381.04845291323909
 20
1153.1888710562171
 30
0.0
 11
407.39845291323871
 21
1155.8388710562181
 31
0.0
  0
LINE
  5
34254
  8
DANMEN
  6
CONTINUOUS
 62
     7
 10
379.09845291323921
 20
1154.6388710562171
 30
0.0
 11
408.64845291323888
 21
1157.5888710562181
 31
0.0
  0
LINE
  5
34255
  8
SUNPO
  6
CONTINUOUS
 62
     1
 10
378.648452913239
 20
1183.5888710562181
 30
0.0
 11
408.64845291323888
 21
1183.5888710562181
 31
0.0
  0
LINE
  5
34256
  8
DANMEN
  6
CONTINUOUS
 62
     7
 10
445.44845291323918
 20
910.28887105621845
 30
0.0
 11
445.44845291323918
 21
896.38887105621779
 31
0.0
  0
ARC
  5
34257
  8
DANMEN
  6
CONTINUOUS
 62
     7
 10
445.94845291323912
 20
910.28887105621845
 30
0.0
 40
0.5
 50
90.0
 51
180.0
  0
LINE
  5
34258
  8
DANMEN
  6
CONTINUOUS
 62
     7
 10
443.648452913239
 20
910.93887105621843
 30
0.0
 11
443.648452913239
 21
897.58887105621659
 31
0.0
  0
ARC
  5
34259
  8
DANMEN
  6
CONTINUOUS
 62
     7
 10
443.14845291323883
 20
897.58887105621659
 30
0.0
 40
0.5
 50
274.60000000000213
 51
0.0
  0
ARC
  5
3425A
  8
DANMEN
  6
CONTINUOUS
 62
     7
 10
444.44845291323878
 20
896.38887105621779
 30
0.0
 40
1.0
 50
274.60000000000213
 51
0.0
  0
LINE
  5
3425B
  8
DANMEN
  6
CONTINUOUS
 62
     7
 10
429.79845291323909
 20
895.98887105621793
 30
0.0
 11
425.59845291323887
 21
895.63887105621814
 31
0.0
  0
LINE
  5
3425C
  8
DANMEN
  6
CONTINUOUS
 62
     7
 10
429.79845291323909
 20
895.98887105621793
 30
0.0
 11
425.59845291323887
 21
895.63887105621814
 31
0.0
  0
ARC
  5
3425D
  8
DANMEN
  6
CONTINUOUS
 62
     7
 10
425.64845291323883
 20
895.13887105621825
 30
0.0
 40
0.5
 50
94.600000000002197
 51
180.0
  0
ARC
  5
3425E
  8
DANMEN
  6
CONTINUOUS
 62
     7
 10
422.99845291323908
 20
915.43887105621843
 30
0.0
 40
0.5
 50
0.0
 51
90.0
  0
ARC
  5
3425F
  8
DANMEN
  6
CONTINUOUS
 62
     7
 10
423.99845291323902
 20
911.43887105621809
 30
0.0
 40
0.5
 50
180.0
 51
270.0
  0
ARC
  5
34260
  8
DANMEN
  6
CONTINUOUS
 62
     7
 10
424.648452913239
 20
917.08887105621841
 30
0.0
 40
0.5
 50
0.0
 51
90.0
  0
LINE
  5
34261
  8
DANMEN
  6
CONTINUOUS
 62
     7
 10
423.49845291323879
 20
915.43887105621843
 30
0.0
 11
423.49845291323879
 21
911.43887105621809
 31
0.0
  0
LINE
  5
34262
  8
DANMEN
  6
CONTINUOUS
 62
     7
 10
425.14845291323888
 20
917.08887105621841
 30
0.0
 11
425.14845291323888
 21
912.58887105621716
 31
0.0
  0
LINE
  5
34263
  8
DANMEN
  6
CONTINUOUS
 62
     7
 10
426.94845291323878
 20
893.9388710562182
 30
0.0
 11
444.54845291323892
 21
895.38887105621825
 31
0.0
  0
LINE
  5
34264
  8
DANMEN
  6
CONTINUOUS
 62
     7
 10
425.59845291323887
 20
895.63887105621814
 30
0.0
 11
443.1984529132389
 21
897.08887105621852
 31
0.0
  0
LINE
  5
34265
  8
DANMEN
  6
CONTINUOUS
 62
     7
 10
423.99845291323902
 20
910.93887105621843
 30
0.0
 11
443.648452913239
 21
910.93887105621843
 31
0.0
  0
LINE
  5
34266
  8
SUNPO
 62
     1
 10
417.64845291323871
 20
954.43887105621752
 30
0.0
 11
417.64845291323871
 21
954.43887105621752
 31
0.0
  0
LINE
  5
34267
  8
SUNPO
 62
     1
 10
417.64845291323871
 20
954.43887105621752
 30
0.0
 11
417.64845291323871
 21
954.43887105621752
 31
0.0
  0
CIRCLE
  5
34268
  8
SUNPO
 62
     1
 10
417.64845291323871
 20
954.43887105621752
 30
0.0
 40
1.0
  0
LINE
  5
34269
  8
DANMEN
  6
CONTINUOUS
 62
     7
 10
416.148452913239
 20
917.78887105621845
 30
0.0
 11
416.148452913239
 21
904.58887105621841
 31
0.0
  0
LINE
  5
3426A
  8
DANMEN
  6
CONTINUOUS
 62
     7
 10
416.148452913239
 20
904.58887105621841
 30
0.0
 11
417.64845291323871
 21
904.58887105621841
 31
0.0
  0
ARC
  5
3426B
  8
DANMEN
  6
CONTINUOUS
 62
     7
 10
420.14845291323911
 20
915.43887105621843
 30
0.0
 40
0.5
 50
90.0
 51
180.0
  0
ARC
  5
3426C
  8
DANMEN
  6
CONTINUOUS
 62
     7
 10
419.14845291323923
 20
907.08887105621852
 30
0.0
 40
0.5
 50
270.0
 51
0.0
  0
ARC
  5
3426D
  8
DANMEN
  6
CONTINUOUS
 62
     7
 10
418.14845291323883
 20
917.08887105621841
 30
0.0
 40
0.5
 50
90.0
 51
180.0
  0
LINE
  5
3426E
  8
DANMEN
  6
CONTINUOUS
 62
     7
 10
419.648452913239
 20
915.43887105621843
 30
0.0
 11
419.648452913239
 21
907.08887105621852
 31
0.0
  0
LINE
  5
3426F
  8
DANMEN
  6
CONTINUOUS
 62
     7
 10
418.648452913239
 20
912.58887105621716
 30
0.0
 11
418.648452913239
 21
907.58887105621773
 31
0.0
  0
LINE
  5
34270
  8
DANMEN
  6
CONTINUOUS
 62
     7
 10
417.64845291323871
 20
906.58887105621795
 30
0.0
 11
419.14845291323923
 21
906.58887105621795
 31
0.0
  0
LINE
  5
34271
  8
DANMEN
  6
CONTINUOUS
 62
     7
 10
417.64845291323871
 20
907.58887105621773
 30
0.0
 11
418.648452913239
 21
907.58887105621773
 31
0.0
  0
LINE
  5
34272
  8
DANMEN
  6
CONTINUOUS
 62
     7
 10
417.64845291323871
 20
912.58887105621716
 30
0.0
 11
418.648452913239
 21
912.58887105621716
 31
0.0
  0
LINE
  5
34273
  8
DANMEN
  6
CONTINUOUS
 62
     7
 10
417.64845291323871
 20
907.58887105621773
 30
0.0
 11
417.64845291323871
 21
906.58887105621795
 31
0.0
  0
LINE
  5
34274
  8
DANMEN
  6
CONTINUOUS
 62
     7
 10
417.64845291323871
 20
912.58887105621716
 30
0.0
 11
417.64845291323871
 21
917.58887105621761
 31
0.0
  0
LINE
  5
34275
  8
DANMEN
  6
CONTINUOUS
 62
     7
 10
416.148452913239
 20
917.78887105621845
 30
0.0
 11
417.64845291323871
 21
917.58887105621761
 31
0.0
  0
LINE
  5
34276
  8
DANMEN
  6
CONTINUOUS
 62
     7
 10
395.148452913239
 20
918.5888710562183
 30
0.0
 11
395.148452913239
 21
912.58887105621716
 31
0.0
  0
LINE
  5
34277
  8
DANMEN
  6
CONTINUOUS
 62
     7
 10
395.148452913239
 20
918.5888710562183
 30
0.0
 11
395.148452913239
 21
912.58887105621716
 31
0.0
  0
LINE
  5
34278
  8
DANMEN
  6
CONTINUOUS
 62
     7
 10
395.148452913239
 20
904.58887105621841
 30
0.0
 11
410.148452913239
 21
904.58887105621841
 31
0.0
  0
LINE
  5
34279
  8
DANMEN
  6
CONTINUOUS
 62
     7
 10
420.14845291323911
 20
915.93887105621843
 30
0.0
 11
422.99845291323908
 21
915.93887105621843
 31
0.0
  0
LINE
  5
3427A
  8
DANMEN
  6
CONTINUOUS
 62
     7
 10
418.14845291323883
 20
917.58887105621761
 30
0.0
 11
424.648452913239
 21
917.58887105621761
 31
0.0
  0
TEXT
  5
3427B
  8
SUNPO
 62
     1
 10
421.14845291323888
 20
977.58889999999985
 30
0.0
 40
7.5
  1
100
 72
     4
 11
428.648452913239
 21
981.33889999999985
 31
0.0
  0
ARC
  5
3427C
  8
DANMEN
  6
CONTINUOUS
 62
     7
 10
426.44845291323901
 20
892.28887105621743
 30
0.0
 40
0.5
 50
270.0
 51
0.0
  0
LINE
  5
3427D
  8
DANMEN
  6
CONTINUOUS
 62
     7
 10
419.29845291323909
 20
891.78887105621857
 30
0.0
 11
419.29845291323909
 21
866.88887105621825
 31
0.0
  0
LINE
  5
3427E
  8
DANMEN
  6
CONTINUOUS
 62
     7
 10
417.64845291323871
 20
887.58887105621716
 30
0.0
 11
417.64845291323871
 21
869.08887105621818
 31
0.0
  0
ARC
  5
3427F
  8
DANMEN
  6
CONTINUOUS
 62
     7
 10
415.94845291323901
 20
868.13887105621825
 30
0.0
 40
0.2
 50
180.0
 51
245.3999999999993
  0
ARC
  5
34280
  8
DANMEN
  6
CONTINUOUS
 62
     7
 10
415.44845291323918
 20
867.03887105621845
 30
0.0
 40
1.0
 50
0.0
 51
65.399999999999537
  0
ARC
  5
34281
  8
DANMEN
  6
CONTINUOUS
 62
     7
 10
416.24845291323908
 20
868.58887105621784
 30
0.0
 40
0.5
 50
90.0
 51
180.0
  0
LINE
  5
34282
  8
DANMEN
  6
CONTINUOUS
 62
     7
 10
418.99845291323908
 20
866.88887105621825
 30
0.0
 11
418.99845291323908
 21
866.28887105621823
 31
0.0
  0
LINE
  5
34283
  8
DANMEN
  6
CONTINUOUS
 62
     7
 10
418.99845291323908
 20
866.88887105621825
 30
0.0
 11
419.29845291323909
 21
866.88887105621825
 31
0.0
  0
LINE
  5
34284
  8
DANMEN
  6
CONTINUOUS
 62
     7
 10
418.99845291323908
 20
866.28887105621823
 30
0.0
 11
419.29845291323909
 21
866.28887105621823
 31
0.0
  0
LINE
  5
34285
  8
DANMEN
  6
CONTINUOUS
 62
     7
 10
416.24845291323908
 20
869.08887105621818
 30
0.0
 11
417.64845291323871
 21
869.08887105621818
 31
0.0
  0
LINE
  5
34286
  8
DANMEN
  6
CONTINUOUS
 62
     7
 10
415.74845291323879
 20
868.13887105621825
 30
0.0
 11
415.74845291323879
 21
868.58887105621784
 31
0.0
  0
LINE
  5
34287
  8
DANMEN
  6
CONTINUOUS
 62
     7
 10
416.44845291323912
 20
865.78887105621834
 30
0.0
 11
416.44845291323912
 21
867.03887105621845
 31
0.0
  0
ARC
  5
34288
  8
DANMEN
  6
CONTINUOUS
 62
     7
 10
415.94845291323901
 20
888.58887105621818
 30
0.0
 40
0.2
 50
114.60000000000041
 51
180.0
  0
ARC
  5
34289
  8
DANMEN
  6
CONTINUOUS
 62
     7
 10
415.44845291323918
 20
889.63887105621859
 30
0.0
 40
1.0
 50
294.60000000000031
 51
0.0
  0
ARC
  5
3428A
  8
DANMEN
  6
CONTINUOUS
 62
     7
 10
416.24845291323908
 20
888.08887105621852
 30
0.0
 40
0.5
 50
180.0
 51
270.0
  0
ARC
  5
3428B
  8
DANMEN
  6
CONTINUOUS
 62
     7
 10
415.44845291323918
 20
890.88887105621643
 30
0.0
 40
1.0
 50
0.0
 51
90.0
  0
LINE
  5
3428C
  8
DANMEN
  6
CONTINUOUS
 62
     7
 10
416.24845291323908
 20
887.58887105621716
 30
0.0
 11
417.64845291323871
 21
887.58887105621716
 31
0.0
  0
LINE
  5
3428D
  8
DANMEN
  6
CONTINUOUS
 62
     7
 10
415.74845291323879
 20
888.08887105621852
 30
0.0
 11
415.74845291323879
 21
888.58887105621818
 31
0.0
  0
LINE
  5
3428E
  8
DANMEN
  6
CONTINUOUS
 62
     7
 10
416.44845291323912
 20
889.63887105621859
 30
0.0
 11
416.44845291323912
 21
890.88887105621643
 31
0.0
  0
ARC
  5
3428F
  8
DANMEN
  6
CONTINUOUS
 62
     7
 10
413.3484529132391
 20
868.13887105621825
 30
0.0
 40
0.2
 50
294.60000000000031
 51
0.0
  0
ARC
  5
34290
  8
DANMEN
  6
CONTINUOUS
 62
     7
 10
413.8484529132391
 20
867.03887105621845
 30
0.0
 40
1.0
 50
114.60000000000041
 51
180.0
  0
ARC
  5
34291
  8
DANMEN
  6
CONTINUOUS
 62
     7
 10
413.3484529132391
 20
867.13887105621848
 30
0.0
 40
2.0
 50
101.4999999999991
 51
180.0
  0
ARC
  5
34292
  8
DANMEN
  6
CONTINUOUS
 62
     7
 10
413.04845291323909
 20
868.58887105621784
 30
0.0
 40
0.5
 50
0.0
 51
101.4999999999991
  0
LINE
  5
34293
  8
DANMEN
  6
CONTINUOUS
 62
     7
 10
413.54845291323909
 20
868.58887105621784
 30
0.0
 11
413.54845291323909
 21
868.13887105621825
 31
0.0
  0
LINE
  5
34294
  8
DANMEN
  6
CONTINUOUS
 62
     7
 10
412.84845291323921
 20
867.03887105621845
 30
0.0
 11
412.84845291323921
 21
865.78887105621834
 31
0.0
  0
ARC
  5
34295
  8
DANMEN
  6
CONTINUOUS
 62
     7
 10
410.34845291323921
 20
890.93887105621809
 30
0.0
 40
1.0
 50
0.0
 51
90.0
  0
ARC
  5
34296
  8
DANMEN
  6
CONTINUOUS
 62
     7
 10
413.3484529132391
 20
888.58887105621818
 30
0.0
 40
0.2
 50
0.0
 51
65.399999999999537
  0
ARC
  5
34297
  8
DANMEN
  6
CONTINUOUS
 62
     7
 10
413.8484529132391
 20
889.63887105621859
 30
0.0
 40
1.0
 50
180.0
 51
245.3999999999993
  0
ARC
  5
34298
  8
DANMEN
  6
CONTINUOUS
 62
     7
 10
413.3484529132391
 20
889.58887105621864
 30
0.0
 40
2.0
 50
180.0
 51
258.50000000000068
  0
ARC
  5
34299
  8
DANMEN
  6
CONTINUOUS
 62
     7
 10
413.04845291323909
 20
888.08887105621852
 30
0.0
 40
0.5
 50
258.50000000000068
 51
0.0
  0
ARC
  5
3429A
  8
DANMEN
  6
CONTINUOUS
 62
     7
 10
413.8484529132391
 20
890.88887105621643
 30
0.0
 40
1.0
 50
90.0
 51
180.0
  0
LINE
  5
3429B
  8
DANMEN
  6
CONTINUOUS
 62
     7
 10
413.54845291323909
 20
888.58887105621818
 30
0.0
 11
413.54845291323909
 21
888.08887105621852
 31
0.0
  0
LINE
  5
3429C
  8
DANMEN
  6
CONTINUOUS
 62
     7
 10
411.3484529132391
 20
890.93887105621809
 30
0.0
 11
411.3484529132391
 21
889.58887105621864
 31
0.0
  0
LINE
  5
3429D
  8
DANMEN
  6
CONTINUOUS
 62
     7
 10
412.84845291323921
 20
890.88887105621643
 30
0.0
 11
412.84845291323921
 21
889.63887105621859
 31
0.0
  0
LINE
  5
3429E
  8
DANMEN
  6
CONTINUOUS
 62
     7
 10
415.44845291323918
 20
864.78887105621754
 30
0.0
 11
413.8484529132391
 21
864.78887105621754
 31
0.0
  0
LINE
  5
3429F
  8
DANMEN
  6
CONTINUOUS
 62
     7
 10
411.3484529132391
 20
893.58887105621784
 30
0.0
 11
417.64845291323871
 21
893.58887105621784
 31
0.0
  0
LINE
  5
342A0
  8
DANMEN
  6
CONTINUOUS
 62
     7
 10
413.8484529132391
 20
891.88887105621825
 30
0.0
 11
415.44845291323918
 21
891.88887105621825
 31
0.0
  0
LINE
  5
342A1
  8
DANMEN
  6
CONTINUOUS
 62
     7
 10
411.3484529132391
 20
893.58887105621784
 30
0.0
 11
417.64845291323871
 21
893.58887105621784
 31
0.0
  0
ARC
  5
342A2
  8
DANMEN
  6
CONTINUOUS
 62
     7
 10
418.79845291323909
 20
863.63887105621848
 30
0.0
 40
0.5
 50
270.0
 51
0.0
  0
ARC
  5
342A3
  8
DANMEN
  6
CONTINUOUS
 62
     7
 10
418.79845291323909
 20
858.08887105621841
 30
0.0
 40
0.5
 50
270.0
 51
0.0
  0
ARC
  5
342A4
  8
DANMEN
  6
CONTINUOUS
 62
     7
 10
418.79845291323909
 20
858.7388710562185
 30
0.0
 40
0.5
 50
0.0
 51
90.0
  0
LINE
  5
342A5
  8
DANMEN
  6
CONTINUOUS
 62
     7
 10
417.64845291323871
 20
859.23887105621827
 30
0.0
 11
417.64845291323871
 21
863.13887105621825
 31
0.0
  0
LINE
  5
342A6
  8
DANMEN
  6
CONTINUOUS
 62
     7
 10
419.29845291323909
 20
858.7388710562185
 30
0.0
 11
419.29845291323909
 21
858.08887105621841
 31
0.0
  0
LINE
  5
342A7
  8
DANMEN
  6
CONTINUOUS
 62
     7
 10
408.69845291323901
 20
863.38887105621848
 30
0.0
 11
410.8484529132391
 21
863.38887105621848
 31
0.0
  0
LINE
  5
342A8
  8
DANMEN
  6
CONTINUOUS
 62
     7
 10
409.14845291323911
 20
847.58887105621818
 30
0.0
 11
410.148452913239
 21
847.58887105621818
 31
0.0
  0
LINE
  5
342A9
  8
DANMEN
  6
CONTINUOUS
 62
     7
 10
408.64845291323888
 20
857.58887105621784
 30
0.0
 11
408.64845291323888
 21
848.08887105621852
 31
0.0
  0
ARC
  5
342AA
  8
DANMEN
  6
CONTINUOUS
 62
     7
 10
409.14845291323911
 20
848.08887105621852
 30
0.0
 40
0.5
 50
180.0
 51
270.0
  0
ARC
  5
342AB
  8
DANMEN
  6
CONTINUOUS
 62
     7
 10
408.69845291323901
 20
862.88887105621745
 30
0.0
 40
0.5
 50
90.0
 51
180.0
  0
LINE
  5
342AC
  8
DANMEN
  6
CONTINUOUS
 62
     7
 10
408.19845291323878
 20
862.88887105621745
 30
0.0
 11
408.19845291323878
 21
859.73887105621827
 31
0.0
  0
LINE
  5
342AD
  8
DANMEN
  6
CONTINUOUS
 62
     7
 10
410.648452913239
 20
857.58887105621784
 30
0.0
 11
410.648452913239
 21
848.08887105621852
 31
0.0
  0
ARC
  5
342AE
  8
DANMEN
  6
CONTINUOUS
 62
     7
 10
410.148452913239
 20
848.08887105621852
 30
0.0
 40
0.5
 50
270.0
 51
0.0
  0
ARC
  5
342AF
  8
DANMEN
  6
CONTINUOUS
 62
     7
 10
412.49845291323902
 20
862.23887105621816
 30
0.0
 40
0.5
 50
270.0
 51
0.0
  0
ARC
  5
342B0
  8
DANMEN
  6
CONTINUOUS
 62
     7
 10
413.49845291323879
 20
862.63887105621779
 30
0.0
 40
0.5
 50
90.0
 51
180.0
  0
ARC
  5
342B1
  8
DANMEN
  6
CONTINUOUS
 62
     7
 10
410.8484529132391
 20
863.88887105621825
 30
0.0
 40
0.5
 50
270.0
 51
0.0
  0
LINE
  5
342B2
  8
DANMEN
  6
CONTINUOUS
 62
     7
 10
409.84845291323887
 20
861.73887105621827
 30
0.0
 11
409.84845291323887
 21
859.23887105621827
 31
0.0
  0
LINE
  5
342B3
  8
DANMEN
  6
CONTINUOUS
 62
     7
 10
412.99845291323902
 20
862.63887105621779
 30
0.0
 11
412.99845291323902
 21
862.23887105621816
 31
0.0
  0
LINE
  5
342B4
  8
DANMEN
  6
CONTINUOUS
 62
     7
 10
409.84845291323887
 20
861.73887105621827
 30
0.0
 11
412.49845291323902
 21
861.73887105621827
 31
0.0
  0
LINE
  5
342B5
  8
DANMEN
  6
CONTINUOUS
 62
     7
 10
413.49845291323879
 20
863.13887105621825
 30
0.0
 11
418.79845291323909
 21
863.13887105621825
 31
0.0
  0
LINE
  5
342B6
  8
DANMEN
  6
CONTINUOUS
 62
     7
 10
409.84845291323887
 20
859.23887105621827
 30
0.0
 11
418.79845291323909
 21
859.23887105621827
 31
0.0
  0
LINE
  5
342B7
  8
DANMEN
  6
CONTINUOUS
 62
     7
 10
410.648452913239
 20
857.58887105621784
 30
0.0
 11
418.79845291323909
 21
857.58887105621784
 31
0.0
  0
ARC
  5
342B8
  8
DANMEN
  6
CONTINUOUS
 62
     7
 10
415.44845291323918
 20
865.78887105621834
 30
0.0
 40
1.0
 50
270.0
 51
0.0
  0
ARC
  5
342B9
  8
DANMEN
  6
CONTINUOUS
 62
     7
 10
413.8484529132391
 20
865.78887105621834
 30
0.0
 40
1.0
 50
180.0
 51
270.0
  0
LINE
  5
342BA
  8
DANMEN
  6
CONTINUOUS
 62
     7
 10
419.29845291323909
 20
866.28887105621823
 30
0.0
 11
419.29845291323909
 21
863.63887105621848
 31
0.0
  0
LINE
  5
342BB
  8
DANMEN
  6
CONTINUOUS
 62
     7
 10
411.3484529132391
 20
867.13887105621848
 30
0.0
 11
411.3484529132391
 21
863.88887105621825
 31
0.0
  0
ARC
  5
342BC
  8
DANMEN
  6
CONTINUOUS
 62
     7
 10
393.94845291323901
 20
891.18887105621855
 30
0.0
 40
0.5
 50
270.0
 51
0.0
  0
ARC
  5
342BD
  8
DANMEN
  6
CONTINUOUS
 62
     7
 10
393.94845291323901
 20
891.58887105621852
 30
0.0
 40
0.5
 50
0.0
 51
90.0
  0
ARC
  5
342BE
  8
DANMEN
  6
CONTINUOUS
 62
     7
 10
396.79845291323909
 20
888.58887105621818
 30
0.0
 40
1.0
 50
270.0
 51
0.0
  0
ARC
  5
342BF
  8
DANMEN
  6
CONTINUOUS
 62
     7
 10
398.7984529132392
 20
890.93887105621809
 30
0.0
 40
1.0
 50
90.0
 51
180.0
  0
LINE
  5
342C0
  8
DANMEN
  6
CONTINUOUS
 62
     7
 10
394.44845291323878
 20
891.58887105621852
 30
0.0
 11
394.44845291323878
 21
891.18887105621855
 31
0.0
  0
LINE
  5
342C1
  8
DANMEN
  6
CONTINUOUS
 62
     7
 10
393.24845291323879
 20
891.88887105621825
 30
0.0
 11
393.44845291323878
 21
892.08887105621841
 31
0.0
  0
LINE
  5
342C2
  8
DANMEN
  6
CONTINUOUS
 62
     7
 10
393.44845291323878
 20
892.08887105621841
 30
0.0
 11
393.94845291323901
 21
892.08887105621841
 31
0.0
  0
LINE
  5
342C3
  8
DANMEN
  6
CONTINUOUS
 62
     7
 10
393.44845291323878
 20
892.08887105621841
 30
0.0
 11
396.14845291323888
 21
892.08887105621841
 31
0.0
  0
LINE
  5
342C4
  8
DANMEN
  6
CONTINUOUS
 62
     7
 10
397.7984529132392
 20
890.93887105621809
 30
0.0
 11
397.7984529132392
 21
888.58887105621818
 31
0.0
  0
LINE
  5
342C5
  8
DANMEN
  6
CONTINUOUS
 62
     7
 10
396.14845291323888
 20
892.08887105621841
 30
0.0
 11
396.14845291323888
 21
889.23887105621827
 31
0.0
  0
ARC
  5
342C6
  8
DANMEN
  6
CONTINUOUS
 62
     7
 10
407.69845291323901
 20
859.73887105621827
 30
0.0
 40
0.5
 50
270.0
 51
0.0
  0
LINE
  5
342C7
  8
DANMEN
  6
CONTINUOUS
 62
     7
 10
398.7984529132392
 20
891.9388710562182
 30
0.0
 11
410.34845291323921
 21
891.9388710562182
 31
0.0
  0
CIRCLE
  5
342C8
  8
SUNPO
 62
     1
 10
408.64845291323888
 20
831.58887105621795
 30
0.0
 40
1.0
  0
LINE
  5
342C9
  8
SUNPO
 62
     1
 10
408.64845291323888
 20
831.58887105621795
 30
0.0
 11
408.64845291323888
 21
845.5888710562167
 31
0.0
  0
LINE
  5
342CA
  8
DANMEN
  6
CONTINUOUS
 62
     7
 10
419.29845291323909
 20
891.78887105621857
 30
0.0
 11
426.44845291323901
 21
891.78887105621857
 31
0.0
  0
LINE
  5
342CB
  8
DANMEN
  6
CONTINUOUS
 62
     7
 10
417.64845291323871
 20
906.93887105621809
 30
0.0
 11
417.64845291323871
 21
893.58887105621784
 31
0.0
  0
LINE
  5
342CC
  8
DANMEN
  6
CONTINUOUS
 62
     7
 10
412.64845291323888
 20
904.58887105621841
 30
0.0
 11
412.64845291323888
 21
893.58887105621784
 31
0.0
  0
LINE
  5
342CD
  8
DANMEN
  6
CONTINUOUS
 62
     7
 10
417.64845291323871
 20
893.58887105621784
 30
0.0
 11
417.64845291323871
 21
895.08887105621784
 31
0.0
  0
LINE
  5
342CE
  8
DANMEN
  6
CONTINUOUS
 62
     7
 10
425.14845291323888
 20
895.13887105621825
 30
0.0
 11
425.14845291323888
 21
893.58887105621784
 31
0.0
  0
LINE
  5
342CF
  8
DANMEN
  6
CONTINUOUS
 62
     7
 10
417.64845291323871
 20
893.58887105621784
 30
0.0
 11
417.64845291323871
 21
895.08887105621784
 31
0.0
  0
LINE
  5
342D0
  8
DANMEN
  6
CONTINUOUS
 62
     7
 10
426.94845291323878
 20
893.9388710562182
 30
0.0
 11
426.94845291323878
 21
892.28887105621743
 31
0.0
  0
LINE
  5
342D1
  8
SUNPO
 62
     1
 10
387.64845291323888
 20
954.43887105621752
 30
0.0
 11
387.64845291323888
 21
954.43887105621752
 31
0.0
  0
LINE
  5
342D2
  8
SUNPO
 62
     1
 10
387.64845291323888
 20
954.43887105621752
 30
0.0
 11
387.64845291323888
 21
954.43887105621752
 31
0.0
  0
CIRCLE
  5
342D3
  8
SUNPO
 62
     1
 10
387.64845291323888
 20
954.43887105621752
 30
0.0
 40
1.0
  0
LINE
  5
342D4
  8
SUNPO
 62
     1
 10
378.648452913239
 20
954.43887105621752
 30
0.0
 11
378.648452913239
 21
954.43887105621752
 31
0.0
  0
LINE
  5
342D5
  8
SUNPO
 62
     1
 10
378.648452913239
 20
975.33887105621864
 30
0.0
 11
378.648452913239
 21
975.33887105621864
 31
0.0
  0
LINE
  5
342D6
  8
SUNPO
 62
     1
 10
378.648452913239
 20
954.43887105621752
 30
0.0
 11
387.64845291323888
 21
954.43887105621752
 31
0.0
  0
CIRCLE
  5
342D7
  8
SUNPO
 62
     1
 10
378.648452913239
 20
975.33887105621864
 30
0.0
 40
1.0
  0
CIRCLE
  5
342D8
  8
SUNPO
 62
     1
 10
378.648452913239
 20
954.43887105621752
 30
0.0
 40
1.0
  0
ARC
  5
342D9
  8
DANMEN
  6
CONTINUOUS
 62
     7
 10
387.148452913239
 20
917.08887105621841
 30
0.0
 40
0.5
 50
0.0
 51
90.0
  0
LINE
  5
342DA
  8
DANMEN
  6
CONTINUOUS
 62
     7
 10
387.64845291323888
 20
907.58887105621773
 30
0.0
 11
387.64845291323888
 21
906.58887105621795
 31
0.0
  0
LINE
  5
342DB
  8
DANMEN
  6
CONTINUOUS
 62
     7
 10
386.64845291323911
 20
912.58887105621716
 30
0.0
 11
386.64845291323911
 21
907.58887105621773
 31
0.0
  0
LINE
  5
342DC
  8
DANMEN
  6
CONTINUOUS
 62
     7
 10
386.148452913239
 20
906.58887105621795
 30
0.0
 11
387.64845291323888
 21
906.58887105621795
 31
0.0
  0
LINE
  5
342DD
  8
DANMEN
  6
CONTINUOUS
 62
     7
 10
386.64845291323911
 20
907.58887105621773
 30
0.0
 11
387.64845291323888
 21
907.58887105621773
 31
0.0
  0
LINE
  5
342DE
  8
DANMEN
  6
CONTINUOUS
 62
     7
 10
386.64845291323911
 20
912.58887105621716
 30
0.0
 11
387.64845291323888
 21
912.58887105621716
 31
0.0
  0
LINE
  5
342DF
  8
DANMEN
  6
CONTINUOUS
 62
     7
 10
387.64845291323888
 20
912.58887105621716
 30
0.0
 11
387.64845291323888
 21
917.58887105621761
 31
0.0
  0
LINE
  5
342E0
  8
DANMEN
  6
CONTINUOUS
 62
     7
 10
380.59845291323887
 20
915.63887105621825
 30
0.0
 11
380.59845291323887
 21
896.03887105621754
 31
0.0
  0
ARC
  5
342E1
  8
DANMEN
  6
CONTINUOUS
 62
     7
 10
381.09845291323887
 20
896.03887105621754
 30
0.0
 40
0.5
 50
180.0
 51
270.0
  0
LINE
  5
342E2
  8
DANMEN
  6
CONTINUOUS
 62
     7
 10
381.09845291323887
 20
895.53887105621857
 30
0.0
 11
384.74845291323902
 21
895.53887105621857
 31
0.0
  0
ARC
  5
342E3
  8
DANMEN
  6
CONTINUOUS
 62
     7
 10
379.14845291323911
 20
917.08887105621841
 30
0.0
 40
0.5
 50
90.0
 51
180.0
  0
LINE
  5
342E4
  8
DANMEN
  6
CONTINUOUS
 62
     7
 10
380.59845291323887
 20
915.63887105621825
 30
0.0
 11
385.64845291323888
 21
915.63887105621825
 31
0.0
  0
LINE
  5
342E5
  8
DANMEN
  6
CONTINUOUS
 62
     7
 10
385.64845291323888
 20
915.63887105621825
 30
0.0
 11
385.64845291323888
 21
907.08887105621852
 31
0.0
  0
ARC
  5
342E6
  8
DANMEN
  6
CONTINUOUS
 62
     7
 10
384.74845291323902
 20
894.53887105621823
 30
0.0
 40
1.0
 50
0.0
 51
90.0
  0
ARC
  5
342E7
  8
DANMEN
  6
CONTINUOUS
 62
     7
 10
386.148452913239
 20
907.08887105621852
 30
0.0
 40
0.5
 50
180.0
 51
270.0
  0
LINE
  5
342E8
  8
DANMEN
  6
CONTINUOUS
 62
     7
 10
379.14845291323911
 20
917.58887105621761
 30
0.0
 11
387.148452913239
 21
917.58887105621761
 31
0.0
  0
TEXT
  5
342E9
  8
SUNPO
 62
     1
 10
380.64845291323883
 20
956.68889999999988
 30
0.0
 40
7.5
  1
9
 72
     4
 11
383.14845291323888
 21
960.43889999999988
 31
0.0
  0
CIRCLE
  5
342EA
  8
SUNPO
 62
     1
 10
362.64845291323888
 20
917.58887105621761
 30
0.0
 40
1.0
  0
CIRCLE
  5
342EB
  8
SUNPO
 62
     1
 10
346.64845291323923
 20
917.58887105621761
 30
0.0
 40
1.0
  0
LINE
  5
342EC
  8
SUNPO
 62
     1
 10
346.64845291323923
 20
917.58887105621761
 30
0.0
 11
376.64845291323911
 21
917.58887105621761
 31
0.0
  0
LINE
  5
342ED
  8
SUNPO
 62
     1
 10
362.64845291323888
 20
917.58887105621761
 30
0.0
 11
376.64845291323911
 21
917.58887105621761
 31
0.0
  0
LINE
  5
342EE
  8
DANMEN
  6
CONTINUOUS
 62
     7
 10
385.99845291323879
 20
887.58887105621716
 30
0.0
 11
385.99845291323879
 21
874.98887105621827
 31
0.0
  0
LINE
  5
342EF
  8
DANMEN
  6
CONTINUOUS
 62
     7
 10
387.64845291323888
 20
886.58887105621852
 30
0.0
 11
387.64845291323888
 21
874.08887105621773
 31
0.0
  0
ARC
  5
342F0
  8
DANMEN
  6
CONTINUOUS
 62
     7
 10
386.64845291323911
 20
874.08887105621773
 30
0.0
 40
1.0
 50
285.2000000000009
 51
0.0
  0
ARC
  5
342F1
  8
DANMEN
  6
CONTINUOUS
 62
     7
 10
386.398452913239
 20
891.18887105621855
 30
0.0
 40
0.5
 50
256.89999999999748
 51
270.0
  0
ARC
  5
342F2
  8
DANMEN
  6
CONTINUOUS
 62
     7
 10
392.24845291323879
 20
893.03887105621823
 30
0.0
 40
0.55
 50
90.0
 51
254.5000000000008
  0
ARC
  5
342F3
  8
DANMEN
  6
CONTINUOUS
 62
     7
 10
388.648452913239
 20
886.58887105621852
 30
0.0
 40
1.0
 50
90.0
 51
180.0
  0
LINE
  5
342F4
  8
DANMEN
  6
CONTINUOUS
 62
     7
 10
387.64845291323888
 20
889.23887105621827
 30
0.0
 11
387.64845291323888
 21
890.68887105621809
 31
0.0
  0
LINE
  5
342F5
  8
DANMEN
  6
CONTINUOUS
 62
     7
 10
388.69845291323901
 20
891.88887105621825
 30
0.0
 11
386.148452913239
 21
892.48887105621839
 31
0.0
  0
ARC
  5
342F6
  8
DANMEN
  6
CONTINUOUS
 62
     7
 10
381.29845291323909
 20
870.58887105621841
 30
0.0
 40
1.0
 50
105.2000000000008
 51
180.0
  0
ARC
  5
342F7
  8
DANMEN
  6
CONTINUOUS
 62
     7
 10
379.14845291323911
 20
872.23887105621827
 30
0.0
 40
0.5
 50
105.2000000000008
 51
180.0
  0
LINE
  5
342F8
  8
DANMEN
  6
CONTINUOUS
 62
     7
 10
379.0484529132392
 20
872.68887105621855
 30
0.0
 11
385.64845291323888
 21
874.48887105621725
 31
0.0
  0
ARC
  5
342F9
  8
DANMEN
  6
CONTINUOUS
 62
     7
 10
383.74845291323902
 20
891.7388710562185
 30
0.0
 40
0.4
 50
90.0
 51
256.89999999999748
  0
ARC
  5
342FA
  8
DANMEN
  6
CONTINUOUS
 62
     7
 10
379.14845291323911
 20
886.08887105621818
 30
0.0
 40
0.5
 50
180.0
 51
270.0
  0
ARC
  5
342FB
  8
DANMEN
  6
CONTINUOUS
 62
     7
 10
379.64845291323883
 20
886.08887105621818
 30
0.0
 40
0.5
 50
270.0
 51
0.0
  0
ARC
  5
342FC
  8
DANMEN
  6
CONTINUOUS
 62
     7
 10
381.84845291323887
 20
889.93887105621855
 30
0.0
 40
0.5
 50
180.0
 51
246.69999999999919
  0
LINE
  5
342FD
  8
DANMEN
  6
CONTINUOUS
 62
     7
 10
379.14845291323911
 20
885.5888710562167
 30
0.0
 11
379.64845291323883
 21
885.5888710562167
 31
0.0
  0
LINE
  5
342FE
  8
DANMEN
  6
CONTINUOUS
 62
     7
 10
383.74845291323902
 20
892.08887105621841
 30
0.0
 11
384.0484529132392
 21
892.08887105621841
 31
0.0
  0
LINE
  5
342FF
  8
DANMEN
  6
CONTINUOUS
 62
     7
 10
384.0484529132392
 20
893.58887105621784
 30
0.0
 11
384.0484529132392
 21
892.08887105621841
 31
0.0
  0
LINE
  5
34300
  8
DANMEN
  6
CONTINUOUS
 62
     7
 10
380.148452913239
 20
893.58887105621784
 30
0.0
 11
380.148452913239
 21
886.08887105621818
 31
0.0
  0
LINE
  5
34301
  8
DANMEN
  6
CONTINUOUS
 62
     7
 10
380.148452913239
 20
893.58887105621784
 30
0.0
 11
384.0484529132392
 21
893.58887105621784
 31
0.0
  0
LINE
  5
34302
  8
DANMEN
  6
CONTINUOUS
 62
     7
 10
382.99845291323908
 20
892.28887105621743
 30
0.0
 11
384.0484529132392
 21
892.28887105621743
 31
0.0
  0
LINE
  5
34303
  8
DANMEN
  6
CONTINUOUS
 62
     7
 10
382.99845291323908
 20
892.28887105621743
 30
0.0
 11
382.99845291323908
 21
890.68887105621809
 31
0.0
  0
LINE
  5
34304
  8
DANMEN
  6
CONTINUOUS
 62
     7
 10
384.0484529132392
 20
892.58887105621761
 30
0.0
 11
384.0484529132392
 21
892.28887105621743
 31
0.0
  0
LINE
  5
34305
  8
DANMEN
  6
CONTINUOUS
 62
     7
 10
381.84845291323887
 20
893.58887105621784
 30
0.0
 11
383.04845291323892
 21
893.58887105621784
 31
0.0
  0
LINE
  5
34306
  8
DANMEN
  6
CONTINUOUS
 62
     7
 10
381.3484529132391
 20
893.08887105621841
 30
0.0
 11
381.3484529132391
 21
889.93887105621855
 31
0.0
  0
ARC
  5
34307
  8
DANMEN
  6
CONTINUOUS
 62
     7
 10
385.49845291323902
 20
874.98887105621827
 30
0.0
 40
0.5
 50
285.2000000000009
 51
0.0
  0
LINE
  5
34308
  8
DANMEN
  6
CONTINUOUS
 62
     7
 10
381.04845291323909
 20
871.53887105621845
 30
0.0
 11
386.9484529132389
 21
873.13887105621825
 31
0.0
  0
ARC
  5
34309
  8
DANMEN
  6
CONTINUOUS
 62
     7
 10
386.24845291323908
 20
892.98887105621827
 30
0.0
 40
0.5
 50
180.0
 51
256.89999999999748
  0
LINE
  5
3430A
  8
DANMEN
  6
CONTINUOUS
 62
     7
 10
386.2984529132392
 20
890.73887105621702
 30
0.0
 11
383.64845291323888
 21
891.33887105621818
 31
0.0
  0
LINE
  5
3430B
  8
DANMEN
  6
CONTINUOUS
 62
     7
 10
382.99845291323908
 20
890.68887105621809
 30
0.0
 11
386.3484529132391
 21
889.23887105621827
 31
0.0
  0
LINE
  5
3430C
  8
DANMEN
  6
CONTINUOUS
 62
     7
 10
381.64845291323911
 20
889.48887105621725
 30
0.0
 11
385.99845291323879
 21
887.58887105621716
 31
0.0
  0
ARC
  5
3430D
  8
DANMEN
  6
CONTINUOUS
 62
     7
 10
381.29845291323909
 20
860.23887105621839
 30
0.0
 40
1.0
 50
180.0
 51
270.0
  0
ARC
  5
3430E
  8
DANMEN
  6
CONTINUOUS
 62
     7
 10
379.14845291323911
 20
858.08887105621841
 30
0.0
 40
0.5
 50
180.0
 51
270.0
  0
LINE
  5
3430F
  8
DANMEN
  6
CONTINUOUS
 62
     7
 10
387.64845291323888
 20
859.23887105621827
 30
0.0
 11
387.64845291323888
 21
874.08887105621773
 31
0.0
  0
LINE
  5
34310
  8
DANMEN
  6
CONTINUOUS
 62
     7
 10
380.29845291323909
 20
870.58887105621841
 30
0.0
 11
380.29845291323909
 21
860.23887105621839
 31
0.0
  0
LINE
  5
34311
  8
DANMEN
  6
CONTINUOUS
 62
     7
 10
378.648452913239
 20
872.23887105621827
 30
0.0
 11
378.648452913239
 21
858.08887105621841
 31
0.0
  0
CIRCLE
  5
34312
  8
SUNPO
 62
     1
 10
378.648452913239
 20
831.58887105621795
 30
0.0
 40
1.0
  0
LINE
  5
34313
  8
SUNPO
 62
     1
 10
378.648452913239
 20
831.58887105621795
 30
0.0
 11
378.648452913239
 21
855.58887105621716
 31
0.0
  0
LINE
  5
34314
  8
SUNPO
  6
CONTINUOUS
 62
     1
 10
362.64845291323888
 20
872.58887105621659
 30
0.0
 11
362.64845291323888
 21
885.5888710562167
 31
0.0
  0
CIRCLE
  5
34315
  8
SUNPO
 62
     1
 10
362.64845291323888
 20
872.58887105621659
 30
0.0
 40
1.0
  0
CIRCLE
  5
34316
  8
SUNPO
 62
     1
 10
362.64845291323888
 20
885.5888710562167
 30
0.0
 40
1.0
  0
CIRCLE
  5
34317
  8
SUNPO
 62
     1
 10
361.64845291323923
 20
857.58887105621784
 30
0.0
 40
1.0
  0
CIRCLE
  5
34318
  8
SUNPO
 62
     1
 10
362.64845291323888
 20
857.58887105621784
 30
0.0
 40
1.0
  0
LINE
  5
34319
  8
SUNPO
  6
CONTINUOUS
 62
     1
 10
362.64845291323888
 20
857.58887105621784
 30
0.0
 11
362.64845291323888
 21
872.58887105621659
 31
0.0
  0
LINE
  5
3431A
  8
SUNPO
  6
CONTINUOUS
 62
     1
 10
346.64845291323923
 20
847.58887105621818
 30
0.0
 11
346.64845291323923
 21
857.58887105621784
 31
0.0
  0
CIRCLE
  5
3431B
  8
SUNPO
 62
     1
 10
346.64845291323923
 20
847.58887105621818
 30
0.0
 40
1.0
  0
CIRCLE
  5
3431C
  8
SUNPO
 62
     1
 10
346.64845291323923
 20
857.58887105621784
 30
0.0
 40
1.0
  0
LINE
  5
3431D
  8
SUNPO
 62
     1
 10
346.64845291323923
 20
857.58887105621784
 30
0.0
 11
376.64845291323911
 21
857.58887105621784
 31
0.0
  0
LINE
  5
3431E
  8
SUNPO
 62
     1
 10
346.64845291323923
 20
857.58887105621784
 30
0.0
 11
376.64845291323911
 21
857.58887105621784
 31
0.0
  0
LINE
  5
3431F
  8
SUNPO
  6
CONTINUOUS
 62
     1
 10
362.64845291323888
 20
872.58887105621659
 30
0.0
 11
376.64845291323911
 21
872.58887105621659
 31
0.0
  0
LINE
  5
34320
  8
SUNPO
 62
     1
 10
362.64845291323888
 20
857.58887105621784
 30
0.0
 11
376.64845291323911
 21
857.58887105621784
 31
0.0
  0
LINE
  5
34321
  8
SUNPO
  6
CONTINUOUS
 62
     1
 10
362.64845291323888
 20
872.58887105621659
 30
0.0
 11
376.64845291323911
 21
872.58887105621659
 31
0.0
  0
LINE
  5
34322
  8
SUNPO
  6
CONTINUOUS
 62
     1
 10
362.64845291323888
 20
885.5888710562167
 30
0.0
 11
376.64845291323911
 21
885.5888710562167
 31
0.0
  0
LINE
  5
34323
  8
SUNPO
  6
CONTINUOUS
 62
     1
 10
362.64845291323888
 20
885.5888710562167
 30
0.0
 11
376.64845291323911
 21
885.5888710562167
 31
0.0
  0
LINE
  5
34324
  8
SUNPO
 62
     1
 10
346.64845291323923
 20
857.58887105621784
 30
0.0
 11
346.64845291323923
 21
917.58887105621761
 31
0.0
  0
LINE
  5
34325
  8
SUNPO
  6
CONTINUOUS
 62
     1
 10
362.64845291323888
 20
885.5888710562167
 30
0.0
 11
362.64845291323888
 21
917.58887105621761
 31
0.0
  0
LINE
  5
34326
  8
DANMEN
  6
CONTINUOUS
 62
     7
 10
387.64845291323888
 20
892.08887105621841
 30
0.0
 11
387.64845291323888
 21
906.58887105621795
 31
0.0
  0
LINE
  5
34327
  8
DANMEN
  6
CONTINUOUS
 62
     7
 10
378.648452913239
 20
917.08887105621841
 30
0.0
 11
378.648452913239
 21
886.08887105621818
 31
0.0
  0
ARC
  5
34328
  8
DANMEN
  6
CONTINUOUS
 62
     7
 10
383.04845291323892
 20
892.58887105621761
 30
0.0
 40
1.0
 50
0.0
 51
90.0
  0
ARC
  5
34329
  8
DANMEN
  6
CONTINUOUS
 62
     7
 10
381.84845291323887
 20
893.08887105621841
 30
0.0
 40
0.5
 50
90.0
 51
180.0
  0
LINE
  5
3432A
  8
DANMEN
  6
CONTINUOUS
 62
     7
 10
392.648452913239
 20
904.58887105621841
 30
0.0
 11
392.648452913239
 21
893.58887105621784
 31
0.0
  0
LINE
  5
3432B
  8
DANMEN
  6
CONTINUOUS
 62
     7
 10
385.74845291323879
 20
894.53887105621823
 30
0.0
 11
385.74845291323879
 21
892.98887105621827
 31
0.0
  0
LINE
  5
3432C
  8
SUNPO
 62
     1
 10
346.64845291323923
 20
847.58887105621818
 30
0.0
 11
406.64845291323923
 21
847.58887105621818
 31
0.0
  0
LINE
  5
3432D
  8
SUNPO
 62
     1
 10
408.64845291323888
 20
831.58887105621795
 30
0.0
 11
378.648452913239
 21
831.58887105621795
 31
0.0
  0
LINE
  5
3432E
  8
DANMEN
  6
CONTINUOUS
 62
     7
 10
381.29845291323909
 20
859.23887105621827
 30
0.0
 11
407.69845291323901
 21
859.23887105621827
 31
0.0
  0
LINE
  5
3432F
  8
DANMEN
  6
CONTINUOUS
 62
     7
 10
379.14845291323911
 20
857.58887105621784
 30
0.0
 11
408.64845291323888
 21
857.58887105621784
 31
0.0
  0
LINE
  5
34330
  8
DANMEN
  6
CONTINUOUS
 62
     7
 10
392.648452913239
 20
893.58887105621784
 30
0.0
 11
412.64845291323888
 21
893.58887105621784
 31
0.0
  0
LINE
  5
34331
  8
DANMEN
  6
CONTINUOUS
 62
     7
 10
392.648452913239
 20
893.58887105621784
 30
0.0
 11
412.64845291323888
 21
904.58887105621841
 31
0.0
  0
LINE
  5
34332
  8
DANMEN
  6
CONTINUOUS
 62
     7
 10
392.648452913239
 20
904.58887105621841
 30
0.0
 11
412.64845291323888
 21
904.58887105621841
 31
0.0
  0
LINE
  5
34333
  8
DANMEN
  6
CONTINUOUS
 62
     7
 10
392.24845291323879
 20
893.58887105621784
 30
0.0
 11
425.14845291323888
 21
893.58887105621784
 31
0.0
  0
LINE
  5
34334
  8
DANMEN
  6
CONTINUOUS
 62
     7
 10
388.69845291323901
 20
891.88887105621825
 30
0.0
 11
393.24845291323879
 21
891.88887105621825
 31
0.0
  0
LINE
  5
34335
  8
DANMEN
  6
CONTINUOUS
 62
     7
 10
386.398452913239
 20
890.68887105621809
 30
0.0
 11
393.94845291323901
 21
890.68887105621809
 31
0.0
  0
LINE
  5
34336
  8
DANMEN
  6
CONTINUOUS
 62
     7
 10
392.0984529132391
 20
892.48887105621839
 30
0.0
 11
393.44845291323878
 21
892.08887105621841
 31
0.0
  0
LINE
  5
34337
  8
DANMEN
  6
CONTINUOUS
 62
     7
 10
386.3484529132391
 20
889.23887105621827
 30
0.0
 11
396.14845291323888
 21
889.23887105621827
 31
0.0
  0
LINE
  5
34338
  8
DANMEN
  6
CONTINUOUS
 62
     7
 10
388.648452913239
 20
887.58887105621716
 30
0.0
 11
396.79845291323909
 21
887.58887105621716
 31
0.0
  0
LINE
  5
34339
  8
DANMEN
  6
CONTINUOUS
 62
     7
 10
395.148452913239
 20
918.5888710562183
 30
0.0
 11
387.64845291323888
 21
917.58887105621761
 31
0.0
  0
LINE
  5
3433A
  8
SUNPO
 62
     1
 10
387.64845291323888
 20
954.43887105621752
 30
0.0
 11
417.64845291323871
 21
954.43887105621752
 31
0.0
  0
LINE
  5
3433B
  8
DANMEN
  6
CONTINUOUS
 62
     7
 10
451.39845291323923
 20
658.88887105621836
 30
0.0
 11
451.39845291323923
 21
681.6888710562182
 31
0.0
  0
ARC
  5
3433C
  8
DANMEN
  6
CONTINUOUS
 62
     7
 10
451.89845291323923
 20
681.6888710562182
 30
0.0
 40
0.5
 50
126.89999999999939
 51
180.0
  0
ARC
  5
3433D
  8
DANMEN
  6
CONTINUOUS
 62
     7
 10
451.09845291323973
 20
683.58887105621795
 30
0.0
 40
0.5
 50
0.0
 51
90.0
  0
ARC
  5
3433E
  8
DANMEN
  6
CONTINUOUS
 62
     7
 10
450.39845291323923
 20
683.58887105621795
 30
0.0
 40
0.5
 50
90.0
 51
180.0
  0
LINE
  5
3433F
  8
DANMEN
  6
CONTINUOUS
 62
     7
 10
451.59845291323938
 20
682.08887105621795
 30
0.0
 11
451.59845291323938
 21
683.58887105621795
 31
0.0
  0
LINE
  5
34340
  8
DANMEN
  6
CONTINUOUS
 62
     7
 10
450.39845291323923
 20
684.08887105621807
 30
0.0
 11
451.09845291323973
 21
684.08887105621807
 31
0.0
  0
LINE
  5
34341
  8
SUNPO
 62
     1
 10
393.89845291323923
 20
684.08887105621807
 30
0.0
 11
447.89845291323923
 21
684.08887105621807
 31
0.0
  0
ARC
  5
34342
  8
DANMEN
  6
CONTINUOUS
 62
     7
 10
450.39845291323923
 20
654.5888710562175
 30
0.0
 40
0.5
 50
180.0
 51
270.0
  0
LINE
  5
34343
  8
DANMEN
  6
CONTINUOUS
 62
     7
 10
431.95894242372913
 20
544.63887105621677
 30
0.0
 11
438.90894242372889
 21
551.58887105621693
 31
0.0
  0
LINE
  5
34344
  8
SUNPO
 62
     1
 10
393.89845291323923
 20
654.08887105621795
 30
0.0
 11
407.89845291323923
 21
654.08887105621795
 31
0.0
  0
LINE
  5
34345
  8
SUNPO
 62
     1
 10
393.89845291323923
 20
654.08887105621795
 30
0.0
 11
393.89845291323923
 21
684.08887105621807
 31
0.0
  0
LINE
  5
34346
  8
DANMEN
  6
CONTINUOUS
 62
     7
 10
449.89845291323923
 20
654.5888710562175
 30
0.0
 11
449.89845291323923
 21
683.58887105621795
 31
0.0
  0
LINE
  5
34347
  8
DANMEN
  6
CONTINUOUS
 62
     7
 10
451.39845291323923
 20
655.58887105621807
 30
0.0
 11
451.39845291323923
 21
657.88887105621745
 31
0.0
  0
CIRCLE
  5
34348
  8
SUNPO
 62
     1
 10
377.89845291323923
 20
699.08887105621852
 30
0.0
 40
1.0
  0
LINE
  5
34349
  8
SUNPO
 62
     1
 10
377.89845291323923
 20
654.08887105621795
 30
0.0
 11
377.89845291323923
 21
654.08887105621795
 31
0.0
  0
LINE
  5
3434A
  8
SUNPO
  6
CONTINUOUS
 62
     1
 10
377.89845291323923
 20
654.08887105621795
 30
0.0
 11
377.89845291323923
 21
654.08887105621795
 31
0.0
  0
POLYLINE
  5
3434B
  8
SUNPO
 62
     1
 66
     1
 10
0.0
 20
0.0
 30
0.0
 70
     1
  0
VERTEX
  5
34486
  8
SUNPO
 62
     1
 10
377.89845291323923
 20
654.08887105621795
 30
0.0
  0
VERTEX
  5
34487
  8
SUNPO
 62
     1
 10
375.39845291323923
 20
647.83887105621852
 30
0.0
  0
VERTEX
  5
34488
  8
SUNPO
 62
     1
 10
380.39845291323923
 20
647.83887105621852
 30
0.0
  0
SEQEND
  5
34489
  8
SUNPO
 62
     1
  0
LINE
  5
34350
  8
SUNPO
 62
     1
 10
377.89845291323923
 20
654.08887105621795
 30
0.0
 11
377.89845291323923
 21
699.08887105621852
 31
0.0
  0
LINE
  5
34351
  8
SUNPO
 62
     1
 10
377.89845291323923
 20
654.08887105621795
 30
0.0
 11
407.89845291323923
 21
654.08887105621795
 31
0.0
  0
CIRCLE
  5
34352
  8
SUNPO
 62
     1
 10
393.89845291323923
 20
654.08887105621795
 30
0.0
 40
1.0
  0
CIRCLE
  5
34353
  8
SUNPO
 62
     1
 10
393.89845291323923
 20
684.08887105621807
 30
0.0
 40
1.0
  0
INSERT
  5
34354
  8
DANMEN
  6
CONTINUOUS
 62
     7
  2
*X6
 10
296.14845291323888
 20
787.08887105621784
 30
0.0
 41
4.0
 42
4.0
 43
4.0
1001
ACAD
1000
HATCH
1002
{
1070
    16
1000
ANSI37
1040
4.0
1040
0.0
1002
}
  0
POLYLINE
  5
34355
  8
DANMEN
  6
CONTINUOUS
 62
     7
 66
     1
 10
0.0
 20
0.0
 30
0.0
 70
     1
  0
VERTEX
  5
3448A
  8
DANMEN
  6
CONTINUOUS
 62
     7
 10
410.148452913239
 20
918.5888710562183
 30
0.0
  0
VERTEX
  5
3448B
  8
DANMEN
  6
CONTINUOUS
 62
     7
 10
416.148452913239
 20
917.78887105621845
 30
0.0
  0
VERTEX
  5
3448C
  8
DANMEN
  6
CONTINUOUS
 62
     7
 10
416.148452913239
 20
1017.088871056218
 30
0.0
  0
VERTEX
  5
3448D
  8
DANMEN
  6
CONTINUOUS
 62
     7
 10
410.148452913239
 20
1017.088871056218
 30
0.0
  0
SEQEND
  5
3448E
  8
DANMEN
  6
CONTINUOUS
 62
     7
  0
LINE
  5
3435B
  8
DANMEN
  6
DASHED
 62
     7
 10
417.64845291323871
 20
1017.088871056218
 30
0.0
 11
417.64845291323871
 21
917.58887105621761
 31
0.0
  0
LINE
  5
3435C
  8
DANMEN
  6
CONTINUOUS
 62
     7
 10
378.648452913239
 20
857.58887105621784
 30
0.0
 11
378.648452913239
 21
1017.088871056218
 31
0.0
  0
LINE
  5
3435D
  8
DANMEN
  6
CONTINUOUS
 62
     7
 10
416.148452913239
 20
1017.088871056218
 30
0.0
 11
416.148452913239
 21
917.78887105621845
 31
0.0
  0
LINE
  5
3435E
  8
DANMEN
  6
CONTINUOUS
 62
     7
 10
395.148452913239
 20
1017.088871056218
 30
0.0
 11
395.148452913239
 21
904.58887105621841
 31
0.0
  0
LINE
  5
3435F
  8
DANMEN
  6
CONTINUOUS
 62
     7
 10
409.64845291323871
 20
1017.088871056218
 30
0.0
 11
409.64845291323871
 21
904.58887105621841
 31
0.0
  0
LINE
  5
34360
  8
DANMEN
  6
CONTINUOUS
 62
     7
 10
387.64845291323888
 20
917.58887105621761
 30
0.0
 11
387.64845291323888
 21
1017.088871056218
 31
0.0
  0
LINE
  5
34361
  8
DANMEN
  6
CONTINUOUS
 62
     7
 10
410.148452913239
 20
1017.088871056218
 30
0.0
 11
410.148452913239
 21
904.58887105621841
 31
0.0
  0
LINE
  5
34362
  8
DANMEN
  6
CONTINUOUS
 62
     7
 10
395.64845291323888
 20
1017.088871056218
 30
0.0
 11
395.64845291323888
 21
904.58887105621841
 31
0.0
  0
LINE
  5
34363
  8
DANMEN
  6
CONTINUOUS
 62
     7
 10
410.148452913239
 20
918.5888710562183
 30
0.0
 11
410.148452913239
 21
1017.088871056218
 31
0.0
  0
LINE
  5
34364
  8
DANMEN
  6
CONTINUOUS
 62
     7
 10
416.148452913239
 20
917.78887105621845
 30
0.0
 11
416.148452913239
 21
1017.088871056218
 31
0.0
  0
LINE
  5
34365
  8
DANMEN
  6
CONTINUOUS
 62
     7
 10
410.148452913239
 20
918.5888710562183
 30
0.0
 11
410.148452913239
 21
1017.088871056218
 31
0.0
  0
LINE
  5
34366
  8
DANMEN
  6
CONTINUOUS
 62
     7
 10
416.148452913239
 20
917.78887105621845
 30
0.0
 11
416.148452913239
 21
1017.088871056218
 31
0.0
  0
CIRCLE
  5
34367
  8
SUNPO
 62
     1
 10
449.89845291323923
 20
468.0888710562183
 30
0.0
 40
1.0
  0
ARC
  5
34368
  8
DANMEN
  6
CONTINUOUS
 62
     7
 10
450.39845291323923
 20
451.58887105621801
 30
0.0
 40
0.5
 50
90.0
 51
180.0
  0
LINE
  5
34369
  8
DANMEN
  6
CONTINUOUS
 62
     7
 10
451.39845291323923
 20
450.58887105621818
 30
0.0
 11
451.39845291323923
 21
448.28887105621772
 31
0.0
  0
LINE
  5
3436A
  8
SUNPO
 62
     1
 10
449.89845291323923
 20
468.0888710562183
 30
0.0
 11
449.89845291323923
 21
454.08887105621818
 31
0.0
  0
LINE
  5
3436B
  8
SUNPO
  6
CONTINUOUS
 62
     1
 10
449.89845291323923
 20
484.08887105621659
 30
0.0
 11
449.89845291323923
 21
454.08887105621818
 31
0.0
  0
CIRCLE
  5
3436C
  8
SUNPO
 62
     1
 10
449.89845291323923
 20
484.08887105621659
 30
0.0
 40
1.0
  0
LINE
  5
3436D
  8
SUNPO
 62
     1
 10
393.89845291323923
 20
452.08887105621699
 30
0.0
 11
407.89845291323923
 21
452.08887105621699
 31
0.0
  0
ARC
  5
3436E
  8
DANMEN
  6
CONTINUOUS
 62
     7
 10
451.89845291323923
 20
424.48887105621827
 30
0.0
 40
0.5
 50
180.0
 51
233.10000000000039
  0
ARC
  5
3436F
  8
DANMEN
  6
CONTINUOUS
 62
     7
 10
451.09845291323973
 20
422.58887105621801
 30
0.0
 40
0.5
 50
270.0
 51
0.0
  0
ARC
  5
34370
  8
DANMEN
  6
CONTINUOUS
 62
     7
 10
450.39845291323923
 20
422.58887105621801
 30
0.0
 40
0.5
 50
180.0
 51
270.0
  0
LINE
  5
34371
  8
DANMEN
  6
CONTINUOUS
 62
     7
 10
451.59845291323938
 20
424.08887105621778
 30
0.0
 11
451.59845291323938
 21
422.58887105621801
 31
0.0
  0
LINE
  5
34372
  8
DANMEN
  6
CONTINUOUS
 62
     7
 10
450.39845291323923
 20
422.08887105621801
 30
0.0
 11
451.09845291323973
 21
422.08887105621801
 31
0.0
  0
LINE
  5
34373
  8
SUNPO
 62
     1
 10
393.89845291323923
 20
422.08887105621801
 30
0.0
 11
447.89845291323923
 21
422.08887105621801
 31
0.0
  0
LINE
  5
34374
  8
SUNPO
 62
     1
 10
393.89845291323923
 20
422.08887105621801
 30
0.0
 11
393.89845291323923
 21
452.08887105621699
 31
0.0
  0
LINE
  5
34375
  8
DANMEN
  6
CONTINUOUS
 62
     7
 10
451.39845291323923
 20
447.2888710562176
 30
0.0
 11
451.39845291323923
 21
424.48887105621827
 31
0.0
  0
LINE
  5
34376
  8
DANMEN
  6
CONTINUOUS
 62
     7
 10
449.89845291323923
 20
451.58887105621801
 30
0.0
 11
449.89845291323923
 21
422.58887105621801
 31
0.0
  0
LINE
  5
34377
  8
SUNPO
 62
     1
 10
377.89845291323923
 20
452.08887105621699
 30
0.0
 11
377.89845291323923
 21
452.08887105621699
 31
0.0
  0
LINE
  5
34378
  8
SUNPO
  6
CONTINUOUS
 62
     1
 10
377.89845291323923
 20
452.08887105621699
 30
0.0
 11
377.89845291323923
 21
452.08887105621699
 31
0.0
  0
LINE
  5
34379
  8
SUNPO
 62
     1
 10
377.89845291323923
 20
452.08887105621699
 30
0.0
 11
377.89845291323923
 21
452.08887105621699
 31
0.0
  0
POLYLINE
  5
3437A
  8
SUNPO
 62
     1
 66
     1
 10
0.0
 20
0.0
 30
0.0
 70
     1
  0
VERTEX
  5
3448F
  8
SUNPO
 62
     1
 10
377.89845291323923
 20
452.08887105621699
 30
0.0
  0
VERTEX
  5
34490
  8
SUNPO
 62
     1
 10
375.39845291323923
 20
458.33887105621801
 30
0.0
  0
VERTEX
  5
34491
  8
SUNPO
 62
     1
 10
380.39845291323923
 20
458.33887105621801
 30
0.0
  0
SEQEND
  5
34492
  8
SUNPO
 62
     1
  0
CIRCLE
  5
3437F
  8
SUNPO
 62
     1
 10
377.89845291323923
 20
407.0888710562183
 30
0.0
 40
1.0
  0
LINE
  5
34380
  8
SUNPO
 62
     1
 10
377.89845291323923
 20
407.0888710562183
 30
0.0
 11
377.89845291323923
 21
452.08887105621699
 31
0.0
  0
LINE
  5
34381
  8
SUNPO
 62
     1
 10
377.89845291323923
 20
407.0888710562183
 30
0.0
 11
407.89845291323923
 21
407.0888710562183
 31
0.0
  0
LINE
  5
34382
  8
SUNPO
 62
     1
 10
377.89845291323923
 20
452.08887105621699
 30
0.0
 11
407.89845291323923
 21
452.08887105621699
 31
0.0
  0
CIRCLE
  5
34383
  8
SUNPO
 62
     1
 10
393.89845291323923
 20
422.08887105621801
 30
0.0
 40
1.0
  0
CIRCLE
  5
34384
  8
SUNPO
 62
     1
 10
393.89845291323923
 20
452.08887105621699
 30
0.0
 40
1.0
  0
LINE
  5
34385
  8
DANMEN
 62
     7
 10
400.69845291323941
 20
213.08887105621841
 30
0.0
 11
406.69845291323901
 21
213.08887105621841
 31
0.0
  0
LINE
  5
34386
  8
DANMEN
 62
     7
 10
400.69845291323941
 20
213.08887105621841
 30
0.0
 11
406.69845291323901
 21
213.08887105621841
 31
0.0
  0
LINE
  5
34387
  8
DANMEN
 62
     7
 10
438.69845291323918
 20
129.58887105621849
 30
0.0
 11
438.69845291323918
 21
100.08887105621839
 31
0.0
  0
CIRCLE
  5
34388
  8
SUNPO
 62
     1
 10
428.19845291323918
 20
114.83887105621849
 30
0.0
 40
1.0
  0
LINE
  5
34389
  8
SUNPO
 62
     1
 10
428.19845291323918
 20
114.83887105621849
 30
0.0
 11
428.19845291323918
 21
127.58887105621839
 31
0.0
  0
LINE
  5
3438A
  8
DANMEN
 62
     7
 10
428.19845291323918
 20
190.58887105621841
 30
0.0
 11
428.19845291323918
 21
129.58887105621849
 31
0.0
  0
LINE
  5
3438B
  8
DANMEN
 62
     7
 10
428.19845291323918
 20
190.58887105621841
 30
0.0
 11
428.19845291323918
 21
129.58887105621849
 31
0.0
  0
LINE
  5
3438C
  8
DANMEN
 62
     7
 10
420.69845291323918
 20
190.58887105621841
 30
0.0
 11
422.19845291323918
 21
190.58887105621841
 31
0.0
  0
LINE
  5
3438D
  8
DANMEN
 62
     7
 10
420.69845291323918
 20
190.58887105621841
 30
0.0
 11
422.19845291323918
 21
190.58887105621841
 31
0.0
  0
LINE
  5
3438E
  8
DANMEN
  6
CONTINUOUS
 62
     7
 10
420.69845291323918
 20
190.58887105621841
 30
0.0
 11
422.1760068639116
 21
190.58887105621841
 31
0.0
  0
LINE
  5
3438F
  8
DANMEN
  6
CONTINUOUS
 62
     7
 10
420.69845291323918
 20
190.58887105621841
 30
0.0
 11
422.1760068639116
 21
190.58887105621841
 31
0.0
  0
LINE
  5
34390
  8
DANMEN
 62
     7
 10
413.19845291323941
 20
198.08887105621841
 30
0.0
 11
413.19845291323941
 21
192.08887105621841
 31
0.0
  0
LINE
  5
34391
  8
DANMEN
 62
     7
 10
413.19845291323941
 20
198.08887105621841
 30
0.0
 11
413.19845291323941
 21
192.08887105621841
 31
0.0
  0
LINE
  5
34392
  8
DANMEN
 62
     7
 10
413.19845291323941
 20
192.08887105621841
 30
0.0
 11
413.19845291323941
 21
190.58887105621841
 31
0.0
  0
POLYLINE
  5
34393
  8
DANMEN
  6
CONTINUOUS
 62
     7
 66
     1
 10
0.0
 20
0.0
 30
0.0
  0
VERTEX
  5
34493
  8
DANMEN
  6
CONTINUOUS
 62
     7
 10
413.19845291323941
 20
193.7963550315574
 30
0.0
  0
VERTEX
  5
34494
  8
DANMEN
  6
CONTINUOUS
 62
     7
 10
413.19845291323941
 20
198.08887105621841
 30
0.0
  0
SEQEND
  5
34495
  8
DANMEN
  6
CONTINUOUS
 62
     7
  0
LINE
  5
34397
  8
DANMEN
  6
CONTINUOUS
 62
     7
 10
412.69845291323929
 20
189.4429730224681
 30
0.0
 11
412.69845291323929
 21
192.08887105621841
 31
0.0
  0
LINE
  5
34398
  8
DANMEN
  6
CONTINUOUS
 62
     7
 10
413.19845291323941
 20
192.08887105621841
 30
0.0
 11
413.19845291323941
 21
190.58887105621841
 31
0.0
  0
LINE
  5
34399
  8
DANMEN
  6
CONTINUOUS
 62
     7
 10
413.19845291323941
 20
192.08887105621841
 30
0.0
 11
413.19845291323941
 21
190.58887105621841
 31
0.0
  0
LINE
  5
3439A
  8
DANMEN
  6
CONTINUOUS
 62
     7
 10
420.69845291323918
 20
190.58887105621841
 30
0.0
 11
413.19845291323941
 21
190.58887105621841
 31
0.0
  0
LINE
  5
3439B
  8
DANMEN
  6
CONTINUOUS
 62
     7
 10
413.19845291323941
 20
190.58887105621841
 30
0.0
 11
420.69845291323918
 21
190.58887105621841
 31
0.0
  0
LINE
  5
3439C
  8
DANMEN
  6
CONTINUOUS
 62
     7
 10
413.19845291323941
 20
190.58887105621841
 30
0.0
 11
420.69845291323918
 21
190.58887105621841
 31
0.0
  0
LINE
  5
3439D
  8
DANMEN
 62
     7
 10
420.69845291323918
 20
190.58887105621841
 30
0.0
 11
420.69845291323918
 21
178.13887105621851
 31
0.0
  0
LINE
  5
3439E
  8
DANMEN
 62
     7
 10
420.69845291323918
 20
190.58887105621841
 30
0.0
 11
420.69845291323918
 21
178.13887105621851
 31
0.0
  0
LINE
  5
3439F
  8
DANMEN
  6
CONTINUOUS
 62
     7
 10
412.69845291323929
 20
178.13887105621851
 30
0.0
 11
412.69845291323929
 21
182.73476908996869
 31
0.0
  0
POLYLINE
  5
343A0
  8
DANMEN
  6
CONTINUOUS
 62
     7
 66
     1
 10
0.0
 20
0.0
 30
0.0
  0
VERTEX
  5
34496
  8
DANMEN
  6
CONTINUOUS
 62
     7
 10
413.19845291323941
 20
182.6247694410803
 30
0.0
  0
VERTEX
  5
34497
  8
DANMEN
  6
CONTINUOUS
 62
     7
 10
413.19845291323941
 20
178.13887105621851
 30
0.0
  0
SEQEND
  5
34498
  8
DANMEN
  6
CONTINUOUS
 62
     7
  0
LINE
  5
343A4
  8
DANMEN
  6
CONTINUOUS
 62
     7
 10
413.19845291323941
 20
190.58887105621841
 30
0.0
 11
413.19845291323941
 21
178.13887105621851
 31
0.0
  0
LINE
  5
343A5
  8
DANMEN
  6
CONTINUOUS
 62
     7
 10
420.69845291323918
 20
178.13887105621851
 30
0.0
 11
420.69845291323918
 21
190.58887105621841
 31
0.0
  0
LINE
  5
343A6
  8
DANMEN
 62
     7
 10
394.19845291323912
 20
198.08887105621841
 30
0.0
 11
394.19845291323912
 21
192.08887105621841
 31
0.0
  0
LINE
  5
343A7
  8
DANMEN
 62
     7
 10
394.19845291323912
 20
198.08887105621841
 30
0.0
 11
394.19845291323912
 21
192.08887105621841
 31
0.0
  0
LINE
  5
343A8
  8
DANMEN
 62
     7
 10
394.19845291323912
 20
198.08887105621841
 30
0.0
 11
400.69845291323941
 21
198.08887105621841
 31
0.0
  0
LINE
  5
343A9
  8
DANMEN
 62
     7
 10
394.19845291323912
 20
198.08887105621841
 30
0.0
 11
400.69845291323941
 21
198.08887105621841
 31
0.0
  0
LINE
  5
343AA
  8
DANMEN
  6
CONTINUOUS
 62
     7
 10
394.19845291323912
 20
198.08887105621841
 30
0.0
 11
400.69845291323941
 21
198.08887105621841
 31
0.0
  0
LINE
  5
343AB
  8
DANMEN
  6
CONTINUOUS
 62
     7
 10
394.69845291323918
 20
182.73476908996869
 30
0.0
 11
394.69845291323918
 21
178.13887105621851
 31
0.0
  0
LINE
  5
343AC
  8
DANMEN
  6
CONTINUOUS
 62
     7
 10
394.19845291323912
 20
192.08887105621841
 30
0.0
 11
394.19845291323912
 21
178.13887105621851
 31
0.0
  0
LINE
  5
343AD
  8
DANMEN
 62
     7
 10
406.69845291323901
 20
198.08887105621841
 30
0.0
 11
413.19845291323941
 21
198.08887105621841
 31
0.0
  0
LINE
  5
343AE
  8
DANMEN
 62
     7
 10
413.19845291323941
 20
192.08887105621841
 30
0.0
 11
394.19845291323912
 21
192.08887105621841
 31
0.0
  0
LINE
  5
343AF
  8
DANMEN
 62
     7
 10
406.69845291323901
 20
198.08887105621841
 30
0.0
 11
413.19845291323941
 21
198.08887105621841
 31
0.0
  0
LINE
  5
343B0
  8
DANMEN
 62
     7
 10
413.19845291323941
 20
192.08887105621841
 30
0.0
 11
394.19845291323912
 21
192.08887105621841
 31
0.0
  0
LINE
  5
343B1
  8
DANMEN
 62
     7
 10
413.19845291323941
 20
192.08887105621841
 30
0.0
 11
394.19845291323912
 21
192.08887105621841
 31
0.0
  0
LINE
  5
343B2
  8
DANMEN
  6
CONTINUOUS
 62
     7
 10
413.19845291323941
 20
198.08887105621841
 30
0.0
 11
406.69845291323901
 21
198.08887105621841
 31
0.0
  0
LINE
  5
343B3
  8
DANMEN
  6
CONTINUOUS
 62
     7
 10
412.69845291323929
 20
192.08887105621841
 30
0.0
 11
394.69845291323918
 21
192.08887105621841
 31
0.0
  0
LINE
  5
343B4
  8
DANMEN
 62
     7
 10
422.19845291323918
 20
190.58887105621841
 30
0.0
 11
422.19845291323918
 21
129.58887105621849
 31
0.0
  0
LINE
  5
343B5
  8
DANMEN
 62
     7
 10
422.19845291323918
 20
190.58887105621841
 30
0.0
 11
422.19845291323918
 21
129.58887105621849
 31
0.0
  0
LINE
  5
343B6
  8
DANMEN
 62
     7
 10
420.69845291323918
 20
178.13887105621851
 30
0.0
 11
420.69845291323918
 21
100.08887105621839
 31
0.0
  0
LINE
  5
343B7
  8
DANMEN
 62
     7
 10
394.19845291323912
 20
178.13887105621851
 30
0.0
 11
394.19845291323912
 21
100.08887105621839
 31
0.0
  0
LINE
  5
343B8
  8
DANMEN
 62
     7
 10
394.69845291323918
 20
192.08887105621841
 30
0.0
 11
394.69845291323918
 21
100.08887105621839
 31
0.0
  0
LINE
  5
343B9
  8
DANMEN
 62
     7
 10
412.69845291323929
 20
192.08887105621841
 30
0.0
 11
412.69845291323929
 21
100.08887105621839
 31
0.0
  0
LINE
  5
343BA
  8
DANMEN
 62
     7
 10
413.19845291323941
 20
178.13887105621851
 30
0.0
 11
413.19845291323941
 21
100.08887105621839
 31
0.0
  0
LINE
  5
343BB
  8
DANMEN
 62
     7
 10
422.19845291323918
 20
129.58887105621849
 30
0.0
 11
428.19845291323918
 21
129.58887105621849
 31
0.0
  0
LINE
  5
343BC
  8
DANMEN
 62
     7
 10
422.19845291323918
 20
190.58887105621841
 30
0.0
 11
428.19845291323918
 21
190.58887105621841
 31
0.0
  0
LINE
  5
343BD
  8
DANMEN
 62
     7
 10
422.19845291323918
 20
129.58887105621849
 30
0.0
 11
428.19845291323918
 21
129.58887105621849
 31
0.0
  0
LINE
  5
343BE
  8
DANMEN
 62
     7
 10
422.19845291323918
 20
190.58887105621841
 30
0.0
 11
428.19845291323918
 21
190.58887105621841
 31
0.0
  0
POLYLINE
  5
343BF
  8
DANMEN
  6
CONTINUOUS
 62
     7
 66
     1
 10
0.0
 20
0.0
 30
0.0
 70
     1
  0
VERTEX
  5
34499
  8
DANMEN
  6
CONTINUOUS
 62
     7
 10
422.19845291323918
 20
129.58887105621849
 30
0.0
  0
VERTEX
  5
3449A
  8
DANMEN
  6
CONTINUOUS
 62
     7
 10
428.19845291323918
 20
129.58887105621849
 30
0.0
  0
VERTEX
  5
3449B
  8
DANMEN
  6
CONTINUOUS
 62
     7
 10
428.19845291323918
 20
190.58887105621841
 30
0.0
  0
VERTEX
  5
3449C
  8
DANMEN
  6
CONTINUOUS
 62
     7
 10
422.19845291323918
 20
190.58887105621841
 30
0.0
  0
SEQEND
  5
3449D
  8
DANMEN
  6
CONTINUOUS
 62
     7
  0
LINE
  5
343C5
  8
DANMEN
 62
     7
 10
400.69845291323941
 20
213.08887105621841
 30
0.0
 11
400.69845291323941
 21
198.08887105621841
 31
0.0
  0
LINE
  5
343C6
  8
DANMEN
 62
     7
 10
406.69845291323901
 20
213.08887105621841
 30
0.0
 11
406.69845291323901
 21
198.08887105621841
 31
0.0
  0
LINE
  5
343C7
  8
DANMEN
 62
     7
 10
400.69845291323941
 20
213.08887105621841
 30
0.0
 11
400.69845291323941
 21
198.08887105621841
 31
0.0
  0
LINE
  5
343C8
  8
DANMEN
 62
     7
 10
406.69845291323901
 20
213.08887105621841
 30
0.0
 11
406.69845291323901
 21
198.08887105621841
 31
0.0
  0
LINE
  5
343C9
  8
DANMEN
 62
     7
 10
379.19845291323912
 20
190.58887105621841
 30
0.0
 11
385.19845291323918
 21
190.58887105621841
 31
0.0
  0
LINE
  5
343CA
  8
DANMEN
 62
     7
 10
379.19845291323912
 20
190.58887105621841
 30
0.0
 11
385.19845291323918
 21
190.58887105621841
 31
0.0
  0
LINE
  5
343CB
  8
DANMEN
 62
     7
 10
385.19845291323918
 20
190.58887105621841
 30
0.0
 11
386.69845291323918
 21
190.58887105621841
 31
0.0
  0
LINE
  5
343CC
  8
DANMEN
 62
     7
 10
385.19845291323918
 20
190.58887105621841
 30
0.0
 11
386.69845291323918
 21
190.58887105621841
 31
0.0
  0
LINE
  5
343CD
  8
DANMEN
 62
     7
 10
386.69845291323918
 20
190.58887105621841
 30
0.0
 11
386.69845291323918
 21
178.13887105621851
 31
0.0
  0
LINE
  5
343CE
  8
DANMEN
 62
     7
 10
386.69845291323918
 20
190.58887105621841
 30
0.0
 11
386.69845291323918
 21
178.13887105621851
 31
0.0
  0
LINE
  5
343CF
  8
DANMEN
  6
CONTINUOUS
 62
     7
 10
386.69845291323918
 20
178.13887105621851
 30
0.0
 11
386.69845291323918
 21
190.58887105621841
 31
0.0
  0
LINE
  5
343D0
  8
DANMEN
 62
     7
 10
379.19845291323912
 20
129.58887105621849
 30
0.0
 11
385.19845291323918
 21
129.58887105621849
 31
0.0
  0
LINE
  5
343D1
  8
DANMEN
 62
     7
 10
379.19845291323912
 20
129.58887105621849
 30
0.0
 11
385.19845291323918
 21
129.58887105621849
 31
0.0
  0
LINE
  5
343D2
  8
SUNPO
 62
     1
 10
379.19845291323912
 20
114.83887105621849
 30
0.0
 11
379.19845291323912
 21
127.58887105621839
 31
0.0
  0
LINE
  5
343D3
  8
DANMEN
 62
     7
 10
368.69845291323918
 20
129.58887105621849
 30
0.0
 11
368.69845291323918
 21
100.08887105621839
 31
0.0
  0
CIRCLE
  5
343D4
  8
SUNPO
 62
     1
 10
379.19845291323912
 20
114.83887105621849
 30
0.0
 40
1.0
  0
LINE
  5
343D5
  8
DANMEN
 62
     7
 10
379.19845291323912
 20
190.58887105621841
 30
0.0
 11
379.19845291323912
 21
129.58887105621849
 31
0.0
  0
LINE
  5
343D6
  8
DANMEN
 62
     7
 10
385.19845291323918
 20
190.58887105621841
 30
0.0
 11
385.19845291323918
 21
129.58887105621849
 31
0.0
  0
LINE
  5
343D7
  8
DANMEN
 62
     7
 10
379.19845291323912
 20
190.58887105621841
 30
0.0
 11
379.19845291323912
 21
129.58887105621849
 31
0.0
  0
LINE
  5
343D8
  8
DANMEN
 62
     7
 10
385.19845291323918
 20
190.58887105621841
 30
0.0
 11
385.19845291323918
 21
129.58887105621849
 31
0.0
  0
LINE
  5
343D9
  8
DANMEN
 62
     7
 10
386.69845291323918
 20
178.13887105621851
 30
0.0
 11
386.69845291323918
 21
100.08887105621839
 31
0.0
  0
POLYLINE
  5
343DA
  8
DANMEN
  6
CONTINUOUS
 62
     7
 66
     1
 10
0.0
 20
0.0
 30
0.0
 70
     1
  0
VERTEX
  5
3449E
  8
DANMEN
  6
CONTINUOUS
 62
     7
 10
385.19845291323918
 20
190.58887105621841
 30
0.0
  0
VERTEX
  5
3449F
  8
DANMEN
  6
CONTINUOUS
 62
     7
 10
379.19845291323912
 20
190.58887105621841
 30
0.0
  0
VERTEX
  5
344A0
  8
DANMEN
  6
CONTINUOUS
 62
     7
 10
379.19845291323912
 20
129.58887105621849
 30
0.0
  0
VERTEX
  5
344A1
  8
DANMEN
  6
CONTINUOUS
 62
     7
 10
385.19845291323918
 20
129.58887105621849
 30
0.0
  0
SEQEND
  5
344A2
  8
DANMEN
  6
CONTINUOUS
 62
     7
  0
LINE
  5
343E0
  8
SUNPO
 62
     1
 10
428.19845291323918
 20
114.83887105621849
 30
0.0
 11
379.19845291323912
 21
114.83887105621849
 31
0.0
  0
POLYLINE
  5
343E1
  8
DANMEN
  6
CONTINUOUS
 62
     7
 66
     1
 10
0.0
 20
0.0
 30
0.0
  0
VERTEX
  5
344A3
  8
DANMEN
  6
CONTINUOUS
 62
     7
 10
386.69845291323918
 20
178.13887105621851
 30
0.0
  0
VERTEX
  5
344A4
  8
DANMEN
  6
CONTINUOUS
 62
     7
 10
420.69845291323918
 20
178.13887105621851
 30
0.0
  0
SEQEND
  5
344A5
  8
DANMEN
  6
CONTINUOUS
 62
     7
  0
POLYLINE
  5
343E5
  8
DANMEN
  6
CONTINUOUS
 62
     7
 66
     1
 10
0.0
 20
0.0
 30
0.0
  0
VERTEX
  5
344A6
  8
DANMEN
  6
CONTINUOUS
 62
     7
 10
394.19845291323912
 20
190.58887105621841
 30
0.0
  0
VERTEX
  5
344A7
  8
DANMEN
  6
CONTINUOUS
 62
     7
 10
386.69845291323918
 20
190.58887105621841
 30
0.0
  0
VERTEX
  5
344A8
  8
DANMEN
  6
CONTINUOUS
 62
     7
 10
386.69845291323918
 20
178.13887105621851
 30
0.0
  0
SEQEND
  5
344A9
  8
DANMEN
  6
CONTINUOUS
 62
     7
  0
POLYLINE
  5
343EA
  8
DANMEN
  6
CONTINUOUS
 62
     7
 66
     1
 10
0.0
 20
0.0
 30
0.0
  0
VERTEX
  5
344AA
  8
DANMEN
  6
CONTINUOUS
 62
     7
 10
385.22089896256711
 20
190.58887105621841
 30
0.0
  0
VERTEX
  5
344AB
  8
DANMEN
  6
CONTINUOUS
 62
     7
 10
386.69845291323918
 20
190.58887105621841
 30
0.0
  0
VERTEX
  5
344AC
  8
DANMEN
  6
CONTINUOUS
 62
     7
 10
386.69845291323918
 20
178.13887105621851
 30
0.0
  0
VERTEX
  5
344AD
  8
DANMEN
  6
CONTINUOUS
 62
     7
 10
420.69845291323918
 20
178.13887105621851
 30
0.0
  0
VERTEX
  5
344AE
  8
DANMEN
  6
CONTINUOUS
 62
     7
 10
420.69845291323918
 20
190.58887105621841
 30
0.0
  0
SEQEND
  5
344AF
  8
DANMEN
  6
CONTINUOUS
 62
     7
  0
INSERT
  5
343F1
  8
DANMEN
  6
CONTINUOUS
 62
     7
  2
*X7
 10
259.19845291323929
 20
-25.861128943781441
 30
0.0
 41
4.0
 42
4.0
 43
4.0
1001
ACAD
1000
HATCH
1002
{
1070
    16
1000
ANSI37
1040
4.0
1040
0.0
1002
}
  0
LINE
  5
343F2
  8
DANMEN
 62
     7
 10
284.19845291323912
 20
213.08887105621841
 30
0.0
 11
400.69845291323941
 21
213.08887105621841
 31
0.0
  0
LINE
  5
343F3
  8
DANMEN
 62
     7
 10
284.19845291323912
 20
198.08887105621841
 30
0.0
 11
394.19845291323912
 21
198.08887105621841
 31
0.0
  0
LINE
  5
343F4
  8
DANMEN
 62
     7
 10
284.19845291323912
 20
212.5888710562183
 30
0.0
 11
400.69845291323941
 21
212.5888710562183
 31
0.0
  0
LINE
  5
343F5
  8
DANMEN
 62
     7
 10
284.19845291323912
 20
198.58887105621841
 30
0.0
 11
400.69845291323941
 21
198.58887105621841
 31
0.0
  0
LINE
  5
343F6
  8
DANMEN
 62
     7
 10
284.19845291323912
 20
129.58887105621849
 30
0.0
 11
385.19845291323918
 21
129.58887105621849
 31
0.0
  0
LINE
  5
343F7
  8
DANMEN
 62
     7
 10
284.19845291323912
 20
190.58887105621841
 30
0.0
 11
385.19845291323918
 21
190.58887105621841
 31
0.0
  0
LINE
  5
343F8
  8
DANMEN
 62
     7
 10
284.19845291323912
 20
183.08887105621841
 30
0.0
 11
379.19845291323912
 21
183.08887105621841
 31
0.0
  0
LINE
  5
343F9
  8
DANMEN
 62
     7
 10
284.19845291323912
 20
134.58887105621849
 30
0.0
 11
379.19845291323912
 21
134.58887105621849
 31
0.0
  0
CIRCLE
  5
343FA
  8
SUNPO
 62
     1
 10
438.69845291323918
 20
86.33887105621838
 30
0.0
 40
1.0
  0
LINE
  5
343FB
  8
SUNPO
 62
     1
 10
438.69845291323918
 20
33.58887105621848
 30
0.0
 11
438.69845291323918
 21
47.588871056218423
 31
0.0
  0
TEXT
  5
343FC
  8
SUNPO
 62
     1
 10
424.69845291323929
 20
88.588899999999995
 30
0.0
 40
7.5
  1
18
 72
     4
 11
429.69845291323941
 21
92.338899999999995
 31
0.0
  0
CIRCLE
  5
343FD
  8
SUNPO
 62
     1
 10
438.69845291323918
 20
33.58887105621848
 30
0.0
 40
1.0
  0
CIRCLE
  5
343FE
  8
SUNPO
 62
     1
 10
420.69845291323918
 20
86.33887105621838
 30
0.0
 40
1.0
  0
LINE
  5
343FF
  8
DANMEN
 62
     7
 10
414.19845291323918
 20
75.588871056218522
 30
0.0
 11
414.19845291323918
 21
67.58887105621838
 31
0.0
  0
LINE
  5
34400
  8
DANMEN
 62
     7
 10
393.19845291323918
 20
75.588871056218522
 30
0.0
 11
393.19845291323918
 21
67.58887105621838
 31
0.0
  0
LINE
  5
34401
  8
DANMEN
 62
     7
 10
393.19845291323918
 20
75.588871056218522
 30
0.0
 11
414.19845291323918
 21
75.588871056218522
 31
0.0
  0
LINE
  5
34402
  8
DANMEN
 62
     7
 10
414.19845291323918
 20
67.58887105621838
 30
0.0
 11
393.19845291323918
 21
75.588871056218522
 31
0.0
  0
TEXT
  5
34403
  8
SUNPO
 62
     1
 10
397.44845291323912
 20
88.588899999999995
 30
0.0
 40
7.5
  1
34
 72
     4
 11
403.69845291323912
 21
92.338899999999995
 31
0.0
  0
TEXT
  5
34404
  8
SUNPO
 62
     1
 10
399.91369809929262
 20
19.743500000000001
 30
0.0
 40
7.5
  1
W
 72
     1
 11
403.66369809929262
 21
19.743500000000001
 31
0.0
  0
TEXT
  5
34405
  8
SUNPO
 62
     1
 10
398.07345291323912
 20
35.838900000000002
 30
0.0
 40
7.5
  1
70
 72
     4
 11
403.69845291323912
 21
39.588900000000002
 31
0.0
  0
LINE
  5
34406
  8
DANMEN
 62
     7
 10
420.69845291323918
 20
67.58887105621838
 30
0.0
 11
438.69845291323918
 21
49.588871056218423
 31
0.0
  0
LINE
  5
34407
  8
SUNPO
 62
     1
 10
420.69845291323918
 20
86.33887105621838
 30
0.0
 11
438.69845291323918
 21
86.33887105621838
 31
0.0
  0
CIRCLE
  5
34408
  8
SUNPO
 62
     1
 10
386.69845291323918
 20
86.33887105621838
 30
0.0
 40
1.0
  0
CIRCLE
  5
34409
  8
SUNPO
 62
     1
 10
368.69845291323918
 20
86.33887105621838
 30
0.0
 40
1.0
  0
LINE
  5
3440A
  8
SUNPO
 62
     1
 10
368.69845291323918
 20
33.58887105621848
 30
0.0
 11
368.69845291323918
 21
47.588871056218423
 31
0.0
  0
LINE
  5
3440B
  8
DANMEN
 62
     7
 10
386.69845291323918
 20
67.58887105621838
 30
0.0
 11
368.69845291323918
 21
49.588871056218423
 31
0.0
  0
LINE
  5
3440C
  8
SUNPO
 62
     1
 10
368.69845291323918
 20
86.33887105621838
 30
0.0
 11
386.69845291323918
 21
86.33887105621838
 31
0.0
  0
CIRCLE
  5
3440D
  8
SUNPO
 62
     1
 10
368.69845291323918
 20
33.58887105621848
 30
0.0
 40
1.0
  0
LINE
  5
3440E
  8
DANMEN
 62
     7
 10
368.69845291323918
 20
49.588871056218423
 30
0.0
 11
438.69845291323918
 21
49.588871056218423
 31
0.0
  0
LINE
  5
3440F
  8
DANMEN
 62
     7
 10
386.69845291323918
 20
67.58887105621838
 30
0.0
 11
420.69845291323918
 21
67.58887105621838
 31
0.0
  0
LINE
  5
34410
  8
SUNPO
 62
     1
 10
386.69845291323918
 20
86.33887105621838
 30
0.0
 11
420.69845291323918
 21
86.33887105621838
 31
0.0
  0
LINE
  5
34411
  8
SUNPO
 62
     1
 10
438.69845291323918
 20
33.58887105621848
 30
0.0
 11
368.69845291323918
 21
33.58887105621848
 31
0.0
  0
LINE
  5
34412
  8
DANMEN
 62
     7
 10
438.69845291323918
 20
97.088871056218395
 30
0.0
 11
438.69845291323918
 21
49.588871056218423
 31
0.0
  0
LINE
  5
34413
  8
DANMEN
 62
     7
 10
420.69845291323918
 20
97.088871056218395
 30
0.0
 11
420.69845291323918
 21
67.58887105621838
 31
0.0
  0
LINE
  5
34414
  8
DANMEN
 62
     7
 10
413.19845291323941
 20
97.088871056218395
 30
0.0
 11
413.19845291323941
 21
75.588871056218522
 31
0.0
  0
LINE
  5
34415
  8
DANMEN
 62
     7
 10
412.69845291323929
 20
97.088871056218395
 30
0.0
 11
412.69845291323929
 21
75.588871056218522
 31
0.0
  0
LINE
  5
34416
  8
DANMEN
 62
     7
 10
368.69845291323918
 20
97.088871056218395
 30
0.0
 11
368.69845291323918
 21
49.588871056218423
 31
0.0
  0
LINE
  5
34417
  8
DANMEN
 62
     7
 10
386.69845291323918
 20
97.088871056218395
 30
0.0
 11
386.69845291323918
 21
67.58887105621838
 31
0.0
  0
LINE
  5
34418
  8
DANMEN
 62
     7
 10
394.69845291323918
 20
97.088871056218395
 30
0.0
 11
394.69845291323918
 21
75.588871056218522
 31
0.0
  0
LINE
  5
34419
  8
DANMEN
 62
     7
 10
394.19845291323912
 20
97.088871056218395
 30
0.0
 11
394.19845291323912
 21
75.588871056218522
 31
0.0
  0
LINE
  5
3441A
  8
SUNPO
 62
     1
 10
377.89845291323923
 20
452.08887105621699
 30
0.0
 11
377.89845291323923
 21
654.08887105621795
 31
0.0
  0
LINE
  5
3441B
  8
DANMEN
  6
CONTINUOUS
 62
     7
 10
428.70894242372879
 20
537.13887105621802
 30
0.0
 11
443.158942423729
 21
551.58887105621693
 31
0.0
  0
LINE
  5
3441C
  8
DANMEN
  6
CONTINUOUS
 62
     7
 10
436.30894242372909
 20
540.53887105621834
 30
0.0
 11
447.40894242372889
 21
551.58887105621693
 31
0.0
  0
LINE
  5
3441D
  8
SUNPO
 62
     1
 10
417.64845291323871
 20
954.43887105621752
 30
0.0
 11
478.648452913239
 21
954.43887105621752
 31
0.0
  0
LINE
  5
3441E
  8
SUNPO
 62
     1
 10
378.648452913239
 20
975.33887105621864
 30
0.0
 11
478.648452913239
 21
975.33887105621864
 31
0.0
  0
LINE
  5
3441F
  8
DANMEN
  6
DASHED
 62
     7
 10
417.64845291323871
 20
904.58887105621841
 30
0.0
 11
553.648452913239
 21
904.58887105621841
 31
0.0
  0
LINE
  5
34420
  8
DANMEN
  6
CONTINUOUS
 62
     7
 10
410.648452913239
 20
857.58887105621784
 30
0.0
 11
478.648452913239
 21
857.58887105621784
 31
0.0
  0
LINE
  5
34421
  8
DANMEN
  6
CONTINUOUS
 62
     7
 10
417.64845291323871
 20
917.58887105621761
 30
0.0
 11
553.648452913239
 21
917.58887105621761
 31
0.0
  0
LINE
  5
34422
  8
DANMEN
  6
CONTINUOUS
 62
     7
 10
417.64845291323871
 20
893.58887105621784
 30
0.0
 11
478.648452913239
 21
893.58887105621784
 31
0.0
  0
LINE
  5
34423
  8
DANMEN
  6
CONTINUOUS
 62
     7
 10
425.14845291323888
 20
912.58887105621716
 30
0.0
 11
476.648452913239
 21
912.58887105621716
 31
0.0
  0
LINE
  5
34424
  8
DANMEN
  6
CONTINUOUS
 62
     7
 10
445.94845291323912
 20
910.78887105621845
 30
0.0
 11
454.34845291323887
 21
910.78887105621845
 31
0.0
  0
LINE
  5
34425
  8
DANMEN
  6
DASHED
 62
     7
 10
417.64845291323871
 20
1134.588871056216
 30
0.0
 11
553.648452913239
 21
1134.588871056216
 31
0.0
  0
LINE
  5
34426
  8
DANMEN
  6
DASHED
 62
     7
 10
417.64845291323871
 20
1152.5888710562181
 30
0.0
 11
553.648452913239
 21
1152.5888710562181
 31
0.0
  0
LINE
  5
34427
  8
DANMEN
  6
DASHED
 62
     7
 10
417.64845291323871
 20
1154.1888710562171
 30
0.0
 11
553.648452913239
 21
1154.1888710562171
 31
0.0
  0
LINE
  5
34428
  8
DANMEN
  6
CONTINUOUS
 62
     7
 10
417.64845291323871
 20
1119.588871056216
 30
0.0
 11
553.648452913239
 21
1119.588871056216
 31
0.0
  0
LINE
  5
34429
  8
DANMEN
  6
CONTINUOUS
 62
     7
 10
417.64845291323871
 20
1164.5888710562181
 30
0.0
 11
553.648452913239
 21
1164.5888710562181
 31
0.0
  0
LINE
  5
3442A
  8
DANMEN
  6
CONTINUOUS
 62
     7
 10
420.64845291323888
 20
1121.5888710562181
 30
0.0
 11
454.34845291323887
 21
1121.5888710562181
 31
0.0
  0
LINE
  5
3442B
  8
DANMEN
  6
CONTINUOUS
 62
     7
 10
418.14845291323883
 20
1119.588871056216
 30
0.0
 11
478.14845291323888
 21
1119.588871056216
 31
0.0
  0
LINE
  5
3442C
  8
DANMEN
  6
CONTINUOUS
 62
     7
 10
409.89845291323951
 20
382.0888710562183
 30
0.0
 11
559.89845291323968
 21
382.0888710562183
 31
0.0
  0
LINE
  5
3442D
  8
DANMEN
  6
CONTINUOUS
 62
     7
 10
409.89845291323951
 20
392.0888710562183
 30
0.0
 11
559.89845291323968
 21
392.0888710562183
 31
0.0
  0
LINE
  5
3442E
  8
DANMEN
  6
CONTINUOUS
 62
     7
 10
409.89845291323951
 20
393.73887105621827
 30
0.0
 11
559.89845291323968
 21
393.73887105621827
 31
0.0
  0
LINE
  5
3442F
  8
DANMEN
  6
CONTINUOUS
 62
     7
 10
409.89845291323951
 20
407.0888710562183
 30
0.0
 11
559.89845291323968
 21
407.0888710562183
 31
0.0
  0
LINE
  5
34430
  8
DANMEN
  6
CONTINUOUS
 62
     7
 10
409.89845291323951
 20
452.08887105621699
 30
0.0
 11
460.39845291323923
 21
452.08887105621699
 31
0.0
  0
LINE
  5
34431
  8
DANMEN
  6
CONTINUOUS
 62
     7
 10
451.39845291323923
 20
450.58887105621818
 30
0.0
 11
462.39845291323928
 21
450.58887105621818
 31
0.0
  0
LINE
  5
34432
  8
DANMEN
  6
CONTINUOUS
 62
     7
 10
450.39845291323923
 20
452.08887105621699
 30
0.0
 11
467.39845291323951
 21
452.08887105621699
 31
0.0
  0
LINE
  5
34433
  8
DANMEN
  6
CONTINUOUS
 62
     7
 10
451.39845291323923
 20
447.2888710562176
 30
0.0
 11
452.89845291323923
 21
447.2888710562176
 31
0.0
  0
LINE
  5
34434
  8
DANMEN
  6
CONTINUOUS
 62
     7
 10
451.39845291323923
 20
448.28887105621772
 30
0.0
 11
452.89845291323923
 21
448.28887105621772
 31
0.0
  0
LINE
  5
34435
  8
SUNPO
  6
CONTINUOUS
 62
     1
 10
449.89845291323923
 20
484.08887105621659
 30
0.0
 11
519.89845291323945
 21
484.08887105621659
 31
0.0
  0
LINE
  5
34436
  8
SUNPO
  6
CONTINUOUS
 62
     1
 10
449.89845291323923
 20
468.0888710562183
 30
0.0
 11
467.89845291323911
 21
468.0888710562183
 31
0.0
  0
LINE
  5
34437
  8
DANMEN
  6
CONTINUOUS
 62
     7
 10
446.14845291323951
 20
554.58887105621693
 30
0.0
 11
460.39845291323923
 21
568.88887105621825
 31
0.0
  0
LINE
  5
34438
  8
DANMEN
  6
CONTINUOUS
 62
     7
 10
450.39845291323923
 20
554.58887105621693
 30
0.0
 11
458.09845291323921
 21
562.28887105621754
 31
0.0
  0
LINE
  5
34439
  8
DANMEN
  6
CONTINUOUS
 62
     7
 10
441.89845291323923
 20
554.58887105621693
 30
0.0
 11
453.84845291323938
 21
566.53887105621777
 31
0.0
  0
LINE
  5
3443A
  8
SUNPO
 62
     1
 10
377.89845291323923
 20
699.08887105621852
 30
0.0
 11
464.39845291323923
 21
699.08887105621852
 31
0.0
  0
LINE
  5
3443B
  8
DANMEN
  6
CONTINUOUS
 62
     7
 10
409.89845291323951
 20
689.08887105621795
 30
0.0
 11
460.39845291323923
 21
689.08887105621795
 31
0.0
  0
LINE
  5
3443C
  8
DANMEN
  6
CONTINUOUS
 62
     7
 10
409.89845291323951
 20
654.08887105621795
 30
0.0
 11
460.39845291323923
 21
654.08887105621795
 31
0.0
  0
LINE
  5
3443D
  8
DANMEN
  6
CONTINUOUS
 62
     7
 10
409.89845291323951
 20
702.0888710562175
 30
0.0
 11
559.89845291323968
 21
702.0888710562175
 31
0.0
  0
LINE
  5
3443E
  8
DANMEN
  6
CONTINUOUS
 62
     7
 10
451.39845291323923
 20
655.58887105621807
 30
0.0
 11
462.39845291323928
 21
655.58887105621807
 31
0.0
  0
LINE
  5
3443F
  8
DANMEN
  6
CONTINUOUS
 62
     7
 10
450.39845291323923
 20
654.08887105621795
 30
0.0
 11
467.39845291323951
 21
654.08887105621795
 31
0.0
  0
LINE
  5
34440
  8
DANMEN
  6
CONTINUOUS
 62
     7
 10
451.39845291323923
 20
658.88887105621836
 30
0.0
 11
452.89845291323923
 21
658.88887105621836
 31
0.0
  0
LINE
  5
34441
  8
DANMEN
  6
CONTINUOUS
 62
     7
 10
451.39845291323923
 20
657.88887105621745
 30
0.0
 11
452.89845291323923
 21
657.88887105621745
 31
0.0
  0
LINE
  5
34442
  8
DANMEN
  6
CONTINUOUS
 62
     7
 10
422.19845291323918
 20
129.58887105621849
 30
0.0
 11
517.19845291323941
 21
129.58887105621849
 31
0.0
  0
LINE
  5
34443
  8
DANMEN
 62
     7
 10
428.19845291323918
 20
134.58887105621849
 30
0.0
 11
517.19845291323941
 21
134.58887105621849
 31
0.0
  0
LINE
  5
34444
  8
DANMEN
 62
     7
 10
428.19845291323918
 20
183.08887105621841
 30
0.0
 11
517.19845291323941
 21
183.08887105621841
 31
0.0
  0
LINE
  5
34445
  8
DANMEN
 62
     7
 10
517.19845291323941
 20
213.08887105621841
 30
0.0
 11
406.69845291323901
 21
213.08887105621841
 31
0.0
  0
LINE
  5
34446
  8
DANMEN
 62
     7
 10
517.19845291323941
 20
198.08887105621841
 30
0.0
 11
413.19845291323941
 21
198.08887105621841
 31
0.0
  0
LINE
  5
34447
  8
DANMEN
 62
     7
 10
517.19845291323941
 20
212.5888710562183
 30
0.0
 11
406.69845291323901
 21
212.5888710562183
 31
0.0
  0
LINE
  5
34448
  8
DANMEN
 62
     7
 10
517.19845291323941
 20
198.58887105621841
 30
0.0
 11
406.69845291323901
 21
198.58887105621841
 31
0.0
  0
LINE
  5
34449
  8
DANMEN
 62
     7
 10
284.19845291323912
 20
229.58887105621841
 30
0.0
 11
517.19845291323941
 21
229.58887105621841
 31
0.0
  0
LINE
  5
3444A
  8
DANMEN
 62
     7
 10
284.19845291323912
 20
220.58887105621841
 30
0.0
 11
517.19845291323941
 21
220.58887105621841
 31
0.0
  0
LINE
  5
3444B
  8
DANMEN
 62
     7
 10
422.19845291323918
 20
190.58887105621841
 30
0.0
 11
517.19845291323941
 21
190.58887105621841
 31
0.0
  0
LINE
  5
3444C
  8
SUNPO
 62
     1
 10
284.19845291323912
 20
17.588871056218519
 30
0.0
 11
609.1984529132377
 21
17.588871056218519
 31
0.0
  0
LINE
  5
3444D
  8
SUNPO
 62
     1
 10
470.69845291323918
 20
49.588871056218423
 30
0.0
 11
440.69845291323918
 21
49.588871056218423
 31
0.0
  0
LINE
  5
3444E
  8
SUNPO
 62
     1
 10
454.69845291323941
 20
75.588871056218522
 30
0.0
 11
440.69845291323918
 21
75.588871056218522
 31
0.0
  0
LINE
  5
3444F
  8
SUNPO
 62
     1
 10
454.69845291323941
 20
49.588871056218423
 30
0.0
 11
440.69845291323918
 21
49.588871056218423
 31
0.0
  0
LINE
  5
34450
  8
SUNPO
 62
     1
 10
454.69845291323941
 20
75.588871056218522
 30
0.0
 11
440.69845291323918
 21
75.588871056218522
 31
0.0
  0
LINE
  5
34451
  8
SUNPO
 62
     1
 10
454.69845291323941
 20
49.588871056218423
 30
0.0
 11
440.69845291323918
 21
49.588871056218423
 31
0.0
  0
TEXT
  5
34452
  8
SUNPO
 62
     1
 10
443.14845291323888
 20
956.68889999999988
 30
0.0
 40
7.5
  1
61
 72
     4
 11
448.148452913239
 21
960.43889999999988
 31
0.0
  0
TEXT
  5
34453
  8
SUNPO
 62
     1
 10
452.44850000000002
 20
56.338871056218522
 30
0.0
 40
7.5
  1
26
 50
90.0
 72
     4
 11
448.69850000000002
 21
62.588871056218522
 31
0.0
  0
VIEWPORT
  5
34456
 67
     1
  8
0
  6
CONTINUOUS
 62
     7
 10
5.648750245101807
 20
3.9337497996533002
 30
0.0
 40
17.12662903666731
 41
8.7426062480295741
 68
     1
 69
     1
1001
ACAD
1000
MVIEW
1002
{
1070
    16
1010
0.0
1020
0.0
1030
0.0
1010
0.0
1020
0.0
1030
1.0
1040
0.0
1040
8.7426062480295741
1040
5.648750245101807
1040
3.9337497996533002
1040
50.0
1040
0.0
1040
0.0
1070
     0
1070
   100
1070
     1
1070
     1
1070
     0
1070
     0
1070
     0
1070
     0
1040
0.0
1040
0.0
1040
0.0
1040
10.0
1040
10.0
1040
10.0
1040
10.0
1070
     0
1002
{
1002
}
1002
}
  0
VIEWPORT
  5
34458
 67
     1
  8
DANMEN
  6
CONTINUOUS
 62
     7
 10
5.6487499259588283
 20
3.9337500812500461
 30
0.0
 40
9.0379998815341267
 41
6.2940001300000761
 68
     2
 69
     2
1001
ACAD
1000
MVIEW
1002
{
1070
    16
1010
0.0
1020
0.0
1030
0.0
1010
0.0
1020
0.0
1030
1.0
1040
0.0
1040
1255.036856600748
1040
217.87559739823411
1040
535.63005674842236
1040
50.0
1040
0.0
1040
0.0
1070
     0
1070
   100
1070
     1
1070
     0
1070
     0
1070
     0
1070
     0
1070
     0
1040
0.0
1040
0.0
1040
0.0
1040
1.0
1040
1.0
1040
0.0
1040
0.0
1070
     0
1002
{
1002
}
1002
}
  0
ENDSEC
  0
EOF
