  0
SECTION
  2
HEADER
  9
$ACADVER
  1
AC1009
  9
$INSBASE
 10
0.0
 20
0.0
 30
0.0
  9
$EXTMIN
 10
31.504230453290461
 20
28.266971522003011
 30
-0.0000000349181948
  9
$EXTMAX
 10
506.92958028480859
 20
417.90225986889487
 30
0.0000000814935747
  9
$LIMMIN
 10
0.0
 20
0.0
  9
$LIMMAX
 10
420.0
 20
297.0
  9
$ORTHOMODE
 70
     0
  9
$REGENMODE
 70
     1
  9
$FILLMODE
 70
     1
  9
$QTEXTMODE
 70
     0
  9
$MIRRTEXT
 70
     1
  9
$DRAGMODE
 70
     2
  9
$LTSCALE
 40
1.0
  9
$OSMODE
 70
    39
  9
$ATTMODE
 70
     1
  9
$TEXTSIZE
 40
2.5
  9
$TRACEWID
 40
1.0
  9
$TEXTSTYLE
  7
STANDARD
  9
$CLAYER
  8
0
  9
$CELTYPE
  6
BYLAYER
  9
$CECOLOR
 62
   256
  9
$DIMSCALE
 40
1.0
  9
$DIMASZ
 40
2.5
  9
$DIMEXO
 40
0.625
  9
$DIMDLI
 40
3.75
  9
$DIMRND
 40
0.0
  9
$DIMDLE
 40
0.0
  9
$DIMEXE
 40
1.25
  9
$DIMTP
 40
0.0
  9
$DIMTM
 40
0.0
  9
$DIMTXT
 40
2.5
  9
$DIMCEN
 40
2.5
  9
$DIMTSZ
 40
0.0
  9
$DIMTOL
 70
     0
  9
$DIMLIM
 70
     0
  9
$DIMTIH
 70
     0
  9
$DIMTOH
 70
     0
  9
$DIMSE1
 70
     0
  9
$DIMSE2
 70
     0
  9
$DIMTAD
 70
     1
  9
$DIMZIN
 70
     8
  9
$DIMBLK
  1

  9
$DIMASO
 70
     1
  9
$DIMSHO
 70
     1
  9
$DIMPOST
  1

  9
$DIMAPOST
  1

  9
$DIMALT
 70
     0
  9
$DIMALTD
 70
     3
  9
$DIMALTF
 40
0.03937007874016
  9
$DIMLFAC
 40
1.0
  9
$DIMTOFL
 70
     1
  9
$DIMTVP
 40
0.0
  9
$DIMTIX
 70
     0
  9
$DIMSOXD
 70
     0
  9
$DIMSAH
 70
     0
  9
$DIMBLK1
  1

  9
$DIMBLK2
  1

  9
$DIMSTYLE
  2
ISO-25
  9
$DIMCLRD
 70
     0
  9
$DIMCLRE
 70
     0
  9
$DIMCLRT
 70
     0
  9
$DIMTFAC
 40
1.0
  9
$DIMGAP
 40
0.625
  9
$LUNITS
 70
     2
  9
$LUPREC
 70
     4
  9
$SKETCHINC
 40
1.0
  9
$FILLETRAD
 40
10.0
  9
$AUNITS
 70
     0
  9
$AUPREC
 70
     0
  9
$MENU
  1
.
  9
$ELEVATION
 40
0.0
  9
$PELEVATION
 40
0.0
  9
$THICKNESS
 40
0.0
  9
$LIMCHECK
 70
     0
  9
$BLIPMODE
 70
     0
  9
$CHAMFERA
 40
10.0
  9
$CHAMFERB
 40
10.0
  9
$SKPOLY
 70
     0
  9
$TDCREATE
 40
2456583.6822594791
  9
$TDUPDATE
 40
2456584.5774110178
  9
$TDINDWG
 40
0.0174507986
  9
$TDUSRTIMER
 40
0.0174504398
  9
$USRTIMER
 70
     1
  9
$ANGBASE
 50
0.0
  9
$ANGDIR
 70
     0
  9
$PDMODE
 70
     0
  9
$PDSIZE
 40
0.0
  9
$PLINEWID
 40
0.0
  9
$COORDS
 70
     1
  9
$SPLFRAME
 70
     0
  9
$SPLINETYPE
 70
     6
  9
$SPLINESEGS
 70
     8
  9
$ATTDIA
 70
     0
  9
$ATTREQ
 70
     1
  9
$HANDLING
 70
-16383
  9
$HANDSEED
  5
1C31
  9
$SURFTAB1
 70
     6
  9
$SURFTAB2
 70
     6
  9
$SURFTYPE
 70
     6
  9
$SURFU
 70
     6
  9
$SURFV
 70
     6
  9
$UCSNAME
  2

  9
$UCSORG
 10
0.0
 20
0.0
 30
0.0
  9
$UCSXDIR
 10
1.0
 20
0.0
 30
0.0
  9
$UCSYDIR
 10
0.0
 20
1.0
 30
0.0
  9
$PUCSNAME
  2

  9
$PUCSORG
 10
0.0
 20
0.0
 30
0.0
  9
$PUCSXDIR
 10
1.0
 20
0.0
 30
0.0
  9
$PUCSYDIR
 10
0.0
 20
1.0
 30
0.0
  9
$USERI1
 70
     0
  9
$USERI2
 70
     0
  9
$USERI3
 70
     0
  9
$USERI4
 70
     0
  9
$USERI5
 70
     0
  9
$USERR1
 40
0.0
  9
$USERR2
 40
0.0
  9
$USERR3
 40
0.0
  9
$USERR4
 40
0.0
  9
$USERR5
 40
0.0
  9
$WORLDVIEW
 70
     1
  9
$SHADEDGE
 70
     3
  9
$SHADEDIF
 70
    70
  9
$TILEMODE
 70
     1
  9
$MAXACTVP
 70
    64
  9
$PLIMCHECK
 70
     0
  9
$PEXTMIN
 10
1.0000000000000000E+020
 20
1.0000000000000000E+020
 30
1.0000000000000000E+020
  9
$PEXTMAX
 10
-1.0000000000000000E+020
 20
-1.0000000000000000E+020
 30
-1.0000000000000000E+020
  9
$PLIMMIN
 10
0.0
 20
0.0
  9
$PLIMMAX
 10
420.0
 20
297.0
  9
$UNITMODE
 70
     0
  9
$VISRETAIN
 70
     1
  9
$PLINEGEN
 70
     0
  9
$PSLTSCALE
 70
     1
  0
ENDSEC
  0
SECTION
  2
TABLES
  0
TABLE
  2
VPORT
 70
     2
  0
VPORT
  2
*ACTIVE
 70
     0
 10
0.0
 20
0.0
 11
1.0
 21
1.0
 12
269.21690536904953
 22
223.08461569544889
 13
0.0
 23
0.0
 14
10.0
 24
10.0
 15
10.0
 25
10.0
 16
0.0
 26
0.0
 36
1.0
 17
0.0
 27
0.0
 37
0.0
 40
392.6286452356004
 41
1.6923076923076921
 42
50.0
 43
0.0
 44
0.0
 50
0.0
 51
0.0
 71
     0
 72
   100
 73
     1
 74
     3
 75
     0
 76
     0
 77
     0
 78
     0
  0
ENDTAB
  0
TABLE
  2
LTYPE
 70
     2
  0
LTYPE
  2
CONTINUOUS
 70
     0
  3
Solid line
 72
    65
 73
     0
 40
0.0
  0
LTYPE
  2
DASHED
 70
     0
  3
Dashed __ __ __ __ __ __ __ __ __ __ __ __ __ _
 72
    65
 73
     2
 40
19.049999999999962
 49
12.699999999999999
 49
-6.349999999999997
  0
ENDTAB
  0
TABLE
  2
LAYER
 70
     4
  0
LAYER
  2
0
 70
     0
 62
     7
  6
CONTINUOUS
  0
LAYER
  2
DANMEN
 70
     0
 62
     7
  6
CONTINUOUS
  0
LAYER
  2
SUNPO
 70
     0
 62
     1
  6
CONTINUOUS
  0
LAYER
  2
WAKU
 70
     0
 62
     3
  6
CONTINUOUS
  0
ENDTAB
  0
TABLE
  2
STYLE
 70
     5
  0
STYLE
  2
STANDARD
 70
     0
 40
0.0
 41
1.0
 50
0.0
 71
     0
 42
2.5
  3
txt
  4

  0
STYLE
  2
MX_NOTE_STANDARD
 70
     0
 40
0.0
 41
1.0
 50
0.0
 71
     0
 42
2.5
  3
txt.shx
  4
extfont.shx
  0
STYLE
  2
MX_DIMTXSTY_2
 70
     0
 40
0.0
 41
1.1999999999999991
 50
0.0
 71
     0
 42
2.5
  3
txt.shx
  4
extfont.shx
  0
STYLE
  2
MX_DIMTXSTY_3
 70
     0
 40
0.0
 41
1.1000000000000001
 50
0.0
 71
     0
 42
2.5
  3
txt.shx
  4
extfont.shx
  0
STYLE
  2
MX_DIMTXSTY_4
 70
     0
 40
0.0
 41
1.3500000000000001
 50
0.0
 71
     0
 42
2.5
  3
txt.shx
  4
extfont.shx
  0
ENDTAB
  0
TABLE
  2
VIEW
 70
     0
  0
ENDTAB
  0
TABLE
  2
UCS
 70
     0
  0
ENDTAB
  0
TABLE
  2
APPID
 70
     1
  0
APPID
  2
ACAD
 70
     0
  0
ENDTAB
  0
TABLE
  2
DIMSTYLE
 70
     1
  0
DIMSTYLE
  2
ISO-25
 70
     0
  3

  4

  5

  6

  7

 40
1.0
 41
2.5
 42
0.625
 43
3.75
 44
1.25
 45
0.0
 46
0.0
 47
0.0
 48
0.0
140
2.5
141
2.5
142
0.0
143
0.03937007874016
144
1.0
145
0.0
146
1.0
147
0.625
 71
     0
 72
     0
 73
     0
 74
     0
 75
     0
 76
     0
 77
     1
 78
     8
170
     0
171
     3
172
     1
173
     0
174
     0
175
     0
176
     0
177
     0
178
     0
  0
ENDTAB
  0
ENDSEC
  0
SECTION
  2
BLOCKS
  0
BLOCK
  8
0
  2
$MODEL_SPACE
 70
     0
 10
0.0
 20
0.0
 30
0.0
  3
$MODEL_SPACE
  1

  0
ENDBLK
  5
14DA
  8
0
  0
BLOCK
 67
     1
  8
0
  2
$PAPER_SPACE
 70
     0
 10
0.0
 20
0.0
 30
0.0
  3
$PAPER_SPACE
  1

  0
ENDBLK
  5
14D6
 67
     1
  8
0
  0
ENDSEC
  0
SECTION
  2
ENTITIES
  0
LINE
  5
14EE
  8
DANMEN
  6
CONTINUOUS
 10
426.99099283197188
 20
140.3491605984164
 30
0.0
 11
426.99099283197188
 21
162.34916059841629
 31
0.0
  0
LINE
  5
14EF
  8
DANMEN
  6
CONTINUOUS
 10
420.99099283197199
 20
145.3491605984164
 30
0.0
 11
420.99099283197199
 21
157.3491605984164
 31
0.0
  0
LINE
  5
14F0
  8
DANMEN
  6
CONTINUOUS
 10
420.99099283197199
 20
145.3491605984164
 30
0.0
 11
426.99099283197188
 21
157.3491605984164
 31
0.0
  0
LINE
  5
14F1
  8
DANMEN
  6
CONTINUOUS
 10
420.99099283197199
 20
157.3491605984164
 30
0.0
 11
426.99099283197188
 21
145.3491605984164
 31
0.0
  0
LINE
  5
14F2
  8
DANMEN
  6
CONTINUOUS
 10
426.99099283197188
 20
161.8491605984164
 30
0.0
 11
369.99099283197199
 21
161.8491605984164
 31
0.0
  0
LINE
  5
14F3
  8
DANMEN
  6
CONTINUOUS
 10
426.99099283197188
 20
157.8491605984164
 30
0.0
 11
369.99099283197199
 21
157.8491605984164
 31
0.0
  0
LINE
  5
14F4
  8
DANMEN
  6
CONTINUOUS
 10
426.99099283197188
 20
144.8491605984164
 30
0.0
 11
369.99099283197199
 21
144.8491605984164
 31
0.0
  0
LINE
  5
14F5
  8
DANMEN
  6
CONTINUOUS
 10
426.99099283197188
 20
140.8491605984164
 30
0.0
 11
369.99099283197199
 21
140.8491605984164
 31
0.0
  0
LINE
  5
14F6
  8
DANMEN
  6
CONTINUOUS
 10
426.99099283197188
 20
162.34916059841629
 30
0.0
 11
369.99099283197199
 21
162.34916059841629
 31
0.0
  0
LINE
  5
14F7
  8
DANMEN
  6
CONTINUOUS
 10
426.99099283197188
 20
157.3491605984164
 30
0.0
 11
369.99099283197199
 21
157.3491605984164
 31
0.0
  0
LINE
  5
14F8
  8
DANMEN
  6
CONTINUOUS
 10
426.99099283197188
 20
145.3491605984164
 30
0.0
 11
369.99099283197199
 21
145.3491605984164
 31
0.0
  0
LINE
  5
14F9
  8
DANMEN
  6
CONTINUOUS
 10
426.99099283197188
 20
140.3491605984164
 30
0.0
 11
369.99099283197199
 21
140.3491605984164
 31
0.0
  0
LINE
  5
14FA
  8
DANMEN
  6
CONTINUOUS
 10
308.99099283197199
 20
140.3491605984164
 30
0.0
 11
308.99099283197199
 21
162.34916059841629
 31
0.0
  0
LINE
  5
14FB
  8
DANMEN
  6
CONTINUOUS
 10
314.99099283197188
 20
145.3491605984164
 30
0.0
 11
314.99099283197188
 21
157.3491605984164
 31
0.0
  0
LINE
  5
14FC
  8
DANMEN
  6
CONTINUOUS
 10
314.99099283197188
 20
145.3491605984164
 30
0.0
 11
308.99099283197199
 21
157.3491605984164
 31
0.0
  0
LINE
  5
14FD
  8
DANMEN
  6
CONTINUOUS
 10
314.99099283197188
 20
157.3491605984164
 30
0.0
 11
308.99099283197199
 21
145.3491605984164
 31
0.0
  0
LINE
  5
14FE
  8
DANMEN
  6
CONTINUOUS
 10
308.99099283197199
 20
161.8491605984164
 30
0.0
 11
365.99099283197199
 21
161.8491605984164
 31
0.0
  0
LINE
  5
14FF
  8
DANMEN
  6
CONTINUOUS
 10
308.99099283197199
 20
157.8491605984164
 30
0.0
 11
365.99099283197199
 21
157.8491605984164
 31
0.0
  0
LINE
  5
1500
  8
DANMEN
  6
CONTINUOUS
 10
308.99099283197199
 20
144.8491605984164
 30
0.0
 11
365.99099283197199
 21
144.8491605984164
 31
0.0
  0
LINE
  5
1501
  8
DANMEN
  6
CONTINUOUS
 10
308.99099283197199
 20
140.8491605984164
 30
0.0
 11
365.99099283197199
 21
140.8491605984164
 31
0.0
  0
LINE
  5
1502
  8
DANMEN
  6
CONTINUOUS
 10
308.99099283197199
 20
162.34916059841629
 30
0.0
 11
365.99099283197199
 21
162.34916059841629
 31
0.0
  0
LINE
  5
1503
  8
DANMEN
  6
CONTINUOUS
 10
308.99099283197199
 20
157.3491605984164
 30
0.0
 11
365.99099283197199
 21
157.3491605984164
 31
0.0
  0
LINE
  5
1504
  8
DANMEN
  6
CONTINUOUS
 10
308.99099283197199
 20
145.3491605984164
 30
0.0
 11
365.99099283197199
 21
145.3491605984164
 31
0.0
  0
LINE
  5
1505
  8
DANMEN
  6
CONTINUOUS
 10
308.99099283197199
 20
140.3491605984164
 30
0.0
 11
365.99099283197199
 21
140.3491605984164
 31
0.0
  0
LINE
  5
1506
  8
DANMEN
  6
CONTINUOUS
 10
153.1909928319721
 20
260.54916059841651
 30
0.0
 11
175.19099283197221
 21
260.54916059841651
 31
0.0
  0
LINE
  5
1507
  8
DANMEN
  6
CONTINUOUS
 10
158.1909928319721
 20
254.54916059841631
 30
0.0
 11
170.1909928319721
 21
254.54916059841631
 31
0.0
  0
LINE
  5
1508
  8
DANMEN
  6
CONTINUOUS
 10
158.1909928319721
 20
254.54916059841631
 30
0.0
 11
170.1909928319721
 21
260.54916059841651
 31
0.0
  0
LINE
  5
1509
  8
DANMEN
  6
CONTINUOUS
 10
170.1909928319721
 20
254.54916059841631
 30
0.0
 11
158.1909928319721
 21
260.54916059841651
 31
0.0
  0
LINE
  5
150A
  8
DANMEN
  6
CONTINUOUS
 10
153.1909928319721
 20
260.54916059841651
 30
0.0
 11
153.1909928319721
 21
205.54916059841651
 31
0.0
  0
LINE
  5
150B
  8
DANMEN
  6
CONTINUOUS
 10
158.1909928319721
 20
260.54916059841651
 30
0.0
 11
158.1909928319721
 21
205.54916059841651
 31
0.0
  0
LINE
  5
150C
  8
DANMEN
  6
CONTINUOUS
 10
170.1909928319721
 20
260.54916059841651
 30
0.0
 11
170.1909928319721
 21
205.54916059841651
 31
0.0
  0
LINE
  5
150D
  8
DANMEN
  6
CONTINUOUS
 10
175.19099283197221
 20
260.54916059841651
 30
0.0
 11
175.19099283197221
 21
205.54916059841651
 31
0.0
  0
LINE
  5
150E
  8
DANMEN
  6
CONTINUOUS
 10
153.69099283197201
 20
260.54916059841651
 30
0.0
 11
153.69099283197201
 21
205.54916059841651
 31
0.0
  0
LINE
  5
150F
  8
DANMEN
  6
CONTINUOUS
 10
157.6909928319721
 20
260.54916059841651
 30
0.0
 11
157.6909928319721
 21
205.54916059841651
 31
0.0
  0
LINE
  5
1510
  8
DANMEN
  6
CONTINUOUS
 10
170.6909928319721
 20
260.54916059841651
 30
0.0
 11
170.6909928319721
 21
205.54916059841651
 31
0.0
  0
LINE
  5
1511
  8
DANMEN
  6
CONTINUOUS
 10
174.69099283197201
 20
260.54916059841651
 30
0.0
 11
174.69099283197201
 21
205.54916059841651
 31
0.0
  0
LINE
  5
1512
  8
DANMEN
  6
CONTINUOUS
 10
170.1909928319721
 20
132.54916059841651
 30
0.0
 11
158.1909928319721
 21
126.54916059841651
 31
0.0
  0
LINE
  5
1513
  8
DANMEN
  6
CONTINUOUS
 10
158.1909928319721
 20
132.54916059841651
 30
0.0
 11
170.1909928319721
 21
126.54916059841651
 31
0.0
  0
LINE
  5
1514
  8
DANMEN
  6
CONTINUOUS
 10
158.1909928319721
 20
132.54916059841651
 30
0.0
 11
170.1909928319721
 21
132.54916059841651
 31
0.0
  0
LINE
  5
1515
  8
DANMEN
  6
CONTINUOUS
 10
153.1909928319721
 20
126.54916059841651
 30
0.0
 11
175.19099283197221
 21
126.54916059841651
 31
0.0
  0
LINE
  5
1516
  8
DANMEN
  6
CONTINUOUS
 10
174.69099283197201
 20
126.54916059841651
 30
0.0
 11
174.69099283197201
 21
201.54916059841639
 31
0.0
  0
LINE
  5
1517
  8
DANMEN
  6
CONTINUOUS
 10
170.6909928319721
 20
126.54916059841651
 30
0.0
 11
170.6909928319721
 21
201.54916059841639
 31
0.0
  0
LINE
  5
1518
  8
DANMEN
  6
CONTINUOUS
 10
157.6909928319721
 20
126.54916059841651
 30
0.0
 11
157.6909928319721
 21
201.54916059841639
 31
0.0
  0
LINE
  5
1519
  8
DANMEN
  6
CONTINUOUS
 10
153.69099283197201
 20
126.54916059841651
 30
0.0
 11
153.69099283197201
 21
201.54916059841639
 31
0.0
  0
LINE
  5
151A
  8
DANMEN
  6
CONTINUOUS
 10
175.19099283197221
 20
126.54916059841651
 30
0.0
 11
175.19099283197221
 21
201.54916059841639
 31
0.0
  0
LINE
  5
151B
  8
DANMEN
  6
CONTINUOUS
 10
170.1909928319721
 20
126.54916059841651
 30
0.0
 11
170.1909928319721
 21
201.54916059841639
 31
0.0
  0
LINE
  5
151C
  8
DANMEN
  6
CONTINUOUS
 10
158.1909928319721
 20
126.54916059841651
 30
0.0
 11
158.1909928319721
 21
201.54916059841639
 31
0.0
  0
LINE
  5
151D
  8
DANMEN
  6
CONTINUOUS
 10
153.1909928319721
 20
126.54916059841651
 30
0.0
 11
153.1909928319721
 21
201.54916059841639
 31
0.0
  0
LINE
  5
151E
  8
DANMEN
  6
CONTINUOUS
 10
369.99099283197199
 20
111.54916059841651
 30
0.0
 11
430.49099283197199
 21
111.54916059841651
 31
0.0
  0
LINE
  5
151F
  8
DANMEN
  6
CONTINUOUS
 10
430.49099283197199
 20
181.54916059841631
 30
0.0
 11
369.99099283197199
 21
181.54916059841631
 31
0.0
  0
LINE
  5
1520
  8
DANMEN
  6
CONTINUOUS
 10
409.99099283197199
 20
171.54916059841639
 30
0.0
 11
369.99099283197199
 21
171.54916059841639
 31
0.0
  0
LINE
  5
1521
  8
DANMEN
  6
CONTINUOUS
 10
369.99099283197199
 20
115.04916059841651
 30
0.0
 11
444.99099283197188
 21
115.04916059841651
 31
0.0
  0
LINE
  5
1522
  8
DANMEN
  6
CONTINUOUS
 10
444.99099283197188
 20
179.74916059841649
 30
0.0
 11
369.99099283197199
 21
179.74916059841649
 31
0.0
  0
LINE
  5
1523
  8
DANMEN
  6
CONTINUOUS
 10
410.49099283197188
 20
130.8491605984164
 30
0.0
 11
369.99099283197199
 21
130.8491605984164
 31
0.0
  0
LINE
  5
1524
  8
DANMEN
  6
CONTINUOUS
 10
409.99099283197199
 20
169.3491605984164
 30
0.0
 11
369.99099283197199
 21
169.3491605984164
 31
0.0
  0
LINE
  5
1525
  8
DANMEN
  6
CONTINUOUS
 10
409.99099283197199
 20
133.3491605984164
 30
0.0
 11
369.99099283197199
 21
133.3491605984164
 31
0.0
  0
LINE
  5
1526
  8
DANMEN
  6
CONTINUOUS
 10
147.49099283197211
 20
83.549160598416563
 30
0.0
 11
203.99099283197191
 21
83.549160598416563
 31
0.0
  0
LINE
  5
1527
  8
DANMEN
  6
CONTINUOUS
 10
203.99099283197191
 20
83.549160598416563
 30
0.0
 11
203.99099283197191
 21
89.049160598416563
 31
0.0
  0
LINE
  5
1528
  8
SUNPO
  6
CONTINUOUS
 10
384.99099283197199
 20
81.549160598416563
 30
0.0
 11
429.99099283197199
 21
81.549160598416563
 31
0.0
  0
LINE
  5
1529
  8
SUNPO
  6
CONTINUOUS
 10
305.99099283197188
 20
81.549160598416563
 30
0.0
 11
355.99099283197188
 21
81.549160598416563
 31
0.0
  0
LINE
  5
152A
  8
SUNPO
  6
CONTINUOUS
 10
243.99099283197191
 20
193.54916059841639
 30
0.0
 11
243.99099283197191
 21
143.54916059841651
 31
0.0
  0
LINE
  5
152B
  8
SUNPO
  6
CONTINUOUS
 10
243.99099283197191
 20
263.54916059841651
 30
0.0
 11
243.99099283197191
 21
213.54916059841631
 31
0.0
  0
LINE
  5
152C
  8
DANMEN
  6
CONTINUOUS
 10
133.99099283197211
 20
201.54916059841639
 30
0.0
 11
133.99099283197211
 21
93.049160598416563
 31
0.0
  0
LINE
  5
152D
  8
DANMEN
  6
CONTINUOUS
 10
133.99099283197211
 20
264.04916059841639
 30
0.0
 11
133.99099283197211
 21
205.54916059841651
 31
0.0
  0
LINE
  5
152E
  8
DANMEN
  6
CONTINUOUS
 10
203.99099283197191
 20
201.54916059841639
 30
0.0
 11
203.99099283197191
 21
142.44916059841651
 31
0.0
  0
LINE
  5
152F
  8
DANMEN
  6
CONTINUOUS
 10
203.99099283197191
 20
264.04916059841639
 30
0.0
 11
203.99099283197191
 21
205.54916059841651
 31
0.0
  0
LINE
  5
1530
  8
DANMEN
  6
CONTINUOUS
 10
139.49099283197211
 20
298.54916059841651
 30
0.0
 11
198.49099283197191
 21
298.54916059841651
 31
0.0
  0
LINE
  5
1531
  8
DANMEN
  6
CONTINUOUS
 10
141.99099283197211
 20
271.54916059841651
 30
0.0
 11
141.99099283197211
 21
205.54916059841651
 31
0.0
  0
LINE
  5
1532
  8
DANMEN
  6
CONTINUOUS
 10
141.99099283197211
 20
201.54916059841639
 30
0.0
 11
141.99099283197211
 21
111.54916059841651
 31
0.0
  0
LINE
  5
1533
  8
DANMEN
  6
CONTINUOUS
 10
141.99099283197211
 20
111.54916059841651
 30
0.0
 11
144.49099283197211
 21
111.54916059841651
 31
0.0
  0
LINE
  5
1534
  8
DANMEN
  6
CONTINUOUS
 10
135.64099283197211
 20
263.54916059841651
 30
0.0
 11
135.64099283197211
 21
205.54916059841651
 31
0.0
  0
LINE
  5
1535
  8
DANMEN
  6
CONTINUOUS
 10
135.64099283197211
 20
201.54916059841639
 30
0.0
 11
135.64099283197211
 21
93.549160598416563
 31
0.0
  0
LINE
  5
1536
  8
DANMEN
  6
CONTINUOUS
 10
202.34099283197199
 20
201.54916059841639
 30
0.0
 11
202.34099283197199
 21
143.54916059841651
 31
0.0
  0
LINE
  5
1537
  8
DANMEN
  6
CONTINUOUS
 10
202.34099283197199
 20
263.54916059841651
 30
0.0
 11
202.34099283197199
 21
205.54916059841651
 31
0.0
  0
LINE
  5
1538
  8
DANMEN
  6
CONTINUOUS
 10
133.99099283197211
 20
263.54916059841651
 30
0.0
 11
135.64099283197211
 21
263.54916059841651
 31
0.0
  0
LINE
  5
1539
  8
DANMEN
  6
CONTINUOUS
 10
202.34099283197199
 20
263.54916059841651
 30
0.0
 11
203.99099283197191
 21
263.54916059841651
 31
0.0
  0
LINE
  5
153A
  8
DANMEN
  6
CONTINUOUS
 10
202.34099283197199
 20
143.54916059841651
 30
0.0
 11
203.99099283197191
 21
143.54916059841651
 31
0.0
  0
LINE
  5
153B
  8
DANMEN
  6
CONTINUOUS
 10
133.99099283197211
 20
93.549160598416563
 30
0.0
 11
135.64099283197211
 21
93.549160598416563
 31
0.0
  0
LINE
  5
153C
  8
DANMEN
  6
CONTINUOUS
 10
365.99099283197199
 20
111.54916059841651
 30
0.0
 11
305.49099283197199
 21
111.54916059841651
 31
0.0
  0
LINE
  5
153D
  8
DANMEN
  6
CONTINUOUS
 10
305.49099283197199
 20
181.54916059841631
 30
0.0
 11
365.99099283197199
 21
181.54916059841631
 31
0.0
  0
LINE
  5
153E
  8
DANMEN
  6
CONTINUOUS
 10
325.99099283197199
 20
171.54916059841639
 30
0.0
 11
365.99099283197199
 21
171.54916059841639
 31
0.0
  0
LINE
  5
153F
  8
DANMEN
  6
CONTINUOUS
 10
365.99099283197199
 20
115.04916059841651
 30
0.0
 11
290.99099283197199
 21
115.04916059841651
 31
0.0
  0
LINE
  5
1540
  8
DANMEN
  6
CONTINUOUS
 10
290.99099283197199
 20
179.74916059841649
 30
0.0
 11
365.99099283197199
 21
179.74916059841649
 31
0.0
  0
LINE
  5
1541
  8
DANMEN
  6
CONTINUOUS
 10
325.49099283197188
 20
130.8491605984164
 30
0.0
 11
365.99099283197199
 21
130.8491605984164
 31
0.0
  0
LINE
  5
1542
  8
DANMEN
  6
CONTINUOUS
 10
184.69099283197221
 20
244.04916059841631
 30
0.0
 11
184.69099283197221
 21
205.54916059841651
 31
0.0
  0
LINE
  5
1543
  8
DANMEN
  6
CONTINUOUS
 10
184.69099283197221
 20
143.04916059841651
 30
0.0
 11
184.69099283197221
 21
201.54916059841639
 31
0.0
  0
LINE
  5
1544
  8
DANMEN
  6
CONTINUOUS
 10
325.99099283197199
 20
169.3491605984164
 30
0.0
 11
365.99099283197199
 21
169.3491605984164
 31
0.0
  0
LINE
  5
1545
  8
DANMEN
  6
CONTINUOUS
 10
325.99099283197199
 20
133.3491605984164
 30
0.0
 11
365.99099283197199
 21
133.3491605984164
 31
0.0
  0
LINE
  5
1546
  8
DANMEN
  6
CONTINUOUS
 10
146.19099283197201
 20
143.54916059841651
 30
0.0
 11
146.19099283197201
 21
201.54916059841639
 31
0.0
  0
LINE
  5
1547
  8
DANMEN
  6
CONTINUOUS
 10
182.1909928319721
 20
143.54916059841651
 30
0.0
 11
182.1909928319721
 21
201.54916059841639
 31
0.0
  0
LINE
  5
1548
  8
DANMEN
  6
CONTINUOUS
 10
146.19099283197201
 20
243.54916059841639
 30
0.0
 11
146.19099283197201
 21
205.54916059841651
 31
0.0
  0
LINE
  5
1549
  8
DANMEN
  6
CONTINUOUS
 10
182.1909928319721
 20
243.54916059841639
 30
0.0
 11
182.1909928319721
 21
205.54916059841651
 31
0.0
  0
LINE
  5
154A
  8
DANMEN
  6
CONTINUOUS
 10
182.69099283197221
 20
143.54916059841651
 30
0.0
 11
184.69099283197221
 21
143.54916059841651
 31
0.0
  0
LINE
  5
154B
  8
DANMEN
  6
CONTINUOUS
 10
182.69099283197221
 20
243.54916059841639
 30
0.0
 11
184.69099283197221
 21
243.54916059841639
 31
0.0
  0
LINE
  5
154C
  8
SUNPO
  6
CONTINUOUS
 10
113.99099283197199
 20
263.54916059841651
 30
0.0
 11
113.99099283197199
 21
298.54916059841651
 31
0.0
  0
LINE
  5
154D
  8
SUNPO
  6
CONTINUOUS
 10
132.99099283197211
 20
263.54916059841651
 30
0.0
 11
113.99099283197199
 21
263.54916059841651
 31
0.0
  0
LINE
  5
154E
  8
SUNPO
  6
CONTINUOUS
 10
132.99099283197211
 20
298.54916059841651
 30
0.0
 11
113.99099283197199
 21
298.54916059841651
 31
0.0
  0
LINE
  5
154F
  8
SUNPO
  6
CONTINUOUS
 10
145.99099283197211
 20
76.549160598416648
 30
0.0
 11
133.99099283197211
 21
76.549160598416648
 31
0.0
  0
LINE
  5
1550
  8
SUNPO
  6
CONTINUOUS
 10
133.99099283197211
 20
82.049160598416549
 30
0.0
 11
133.99099283197211
 21
76.549160598416648
 31
0.0
  0
LINE
  5
1551
  8
SUNPO
  6
CONTINUOUS
 10
113.99099283197199
 20
111.54916059841651
 30
0.0
 11
113.99099283197199
 21
143.54916059841651
 31
0.0
  0
LINE
  5
1552
  8
SUNPO
  6
CONTINUOUS
 10
132.49099283197211
 20
111.54916059841651
 30
0.0
 11
113.99099283197199
 21
111.54916059841651
 31
0.0
  0
LINE
  5
1553
  8
SUNPO
  6
CONTINUOUS
 10
132.49099283197211
 20
143.54916059841651
 30
0.0
 11
113.99099283197199
 21
143.54916059841651
 31
0.0
  0
LINE
  5
1554
  8
SUNPO
  6
CONTINUOUS
 10
113.99099283197199
 20
93.549160598416563
 30
0.0
 11
113.99099283197199
 21
111.54916059841651
 31
0.0
  0
LINE
  5
1555
  8
SUNPO
  6
CONTINUOUS
 10
132.49099283197211
 20
93.549160598416563
 30
0.0
 11
113.99099283197199
 21
93.549160598416563
 31
0.0
  0
LINE
  5
1556
  8
SUNPO
  6
CONTINUOUS
 10
113.99099283197199
 20
83.549160598416563
 30
0.0
 11
113.99099283197199
 21
93.549160598416563
 31
0.0
  0
LINE
  5
1557
  8
SUNPO
  6
CONTINUOUS
 10
132.49099283197211
 20
83.549160598416563
 30
0.0
 11
113.99099283197199
 21
83.549160598416563
 31
0.0
  0
LINE
  5
1558
  8
SUNPO
  6
CONTINUOUS
 10
113.99099283197199
 20
74.54916059841662
 30
0.0
 11
113.99099283197199
 21
83.549160598416563
 31
0.0
  0
LINE
  5
1559
  8
SUNPO
  6
CONTINUOUS
 10
144.49099283197211
 20
74.54916059841662
 30
0.0
 11
113.99099283197199
 21
74.54916059841662
 31
0.0
  0
LINE
  5
155A
  8
SUNPO
  6
CONTINUOUS
 10
113.99099283197199
 20
243.54916059841639
 30
0.0
 11
113.99099283197199
 21
263.54916059841651
 31
0.0
  0
LINE
  5
155B
  8
SUNPO
  6
CONTINUOUS
 10
132.49099283197211
 20
243.54916059841639
 30
0.0
 11
113.99099283197199
 21
243.54916059841639
 31
0.0
  0
LINE
  5
155C
  8
DANMEN
  6
CONTINUOUS
 10
306.29099283197201
 20
133.3491605984164
 30
0.0
 11
304.29099283197201
 21
133.3491605984164
 31
0.0
  0
ARC
  5
155D
  8
DANMEN
  6
CONTINUOUS
 10
308.29099283197201
 20
133.29916059841651
 30
0.0
 40
0.5
 50
180.0
 51
270.0
  0
LINE
  5
155E
  8
DANMEN
  6
CONTINUOUS
 10
307.79099283197201
 20
133.29916059841651
 30
0.0
 11
307.79099283197201
 21
134.04916059841651
 31
0.0
  0
LINE
  5
155F
  8
DANMEN
  6
CONTINUOUS
 10
320.99099283197188
 20
132.79916059841639
 30
0.0
 11
308.29099283197201
 21
132.79916059841639
 31
0.0
  0
ARC
  5
1560
  8
DANMEN
  6
CONTINUOUS
 10
325.49099283197188
 20
131.3491605984164
 30
0.0
 40
0.5
 50
270.0
 51
0.0
  0
LINE
  5
1561
  8
DANMEN
  6
CONTINUOUS
 10
306.29099283197201
 20
132.3491605984164
 30
0.0
 11
306.29099283197201
 21
133.3491605984164
 31
0.0
  0
LINE
  5
1562
  8
DANMEN
  6
CONTINUOUS
 10
325.99099283197199
 20
131.3491605984164
 30
0.0
 11
325.99099283197199
 21
132.8491605984164
 31
0.0
  0
LINE
  5
1563
  8
DANMEN
  6
CONTINUOUS
 10
325.49099283197188
 20
130.8491605984164
 30
0.0
 11
305.99099283197188
 21
130.8491605984164
 31
0.0
  0
LINE
  5
1564
  8
DANMEN
  6
CONTINUOUS
 10
305.99099283197188
 20
130.8491605984164
 30
0.0
 11
305.99099283197188
 21
132.3491605984164
 31
0.0
  0
LINE
  5
1565
  8
DANMEN
  6
CONTINUOUS
 10
306.29099283197201
 20
132.3491605984164
 30
0.0
 11
305.99099283197188
 21
132.3491605984164
 31
0.0
  0
LINE
  5
1566
  8
DANMEN
  6
CONTINUOUS
 10
307.29099283197201
 20
134.54916059841651
 30
0.0
 11
303.391992831972
 21
134.54916059841651
 31
0.0
  0
ARC
  5
1567
  8
DANMEN
  6
CONTINUOUS
 10
307.29099283197201
 20
134.04916059841651
 30
0.0
 40
0.5
 50
0.0
 51
90.0
  0
LINE
  5
1568
  8
DANMEN
  6
CONTINUOUS
 10
320.99099283197188
 20
132.79916059841639
 30
0.0
 11
320.99099283197188
 21
133.3491605984164
 31
0.0
  0
ARC
  5
1569
  8
DANMEN
  6
CONTINUOUS
 10
325.49099283197188
 20
132.8491605984164
 30
0.0
 40
0.5
 50
0.0
 51
90.0
  0
LINE
  5
156A
  8
DANMEN
  6
CONTINUOUS
 10
325.49099283197188
 20
133.3491605984164
 30
0.0
 11
320.99099283197188
 21
133.3491605984164
 31
0.0
  0
LINE
  5
156B
  8
DANMEN
  6
CONTINUOUS
 10
300.68999283197189
 20
136.54916059841651
 30
0.0
 11
299.48999283197202
 21
136.54916059841651
 31
0.0
  0
LINE
  5
156C
  8
DANMEN
  6
CONTINUOUS
 10
298.57899283197202
 20
135.2331605984165
 30
0.0
 11
299.48999283197202
 21
136.54916059841651
 31
0.0
  0
LINE
  5
156D
  8
DANMEN
  6
CONTINUOUS
 10
303.72499283197197
 20
132.94916059841651
 30
0.0
 11
303.70199283197201
 21
132.94916059841651
 31
0.0
  0
LINE
  5
156E
  8
DANMEN
  6
CONTINUOUS
 10
303.391992831972
 20
134.54916059841651
 30
0.0
 11
300.68999283197189
 21
136.54916059841651
 31
0.0
  0
LINE
  5
156F
  8
DANMEN
  6
CONTINUOUS
 10
298.48999283197202
 20
134.94916059841651
 30
0.0
 11
298.48999283197202
 21
134.94916059841651
 31
0.0
  0
LINE
  5
1570
  8
DANMEN
  6
CONTINUOUS
 10
298.98999283197202
 20
134.44916059841651
 30
0.0
 11
299.2329928319719
 21
134.44916059841651
 31
0.0
  0
ARC
  5
1571
  8
DANMEN
  6
CONTINUOUS
 10
298.98999283197202
 20
134.94916059841651
 30
0.0
 40
0.5
 50
145.297
 51
180.0
  0
ARC
  5
1572
  8
DANMEN
  6
CONTINUOUS
 10
298.98999283197202
 20
134.94916059841651
 30
0.0
 40
0.5
 50
180.0
 51
270.0
  0
LINE
  5
1573
  8
DANMEN
  6
CONTINUOUS
 10
303.403992831972
 20
133.0471605984165
 30
0.0
 11
300.42699283197197
 21
135.2511605984165
 31
0.0
  0
LINE
  5
1574
  8
DANMEN
  6
CONTINUOUS
 10
299.6449928319721
 20
134.66416059841629
 30
0.0
 11
300.00199283197202
 21
135.18016059841651
 31
0.0
  0
ARC
  5
1575
  8
DANMEN
  6
CONTINUOUS
 10
300.24899283197198
 20
135.01016059841641
 30
0.0
 40
0.3
 50
53.490999999999893
 51
145.297
  0
ARC
  5
1576
  8
DANMEN
  6
CONTINUOUS
 10
303.70199283197201
 20
133.44916059841651
 30
0.0
 40
0.5
 50
233.4909999999997
 51
270.0
  0
ARC
  5
1577
  8
DANMEN
  6
CONTINUOUS
 10
299.2329928319719
 20
134.94916059841651
 30
0.0
 40
0.5
 50
270.0
 51
325.29700000000003
  0
ARC
  5
1578
  8
DANMEN
  6
CONTINUOUS
 10
304.29099283197201
 20
133.04916059841651
 30
0.0
 40
0.3
 50
90.0
 51
160.5289999999996
  0
ARC
  5
1579
  8
DANMEN
  6
CONTINUOUS
 10
303.72499283197197
 20
133.24916059841641
 30
0.0
 40
0.3
 50
270.0
 51
340.52899999999948
  0
LINE
  5
157A
  8
DANMEN
  6
CONTINUOUS
 10
429.69099283197198
 20
133.3491605984164
 30
0.0
 11
431.69099283197193
 21
133.3491605984164
 31
0.0
  0
ARC
  5
157B
  8
DANMEN
  6
CONTINUOUS
 10
427.6909928319721
 20
133.29916059841651
 30
0.0
 40
0.5
 50
270.0
 51
0.0
  0
LINE
  5
157C
  8
DANMEN
  6
CONTINUOUS
 10
428.19099283197193
 20
133.29916059841651
 30
0.0
 11
428.19099283197193
 21
134.04916059841651
 31
0.0
  0
LINE
  5
157D
  8
DANMEN
  6
CONTINUOUS
 10
414.99099283197188
 20
132.79916059841639
 30
0.0
 11
427.6909928319721
 21
132.79916059841639
 31
0.0
  0
ARC
  5
157E
  8
DANMEN
  6
CONTINUOUS
 10
410.49099283197188
 20
131.3491605984164
 30
0.0
 40
0.5
 50
180.0
 51
270.0
  0
LINE
  5
157F
  8
DANMEN
  6
CONTINUOUS
 10
429.69099283197198
 20
132.3491605984164
 30
0.0
 11
429.69099283197198
 21
133.3491605984164
 31
0.0
  0
LINE
  5
1580
  8
DANMEN
  6
CONTINUOUS
 10
409.99099283197199
 20
131.3491605984164
 30
0.0
 11
409.99099283197199
 21
132.8491605984164
 31
0.0
  0
LINE
  5
1581
  8
DANMEN
  6
CONTINUOUS
 10
410.49099283197188
 20
130.8491605984164
 30
0.0
 11
429.99099283197199
 21
130.8491605984164
 31
0.0
  0
LINE
  5
1582
  8
DANMEN
  6
CONTINUOUS
 10
429.99099283197199
 20
130.8491605984164
 30
0.0
 11
429.99099283197199
 21
132.3491605984164
 31
0.0
  0
LINE
  5
1583
  8
DANMEN
  6
CONTINUOUS
 10
429.69099283197198
 20
132.3491605984164
 30
0.0
 11
429.99099283197199
 21
132.3491605984164
 31
0.0
  0
LINE
  5
1584
  8
DANMEN
  6
CONTINUOUS
 10
428.6909928319721
 20
134.54916059841651
 30
0.0
 11
432.58999283197198
 21
134.54916059841651
 31
0.0
  0
ARC
  5
1585
  8
DANMEN
  6
CONTINUOUS
 10
428.6909928319721
 20
134.04916059841651
 30
0.0
 40
0.5
 50
90.0
 51
180.0
  0
LINE
  5
1586
  8
DANMEN
  6
CONTINUOUS
 10
414.99099283197188
 20
132.79916059841639
 30
0.0
 11
414.99099283197188
 21
133.3491605984164
 31
0.0
  0
ARC
  5
1587
  8
DANMEN
  6
CONTINUOUS
 10
410.49099283197188
 20
132.8491605984164
 30
0.0
 40
0.5
 50
90.0
 51
180.0
  0
LINE
  5
1588
  8
DANMEN
  6
CONTINUOUS
 10
410.49099283197188
 20
133.3491605984164
 30
0.0
 11
414.99099283197188
 21
133.3491605984164
 31
0.0
  0
LINE
  5
1589
  8
DANMEN
  6
CONTINUOUS
 10
435.29199283197192
 20
136.54916059841651
 30
0.0
 11
436.49199283197203
 21
136.54916059841651
 31
0.0
  0
LINE
  5
158A
  8
DANMEN
  6
CONTINUOUS
 10
437.40299283197191
 20
135.2331605984165
 30
0.0
 11
436.49199283197203
 21
136.54916059841651
 31
0.0
  0
LINE
  5
158B
  8
DANMEN
  6
CONTINUOUS
 10
432.25699283197213
 20
132.94916059841651
 30
0.0
 11
432.27999283197192
 21
132.94916059841651
 31
0.0
  0
LINE
  5
158C
  8
DANMEN
  6
CONTINUOUS
 10
432.58999283197198
 20
134.54916059841651
 30
0.0
 11
435.29199283197192
 21
136.54916059841651
 31
0.0
  0
LINE
  5
158D
  8
DANMEN
  6
CONTINUOUS
 10
437.49199283197191
 20
134.94916059841651
 30
0.0
 11
437.49199283197191
 21
134.94916059841651
 31
0.0
  0
LINE
  5
158E
  8
DANMEN
  6
CONTINUOUS
 10
436.99199283197203
 20
134.44916059841651
 30
0.0
 11
436.74899283197192
 21
134.44916059841651
 31
0.0
  0
ARC
  5
158F
  8
DANMEN
  6
CONTINUOUS
 10
436.99199283197203
 20
134.94916059841651
 30
0.0
 40
0.5
 50
0.0
 51
34.702999999999811
  0
ARC
  5
1590
  8
DANMEN
  6
CONTINUOUS
 10
436.99199283197203
 20
134.94916059841651
 30
0.0
 40
0.5
 50
270.0
 51
0.0
  0
LINE
  5
1591
  8
DANMEN
  6
CONTINUOUS
 10
432.57799283197193
 20
133.0471605984165
 30
0.0
 11
435.55499283197179
 21
135.2511605984165
 31
0.0
  0
LINE
  5
1592
  8
DANMEN
  6
CONTINUOUS
 10
436.336992831972
 20
134.66416059841629
 30
0.0
 11
435.97999283197191
 21
135.18016059841651
 31
0.0
  0
ARC
  5
1593
  8
DANMEN
  6
CONTINUOUS
 10
435.73299283197179
 20
135.01016059841641
 30
0.0
 40
0.3
 50
34.702999999999811
 51
126.5090000000001
  0
ARC
  5
1594
  8
DANMEN
  6
CONTINUOUS
 10
432.27999283197192
 20
133.44916059841651
 30
0.0
 40
0.5
 50
270.0
 51
306.50900000000013
  0
ARC
  5
1595
  8
DANMEN
  6
CONTINUOUS
 10
436.74899283197192
 20
134.94916059841651
 30
0.0
 40
0.5
 50
214.70299999999989
 51
270.0
  0
ARC
  5
1596
  8
DANMEN
  6
CONTINUOUS
 10
431.69099283197193
 20
133.04916059841651
 30
0.0
 40
0.3
 50
19.471000000000359
 51
90.0
  0
ARC
  5
1597
  8
DANMEN
  6
CONTINUOUS
 10
432.25699283197213
 20
133.24916059841641
 30
0.0
 40
0.3
 50
199.47099999999921
 51
270.0
  0
LINE
  5
1598
  8
DANMEN
  6
CONTINUOUS
 10
182.1909928319721
 20
263.24916059841632
 30
0.0
 11
182.1909928319721
 21
265.24916059841649
 31
0.0
  0
ARC
  5
1599
  8
DANMEN
  6
CONTINUOUS
 10
182.24099283197191
 20
261.24916059841638
 30
0.0
 40
0.5
 50
0.0
 51
90.0
  0
LINE
  5
159A
  8
DANMEN
  6
CONTINUOUS
 10
182.24099283197191
 20
261.74916059841632
 30
0.0
 11
181.49099283197199
 21
261.74916059841632
 31
0.0
  0
LINE
  5
159B
  8
DANMEN
  6
CONTINUOUS
 10
182.74099283197199
 20
248.54916059841631
 30
0.0
 11
182.74099283197199
 21
261.24916059841638
 31
0.0
  0
ARC
  5
159C
  8
DANMEN
  6
CONTINUOUS
 10
184.19099283197201
 20
244.04916059841631
 30
0.0
 40
0.5
 50
270.0
 51
0.0
  0
LINE
  5
159D
  8
DANMEN
  6
CONTINUOUS
 10
183.1909928319721
 20
263.24916059841632
 30
0.0
 11
182.1909928319721
 21
263.24916059841632
 31
0.0
  0
LINE
  5
159E
  8
DANMEN
  6
CONTINUOUS
 10
184.19099283197201
 20
243.54916059841639
 30
0.0
 11
182.69099283197221
 21
243.54916059841639
 31
0.0
  0
LINE
  5
159F
  8
DANMEN
  6
CONTINUOUS
 10
184.69099283197221
 20
244.04916059841631
 30
0.0
 11
184.69099283197221
 21
263.54916059841651
 31
0.0
  0
LINE
  5
15A0
  8
DANMEN
  6
CONTINUOUS
 10
184.69099283197221
 20
263.54916059841651
 30
0.0
 11
183.1909928319721
 21
263.54916059841651
 31
0.0
  0
LINE
  5
15A1
  8
DANMEN
  6
CONTINUOUS
 10
183.1909928319721
 20
263.24916059841632
 30
0.0
 11
183.1909928319721
 21
263.54916059841651
 31
0.0
  0
LINE
  5
15A2
  8
DANMEN
  6
CONTINUOUS
 10
180.99099283197191
 20
262.24916059841649
 30
0.0
 11
180.99099283197191
 21
266.14816059841633
 31
0.0
  0
ARC
  5
15A3
  8
DANMEN
  6
CONTINUOUS
 10
181.49099283197199
 20
262.24916059841649
 30
0.0
 40
0.5
 50
180.0
 51
270.0
  0
LINE
  5
15A4
  8
DANMEN
  6
CONTINUOUS
 10
182.74099283197199
 20
248.54916059841631
 30
0.0
 11
182.1909928319721
 21
248.54916059841631
 31
0.0
  0
ARC
  5
15A5
  8
DANMEN
  6
CONTINUOUS
 10
182.69099283197221
 20
244.04916059841631
 30
0.0
 40
0.5
 50
180.0
 51
270.0
  0
LINE
  5
15A6
  8
DANMEN
  6
CONTINUOUS
 10
182.1909928319721
 20
244.04916059841631
 30
0.0
 11
182.1909928319721
 21
248.54916059841631
 31
0.0
  0
LINE
  5
15A7
  8
DANMEN
  6
CONTINUOUS
 10
178.99099283197211
 20
268.85016059841649
 30
0.0
 11
178.99099283197211
 21
270.05016059841643
 31
0.0
  0
LINE
  5
15A8
  8
DANMEN
  6
CONTINUOUS
 10
180.306992831972
 20
270.96116059841643
 30
0.0
 11
178.99099283197211
 21
270.05016059841643
 31
0.0
  0
LINE
  5
15A9
  8
DANMEN
  6
CONTINUOUS
 10
182.59099283197199
 20
265.81516059841653
 30
0.0
 11
182.59099283197199
 21
265.83816059841661
 31
0.0
  0
LINE
  5
15AA
  8
DANMEN
  6
CONTINUOUS
 10
180.99099283197191
 20
266.14816059841633
 30
0.0
 11
178.99099283197211
 21
268.85016059841649
 31
0.0
  0
LINE
  5
15AB
  8
DANMEN
  6
CONTINUOUS
 10
180.59099283197199
 20
271.0501605984166
 30
0.0
 11
180.59099283197199
 21
271.0501605984166
 31
0.0
  0
LINE
  5
15AC
  8
DANMEN
  6
CONTINUOUS
 10
181.09099283197199
 20
270.55016059841648
 30
0.0
 11
181.09099283197199
 21
270.30716059841649
 31
0.0
  0
ARC
  5
15AD
  8
DANMEN
  6
CONTINUOUS
 10
180.59099283197199
 20
270.55016059841648
 30
0.0
 40
0.5
 50
90.0
 51
124.7030000000002
  0
ARC
  5
15AE
  8
DANMEN
  6
CONTINUOUS
 10
180.59099283197199
 20
270.55016059841648
 30
0.0
 40
0.5
 50
0.0
 51
90.0
  0
LINE
  5
15AF
  8
DANMEN
  6
CONTINUOUS
 10
182.49299283197189
 20
266.13616059841638
 30
0.0
 11
180.28899283197191
 21
269.11316059841653
 31
0.0
  0
LINE
  5
15B0
  8
DANMEN
  6
CONTINUOUS
 10
180.87599283197201
 20
269.89516059841628
 30
0.0
 11
180.35999283197191
 21
269.53816059841643
 31
0.0
  0
ARC
  5
15B1
  8
DANMEN
  6
CONTINUOUS
 10
180.52999283197209
 20
269.29116059841641
 30
0.0
 40
0.3
 50
124.7030000000002
 51
216.5089999999999
  0
ARC
  5
15B2
  8
DANMEN
  6
CONTINUOUS
 10
182.09099283197199
 20
265.83816059841661
 30
0.0
 40
0.5
 50
0.0
 51
36.5090000000001
  0
ARC
  5
15B3
  8
DANMEN
  6
CONTINUOUS
 10
180.59099283197199
 20
270.30716059841649
 30
0.0
 40
0.5
 50
304.70300000000032
 51
0.0
  0
ARC
  5
15B4
  8
DANMEN
  6
CONTINUOUS
 10
182.49099283197199
 20
265.24916059841649
 30
0.0
 40
0.3
 50
109.47099999999919
 51
180.0
  0
ARC
  5
15B5
  8
DANMEN
  6
CONTINUOUS
 10
182.2909928319722
 20
265.81516059841653
 30
0.0
 40
0.3
 50
289.47099999999921
 51
0.0
  0
LINE
  5
15B6
  8
SUNPO
  6
CONTINUOUS
 10
308.99099283197199
 20
191.54916059841631
 30
0.0
 11
325.99099283197199
 21
191.54916059841631
 31
0.0
  0
LINE
  5
15B7
  8
SUNPO
  6
CONTINUOUS
 10
308.99099283197199
 20
183.04916059841639
 30
0.0
 11
308.99099283197199
 21
191.54916059841631
 31
0.0
  0
LINE
  5
15B8
  8
SUNPO
  6
CONTINUOUS
 10
409.99099283197199
 20
191.54916059841631
 30
0.0
 11
426.99099283197188
 21
191.54916059841631
 31
0.0
  0
LINE
  5
15B9
  8
SUNPO
  6
CONTINUOUS
 10
426.99099283197188
 20
183.04916059841639
 30
0.0
 11
426.99099283197188
 21
191.54916059841631
 31
0.0
  0
LINE
  5
15BA
  8
SUNPO
  6
CONTINUOUS
 10
123.99099283197199
 20
126.54916059841651
 30
0.0
 11
123.99099283197199
 21
143.54916059841651
 31
0.0
  0
LINE
  5
15BB
  8
SUNPO
  6
CONTINUOUS
 10
132.49099283197211
 20
126.54916059841651
 30
0.0
 11
123.99099283197199
 21
126.54916059841651
 31
0.0
  0
LINE
  5
15BC
  8
SUNPO
  6
CONTINUOUS
 10
123.99099283197199
 20
243.54916059841639
 30
0.0
 11
123.99099283197199
 21
260.54916059841651
 31
0.0
  0
LINE
  5
15BD
  8
SUNPO
  6
CONTINUOUS
 10
132.49099283197211
 20
260.54916059841651
 30
0.0
 11
123.99099283197199
 21
260.54916059841651
 31
0.0
  0
LINE
  5
15BE
  8
SUNPO
  6
CONTINUOUS
 10
146.19099283197201
 20
171.54916059841651
 30
0.0
 11
182.1909928319721
 21
171.54916059841651
 31
0.0
  0
LINE
  5
15BF
  8
SUNPO
  6
CONTINUOUS
 10
396.99099283197199
 20
169.3491605984164
 30
0.0
 11
396.99099283197199
 21
133.3491605984164
 31
0.0
  0
LINE
  5
15C1
  8
DANMEN
  6
CONTINUOUS
 10
184.69099283197221
 20
139.1491605984165
 30
0.0
 11
184.69099283197221
 21
138.54916059841651
 31
0.0
  0
LINE
  5
15D3
  8
DANMEN
  6
CONTINUOUS
 10
198.69099283197201
 20
138.54916059841651
 30
0.0
 11
200.1909928319721
 21
138.54916059841651
 31
0.0
  0
LINE
  5
15DE
  8
DANMEN
  6
CONTINUOUS
 10
184.69099283197221
 20
138.54916059841651
 30
0.0
 11
200.69099283197201
 21
138.54916059841651
 31
0.0
  0
LINE
  5
15E5
  8
SUNPO
  6
CONTINUOUS
 10
305.99099283197188
 20
201.54916059841639
 30
0.0
 11
325.99099283197199
 21
201.54916059841639
 31
0.0
  0
LINE
  5
15E6
  8
SUNPO
  6
CONTINUOUS
 10
305.99099283197188
 20
182.54916059841631
 30
0.0
 11
305.99099283197188
 21
201.54916059841639
 31
0.0
  0
LINE
  5
15E7
  8
SUNPO
  6
CONTINUOUS
 10
325.99099283197199
 20
183.04916059841639
 30
0.0
 11
325.99099283197199
 21
201.54916059841639
 31
0.0
  0
LINE
  5
15E8
  8
SUNPO
  6
CONTINUOUS
 10
203.99099283197191
 20
181.54916059841631
 30
0.0
 11
184.69099283197221
 21
181.54916059841631
 31
0.0
  0
LINE
  5
15E9
  8
SUNPO
  6
CONTINUOUS
 10
184.69099283197221
 20
181.54916059841631
 30
0.0
 11
141.99099283197211
 21
181.54916059841631
 31
0.0
  0
LINE
  5
15EA
  8
SUNPO
  6
CONTINUOUS
 10
381.99099283197199
 20
130.8491605984164
 30
0.0
 11
381.99099283197199
 21
111.54916059841651
 31
0.0
  0
LINE
  5
15EB
  8
SUNPO
  6
CONTINUOUS
 10
233.99099283197191
 20
263.54916059841651
 30
0.0
 11
233.99099283197191
 21
243.54916059841639
 31
0.0
  0
LINE
  5
15EC
  8
SUNPO
  6
CONTINUOUS
 10
205.49099283197199
 20
243.54916059841639
 30
0.0
 11
233.99099283197191
 21
243.54916059841639
 31
0.0
  0
LINE
  5
15ED
  8
SUNPO
  6
CONTINUOUS
 10
325.99099283197199
 20
91.549160598416563
 30
0.0
 11
305.99099283197188
 21
91.549160598416563
 31
0.0
  0
LINE
  5
15EE
  8
SUNPO
  6
CONTINUOUS
 10
325.99099283197199
 20
110.04916059841651
 30
0.0
 11
325.99099283197199
 21
91.549160598416563
 31
0.0
  0
LINE
  5
15EF
  8
SUNPO
  6
CONTINUOUS
 10
305.99099283197188
 20
91.549160598416563
 30
0.0
 11
290.99099283197199
 21
91.549160598416563
 31
0.0
  0
LINE
  5
15F0
  8
SUNPO
  6
CONTINUOUS
 10
290.99099283197199
 20
110.04916059841651
 30
0.0
 11
290.99099283197199
 21
91.549160598416563
 31
0.0
  0
LINE
  5
15F1
  8
SUNPO
  6
CONTINUOUS
 10
280.99099283197211
 20
201.54916059841639
 30
0.0
 11
305.99099283197188
 21
201.54916059841639
 31
0.0
  0
LINE
  5
15F2
  8
SUNPO
  6
CONTINUOUS
 10
280.99099283197211
 20
183.04916059841639
 30
0.0
 11
280.99099283197211
 21
201.54916059841639
 31
0.0
  0
LINE
  5
15F3
  8
SUNPO
  6
CONTINUOUS
 10
305.99099283197188
 20
183.04916059841639
 30
0.0
 11
305.99099283197188
 21
201.54916059841639
 31
0.0
  0
LINE
  5
15F4
  8
SUNPO
  6
CONTINUOUS
 10
305.99099283197188
 20
81.549160598416563
 30
0.0
 11
280.99099283197211
 21
81.549160598416563
 31
0.0
  0
LINE
  5
15F5
  8
SUNPO
  6
CONTINUOUS
 10
305.99099283197188
 20
110.04916059841651
 30
0.0
 11
305.99099283197188
 21
81.549160598416563
 31
0.0
  0
LINE
  5
15F6
  8
SUNPO
  6
CONTINUOUS
 10
280.99099283197211
 20
110.54916059841651
 30
0.0
 11
280.99099283197211
 21
81.549160598416563
 31
0.0
  0
LINE
  5
15F7
  8
SUNPO
  6
CONTINUOUS
 10
141.99099283197211
 20
181.54916059841631
 30
0.0
 11
133.99099283197211
 21
181.54916059841631
 31
0.0
  0
LINE
  5
15F8
  8
SUNPO
  6
CONTINUOUS
 10
203.99099283197191
 20
191.54916059841631
 30
0.0
 11
133.99099283197211
 21
191.54916059841631
 31
0.0
  0
LINE
  5
15F9
  8
SUNPO
  6
CONTINUOUS
 10
353.99099283197188
 20
111.54916059841651
 30
0.0
 11
353.99099283197188
 21
181.54916059841631
 31
0.0
  0
LINE
  5
15FA
  8
SUNPO
  6
CONTINUOUS
 10
429.99099283197199
 20
91.549160598416563
 30
0.0
 11
409.99099283197199
 21
91.549160598416563
 31
0.0
  0
LINE
  5
15FB
  8
SUNPO
  6
CONTINUOUS
 10
409.99099283197199
 20
110.04916059841651
 30
0.0
 11
409.99099283197199
 21
91.549160598416563
 31
0.0
  0
LINE
  5
15FC
  8
SUNPO
  6
CONTINUOUS
 10
409.99099283197199
 20
201.54916059841639
 30
0.0
 11
429.99099283197199
 21
201.54916059841639
 31
0.0
  0
LINE
  5
15FD
  8
SUNPO
  6
CONTINUOUS
 10
409.99099283197199
 20
183.04916059841639
 30
0.0
 11
409.99099283197199
 21
201.54916059841639
 31
0.0
  0
LINE
  5
15FE
  8
SUNPO
  6
CONTINUOUS
 10
305.99099283197188
 20
81.549160598416563
 30
0.0
 11
310.99099283197188
 21
86.549160598416563
 31
0.0
  0
LINE
  5
15FF
  8
SUNPO
  6
CONTINUOUS
 10
310.99099283197188
 20
76.549160598416648
 30
0.0
 11
305.99099283197188
 21
81.549160598416563
 31
0.0
  0
LINE
  5
1600
  8
SUNPO
  6
CONTINUOUS
 10
310.99099283197188
 20
86.549160598416563
 30
0.0
 11
310.99099283197188
 21
76.549160598416648
 31
0.0
  0
LINE
  5
1601
  8
SUNPO
  6
CONTINUOUS
 10
243.99099283197191
 20
143.54916059841651
 30
0.0
 11
243.99099283197191
 21
83.549160598416563
 31
0.0
  0
LINE
  5
1602
  8
SUNPO
  6
CONTINUOUS
 10
205.49099283197199
 20
143.54916059841651
 30
0.0
 11
243.99099283197191
 21
143.54916059841651
 31
0.0
  0
LINE
  5
1603
  8
SUNPO
  6
CONTINUOUS
 10
205.49099283197199
 20
83.549160598416563
 30
0.0
 11
243.99099283197191
 21
83.549160598416563
 31
0.0
  0
LINE
  5
1604
  8
SUNPO
  6
CONTINUOUS
 10
444.99099283197188
 20
91.549160598416563
 30
0.0
 11
429.99099283197199
 21
91.549160598416563
 31
0.0
  0
LINE
  5
1605
  8
SUNPO
  6
CONTINUOUS
 10
444.99099283197188
 20
110.04916059841651
 30
0.0
 11
444.99099283197188
 21
91.549160598416563
 31
0.0
  0
LINE
  5
1606
  8
SUNPO
  6
CONTINUOUS
 10
429.99099283197199
 20
201.54916059841639
 30
0.0
 11
454.99099283197199
 21
201.54916059841639
 31
0.0
  0
LINE
  5
1607
  8
SUNPO
  6
CONTINUOUS
 10
429.99099283197199
 20
183.04916059841639
 30
0.0
 11
429.99099283197199
 21
201.54916059841639
 31
0.0
  0
LINE
  5
1608
  8
SUNPO
  6
CONTINUOUS
 10
454.99099283197199
 20
183.04916059841639
 30
0.0
 11
454.99099283197199
 21
201.54916059841639
 31
0.0
  0
LINE
  5
1609
  8
SUNPO
  6
CONTINUOUS
 10
239.99099283197191
 20
196.69016059841641
 30
0.0
 11
247.99099283197191
 21
196.69016059841641
 31
0.0
  0
LINE
  5
160A
  8
SUNPO
  6
CONTINUOUS
 10
247.99099283197191
 20
206.20316059841639
 30
0.0
 11
247.99099283197191
 21
202.47016059841641
 31
0.0
  0
LINE
  5
160B
  8
SUNPO
  6
CONTINUOUS
 10
243.99099283197191
 20
204.19016059841641
 30
0.0
 11
243.99099283197191
 21
198.69016059841641
 31
0.0
  0
LINE
  5
160C
  8
SUNPO
  6
CONTINUOUS
 10
247.99099283197191
 20
200.09016059841639
 30
0.0
 11
247.99099283197191
 21
194.89316059841639
 31
0.0
  0
LINE
  5
160D
  8
SUNPO
  6
CONTINUOUS
 10
239.99099283197191
 20
204.19016059841641
 30
0.0
 11
247.99099283197191
 21
204.19016059841641
 31
0.0
  0
LINE
  5
160E
  8
SUNPO
  6
CONTINUOUS
 10
239.99099283197191
 20
206.20316059841639
 30
0.0
 11
239.99099283197191
 21
202.47016059841641
 31
0.0
  0
LINE
  5
160F
  8
SUNPO
  6
CONTINUOUS
 10
239.99099283197191
 20
200.09016059841639
 30
0.0
 11
239.99099283197191
 21
194.89316059841639
 31
0.0
  0
LINE
  5
1610
  8
SUNPO
  6
CONTINUOUS
 10
245.1909928319721
 20
212.2051605984164
 30
0.0
 11
245.1909928319721
 21
207.41716059841639
 31
0.0
  0
LINE
  5
1611
  8
SUNPO
  6
CONTINUOUS
 10
242.79099283197201
 20
212.2051605984164
 30
0.0
 11
242.79099283197201
 21
207.41716059841639
 31
0.0
  0
LINE
  5
1612
  8
SUNPO
  6
CONTINUOUS
 10
239.99099283197191
 20
198.69016059841641
 30
0.0
 11
247.99099283197191
 21
198.69016059841641
 31
0.0
  0
LINE
  5
1613
  8
SUNPO
  6
CONTINUOUS
 10
364.86799283197189
 20
78.049160598416563
 30
0.0
 11
360.82599283197192
 21
85.049160598416563
 31
0.0
  0
LINE
  5
1614
  8
SUNPO
  6
CONTINUOUS
 10
367.17699283197192
 20
78.049160598416563
 30
0.0
 11
363.13599283197192
 21
85.049160598416563
 31
0.0
  0
LINE
  5
1615
  8
SUNPO
  6
CONTINUOUS
 10
373.52799283197191
 20
85.049160598416563
 30
0.0
 11
373.52799283197191
 21
78.049160598416563
 31
0.0
  0
LINE
  5
1616
  8
SUNPO
  6
CONTINUOUS
 10
374.10499283197191
 20
78.049160598416563
 30
0.0
 11
370.52799283197191
 21
78.049160598416563
 31
0.0
  0
LINE
  5
1617
  8
SUNPO
  6
CONTINUOUS
 10
368.17699283197192
 20
78.049160598416563
 30
0.0
 11
363.699992831972
 21
78.049160598416563
 31
0.0
  0
LINE
  5
1618
  8
SUNPO
  6
CONTINUOUS
 10
373.52799283197191
 20
78.049160598416563
 30
0.0
 11
369.48699283197192
 21
85.049160598416563
 31
0.0
  0
LINE
  5
1619
  8
SUNPO
  6
CONTINUOUS
 10
371.21899283197189
 20
78.049160598416563
 30
0.0
 11
367.17699283197192
 21
85.049160598416563
 31
0.0
  0
LINE
  5
161A
  8
SUNPO
  6
CONTINUOUS
 10
374.48699283197192
 20
85.049160598416563
 30
0.0
 11
372.44999283197188
 21
85.049160598416563
 31
0.0
  0
LINE
  5
161B
  8
SUNPO
  6
CONTINUOUS
 10
370.48699283197192
 20
85.049160598416563
 30
0.0
 11
366.17699283197192
 21
85.049160598416563
 31
0.0
  0
LINE
  5
161C
  8
SUNPO
  6
CONTINUOUS
 10
364.0969928319721
 20
85.049160598416563
 30
0.0
 11
359.7219928319721
 21
85.049160598416563
 31
0.0
  0
LINE
  5
161D
  8
SUNPO
  6
CONTINUOUS
 10
382.25999283197189
 20
80.049160598416563
 30
0.0
 11
377.25999283197189
 21
80.049160598416563
 31
0.0
  0
LINE
  5
161E
  8
SUNPO
  6
CONTINUOUS
 10
382.25999283197189
 20
83.049160598416563
 30
0.0
 11
377.25999283197189
 21
83.049160598416563
 31
0.0
  0
LINE
  5
161F
  8
SUNPO
  6
CONTINUOUS
 10
367.17699283197192
 20
85.049160598416563
 30
0.0
 11
367.17699283197192
 21
78.049160598416563
 31
0.0
  0
LINE
  5
1620
  8
SUNPO
  6
CONTINUOUS
 10
243.99099283197191
 20
143.54916059841651
 30
0.0
 11
238.99099283197199
 21
148.54916059841651
 31
0.0
  0
LINE
  5
1621
  8
SUNPO
  6
CONTINUOUS
 10
248.99099283197211
 20
148.54916059841651
 30
0.0
 11
243.99099283197191
 21
143.54916059841651
 31
0.0
  0
LINE
  5
1622
  8
SUNPO
  6
CONTINUOUS
 10
238.99099283197199
 20
148.54916059841651
 30
0.0
 11
248.99099283197211
 21
148.54916059841651
 31
0.0
  0
LINE
  5
1623
  8
SUNPO
  6
CONTINUOUS
 10
243.99099283197191
 20
263.54916059841651
 30
0.0
 11
248.99099283197211
 21
258.54916059841651
 31
0.0
  0
LINE
  5
1624
  8
SUNPO
  6
CONTINUOUS
 10
238.99099283197199
 20
258.54916059841651
 30
0.0
 11
243.99099283197191
 21
263.54916059841651
 31
0.0
  0
LINE
  5
1625
  8
SUNPO
  6
CONTINUOUS
 10
248.99099283197211
 20
258.54916059841651
 30
0.0
 11
238.99099283197199
 21
258.54916059841651
 31
0.0
  0
LINE
  5
1626
  8
SUNPO
  6
CONTINUOUS
 10
429.99099283197199
 20
81.549160598416563
 30
0.0
 11
424.99099283197199
 21
76.549160598416648
 31
0.0
  0
LINE
  5
1627
  8
SUNPO
  6
CONTINUOUS
 10
424.99099283197199
 20
86.549160598416563
 30
0.0
 11
429.99099283197199
 21
81.549160598416563
 31
0.0
  0
LINE
  5
1628
  8
SUNPO
  6
CONTINUOUS
 10
424.99099283197199
 20
76.549160598416648
 30
0.0
 11
424.99099283197199
 21
86.549160598416563
 31
0.0
  0
LINE
  5
1629
  8
SUNPO
  6
CONTINUOUS
 10
243.99099283197191
 20
298.54916059841651
 30
0.0
 11
243.99099283197191
 21
263.54916059841651
 31
0.0
  0
LINE
  5
162A
  8
SUNPO
  6
CONTINUOUS
 10
205.49099283197199
 20
298.54916059841651
 30
0.0
 11
243.99099283197191
 21
298.54916059841651
 31
0.0
  0
LINE
  5
162B
  8
SUNPO
  6
CONTINUOUS
 10
205.49099283197199
 20
263.54916059841651
 30
0.0
 11
243.99099283197191
 21
263.54916059841651
 31
0.0
  0
LINE
  5
162C
  8
SUNPO
  6
CONTINUOUS
 10
454.99099283197199
 20
81.549160598416563
 30
0.0
 11
429.99099283197199
 21
81.549160598416563
 31
0.0
  0
LINE
  5
162D
  8
SUNPO
  6
CONTINUOUS
 10
454.99099283197199
 20
110.54916059841651
 30
0.0
 11
454.99099283197199
 21
81.549160598416563
 31
0.0
  0
LINE
  5
162E
  8
SUNPO
  6
CONTINUOUS
 10
429.99099283197199
 20
110.04916059841651
 30
0.0
 11
429.99099283197199
 21
81.549160598416563
 31
0.0
  0
LINE
  5
162F
  8
SUNPO
  6
CONTINUOUS
 10
381.99099283197199
 20
130.8491605984164
 30
0.0
 11
381.99099283197199
 21
173.54916059841631
 31
0.0
  0
LINE
  5
1630
  8
DANMEN
  6
CONTINUOUS
 10
408.99099283197199
 20
173.54916059841631
 30
0.0
 11
381.99099283197199
 21
173.54916059841631
 31
0.0
  0
LINE
  5
1631
  8
DANMEN
  6
CONTINUOUS
 10
167.99099283197211
 20
111.54916059841651
 30
0.0
 11
173.99099283197211
 21
111.54916059841651
 31
0.0
  0
LINE
  5
1632
  8
DANMEN
  6
CONTINUOUS
 10
165.49099283197211
 20
111.54916059841651
 30
0.0
 11
165.99099283197211
 21
111.54916059841651
 31
0.0
  0
LINE
  5
1633
  8
DANMEN
  6
CONTINUOUS
 10
173.99099283197211
 20
109.7491605984164
 30
0.0
 11
174.49099283197211
 21
109.54916059841651
 31
0.0
  0
LINE
  5
1634
  8
DANMEN
  6
CONTINUOUS
 10
167.49099283197211
 20
109.54916059841651
 30
0.0
 11
167.99099283197211
 21
109.7491605984164
 31
0.0
  0
LINE
  5
1635
  8
DANMEN
  6
CONTINUOUS
 10
173.99099283197211
 20
109.7491605984164
 30
0.0
 11
173.99099283197211
 21
112.54916059841651
 31
0.0
  0
LINE
  5
1636
  8
DANMEN
  6
CONTINUOUS
 10
167.99099283197211
 20
109.7491605984164
 30
0.0
 11
167.99099283197211
 21
112.54916059841651
 31
0.0
  0
LINE
  5
1637
  8
DANMEN
  6
CONTINUOUS
 10
167.40499283197201
 20
112.54916059841651
 30
0.0
 11
167.99099283197211
 21
112.54916059841651
 31
0.0
  0
ARC
  5
1638
  8
DANMEN
  6
CONTINUOUS
 10
175.99099283197211
 20
112.54916059841651
 30
0.0
 40
1.0
 50
199.47099999999921
 51
270.0
  0
ARC
  5
1639
  8
DANMEN
  6
CONTINUOUS
 10
167.40499283197201
 20
112.04916059841651
 30
0.0
 40
0.5
 50
90.0
 51
160.5289999999996
  0
ARC
  5
163A
  8
DANMEN
  6
CONTINUOUS
 10
174.57699283197221
 20
112.04916059841651
 30
0.0
 40
0.5
 50
19.471000000000359
 51
90.0
  0
LINE
  5
163B
  8
DANMEN
  6
CONTINUOUS
 10
173.99099283197211
 20
112.54916059841651
 30
0.0
 11
174.57699283197221
 21
112.54916059841651
 31
0.0
  0
LINE
  5
163C
  8
DANMEN
  6
CONTINUOUS
 10
164.99099283197211
 20
109.54916059841651
 30
0.0
 11
167.49099283197211
 21
109.54916059841651
 31
0.0
  0
ARC
  5
163D
  8
DANMEN
  6
CONTINUOUS
 10
165.99099283197211
 20
112.54916059841651
 30
0.0
 40
1.0
 50
270.0
 51
340.52899999999948
  0
LINE
  5
163E
  8
DANMEN
  6
CONTINUOUS
 10
175.99099283197211
 20
111.54916059841651
 30
0.0
 11
176.49099283197211
 21
111.54916059841651
 31
0.0
  0
LINE
  5
163F
  8
DANMEN
  6
CONTINUOUS
 10
174.49099283197211
 20
109.54916059841651
 30
0.0
 11
176.99099283197211
 21
109.54916059841651
 31
0.0
  0
ARC
  5
1640
  8
DANMEN
  6
CONTINUOUS
 10
146.69099283197201
 20
94.844160598416579
 30
0.0
 40
1.0
 50
0.0
 51
110.74600000000071
  0
ARC
  5
1641
  8
DANMEN
  6
CONTINUOUS
 10
201.3409928319719
 20
124.27516059841651
 30
0.0
 40
1.0
 50
287.51900000000057
 51
0.0
  0
ARC
  5
1642
  8
DANMEN
  6
CONTINUOUS
 10
189.39299283197209
 20
118.2491605984164
 30
0.0
 40
0.5
 50
270.0
 51
287.51900000000057
  0
LINE
  5
1643
  8
DANMEN
  6
CONTINUOUS
 10
202.34099283197199
 20
121.8121605984165
 30
0.0
 11
189.54299283197199
 21
117.77216059841651
 31
0.0
  0
LINE
  5
1644
  8
DANMEN
  6
CONTINUOUS
 10
201.64199283197209
 20
123.3211605984164
 30
0.0
 11
189.69099283197201
 21
119.54916059841651
 31
0.0
  0
LINE
  5
1645
  8
DANMEN
  6
CONTINUOUS
 10
159.64099283197211
 20
117.7491605984164
 30
0.0
 11
162.99099283197211
 21
117.7491605984164
 31
0.0
  0
ARC
  5
1646
  8
DANMEN
  6
CONTINUOUS
 10
164.99099283197211
 20
111.54916059841651
 30
0.0
 40
2.0
 50
180.0
 51
270.0
  0
LINE
  5
1647
  8
DANMEN
  6
CONTINUOUS
 10
162.99099283197211
 20
111.54916059841651
 30
0.0
 11
162.99099283197211
 21
117.7491605984164
 31
0.0
  0
ARC
  5
1648
  8
DANMEN
  6
CONTINUOUS
 10
203.49099283197199
 20
89.049160598416563
 30
0.0
 40
0.5
 50
270.0
 51
0.0
  0
ARC
  5
1649
  8
DANMEN
  6
CONTINUOUS
 10
154.49099283197219
 20
89.049160598416563
 30
0.0
 40
0.5
 50
180.0
 51
270.0
  0
LINE
  5
164A
  8
DANMEN
  6
CONTINUOUS
 10
167.99099283197211
 20
119.54916059841651
 30
0.0
 11
173.99099283197211
 21
119.54916059841651
 31
0.0
  0
LINE
  5
164B
  8
DANMEN
  6
CONTINUOUS
 10
178.99099283197211
 20
111.54916059841651
 30
0.0
 11
178.99099283197211
 21
113.9491605984165
 31
0.0
  0
LINE
  5
164C
  8
DANMEN
  6
CONTINUOUS
 10
173.99099283197211
 20
117.04916059841651
 30
0.0
 11
174.57699283197221
 21
117.04916059841651
 31
0.0
  0
ARC
  5
164D
  8
DANMEN
  6
CONTINUOUS
 10
174.57699283197221
 20
117.54916059841651
 30
0.0
 40
0.5
 50
270.0
 51
340.52899999999948
  0
ARC
  5
164E
  8
DANMEN
  6
CONTINUOUS
 10
167.40499283197201
 20
117.54916059841651
 30
0.0
 40
0.5
 50
199.47099999999921
 51
270.0
  0
ARC
  5
164F
  8
DANMEN
  6
CONTINUOUS
 10
175.99099283197211
 20
117.04916059841651
 30
0.0
 40
1.0
 50
90.0
 51
160.5289999999996
  0
ARC
  5
1650
  8
DANMEN
  6
CONTINUOUS
 10
165.99099283197211
 20
117.04916059841651
 30
0.0
 40
1.0
 50
19.471000000000359
 51
90.0
  0
ARC
  5
1651
  8
DANMEN
  6
CONTINUOUS
 10
165.49099283197211
 20
117.54916059841651
 30
0.0
 40
0.5
 50
90.0
 51
180.0
  0
ARC
  5
1652
  8
DANMEN
  6
CONTINUOUS
 10
176.49099283197211
 20
117.54916059841651
 30
0.0
 40
0.5
 50
0.0
 51
90.0
  0
LINE
  5
1653
  8
DANMEN
  6
CONTINUOUS
 10
165.49099283197211
 20
118.04916059841651
 30
0.0
 11
165.99099283197211
 21
118.04916059841651
 31
0.0
  0
LINE
  5
1654
  8
DANMEN
  6
CONTINUOUS
 10
175.99099283197211
 20
118.04916059841651
 30
0.0
 11
176.49099283197211
 21
118.04916059841651
 31
0.0
  0
LINE
  5
1655
  8
DANMEN
  6
CONTINUOUS
 10
176.99099283197211
 20
112.04916059841651
 30
0.0
 11
176.99099283197211
 21
117.54916059841651
 31
0.0
  0
LINE
  5
1656
  8
DANMEN
  6
CONTINUOUS
 10
167.40499283197201
 20
117.04916059841651
 30
0.0
 11
167.99099283197211
 21
117.04916059841651
 31
0.0
  0
LINE
  5
1657
  8
DANMEN
  6
CONTINUOUS
 10
164.99099283197211
 20
112.04916059841651
 30
0.0
 11
164.99099283197211
 21
117.54916059841651
 31
0.0
  0
ARC
  5
1658
  8
DANMEN
  6
CONTINUOUS
 10
176.49099283197211
 20
112.04916059841651
 30
0.0
 40
0.5
 50
270.0
 51
0.0
  0
ARC
  5
1659
  8
DANMEN
  6
CONTINUOUS
 10
165.49099283197211
 20
112.04916059841651
 30
0.0
 40
0.5
 50
180.0
 51
270.0
  0
LINE
  5
165A
  8
DANMEN
  6
CONTINUOUS
 10
173.99099283197211
 20
119.54916059841651
 30
0.0
 11
173.99099283197211
 21
117.04916059841651
 31
0.0
  0
LINE
  5
165B
  8
DANMEN
  6
CONTINUOUS
 10
167.99099283197211
 20
119.54916059841651
 30
0.0
 11
167.99099283197211
 21
117.04916059841651
 31
0.0
  0
ARC
  5
165C
  8
DANMEN
  6
CONTINUOUS
 10
176.99099283197211
 20
111.54916059841651
 30
0.0
 40
2.0
 50
270.0
 51
0.0
  0
LINE
  5
165D
  8
DANMEN
  6
CONTINUOUS
 10
167.99099283197211
 20
119.54916059841651
 30
0.0
 11
145.64099283197211
 21
119.54916059841651
 31
0.0
  0
ARC
  5
165E
  8
DANMEN
  6
CONTINUOUS
 10
149.1739928319721
 20
97.549160598416563
 30
0.0
 40
1.0
 50
90.0
 51
110.74600000000071
  0
LINE
  5
165F
  8
DANMEN
  6
CONTINUOUS
 10
135.79099283197201
 20
93.549160598416563
 30
0.0
 11
148.81999283197209
 21
98.484160598416551
 31
0.0
  0
LINE
  5
1660
  8
DANMEN
  6
CONTINUOUS
 10
134.49099283197211
 20
93.549160598416563
 30
0.0
 11
135.79099283197201
 21
93.549160598416563
 31
0.0
  0
LINE
  5
1661
  8
DANMEN
  6
CONTINUOUS
 10
146.19099283197201
 20
138.54916059841651
 30
0.0
 11
145.64099283197211
 21
138.54916059841651
 31
0.0
  0
ARC
  5
1662
  8
DANMEN
  6
CONTINUOUS
 10
145.69099283197201
 20
143.04916059841651
 30
0.0
 40
0.5
 50
0.0
 51
90.0
  0
LINE
  5
1663
  8
DANMEN
  6
CONTINUOUS
 10
146.19099283197201
 20
143.04916059841651
 30
0.0
 11
146.19099283197201
 21
138.54916059841651
 31
0.0
  0
ARC
  5
1664
  8
DANMEN
  6
CONTINUOUS
 10
146.49099283197211
 20
84.199160598416583
 30
0.0
 40
1.0
 50
0.0
 51
90.0
  0
LINE
  5
1665
  8
DANMEN
  6
CONTINUOUS
 10
135.64099283197211
 20
85.199160598416583
 30
0.0
 11
146.49099283197211
 21
85.199160598416583
 31
0.0
  0
LINE
  5
1666
  8
DANMEN
  6
CONTINUOUS
 10
135.64099283197211
 20
91.728160598416565
 30
0.0
 11
135.64099283197211
 21
85.199160598416583
 31
0.0
  0
ARC
  5
1667
  8
DANMEN
  6
CONTINUOUS
 10
134.49099283197211
 20
93.049160598416563
 30
0.0
 40
0.5
 50
90.0
 51
180.0
  0
LINE
  5
1668
  8
DANMEN
  6
CONTINUOUS
 10
155.64099283197211
 20
96.899160598416572
 30
0.0
 11
159.14099283197211
 21
96.899160598416572
 31
0.0
  0
LINE
  5
1669
  8
DANMEN
  6
CONTINUOUS
 10
202.34099283197199
 20
121.8121605984165
 30
0.0
 11
202.34099283197199
 21
90.199160598416583
 31
0.0
  0
LINE
  5
166A
  8
DANMEN
  6
CONTINUOUS
 10
184.69099283197221
 20
119.54916059841651
 30
0.0
 11
184.69099283197221
 21
136.8991605984165
 31
0.0
  0
LINE
  5
166B
  8
DANMEN
  6
CONTINUOUS
 10
183.04099283197209
 20
119.54916059841651
 30
0.0
 11
173.99099283197211
 21
119.54916059841651
 31
0.0
  0
LINE
  5
166C
  8
DANMEN
  6
CONTINUOUS
 10
200.49099283197191
 20
143.04916059841651
 30
0.0
 11
200.49099283197191
 21
142.3491605984164
 31
0.0
  0
ARC
  5
166D
  8
DANMEN
  6
CONTINUOUS
 10
200.99099283197211
 20
143.04916059841651
 30
0.0
 40
0.5
 50
90.0
 51
180.0
  0
LINE
  5
166E
  8
DANMEN
  6
CONTINUOUS
 10
146.33699283197211
 20
95.779160598416581
 30
0.0
 11
135.64099283197211
 21
91.728160598416565
 31
0.0
  0
ARC
  5
166F
  8
DANMEN
  6
CONTINUOUS
 10
181.59099283197199
 20
114.2491605984164
 30
0.0
 40
0.3
 50
270.0
 51
0.0
  0
ARC
  5
1670
  8
DANMEN
  6
CONTINUOUS
 10
184.39099283197189
 20
114.2491605984164
 30
0.0
 40
0.3
 50
180.0
 51
270.0
  0
LINE
  5
1671
  8
DANMEN
  6
CONTINUOUS
 10
184.39099283197189
 20
113.9491605984165
 30
0.0
 11
185.52999283197201
 21
113.9491605984165
 31
0.0
  0
LINE
  5
1672
  8
DANMEN
  6
CONTINUOUS
 10
178.99099283197211
 20
113.9491605984165
 30
0.0
 11
181.59099283197199
 21
113.9491605984165
 31
0.0
  0
LINE
  5
1673
  8
DANMEN
  6
CONTINUOUS
 10
182.1909928319721
 20
117.8491605984165
 30
0.0
 11
183.79099283197189
 21
117.8491605984165
 31
0.0
  0
LINE
  5
1674
  8
DANMEN
  6
CONTINUOUS
 10
181.1909928319721
 20
115.60316059841639
 30
0.0
 11
181.1909928319721
 21
116.8491605984165
 31
0.0
  0
ARC
  5
1675
  8
DANMEN
  6
CONTINUOUS
 10
183.79099283197189
 20
116.8491605984165
 30
0.0
 40
1.0
 50
0.0
 51
90.0
  0
ARC
  5
1676
  8
DANMEN
  6
CONTINUOUS
 10
182.1909928319721
 20
116.8491605984165
 30
0.0
 40
1.0
 50
90.0
 51
180.0
  0
LINE
  5
1677
  8
DANMEN
  6
CONTINUOUS
 10
181.89099283197211
 20
114.2491605984164
 30
0.0
 11
181.89099283197211
 21
114.5121605984165
 31
0.0
  0
ARC
  5
1678
  8
DANMEN
  6
CONTINUOUS
 10
182.1909928319721
 20
115.60316059841639
 30
0.0
 40
1.0
 50
180.0
 51
245.37599999999989
  0
ARC
  5
1679
  8
DANMEN
  6
CONTINUOUS
 10
181.69099283197221
 20
114.5121605984165
 30
0.0
 40
0.2
 50
0.0
 51
65.37600000000009
  0
LINE
  5
167A
  8
DANMEN
  6
CONTINUOUS
 10
184.79099283197201
 20
115.60316059841639
 30
0.0
 11
184.79099283197201
 21
116.8491605984165
 31
0.0
  0
LINE
  5
167B
  8
DANMEN
  6
CONTINUOUS
 10
186.29099283197201
 20
115.51916059841651
 30
0.0
 11
186.29099283197201
 21
116.7491605984164
 31
0.0
  0
ARC
  5
167C
  8
DANMEN
  6
CONTINUOUS
 10
184.29099283197209
 20
115.51916059841651
 30
0.0
 40
2.0
 50
308.29299999999972
 51
0.0
  0
ARC
  5
167D
  8
DANMEN
  6
CONTINUOUS
 10
184.29099283197209
 20
114.5121605984165
 30
0.0
 40
0.2
 50
114.6239999999999
 51
180.0
  0
ARC
  5
167E
  8
DANMEN
  6
CONTINUOUS
 10
183.79099283197189
 20
115.60316059841639
 30
0.0
 40
1.0
 50
294.62399999999991
 51
0.0
  0
LINE
  5
167F
  8
DANMEN
  6
CONTINUOUS
 10
184.09099283197199
 20
114.2491605984164
 30
0.0
 11
184.09099283197199
 21
114.5121605984165
 31
0.0
  0
LINE
  5
1680
  8
DANMEN
  6
CONTINUOUS
 10
200.49099283197191
 20
142.3491605984164
 30
0.0
 11
202.34099283197199
 21
142.3491605984164
 31
0.0
  0
ARC
  5
1681
  8
DANMEN
  6
CONTINUOUS
 10
182.69099283197221
 20
143.04916059841651
 30
0.0
 40
0.5
 50
90.0
 51
180.0
  0
LINE
  5
1682
  8
DANMEN
  6
CONTINUOUS
 10
183.04099283197209
 20
138.54916059841651
 30
0.0
 11
182.1909928319721
 21
138.54916059841651
 31
0.0
  0
LINE
  5
1683
  8
DANMEN
  6
CONTINUOUS
 10
184.19099283197201
 20
143.54916059841651
 30
0.0
 11
182.69099283197221
 21
143.54916059841651
 31
0.0
  0
LINE
  5
1684
  8
DANMEN
  6
CONTINUOUS
 10
182.1909928319721
 20
143.04916059841651
 30
0.0
 11
182.1909928319721
 21
138.54916059841651
 31
0.0
  0
LINE
  5
1685
  8
DANMEN
  6
CONTINUOUS
 10
159.64099283197211
 20
117.7491605984164
 30
0.0
 11
159.64099283197211
 21
97.399160598416557
 31
0.0
  0
ARC
  5
1686
  8
DANMEN
  6
CONTINUOUS
 10
144.99099283197211
 20
112.04916059841651
 30
0.0
 40
0.5
 50
270.0
 51
0.0
  0
ARC
  5
1687
  8
DANMEN
  6
CONTINUOUS
 10
144.49099283197211
 20
112.04916059841651
 30
0.0
 40
0.5
 50
180.0
 51
270.0
  0
LINE
  5
1688
  8
DANMEN
  6
CONTINUOUS
 10
157.99099283197211
 20
117.7491605984164
 30
0.0
 11
157.99099283197211
 21
98.549160598416563
 31
0.0
  0
LINE
  5
1689
  8
DANMEN
  6
CONTINUOUS
 10
145.49099283197211
 20
117.7491605984164
 30
0.0
 11
145.49099283197211
 21
112.04916059841651
 31
0.0
  0
LINE
  5
168A
  8
DANMEN
  6
CONTINUOUS
 10
145.64099283197211
 20
119.54916059841651
 30
0.0
 11
145.64099283197211
 21
138.54916059841651
 31
0.0
  0
LINE
  5
168B
  8
DANMEN
  6
CONTINUOUS
 10
189.69099283197201
 20
119.54916059841651
 30
0.0
 11
184.69099283197221
 21
119.54916059841651
 31
0.0
  0
ARC
  5
168C
  8
DANMEN
  6
CONTINUOUS
 10
184.19099283197201
 20
143.04916059841651
 30
0.0
 40
0.5
 50
0.0
 51
90.0
  0
LINE
  5
168D
  8
DANMEN
  6
CONTINUOUS
 10
144.49099283197211
 20
111.54916059841651
 30
0.0
 11
144.99099283197211
 21
111.54916059841651
 31
0.0
  0
LINE
  5
168E
  8
DANMEN
  6
CONTINUOUS
 10
145.49099283197211
 20
117.7491605984164
 30
0.0
 11
157.99099283197211
 21
117.7491605984164
 31
0.0
  0
LINE
  5
168F
  8
DANMEN
  6
CONTINUOUS
 10
200.99099283197211
 20
143.54916059841651
 30
0.0
 11
203.49099283197199
 21
143.54916059841651
 31
0.0
  0
LINE
  5
1690
  8
DANMEN
  6
CONTINUOUS
 10
152.0909928319721
 20
93.24916059841658
 30
0.0
 11
152.0909928319721
 21
93.512160598416557
 31
0.0
  0
ARC
  5
1691
  8
DANMEN
  6
CONTINUOUS
 10
151.79099283197209
 20
94.603160598416551
 30
0.0
 40
1.0
 50
294.62399999999991
 51
0.0
  0
ARC
  5
1692
  8
DANMEN
  6
CONTINUOUS
 10
152.29099283197201
 20
93.512160598416557
 30
0.0
 40
0.2
 50
114.6239999999999
 51
180.0
  0
LINE
  5
1693
  8
DANMEN
  6
CONTINUOUS
 10
152.79099283197201
 20
94.603160598416551
 30
0.0
 11
152.79099283197201
 21
95.849160598416503
 31
0.0
  0
ARC
  5
1694
  8
DANMEN
  6
CONTINUOUS
 10
149.69099283197201
 20
94.519160598416519
 30
0.0
 40
2.0
 50
180.0
 51
231.70699999999971
  0
ARC
  5
1695
  8
DANMEN
  6
CONTINUOUS
 10
149.69099283197201
 20
93.512160598416557
 30
0.0
 40
0.2
 50
0.0
 51
65.37600000000009
  0
ARC
  5
1696
  8
DANMEN
  6
CONTINUOUS
 10
150.1909928319721
 20
94.603160598416551
 30
0.0
 40
1.0
 50
180.0
 51
245.37599999999989
  0
LINE
  5
1697
  8
DANMEN
  6
CONTINUOUS
 10
149.89099283197211
 20
93.24916059841658
 30
0.0
 11
149.89099283197211
 21
93.512160598416557
 31
0.0
  0
ARC
  5
1698
  8
DANMEN
  6
CONTINUOUS
 10
150.1909928319721
 20
95.849160598416503
 30
0.0
 40
1.0
 50
90.0
 51
180.0
  0
ARC
  5
1699
  8
DANMEN
  6
CONTINUOUS
 10
151.79099283197209
 20
95.849160598416503
 30
0.0
 40
1.0
 50
0.0
 51
90.0
  0
LINE
  5
169A
  8
DANMEN
  6
CONTINUOUS
 10
147.69099283197201
 20
94.519160598416519
 30
0.0
 11
147.69099283197201
 21
94.844160598416579
 31
0.0
  0
LINE
  5
169B
  8
DANMEN
  6
CONTINUOUS
 10
149.1909928319721
 20
94.603160598416551
 30
0.0
 11
149.1909928319721
 21
95.849160598416503
 31
0.0
  0
LINE
  5
169C
  8
DANMEN
  6
CONTINUOUS
 10
150.1909928319721
 20
96.84916059841656
 30
0.0
 11
151.79099283197209
 21
96.84916059841656
 31
0.0
  0
LINE
  5
169D
  8
DANMEN
  6
CONTINUOUS
 10
148.45199283197209
 20
92.949160598416583
 30
0.0
 11
149.59099283197199
 21
92.949160598416583
 31
0.0
  0
LINE
  5
169E
  8
DANMEN
  6
CONTINUOUS
 10
152.39099283197211
 20
92.949160598416583
 30
0.0
 11
153.99099283197211
 21
92.949160598416583
 31
0.0
  0
ARC
  5
169F
  8
DANMEN
  6
CONTINUOUS
 10
152.39099283197211
 20
93.24916059841658
 30
0.0
 40
0.3
 50
180.0
 51
270.0
  0
ARC
  5
16A0
  8
DANMEN
  6
CONTINUOUS
 10
149.59099283197199
 20
93.24916059841658
 30
0.0
 40
0.3
 50
270.0
 51
0.0
  0
ARC
  5
16A1
  8
DANMEN
  6
CONTINUOUS
 10
134.49099283197211
 20
84.049160598416563
 30
0.0
 40
0.5
 50
180.0
 51
270.0
  0
LINE
  5
16A2
  8
DANMEN
  6
CONTINUOUS
 10
134.49099283197211
 20
83.549160598416563
 30
0.0
 11
145.99099283197211
 21
83.549160598416563
 31
0.0
  0
ARC
  5
16A3
  8
DANMEN
  6
CONTINUOUS
 10
146.99099283197211
 20
75.049160598416563
 30
0.0
 40
0.5
 50
270.0
 51
0.0
  0
ARC
  5
16A4
  8
DANMEN
  6
CONTINUOUS
 10
146.49099283197211
 20
75.049160598416563
 30
0.0
 40
0.5
 50
180.0
 51
270.0
  0
LINE
  5
16A5
  8
DANMEN
  6
CONTINUOUS
 10
146.49099283197211
 20
74.54916059841662
 30
0.0
 11
146.99099283197211
 21
74.54916059841662
 31
0.0
  0
LINE
  5
16A6
  8
DANMEN
  6
CONTINUOUS
 10
147.49099283197211
 20
84.199160598416583
 30
0.0
 11
147.49099283197211
 21
75.049160598416563
 31
0.0
  0
LINE
  5
16A7
  8
DANMEN
  6
CONTINUOUS
 10
145.99099283197211
 20
83.549160598416563
 30
0.0
 11
145.99099283197211
 21
75.049160598416563
 31
0.0
  0
LINE
  5
16A8
  8
DANMEN
  6
CONTINUOUS
 10
133.99099283197211
 20
93.049160598416563
 30
0.0
 11
133.99099283197211
 21
84.049160598416563
 31
0.0
  0
LINE
  5
16A9
  8
DANMEN
  6
CONTINUOUS
 10
149.1739928319721
 20
98.549160598416563
 30
0.0
 11
157.99099283197211
 21
98.549160598416563
 31
0.0
  0
LINE
  5
16AA
  8
DANMEN
  6
CONTINUOUS
 10
183.04099283197209
 20
119.54916059841651
 30
0.0
 11
183.04099283197209
 21
138.54916059841651
 31
0.0
  0
LINE
  5
16AB
  8
DANMEN
  6
CONTINUOUS
 10
202.34099283197199
 20
142.3491605984164
 30
0.0
 11
202.34099283197199
 21
138.54916059841651
 31
0.0
  0
LINE
  5
16AC
  8
DANMEN
  6
CONTINUOUS
 10
143.99099283197211
 20
143.04916059841651
 30
0.0
 11
143.99099283197211
 21
112.04916059841651
 31
0.0
  0
LINE
  5
16AD
  8
DANMEN
  6
CONTINUOUS
 10
202.34099283197199
 20
136.8991605984165
 30
0.0
 11
202.34099283197199
 21
124.27516059841651
 31
0.0
  0
LINE
  5
16AE
  8
DANMEN
  6
CONTINUOUS
 10
184.69099283197221
 20
136.8991605984165
 30
0.0
 11
202.34099283197199
 21
136.8991605984165
 31
0.0
  0
LINE
  5
16AF
  8
DANMEN
  6
CONTINUOUS
 10
184.69099283197221
 20
138.54916059841651
 30
0.0
 11
202.34099283197199
 21
138.54916059841651
 31
0.0
  0
LINE
  5
16B0
  8
DANMEN
  6
CONTINUOUS
 10
184.69099283197221
 20
143.04916059841651
 30
0.0
 11
184.69099283197221
 21
138.54916059841651
 31
0.0
  0
LINE
  5
16B1
  8
DANMEN
  6
CONTINUOUS
 10
203.99099283197191
 20
142.44916059841651
 30
0.0
 11
203.99099283197191
 21
89.049160598416563
 31
0.0
  0
LINE
  5
16B2
  8
DANMEN
  6
CONTINUOUS
 10
144.49099283197211
 20
143.54916059841651
 30
0.0
 11
145.69099283197201
 21
143.54916059841651
 31
0.0
  0
ARC
  5
16B3
  8
DANMEN
  6
CONTINUOUS
 10
144.49099283197211
 20
143.04916059841651
 30
0.0
 40
0.5
 50
90.0
 51
180.0
  0
LINE
  5
16B4
  8
DANMEN
  6
CONTINUOUS
 10
187.29099283197209
 20
117.7491605984164
 30
0.0
 11
189.39299283197209
 21
117.7491605984164
 31
0.0
  0
ARC
  5
16B5
  8
DANMEN
  6
CONTINUOUS
 10
187.29099283197209
 20
116.7491605984164
 30
0.0
 40
1.0
 50
90.0
 51
180.0
  0
LINE
  5
16B6
  8
DANMEN
  6
CONTINUOUS
 10
154.49099283197219
 20
88.549160598416563
 30
0.0
 11
163.49099283197211
 21
88.549160598416563
 31
0.0
  0
LINE
  5
16B7
  8
DANMEN
  6
CONTINUOUS
 10
155.64099283197211
 20
90.199160598416583
 30
0.0
 11
163.49099283197211
 21
90.199160598416583
 31
0.0
  0
LINE
  5
16B8
  8
DANMEN
  6
CONTINUOUS
 10
153.99099283197211
 20
89.049160598416563
 30
0.0
 11
153.99099283197211
 21
92.949160598416583
 31
0.0
  0
LINE
  5
16B9
  8
DANMEN
  6
CONTINUOUS
 10
155.64099283197211
 20
90.199160598416583
 30
0.0
 11
155.64099283197211
 21
96.899160598416572
 31
0.0
  0
ARC
  5
16BA
  8
DANMEN
  6
CONTINUOUS
 10
159.14099283197211
 20
97.399160598416557
 30
0.0
 40
0.5
 50
270.0
 51
0.0
  0
LINE
  5
16BB
  8
DANMEN
  6
CONTINUOUS
 10
163.99099283197211
 20
89.049160598416563
 30
0.0
 11
163.99099283197211
 21
89.69916059841654
 31
0.0
  0
ARC
  5
16BC
  8
DANMEN
  6
CONTINUOUS
 10
163.49099283197211
 20
89.69916059841654
 30
0.0
 40
0.5
 50
0.0
 51
90.0
  0
ARC
  5
16BD
  8
DANMEN
  6
CONTINUOUS
 10
163.49099283197211
 20
89.049160598416563
 30
0.0
 40
0.5
 50
270.0
 51
0.0
  0
LINE
  5
16BE
  8
DANMEN
  6
CONTINUOUS
 10
203.49099283197199
 20
88.549160598416563
 30
0.0
 11
194.49099283197191
 21
88.549160598416563
 31
0.0
  0
LINE
  5
16BF
  8
DANMEN
  6
CONTINUOUS
 10
202.34099283197199
 20
90.199160598416583
 30
0.0
 11
194.49099283197191
 21
90.199160598416583
 31
0.0
  0
LINE
  5
16C0
  8
DANMEN
  6
CONTINUOUS
 10
193.99099283197199
 20
89.69916059841654
 30
0.0
 11
193.99099283197199
 21
89.049160598416563
 31
0.0
  0
ARC
  5
16C1
  8
DANMEN
  6
CONTINUOUS
 10
194.49099283197191
 20
89.69916059841654
 30
0.0
 40
0.5
 50
90.0
 51
180.0
  0
ARC
  5
16C2
  8
DANMEN
  6
CONTINUOUS
 10
194.49099283197191
 20
89.049160598416563
 30
0.0
 40
0.5
 50
180.0
 51
270.0
  0
LINE
  5
16C3
  8
DANMEN
  6
CONTINUOUS
 10
452.99099283197188
 20
141.54916059841651
 30
0.0
 11
454.79099283197189
 21
141.54916059841651
 31
0.0
  0
LINE
  5
16C4
  8
DANMEN
  6
CONTINUOUS
 10
452.99099283197188
 20
147.54916059841651
 30
0.0
 11
454.79099283197189
 21
147.54916059841651
 31
0.0
  0
LINE
  5
16C5
  8
DANMEN
  6
CONTINUOUS
 10
444.99099283197188
 20
147.54916059841651
 30
0.0
 11
444.99099283197188
 21
141.54916059841651
 31
0.0
  0
ARC
  5
16C6
  8
DANMEN
  6
CONTINUOUS
 10
446.99099283197211
 20
139.04916059841639
 30
0.0
 40
0.5
 50
180.0
 51
270.0
  0
LINE
  5
16C7
  8
DANMEN
  6
CONTINUOUS
 10
447.49099283197199
 20
141.54916059841651
 30
0.0
 11
447.49099283197199
 21
140.96316059841641
 31
0.0
  0
ARC
  5
16C8
  8
DANMEN
  6
CONTINUOUS
 10
446.99099283197211
 20
140.96316059841641
 30
0.0
 40
0.5
 50
289.47099999999921
 51
0.0
  0
ARC
  5
16C9
  8
DANMEN
  6
CONTINUOUS
 10
446.99099283197211
 20
148.13516059841641
 30
0.0
 40
0.5
 50
0.0
 51
70.529000000000551
  0
ARC
  5
16CA
  8
DANMEN
  6
CONTINUOUS
 10
447.49099283197199
 20
139.54916059841651
 30
0.0
 40
1.0
 50
109.47099999999919
 51
180.0
  0
ARC
  5
16CB
  8
DANMEN
  6
CONTINUOUS
 10
447.49099283197199
 20
149.54916059841651
 30
0.0
 40
1.0
 50
180.0
 51
250.52900000000011
  0
LINE
  5
16CC
  8
DANMEN
  6
CONTINUOUS
 10
446.49099283197199
 20
150.04916059841651
 30
0.0
 11
446.49099283197199
 21
149.54916059841651
 31
0.0
  0
LINE
  5
16CD
  8
DANMEN
  6
CONTINUOUS
 10
447.49099283197199
 20
148.13516059841641
 30
0.0
 11
447.49099283197199
 21
147.54916059841651
 31
0.0
  0
LINE
  5
16CE
  8
DANMEN
  6
CONTINUOUS
 10
444.99099283197188
 20
141.54916059841651
 30
0.0
 11
447.49099283197199
 21
141.54916059841651
 31
0.0
  0
LINE
  5
16CF
  8
DANMEN
  6
CONTINUOUS
 10
444.99099283197188
 20
147.54916059841651
 30
0.0
 11
447.49099283197199
 21
147.54916059841651
 31
0.0
  0
LINE
  5
16D0
  8
DANMEN
  6
CONTINUOUS
 10
446.49099283197199
 20
139.54916059841651
 30
0.0
 11
446.49099283197199
 21
139.04916059841639
 31
0.0
  0
ARC
  5
16D1
  8
DANMEN
  6
CONTINUOUS
 10
446.99099283197211
 20
150.04916059841651
 30
0.0
 40
0.5
 50
90.0
 51
180.0
  0
ARC
  5
16D2
  8
DANMEN
  6
CONTINUOUS
 10
452.99099283197188
 20
138.54916059841651
 30
0.0
 40
2.0
 50
270.0
 51
0.0
  0
LINE
  5
16D3
  8
DANMEN
  6
CONTINUOUS
 10
454.79099283197189
 20
141.54916059841651
 30
0.0
 11
454.99099283197199
 21
141.04916059841651
 31
0.0
  0
LINE
  5
16D4
  8
DANMEN
  6
CONTINUOUS
 10
454.99099283197199
 20
148.04916059841651
 30
0.0
 11
454.79099283197189
 21
147.54916059841651
 31
0.0
  0
LINE
  5
16D5
  8
DANMEN
  6
CONTINUOUS
 10
454.99099283197199
 20
148.04916059841651
 30
0.0
 11
454.99099283197199
 21
160.04916059841651
 31
0.0
  0
LINE
  5
16D6
  8
DANMEN
  6
CONTINUOUS
 10
452.99099283197188
 20
141.54916059841651
 30
0.0
 11
451.99099283197188
 21
141.54916059841651
 31
0.0
  0
LINE
  5
16D7
  8
DANMEN
  6
CONTINUOUS
 10
452.99099283197188
 20
147.54916059841651
 30
0.0
 11
451.99099283197188
 21
147.54916059841651
 31
0.0
  0
LINE
  5
16D8
  8
DANMEN
  6
CONTINUOUS
 10
451.99099283197188
 20
148.13516059841641
 30
0.0
 11
451.99099283197188
 21
147.54916059841651
 31
0.0
  0
LINE
  5
16D9
  8
DANMEN
  6
CONTINUOUS
 10
452.99099283197188
 20
139.54916059841651
 30
0.0
 11
452.99099283197188
 21
139.04916059841639
 31
0.0
  0
LINE
  5
16DA
  8
DANMEN
  6
CONTINUOUS
 10
452.99099283197188
 20
150.04916059841651
 30
0.0
 11
452.99099283197188
 21
149.54916059841651
 31
0.0
  0
ARC
  5
16DB
  8
DANMEN
  6
CONTINUOUS
 10
452.49099283197188
 20
139.04916059841639
 30
0.0
 40
0.5
 50
270.0
 51
0.0
  0
ARC
  5
16DC
  8
DANMEN
  6
CONTINUOUS
 10
452.49099283197188
 20
150.04916059841651
 30
0.0
 40
0.5
 50
0.0
 51
90.0
  0
ARC
  5
16DD
  8
DANMEN
  6
CONTINUOUS
 10
451.99099283197188
 20
149.54916059841651
 30
0.0
 40
1.0
 50
289.47099999999921
 51
0.0
  0
ARC
  5
16DE
  8
DANMEN
  6
CONTINUOUS
 10
451.99099283197188
 20
139.54916059841651
 30
0.0
 40
1.0
 50
0.0
 51
70.529000000000551
  0
ARC
  5
16DF
  8
DANMEN
  6
CONTINUOUS
 10
452.49099283197188
 20
148.13516059841641
 30
0.0
 40
0.5
 50
109.47099999999919
 51
180.0
  0
ARC
  5
16E0
  8
DANMEN
  6
CONTINUOUS
 10
452.49099283197188
 20
140.96316059841641
 30
0.0
 40
0.5
 50
180.0
 51
250.52900000000011
  0
LINE
  5
16E1
  8
DANMEN
  6
CONTINUOUS
 10
451.99099283197188
 20
141.54916059841651
 30
0.0
 11
451.99099283197188
 21
140.96316059841641
 31
0.0
  0
LINE
  5
16E2
  8
DANMEN
  6
CONTINUOUS
 10
454.99099283197199
 20
138.54916059841651
 30
0.0
 11
454.99099283197199
 21
141.04916059841651
 31
0.0
  0
LINE
  5
16E3
  8
DANMEN
  6
CONTINUOUS
 10
452.49099283197188
 20
150.54916059841651
 30
0.0
 11
446.99099283197211
 21
150.54916059841651
 31
0.0
  0
LINE
  5
16E4
  8
DANMEN
  6
CONTINUOUS
 10
452.49099283197188
 20
138.54916059841651
 30
0.0
 11
446.99099283197211
 21
138.54916059841651
 31
0.0
  0
LINE
  5
16E5
  8
DANMEN
  6
CONTINUOUS
 10
453.3409928319719
 20
152.54916059841631
 30
0.0
 11
446.64099283197191
 21
152.54916059841631
 31
0.0
  0
LINE
  5
16E6
  8
DANMEN
  6
CONTINUOUS
 10
452.99099283197188
 20
136.54916059841651
 30
0.0
 11
446.64099283197191
 21
136.54916059841651
 31
0.0
  0
LINE
  5
16E7
  8
DANMEN
  6
CONTINUOUS
 10
444.99099283197188
 20
147.54916059841651
 30
0.0
 11
444.99099283197188
 21
171.89916059841639
 31
0.0
  0
LINE
  5
16E8
  8
DANMEN
  6
CONTINUOUS
 10
446.64099283197191
 20
136.54916059841651
 30
0.0
 11
446.64099283197191
 21
113.1991605984165
 31
0.0
  0
LINE
  5
16E9
  8
DANMEN
  6
CONTINUOUS
 10
414.99099283197188
 20
169.8491605984164
 30
0.0
 11
414.99099283197188
 21
169.3491605984164
 31
0.0
  0
LINE
  5
16EA
  8
DANMEN
  6
CONTINUOUS
 10
411.19099283197193
 20
170.3491605984164
 30
0.0
 11
411.19099283197193
 21
171.89916059841639
 31
0.0
  0
ARC
  5
16EB
  8
DANMEN
  6
CONTINUOUS
 10
410.49099283197188
 20
169.8491605984164
 30
0.0
 40
0.5
 50
180.0
 51
270.0
  0
LINE
  5
16EC
  8
DANMEN
  6
CONTINUOUS
 10
414.99099283197188
 20
169.3491605984164
 30
0.0
 11
410.49099283197188
 21
169.3491605984164
 31
0.0
  0
LINE
  5
16ED
  8
DANMEN
  6
CONTINUOUS
 10
411.19099283197193
 20
171.89916059841639
 30
0.0
 11
444.99099283197188
 21
171.89916059841639
 31
0.0
  0
LINE
  5
16EE
  8
DANMEN
  6
CONTINUOUS
 10
444.99099283197188
 20
112.6491605984164
 30
0.0
 11
442.99099283197199
 21
112.6491605984164
 31
0.0
  0
LINE
  5
16EF
  8
DANMEN
  6
CONTINUOUS
 10
442.99099283197199
 20
113.1991605984165
 30
0.0
 11
430.49099283197199
 21
113.1991605984165
 31
0.0
  0
LINE
  5
16F0
  8
DANMEN
  6
CONTINUOUS
 10
453.3409928319719
 20
113.1991605984165
 30
0.0
 11
446.64099283197191
 21
113.1991605984165
 31
0.0
  0
LINE
  5
16F1
  8
DANMEN
  6
CONTINUOUS
 10
444.99099283197188
 20
180.44916059841631
 30
0.0
 11
442.99099283197199
 21
180.44916059841631
 31
0.0
  0
ARC
  5
16F2
  8
DANMEN
  6
CONTINUOUS
 10
430.49099283197199
 20
180.39916059841639
 30
0.0
 40
0.5
 50
180.0
 51
270.0
  0
ARC
  5
16F3
  8
DANMEN
  6
CONTINUOUS
 10
430.49099283197199
 20
181.04916059841639
 30
0.0
 40
0.5
 50
90.0
 51
180.0
  0
LINE
  5
16F4
  8
DANMEN
  6
CONTINUOUS
 10
446.64099283197191
 20
179.89916059841639
 30
0.0
 11
446.64099283197191
 21
152.54916059841631
 31
0.0
  0
ARC
  5
16F5
  8
DANMEN
  6
CONTINUOUS
 10
454.49099283197199
 20
121.04916059841651
 30
0.0
 40
0.5
 50
0.0
 51
90.0
  0
ARC
  5
16F6
  8
DANMEN
  6
CONTINUOUS
 10
453.84099283197207
 20
121.04916059841651
 30
0.0
 40
0.5
 50
90.0
 51
180.0
  0
LINE
  5
16F7
  8
DANMEN
  6
CONTINUOUS
 10
453.3409928319719
 20
113.1991605984165
 30
0.0
 11
453.3409928319719
 21
121.04916059841651
 31
0.0
  0
LINE
  5
16F8
  8
DANMEN
  6
CONTINUOUS
 10
442.99099283197199
 20
179.89916059841639
 30
0.0
 11
430.49099283197199
 21
179.89916059841639
 31
0.0
  0
LINE
  5
16F9
  8
DANMEN
  6
CONTINUOUS
 10
453.3409928319719
 20
179.89916059841639
 30
0.0
 11
446.64099283197191
 21
179.89916059841639
 31
0.0
  0
LINE
  5
16FA
  8
DANMEN
  6
CONTINUOUS
 10
444.99099283197188
 20
132.49916059841641
 30
0.0
 11
444.99099283197188
 21
141.54916059841651
 31
0.0
  0
LINE
  5
16FB
  8
DANMEN
  6
CONTINUOUS
 10
444.99099283197188
 20
130.8491605984164
 30
0.0
 11
444.99099283197188
 21
112.6491605984164
 31
0.0
  0
LINE
  5
16FC
  8
DANMEN
  6
CONTINUOUS
 10
444.99099283197188
 20
173.54916059841631
 30
0.0
 11
410.49099283197188
 21
173.54916059841631
 31
0.0
  0
ARC
  5
16FD
  8
DANMEN
  6
CONTINUOUS
 10
430.49099283197199
 20
112.6991605984164
 30
0.0
 40
0.5
 50
90.0
 51
180.0
  0
LINE
  5
16FE
  8
DANMEN
  6
CONTINUOUS
 10
429.99099283197199
 20
181.04916059841639
 30
0.0
 11
429.99099283197199
 21
180.39916059841639
 31
0.0
  0
LINE
  5
16FF
  8
DANMEN
  6
CONTINUOUS
 10
454.99099283197199
 20
112.04916059841651
 30
0.0
 11
454.99099283197199
 21
121.04916059841651
 31
0.0
  0
LINE
  5
1700
  8
DANMEN
  6
CONTINUOUS
 10
454.49099283197199
 20
181.54916059841631
 30
0.0
 11
430.49099283197199
 21
181.54916059841631
 31
0.0
  0
LINE
  5
1701
  8
DANMEN
  6
CONTINUOUS
 10
444.99099283197188
 20
180.44916059841631
 30
0.0
 11
444.99099283197188
 21
173.54916059841631
 31
0.0
  0
LINE
  5
1702
  8
DANMEN
  6
CONTINUOUS
 10
454.49099283197199
 20
121.54916059841651
 30
0.0
 11
453.84099283197207
 21
121.54916059841651
 31
0.0
  0
LINE
  5
1703
  8
DANMEN
  6
CONTINUOUS
 10
454.99099283197199
 20
176.04916059841639
 30
0.0
 11
454.99099283197199
 21
181.04916059841639
 31
0.0
  0
ARC
  5
1704
  8
DANMEN
  6
CONTINUOUS
 10
454.49099283197199
 20
181.04916059841639
 30
0.0
 40
0.5
 50
0.0
 51
90.0
  0
ARC
  5
1705
  8
DANMEN
  6
CONTINUOUS
 10
454.49099283197199
 20
112.04916059841651
 30
0.0
 40
0.5
 50
270.0
 51
0.0
  0
LINE
  5
1706
  8
DANMEN
  6
CONTINUOUS
 10
442.99099283197199
 20
180.44916059841631
 30
0.0
 11
442.99099283197199
 21
179.89916059841639
 31
0.0
  0
LINE
  5
1707
  8
DANMEN
  6
CONTINUOUS
 10
442.99099283197199
 20
112.6491605984164
 30
0.0
 11
442.99099283197199
 21
113.1991605984165
 31
0.0
  0
ARC
  5
1708
  8
DANMEN
  6
CONTINUOUS
 10
430.49099283197199
 20
112.04916059841651
 30
0.0
 40
0.5
 50
180.0
 51
270.0
  0
LINE
  5
1709
  8
DANMEN
  6
CONTINUOUS
 10
429.99099283197199
 20
112.04916059841651
 30
0.0
 11
429.99099283197199
 21
112.6991605984164
 31
0.0
  0
LINE
  5
170A
  8
DANMEN
  6
CONTINUOUS
 10
454.49099283197199
 20
111.54916059841651
 30
0.0
 11
444.99099283197188
 21
111.54916059841651
 31
0.0
  0
LINE
  5
170B
  8
DANMEN
  6
CONTINUOUS
 10
439.49099283197188
 20
132.49916059841641
 30
0.0
 11
444.99099283197188
 21
132.49916059841641
 31
0.0
  0
LINE
  5
170C
  8
DANMEN
  6
CONTINUOUS
 10
429.99099283197199
 20
130.8491605984164
 30
0.0
 11
444.99099283197188
 21
130.8491605984164
 31
0.0
  0
LINE
  5
170D
  8
DANMEN
  6
CONTINUOUS
 10
437.99099283197199
 20
136.34916059841629
 30
0.0
 11
437.99099283197199
 21
132.49916059841641
 31
0.0
  0
LINE
  5
170E
  8
DANMEN
  6
CONTINUOUS
 10
431.99099283197188
 20
132.49916059841641
 30
0.0
 11
437.99099283197199
 21
132.49916059841641
 31
0.0
  0
LINE
  5
170F
  8
DANMEN
  6
CONTINUOUS
 10
439.49099283197188
 20
137.04916059841651
 30
0.0
 11
439.49099283197188
 21
132.49916059841641
 31
0.0
  0
LINE
  5
1710
  8
DANMEN
  6
CONTINUOUS
 10
409.99099283197199
 20
173.04916059841631
 30
0.0
 11
409.99099283197199
 21
169.8491605984164
 31
0.0
  0
ARC
  5
1711
  8
DANMEN
  6
CONTINUOUS
 10
410.49099283197188
 20
173.04916059841631
 30
0.0
 40
0.5
 50
90.0
 51
180.0
  0
LINE
  5
1712
  8
DANMEN
  6
CONTINUOUS
 10
429.99099283197199
 20
132.54016059841641
 30
0.0
 11
429.99099283197199
 21
130.8491605984164
 31
0.0
  0
LINE
  5
1713
  8
DANMEN
  6
CONTINUOUS
 10
431.99099283197188
 20
137.54916059841651
 30
0.0
 11
438.99099283197199
 21
137.54916059841651
 31
0.0
  0
LINE
  5
1714
  8
DANMEN
  6
CONTINUOUS
 10
433.99099283197199
 20
136.34916059841629
 30
0.0
 11
437.99099283197199
 21
136.34916059841629
 31
0.0
  0
ARC
  5
1715
  8
DANMEN
  6
CONTINUOUS
 10
430.49099283197199
 20
132.54016059841641
 30
0.0
 40
0.5
 50
116.5650000000004
 51
180.0
  0
LINE
  5
1716
  8
DANMEN
  6
CONTINUOUS
 10
430.99099283197188
 20
133.3491605984164
 30
0.0
 11
430.26699283197189
 21
132.98716059841641
 31
0.0
  0
ARC
  5
1717
  8
DANMEN
  6
CONTINUOUS
 10
432.49099283197188
 20
137.15916059841641
 30
0.0
 40
0.5
 50
180.0
 51
258.68999999999909
  0
LINE
  5
1718
  8
DANMEN
  6
CONTINUOUS
 10
431.99099283197188
 20
137.15916059841641
 30
0.0
 11
431.99099283197188
 21
137.54916059841651
 31
0.0
  0
LINE
  5
1719
  8
DANMEN
  6
CONTINUOUS
 10
433.99099283197199
 20
136.34916059841629
 30
0.0
 11
432.39299283197198
 21
136.66916059841651
 31
0.0
  0
ARC
  5
171A
  8
DANMEN
  6
CONTINUOUS
 10
431.69099283197193
 20
133.04916059841651
 30
0.0
 40
0.3
 50
0.0
 51
90.0
  0
LINE
  5
171B
  8
DANMEN
  6
CONTINUOUS
 10
431.99099283197188
 20
132.49916059841641
 30
0.0
 11
431.99099283197188
 21
133.04916059841651
 31
0.0
  0
LINE
  5
171C
  8
DANMEN
  6
CONTINUOUS
 10
431.69099283197193
 20
133.3491605984164
 30
0.0
 11
430.99099283197188
 21
133.3491605984164
 31
0.0
  0
ARC
  5
171D
  8
DANMEN
  6
CONTINUOUS
 10
438.99099283197199
 20
137.04916059841651
 30
0.0
 40
0.5
 50
0.0
 51
90.0
  0
LINE
  5
171E
  8
DANMEN
  6
CONTINUOUS
 10
414.49099283197188
 20
170.3491605984164
 30
0.0
 11
411.19099283197193
 21
170.3491605984164
 31
0.0
  0
ARC
  5
171F
  8
DANMEN
  6
CONTINUOUS
 10
414.49099283197188
 20
169.8491605984164
 30
0.0
 40
0.5
 50
0.0
 51
90.0
  0
LINE
  5
1720
  8
DANMEN
  6
CONTINUOUS
 10
444.99099283197188
 20
111.54916059841651
 30
0.0
 11
430.49099283197199
 21
111.54916059841651
 31
0.0
  0
LINE
  5
1721
  8
DANMEN
  6
CONTINUOUS
 10
454.49099283197199
 20
160.54916059841631
 30
0.0
 11
453.84099283197207
 21
160.54916059841631
 31
0.0
  0
LINE
  5
1722
  8
DANMEN
  6
CONTINUOUS
 10
453.3409928319719
 20
152.54916059841631
 30
0.0
 11
453.3409928319719
 21
160.04916059841651
 31
0.0
  0
ARC
  5
1723
  8
DANMEN
  6
CONTINUOUS
 10
454.49099283197199
 20
160.04916059841651
 30
0.0
 40
0.5
 50
0.0
 51
90.0
  0
ARC
  5
1724
  8
DANMEN
  6
CONTINUOUS
 10
453.84099283197207
 20
160.04916059841651
 30
0.0
 40
0.5
 50
90.0
 51
180.0
  0
LINE
  5
1725
  8
DANMEN
  6
CONTINUOUS
 10
452.99099283197188
 20
147.54916059841651
 30
0.0
 11
452.99099283197188
 21
141.54916059841651
 31
0.0
  0
LINE
  5
1726
  8
DANMEN
  6
CONTINUOUS
 10
454.49099283197199
 20
175.54916059841631
 30
0.0
 11
453.84099283197207
 21
175.54916059841631
 31
0.0
  0
ARC
  5
1727
  8
DANMEN
  6
CONTINUOUS
 10
454.49099283197199
 20
176.04916059841639
 30
0.0
 40
0.5
 50
270.0
 51
0.0
  0
LINE
  5
1728
  8
DANMEN
  6
CONTINUOUS
 10
453.3409928319719
 20
176.04916059841639
 30
0.0
 11
453.3409928319719
 21
179.89916059841639
 31
0.0
  0
ARC
  5
1729
  8
DANMEN
  6
CONTINUOUS
 10
453.84099283197207
 20
176.04916059841639
 30
0.0
 40
0.5
 50
180.0
 51
270.0
  0
LINE
  5
172A
  8
DANMEN
  6
CONTINUOUS
 10
282.99099283197199
 20
141.54916059841651
 30
0.0
 11
281.1909928319721
 21
141.54916059841651
 31
0.0
  0
LINE
  5
172B
  8
DANMEN
  6
CONTINUOUS
 10
282.99099283197199
 20
147.54916059841651
 30
0.0
 11
281.1909928319721
 21
147.54916059841651
 31
0.0
  0
LINE
  5
172C
  8
DANMEN
  6
CONTINUOUS
 10
290.99099283197199
 20
147.54916059841651
 30
0.0
 11
290.99099283197199
 21
141.54916059841651
 31
0.0
  0
ARC
  5
172D
  8
DANMEN
  6
CONTINUOUS
 10
288.99099283197199
 20
139.04916059841639
 30
0.0
 40
0.5
 50
270.0
 51
0.0
  0
LINE
  5
172E
  8
DANMEN
  6
CONTINUOUS
 10
288.49099283197199
 20
141.54916059841651
 30
0.0
 11
288.49099283197199
 21
140.96316059841641
 31
0.0
  0
ARC
  5
172F
  8
DANMEN
  6
CONTINUOUS
 10
288.99099283197199
 20
140.96316059841641
 30
0.0
 40
0.5
 50
180.0
 51
250.52900000000011
  0
ARC
  5
1730
  8
DANMEN
  6
CONTINUOUS
 10
288.99099283197199
 20
148.13516059841641
 30
0.0
 40
0.5
 50
109.47099999999919
 51
180.0
  0
ARC
  5
1731
  8
DANMEN
  6
CONTINUOUS
 10
288.49099283197199
 20
139.54916059841651
 30
0.0
 40
1.0
 50
0.0
 51
70.529000000000551
  0
ARC
  5
1732
  8
DANMEN
  6
CONTINUOUS
 10
288.49099283197199
 20
149.54916059841651
 30
0.0
 40
1.0
 50
289.47099999999921
 51
0.0
  0
LINE
  5
1733
  8
DANMEN
  6
CONTINUOUS
 10
289.49099283197188
 20
150.04916059841651
 30
0.0
 11
289.49099283197188
 21
149.54916059841651
 31
0.0
  0
LINE
  5
1734
  8
DANMEN
  6
CONTINUOUS
 10
288.49099283197199
 20
148.13516059841641
 30
0.0
 11
288.49099283197199
 21
147.54916059841651
 31
0.0
  0
LINE
  5
1735
  8
DANMEN
  6
CONTINUOUS
 10
290.99099283197199
 20
141.54916059841651
 30
0.0
 11
288.49099283197199
 21
141.54916059841651
 31
0.0
  0
LINE
  5
1736
  8
DANMEN
  6
CONTINUOUS
 10
290.99099283197199
 20
147.54916059841651
 30
0.0
 11
288.49099283197199
 21
147.54916059841651
 31
0.0
  0
LINE
  5
1737
  8
DANMEN
  6
CONTINUOUS
 10
289.49099283197188
 20
139.54916059841651
 30
0.0
 11
289.49099283197188
 21
139.04916059841639
 31
0.0
  0
ARC
  5
1738
  8
DANMEN
  6
CONTINUOUS
 10
288.99099283197199
 20
150.04916059841651
 30
0.0
 40
0.5
 50
0.0
 51
90.0
  0
ARC
  5
1739
  8
DANMEN
  6
CONTINUOUS
 10
282.99099283197199
 20
138.54916059841651
 30
0.0
 40
2.0
 50
180.0
 51
270.0
  0
LINE
  5
173A
  8
DANMEN
  6
CONTINUOUS
 10
281.1909928319721
 20
141.54916059841651
 30
0.0
 11
280.99099283197211
 21
141.04916059841651
 31
0.0
  0
LINE
  5
173B
  8
DANMEN
  6
CONTINUOUS
 10
280.99099283197211
 20
148.04916059841651
 30
0.0
 11
281.1909928319721
 21
147.54916059841651
 31
0.0
  0
LINE
  5
173C
  8
DANMEN
  6
CONTINUOUS
 10
280.99099283197211
 20
148.04916059841651
 30
0.0
 11
280.99099283197211
 21
160.04916059841651
 31
0.0
  0
LINE
  5
173D
  8
DANMEN
  6
CONTINUOUS
 10
282.99099283197199
 20
141.54916059841651
 30
0.0
 11
283.99099283197188
 21
141.54916059841651
 31
0.0
  0
LINE
  5
173E
  8
DANMEN
  6
CONTINUOUS
 10
282.99099283197199
 20
147.54916059841651
 30
0.0
 11
283.99099283197188
 21
147.54916059841651
 31
0.0
  0
LINE
  5
173F
  8
DANMEN
  6
CONTINUOUS
 10
283.99099283197188
 20
148.13516059841641
 30
0.0
 11
283.99099283197188
 21
147.54916059841651
 31
0.0
  0
LINE
  5
1740
  8
DANMEN
  6
CONTINUOUS
 10
282.99099283197199
 20
139.54916059841651
 30
0.0
 11
282.99099283197199
 21
139.04916059841639
 31
0.0
  0
LINE
  5
1741
  8
DANMEN
  6
CONTINUOUS
 10
282.99099283197199
 20
150.04916059841651
 30
0.0
 11
282.99099283197199
 21
149.54916059841651
 31
0.0
  0
ARC
  5
1742
  8
DANMEN
  6
CONTINUOUS
 10
283.49099283197188
 20
139.04916059841639
 30
0.0
 40
0.5
 50
180.0
 51
270.0
  0
ARC
  5
1743
  8
DANMEN
  6
CONTINUOUS
 10
283.49099283197188
 20
150.04916059841651
 30
0.0
 40
0.5
 50
90.0
 51
180.0
  0
ARC
  5
1744
  8
DANMEN
  6
CONTINUOUS
 10
283.99099283197188
 20
149.54916059841651
 30
0.0
 40
1.0
 50
180.0
 51
250.52900000000011
  0
ARC
  5
1745
  8
DANMEN
  6
CONTINUOUS
 10
283.99099283197188
 20
139.54916059841651
 30
0.0
 40
1.0
 50
109.47099999999919
 51
180.0
  0
ARC
  5
1746
  8
DANMEN
  6
CONTINUOUS
 10
283.49099283197188
 20
148.13516059841641
 30
0.0
 40
0.5
 50
0.0
 51
70.529000000000551
  0
ARC
  5
1747
  8
DANMEN
  6
CONTINUOUS
 10
283.49099283197188
 20
140.96316059841641
 30
0.0
 40
0.5
 50
289.47099999999921
 51
0.0
  0
LINE
  5
1748
  8
DANMEN
  6
CONTINUOUS
 10
283.99099283197188
 20
141.54916059841651
 30
0.0
 11
283.99099283197188
 21
140.96316059841641
 31
0.0
  0
LINE
  5
1749
  8
DANMEN
  6
CONTINUOUS
 10
280.99099283197211
 20
138.54916059841651
 30
0.0
 11
280.99099283197211
 21
141.04916059841651
 31
0.0
  0
LINE
  5
174A
  8
DANMEN
  6
CONTINUOUS
 10
283.49099283197188
 20
150.54916059841651
 30
0.0
 11
288.99099283197199
 21
150.54916059841651
 31
0.0
  0
LINE
  5
174B
  8
DANMEN
  6
CONTINUOUS
 10
283.49099283197188
 20
138.54916059841651
 30
0.0
 11
288.99099283197199
 21
138.54916059841651
 31
0.0
  0
LINE
  5
174C
  8
DANMEN
  6
CONTINUOUS
 10
282.64099283197203
 20
152.54916059841631
 30
0.0
 11
289.34099283197202
 21
152.54916059841631
 31
0.0
  0
LINE
  5
174D
  8
DANMEN
  6
CONTINUOUS
 10
282.99099283197199
 20
136.54916059841651
 30
0.0
 11
289.34099283197202
 21
136.54916059841651
 31
0.0
  0
LINE
  5
174E
  8
DANMEN
  6
CONTINUOUS
 10
290.99099283197199
 20
147.54916059841651
 30
0.0
 11
290.99099283197199
 21
171.89916059841639
 31
0.0
  0
LINE
  5
174F
  8
DANMEN
  6
CONTINUOUS
 10
289.34099283197202
 20
136.54916059841651
 30
0.0
 11
289.34099283197202
 21
113.1991605984165
 31
0.0
  0
LINE
  5
1750
  8
DANMEN
  6
CONTINUOUS
 10
320.99099283197188
 20
169.8491605984164
 30
0.0
 11
320.99099283197188
 21
169.3491605984164
 31
0.0
  0
LINE
  5
1751
  8
DANMEN
  6
CONTINUOUS
 10
324.79099283197201
 20
170.3491605984164
 30
0.0
 11
324.79099283197201
 21
171.89916059841639
 31
0.0
  0
ARC
  5
1752
  8
DANMEN
  6
CONTINUOUS
 10
325.49099283197188
 20
169.8491605984164
 30
0.0
 40
0.5
 50
270.0
 51
0.0
  0
LINE
  5
1753
  8
DANMEN
  6
CONTINUOUS
 10
320.99099283197188
 20
169.3491605984164
 30
0.0
 11
325.49099283197188
 21
169.3491605984164
 31
0.0
  0
LINE
  5
1754
  8
DANMEN
  6
CONTINUOUS
 10
324.79099283197201
 20
171.89916059841639
 30
0.0
 11
290.99099283197199
 21
171.89916059841639
 31
0.0
  0
LINE
  5
1755
  8
DANMEN
  6
CONTINUOUS
 10
290.99099283197199
 20
112.6491605984164
 30
0.0
 11
292.99099283197199
 21
112.6491605984164
 31
0.0
  0
LINE
  5
1756
  8
DANMEN
  6
CONTINUOUS
 10
292.99099283197199
 20
113.1991605984165
 30
0.0
 11
305.49099283197199
 21
113.1991605984165
 31
0.0
  0
LINE
  5
1757
  8
DANMEN
  6
CONTINUOUS
 10
282.64099283197203
 20
113.1991605984165
 30
0.0
 11
289.34099283197202
 21
113.1991605984165
 31
0.0
  0
LINE
  5
1758
  8
DANMEN
  6
CONTINUOUS
 10
290.99099283197199
 20
180.44916059841631
 30
0.0
 11
292.99099283197199
 21
180.44916059841631
 31
0.0
  0
ARC
  5
1759
  8
DANMEN
  6
CONTINUOUS
 10
305.49099283197199
 20
180.39916059841639
 30
0.0
 40
0.5
 50
270.0
 51
0.0
  0
ARC
  5
175A
  8
DANMEN
  6
CONTINUOUS
 10
305.49099283197199
 20
181.04916059841639
 30
0.0
 40
0.5
 50
0.0
 51
90.0
  0
LINE
  5
175B
  8
DANMEN
  6
CONTINUOUS
 10
289.34099283197202
 20
179.89916059841639
 30
0.0
 11
289.34099283197202
 21
152.54916059841631
 31
0.0
  0
ARC
  5
175C
  8
DANMEN
  6
CONTINUOUS
 10
281.49099283197188
 20
121.04916059841651
 30
0.0
 40
0.5
 50
90.0
 51
180.0
  0
ARC
  5
175D
  8
DANMEN
  6
CONTINUOUS
 10
282.14099283197203
 20
121.04916059841651
 30
0.0
 40
0.5
 50
0.0
 51
90.0
  0
LINE
  5
175E
  8
DANMEN
  6
CONTINUOUS
 10
282.64099283197203
 20
113.1991605984165
 30
0.0
 11
282.64099283197203
 21
121.04916059841651
 31
0.0
  0
LINE
  5
175F
  8
DANMEN
  6
CONTINUOUS
 10
292.99099283197199
 20
179.89916059841639
 30
0.0
 11
305.49099283197199
 21
179.89916059841639
 31
0.0
  0
LINE
  5
1760
  8
DANMEN
  6
CONTINUOUS
 10
282.64099283197203
 20
179.89916059841639
 30
0.0
 11
289.34099283197202
 21
179.89916059841639
 31
0.0
  0
LINE
  5
1761
  8
DANMEN
  6
CONTINUOUS
 10
290.99099283197199
 20
132.49916059841641
 30
0.0
 11
290.99099283197199
 21
141.54916059841651
 31
0.0
  0
LINE
  5
1762
  8
DANMEN
  6
CONTINUOUS
 10
290.99099283197199
 20
130.8491605984164
 30
0.0
 11
290.99099283197199
 21
112.6491605984164
 31
0.0
  0
LINE
  5
1763
  8
DANMEN
  6
CONTINUOUS
 10
290.99099283197199
 20
173.54916059841631
 30
0.0
 11
325.49099283197188
 21
173.54916059841631
 31
0.0
  0
ARC
  5
1764
  8
DANMEN
  6
CONTINUOUS
 10
305.49099283197199
 20
112.6991605984164
 30
0.0
 40
0.5
 50
0.0
 51
90.0
  0
LINE
  5
1765
  8
DANMEN
  6
CONTINUOUS
 10
305.99099283197188
 20
181.04916059841639
 30
0.0
 11
305.99099283197188
 21
180.39916059841639
 31
0.0
  0
LINE
  5
1766
  8
DANMEN
  6
CONTINUOUS
 10
280.99099283197211
 20
112.04916059841651
 30
0.0
 11
280.99099283197211
 21
121.04916059841651
 31
0.0
  0
LINE
  5
1767
  8
DANMEN
  6
CONTINUOUS
 10
281.49099283197188
 20
181.54916059841631
 30
0.0
 11
305.49099283197199
 21
181.54916059841631
 31
0.0
  0
LINE
  5
1768
  8
DANMEN
  6
CONTINUOUS
 10
290.99099283197199
 20
180.44916059841631
 30
0.0
 11
290.99099283197199
 21
173.54916059841631
 31
0.0
  0
LINE
  5
1769
  8
DANMEN
  6
CONTINUOUS
 10
281.49099283197188
 20
121.54916059841651
 30
0.0
 11
282.14099283197203
 21
121.54916059841651
 31
0.0
  0
LINE
  5
176A
  8
DANMEN
  6
CONTINUOUS
 10
280.99099283197211
 20
176.04916059841639
 30
0.0
 11
280.99099283197211
 21
181.04916059841639
 31
0.0
  0
ARC
  5
176B
  8
DANMEN
  6
CONTINUOUS
 10
281.49099283197188
 20
181.04916059841639
 30
0.0
 40
0.5
 50
90.0
 51
180.0
  0
ARC
  5
176C
  8
DANMEN
  6
CONTINUOUS
 10
281.49099283197188
 20
112.04916059841651
 30
0.0
 40
0.5
 50
180.0
 51
270.0
  0
LINE
  5
176D
  8
DANMEN
  6
CONTINUOUS
 10
292.99099283197199
 20
180.44916059841631
 30
0.0
 11
292.99099283197199
 21
179.89916059841639
 31
0.0
  0
LINE
  5
176E
  8
DANMEN
  6
CONTINUOUS
 10
292.99099283197199
 20
112.6491605984164
 30
0.0
 11
292.99099283197199
 21
113.1991605984165
 31
0.0
  0
ARC
  5
176F
  8
DANMEN
  6
CONTINUOUS
 10
305.49099283197199
 20
112.04916059841651
 30
0.0
 40
0.5
 50
270.0
 51
0.0
  0
LINE
  5
1770
  8
DANMEN
  6
CONTINUOUS
 10
305.99099283197188
 20
112.04916059841651
 30
0.0
 11
305.99099283197188
 21
112.6991605984164
 31
0.0
  0
LINE
  5
1771
  8
DANMEN
  6
CONTINUOUS
 10
281.49099283197188
 20
111.54916059841651
 30
0.0
 11
290.99099283197199
 21
111.54916059841651
 31
0.0
  0
LINE
  5
1772
  8
DANMEN
  6
CONTINUOUS
 10
296.49099283197188
 20
132.49916059841641
 30
0.0
 11
290.99099283197199
 21
132.49916059841641
 31
0.0
  0
LINE
  5
1773
  8
DANMEN
  6
CONTINUOUS
 10
305.99099283197188
 20
130.8491605984164
 30
0.0
 11
290.99099283197199
 21
130.8491605984164
 31
0.0
  0
LINE
  5
1774
  8
DANMEN
  6
CONTINUOUS
 10
297.99099283197188
 20
136.34916059841629
 30
0.0
 11
297.99099283197188
 21
132.49916059841641
 31
0.0
  0
LINE
  5
1775
  8
DANMEN
  6
CONTINUOUS
 10
303.99099283197188
 20
132.49916059841641
 30
0.0
 11
297.99099283197188
 21
132.49916059841641
 31
0.0
  0
LINE
  5
1776
  8
DANMEN
  6
CONTINUOUS
 10
296.49099283197188
 20
137.04916059841651
 30
0.0
 11
296.49099283197188
 21
132.49916059841641
 31
0.0
  0
LINE
  5
1777
  8
DANMEN
  6
CONTINUOUS
 10
325.99099283197199
 20
173.04916059841631
 30
0.0
 11
325.99099283197199
 21
169.8491605984164
 31
0.0
  0
ARC
  5
1778
  8
DANMEN
  6
CONTINUOUS
 10
325.49099283197188
 20
173.04916059841631
 30
0.0
 40
0.5
 50
0.0
 51
90.0
  0
LINE
  5
1779
  8
DANMEN
  6
CONTINUOUS
 10
305.99099283197188
 20
132.54016059841641
 30
0.0
 11
305.99099283197188
 21
130.8491605984164
 31
0.0
  0
LINE
  5
177A
  8
DANMEN
  6
CONTINUOUS
 10
303.99099283197188
 20
137.54916059841651
 30
0.0
 11
296.99099283197199
 21
137.54916059841651
 31
0.0
  0
LINE
  5
177B
  8
DANMEN
  6
CONTINUOUS
 10
301.99099283197188
 20
136.34916059841629
 30
0.0
 11
297.99099283197188
 21
136.34916059841629
 31
0.0
  0
ARC
  5
177C
  8
DANMEN
  6
CONTINUOUS
 10
305.49099283197199
 20
132.54016059841641
 30
0.0
 40
0.5
 50
0.0
 51
63.434999999999313
  0
LINE
  5
177D
  8
DANMEN
  6
CONTINUOUS
 10
304.99099283197199
 20
133.3491605984164
 30
0.0
 11
305.71499283197198
 21
132.98716059841641
 31
0.0
  0
ARC
  5
177E
  8
DANMEN
  6
CONTINUOUS
 10
303.49099283197199
 20
137.15916059841641
 30
0.0
 40
0.5
 50
281.31000000000063
 51
0.0
  0
LINE
  5
177F
  8
DANMEN
  6
CONTINUOUS
 10
303.99099283197188
 20
137.15916059841641
 30
0.0
 11
303.99099283197188
 21
137.54916059841651
 31
0.0
  0
LINE
  5
1780
  8
DANMEN
  6
CONTINUOUS
 10
301.99099283197188
 20
136.34916059841629
 30
0.0
 11
303.58899283197201
 21
136.66916059841651
 31
0.0
  0
ARC
  5
1781
  8
DANMEN
  6
CONTINUOUS
 10
304.29099283197201
 20
133.04916059841651
 30
0.0
 40
0.3
 50
90.0
 51
180.0
  0
LINE
  5
1782
  8
DANMEN
  6
CONTINUOUS
 10
303.99099283197188
 20
132.49916059841641
 30
0.0
 11
303.99099283197188
 21
133.04916059841651
 31
0.0
  0
LINE
  5
1783
  8
DANMEN
  6
CONTINUOUS
 10
304.29099283197201
 20
133.3491605984164
 30
0.0
 11
304.99099283197199
 21
133.3491605984164
 31
0.0
  0
ARC
  5
1784
  8
DANMEN
  6
CONTINUOUS
 10
296.99099283197199
 20
137.04916059841651
 30
0.0
 40
0.5
 50
90.0
 51
180.0
  0
LINE
  5
1785
  8
DANMEN
  6
CONTINUOUS
 10
321.49099283197199
 20
170.3491605984164
 30
0.0
 11
324.79099283197201
 21
170.3491605984164
 31
0.0
  0
ARC
  5
1786
  8
DANMEN
  6
CONTINUOUS
 10
321.49099283197199
 20
169.8491605984164
 30
0.0
 40
0.5
 50
90.0
 51
180.0
  0
LINE
  5
1787
  8
DANMEN
  6
CONTINUOUS
 10
290.99099283197199
 20
111.54916059841651
 30
0.0
 11
305.49099283197199
 21
111.54916059841651
 31
0.0
  0
LINE
  5
1788
  8
DANMEN
  6
CONTINUOUS
 10
281.49099283197188
 20
160.54916059841631
 30
0.0
 11
282.14099283197203
 21
160.54916059841631
 31
0.0
  0
LINE
  5
1789
  8
DANMEN
  6
CONTINUOUS
 10
282.64099283197203
 20
152.54916059841631
 30
0.0
 11
282.64099283197203
 21
160.04916059841651
 31
0.0
  0
ARC
  5
178A
  8
DANMEN
  6
CONTINUOUS
 10
281.49099283197188
 20
160.04916059841651
 30
0.0
 40
0.5
 50
90.0
 51
180.0
  0
ARC
  5
178B
  8
DANMEN
  6
CONTINUOUS
 10
282.14099283197203
 20
160.04916059841651
 30
0.0
 40
0.5
 50
0.0
 51
90.0
  0
LINE
  5
178C
  8
DANMEN
  6
CONTINUOUS
 10
282.99099283197199
 20
147.54916059841651
 30
0.0
 11
282.99099283197199
 21
141.54916059841651
 31
0.0
  0
LINE
  5
178D
  8
DANMEN
  6
CONTINUOUS
 10
281.49099283197188
 20
175.54916059841631
 30
0.0
 11
282.14099283197203
 21
175.54916059841631
 31
0.0
  0
ARC
  5
178E
  8
DANMEN
  6
CONTINUOUS
 10
281.49099283197188
 20
176.04916059841639
 30
0.0
 40
0.5
 50
180.0
 51
270.0
  0
LINE
  5
178F
  8
DANMEN
  6
CONTINUOUS
 10
282.64099283197203
 20
176.04916059841639
 30
0.0
 11
282.64099283197203
 21
179.89916059841639
 31
0.0
  0
ARC
  5
1790
  8
DANMEN
  6
CONTINUOUS
 10
282.14099283197203
 20
176.04916059841639
 30
0.0
 40
0.5
 50
270.0
 51
0.0
  0
LINE
  5
1791
  8
DANMEN
  6
CONTINUOUS
 10
167.99099283197211
 20
271.54916059841651
 30
0.0
 11
173.99099283197211
 21
271.54916059841651
 31
0.0
  0
LINE
  5
1792
  8
DANMEN
  6
CONTINUOUS
 10
173.99099283197211
 20
279.54916059841651
 30
0.0
 11
173.99099283197211
 21
281.3491605984164
 31
0.0
  0
LINE
  5
1793
  8
DANMEN
  6
CONTINUOUS
 10
167.99099283197211
 20
279.54916059841651
 30
0.0
 11
167.99099283197211
 21
281.3491605984164
 31
0.0
  0
ARC
  5
1794
  8
DANMEN
  6
CONTINUOUS
 10
155.29099283197209
 20
274.1991605984166
 30
0.0
 40
1.0
 50
180.0
 51
270.0
  0
LINE
  5
1795
  8
DANMEN
  6
CONTINUOUS
 10
154.29099283197201
 20
275.57916059841642
 30
0.0
 11
154.29099283197201
 21
274.1991605984166
 31
0.0
  0
ARC
  5
1796
  8
DANMEN
  6
CONTINUOUS
 10
152.29099283197201
 20
275.57916059841642
 30
0.0
 40
2.0
 50
0.0
 51
51.706999999999823
  0
LINE
  5
1797
  8
DANMEN
  6
CONTINUOUS
 10
155.29099283197209
 20
273.1991605984166
 30
0.0
 11
162.99099283197211
 21
273.1991605984166
 31
0.0
  0
LINE
  5
1798
  8
DANMEN
  6
CONTINUOUS
 10
176.99099283197211
 20
281.54916059841651
 30
0.0
 11
174.49099283197211
 21
281.54916059841651
 31
0.0
  0
LINE
  5
1799
  8
DANMEN
  6
CONTINUOUS
 10
173.99099283197211
 20
278.54916059841651
 30
0.0
 11
174.57699283197221
 21
278.54916059841651
 31
0.0
  0
ARC
  5
179A
  8
DANMEN
  6
CONTINUOUS
 10
174.57699283197221
 20
279.04916059841639
 30
0.0
 40
0.5
 50
270.0
 51
340.52899999999948
  0
ARC
  5
179B
  8
DANMEN
  6
CONTINUOUS
 10
167.40499283197201
 20
279.04916059841639
 30
0.0
 40
0.5
 50
199.47100000000009
 51
270.0
  0
ARC
  5
179C
  8
DANMEN
  6
CONTINUOUS
 10
175.99099283197211
 20
278.54916059841651
 30
0.0
 40
1.0
 50
90.0
 51
160.5289999999996
  0
ARC
  5
179D
  8
DANMEN
  6
CONTINUOUS
 10
165.99099283197211
 20
278.54916059841651
 30
0.0
 40
1.0
 50
19.471000000000359
 51
90.0
  0
ARC
  5
179E
  8
DANMEN
  6
CONTINUOUS
 10
165.49099283197211
 20
279.04916059841639
 30
0.0
 40
0.5
 50
90.0
 51
180.0
  0
ARC
  5
179F
  8
DANMEN
  6
CONTINUOUS
 10
176.49099283197211
 20
279.04916059841639
 30
0.0
 40
0.5
 50
0.0
 51
90.0
  0
LINE
  5
17A0
  8
DANMEN
  6
CONTINUOUS
 10
165.49099283197211
 20
279.54916059841651
 30
0.0
 11
165.99099283197211
 21
279.54916059841651
 31
0.0
  0
LINE
  5
17A1
  8
DANMEN
  6
CONTINUOUS
 10
175.99099283197211
 20
279.54916059841651
 30
0.0
 11
176.49099283197211
 21
279.54916059841651
 31
0.0
  0
LINE
  5
17A2
  8
DANMEN
  6
CONTINUOUS
 10
167.40499283197201
 20
278.54916059841651
 30
0.0
 11
167.99099283197211
 21
278.54916059841651
 31
0.0
  0
LINE
  5
17A3
  8
DANMEN
  6
CONTINUOUS
 10
167.99099283197211
 20
279.54916059841651
 30
0.0
 11
167.99099283197211
 21
278.54916059841651
 31
0.0
  0
LINE
  5
17A4
  8
DANMEN
  6
CONTINUOUS
 10
173.99099283197211
 20
279.54916059841651
 30
0.0
 11
173.99099283197211
 21
278.54916059841651
 31
0.0
  0
LINE
  5
17A5
  8
DANMEN
  6
CONTINUOUS
 10
164.99099283197211
 20
279.04916059841639
 30
0.0
 11
164.99099283197211
 21
273.54916059841651
 31
0.0
  0
LINE
  5
17A6
  8
DANMEN
  6
CONTINUOUS
 10
173.99099283197211
 20
271.54916059841651
 30
0.0
 11
173.99099283197211
 21
274.04916059841651
 31
0.0
  0
LINE
  5
17A7
  8
DANMEN
  6
CONTINUOUS
 10
167.99099283197211
 20
271.54916059841651
 30
0.0
 11
167.99099283197211
 21
274.04916059841651
 31
0.0
  0
LINE
  5
17A8
  8
DANMEN
  6
CONTINUOUS
 10
167.40499283197201
 20
274.04916059841651
 30
0.0
 11
167.99099283197211
 21
274.04916059841651
 31
0.0
  0
LINE
  5
17A9
  8
DANMEN
  6
CONTINUOUS
 10
176.99099283197211
 20
279.04916059841639
 30
0.0
 11
176.99099283197211
 21
273.54916059841651
 31
0.0
  0
LINE
  5
17AA
  8
DANMEN
  6
CONTINUOUS
 10
175.99099283197211
 20
273.04916059841651
 30
0.0
 11
176.49099283197211
 21
273.04916059841651
 31
0.0
  0
LINE
  5
17AB
  8
DANMEN
  6
CONTINUOUS
 10
165.49099283197211
 20
273.04916059841651
 30
0.0
 11
165.99099283197211
 21
273.04916059841651
 31
0.0
  0
ARC
  5
17AC
  8
DANMEN
  6
CONTINUOUS
 10
176.49099283197211
 20
273.54916059841651
 30
0.0
 40
0.5
 50
270.0
 51
0.0
  0
ARC
  5
17AD
  8
DANMEN
  6
CONTINUOUS
 10
165.49099283197211
 20
273.54916059841651
 30
0.0
 40
0.5
 50
180.0
 51
270.0
  0
ARC
  5
17AE
  8
DANMEN
  6
CONTINUOUS
 10
165.99099283197211
 20
274.04916059841651
 30
0.0
 40
1.0
 50
270.0
 51
340.52899999999948
  0
ARC
  5
17AF
  8
DANMEN
  6
CONTINUOUS
 10
175.99099283197211
 20
274.04916059841651
 30
0.0
 40
1.0
 50
199.47100000000009
 51
270.0
  0
ARC
  5
17B0
  8
DANMEN
  6
CONTINUOUS
 10
167.40499283197201
 20
273.54916059841651
 30
0.0
 40
0.5
 50
90.0
 51
160.5289999999996
  0
ARC
  5
17B1
  8
DANMEN
  6
CONTINUOUS
 10
174.57699283197221
 20
273.54916059841651
 30
0.0
 40
0.5
 50
19.471000000000359
 51
90.0
  0
LINE
  5
17B2
  8
DANMEN
  6
CONTINUOUS
 10
173.99099283197211
 20
274.04916059841651
 30
0.0
 11
174.57699283197221
 21
274.04916059841651
 31
0.0
  0
LINE
  5
17B3
  8
DANMEN
  6
CONTINUOUS
 10
162.99099283197211
 20
296.8991605984163
 30
0.0
 11
162.99099283197211
 21
273.1991605984166
 31
0.0
  0
LINE
  5
17B4
  8
DANMEN
  6
CONTINUOUS
 10
167.49099283197211
 20
281.54916059841651
 30
0.0
 11
164.99099283197211
 21
281.54916059841651
 31
0.0
  0
LINE
  5
17B5
  8
DANMEN
  6
CONTINUOUS
 10
167.49099283197211
 20
281.54916059841651
 30
0.0
 11
167.99099283197211
 21
281.3491605984164
 31
0.0
  0
LINE
  5
17B6
  8
DANMEN
  6
CONTINUOUS
 10
173.99099283197211
 20
281.3491605984164
 30
0.0
 11
174.49099283197211
 21
281.54916059841651
 31
0.0
  0
LINE
  5
17B7
  8
DANMEN
  6
CONTINUOUS
 10
178.99099283197211
 20
279.54916059841651
 30
0.0
 11
178.99099283197211
 21
277.14916059841642
 31
0.0
  0
ARC
  5
17B8
  8
DANMEN
  6
CONTINUOUS
 10
176.99099283197211
 20
279.54916059841651
 30
0.0
 40
2.0
 50
0.0
 51
90.0
  0
LINE
  5
17B9
  8
DANMEN
  6
CONTINUOUS
 10
173.99099283197211
 20
271.54916059841651
 30
0.0
 11
177.99099283197211
 21
271.54916059841651
 31
0.0
  0
LINE
  5
17BA
  8
DANMEN
  6
CONTINUOUS
 10
200.99099283197211
 20
263.54916059841651
 30
0.0
 11
203.49099283197199
 21
263.54916059841651
 31
0.0
  0
LINE
  5
17BB
  8
DANMEN
  6
CONTINUOUS
 10
184.69099283197221
 20
263.54916059841651
 30
0.0
 11
184.69099283197221
 21
271.54916059841651
 31
0.0
  0
LINE
  5
17BC
  8
DANMEN
  6
CONTINUOUS
 10
181.8909928319722
 20
276.8491605984164
 30
0.0
 11
181.8909928319722
 21
276.58616059841643
 31
0.0
  0
ARC
  5
17BD
  8
DANMEN
  6
CONTINUOUS
 10
182.1909928319721
 20
275.49516059841642
 30
0.0
 40
1.0
 50
114.6239999999999
 51
180.0
  0
ARC
  5
17BE
  8
DANMEN
  6
CONTINUOUS
 10
181.69099283197221
 20
276.58616059841643
 30
0.0
 40
0.2
 50
294.62399999999991
 51
0.0
  0
LINE
  5
17BF
  8
DANMEN
  6
CONTINUOUS
 10
181.1909928319721
 20
275.49516059841642
 30
0.0
 11
181.1909928319721
 21
274.24916059841632
 31
0.0
  0
ARC
  5
17C0
  8
DANMEN
  6
CONTINUOUS
 10
184.2909928319722
 20
275.57916059841642
 30
0.0
 40
2.0
 50
0.0
 51
51.706999999999823
  0
ARC
  5
17C1
  8
DANMEN
  6
CONTINUOUS
 10
184.2909928319722
 20
276.58616059841643
 30
0.0
 40
0.2
 50
180.0
 51
245.37599999999989
  0
ARC
  5
17C2
  8
DANMEN
  6
CONTINUOUS
 10
183.7909928319722
 20
275.49516059841642
 30
0.0
 40
1.0
 50
0.0
 51
65.37600000000009
  0
LINE
  5
17C3
  8
DANMEN
  6
CONTINUOUS
 10
184.09099283197199
 20
276.8491605984164
 30
0.0
 11
184.09099283197199
 21
276.58616059841643
 31
0.0
  0
ARC
  5
17C4
  8
DANMEN
  6
CONTINUOUS
 10
183.7909928319722
 20
274.24916059841632
 30
0.0
 40
1.0
 50
270.0
 51
0.0
  0
ARC
  5
17C5
  8
DANMEN
  6
CONTINUOUS
 10
182.1909928319721
 20
274.24916059841632
 30
0.0
 40
1.0
 50
180.0
 51
270.0
  0
LINE
  5
17C6
  8
DANMEN
  6
CONTINUOUS
 10
186.2909928319722
 20
275.57916059841642
 30
0.0
 11
186.2909928319722
 21
274.1991605984166
 31
0.0
  0
LINE
  5
17C7
  8
DANMEN
  6
CONTINUOUS
 10
184.7909928319722
 20
275.49516059841642
 30
0.0
 11
184.7909928319722
 21
274.24916059841632
 31
0.0
  0
LINE
  5
17C8
  8
DANMEN
  6
CONTINUOUS
 10
183.7909928319722
 20
273.24916059841649
 30
0.0
 11
182.1909928319721
 21
273.24916059841649
 31
0.0
  0
LINE
  5
17C9
  8
DANMEN
  6
CONTINUOUS
 10
185.52999283197221
 20
277.14916059841642
 30
0.0
 11
184.39099283197189
 21
277.14916059841642
 31
0.0
  0
LINE
  5
17CA
  8
DANMEN
  6
CONTINUOUS
 10
178.99099283197211
 20
277.14916059841642
 30
0.0
 11
181.59099283197199
 21
277.14916059841642
 31
0.0
  0
ARC
  5
17CB
  8
DANMEN
  6
CONTINUOUS
 10
181.59099283197199
 20
276.8491605984164
 30
0.0
 40
0.3
 50
0.0
 51
90.0
  0
ARC
  5
17CC
  8
DANMEN
  6
CONTINUOUS
 10
184.39099283197189
 20
276.8491605984164
 30
0.0
 40
0.3
 50
90.0
 51
180.0
  0
LINE
  5
17CD
  8
DANMEN
  6
CONTINUOUS
 10
183.0409928319722
 20
265.54916059841651
 30
0.0
 11
183.0409928319722
 21
271.54916059841651
 31
0.0
  0
ARC
  5
17CE
  8
DANMEN
  6
CONTINUOUS
 10
182.99999283197221
 20
264.04916059841639
 30
0.0
 40
0.5
 50
206.56499999999971
 51
270.0
  0
LINE
  5
17CF
  8
DANMEN
  6
CONTINUOUS
 10
182.1909928319721
 20
264.54916059841651
 30
0.0
 11
182.5529928319722
 21
263.8251605984164
 31
0.0
  0
ARC
  5
17D0
  8
DANMEN
  6
CONTINUOUS
 10
182.49099283197199
 20
265.24916059841649
 30
0.0
 40
0.3
 50
90.0
 51
180.0
  0
LINE
  5
17D1
  8
DANMEN
  6
CONTINUOUS
 10
183.0409928319722
 20
265.54916059841651
 30
0.0
 11
182.49099283197199
 21
265.54916059841651
 31
0.0
  0
LINE
  5
17D2
  8
DANMEN
  6
CONTINUOUS
 10
182.1909928319721
 20
265.24916059841649
 30
0.0
 11
182.1909928319721
 21
264.54916059841651
 31
0.0
  0
LINE
  5
17D3
  8
DANMEN
  6
CONTINUOUS
 10
182.99999283197221
 20
263.54916059841651
 30
0.0
 11
184.69099283197221
 21
263.54916059841651
 31
0.0
  0
LINE
  5
17D4
  8
DANMEN
  6
CONTINUOUS
 10
179.1909928319721
 20
271.54916059841651
 30
0.0
 11
183.0409928319722
 21
271.54916059841651
 31
0.0
  0
LINE
  5
17D5
  8
DANMEN
  6
CONTINUOUS
 10
184.69099283197221
 20
271.54916059841651
 30
0.0
 11
202.34099283197199
 21
271.54916059841651
 31
0.0
  0
ARC
  5
17D6
  8
DANMEN
  6
CONTINUOUS
 10
152.39099283197211
 20
276.8491605984164
 30
0.0
 40
0.3
 50
90.0
 51
180.0
  0
ARC
  5
17D7
  8
DANMEN
  6
CONTINUOUS
 10
149.59099283197199
 20
276.8491605984164
 30
0.0
 40
0.3
 50
0.0
 51
90.0
  0
LINE
  5
17D8
  8
DANMEN
  6
CONTINUOUS
 10
149.59099283197199
 20
277.14916059841642
 30
0.0
 11
148.45199283197209
 21
277.14916059841642
 31
0.0
  0
LINE
  5
17D9
  8
DANMEN
  6
CONTINUOUS
 10
153.52999283197209
 20
277.14916059841642
 30
0.0
 11
152.39099283197211
 21
277.14916059841642
 31
0.0
  0
LINE
  5
17DA
  8
DANMEN
  6
CONTINUOUS
 10
151.79099283197209
 20
273.24916059841649
 30
0.0
 11
150.1909928319721
 21
273.24916059841649
 31
0.0
  0
LINE
  5
17DB
  8
DANMEN
  6
CONTINUOUS
 10
152.79099283197201
 20
275.49516059841642
 30
0.0
 11
152.79099283197201
 21
274.24916059841632
 31
0.0
  0
ARC
  5
17DC
  8
DANMEN
  6
CONTINUOUS
 10
150.1909928319721
 20
274.24916059841632
 30
0.0
 40
1.0
 50
180.0
 51
270.0
  0
ARC
  5
17DD
  8
DANMEN
  6
CONTINUOUS
 10
151.79099283197209
 20
274.24916059841632
 30
0.0
 40
1.0
 50
270.0
 51
0.0
  0
LINE
  5
17DE
  8
DANMEN
  6
CONTINUOUS
 10
152.0909928319721
 20
276.8491605984164
 30
0.0
 11
152.0909928319721
 21
276.58616059841643
 31
0.0
  0
ARC
  5
17DF
  8
DANMEN
  6
CONTINUOUS
 10
151.79099283197209
 20
275.49516059841642
 30
0.0
 40
1.0
 50
0.0
 51
65.37600000000009
  0
ARC
  5
17E0
  8
DANMEN
  6
CONTINUOUS
 10
152.29099283197201
 20
276.58616059841643
 30
0.0
 40
0.2
 50
180.0
 51
245.37599999999989
  0
LINE
  5
17E1
  8
DANMEN
  6
CONTINUOUS
 10
149.1909928319721
 20
275.49516059841642
 30
0.0
 11
149.1909928319721
 21
274.24916059841632
 31
0.0
  0
LINE
  5
17E2
  8
DANMEN
  6
CONTINUOUS
 10
147.69099283197201
 20
275.57916059841642
 30
0.0
 11
147.69099283197201
 21
274.1991605984166
 31
0.0
  0
ARC
  5
17E3
  8
DANMEN
  6
CONTINUOUS
 10
149.69099283197201
 20
275.57916059841642
 30
0.0
 40
2.0
 50
128.29299999999969
 51
180.0
  0
ARC
  5
17E4
  8
DANMEN
  6
CONTINUOUS
 10
149.69099283197201
 20
276.58616059841643
 30
0.0
 40
0.2
 50
294.62399999999991
 51
0.0
  0
ARC
  5
17E5
  8
DANMEN
  6
CONTINUOUS
 10
150.1909928319721
 20
275.49516059841642
 30
0.0
 40
1.0
 50
114.6239999999999
 51
180.0
  0
LINE
  5
17E6
  8
DANMEN
  6
CONTINUOUS
 10
149.89099283197211
 20
276.8491605984164
 30
0.0
 11
149.89099283197211
 21
276.58616059841643
 31
0.0
  0
LINE
  5
17E7
  8
DANMEN
  6
CONTINUOUS
 10
144.49099283197211
 20
243.54916059841639
 30
0.0
 11
145.69099283197201
 21
243.54916059841639
 31
0.0
  0
ARC
  5
17E8
  8
DANMEN
  6
CONTINUOUS
 10
178.38099283197221
 20
266.04916059841651
 30
0.0
 40
0.5
 50
270.0
 51
348.68999999999988
  0
LINE
  5
17E9
  8
DANMEN
  6
CONTINUOUS
 10
178.38099283197221
 20
265.54916059841651
 30
0.0
 11
177.99099283197211
 21
265.54916059841651
 31
0.0
  0
LINE
  5
17EA
  8
DANMEN
  6
CONTINUOUS
 10
179.1909928319721
 20
267.54916059841651
 30
0.0
 11
178.87099283197199
 21
265.95116059841632
 31
0.0
  0
LINE
  5
17EB
  8
DANMEN
  6
CONTINUOUS
 10
179.1909928319721
 20
267.54916059841651
 30
0.0
 11
179.1909928319721
 21
271.54916059841651
 31
0.0
  0
LINE
  5
17EC
  8
DANMEN
  6
CONTINUOUS
 10
177.99099283197211
 20
265.54916059841651
 30
0.0
 11
177.99099283197211
 21
271.54916059841651
 31
0.0
  0
LINE
  5
17ED
  8
DANMEN
  6
CONTINUOUS
 10
133.99099283197211
 20
298.04916059841651
 30
0.0
 11
133.99099283197211
 21
264.04916059841639
 31
0.0
  0
LINE
  5
17EE
  8
DANMEN
  6
CONTINUOUS
 10
203.49099283197199
 20
298.54916059841651
 30
0.0
 11
194.49099283197191
 21
298.54916059841651
 31
0.0
  0
LINE
  5
17EF
  8
DANMEN
  6
CONTINUOUS
 10
193.99099283197199
 20
298.04916059841651
 30
0.0
 11
193.99099283197199
 21
297.3991605984163
 31
0.0
  0
ARC
  5
17F0
  8
DANMEN
  6
CONTINUOUS
 10
134.49099283197211
 20
298.04916059841651
 30
0.0
 40
0.5
 50
90.0
 51
180.0
  0
ARC
  5
17F1
  8
DANMEN
  6
CONTINUOUS
 10
203.49099283197199
 20
298.04916059841651
 30
0.0
 40
0.5
 50
0.0
 51
90.0
  0
ARC
  5
17F2
  8
DANMEN
  6
CONTINUOUS
 10
203.49099283197199
 20
264.04916059841639
 30
0.0
 40
0.5
 50
270.0
 51
0.0
  0
LINE
  5
17F3
  8
DANMEN
  6
CONTINUOUS
 10
134.49099283197211
 20
263.54916059841651
 30
0.0
 11
134.99099283197211
 21
263.54916059841651
 31
0.0
  0
LINE
  5
17F4
  8
DANMEN
  6
CONTINUOUS
 10
135.49099283197211
 20
271.54916059841651
 30
0.0
 11
143.99099283197211
 21
271.54916059841651
 31
0.0
  0
ARC
  5
17F5
  8
DANMEN
  6
CONTINUOUS
 10
134.49099283197211
 20
264.04916059841639
 30
0.0
 40
0.5
 50
180.0
 51
270.0
  0
LINE
  5
17F6
  8
DANMEN
  6
CONTINUOUS
 10
143.99099283197211
 20
271.54916059841651
 30
0.0
 11
143.99099283197211
 21
244.04916059841631
 31
0.0
  0
LINE
  5
17F7
  8
DANMEN
  6
CONTINUOUS
 10
145.64099283197211
 20
271.54916059841651
 30
0.0
 11
167.99099283197211
 21
271.54916059841651
 31
0.0
  0
LINE
  5
17F8
  8
DANMEN
  6
CONTINUOUS
 10
203.99099283197191
 20
298.04916059841651
 30
0.0
 11
203.99099283197191
 21
278.54916059841651
 31
0.0
  0
LINE
  5
17F9
  8
DANMEN
  6
CONTINUOUS
 10
200.49099283197191
 20
264.74916059841649
 30
0.0
 11
202.34099283197199
 21
264.74916059841649
 31
0.0
  0
LINE
  5
17FA
  8
DANMEN
  6
CONTINUOUS
 10
200.49099283197191
 20
264.74916059841649
 30
0.0
 11
200.49099283197191
 21
264.04916059841639
 31
0.0
  0
ARC
  5
17FB
  8
DANMEN
  6
CONTINUOUS
 10
200.99099283197211
 20
264.04916059841639
 30
0.0
 40
0.5
 50
180.0
 51
270.0
  0
LINE
  5
17FC
  8
DANMEN
  6
CONTINUOUS
 10
145.64099283197211
 20
248.54916059841631
 30
0.0
 11
146.19099283197201
 21
248.54916059841631
 31
0.0
  0
LINE
  5
17FD
  8
DANMEN
  6
CONTINUOUS
 10
135.64099283197211
 20
296.8991605984163
 30
0.0
 11
135.64099283197211
 21
274.1991605984166
 31
0.0
  0
LINE
  5
17FE
  8
DANMEN
  6
CONTINUOUS
 10
202.34099283197199
 20
296.8991605984163
 30
0.0
 11
194.49099283197191
 21
296.8991605984163
 31
0.0
  0
LINE
  5
17FF
  8
DANMEN
  6
CONTINUOUS
 10
136.64099283197211
 20
273.1991605984166
 30
0.0
 11
146.69099283197201
 21
273.1991605984166
 31
0.0
  0
ARC
  5
1800
  8
DANMEN
  6
CONTINUOUS
 10
194.49099283197191
 20
298.04916059841651
 30
0.0
 40
0.5
 50
90.0
 51
180.0
  0
ARC
  5
1801
  8
DANMEN
  6
CONTINUOUS
 10
194.49099283197191
 20
297.3991605984163
 30
0.0
 40
0.5
 50
180.0
 51
270.0
  0
ARC
  5
1802
  8
DANMEN
  6
CONTINUOUS
 10
136.64099283197211
 20
274.1991605984166
 30
0.0
 40
1.0
 50
180.0
 51
270.0
  0
ARC
  5
1803
  8
DANMEN
  6
CONTINUOUS
 10
146.69099283197201
 20
274.1991605984166
 30
0.0
 40
1.0
 50
270.0
 51
0.0
  0
LINE
  5
1804
  8
DANMEN
  6
CONTINUOUS
 10
187.2909928319722
 20
273.1991605984166
 30
0.0
 11
201.3409928319719
 21
273.1991605984166
 31
0.0
  0
ARC
  5
1805
  8
DANMEN
  6
CONTINUOUS
 10
187.2909928319722
 20
274.1991605984166
 30
0.0
 40
1.0
 50
180.0
 51
270.0
  0
LINE
  5
1806
  8
DANMEN
  6
CONTINUOUS
 10
202.34099283197199
 20
296.8991605984163
 30
0.0
 11
202.34099283197199
 21
274.1991605984166
 31
0.0
  0
ARC
  5
1807
  8
DANMEN
  6
CONTINUOUS
 10
201.3409928319719
 20
274.1991605984166
 30
0.0
 40
1.0
 50
270.0
 51
0.0
  0
LINE
  5
1808
  8
DANMEN
  6
CONTINUOUS
 10
202.34099283197199
 20
271.54916059841651
 30
0.0
 11
202.34099283197199
 21
264.74916059841649
 31
0.0
  0
LINE
  5
1809
  8
DANMEN
  6
CONTINUOUS
 10
135.49099283197211
 20
271.54916059841651
 30
0.0
 11
135.49099283197211
 21
264.04916059841639
 31
0.0
  0
ARC
  5
180A
  8
DANMEN
  6
CONTINUOUS
 10
134.99099283197211
 20
264.04916059841639
 30
0.0
 40
0.5
 50
270.0
 51
0.0
  0
LINE
  5
180B
  8
DANMEN
  6
CONTINUOUS
 10
145.64099283197211
 20
271.54916059841651
 30
0.0
 11
145.64099283197211
 21
248.54916059841631
 31
0.0
  0
LINE
  5
180C
  8
DANMEN
  6
CONTINUOUS
 10
146.19099283197201
 20
248.54916059841631
 30
0.0
 11
146.19099283197201
 21
244.04916059841631
 31
0.0
  0
ARC
  5
180D
  8
DANMEN
  6
CONTINUOUS
 10
144.49099283197211
 20
244.04916059841631
 30
0.0
 40
0.5
 50
180.0
 51
270.0
  0
ARC
  5
180E
  8
DANMEN
  6
CONTINUOUS
 10
145.69099283197201
 20
244.04916059841631
 30
0.0
 40
0.5
 50
270.0
 51
0.0
  0
LINE
  5
180F
  8
DANMEN
  6
CONTINUOUS
 10
203.99099283197191
 20
278.54916059841651
 30
0.0
 11
203.99099283197191
 21
264.04916059841639
 31
0.0
  0
LINE
  5
1810
  8
DANMEN
  6
CONTINUOUS
 10
164.99099283197211
 20
281.54916059841651
 30
0.0
 11
164.99099283197211
 21
298.04916059841651
 31
0.0
  0
LINE
  5
1811
  8
DANMEN
  6
CONTINUOUS
 10
164.49099283197211
 20
298.54916059841651
 30
0.0
 11
155.49099283197211
 21
298.54916059841651
 31
0.0
  0
LINE
  5
1812
  8
DANMEN
  6
CONTINUOUS
 10
154.99099283197211
 20
298.04916059841651
 30
0.0
 11
154.99099283197211
 21
297.3991605984163
 31
0.0
  0
LINE
  5
1813
  8
DANMEN
  6
CONTINUOUS
 10
155.49099283197211
 20
296.8991605984163
 30
0.0
 11
162.99099283197211
 21
296.8991605984163
 31
0.0
  0
ARC
  5
1814
  8
DANMEN
  6
CONTINUOUS
 10
164.49099283197211
 20
298.04916059841651
 30
0.0
 40
0.5
 50
0.0
 51
90.0
  0
ARC
  5
1815
  8
DANMEN
  6
CONTINUOUS
 10
155.49099283197211
 20
298.04916059841651
 30
0.0
 40
0.5
 50
90.0
 51
180.0
  0
ARC
  5
1816
  8
DANMEN
  6
CONTINUOUS
 10
155.49099283197211
 20
297.3991605984163
 30
0.0
 40
0.5
 50
180.0
 51
270.0
  0
LINE
  5
1817
  8
DANMEN
  6
CONTINUOUS
 10
167.99099283197211
 20
279.54916059841651
 30
0.0
 11
173.99099283197211
 21
279.54916059841651
 31
0.0
  0
LINE
  5
1818
  8
DANMEN
  6
CONTINUOUS
 10
139.99099283197211
 20
298.04916059841651
 30
0.0
 11
139.99099283197211
 21
297.3991605984163
 31
0.0
  0
LINE
  5
1819
  8
DANMEN
  6
CONTINUOUS
 10
134.49099283197211
 20
298.54916059841651
 30
0.0
 11
139.49099283197211
 21
298.54916059841651
 31
0.0
  0
LINE
  5
181A
  8
DANMEN
  6
CONTINUOUS
 10
135.64099283197211
 20
296.8991605984163
 30
0.0
 11
139.49099283197211
 21
296.8991605984163
 31
0.0
  0
ARC
  5
181B
  8
DANMEN
  6
CONTINUOUS
 10
139.49099283197211
 20
298.04916059841651
 30
0.0
 40
0.5
 50
0.0
 51
90.0
  0
ARC
  5
181C
  8
DANMEN
  6
CONTINUOUS
 10
139.49099283197211
 20
297.3991605984163
 30
0.0
 40
0.5
 50
270.0
 51
0.0
  0
LINE
  5
181D
  8
DANMEN
  6
CONTINUOUS
 10
150.1909928319721
 20
119.54916059841651
 30
0.0
 11
178.1909928319721
 21
119.54916059841651
 31
0.0
  0
LINE
  5
181E
  8
DANMEN
  6
CONTINUOUS
 10
150.1909928319721
 20
126.54916059841651
 30
0.0
 11
178.1909928319721
 21
126.54916059841651
 31
0.0
  0
LINE
  5
181F
  8
DANMEN
  6
CONTINUOUS
 10
178.1909928319721
 20
126.54916059841651
 30
0.0
 11
178.1909928319721
 21
119.54916059841651
 31
0.0
  0
LINE
  5
1820
  8
DANMEN
  6
CONTINUOUS
 10
150.1909928319721
 20
126.54916059841651
 30
0.0
 11
150.1909928319721
 21
119.54916059841651
 31
0.0
  0
LINE
  5
1821
  8
DANMEN
  6
CONTINUOUS
 10
150.1909928319721
 20
119.54916059841651
 30
0.0
 11
178.1909928319721
 21
126.54916059841651
 31
0.0
  0
LINE
  5
1822
  8
DANMEN
  6
CONTINUOUS
 10
175.19099283197221
 20
144.54916059841651
 30
0.0
 11
182.69099283197221
 21
143.54916059841651
 31
0.0
  0
LINE
  5
1823
  8
DANMEN
  6
CONTINUOUS
 10
153.1909928319721
 20
144.54916059841651
 30
0.0
 11
145.69099283197201
 21
143.54916059841651
 31
0.0
  0
LINE
  5
1824
  8
DANMEN
  6
CONTINUOUS
 10
175.19099283197221
 20
242.54916059841631
 30
0.0
 11
182.69099283197221
 21
243.54916059841639
 31
0.0
  0
LINE
  5
1825
  8
DANMEN
  6
CONTINUOUS
 10
153.1909928319721
 20
242.54916059841631
 30
0.0
 11
145.69099283197201
 21
243.54916059841639
 31
0.0
  0
LINE
  5
1826
  8
DANMEN
  6
CONTINUOUS
 10
308.99099283197199
 20
143.8491605984164
 30
0.0
 11
290.99099283197199
 21
158.8491605984164
 31
0.0
  0
LINE
  5
1827
  8
DANMEN
  6
CONTINUOUS
 10
308.99099283197199
 20
143.8491605984164
 30
0.0
 11
308.99099283197199
 21
158.8491605984164
 31
0.0
  0
LINE
  5
1828
  8
DANMEN
  6
CONTINUOUS
 10
308.99099283197199
 20
158.8491605984164
 30
0.0
 11
290.99099283197199
 21
158.8491605984164
 31
0.0
  0
LINE
  5
1829
  8
DANMEN
  6
CONTINUOUS
 10
308.99099283197199
 20
143.8491605984164
 30
0.0
 11
290.99099283197199
 21
143.8491605984164
 31
0.0
  0
LINE
  5
182A
  8
DANMEN
  6
CONTINUOUS
 10
290.99099283197199
 20
143.8491605984164
 30
0.0
 11
290.99099283197199
 21
158.8491605984164
 31
0.0
  0
LINE
  5
182B
  8
DANMEN
  6
CONTINUOUS
 10
326.99099283197188
 20
162.34916059841629
 30
0.0
 11
325.99099283197199
 21
169.8491605984164
 31
0.0
  0
LINE
  5
182C
  8
DANMEN
  6
CONTINUOUS
 10
326.99099283197188
 20
140.3491605984164
 30
0.0
 11
325.99099283197199
 21
132.8491605984164
 31
0.0
  0
LINE
  5
182D
  8
DANMEN
  6
CONTINUOUS
 10
408.99099283197199
 20
162.34916059841629
 30
0.0
 11
409.99099283197199
 21
169.8491605984164
 31
0.0
  0
LINE
  5
182E
  8
DANMEN
  6
CONTINUOUS
 10
408.99099283197199
 20
140.3491605984164
 30
0.0
 11
409.99099283197199
 21
132.8491605984164
 31
0.0
  0
LINE
  5
182F
  8
SUNPO
  6
CONTINUOUS
 10
381.99099283197199
 20
173.54916059841631
 30
0.0
 11
381.99099283197199
 21
181.54916059841631
 31
0.0
  0
TEXT
  5
1830
  8
SUNPO
  6
CONTINUOUS
 10
381.49099283197188
 20
176.71582726508311
 30
0.0
 40
2.5
  1
8
 50
90.0
  0
POLYLINE
  5
1831
  8
SUNPO
  6
BYBLOCK
 66
     1
 10
0.0
 20
0.0
 30
0.0
 70
     1
 40
1.159999999999999
 41
1.159999999999999
  0
VERTEX
  5
1B65
  8
SUNPO
  6
BYBLOCK
 10
381.99099283197199
 20
181.40300059841641
 30
0.0
 42
1.0
  0
VERTEX
  5
1B66
  8
SUNPO
  6
BYBLOCK
 10
381.99099283197199
 20
181.69532059841629
 30
0.0
 42
1.0
  0
SEQEND
  5
1B67
  8
SUNPO
  6
BYBLOCK
  0
POLYLINE
  5
1835
  8
SUNPO
  6
BYBLOCK
 66
     1
 10
0.0
 20
0.0
 30
0.0
 70
     1
 40
1.159999999999999
 41
1.159999999999999
  0
VERTEX
  5
1B68
  8
SUNPO
  6
BYBLOCK
 10
381.99099283197199
 20
173.6953205984164
 30
0.0
 42
1.0
  0
VERTEX
  5
1B69
  8
SUNPO
  6
BYBLOCK
 10
381.99099283197199
 20
173.40300059841641
 30
0.0
 42
1.0
  0
SEQEND
  5
1B6A
  8
SUNPO
  6
BYBLOCK
  0
LINE
  5
1839
  8
DANMEN
  6
CONTINUOUS
 10
414.99099283197188
 20
167.56216059841631
 30
0.0
 11
413.20399283197168
 21
169.3491605984164
 31
0.0
  0
LINE
  5
183A
  8
DANMEN
  6
CONTINUOUS
 10
414.99099283197188
 20
165.44116059841639
 30
0.0
 11
411.08299283197192
 21
169.3491605984164
 31
0.0
  0
LINE
  5
183B
  8
DANMEN
  6
CONTINUOUS
 10
414.99099283197188
 20
163.32016059841641
 30
0.0
 11
409.81099283197187
 21
168.49916059841641
 31
0.0
  0
LINE
  5
183C
  8
DANMEN
  6
CONTINUOUS
 10
413.8399928319721
 20
162.34916059841629
 30
0.0
 11
409.56199283197191
 21
166.6281605984164
 31
0.0
  0
LINE
  5
183D
  8
DANMEN
  6
CONTINUOUS
 10
411.71899283197189
 20
162.34916059841629
 30
0.0
 11
409.31199283197191
 21
164.75616059841639
 31
0.0
  0
LINE
  5
183E
  8
DANMEN
  6
CONTINUOUS
 10
409.59799283197191
 20
162.34916059841629
 30
0.0
 11
409.06199283197191
 21
162.88416059841629
 31
0.0
  0
LINE
  5
183F
  8
DANMEN
  6
CONTINUOUS
 10
414.99099283197188
 20
162.71316059841641
 30
0.0
 11
414.6269928319719
 21
162.34916059841629
 31
0.0
  0
LINE
  5
1840
  8
DANMEN
  6
CONTINUOUS
 10
414.99099283197188
 20
164.83416059841639
 30
0.0
 11
412.50599283197198
 21
162.34916059841629
 31
0.0
  0
LINE
  5
1841
  8
DANMEN
  6
CONTINUOUS
 10
414.99099283197188
 20
166.9561605984164
 30
0.0
 11
410.38399283197191
 21
162.34916059841629
 31
0.0
  0
LINE
  5
1842
  8
DANMEN
  6
CONTINUOUS
 10
414.99099283197188
 20
169.07716059841641
 30
0.0
 11
409.10299283197179
 21
163.18916059841641
 31
0.0
  0
LINE
  5
1843
  8
DANMEN
  6
CONTINUOUS
 10
413.14199283197189
 20
169.3491605984164
 30
0.0
 11
409.4289928319721
 21
165.63716059841639
 31
0.0
  0
LINE
  5
1844
  8
DANMEN
  6
CONTINUOUS
 10
411.0199928319721
 20
169.3491605984164
 30
0.0
 11
409.75599283197198
 21
168.08416059841639
 31
0.0
  0
LINE
  5
1845
  8
DANMEN
  6
CONTINUOUS
 10
414.99099283197188
 20
139.98516059841651
 30
0.0
 11
414.6269928319719
 21
140.3491605984164
 31
0.0
  0
LINE
  5
1846
  8
DANMEN
  6
CONTINUOUS
 10
414.99099283197188
 20
137.8641605984165
 30
0.0
 11
412.50599283197198
 21
140.3491605984164
 31
0.0
  0
LINE
  5
1847
  8
DANMEN
  6
CONTINUOUS
 10
414.99099283197188
 20
135.7421605984164
 30
0.0
 11
410.38399283197191
 21
140.3491605984164
 31
0.0
  0
LINE
  5
1848
  8
DANMEN
  6
CONTINUOUS
 10
414.99099283197188
 20
133.62116059841651
 30
0.0
 11
409.10299283197179
 21
139.50916059841651
 31
0.0
  0
LINE
  5
1849
  8
DANMEN
  6
CONTINUOUS
 10
413.14199283197189
 20
133.3491605984164
 30
0.0
 11
409.4289928319721
 21
137.06116059841651
 31
0.0
  0
LINE
  5
184A
  8
DANMEN
  6
CONTINUOUS
 10
411.0199928319721
 20
133.3491605984164
 30
0.0
 11
409.75599283197198
 21
134.6141605984165
 31
0.0
  0
LINE
  5
184B
  8
DANMEN
  6
CONTINUOUS
 10
414.99099283197188
 20
135.13616059841641
 30
0.0
 11
413.20399283197168
 21
133.3491605984164
 31
0.0
  0
LINE
  5
184C
  8
DANMEN
  6
CONTINUOUS
 10
414.99099283197188
 20
137.2571605984165
 30
0.0
 11
411.08299283197192
 21
133.3491605984164
 31
0.0
  0
LINE
  5
184D
  8
DANMEN
  6
CONTINUOUS
 10
414.99099283197188
 20
139.37816059841651
 30
0.0
 11
409.81099283197187
 21
134.19916059841651
 31
0.0
  0
LINE
  5
184E
  8
DANMEN
  6
CONTINUOUS
 10
413.8399928319721
 20
140.3491605984164
 30
0.0
 11
409.56199283197191
 21
136.07016059841641
 31
0.0
  0
LINE
  5
184F
  8
DANMEN
  6
CONTINUOUS
 10
411.71899283197189
 20
140.3491605984164
 30
0.0
 11
409.31199283197191
 21
137.94216059841651
 31
0.0
  0
LINE
  5
1850
  8
DANMEN
  6
CONTINUOUS
 10
409.59799283197191
 20
140.3491605984164
 30
0.0
 11
409.06199283197191
 21
139.81416059841641
 31
0.0
  0
LINE
  5
1851
  8
DANMEN
  6
CONTINUOUS
 10
320.99099283197188
 20
167.56216059841631
 30
0.0
 11
322.77799283197203
 21
169.3491605984164
 31
0.0
  0
LINE
  5
1852
  8
DANMEN
  6
CONTINUOUS
 10
320.99099283197188
 20
165.44116059841639
 30
0.0
 11
324.89899283197201
 21
169.3491605984164
 31
0.0
  0
LINE
  5
1853
  8
DANMEN
  6
CONTINUOUS
 10
320.99099283197188
 20
163.32016059841641
 30
0.0
 11
326.17099283197189
 21
168.49916059841641
 31
0.0
  0
LINE
  5
1854
  8
DANMEN
  6
CONTINUOUS
 10
322.141992831972
 20
162.34916059841629
 30
0.0
 11
326.41999283197202
 21
166.6281605984164
 31
0.0
  0
LINE
  5
1855
  8
DANMEN
  6
CONTINUOUS
 10
324.2629928319721
 20
162.34916059841629
 30
0.0
 11
326.66999283197202
 21
164.75616059841639
 31
0.0
  0
LINE
  5
1856
  8
DANMEN
  6
CONTINUOUS
 10
326.38399283197202
 20
162.34916059841629
 30
0.0
 11
326.91999283197202
 21
162.88416059841629
 31
0.0
  0
LINE
  5
1857
  8
DANMEN
  6
CONTINUOUS
 10
320.99099283197188
 20
162.71316059841641
 30
0.0
 11
321.35499283197203
 21
162.34916059841629
 31
0.0
  0
LINE
  5
1858
  8
DANMEN
  6
CONTINUOUS
 10
320.99099283197188
 20
164.83416059841639
 30
0.0
 11
323.47599283197201
 21
162.34916059841629
 31
0.0
  0
LINE
  5
1859
  8
DANMEN
  6
CONTINUOUS
 10
320.99099283197188
 20
166.9561605984164
 30
0.0
 11
325.59799283197202
 21
162.34916059841629
 31
0.0
  0
LINE
  5
185A
  8
DANMEN
  6
CONTINUOUS
 10
320.99099283197188
 20
169.07716059841641
 30
0.0
 11
326.87899283197203
 21
163.18916059841641
 31
0.0
  0
LINE
  5
185B
  8
DANMEN
  6
CONTINUOUS
 10
322.8399928319721
 20
169.3491605984164
 30
0.0
 11
326.55299283197201
 21
165.63716059841639
 31
0.0
  0
LINE
  5
185C
  8
DANMEN
  6
CONTINUOUS
 10
324.961992831972
 20
169.3491605984164
 30
0.0
 11
326.22599283197201
 21
168.08416059841639
 31
0.0
  0
LINE
  5
185D
  8
DANMEN
  6
CONTINUOUS
 10
320.99099283197188
 20
139.98516059841651
 30
0.0
 11
321.35499283197203
 21
140.3491605984164
 31
0.0
  0
LINE
  5
185E
  8
DANMEN
  6
CONTINUOUS
 10
320.99099283197188
 20
137.8641605984165
 30
0.0
 11
323.47599283197201
 21
140.3491605984164
 31
0.0
  0
LINE
  5
185F
  8
DANMEN
  6
CONTINUOUS
 10
320.99099283197188
 20
135.7421605984164
 30
0.0
 11
325.59799283197202
 21
140.3491605984164
 31
0.0
  0
LINE
  5
1860
  8
DANMEN
  6
CONTINUOUS
 10
320.99099283197188
 20
133.62116059841651
 30
0.0
 11
326.87899283197203
 21
139.50916059841651
 31
0.0
  0
LINE
  5
1861
  8
DANMEN
  6
CONTINUOUS
 10
322.8399928319721
 20
133.3491605984164
 30
0.0
 11
326.55299283197201
 21
137.06116059841651
 31
0.0
  0
LINE
  5
1862
  8
DANMEN
  6
CONTINUOUS
 10
324.961992831972
 20
133.3491605984164
 30
0.0
 11
326.22599283197201
 21
134.6141605984165
 31
0.0
  0
LINE
  5
1863
  8
DANMEN
  6
CONTINUOUS
 10
320.99099283197188
 20
135.13616059841641
 30
0.0
 11
322.77799283197203
 21
133.3491605984164
 31
0.0
  0
LINE
  5
1864
  8
DANMEN
  6
CONTINUOUS
 10
320.99099283197188
 20
137.2571605984165
 30
0.0
 11
324.89899283197201
 21
133.3491605984164
 31
0.0
  0
LINE
  5
1865
  8
DANMEN
  6
CONTINUOUS
 10
320.99099283197188
 20
139.37816059841651
 30
0.0
 11
326.17099283197189
 21
134.19916059841651
 31
0.0
  0
LINE
  5
1866
  8
DANMEN
  6
CONTINUOUS
 10
322.141992831972
 20
140.3491605984164
 30
0.0
 11
326.41999283197202
 21
136.07016059841641
 31
0.0
  0
LINE
  5
1867
  8
DANMEN
  6
CONTINUOUS
 10
324.2629928319721
 20
140.3491605984164
 30
0.0
 11
326.66999283197202
 21
137.94216059841651
 31
0.0
  0
LINE
  5
1868
  8
DANMEN
  6
CONTINUOUS
 10
326.38399283197202
 20
140.3491605984164
 30
0.0
 11
326.91999283197202
 21
139.81416059841641
 31
0.0
  0
LINE
  5
1869
  8
DANMEN
  6
CONTINUOUS
 10
180.4039928319722
 20
248.54916059841631
 30
0.0
 11
182.1909928319721
 21
246.76216059841639
 31
0.0
  0
LINE
  5
186A
  8
DANMEN
  6
CONTINUOUS
 10
178.28299283197211
 20
248.54916059841631
 30
0.0
 11
182.1909928319721
 21
244.64116059841641
 31
0.0
  0
LINE
  5
186B
  8
DANMEN
  6
CONTINUOUS
 10
176.16199283197199
 20
248.54916059841631
 30
0.0
 11
181.34099283197199
 21
243.36916059841641
 31
0.0
  0
LINE
  5
186C
  8
DANMEN
  6
CONTINUOUS
 10
175.19099283197221
 20
247.3981605984163
 30
0.0
 11
179.46999283197201
 21
243.12016059841639
 31
0.0
  0
LINE
  5
186D
  8
DANMEN
  6
CONTINUOUS
 10
175.19099283197221
 20
245.27716059841629
 30
0.0
 11
177.59799283197211
 21
242.87016059841639
 31
0.0
  0
LINE
  5
186E
  8
DANMEN
  6
CONTINUOUS
 10
175.19099283197221
 20
243.15616059841639
 30
0.0
 11
175.72599283197221
 21
242.62016059841639
 31
0.0
  0
LINE
  5
186F
  8
DANMEN
  6
CONTINUOUS
 10
175.55499283197199
 20
248.54916059841631
 30
0.0
 11
175.19099283197221
 21
248.18516059841639
 31
0.0
  0
LINE
  5
1870
  8
DANMEN
  6
CONTINUOUS
 10
177.67599283197211
 20
248.54916059841631
 30
0.0
 11
175.19099283197221
 21
246.06416059841641
 31
0.0
  0
LINE
  5
1871
  8
DANMEN
  6
CONTINUOUS
 10
179.7979928319721
 20
248.54916059841631
 30
0.0
 11
175.19099283197221
 21
243.94216059841639
 31
0.0
  0
LINE
  5
1872
  8
DANMEN
  6
CONTINUOUS
 10
181.91899283197199
 20
248.54916059841631
 30
0.0
 11
176.03099283197199
 21
242.66116059841639
 31
0.0
  0
LINE
  5
1873
  8
DANMEN
  6
CONTINUOUS
 10
182.1909928319721
 20
246.70016059841629
 30
0.0
 11
178.47899283197211
 21
242.98716059841641
 31
0.0
  0
LINE
  5
1874
  8
DANMEN
  6
CONTINUOUS
 10
182.1909928319721
 20
244.57816059841639
 30
0.0
 11
180.9259928319718
 21
243.31416059841649
 31
0.0
  0
LINE
  5
1875
  8
DANMEN
  6
CONTINUOUS
 10
152.82699283197201
 20
248.54916059841631
 30
0.0
 11
153.1909928319721
 21
248.18516059841639
 31
0.0
  0
LINE
  5
1876
  8
DANMEN
  6
CONTINUOUS
 10
150.70599283197211
 20
248.54916059841631
 30
0.0
 11
153.1909928319721
 21
246.06416059841641
 31
0.0
  0
LINE
  5
1877
  8
DANMEN
  6
CONTINUOUS
 10
148.5839928319721
 20
248.54916059841631
 30
0.0
 11
153.1909928319721
 21
243.94216059841639
 31
0.0
  0
LINE
  5
1878
  8
DANMEN
  6
CONTINUOUS
 10
146.46299283197209
 20
248.54916059841631
 30
0.0
 11
152.35099283197201
 21
242.66116059841639
 31
0.0
  0
LINE
  5
1879
  8
DANMEN
  6
CONTINUOUS
 10
146.19099283197201
 20
246.70016059841629
 30
0.0
 11
149.90299283197211
 21
242.98716059841641
 31
0.0
  0
LINE
  5
187A
  8
DANMEN
  6
CONTINUOUS
 10
146.19099283197201
 20
244.57816059841639
 30
0.0
 11
147.45599283197211
 21
243.31416059841649
 31
0.0
  0
LINE
  5
187B
  8
DANMEN
  6
CONTINUOUS
 10
147.9779928319721
 20
248.54916059841631
 30
0.0
 11
146.19099283197201
 21
246.76216059841639
 31
0.0
  0
LINE
  5
187C
  8
DANMEN
  6
CONTINUOUS
 10
150.09899283197211
 20
248.54916059841631
 30
0.0
 11
146.19099283197201
 21
244.64116059841641
 31
0.0
  0
LINE
  5
187D
  8
DANMEN
  6
CONTINUOUS
 10
152.21999283197201
 20
248.54916059841631
 30
0.0
 11
147.04099283197201
 21
243.36916059841641
 31
0.0
  0
LINE
  5
187E
  8
DANMEN
  6
CONTINUOUS
 10
153.1909928319721
 20
247.3981605984163
 30
0.0
 11
148.91199283197199
 21
243.12016059841639
 31
0.0
  0
LINE
  5
187F
  8
DANMEN
  6
CONTINUOUS
 10
153.1909928319721
 20
245.27716059841629
 30
0.0
 11
150.78399283197211
 21
242.87016059841639
 31
0.0
  0
LINE
  5
1880
  8
DANMEN
  6
CONTINUOUS
 10
153.1909928319721
 20
243.15616059841639
 30
0.0
 11
152.6559928319721
 21
242.62016059841639
 31
0.0
  0
LINE
  5
1881
  8
DANMEN
  6
CONTINUOUS
 10
180.4039928319722
 20
138.54916059841651
 30
0.0
 11
182.1909928319721
 21
140.33616059841651
 31
0.0
  0
LINE
  5
1882
  8
DANMEN
  6
CONTINUOUS
 10
178.28299283197211
 20
138.54916059841651
 30
0.0
 11
182.1909928319721
 21
142.45716059841641
 31
0.0
  0
LINE
  5
1883
  8
DANMEN
  6
CONTINUOUS
 10
176.16199283197199
 20
138.54916059841651
 30
0.0
 11
181.34099283197199
 21
143.72916059841651
 31
0.0
  0
LINE
  5
1884
  8
DANMEN
  6
CONTINUOUS
 10
175.19099283197221
 20
139.70016059841649
 30
0.0
 11
179.46999283197201
 21
143.97816059841651
 31
0.0
  0
LINE
  5
1885
  8
DANMEN
  6
CONTINUOUS
 10
175.19099283197221
 20
141.82116059841641
 30
0.0
 11
177.59799283197211
 21
144.22816059841651
 31
0.0
  0
LINE
  5
1886
  8
DANMEN
  6
CONTINUOUS
 10
175.19099283197221
 20
143.94216059841651
 30
0.0
 11
175.72599283197221
 21
144.47816059841651
 31
0.0
  0
LINE
  5
1887
  8
DANMEN
  6
CONTINUOUS
 10
175.55499283197199
 20
138.54916059841651
 30
0.0
 11
175.19099283197221
 21
138.91316059841651
 31
0.0
  0
LINE
  5
1888
  8
DANMEN
  6
CONTINUOUS
 10
177.67599283197211
 20
138.54916059841651
 30
0.0
 11
175.19099283197221
 21
141.03416059841641
 31
0.0
  0
LINE
  5
1889
  8
DANMEN
  6
CONTINUOUS
 10
179.7979928319721
 20
138.54916059841651
 30
0.0
 11
175.19099283197221
 21
143.15616059841651
 31
0.0
  0
LINE
  5
188A
  8
DANMEN
  6
CONTINUOUS
 10
181.91899283197199
 20
138.54916059841651
 30
0.0
 11
176.03099283197199
 21
144.43716059841651
 31
0.0
  0
LINE
  5
188B
  8
DANMEN
  6
CONTINUOUS
 10
182.1909928319721
 20
140.39816059841641
 30
0.0
 11
178.47899283197211
 21
144.11116059841629
 31
0.0
  0
LINE
  5
188C
  8
DANMEN
  6
CONTINUOUS
 10
182.1909928319721
 20
142.52016059841651
 30
0.0
 11
180.9259928319718
 21
143.78416059841641
 31
0.0
  0
LINE
  5
188D
  8
DANMEN
  6
CONTINUOUS
 10
152.82699283197201
 20
138.54916059841651
 30
0.0
 11
153.1909928319721
 21
138.91316059841651
 31
0.0
  0
LINE
  5
188E
  8
DANMEN
  6
CONTINUOUS
 10
150.70599283197211
 20
138.54916059841651
 30
0.0
 11
153.1909928319721
 21
141.03416059841641
 31
0.0
  0
LINE
  5
188F
  8
DANMEN
  6
CONTINUOUS
 10
148.5839928319721
 20
138.54916059841651
 30
0.0
 11
153.1909928319721
 21
143.15616059841651
 31
0.0
  0
LINE
  5
1890
  8
DANMEN
  6
CONTINUOUS
 10
146.46299283197209
 20
138.54916059841651
 30
0.0
 11
152.35099283197201
 21
144.43716059841651
 31
0.0
  0
LINE
  5
1891
  8
DANMEN
  6
CONTINUOUS
 10
146.19099283197201
 20
140.39816059841641
 30
0.0
 11
149.90299283197211
 21
144.11116059841629
 31
0.0
  0
LINE
  5
1892
  8
DANMEN
  6
CONTINUOUS
 10
146.19099283197201
 20
142.52016059841651
 30
0.0
 11
147.45599283197211
 21
143.78416059841641
 31
0.0
  0
LINE
  5
1893
  8
DANMEN
  6
CONTINUOUS
 10
147.9779928319721
 20
138.54916059841651
 30
0.0
 11
146.19099283197201
 21
140.33616059841651
 31
0.0
  0
LINE
  5
1894
  8
DANMEN
  6
CONTINUOUS
 10
150.09899283197211
 20
138.54916059841651
 30
0.0
 11
146.19099283197201
 21
142.45716059841641
 31
0.0
  0
LINE
  5
1895
  8
DANMEN
  6
CONTINUOUS
 10
152.21999283197201
 20
138.54916059841651
 30
0.0
 11
147.04099283197201
 21
143.72916059841651
 31
0.0
  0
LINE
  5
1896
  8
DANMEN
  6
CONTINUOUS
 10
153.1909928319721
 20
139.70016059841649
 30
0.0
 11
148.91199283197199
 21
143.97816059841651
 31
0.0
  0
LINE
  5
1897
  8
DANMEN
  6
CONTINUOUS
 10
153.1909928319721
 20
141.82116059841641
 30
0.0
 11
150.78399283197211
 21
144.22816059841651
 31
0.0
  0
LINE
  5
1898
  8
DANMEN
  6
CONTINUOUS
 10
153.1909928319721
 20
143.94216059841651
 30
0.0
 11
152.6559928319721
 21
144.47816059841651
 31
0.0
  0
LINE
  5
1899
  8
DANMEN
  6
CONTINUOUS
 10
173.92499283197211
 20
271.54916059841651
 30
0.0
 11
173.99099283197211
 21
271.61516059841648
 31
0.0
  0
LINE
  5
189A
  8
DANMEN
  6
CONTINUOUS
 10
175.534992831972
 20
273.15916059841641
 30
0.0
 11
176.99099283197211
 21
274.61516059841642
 31
0.0
  0
LINE
  5
189B
  8
DANMEN
  6
CONTINUOUS
 10
172.5109928319722
 20
271.54916059841651
 30
0.0
 11
173.99099283197211
 21
273.0291605984163
 31
0.0
  0
LINE
  5
189C
  8
DANMEN
  6
CONTINUOUS
 10
174.89599283197191
 20
273.9341605984165
 30
0.0
 11
176.99099283197211
 21
276.02916059841658
 31
0.0
  0
LINE
  5
189D
  8
DANMEN
  6
CONTINUOUS
 10
171.0969928319721
 20
271.54916059841651
 30
0.0
 11
176.99099283197211
 21
277.4431605984164
 31
0.0
  0
LINE
  5
189E
  8
DANMEN
  6
CONTINUOUS
 10
169.68299283197209
 20
271.54916059841651
 30
0.0
 11
176.99099283197211
 21
278.8571605984165
 31
0.0
  0
LINE
  5
189F
  8
DANMEN
  6
CONTINUOUS
 10
168.26799283197201
 20
271.54916059841651
 30
0.0
 11
176.26799283197221
 21
279.54916059841651
 31
0.0
  0
LINE
  5
18A0
  8
DANMEN
  6
CONTINUOUS
 10
167.99099283197211
 20
272.68616059841651
 30
0.0
 11
173.99099283197211
 21
278.68616059841651
 31
0.0
  0
LINE
  5
18A1
  8
DANMEN
  6
CONTINUOUS
 10
167.93999283197201
 20
274.04916059841651
 30
0.0
 11
173.43999283197221
 21
279.54916059841651
 31
0.0
  0
LINE
  5
18A2
  8
DANMEN
  6
CONTINUOUS
 10
165.5259928319721
 20
273.04916059841651
 30
0.0
 11
172.02599283197199
 21
279.54916059841651
 31
0.0
  0
LINE
  5
18A3
  8
DANMEN
  6
CONTINUOUS
 10
164.99099283197211
 20
273.92816059841658
 30
0.0
 11
170.61199283197209
 21
279.54916059841651
 31
0.0
  0
LINE
  5
18A4
  8
DANMEN
  6
CONTINUOUS
 10
164.99099283197211
 20
275.34316059841649
 30
0.0
 11
169.19699283197201
 21
279.54916059841651
 31
0.0
  0
LINE
  5
18A5
  8
DANMEN
  6
CONTINUOUS
 10
164.99099283197211
 20
276.75716059841642
 30
0.0
 11
166.9959928319721
 21
278.76216059841659
 31
0.0
  0
LINE
  5
18A6
  8
DANMEN
  6
CONTINUOUS
 10
164.99099283197211
 20
278.17116059841658
 30
0.0
 11
166.31499283197201
 21
279.49516059841642
 31
0.0
  0
LINE
  5
18A7
  8
DANMEN
  6
CONTINUOUS
 10
283.78999283197197
 20
138.54916059841651
 30
0.0
 11
282.99099283197199
 21
139.34816059841651
 31
0.0
  0
LINE
  5
18A8
  8
DANMEN
  6
CONTINUOUS
 10
285.20399283197202
 20
138.54916059841651
 30
0.0
 11
283.39899283197201
 21
140.3551605984164
 31
0.0
  0
LINE
  5
18A9
  8
DANMEN
  6
CONTINUOUS
 10
286.617992831972
 20
138.54916059841651
 30
0.0
 11
283.99099283197188
 21
141.1761605984164
 31
0.0
  0
LINE
  5
18AA
  8
DANMEN
  6
CONTINUOUS
 10
283.617992831972
 20
141.54916059841651
 30
0.0
 11
282.99099283197199
 21
142.1761605984164
 31
0.0
  0
LINE
  5
18AB
  8
DANMEN
  6
CONTINUOUS
 10
288.03299283197202
 20
138.54916059841651
 30
0.0
 11
282.99099283197199
 21
143.59116059841651
 31
0.0
  0
LINE
  5
18AC
  8
DANMEN
  6
CONTINUOUS
 10
289.3219928319719
 20
138.67416059841651
 30
0.0
 11
282.99099283197199
 21
145.0051605984165
 31
0.0
  0
LINE
  5
18AD
  8
DANMEN
  6
CONTINUOUS
 10
289.35099283197201
 20
140.05916059841641
 30
0.0
 11
289.0009928319721
 21
140.40916059841641
 31
0.0
  0
LINE
  5
18AE
  8
DANMEN
  6
CONTINUOUS
 10
288.492992831972
 20
140.91716059841639
 30
0.0
 11
282.99099283197199
 21
146.41916059841651
 31
0.0
  0
LINE
  5
18AF
  8
DANMEN
  6
CONTINUOUS
 10
289.27499283197182
 20
141.54916059841651
 30
0.0
 11
283.27499283197182
 21
147.54916059841651
 31
0.0
  0
LINE
  5
18B0
  8
DANMEN
  6
CONTINUOUS
 10
290.68899283197197
 20
141.54916059841651
 30
0.0
 11
283.97399283197188
 21
148.2651605984164
 31
0.0
  0
LINE
  5
18B1
  8
DANMEN
  6
CONTINUOUS
 10
283.61699283197203
 20
148.62216059841651
 30
0.0
 11
283.06399283197197
 21
149.17516059841651
 31
0.0
  0
LINE
  5
18B2
  8
DANMEN
  6
CONTINUOUS
 10
290.99099283197199
 20
142.66216059841651
 30
0.0
 11
283.1979928319721
 21
150.45416059841651
 31
0.0
  0
LINE
  5
18B3
  8
DANMEN
  6
CONTINUOUS
 10
290.99099283197199
 20
144.07616059841641
 30
0.0
 11
284.51799283197192
 21
150.54916059841651
 31
0.0
  0
LINE
  5
18B4
  8
DANMEN
  6
CONTINUOUS
 10
290.99099283197199
 20
145.49016059841651
 30
0.0
 11
288.93199283197202
 21
147.54916059841651
 31
0.0
  0
LINE
  5
18B5
  8
DANMEN
  6
CONTINUOUS
 10
288.49099283197199
 20
147.99016059841651
 30
0.0
 11
285.93199283197202
 21
150.54916059841651
 31
0.0
  0
LINE
  5
18B6
  8
DANMEN
  6
CONTINUOUS
 10
290.99099283197199
 20
146.90416059841641
 30
0.0
 11
290.34599283197213
 21
147.54916059841651
 31
0.0
  0
LINE
  5
18B7
  8
DANMEN
  6
CONTINUOUS
 10
289.12199283197202
 20
148.7731605984165
 30
0.0
 11
287.34599283197213
 21
150.54916059841651
 31
0.0
  0
LINE
  5
18B8
  8
DANMEN
  6
CONTINUOUS
 10
289.49099283197188
 20
149.8191605984164
 30
0.0
 11
288.76099283197198
 21
150.54916059841651
 31
0.0
  0
LINE
  5
18B9
  8
DANMEN
  6
CONTINUOUS
 10
452.19199283197207
 20
138.54916059841651
 30
0.0
 11
452.99099283197188
 21
139.34816059841651
 31
0.0
  0
LINE
  5
18BA
  8
DANMEN
  6
CONTINUOUS
 10
450.77799283197191
 20
138.54916059841651
 30
0.0
 11
452.58299283197192
 21
140.3551605984164
 31
0.0
  0
LINE
  5
18BB
  8
DANMEN
  6
CONTINUOUS
 10
449.36399283197193
 20
138.54916059841651
 30
0.0
 11
451.99099283197188
 21
141.1761605984164
 31
0.0
  0
LINE
  5
18BC
  8
DANMEN
  6
CONTINUOUS
 10
452.36399283197193
 20
141.54916059841651
 30
0.0
 11
452.99099283197188
 21
142.1761605984164
 31
0.0
  0
LINE
  5
18BD
  8
DANMEN
  6
CONTINUOUS
 10
447.94899283197191
 20
138.54916059841651
 30
0.0
 11
452.99099283197188
 21
143.59116059841651
 31
0.0
  0
LINE
  5
18BE
  8
DANMEN
  6
CONTINUOUS
 10
446.65999283197198
 20
138.67416059841651
 30
0.0
 11
452.99099283197188
 21
145.0051605984165
 31
0.0
  0
LINE
  5
18BF
  8
DANMEN
  6
CONTINUOUS
 10
446.63099283197192
 20
140.05916059841641
 30
0.0
 11
446.98099283197189
 21
140.40916059841641
 31
0.0
  0
LINE
  5
18C0
  8
DANMEN
  6
CONTINUOUS
 10
447.48899283197193
 20
140.91716059841639
 30
0.0
 11
452.99099283197188
 21
146.41916059841651
 31
0.0
  0
LINE
  5
18C1
  8
DANMEN
  6
CONTINUOUS
 10
446.70699283197212
 20
141.54916059841651
 30
0.0
 11
452.70699283197189
 21
147.54916059841651
 31
0.0
  0
LINE
  5
18C2
  8
DANMEN
  6
CONTINUOUS
 10
445.2929928319719
 20
141.54916059841651
 30
0.0
 11
452.00799283197188
 21
148.2651605984164
 31
0.0
  0
LINE
  5
18C3
  8
DANMEN
  6
CONTINUOUS
 10
452.3649928319719
 20
148.62216059841651
 30
0.0
 11
452.91799283197167
 21
149.17516059841651
 31
0.0
  0
LINE
  5
18C4
  8
DANMEN
  6
CONTINUOUS
 10
444.99099283197188
 20
142.66216059841651
 30
0.0
 11
452.78399283197189
 21
150.45416059841651
 31
0.0
  0
LINE
  5
18C5
  8
DANMEN
  6
CONTINUOUS
 10
444.99099283197188
 20
144.07616059841641
 30
0.0
 11
451.46399283197189
 21
150.54916059841651
 31
0.0
  0
LINE
  5
18C6
  8
DANMEN
  6
CONTINUOUS
 10
444.99099283197188
 20
145.49016059841651
 30
0.0
 11
447.04999283197191
 21
147.54916059841651
 31
0.0
  0
LINE
  5
18C7
  8
DANMEN
  6
CONTINUOUS
 10
447.49099283197199
 20
147.99016059841651
 30
0.0
 11
450.04999283197191
 21
150.54916059841651
 31
0.0
  0
LINE
  5
18C8
  8
DANMEN
  6
CONTINUOUS
 10
444.99099283197188
 20
146.90416059841641
 30
0.0
 11
445.63599283197192
 21
147.54916059841651
 31
0.0
  0
LINE
  5
18C9
  8
DANMEN
  6
CONTINUOUS
 10
446.85999283197191
 20
148.7731605984165
 30
0.0
 11
448.63599283197192
 21
150.54916059841651
 31
0.0
  0
LINE
  5
18CA
  8
DANMEN
  6
CONTINUOUS
 10
446.49099283197199
 20
149.8191605984164
 30
0.0
 11
447.22099283197201
 21
150.54916059841651
 31
0.0
  0
LINE
  5
18CB
  8
DANMEN
  6
CONTINUOUS
 10
176.45499283197211
 20
111.54916059841651
 30
0.0
 11
176.99099283197211
 21
112.08516059841639
 31
0.0
  0
LINE
  5
18CC
  8
DANMEN
  6
CONTINUOUS
 10
175.3089928319722
 20
111.81716059841651
 30
0.0
 11
176.99099283197211
 21
113.4991605984164
 31
0.0
  0
LINE
  5
18CD
  8
DANMEN
  6
CONTINUOUS
 10
173.62699283197199
 20
111.54916059841651
 30
0.0
 11
173.99099283197211
 21
111.9131605984164
 31
0.0
  0
LINE
  5
18CE
  8
DANMEN
  6
CONTINUOUS
 10
174.62499283197209
 20
112.5471605984164
 30
0.0
 11
176.99099283197211
 21
114.9131605984164
 31
0.0
  0
LINE
  5
18CF
  8
DANMEN
  6
CONTINUOUS
 10
172.212992831972
 20
111.54916059841651
 30
0.0
 11
176.99099283197211
 21
116.3271605984165
 31
0.0
  0
LINE
  5
18D0
  8
DANMEN
  6
CONTINUOUS
 10
170.7979928319721
 20
111.54916059841651
 30
0.0
 11
176.962992831972
 21
117.7141605984165
 31
0.0
  0
LINE
  5
18D1
  8
DANMEN
  6
CONTINUOUS
 10
169.38399283197219
 20
111.54916059841651
 30
0.0
 11
175.87799283197219
 21
118.04316059841651
 31
0.0
  0
LINE
  5
18D2
  8
DANMEN
  6
CONTINUOUS
 10
167.99099283197211
 20
111.57016059841651
 30
0.0
 11
173.99099283197211
 21
117.57016059841651
 31
0.0
  0
LINE
  5
18D3
  8
DANMEN
  6
CONTINUOUS
 10
167.55599283197211
 20
112.54916059841651
 30
0.0
 11
173.99099283197211
 21
118.98416059841639
 31
0.0
  0
LINE
  5
18D4
  8
DANMEN
  6
CONTINUOUS
 10
165.22099283197201
 20
111.6281605984164
 30
0.0
 11
173.141992831972
 21
119.54916059841651
 31
0.0
  0
LINE
  5
18D5
  8
DANMEN
  6
CONTINUOUS
 10
164.99099283197211
 20
112.8131605984165
 30
0.0
 11
171.7269928319721
 21
119.54916059841651
 31
0.0
  0
LINE
  5
18D6
  8
DANMEN
  6
CONTINUOUS
 10
164.99099283197211
 20
114.2271605984165
 30
0.0
 11
167.81299283197211
 21
117.04916059841651
 31
0.0
  0
LINE
  5
18D7
  8
DANMEN
  6
CONTINUOUS
 10
167.99099283197211
 20
117.2271605984165
 30
0.0
 11
170.31299283197211
 21
119.54916059841651
 31
0.0
  0
LINE
  5
18D8
  8
DANMEN
  6
CONTINUOUS
 10
164.99099283197211
 20
115.6411605984165
 30
0.0
 11
166.87199283197219
 21
117.52216059841651
 31
0.0
  0
LINE
  5
18D9
  8
DANMEN
  6
CONTINUOUS
 10
167.99099283197211
 20
118.6411605984165
 30
0.0
 11
168.89899283197201
 21
119.54916059841651
 31
0.0
  0
LINE
  5
18DA
  8
DANMEN
  6
CONTINUOUS
 10
164.99099283197211
 20
117.05516059841651
 30
0.0
 11
165.98499283197211
 21
118.04916059841651
 31
0.0
  0
TEXT
  5
18DB
  8
SUNPO
  6
CONTINUOUS
 10
381.49099283197188
 20
147.69916059841651
 30
0.0
 40
2.5
  1
42.7
 50
90.0
 41
1.1999999999999991
  7
MX_DIMTXSTY_2
  0
POLYLINE
  5
18DC
  8
SUNPO
  6
BYBLOCK
 66
     1
 10
0.0
 20
0.0
 30
0.0
 70
     1
 40
1.159999999999999
 41
1.159999999999999
  0
VERTEX
  5
1B6B
  8
SUNPO
  6
BYBLOCK
 10
381.99099283197199
 20
173.40300059841641
 30
0.0
 42
1.0
  0
VERTEX
  5
1B6C
  8
SUNPO
  6
BYBLOCK
 10
381.99099283197199
 20
173.6953205984164
 30
0.0
 42
1.0
  0
SEQEND
  5
1B6D
  8
SUNPO
  6
BYBLOCK
  0
POLYLINE
  5
18E0
  8
SUNPO
  6
BYBLOCK
 66
     1
 10
0.0
 20
0.0
 30
0.0
 70
     1
 40
1.159999999999999
 41
1.159999999999999
  0
VERTEX
  5
1B6E
  8
SUNPO
  6
BYBLOCK
 10
381.99099283197199
 20
130.99532059841641
 30
0.0
 42
1.0
  0
VERTEX
  5
1B6F
  8
SUNPO
  6
BYBLOCK
 10
381.99099283197199
 20
130.70300059841651
 30
0.0
 42
1.0
  0
SEQEND
  5
1B70
  8
SUNPO
  6
BYBLOCK
  0
POLYLINE
  5
18E4
  8
SUNPO
  6
BYBLOCK
 66
     1
 10
0.0
 20
0.0
 30
0.0
 70
     1
 40
1.159999999999999
 41
1.159999999999999
  0
VERTEX
  5
1B71
  8
SUNPO
  6
BYBLOCK
 10
381.99099283197199
 20
111.4030005984165
 30
0.0
 42
1.0
  0
VERTEX
  5
1B72
  8
SUNPO
  6
BYBLOCK
 10
381.99099283197199
 20
111.6953205984164
 30
0.0
 42
1.0
  0
SEQEND
  5
1B73
  8
SUNPO
  6
BYBLOCK
  0
POLYLINE
  5
18E8
  8
SUNPO
  6
BYBLOCK
 66
     1
 10
0.0
 20
0.0
 30
0.0
 70
     1
 40
1.159999999999999
 41
1.159999999999999
  0
VERTEX
  5
1B74
  8
SUNPO
  6
BYBLOCK
 10
204.13715283197209
 20
191.54916059841631
 30
0.0
 42
1.0
  0
VERTEX
  5
1B75
  8
SUNPO
  6
BYBLOCK
 10
203.84483283197201
 20
191.54916059841631
 30
0.0
 42
1.0
  0
SEQEND
  5
1B76
  8
SUNPO
  6
BYBLOCK
  0
POLYLINE
  5
18EC
  8
SUNPO
  6
BYBLOCK
 66
     1
 10
0.0
 20
0.0
 30
0.0
 70
     1
 40
1.159999999999999
 41
1.159999999999999
  0
VERTEX
  5
1B77
  8
SUNPO
  6
BYBLOCK
 10
233.99099283197191
 20
263.6953205984164
 30
0.0
 42
1.0
  0
VERTEX
  5
1B78
  8
SUNPO
  6
BYBLOCK
 10
233.99099283197191
 20
263.40300059841633
 30
0.0
 42
1.0
  0
SEQEND
  5
1B79
  8
SUNPO
  6
BYBLOCK
  0
TEXT
  5
18F0
  8
SUNPO
  6
CONTINUOUS
 10
440.40765949863851
 20
82.049160598416549
 30
0.0
 40
2.5
  1
25
  0
POLYLINE
  5
18F1
  8
SUNPO
  6
BYBLOCK
 66
     1
 10
0.0
 20
0.0
 30
0.0
 70
     1
 40
1.159999999999999
 41
1.159999999999999
  0
VERTEX
  5
1B7A
  8
SUNPO
  6
BYBLOCK
 10
454.84483283197198
 20
81.549160598416563
 30
0.0
 42
1.0
  0
VERTEX
  5
1B7B
  8
SUNPO
  6
BYBLOCK
 10
455.13715283197189
 20
81.549160598416563
 30
0.0
 42
1.0
  0
SEQEND
  5
1B7C
  8
SUNPO
  6
BYBLOCK
  0
TEXT
  5
18F5
  8
SUNPO
  6
CONTINUOUS
 10
243.49099283197191
 20
278.96582726508302
 30
0.0
 40
2.5
  1
35
 50
90.0
  0
POLYLINE
  5
18F6
  8
SUNPO
  6
BYBLOCK
 66
     1
 10
0.0
 20
0.0
 30
0.0
 70
     1
 40
1.159999999999999
 41
1.159999999999999
  0
VERTEX
  5
1B7D
  8
SUNPO
  6
BYBLOCK
 10
243.99099283197191
 20
298.40300059841638
 30
0.0
 42
1.0
  0
VERTEX
  5
1B7E
  8
SUNPO
  6
BYBLOCK
 10
243.99099283197191
 20
298.69532059841617
 30
0.0
 42
1.0
  0
SEQEND
  5
1B7F
  8
SUNPO
  6
BYBLOCK
  0
TEXT
  5
18FA
  8
SUNPO
  6
CONTINUOUS
 10
440.40765949863851
 20
202.04916059841631
 30
0.0
 40
2.5
  1
25
  0
POLYLINE
  5
18FB
  8
SUNPO
  6
BYBLOCK
 66
     1
 10
0.0
 20
0.0
 30
0.0
 70
     1
 40
1.159999999999999
 41
1.159999999999999
  0
VERTEX
  5
1B80
  8
SUNPO
  6
BYBLOCK
 10
454.84483283197198
 20
201.54916059841639
 30
0.0
 42
1.0
  0
VERTEX
  5
1B81
  8
SUNPO
  6
BYBLOCK
 10
455.13715283197189
 20
201.54916059841639
 30
0.0
 42
1.0
  0
SEQEND
  5
1B82
  8
SUNPO
  6
BYBLOCK
  0
POLYLINE
  5
18FF
  8
SUNPO
  6
BYBLOCK
 66
     1
 10
0.0
 20
0.0
 30
0.0
 70
     1
 40
1.159999999999999
 41
1.159999999999999
  0
VERTEX
  5
1B83
  8
SUNPO
  6
BYBLOCK
 10
430.13715283197189
 20
201.54916059841639
 30
0.0
 42
1.0
  0
VERTEX
  5
1B84
  8
SUNPO
  6
BYBLOCK
 10
429.84483283197198
 20
201.54916059841639
 30
0.0
 42
1.0
  0
SEQEND
  5
1B85
  8
SUNPO
  6
BYBLOCK
  0
TEXT
  5
1903
  8
SUNPO
  6
CONTINUOUS
 10
435.49099283197188
 20
92.049160598416549
 30
0.0
 40
2.5
  1
15
 41
1.1999999999999991
  7
MX_DIMTXSTY_2
  0
POLYLINE
  5
1904
  8
SUNPO
  6
BYBLOCK
 66
     1
 10
0.0
 20
0.0
 30
0.0
 70
     1
 40
1.159999999999999
 41
1.159999999999999
  0
VERTEX
  5
1B86
  8
SUNPO
  6
BYBLOCK
 10
430.13715283197189
 20
91.549160598416563
 30
0.0
 42
1.0
  0
VERTEX
  5
1B87
  8
SUNPO
  6
BYBLOCK
 10
429.84483283197198
 20
91.549160598416563
 30
0.0
 42
1.0
  0
SEQEND
  5
1B88
  8
SUNPO
  6
BYBLOCK
  0
POLYLINE
  5
1908
  8
SUNPO
  6
BYBLOCK
 66
     1
 10
0.0
 20
0.0
 30
0.0
 70
     1
 40
1.159999999999999
 41
1.159999999999999
  0
VERTEX
  5
1B89
  8
SUNPO
  6
BYBLOCK
 10
444.84483283197193
 20
91.549160598416563
 30
0.0
 42
1.0
  0
VERTEX
  5
1B8A
  8
SUNPO
  6
BYBLOCK
 10
445.13715283197189
 20
91.549160598416563
 30
0.0
 42
1.0
  0
SEQEND
  5
1B8B
  8
SUNPO
  6
BYBLOCK
  0
POLYLINE
  5
190C
  8
SUNPO
  6
BYBLOCK
 66
     1
 10
0.0
 20
0.0
 30
0.0
 70
     1
 40
1.159999999999999
 41
1.159999999999999
  0
VERTEX
  5
1B8C
  8
SUNPO
  6
BYBLOCK
 10
445.13715283197189
 20
91.549160598416563
 30
0.0
 42
1.0
  0
VERTEX
  5
1B8D
  8
SUNPO
  6
BYBLOCK
 10
444.84483283197193
 20
91.549160598416563
 30
0.0
 42
1.0
  0
SEQEND
  5
1B8E
  8
SUNPO
  6
BYBLOCK
  0
TEXT
  5
1910
  8
SUNPO
  6
CONTINUOUS
 10
243.49099283197191
 20
111.48666059841651
 30
0.0
 40
2.5
  1
60
 50
90.0
 41
1.1000000000000001
  7
MX_DIMTXSTY_3
  0
POLYLINE
  5
1911
  8
SUNPO
  6
BYBLOCK
 66
     1
 10
0.0
 20
0.0
 30
0.0
 70
     1
 40
1.159999999999999
 41
1.159999999999999
  0
VERTEX
  5
1B8F
  8
SUNPO
  6
BYBLOCK
 10
243.99099283197191
 20
83.695320598416544
 30
0.0
 42
1.0
  0
VERTEX
  5
1B90
  8
SUNPO
  6
BYBLOCK
 10
243.99099283197191
 20
83.403000598416568
 30
0.0
 42
1.0
  0
SEQEND
  5
1B91
  8
SUNPO
  6
BYBLOCK
  0
TEXT
  5
1915
  8
SUNPO
  6
CONTINUOUS
 10
417.92849283197188
 20
202.04916059841631
 30
0.0
 40
2.5
  1
20
 41
1.1000000000000001
  7
MX_DIMTXSTY_3
  0
POLYLINE
  5
1916
  8
SUNPO
  6
BYBLOCK
 66
     1
 10
0.0
 20
0.0
 30
0.0
 70
     1
 40
1.159999999999999
 41
1.159999999999999
  0
VERTEX
  5
1B92
  8
SUNPO
  6
BYBLOCK
 10
429.84483283197198
 20
201.54916059841639
 30
0.0
 42
1.0
  0
VERTEX
  5
1B93
  8
SUNPO
  6
BYBLOCK
 10
430.13715283197189
 20
201.54916059841639
 30
0.0
 42
1.0
  0
SEQEND
  5
1B94
  8
SUNPO
  6
BYBLOCK
  0
POLYLINE
  5
191A
  8
SUNPO
  6
BYBLOCK
 66
     1
 10
0.0
 20
0.0
 30
0.0
 70
     1
 40
1.159999999999999
 41
1.159999999999999
  0
VERTEX
  5
1B95
  8
SUNPO
  6
BYBLOCK
 10
410.13715283197189
 20
201.54916059841639
 30
0.0
 42
1.0
  0
VERTEX
  5
1B96
  8
SUNPO
  6
BYBLOCK
 10
409.8448328319721
 20
201.54916059841639
 30
0.0
 42
1.0
  0
SEQEND
  5
1B97
  8
SUNPO
  6
BYBLOCK
  0
TEXT
  5
191E
  8
SUNPO
  6
CONTINUOUS
 10
417.92849283197188
 20
92.049160598416549
 30
0.0
 40
2.5
  1
20
 41
1.1000000000000001
  7
MX_DIMTXSTY_3
  0
POLYLINE
  5
191F
  8
SUNPO
  6
BYBLOCK
 66
     1
 10
0.0
 20
0.0
 30
0.0
 70
     1
 40
1.159999999999999
 41
1.159999999999999
  0
VERTEX
  5
1B98
  8
SUNPO
  6
BYBLOCK
 10
410.13715283197189
 20
91.549160598416563
 30
0.0
 42
1.0
  0
VERTEX
  5
1B99
  8
SUNPO
  6
BYBLOCK
 10
409.8448328319721
 20
91.549160598416563
 30
0.0
 42
1.0
  0
SEQEND
  5
1B9A
  8
SUNPO
  6
BYBLOCK
  0
POLYLINE
  5
1923
  8
SUNPO
  6
BYBLOCK
 66
     1
 10
0.0
 20
0.0
 30
0.0
 70
     1
 40
1.159999999999999
 41
1.159999999999999
  0
VERTEX
  5
1B9B
  8
SUNPO
  6
BYBLOCK
 10
429.84483283197198
 20
91.549160598416563
 30
0.0
 42
1.0
  0
VERTEX
  5
1B9C
  8
SUNPO
  6
BYBLOCK
 10
430.13715283197189
 20
91.549160598416563
 30
0.0
 42
1.0
  0
SEQEND
  5
1B9D
  8
SUNPO
  6
BYBLOCK
  0
TEXT
  5
1927
  8
SUNPO
  6
CONTINUOUS
 10
353.49099283197199
 20
149.86866059841651
 30
0.0
 40
2.5
  1
70
 50
90.0
 41
1.1000000000000001
  7
MX_DIMTXSTY_3
  0
POLYLINE
  5
1928
  8
SUNPO
  6
BYBLOCK
 66
     1
 10
0.0
 20
0.0
 30
0.0
 70
     1
 40
1.159999999999999
 41
1.159999999999999
  0
VERTEX
  5
1B9E
  8
SUNPO
  6
BYBLOCK
 10
353.99099283197188
 20
181.40300059841641
 30
0.0
 42
1.0
  0
VERTEX
  5
1B9F
  8
SUNPO
  6
BYBLOCK
 10
353.99099283197188
 20
181.69532059841629
 30
0.0
 42
1.0
  0
SEQEND
  5
1BA0
  8
SUNPO
  6
BYBLOCK
  0
POLYLINE
  5
192C
  8
SUNPO
  6
BYBLOCK
 66
     1
 10
0.0
 20
0.0
 30
0.0
 70
     1
 40
1.159999999999999
 41
1.159999999999999
  0
VERTEX
  5
1BA1
  8
SUNPO
  6
BYBLOCK
 10
353.99099283197188
 20
111.6953205984164
 30
0.0
 42
1.0
  0
VERTEX
  5
1BA2
  8
SUNPO
  6
BYBLOCK
 10
353.99099283197188
 20
111.4030005984165
 30
0.0
 42
1.0
  0
SEQEND
  5
1BA3
  8
SUNPO
  6
BYBLOCK
  0
TEXT
  5
1930
  8
SUNPO
  6
CONTINUOUS
 10
162.19049283197211
 20
192.04916059841631
 30
0.0
 40
2.5
  1
70
 41
1.1000000000000001
  7
MX_DIMTXSTY_3
  0
POLYLINE
  5
1931
  8
SUNPO
  6
BYBLOCK
 66
     1
 10
0.0
 20
0.0
 30
0.0
 70
     1
 40
1.159999999999999
 41
1.159999999999999
  0
VERTEX
  5
1BA4
  8
SUNPO
  6
BYBLOCK
 10
134.1371528319722
 20
191.54916059841631
 30
0.0
 42
1.0
  0
VERTEX
  5
1BA5
  8
SUNPO
  6
BYBLOCK
 10
133.8448328319721
 20
191.54916059841631
 30
0.0
 42
1.0
  0
SEQEND
  5
1BA6
  8
SUNPO
  6
BYBLOCK
  0
POLYLINE
  5
1935
  8
SUNPO
  6
BYBLOCK
 66
     1
 10
0.0
 20
0.0
 30
0.0
 70
     1
 40
1.159999999999999
 41
1.159999999999999
  0
VERTEX
  5
1BA7
  8
SUNPO
  6
BYBLOCK
 10
203.84483283197201
 20
191.54916059841631
 30
0.0
 42
1.0
  0
VERTEX
  5
1BA8
  8
SUNPO
  6
BYBLOCK
 10
204.13715283197209
 20
191.54916059841631
 30
0.0
 42
1.0
  0
SEQEND
  5
1BA9
  8
SUNPO
  6
BYBLOCK
  0
TEXT
  5
1939
  8
SUNPO
  6
CONTINUOUS
 10
137.15765949863879
 20
182.04916059841631
 30
0.0
 40
2.5
  1
8
  0
POLYLINE
  5
193A
  8
SUNPO
  6
BYBLOCK
 66
     1
 10
0.0
 20
0.0
 30
0.0
 70
     1
 40
1.159999999999999
 41
1.159999999999999
  0
VERTEX
  5
1BAA
  8
SUNPO
  6
BYBLOCK
 10
134.1371528319722
 20
181.54916059841631
 30
0.0
 42
1.0
  0
VERTEX
  5
1BAB
  8
SUNPO
  6
BYBLOCK
 10
133.8448328319721
 20
181.54916059841631
 30
0.0
 42
1.0
  0
SEQEND
  5
1BAC
  8
SUNPO
  6
BYBLOCK
  0
TEXT
  5
193E
  8
SUNPO
  6
CONTINUOUS
 10
291.40765949863862
 20
82.049160598416549
 30
0.0
 40
2.5
  1
25
  0
POLYLINE
  5
193F
  8
SUNPO
  6
BYBLOCK
 66
     1
 10
0.0
 20
0.0
 30
0.0
 70
     1
 40
1.159999999999999
 41
1.159999999999999
  0
VERTEX
  5
1BAD
  8
SUNPO
  6
BYBLOCK
 10
281.137152831972
 20
81.549160598416563
 30
0.0
 42
1.0
  0
VERTEX
  5
1BAE
  8
SUNPO
  6
BYBLOCK
 10
280.8448328319721
 20
81.549160598416563
 30
0.0
 42
1.0
  0
SEQEND
  5
1BAF
  8
SUNPO
  6
BYBLOCK
  0
TEXT
  5
1943
  8
SUNPO
  6
CONTINUOUS
 10
291.40765949863862
 20
202.04916059841631
 30
0.0
 40
2.5
  1
25
  0
POLYLINE
  5
1944
  8
SUNPO
  6
BYBLOCK
 66
     1
 10
0.0
 20
0.0
 30
0.0
 70
     1
 40
1.159999999999999
 41
1.159999999999999
  0
VERTEX
  5
1BB0
  8
SUNPO
  6
BYBLOCK
 10
305.8448328319721
 20
201.54916059841639
 30
0.0
 42
1.0
  0
VERTEX
  5
1BB1
  8
SUNPO
  6
BYBLOCK
 10
306.137152831972
 20
201.54916059841639
 30
0.0
 42
1.0
  0
SEQEND
  5
1BB2
  8
SUNPO
  6
BYBLOCK
  0
POLYLINE
  5
1948
  8
SUNPO
  6
BYBLOCK
 66
     1
 10
0.0
 20
0.0
 30
0.0
 70
     1
 40
1.159999999999999
 41
1.159999999999999
  0
VERTEX
  5
1BB3
  8
SUNPO
  6
BYBLOCK
 10
281.137152831972
 20
201.54916059841639
 30
0.0
 42
1.0
  0
VERTEX
  5
1BB4
  8
SUNPO
  6
BYBLOCK
 10
280.8448328319721
 20
201.54916059841639
 30
0.0
 42
1.0
  0
SEQEND
  5
1BB5
  8
SUNPO
  6
BYBLOCK
  0
TEXT
  5
194C
  8
SUNPO
  6
CONTINUOUS
 10
296.49099283197188
 20
92.049160598416549
 30
0.0
 40
2.5
  1
15
 41
1.1999999999999991
  7
MX_DIMTXSTY_2
  0
POLYLINE
  5
194D
  8
SUNPO
  6
BYBLOCK
 66
     1
 10
0.0
 20
0.0
 30
0.0
 70
     1
 40
1.159999999999999
 41
1.159999999999999
  0
VERTEX
  5
1BB6
  8
SUNPO
  6
BYBLOCK
 10
291.13715283197189
 20
91.549160598416563
 30
0.0
 42
1.0
  0
VERTEX
  5
1BB7
  8
SUNPO
  6
BYBLOCK
 10
290.8448328319721
 20
91.549160598416563
 30
0.0
 42
1.0
  0
SEQEND
  5
1BB8
  8
SUNPO
  6
BYBLOCK
  0
POLYLINE
  5
1951
  8
SUNPO
  6
BYBLOCK
 66
     1
 10
0.0
 20
0.0
 30
0.0
 70
     1
 40
1.159999999999999
 41
1.159999999999999
  0
VERTEX
  5
1BB9
  8
SUNPO
  6
BYBLOCK
 10
305.8448328319721
 20
91.549160598416563
 30
0.0
 42
1.0
  0
VERTEX
  5
1BBA
  8
SUNPO
  6
BYBLOCK
 10
306.137152831972
 20
91.549160598416563
 30
0.0
 42
1.0
  0
SEQEND
  5
1BBB
  8
SUNPO
  6
BYBLOCK
  0
TEXT
  5
1955
  8
SUNPO
  6
CONTINUOUS
 10
313.92849283197199
 20
92.049160598416549
 30
0.0
 40
2.5
  1
20
 41
1.1000000000000001
  7
MX_DIMTXSTY_3
  0
POLYLINE
  5
1956
  8
SUNPO
  6
BYBLOCK
 66
     1
 10
0.0
 20
0.0
 30
0.0
 70
     1
 40
1.159999999999999
 41
1.159999999999999
  0
VERTEX
  5
1BBC
  8
SUNPO
  6
BYBLOCK
 10
306.137152831972
 20
91.549160598416563
 30
0.0
 42
1.0
  0
VERTEX
  5
1BBD
  8
SUNPO
  6
BYBLOCK
 10
305.8448328319721
 20
91.549160598416563
 30
0.0
 42
1.0
  0
SEQEND
  5
1BBE
  8
SUNPO
  6
BYBLOCK
  0
POLYLINE
  5
195A
  8
SUNPO
  6
BYBLOCK
 66
     1
 10
0.0
 20
0.0
 30
0.0
 70
     1
 40
1.159999999999999
 41
1.159999999999999
  0
VERTEX
  5
1BBF
  8
SUNPO
  6
BYBLOCK
 10
325.8448328319721
 20
91.549160598416563
 30
0.0
 42
1.0
  0
VERTEX
  5
1BC0
  8
SUNPO
  6
BYBLOCK
 10
326.13715283197189
 20
91.549160598416563
 30
0.0
 42
1.0
  0
SEQEND
  5
1BC1
  8
SUNPO
  6
BYBLOCK
  0
POLYLINE
  5
195E
  8
SUNPO
  6
BYBLOCK
 66
     1
 10
0.0
 20
0.0
 30
0.0
 70
     1
 40
1.159999999999999
 41
1.159999999999999
  0
VERTEX
  5
1BC2
  8
SUNPO
  6
BYBLOCK
 10
290.8448328319721
 20
91.549160598416563
 30
0.0
 42
1.0
  0
VERTEX
  5
1BC3
  8
SUNPO
  6
BYBLOCK
 10
291.13715283197189
 20
91.549160598416563
 30
0.0
 42
1.0
  0
SEQEND
  5
1BC4
  8
SUNPO
  6
BYBLOCK
  0
TEXT
  5
1962
  8
SUNPO
  6
CONTINUOUS
 10
233.49099283197191
 20
251.48666059841631
 30
0.0
 40
2.5
  1
20
 50
90.0
 41
1.1000000000000001
  7
MX_DIMTXSTY_3
  0
POLYLINE
  5
1963
  8
SUNPO
  6
BYBLOCK
 66
     1
 10
0.0
 20
0.0
 30
0.0
 70
     1
 40
1.159999999999999
 41
1.159999999999999
  0
VERTEX
  5
1BC5
  8
SUNPO
  6
BYBLOCK
 10
233.99099283197191
 20
243.69532059841629
 30
0.0
 42
1.0
  0
VERTEX
  5
1BC6
  8
SUNPO
  6
BYBLOCK
 10
233.99099283197191
 20
243.40300059841641
 30
0.0
 42
1.0
  0
SEQEND
  5
1BC7
  8
SUNPO
  6
BYBLOCK
  0
POLYLINE
  5
1967
  8
SUNPO
  6
BYBLOCK
 66
     1
 10
0.0
 20
0.0
 30
0.0
 70
     1
 40
1.159999999999999
 41
1.159999999999999
  0
VERTEX
  5
1BC8
  8
SUNPO
  6
BYBLOCK
 10
233.99099283197191
 20
263.40300059841633
 30
0.0
 42
1.0
  0
VERTEX
  5
1BC9
  8
SUNPO
  6
BYBLOCK
 10
233.99099283197191
 20
263.6953205984164
 30
0.0
 42
1.0
  0
SEQEND
  5
1BCA
  8
SUNPO
  6
BYBLOCK
  0
TEXT
  5
196B
  8
SUNPO
  6
CONTINUOUS
 10
381.49099283197188
 20
116.6991605984164
 30
0.0
 40
2.5
  1
19.3
 50
90.0
 41
1.3500000000000001
  7
MX_DIMTXSTY_4
  0
POLYLINE
  5
196C
  8
SUNPO
  6
BYBLOCK
 66
     1
 10
0.0
 20
0.0
 30
0.0
 70
     1
 40
1.159999999999999
 41
1.159999999999999
  0
VERTEX
  5
1BCB
  8
SUNPO
  6
BYBLOCK
 10
381.99099283197199
 20
111.6953205984164
 30
0.0
 42
1.0
  0
VERTEX
  5
1BCC
  8
SUNPO
  6
BYBLOCK
 10
381.99099283197199
 20
111.4030005984165
 30
0.0
 42
1.0
  0
SEQEND
  5
1BCD
  8
SUNPO
  6
BYBLOCK
  0
POLYLINE
  5
1970
  8
SUNPO
  6
BYBLOCK
 66
     1
 10
0.0
 20
0.0
 30
0.0
 70
     1
 40
1.159999999999999
 41
1.159999999999999
  0
VERTEX
  5
1BCE
  8
SUNPO
  6
BYBLOCK
 10
381.99099283197199
 20
130.70300059841651
 30
0.0
 42
1.0
  0
VERTEX
  5
1BCF
  8
SUNPO
  6
BYBLOCK
 10
381.99099283197199
 20
130.99532059841641
 30
0.0
 42
1.0
  0
SEQEND
  5
1BD0
  8
SUNPO
  6
BYBLOCK
  0
TEXT
  5
1974
  8
SUNPO
  6
CONTINUOUS
 10
159.80099283197211
 20
182.04916059841631
 30
0.0
 40
2.5
  1
42.7
 41
1.1999999999999991
  7
MX_DIMTXSTY_2
  0
POLYLINE
  5
1975
  8
SUNPO
  6
BYBLOCK
 66
     1
 10
0.0
 20
0.0
 30
0.0
 70
     1
 40
1.159999999999999
 41
1.159999999999999
  0
VERTEX
  5
1BD1
  8
SUNPO
  6
BYBLOCK
 10
142.13715283197209
 20
181.54916059841631
 30
0.0
 42
1.0
  0
VERTEX
  5
1BD2
  8
SUNPO
  6
BYBLOCK
 10
141.8448328319721
 20
181.54916059841631
 30
0.0
 42
1.0
  0
SEQEND
  5
1BD3
  8
SUNPO
  6
BYBLOCK
  0
POLYLINE
  5
1979
  8
SUNPO
  6
BYBLOCK
 66
     1
 10
0.0
 20
0.0
 30
0.0
 70
     1
 40
1.159999999999999
 41
1.159999999999999
  0
VERTEX
  5
1BD4
  8
SUNPO
  6
BYBLOCK
 10
184.5448328319722
 20
181.54916059841631
 30
0.0
 42
1.0
  0
VERTEX
  5
1BD5
  8
SUNPO
  6
BYBLOCK
 10
184.83715283197199
 20
181.54916059841631
 30
0.0
 42
1.0
  0
SEQEND
  5
1BD6
  8
SUNPO
  6
BYBLOCK
  0
TEXT
  5
197D
  8
SUNPO
  6
CONTINUOUS
 10
189.84099283197199
 20
182.04916059841631
 30
0.0
 40
2.5
  1
19.3
 41
1.3500000000000001
  7
MX_DIMTXSTY_4
  0
POLYLINE
  5
197E
  8
SUNPO
  6
BYBLOCK
 66
     1
 10
0.0
 20
0.0
 30
0.0
 70
     1
 40
1.159999999999999
 41
1.159999999999999
  0
VERTEX
  5
1BD7
  8
SUNPO
  6
BYBLOCK
 10
184.83715283197199
 20
181.54916059841631
 30
0.0
 42
1.0
  0
VERTEX
  5
1BD8
  8
SUNPO
  6
BYBLOCK
 10
184.5448328319722
 20
181.54916059841631
 30
0.0
 42
1.0
  0
SEQEND
  5
1BD9
  8
SUNPO
  6
BYBLOCK
  0
POLYLINE
  5
1982
  8
SUNPO
  6
BYBLOCK
 66
     1
 10
0.0
 20
0.0
 30
0.0
 70
     1
 40
1.159999999999999
 41
1.159999999999999
  0
VERTEX
  5
1BDA
  8
SUNPO
  6
BYBLOCK
 10
203.84483283197201
 20
181.54916059841631
 30
0.0
 42
1.0
  0
VERTEX
  5
1BDB
  8
SUNPO
  6
BYBLOCK
 10
204.13715283197209
 20
181.54916059841631
 30
0.0
 42
1.0
  0
SEQEND
  5
1BDC
  8
SUNPO
  6
BYBLOCK
  0
TEXT
  5
1986
  8
SUNPO
  6
CONTINUOUS
 10
313.92849283197199
 20
202.04916059841631
 30
0.0
 40
2.5
  1
20
 41
1.1000000000000001
  7
MX_DIMTXSTY_3
  0
POLYLINE
  5
1987
  8
SUNPO
  6
BYBLOCK
 66
     1
 10
0.0
 20
0.0
 30
0.0
 70
     1
 40
1.159999999999999
 41
1.159999999999999
  0
VERTEX
  5
1BDD
  8
SUNPO
  6
BYBLOCK
 10
325.8448328319721
 20
201.54916059841639
 30
0.0
 42
1.0
  0
VERTEX
  5
1BDE
  8
SUNPO
  6
BYBLOCK
 10
326.13715283197189
 20
201.54916059841639
 30
0.0
 42
1.0
  0
SEQEND
  5
1BDF
  8
SUNPO
  6
BYBLOCK
  0
POLYLINE
  5
198B
  8
SUNPO
  6
BYBLOCK
 66
     1
 10
0.0
 20
0.0
 30
0.0
 70
     1
 40
1.159999999999999
 41
1.159999999999999
  0
VERTEX
  5
1BE0
  8
SUNPO
  6
BYBLOCK
 10
306.137152831972
 20
201.54916059841639
 30
0.0
 42
1.0
  0
VERTEX
  5
1BE1
  8
SUNPO
  6
BYBLOCK
 10
305.8448328319721
 20
201.54916059841639
 30
0.0
 42
1.0
  0
SEQEND
  5
1BE2
  8
SUNPO
  6
BYBLOCK
  0
TEXT
  5
198F
  8
SUNPO
  6
CONTINUOUS
 10
396.49099283197199
 20
149.265827265083
 30
0.0
 40
2.5
  1
36
 50
90.0
  0
POLYLINE
  5
1990
  8
SUNPO
  6
BYBLOCK
 66
     1
 10
0.0
 20
0.0
 30
0.0
 70
     1
 40
1.159999999999999
 41
1.159999999999999
  0
VERTEX
  5
1BE3
  8
SUNPO
  6
BYBLOCK
 10
396.99099283197199
 20
133.4953205984165
 30
0.0
 42
1.0
  0
VERTEX
  5
1BE4
  8
SUNPO
  6
BYBLOCK
 10
396.99099283197199
 20
133.20300059841651
 30
0.0
 42
1.0
  0
SEQEND
  5
1BE5
  8
SUNPO
  6
BYBLOCK
  0
POLYLINE
  5
1994
  8
SUNPO
  6
BYBLOCK
 66
     1
 10
0.0
 20
0.0
 30
0.0
 70
     1
 40
1.159999999999999
 41
1.159999999999999
  0
VERTEX
  5
1BE6
  8
SUNPO
  6
BYBLOCK
 10
396.99099283197199
 20
169.20300059841639
 30
0.0
 42
1.0
  0
VERTEX
  5
1BE7
  8
SUNPO
  6
BYBLOCK
 10
396.99099283197199
 20
169.49532059841641
 30
0.0
 42
1.0
  0
SEQEND
  5
1BE8
  8
SUNPO
  6
BYBLOCK
  0
TEXT
  5
1998
  8
SUNPO
  6
CONTINUOUS
 10
162.10765949863881
 20
172.04916059841651
 30
0.0
 40
2.5
  1
36
  0
POLYLINE
  5
1999
  8
SUNPO
  6
BYBLOCK
 66
     1
 10
0.0
 20
0.0
 30
0.0
 70
     1
 40
1.159999999999999
 41
1.159999999999999
  0
VERTEX
  5
1BE9
  8
SUNPO
  6
BYBLOCK
 10
182.0448328319722
 20
171.54916059841651
 30
0.0
 42
1.0
  0
VERTEX
  5
1BEA
  8
SUNPO
  6
BYBLOCK
 10
182.33715283197199
 20
171.54916059841651
 30
0.0
 42
1.0
  0
SEQEND
  5
1BEB
  8
SUNPO
  6
BYBLOCK
  0
POLYLINE
  5
199D
  8
SUNPO
  6
BYBLOCK
 66
     1
 10
0.0
 20
0.0
 30
0.0
 70
     1
 40
1.159999999999999
 41
1.159999999999999
  0
VERTEX
  5
1BEC
  8
SUNPO
  6
BYBLOCK
 10
146.33715283197211
 20
171.54916059841651
 30
0.0
 42
1.0
  0
VERTEX
  5
1BED
  8
SUNPO
  6
BYBLOCK
 10
146.04483283197209
 20
171.54916059841651
 30
0.0
 42
1.0
  0
SEQEND
  5
1BEE
  8
SUNPO
  6
BYBLOCK
  0
TEXT
  5
19A1
  8
SUNPO
  6
CONTINUOUS
 10
123.49099283197199
 20
250.04916059841631
 30
0.0
 40
2.5
  1
17
 50
90.0
 41
1.1999999999999991
  7
MX_DIMTXSTY_2
  0
POLYLINE
  5
19A2
  8
SUNPO
  6
BYBLOCK
 66
     1
 10
0.0
 20
0.0
 30
0.0
 70
     1
 40
1.159999999999999
 41
1.159999999999999
  0
VERTEX
  5
1BEF
  8
SUNPO
  6
BYBLOCK
 10
123.99099283197199
 20
260.4030005984165
 30
0.0
 42
1.0
  0
VERTEX
  5
1BF0
  8
SUNPO
  6
BYBLOCK
 10
123.99099283197199
 20
260.6953205984164
 30
0.0
 42
1.0
  0
SEQEND
  5
1BF1
  8
SUNPO
  6
BYBLOCK
  0
POLYLINE
  5
19A6
  8
SUNPO
  6
BYBLOCK
 66
     1
 10
0.0
 20
0.0
 30
0.0
 70
     1
 40
1.159999999999999
 41
1.159999999999999
  0
VERTEX
  5
1BF2
  8
SUNPO
  6
BYBLOCK
 10
123.99099283197199
 20
243.69532059841629
 30
0.0
 42
1.0
  0
VERTEX
  5
1BF3
  8
SUNPO
  6
BYBLOCK
 10
123.99099283197199
 20
243.40300059841641
 30
0.0
 42
1.0
  0
SEQEND
  5
1BF4
  8
SUNPO
  6
BYBLOCK
  0
TEXT
  5
19AA
  8
SUNPO
  6
CONTINUOUS
 10
123.49099283197199
 20
133.04916059841651
 30
0.0
 40
2.5
  1
17
 50
90.0
 41
1.1999999999999991
  7
MX_DIMTXSTY_2
  0
POLYLINE
  5
19AB
  8
SUNPO
  6
BYBLOCK
 66
     1
 10
0.0
 20
0.0
 30
0.0
 70
     1
 40
1.159999999999999
 41
1.159999999999999
  0
VERTEX
  5
1BF5
  8
SUNPO
  6
BYBLOCK
 10
123.99099283197199
 20
143.4030005984165
 30
0.0
 42
1.0
  0
VERTEX
  5
1BF6
  8
SUNPO
  6
BYBLOCK
 10
123.99099283197199
 20
143.6953205984164
 30
0.0
 42
1.0
  0
SEQEND
  5
1BF7
  8
SUNPO
  6
BYBLOCK
  0
POLYLINE
  5
19AF
  8
SUNPO
  6
BYBLOCK
 66
     1
 10
0.0
 20
0.0
 30
0.0
 70
     1
 40
1.159999999999999
 41
1.159999999999999
  0
VERTEX
  5
1BF8
  8
SUNPO
  6
BYBLOCK
 10
123.99099283197199
 20
126.6953205984165
 30
0.0
 42
1.0
  0
VERTEX
  5
1BF9
  8
SUNPO
  6
BYBLOCK
 10
123.99099283197199
 20
126.4030005984164
 30
0.0
 42
1.0
  0
SEQEND
  5
1BFA
  8
SUNPO
  6
BYBLOCK
  0
TEXT
  5
19B3
  8
SUNPO
  6
CONTINUOUS
 10
416.49099283197199
 20
192.04916059841631
 30
0.0
 40
2.5
  1
17
 41
1.1999999999999991
  7
MX_DIMTXSTY_2
  0
POLYLINE
  5
19B4
  8
SUNPO
  6
BYBLOCK
 66
     1
 10
0.0
 20
0.0
 30
0.0
 70
     1
 40
1.159999999999999
 41
1.159999999999999
  0
VERTEX
  5
1BFB
  8
SUNPO
  6
BYBLOCK
 10
426.84483283197198
 20
191.54916059841631
 30
0.0
 42
1.0
  0
VERTEX
  5
1BFC
  8
SUNPO
  6
BYBLOCK
 10
427.13715283197189
 20
191.54916059841631
 30
0.0
 42
1.0
  0
SEQEND
  5
1BFD
  8
SUNPO
  6
BYBLOCK
  0
POLYLINE
  5
19B8
  8
SUNPO
  6
BYBLOCK
 66
     1
 10
0.0
 20
0.0
 30
0.0
 70
     1
 40
1.159999999999999
 41
1.159999999999999
  0
VERTEX
  5
1BFE
  8
SUNPO
  6
BYBLOCK
 10
410.13715283197189
 20
191.54916059841631
 30
0.0
 42
1.0
  0
VERTEX
  5
1BFF
  8
SUNPO
  6
BYBLOCK
 10
409.8448328319721
 20
191.54916059841631
 30
0.0
 42
1.0
  0
SEQEND
  5
1C00
  8
SUNPO
  6
BYBLOCK
  0
TEXT
  5
19BC
  8
SUNPO
  6
CONTINUOUS
 10
315.49099283197199
 20
192.04916059841631
 30
0.0
 40
2.5
  1
17
 41
1.1999999999999991
  7
MX_DIMTXSTY_2
  0
POLYLINE
  5
19BD
  8
SUNPO
  6
BYBLOCK
 66
     1
 10
0.0
 20
0.0
 30
0.0
 70
     1
 40
1.159999999999999
 41
1.159999999999999
  0
VERTEX
  5
1C01
  8
SUNPO
  6
BYBLOCK
 10
325.8448328319721
 20
191.54916059841631
 30
0.0
 42
1.0
  0
VERTEX
  5
1C02
  8
SUNPO
  6
BYBLOCK
 10
326.13715283197189
 20
191.54916059841631
 30
0.0
 42
1.0
  0
SEQEND
  5
1C03
  8
SUNPO
  6
BYBLOCK
  0
POLYLINE
  5
19C1
  8
SUNPO
  6
BYBLOCK
 66
     1
 10
0.0
 20
0.0
 30
0.0
 70
     1
 40
1.159999999999999
 41
1.159999999999999
  0
VERTEX
  5
1C04
  8
SUNPO
  6
BYBLOCK
 10
309.137152831972
 20
191.54916059841631
 30
0.0
 42
1.0
  0
VERTEX
  5
1C05
  8
SUNPO
  6
BYBLOCK
 10
308.8448328319721
 20
191.54916059841631
 30
0.0
 42
1.0
  0
SEQEND
  5
1C06
  8
SUNPO
  6
BYBLOCK
  0
TEXT
  5
19C5
  8
SUNPO
  6
CONTINUOUS
 10
113.49099283197199
 20
251.48666059841631
 30
0.0
 40
2.5
  1
20
 50
90.0
 41
1.1000000000000001
  7
MX_DIMTXSTY_3
  0
POLYLINE
  5
19C6
  8
SUNPO
  6
BYBLOCK
 66
     1
 10
0.0
 20
0.0
 30
0.0
 70
     1
 40
1.159999999999999
 41
1.159999999999999
  0
VERTEX
  5
1C07
  8
SUNPO
  6
BYBLOCK
 10
113.99099283197199
 20
263.40300059841633
 30
0.0
 42
1.0
  0
VERTEX
  5
1C08
  8
SUNPO
  6
BYBLOCK
 10
113.99099283197199
 20
263.6953205984164
 30
0.0
 42
1.0
  0
SEQEND
  5
1C09
  8
SUNPO
  6
BYBLOCK
  0
POLYLINE
  5
19CA
  8
SUNPO
  6
BYBLOCK
 66
     1
 10
0.0
 20
0.0
 30
0.0
 70
     1
 40
1.159999999999999
 41
1.159999999999999
  0
VERTEX
  5
1C0A
  8
SUNPO
  6
BYBLOCK
 10
113.99099283197199
 20
243.69532059841629
 30
0.0
 42
1.0
  0
VERTEX
  5
1C0B
  8
SUNPO
  6
BYBLOCK
 10
113.99099283197199
 20
243.40300059841641
 30
0.0
 42
1.0
  0
SEQEND
  5
1C0C
  8
SUNPO
  6
BYBLOCK
  0
TEXT
  5
19CE
  8
SUNPO
  6
CONTINUOUS
 10
113.49099283197199
 20
78.215827265083263
 30
0.0
 40
2.5
  1
9
 50
90.0
  0
POLYLINE
  5
19CF
  8
SUNPO
  6
BYBLOCK
 66
     1
 10
0.0
 20
0.0
 30
0.0
 70
     1
 40
1.159999999999999
 41
1.159999999999999
  0
VERTEX
  5
1C0D
  8
SUNPO
  6
BYBLOCK
 10
113.99099283197199
 20
83.403000598416568
 30
0.0
 42
1.0
  0
VERTEX
  5
1C0E
  8
SUNPO
  6
BYBLOCK
 10
113.99099283197199
 20
83.695320598416544
 30
0.0
 42
1.0
  0
SEQEND
  5
1C0F
  8
SUNPO
  6
BYBLOCK
  0
POLYLINE
  5
19D3
  8
SUNPO
  6
BYBLOCK
 66
     1
 10
0.0
 20
0.0
 30
0.0
 70
     1
 40
1.159999999999999
 41
1.159999999999999
  0
VERTEX
  5
1C10
  8
SUNPO
  6
BYBLOCK
 10
113.99099283197199
 20
74.695320598416544
 30
0.0
 42
1.0
  0
VERTEX
  5
1C11
  8
SUNPO
  6
BYBLOCK
 10
113.99099283197199
 20
74.403000598416583
 30
0.0
 42
1.0
  0
SEQEND
  5
1C12
  8
SUNPO
  6
BYBLOCK
  0
TEXT
  5
19D7
  8
SUNPO
  6
CONTINUOUS
 10
113.49099283197199
 20
86.580410598416549
 30
0.0
 40
2.5
  1
10
 50
90.0
 41
1.3500000000000001
  7
MX_DIMTXSTY_4
  0
POLYLINE
  5
19D8
  8
SUNPO
  6
BYBLOCK
 66
     1
 10
0.0
 20
0.0
 30
0.0
 70
     1
 40
1.159999999999999
 41
1.159999999999999
  0
VERTEX
  5
1C13
  8
SUNPO
  6
BYBLOCK
 10
113.99099283197199
 20
93.403000598416568
 30
0.0
 42
1.0
  0
VERTEX
  5
1C14
  8
SUNPO
  6
BYBLOCK
 10
113.99099283197199
 20
93.695320598416586
 30
0.0
 42
1.0
  0
SEQEND
  5
1C15
  8
SUNPO
  6
BYBLOCK
  0
POLYLINE
  5
19DC
  8
SUNPO
  6
BYBLOCK
 66
     1
 10
0.0
 20
0.0
 30
0.0
 70
     1
 40
1.159999999999999
 41
1.159999999999999
  0
VERTEX
  5
1C16
  8
SUNPO
  6
BYBLOCK
 10
113.99099283197199
 20
83.695320598416544
 30
0.0
 42
1.0
  0
VERTEX
  5
1C17
  8
SUNPO
  6
BYBLOCK
 10
113.99099283197199
 20
83.403000598416568
 30
0.0
 42
1.0
  0
SEQEND
  5
1C18
  8
SUNPO
  6
BYBLOCK
  0
TEXT
  5
19E0
  8
SUNPO
  6
CONTINUOUS
 10
113.49099283197199
 20
100.54916059841651
 30
0.0
 40
2.5
  1
18
 50
90.0
 41
1.1999999999999991
  7
MX_DIMTXSTY_2
  0
POLYLINE
  5
19E1
  8
SUNPO
  6
BYBLOCK
 66
     1
 10
0.0
 20
0.0
 30
0.0
 70
     1
 40
1.159999999999999
 41
1.159999999999999
  0
VERTEX
  5
1C19
  8
SUNPO
  6
BYBLOCK
 10
113.99099283197199
 20
111.4030005984165
 30
0.0
 42
1.0
  0
VERTEX
  5
1C1A
  8
SUNPO
  6
BYBLOCK
 10
113.99099283197199
 20
111.6953205984165
 30
0.0
 42
1.0
  0
SEQEND
  5
1C1B
  8
SUNPO
  6
BYBLOCK
  0
POLYLINE
  5
19E5
  8
SUNPO
  6
BYBLOCK
 66
     1
 10
0.0
 20
0.0
 30
0.0
 70
     1
 40
1.159999999999999
 41
1.159999999999999
  0
VERTEX
  5
1C1C
  8
SUNPO
  6
BYBLOCK
 10
113.99099283197199
 20
93.695320598416586
 30
0.0
 42
1.0
  0
VERTEX
  5
1C1D
  8
SUNPO
  6
BYBLOCK
 10
113.99099283197199
 20
93.403000598416568
 30
0.0
 42
1.0
  0
SEQEND
  5
1C1E
  8
SUNPO
  6
BYBLOCK
  0
TEXT
  5
19E9
  8
SUNPO
  6
CONTINUOUS
 10
113.49099283197199
 20
125.46582726508311
 30
0.0
 40
2.5
  1
32
 50
90.0
  0
POLYLINE
  5
19EA
  8
SUNPO
  6
BYBLOCK
 66
     1
 10
0.0
 20
0.0
 30
0.0
 70
     1
 40
1.159999999999999
 41
1.159999999999999
  0
VERTEX
  5
1C1F
  8
SUNPO
  6
BYBLOCK
 10
113.99099283197199
 20
143.4030005984165
 30
0.0
 42
1.0
  0
VERTEX
  5
1C20
  8
SUNPO
  6
BYBLOCK
 10
113.99099283197199
 20
143.6953205984164
 30
0.0
 42
1.0
  0
SEQEND
  5
1C21
  8
SUNPO
  6
BYBLOCK
  0
POLYLINE
  5
19EE
  8
SUNPO
  6
BYBLOCK
 66
     1
 10
0.0
 20
0.0
 30
0.0
 70
     1
 40
1.159999999999999
 41
1.159999999999999
  0
VERTEX
  5
1C22
  8
SUNPO
  6
BYBLOCK
 10
113.99099283197199
 20
111.6953205984165
 30
0.0
 42
1.0
  0
VERTEX
  5
1C23
  8
SUNPO
  6
BYBLOCK
 10
113.99099283197199
 20
111.4030005984165
 30
0.0
 42
1.0
  0
SEQEND
  5
1C24
  8
SUNPO
  6
BYBLOCK
  0
TEXT
  5
19F2
  8
SUNPO
  6
CONTINUOUS
 10
137.99099283197211
 20
77.049160598416563
 30
0.0
 40
2.5
  1
12
 41
1.1999999999999991
  7
MX_DIMTXSTY_2
  0
POLYLINE
  5
19F3
  8
SUNPO
  6
BYBLOCK
 66
     1
 10
0.0
 20
0.0
 30
0.0
 70
     1
 40
1.159999999999999
 41
1.159999999999999
  0
VERTEX
  5
1C25
  8
SUNPO
  6
BYBLOCK
 10
134.1371528319722
 20
76.549160598416648
 30
0.0
 42
1.0
  0
VERTEX
  5
1C26
  8
SUNPO
  6
BYBLOCK
 10
133.8448328319721
 20
76.549160598416648
 30
0.0
 42
1.0
  0
SEQEND
  5
1C27
  8
SUNPO
  6
BYBLOCK
  0
POLYLINE
  5
19F7
  8
SUNPO
  6
BYBLOCK
 66
     1
 10
0.0
 20
0.0
 30
0.0
 70
     1
 40
1.159999999999999
 41
1.159999999999999
  0
VERTEX
  5
1C28
  8
SUNPO
  6
BYBLOCK
 10
145.84483283197201
 20
76.549160598416648
 30
0.0
 42
1.0
  0
VERTEX
  5
1C29
  8
SUNPO
  6
BYBLOCK
 10
146.13715283197209
 20
76.549160598416648
 30
0.0
 42
1.0
  0
SEQEND
  5
1C2A
  8
SUNPO
  6
BYBLOCK
  0
TEXT
  5
19FB
  8
SUNPO
  6
CONTINUOUS
 10
113.49099283197199
 20
278.96582726508302
 30
0.0
 40
2.5
  1
35
 50
90.0
  0
POLYLINE
  5
19FC
  8
SUNPO
  6
BYBLOCK
 66
     1
 10
0.0
 20
0.0
 30
0.0
 70
     1
 40
1.159999999999999
 41
1.159999999999999
  0
VERTEX
  5
1C2B
  8
SUNPO
  6
BYBLOCK
 10
113.99099283197199
 20
298.40300059841638
 30
0.0
 42
1.0
  0
VERTEX
  5
1C2C
  8
SUNPO
  6
BYBLOCK
 10
113.99099283197199
 20
298.69532059841617
 30
0.0
 42
1.0
  0
SEQEND
  5
1C2D
  8
SUNPO
  6
BYBLOCK
  0
POLYLINE
  5
1A00
  8
SUNPO
  6
BYBLOCK
 66
     1
 10
0.0
 20
0.0
 30
0.0
 70
     1
 40
1.159999999999999
 41
1.159999999999999
  0
VERTEX
  5
1C2E
  8
SUNPO
  6
BYBLOCK
 10
113.99099283197199
 20
263.6953205984164
 30
0.0
 42
1.0
  0
VERTEX
  5
1C2F
  8
SUNPO
  6
BYBLOCK
 10
113.99099283197199
 20
263.40300059841633
 30
0.0
 42
1.0
  0
SEQEND
  5
1C30
  8
SUNPO
  6
BYBLOCK
  0
LINE
  5
1A04
  8
WAKU
  6
CONTINUOUS
 10
494.47477787089508
 20
414.85770574567772
 30
0.0
 11
495.10192687089511
 21
416.5807827456776
 31
0.0
  0
LINE
  5
1A05
  8
WAKU
  6
CONTINUOUS
 10
493.76923587089539
 20
412.9192447456777
 30
0.0
 11
494.2395968708953
 21
414.2115517456777
 31
0.0
  0
SOLID
  5
1A06
  8
WAKU
  6
CONTINUOUS
 10
497.25577287089561
 20
416.5807827456776
 30
0.0
 11
494.41499387089561
 21
411.73462874567758
 31
0.0
 12
494.70798087089508
 22
409.58078274567771
 32
0.0
 13
494.70798087089508
 23
409.58078274567771
 33
0.0
  0
SOLID
  5
1A07
  8
WAKU
  6
CONTINUOUS
 10
494.41499387089561
 20
411.73462874567758
 30
0.0
 11
497.25577287089561
 21
416.5807827456776
 31
0.0
 12
496.17884987089508
 22
416.5807827456776
 32
0.0
 13
496.17884987089508
 23
416.5807827456776
 33
0.0
  0
LINE
  5
1A08
  8
WAKU
  6
CONTINUOUS
 10
494.41499387089561
 20
411.73462874567758
 30
0.0
 11
496.17884987089508
 21
416.5807827456776
 31
0.0
  0
LINE
  5
1A09
  8
WAKU
  6
CONTINUOUS
 10
494.70798087089508
 20
409.58078274567771
 30
0.0
 11
497.25577287089561
 21
416.5807827456776
 31
0.0
  0
LINE
  5
1A0A
  8
WAKU
  6
CONTINUOUS
 10
496.17884987089508
 20
416.5807827456776
 30
0.0
 11
497.25577287089561
 21
416.5807827456776
 31
0.0
  0
LINE
  5
1A0B
  8
WAKU
  6
CONTINUOUS
 10
491.87115787089567
 20
416.5807827456776
 30
0.0
 11
491.2440088708953
 21
414.85770574567772
 31
0.0
  0
LINE
  5
1A0C
  8
WAKU
  6
CONTINUOUS
 10
491.00882787089557
 20
414.2115517456777
 30
0.0
 11
490.5384668708956
 21
412.9192447456777
 31
0.0
  0
LINE
  5
1A0D
  8
WAKU
  6
CONTINUOUS
 10
489.3233658708956
 20
409.58078274567771
 30
0.0
 11
490.10730187089513
 21
411.73462874567758
 31
0.0
  0
LINE
  5
1A0E
  8
WAKU
  6
CONTINUOUS
 10
488.05243587089512
 20
414.96539774567742
 30
0.0
 11
489.1293598708948
 21
414.96539774567742
 31
0.0
  0
SOLID
  5
1A0F
  8
WAKU
  6
CONTINUOUS
 10
487.16951987089539
 20
409.58078274567771
 30
0.0
 11
486.68054887089568
 21
411.196167745678
 31
0.0
 12
483.44977887089573
 22
411.196167745678
 32
0.0
 13
483.44977887089573
 23
411.196167745678
 33
0.0
  0
LINE
  5
1A10
  8
WAKU
  6
CONTINUOUS
 10
483.4497788708951
 20
411.1961677456776
 30
0.0
 11
486.68054887089539
 21
411.1961677456776
 31
0.0
  0
SOLID
  5
1A11
  8
WAKU
  6
CONTINUOUS
 10
485.11465387089561
 20
412.81155174567812
 30
0.0
 11
485.89858987089542
 21
414.96539774567827
 31
0.0
 12
484.82166687089563
 22
414.96539774567827
 32
0.0
 13
484.82166687089563
 23
414.96539774567827
 33
0.0
  0
LINE
  5
1A12
  8
WAKU
  6
CONTINUOUS
 10
485.43773087089562
 20
412.81155174567772
 30
0.0
 11
486.22166687089509
 21
414.96539774567742
 31
0.0
  0
LINE
  5
1A13
  8
WAKU
  6
CONTINUOUS
 10
485.11465387089561
 20
412.81155174567772
 30
0.0
 11
485.89858987089502
 21
414.96539774567742
 31
0.0
  0
LINE
  5
1A14
  8
WAKU
  6
CONTINUOUS
 10
485.43773087089562
 20
412.81155174567772
 30
0.0
 11
486.51465387089462
 21
412.81155174567772
 31
0.0
  0
LINE
  5
1A15
  8
WAKU
  6
CONTINUOUS
 10
484.82166687089563
 20
414.96539774567742
 30
0.0
 11
485.89858987089502
 21
414.96539774567742
 31
0.0
  0
SOLID
  5
1A16
  8
WAKU
  6
CONTINUOUS
 10
486.22166687089538
 20
414.96539774567827
 30
0.0
 11
485.43773087089562
 21
412.81155174567812
 31
0.0
 12
487.29858987089511
 22
414.96539774567827
 32
0.0
 13
487.29858987089511
 23
414.96539774567827
 33
0.0
  0
SOLID
  5
1A17
  8
WAKU
  6
CONTINUOUS
 10
487.29858987089511
 20
414.96539774567827
 30
0.0
 11
485.43773087089562
 21
412.81155174567812
 31
0.0
 12
486.51465387089559
 22
412.81155174567812
 32
0.0
 13
486.51465387089559
 23
412.81155174567812
 33
0.0
  0
SOLID
  5
1A18
  8
WAKU
  6
CONTINUOUS
 10
484.82166687089563
 20
414.96539774567827
 30
0.0
 11
484.03773087089581
 21
412.81155174567812
 31
0.0
 12
485.11465387089561
 22
412.81155174567812
 32
0.0
 13
485.11465387089561
 23
412.81155174567812
 33
0.0
  0
LINE
  5
1A19
  8
WAKU
  6
CONTINUOUS
 10
484.0377308708953
 20
412.81155174567772
 30
0.0
 11
484.82166687089563
 21
414.96539774567742
 31
0.0
  0
LINE
  5
1A1A
  8
WAKU
  6
CONTINUOUS
 10
484.0377308708953
 20
412.81155174567772
 30
0.0
 11
485.11465387089561
 21
412.81155174567772
 31
0.0
  0
LINE
  5
1A1B
  8
WAKU
  6
CONTINUOUS
 10
486.51465387089462
 20
412.81155174567772
 30
0.0
 11
487.29858987089511
 21
414.96539774567742
 31
0.0
  0
LINE
  5
1A1C
  8
WAKU
  6
CONTINUOUS
 10
486.22166687089509
 20
414.96539774567742
 30
0.0
 11
487.29858987089511
 21
414.96539774567742
 31
0.0
  0
SOLID
  5
1A1D
  8
WAKU
  6
CONTINUOUS
 10
488.05243587089541
 20
414.96539774567827
 30
0.0
 11
486.68054887089568
 21
411.196167745678
 31
0.0
 12
487.16951987089539
 22
409.58078274567771
 32
0.0
 13
487.16951987089539
 23
409.58078274567771
 33
0.0
  0
LINE
  5
1A1E
  8
WAKU
  6
CONTINUOUS
 10
486.68054887089539
 20
411.1961677456776
 30
0.0
 11
488.05243587089512
 21
414.96539774567742
 31
0.0
  0
SOLID
  5
1A1F
  8
WAKU
  6
CONTINUOUS
 10
489.12935987089583
 20
414.96539774567827
 30
0.0
 11
488.05243587089541
 21
414.96539774567827
 31
0.0
 12
487.16951987089539
 22
409.58078274567771
 32
0.0
 13
487.16951987089539
 23
409.58078274567771
 33
0.0
  0
LINE
  5
1A20
  8
WAKU
  6
CONTINUOUS
 10
487.16951987089539
 20
409.58078274567771
 30
0.0
 11
489.1293598708948
 21
414.96539774567742
 31
0.0
  0
SOLID
  5
1A21
  8
WAKU
  6
CONTINUOUS
 10
482.17884987089542
 20
416.5807827456776
 30
0.0
 11
481.70848787089562
 21
415.28847474567817
 31
0.0
 12
482.78541087089548
 22
415.28847474567817
 32
0.0
 13
482.78541087089548
 23
415.28847474567817
 33
0.0
  0
SOLID
  5
1A22
  8
WAKU
  6
CONTINUOUS
 10
481.70848787089562
 20
415.28847474567817
 30
0.0
 11
482.19745987089561
 21
413.67309074567771
 31
0.0
 12
483.00515187089542
 22
413.67309074567771
 32
0.0
 13
483.00515187089542
 23
413.67309074567771
 33
0.0
  0
LINE
  5
1A23
  8
WAKU
  6
CONTINUOUS
 10
481.70848787089471
 20
415.28847474567772
 30
0.0
 11
482.17884987089508
 21
416.5807827456776
 31
0.0
  0
LINE
  5
1A24
  8
WAKU
  6
CONTINUOUS
 10
482.19745987089539
 20
413.67309074567771
 30
0.0
 11
483.00515187089508
 21
413.67309074567771
 31
0.0
  0
LINE
  5
1A25
  8
WAKU
  6
CONTINUOUS
 10
479.01618087089508
 20
415.28847474567772
 30
0.0
 11
479.48654187089539
 21
416.5807827456776
 31
0.0
  0
LINE
  5
1A26
  8
WAKU
  6
CONTINUOUS
 10
478.40961887089509
 20
416.5807827456776
 30
0.0
 11
479.48654187089539
 21
416.5807827456776
 31
0.0
  0
SOLID
  5
1A27
  8
WAKU
  6
CONTINUOUS
 10
481.12053587089508
 20
413.67309074567771
 30
0.0
 11
480.41499387089561
 21
411.73462874567758
 31
0.0
 12
480.70798087089571
 22
409.58078274567771
 32
0.0
 13
480.70798087089571
 23
409.58078274567771
 33
0.0
  0
LINE
  5
1A28
  8
WAKU
  6
CONTINUOUS
 10
480.41499387089561
 20
411.73462874567758
 30
0.0
 11
481.12053587089503
 21
413.67309074567771
 31
0.0
  0
LINE
  5
1A29
  8
WAKU
  6
CONTINUOUS
 10
478.42822887089523
 20
413.67309074567771
 30
0.0
 11
481.12053587089503
 21
413.67309074567771
 31
0.0
  0
SOLID
  5
1A2A
  8
WAKU
  6
CONTINUOUS
 10
482.19745987089561
 20
413.67309074567771
 30
0.0
 11
481.12053587089508
 21
413.67309074567771
 31
0.0
 12
480.70798087089571
 22
409.58078274567771
 32
0.0
 13
480.70798087089571
 23
409.58078274567771
 33
0.0
  0
LINE
  5
1A2B
  8
WAKU
  6
CONTINUOUS
 10
480.70798087089543
 20
409.58078274567771
 30
0.0
 11
482.19745987089539
 21
413.67309074567771
 31
0.0
  0
SOLID
  5
1A2C
  8
WAKU
  6
CONTINUOUS
 10
482.19745987089561
 20
413.67309074567771
 30
0.0
 11
481.70848787089562
 21
415.28847474567817
 31
0.0
 12
479.0161808708956
 22
415.28847474567817
 32
0.0
 13
479.0161808708956
 23
415.28847474567817
 33
0.0
  0
LINE
  5
1A2D
  8
WAKU
  6
CONTINUOUS
 10
479.01618087089508
 20
415.28847474567772
 30
0.0
 11
481.70848787089471
 21
415.28847474567772
 31
0.0
  0
LINE
  5
1A2E
  8
WAKU
  6
CONTINUOUS
 10
476.9593378708953
 20
412.59616774567769
 30
0.0
 11
477.3513058708956
 21
413.67309074567771
 31
0.0
  0
LINE
  5
1A2F
  8
WAKU
  6
CONTINUOUS
 10
476.9593378708953
 20
412.59616774567769
 30
0.0
 11
478.0362608708956
 21
412.59616774567769
 31
0.0
  0
LINE
  5
1A30
  8
WAKU
  6
CONTINUOUS
 10
475.6464428708947
 20
409.58078274567771
 30
0.0
 11
476.43037887089508
 21
411.73462874567758
 31
0.0
  0
LINE
  5
1A31
  8
WAKU
  6
CONTINUOUS
 10
476.543612870895
 20
413.67309074567771
 30
0.0
 11
477.3513058708956
 21
413.67309074567771
 31
0.0
  0
LINE
  5
1A32
  8
WAKU
  6
CONTINUOUS
 10
477.1315648708956
 20
415.28847474567772
 30
0.0
 11
477.93925787089472
 21
415.28847474567772
 31
0.0
  0
LINE
  5
1A33
  8
WAKU
  6
CONTINUOUS
 10
476.543612870895
 20
413.67309074567771
 30
0.0
 11
477.1315648708956
 21
415.28847474567772
 31
0.0
  0
LINE
  5
1A34
  8
WAKU
  6
CONTINUOUS
 10
475.62862387089513
 20
414.85770574567772
 30
0.0
 11
476.2557728708951
 21
416.5807827456776
 31
0.0
  0
LINE
  5
1A35
  8
WAKU
  6
CONTINUOUS
 10
473.70798087089503
 20
409.58078274567771
 30
0.0
 11
474.49191687089473
 21
411.73462874567758
 31
0.0
  0
SOLID
  5
1A36
  8
WAKU
  6
CONTINUOUS
 10
477.13156487089577
 20
415.28847474567817
 30
0.0
 11
476.54361287089557
 21
413.67309074567771
 31
0.0
 12
479.0161808708956
 22
415.28847474567817
 32
0.0
 13
479.0161808708956
 23
415.28847474567817
 33
0.0
  0
LINE
  5
1A37
  8
WAKU
  6
CONTINUOUS
 10
477.93925787089472
 20
415.28847474567772
 30
0.0
 11
478.40961887089509
 21
416.5807827456776
 31
0.0
  0
SOLID
  5
1A38
  8
WAKU
  6
CONTINUOUS
 10
479.48654187089539
 20
416.5807827456776
 30
0.0
 11
477.93925787089591
 21
415.28847474567817
 31
0.0
 12
479.0161808708956
 22
415.28847474567817
 32
0.0
 13
479.0161808708956
 23
415.28847474567817
 33
0.0
  0
SOLID
  5
1A39
  8
WAKU
  6
CONTINUOUS
 10
477.93925787089591
 20
415.28847474567817
 30
0.0
 11
479.48654187089539
 21
416.5807827456776
 31
0.0
 12
478.40961887089583
 22
416.5807827456776
 32
0.0
 13
478.40961887089583
 23
416.5807827456776
 33
0.0
  0
SOLID
  5
1A3A
  8
WAKU
  6
CONTINUOUS
 10
480.70798087089571
 20
409.58078274567771
 30
0.0
 11
480.41499387089561
 21
411.73462874567758
 31
0.0
 12
476.43037887089599
 22
411.73462874567758
 32
0.0
 13
476.43037887089599
 23
411.73462874567758
 33
0.0
  0
SOLID
  5
1A3B
  8
WAKU
  6
CONTINUOUS
 10
476.43037887089599
 20
411.73462874567758
 30
0.0
 11
475.64644287089561
 21
409.58078274567771
 31
0.0
 12
480.70798087089571
 22
409.58078274567771
 32
0.0
 13
480.70798087089571
 23
409.58078274567771
 33
0.0
  0
LINE
  5
1A3C
  8
WAKU
  6
CONTINUOUS
 10
475.6464428708947
 20
409.58078274567771
 30
0.0
 11
480.70798087089543
 21
409.58078274567771
 31
0.0
  0
SOLID
  5
1A3D
  8
WAKU
  6
CONTINUOUS
 10
476.54361287089557
 20
413.67309074567771
 30
0.0
 11
478.42822887089568
 21
413.67309074567771
 31
0.0
 12
481.12053587089508
 22
413.67309074567771
 32
0.0
 13
481.12053587089508
 23
413.67309074567771
 33
0.0
  0
SOLID
  5
1A3E
  8
WAKU
  6
CONTINUOUS
 10
479.0161808708956
 20
415.28847474567817
 30
0.0
 11
476.54361287089557
 21
413.67309074567771
 31
0.0
 12
482.19745987089561
 22
413.67309074567771
 32
0.0
 13
482.19745987089561
 23
413.67309074567771
 33
0.0
  0
SOLID
  5
1A3F
  8
WAKU
  6
CONTINUOUS
 10
482.19745987089561
 20
413.67309074567771
 30
0.0
 11
476.54361287089557
 21
413.67309074567771
 31
0.0
 12
481.12053587089508
 22
413.67309074567771
 32
0.0
 13
481.12053587089508
 23
413.67309074567771
 33
0.0
  0
SOLID
  5
1A40
  8
WAKU
  6
CONTINUOUS
 10
477.3513058708956
 20
413.67309074567771
 30
0.0
 11
476.9593378708953
 21
412.5961677456782
 31
0.0
 12
478.42822887089568
 22
413.67309074567771
 32
0.0
 13
478.42822887089568
 23
413.67309074567771
 33
0.0
  0
SOLID
  5
1A41
  8
WAKU
  6
CONTINUOUS
 10
478.42822887089568
 20
413.67309074567771
 30
0.0
 11
476.9593378708953
 21
412.5961677456782
 31
0.0
 12
478.0362608708956
 22
412.5961677456782
 32
0.0
 13
478.0362608708956
 23
412.5961677456782
 33
0.0
  0
LINE
  5
1A42
  8
WAKU
  6
CONTINUOUS
 10
478.0362608708956
 20
412.59616774567769
 30
0.0
 11
478.42822887089523
 21
413.67309074567771
 31
0.0
  0
LINE
  5
1A43
  8
WAKU
  6
CONTINUOUS
 10
476.43037887089508
 20
411.73462874567758
 30
0.0
 11
480.41499387089561
 21
411.73462874567758
 31
0.0
  0
SOLID
  5
1A44
  8
WAKU
  6
CONTINUOUS
 10
476.54361287089557
 20
413.67309074567771
 30
0.0
 11
477.3513058708956
 21
413.67309074567771
 31
0.0
 12
478.42822887089568
 22
413.67309074567771
 32
0.0
 13
478.42822887089568
 23
413.67309074567771
 33
0.0
  0
SOLID
  5
1A45
  8
WAKU
  6
CONTINUOUS
 10
479.0161808708956
 20
415.28847474567817
 30
0.0
 11
477.93925787089591
 21
415.28847474567817
 31
0.0
 12
477.13156487089577
 22
415.28847474567817
 32
0.0
 13
477.13156487089577
 23
415.28847474567817
 33
0.0
  0
SOLID
  5
1A46
  8
WAKU
  6
CONTINUOUS
 10
483.44977887089573
 20
411.196167745678
 30
0.0
 11
482.86182787089592
 21
409.58078274567771
 31
0.0
 12
487.16951987089539
 22
409.58078274567771
 32
0.0
 13
487.16951987089539
 23
409.58078274567771
 33
0.0
  0
LINE
  5
1A47
  8
WAKU
  6
CONTINUOUS
 10
482.86182787089592
 20
409.58078274567771
 30
0.0
 11
487.16951987089539
 21
409.58078274567771
 31
0.0
  0
SOLID
  5
1A48
  8
WAKU
  6
CONTINUOUS
 10
482.78541087089548
 20
415.28847474567817
 30
0.0
 11
481.70848787089562
 21
415.28847474567817
 31
0.0
 12
483.59310387089562
 22
415.28847474567817
 32
0.0
 13
483.59310387089562
 23
415.28847474567817
 33
0.0
  0
SOLID
  5
1A49
  8
WAKU
  6
CONTINUOUS
 10
483.59310387089562
 20
415.28847474567817
 30
0.0
 11
481.70848787089562
 21
415.28847474567817
 31
0.0
 12
483.00515187089542
 22
413.67309074567771
 32
0.0
 13
483.00515187089542
 23
413.67309074567771
 33
0.0
  0
LINE
  5
1A4A
  8
WAKU
  6
CONTINUOUS
 10
482.86182787089592
 20
409.58078274567771
 30
0.0
 11
483.4497788708951
 21
411.1961677456776
 31
0.0
  0
SOLID
  5
1A4B
  8
WAKU
  6
CONTINUOUS
 10
483.2557728708955
 20
416.5807827456776
 30
0.0
 11
482.17884987089542
 21
416.5807827456776
 31
0.0
 12
482.78541087089548
 22
415.28847474567817
 32
0.0
 13
482.78541087089548
 23
415.28847474567817
 33
0.0
  0
LINE
  5
1A4C
  8
WAKU
  6
CONTINUOUS
 10
482.17884987089508
 20
416.5807827456776
 30
0.0
 11
483.2557728708947
 21
416.5807827456776
 31
0.0
  0
LINE
  5
1A4D
  8
WAKU
  6
CONTINUOUS
 10
482.78541087089548
 20
415.28847474567772
 30
0.0
 11
483.2557728708947
 21
416.5807827456776
 31
0.0
  0
LINE
  5
1A4E
  8
WAKU
  6
CONTINUOUS
 10
482.78541087089548
 20
415.28847474567772
 30
0.0
 11
483.59310387089562
 21
415.28847474567772
 31
0.0
  0
LINE
  5
1A4F
  8
WAKU
  6
CONTINUOUS
 10
483.00515187089508
 20
413.67309074567771
 30
0.0
 11
483.59310387089562
 21
415.28847474567772
 31
0.0
  0
LINE
  5
1A50
  8
WAKU
  6
CONTINUOUS
 10
470.2440088708953
 20
414.85770574567772
 30
0.0
 11
470.87115787089562
 21
416.5807827456776
 31
0.0
  0
LINE
  5
1A51
  8
WAKU
  6
CONTINUOUS
 10
468.3233658708956
 20
409.58078274567771
 30
0.0
 11
469.10730187089513
 21
411.73462874567758
 31
0.0
  0
LINE
  5
1A52
  8
WAKU
  6
CONTINUOUS
 10
469.5788498708954
 20
416.5807827456776
 30
0.0
 11
468.95170087089468
 21
414.85770574567772
 31
0.0
  0
LINE
  5
1A53
  8
WAKU
  6
CONTINUOUS
 10
466.78062387089511
 20
414.85770574567772
 30
0.0
 11
468.01097787089509
 21
412.27309074567768
 31
0.0
  0
LINE
  5
1A54
  8
WAKU
  6
CONTINUOUS
 10
467.0310578708951
 20
409.58078274567771
 30
0.0
 11
468.01097787089509
 21
412.27309074567768
 31
0.0
  0
SOLID
  5
1A55
  8
WAKU
  6
CONTINUOUS
 10
465.74943987089569
 20
412.27309074567802
 30
0.0
 11
464.65291787089558
 21
412.219244745678
 31
0.0
 12
464.76951987089518
 22
409.58078274567771
 32
0.0
 13
464.76951987089518
 23
409.58078274567771
 33
0.0
  0
LINE
  5
1A56
  8
WAKU
  6
CONTINUOUS
 10
464.76951987089518
 20
409.58078274567771
 30
0.0
 11
465.74943987089512
 21
412.27309074567768
 31
0.0
  0
SOLID
  5
1A57
  8
WAKU
  6
CONTINUOUS
 10
464.65291787089558
 20
412.219244745678
 30
0.0
 11
463.69259687089561
 21
409.58078274567771
 31
0.0
 12
464.76951987089518
 22
409.58078274567771
 32
0.0
 13
464.76951987089518
 23
409.58078274567771
 33
0.0
  0
LINE
  5
1A58
  8
WAKU
  6
CONTINUOUS
 10
463.69259687089561
 20
409.58078274567771
 30
0.0
 11
464.65291787089512
 21
412.219244745678
 31
0.0
  0
LINE
  5
1A59
  8
WAKU
  6
CONTINUOUS
 10
463.69259687089561
 20
409.58078274567771
 30
0.0
 11
464.76951987089518
 21
409.58078274567771
 31
0.0
  0
SOLID
  5
1A5A
  8
WAKU
  6
CONTINUOUS
 10
466.78062387089511
 20
414.857705745678
 30
0.0
 11
465.56708587089571
 21
414.857705745678
 31
0.0
 12
465.74943987089569
 22
412.27309074567802
 32
0.0
 13
465.74943987089569
 23
412.27309074567802
 33
0.0
  0
LINE
  5
1A5B
  8
WAKU
  6
CONTINUOUS
 10
465.74943987089512
 20
412.27309074567768
 30
0.0
 11
467.0310578708951
 21
409.58078274567771
 31
0.0
  0
SOLID
  5
1A5C
  8
WAKU
  6
CONTINUOUS
 10
466.78062387089511
 20
414.857705745678
 30
0.0
 11
465.74943987089569
 21
412.27309074567802
 31
0.0
 12
468.01097787089537
 22
412.27309074567802
 32
0.0
 13
468.01097787089537
 23
412.27309074567802
 33
0.0
  0
SOLID
  5
1A5D
  8
WAKU
  6
CONTINUOUS
 10
465.74943987089569
 20
412.27309074567802
 30
0.0
 11
467.03105787089561
 21
409.58078274567771
 31
0.0
 12
468.01097787089537
 22
412.27309074567802
 32
0.0
 13
468.01097787089537
 23
412.27309074567802
 33
0.0
  0
LINE
  5
1A5E
  8
WAKU
  6
CONTINUOUS
 10
463.351700870895
 20
414.85770574567772
 30
0.0
 11
465.56708587089503
 21
414.85770574567772
 31
0.0
  0
LINE
  5
1A5F
  8
WAKU
  6
CONTINUOUS
 10
463.97884987089509
 20
416.5807827456776
 30
0.0
 11
463.351700870895
 21
414.85770574567772
 31
0.0
  0
SOLID
  5
1A60
  8
WAKU
  6
CONTINUOUS
 10
463.97884987089571
 20
416.5807827456776
 30
0.0
 11
463.35170087089563
 21
414.857705745678
 31
0.0
 12
466.78062387089511
 22
414.857705745678
 32
0.0
 13
466.78062387089511
 23
414.857705745678
 33
0.0
  0
SOLID
  5
1A61
  8
WAKU
  6
CONTINUOUS
 10
466.78062387089511
 20
414.857705745678
 30
0.0
 11
463.35170087089563
 21
414.857705745678
 31
0.0
 12
465.56708587089571
 22
414.857705745678
 32
0.0
 13
465.56708587089571
 23
414.857705745678
 33
0.0
  0
LINE
  5
1A62
  8
WAKU
  6
CONTINUOUS
 10
466.78062387089511
 20
414.85770574567772
 30
0.0
 11
468.95170087089468
 21
414.85770574567772
 31
0.0
  0
SOLID
  5
1A63
  8
WAKU
  6
CONTINUOUS
 10
469.57884987089562
 20
416.5807827456776
 30
0.0
 11
463.97884987089571
 21
416.5807827456776
 31
0.0
 12
468.95170087089531
 22
414.857705745678
 32
0.0
 13
468.95170087089531
 23
414.857705745678
 33
0.0
  0
SOLID
  5
1A64
  8
WAKU
  6
CONTINUOUS
 10
463.97884987089571
 20
416.5807827456776
 30
0.0
 11
466.78062387089511
 21
414.857705745678
 31
0.0
 12
468.95170087089531
 22
414.857705745678
 32
0.0
 13
468.95170087089531
 23
414.857705745678
 33
0.0
  0
LINE
  5
1A65
  8
WAKU
  6
CONTINUOUS
 10
463.97884987089509
 20
416.5807827456776
 30
0.0
 11
469.5788498708954
 21
416.5807827456776
 31
0.0
  0
LINE
  5
1A66
  8
WAKU
  6
CONTINUOUS
 10
461.4310578708953
 20
409.58078274567771
 30
0.0
 11
462.41097787089518
 21
412.27309074567768
 31
0.0
  0
LINE
  5
1A67
  8
WAKU
  6
CONTINUOUS
 10
459.15061587089508
 20
412.86447574567819
 30
0.0
 11
459.4125048708953
 21
413.36581274567772
 31
0.0
  0
SOLID
  5
1A68
  8
WAKU
  6
CONTINUOUS
 10
460.20659987089562
 20
413.67707174567829
 30
0.0
 11
459.81213387089548
 21
413.6506467456777
 31
0.0
 12
460.12175687089558
 22
413.24691674567799
 32
0.0
 13
460.12175687089558
 23
413.24691674567799
 33
0.0
  0
SOLID
  5
1A69
  8
WAKU
  6
CONTINUOUS
 10
459.81213387089548
 20
413.6506467456777
 30
0.0
 11
459.71648287089539
 21
413.25503074567729
 31
0.0
 12
460.12175687089558
 22
413.24691674567799
 32
0.0
 13
460.12175687089558
 23
413.24691674567799
 33
0.0
  0
LINE
  5
1A6A
  8
WAKU
  6
CONTINUOUS
 10
460.12175687089518
 20
413.24691674567748
 30
0.0
 11
460.20659987089562
 21
413.67707174567721
 31
0.0
  0
LINE
  5
1A6B
  8
WAKU
  6
CONTINUOUS
 10
459.71648287089539
 20
413.25503074567729
 30
0.0
 11
459.81213387089508
 21
413.65064674567708
 31
0.0
  0
SOLID
  5
1A6C
  8
WAKU
  6
CONTINUOUS
 10
459.71648287089539
 20
413.25503074567729
 30
0.0
 11
459.52427987089561
 21
412.80006074567802
 31
0.0
 12
460.12175687089558
 22
413.24691674567799
 32
0.0
 13
460.12175687089558
 23
413.24691674567799
 33
0.0
  0
SOLID
  5
1A6D
  8
WAKU
  6
CONTINUOUS
 10
460.12175687089558
 20
413.24691674567799
 30
0.0
 11
459.52427987089561
 21
412.80006074567802
 31
0.0
 12
459.94527587089561
 22
412.7776107456782
 32
0.0
 13
459.94527587089561
 23
412.7776107456782
 33
0.0
  0
LINE
  5
1A6E
  8
WAKU
  6
CONTINUOUS
 10
459.6836378708951
 20
412.28639174567741
 30
0.0
 11
459.94527587089482
 21
412.77761074567741
 31
0.0
  0
LINE
  5
1A6F
  8
WAKU
  6
CONTINUOUS
 10
459.94527587089482
 20
412.77761074567741
 30
0.0
 11
460.12175687089518
 21
413.24691674567748
 31
0.0
  0
LINE
  5
1A70
  8
WAKU
  6
CONTINUOUS
 10
459.5242798708947
 20
412.80006074567802
 30
0.0
 11
459.71648287089539
 21
413.25503074567729
 31
0.0
  0
LINE
  5
1A71
  8
WAKU
  6
CONTINUOUS
 10
458.94610787089471
 20
411.31052674567741
 30
0.0
 11
459.34645387089557
 21
411.79130274567768
 31
0.0
  0
SOLID
  5
1A72
  8
WAKU
  6
CONTINUOUS
 10
459.52427987089561
 20
412.80006074567802
 30
0.0
 11
459.24082287089561
 21
412.31450074567812
 31
0.0
 12
459.94527587089561
 22
412.7776107456782
 32
0.0
 13
459.94527587089561
 23
412.7776107456782
 33
0.0
  0
SOLID
  5
1A73
  8
WAKU
  6
CONTINUOUS
 10
459.94527587089561
 20
412.7776107456782
 30
0.0
 11
459.24082287089561
 21
412.31450074567812
 31
0.0
 12
459.68363787089561
 22
412.28639174567809
 32
0.0
 13
459.68363787089561
 23
412.28639174567809
 33
0.0
  0
LINE
  5
1A74
  8
WAKU
  6
CONTINUOUS
 10
459.34645387089557
 20
411.79130274567768
 30
0.0
 11
459.6836378708951
 21
412.28639174567741
 31
0.0
  0
LINE
  5
1A75
  8
WAKU
  6
CONTINUOUS
 10
459.24082287089561
 20
412.31450074567812
 30
0.0
 11
459.5242798708947
 21
412.80006074567802
 31
0.0
  0
SOLID
  5
1A76
  8
WAKU
  6
CONTINUOUS
 10
460.09238487089573
 20
414.35874974567793
 30
0.0
 11
459.66058287089561
 21
414.27703174567802
 31
0.0
 12
460.19668787089557
 22
414.05227574567829
 32
0.0
 13
460.19668787089557
 23
414.05227574567829
 33
0.0
  0
SOLID
  5
1A77
  8
WAKU
  6
CONTINUOUS
 10
459.66058287089561
 20
414.27703174567802
 30
0.0
 11
459.75872387089561
 21
414.15870074567817
 31
0.0
 12
460.19668787089557
 22
414.05227574567829
 32
0.0
 13
460.19668787089557
 23
414.05227574567829
 33
0.0
  0
SOLID
  5
1A78
  8
WAKU
  6
CONTINUOUS
 10
459.75872387089561
 20
414.15870074567817
 30
0.0
 11
459.81757487089561
 21
413.95803574567771
 31
0.0
 12
460.19668787089557
 22
414.05227574567829
 32
0.0
 13
460.19668787089557
 23
414.05227574567829
 33
0.0
  0
SOLID
  5
1A79
  8
WAKU
  6
CONTINUOUS
 10
460.19668787089557
 20
414.05227574567829
 30
0.0
 11
459.81757487089561
 21
413.95803574567771
 31
0.0
 12
460.20659987089562
 22
413.67707174567829
 32
0.0
 13
460.20659987089562
 23
413.67707174567829
 33
0.0
  0
SOLID
  5
1A7A
  8
WAKU
  6
CONTINUOUS
 10
459.81757487089561
 20
413.95803574567771
 30
0.0
 11
459.81213387089548
 21
413.6506467456777
 31
0.0
 12
460.20659987089562
 22
413.67707174567829
 32
0.0
 13
460.20659987089562
 23
413.67707174567829
 33
0.0
  0
LINE
  5
1A7B
  8
WAKU
  6
CONTINUOUS
 10
460.0923848708947
 20
414.35874974567793
 30
0.0
 11
459.89752187089562
 21
414.5852347456775
 31
0.0
  0
LINE
  5
1A7C
  8
WAKU
  6
CONTINUOUS
 10
460.20659987089562
 20
413.67707174567721
 30
0.0
 11
460.19668787089512
 21
414.05227574567772
 31
0.0
  0
LINE
  5
1A7D
  8
WAKU
  6
CONTINUOUS
 10
460.19668787089512
 20
414.05227574567772
 30
0.0
 11
460.0923848708947
 21
414.35874974567793
 31
0.0
  0
LINE
  5
1A7E
  8
WAKU
  6
CONTINUOUS
 10
459.81213387089508
 20
413.65064674567708
 30
0.0
 11
459.81757487089482
 21
413.95803574567771
 31
0.0
  0
LINE
  5
1A7F
  8
WAKU
  6
CONTINUOUS
 10
459.81757487089482
 20
413.95803574567771
 30
0.0
 11
459.75872387089481
 21
414.15870074567761
 31
0.0
  0
LINE
  5
1A80
  8
WAKU
  6
CONTINUOUS
 10
459.75872387089481
 20
414.15870074567761
 30
0.0
 11
459.66058287089442
 21
414.27703174567802
 31
0.0
  0
LINE
  5
1A81
  8
WAKU
  6
CONTINUOUS
 10
459.58469787089513
 20
413.84276974567751
 30
0.0
 11
459.66058287089442
 21
414.27703174567802
 31
0.0
  0
LINE
  5
1A82
  8
WAKU
  6
CONTINUOUS
 10
459.89752187089562
 20
414.5852347456775
 30
0.0
 11
459.61925687089467
 21
414.72341274567742
 31
0.0
  0
LINE
  5
1A83
  8
WAKU
  6
CONTINUOUS
 10
459.61925687089467
 20
414.72341274567742
 30
0.0
 11
459.48107887089532
 21
415.00167774567768
 31
0.0
  0
LINE
  5
1A84
  8
WAKU
  6
CONTINUOUS
 10
459.18784387089522
 20
413.87118474567728
 30
0.0
 11
459.2750018708947
 21
414.37935174567758
 31
0.0
  0
LINE
  5
1A85
  8
WAKU
  6
CONTINUOUS
 10
459.17271387089539
 20
414.76472674567748
 30
0.0
 11
459.0549208708951
 21
414.8627117456777
 31
0.0
  0
LINE
  5
1A86
  8
WAKU
  6
CONTINUOUS
 10
459.25459387089558
 20
415.1965397456778
 30
0.0
 11
458.94812087089502
 21
415.30084274567793
 31
0.0
  0
SOLID
  5
1A87
  8
WAKU
  6
CONTINUOUS
 10
459.05492087089539
 20
414.8627117456777
 30
0.0
 11
459.17271387089539
 21
414.76472674567799
 31
0.0
 12
459.61925687089558
 22
414.72341274567742
 32
0.0
 13
459.61925687089558
 23
414.72341274567742
 33
0.0
  0
SOLID
  5
1A88
  8
WAKU
  6
CONTINUOUS
 10
459.89752187089562
 20
414.58523474567818
 30
0.0
 11
459.27500187089561
 21
414.37935174567758
 31
0.0
 12
460.09238487089573
 22
414.35874974567793
 32
0.0
 13
460.09238487089573
 23
414.35874974567793
 33
0.0
  0
SOLID
  5
1A89
  8
WAKU
  6
CONTINUOUS
 10
459.27500187089561
 20
414.37935174567758
 30
0.0
 11
459.18784387089562
 21
413.87118474567808
 31
0.0
 12
459.66058287089561
 22
414.27703174567802
 32
0.0
 13
459.66058287089561
 23
414.27703174567802
 33
0.0
  0
SOLID
  5
1A8A
  8
WAKU
  6
CONTINUOUS
 10
459.27500187089561
 20
414.37935174567758
 30
0.0
 11
459.66058287089561
 21
414.27703174567802
 31
0.0
 12
460.09238487089573
 22
414.35874974567793
 32
0.0
 13
460.09238487089573
 23
414.35874974567793
 33
0.0
  0
SOLID
  5
1A8B
  8
WAKU
  6
CONTINUOUS
 10
459.66058287089561
 20
414.27703174567802
 30
0.0
 11
459.18784387089562
 21
413.87118474567808
 31
0.0
 12
459.5846978708957
 22
413.84276974567808
 32
0.0
 13
459.5846978708957
 23
413.84276974567808
 33
0.0
  0
LINE
  5
1A8C
  8
WAKU
  6
CONTINUOUS
 10
459.48107887089532
 20
415.00167774567768
 30
0.0
 11
459.25459387089558
 21
415.1965397456778
 31
0.0
  0
LINE
  5
1A8D
  8
WAKU
  6
CONTINUOUS
 10
459.4125048708953
 20
413.36581274567772
 30
0.0
 11
459.58469787089513
 21
413.84276974567751
 31
0.0
  0
LINE
  5
1A8E
  8
WAKU
  6
CONTINUOUS
 10
458.73840887089511
 20
414.68879674567768
 30
0.0
 11
458.26141187089507
 21
414.51655074567719
 31
0.0
  0
LINE
  5
1A8F
  8
WAKU
  6
CONTINUOUS
 10
458.40103887089469
 20
411.86587174567728
 30
0.0
 11
458.80908887089561
 21
412.35801174567769
 31
0.0
  0
LINE
  5
1A90
  8
WAKU
  6
CONTINUOUS
 10
458.4760108708947
 20
412.56270274567771
 30
0.0
 11
458.91712587089501
 21
413.240316745678
 31
0.0
  0
LINE
  5
1A91
  8
WAKU
  6
CONTINUOUS
 10
458.85376887089512
 20
414.92168474567728
 30
0.0
 11
458.54662987089472
 21
414.91636374567759
 31
0.0
  0
SOLID
  5
1A92
  8
WAKU
  6
CONTINUOUS
 10
458.73840887089563
 20
414.68879674567802
 30
0.0
 11
458.26141187089547
 21
414.5165507456777
 31
0.0
 12
459.89752187089562
 22
414.58523474567818
 32
0.0
 13
459.89752187089562
 23
414.58523474567818
 33
0.0
  0
SOLID
  5
1A93
  8
WAKU
  6
CONTINUOUS
 10
459.89752187089562
 20
414.58523474567818
 30
0.0
 11
458.26141187089547
 21
414.5165507456777
 31
0.0
 12
459.27500187089561
 22
414.37935174567758
 32
0.0
 13
459.27500187089561
 23
414.37935174567758
 33
0.0
  0
SOLID
  5
1A94
  8
WAKU
  6
CONTINUOUS
 10
459.4125048708953
 20
413.36581274567772
 30
0.0
 11
458.91712587089592
 21
413.240316745678
 31
0.0
 12
459.15061587089508
 22
412.86447574567819
 32
0.0
 13
459.15061587089508
 23
412.86447574567819
 33
0.0
  0
SOLID
  5
1A95
  8
WAKU
  6
CONTINUOUS
 10
459.18784387089562
 20
413.87118474567808
 30
0.0
 11
458.91712587089592
 21
413.240316745678
 31
0.0
 12
459.5846978708957
 22
413.84276974567808
 32
0.0
 13
459.5846978708957
 23
413.84276974567808
 33
0.0
  0
SOLID
  5
1A96
  8
WAKU
  6
CONTINUOUS
 10
459.5846978708957
 20
413.84276974567808
 30
0.0
 11
458.91712587089592
 21
413.240316745678
 31
0.0
 12
459.4125048708953
 22
413.36581274567772
 32
0.0
 13
459.4125048708953
 23
413.36581274567772
 33
0.0
  0
LINE
  5
1A97
  8
WAKU
  6
CONTINUOUS
 10
458.91712587089501
 20
413.240316745678
 30
0.0
 11
459.18784387089522
 21
413.87118474567728
 31
0.0
  0
SOLID
  5
1A98
  8
WAKU
  6
CONTINUOUS
 10
458.91712587089592
 20
413.240316745678
 30
0.0
 11
458.47601087089561
 21
412.56270274567771
 31
0.0
 12
459.15061587089508
 22
412.86447574567819
 32
0.0
 13
459.15061587089508
 23
412.86447574567819
 33
0.0
  0
SOLID
  5
1A99
  8
WAKU
  6
CONTINUOUS
 10
459.15061587089508
 20
412.86447574567819
 30
0.0
 11
458.47601087089561
 21
412.56270274567771
 31
0.0
 12
458.80908887089561
 22
412.35801174567769
 32
0.0
 13
458.80908887089561
 23
412.35801174567769
 33
0.0
  0
SOLID
  5
1A9A
  8
WAKU
  6
CONTINUOUS
 10
459.34645387089557
 20
411.79130274567802
 30
0.0
 11
458.45173787089561
 21
411.35601474567773
 31
0.0
 12
458.94610787089562
 22
411.3105267456782
 32
0.0
 13
458.94610787089562
 23
411.3105267456782
 33
0.0
  0
LINE
  5
1A9B
  8
WAKU
  6
CONTINUOUS
 10
458.4517378708947
 20
411.35601474567773
 30
0.0
 11
459.24082287089561
 21
412.31450074567812
 31
0.0
  0
LINE
  5
1A9C
  8
WAKU
  6
CONTINUOUS
 10
458.49730487089522
 20
410.8617237456773
 30
0.0
 11
458.94610787089471
 21
411.31052674567741
 31
0.0
  0
LINE
  5
1A9D
  8
WAKU
  6
CONTINUOUS
 10
458.80908887089561
 20
412.35801174567769
 30
0.0
 11
459.15061587089508
 21
412.86447574567819
 31
0.0
  0
SOLID
  5
1A9E
  8
WAKU
  6
CONTINUOUS
 10
459.24082287089561
 20
412.31450074567812
 30
0.0
 11
458.45173787089561
 21
411.35601474567773
 31
0.0
 12
459.68363787089561
 22
412.28639174567809
 32
0.0
 13
459.68363787089561
 23
412.28639174567809
 33
0.0
  0
SOLID
  5
1A9F
  8
WAKU
  6
CONTINUOUS
 10
459.68363787089561
 20
412.28639174567809
 30
0.0
 11
458.45173787089561
 21
411.35601474567773
 31
0.0
 12
459.34645387089557
 22
411.79130274567802
 32
0.0
 13
459.34645387089557
 23
411.79130274567802
 33
0.0
  0
LINE
  5
1AA0
  8
WAKU
  6
CONTINUOUS
 10
459.2750018708947
 20
414.37935174567758
 30
0.0
 11
458.76651087089539
 21
414.2920227456778
 31
0.0
  0
LINE
  5
1AA1
  8
WAKU
  6
CONTINUOUS
 10
459.17271387089539
 20
414.76472674567748
 30
0.0
 11
458.73840887089511
 21
414.68879674567768
 31
0.0
  0
LINE
  5
1AA2
  8
WAKU
  6
CONTINUOUS
 10
459.0549208708951
 20
414.8627117456777
 30
0.0
 11
458.85376887089512
 21
414.92168474567728
 31
0.0
  0
LINE
  5
1AA3
  8
WAKU
  6
CONTINUOUS
 10
458.94812087089502
 20
415.30084274567793
 30
0.0
 11
458.57291587089509
 21
415.3107547456778
 31
0.0
  0
SOLID
  5
1AA4
  8
WAKU
  6
CONTINUOUS
 10
459.48107887089571
 20
415.00167774567819
 30
0.0
 11
458.85376887089592
 21
414.92168474567819
 31
0.0
 12
459.61925687089558
 22
414.72341274567742
 32
0.0
 13
459.61925687089558
 23
414.72341274567742
 33
0.0
  0
SOLID
  5
1AA5
  8
WAKU
  6
CONTINUOUS
 10
458.85376887089592
 20
414.92168474567819
 30
0.0
 11
459.05492087089539
 21
414.8627117456777
 31
0.0
 12
459.61925687089558
 22
414.72341274567742
 32
0.0
 13
459.61925687089558
 23
414.72341274567742
 33
0.0
  0
SOLID
  5
1AA6
  8
WAKU
  6
CONTINUOUS
 10
459.17271387089539
 20
414.76472674567799
 30
0.0
 11
458.73840887089563
 21
414.68879674567802
 31
0.0
 12
459.61925687089558
 22
414.72341274567742
 32
0.0
 13
459.61925687089558
 23
414.72341274567742
 33
0.0
  0
SOLID
  5
1AA7
  8
WAKU
  6
CONTINUOUS
 10
459.61925687089558
 20
414.72341274567742
 30
0.0
 11
458.73840887089563
 21
414.68879674567802
 31
0.0
 12
459.89752187089562
 22
414.58523474567818
 32
0.0
 13
459.89752187089562
 23
414.58523474567818
 33
0.0
  0
SOLID
  5
1AA8
  8
WAKU
  6
CONTINUOUS
 10
455.75756787089563
 20
413.60145974567752
 30
0.0
 11
455.35722187089539
 21
413.12068374567798
 31
0.0
 12
456.25187087089569
 22
413.55589074567808
 32
0.0
 13
456.25187087089569
 23
413.55589074567808
 33
0.0
  0
SOLID
  5
1AA9
  8
WAKU
  6
CONTINUOUS
 10
456.25187087089569
 20
413.55589074567808
 30
0.0
 11
455.35722187089539
 21
413.12068374567798
 31
0.0
 12
455.46280787089557
 22
412.59735274567771
 32
0.0
 13
455.46280787089557
 23
412.59735274567771
 33
0.0
  0
LINE
  5
1AAA
  8
WAKU
  6
CONTINUOUS
 10
456.25187087089512
 20
413.55589074567729
 30
0.0
 11
455.46280787089472
 21
412.59735274567771
 31
0.0
  0
SOLID
  5
1AAB
  8
WAKU
  6
CONTINUOUS
 10
456.30249287089578
 20
413.0459567456781
 30
0.0
 11
455.89444387089588
 21
412.55378274567778
 31
0.0
 12
456.80159987089559
 22
413.00567574567771
 32
0.0
 13
456.80159987089559
 23
413.00567574567771
 33
0.0
  0
SOLID
  5
1AAC
  8
WAKU
  6
CONTINUOUS
 10
456.80159987089559
 20
413.00567574567771
 30
0.0
 11
455.89444387089588
 21
412.55378274567778
 31
0.0
 12
456.2276688708958
 22
412.34925374567808
 32
0.0
 13
456.2276688708958
 23
412.34925374567808
 33
0.0
  0
SOLID
  5
1AAD
  8
WAKU
  6
CONTINUOUS
 10
455.89444387089588
 20
412.55378274567778
 30
0.0
 11
455.5529288708957
 21
412.0472917456778
 31
0.0
 12
456.2276688708958
 22
412.34925374567808
 32
0.0
 13
456.2276688708958
 23
412.34925374567808
 33
0.0
  0
SOLID
  5
1AAE
  8
WAKU
  6
CONTINUOUS
 10
456.2276688708958
 20
412.34925374567808
 30
0.0
 11
455.5529288708957
 21
412.0472917456778
 31
0.0
 12
455.78648487089561
 22
411.67165774567809
 32
0.0
 13
455.78648487089561
 23
411.67165774567809
 33
0.0
  0
SOLID
  5
1AAF
  8
WAKU
  6
CONTINUOUS
 10
456.56803587089581
 20
410.8911147456771
 30
0.0
 11
455.93716787089568
 21
410.61997774567777
 31
0.0
 12
456.9435428708955
 22
410.65732774567817
 32
0.0
 13
456.9435428708955
 23
410.65732774567817
 33
0.0
  0
SOLID
  5
1AB0
  8
WAKU
  6
CONTINUOUS
 10
456.9435428708955
 20
410.65732774567817
 30
0.0
 11
455.93716787089568
 21
410.61997774567777
 31
0.0
 12
456.4422008708957
 22
410.3954077456782
 32
0.0
 13
456.4422008708957
 23
410.3954077456782
 33
0.0
  0
SOLID
  5
1AB1
  8
WAKU
  6
CONTINUOUS
 10
455.93716787089568
 20
410.61997774567777
 30
0.0
 11
455.4286838708955
 21
410.53263874567813
 31
0.0
 12
456.4422008708957
 22
410.3954077456782
 32
0.0
 13
456.4422008708957
 23
410.3954077456782
 33
0.0
  0
SOLID
  5
1AB2
  8
WAKU
  6
CONTINUOUS
 10
455.4286838708955
 20
410.53263874567813
 30
0.0
 11
454.80615387089563
 21
410.32675174567822
 31
0.0
 12
456.4422008708957
 22
410.3954077456782
 32
0.0
 13
456.4422008708957
 23
410.3954077456782
 33
0.0
  0
SOLID
  5
1AB3
  8
WAKU
  6
CONTINUOUS
 10
456.4422008708957
 20
410.3954077456782
 30
0.0
 11
454.80615387089563
 21
410.32675174567822
 31
0.0
 12
455.96523087089508
 22
410.22317974567801
 32
0.0
 13
455.96523087089508
 23
410.22317974567801
 33
0.0
  0
SOLID
  5
1AB4
  8
WAKU
  6
CONTINUOUS
 10
454.80615387089563
 20
410.32675174567822
 30
0.0
 11
455.08441887089589
 21
410.18857374567801
 31
0.0
 12
455.96523087089508
 22
410.22317974567801
 32
0.0
 13
455.96523087089508
 23
410.22317974567801
 33
0.0
  0
SOLID
  5
1AB5
  8
WAKU
  6
CONTINUOUS
 10
455.96523087089508
 20
410.22317974567801
 30
0.0
 11
455.08441887089589
 21
410.18857374567801
 31
0.0
 12
455.5309498708956
 22
410.14725874567807
 32
0.0
 13
455.5309498708956
 23
410.14725874567807
 33
0.0
  0
SOLID
  5
1AB6
  8
WAKU
  6
CONTINUOUS
 10
456.15706687089562
 20
409.99564574567802
 30
0.0
 11
455.84994987089573
 21
409.99028074567832
 31
0.0
 12
457.03022087089562
 22
409.86255574567809
 32
0.0
 13
457.03022087089562
 23
409.86255574567809
 33
0.0
  0
SOLID
  5
1AB7
  8
WAKU
  6
CONTINUOUS
 10
455.84994987089573
 20
409.99028074567832
 30
0.0
 11
455.2225968708957
 21
409.91030874567792
 31
0.0
 12
457.03022087089562
 22
409.86255574567809
 32
0.0
 13
457.03022087089562
 23
409.86255574567809
 33
0.0
  0
SOLID
  5
1AB8
  8
WAKU
  6
CONTINUOUS
 10
455.2225968708957
 20
409.91030874567792
 30
0.0
 11
455.44908187089561
 21
409.7154467456777
 31
0.0
 12
457.03022087089562
 22
409.86255574567809
 32
0.0
 13
457.03022087089562
 23
409.86255574567809
 33
0.0
  0
SOLID
  5
1AB9
  8
WAKU
  6
CONTINUOUS
 10
457.03022087089562
 20
409.86255574567809
 30
0.0
 11
455.44908187089561
 21
409.7154467456777
 31
0.0
 12
456.5609148708956
 22
409.68607374567802
 32
0.0
 13
456.5609148708956
 23
409.68607374567802
 33
0.0
  0
SOLID
  5
1ABA
  8
WAKU
  6
CONTINUOUS
 10
455.44908187089561
 20
409.7154467456777
 30
0.0
 11
455.75555487089559
 21
409.61114374567819
 31
0.0
 12
456.5609148708956
 22
409.68607374567802
 32
0.0
 13
456.5609148708956
 23
409.68607374567802
 33
0.0
  0
SOLID
  5
1ABB
  8
WAKU
  6
CONTINUOUS
 10
456.5609148708956
 20
409.68607374567802
 30
0.0
 11
455.75555487089559
 21
409.61114374567819
 31
0.0
 12
456.13075987089508
 22
409.60123174567792
 32
0.0
 13
456.13075987089508
 23
409.60123174567792
 33
0.0
  0
LINE
  5
1ABC
  8
WAKU
  6
CONTINUOUS
 10
455.5309498708956
 20
410.1472587456775
 30
0.0
 11
455.96523087089503
 21
410.22317974567801
 31
0.0
  0
LINE
  5
1ABD
  8
WAKU
  6
CONTINUOUS
 10
455.75555487089508
 20
409.61114374567819
 30
0.0
 11
456.13075987089508
 21
409.60123174567792
 31
0.0
  0
LINE
  5
1ABE
  8
WAKU
  6
CONTINUOUS
 10
455.93716787089483
 20
410.61997774567777
 30
0.0
 11
456.5680358708953
 21
410.8911147456771
 31
0.0
  0
LINE
  5
1ABF
  8
WAKU
  6
CONTINUOUS
 10
455.8499498708951
 20
409.99028074567741
 30
0.0
 11
456.15706687089562
 21
409.99564574567768
 31
0.0
  0
LINE
  5
1AC0
  8
WAKU
  6
CONTINUOUS
 10
456.22766887089512
 20
412.34925374567808
 30
0.0
 11
455.7864848708947
 21
411.67165774567752
 31
0.0
  0
LINE
  5
1AC1
  8
WAKU
  6
CONTINUOUS
 10
456.30249287089561
 20
413.04595674567759
 30
0.0
 11
455.89444387089537
 21
412.55378274567778
 31
0.0
  0
SOLID
  5
1AC2
  8
WAKU
  6
CONTINUOUS
 10
456.20637187089562
 20
414.05026274567751
 30
0.0
 11
455.75756787089563
 21
413.60145974567752
 31
0.0
 12
456.25187087089569
 22
413.55589074567808
 32
0.0
 13
456.25187087089569
 23
413.55589074567808
 33
0.0
  0
LINE
  5
1AC3
  8
WAKU
  6
CONTINUOUS
 10
456.20637187089523
 20
414.05026274567729
 30
0.0
 11
455.75756787089563
 21
413.60145974567752
 31
0.0
  0
LINE
  5
1AC4
  8
WAKU
  6
CONTINUOUS
 10
455.75756787089563
 20
413.60145974567752
 30
0.0
 11
455.35722187089539
 21
413.1206837456777
 31
0.0
  0
SOLID
  5
1AC5
  8
WAKU
  6
CONTINUOUS
 10
455.35722187089539
 20
413.12068374567798
 30
0.0
 11
455.02003787089512
 21
412.62559474567809
 31
0.0
 12
455.46280787089557
 22
412.59735274567771
 32
0.0
 13
455.46280787089557
 23
412.59735274567771
 33
0.0
  0
SOLID
  5
1AC6
  8
WAKU
  6
CONTINUOUS
 10
455.02003787089512
 20
412.62559474567809
 30
0.0
 11
454.75839987089557
 21
412.13437574567752
 31
0.0
 12
455.46280787089557
 22
412.59735274567771
 32
0.0
 13
455.46280787089557
 23
412.59735274567771
 33
0.0
  0
SOLID
  5
1AC7
  8
WAKU
  6
CONTINUOUS
 10
455.46280787089557
 20
412.59735274567771
 30
0.0
 11
454.75839987089557
 21
412.13437574567752
 31
0.0
 12
455.17929187089572
 22
412.1118107456781
 32
0.0
 13
455.17929187089572
 23
412.1118107456781
 33
0.0
  0
SOLID
  5
1AC8
  8
WAKU
  6
CONTINUOUS
 10
455.5529288708957
 20
412.0472917456778
 30
0.0
 11
455.29106587089558
 21
411.54593674567798
 31
0.0
 12
455.78648487089561
 22
411.67165774567809
 32
0.0
 13
455.78648487089561
 23
411.67165774567809
 33
0.0
  0
SOLID
  5
1AC9
  8
WAKU
  6
CONTINUOUS
 10
455.78648487089561
 20
411.67165774567809
 30
0.0
 11
455.29106587089558
 21
411.54593674567798
 31
0.0
 12
455.51594087089558
 22
411.04075174567799
 32
0.0
 13
455.51594087089558
 23
411.04075174567799
 33
0.0
  0
SOLID
  5
1ACA
  8
WAKU
  6
CONTINUOUS
 10
455.29106587089558
 20
411.54593674567798
 30
0.0
 11
455.1189118708956
 21
411.06897174567769
 31
0.0
 12
455.51594087089558
 22
411.04075174567799
 32
0.0
 13
455.51594087089558
 23
411.04075174567799
 33
0.0
  0
SOLID
  5
1ACB
  8
WAKU
  6
CONTINUOUS
 10
455.1189118708956
 20
411.06897174567769
 30
0.0
 11
455.04307787089562
 21
410.63471774567802
 31
0.0
 12
455.51594087089558
 22
411.04075174567799
 32
0.0
 13
455.51594087089558
 23
411.04075174567799
 33
0.0
  0
SOLID
  5
1ACC
  8
WAKU
  6
CONTINUOUS
 10
455.51594087089558
 20
411.04075174567799
 30
0.0
 11
455.04307787089562
 21
410.63471774567802
 31
0.0
 12
455.4286838708955
 22
410.53263874567813
 32
0.0
 13
455.4286838708955
 23
410.53263874567813
 33
0.0
  0
SOLID
  5
1ACD
  8
WAKU
  6
CONTINUOUS
 10
455.08441887089589
 20
410.18857374567801
 30
0.0
 11
455.2225968708957
 21
409.91030874567792
 31
0.0
 12
455.5309498708956
 22
410.14725874567807
 32
0.0
 13
455.5309498708956
 23
410.14725874567807
 33
0.0
  0
SOLID
  5
1ACE
  8
WAKU
  6
CONTINUOUS
 10
455.5309498708956
 20
410.14725874567807
 30
0.0
 11
455.2225968708957
 21
409.91030874567792
 31
0.0
 12
455.6486998708956
 22
410.04935074567823
 32
0.0
 13
455.6486998708956
 23
410.04935074567823
 33
0.0
  0
SOLID
  5
1ACF
  8
WAKU
  6
CONTINUOUS
 10
455.6486998708956
 20
410.04935074567823
 30
0.0
 11
455.2225968708957
 21
409.91030874567792
 31
0.0
 12
455.84994987089573
 22
409.99028074567832
 32
0.0
 13
455.84994987089573
 23
409.99028074567832
 33
0.0
  0
LINE
  5
1AD0
  8
WAKU
  6
CONTINUOUS
 10
455.55292887089479
 20
412.0472917456778
 30
0.0
 11
455.29106587089518
 21
411.54593674567769
 31
0.0
  0
LINE
  5
1AD1
  8
WAKU
  6
CONTINUOUS
 10
454.98726287089562
 20
411.65680374567768
 30
0.0
 11
454.89146887089561
 21
411.26118674567761
 31
0.0
  0
LINE
  5
1AD2
  8
WAKU
  6
CONTINUOUS
 10
455.7864848708947
 20
411.67165774567752
 30
0.0
 11
455.51594087089558
 21
411.0407517456772
 31
0.0
  0
LINE
  5
1AD3
  8
WAKU
  6
CONTINUOUS
 10
455.51594087089558
 20
411.0407517456772
 30
0.0
 11
455.4286838708951
 21
410.53263874567801
 31
0.0
  0
LINE
  5
1AD4
  8
WAKU
  6
CONTINUOUS
 10
454.80615387089563
 20
410.32675174567822
 30
0.0
 11
455.08441887089509
 21
410.18857374567727
 31
0.0
  0
LINE
  5
1AD5
  8
WAKU
  6
CONTINUOUS
 10
455.08441887089509
 20
410.18857374567727
 30
0.0
 11
455.2225968708953
 21
409.91030874567792
 31
0.0
  0
LINE
  5
1AD6
  8
WAKU
  6
CONTINUOUS
 10
455.2225968708953
 20
409.91030874567792
 30
0.0
 11
455.44908187089538
 21
409.7154467456777
 31
0.0
  0
LINE
  5
1AD7
  8
WAKU
  6
CONTINUOUS
 10
455.44908187089538
 20
409.7154467456777
 30
0.0
 11
455.75555487089508
 21
409.61114374567819
 31
0.0
  0
LINE
  5
1AD8
  8
WAKU
  6
CONTINUOUS
 10
455.29106587089518
 20
411.54593674567769
 30
0.0
 11
455.1189118708956
 21
411.06897174567769
 31
0.0
  0
LINE
  5
1AD9
  8
WAKU
  6
CONTINUOUS
 10
455.1189118708956
 20
411.06897174567769
 30
0.0
 11
455.04307787089562
 21
410.63471774567751
 31
0.0
  0
LINE
  5
1ADA
  8
WAKU
  6
CONTINUOUS
 10
455.4286838708951
 20
410.53263874567801
 30
0.0
 11
455.93716787089483
 21
410.61997774567777
 31
0.0
  0
LINE
  5
1ADB
  8
WAKU
  6
CONTINUOUS
 10
454.89146887089561
 20
411.26118674567761
 30
0.0
 11
454.8861308708947
 21
410.9538697456772
 31
0.0
  0
LINE
  5
1ADC
  8
WAKU
  6
CONTINUOUS
 10
454.8861308708947
 20
410.9538697456772
 30
0.0
 11
454.94492787089558
 21
410.75321774567772
 31
0.0
  0
LINE
  5
1ADD
  8
WAKU
  6
CONTINUOUS
 10
454.94492787089558
 20
410.75321774567772
 30
0.0
 11
455.04307787089562
 21
410.63471774567751
 31
0.0
  0
LINE
  5
1ADE
  8
WAKU
  6
CONTINUOUS
 10
455.5309498708956
 20
410.1472587456775
 30
0.0
 11
455.6486998708956
 21
410.04935074567823
 31
0.0
  0
LINE
  5
1ADF
  8
WAKU
  6
CONTINUOUS
 10
455.6486998708956
 20
410.04935074567823
 30
0.0
 11
455.8499498708951
 21
409.99028074567741
 31
0.0
  0
LINE
  5
1AE0
  8
WAKU
  6
CONTINUOUS
 10
455.89444387089537
 20
412.55378274567778
 30
0.0
 11
455.55292887089479
 21
412.0472917456778
 31
0.0
  0
LINE
  5
1AE1
  8
WAKU
  6
CONTINUOUS
 10
455.46280787089472
 20
412.59735274567771
 30
0.0
 11
455.1792918708947
 21
412.1118107456781
 31
0.0
  0
LINE
  5
1AE2
  8
WAKU
  6
CONTINUOUS
 10
455.1792918708947
 20
412.1118107456781
 30
0.0
 11
454.98726287089562
 21
411.65680374567768
 31
0.0
  0
LINE
  5
1AE3
  8
WAKU
  6
CONTINUOUS
 10
455.02003787089478
 20
412.62559474567809
 30
0.0
 11
454.75839987089557
 21
412.13437574567752
 31
0.0
  0
LINE
  5
1AE4
  8
WAKU
  6
CONTINUOUS
 10
455.35722187089539
 20
413.1206837456777
 30
0.0
 11
455.02003787089478
 21
412.62559474567809
 31
0.0
  0
LINE
  5
1AE5
  8
WAKU
  6
CONTINUOUS
 10
454.5819188708947
 20
411.66506974567727
 30
0.0
 11
454.49707587089563
 21
411.234914745678
 31
0.0
  0
LINE
  5
1AE6
  8
WAKU
  6
CONTINUOUS
 10
454.49707587089563
 20
411.234914745678
 30
0.0
 11
454.50698787089539
 21
410.85971074567777
 31
0.0
  0
LINE
  5
1AE7
  8
WAKU
  6
CONTINUOUS
 10
454.50698787089539
 20
410.85971074567777
 30
0.0
 11
454.61129087089557
 21
410.55323674567768
 31
0.0
  0
SOLID
  5
1AE8
  8
WAKU
  6
CONTINUOUS
 10
454.75839987089557
 20
412.13437574567752
 30
0.0
 11
454.58191887089538
 21
411.66506974567812
 31
0.0
 12
455.17929187089572
 22
412.1118107456781
 32
0.0
 13
455.17929187089572
 23
412.1118107456781
 33
0.0
  0
SOLID
  5
1AE9
  8
WAKU
  6
CONTINUOUS
 10
455.17929187089572
 20
412.1118107456781
 30
0.0
 11
454.58191887089538
 21
411.66506974567812
 31
0.0
 12
454.98726287089562
 22
411.65680374567768
 32
0.0
 13
454.98726287089562
 23
411.65680374567768
 33
0.0
  0
SOLID
  5
1AEA
  8
WAKU
  6
CONTINUOUS
 10
454.58191887089538
 20
411.66506974567812
 30
0.0
 11
454.49707587089512
 21
411.234914745678
 31
0.0
 12
454.98726287089562
 22
411.65680374567768
 32
0.0
 13
454.98726287089562
 23
411.65680374567768
 33
0.0
  0
SOLID
  5
1AEB
  8
WAKU
  6
CONTINUOUS
 10
454.98726287089562
 20
411.65680374567768
 30
0.0
 11
454.49707587089512
 21
411.234914745678
 31
0.0
 12
454.89146887089561
 22
411.26118674567829
 32
0.0
 13
454.89146887089561
 23
411.26118674567829
 33
0.0
  0
SOLID
  5
1AEC
  8
WAKU
  6
CONTINUOUS
 10
454.89146887089561
 20
411.26118674567829
 30
0.0
 11
454.49707587089512
 21
411.234914745678
 31
0.0
 12
454.88613087089561
 22
410.95386974567799
 32
0.0
 13
454.88613087089561
 23
410.95386974567799
 33
0.0
  0
SOLID
  5
1AED
  8
WAKU
  6
CONTINUOUS
 10
454.49707587089512
 20
411.234914745678
 30
0.0
 11
454.50698787089561
 21
410.85971074567777
 31
0.0
 12
454.88613087089561
 22
410.95386974567799
 32
0.0
 13
454.88613087089561
 23
410.95386974567799
 33
0.0
  0
SOLID
  5
1AEE
  8
WAKU
  6
CONTINUOUS
 10
454.88613087089561
 20
410.95386974567799
 30
0.0
 11
454.50698787089561
 21
410.85971074567777
 31
0.0
 12
454.94492787089558
 22
410.75321774567772
 32
0.0
 13
454.94492787089558
 23
410.75321774567772
 33
0.0
  0
SOLID
  5
1AEF
  8
WAKU
  6
CONTINUOUS
 10
454.50698787089561
 20
410.85971074567777
 30
0.0
 11
454.61129087089557
 21
410.55323674567768
 31
0.0
 12
454.94492787089558
 22
410.75321774567772
 32
0.0
 13
454.94492787089558
 23
410.75321774567772
 33
0.0
  0
SOLID
  5
1AF0
  8
WAKU
  6
CONTINUOUS
 10
454.94492787089558
 20
410.75321774567772
 30
0.0
 11
454.61129087089557
 21
410.55323674567768
 31
0.0
 12
455.04307787089562
 22
410.63471774567802
 32
0.0
 13
455.04307787089562
 23
410.63471774567802
 33
0.0
  0
SOLID
  5
1AF1
  8
WAKU
  6
CONTINUOUS
 10
455.04307787089562
 20
410.63471774567802
 30
0.0
 11
454.61129087089557
 21
410.55323674567768
 31
0.0
 12
455.4286838708955
 22
410.53263874567813
 32
0.0
 13
455.4286838708955
 23
410.53263874567813
 33
0.0
  0
SOLID
  5
1AF2
  8
WAKU
  6
CONTINUOUS
 10
454.61129087089557
 20
410.55323674567768
 30
0.0
 11
454.80615387089563
 21
410.32675174567822
 31
0.0
 12
455.4286838708955
 22
410.53263874567813
 32
0.0
 13
455.4286838708955
 23
410.53263874567813
 33
0.0
  0
LINE
  5
1AF3
  8
WAKU
  6
CONTINUOUS
 10
454.61129087089557
 20
410.55323674567768
 30
0.0
 11
454.80615387089563
 21
410.32675174567822
 31
0.0
  0
LINE
  5
1AF4
  8
WAKU
  6
CONTINUOUS
 10
454.75839987089557
 20
412.13437574567752
 30
0.0
 11
454.5819188708947
 21
411.66506974567727
 31
0.0
  0
SOLID
  5
1AF5
  8
WAKU
  6
CONTINUOUS
 10
457.45795387089561
 20
413.57977374567821
 30
0.0
 11
456.76140487089538
 21
413.50491074567771
 31
0.0
 12
456.80159987089559
 22
413.00567574567771
 32
0.0
 13
456.80159987089559
 23
413.00567574567771
 33
0.0
  0
SOLID
  5
1AF6
  8
WAKU
  6
CONTINUOUS
 10
456.76140487089538
 20
413.50491074567771
 30
0.0
 11
456.30249287089578
 21
413.0459567456781
 31
0.0
 12
456.80159987089559
 22
413.00567574567771
 32
0.0
 13
456.80159987089559
 23
413.00567574567771
 33
0.0
  0
LINE
  5
1AF7
  8
WAKU
  6
CONTINUOUS
 10
456.76140487089469
 20
413.50491074567771
 30
0.0
 11
456.30249287089561
 21
413.04595674567759
 31
0.0
  0
LINE
  5
1AF8
  8
WAKU
  6
CONTINUOUS
 10
457.45795387089561
 20
413.57977374567758
 30
0.0
 11
456.80159987089559
 21
413.00567574567771
 31
0.0
  0
SOLID
  5
1AF9
  8
WAKU
  6
CONTINUOUS
 10
457.94213587089558
 20
411.40695374567758
 30
0.0
 11
457.24571287089589
 21
411.33221374567819
 31
0.0
 12
457.45000487089561
 22
410.99888174567798
 32
0.0
 13
457.45000487089561
 23
410.99888174567798
 33
0.0
  0
SOLID
  5
1AFA
  8
WAKU
  6
CONTINUOUS
 10
457.24571287089589
 20
411.33221374567819
 30
0.0
 11
456.56803587089581
 21
410.8911147456771
 31
0.0
 12
457.45000487089561
 22
410.99888174567798
 32
0.0
 13
457.45000487089561
 23
410.99888174567798
 33
0.0
  0
SOLID
  5
1AFB
  8
WAKU
  6
CONTINUOUS
 10
457.45000487089561
 20
410.99888174567798
 30
0.0
 11
456.56803587089581
 21
410.8911147456771
 31
0.0
 12
456.9435428708955
 22
410.65732774567817
 32
0.0
 13
456.9435428708955
 23
410.65732774567817
 33
0.0
  0
SOLID
  5
1AFC
  8
WAKU
  6
CONTINUOUS
 10
457.49326987089557
 20
410.56689974567769
 30
0.0
 11
457.00765487089518
 21
410.28358074567751
 31
0.0
 12
458.01652887089563
 22
410.46137774567819
 32
0.0
 13
458.01652887089563
 23
410.46137774567819
 33
0.0
  0
SOLID
  5
1AFD
  8
WAKU
  6
CONTINUOUS
 10
458.01652887089563
 20
410.46137774567819
 30
0.0
 11
457.00765487089518
 21
410.28358074567751
 31
0.0
 12
457.52143887089562
 22
410.1241937456781
 32
0.0
 13
457.52143887089562
 23
410.1241937456781
 33
0.0
  0
SOLID
  5
1AFE
  8
WAKU
  6
CONTINUOUS
 10
457.00765487089518
 20
410.28358074567751
 30
0.0
 11
456.55275687089471
 21
410.09115074567819
 31
0.0
 12
457.52143887089562
 22
410.1241937456781
 32
0.0
 13
457.52143887089562
 23
410.1241937456781
 33
0.0
  0
SOLID
  5
1AFF
  8
WAKU
  6
CONTINUOUS
 10
457.52143887089562
 20
410.1241937456781
 30
0.0
 11
456.55275687089471
 21
410.09115074567819
 31
0.0
 12
457.03022087089562
 22
409.86255574567809
 32
0.0
 13
457.03022087089562
 23
409.86255574567809
 33
0.0
  0
LINE
  5
1B00
  8
WAKU
  6
CONTINUOUS
 10
457.24571287089481
 20
411.33221374567728
 30
0.0
 11
457.90206887089562
 21
411.90628874567761
 31
0.0
  0
LINE
  5
1B01
  8
WAKU
  6
CONTINUOUS
 10
456.9435428708947
 20
410.65732774567772
 30
0.0
 11
457.45000487089561
 21
410.99888174567792
 31
0.0
  0
LINE
  5
1B02
  8
WAKU
  6
CONTINUOUS
 10
457.03022087089471
 20
409.86255574567758
 30
0.0
 11
457.52143887089522
 21
410.1241937456777
 31
0.0
  0
LINE
  5
1B03
  8
WAKU
  6
CONTINUOUS
 10
457.00765487089518
 20
410.28358074567751
 30
0.0
 11
457.49326987089512
 21
410.56689974567769
 31
0.0
  0
SOLID
  5
1B04
  8
WAKU
  6
CONTINUOUS
 10
456.55275687089471
 20
410.09115074567819
 30
0.0
 11
456.15706687089562
 21
409.99564574567802
 31
0.0
 12
457.03022087089562
 22
409.86255574567809
 32
0.0
 13
457.03022087089562
 23
409.86255574567809
 33
0.0
  0
LINE
  5
1B05
  8
WAKU
  6
CONTINUOUS
 10
456.15706687089562
 20
409.99564574567768
 30
0.0
 11
456.55275687089562
 21
410.09115074567768
 31
0.0
  0
LINE
  5
1B06
  8
WAKU
  6
CONTINUOUS
 10
455.96523087089503
 20
410.22317974567801
 30
0.0
 11
456.4422008708944
 21
410.3954077456782
 31
0.0
  0
LINE
  5
1B07
  8
WAKU
  6
CONTINUOUS
 10
456.4422008708944
 20
410.3954077456782
 30
0.0
 11
456.9435428708947
 21
410.65732774567772
 31
0.0
  0
LINE
  5
1B08
  8
WAKU
  6
CONTINUOUS
 10
456.5609148708956
 20
409.68607374567802
 30
0.0
 11
457.03022087089471
 21
409.86255574567758
 31
0.0
  0
LINE
  5
1B09
  8
WAKU
  6
CONTINUOUS
 10
456.5680358708953
 20
410.8911147456771
 30
0.0
 11
457.24571287089481
 21
411.33221374567728
 31
0.0
  0
LINE
  5
1B0A
  8
WAKU
  6
CONTINUOUS
 10
456.55275687089562
 20
410.09115074567768
 30
0.0
 11
457.00765487089518
 21
410.28358074567751
 31
0.0
  0
LINE
  5
1B0B
  8
WAKU
  6
CONTINUOUS
 10
456.13075987089508
 20
409.60123174567792
 30
0.0
 11
456.5609148708956
 21
409.68607374567802
 31
0.0
  0
LINE
  5
1B0C
  8
WAKU
  6
CONTINUOUS
 10
456.80159987089559
 20
413.00567574567771
 30
0.0
 11
456.22766887089512
 21
412.34925374567808
 31
0.0
  0
LINE
  5
1B0D
  8
WAKU
  6
CONTINUOUS
 10
457.52143887089522
 20
410.1241937456777
 30
0.0
 11
458.01652887089563
 21
410.46137774567751
 31
0.0
  0
LINE
  5
1B0E
  8
WAKU
  6
CONTINUOUS
 10
457.45000487089561
 20
410.99888174567792
 30
0.0
 11
457.9421358708953
 21
411.40695374567758
 31
0.0
  0
SOLID
  5
1B0F
  8
WAKU
  6
CONTINUOUS
 10
458.15091287089592
 20
414.82084774567818
 30
0.0
 11
457.18223687089562
 21
414.78779274567802
 31
0.0
 12
457.69600787089507
 22
414.6283677456783
 32
0.0
 13
457.69600787089507
 23
414.6283677456783
 33
0.0
  0
SOLID
  5
1B10
  8
WAKU
  6
CONTINUOUS
 10
457.18223687089562
 20
414.78779274567802
 30
0.0
 11
456.68714687089539
 21
414.4506087456781
 31
0.0
 12
457.69600787089507
 22
414.6283677456783
 32
0.0
 13
457.69600787089507
 23
414.6283677456783
 33
0.0
  0
SOLID
  5
1B11
  8
WAKU
  6
CONTINUOUS
 10
457.69600787089507
 20
414.6283677456783
 30
0.0
 11
456.68714687089539
 21
414.4506087456781
 31
0.0
 12
457.21035987089562
 22
414.34506674567808
 32
0.0
 13
457.21035987089562
 23
414.34506674567808
 33
0.0
  0
SOLID
  5
1B12
  8
WAKU
  6
CONTINUOUS
 10
457.76004187089558
 20
414.25460374567729
 30
0.0
 11
457.25355587089558
 21
413.91301774567802
 31
0.0
 12
458.13565087089569
 22
414.02083974567768
 32
0.0
 13
458.13565087089569
 23
414.02083974567768
 33
0.0
  0
LINE
  5
1B13
  8
WAKU
  6
CONTINUOUS
 10
457.69600787089507
 20
414.62836774567711
 30
0.0
 11
457.21035987089562
 21
414.34506674567729
 31
0.0
  0
LINE
  5
1B14
  8
WAKU
  6
CONTINUOUS
 10
457.76004187089518
 20
414.25460374567729
 30
0.0
 11
457.25355587089558
 21
413.91301774567768
 31
0.0
  0
LINE
  5
1B15
  8
WAKU
  6
CONTINUOUS
 10
457.67345587089471
 20
415.0494307456778
 30
0.0
 11
457.18223687089471
 21
414.78779274567802
 31
0.0
  0
SOLID
  5
1B16
  8
WAKU
  6
CONTINUOUS
 10
458.13565087089569
 20
414.02083974567768
 30
0.0
 11
457.25355587089558
 21
413.91301774567802
 31
0.0
 12
457.45795387089561
 22
413.57977374567821
 32
0.0
 13
457.45795387089561
 23
413.57977374567821
 33
0.0
  0
SOLID
  5
1B17
  8
WAKU
  6
CONTINUOUS
 10
457.25355587089558
 20
413.91301774567802
 30
0.0
 11
456.76140487089538
 21
413.50491074567771
 31
0.0
 12
457.45795387089561
 22
413.57977374567821
 32
0.0
 13
457.45795387089561
 23
413.57977374567821
 33
0.0
  0
SOLID
  5
1B18
  8
WAKU
  6
CONTINUOUS
 10
456.68714687089539
 20
414.4506087456781
 30
0.0
 11
456.20637187089562
 21
414.05026274567751
 31
0.0
 12
457.21035987089562
 22
414.34506674567808
 32
0.0
 13
457.21035987089562
 23
414.34506674567808
 33
0.0
  0
LINE
  5
1B19
  8
WAKU
  6
CONTINUOUS
 10
456.68714687089539
 20
414.4506087456781
 30
0.0
 11
456.20637187089523
 21
414.05026274567729
 31
0.0
  0
LINE
  5
1B1A
  8
WAKU
  6
CONTINUOUS
 10
457.18223687089471
 20
414.78779274567802
 30
0.0
 11
456.68714687089539
 21
414.4506087456781
 31
0.0
  0
SOLID
  5
1B1B
  8
WAKU
  6
CONTINUOUS
 10
457.21035987089562
 20
414.34506674567808
 30
0.0
 11
456.20637187089562
 21
414.05026274567751
 31
0.0
 12
456.25187087089569
 22
413.55589074567808
 32
0.0
 13
456.25187087089569
 23
413.55589074567808
 33
0.0
  0
LINE
  5
1B1C
  8
WAKU
  6
CONTINUOUS
 10
457.25355587089558
 20
413.91301774567768
 30
0.0
 11
456.76140487089469
 21
413.50491074567771
 31
0.0
  0
LINE
  5
1B1D
  8
WAKU
  6
CONTINUOUS
 10
457.21035987089562
 20
414.34506674567729
 30
0.0
 11
456.25187087089512
 21
413.55589074567729
 31
0.0
  0
LINE
  5
1B1E
  8
WAKU
  6
CONTINUOUS
 10
458.15091287089592
 20
414.82084774567818
 30
0.0
 11
457.69600787089507
 21
414.62836774567711
 31
0.0
  0
LINE
  5
1B1F
  8
WAKU
  6
CONTINUOUS
 10
458.14276087089462
 20
415.22591174567771
 30
0.0
 11
457.67345587089471
 21
415.0494307456778
 31
0.0
  0
LINE
  5
1B20
  8
WAKU
  6
CONTINUOUS
 10
458.13565087089512
 20
414.02083974567768
 30
0.0
 11
457.45795387089561
 21
413.57977374567758
 31
0.0
  0
SOLID
  5
1B21
  8
WAKU
  6
CONTINUOUS
 10
457.90206887089562
 20
411.90628874567801
 30
0.0
 11
457.24571287089589
 21
411.33221374567819
 31
0.0
 12
458.40103887089572
 22
411.86587174567808
 32
0.0
 13
458.40103887089572
 23
411.86587174567808
 33
0.0
  0
SOLID
  5
1B22
  8
WAKU
  6
CONTINUOUS
 10
458.40103887089572
 20
411.86587174567808
 30
0.0
 11
457.24571287089589
 21
411.33221374567819
 31
0.0
 12
457.94213587089558
 22
411.40695374567758
 32
0.0
 13
457.94213587089558
 23
411.40695374567758
 33
0.0
  0
SOLID
  5
1B23
  8
WAKU
  6
CONTINUOUS
 10
458.47601087089561
 20
412.56270274567771
 30
0.0
 11
457.90206887089562
 21
411.90628874567801
 31
0.0
 12
458.80908887089561
 22
412.35801174567769
 32
0.0
 13
458.80908887089561
 23
412.35801174567769
 33
0.0
  0
SOLID
  5
1B24
  8
WAKU
  6
CONTINUOUS
 10
458.80908887089561
 20
412.35801174567769
 30
0.0
 11
457.90206887089562
 21
411.90628874567801
 31
0.0
 12
458.40103887089572
 22
411.86587174567808
 32
0.0
 13
458.40103887089572
 23
411.86587174567808
 33
0.0
  0
SOLID
  5
1B25
  8
WAKU
  6
CONTINUOUS
 10
458.49730487089562
 20
410.86172374567798
 30
0.0
 11
457.49326987089557
 21
410.56689974567769
 31
0.0
 12
458.01652887089563
 22
410.46137774567819
 32
0.0
 13
458.01652887089563
 23
410.46137774567819
 33
0.0
  0
LINE
  5
1B26
  8
WAKU
  6
CONTINUOUS
 10
457.9421358708953
 20
411.40695374567758
 30
0.0
 11
458.40103887089469
 21
411.86587174567728
 31
0.0
  0
LINE
  5
1B27
  8
WAKU
  6
CONTINUOUS
 10
457.49326987089512
 20
410.56689974567769
 30
0.0
 11
458.4517378708947
 21
411.35601474567773
 31
0.0
  0
LINE
  5
1B28
  8
WAKU
  6
CONTINUOUS
 10
458.01652887089563
 20
410.46137774567751
 30
0.0
 11
458.49730487089522
 21
410.8617237456773
 31
0.0
  0
LINE
  5
1B29
  8
WAKU
  6
CONTINUOUS
 10
457.90206887089562
 20
411.90628874567761
 30
0.0
 11
458.4760108708947
 21
412.56270274567771
 31
0.0
  0
SOLID
  5
1B2A
  8
WAKU
  6
CONTINUOUS
 10
457.67345587089562
 20
415.0494307456778
 30
0.0
 11
457.18223687089562
 21
414.78779274567802
 31
0.0
 12
458.54662987089472
 22
414.9163637456781
 32
0.0
 13
458.54662987089472
 23
414.9163637456781
 33
0.0
  0
SOLID
  5
1B2B
  8
WAKU
  6
CONTINUOUS
 10
458.54662987089472
 20
414.9163637456781
 30
0.0
 11
457.18223687089562
 21
414.78779274567802
 31
0.0
 12
458.15091287089592
 22
414.82084774567818
 32
0.0
 13
458.15091287089592
 23
414.82084774567818
 33
0.0
  0
SOLID
  5
1B2C
  8
WAKU
  6
CONTINUOUS
 10
457.67345587089562
 20
415.0494307456778
 30
0.0
 11
458.54662987089472
 21
414.9163637456781
 31
0.0
 12
458.85376887089592
 22
414.92168474567819
 32
0.0
 13
458.85376887089592
 23
414.92168474567819
 33
0.0
  0
SOLID
  5
1B2D
  8
WAKU
  6
CONTINUOUS
 10
458.76651087089539
 20
414.2920227456782
 30
0.0
 11
457.76004187089558
 21
414.25460374567729
 31
0.0
 12
458.13565087089569
 22
414.02083974567768
 32
0.0
 13
458.13565087089569
 23
414.02083974567768
 33
0.0
  0
LINE
  5
1B2E
  8
WAKU
  6
CONTINUOUS
 10
458.76651087089539
 20
414.2920227456778
 30
0.0
 11
458.13565087089512
 21
414.02083974567768
 31
0.0
  0
LINE
  5
1B2F
  8
WAKU
  6
CONTINUOUS
 10
458.54662987089472
 20
414.91636374567759
 30
0.0
 11
458.15091287089592
 21
414.82084774567818
 31
0.0
  0
LINE
  5
1B30
  8
WAKU
  6
CONTINUOUS
 10
458.57291587089509
 20
415.3107547456778
 30
0.0
 11
458.14276087089462
 21
415.22591174567771
 31
0.0
  0
LINE
  5
1B31
  8
WAKU
  6
CONTINUOUS
 10
458.26141187089507
 20
414.51655074567719
 30
0.0
 11
457.76004187089518
 21
414.25460374567729
 31
0.0
  0
SOLID
  5
1B32
  8
WAKU
  6
CONTINUOUS
 10
458.45173787089561
 20
411.35601474567773
 30
0.0
 11
457.49326987089557
 21
410.56689974567769
 31
0.0
 12
458.94610787089562
 22
411.3105267456782
 32
0.0
 13
458.94610787089562
 23
411.3105267456782
 33
0.0
  0
SOLID
  5
1B33
  8
WAKU
  6
CONTINUOUS
 10
458.94610787089562
 20
411.3105267456782
 30
0.0
 11
457.49326987089557
 21
410.56689974567769
 31
0.0
 12
458.49730487089562
 22
410.86172374567798
 32
0.0
 13
458.49730487089562
 23
410.86172374567798
 33
0.0
  0
SOLID
  5
1B34
  8
WAKU
  6
CONTINUOUS
 10
458.57291587089588
 20
415.3107547456782
 30
0.0
 11
458.14276087089559
 21
415.22591174567799
 31
0.0
 12
458.94812087089508
 22
415.30084274567798
 32
0.0
 13
458.94812087089508
 23
415.30084274567798
 33
0.0
  0
SOLID
  5
1B35
  8
WAKU
  6
CONTINUOUS
 10
458.94812087089508
 20
415.30084274567798
 30
0.0
 11
458.14276087089559
 21
415.22591174567799
 31
0.0
 12
459.25459387089558
 22
415.19653974567802
 32
0.0
 13
459.25459387089558
 23
415.19653974567802
 33
0.0
  0
SOLID
  5
1B36
  8
WAKU
  6
CONTINUOUS
 10
458.14276087089559
 20
415.22591174567799
 30
0.0
 11
457.67345587089562
 21
415.0494307456778
 31
0.0
 12
459.25459387089558
 22
415.19653974567802
 32
0.0
 13
459.25459387089558
 23
415.19653974567802
 33
0.0
  0
SOLID
  5
1B37
  8
WAKU
  6
CONTINUOUS
 10
458.26141187089547
 20
414.5165507456777
 30
0.0
 11
457.76004187089558
 21
414.25460374567729
 31
0.0
 12
459.27500187089561
 22
414.37935174567758
 32
0.0
 13
459.27500187089561
 23
414.37935174567758
 33
0.0
  0
SOLID
  5
1B38
  8
WAKU
  6
CONTINUOUS
 10
459.27500187089561
 20
414.37935174567758
 30
0.0
 11
457.76004187089558
 21
414.25460374567729
 31
0.0
 12
458.76651087089539
 22
414.2920227456782
 32
0.0
 13
458.76651087089539
 23
414.2920227456782
 33
0.0
  0
SOLID
  5
1B39
  8
WAKU
  6
CONTINUOUS
 10
459.25459387089558
 20
415.19653974567802
 30
0.0
 11
457.67345587089562
 21
415.0494307456778
 31
0.0
 12
459.48107887089571
 22
415.00167774567819
 32
0.0
 13
459.48107887089571
 23
415.00167774567819
 33
0.0
  0
SOLID
  5
1B3A
  8
WAKU
  6
CONTINUOUS
 10
457.67345587089562
 20
415.0494307456778
 30
0.0
 11
458.85376887089592
 21
414.92168474567819
 31
0.0
 12
459.48107887089571
 22
415.00167774567819
 32
0.0
 13
459.48107887089571
 23
415.00167774567819
 33
0.0
  0
SOLID
  5
1B3B
  8
WAKU
  6
CONTINUOUS
 10
465.56708587089571
 20
414.857705745678
 30
0.0
 11
462.41097787089558
 21
412.27309074567802
 31
0.0
 12
465.74943987089569
 22
412.27309074567802
 32
0.0
 13
465.74943987089569
 23
412.27309074567802
 33
0.0
  0
LINE
  5
1B3C
  8
WAKU
  6
CONTINUOUS
 10
465.56708587089503
 20
414.85770574567772
 30
0.0
 11
462.41097787089518
 21
412.27309074567768
 31
0.0
  0
SOLID
  5
1B3D
  8
WAKU
  6
CONTINUOUS
 10
465.74943987089569
 20
412.27309074567802
 30
0.0
 11
462.41097787089558
 21
412.27309074567802
 31
0.0
 12
464.65291787089558
 22
412.219244745678
 32
0.0
 13
464.65291787089558
 23
412.219244745678
 33
0.0
  0
SOLID
  5
1B3E
  8
WAKU
  6
CONTINUOUS
 10
462.41097787089558
 20
412.27309074567802
 30
0.0
 11
461.4310578708953
 21
409.58078274567771
 31
0.0
 12
464.65291787089558
 22
412.219244745678
 32
0.0
 13
464.65291787089558
 23
412.219244745678
 33
0.0
  0
LINE
  5
1B3F
  8
WAKU
  6
CONTINUOUS
 10
464.65291787089512
 20
412.219244745678
 30
0.0
 11
461.4310578708953
 21
409.58078274567771
 31
0.0
  0
LINE
  5
1B40
  8
WAKU
  6
CONTINUOUS
 10
468.3233658708956
 20
409.58078274567771
 30
0.0
 11
473.70798087089503
 21
409.58078274567771
 31
0.0
  0
SOLID
  5
1B41
  8
WAKU
  6
CONTINUOUS
 10
470.87115787089562
 20
416.5807827456776
 30
0.0
 11
470.2440088708953
 21
414.857705745678
 31
0.0
 12
475.62862387089592
 22
414.857705745678
 32
0.0
 13
475.62862387089592
 23
414.857705745678
 33
0.0
  0
SOLID
  5
1B42
  8
WAKU
  6
CONTINUOUS
 10
469.1073018708957
 20
411.73462874567758
 30
0.0
 11
468.3233658708956
 21
409.58078274567771
 31
0.0
 12
474.49191687089569
 22
411.73462874567758
 32
0.0
 13
474.49191687089569
 23
411.73462874567758
 33
0.0
  0
SOLID
  5
1B43
  8
WAKU
  6
CONTINUOUS
 10
474.49191687089569
 20
411.73462874567758
 30
0.0
 11
468.3233658708956
 21
409.58078274567771
 31
0.0
 12
473.70798087089508
 22
409.58078274567771
 32
0.0
 13
473.70798087089508
 23
409.58078274567771
 33
0.0
  0
LINE
  5
1B44
  8
WAKU
  6
CONTINUOUS
 10
469.10730187089513
 20
411.73462874567758
 30
0.0
 11
474.49191687089473
 21
411.73462874567758
 31
0.0
  0
LINE
  5
1B45
  8
WAKU
  6
CONTINUOUS
 10
470.2440088708953
 20
414.85770574567772
 30
0.0
 11
475.62862387089513
 21
414.85770574567772
 31
0.0
  0
SOLID
  5
1B46
  8
WAKU
  6
CONTINUOUS
 10
476.25577287089561
 20
416.5807827456776
 30
0.0
 11
470.87115787089562
 21
416.5807827456776
 31
0.0
 12
475.62862387089592
 22
414.857705745678
 32
0.0
 13
475.62862387089592
 23
414.857705745678
 33
0.0
  0
LINE
  5
1B47
  8
WAKU
  6
CONTINUOUS
 10
470.87115787089562
 20
416.5807827456776
 30
0.0
 11
476.2557728708951
 21
416.5807827456776
 31
0.0
  0
LINE
  5
1B48
  8
WAKU
  6
CONTINUOUS
 10
453.22704887089509
 20
416.5807827456776
 30
0.0
 11
453.22704887089509
 21
412.3030047456777
 31
0.0
  0
SOLID
  5
1B49
  8
WAKU
  6
CONTINUOUS
 10
457.50482587089562
 20
416.5807827456776
 30
0.0
 11
453.22704887089571
 21
416.5807827456776
 31
0.0
 12
453.22704887089571
 22
412.3030047456777
 32
0.0
 13
453.22704887089571
 23
412.3030047456777
 33
0.0
  0
LINE
  5
1B4A
  8
WAKU
  6
CONTINUOUS
 10
453.22704887089509
 20
412.3030047456777
 30
0.0
 11
457.50482587089562
 21
416.5807827456776
 31
0.0
  0
LINE
  5
1B4B
  8
WAKU
  6
CONTINUOUS
 10
453.22704887089509
 20
416.5807827456776
 30
0.0
 11
457.50482587089562
 21
416.5807827456776
 31
0.0
  0
LINE
  5
1B4C
  8
WAKU
  6
CONTINUOUS
 10
490.5384668708956
 20
412.9192447456777
 30
0.0
 11
493.76923587089539
 21
412.9192447456777
 31
0.0
  0
SOLID
  5
1B4D
  8
WAKU
  6
CONTINUOUS
 10
491.87115787089567
 20
416.5807827456776
 30
0.0
 11
491.24400887089558
 21
414.857705745678
 31
0.0
 12
494.47477787089508
 22
414.857705745678
 32
0.0
 13
494.47477787089508
 23
414.857705745678
 33
0.0
  0
SOLID
  5
1B4E
  8
WAKU
  6
CONTINUOUS
 10
494.23959687089558
 20
414.21155174567798
 30
0.0
 11
491.00882787089557
 21
414.21155174567798
 31
0.0
 12
493.76923587089561
 22
412.91924474567821
 32
0.0
 13
493.76923587089561
 23
412.91924474567821
 33
0.0
  0
SOLID
  5
1B4F
  8
WAKU
  6
CONTINUOUS
 10
494.70798087089508
 20
409.58078274567771
 30
0.0
 11
494.41499387089561
 21
411.73462874567758
 31
0.0
 12
490.10730187089558
 22
411.73462874567758
 32
0.0
 13
490.10730187089558
 23
411.73462874567758
 33
0.0
  0
SOLID
  5
1B50
  8
WAKU
  6
CONTINUOUS
 10
490.10730187089558
 20
411.73462874567758
 30
0.0
 11
489.3233658708956
 21
409.58078274567771
 31
0.0
 12
494.70798087089508
 22
409.58078274567771
 32
0.0
 13
494.70798087089508
 23
409.58078274567771
 33
0.0
  0
LINE
  5
1B51
  8
WAKU
  6
CONTINUOUS
 10
494.70798087089508
 20
409.58078274567771
 30
0.0
 11
489.3233658708956
 21
409.58078274567771
 31
0.0
  0
LINE
  5
1B52
  8
WAKU
  6
CONTINUOUS
 10
490.10730187089513
 20
411.73462874567758
 30
0.0
 11
494.41499387089561
 21
411.73462874567758
 31
0.0
  0
LINE
  5
1B53
  8
WAKU
  6
CONTINUOUS
 10
491.2440088708953
 20
414.85770574567772
 30
0.0
 11
494.47477787089508
 21
414.85770574567772
 31
0.0
  0
LINE
  5
1B54
  8
WAKU
  6
CONTINUOUS
 10
491.00882787089557
 20
414.2115517456777
 30
0.0
 11
494.2395968708953
 21
414.2115517456777
 31
0.0
  0
SOLID
  5
1B55
  8
WAKU
  6
CONTINUOUS
 10
494.47477787089508
 20
414.857705745678
 30
0.0
 11
495.10192687089562
 21
416.5807827456776
 31
0.0
 12
491.87115787089567
 22
416.5807827456776
 32
0.0
 13
491.87115787089567
 23
416.5807827456776
 33
0.0
  0
LINE
  5
1B56
  8
WAKU
  6
CONTINUOUS
 10
491.87115787089567
 20
416.5807827456776
 30
0.0
 11
495.10192687089511
 21
416.5807827456776
 31
0.0
  0
SOLID
  5
1B57
  8
WAKU
  6
CONTINUOUS
 10
491.00882787089557
 20
414.21155174567798
 30
0.0
 11
490.5384668708956
 21
412.91924474567821
 31
0.0
 12
493.76923587089561
 22
412.91924474567821
 32
0.0
 13
493.76923587089561
 23
412.91924474567821
 33
0.0
  0
LINE
  5
1B58
  8
WAKU
 10
506.8986388145608
 20
417.8041926488375
 30
0.0
 11
506.8986388145608
 21
28.29526935608077
 31
0.0
  0
TEXT
  5
1B59
  8
WAKU
 10
75.69258251726535
 20
411.41594787396718
 30
0.0
 40
5.0
  1
FIX窓断面詳細図
  7
MX_NOTE_STANDARD
 11
75.69258251726535
 21
413.9159478739673
 31
0.0
 73
     2
  0
TEXT
  5
1B5A
  8
WAKU
 10
36.524425493660559
 20
411.37675236086397
 30
0.0
 40
3.0
  1
Super70H
 41
0.8679999999999999
  7
MX_NOTE_STANDARD
 11
36.524425493660559
 21
412.87675236086397
 31
0.0
 73
     2
  0
LINE
  5
1B5B
  8
WAKU
 10
31.524425493660821
 20
417.87675236086369
 30
0.0
 11
31.524425493660821
 21
28.367829068107071
 31
0.0
  0
LINE
  5
1B5C
  8
WAKU
 10
31.524425493660821
 20
28.367829068107071
 30
0.0
 11
506.8986388145608
 21
28.29526935608077
 31
0.0
  0
LINE
  5
1B5D
  8
WAKU
 10
31.524425493660821
 20
407.87675236086397
 30
0.0
 11
506.8986388145608
 21
407.80419264883761
 31
0.0
  0
LINE
  5
1B5E
  8
WAKU
 10
31.524425493660821
 20
417.87675236086369
 30
0.0
 11
506.8986388145608
 21
417.8041926488375
 31
0.0
  0
ENDSEC
  0
EOF
