  0
SECTION
  2
HEADER
  9
$ACADVER
  1
AC1009
  9
$INSBASE
 10
0.0
 20
0.0
 30
0.0
  9
$EXTMIN
 10
-35.885909737145759
 20
-146.19880908802401
 30
0.0
  9
$EXTMAX
 10
415.0
 20
292.0
 30
0.0
  9
$LIMMIN
 10
-210.0
 20
-148.5
  9
$LIMMAX
 10
210.0
 20
148.5
  9
$ORTHOMODE
 70
     0
  9
$REGENMODE
 70
     1
  9
$FILLMODE
 70
     1
  9
$QTEXTMODE
 70
     0
  9
$MIRRTEXT
 70
     1
  9
$DRAGMODE
 70
     2
  9
$LTSCALE
 40
0.5
  9
$OSMODE
 70
    39
  9
$ATTMODE
 70
     1
  9
$TEXTSIZE
 40
2.5
  9
$TRACEWID
 40
0.05
  9
$TEXTSTYLE
  7
MX_NOTE_STANDARD
  9
$CLAYER
  8
0
  9
$CELTYPE
  6
CONTINUOUS
  9
$CECOLOR
 62
   256
  9
$DIMSCALE
 40
1.0
  9
$DIMASZ
 40
2.5
  9
$DIMEXO
 40
1.5
  9
$DIMDLI
 40
3.75
  9
$DIMRND
 40
0.0
  9
$DIMDLE
 40
0.0
  9
$DIMEXE
 40
0.0
  9
$DIMTP
 40
0.0
  9
$DIMTM
 40
0.0
  9
$DIMTXT
 40
2.5
  9
$DIMCEN
 40
2.5
  9
$DIMTSZ
 40
0.0
  9
$DIMTOL
 70
     0
  9
$DIMLIM
 70
     0
  9
$DIMTIH
 70
     0
  9
$DIMTOH
 70
     0
  9
$DIMSE1
 70
     0
  9
$DIMSE2
 70
     0
  9
$DIMTAD
 70
     1
  9
$DIMZIN
 70
     8
  9
$DIMBLK
  1

  9
$DIMASO
 70
     1
  9
$DIMSHO
 70
     1
  9
$DIMPOST
  1

  9
$DIMAPOST
  1

  9
$DIMALT
 70
     0
  9
$DIMALTD
 70
     4
  9
$DIMALTF
 40
0.0394
  9
$DIMLFAC
 40
1.0
  9
$DIMTOFL
 70
     1
  9
$DIMTVP
 40
0.0
  9
$DIMTIX
 70
     0
  9
$DIMSOXD
 70
     0
  9
$DIMSAH
 70
     0
  9
$DIMBLK1
  1

  9
$DIMBLK2
  1

  9
$DIMSTYLE
  2
MXDIMSTYLE
  9
$DIMCLRD
 70
     0
  9
$DIMCLRE
 70
     0
  9
$DIMCLRT
 70
     0
  9
$DIMTFAC
 40
1.0
  9
$DIMGAP
 40
1.0
  9
$LUNITS
 70
     2
  9
$LUPREC
 70
     4
  9
$SKETCHINC
 40
0.1
  9
$FILLETRAD
 40
0.0
  9
$AUNITS
 70
     0
  9
$AUPREC
 70
     0
  9
$MENU
  1
acad
  9
$ELEVATION
 40
0.0
  9
$PELEVATION
 40
0.0
  9
$THICKNESS
 40
0.0
  9
$LIMCHECK
 70
     0
  9
$BLIPMODE
 70
     0
  9
$CHAMFERA
 40
0.0
  9
$CHAMFERB
 40
0.0
  9
$SKPOLY
 70
     0
  9
$TDCREATE
 40
2452006.3716199999
  9
$TDUPDATE
 40
2456665.8357463419
  9
$TDINDWG
 40
0.0835507986
  9
$TDUSRTIMER
 40
0.083550081
  9
$USRTIMER
 70
     1
  9
$ANGBASE
 50
0.0
  9
$ANGDIR
 70
     0
  9
$PDMODE
 70
     3
  9
$PDSIZE
 40
-100.0
  9
$PLINEWID
 40
0.0
  9
$COORDS
 70
     1
  9
$SPLFRAME
 70
     0
  9
$SPLINETYPE
 70
     6
  9
$SPLINESEGS
 70
     8
  9
$ATTDIA
 70
     0
  9
$ATTREQ
 70
     1
  9
$HANDLING
 70
-16383
  9
$HANDSEED
  5
1344C
  9
$SURFTAB1
 70
     6
  9
$SURFTAB2
 70
     6
  9
$SURFTYPE
 70
     6
  9
$SURFU
 70
     6
  9
$SURFV
 70
     6
  9
$UCSNAME
  2

  9
$UCSORG
 10
0.0
 20
0.0
 30
0.0
  9
$UCSXDIR
 10
1.0
 20
0.0
 30
0.0
  9
$UCSYDIR
 10
0.0
 20
1.0
 30
0.0
  9
$PUCSNAME
  2

  9
$PUCSORG
 10
0.0
 20
0.0
 30
0.0
  9
$PUCSXDIR
 10
1.0
 20
0.0
 30
0.0
  9
$PUCSYDIR
 10
0.0
 20
1.0
 30
0.0
  9
$USERI1
 70
     0
  9
$USERI2
 70
     0
  9
$USERI3
 70
     0
  9
$USERI4
 70
     0
  9
$USERI5
 70
     0
  9
$USERR1
 40
0.0
  9
$USERR2
 40
0.0
  9
$USERR3
 40
0.0
  9
$USERR4
 40
0.0
  9
$USERR5
 40
0.0
  9
$WORLDVIEW
 70
     1
  9
$SHADEDGE
 70
     3
  9
$SHADEDIF
 70
    70
  9
$TILEMODE
 70
     1
  9
$MAXACTVP
 70
    16
  9
$PLIMCHECK
 70
     0
  9
$PEXTMIN
 10
1.0000000000000000E+020
 20
1.0000000000000000E+020
 30
1.0000000000000000E+020
  9
$PEXTMAX
 10
-1.0000000000000000E+020
 20
-1.0000000000000000E+020
 30
-1.0000000000000000E+020
  9
$PLIMMIN
 10
0.0
 20
0.0
  9
$PLIMMAX
 10
12.0
 20
9.0
  9
$UNITMODE
 70
     0
  9
$VISRETAIN
 70
     0
  9
$PLINEGEN
 70
     1
  9
$PSLTSCALE
 70
     0
  0
ENDSEC
  0
SECTION
  2
TABLES
  0
TABLE
  2
VPORT
 70
     2
  0
VPORT
  2
*ACTIVE
 70
     0
 10
0.0
 20
0.0
 11
1.0
 21
1.0
 12
262.03986057821982
 22
72.895678636444813
 13
0.0
 23
0.0
 14
1.0
 24
1.0
 15
0.0
 25
0.0
 16
0.0
 26
0.0
 36
1.0
 17
0.0
 27
0.0
 37
0.0
 40
441.07418453746482
 41
1.588794926004228
 42
50.0
 43
0.0
 44
0.0
 50
0.0
 51
0.0
 71
     0
 72
   100
 73
     1
 74
     0
 75
     0
 76
     0
 77
     0
 78
     0
  0
ENDTAB
  0
TABLE
  2
LTYPE
 70
     2
  0
LTYPE
  2
CONTINUOUS
 70
     0
  3
Solid line
 72
    65
 73
     0
 40
0.0
  0
LTYPE
  2
DASHED
 70
     0
  3
Dashed __ __ __ __ __ __ __ __ __ __ __ __ __ _
 72
    65
 73
     2
 40
19.050000000000001
 49
12.699999999999999
 49
-6.349999999999997
  0
ENDTAB
  0
TABLE
  2
LAYER
 70
     5
  0
LAYER
  2
0
 70
     0
 62
     7
  6
CONTINUOUS
  0
LAYER
  2
SUNPO
 70
     0
 62
     1
  6
CONTINUOUS
  0
LAYER
  2
DANMEN
 70
     0
 62
     7
  6
CONTINUOUS
  0
LAYER
  2
WAKU
 70
     0
 62
     3
  6
CONTINUOUS
  0
ENDTAB
  0
TABLE
  2
STYLE
 70
     5
  0
STYLE
  2
STANDARD
 70
     0
 40
0.0
 41
1.0
 50
0.0
 71
     0
 42
0.2
  3
txt.shx
  4
bigfont.shx
  0
STYLE
  2
MX_NOTE_STANDARD
 70
     0
 40
0.0
 41
1.0
 50
0.0
 71
     0
 42
2.5
  3
txt.shx
  4
extfont.shx
  0
STYLE
  2
MX_DIMTXSTY_2
 70
     0
 40
0.0
 41
1.1000000000000001
 50
0.0
 71
     0
 42
2.5
  3
txt.shx
  4
extfont.shx
  0
STYLE
  2
MX_DIMTXSTY_3
 70
     0
 40
0.0
 41
1.25
 50
0.0
 71
     0
 42
2.5
  3
txt.shx
  4
extfont.shx
  0
STYLE
  2
MX_DIMTXSTY_4
 70
     0
 40
0.0
 41
1.3
 50
0.0
 71
     0
 42
2.5
  3
txt.shx
  4
extfont.shx
  0
ENDTAB
  0
TABLE
  2
VIEW
 70
     0
  0
ENDTAB
  0
TABLE
  2
UCS
 70
     0
  0
ENDTAB
  0
TABLE
  2
APPID
 70
     1
  0
APPID
  2
ACAD
 70
     0
  0
ENDTAB
  0
TABLE
  2
DIMSTYLE
 70
     1
  0
DIMSTYLE
  2
MXDIMSTYLE
 70
     0
  3

  4

  5

  6

  7

 40
1.0
 41
2.5
 42
1.5
 43
3.75
 44
0.0
 45
0.0
 46
0.0
 47
0.0
 48
0.0
140
2.5
141
2.5
142
0.0
143
0.0394
144
1.0
145
0.0
146
1.0
147
1.0
 71
     0
 72
     0
 73
     0
 74
     0
 75
     0
 76
     0
 77
     1
 78
     8
170
     0
171
     4
172
     1
173
     0
174
     0
175
     0
176
     0
177
     0
178
     0
  0
ENDTAB
  0
ENDSEC
  0
SECTION
  2
BLOCKS
  0
BLOCK
  8
0
  2
$MODEL_SPACE
 70
     0
 10
0.0
 20
0.0
 30
0.0
  3
$MODEL_SPACE
  1

  0
ENDBLK
  5
12AED
  8
0
  0
BLOCK
 67
     1
  8
0
  2
$PAPER_SPACE
 70
     0
 10
0.0
 20
0.0
 30
0.0
  3
$PAPER_SPACE
  1

  0
ENDBLK
  5
12AE9
 67
     1
  8
0
  0
BLOCK
  8
0
  2
*U2
 70
     1
 10
0.0
 20
0.0
 30
0.0
  3
*U2
  1

  0
SOLID
  5
12B05
  8
WAKU
  6
CONTINUOUS
 10
371.30514199999988
 20
283.60529100000002
 30
0.0
 11
370.49978199999993
 21
283.53036100000003
 31
0.0
 12
370.87498699999992
 22
283.52044899999993
 32
0.0
 13
370.87498699999992
 23
283.52044899999993
 33
0.0
  0
SOLID
  5
12B06
  8
WAKU
  6
CONTINUOUS
 10
370.193309
 20
283.63466399999999
 30
0.0
 11
370.49978199999993
 21
283.53036100000003
 31
0.0
 12
371.30514199999988
 22
283.60529100000002
 32
0.0
 13
371.30514199999988
 23
283.60529100000002
 33
0.0
  0
SOLID
  5
12B07
  8
WAKU
  6
CONTINUOUS
 10
371.77444800000001
 20
283.78177299999987
 30
0.0
 11
370.193309
 21
283.63466399999999
 31
0.0
 12
371.30514199999988
 22
283.60529100000002
 32
0.0
 13
371.30514199999988
 23
283.60529100000002
 33
0.0
  0
SOLID
  5
12B08
  8
WAKU
  6
CONTINUOUS
 10
369.96682399999992
 20
283.82952599999982
 30
0.0
 11
370.193309
 21
283.63466399999999
 31
0.0
 12
371.77444800000001
 22
283.78177299999987
 32
0.0
 13
371.77444800000001
 23
283.78177299999987
 33
0.0
  0
SOLID
  5
12B09
  8
WAKU
  6
CONTINUOUS
 10
370.59417699999989
 20
283.90949799999999
 30
0.0
 11
369.96682399999992
 21
283.82952599999982
 31
0.0
 12
371.77444800000001
 22
283.78177299999987
 32
0.0
 13
371.77444800000001
 23
283.78177299999987
 33
0.0
  0
SOLID
  5
12B0A
  8
WAKU
  6
CONTINUOUS
 10
370.90129400000001
 20
283.91486300000003
 30
0.0
 11
370.59417699999989
 21
283.90949799999999
 31
0.0
 12
371.77444800000001
 22
283.78177299999987
 32
0.0
 13
371.77444800000001
 23
283.78177299999987
 33
0.0
  0
SOLID
  5
12B0B
  8
WAKU
  6
CONTINUOUS
 10
370.39292699999987
 20
283.968568
 30
0.0
 11
369.96682399999992
 21
283.82952599999982
 31
0.0
 12
370.59417699999989
 22
283.90949799999999
 32
0.0
 13
370.59417699999989
 23
283.90949799999999
 33
0.0
  0
SOLID
  5
12B0C
  8
WAKU
  6
CONTINUOUS
 10
371.29698399999972
 20
284.01036800000003
 30
0.0
 11
370.90129400000001
 21
283.91486300000003
 31
0.0
 12
371.77444800000001
 22
283.78177299999987
 32
0.0
 13
371.77444800000001
 23
283.78177299999987
 33
0.0
  0
SOLID
  5
12B0D
  8
WAKU
  6
CONTINUOUS
 10
372.26566600000001
 20
284.04341099999982
 30
0.0
 11
371.29698399999972
 21
284.01036800000003
 31
0.0
 12
371.77444800000001
 22
283.78177299999987
 32
0.0
 13
371.77444800000001
 23
283.78177299999987
 33
0.0
  0
SOLID
  5
12B0E
  8
WAKU
  6
CONTINUOUS
 10
370.27517699999993
 20
284.06647599999991
 30
0.0
 11
369.96682399999992
 21
283.82952599999982
 31
0.0
 12
370.39292699999987
 22
283.968568
 32
0.0
 13
370.39292699999987
 23
283.968568
 33
0.0
  0
SOLID
  5
12B0F
  8
WAKU
  6
CONTINUOUS
 10
369.82864599999988
 20
284.10779100000002
 30
0.0
 11
369.96682399999992
 21
283.82952599999982
 31
0.0
 12
370.27517699999993
 22
284.06647599999991
 32
0.0
 13
370.27517699999993
 23
284.06647599999991
 33
0.0
  0
SOLID
  5
12B10
  8
WAKU
  6
CONTINUOUS
 10
370.70945799999993
 20
284.14239700000002
 30
0.0
 11
369.82864599999988
 21
284.10779100000002
 31
0.0
 12
370.27517699999993
 22
284.06647599999991
 32
0.0
 13
370.27517699999993
 23
284.06647599999991
 33
0.0
  0
SOLID
  5
12B11
  8
WAKU
  6
CONTINUOUS
 10
371.75188199999991
 20
284.20279799999992
 30
0.0
 11
371.29698399999972
 21
284.01036800000003
 31
0.0
 12
372.26566600000001
 22
284.04341099999982
 32
0.0
 13
372.26566600000001
 23
284.04341099999982
 33
0.0
  0
SOLID
  5
12B12
  8
WAKU
  6
CONTINUOUS
 10
369.55038100000002
 20
284.245969
 30
0.0
 11
369.82864599999988
 21
284.10779100000002
 31
0.0
 12
370.70945799999993
 22
284.14239700000002
 32
0.0
 13
370.70945799999993
 23
284.14239700000002
 33
0.0
  0
SOLID
  5
12B13
  8
WAKU
  6
CONTINUOUS
 10
371.18642799999992
 20
284.31462499999992
 30
0.0
 11
369.55038100000002
 21
284.245969
 31
0.0
 12
370.70945799999993
 22
284.14239700000002
 32
0.0
 13
370.70945799999993
 23
284.14239700000002
 33
0.0
  0
SOLID
  5
12B14
  8
WAKU
  6
CONTINUOUS
 10
372.76075600000001
 20
284.38059500000008
 30
0.0
 11
371.75188199999991
 21
284.20279799999992
 31
0.0
 12
372.26566600000001
 22
284.04341099999982
 32
0.0
 13
372.26566600000001
 23
284.04341099999982
 33
0.0
  0
SOLID
  5
12B15
  8
WAKU
  6
CONTINUOUS
 10
370.172911
 20
284.45185600000002
 30
0.0
 11
369.55038100000002
 21
284.245969
 31
0.0
 12
371.18642799999992
 22
284.31462499999992
 32
0.0
 13
371.18642799999992
 23
284.31462499999992
 33
0.0
  0
SOLID
  5
12B16
  8
WAKU
  6
CONTINUOUS
 10
369.35551800000002
 20
284.47245400000008
 30
0.0
 11
369.55038100000002
 21
284.245969
 31
0.0
 12
370.172911
 22
284.45185600000002
 32
0.0
 13
370.172911
 23
284.45185600000002
 33
0.0
  0
SOLID
  5
12B17
  8
WAKU
  6
CONTINUOUS
 10
372.23749700000002
 20
284.48611699999992
 30
0.0
 11
371.75188199999991
 21
284.20279799999992
 31
0.0
 12
372.76075600000001
 22
284.38059500000008
 32
0.0
 13
372.76075600000001
 23
284.38059500000008
 33
0.0
  0
SOLID
  5
12B18
  8
WAKU
  6
CONTINUOUS
 10
370.68139500000001
 20
284.53919500000001
 30
0.0
 11
370.172911
 21
284.45185600000002
 31
0.0
 12
371.18642799999992
 22
284.31462499999992
 32
0.0
 13
371.18642799999992
 23
284.31462499999992
 33
0.0
  0
SOLID
  5
12B19
  8
WAKU
  6
CONTINUOUS
 10
369.787305
 20
284.55393500000002
 30
0.0
 11
369.35551800000002
 21
284.47245400000008
 31
0.0
 12
370.172911
 22
284.45185600000002
 32
0.0
 13
370.172911
 23
284.45185600000002
 33
0.0
  0
SOLID
  5
12B1A
  8
WAKU
  6
CONTINUOUS
 10
371.68776999999989
 20
284.57654500000001
 30
0.0
 11
370.68139500000001
 21
284.53919500000001
 31
0.0
 12
371.18642799999992
 22
284.31462499999992
 32
0.0
 13
371.18642799999992
 23
284.31462499999992
 33
0.0
  0
SOLID
  5
12B1B
  8
WAKU
  6
CONTINUOUS
 10
369.68915499999991
 20
284.67243500000001
 30
0.0
 11
369.35551800000002
 21
284.47245400000008
 31
0.0
 12
369.787305
 22
284.55393500000002
 32
0.0
 13
369.787305
 23
284.55393500000002
 33
0.0
  0
SOLID
  5
12B1C
  8
WAKU
  6
CONTINUOUS
 10
369.251215
 20
284.77892800000001
 30
0.0
 11
369.35551800000002
 21
284.47245400000008
 31
0.0
 12
369.68915499999991
 22
284.67243500000001
 32
0.0
 13
369.68915499999991
 23
284.67243500000001
 33
0.0
  0
SOLID
  5
12B1D
  8
WAKU
  6
CONTINUOUS
 10
373.24153200000001
 20
284.78094099999993
 30
0.0
 11
372.23749700000002
 21
284.48611699999992
 31
0.0
 12
372.76075600000001
 22
284.38059500000008
 32
0.0
 13
372.76075600000001
 23
284.38059500000008
 33
0.0
  0
SOLID
  5
12B1E
  8
WAKU
  6
CONTINUOUS
 10
371.31226299999992
 20
284.81033199999968
 30
0.0
 11
370.68139500000001
 21
284.53919500000001
 31
0.0
 12
371.68776999999989
 22
284.57654500000001
 32
0.0
 13
371.68776999999989
 23
284.57654500000001
 33
0.0
  0
SOLID
  5
12B1F
  8
WAKU
  6
CONTINUOUS
 10
369.63035799999989
 20
284.873087
 30
0.0
 11
369.251215
 21
284.77892800000001
 31
0.0
 12
369.68915499999991
 22
284.67243500000001
 32
0.0
 13
369.68915499999991
 23
284.67243500000001
 33
0.0
  0
SOLID
  5
12B20
  8
WAKU
  6
CONTINUOUS
 10
372.194232
 20
284.91809899999993
 30
0.0
 11
371.31226299999992
 21
284.81033199999968
 31
0.0
 12
371.68776999999989
 22
284.57654500000001
 32
0.0
 13
371.68776999999989
 23
284.57654500000001
 33
0.0
  0
SOLID
  5
12B21
  8
WAKU
  6
CONTINUOUS
 10
370.26016800000002
 20
284.959969
 30
0.0
 11
369.787305
 21
284.55393500000002
 31
0.0
 12
370.172911
 22
284.45185600000002
 32
0.0
 13
370.172911
 23
284.45185600000002
 33
0.0
  0
SOLID
  5
12B22
  8
WAKU
  6
CONTINUOUS
 10
369.86313899999999
 20
284.98818899999992
 30
0.0
 11
369.787305
 21
284.55393500000002
 31
0.0
 12
370.26016800000002
 22
284.959969
 32
0.0
 13
370.26016800000002
 23
284.959969
 33
0.0
  0
SOLID
  5
12B23
  8
WAKU
  6
CONTINUOUS
 10
398.19400599999989
 20
285.115385
 30
0.0
 11
397.60605499999991
 21
283.49999999999989
 31
0.0
 12
401.913747
 22
283.49999999999989
 32
0.0
 13
401.913747
 23
283.49999999999989
 33
0.0
  0
SOLID
  5
12B24
  8
WAKU
  6
CONTINUOUS
 10
401.913747
 20
283.49999999999989
 30
0.0
 11
401.42477599999989
 21
285.115385
 31
0.0
 12
398.19400599999989
 22
285.115385
 32
0.0
 13
398.19400599999989
 23
285.115385
 33
0.0
  0
SOLID
  5
12B25
  8
WAKU
  6
CONTINUOUS
 10
369.24130299999968
 20
285.15413199999989
 30
0.0
 11
369.251215
 21
284.77892800000001
 31
0.0
 12
369.63035799999989
 22
284.873087
 32
0.0
 13
369.63035799999989
 23
284.873087
 33
0.0
  0
SOLID
  5
12B26
  8
WAKU
  6
CONTINUOUS
 10
369.635696
 20
285.18040400000001
 30
0.0
 11
369.24130299999968
 21
285.15413199999989
 31
0.0
 12
369.63035799999989
 22
284.873087
 32
0.0
 13
369.63035799999989
 23
284.873087
 33
0.0
  0
SOLID
  5
12B27
  8
WAKU
  6
CONTINUOUS
 10
373.69033499999989
 20
285.22974399999998
 30
0.0
 11
372.23749700000002
 21
284.48611699999992
 31
0.0
 12
373.24153200000001
 22
284.78094099999993
 32
0.0
 13
373.24153200000001
 23
284.78094099999993
 33
0.0
  0
SOLID
  5
12B28
  8
WAKU
  6
CONTINUOUS
 10
371.98993999999999
 20
285.25143100000003
 30
0.0
 11
371.31226299999992
 21
284.81033199999968
 31
0.0
 12
372.194232
 22
284.91809899999993
 32
0.0
 13
372.194232
 23
284.91809899999993
 33
0.0
  0
SOLID
  5
12B29
  8
WAKU
  6
CONTINUOUS
 10
373.195965
 20
285.2752319999999
 30
0.0
 11
372.23749700000002
 21
284.48611699999992
 31
0.0
 12
373.69033499999989
 22
285.22974399999998
 32
0.0
 13
373.69033499999989
 23
285.22974399999998
 33
0.0
  0
SOLID
  5
12B2A
  8
WAKU
  6
CONTINUOUS
 10
372.68636299999991
 20
285.32617099999982
 30
0.0
 11
371.98993999999999
 21
285.25143100000003
 31
0.0
 12
372.194232
 22
284.91809899999993
 32
0.0
 13
372.194232
 23
284.91809899999993
 33
0.0
  0
SOLID
  5
12B2B
  8
WAKU
  6
CONTINUOUS
 10
370.03529300000002
 20
285.46515399999993
 30
0.0
 11
369.86313899999999
 21
284.98818899999992
 31
0.0
 12
370.26016800000002
 22
284.959969
 32
0.0
 13
370.26016800000002
 23
284.959969
 33
0.0
  0
SOLID
  5
12B2C
  8
WAKU
  6
CONTINUOUS
 10
369.73149000000001
 20
285.57602099999991
 30
0.0
 11
369.24130299999968
 21
285.15413199999989
 31
0.0
 12
369.635696
 22
285.18040400000001
 32
0.0
 13
369.635696
 23
285.18040400000001
 33
0.0
  0
SOLID
  5
12B2D
  8
WAKU
  6
CONTINUOUS
 10
369.32614599999988
 20
285.58428700000002
 30
0.0
 11
369.24130299999968
 21
285.15413199999989
 31
0.0
 12
369.73149000000001
 22
285.57602099999991
 32
0.0
 13
369.73149000000001
 23
285.57602099999991
 33
0.0
  0
SOLID
  5
12B2E
  8
WAKU
  6
CONTINUOUS
 10
370.53071199999999
 20
285.59087499999993
 30
0.0
 11
370.03529300000002
 21
285.46515399999993
 31
0.0
 12
370.26016800000002
 22
284.959969
 32
0.0
 13
370.26016800000002
 23
284.959969
 33
0.0
  0
SOLID
  5
12B2F
  8
WAKU
  6
CONTINUOUS
 10
389.23614399999991
 20
285.65384599999987
 30
0.0
 11
383.06759299999987
 21
283.49999999999989
 31
0.0
 12
388.45220799999993
 22
283.49999999999989
 32
0.0
 13
388.45220799999993
 23
283.49999999999989
 33
0.0
  0
SOLID
  5
12B30
  8
WAKU
  6
CONTINUOUS
 10
383.85152900000003
 20
285.65384599999987
 30
0.0
 11
383.06759299999987
 21
283.49999999999989
 31
0.0
 12
389.23614399999991
 22
285.65384599999987
 32
0.0
 13
389.23614399999991
 23
285.65384599999987
 33
0.0
  0
SOLID
  5
12B31
  8
WAKU
  6
CONTINUOUS
 10
404.85152900000003
 20
285.65384599999987
 30
0.0
 11
404.06759299999987
 21
283.49999999999989
 31
0.0
 12
409.45220799999993
 22
283.49999999999989
 32
0.0
 13
409.45220799999993
 23
283.49999999999989
 33
0.0
  0
SOLID
  5
12B32
  8
WAKU
  6
CONTINUOUS
 10
409.45220799999993
 20
283.49999999999989
 30
0.0
 11
409.15922099999989
 21
285.65384599999987
 31
0.0
 12
404.85152900000003
 22
285.65384599999987
 32
0.0
 13
404.85152900000003
 23
285.65384599999987
 33
0.0
  0
SOLID
  5
12B33
  8
WAKU
  6
CONTINUOUS
 10
391.17460599999998
 20
285.65384599999987
 30
0.0
 11
390.39067
 21
283.49999999999989
 31
0.0
 12
395.45220799999993
 22
283.49999999999989
 32
0.0
 13
395.45220799999993
 23
283.49999999999989
 33
0.0
  0
SOLID
  5
12B34
  8
WAKU
  6
CONTINUOUS
 10
395.45220799999993
 20
283.49999999999989
 30
0.0
 11
395.159221
 21
285.65384599999987
 31
0.0
 12
391.17460599999998
 22
285.65384599999987
 32
0.0
 13
391.17460599999998
 23
285.65384599999987
 33
0.0
  0
SOLID
  5
12B35
  8
WAKU
  6
CONTINUOUS
 10
374.09068100000002
 20
285.71051999999992
 30
0.0
 11
373.195965
 21
285.2752319999999
 31
0.0
 12
373.69033499999989
 22
285.22974399999998
 32
0.0
 13
373.69033499999989
 23
285.22974399999998
 33
0.0
  0
SOLID
  5
12B36
  8
WAKU
  6
CONTINUOUS
 10
373.14526599999988
 20
285.78508900000003
 30
0.0
 11
371.98993999999999
 21
285.25143100000003
 31
0.0
 12
372.68636299999991
 22
285.32617099999982
 32
0.0
 13
372.68636299999991
 23
285.32617099999982
 33
0.0
  0
SOLID
  5
12B37
  8
WAKU
  6
CONTINUOUS
 10
372.64629600000001
 20
285.82550600000002
 30
0.0
 11
371.98993999999999
 21
285.25143100000003
 31
0.0
 12
373.14526599999988
 22
285.78508900000003
 32
0.0
 13
373.14526599999988
 23
285.78508900000003
 33
0.0
  0
SOLID
  5
12B38
  8
WAKU
  6
CONTINUOUS
 10
370.29715599999992
 20
285.96650899999992
 30
0.0
 11
370.03529300000002
 21
285.46515399999993
 31
0.0
 12
370.53071199999999
 22
285.59087499999993
 32
0.0
 13
370.53071199999999
 23
285.59087499999993
 33
0.0
  0
SOLID
  5
12B39
  8
WAKU
  6
CONTINUOUS
 10
369.923519
 20
286.03102799999982
 30
0.0
 11
369.32614599999988
 21
285.58428700000002
 31
0.0
 12
369.73149000000001
 22
285.57602099999991
 32
0.0
 13
369.73149000000001
 23
285.57602099999991
 33
0.0
  0
SOLID
  5
12B3A
  8
WAKU
  6
CONTINUOUS
 10
369.50262700000002
 20
286.05359299999992
 30
0.0
 11
369.32614599999988
 21
285.58428700000002
 31
0.0
 12
369.923519
 22
286.03102799999982
 32
0.0
 13
369.923519
 23
286.03102799999982
 33
0.0
  0
SOLID
  5
12B3B
  8
WAKU
  6
CONTINUOUS
 10
379.39714500000002
 20
286.13846199999989
 30
0.0
 11
378.436824
 21
283.49999999999989
 31
0.0
 12
379.51374700000002
 22
283.49999999999989
 32
0.0
 13
379.51374700000002
 23
283.49999999999989
 33
0.0
  0
SOLID
  5
12B3C
  8
WAKU
  6
CONTINUOUS
 10
377.15520499999991
 20
286.19230800000003
 30
0.0
 11
376.17528499999992
 21
283.49999999999989
 31
0.0
 12
379.39714500000002
 22
286.13846199999989
 32
0.0
 13
379.39714500000002
 23
286.13846199999989
 33
0.0
  0
SOLID
  5
12B3D
  8
WAKU
  6
CONTINUOUS
 10
380.49366700000002
 20
286.19230800000003
 30
0.0
 11
377.15520499999991
 21
286.19230800000003
 31
0.0
 12
379.39714500000002
 22
286.13846199999989
 32
0.0
 13
379.39714500000002
 23
286.13846199999989
 33
0.0
  0
SOLID
  5
12B3E
  8
WAKU
  6
CONTINUOUS
 10
380.49366700000002
 20
286.19230800000003
 30
0.0
 11
379.39714500000002
 21
286.13846199999989
 31
0.0
 12
379.51374700000002
 22
283.49999999999989
 32
0.0
 13
379.51374700000002
 23
283.49999999999989
 33
0.0
  0
SOLID
  5
12B3F
  8
WAKU
  6
CONTINUOUS
 10
380.49366700000002
 20
286.19230800000003
 30
0.0
 11
381.775285
 21
283.49999999999989
 31
0.0
 12
382.75520499999988
 22
286.19230800000003
 32
0.0
 13
382.75520499999988
 23
286.19230800000003
 33
0.0
  0
SOLID
  5
12B40
  8
WAKU
  6
CONTINUOUS
 10
374.427865
 20
286.20560899999992
 30
0.0
 11
373.195965
 21
285.2752319999999
 31
0.0
 12
374.09068100000002
 22
285.71051999999992
 32
0.0
 13
374.09068100000002
 23
285.71051999999992
 33
0.0
  0
SOLID
  5
12B41
  8
WAKU
  6
CONTINUOUS
 10
373.98505
 20
286.23371800000001
 30
0.0
 11
373.195965
 21
285.2752319999999
 31
0.0
 12
374.427865
 22
286.20560899999992
 32
0.0
 13
374.427865
 23
286.20560899999992
 33
0.0
  0
SOLID
  5
12B42
  8
WAKU
  6
CONTINUOUS
 10
370.97189600000002
 20
286.26847099999992
 30
0.0
 11
370.29715599999992
 21
285.96650899999992
 31
0.0
 12
370.53071199999999
 22
285.59087499999993
 32
0.0
 13
370.53071199999999
 23
285.59087499999993
 33
0.0
  0
SOLID
  5
12B43
  8
WAKU
  6
CONTINUOUS
 10
373.553316
 20
286.27722899999992
 30
0.0
 11
372.64629600000001
 21
285.82550600000002
 31
0.0
 12
373.14526599999988
 22
285.78508900000003
 32
0.0
 13
373.14526599999988
 23
285.78508900000003
 33
0.0
  0
SOLID
  5
12B44
  8
WAKU
  6
CONTINUOUS
 10
370.63867099999987
 20
286.47300000000001
 30
0.0
 11
370.29715599999992
 21
285.96650899999992
 31
0.0
 12
370.97189600000002
 22
286.26847099999992
 32
0.0
 13
370.97189600000002
 23
286.26847099999992
 33
0.0
  0
SOLID
  5
12B45
  8
WAKU
  6
CONTINUOUS
 10
373.22023799999988
 20
286.48191999999989
 30
0.0
 11
372.64629600000001
 21
285.82550600000002
 31
0.0
 12
373.553316
 22
286.27722899999992
 32
0.0
 13
373.553316
 23
286.27722899999992
 33
0.0
  0
SOLID
  5
12B46
  8
WAKU
  6
CONTINUOUS
 10
370.20703500000002
 20
286.51657
 30
0.0
 11
369.50262700000002
 21
286.05359299999992
 31
0.0
 12
369.923519
 22
286.03102799999982
 32
0.0
 13
369.923519
 23
286.03102799999982
 33
0.0
  0
SOLID
  5
12B47
  8
WAKU
  6
CONTINUOUS
 10
369.76426499999991
 20
286.54481199999992
 30
0.0
 11
369.50262700000002
 21
286.05359299999992
 31
0.0
 12
370.20703500000002
 22
286.51657
 32
0.0
 13
370.20703500000002
 23
286.51657
 33
0.0
  0
SOLID
  5
12B48
  8
WAKU
  6
CONTINUOUS
 10
374.689503
 20
286.69682799999998
 30
0.0
 11
373.98505
 21
286.23371800000001
 31
0.0
 12
374.427865
 22
286.20560899999992
 32
0.0
 13
374.427865
 23
286.20560899999992
 33
0.0
  0
SOLID
  5
12B49
  8
WAKU
  6
CONTINUOUS
 10
374.268507
 20
286.71927799999992
 30
0.0
 11
373.98505
 21
286.23371800000001
 31
0.0
 12
374.689503
 22
286.69682799999998
 32
0.0
 13
374.689503
 23
286.69682799999998
 33
0.0
  0
SOLID
  5
12B4A
  8
WAKU
  6
CONTINUOUS
 10
373.89484299999992
 20
286.78369300000008
 30
0.0
 11
373.22023799999988
 21
286.48191999999989
 31
0.0
 12
373.553316
 22
286.27722899999992
 32
0.0
 13
373.553316
 23
286.27722899999992
 33
0.0
  0
SOLID
  5
12B4B
  8
WAKU
  6
CONTINUOUS
 10
371.54582699999992
 20
286.92489299999988
 30
0.0
 11
370.63867099999987
 21
286.47300000000001
 31
0.0
 12
370.97189600000002
 22
286.26847099999992
 32
0.0
 13
370.97189600000002
 23
286.26847099999992
 33
0.0
  0
SOLID
  5
12B4C
  8
WAKU
  6
CONTINUOUS
 10
371.04671999999999
 20
286.96517399999999
 30
0.0
 11
370.63867099999987
 21
286.47300000000001
 31
0.0
 12
371.54582699999992
 22
286.92489299999988
 32
0.0
 13
371.54582699999992
 23
286.92489299999988
 33
0.0
  0
SOLID
  5
12B4D
  8
WAKU
  6
CONTINUOUS
 10
370.10144899999989
 20
287.03990099999982
 30
0.0
 11
369.76426499999991
 21
286.54481199999992
 31
0.0
 12
370.20703500000002
 22
286.51657
 32
0.0
 13
370.20703500000002
 23
286.51657
 33
0.0
  0
SOLID
  5
12B4E
  8
WAKU
  6
CONTINUOUS
 10
373.66135299999991
 20
287.15953400000001
 30
0.0
 11
373.22023799999988
 21
286.48191999999989
 31
0.0
 12
373.89484299999992
 22
286.78369300000008
 32
0.0
 13
373.89484299999992
 23
286.78369300000008
 33
0.0
  0
SOLID
  5
12B4F
  8
WAKU
  6
CONTINUOUS
 10
374.86598399999991
 20
287.166134
 30
0.0
 11
374.268507
 21
286.71927799999992
 31
0.0
 12
374.689503
 22
286.69682799999998
 32
0.0
 13
374.689503
 23
286.69682799999998
 33
0.0
  0
SOLID
  5
12B50
  8
WAKU
  6
CONTINUOUS
 10
374.46071000000001
 20
287.17424799999992
 30
0.0
 11
374.268507
 21
286.71927799999992
 31
0.0
 12
374.86598399999991
 22
287.166134
 32
0.0
 13
374.86598399999991
 23
287.166134
 33
0.0
  0
SOLID
  5
12B51
  8
WAKU
  6
CONTINUOUS
 10
374.15673199999992
 20
287.28502999999989
 30
0.0
 11
373.66135299999991
 21
287.15953400000001
 31
0.0
 12
373.89484299999992
 22
286.78369300000008
 32
0.0
 13
373.89484299999992
 23
286.78369300000008
 33
0.0
  0
SOLID
  5
12B52
  8
WAKU
  6
CONTINUOUS
 10
371.50563199999988
 20
287.424128
 30
0.0
 11
371.04671999999999
 21
286.96517399999999
 31
0.0
 12
371.54582699999992
 22
286.92489299999988
 32
0.0
 13
371.54582699999992
 23
286.92489299999988
 33
0.0
  0
SOLID
  5
12B53
  8
WAKU
  6
CONTINUOUS
 10
370.99609800000002
 20
287.47510799999992
 30
0.0
 11
370.10144899999989
 21
287.03990099999982
 31
0.0
 12
370.20703500000002
 22
286.51657
 32
0.0
 13
370.20703500000002
 23
286.51657
 33
0.0
  0
SOLID
  5
12B54
  8
WAKU
  6
CONTINUOUS
 10
372.202181
 20
287.49899099999999
 30
0.0
 11
371.50563199999988
 21
287.424128
 31
0.0
 12
371.54582699999992
 22
286.92489299999988
 32
0.0
 13
371.54582699999992
 23
286.92489299999988
 33
0.0
  0
SOLID
  5
12B55
  8
WAKU
  6
CONTINUOUS
 10
370.50179500000002
 20
287.52067699999992
 30
0.0
 11
370.10144899999989
 21
287.03990099999982
 31
0.0
 12
370.99609800000002
 22
287.47510799999992
 32
0.0
 13
370.99609800000002
 23
287.47510799999992
 33
0.0
  0
SOLID
  5
12B56
  8
WAKU
  6
CONTINUOUS
 10
374.55636099999998
 20
287.56986399999988
 30
0.0
 11
374.46071000000001
 21
287.17424799999992
 31
0.0
 12
374.86598399999991
 22
287.166134
 32
0.0
 13
374.86598399999991
 23
287.166134
 33
0.0
  0
SOLID
  5
12B57
  8
WAKU
  6
CONTINUOUS
 10
395.86476299999993
 20
287.592308
 30
0.0
 11
395.159221
 21
285.65384599999987
 31
0.0
 12
395.45220799999993
 22
283.49999999999989
 32
0.0
 13
395.45220799999993
 23
283.49999999999989
 33
0.0
  0
SOLID
  5
12B58
  8
WAKU
  6
CONTINUOUS
 10
393.17245600000001
 20
287.592308
 30
0.0
 11
391.70356499999991
 21
286.51538499999998
 31
0.0
 12
392.78048799999999
 22
286.51538499999998
 32
0.0
 13
392.78048799999999
 23
286.51538499999998
 33
0.0
  0
SOLID
  5
12B59
  8
WAKU
  6
CONTINUOUS
 10
392.09553299999988
 20
287.592308
 30
0.0
 11
391.70356499999991
 21
286.51538499999998
 31
0.0
 12
393.17245600000001
 22
287.592308
 32
0.0
 13
393.17245600000001
 23
287.592308
 33
0.0
  0
SOLID
  5
12B5A
  8
WAKU
  6
CONTINUOUS
 10
391.28784000000002
 20
287.592308
 30
0.0
 11
392.09553299999988
 21
287.592308
 31
0.0
 12
393.17245600000001
 22
287.592308
 32
0.0
 13
393.17245600000001
 23
287.592308
 33
0.0
  0
SOLID
  5
12B5B
  8
WAKU
  6
CONTINUOUS
 10
391.28784000000002
 20
287.592308
 30
0.0
 11
393.17245600000001
 21
287.592308
 31
0.0
 12
395.86476299999993
 22
287.592308
 32
0.0
 13
395.86476299999993
 23
287.592308
 33
0.0
  0
SOLID
  5
12B5C
  8
WAKU
  6
CONTINUOUS
 10
396.941687
 20
287.592308
 30
0.0
 11
391.28784000000002
 21
287.592308
 31
0.0
 12
395.86476299999993
 22
287.592308
 32
0.0
 13
395.86476299999993
 23
287.592308
 33
0.0
  0
SOLID
  5
12B5D
  8
WAKU
  6
CONTINUOUS
 10
396.941687
 20
287.592308
 30
0.0
 11
395.86476299999993
 21
287.592308
 31
0.0
 12
395.45220799999993
 22
283.49999999999989
 32
0.0
 13
395.45220799999993
 23
283.49999999999989
 33
0.0
  0
SOLID
  5
12B5E
  8
WAKU
  6
CONTINUOUS
 10
374.950827
 20
287.59628900000001
 30
0.0
 11
374.55636099999998
 21
287.56986399999988
 31
0.0
 12
374.86598399999991
 22
287.166134
 32
0.0
 13
374.86598399999991
 23
287.166134
 33
0.0
  0
SOLID
  5
12B5F
  8
WAKU
  6
CONTINUOUS
 10
374.32892500000003
 20
287.76198699999992
 30
0.0
 11
373.66135299999991
 21
287.15953400000001
 31
0.0
 12
374.15673199999992
 22
287.28502999999989
 32
0.0
 13
374.15673199999992
 23
287.28502999999989
 33
0.0
  0
SOLID
  5
12B60
  8
WAKU
  6
CONTINUOUS
 10
373.93207100000001
 20
287.79040199999992
 30
0.0
 11
373.66135299999991
 21
287.15953400000001
 31
0.0
 12
374.32892500000003
 22
287.76198699999992
 32
0.0
 13
374.32892500000003
 23
287.76198699999992
 33
0.0
  0
SOLID
  5
12B61
  8
WAKU
  6
CONTINUOUS
 10
371.99778300000003
 20
287.83223500000003
 30
0.0
 11
371.50563199999988
 21
287.424128
 31
0.0
 12
372.202181
 22
287.49899099999999
 32
0.0
 13
372.202181
 23
287.49899099999999
 33
0.0
  0
SOLID
  5
12B62
  8
WAKU
  6
CONTINUOUS
 10
374.561802
 20
287.87725299999983
 30
0.0
 11
374.55636099999998
 21
287.56986399999988
 31
0.0
 12
374.950827
 22
287.59628900000001
 32
0.0
 13
374.950827
 23
287.59628900000001
 33
0.0
  0
SOLID
  5
12B63
  8
WAKU
  6
CONTINUOUS
 10
372.87987799999991
 20
287.94005699999991
 30
0.0
 11
371.99778300000003
 21
287.83223500000003
 31
0.0
 12
372.202181
 22
287.49899099999999
 32
0.0
 13
372.202181
 23
287.49899099999999
 33
0.0
  0
SOLID
  5
12B64
  8
WAKU
  6
CONTINUOUS
 10
370.95059900000001
 20
287.96947999999992
 30
0.0
 11
370.50179500000002
 21
287.52067699999992
 31
0.0
 12
370.99609800000002
 22
287.47510799999992
 32
0.0
 13
370.99609800000002
 23
287.47510799999992
 33
0.0
  0
SOLID
  5
12B65
  8
WAKU
  6
CONTINUOUS
 10
374.94091500000002
 20
287.97149300000001
 30
0.0
 11
374.561802
 21
287.87725299999983
 31
0.0
 12
374.950827
 22
287.59628900000001
 32
0.0
 13
374.950827
 23
287.59628900000001
 33
0.0
  0
SOLID
  5
12B66
  8
WAKU
  6
CONTINUOUS
 10
374.502951
 20
288.07791800000001
 30
0.0
 11
374.561802
 21
287.87725299999983
 31
0.0
 12
374.94091500000002
 22
287.97149300000001
 32
0.0
 13
374.94091500000002
 23
287.97149300000001
 33
0.0
  0
SOLID
  5
12B67
  8
WAKU
  6
CONTINUOUS
 10
405.75305500000002
 20
288.13076899999982
 30
0.0
 11
405.28269399999999
 21
286.83846199999999
 31
0.0
 12
408.51346299999989
 22
286.83846199999999
 32
0.0
 13
408.51346299999989
 23
286.83846199999999
 33
0.0
  0
SOLID
  5
12B68
  8
WAKU
  6
CONTINUOUS
 10
408.98382400000003
 20
288.13076899999982
 30
0.0
 11
405.75305500000002
 21
288.13076899999982
 31
0.0
 12
408.51346299999989
 22
286.83846199999999
 32
0.0
 13
408.51346299999989
 23
286.83846199999999
 33
0.0
  0
SOLID
  5
12B69
  8
WAKU
  6
CONTINUOUS
 10
372.50426900000002
 20
288.17382099999992
 30
0.0
 11
371.99778300000003
 21
287.83223500000003
 31
0.0
 12
372.87987799999991
 22
287.94005699999991
 32
0.0
 13
372.87987799999991
 23
287.94005699999991
 33
0.0
  0
SOLID
  5
12B6A
  8
WAKU
  6
CONTINUOUS
 10
374.40481
 20
288.19624900000002
 30
0.0
 11
373.93207100000001
 21
287.79040199999992
 31
0.0
 12
374.32892500000003
 22
287.76198699999992
 32
0.0
 13
374.32892500000003
 23
287.76198699999992
 33
0.0
  0
SOLID
  5
12B6B
  8
WAKU
  6
CONTINUOUS
 10
374.40481
 20
288.19624900000002
 30
0.0
 11
374.502951
 21
288.07791800000001
 31
0.0
 12
374.94091500000002
 22
287.97149300000001
 32
0.0
 13
374.94091500000002
 23
287.97149300000001
 33
0.0
  0
SOLID
  5
12B6C
  8
WAKU
  6
CONTINUOUS
 10
373.510738
 20
288.21123999999998
 30
0.0
 11
372.50426900000002
 21
288.17382099999992
 31
0.0
 12
372.87987799999991
 22
287.94005699999991
 32
0.0
 13
372.87987799999991
 23
287.94005699999991
 33
0.0
  0
SOLID
  5
12B6D
  8
WAKU
  6
CONTINUOUS
 10
371.954587
 20
288.26428399999992
 30
0.0
 11
370.95059900000001
 21
287.96947999999992
 31
0.0
 12
370.99609800000002
 22
287.47510799999992
 32
0.0
 13
370.99609800000002
 23
287.47510799999992
 33
0.0
  0
SOLID
  5
12B6E
  8
WAKU
  6
CONTINUOUS
 10
374.836612
 20
288.27796699999999
 30
0.0
 11
374.40481
 21
288.19624900000002
 31
0.0
 12
374.94091500000002
 22
287.97149300000001
 32
0.0
 13
374.94091500000002
 23
287.97149300000001
 33
0.0
  0
SOLID
  5
12B6F
  8
WAKU
  6
CONTINUOUS
 10
374.01922899999988
 20
288.29856899999982
 30
0.0
 11
372.50426900000002
 21
288.17382099999992
 31
0.0
 12
373.510738
 22
288.21123999999998
 32
0.0
 13
373.510738
 23
288.21123999999998
 33
0.0
  0
SOLID
  5
12B70
  8
WAKU
  6
CONTINUOUS
 10
374.01922899999988
 20
288.29856899999982
 30
0.0
 11
374.40481
 21
288.19624900000002
 31
0.0
 12
374.836612
 22
288.27796699999999
 32
0.0
 13
374.836612
 23
288.27796699999999
 33
0.0
  0
SOLID
  5
12B71
  8
WAKU
  6
CONTINUOUS
 10
374.01922899999988
 20
288.29856899999982
 30
0.0
 11
373.93207100000001
 21
287.79040199999992
 31
0.0
 12
374.40481
 22
288.19624900000002
 32
0.0
 13
374.40481
 23
288.19624900000002
 33
0.0
  0
SOLID
  5
12B72
  8
WAKU
  6
CONTINUOUS
 10
371.43137400000001
 20
288.36982599999999
 30
0.0
 11
370.95059900000001
 21
287.96947999999992
 31
0.0
 12
371.954587
 22
288.26428399999992
 32
0.0
 13
371.954587
 23
288.26428399999992
 33
0.0
  0
SOLID
  5
12B73
  8
WAKU
  6
CONTINUOUS
 10
373.00563899999992
 20
288.43576799999988
 30
0.0
 11
372.50426900000002
 21
288.17382099999992
 31
0.0
 12
374.01922899999988
 22
288.29856899999982
 32
0.0
 13
374.01922899999988
 23
288.29856899999982
 33
0.0
  0
SOLID
  5
12B74
  8
WAKU
  6
CONTINUOUS
 10
374.641749
 20
288.50445200000001
 30
0.0
 11
373.00563899999992
 21
288.43576799999988
 31
0.0
 12
374.01922899999988
 22
288.29856899999982
 32
0.0
 13
374.01922899999988
 23
288.29856899999982
 33
0.0
  0
SOLID
  5
12B75
  8
WAKU
  6
CONTINUOUS
 10
374.641749
 20
288.50445200000001
 30
0.0
 11
374.01922899999988
 21
288.29856899999982
 31
0.0
 12
374.836612
 22
288.27796699999999
 32
0.0
 13
374.836612
 23
288.27796699999999
 33
0.0
  0
SOLID
  5
12B76
  8
WAKU
  6
CONTINUOUS
 10
372.44023499999992
 20
288.54758500000003
 30
0.0
 11
371.43137400000001
 21
288.36982599999999
 31
0.0
 12
371.954587
 22
288.26428399999992
 32
0.0
 13
371.954587
 23
288.26428399999992
 33
0.0
  0
SOLID
  5
12B77
  8
WAKU
  6
CONTINUOUS
 10
373.48263600000001
 20
288.60801400000003
 30
0.0
 11
373.00563899999992
 21
288.43576799999988
 31
0.0
 12
374.641749
 22
288.50445200000001
 32
0.0
 13
374.641749
 23
288.50445200000001
 33
0.0
  0
SOLID
  5
12B78
  8
WAKU
  6
CONTINUOUS
 10
374.36348399999991
 20
288.64263
 30
0.0
 11
373.48263600000001
 21
288.60801400000003
 31
0.0
 12
374.641749
 22
288.50445200000001
 32
0.0
 13
374.641749
 23
288.50445200000001
 33
0.0
  0
SOLID
  5
12B79
  8
WAKU
  6
CONTINUOUS
 10
373.91694100000001
 20
288.683944
 30
0.0
 11
373.48263600000001
 21
288.60801400000003
 31
0.0
 12
374.36348399999991
 22
288.64263
 32
0.0
 13
374.36348399999991
 23
288.64263
 33
0.0
  0
SOLID
  5
12B7A
  8
WAKU
  6
CONTINUOUS
 10
371.92646400000001
 20
288.70701000000003
 30
0.0
 11
371.43137400000001
 21
288.36982599999999
 31
0.0
 12
372.44023499999992
 22
288.54758500000003
 32
0.0
 13
372.44023499999992
 23
288.54758500000003
 33
0.0
  0
SOLID
  5
12B7B
  8
WAKU
  6
CONTINUOUS
 10
372.89513999999991
 20
288.74006500000002
 30
0.0
 11
371.92646400000001
 21
288.70701000000003
 31
0.0
 12
372.44023499999992
 22
288.54758500000003
 32
0.0
 13
372.44023499999992
 23
288.54758500000003
 33
0.0
  0
SOLID
  5
12B7C
  8
WAKU
  6
CONTINUOUS
 10
380.31131299999993
 20
288.7769229999999
 30
0.0
 11
377.15520499999991
 21
286.19230800000003
 31
0.0
 12
380.49366700000002
 22
286.19230800000003
 32
0.0
 13
380.49366700000002
 23
286.19230800000003
 33
0.0
  0
SOLID
  5
12B7D
  8
WAKU
  6
CONTINUOUS
 10
381.52485099999973
 20
288.7769229999999
 30
0.0
 11
378.09592799999979
 21
288.7769229999999
 31
0.0
 12
380.31131299999993
 22
288.7769229999999
 32
0.0
 13
380.31131299999993
 23
288.7769229999999
 33
0.0
  0
SOLID
  5
12B7E
  8
WAKU
  6
CONTINUOUS
 10
381.52485099999973
 20
288.7769229999999
 30
0.0
 11
380.31131299999993
 21
288.7769229999999
 31
0.0
 12
380.49366700000002
 22
286.19230800000003
 32
0.0
 13
380.49366700000002
 23
286.19230800000003
 33
0.0
  0
SOLID
  5
12B7F
  8
WAKU
  6
CONTINUOUS
 10
381.52485099999973
 20
288.7769229999999
 30
0.0
 11
380.49366700000002
 21
286.19230800000003
 31
0.0
 12
382.75520499999988
 22
286.19230800000003
 32
0.0
 13
382.75520499999988
 23
286.19230800000003
 33
0.0
  0
SOLID
  5
12B80
  8
WAKU
  6
CONTINUOUS
 10
373.799148
 20
288.78192899999988
 30
0.0
 11
373.91694100000001
 21
288.683944
 31
0.0
 12
374.36348399999991
 22
288.64263
 32
0.0
 13
374.36348399999991
 23
288.64263
 33
0.0
  0
SOLID
  5
12B81
  8
WAKU
  6
CONTINUOUS
 10
373.29085699999968
 20
288.83558099999982
 30
0.0
 11
371.92646400000001
 21
288.70701000000003
 31
0.0
 12
372.89513999999991
 22
288.74006500000002
 32
0.0
 13
372.89513999999991
 23
288.74006500000002
 33
0.0
  0
SOLID
  5
12B82
  8
WAKU
  6
CONTINUOUS
 10
373.59799600000002
 20
288.84090200000003
 30
0.0
 11
373.799148
 21
288.78192899999988
 31
0.0
 12
374.36348399999991
 22
288.64263
 32
0.0
 13
374.36348399999991
 23
288.64263
 33
0.0
  0
SOLID
  5
12B83
  8
WAKU
  6
CONTINUOUS
 10
402.04281700000001
 20
288.884615
 30
0.0
 11
400.18195800000001
 21
286.73076900000001
 31
0.0
 12
401.25888099999992
 22
286.73076900000001
 32
0.0
 13
401.25888099999992
 23
286.73076900000001
 33
0.0
  0
SOLID
  5
12B84
  8
WAKU
  6
CONTINUOUS
 10
402.7966629999998
 20
288.884615
 30
0.0
 11
401.42477599999989
 21
285.115385
 31
0.0
 12
401.913747
 22
283.49999999999989
 32
0.0
 13
401.913747
 23
283.49999999999989
 33
0.0
  0
SOLID
  5
12B85
  8
WAKU
  6
CONTINUOUS
 10
403.87358699999999
 20
288.884615
 30
0.0
 11
402.7966629999998
 21
288.884615
 31
0.0
 12
401.913747
 22
283.49999999999989
 32
0.0
 13
401.913747
 23
283.49999999999989
 33
0.0
  0
SOLID
  5
12B86
  8
WAKU
  6
CONTINUOUS
 10
400.96589399999988
 20
288.884615
 30
0.0
 11
400.18195800000001
 21
286.73076900000001
 31
0.0
 12
402.04281700000001
 22
288.884615
 32
0.0
 13
402.04281700000001
 23
288.884615
 33
0.0
  0
SOLID
  5
12B87
  8
WAKU
  6
CONTINUOUS
 10
399.858881
 20
286.73076900000001
 30
0.0
 11
400.64281699999992
 21
288.884615
 31
0.0
 12
399.56589400000001
 22
288.884615
 32
0.0
 13
399.56589400000001
 23
288.884615
 33
0.0
  0
SOLID
  5
12B88
  8
WAKU
  6
CONTINUOUS
 10
399.56589400000001
 20
288.884615
 30
0.0
 11
398.78195799999997
 21
286.73076900000001
 31
0.0
 12
399.858881
 22
286.73076900000001
 32
0.0
 13
399.858881
 23
286.73076900000001
 33
0.0
  0
SOLID
  5
12B89
  8
WAKU
  6
CONTINUOUS
 10
374.22530599999988
 20
288.92089499999997
 30
0.0
 11
373.59799600000002
 21
288.84090200000003
 31
0.0
 12
374.36348399999991
 22
288.64263
 32
0.0
 13
374.36348399999991
 23
288.64263
 33
0.0
  0
SOLID
  5
12B8A
  8
WAKU
  6
CONTINUOUS
 10
372.41768300000001
 20
288.96864799999992
 30
0.0
 11
373.59799600000002
 21
288.84090200000003
 31
0.0
 12
374.22530599999988
 22
288.92089499999997
 32
0.0
 13
374.22530599999988
 23
288.92089499999997
 33
0.0
  0
SOLID
  5
12B8B
  8
WAKU
  6
CONTINUOUS
 10
372.41768300000001
 20
288.96864799999992
 30
0.0
 11
373.29085699999968
 21
288.83558099999982
 31
0.0
 12
373.59799600000002
 22
288.84090200000003
 32
0.0
 13
373.59799600000002
 23
288.84090200000003
 33
0.0
  0
SOLID
  5
12B8C
  8
WAKU
  6
CONTINUOUS
 10
372.41768300000001
 20
288.96864799999992
 30
0.0
 11
371.92646400000001
 21
288.70701000000003
 31
0.0
 12
373.29085699999968
 22
288.83558099999982
 32
0.0
 13
373.29085699999968
 23
288.83558099999982
 33
0.0
  0
SOLID
  5
12B8D
  8
WAKU
  6
CONTINUOUS
 10
373.99882100000002
 20
289.11575699999992
 30
0.0
 11
372.41768300000001
 21
288.96864799999992
 31
0.0
 12
374.22530599999988
 22
288.92089499999997
 32
0.0
 13
374.22530599999988
 23
288.92089499999997
 33
0.0
  0
SOLID
  5
12B8E
  8
WAKU
  6
CONTINUOUS
 10
372.88698799999992
 20
289.145129
 30
0.0
 11
372.41768300000001
 21
288.96864799999992
 31
0.0
 12
373.99882100000002
 22
289.11575699999992
 32
0.0
 13
373.99882100000002
 23
289.11575699999992
 33
0.0
  0
SOLID
  5
12B8F
  8
WAKU
  6
CONTINUOUS
 10
396.941687
 20
287.592308
 30
0.0
 11
396.45271500000001
 21
289.20769200000001
 31
0.0
 12
393.76040799999993
 22
289.20769200000001
 32
0.0
 13
393.76040799999993
 23
289.20769200000001
 33
0.0
  0
SOLID
  5
12B90
  8
WAKU
  6
CONTINUOUS
 10
396.45271500000001
 20
289.20769200000001
 30
0.0
 11
396.941687
 21
287.592308
 31
0.0
 12
397.74937899999998
 22
287.592308
 32
0.0
 13
397.74937899999998
 23
287.592308
 33
0.0
  0
SOLID
  5
12B91
  8
WAKU
  6
CONTINUOUS
 10
393.76040799999993
 20
289.20769200000001
 30
0.0
 11
391.28784000000002
 21
287.592308
 31
0.0
 12
396.941687
 22
287.592308
 32
0.0
 13
396.941687
 23
287.592308
 33
0.0
  0
SOLID
  5
12B92
  8
WAKU
  6
CONTINUOUS
 10
398.33733100000001
 20
289.20769200000001
 30
0.0
 11
396.45271500000001
 21
289.20769200000001
 31
0.0
 12
397.74937899999998
 22
287.592308
 32
0.0
 13
397.74937899999998
 23
287.592308
 33
0.0
  0
SOLID
  5
12B93
  8
WAKU
  6
CONTINUOUS
 10
391.87579199999999
 20
289.20769200000001
 30
0.0
 11
391.28784000000002
 21
287.592308
 31
0.0
 12
393.76040799999993
 22
289.20769200000001
 32
0.0
 13
393.76040799999993
 23
289.20769200000001
 33
0.0
  0
SOLID
  5
12B94
  8
WAKU
  6
CONTINUOUS
 10
393.76040799999993
 20
289.20769200000001
 30
0.0
 11
392.68348500000002
 21
289.20769200000001
 31
0.0
 12
391.87579199999999
 22
289.20769200000001
 32
0.0
 13
391.87579199999999
 23
289.20769200000001
 33
0.0
  0
SOLID
  5
12B95
  8
WAKU
  6
CONTINUOUS
 10
397.52963799999992
 20
289.20769200000001
 30
0.0
 11
396.45271500000001
 21
289.20769200000001
 31
0.0
 12
398.33733100000001
 22
289.20769200000001
 32
0.0
 13
398.33733100000001
 23
289.20769200000001
 33
0.0
  0
SOLID
  5
12B96
  8
WAKU
  6
CONTINUOUS
 10
373.69234799999992
 20
289.22005999999982
 30
0.0
 11
372.88698799999992
 21
289.145129
 31
0.0
 12
373.99882100000002
 22
289.11575699999992
 32
0.0
 13
373.99882100000002
 23
289.11575699999992
 33
0.0
  0
SOLID
  5
12B97
  8
WAKU
  6
CONTINUOUS
 10
373.31714299999999
 20
289.22997199999998
 30
0.0
 11
372.88698799999992
 21
289.145129
 31
0.0
 12
373.69234799999992
 22
289.22005999999982
 32
0.0
 13
373.69234799999992
 23
289.22005999999982
 33
0.0
  0
SOLID
  5
12B98
  8
WAKU
  6
CONTINUOUS
 10
378.72307699999988
 20
290.5
 30
0.0
 11
381.52485099999973
 21
288.7769229999999
 31
0.0
 12
383.69592799999992
 22
288.7769229999999
 32
0.0
 13
383.69592799999992
 23
288.7769229999999
 33
0.0
  0
SOLID
  5
12B99
  8
WAKU
  6
CONTINUOUS
 10
378.72307699999988
 20
290.5
 30
0.0
 11
378.09592799999979
 21
288.7769229999999
 31
0.0
 12
381.52485099999973
 22
288.7769229999999
 32
0.0
 13
381.52485099999973
 23
288.7769229999999
 33
0.0
  0
SOLID
  5
12B9A
  8
WAKU
  6
CONTINUOUS
 10
372.24905299999989
 20
290.5
 30
0.0
 11
367.97127599999999
 21
290.5
 31
0.0
 12
367.97127599999999
 22
286.22222199999982
 32
0.0
 13
367.97127599999999
 23
286.22222199999982
 33
0.0
  0
SOLID
  5
12B9B
  8
WAKU
  6
CONTINUOUS
 10
409.21900499999998
 20
288.7769229999999
 30
0.0
 11
409.84615400000001
 21
290.5
 31
0.0
 12
406.615385
 22
290.5
 32
0.0
 13
406.615385
 23
290.5
 33
0.0
  0
SOLID
  5
12B9C
  8
WAKU
  6
CONTINUOUS
 10
406.615385
 20
290.5
 30
0.0
 11
405.98823599999992
 21
288.7769229999999
 31
0.0
 12
409.21900499999998
 22
288.7769229999999
 32
0.0
 13
409.21900499999998
 23
288.7769229999999
 33
0.0
  0
SOLID
  5
12B9D
  8
WAKU
  6
CONTINUOUS
 10
392.68348500000002
 20
289.20769200000001
 30
0.0
 11
394.23076900000001
 21
290.5
 31
0.0
 12
393.15384599999999
 22
290.5
 32
0.0
 13
393.15384599999999
 23
290.5
 33
0.0
  0
SOLID
  5
12B9E
  8
WAKU
  6
CONTINUOUS
 10
394.23076900000001
 20
290.5
 30
0.0
 11
392.68348500000002
 21
289.20769200000001
 31
0.0
 12
393.76040799999993
 22
289.20769200000001
 32
0.0
 13
393.76040799999993
 23
289.20769200000001
 33
0.0
  0
SOLID
  5
12B9F
  8
WAKU
  6
CONTINUOUS
 10
409.15922099999989
 20
285.65384599999987
 30
0.0
 11
412.0
 21
290.5
 31
0.0
 12
410.92307699999992
 22
290.5
 32
0.0
 13
410.92307699999992
 23
290.5
 33
0.0
  0
SOLID
  5
12BA0
  8
WAKU
  6
CONTINUOUS
 10
412.0
 20
290.5
 30
0.0
 11
409.15922099999989
 21
285.65384599999987
 31
0.0
 12
409.45220799999993
 22
283.49999999999989
 32
0.0
 13
409.45220799999993
 23
283.49999999999989
 33
0.0
  0
SOLID
  5
12BA1
  8
WAKU
  6
CONTINUOUS
 10
384.32307700000001
 20
290.5
 30
0.0
 11
378.72307699999988
 21
290.5
 31
0.0
 12
383.69592799999992
 22
288.7769229999999
 32
0.0
 13
383.69592799999992
 23
288.7769229999999
 33
0.0
  0
SOLID
  5
12BA2
  8
WAKU
  6
CONTINUOUS
 10
385.615385
 20
290.5
 30
0.0
 11
384.98823599999992
 21
288.7769229999999
 31
0.0
 12
390.37285099999991
 22
288.7769229999999
 32
0.0
 13
390.37285099999991
 23
288.7769229999999
 33
0.0
  0
SOLID
  5
12BA3
  8
WAKU
  6
CONTINUOUS
 10
396.92307699999992
 20
290.5
 30
0.0
 11
396.45271500000001
 21
289.20769200000001
 31
0.0
 12
397.52963799999992
 22
289.20769200000001
 32
0.0
 13
397.52963799999992
 23
289.20769200000001
 33
0.0
  0
SOLID
  5
12BA4
  8
WAKU
  6
CONTINUOUS
 10
391.0
 20
290.5
 30
0.0
 11
385.615385
 21
290.5
 31
0.0
 12
390.37285099999991
 22
288.7769229999999
 32
0.0
 13
390.37285099999991
 23
288.7769229999999
 33
0.0
  0
SOLID
  5
12BA5
  8
WAKU
  6
CONTINUOUS
 10
398.0
 20
290.5
 30
0.0
 11
396.92307699999992
 21
290.5
 31
0.0
 12
397.52963799999992
 22
289.20769200000001
 32
0.0
 13
397.52963799999992
 23
289.20769200000001
 33
0.0
  0
ENDBLK
  5
12BA6
  8
0
  0
BLOCK
  8
0
  6
BYBLOCK
 62
     0
  2
_OPEN30
 70
     2
 10
0.0
 20
0.0
 30
0.0
  3
_OPEN30
  1

  0
LINE
  5
12BA9
  8
0
  6
BYBLOCK
 62
     0
 10
-1.0
 20
0.267949
 30
0.0
 11
0.0
 21
0.0
 31
0.0
  0
LINE
  5
12BAA
  8
0
  6
BYBLOCK
 62
     0
 10
0.0
 20
0.0
 30
0.0
 11
-1.0
 21
-0.267949
 31
0.0
  0
LINE
  5
12BAB
  8
0
  6
BYBLOCK
 62
     0
 10
0.0
 20
0.0
 30
0.0
 11
-1.0
 21
0.0
 31
0.0
  0
ENDBLK
  5
12BAC
  8
0
  6
BYBLOCK
 62
     0
  0
BLOCK
  8
0
  6
BYBLOCK
 62
     0
  2
_DOTSMALL
 70
     2
 10
0.0
 20
0.0
 30
0.0
  3
_DOTSMALL
  1

  0
POLYLINE
  5
12BAF
  8
0
  6
BYBLOCK
 62
     0
 66
     1
 10
0.0
 20
0.0
 30
0.0
 70
     1
 40
0.5
 41
0.5
  0
VERTEX
  5
13449
  8
0
  6
BYBLOCK
 62
     0
 10
-0.0625
 20
0.0
 30
0.0
 42
1.0
  0
VERTEX
  5
1344A
  8
0
  6
BYBLOCK
 62
     0
 10
0.0625
 20
0.0
 30
0.0
 42
1.0
  0
SEQEND
  5
1344B
  8
0
  6
BYBLOCK
 62
     0
  0
ENDBLK
  5
12BB3
  8
0
  6
BYBLOCK
 62
     0
  0
ENDSEC
  0
SECTION
  2
ENTITIES
  0
LINE
  5
12BB4
  8
WAKU
 10
415.0
 20
292.0
 30
0.0
 11
415.0
 21
-146.19880908802401
 31
0.0
  0
LINE
  5
12BB5
  8
WAKU
 10
-35.885909737145759
 20
292.0
 30
0.0
 11
-35.885909737145759
 21
-146.19880908802401
 31
0.0
  0
LINE
  5
12BB6
  8
WAKU
 10
-35.885909737145759
 20
-146.19880908802401
 30
0.0
 11
415.0
 21
-146.19880908802401
 31
0.0
  0
LINE
  5
12BB7
  8
WAKU
 10
-35.885909737145759
 20
292.0
 30
0.0
 11
415.0
 21
292.0
 31
0.0
  0
LINE
  5
12BB8
  8
WAKU
 10
-35.885909737145759
 20
282.0
 30
0.0
 11
415.0
 21
282.0
 31
0.0
  0
LINE
  5
12BB9
  8
WAKU
  6
CONTINUOUS
 10
393.76040799999993
 20
289.20769200000001
 30
0.0
 11
396.45271500000001
 21
289.20769200000001
 31
0.0
  0
LINE
  5
12BBA
  8
WAKU
  6
CONTINUOUS
 10
393.17245600000001
 20
287.592308
 30
0.0
 11
395.86476299999993
 21
287.592308
 31
0.0
  0
LINE
  5
12BBB
  8
WAKU
  6
CONTINUOUS
 10
390.39067
 20
283.49999999999989
 30
0.0
 11
395.45220799999993
 21
283.49999999999989
 31
0.0
  0
LINE
  5
12BBC
  8
WAKU
  6
CONTINUOUS
 10
395.159221
 20
285.65384599999987
 30
0.0
 11
395.86476299999993
 21
287.592308
 31
0.0
  0
LINE
  5
12BBD
  8
WAKU
  6
CONTINUOUS
 10
367.97127599999999
 20
290.5
 30
0.0
 11
372.24905299999989
 21
290.5
 31
0.0
  0
LINE
  5
12BBE
  8
WAKU
  6
CONTINUOUS
 10
367.97127599999999
 20
286.22222199999982
 30
0.0
 11
372.24905299999989
 21
290.5
 31
0.0
  0
LINE
  5
12BBF
  8
WAKU
  6
CONTINUOUS
 10
367.97127599999999
 20
290.5
 30
0.0
 11
367.97127599999999
 21
286.22222199999982
 31
0.0
  0
LINE
  5
12BC0
  8
WAKU
  6
CONTINUOUS
 10
381.52485099999973
 20
288.7769229999999
 30
0.0
 11
383.69592799999992
 21
288.7769229999999
 31
0.0
  0
LINE
  5
12BC1
  8
WAKU
  6
CONTINUOUS
 10
378.72307699999988
 20
290.5
 30
0.0
 11
384.32307700000001
 21
290.5
 31
0.0
  0
LINE
  5
12BC2
  8
WAKU
  6
CONTINUOUS
 10
380.31131299999993
 20
288.7769229999999
 30
0.0
 11
377.15520499999991
 21
286.19230800000003
 31
0.0
  0
LINE
  5
12BC3
  8
WAKU
  6
CONTINUOUS
 10
381.52485099999973
 20
288.7769229999999
 30
0.0
 11
382.75520499999988
 21
286.19230800000003
 31
0.0
  0
LINE
  5
12BC4
  8
WAKU
  6
CONTINUOUS
 10
376.17528499999992
 20
283.49999999999989
 30
0.0
 11
377.15520499999991
 21
286.19230800000003
 31
0.0
  0
LINE
  5
12BC5
  8
WAKU
  6
CONTINUOUS
 10
379.39714500000002
 20
286.13846199999989
 30
0.0
 11
376.17528499999992
 21
283.49999999999989
 31
0.0
  0
LINE
  5
12BC6
  8
WAKU
  6
CONTINUOUS
 10
381.775285
 20
283.49999999999989
 30
0.0
 11
382.75520499999988
 21
286.19230800000003
 31
0.0
  0
LINE
  5
12BC7
  8
WAKU
  6
CONTINUOUS
 10
380.49366700000002
 20
286.19230800000003
 30
0.0
 11
381.775285
 21
283.49999999999989
 31
0.0
  0
LINE
  5
12BC8
  8
WAKU
  6
CONTINUOUS
 10
379.51374700000002
 20
283.49999999999989
 30
0.0
 11
380.49366700000002
 21
286.19230800000003
 31
0.0
  0
LINE
  5
12BC9
  8
WAKU
  6
CONTINUOUS
 10
378.436824
 20
283.49999999999989
 30
0.0
 11
379.51374700000002
 21
283.49999999999989
 31
0.0
  0
LINE
  5
12BCA
  8
WAKU
  6
CONTINUOUS
 10
378.436824
 20
283.49999999999989
 30
0.0
 11
379.39714500000002
 21
286.13846199999989
 31
0.0
  0
LINE
  5
12BCB
  8
WAKU
  6
CONTINUOUS
 10
378.09592799999979
 20
288.7769229999999
 30
0.0
 11
380.31131299999993
 21
288.7769229999999
 31
0.0
  0
LINE
  5
12BCC
  8
WAKU
  6
CONTINUOUS
 10
378.72307699999988
 20
290.5
 30
0.0
 11
378.09592799999979
 21
288.7769229999999
 31
0.0
  0
LINE
  5
12BCD
  8
WAKU
  6
CONTINUOUS
 10
392.78048799999999
 20
286.51538499999998
 30
0.0
 11
393.17245600000001
 21
287.592308
 31
0.0
  0
LINE
  5
12BCE
  8
WAKU
  6
CONTINUOUS
 10
391.70356499999991
 20
286.51538499999998
 30
0.0
 11
392.09553299999988
 21
287.592308
 31
0.0
  0
LINE
  5
12BCF
  8
WAKU
  6
CONTINUOUS
 10
388.45220799999993
 20
283.49999999999989
 30
0.0
 11
389.23614399999991
 21
285.65384599999987
 31
0.0
  0
LINE
  5
12BD0
  8
WAKU
  6
CONTINUOUS
 10
383.85152900000003
 20
285.65384599999987
 30
0.0
 11
389.23614399999991
 21
285.65384599999987
 31
0.0
  0
LINE
  5
12BD1
  8
WAKU
  6
CONTINUOUS
 10
383.06759299999987
 20
283.49999999999989
 30
0.0
 11
383.85152900000003
 21
285.65384599999987
 31
0.0
  0
LINE
  5
12BD2
  8
WAKU
  6
CONTINUOUS
 10
383.06759299999987
 20
283.49999999999989
 30
0.0
 11
388.45220799999993
 21
283.49999999999989
 31
0.0
  0
LINE
  5
12BD3
  8
WAKU
  6
CONTINUOUS
 10
391.17460599999998
 20
285.65384599999987
 30
0.0
 11
395.159221
 21
285.65384599999987
 31
0.0
  0
LINE
  5
12BD4
  8
WAKU
  6
CONTINUOUS
 10
391.70356499999991
 20
286.51538499999998
 30
0.0
 11
392.78048799999999
 21
286.51538499999998
 31
0.0
  0
LINE
  5
12BD5
  8
WAKU
  6
CONTINUOUS
 10
390.39067
 20
283.49999999999989
 30
0.0
 11
391.17460599999998
 21
285.65384599999987
 31
0.0
  0
LINE
  5
12BD6
  8
WAKU
  6
CONTINUOUS
 10
384.98823599999992
 20
288.7769229999999
 30
0.0
 11
390.37285099999991
 21
288.7769229999999
 31
0.0
  0
LINE
  5
12BD7
  8
WAKU
  6
CONTINUOUS
 10
385.615385
 20
290.5
 30
0.0
 11
391.0
 21
290.5
 31
0.0
  0
LINE
  5
12BD8
  8
WAKU
  6
CONTINUOUS
 10
384.98823599999992
 20
288.7769229999999
 30
0.0
 11
385.615385
 21
290.5
 31
0.0
  0
LINE
  5
12BD9
  8
WAKU
  6
CONTINUOUS
 10
384.32307700000001
 20
290.5
 30
0.0
 11
383.69592799999992
 21
288.7769229999999
 31
0.0
  0
LINE
  5
12BDA
  8
WAKU
  6
CONTINUOUS
 10
393.15384599999999
 20
290.5
 30
0.0
 11
394.23076900000001
 21
290.5
 31
0.0
  0
LINE
  5
12BDB
  8
WAKU
  6
CONTINUOUS
 10
393.76040799999993
 20
289.20769200000001
 30
0.0
 11
394.23076900000001
 21
290.5
 31
0.0
  0
LINE
  5
12BDC
  8
WAKU
  6
CONTINUOUS
 10
391.87579199999999
 20
289.20769200000001
 30
0.0
 11
392.68348500000002
 21
289.20769200000001
 31
0.0
  0
LINE
  5
12BDD
  8
WAKU
  6
CONTINUOUS
 10
391.28784000000002
 20
287.592308
 30
0.0
 11
392.09553299999988
 21
287.592308
 31
0.0
  0
LINE
  5
12BDE
  8
WAKU
  6
CONTINUOUS
 10
391.28784000000002
 20
287.592308
 30
0.0
 11
391.87579199999999
 21
289.20769200000001
 31
0.0
  0
LINE
  5
12BDF
  8
WAKU
  6
CONTINUOUS
 10
392.68348500000002
 20
289.20769200000001
 30
0.0
 11
393.15384599999999
 21
290.5
 31
0.0
  0
LINE
  5
12BE0
  8
WAKU
  6
CONTINUOUS
 10
390.37285099999991
 20
288.7769229999999
 30
0.0
 11
391.0
 21
290.5
 31
0.0
  0
LINE
  5
12BE1
  8
WAKU
  6
CONTINUOUS
 10
405.75305500000002
 20
288.13076899999982
 30
0.0
 11
408.98382400000003
 21
288.13076899999982
 31
0.0
  0
LINE
  5
12BE2
  8
WAKU
  6
CONTINUOUS
 10
405.28269399999999
 20
286.83846199999999
 30
0.0
 11
408.51346299999989
 21
286.83846199999999
 31
0.0
  0
LINE
  5
12BE3
  8
WAKU
  6
CONTINUOUS
 10
409.45220799999993
 20
283.49999999999989
 30
0.0
 11
404.06759299999987
 21
283.49999999999989
 31
0.0
  0
LINE
  5
12BE4
  8
WAKU
  6
CONTINUOUS
 10
404.85152900000003
 20
285.65384599999987
 30
0.0
 11
409.15922099999989
 21
285.65384599999987
 31
0.0
  0
LINE
  5
12BE5
  8
WAKU
  6
CONTINUOUS
 10
405.98823599999992
 20
288.7769229999999
 30
0.0
 11
409.21900499999998
 21
288.7769229999999
 31
0.0
  0
LINE
  5
12BE6
  8
WAKU
  6
CONTINUOUS
 10
406.615385
 20
290.5
 30
0.0
 11
409.84615400000001
 21
290.5
 31
0.0
  0
LINE
  5
12BE7
  8
WAKU
  6
CONTINUOUS
 10
398.78195799999997
 20
286.73076900000001
 30
0.0
 11
399.56589400000001
 21
288.884615
 31
0.0
  0
LINE
  5
12BE8
  8
WAKU
  6
CONTINUOUS
 10
400.18195800000001
 20
286.73076900000001
 30
0.0
 11
400.96589399999988
 21
288.884615
 31
0.0
  0
LINE
  5
12BE9
  8
WAKU
  6
CONTINUOUS
 10
399.858881
 20
286.73076900000001
 30
0.0
 11
400.64281699999992
 21
288.884615
 31
0.0
  0
LINE
  5
12BEA
  8
WAKU
  6
CONTINUOUS
 10
401.25888099999992
 20
286.73076900000001
 30
0.0
 11
402.04281700000001
 21
288.884615
 31
0.0
  0
LINE
  5
12BEB
  8
WAKU
  6
CONTINUOUS
 10
401.913747
 20
283.49999999999989
 30
0.0
 11
403.87358699999999
 21
288.884615
 31
0.0
  0
LINE
  5
12BEC
  8
WAKU
  6
CONTINUOUS
 10
401.42477599999989
 20
285.115385
 30
0.0
 11
402.7966629999998
 21
288.884615
 31
0.0
  0
LINE
  5
12BED
  8
WAKU
  6
CONTINUOUS
 10
395.45220799999993
 20
283.49999999999989
 30
0.0
 11
396.941687
 21
287.592308
 31
0.0
  0
LINE
  5
12BEE
  8
WAKU
  6
CONTINUOUS
 10
397.60605499999991
 20
283.49999999999989
 30
0.0
 11
401.913747
 21
283.49999999999989
 31
0.0
  0
LINE
  5
12BEF
  8
WAKU
  6
CONTINUOUS
 10
398.78195799999997
 20
286.73076900000001
 30
0.0
 11
399.858881
 21
286.73076900000001
 31
0.0
  0
LINE
  5
12BF0
  8
WAKU
  6
CONTINUOUS
 10
398.19400599999989
 20
285.115385
 30
0.0
 11
401.42477599999989
 21
285.115385
 31
0.0
  0
LINE
  5
12BF1
  8
WAKU
  6
CONTINUOUS
 10
397.60605499999991
 20
283.49999999999989
 30
0.0
 11
398.19400599999989
 21
285.115385
 31
0.0
  0
LINE
  5
12BF2
  8
WAKU
  6
CONTINUOUS
 10
400.18195800000001
 20
286.73076900000001
 30
0.0
 11
401.25888099999992
 21
286.73076900000001
 31
0.0
  0
LINE
  5
12BF3
  8
WAKU
  6
CONTINUOUS
 10
404.06759299999987
 20
283.49999999999989
 30
0.0
 11
404.85152900000003
 21
285.65384599999987
 31
0.0
  0
LINE
  5
12BF4
  8
WAKU
  6
CONTINUOUS
 10
400.96589399999988
 20
288.884615
 30
0.0
 11
402.04281700000001
 21
288.884615
 31
0.0
  0
LINE
  5
12BF5
  8
WAKU
  6
CONTINUOUS
 10
396.92307699999992
 20
290.5
 30
0.0
 11
398.0
 21
290.5
 31
0.0
  0
LINE
  5
12BF6
  8
WAKU
  6
CONTINUOUS
 10
397.52963799999992
 20
289.20769200000001
 30
0.0
 11
398.0
 21
290.5
 31
0.0
  0
LINE
  5
12BF7
  8
WAKU
  6
CONTINUOUS
 10
397.52963799999992
 20
289.20769200000001
 30
0.0
 11
398.33733100000001
 21
289.20769200000001
 31
0.0
  0
LINE
  5
12BF8
  8
WAKU
  6
CONTINUOUS
 10
396.941687
 20
287.592308
 30
0.0
 11
397.74937899999998
 21
287.592308
 31
0.0
  0
LINE
  5
12BF9
  8
WAKU
  6
CONTINUOUS
 10
397.74937899999998
 20
287.592308
 30
0.0
 11
398.33733100000001
 21
289.20769200000001
 31
0.0
  0
LINE
  5
12BFA
  8
WAKU
  6
CONTINUOUS
 10
399.56589400000001
 20
288.884615
 30
0.0
 11
400.64281699999992
 21
288.884615
 31
0.0
  0
LINE
  5
12BFB
  8
WAKU
  6
CONTINUOUS
 10
396.45271500000001
 20
289.20769200000001
 30
0.0
 11
396.92307699999992
 21
290.5
 31
0.0
  0
LINE
  5
12BFC
  8
WAKU
  6
CONTINUOUS
 10
406.615385
 20
290.5
 30
0.0
 11
405.98823599999992
 21
288.7769229999999
 31
0.0
  0
LINE
  5
12BFD
  8
WAKU
  6
CONTINUOUS
 10
405.75305500000002
 20
288.13076899999982
 30
0.0
 11
405.28269399999999
 21
286.83846199999999
 31
0.0
  0
LINE
  5
12BFE
  8
WAKU
  6
CONTINUOUS
 10
402.7966629999998
 20
288.884615
 30
0.0
 11
403.87358699999999
 21
288.884615
 31
0.0
  0
LINE
  5
12BFF
  8
WAKU
  6
CONTINUOUS
 10
409.15922099999989
 20
285.65384599999987
 30
0.0
 11
410.92307699999992
 21
290.5
 31
0.0
  0
LINE
  5
12C00
  8
WAKU
  6
CONTINUOUS
 10
409.45220799999993
 20
283.49999999999989
 30
0.0
 11
412.0
 21
290.5
 31
0.0
  0
LINE
  5
12C01
  8
WAKU
  6
CONTINUOUS
 10
409.21900499999998
 20
288.7769229999999
 30
0.0
 11
409.84615400000001
 21
290.5
 31
0.0
  0
LINE
  5
12C02
  8
WAKU
  6
CONTINUOUS
 10
410.92307699999992
 20
290.5
 30
0.0
 11
412.0
 21
290.5
 31
0.0
  0
LINE
  5
12C03
  8
WAKU
  6
CONTINUOUS
 10
408.51346299999989
 20
286.83846199999999
 30
0.0
 11
408.98382400000003
 21
288.13076899999982
 31
0.0
  0
LINE
  5
12C04
  8
WAKU
  6
CONTINUOUS
 10
369.82864599999988
 20
284.10779100000002
 30
0.0
 11
369.96682399999992
 21
283.82952599999982
 31
0.0
  0
LINE
  5
12C05
  8
WAKU
  6
CONTINUOUS
 10
369.96682399999992
 20
283.82952599999982
 30
0.0
 11
370.193309
 21
283.63466399999999
 31
0.0
  0
LINE
  5
12C06
  8
WAKU
  6
CONTINUOUS
 10
370.193309
 20
283.63466399999999
 30
0.0
 11
370.49978199999993
 21
283.53036100000003
 31
0.0
  0
LINE
  5
12C07
  8
WAKU
  6
CONTINUOUS
 10
370.49978199999993
 20
283.53036100000003
 30
0.0
 11
370.87498699999992
 21
283.52044899999993
 31
0.0
  0
LINE
  5
12C08
  8
WAKU
  6
CONTINUOUS
 10
370.87498699999992
 20
283.52044899999993
 30
0.0
 11
371.30514199999988
 21
283.60529100000002
 31
0.0
  0
LINE
  5
12C09
  8
WAKU
  6
CONTINUOUS
 10
371.30514199999988
 20
283.60529100000002
 30
0.0
 11
371.77444800000001
 21
283.78177299999987
 31
0.0
  0
LINE
  5
12C0A
  8
WAKU
  6
CONTINUOUS
 10
371.77444800000001
 20
283.78177299999987
 30
0.0
 11
372.26566600000001
 21
284.04341099999982
 31
0.0
  0
LINE
  5
12C0B
  8
WAKU
  6
CONTINUOUS
 10
372.26566600000001
 20
284.04341099999982
 30
0.0
 11
372.76075600000001
 21
284.38059500000008
 31
0.0
  0
LINE
  5
12C0C
  8
WAKU
  6
CONTINUOUS
 10
372.76075600000001
 20
284.38059500000008
 30
0.0
 11
373.24153200000001
 21
284.78094099999993
 31
0.0
  0
LINE
  5
12C0D
  8
WAKU
  6
CONTINUOUS
 10
373.24153200000001
 20
284.78094099999993
 30
0.0
 11
373.69033499999989
 21
285.22974399999998
 31
0.0
  0
LINE
  5
12C0E
  8
WAKU
  6
CONTINUOUS
 10
373.69033499999989
 20
285.22974399999998
 30
0.0
 11
374.09068100000002
 21
285.71051999999992
 31
0.0
  0
LINE
  5
12C0F
  8
WAKU
  6
CONTINUOUS
 10
374.09068100000002
 20
285.71051999999992
 30
0.0
 11
374.427865
 21
286.20560899999992
 31
0.0
  0
LINE
  5
12C10
  8
WAKU
  6
CONTINUOUS
 10
374.427865
 20
286.20560899999992
 30
0.0
 11
374.689503
 21
286.69682799999998
 31
0.0
  0
LINE
  5
12C11
  8
WAKU
  6
CONTINUOUS
 10
374.689503
 20
286.69682799999998
 30
0.0
 11
374.86598399999991
 21
287.166134
 31
0.0
  0
LINE
  5
12C12
  8
WAKU
  6
CONTINUOUS
 10
374.86598399999991
 20
287.166134
 30
0.0
 11
374.950827
 21
287.59628900000001
 31
0.0
  0
LINE
  5
12C13
  8
WAKU
  6
CONTINUOUS
 10
374.950827
 20
287.59628900000001
 30
0.0
 11
374.94091500000002
 21
287.97149300000001
 31
0.0
  0
LINE
  5
12C14
  8
WAKU
  6
CONTINUOUS
 10
374.94091500000002
 20
287.97149300000001
 30
0.0
 11
374.836612
 21
288.27796699999999
 31
0.0
  0
LINE
  5
12C15
  8
WAKU
  6
CONTINUOUS
 10
374.836612
 20
288.27796699999999
 30
0.0
 11
374.641749
 21
288.50445200000001
 31
0.0
  0
LINE
  5
12C16
  8
WAKU
  6
CONTINUOUS
 10
374.641749
 20
288.50445200000001
 30
0.0
 11
374.36348399999991
 21
288.64263
 31
0.0
  0
LINE
  5
12C17
  8
WAKU
  6
CONTINUOUS
 10
373.91694100000001
 20
288.683944
 30
0.0
 11
373.48263600000001
 21
288.60801400000003
 31
0.0
  0
LINE
  5
12C18
  8
WAKU
  6
CONTINUOUS
 10
373.48263600000001
 20
288.60801400000003
 30
0.0
 11
373.00563899999992
 21
288.43576799999988
 31
0.0
  0
LINE
  5
12C19
  8
WAKU
  6
CONTINUOUS
 10
373.00563899999992
 20
288.43576799999988
 30
0.0
 11
372.50426900000002
 21
288.17382099999992
 31
0.0
  0
LINE
  5
12C1A
  8
WAKU
  6
CONTINUOUS
 10
372.50426900000002
 20
288.17382099999992
 30
0.0
 11
371.99778300000003
 21
287.83223500000003
 31
0.0
  0
LINE
  5
12C1B
  8
WAKU
  6
CONTINUOUS
 10
371.99778300000003
 20
287.83223500000003
 30
0.0
 11
371.50563199999988
 21
287.424128
 31
0.0
  0
LINE
  5
12C1C
  8
WAKU
  6
CONTINUOUS
 10
371.50563199999988
 20
287.424128
 30
0.0
 11
371.04671999999999
 21
286.96517399999999
 31
0.0
  0
LINE
  5
12C1D
  8
WAKU
  6
CONTINUOUS
 10
371.04671999999999
 20
286.96517399999999
 30
0.0
 11
370.63867099999987
 21
286.47300000000001
 31
0.0
  0
LINE
  5
12C1E
  8
WAKU
  6
CONTINUOUS
 10
370.63867099999987
 20
286.47300000000001
 30
0.0
 11
370.29715599999992
 21
285.96650899999992
 31
0.0
  0
LINE
  5
12C1F
  8
WAKU
  6
CONTINUOUS
 10
370.29715599999992
 20
285.96650899999992
 30
0.0
 11
370.03529300000002
 21
285.46515399999993
 31
0.0
  0
LINE
  5
12C20
  8
WAKU
  6
CONTINUOUS
 10
370.03529300000002
 20
285.46515399999993
 30
0.0
 11
369.86313899999999
 21
284.98818899999992
 31
0.0
  0
LINE
  5
12C21
  8
WAKU
  6
CONTINUOUS
 10
369.86313899999999
 20
284.98818899999992
 30
0.0
 11
369.787305
 21
284.55393500000002
 31
0.0
  0
LINE
  5
12C22
  8
WAKU
  6
CONTINUOUS
 10
370.172911
 20
284.45185600000002
 30
0.0
 11
370.68139500000001
 21
284.53919500000001
 31
0.0
  0
LINE
  5
12C23
  8
WAKU
  6
CONTINUOUS
 10
370.68139500000001
 20
284.53919500000001
 30
0.0
 11
371.31226299999992
 21
284.81033199999968
 31
0.0
  0
LINE
  5
12C24
  8
WAKU
  6
CONTINUOUS
 10
371.31226299999992
 20
284.81033199999968
 30
0.0
 11
371.98993999999999
 21
285.25143100000003
 31
0.0
  0
LINE
  5
12C25
  8
WAKU
  6
CONTINUOUS
 10
371.98993999999999
 20
285.25143100000003
 30
0.0
 11
372.64629600000001
 21
285.82550600000002
 31
0.0
  0
LINE
  5
12C26
  8
WAKU
  6
CONTINUOUS
 10
372.64629600000001
 20
285.82550600000002
 30
0.0
 11
373.22023799999988
 21
286.48191999999989
 31
0.0
  0
LINE
  5
12C27
  8
WAKU
  6
CONTINUOUS
 10
373.22023799999988
 20
286.48191999999989
 30
0.0
 11
373.66135299999991
 21
287.15953400000001
 31
0.0
  0
LINE
  5
12C28
  8
WAKU
  6
CONTINUOUS
 10
373.66135299999991
 20
287.15953400000001
 30
0.0
 11
373.93207100000001
 21
287.79040199999992
 31
0.0
  0
LINE
  5
12C29
  8
WAKU
  6
CONTINUOUS
 10
373.93207100000001
 20
287.79040199999992
 30
0.0
 11
374.01922899999988
 21
288.29856899999982
 31
0.0
  0
LINE
  5
12C2A
  8
WAKU
  6
CONTINUOUS
 10
373.91694100000001
 20
288.683944
 30
0.0
 11
373.799148
 21
288.78192899999988
 31
0.0
  0
LINE
  5
12C2B
  8
WAKU
  6
CONTINUOUS
 10
373.799148
 20
288.78192899999988
 30
0.0
 11
373.59799600000002
 21
288.84090200000003
 31
0.0
  0
LINE
  5
12C2C
  8
WAKU
  6
CONTINUOUS
 10
373.59799600000002
 20
288.84090200000003
 30
0.0
 11
373.29085699999968
 21
288.83558099999982
 31
0.0
  0
LINE
  5
12C2D
  8
WAKU
  6
CONTINUOUS
 10
373.29085699999968
 20
288.83558099999982
 30
0.0
 11
372.89513999999991
 21
288.74006500000002
 31
0.0
  0
LINE
  5
12C2E
  8
WAKU
  6
CONTINUOUS
 10
372.89513999999991
 20
288.74006500000002
 30
0.0
 11
372.44023499999992
 21
288.54758500000003
 31
0.0
  0
LINE
  5
12C2F
  8
WAKU
  6
CONTINUOUS
 10
372.44023499999992
 20
288.54758500000003
 30
0.0
 11
371.954587
 21
288.26428399999992
 31
0.0
  0
LINE
  5
12C30
  8
WAKU
  6
CONTINUOUS
 10
371.954587
 20
288.26428399999992
 30
0.0
 11
370.99609800000002
 21
287.47510799999992
 31
0.0
  0
LINE
  5
12C31
  8
WAKU
  6
CONTINUOUS
 10
370.99609800000002
 20
287.47510799999992
 30
0.0
 11
370.20703500000002
 21
286.51657
 31
0.0
  0
LINE
  5
12C32
  8
WAKU
  6
CONTINUOUS
 10
370.20703500000002
 20
286.51657
 30
0.0
 11
369.923519
 21
286.03102799999982
 31
0.0
  0
LINE
  5
12C33
  8
WAKU
  6
CONTINUOUS
 10
369.923519
 20
286.03102799999982
 30
0.0
 11
369.73149000000001
 21
285.57602099999991
 31
0.0
  0
LINE
  5
12C34
  8
WAKU
  6
CONTINUOUS
 10
369.73149000000001
 20
285.57602099999991
 30
0.0
 11
369.635696
 21
285.18040400000001
 31
0.0
  0
LINE
  5
12C35
  8
WAKU
  6
CONTINUOUS
 10
369.635696
 20
285.18040400000001
 30
0.0
 11
369.63035799999989
 21
284.873087
 31
0.0
  0
LINE
  5
12C36
  8
WAKU
  6
CONTINUOUS
 10
369.63035799999989
 20
284.873087
 30
0.0
 11
369.68915499999991
 21
284.67243500000001
 31
0.0
  0
LINE
  5
12C37
  8
WAKU
  6
CONTINUOUS
 10
369.68915499999991
 20
284.67243500000001
 30
0.0
 11
369.787305
 21
284.55393500000002
 31
0.0
  0
LINE
  5
12C38
  8
WAKU
  6
CONTINUOUS
 10
370.27517699999993
 20
284.06647599999991
 30
0.0
 11
370.39292699999987
 21
283.968568
 31
0.0
  0
LINE
  5
12C39
  8
WAKU
  6
CONTINUOUS
 10
370.39292699999987
 20
283.968568
 30
0.0
 11
370.59417699999989
 21
283.90949799999999
 31
0.0
  0
LINE
  5
12C3A
  8
WAKU
  6
CONTINUOUS
 10
370.59417699999989
 20
283.90949799999999
 30
0.0
 11
370.90129400000001
 21
283.91486300000003
 31
0.0
  0
LINE
  5
12C3B
  8
WAKU
  6
CONTINUOUS
 10
370.90129400000001
 20
283.91486300000003
 30
0.0
 11
371.29698399999972
 21
284.01036800000003
 31
0.0
  0
LINE
  5
12C3C
  8
WAKU
  6
CONTINUOUS
 10
371.29698399999972
 20
284.01036800000003
 30
0.0
 11
371.75188199999991
 21
284.20279799999992
 31
0.0
  0
LINE
  5
12C3D
  8
WAKU
  6
CONTINUOUS
 10
371.75188199999991
 20
284.20279799999992
 30
0.0
 11
372.23749700000002
 21
284.48611699999992
 31
0.0
  0
LINE
  5
12C3E
  8
WAKU
  6
CONTINUOUS
 10
372.23749700000002
 20
284.48611699999992
 30
0.0
 11
373.195965
 21
285.2752319999999
 31
0.0
  0
LINE
  5
12C3F
  8
WAKU
  6
CONTINUOUS
 10
373.195965
 20
285.2752319999999
 30
0.0
 11
373.98505
 21
286.23371800000001
 31
0.0
  0
LINE
  5
12C40
  8
WAKU
  6
CONTINUOUS
 10
373.98505
 20
286.23371800000001
 30
0.0
 11
374.268507
 21
286.71927799999992
 31
0.0
  0
LINE
  5
12C41
  8
WAKU
  6
CONTINUOUS
 10
374.268507
 20
286.71927799999992
 30
0.0
 11
374.46071000000001
 21
287.17424799999992
 31
0.0
  0
LINE
  5
12C42
  8
WAKU
  6
CONTINUOUS
 10
374.46071000000001
 20
287.17424799999992
 30
0.0
 11
374.55636099999998
 21
287.56986399999988
 31
0.0
  0
LINE
  5
12C43
  8
WAKU
  6
CONTINUOUS
 10
374.55636099999998
 20
287.56986399999988
 30
0.0
 11
374.561802
 21
287.87725299999983
 31
0.0
  0
LINE
  5
12C44
  8
WAKU
  6
CONTINUOUS
 10
374.561802
 20
287.87725299999983
 30
0.0
 11
374.502951
 21
288.07791800000001
 31
0.0
  0
LINE
  5
12C45
  8
WAKU
  6
CONTINUOUS
 10
374.502951
 20
288.07791800000001
 30
0.0
 11
374.40481
 21
288.19624900000002
 31
0.0
  0
LINE
  5
12C46
  8
WAKU
  6
CONTINUOUS
 10
374.01922899999988
 20
288.29856899999982
 30
0.0
 11
373.510738
 21
288.21123999999998
 31
0.0
  0
LINE
  5
12C47
  8
WAKU
  6
CONTINUOUS
 10
373.510738
 20
288.21123999999998
 30
0.0
 11
372.87987799999991
 21
287.94005699999991
 31
0.0
  0
LINE
  5
12C48
  8
WAKU
  6
CONTINUOUS
 10
372.87987799999991
 20
287.94005699999991
 30
0.0
 11
372.202181
 21
287.49899099999999
 31
0.0
  0
LINE
  5
12C49
  8
WAKU
  6
CONTINUOUS
 10
372.202181
 20
287.49899099999999
 30
0.0
 11
371.54582699999992
 21
286.92489299999988
 31
0.0
  0
LINE
  5
12C4A
  8
WAKU
  6
CONTINUOUS
 10
371.54582699999992
 20
286.92489299999988
 30
0.0
 11
370.97189600000002
 21
286.26847099999992
 31
0.0
  0
LINE
  5
12C4B
  8
WAKU
  6
CONTINUOUS
 10
370.97189600000002
 20
286.26847099999992
 30
0.0
 11
370.53071199999999
 21
285.59087499999993
 31
0.0
  0
LINE
  5
12C4C
  8
WAKU
  6
CONTINUOUS
 10
370.53071199999999
 20
285.59087499999993
 30
0.0
 11
370.26016800000002
 21
284.959969
 31
0.0
  0
LINE
  5
12C4D
  8
WAKU
  6
CONTINUOUS
 10
370.26016800000002
 20
284.959969
 30
0.0
 11
370.172911
 21
284.45185600000002
 31
0.0
  0
LINE
  5
12C4E
  8
WAKU
  6
CONTINUOUS
 10
370.27517699999993
 20
284.06647599999991
 30
0.0
 11
370.70945799999993
 21
284.14239700000002
 31
0.0
  0
LINE
  5
12C4F
  8
WAKU
  6
CONTINUOUS
 10
370.70945799999993
 20
284.14239700000002
 30
0.0
 11
371.18642799999992
 21
284.31462499999992
 31
0.0
  0
LINE
  5
12C50
  8
WAKU
  6
CONTINUOUS
 10
371.18642799999992
 20
284.31462499999992
 30
0.0
 11
371.68776999999989
 21
284.57654500000001
 31
0.0
  0
LINE
  5
12C51
  8
WAKU
  6
CONTINUOUS
 10
371.68776999999989
 20
284.57654500000001
 30
0.0
 11
372.194232
 21
284.91809899999993
 31
0.0
  0
LINE
  5
12C52
  8
WAKU
  6
CONTINUOUS
 10
372.194232
 20
284.91809899999993
 30
0.0
 11
372.68636299999991
 21
285.32617099999982
 31
0.0
  0
LINE
  5
12C53
  8
WAKU
  6
CONTINUOUS
 10
372.68636299999991
 20
285.32617099999982
 30
0.0
 11
373.14526599999988
 21
285.78508900000003
 31
0.0
  0
LINE
  5
12C54
  8
WAKU
  6
CONTINUOUS
 10
373.14526599999988
 20
285.78508900000003
 30
0.0
 11
373.553316
 21
286.27722899999992
 31
0.0
  0
LINE
  5
12C55
  8
WAKU
  6
CONTINUOUS
 10
373.553316
 20
286.27722899999992
 30
0.0
 11
373.89484299999992
 21
286.78369300000008
 31
0.0
  0
LINE
  5
12C56
  8
WAKU
  6
CONTINUOUS
 10
373.89484299999992
 20
286.78369300000008
 30
0.0
 11
374.15673199999992
 21
287.28502999999989
 31
0.0
  0
LINE
  5
12C57
  8
WAKU
  6
CONTINUOUS
 10
374.15673199999992
 20
287.28502999999989
 30
0.0
 11
374.32892500000003
 21
287.76198699999992
 31
0.0
  0
LINE
  5
12C58
  8
WAKU
  6
CONTINUOUS
 10
374.32892500000003
 20
287.76198699999992
 30
0.0
 11
374.40481
 21
288.19624900000002
 31
0.0
  0
LINE
  5
12C59
  8
WAKU
  6
CONTINUOUS
 10
374.36348399999991
 20
288.64263
 30
0.0
 11
374.22530599999988
 21
288.92089499999997
 31
0.0
  0
LINE
  5
12C5A
  8
WAKU
  6
CONTINUOUS
 10
374.22530599999988
 20
288.92089499999997
 30
0.0
 11
373.99882100000002
 21
289.11575699999992
 31
0.0
  0
LINE
  5
12C5B
  8
WAKU
  6
CONTINUOUS
 10
373.99882100000002
 20
289.11575699999992
 30
0.0
 11
373.69234799999992
 21
289.22005999999982
 31
0.0
  0
LINE
  5
12C5C
  8
WAKU
  6
CONTINUOUS
 10
373.69234799999992
 20
289.22005999999982
 30
0.0
 11
373.31714299999999
 21
289.22997199999998
 31
0.0
  0
LINE
  5
12C5D
  8
WAKU
  6
CONTINUOUS
 10
373.31714299999999
 20
289.22997199999998
 30
0.0
 11
372.88698799999992
 21
289.145129
 31
0.0
  0
LINE
  5
12C5E
  8
WAKU
  6
CONTINUOUS
 10
372.88698799999992
 20
289.145129
 30
0.0
 11
372.41768300000001
 21
288.96864799999992
 31
0.0
  0
LINE
  5
12C5F
  8
WAKU
  6
CONTINUOUS
 10
372.41768300000001
 20
288.96864799999992
 30
0.0
 11
371.92646400000001
 21
288.70701000000003
 31
0.0
  0
LINE
  5
12C60
  8
WAKU
  6
CONTINUOUS
 10
371.92646400000001
 20
288.70701000000003
 30
0.0
 11
371.43137400000001
 21
288.36982599999999
 31
0.0
  0
LINE
  5
12C61
  8
WAKU
  6
CONTINUOUS
 10
371.43137400000001
 20
288.36982599999999
 30
0.0
 11
370.95059900000001
 21
287.96947999999992
 31
0.0
  0
LINE
  5
12C62
  8
WAKU
  6
CONTINUOUS
 10
370.95059900000001
 20
287.96947999999992
 30
0.0
 11
370.50179500000002
 21
287.52067699999992
 31
0.0
  0
LINE
  5
12C63
  8
WAKU
  6
CONTINUOUS
 10
370.50179500000002
 20
287.52067699999992
 30
0.0
 11
370.10144899999989
 21
287.03990099999982
 31
0.0
  0
LINE
  5
12C64
  8
WAKU
  6
CONTINUOUS
 10
370.10144899999989
 20
287.03990099999982
 30
0.0
 11
369.76426499999991
 21
286.54481199999992
 31
0.0
  0
LINE
  5
12C65
  8
WAKU
  6
CONTINUOUS
 10
369.76426499999991
 20
286.54481199999992
 30
0.0
 11
369.50262700000002
 21
286.05359299999992
 31
0.0
  0
LINE
  5
12C66
  8
WAKU
  6
CONTINUOUS
 10
369.50262700000002
 20
286.05359299999992
 30
0.0
 11
369.32614599999988
 21
285.58428700000002
 31
0.0
  0
LINE
  5
12C67
  8
WAKU
  6
CONTINUOUS
 10
369.32614599999988
 20
285.58428700000002
 30
0.0
 11
369.24130299999968
 21
285.15413199999989
 31
0.0
  0
LINE
  5
12C68
  8
WAKU
  6
CONTINUOUS
 10
369.24130299999968
 20
285.15413199999989
 30
0.0
 11
369.251215
 21
284.77892800000001
 31
0.0
  0
LINE
  5
12C69
  8
WAKU
  6
CONTINUOUS
 10
369.251215
 20
284.77892800000001
 30
0.0
 11
369.35551800000002
 21
284.47245400000008
 31
0.0
  0
LINE
  5
12C6A
  8
WAKU
  6
CONTINUOUS
 10
369.35551800000002
 20
284.47245400000008
 30
0.0
 11
369.55038100000002
 21
284.245969
 31
0.0
  0
LINE
  5
12C6B
  8
WAKU
  6
CONTINUOUS
 10
369.55038100000002
 20
284.245969
 30
0.0
 11
369.82864599999988
 21
284.10779100000002
 31
0.0
  0
INSERT
  5
12C6C
  8
WAKU
  6
CONTINUOUS
  2
*U2
 10
0.0
 20
0.0
 30
0.0
1001
ACAD
1002
{
1000
R14_HATCH_DATA
1000
D6F
1011
1.0
1021
0.0
1031
0.0
1021
0.0
1031
0.0
1011
0.0
1021
0.0
1031
0.0
1021
1.0
1031
0.0
1011
0.0
1021
0.0
1031
0.0
1021
0.0
1031
1.0
1040
0.0
1010
0.0
1020
0.0
1030
1.0
1000
SOLID
1070
     1
1070
     1
1071
       15
1071
        7
1070
     0
1070
     1
1071
        3
1040
372.24905299999989
1040
290.5
1040
367.97127599999999
1040
290.5
1040
367.97127599999999
1040
286.22222199999982
1071
        3
1005
CC0
1005
CC2
1005
CC1
1071
        7
1070
     0
1070
     1
1071
       38
1040
373.99882100000002
1040
289.11575699999992
1040
373.69234799999992
1040
289.22005999999982
1040
373.31714299999999
1040
289.22997199999998
1040
372.88698799999992
1040
289.145129
1040
372.41768300000001
1040
288.96864799999992
1040
371.92646400000001
1040
288.70701000000003
1040
371.43137400000001
1040
288.36982599999999
1040
370.95059900000001
1040
287.96947999999992
1040
370.50179500000002
1040
287.52067699999992
1040
370.10144899999989
1040
287.03990099999982
1040
369.76426499999991
1040
286.54481199999992
1040
369.50262700000002
1040
286.05359299999992
1040
369.32614599999988
1040
285.58428700000002
1040
369.24130299999968
1040
285.15413199999989
1040
369.251215
1040
284.77892800000001
1040
369.35551800000002
1040
284.47245400000008
1040
369.55038100000002
1040
284.245969
1040
369.82864599999988
1040
284.10779100000002
1040
369.96682399999992
1040
283.82952599999982
1040
370.193309
1040
283.63466399999999
1040
370.49978199999993
1040
283.53036100000003
1040
370.87498699999992
1040
283.52044899999993
1040
371.30514199999988
1040
283.60529100000002
1040
371.77444800000001
1040
283.78177299999987
1040
372.26566600000001
1040
284.04341099999982
1040
372.76075600000001
1040
284.38059500000008
1040
373.24153200000001
1040
284.78094099999993
1040
373.69033499999989
1040
285.22974399999998
1040
374.09068100000002
1040
285.71051999999992
1040
374.427865
1040
286.20560899999992
1040
374.689503
1040
286.69682799999998
1040
374.86598399999991
1040
287.166134
1040
374.950827
1040
287.59628900000001
1040
374.94091500000002
1040
287.97149300000001
1040
374.836612
1040
288.27796699999999
1040
374.641749
1040
288.50445200000001
1040
374.36348399999991
1040
288.64263
1040
374.22530599999988
1040
288.92089499999997
1071
       38
1005
D5D
1005
D5E
1005
D5F
1005
D60
1005
D61
1005
D62
1005
D63
1005
D64
1005
D65
1005
D66
1005
D67
1005
D68
1005
D69
1005
D6A
1005
D6B
1005
D6C
1005
D6D
1005
D6E
1005
D07
1005
D08
1005
D09
1005
D0A
1005
D0B
1005
D0C
1005
D0D
1005
D0E
1005
D0F
1005
D10
1005
D11
1005
D12
1005
D13
1005
D14
1005
D15
1005
D16
1005
D17
1005
D18
1005
D19
1005
D5C
1071
       22
1070
     0
1070
     1
1071
       25
1040
373.799148
1040
288.78192899999988
1040
373.91694100000001
1040
288.683944
1040
373.48263600000001
1040
288.60801400000003
1040
373.00563899999992
1040
288.43576799999988
1040
372.50426900000002
1040
288.17382099999992
1040
371.99778300000003
1040
287.83223500000003
1040
371.50563199999988
1040
287.424128
1040
371.04671999999999
1040
286.96517399999999
1040
370.63867099999987
1040
286.47300000000001
1040
370.29715599999992
1040
285.96650899999992
1040
370.03529300000002
1040
285.46515399999993
1040
369.86313899999999
1040
284.98818899999992
1040
369.787305
1040
284.55393500000002
1040
369.68915499999991
1040
284.67243500000001
1040
369.63035799999989
1040
284.873087
1040
369.635696
1040
285.18040400000001
1040
369.73149000000001
1040
285.57602099999991
1040
369.923519
1040
286.03102799999982
1040
370.20703500000002
1040
286.51657
1040
370.99609800000002
1040
287.47510799999992
1040
371.954587
1040
288.26428399999992
1040
372.44023499999992
1040
288.54758500000003
1040
372.89513999999991
1040
288.74006500000002
1040
373.29085699999968
1040
288.83558099999982
1040
373.59799600000002
1040
288.84090200000003
1071
       25
1005
D2D
1005
D1A
1005
D1B
1005
D1C
1005
D1D
1005
D1E
1005
D1F
1005
D20
1005
D21
1005
D22
1005
D23
1005
D24
1005
D3A
1005
D39
1005
D38
1005
D37
1005
D36
1005
D35
1005
D34
1005
D33
1005
D32
1005
D31
1005
D30
1005
D2F
1005
D2E
1071
       22
1070
     0
1070
     1
1071
       16
1040
374.01922899999988
1040
288.29856899999982
1040
373.93207100000001
1040
287.79040199999992
1040
373.66135299999991
1040
287.15953400000001
1040
373.22023799999988
1040
286.48191999999989
1040
372.64629600000001
1040
285.82550600000002
1040
371.98993999999999
1040
285.25143100000003
1040
371.31226299999992
1040
284.81033199999968
1040
370.68139500000001
1040
284.53919500000001
1040
370.172911
1040
284.45185600000002
1040
370.26016800000002
1040
284.959969
1040
370.53071199999999
1040
285.59087499999993
1040
370.97189600000002
1040
286.26847099999992
1040
371.54582699999992
1040
286.92489299999988
1040
372.202181
1040
287.49899099999999
1040
372.87987799999991
1040
287.94005699999991
1040
373.510738
1040
288.21123999999998
1071
       16
1005
D2C
1005
D2B
1005
D2A
1005
D29
1005
D28
1005
D27
1005
D26
1005
D25
1005
D50
1005
D4F
1005
D4E
1005
D4D
1005
D4C
1005
D4B
1005
D4A
1005
D49
1071
       22
1070
     0
1070
     1
1071
       25
1040
374.40481
1040
288.19624900000002
1040
374.502951
1040
288.07791800000001
1040
374.561802
1040
287.87725299999983
1040
374.55636099999998
1040
287.56986399999988
1040
374.46071000000001
1040
287.17424799999992
1040
374.268507
1040
286.71927799999992
1040
373.98505
1040
286.23371800000001
1040
373.195965
1040
285.2752319999999
1040
372.23749700000002
1040
284.48611699999992
1040
371.75188199999991
1040
284.20279799999992
1040
371.29698399999972
1040
284.01036800000003
1040
370.90129400000001
1040
283.91486300000003
1040
370.59417699999989
1040
283.90949799999999
1040
370.39292699999987
1040
283.968568
1040
370.27517699999993
1040
284.06647599999991
1040
370.70945799999993
1040
284.14239700000002
1040
371.18642799999992
1040
284.31462499999992
1040
371.68776999999989
1040
284.57654500000001
1040
372.194232
1040
284.91809899999993
1040
372.68636299999991
1040
285.32617099999982
1040
373.14526599999988
1040
285.78508900000003
1040
373.553316
1040
286.27722899999992
1040
373.89484299999992
1040
286.78369300000008
1040
374.15673199999992
1040
287.28502999999989
1040
374.32892500000003
1040
287.76198699999992
1071
       25
1005
D48
1005
D47
1005
D46
1005
D45
1005
D44
1005
D43
1005
D42
1005
D41
1005
D40
1005
D3F
1005
D3E
1005
D3D
1005
D3C
1005
D3B
1005
D51
1005
D52
1005
D53
1005
D54
1005
D55
1005
D56
1005
D57
1005
D58
1005
D59
1005
D5A
1005
D5B
1071
        7
1070
     0
1070
     1
1071
       14
1040
378.72307699999988
1040
290.5
1040
378.09592799999979
1040
288.7769229999999
1040
380.31131299999993
1040
288.7769229999999
1040
377.15520499999991
1040
286.19230800000003
1040
376.17528499999992
1040
283.49999999999989
1040
379.39714500000002
1040
286.13846199999989
1040
378.436824
1040
283.49999999999989
1040
379.51374700000002
1040
283.49999999999989
1040
380.49366700000002
1040
286.19230800000003
1040
381.775285
1040
283.49999999999989
1040
382.75520499999988
1040
286.19230800000003
1040
381.52485099999973
1040
288.7769229999999
1040
383.69592799999992
1040
288.7769229999999
1040
384.32307700000001
1040
290.5
1071
       14
1005
CC4
1005
CCF
1005
CCE
1005
CC5
1005
CC7
1005
CC8
1005
CCD
1005
CCC
1005
CCB
1005
CCA
1005
CC9
1005
CC6
1005
CC3
1005
CDC
1071
        7
1070
     0
1070
     1
1071
        4
1040
385.615385
1040
290.5
1040
384.98823599999992
1040
288.7769229999999
1040
390.37285099999991
1040
288.7769229999999
1040
391.0
1040
290.5
1071
        4
1005
CDA
1005
CDB
1005
CD9
1005
CE3
1071
        7
1070
     0
1070
     1
1071
        4
1040
388.45220799999993
1040
283.49999999999989
1040
389.23614399999991
1040
285.65384599999987
1040
383.85152900000003
1040
285.65384599999987
1040
383.06759299999987
1040
283.49999999999989
1071
        4
1005
CD3
1005
CD4
1005
CD5
1005
CD2
1071
        7
1070
     0
1070
     1
1071
       22
1040
395.45220799999993
1040
283.49999999999989
1040
396.941687
1040
287.592308
1040
397.74937899999998
1040
287.592308
1040
398.33733100000001
1040
289.20769200000001
1040
397.52963799999992
1040
289.20769200000001
1040
398.0
1040
290.5
1040
396.92307699999992
1040
290.5
1040
396.45271500000001
1040
289.20769200000001
1040
393.76040799999993
1040
289.20769200000001
1040
394.23076900000001
1040
290.5
1040
393.15384599999999
1040
290.5
1040
392.68348500000002
1040
289.20769200000001
1040
391.87579199999999
1040
289.20769200000001
1040
391.28784000000002
1040
287.592308
1040
392.09553299999988
1040
287.592308
1040
391.70356499999991
1040
286.51538499999998
1040
392.78048799999999
1040
286.51538499999998
1040
393.17245600000001
1040
287.592308
1040
395.86476299999993
1040
287.592308
1040
395.159221
1040
285.65384599999987
1040
391.17460599999998
1040
285.65384599999987
1040
390.39067
1040
283.49999999999989
1071
       22
1005
CFB
1005
CFC
1005
CFA
1005
CF9
1005
CF8
1005
CFE
1005
CBC
1005
CDE
1005
CDD
1005
CE2
1005
CDF
1005
CE1
1005
CE0
1005
CD1
1005
CD7
1005
CD0
1005
CBD
1005
CBF
1005
CD6
1005
CD8
1005
CBE
1005
CF0
1071
        7
1070
     0
1070
     1
1071
        6
1040
398.19400599999989
1040
285.115385
1040
397.60605499999991
1040
283.49999999999989
1040
401.913747
1040
283.49999999999989
1040
403.87358699999999
1040
288.884615
1040
402.7966629999998
1040
288.884615
1040
401.42477599999989
1040
285.115385
1071
        6
1005
D01
1005
CEF
1005
CF3
1005
CF4
1005
CF1
1005
CEE
1071
       23
1070
     0
1070
     1
1071
        4
1040
402.04281700000001
1040
288.884615
1040
400.96589399999988
1040
288.884615
1040
400.18195800000001
1040
286.73076900000001
1040
401.25888099999992
1040
286.73076900000001
1071
        4
1005
CF7
1005
CEB
1005
CF5
1005
CED
1071
       23
1070
     0
1070
     1
1071
        4
1040
400.64281699999992
1040
288.884615
1040
399.56589400000001
1040
288.884615
1040
398.78195799999997
1040
286.73076900000001
1040
399.858881
1040
286.73076900000001
1071
        4
1005
CFD
1005
CEA
1005
CF2
1005
CEC
1071
       23
1070
     0
1070
     1
1071
        4
1040
406.615385
1040
290.5
1040
405.98823599999992
1040
288.7769229999999
1040
409.21900499999998
1040
288.7769229999999
1040
409.84615400000001
1040
290.5
1071
        4
1005
CE9
1005
CFF
1005
CE8
1005
D04
1071
       23
1070
     0
1070
     1
1071
        4
1040
405.75305500000002
1040
288.13076899999982
1040
405.28269399999999
1040
286.83846199999999
1040
408.51346299999989
1040
286.83846199999999
1040
408.98382400000003
1040
288.13076899999982
1071
        4
1005
CE4
1005
D00
1005
CE5
1005
D06
1071
        7
1070
     0
1070
     1
1071
        6
1040
409.45220799999993
1040
283.49999999999989
1040
412.0
1040
290.5
1040
410.92307699999992
1040
290.5
1040
409.15922099999989
1040
285.65384599999987
1040
404.85152900000003
1040
285.65384599999987
1040
404.06759299999987
1040
283.49999999999989
1071
        6
1005
D05
1005
D02
1005
CE7
1005
CF6
1005
CE6
1005
D03
1070
     0
1070
     1
1040
0.054099
1071
       15
1040
371.24837300000002
1040
289.88140899999991
1040
0.0
1040
373.90111799999988
1040
288.90763299999992
1040
0.0
1040
373.90111799999988
1040
288.90763299999992
1040
0.0
1040
373.90111799999988
1040
288.90763299999992
1040
0.0
1040
373.90111799999988
1040
288.90763299999992
1040
0.0
1040
380.34350000000001
1040
289.82731000000001
1040
0.0
1040
388.24759699999993
1040
289.66501399999993
1040
0.0
1040
386.51519200000001
1040
284.14694900000001
1040
0.0
1040
392.57860899999991
1040
284.25514599999991
1040
0.0
1040
400.53684500000003
1040
284.30924499999992
1040
0.0
1040
401.02408299999979
1040
287.55516599999982
1040
0.0
1040
399.72478000000001
1040
287.60926399999988
1040
0.0
1040
407.35818899999981
1040
289.98960599999992
1040
0.0
1040
407.141639
1040
287.50106699999992
1040
0.0
1040
407.19577600000002
1040
284.471541
1040
0.0
1002
}
  0
TEXT
  5
12C6D
  8
WAKU
  6
CONTINUOUS
 10
6.4748832926607047
 20
284.5
 30
0.0
 40
5.0
  1
ＲＣアングルなし枠FIX窓断面詳細図（厚板用）
 41
0.9129999999999999
 11
6.4748832926607047
 21
287.0
 31
0.0
 73
     2
  0
TEXT
  5
12C6E
  8
WAKU
  6
CONTINUOUS
 10
-22.78275695099228
 20
285.5
 30
0.0
 40
3.0
  1
FNSシリーズ
 41
0.8679999999999999
 11
-22.78275695099228
 21
287.0
 31
0.0
 73
     2
  0
LINE
  5
12C6F
  8
SUNPO
  6
CONTINUOUS
 10
126.1556945144338
 20
96.758541102105966
 30
0.0
 11
126.1556945144338
 21
46.758541102105951
 31
0.0
  0
LINE
  5
12C70
  8
DANMEN
  6
CONTINUOUS
 10
74.505694514433884
 20
104.7585411021058
 30
0.0
 11
74.505694514433884
 21
46.758541102105951
 31
0.0
  0
LINE
  5
12C71
  8
DANMEN
  6
CONTINUOUS
 10
52.15569451443389
 20
104.7585411021058
 30
0.0
 11
52.15569451443389
 21
46.758541102105951
 31
0.0
  0
LINE
  5
12C72
  8
DANMEN
  6
CONTINUOUS
 10
76.15569451443389
 20
104.7585411021058
 30
0.0
 11
76.15569451443389
 21
46.258541102105951
 31
0.0
  0
LINE
  5
12C73
  8
SUNPO
  6
CONTINUOUS
 10
41.655694514433883
 20
48.258541102105951
 30
0.0
 11
41.655694514433883
 21
74.758541102105852
 31
0.0
  0
LINE
  5
12C74
  8
DANMEN
  6
CONTINUOUS
 10
43.142301514433854
 20
104.7585411021058
 30
0.0
 11
43.142301514433854
 21
46.758541102105951
 31
0.0
  0
LINE
  5
12C75
  8
DANMEN
  6
CONTINUOUS
 10
21.655694514433879
 20
104.7585411021058
 30
0.0
 11
21.655694514433879
 21
46.758541102105951
 31
0.0
  0
LINE
  5
12C76
  8
DANMEN
  6
CONTINUOUS
 10
25.65569451443389
 20
34.75854110210593
 30
0.0
 11
25.65569451443389
 21
104.7585411021058
 31
0.0
  0
LINE
  5
12C77
  8
DANMEN
  6
CONTINUOUS
 10
26.15569451443389
 20
34.75854110210593
 30
0.0
 11
26.15569451443389
 21
104.7585411021058
 31
0.0
  0
LINE
  5
12C78
  8
DANMEN
  6
CONTINUOUS
 10
33.655694514433897
 20
34.75854110210593
 30
0.0
 11
33.655694514433897
 21
104.7585411021058
 31
0.0
  0
LINE
  5
12C79
  8
DANMEN
  6
CONTINUOUS
 10
33.15569451443389
 20
34.75854110210593
 30
0.0
 11
33.15569451443389
 21
104.7585411021058
 31
0.0
  0
LINE
  5
12C7A
  8
DANMEN
  6
CONTINUOUS
 10
7.8056945144338883
 20
104.7585411021058
 30
0.0
 11
7.8056945144338883
 21
-3.241473897894052
 31
0.0
  0
LINE
  5
12C7B
  8
DANMEN
  6
CONTINUOUS
 10
14.155694514433881
 20
104.7585411021058
 30
0.0
 11
14.155694514433881
 21
16.758541102105951
 31
0.0
  0
LINE
  5
12C7C
  8
DANMEN
  6
CONTINUOUS
 10
6.1556945144338879
 20
104.7585411021058
 30
0.0
 11
6.1556945144338879
 21
-3.741473897894052
 31
0.0
  0
LINE
  5
12C7D
  8
DANMEN
  6
CONTINUOUS
 10
72.65569451443389
 20
45.558541102105941
 30
0.0
 11
74.505694514433884
 21
45.558541102105941
 31
0.0
  0
LINE
  5
12C7E
  8
DANMEN
  6
CONTINUOUS
 10
73.15569451443389
 20
46.758541102105951
 30
0.0
 11
75.65569451443389
 21
46.758541102105951
 31
0.0
  0
LINE
  5
12C7F
  8
DANMEN
  6
CONTINUOUS
 10
52.15569451443389
 20
41.758541102105923
 30
0.0
 11
74.505694514433884
 21
41.758541102105923
 31
0.0
  0
LINE
  5
12C80
  8
DANMEN
  6
CONTINUOUS
 10
52.15569451443389
 20
40.10854110210596
 30
0.0
 11
74.505694514433884
 21
40.10854110210596
 31
0.0
  0
LINE
  5
12C81
  8
DANMEN
  6
CONTINUOUS
 10
73.815410514433793
 20
29.53369310210595
 30
0.0
 11
58.15569451443389
 21
24.758541102105919
 31
0.0
  0
LINE
  5
12C82
  8
DANMEN
  6
CONTINUOUS
 10
74.356331514433904
 20
12.97620910210594
 30
0.0
 11
72.02887951443391
 21
11.964274102105939
 31
0.0
  0
LINE
  5
12C83
  8
DANMEN
  6
CONTINUOUS
 10
74.505700514433883
 20
14.840361102105939
 30
0.0
 11
71.370981514433907
 21
13.477440102105939
 31
0.0
  0
LINE
  5
12C84
  8
DANMEN
  6
CONTINUOUS
 10
74.505700514433883
 20
28.01917810210594
 30
0.0
 11
59.164021514433891
 21
23.341006102105951
 31
0.0
  0
LINE
  5
12C85
  8
DANMEN
  6
CONTINUOUS
 10
19.655694514433868
 20
-13.24145889789404
 30
0.0
 11
76.15569451443389
 21
-13.24145889789404
 31
0.0
  0
LINE
  5
12C86
  8
SUNPO
  6
CONTINUOUS
 10
4.6556945144338879
 20
46.758541102105951
 30
0.0
 11
-5.8443054855661103
 21
46.758541102105951
 31
0.0
  0
LINE
  5
12C87
  8
SUNPO
  6
CONTINUOUS
 10
4.6556945144338879
 20
16.758541102105951
 30
0.0
 11
-5.8443054855661103
 21
16.758541102105951
 31
0.0
  0
LINE
  5
12C88
  8
SUNPO
  6
CONTINUOUS
 10
4.6556945144338879
 20
-3.2414588978940402
 30
0.0
 11
-5.8443054855661103
 21
-3.2414588978940402
 31
0.0
  0
LINE
  5
12C89
  8
SUNPO
  6
CONTINUOUS
 10
4.6556945144338879
 20
-13.24145889789404
 30
0.0
 11
-5.8443054855661103
 21
-13.24145889789404
 31
0.0
  0
LINE
  5
12C8A
  8
SUNPO
  6
CONTINUOUS
 10
16.655694514433879
 20
-22.241458897894042
 30
0.0
 11
-5.8443054855661103
 21
-22.241458897894042
 31
0.0
  0
LINE
  5
12C8B
  8
SUNPO
  6
CONTINUOUS
 10
-5.8443054855661103
 20
-3.2414588978940402
 30
0.0
 11
-5.8443054855661103
 21
16.758541102105951
 31
0.0
  0
LINE
  5
12C8C
  8
SUNPO
  6
CONTINUOUS
 10
-5.8443054855661103
 20
-13.24145889789404
 30
0.0
 11
-5.8443054855661103
 21
-3.2414588978940402
 31
0.0
  0
LINE
  5
12C8D
  8
SUNPO
  6
CONTINUOUS
 10
-5.8443054855661103
 20
-22.241458897894042
 30
0.0
 11
-5.8443054855661103
 21
-13.24145889789404
 31
0.0
  0
TEXT
  5
12C8E
  8
SUNPO
  6
CONTINUOUS
 10
-6.8443054855661103
 20
-18.574791897894041
 30
0.0
 40
2.5
  1
9
 50
90.0
  0
ARC
  5
12C8F
  8
SUNPO
  6
BYBLOCK
 10
-5.8443054855661103
 20
-22.241458897894042
 30
0.0
 40
0.145
 50
90.0
 51
270.0
  0
ARC
  5
12C90
  8
SUNPO
  6
BYBLOCK
 10
-5.8443054855661103
 20
-22.241458897894042
 30
0.0
 40
0.145
 50
270.0
 51
90.0
  0
TEXT
  5
12C91
  8
SUNPO
  6
CONTINUOUS
 10
-6.8443054855661103
 20
-9.6997918978940447
 30
0.0
 40
2.5
  1
10
 50
90.0
  0
ARC
  5
12C92
  8
SUNPO
  6
BYBLOCK
 10
-5.8443054855661103
 20
-13.24145889789404
 30
0.0
 40
0.145
 50
90.0
 51
270.0
  0
ARC
  5
12C93
  8
SUNPO
  6
BYBLOCK
 10
-5.8443054855661103
 20
-13.24145889789404
 30
0.0
 40
0.145
 50
270.0
 51
90.0
  0
ARC
  5
12C94
  8
SUNPO
  6
BYBLOCK
 10
-5.8443054855661103
 20
-13.24145889789404
 30
0.0
 40
0.145
 50
270.0
 51
90.0
  0
ARC
  5
12C95
  8
SUNPO
  6
BYBLOCK
 10
-5.8443054855661103
 20
-13.24145889789404
 30
0.0
 40
0.145
 50
90.0
 51
270.0
  0
TEXT
  5
12C96
  8
SUNPO
  6
CONTINUOUS
 10
-6.8443054855661103
 20
4.8835411021059567
 30
0.0
 40
2.5
  1
20
 50
90.0
  0
ARC
  5
12C97
  8
SUNPO
  6
BYBLOCK
 10
-5.8443054855661103
 20
-3.2414588978940402
 30
0.0
 40
0.145
 50
270.0
 51
90.0
  0
ARC
  5
12C98
  8
SUNPO
  6
BYBLOCK
 10
-5.8443054855661103
 20
-3.2414588978940402
 30
0.0
 40
0.145
 50
90.0
 51
270.0
  0
ARC
  5
12C99
  8
SUNPO
  6
BYBLOCK
 10
-5.8443054855661103
 20
-3.2414588978940402
 30
0.0
 40
0.145
 50
90.0
 51
270.0
  0
ARC
  5
12C9A
  8
SUNPO
  6
BYBLOCK
 10
-5.8443054855661103
 20
-3.2414588978940402
 30
0.0
 40
0.145
 50
270.0
 51
90.0
  0
LINE
  5
12C9B
  8
SUNPO
  6
CONTINUOUS
 10
-5.8443054855661103
 20
16.758541102105951
 30
0.0
 11
-5.8443054855661103
 21
46.758541102105951
 31
0.0
  0
ARC
  5
12C9C
  8
SUNPO
  6
BYBLOCK
 10
-5.8443054855661103
 20
16.758541102105951
 30
0.0
 40
0.145
 50
90.0
 51
270.0
  0
ARC
  5
12C9D
  8
SUNPO
  6
BYBLOCK
 10
-5.8443054855661103
 20
16.758541102105951
 30
0.0
 40
0.145
 50
270.0
 51
90.0
  0
ARC
  5
12C9E
  8
SUNPO
  6
BYBLOCK
 10
-5.8443054855661103
 20
16.758541102105951
 30
0.0
 40
0.145
 50
270.0
 51
90.0
  0
ARC
  5
12C9F
  8
SUNPO
  6
BYBLOCK
 10
-5.8443054855661103
 20
16.758541102105951
 30
0.0
 40
0.145
 50
90.0
 51
270.0
  0
TEXT
  5
12CA0
  8
SUNPO
  6
CONTINUOUS
 10
-6.8443054855661103
 20
29.883541102105919
 30
0.0
 40
2.5
  1
30
 50
90.0
  0
ARC
  5
12CA1
  8
SUNPO
  6
BYBLOCK
 10
-5.8443054855661103
 20
46.758541102105951
 30
0.0
 40
0.145
 50
270.0
 51
90.0
  0
ARC
  5
12CA2
  8
SUNPO
  6
BYBLOCK
 10
-5.8443054855661103
 20
46.758541102105951
 30
0.0
 40
0.145
 50
90.0
 51
270.0
  0
LINE
  5
12CA3
  8
DANMEN
  6
CONTINUOUS
 10
30.15569451443389
 20
22.958541102105951
 30
0.0
 11
30.15569451443389
 21
1.7585411021059569
 31
0.0
  0
LINE
  5
12CA4
  8
DANMEN
  6
CONTINUOUS
 10
31.805694514433888
 20
22.958541102105951
 30
0.0
 11
31.805694514433888
 21
1.7585411021059569
 31
0.0
  0
LINE
  5
12CA5
  8
DANMEN
  6
CONTINUOUS
 10
35.527085514433892
 20
1.8300641021059421
 30
0.0
 11
35.341389514433857
 21
2.294303102105955
 31
0.0
  0
ARC
  5
12CA6
  8
DANMEN
  6
CONTINUOUS
 10
34.877151514433891
 20
2.1086071021059412
 30
0.0
 40
0.5
 50
21.801416999999919
 51
111.80140899999979
  0
ARC
  5
12CA7
  8
DANMEN
  6
CONTINUOUS
 10
35.062846514433872
 20
1.6443691021059459
 30
0.0
 40
0.5
 50
291.80140899999992
 51
21.801402000000049
  0
ARC
  5
12CA8
  8
DANMEN
  6
CONTINUOUS
 10
34.083146514433892
 20
-3.988650897894046
 30
0.0
 40
0.5
 50
293.49856
 51
23.498559999999909
  0
LINE
  5
12CA9
  8
DANMEN
  6
CONTINUOUS
 10
29.112218514433881
 20
-3.841458897894042
 30
0.0
 11
29.75696851443389
 21
-5.3243828978940542
 31
0.0
  0
LINE
  5
12CAA
  8
DANMEN
  6
CONTINUOUS
 10
21.457724514433881
 20
0.1085411021059528
 30
0.0
 11
7.8056885144338812
 21
-5.0627008978940449
 31
0.0
  0
LINE
  5
12CAB
  8
DANMEN
  6
CONTINUOUS
 10
6.1556945144338879
 20
-3.741473897894052
 30
0.0
 11
6.1556945144338879
 21
-12.74145889789404
 31
0.0
  0
LINE
  5
12CAC
  8
SUNPO
  6
CONTINUOUS
 10
18.15569451443389
 20
-20.241458897894031
 30
0.0
 11
6.1556945144338879
 21
-20.241458897894031
 31
0.0
  0
LINE
  5
12CAD
  8
DANMEN
  6
CONTINUOUS
 10
7.8056885144338812
 20
-11.59146489789403
 30
0.0
 11
18.65569451443389
 21
-11.59146489789403
 31
0.0
  0
LINE
  5
12CAE
  8
DANMEN
  6
CONTINUOUS
 10
6.6556945144338879
 20
-13.24145889789404
 30
0.0
 11
18.15569451443389
 21
-13.24145889789404
 31
0.0
  0
ARC
  5
12CAF
  8
SUNPO
  6
BYBLOCK
 10
6.1556945144338879
 20
-20.241458897894031
 30
0.0
 40
0.145
 50
180.0
 51
0.0
  0
ARC
  5
12CB0
  8
SUNPO
  6
BYBLOCK
 10
6.1556945144338879
 20
-20.241458897894031
 30
0.0
 40
0.145
 50
0.0
 51
180.0
  0
LINE
  5
12CB1
  8
SUNPO
  6
CONTINUOUS
 10
6.1556945144338879
 20
-14.741458897894031
 30
0.0
 11
6.1556945144338879
 21
-20.241458897894031
 31
0.0
  0
TEXT
  5
12CB2
  8
SUNPO
  6
CONTINUOUS
 10
10.48902751443388
 20
-19.241458897894031
 30
0.0
 40
2.5
  1
12
  0
ARC
  5
12CB3
  8
DANMEN
  6
CONTINUOUS
 10
6.6556945144338879
 20
-12.74145889789404
 30
0.0
 40
0.5
 50
180.00001900000001
 51
270.00000099999971
  0
LINE
  5
12CB4
  8
DANMEN
  6
CONTINUOUS
 10
7.8056885144338812
 20
-5.0627008978940449
 30
0.0
 11
7.8056885144338812
 21
-11.59146489789403
 31
0.0
  0
LINE
  5
12CB5
  8
DANMEN
  6
CONTINUOUS
 10
18.15569451443389
 20
-13.24145889789404
 30
0.0
 11
18.15569451443389
 21
-21.741458897894031
 31
0.0
  0
LINE
  5
12CB6
  8
DANMEN
  6
CONTINUOUS
 10
19.655694514433868
 20
-12.59146489789404
 30
0.0
 11
19.655694514433868
 21
-21.741458897894031
 31
0.0
  0
ARC
  5
12CB7
  8
SUNPO
  6
BYBLOCK
 10
18.15569451443389
 20
-20.241458897894031
 30
0.0
 40
0.145
 50
180.0
 51
0.0
  0
ARC
  5
12CB8
  8
SUNPO
  6
BYBLOCK
 10
18.15569451443389
 20
-20.241458897894031
 30
0.0
 40
0.145
 50
0.0
 51
180.0
  0
LINE
  5
12CB9
  8
DANMEN
  6
CONTINUOUS
 10
18.65569451443389
 20
-22.241458897894042
 30
0.0
 11
19.155694514433879
 21
-22.241458897894042
 31
0.0
  0
ARC
  5
12CBA
  8
DANMEN
  6
CONTINUOUS
 10
18.65569451443389
 20
-21.741458897894031
 30
0.0
 40
0.5
 50
180.00001900000001
 51
270.00000099999971
  0
ARC
  5
12CBB
  8
DANMEN
  6
CONTINUOUS
 10
19.155694514433879
 20
-21.741458897894031
 30
0.0
 40
0.5
 50
270.0000179999999
 51
0.0
  0
ARC
  5
12CBC
  8
DANMEN
  6
CONTINUOUS
 10
18.65569451443389
 20
-12.59146489789404
 30
0.0
 40
1.0
 50
0.0
 51
89.99998199999996
  0
ARC
  5
12CBD
  8
DANMEN
  6
CONTINUOUS
 10
30.674038514433889
 20
-4.9256568978940418
 30
0.0
 40
1.0
 50
203.49855999999991
 51
293.49856
  0
LINE
  5
12CBE
  8
DANMEN
  6
CONTINUOUS
 10
34.282509514433883
 20
-4.4471858978940428
 30
0.0
 11
31.072764514433871
 21
-5.8427268978940461
 31
0.0
  0
LINE
  5
12CBF
  8
DANMEN
  6
CONTINUOUS
 10
20.984515514433848
 20
1.6937001021059559
 30
0.0
 11
7.9556945144338789
 21
-3.241473897894052
 31
0.0
  0
LINE
  5
12CC0
  8
DANMEN
  6
CONTINUOUS
 10
6.1556945144338879
 20
-3.241473897894052
 30
0.0
 11
7.8056945144338883
 21
-3.241473897894052
 31
0.0
  0
LINE
  5
12CC1
  8
DANMEN
  6
CONTINUOUS
 10
6.6556945144338879
 20
-3.241473897894052
 30
0.0
 11
7.9556945144338789
 21
-3.241473897894052
 31
0.0
  0
ARC
  5
12CC2
  8
DANMEN
  6
CONTINUOUS
 10
6.6556945144338879
 20
-3.741473897894052
 30
0.0
 40
0.5
 50
90.0
 51
180.0
  0
ARC
  5
12CC3
  8
DANMEN
  6
CONTINUOUS
 10
26.355694514433889
 20
-0.9414588978940512
 30
0.0
 40
1.0
 50
90.0
 51
180.0
  0
ARC
  5
12CC4
  8
DANMEN
  6
CONTINUOUS
 10
25.75569451443387
 20
-3.541458897894044
 30
0.0
 40
0.3
 50
270.0
 51
0.0
  0
ARC
  5
12CC5
  8
DANMEN
  6
CONTINUOUS
 10
26.355694514433889
 20
-2.18751989789404
 30
0.0
 40
1.0
 50
180.0
 51
245.37568199999981
  0
LINE
  5
12CC6
  8
DANMEN
  6
CONTINUOUS
 10
21.338743514433862
 20
1.7585411021059569
 30
0.0
 11
30.15569451443389
 21
1.7585411021059569
 31
0.0
  0
ARC
  5
12CC7
  8
DANMEN
  6
CONTINUOUS
 10
22.855694514433889
 20
-0.8914588978940543
 30
0.0
 40
1.0
 50
0.0
 51
90.0
  0
LINE
  5
12CC8
  8
DANMEN
  6
CONTINUOUS
 10
21.457724514433881
 20
0.1085411021059528
 30
0.0
 11
22.855694514433889
 21
0.1085411021059528
 31
0.0
  0
ARC
  5
12CC9
  8
DANMEN
  6
CONTINUOUS
 10
21.338743514433862
 20
0.7585411021059585
 30
0.0
 40
1.0
 50
90.0
 51
110.7461380000001
  0
LINE
  5
12CCA
  8
DANMEN
  6
CONTINUOUS
 10
24.616315514433889
 20
-3.841458897894042
 30
0.0
 11
25.75569451443387
 21
-3.841458897894042
 31
0.0
  0
ARC
  5
12CCB
  8
DANMEN
  6
CONTINUOUS
 10
25.855694514433878
 20
-2.2717648978940441
 30
0.0
 40
2.0
 50
180.0
 51
231.706523
  0
LINE
  5
12CCC
  8
DANMEN
  6
CONTINUOUS
 10
25.355694514433889
 20
-2.18751989789404
 30
0.0
 11
25.355694514433889
 21
-0.9414588978940512
 31
0.0
  0
LINE
  5
12CCD
  8
DANMEN
  6
CONTINUOUS
 10
23.855694514433889
 20
-2.2717648978940441
 30
0.0
 11
23.855694514433889
 21
-0.8914588978940543
 31
0.0
  0
LINE
  5
12CCE
  8
DANMEN
  6
CONTINUOUS
 10
30.455694514433869
 20
0.1085471021059519
 30
0.0
 11
32.377000514433909
 21
0.1085471021059519
 31
0.0
  0
LINE
  5
12CCF
  8
DANMEN
  6
CONTINUOUS
 10
31.805694514433888
 20
1.7585411021059569
 30
0.0
 11
32.655694514433861
 21
1.7585411021059569
 31
0.0
  0
ARC
  5
12CD0
  8
DANMEN
  6
CONTINUOUS
 10
32.377000514433909
 20
1.1085471021059441
 30
0.0
 40
1.0
 50
270.0
 51
291.80140899999992
  0
ARC
  5
12CD1
  8
DANMEN
  6
CONTINUOUS
 10
27.955694514433869
 20
-0.9414588978940512
 30
0.0
 40
1.0
 50
0.0
 51
90.0
  0
LINE
  5
12CD2
  8
DANMEN
  6
CONTINUOUS
 10
34.691456514433888
 20
2.5728461021059541
 30
0.0
 11
32.655694514433861
 21
1.7585411021059569
 31
0.0
  0
LINE
  5
12CD3
  8
DANMEN
  6
CONTINUOUS
 10
35.248542514433879
 20
1.1801311021059531
 30
0.0
 11
32.748391514433891
 21
0.1800701021059439
 31
0.0
  0
LINE
  5
12CD4
  8
DANMEN
  6
CONTINUOUS
 10
34.282510514433888
 20
-3.1931928978940558
 30
0.0
 11
34.541681514433861
 21
-3.7892878978940399
 31
0.0
  0
ARC
  5
12CD5
  8
DANMEN
  6
CONTINUOUS
 10
33.8239745144339
 20
-3.3925558978940402
 30
0.0
 40
0.5
 50
23.498559999999909
 51
113.49856
  0
LINE
  5
12CD6
  8
DANMEN
  6
CONTINUOUS
 10
30.455694514433869
 20
-2.793273897894045
 30
0.0
 11
31.01096251443391
 21
-4.070389897894052
 31
0.0
  0
ARC
  5
12CD7
  8
DANMEN
  6
CONTINUOUS
 10
28.555694514433881
 20
-3.541458897894044
 30
0.0
 40
0.3
 50
180.0
 51
270.0
  0
LINE
  5
12CD8
  8
DANMEN
  6
CONTINUOUS
 10
28.555694514433881
 20
-3.841458897894042
 30
0.0
 11
29.112218514433881
 21
-3.841458897894042
 31
0.0
  0
ARC
  5
12CD9
  8
DANMEN
  6
CONTINUOUS
 10
28.455694514433858
 20
-3.278390897894055
 30
0.0
 40
0.2
 50
114.6243180000001
 51
180.0
  0
LINE
  5
12CDA
  8
DANMEN
  6
CONTINUOUS
 10
28.25569451443387
 20
-3.541458897894044
 30
0.0
 11
28.25569451443387
 21
-3.278390897894055
 31
0.0
  0
ARC
  5
12CDB
  8
DANMEN
  6
CONTINUOUS
 10
27.955694514433869
 20
-2.18751989789404
 30
0.0
 40
1.0
 50
294.62431800000002
 51
0.0
  0
LINE
  5
12CDC
  8
DANMEN
  6
CONTINUOUS
 10
33.624611514433887
 20
-2.9340208978940421
 30
0.0
 11
31.01096251443391
 21
-4.070389897894052
 31
0.0
  0
LINE
  5
12CDD
  8
DANMEN
  6
CONTINUOUS
 10
30.455694514433869
 20
-2.793273897894045
 30
0.0
 11
30.455694514433869
 21
0.1085471021059519
 31
0.0
  0
LINE
  5
12CDE
  8
DANMEN
  6
CONTINUOUS
 10
28.955694514433869
 20
-2.18751989789404
 30
0.0
 11
28.955694514433869
 21
-0.9414588978940512
 31
0.0
  0
LINE
  5
12CDF
  8
DANMEN
  6
CONTINUOUS
 10
26.055694514433881
 20
-3.541458897894044
 30
0.0
 11
26.055694514433881
 21
-3.278390897894055
 31
0.0
  0
ARC
  5
12CE0
  8
DANMEN
  6
CONTINUOUS
 10
25.855694514433878
 20
-3.278390897894055
 30
0.0
 40
0.2
 50
0.0
 51
65.375681999999898
  0
LINE
  5
12CE1
  8
DANMEN
  6
CONTINUOUS
 10
26.355694514433889
 20
0.0585411021059557
 30
0.0
 11
27.955694514433869
 21
0.0585411021059557
 31
0.0
  0
LINE
  5
12CE2
  8
DANMEN
  6
CONTINUOUS
 10
71.370981514433907
 20
12.22344610210596
 30
0.0
 11
71.111809514433887
 21
12.819542102105951
 31
0.0
  0
ARC
  5
12CE3
  8
DANMEN
  6
CONTINUOUS
 10
71.570344514433884
 20
13.018905102105951
 30
0.0
 40
0.5
 50
113.49856
 51
203.49855999999991
  0
ARC
  5
12CE4
  8
DANMEN
  6
CONTINUOUS
 10
71.829516514433891
 20
12.422809102105941
 30
0.0
 40
0.5
 50
203.49855999999991
 51
293.49856
  0
ARC
  5
12CE5
  8
DANMEN
  6
CONTINUOUS
 10
35.155318514433873
 20
45.305374102105951
 30
0.0
 40
0.5
 50
241.69008600000001
 51
359.99995399999978
  0
ARC
  5
12CE6
  8
DANMEN
  6
CONTINUOUS
 10
34.155318514433873
 20
46.237469102105962
 30
0.0
 40
1.5
 50
0.0
 51
75.963778999999931
  0
ARC
  5
12CE7
  8
DANMEN
  6
CONTINUOUS
 10
33.655318514433873
 20
41.938897102105919
 30
0.0
 40
2.0
 50
0.0000090000000101
 51
54.565066000000002
  0
LINE
  5
12CE8
  8
DANMEN
  6
CONTINUOUS
 10
41.97877751443388
 20
48.023333102105951
 30
0.0
 11
34.832611514433893
 21
48.82755110210595
 31
0.0
  0
LINE
  5
12CE9
  8
DANMEN
  6
CONTINUOUS
 10
36.309483514433879
 20
39.128485102105941
 30
0.0
 11
33.885684514433862
 21
40.683637102105919
 31
0.0
  0
ARC
  5
12CEA
  8
DANMEN
  6
CONTINUOUS
 10
35.155318514433873
 20
41.647372102105962
 30
0.0
 40
0.5
 50
244.4400839999999
 51
359.9999829999997
  0
LINE
  5
12CEB
  8
DANMEN
  6
CONTINUOUS
 10
50.50569451443387
 20
24.758541102105919
 30
0.0
 11
17.805694514433888
 21
24.758541102105919
 31
0.0
  0
LINE
  5
12CEC
  8
DANMEN
  6
CONTINUOUS
 10
23.155694514433868
 20
24.758541102105919
 30
0.0
 11
38.15569451443389
 21
24.758541102105919
 31
0.0
  0
LINE
  5
12CED
  8
DANMEN
  6
CONTINUOUS
 10
23.155694514433868
 20
34.75854110210593
 30
0.0
 11
38.15569451443389
 21
34.75854110210593
 31
0.0
  0
LINE
  5
12CEE
  8
DANMEN
  6
CONTINUOUS
 10
23.155694514433868
 20
24.758541102105919
 30
0.0
 11
38.155695514433859
 21
34.75854110210593
 31
0.0
  0
LINE
  5
12CEF
  8
DANMEN
  6
CONTINUOUS
 10
31.805694514433888
 20
22.958541102105951
 30
0.0
 11
50.855694514433893
 21
22.958541102105951
 31
0.0
  0
LINE
  5
12CF0
  8
DANMEN
  6
CONTINUOUS
 10
17.805694514433888
 20
35.758541102105937
 30
0.0
 11
17.805694514433888
 21
24.758541102105919
 31
0.0
  0
LINE
  5
12CF1
  8
DANMEN
  6
CONTINUOUS
 10
23.155694514433868
 20
34.75854110210593
 30
0.0
 11
23.155694514433868
 21
24.758541102105919
 31
0.0
  0
LINE
  5
12CF2
  8
DANMEN
  6
CONTINUOUS
 10
16.15569451443389
 20
46.258541102105951
 30
0.0
 11
16.15569451443389
 21
17.258541102105951
 31
0.0
  0
ARC
  5
12CF3
  8
DANMEN
  6
CONTINUOUS
 10
16.655694514433879
 20
17.258541102105951
 30
0.0
 40
0.5
 50
180.0
 51
270.0
  0
LINE
  5
12CF4
  8
DANMEN
  6
CONTINUOUS
 10
14.155694514433881
 20
16.758541102105951
 30
0.0
 11
16.655694514433879
 21
16.758541102105951
 31
0.0
  0
LINE
  5
12CF5
  8
DANMEN
  6
CONTINUOUS
 10
17.65569451443389
 20
22.958541102105951
 30
0.0
 11
30.15569451443389
 21
22.958541102105951
 31
0.0
  0
LINE
  5
12CF6
  8
DANMEN
  6
CONTINUOUS
 10
16.655694514433879
 20
16.758541102105951
 30
0.0
 11
17.155694514433868
 21
16.758541102105951
 31
0.0
  0
ARC
  5
12CF7
  8
DANMEN
  6
CONTINUOUS
 10
17.155694514433868
 20
17.258541102105951
 30
0.0
 40
0.5
 50
270.0
 51
0.0
  0
LINE
  5
12CF8
  8
DANMEN
  6
CONTINUOUS
 10
17.65569451443389
 20
22.958541102105951
 30
0.0
 11
17.65569451443389
 21
17.258541102105951
 31
0.0
  0
ARC
  5
12CF9
  8
DANMEN
  6
CONTINUOUS
 10
16.655694514433879
 20
46.258541102105951
 30
0.0
 40
0.5
 50
90.0
 51
180.0
  0
ARC
  5
12CFA
  8
DANMEN
  6
CONTINUOUS
 10
34.155694514433883
 20
44.651173102105957
 30
0.0
 40
0.5
 50
179.99996399999989
 51
234.56508899999989
  0
ARC
  5
12CFB
  8
DANMEN
  6
CONTINUOUS
 10
25.455694514433869
 20
44.258541102105951
 30
0.0
 40
0.2
 50
286.87451900000002
 51
73.125480999999951
  0
LINE
  5
12CFC
  8
DANMEN
  6
CONTINUOUS
 10
21.655694514433879
 20
46.258541102105951
 30
0.0
 11
21.655694514433879
 21
41.758541102105923
 31
0.0
  0
LINE
  5
12CFD
  8
DANMEN
  6
CONTINUOUS
 10
20.655694514433868
 20
45.10854110210596
 30
0.0
 11
20.655694514433868
 21
42.25854110210593
 31
0.0
  0
LINE
  5
12CFE
  8
DANMEN
  6
CONTINUOUS
 10
21.655694514433879
 20
46.458541102105968
 30
0.0
 11
21.655694514433879
 21
41.558541102105927
 31
0.0
  0
LINE
  5
12CFF
  8
DANMEN
  6
CONTINUOUS
 10
17.805694514433888
 20
45.10854110210596
 30
0.0
 11
17.805694514433888
 21
36.75854110210593
 31
0.0
  0
LINE
  5
12D00
  8
DANMEN
  6
CONTINUOUS
 10
25.65569451443389
 20
34.75854110210593
 30
0.0
 11
33.655694514433897
 21
34.75854110210593
 31
0.0
  0
LINE
  5
12D01
  8
DANMEN
  6
CONTINUOUS
 10
25.513750514433891
 20
44.067153102105962
 30
0.0
 11
25.15569451443389
 21
43.958541102105968
 31
0.0
  0
LINE
  5
12D02
  8
DANMEN
  6
CONTINUOUS
 10
25.15569451443389
 20
43.958541102105968
 30
0.0
 11
25.15569451443389
 21
41.758541102105923
 31
0.0
  0
LINE
  5
12D03
  8
DANMEN
  6
CONTINUOUS
 10
21.15569451443389
 20
41.758541102105923
 30
0.0
 11
21.655694514433879
 21
41.758541102105923
 31
0.0
  0
LINE
  5
12D04
  8
DANMEN
  6
CONTINUOUS
 10
18.65569451443389
 20
43.758541102105951
 30
0.0
 11
20.455694514433869
 21
43.758541102105951
 31
0.0
  0
ARC
  5
12D05
  8
DANMEN
  6
CONTINUOUS
 10
21.15569451443389
 20
42.25854110210593
 30
0.0
 40
0.5
 50
180.0
 51
270.0
  0
LINE
  5
12D06
  8
DANMEN
  6
CONTINUOUS
 10
25.15569451443389
 20
40.758541102105937
 30
0.0
 11
22.855693514433881
 21
38.12996910210596
 31
0.0
  0
LINE
  5
12D07
  8
DANMEN
  6
CONTINUOUS
 10
21.655694514433879
 20
36.75854110210593
 30
0.0
 11
21.655694514433879
 21
34.75854110210593
 31
0.0
  0
ARC
  5
12D08
  8
DANMEN
  6
CONTINUOUS
 10
21.15569451443389
 20
36.25854110210593
 30
0.0
 40
0.5
 50
0.0
 51
90.0
  0
ARC
  5
12D09
  8
DANMEN
  6
CONTINUOUS
 10
21.15569451443389
 20
36.25854110210593
 30
0.0
 40
0.5
 50
270.0
 51
0.0
  0
LINE
  5
12D0A
  8
DANMEN
  6
CONTINUOUS
 10
21.655694514433879
 20
34.75854110210593
 30
0.0
 11
22.855694514433889
 21
34.75854110210593
 31
0.0
  0
LINE
  5
12D0B
  8
DANMEN
  6
CONTINUOUS
 10
22.855694514433889
 20
38.12996910210596
 30
0.0
 11
22.855694514433889
 21
34.75854110210593
 31
0.0
  0
LINE
  5
12D0C
  8
DANMEN
  6
CONTINUOUS
 10
20.455694514433869
 20
41.558541102105927
 30
0.0
 11
21.655694514433879
 21
41.558541102105927
 31
0.0
  0
LINE
  5
12D0D
  8
DANMEN
  6
CONTINUOUS
 10
17.805694514433888
 20
36.75854110210593
 30
0.0
 11
21.15569451443389
 21
36.75854110210593
 31
0.0
  0
LINE
  5
12D0E
  8
DANMEN
  6
CONTINUOUS
 10
17.805694514433888
 20
35.758541102105937
 30
0.0
 11
21.15569451443389
 21
35.758541102105937
 31
0.0
  0
LINE
  5
12D0F
  8
DANMEN
  6
CONTINUOUS
 10
18.65569451443389
 20
36.75854110210593
 30
0.0
 11
21.655694514433879
 21
36.75854110210593
 31
0.0
  0
ARC
  5
12D10
  8
DANMEN
  6
CONTINUOUS
 10
25.15569451443389
 20
41.25854110210593
 30
0.0
 40
0.5
 50
270.0000179999999
 51
89.99998199999996
  0
LINE
  5
12D11
  8
DANMEN
  6
CONTINUOUS
 10
20.455694514433869
 20
43.758541102105951
 30
0.0
 11
20.455694514433869
 21
41.558541102105927
 31
0.0
  0
LINE
  5
12D12
  8
DANMEN
  6
CONTINUOUS
 10
18.65569451443389
 20
43.758541102105951
 30
0.0
 11
18.65569451443389
 21
36.75854110210593
 31
0.0
  0
LINE
  5
12D13
  8
DANMEN
  6
CONTINUOUS
 10
34.814874514433882
 20
43.56844610210598
 30
0.0
 11
33.865806514433871
 21
44.24378510210596
 31
0.0
  0
LINE
  5
12D14
  8
DANMEN
  6
CONTINUOUS
 10
34.939591514433872
 20
41.196305102105917
 30
0.0
 11
34.508512514433868
 21
41.402473102105908
 31
0.0
  0
ARC
  5
12D15
  8
DANMEN
  6
CONTINUOUS
 10
34.155694514433883
 20
41.104463102105917
 30
0.0
 40
0.5
 50
180.0
 51
237.3150609999999
  0
LINE
  5
12D16
  8
DANMEN
  6
CONTINUOUS
 10
33.655694514433897
 20
41.104463102105917
 30
0.0
 11
33.655694514433897
 21
42.755675102105961
 31
0.0
  0
ARC
  5
12D17
  8
DANMEN
  6
CONTINUOUS
 10
35.15569451443389
 20
42.755675102105961
 30
0.0
 40
1.5
 50
180.0
 51
244.4400839999999
  0
LINE
  5
12D18
  8
DANMEN
  6
CONTINUOUS
 10
25.15569451443389
 20
46.707892102105951
 30
0.0
 11
25.923284514433892
 21
46.758391102105961
 31
0.0
  0
LINE
  5
12D19
  8
DANMEN
  6
CONTINUOUS
 10
21.355694514433878
 20
46.758541102105951
 30
0.0
 11
25.95569551443387
 21
47.061172102105942
 31
0.0
  0
LINE
  5
12D1A
  8
DANMEN
  6
CONTINUOUS
 10
25.15569451443389
 20
46.707893102105942
 30
0.0
 11
25.15569451443389
 21
44.558541102105927
 31
0.0
  0
LINE
  5
12D1B
  8
DANMEN
  6
CONTINUOUS
 10
25.513749514433869
 20
44.449929102105962
 30
0.0
 11
25.15569451443389
 21
44.558541102105927
 31
0.0
  0
LINE
  5
12D1C
  8
DANMEN
  6
CONTINUOUS
 10
21.355693514433881
 20
46.758541102105951
 30
0.0
 11
21.655694514433879
 21
46.458540102105943
 31
0.0
  0
ARC
  5
12D1D
  8
DANMEN
  6
CONTINUOUS
 10
21.15569451443389
 20
46.258541102105951
 30
0.0
 40
0.5
 50
0.0
 51
90.0
  0
LINE
  5
12D1E
  8
DANMEN
  6
CONTINUOUS
 10
17.805694514433888
 20
45.10854110210596
 30
0.0
 11
20.655694514433868
 21
45.10854110210596
 31
0.0
  0
LINE
  5
12D1F
  8
DANMEN
  6
CONTINUOUS
 10
16.655694514433879
 20
46.758541102105951
 30
0.0
 11
21.15569451443389
 21
46.758541102105951
 31
0.0
  0
LINE
  5
12D20
  8
DANMEN
  6
CONTINUOUS
 10
34.918198514433897
 20
44.86517710210596
 30
0.0
 11
34.444334514433891
 21
45.120432102105937
 31
0.0
  0
LINE
  5
12D21
  8
DANMEN
  6
CONTINUOUS
 10
34.034428514433863
 20
47.813857102105942
 30
0.0
 11
34.519121514433891
 21
47.69268410210595
 31
0.0
  0
LINE
  5
12D22
  8
DANMEN
  6
CONTINUOUS
 10
33.655694514433897
 20
46.441026102105951
 30
0.0
 11
33.655694514433897
 21
44.651173102105957
 31
0.0
  0
ARC
  5
12D23
  8
DANMEN
  6
CONTINUOUS
 10
35.15569451443389
 20
46.441026102105951
 30
0.0
 40
1.5
 50
179.99996399999989
 51
241.69006899999999
  0
ARC
  5
12D24
  8
DANMEN
  6
CONTINUOUS
 10
34.155694514433883
 20
48.298928102105961
 30
0.0
 40
0.5
 50
180.0000909999998
 51
255.96381500000001
  0
ARC
  5
12D25
  8
DANMEN
  6
CONTINUOUS
 10
35.15569451443389
 20
50.29234410210595
 30
0.0
 40
1.5
 50
180.00003599999999
 51
257.5616779999998
  0
LINE
  5
12D26
  8
DANMEN
  6
CONTINUOUS
 10
33.655694514433897
 20
50.29234410210595
 30
0.0
 11
33.655694514433897
 21
48.298928102105961
 31
0.0
  0
LINE
  5
12D27
  8
DANMEN
  6
CONTINUOUS
 10
25.95569551443387
 20
47.061174102105952
 30
0.0
 11
25.923284514433892
 21
46.758391102105961
 31
0.0
  0
LINE
  5
12D28
  8
DANMEN
  6
CONTINUOUS
 10
52.15569451443389
 20
40.10854110210596
 30
0.0
 11
52.15569451443389
 21
24.758541102105919
 31
0.0
  0
LINE
  5
12D29
  8
DANMEN
  6
CONTINUOUS
 10
54.155694514433883
 20
32.55854110210592
 30
0.0
 11
54.155694514433883
 21
41.758541102105923
 31
0.0
  0
LINE
  5
12D2A
  8
DANMEN
  6
CONTINUOUS
 10
67.15569451443389
 20
41.758541102105923
 30
0.0
 11
67.15569451443389
 21
32.55854110210592
 31
0.0
  0
LINE
  5
12D2B
  8
DANMEN
  6
CONTINUOUS
 10
38.15569451443389
 20
34.75854110210593
 30
0.0
 11
38.15569451443389
 21
24.758541102105919
 31
0.0
  0
LINE
  5
12D2C
  8
DANMEN
  6
CONTINUOUS
 10
50.50569451443387
 20
24.758541102105919
 30
0.0
 11
50.50569451443387
 21
45.10854110210596
 31
0.0
  0
LINE
  5
12D2D
  8
DANMEN
  6
CONTINUOUS
 10
54.555695514433779
 20
31.758544102105951
 30
0.0
 11
54.155695514433788
 21
32.558544102105948
 31
0.0
  0
LINE
  5
12D2E
  8
DANMEN
  6
CONTINUOUS
 10
58.15569451443389
 20
24.758541102105919
 30
0.0
 11
52.15569451443389
 21
24.758541102105919
 31
0.0
  0
LINE
  5
12D2F
  8
DANMEN
  6
CONTINUOUS
 10
54.355694514433893
 20
23.05854110210592
 30
0.0
 11
55.95569451443388
 21
23.05854110210592
 31
0.0
  0
ARC
  5
12D30
  8
DANMEN
  6
CONTINUOUS
 10
54.355694514433893
 20
22.058541102105941
 30
0.0
 40
1.0
 50
90.0
 51
180.0
  0
LINE
  5
12D31
  8
DANMEN
  6
CONTINUOUS
 10
51.855694514433893
 20
20.728235102105941
 30
0.0
 11
51.855694514433893
 21
21.95854110210594
 31
0.0
  0
LINE
  5
12D32
  8
DANMEN
  6
CONTINUOUS
 10
53.355694514433893
 20
20.812480102105951
 30
0.0
 11
53.355694514433893
 21
22.058541102105941
 31
0.0
  0
ARC
  5
12D33
  8
DANMEN
  6
CONTINUOUS
 10
53.855694514433893
 20
19.721609102105951
 30
0.0
 40
0.2
 50
0.0
 51
65.375681999999898
  0
LINE
  5
12D34
  8
DANMEN
  6
CONTINUOUS
 10
54.055694514433902
 20
19.45854110210594
 30
0.0
 11
54.055694514433902
 21
19.721609102105951
 31
0.0
  0
LINE
  5
12D35
  8
DANMEN
  6
CONTINUOUS
 10
52.616315514433794
 20
19.158541102105939
 30
0.0
 11
53.755694514433877
 21
19.158541102105939
 31
0.0
  0
ARC
  5
12D36
  8
DANMEN
  6
CONTINUOUS
 10
53.755694514433877
 20
19.45854110210594
 30
0.0
 40
0.3
 50
270.0
 51
0.0
  0
ARC
  5
12D37
  8
DANMEN
  6
CONTINUOUS
 10
53.855694514433893
 20
20.728235102105941
 30
0.0
 40
2.0
 50
180.0
 51
231.706523
  0
ARC
  5
12D38
  8
DANMEN
  6
CONTINUOUS
 10
54.355694514433893
 20
20.812480102105951
 30
0.0
 40
1.0
 50
180.0
 51
245.37568199999981
  0
ARC
  5
12D39
  8
DANMEN
  6
CONTINUOUS
 10
50.855694514433893
 20
21.95854110210594
 30
0.0
 40
1.0
 50
0.0
 51
90.0
  0
LINE
  5
12D3A
  8
DANMEN
  6
CONTINUOUS
 10
58.45569451443378
 20
20.728235102105941
 30
0.0
 11
58.45569451443378
 21
22.384488102105951
 31
0.0
  0
ARC
  5
12D3B
  8
DANMEN
  6
CONTINUOUS
 10
59.455694514433787
 20
22.384488102105951
 30
0.0
 40
1.0
 50
106.9581519999999
 51
180.0
  0
LINE
  5
12D3C
  8
DANMEN
  6
CONTINUOUS
 10
56.955694514433887
 20
20.812480102105951
 30
0.0
 11
56.955694514433887
 21
22.058541102105941
 31
0.0
  0
ARC
  5
12D3D
  8
DANMEN
  6
CONTINUOUS
 10
55.95569451443388
 20
22.058541102105941
 30
0.0
 40
1.0
 50
0.0
 51
90.0
  0
LINE
  5
12D3E
  8
DANMEN
  6
CONTINUOUS
 10
56.255694514433749
 20
19.45854110210594
 30
0.0
 11
56.255694514433749
 21
19.721609102105951
 31
0.0
  0
ARC
  5
12D3F
  8
DANMEN
  6
CONTINUOUS
 10
56.45569451443378
 20
19.721609102105951
 30
0.0
 40
0.2
 50
114.6243180000001
 51
180.0
  0
LINE
  5
12D40
  8
DANMEN
  6
CONTINUOUS
 10
56.555694514433902
 20
19.158541102105939
 30
0.0
 11
57.695073514433801
 21
19.158541102105939
 31
0.0
  0
ARC
  5
12D41
  8
DANMEN
  6
CONTINUOUS
 10
56.555694514433902
 20
19.45854110210594
 30
0.0
 40
0.3
 50
180.0
 51
270.0
  0
ARC
  5
12D42
  8
DANMEN
  6
CONTINUOUS
 10
55.95569451443388
 20
20.812480102105951
 30
0.0
 40
1.0
 50
294.62431800000002
 51
0.0
  0
ARC
  5
12D43
  8
DANMEN
  6
CONTINUOUS
 10
56.45569451443378
 20
20.728235102105941
 30
0.0
 40
2.0
 50
308.29347699999983
 51
0.0
  0
LINE
  5
12D44
  8
DANMEN
  6
CONTINUOUS
 10
66.755694514433756
 20
31.758541102105919
 30
0.0
 11
54.555695514433779
 21
31.758541102105919
 31
0.0
  0
LINE
  5
12D45
  8
DANMEN
  6
CONTINUOUS
 10
67.155693514433764
 20
32.558544102105948
 30
0.0
 11
66.755694514433756
 21
31.758545102105948
 31
0.0
  0
LINE
  5
12D46
  8
DANMEN
  6
DASHED
 10
53.15569451443389
 20
43.258541102105937
 30
0.0
 11
54.65569451443379
 21
43.258541102105937
 31
0.0
  0
LINE
  5
12D47
  8
DANMEN
  6
CONTINUOUS
 10
54.155694514433883
 20
46.758541102105951
 30
0.0
 11
71.655694514433875
 21
46.758541102105951
 31
0.0
  0
LINE
  5
12D48
  8
DANMEN
  6
CONTINUOUS
 10
52.655694514433783
 20
41.758541102105923
 30
0.0
 11
68.65569451443389
 21
41.758541102105923
 31
0.0
  0
LINE
  5
12D49
  8
DANMEN
  6
CONTINUOUS
 10
52.15569451443389
 20
46.258541102105951
 30
0.0
 11
52.15569451443389
 21
41.758541102105923
 31
0.0
  0
LINE
  5
12D4A
  8
DANMEN
  6
CONTINUOUS
 10
53.15569451443389
 20
45.758541102105937
 30
0.0
 11
53.15569451443389
 21
41.758541102105923
 31
0.0
  0
LINE
  5
12D4B
  8
DANMEN
  6
CONTINUOUS
 10
41.655694514433883
 20
46.258541102105951
 30
0.0
 11
41.655694514433883
 21
41.758541102105923
 31
0.0
  0
LINE
  5
12D4C
  8
DANMEN
  6
CONTINUOUS
 10
41.655694514433883
 20
46.758541102105951
 30
0.0
 11
41.655694514433883
 21
43.058541102105941
 31
0.0
  0
LINE
  5
12D4D
  8
DANMEN
  6
CONTINUOUS
 10
43.15569451443389
 20
45.10854110210596
 30
0.0
 11
43.15569451443389
 21
36.25854110210593
 31
0.0
  0
LINE
  5
12D4E
  8
DANMEN
  6
CONTINUOUS
 10
42.155694514433883
 20
41.758541102105923
 30
0.0
 11
41.655694514433883
 21
41.758541102105923
 31
0.0
  0
LINE
  5
12D4F
  8
DANMEN
  6
CONTINUOUS
 10
41.655695514433859
 20
43.05854210210596
 30
0.0
 11
40.655695514433859
 21
42.758543102105961
 31
0.0
  0
LINE
  5
12D50
  8
DANMEN
  6
CONTINUOUS
 10
35.655318514433873
 20
41.938897102105919
 30
0.0
 11
35.655318514433873
 21
41.647372102105962
 31
0.0
  0
ARC
  5
12D51
  8
DANMEN
  6
CONTINUOUS
 10
42.655694514433861
 20
36.25854110210593
 30
0.0
 40
0.5
 50
270.0
 51
0.0
  0
ARC
  5
12D52
  8
DANMEN
  6
CONTINUOUS
 10
42.155694514433883
 20
36.25854110210593
 30
0.0
 40
0.5
 50
180.0
 51
270.0
  0
LINE
  5
12D53
  8
DANMEN
  6
CONTINUOUS
 10
41.655694514433883
 20
36.75854110210593
 30
0.0
 11
41.655694514433883
 21
36.25854110210593
 31
0.0
  0
LINE
  5
12D54
  8
DANMEN
  6
CONTINUOUS
 10
42.155694514433883
 20
36.75854110210593
 30
0.0
 11
41.655694514433883
 21
36.75854110210593
 31
0.0
  0
LINE
  5
12D55
  8
DANMEN
  6
CONTINUOUS
 10
42.655694514433861
 20
35.758541102105937
 30
0.0
 11
42.155694514433883
 21
35.758541102105937
 31
0.0
  0
ARC
  5
12D56
  8
DANMEN
  6
CONTINUOUS
 10
37.571119514433889
 20
41.094820102105942
 30
0.0
 40
2.336276999999999
 50
237.31510399999991
 51
298.2349270000002
  0
LINE
  5
12D57
  8
DANMEN
  6
CONTINUOUS
 10
42.255693514433887
 20
40.95854210210593
 30
0.0
 11
38.676384514433892
 21
39.03652410210595
 31
0.0
  0
LINE
  5
12D58
  8
DANMEN
  6
CONTINUOUS
 10
42.255693514433887
 20
41.753081102105917
 30
0.0
 11
42.255693514433887
 21
40.958543102105928
 31
0.0
  0
LINE
  5
12D59
  8
DANMEN
  6
CONTINUOUS
 10
40.65569451443389
 20
42.758542102105949
 30
0.0
 11
40.65569451443389
 21
40.893913102105941
 31
0.0
  0
LINE
  5
12D5A
  8
DANMEN
  6
CONTINUOUS
 10
40.65569451443389
 20
40.893913102105941
 30
0.0
 11
42.255693514433887
 21
41.753081102105917
 31
0.0
  0
LINE
  5
12D5B
  8
DANMEN
  6
CONTINUOUS
 10
42.155694514433883
 20
41.758541102105923
 30
0.0
 11
42.155694514433883
 21
36.75854110210593
 31
0.0
  0
LINE
  5
12D5C
  8
DANMEN
  6
DASHED
 10
53.15569451443389
 20
42.808538102105949
 30
0.0
 11
53.655697514433889
 21
43.258540102105933
 31
0.0
  0
LINE
  5
12D5D
  8
DANMEN
  6
CONTINUOUS
 10
52.655694514433783
 20
42.358537102105927
 30
0.0
 11
52.655694514433783
 21
41.758541102105923
 31
0.0
  0
LINE
  5
12D5E
  8
DANMEN
  6
CONTINUOUS
 10
52.655697514433903
 20
42.358540102105927
 30
0.0
 11
53.15569451443389
 21
42.808538102105949
 31
0.0
  0
LINE
  5
12D5F
  8
DANMEN
  6
CONTINUOUS
 10
51.655694514433783
 20
46.758541102105951
 30
0.0
 11
42.155694514433883
 21
46.758541102105951
 31
0.0
  0
LINE
  5
12D60
  8
DANMEN
  6
CONTINUOUS
 10
50.50569451443387
 20
45.10854110210596
 30
0.0
 11
43.15569451443389
 21
45.10854110210596
 31
0.0
  0
LINE
  5
12D61
  8
DANMEN
  6
CONTINUOUS
 10
42.855693514433881
 20
46.758541102105951
 30
0.0
 11
43.155693514433892
 21
46.458542102105952
 31
0.0
  0
LINE
  5
12D62
  8
DANMEN
  6
CONTINUOUS
 10
43.15569451443389
 20
46.558540102105951
 30
0.0
 11
43.15569451443389
 21
46.458542102105952
 31
0.0
  0
ARC
  5
12D63
  8
DANMEN
  6
CONTINUOUS
 10
42.155694514433883
 20
46.258541102105951
 30
0.0
 40
0.5
 50
90.0
 51
180.0
  0
LINE
  5
12D64
  8
DANMEN
  6
CONTINUOUS
 10
41.655694514433883
 20
46.758541102105951
 30
0.0
 11
42.855693514433881
 21
46.758541102105951
 31
0.0
  0
ARC
  5
12D65
  8
DANMEN
  6
CONTINUOUS
 10
41.655694514433883
 20
46.558540102105951
 30
0.0
 40
1.5
 50
0.0
 51
77.561677999999844
  0
LINE
  5
12D66
  8
DANMEN
  6
CONTINUOUS
 10
35.655318514433873
 20
46.237469102105962
 30
0.0
 11
35.655318514433873
 21
45.305374102105951
 31
0.0
  0
ARC
  5
12D67
  8
DANMEN
  6
CONTINUOUS
 10
54.155694514433883
 20
45.758541102105937
 30
0.0
 40
1.0
 50
90.000018000000026
 51
179.99996399999989
  0
ARC
  5
12D68
  8
DANMEN
  6
CONTINUOUS
 10
51.655694514433783
 20
46.258541102105951
 30
0.0
 40
0.5
 50
0.0
 51
90.0
  0
LINE
  5
12D69
  8
DANMEN
  6
DASHED
 10
71.15569451443389
 20
44.958541102105961
 30
0.0
 11
71.15569451443389
 21
41.758541102105923
 31
0.0
  0
LINE
  5
12D6A
  8
DANMEN
  6
CONTINUOUS
 10
72.65569451443389
 20
45.758541102105937
 30
0.0
 11
72.65569451443389
 21
41.758541102105923
 31
0.0
  0
LINE
  5
12D6B
  8
DANMEN
  6
CONTINUOUS
 10
69.65569451443389
 20
44.958541102105961
 30
0.0
 11
69.65569451443389
 21
41.758541102105923
 31
0.0
  0
LINE
  5
12D6C
  8
DANMEN
  6
CONTINUOUS
 10
63.65569451443389
 20
44.958541102105961
 30
0.0
 11
63.65569451443389
 21
41.758541102105923
 31
0.0
  0
LINE
  5
12D6D
  8
DANMEN
  6
CONTINUOUS
 10
57.655694514433783
 20
44.958541102105961
 30
0.0
 11
57.655694514433783
 21
41.758541102105923
 31
0.0
  0
LINE
  5
12D6E
  8
DANMEN
  6
CONTINUOUS
 10
54.65569451443379
 20
44.958541102105961
 30
0.0
 11
54.65569451443379
 21
41.758541102105923
 31
0.0
  0
LINE
  5
12D6F
  8
DANMEN
  6
CONTINUOUS
 10
65.65569451443389
 20
42.358540102105927
 30
0.0
 11
63.65569451443389
 21
42.358540102105927
 31
0.0
  0
LINE
  5
12D70
  8
DANMEN
  6
CONTINUOUS
 10
57.655694514433783
 20
42.358540102105927
 30
0.0
 11
55.655694514433783
 21
42.358540102105927
 31
0.0
  0
LINE
  5
12D71
  8
DANMEN
  6
CONTINUOUS
 10
55.65569851443388
 20
42.358537102105927
 30
0.0
 11
55.1557015144339
 21
43.258532102105953
 31
0.0
  0
LINE
  5
12D72
  8
DANMEN
  6
CONTINUOUS
 10
55.155693514433892
 20
43.258541102105937
 30
0.0
 11
54.65569451443379
 21
43.258541102105937
 31
0.0
  0
LINE
  5
12D73
  8
DANMEN
  6
CONTINUOUS
 10
58.15569451443389
 20
39.95854210210593
 30
0.0
 11
63.15569451443389
 21
39.95854210210593
 31
0.0
  0
LINE
  5
12D74
  8
DANMEN
  6
CONTINUOUS
 10
59.65569451443379
 20
36.958542102105937
 30
0.0
 11
61.655694514433883
 21
36.958542102105937
 31
0.0
  0
LINE
  5
12D75
  8
DANMEN
  6
CONTINUOUS
 10
58.155711514433783
 20
39.958523102105957
 30
0.0
 11
59.655708514433883
 21
36.958529102105949
 31
0.0
  0
LINE
  5
12D76
  8
DANMEN
  6
CONTINUOUS
 10
61.65572251443389
 20
36.958563102105948
 30
0.0
 11
63.155719514433748
 21
39.958557102105928
 31
0.0
  0
LINE
  5
12D77
  8
DANMEN
  6
CONTINUOUS
 10
59.155694514433883
 20
41.758541102105923
 30
0.0
 11
59.155694514433883
 21
39.95854210210593
 31
0.0
  0
LINE
  5
12D78
  8
DANMEN
  6
CONTINUOUS
 10
62.15569451443389
 20
41.758541102105923
 30
0.0
 11
62.15569451443389
 21
39.95854210210593
 31
0.0
  0
LINE
  5
12D79
  8
DANMEN
  6
CONTINUOUS
 10
68.655691514433883
 20
42.358540102105927
 30
0.0
 11
67.655691514433883
 21
43.258540102105933
 31
0.0
  0
LINE
  5
12D7A
  8
DANMEN
  6
CONTINUOUS
 10
68.65569451443389
 20
42.358540102105927
 30
0.0
 11
68.65569451443389
 21
41.758541102105923
 31
0.0
  0
LINE
  5
12D7B
  8
DANMEN
  6
CONTINUOUS
 10
66.155691514433755
 20
43.258539102105971
 30
0.0
 11
65.655691514433755
 21
42.358538102105953
 31
0.0
  0
LINE
  5
12D7C
  8
DANMEN
  6
CONTINUOUS
 10
67.65569451443389
 20
43.258541102105937
 30
0.0
 11
66.155695514433887
 21
43.258541102105937
 31
0.0
  0
LINE
  5
12D7D
  8
DANMEN
  6
CONTINUOUS
 10
69.65569451443389
 20
41.758541102105923
 30
0.0
 11
72.65569451443389
 21
41.758541102105923
 31
0.0
  0
LINE
  5
12D7E
  8
DANMEN
  6
CONTINUOUS
 10
54.65569451443379
 20
44.958541102105961
 30
0.0
 11
69.65569451443389
 21
44.958541102105961
 31
0.0
  0
ARC
  5
12D7F
  8
DANMEN
  6
CONTINUOUS
 10
73.15569451443389
 20
46.258541102105951
 30
0.0
 40
0.5
 50
90.0
 51
180.0
  0
LINE
  5
12D80
  8
DANMEN
  6
CONTINUOUS
 10
72.65569451443389
 20
46.258541102105951
 30
0.0
 11
72.65569451443389
 21
45.558541102105941
 31
0.0
  0
ARC
  5
12D81
  8
DANMEN
  6
CONTINUOUS
 10
71.655694514433875
 20
45.758541102105937
 30
0.0
 40
1.0
 50
0.0000360000000406
 51
90.000018000000026
  0
LINE
  5
12D82
  8
DANMEN
  6
DASHED
 10
69.65569451443389
 20
44.958541102105961
 30
0.0
 11
71.15569451443389
 21
44.958541102105961
 31
0.0
  0
TEXT
  5
12D83
  8
SUNPO
  6
CONTINUOUS
 10
125.1556945144338
 20
14.88354110210595
 30
0.0
 40
2.5
  1
60
 50
90.0
  0
LINE
  5
12D84
  8
SUNPO
  6
CONTINUOUS
 10
116.1556945144338
 20
11.75854110210595
 30
0.0
 11
116.1556945144338
 21
46.758541102105951
 31
0.0
  0
LINE
  5
12D85
  8
SUNPO
  6
CONTINUOUS
 10
126.1556945144338
 20
46.758541102105951
 30
0.0
 11
126.1556945144338
 21
-13.24145889789404
 31
0.0
  0
LINE
  5
12D86
  8
DANMEN
  6
CONTINUOUS
 10
74.505700514433883
 20
28.01917810210594
 30
0.0
 11
74.505700514433883
 21
14.840361102105939
 31
0.0
  0
LINE
  5
12D87
  8
DANMEN
  6
CONTINUOUS
 10
76.15569451443389
 20
46.258541102105951
 30
0.0
 11
76.15569451443389
 21
12.25854110210596
 31
0.0
  0
LINE
  5
12D88
  8
SUNPO
  6
CONTINUOUS
 10
77.655694514433762
 20
11.75854110210595
 30
0.0
 11
116.1556945144338
 21
11.75854110210595
 31
0.0
  0
LINE
  5
12D89
  8
SUNPO
  6
CONTINUOUS
 10
77.655694514433762
 20
-13.24145889789404
 30
0.0
 11
126.1556945144338
 21
-13.24145889789404
 31
0.0
  0
LINE
  5
12D8A
  8
DANMEN
  6
CONTINUOUS
 10
76.15569451443389
 20
-13.24145889789404
 30
0.0
 11
76.15569451443389
 21
12.25854110210596
 31
0.0
  0
LINE
  5
12D8B
  8
DANMEN
  6
CONTINUOUS
 10
75.055694514433895
 20
11.75854110210595
 30
0.0
 11
75.65569451443389
 21
11.75854110210595
 31
0.0
  0
LINE
  5
12D8C
  8
DANMEN
  6
CONTINUOUS
 10
75.055694514433895
 20
12.517674102105939
 30
0.0
 11
75.055694514433895
 21
11.75854110210595
 31
0.0
  0
ARC
  5
12D8D
  8
DANMEN
  6
CONTINUOUS
 10
74.555694514433895
 20
12.517674102105939
 30
0.0
 40
0.5
 50
0.0
 51
113.49856
  0
ARC
  5
12D8E
  8
DANMEN
  6
CONTINUOUS
 10
75.65569451443389
 20
12.25854110210596
 30
0.0
 40
0.5
 50
270.0
 51
0.0
  0
ARC
  5
12D8F
  8
SUNPO
  6
BYBLOCK
 10
126.1556945144338
 20
-13.24145889789404
 30
0.0
 40
0.15625
 50
90.0
 51
270.0
  0
ARC
  5
12D90
  8
SUNPO
  6
BYBLOCK
 10
126.1556945144338
 20
-13.24145889789404
 30
0.0
 40
0.15625
 50
270.0
 51
90.0
  0
ARC
  5
12D91
  8
SUNPO
  6
BYBLOCK
 10
116.1556945144338
 20
11.75854110210595
 30
0.0
 40
0.145
 50
90.0
 51
270.0
  0
ARC
  5
12D92
  8
SUNPO
  6
BYBLOCK
 10
116.1556945144338
 20
11.75854110210595
 30
0.0
 40
0.145
 50
270.0
 51
90.0
  0
LINE
  5
12D93
  8
SUNPO
  6
CONTINUOUS
 10
77.655694514433762
 20
46.758541102105951
 30
0.0
 11
126.1556945144338
 21
46.758541102105951
 31
0.0
  0
LINE
  5
12D94
  8
DANMEN
  6
CONTINUOUS
 10
74.505694514433884
 20
40.10854110210596
 30
0.0
 11
74.505694514433884
 21
30.484522102105949
 31
0.0
  0
ARC
  5
12D95
  8
DANMEN
  6
CONTINUOUS
 10
73.505694514433884
 20
30.484522102105949
 30
0.0
 40
1.0
 50
288.04213399999992
 51
0.0
  0
LINE
  5
12D96
  8
DANMEN
  6
CONTINUOUS
 10
74.505694514433884
 20
45.558541102105941
 30
0.0
 11
74.505694514433884
 21
41.758541102105923
 31
0.0
  0
ARC
  5
12D97
  8
DANMEN
  6
CONTINUOUS
 10
75.65569451443389
 20
46.258541102105951
 30
0.0
 40
0.5
 50
0.0
 51
90.0
  0
LINE
  5
12D98
  8
DANMEN
  6
CONTINUOUS
 10
74.505694514433884
 20
46.758541102105951
 30
0.0
 11
76.15569451443389
 21
46.758541102105951
 31
0.0
  0
TEXT
  5
12D99
  8
SUNPO
  6
CONTINUOUS
 10
115.1556945144338
 20
27.175208102105952
 30
0.0
 40
2.5
  1
35
 50
90.0
  0
LINE
  5
12D9A
  8
SUNPO
  6
CONTINUOUS
 10
131.1556945144338
 20
51.758541102105951
 30
0.0
 11
126.1556945144338
 21
46.758541102105951
 31
0.0
  0
LINE
  5
12D9B
  8
SUNPO
  6
CONTINUOUS
 10
121.1556945144337
 20
51.758541102105951
 30
0.0
 11
131.1556945144338
 21
51.758541102105951
 31
0.0
  0
ARC
  5
12D9C
  8
SUNPO
  6
BYBLOCK
 10
116.1556945144338
 20
46.758541102105951
 30
0.0
 40
0.145
 50
270.0
 51
90.0
  0
ARC
  5
12D9D
  8
SUNPO
  6
BYBLOCK
 10
116.1556945144338
 20
46.758541102105951
 30
0.0
 40
0.145
 50
90.0
 51
270.0
  0
LINE
  5
12D9E
  8
SUNPO
  6
CONTINUOUS
 10
126.1556945144338
 20
46.758541102105951
 30
0.0
 11
121.1556945144337
 21
51.758541102105951
 31
0.0
  0
LINE
  5
12D9F
  8
DANMEN
  6
CONTINUOUS
 10
70.65569451443389
 20
201.7585411021058
 30
0.0
 11
75.65569451443389
 21
201.7585411021058
 31
0.0
  0
LINE
  5
12DA0
  8
DANMEN
  6
CONTINUOUS
 10
70.65569451443389
 20
200.10853210210581
 30
0.0
 11
74.505685514433793
 21
200.10853210210581
 31
0.0
  0
LINE
  5
12DA1
  8
DANMEN
  6
CONTINUOUS
 10
72.65569451443389
 20
167.95854110210581
 30
0.0
 11
74.505685514433793
 21
167.95854110210581
 31
0.0
  0
LINE
  5
12DA2
  8
DANMEN
  6
CONTINUOUS
 10
73.15569451443389
 20
166.75854110210591
 30
0.0
 11
75.65569451443389
 21
166.75854110210591
 31
0.0
  0
LINE
  5
12DA3
  8
DANMEN
  6
CONTINUOUS
 10
52.15569451443389
 20
174.75854110210591
 30
0.0
 11
74.505685514433793
 21
174.75854110210591
 31
0.0
  0
LINE
  5
12DA4
  8
DANMEN
  6
CONTINUOUS
 10
59.355694514433893
 20
176.40855010210581
 30
0.0
 11
73.505685514433793
 21
176.40855010210581
 31
0.0
  0
LINE
  5
12DA5
  8
SUNPO
  6
CONTINUOUS
 10
52.15569451443389
 20
84.758541102105966
 30
0.0
 11
76.15569451443389
 21
84.758541102105966
 31
0.0
  0
LINE
  5
12DA6
  8
SUNPO
  6
CONTINUOUS
 10
76.15569451443389
 20
94.758541102105966
 30
0.0
 11
6.1556945144338879
 21
94.758541102105966
 31
0.0
  0
LINE
  5
12DA7
  8
DANMEN
  6
CONTINUOUS
 10
52.15569451443389
 20
146.75854110210591
 30
0.0
 11
52.15569451443389
 21
108.7585411021058
 31
0.0
  0
LINE
  5
12DA8
  8
DANMEN
  6
CONTINUOUS
 10
43.142301514433854
 20
108.7585411021058
 30
0.0
 11
43.142301514433854
 21
146.75854110210591
 31
0.0
  0
LINE
  5
12DA9
  8
DANMEN
  6
CONTINUOUS
 10
33.655694514433897
 20
158.75854110210591
 30
0.0
 11
33.655694514433897
 21
108.7585411021058
 31
0.0
  0
LINE
  5
12DAA
  8
DANMEN
  6
CONTINUOUS
 10
33.15569451443389
 20
158.75854110210591
 30
0.0
 11
33.15569451443389
 21
108.7585411021058
 31
0.0
  0
LINE
  5
12DAB
  8
DANMEN
  6
CONTINUOUS
 10
21.655694514433879
 20
108.7585411021058
 30
0.0
 11
21.655694514433879
 21
146.75854110210591
 31
0.0
  0
LINE
  5
12DAC
  8
DANMEN
  6
CONTINUOUS
 10
25.65569451443389
 20
158.75854110210591
 30
0.0
 11
25.65569451443389
 21
108.7585411021058
 31
0.0
  0
LINE
  5
12DAD
  8
DANMEN
  6
CONTINUOUS
 10
26.15569451443389
 20
158.75854110210591
 30
0.0
 11
26.15569451443389
 21
108.7585411021058
 31
0.0
  0
LINE
  5
12DAE
  8
DANMEN
  6
CONTINUOUS
 10
7.8056945144338883
 20
166.75854110210591
 30
0.0
 11
7.8056945144338883
 21
108.7585411021058
 31
0.0
  0
LINE
  5
12DAF
  8
DANMEN
  6
CONTINUOUS
 10
14.155694514433881
 20
174.75854110210591
 30
0.0
 11
14.155694514433881
 21
108.7585411021058
 31
0.0
  0
LINE
  5
12DB0
  8
DANMEN
  6
CONTINUOUS
 10
6.1556945144338879
 20
167.25854110210591
 30
0.0
 11
6.1556945144338879
 21
108.7585411021058
 31
0.0
  0
LINE
  5
12DB1
  8
SUNPO
  6
CONTINUOUS
 10
21.655694514433879
 20
74.758541102105852
 30
0.0
 11
41.655694514433883
 21
74.758541102105852
 31
0.0
  0
LINE
  5
12DB2
  8
SUNPO
  6
CONTINUOUS
 10
52.15569451443389
 20
84.758541102105966
 30
0.0
 11
14.155694514433881
 21
84.758541102105966
 31
0.0
  0
LINE
  5
12DB3
  8
SUNPO
  6
CONTINUOUS
 10
14.155694514433881
 20
84.758541102105966
 30
0.0
 11
6.1556945144338879
 21
84.758541102105966
 31
0.0
  0
ARC
  5
12DB4
  8
SUNPO
  6
BYBLOCK
 10
6.1556945144338879
 20
84.758541102105966
 30
0.0
 40
0.145
 50
0.0
 51
180.0
  0
ARC
  5
12DB5
  8
SUNPO
  6
BYBLOCK
 10
6.1556945144338879
 20
84.758541102105966
 30
0.0
 40
0.145
 50
180.0
 51
0.0
  0
ARC
  5
12DB6
  8
SUNPO
  6
BYBLOCK
 10
14.155694514433881
 20
84.758541102105966
 30
0.0
 40
0.145
 50
0.0
 51
180.0
  0
ARC
  5
12DB7
  8
SUNPO
  6
BYBLOCK
 10
14.155694514433881
 20
84.758541102105966
 30
0.0
 40
0.145
 50
180.0
 51
0.0
  0
ARC
  5
12DB8
  8
SUNPO
  6
BYBLOCK
 10
14.155694514433881
 20
84.758541102105966
 30
0.0
 40
0.145
 50
180.0
 51
0.0
  0
ARC
  5
12DB9
  8
SUNPO
  6
BYBLOCK
 10
14.155694514433881
 20
84.758541102105966
 30
0.0
 40
0.145
 50
0.0
 51
180.0
  0
TEXT
  5
12DBA
  8
SUNPO
  6
CONTINUOUS
 10
9.3223615144338865
 20
85.758541102105951
 30
0.0
 40
2.5
  1
8
  0
ARC
  5
12DBB
  8
SUNPO
  6
BYBLOCK
 10
21.655694514433879
 20
74.758541102105852
 30
0.0
 40
0.145
 50
0.0
 51
180.0
  0
ARC
  5
12DBC
  8
SUNPO
  6
BYBLOCK
 10
21.655694514433879
 20
74.758541102105852
 30
0.0
 40
0.145
 50
180.0
 51
0.0
  0
TEXT
  5
12DBD
  8
SUNPO
  6
CONTINUOUS
 10
28.144003514433891
 20
75.758541102105852
 30
0.0
 40
2.5
  1
20
  0
TEXT
  5
12DBE
  8
SUNPO
  6
CONTINUOUS
 10
27.089626514433888
 20
85.758541102105951
 30
0.0
 40
2.5
  1
38
  0
ARC
  5
12DBF
  8
SUNPO
  6
BYBLOCK
 10
41.655694514433883
 20
74.758541102105852
 30
0.0
 40
0.145
 50
180.0
 51
0.0
  0
ARC
  5
12DC0
  8
SUNPO
  6
BYBLOCK
 10
41.655694514433883
 20
74.758541102105852
 30
0.0
 40
0.145
 50
0.0
 51
180.0
  0
ARC
  5
12DC1
  8
SUNPO
  6
BYBLOCK
 10
52.15569451443389
 20
84.758541102105966
 30
0.0
 40
0.145
 50
0.0
 51
180.0
  0
ARC
  5
12DC2
  8
SUNPO
  6
BYBLOCK
 10
52.15569451443389
 20
84.758541102105966
 30
0.0
 40
0.145
 50
180.0
 51
0.0
  0
ARC
  5
12DC3
  8
SUNPO
  6
BYBLOCK
 10
52.15569451443389
 20
84.758541102105966
 30
0.0
 40
0.145
 50
180.0
 51
0.0
  0
ARC
  5
12DC4
  8
SUNPO
  6
BYBLOCK
 10
52.15569451443389
 20
84.758541102105966
 30
0.0
 40
0.145
 50
0.0
 51
180.0
  0
TEXT
  5
12DC5
  8
SUNPO
  6
CONTINUOUS
 10
62.07236151443378
 20
85.758541102105951
 30
0.0
 40
2.5
  1
24
  0
ARC
  5
12DC6
  8
SUNPO
  6
BYBLOCK
 10
6.1556945144338879
 20
94.758541102105966
 30
0.0
 40
0.145
 50
0.0
 51
180.0
  0
ARC
  5
12DC7
  8
SUNPO
  6
BYBLOCK
 10
6.1556945144338879
 20
94.758541102105966
 30
0.0
 40
0.145
 50
180.0
 51
0.0
  0
TEXT
  5
12DC8
  8
SUNPO
  6
CONTINUOUS
 10
39.28069451443389
 20
95.758541102105966
 30
0.0
 40
2.5
  1
70
  0
LINE
  5
12DC9
  8
SUNPO
  6
CONTINUOUS
 10
5.1556945144338879
 20
201.7585411021058
 30
0.0
 11
-5.8443054855661103
 21
201.7585411021058
 31
0.0
  0
LINE
  5
12DCA
  8
SUNPO
  6
CONTINUOUS
 10
5.1556945144338879
 20
166.75854110210591
 30
0.0
 11
-5.8443054855661103
 21
166.75854110210591
 31
0.0
  0
LINE
  5
12DCB
  8
SUNPO
  6
CONTINUOUS
 10
4.6556945144338879
 20
146.75854110210591
 30
0.0
 11
-5.8443054855661103
 21
146.75854110210591
 31
0.0
  0
LINE
  5
12DCC
  8
SUNPO
  6
CONTINUOUS
 10
-5.8443054855661103
 20
166.75854110210591
 30
0.0
 11
-5.8443054855661103
 21
201.7585411021058
 31
0.0
  0
LINE
  5
12DCD
  8
SUNPO
  6
CONTINUOUS
 10
-5.8443054855661103
 20
146.75854110210591
 30
0.0
 11
-5.8443054855661103
 21
166.75854110210591
 31
0.0
  0
ARC
  5
12DCE
  8
SUNPO
  6
BYBLOCK
 10
-5.8443054855661103
 20
146.75854110210591
 30
0.0
 40
0.145
 50
90.0
 51
270.0
  0
ARC
  5
12DCF
  8
SUNPO
  6
BYBLOCK
 10
-5.8443054855661103
 20
146.75854110210591
 30
0.0
 40
0.145
 50
270.0
 51
90.0
  0
TEXT
  5
12DD0
  8
SUNPO
  6
CONTINUOUS
 10
-6.8443054855661103
 20
154.8835411021058
 30
0.0
 40
2.5
  1
20
 50
90.0
  0
ARC
  5
12DD1
  8
SUNPO
  6
BYBLOCK
 10
-5.8443054855661103
 20
166.75854110210591
 30
0.0
 40
0.145
 50
90.0
 51
270.0
  0
ARC
  5
12DD2
  8
SUNPO
  6
BYBLOCK
 10
-5.8443054855661103
 20
166.75854110210591
 30
0.0
 40
0.145
 50
270.0
 51
90.0
  0
ARC
  5
12DD3
  8
SUNPO
  6
BYBLOCK
 10
-5.8443054855661103
 20
166.75854110210591
 30
0.0
 40
0.145
 50
270.0
 51
90.0
  0
ARC
  5
12DD4
  8
SUNPO
  6
BYBLOCK
 10
-5.8443054855661103
 20
166.75854110210591
 30
0.0
 40
0.145
 50
90.0
 51
270.0
  0
TEXT
  5
12DD5
  8
SUNPO
  6
CONTINUOUS
 10
-6.8443054855661103
 20
182.1752081021059
 30
0.0
 40
2.5
  1
35
 50
90.0
  0
ARC
  5
12DD6
  8
SUNPO
  6
BYBLOCK
 10
-5.8443054855661103
 20
201.7585411021058
 30
0.0
 40
0.145
 50
270.0
 51
90.0
  0
ARC
  5
12DD7
  8
SUNPO
  6
BYBLOCK
 10
-5.8443054855661103
 20
201.7585411021058
 30
0.0
 40
0.145
 50
90.0
 51
270.0
  0
LINE
  5
12DD8
  8
DANMEN
  6
CONTINUOUS
 10
52.15569451443389
 20
166.75854110210591
 30
0.0
 11
52.15569451443389
 21
174.75854110210591
 31
0.0
  0
LINE
  5
12DD9
  8
DANMEN
  6
CONTINUOUS
 10
46.655688514433891
 20
170.75854110210591
 30
0.0
 11
46.655688514433891
 21
174.75854110210591
 31
0.0
  0
LINE
  5
12DDA
  8
DANMEN
  6
CONTINUOUS
 10
50.50569451443387
 20
168.75854110210591
 30
0.0
 11
50.50569451443387
 21
174.75854110210591
 31
0.0
  0
LINE
  5
12DDB
  8
DANMEN
  6
CONTINUOUS
 10
48.455694514433873
 20
169.3574581021058
 30
0.0
 11
46.45569451443388
 21
172.05943510210591
 31
0.0
  0
LINE
  5
12DDC
  8
DANMEN
  6
CONTINUOUS
 10
49.95757751443378
 20
169.34542010210581
 30
0.0
 11
47.75398651443389
 21
172.3224461021058
 31
0.0
  0
LINE
  5
12DDD
  8
DANMEN
  6
CONTINUOUS
 10
45.455688514433881
 20
168.75854110210591
 30
0.0
 11
45.455688514433881
 21
174.75854110210591
 31
0.0
  0
LINE
  5
12DDE
  8
DANMEN
  6
CONTINUOUS
 10
7.6556975144338892
 20
174.75854110210591
 30
0.0
 11
7.6556975144338892
 21
167.25854110210591
 31
0.0
  0
LINE
  5
12DDF
  8
DANMEN
  6
CONTINUOUS
 10
6.1556945144338879
 20
201.25854110210591
 30
0.0
 11
6.1556945144338879
 21
167.25854110210591
 31
0.0
  0
LINE
  5
12DE0
  8
DANMEN
  6
CONTINUOUS
 10
17.805688514433871
 20
174.75854110210591
 30
0.0
 11
17.805688514433871
 21
157.75855310210591
 31
0.0
  0
LINE
  5
12DE1
  8
DANMEN
  6
CONTINUOUS
 10
16.15569451443389
 20
174.75854110210591
 30
0.0
 11
16.15569451443389
 21
147.25854110210591
 31
0.0
  0
ARC
  5
12DE2
  8
DANMEN
  6
CONTINUOUS
 10
35.155318514433873
 20
151.8697101021059
 30
0.0
 40
0.5
 50
0.0000170000000418
 51
115.5599159999996
  0
ARC
  5
12DE3
  8
DANMEN
  6
CONTINUOUS
 10
33.655318514433873
 20
151.57818510210581
 30
0.0
 40
2.0
 50
305.43493399999971
 51
359.99999099999991
  0
ARC
  5
12DE4
  8
DANMEN
  6
CONTINUOUS
 10
35.155318514433873
 20
148.21170810210569
 30
0.0
 40
0.5
 50
0.0000460000000292
 51
118.30991399999991
  0
ARC
  5
12DE5
  8
DANMEN
  6
CONTINUOUS
 10
34.155318514433873
 20
147.27961310210571
 30
0.0
 40
1.5
 50
284.03622100000001
 51
0.0
  0
LINE
  5
12DE6
  8
DANMEN
  6
CONTINUOUS
 10
36.309483514433879
 20
154.3885971021059
 30
0.0
 11
33.885684514433862
 21
152.83344510210591
 31
0.0
  0
LINE
  5
12DE7
  8
DANMEN
  6
CONTINUOUS
 10
41.97877751443388
 20
145.49374910210591
 30
0.0
 11
34.832611514433893
 21
144.6895311021058
 31
0.0
  0
LINE
  5
12DE8
  8
DANMEN
  6
CONTINUOUS
 10
33.655694514433897
 20
152.41261810210591
 30
0.0
 11
33.655694514433897
 21
150.76140710210581
 31
0.0
  0
ARC
  5
12DE9
  8
DANMEN
  6
CONTINUOUS
 10
35.15569451443389
 20
150.76140710210581
 30
0.0
 40
1.5
 50
115.5599159999996
 51
180.0
  0
ARC
  5
12DEA
  8
DANMEN
  6
CONTINUOUS
 10
25.15569451443389
 20
152.25854110210591
 30
0.0
 40
0.5
 50
270.0000179999999
 51
89.99998199999996
  0
LINE
  5
12DEB
  8
DANMEN
  6
CONTINUOUS
 10
21.655694514433879
 20
147.05854110210581
 30
0.0
 11
21.655694514433879
 21
151.95854110210581
 31
0.0
  0
LINE
  5
12DEC
  8
DANMEN
  6
CONTINUOUS
 10
20.455694514433869
 20
149.75854110210591
 30
0.0
 11
20.455694514433869
 21
151.95854110210581
 31
0.0
  0
ARC
  5
12DED
  8
DANMEN
  6
CONTINUOUS
 10
21.15569451443389
 20
151.25855610210581
 30
0.0
 40
0.5
 50
90.0
 51
180.0
  0
LINE
  5
12DEE
  8
DANMEN
  6
CONTINUOUS
 10
17.805688514433871
 20
148.40854110210569
 30
0.0
 11
17.805688514433871
 21
156.7585651021059
 31
0.0
  0
LINE
  5
12DEF
  8
DANMEN
  6
CONTINUOUS
 10
18.65569451443389
 20
149.75854110210591
 30
0.0
 11
18.65569451443389
 21
156.75854110210591
 31
0.0
  0
ARC
  5
12DF0
  8
DANMEN
  6
CONTINUOUS
 10
16.655694514433879
 20
147.25854110210591
 30
0.0
 40
0.5
 50
180.0
 51
270.0
  0
LINE
  5
12DF1
  8
DANMEN
  6
CONTINUOUS
 10
25.15569451443389
 20
146.8091901021059
 30
0.0
 11
25.923284514433892
 21
146.7586911021059
 31
0.0
  0
LINE
  5
12DF2
  8
DANMEN
  6
CONTINUOUS
 10
21.355694514433878
 20
146.75854110210591
 30
0.0
 11
25.95569551443387
 21
146.4559101021058
 31
0.0
  0
ARC
  5
12DF3
  8
DANMEN
  6
CONTINUOUS
 10
25.455694514433869
 20
149.25854110210591
 30
0.0
 40
0.2
 50
286.87451900000002
 51
73.125480999999951
  0
LINE
  5
12DF4
  8
DANMEN
  6
CONTINUOUS
 10
25.513749514433869
 20
149.06715310210581
 30
0.0
 11
25.15569451443389
 21
148.95854110210581
 31
0.0
  0
LINE
  5
12DF5
  8
DANMEN
  6
CONTINUOUS
 10
25.513750514433891
 20
149.4499291021059
 30
0.0
 11
25.15569451443389
 21
149.55854110210581
 31
0.0
  0
LINE
  5
12DF6
  8
DANMEN
  6
CONTINUOUS
 10
25.15569451443389
 20
149.55854110210581
 30
0.0
 11
25.15569451443389
 21
151.75854110210591
 31
0.0
  0
LINE
  5
12DF7
  8
DANMEN
  6
CONTINUOUS
 10
25.15569451443389
 20
146.80918910210579
 30
0.0
 11
25.15569451443389
 21
148.95854110210581
 31
0.0
  0
LINE
  5
12DF8
  8
DANMEN
  6
CONTINUOUS
 10
21.15569451443389
 20
151.7585561021059
 30
0.0
 11
21.655694514433879
 21
151.7585561021059
 31
0.0
  0
LINE
  5
12DF9
  8
DANMEN
  6
CONTINUOUS
 10
21.355693514433881
 20
146.75854110210591
 30
0.0
 11
21.655694514433879
 21
147.0585421021058
 31
0.0
  0
LINE
  5
12DFA
  8
DANMEN
  6
CONTINUOUS
 10
21.655694514433879
 20
151.7585561021059
 30
0.0
 11
21.655694514433879
 21
147.25854110210591
 31
0.0
  0
ARC
  5
12DFB
  8
DANMEN
  6
CONTINUOUS
 10
21.15569451443389
 20
147.25854110210591
 30
0.0
 40
0.5
 50
270.0000179999999
 51
0.0
  0
LINE
  5
12DFC
  8
DANMEN
  6
CONTINUOUS
 10
20.655694514433868
 20
151.25855610210581
 30
0.0
 11
20.655694514433868
 21
148.40854110210569
 31
0.0
  0
LINE
  5
12DFD
  8
DANMEN
  6
CONTINUOUS
 10
17.805688514433871
 20
148.40854110210569
 30
0.0
 11
20.655694514433868
 21
148.40854110210569
 31
0.0
  0
LINE
  5
12DFE
  8
DANMEN
  6
CONTINUOUS
 10
18.65569451443389
 20
149.75854110210591
 30
0.0
 11
20.455694514433869
 21
149.75854110210591
 31
0.0
  0
LINE
  5
12DFF
  8
DANMEN
  6
CONTINUOUS
 10
16.655694514433879
 20
146.75854110210591
 30
0.0
 11
21.15569451443389
 21
146.75854110210591
 31
0.0
  0
LINE
  5
12E00
  8
DANMEN
  6
CONTINUOUS
 10
34.918198514433897
 20
148.6519051021059
 30
0.0
 11
34.444334514433891
 21
148.39665010210581
 31
0.0
  0
ARC
  5
12E01
  8
DANMEN
  6
CONTINUOUS
 10
34.155694514433883
 20
148.86590910210569
 30
0.0
 40
0.5
 50
125.434911
 51
180.00003599999999
  0
LINE
  5
12E02
  8
DANMEN
  6
CONTINUOUS
 10
34.814874514433882
 20
149.94863610210581
 30
0.0
 11
33.865806514433871
 21
149.2732971021058
 31
0.0
  0
LINE
  5
12E03
  8
DANMEN
  6
CONTINUOUS
 10
34.034428514433863
 20
145.7032251021059
 30
0.0
 11
34.519121514433891
 21
145.8243981021059
 31
0.0
  0
ARC
  5
12E04
  8
DANMEN
  6
CONTINUOUS
 10
34.155694514433883
 20
145.21815410210581
 30
0.0
 40
0.5
 50
104.036185
 51
179.9999089999998
  0
LINE
  5
12E05
  8
DANMEN
  6
CONTINUOUS
 10
33.655694514433897
 20
147.07605610210581
 30
0.0
 11
33.655694514433897
 21
148.86590910210569
 31
0.0
  0
ARC
  5
12E06
  8
DANMEN
  6
CONTINUOUS
 10
35.15569451443389
 20
147.07605610210581
 30
0.0
 40
1.5
 50
118.30993099999981
 51
180.00003599999999
  0
LINE
  5
12E07
  8
DANMEN
  6
CONTINUOUS
 10
33.655694514433897
 20
143.22473810210579
 30
0.0
 11
33.655694514433897
 21
145.21815410210581
 31
0.0
  0
ARC
  5
12E08
  8
DANMEN
  6
CONTINUOUS
 10
35.15569451443389
 20
143.22473810210579
 30
0.0
 40
1.5
 50
102.438322
 51
179.99996399999989
  0
LINE
  5
12E09
  8
DANMEN
  6
CONTINUOUS
 10
25.95569551443387
 20
146.4559081021057
 30
0.0
 11
25.923284514433892
 21
146.7586911021059
 31
0.0
  0
LINE
  5
12E0A
  8
DANMEN
  6
CONTINUOUS
 10
6.1556945144338879
 20
166.75854110210591
 30
0.0
 11
7.8056945144338883
 21
166.75854110210591
 31
0.0
  0
LINE
  5
12E0B
  8
DANMEN
  6
CONTINUOUS
 10
6.6556945144338879
 20
166.75854110210591
 30
0.0
 11
7.1556975144338892
 21
166.75854110210591
 31
0.0
  0
ARC
  5
12E0C
  8
DANMEN
  6
CONTINUOUS
 10
6.6556945144338879
 20
167.25854110210591
 30
0.0
 40
0.5
 50
180.00001900000001
 51
270.0000549999998
  0
ARC
  5
12E0D
  8
DANMEN
  6
CONTINUOUS
 10
7.1556975144338892
 20
167.25854110210591
 30
0.0
 40
0.5
 50
270.0000179999999
 51
0.0
  0
LINE
  5
12E0E
  8
DANMEN
  6
CONTINUOUS
 10
25.65569451443389
 20
158.75854110210591
 30
0.0
 11
33.655694514433897
 21
158.75854110210591
 31
0.0
  0
LINE
  5
12E0F
  8
DANMEN
  6
CONTINUOUS
 10
22.855694514433889
 20
155.38711310210579
 30
0.0
 11
22.855694514433889
 21
158.75854110210591
 31
0.0
  0
LINE
  5
12E10
  8
DANMEN
  6
CONTINUOUS
 10
21.655694514433879
 20
157.25856510210579
 30
0.0
 11
21.655694514433879
 21
157.25855310210591
 31
0.0
  0
LINE
  5
12E11
  8
DANMEN
  6
CONTINUOUS
 10
21.655694514433879
 20
156.75854110210591
 30
0.0
 11
21.655694514433879
 21
158.75854110210591
 31
0.0
  0
ARC
  5
12E12
  8
DANMEN
  6
CONTINUOUS
 10
21.15569451443389
 20
157.25856510210579
 30
0.0
 40
0.5
 50
270.0
 51
0.0
  0
ARC
  5
12E13
  8
DANMEN
  6
CONTINUOUS
 10
21.15569451443389
 20
157.25855310210591
 30
0.0
 40
0.5
 50
0.0
 51
90.0
  0
LINE
  5
12E14
  8
DANMEN
  6
CONTINUOUS
 10
21.655694514433879
 20
158.75854110210591
 30
0.0
 11
22.855694514433889
 21
158.75854110210591
 31
0.0
  0
LINE
  5
12E15
  8
DANMEN
  6
CONTINUOUS
 10
17.805688514433871
 20
156.7585651021059
 30
0.0
 11
21.15569451443389
 21
156.7585651021059
 31
0.0
  0
LINE
  5
12E16
  8
DANMEN
  6
CONTINUOUS
 10
17.805688514433871
 20
157.75855310210591
 30
0.0
 11
21.15569451443389
 21
157.75855310210591
 31
0.0
  0
LINE
  5
12E17
  8
DANMEN
  6
CONTINUOUS
 10
18.65569451443389
 20
156.75854110210591
 30
0.0
 11
21.655694514433879
 21
156.75854110210591
 31
0.0
  0
LINE
  5
12E18
  8
DANMEN
  6
CONTINUOUS
 10
20.455694514433869
 20
151.95854110210581
 30
0.0
 11
21.655694514433879
 21
151.95854110210581
 31
0.0
  0
LINE
  5
12E19
  8
DANMEN
  6
CONTINUOUS
 10
25.15569451443389
 20
152.75854110210591
 30
0.0
 11
22.855693514433881
 21
155.38711310210579
 31
0.0
  0
LINE
  5
12E1A
  8
DANMEN
  6
CONTINUOUS
 10
34.939591514433872
 20
152.32077710210581
 30
0.0
 11
34.508512514433868
 21
152.1146091021059
 31
0.0
  0
ARC
  5
12E1B
  8
DANMEN
  6
CONTINUOUS
 10
34.155694514433883
 20
152.41261810210591
 30
0.0
 40
0.5
 50
122.6849389999999
 51
180.0
  0
LINE
  5
12E1C
  8
DANMEN
  6
CONTINUOUS
 10
52.15569451443389
 20
147.2585451021059
 30
0.0
 11
52.15569451443389
 21
166.75854110210591
 31
0.0
  0
LINE
  5
12E1D
  8
DANMEN
  6
CONTINUOUS
 10
42.255693514433887
 20
151.76400110210591
 30
0.0
 11
42.255693514433887
 21
152.55853910210581
 31
0.0
  0
LINE
  5
12E1E
  8
DANMEN
  6
CONTINUOUS
 10
40.65569451443389
 20
150.75854010210591
 30
0.0
 11
40.65569451443389
 21
152.62316910210581
 31
0.0
  0
LINE
  5
12E1F
  8
DANMEN
  6
CONTINUOUS
 10
40.65569451443389
 20
152.62316910210581
 30
0.0
 11
42.255693514433887
 21
151.76400110210591
 31
0.0
  0
LINE
  5
12E20
  8
DANMEN
  6
CONTINUOUS
 10
43.15569451443389
 20
148.7085441021058
 30
0.0
 11
43.15569451443389
 21
157.25854410210579
 31
0.0
  0
LINE
  5
12E21
  8
DANMEN
  6
CONTINUOUS
 10
42.155694514433883
 20
151.7585441021059
 30
0.0
 11
42.155694514433883
 21
156.7585441021059
 31
0.0
  0
LINE
  5
12E22
  8
DANMEN
  6
CONTINUOUS
 10
35.655318514433873
 20
151.57818510210581
 30
0.0
 11
35.655318514433873
 21
151.8697101021059
 31
0.0
  0
LINE
  5
12E23
  8
DANMEN
  6
CONTINUOUS
 10
50.20569451443378
 20
148.7085441021058
 30
0.0
 11
50.20569451443378
 21
164.45854110210581
 31
0.0
  0
LINE
  5
12E24
  8
DANMEN
  6
CONTINUOUS
 10
50.20569451443378
 20
148.7085441021058
 30
0.0
 11
43.15569451443389
 21
148.7085441021058
 31
0.0
  0
LINE
  5
12E25
  8
DANMEN
  6
CONTINUOUS
 10
51.655694514433783
 20
146.7585441021059
 30
0.0
 11
42.155694514433883
 21
146.7585441021059
 31
0.0
  0
LINE
  5
12E26
  8
DANMEN
  6
CONTINUOUS
 10
41.655695514433859
 20
150.4585401021059
 30
0.0
 11
40.655695514433859
 21
150.75853910210569
 31
0.0
  0
LINE
  5
12E27
  8
DANMEN
  6
CONTINUOUS
 10
42.155694514433883
 20
151.7585441021059
 30
0.0
 11
41.655694514433883
 21
151.7585441021059
 31
0.0
  0
LINE
  5
12E28
  8
DANMEN
  6
CONTINUOUS
 10
42.855693514433881
 20
146.75854110210591
 30
0.0
 11
43.155693514433892
 21
147.05854010210581
 31
0.0
  0
LINE
  5
12E29
  8
DANMEN
  6
CONTINUOUS
 10
43.15569451443389
 20
146.95854210210581
 30
0.0
 11
43.15569451443389
 21
147.05854010210581
 31
0.0
  0
ARC
  5
12E2A
  8
DANMEN
  6
CONTINUOUS
 10
42.155694514433883
 20
147.2585441021059
 30
0.0
 40
0.5
 50
180.0
 51
270.0
  0
LINE
  5
12E2B
  8
DANMEN
  6
CONTINUOUS
 10
41.655694514433883
 20
146.75854110210591
 30
0.0
 11
42.855693514433881
 21
146.75854110210591
 31
0.0
  0
ARC
  5
12E2C
  8
DANMEN
  6
CONTINUOUS
 10
41.655694514433883
 20
146.95854210210581
 30
0.0
 40
1.5
 50
282.43832200000008
 51
0.0
  0
LINE
  5
12E2D
  8
DANMEN
  6
CONTINUOUS
 10
41.655694514433883
 20
146.75854110210591
 30
0.0
 11
41.655694514433883
 21
150.4585411021059
 31
0.0
  0
LINE
  5
12E2E
  8
DANMEN
  6
CONTINUOUS
 10
41.655694514433883
 20
147.2585451021059
 30
0.0
 11
41.655694514433883
 21
151.7585441021059
 31
0.0
  0
LINE
  5
12E2F
  8
DANMEN
  6
CONTINUOUS
 10
35.655318514433873
 20
147.27961310210571
 30
0.0
 11
35.655318514433873
 21
148.21170810210569
 31
0.0
  0
ARC
  5
12E30
  8
DANMEN
  6
CONTINUOUS
 10
51.655694514433783
 20
147.2585441021059
 30
0.0
 40
0.5
 50
270.00009099999988
 51
0.0001280000000991
  0
ARC
  5
12E31
  8
DANMEN
  6
CONTINUOUS
 10
42.655694514433861
 20
157.25854410210579
 30
0.0
 40
0.5
 50
0.0
 51
90.0
  0
ARC
  5
12E32
  8
DANMEN
  6
CONTINUOUS
 10
42.155694514433883
 20
157.25854410210579
 30
0.0
 40
0.5
 50
90.0
 51
180.0
  0
LINE
  5
12E33
  8
DANMEN
  6
CONTINUOUS
 10
41.655694514433883
 20
156.7585441021059
 30
0.0
 11
41.655694514433883
 21
157.25854410210579
 31
0.0
  0
LINE
  5
12E34
  8
DANMEN
  6
CONTINUOUS
 10
42.155694514433883
 20
156.7585441021059
 30
0.0
 11
41.655694514433883
 21
156.7585441021059
 31
0.0
  0
LINE
  5
12E35
  8
DANMEN
  6
CONTINUOUS
 10
42.655694514433861
 20
157.75854410210579
 30
0.0
 11
42.155694514433883
 21
157.75854410210579
 31
0.0
  0
ARC
  5
12E36
  8
DANMEN
  6
CONTINUOUS
 10
37.571119514433889
 20
152.4222621021058
 30
0.0
 40
2.336276999999999
 50
61.765072999999909
 51
122.6848959999997
  0
LINE
  5
12E37
  8
DANMEN
  6
CONTINUOUS
 10
42.255693514433887
 20
152.55854010210581
 30
0.0
 11
38.676384514433892
 21
154.4805581021059
 31
0.0
  0
LINE
  5
12E38
  8
DANMEN
  6
CONTINUOUS
 10
50.65569451443389
 20
166.45854110210581
 30
0.0
 11
50.65569451443389
 21
166.75854110210591
 31
0.0
  0
LINE
  5
12E39
  8
DANMEN
  6
CONTINUOUS
 10
49.65569451443389
 20
167.75854110210591
 30
0.0
 11
50.01749751443387
 21
167.03493410210581
 31
0.0
  0
ARC
  5
12E3A
  8
DANMEN
  6
CONTINUOUS
 10
49.955694514433887
 20
168.4585411021059
 30
0.0
 40
0.3
 50
90.0
 51
180.0
  0
LINE
  5
12E3B
  8
DANMEN
  6
CONTINUOUS
 10
49.65569451443389
 20
168.4585411021059
 30
0.0
 11
49.65569451443389
 21
167.75854110210591
 31
0.0
  0
LINE
  5
12E3C
  8
DANMEN
  6
CONTINUOUS
 10
49.65569451443389
 20
166.45854110210581
 30
0.0
 11
49.65569451443389
 21
168.4585411021059
 31
0.0
  0
LINE
  5
12E3D
  8
DANMEN
  6
CONTINUOUS
 10
50.055694514433881
 20
169.0242261021059
 30
0.0
 11
50.055694514433881
 21
169.04794710210581
 31
0.0
  0
ARC
  5
12E3E
  8
DANMEN
  6
CONTINUOUS
 10
49.555694514433888
 20
169.04794710210581
 30
0.0
 40
0.5
 50
0.0
 51
36.508792000000049
  0
ARC
  5
12E3F
  8
DANMEN
  6
CONTINUOUS
 10
49.955694514433887
 20
168.4585411021059
 30
0.0
 40
0.3
 50
109.4712209999997
 51
180.0
  0
ARC
  5
12E40
  8
DANMEN
  6
CONTINUOUS
 10
49.75569451443387
 20
169.0242261021059
 30
0.0
 40
0.3
 50
289.47122099999967
 51
0.0
  0
ARC
  5
12E41
  8
DANMEN
  6
CONTINUOUS
 10
50.464711514433787
 20
167.25854110210591
 30
0.0
 40
0.5
 50
206.56505100000001
 51
270.0
  0
LINE
  5
12E42
  8
DANMEN
  6
CONTINUOUS
 10
50.50569451443387
 20
168.75854110210591
 30
0.0
 11
49.955694514433887
 21
168.75854110210591
 31
0.0
  0
LINE
  5
12E43
  8
DANMEN
  6
CONTINUOUS
 10
50.65569451443389
 20
166.45854110210581
 30
0.0
 11
49.65569451443389
 21
166.45854110210581
 31
0.0
  0
ARC
  5
12E44
  8
DANMEN
  6
CONTINUOUS
 10
49.70569451443388
 20
164.45854110210581
 30
0.0
 40
0.5
 50
0.0
 51
90.0
  0
LINE
  5
12E45
  8
DANMEN
  6
CONTINUOUS
 10
49.70569451443388
 20
164.9585411021059
 30
0.0
 11
48.955694514433887
 21
164.9585411021059
 31
0.0
  0
ARC
  5
12E46
  8
DANMEN
  6
CONTINUOUS
 10
48.955694514433887
 20
165.45854110210581
 30
0.0
 40
0.5
 50
180.0
 51
270.0
  0
LINE
  5
12E47
  8
DANMEN
  6
CONTINUOUS
 10
48.455694514433873
 20
165.45854110210581
 30
0.0
 11
48.455694514433873
 21
169.3574581021058
 31
0.0
  0
ARC
  5
12E48
  8
DANMEN
  6
CONTINUOUS
 10
45.84578651443389
 20
169.25854110210591
 30
0.0
 40
0.5
 50
270.0
 51
348.69006799999983
  0
LINE
  5
12E49
  8
DANMEN
  6
CONTINUOUS
 10
45.84578651443389
 20
168.75854110210591
 30
0.0
 11
45.455688514433881
 21
168.75854110210591
 31
0.0
  0
LINE
  5
12E4A
  8
DANMEN
  6
CONTINUOUS
 10
46.655688514433891
 20
170.75854110210591
 30
0.0
 11
46.33607651443387
 21
169.16048310210579
 31
0.0
  0
LINE
  5
12E4B
  8
DANMEN
  6
CONTINUOUS
 10
50.464711514433787
 20
166.75854110210591
 30
0.0
 11
52.15569451443389
 21
166.75854110210591
 31
0.0
  0
LINE
  5
12E4C
  8
DANMEN
  6
CONTINUOUS
 10
52.15569451443389
 20
166.75854110210591
 30
0.0
 11
50.65569451443389
 21
166.75854110210591
 31
0.0
  0
ARC
  5
12E4D
  8
DANMEN
  6
CONTINUOUS
 10
73.15569451443389
 20
167.25854110210591
 30
0.0
 40
0.5
 50
180.0
 51
270.0
  0
LINE
  5
12E4E
  8
DANMEN
  6
CONTINUOUS
 10
72.65569451443389
 20
167.95854110210581
 30
0.0
 11
72.65569451443389
 21
167.25854110210591
 31
0.0
  0
LINE
  5
12E4F
  8
DANMEN
  6
CONTINUOUS
 10
31.455694514433869
 20
176.40855010210581
 30
0.0
 11
50.855694514433893
 21
176.40855010210581
 31
0.0
  0
LINE
  5
12E50
  8
DANMEN
  6
CONTINUOUS
 10
17.805688514433871
 20
174.75854110210591
 30
0.0
 11
45.455688514433881
 21
174.75854110210591
 31
0.0
  0
LINE
  5
12E51
  8
DANMEN
  6
CONTINUOUS
 10
11.65569451443387
 20
201.7585411021058
 30
0.0
 11
70.65569451443389
 21
201.7585411021058
 31
0.0
  0
LINE
  5
12E52
  8
DANMEN
  6
CONTINUOUS
 10
7.805703514433886
 20
200.10853210210581
 30
0.0
 11
7.805703514433886
 21
177.40855010210581
 31
0.0
  0
LINE
  5
12E53
  8
DANMEN
  6
CONTINUOUS
 10
8.8057035144338762
 20
176.40855010210581
 30
0.0
 11
22.855694514433889
 21
176.40855010210581
 31
0.0
  0
ARC
  5
12E54
  8
DANMEN
  6
CONTINUOUS
 10
8.8057035144338762
 20
177.40855010210581
 30
0.0
 40
1.0
 50
179.99996399999989
 51
270.00000099999971
  0
LINE
  5
12E55
  8
DANMEN
  6
CONTINUOUS
 10
7.6556975144338892
 20
174.75854110210591
 30
0.0
 11
16.15569451443389
 21
174.75854110210591
 31
0.0
  0
ARC
  5
12E56
  8
DANMEN
  6
CONTINUOUS
 10
25.75569451443387
 20
180.05854110210581
 30
0.0
 40
0.3
 50
0.0
 51
90.0
  0
ARC
  5
12E57
  8
DANMEN
  6
CONTINUOUS
 10
26.355694514433889
 20
177.4585411021059
 30
0.0
 40
1.0
 50
180.0
 51
270.0
  0
ARC
  5
12E58
  8
DANMEN
  6
CONTINUOUS
 10
26.355694514433889
 20
178.70460210210581
 30
0.0
 40
1.0
 50
114.6243180000001
 51
180.0
  0
LINE
  5
12E59
  8
DANMEN
  6
CONTINUOUS
 10
25.75569451443387
 20
180.3585411021057
 30
0.0
 11
24.616315514433889
 21
180.3585411021057
 31
0.0
  0
LINE
  5
12E5A
  8
DANMEN
  6
CONTINUOUS
 10
25.355694514433889
 20
178.70460210210581
 30
0.0
 11
25.355694514433889
 21
177.4585411021059
 31
0.0
  0
LINE
  5
12E5B
  8
DANMEN
  6
CONTINUOUS
 10
23.855694514433889
 20
178.7888471021059
 30
0.0
 11
23.855694514433889
 21
177.40855010210581
 31
0.0
  0
ARC
  5
12E5C
  8
DANMEN
  6
CONTINUOUS
 10
22.855694514433889
 20
177.40855010210581
 30
0.0
 40
1.0
 50
270.0
 51
0.0
  0
ARC
  5
12E5D
  8
DANMEN
  6
CONTINUOUS
 10
25.855694514433878
 20
178.7888471021059
 30
0.0
 40
2.0
 50
128.2934769999998
 51
180.0
  0
ARC
  5
12E5E
  8
DANMEN
  6
CONTINUOUS
 10
28.555694514433881
 20
180.05854110210581
 30
0.0
 40
0.3
 50
90.0
 51
180.0
  0
LINE
  5
12E5F
  8
DANMEN
  6
CONTINUOUS
 10
29.695073514433862
 20
180.3585411021057
 30
0.0
 11
28.555694514433881
 21
180.3585411021057
 31
0.0
  0
LINE
  5
12E60
  8
DANMEN
  6
CONTINUOUS
 10
28.25569451443387
 20
180.05854110210581
 30
0.0
 11
28.25569451443387
 21
179.7954731021058
 31
0.0
  0
ARC
  5
12E61
  8
DANMEN
  6
CONTINUOUS
 10
28.455694514433858
 20
179.7954731021058
 30
0.0
 40
0.2
 50
180.0
 51
245.37568199999981
  0
LINE
  5
12E62
  8
DANMEN
  6
CONTINUOUS
 10
30.455694514433869
 20
178.7888471021059
 30
0.0
 11
30.455694514433869
 21
177.40855010210581
 31
0.0
  0
ARC
  5
12E63
  8
DANMEN
  6
CONTINUOUS
 10
31.455694514433869
 20
177.40855010210581
 30
0.0
 40
1.0
 50
180.0
 51
270.0
  0
LINE
  5
12E64
  8
DANMEN
  6
CONTINUOUS
 10
28.955694514433869
 20
178.70460210210581
 30
0.0
 11
28.955694514433869
 21
177.4585411021059
 31
0.0
  0
ARC
  5
12E65
  8
DANMEN
  6
CONTINUOUS
 10
27.955694514433869
 20
177.4585411021059
 30
0.0
 40
1.0
 50
270.0
 51
0.0
  0
ARC
  5
12E66
  8
DANMEN
  6
CONTINUOUS
 10
27.955694514433869
 20
178.70460210210581
 30
0.0
 40
1.0
 50
0.0
 51
65.375681999999898
  0
ARC
  5
12E67
  8
DANMEN
  6
CONTINUOUS
 10
28.455694514433858
 20
178.7888471021059
 30
0.0
 40
2.0
 50
0.0
 51
51.706523000000111
  0
ARC
  5
12E68
  8
DANMEN
  6
CONTINUOUS
 10
25.855694514433878
 20
179.7954731021058
 30
0.0
 40
0.2
 50
294.62431800000002
 51
0.0
  0
LINE
  5
12E69
  8
DANMEN
  6
CONTINUOUS
 10
26.055694514433881
 20
180.05854110210581
 30
0.0
 11
26.055694514433881
 21
179.7954731021058
 31
0.0
  0
LINE
  5
12E6A
  8
DANMEN
  6
CONTINUOUS
 10
27.955694514433869
 20
176.45854110210581
 30
0.0
 11
26.355694514433889
 21
176.45854110210581
 31
0.0
  0
LINE
  5
12E6B
  8
DANMEN
  6
CONTINUOUS
 10
12.15569451443389
 20
201.25854110210591
 30
0.0
 11
12.15569451443389
 21
200.60853210210601
 31
0.0
  0
ARC
  5
12E6C
  8
DANMEN
  6
CONTINUOUS
 10
11.65569451443387
 20
200.60853210210601
 30
0.0
 40
0.5
 50
270.0000179999999
 51
0.0
  0
LINE
  5
12E6D
  8
DANMEN
  6
CONTINUOUS
 10
7.805703514433886
 20
200.10853210210581
 30
0.0
 11
11.65569451443387
 21
200.10853210210581
 31
0.0
  0
LINE
  5
12E6E
  8
DANMEN
  6
CONTINUOUS
 10
6.6556945144338879
 20
201.7585411021058
 30
0.0
 11
11.65569451443387
 21
201.7585411021058
 31
0.0
  0
ARC
  5
12E6F
  8
DANMEN
  6
CONTINUOUS
 10
6.6556945144338879
 20
201.25854110210591
 30
0.0
 40
0.5
 50
89.99998199999996
 51
180.00001900000001
  0
ARC
  5
12E70
  8
DANMEN
  6
CONTINUOUS
 10
11.65569451443387
 20
201.25854110210591
 30
0.0
 40
0.5
 50
0.0
 51
89.99998199999996
  0
LINE
  5
12E71
  8
DANMEN
  6
CONTINUOUS
 10
55.95569451443388
 20
176.45854110210581
 30
0.0
 11
54.355694514433893
 21
176.45854110210581
 31
0.0
  0
LINE
  5
12E72
  8
DANMEN
  6
CONTINUOUS
 10
54.055694514433902
 20
180.05854110210581
 30
0.0
 11
54.055694514433902
 21
179.7954731021058
 31
0.0
  0
ARC
  5
12E73
  8
DANMEN
  6
CONTINUOUS
 10
53.855694514433893
 20
179.7954731021058
 30
0.0
 40
0.2
 50
294.62431800000002
 51
0.0
  0
LINE
  5
12E74
  8
DANMEN
  6
CONTINUOUS
 10
53.755694514433877
 20
180.3585411021057
 30
0.0
 11
52.616315514433794
 21
180.3585411021057
 31
0.0
  0
ARC
  5
12E75
  8
DANMEN
  6
CONTINUOUS
 10
53.755694514433877
 20
180.05854110210581
 30
0.0
 40
0.3
 50
0.0
 51
90.0
  0
LINE
  5
12E76
  8
DANMEN
  6
CONTINUOUS
 10
51.855694514433893
 20
178.7888471021059
 30
0.0
 11
51.855694514433893
 21
177.40855010210581
 31
0.0
  0
LINE
  5
12E77
  8
DANMEN
  6
CONTINUOUS
 10
53.355694514433893
 20
178.70460210210581
 30
0.0
 11
53.355694514433893
 21
177.4585411021059
 31
0.0
  0
ARC
  5
12E78
  8
DANMEN
  6
CONTINUOUS
 10
54.355694514433893
 20
177.4585411021059
 30
0.0
 40
1.0
 50
180.0
 51
270.0
  0
ARC
  5
12E79
  8
DANMEN
  6
CONTINUOUS
 10
54.355694514433893
 20
178.70460210210581
 30
0.0
 40
1.0
 50
114.6243180000001
 51
180.0
  0
ARC
  5
12E7A
  8
DANMEN
  6
CONTINUOUS
 10
53.855694514433893
 20
178.7888471021059
 30
0.0
 40
2.0
 50
128.2934769999998
 51
180.0
  0
LINE
  5
12E7B
  8
DANMEN
  6
CONTINUOUS
 10
46.45569451443388
 20
172.05943510210591
 30
0.0
 11
46.45569451443388
 21
173.2594351021059
 31
0.0
  0
LINE
  5
12E7C
  8
DANMEN
  6
CONTINUOUS
 10
47.77130251443387
 20
174.17049410210581
 30
0.0
 11
46.45569451443388
 21
173.2594351021059
 31
0.0
  0
LINE
  5
12E7D
  8
DANMEN
  6
CONTINUOUS
 10
48.055960514433892
 20
174.25943510210581
 30
0.0
 11
48.055830514433879
 21
174.25943510210581
 31
0.0
  0
LINE
  5
12E7E
  8
DANMEN
  6
CONTINUOUS
 10
48.555830514433893
 20
173.75943510210581
 30
0.0
 11
48.555830514433893
 21
173.5160711021058
 31
0.0
  0
ARC
  5
12E7F
  8
DANMEN
  6
CONTINUOUS
 10
48.055960514433892
 20
173.75943510210581
 30
0.0
 40
0.5
 50
90.0
 51
124.70262200000001
  0
ARC
  5
12E80
  8
DANMEN
  6
CONTINUOUS
 10
48.055830514433879
 20
173.75943510210581
 30
0.0
 40
0.5
 50
0.0
 51
90.0
  0
LINE
  5
12E81
  8
DANMEN
  6
CONTINUOUS
 10
48.340488514433872
 20
173.1050121021058
 30
0.0
 11
47.82432151443389
 21
172.74756610210591
 31
0.0
  0
ARC
  5
12E82
  8
DANMEN
  6
CONTINUOUS
 10
47.99511651443386
 20
172.50093010210591
 30
0.0
 40
0.3
 50
124.70262200000001
 51
216.5087919999998
  0
ARC
  5
12E83
  8
DANMEN
  6
CONTINUOUS
 10
48.055830514433879
 20
173.5160711021058
 30
0.0
 40
0.5
 50
304.70262199999991
 51
0.0
  0
LINE
  5
12E84
  8
DANMEN
  6
CONTINUOUS
 10
46.655688514433891
 20
174.75854110210591
 30
0.0
 11
50.50569451443387
 21
174.75854110210591
 31
0.0
  0
ARC
  5
12E85
  8
DANMEN
  6
CONTINUOUS
 10
50.855694514433893
 20
177.40855010210581
 30
0.0
 40
1.0
 50
270.0
 51
0.0
  0
ARC
  5
12E86
  8
DANMEN
  6
CONTINUOUS
 10
56.45569451443378
 20
179.7954731021058
 30
0.0
 40
0.2
 50
180.0
 51
245.37568199999981
  0
LINE
  5
12E87
  8
DANMEN
  6
CONTINUOUS
 10
56.255694514433749
 20
180.05854110210581
 30
0.0
 11
56.255694514433749
 21
179.7954731021058
 31
0.0
  0
LINE
  5
12E88
  8
DANMEN
  6
CONTINUOUS
 10
57.695073514433801
 20
180.3585411021057
 30
0.0
 11
56.555694514433902
 21
180.3585411021057
 31
0.0
  0
ARC
  5
12E89
  8
DANMEN
  6
CONTINUOUS
 10
56.555694514433902
 20
180.05854110210581
 30
0.0
 40
0.3
 50
90.0
 51
180.0
  0
LINE
  5
12E8A
  8
DANMEN
  6
CONTINUOUS
 10
58.45569451443378
 20
178.7888471021059
 30
0.0
 11
58.45569451443378
 21
177.40855010210581
 31
0.0
  0
ARC
  5
12E8B
  8
DANMEN
  6
CONTINUOUS
 10
59.455694514433787
 20
177.40855010210581
 30
0.0
 40
1.0
 50
180.0
 51
270.0
  0
LINE
  5
12E8C
  8
DANMEN
  6
CONTINUOUS
 10
56.955694514433887
 20
178.70460210210581
 30
0.0
 11
56.955694514433887
 21
177.4585411021059
 31
0.0
  0
ARC
  5
12E8D
  8
DANMEN
  6
CONTINUOUS
 10
55.95569451443388
 20
177.4585411021059
 30
0.0
 40
1.0
 50
270.0
 51
0.0
  0
ARC
  5
12E8E
  8
DANMEN
  6
CONTINUOUS
 10
55.95569451443388
 20
178.70460210210581
 30
0.0
 40
1.0
 50
0.0
 51
65.375681999999898
  0
ARC
  5
12E8F
  8
DANMEN
  6
CONTINUOUS
 10
56.45569451443378
 20
178.7888471021059
 30
0.0
 40
2.0
 50
0.0
 51
51.706523000000111
  0
LINE
  5
12E90
  8
DANMEN
  6
CONTINUOUS
 10
70.15569451443389
 20
201.25854110210591
 30
0.0
 11
70.15569451443389
 21
200.60853210210601
 31
0.0
  0
ARC
  5
12E91
  8
DANMEN
  6
CONTINUOUS
 10
70.65569451443389
 20
200.60853210210601
 30
0.0
 40
0.5
 50
179.99996399999989
 51
270.00000099999971
  0
ARC
  5
12E92
  8
DANMEN
  6
CONTINUOUS
 10
70.65569451443389
 20
201.25854110210591
 30
0.0
 40
0.5
 50
89.99998199999996
 51
180.00001900000001
  0
LINE
  5
12E93
  8
SUNPO
  6
CONTINUOUS
 10
126.1556945144338
 20
166.75854110210591
 30
0.0
 11
126.1556945144338
 21
116.7585411021058
 31
0.0
  0
LINE
  5
12E94
  8
DANMEN
  6
CONTINUOUS
 10
74.505694514433884
 20
166.75854110210591
 30
0.0
 11
74.505694514433884
 21
108.7585411021058
 31
0.0
  0
LINE
  5
12E95
  8
DANMEN
  6
CONTINUOUS
 10
76.15569451443389
 20
167.25854110210591
 30
0.0
 11
76.15569451443389
 21
108.7585411021058
 31
0.0
  0
ARC
  5
12E96
  8
SUNPO
  6
BYBLOCK
 10
76.15569451443389
 20
84.758541102105966
 30
0.0
 40
0.145
 50
180.0
 51
0.0
  0
ARC
  5
12E97
  8
SUNPO
  6
BYBLOCK
 10
76.15569451443389
 20
84.758541102105966
 30
0.0
 40
0.145
 50
0.0
 51
180.0
  0
ARC
  5
12E98
  8
SUNPO
  6
BYBLOCK
 10
76.15569451443389
 20
94.758541102105966
 30
0.0
 40
0.145
 50
180.0
 51
0.0
  0
ARC
  5
12E99
  8
SUNPO
  6
BYBLOCK
 10
76.15569451443389
 20
94.758541102105966
 30
0.0
 40
0.145
 50
0.0
 51
180.0
  0
LINE
  5
12E9A
  8
SUNPO
  6
CONTINUOUS
 10
124.9556215144338
 20
115.4148451021059
 30
0.0
 11
124.9556215144338
 21
110.6263021021059
 31
0.0
  0
LINE
  5
12E9B
  8
SUNPO
  6
CONTINUOUS
 10
127.35561551443379
 20
115.4148451021059
 30
0.0
 11
127.35561551443379
 21
110.6263021021059
 31
0.0
  0
LINE
  5
12E9C
  8
SUNPO
  6
CONTINUOUS
 10
126.1556945144338
 20
107.3995861021057
 30
0.0
 11
126.1556945144338
 21
101.8995861021058
 31
0.0
  0
LINE
  5
12E9D
  8
SUNPO
  6
CONTINUOUS
 10
130.1556945144338
 20
103.29958010210581
 30
0.0
 11
130.1556945144338
 21
98.10223710210596
 31
0.0
  0
LINE
  5
12E9E
  8
SUNPO
  6
CONTINUOUS
 10
122.1556945144337
 20
103.29958010210581
 30
0.0
 11
122.1556945144337
 21
98.10223710210596
 31
0.0
  0
LINE
  5
12E9F
  8
SUNPO
  6
CONTINUOUS
 10
122.1556945144337
 20
101.8995861021058
 30
0.0
 11
130.1556945144338
 21
101.8995861021058
 31
0.0
  0
LINE
  5
12EA0
  8
SUNPO
  6
CONTINUOUS
 10
122.1556945144337
 20
99.899586102105786
 30
0.0
 11
130.1556945144338
 21
99.899586102105786
 31
0.0
  0
LINE
  5
12EA1
  8
SUNPO
  6
CONTINUOUS
 10
130.1556945144338
 20
109.4125321021059
 30
0.0
 11
130.1556945144338
 21
105.6794851021057
 31
0.0
  0
LINE
  5
12EA2
  8
SUNPO
  6
CONTINUOUS
 10
122.1556945144337
 20
109.4125321021059
 30
0.0
 11
122.1556945144337
 21
105.6794851021057
 31
0.0
  0
LINE
  5
12EA3
  8
SUNPO
  6
CONTINUOUS
 10
122.1556945144337
 20
107.3995861021057
 30
0.0
 11
130.1556945144338
 21
107.3995861021057
 31
0.0
  0
LINE
  5
12EA4
  8
SUNPO
  6
CONTINUOUS
 10
126.1556945144338
 20
201.7585411021058
 30
0.0
 11
126.1556945144338
 21
166.75854110210591
 31
0.0
  0
LINE
  5
12EA5
  8
DANMEN
  6
CONTINUOUS
 10
74.505685514433793
 20
174.75854110210591
 30
0.0
 11
74.505685514433793
 21
167.95854110210581
 31
0.0
  0
LINE
  5
12EA6
  8
DANMEN
  6
CONTINUOUS
 10
76.15569451443389
 20
201.25854110210591
 30
0.0
 11
76.15569451443389
 21
167.25854110210591
 31
0.0
  0
LINE
  5
12EA7
  8
SUNPO
  6
CONTINUOUS
 10
77.655694514433762
 20
166.75854110210591
 30
0.0
 11
126.1556945144338
 21
166.75854110210591
 31
0.0
  0
LINE
  5
12EA8
  8
SUNPO
  6
CONTINUOUS
 10
77.655694514433762
 20
146.75854110210591
 30
0.0
 11
116.1556945144338
 21
146.75854110210591
 31
0.0
  0
ARC
  5
12EA9
  8
DANMEN
  6
CONTINUOUS
 10
75.65569451443389
 20
167.25854110210591
 30
0.0
 40
0.5
 50
270.0000179999999
 51
0.0
  0
LINE
  5
12EAA
  8
DANMEN
  6
CONTINUOUS
 10
74.505694514433884
 20
166.75854110210591
 30
0.0
 11
76.15569451443389
 21
166.75854110210591
 31
0.0
  0
LINE
  5
12EAB
  8
SUNPO
  6
CONTINUOUS
 10
116.1556945144338
 20
166.75854110210591
 30
0.0
 11
116.1556945144338
 21
146.75854110210591
 31
0.0
  0
ARC
  5
12EAC
  8
SUNPO
  6
BYBLOCK
 10
116.1556945144338
 20
146.75854110210591
 30
0.0
 40
0.145
 50
90.0
 51
270.0
  0
ARC
  5
12EAD
  8
SUNPO
  6
BYBLOCK
 10
116.1556945144338
 20
146.75854110210591
 30
0.0
 40
0.145
 50
270.0
 51
90.0
  0
LINE
  5
12EAE
  8
SUNPO
  6
CONTINUOUS
 10
131.1556945144338
 20
161.75854110210591
 30
0.0
 11
121.1556945144337
 21
161.75854110210591
 31
0.0
  0
LINE
  5
12EAF
  8
SUNPO
  6
CONTINUOUS
 10
126.1556945144338
 20
166.75854110210591
 30
0.0
 11
131.1556945144338
 21
161.75854110210591
 31
0.0
  0
TEXT
  5
12EB0
  8
SUNPO
  6
CONTINUOUS
 10
115.1556945144338
 20
154.8835411021058
 30
0.0
 40
2.5
  1
20
 50
90.0
  0
ARC
  5
12EB1
  8
SUNPO
  6
BYBLOCK
 10
116.1556945144338
 20
166.75854110210591
 30
0.0
 40
0.145
 50
270.0
 51
90.0
  0
ARC
  5
12EB2
  8
SUNPO
  6
BYBLOCK
 10
116.1556945144338
 20
166.75854110210591
 30
0.0
 40
0.145
 50
90.0
 51
270.0
  0
LINE
  5
12EB3
  8
SUNPO
  6
CONTINUOUS
 10
121.1556945144337
 20
161.75854110210591
 30
0.0
 11
126.1556945144338
 21
166.75854110210591
 31
0.0
  0
LINE
  5
12EB4
  8
SUNPO
  6
CONTINUOUS
 10
77.655694514433762
 20
201.7585411021058
 30
0.0
 11
126.1556945144338
 21
201.7585411021058
 31
0.0
  0
LINE
  5
12EB5
  8
DANMEN
  6
CONTINUOUS
 10
74.505685514433793
 20
200.10853210210581
 30
0.0
 11
74.505685514433793
 21
177.40855010210581
 31
0.0
  0
ARC
  5
12EB6
  8
DANMEN
  6
CONTINUOUS
 10
73.505685514433793
 20
177.40855010210581
 30
0.0
 40
1.0
 50
270.0
 51
0.0
  0
ARC
  5
12EB7
  8
DANMEN
  6
CONTINUOUS
 10
75.65569451443389
 20
201.25854110210591
 30
0.0
 40
0.5
 50
0.0
 51
89.99998199999996
  0
TEXT
  5
12EB8
  8
SUNPO
  6
CONTINUOUS
 10
125.1556945144338
 20
182.1752081021059
 30
0.0
 40
2.5
  1
35
 50
90.0
  0
ARC
  5
12EB9
  8
SUNPO
  6
BYBLOCK
 10
126.1556945144338
 20
201.7585411021058
 30
0.0
 40
0.145
 50
90.0
 51
270.0
  0
ARC
  5
12EBA
  8
SUNPO
  6
BYBLOCK
 10
126.1556945144338
 20
201.7585411021058
 30
0.0
 40
0.145
 50
270.0
 51
90.0
  0
LINE
  5
12EBB
  8
DANMEN
  6
CONTINUOUS
 10
366.86245649610368
 20
105.8357591105526
 30
0.0
 11
366.86245649610368
 21
102.8357591105526
 31
0.0
  0
LINE
  5
12EBC
  8
SUNPO
  6
CONTINUOUS
 10
386.86245728989689
 20
112.83575891683751
 30
0.0
 11
386.86245728989689
 21
72.335758916837563
 31
0.0
  0
LINE
  5
12EBD
  8
DANMEN
  6
CONTINUOUS
 10
324.8624565425676
 20
108.53575891683739
 30
0.0
 11
324.8624565425676
 21
79.835765020353179
 31
0.0
  0
LINE
  5
12EBE
  8
DANMEN
  6
CONTINUOUS
 10
328.8624565425676
 20
108.53575891683739
 30
0.0
 11
328.8624565425676
 21
72.13575891683756
 31
0.0
  0
LINE
  5
12EBF
  8
DANMEN
  6
CONTINUOUS
 10
344.8624565425676
 20
108.53575891683739
 30
0.0
 11
344.8624565425676
 21
72.13575891683756
 31
0.0
  0
LINE
  5
12EC0
  8
DANMEN
  6
CONTINUOUS
 10
348.8624565425676
 20
108.53575891683739
 30
0.0
 11
348.8624565425676
 21
79.835765020353179
 31
0.0
  0
ARC
  5
12EC1
  8
DANMEN
  6
CONTINUOUS
 10
308.36248095663012
 20
103.33575891683751
 30
0.0
 40
0.5
 50
270.0
 51
0.0
  0
ARC
  5
12EC2
  8
DANMEN
  6
CONTINUOUS
 10
307.36248095663018
 20
103.33575891683751
 30
0.0
 40
0.5
 50
180.0
 51
270.0
  0
LINE
  5
12EC3
  8
DANMEN
  6
CONTINUOUS
 10
301.86247180135678
 20
103.33575891683751
 30
0.0
 11
301.86247180135678
 21
102.83575891683751
 31
0.0
  0
LINE
  5
12EC4
  8
DANMEN
  6
CONTINUOUS
 10
302.06245639829677
 20
104.03575891981779
 30
0.0
 11
302.06245639829677
 21
102.8357591105526
 31
0.0
  0
ARC
  5
12EC5
  8
DANMEN
  6
CONTINUOUS
 10
297.3624565425676
 20
103.33575891683751
 30
0.0
 40
0.5
 50
180.00001798608889
 51
270.0
  0
LINE
  5
12EC6
  8
DANMEN
  6
CONTINUOUS
 10
296.8624565425676
 20
103.13575969876931
 30
0.0
 11
297.16245713078428
 21
102.8357591105526
 31
0.0
  0
LINE
  5
12EC7
  8
DANMEN
  6
CONTINUOUS
 10
296.86245672776039
 20
103.1357593135008
 30
0.0
 11
296.55982514274513
 21
98.535758287039357
 31
0.0
  0
LINE
  5
12EC8
  8
SUNPO
  6
CONTINUOUS
 10
256.86245728989701
 20
112.83575891683751
 30
0.0
 11
256.86245728989701
 21
72.335758916837563
 31
0.0
  0
LINE
  5
12EC9
  8
DANMEN
  6
CONTINUOUS
 10
306.86245658903169
 20
105.8357591105526
 30
0.0
 11
306.86245658903169
 21
102.8357591105526
 31
0.0
  0
LINE
  5
12ECA
  8
DANMEN
  6
CONTINUOUS
 10
236.86244128377871
 20
103.33575891683751
 30
0.0
 11
236.86244128377871
 21
102.83575891683751
 31
0.0
  0
ARC
  5
12ECB
  8
DANMEN
  6
CONTINUOUS
 10
241.3624565425676
 20
103.33575891683751
 30
0.0
 40
0.5
 50
270.0
 51
359.99998201391088
  0
LINE
  5
12ECC
  8
DANMEN
  6
CONTINUOUS
 10
241.8624565425676
 20
103.13575969876931
 30
0.0
 11
241.5624559543509
 21
102.8357591105526
 31
0.0
  0
LINE
  5
12ECD
  8
DANMEN
  6
CONTINUOUS
 10
241.86245635737509
 20
103.1357593135008
 30
0.0
 11
242.16508794238999
 21
98.535758287039357
 31
0.0
  0
LINE
  5
12ECE
  8
DANMEN
  6
CONTINUOUS
 10
236.66245668683871
 20
104.03575891981779
 30
0.0
 11
236.66245668683871
 21
102.8357591105526
 31
0.0
  0
ARC
  5
12ECF
  8
DANMEN
  6
CONTINUOUS
 10
231.36243212850511
 20
103.33575891683751
 30
0.0
 40
0.5
 50
270.0
 51
0.0
  0
ARC
  5
12ED0
  8
DANMEN
  6
CONTINUOUS
 10
230.3624443355364
 20
103.33575891683751
 30
0.0
 40
0.5
 50
180.0
 51
270.0
  0
ARC
  5
12ED1
  8
DANMEN
  6
CONTINUOUS
 10
193.36248095663001
 20
103.33575891683751
 30
0.0
 40
0.5
 50
270.0
 51
0.0
  0
ARC
  5
12ED2
  8
DANMEN
  6
CONTINUOUS
 10
192.36248095663001
 20
103.33575891683751
 30
0.0
 40
0.5
 50
180.0
 51
270.0
  0
LINE
  5
12ED3
  8
DANMEN
  6
CONTINUOUS
 10
186.8624718013568
 20
103.33575891683751
 30
0.0
 11
186.8624718013568
 21
102.83575891683751
 31
0.0
  0
LINE
  5
12ED4
  8
DANMEN
  6
CONTINUOUS
 10
187.0624563982968
 20
104.03575891981779
 30
0.0
 11
187.0624563982968
 21
102.8357591105526
 31
0.0
  0
ARC
  5
12ED5
  8
DANMEN
  6
CONTINUOUS
 10
182.3624565425676
 20
103.33575891683751
 30
0.0
 40
0.5
 50
180.00001798608889
 51
270.0
  0
LINE
  5
12ED6
  8
DANMEN
  6
CONTINUOUS
 10
181.8624565425676
 20
103.13575969876931
 30
0.0
 11
182.1624571307845
 21
102.8357591105526
 31
0.0
  0
LINE
  5
12ED7
  8
DANMEN
  6
CONTINUOUS
 10
181.86245672776039
 20
103.1357593135008
 30
0.0
 11
181.5598251427453
 21
98.535758287039357
 31
0.0
  0
LINE
  5
12ED8
  8
DANMEN
  6
CONTINUOUS
 10
191.86245658903181
 20
105.8357591105526
 30
0.0
 11
191.86245658903181
 21
102.8357591105526
 31
0.0
  0
LINE
  5
12ED9
  8
DANMEN
  6
CONTINUOUS
 10
209.8624565425676
 20
108.53575891683739
 30
0.0
 11
209.8624565425676
 21
79.835765020353179
 31
0.0
  0
LINE
  5
12EDA
  8
DANMEN
  6
CONTINUOUS
 10
231.8624564961037
 20
105.8357591105526
 30
0.0
 11
231.8624564961037
 21
102.8357591105526
 31
0.0
  0
LINE
  5
12EDB
  8
DANMEN
  6
CONTINUOUS
 10
213.8624565425676
 20
108.53575891683739
 30
0.0
 11
213.8624565425676
 21
79.835765020353179
 31
0.0
  0
LINE
  5
12EDC
  8
SUNPO
  6
CONTINUOUS
 10
171.8624580372263
 20
118.33575891683751
 30
0.0
 11
171.8624580372263
 21
48.335758916837548
 31
0.0
  0
LINE
  5
12EDD
  8
SUNPO
  6
CONTINUOUS
 10
286.8624580372263
 20
118.33575891683751
 30
0.0
 11
286.8624580372263
 21
48.335758916837548
 31
0.0
  0
ARC
  5
12EDE
  8
DANMEN
  6
CONTINUOUS
 10
376.3624565425676
 20
103.33575891683751
 30
0.0
 40
0.5
 50
270.0
 51
359.99998201391088
  0
LINE
  5
12EDF
  8
DANMEN
  6
CONTINUOUS
 10
376.8624565425676
 20
103.13575969876931
 30
0.0
 11
376.56245595435098
 21
102.8357591105526
 31
0.0
  0
LINE
  5
12EE0
  8
DANMEN
  6
CONTINUOUS
 10
376.86245635737509
 20
103.1357593135008
 30
0.0
 11
377.16508794239002
 21
98.535758287039357
 31
0.0
  0
LINE
  5
12EE1
  8
DANMEN
  6
CONTINUOUS
 10
371.86244128377871
 20
103.33575891683751
 30
0.0
 11
371.86244128377871
 21
102.83575891683751
 31
0.0
  0
LINE
  5
12EE2
  8
DANMEN
  6
CONTINUOUS
 10
371.66245668683871
 20
104.03575891981779
 30
0.0
 11
371.66245668683871
 21
102.8357591105526
 31
0.0
  0
ARC
  5
12EE3
  8
DANMEN
  6
CONTINUOUS
 10
366.36243212850508
 20
103.33575891683751
 30
0.0
 40
0.5
 50
270.0
 51
0.0
  0
ARC
  5
12EE4
  8
DANMEN
  6
CONTINUOUS
 10
365.36244433553651
 20
103.33575891683751
 30
0.0
 40
0.5
 50
180.0
 51
270.0
  0
ARC
  5
12EE5
  8
DANMEN
  6
CONTINUOUS
 10
302.36245658903169
 20
99.335759110552644
 30
0.0
 40
0.5
 50
180.00001798608889
 51
359.99998201391088
  0
LINE
  5
12EE6
  8
DANMEN
  6
CONTINUOUS
 10
297.1624567797665
 20
102.8357591105526
 30
0.0
 11
302.06245639829677
 21
102.8357591105526
 31
0.0
  0
ARC
  5
12EE7
  8
DANMEN
  6
CONTINUOUS
 10
301.973625259686
 20
89.336134858233322
 30
0.0
 40
0.5
 50
270.00001693291881
 51
25.559915925932192
  0
LINE
  5
12EE8
  8
DANMEN
  6
CONTINUOUS
 10
302.51653397600711
 20
90.835759110552374
 30
0.0
 11
300.86532281350742
 21
90.835759110552374
 31
0.0
  0
ARC
  5
12EE9
  8
DANMEN
  6
CONTINUOUS
 10
300.86532281350742
 20
89.335759110552374
 30
0.0
 40
1.5
 50
25.559915609941552
 51
90.0
  0
LINE
  5
12EEA
  8
DANMEN
  6
CONTINUOUS
 10
301.86791618375833
 20
82.235759682757234
 30
0.0
 11
302.66245468168302
 21
82.235759682757234
 31
0.0
  0
LINE
  5
12EEB
  8
DANMEN
  6
CONTINUOUS
 10
302.72708409149681
 20
83.835759277739314
 30
0.0
 11
301.86791607093232
 21
82.235759995116553
 31
0.0
  0
LINE
  5
12EEC
  8
DANMEN
  6
CONTINUOUS
 10
300.86245544462258
 20
83.835759110552644
 30
0.0
 11
302.72708423643161
 21
83.835759110552644
 31
0.0
  0
LINE
  5
12EED
  8
DANMEN
  6
CONTINUOUS
 10
301.86245793277402
 20
82.335758916837534
 30
0.0
 11
306.86245793277402
 21
82.335758916837563
 31
0.0
  0
LINE
  5
12EEE
  8
DANMEN
  6
CONTINUOUS
 10
298.81245793277401
 20
81.335758916837506
 30
0.0
 11
307.36245793277402
 21
81.335758916837563
 31
0.0
  0
LINE
  5
12EEF
  8
DANMEN
  6
CONTINUOUS
 10
297.36245904936902
 20
72.335758916837506
 30
0.0
 11
316.86245507175113
 21
72.335758916837563
 31
0.0
  0
LINE
  5
12EF0
  8
DANMEN
  6
CONTINUOUS
 10
298.81245793277401
 20
74.285758726102642
 30
0.0
 11
314.562455071751
 21
74.285758726102699
 31
0.0
  0
LINE
  5
12EF1
  8
DANMEN
  6
CONTINUOUS
 10
308.8624563982969
 20
98.335759110552615
 30
0.0
 11
281.8624557952383
 21
98.335759110552615
 31
0.0
  0
LINE
  5
12EF2
  8
DANMEN
  6
CONTINUOUS
 10
308.8624563982969
 20
98.835759110552686
 30
0.0
 11
281.8624557952383
 21
98.835759110552686
 31
0.0
  0
LINE
  5
12EF3
  8
DANMEN
  6
CONTINUOUS
 10
308.8624563982969
 20
91.33575911055263
 30
0.0
 11
281.8624557952383
 21
91.33575911055263
 31
0.0
  0
LINE
  5
12EF4
  8
DANMEN
  6
CONTINUOUS
 10
308.8624563982969
 20
90.835759110552615
 30
0.0
 11
281.8624557952383
 21
90.835759110552615
 31
0.0
  0
LINE
  5
12EF5
  8
SUNPO
  6
CONTINUOUS
 10
316.86245656640961
 20
38.335758916837563
 30
0.0
 11
296.8624565425676
 21
38.335758916837563
 31
0.0
  0
LINE
  5
12EF6
  8
DANMEN
  6
CONTINUOUS
 10
281.86245803722619
 20
48.335758916837548
 30
0.0
 11
391.86245728989689
 21
48.335758916837548
 31
0.0
  0
LINE
  5
12EF7
  8
DANMEN
  6
CONTINUOUS
 10
281.86245803722619
 20
51.835758916837548
 30
0.0
 11
391.86245728989689
 21
51.835758916837548
 31
0.0
  0
LINE
  5
12EF8
  8
DANMEN
  6
CONTINUOUS
 10
213.86245654256771
 20
99.83575911055263
 30
0.0
 11
229.8624565425676
 21
99.83575911055263
 31
0.0
  0
LINE
  5
12EF9
  8
DANMEN
  6
CONTINUOUS
 10
213.86245654256771
 20
89.835759110552658
 30
0.0
 11
229.8624565425676
 21
89.835759110552658
 31
0.0
  0
LINE
  5
12EFA
  8
DANMEN
  6
CONTINUOUS
 10
229.86245638504431
 20
99.835759032767697
 30
0.0
 11
213.86245695707049
 21
89.835758501985879
 31
0.0
  0
LINE
  5
12EFB
  8
DANMEN
  6
CONTINUOUS
 10
241.3624540357664
 20
72.335758916837506
 30
0.0
 11
221.86245801338441
 21
72.335758916837563
 31
0.0
  0
LINE
  5
12EFC
  8
DANMEN
  6
CONTINUOUS
 10
239.9124551523615
 20
74.285758726102642
 30
0.0
 11
224.16245801338431
 21
74.285758726102699
 31
0.0
  0
LINE
  5
12EFD
  8
SUNPO
  6
CONTINUOUS
 10
241.86245515236081
 20
38.335758916837563
 30
0.0
 11
221.86245651872579
 21
38.335758916837563
 31
0.0
  0
LINE
  5
12EFE
  8
DANMEN
  6
CONTINUOUS
 10
166.8624580372263
 20
51.835758916837548
 30
0.0
 11
261.86245728989701
 21
51.835758916837548
 31
0.0
  0
LINE
  5
12EFF
  8
DANMEN
  6
CONTINUOUS
 10
166.8624580372263
 20
48.335758916837548
 30
0.0
 11
261.86245728989701
 21
48.335758916837548
 31
0.0
  0
LINE
  5
12F00
  8
DANMEN
  6
CONTINUOUS
 10
205.86245656640961
 20
68.135758916837574
 30
0.0
 11
205.86245656640961
 21
56.835758916837548
 31
0.0
  0
LINE
  5
12F01
  8
DANMEN
  6
CONTINUOUS
 10
201.86245656640941
 20
74.02674192246262
 30
0.0
 11
201.86245656640941
 21
52.835758916837563
 31
0.0
  0
LINE
  5
12F02
  8
DANMEN
  6
CONTINUOUS
 10
221.86245651872571
 20
74.02674192246262
 30
0.0
 11
221.86245651872571
 21
52.835758916837563
 31
0.0
  0
LINE
  5
12F03
  8
DANMEN
  6
CONTINUOUS
 10
217.86245651872571
 20
68.135758916837574
 30
0.0
 11
217.86245651872571
 21
56.835758916837548
 31
0.0
  0
LINE
  5
12F04
  8
SUNPO
  6
CONTINUOUS
 10
201.86245656640961
 20
38.335758916837563
 30
0.0
 11
181.8624565425676
 21
38.335758916837563
 31
0.0
  0
LINE
  5
12F05
  8
SUNPO
  6
CONTINUOUS
 10
181.8624565425676
 20
46.835758916837548
 30
0.0
 11
181.8624565425676
 21
38.335758916837563
 31
0.0
  0
INSERT
  5
12F06
  8
SUNPO
  6
CONTINUOUS
  2
_DOTSMALL
 10
181.8624565425676
 20
38.335758916837563
 30
0.0
 41
2.3200000000000491
 42
2.3199999999999918
 43
2.3199999999999981
 50
180.0
  0
INSERT
  5
12F07
  8
SUNPO
  6
CONTINUOUS
  2
_DOTSMALL
 10
171.8624580372263
 20
48.335758916837548
 30
0.0
 41
2.3199999999999918
 42
2.3199999999999918
 43
2.3199999999999981
 50
270.0
  0
LINE
  5
12F08
  8
SUNPO
  6
CONTINUOUS
 10
221.86245651872579
 20
46.835758916837548
 30
0.0
 11
221.86245651872579
 21
38.335758916837563
 31
0.0
  0
LINE
  5
12F09
  8
SUNPO
  6
CONTINUOUS
 10
201.86245656640961
 20
46.835758916837548
 30
0.0
 11
201.86245656640961
 21
38.335758916837563
 31
0.0
  0
LINE
  5
12F0A
  8
SUNPO
  6
CONTINUOUS
 10
221.86245651872579
 20
38.335758916837563
 30
0.0
 11
201.86245656640961
 21
38.335758916837563
 31
0.0
  0
TEXT
  5
12F0B
  8
SUNPO
  6
CONTINUOUS
 10
189.79995656640961
 20
38.835758916837563
 30
0.0
 40
2.5
  1
20
 41
1.1000000000000001
  7
MX_DIMTXSTY_2
  0
INSERT
  5
12F0C
  8
SUNPO
  6
CONTINUOUS
  2
_DOTSMALL
 10
201.86245656640961
 20
38.335758916837563
 30
0.0
 41
2.3200000000000491
 42
2.3199999999999918
 43
2.3199999999999981
  0
INSERT
  5
12F0D
  8
SUNPO
  6
CONTINUOUS
  2
_DOTSMALL
 10
201.86245656640961
 20
38.335758916837563
 30
0.0
 41
2.3200000000000491
 42
2.3199999999999918
 43
2.3199999999999981
 50
180.0
  0
TEXT
  5
12F0E
  8
SUNPO
  6
CONTINUOUS
 10
209.79995651872579
 20
38.835758916837563
 30
0.0
 40
2.5
  1
20
 41
1.1000000000000001
  7
MX_DIMTXSTY_2
  0
INSERT
  5
12F0F
  8
SUNPO
  6
CONTINUOUS
  2
_DOTSMALL
 10
221.86245651872579
 20
38.335758916837563
 30
0.0
 41
2.3200000000000491
 42
2.3199999999999918
 43
2.3199999999999981
 50
180.0
  0
INSERT
  5
12F10
  8
SUNPO
  6
CONTINUOUS
  2
_DOTSMALL
 10
221.86245651872579
 20
38.335758916837563
 30
0.0
 41
2.3200000000000491
 42
2.3199999999999918
 43
2.3199999999999981
  0
LINE
  5
12F11
  8
DANMEN
  6
CONTINUOUS
 10
205.86245656640961
 20
56.835758916837548
 30
0.0
 11
217.86245651872571
 21
56.835758916837548
 31
0.0
  0
LINE
  5
12F12
  8
DANMEN
  6
CONTINUOUS
 10
202.86245656640961
 20
51.835758916837548
 30
0.0
 11
220.86245651872571
 21
51.835758916837548
 31
0.0
  0
ARC
  5
12F13
  8
DANMEN
  6
CONTINUOUS
 10
202.86245656640961
 20
52.835758916837563
 30
0.0
 40
1.0
 50
180.0
 51
270.0
  0
ARC
  5
12F14
  8
DANMEN
  6
CONTINUOUS
 10
220.86245651872571
 20
52.835758916837563
 30
0.0
 40
1.0
 50
270.0
 51
0.0
  0
LINE
  5
12F15
  8
DANMEN
  6
CONTINUOUS
 10
189.49251211059061
 20
88.181969643315426
 30
0.0
 11
187.93736035651671
 21
90.605768661248604
 31
0.0
  0
LINE
  5
12F16
  8
DANMEN
  6
CONTINUOUS
 10
187.862456489924
 20
99.335759448563081
 30
0.0
 11
190.49102824615071
 21
101.635759683215
 31
0.0
  0
LINE
  5
12F17
  8
DANMEN
  6
CONTINUOUS
 10
186.86245793277399
 20
82.335758916837534
 30
0.0
 11
191.86245793277399
 21
82.335758916837563
 31
0.0
  0
LINE
  5
12F18
  8
DANMEN
  6
CONTINUOUS
 10
183.81245793277401
 20
81.335758916837506
 30
0.0
 11
192.36245793277399
 21
81.335758916837563
 31
0.0
  0
LINE
  5
12F19
  8
DANMEN
  6
CONTINUOUS
 10
182.36245904936891
 20
72.335758916837506
 30
0.0
 11
201.8624550717511
 21
72.335758916837563
 31
0.0
  0
LINE
  5
12F1A
  8
DANMEN
  6
CONTINUOUS
 10
183.81245793277401
 20
74.285758726102642
 30
0.0
 11
199.56245507175089
 21
74.285758726102699
 31
0.0
  0
LINE
  5
12F1B
  8
DANMEN
  6
CONTINUOUS
 10
187.66245468168299
 20
82.235759682757234
 30
0.0
 11
189.58447309458319
 21
85.815069392149937
 31
0.0
  0
LINE
  5
12F1C
  8
DANMEN
  6
CONTINUOUS
 10
193.8624563982969
 20
98.835759110552686
 30
0.0
 11
166.86245579523839
 21
98.835759110552686
 31
0.0
  0
LINE
  5
12F1D
  8
DANMEN
  6
CONTINUOUS
 10
193.8624563982969
 20
98.335759110552615
 30
0.0
 11
166.86245579523839
 21
98.335759110552615
 31
0.0
  0
LINE
  5
12F1E
  8
DANMEN
  6
CONTINUOUS
 10
193.8624563982969
 20
90.835759110552615
 30
0.0
 11
166.86245579523839
 21
90.835759110552615
 31
0.0
  0
LINE
  5
12F1F
  8
DANMEN
  6
CONTINUOUS
 10
193.8624563982969
 20
91.33575911055263
 30
0.0
 11
166.86245579523839
 21
91.33575911055263
 31
0.0
  0
LINE
  5
12F20
  8
DANMEN
  6
CONTINUOUS
 10
187.72708409149681
 20
83.835759277739314
 30
0.0
 11
186.8679160709323
 21
82.235759995116553
 31
0.0
  0
LINE
  5
12F21
  8
DANMEN
  6
CONTINUOUS
 10
185.56245566065141
 20
82.835758328978073
 30
0.0
 11
185.8624548097477
 21
83.835758044023706
 31
0.0
  0
LINE
  5
12F22
  8
DANMEN
  6
CONTINUOUS
 10
180.5976645056306
 20
82.512676340842134
 30
0.0
 11
179.7934460677574
 21
89.658841880263196
 31
0.0
  0
TEXT
  5
12F23
  8
SUNPO
  6
CONTINUOUS
 10
171.3624580372263
 20
82.994644872648124
 30
0.0
 40
2.5
  1
70
 50
90.0
 41
1.1000000000000001
  7
MX_DIMTXSTY_2
  0
LINE
  5
12F24
  8
DANMEN
  6
CONTINUOUS
 10
166.86245579523839
 20
81.349152338462687
 30
0.0
 11
181.86245639829681
 21
81.349152338462687
 31
0.0
  0
LINE
  5
12F25
  8
DANMEN
  6
CONTINUOUS
 10
182.36245504790901
 20
72.335758916837563
 30
0.0
 11
166.86245579523839
 21
72.335758916837563
 31
0.0
  0
LINE
  5
12F26
  8
DANMEN
  6
CONTINUOUS
 10
181.86245793277391
 20
72.835758916837506
 30
0.0
 11
181.86245793277399
 21
82.335758916837506
 31
0.0
  0
ARC
  5
12F27
  8
DANMEN
  6
CONTINUOUS
 10
182.36245793277391
 20
72.835758916837506
 30
0.0
 40
0.5
 50
180.00009129693751
 51
270.00012795236199
  0
ARC
  5
12F28
  8
DANMEN
  6
CONTINUOUS
 10
182.0624571612363
 20
82.835759110552644
 30
0.0
 40
1.5
 50
192.43832150768549
 51
270.0
  0
LINE
  5
12F29
  8
DANMEN
  6
CONTINUOUS
 10
186.86245793277399
 20
82.335758916837534
 30
0.0
 11
186.86245793277399
 21
82.835758916837548
 31
0.0
  0
LINE
  5
12F2A
  8
DANMEN
  6
CONTINUOUS
 10
186.8679161837583
 20
82.235759682757234
 30
0.0
 11
187.66245468168299
 21
82.235759682757234
 31
0.0
  0
ARC
  5
12F2B
  8
DANMEN
  6
CONTINUOUS
 10
182.36245793277399
 20
82.335758916837506
 30
0.0
 40
0.5
 50
90.0
 51
180.0
  0
LINE
  5
12F2C
  8
DANMEN
  6
CONTINUOUS
 10
182.0624571612363
 20
81.335759110552644
 30
0.0
 11
182.1624556353573
 21
81.335759110552644
 31
0.0
  0
LINE
  5
12F2D
  8
DANMEN
  6
CONTINUOUS
 10
181.86245639829681
 20
82.835759110552644
 30
0.0
 11
181.86245639829681
 21
81.635760254961809
 31
0.0
  0
LINE
  5
12F2E
  8
DANMEN
  6
CONTINUOUS
 10
181.8624561622764
 20
81.635760382312142
 30
0.0
 11
182.16245521634841
 21
81.335760367293346
 31
0.0
  0
LINE
  5
12F2F
  8
DANMEN
  6
CONTINUOUS
 10
182.36245904936891
 20
82.835758916837506
 30
0.0
 11
186.86245793277399
 21
82.835758916837548
 31
0.0
  0
LINE
  5
12F30
  8
DANMEN
  6
CONTINUOUS
 10
181.86245639829681
 20
82.835759110552644
 30
0.0
 11
185.56245620756189
 21
82.835759110552644
 31
0.0
  0
LINE
  5
12F31
  8
DANMEN
  6
CONTINUOUS
 10
183.81245793277401
 20
74.285758726102642
 30
0.0
 11
183.81245793277401
 21
81.335758916837506
 31
0.0
  0
LINE
  5
12F32
  8
DANMEN
  6
CONTINUOUS
 10
166.86245579523839
 20
102.83575891683751
 30
0.0
 11
181.86245639829681
 21
102.83575891683751
 31
0.0
  0
LINE
  5
12F33
  8
DANMEN
  6
CONTINUOUS
 10
178.32865341215179
 20
90.835759110552615
 30
0.0
 11
180.32206924467141
 21
90.835759110552615
 31
0.0
  0
ARC
  5
12F34
  8
DANMEN
  6
CONTINUOUS
 10
178.32865341215179
 20
89.335759110552672
 30
0.0
 40
1.5
 50
12.43832150768568
 51
89.999964027821918
  0
ARC
  5
12F35
  8
DANMEN
  6
CONTINUOUS
 10
182.3835280707363
 20
90.336134858233322
 30
0.0
 40
1.5
 50
194.03622065500571
 51
270.00000027245818
  0
LINE
  5
12F36
  8
DANMEN
  6
CONTINUOUS
 10
180.807140529403
 20
90.457025452269633
 30
0.0
 11
180.928313895022
 21
89.972331662222629
 31
0.0
  0
ARC
  5
12F37
  8
DANMEN
  6
CONTINUOUS
 10
180.32206924467141
 20
90.335759110552644
 30
0.0
 40
0.5
 50
14.03618468282694
 51
89.999909386308559
  0
LINE
  5
12F38
  8
DANMEN
  6
CONTINUOUS
 10
187.42469245646851
 20
89.551862203788801
 30
0.0
 11
187.21852470578551
 21
89.982941185964606
 31
0.0
  0
LINE
  5
12F39
  8
DANMEN
  6
CONTINUOUS
 10
185.05255176980151
 20
89.676578734723194
 30
0.0
 11
184.3772125549601
 21
90.625647122251735
 31
0.0
  0
LINE
  5
12F3A
  8
DANMEN
  6
CONTINUOUS
 10
186.6821003726011
 20
88.836134858233322
 30
0.0
 11
186.973625259686
 21
88.836134858233322
 31
0.0
  0
ARC
  5
12F3B
  8
DANMEN
  6
CONTINUOUS
 10
186.6821003726011
 20
90.836134858233336
 30
0.0
 40
2.0
 50
215.4349335321856
 51
269.99999139939911
  0
ARC
  5
12F3C
  8
DANMEN
  6
CONTINUOUS
 10
186.973625259686
 20
89.336134858233322
 30
0.0
 40
0.5
 50
270.00001693291881
 51
25.559915925932192
  0
LINE
  5
12F3D
  8
DANMEN
  6
CONTINUOUS
 10
187.51653397600711
 20
90.835759110552374
 30
0.0
 11
185.8653228135073
 21
90.835759110552374
 31
0.0
  0
ARC
  5
12F3E
  8
DANMEN
  6
CONTINUOUS
 10
185.8653228135073
 20
89.335759110552374
 30
0.0
 40
1.5
 50
25.559915609941552
 51
90.0
  0
ARC
  5
12F3F
  8
DANMEN
  6
CONTINUOUS
 10
187.51653397600711
 20
90.335759110552374
 30
0.0
 40
0.5
 50
32.684939170163389
 51
90.0
  0
ARC
  5
12F40
  8
DANMEN
  6
CONTINUOUS
 10
182.17997129468961
 20
89.335759110552672
 30
0.0
 40
1.5
 50
28.30993131316367
 51
90.000035972178097
  0
LINE
  5
12F41
  8
DANMEN
  6
CONTINUOUS
 10
182.3835280707363
 20
88.836134858233322
 30
0.0
 11
183.31562335996679
 21
88.836134858233322
 31
0.0
  0
LINE
  5
12F42
  8
DANMEN
  6
CONTINUOUS
 10
183.7558207732732
 20
89.573254997201502
 30
0.0
 11
183.50056530693479
 21
90.047119340814334
 31
0.0
  0
LINE
  5
12F43
  8
DANMEN
  6
CONTINUOUS
 10
182.17997129468961
 20
90.835759110552615
 30
0.0
 11
183.96982486753501
 21
90.835759110552615
 31
0.0
  0
ARC
  5
12F44
  8
DANMEN
  6
CONTINUOUS
 10
183.31562335996679
 20
89.336134858233322
 30
0.0
 40
0.5
 50
270.0000456159276
 51
28.309914010320011
  0
ARC
  5
12F45
  8
DANMEN
  6
CONTINUOUS
 10
183.96982486753501
 20
90.335759110552644
 30
0.0
 40
0.5
 50
35.434911447755773
 51
90.000035972178097
  0
LINE
  5
12F46
  8
DANMEN
  6
CONTINUOUS
 10
185.86245544462241
 20
83.835759110552644
 30
0.0
 11
187.72708423643149
 21
83.835759110552644
 31
0.0
  0
LINE
  5
12F47
  8
DANMEN
  6
CONTINUOUS
 10
184.6624567797665
 20
99.335759110552644
 30
0.0
 11
186.86245658903181
 21
99.335759110552644
 31
0.0
  0
ARC
  5
12F48
  8
DANMEN
  6
CONTINUOUS
 10
184.36245658903181
 20
99.035758919817795
 30
0.0
 40
0.199999988079071
 50
196.87451942498271
 51
343.12548057501698
  0
LINE
  5
12F49
  8
DANMEN
  6
CONTINUOUS
 10
184.55384439454809
 20
98.977703523336004
 30
0.0
 11
184.66245616584601
 21
99.335759449416415
 31
0.0
  0
ARC
  5
12F4A
  8
DANMEN
  6
CONTINUOUS
 10
187.36245658903181
 20
99.335759110552644
 30
0.0
 40
0.5
 50
180.00001798608889
 51
359.99998201391088
  0
LINE
  5
12F4B
  8
DANMEN
  6
CONTINUOUS
 10
181.9131043246274
 20
99.335759110552644
 30
0.0
 11
184.0624563982968
 21
99.335759110552644
 31
0.0
  0
LINE
  5
12F4C
  8
DANMEN
  6
CONTINUOUS
 10
181.55982378016239
 20
98.535758141185354
 30
0.0
 11
181.86260612450951
 21
98.568168664005483
 31
0.0
  0
LINE
  5
12F4D
  8
DANMEN
  6
CONTINUOUS
 10
181.91310551033399
 20
99.335759484429957
 30
0.0
 11
181.8626061437933
 21
98.568168957116754
 31
0.0
  0
LINE
  5
12F4E
  8
DANMEN
  6
CONTINUOUS
 10
186.8624718013568
 20
102.83575891683751
 30
0.0
 11
182.3624565425676
 21
102.83575891683751
 31
0.0
  0
LINE
  5
12F4F
  8
DANMEN
  6
CONTINUOUS
 10
182.1624567797665
 20
102.8357591105526
 30
0.0
 11
187.0624563982968
 21
102.8357591105526
 31
0.0
  0
LINE
  5
12F50
  8
DANMEN
  6
CONTINUOUS
 10
184.17106822924001
 20
98.977704351988081
 30
0.0
 11
184.0624567347715
 21
99.335759365456695
 31
0.0
  0
LINE
  5
12F51
  8
DANMEN
  6
CONTINUOUS
 10
204.4613719610665
 20
76.035758916837551
 30
0.0
 11
207.163349622288
 21
78.03575891683758
 31
0.0
  0
LINE
  5
12F52
  8
DANMEN
  6
CONTINUOUS
 10
204.4493344251226
 20
74.533876128510556
 30
0.0
 11
207.4263606534393
 21
76.737466684452457
 31
0.0
  0
LINE
  5
12F53
  8
DANMEN
  6
CONTINUOUS
 10
205.86245656640961
 20
68.135758916837574
 30
0.0
 11
217.86245651872571
 21
68.135758916837574
 31
0.0
  0
LINE
  5
12F54
  8
DANMEN
  6
CONTINUOUS
 10
203.86245656640961
 20
72.13575891683756
 30
0.0
 11
209.86245656640961
 21
72.13575891683756
 31
0.0
  0
LINE
  5
12F55
  8
DANMEN
  6
CONTINUOUS
 10
203.86245656640961
 20
79.835765020353179
 30
0.0
 11
209.86245656640961
 21
79.835765020353179
 31
0.0
  0
LINE
  5
12F56
  8
DANMEN
  6
CONTINUOUS
 10
205.86245656640961
 20
77.835765020353179
 30
0.0
 11
209.86245656640961
 21
77.835765020353179
 31
0.0
  0
LINE
  5
12F57
  8
DANMEN
  6
CONTINUOUS
 10
203.86245656640961
 20
72.13575891683756
 30
0.0
 11
203.86245656640961
 21
74.535758916837551
 31
0.0
  0
LINE
  5
12F58
  8
DANMEN
  6
CONTINUOUS
 10
201.8624550717511
 20
72.335758916837563
 30
0.0
 11
201.8624550717511
 21
73.835758916837563
 31
0.0
  0
LINE
  5
12F59
  8
DANMEN
  6
CONTINUOUS
 10
191.86245793277399
 20
82.335758916837534
 30
0.0
 11
191.86245793277399
 21
82.835758916837548
 31
0.0
  0
LINE
  5
12F5A
  8
DANMEN
  6
CONTINUOUS
 10
191.86245793277399
 20
82.835758916837563
 30
0.0
 11
192.36245793277399
 21
82.835758916837563
 31
0.0
  0
ARC
  5
12F5B
  8
DANMEN
  6
CONTINUOUS
 10
192.36245793277399
 20
82.335758916837563
 30
0.0
 40
0.5
 50
0.0
 51
90.0
  0
LINE
  5
12F5C
  8
DANMEN
  6
CONTINUOUS
 10
192.86245793277399
 20
81.835758916837548
 30
0.0
 11
192.86245793277399
 21
82.335758916837563
 31
0.0
  0
ARC
  5
12F5D
  8
DANMEN
  6
CONTINUOUS
 10
192.36245793277399
 20
81.835758916837577
 30
0.0
 40
0.5
 50
270.0
 51
0.0
  0
ARC
  5
12F5E
  8
DANMEN
  6
CONTINUOUS
 10
200.56245507175089
 20
75.535758916837551
 30
0.0
 40
0.5
 50
90.0
 51
180.0
  0
LINE
  5
12F5F
  8
DANMEN
  6
CONTINUOUS
 10
200.56245507175089
 20
76.035758916837551
 30
0.0
 11
204.4613719610665
 21
76.035758916837551
 31
0.0
  0
ARC
  5
12F60
  8
DANMEN
  6
CONTINUOUS
 10
204.36245656640941
 20
78.645666971712458
 30
0.0
 40
0.5
 50
180.0
 51
258.69006752598222
  0
LINE
  5
12F61
  8
DANMEN
  6
CONTINUOUS
 10
205.86245656640961
 20
77.835765020353179
 30
0.0
 11
204.26439849884039
 21
78.155376633867021
 31
0.0
  0
LINE
  5
12F62
  8
DANMEN
  6
CONTINUOUS
 10
203.86245656640961
 20
78.645666971712458
 30
0.0
 11
203.86245656640961
 21
79.835765020353179
 31
0.0
  0
ARC
  5
12F63
  8
DANMEN
  6
CONTINUOUS
 10
199.56245507175089
 20
74.785758726102699
 30
0.0
 40
0.5
 50
270.0
 51
0.0
  0
ARC
  5
12F64
  8
DANMEN
  6
CONTINUOUS
 10
203.56245656640951
 20
74.535758916837551
 30
0.0
 40
0.3
 50
0.0
 51
90.0
  0
LINE
  5
12F65
  8
DANMEN
  6
CONTINUOUS
 10
203.56245656640951
 20
74.835758916837563
 30
0.0
 11
202.86245656640961
 21
74.835758916837563
 31
0.0
  0
ARC
  5
12F66
  8
DANMEN
  6
CONTINUOUS
 10
204.1281404967003
 20
74.735758916837554
 30
0.0
 40
0.3
 50
199.47122063448961
 51
270.0
  0
ARC
  5
12F67
  8
DANMEN
  6
CONTINUOUS
 10
203.56245507175089
 20
74.535758916837551
 30
0.0
 40
0.3
 50
19.471220634491019
 51
90.0
  0
ARC
  5
12F68
  8
DANMEN
  6
CONTINUOUS
 10
204.1518613600453
 20
74.935758916837543
 30
0.0
 40
0.5
 50
270.0
 51
306.50879193554761
  0
LINE
  5
12F69
  8
DANMEN
  6
CONTINUOUS
 10
204.1281404967003
 20
74.435758916837543
 30
0.0
 11
204.1518613600453
 21
74.435758916837543
 31
0.0
  0
ARC
  5
12F6A
  8
DANMEN
  6
CONTINUOUS
 10
202.36245656640941
 20
74.02674192246262
 30
0.0
 40
0.5
 50
116.56505117707979
 51
180.0
  0
LINE
  5
12F6B
  8
DANMEN
  6
CONTINUOUS
 10
201.56245507175089
 20
73.835758916837563
 30
0.0
 11
201.8624550717511
 21
73.835758916837563
 31
0.0
  0
LINE
  5
12F6C
  8
DANMEN
  6
CONTINUOUS
 10
201.56245507175089
 20
73.835758916837563
 30
0.0
 11
201.56245507175089
 21
74.835758916837563
 31
0.0
  0
LINE
  5
12F6D
  8
DANMEN
  6
CONTINUOUS
 10
202.86245656640961
 20
74.835758916837563
 30
0.0
 11
202.1388497686595
 21
74.473955517962565
 31
0.0
  0
LINE
  5
12F6E
  8
DANMEN
  6
CONTINUOUS
 10
201.56245507175089
 20
74.835758916837563
 30
0.0
 11
203.56245507175089
 21
74.835758916837563
 31
0.0
  0
LINE
  5
12F6F
  8
DANMEN
  6
CONTINUOUS
 10
200.06245507175089
 20
74.785758726102699
 30
0.0
 11
200.06245507175089
 21
75.535758916837551
 31
0.0
  0
LINE
  5
12F70
  8
DANMEN
  6
CONTINUOUS
 10
221.86245801338441
 20
72.335758916837563
 30
0.0
 11
221.86245801338441
 21
73.835758916837563
 31
0.0
  0
LINE
  5
12F71
  8
DANMEN
  6
CONTINUOUS
 10
219.86245651872571
 20
72.13575891683756
 30
0.0
 11
219.86245651872571
 21
74.535758916837551
 31
0.0
  0
LINE
  5
12F72
  8
DANMEN
  6
CONTINUOUS
 10
209.8624565425676
 20
77.835765020353179
 30
0.0
 11
209.8624565425676
 21
72.13575891683756
 31
0.0
  0
LINE
  5
12F73
  8
DANMEN
  6
CONTINUOUS
 10
213.8624565425676
 20
77.835765020353179
 30
0.0
 11
213.8624565425676
 21
72.13575891683756
 31
0.0
  0
LINE
  5
12F74
  8
DANMEN
  6
CONTINUOUS
 10
219.86245651872571
 20
72.13575891683756
 30
0.0
 11
213.86245651872571
 21
72.13575891683756
 31
0.0
  0
LINE
  5
12F75
  8
DANMEN
  6
CONTINUOUS
 10
216.5615634628474
 20
78.03575891683758
 30
0.0
 11
215.3615634628475
 21
78.03575891683758
 31
0.0
  0
LINE
  5
12F76
  8
DANMEN
  6
CONTINUOUS
 10
219.86245651872571
 20
79.835765020353179
 30
0.0
 11
213.86245651872571
 21
79.835765020353179
 31
0.0
  0
LINE
  5
12F77
  8
DANMEN
  6
CONTINUOUS
 10
217.86245651872571
 20
77.835765020353179
 30
0.0
 11
213.86245651872571
 21
77.835765020353179
 31
0.0
  0
LINE
  5
12F78
  8
DANMEN
  6
CONTINUOUS
 10
219.2755786600128
 20
74.533876128510556
 30
0.0
 11
216.29855243169601
 21
76.737466684452457
 31
0.0
  0
ARC
  5
12F79
  8
DANMEN
  6
CONTINUOUS
 10
208.86334962228781
 20
76.435492710804766
 30
0.0
 40
0.5
 50
0.0
 51
34.702622165549407
  0
LINE
  5
12F7A
  8
DANMEN
  6
CONTINUOUS
 10
209.36334962228781
 20
76.435492686731209
 30
0.0
 11
209.36334962228781
 21
76.435623396294702
 31
0.0
  0
LINE
  5
12F7B
  8
DANMEN
  6
CONTINUOUS
 10
208.8633496182598
 20
75.935623396294702
 30
0.0
 11
208.6199850387485
 21
75.935623396294702
 31
0.0
  0
ARC
  5
12F7C
  8
DANMEN
  6
CONTINUOUS
 10
208.86334962228781
 20
76.435623396294702
 30
0.0
 40
0.5
 50
270.0
 51
0.0
  0
LINE
  5
12F7D
  8
DANMEN
  6
CONTINUOUS
 10
209.2744086157139
 20
76.720151285106752
 30
0.0
 11
208.3633496222879
 21
78.03575891683758
 31
0.0
  0
LINE
  5
12F7E
  8
DANMEN
  6
CONTINUOUS
 10
215.51598703981281
 20
76.150964821992702
 30
0.0
 11
215.87343319659399
 21
76.667132156037454
 31
0.0
  0
ARC
  5
12F7F
  8
DANMEN
  6
CONTINUOUS
 10
214.8615634628475
 20
76.435492710804766
 30
0.0
 40
0.5
 50
145.2973778344504
 51
180.0
  0
ARC
  5
12F80
  8
DANMEN
  6
CONTINUOUS
 10
215.1049280463869
 20
76.435623396294702
 30
0.0
 40
0.5
 50
270.0
 51
325.29737783445051
  0
LINE
  5
12F81
  8
DANMEN
  6
CONTINUOUS
 10
214.86156346687559
 20
75.935623396294702
 30
0.0
 11
215.1049280463869
 21
75.935623396294702
 31
0.0
  0
LINE
  5
12F82
  8
DANMEN
  6
CONTINUOUS
 10
214.36156346284761
 20
76.435492686731209
 30
0.0
 11
214.36156346284761
 21
76.435623396294702
 31
0.0
  0
ARC
  5
12F83
  8
DANMEN
  6
CONTINUOUS
 10
214.8615634628475
 20
76.435623396294702
 30
0.0
 40
0.5
 50
180.0
 51
270.0
  0
ARC
  5
12F84
  8
DANMEN
  6
CONTINUOUS
 10
216.1200685926496
 20
76.496337011456276
 30
0.0
 40
0.3
 50
53.491208064452259
 51
145.2973778344504
  0
LINE
  5
12F85
  8
DANMEN
  6
CONTINUOUS
 10
214.4505044694215
 20
76.720151285106752
 30
0.0
 11
215.3615634628475
 21
78.03575891683758
 31
0.0
  0
LINE
  5
12F86
  8
DANMEN
  6
CONTINUOUS
 10
208.2089260453225
 20
76.150964821992702
 30
0.0
 11
207.85147988854129
 21
76.667132156037454
 31
0.0
  0
ARC
  5
12F87
  8
DANMEN
  6
CONTINUOUS
 10
207.60484449248571
 20
76.496337011456276
 30
0.0
 40
0.3
 50
34.702622165549407
 51
126.50879193554771
  0
ARC
  5
12F88
  8
DANMEN
  6
CONTINUOUS
 10
208.6199850387485
 20
76.435623396294702
 30
0.0
 40
0.5
 50
214.7026221655492
 51
270.0
  0
LINE
  5
12F89
  8
DANMEN
  6
CONTINUOUS
 10
207.163349622288
 20
78.03575891683758
 30
0.0
 11
208.3633496222879
 21
78.03575891683758
 31
0.0
  0
LINE
  5
12F8A
  8
DANMEN
  6
CONTINUOUS
 10
223.16245801338451
 20
76.035758916837551
 30
0.0
 11
219.26354112406901
 21
76.035758916837551
 31
0.0
  0
ARC
  5
12F8B
  8
DANMEN
  6
CONTINUOUS
 10
223.16245801338451
 20
75.535758916837551
 30
0.0
 40
0.5
 50
0.0
 51
90.0
  0
LINE
  5
12F8C
  8
DANMEN
  6
CONTINUOUS
 10
217.86245651872571
 20
77.835765020353179
 30
0.0
 11
219.46051458629481
 21
78.155376633867021
 31
0.0
  0
ARC
  5
12F8D
  8
DANMEN
  6
CONTINUOUS
 10
219.36245651872571
 20
78.645666971712458
 30
0.0
 40
0.5
 50
281.30993247401761
 51
0.0
  0
LINE
  5
12F8E
  8
DANMEN
  6
CONTINUOUS
 10
219.86245651872571
 20
78.645666971712458
 30
0.0
 11
219.86245651872571
 21
79.835765020353179
 31
0.0
  0
LINE
  5
12F8F
  8
DANMEN
  6
CONTINUOUS
 10
219.26354112406901
 20
76.035758916837551
 30
0.0
 11
216.5615634628474
 21
78.03575891683758
 31
0.0
  0
ARC
  5
12F90
  8
DANMEN
  6
CONTINUOUS
 10
219.57305172509001
 20
74.935758916837543
 30
0.0
 40
0.5
 50
233.49120806445211
 51
270.0
  0
LINE
  5
12F91
  8
DANMEN
  6
CONTINUOUS
 10
222.16245801338431
 20
73.835758916837563
 30
0.0
 11
221.86245801338441
 21
73.835758916837563
 31
0.0
  0
LINE
  5
12F92
  8
DANMEN
  6
CONTINUOUS
 10
222.16245801338431
 20
73.835758916837563
 30
0.0
 11
222.16245801338431
 21
74.835758916837563
 31
0.0
  0
ARC
  5
12F93
  8
DANMEN
  6
CONTINUOUS
 10
224.16245801338431
 20
74.785758726102699
 30
0.0
 40
0.5
 50
180.0
 51
270.0
  0
LINE
  5
12F94
  8
DANMEN
  6
CONTINUOUS
 10
220.86245651872571
 20
74.835758916837563
 30
0.0
 11
221.5860633164757
 21
74.473955517962565
 31
0.0
  0
ARC
  5
12F95
  8
DANMEN
  6
CONTINUOUS
 10
221.36245651872571
 20
74.02674192246262
 30
0.0
 40
0.5
 50
0.0
 51
63.434948822920013
  0
ARC
  5
12F96
  8
DANMEN
  6
CONTINUOUS
 10
220.16245651872589
 20
74.535758916837551
 30
0.0
 40
0.3
 50
90.0
 51
180.0
  0
ARC
  5
12F97
  8
DANMEN
  6
CONTINUOUS
 10
219.5967725884351
 20
74.735758916837554
 30
0.0
 40
0.3
 50
270.0
 51
340.5287793655088
  0
ARC
  5
12F98
  8
DANMEN
  6
CONTINUOUS
 10
220.16245801338431
 20
74.535758916837551
 30
0.0
 40
0.3
 50
90.0
 51
160.52877936550891
  0
LINE
  5
12F99
  8
DANMEN
  6
CONTINUOUS
 10
219.5967725884351
 20
74.435758916837543
 30
0.0
 11
219.57305172509001
 21
74.435758916837543
 31
0.0
  0
LINE
  5
12F9A
  8
DANMEN
  6
CONTINUOUS
 10
220.16245651872589
 20
74.835758916837563
 30
0.0
 11
220.86245651872571
 21
74.835758916837563
 31
0.0
  0
LINE
  5
12F9B
  8
DANMEN
  6
CONTINUOUS
 10
222.16245801338431
 20
74.835758916837563
 30
0.0
 11
220.16245801338431
 21
74.835758916837563
 31
0.0
  0
LINE
  5
12F9C
  8
DANMEN
  6
CONTINUOUS
 10
223.66245801338439
 20
74.785758726102699
 30
0.0
 11
223.66245801338439
 21
75.535758916837551
 31
0.0
  0
LINE
  5
12F9D
  8
DANMEN
  6
CONTINUOUS
 10
193.8624563982969
 20
98.835759110552686
 30
0.0
 11
193.8624563982969
 21
90.835759110552615
 31
0.0
  0
ARC
  5
12F9E
  8
DANMEN
  6
CONTINUOUS
 10
187.52617748289151
 20
86.920333809954514
 30
0.0
 40
2.3362770080566402
 50
331.76507281534072
 51
32.684896060525951
  0
LINE
  5
12F9F
  8
DANMEN
  6
CONTINUOUS
 10
190.49102809934661
 20
101.63575930128739
 30
0.0
 11
193.86245658903181
 21
101.63575930128739
 31
0.0
  0
LINE
  5
12FA0
  8
DANMEN
  6
CONTINUOUS
 10
193.86245658903181
 20
102.8357591105526
 30
0.0
 11
193.86245658903181
 21
101.63575930128739
 31
0.0
  0
LINE
  5
12FA1
  8
DANMEN
  6
CONTINUOUS
 10
193.36248095663001
 20
102.83575891683751
 30
0.0
 11
192.36248095663001
 21
102.83575891683751
 31
0.0
  0
LINE
  5
12FA2
  8
DANMEN
  6
CONTINUOUS
 10
191.86245658903181
 20
102.8357591105526
 30
0.0
 11
193.86245658903181
 21
102.8357591105526
 31
0.0
  0
LINE
  5
12FA3
  8
DANMEN
  6
CONTINUOUS
 10
213.86245654256771
 20
99.83575911055263
 30
0.0
 11
213.86245654256771
 21
89.835759110552658
 31
0.0
  0
LINE
  5
12FA4
  8
SUNPO
  6
CONTINUOUS
 10
256.86245728989701
 20
72.335758916837563
 30
0.0
 11
256.86245728989701
 21
51.835758916837548
 31
0.0
  0
TEXT
  5
12FA5
  8
SUNPO
  6
CONTINUOUS
 10
256.36245728989689
 20
57.65867558350422
 30
0.0
 40
2.5
  1
20.5
 50
90.0
 41
1.25
  7
MX_DIMTXSTY_3
  0
LINE
  5
12FA6
  8
SUNPO
  6
CONTINUOUS
 10
256.86245728989701
 20
40.197968236905922
 30
0.0
 11
256.86245728989701
 21
48.335758916837548
 31
0.0
  0
TEXT
  5
12FA7
  8
SUNPO
  6
CONTINUOUS
 10
256.36245728989689
 20
40.697968236905922
 30
0.0
 40
2.5
  1
3.5
 50
90.0
 41
1.3
  7
MX_DIMTXSTY_4
  0
LINE
  5
12FA8
  8
SUNPO
  6
CONTINUOUS
 10
241.86245515236081
 20
46.835758916837548
 30
0.0
 11
241.86245515236081
 21
38.335758916837563
 31
0.0
  0
TEXT
  5
12FA9
  8
SUNPO
  6
CONTINUOUS
 10
229.7999561060351
 20
38.835758916837563
 30
0.0
 40
2.5
  1
20
 41
1.1000000000000001
  7
MX_DIMTXSTY_2
  0
INSERT
  5
12FAA
  8
SUNPO
  6
CONTINUOUS
  2
_DOTSMALL
 10
241.86245515236081
 20
38.335758916837563
 30
0.0
 41
2.3200000000000491
 42
2.3199999999999918
 43
2.3199999999999981
  0
INSERT
  5
12FAB
  8
SUNPO
  6
CONTINUOUS
  2
_DOTSMALL
 10
256.86245728989701
 20
51.835758916837548
 30
0.0
 41
2.3199999999999918
 42
2.3199999999999918
 43
2.3199999999999981
 50
270.0
  0
LINE
  5
12FAC
  8
DANMEN
  6
CONTINUOUS
 10
256.86245728989701
 20
48.335758916837548
 30
0.0
 11
256.86245728989701
 21
48.335758916837548
 31
0.0
  0
LINE
  5
12FAD
  8
DANMEN
  6
CONTINUOUS
 10
256.86245728989701
 20
51.835758916837548
 30
0.0
 11
256.86245728989701
 21
51.835758916837548
 31
0.0
  0
INSERT
  5
12FAE
  8
SUNPO
  6
CONTINUOUS
  2
_DOTSMALL
 10
256.86245728989701
 20
51.835758916837548
 30
0.0
 41
2.3199999999999918
 42
2.3199999999999918
 43
2.3199999999999981
 50
270.0
  0
LINE
  5
12FAF
  8
SUNPO
  6
CONTINUOUS
 10
256.86245728989701
 20
48.335758916837548
 30
0.0
 11
256.86245728989701
 21
51.835758916837548
 31
0.0
  0
INSERT
  5
12FB0
  8
SUNPO
  6
CONTINUOUS
  2
_DOTSMALL
 10
256.86245728989701
 20
48.335758916837548
 30
0.0
 41
2.3199999999999918
 42
2.3199999999999918
 43
2.3199999999999981
 50
90.0
  0
LINE
  5
12FB1
  8
SUNPO
  6
CONTINUOUS
 10
296.8624565425676
 20
46.835758916837548
 30
0.0
 11
296.8624565425676
 21
38.335758916837563
 31
0.0
  0
INSERT
  5
12FB2
  8
SUNPO
  6
CONTINUOUS
  2
_DOTSMALL
 10
296.8624565425676
 20
38.335758916837563
 30
0.0
 41
2.3200000000000491
 42
2.3199999999999918
 43
2.3199999999999981
 50
180.0
  0
INSERT
  5
12FB3
  8
SUNPO
  6
CONTINUOUS
  2
_DOTSMALL
 10
286.8624580372263
 20
48.335758916837548
 30
0.0
 41
2.3199999999999918
 42
2.3199999999999918
 43
2.3199999999999981
 50
270.0
  0
LINE
  5
12FB4
  8
DANMEN
  6
CONTINUOUS
 10
238.16245742448399
 20
82.835758328978073
 30
0.0
 11
237.8624582753877
 21
83.835758044023706
 31
0.0
  0
LINE
  5
12FB5
  8
DANMEN
  6
CONTINUOUS
 10
235.99782899363851
 20
83.835759277739314
 30
0.0
 11
236.8569970142031
 21
82.235759995116553
 31
0.0
  0
LINE
  5
12FB6
  8
DANMEN
  6
CONTINUOUS
 10
243.12724857950479
 20
82.512676340842134
 30
0.0
 11
243.931467017378
 21
89.658841880263196
 31
0.0
  0
LINE
  5
12FB7
  8
DANMEN
  6
CONTINUOUS
 10
236.06245840345241
 20
82.235759682757234
 30
0.0
 11
234.1404399905523
 21
85.815069392149937
 31
0.0
  0
LINE
  5
12FB8
  8
DANMEN
  6
CONTINUOUS
 10
261.86245728989701
 20
81.349152338462687
 30
0.0
 11
241.86245668683861
 21
81.349152338462687
 31
0.0
  0
LINE
  5
12FB9
  8
DANMEN
  6
CONTINUOUS
 10
241.3624580372263
 20
72.335758916837563
 30
0.0
 11
261.86245728989701
 21
72.335758916837563
 31
0.0
  0
LINE
  5
12FBA
  8
DANMEN
  6
CONTINUOUS
 10
241.86245515236141
 20
72.835758916837506
 30
0.0
 11
241.86245515236141
 21
82.335758916837506
 31
0.0
  0
ARC
  5
12FBB
  8
DANMEN
  6
CONTINUOUS
 10
241.36245515236141
 20
72.835758916837506
 30
0.0
 40
0.5
 50
269.99987204763801
 51
359.9999087030622
  0
LINE
  5
12FBC
  8
DANMEN
  6
CONTINUOUS
 10
239.9124551523615
 20
81.335758916837506
 30
0.0
 11
231.36245515236141
 21
81.335758916837563
 31
0.0
  0
LINE
  5
12FBD
  8
DANMEN
  6
CONTINUOUS
 10
236.86245515236129
 20
82.335758916837534
 30
0.0
 11
231.86245515236141
 21
82.335758916837563
 31
0.0
  0
LINE
  5
12FBE
  8
DANMEN
  6
CONTINUOUS
 10
231.86245515236141
 20
82.335758916837534
 30
0.0
 11
231.86245515236141
 21
82.835758916837548
 31
0.0
  0
LINE
  5
12FBF
  8
DANMEN
  6
CONTINUOUS
 10
231.86245515236141
 20
82.835758916837563
 30
0.0
 11
231.36245515236141
 21
82.835758916837563
 31
0.0
  0
LINE
  5
12FC0
  8
DANMEN
  6
CONTINUOUS
 10
230.86245515236129
 20
81.835758916837548
 30
0.0
 11
230.86245515236129
 21
82.335758916837563
 31
0.0
  0
ARC
  5
12FC1
  8
DANMEN
  6
CONTINUOUS
 10
231.36245515236141
 20
82.335758916837563
 30
0.0
 40
0.5
 50
90.0
 51
180.0
  0
ARC
  5
12FC2
  8
DANMEN
  6
CONTINUOUS
 10
231.36245515236141
 20
81.835758916837577
 30
0.0
 40
0.5
 50
180.0
 51
270.0
  0
LINE
  5
12FC3
  8
DANMEN
  6
CONTINUOUS
 10
241.3624540357664
 20
82.835758916837506
 30
0.0
 11
236.86245515236129
 21
82.835758916837548
 31
0.0
  0
LINE
  5
12FC4
  8
DANMEN
  6
CONTINUOUS
 10
241.86245668683861
 20
82.835759110552644
 30
0.0
 11
238.16245687757331
 21
82.835759110552644
 31
0.0
  0
LINE
  5
12FC5
  8
DANMEN
  6
CONTINUOUS
 10
236.86245515236129
 20
82.335758916837506
 30
0.0
 11
236.86245515236129
 21
82.835758916837548
 31
0.0
  0
ARC
  5
12FC6
  8
DANMEN
  6
CONTINUOUS
 10
241.36245515236141
 20
82.335758916837506
 30
0.0
 40
0.5
 50
0.0
 51
90.0
  0
LINE
  5
12FC7
  8
DANMEN
  6
CONTINUOUS
 10
241.66245592389919
 20
81.335759110552644
 30
0.0
 11
241.56245744977809
 21
81.335759110552644
 31
0.0
  0
ARC
  5
12FC8
  8
DANMEN
  6
CONTINUOUS
 10
241.66245592389919
 20
82.835759110552644
 30
0.0
 40
1.5
 50
270.0
 51
347.56167849231417
  0
LINE
  5
12FC9
  8
DANMEN
  6
CONTINUOUS
 10
241.86245668683861
 20
82.835759110552644
 30
0.0
 11
241.86245668683861
 21
81.635760254961809
 31
0.0
  0
LINE
  5
12FCA
  8
DANMEN
  6
CONTINUOUS
 10
241.86245692285911
 20
81.635760382312142
 30
0.0
 11
241.56245786878679
 21
81.335760367293346
 31
0.0
  0
LINE
  5
12FCB
  8
DANMEN
  6
CONTINUOUS
 10
236.8569969013771
 20
82.235759682757234
 30
0.0
 11
236.06245840345241
 21
82.235759682757234
 31
0.0
  0
LINE
  5
12FCC
  8
DANMEN
  6
CONTINUOUS
 10
239.9124551523615
 20
74.285758726102642
 30
0.0
 11
239.9124551523615
 21
81.335758916837506
 31
0.0
  0
INSERT
  5
12FCD
  8
DANMEN
  6
CONTINUOUS
  2
_DOTSMALL
 10
256.86245728989701
 20
72.335758916837563
 30
0.0
 41
2.3199999999999918
 42
2.3199999999999918
 43
2.3199999999999981
 50
90.0
  0
INSERT
  5
12FCE
  8
SUNPO
  6
CONTINUOUS
  2
_DOTSMALL
 10
256.86245728989701
 20
72.335758916837563
 30
0.0
 41
2.3199999999999918
 42
2.3199999999999918
 43
2.3199999999999981
 50
270.0
  0
LINE
  5
12FCF
  8
DANMEN
  6
CONTINUOUS
 10
245.39625967298349
 20
90.835759110552615
 30
0.0
 11
243.4028438404641
 21
90.835759110552615
 31
0.0
  0
ARC
  5
12FD0
  8
DANMEN
  6
CONTINUOUS
 10
245.39625967298349
 20
89.335759110552672
 30
0.0
 40
1.5
 50
90.000035972178097
 51
167.5616784923142
  0
LINE
  5
12FD1
  8
DANMEN
  6
CONTINUOUS
 10
261.86245728989701
 20
102.83575891683751
 30
0.0
 11
241.86245668683861
 21
102.83575891683751
 31
0.0
  0
LINE
  5
12FD2
  8
DANMEN
  6
CONTINUOUS
 10
229.86245668683861
 20
98.835759110552686
 30
0.0
 11
261.86245728989701
 21
98.835759110552686
 31
0.0
  0
LINE
  5
12FD3
  8
DANMEN
  6
CONTINUOUS
 10
229.86245668683861
 20
98.335759110552615
 30
0.0
 11
261.86245728989701
 21
98.335759110552615
 31
0.0
  0
LINE
  5
12FD4
  8
DANMEN
  6
CONTINUOUS
 10
229.86245668683861
 20
90.835759110552615
 30
0.0
 11
261.86245728989701
 21
90.835759110552615
 31
0.0
  0
LINE
  5
12FD5
  8
DANMEN
  6
CONTINUOUS
 10
229.86245668683861
 20
91.33575911055263
 30
0.0
 11
261.86245728989701
 21
91.33575911055263
 31
0.0
  0
LINE
  5
12FD6
  8
DANMEN
  6
CONTINUOUS
 10
229.86245668683861
 20
98.835759110552686
 30
0.0
 11
229.86245668683861
 21
90.835759110552615
 31
0.0
  0
LINE
  5
12FD7
  8
DANMEN
  6
CONTINUOUS
 10
229.8624565425676
 20
99.83575911055263
 30
0.0
 11
229.8624565425676
 21
89.835759110552658
 31
0.0
  0
LINE
  5
12FD8
  8
DANMEN
  6
CONTINUOUS
 10
234.23240097454479
 20
88.181969643315426
 30
0.0
 11
235.78755272861869
 21
90.605768661248604
 31
0.0
  0
ARC
  5
12FD9
  8
DANMEN
  6
CONTINUOUS
 10
236.1987356022438
 20
86.920333809954514
 30
0.0
 40
2.3362770080566402
 50
147.315103939474
 51
208.2349271846592
  0
ARC
  5
12FDA
  8
DANMEN
  6
CONTINUOUS
 10
237.04281271253441
 20
90.836134858233336
 30
0.0
 40
2.0
 50
270.00000860059441
 51
324.56506646781401
  0
LINE
  5
12FDB
  8
DANMEN
  6
CONTINUOUS
 10
242.9177725557324
 20
90.457025452269633
 30
0.0
 11
242.7965991901134
 21
89.972331662222629
 31
0.0
  0
ARC
  5
12FDC
  8
DANMEN
  6
CONTINUOUS
 10
243.4028438404641
 20
90.335759110552644
 30
0.0
 40
0.5
 50
90.000090613691441
 51
165.96381531717299
  0
ARC
  5
12FDD
  8
DANMEN
  6
CONTINUOUS
 10
241.3413850143989
 20
90.336134858233322
 30
0.0
 40
1.5
 50
269.99999972754159
 51
345.96377934499418
  0
LINE
  5
12FDE
  8
DANMEN
  6
CONTINUOUS
 10
239.96909231186211
 20
89.573254997201502
 30
0.0
 11
240.22434777820041
 21
90.047119340814334
 31
0.0
  0
ARC
  5
12FDF
  8
DANMEN
  6
CONTINUOUS
 10
239.7550882176003
 20
90.335759110552644
 30
0.0
 40
0.5
 50
89.999964027821918
 51
144.56508855224411
  0
ARC
  5
12FE0
  8
DANMEN
  6
CONTINUOUS
 10
240.40928972516869
 20
89.336134858233322
 30
0.0
 40
0.5
 50
151.69008598968
 51
269.99995438407223
  0
ARC
  5
12FE1
  8
DANMEN
  6
CONTINUOUS
 10
241.54494179044571
 20
89.335759110552672
 30
0.0
 40
1.5
 50
89.999964027821918
 51
151.6900686868363
  0
LINE
  5
12FE2
  8
DANMEN
  6
CONTINUOUS
 10
241.54494179044571
 20
90.835759110552615
 30
0.0
 11
239.7550882176003
 21
90.835759110552615
 31
0.0
  0
LINE
  5
12FE3
  8
DANMEN
  6
CONTINUOUS
 10
241.3413850143989
 20
88.836134858233322
 30
0.0
 11
240.40928972516869
 21
88.836134858233322
 31
0.0
  0
LINE
  5
12FE4
  8
DANMEN
  6
CONTINUOUS
 10
238.672361315334
 20
89.676578734723194
 30
0.0
 11
239.3477005301753
 21
90.625647122251735
 31
0.0
  0
LINE
  5
12FE5
  8
DANMEN
  6
CONTINUOUS
 10
236.30022062866681
 20
89.551862203788801
 30
0.0
 11
236.50638837934989
 21
89.982941185964606
 31
0.0
  0
ARC
  5
12FE6
  8
DANMEN
  6
CONTINUOUS
 10
236.7512878254494
 20
89.336134858233322
 30
0.0
 40
0.5
 50
154.44008407406781
 51
269.99998306707442
  0
ARC
  5
12FE7
  8
DANMEN
  6
CONTINUOUS
 10
236.2083791091282
 20
90.335759110552374
 30
0.0
 40
0.5
 50
90.0
 51
147.3150608298366
  0
LINE
  5
12FE8
  8
DANMEN
  6
CONTINUOUS
 10
237.04281271253441
 20
88.836134858233322
 30
0.0
 11
236.7512878254494
 21
88.836134858233322
 31
0.0
  0
LINE
  5
12FE9
  8
DANMEN
  6
CONTINUOUS
 10
236.2083791091282
 20
90.835759110552374
 30
0.0
 11
237.85959027162809
 21
90.835759110552374
 31
0.0
  0
ARC
  5
12FEA
  8
DANMEN
  6
CONTINUOUS
 10
237.85959027162809
 20
89.335759110552374
 30
0.0
 40
1.5
 50
90.0
 51
154.44008439005879
  0
LINE
  5
12FEB
  8
DANMEN
  6
CONTINUOUS
 10
237.8624576405129
 20
83.835759110552644
 30
0.0
 11
235.9978288487037
 21
83.835759110552644
 31
0.0
  0
LINE
  5
12FEC
  8
DANMEN
  6
CONTINUOUS
 10
235.86245659521131
 20
99.335759448563081
 30
0.0
 11
233.23388483898481
 21
101.635759683215
 31
0.0
  0
LINE
  5
12FED
  8
DANMEN
  6
CONTINUOUS
 10
231.36243212850511
 20
102.83575891683751
 30
0.0
 11
231.3624443355364
 21
102.83575891683751
 31
0.0
  0
LINE
  5
12FEE
  8
DANMEN
  6
CONTINUOUS
 10
229.8624564961037
 20
102.8357591105526
 30
0.0
 11
229.8624564961037
 21
101.63575930128739
 31
0.0
  0
LINE
  5
12FEF
  8
DANMEN
  6
CONTINUOUS
 10
230.3624443355364
 20
102.83575891683751
 30
0.0
 11
231.36243212850511
 21
102.83575891683751
 31
0.0
  0
LINE
  5
12FF0
  8
DANMEN
  6
CONTINUOUS
 10
231.8624564961037
 20
102.8357591105526
 30
0.0
 11
229.8624564961037
 21
102.8357591105526
 31
0.0
  0
LINE
  5
12FF1
  8
DANMEN
  6
CONTINUOUS
 10
233.23388498578879
 20
101.63575930128739
 30
0.0
 11
229.8624564961037
 21
101.63575930128739
 31
0.0
  0
LINE
  5
12FF2
  8
DANMEN
  6
CONTINUOUS
 10
239.0624563053689
 20
99.335759110552644
 30
0.0
 11
236.8624564961037
 21
99.335759110552644
 31
0.0
  0
LINE
  5
12FF3
  8
DANMEN
  6
CONTINUOUS
 10
236.86244128377871
 20
102.83575891683751
 30
0.0
 11
241.3624565425676
 21
102.83575891683751
 31
0.0
  0
LINE
  5
12FF4
  8
DANMEN
  6
CONTINUOUS
 10
241.811808760508
 20
99.335759110552644
 30
0.0
 11
239.6624566868386
 21
99.335759110552644
 31
0.0
  0
LINE
  5
12FF5
  8
DANMEN
  6
CONTINUOUS
 10
242.16508930497321
 20
98.535758141185354
 30
0.0
 11
241.862306960626
 21
98.568168664005483
 31
0.0
  0
ARC
  5
12FF6
  8
DANMEN
  6
CONTINUOUS
 10
239.3624564961037
 20
99.035758919817795
 30
0.0
 40
0.199999988079071
 50
196.87451942498271
 51
343.12548057501698
  0
LINE
  5
12FF7
  8
DANMEN
  6
CONTINUOUS
 10
241.81180757480161
 20
99.335759484429957
 30
0.0
 11
241.8623069413423
 21
98.568168957116754
 31
0.0
  0
LINE
  5
12FF8
  8
DANMEN
  6
CONTINUOUS
 10
239.1710686905873
 20
98.977703523336004
 30
0.0
 11
239.0624569192893
 21
99.335759449416415
 31
0.0
  0
LINE
  5
12FF9
  8
DANMEN
  6
CONTINUOUS
 10
239.55384485589551
 20
98.977704351988081
 30
0.0
 11
239.66245635036401
 21
99.335759365456695
 31
0.0
  0
LINE
  5
12FFA
  8
DANMEN
  6
CONTINUOUS
 10
241.5624563053689
 20
102.8357591105526
 30
0.0
 11
236.66245668683871
 21
102.8357591105526
 31
0.0
  0
ARC
  5
12FFB
  8
DANMEN
  6
CONTINUOUS
 10
236.3624564961037
 20
99.335759110552644
 30
0.0
 40
0.5
 50
180.00001798608889
 51
359.99998201391088
  0
TEXT
  5
12FFC
  8
SUNPO
  6
CONTINUOUS
 10
256.36245728989689
 20
88.15867558350422
 30
0.0
 40
2.5
  1
40.5
 50
90.0
 41
1.25
  7
MX_DIMTXSTY_3
  0
LINE
  5
12FFD
  8
DANMEN
  6
CONTINUOUS
 10
300.56245566065121
 20
82.835758328978073
 30
0.0
 11
300.86245480974759
 21
83.835758044023706
 31
0.0
  0
LINE
  5
12FFE
  8
DANMEN
  6
CONTINUOUS
 10
295.59766450563058
 20
82.512676340842134
 30
0.0
 11
294.79344606775737
 21
89.658841880263196
 31
0.0
  0
TEXT
  5
12FFF
  8
SUNPO
  6
CONTINUOUS
 10
286.3624580372263
 20
82.994644872648124
 30
0.0
 40
2.5
  1
70
 50
90.0
 41
1.1000000000000001
  7
MX_DIMTXSTY_2
  0
LINE
  5
13000
  8
DANMEN
  6
CONTINUOUS
 10
297.36245504790912
 20
72.335758916837563
 30
0.0
 11
281.8624557952383
 21
72.335758916837563
 31
0.0
  0
LINE
  5
13001
  8
DANMEN
  6
CONTINUOUS
 10
281.8624557952383
 20
81.349152338462687
 30
0.0
 11
296.86245639829679
 21
81.349152338462687
 31
0.0
  0
LINE
  5
13002
  8
DANMEN
  6
CONTINUOUS
 10
296.86245793277402
 20
72.835758916837506
 30
0.0
 11
296.86245793277402
 21
82.335758916837506
 31
0.0
  0
ARC
  5
13003
  8
DANMEN
  6
CONTINUOUS
 10
297.36245793277402
 20
72.835758916837506
 30
0.0
 40
0.5
 50
180.00009129693751
 51
270.00012795236199
  0
LINE
  5
13004
  8
DANMEN
  6
CONTINUOUS
 10
301.86245793277402
 20
82.335758916837534
 30
0.0
 11
301.86245793277402
 21
82.835758916837548
 31
0.0
  0
LINE
  5
13005
  8
DANMEN
  6
CONTINUOUS
 10
297.0624571612363
 20
81.335759110552644
 30
0.0
 11
297.16245563535728
 21
81.335759110552644
 31
0.0
  0
ARC
  5
13006
  8
DANMEN
  6
CONTINUOUS
 10
297.0624571612363
 20
82.835759110552644
 30
0.0
 40
1.5
 50
192.43832150768549
 51
270.0
  0
LINE
  5
13007
  8
DANMEN
  6
CONTINUOUS
 10
296.86245639829679
 20
82.835759110552644
 30
0.0
 11
296.86245639829679
 21
81.635760254961809
 31
0.0
  0
LINE
  5
13008
  8
DANMEN
  6
CONTINUOUS
 10
296.86245616227637
 20
81.635760382312142
 30
0.0
 11
297.16245521634852
 21
81.335760367293346
 31
0.0
  0
ARC
  5
13009
  8
DANMEN
  6
CONTINUOUS
 10
297.36245793277402
 20
82.335758916837506
 30
0.0
 40
0.5
 50
90.0
 51
180.0
  0
LINE
  5
1300A
  8
DANMEN
  6
CONTINUOUS
 10
296.86245639829679
 20
82.835759110552644
 30
0.0
 11
300.56245620756192
 21
82.835759110552644
 31
0.0
  0
LINE
  5
1300B
  8
DANMEN
  6
CONTINUOUS
 10
297.36245904936902
 20
82.835758916837506
 30
0.0
 11
301.86245793277402
 21
82.835758916837548
 31
0.0
  0
LINE
  5
1300C
  8
DANMEN
  6
CONTINUOUS
 10
298.81245793277401
 20
74.285758726102642
 30
0.0
 11
298.81245793277401
 21
81.335758916837506
 31
0.0
  0
LINE
  5
1300D
  8
DANMEN
  6
CONTINUOUS
 10
281.8624557952383
 20
102.83575891683751
 30
0.0
 11
296.86245639829679
 21
102.83575891683751
 31
0.0
  0
LINE
  5
1300E
  8
DANMEN
  6
CONTINUOUS
 10
301.6821003726011
 20
88.836134858233322
 30
0.0
 11
301.973625259686
 21
88.836134858233322
 31
0.0
  0
LINE
  5
1300F
  8
DANMEN
  6
CONTINUOUS
 10
298.7558207732734
 20
89.573254997201502
 30
0.0
 11
298.50056530693479
 21
90.047119340814334
 31
0.0
  0
ARC
  5
13010
  8
DANMEN
  6
CONTINUOUS
 10
298.96982486753518
 20
90.335759110552644
 30
0.0
 40
0.5
 50
35.434911447755773
 51
90.000035972178097
  0
ARC
  5
13011
  8
DANMEN
  6
CONTINUOUS
 10
298.31562335996682
 20
89.336134858233322
 30
0.0
 40
0.5
 50
270.0000456159276
 51
28.309914010320011
  0
LINE
  5
13012
  8
DANMEN
  6
CONTINUOUS
 10
295.807140529403
 20
90.457025452269633
 30
0.0
 11
295.92831389502197
 21
89.972331662222629
 31
0.0
  0
ARC
  5
13013
  8
DANMEN
  6
CONTINUOUS
 10
295.3220692446713
 20
90.335759110552644
 30
0.0
 40
0.5
 50
14.03618468282694
 51
89.999909386308559
  0
ARC
  5
13014
  8
DANMEN
  6
CONTINUOUS
 10
297.3835280707363
 20
90.336134858233322
 30
0.0
 40
1.5
 50
194.03622065500571
 51
270.00000027245818
  0
ARC
  5
13015
  8
DANMEN
  6
CONTINUOUS
 10
297.17997129468961
 20
89.335759110552672
 30
0.0
 40
1.5
 50
28.30993131316367
 51
90.000035972178097
  0
LINE
  5
13016
  8
DANMEN
  6
CONTINUOUS
 10
297.17997129468961
 20
90.835759110552615
 30
0.0
 11
298.96982486753518
 21
90.835759110552615
 31
0.0
  0
LINE
  5
13017
  8
DANMEN
  6
CONTINUOUS
 10
297.3835280707363
 20
88.836134858233322
 30
0.0
 11
298.31562335996682
 21
88.836134858233322
 31
0.0
  0
LINE
  5
13018
  8
DANMEN
  6
CONTINUOUS
 10
300.05255176980143
 20
89.676578734723194
 30
0.0
 11
299.37721255496012
 21
90.625647122251735
 31
0.0
  0
ARC
  5
13019
  8
DANMEN
  6
CONTINUOUS
 10
301.6821003726011
 20
90.836134858233336
 30
0.0
 40
2.0
 50
215.4349335321856
 51
269.99999139939911
  0
LINE
  5
1301A
  8
DANMEN
  6
CONTINUOUS
 10
293.32865341215171
 20
90.835759110552615
 30
0.0
 11
295.3220692446713
 21
90.835759110552615
 31
0.0
  0
ARC
  5
1301B
  8
DANMEN
  6
CONTINUOUS
 10
293.32865341215171
 20
89.335759110552672
 30
0.0
 40
1.5
 50
12.43832150768568
 51
89.999964027821918
  0
LINE
  5
1301C
  8
DANMEN
  6
CONTINUOUS
 10
296.9131043246274
 20
99.335759110552644
 30
0.0
 11
299.06245639829677
 21
99.335759110552644
 31
0.0
  0
ARC
  5
1301D
  8
DANMEN
  6
CONTINUOUS
 10
299.36245658903158
 20
99.035758919817795
 30
0.0
 40
0.199999988079071
 50
196.87451942498271
 51
343.12548057501698
  0
LINE
  5
1301E
  8
DANMEN
  6
CONTINUOUS
 10
296.55982378016222
 20
98.535758141185354
 30
0.0
 11
296.86260612450951
 21
98.568168664005483
 31
0.0
  0
LINE
  5
1301F
  8
DANMEN
  6
CONTINUOUS
 10
296.91310551033382
 20
99.335759484429957
 30
0.0
 11
296.86260614379319
 21
98.568168957116754
 31
0.0
  0
LINE
  5
13020
  8
DANMEN
  6
CONTINUOUS
 10
299.55384439454809
 20
98.977703523336004
 30
0.0
 11
299.66245616584592
 21
99.335759449416415
 31
0.0
  0
LINE
  5
13021
  8
DANMEN
  6
CONTINUOUS
 10
299.17106822924001
 20
98.977704351988081
 30
0.0
 11
299.06245673477139
 21
99.335759365456695
 31
0.0
  0
LINE
  5
13022
  8
DANMEN
  6
CONTINUOUS
 10
299.6624567797665
 20
99.335759110552644
 30
0.0
 11
301.86245658903158
 21
99.335759110552644
 31
0.0
  0
LINE
  5
13023
  8
DANMEN
  6
CONTINUOUS
 10
301.86247180135678
 20
102.83575891683751
 30
0.0
 11
297.3624565425676
 21
102.83575891683751
 31
0.0
  0
ARC
  5
13024
  8
DANMEN
  6
CONTINUOUS
 10
378.40284384046402
 20
90.335759110552644
 30
0.0
 40
0.5
 50
90.000090613691441
 51
165.96381531717299
  0
ARC
  5
13025
  8
DANMEN
  6
CONTINUOUS
 10
376.34138501439901
 20
90.336134858233322
 30
0.0
 40
1.5
 50
269.99999972754159
 51
345.96377934499418
  0
LINE
  5
13026
  8
DANMEN
  6
CONTINUOUS
 10
391.86245728989689
 20
102.83575891683751
 30
0.0
 11
376.86245668683853
 21
102.83575891683751
 31
0.0
  0
LINE
  5
13027
  8
DANMEN
  6
CONTINUOUS
 10
364.86245668683853
 20
98.335759110552615
 30
0.0
 11
391.86245728989689
 21
98.335759110552615
 31
0.0
  0
LINE
  5
13028
  8
DANMEN
  6
CONTINUOUS
 10
364.86245668683853
 20
98.835759110552686
 30
0.0
 11
391.86245728989689
 21
98.835759110552686
 31
0.0
  0
LINE
  5
13029
  8
DANMEN
  6
CONTINUOUS
 10
364.86245668683853
 20
91.33575911055263
 30
0.0
 11
391.86245728989689
 21
91.33575911055263
 31
0.0
  0
LINE
  5
1302A
  8
DANMEN
  6
CONTINUOUS
 10
364.86245668683853
 20
90.835759110552615
 30
0.0
 11
391.86245728989689
 21
90.835759110552615
 31
0.0
  0
ARC
  5
1302B
  8
DANMEN
  6
CONTINUOUS
 10
376.66245592389907
 20
82.835759110552644
 30
0.0
 40
1.5
 50
270.0
 51
347.56167849231417
  0
LINE
  5
1302C
  8
DANMEN
  6
CONTINUOUS
 10
376.3624580372263
 20
72.335758916837563
 30
0.0
 11
391.86245728989689
 21
72.335758916837563
 31
0.0
  0
LINE
  5
1302D
  8
DANMEN
  6
CONTINUOUS
 10
391.86245728989689
 20
81.349152338462687
 30
0.0
 11
376.86245668683853
 21
81.349152338462687
 31
0.0
  0
LINE
  5
1302E
  8
DANMEN
  6
CONTINUOUS
 10
352.86245651872582
 20
68.135758916837574
 30
0.0
 11
352.86245651872582
 21
56.835758916837548
 31
0.0
  0
LINE
  5
1302F
  8
DANMEN
  6
CONTINUOUS
 10
320.86245656640949
 20
68.135758916837574
 30
0.0
 11
320.86245656640949
 21
56.835758916837548
 31
0.0
  0
LINE
  5
13030
  8
DANMEN
  6
CONTINUOUS
 10
356.86245651872588
 20
74.02674192246262
 30
0.0
 11
356.86245651872588
 21
52.835758916837563
 31
0.0
  0
LINE
  5
13031
  8
DANMEN
  6
CONTINUOUS
 10
316.86245656640961
 20
74.02674192246262
 30
0.0
 11
316.86245656640961
 21
52.835758916837563
 31
0.0
  0
LINE
  5
13032
  8
DANMEN
  6
CONTINUOUS
 10
320.86245656640949
 20
56.835758916837548
 30
0.0
 11
352.86245651872582
 21
56.835758916837548
 31
0.0
  0
LINE
  5
13033
  8
DANMEN
  6
CONTINUOUS
 10
317.86245656640961
 20
51.835758916837548
 30
0.0
 11
355.86245651872582
 21
51.835758916837548
 31
0.0
  0
LINE
  5
13034
  8
SUNPO
  6
CONTINUOUS
 10
356.86245651872588
 20
38.335758916837563
 30
0.0
 11
316.86245656640961
 21
38.335758916837563
 31
0.0
  0
LINE
  5
13035
  8
SUNPO
  6
CONTINUOUS
 10
316.86245656640961
 20
46.835758916837548
 30
0.0
 11
316.86245656640961
 21
38.335758916837563
 31
0.0
  0
TEXT
  5
13036
  8
SUNPO
  6
CONTINUOUS
 10
304.79995656640961
 20
38.835758916837563
 30
0.0
 40
2.5
  1
20
 41
1.1000000000000001
  7
MX_DIMTXSTY_2
  0
INSERT
  5
13037
  8
SUNPO
  6
CONTINUOUS
  2
_DOTSMALL
 10
316.86245656640961
 20
38.335758916837563
 30
0.0
 41
2.3200000000000491
 42
2.3199999999999918
 43
2.3199999999999981
 50
180.0
  0
INSERT
  5
13038
  8
SUNPO
  6
CONTINUOUS
  2
_DOTSMALL
 10
316.86245656640961
 20
38.335758916837563
 30
0.0
 41
2.3200000000000491
 42
2.3199999999999918
 43
2.3199999999999981
  0
TEXT
  5
13039
  8
SUNPO
  6
CONTINUOUS
 10
334.79995651872582
 20
38.835758916837563
 30
0.0
 40
2.5
  1
40
 41
1.1000000000000001
  7
MX_DIMTXSTY_2
  0
ARC
  5
1303A
  8
DANMEN
  6
CONTINUOUS
 10
317.86245656640961
 20
52.835758916837563
 30
0.0
 40
1.0
 50
180.0
 51
270.0
  0
LINE
  5
1303B
  8
SUNPO
  6
CONTINUOUS
 10
376.86245515236078
 20
46.835758916837548
 30
0.0
 11
376.86245515236078
 21
38.335758916837563
 31
0.0
  0
LINE
  5
1303C
  8
SUNPO
  6
CONTINUOUS
 10
356.86245651872588
 20
46.835758916837548
 30
0.0
 11
356.86245651872588
 21
38.335758916837563
 31
0.0
  0
LINE
  5
1303D
  8
SUNPO
  6
CONTINUOUS
 10
376.86245515236078
 20
38.335758916837563
 30
0.0
 11
356.86245651872588
 21
38.335758916837563
 31
0.0
  0
INSERT
  5
1303E
  8
SUNPO
  6
CONTINUOUS
  2
_DOTSMALL
 10
356.86245651872588
 20
38.335758916837563
 30
0.0
 41
2.3200000000000491
 42
2.3199999999999918
 43
2.3199999999999981
  0
INSERT
  5
1303F
  8
SUNPO
  6
CONTINUOUS
  2
_DOTSMALL
 10
356.86245651872588
 20
38.335758916837563
 30
0.0
 41
2.3200000000000491
 42
2.3199999999999918
 43
2.3199999999999981
 50
180.0
  0
TEXT
  5
13040
  8
SUNPO
  6
CONTINUOUS
 10
364.79995610603521
 20
38.835758916837563
 30
0.0
 40
2.5
  1
20
 41
1.1000000000000001
  7
MX_DIMTXSTY_2
  0
INSERT
  5
13041
  8
SUNPO
  6
CONTINUOUS
  2
_DOTSMALL
 10
376.86245515236078
 20
38.335758916837563
 30
0.0
 41
2.3200000000000491
 42
2.3199999999999918
 43
2.3199999999999981
  0
ARC
  5
13042
  8
DANMEN
  6
CONTINUOUS
 10
355.86245651872582
 20
52.835758916837563
 30
0.0
 40
1.0
 50
270.0
 51
0.0
  0
LINE
  5
13043
  8
DANMEN
  6
CONTINUOUS
 10
320.86245656640949
 20
68.135758916837574
 30
0.0
 11
352.86245651872582
 21
68.135758916837574
 31
0.0
  0
LINE
  5
13044
  8
DANMEN
  6
CONTINUOUS
 10
328.8624565425676
 20
72.13575891683756
 30
0.0
 11
344.8624565425676
 21
72.13575891683756
 31
0.0
  0
LINE
  5
13045
  8
DANMEN
  6
CONTINUOUS
 10
302.66245468168302
 20
82.235759682757234
 30
0.0
 11
304.58447309458319
 21
85.815069392149937
 31
0.0
  0
LINE
  5
13046
  8
DANMEN
  6
CONTINUOUS
 10
319.4613719610665
 20
76.035758916837551
 30
0.0
 11
322.16334962228802
 21
78.03575891683758
 31
0.0
  0
LINE
  5
13047
  8
DANMEN
  6
CONTINUOUS
 10
318.86245656640961
 20
79.835765020353179
 30
0.0
 11
324.86245656640949
 21
79.835765020353179
 31
0.0
  0
LINE
  5
13048
  8
DANMEN
  6
CONTINUOUS
 10
320.86245656640961
 20
77.835765020353179
 30
0.0
 11
324.86245656640949
 21
77.835765020353179
 31
0.0
  0
LINE
  5
13049
  8
DANMEN
  6
CONTINUOUS
 10
318.86245656640949
 20
72.13575891683756
 30
0.0
 11
324.86245656640961
 21
72.13575891683756
 31
0.0
  0
LINE
  5
1304A
  8
DANMEN
  6
CONTINUOUS
 10
319.44933442512269
 20
74.533876128510556
 30
0.0
 11
322.4263606534393
 21
76.737466684452457
 31
0.0
  0
LINE
  5
1304B
  8
DANMEN
  6
CONTINUOUS
 10
318.86245656640949
 20
72.13575891683756
 30
0.0
 11
318.86245656640949
 21
74.53575891683758
 31
0.0
  0
LINE
  5
1304C
  8
DANMEN
  6
CONTINUOUS
 10
316.86245507175113
 20
72.335758916837563
 30
0.0
 11
316.86245507175113
 21
73.835758916837563
 31
0.0
  0
LINE
  5
1304D
  8
DANMEN
  6
CONTINUOUS
 10
307.86245793277402
 20
81.835758916837548
 30
0.0
 11
307.86245793277402
 21
82.335758916837563
 31
0.0
  0
LINE
  5
1304E
  8
DANMEN
  6
CONTINUOUS
 10
306.86245793277402
 20
82.335758916837534
 30
0.0
 11
306.86245793277402
 21
82.835758916837548
 31
0.0
  0
LINE
  5
1304F
  8
DANMEN
  6
CONTINUOUS
 10
306.86245793277402
 20
82.835758916837563
 30
0.0
 11
307.36245793277402
 21
82.835758916837563
 31
0.0
  0
ARC
  5
13050
  8
DANMEN
  6
CONTINUOUS
 10
307.36245793277402
 20
82.335758916837563
 30
0.0
 40
0.5
 50
0.0
 51
90.0
  0
ARC
  5
13051
  8
DANMEN
  6
CONTINUOUS
 10
307.36245793277402
 20
81.835758916837577
 30
0.0
 40
0.5
 50
270.0
 51
0.0
  0
ARC
  5
13052
  8
DANMEN
  6
CONTINUOUS
 10
315.562455071751
 20
75.535758916837551
 30
0.0
 40
0.5
 50
90.0
 51
180.0
  0
LINE
  5
13053
  8
DANMEN
  6
CONTINUOUS
 10
315.562455071751
 20
76.035758916837551
 30
0.0
 11
319.4613719610665
 21
76.035758916837551
 31
0.0
  0
ARC
  5
13054
  8
DANMEN
  6
CONTINUOUS
 10
319.36245656640961
 20
78.645666971712458
 30
0.0
 40
0.5
 50
180.0
 51
258.69006752597562
  0
LINE
  5
13055
  8
DANMEN
  6
CONTINUOUS
 10
320.86245656640961
 20
77.835765020353179
 30
0.0
 11
319.26439849884042
 21
78.155376633867021
 31
0.0
  0
LINE
  5
13056
  8
DANMEN
  6
CONTINUOUS
 10
318.86245656640961
 20
78.645666971712458
 30
0.0
 11
318.86245656640961
 21
79.835765020353179
 31
0.0
  0
ARC
  5
13057
  8
DANMEN
  6
CONTINUOUS
 10
318.56245656640948
 20
74.53575891683758
 30
0.0
 40
0.3
 50
0.0
 51
90.0
  0
ARC
  5
13058
  8
DANMEN
  6
CONTINUOUS
 10
319.12814049670033
 20
74.735758916837554
 30
0.0
 40
0.3
 50
199.47122063448961
 51
270.0
  0
ARC
  5
13059
  8
DANMEN
  6
CONTINUOUS
 10
318.562455071751
 20
74.535758916837551
 30
0.0
 40
0.3
 50
19.471220634491019
 51
90.0
  0
ARC
  5
1305A
  8
DANMEN
  6
CONTINUOUS
 10
319.15186136004519
 20
74.935758916837543
 30
0.0
 40
0.5
 50
270.0
 51
306.50879193554761
  0
LINE
  5
1305B
  8
DANMEN
  6
CONTINUOUS
 10
319.12814049670033
 20
74.435758916837543
 30
0.0
 11
319.15186136004519
 21
74.435758916837543
 31
0.0
  0
LINE
  5
1305C
  8
DANMEN
  6
CONTINUOUS
 10
317.86245656640961
 20
74.835758916837563
 30
0.0
 11
317.13884976865961
 21
74.473955517962565
 31
0.0
  0
LINE
  5
1305D
  8
DANMEN
  6
CONTINUOUS
 10
316.562455071751
 20
73.835758916837563
 30
0.0
 11
316.86245507175113
 21
73.835758916837563
 31
0.0
  0
LINE
  5
1305E
  8
DANMEN
  6
CONTINUOUS
 10
316.562455071751
 20
73.835758916837563
 30
0.0
 11
316.562455071751
 21
74.835758916837563
 31
0.0
  0
ARC
  5
1305F
  8
DANMEN
  6
CONTINUOUS
 10
314.562455071751
 20
74.785758726102699
 30
0.0
 40
0.5
 50
270.0
 51
0.0
  0
ARC
  5
13060
  8
DANMEN
  6
CONTINUOUS
 10
317.36245656640961
 20
74.02674192246262
 30
0.0
 40
0.5
 50
116.56505117707979
 51
180.0
  0
LINE
  5
13061
  8
DANMEN
  6
CONTINUOUS
 10
318.56245656640948
 20
74.835758916837563
 30
0.0
 11
317.86245656640961
 21
74.835758916837563
 31
0.0
  0
LINE
  5
13062
  8
DANMEN
  6
CONTINUOUS
 10
316.562455071751
 20
74.835758916837563
 30
0.0
 11
318.562455071751
 21
74.835758916837563
 31
0.0
  0
LINE
  5
13063
  8
DANMEN
  6
CONTINUOUS
 10
315.06245507175089
 20
74.785758726102699
 30
0.0
 11
315.06245507175089
 21
75.535758916837551
 31
0.0
  0
LINE
  5
13064
  8
DANMEN
  6
CONTINUOUS
 10
324.8624565425676
 20
77.835765020353179
 30
0.0
 11
324.8624565425676
 21
72.13575891683756
 31
0.0
  0
LINE
  5
13065
  8
DANMEN
  6
CONTINUOUS
 10
322.16334962228802
 20
78.03575891683758
 30
0.0
 11
323.36334962228779
 21
78.03575891683758
 31
0.0
  0
LINE
  5
13066
  8
DANMEN
  6
CONTINUOUS
 10
324.27440861571392
 20
76.720151285106752
 30
0.0
 11
323.36334962228779
 21
78.03575891683758
 31
0.0
  0
LINE
  5
13067
  8
DANMEN
  6
CONTINUOUS
 10
323.86334961825992
 20
75.935623396294702
 30
0.0
 11
323.61998503874838
 21
75.935623396294702
 31
0.0
  0
LINE
  5
13068
  8
DANMEN
  6
CONTINUOUS
 10
323.20892604532253
 20
76.150964821992702
 30
0.0
 11
322.85147988854129
 21
76.667132156037454
 31
0.0
  0
ARC
  5
13069
  8
DANMEN
  6
CONTINUOUS
 10
323.61998503874838
 20
76.435623396294702
 30
0.0
 40
0.5
 50
214.7026221655492
 51
270.0
  0
ARC
  5
1306A
  8
DANMEN
  6
CONTINUOUS
 10
322.60484449248582
 20
76.496337011456276
 30
0.0
 40
0.3
 50
34.702622165549407
 51
126.50879193554771
  0
ARC
  5
1306B
  8
DANMEN
  6
CONTINUOUS
 10
323.86334962228779
 20
76.435492710804766
 30
0.0
 40
0.5
 50
0.0
 51
34.702622165549407
  0
LINE
  5
1306C
  8
DANMEN
  6
CONTINUOUS
 10
324.36334962228779
 20
76.435492686731209
 30
0.0
 11
324.36334962228779
 21
76.435623396294702
 31
0.0
  0
ARC
  5
1306D
  8
DANMEN
  6
CONTINUOUS
 10
323.86334962228779
 20
76.435623396294702
 30
0.0
 40
0.5
 50
270.0
 51
0.0
  0
LINE
  5
1306E
  8
DANMEN
  6
CONTINUOUS
 10
308.8624563982969
 20
98.835759110552686
 30
0.0
 11
308.8624563982969
 21
90.835759110552615
 31
0.0
  0
ARC
  5
1306F
  8
DANMEN
  6
CONTINUOUS
 10
302.52617748289163
 20
86.920333809954514
 30
0.0
 40
2.3362770080566402
 50
331.76507281534072
 51
32.684896060525951
  0
LINE
  5
13070
  8
DANMEN
  6
CONTINUOUS
 10
302.42469245646862
 20
89.551862203788801
 30
0.0
 11
302.21852470578551
 21
89.982941185964606
 31
0.0
  0
ARC
  5
13071
  8
DANMEN
  6
CONTINUOUS
 10
302.51653397600711
 20
90.335759110552374
 30
0.0
 40
0.5
 50
32.684939170163389
 51
90.0
  0
LINE
  5
13072
  8
DANMEN
  6
CONTINUOUS
 10
304.49251211059061
 20
88.181969643315426
 30
0.0
 11
302.93736035651682
 21
90.605768661248604
 31
0.0
  0
LINE
  5
13073
  8
DANMEN
  6
CONTINUOUS
 10
308.86245658903169
 20
102.8357591105526
 30
0.0
 11
308.86245658903169
 21
101.63575930128739
 31
0.0
  0
LINE
  5
13074
  8
DANMEN
  6
CONTINUOUS
 10
308.36248095663012
 20
102.83575891683751
 30
0.0
 11
307.36248095663018
 21
102.83575891683751
 31
0.0
  0
LINE
  5
13075
  8
DANMEN
  6
CONTINUOUS
 10
306.86245658903169
 20
102.8357591105526
 30
0.0
 11
308.86245658903169
 21
102.8357591105526
 31
0.0
  0
LINE
  5
13076
  8
DANMEN
  6
CONTINUOUS
 10
305.49102809934652
 20
101.63575930128739
 30
0.0
 11
308.86245658903169
 21
101.63575930128739
 31
0.0
  0
LINE
  5
13077
  8
DANMEN
  6
CONTINUOUS
 10
302.862456489924
 20
99.335759448563081
 30
0.0
 11
305.49102824615062
 21
101.635759683215
 31
0.0
  0
LINE
  5
13078
  8
DANMEN
  6
CONTINUOUS
 10
370.99782899363851
 20
83.835759277739314
 30
0.0
 11
371.8569970142031
 21
82.235759995116553
 31
0.0
  0
LINE
  5
13079
  8
DANMEN
  6
CONTINUOUS
 10
373.1624574244841
 20
82.835758328978073
 30
0.0
 11
372.86245827538761
 21
83.835758044023706
 31
0.0
  0
LINE
  5
1307A
  8
DANMEN
  6
CONTINUOUS
 10
371.0624584034523
 20
82.235759682757234
 30
0.0
 11
369.14043999055218
 21
85.815069392149937
 31
0.0
  0
ARC
  5
1307B
  8
DANMEN
  6
CONTINUOUS
 10
359.16245801338442
 20
74.785758726102699
 30
0.0
 40
0.5
 50
180.0
 51
270.0
  0
LINE
  5
1307C
  8
DANMEN
  6
CONTINUOUS
 10
376.36245403576652
 20
72.335758916837506
 30
0.0
 11
356.86245801338441
 21
72.335758916837563
 31
0.0
  0
LINE
  5
1307D
  8
DANMEN
  6
CONTINUOUS
 10
356.86245801338441
 20
72.335758916837563
 30
0.0
 11
356.86245801338441
 21
73.835758916837563
 31
0.0
  0
LINE
  5
1307E
  8
DANMEN
  6
CONTINUOUS
 10
354.86245651872582
 20
72.13575891683756
 30
0.0
 11
354.86245651872582
 21
74.53575891683758
 31
0.0
  0
LINE
  5
1307F
  8
DANMEN
  6
CONTINUOUS
 10
348.8624565425676
 20
77.835765020353179
 30
0.0
 11
348.8624565425676
 21
72.13575891683756
 31
0.0
  0
LINE
  5
13080
  8
DANMEN
  6
CONTINUOUS
 10
354.86245651872582
 20
72.13575891683756
 30
0.0
 11
348.86245651872582
 21
72.13575891683756
 31
0.0
  0
ARC
  5
13081
  8
DANMEN
  6
CONTINUOUS
 10
349.86156346284758
 20
76.435623396294702
 30
0.0
 40
0.5
 50
180.0
 51
270.0
  0
LINE
  5
13082
  8
DANMEN
  6
CONTINUOUS
 10
349.45050446942162
 20
76.720151285106752
 30
0.0
 11
350.36156346284753
 21
78.03575891683758
 31
0.0
  0
LINE
  5
13083
  8
DANMEN
  6
CONTINUOUS
 10
354.86245651872582
 20
79.835765020353179
 30
0.0
 11
348.86245651872582
 21
79.835765020353179
 31
0.0
  0
LINE
  5
13084
  8
DANMEN
  6
CONTINUOUS
 10
352.86245651872582
 20
77.835765020353179
 30
0.0
 11
348.86245651872582
 21
77.835765020353179
 31
0.0
  0
LINE
  5
13085
  8
DANMEN
  6
CONTINUOUS
 10
349.36156346284758
 20
76.435492686731209
 30
0.0
 11
349.36156346284758
 21
76.435623396294702
 31
0.0
  0
ARC
  5
13086
  8
DANMEN
  6
CONTINUOUS
 10
349.86156346284758
 20
76.435492710804766
 30
0.0
 40
0.5
 50
145.2973778344504
 51
180.0
  0
LINE
  5
13087
  8
DANMEN
  6
CONTINUOUS
 10
354.26354112406892
 20
76.035758916837551
 30
0.0
 11
351.56156346284752
 21
78.03575891683758
 31
0.0
  0
ARC
  5
13088
  8
DANMEN
  6
CONTINUOUS
 10
358.16245801338442
 20
75.535758916837551
 30
0.0
 40
0.5
 50
0.0
 51
90.0
  0
LINE
  5
13089
  8
DANMEN
  6
CONTINUOUS
 10
358.16245801338442
 20
76.035758916837551
 30
0.0
 11
354.26354112406892
 21
76.035758916837551
 31
0.0
  0
ARC
  5
1308A
  8
DANMEN
  6
CONTINUOUS
 10
351.1200685926496
 20
76.496337011456276
 30
0.0
 40
0.3
 50
53.491208064452259
 51
145.2973778344504
  0
LINE
  5
1308B
  8
DANMEN
  6
CONTINUOUS
 10
352.86245651872582
 20
77.835765020353179
 30
0.0
 11
354.46051458629478
 21
78.155376633867021
 31
0.0
  0
ARC
  5
1308C
  8
DANMEN
  6
CONTINUOUS
 10
354.36245651872582
 20
78.645666971712458
 30
0.0
 40
0.5
 50
281.30993247402421
 51
0.0
  0
LINE
  5
1308D
  8
DANMEN
  6
CONTINUOUS
 10
354.86245651872582
 20
78.645666971712458
 30
0.0
 11
354.86245651872582
 21
79.835765020353179
 31
0.0
  0
LINE
  5
1308E
  8
DANMEN
  6
CONTINUOUS
 10
349.86156346687562
 20
75.935623396294702
 30
0.0
 11
350.10492804638687
 21
75.935623396294702
 31
0.0
  0
ARC
  5
1308F
  8
DANMEN
  6
CONTINUOUS
 10
350.10492804638687
 20
76.435623396294702
 30
0.0
 40
0.5
 50
270.0
 51
325.29737783445051
  0
LINE
  5
13090
  8
DANMEN
  6
CONTINUOUS
 10
350.51598703981279
 20
76.150964821992702
 30
0.0
 11
350.87343319659402
 21
76.667132156037454
 31
0.0
  0
LINE
  5
13091
  8
DANMEN
  6
CONTINUOUS
 10
351.56156346284752
 20
78.03575891683758
 30
0.0
 11
350.36156346284753
 21
78.03575891683758
 31
0.0
  0
LINE
  5
13092
  8
DANMEN
  6
CONTINUOUS
 10
355.16245651872589
 20
74.835758916837563
 30
0.0
 11
355.86245651872582
 21
74.835758916837563
 31
0.0
  0
LINE
  5
13093
  8
DANMEN
  6
CONTINUOUS
 10
355.86245651872582
 20
74.835758916837563
 30
0.0
 11
356.58606331647587
 21
74.473955517962565
 31
0.0
  0
ARC
  5
13094
  8
DANMEN
  6
CONTINUOUS
 10
356.36245651872582
 20
74.02674192246262
 30
0.0
 40
0.5
 50
0.0
 51
63.434948822920013
  0
LINE
  5
13095
  8
DANMEN
  6
CONTINUOUS
 10
357.16245801338442
 20
73.835758916837563
 30
0.0
 11
356.86245801338441
 21
73.835758916837563
 31
0.0
  0
LINE
  5
13096
  8
DANMEN
  6
CONTINUOUS
 10
357.16245801338442
 20
73.835758916837563
 30
0.0
 11
357.16245801338442
 21
74.835758916837563
 31
0.0
  0
LINE
  5
13097
  8
DANMEN
  6
CONTINUOUS
 10
357.16245801338442
 20
74.835758916837563
 30
0.0
 11
355.16245801338442
 21
74.835758916837563
 31
0.0
  0
ARC
  5
13098
  8
DANMEN
  6
CONTINUOUS
 10
354.59677258843521
 20
74.735758916837554
 30
0.0
 40
0.3
 50
270.0
 51
340.5287793655088
  0
ARC
  5
13099
  8
DANMEN
  6
CONTINUOUS
 10
354.57305172509001
 20
74.935758916837543
 30
0.0
 40
0.5
 50
233.49120806445211
 51
270.0
  0
LINE
  5
1309A
  8
DANMEN
  6
CONTINUOUS
 10
354.59677258843521
 20
74.435758916837543
 30
0.0
 11
354.57305172509001
 21
74.435758916837543
 31
0.0
  0
ARC
  5
1309B
  8
DANMEN
  6
CONTINUOUS
 10
355.16245651872589
 20
74.53575891683758
 30
0.0
 40
0.3
 50
90.0
 51
180.0
  0
ARC
  5
1309C
  8
DANMEN
  6
CONTINUOUS
 10
355.16245801338442
 20
74.535758916837551
 30
0.0
 40
0.3
 50
90.0
 51
160.52877936550891
  0
LINE
  5
1309D
  8
DANMEN
  6
CONTINUOUS
 10
354.2755786600128
 20
74.533876128510556
 30
0.0
 11
351.29855243169601
 21
76.737466684452457
 31
0.0
  0
LINE
  5
1309E
  8
DANMEN
  6
CONTINUOUS
 10
358.66245801338442
 20
74.785758726102699
 30
0.0
 11
358.66245801338442
 21
75.535758916837551
 31
0.0
  0
LINE
  5
1309F
  8
DANMEN
  6
CONTINUOUS
 10
376.86245515236141
 20
72.835758916837506
 30
0.0
 11
376.86245515236141
 21
82.335758916837506
 31
0.0
  0
ARC
  5
130A0
  8
DANMEN
  6
CONTINUOUS
 10
376.36245515236141
 20
72.835758916837506
 30
0.0
 40
0.5
 50
269.99987204763801
 51
359.9999087030622
  0
LINE
  5
130A1
  8
DANMEN
  6
CONTINUOUS
 10
371.86245515236141
 20
82.335758916837534
 30
0.0
 11
366.86245515236141
 21
82.335758916837563
 31
0.0
  0
LINE
  5
130A2
  8
DANMEN
  6
CONTINUOUS
 10
374.91245515236147
 20
81.335758916837506
 30
0.0
 11
366.36245515236141
 21
81.335758916837563
 31
0.0
  0
LINE
  5
130A3
  8
DANMEN
  6
CONTINUOUS
 10
374.91245515236147
 20
74.285758726102642
 30
0.0
 11
359.16245801338442
 21
74.285758726102699
 31
0.0
  0
LINE
  5
130A4
  8
DANMEN
  6
CONTINUOUS
 10
366.86245515236141
 20
82.335758916837534
 30
0.0
 11
366.86245515236141
 21
82.835758916837548
 31
0.0
  0
LINE
  5
130A5
  8
DANMEN
  6
CONTINUOUS
 10
366.86245515236141
 20
82.835758916837563
 30
0.0
 11
366.36245515236141
 21
82.835758916837563
 31
0.0
  0
ARC
  5
130A6
  8
DANMEN
  6
CONTINUOUS
 10
366.36245515236141
 20
82.335758916837563
 30
0.0
 40
0.5
 50
90.0
 51
180.0
  0
LINE
  5
130A7
  8
DANMEN
  6
CONTINUOUS
 10
365.86245515236141
 20
81.835758916837548
 30
0.0
 11
365.86245515236141
 21
82.335758916837563
 31
0.0
  0
ARC
  5
130A8
  8
DANMEN
  6
CONTINUOUS
 10
366.36245515236141
 20
81.835758916837577
 30
0.0
 40
0.5
 50
180.0
 51
270.0
  0
LINE
  5
130A9
  8
DANMEN
  6
CONTINUOUS
 10
371.8569969013771
 20
82.235759682757234
 30
0.0
 11
371.0624584034523
 21
82.235759682757234
 31
0.0
  0
LINE
  5
130AA
  8
DANMEN
  6
CONTINUOUS
 10
376.66245592389907
 20
81.335759110552644
 30
0.0
 11
376.56245744977798
 21
81.335759110552644
 31
0.0
  0
LINE
  5
130AB
  8
DANMEN
  6
CONTINUOUS
 10
376.86245668683853
 20
82.835759110552644
 30
0.0
 11
376.86245668683853
 21
81.635760254961809
 31
0.0
  0
LINE
  5
130AC
  8
DANMEN
  6
CONTINUOUS
 10
376.86245692285911
 20
81.635760382312142
 30
0.0
 11
376.56245786878679
 21
81.335760367293346
 31
0.0
  0
ARC
  5
130AD
  8
DANMEN
  6
CONTINUOUS
 10
376.36245515236141
 20
82.335758916837506
 30
0.0
 40
0.5
 50
0.0
 51
90.0
  0
LINE
  5
130AE
  8
DANMEN
  6
CONTINUOUS
 10
371.86245515236141
 20
82.335758916837506
 30
0.0
 11
371.86245515236141
 21
82.835758916837548
 31
0.0
  0
LINE
  5
130AF
  8
DANMEN
  6
CONTINUOUS
 10
376.86245668683853
 20
82.835759110552644
 30
0.0
 11
373.16245687757339
 21
82.835759110552644
 31
0.0
  0
LINE
  5
130B0
  8
DANMEN
  6
CONTINUOUS
 10
376.36245403576652
 20
82.835758916837506
 30
0.0
 11
371.86245515236141
 21
82.835758916837548
 31
0.0
  0
LINE
  5
130B1
  8
DANMEN
  6
CONTINUOUS
 10
374.91245515236147
 20
74.285758726102642
 30
0.0
 11
374.91245515236147
 21
81.335758916837506
 31
0.0
  0
LINE
  5
130B2
  8
DANMEN
  6
CONTINUOUS
 10
348.8624565425676
 20
99.83575911055263
 30
0.0
 11
364.8624565425676
 21
99.83575911055263
 31
0.0
  0
LINE
  5
130B3
  8
DANMEN
  6
CONTINUOUS
 10
348.8624565425676
 20
89.835759110552658
 30
0.0
 11
364.8624565425676
 21
89.835759110552658
 31
0.0
  0
LINE
  5
130B4
  8
DANMEN
  6
CONTINUOUS
 10
364.86245638504442
 20
99.835759032767697
 30
0.0
 11
348.86245695707061
 21
89.835758501985879
 31
0.0
  0
LINE
  5
130B5
  8
DANMEN
  6
CONTINUOUS
 10
348.8624565425676
 20
99.83575911055263
 30
0.0
 11
348.8624565425676
 21
89.835759110552658
 31
0.0
  0
LINE
  5
130B6
  8
DANMEN
  6
CONTINUOUS
 10
364.86245668683853
 20
98.835759110552686
 30
0.0
 11
364.86245668683853
 21
90.835759110552615
 31
0.0
  0
LINE
  5
130B7
  8
DANMEN
  6
CONTINUOUS
 10
364.8624565425676
 20
99.83575911055263
 30
0.0
 11
364.8624565425676
 21
89.835759110552658
 31
0.0
  0
ARC
  5
130B8
  8
DANMEN
  6
CONTINUOUS
 10
371.75128782544948
 20
89.336134858233322
 30
0.0
 40
0.5
 50
154.44008407406781
 51
269.99998306707442
  0
LINE
  5
130B9
  8
DANMEN
  6
CONTINUOUS
 10
371.20837910912832
 20
90.835759110552374
 30
0.0
 11
372.85959027162801
 21
90.835759110552374
 31
0.0
  0
ARC
  5
130BA
  8
DANMEN
  6
CONTINUOUS
 10
371.20837910912832
 20
90.335759110552374
 30
0.0
 40
0.5
 50
90.0
 51
147.3150608298366
  0
LINE
  5
130BB
  8
DANMEN
  6
CONTINUOUS
 10
377.91777255573248
 20
90.457025452269633
 30
0.0
 11
377.7965991901134
 21
89.972331662222629
 31
0.0
  0
LINE
  5
130BC
  8
DANMEN
  6
CONTINUOUS
 10
374.96909231186203
 20
89.573254997201502
 30
0.0
 11
375.22434777820052
 21
90.047119340814334
 31
0.0
  0
ARC
  5
130BD
  8
DANMEN
  6
CONTINUOUS
 10
376.54494179044571
 20
89.335759110552672
 30
0.0
 40
1.5
 50
89.999964027821918
 51
151.6900686868363
  0
ARC
  5
130BE
  8
DANMEN
  6
CONTINUOUS
 10
374.7550882176003
 20
90.335759110552644
 30
0.0
 40
0.5
 50
89.999964027821918
 51
144.56508855224411
  0
LINE
  5
130BF
  8
DANMEN
  6
CONTINUOUS
 10
376.54494179044571
 20
90.835759110552615
 30
0.0
 11
374.7550882176003
 21
90.835759110552615
 31
0.0
  0
LINE
  5
130C0
  8
DANMEN
  6
CONTINUOUS
 10
376.34138501439901
 20
88.836134858233322
 30
0.0
 11
375.40928972516878
 21
88.836134858233322
 31
0.0
  0
ARC
  5
130C1
  8
DANMEN
  6
CONTINUOUS
 10
375.40928972516878
 20
89.336134858233322
 30
0.0
 40
0.5
 50
151.69008598968
 51
269.99995438407223
  0
LINE
  5
130C2
  8
DANMEN
  6
CONTINUOUS
 10
373.672361315334
 20
89.676578734723194
 30
0.0
 11
374.3477005301753
 21
90.625647122251735
 31
0.0
  0
LINE
  5
130C3
  8
DANMEN
  6
CONTINUOUS
 10
371.30022062866681
 20
89.551862203788801
 30
0.0
 11
371.50638837934991
 21
89.982941185964606
 31
0.0
  0
LINE
  5
130C4
  8
DANMEN
  6
CONTINUOUS
 10
372.04281271253438
 20
88.836134858233322
 30
0.0
 11
371.75128782544948
 21
88.836134858233322
 31
0.0
  0
ARC
  5
130C5
  8
DANMEN
  6
CONTINUOUS
 10
372.85959027162801
 20
89.335759110552374
 30
0.0
 40
1.5
 50
90.0
 51
154.44008439005879
  0
ARC
  5
130C6
  8
DANMEN
  6
CONTINUOUS
 10
372.04281271253438
 20
90.836134858233336
 30
0.0
 40
2.0
 50
270.00000860059441
 51
324.56506646781401
  0
ARC
  5
130C7
  8
DANMEN
  6
CONTINUOUS
 10
371.19873560224391
 20
86.920333809954514
 30
0.0
 40
2.3362770080566402
 50
147.315103939474
 51
208.2349271846592
  0
LINE
  5
130C8
  8
DANMEN
  6
CONTINUOUS
 10
369.23240097454487
 20
88.181969643315426
 30
0.0
 11
370.78755272861872
 21
90.605768661248604
 31
0.0
  0
LINE
  5
130C9
  8
DANMEN
  6
CONTINUOUS
 10
372.86245764051279
 20
83.835759110552644
 30
0.0
 11
370.99782884870382
 21
83.835759110552644
 31
0.0
  0
LINE
  5
130CA
  8
DANMEN
  6
CONTINUOUS
 10
370.8624565952112
 20
99.335759448563081
 30
0.0
 11
368.23388483898481
 21
101.635759683215
 31
0.0
  0
LINE
  5
130CB
  8
DANMEN
  6
CONTINUOUS
 10
365.36244433553651
 20
102.83575891683751
 30
0.0
 11
366.36243212850508
 21
102.83575891683751
 31
0.0
  0
LINE
  5
130CC
  8
DANMEN
  6
CONTINUOUS
 10
366.36243212850508
 20
102.83575891683751
 30
0.0
 11
366.36244433553651
 21
102.83575891683751
 31
0.0
  0
LINE
  5
130CD
  8
DANMEN
  6
CONTINUOUS
 10
366.86245649610368
 20
102.8357591105526
 30
0.0
 11
364.86245649610368
 21
102.8357591105526
 31
0.0
  0
LINE
  5
130CE
  8
DANMEN
  6
CONTINUOUS
 10
364.86245649610368
 20
102.8357591105526
 30
0.0
 11
364.86245649610368
 21
101.63575930128739
 31
0.0
  0
LINE
  5
130CF
  8
DANMEN
  6
CONTINUOUS
 10
368.2338849857889
 20
101.63575930128739
 30
0.0
 11
364.86245649610368
 21
101.63575930128739
 31
0.0
  0
ARC
  5
130D0
  8
DANMEN
  6
CONTINUOUS
 10
371.36245649610368
 20
99.335759110552644
 30
0.0
 40
0.5
 50
180.00001798608889
 51
359.99998201391088
  0
LINE
  5
130D1
  8
DANMEN
  6
CONTINUOUS
 10
376.81180876050797
 20
99.335759110552644
 30
0.0
 11
374.66245668683871
 21
99.335759110552644
 31
0.0
  0
LINE
  5
130D2
  8
DANMEN
  6
CONTINUOUS
 10
377.16508930497321
 20
98.535758141185354
 30
0.0
 11
376.86230696062592
 21
98.568168664005483
 31
0.0
  0
ARC
  5
130D3
  8
DANMEN
  6
CONTINUOUS
 10
374.36245649610368
 20
99.035758919817795
 30
0.0
 40
0.199999988079071
 50
196.87451942498271
 51
343.12548057501698
  0
LINE
  5
130D4
  8
DANMEN
  6
CONTINUOUS
 10
376.81180757480161
 20
99.335759484429957
 30
0.0
 11
376.86230694134218
 21
98.568168957116754
 31
0.0
  0
LINE
  5
130D5
  8
DANMEN
  6
CONTINUOUS
 10
374.17106869058722
 20
98.977703523336004
 30
0.0
 11
374.06245691928939
 21
99.335759449416415
 31
0.0
  0
LINE
  5
130D6
  8
DANMEN
  6
CONTINUOUS
 10
374.55384485589531
 20
98.977704351988081
 30
0.0
 11
374.66245635036393
 21
99.335759365456695
 31
0.0
  0
LINE
  5
130D7
  8
DANMEN
  6
CONTINUOUS
 10
371.86244128377871
 20
102.83575891683751
 30
0.0
 11
376.3624565425676
 21
102.83575891683751
 31
0.0
  0
LINE
  5
130D8
  8
DANMEN
  6
CONTINUOUS
 10
374.06245630536881
 20
99.335759110552644
 30
0.0
 11
371.86245649610368
 21
99.335759110552644
 31
0.0
  0
LINE
  5
130D9
  8
DANMEN
  6
CONTINUOUS
 10
376.56245630536881
 20
102.8357591105526
 30
0.0
 11
371.66245668683871
 21
102.8357591105526
 31
0.0
  0
LINE
  5
130DA
  8
SUNPO
  6
CONTINUOUS
 10
386.86245728989689
 20
72.335758916837563
 30
0.0
 11
386.86245728989689
 21
51.835758916837548
 31
0.0
  0
TEXT
  5
130DB
  8
SUNPO
  6
CONTINUOUS
 10
386.36245728989689
 20
57.65867558350422
 30
0.0
 40
2.5
  1
20.5
 50
90.0
 41
1.25
  7
MX_DIMTXSTY_3
  0
LINE
  5
130DC
  8
SUNPO
  6
CONTINUOUS
 10
386.86245728989689
 20
40.197968236905922
 30
0.0
 11
386.86245728989689
 21
48.335758916837548
 31
0.0
  0
TEXT
  5
130DD
  8
SUNPO
  6
CONTINUOUS
 10
386.36245728989689
 20
40.697968236905922
 30
0.0
 40
2.5
  1
3.5
 50
90.0
 41
1.3
  7
MX_DIMTXSTY_4
  0
LINE
  5
130DE
  8
DANMEN
  6
CONTINUOUS
 10
386.86245728989689
 20
48.335758916837548
 30
0.0
 11
386.86245728989689
 21
48.335758916837548
 31
0.0
  0
LINE
  5
130DF
  8
DANMEN
  6
CONTINUOUS
 10
386.86245728989689
 20
51.835758916837548
 30
0.0
 11
386.86245728989689
 21
51.835758916837548
 31
0.0
  0
INSERT
  5
130E0
  8
DANMEN
  6
CONTINUOUS
  2
_DOTSMALL
 10
386.86245728989689
 20
51.835758916837548
 30
0.0
 41
2.3199999999999918
 42
2.3199999999999918
 43
2.3199999999999981
 50
270.0
  0
LINE
  5
130E1
  8
SUNPO
  6
CONTINUOUS
 10
386.86245728989689
 20
48.335758916837548
 30
0.0
 11
386.86245728989689
 21
51.835758916837548
 31
0.0
  0
INSERT
  5
130E2
  8
SUNPO
  6
CONTINUOUS
  2
_DOTSMALL
 10
386.86245728989689
 20
48.335758916837548
 30
0.0
 41
2.3199999999999918
 42
2.3199999999999918
 43
2.3199999999999981
 50
90.0
  0
INSERT
  5
130E3
  8
SUNPO
  6
CONTINUOUS
  2
_DOTSMALL
 10
386.86245728989689
 20
51.835758916837548
 30
0.0
 41
2.3199999999999918
 42
2.3199999999999918
 43
2.3199999999999981
 50
270.0
  0
TEXT
  5
130E4
  8
SUNPO
  6
CONTINUOUS
 10
386.36245728989689
 20
81.532315643929024
 30
0.0
 40
2.5
  1
40.5
 50
90.0
 41
1.25
  7
MX_DIMTXSTY_3
  0
LINE
  5
130E5
  8
DANMEN
  6
CONTINUOUS
 10
378.12724857950479
 20
82.512676340842134
 30
0.0
 11
378.931467017378
 21
89.658841880263196
 31
0.0
  0
INSERT
  5
130E6
  8
DANMEN
  6
CONTINUOUS
  2
_DOTSMALL
 10
386.86245728989689
 20
72.335758916837563
 30
0.0
 41
2.3199999999999918
 42
2.3199999999999918
 43
2.3199999999999981
 50
270.0
  0
INSERT
  5
130E7
  8
SUNPO
  6
CONTINUOUS
  2
_DOTSMALL
 10
386.86245728989689
 20
72.335758916837563
 30
0.0
 41
2.3199999999999918
 42
2.3199999999999918
 43
2.3199999999999981
 50
90.0
  0
LINE
  5
130E8
  8
DANMEN
  6
CONTINUOUS
 10
380.39625967298349
 20
90.835759110552615
 30
0.0
 11
378.40284384046402
 21
90.835759110552615
 31
0.0
  0
ARC
  5
130E9
  8
DANMEN
  6
CONTINUOUS
 10
380.39625967298349
 20
89.335759110552672
 30
0.0
 40
1.5
 50
90.000035972178097
 51
167.5616784923142
  0
INSERT
  5
130EA
  8
SUNPO
  6
CONTINUOUS
  2
_DOTSMALL
 10
301.86245728989701
 20
228.33575891683751
 30
0.0
 41
2.3199999999999918
 42
2.3199999999999918
 43
2.3199999999999981
 50
90.0
  0
LINE
  5
130EB
  8
SUNPO
  6
CONTINUOUS
 10
310.36245728989689
 20
228.33575891683751
 30
0.0
 11
301.86245728989701
 21
228.33575891683751
 31
0.0
  0
INSERT
  5
130EC
  8
SUNPO
  6
CONTINUOUS
  2
_DOTSMALL
 10
301.86245728989701
 20
148.33575891683751
 30
0.0
 41
2.3199999999999918
 42
2.3199999999999918
 43
2.3199999999999981
 50
270.0
  0
LINE
  5
130ED
  8
SUNPO
  6
CONTINUOUS
 10
310.36245728989689
 20
148.33575891683751
 30
0.0
 11
301.86245728989701
 21
148.33575891683751
 31
0.0
  0
LINE
  5
130EE
  8
DANMEN
  6
CONTINUOUS
 10
306.86248095663018
 20
108.535765020353
 30
0.0
 11
298.8624565425676
 21
108.535765020353
 31
0.0
  0
LINE
  5
130EF
  8
DANMEN
  6
CONTINUOUS
 10
299.86245658903169
 20
105.8357591105526
 30
0.0
 11
306.86245658903169
 21
105.8357591105526
 31
0.0
  0
LINE
  5
130F0
  8
DANMEN
  6
CONTINUOUS
 10
299.86245658903169
 20
104.03575891981779
 30
0.0
 11
302.06245639829677
 21
104.03575891981779
 31
0.0
  0
LINE
  5
130F1
  8
DANMEN
  6
CONTINUOUS
 10
281.86245803722619
 20
118.33575891683751
 30
0.0
 11
391.86245728989689
 21
118.33575891683751
 31
0.0
  0
LINE
  5
130F2
  8
DANMEN
  6
CONTINUOUS
 10
281.86245803722619
 20
116.53575891683739
 30
0.0
 11
391.86245728989689
 21
116.53575891683739
 31
0.0
  0
LINE
  5
130F3
  8
DANMEN
  6
CONTINUOUS
 10
376.3624565425676
 20
112.83575891683751
 30
0.0
 11
297.36245637964703
 21
112.83575891683751
 31
0.0
  0
LINE
  5
130F4
  8
SUNPO
  6
CONTINUOUS
 10
296.8624565425676
 20
128.33575891683751
 30
0.0
 11
376.8624565425676
 21
128.33575891683751
 31
0.0
  0
LINE
  5
130F5
  8
SUNPO
  6
CONTINUOUS
 10
301.86245728989701
 20
148.33575891683751
 30
0.0
 11
301.86245728989701
 21
228.33575891683751
 31
0.0
  0
LINE
  5
130F6
  8
DANMEN
  6
CONTINUOUS
 10
213.8624565425676
 20
108.53575891683739
 30
0.0
 11
229.8624443355364
 21
108.53575891683739
 31
0.0
  0
LINE
  5
130F7
  8
DANMEN
  6
CONTINUOUS
 10
241.3624565425676
 20
112.83575891683751
 30
0.0
 11
182.36245637964689
 21
112.83575891683751
 31
0.0
  0
LINE
  5
130F8
  8
SUNPO
  6
CONTINUOUS
 10
181.8624565425676
 20
128.33575891683751
 30
0.0
 11
241.8624565425676
 21
128.33575891683751
 31
0.0
  0
LINE
  5
130F9
  8
DANMEN
  6
CONTINUOUS
 10
166.8624580372263
 20
116.53575891683739
 30
0.0
 11
261.86245728989701
 21
116.53575891683739
 31
0.0
  0
LINE
  5
130FA
  8
DANMEN
  6
CONTINUOUS
 10
166.8624580372263
 20
118.33575891683751
 30
0.0
 11
261.86245728989701
 21
118.33575891683751
 31
0.0
  0
LINE
  5
130FB
  8
DANMEN
  6
CONTINUOUS
 10
184.86245658903181
 20
105.8357591105526
 30
0.0
 11
191.86245658903181
 21
105.8357591105526
 31
0.0
  0
LINE
  5
130FC
  8
DANMEN
  6
CONTINUOUS
 10
191.86248095663009
 20
108.535765020353
 30
0.0
 11
183.86245654256771
 21
108.535765020353
 31
0.0
  0
LINE
  5
130FD
  8
SUNPO
  6
CONTINUOUS
 10
181.8624565425676
 20
119.83575891683751
 30
0.0
 11
181.8624565425676
 21
128.33575891683751
 31
0.0
  0
LINE
  5
130FE
  8
DANMEN
  6
CONTINUOUS
 10
181.86245504790909
 20
108.33575891683751
 30
0.0
 11
166.86245579523839
 21
108.33575891683751
 31
0.0
  0
ARC
  5
130FF
  8
DANMEN
  6
CONTINUOUS
 10
182.3624565425676
 20
112.33575891683751
 30
0.0
 40
0.5
 50
90.000018669335276
 51
180.00005532475791
  0
ARC
  5
13100
  8
DANMEN
  6
CONTINUOUS
 10
186.3624718013568
 20
103.33575891683751
 30
0.0
 40
0.5
 50
0.0
 51
90.0
  0
LINE
  5
13101
  8
DANMEN
  6
CONTINUOUS
 10
184.86245658903181
 20
104.03575891981779
 30
0.0
 11
187.0624563982968
 21
104.03575891981779
 31
0.0
  0
LINE
  5
13102
  8
DANMEN
  6
CONTINUOUS
 10
186.3624718013568
 20
103.83575891683751
 30
0.0
 11
183.86245654256771
 21
103.83575891683751
 31
0.0
  0
LINE
  5
13103
  8
DANMEN
  6
CONTINUOUS
 10
184.86245658903181
 20
105.8357591105526
 30
0.0
 11
184.86245658903181
 21
104.03575891981779
 31
0.0
  0
LINE
  5
13104
  8
DANMEN
  6
CONTINUOUS
 10
183.86245654256771
 20
108.535765020353
 30
0.0
 11
183.86245654256771
 21
103.83575891683751
 31
0.0
  0
LINE
  5
13105
  8
DANMEN
  6
CONTINUOUS
 10
181.8624565425676
 20
112.33575891683751
 30
0.0
 11
181.8624565425676
 21
103.33575891683751
 31
0.0
  0
INSERT
  5
13106
  8
SUNPO
  6
CONTINUOUS
  2
_DOTSMALL
 10
171.8624580372263
 20
118.33575891683751
 30
0.0
 41
2.3199999999999918
 42
2.3199999999999918
 43
2.3199999999999981
 50
90.0
  0
INSERT
  5
13107
  8
SUNPO
  6
CONTINUOUS
  2
_DOTSMALL
 10
181.8624565425676
 20
128.33575891683751
 30
0.0
 41
2.3200000000000491
 42
2.3199999999999918
 43
2.3199999999999981
 50
180.0
  0
LINE
  5
13108
  8
DANMEN
  6
CONTINUOUS
 10
209.8624565425676
 20
108.53575891683739
 30
0.0
 11
193.86248095663009
 21
108.53575891683739
 31
0.0
  0
LINE
  5
13109
  8
DANMEN
  6
CONTINUOUS
 10
193.86248095663009
 20
108.535765020353
 30
0.0
 11
193.86248095663009
 21
103.33575891683751
 31
0.0
  0
LINE
  5
1310A
  8
DANMEN
  6
CONTINUOUS
 10
191.86248095663009
 20
108.535765020353
 30
0.0
 11
191.86248095663009
 21
103.33575891683751
 31
0.0
  0
TEXT
  5
1310B
  8
SUNPO
  6
CONTINUOUS
 10
209.7999565425676
 20
128.83575891683751
 30
0.0
 40
2.5
  1
60
 41
1.1000000000000001
  7
MX_DIMTXSTY_2
  0
LINE
  5
1310C
  8
SUNPO
  6
CONTINUOUS
 10
256.86245728989701
 20
118.33575891683751
 30
0.0
 11
256.86245728989701
 21
126.70257448385399
 31
0.0
  0
TEXT
  5
1310D
  8
SUNPO
  6
CONTINUOUS
 10
256.36245728989689
 20
119.70257448385399
 30
0.0
 40
2.5
  1
5.5
 50
90.0
 41
1.3
  7
MX_DIMTXSTY_4
  0
LINE
  5
1310E
  8
SUNPO
  6
CONTINUOUS
 10
241.8624565425676
 20
119.83575891683751
 30
0.0
 11
241.8624565425676
 21
128.33575891683751
 31
0.0
  0
LINE
  5
1310F
  8
DANMEN
  6
CONTINUOUS
 10
241.8624580372263
 20
108.33575891683751
 30
0.0
 11
261.86245728989701
 21
108.33575891683751
 31
0.0
  0
LINE
  5
13110
  8
SUNPO
  6
CONTINUOUS
 10
242.86245728989701
 20
112.83575891683751
 30
0.0
 11
256.86245728989701
 21
112.83575891683751
 31
0.0
  0
ARC
  5
13111
  8
DANMEN
  6
CONTINUOUS
 10
241.3624565425676
 20
112.33575891683751
 30
0.0
 40
0.5
 50
359.99994467524022
 51
89.99998133066471
  0
LINE
  5
13112
  8
DANMEN
  6
CONTINUOUS
 10
231.86243212850511
 20
108.535765020353
 30
0.0
 11
239.8624565425676
 21
108.535765020353
 31
0.0
  0
LINE
  5
13113
  8
DANMEN
  6
CONTINUOUS
 10
238.8624564961037
 20
105.8357591105526
 30
0.0
 11
231.8624564961037
 21
105.8357591105526
 31
0.0
  0
LINE
  5
13114
  8
DANMEN
  6
CONTINUOUS
 10
231.86243212850511
 20
108.535765020353
 30
0.0
 11
231.86243212850511
 21
103.33575891683751
 31
0.0
  0
LINE
  5
13115
  8
DANMEN
  6
CONTINUOUS
 10
229.8624443355364
 20
108.535765020353
 30
0.0
 11
229.8624443355364
 21
103.33575891683751
 31
0.0
  0
LINE
  5
13116
  8
DANMEN
  6
CONTINUOUS
 10
237.36244128377871
 20
103.83575891683751
 30
0.0
 11
239.8624565425676
 21
103.83575891683751
 31
0.0
  0
LINE
  5
13117
  8
DANMEN
  6
CONTINUOUS
 10
238.8624564961037
 20
104.03575891981779
 30
0.0
 11
236.66245668683871
 21
104.03575891981779
 31
0.0
  0
ARC
  5
13118
  8
DANMEN
  6
CONTINUOUS
 10
237.36244128377871
 20
103.33575891683751
 30
0.0
 40
0.5
 50
90.0
 51
180.0
  0
LINE
  5
13119
  8
DANMEN
  6
CONTINUOUS
 10
241.8624565425676
 20
112.33575891683751
 30
0.0
 11
241.8624565425676
 21
103.33575891683751
 31
0.0
  0
LINE
  5
1311A
  8
DANMEN
  6
CONTINUOUS
 10
238.8624564961037
 20
105.8357591105526
 30
0.0
 11
238.8624564961037
 21
104.03575891981779
 31
0.0
  0
LINE
  5
1311B
  8
DANMEN
  6
CONTINUOUS
 10
239.8624565425676
 20
108.535765020353
 30
0.0
 11
239.8624565425676
 21
103.83575891683751
 31
0.0
  0
INSERT
  5
1311C
  8
SUNPO
  6
CONTINUOUS
  2
_DOTSMALL
 10
256.86245728989701
 20
112.83575891683751
 30
0.0
 41
2.3199999999999918
 42
2.3199999999999918
 43
2.3199999999999981
 50
90.0
  0
INSERT
  5
1311D
  8
SUNPO
  6
CONTINUOUS
  2
_DOTSMALL
 10
256.86245728989701
 20
112.83575891683751
 30
0.0
 41
2.3199999999999918
 42
2.3199999999999918
 43
2.3199999999999981
 50
90.0
  0
LINE
  5
1311E
  8
DANMEN
  6
CONTINUOUS
 10
256.86245728989701
 20
118.33575891683751
 30
0.0
 11
256.86245728989701
 21
118.33575891683751
 31
0.0
  0
INSERT
  5
1311F
  8
SUNPO
  6
CONTINUOUS
  2
_DOTSMALL
 10
256.86245728989701
 20
118.33575891683751
 30
0.0
 41
2.3199999999999918
 42
2.3199999999999918
 43
2.3199999999999981
 50
270.0
  0
LINE
  5
13120
  8
SUNPO
  6
CONTINUOUS
 10
256.86245728989701
 20
112.83575891683751
 30
0.0
 11
256.86245728989701
 21
112.83575891683751
 31
0.0
  0
LINE
  5
13121
  8
SUNPO
  6
CONTINUOUS
 10
256.86245728989701
 20
112.83575891683751
 30
0.0
 11
256.86245728989701
 21
118.33575891683751
 31
0.0
  0
INSERT
  5
13122
  8
SUNPO
  6
CONTINUOUS
  2
_DOTSMALL
 10
241.8624565425676
 20
128.33575891683751
 30
0.0
 41
2.3200000000000491
 42
2.3199999999999918
 43
2.3199999999999981
  0
LINE
  5
13123
  8
SUNPO
  6
CONTINUOUS
 10
296.8624565425676
 20
119.83575891683751
 30
0.0
 11
296.8624565425676
 21
128.33575891683751
 31
0.0
  0
LINE
  5
13124
  8
DANMEN
  6
CONTINUOUS
 10
296.86245504790912
 20
108.33575891683751
 30
0.0
 11
281.8624557952383
 21
108.33575891683751
 31
0.0
  0
ARC
  5
13125
  8
DANMEN
  6
CONTINUOUS
 10
297.3624565425676
 20
112.33575891683751
 30
0.0
 40
0.5
 50
90.000018669335276
 51
180.00005532475791
  0
ARC
  5
13126
  8
DANMEN
  6
CONTINUOUS
 10
301.36247180135678
 20
103.33575891683751
 30
0.0
 40
0.5
 50
0.0
 51
90.0
  0
LINE
  5
13127
  8
DANMEN
  6
CONTINUOUS
 10
301.36247180135678
 20
103.83575891683751
 30
0.0
 11
298.8624565425676
 21
103.83575891683751
 31
0.0
  0
LINE
  5
13128
  8
DANMEN
  6
CONTINUOUS
 10
299.86245658903169
 20
105.8357591105526
 30
0.0
 11
299.86245658903169
 21
104.03575891981779
 31
0.0
  0
LINE
  5
13129
  8
DANMEN
  6
CONTINUOUS
 10
298.8624565425676
 20
108.535765020353
 30
0.0
 11
298.8624565425676
 21
103.83575891683751
 31
0.0
  0
LINE
  5
1312A
  8
DANMEN
  6
CONTINUOUS
 10
296.8624565425676
 20
112.33575891683751
 30
0.0
 11
296.8624565425676
 21
103.33575891683751
 31
0.0
  0
INSERT
  5
1312B
  8
SUNPO
  6
CONTINUOUS
  2
_DOTSMALL
 10
286.8624580372263
 20
118.33575891683751
 30
0.0
 41
2.3199999999999918
 42
2.3199999999999918
 43
2.3199999999999981
 50
90.0
  0
INSERT
  5
1312C
  8
SUNPO
  6
CONTINUOUS
  2
_DOTSMALL
 10
296.8624565425676
 20
128.33575891683751
 30
0.0
 41
2.3200000000000491
 42
2.3199999999999918
 43
2.3199999999999981
 50
180.0
  0
TEXT
  5
1312D
  8
SUNPO
  6
CONTINUOUS
 10
301.36245728989701
 20
186.27325891683751
 30
0.0
 40
2.5
  1
80
 50
90.0
 41
1.1000000000000001
  7
MX_DIMTXSTY_2
  0
LINE
  5
1312E
  8
DANMEN
  6
CONTINUOUS
 10
357.86245731373867
 20
168.33575891683751
 30
0.0
 11
357.86245731373867
 21
227.83575891683751
 31
0.0
  0
LINE
  5
1312F
  8
SUNPO
  6
CONTINUOUS
 10
391.86245728989689
 20
228.33575891683751
 30
0.0
 11
391.86245728989689
 21
168.33575891683751
 31
0.0
  0
LINE
  5
13130
  8
DANMEN
  6
CONTINUOUS
 10
380.2124572898968
 20
138.63575899162601
 30
0.0
 11
380.2124572898968
 21
238.63575899162601
 31
0.0
  0
LINE
  5
13131
  8
DANMEN
  6
CONTINUOUS
 10
381.86245728989689
 20
138.63575899162601
 30
0.0
 11
381.86245728989689
 21
238.63575899162601
 31
0.0
  0
LINE
  5
13132
  8
DANMEN
  6
CONTINUOUS
 10
321.86245728989701
 20
227.83575891683751
 30
0.0
 11
321.86245728989701
 21
148.83575891683751
 31
0.0
  0
LINE
  5
13133
  8
DANMEN
  6
CONTINUOUS
 10
313.51245728989682
 20
138.63575899162601
 30
0.0
 11
313.51245728989682
 21
238.63575899162601
 31
0.0
  0
LINE
  5
13134
  8
DANMEN
  6
CONTINUOUS
 10
319.86245728989701
 20
138.63575899162601
 30
0.0
 11
319.86245728989701
 21
238.63575899162601
 31
0.0
  0
LINE
  5
13135
  8
DANMEN
  6
CONTINUOUS
 10
311.86245728989701
 20
138.63575899162601
 30
0.0
 11
311.86245728989701
 21
238.63575899162601
 31
0.0
  0
LINE
  5
13136
  8
DANMEN
  6
CONTINUOUS
 10
324.86245728989689
 20
204.1357589168374
 30
0.0
 11
324.86245728989689
 21
172.53575891683749
 31
0.0
  0
LINE
  5
13137
  8
DANMEN
  6
CONTINUOUS
 10
354.86245731373867
 20
178.53575891683749
 30
0.0
 11
354.86245731373867
 21
204.1357589168374
 31
0.0
  0
LINE
  5
13138
  8
SUNPO
  6
CONTINUOUS
 10
311.86245728989701
 20
141.63575899162601
 30
0.0
 11
381.86245728989689
 21
141.63575899162601
 31
0.0
  0
LINE
  5
13139
  8
SUNPO
  6
CONTINUOUS
 10
377.86245633622258
 20
112.83575891683751
 30
0.0
 11
386.86245728989689
 21
112.83575891683751
 31
0.0
  0
LINE
  5
1313A
  8
DANMEN
  6
CONTINUOUS
 10
376.8624580372263
 20
108.33575891683751
 30
0.0
 11
391.86245728989689
 21
108.33575891683751
 31
0.0
  0
LINE
  5
1313B
  8
DANMEN
  6
CONTINUOUS
 10
348.84906406198678
 20
138.63575899162601
 30
0.0
 11
348.84906406198678
 21
148.33575891683751
 31
0.0
  0
LINE
  5
1313C
  8
DANMEN
  6
CONTINUOUS
 10
357.86245728989701
 20
138.63575899162601
 30
0.0
 11
357.86245728989701
 21
148.33575891683751
 31
0.0
  0
LINE
  5
1313D
  8
DANMEN
  6
CONTINUOUS
 10
327.3624574836121
 20
138.63575899162601
 30
0.0
 11
327.3624574836121
 21
148.33575891683751
 31
0.0
  0
LINE
  5
1313E
  8
DANMEN
  6
CONTINUOUS
 10
338.86245728989701
 20
160.33575891683751
 30
0.0
 11
338.86245728989701
 21
138.63575899162601
 31
0.0
  0
LINE
  5
1313F
  8
DANMEN
  6
CONTINUOUS
 10
339.36245728989701
 20
160.33575891683751
 30
0.0
 11
339.36245728989701
 21
138.63575899162601
 31
0.0
  0
LINE
  5
13140
  8
DANMEN
  6
CONTINUOUS
 10
331.86245728989701
 20
160.33575891683751
 30
0.0
 11
331.86245728989701
 21
138.63575899162601
 31
0.0
  0
LINE
  5
13141
  8
DANMEN
  6
CONTINUOUS
 10
331.36245728989689
 20
160.33575891683751
 30
0.0
 11
331.36245728989689
 21
138.63575899162601
 31
0.0
  0
LINE
  5
13142
  8
DANMEN
  6
CONTINUOUS
 10
344.8624565425676
 20
108.53575891683739
 30
0.0
 11
328.8624565425676
 21
108.53575891683739
 31
0.0
  0
LINE
  5
13143
  8
DANMEN
  6
CONTINUOUS
 10
324.8624565425676
 20
108.53575891683739
 30
0.0
 11
308.86248095663018
 21
108.53575891683739
 31
0.0
  0
LINE
  5
13144
  8
DANMEN
  6
CONTINUOUS
 10
308.86248095663018
 20
108.535765020353
 30
0.0
 11
308.86248095663018
 21
103.33575891683751
 31
0.0
  0
LINE
  5
13145
  8
DANMEN
  6
CONTINUOUS
 10
306.86248095663018
 20
108.535765020353
 30
0.0
 11
306.86248095663018
 21
103.33575891683751
 31
0.0
  0
INSERT
  5
13146
  8
SUNPO
  6
CONTINUOUS
  2
_DOTSMALL
 10
311.86245728989701
 20
141.63575899162601
 30
0.0
 41
2.3200000000000491
 42
2.3199999999999918
 43
2.3199999999999981
 50
180.0
  0
TEXT
  5
13147
  8
SUNPO
  6
CONTINUOUS
 10
334.7999565425676
 20
128.83575891683751
 30
0.0
 40
2.5
  1
80
 41
1.1000000000000001
  7
MX_DIMTXSTY_2
  0
LINE
  5
13148
  8
SUNPO
  6
CONTINUOUS
 10
376.8624565425676
 20
119.83575891683751
 30
0.0
 11
376.8624565425676
 21
128.33575891683751
 31
0.0
  0
LINE
  5
13149
  8
DANMEN
  6
CONTINUOUS
 10
348.8624565425676
 20
108.53575891683739
 30
0.0
 11
364.86244433553651
 21
108.53575891683739
 31
0.0
  0
ARC
  5
1314A
  8
DANMEN
  6
CONTINUOUS
 10
376.3624565425676
 20
112.33575891683751
 30
0.0
 40
0.5
 50
359.99994467524022
 51
89.99998133066471
  0
LINE
  5
1314B
  8
DANMEN
  6
CONTINUOUS
 10
373.86245649610368
 20
105.8357591105526
 30
0.0
 11
366.86245649610368
 21
105.8357591105526
 31
0.0
  0
LINE
  5
1314C
  8
DANMEN
  6
CONTINUOUS
 10
366.86243212850508
 20
108.535765020353
 30
0.0
 11
374.8624565425676
 21
108.535765020353
 31
0.0
  0
LINE
  5
1314D
  8
DANMEN
  6
CONTINUOUS
 10
366.86243212850508
 20
108.535765020353
 30
0.0
 11
366.86243212850508
 21
103.33575891683751
 31
0.0
  0
LINE
  5
1314E
  8
DANMEN
  6
CONTINUOUS
 10
364.86244433553651
 20
108.535765020353
 30
0.0
 11
364.86244433553651
 21
103.33575891683751
 31
0.0
  0
LINE
  5
1314F
  8
DANMEN
  6
CONTINUOUS
 10
374.8624565425676
 20
108.535765020353
 30
0.0
 11
374.8624565425676
 21
103.83575891683751
 31
0.0
  0
LINE
  5
13150
  8
DANMEN
  6
CONTINUOUS
 10
373.86245649610368
 20
105.8357591105526
 30
0.0
 11
373.86245649610368
 21
104.03575891981779
 31
0.0
  0
ARC
  5
13151
  8
DANMEN
  6
CONTINUOUS
 10
372.36244128377871
 20
103.33575891683751
 30
0.0
 40
0.5
 50
90.0
 51
180.0
  0
LINE
  5
13152
  8
DANMEN
  6
CONTINUOUS
 10
373.86245649610368
 20
104.03575891981779
 30
0.0
 11
371.66245668683871
 21
104.03575891981779
 31
0.0
  0
LINE
  5
13153
  8
DANMEN
  6
CONTINUOUS
 10
372.36244128377871
 20
103.83575891683751
 30
0.0
 11
374.8624565425676
 21
103.83575891683751
 31
0.0
  0
LINE
  5
13154
  8
DANMEN
  6
CONTINUOUS
 10
376.8624565425676
 20
112.33575891683751
 30
0.0
 11
376.8624565425676
 21
103.33575891683751
 31
0.0
  0
INSERT
  5
13155
  8
SUNPO
  6
CONTINUOUS
  2
_DOTSMALL
 10
376.8624565425676
 20
128.33575891683751
 30
0.0
 41
2.3200000000000491
 42
2.3199999999999918
 43
2.3199999999999981
  0
LINE
  5
13156
  8
DANMEN
  6
CONTINUOUS
 10
350.1624511863813
 20
172.53575891683749
 30
0.0
 11
324.86245118638118
 21
172.53575891683749
 31
0.0
  0
LINE
  5
13157
  8
DANMEN
  6
CONTINUOUS
 10
351.5525492350219
 20
170.33575891683751
 30
0.0
 11
324.86245118638118
 21
170.33575891683751
 31
0.0
  0
LINE
  5
13158
  8
DANMEN
  6
CONTINUOUS
 10
340.52163766572647
 20
151.52585428834209
 30
0.0
 11
339.57256927819782
 21
150.8505150735009
 31
0.0
  0
ARC
  5
13159
  8
DANMEN
  6
CONTINUOUS
 10
340.86245728989701
 20
148.6532738132303
 30
0.0
 40
1.5
 50
118.30993131316581
 51
180.00003597217801
  0
LINE
  5
1315A
  8
DANMEN
  6
CONTINUOUS
 10
339.74119094818002
 20
147.28044304794361
 30
0.0
 11
340.22588473822702
 21
147.40161641356281
 31
0.0
  0
ARC
  5
1315B
  8
DANMEN
  6
CONTINUOUS
 10
340.86245728989701
 20
144.8019559306924
 30
0.0
 40
1.5
 50
102.4383215076861
 51
179.99996402782011
  0
ARC
  5
1315C
  8
DANMEN
  6
CONTINUOUS
 10
340.86245728989712
 20
152.33862533204811
 30
0.0
 40
1.5
 50
115.559915609944
 51
180.0
  0
LINE
  5
1315D
  8
DANMEN
  6
CONTINUOUS
 10
342.01624675713418
 20
155.9658146291313
 30
0.0
 11
339.59244773920102
 21
154.4106628750574
 31
0.0
  0
LINE
  5
1315E
  8
DANMEN
  6
CONTINUOUS
 10
324.86245118638118
 20
170.33575891683751
 30
0.0
 11
324.86245118638118
 21
159.83577112386871
 31
0.0
  0
LINE
  5
1315F
  8
DANMEN
  6
CONTINUOUS
 10
326.36245728989701
 20
152.83577417562651
 30
0.0
 11
326.36245728989701
 21
150.33575891683751
 31
0.0
  0
LINE
  5
13160
  8
DANMEN
  6
CONTINUOUS
 10
324.06245118638128
 20
150.33575891683751
 30
0.0
 11
324.06245118638128
 21
158.33578333089989
 31
0.0
  0
LINE
  5
13161
  8
DANMEN
  6
CONTINUOUS
 10
324.36245728989701
 20
151.33575910757239
 30
0.0
 11
324.36245728989701
 21
158.33575910757239
 31
0.0
  0
LINE
  5
13162
  8
DANMEN
  6
CONTINUOUS
 10
330.86245728989701
 20
151.13575929830711
 30
0.0
 11
330.86245728989701
 21
153.33575910757239
 31
0.0
  0
LINE
  5
13163
  8
DANMEN
  6
CONTINUOUS
 10
327.36245728989701
 20
153.3357741756266
 30
0.0
 11
327.36245728989701
 21
148.83575891683751
 31
0.0
  0
LINE
  5
13164
  8
DANMEN
  6
CONTINUOUS
 10
327.36245728989701
 20
148.63575929830711
 30
0.0
 11
327.36245728989701
 21
153.53575891683741
 31
0.0
  0
LINE
  5
13165
  8
DANMEN
  6
CONTINUOUS
 10
326.16245748063182
 20
151.33575910757239
 30
0.0
 11
326.16245748063182
 21
153.53575891683741
 31
0.0
  0
LINE
  5
13166
  8
DANMEN
  6
CONTINUOUS
 10
327.0624570869486
 20
148.33575924630111
 30
0.0
 11
331.66245811341031
 21
148.03312766128599
 31
0.0
  0
ARC
  5
13167
  8
DANMEN
  6
CONTINUOUS
 10
322.36245728989701
 20
148.83575891683751
 30
0.0
 40
0.5
 50
180.0
 51
270.0
  0
LINE
  5
13168
  8
DANMEN
  6
CONTINUOUS
 10
322.36245728989701
 20
148.33575891683751
 30
0.0
 11
326.86245728989701
 21
148.33575891683751
 31
0.0
  0
ARC
  5
13169
  8
DANMEN
  6
CONTINUOUS
 10
326.86245728989701
 20
148.83575891683751
 30
0.0
 40
0.5
 50
270.00001798608571
 51
0.0
  0
LINE
  5
1316A
  8
DANMEN
  6
CONTINUOUS
 10
327.06245670168028
 20
148.3357590611084
 30
0.0
 11
327.36245728989701
 21
148.63575964932511
 31
0.0
  0
LINE
  5
1316B
  8
DANMEN
  6
CONTINUOUS
 10
324.06245118638128
 20
150.33575891683751
 30
0.0
 11
326.36245728989701
 21
150.33575891683751
 31
0.0
  0
LINE
  5
1316C
  8
DANMEN
  6
CONTINUOUS
 10
324.36245728989701
 20
151.33575910757239
 30
0.0
 11
326.16245748063182
 21
151.33575910757239
 31
0.0
  0
ARC
  5
1316D
  8
DANMEN
  6
CONTINUOUS
 10
339.86245728989701
 20
150.44312738607579
 30
0.0
 40
0.5
 50
125.43491144775599
 51
180.00003597217801
  0
LINE
  5
1316E
  8
DANMEN
  6
CONTINUOUS
 10
339.36245728989701
 20
148.6532738132303
 30
0.0
 11
339.36245728989701
 21
150.44312738607579
 31
0.0
  0
ARC
  5
1316F
  8
DANMEN
  6
CONTINUOUS
 10
339.86245728989701
 20
146.79537176321199
 30
0.0
 40
0.5
 50
104.03618468282519
 51
179.99990938630691
  0
LINE
  5
13170
  8
DANMEN
  6
CONTINUOUS
 10
339.36245728989701
 20
144.8019559306924
 30
0.0
 11
339.36245728989701
 21
146.79537176321199
 31
0.0
  0
LINE
  5
13171
  8
DANMEN
  6
CONTINUOUS
 10
331.22051287711361
 20
151.02714691308881
 30
0.0
 11
330.8624569510331
 21
151.1357586843867
 31
0.0
  0
LINE
  5
13172
  8
DANMEN
  6
CONTINUOUS
 10
331.22051204846161
 20
150.64437074778061
 30
0.0
 11
330.86245703499281
 21
150.53575925331211
 31
0.0
  0
LINE
  5
13173
  8
DANMEN
  6
CONTINUOUS
 10
330.86245728989701
 20
148.386406843168
 30
0.0
 11
330.86245728989701
 21
150.53575891683741
 31
0.0
  0
LINE
  5
13174
  8
DANMEN
  6
CONTINUOUS
 10
330.8624569160196
 20
148.38640802887471
 30
0.0
 11
331.63004744333278
 21
148.33590866233379
 31
0.0
  0
ARC
  5
13175
  8
DANMEN
  6
CONTINUOUS
 10
331.16245748063182
 20
150.83575910757239
 30
0.0
 40
0.199999988079071
 50
286.87451942498132
 51
73.125480575018699
  0
LINE
  5
13176
  8
DANMEN
  6
CONTINUOUS
 10
331.66245825926433
 20
148.03312629870311
 30
0.0
 11
331.630047736444
 21
148.33590864305009
 31
0.0
  0
LINE
  5
13177
  8
DANMEN
  6
CONTINUOUS
 10
330.86245695188637
 20
154.33575900846481
 30
0.0
 11
328.56245671723462
 21
156.9643307646914
 31
0.0
  0
LINE
  5
13178
  8
DANMEN
  6
CONTINUOUS
 10
326.86245728989701
 20
153.3357741756266
 30
0.0
 11
327.36245728989701
 21
153.3357741756266
 31
0.0
  0
LINE
  5
13179
  8
DANMEN
  6
CONTINUOUS
 10
326.16245748063182
 20
153.53575891683741
 30
0.0
 11
327.36245728989701
 21
153.53575891683741
 31
0.0
  0
LINE
  5
1317A
  8
DANMEN
  6
CONTINUOUS
 10
327.36245728989701
 20
160.33575910757239
 30
0.0
 11
328.5624570991622
 21
160.33575910757239
 31
0.0
  0
ARC
  5
1317B
  8
DANMEN
  6
CONTINUOUS
 10
326.86245728989701
 20
158.8357833309
 30
0.0
 40
0.5
 50
270.0
 51
0.0
  0
ARC
  5
1317C
  8
DANMEN
  6
CONTINUOUS
 10
326.86245728989701
 20
159.3357711238688
 30
0.0
 40
0.5
 50
0.0
 51
90.0
  0
LINE
  5
1317D
  8
DANMEN
  6
CONTINUOUS
 10
327.36245728989701
 20
158.8357833309
 30
0.0
 11
327.36245728989701
 21
158.83577112386871
 31
0.0
  0
LINE
  5
1317E
  8
DANMEN
  6
CONTINUOUS
 10
327.36245728989701
 20
159.3357711238688
 30
0.0
 11
327.36245728989701
 21
158.83577112386871
 31
0.0
  0
LINE
  5
1317F
  8
DANMEN
  6
CONTINUOUS
 10
324.86245118638118
 20
159.83577112386871
 30
0.0
 11
326.86245728989701
 21
159.83577112386871
 31
0.0
  0
LINE
  5
13180
  8
DANMEN
  6
CONTINUOUS
 10
328.5624570991622
 20
156.9643306178873
 30
0.0
 11
328.5624570991622
 21
160.33575910757239
 31
0.0
  0
LINE
  5
13181
  8
DANMEN
  6
CONTINUOUS
 10
327.36245728989701
 20
158.33575910757239
 30
0.0
 11
327.36245728989701
 21
160.33575910757239
 31
0.0
  0
LINE
  5
13182
  8
DANMEN
  6
CONTINUOUS
 10
324.06245118638128
 20
158.33578333089989
 30
0.0
 11
326.86245728989701
 21
158.33578333089989
 31
0.0
  0
LINE
  5
13183
  8
DANMEN
  6
CONTINUOUS
 10
324.36245728989701
 20
158.33575910757239
 30
0.0
 11
327.36245728989701
 21
158.33575910757239
 31
0.0
  0
ARC
  5
13184
  8
DANMEN
  6
CONTINUOUS
 10
326.86245728989701
 20
152.83577417562651
 30
0.0
 40
0.5
 50
90.0
 51
180.0
  0
ARC
  5
13185
  8
DANMEN
  6
CONTINUOUS
 10
339.86245728989718
 20
153.9898364945478
 30
0.0
 40
0.5
 50
122.6849391701583
 51
180.0
  0
ARC
  5
13186
  8
DANMEN
  6
CONTINUOUS
 10
330.86245728989701
 20
153.83575910757239
 30
0.0
 40
0.5
 50
270.00001798608571
 51
89.999982013907726
  0
LINE
  5
13187
  8
DANMEN
  6
CONTINUOUS
 10
331.36245728989689
 20
160.33575891683751
 30
0.0
 11
339.36245728989701
 21
160.33575891683751
 31
0.0
  0
LINE
  5
13188
  8
DANMEN
  6
CONTINUOUS
 10
339.36245728989718
 20
153.9898364945478
 30
0.0
 11
339.36245728989718
 21
152.33862533204811
 31
0.0
  0
LINE
  5
13189
  8
DANMEN
  6
CONTINUOUS
 10
357.86245731373879
 20
148.83576289445551
 30
0.0
 11
357.86245731373867
 21
168.33575891683751
 31
0.0
  0
LINE
  5
1318A
  8
DANMEN
  6
CONTINUOUS
 10
355.91245750447371
 20
150.2857617778605
 30
0.0
 11
355.91245750447359
 21
166.03575891683741
 31
0.0
  0
LINE
  5
1318B
  8
DANMEN
  6
CONTINUOUS
 10
347.36245728989701
 20
148.33575891683751
 30
0.0
 11
347.36245728989701
 21
152.0357587261027
 31
0.0
  0
LINE
  5
1318C
  8
DANMEN
  6
CONTINUOUS
 10
348.86245731373879
 20
150.2857617778605
 30
0.0
 11
348.86245731373867
 21
158.83576177786051
 31
0.0
  0
LINE
  5
1318D
  8
DANMEN
  6
CONTINUOUS
 10
347.36245731373879
 20
148.83576289445551
 30
0.0
 11
347.36245731373879
 21
153.33576177786051
 31
0.0
  0
ARC
  5
1318E
  8
DANMEN
  6
CONTINUOUS
 10
339.36208154221617
 20
153.15540289114159
 30
0.0
 40
2.0
 50
305.43493353218452
 51
359.99999139940218
  0
LINE
  5
1318F
  8
DANMEN
  6
CONTINUOUS
 10
357.36245731373879
 20
148.33576177786051
 30
0.0
 11
347.86245731373879
 21
148.33576177786051
 31
0.0
  0
LINE
  5
13190
  8
DANMEN
  6
CONTINUOUS
 10
355.91245750447371
 20
150.2857617778605
 30
0.0
 11
348.86245731373879
 21
150.2857617778605
 31
0.0
  0
TEXT
  5
13191
  8
SUNPO
  6
CONTINUOUS
 10
344.79995728989701
 20
142.13575899162601
 30
0.0
 40
2.5
  1
70
 41
1.1000000000000001
  7
MX_DIMTXSTY_2
  0
LINE
  5
13192
  8
DANMEN
  6
CONTINUOUS
 10
341.36208154221629
 20
148.85683058927711
 30
0.0
 11
341.36208154221629
 21
149.7889258785074
 31
0.0
  0
LINE
  5
13193
  8
DANMEN
  6
CONTINUOUS
 10
348.86245728989701
 20
148.5357596797769
 30
0.0
 11
348.86245728989701
 21
148.63575815389811
 31
0.0
  0
LINE
  5
13194
  8
DANMEN
  6
CONTINUOUS
 10
347.36245728989701
 20
148.33575891683751
 30
0.0
 11
348.56245614548789
 21
148.33575891683751
 31
0.0
  0
LINE
  5
13195
  8
DANMEN
  6
CONTINUOUS
 10
348.56245601813742
 20
148.33575868081709
 30
0.0
 11
348.86245603315621
 21
148.6357577348893
 31
0.0
  0
ARC
  5
13196
  8
DANMEN
  6
CONTINUOUS
 10
347.86245731373879
 20
148.83576177786051
 30
0.0
 40
0.5
 50
180.0
 51
270.0
  0
ARC
  5
13197
  8
DANMEN
  6
CONTINUOUS
 10
347.36245728989701
 20
148.5357596797769
 30
0.0
 40
1.5
 50
282.438321507686
 51
0.0
  0
LINE
  5
13198
  8
DANMEN
  6
CONTINUOUS
 10
340.62496140324799
 20
150.22912329181409
 30
0.0
 11
340.15109705963522
 21
149.97386782547551
 31
0.0
  0
LINE
  5
13199
  8
DANMEN
  6
CONTINUOUS
 10
347.68554005960749
 20
147.07096702417141
 30
0.0
 11
340.53937452018641
 21
146.26674858629801
 31
0.0
  0
ARC
  5
1319A
  8
DANMEN
  6
CONTINUOUS
 10
340.86208154221629
 20
149.7889258785074
 30
0.0
 40
0.5
 50
0.000045615927645
 51
118.3099140103182
  0
ARC
  5
1319B
  8
DANMEN
  6
CONTINUOUS
 10
339.8620815422164
 20
148.85683058927711
 30
0.0
 40
1.5
 50
284.0362206550061
 51
0.000000272458222
  0
ARC
  5
1319C
  8
DANMEN
  6
CONTINUOUS
 10
357.36245731373879
 20
148.83576177786051
 30
0.0
 40
0.5
 50
270.00009129693427
 51
0.0001279523620055
  0
ARC
  5
1319D
  8
DANMEN
  6
CONTINUOUS
 10
343.27788259049521
 20
153.99948000143209
 30
0.0
 40
2.3362770080566402
 50
61.765072815343302
 51
122.6848960605207
  0
LINE
  5
1319E
  8
DANMEN
  6
CONTINUOUS
 10
347.96245671769231
 20
154.13575720022371
 30
0.0
 11
344.38314700829972
 21
156.05777561312391
 31
0.0
  0
LINE
  5
1319F
  8
DANMEN
  6
CONTINUOUS
 10
347.86245731373879
 20
153.33576177786051
 30
0.0
 11
347.86245731373879
 21
158.33576177786051
 31
0.0
  0
LINE
  5
131A0
  8
DANMEN
  6
CONTINUOUS
 10
346.36245712271023
 20
154.2003866100375
 30
0.0
 11
347.96245640533311
 21
153.3412185894729
 31
0.0
  0
LINE
  5
131A1
  8
DANMEN
  6
CONTINUOUS
 10
347.96245671769231
 20
153.34121870229899
 30
0.0
 11
347.96245671769231
 21
154.13575720022371
 31
0.0
  0
LINE
  5
131A2
  8
DANMEN
  6
CONTINUOUS
 10
347.86245731373879
 20
153.33576177786051
 30
0.0
 11
347.36245731373879
 21
153.33576177786051
 31
0.0
  0
LINE
  5
131A3
  8
DANMEN
  6
CONTINUOUS
 10
347.86245731373879
 20
158.33576177786051
 30
0.0
 11
347.36245731373879
 21
158.33576177786051
 31
0.0
  0
LINE
  5
131A4
  8
DANMEN
  6
CONTINUOUS
 10
347.36245731373867
 20
158.33576177786051
 30
0.0
 11
347.36245731373867
 21
158.83576177786051
 31
0.0
  0
ARC
  5
131A5
  8
DANMEN
  6
CONTINUOUS
 10
347.86245731373879
 20
158.83576177786051
 30
0.0
 40
0.5
 50
90.0
 51
180.0
  0
LINE
  5
131A6
  8
DANMEN
  6
CONTINUOUS
 10
348.36245731373879
 20
159.33576177786051
 30
0.0
 11
347.86245731373879
 21
159.33576177786051
 31
0.0
  0
ARC
  5
131A7
  8
DANMEN
  6
CONTINUOUS
 10
348.36245731373879
 20
158.83576177786051
 30
0.0
 40
0.5
 50
0.0
 51
90.0
  0
LINE
  5
131A8
  8
DANMEN
  6
CONTINUOUS
 10
347.36245807147151
 20
152.03575817919199
 30
0.0
 11
346.36245835642598
 21
152.33575732828831
 31
0.0
  0
LINE
  5
131A9
  8
DANMEN
  6
CONTINUOUS
 10
341.36208154221629
 20
153.15540289114159
 30
0.0
 11
341.36208154221629
 21
153.44692777822669
 31
0.0
  0
LINE
  5
131AA
  8
DANMEN
  6
CONTINUOUS
 10
346.36245728989701
 20
152.3357579631631
 30
0.0
 11
346.36245728989701
 21
154.20038675497219
 31
0.0
  0
LINE
  5
131AB
  8
DANMEN
  6
CONTINUOUS
 10
340.64635419666081
 20
153.8979949750094
 30
0.0
 11
340.21527521448502
 21
153.6918272243262
 31
0.0
  0
ARC
  5
131AC
  8
DANMEN
  6
CONTINUOUS
 10
340.86208154221629
 20
153.44692777822669
 30
0.0
 40
0.5
 50
0.0000169329221944
 51
115.5599159259304
  0
LINE
  5
131AD
  8
DANMEN
  6
CONTINUOUS
 10
352.36245118638118
 20
172.33575891683751
 30
0.0
 11
352.04283957286748
 21
170.73770084926841
 31
0.0
  0
LINE
  5
131AE
  8
DANMEN
  6
CONTINUOUS
 10
355.86245731373867
 20
170.33575891683751
 30
0.0
 11
355.86245731373867
 21
176.33575891683751
 31
0.0
  0
LINE
  5
131AF
  8
DANMEN
  6
CONTINUOUS
 10
354.16245731373868
 20
170.93467580615311
 30
0.0
 11
352.16245731373868
 21
173.6366534673744
 31
0.0
  0
LINE
  5
131B0
  8
DANMEN
  6
CONTINUOUS
 10
355.66434010206581
 20
170.92263827020909
 30
0.0
 11
353.46074954612368
 21
173.89966449852591
 31
0.0
  0
ARC
  5
131B1
  8
DANMEN
  6
CONTINUOUS
 10
351.5525492350219
 20
170.83575891683751
 30
0.0
 40
0.5
 50
270.0
 51
348.69006752598068
  0
LINE
  5
131B2
  8
DANMEN
  6
CONTINUOUS
 10
356.17147428427182
 20
168.33575891683751
 30
0.0
 11
357.86245731373867
 21
168.33575891683751
 31
0.0
  0
LINE
  5
131B3
  8
DANMEN
  6
CONTINUOUS
 10
355.36245728989701
 20
170.03575891683761
 30
0.0
 11
355.36245728989701
 21
169.33575891683751
 31
0.0
  0
LINE
  5
131B4
  8
DANMEN
  6
CONTINUOUS
 10
355.86245731373867
 20
170.33575891683751
 30
0.0
 11
355.66245728989702
 21
170.33575891683751
 31
0.0
  0
ARC
  5
131B5
  8
DANMEN
  6
CONTINUOUS
 10
355.66245728989702
 20
170.03575891683761
 30
0.0
 40
0.3
 50
90.0
 51
180.0
  0
LINE
  5
131B6
  8
DANMEN
  6
CONTINUOUS
 10
355.36245728989701
 20
169.33575891683751
 30
0.0
 11
355.72426068877189
 21
168.61215211908751
 31
0.0
  0
ARC
  5
131B7
  8
DANMEN
  6
CONTINUOUS
 10
356.17147428427182
 20
168.83575891683751
 30
0.0
 40
0.5
 50
206.5650511770782
 51
270.0
  0
LINE
  5
131B8
  8
DANMEN
  6
CONTINUOUS
 10
357.86245731373867
 20
168.33575891683751
 30
0.0
 11
356.36245731373879
 21
168.33575891683751
 31
0.0
  0
ARC
  5
131B9
  8
DANMEN
  6
CONTINUOUS
 10
355.46245731373881
 20
170.60144434178679
 30
0.0
 40
0.3
 50
289.47122063449279
 51
0.0
  0
ARC
  5
131BA
  8
DANMEN
  6
CONTINUOUS
 10
355.6624573137388
 20
170.03575891683741
 30
0.0
 40
0.3
 50
109.47122063449279
 51
180.0
  0
ARC
  5
131BB
  8
DANMEN
  6
CONTINUOUS
 10
355.26245731373871
 20
170.62516520513191
 30
0.0
 40
0.5
 50
0.0
 51
36.508791935553852
  0
LINE
  5
131BC
  8
DANMEN
  6
CONTINUOUS
 10
355.76245731373871
 20
170.60144434178679
 30
0.0
 11
355.76245731373871
 21
170.62516520513191
 31
0.0
  0
LINE
  5
131BD
  8
DANMEN
  6
CONTINUOUS
 10
356.36245731373879
 20
168.03575891683741
 30
0.0
 11
356.36245731373879
 21
168.33575891683751
 31
0.0
  0
LINE
  5
131BE
  8
DANMEN
  6
CONTINUOUS
 10
356.36245731373879
 20
168.03575891683741
 30
0.0
 11
355.36245731373867
 21
168.03575891683741
 31
0.0
  0
LINE
  5
131BF
  8
DANMEN
  6
CONTINUOUS
 10
355.36245731373867
 20
168.03575891683741
 30
0.0
 11
355.36245731373867
 21
170.03575891683741
 31
0.0
  0
ARC
  5
131C0
  8
DANMEN
  6
CONTINUOUS
 10
355.41245750447359
 20
166.03575891683741
 30
0.0
 40
0.5
 50
0.0
 51
90.0
  0
ARC
  5
131C1
  8
DANMEN
  6
CONTINUOUS
 10
354.6624573137388
 20
167.03575891683741
 30
0.0
 40
0.5
 50
180.0
 51
270.0
  0
LINE
  5
131C2
  8
DANMEN
  6
CONTINUOUS
 10
354.16245731373868
 20
167.03575891683741
 30
0.0
 11
354.16245731373868
 21
170.93467580615311
 31
0.0
  0
LINE
  5
131C3
  8
DANMEN
  6
CONTINUOUS
 10
355.41245750447359
 20
166.53575891683741
 30
0.0
 11
354.6624573137388
 21
166.53575891683741
 31
0.0
  0
ARC
  5
131C4
  8
DANMEN
  6
CONTINUOUS
 10
353.7018792191202
 20
174.0781483375722
 30
0.0
 40
0.3
 50
124.702622165553
 51
216.5087919355538
  0
LINE
  5
131C5
  8
DANMEN
  6
CONTINUOUS
 10
352.16245731373868
 20
173.6366534673744
 30
0.0
 11
352.16245731373868
 21
174.83665346737439
 31
0.0
  0
LINE
  5
131C6
  8
DANMEN
  6
CONTINUOUS
 10
351.16245118638119
 20
178.53575891683749
 30
0.0
 11
354.86245731373867
 21
178.53575891683749
 31
0.0
  0
LINE
  5
131C7
  8
DANMEN
  6
CONTINUOUS
 10
353.47806494546961
 20
175.7477124608003
 30
0.0
 11
352.16245731373868
 21
174.83665346737439
 31
0.0
  0
ARC
  5
131C8
  8
DANMEN
  6
CONTINUOUS
 10
353.76259283428169
 20
175.33665346737439
 30
0.0
 40
0.5
 50
0.0
 51
90.0
  0
ARC
  5
131C9
  8
DANMEN
  6
CONTINUOUS
 10
353.76272351977161
 20
175.33665346737439
 30
0.0
 40
0.5
 50
90.0
 51
124.702622165553
  0
LINE
  5
131CA
  8
DANMEN
  6
CONTINUOUS
 10
353.76272354384508
 20
175.83665346737439
 30
0.0
 11
353.76259283428169
 21
175.83665346737439
 31
0.0
  0
ARC
  5
131CB
  8
DANMEN
  6
CONTINUOUS
 10
353.76259283428169
 20
175.09328888383499
 30
0.0
 40
0.5
 50
304.70262216555312
 51
0.0
  0
LINE
  5
131CC
  8
DANMEN
  6
CONTINUOUS
 10
354.04725140858352
 20
174.68222989040899
 30
0.0
 11
353.5310840745388
 21
174.32478373362781
 31
0.0
  0
LINE
  5
131CD
  8
DANMEN
  6
CONTINUOUS
 10
354.26259283428158
 20
175.33665346334629
 30
0.0
 11
354.26259283428158
 21
175.09328888383499
 31
0.0
  0
LINE
  5
131CE
  8
DANMEN
  6
CONTINUOUS
 10
352.36245118638118
 20
176.33575891683751
 30
0.0
 11
355.86245731373867
 21
176.33575891683751
 31
0.0
  0
ARC
  5
131CF
  8
DANMEN
  6
CONTINUOUS
 10
351.16245118638119
 20
177.53575891683749
 30
0.0
 40
1.0
 50
90.0
 51
180.0
  0
LINE
  5
131D0
  8
DANMEN
  6
CONTINUOUS
 10
350.1624511863813
 20
172.53575891683749
 30
0.0
 11
350.1624511863813
 21
177.53575891683749
 31
0.0
  0
LINE
  5
131D1
  8
DANMEN
  6
CONTINUOUS
 10
352.36245118638118
 20
172.33575891683751
 30
0.0
 11
352.36245118638118
 21
176.33575891683751
 31
0.0
  0
LINE
  5
131D2
  8
SUNPO
  6
CONTINUOUS
 10
386.86245728989689
 20
118.33575891683751
 30
0.0
 11
386.86245728989689
 21
126.70257448385399
 31
0.0
  0
TEXT
  5
131D3
  8
SUNPO
  6
CONTINUOUS
 10
386.36245728989689
 20
119.70257448385399
 30
0.0
 40
2.5
  1
5.5
 50
90.0
 41
1.3
  7
MX_DIMTXSTY_4
  0
INSERT
  5
131D4
  8
SUNPO
  6
CONTINUOUS
  2
_DOTSMALL
 10
386.86245728989689
 20
112.83575891683751
 30
0.0
 41
2.3199999999999918
 42
2.3199999999999918
 43
2.3199999999999981
 50
90.0
  0
INSERT
  5
131D5
  8
SUNPO
  6
CONTINUOUS
  2
_DOTSMALL
 10
386.86245728989689
 20
112.83575891683751
 30
0.0
 41
2.3199999999999918
 42
2.3199999999999918
 43
2.3199999999999981
 50
90.0
  0
LINE
  5
131D6
  8
DANMEN
  6
CONTINUOUS
 10
386.86245728989689
 20
118.33575891683751
 30
0.0
 11
386.86245728989689
 21
118.33575891683751
 31
0.0
  0
INSERT
  5
131D7
  8
SUNPO
  6
CONTINUOUS
  2
_DOTSMALL
 10
386.86245728989689
 20
118.33575891683751
 30
0.0
 41
2.3199999999999918
 42
2.3199999999999918
 43
2.3199999999999981
 50
270.0
  0
LINE
  5
131D8
  8
SUNPO
  6
CONTINUOUS
 10
386.86245728989689
 20
112.83575891683751
 30
0.0
 11
386.86245728989689
 21
112.83575891683751
 31
0.0
  0
LINE
  5
131D9
  8
SUNPO
  6
CONTINUOUS
 10
386.86245728989689
 20
112.83575891683751
 30
0.0
 11
386.86245728989689
 21
118.33575891683751
 31
0.0
  0
INSERT
  5
131DA
  8
SUNPO
  6
CONTINUOUS
  2
_DOTSMALL
 10
381.86245728989689
 20
141.63575899162601
 30
0.0
 41
2.3200000000000491
 42
2.3199999999999918
 43
2.3199999999999981
  0
LINE
  5
131DB
  8
SUNPO
  6
CONTINUOUS
 10
391.86245728989689
 20
168.33575891683751
 30
0.0
 11
391.86245728989689
 21
148.33576177786051
 31
0.0
  0
LINE
  5
131DC
  8
SUNPO
  6
CONTINUOUS
 10
383.36245728989689
 20
148.33576177786051
 30
0.0
 11
391.86245728989689
 21
148.33576177786051
 31
0.0
  0
INSERT
  5
131DD
  8
SUNPO
  6
CONTINUOUS
  2
_DOTSMALL
 10
391.86245728989689
 20
148.33576177786051
 30
0.0
 41
2.3199999999999918
 42
2.3199999999999918
 43
2.3199999999999981
 50
270.0
  0
TEXT
  5
131DE
  8
SUNPO
  6
CONTINUOUS
 10
391.36245728989712
 20
156.27326082418611
 30
0.0
 40
2.5
  1
20
 50
90.0
 41
1.1000000000000001
  7
MX_DIMTXSTY_2
  0
LINE
  5
131DF
  8
SUNPO
  6
CONTINUOUS
 10
383.36245728989689
 20
168.33575891683751
 30
0.0
 11
391.86245728989689
 21
168.33575891683751
 31
0.0
  0
INSERT
  5
131E0
  8
SUNPO
  6
CONTINUOUS
  2
_DOTSMALL
 10
391.86245728989689
 20
168.33575891683751
 30
0.0
 41
2.3199999999999918
 42
2.3199999999999918
 43
2.3199999999999981
 50
90.0
  0
INSERT
  5
131E1
  8
SUNPO
  6
CONTINUOUS
  2
_DOTSMALL
 10
391.86245728989689
 20
168.33575891683751
 30
0.0
 41
2.3199999999999918
 42
2.3199999999999918
 43
2.3199999999999981
 50
270.0
  0
LINE
  5
131E2
  8
SUNPO
  6
CONTINUOUS
 10
381.86245728989689
 20
233.63575899162601
 30
0.0
 11
357.86245728989701
 21
233.63575899162601
 31
0.0
  0
LINE
  5
131E3
  8
DANMEN
  6
CONTINUOUS
 10
347.86245728989689
 20
223.33575891683751
 30
0.0
 11
347.86245728989689
 21
218.33575891683751
 31
0.0
  0
LINE
  5
131E4
  8
DANMEN
  6
CONTINUOUS
 10
348.86245728989701
 20
226.33575891683751
 30
0.0
 11
348.86245728989701
 21
217.83575891683751
 31
0.0
  0
LINE
  5
131E5
  8
DANMEN
  6
CONTINUOUS
 10
354.86245731373867
 20
206.33575891683751
 30
0.0
 11
354.86245731373867
 21
226.33575891683751
 31
0.0
  0
LINE
  5
131E6
  8
DANMEN
  6
CONTINUOUS
 10
324.36245728989701
 20
225.335758807563
 30
0.0
 11
324.36245728989701
 21
218.335758807563
 31
0.0
  0
LINE
  5
131E7
  8
DANMEN
  6
CONTINUOUS
 10
324.06245728989688
 20
226.33575891683751
 30
0.0
 11
324.06245728989688
 21
218.33575891683751
 31
0.0
  0
LINE
  5
131E8
  8
DANMEN
  6
CONTINUOUS
 10
339.36245728989701
 20
216.33575899829771
 30
0.0
 11
339.36245728989701
 21
238.63575899162601
 31
0.0
  0
LINE
  5
131E9
  8
DANMEN
  6
CONTINUOUS
 10
331.86245728989701
 20
216.33575899829771
 30
0.0
 11
331.86245728989701
 21
238.63575899162601
 31
0.0
  0
LINE
  5
131EA
  8
DANMEN
  6
CONTINUOUS
 10
331.36245728989689
 20
216.33575899829771
 30
0.0
 11
331.36245728989689
 21
238.63575899162601
 31
0.0
  0
LINE
  5
131EB
  8
DANMEN
  6
CONTINUOUS
 10
338.86245728989701
 20
216.33575899829771
 30
0.0
 11
338.86245728989701
 21
238.63575899162601
 31
0.0
  0
LINE
  5
131EC
  8
DANMEN
  6
CONTINUOUS
 10
330.86245695188637
 20
222.33575890667041
 30
0.0
 11
328.56245671723462
 21
219.7071871504439
 31
0.0
  0
LINE
  5
131ED
  8
DANMEN
  6
CONTINUOUS
 10
339.06245727797602
 20
204.1357589168374
 30
0.0
 11
340.66245730181788
 21
204.1357589168374
 31
0.0
  0
LINE
  5
131EE
  8
DANMEN
  6
CONTINUOUS
 10
354.86245731373867
 20
206.33575891683751
 30
0.0
 11
324.86245728989689
 21
206.33575891683751
 31
0.0
  0
LINE
  5
131EF
  8
DANMEN
  6
CONTINUOUS
 10
328.86245728989701
 20
206.33575899829771
 30
0.0
 11
343.86245728989689
 21
206.33575899829771
 31
0.0
  0
LINE
  5
131F0
  8
DANMEN
  6
CONTINUOUS
 10
328.86245728989701
 20
216.33575899829771
 30
0.0
 11
343.86245728989689
 21
216.33575899829771
 31
0.0
  0
LINE
  5
131F1
  8
DANMEN
  6
CONTINUOUS
 10
328.862457367682
 20
206.33575915582119
 30
0.0
 11
343.86245789846367
 21
216.3357585837949
 31
0.0
  0
LINE
  5
131F2
  8
DANMEN
  6
CONTINUOUS
 10
338.76245728989687
 20
200.53575891683741
 30
0.0
 11
338.76245728989687
 21
200.79882690679079
 31
0.0
  0
ARC
  5
131F3
  8
DANMEN
  6
CONTINUOUS
 10
338.562457289897
 20
201.8054527625074
 30
0.0
 40
2.0
 50
180.0
 51
231.7065227126221
  0
ARC
  5
131F4
  8
DANMEN
  6
CONTINUOUS
 10
338.4624572898968
 20
200.53575891683741
 30
0.0
 40
0.3
 50
270.0
 51
0.0
  0
LINE
  5
131F5
  8
DANMEN
  6
CONTINUOUS
 10
337.32307793160533
 20
200.23575891683751
 30
0.0
 11
338.46245731373881
 21
200.23575891683751
 31
0.0
  0
LINE
  5
131F6
  8
DANMEN
  6
CONTINUOUS
 10
328.86245728989701
 20
216.33575899829771
 30
0.0
 11
328.86245728989701
 21
206.33575899829771
 31
0.0
  0
LINE
  5
131F7
  8
DANMEN
  6
CONTINUOUS
 10
324.86245728989689
 20
216.83575891683751
 30
0.0
 11
324.86245728989689
 21
206.33575891683751
 31
0.0
  0
LINE
  5
131F8
  8
DANMEN
  6
CONTINUOUS
 10
335.562457289897
 20
204.1357589168374
 30
0.0
 11
324.86245728989689
 21
204.1357589168374
 31
0.0
  0
ARC
  5
131F9
  8
DANMEN
  6
CONTINUOUS
 10
339.06245728989688
 20
203.1357589168374
 30
0.0
 40
1.0
 50
90.0
 51
180.0
  0
ARC
  5
131FA
  8
DANMEN
  6
CONTINUOUS
 10
335.562457289897
 20
203.1357589168374
 30
0.0
 40
1.0
 50
0.0
 51
90.0
  0
ARC
  5
131FB
  8
DANMEN
  6
CONTINUOUS
 10
339.06245728989688
 20
201.8896981182545
 30
0.0
 40
1.0
 50
180.0
 51
245.37568164783809
  0
ARC
  5
131FC
  8
DANMEN
  6
CONTINUOUS
 10
338.562457289897
 20
200.79882690679079
 30
0.0
 40
0.2
 50
0.0
 51
65.375681647838221
  0
LINE
  5
131FD
  8
DANMEN
  6
CONTINUOUS
 10
338.062457289897
 20
201.88969814012691
 30
0.0
 11
338.062457289897
 21
203.13575892875829
 31
0.0
  0
LINE
  5
131FE
  8
DANMEN
  6
CONTINUOUS
 10
336.56245728989688
 20
201.8054527625074
 30
0.0
 11
336.56245728989688
 21
203.1357589168374
 31
0.0
  0
ARC
  5
131FF
  8
DANMEN
  6
CONTINUOUS
 10
326.86245728989701
 20
217.83575891683751
 30
0.0
 40
0.5
 50
0.0
 51
90.0
  0
LINE
  5
13200
  8
DANMEN
  6
CONTINUOUS
 10
327.36245728989701
 20
217.83575891683751
 30
0.0
 11
327.36245728989701
 21
217.33575891683751
 31
0.0
  0
LINE
  5
13201
  8
DANMEN
  6
CONTINUOUS
 10
324.06245728989688
 20
218.33575891683751
 30
0.0
 11
326.86245728989701
 21
218.33575891683751
 31
0.0
  0
LINE
  5
13202
  8
DANMEN
  6
CONTINUOUS
 10
324.36245728989701
 20
218.335758807563
 30
0.0
 11
327.36245728989701
 21
218.335758807563
 31
0.0
  0
LINE
  5
13203
  8
DANMEN
  6
CONTINUOUS
 10
327.36245728989701
 20
216.335758807563
 30
0.0
 11
328.5624570991622
 21
216.335758807563
 31
0.0
  0
LINE
  5
13204
  8
DANMEN
  6
CONTINUOUS
 10
324.86245728989689
 20
216.83575891683751
 30
0.0
 11
326.86245728989701
 21
216.83575891683751
 31
0.0
  0
ARC
  5
13205
  8
DANMEN
  6
CONTINUOUS
 10
326.86245728989701
 20
217.33575891683751
 30
0.0
 40
0.5
 50
270.0
 51
0.0
  0
LINE
  5
13206
  8
DANMEN
  6
CONTINUOUS
 10
328.5624570991622
 20
219.70718729724791
 30
0.0
 11
328.5624570991622
 21
216.335758807563
 31
0.0
  0
LINE
  5
13207
  8
DANMEN
  6
CONTINUOUS
 10
327.36245728989701
 20
218.335758807563
 30
0.0
 11
327.36245728989701
 21
216.335758807563
 31
0.0
  0
LINE
  5
13208
  8
DANMEN
  6
CONTINUOUS
 10
331.36245728989689
 20
216.33575899829771
 30
0.0
 11
339.36245728989701
 21
216.33575899829771
 31
0.0
  0
ARC
  5
13209
  8
DANMEN
  6
CONTINUOUS
 10
341.16245728989702
 20
201.8054527625074
 30
0.0
 40
2.0
 50
308.2934772873777
 51
0.0
  0
LINE
  5
1320A
  8
DANMEN
  6
CONTINUOUS
 10
340.96245728989692
 20
200.53575891683741
 30
0.0
 11
340.96245728989692
 21
200.79882690679079
 31
0.0
  0
LINE
  5
1320B
  8
DANMEN
  6
CONTINUOUS
 10
341.26245728989687
 20
200.23575891683751
 30
0.0
 11
342.40183666315852
 21
200.23575891683751
 31
0.0
  0
ARC
  5
1320C
  8
DANMEN
  6
CONTINUOUS
 10
341.26245728989687
 20
200.53575891683741
 30
0.0
 40
0.3
 50
180.0
 51
270.0
  0
LINE
  5
1320D
  8
DANMEN
  6
CONTINUOUS
 10
343.86245728989689
 20
216.33575899829771
 30
0.0
 11
343.86245728989689
 21
206.33575899829771
 31
0.0
  0
LINE
  5
1320E
  8
DANMEN
  6
CONTINUOUS
 10
354.86245731373867
 20
204.1357589168374
 30
0.0
 11
344.16245728989702
 21
204.1357589168374
 31
0.0
  0
ARC
  5
1320F
  8
DANMEN
  6
CONTINUOUS
 10
344.16245728989702
 20
203.1357589168374
 30
0.0
 40
1.0
 50
90.0
 51
180.0
  0
ARC
  5
13210
  8
DANMEN
  6
CONTINUOUS
 10
340.66245728989702
 20
203.1357589168374
 30
0.0
 40
1.0
 50
0.0
 51
90.0
  0
ARC
  5
13211
  8
DANMEN
  6
CONTINUOUS
 10
341.16245728989702
 20
200.79882690679079
 30
0.0
 40
0.2
 50
114.62431835216159
 51
180.0
  0
ARC
  5
13212
  8
DANMEN
  6
CONTINUOUS
 10
340.66245728989702
 20
201.8896981182545
 30
0.0
 40
1.0
 50
294.62431835216159
 51
0.0
  0
LINE
  5
13213
  8
DANMEN
  6
CONTINUOUS
 10
341.66245728989708
 20
201.88969814012691
 30
0.0
 11
341.66245728989708
 21
203.13575892875829
 31
0.0
  0
LINE
  5
13214
  8
DANMEN
  6
CONTINUOUS
 10
343.16245728989702
 20
201.8054527625074
 30
0.0
 11
343.16245728989702
 21
203.1357589168374
 31
0.0
  0
ARC
  5
13215
  8
DANMEN
  6
CONTINUOUS
 10
347.86245728989689
 20
217.83575891683751
 30
0.0
 40
0.5
 50
180.0
 51
270.0
  0
LINE
  5
13216
  8
DANMEN
  6
CONTINUOUS
 10
347.36245728989701
 20
217.83575891683751
 30
0.0
 11
347.36245728989701
 21
218.33575891683751
 31
0.0
  0
LINE
  5
13217
  8
DANMEN
  6
CONTINUOUS
 10
347.86245728989689
 20
218.33575891683751
 30
0.0
 11
347.36245728989701
 21
218.33575891683751
 31
0.0
  0
LINE
  5
13218
  8
DANMEN
  6
CONTINUOUS
 10
348.36245728989701
 20
217.33575891683751
 30
0.0
 11
347.86245728989689
 21
217.33575891683751
 31
0.0
  0
ARC
  5
13219
  8
DANMEN
  6
CONTINUOUS
 10
348.36245728989701
 20
217.83575891683751
 30
0.0
 40
0.5
 50
270.0
 51
0.0
  0
LINE
  5
1321A
  8
DANMEN
  6
CONTINUOUS
 10
342.01624675713418
 20
220.70570328600411
 30
0.0
 11
339.59244773920102
 21
222.26085504007779
 31
0.0
  0
LINE
  5
1321B
  8
SUNPO
  6
CONTINUOUS
 10
357.86245728989701
 20
233.63575899162601
 30
0.0
 11
319.86245728989701
 21
233.63575899162601
 31
0.0
  0
ARC
  5
1321C
  8
DANMEN
  6
CONTINUOUS
 10
340.86245728989712
 20
224.3328925830871
 30
0.0
 40
1.5
 50
180.0
 51
244.44008439005589
  0
LINE
  5
1321D
  8
DANMEN
  6
CONTINUOUS
 10
339.74119094818002
 20
229.39107486719161
 30
0.0
 11
340.22588473822702
 21
229.26990150157241
 31
0.0
  0
ARC
  5
1321E
  8
DANMEN
  6
CONTINUOUS
 10
340.86245728989701
 20
228.018244101905
 30
0.0
 40
1.5
 50
179.9999640278219
 51
241.69006868683411
  0
LINE
  5
1321F
  8
DANMEN
  6
CONTINUOUS
 10
340.52163766572647
 20
225.14566362679301
 30
0.0
 11
339.57256927819782
 21
225.82100284163431
 31
0.0
  0
ARC
  5
13220
  8
DANMEN
  6
CONTINUOUS
 10
340.86245728989701
 20
231.8695619844429
 30
0.0
 40
1.5
 50
180.00003597217801
 51
257.56167849231372
  0
TEXT
  5
13221
  8
SUNPO
  6
CONTINUOUS
 10
315.02912395656358
 20
234.13575899162601
 30
0.0
 40
2.5
  1
8
  7
MX_NOTE_STANDARD
  0
INSERT
  5
13222
  8
DANMEN
  6
CONTINUOUS
  2
_DOTSMALL
 10
319.86245728989701
 20
233.63575899162601
 30
0.0
 41
2.3200000000000491
 42
2.3199999999999918
 43
2.3199999999999981
 50
180.0
  0
INSERT
  5
13223
  8
SUNPO
  6
CONTINUOUS
  2
_DOTSMALL
 10
319.86245728989701
 20
233.63575899162601
 30
0.0
 41
2.3200000000000491
 42
2.3199999999999918
 43
2.3199999999999981
  0
INSERT
  5
13224
  8
SUNPO
  6
CONTINUOUS
  2
_DOTSMALL
 10
311.86245728989701
 20
233.63575899162601
 30
0.0
 41
2.3200000000000491
 42
2.3199999999999918
 43
2.3199999999999981
 50
180.0
  0
LINE
  5
13225
  8
SUNPO
  6
CONTINUOUS
 10
311.86245728989701
 20
233.63575899162601
 30
0.0
 11
319.86245728989701
 21
233.63575899162601
 31
0.0
  0
LINE
  5
13226
  8
DANMEN
  6
CONTINUOUS
 10
327.3624574836121
 20
238.63575899162601
 30
0.0
 11
327.3624574836121
 21
228.33575899829771
 31
0.0
  0
LINE
  5
13227
  8
DANMEN
  6
CONTINUOUS
 10
339.36245728989701
 20
231.8695619844429
 30
0.0
 11
339.36245728989701
 21
229.87614615192331
 31
0.0
  0
LINE
  5
13228
  8
DANMEN
  6
CONTINUOUS
 10
327.0624570869486
 20
228.3357586688341
 30
0.0
 11
331.66245811341031
 21
228.63839025384931
 31
0.0
  0
ARC
  5
13229
  8
DANMEN
  6
CONTINUOUS
 10
322.36245728989701
 20
227.83575891683751
 30
0.0
 40
0.5
 50
90.0
 51
180.0
  0
LINE
  5
1322A
  8
DANMEN
  6
CONTINUOUS
 10
322.36245728989701
 20
228.33575891683751
 30
0.0
 11
326.86245728989701
 21
228.33575891683751
 31
0.0
  0
ARC
  5
1322B
  8
DANMEN
  6
CONTINUOUS
 10
326.86245728989701
 20
227.83575891683751
 30
0.0
 40
0.5
 50
0.0
 51
90.0
  0
LINE
  5
1322C
  8
DANMEN
  6
CONTINUOUS
 10
327.06245670168028
 20
228.33575885402681
 30
0.0
 11
327.36245728989701
 21
228.0357582658101
 31
0.0
  0
LINE
  5
1322D
  8
DANMEN
  6
CONTINUOUS
 10
324.06245728989688
 20
226.33575891683751
 30
0.0
 11
326.36245728989701
 21
226.33575891683751
 31
0.0
  0
LINE
  5
1322E
  8
DANMEN
  6
CONTINUOUS
 10
326.86245728989701
 20
223.33575891683751
 30
0.0
 11
327.36245728989701
 21
223.33575891683751
 31
0.0
  0
LINE
  5
1322F
  8
DANMEN
  6
CONTINUOUS
 10
326.16245748063182
 20
225.335758807563
 30
0.0
 11
326.16245748063182
 21
223.1357589982978
 31
0.0
  0
ARC
  5
13230
  8
DANMEN
  6
CONTINUOUS
 10
326.86245728989701
 20
223.83575891683751
 30
0.0
 40
0.5
 50
180.0
 51
270.0
  0
LINE
  5
13231
  8
DANMEN
  6
CONTINUOUS
 10
326.16245748063182
 20
223.1357589982978
 30
0.0
 11
327.36245728989701
 21
223.1357589982978
 31
0.0
  0
LINE
  5
13232
  8
DANMEN
  6
CONTINUOUS
 10
324.36245728989701
 20
225.335758807563
 30
0.0
 11
326.16245748063182
 21
225.335758807563
 31
0.0
  0
LINE
  5
13233
  8
DANMEN
  6
CONTINUOUS
 10
327.36245728989701
 20
227.83575891683751
 30
0.0
 11
327.36245728989701
 21
223.33575891683751
 31
0.0
  0
LINE
  5
13234
  8
DANMEN
  6
CONTINUOUS
 10
327.36245728989701
 20
228.03575861682799
 30
0.0
 11
327.36245728989701
 21
223.1357589982978
 31
0.0
  0
LINE
  5
13235
  8
DANMEN
  6
CONTINUOUS
 10
326.36245728989701
 20
226.33575891683751
 30
0.0
 11
326.36245728989701
 21
223.83575891683751
 31
0.0
  0
LINE
  5
13236
  8
DANMEN
  6
CONTINUOUS
 10
339.36245728989718
 20
222.68168142058741
 30
0.0
 11
339.36245728989718
 21
224.3328925830871
 31
0.0
  0
ARC
  5
13237
  8
DANMEN
  6
CONTINUOUS
 10
339.86245728989718
 20
222.68168142058741
 30
0.0
 40
0.5
 50
180.0
 51
237.31506082984151
  0
ARC
  5
13238
  8
DANMEN
  6
CONTINUOUS
 10
339.86245728989701
 20
229.87614615192331
 30
0.0
 40
0.5
 50
180.0000906136913
 51
255.96381531717461
  0
ARC
  5
13239
  8
DANMEN
  6
CONTINUOUS
 10
339.86245728989701
 20
226.22839052905951
 30
0.0
 40
0.5
 50
179.9999640278219
 51
234.56508855224371
  0
LINE
  5
1323A
  8
DANMEN
  6
CONTINUOUS
 10
339.36245728989701
 20
228.018244101905
 30
0.0
 11
339.36245728989701
 21
226.22839052905951
 31
0.0
  0
ARC
  5
1323B
  8
DANMEN
  6
CONTINUOUS
 10
330.86245728989701
 20
222.835758807563
 30
0.0
 40
0.5
 50
270.00001798608571
 51
89.999982013907726
  0
LINE
  5
1323C
  8
DANMEN
  6
CONTINUOUS
 10
331.22051287711361
 20
225.64437100204651
 30
0.0
 11
330.8624569510331
 21
225.5357592307486
 31
0.0
  0
LINE
  5
1323D
  8
DANMEN
  6
CONTINUOUS
 10
331.22051204846161
 20
226.02714716735471
 30
0.0
 11
330.86245703499281
 21
226.13575866182319
 31
0.0
  0
LINE
  5
1323E
  8
DANMEN
  6
CONTINUOUS
 10
330.86245728989701
 20
228.28511107196721
 30
0.0
 11
330.86245728989701
 21
226.13575899829769
 31
0.0
  0
LINE
  5
1323F
  8
DANMEN
  6
CONTINUOUS
 10
330.8624569160196
 20
228.28510988626061
 30
0.0
 11
331.63004744333278
 21
228.33560925280139
 31
0.0
  0
ARC
  5
13240
  8
DANMEN
  6
CONTINUOUS
 10
331.16245748063182
 20
225.835758807563
 30
0.0
 40
0.199999988079071
 50
286.87451942498132
 51
73.125480575018699
  0
LINE
  5
13241
  8
DANMEN
  6
CONTINUOUS
 10
331.66245825926433
 20
228.63839161643219
 30
0.0
 11
331.630047736444
 21
228.33560927208501
 31
0.0
  0
LINE
  5
13242
  8
DANMEN
  6
CONTINUOUS
 10
330.86245728989701
 20
225.53575861682799
 30
0.0
 11
330.86245728989701
 21
223.335758807563
 31
0.0
  0
TEXT
  5
13243
  8
SUNPO
  6
CONTINUOUS
 10
333.51378887355582
 20
234.13575899162601
 30
0.0
 40
2.5
  1
38
  7
MX_NOTE_STANDARD
  0
LINE
  5
13244
  8
DANMEN
  6
CONTINUOUS
 10
348.84906406198678
 20
238.63575899162601
 30
0.0
 11
348.84906406198678
 21
228.33575899829771
 31
0.0
  0
LINE
  5
13245
  8
DANMEN
  6
CONTINUOUS
 10
357.86245728989701
 20
228.33575891683751
 30
0.0
 11
357.86245728989701
 21
238.63575899162601
 31
0.0
  0
LINE
  5
13246
  8
DANMEN
  6
CONTINUOUS
 10
347.68554005960749
 20
229.600550890964
 30
0.0
 11
340.53937452018641
 21
230.40476932883729
 31
0.0
  0
LINE
  5
13247
  8
DANMEN
  6
CONTINUOUS
 10
348.86245728989701
 20
226.33575891683751
 30
0.0
 11
354.86245731373867
 21
226.33575891683751
 31
0.0
  0
LINE
  5
13248
  8
DANMEN
  6
CONTINUOUS
 10
357.36245731373867
 20
228.33575891683751
 30
0.0
 11
347.86245728989689
 21
228.33575891683751
 31
0.0
  0
LINE
  5
13249
  8
DANMEN
  6
CONTINUOUS
 10
347.96245671769231
 20
222.53576071491159
 30
0.0
 11
344.38314700829972
 21
220.61374230201139
 31
0.0
  0
LINE
  5
1324A
  8
DANMEN
  6
CONTINUOUS
 10
346.36245712271023
 20
222.4711313050978
 30
0.0
 11
347.96245640533311
 21
223.33029932566231
 31
0.0
  0
LINE
  5
1324B
  8
DANMEN
  6
CONTINUOUS
 10
347.96245671769231
 20
223.33029921283639
 30
0.0
 11
347.96245671769231
 21
222.53576071491159
 31
0.0
  0
LINE
  5
1324C
  8
DANMEN
  6
CONTINUOUS
 10
346.36245728989701
 20
224.33575995197211
 30
0.0
 11
346.36245728989701
 21
222.47113116016311
 31
0.0
  0
LINE
  5
1324D
  8
DANMEN
  6
CONTINUOUS
 10
341.36208154221629
 20
227.8146873258583
 30
0.0
 11
341.36208154221629
 21
226.8825920366279
 31
0.0
  0
LINE
  5
1324E
  8
DANMEN
  6
CONTINUOUS
 10
341.36208154221629
 20
223.51611502399359
 30
0.0
 11
341.36208154221629
 21
223.2245901369086
 31
0.0
  0
ARC
  5
1324F
  8
DANMEN
  6
CONTINUOUS
 10
347.86245728989689
 20
227.83575891683751
 30
0.0
 40
0.5
 50
90.0
 51
180.0
  0
LINE
  5
13250
  8
DANMEN
  6
CONTINUOUS
 10
348.86245728989701
 20
228.13575823535831
 30
0.0
 11
348.86245728989701
 21
228.03575976123719
 31
0.0
  0
LINE
  5
13251
  8
DANMEN
  6
CONTINUOUS
 10
347.36245728989701
 20
228.33575899829771
 30
0.0
 11
348.56245614548789
 21
228.33575899829771
 31
0.0
  0
LINE
  5
13252
  8
DANMEN
  6
CONTINUOUS
 10
348.56245601813742
 20
228.33575923431829
 30
0.0
 11
348.86245603315621
 21
228.035760180246
 31
0.0
  0
ARC
  5
13253
  8
DANMEN
  6
CONTINUOUS
 10
347.36245728989701
 20
228.13575823535831
 30
0.0
 40
1.5
 50
0.0
 51
77.561678492313817
  0
LINE
  5
13254
  8
DANMEN
  6
CONTINUOUS
 10
347.86245728989689
 20
223.33575891683751
 30
0.0
 11
347.36245728989701
 21
223.33575891683751
 31
0.0
  0
LINE
  5
13255
  8
DANMEN
  6
CONTINUOUS
 10
347.36245807147151
 20
224.63575973594331
 30
0.0
 11
346.36245835642598
 21
224.3357605868469
 31
0.0
  0
LINE
  5
13256
  8
DANMEN
  6
CONTINUOUS
 10
347.36245728989701
 20
227.83575891683751
 30
0.0
 11
347.36245728989701
 21
223.33575891683751
 31
0.0
  0
LINE
  5
13257
  8
DANMEN
  6
CONTINUOUS
 10
347.36245728989701
 20
228.33575899829771
 30
0.0
 11
347.36245728989701
 21
224.63575918903271
 31
0.0
  0
LINE
  5
13258
  8
DANMEN
  6
CONTINUOUS
 10
340.64635419666081
 20
222.7735229401259
 30
0.0
 11
340.21527521448502
 21
222.97969069080909
 31
0.0
  0
LINE
  5
13259
  8
DANMEN
  6
CONTINUOUS
 10
340.62496140324799
 20
226.44239462332109
 30
0.0
 11
340.15109705963522
 21
226.6976500896597
 31
0.0
  0
ARC
  5
1325A
  8
DANMEN
  6
CONTINUOUS
 10
340.86208154221629
 20
223.2245901369086
 30
0.0
 40
0.5
 50
244.4400840740694
 51
359.99998306707772
  0
ARC
  5
1325B
  8
DANMEN
  6
CONTINUOUS
 10
340.86208154221629
 20
226.8825920366279
 30
0.0
 40
0.5
 50
241.69008598968171
 51
359.99995438407228
  0
ARC
  5
1325C
  8
DANMEN
  6
CONTINUOUS
 10
339.8620815422164
 20
227.8146873258583
 30
0.0
 40
1.5
 50
359.99999972754
 51
75.963779344993881
  0
ARC
  5
1325D
  8
DANMEN
  6
CONTINUOUS
 10
339.36208154221617
 20
223.51611502399359
 30
0.0
 40
2.0
 50
0.0000086005976577
 51
54.565066467815342
  0
ARC
  5
1325E
  8
DANMEN
  6
CONTINUOUS
 10
343.27788259049521
 20
222.67203791370301
 30
0.0
 40
2.3362770080566402
 50
237.31510393947909
 51
298.23492718465661
  0
ARC
  5
1325F
  8
DANMEN
  6
CONTINUOUS
 10
357.36245731373867
 20
227.83575891683751
 30
0.0
 40
0.5
 50
0.0
 51
90.0
  0
INSERT
  5
13260
  8
DANMEN
  6
CONTINUOUS
  2
_DOTSMALL
 10
357.86245728989701
 20
233.63575899162601
 30
0.0
 41
2.3200000000000491
 42
2.3199999999999918
 43
2.3199999999999981
  0
INSERT
  5
13261
  8
SUNPO
  6
CONTINUOUS
  2
_DOTSMALL
 10
357.86245728989701
 20
233.63575899162601
 30
0.0
 41
2.3200000000000491
 42
2.3199999999999918
 43
2.3199999999999981
 50
180.0
  0
TEXT
  5
13262
  8
SUNPO
  6
CONTINUOUS
 10
367.77912395656369
 20
234.13575899162601
 30
0.0
 40
2.5
  1
24
  7
MX_NOTE_STANDARD
  0
TEXT
  5
13263
  8
SUNPO
  6
CONTINUOUS
 10
391.36245728989712
 20
196.27325891683751
 30
0.0
 40
2.5
  1
60
 50
90.0
 41
1.1000000000000001
  7
MX_DIMTXSTY_2
  0
LINE
  5
13264
  8
SUNPO
  6
CONTINUOUS
 10
383.36245728989689
 20
228.33575891683751
 30
0.0
 11
391.86245728989689
 21
228.33575891683751
 31
0.0
  0
INSERT
  5
13265
  8
SUNPO
  6
CONTINUOUS
  2
_DOTSMALL
 10
391.86245728989689
 20
228.33575891683751
 30
0.0
 41
2.3199999999999918
 42
2.3199999999999918
 43
2.3199999999999981
 50
90.0
  0
INSERT
  5
13266
  8
SUNPO
  6
CONTINUOUS
  2
_DOTSMALL
 10
381.86245728989689
 20
233.63575899162601
 30
0.0
 41
2.3200000000000491
 42
2.3199999999999918
 43
2.3199999999999981
  0
LINE
  5
13267
  8
DANMEN
  6
CONTINUOUS
 10
237.0857787650684
 20
-16.45924304365959
 30
0.0
 11
275.08577776506849
 21
-16.45924304365959
 31
0.0
  0
LINE
  5
13268
  8
DANMEN
  6
CONTINUOUS
 10
202.0857787650684
 20
-8.2592430436596942
 30
0.0
 11
275.08577776506849
 21
-8.2592430436596942
 31
0.0
  0
LINE
  5
13269
  8
DANMEN
  6
CONTINUOUS
 10
216.58577776506851
 20
-6.4592430436595958
 30
0.0
 11
275.08577776506849
 21
-6.4592430436595958
 31
0.0
  0
LINE
  5
1326A
  8
DANMEN
  6
CONTINUOUS
 10
275.08577776506849
 20
-21.95924304365959
 30
0.0
 11
237.0857787650684
 21
-21.95924304365959
 31
0.0
  0
LINE
  5
1326B
  8
DANMEN
  6
CONTINUOUS
 10
275.08577776506849
 20
-43.445850043659703
 30
0.0
 11
237.0857787650684
 21
-43.445850043659703
 31
0.0
  0
LINE
  5
1326C
  8
DANMEN
  6
CONTINUOUS
 10
236.5857787650684
 20
-52.459243043659612
 30
0.0
 11
275.08577776506849
 21
-52.459243043659612
 31
0.0
  0
LINE
  5
1326D
  8
DANMEN
  6
CONTINUOUS
 10
225.0857787650684
 20
-25.959243043659601
 30
0.0
 11
275.08577776506849
 21
-25.959243043659601
 31
0.0
  0
LINE
  5
1326E
  8
DANMEN
  6
CONTINUOUS
 10
225.0857787650684
 20
-26.45924304365959
 30
0.0
 11
275.08577776506849
 21
-26.45924304365959
 31
0.0
  0
LINE
  5
1326F
  8
DANMEN
  6
CONTINUOUS
 10
225.0857787650684
 20
-33.959243043659612
 30
0.0
 11
275.08577776506849
 21
-33.959243043659612
 31
0.0
  0
LINE
  5
13270
  8
DANMEN
  6
CONTINUOUS
 10
225.0857787650684
 20
-33.459243043659683
 30
0.0
 11
275.08577776506849
 21
-33.459243043659683
 31
0.0
  0
LINE
  5
13271
  8
DANMEN
  6
CONTINUOUS
 10
275.08577776506849
 20
-72.959243043659626
 30
0.0
 11
202.0857787650684
 21
-72.959243043659626
 31
0.0
  0
LINE
  5
13272
  8
DANMEN
  6
CONTINUOUS
 10
275.08577776506849
 20
-76.459243043659626
 30
0.0
 11
216.58577776506851
 21
-76.459243043659626
 31
0.0
  0
LINE
  5
13273
  8
SUNPO
  6
CONTINUOUS
 10
217.0857777650684
 20
-126.4592430436596
 30
0.0
 11
262.08577776506843
 21
-126.4592430436596
 31
0.0
  0
LINE
  5
13274
  8
DANMEN
  6
CONTINUOUS
 10
202.0857787650684
 20
-52.459243043659612
 30
0.0
 11
202.0857787650684
 21
-75.35924604365961
 31
0.0
  0
LINE
  5
13275
  8
DANMEN
  6
CONTINUOUS
 10
200.4357857650684
 20
-8.1092370436596184
 30
0.0
 11
200.4357857650684
 21
-74.809249043659619
 31
0.0
  0
LINE
  5
13276
  8
SUNPO
  6
CONTINUOUS
 10
237.0857787650684
 20
-77.959243043659626
 30
0.0
 11
237.0857787650684
 21
-116.4592430436595
 31
0.0
  0
LINE
  5
13277
  8
SUNPO
  6
CONTINUOUS
 10
202.0857787650684
 20
-77.959243043659626
 30
0.0
 11
202.0857787650684
 21
-116.4592430436595
 31
0.0
  0
LINE
  5
13278
  8
SUNPO
  6
CONTINUOUS
 10
217.0857777650684
 20
-77.959243043659626
 30
0.0
 11
217.0857777650684
 21
-126.4592430436596
 31
0.0
  0
LINE
  5
13279
  8
SUNPO
  6
CONTINUOUS
 10
192.0857777650684
 20
-77.459243043659626
 30
0.0
 11
192.0857777650684
 21
-126.4592430436596
 31
0.0
  0
LINE
  5
1327A
  8
SUNPO
  6
CONTINUOUS
 10
217.0857777650684
 20
-126.4592430436596
 30
0.0
 11
192.0857777650684
 21
-126.4592430436596
 31
0.0
  0
LINE
  5
1327B
  8
SUNPO
  6
CONTINUOUS
 10
217.0857777650684
 20
-116.4592430436595
 30
0.0
 11
202.0857787650684
 21
-116.4592430436595
 31
0.0
  0
ARC
  5
1327C
  8
SUNPO
  6
BYBLOCK
 10
192.0857777650684
 20
-126.4592430436596
 30
0.0
 40
0.15625
 50
0.0
 51
180.0
  0
ARC
  5
1327D
  8
SUNPO
  6
BYBLOCK
 10
192.0857777650684
 20
-126.4592430436596
 30
0.0
 40
0.15625
 50
180.0
 51
0.0
  0
TEXT
  5
1327E
  8
SUNPO
  6
CONTINUOUS
 10
202.5024447650685
 20
-125.4592430436596
 30
0.0
 40
2.5
  1
25
  0
LINE
  5
1327F
  8
SUNPO
  6
CONTINUOUS
 10
192.0857777650684
 20
-116.4592430436595
 30
0.0
 11
202.0857787650684
 21
-116.4592430436595
 31
0.0
  0
ARC
  5
13280
  8
SUNPO
  6
BYBLOCK
 10
192.0857777650684
 20
-116.4592430436595
 30
0.0
 40
0.145
 50
0.0
 51
180.0
  0
ARC
  5
13281
  8
SUNPO
  6
BYBLOCK
 10
192.0857777650684
 20
-116.4592430436595
 30
0.0
 40
0.145
 50
180.0
 51
0.0
  0
ARC
  5
13282
  8
SUNPO
  6
BYBLOCK
 10
202.0857787650684
 20
-116.4592430436595
 30
0.0
 40
0.145
 50
180.0
 51
0.0
  0
ARC
  5
13283
  8
SUNPO
  6
BYBLOCK
 10
202.0857787650684
 20
-116.4592430436595
 30
0.0
 40
0.145
 50
0.0
 51
180.0
  0
ARC
  5
13284
  8
SUNPO
  6
BYBLOCK
 10
202.0857787650684
 20
-116.4592430436595
 30
0.0
 40
0.145
 50
0.0
 51
180.0
  0
ARC
  5
13285
  8
SUNPO
  6
BYBLOCK
 10
202.0857787650684
 20
-116.4592430436595
 30
0.0
 40
0.145
 50
180.0
 51
0.0
  0
TEXT
  5
13286
  8
SUNPO
  6
CONTINUOUS
 10
195.62744576506839
 20
-115.4592430436595
 30
0.0
 40
2.5
  1
10
  0
TEXT
  5
13287
  8
SUNPO
  6
CONTINUOUS
 10
207.91911176506841
 20
-115.4592430436595
 30
0.0
 40
2.5
  1
15
  0
LINE
  5
13288
  8
SUNPO
  6
CONTINUOUS
 10
222.0857777650684
 20
-131.45924304365951
 30
0.0
 11
217.0857777650684
 21
-126.4592430436596
 31
0.0
  0
LINE
  5
13289
  8
SUNPO
  6
CONTINUOUS
 10
222.0857777650684
 20
-121.4592430436596
 30
0.0
 11
222.0857777650684
 21
-131.45924304365951
 31
0.0
  0
LINE
  5
1328A
  8
SUNPO
  6
CONTINUOUS
 10
217.0857777650684
 20
-126.4592430436596
 30
0.0
 11
222.0857777650684
 21
-121.4592430436596
 31
0.0
  0
LINE
  5
1328B
  8
SUNPO
  6
CONTINUOUS
 10
237.0857787650684
 20
-116.4592430436595
 30
0.0
 11
217.0857777650684
 21
-116.4592430436595
 31
0.0
  0
ARC
  5
1328C
  8
SUNPO
  6
BYBLOCK
 10
217.0857777650684
 20
-116.4592430436595
 30
0.0
 40
0.145
 50
0.0
 51
180.0
  0
ARC
  5
1328D
  8
SUNPO
  6
BYBLOCK
 10
217.0857777650684
 20
-116.4592430436595
 30
0.0
 40
0.145
 50
180.0
 51
0.0
  0
ARC
  5
1328E
  8
SUNPO
  6
BYBLOCK
 10
217.0857777650684
 20
-116.4592430436595
 30
0.0
 40
0.145
 50
180.0
 51
0.0
  0
ARC
  5
1328F
  8
SUNPO
  6
BYBLOCK
 10
217.0857777650684
 20
-116.4592430436595
 30
0.0
 40
0.145
 50
0.0
 51
180.0
  0
TEXT
  5
13290
  8
SUNPO
  6
CONTINUOUS
 10
225.21077876506831
 20
-115.4592430436595
 30
0.0
 40
2.5
  1
20
  0
ARC
  5
13291
  8
SUNPO
  6
BYBLOCK
 10
237.0857787650684
 20
-116.4592430436595
 30
0.0
 40
0.145
 50
180.0
 51
0.0
  0
ARC
  5
13292
  8
SUNPO
  6
BYBLOCK
 10
237.0857787650684
 20
-116.4592430436595
 30
0.0
 40
0.145
 50
0.0
 51
180.0
  0
LINE
  5
13293
  8
DANMEN
  6
CONTINUOUS
 10
204.0857787650684
 20
-74.809249043659619
 30
0.0
 11
216.5857787650684
 21
-74.809249043659619
 31
0.0
  0
LINE
  5
13294
  8
DANMEN
  6
CONTINUOUS
 10
192.58577876506831
 20
-76.459243043659626
 30
0.0
 11
216.5857787650684
 21
-76.459243043659626
 31
0.0
  0
LINE
  5
13295
  8
DANMEN
  6
CONTINUOUS
 10
193.7357727650685
 20
-74.809249043659619
 30
0.0
 11
200.4357857650684
 21
-74.809249043659619
 31
0.0
  0
ARC
  5
13296
  8
DANMEN
  6
CONTINUOUS
 10
193.2357727650685
 20
-70.959243043659626
 30
0.0
 40
0.5
 50
359.9999809999992
 51
89.999963000000179
  0
LINE
  5
13297
  8
DANMEN
  6
CONTINUOUS
 10
192.58577876506831
 20
-70.459243043659626
 30
0.0
 11
193.2357727650685
 21
-70.459243043659626
 31
0.0
  0
LINE
  5
13298
  8
DANMEN
  6
CONTINUOUS
 10
193.7357727650685
 20
-70.959243043659626
 30
0.0
 11
193.7357727650685
 21
-74.809249043659619
 31
0.0
  0
ARC
  5
13299
  8
DANMEN
  6
CONTINUOUS
 10
192.58577876506831
 20
-70.959243043659626
 30
0.0
 40
0.5
 50
89.999963000000179
 51
180.0000189999989
  0
ARC
  5
1329A
  8
DANMEN
  6
CONTINUOUS
 10
192.58577876506831
 20
-75.959243043659626
 30
0.0
 40
0.5
 50
180.0000189999989
 51
269.99998199999908
  0
LINE
  5
1329B
  8
DANMEN
  6
CONTINUOUS
 10
192.0857787650684
 20
-70.959243043659626
 30
0.0
 11
192.0857787650684
 21
-75.959243043659626
 31
0.0
  0
LINE
  5
1329C
  8
DANMEN
  6
CONTINUOUS
 10
204.0857787650684
 20
-75.35924604365961
 30
0.0
 11
204.0857787650684
 21
-74.809249043659619
 31
0.0
  0
LINE
  5
1329D
  8
DANMEN
  6
CONTINUOUS
 10
202.0857787650684
 20
-75.35924604365961
 30
0.0
 11
204.0857787650684
 21
-75.35924604365961
 31
0.0
  0
ARC
  5
1329E
  8
DANMEN
  6
CONTINUOUS
 10
216.5857787650684
 20
-75.309249043659591
 30
0.0
 40
0.5
 50
0.0
 51
90.0
  0
ARC
  5
1329F
  8
DANMEN
  6
CONTINUOUS
 10
216.5857787650684
 20
-75.959243043659626
 30
0.0
 40
0.5
 50
270.00003699999968
 51
0.0000190000006095
  0
LINE
  5
132A0
  8
DANMEN
  6
CONTINUOUS
 10
217.0857787650684
 20
-75.959243043659626
 30
0.0
 11
217.0857787650684
 21
-75.309249043659591
 31
0.0
  0
LINE
  5
132A1
  8
DANMEN
  6
CONTINUOUS
 10
234.08577876506831
 20
-18.95924304365959
 30
0.0
 11
234.08577876506831
 21
-20.75924304365968
 31
0.0
  0
LINE
  5
132A2
  8
DANMEN
  6
CONTINUOUS
 10
227.0857787650684
 20
-18.95924304365959
 30
0.0
 11
227.0857787650684
 21
-21.95924304365959
 31
0.0
  0
LINE
  5
132A3
  8
DANMEN
  6
CONTINUOUS
 10
235.43577876506839
 20
-16.109237043659611
 30
0.0
 11
235.43577876506839
 21
-20.95924304365959
 31
0.0
  0
LINE
  5
132A4
  8
DANMEN
  6
CONTINUOUS
 10
227.0857547650684
 20
-16.109237043659611
 30
0.0
 11
227.0857547650684
 21
-21.45924304365959
 31
0.0
  0
LINE
  5
132A5
  8
DANMEN
  6
CONTINUOUS
 10
226.0857667650684
 20
-16.109237043659611
 30
0.0
 11
226.0857667650684
 21
-21.45924304365959
 31
0.0
  0
LINE
  5
132A6
  8
DANMEN
  6
CONTINUOUS
 10
237.0857787650684
 20
-14.95924304365958
 30
0.0
 11
237.0857787650684
 21
-21.45924304365959
 31
0.0
  0
LINE
  5
132A7
  8
DANMEN
  6
CONTINUOUS
 10
202.0857787650684
 20
-16.109243043659589
 30
0.0
 11
202.0857787650684
 21
-50.809243043659713
 31
0.0
  0
LINE
  5
132A8
  8
DANMEN
  6
CONTINUOUS
 10
202.0857787650684
 20
-24.45924304365959
 30
0.0
 11
225.0857787650684
 21
-24.45924304365959
 31
0.0
  0
LINE
  5
132A9
  8
DANMEN
  6
CONTINUOUS
 10
218.3857787650683
 20
-48.759243043659708
 30
0.0
 11
214.48686276506839
 21
-48.759243043659708
 31
0.0
  0
ARC
  5
132AA
  8
DANMEN
  6
CONTINUOUS
 10
214.7963727650685
 20
-49.859243043659603
 30
0.0
 40
0.5
 50
233.4912080000004
 51
270.0
  0
LINE
  5
132AB
  8
DANMEN
  6
CONTINUOUS
 10
213.0857787650684
 20
-46.959237043659577
 30
0.0
 11
214.6838377650684
 21
-46.639625043659699
 31
0.0
  0
LINE
  5
132AC
  8
DANMEN
  6
CONTINUOUS
 10
202.0857787650684
 20
-39.459243043659697
 30
0.0
 11
225.0857787650684
 21
-39.459243043659697
 31
0.0
  0
LINE
  5
132AD
  8
DANMEN
  6
CONTINUOUS
 10
217.0857787650684
 20
-52.459243043659612
 30
0.0
 11
202.0857787650684
 21
-52.459243043659612
 31
0.0
  0
LINE
  5
132AE
  8
DANMEN
  6
CONTINUOUS
 10
215.0857787650684
 20
-50.809243043659713
 30
0.0
 11
209.08577876506831
 21
-50.809243043659713
 31
0.0
  0
LINE
  5
132AF
  8
DANMEN
  6
CONTINUOUS
 10
215.0857787650684
 20
-45.759237043659581
 30
0.0
 11
208.0857787650684
 21
-45.759237043659581
 31
0.0
  0
LINE
  5
132B0
  8
DANMEN
  6
CONTINUOUS
 10
225.0857787650684
 20
-24.45924304365959
 30
0.0
 11
202.08577976506839
 21
-39.459243043659697
 31
0.0
  0
LINE
  5
132B1
  8
DANMEN
  6
CONTINUOUS
 10
202.0857787650684
 20
-24.45924304365959
 30
0.0
 11
202.0857787650684
 21
-39.459243043659697
 31
0.0
  0
LINE
  5
132B2
  8
DANMEN
  6
CONTINUOUS
 10
214.48686276506839
 20
-48.759243043659708
 30
0.0
 11
211.78488476506831
 21
-46.759243043659701
 31
0.0
  0
LINE
  5
132B3
  8
DANMEN
  6
CONTINUOUS
 10
214.49889976506839
 20
-50.261126043659687
 30
0.0
 11
211.52187376506851
 21
-48.057535043659591
 31
0.0
  0
LINE
  5
132B4
  8
DANMEN
  6
CONTINUOUS
 10
209.08577876506831
 20
-46.959237043659577
 30
0.0
 11
209.08577876506831
 21
-50.809243043659713
 31
0.0
  0
ARC
  5
132B5
  8
DANMEN
  6
CONTINUOUS
 10
210.32824976506839
 20
-48.359379043659743
 30
0.0
 40
0.5
 50
270.0
 51
325.29737799999918
  0
ARC
  5
132B6
  8
DANMEN
  6
CONTINUOUS
 10
210.0848847650683
 20
-48.359379043659743
 30
0.0
 40
0.5
 50
180.0
 51
270.0
  0
LINE
  5
132B7
  8
DANMEN
  6
CONTINUOUS
 10
207.58577876506831
 20
-46.259237043659581
 30
0.0
 11
207.58577876506831
 21
-50.809243043659713
 31
0.0
  0
LINE
  5
132B8
  8
DANMEN
  6
CONTINUOUS
 10
207.58577876506831
 20
-50.809243043659713
 30
0.0
 11
202.0857787650684
 21
-50.809243043659713
 31
0.0
  0
LINE
  5
132B9
  8
DANMEN
  6
CONTINUOUS
 10
210.0848847650683
 20
-48.859379043659743
 30
0.0
 11
210.32824976506839
 21
-48.859379043659743
 31
0.0
  0
ARC
  5
132BA
  8
DANMEN
  6
CONTINUOUS
 10
208.0857787650684
 20
-46.259237043659581
 30
0.0
 40
0.5
 50
90.0
 51
180.0
  0
LINE
  5
132BB
  8
DANMEN
  6
CONTINUOUS
 10
209.67382576506839
 20
-48.074851043659699
 30
0.0
 11
210.58488476506841
 21
-46.759243043659701
 31
0.0
  0
LINE
  5
132BC
  8
DANMEN
  6
CONTINUOUS
 10
210.7393077650683
 20
-48.644037043659608
 30
0.0
 11
211.0967547650684
 21
-48.127870043659691
 31
0.0
  0
LINE
  5
132BD
  8
DANMEN
  6
CONTINUOUS
 10
209.58488476506841
 20
-48.359509043659621
 30
0.0
 11
209.58488476506841
 21
-48.359379043659743
 31
0.0
  0
ARC
  5
132BE
  8
DANMEN
  6
CONTINUOUS
 10
210.0848847650683
 20
-48.359509043659621
 30
0.0
 40
0.5
 50
145.29737799999941
 51
180.0
  0
ARC
  5
132BF
  8
DANMEN
  6
CONTINUOUS
 10
211.34338976506851
 20
-48.298665043659611
 30
0.0
 40
0.3
 50
53.491208000000512
 51
145.29737799999941
  0
LINE
  5
132C0
  8
DANMEN
  6
CONTINUOUS
 10
211.78488476506831
 20
-46.759243043659701
 30
0.0
 11
210.58488476506841
 21
-46.759243043659701
 31
0.0
  0
LINE
  5
132C1
  8
DANMEN
  6
CONTINUOUS
 10
213.0857787650684
 20
-46.959237043659577
 30
0.0
 11
209.08577876506831
 21
-46.959237043659577
 31
0.0
  0
ARC
  5
132C2
  8
DANMEN
  6
CONTINUOUS
 10
231.4220577650685
 20
-37.874668043659689
 30
0.0
 40
2.336276999999999
 50
147.3151040000003
 51
208.23492699999861
  0
LINE
  5
132C3
  8
DANMEN
  6
CONTINUOUS
 10
238.3505707650684
 20
-42.282326043659609
 30
0.0
 11
239.15478976506839
 21
-35.136160043659601
 31
0.0
  0
LINE
  5
132C4
  8
DANMEN
  6
CONTINUOUS
 10
225.0857787650684
 20
-24.45924304365959
 30
0.0
 11
225.0857787650684
 21
-39.459243043659697
 31
0.0
  0
LINE
  5
132C5
  8
DANMEN
  6
CONTINUOUS
 10
237.0857787650684
 20
-41.95924304365969
 30
0.0
 11
233.38577976506841
 21
-41.95924304365969
 31
0.0
  0
LINE
  5
132C6
  8
DANMEN
  6
CONTINUOUS
 10
236.58577476506841
 20
-41.95924304365969
 30
0.0
 11
232.0857767650684
 21
-41.95924304365969
 31
0.0
  0
LINE
  5
132C7
  8
DANMEN
  6
CONTINUOUS
 10
236.58577476506841
 20
-52.459243043659612
 30
0.0
 11
217.0857787650684
 21
-52.459243043659612
 31
0.0
  0
LINE
  5
132C8
  8
DANMEN
  6
CONTINUOUS
 10
235.13577676506841
 20
-50.509243043659609
 30
0.0
 11
219.38577876506841
 21
-50.509243043659609
 31
0.0
  0
LINE
  5
132C9
  8
DANMEN
  6
CONTINUOUS
 10
235.13577676506841
 20
-43.459243043659598
 30
0.0
 11
226.5857767650684
 21
-43.459243043659598
 31
0.0
  0
LINE
  5
132CA
  8
DANMEN
  6
CONTINUOUS
 10
217.38577876506841
 20
-50.959243043659683
 30
0.0
 11
217.0857787650684
 21
-50.959243043659683
 31
0.0
  0
LINE
  5
132CB
  8
DANMEN
  6
CONTINUOUS
 10
217.38577876506841
 20
-49.959243043659711
 30
0.0
 11
215.38577876506841
 21
-49.959243043659711
 31
0.0
  0
ARC
  5
132CC
  8
DANMEN
  6
CONTINUOUS
 10
216.5857787650684
 20
-50.768260043659588
 30
0.0
 40
0.5
 50
0.0
 51
63.434949000000429
  0
LINE
  5
132CD
  8
DANMEN
  6
CONTINUOUS
 10
216.08577876506831
 20
-49.959243043659711
 30
0.0
 11
216.80938576506841
 21
-50.321046043659699
 31
0.0
  0
ARC
  5
132CE
  8
DANMEN
  6
CONTINUOUS
 10
215.38577876506841
 20
-50.259243043659609
 30
0.0
 40
0.3
 50
90.0
 51
160.52877900000021
  0
LINE
  5
132CF
  8
DANMEN
  6
CONTINUOUS
 10
215.0857787650684
 20
-50.809243043659713
 30
0.0
 11
215.0857787650684
 21
-50.259243043659609
 31
0.0
  0
LINE
  5
132D0
  8
DANMEN
  6
CONTINUOUS
 10
214.82009376506841
 20
-50.359243043659603
 30
0.0
 11
214.7963727650685
 21
-50.359243043659603
 31
0.0
  0
ARC
  5
132D1
  8
DANMEN
  6
CONTINUOUS
 10
215.38577876506841
 20
-50.259243043659609
 30
0.0
 40
0.3
 50
90.0
 51
180.0
  0
ARC
  5
132D2
  8
DANMEN
  6
CONTINUOUS
 10
214.82009376506841
 20
-50.05924304365962
 30
0.0
 40
0.3
 50
270.0
 51
340.52877900000021
  0
LINE
  5
132D3
  8
DANMEN
  6
CONTINUOUS
 10
215.38577876506841
 20
-49.959243043659711
 30
0.0
 11
216.08577876506831
 21
-49.959243043659711
 31
0.0
  0
LINE
  5
132D4
  8
DANMEN
  6
CONTINUOUS
 10
217.0857787650684
 20
-50.768260043659588
 30
0.0
 11
217.0857787650684
 21
-52.459243043659612
 31
0.0
  0
LINE
  5
132D5
  8
DANMEN
  6
CONTINUOUS
 10
217.0857787650684
 20
-52.459243043659612
 30
0.0
 11
217.0857787650684
 21
-50.959243043659683
 31
0.0
  0
LINE
  5
132D6
  8
DANMEN
  6
CONTINUOUS
 10
218.88577876506841
 20
-50.009243043659708
 30
0.0
 11
218.88577876506841
 21
-49.259243043659609
 31
0.0
  0
ARC
  5
132D7
  8
DANMEN
  6
CONTINUOUS
 10
218.3857787650683
 20
-49.259243043659609
 30
0.0
 40
0.5
 50
0.0
 51
90.0
  0
ARC
  5
132D8
  8
DANMEN
  6
CONTINUOUS
 10
219.38577876506841
 20
-50.009243043659708
 30
0.0
 40
0.5
 50
180.0
 51
270.0
  0
LINE
  5
132D9
  8
DANMEN
  6
CONTINUOUS
 10
217.38577876506841
 20
-50.959243043659683
 30
0.0
 11
217.38577876506841
 21
-49.959243043659711
 31
0.0
  0
LINE
  5
132DA
  8
DANMEN
  6
CONTINUOUS
 10
215.0857787650684
 20
-46.149335043659697
 30
0.0
 11
215.0857787650684
 21
-45.759237043659581
 31
0.0
  0
ARC
  5
132DB
  8
DANMEN
  6
CONTINUOUS
 10
214.5857787650684
 20
-46.149335043659697
 30
0.0
 40
0.5
 50
281.30993199999909
 51
0.0
  0
LINE
  5
132DC
  8
DANMEN
  6
CONTINUOUS
 10
233.38577976506841
 20
-41.959244043659602
 30
0.0
 11
233.08578076506839
 21
-40.959244043659609
 31
0.0
  0
LINE
  5
132DD
  8
DANMEN
  6
CONTINUOUS
 10
232.0857767650684
 20
-42.459243043659612
 30
0.0
 11
232.0857767650684
 21
-41.95924304365969
 31
0.0
  0
LINE
  5
132DE
  8
DANMEN
  6
CONTINUOUS
 10
232.0803197650684
 20
-42.559242043659687
 30
0.0
 11
231.28578076506861
 21
-42.559242043659687
 31
0.0
  0
LINE
  5
132DF
  8
DANMEN
  6
CONTINUOUS
 10
231.22115176506841
 20
-40.959243043659683
 30
0.0
 11
232.0803197650684
 21
-42.559242043659687
 31
0.0
  0
LINE
  5
132E0
  8
DANMEN
  6
CONTINUOUS
 10
233.08577976506839
 20
-40.959243043659683
 30
0.0
 11
231.22115176506841
 21
-40.959243043659683
 31
0.0
  0
LINE
  5
132E1
  8
DANMEN
  6
CONTINUOUS
 10
227.08577676506849
 20
-41.95924304365969
 30
0.0
 11
226.5857767650684
 21
-41.95924304365969
 31
0.0
  0
ARC
  5
132E2
  8
DANMEN
  6
CONTINUOUS
 10
226.5857767650684
 20
-42.959243043659697
 30
0.0
 40
0.5
 50
180.0
 51
270.0
  0
LINE
  5
132E3
  8
DANMEN
  6
CONTINUOUS
 10
226.0857767650684
 20
-42.959243043659697
 30
0.0
 11
226.0857767650684
 21
-42.459243043659612
 31
0.0
  0
ARC
  5
132E4
  8
DANMEN
  6
CONTINUOUS
 10
226.5857767650684
 20
-42.459243043659612
 30
0.0
 40
0.5
 50
90.0
 51
180.0
  0
LINE
  5
132E5
  8
DANMEN
  6
CONTINUOUS
 10
227.08577676506849
 20
-42.459243043659612
 30
0.0
 11
227.08577676506849
 21
-41.95924304365969
 31
0.0
  0
LINE
  5
132E6
  8
DANMEN
  6
CONTINUOUS
 10
231.28578076506861
 20
-42.559242043659687
 30
0.0
 11
229.36376276506849
 21
-38.979933043659607
 31
0.0
  0
LINE
  5
132E7
  8
DANMEN
  6
CONTINUOUS
 10
232.0857767650684
 20
-42.459243043659612
 30
0.0
 11
227.08577676506849
 21
-42.459243043659612
 31
0.0
  0
LINE
  5
132E8
  8
DANMEN
  6
CONTINUOUS
 10
235.13577676506841
 20
-50.509243043659609
 30
0.0
 11
235.13577676506841
 21
-43.459243043659598
 31
0.0
  0
LINE
  5
132E9
  8
DANMEN
  6
CONTINUOUS
 10
237.0857767650684
 20
-51.959243043659697
 30
0.0
 11
237.0857767650684
 21
-42.459243043659612
 31
0.0
  0
ARC
  5
132EA
  8
DANMEN
  6
CONTINUOUS
 10
236.5857767650684
 20
-51.959243043659697
 30
0.0
 40
0.5
 50
269.99987199999941
 51
359.99990899999921
  0
ARC
  5
132EB
  8
DANMEN
  6
CONTINUOUS
 10
236.5857767650684
 20
-42.459243043659612
 30
0.0
 40
0.5
 50
0.0
 51
90.0
  0
LINE
  5
132EC
  8
DANMEN
  6
CONTINUOUS
 10
237.08577976506839
 20
-43.159242043659603
 30
0.0
 11
236.7857807650683
 21
-43.459242043659607
 31
0.0
  0
LINE
  5
132ED
  8
DANMEN
  6
CONTINUOUS
 10
237.0857787650684
 20
-41.95924304365969
 30
0.0
 11
237.0857787650684
 21
-43.159242043659603
 31
0.0
  0
ARC
  5
132EE
  8
DANMEN
  6
CONTINUOUS
 10
236.8857787650683
 20
-41.95924304365969
 30
0.0
 40
1.5
 50
270.0
 51
347.56167799999918
  0
LINE
  5
132EF
  8
DANMEN
  6
CONTINUOUS
 10
236.8857787650683
 20
-43.459243043659598
 30
0.0
 11
236.7857797650685
 21
-43.459243043659598
 31
0.0
  0
LINE
  5
132F0
  8
DANMEN
  6
CONTINUOUS
 10
236.78577876506839
 20
-21.95924304365959
 30
0.0
 11
231.88577876506841
 21
-21.95924304365959
 31
0.0
  0
LINE
  5
132F1
  8
DANMEN
  6
CONTINUOUS
 10
232.08576376506829
 20
-21.95924304365959
 30
0.0
 11
236.5857787650684
 21
-21.95924304365959
 31
0.0
  0
LINE
  5
132F2
  8
DANMEN
  6
CONTINUOUS
 10
234.08577876506831
 20
-20.75924304365968
 30
0.0
 11
231.88577876506841
 21
-20.75924304365968
 31
0.0
  0
LINE
  5
132F3
  8
DANMEN
  6
CONTINUOUS
 10
232.58576376506841
 20
-20.95924304365959
 30
0.0
 11
235.43577876506839
 21
-20.95924304365959
 31
0.0
  0
LINE
  5
132F4
  8
DANMEN
  6
CONTINUOUS
 10
234.2857787650683
 20
-25.45924304365959
 30
0.0
 11
232.08577876506831
 21
-25.45924304365959
 31
0.0
  0
ARC
  5
132F5
  8
DANMEN
  6
CONTINUOUS
 10
232.2661357650685
 20
-33.958867043659609
 30
0.0
 40
2.0
 50
270.00000899999952
 51
324.56506599999881
  0
LINE
  5
132F6
  8
DANMEN
  6
CONTINUOUS
 10
225.0857787650684
 20
-27.95924304365959
 30
0.0
 11
225.0857787650684
 21
-35.959243043659612
 31
0.0
  0
ARC
  5
132F7
  8
DANMEN
  6
CONTINUOUS
 10
231.4317017650684
 20
-34.45924304365969
 30
0.0
 40
0.5
 50
90.0
 51
147.31506099999919
  0
ARC
  5
132F8
  8
DANMEN
  6
CONTINUOUS
 10
233.0829127650685
 20
-35.459243043659697
 30
0.0
 40
1.5
 50
90.0
 51
154.44008399999899
  0
LINE
  5
132F9
  8
DANMEN
  6
CONTINUOUS
 10
231.4317017650684
 20
-33.959243043659612
 30
0.0
 11
233.0829127650685
 21
-33.959243043659612
 31
0.0
  0
ARC
  5
132FA
  8
DANMEN
  6
CONTINUOUS
 10
231.97461076506841
 20
-35.458867043659708
 30
0.0
 40
0.5
 50
154.44008399999899
 51
269.9999830000005
  0
LINE
  5
132FB
  8
DANMEN
  6
CONTINUOUS
 10
232.2661357650685
 20
-35.958867043659609
 30
0.0
 11
231.97461076506841
 21
-35.958867043659609
 31
0.0
  0
LINE
  5
132FC
  8
DANMEN
  6
CONTINUOUS
 10
231.5235427650683
 20
-35.243140043659601
 30
0.0
 11
231.7297107650684
 21
-34.81206104365959
 31
0.0
  0
LINE
  5
132FD
  8
DANMEN
  6
CONTINUOUS
 10
229.4557237650684
 20
-36.613032043659601
 30
0.0
 11
231.01087576506839
 21
-34.189233043659591
 31
0.0
  0
ARC
  5
132FE
  8
DANMEN
  6
CONTINUOUS
 10
231.5857787650684
 20
-25.45924304365959
 30
0.0
 40
0.5
 50
180.0000179999991
 51
359.99998199999902
  0
LINE
  5
132FF
  8
DANMEN
  6
CONTINUOUS
 10
232.08576376506829
 20
-21.45924304365959
 30
0.0
 11
232.08576376506829
 21
-21.95924304365959
 31
0.0
  0
LINE
  5
13300
  8
DANMEN
  6
CONTINUOUS
 10
231.88577876506841
 20
-20.75924304365968
 30
0.0
 11
231.88577876506841
 21
-21.95924304365959
 31
0.0
  0
ARC
  5
13301
  8
DANMEN
  6
CONTINUOUS
 10
232.58576376506841
 20
-21.45924304365959
 30
0.0
 40
0.5
 50
90.0
 51
180.0
  0
LINE
  5
13302
  8
DANMEN
  6
CONTINUOUS
 10
227.0857787650684
 20
-21.95924304365959
 30
0.0
 11
225.0857787650684
 21
-21.95924304365959
 31
0.0
  0
ARC
  5
13303
  8
DANMEN
  6
CONTINUOUS
 10
226.5857547650684
 20
-21.45924304365959
 30
0.0
 40
0.5
 50
270.0
 51
0.0
  0
LINE
  5
13304
  8
DANMEN
  6
CONTINUOUS
 10
228.45720776506829
 20
-23.159243043659671
 30
0.0
 11
225.0857787650684
 21
-23.159243043659671
 31
0.0
  0
LINE
  5
13305
  8
DANMEN
  6
CONTINUOUS
 10
225.0857787650684
 20
-21.95924304365959
 30
0.0
 11
225.0857787650684
 21
-23.159243043659671
 31
0.0
  0
LINE
  5
13306
  8
DANMEN
  6
CONTINUOUS
 10
226.5857547650684
 20
-21.95924304365959
 30
0.0
 11
226.5857667650684
 21
-21.95924304365959
 31
0.0
  0
ARC
  5
13307
  8
DANMEN
  6
CONTINUOUS
 10
226.5857667650684
 20
-21.45924304365959
 30
0.0
 40
0.5
 50
180.0
 51
270.0
  0
LINE
  5
13308
  8
DANMEN
  6
CONTINUOUS
 10
231.0857787650684
 20
-25.4592420436596
 30
0.0
 11
228.45720776506829
 21
-23.15924204365967
 31
0.0
  0
LINE
  5
13309
  8
DANMEN
  6
CONTINUOUS
 10
236.76826476506841
 20
-33.959243043659612
 30
0.0
 11
234.97841076506839
 21
-33.959243043659612
 31
0.0
  0
ARC
  5
1330A
  8
DANMEN
  6
CONTINUOUS
 10
236.76826476506841
 20
-35.459243043659697
 30
0.0
 40
1.5
 50
89.999963999999963
 51
151.69006900000051
  0
LINE
  5
1330B
  8
DANMEN
  6
CONTINUOUS
 10
236.56470776506839
 20
-35.958867043659609
 30
0.0
 11
235.6326127650683
 21
-35.958867043659609
 31
0.0
  0
ARC
  5
1330C
  8
DANMEN
  6
CONTINUOUS
 10
234.97841076506839
 20
-34.45924304365969
 30
0.0
 40
0.5
 50
89.999963999999963
 51
144.5650889999996
  0
LINE
  5
1330D
  8
DANMEN
  6
CONTINUOUS
 10
235.19241476506841
 20
-35.22174704365969
 30
0.0
 11
235.44767076506841
 21
-34.747883043659598
 31
0.0
  0
LINE
  5
1330E
  8
DANMEN
  6
CONTINUOUS
 10
233.8956837650685
 20
-35.118423043659703
 30
0.0
 11
234.57102276506839
 21
-34.169355043659692
 31
0.0
  0
ARC
  5
1330F
  8
DANMEN
  6
CONTINUOUS
 10
235.6326127650683
 20
-35.458867043659708
 30
0.0
 40
0.5
 50
151.69008599999901
 51
269.9999540000004
  0
ARC
  5
13310
  8
DANMEN
  6
CONTINUOUS
 10
238.6261667650684
 20
-34.45924304365969
 30
0.0
 40
0.5
 50
90.000091000000694
 51
165.96381499999859
  0
LINE
  5
13311
  8
DANMEN
  6
CONTINUOUS
 10
238.1410947650684
 20
-34.337976043659609
 30
0.0
 11
238.0199217650684
 21
-34.822670043659699
 31
0.0
  0
ARC
  5
13312
  8
DANMEN
  6
CONTINUOUS
 10
236.56470776506839
 20
-34.458867043659708
 30
0.0
 40
1.5
 50
270.0
 51
345.96377900000073
  0
ARC
  5
13313
  8
DANMEN
  6
CONTINUOUS
 10
240.6195817650684
 20
-35.459243043659697
 30
0.0
 40
1.5
 50
90.000036000000037
 51
167.5616779999994
  0
LINE
  5
13314
  8
DANMEN
  6
CONTINUOUS
 10
240.6195817650684
 20
-33.959243043659612
 30
0.0
 11
238.6261667650684
 21
-33.959243043659612
 31
0.0
  0
LINE
  5
13315
  8
DANMEN
  6
CONTINUOUS
 10
237.0351317650684
 20
-25.45924304365959
 30
0.0
 11
234.8857787650683
 21
-25.45924304365959
 31
0.0
  0
ARC
  5
13316
  8
DANMEN
  6
CONTINUOUS
 10
234.58577876506831
 20
-25.759243043659691
 30
0.0
 40
0.2
 50
196.87451899999971
 51
343.12548099999992
  0
LINE
  5
13317
  8
DANMEN
  6
CONTINUOUS
 10
234.7771677650685
 20
-25.817298043659601
 30
0.0
 11
234.8857787650683
 21
-25.45924304365959
 31
0.0
  0
LINE
  5
13318
  8
DANMEN
  6
CONTINUOUS
 10
234.39439076506861
 20
-25.817298043659601
 30
0.0
 11
234.2857797650685
 21
-25.4592420436596
 31
0.0
  0
LINE
  5
13319
  8
DANMEN
  6
CONTINUOUS
 10
237.0857787650684
 20
-21.659243043659611
 30
0.0
 11
237.3884107650685
 21
-26.259244043659599
 31
0.0
  0
LINE
  5
1331A
  8
DANMEN
  6
CONTINUOUS
 10
237.0857787650684
 20
-21.65924204365967
 30
0.0
 11
236.78577876506839
 21
-21.95924304365959
 31
0.0
  0
LINE
  5
1331B
  8
DANMEN
  6
CONTINUOUS
 10
237.3884117650683
 20
-26.259244043659599
 30
0.0
 11
237.08562976506829
 21
-26.22683304365961
 31
0.0
  0
LINE
  5
1331C
  8
DANMEN
  6
CONTINUOUS
 10
237.03512976506829
 20
-25.4592420436596
 30
0.0
 11
237.08562976506829
 21
-26.22683304365961
 31
0.0
  0
ARC
  5
1331D
  8
DANMEN
  6
CONTINUOUS
 10
236.5857787650684
 20
-21.45924304365959
 30
0.0
 40
0.5
 50
270.0
 51
359.99998199999902
  0
LINE
  5
1331E
  8
SUNPO
  6
CONTINUOUS
 10
192.0857787650684
 20
3.5407569563404011
 30
0.0
 11
217.0857787650684
 21
3.5407569563404011
 31
0.0
  0
LINE
  5
1331F
  8
DANMEN
  6
CONTINUOUS
 10
202.0857787650684
 20
-16.109243043659589
 30
0.0
 11
226.0857667650684
 21
-16.109243043659589
 31
0.0
  0
LINE
  5
13320
  8
DANMEN
  6
CONTINUOUS
 10
202.0857787650684
 20
-14.45924304365958
 30
0.0
 11
236.58577976506839
 21
-14.45924304365958
 31
0.0
  0
LINE
  5
13321
  8
DANMEN
  6
CONTINUOUS
 10
192.58577876506831
 20
-6.4592430436595958
 30
0.0
 11
216.5857787650684
 21
-6.4592430436595958
 31
0.0
  0
LINE
  5
13322
  8
DANMEN
  6
CONTINUOUS
 10
204.0857787650684
 20
-8.1092370436596184
 30
0.0
 11
216.5857787650684
 21
-8.1092370436596184
 31
0.0
  0
LINE
  5
13323
  8
SUNPO
  6
CONTINUOUS
 10
192.0857787650684
 20
-4.9592430436595958
 30
0.0
 11
192.0857787650684
 21
3.5407569563404011
 31
0.0
  0
LINE
  5
13324
  8
DANMEN
  6
CONTINUOUS
 10
193.7357727650685
 20
-8.1092370436596184
 30
0.0
 11
200.4357857650684
 21
-8.1092370436596184
 31
0.0
  0
LINE
  5
13325
  8
DANMEN
  6
CONTINUOUS
 10
193.7357727650685
 20
-8.1092370436596184
 30
0.0
 11
193.7357727650685
 21
-11.95924304365958
 31
0.0
  0
LINE
  5
13326
  8
DANMEN
  6
CONTINUOUS
 10
192.0857787650684
 20
-6.9592430436595958
 30
0.0
 11
192.0857787650684
 21
-11.95924304365958
 31
0.0
  0
ARC
  5
13327
  8
DANMEN
  6
CONTINUOUS
 10
193.2357727650685
 20
-11.95924304365958
 30
0.0
 40
0.5
 50
269.99999900000012
 51
359.9999809999992
  0
LINE
  5
13328
  8
DANMEN
  6
CONTINUOUS
 10
192.58577876506831
 20
-12.45924304365958
 30
0.0
 11
193.2357727650685
 21
-12.45924304365958
 31
0.0
  0
ARC
  5
13329
  8
DANMEN
  6
CONTINUOUS
 10
192.58577876506831
 20
-11.95924304365958
 30
0.0
 40
0.5
 50
180.0000189999989
 51
269.99998199999908
  0
ARC
  5
1332A
  8
DANMEN
  6
CONTINUOUS
 10
192.58577876506831
 20
-6.9592430436595958
 30
0.0
 40
0.5
 50
90.000018000000836
 51
180.0
  0
LINE
  5
1332B
  8
DANMEN
  6
CONTINUOUS
 10
202.0857787650684
 20
-7.5592400436595977
 30
0.0
 11
202.0857787650684
 21
-14.45924304365958
 31
0.0
  0
LINE
  5
1332C
  8
DANMEN
  6
CONTINUOUS
 10
204.0857787650684
 20
-7.5592400436595977
 30
0.0
 11
204.0857787650684
 21
-8.1092370436596184
 31
0.0
  0
LINE
  5
1332D
  8
DANMEN
  6
CONTINUOUS
 10
202.0857787650684
 20
-7.5592400436595977
 30
0.0
 11
204.0857787650684
 21
-7.5592400436595977
 31
0.0
  0
ARC
  5
1332E
  8
SUNPO
  6
BYBLOCK
 10
192.0857787650684
 20
3.5407569563404011
 30
0.0
 40
0.145
 50
0.0
 51
180.0
  0
ARC
  5
1332F
  8
SUNPO
  6
BYBLOCK
 10
192.0857787650684
 20
3.5407569563404011
 30
0.0
 40
0.145
 50
180.0
 51
0.0
  0
TEXT
  5
13330
  8
SUNPO
  6
CONTINUOUS
 10
202.5024457650685
 20
4.5407569563404007
 30
0.0
 40
2.5
  1
25
  0
LINE
  5
13331
  8
SUNPO
  6
CONTINUOUS
 10
217.0857787650684
 20
-4.9592430436595958
 30
0.0
 11
217.0857787650684
 21
3.5407569563404011
 31
0.0
  0
LINE
  5
13332
  8
SUNPO
  6
CONTINUOUS
 10
237.0857787650684
 20
-4.9592430436595958
 30
0.0
 11
237.0857787650684
 21
3.5407569563404011
 31
0.0
  0
LINE
  5
13333
  8
DANMEN
  6
CONTINUOUS
 10
227.0857547650684
 20
-16.109237043659611
 30
0.0
 11
235.43577876506839
 21
-16.109237043659611
 31
0.0
  0
LINE
  5
13334
  8
DANMEN
  6
CONTINUOUS
 10
234.08577876506831
 20
-18.95924304365959
 30
0.0
 11
227.0857787650684
 21
-18.95924304365959
 31
0.0
  0
ARC
  5
13335
  8
DANMEN
  6
CONTINUOUS
 10
216.5857787650684
 20
-6.9592430436595958
 30
0.0
 40
0.5
 50
359.9999809999992
 51
89.999963000000179
  0
ARC
  5
13336
  8
DANMEN
  6
CONTINUOUS
 10
216.5857787650684
 20
-7.6092370436596166
 30
0.0
 40
0.5
 50
270.0
 51
0.0
  0
LINE
  5
13337
  8
DANMEN
  6
CONTINUOUS
 10
217.0857787650684
 20
-6.9592430436595958
 30
0.0
 11
217.0857787650684
 21
-7.6092370436596166
 31
0.0
  0
ARC
  5
13338
  8
DANMEN
  6
CONTINUOUS
 10
236.5857787650684
 20
-14.95924304365958
 30
0.0
 40
0.5
 50
359.99994499999917
 51
89.999980999999394
  0
LINE
  5
13339
  8
SUNPO
  6
CONTINUOUS
 10
217.0857787650684
 20
3.5407569563404011
 30
0.0
 11
237.0857787650684
 21
3.5407569563404011
 31
0.0
  0
ARC
  5
1333A
  8
SUNPO
  6
BYBLOCK
 10
217.0857787650684
 20
3.5407569563404011
 30
0.0
 40
0.145
 50
0.0
 51
180.0
  0
ARC
  5
1333B
  8
SUNPO
  6
BYBLOCK
 10
217.0857787650684
 20
3.5407569563404011
 30
0.0
 40
0.145
 50
180.0
 51
0.0
  0
ARC
  5
1333C
  8
SUNPO
  6
BYBLOCK
 10
217.0857787650684
 20
3.5407569563404011
 30
0.0
 40
0.145
 50
180.0
 51
0.0
  0
ARC
  5
1333D
  8
SUNPO
  6
BYBLOCK
 10
217.0857787650684
 20
3.5407569563404011
 30
0.0
 40
0.145
 50
0.0
 51
180.0
  0
TEXT
  5
1333E
  8
SUNPO
  6
CONTINUOUS
 10
225.21077876506831
 20
4.5407569563404007
 30
0.0
 40
2.5
  1
20
  0
ARC
  5
1333F
  8
SUNPO
  6
BYBLOCK
 10
237.0857787650684
 20
3.5407569563404011
 30
0.0
 40
0.145
 50
180.0
 51
0.0
  0
ARC
  5
13340
  8
SUNPO
  6
BYBLOCK
 10
237.0857787650684
 20
3.5407569563404011
 30
0.0
 40
0.145
 50
0.0
 51
180.0
  0
LINE
  5
13341
  8
DANMEN
  6
CONTINUOUS
 10
352.08577676506849
 20
-52.459243043659612
 30
0.0
 11
352.08577676506849
 21
-75.35924604365961
 31
0.0
  0
LINE
  5
13342
  8
SUNPO
  6
CONTINUOUS
 10
289.08577776506843
 20
-52.459243043659612
 30
0.0
 11
289.08577776506843
 21
-76.459243043659626
 31
0.0
  0
LINE
  5
13343
  8
DANMEN
  6
CONTINUOUS
 10
353.73576976506848
 20
-8.1092370436596184
 30
0.0
 11
353.73576976506848
 21
-74.809249043659619
 31
0.0
  0
LINE
  5
13344
  8
SUNPO
  6
CONTINUOUS
 10
265.08577776506843
 20
-76.459243043659626
 30
0.0
 11
265.08577776506843
 21
-6.4592430436595958
 31
0.0
  0
LINE
  5
13345
  8
DANMEN
  6
CONTINUOUS
 10
279.08577776506849
 20
-72.959243043659626
 30
0.0
 11
352.08577676506849
 21
-72.959243043659626
 31
0.0
  0
LINE
  5
13346
  8
DANMEN
  6
CONTINUOUS
 10
279.08577776506849
 20
-76.459243043659626
 30
0.0
 11
337.58577776506831
 21
-76.459243043659626
 31
0.0
  0
LINE
  5
13347
  8
SUNPO
  6
CONTINUOUS
 10
337.08577776506843
 20
-116.4592430436595
 30
0.0
 11
317.08577676506832
 21
-116.4592430436595
 31
0.0
  0
LINE
  5
13348
  8
SUNPO
  6
CONTINUOUS
 10
292.08577776506843
 20
-126.4592430436596
 30
0.0
 11
337.08577776506843
 21
-126.4592430436596
 31
0.0
  0
TEXT
  5
13349
  8
SUNPO
  6
CONTINUOUS
 10
325.21077676506837
 20
-115.4592430436595
 30
0.0
 40
2.5
  1
20
  0
LINE
  5
1334A
  8
SUNPO
  6
CONTINUOUS
 10
317.08577676506832
 20
-77.959243043659626
 30
0.0
 11
317.08577676506832
 21
-116.4592430436595
 31
0.0
  0
LINE
  5
1334B
  8
SUNPO
  6
CONTINUOUS
 10
274.27189076506829
 20
-129.9592430436596
 30
0.0
 11
269.79435976506841
 21
-129.9592430436596
 31
0.0
  0
LINE
  5
1334C
  8
SUNPO
  6
CONTINUOUS
 10
273.2718917650684
 20
-129.9592430436596
 30
0.0
 11
269.2304457650684
 21
-122.9592460436595
 31
0.0
  0
LINE
  5
1334D
  8
SUNPO
  6
CONTINUOUS
 10
270.96255376506832
 20
-129.9592420436596
 30
0.0
 11
266.92110876506842
 21
-122.9592460436595
 31
0.0
  0
LINE
  5
1334E
  8
SUNPO
  6
CONTINUOUS
 10
270.19211776506842
 20
-122.9592430436595
 30
0.0
 11
265.81676776506839
 21
-122.9592430436595
 31
0.0
  0
LINE
  5
1334F
  8
SUNPO
  6
CONTINUOUS
 10
277.31333776506841
 20
-129.9592420436596
 30
0.0
 11
273.2718917650684
 21
-122.95924504365961
 31
0.0
  0
LINE
  5
13350
  8
SUNPO
  6
CONTINUOUS
 10
273.27189076506841
 20
-122.9592430436595
 30
0.0
 11
273.27189076506841
 21
-129.9592420436596
 31
0.0
  0
LINE
  5
13351
  8
SUNPO
  6
CONTINUOUS
 10
279.62273876506839
 20
-122.9592430436595
 30
0.0
 11
279.62273876506839
 21
-129.95924004365961
 31
0.0
  0
LINE
  5
13352
  8
SUNPO
  6
CONTINUOUS
 10
279.6227367650684
 20
-129.95923904365949
 30
0.0
 11
275.58129276506838
 21
-122.9592460436595
 31
0.0
  0
LINE
  5
13353
  8
SUNPO
  6
CONTINUOUS
 10
280.20008776506842
 20
-129.9592430436596
 30
0.0
 11
276.62233976506838
 21
-129.9592430436596
 31
0.0
  0
LINE
  5
13354
  8
SUNPO
  6
CONTINUOUS
 10
288.35478776506852
 20
-127.9592430436595
 30
0.0
 11
283.35478776506852
 21
-127.9592430436595
 31
0.0
  0
LINE
  5
13355
  8
SUNPO
  6
CONTINUOUS
 10
280.58158276506828
 20
-122.9592430436595
 30
0.0
 11
278.54506276506839
 21
-122.9592430436595
 31
0.0
  0
LINE
  5
13356
  8
SUNPO
  6
CONTINUOUS
 10
276.5812917650685
 20
-122.9592430436595
 30
0.0
 11
272.27189076506829
 21
-122.9592430436595
 31
0.0
  0
LINE
  5
13357
  8
SUNPO
  6
CONTINUOUS
 10
288.35478776506852
 20
-124.9592430436595
 30
0.0
 11
283.35478776506852
 21
-124.9592430436595
 31
0.0
  0
ARC
  5
13358
  8
SUNPO
  6
BYBLOCK
 10
317.08577676506832
 20
-116.4592430436595
 30
0.0
 40
0.145
 50
0.0
 51
180.0
  0
ARC
  5
13359
  8
SUNPO
  6
BYBLOCK
 10
317.08577676506832
 20
-116.4592430436595
 30
0.0
 40
0.145
 50
180.0
 51
0.0
  0
ARC
  5
1335A
  8
SUNPO
  6
BYBLOCK
 10
265.08577776506843
 20
-76.459243043659626
 30
0.0
 40
0.145
 50
90.0
 51
270.0
  0
ARC
  5
1335B
  8
SUNPO
  6
BYBLOCK
 10
265.08577776506843
 20
-76.459243043659626
 30
0.0
 40
0.145
 50
270.0
 51
90.0
  0
ARC
  5
1335C
  8
SUNPO
  6
BYBLOCK
 10
289.08577776506843
 20
-76.459243043659626
 30
0.0
 40
0.145
 50
90.0
 51
270.0
  0
ARC
  5
1335D
  8
SUNPO
  6
BYBLOCK
 10
289.08577776506843
 20
-76.459243043659626
 30
0.0
 40
0.145
 50
270.0
 51
90.0
  0
TEXT
  5
1335E
  8
SUNPO
  6
CONTINUOUS
 10
288.08577776506843
 20
-66.542576043659608
 30
0.0
 40
2.5
  1
24
 50
90.0
  0
LINE
  5
1335F
  8
SUNPO
  6
CONTINUOUS
 10
352.08577676506849
 20
-77.959243043659626
 30
0.0
 11
352.08577676506849
 21
-116.4592430436595
 31
0.0
  0
LINE
  5
13360
  8
SUNPO
  6
CONTINUOUS
 10
362.08577776506843
 20
-77.459243043659626
 30
0.0
 11
362.08577776506843
 21
-126.4592430436596
 31
0.0
  0
LINE
  5
13361
  8
SUNPO
  6
CONTINUOUS
 10
337.08577776506843
 20
-77.959243043659626
 30
0.0
 11
337.08577776506843
 21
-126.4592430436596
 31
0.0
  0
LINE
  5
13362
  8
SUNPO
  6
CONTINUOUS
 10
362.08577776506843
 20
-126.4592430436596
 30
0.0
 11
337.08577776506843
 21
-126.4592430436596
 31
0.0
  0
LINE
  5
13363
  8
SUNPO
  6
CONTINUOUS
 10
337.08577776506843
 20
-126.4592430436596
 30
0.0
 11
332.08577776506843
 21
-131.45924304365951
 31
0.0
  0
LINE
  5
13364
  8
SUNPO
  6
CONTINUOUS
 10
332.08577776506843
 20
-131.45924304365951
 30
0.0
 11
332.08577776506843
 21
-121.4592430436596
 31
0.0
  0
LINE
  5
13365
  8
SUNPO
  6
CONTINUOUS
 10
332.08577776506843
 20
-121.4592430436596
 30
0.0
 11
337.08577776506843
 21
-126.4592430436596
 31
0.0
  0
TEXT
  5
13366
  8
SUNPO
  6
CONTINUOUS
 10
347.5024447650685
 20
-125.4592430436596
 30
0.0
 40
2.5
  1
25
  0
ARC
  5
13367
  8
SUNPO
  6
BYBLOCK
 10
362.08577776506843
 20
-126.4592430436596
 30
0.0
 40
0.145
 50
180.0
 51
0.0
  0
ARC
  5
13368
  8
SUNPO
  6
BYBLOCK
 10
362.08577776506843
 20
-126.4592430436596
 30
0.0
 40
0.145
 50
0.0
 51
180.0
  0
LINE
  5
13369
  8
SUNPO
  6
CONTINUOUS
 10
352.08577676506849
 20
-116.4592430436595
 30
0.0
 11
337.08577776506843
 21
-116.4592430436595
 31
0.0
  0
ARC
  5
1336A
  8
SUNPO
  6
BYBLOCK
 10
337.08577776506843
 20
-116.4592430436595
 30
0.0
 40
0.145
 50
0.0
 51
180.0
  0
ARC
  5
1336B
  8
SUNPO
  6
BYBLOCK
 10
337.08577776506843
 20
-116.4592430436595
 30
0.0
 40
0.145
 50
180.0
 51
0.0
  0
ARC
  5
1336C
  8
SUNPO
  6
BYBLOCK
 10
337.08577776506843
 20
-116.4592430436595
 30
0.0
 40
0.145
 50
180.0
 51
0.0
  0
ARC
  5
1336D
  8
SUNPO
  6
BYBLOCK
 10
337.08577776506843
 20
-116.4592430436595
 30
0.0
 40
0.145
 50
0.0
 51
180.0
  0
TEXT
  5
1336E
  8
SUNPO
  6
CONTINUOUS
 10
342.91911076506852
 20
-115.4592430436595
 30
0.0
 40
2.5
  1
15
  0
LINE
  5
1336F
  8
SUNPO
  6
CONTINUOUS
 10
352.08577676506849
 20
-116.4592430436595
 30
0.0
 11
362.08577776506843
 21
-116.4592430436595
 31
0.0
  0
TEXT
  5
13370
  8
SUNPO
  6
CONTINUOUS
 10
355.62744376506851
 20
-115.4592430436595
 30
0.0
 40
2.5
  1
10
  0
ARC
  5
13371
  8
SUNPO
  6
BYBLOCK
 10
352.08577676506849
 20
-116.4592430436595
 30
0.0
 40
0.145
 50
0.0
 51
180.0
  0
ARC
  5
13372
  8
SUNPO
  6
BYBLOCK
 10
352.08577676506849
 20
-116.4592430436595
 30
0.0
 40
0.145
 50
180.0
 51
0.0
  0
ARC
  5
13373
  8
SUNPO
  6
BYBLOCK
 10
352.08577676506849
 20
-116.4592430436595
 30
0.0
 40
0.145
 50
180.0
 51
0.0
  0
ARC
  5
13374
  8
SUNPO
  6
BYBLOCK
 10
352.08577676506849
 20
-116.4592430436595
 30
0.0
 40
0.145
 50
0.0
 51
180.0
  0
ARC
  5
13375
  8
SUNPO
  6
BYBLOCK
 10
362.08577776506843
 20
-116.4592430436595
 30
0.0
 40
0.145
 50
180.0
 51
0.0
  0
ARC
  5
13376
  8
SUNPO
  6
BYBLOCK
 10
362.08577776506843
 20
-116.4592430436595
 30
0.0
 40
0.145
 50
0.0
 51
180.0
  0
LINE
  5
13377
  8
DANMEN
  6
CONTINUOUS
 10
350.08577676506849
 20
-74.809249043659619
 30
0.0
 11
337.58577676506849
 21
-74.809249043659619
 31
0.0
  0
LINE
  5
13378
  8
DANMEN
  6
CONTINUOUS
 10
361.58577676506837
 20
-76.459243043659626
 30
0.0
 11
337.58577676506849
 21
-76.459243043659626
 31
0.0
  0
ARC
  5
13379
  8
DANMEN
  6
CONTINUOUS
 10
337.58577676506849
 20
-75.309249043659591
 30
0.0
 40
0.5
 50
90.0
 51
180.0
  0
ARC
  5
1337A
  8
DANMEN
  6
CONTINUOUS
 10
337.58577676506849
 20
-75.959243043659626
 30
0.0
 40
0.5
 50
179.99998099999931
 51
269.99996300000009
  0
LINE
  5
1337B
  8
DANMEN
  6
CONTINUOUS
 10
337.08577676506837
 20
-75.959243043659626
 30
0.0
 11
337.08577676506837
 21
-75.309249043659591
 31
0.0
  0
LINE
  5
1337C
  8
DANMEN
  6
CONTINUOUS
 10
360.43578276506821
 20
-74.809249043659619
 30
0.0
 11
353.73576976506848
 21
-74.809249043659619
 31
0.0
  0
LINE
  5
1337D
  8
DANMEN
  6
CONTINUOUS
 10
352.08577676506849
 20
-75.35924604365961
 30
0.0
 11
350.08577676506849
 21
-75.35924604365961
 31
0.0
  0
LINE
  5
1337E
  8
DANMEN
  6
CONTINUOUS
 10
350.08577676506849
 20
-75.35924604365961
 30
0.0
 11
350.08577676506849
 21
-74.809249043659619
 31
0.0
  0
ARC
  5
1337F
  8
DANMEN
  6
CONTINUOUS
 10
361.58577676506837
 20
-70.959243043659626
 30
0.0
 40
0.5
 50
359.9999809999992
 51
90.000036999999807
  0
ARC
  5
13380
  8
DANMEN
  6
CONTINUOUS
 10
360.93578276506821
 20
-70.959243043659626
 30
0.0
 40
0.5
 50
90.000036999999807
 51
180.0000189999989
  0
LINE
  5
13381
  8
DANMEN
  6
CONTINUOUS
 10
361.58577676506837
 20
-70.459243043659626
 30
0.0
 11
360.93578276506821
 21
-70.459243043659626
 31
0.0
  0
LINE
  5
13382
  8
DANMEN
  6
CONTINUOUS
 10
360.43578276506821
 20
-70.959243043659626
 30
0.0
 11
360.43578276506821
 21
-74.809249043659619
 31
0.0
  0
ARC
  5
13383
  8
DANMEN
  6
CONTINUOUS
 10
361.58577676506837
 20
-75.959243043659626
 30
0.0
 40
0.5
 50
270.00001799999922
 51
359.9999809999992
  0
LINE
  5
13384
  8
DANMEN
  6
CONTINUOUS
 10
362.08577676506837
 20
-70.959243043659626
 30
0.0
 11
362.08577676506837
 21
-75.959243043659626
 31
0.0
  0
LINE
  5
13385
  8
DANMEN
  6
CONTINUOUS
 10
352.08577676506849
 20
-16.109243043659589
 30
0.0
 11
328.08578876506829
 21
-16.109243043659589
 31
0.0
  0
LINE
  5
13386
  8
DANMEN
  6
CONTINUOUS
 10
327.08577676506849
 20
-21.95924304365959
 30
0.0
 11
329.08577676506849
 21
-21.95924304365959
 31
0.0
  0
LINE
  5
13387
  8
DANMEN
  6
CONTINUOUS
 10
325.71434776506851
 20
-23.159243043659671
 30
0.0
 11
329.08577676506849
 21
-23.159243043659671
 31
0.0
  0
LINE
  5
13388
  8
SUNPO
  6
CONTINUOUS
 10
317.08577676506832
 20
3.5407569563404011
 30
0.0
 11
337.08577676506837
 21
3.5407569563404011
 31
0.0
  0
LINE
  5
13389
  8
DANMEN
  6
CONTINUOUS
 10
352.08577676506849
 20
-8.2592430436596942
 30
0.0
 11
279.08577776506849
 21
-8.2592430436596942
 31
0.0
  0
LINE
  5
1338A
  8
DANMEN
  6
CONTINUOUS
 10
337.58577776506831
 20
-6.4592430436595958
 30
0.0
 11
279.08577776506849
 21
-6.4592430436595958
 31
0.0
  0
LINE
  5
1338B
  8
DANMEN
  6
CONTINUOUS
 10
352.08577676506849
 20
-14.45924304365958
 30
0.0
 11
317.58577576506832
 21
-14.45924304365958
 31
0.0
  0
LINE
  5
1338C
  8
DANMEN
  6
CONTINUOUS
 10
329.08577676506849
 20
-25.959243043659601
 30
0.0
 11
279.08577776506849
 21
-25.959243043659601
 31
0.0
  0
LINE
  5
1338D
  8
DANMEN
  6
CONTINUOUS
 10
329.08577676506849
 20
-26.45924304365959
 30
0.0
 11
279.08577776506849
 21
-26.45924304365959
 31
0.0
  0
LINE
  5
1338E
  8
DANMEN
  6
CONTINUOUS
 10
329.08577676506849
 20
-33.959243043659612
 30
0.0
 11
279.08577776506849
 21
-33.959243043659612
 31
0.0
  0
LINE
  5
1338F
  8
DANMEN
  6
CONTINUOUS
 10
329.08577676506849
 20
-33.459243043659683
 30
0.0
 11
279.08577776506849
 21
-33.459243043659683
 31
0.0
  0
TEXT
  5
13390
  8
SUNPO
  6
CONTINUOUS
 10
325.21077676506837
 20
4.5407569563404007
 30
0.0
 40
2.5
  1
20
  0
LINE
  5
13391
  8
DANMEN
  6
CONTINUOUS
 10
319.03577876506853
 20
-50.509243043659609
 30
0.0
 11
334.78577676506848
 21
-50.509243043659609
 31
0.0
  0
LINE
  5
13392
  8
DANMEN
  6
CONTINUOUS
 10
317.58578076506848
 20
-52.459243043659612
 30
0.0
 11
337.08577676506837
 21
-52.459243043659612
 31
0.0
  0
LINE
  5
13393
  8
DANMEN
  6
CONTINUOUS
 10
327.08577676506849
 20
-18.95924304365959
 30
0.0
 11
327.08577676506849
 21
-21.95924304365959
 31
0.0
  0
LINE
  5
13394
  8
DANMEN
  6
CONTINUOUS
 10
327.08580076506831
 20
-16.109237043659611
 30
0.0
 11
327.08580076506831
 21
-21.45924304365959
 31
0.0
  0
LINE
  5
13395
  8
DANMEN
  6
CONTINUOUS
 10
328.08578876506829
 20
-16.109237043659611
 30
0.0
 11
328.08578876506829
 21
-21.45924304365959
 31
0.0
  0
LINE
  5
13396
  8
DANMEN
  6
CONTINUOUS
 10
320.08577676506837
 20
-18.95924304365959
 30
0.0
 11
320.08577676506837
 21
-20.75924304365968
 31
0.0
  0
LINE
  5
13397
  8
DANMEN
  6
CONTINUOUS
 10
318.73577676506852
 20
-16.109237043659611
 30
0.0
 11
318.73577676506852
 21
-20.95924304365959
 31
0.0
  0
LINE
  5
13398
  8
DANMEN
  6
CONTINUOUS
 10
317.08577676506832
 20
-14.95924304365958
 30
0.0
 11
317.08577676506832
 21
-21.45924304365959
 31
0.0
  0
LINE
  5
13399
  8
SUNPO
  6
CONTINUOUS
 10
289.08577776506843
 20
-14.45924304365958
 30
0.0
 11
289.08577776506843
 21
-52.459243043659612
 31
0.0
  0
LINE
  5
1339A
  8
DANMEN
  6
CONTINUOUS
 10
279.08577776506849
 20
-21.95924304365959
 30
0.0
 11
317.08577676506832
 21
-21.95924304365959
 31
0.0
  0
LINE
  5
1339B
  8
DANMEN
  6
CONTINUOUS
 10
279.08577776506849
 20
-43.445850043659703
 30
0.0
 11
317.08577676506832
 21
-43.445850043659703
 31
0.0
  0
LINE
  5
1339C
  8
DANMEN
  6
CONTINUOUS
 10
317.58577676506837
 20
-52.459243043659612
 30
0.0
 11
279.08577776506849
 21
-52.459243043659612
 31
0.0
  0
ARC
  5
1339D
  8
SUNPO
  6
BYBLOCK
 10
289.08577776506843
 20
-52.459243043659612
 30
0.0
 40
0.145
 50
90.0
 51
270.0
  0
ARC
  5
1339E
  8
SUNPO
  6
BYBLOCK
 10
289.08577776506843
 20
-52.459243043659612
 30
0.0
 40
0.145
 50
270.0
 51
90.0
  0
ARC
  5
1339F
  8
SUNPO
  6
BYBLOCK
 10
289.08577776506843
 20
-52.459243043659612
 30
0.0
 40
0.145
 50
270.0
 51
90.0
  0
ARC
  5
133A0
  8
SUNPO
  6
BYBLOCK
 10
289.08577776506843
 20
-52.459243043659612
 30
0.0
 40
0.145
 50
90.0
 51
270.0
  0
TEXT
  5
133A1
  8
SUNPO
  6
CONTINUOUS
 10
264.08577776506843
 20
-32.852946043659607
 30
0.0
 40
2.5
  1
70
 50
90.0
  0
TEXT
  5
133A2
  8
SUNPO
  6
CONTINUOUS
 10
288.08577776506843
 20
-31.369195043659669
 30
0.0
 40
2.5
  1
38
 50
90.0
  0
ARC
  5
133A3
  8
DANMEN
  6
CONTINUOUS
 10
322.74949776506838
 20
-37.874668043659689
 30
0.0
 40
2.336276999999999
 50
331.76507300000111
 51
32.684895999999519
  0
LINE
  5
133A4
  8
DANMEN
  6
CONTINUOUS
 10
315.82098476506832
 20
-42.282326043659609
 30
0.0
 11
315.0167657650685
 21
-35.136160043659601
 31
0.0
  0
LINE
  5
133A5
  8
SUNPO
  6
CONTINUOUS
 10
299.08577776506843
 20
-41.95924304365969
 30
0.0
 11
299.08577776506843
 21
-21.95924304365959
 31
0.0
  0
LINE
  5
133A6
  8
SUNPO
  6
CONTINUOUS
 10
315.58577576506838
 20
-41.95924304365969
 30
0.0
 11
299.08577776506843
 21
-41.95924304365969
 31
0.0
  0
ARC
  5
133A7
  8
SUNPO
  6
BYBLOCK
 10
299.08577776506843
 20
-41.95924304365969
 30
0.0
 40
0.145
 50
90.0
 51
270.0
  0
ARC
  5
133A8
  8
SUNPO
  6
BYBLOCK
 10
299.08577776506843
 20
-41.95924304365969
 30
0.0
 40
0.145
 50
270.0
 51
90.0
  0
LINE
  5
133A9
  8
DANMEN
  6
CONTINUOUS
 10
319.03577876506853
 20
-50.509243043659609
 30
0.0
 11
319.03577876506853
 21
-43.459243043659598
 31
0.0
  0
LINE
  5
133AA
  8
DANMEN
  6
CONTINUOUS
 10
317.08577876506843
 20
-51.959243043659697
 30
0.0
 11
317.08577876506843
 21
-42.459243043659612
 31
0.0
  0
ARC
  5
133AB
  8
DANMEN
  6
CONTINUOUS
 10
317.58577876506848
 20
-51.959243043659697
 30
0.0
 40
0.5
 50
180.000090999999
 51
270.00012800000042
  0
LINE
  5
133AC
  8
DANMEN
  6
CONTINUOUS
 10
317.58578076506848
 20
-41.95924304365969
 30
0.0
 11
322.08577876506848
 21
-41.95924304365969
 31
0.0
  0
LINE
  5
133AD
  8
DANMEN
  6
CONTINUOUS
 10
317.08577676506832
 20
-41.95924304365969
 30
0.0
 11
320.78577576506831
 21
-41.95924304365969
 31
0.0
  0
LINE
  5
133AE
  8
DANMEN
  6
CONTINUOUS
 10
317.08577576506849
 20
-43.159242043659603
 30
0.0
 11
317.3857747650685
 21
-43.459242043659607
 31
0.0
  0
LINE
  5
133AF
  8
DANMEN
  6
CONTINUOUS
 10
317.08577676506832
 20
-41.95924304365969
 30
0.0
 11
317.08577676506832
 21
-43.159242043659603
 31
0.0
  0
LINE
  5
133B0
  8
DANMEN
  6
CONTINUOUS
 10
317.28577676506848
 20
-43.459243043659598
 30
0.0
 11
317.3857757650685
 21
-43.459243043659598
 31
0.0
  0
ARC
  5
133B1
  8
DANMEN
  6
CONTINUOUS
 10
317.58577876506848
 20
-42.459243043659612
 30
0.0
 40
0.5
 50
90.0
 51
180.0
  0
ARC
  5
133B2
  8
DANMEN
  6
CONTINUOUS
 10
317.28577676506848
 20
-41.95924304365969
 30
0.0
 40
1.5
 50
192.4383220000004
 51
270.0
  0
ARC
  5
133B3
  8
DANMEN
  6
CONTINUOUS
 10
327.58577876506848
 20
-42.959243043659697
 30
0.0
 40
0.5
 50
270.0
 51
0.0
  0
LINE
  5
133B4
  8
DANMEN
  6
CONTINUOUS
 10
328.08577876506848
 20
-42.959243043659697
 30
0.0
 11
328.08577876506848
 21
-42.459243043659612
 31
0.0
  0
ARC
  5
133B5
  8
DANMEN
  6
CONTINUOUS
 10
327.58577876506848
 20
-42.459243043659612
 30
0.0
 40
0.5
 50
0.0
 51
90.0
  0
LINE
  5
133B6
  8
DANMEN
  6
CONTINUOUS
 10
327.08577876506831
 20
-41.95924304365969
 30
0.0
 11
327.58577876506848
 21
-41.95924304365969
 31
0.0
  0
LINE
  5
133B7
  8
DANMEN
  6
CONTINUOUS
 10
327.08577876506831
 20
-42.459243043659612
 30
0.0
 11
327.08577876506831
 21
-41.95924304365969
 31
0.0
  0
LINE
  5
133B8
  8
DANMEN
  6
CONTINUOUS
 10
321.08577576506849
 20
-40.959243043659683
 30
0.0
 11
322.95040376506847
 21
-40.959243043659683
 31
0.0
  0
LINE
  5
133B9
  8
DANMEN
  6
CONTINUOUS
 10
320.78577576506831
 20
-41.959244043659602
 30
0.0
 11
321.08577476506849
 21
-40.959244043659609
 31
0.0
  0
LINE
  5
133BA
  8
DANMEN
  6
CONTINUOUS
 10
322.8857747650685
 20
-42.559242043659687
 30
0.0
 11
324.80779276506831
 21
-38.979933043659607
 31
0.0
  0
LINE
  5
133BB
  8
DANMEN
  6
CONTINUOUS
 10
322.08577876506848
 20
-42.459243043659612
 30
0.0
 11
322.08577876506848
 21
-41.95924304365969
 31
0.0
  0
LINE
  5
133BC
  8
DANMEN
  6
CONTINUOUS
 10
322.09123576506852
 20
-42.559242043659687
 30
0.0
 11
322.8857747650685
 21
-42.559242043659687
 31
0.0
  0
LINE
  5
133BD
  8
DANMEN
  6
CONTINUOUS
 10
322.95040376506847
 20
-40.959243043659683
 30
0.0
 11
322.09123576506852
 21
-42.559242043659687
 31
0.0
  0
LINE
  5
133BE
  8
DANMEN
  6
CONTINUOUS
 10
319.03577876506853
 20
-43.459243043659598
 30
0.0
 11
327.58577876506848
 21
-43.459243043659598
 31
0.0
  0
LINE
  5
133BF
  8
DANMEN
  6
CONTINUOUS
 10
322.08577876506848
 20
-42.459243043659612
 30
0.0
 11
327.08577876506831
 21
-42.459243043659612
 31
0.0
  0
TEXT
  5
133C0
  8
SUNPO
  6
CONTINUOUS
 10
298.08577776506849
 20
-32.006905043659742
 30
0.0
 40
2.5
  1
20
 50
90.0
  0
ARC
  5
133C1
  8
SUNPO
  6
BYBLOCK
 10
299.08577776506843
 20
-21.95924304365959
 30
0.0
 40
0.145
 50
270.0
 51
90.0
  0
ARC
  5
133C2
  8
SUNPO
  6
BYBLOCK
 10
299.08577776506843
 20
-21.95924304365959
 30
0.0
 40
0.145
 50
90.0
 51
270.0
  0
LINE
  5
133C3
  8
DANMEN
  6
CONTINUOUS
 10
317.40329076506828
 20
-33.959243043659612
 30
0.0
 11
319.19314476506838
 21
-33.959243043659612
 31
0.0
  0
ARC
  5
133C4
  8
DANMEN
  6
CONTINUOUS
 10
318.53894276506838
 20
-35.458867043659708
 30
0.0
 40
0.5
 50
270.00004599999932
 51
28.30991400000083
  0
LINE
  5
133C5
  8
DANMEN
  6
CONTINUOUS
 10
318.97914076506828
 20
-35.22174704365969
 30
0.0
 11
318.72388476506831
 21
-34.747883043659598
 31
0.0
  0
LINE
  5
133C6
  8
DANMEN
  6
CONTINUOUS
 10
316.03046076506848
 20
-34.337976043659609
 30
0.0
 11
316.15163376506831
 21
-34.822670043659699
 31
0.0
  0
ARC
  5
133C7
  8
DANMEN
  6
CONTINUOUS
 10
317.40329076506828
 20
-35.459243043659697
 30
0.0
 40
1.5
 50
28.30993099999931
 51
90.000036000000037
  0
LINE
  5
133C8
  8
DANMEN
  6
CONTINUOUS
 10
317.60684776506849
 20
-35.958867043659609
 30
0.0
 11
318.53894276506838
 21
-35.958867043659609
 31
0.0
  0
ARC
  5
133C9
  8
DANMEN
  6
CONTINUOUS
 10
317.60684776506849
 20
-34.458867043659708
 30
0.0
 40
1.5
 50
194.0362209999991
 51
270.0
  0
ARC
  5
133CA
  8
DANMEN
  6
CONTINUOUS
 10
313.55197376506828
 20
-35.459243043659697
 30
0.0
 40
1.5
 50
12.438322000000589
 51
89.999963999999963
  0
LINE
  5
133CB
  8
DANMEN
  6
CONTINUOUS
 10
313.55197376506828
 20
-33.959243043659612
 30
0.0
 11
315.54538876506831
 21
-33.959243043659612
 31
0.0
  0
ARC
  5
133CC
  8
DANMEN
  6
CONTINUOUS
 10
315.54538876506831
 20
-34.45924304365969
 30
0.0
 40
0.5
 50
14.036185000001231
 51
89.999908999999292
  0
ARC
  5
133CD
  8
DANMEN
  6
CONTINUOUS
 10
321.0886427650683
 20
-35.459243043659697
 30
0.0
 40
1.5
 50
25.55991600000096
 51
90.0
  0
LINE
  5
133CE
  8
DANMEN
  6
CONTINUOUS
 10
322.73985376506829
 20
-33.959243043659612
 30
0.0
 11
321.0886427650683
 21
-33.959243043659612
 31
0.0
  0
ARC
  5
133CF
  8
DANMEN
  6
CONTINUOUS
 10
321.9054197650683
 20
-33.958867043659609
 30
0.0
 40
2.0
 50
215.43493400000111
 51
269.99999100000042
  0
ARC
  5
133D0
  8
DANMEN
  6
CONTINUOUS
 10
319.19314476506838
 20
-34.45924304365969
 30
0.0
 40
0.5
 50
35.434911000000383
 51
90.000036000000037
  0
LINE
  5
133D1
  8
DANMEN
  6
CONTINUOUS
 10
320.2758717650683
 20
-35.118423043659703
 30
0.0
 11
319.60053276506829
 21
-34.169355043659692
 31
0.0
  0
ARC
  5
133D2
  8
DANMEN
  6
CONTINUOUS
 10
322.73985376506829
 20
-34.45924304365969
 30
0.0
 40
0.5
 50
32.684939000000767
 51
90.0
  0
LINE
  5
133D3
  8
DANMEN
  6
CONTINUOUS
 10
321.9054197650683
 20
-35.958867043659609
 30
0.0
 11
322.19694476506828
 21
-35.958867043659609
 31
0.0
  0
ARC
  5
133D4
  8
DANMEN
  6
CONTINUOUS
 10
322.19694476506828
 20
-35.458867043659708
 30
0.0
 40
0.5
 50
270.00001699999927
 51
25.55991600000096
  0
LINE
  5
133D5
  8
DANMEN
  6
CONTINUOUS
 10
324.71583176506851
 20
-36.613032043659601
 30
0.0
 11
323.16067976506838
 21
-34.189233043659591
 31
0.0
  0
LINE
  5
133D6
  8
DANMEN
  6
CONTINUOUS
 10
322.64801276506847
 20
-35.243140043659601
 30
0.0
 11
322.44184476506831
 21
-34.81206104365959
 31
0.0
  0
LINE
  5
133D7
  8
DANMEN
  6
CONTINUOUS
 10
317.3857767650685
 20
-21.95924304365959
 30
0.0
 11
322.28577676506848
 21
-21.95924304365959
 31
0.0
  0
LINE
  5
133D8
  8
DANMEN
  6
CONTINUOUS
 10
322.08579176506851
 20
-21.95924304365959
 30
0.0
 11
317.58577676506837
 21
-21.95924304365959
 31
0.0
  0
LINE
  5
133D9
  8
DANMEN
  6
CONTINUOUS
 10
317.13642376506829
 20
-25.45924304365959
 30
0.0
 11
319.28577676506848
 21
-25.45924304365959
 31
0.0
  0
LINE
  5
133DA
  8
DANMEN
  6
CONTINUOUS
 10
321.58579176506839
 20
-20.95924304365959
 30
0.0
 11
318.73577676506852
 21
-20.95924304365959
 31
0.0
  0
LINE
  5
133DB
  8
DANMEN
  6
CONTINUOUS
 10
317.08577676506832
 20
-21.659243043659611
 30
0.0
 11
316.7831447650683
 21
-26.259244043659599
 31
0.0
  0
LINE
  5
133DC
  8
DANMEN
  6
CONTINUOUS
 10
317.08577676506832
 20
-21.65924204365967
 30
0.0
 11
317.3857767650685
 21
-21.95924304365959
 31
0.0
  0
LINE
  5
133DD
  8
DANMEN
  6
CONTINUOUS
 10
316.7831437650683
 20
-26.259244043659599
 30
0.0
 11
317.08592576506851
 21
-26.22683304365961
 31
0.0
  0
LINE
  5
133DE
  8
DANMEN
  6
CONTINUOUS
 10
317.13642576506851
 20
-25.4592420436596
 30
0.0
 11
317.08592576506851
 21
-26.22683304365961
 31
0.0
  0
ARC
  5
133DF
  8
DANMEN
  6
CONTINUOUS
 10
317.58577676506837
 20
-21.45924304365959
 30
0.0
 40
0.5
 50
180.0000179999991
 51
270.0
  0
LINE
  5
133E0
  8
DANMEN
  6
CONTINUOUS
 10
327.58580076506843
 20
-21.95924304365959
 30
0.0
 11
327.58578876506829
 21
-21.95924304365959
 31
0.0
  0
ARC
  5
133E1
  8
DANMEN
  6
CONTINUOUS
 10
327.58580076506843
 20
-21.45924304365959
 30
0.0
 40
0.5
 50
180.0
 51
270.0
  0
ARC
  5
133E2
  8
DANMEN
  6
CONTINUOUS
 10
327.58578876506829
 20
-21.45924304365959
 30
0.0
 40
0.5
 50
270.0
 51
0.0
  0
LINE
  5
133E3
  8
DANMEN
  6
CONTINUOUS
 10
320.08577676506837
 20
-20.75924304365968
 30
0.0
 11
322.28577676506848
 21
-20.75924304365968
 31
0.0
  0
LINE
  5
133E4
  8
DANMEN
  6
CONTINUOUS
 10
319.8857767650685
 20
-25.45924304365959
 30
0.0
 11
322.08577676506837
 21
-25.45924304365959
 31
0.0
  0
ARC
  5
133E5
  8
DANMEN
  6
CONTINUOUS
 10
321.58579176506839
 20
-21.45924304365959
 30
0.0
 40
0.5
 50
0.0
 51
90.0
  0
LINE
  5
133E6
  8
DANMEN
  6
CONTINUOUS
 10
319.77716476506851
 20
-25.817298043659601
 30
0.0
 11
319.8857757650685
 21
-25.4592420436596
 31
0.0
  0
LINE
  5
133E7
  8
DANMEN
  6
CONTINUOUS
 10
319.3943877650683
 20
-25.817298043659601
 30
0.0
 11
319.28577676506848
 21
-25.45924304365959
 31
0.0
  0
ARC
  5
133E8
  8
DANMEN
  6
CONTINUOUS
 10
319.58577676506837
 20
-25.759243043659691
 30
0.0
 40
0.2
 50
196.87451899999971
 51
343.12548099999992
  0
LINE
  5
133E9
  8
DANMEN
  6
CONTINUOUS
 10
322.08579176506851
 20
-21.45924304365959
 30
0.0
 11
322.08579176506851
 21
-21.95924304365959
 31
0.0
  0
LINE
  5
133EA
  8
DANMEN
  6
CONTINUOUS
 10
322.28577676506848
 20
-20.75924304365968
 30
0.0
 11
322.28577676506848
 21
-21.95924304365959
 31
0.0
  0
ARC
  5
133EB
  8
DANMEN
  6
CONTINUOUS
 10
322.58577676506837
 20
-25.45924304365959
 30
0.0
 40
0.5
 50
180.0000179999991
 51
359.99998199999902
  0
LINE
  5
133EC
  8
DANMEN
  6
CONTINUOUS
 10
323.08577676506849
 20
-25.4592420436596
 30
0.0
 11
325.71434776506851
 21
-23.15924204365967
 31
0.0
  0
LINE
  5
133ED
  8
SUNPO
  6
CONTINUOUS
 10
315.58577676506837
 20
-14.45924304365958
 30
0.0
 11
289.08577776506843
 21
-14.45924304365958
 31
0.0
  0
LINE
  5
133EE
  8
DANMEN
  6
CONTINUOUS
 10
317.08577676506832
 20
-16.45924304365959
 30
0.0
 11
279.08577776506849
 21
-16.45924304365959
 31
0.0
  0
ARC
  5
133EF
  8
SUNPO
  6
BYBLOCK
 10
265.08577776506843
 20
-6.4592430436595958
 30
0.0
 40
0.145
 50
270.0
 51
90.0
  0
ARC
  5
133F0
  8
SUNPO
  6
BYBLOCK
 10
265.08577776506843
 20
-6.4592430436595958
 30
0.0
 40
0.145
 50
90.0
 51
270.0
  0
LINE
  5
133F1
  8
SUNPO
  6
CONTINUOUS
 10
289.08577776506843
 20
-6.4592430436595958
 30
0.0
 11
289.08577776506843
 21
-14.45924304365958
 31
0.0
  0
ARC
  5
133F2
  8
SUNPO
  6
BYBLOCK
 10
289.08577776506843
 20
-14.45924304365958
 30
0.0
 40
0.145
 50
90.0
 51
270.0
  0
ARC
  5
133F3
  8
SUNPO
  6
BYBLOCK
 10
289.08577776506843
 20
-14.45924304365958
 30
0.0
 40
0.145
 50
90.0
 51
270.0
  0
ARC
  5
133F4
  8
SUNPO
  6
BYBLOCK
 10
289.08577776506843
 20
-14.45924304365958
 30
0.0
 40
0.145
 50
270.0
 51
90.0
  0
ARC
  5
133F5
  8
SUNPO
  6
BYBLOCK
 10
289.08577776506843
 20
-14.45924304365958
 30
0.0
 40
0.145
 50
270.0
 51
90.0
  0
TEXT
  5
133F6
  8
SUNPO
  6
CONTINUOUS
 10
288.08577776506843
 20
-11.29257604365959
 30
0.0
 40
2.5
  1
8
 50
90.0
  0
ARC
  5
133F7
  8
SUNPO
  6
BYBLOCK
 10
289.08577776506843
 20
-6.4592430436595958
 30
0.0
 40
0.145
 50
90.0
 51
270.0
  0
ARC
  5
133F8
  8
SUNPO
  6
BYBLOCK
 10
289.08577776506843
 20
-6.4592430436595958
 30
0.0
 40
0.145
 50
270.0
 51
90.0
  0
LINE
  5
133F9
  8
SUNPO
  6
CONTINUOUS
 10
317.08577676506832
 20
-4.9592430436595958
 30
0.0
 11
317.08577676506832
 21
3.5407569563404011
 31
0.0
  0
LINE
  5
133FA
  8
DANMEN
  6
CONTINUOUS
 10
327.08580076506831
 20
-16.109237043659611
 30
0.0
 11
318.73577676506852
 21
-16.109237043659611
 31
0.0
  0
ARC
  5
133FB
  8
DANMEN
  6
CONTINUOUS
 10
317.58577676506837
 20
-14.95924304365958
 30
0.0
 40
0.5
 50
90.000019000000606
 51
180.00005499999901
  0
LINE
  5
133FC
  8
DANMEN
  6
CONTINUOUS
 10
320.08577676506837
 20
-18.95924304365959
 30
0.0
 11
327.08577676506849
 21
-18.95924304365959
 31
0.0
  0
ARC
  5
133FD
  8
SUNPO
  6
BYBLOCK
 10
317.08577676506832
 20
3.5407569563404011
 30
0.0
 40
0.145
 50
0.0
 51
180.0
  0
ARC
  5
133FE
  8
SUNPO
  6
BYBLOCK
 10
317.08577676506832
 20
3.5407569563404011
 30
0.0
 40
0.145
 50
180.0
 51
0.0
  0
LINE
  5
133FF
  8
DANMEN
  6
CONTINUOUS
 10
352.08577676506849
 20
-16.109243043659589
 30
0.0
 11
352.08577676506849
 21
-50.809243043659713
 31
0.0
  0
LINE
  5
13400
  8
DANMEN
  6
CONTINUOUS
 10
346.58577676506832
 20
-50.809243043659713
 30
0.0
 11
352.08577676506849
 21
-50.809243043659713
 31
0.0
  0
LINE
  5
13401
  8
DANMEN
  6
CONTINUOUS
 10
337.08577676506837
 20
-52.459243043659612
 30
0.0
 11
352.08577676506849
 21
-52.459243043659612
 31
0.0
  0
LINE
  5
13402
  8
DANMEN
  6
CONTINUOUS
 10
345.08577676506837
 20
-46.959237043659577
 30
0.0
 11
345.08577676506837
 21
-50.809243043659713
 31
0.0
  0
LINE
  5
13403
  8
DANMEN
  6
CONTINUOUS
 10
346.58577676506832
 20
-46.259237043659581
 30
0.0
 11
346.58577676506832
 21
-50.809243043659713
 31
0.0
  0
LINE
  5
13404
  8
DANMEN
  6
CONTINUOUS
 10
339.68469276506829
 20
-48.759243043659708
 30
0.0
 11
342.38667076506852
 21
-46.759243043659701
 31
0.0
  0
LINE
  5
13405
  8
DANMEN
  6
CONTINUOUS
 10
339.67265576506833
 20
-50.261126043659687
 30
0.0
 11
342.64968176506852
 21
-48.057535043659591
 31
0.0
  0
ARC
  5
13406
  8
DANMEN
  6
CONTINUOUS
 10
343.84330576506829
 20
-48.359379043659743
 30
0.0
 40
0.5
 50
214.70262200000059
 51
270.0
  0
ARC
  5
13407
  8
DANMEN
  6
CONTINUOUS
 10
344.08667076506839
 20
-48.359379043659743
 30
0.0
 40
0.5
 50
270.0
 51
0.0
  0
LINE
  5
13408
  8
DANMEN
  6
CONTINUOUS
 10
336.78577676506848
 20
-49.959243043659711
 30
0.0
 11
338.78577676506848
 21
-49.959243043659711
 31
0.0
  0
LINE
  5
13409
  8
DANMEN
  6
CONTINUOUS
 10
335.78577676506848
 20
-48.759243043659708
 30
0.0
 11
339.68469276506829
 21
-48.759243043659708
 31
0.0
  0
LINE
  5
1340A
  8
DANMEN
  6
CONTINUOUS
 10
338.08577676506832
 20
-49.959243043659711
 30
0.0
 11
337.36216976506847
 21
-50.321046043659699
 31
0.0
  0
LINE
  5
1340B
  8
DANMEN
  6
CONTINUOUS
 10
335.28577676506848
 20
-50.009243043659708
 30
0.0
 11
335.28577676506848
 21
-49.259243043659609
 31
0.0
  0
ARC
  5
1340C
  8
DANMEN
  6
CONTINUOUS
 10
335.78577676506848
 20
-49.259243043659609
 30
0.0
 40
0.5
 50
90.0
 51
180.0
  0
ARC
  5
1340D
  8
DANMEN
  6
CONTINUOUS
 10
337.58577676506849
 20
-50.768260043659588
 30
0.0
 40
0.5
 50
116.5650509999994
 51
180.0
  0
LINE
  5
1340E
  8
DANMEN
  6
CONTINUOUS
 10
336.78577676506848
 20
-50.959243043659683
 30
0.0
 11
337.08577676506837
 21
-50.959243043659683
 31
0.0
  0
ARC
  5
1340F
  8
DANMEN
  6
CONTINUOUS
 10
334.78577676506848
 20
-50.009243043659708
 30
0.0
 40
0.5
 50
270.0
 51
0.0
  0
LINE
  5
13410
  8
DANMEN
  6
CONTINUOUS
 10
336.78577676506848
 20
-50.959243043659683
 30
0.0
 11
336.78577676506848
 21
-49.959243043659711
 31
0.0
  0
LINE
  5
13411
  8
DANMEN
  6
CONTINUOUS
 10
337.08577676506837
 20
-50.768260043659588
 30
0.0
 11
337.08577676506837
 21
-52.459243043659612
 31
0.0
  0
LINE
  5
13412
  8
DANMEN
  6
CONTINUOUS
 10
337.08577676506837
 20
-52.459243043659612
 30
0.0
 11
337.08577676506837
 21
-50.959243043659683
 31
0.0
  0
ARC
  5
13413
  8
DANMEN
  6
CONTINUOUS
 10
338.78577676506848
 20
-50.259243043659609
 30
0.0
 40
0.3
 50
19.471220999999701
 51
90.0
  0
LINE
  5
13414
  8
DANMEN
  6
CONTINUOUS
 10
338.78577676506848
 20
-49.959243043659711
 30
0.0
 11
338.08577676506832
 21
-49.959243043659711
 31
0.0
  0
LINE
  5
13415
  8
DANMEN
  6
CONTINUOUS
 10
339.08577676506837
 20
-50.809243043659713
 30
0.0
 11
339.08577676506837
 21
-50.259243043659609
 31
0.0
  0
LINE
  5
13416
  8
DANMEN
  6
CONTINUOUS
 10
339.35146176506828
 20
-50.359243043659603
 30
0.0
 11
339.3751827650683
 21
-50.359243043659603
 31
0.0
  0
ARC
  5
13417
  8
DANMEN
  6
CONTINUOUS
 10
339.3751827650683
 20
-49.859243043659603
 30
0.0
 40
0.5
 50
270.0
 51
306.50879199999952
  0
ARC
  5
13418
  8
DANMEN
  6
CONTINUOUS
 10
338.78577676506848
 20
-50.259243043659609
 30
0.0
 40
0.3
 50
0.0
 51
90.0
  0
ARC
  5
13419
  8
DANMEN
  6
CONTINUOUS
 10
339.35146176506828
 20
-50.05924304365962
 30
0.0
 40
0.3
 50
199.47122099999959
 51
270.0
  0
LINE
  5
1341A
  8
DANMEN
  6
CONTINUOUS
 10
344.08667076506839
 20
-48.859379043659743
 30
0.0
 11
343.84330576506829
 21
-48.859379043659743
 31
0.0
  0
LINE
  5
1341B
  8
DANMEN
  6
CONTINUOUS
 10
339.08577676506837
 20
-50.809243043659713
 30
0.0
 11
345.08577676506837
 21
-50.809243043659713
 31
0.0
  0
ARC
  5
1341C
  8
DANMEN
  6
CONTINUOUS
 10
346.08577676506849
 20
-46.259237043659581
 30
0.0
 40
0.5
 50
0.0
 51
90.0
  0
LINE
  5
1341D
  8
DANMEN
  6
CONTINUOUS
 10
344.5866707650685
 20
-48.359509043659621
 30
0.0
 11
344.5866707650685
 21
-48.359379043659743
 31
0.0
  0
ARC
  5
1341E
  8
DANMEN
  6
CONTINUOUS
 10
344.08667076506839
 20
-48.359509043659621
 30
0.0
 40
0.5
 50
0.0
 51
34.702622000000602
  0
LINE
  5
1341F
  8
DANMEN
  6
CONTINUOUS
 10
339.08577676506837
 20
-46.149335043659697
 30
0.0
 11
339.08577676506837
 21
-45.759237043659581
 31
0.0
  0
LINE
  5
13420
  8
DANMEN
  6
CONTINUOUS
 10
343.4322477650685
 20
-48.644037043659608
 30
0.0
 11
343.07480076506829
 21
-48.127870043659691
 31
0.0
  0
ARC
  5
13421
  8
DANMEN
  6
CONTINUOUS
 10
342.82816576506849
 20
-48.298665043659611
 30
0.0
 40
0.3
 50
34.702622000000602
 51
126.5087919999994
  0
LINE
  5
13422
  8
DANMEN
  6
CONTINUOUS
 10
341.08577676506837
 20
-46.959237043659577
 30
0.0
 11
339.48771776506828
 21
-46.639625043659699
 31
0.0
  0
LINE
  5
13423
  8
DANMEN
  6
CONTINUOUS
 10
342.38667076506852
 20
-46.759243043659701
 30
0.0
 11
343.5866707650685
 21
-46.759243043659701
 31
0.0
  0
ARC
  5
13424
  8
DANMEN
  6
CONTINUOUS
 10
339.58577676506849
 20
-46.149335043659697
 30
0.0
 40
0.5
 50
180.0
 51
258.69006800000062
  0
LINE
  5
13425
  8
DANMEN
  6
CONTINUOUS
 10
344.49772976506853
 20
-48.074851043659699
 30
0.0
 11
343.5866707650685
 21
-46.759243043659701
 31
0.0
  0
LINE
  5
13426
  8
DANMEN
  6
CONTINUOUS
 10
339.08577676506837
 20
-45.759237043659581
 30
0.0
 11
346.08577676506849
 21
-45.759237043659581
 31
0.0
  0
LINE
  5
13427
  8
DANMEN
  6
CONTINUOUS
 10
341.08577676506837
 20
-46.959237043659577
 30
0.0
 11
345.08577676506837
 21
-46.959237043659577
 31
0.0
  0
LINE
  5
13428
  8
DANMEN
  6
CONTINUOUS
 10
329.08577676506849
 20
-25.959243043659601
 30
0.0
 11
329.08577676506849
 21
-33.959243043659612
 31
0.0
  0
LINE
  5
13429
  8
DANMEN
  6
CONTINUOUS
 10
329.08577676506849
 20
-21.95924304365959
 30
0.0
 11
329.08577676506849
 21
-23.159243043659671
 31
0.0
  0
LINE
  5
1342A
  8
SUNPO
  6
CONTINUOUS
 10
362.08577676506837
 20
-4.9592430436595958
 30
0.0
 11
362.08577676506837
 21
3.5407569563404011
 31
0.0
  0
LINE
  5
1342B
  8
SUNPO
  6
CONTINUOUS
 10
337.08577676506837
 20
-4.9592430436595958
 30
0.0
 11
337.08577676506837
 21
3.5407569563404011
 31
0.0
  0
LINE
  5
1342C
  8
DANMEN
  6
CONTINUOUS
 10
361.58577676506837
 20
-6.4592430436595958
 30
0.0
 11
337.58577676506849
 21
-6.4592430436595958
 31
0.0
  0
LINE
  5
1342D
  8
DANMEN
  6
CONTINUOUS
 10
350.08577676506849
 20
-8.1092370436596184
 30
0.0
 11
337.58577676506849
 21
-8.1092370436596184
 31
0.0
  0
ARC
  5
1342E
  8
DANMEN
  6
CONTINUOUS
 10
337.58577676506849
 20
-6.9592430436595958
 30
0.0
 40
0.5
 50
90.000036999999807
 51
180.0000189999989
  0
ARC
  5
1342F
  8
DANMEN
  6
CONTINUOUS
 10
337.58577676506849
 20
-7.6092370436596166
 30
0.0
 40
0.5
 50
180.0
 51
270.0
  0
LINE
  5
13430
  8
DANMEN
  6
CONTINUOUS
 10
337.08577676506837
 20
-6.9592430436595958
 30
0.0
 11
337.08577676506837
 21
-7.6092370436596166
 31
0.0
  0
LINE
  5
13431
  8
DANMEN
  6
CONTINUOUS
 10
360.43578276506821
 20
-8.1092370436596184
 30
0.0
 11
360.43578276506821
 21
-11.95924304365958
 31
0.0
  0
LINE
  5
13432
  8
DANMEN
  6
CONTINUOUS
 10
352.08577676506849
 20
-7.5592400436595977
 30
0.0
 11
352.08577676506849
 21
-14.45924304365958
 31
0.0
  0
LINE
  5
13433
  8
DANMEN
  6
CONTINUOUS
 10
362.08577676506837
 20
-6.9592430436595958
 30
0.0
 11
362.08577676506837
 21
-11.95924304365958
 31
0.0
  0
ARC
  5
13434
  8
DANMEN
  6
CONTINUOUS
 10
360.93578276506821
 20
-11.95924304365958
 30
0.0
 40
0.5
 50
180.0000189999989
 51
270.00000099999971
  0
ARC
  5
13435
  8
DANMEN
  6
CONTINUOUS
 10
361.58577676506837
 20
-11.95924304365958
 30
0.0
 40
0.5
 50
270.00001799999922
 51
359.9999809999992
  0
LINE
  5
13436
  8
DANMEN
  6
CONTINUOUS
 10
361.58577676506837
 20
-12.45924304365958
 30
0.0
 11
360.93578276506821
 21
-12.45924304365958
 31
0.0
  0
LINE
  5
13437
  8
DANMEN
  6
CONTINUOUS
 10
360.43578276506821
 20
-8.1092370436596184
 30
0.0
 11
353.73576976506848
 21
-8.1092370436596184
 31
0.0
  0
LINE
  5
13438
  8
DANMEN
  6
CONTINUOUS
 10
352.08577676506849
 20
-7.5592400436595977
 30
0.0
 11
350.08577676506849
 21
-7.5592400436595977
 31
0.0
  0
LINE
  5
13439
  8
DANMEN
  6
CONTINUOUS
 10
350.08577676506849
 20
-7.5592400436595977
 30
0.0
 11
350.08577676506849
 21
-8.1092370436596184
 31
0.0
  0
ARC
  5
1343A
  8
DANMEN
  6
CONTINUOUS
 10
361.58577676506837
 20
-6.9592430436595958
 30
0.0
 40
0.5
 50
0.0
 51
89.999981999999179
  0
LINE
  5
1343B
  8
SUNPO
  6
CONTINUOUS
 10
337.08577676506837
 20
3.5407569563404011
 30
0.0
 11
362.08577676506837
 21
3.5407569563404011
 31
0.0
  0
ARC
  5
1343C
  8
SUNPO
  6
BYBLOCK
 10
337.08577676506837
 20
3.5407569563404011
 30
0.0
 40
0.145
 50
0.0
 51
180.0
  0
ARC
  5
1343D
  8
SUNPO
  6
BYBLOCK
 10
337.08577676506837
 20
3.5407569563404011
 30
0.0
 40
0.145
 50
180.0
 51
0.0
  0
ARC
  5
1343E
  8
SUNPO
  6
BYBLOCK
 10
337.08577676506837
 20
3.5407569563404011
 30
0.0
 40
0.145
 50
180.0
 51
0.0
  0
ARC
  5
1343F
  8
SUNPO
  6
BYBLOCK
 10
337.08577676506837
 20
3.5407569563404011
 30
0.0
 40
0.145
 50
0.0
 51
180.0
  0
TEXT
  5
13440
  8
SUNPO
  6
CONTINUOUS
 10
347.50244276506828
 20
4.5407569563404007
 30
0.0
 40
2.5
  1
25
  0
ARC
  5
13441
  8
SUNPO
  6
BYBLOCK
 10
362.08577676506837
 20
3.5407569563404011
 30
0.0
 40
0.145
 50
180.0
 51
0.0
  0
ARC
  5
13442
  8
SUNPO
  6
BYBLOCK
 10
362.08577676506837
 20
3.5407569563404011
 30
0.0
 40
0.145
 50
0.0
 51
180.0
  0
ENDSEC
  0
EOF
