  0
SECTION
  2
HEADER
  9
$ACADVER
  1
AC1009
  9
$INSBASE
 10
0.0
 20
0.0
 30
0.0
  9
$EXTMIN
 10
31.524425493660821
 20
28.29526935608077
 30
0.0
  9
$EXTMAX
 10
506.89863881456068
 20
417.87675236086369
 30
0.0
  9
$LIMMIN
 10
0.0
 20
0.0
  9
$LIMMAX
 10
420.0
 20
297.0
  9
$ORTHOMODE
 70
     0
  9
$REGENMODE
 70
     1
  9
$FILLMODE
 70
     1
  9
$QTEXTMODE
 70
     0
  9
$MIRRTEXT
 70
     1
  9
$DRAGMODE
 70
     2
  9
$LTSCALE
 40
1.0
  9
$OSMODE
 70
    39
  9
$ATTMODE
 70
     1
  9
$TEXTSIZE
 40
2.5
  9
$TRACEWID
 40
1.0
  9
$TEXTSTYLE
  7
STANDARD
  9
$CLAYER
  8
0
  9
$CELTYPE
  6
BYLAYER
  9
$CECOLOR
 62
   256
  9
$DIMSCALE
 40
1.0
  9
$DIMASZ
 40
2.5
  9
$DIMEXO
 40
0.625
  9
$DIMDLI
 40
3.75
  9
$DIMRND
 40
0.0
  9
$DIMDLE
 40
0.0
  9
$DIMEXE
 40
1.25
  9
$DIMTP
 40
0.0
  9
$DIMTM
 40
0.0
  9
$DIMTXT
 40
2.5
  9
$DIMCEN
 40
2.5
  9
$DIMTSZ
 40
0.0
  9
$DIMTOL
 70
     0
  9
$DIMLIM
 70
     0
  9
$DIMTIH
 70
     0
  9
$DIMTOH
 70
     0
  9
$DIMSE1
 70
     0
  9
$DIMSE2
 70
     0
  9
$DIMTAD
 70
     1
  9
$DIMZIN
 70
     8
  9
$DIMBLK
  1

  9
$DIMASO
 70
     1
  9
$DIMSHO
 70
     1
  9
$DIMPOST
  1

  9
$DIMAPOST
  1

  9
$DIMALT
 70
     0
  9
$DIMALTD
 70
     3
  9
$DIMALTF
 40
0.03937007874016
  9
$DIMLFAC
 40
1.0
  9
$DIMTOFL
 70
     1
  9
$DIMTVP
 40
0.0
  9
$DIMTIX
 70
     0
  9
$DIMSOXD
 70
     0
  9
$DIMSAH
 70
     0
  9
$DIMBLK1
  1

  9
$DIMBLK2
  1

  9
$DIMSTYLE
  2
ISO-25
  9
$DIMCLRD
 70
     0
  9
$DIMCLRE
 70
     0
  9
$DIMCLRT
 70
     0
  9
$DIMTFAC
 40
1.0
  9
$DIMGAP
 40
0.625
  9
$LUNITS
 70
     2
  9
$LUPREC
 70
     4
  9
$SKETCHINC
 40
1.0
  9
$FILLETRAD
 40
10.0
  9
$AUNITS
 70
     0
  9
$AUPREC
 70
     0
  9
$MENU
  1
.
  9
$ELEVATION
 40
0.0
  9
$PELEVATION
 40
0.0
  9
$THICKNESS
 40
0.0
  9
$LIMCHECK
 70
     0
  9
$BLIPMODE
 70
     0
  9
$CHAMFERA
 40
10.0
  9
$CHAMFERB
 40
10.0
  9
$SKPOLY
 70
     0
  9
$TDCREATE
 40
2456583.6822594791
  9
$TDUPDATE
 40
2456597.5484000579
  9
$TDINDWG
 40
0.0197600116
  9
$TDUSRTIMER
 40
0.0197594676
  9
$USRTIMER
 70
     1
  9
$ANGBASE
 50
0.0
  9
$ANGDIR
 70
     0
  9
$PDMODE
 70
     0
  9
$PDSIZE
 40
0.0
  9
$PLINEWID
 40
0.0
  9
$COORDS
 70
     1
  9
$SPLFRAME
 70
     0
  9
$SPLINETYPE
 70
     6
  9
$SPLINESEGS
 70
     8
  9
$ATTDIA
 70
     0
  9
$ATTREQ
 70
     1
  9
$HANDLING
 70
-16383
  9
$HANDSEED
  5
351A
  9
$SURFTAB1
 70
     6
  9
$SURFTAB2
 70
     6
  9
$SURFTYPE
 70
     6
  9
$SURFU
 70
     6
  9
$SURFV
 70
     6
  9
$UCSNAME
  2

  9
$UCSORG
 10
0.0
 20
0.0
 30
0.0
  9
$UCSXDIR
 10
1.0
 20
0.0
 30
0.0
  9
$UCSYDIR
 10
0.0
 20
1.0
 30
0.0
  9
$PUCSNAME
  2

  9
$PUCSORG
 10
0.0
 20
0.0
 30
0.0
  9
$PUCSXDIR
 10
1.0
 20
0.0
 30
0.0
  9
$PUCSYDIR
 10
0.0
 20
1.0
 30
0.0
  9
$USERI1
 70
     0
  9
$USERI2
 70
     0
  9
$USERI3
 70
     0
  9
$USERI4
 70
     0
  9
$USERI5
 70
     0
  9
$USERR1
 40
0.0
  9
$USERR2
 40
0.0
  9
$USERR3
 40
0.0
  9
$USERR4
 40
0.0
  9
$USERR5
 40
0.0
  9
$WORLDVIEW
 70
     1
  9
$SHADEDGE
 70
     3
  9
$SHADEDIF
 70
    70
  9
$TILEMODE
 70
     1
  9
$MAXACTVP
 70
    64
  9
$PLIMCHECK
 70
     0
  9
$PEXTMIN
 10
1.0000000000000000E+020
 20
1.0000000000000000E+020
 30
1.0000000000000000E+020
  9
$PEXTMAX
 10
-1.0000000000000000E+020
 20
-1.0000000000000000E+020
 30
-1.0000000000000000E+020
  9
$PLIMMIN
 10
0.0
 20
0.0
  9
$PLIMMAX
 10
420.0
 20
297.0
  9
$UNITMODE
 70
     0
  9
$VISRETAIN
 70
     1
  9
$PLINEGEN
 70
     0
  9
$PSLTSCALE
 70
     1
  0
ENDSEC
  0
SECTION
  2
TABLES
  0
TABLE
  2
VPORT
 70
     2
  0
VPORT
  2
*ACTIVE
 70
     0
 10
0.0
 20
0.0
 11
1.0
 21
1.0
 12
301.94704658489428
 22
223.08461569544889
 13
0.0
 23
0.0
 14
10.0
 24
10.0
 15
10.0
 25
10.0
 16
0.0
 26
0.0
 36
1.0
 17
0.0
 27
0.0
 37
0.0
 40
432.40096573988671
 41
1.7359999999999991
 42
50.0
 43
0.0
 44
0.0
 50
0.0
 51
0.0
 71
     0
 72
   100
 73
     1
 74
     3
 75
     0
 76
     0
 77
     0
 78
     0
  0
ENDTAB
  0
TABLE
  2
LTYPE
 70
     3
  0
LTYPE
  2
CONTINUOUS
 70
     0
  3
Solid line
 72
    65
 73
     0
 40
0.0
  0
LTYPE
  2
DASHED
 70
     0
  3
Dashed __ __ __ __ __ __ __ __ __ __ __ __ __ _
 72
    65
 73
     2
 40
19.049999999999962
 49
12.699999999999999
 49
-6.349999999999997
  0
LTYPE
  2
CENTER
 70
     0
  3
Center ____ _ ____ _ ____ _ ____ _ ____ _ ____
 72
    65
 73
     4
 40
50.799999999999997
 49
31.75
 49
-6.3499999999999979
 49
6.3499999999999979
 49
-6.3499999999999979
  0
ENDTAB
  0
TABLE
  2
LAYER
 70
     4
  0
LAYER
  2
0
 70
     0
 62
     7
  6
CONTINUOUS
  0
LAYER
  2
DANMEN
 70
     0
 62
     7
  6
CONTINUOUS
  0
LAYER
  2
SUNPO
 70
     0
 62
     1
  6
CONTINUOUS
  0
LAYER
  2
WAKU
 70
     0
 62
     3
  6
CONTINUOUS
  0
ENDTAB
  0
TABLE
  2
STYLE
 70
     6
  0
STYLE
  2
STANDARD
 70
     0
 40
0.0
 41
1.0
 50
0.0
 71
     0
 42
2.5
  3
txt
  4

  0
STYLE
  2
MX_NOTE_STANDARD
 70
     0
 40
0.0
 41
1.0
 50
0.0
 71
     0
 42
2.5
  3
txt.shx
  4
extfont.shx
  0
STYLE
  2
MX_DIMTXSTY_2
 70
     0
 40
0.0
 41
1.1999999999999991
 50
0.0
 71
     0
 42
2.5
  3
txt.shx
  4
extfont.shx
  0
STYLE
  2
MX_DIMTXSTY_3
 70
     0
 40
0.0
 41
1.1000000000000001
 50
0.0
 71
     0
 42
2.5
  3
txt.shx
  4
extfont.shx
  0
STYLE
  2
MX_DIMTXSTY_4
 70
     0
 40
0.0
 41
1.3500000000000001
 50
0.0
 71
     0
 42
2.5
  3
txt.shx
  4
extfont.shx
  0
STYLE
  2
MX_DIMTXSTY_5
 70
     0
 40
0.0
 41
1.3500000000000001
 50
0.0
 71
     0
 42
2.5
  3
txt.shx
  4
extfont.shx
  0
ENDTAB
  0
TABLE
  2
VIEW
 70
     0
  0
ENDTAB
  0
TABLE
  2
UCS
 70
     0
  0
ENDTAB
  0
TABLE
  2
APPID
 70
     1
  0
APPID
  2
ACAD
 70
     0
  0
ENDTAB
  0
TABLE
  2
DIMSTYLE
 70
     2
  0
DIMSTYLE
  2
ISO-25
 70
     0
  3

  4

  5

  6

  7

 40
1.0
 41
2.5
 42
0.625
 43
3.75
 44
1.25
 45
0.0
 46
0.0
 47
0.0
 48
0.0
140
2.5
141
2.5
142
0.0
143
0.03937007874016
144
1.0
145
0.0
146
1.0
147
0.625
 71
     0
 72
     0
 73
     0
 74
     0
 75
     0
 76
     0
 77
     1
 78
     8
170
     0
171
     3
172
     1
173
     0
174
     0
175
     0
176
     0
177
     0
178
     0
  0
DIMSTYLE
  2
MXDIMSTYLE
 70
     0
  3

  4

  5

  6

  7

 40
1.0
 41
2.5
 42
1.5
 43
3.75
 44
0.0
 45
0.0
 46
0.0
 47
0.0
 48
0.0
140
2.5
141
2.5
142
0.0
143
0.03937007874016
144
1.0
145
0.0
146
1.0
147
0.5
 71
     0
 72
     0
 73
     0
 74
     0
 75
     0
 76
     0
 77
     1
 78
     8
170
     0
171
     4
172
     1
173
     1
174
     0
175
     0
176
     0
177
     0
178
     0
  0
ENDTAB
  0
ENDSEC
  0
SECTION
  2
BLOCKS
  0
BLOCK
  8
0
  2
$MODEL_SPACE
 70
     0
 10
0.0
 20
0.0
 30
0.0
  3
$MODEL_SPACE
  1

  0
ENDBLK
  5
1C50
  8
0
  0
BLOCK
 67
     1
  8
0
  2
$PAPER_SPACE
 70
     0
 10
0.0
 20
0.0
 30
0.0
  3
$PAPER_SPACE
  1

  0
ENDBLK
  5
1C4C
 67
     1
  8
0
  0
BLOCK
  8
0
  6
BYBLOCK
 62
     0
  2
_OPEN30
 70
     2
 10
0.0
 20
0.0
 30
0.0
  3
_OPEN30
  1

  0
LINE
  5
22B5
  8
0
  6
BYBLOCK
 62
     0
 10
-1.0
 20
0.267949
 30
0.0
 11
0.0
 21
0.0
 31
0.0
  0
LINE
  5
22B6
  8
0
  6
BYBLOCK
 62
     0
 10
0.0
 20
0.0
 30
0.0
 11
-1.0
 21
-0.267949
 31
0.0
  0
LINE
  5
22B7
  8
0
  6
BYBLOCK
 62
     0
 10
0.0
 20
0.0
 30
0.0
 11
-1.0
 21
0.0
 31
0.0
  0
ENDBLK
  5
22B9
  8
0
  6
BYBLOCK
 62
     0
  0
ENDSEC
  0
SECTION
  2
ENTITIES
  0
LINE
  5
2158
  8
WAKU
  6
CONTINUOUS
 10
494.47477787089508
 20
414.85770574567772
 30
0.0
 11
495.10192687089511
 21
416.5807827456776
 31
0.0
  0
LINE
  5
2159
  8
WAKU
  6
CONTINUOUS
 10
493.76923587089539
 20
412.9192447456777
 30
0.0
 11
494.2395968708953
 21
414.2115517456777
 31
0.0
  0
SOLID
  5
215A
  8
WAKU
  6
CONTINUOUS
 10
497.25577287089561
 20
416.5807827456776
 30
0.0
 11
494.41499387089561
 21
411.73462874567758
 31
0.0
 12
494.70798087089508
 22
409.58078274567771
 32
0.0
 13
494.70798087089508
 23
409.58078274567771
 33
0.0
  0
SOLID
  5
215B
  8
WAKU
  6
CONTINUOUS
 10
494.41499387089561
 20
411.73462874567758
 30
0.0
 11
497.25577287089561
 21
416.5807827456776
 31
0.0
 12
496.17884987089508
 22
416.5807827456776
 32
0.0
 13
496.17884987089508
 23
416.5807827456776
 33
0.0
  0
LINE
  5
215C
  8
WAKU
  6
CONTINUOUS
 10
494.41499387089561
 20
411.73462874567758
 30
0.0
 11
496.17884987089508
 21
416.5807827456776
 31
0.0
  0
LINE
  5
215D
  8
WAKU
  6
CONTINUOUS
 10
494.70798087089508
 20
409.58078274567771
 30
0.0
 11
497.25577287089561
 21
416.5807827456776
 31
0.0
  0
LINE
  5
215E
  8
WAKU
  6
CONTINUOUS
 10
496.17884987089508
 20
416.5807827456776
 30
0.0
 11
497.25577287089561
 21
416.5807827456776
 31
0.0
  0
LINE
  5
215F
  8
WAKU
  6
CONTINUOUS
 10
491.87115787089567
 20
416.5807827456776
 30
0.0
 11
491.2440088708953
 21
414.85770574567772
 31
0.0
  0
LINE
  5
2160
  8
WAKU
  6
CONTINUOUS
 10
491.00882787089557
 20
414.2115517456777
 30
0.0
 11
490.5384668708956
 21
412.9192447456777
 31
0.0
  0
LINE
  5
2161
  8
WAKU
  6
CONTINUOUS
 10
489.3233658708956
 20
409.58078274567771
 30
0.0
 11
490.10730187089513
 21
411.73462874567758
 31
0.0
  0
LINE
  5
2162
  8
WAKU
  6
CONTINUOUS
 10
488.05243587089512
 20
414.96539774567742
 30
0.0
 11
489.1293598708948
 21
414.96539774567742
 31
0.0
  0
SOLID
  5
2163
  8
WAKU
  6
CONTINUOUS
 10
487.16951987089539
 20
409.58078274567771
 30
0.0
 11
486.68054887089568
 21
411.196167745678
 31
0.0
 12
483.44977887089561
 22
411.196167745678
 32
0.0
 13
483.44977887089561
 23
411.196167745678
 33
0.0
  0
LINE
  5
2164
  8
WAKU
  6
CONTINUOUS
 10
483.4497788708951
 20
411.1961677456776
 30
0.0
 11
486.68054887089539
 21
411.1961677456776
 31
0.0
  0
SOLID
  5
2165
  8
WAKU
  6
CONTINUOUS
 10
485.11465387089561
 20
412.81155174567812
 30
0.0
 11
485.89858987089542
 21
414.96539774567827
 31
0.0
 12
484.82166687089563
 22
414.96539774567827
 32
0.0
 13
484.82166687089563
 23
414.96539774567827
 33
0.0
  0
LINE
  5
2166
  8
WAKU
  6
CONTINUOUS
 10
485.43773087089562
 20
412.81155174567772
 30
0.0
 11
486.22166687089509
 21
414.96539774567742
 31
0.0
  0
LINE
  5
2167
  8
WAKU
  6
CONTINUOUS
 10
485.11465387089561
 20
412.81155174567772
 30
0.0
 11
485.89858987089502
 21
414.96539774567742
 31
0.0
  0
LINE
  5
2168
  8
WAKU
  6
CONTINUOUS
 10
485.43773087089562
 20
412.81155174567772
 30
0.0
 11
486.51465387089462
 21
412.81155174567772
 31
0.0
  0
LINE
  5
2169
  8
WAKU
  6
CONTINUOUS
 10
484.82166687089563
 20
414.96539774567742
 30
0.0
 11
485.89858987089502
 21
414.96539774567742
 31
0.0
  0
SOLID
  5
216A
  8
WAKU
  6
CONTINUOUS
 10
486.22166687089538
 20
414.96539774567827
 30
0.0
 11
485.43773087089562
 21
412.81155174567812
 31
0.0
 12
487.29858987089511
 22
414.96539774567827
 32
0.0
 13
487.29858987089511
 23
414.96539774567827
 33
0.0
  0
SOLID
  5
216B
  8
WAKU
  6
CONTINUOUS
 10
487.29858987089511
 20
414.96539774567827
 30
0.0
 11
485.43773087089562
 21
412.81155174567812
 31
0.0
 12
486.51465387089559
 22
412.81155174567812
 32
0.0
 13
486.51465387089559
 23
412.81155174567812
 33
0.0
  0
SOLID
  5
216C
  8
WAKU
  6
CONTINUOUS
 10
484.82166687089563
 20
414.96539774567827
 30
0.0
 11
484.03773087089581
 21
412.81155174567812
 31
0.0
 12
485.11465387089561
 22
412.81155174567812
 32
0.0
 13
485.11465387089561
 23
412.81155174567812
 33
0.0
  0
LINE
  5
216D
  8
WAKU
  6
CONTINUOUS
 10
484.03773087089519
 20
412.81155174567772
 30
0.0
 11
484.82166687089563
 21
414.96539774567742
 31
0.0
  0
LINE
  5
216E
  8
WAKU
  6
CONTINUOUS
 10
484.03773087089519
 20
412.81155174567772
 30
0.0
 11
485.11465387089561
 21
412.81155174567772
 31
0.0
  0
LINE
  5
216F
  8
WAKU
  6
CONTINUOUS
 10
486.51465387089462
 20
412.81155174567772
 30
0.0
 11
487.29858987089511
 21
414.96539774567742
 31
0.0
  0
LINE
  5
2170
  8
WAKU
  6
CONTINUOUS
 10
486.22166687089509
 20
414.96539774567742
 30
0.0
 11
487.29858987089511
 21
414.96539774567742
 31
0.0
  0
SOLID
  5
2171
  8
WAKU
  6
CONTINUOUS
 10
488.05243587089541
 20
414.96539774567827
 30
0.0
 11
486.68054887089568
 21
411.196167745678
 31
0.0
 12
487.16951987089539
 22
409.58078274567771
 32
0.0
 13
487.16951987089539
 23
409.58078274567771
 33
0.0
  0
LINE
  5
2172
  8
WAKU
  6
CONTINUOUS
 10
486.68054887089539
 20
411.1961677456776
 30
0.0
 11
488.05243587089512
 21
414.96539774567742
 31
0.0
  0
SOLID
  5
2173
  8
WAKU
  6
CONTINUOUS
 10
489.12935987089583
 20
414.96539774567827
 30
0.0
 11
488.05243587089541
 21
414.96539774567827
 31
0.0
 12
487.16951987089539
 22
409.58078274567771
 32
0.0
 13
487.16951987089539
 23
409.58078274567771
 33
0.0
  0
LINE
  5
2174
  8
WAKU
  6
CONTINUOUS
 10
487.16951987089539
 20
409.58078274567771
 30
0.0
 11
489.1293598708948
 21
414.96539774567742
 31
0.0
  0
SOLID
  5
2175
  8
WAKU
  6
CONTINUOUS
 10
482.17884987089531
 20
416.5807827456776
 30
0.0
 11
481.70848787089562
 21
415.28847474567817
 31
0.0
 12
482.78541087089548
 22
415.28847474567817
 32
0.0
 13
482.78541087089548
 23
415.28847474567817
 33
0.0
  0
SOLID
  5
2176
  8
WAKU
  6
CONTINUOUS
 10
481.70848787089562
 20
415.28847474567817
 30
0.0
 11
482.19745987089561
 21
413.67309074567771
 31
0.0
 12
483.00515187089542
 22
413.67309074567771
 32
0.0
 13
483.00515187089542
 23
413.67309074567771
 33
0.0
  0
LINE
  5
2177
  8
WAKU
  6
CONTINUOUS
 10
481.70848787089471
 20
415.28847474567772
 30
0.0
 11
482.17884987089508
 21
416.5807827456776
 31
0.0
  0
LINE
  5
2178
  8
WAKU
  6
CONTINUOUS
 10
482.19745987089539
 20
413.67309074567771
 30
0.0
 11
483.00515187089508
 21
413.67309074567771
 31
0.0
  0
LINE
  5
2179
  8
WAKU
  6
CONTINUOUS
 10
479.01618087089508
 20
415.28847474567772
 30
0.0
 11
479.48654187089539
 21
416.5807827456776
 31
0.0
  0
LINE
  5
217A
  8
WAKU
  6
CONTINUOUS
 10
478.40961887089509
 20
416.5807827456776
 30
0.0
 11
479.48654187089539
 21
416.5807827456776
 31
0.0
  0
SOLID
  5
217B
  8
WAKU
  6
CONTINUOUS
 10
481.12053587089508
 20
413.67309074567771
 30
0.0
 11
480.41499387089561
 21
411.73462874567758
 31
0.0
 12
480.70798087089571
 22
409.58078274567771
 32
0.0
 13
480.70798087089571
 23
409.58078274567771
 33
0.0
  0
LINE
  5
217C
  8
WAKU
  6
CONTINUOUS
 10
480.41499387089561
 20
411.73462874567758
 30
0.0
 11
481.12053587089503
 21
413.67309074567771
 31
0.0
  0
LINE
  5
217D
  8
WAKU
  6
CONTINUOUS
 10
478.42822887089523
 20
413.67309074567771
 30
0.0
 11
481.12053587089503
 21
413.67309074567771
 31
0.0
  0
SOLID
  5
217E
  8
WAKU
  6
CONTINUOUS
 10
482.19745987089561
 20
413.67309074567771
 30
0.0
 11
481.12053587089508
 21
413.67309074567771
 31
0.0
 12
480.70798087089571
 22
409.58078274567771
 32
0.0
 13
480.70798087089571
 23
409.58078274567771
 33
0.0
  0
LINE
  5
217F
  8
WAKU
  6
CONTINUOUS
 10
480.70798087089531
 20
409.58078274567771
 30
0.0
 11
482.19745987089539
 21
413.67309074567771
 31
0.0
  0
SOLID
  5
2180
  8
WAKU
  6
CONTINUOUS
 10
482.19745987089561
 20
413.67309074567771
 30
0.0
 11
481.70848787089562
 21
415.28847474567817
 31
0.0
 12
479.0161808708956
 22
415.28847474567817
 32
0.0
 13
479.0161808708956
 23
415.28847474567817
 33
0.0
  0
LINE
  5
2181
  8
WAKU
  6
CONTINUOUS
 10
479.01618087089508
 20
415.28847474567772
 30
0.0
 11
481.70848787089471
 21
415.28847474567772
 31
0.0
  0
LINE
  5
2182
  8
WAKU
  6
CONTINUOUS
 10
476.9593378708953
 20
412.59616774567769
 30
0.0
 11
477.3513058708956
 21
413.67309074567771
 31
0.0
  0
LINE
  5
2183
  8
WAKU
  6
CONTINUOUS
 10
476.9593378708953
 20
412.59616774567769
 30
0.0
 11
478.0362608708956
 21
412.59616774567769
 31
0.0
  0
LINE
  5
2184
  8
WAKU
  6
CONTINUOUS
 10
475.64644287089459
 20
409.58078274567771
 30
0.0
 11
476.43037887089508
 21
411.73462874567758
 31
0.0
  0
LINE
  5
2185
  8
WAKU
  6
CONTINUOUS
 10
476.543612870895
 20
413.67309074567771
 30
0.0
 11
477.3513058708956
 21
413.67309074567771
 31
0.0
  0
LINE
  5
2186
  8
WAKU
  6
CONTINUOUS
 10
477.1315648708956
 20
415.28847474567772
 30
0.0
 11
477.93925787089472
 21
415.28847474567772
 31
0.0
  0
LINE
  5
2187
  8
WAKU
  6
CONTINUOUS
 10
476.543612870895
 20
413.67309074567771
 30
0.0
 11
477.1315648708956
 21
415.28847474567772
 31
0.0
  0
LINE
  5
2188
  8
WAKU
  6
CONTINUOUS
 10
475.62862387089513
 20
414.85770574567772
 30
0.0
 11
476.2557728708951
 21
416.5807827456776
 31
0.0
  0
LINE
  5
2189
  8
WAKU
  6
CONTINUOUS
 10
473.70798087089503
 20
409.58078274567771
 30
0.0
 11
474.49191687089473
 21
411.73462874567758
 31
0.0
  0
SOLID
  5
218A
  8
WAKU
  6
CONTINUOUS
 10
477.13156487089577
 20
415.28847474567817
 30
0.0
 11
476.54361287089557
 21
413.67309074567771
 31
0.0
 12
479.0161808708956
 22
415.28847474567817
 32
0.0
 13
479.0161808708956
 23
415.28847474567817
 33
0.0
  0
LINE
  5
218B
  8
WAKU
  6
CONTINUOUS
 10
477.93925787089472
 20
415.28847474567772
 30
0.0
 11
478.40961887089509
 21
416.5807827456776
 31
0.0
  0
SOLID
  5
218C
  8
WAKU
  6
CONTINUOUS
 10
479.48654187089539
 20
416.5807827456776
 30
0.0
 11
477.93925787089591
 21
415.28847474567817
 31
0.0
 12
479.0161808708956
 22
415.28847474567817
 32
0.0
 13
479.0161808708956
 23
415.28847474567817
 33
0.0
  0
SOLID
  5
218D
  8
WAKU
  6
CONTINUOUS
 10
477.93925787089591
 20
415.28847474567817
 30
0.0
 11
479.48654187089539
 21
416.5807827456776
 31
0.0
 12
478.40961887089583
 22
416.5807827456776
 32
0.0
 13
478.40961887089583
 23
416.5807827456776
 33
0.0
  0
SOLID
  5
218E
  8
WAKU
  6
CONTINUOUS
 10
480.70798087089571
 20
409.58078274567771
 30
0.0
 11
480.41499387089561
 21
411.73462874567758
 31
0.0
 12
476.43037887089599
 22
411.73462874567758
 32
0.0
 13
476.43037887089599
 23
411.73462874567758
 33
0.0
  0
SOLID
  5
218F
  8
WAKU
  6
CONTINUOUS
 10
476.43037887089599
 20
411.73462874567758
 30
0.0
 11
475.64644287089561
 21
409.58078274567771
 31
0.0
 12
480.70798087089571
 22
409.58078274567771
 32
0.0
 13
480.70798087089571
 23
409.58078274567771
 33
0.0
  0
LINE
  5
2190
  8
WAKU
  6
CONTINUOUS
 10
475.64644287089459
 20
409.58078274567771
 30
0.0
 11
480.70798087089531
 21
409.58078274567771
 31
0.0
  0
SOLID
  5
2191
  8
WAKU
  6
CONTINUOUS
 10
476.54361287089557
 20
413.67309074567771
 30
0.0
 11
478.42822887089568
 21
413.67309074567771
 31
0.0
 12
481.12053587089508
 22
413.67309074567771
 32
0.0
 13
481.12053587089508
 23
413.67309074567771
 33
0.0
  0
SOLID
  5
2192
  8
WAKU
  6
CONTINUOUS
 10
479.0161808708956
 20
415.28847474567817
 30
0.0
 11
476.54361287089557
 21
413.67309074567771
 31
0.0
 12
482.19745987089561
 22
413.67309074567771
 32
0.0
 13
482.19745987089561
 23
413.67309074567771
 33
0.0
  0
SOLID
  5
2193
  8
WAKU
  6
CONTINUOUS
 10
482.19745987089561
 20
413.67309074567771
 30
0.0
 11
476.54361287089557
 21
413.67309074567771
 31
0.0
 12
481.12053587089508
 22
413.67309074567771
 32
0.0
 13
481.12053587089508
 23
413.67309074567771
 33
0.0
  0
SOLID
  5
2194
  8
WAKU
  6
CONTINUOUS
 10
477.3513058708956
 20
413.67309074567771
 30
0.0
 11
476.9593378708953
 21
412.5961677456782
 31
0.0
 12
478.42822887089568
 22
413.67309074567771
 32
0.0
 13
478.42822887089568
 23
413.67309074567771
 33
0.0
  0
SOLID
  5
2195
  8
WAKU
  6
CONTINUOUS
 10
478.42822887089568
 20
413.67309074567771
 30
0.0
 11
476.9593378708953
 21
412.5961677456782
 31
0.0
 12
478.0362608708956
 22
412.5961677456782
 32
0.0
 13
478.0362608708956
 23
412.5961677456782
 33
0.0
  0
LINE
  5
2196
  8
WAKU
  6
CONTINUOUS
 10
478.0362608708956
 20
412.59616774567769
 30
0.0
 11
478.42822887089523
 21
413.67309074567771
 31
0.0
  0
LINE
  5
2197
  8
WAKU
  6
CONTINUOUS
 10
476.43037887089508
 20
411.73462874567758
 30
0.0
 11
480.41499387089561
 21
411.73462874567758
 31
0.0
  0
SOLID
  5
2198
  8
WAKU
  6
CONTINUOUS
 10
476.54361287089557
 20
413.67309074567771
 30
0.0
 11
477.3513058708956
 21
413.67309074567771
 31
0.0
 12
478.42822887089568
 22
413.67309074567771
 32
0.0
 13
478.42822887089568
 23
413.67309074567771
 33
0.0
  0
SOLID
  5
2199
  8
WAKU
  6
CONTINUOUS
 10
479.0161808708956
 20
415.28847474567817
 30
0.0
 11
477.93925787089591
 21
415.28847474567817
 31
0.0
 12
477.13156487089577
 22
415.28847474567817
 32
0.0
 13
477.13156487089577
 23
415.28847474567817
 33
0.0
  0
SOLID
  5
219A
  8
WAKU
  6
CONTINUOUS
 10
483.44977887089561
 20
411.196167745678
 30
0.0
 11
482.86182787089592
 21
409.58078274567771
 31
0.0
 12
487.16951987089539
 22
409.58078274567771
 32
0.0
 13
487.16951987089539
 23
409.58078274567771
 33
0.0
  0
LINE
  5
219B
  8
WAKU
  6
CONTINUOUS
 10
482.86182787089592
 20
409.58078274567771
 30
0.0
 11
487.16951987089539
 21
409.58078274567771
 31
0.0
  0
SOLID
  5
219C
  8
WAKU
  6
CONTINUOUS
 10
482.78541087089548
 20
415.28847474567817
 30
0.0
 11
481.70848787089562
 21
415.28847474567817
 31
0.0
 12
483.59310387089562
 22
415.28847474567817
 32
0.0
 13
483.59310387089562
 23
415.28847474567817
 33
0.0
  0
SOLID
  5
219D
  8
WAKU
  6
CONTINUOUS
 10
483.59310387089562
 20
415.28847474567817
 30
0.0
 11
481.70848787089562
 21
415.28847474567817
 31
0.0
 12
483.00515187089542
 22
413.67309074567771
 32
0.0
 13
483.00515187089542
 23
413.67309074567771
 33
0.0
  0
LINE
  5
219E
  8
WAKU
  6
CONTINUOUS
 10
482.86182787089592
 20
409.58078274567771
 30
0.0
 11
483.4497788708951
 21
411.1961677456776
 31
0.0
  0
SOLID
  5
219F
  8
WAKU
  6
CONTINUOUS
 10
483.25577287089538
 20
416.5807827456776
 30
0.0
 11
482.17884987089531
 21
416.5807827456776
 31
0.0
 12
482.78541087089548
 22
415.28847474567817
 32
0.0
 13
482.78541087089548
 23
415.28847474567817
 33
0.0
  0
LINE
  5
21A0
  8
WAKU
  6
CONTINUOUS
 10
482.17884987089508
 20
416.5807827456776
 30
0.0
 11
483.25577287089459
 21
416.5807827456776
 31
0.0
  0
LINE
  5
21A1
  8
WAKU
  6
CONTINUOUS
 10
482.78541087089548
 20
415.28847474567772
 30
0.0
 11
483.25577287089459
 21
416.5807827456776
 31
0.0
  0
LINE
  5
21A2
  8
WAKU
  6
CONTINUOUS
 10
482.78541087089548
 20
415.28847474567772
 30
0.0
 11
483.59310387089562
 21
415.28847474567772
 31
0.0
  0
LINE
  5
21A3
  8
WAKU
  6
CONTINUOUS
 10
483.00515187089508
 20
413.67309074567771
 30
0.0
 11
483.59310387089562
 21
415.28847474567772
 31
0.0
  0
LINE
  5
21A4
  8
WAKU
  6
CONTINUOUS
 10
470.2440088708953
 20
414.85770574567772
 30
0.0
 11
470.87115787089562
 21
416.5807827456776
 31
0.0
  0
LINE
  5
21A5
  8
WAKU
  6
CONTINUOUS
 10
468.3233658708956
 20
409.58078274567771
 30
0.0
 11
469.10730187089513
 21
411.73462874567758
 31
0.0
  0
LINE
  5
21A6
  8
WAKU
  6
CONTINUOUS
 10
469.5788498708954
 20
416.5807827456776
 30
0.0
 11
468.95170087089451
 21
414.85770574567772
 31
0.0
  0
LINE
  5
21A7
  8
WAKU
  6
CONTINUOUS
 10
466.78062387089511
 20
414.85770574567772
 30
0.0
 11
468.01097787089509
 21
412.27309074567768
 31
0.0
  0
LINE
  5
21A8
  8
WAKU
  6
CONTINUOUS
 10
467.0310578708951
 20
409.58078274567771
 30
0.0
 11
468.01097787089509
 21
412.27309074567768
 31
0.0
  0
SOLID
  5
21A9
  8
WAKU
  6
CONTINUOUS
 10
465.74943987089569
 20
412.27309074567802
 30
0.0
 11
464.65291787089558
 21
412.219244745678
 31
0.0
 12
464.76951987089518
 22
409.58078274567771
 32
0.0
 13
464.76951987089518
 23
409.58078274567771
 33
0.0
  0
LINE
  5
21AA
  8
WAKU
  6
CONTINUOUS
 10
464.76951987089518
 20
409.58078274567771
 30
0.0
 11
465.74943987089512
 21
412.27309074567768
 31
0.0
  0
SOLID
  5
21AB
  8
WAKU
  6
CONTINUOUS
 10
464.65291787089558
 20
412.219244745678
 30
0.0
 11
463.69259687089561
 21
409.58078274567771
 31
0.0
 12
464.76951987089518
 22
409.58078274567771
 32
0.0
 13
464.76951987089518
 23
409.58078274567771
 33
0.0
  0
LINE
  5
21AC
  8
WAKU
  6
CONTINUOUS
 10
463.69259687089561
 20
409.58078274567771
 30
0.0
 11
464.65291787089512
 21
412.219244745678
 31
0.0
  0
LINE
  5
21AD
  8
WAKU
  6
CONTINUOUS
 10
463.69259687089561
 20
409.58078274567771
 30
0.0
 11
464.76951987089518
 21
409.58078274567771
 31
0.0
  0
SOLID
  5
21AE
  8
WAKU
  6
CONTINUOUS
 10
466.78062387089511
 20
414.857705745678
 30
0.0
 11
465.56708587089571
 21
414.857705745678
 31
0.0
 12
465.74943987089569
 22
412.27309074567802
 32
0.0
 13
465.74943987089569
 23
412.27309074567802
 33
0.0
  0
LINE
  5
21AF
  8
WAKU
  6
CONTINUOUS
 10
465.74943987089512
 20
412.27309074567768
 30
0.0
 11
467.0310578708951
 21
409.58078274567771
 31
0.0
  0
SOLID
  5
21B0
  8
WAKU
  6
CONTINUOUS
 10
466.78062387089511
 20
414.857705745678
 30
0.0
 11
465.74943987089569
 21
412.27309074567802
 31
0.0
 12
468.01097787089537
 22
412.27309074567802
 32
0.0
 13
468.01097787089537
 23
412.27309074567802
 33
0.0
  0
SOLID
  5
21B1
  8
WAKU
  6
CONTINUOUS
 10
465.74943987089569
 20
412.27309074567802
 30
0.0
 11
467.03105787089561
 21
409.58078274567771
 31
0.0
 12
468.01097787089537
 22
412.27309074567802
 32
0.0
 13
468.01097787089537
 23
412.27309074567802
 33
0.0
  0
LINE
  5
21B2
  8
WAKU
  6
CONTINUOUS
 10
463.351700870895
 20
414.85770574567772
 30
0.0
 11
465.56708587089503
 21
414.85770574567772
 31
0.0
  0
LINE
  5
21B3
  8
WAKU
  6
CONTINUOUS
 10
463.97884987089509
 20
416.5807827456776
 30
0.0
 11
463.351700870895
 21
414.85770574567772
 31
0.0
  0
SOLID
  5
21B4
  8
WAKU
  6
CONTINUOUS
 10
463.97884987089571
 20
416.5807827456776
 30
0.0
 11
463.35170087089563
 21
414.857705745678
 31
0.0
 12
466.78062387089511
 22
414.857705745678
 32
0.0
 13
466.78062387089511
 23
414.857705745678
 33
0.0
  0
SOLID
  5
21B5
  8
WAKU
  6
CONTINUOUS
 10
466.78062387089511
 20
414.857705745678
 30
0.0
 11
463.35170087089563
 21
414.857705745678
 31
0.0
 12
465.56708587089571
 22
414.857705745678
 32
0.0
 13
465.56708587089571
 23
414.857705745678
 33
0.0
  0
LINE
  5
21B6
  8
WAKU
  6
CONTINUOUS
 10
466.78062387089511
 20
414.85770574567772
 30
0.0
 11
468.95170087089451
 21
414.85770574567772
 31
0.0
  0
SOLID
  5
21B7
  8
WAKU
  6
CONTINUOUS
 10
469.57884987089562
 20
416.5807827456776
 30
0.0
 11
463.97884987089571
 21
416.5807827456776
 31
0.0
 12
468.95170087089531
 22
414.857705745678
 32
0.0
 13
468.95170087089531
 23
414.857705745678
 33
0.0
  0
SOLID
  5
21B8
  8
WAKU
  6
CONTINUOUS
 10
463.97884987089571
 20
416.5807827456776
 30
0.0
 11
466.78062387089511
 21
414.857705745678
 31
0.0
 12
468.95170087089531
 22
414.857705745678
 32
0.0
 13
468.95170087089531
 23
414.857705745678
 33
0.0
  0
LINE
  5
21B9
  8
WAKU
  6
CONTINUOUS
 10
463.97884987089509
 20
416.5807827456776
 30
0.0
 11
469.5788498708954
 21
416.5807827456776
 31
0.0
  0
LINE
  5
21BA
  8
WAKU
  6
CONTINUOUS
 10
461.4310578708953
 20
409.58078274567771
 30
0.0
 11
462.41097787089518
 21
412.27309074567768
 31
0.0
  0
LINE
  5
21BB
  8
WAKU
  6
CONTINUOUS
 10
459.15061587089508
 20
412.86447574567819
 30
0.0
 11
459.4125048708953
 21
413.36581274567772
 31
0.0
  0
SOLID
  5
21BC
  8
WAKU
  6
CONTINUOUS
 10
460.20659987089562
 20
413.67707174567829
 30
0.0
 11
459.81213387089548
 21
413.6506467456777
 31
0.0
 12
460.12175687089558
 22
413.24691674567799
 32
0.0
 13
460.12175687089558
 23
413.24691674567799
 33
0.0
  0
SOLID
  5
21BD
  8
WAKU
  6
CONTINUOUS
 10
459.81213387089548
 20
413.6506467456777
 30
0.0
 11
459.71648287089539
 21
413.25503074567729
 31
0.0
 12
460.12175687089558
 22
413.24691674567799
 32
0.0
 13
460.12175687089558
 23
413.24691674567799
 33
0.0
  0
LINE
  5
21BE
  8
WAKU
  6
CONTINUOUS
 10
460.12175687089518
 20
413.24691674567748
 30
0.0
 11
460.20659987089562
 21
413.67707174567721
 31
0.0
  0
LINE
  5
21BF
  8
WAKU
  6
CONTINUOUS
 10
459.71648287089539
 20
413.25503074567729
 30
0.0
 11
459.81213387089508
 21
413.65064674567691
 31
0.0
  0
SOLID
  5
21C0
  8
WAKU
  6
CONTINUOUS
 10
459.71648287089539
 20
413.25503074567729
 30
0.0
 11
459.52427987089561
 21
412.80006074567802
 31
0.0
 12
460.12175687089558
 22
413.24691674567799
 32
0.0
 13
460.12175687089558
 23
413.24691674567799
 33
0.0
  0
SOLID
  5
21C1
  8
WAKU
  6
CONTINUOUS
 10
460.12175687089558
 20
413.24691674567799
 30
0.0
 11
459.52427987089561
 21
412.80006074567802
 31
0.0
 12
459.94527587089561
 22
412.7776107456782
 32
0.0
 13
459.94527587089561
 23
412.7776107456782
 33
0.0
  0
LINE
  5
21C2
  8
WAKU
  6
CONTINUOUS
 10
459.6836378708951
 20
412.28639174567741
 30
0.0
 11
459.9452758708947
 21
412.77761074567741
 31
0.0
  0
LINE
  5
21C3
  8
WAKU
  6
CONTINUOUS
 10
459.9452758708947
 20
412.77761074567741
 30
0.0
 11
460.12175687089518
 21
413.24691674567748
 31
0.0
  0
LINE
  5
21C4
  8
WAKU
  6
CONTINUOUS
 10
459.52427987089459
 20
412.80006074567802
 30
0.0
 11
459.71648287089539
 21
413.25503074567729
 31
0.0
  0
LINE
  5
21C5
  8
WAKU
  6
CONTINUOUS
 10
458.94610787089471
 20
411.31052674567741
 30
0.0
 11
459.34645387089557
 21
411.79130274567768
 31
0.0
  0
SOLID
  5
21C6
  8
WAKU
  6
CONTINUOUS
 10
459.52427987089561
 20
412.80006074567802
 30
0.0
 11
459.24082287089561
 21
412.31450074567812
 31
0.0
 12
459.94527587089561
 22
412.7776107456782
 32
0.0
 13
459.94527587089561
 23
412.7776107456782
 33
0.0
  0
SOLID
  5
21C7
  8
WAKU
  6
CONTINUOUS
 10
459.94527587089561
 20
412.7776107456782
 30
0.0
 11
459.24082287089561
 21
412.31450074567812
 31
0.0
 12
459.68363787089561
 22
412.28639174567809
 32
0.0
 13
459.68363787089561
 23
412.28639174567809
 33
0.0
  0
LINE
  5
21C8
  8
WAKU
  6
CONTINUOUS
 10
459.34645387089557
 20
411.79130274567768
 30
0.0
 11
459.6836378708951
 21
412.28639174567741
 31
0.0
  0
LINE
  5
21C9
  8
WAKU
  6
CONTINUOUS
 10
459.24082287089561
 20
412.31450074567812
 30
0.0
 11
459.52427987089459
 21
412.80006074567802
 31
0.0
  0
SOLID
  5
21CA
  8
WAKU
  6
CONTINUOUS
 10
460.09238487089573
 20
414.35874974567793
 30
0.0
 11
459.6605828708955
 21
414.27703174567802
 31
0.0
 12
460.19668787089557
 22
414.05227574567829
 32
0.0
 13
460.19668787089557
 23
414.05227574567829
 33
0.0
  0
SOLID
  5
21CB
  8
WAKU
  6
CONTINUOUS
 10
459.6605828708955
 20
414.27703174567802
 30
0.0
 11
459.75872387089561
 21
414.15870074567817
 31
0.0
 12
460.19668787089557
 22
414.05227574567829
 32
0.0
 13
460.19668787089557
 23
414.05227574567829
 33
0.0
  0
SOLID
  5
21CC
  8
WAKU
  6
CONTINUOUS
 10
459.75872387089561
 20
414.15870074567817
 30
0.0
 11
459.81757487089561
 21
413.95803574567771
 31
0.0
 12
460.19668787089557
 22
414.05227574567829
 32
0.0
 13
460.19668787089557
 23
414.05227574567829
 33
0.0
  0
SOLID
  5
21CD
  8
WAKU
  6
CONTINUOUS
 10
460.19668787089557
 20
414.05227574567829
 30
0.0
 11
459.81757487089561
 21
413.95803574567771
 31
0.0
 12
460.20659987089562
 22
413.67707174567829
 32
0.0
 13
460.20659987089562
 23
413.67707174567829
 33
0.0
  0
SOLID
  5
21CE
  8
WAKU
  6
CONTINUOUS
 10
459.81757487089561
 20
413.95803574567771
 30
0.0
 11
459.81213387089548
 21
413.6506467456777
 31
0.0
 12
460.20659987089562
 22
413.67707174567829
 32
0.0
 13
460.20659987089562
 23
413.67707174567829
 33
0.0
  0
LINE
  5
21CF
  8
WAKU
  6
CONTINUOUS
 10
460.0923848708947
 20
414.35874974567793
 30
0.0
 11
459.89752187089562
 21
414.5852347456775
 31
0.0
  0
LINE
  5
21D0
  8
WAKU
  6
CONTINUOUS
 10
460.20659987089562
 20
413.67707174567721
 30
0.0
 11
460.19668787089512
 21
414.05227574567772
 31
0.0
  0
LINE
  5
21D1
  8
WAKU
  6
CONTINUOUS
 10
460.19668787089512
 20
414.05227574567772
 30
0.0
 11
460.0923848708947
 21
414.35874974567793
 31
0.0
  0
LINE
  5
21D2
  8
WAKU
  6
CONTINUOUS
 10
459.81213387089508
 20
413.65064674567691
 30
0.0
 11
459.8175748708947
 21
413.95803574567771
 31
0.0
  0
LINE
  5
21D3
  8
WAKU
  6
CONTINUOUS
 10
459.8175748708947
 20
413.95803574567771
 30
0.0
 11
459.7587238708947
 21
414.15870074567761
 31
0.0
  0
LINE
  5
21D4
  8
WAKU
  6
CONTINUOUS
 10
459.7587238708947
 20
414.15870074567761
 30
0.0
 11
459.66058287089442
 21
414.27703174567802
 31
0.0
  0
LINE
  5
21D5
  8
WAKU
  6
CONTINUOUS
 10
459.58469787089513
 20
413.84276974567751
 30
0.0
 11
459.66058287089442
 21
414.27703174567802
 31
0.0
  0
LINE
  5
21D6
  8
WAKU
  6
CONTINUOUS
 10
459.89752187089562
 20
414.5852347456775
 30
0.0
 11
459.6192568708945
 21
414.72341274567742
 31
0.0
  0
LINE
  5
21D7
  8
WAKU
  6
CONTINUOUS
 10
459.6192568708945
 20
414.72341274567742
 30
0.0
 11
459.48107887089532
 21
415.00167774567768
 31
0.0
  0
LINE
  5
21D8
  8
WAKU
  6
CONTINUOUS
 10
459.18784387089522
 20
413.87118474567728
 30
0.0
 11
459.27500187089458
 21
414.37935174567758
 31
0.0
  0
LINE
  5
21D9
  8
WAKU
  6
CONTINUOUS
 10
459.17271387089539
 20
414.76472674567748
 30
0.0
 11
459.0549208708951
 21
414.8627117456777
 31
0.0
  0
LINE
  5
21DA
  8
WAKU
  6
CONTINUOUS
 10
459.25459387089558
 20
415.1965397456778
 30
0.0
 11
458.94812087089502
 21
415.30084274567793
 31
0.0
  0
SOLID
  5
21DB
  8
WAKU
  6
CONTINUOUS
 10
459.05492087089539
 20
414.8627117456777
 30
0.0
 11
459.17271387089539
 21
414.76472674567799
 31
0.0
 12
459.61925687089558
 22
414.72341274567742
 32
0.0
 13
459.61925687089558
 23
414.72341274567742
 33
0.0
  0
SOLID
  5
21DC
  8
WAKU
  6
CONTINUOUS
 10
459.89752187089562
 20
414.58523474567818
 30
0.0
 11
459.27500187089549
 21
414.37935174567758
 31
0.0
 12
460.09238487089573
 22
414.35874974567793
 32
0.0
 13
460.09238487089573
 23
414.35874974567793
 33
0.0
  0
SOLID
  5
21DD
  8
WAKU
  6
CONTINUOUS
 10
459.27500187089549
 20
414.37935174567758
 30
0.0
 11
459.18784387089562
 21
413.87118474567808
 31
0.0
 12
459.6605828708955
 22
414.27703174567802
 32
0.0
 13
459.6605828708955
 23
414.27703174567802
 33
0.0
  0
SOLID
  5
21DE
  8
WAKU
  6
CONTINUOUS
 10
459.27500187089549
 20
414.37935174567758
 30
0.0
 11
459.6605828708955
 21
414.27703174567802
 31
0.0
 12
460.09238487089573
 22
414.35874974567793
 32
0.0
 13
460.09238487089573
 23
414.35874974567793
 33
0.0
  0
SOLID
  5
21DF
  8
WAKU
  6
CONTINUOUS
 10
459.6605828708955
 20
414.27703174567802
 30
0.0
 11
459.18784387089562
 21
413.87118474567808
 31
0.0
 12
459.5846978708957
 22
413.84276974567808
 32
0.0
 13
459.5846978708957
 23
413.84276974567808
 33
0.0
  0
LINE
  5
21E0
  8
WAKU
  6
CONTINUOUS
 10
459.48107887089532
 20
415.00167774567768
 30
0.0
 11
459.25459387089558
 21
415.1965397456778
 31
0.0
  0
LINE
  5
21E1
  8
WAKU
  6
CONTINUOUS
 10
459.4125048708953
 20
413.36581274567772
 30
0.0
 11
459.58469787089513
 21
413.84276974567751
 31
0.0
  0
LINE
  5
21E2
  8
WAKU
  6
CONTINUOUS
 10
458.73840887089511
 20
414.68879674567768
 30
0.0
 11
458.26141187089507
 21
414.51655074567719
 31
0.0
  0
LINE
  5
21E3
  8
WAKU
  6
CONTINUOUS
 10
458.40103887089458
 20
411.86587174567728
 30
0.0
 11
458.80908887089561
 21
412.35801174567769
 31
0.0
  0
LINE
  5
21E4
  8
WAKU
  6
CONTINUOUS
 10
458.47601087089458
 20
412.56270274567771
 30
0.0
 11
458.91712587089501
 21
413.240316745678
 31
0.0
  0
LINE
  5
21E5
  8
WAKU
  6
CONTINUOUS
 10
458.85376887089512
 20
414.92168474567728
 30
0.0
 11
458.54662987089472
 21
414.91636374567759
 31
0.0
  0
SOLID
  5
21E6
  8
WAKU
  6
CONTINUOUS
 10
458.73840887089563
 20
414.68879674567802
 30
0.0
 11
458.26141187089547
 21
414.5165507456777
 31
0.0
 12
459.89752187089562
 22
414.58523474567818
 32
0.0
 13
459.89752187089562
 23
414.58523474567818
 33
0.0
  0
SOLID
  5
21E7
  8
WAKU
  6
CONTINUOUS
 10
459.89752187089562
 20
414.58523474567818
 30
0.0
 11
458.26141187089547
 21
414.5165507456777
 31
0.0
 12
459.27500187089549
 22
414.37935174567758
 32
0.0
 13
459.27500187089549
 23
414.37935174567758
 33
0.0
  0
SOLID
  5
21E8
  8
WAKU
  6
CONTINUOUS
 10
459.4125048708953
 20
413.36581274567772
 30
0.0
 11
458.91712587089592
 21
413.240316745678
 31
0.0
 12
459.15061587089508
 22
412.86447574567819
 32
0.0
 13
459.15061587089508
 23
412.86447574567819
 33
0.0
  0
SOLID
  5
21E9
  8
WAKU
  6
CONTINUOUS
 10
459.18784387089562
 20
413.87118474567808
 30
0.0
 11
458.91712587089592
 21
413.240316745678
 31
0.0
 12
459.5846978708957
 22
413.84276974567808
 32
0.0
 13
459.5846978708957
 23
413.84276974567808
 33
0.0
  0
SOLID
  5
21EA
  8
WAKU
  6
CONTINUOUS
 10
459.5846978708957
 20
413.84276974567808
 30
0.0
 11
458.91712587089592
 21
413.240316745678
 31
0.0
 12
459.4125048708953
 22
413.36581274567772
 32
0.0
 13
459.4125048708953
 23
413.36581274567772
 33
0.0
  0
LINE
  5
21EB
  8
WAKU
  6
CONTINUOUS
 10
458.91712587089501
 20
413.240316745678
 30
0.0
 11
459.18784387089522
 21
413.87118474567728
 31
0.0
  0
SOLID
  5
21EC
  8
WAKU
  6
CONTINUOUS
 10
458.91712587089592
 20
413.240316745678
 30
0.0
 11
458.47601087089549
 21
412.56270274567771
 31
0.0
 12
459.15061587089508
 22
412.86447574567819
 32
0.0
 13
459.15061587089508
 23
412.86447574567819
 33
0.0
  0
SOLID
  5
21ED
  8
WAKU
  6
CONTINUOUS
 10
459.15061587089508
 20
412.86447574567819
 30
0.0
 11
458.47601087089549
 21
412.56270274567771
 31
0.0
 12
458.80908887089561
 22
412.35801174567769
 32
0.0
 13
458.80908887089561
 23
412.35801174567769
 33
0.0
  0
SOLID
  5
21EE
  8
WAKU
  6
CONTINUOUS
 10
459.34645387089557
 20
411.79130274567802
 30
0.0
 11
458.45173787089561
 21
411.35601474567773
 31
0.0
 12
458.94610787089562
 22
411.3105267456782
 32
0.0
 13
458.94610787089562
 23
411.3105267456782
 33
0.0
  0
LINE
  5
21EF
  8
WAKU
  6
CONTINUOUS
 10
458.45173787089459
 20
411.35601474567773
 30
0.0
 11
459.24082287089561
 21
412.31450074567812
 31
0.0
  0
LINE
  5
21F0
  8
WAKU
  6
CONTINUOUS
 10
458.49730487089522
 20
410.8617237456773
 30
0.0
 11
458.94610787089471
 21
411.31052674567741
 31
0.0
  0
LINE
  5
21F1
  8
WAKU
  6
CONTINUOUS
 10
458.80908887089561
 20
412.35801174567769
 30
0.0
 11
459.15061587089508
 21
412.86447574567819
 31
0.0
  0
SOLID
  5
21F2
  8
WAKU
  6
CONTINUOUS
 10
459.24082287089561
 20
412.31450074567812
 30
0.0
 11
458.45173787089561
 21
411.35601474567773
 31
0.0
 12
459.68363787089561
 22
412.28639174567809
 32
0.0
 13
459.68363787089561
 23
412.28639174567809
 33
0.0
  0
SOLID
  5
21F3
  8
WAKU
  6
CONTINUOUS
 10
459.68363787089561
 20
412.28639174567809
 30
0.0
 11
458.45173787089561
 21
411.35601474567773
 31
0.0
 12
459.34645387089557
 22
411.79130274567802
 32
0.0
 13
459.34645387089557
 23
411.79130274567802
 33
0.0
  0
LINE
  5
21F4
  8
WAKU
  6
CONTINUOUS
 10
459.27500187089458
 20
414.37935174567758
 30
0.0
 11
458.76651087089539
 21
414.2920227456778
 31
0.0
  0
LINE
  5
21F5
  8
WAKU
  6
CONTINUOUS
 10
459.17271387089539
 20
414.76472674567748
 30
0.0
 11
458.73840887089511
 21
414.68879674567768
 31
0.0
  0
LINE
  5
21F6
  8
WAKU
  6
CONTINUOUS
 10
459.0549208708951
 20
414.8627117456777
 30
0.0
 11
458.85376887089512
 21
414.92168474567728
 31
0.0
  0
LINE
  5
21F7
  8
WAKU
  6
CONTINUOUS
 10
458.94812087089502
 20
415.30084274567793
 30
0.0
 11
458.57291587089509
 21
415.3107547456778
 31
0.0
  0
SOLID
  5
21F8
  8
WAKU
  6
CONTINUOUS
 10
459.48107887089571
 20
415.00167774567819
 30
0.0
 11
458.85376887089592
 21
414.92168474567819
 31
0.0
 12
459.61925687089558
 22
414.72341274567742
 32
0.0
 13
459.61925687089558
 23
414.72341274567742
 33
0.0
  0
SOLID
  5
21F9
  8
WAKU
  6
CONTINUOUS
 10
458.85376887089592
 20
414.92168474567819
 30
0.0
 11
459.05492087089539
 21
414.8627117456777
 31
0.0
 12
459.61925687089558
 22
414.72341274567742
 32
0.0
 13
459.61925687089558
 23
414.72341274567742
 33
0.0
  0
SOLID
  5
21FA
  8
WAKU
  6
CONTINUOUS
 10
459.17271387089539
 20
414.76472674567799
 30
0.0
 11
458.73840887089563
 21
414.68879674567802
 31
0.0
 12
459.61925687089558
 22
414.72341274567742
 32
0.0
 13
459.61925687089558
 23
414.72341274567742
 33
0.0
  0
SOLID
  5
21FB
  8
WAKU
  6
CONTINUOUS
 10
459.61925687089558
 20
414.72341274567742
 30
0.0
 11
458.73840887089563
 21
414.68879674567802
 31
0.0
 12
459.89752187089562
 22
414.58523474567818
 32
0.0
 13
459.89752187089562
 23
414.58523474567818
 33
0.0
  0
SOLID
  5
21FC
  8
WAKU
  6
CONTINUOUS
 10
455.75756787089563
 20
413.60145974567752
 30
0.0
 11
455.35722187089539
 21
413.12068374567798
 31
0.0
 12
456.25187087089569
 22
413.55589074567808
 32
0.0
 13
456.25187087089569
 23
413.55589074567808
 33
0.0
  0
SOLID
  5
21FD
  8
WAKU
  6
CONTINUOUS
 10
456.25187087089569
 20
413.55589074567808
 30
0.0
 11
455.35722187089539
 21
413.12068374567798
 31
0.0
 12
455.46280787089557
 22
412.59735274567771
 32
0.0
 13
455.46280787089557
 23
412.59735274567771
 33
0.0
  0
LINE
  5
21FE
  8
WAKU
  6
CONTINUOUS
 10
456.25187087089512
 20
413.55589074567729
 30
0.0
 11
455.46280787089472
 21
412.59735274567771
 31
0.0
  0
SOLID
  5
21FF
  8
WAKU
  6
CONTINUOUS
 10
456.30249287089578
 20
413.0459567456781
 30
0.0
 11
455.89444387089588
 21
412.55378274567772
 31
0.0
 12
456.80159987089559
 22
413.00567574567771
 32
0.0
 13
456.80159987089559
 23
413.00567574567771
 33
0.0
  0
SOLID
  5
2200
  8
WAKU
  6
CONTINUOUS
 10
456.80159987089559
 20
413.00567574567771
 30
0.0
 11
455.89444387089588
 21
412.55378274567772
 31
0.0
 12
456.2276688708958
 22
412.34925374567808
 32
0.0
 13
456.2276688708958
 23
412.34925374567808
 33
0.0
  0
SOLID
  5
2201
  8
WAKU
  6
CONTINUOUS
 10
455.89444387089588
 20
412.55378274567772
 30
0.0
 11
455.5529288708957
 21
412.0472917456778
 31
0.0
 12
456.2276688708958
 22
412.34925374567808
 32
0.0
 13
456.2276688708958
 23
412.34925374567808
 33
0.0
  0
SOLID
  5
2202
  8
WAKU
  6
CONTINUOUS
 10
456.2276688708958
 20
412.34925374567808
 30
0.0
 11
455.5529288708957
 21
412.0472917456778
 31
0.0
 12
455.78648487089549
 22
411.67165774567809
 32
0.0
 13
455.78648487089549
 23
411.67165774567809
 33
0.0
  0
SOLID
  5
2203
  8
WAKU
  6
CONTINUOUS
 10
456.56803587089581
 20
410.8911147456771
 30
0.0
 11
455.93716787089568
 21
410.61997774567772
 31
0.0
 12
456.94354287089539
 22
410.65732774567817
 32
0.0
 13
456.94354287089539
 23
410.65732774567817
 33
0.0
  0
SOLID
  5
2204
  8
WAKU
  6
CONTINUOUS
 10
456.94354287089539
 20
410.65732774567817
 30
0.0
 11
455.93716787089568
 21
410.61997774567772
 31
0.0
 12
456.4422008708957
 22
410.3954077456782
 32
0.0
 13
456.4422008708957
 23
410.3954077456782
 33
0.0
  0
SOLID
  5
2205
  8
WAKU
  6
CONTINUOUS
 10
455.93716787089568
 20
410.61997774567772
 30
0.0
 11
455.42868387089538
 21
410.53263874567813
 31
0.0
 12
456.4422008708957
 22
410.3954077456782
 32
0.0
 13
456.4422008708957
 23
410.3954077456782
 33
0.0
  0
SOLID
  5
2206
  8
WAKU
  6
CONTINUOUS
 10
455.42868387089538
 20
410.53263874567813
 30
0.0
 11
454.80615387089563
 21
410.32675174567822
 31
0.0
 12
456.4422008708957
 22
410.3954077456782
 32
0.0
 13
456.4422008708957
 23
410.3954077456782
 33
0.0
  0
SOLID
  5
2207
  8
WAKU
  6
CONTINUOUS
 10
456.4422008708957
 20
410.3954077456782
 30
0.0
 11
454.80615387089563
 21
410.32675174567822
 31
0.0
 12
455.96523087089508
 22
410.22317974567801
 32
0.0
 13
455.96523087089508
 23
410.22317974567801
 33
0.0
  0
SOLID
  5
2208
  8
WAKU
  6
CONTINUOUS
 10
454.80615387089563
 20
410.32675174567822
 30
0.0
 11
455.08441887089589
 21
410.18857374567801
 31
0.0
 12
455.96523087089508
 22
410.22317974567801
 32
0.0
 13
455.96523087089508
 23
410.22317974567801
 33
0.0
  0
SOLID
  5
2209
  8
WAKU
  6
CONTINUOUS
 10
455.96523087089508
 20
410.22317974567801
 30
0.0
 11
455.08441887089589
 21
410.18857374567801
 31
0.0
 12
455.5309498708956
 22
410.14725874567807
 32
0.0
 13
455.5309498708956
 23
410.14725874567807
 33
0.0
  0
SOLID
  5
220A
  8
WAKU
  6
CONTINUOUS
 10
456.15706687089562
 20
409.99564574567802
 30
0.0
 11
455.84994987089573
 21
409.99028074567832
 31
0.0
 12
457.03022087089562
 22
409.86255574567809
 32
0.0
 13
457.03022087089562
 23
409.86255574567809
 33
0.0
  0
SOLID
  5
220B
  8
WAKU
  6
CONTINUOUS
 10
455.84994987089573
 20
409.99028074567832
 30
0.0
 11
455.2225968708957
 21
409.91030874567792
 31
0.0
 12
457.03022087089562
 22
409.86255574567809
 32
0.0
 13
457.03022087089562
 23
409.86255574567809
 33
0.0
  0
SOLID
  5
220C
  8
WAKU
  6
CONTINUOUS
 10
455.2225968708957
 20
409.91030874567792
 30
0.0
 11
455.44908187089561
 21
409.7154467456777
 31
0.0
 12
457.03022087089562
 22
409.86255574567809
 32
0.0
 13
457.03022087089562
 23
409.86255574567809
 33
0.0
  0
SOLID
  5
220D
  8
WAKU
  6
CONTINUOUS
 10
457.03022087089562
 20
409.86255574567809
 30
0.0
 11
455.44908187089561
 21
409.7154467456777
 31
0.0
 12
456.5609148708956
 22
409.68607374567802
 32
0.0
 13
456.5609148708956
 23
409.68607374567802
 33
0.0
  0
SOLID
  5
220E
  8
WAKU
  6
CONTINUOUS
 10
455.44908187089561
 20
409.7154467456777
 30
0.0
 11
455.75555487089559
 21
409.61114374567819
 31
0.0
 12
456.5609148708956
 22
409.68607374567802
 32
0.0
 13
456.5609148708956
 23
409.68607374567802
 33
0.0
  0
SOLID
  5
220F
  8
WAKU
  6
CONTINUOUS
 10
456.5609148708956
 20
409.68607374567802
 30
0.0
 11
455.75555487089559
 21
409.61114374567819
 31
0.0
 12
456.13075987089508
 22
409.60123174567792
 32
0.0
 13
456.13075987089508
 23
409.60123174567792
 33
0.0
  0
LINE
  5
2210
  8
WAKU
  6
CONTINUOUS
 10
455.5309498708956
 20
410.1472587456775
 30
0.0
 11
455.96523087089503
 21
410.22317974567801
 31
0.0
  0
LINE
  5
2211
  8
WAKU
  6
CONTINUOUS
 10
455.75555487089508
 20
409.61114374567819
 30
0.0
 11
456.13075987089508
 21
409.60123174567792
 31
0.0
  0
LINE
  5
2212
  8
WAKU
  6
CONTINUOUS
 10
455.93716787089483
 20
410.61997774567772
 30
0.0
 11
456.56803587089519
 21
410.8911147456771
 31
0.0
  0
LINE
  5
2213
  8
WAKU
  6
CONTINUOUS
 10
455.8499498708951
 20
409.99028074567741
 30
0.0
 11
456.15706687089562
 21
409.99564574567768
 31
0.0
  0
LINE
  5
2214
  8
WAKU
  6
CONTINUOUS
 10
456.22766887089512
 20
412.34925374567808
 30
0.0
 11
455.7864848708947
 21
411.67165774567752
 31
0.0
  0
LINE
  5
2215
  8
WAKU
  6
CONTINUOUS
 10
456.30249287089561
 20
413.04595674567759
 30
0.0
 11
455.89444387089532
 21
412.55378274567772
 31
0.0
  0
SOLID
  5
2216
  8
WAKU
  6
CONTINUOUS
 10
456.20637187089562
 20
414.05026274567751
 30
0.0
 11
455.75756787089563
 21
413.60145974567752
 31
0.0
 12
456.25187087089569
 22
413.55589074567808
 32
0.0
 13
456.25187087089569
 23
413.55589074567808
 33
0.0
  0
LINE
  5
2217
  8
WAKU
  6
CONTINUOUS
 10
456.20637187089523
 20
414.05026274567729
 30
0.0
 11
455.75756787089563
 21
413.60145974567752
 31
0.0
  0
LINE
  5
2218
  8
WAKU
  6
CONTINUOUS
 10
455.75756787089563
 20
413.60145974567752
 30
0.0
 11
455.35722187089539
 21
413.1206837456777
 31
0.0
  0
SOLID
  5
2219
  8
WAKU
  6
CONTINUOUS
 10
455.35722187089539
 20
413.12068374567798
 30
0.0
 11
455.02003787089512
 21
412.62559474567809
 31
0.0
 12
455.46280787089557
 22
412.59735274567771
 32
0.0
 13
455.46280787089557
 23
412.59735274567771
 33
0.0
  0
SOLID
  5
221A
  8
WAKU
  6
CONTINUOUS
 10
455.02003787089512
 20
412.62559474567809
 30
0.0
 11
454.75839987089557
 21
412.13437574567752
 31
0.0
 12
455.46280787089557
 22
412.59735274567771
 32
0.0
 13
455.46280787089557
 23
412.59735274567771
 33
0.0
  0
SOLID
  5
221B
  8
WAKU
  6
CONTINUOUS
 10
455.46280787089557
 20
412.59735274567771
 30
0.0
 11
454.75839987089557
 21
412.13437574567752
 31
0.0
 12
455.17929187089561
 22
412.1118107456781
 32
0.0
 13
455.17929187089561
 23
412.1118107456781
 33
0.0
  0
SOLID
  5
221C
  8
WAKU
  6
CONTINUOUS
 10
455.5529288708957
 20
412.0472917456778
 30
0.0
 11
455.29106587089558
 21
411.54593674567798
 31
0.0
 12
455.78648487089549
 22
411.67165774567809
 32
0.0
 13
455.78648487089549
 23
411.67165774567809
 33
0.0
  0
SOLID
  5
221D
  8
WAKU
  6
CONTINUOUS
 10
455.78648487089549
 20
411.67165774567809
 30
0.0
 11
455.29106587089558
 21
411.54593674567798
 31
0.0
 12
455.51594087089558
 22
411.04075174567799
 32
0.0
 13
455.51594087089558
 23
411.04075174567799
 33
0.0
  0
SOLID
  5
221E
  8
WAKU
  6
CONTINUOUS
 10
455.29106587089558
 20
411.54593674567798
 30
0.0
 11
455.1189118708956
 21
411.06897174567769
 31
0.0
 12
455.51594087089558
 22
411.04075174567799
 32
0.0
 13
455.51594087089558
 23
411.04075174567799
 33
0.0
  0
SOLID
  5
221F
  8
WAKU
  6
CONTINUOUS
 10
455.1189118708956
 20
411.06897174567769
 30
0.0
 11
455.04307787089562
 21
410.63471774567802
 31
0.0
 12
455.51594087089558
 22
411.04075174567799
 32
0.0
 13
455.51594087089558
 23
411.04075174567799
 33
0.0
  0
SOLID
  5
2220
  8
WAKU
  6
CONTINUOUS
 10
455.51594087089558
 20
411.04075174567799
 30
0.0
 11
455.04307787089562
 21
410.63471774567802
 31
0.0
 12
455.42868387089538
 22
410.53263874567813
 32
0.0
 13
455.42868387089538
 23
410.53263874567813
 33
0.0
  0
SOLID
  5
2221
  8
WAKU
  6
CONTINUOUS
 10
455.08441887089589
 20
410.18857374567801
 30
0.0
 11
455.2225968708957
 21
409.91030874567792
 31
0.0
 12
455.5309498708956
 22
410.14725874567807
 32
0.0
 13
455.5309498708956
 23
410.14725874567807
 33
0.0
  0
SOLID
  5
2222
  8
WAKU
  6
CONTINUOUS
 10
455.5309498708956
 20
410.14725874567807
 30
0.0
 11
455.2225968708957
 21
409.91030874567792
 31
0.0
 12
455.6486998708956
 22
410.04935074567823
 32
0.0
 13
455.6486998708956
 23
410.04935074567823
 33
0.0
  0
SOLID
  5
2223
  8
WAKU
  6
CONTINUOUS
 10
455.6486998708956
 20
410.04935074567823
 30
0.0
 11
455.2225968708957
 21
409.91030874567792
 31
0.0
 12
455.84994987089573
 22
409.99028074567832
 32
0.0
 13
455.84994987089573
 23
409.99028074567832
 33
0.0
  0
LINE
  5
2224
  8
WAKU
  6
CONTINUOUS
 10
455.55292887089479
 20
412.0472917456778
 30
0.0
 11
455.29106587089518
 21
411.54593674567769
 31
0.0
  0
LINE
  5
2225
  8
WAKU
  6
CONTINUOUS
 10
454.98726287089562
 20
411.65680374567768
 30
0.0
 11
454.89146887089561
 21
411.26118674567761
 31
0.0
  0
LINE
  5
2226
  8
WAKU
  6
CONTINUOUS
 10
455.7864848708947
 20
411.67165774567752
 30
0.0
 11
455.51594087089558
 21
411.0407517456772
 31
0.0
  0
LINE
  5
2227
  8
WAKU
  6
CONTINUOUS
 10
455.51594087089558
 20
411.0407517456772
 30
0.0
 11
455.4286838708951
 21
410.53263874567801
 31
0.0
  0
LINE
  5
2228
  8
WAKU
  6
CONTINUOUS
 10
454.80615387089563
 20
410.32675174567822
 30
0.0
 11
455.08441887089509
 21
410.18857374567727
 31
0.0
  0
LINE
  5
2229
  8
WAKU
  6
CONTINUOUS
 10
455.08441887089509
 20
410.18857374567727
 30
0.0
 11
455.2225968708953
 21
409.91030874567792
 31
0.0
  0
LINE
  5
222A
  8
WAKU
  6
CONTINUOUS
 10
455.2225968708953
 20
409.91030874567792
 30
0.0
 11
455.44908187089538
 21
409.7154467456777
 31
0.0
  0
LINE
  5
222B
  8
WAKU
  6
CONTINUOUS
 10
455.44908187089538
 20
409.7154467456777
 30
0.0
 11
455.75555487089508
 21
409.61114374567819
 31
0.0
  0
LINE
  5
222C
  8
WAKU
  6
CONTINUOUS
 10
455.29106587089518
 20
411.54593674567769
 30
0.0
 11
455.1189118708956
 21
411.06897174567769
 31
0.0
  0
LINE
  5
222D
  8
WAKU
  6
CONTINUOUS
 10
455.1189118708956
 20
411.06897174567769
 30
0.0
 11
455.04307787089562
 21
410.63471774567751
 31
0.0
  0
LINE
  5
222E
  8
WAKU
  6
CONTINUOUS
 10
455.4286838708951
 20
410.53263874567801
 30
0.0
 11
455.93716787089483
 21
410.61997774567772
 31
0.0
  0
LINE
  5
222F
  8
WAKU
  6
CONTINUOUS
 10
454.89146887089561
 20
411.26118674567761
 30
0.0
 11
454.88613087089459
 21
410.9538697456772
 31
0.0
  0
LINE
  5
2230
  8
WAKU
  6
CONTINUOUS
 10
454.88613087089459
 20
410.9538697456772
 30
0.0
 11
454.94492787089558
 21
410.75321774567772
 31
0.0
  0
LINE
  5
2231
  8
WAKU
  6
CONTINUOUS
 10
454.94492787089558
 20
410.75321774567772
 30
0.0
 11
455.04307787089562
 21
410.63471774567751
 31
0.0
  0
LINE
  5
2232
  8
WAKU
  6
CONTINUOUS
 10
455.5309498708956
 20
410.1472587456775
 30
0.0
 11
455.6486998708956
 21
410.04935074567823
 31
0.0
  0
LINE
  5
2233
  8
WAKU
  6
CONTINUOUS
 10
455.6486998708956
 20
410.04935074567823
 30
0.0
 11
455.8499498708951
 21
409.99028074567741
 31
0.0
  0
LINE
  5
2234
  8
WAKU
  6
CONTINUOUS
 10
455.89444387089532
 20
412.55378274567772
 30
0.0
 11
455.55292887089479
 21
412.0472917456778
 31
0.0
  0
LINE
  5
2235
  8
WAKU
  6
CONTINUOUS
 10
455.46280787089472
 20
412.59735274567771
 30
0.0
 11
455.17929187089459
 21
412.1118107456781
 31
0.0
  0
LINE
  5
2236
  8
WAKU
  6
CONTINUOUS
 10
455.17929187089459
 20
412.1118107456781
 30
0.0
 11
454.98726287089562
 21
411.65680374567768
 31
0.0
  0
LINE
  5
2237
  8
WAKU
  6
CONTINUOUS
 10
455.02003787089478
 20
412.62559474567809
 30
0.0
 11
454.75839987089557
 21
412.13437574567752
 31
0.0
  0
LINE
  5
2238
  8
WAKU
  6
CONTINUOUS
 10
455.35722187089539
 20
413.1206837456777
 30
0.0
 11
455.02003787089478
 21
412.62559474567809
 31
0.0
  0
LINE
  5
2239
  8
WAKU
  6
CONTINUOUS
 10
454.58191887089458
 20
411.66506974567727
 30
0.0
 11
454.49707587089563
 21
411.234914745678
 31
0.0
  0
LINE
  5
223A
  8
WAKU
  6
CONTINUOUS
 10
454.49707587089563
 20
411.234914745678
 30
0.0
 11
454.50698787089539
 21
410.85971074567772
 31
0.0
  0
LINE
  5
223B
  8
WAKU
  6
CONTINUOUS
 10
454.50698787089539
 20
410.85971074567772
 30
0.0
 11
454.61129087089557
 21
410.55323674567768
 31
0.0
  0
SOLID
  5
223C
  8
WAKU
  6
CONTINUOUS
 10
454.75839987089557
 20
412.13437574567752
 30
0.0
 11
454.58191887089538
 21
411.66506974567812
 31
0.0
 12
455.17929187089561
 22
412.1118107456781
 32
0.0
 13
455.17929187089561
 23
412.1118107456781
 33
0.0
  0
SOLID
  5
223D
  8
WAKU
  6
CONTINUOUS
 10
455.17929187089561
 20
412.1118107456781
 30
0.0
 11
454.58191887089538
 21
411.66506974567812
 31
0.0
 12
454.98726287089562
 22
411.65680374567768
 32
0.0
 13
454.98726287089562
 23
411.65680374567768
 33
0.0
  0
SOLID
  5
223E
  8
WAKU
  6
CONTINUOUS
 10
454.58191887089538
 20
411.66506974567812
 30
0.0
 11
454.49707587089512
 21
411.234914745678
 31
0.0
 12
454.98726287089562
 22
411.65680374567768
 32
0.0
 13
454.98726287089562
 23
411.65680374567768
 33
0.0
  0
SOLID
  5
223F
  8
WAKU
  6
CONTINUOUS
 10
454.98726287089562
 20
411.65680374567768
 30
0.0
 11
454.49707587089512
 21
411.234914745678
 31
0.0
 12
454.89146887089561
 22
411.26118674567829
 32
0.0
 13
454.89146887089561
 23
411.26118674567829
 33
0.0
  0
SOLID
  5
2240
  8
WAKU
  6
CONTINUOUS
 10
454.89146887089561
 20
411.26118674567829
 30
0.0
 11
454.49707587089512
 21
411.234914745678
 31
0.0
 12
454.88613087089561
 22
410.95386974567799
 32
0.0
 13
454.88613087089561
 23
410.95386974567799
 33
0.0
  0
SOLID
  5
2241
  8
WAKU
  6
CONTINUOUS
 10
454.49707587089512
 20
411.234914745678
 30
0.0
 11
454.50698787089561
 21
410.85971074567772
 31
0.0
 12
454.88613087089561
 22
410.95386974567799
 32
0.0
 13
454.88613087089561
 23
410.95386974567799
 33
0.0
  0
SOLID
  5
2242
  8
WAKU
  6
CONTINUOUS
 10
454.88613087089561
 20
410.95386974567799
 30
0.0
 11
454.50698787089561
 21
410.85971074567772
 31
0.0
 12
454.94492787089558
 22
410.75321774567772
 32
0.0
 13
454.94492787089558
 23
410.75321774567772
 33
0.0
  0
SOLID
  5
2243
  8
WAKU
  6
CONTINUOUS
 10
454.50698787089561
 20
410.85971074567772
 30
0.0
 11
454.61129087089557
 21
410.55323674567768
 31
0.0
 12
454.94492787089558
 22
410.75321774567772
 32
0.0
 13
454.94492787089558
 23
410.75321774567772
 33
0.0
  0
SOLID
  5
2244
  8
WAKU
  6
CONTINUOUS
 10
454.94492787089558
 20
410.75321774567772
 30
0.0
 11
454.61129087089557
 21
410.55323674567768
 31
0.0
 12
455.04307787089562
 22
410.63471774567802
 32
0.0
 13
455.04307787089562
 23
410.63471774567802
 33
0.0
  0
SOLID
  5
2245
  8
WAKU
  6
CONTINUOUS
 10
455.04307787089562
 20
410.63471774567802
 30
0.0
 11
454.61129087089557
 21
410.55323674567768
 31
0.0
 12
455.42868387089538
 22
410.53263874567813
 32
0.0
 13
455.42868387089538
 23
410.53263874567813
 33
0.0
  0
SOLID
  5
2246
  8
WAKU
  6
CONTINUOUS
 10
454.61129087089557
 20
410.55323674567768
 30
0.0
 11
454.80615387089563
 21
410.32675174567822
 31
0.0
 12
455.42868387089538
 22
410.53263874567813
 32
0.0
 13
455.42868387089538
 23
410.53263874567813
 33
0.0
  0
LINE
  5
2247
  8
WAKU
  6
CONTINUOUS
 10
454.61129087089557
 20
410.55323674567768
 30
0.0
 11
454.80615387089563
 21
410.32675174567822
 31
0.0
  0
LINE
  5
2248
  8
WAKU
  6
CONTINUOUS
 10
454.75839987089557
 20
412.13437574567752
 30
0.0
 11
454.58191887089458
 21
411.66506974567727
 31
0.0
  0
SOLID
  5
2249
  8
WAKU
  6
CONTINUOUS
 10
457.45795387089561
 20
413.57977374567821
 30
0.0
 11
456.76140487089538
 21
413.50491074567771
 31
0.0
 12
456.80159987089559
 22
413.00567574567771
 32
0.0
 13
456.80159987089559
 23
413.00567574567771
 33
0.0
  0
SOLID
  5
224A
  8
WAKU
  6
CONTINUOUS
 10
456.76140487089538
 20
413.50491074567771
 30
0.0
 11
456.30249287089578
 21
413.0459567456781
 31
0.0
 12
456.80159987089559
 22
413.00567574567771
 32
0.0
 13
456.80159987089559
 23
413.00567574567771
 33
0.0
  0
LINE
  5
224B
  8
WAKU
  6
CONTINUOUS
 10
456.76140487089458
 20
413.50491074567771
 30
0.0
 11
456.30249287089561
 21
413.04595674567759
 31
0.0
  0
LINE
  5
224C
  8
WAKU
  6
CONTINUOUS
 10
457.45795387089561
 20
413.57977374567758
 30
0.0
 11
456.80159987089559
 21
413.00567574567771
 31
0.0
  0
SOLID
  5
224D
  8
WAKU
  6
CONTINUOUS
 10
457.94213587089558
 20
411.40695374567758
 30
0.0
 11
457.24571287089589
 21
411.33221374567819
 31
0.0
 12
457.45000487089561
 22
410.99888174567798
 32
0.0
 13
457.45000487089561
 23
410.99888174567798
 33
0.0
  0
SOLID
  5
224E
  8
WAKU
  6
CONTINUOUS
 10
457.24571287089589
 20
411.33221374567819
 30
0.0
 11
456.56803587089581
 21
410.8911147456771
 31
0.0
 12
457.45000487089561
 22
410.99888174567798
 32
0.0
 13
457.45000487089561
 23
410.99888174567798
 33
0.0
  0
SOLID
  5
224F
  8
WAKU
  6
CONTINUOUS
 10
457.45000487089561
 20
410.99888174567798
 30
0.0
 11
456.56803587089581
 21
410.8911147456771
 31
0.0
 12
456.94354287089539
 22
410.65732774567817
 32
0.0
 13
456.94354287089539
 23
410.65732774567817
 33
0.0
  0
SOLID
  5
2250
  8
WAKU
  6
CONTINUOUS
 10
457.49326987089557
 20
410.56689974567769
 30
0.0
 11
457.00765487089518
 21
410.28358074567751
 31
0.0
 12
458.01652887089563
 22
410.46137774567819
 32
0.0
 13
458.01652887089563
 23
410.46137774567819
 33
0.0
  0
SOLID
  5
2251
  8
WAKU
  6
CONTINUOUS
 10
458.01652887089563
 20
410.46137774567819
 30
0.0
 11
457.00765487089518
 21
410.28358074567751
 31
0.0
 12
457.52143887089562
 22
410.1241937456781
 32
0.0
 13
457.52143887089562
 23
410.1241937456781
 33
0.0
  0
SOLID
  5
2252
  8
WAKU
  6
CONTINUOUS
 10
457.00765487089518
 20
410.28358074567751
 30
0.0
 11
456.55275687089471
 21
410.09115074567819
 31
0.0
 12
457.52143887089562
 22
410.1241937456781
 32
0.0
 13
457.52143887089562
 23
410.1241937456781
 33
0.0
  0
SOLID
  5
2253
  8
WAKU
  6
CONTINUOUS
 10
457.52143887089562
 20
410.1241937456781
 30
0.0
 11
456.55275687089471
 21
410.09115074567819
 31
0.0
 12
457.03022087089562
 22
409.86255574567809
 32
0.0
 13
457.03022087089562
 23
409.86255574567809
 33
0.0
  0
LINE
  5
2254
  8
WAKU
  6
CONTINUOUS
 10
457.24571287089469
 20
411.33221374567728
 30
0.0
 11
457.90206887089562
 21
411.90628874567761
 31
0.0
  0
LINE
  5
2255
  8
WAKU
  6
CONTINUOUS
 10
456.94354287089459
 20
410.65732774567772
 30
0.0
 11
457.45000487089561
 21
410.99888174567792
 31
0.0
  0
LINE
  5
2256
  8
WAKU
  6
CONTINUOUS
 10
457.03022087089471
 20
409.86255574567758
 30
0.0
 11
457.52143887089522
 21
410.1241937456777
 31
0.0
  0
LINE
  5
2257
  8
WAKU
  6
CONTINUOUS
 10
457.00765487089518
 20
410.28358074567751
 30
0.0
 11
457.49326987089512
 21
410.56689974567769
 31
0.0
  0
SOLID
  5
2258
  8
WAKU
  6
CONTINUOUS
 10
456.55275687089471
 20
410.09115074567819
 30
0.0
 11
456.15706687089562
 21
409.99564574567802
 31
0.0
 12
457.03022087089562
 22
409.86255574567809
 32
0.0
 13
457.03022087089562
 23
409.86255574567809
 33
0.0
  0
LINE
  5
2259
  8
WAKU
  6
CONTINUOUS
 10
456.15706687089562
 20
409.99564574567768
 30
0.0
 11
456.55275687089562
 21
410.09115074567768
 31
0.0
  0
LINE
  5
225A
  8
WAKU
  6
CONTINUOUS
 10
455.96523087089503
 20
410.22317974567801
 30
0.0
 11
456.4422008708944
 21
410.3954077456782
 31
0.0
  0
LINE
  5
225B
  8
WAKU
  6
CONTINUOUS
 10
456.4422008708944
 20
410.3954077456782
 30
0.0
 11
456.94354287089459
 21
410.65732774567772
 31
0.0
  0
LINE
  5
225C
  8
WAKU
  6
CONTINUOUS
 10
456.5609148708956
 20
409.68607374567802
 30
0.0
 11
457.03022087089471
 21
409.86255574567758
 31
0.0
  0
LINE
  5
225D
  8
WAKU
  6
CONTINUOUS
 10
456.56803587089519
 20
410.8911147456771
 30
0.0
 11
457.24571287089469
 21
411.33221374567728
 31
0.0
  0
LINE
  5
225E
  8
WAKU
  6
CONTINUOUS
 10
456.55275687089562
 20
410.09115074567768
 30
0.0
 11
457.00765487089518
 21
410.28358074567751
 31
0.0
  0
LINE
  5
225F
  8
WAKU
  6
CONTINUOUS
 10
456.13075987089508
 20
409.60123174567792
 30
0.0
 11
456.5609148708956
 21
409.68607374567802
 31
0.0
  0
LINE
  5
2260
  8
WAKU
  6
CONTINUOUS
 10
456.80159987089559
 20
413.00567574567771
 30
0.0
 11
456.22766887089512
 21
412.34925374567808
 31
0.0
  0
LINE
  5
2261
  8
WAKU
  6
CONTINUOUS
 10
457.52143887089522
 20
410.1241937456777
 30
0.0
 11
458.01652887089563
 21
410.46137774567751
 31
0.0
  0
LINE
  5
2262
  8
WAKU
  6
CONTINUOUS
 10
457.45000487089561
 20
410.99888174567792
 30
0.0
 11
457.9421358708953
 21
411.40695374567758
 31
0.0
  0
SOLID
  5
2263
  8
WAKU
  6
CONTINUOUS
 10
458.15091287089592
 20
414.82084774567818
 30
0.0
 11
457.18223687089562
 21
414.78779274567802
 31
0.0
 12
457.69600787089507
 22
414.6283677456783
 32
0.0
 13
457.69600787089507
 23
414.6283677456783
 33
0.0
  0
SOLID
  5
2264
  8
WAKU
  6
CONTINUOUS
 10
457.18223687089562
 20
414.78779274567802
 30
0.0
 11
456.68714687089539
 21
414.4506087456781
 31
0.0
 12
457.69600787089507
 22
414.6283677456783
 32
0.0
 13
457.69600787089507
 23
414.6283677456783
 33
0.0
  0
SOLID
  5
2265
  8
WAKU
  6
CONTINUOUS
 10
457.69600787089507
 20
414.6283677456783
 30
0.0
 11
456.68714687089539
 21
414.4506087456781
 31
0.0
 12
457.21035987089562
 22
414.34506674567808
 32
0.0
 13
457.21035987089562
 23
414.34506674567808
 33
0.0
  0
SOLID
  5
2266
  8
WAKU
  6
CONTINUOUS
 10
457.76004187089558
 20
414.25460374567729
 30
0.0
 11
457.25355587089558
 21
413.91301774567802
 31
0.0
 12
458.13565087089569
 22
414.02083974567768
 32
0.0
 13
458.13565087089569
 23
414.02083974567768
 33
0.0
  0
LINE
  5
2267
  8
WAKU
  6
CONTINUOUS
 10
457.69600787089507
 20
414.62836774567711
 30
0.0
 11
457.21035987089562
 21
414.34506674567729
 31
0.0
  0
LINE
  5
2268
  8
WAKU
  6
CONTINUOUS
 10
457.76004187089518
 20
414.25460374567729
 30
0.0
 11
457.25355587089558
 21
413.91301774567768
 31
0.0
  0
LINE
  5
2269
  8
WAKU
  6
CONTINUOUS
 10
457.67345587089471
 20
415.0494307456778
 30
0.0
 11
457.18223687089471
 21
414.78779274567802
 31
0.0
  0
SOLID
  5
226A
  8
WAKU
  6
CONTINUOUS
 10
458.13565087089569
 20
414.02083974567768
 30
0.0
 11
457.25355587089558
 21
413.91301774567802
 31
0.0
 12
457.45795387089561
 22
413.57977374567821
 32
0.0
 13
457.45795387089561
 23
413.57977374567821
 33
0.0
  0
SOLID
  5
226B
  8
WAKU
  6
CONTINUOUS
 10
457.25355587089558
 20
413.91301774567802
 30
0.0
 11
456.76140487089538
 21
413.50491074567771
 31
0.0
 12
457.45795387089561
 22
413.57977374567821
 32
0.0
 13
457.45795387089561
 23
413.57977374567821
 33
0.0
  0
SOLID
  5
226C
  8
WAKU
  6
CONTINUOUS
 10
456.68714687089539
 20
414.4506087456781
 30
0.0
 11
456.20637187089562
 21
414.05026274567751
 31
0.0
 12
457.21035987089562
 22
414.34506674567808
 32
0.0
 13
457.21035987089562
 23
414.34506674567808
 33
0.0
  0
LINE
  5
226D
  8
WAKU
  6
CONTINUOUS
 10
456.68714687089539
 20
414.4506087456781
 30
0.0
 11
456.20637187089523
 21
414.05026274567729
 31
0.0
  0
LINE
  5
226E
  8
WAKU
  6
CONTINUOUS
 10
457.18223687089471
 20
414.78779274567802
 30
0.0
 11
456.68714687089539
 21
414.4506087456781
 31
0.0
  0
SOLID
  5
226F
  8
WAKU
  6
CONTINUOUS
 10
457.21035987089562
 20
414.34506674567808
 30
0.0
 11
456.20637187089562
 21
414.05026274567751
 31
0.0
 12
456.25187087089569
 22
413.55589074567808
 32
0.0
 13
456.25187087089569
 23
413.55589074567808
 33
0.0
  0
LINE
  5
2270
  8
WAKU
  6
CONTINUOUS
 10
457.25355587089558
 20
413.91301774567768
 30
0.0
 11
456.76140487089458
 21
413.50491074567771
 31
0.0
  0
LINE
  5
2271
  8
WAKU
  6
CONTINUOUS
 10
457.21035987089562
 20
414.34506674567729
 30
0.0
 11
456.25187087089512
 21
413.55589074567729
 31
0.0
  0
LINE
  5
2272
  8
WAKU
  6
CONTINUOUS
 10
458.15091287089592
 20
414.82084774567818
 30
0.0
 11
457.69600787089507
 21
414.62836774567711
 31
0.0
  0
LINE
  5
2273
  8
WAKU
  6
CONTINUOUS
 10
458.14276087089462
 20
415.22591174567771
 30
0.0
 11
457.67345587089471
 21
415.0494307456778
 31
0.0
  0
LINE
  5
2274
  8
WAKU
  6
CONTINUOUS
 10
458.13565087089512
 20
414.02083974567768
 30
0.0
 11
457.45795387089561
 21
413.57977374567758
 31
0.0
  0
SOLID
  5
2275
  8
WAKU
  6
CONTINUOUS
 10
457.90206887089562
 20
411.90628874567801
 30
0.0
 11
457.24571287089589
 21
411.33221374567819
 31
0.0
 12
458.40103887089572
 22
411.86587174567808
 32
0.0
 13
458.40103887089572
 23
411.86587174567808
 33
0.0
  0
SOLID
  5
2276
  8
WAKU
  6
CONTINUOUS
 10
458.40103887089572
 20
411.86587174567808
 30
0.0
 11
457.24571287089589
 21
411.33221374567819
 31
0.0
 12
457.94213587089558
 22
411.40695374567758
 32
0.0
 13
457.94213587089558
 23
411.40695374567758
 33
0.0
  0
SOLID
  5
2277
  8
WAKU
  6
CONTINUOUS
 10
458.47601087089549
 20
412.56270274567771
 30
0.0
 11
457.90206887089562
 21
411.90628874567801
 31
0.0
 12
458.80908887089561
 22
412.35801174567769
 32
0.0
 13
458.80908887089561
 23
412.35801174567769
 33
0.0
  0
SOLID
  5
2278
  8
WAKU
  6
CONTINUOUS
 10
458.80908887089561
 20
412.35801174567769
 30
0.0
 11
457.90206887089562
 21
411.90628874567801
 31
0.0
 12
458.40103887089572
 22
411.86587174567808
 32
0.0
 13
458.40103887089572
 23
411.86587174567808
 33
0.0
  0
SOLID
  5
2279
  8
WAKU
  6
CONTINUOUS
 10
458.49730487089562
 20
410.86172374567798
 30
0.0
 11
457.49326987089557
 21
410.56689974567769
 31
0.0
 12
458.01652887089563
 22
410.46137774567819
 32
0.0
 13
458.01652887089563
 23
410.46137774567819
 33
0.0
  0
LINE
  5
227A
  8
WAKU
  6
CONTINUOUS
 10
457.9421358708953
 20
411.40695374567758
 30
0.0
 11
458.40103887089458
 21
411.86587174567728
 31
0.0
  0
LINE
  5
227B
  8
WAKU
  6
CONTINUOUS
 10
457.49326987089512
 20
410.56689974567769
 30
0.0
 11
458.45173787089459
 21
411.35601474567773
 31
0.0
  0
LINE
  5
227C
  8
WAKU
  6
CONTINUOUS
 10
458.01652887089563
 20
410.46137774567751
 30
0.0
 11
458.49730487089522
 21
410.8617237456773
 31
0.0
  0
LINE
  5
227D
  8
WAKU
  6
CONTINUOUS
 10
457.90206887089562
 20
411.90628874567761
 30
0.0
 11
458.47601087089458
 21
412.56270274567771
 31
0.0
  0
SOLID
  5
227E
  8
WAKU
  6
CONTINUOUS
 10
457.67345587089562
 20
415.0494307456778
 30
0.0
 11
457.18223687089562
 21
414.78779274567802
 31
0.0
 12
458.54662987089472
 22
414.9163637456781
 32
0.0
 13
458.54662987089472
 23
414.9163637456781
 33
0.0
  0
SOLID
  5
227F
  8
WAKU
  6
CONTINUOUS
 10
458.54662987089472
 20
414.9163637456781
 30
0.0
 11
457.18223687089562
 21
414.78779274567802
 31
0.0
 12
458.15091287089592
 22
414.82084774567818
 32
0.0
 13
458.15091287089592
 23
414.82084774567818
 33
0.0
  0
SOLID
  5
2280
  8
WAKU
  6
CONTINUOUS
 10
457.67345587089562
 20
415.0494307456778
 30
0.0
 11
458.54662987089472
 21
414.9163637456781
 31
0.0
 12
458.85376887089592
 22
414.92168474567819
 32
0.0
 13
458.85376887089592
 23
414.92168474567819
 33
0.0
  0
SOLID
  5
2281
  8
WAKU
  6
CONTINUOUS
 10
458.76651087089539
 20
414.2920227456782
 30
0.0
 11
457.76004187089558
 21
414.25460374567729
 31
0.0
 12
458.13565087089569
 22
414.02083974567768
 32
0.0
 13
458.13565087089569
 23
414.02083974567768
 33
0.0
  0
LINE
  5
2282
  8
WAKU
  6
CONTINUOUS
 10
458.76651087089539
 20
414.2920227456778
 30
0.0
 11
458.13565087089512
 21
414.02083974567768
 31
0.0
  0
LINE
  5
2283
  8
WAKU
  6
CONTINUOUS
 10
458.54662987089472
 20
414.91636374567759
 30
0.0
 11
458.15091287089592
 21
414.82084774567818
 31
0.0
  0
LINE
  5
2284
  8
WAKU
  6
CONTINUOUS
 10
458.57291587089509
 20
415.3107547456778
 30
0.0
 11
458.14276087089462
 21
415.22591174567771
 31
0.0
  0
LINE
  5
2285
  8
WAKU
  6
CONTINUOUS
 10
458.26141187089507
 20
414.51655074567719
 30
0.0
 11
457.76004187089518
 21
414.25460374567729
 31
0.0
  0
SOLID
  5
2286
  8
WAKU
  6
CONTINUOUS
 10
458.45173787089561
 20
411.35601474567773
 30
0.0
 11
457.49326987089557
 21
410.56689974567769
 31
0.0
 12
458.94610787089562
 22
411.3105267456782
 32
0.0
 13
458.94610787089562
 23
411.3105267456782
 33
0.0
  0
SOLID
  5
2287
  8
WAKU
  6
CONTINUOUS
 10
458.94610787089562
 20
411.3105267456782
 30
0.0
 11
457.49326987089557
 21
410.56689974567769
 31
0.0
 12
458.49730487089562
 22
410.86172374567798
 32
0.0
 13
458.49730487089562
 23
410.86172374567798
 33
0.0
  0
SOLID
  5
2288
  8
WAKU
  6
CONTINUOUS
 10
458.57291587089588
 20
415.3107547456782
 30
0.0
 11
458.14276087089559
 21
415.22591174567799
 31
0.0
 12
458.94812087089508
 22
415.30084274567798
 32
0.0
 13
458.94812087089508
 23
415.30084274567798
 33
0.0
  0
SOLID
  5
2289
  8
WAKU
  6
CONTINUOUS
 10
458.94812087089508
 20
415.30084274567798
 30
0.0
 11
458.14276087089559
 21
415.22591174567799
 31
0.0
 12
459.25459387089558
 22
415.19653974567802
 32
0.0
 13
459.25459387089558
 23
415.19653974567802
 33
0.0
  0
SOLID
  5
228A
  8
WAKU
  6
CONTINUOUS
 10
458.14276087089559
 20
415.22591174567799
 30
0.0
 11
457.67345587089562
 21
415.0494307456778
 31
0.0
 12
459.25459387089558
 22
415.19653974567802
 32
0.0
 13
459.25459387089558
 23
415.19653974567802
 33
0.0
  0
SOLID
  5
228B
  8
WAKU
  6
CONTINUOUS
 10
458.26141187089547
 20
414.5165507456777
 30
0.0
 11
457.76004187089558
 21
414.25460374567729
 31
0.0
 12
459.27500187089549
 22
414.37935174567758
 32
0.0
 13
459.27500187089549
 23
414.37935174567758
 33
0.0
  0
SOLID
  5
228C
  8
WAKU
  6
CONTINUOUS
 10
459.27500187089549
 20
414.37935174567758
 30
0.0
 11
457.76004187089558
 21
414.25460374567729
 31
0.0
 12
458.76651087089539
 22
414.2920227456782
 32
0.0
 13
458.76651087089539
 23
414.2920227456782
 33
0.0
  0
SOLID
  5
228D
  8
WAKU
  6
CONTINUOUS
 10
459.25459387089558
 20
415.19653974567802
 30
0.0
 11
457.67345587089562
 21
415.0494307456778
 31
0.0
 12
459.48107887089571
 22
415.00167774567819
 32
0.0
 13
459.48107887089571
 23
415.00167774567819
 33
0.0
  0
SOLID
  5
228E
  8
WAKU
  6
CONTINUOUS
 10
457.67345587089562
 20
415.0494307456778
 30
0.0
 11
458.85376887089592
 21
414.92168474567819
 31
0.0
 12
459.48107887089571
 22
415.00167774567819
 32
0.0
 13
459.48107887089571
 23
415.00167774567819
 33
0.0
  0
SOLID
  5
228F
  8
WAKU
  6
CONTINUOUS
 10
465.56708587089571
 20
414.857705745678
 30
0.0
 11
462.41097787089558
 21
412.27309074567802
 31
0.0
 12
465.74943987089569
 22
412.27309074567802
 32
0.0
 13
465.74943987089569
 23
412.27309074567802
 33
0.0
  0
LINE
  5
2290
  8
WAKU
  6
CONTINUOUS
 10
465.56708587089503
 20
414.85770574567772
 30
0.0
 11
462.41097787089518
 21
412.27309074567768
 31
0.0
  0
SOLID
  5
2291
  8
WAKU
  6
CONTINUOUS
 10
465.74943987089569
 20
412.27309074567802
 30
0.0
 11
462.41097787089558
 21
412.27309074567802
 31
0.0
 12
464.65291787089558
 22
412.219244745678
 32
0.0
 13
464.65291787089558
 23
412.219244745678
 33
0.0
  0
SOLID
  5
2292
  8
WAKU
  6
CONTINUOUS
 10
462.41097787089558
 20
412.27309074567802
 30
0.0
 11
461.4310578708953
 21
409.58078274567771
 31
0.0
 12
464.65291787089558
 22
412.219244745678
 32
0.0
 13
464.65291787089558
 23
412.219244745678
 33
0.0
  0
LINE
  5
2293
  8
WAKU
  6
CONTINUOUS
 10
464.65291787089512
 20
412.219244745678
 30
0.0
 11
461.4310578708953
 21
409.58078274567771
 31
0.0
  0
LINE
  5
2294
  8
WAKU
  6
CONTINUOUS
 10
468.3233658708956
 20
409.58078274567771
 30
0.0
 11
473.70798087089503
 21
409.58078274567771
 31
0.0
  0
SOLID
  5
2295
  8
WAKU
  6
CONTINUOUS
 10
470.87115787089562
 20
416.5807827456776
 30
0.0
 11
470.2440088708953
 21
414.857705745678
 31
0.0
 12
475.62862387089592
 22
414.857705745678
 32
0.0
 13
475.62862387089592
 23
414.857705745678
 33
0.0
  0
SOLID
  5
2296
  8
WAKU
  6
CONTINUOUS
 10
469.1073018708957
 20
411.73462874567758
 30
0.0
 11
468.3233658708956
 21
409.58078274567771
 31
0.0
 12
474.49191687089569
 22
411.73462874567758
 32
0.0
 13
474.49191687089569
 23
411.73462874567758
 33
0.0
  0
SOLID
  5
2297
  8
WAKU
  6
CONTINUOUS
 10
474.49191687089569
 20
411.73462874567758
 30
0.0
 11
468.3233658708956
 21
409.58078274567771
 31
0.0
 12
473.70798087089508
 22
409.58078274567771
 32
0.0
 13
473.70798087089508
 23
409.58078274567771
 33
0.0
  0
LINE
  5
2298
  8
WAKU
  6
CONTINUOUS
 10
469.10730187089513
 20
411.73462874567758
 30
0.0
 11
474.49191687089473
 21
411.73462874567758
 31
0.0
  0
LINE
  5
2299
  8
WAKU
  6
CONTINUOUS
 10
470.2440088708953
 20
414.85770574567772
 30
0.0
 11
475.62862387089513
 21
414.85770574567772
 31
0.0
  0
SOLID
  5
229A
  8
WAKU
  6
CONTINUOUS
 10
476.25577287089561
 20
416.5807827456776
 30
0.0
 11
470.87115787089562
 21
416.5807827456776
 31
0.0
 12
475.62862387089592
 22
414.857705745678
 32
0.0
 13
475.62862387089592
 23
414.857705745678
 33
0.0
  0
LINE
  5
229B
  8
WAKU
  6
CONTINUOUS
 10
470.87115787089562
 20
416.5807827456776
 30
0.0
 11
476.2557728708951
 21
416.5807827456776
 31
0.0
  0
LINE
  5
229C
  8
WAKU
  6
CONTINUOUS
 10
453.22704887089509
 20
416.5807827456776
 30
0.0
 11
453.22704887089509
 21
412.3030047456777
 31
0.0
  0
SOLID
  5
229D
  8
WAKU
  6
CONTINUOUS
 10
457.50482587089562
 20
416.5807827456776
 30
0.0
 11
453.22704887089571
 21
416.5807827456776
 31
0.0
 12
453.22704887089571
 22
412.3030047456777
 32
0.0
 13
453.22704887089571
 23
412.3030047456777
 33
0.0
  0
LINE
  5
229E
  8
WAKU
  6
CONTINUOUS
 10
453.22704887089509
 20
412.3030047456777
 30
0.0
 11
457.50482587089562
 21
416.5807827456776
 31
0.0
  0
LINE
  5
229F
  8
WAKU
  6
CONTINUOUS
 10
453.22704887089509
 20
416.5807827456776
 30
0.0
 11
457.50482587089562
 21
416.5807827456776
 31
0.0
  0
LINE
  5
22A0
  8
WAKU
  6
CONTINUOUS
 10
490.5384668708956
 20
412.9192447456777
 30
0.0
 11
493.76923587089539
 21
412.9192447456777
 31
0.0
  0
SOLID
  5
22A1
  8
WAKU
  6
CONTINUOUS
 10
491.87115787089567
 20
416.5807827456776
 30
0.0
 11
491.24400887089558
 21
414.857705745678
 31
0.0
 12
494.47477787089508
 22
414.857705745678
 32
0.0
 13
494.47477787089508
 23
414.857705745678
 33
0.0
  0
SOLID
  5
22A2
  8
WAKU
  6
CONTINUOUS
 10
494.23959687089558
 20
414.21155174567798
 30
0.0
 11
491.00882787089557
 21
414.21155174567798
 31
0.0
 12
493.76923587089561
 22
412.91924474567821
 32
0.0
 13
493.76923587089561
 23
412.91924474567821
 33
0.0
  0
SOLID
  5
22A3
  8
WAKU
  6
CONTINUOUS
 10
494.70798087089508
 20
409.58078274567771
 30
0.0
 11
494.41499387089561
 21
411.73462874567758
 31
0.0
 12
490.10730187089558
 22
411.73462874567758
 32
0.0
 13
490.10730187089558
 23
411.73462874567758
 33
0.0
  0
SOLID
  5
22A4
  8
WAKU
  6
CONTINUOUS
 10
490.10730187089558
 20
411.73462874567758
 30
0.0
 11
489.3233658708956
 21
409.58078274567771
 31
0.0
 12
494.70798087089508
 22
409.58078274567771
 32
0.0
 13
494.70798087089508
 23
409.58078274567771
 33
0.0
  0
LINE
  5
22A5
  8
WAKU
  6
CONTINUOUS
 10
494.70798087089508
 20
409.58078274567771
 30
0.0
 11
489.3233658708956
 21
409.58078274567771
 31
0.0
  0
LINE
  5
22A6
  8
WAKU
  6
CONTINUOUS
 10
490.10730187089513
 20
411.73462874567758
 30
0.0
 11
494.41499387089561
 21
411.73462874567758
 31
0.0
  0
LINE
  5
22A7
  8
WAKU
  6
CONTINUOUS
 10
491.2440088708953
 20
414.85770574567772
 30
0.0
 11
494.47477787089508
 21
414.85770574567772
 31
0.0
  0
LINE
  5
22A8
  8
WAKU
  6
CONTINUOUS
 10
491.00882787089557
 20
414.2115517456777
 30
0.0
 11
494.2395968708953
 21
414.2115517456777
 31
0.0
  0
SOLID
  5
22A9
  8
WAKU
  6
CONTINUOUS
 10
494.47477787089508
 20
414.857705745678
 30
0.0
 11
495.10192687089562
 21
416.5807827456776
 31
0.0
 12
491.87115787089567
 22
416.5807827456776
 32
0.0
 13
491.87115787089567
 23
416.5807827456776
 33
0.0
  0
LINE
  5
22AA
  8
WAKU
  6
CONTINUOUS
 10
491.87115787089567
 20
416.5807827456776
 30
0.0
 11
495.10192687089511
 21
416.5807827456776
 31
0.0
  0
SOLID
  5
22AB
  8
WAKU
  6
CONTINUOUS
 10
491.00882787089557
 20
414.21155174567798
 30
0.0
 11
490.5384668708956
 21
412.91924474567821
 31
0.0
 12
493.76923587089561
 22
412.91924474567821
 32
0.0
 13
493.76923587089561
 23
412.91924474567821
 33
0.0
  0
LINE
  5
22AC
  8
WAKU
 10
506.89863881456068
 20
417.8041926488375
 30
0.0
 11
506.89863881456068
 21
28.29526935608077
 31
0.0
  0
TEXT
  5
22AD
  8
WAKU
 10
75.69258251726535
 20
411.41594787396718
 30
0.0
 40
5.0
  1
FIX窓（ガラス溝幅30ｍｍ）断面詳細図
  7
MX_NOTE_STANDARD
 11
75.69258251726535
 21
413.9159478739673
 31
0.0
 73
     2
  0
TEXT
  5
22AE
  8
WAKU
 10
36.524425493660559
 20
411.37675236086397
 30
0.0
 40
3.0
  1
FNS-100断熱
 41
0.8679999999999999
  7
MX_NOTE_STANDARD
 11
36.524425493660559
 21
412.87675236086397
 31
0.0
 73
     2
  0
LINE
  5
22AF
  8
WAKU
 10
31.524425493660821
 20
417.87675236086369
 30
0.0
 11
31.524425493660821
 21
28.367829068107071
 31
0.0
  0
LINE
  5
22B0
  8
WAKU
 10
31.524425493660821
 20
28.367829068107071
 30
0.0
 11
506.89863881456068
 21
28.29526935608077
 31
0.0
  0
LINE
  5
22B1
  8
WAKU
 10
31.524425493660821
 20
407.87675236086397
 30
0.0
 11
506.89863881456068
 21
407.80419264883761
 31
0.0
  0
LINE
  5
22B2
  8
WAKU
 10
31.524425493660821
 20
417.87675236086369
 30
0.0
 11
506.89863881456068
 21
417.8041926488375
 31
0.0
  0
POLYLINE
  5
2A8F
  8
SUNPO
  6
BYBLOCK
 66
     1
 10
0.0
 20
0.0
 30
0.0
 70
     1
 40
1.159999999999999
 41
1.159999999999999
  0
VERTEX
  5
33BE
  8
SUNPO
  6
BYBLOCK
 10
212.72611191939029
 20
274.10526041629231
 30
0.0
 42
1.0
  0
VERTEX
  5
33BF
  8
SUNPO
  6
BYBLOCK
 10
212.72611191939029
 20
274.39526041629222
 30
0.0
 42
1.0
  0
SEQEND
  5
33C0
  8
SUNPO
  6
BYBLOCK
  0
POLYLINE
  5
2A90
  8
SUNPO
  6
BYBLOCK
 66
     1
 10
0.0
 20
0.0
 30
0.0
 70
     1
 40
1.159999999999999
 41
1.159999999999999
  0
VERTEX
  5
33C1
  8
SUNPO
  6
BYBLOCK
 10
212.72611191939029
 20
250.39526039245041
 30
0.0
 42
1.0
  0
VERTEX
  5
33C2
  8
SUNPO
  6
BYBLOCK
 10
212.72611191939029
 20
250.10526039245039
 30
0.0
 42
1.0
  0
SEQEND
  5
33C3
  8
SUNPO
  6
BYBLOCK
  0
TEXT
  5
2A91
  8
SUNPO
  6
CONTINUOUS
 10
212.22611191939029
 20
260.16692708295892
 30
0.0
 40
2.5
  1
24
 50
90.0
  0
POLYLINE
  5
2A92
  8
SUNPO
  6
BYBLOCK
 66
     1
 10
0.0
 20
0.0
 30
0.0
 70
     1
 40
1.159999999999999
 41
1.159999999999999
  0
VERTEX
  5
33C4
  8
SUNPO
  6
BYBLOCK
 10
219.76030456050691
 20
314.1052604162922
 30
0.0
 42
1.0
  0
VERTEX
  5
33C5
  8
SUNPO
  6
BYBLOCK
 10
219.76030456050691
 20
314.39526041629222
 30
0.0
 42
1.0
  0
SEQEND
  5
33C6
  8
SUNPO
  6
BYBLOCK
  0
TEXT
  5
2A93
  8
SUNPO
  6
CONTINUOUS
 10
219.26030456050691
 20
292.18776041629218
 30
0.0
 40
2.5
  1
40
 50
90.0
 41
1.1000000000000001
  7
MX_DIMTXSTY_3
  0
POLYLINE
  5
2A94
  8
SUNPO
  6
BYBLOCK
 66
     1
 10
0.0
 20
0.0
 30
0.0
 70
     1
 40
1.159999999999999
 41
1.159999999999999
  0
VERTEX
  5
33C7
  8
SUNPO
  6
BYBLOCK
 10
219.76030456050691
 20
324.1052604162922
 30
0.0
 42
1.0
  0
VERTEX
  5
33C8
  8
SUNPO
  6
BYBLOCK
 10
219.76030456050691
 20
324.39526041629222
 30
0.0
 42
1.0
  0
SEQEND
  5
33C9
  8
SUNPO
  6
BYBLOCK
  0
POLYLINE
  5
2A95
  8
SUNPO
  6
BYBLOCK
 66
     1
 10
0.0
 20
0.0
 30
0.0
 70
     1
 40
1.159999999999999
 41
1.159999999999999
  0
VERTEX
  5
33CA
  8
SUNPO
  6
BYBLOCK
 10
219.76030456050691
 20
314.39526041629222
 30
0.0
 42
1.0
  0
VERTEX
  5
33CB
  8
SUNPO
  6
BYBLOCK
 10
219.76030456050691
 20
314.1052604162922
 30
0.0
 42
1.0
  0
SEQEND
  5
33CC
  8
SUNPO
  6
BYBLOCK
  0
TEXT
  5
2A96
  8
SUNPO
  6
CONTINUOUS
 10
219.26030456050691
 20
317.28151041629229
 30
0.0
 40
2.5
  1
10
 50
90.0
 41
1.3500000000000001
  7
MX_DIMTXSTY_5
  0
POLYLINE
  5
2A97
  8
SUNPO
  6
BYBLOCK
 66
     1
 10
0.0
 20
0.0
 30
0.0
 70
     1
 40
1.159999999999999
 41
1.159999999999999
  0
VERTEX
  5
33CD
  8
SUNPO
  6
BYBLOCK
 10
87.760304560506938
 20
314.39526041629222
 30
0.0
 42
1.0
  0
VERTEX
  5
33CE
  8
SUNPO
  6
BYBLOCK
 10
87.760304560506938
 20
314.1052604162922
 30
0.0
 42
1.0
  0
SEQEND
  5
33CF
  8
SUNPO
  6
BYBLOCK
  0
POLYLINE
  5
2A98
  8
SUNPO
  6
BYBLOCK
 66
     1
 10
0.0
 20
0.0
 30
0.0
 70
     1
 40
1.159999999999999
 41
1.159999999999999
  0
VERTEX
  5
33D0
  8
SUNPO
  6
BYBLOCK
 10
87.760304560506938
 20
324.1052604162922
 30
0.0
 42
1.0
  0
VERTEX
  5
33D1
  8
SUNPO
  6
BYBLOCK
 10
87.760304560506938
 20
324.39526041629222
 30
0.0
 42
1.0
  0
SEQEND
  5
33D2
  8
SUNPO
  6
BYBLOCK
  0
TEXT
  5
2A99
  8
SUNPO
  6
CONTINUOUS
 10
87.260304560506924
 20
317.28151041629229
 30
0.0
 40
2.5
  1
10
 50
90.0
 41
1.3500000000000001
  7
MX_DIMTXSTY_5
  0
POLYLINE
  5
2A9A
  8
SUNPO
  6
BYBLOCK
 66
     1
 10
0.0
 20
0.0
 30
0.0
 70
     1
 40
1.159999999999999
 41
1.159999999999999
  0
VERTEX
  5
33D3
  8
SUNPO
  6
BYBLOCK
 10
87.760304560506938
 20
309.39526041629222
 30
0.0
 42
1.0
  0
VERTEX
  5
33D4
  8
SUNPO
  6
BYBLOCK
 10
87.760304560506938
 20
309.1052604162922
 30
0.0
 42
1.0
  0
SEQEND
  5
33D5
  8
SUNPO
  6
BYBLOCK
  0
POLYLINE
  5
2A9B
  8
SUNPO
  6
BYBLOCK
 66
     1
 10
0.0
 20
0.0
 30
0.0
 70
     1
 40
1.159999999999999
 41
1.159999999999999
  0
VERTEX
  5
33D6
  8
SUNPO
  6
BYBLOCK
 10
87.760304560506938
 20
314.1052604162922
 30
0.0
 42
1.0
  0
VERTEX
  5
33D7
  8
SUNPO
  6
BYBLOCK
 10
87.760304560506938
 20
314.39526041629222
 30
0.0
 42
1.0
  0
SEQEND
  5
33D8
  8
SUNPO
  6
BYBLOCK
  0
TEXT
  5
2A9C
  8
SUNPO
  6
CONTINUOUS
 10
87.260304560506924
 20
310.91692708295881
 30
0.0
 40
2.5
  1
5
 50
90.0
  0
POLYLINE
  5
2A9D
  8
SUNPO
  6
BYBLOCK
 66
     1
 10
0.0
 20
0.0
 30
0.0
 70
     1
 40
1.159999999999999
 41
1.159999999999999
  0
VERTEX
  5
33D9
  8
SUNPO
  6
BYBLOCK
 10
95.760304560506924
 20
250.3952604162923
 30
0.0
 42
1.0
  0
VERTEX
  5
33DA
  8
SUNPO
  6
BYBLOCK
 10
95.760304560506924
 20
250.1052604162922
 30
0.0
 42
1.0
  0
SEQEND
  5
33DB
  8
SUNPO
  6
BYBLOCK
  0
POLYLINE
  5
2A9E
  8
SUNPO
  6
BYBLOCK
 66
     1
 10
0.0
 20
0.0
 30
0.0
 70
     1
 40
1.159999999999999
 41
1.159999999999999
  0
VERTEX
  5
33DC
  8
SUNPO
  6
BYBLOCK
 10
95.760304560506924
 20
265.1052604162922
 30
0.0
 42
1.0
  0
VERTEX
  5
33DD
  8
SUNPO
  6
BYBLOCK
 10
95.760304560506924
 20
265.39526041629227
 30
0.0
 42
1.0
  0
SEQEND
  5
33DE
  8
SUNPO
  6
BYBLOCK
  0
TEXT
  5
2A9F
  8
SUNPO
  6
CONTINUOUS
 10
95.260304560506938
 20
255.75026041629221
 30
0.0
 40
2.5
  1
15
 50
90.0
 41
1.1999999999999991
  7
MX_DIMTXSTY_4
  0
POLYLINE
  5
2AA0
  8
SUNPO
  6
BYBLOCK
 66
     1
 10
0.0
 20
0.0
 30
0.0
 70
     1
 40
1.159999999999999
 41
1.159999999999999
  0
VERTEX
  5
33DF
  8
SUNPO
  6
BYBLOCK
 10
87.760304560506938
 20
250.3952604162923
 30
0.0
 42
1.0
  0
VERTEX
  5
33E0
  8
SUNPO
  6
BYBLOCK
 10
87.760304560506938
 20
250.1052604162922
 30
0.0
 42
1.0
  0
SEQEND
  5
33E1
  8
SUNPO
  6
BYBLOCK
  0
POLYLINE
  5
2AA1
  8
SUNPO
  6
BYBLOCK
 66
     1
 10
0.0
 20
0.0
 30
0.0
 70
     1
 40
1.159999999999999
 41
1.159999999999999
  0
VERTEX
  5
33E2
  8
SUNPO
  6
BYBLOCK
 10
87.760304560506938
 20
274.10526041629231
 30
0.0
 42
1.0
  0
VERTEX
  5
33E3
  8
SUNPO
  6
BYBLOCK
 10
87.760304560506938
 20
274.39526041629222
 30
0.0
 42
1.0
  0
SEQEND
  5
33E4
  8
SUNPO
  6
BYBLOCK
  0
TEXT
  5
2AA2
  8
SUNPO
  6
CONTINUOUS
 10
87.260304560506924
 20
260.16692708295892
 30
0.0
 40
2.5
  1
24
 50
90.0
  0
POLYLINE
  5
2AA3
  8
SUNPO
  6
BYBLOCK
 66
     1
 10
0.0
 20
0.0
 30
0.0
 70
     1
 40
1.159999999999999
 41
1.159999999999999
  0
VERTEX
  5
33E5
  8
SUNPO
  6
BYBLOCK
 10
87.760304560506938
 20
274.39526041629222
 30
0.0
 42
1.0
  0
VERTEX
  5
33E6
  8
SUNPO
  6
BYBLOCK
 10
87.760304560506938
 20
274.10526041629231
 30
0.0
 42
1.0
  0
SEQEND
  5
33E7
  8
SUNPO
  6
BYBLOCK
  0
POLYLINE
  5
2AA4
  8
SUNPO
  6
BYBLOCK
 66
     1
 10
0.0
 20
0.0
 30
0.0
 70
     1
 40
1.159999999999999
 41
1.159999999999999
  0
VERTEX
  5
33E8
  8
SUNPO
  6
BYBLOCK
 10
87.760304560506938
 20
309.1052604162922
 30
0.0
 42
1.0
  0
VERTEX
  5
33E9
  8
SUNPO
  6
BYBLOCK
 10
87.760304560506938
 20
309.39526041629222
 30
0.0
 42
1.0
  0
SEQEND
  5
33EA
  8
SUNPO
  6
BYBLOCK
  0
TEXT
  5
2AA5
  8
SUNPO
  6
CONTINUOUS
 10
87.260304560506924
 20
289.66692708295898
 30
0.0
 40
2.5
  1
35
 50
90.0
  0
POLYLINE
  5
2AA6
  8
SUNPO
  6
BYBLOCK
 66
     1
 10
0.0
 20
0.0
 30
0.0
 70
     1
 40
1.159999999999999
 41
1.159999999999999
  0
VERTEX
  5
33EB
  8
SUNPO
  6
BYBLOCK
 10
87.760304560506938
 20
100.3952605792129
 30
0.0
 42
1.0
  0
VERTEX
  5
33EC
  8
SUNPO
  6
BYBLOCK
 10
87.760304560506938
 20
100.105260579213
 30
0.0
 42
1.0
  0
SEQEND
  5
33ED
  8
SUNPO
  6
BYBLOCK
  0
POLYLINE
  5
2AA7
  8
SUNPO
  6
BYBLOCK
 66
     1
 10
0.0
 20
0.0
 30
0.0
 70
     1
 40
1.159999999999999
 41
1.159999999999999
  0
VERTEX
  5
33EE
  8
SUNPO
  6
BYBLOCK
 10
87.760304560506938
 20
110.1052605792129
 30
0.0
 42
1.0
  0
VERTEX
  5
33EF
  8
SUNPO
  6
BYBLOCK
 10
87.760304560506938
 20
110.3952605792129
 30
0.0
 42
1.0
  0
SEQEND
  5
33F0
  8
SUNPO
  6
BYBLOCK
  0
TEXT
  5
2AA8
  8
SUNPO
  6
CONTINUOUS
 10
87.260304560506924
 20
103.28151057921291
 30
0.0
 40
2.5
  1
10
 50
90.0
 41
1.3500000000000001
  7
MX_DIMTXSTY_5
  0
POLYLINE
  5
2AA9
  8
SUNPO
  6
BYBLOCK
 66
     1
 10
0.0
 20
0.0
 30
0.0
 70
     1
 40
1.159999999999999
 41
1.159999999999999
  0
VERTEX
  5
33F1
  8
SUNPO
  6
BYBLOCK
 10
87.760304560506938
 20
110.3952605792129
 30
0.0
 42
1.0
  0
VERTEX
  5
33F2
  8
SUNPO
  6
BYBLOCK
 10
87.760304560506938
 20
110.1052605792129
 30
0.0
 42
1.0
  0
SEQEND
  5
33F3
  8
SUNPO
  6
BYBLOCK
  0
POLYLINE
  5
2AAA
  8
SUNPO
  6
BYBLOCK
 66
     1
 10
0.0
 20
0.0
 30
0.0
 70
     1
 40
1.159999999999999
 41
1.159999999999999
  0
VERTEX
  5
33F4
  8
SUNPO
  6
BYBLOCK
 10
87.760304560506938
 20
120.105260579213
 30
0.0
 42
1.0
  0
VERTEX
  5
33F5
  8
SUNPO
  6
BYBLOCK
 10
87.760304560506938
 20
120.3952605792129
 30
0.0
 42
1.0
  0
SEQEND
  5
33F6
  8
SUNPO
  6
BYBLOCK
  0
TEXT
  5
2AAB
  8
SUNPO
  6
CONTINUOUS
 10
87.260304560506924
 20
113.28151057921291
 30
0.0
 40
2.5
  1
10
 50
90.0
 41
1.3500000000000001
  7
MX_DIMTXSTY_5
  0
POLYLINE
  5
2AAC
  8
SUNPO
  6
BYBLOCK
 66
     1
 10
0.0
 20
0.0
 30
0.0
 70
     1
 40
1.159999999999999
 41
1.159999999999999
  0
VERTEX
  5
33F7
  8
SUNPO
  6
BYBLOCK
 10
87.760304560506938
 20
120.3952605792129
 30
0.0
 42
1.0
  0
VERTEX
  5
33F8
  8
SUNPO
  6
BYBLOCK
 10
87.760304560506938
 20
120.105260579213
 30
0.0
 42
1.0
  0
SEQEND
  5
33F9
  8
SUNPO
  6
BYBLOCK
  0
POLYLINE
  5
2AAD
  8
SUNPO
  6
BYBLOCK
 66
     1
 10
0.0
 20
0.0
 30
0.0
 70
     1
 40
1.159999999999999
 41
1.159999999999999
  0
VERTEX
  5
33FA
  8
SUNPO
  6
BYBLOCK
 10
87.760304560506938
 20
138.10526057921291
 30
0.0
 42
1.0
  0
VERTEX
  5
33FB
  8
SUNPO
  6
BYBLOCK
 10
87.760304560506938
 20
138.3952605792129
 30
0.0
 42
1.0
  0
SEQEND
  5
33FC
  8
SUNPO
  6
BYBLOCK
  0
TEXT
  5
2AAE
  8
SUNPO
  6
CONTINUOUS
 10
87.260304560506924
 20
127.25026057921291
 30
0.0
 40
2.5
  1
18
 50
90.0
 41
1.1999999999999991
  7
MX_DIMTXSTY_4
  0
POLYLINE
  5
2AAF
  8
SUNPO
  6
BYBLOCK
 66
     1
 10
0.0
 20
0.0
 30
0.0
 70
     1
 40
1.159999999999999
 41
1.159999999999999
  0
VERTEX
  5
33FD
  8
SUNPO
  6
BYBLOCK
 10
87.760304560506938
 20
138.3952605792129
 30
0.0
 42
1.0
  0
VERTEX
  5
33FE
  8
SUNPO
  6
BYBLOCK
 10
87.760304560506938
 20
138.10526057921291
 30
0.0
 42
1.0
  0
SEQEND
  5
33FF
  8
SUNPO
  6
BYBLOCK
  0
POLYLINE
  5
2AB0
  8
SUNPO
  6
BYBLOCK
 66
     1
 10
0.0
 20
0.0
 30
0.0
 70
     1
 40
1.159999999999999
 41
1.159999999999999
  0
VERTEX
  5
3400
  8
SUNPO
  6
BYBLOCK
 10
87.760304560506938
 20
170.10526057921291
 30
0.0
 42
1.0
  0
VERTEX
  5
3401
  8
SUNPO
  6
BYBLOCK
 10
87.760304560506938
 20
170.3952605792129
 30
0.0
 42
1.0
  0
SEQEND
  5
3402
  8
SUNPO
  6
BYBLOCK
  0
TEXT
  5
2AB1
  8
SUNPO
  6
CONTINUOUS
 10
87.260304560506924
 20
152.16692724587961
 30
0.0
 40
2.5
  1
32
 50
90.0
  0
POLYLINE
  5
2AB2
  8
SUNPO
  6
BYBLOCK
 66
     1
 10
0.0
 20
0.0
 30
0.0
 70
     1
 40
1.159999999999999
 41
1.159999999999999
  0
VERTEX
  5
3403
  8
SUNPO
  6
BYBLOCK
 10
95.760304560506924
 20
155.39526057921299
 30
0.0
 42
1.0
  0
VERTEX
  5
3404
  8
SUNPO
  6
BYBLOCK
 10
95.760304560506924
 20
155.10526057921291
 30
0.0
 42
1.0
  0
SEQEND
  5
3405
  8
SUNPO
  6
BYBLOCK
  0
POLYLINE
  5
2AB3
  8
SUNPO
  6
BYBLOCK
 66
     1
 10
0.0
 20
0.0
 30
0.0
 70
     1
 40
1.159999999999999
 41
1.159999999999999
  0
VERTEX
  5
3406
  8
SUNPO
  6
BYBLOCK
 10
95.760304560506924
 20
170.10526057921291
 30
0.0
 42
1.0
  0
VERTEX
  5
3407
  8
SUNPO
  6
BYBLOCK
 10
95.760304560506924
 20
170.3952605792129
 30
0.0
 42
1.0
  0
SEQEND
  5
3408
  8
SUNPO
  6
BYBLOCK
  0
TEXT
  5
2AB4
  8
SUNPO
  6
CONTINUOUS
 10
95.260304560506938
 20
160.75026057921289
 30
0.0
 40
2.5
  1
15
 50
90.0
 41
1.1999999999999991
  7
MX_DIMTXSTY_4
  0
POLYLINE
  5
2AB5
  8
SUNPO
  6
BYBLOCK
 66
     1
 10
0.0
 20
0.0
 30
0.0
 70
     1
 40
1.159999999999999
 41
1.159999999999999
  0
VERTEX
  5
3409
  8
SUNPO
  6
BYBLOCK
 10
149.90530456050701
 20
207.7502542808711
 30
0.0
 42
1.0
  0
VERTEX
  5
340A
  8
SUNPO
  6
BYBLOCK
 10
149.6153045605069
 20
207.7502542808711
 30
0.0
 42
1.0
  0
SEQEND
  5
340B
  8
SUNPO
  6
BYBLOCK
  0
POLYLINE
  5
2AB6
  8
SUNPO
  6
BYBLOCK
 66
     1
 10
0.0
 20
0.0
 30
0.0
 70
     1
 40
1.159999999999999
 41
1.159999999999999
  0
VERTEX
  5
340C
  8
SUNPO
  6
BYBLOCK
 10
198.61532648386719
 20
207.7502542808711
 30
0.0
 42
1.0
  0
VERTEX
  5
340D
  8
SUNPO
  6
BYBLOCK
 10
198.90532648386721
 20
207.7502542808711
 30
0.0
 42
1.0
  0
SEQEND
  5
340E
  8
SUNPO
  6
BYBLOCK
  0
TEXT
  5
2AB7
  8
SUNPO
  6
CONTINUOUS
 10
172.17698267126539
 20
208.25025428087119
 30
0.0
 40
2.5
  1
49
  0
POLYLINE
  5
2AB8
  8
SUNPO
  6
BYBLOCK
 66
     1
 10
0.0
 20
0.0
 30
0.0
 70
     1
 40
1.159999999999999
 41
1.159999999999999
  0
VERTEX
  5
340F
  8
SUNPO
  6
BYBLOCK
 10
119.90530456050691
 20
207.7502542808711
 30
0.0
 42
1.0
  0
VERTEX
  5
3410
  8
SUNPO
  6
BYBLOCK
 10
119.6153045605069
 20
207.7502542808711
 30
0.0
 42
1.0
  0
SEQEND
  5
3411
  8
SUNPO
  6
BYBLOCK
  0
TEXT
  5
2AB9
  8
SUNPO
  6
CONTINUOUS
 10
132.697804560507
 20
208.25025428087119
 30
0.0
 40
2.5
  1
30
 41
1.1000000000000001
  7
MX_DIMTXSTY_3
  0
LINE
  5
2ABA
  8
DANMEN
  6
CONTINUOUS
 10
126.76029540523351
 20
169.7649667712115
 30
0.0
 11
125.44975301619949
 21
171.0755091602455
 31
0.0
  0
LINE
  5
2ABB
  8
DANMEN
  6
CONTINUOUS
 10
126.76029540523351
 20
167.64364642765179
 30
0.0
 11
123.57799977188211
 21
170.82594206100319
 31
0.0
  0
LINE
  5
2ABC
  8
DANMEN
  6
CONTINUOUS
 10
126.76029540523351
 20
165.52232608409221
 30
0.0
 11
121.7062465275648
 21
170.57637496176091
 31
0.0
  0
LINE
  5
2ABD
  8
DANMEN
  6
CONTINUOUS
 10
126.76029540523351
 20
163.4010057405325
 30
0.0
 11
119.8344932832474
 21
170.32680786251859
 31
0.0
  0
LINE
  5
2ABE
  8
DANMEN
  6
CONTINUOUS
 10
124.7897326567564
 20
163.25024814545
 30
0.0
 11
119.76029540523351
 21
168.27968539697289
 31
0.0
  0
LINE
  5
2ABF
  8
DANMEN
  6
CONTINUOUS
 10
122.6684123131967
 20
163.25024814545
 30
0.0
 11
119.76029540523351
 21
166.15836505341329
 31
0.0
  0
LINE
  5
2AC0
  8
DANMEN
  6
CONTINUOUS
 10
120.54709196963709
 20
163.25024814545
 30
0.0
 11
119.76029540523351
 21
164.0370447098536
 31
0.0
  0
LINE
  5
2AC1
  8
DANMEN
  6
CONTINUOUS
 10
125.6389750616738
 20
163.25024814545
 30
0.0
 11
126.76029540523351
 21
164.37156848900969
 31
0.0
  0
LINE
  5
2AC2
  8
DANMEN
  6
CONTINUOUS
 10
123.5176547181142
 20
163.25024814545
 30
0.0
 11
126.76029540523351
 21
166.49288883256929
 31
0.0
  0
LINE
  5
2AC3
  8
DANMEN
  6
CONTINUOUS
 10
121.3963343745546
 20
163.25024814545
 30
0.0
 11
126.76029540523351
 21
168.61420917612901
 31
0.0
  0
LINE
  5
2AC4
  8
DANMEN
  6
CONTINUOUS
 10
119.76029540523351
 20
163.73552951968861
 30
0.0
 11
126.76029540523351
 21
170.73552951968861
 31
0.0
  0
LINE
  5
2AC5
  8
DANMEN
  6
CONTINUOUS
 10
119.76029540523351
 20
165.8568498632483
 30
0.0
 11
124.9065241923894
 21
171.00307865040421
 31
0.0
  0
LINE
  5
2AC6
  8
DANMEN
  6
CONTINUOUS
 10
119.76029540523351
 20
167.9781702068079
 30
0.0
 11
122.4588468728975
 21
170.67672167447191
 31
0.0
  0
LINE
  5
2AC7
  8
DANMEN
  6
CONTINUOUS
 10
119.6810986328332
 20
170.02029377796731
 30
0.0
 11
120.01116955340559
 21
170.35036469853969
 31
0.0
  0
LINE
  5
2AC8
  8
DANMEN
  6
CONTINUOUS
 10
149.8394921776337
 20
170.02029377796731
 30
0.0
 11
149.5094212570614
 21
170.35036469853969
 31
0.0
  0
LINE
  5
2AC9
  8
DANMEN
  6
CONTINUOUS
 10
149.76029540523351
 20
167.9781702068079
 30
0.0
 11
147.0617439375695
 21
170.67672167447191
 31
0.0
  0
LINE
  5
2ACA
  8
DANMEN
  6
CONTINUOUS
 10
149.76029540523351
 20
165.8568498632483
 30
0.0
 11
144.6140666180776
 21
171.00307865040421
 31
0.0
  0
LINE
  5
2ACB
  8
DANMEN
  6
CONTINUOUS
 10
149.76029540523351
 20
163.73552951968861
 30
0.0
 11
142.76029540523351
 21
170.73552951968861
 31
0.0
  0
LINE
  5
2ACC
  8
DANMEN
  6
CONTINUOUS
 10
148.1242564359124
 20
163.25024814545
 30
0.0
 11
142.76029540523351
 21
168.61420917612901
 31
0.0
  0
LINE
  5
2ACD
  8
DANMEN
  6
CONTINUOUS
 10
146.0029360923528
 20
163.25024814545
 30
0.0
 11
142.76029540523351
 21
166.49288883256929
 31
0.0
  0
LINE
  5
2ACE
  8
DANMEN
  6
CONTINUOUS
 10
143.88161574879319
 20
163.25024814545
 30
0.0
 11
142.76029540523351
 21
164.37156848900969
 31
0.0
  0
LINE
  5
2ACF
  8
DANMEN
  6
CONTINUOUS
 10
148.9734988408299
 20
163.25024814545
 30
0.0
 11
149.76029540523351
 21
164.0370447098536
 31
0.0
  0
LINE
  5
2AD0
  8
DANMEN
  6
CONTINUOUS
 10
146.8521784972703
 20
163.25024814545
 30
0.0
 11
149.76029540523351
 21
166.15836505341329
 31
0.0
  0
LINE
  5
2AD1
  8
DANMEN
  6
CONTINUOUS
 10
144.73085815371061
 20
163.25024814545
 30
0.0
 11
149.76029540523351
 21
168.27968539697289
 31
0.0
  0
LINE
  5
2AD2
  8
DANMEN
  6
CONTINUOUS
 10
142.76029540523351
 20
163.4010057405325
 30
0.0
 11
149.68609752721949
 21
170.32680786251859
 31
0.0
  0
LINE
  5
2AD3
  8
DANMEN
  6
CONTINUOUS
 10
142.76029540523351
 20
165.52232608409221
 30
0.0
 11
147.8143442829022
 21
170.57637496176091
 31
0.0
  0
LINE
  5
2AD4
  8
DANMEN
  6
CONTINUOUS
 10
142.76029540523351
 20
167.64364642765179
 30
0.0
 11
145.94259103858491
 21
170.82594206100319
 31
0.0
  0
LINE
  5
2AD5
  8
DANMEN
  6
CONTINUOUS
 10
142.76029540523351
 20
169.7649667712115
 30
0.0
 11
144.0708377942675
 21
171.0755091602455
 31
0.0
  0
LINE
  5
2AD6
  8
DANMEN
  6
CONTINUOUS
 10
120.5471072284261
 20
257.25026041629218
 30
0.0
 11
119.7603106640226
 21
256.46346385188872
 31
0.0
  0
LINE
  5
2AD7
  8
DANMEN
  6
CONTINUOUS
 10
122.6684275719858
 20
257.25026041629218
 30
0.0
 11
119.7603106640226
 21
254.342143508329
 31
0.0
  0
LINE
  5
2AD8
  8
DANMEN
  6
CONTINUOUS
 10
124.78974791554541
 20
257.25026041629218
 30
0.0
 11
119.7603106640226
 21
252.2208231647694
 31
0.0
  0
LINE
  5
2AD9
  8
DANMEN
  6
CONTINUOUS
 10
126.7603106640225
 20
257.09950282120968
 30
0.0
 11
119.8345085420365
 21
250.1737006992237
 31
0.0
  0
LINE
  5
2ADA
  8
DANMEN
  6
CONTINUOUS
 10
126.7603106640225
 20
254.97818247765011
 30
0.0
 11
121.70626178635391
 21
249.92413359998139
 31
0.0
  0
LINE
  5
2ADB
  8
DANMEN
  6
CONTINUOUS
 10
126.7603106640225
 20
252.85686213409051
 30
0.0
 11
123.5780150306712
 21
249.6745665007391
 31
0.0
  0
LINE
  5
2ADC
  8
DANMEN
  6
CONTINUOUS
 10
126.7603106640225
 20
250.73554179053079
 30
0.0
 11
125.4497682749885
 21
249.42499940149679
 31
0.0
  0
LINE
  5
2ADD
  8
DANMEN
  6
CONTINUOUS
 10
119.6811138916223
 20
250.48021478377501
 30
0.0
 11
120.0111848121947
 21
250.1501438632026
 31
0.0
  0
LINE
  5
2ADE
  8
DANMEN
  6
CONTINUOUS
 10
119.7603106640226
 20
252.52233835493439
 30
0.0
 11
122.4588621316866
 21
249.82378688727039
 31
0.0
  0
LINE
  5
2ADF
  8
DANMEN
  6
CONTINUOUS
 10
119.7603106640226
 20
254.64365869849411
 30
0.0
 11
124.9065394511785
 21
249.49742991133809
 31
0.0
  0
LINE
  5
2AE0
  8
DANMEN
  6
CONTINUOUS
 10
119.7603106640226
 20
256.76497904205371
 30
0.0
 11
126.7603106640225
 21
249.76497904205371
 31
0.0
  0
LINE
  5
2AE1
  8
DANMEN
  6
CONTINUOUS
 10
121.3963496333437
 20
257.25026041629218
 30
0.0
 11
126.7603106640225
 21
251.88629938561331
 31
0.0
  0
LINE
  5
2AE2
  8
DANMEN
  6
CONTINUOUS
 10
123.51766997690331
 20
257.25026041629218
 30
0.0
 11
126.7603106640225
 21
254.007619729173
 31
0.0
  0
LINE
  5
2AE3
  8
DANMEN
  6
CONTINUOUS
 10
125.6389903204629
 20
257.25026041629218
 30
0.0
 11
126.7603106640225
 21
256.12894007273258
 31
0.0
  0
LINE
  5
2AE4
  8
DANMEN
  6
CONTINUOUS
 10
143.8816310075822
 20
257.25026041629218
 30
0.0
 11
142.7603106640226
 21
256.12894007273258
 31
0.0
  0
LINE
  5
2AE5
  8
DANMEN
  6
CONTINUOUS
 10
146.0029513511418
 20
257.25026041629218
 30
0.0
 11
142.7603106640226
 21
254.007619729173
 31
0.0
  0
LINE
  5
2AE6
  8
DANMEN
  6
CONTINUOUS
 10
148.12427169470149
 20
257.25026041629218
 30
0.0
 11
142.76031066402251
 21
251.88629938561331
 31
0.0
  0
LINE
  5
2AE7
  8
DANMEN
  6
CONTINUOUS
 10
149.76031066402251
 20
256.76497904205371
 30
0.0
 11
142.7603106640226
 21
249.76497904205371
 31
0.0
  0
LINE
  5
2AE8
  8
DANMEN
  6
CONTINUOUS
 10
149.76031066402251
 20
254.64365869849411
 30
0.0
 11
144.61408187686661
 21
249.49742991133809
 31
0.0
  0
LINE
  5
2AE9
  8
DANMEN
  6
CONTINUOUS
 10
149.76031066402251
 20
252.52233835493439
 30
0.0
 11
147.06175919635851
 21
249.82378688727039
 31
0.0
  0
LINE
  5
2AEA
  8
DANMEN
  6
CONTINUOUS
 10
149.83950743642279
 20
250.48021478377501
 30
0.0
 11
149.5094365158505
 21
250.1501438632026
 31
0.0
  0
LINE
  5
2AEB
  8
DANMEN
  6
CONTINUOUS
 10
142.7603106640226
 20
250.73554179053079
 30
0.0
 11
144.0708530530566
 21
249.42499940149679
 31
0.0
  0
LINE
  5
2AEC
  8
DANMEN
  6
CONTINUOUS
 10
142.76031066402251
 20
252.85686213409051
 30
0.0
 11
145.94260629737391
 21
249.6745665007391
 31
0.0
  0
LINE
  5
2AED
  8
DANMEN
  6
CONTINUOUS
 10
142.76031066402251
 20
254.97818247765011
 30
0.0
 11
147.81435954169109
 21
249.92413359998139
 31
0.0
  0
LINE
  5
2AEE
  8
DANMEN
  6
CONTINUOUS
 10
142.7603106640226
 20
257.09950282120968
 30
0.0
 11
149.68611278600861
 21
250.1737006992237
 31
0.0
  0
LINE
  5
2AEF
  8
DANMEN
  6
CONTINUOUS
 10
144.7308734124997
 20
257.25026041629218
 30
0.0
 11
149.76031066402251
 21
252.2208231647694
 31
0.0
  0
LINE
  5
2AF0
  8
DANMEN
  6
CONTINUOUS
 10
146.85219375605931
 20
257.25026041629218
 30
0.0
 11
149.76031066402251
 21
254.34214350832909
 31
0.0
  0
LINE
  5
2AF1
  8
DANMEN
  6
CONTINUOUS
 10
148.973514099619
 20
257.25026041629218
 30
0.0
 11
149.76031066402251
 21
256.46346385188872
 31
0.0
  0
POLYLINE
  5
2AF2
  8
SUNPO
  6
BYBLOCK
 66
     1
 10
0.0
 20
0.0
 30
0.0
 70
     1
 40
1.159999999999999
 41
1.159999999999999
  0
VERTEX
  5
3412
  8
SUNPO
  6
BYBLOCK
 10
113.90530456050701
 20
207.7502542808711
 30
0.0
 42
1.0
  0
VERTEX
  5
3413
  8
SUNPO
  6
BYBLOCK
 10
113.6153045605069
 20
207.7502542808711
 30
0.0
 42
1.0
  0
SEQEND
  5
3414
  8
SUNPO
  6
BYBLOCK
  0
TEXT
  5
2AF3
  8
SUNPO
  6
CONTINUOUS
 10
115.9269712271736
 20
208.25025428087119
 30
0.0
 40
2.5
  1
6
  0
LINE
  5
2AF4
  8
DANMEN
  6
CONTINUOUS
 10
184.45878937034189
 20
121.25026057921291
 30
0.0
 11
185.26030456050691
 21
122.051775769378
 31
0.0
  0
LINE
  5
2AF5
  8
DANMEN
  6
CONTINUOUS
 10
183.45360881950671
 20
121.65929359075081
 30
0.0
 11
185.26030456050691
 21
123.465989331751
 31
0.0
  0
LINE
  5
2AF6
  8
DANMEN
  6
CONTINUOUS
 10
181.54457580796881
 20
119.75026057921291
 30
0.0
 11
182.26030456050691
 21
120.465989331751
 31
0.0
  0
LINE
  5
2AF7
  8
DANMEN
  6
CONTINUOUS
 10
182.63036224559571
 20
122.25026057921291
 30
0.0
 11
185.26030456050691
 21
124.8802028941242
 31
0.0
  0
LINE
  5
2AF8
  8
DANMEN
  6
CONTINUOUS
 10
180.13036224559571
 20
119.75026057921291
 30
0.0
 11
182.26030456050691
 21
121.8802028941242
 31
0.0
  0
LINE
  5
2AF9
  8
DANMEN
  6
CONTINUOUS
 10
178.7161486832226
 20
119.75026057921291
 30
0.0
 11
185.26030456050691
 21
126.2944164564972
 31
0.0
  0
LINE
  5
2AFA
  8
DANMEN
  6
CONTINUOUS
 10
177.30193512084949
 20
119.75026057921291
 30
0.0
 11
185.13405995473639
 21
127.5823854130998
 31
0.0
  0
LINE
  5
2AFB
  8
DANMEN
  6
CONTINUOUS
 10
183.40370752336841
 20
127.2662465441049
 30
0.0
 11
183.74431859561491
 21
127.6068576163515
 31
0.0
  0
LINE
  5
2AFC
  8
DANMEN
  6
CONTINUOUS
 10
176.26030456050691
 20
120.1228435812434
 30
0.0
 11
182.88961993022031
 21
126.7521589509568
 31
0.0
  0
LINE
  5
2AFD
  8
DANMEN
  6
CONTINUOUS
 10
176.26030456050691
 20
121.53705714361649
 30
0.0
 11
182.26030456050691
 21
127.53705714361649
 31
0.0
  0
LINE
  5
2AFE
  8
DANMEN
  6
CONTINUOUS
 10
175.5411903942688
 20
122.2321565397515
 30
0.0
 11
181.0592944337302
 21
127.75026057921291
 31
0.0
  0
LINE
  5
2AFF
  8
DANMEN
  6
CONTINUOUS
 10
174.6302349655416
 20
121.32120111102439
 30
0.0
 11
175.18936402869551
 21
121.8803301741782
 31
0.0
  0
LINE
  5
2B00
  8
DANMEN
  6
CONTINUOUS
 10
173.3538648567168
 20
121.45904456457259
 30
0.0
 11
179.6450808713571
 21
127.75026057921291
 31
0.0
  0
LINE
  5
2B01
  8
DANMEN
  6
CONTINUOUS
 10
173.26030456050691
 20
122.7796978307358
 30
0.0
 11
178.23086730898399
 21
127.75026057921291
 31
0.0
  0
LINE
  5
2B02
  8
DANMEN
  6
CONTINUOUS
 10
176.26030456050691
 20
127.19391139310891
 30
0.0
 11
176.81665374661091
 21
127.75026057921291
 31
0.0
  0
LINE
  5
2B03
  8
DANMEN
  6
CONTINUOUS
 10
173.26030456050691
 20
124.19391139310891
 30
0.0
 11
175.81665374661091
 21
126.75026057921291
 31
0.0
  0
LINE
  5
2B04
  8
DANMEN
  6
CONTINUOUS
 10
173.26030456050691
 20
125.608124955482
 30
0.0
 11
175.0348987514916
 21
127.3827191464667
 31
0.0
  0
LINE
  5
2B05
  8
DANMEN
  6
CONTINUOUS
 10
173.26030456050691
 20
127.0223385178551
 30
0.0
 11
173.9882266218647
 21
127.75026057921291
 31
0.0
  0
LINE
  5
2B06
  8
DANMEN
  6
CONTINUOUS
 10
185.1882266218648
 20
138.95026057921291
 30
0.0
 11
185.26030456050691
 21
139.0223385178551
 31
0.0
  0
LINE
  5
2B07
  8
DANMEN
  6
CONTINUOUS
 10
183.77401305949169
 20
138.95026057921291
 30
0.0
 11
185.26030456050691
 21
140.43655208022821
 31
0.0
  0
LINE
  5
2B08
  8
DANMEN
  6
CONTINUOUS
 10
182.3597994971185
 20
138.95026057921291
 30
0.0
 11
185.26030456050691
 21
141.85076564260129
 31
0.0
  0
LINE
  5
2B09
  8
DANMEN
  6
CONTINUOUS
 10
180.94558593474551
 20
138.95026057921291
 30
0.0
 11
185.26030456050691
 21
143.2649792049744
 31
0.0
  0
LINE
  5
2B0A
  8
DANMEN
  6
CONTINUOUS
 10
179.53137237237229
 20
138.95026057921299
 30
0.0
 11
185.26030456050691
 21
144.6791927673475
 31
0.0
  0
LINE
  5
2B0B
  8
DANMEN
  6
CONTINUOUS
 10
178.1171588099993
 20
138.95026057921291
 30
0.0
 11
184.41715880999931
 21
145.25026057921289
 31
0.0
  0
LINE
  5
2B0C
  8
DANMEN
  6
CONTINUOUS
 10
176.70294524762619
 20
138.95026057921291
 30
0.0
 11
182.26030456050691
 21
144.5076198920936
 31
0.0
  0
LINE
  5
2B0D
  8
DANMEN
  6
CONTINUOUS
 10
175.28873168525311
 20
138.95026057921291
 30
0.0
 11
182.26030456050691
 21
145.92183345446671
 31
0.0
  0
LINE
  5
2B0E
  8
DANMEN
  6
CONTINUOUS
 10
173.87451812288
 20
138.95026057921299
 30
0.0
 11
181.67451812287999
 21
146.75026057921289
 31
0.0
  0
LINE
  5
2B0F
  8
DANMEN
  6
CONTINUOUS
 10
173.26030456050691
 20
139.75026057921289
 30
0.0
 11
180.26030456050691
 21
146.75026057921289
 31
0.0
  0
LINE
  5
2B10
  8
DANMEN
  6
CONTINUOUS
 10
173.26030456050691
 20
141.164474141586
 30
0.0
 11
178.8460909981338
 21
146.75026057921289
 31
0.0
  0
LINE
  5
2B11
  8
DANMEN
  6
CONTINUOUS
 10
176.26030456050691
 20
145.5786877039591
 30
0.0
 11
177.4318774357607
 21
146.75026057921289
 31
0.0
  0
LINE
  5
2B12
  8
DANMEN
  6
CONTINUOUS
 10
173.26030456050691
 20
142.5786877039591
 30
0.0
 11
175.22111138357579
 21
144.5394945270281
 31
0.0
  0
LINE
  5
2B13
  8
DANMEN
  6
CONTINUOUS
 10
173.26030456050691
 20
143.99290126633221
 30
0.0
 11
174.49074928942881
 21
145.22334599525411
 31
0.0
  0
LINE
  5
2B14
  8
DANMEN
  6
CONTINUOUS
 10
183.72021329547249
 20
283.9086539610928
 30
0.0
 11
185.26030456050691
 21
285.44874522612719
 31
0.0
  0
LINE
  5
2B15
  8
DANMEN
  6
CONTINUOUS
 10
182.0618197506719
 20
282.25026041629229
 30
0.0
 11
182.26030456050691
 21
282.44874522612719
 31
0.0
  0
LINE
  5
2B16
  8
DANMEN
  6
CONTINUOUS
 10
183.0861875757488
 20
284.68884180374232
 30
0.0
 11
185.26030456050691
 21
286.86295878850029
 31
0.0
  0
LINE
  5
2B17
  8
DANMEN
  6
CONTINUOUS
 10
180.64760618829879
 20
282.25026041629229
 30
0.0
 11
182.26030456050691
 21
283.86295878850029
 31
0.0
  0
LINE
  5
2B18
  8
DANMEN
  6
CONTINUOUS
 10
179.23339262592569
 20
282.25026041629218
 30
0.0
 11
185.26030456050691
 21
288.2771723508734
 31
0.0
  0
LINE
  5
2B19
  8
DANMEN
  6
CONTINUOUS
 10
177.81917906355261
 20
282.25026041629218
 30
0.0
 11
185.26030456050691
 21
289.69138591324651
 31
0.0
  0
LINE
  5
2B1A
  8
DANMEN
  6
CONTINUOUS
 10
176.4049655011795
 20
282.25026041629218
 30
0.0
 11
184.4049655011795
 21
290.25026041629218
 31
0.0
  0
LINE
  5
2B1B
  8
DANMEN
  6
CONTINUOUS
 10
176.26030456050691
 20
283.51981303799272
 30
0.0
 11
182.26030456050691
 21
289.51981303799272
 31
0.0
  0
LINE
  5
2B1C
  8
DANMEN
  6
CONTINUOUS
 10
176.07653837643329
 20
284.75026041629218
 30
0.0
 11
181.57653837643329
 21
290.25026041629218
 31
0.0
  0
LINE
  5
2B1D
  8
DANMEN
  6
CONTINUOUS
 10
173.67046261331259
 20
283.75839821554462
 30
0.0
 11
180.16232481406021
 21
290.25026041629218
 31
0.0
  0
LINE
  5
2B1E
  8
DANMEN
  6
CONTINUOUS
 10
173.26030456050691
 20
284.76245372511198
 30
0.0
 11
178.74811125168711
 21
290.25026041629218
 31
0.0
  0
LINE
  5
2B1F
  8
DANMEN
  6
CONTINUOUS
 10
173.2603045605068
 20
286.17666728748497
 30
0.0
 11
177.33389768931411
 21
290.25026041629218
 31
0.0
  0
LINE
  5
2B20
  8
DANMEN
  6
CONTINUOUS
 10
173.26030456050691
 20
287.59088084985819
 30
0.0
 11
175.2173058723242
 21
289.54788216167549
 31
0.0
  0
LINE
  5
2B21
  8
DANMEN
  6
CONTINUOUS
 10
173.26030456050691
 20
289.0050944122313
 30
0.0
 11
174.4808477699456
 21
290.22563762166999
 31
0.0
  0
POLYLINE
  5
2B22
  8
SUNPO
  6
BYBLOCK
 66
     1
 10
0.0
 20
0.0
 30
0.0
 70
     1
 40
1.159999999999999
 41
1.159999999999999
  0
VERTEX
  5
3415
  8
SUNPO
  6
BYBLOCK
 10
203.6153045605069
 20
207.7502542808711
 30
0.0
 42
1.0
  0
VERTEX
  5
3416
  8
SUNPO
  6
BYBLOCK
 10
203.90530456050689
 20
207.7502542808711
 30
0.0
 42
1.0
  0
SEQEND
  5
3417
  8
SUNPO
  6
BYBLOCK
  0
TEXT
  5
2B23
  8
SUNPO
  6
CONTINUOUS
 10
200.42698219442821
 20
208.25025428087119
 30
0.0
 40
2.5
  1
5
  0
POLYLINE
  5
2B24
  8
SUNPO
  6
BYBLOCK
 66
     1
 10
0.0
 20
0.0
 30
0.0
 70
     1
 40
1.159999999999999
 41
1.159999999999999
  0
VERTEX
  5
3418
  8
SUNPO
  6
BYBLOCK
 10
103.90530456050701
 20
212.7502542808711
 30
0.0
 42
1.0
  0
VERTEX
  5
3419
  8
SUNPO
  6
BYBLOCK
 10
103.6153045605069
 20
212.7502542808711
 30
0.0
 42
1.0
  0
SEQEND
  5
341A
  8
SUNPO
  6
BYBLOCK
  0
POLYLINE
  5
2B25
  8
SUNPO
  6
BYBLOCK
 66
     1
 10
0.0
 20
0.0
 30
0.0
 70
     1
 40
1.159999999999999
 41
1.159999999999999
  0
VERTEX
  5
341B
  8
SUNPO
  6
BYBLOCK
 10
203.6153045605069
 20
212.7502542808711
 30
0.0
 42
1.0
  0
VERTEX
  5
341C
  8
SUNPO
  6
BYBLOCK
 10
203.90530456050689
 20
212.7502542808711
 30
0.0
 42
1.0
  0
SEQEND
  5
341D
  8
SUNPO
  6
BYBLOCK
  0
TEXT
  5
2B26
  8
SUNPO
  6
CONTINUOUS
 10
150.51030456050691
 20
213.2502542808711
 30
0.0
 40
2.5
  1
100
 41
1.3
  7
MX_DIMTXSTY_2
  0
POLYLINE
  5
2B27
  8
SUNPO
  6
BYBLOCK
 66
     1
 10
0.0
 20
0.0
 30
0.0
 70
     1
 40
1.159999999999999
 41
1.159999999999999
  0
VERTEX
  5
341E
  8
SUNPO
  6
BYBLOCK
 10
103.90530456050701
 20
207.7502542808711
 30
0.0
 42
1.0
  0
VERTEX
  5
341F
  8
SUNPO
  6
BYBLOCK
 10
103.6153045605069
 20
207.7502542808711
 30
0.0
 42
1.0
  0
SEQEND
  5
3420
  8
SUNPO
  6
BYBLOCK
  0
POLYLINE
  5
2B28
  8
SUNPO
  6
BYBLOCK
 66
     1
 10
0.0
 20
0.0
 30
0.0
 70
     1
 40
1.159999999999999
 41
1.159999999999999
  0
VERTEX
  5
3421
  8
SUNPO
  6
BYBLOCK
 10
111.6153045605069
 20
207.7502542808711
 30
0.0
 42
1.0
  0
VERTEX
  5
3422
  8
SUNPO
  6
BYBLOCK
 10
111.90530456050701
 20
207.7502542808711
 30
0.0
 42
1.0
  0
SEQEND
  5
3423
  8
SUNPO
  6
BYBLOCK
  0
TEXT
  5
2B29
  8
SUNPO
  6
CONTINUOUS
 10
106.9269712271736
 20
208.25025428087119
 30
0.0
 40
2.5
  1
8
  0
TEXT
  5
2B2A
  8
SUNPO
  6
CONTINUOUS
 10
111.9269712271736
 20
208.25025428087119
 30
0.0
 40
2.5
  1
2
  0
POLYLINE
  5
2B2B
  8
SUNPO
  6
BYBLOCK
 66
     1
 10
0.0
 20
0.0
 30
0.0
 70
     1
 40
1.159999999999999
 41
1.159999999999999
  0
VERTEX
  5
3424
  8
SUNPO
  6
BYBLOCK
 10
211.76030456050691
 20
170.10526057921291
 30
0.0
 42
1.0
  0
VERTEX
  5
3425
  8
SUNPO
  6
BYBLOCK
 10
211.76030456050691
 20
170.3952605792129
 30
0.0
 42
1.0
  0
SEQEND
  5
3426
  8
SUNPO
  6
BYBLOCK
  0
POLYLINE
  5
2B2C
  8
SUNPO
  6
BYBLOCK
 66
     1
 10
0.0
 20
0.0
 30
0.0
 70
     1
 40
1.159999999999999
 41
1.159999999999999
  0
VERTEX
  5
3427
  8
SUNPO
  6
BYBLOCK
 10
211.76030456050691
 20
165.3952605792129
 30
0.0
 42
1.0
  0
VERTEX
  5
3428
  8
SUNPO
  6
BYBLOCK
 10
211.76030456050691
 20
165.10526057921291
 30
0.0
 42
1.0
  0
SEQEND
  5
3429
  8
SUNPO
  6
BYBLOCK
  0
TEXT
  5
2B2D
  8
SUNPO
  6
CONTINUOUS
 10
211.26030456050691
 20
166.91692724587961
 30
0.0
 40
2.5
  1
5
 50
90.0
  0
POLYLINE
  5
2B2E
  8
SUNPO
  6
BYBLOCK
 66
     1
 10
0.0
 20
0.0
 30
0.0
 70
     1
 40
1.159999999999999
 41
1.159999999999999
  0
VERTEX
  5
342A
  8
SUNPO
  6
BYBLOCK
 10
211.76030456050691
 20
165.10526057921291
 30
0.0
 42
1.0
  0
VERTEX
  5
342B
  8
SUNPO
  6
BYBLOCK
 10
211.76030456050691
 20
165.3952605792129
 30
0.0
 42
1.0
  0
SEQEND
  5
342C
  8
SUNPO
  6
BYBLOCK
  0
POLYLINE
  5
2B2F
  8
SUNPO
  6
BYBLOCK
 66
     1
 10
0.0
 20
0.0
 30
0.0
 70
     1
 40
1.159999999999999
 41
1.159999999999999
  0
VERTEX
  5
342D
  8
SUNPO
  6
BYBLOCK
 10
211.76030456050691
 20
148.8952605792129
 30
0.0
 42
1.0
  0
VERTEX
  5
342E
  8
SUNPO
  6
BYBLOCK
 10
211.76030456050691
 20
148.60526057921291
 30
0.0
 42
1.0
  0
SEQEND
  5
342F
  8
SUNPO
  6
BYBLOCK
  0
TEXT
  5
2B30
  8
SUNPO
  6
CONTINUOUS
 10
211.26030456050691
 20
152.50026057921289
 30
0.0
 40
2.5
  1
16.5
 50
90.0
 41
1.3500000000000001
  7
MX_DIMTXSTY_5
  0
POLYLINE
  5
2B31
  8
SUNPO
  6
BYBLOCK
 66
     1
 10
0.0
 20
0.0
 30
0.0
 70
     1
 40
1.159999999999999
 41
1.159999999999999
  0
VERTEX
  5
3430
  8
SUNPO
  6
BYBLOCK
 10
211.76030456050691
 20
148.8952605792129
 30
0.0
 42
1.0
  0
VERTEX
  5
3431
  8
SUNPO
  6
BYBLOCK
 10
211.76030456050691
 20
148.60526057921291
 30
0.0
 42
1.0
  0
SEQEND
  5
3432
  8
SUNPO
  6
BYBLOCK
  0
POLYLINE
  5
2B32
  8
SUNPO
  6
BYBLOCK
 66
     1
 10
0.0
 20
0.0
 30
0.0
 70
     1
 40
1.159999999999999
 41
1.159999999999999
  0
VERTEX
  5
3433
  8
SUNPO
  6
BYBLOCK
 10
211.76030456050691
 20
144.10526057921291
 30
0.0
 42
1.0
  0
VERTEX
  5
3434
  8
SUNPO
  6
BYBLOCK
 10
211.76030456050691
 20
144.3952605792129
 30
0.0
 42
1.0
  0
SEQEND
  5
3435
  8
SUNPO
  6
BYBLOCK
  0
TEXT
  5
2B33
  8
SUNPO
  6
CONTINUOUS
 10
211.26030456050691
 20
136.70412944517969
 30
0.0
 40
2.5
  1
4.5
 50
90.0
 41
1.3
  7
MX_DIMTXSTY_2
  0
POLYLINE
  5
2B34
  8
SUNPO
  6
BYBLOCK
 66
     1
 10
0.0
 20
0.0
 30
0.0
 70
     1
 40
1.159999999999999
 41
1.159999999999999
  0
VERTEX
  5
3436
  8
SUNPO
  6
BYBLOCK
 10
95.760304560506924
 20
274.39526041629222
 30
0.0
 42
1.0
  0
VERTEX
  5
3437
  8
SUNPO
  6
BYBLOCK
 10
95.760304560506924
 20
274.10526041629231
 30
0.0
 42
1.0
  0
SEQEND
  5
3438
  8
SUNPO
  6
BYBLOCK
  0
POLYLINE
  5
2B35
  8
SUNPO
  6
BYBLOCK
 66
     1
 10
0.0
 20
0.0
 30
0.0
 70
     1
 40
1.159999999999999
 41
1.159999999999999
  0
VERTEX
  5
3439
  8
SUNPO
  6
BYBLOCK
 10
95.760304560506924
 20
282.1052604162922
 30
0.0
 42
1.0
  0
VERTEX
  5
343A
  8
SUNPO
  6
BYBLOCK
 10
95.760304560506924
 20
282.39526041629222
 30
0.0
 42
1.0
  0
SEQEND
  5
343B
  8
SUNPO
  6
BYBLOCK
  0
TEXT
  5
2B36
  8
SUNPO
  6
CONTINUOUS
 10
95.260304560506938
 20
277.41692708295892
 30
0.0
 40
2.5
  1
8
 50
90.0
  0
POLYLINE
  5
2B37
  8
SUNPO
  6
BYBLOCK
 66
     1
 10
0.0
 20
0.0
 30
0.0
 70
     1
 40
1.159999999999999
 41
1.159999999999999
  0
VERTEX
  5
343C
  8
SUNPO
  6
BYBLOCK
 10
103.90530456050701
 20
332.25026041629218
 30
0.0
 42
1.0
  0
VERTEX
  5
343D
  8
SUNPO
  6
BYBLOCK
 10
103.6153045605069
 20
332.25026041629218
 30
0.0
 42
1.0
  0
SEQEND
  5
343E
  8
SUNPO
  6
BYBLOCK
  0
POLYLINE
  5
2B38
  8
SUNPO
  6
BYBLOCK
 66
     1
 10
0.0
 20
0.0
 30
0.0
 70
     1
 40
1.159999999999999
 41
1.159999999999999
  0
VERTEX
  5
343F
  8
SUNPO
  6
BYBLOCK
 10
158.6153045605069
 20
332.25026041629218
 30
0.0
 42
1.0
  0
VERTEX
  5
3440
  8
SUNPO
  6
BYBLOCK
 10
158.90530456050689
 20
332.25026041629218
 30
0.0
 42
1.0
  0
SEQEND
  5
3441
  8
SUNPO
  6
BYBLOCK
  0
TEXT
  5
2B39
  8
SUNPO
  6
CONTINUOUS
 10
129.1769712271736
 20
332.75026041629218
 30
0.0
 40
2.5
  1
55
  0
POLYLINE
  5
2B3A
  8
SUNPO
  6
BYBLOCK
 66
     1
 10
0.0
 20
0.0
 30
0.0
 70
     1
 40
1.159999999999999
 41
1.159999999999999
  0
VERTEX
  5
3442
  8
SUNPO
  6
BYBLOCK
 10
158.90530456050689
 20
332.25026041629218
 30
0.0
 42
1.0
  0
VERTEX
  5
3443
  8
SUNPO
  6
BYBLOCK
 10
158.6153045605069
 20
332.25026041629218
 30
0.0
 42
1.0
  0
SEQEND
  5
3444
  8
SUNPO
  6
BYBLOCK
  0
POLYLINE
  5
2B3B
  8
SUNPO
  6
BYBLOCK
 66
     1
 10
0.0
 20
0.0
 30
0.0
 70
     1
 40
1.159999999999999
 41
1.159999999999999
  0
VERTEX
  5
3445
  8
SUNPO
  6
BYBLOCK
 10
203.6153045605069
 20
332.25026041629218
 30
0.0
 42
1.0
  0
VERTEX
  5
3446
  8
SUNPO
  6
BYBLOCK
 10
203.90530456050689
 20
332.25026041629218
 30
0.0
 42
1.0
  0
SEQEND
  5
3447
  8
SUNPO
  6
BYBLOCK
  0
TEXT
  5
2B3C
  8
SUNPO
  6
CONTINUOUS
 10
179.1769712271736
 20
332.75026041629218
 30
0.0
 40
2.5
  1
45
  0
POLYLINE
  5
2B3D
  8
SUNPO
  6
BYBLOCK
 66
     1
 10
0.0
 20
0.0
 30
0.0
 70
     1
 40
1.159999999999999
 41
1.159999999999999
  0
VERTEX
  5
3448
  8
SUNPO
  6
BYBLOCK
 10
212.72611191939029
 20
282.1052604162922
 30
0.0
 42
1.0
  0
VERTEX
  5
3449
  8
SUNPO
  6
BYBLOCK
 10
212.72611191939029
 20
282.39526041629222
 30
0.0
 42
1.0
  0
SEQEND
  5
344A
  8
SUNPO
  6
BYBLOCK
  0
POLYLINE
  5
2B3E
  8
SUNPO
  6
BYBLOCK
 66
     1
 10
0.0
 20
0.0
 30
0.0
 70
     1
 40
1.159999999999999
 41
1.159999999999999
  0
VERTEX
  5
344B
  8
SUNPO
  6
BYBLOCK
 10
212.72611191939029
 20
274.39526041629222
 30
0.0
 42
1.0
  0
VERTEX
  5
344C
  8
SUNPO
  6
BYBLOCK
 10
212.72611191939029
 20
274.10526041629231
 30
0.0
 42
1.0
  0
SEQEND
  5
344D
  8
SUNPO
  6
BYBLOCK
  0
TEXT
  5
2B3F
  8
SUNPO
  6
CONTINUOUS
 10
212.22611191939029
 20
277.41692708295892
 30
0.0
 40
2.5
  1
8
 50
90.0
  0
POLYLINE
  5
2B40
  8
SUNPO
  6
BYBLOCK
 66
     1
 10
0.0
 20
0.0
 30
0.0
 70
     1
 40
1.159999999999999
 41
1.159999999999999
  0
VERTEX
  5
344E
  8
SUNPO
  6
BYBLOCK
 10
212.72611191939029
 20
314.1052604162922
 30
0.0
 42
1.0
  0
VERTEX
  5
344F
  8
SUNPO
  6
BYBLOCK
 10
212.72611191939029
 20
314.39526041629222
 30
0.0
 42
1.0
  0
SEQEND
  5
3450
  8
SUNPO
  6
BYBLOCK
  0
POLYLINE
  5
2B41
  8
SUNPO
  6
BYBLOCK
 66
     1
 10
0.0
 20
0.0
 30
0.0
 70
     1
 40
1.159999999999999
 41
1.159999999999999
  0
VERTEX
  5
3451
  8
SUNPO
  6
BYBLOCK
 10
212.72611191939029
 20
282.39526041629222
 30
0.0
 42
1.0
  0
VERTEX
  5
3452
  8
SUNPO
  6
BYBLOCK
 10
212.72611191939029
 20
282.1052604162922
 30
0.0
 42
1.0
  0
SEQEND
  5
3453
  8
SUNPO
  6
BYBLOCK
  0
TEXT
  5
2B42
  8
SUNPO
  6
CONTINUOUS
 10
212.22611191939029
 20
296.16692708295898
 30
0.0
 40
2.5
  1
32
 50
90.0
  0
POLYLINE
  5
2B43
  8
SUNPO
  6
BYBLOCK
 66
     1
 10
0.0
 20
0.0
 30
0.0
 70
     1
 40
1.159999999999999
 41
1.159999999999999
  0
VERTEX
  5
3454
  8
SUNPO
  6
BYBLOCK
 10
95.760304560506924
 20
282.39526041629222
 30
0.0
 42
1.0
  0
VERTEX
  5
3455
  8
SUNPO
  6
BYBLOCK
 10
95.760304560506924
 20
282.1052604162922
 30
0.0
 42
1.0
  0
SEQEND
  5
3456
  8
SUNPO
  6
BYBLOCK
  0
POLYLINE
  5
2B44
  8
SUNPO
  6
BYBLOCK
 66
     1
 10
0.0
 20
0.0
 30
0.0
 70
     1
 40
1.159999999999999
 41
1.159999999999999
  0
VERTEX
  5
3457
  8
SUNPO
  6
BYBLOCK
 10
95.760304560506924
 20
309.1052604162922
 30
0.0
 42
1.0
  0
VERTEX
  5
3458
  8
SUNPO
  6
BYBLOCK
 10
95.760304560506924
 20
309.39526041629222
 30
0.0
 42
1.0
  0
SEQEND
  5
3459
  8
SUNPO
  6
BYBLOCK
  0
TEXT
  5
2B45
  8
SUNPO
  6
CONTINUOUS
 10
95.260304560506938
 20
293.66692708295892
 30
0.0
 40
2.5
  1
27
 50
90.0
  0
POLYLINE
  5
2B46
  8
SUNPO
  6
BYBLOCK
 66
     1
 10
0.0
 20
0.0
 30
0.0
 70
     1
 40
1.159999999999999
 41
1.159999999999999
  0
VERTEX
  5
345A
  8
SUNPO
  6
BYBLOCK
 10
219.76030456050691
 20
115.1052605792129
 30
0.0
 42
1.0
  0
VERTEX
  5
345B
  8
SUNPO
  6
BYBLOCK
 10
219.76030456050691
 20
115.3952605792129
 30
0.0
 42
1.0
  0
SEQEND
  5
345C
  8
SUNPO
  6
BYBLOCK
  0
POLYLINE
  5
2B47
  8
SUNPO
  6
BYBLOCK
 66
     1
 10
0.0
 20
0.0
 30
0.0
 70
     1
 40
1.159999999999999
 41
1.159999999999999
  0
VERTEX
  5
345D
  8
SUNPO
  6
BYBLOCK
 10
219.76030456050691
 20
100.3952605792129
 30
0.0
 42
1.0
  0
VERTEX
  5
345E
  8
SUNPO
  6
BYBLOCK
 10
219.76030456050691
 20
100.105260579213
 30
0.0
 42
1.0
  0
SEQEND
  5
345F
  8
SUNPO
  6
BYBLOCK
  0
TEXT
  5
2B48
  8
SUNPO
  6
CONTINUOUS
 10
219.26030456050691
 20
105.75026057921291
 30
0.0
 40
2.5
  1
15
 50
90.0
 41
1.1999999999999991
  7
MX_DIMTXSTY_4
  0
POLYLINE
  5
2B49
  8
SUNPO
  6
BYBLOCK
 66
     1
 10
0.0
 20
0.0
 30
0.0
 70
     1
 40
1.159999999999999
 41
1.159999999999999
  0
VERTEX
  5
3460
  8
SUNPO
  6
BYBLOCK
 10
219.76030456050691
 20
115.3952605792129
 30
0.0
 42
1.0
  0
VERTEX
  5
3461
  8
SUNPO
  6
BYBLOCK
 10
219.76030456050691
 20
115.1052605792129
 30
0.0
 42
1.0
  0
SEQEND
  5
3462
  8
SUNPO
  6
BYBLOCK
  0
TEXT
  5
2B4A
  8
SUNPO
  6
CONTINUOUS
 10
219.26030456050691
 20
140.66692724587961
 30
0.0
 40
2.5
  1
55
 50
90.0
  0
POLYLINE
  5
2B4B
  8
SUNPO
  6
BYBLOCK
 66
     1
 10
0.0
 20
0.0
 30
0.0
 70
     1
 40
1.159999999999999
 41
1.159999999999999
  0
VERTEX
  5
3463
  8
SUNPO
  6
BYBLOCK
 10
462.17632383217318
 20
169.42166107868371
 30
0.0
 42
1.0
  0
VERTEX
  5
3464
  8
SUNPO
  6
BYBLOCK
 10
462.17632383217318
 20
169.7116610786837
 30
0.0
 42
1.0
  0
SEQEND
  5
3465
  8
SUNPO
  6
BYBLOCK
  0
POLYLINE
  5
2B4C
  8
SUNPO
  6
BYBLOCK
 66
     1
 10
0.0
 20
0.0
 30
0.0
 70
     1
 40
1.159999999999999
 41
1.159999999999999
  0
VERTEX
  5
3466
  8
SUNPO
  6
BYBLOCK
 10
462.17632383217318
 20
124.7116610786837
 30
0.0
 42
1.0
  0
VERTEX
  5
3467
  8
SUNPO
  6
BYBLOCK
 10
462.17632383217318
 20
124.4216610786837
 30
0.0
 42
1.0
  0
SEQEND
  5
3468
  8
SUNPO
  6
BYBLOCK
  0
TEXT
  5
2B4D
  8
SUNPO
  6
CONTINUOUS
 10
461.67632383217318
 20
144.98332774535041
 30
0.0
 40
2.5
  1
45
 50
90.0
  0
POLYLINE
  5
2B4E
  8
SUNPO
  6
BYBLOCK
 66
     1
 10
0.0
 20
0.0
 30
0.0
 70
     1
 40
1.159999999999999
 41
1.159999999999999
  0
VERTEX
  5
3469
  8
SUNPO
  6
BYBLOCK
 10
462.17632383217318
 20
224.42166107868371
 30
0.0
 42
1.0
  0
VERTEX
  5
346A
  8
SUNPO
  6
BYBLOCK
 10
462.17632383217318
 20
224.7116610786837
 30
0.0
 42
1.0
  0
SEQEND
  5
346B
  8
SUNPO
  6
BYBLOCK
  0
TEXT
  5
2B4F
  8
SUNPO
  6
CONTINUOUS
 10
461.67632383217318
 20
194.98332774535041
 30
0.0
 40
2.5
  1
55
 50
90.0
  0
POLYLINE
  5
2B50
  8
SUNPO
  6
BYBLOCK
 66
     1
 10
0.0
 20
0.0
 30
0.0
 70
     1
 40
1.159999999999999
 41
1.159999999999999
  0
VERTEX
  5
346C
  8
SUNPO
  6
BYBLOCK
 10
464.61894712410981
 20
100.56666107868369
 30
0.0
 42
1.0
  0
VERTEX
  5
346D
  8
SUNPO
  6
BYBLOCK
 10
464.90894712410972
 20
100.56666107868369
 30
0.0
 42
1.0
  0
SEQEND
  5
346E
  8
SUNPO
  6
BYBLOCK
  0
POLYLINE
  5
2B51
  8
SUNPO
  6
BYBLOCK
 66
     1
 10
0.0
 20
0.0
 30
0.0
 70
     1
 40
1.159999999999999
 41
1.159999999999999
  0
VERTEX
  5
346F
  8
SUNPO
  6
BYBLOCK
 10
455.40894712410972
 20
100.56666107868369
 30
0.0
 42
1.0
  0
VERTEX
  5
3470
  8
SUNPO
  6
BYBLOCK
 10
455.11894712410981
 20
100.56666107868369
 30
0.0
 42
1.0
  0
SEQEND
  5
3471
  8
SUNPO
  6
BYBLOCK
  0
TEXT
  5
2B52
  8
SUNPO
  6
CONTINUOUS
 10
456.76394712410979
 20
101.06666107868369
 30
0.0
 40
2.5
  1
9.5
 41
1.3
  7
MX_DIMTXSTY_2
  0
POLYLINE
  5
2B53
  8
SUNPO
  6
BYBLOCK
 66
     1
 10
0.0
 20
0.0
 30
0.0
 70
     1
 40
1.159999999999999
 41
1.159999999999999
  0
VERTEX
  5
3472
  8
SUNPO
  6
BYBLOCK
 10
455.40894712410972
 20
240.56666107868369
 30
0.0
 42
1.0
  0
VERTEX
  5
3473
  8
SUNPO
  6
BYBLOCK
 10
455.11894712410981
 20
240.56666107868369
 30
0.0
 42
1.0
  0
SEQEND
  5
3474
  8
SUNPO
  6
BYBLOCK
  0
POLYLINE
  5
2B54
  8
SUNPO
  6
BYBLOCK
 66
     1
 10
0.0
 20
0.0
 30
0.0
 70
     1
 40
1.159999999999999
 41
1.159999999999999
  0
VERTEX
  5
3475
  8
SUNPO
  6
BYBLOCK
 10
464.61894712410981
 20
240.56666107868369
 30
0.0
 42
1.0
  0
VERTEX
  5
3476
  8
SUNPO
  6
BYBLOCK
 10
464.90894712410972
 20
240.56666107868369
 30
0.0
 42
1.0
  0
SEQEND
  5
3477
  8
SUNPO
  6
BYBLOCK
  0
TEXT
  5
2B55
  8
SUNPO
  6
CONTINUOUS
 10
456.76394712410979
 20
241.06666107868369
 30
0.0
 40
2.5
  1
9.5
 41
1.3
  7
MX_DIMTXSTY_2
  0
POLYLINE
  5
2B56
  8
SUNPO
  6
BYBLOCK
 66
     1
 10
0.0
 20
0.0
 30
0.0
 70
     1
 40
1.159999999999999
 41
1.159999999999999
  0
VERTEX
  5
3478
  8
SUNPO
  6
BYBLOCK
 10
256.11895011342682
 20
108.56666107868369
 30
0.0
 42
1.0
  0
VERTEX
  5
3479
  8
SUNPO
  6
BYBLOCK
 10
256.4089501134269
 20
108.56666107868369
 30
0.0
 42
1.0
  0
SEQEND
  5
347A
  8
SUNPO
  6
BYBLOCK
  0
POLYLINE
  5
2B57
  8
SUNPO
  6
BYBLOCK
 66
     1
 10
0.0
 20
0.0
 30
0.0
 70
     1
 40
1.159999999999999
 41
1.159999999999999
  0
VERTEX
  5
347B
  8
SUNPO
  6
BYBLOCK
 10
241.4089501134269
 20
108.56666107868369
 30
0.0
 42
1.0
  0
VERTEX
  5
347C
  8
SUNPO
  6
BYBLOCK
 10
241.11895011342691
 20
108.56666107868369
 30
0.0
 42
1.0
  0
SEQEND
  5
347D
  8
SUNPO
  6
BYBLOCK
  0
TEXT
  5
2B58
  8
SUNPO
  6
CONTINUOUS
 10
246.76395011342689
 20
109.06666107868369
 30
0.0
 40
2.5
  1
15
 41
1.1999999999999991
  7
MX_DIMTXSTY_4
  0
POLYLINE
  5
2B59
  8
SUNPO
  6
BYBLOCK
 66
     1
 10
0.0
 20
0.0
 30
0.0
 70
     1
 40
1.159999999999999
 41
1.159999999999999
  0
VERTEX
  5
347E
  8
SUNPO
  6
BYBLOCK
 10
271.11895011342682
 20
108.56666107868369
 30
0.0
 42
1.0
  0
VERTEX
  5
347F
  8
SUNPO
  6
BYBLOCK
 10
271.4089501134269
 20
108.56666107868369
 30
0.0
 42
1.0
  0
SEQEND
  5
3480
  8
SUNPO
  6
BYBLOCK
  0
POLYLINE
  5
2B5A
  8
SUNPO
  6
BYBLOCK
 66
     1
 10
0.0
 20
0.0
 30
0.0
 70
     1
 40
1.159999999999999
 41
1.159999999999999
  0
VERTEX
  5
3481
  8
SUNPO
  6
BYBLOCK
 10
256.4089501134269
 20
108.56666107868369
 30
0.0
 42
1.0
  0
VERTEX
  5
3482
  8
SUNPO
  6
BYBLOCK
 10
256.11895011342682
 20
108.56666107868369
 30
0.0
 42
1.0
  0
SEQEND
  5
3483
  8
SUNPO
  6
BYBLOCK
  0
TEXT
  5
2B5B
  8
SUNPO
  6
CONTINUOUS
 10
261.76395011342692
 20
109.06666107868369
 30
0.0
 40
2.5
  1
15
 41
1.1999999999999991
  7
MX_DIMTXSTY_4
  0
POLYLINE
  5
2B5C
  8
SUNPO
  6
BYBLOCK
 66
     1
 10
0.0
 20
0.0
 30
0.0
 70
     1
 40
1.159999999999999
 41
1.159999999999999
  0
VERTEX
  5
3484
  8
SUNPO
  6
BYBLOCK
 10
455.11894712410981
 20
108.56666107868369
 30
0.0
 42
1.0
  0
VERTEX
  5
3485
  8
SUNPO
  6
BYBLOCK
 10
455.40894712410972
 20
108.56666107868369
 30
0.0
 42
1.0
  0
SEQEND
  5
3486
  8
SUNPO
  6
BYBLOCK
  0
POLYLINE
  5
2B5D
  8
SUNPO
  6
BYBLOCK
 66
     1
 10
0.0
 20
0.0
 30
0.0
 70
     1
 40
1.159999999999999
 41
1.159999999999999
  0
VERTEX
  5
3487
  8
SUNPO
  6
BYBLOCK
 10
440.40894712410972
 20
108.56666107868369
 30
0.0
 42
1.0
  0
VERTEX
  5
3488
  8
SUNPO
  6
BYBLOCK
 10
440.11894712410981
 20
108.56666107868369
 30
0.0
 42
1.0
  0
SEQEND
  5
3489
  8
SUNPO
  6
BYBLOCK
  0
TEXT
  5
2B5E
  8
SUNPO
  6
CONTINUOUS
 10
445.76394712410979
 20
109.06666107868369
 30
0.0
 40
2.5
  1
15
 41
1.1999999999999991
  7
MX_DIMTXSTY_4
  0
POLYLINE
  5
2B5F
  8
SUNPO
  6
BYBLOCK
 66
     1
 10
0.0
 20
0.0
 30
0.0
 70
     1
 40
1.159999999999999
 41
1.159999999999999
  0
VERTEX
  5
348A
  8
SUNPO
  6
BYBLOCK
 10
440.11894712410981
 20
108.56666107868369
 30
0.0
 42
1.0
  0
VERTEX
  5
348B
  8
SUNPO
  6
BYBLOCK
 10
440.40894712410972
 20
108.56666107868369
 30
0.0
 42
1.0
  0
SEQEND
  5
348C
  8
SUNPO
  6
BYBLOCK
  0
POLYLINE
  5
2B60
  8
SUNPO
  6
BYBLOCK
 66
     1
 10
0.0
 20
0.0
 30
0.0
 70
     1
 40
1.159999999999999
 41
1.159999999999999
  0
VERTEX
  5
348D
  8
SUNPO
  6
BYBLOCK
 10
425.40894712410977
 20
108.56666107868369
 30
0.0
 42
1.0
  0
VERTEX
  5
348E
  8
SUNPO
  6
BYBLOCK
 10
425.1189471241097
 20
108.56666107868369
 30
0.0
 42
1.0
  0
SEQEND
  5
348F
  8
SUNPO
  6
BYBLOCK
  0
TEXT
  5
2B61
  8
SUNPO
  6
CONTINUOUS
 10
430.76394712410968
 20
109.06666107868369
 30
0.0
 40
2.5
  1
15
 41
1.1999999999999991
  7
MX_DIMTXSTY_4
  0
POLYLINE
  5
2B62
  8
SUNPO
  6
BYBLOCK
 66
     1
 10
0.0
 20
0.0
 30
0.0
 70
     1
 40
1.159999999999999
 41
1.159999999999999
  0
VERTEX
  5
3490
  8
SUNPO
  6
BYBLOCK
 10
397.26394920416328
 20
216.7116610786837
 30
0.0
 42
1.0
  0
VERTEX
  5
3491
  8
SUNPO
  6
BYBLOCK
 10
397.26394920416328
 20
216.42166107868371
 30
0.0
 42
1.0
  0
SEQEND
  5
3492
  8
SUNPO
  6
BYBLOCK
  0
POLYLINE
  5
2B63
  8
SUNPO
  6
BYBLOCK
 66
     1
 10
0.0
 20
0.0
 30
0.0
 70
     1
 40
1.159999999999999
 41
1.159999999999999
  0
VERTEX
  5
3493
  8
SUNPO
  6
BYBLOCK
 10
397.26394920416328
 20
224.42166107868371
 30
0.0
 42
1.0
  0
VERTEX
  5
3494
  8
SUNPO
  6
BYBLOCK
 10
397.26394920416328
 20
224.7116610786837
 30
0.0
 42
1.0
  0
SEQEND
  5
3495
  8
SUNPO
  6
BYBLOCK
  0
TEXT
  5
2B64
  8
SUNPO
  6
CONTINUOUS
 10
396.76394920416323
 20
219.73332774535041
 30
0.0
 40
2.5
  1
8
 50
90.0
  0
POLYLINE
  5
2B65
  8
SUNPO
  6
BYBLOCK
 66
     1
 10
0.0
 20
0.0
 30
0.0
 70
     1
 40
1.159999999999999
 41
1.159999999999999
  0
VERTEX
  5
3496
  8
SUNPO
  6
BYBLOCK
 10
397.26394920416323
 20
124.7116610786837
 30
0.0
 42
1.0
  0
VERTEX
  5
3497
  8
SUNPO
  6
BYBLOCK
 10
397.26394920416323
 20
124.4216610786837
 30
0.0
 42
1.0
  0
SEQEND
  5
3498
  8
SUNPO
  6
BYBLOCK
  0
POLYLINE
  5
2B66
  8
SUNPO
  6
BYBLOCK
 66
     1
 10
0.0
 20
0.0
 30
0.0
 70
     1
 40
1.159999999999999
 41
1.159999999999999
  0
VERTEX
  5
3499
  8
SUNPO
  6
BYBLOCK
 10
397.26394920416323
 20
129.42166107868371
 30
0.0
 42
1.0
  0
VERTEX
  5
349A
  8
SUNPO
  6
BYBLOCK
 10
397.26394920416323
 20
129.7116610786837
 30
0.0
 42
1.0
  0
SEQEND
  5
349B
  8
SUNPO
  6
BYBLOCK
  0
TEXT
  5
2B67
  8
SUNPO
  6
CONTINUOUS
 10
396.76394920416323
 20
126.23332774535039
 30
0.0
 40
2.5
  1
5
 50
90.0
  0
POLYLINE
  5
2B68
  8
SUNPO
  6
BYBLOCK
 66
     1
 10
0.0
 20
0.0
 30
0.0
 70
     1
 40
1.159999999999999
 41
1.159999999999999
  0
VERTEX
  5
349C
  8
SUNPO
  6
BYBLOCK
 10
231.9089501134269
 20
240.56666107868369
 30
0.0
 42
1.0
  0
VERTEX
  5
349D
  8
SUNPO
  6
BYBLOCK
 10
231.61895011342691
 20
240.56666107868369
 30
0.0
 42
1.0
  0
SEQEND
  5
349E
  8
SUNPO
  6
BYBLOCK
  0
POLYLINE
  5
2B69
  8
SUNPO
  6
BYBLOCK
 66
     1
 10
0.0
 20
0.0
 30
0.0
 70
     1
 40
1.159999999999999
 41
1.159999999999999
  0
VERTEX
  5
349F
  8
SUNPO
  6
BYBLOCK
 10
241.11895011342691
 20
240.56666107868369
 30
0.0
 42
1.0
  0
VERTEX
  5
34A0
  8
SUNPO
  6
BYBLOCK
 10
241.4089501134269
 20
240.56666107868369
 30
0.0
 42
1.0
  0
SEQEND
  5
34A1
  8
SUNPO
  6
BYBLOCK
  0
TEXT
  5
2B6A
  8
SUNPO
  6
CONTINUOUS
 10
233.26395011342689
 20
241.06666107868369
 30
0.0
 40
2.5
  1
9.5
 41
1.3
  7
MX_DIMTXSTY_2
  0
POLYLINE
  5
2B6B
  8
SUNPO
  6
BYBLOCK
 66
     1
 10
0.0
 20
0.0
 30
0.0
 70
     1
 40
1.159999999999999
 41
1.159999999999999
  0
VERTEX
  5
34A2
  8
SUNPO
  6
BYBLOCK
 10
241.11895011342691
 20
100.56666107868369
 30
0.0
 42
1.0
  0
VERTEX
  5
34A3
  8
SUNPO
  6
BYBLOCK
 10
241.4089501134269
 20
100.56666107868369
 30
0.0
 42
1.0
  0
SEQEND
  5
34A4
  8
SUNPO
  6
BYBLOCK
  0
POLYLINE
  5
2B6C
  8
SUNPO
  6
BYBLOCK
 66
     1
 10
0.0
 20
0.0
 30
0.0
 70
     1
 40
1.159999999999999
 41
1.159999999999999
  0
VERTEX
  5
34A5
  8
SUNPO
  6
BYBLOCK
 10
231.9089501134269
 20
100.56666107868369
 30
0.0
 42
1.0
  0
VERTEX
  5
34A6
  8
SUNPO
  6
BYBLOCK
 10
231.61895011342691
 20
100.56666107868369
 30
0.0
 42
1.0
  0
SEQEND
  5
34A7
  8
SUNPO
  6
BYBLOCK
  0
TEXT
  5
2B6D
  8
SUNPO
  6
CONTINUOUS
 10
233.26395011342689
 20
101.06666107868369
 30
0.0
 40
2.5
  1
9.5
 41
1.3
  7
MX_DIMTXSTY_2
  0
POLYLINE
  5
2B6E
  8
SUNPO
  6
BYBLOCK
 66
     1
 10
0.0
 20
0.0
 30
0.0
 70
     1
 40
1.159999999999999
 41
1.159999999999999
  0
VERTEX
  5
34A8
  8
SUNPO
  6
BYBLOCK
 10
397.26394920416328
 20
208.7116610786837
 30
0.0
 42
1.0
  0
VERTEX
  5
34A9
  8
SUNPO
  6
BYBLOCK
 10
397.26394920416328
 20
208.42166107868371
 30
0.0
 42
1.0
  0
SEQEND
  5
34AA
  8
SUNPO
  6
BYBLOCK
  0
TEXT
  5
2B6F
  8
SUNPO
  6
CONTINUOUS
 10
396.76394920416323
 20
211.73332774535041
 30
0.0
 40
2.5
  1
8
 50
90.0
  0
POLYLINE
  5
2B70
  8
SUNPO
  6
BYBLOCK
 66
     1
 10
0.0
 20
0.0
 30
0.0
 70
     1
 40
1.159999999999999
 41
1.159999999999999
  0
VERTEX
  5
34AB
  8
SUNPO
  6
BYBLOCK
 10
392.26394920416328
 20
224.42166107868371
 30
0.0
 42
1.0
  0
VERTEX
  5
34AC
  8
SUNPO
  6
BYBLOCK
 10
392.26394920416328
 20
224.7116610786837
 30
0.0
 42
1.0
  0
SEQEND
  5
34AD
  8
SUNPO
  6
BYBLOCK
  0
POLYLINE
  5
2B71
  8
SUNPO
  6
BYBLOCK
 66
     1
 10
0.0
 20
0.0
 30
0.0
 70
     1
 40
1.159999999999999
 41
1.159999999999999
  0
VERTEX
  5
34AE
  8
SUNPO
  6
BYBLOCK
 10
392.26394920416328
 20
216.7116610786837
 30
0.0
 42
1.0
  0
VERTEX
  5
34AF
  8
SUNPO
  6
BYBLOCK
 10
392.26394920416328
 20
216.42166107868371
 30
0.0
 42
1.0
  0
SEQEND
  5
34B0
  8
SUNPO
  6
BYBLOCK
  0
TEXT
  5
2B72
  8
SUNPO
  6
CONTINUOUS
 10
391.76394920416328
 20
219.73332774535041
 30
0.0
 40
2.5
  1
8
 50
90.0
  0
LINE
  5
2B73
  8
DANMEN
  6
CONTINUOUS
 10
446.59237424885589
 20
143.06666107868369
 30
0.0
 11
448.11593529050128
 21
144.59022212032909
 31
0.0
  0
LINE
  5
2B74
  8
DANMEN
  6
CONTINUOUS
 10
448.17816068648278
 20
146.06666107868369
 30
0.0
 11
448.26394712410979
 21
146.15244751631059
 31
0.0
  0
LINE
  5
2B75
  8
DANMEN
  6
CONTINUOUS
 10
445.17816068648278
 20
143.06666107868369
 30
0.0
 11
447.33517280459881
 21
145.22367319679969
 31
0.0
  0
LINE
  5
2B76
  8
DANMEN
  6
CONTINUOUS
 10
443.76394712410968
 20
143.06666107868369
 30
0.0
 11
448.26394712410979
 21
147.56666107868369
 31
0.0
  0
LINE
  5
2B77
  8
DANMEN
  6
CONTINUOUS
 10
442.34973356173668
 20
143.06666107868369
 30
0.0
 11
448.26394712410979
 21
148.9808746410568
 31
0.0
  0
LINE
  5
2B78
  8
DANMEN
  6
CONTINUOUS
 10
441.76394712410979
 20
143.89508820342991
 30
0.0
 11
448.26394712410979
 21
150.39508820342991
 31
0.0
  0
LINE
  5
2B79
  8
DANMEN
  6
CONTINUOUS
 10
442.52130643699059
 20
146.06666107868369
 30
0.0
 11
448.26394712410979
 21
151.80930176580301
 31
0.0
  0
LINE
  5
2B7A
  8
DANMEN
  6
CONTINUOUS
 10
441.10709287461731
 20
146.06666107868369
 30
0.0
 11
447.26394712410968
 21
152.22351532817609
 31
0.0
  0
LINE
  5
2B7B
  8
DANMEN
  6
CONTINUOUS
 10
440.26394712410979
 20
146.6377288905492
 30
0.0
 11
448.25949024408902
 21
154.63327201052849
 31
0.0
  0
LINE
  5
2B7C
  8
DANMEN
  6
CONTINUOUS
 10
440.26394712410979
 20
148.0519424529223
 30
0.0
 11
447.2786657498711
 21
155.06666107868369
 31
0.0
  0
LINE
  5
2B7D
  8
DANMEN
  6
CONTINUOUS
 10
440.26394712410979
 20
149.46615601529541
 30
0.0
 11
445.86445218749799
 21
155.06666107868369
 31
0.0
  0
LINE
  5
2B7E
  8
DANMEN
  6
CONTINUOUS
 10
442.4846693518806
 20
153.10109180543941
 30
0.0
 11
444.450238625125
 21
155.06666107868369
 31
0.0
  0
LINE
  5
2B7F
  8
DANMEN
  6
CONTINUOUS
 10
440.26394712410979
 20
150.8803695776684
 30
0.0
 11
441.450238625125
 21
152.06666107868369
 31
0.0
  0
LINE
  5
2B80
  8
DANMEN
  6
CONTINUOUS
 10
441.79374161457179
 20
153.82437763050351
 30
0.0
 11
443.03602506275189
 21
155.06666107868369
 31
0.0
  0
LINE
  5
2B81
  8
DANMEN
  6
CONTINUOUS
 10
254.73415562296489
 20
153.82437763050351
 30
0.0
 11
253.4918721747847
 21
155.06666107868369
 31
0.0
  0
LINE
  5
2B82
  8
DANMEN
  6
CONTINUOUS
 10
254.04322788565599
 20
153.10109180543941
 30
0.0
 11
252.0776586124116
 21
155.06666107868369
 31
0.0
  0
LINE
  5
2B83
  8
DANMEN
  6
CONTINUOUS
 10
256.26395011342692
 20
150.88036957766849
 30
0.0
 11
255.0776586124116
 21
152.06666107868369
 31
0.0
  0
LINE
  5
2B84
  8
DANMEN
  6
CONTINUOUS
 10
256.26395011342692
 20
149.46615601529541
 30
0.0
 11
250.66344505003849
 21
155.06666107868369
 31
0.0
  0
LINE
  5
2B85
  8
DANMEN
  6
CONTINUOUS
 10
256.26395011342692
 20
148.0519424529223
 30
0.0
 11
249.24923148766541
 21
155.06666107868369
 31
0.0
  0
LINE
  5
2B86
  8
DANMEN
  6
CONTINUOUS
 10
256.26395011342692
 20
146.6377288905492
 30
0.0
 11
248.2684069934476
 21
154.63327201052849
 31
0.0
  0
LINE
  5
2B87
  8
DANMEN
  6
CONTINUOUS
 10
255.4208043629192
 20
146.06666107868369
 30
0.0
 11
249.26395011342689
 21
152.22351532817609
 31
0.0
  0
LINE
  5
2B88
  8
DANMEN
  6
CONTINUOUS
 10
254.00659080054621
 20
146.06666107868369
 30
0.0
 11
248.26395011342689
 21
151.80930176580301
 31
0.0
  0
LINE
  5
2B89
  8
DANMEN
  6
CONTINUOUS
 10
254.76395011342689
 20
143.89508820342991
 30
0.0
 11
248.26395011342689
 21
150.39508820342991
 31
0.0
  0
LINE
  5
2B8A
  8
DANMEN
  6
CONTINUOUS
 10
254.17816367579999
 20
143.06666107868369
 30
0.0
 11
248.26395011342689
 21
148.9808746410568
 31
0.0
  0
LINE
  5
2B8B
  8
DANMEN
  6
CONTINUOUS
 10
252.76395011342689
 20
143.06666107868369
 30
0.0
 11
248.26395011342689
 21
147.56666107868369
 31
0.0
  0
LINE
  5
2B8C
  8
DANMEN
  6
CONTINUOUS
 10
248.34973655105381
 20
146.06666107868369
 30
0.0
 11
248.26395011342689
 21
146.15244751631059
 31
0.0
  0
LINE
  5
2B8D
  8
DANMEN
  6
CONTINUOUS
 10
251.34973655105381
 20
143.06666107868369
 30
0.0
 11
249.19272443293781
 21
145.22367319679969
 31
0.0
  0
LINE
  5
2B8E
  8
DANMEN
  6
CONTINUOUS
 10
249.9355229886807
 20
143.06666107868369
 30
0.0
 11
248.41196194703531
 21
144.59022212032909
 31
0.0
  0
LINE
  5
2B8F
  8
DANMEN
  6
CONTINUOUS
 10
294.77866740646402
 20
201.5666501050826
 30
0.0
 11
296.08920979549811
 21
202.87719249411671
 31
0.0
  0
LINE
  5
2B90
  8
DANMEN
  6
CONTINUOUS
 10
292.65734706290442
 20
201.5666501050826
 30
0.0
 11
295.83964269625568
 21
204.748945738434
 31
0.0
  0
LINE
  5
2B91
  8
DANMEN
  6
CONTINUOUS
 10
290.5360267193447
 20
201.5666501050826
 30
0.0
 11
295.59007559701342
 21
206.62069898275129
 31
0.0
  0
LINE
  5
2B92
  8
DANMEN
  6
CONTINUOUS
 10
288.4147063757851
 20
201.5666501050826
 30
0.0
 11
295.34050849777111
 21
208.49245222706861
 31
0.0
  0
LINE
  5
2B93
  8
DANMEN
  6
CONTINUOUS
 10
288.26394878070261
 20
203.53721285355971
 30
0.0
 11
293.29338603222538
 21
208.5666501050826
 31
0.0
  0
LINE
  5
2B94
  8
DANMEN
  6
CONTINUOUS
 10
288.26394878070261
 20
205.6585331971194
 30
0.0
 11
291.17206568866578
 21
208.5666501050826
 31
0.0
  0
LINE
  5
2B95
  8
DANMEN
  6
CONTINUOUS
 10
288.26394878070261
 20
207.779853540679
 30
0.0
 11
289.05074534510612
 21
208.5666501050826
 31
0.0
  0
LINE
  5
2B96
  8
DANMEN
  6
CONTINUOUS
 10
288.26394878070261
 20
202.68797044864229
 30
0.0
 11
289.38526912426221
 21
201.5666501050826
 31
0.0
  0
LINE
  5
2B97
  8
DANMEN
  6
CONTINUOUS
 10
288.26394878070261
 20
204.80929079220189
 30
0.0
 11
291.50658946782193
 21
201.5666501050826
 31
0.0
  0
LINE
  5
2B98
  8
DANMEN
  6
CONTINUOUS
 10
288.26394878070261
 20
206.9306111357615
 30
0.0
 11
293.62790981138153
 21
201.5666501050826
 31
0.0
  0
LINE
  5
2B99
  8
DANMEN
  6
CONTINUOUS
 10
288.74923015494119
 20
208.5666501050826
 30
0.0
 11
295.74923015494107
 21
201.5666501050826
 31
0.0
  0
LINE
  5
2B9A
  8
DANMEN
  6
CONTINUOUS
 10
290.87055049850079
 20
208.5666501050826
 30
0.0
 11
296.0167792856567
 21
203.4204213179267
 31
0.0
  0
LINE
  5
2B9B
  8
DANMEN
  6
CONTINUOUS
 10
292.99187084206051
 20
208.5666501050826
 30
0.0
 11
295.69042230972451
 21
205.8680986374186
 31
0.0
  0
LINE
  5
2B9C
  8
DANMEN
  6
CONTINUOUS
 10
295.03399441321989
 20
208.64584687748291
 30
0.0
 11
295.36406533379221
 21
208.3157759569105
 31
0.0
  0
LINE
  5
2B9D
  8
DANMEN
  6
CONTINUOUS
 10
295.03399441321977
 20
178.48745333268241
 30
0.0
 11
295.36406533379221
 21
178.8175242532547
 31
0.0
  0
LINE
  5
2B9E
  8
DANMEN
  6
CONTINUOUS
 10
292.99187084206051
 20
178.5666501050826
 30
0.0
 11
295.69042230972451
 21
181.26520157274661
 31
0.0
  0
LINE
  5
2B9F
  8
DANMEN
  6
CONTINUOUS
 10
290.87055049850079
 20
178.5666501050826
 30
0.0
 11
296.0167792856567
 21
183.71287889223851
 31
0.0
  0
LINE
  5
2BA0
  8
DANMEN
  6
CONTINUOUS
 10
288.74923015494119
 20
178.5666501050826
 30
0.0
 11
295.74923015494107
 21
185.5666501050826
 31
0.0
  0
LINE
  5
2BA1
  8
DANMEN
  6
CONTINUOUS
 10
288.26394878070261
 20
180.20268907440371
 30
0.0
 11
293.62790981138153
 21
185.5666501050826
 31
0.0
  0
LINE
  5
2BA2
  8
DANMEN
  6
CONTINUOUS
 10
288.26394878070261
 20
182.32400941796331
 30
0.0
 11
291.50658946782193
 21
185.5666501050826
 31
0.0
  0
LINE
  5
2BA3
  8
DANMEN
  6
CONTINUOUS
 10
288.26394878070261
 20
184.445329761523
 30
0.0
 11
289.38526912426221
 21
185.5666501050826
 31
0.0
  0
LINE
  5
2BA4
  8
DANMEN
  6
CONTINUOUS
 10
288.26394878070261
 20
179.3534466694862
 30
0.0
 11
289.05074534510612
 21
178.5666501050826
 31
0.0
  0
LINE
  5
2BA5
  8
DANMEN
  6
CONTINUOUS
 10
288.26394878070261
 20
181.47476701304589
 30
0.0
 11
291.17206568866578
 21
178.5666501050826
 31
0.0
  0
LINE
  5
2BA6
  8
DANMEN
  6
CONTINUOUS
 10
288.26394878070261
 20
183.59608735660549
 30
0.0
 11
293.29338603222538
 21
178.5666501050826
 31
0.0
  0
LINE
  5
2BA7
  8
DANMEN
  6
CONTINUOUS
 10
288.4147063757851
 20
185.5666501050826
 30
0.0
 11
295.34050849777111
 21
178.64084798309659
 31
0.0
  0
LINE
  5
2BA8
  8
DANMEN
  6
CONTINUOUS
 10
290.5360267193447
 20
185.5666501050826
 30
0.0
 11
295.59007559701342
 21
180.51260122741391
 31
0.0
  0
LINE
  5
2BA9
  8
DANMEN
  6
CONTINUOUS
 10
292.65734706290442
 20
185.5666501050826
 30
0.0
 11
295.83964269625568
 21
182.3843544717312
 31
0.0
  0
LINE
  5
2BAA
  8
DANMEN
  6
CONTINUOUS
 10
294.77866740646402
 20
185.5666501050826
 30
0.0
 11
296.08920979549811
 21
184.2561077160486
 31
0.0
  0
LINE
  5
2BAB
  8
DANMEN
  6
CONTINUOUS
 10
408.2639484568341
 20
207.779853540679
 30
0.0
 11
407.47715189243041
 21
208.5666501050826
 31
0.0
  0
LINE
  5
2BAC
  8
DANMEN
  6
CONTINUOUS
 10
408.2639484568341
 20
205.6585331971194
 30
0.0
 11
405.3558315488707
 21
208.5666501050826
 31
0.0
  0
LINE
  5
2BAD
  8
DANMEN
  6
CONTINUOUS
 10
408.2639484568341
 20
203.53721285355979
 30
0.0
 11
403.23451120531109
 21
208.5666501050826
 31
0.0
  0
LINE
  5
2BAE
  8
DANMEN
  6
CONTINUOUS
 10
408.11319086175149
 20
201.5666501050826
 30
0.0
 11
401.18738873976542
 21
208.49245222706861
 31
0.0
  0
LINE
  5
2BAF
  8
DANMEN
  6
CONTINUOUS
 10
405.99187051819189
 20
201.5666501050826
 30
0.0
 11
400.93782164052311
 21
206.62069898275129
 31
0.0
  0
LINE
  5
2BB0
  8
DANMEN
  6
CONTINUOUS
 10
403.87055017463223
 20
201.5666501050826
 30
0.0
 11
400.6882545412808
 21
204.748945738434
 31
0.0
  0
LINE
  5
2BB1
  8
DANMEN
  6
CONTINUOUS
 10
401.74922983107263
 20
201.5666501050826
 30
0.0
 11
400.43868744203849
 21
202.87719249411671
 31
0.0
  0
LINE
  5
2BB2
  8
DANMEN
  6
CONTINUOUS
 10
401.49390282431659
 20
208.64584687748291
 30
0.0
 11
401.16383190374438
 21
208.3157759569105
 31
0.0
  0
LINE
  5
2BB3
  8
DANMEN
  6
CONTINUOUS
 10
403.53602639547609
 20
208.5666501050826
 30
0.0
 11
400.83747492781208
 21
205.8680986374186
 31
0.0
  0
LINE
  5
2BB4
  8
DANMEN
  6
CONTINUOUS
 10
405.65734673903569
 20
208.5666501050826
 30
0.0
 11
400.5111179518799
 21
203.4204213179267
 31
0.0
  0
LINE
  5
2BB5
  8
DANMEN
  6
CONTINUOUS
 10
407.7786670825954
 20
208.5666501050826
 30
0.0
 11
400.77866708259552
 21
201.5666501050826
 31
0.0
  0
LINE
  5
2BB6
  8
DANMEN
  6
CONTINUOUS
 10
408.2639484568341
 20
206.9306111357615
 30
0.0
 11
402.89998742615501
 21
201.5666501050826
 31
0.0
  0
LINE
  5
2BB7
  8
DANMEN
  6
CONTINUOUS
 10
408.2639484568341
 20
204.80929079220189
 30
0.0
 11
405.02130776971472
 21
201.5666501050826
 31
0.0
  0
LINE
  5
2BB8
  8
DANMEN
  6
CONTINUOUS
 10
408.2639484568341
 20
202.68797044864229
 30
0.0
 11
407.14262811327433
 21
201.5666501050826
 31
0.0
  0
LINE
  5
2BB9
  8
DANMEN
  6
CONTINUOUS
 10
408.2639484568341
 20
184.44532976152291
 30
0.0
 11
407.14262811327433
 21
185.5666501050826
 31
0.0
  0
LINE
  5
2BBA
  8
DANMEN
  6
CONTINUOUS
 10
408.2639484568341
 20
182.32400941796331
 30
0.0
 11
405.02130776971472
 21
185.5666501050826
 31
0.0
  0
LINE
  5
2BBB
  8
DANMEN
  6
CONTINUOUS
 10
408.2639484568341
 20
180.20268907440371
 30
0.0
 11
402.89998742615501
 21
185.5666501050826
 31
0.0
  0
LINE
  5
2BBC
  8
DANMEN
  6
CONTINUOUS
 10
407.7786670825954
 20
178.5666501050826
 30
0.0
 11
400.77866708259552
 21
185.5666501050826
 31
0.0
  0
LINE
  5
2BBD
  8
DANMEN
  6
CONTINUOUS
 10
405.65734673903569
 20
178.5666501050826
 30
0.0
 11
400.51111795187978
 21
183.71287889223851
 31
0.0
  0
LINE
  5
2BBE
  8
DANMEN
  6
CONTINUOUS
 10
403.53602639547609
 20
178.5666501050826
 30
0.0
 11
400.83747492781208
 21
181.26520157274661
 31
0.0
  0
LINE
  5
2BBF
  8
DANMEN
  6
CONTINUOUS
 10
401.49390282431659
 20
178.48745333268241
 30
0.0
 11
401.16383190374438
 21
178.8175242532547
 31
0.0
  0
LINE
  5
2BC0
  8
DANMEN
  6
CONTINUOUS
 10
401.74922983107251
 20
185.5666501050826
 30
0.0
 11
400.43868744203849
 21
184.2561077160486
 31
0.0
  0
LINE
  5
2BC1
  8
DANMEN
  6
CONTINUOUS
 10
403.87055017463223
 20
185.5666501050826
 30
0.0
 11
400.6882545412808
 21
182.3843544717312
 31
0.0
  0
LINE
  5
2BC2
  8
DANMEN
  6
CONTINUOUS
 10
405.99187051819177
 20
185.5666501050826
 30
0.0
 11
400.93782164052311
 21
180.51260122741391
 31
0.0
  0
LINE
  5
2BC3
  8
DANMEN
  6
CONTINUOUS
 10
408.11319086175149
 20
185.5666501050826
 30
0.0
 11
401.18738873976542
 21
178.64084798309659
 31
0.0
  0
LINE
  5
2BC4
  8
DANMEN
  6
CONTINUOUS
 10
408.2639484568341
 20
183.59608735660549
 30
0.0
 11
403.23451120531109
 21
178.5666501050826
 31
0.0
  0
LINE
  5
2BC5
  8
DANMEN
  6
CONTINUOUS
 10
408.2639484568341
 20
181.47476701304589
 30
0.0
 11
405.3558315488707
 21
178.5666501050826
 31
0.0
  0
LINE
  5
2BC6
  8
DANMEN
  6
CONTINUOUS
 10
408.2639484568341
 20
179.3534466694862
 30
0.0
 11
407.47715189243041
 21
178.5666501050826
 31
0.0
  0
LINE
  5
2BC7
  8
DANMEN
  6
CONTINUOUS
 10
315.26394728604402
 20
207.779853540679
 30
0.0
 11
314.47715072164038
 21
208.5666501050826
 31
0.0
  0
LINE
  5
2BC8
  8
DANMEN
  6
CONTINUOUS
 10
315.26394728604402
 20
205.6585331971194
 30
0.0
 11
312.35583037808078
 21
208.5666501050826
 31
0.0
  0
LINE
  5
2BC9
  8
DANMEN
  6
CONTINUOUS
 10
315.26394728604402
 20
203.53721285355971
 30
0.0
 11
310.23451003452112
 21
208.5666501050826
 31
0.0
  0
LINE
  5
2BCA
  8
DANMEN
  6
CONTINUOUS
 10
315.11318969096152
 20
201.5666501050826
 30
0.0
 11
308.18738756897551
 21
208.49245222706861
 31
0.0
  0
LINE
  5
2BCB
  8
DANMEN
  6
CONTINUOUS
 10
312.99186934740192
 20
201.5666501050826
 30
0.0
 11
307.9378204697332
 21
206.62069898275129
 31
0.0
  0
LINE
  5
2BCC
  8
DANMEN
  6
CONTINUOUS
 10
310.8705490038422
 20
201.5666501050826
 30
0.0
 11
307.68825337049088
 21
204.748945738434
 31
0.0
  0
LINE
  5
2BCD
  8
DANMEN
  6
CONTINUOUS
 10
308.7492286602826
 20
201.5666501050826
 30
0.0
 11
307.43868627124851
 21
202.87719249411671
 31
0.0
  0
LINE
  5
2BCE
  8
DANMEN
  6
CONTINUOUS
 10
308.49390165352679
 20
208.64584687748291
 30
0.0
 11
308.16383073295441
 21
208.3157759569105
 31
0.0
  0
LINE
  5
2BCF
  8
DANMEN
  6
CONTINUOUS
 10
310.53602522468623
 20
208.5666501050826
 30
0.0
 11
307.83747375702211
 21
205.8680986374186
 31
0.0
  0
LINE
  5
2BD0
  8
DANMEN
  6
CONTINUOUS
 10
312.65734556824577
 20
208.5666501050826
 30
0.0
 11
307.51111678108992
 21
203.4204213179267
 31
0.0
  0
LINE
  5
2BD1
  8
DANMEN
  6
CONTINUOUS
 10
314.77866591180538
 20
208.5666501050826
 30
0.0
 11
307.77866591180538
 21
201.5666501050826
 31
0.0
  0
LINE
  5
2BD2
  8
DANMEN
  6
CONTINUOUS
 10
315.26394728604402
 20
206.9306111357615
 30
0.0
 11
309.89998625536509
 21
201.5666501050826
 31
0.0
  0
LINE
  5
2BD3
  8
DANMEN
  6
CONTINUOUS
 10
315.26394728604402
 20
204.80929079220189
 30
0.0
 11
312.0213065989247
 21
201.5666501050826
 31
0.0
  0
LINE
  5
2BD4
  8
DANMEN
  6
CONTINUOUS
 10
315.26394728604402
 20
202.68797044864229
 30
0.0
 11
314.14262694248441
 21
201.5666501050826
 31
0.0
  0
LINE
  5
2BD5
  8
DANMEN
  6
CONTINUOUS
 10
315.26394728604402
 20
184.44532976152291
 30
0.0
 11
314.14262694248441
 21
185.5666501050826
 31
0.0
  0
LINE
  5
2BD6
  8
DANMEN
  6
CONTINUOUS
 10
315.26394728604402
 20
182.32400941796331
 30
0.0
 11
312.0213065989247
 21
185.5666501050826
 31
0.0
  0
LINE
  5
2BD7
  8
DANMEN
  6
CONTINUOUS
 10
315.26394728604402
 20
180.20268907440371
 30
0.0
 11
309.89998625536509
 21
185.5666501050826
 31
0.0
  0
LINE
  5
2BD8
  8
DANMEN
  6
CONTINUOUS
 10
314.77866591180538
 20
178.5666501050826
 30
0.0
 11
307.77866591180538
 21
185.5666501050826
 31
0.0
  0
LINE
  5
2BD9
  8
DANMEN
  6
CONTINUOUS
 10
312.65734556824577
 20
178.5666501050826
 30
0.0
 11
307.51111678108992
 21
183.71287889223851
 31
0.0
  0
LINE
  5
2BDA
  8
DANMEN
  6
CONTINUOUS
 10
310.53602522468623
 20
178.5666501050826
 30
0.0
 11
307.83747375702222
 21
181.26520157274661
 31
0.0
  0
LINE
  5
2BDB
  8
DANMEN
  6
CONTINUOUS
 10
308.49390165352679
 20
178.48745333268241
 30
0.0
 11
308.16383073295441
 21
178.8175242532547
 31
0.0
  0
LINE
  5
2BDC
  8
DANMEN
  6
CONTINUOUS
 10
308.7492286602826
 20
185.5666501050826
 30
0.0
 11
307.43868627124851
 21
184.2561077160486
 31
0.0
  0
LINE
  5
2BDD
  8
DANMEN
  6
CONTINUOUS
 10
310.8705490038422
 20
185.5666501050826
 30
0.0
 11
307.68825337049088
 21
182.3843544717312
 31
0.0
  0
LINE
  5
2BDE
  8
DANMEN
  6
CONTINUOUS
 10
312.99186934740192
 20
185.5666501050826
 30
0.0
 11
307.9378204697332
 21
180.51260122741391
 31
0.0
  0
LINE
  5
2BDF
  8
DANMEN
  6
CONTINUOUS
 10
315.11318969096152
 20
185.5666501050826
 30
0.0
 11
308.18738756897551
 21
178.64084798309659
 31
0.0
  0
LINE
  5
2BE0
  8
DANMEN
  6
CONTINUOUS
 10
315.26394728604402
 20
183.59608735660549
 30
0.0
 11
310.23451003452112
 21
178.5666501050826
 31
0.0
  0
LINE
  5
2BE1
  8
DANMEN
  6
CONTINUOUS
 10
315.26394728604402
 20
181.47476701304589
 30
0.0
 11
312.35583037808078
 21
178.5666501050826
 31
0.0
  0
LINE
  5
2BE2
  8
DANMEN
  6
CONTINUOUS
 10
315.26394728604402
 20
179.3534466694862
 30
0.0
 11
314.47715072164038
 21
178.5666501050826
 31
0.0
  0
LINE
  5
2BE3
  8
DANMEN
  6
CONTINUOUS
 10
387.778668577254
 20
201.5666501050826
 30
0.0
 11
389.08921096628802
 21
202.87719249411671
 31
0.0
  0
LINE
  5
2BE4
  8
DANMEN
  6
CONTINUOUS
 10
385.65734823369428
 20
201.5666501050826
 30
0.0
 11
388.8396438670456
 21
204.748945738434
 31
0.0
  0
LINE
  5
2BE5
  8
DANMEN
  6
CONTINUOUS
 10
383.53602789013468
 20
201.5666501050826
 30
0.0
 11
388.5900767678034
 21
206.62069898275129
 31
0.0
  0
LINE
  5
2BE6
  8
DANMEN
  6
CONTINUOUS
 10
381.41470754657502
 20
201.5666501050826
 30
0.0
 11
388.34050966856108
 21
208.4924522270687
 31
0.0
  0
LINE
  5
2BE7
  8
DANMEN
  6
CONTINUOUS
 10
381.26394995149258
 20
203.53721285355979
 30
0.0
 11
386.29338720301541
 21
208.5666501050826
 31
0.0
  0
LINE
  5
2BE8
  8
DANMEN
  6
CONTINUOUS
 10
381.26394995149258
 20
205.6585331971194
 30
0.0
 11
384.17206685945581
 21
208.5666501050826
 31
0.0
  0
LINE
  5
2BE9
  8
DANMEN
  6
CONTINUOUS
 10
381.26394995149252
 20
207.779853540679
 30
0.0
 11
382.05074651589609
 21
208.5666501050826
 31
0.0
  0
LINE
  5
2BEA
  8
DANMEN
  6
CONTINUOUS
 10
381.26394995149252
 20
202.68797044864229
 30
0.0
 11
382.38527029505218
 21
201.5666501050826
 31
0.0
  0
LINE
  5
2BEB
  8
DANMEN
  6
CONTINUOUS
 10
381.26394995149252
 20
204.80929079220189
 30
0.0
 11
384.50659063861178
 21
201.5666501050826
 31
0.0
  0
LINE
  5
2BEC
  8
DANMEN
  6
CONTINUOUS
 10
381.26394995149252
 20
206.9306111357615
 30
0.0
 11
386.6279109821715
 21
201.5666501050826
 31
0.0
  0
LINE
  5
2BED
  8
DANMEN
  6
CONTINUOUS
 10
381.7492313257311
 20
208.5666501050826
 30
0.0
 11
388.7492313257311
 21
201.5666501050826
 31
0.0
  0
LINE
  5
2BEE
  8
DANMEN
  6
CONTINUOUS
 10
383.87055166929071
 20
208.5666501050826
 30
0.0
 11
389.01678045644661
 21
203.4204213179267
 31
0.0
  0
LINE
  5
2BEF
  8
DANMEN
  6
CONTINUOUS
 10
385.99187201285042
 20
208.5666501050826
 30
0.0
 11
388.69042348051443
 21
205.8680986374186
 31
0.0
  0
LINE
  5
2BF0
  8
DANMEN
  6
CONTINUOUS
 10
388.0339955840098
 20
208.64584687748291
 30
0.0
 11
388.36406650458218
 21
208.3157759569105
 31
0.0
  0
LINE
  5
2BF1
  8
DANMEN
  6
CONTINUOUS
 10
388.0339955840098
 20
178.48745333268241
 30
0.0
 11
388.36406650458218
 21
178.8175242532547
 31
0.0
  0
LINE
  5
2BF2
  8
DANMEN
  6
CONTINUOUS
 10
385.99187201285042
 20
178.5666501050826
 30
0.0
 11
388.69042348051443
 21
181.26520157274669
 31
0.0
  0
LINE
  5
2BF3
  8
DANMEN
  6
CONTINUOUS
 10
383.87055166929071
 20
178.5666501050826
 30
0.0
 11
389.01678045644672
 21
183.71287889223851
 31
0.0
  0
LINE
  5
2BF4
  8
DANMEN
  6
CONTINUOUS
 10
381.7492313257311
 20
178.5666501050826
 30
0.0
 11
388.7492313257311
 21
185.5666501050826
 31
0.0
  0
LINE
  5
2BF5
  8
DANMEN
  6
CONTINUOUS
 10
381.26394995149252
 20
180.20268907440371
 30
0.0
 11
386.6279109821715
 21
185.5666501050826
 31
0.0
  0
LINE
  5
2BF6
  8
DANMEN
  6
CONTINUOUS
 10
381.26394995149258
 20
182.3240094179634
 30
0.0
 11
384.50659063861178
 21
185.5666501050826
 31
0.0
  0
LINE
  5
2BF7
  8
DANMEN
  6
CONTINUOUS
 10
381.26394995149252
 20
184.445329761523
 30
0.0
 11
382.38527029505218
 21
185.5666501050826
 31
0.0
  0
LINE
  5
2BF8
  8
DANMEN
  6
CONTINUOUS
 10
381.26394995149252
 20
179.3534466694862
 30
0.0
 11
382.05074651589609
 21
178.5666501050826
 31
0.0
  0
LINE
  5
2BF9
  8
DANMEN
  6
CONTINUOUS
 10
381.26394995149252
 20
181.47476701304589
 30
0.0
 11
384.1720668594557
 21
178.5666501050826
 31
0.0
  0
LINE
  5
2BFA
  8
DANMEN
  6
CONTINUOUS
 10
381.26394995149252
 20
183.59608735660549
 30
0.0
 11
386.29338720301541
 21
178.5666501050826
 31
0.0
  0
LINE
  5
2BFB
  8
DANMEN
  6
CONTINUOUS
 10
381.41470754657502
 20
185.5666501050826
 30
0.0
 11
388.34050966856108
 21
178.64084798309659
 31
0.0
  0
LINE
  5
2BFC
  8
DANMEN
  6
CONTINUOUS
 10
383.53602789013468
 20
185.5666501050826
 30
0.0
 11
388.5900767678034
 21
180.51260122741391
 31
0.0
  0
LINE
  5
2BFD
  8
DANMEN
  6
CONTINUOUS
 10
385.65734823369428
 20
185.5666501050826
 30
0.0
 11
388.8396438670456
 21
182.3843544717312
 31
0.0
  0
LINE
  5
2BFE
  8
DANMEN
  6
CONTINUOUS
 10
387.778668577254
 20
185.5666501050826
 30
0.0
 11
389.08921096628802
 21
184.2561077160486
 31
0.0
  0
LINE
  5
2BFF
  8
DANMEN
  6
CONTINUOUS
 10
358.20254879878092
 20
143.06666107868369
 30
0.0
 11
359.26216970998382
 21
144.12628198988659
 31
0.0
  0
LINE
  5
2C00
  8
DANMEN
  6
CONTINUOUS
 10
359.78833523640782
 20
146.06666107868369
 30
0.0
 11
360.76394861876832
 21
147.0422744610442
 31
0.0
  0
LINE
  5
2C01
  8
DANMEN
  6
CONTINUOUS
 10
356.78833523640782
 20
143.06666107868369
 30
0.0
 11
358.69206082477439
 21
144.97038666705029
 31
0.0
  0
LINE
  5
2C02
  8
DANMEN
  6
CONTINUOUS
 10
358.37412167403471
 20
146.06666107868369
 30
0.0
 11
360.76394861876832
 21
148.45648802341731
 31
0.0
  0
LINE
  5
2C03
  8
DANMEN
  6
CONTINUOUS
 10
355.37412167403471
 20
143.06666107868369
 30
0.0
 11
358.26394861876832
 21
145.95648802341731
 31
0.0
  0
LINE
  5
2C04
  8
DANMEN
  6
CONTINUOUS
 10
353.9599081116616
 20
143.06666107868369
 30
0.0
 11
360.76394861876832
 21
149.87070158579041
 31
0.0
  0
LINE
  5
2C05
  8
DANMEN
  6
CONTINUOUS
 10
352.96394861876831
 20
143.48491514816351
 30
0.0
 11
360.76394861876832
 21
151.28491514816349
 31
0.0
  0
LINE
  5
2C06
  8
DANMEN
  6
CONTINUOUS
 10
352.96394861876831
 20
144.89912871053659
 30
0.0
 11
360.13148098691539
 21
152.06666107868369
 31
0.0
  0
LINE
  5
2C07
  8
DANMEN
  6
CONTINUOUS
 10
352.96394861876831
 20
146.31334227290969
 30
0.0
 11
358.71726742454229
 21
152.06666107868369
 31
0.0
  0
LINE
  5
2C08
  8
DANMEN
  6
CONTINUOUS
 10
352.96394861876831
 20
147.7275558352828
 30
0.0
 11
359.2631522315906
 21
154.02675944810511
 31
0.0
  0
LINE
  5
2C09
  8
DANMEN
  6
CONTINUOUS
 10
352.96394861876831
 20
149.14176939765591
 30
0.0
 11
358.87610004358032
 21
155.05392082246789
 31
0.0
  0
LINE
  5
2C0A
  8
DANMEN
  6
CONTINUOUS
 10
352.96394861876831
 20
150.55598296002901
 30
0.0
 11
357.47462673742302
 21
155.06666107868369
 31
0.0
  0
LINE
  5
2C0B
  8
DANMEN
  6
CONTINUOUS
 10
352.96394861876831
 20
151.97019652240209
 30
0.0
 11
356.06041317504997
 21
155.06666107868369
 31
0.0
  0
LINE
  5
2C0C
  8
DANMEN
  6
CONTINUOUS
 10
352.96394861876831
 20
153.38441008477511
 30
0.0
 11
354.64619961267692
 21
155.06666107868369
 31
0.0
  0
LINE
  5
2C0D
  8
DANMEN
  6
CONTINUOUS
 10
352.96394861876831
 20
154.7986236471483
 30
0.0
 11
353.23198605030382
 21
155.06666107868369
 31
0.0
  0
LINE
  5
2C0E
  8
DANMEN
  6
CONTINUOUS
 10
342.64619961267692
 20
143.06666107868369
 30
0.0
 11
343.75771169672549
 21
144.17817316273241
 31
0.0
  0
LINE
  5
2C0F
  8
DANMEN
  6
CONTINUOUS
 10
341.23198605030382
 20
143.06666107868369
 30
0.0
 11
343.15314208713119
 21
144.98781711551109
 31
0.0
  0
LINE
  5
2C10
  8
DANMEN
  6
CONTINUOUS
 10
342.81777248793071
 20
146.06666107868369
 30
0.0
 11
343.56394861876828
 21
146.8128372095214
 31
0.0
  0
LINE
  5
2C11
  8
DANMEN
  6
CONTINUOUS
 10
339.81777248793071
 20
143.06666107868369
 30
0.0
 11
342.76394861876832
 21
146.01283720952139
 31
0.0
  0
LINE
  5
2C12
  8
DANMEN
  6
CONTINUOUS
 10
338.4035589255576
 20
143.06666107868369
 30
0.0
 11
343.56394861876828
 21
148.2270507718944
 31
0.0
  0
LINE
  5
2C13
  8
DANMEN
  6
CONTINUOUS
 10
337.30084296551678
 20
143.378158681016
 30
0.0
 11
343.56394861876828
 21
149.6412643342675
 31
0.0
  0
LINE
  5
2C14
  8
DANMEN
  6
CONTINUOUS
 10
338.26394861876832
 20
145.7554778966406
 30
0.0
 11
343.56394861876828
 21
151.05547789664061
 31
0.0
  0
LINE
  5
2C15
  8
DANMEN
  6
CONTINUOUS
 10
337.16091823843828
 20
146.06666107868369
 30
0.0
 11
343.16091823843828
 21
152.06666107868369
 31
0.0
  0
LINE
  5
2C16
  8
DANMEN
  6
CONTINUOUS
 10
335.76394861876832
 20
146.08390502138681
 30
0.0
 11
343.76394861876832
 21
154.08390502138681
 31
0.0
  0
LINE
  5
2C17
  8
DANMEN
  6
CONTINUOUS
 10
335.76394861876832
 20
147.49811858375989
 30
0.0
 11
343.32832896163478
 21
155.0624989266264
 31
0.0
  0
LINE
  5
2C18
  8
DANMEN
  6
CONTINUOUS
 10
335.76394861876832
 20
148.912332146133
 30
0.0
 11
341.91827755131902
 21
155.06666107868369
 31
0.0
  0
LINE
  5
2C19
  8
DANMEN
  6
CONTINUOUS
 10
338.24066217646708
 20
152.80325926620489
 30
0.0
 11
340.50406398894592
 21
155.06666107868369
 31
0.0
  0
LINE
  5
2C1A
  8
DANMEN
  6
CONTINUOUS
 10
335.76394861876832
 20
150.3265457085061
 30
0.0
 11
337.50406398894592
 21
152.06666107868369
 31
0.0
  0
LINE
  5
2C1B
  8
DANMEN
  6
CONTINUOUS
 10
337.47517133108317
 20
153.451981983194
 30
0.0
 11
339.08985042657281
 21
155.06666107868369
 31
0.0
  0
LINE
  5
2C1C
  8
DANMEN
  6
CONTINUOUS
 10
335.76394861876832
 20
151.74075927087921
 30
0.0
 11
336.08985042657281
 21
152.06666107868369
 31
0.0
  0
LINE
  5
2C1D
  8
DANMEN
  6
CONTINUOUS
 10
337.27364912099358
 20
154.66467333547749
 30
0.0
 11
337.6659363619745
 21
155.05696057645849
 31
0.0
  0
POLYLINE
  5
2C1E
  8
SUNPO
  6
BYBLOCK
 66
     1
 10
0.0
 20
0.0
 30
0.0
 70
     1
 40
1.159999999999999
 41
1.159999999999999
  0
VERTEX
  5
34B1
  8
SUNPO
  6
BYBLOCK
 10
401.40894712410972
 20
232.56666107868369
 30
0.0
 42
1.0
  0
VERTEX
  5
34B2
  8
SUNPO
  6
BYBLOCK
 10
401.11894712410958
 20
232.56666107868369
 30
0.0
 42
1.0
  0
SEQEND
  5
34B3
  8
SUNPO
  6
BYBLOCK
  0
POLYLINE
  5
2C1F
  8
SUNPO
  6
BYBLOCK
 66
     1
 10
0.0
 20
0.0
 30
0.0
 70
     1
 40
1.159999999999999
 41
1.159999999999999
  0
VERTEX
  5
34B4
  8
SUNPO
  6
BYBLOCK
 10
416.118948456834
 20
232.56666107868369
 30
0.0
 42
1.0
  0
VERTEX
  5
34B5
  8
SUNPO
  6
BYBLOCK
 10
416.40894845683403
 20
232.56666107868369
 30
0.0
 42
1.0
  0
SEQEND
  5
34B6
  8
SUNPO
  6
BYBLOCK
  0
TEXT
  5
2C20
  8
SUNPO
  6
CONTINUOUS
 10
406.76394760094689
 20
233.06666107868369
 30
0.0
 40
2.5
  1
15
 41
1.1999999999999991
  7
MX_DIMTXSTY_4
  0
POLYLINE
  5
2C21
  8
SUNPO
  6
BYBLOCK
 66
     1
 10
0.0
 20
0.0
 30
0.0
 70
     1
 40
1.159999999999999
 41
1.159999999999999
  0
VERTEX
  5
34B7
  8
SUNPO
  6
BYBLOCK
 10
401.40894712410972
 20
240.56666107868369
 30
0.0
 42
1.0
  0
VERTEX
  5
34B8
  8
SUNPO
  6
BYBLOCK
 10
401.11894712410958
 20
240.56666107868369
 30
0.0
 42
1.0
  0
SEQEND
  5
34B9
  8
SUNPO
  6
BYBLOCK
  0
POLYLINE
  5
2C22
  8
SUNPO
  6
BYBLOCK
 66
     1
 10
0.0
 20
0.0
 30
0.0
 70
     1
 40
1.159999999999999
 41
1.159999999999999
  0
VERTEX
  5
34BA
  8
SUNPO
  6
BYBLOCK
 10
425.1189471241097
 20
240.56666107868369
 30
0.0
 42
1.0
  0
VERTEX
  5
34BB
  8
SUNPO
  6
BYBLOCK
 10
425.40894712410977
 20
240.56666107868369
 30
0.0
 42
1.0
  0
SEQEND
  5
34BC
  8
SUNPO
  6
BYBLOCK
  0
TEXT
  5
2C23
  8
SUNPO
  6
CONTINUOUS
 10
411.18061379077642
 20
241.06666107868369
 30
0.0
 40
2.5
  1
24
  0
POLYLINE
  5
2C24
  8
SUNPO
  6
BYBLOCK
 66
     1
 10
0.0
 20
0.0
 30
0.0
 70
     1
 40
1.159999999999999
 41
1.159999999999999
  0
VERTEX
  5
34BD
  8
SUNPO
  6
BYBLOCK
 10
425.40894712410977
 20
240.56666107868369
 30
0.0
 42
1.0
  0
VERTEX
  5
34BE
  8
SUNPO
  6
BYBLOCK
 10
425.1189471241097
 20
240.56666107868369
 30
0.0
 42
1.0
  0
SEQEND
  5
34BF
  8
SUNPO
  6
BYBLOCK
  0
POLYLINE
  5
2C25
  8
SUNPO
  6
BYBLOCK
 66
     1
 10
0.0
 20
0.0
 30
0.0
 70
     1
 40
1.159999999999999
 41
1.159999999999999
  0
VERTEX
  5
34C0
  8
SUNPO
  6
BYBLOCK
 10
455.11894712410981
 20
240.56666107868369
 30
0.0
 42
1.0
  0
VERTEX
  5
34C1
  8
SUNPO
  6
BYBLOCK
 10
455.40894712410972
 20
240.56666107868369
 30
0.0
 42
1.0
  0
SEQEND
  5
34C2
  8
SUNPO
  6
BYBLOCK
  0
TEXT
  5
2C26
  8
SUNPO
  6
CONTINUOUS
 10
438.20144712410979
 20
241.06666107868369
 30
0.0
 40
2.5
  1
30
 41
1.1000000000000001
  7
MX_DIMTXSTY_3
  0
POLYLINE
  5
2C27
  8
SUNPO
  6
BYBLOCK
 66
     1
 10
0.0
 20
0.0
 30
0.0
 70
     1
 40
1.159999999999999
 41
1.159999999999999
  0
VERTEX
  5
34C3
  8
SUNPO
  6
BYBLOCK
 10
425.1189471241097
 20
108.56666107868369
 30
0.0
 42
1.0
  0
VERTEX
  5
34C4
  8
SUNPO
  6
BYBLOCK
 10
425.40894712410977
 20
108.56666107868369
 30
0.0
 42
1.0
  0
SEQEND
  5
34C5
  8
SUNPO
  6
BYBLOCK
  0
POLYLINE
  5
2C28
  8
SUNPO
  6
BYBLOCK
 66
     1
 10
0.0
 20
0.0
 30
0.0
 70
     1
 40
1.159999999999999
 41
1.159999999999999
  0
VERTEX
  5
34C6
  8
SUNPO
  6
BYBLOCK
 10
401.40894978967867
 20
108.56666107868369
 30
0.0
 42
1.0
  0
VERTEX
  5
34C7
  8
SUNPO
  6
BYBLOCK
 10
401.1189497896786
 20
108.56666107868369
 30
0.0
 42
1.0
  0
SEQEND
  5
34C8
  8
SUNPO
  6
BYBLOCK
  0
TEXT
  5
2C29
  8
SUNPO
  6
CONTINUOUS
 10
411.18061474445068
 20
109.06666107868369
 30
0.0
 40
2.5
  1
24
  0
POLYLINE
  5
2C2A
  8
SUNPO
  6
BYBLOCK
 66
     1
 10
0.0
 20
0.0
 30
0.0
 70
     1
 40
1.159999999999999
 41
1.159999999999999
  0
VERTEX
  5
34C9
  8
SUNPO
  6
BYBLOCK
 10
455.11894712410981
 20
100.56666107868369
 30
0.0
 42
1.0
  0
VERTEX
  5
34CA
  8
SUNPO
  6
BYBLOCK
 10
455.40894712410972
 20
100.56666107868369
 30
0.0
 42
1.0
  0
SEQEND
  5
34CB
  8
SUNPO
  6
BYBLOCK
  0
TEXT
  5
2C2B
  8
SUNPO
  6
CONTINUOUS
 10
438.20144712410979
 20
101.06666107868369
 30
0.0
 40
2.5
  1
30
 41
1.1000000000000001
  7
MX_DIMTXSTY_3
  0
POLYLINE
  5
2C2C
  8
SUNPO
  6
BYBLOCK
 66
     1
 10
0.0
 20
0.0
 30
0.0
 70
     1
 40
1.159999999999999
 41
1.159999999999999
  0
VERTEX
  5
34CC
  8
SUNPO
  6
BYBLOCK
 10
308.40894861876831
 20
240.56666107868369
 30
0.0
 42
1.0
  0
VERTEX
  5
34CD
  8
SUNPO
  6
BYBLOCK
 10
308.11894861876829
 20
240.56666107868369
 30
0.0
 42
1.0
  0
SEQEND
  5
34CE
  8
SUNPO
  6
BYBLOCK
  0
POLYLINE
  5
2C2D
  8
SUNPO
  6
BYBLOCK
 66
     1
 10
0.0
 20
0.0
 30
0.0
 70
     1
 40
1.159999999999999
 41
1.159999999999999
  0
VERTEX
  5
34CF
  8
SUNPO
  6
BYBLOCK
 10
388.11894861876829
 20
240.56666107868369
 30
0.0
 42
1.0
  0
VERTEX
  5
34D0
  8
SUNPO
  6
BYBLOCK
 10
388.40894861876831
 20
240.56666107868369
 30
0.0
 42
1.0
  0
SEQEND
  5
34D1
  8
SUNPO
  6
BYBLOCK
  0
TEXT
  5
2C2E
  8
SUNPO
  6
CONTINUOUS
 10
346.20144861876832
 20
241.06666107868369
 30
0.0
 40
2.5
  1
80
 41
1.1000000000000001
  7
MX_DIMTXSTY_3
  0
POLYLINE
  5
2C2F
  8
SUNPO
  6
BYBLOCK
 66
     1
 10
0.0
 20
0.0
 30
0.0
 70
     1
 40
1.159999999999999
 41
1.159999999999999
  0
VERTEX
  5
34D2
  8
SUNPO
  6
BYBLOCK
 10
373.40894995149239
 20
232.56666107868369
 30
0.0
 42
1.0
  0
VERTEX
  5
34D3
  8
SUNPO
  6
BYBLOCK
 10
373.11894995149248
 20
232.56666107868369
 30
0.0
 42
1.0
  0
SEQEND
  5
34D4
  8
SUNPO
  6
BYBLOCK
  0
POLYLINE
  5
2C30
  8
SUNPO
  6
BYBLOCK
 66
     1
 10
0.0
 20
0.0
 30
0.0
 70
     1
 40
1.159999999999999
 41
1.159999999999999
  0
VERTEX
  5
34D5
  8
SUNPO
  6
BYBLOCK
 10
388.11894861876829
 20
232.56666107868369
 30
0.0
 42
1.0
  0
VERTEX
  5
34D6
  8
SUNPO
  6
BYBLOCK
 10
388.40894861876831
 20
232.56666107868369
 30
0.0
 42
1.0
  0
SEQEND
  5
34D7
  8
SUNPO
  6
BYBLOCK
  0
TEXT
  5
2C31
  8
SUNPO
  6
CONTINUOUS
 10
378.76394947465542
 20
233.06666107868369
 30
0.0
 40
2.5
  1
15
 41
1.1999999999999991
  7
MX_DIMTXSTY_4
  0
POLYLINE
  5
2C32
  8
SUNPO
  6
BYBLOCK
 66
     1
 10
0.0
 20
0.0
 30
0.0
 70
     1
 40
1.159999999999999
 41
1.159999999999999
  0
VERTEX
  5
34D8
  8
SUNPO
  6
BYBLOCK
 10
308.40894861876831
 20
232.56666107868369
 30
0.0
 42
1.0
  0
VERTEX
  5
34D9
  8
SUNPO
  6
BYBLOCK
 10
308.11894861876829
 20
232.56666107868369
 30
0.0
 42
1.0
  0
SEQEND
  5
34DA
  8
SUNPO
  6
BYBLOCK
  0
POLYLINE
  5
2C33
  8
SUNPO
  6
BYBLOCK
 66
     1
 10
0.0
 20
0.0
 30
0.0
 70
     1
 40
1.159999999999999
 41
1.159999999999999
  0
VERTEX
  5
34DB
  8
SUNPO
  6
BYBLOCK
 10
323.11894728604409
 20
232.56666107868369
 30
0.0
 42
1.0
  0
VERTEX
  5
34DC
  8
SUNPO
  6
BYBLOCK
 10
323.408947286044
 20
232.56666107868369
 30
0.0
 42
1.0
  0
SEQEND
  5
34DD
  8
SUNPO
  6
BYBLOCK
  0
TEXT
  5
2C34
  8
SUNPO
  6
CONTINUOUS
 10
313.76394814193111
 20
233.06666107868369
 30
0.0
 40
2.5
  1
15
 41
1.1999999999999991
  7
MX_DIMTXSTY_4
  0
POLYLINE
  5
2C35
  8
SUNPO
  6
BYBLOCK
 66
     1
 10
0.0
 20
0.0
 30
0.0
 70
     1
 40
1.159999999999999
 41
1.159999999999999
  0
VERTEX
  5
34DE
  8
SUNPO
  6
BYBLOCK
 10
280.40894878070259
 20
232.56666107868369
 30
0.0
 42
1.0
  0
VERTEX
  5
34DF
  8
SUNPO
  6
BYBLOCK
 10
280.11894878070262
 20
232.56666107868369
 30
0.0
 42
1.0
  0
SEQEND
  5
34E0
  8
SUNPO
  6
BYBLOCK
  0
POLYLINE
  5
2C36
  8
SUNPO
  6
BYBLOCK
 66
     1
 10
0.0
 20
0.0
 30
0.0
 70
     1
 40
1.159999999999999
 41
1.159999999999999
  0
VERTEX
  5
34E1
  8
SUNPO
  6
BYBLOCK
 10
295.11895011342688
 20
232.56666107868369
 30
0.0
 42
1.0
  0
VERTEX
  5
34E2
  8
SUNPO
  6
BYBLOCK
 10
295.40895011342678
 20
232.56666107868369
 30
0.0
 42
1.0
  0
SEQEND
  5
34E3
  8
SUNPO
  6
BYBLOCK
  0
TEXT
  5
2C37
  8
SUNPO
  6
CONTINUOUS
 10
285.76394973437698
 20
233.06666107868369
 30
0.0
 40
2.5
  1
15
 41
1.1999999999999991
  7
MX_DIMTXSTY_4
  0
POLYLINE
  5
2C38
  8
SUNPO
  6
BYBLOCK
 66
     1
 10
0.0
 20
0.0
 30
0.0
 70
     1
 40
1.159999999999999
 41
1.159999999999999
  0
VERTEX
  5
34E4
  8
SUNPO
  6
BYBLOCK
 10
271.4089501134269
 20
240.56666107868369
 30
0.0
 42
1.0
  0
VERTEX
  5
34E5
  8
SUNPO
  6
BYBLOCK
 10
271.11895011342682
 20
240.56666107868369
 30
0.0
 42
1.0
  0
SEQEND
  5
34E6
  8
SUNPO
  6
BYBLOCK
  0
POLYLINE
  5
2C39
  8
SUNPO
  6
BYBLOCK
 66
     1
 10
0.0
 20
0.0
 30
0.0
 70
     1
 40
1.159999999999999
 41
1.159999999999999
  0
VERTEX
  5
34E7
  8
SUNPO
  6
BYBLOCK
 10
295.11895011342688
 20
240.56666107868369
 30
0.0
 42
1.0
  0
VERTEX
  5
34E8
  8
SUNPO
  6
BYBLOCK
 10
295.40895011342678
 20
240.56666107868369
 30
0.0
 42
1.0
  0
SEQEND
  5
34E9
  8
SUNPO
  6
BYBLOCK
  0
TEXT
  5
2C3A
  8
SUNPO
  6
CONTINUOUS
 10
281.1806167800936
 20
241.06666107868369
 30
0.0
 40
2.5
  1
24
  0
POLYLINE
  5
2C3B
  8
SUNPO
  6
BYBLOCK
 66
     1
 10
0.0
 20
0.0
 30
0.0
 70
     1
 40
1.159999999999999
 41
1.159999999999999
  0
VERTEX
  5
34EA
  8
SUNPO
  6
BYBLOCK
 10
241.4089501134269
 20
240.56666107868369
 30
0.0
 42
1.0
  0
VERTEX
  5
34EB
  8
SUNPO
  6
BYBLOCK
 10
241.11895011342691
 20
240.56666107868369
 30
0.0
 42
1.0
  0
SEQEND
  5
34EC
  8
SUNPO
  6
BYBLOCK
  0
POLYLINE
  5
2C3C
  8
SUNPO
  6
BYBLOCK
 66
     1
 10
0.0
 20
0.0
 30
0.0
 70
     1
 40
1.159999999999999
 41
1.159999999999999
  0
VERTEX
  5
34ED
  8
SUNPO
  6
BYBLOCK
 10
271.11895011342682
 20
240.56666107868369
 30
0.0
 42
1.0
  0
VERTEX
  5
34EE
  8
SUNPO
  6
BYBLOCK
 10
271.4089501134269
 20
240.56666107868369
 30
0.0
 42
1.0
  0
SEQEND
  5
34EF
  8
SUNPO
  6
BYBLOCK
  0
TEXT
  5
2C3D
  8
SUNPO
  6
CONTINUOUS
 10
254.20145011342689
 20
241.06666107868369
 30
0.0
 40
2.5
  1
30
 41
1.1000000000000001
  7
MX_DIMTXSTY_3
  0
POLYLINE
  5
2C3E
  8
SUNPO
  6
BYBLOCK
 66
     1
 10
0.0
 20
0.0
 30
0.0
 70
     1
 40
1.159999999999999
 41
1.159999999999999
  0
VERTEX
  5
34F0
  8
SUNPO
  6
BYBLOCK
 10
388.11894861864789
 20
108.56666107868369
 30
0.0
 42
1.0
  0
VERTEX
  5
34F1
  8
SUNPO
  6
BYBLOCK
 10
388.4089486186478
 20
108.56666107868369
 30
0.0
 42
1.0
  0
SEQEND
  5
34F2
  8
SUNPO
  6
BYBLOCK
  0
POLYLINE
  5
2C3F
  8
SUNPO
  6
BYBLOCK
 66
     1
 10
0.0
 20
0.0
 30
0.0
 70
     1
 40
1.159999999999999
 41
1.159999999999999
  0
VERTEX
  5
34F3
  8
SUNPO
  6
BYBLOCK
 10
364.4089459533198
 20
108.56666107868369
 30
0.0
 42
1.0
  0
VERTEX
  5
34F4
  8
SUNPO
  6
BYBLOCK
 10
364.11894595331972
 20
108.56666107868369
 30
0.0
 42
1.0
  0
SEQEND
  5
34F5
  8
SUNPO
  6
BYBLOCK
  0
TEXT
  5
2C40
  8
SUNPO
  6
CONTINUOUS
 10
374.18061433164019
 20
109.06666107868369
 30
0.0
 40
2.5
  1
24
  0
POLYLINE
  5
2C41
  8
SUNPO
  6
BYBLOCK
 66
     1
 10
0.0
 20
0.0
 30
0.0
 70
     1
 40
1.159999999999999
 41
1.159999999999999
  0
VERTEX
  5
34F6
  8
SUNPO
  6
BYBLOCK
 10
364.11894595331972
 20
108.56666107868369
 30
0.0
 42
1.0
  0
VERTEX
  5
34F7
  8
SUNPO
  6
BYBLOCK
 10
364.4089459533198
 20
108.56666107868369
 30
0.0
 42
1.0
  0
SEQEND
  5
34F8
  8
SUNPO
  6
BYBLOCK
  0
POLYLINE
  5
2C42
  8
SUNPO
  6
BYBLOCK
 66
     1
 10
0.0
 20
0.0
 30
0.0
 70
     1
 40
1.159999999999999
 41
1.159999999999999
  0
VERTEX
  5
34F9
  8
SUNPO
  6
BYBLOCK
 10
332.40895128421693
 20
108.56666107868369
 30
0.0
 42
1.0
  0
VERTEX
  5
34FA
  8
SUNPO
  6
BYBLOCK
 10
332.11895128421691
 20
108.56666107868369
 30
0.0
 42
1.0
  0
SEQEND
  5
34FB
  8
SUNPO
  6
BYBLOCK
  0
TEXT
  5
2C43
  8
SUNPO
  6
CONTINUOUS
 10
346.18061548100928
 20
109.06666107868369
 30
0.0
 40
2.5
  1
32
  0
POLYLINE
  5
2C44
  8
SUNPO
  6
BYBLOCK
 66
     1
 10
0.0
 20
0.0
 30
0.0
 70
     1
 40
1.159999999999999
 41
1.159999999999999
  0
VERTEX
  5
34FC
  8
SUNPO
  6
BYBLOCK
 10
332.11895128421691
 20
108.56666107868369
 30
0.0
 42
1.0
  0
VERTEX
  5
34FD
  8
SUNPO
  6
BYBLOCK
 10
332.40895128421693
 20
108.56666107868369
 30
0.0
 42
1.0
  0
SEQEND
  5
34FE
  8
SUNPO
  6
BYBLOCK
  0
POLYLINE
  5
2C45
  8
SUNPO
  6
BYBLOCK
 66
     1
 10
0.0
 20
0.0
 30
0.0
 70
     1
 40
1.159999999999999
 41
1.159999999999999
  0
VERTEX
  5
34FF
  8
SUNPO
  6
BYBLOCK
 10
308.4089486188887
 20
108.56666107868369
 30
0.0
 42
1.0
  0
VERTEX
  5
3500
  8
SUNPO
  6
BYBLOCK
 10
308.11894861888868
 20
108.56666107868369
 30
0.0
 42
1.0
  0
SEQEND
  5
3501
  8
SUNPO
  6
BYBLOCK
  0
TEXT
  5
2C46
  8
SUNPO
  6
CONTINUOUS
 10
318.18061699720931
 20
109.06666107868369
 30
0.0
 40
2.5
  1
24
  0
POLYLINE
  5
2C47
  8
SUNPO
  6
BYBLOCK
 66
     1
 10
0.0
 20
0.0
 30
0.0
 70
     1
 40
1.25
 41
1.25
  0
VERTEX
  5
3502
  8
SUNPO
  6
BYBLOCK
 10
241.42020011342689
 20
100.56666107868369
 30
0.0
 42
1.0
  0
VERTEX
  5
3503
  8
SUNPO
  6
BYBLOCK
 10
241.10770011342689
 20
100.56666107868369
 30
0.0
 42
1.0
  0
SEQEND
  5
3504
  8
SUNPO
  6
BYBLOCK
  0
TEXT
  5
2C48
  8
SUNPO
  6
CONTINUOUS
 10
254.20145011342689
 20
101.06666107868369
 30
0.0
 40
2.5
  1
30
 41
1.1000000000000001
  7
MX_DIMTXSTY_3
  0
POLYLINE
  5
2C49
  8
SUNPO
  6
BYBLOCK
 66
     1
 10
0.0
 20
0.0
 30
0.0
 70
     1
 40
1.159999999999999
 41
1.159999999999999
  0
VERTEX
  5
3505
  8
SUNPO
  6
BYBLOCK
 10
295.11894744785792
 20
108.56666107868369
 30
0.0
 42
1.0
  0
VERTEX
  5
3506
  8
SUNPO
  6
BYBLOCK
 10
295.40894744785788
 20
108.56666107868369
 30
0.0
 42
1.0
  0
SEQEND
  5
3507
  8
SUNPO
  6
BYBLOCK
  0
POLYLINE
  5
2C4A
  8
SUNPO
  6
BYBLOCK
 66
     1
 10
0.0
 20
0.0
 30
0.0
 70
     1
 40
1.159999999999999
 41
1.159999999999999
  0
VERTEX
  5
3508
  8
SUNPO
  6
BYBLOCK
 10
271.4089501134269
 20
108.56666107868369
 30
0.0
 42
1.0
  0
VERTEX
  5
3509
  8
SUNPO
  6
BYBLOCK
 10
271.11895011342682
 20
108.56666107868369
 30
0.0
 42
1.0
  0
SEQEND
  5
350A
  8
SUNPO
  6
BYBLOCK
  0
TEXT
  5
2C4B
  8
SUNPO
  6
CONTINUOUS
 10
281.18061602187322
 20
109.06666107868369
 30
0.0
 40
2.5
  1
24
  0
POLYLINE
  5
2C4C
  8
SUNPO
  6
BYBLOCK
 66
     1
 10
0.0
 20
0.0
 30
0.0
 70
     1
 40
1.159999999999999
 41
1.159999999999999
  0
VERTEX
  5
350B
  8
SUNPO
  6
BYBLOCK
 10
397.26394920416328
 20
178.7116610786837
 30
0.0
 42
1.0
  0
VERTEX
  5
350C
  8
SUNPO
  6
BYBLOCK
 10
397.26394920416328
 20
178.42166107868371
 30
0.0
 42
1.0
  0
SEQEND
  5
350D
  8
SUNPO
  6
BYBLOCK
  0
TEXT
  5
2C4D
  8
SUNPO
  6
CONTINUOUS
 10
396.76394920416323
 20
191.50416107868369
 30
0.0
 40
2.5
  1
30
 50
90.0
 41
1.1000000000000001
  7
MX_DIMTXSTY_3
  0
TEXT
  5
2C4E
  8
SUNPO
  6
CONTINUOUS
 10
396.76394920416323
 20
151.98332774535041
 30
0.0
 40
2.5
  1
49
 50
90.0
  0
POLYLINE
  5
2C4F
  8
SUNPO
  6
BYBLOCK
 66
     1
 10
0.0
 20
0.0
 30
0.0
 70
     1
 40
1.159999999999999
 41
1.159999999999999
  0
VERTEX
  5
350E
  8
SUNPO
  6
BYBLOCK
 10
392.26394920416323
 20
129.71163913148149
 30
0.0
 42
1.0
  0
VERTEX
  5
350F
  8
SUNPO
  6
BYBLOCK
 10
392.26394920416323
 20
129.4216391314815
 30
0.0
 42
1.0
  0
SEQEND
  5
3510
  8
SUNPO
  6
BYBLOCK
  0
TEXT
  5
2C50
  8
SUNPO
  6
CONTINUOUS
 10
391.76394920416328
 20
170.98331724223999
 30
0.0
 40
2.5
  1
87
 50
90.0
  0
POLYLINE
  5
2C51
  8
SUNPO
  6
BYBLOCK
 66
     1
 10
0.0
 20
0.0
 30
0.0
 70
     1
 40
1.159999999999999
 41
1.159999999999999
  0
VERTEX
  5
3511
  8
SUNPO
  6
BYBLOCK
 10
392.26394920416323
 20
124.7116610786837
 30
0.0
 42
1.0
  0
VERTEX
  5
3512
  8
SUNPO
  6
BYBLOCK
 10
392.26394920416323
 20
124.4216610786837
 30
0.0
 42
1.0
  0
SEQEND
  5
3513
  8
SUNPO
  6
BYBLOCK
  0
TEXT
  5
2C52
  8
SUNPO
  6
CONTINUOUS
 10
391.76394920416328
 20
126.2333167780957
 30
0.0
 40
2.5
  1
5
 50
90.0
  0
POLYLINE
  5
2C53
  8
SUNPO
  6
BYBLOCK
 66
     1
 10
0.0
 20
0.0
 30
0.0
 70
     1
 40
1.159999999999999
 41
1.159999999999999
  0
VERTEX
  5
3514
  8
SUNPO
  6
BYBLOCK
 10
304.26394803337331
 20
224.42166107868371
 30
0.0
 42
1.0
  0
VERTEX
  5
3515
  8
SUNPO
  6
BYBLOCK
 10
304.26394803337331
 20
224.7116610786837
 30
0.0
 42
1.0
  0
SEQEND
  5
3516
  8
SUNPO
  6
BYBLOCK
  0
POLYLINE
  5
2C54
  8
SUNPO
  6
BYBLOCK
 66
     1
 10
0.0
 20
0.0
 30
0.0
 70
     1
 40
1.159999999999999
 41
1.159999999999999
  0
VERTEX
  5
3517
  8
SUNPO
  6
BYBLOCK
 10
304.26394803337331
 20
124.7116610786837
 30
0.0
 42
1.0
  0
VERTEX
  5
3518
  8
SUNPO
  6
BYBLOCK
 10
304.26394803337331
 20
124.4216610786837
 30
0.0
 42
1.0
  0
SEQEND
  5
3519
  8
SUNPO
  6
BYBLOCK
  0
TEXT
  5
2C55
  8
SUNPO
  6
CONTINUOUS
 10
303.76394803337331
 20
171.31666107868369
 30
0.0
 40
2.5
  1
100
 50
90.0
 41
1.3
  7
MX_DIMTXSTY_2
  0
LINE
  5
2C56
  8
DANMEN
  6
CONTINUOUS
 10
162.460326531551
 20
149.25026057921289
 30
0.0
 11
162.460326531551
 21
155.25026057921289
 31
0.0
  0
LINE
  5
2C57
  8
DANMEN
  6
CONTINUOUS
 10
162.7603264838672
 20
149.25026057921289
 30
0.0
 11
162.7603264838672
 21
155.25025867186429
 31
0.0
  0
LINE
  5
2C58
  8
DANMEN
  6
CONTINUOUS
 10
162.460326531551
 20
155.25026057921289
 30
0.0
 11
162.7603245765186
 21
155.25026057921289
 31
0.0
  0
LINE
  5
2C59
  8
DANMEN
  6
CONTINUOUS
 10
162.460326531551
 20
149.25026057921289
 30
0.0
 11
162.7603264838672
 21
149.25026057921289
 31
0.0
  0
LINE
  5
2C5A
  8
DANMEN
  6
CENTER
 10
161.35428176226389
 20
152.25026057921289
 30
0.0
 11
171.59241423907039
 21
152.25026057921289
 31
0.0
  0
LINE
  5
2C5B
  8
DANMEN
  6
CONTINUOUS
 10
170.46033925503451
 20
154.2502611836982
 30
0.0
 11
170.4603405109473
 21
150.2502678594185
 31
0.0
  0
LINE
  5
2C5C
  8
DANMEN
  6
CONTINUOUS
 10
165.2352908304012
 20
153.8712500243889
 30
0.0
 11
163.98783038142389
 21
154.0227481094557
 31
0.0
  0
LINE
  5
2C5D
  8
DANMEN
  6
CONTINUOUS
 10
165.2352917181658
 20
154.25024634845369
 30
0.0
 11
163.98782830831229
 21
154.02274391286241
 31
0.0
  0
LINE
  5
2C5E
  8
DANMEN
  6
CONTINUOUS
 10
165.23528892286251
 20
150.25027485847971
 30
0.0
 11
163.9878289634855
 21
150.47777487130759
 31
0.0
  0
LINE
  5
2C5F
  8
DANMEN
  6
CONTINUOUS
 10
165.2352895954684
 20
150.6292716901026
 30
0.0
 11
163.9878303179116
 21
150.47777199729421
 31
0.0
  0
LINE
  5
2C60
  8
DANMEN
  6
CONTINUOUS
 10
163.98784043272749
 20
154.02275728226971
 30
0.0
 11
163.9878415457797
 21
150.47776483537029
 31
0.0
  0
LINE
  5
2C61
  8
DANMEN
  6
CONTINUOUS
 10
162.76032543389471
 20
155.25025779598769
 30
0.0
 11
163.987832727751
 21
154.02275132990019
 31
0.0
  0
LINE
  5
2C62
  8
DANMEN
  6
CONTINUOUS
 10
162.76032652971119
 20
149.2502628651051
 30
0.0
 11
163.98783229847999
 21
150.47776925470009
 31
0.0
  0
ARC
  5
2C63
  8
DANMEN
  6
DASHED
 10
163.21772871317631
 20
152.25026113099551
 30
0.0
 40
0.5
 50
332.00001265345912
 51
28.000077960232922
  0
LINE
  5
2C64
  8
DANMEN
  6
DASHED
 10
163.1752015160678
 20
151.10527265156691
 30
0.0
 11
163.65919182278299
 21
152.0155259793421
 31
0.0
  0
LINE
  5
2C65
  8
DANMEN
  6
DASHED
 10
163.1752005536263
 20
153.39524940619771
 30
0.0
 11
163.65919130144221
 21
152.48499659617329
 31
0.0
  0
LINE
  5
2C66
  8
DANMEN
  6
DASHED
 10
162.4603263534332
 20
150.7488473128256
 30
0.0
 11
163.17520162807699
 21
151.1052712126376
 31
0.0
  0
LINE
  5
2C67
  8
DANMEN
  6
DASHED
 10
162.4603266052992
 20
153.75167436780649
 30
0.0
 11
163.1752005710791
 21
153.39525166777321
 31
0.0
  0
LINE
  5
2C68
  8
DANMEN
  6
CONTINUOUS
 10
165.23530263394079
 20
154.25025954314791
 30
0.0
 11
165.23530388985381
 21
150.2502652651938
 31
0.0
  0
LINE
  5
2C69
  8
DANMEN
  6
CONTINUOUS
 10
165.2353010288318
 20
150.25026240417
 30
0.0
 11
170.4603395572741
 21
150.25026404472089
 31
0.0
  0
LINE
  5
2C6A
  8
DANMEN
  6
CONTINUOUS
 10
165.23529977291719
 20
154.25026145049571
 30
0.0
 11
170.4603383013596
 21
154.25026309104661
 31
0.0
  0
LINE
  5
2C6B
  8
DANMEN
  6
CONTINUOUS
 10
165.2353009098336
 20
150.6292630679273
 30
0.0
 11
170.46033943827601
 21
150.62926470847819
 31
0.0
  0
LINE
  5
2C6C
  8
DANMEN
  6
CONTINUOUS
 10
165.2352998919153
 20
153.8712607867383
 30
0.0
 11
170.46033842035769
 21
153.87126242728931
 31
0.0
  0
ARC
  5
2C6D
  8
DANMEN
  6
CONTINUOUS
 10
268.84045495713161
 20
143.06666107868369
 30
0.0
 40
0.5
 50
171.86989764584439
 51
270.0
  0
ARC
  5
2C6E
  8
DANMEN
  6
CONTINUOUS
 10
269.14350072049717
 20
143.06666107868369
 30
0.0
 40
0.5
 50
270.0
 51
351.86989764584439
  0
LINE
  5
2C6F
  8
DANMEN
  6
CONTINUOUS
 10
268.84045495713161
 20
142.56666107868369
 30
0.0
 11
269.14350072049717
 21
142.56666107868369
 31
0.0
  0
ARC
  5
2C70
  8
DANMEN
  6
CONTINUOUS
 10
269.63124551512198
 20
145.06666107868369
 30
0.0
 40
1.0
 50
90.0
 51
171.86989764584359
  0
LINE
  5
2C71
  8
DANMEN
  6
CONTINUOUS
 10
269.8914341356305
 20
144.76666107868371
 30
0.0
 11
269.63847546732779
 21
142.99595040056511
 31
0.0
  0
LINE
  5
2C72
  8
DANMEN
  6
CONTINUOUS
 10
268.64129602146079
 20
145.20808243492101
 30
0.0
 11
268.34548021030099
 21
143.13737175680231
 31
0.0
  0
ARC
  5
2C73
  8
DANMEN
  6
CONTINUOUS
 10
288.76395011342692
 20
178.06666107868369
 30
0.0
 40
0.5
 50
90.0
 51
180.0
  0
ARC
  5
2C74
  8
DANMEN
  6
CONTINUOUS
 10
289.06395011342693
 20
177.36666107868379
 30
0.0
 40
0.3
 50
270.0
 51
0.0
  0
LINE
  5
2C75
  8
DANMEN
  6
CONTINUOUS
 10
289.36395011342688
 20
177.4666610786837
 30
0.0
 11
289.36395011342688
 21
177.36666107868379
 31
0.0
  0
LINE
  5
2C76
  8
DANMEN
  6
CONTINUOUS
 10
289.36395011342688
 20
177.4666610786837
 30
0.0
 11
293.61395011342688
 21
177.4666610786837
 31
0.0
  0
ARC
  5
2C77
  8
DANMEN
  6
CONTINUOUS
 10
276.76395011342692
 20
148.06666107868369
 30
0.0
 40
1.5
 50
90.0
 51
180.0
  0
ARC
  5
2C78
  8
DANMEN
  6
CONTINUOUS
 10
269.56395011342693
 20
133.36666107868371
 30
0.0
 40
1.5
 50
90.0
 51
180.0
  0
ARC
  5
2C79
  8
DANMEN
  6
CONTINUOUS
 10
272.26395011342692
 20
141.76666107868371
 30
0.0
 40
1.0
 50
180.0
 51
270.0
  0
ARC
  5
2C7A
  8
DANMEN
  6
CONTINUOUS
 10
271.56395011342693
 20
145.06666107868369
 30
0.0
 40
1.0
 50
0.0
 51
90.0
  0
ARC
  5
2C7B
  8
DANMEN
  6
CONTINUOUS
 10
272.06395011342693
 20
133.86666107868371
 30
0.0
 40
1.0
 50
0.0
 51
90.0
  0
LINE
  5
2C7C
  8
DANMEN
  6
CONTINUOUS
 10
272.56395011342693
 20
142.06666107868369
 30
0.0
 11
275.26395012534778
 21
142.06666107868369
 31
0.0
  0
LINE
  5
2C7D
  8
DANMEN
  6
CONTINUOUS
 10
272.26395011342692
 20
140.76666107868371
 30
0.0
 11
275.26395012534778
 21
140.76666107868371
 31
0.0
  0
LINE
  5
2C7E
  8
DANMEN
  6
CONTINUOUS
 10
271.26395011342692
 20
144.76666107868371
 30
0.0
 11
269.8914341356305
 21
144.76666107868371
 31
0.0
  0
LINE
  5
2C7F
  8
DANMEN
  6
CONTINUOUS
 10
271.26395011342692
 20
141.76666107868371
 30
0.0
 11
271.26395011342692
 21
144.76666107868371
 31
0.0
  0
LINE
  5
2C80
  8
DANMEN
  6
CONTINUOUS
 10
275.26395011342692
 20
142.06666107868369
 30
0.0
 11
275.26395011342692
 21
148.06666107868369
 31
0.0
  0
LINE
  5
2C81
  8
DANMEN
  6
CONTINUOUS
 10
271.56395011342693
 20
146.06666107868369
 30
0.0
 11
269.63124551512198
 21
146.06666107868369
 31
0.0
  0
ARC
  5
2C82
  8
DANMEN
  6
CONTINUOUS
 10
268.56395011342693
 20
132.06666107868369
 30
0.0
 40
0.5
 50
180.0
 51
270.0
  0
LINE
  5
2C83
  8
DANMEN
  6
CONTINUOUS
 10
288.76395011342692
 20
178.56666107868369
 30
0.0
 11
294.76395011342692
 21
178.56666107868369
 31
0.0
  0
LINE
  5
2C84
  8
DANMEN
  6
CONTINUOUS
 10
281.76395011342692
 20
177.06666107868381
 30
0.0
 11
289.06395011342693
 21
177.06666107868381
 31
0.0
  0
LINE
  5
2C85
  8
DANMEN
  6
CONTINUOUS
 10
282.26395011342692
 20
178.06666107868369
 30
0.0
 11
282.26395011342692
 21
178.56666107868369
 31
0.0
  0
LINE
  5
2C86
  8
DANMEN
  6
CONTINUOUS
 10
288.26395011342692
 20
178.06666107868369
 30
0.0
 11
282.26395011342692
 21
178.06666107868381
 31
0.0
  0
LINE
  5
2C87
  8
DANMEN
  6
CONTINUOUS
 10
282.26395011342692
 20
178.56666107868381
 30
0.0
 11
281.76395011342692
 21
178.56666107868381
 31
0.0
  0
ARC
  5
2C88
  8
DANMEN
  6
CONTINUOUS
 10
294.76395011342692
 20
178.06666107868369
 30
0.0
 40
0.5
 50
0.0
 51
90.0
  0
LINE
  5
2C89
  8
DANMEN
  6
CONTINUOUS
 10
281.26395011342692
 20
177.56666107868381
 30
0.0
 11
281.26395011342692
 21
178.06666107868381
 31
0.0
  0
ARC
  5
2C8A
  8
DANMEN
  6
CONTINUOUS
 10
281.76395011342692
 20
177.56666107868381
 30
0.0
 40
0.5
 50
180.0
 51
270.0
  0
ARC
  5
2C8B
  8
DANMEN
  6
CONTINUOUS
 10
281.76395011342692
 20
178.06666107868381
 30
0.0
 40
0.5
 50
90.0
 51
180.0
  0
LINE
  5
2C8C
  8
DANMEN
  6
CONTINUOUS
 10
295.26395011342692
 20
178.06666107868369
 30
0.0
 11
295.26395011342692
 21
130.06666107868369
 31
0.0
  0
LINE
  5
2C8D
  8
DANMEN
  6
CONTINUOUS
 10
293.61395011342688
 20
177.4666610786837
 30
0.0
 11
293.61395011342688
 21
149.56666107868369
 31
0.0
  0
LINE
  5
2C8E
  8
DANMEN
  6
CONTINUOUS
 10
275.26395011342692
 20
131.2166610786837
 30
0.0
 11
275.26395011342692
 21
140.76666107868371
 31
0.0
  0
LINE
  5
2C8F
  8
DANMEN
  6
CONTINUOUS
 10
273.06395011342693
 20
131.2166610786837
 30
0.0
 11
273.06395011342693
 21
133.86666107868371
 31
0.0
  0
LINE
  5
2C90
  8
DANMEN
  6
CONTINUOUS
 10
271.76395011342692
 20
131.2166610786837
 30
0.0
 11
271.76395011342692
 21
133.56666107868369
 31
0.0
  0
LINE
  5
2C91
  8
DANMEN
  6
CONTINUOUS
 10
276.4639501134269
 20
131.2166610786837
 30
0.0
 11
276.4639501134269
 21
148.36666107868371
 31
0.0
  0
ARC
  5
2C92
  8
DANMEN
  6
CONTINUOUS
 10
268.86395011342688
 20
132.06666107868369
 30
0.0
 40
0.5
 50
270.0
 51
0.0
  0
LINE
  5
2C93
  8
DANMEN
  6
CONTINUOUS
 10
268.06395011342693
 20
132.06666107868369
 30
0.0
 11
268.06395011342693
 21
133.36666107868371
 31
0.0
  0
LINE
  5
2C94
  8
DANMEN
  6
CONTINUOUS
 10
268.86395011342688
 20
131.56666107868369
 30
0.0
 11
268.56395011342693
 21
131.56666107868369
 31
0.0
  0
LINE
  5
2C95
  8
DANMEN
  6
CONTINUOUS
 10
269.36395011342688
 20
132.06666107868369
 30
0.0
 11
269.36395011342688
 21
133.56666107868369
 31
0.0
  0
LINE
  5
2C96
  8
DANMEN
  6
CONTINUOUS
 10
272.06395011342693
 20
134.86666107868371
 30
0.0
 11
269.56395011342693
 21
134.86666107868371
 31
0.0
  0
LINE
  5
2C97
  8
DANMEN
  6
CONTINUOUS
 10
271.76395011342692
 20
133.56666107868369
 30
0.0
 11
269.36395011342688
 21
133.56666107868369
 31
0.0
  0
LINE
  5
2C98
  8
DANMEN
  6
CONTINUOUS
 10
271.26395011342692
 20
129.56666107868369
 30
0.0
 11
271.26395011342692
 21
130.7166610786837
 31
0.0
  0
ARC
  5
2C99
  8
DANMEN
  6
CONTINUOUS
 10
294.76395011342692
 20
130.06666107868369
 30
0.0
 40
0.5
 50
270.0
 51
0.0
  0
LINE
  5
2C9A
  8
DANMEN
  6
CONTINUOUS
 10
294.76395011342692
 20
129.56666107868369
 30
0.0
 11
271.26395011342692
 21
129.56666107868369
 31
0.0
  0
LINE
  5
2C9B
  8
DANMEN
  6
CONTINUOUS
 10
293.61395011342688
 20
149.56666107868369
 30
0.0
 11
276.76395011342692
 21
149.56666107868369
 31
0.0
  0
LINE
  5
2C9C
  8
DANMEN
  6
CONTINUOUS
 10
272.56395011342693
 20
142.06666107868369
 30
0.0
 11
272.56395011342693
 21
145.06666107868369
 31
0.0
  0
LINE
  5
2C9D
  8
DANMEN
  6
CONTINUOUS
 10
293.61395011342688
 20
131.2166610786837
 30
0.0
 11
276.4639501134269
 21
131.2166610786837
 31
0.0
  0
LINE
  5
2C9E
  8
DANMEN
  6
CONTINUOUS
 10
293.61395011342688
 20
148.36666107868371
 30
0.0
 11
293.61395011342688
 21
131.2166610786837
 31
0.0
  0
LINE
  5
2C9F
  8
DANMEN
  6
CONTINUOUS
 10
275.26395011342692
 20
131.2166610786837
 30
0.0
 11
273.06395011342693
 21
131.2166610786837
 31
0.0
  0
ARC
  5
2CA0
  8
DANMEN
  6
CONTINUOUS
 10
271.76395011342692
 20
130.7166610786837
 30
0.0
 40
0.5
 50
90.0
 51
180.0
  0
LINE
  5
2CA1
  8
DANMEN
  6
CONTINUOUS
 10
293.61395011342688
 20
148.36666107868371
 30
0.0
 11
276.4639501134269
 21
148.36666107868371
 31
0.0
  0
ARC
  5
2CA2
  8
DANMEN
  6
CONTINUOUS
 10
361.84045346247302
 20
143.06666107868369
 30
0.0
 40
0.5
 50
171.86989764584439
 51
270.0
  0
ARC
  5
2CA3
  8
DANMEN
  6
CONTINUOUS
 10
362.14349922583858
 20
143.06666107868369
 30
0.0
 40
0.5
 50
270.0
 51
351.86989764584439
  0
LINE
  5
2CA4
  8
DANMEN
  6
CONTINUOUS
 10
361.84045346247302
 20
142.56666107868369
 30
0.0
 11
362.14349922583858
 21
142.56666107868369
 31
0.0
  0
ARC
  5
2CA5
  8
DANMEN
  6
CONTINUOUS
 10
362.63124402046338
 20
145.06666107868369
 30
0.0
 40
1.0
 50
90.0
 51
171.86989764584439
  0
LINE
  5
2CA6
  8
DANMEN
  6
CONTINUOUS
 10
362.89143264097191
 20
144.76666107868371
 30
0.0
 11
362.63847397266932
 21
142.99595040056511
 31
0.0
  0
LINE
  5
2CA7
  8
DANMEN
  6
CONTINUOUS
 10
361.6412945268022
 20
145.20808243492101
 30
0.0
 11
361.34547871564251
 21
143.13737175680231
 31
0.0
  0
ARC
  5
2CA8
  8
DANMEN
  6
CONTINUOUS
 10
381.76394861876832
 20
178.06666107868369
 30
0.0
 40
0.5
 50
90.0
 51
180.0
  0
ARC
  5
2CA9
  8
DANMEN
  6
CONTINUOUS
 10
382.06394861876828
 20
177.36666107868379
 30
0.0
 40
0.3
 50
270.0
 51
0.0
  0
LINE
  5
2CAA
  8
DANMEN
  6
CONTINUOUS
 10
382.36394861876829
 20
177.4666610786837
 30
0.0
 11
382.36394861876829
 21
177.36666107868379
 31
0.0
  0
LINE
  5
2CAB
  8
DANMEN
  6
CONTINUOUS
 10
382.36394861876829
 20
177.4666610786837
 30
0.0
 11
386.61394861876829
 21
177.4666610786837
 31
0.0
  0
ARC
  5
2CAC
  8
DANMEN
  6
CONTINUOUS
 10
369.76394861876838
 20
148.06666107868369
 30
0.0
 40
1.5
 50
90.0
 51
180.0
  0
ARC
  5
2CAD
  8
DANMEN
  6
CONTINUOUS
 10
362.56394861876828
 20
133.36666107868371
 30
0.0
 40
1.5
 50
90.0
 51
180.0
  0
ARC
  5
2CAE
  8
DANMEN
  6
CONTINUOUS
 10
365.26394861876838
 20
141.76666107868371
 30
0.0
 40
1.0
 50
180.0
 51
270.0
  0
ARC
  5
2CAF
  8
DANMEN
  6
CONTINUOUS
 10
364.56394861876828
 20
145.06666107868369
 30
0.0
 40
1.0
 50
0.0
 51
90.0
  0
ARC
  5
2CB0
  8
DANMEN
  6
CONTINUOUS
 10
365.06394861876828
 20
133.86666107868371
 30
0.0
 40
1.0
 50
0.0
 51
90.0
  0
LINE
  5
2CB1
  8
DANMEN
  6
CONTINUOUS
 10
365.56394861876828
 20
142.06666107868369
 30
0.0
 11
368.26394863068919
 21
142.06666107868369
 31
0.0
  0
LINE
  5
2CB2
  8
DANMEN
  6
CONTINUOUS
 10
365.26394861876838
 20
140.76666107868371
 30
0.0
 11
368.26394863068919
 21
140.76666107868371
 31
0.0
  0
LINE
  5
2CB3
  8
DANMEN
  6
CONTINUOUS
 10
364.26394861876832
 20
144.76666107868371
 30
0.0
 11
362.89143264097191
 21
144.76666107868371
 31
0.0
  0
LINE
  5
2CB4
  8
DANMEN
  6
CONTINUOUS
 10
364.26394861876832
 20
141.76666107868371
 30
0.0
 11
364.26394861876832
 21
144.76666107868371
 31
0.0
  0
LINE
  5
2CB5
  8
DANMEN
  6
CONTINUOUS
 10
368.26394861876832
 20
142.06666107868369
 30
0.0
 11
368.26394861876832
 21
148.06666107868369
 31
0.0
  0
LINE
  5
2CB6
  8
DANMEN
  6
CONTINUOUS
 10
364.56394861876828
 20
146.06666107868369
 30
0.0
 11
362.63124402046338
 21
146.06666107868369
 31
0.0
  0
ARC
  5
2CB7
  8
DANMEN
  6
CONTINUOUS
 10
361.56394861876828
 20
132.06666107868369
 30
0.0
 40
0.5
 50
180.0
 51
270.0
  0
LINE
  5
2CB8
  8
DANMEN
  6
CONTINUOUS
 10
381.76394861876832
 20
178.56666107868369
 30
0.0
 11
387.76394861876832
 21
178.56666107868369
 31
0.0
  0
LINE
  5
2CB9
  8
DANMEN
  6
CONTINUOUS
 10
374.76394861876832
 20
177.06666107868381
 30
0.0
 11
382.06394861876828
 21
177.06666107868381
 31
0.0
  0
LINE
  5
2CBA
  8
DANMEN
  6
CONTINUOUS
 10
375.26394861876832
 20
178.06666107868369
 30
0.0
 11
375.26394861876832
 21
178.56666107868369
 31
0.0
  0
LINE
  5
2CBB
  8
DANMEN
  6
CONTINUOUS
 10
381.26394861876832
 20
178.06666107868369
 30
0.0
 11
375.26394861876832
 21
178.06666107868381
 31
0.0
  0
LINE
  5
2CBC
  8
DANMEN
  6
CONTINUOUS
 10
375.26394861876832
 20
178.56666107868381
 30
0.0
 11
374.76394861876832
 21
178.56666107868381
 31
0.0
  0
ARC
  5
2CBD
  8
DANMEN
  6
CONTINUOUS
 10
387.76394861876832
 20
178.06666107868369
 30
0.0
 40
0.5
 50
0.0
 51
90.0
  0
LINE
  5
2CBE
  8
DANMEN
  6
CONTINUOUS
 10
374.26394861876832
 20
177.56666107868381
 30
0.0
 11
374.26394861876832
 21
178.06666107868381
 31
0.0
  0
ARC
  5
2CBF
  8
DANMEN
  6
CONTINUOUS
 10
374.76394861876832
 20
177.56666107868381
 30
0.0
 40
0.5
 50
180.0
 51
270.0
  0
ARC
  5
2CC0
  8
DANMEN
  6
CONTINUOUS
 10
374.76394861876832
 20
178.06666107868381
 30
0.0
 40
0.5
 50
90.0
 51
180.0
  0
LINE
  5
2CC1
  8
DANMEN
  6
CONTINUOUS
 10
388.26394861876838
 20
178.06666107868369
 30
0.0
 11
388.26394861876838
 21
130.06666107868369
 31
0.0
  0
LINE
  5
2CC2
  8
DANMEN
  6
CONTINUOUS
 10
386.61394861876829
 20
177.4666610786837
 30
0.0
 11
386.61394861876829
 21
149.56666107868369
 31
0.0
  0
LINE
  5
2CC3
  8
DANMEN
  6
CONTINUOUS
 10
368.26394861876832
 20
131.2166610786837
 30
0.0
 11
368.26394861876832
 21
140.76666107868371
 31
0.0
  0
LINE
  5
2CC4
  8
DANMEN
  6
CONTINUOUS
 10
366.06394861876828
 20
131.2166610786837
 30
0.0
 11
366.06394861876828
 21
133.86666107868371
 31
0.0
  0
LINE
  5
2CC5
  8
DANMEN
  6
CONTINUOUS
 10
364.76394861876832
 20
131.2166610786837
 30
0.0
 11
364.76394861876832
 21
133.56666107868369
 31
0.0
  0
LINE
  5
2CC6
  8
DANMEN
  6
CONTINUOUS
 10
369.46394861876831
 20
131.2166610786837
 30
0.0
 11
369.46394861876831
 21
148.36666107868371
 31
0.0
  0
ARC
  5
2CC7
  8
DANMEN
  6
CONTINUOUS
 10
361.8639486187684
 20
132.06666107868369
 30
0.0
 40
0.5
 50
270.0
 51
0.0
  0
LINE
  5
2CC8
  8
DANMEN
  6
CONTINUOUS
 10
361.06394861876828
 20
132.06666107868369
 30
0.0
 11
361.06394861876828
 21
133.36666107868371
 31
0.0
  0
LINE
  5
2CC9
  8
DANMEN
  6
CONTINUOUS
 10
361.8639486187684
 20
131.56666107868369
 30
0.0
 11
361.56394861876828
 21
131.56666107868369
 31
0.0
  0
LINE
  5
2CCA
  8
DANMEN
  6
CONTINUOUS
 10
362.3639486187684
 20
132.06666107868369
 30
0.0
 11
362.3639486187684
 21
133.56666107868369
 31
0.0
  0
LINE
  5
2CCB
  8
DANMEN
  6
CONTINUOUS
 10
365.06394861876828
 20
134.86666107868371
 30
0.0
 11
362.56394861876828
 21
134.86666107868371
 31
0.0
  0
LINE
  5
2CCC
  8
DANMEN
  6
CONTINUOUS
 10
364.76394861876832
 20
133.56666107868369
 30
0.0
 11
362.3639486187684
 21
133.56666107868369
 31
0.0
  0
LINE
  5
2CCD
  8
DANMEN
  6
CONTINUOUS
 10
364.26394861876832
 20
129.56666107868369
 30
0.0
 11
364.26394861876832
 21
130.7166610786837
 31
0.0
  0
ARC
  5
2CCE
  8
DANMEN
  6
CONTINUOUS
 10
387.76394861876832
 20
130.06666107868369
 30
0.0
 40
0.5
 50
270.0
 51
0.0
  0
LINE
  5
2CCF
  8
DANMEN
  6
CONTINUOUS
 10
387.76394861876832
 20
129.56666107868369
 30
0.0
 11
364.26394861876832
 21
129.56666107868369
 31
0.0
  0
LINE
  5
2CD0
  8
DANMEN
  6
CONTINUOUS
 10
386.61394861876829
 20
149.56666107868369
 30
0.0
 11
369.76394861876838
 21
149.56666107868369
 31
0.0
  0
LINE
  5
2CD1
  8
DANMEN
  6
CONTINUOUS
 10
365.56394861876828
 20
142.06666107868369
 30
0.0
 11
365.56394861876828
 21
145.06666107868369
 31
0.0
  0
LINE
  5
2CD2
  8
DANMEN
  6
CONTINUOUS
 10
386.61394861876829
 20
131.2166610786837
 30
0.0
 11
369.46394861876831
 21
131.2166610786837
 31
0.0
  0
LINE
  5
2CD3
  8
DANMEN
  6
CONTINUOUS
 10
386.61394861876829
 20
148.36666107868371
 30
0.0
 11
386.61394861876829
 21
131.2166610786837
 31
0.0
  0
LINE
  5
2CD4
  8
DANMEN
  6
CONTINUOUS
 10
368.26394861876832
 20
131.2166610786837
 30
0.0
 11
366.06394861876828
 21
131.2166610786837
 31
0.0
  0
ARC
  5
2CD5
  8
DANMEN
  6
CONTINUOUS
 10
364.76394861876832
 20
130.7166610786837
 30
0.0
 40
0.5
 50
90.0
 51
180.0
  0
LINE
  5
2CD6
  8
DANMEN
  6
CONTINUOUS
 10
386.61394861876829
 20
148.36666107868371
 30
0.0
 11
369.46394861876831
 21
148.36666107868371
 31
0.0
  0
ARC
  5
2CD7
  8
DANMEN
  6
CONTINUOUS
 10
427.68744228040498
 20
143.06666107868369
 30
0.0
 40
0.5
 50
270.0
 51
8.1301023541555182
  0
ARC
  5
2CD8
  8
DANMEN
  6
CONTINUOUS
 10
427.38439651703931
 20
143.06666107868369
 30
0.0
 40
0.5
 50
188.1301023541555
 51
270.0
  0
LINE
  5
2CD9
  8
DANMEN
  6
CONTINUOUS
 10
427.68744228040498
 20
142.56666107868369
 30
0.0
 11
427.38439651703931
 21
142.56666107868369
 31
0.0
  0
ARC
  5
2CDA
  8
DANMEN
  6
CONTINUOUS
 10
426.8966517224145
 20
145.06666107868369
 30
0.0
 40
1.0
 50
8.1301023541563247
 51
90.0
  0
LINE
  5
2CDB
  8
DANMEN
  6
CONTINUOUS
 10
426.63646310190609
 20
144.76666107868371
 30
0.0
 11
426.8894217702088
 21
142.99595040056511
 31
0.0
  0
LINE
  5
2CDC
  8
DANMEN
  6
CONTINUOUS
 10
427.8866012160758
 20
145.20808243492101
 30
0.0
 11
428.1824170272356
 21
143.13737175680231
 31
0.0
  0
ARC
  5
2CDD
  8
DANMEN
  6
CONTINUOUS
 10
407.76394712410979
 20
178.06666107868369
 30
0.0
 40
0.5
 50
0.0
 51
90.0
  0
ARC
  5
2CDE
  8
DANMEN
  6
CONTINUOUS
 10
407.46394712410972
 20
177.36666107868379
 30
0.0
 40
0.3
 50
180.0
 51
270.0
  0
LINE
  5
2CDF
  8
DANMEN
  6
CONTINUOUS
 10
407.16394712410971
 20
177.4666610786837
 30
0.0
 11
407.16394712410971
 21
177.36666107868379
 31
0.0
  0
LINE
  5
2CE0
  8
DANMEN
  6
CONTINUOUS
 10
407.16394712410971
 20
177.4666610786837
 30
0.0
 11
402.91394712410971
 21
177.4666610786837
 31
0.0
  0
ARC
  5
2CE1
  8
DANMEN
  6
CONTINUOUS
 10
419.76394712410979
 20
148.06666107868369
 30
0.0
 40
1.5
 50
0.0
 51
90.0
  0
ARC
  5
2CE2
  8
DANMEN
  6
CONTINUOUS
 10
426.96394712410972
 20
133.36666107868371
 30
0.0
 40
1.5
 50
0.0
 51
90.0
  0
ARC
  5
2CE3
  8
DANMEN
  6
CONTINUOUS
 10
424.26394712410979
 20
141.76666107868371
 30
0.0
 40
1.0
 50
270.0
 51
0.0
  0
ARC
  5
2CE4
  8
DANMEN
  6
CONTINUOUS
 10
424.96394712410961
 20
145.06666107868369
 30
0.0
 40
1.0
 50
90.0
 51
180.0
  0
ARC
  5
2CE5
  8
DANMEN
  6
CONTINUOUS
 10
424.46394712410972
 20
133.86666107868371
 30
0.0
 40
1.0
 50
90.0
 51
180.0
  0
LINE
  5
2CE6
  8
DANMEN
  6
CONTINUOUS
 10
423.96394712410972
 20
142.06666107868369
 30
0.0
 11
421.26394711218882
 21
142.06666107868369
 31
0.0
  0
LINE
  5
2CE7
  8
DANMEN
  6
CONTINUOUS
 10
424.26394712410979
 20
140.76666107868371
 30
0.0
 11
421.26394711218882
 21
140.76666107868371
 31
0.0
  0
LINE
  5
2CE8
  8
DANMEN
  6
CONTINUOUS
 10
425.26394712410968
 20
144.76666107868371
 30
0.0
 11
426.63646310190609
 21
144.76666107868371
 31
0.0
  0
LINE
  5
2CE9
  8
DANMEN
  6
CONTINUOUS
 10
425.26394712410968
 20
141.76666107868371
 30
0.0
 11
425.26394712410968
 21
144.76666107868371
 31
0.0
  0
LINE
  5
2CEA
  8
DANMEN
  6
CONTINUOUS
 10
421.26394712410968
 20
142.06666107868369
 30
0.0
 11
421.26394712410968
 21
148.06666107868369
 31
0.0
  0
LINE
  5
2CEB
  8
DANMEN
  6
CONTINUOUS
 10
424.96394712410961
 20
146.06666107868369
 30
0.0
 11
426.8966517224145
 21
146.06666107868369
 31
0.0
  0
ARC
  5
2CEC
  8
DANMEN
  6
CONTINUOUS
 10
427.96394712410972
 20
132.06666107868369
 30
0.0
 40
0.5
 50
270.0
 51
0.0
  0
LINE
  5
2CED
  8
DANMEN
  6
CONTINUOUS
 10
407.76394712410979
 20
178.56666107868369
 30
0.0
 11
401.76394712410968
 21
178.56666107868369
 31
0.0
  0
LINE
  5
2CEE
  8
DANMEN
  6
CONTINUOUS
 10
414.76394712410968
 20
177.06666107868381
 30
0.0
 11
407.46394712410972
 21
177.06666107868381
 31
0.0
  0
LINE
  5
2CEF
  8
DANMEN
  6
CONTINUOUS
 10
414.26394712410968
 20
178.06666107868369
 30
0.0
 11
414.26394712410968
 21
178.56666107868369
 31
0.0
  0
LINE
  5
2CF0
  8
DANMEN
  6
CONTINUOUS
 10
408.26394712410979
 20
178.06666107868369
 30
0.0
 11
414.26394712410968
 21
178.06666107868381
 31
0.0
  0
LINE
  5
2CF1
  8
DANMEN
  6
CONTINUOUS
 10
414.26394712410968
 20
178.56666107868381
 30
0.0
 11
414.76394712410968
 21
178.56666107868381
 31
0.0
  0
ARC
  5
2CF2
  8
DANMEN
  6
CONTINUOUS
 10
401.76394712410968
 20
178.06666107868369
 30
0.0
 40
0.5
 50
90.0
 51
180.0
  0
LINE
  5
2CF3
  8
DANMEN
  6
CONTINUOUS
 10
415.26394712410979
 20
177.56666107868381
 30
0.0
 11
415.26394712410979
 21
178.06666107868381
 31
0.0
  0
ARC
  5
2CF4
  8
DANMEN
  6
CONTINUOUS
 10
414.76394712410968
 20
177.56666107868381
 30
0.0
 40
0.5
 50
270.0
 51
0.0
  0
ARC
  5
2CF5
  8
DANMEN
  6
CONTINUOUS
 10
414.76394712410968
 20
178.06666107868381
 30
0.0
 40
0.5
 50
0.0
 51
90.0
  0
LINE
  5
2CF6
  8
DANMEN
  6
CONTINUOUS
 10
401.26394712410968
 20
178.06666107868369
 30
0.0
 11
401.26394712410968
 21
130.06666107868369
 31
0.0
  0
LINE
  5
2CF7
  8
DANMEN
  6
CONTINUOUS
 10
402.91394712410971
 20
177.4666610786837
 30
0.0
 11
402.91394712410971
 21
149.56666107868369
 31
0.0
  0
LINE
  5
2CF8
  8
DANMEN
  6
CONTINUOUS
 10
421.26394712410968
 20
131.2166610786837
 30
0.0
 11
421.26394712410968
 21
140.76666107868371
 31
0.0
  0
LINE
  5
2CF9
  8
DANMEN
  6
CONTINUOUS
 10
423.46394712410972
 20
131.2166610786837
 30
0.0
 11
423.46394712410972
 21
133.86666107868371
 31
0.0
  0
LINE
  5
2CFA
  8
DANMEN
  6
CONTINUOUS
 10
424.76394712410979
 20
131.2166610786837
 30
0.0
 11
424.76394712410979
 21
133.56666107868369
 31
0.0
  0
LINE
  5
2CFB
  8
DANMEN
  6
CONTINUOUS
 10
420.06394712410969
 20
131.2166610786837
 30
0.0
 11
420.06394712410969
 21
148.36666107868371
 31
0.0
  0
ARC
  5
2CFC
  8
DANMEN
  6
CONTINUOUS
 10
427.66394712410982
 20
132.06666107868369
 30
0.0
 40
0.5
 50
180.0
 51
270.0
  0
LINE
  5
2CFD
  8
DANMEN
  6
CONTINUOUS
 10
428.46394712410972
 20
132.06666107868369
 30
0.0
 11
428.46394712410972
 21
133.36666107868371
 31
0.0
  0
LINE
  5
2CFE
  8
DANMEN
  6
CONTINUOUS
 10
427.66394712410982
 20
131.56666107868369
 30
0.0
 11
427.96394712410972
 21
131.56666107868369
 31
0.0
  0
LINE
  5
2CFF
  8
DANMEN
  6
CONTINUOUS
 10
427.16394712410982
 20
132.06666107868369
 30
0.0
 11
427.16394712410982
 21
133.56666107868369
 31
0.0
  0
LINE
  5
2D00
  8
DANMEN
  6
CONTINUOUS
 10
424.46394712410972
 20
134.86666107868371
 30
0.0
 11
426.96394712410972
 21
134.86666107868371
 31
0.0
  0
LINE
  5
2D01
  8
DANMEN
  6
CONTINUOUS
 10
424.76394712410979
 20
133.56666107868369
 30
0.0
 11
427.16394712410982
 21
133.56666107868369
 31
0.0
  0
LINE
  5
2D02
  8
DANMEN
  6
CONTINUOUS
 10
425.26394712410968
 20
129.56666107868369
 30
0.0
 11
425.26394712410968
 21
130.7166610786837
 31
0.0
  0
ARC
  5
2D03
  8
DANMEN
  6
CONTINUOUS
 10
401.76394712410968
 20
130.06666107868369
 30
0.0
 40
0.5
 50
180.0
 51
270.0
  0
LINE
  5
2D04
  8
DANMEN
  6
CONTINUOUS
 10
401.76394712410968
 20
129.56666107868369
 30
0.0
 11
425.26394712410968
 21
129.56666107868369
 31
0.0
  0
LINE
  5
2D05
  8
DANMEN
  6
CONTINUOUS
 10
402.91394712410971
 20
149.56666107868369
 30
0.0
 11
419.76394712410979
 21
149.56666107868369
 31
0.0
  0
LINE
  5
2D06
  8
DANMEN
  6
CONTINUOUS
 10
423.96394712410972
 20
142.06666107868369
 30
0.0
 11
423.96394712410972
 21
145.06666107868369
 31
0.0
  0
LINE
  5
2D07
  8
DANMEN
  6
CONTINUOUS
 10
402.91394712410971
 20
131.2166610786837
 30
0.0
 11
420.06394712410969
 21
131.2166610786837
 31
0.0
  0
LINE
  5
2D08
  8
DANMEN
  6
CONTINUOUS
 10
402.91394712410971
 20
148.36666107868371
 30
0.0
 11
402.91394712410971
 21
131.2166610786837
 31
0.0
  0
LINE
  5
2D09
  8
DANMEN
  6
CONTINUOUS
 10
421.26394712410968
 20
131.2166610786837
 30
0.0
 11
423.46394712410972
 21
131.2166610786837
 31
0.0
  0
ARC
  5
2D0A
  8
DANMEN
  6
CONTINUOUS
 10
424.76394712410979
 20
130.7166610786837
 30
0.0
 40
0.5
 50
0.0
 51
90.0
  0
LINE
  5
2D0B
  8
DANMEN
  6
CONTINUOUS
 10
402.91394712410971
 20
148.36666107868371
 30
0.0
 11
420.06394712410969
 21
148.36666107868371
 31
0.0
  0
ARC
  5
2D0C
  8
DANMEN
  6
CONTINUOUS
 10
334.68744377506363
 20
143.06666107868369
 30
0.0
 40
0.5
 50
270.0
 51
8.1301023541555182
  0
ARC
  5
2D0D
  8
DANMEN
  6
CONTINUOUS
 10
334.3843980116979
 20
143.06666107868369
 30
0.0
 40
0.5
 50
188.1301023541555
 51
270.0
  0
LINE
  5
2D0E
  8
DANMEN
  6
CONTINUOUS
 10
334.68744377506363
 20
142.56666107868369
 30
0.0
 11
334.3843980116979
 21
142.56666107868369
 31
0.0
  0
ARC
  5
2D0F
  8
DANMEN
  6
CONTINUOUS
 10
333.89665321707321
 20
145.06666107868369
 30
0.0
 40
1.0
 50
8.1301023541555182
 51
90.0
  0
LINE
  5
2D10
  8
DANMEN
  6
CONTINUOUS
 10
333.63646459656468
 20
144.76666107868371
 30
0.0
 11
333.88942326486728
 21
142.99595040056511
 31
0.0
  0
LINE
  5
2D11
  8
DANMEN
  6
CONTINUOUS
 10
334.88660271073439
 20
145.20808243492101
 30
0.0
 11
335.18241852189419
 21
143.13737175680231
 31
0.0
  0
ARC
  5
2D12
  8
DANMEN
  6
CONTINUOUS
 10
314.76394861876832
 20
178.06666107868369
 30
0.0
 40
0.5
 50
0.0
 51
90.0
  0
ARC
  5
2D13
  8
DANMEN
  6
CONTINUOUS
 10
314.46394861876831
 20
177.36666107868379
 30
0.0
 40
0.3
 50
180.0
 51
270.0
  0
LINE
  5
2D14
  8
DANMEN
  6
CONTINUOUS
 10
314.1639486187683
 20
177.4666610786837
 30
0.0
 11
314.1639486187683
 21
177.36666107868379
 31
0.0
  0
LINE
  5
2D15
  8
DANMEN
  6
CONTINUOUS
 10
314.1639486187683
 20
177.4666610786837
 30
0.0
 11
309.9139486187683
 21
177.4666610786837
 31
0.0
  0
ARC
  5
2D16
  8
DANMEN
  6
CONTINUOUS
 10
326.76394861876832
 20
148.06666107868369
 30
0.0
 40
1.5
 50
0.0
 51
90.0
  0
ARC
  5
2D17
  8
DANMEN
  6
CONTINUOUS
 10
333.96394861876831
 20
133.36666107868371
 30
0.0
 40
1.5
 50
0.0
 51
90.0
  0
ARC
  5
2D18
  8
DANMEN
  6
CONTINUOUS
 10
331.26394861876832
 20
141.76666107868371
 30
0.0
 40
1.0
 50
270.0
 51
0.0
  0
ARC
  5
2D19
  8
DANMEN
  6
CONTINUOUS
 10
331.96394861876831
 20
145.06666107868369
 30
0.0
 40
1.0
 50
90.0
 51
180.0
  0
ARC
  5
2D1A
  8
DANMEN
  6
CONTINUOUS
 10
331.46394861876831
 20
133.86666107868371
 30
0.0
 40
1.0
 50
90.0
 51
180.0
  0
LINE
  5
2D1B
  8
DANMEN
  6
CONTINUOUS
 10
330.96394861876831
 20
142.06666107868369
 30
0.0
 11
328.26394860684729
 21
142.06666107868369
 31
0.0
  0
LINE
  5
2D1C
  8
DANMEN
  6
CONTINUOUS
 10
331.26394861876832
 20
140.76666107868371
 30
0.0
 11
328.26394860684729
 21
140.76666107868371
 31
0.0
  0
LINE
  5
2D1D
  8
DANMEN
  6
CONTINUOUS
 10
332.26394861876832
 20
144.76666107868371
 30
0.0
 11
333.63646459656468
 21
144.76666107868371
 31
0.0
  0
LINE
  5
2D1E
  8
DANMEN
  6
CONTINUOUS
 10
332.26394861876832
 20
141.76666107868371
 30
0.0
 11
332.26394861876832
 21
144.76666107868371
 31
0.0
  0
LINE
  5
2D1F
  8
DANMEN
  6
CONTINUOUS
 10
328.26394861876832
 20
142.06666107868369
 30
0.0
 11
328.26394861876832
 21
148.06666107868369
 31
0.0
  0
LINE
  5
2D20
  8
DANMEN
  6
CONTINUOUS
 10
331.96394861876831
 20
146.06666107868369
 30
0.0
 11
333.89665321707321
 21
146.06666107868369
 31
0.0
  0
ARC
  5
2D21
  8
DANMEN
  6
CONTINUOUS
 10
334.96394861876831
 20
132.06666107868369
 30
0.0
 40
0.5
 50
270.0
 51
0.0
  0
LINE
  5
2D22
  8
DANMEN
  6
CONTINUOUS
 10
314.76394861876832
 20
178.56666107868369
 30
0.0
 11
308.76394861876832
 21
178.56666107868369
 31
0.0
  0
LINE
  5
2D23
  8
DANMEN
  6
CONTINUOUS
 10
321.76394861876832
 20
177.06666107868381
 30
0.0
 11
314.46394861876831
 21
177.06666107868381
 31
0.0
  0
LINE
  5
2D24
  8
DANMEN
  6
CONTINUOUS
 10
321.26394861876832
 20
178.06666107868369
 30
0.0
 11
321.26394861876832
 21
178.56666107868369
 31
0.0
  0
LINE
  5
2D25
  8
DANMEN
  6
CONTINUOUS
 10
315.26394861876832
 20
178.06666107868369
 30
0.0
 11
321.26394861876832
 21
178.06666107868381
 31
0.0
  0
LINE
  5
2D26
  8
DANMEN
  6
CONTINUOUS
 10
321.26394861876832
 20
178.56666107868381
 30
0.0
 11
321.76394861876832
 21
178.56666107868381
 31
0.0
  0
ARC
  5
2D27
  8
DANMEN
  6
CONTINUOUS
 10
308.76394861876832
 20
178.06666107868369
 30
0.0
 40
0.5
 50
90.0
 51
180.0
  0
LINE
  5
2D28
  8
DANMEN
  6
CONTINUOUS
 10
322.26394861876832
 20
177.56666107868381
 30
0.0
 11
322.26394861876832
 21
178.06666107868381
 31
0.0
  0
ARC
  5
2D29
  8
DANMEN
  6
CONTINUOUS
 10
321.76394861876832
 20
177.56666107868381
 30
0.0
 40
0.5
 50
270.0
 51
0.0
  0
ARC
  5
2D2A
  8
DANMEN
  6
CONTINUOUS
 10
321.76394861876832
 20
178.06666107868381
 30
0.0
 40
0.5
 50
0.0
 51
90.0
  0
LINE
  5
2D2B
  8
DANMEN
  6
CONTINUOUS
 10
308.26394861876832
 20
178.06666107868369
 30
0.0
 11
308.26394861876832
 21
130.06666107868369
 31
0.0
  0
LINE
  5
2D2C
  8
DANMEN
  6
CONTINUOUS
 10
309.9139486187683
 20
177.4666610786837
 30
0.0
 11
309.9139486187683
 21
149.56666107868369
 31
0.0
  0
LINE
  5
2D2D
  8
DANMEN
  6
CONTINUOUS
 10
328.26394861876832
 20
131.2166610786837
 30
0.0
 11
328.26394861876832
 21
140.76666107868371
 31
0.0
  0
LINE
  5
2D2E
  8
DANMEN
  6
CONTINUOUS
 10
330.46394861876831
 20
131.2166610786837
 30
0.0
 11
330.46394861876831
 21
133.86666107868371
 31
0.0
  0
LINE
  5
2D2F
  8
DANMEN
  6
CONTINUOUS
 10
331.76394861876832
 20
131.2166610786837
 30
0.0
 11
331.76394861876832
 21
133.56666107868369
 31
0.0
  0
LINE
  5
2D30
  8
DANMEN
  6
CONTINUOUS
 10
327.06394861876828
 20
131.2166610786837
 30
0.0
 11
327.06394861876828
 21
148.36666107868371
 31
0.0
  0
ARC
  5
2D31
  8
DANMEN
  6
CONTINUOUS
 10
334.6639486187683
 20
132.06666107868369
 30
0.0
 40
0.5
 50
180.0
 51
270.0
  0
LINE
  5
2D32
  8
DANMEN
  6
CONTINUOUS
 10
335.46394861876831
 20
132.06666107868369
 30
0.0
 11
335.46394861876831
 21
133.36666107868371
 31
0.0
  0
LINE
  5
2D33
  8
DANMEN
  6
CONTINUOUS
 10
334.6639486187683
 20
131.56666107868369
 30
0.0
 11
334.96394861876831
 21
131.56666107868369
 31
0.0
  0
LINE
  5
2D34
  8
DANMEN
  6
CONTINUOUS
 10
334.1639486187683
 20
132.06666107868369
 30
0.0
 11
334.1639486187683
 21
133.56666107868369
 31
0.0
  0
LINE
  5
2D35
  8
DANMEN
  6
CONTINUOUS
 10
331.46394861876831
 20
134.86666107868371
 30
0.0
 11
333.96394861876831
 21
134.86666107868371
 31
0.0
  0
LINE
  5
2D36
  8
DANMEN
  6
CONTINUOUS
 10
331.76394861876832
 20
133.56666107868369
 30
0.0
 11
334.1639486187683
 21
133.56666107868369
 31
0.0
  0
LINE
  5
2D37
  8
DANMEN
  6
CONTINUOUS
 10
332.26394861876832
 20
129.56666107868369
 30
0.0
 11
332.26394861876832
 21
130.7166610786837
 31
0.0
  0
ARC
  5
2D38
  8
DANMEN
  6
CONTINUOUS
 10
308.76394861876832
 20
130.06666107868369
 30
0.0
 40
0.5
 50
180.0
 51
270.0
  0
LINE
  5
2D39
  8
DANMEN
  6
CONTINUOUS
 10
308.76394861876832
 20
129.56666107868369
 30
0.0
 11
332.26394861876832
 21
129.56666107868369
 31
0.0
  0
LINE
  5
2D3A
  8
DANMEN
  6
CONTINUOUS
 10
309.9139486187683
 20
149.56666107868369
 30
0.0
 11
326.76394861876832
 21
149.56666107868369
 31
0.0
  0
LINE
  5
2D3B
  8
DANMEN
  6
CONTINUOUS
 10
330.96394861876831
 20
142.06666107868369
 30
0.0
 11
330.96394861876831
 21
145.06666107868369
 31
0.0
  0
LINE
  5
2D3C
  8
DANMEN
  6
CONTINUOUS
 10
309.9139486187683
 20
131.2166610786837
 30
0.0
 11
327.06394861876828
 21
131.2166610786837
 31
0.0
  0
LINE
  5
2D3D
  8
DANMEN
  6
CONTINUOUS
 10
309.9139486187683
 20
148.36666107868371
 30
0.0
 11
309.9139486187683
 21
131.2166610786837
 31
0.0
  0
LINE
  5
2D3E
  8
DANMEN
  6
CONTINUOUS
 10
328.26394861876832
 20
131.2166610786837
 30
0.0
 11
330.46394861876831
 21
131.2166610786837
 31
0.0
  0
ARC
  5
2D3F
  8
DANMEN
  6
CONTINUOUS
 10
331.76394861876832
 20
130.7166610786837
 30
0.0
 40
0.5
 50
0.0
 51
90.0
  0
LINE
  5
2D40
  8
DANMEN
  6
CONTINUOUS
 10
309.9139486187683
 20
148.36666107868371
 30
0.0
 11
327.06394861876828
 21
148.36666107868371
 31
0.0
  0
ARC
  5
2D41
  8
DANMEN
  6
CONTINUOUS
 10
185.26032741059061
 20
276.6737555280136
 30
0.0
 40
0.5
 50
0.0
 51
98.130102354154715
  0
ARC
  5
2D42
  8
DANMEN
  6
CONTINUOUS
 10
185.26032741059061
 20
276.37070976464798
 30
0.0
 40
0.5
 50
278.13010235415459
 51
0.0
  0
LINE
  5
2D43
  8
DANMEN
  6
CONTINUOUS
 10
185.76032741059061
 20
276.6737555280136
 30
0.0
 11
185.76032741059061
 21
276.37070976464798
 31
0.0
  0
ARC
  5
2D44
  8
DANMEN
  6
CONTINUOUS
 10
183.26032741059061
 20
275.88296497002329
 30
0.0
 40
1.0
 50
98.130102354156321
 51
180.0
  0
LINE
  5
2D45
  8
DANMEN
  6
CONTINUOUS
 10
183.56032741059059
 20
275.62277634951471
 30
0.0
 11
185.33103808870919
 21
275.87573501781742
 31
0.0
  0
LINE
  5
2D46
  8
DANMEN
  6
CONTINUOUS
 10
183.11890605435329
 20
276.87291446368442
 30
0.0
 11
185.1896167324719
 21
277.16873027484422
 31
0.0
  0
ARC
  5
2D47
  8
DANMEN
  6
CONTINUOUS
 10
150.26032741059061
 20
256.7502603717183
 30
0.0
 40
0.5
 50
90.0
 51
180.0
  0
ARC
  5
2D48
  8
DANMEN
  6
CONTINUOUS
 10
150.96032741059059
 20
256.45026037171829
 30
0.0
 40
0.3
 50
270.0
 51
0.0
  0
LINE
  5
2D49
  8
DANMEN
  6
CONTINUOUS
 10
150.8603274105906
 20
256.15026037171828
 30
0.0
 11
150.96032741059059
 21
256.15026037171828
 31
0.0
  0
LINE
  5
2D4A
  8
DANMEN
  6
CONTINUOUS
 10
150.8603274105906
 20
256.15026037171828
 30
0.0
 11
150.8603274105906
 21
251.9002603717183
 31
0.0
  0
ARC
  5
2D4B
  8
DANMEN
  6
CONTINUOUS
 10
180.26032741059061
 20
268.7502603717183
 30
0.0
 40
1.5
 50
90.0
 51
180.0
  0
ARC
  5
2D4C
  8
DANMEN
  6
CONTINUOUS
 10
194.96032741059059
 20
275.9502603717184
 30
0.0
 40
1.5
 50
90.0
 51
180.0
  0
ARC
  5
2D4D
  8
DANMEN
  6
CONTINUOUS
 10
186.56032741059059
 20
273.2502603717183
 30
0.0
 40
1.0
 50
0.0
 51
90.0
  0
ARC
  5
2D4E
  8
DANMEN
  6
CONTINUOUS
 10
183.26032741059061
 20
273.9502603717184
 30
0.0
 40
1.0
 50
180.0
 51
270.0
  0
ARC
  5
2D4F
  8
DANMEN
  6
CONTINUOUS
 10
194.46032741059059
 20
273.4502603717184
 30
0.0
 40
1.0
 50
180.0
 51
270.0
  0
LINE
  5
2D50
  8
DANMEN
  6
CONTINUOUS
 10
186.26032741059061
 20
272.95026037171829
 30
0.0
 11
186.26032741059061
 21
270.25026035979738
 31
0.0
  0
LINE
  5
2D51
  8
DANMEN
  6
CONTINUOUS
 10
187.56032741059059
 20
273.2502603717183
 30
0.0
 11
187.56032741059059
 21
270.25026035979738
 31
0.0
  0
LINE
  5
2D52
  8
DANMEN
  6
CONTINUOUS
 10
183.56032741059059
 20
274.2502603717183
 30
0.0
 11
183.56032741059059
 21
275.62277634951471
 31
0.0
  0
LINE
  5
2D53
  8
DANMEN
  6
CONTINUOUS
 10
186.56032741059059
 20
274.2502603717183
 30
0.0
 11
183.56032741059059
 21
274.2502603717183
 31
0.0
  0
LINE
  5
2D54
  8
DANMEN
  6
CONTINUOUS
 10
186.26032741059061
 20
270.2502603717183
 30
0.0
 11
180.26032741059061
 21
270.2502603717183
 31
0.0
  0
LINE
  5
2D55
  8
DANMEN
  6
CONTINUOUS
 10
182.26032741059061
 20
273.9502603717184
 30
0.0
 11
182.26032741059061
 21
275.88296497002329
 31
0.0
  0
ARC
  5
2D56
  8
DANMEN
  6
CONTINUOUS
 10
196.26032741059049
 20
276.95026037171829
 30
0.0
 40
0.5
 50
0.0
 51
90.0
  0
LINE
  5
2D57
  8
DANMEN
  6
CONTINUOUS
 10
149.76032741059069
 20
256.7502603717183
 30
0.0
 11
149.76032741059069
 21
250.7502603717183
 31
0.0
  0
LINE
  5
2D58
  8
DANMEN
  6
CONTINUOUS
 10
151.26032741059061
 20
263.7502603717183
 30
0.0
 11
151.26032741059061
 21
256.45026037171829
 31
0.0
  0
LINE
  5
2D59
  8
DANMEN
  6
CONTINUOUS
 10
150.26032741059061
 20
263.2502603717183
 30
0.0
 11
149.76032741059061
 21
263.2502603717183
 31
0.0
  0
LINE
  5
2D5A
  8
DANMEN
  6
CONTINUOUS
 10
150.26032741059061
 20
257.2502603717183
 30
0.0
 11
150.26032741059061
 21
263.2502603717183
 31
0.0
  0
LINE
  5
2D5B
  8
DANMEN
  6
CONTINUOUS
 10
149.76032741059061
 20
263.2502603717183
 30
0.0
 11
149.76032741059061
 21
263.7502603717183
 31
0.0
  0
ARC
  5
2D5C
  8
DANMEN
  6
CONTINUOUS
 10
150.26032741059061
 20
250.7502603717183
 30
0.0
 40
0.5
 50
180.0
 51
270.0
  0
LINE
  5
2D5D
  8
DANMEN
  6
CONTINUOUS
 10
150.76032741059061
 20
264.2502603717183
 30
0.0
 11
150.26032741059061
 21
264.2502603717183
 31
0.0
  0
ARC
  5
2D5E
  8
DANMEN
  6
CONTINUOUS
 10
150.76032741059061
 20
263.7502603717183
 30
0.0
 40
0.5
 50
0.0
 51
90.0
  0
ARC
  5
2D5F
  8
DANMEN
  6
CONTINUOUS
 10
150.26032741059061
 20
263.7502603717183
 30
0.0
 40
0.5
 50
90.0
 51
180.0
  0
LINE
  5
2D60
  8
DANMEN
  6
CONTINUOUS
 10
150.26032741059061
 20
250.2502603717183
 30
0.0
 11
198.26032741059061
 21
250.2502603717183
 31
0.0
  0
LINE
  5
2D61
  8
DANMEN
  6
CONTINUOUS
 10
150.8603274105906
 20
251.9002603717183
 30
0.0
 11
178.76032741059061
 21
251.9002603717183
 31
0.0
  0
LINE
  5
2D62
  8
DANMEN
  6
CONTINUOUS
 10
197.1103274105906
 20
270.2502603717183
 30
0.0
 11
187.56032741059059
 21
270.2502603717183
 31
0.0
  0
LINE
  5
2D63
  8
DANMEN
  6
CONTINUOUS
 10
197.1103274105906
 20
272.4502603717184
 30
0.0
 11
194.46032741059059
 21
272.4502603717184
 31
0.0
  0
LINE
  5
2D64
  8
DANMEN
  6
CONTINUOUS
 10
197.1103274105906
 20
273.7502603717183
 30
0.0
 11
194.76032741059061
 21
273.7502603717183
 31
0.0
  0
LINE
  5
2D65
  8
DANMEN
  6
CONTINUOUS
 10
197.1103274105906
 20
269.05026037171831
 30
0.0
 11
179.96032741059059
 21
269.05026037171831
 31
0.0
  0
ARC
  5
2D66
  8
DANMEN
  6
CONTINUOUS
 10
196.26032741059049
 20
276.65026037171828
 30
0.0
 40
0.5
 50
270.0
 51
0.0
  0
LINE
  5
2D67
  8
DANMEN
  6
CONTINUOUS
 10
196.26032741059049
 20
277.4502603717184
 30
0.0
 11
194.96032741059059
 21
277.4502603717184
 31
0.0
  0
LINE
  5
2D68
  8
DANMEN
  6
CONTINUOUS
 10
196.76032741059061
 20
276.65026037171828
 30
0.0
 11
196.76032741059061
 21
276.95026037171829
 31
0.0
  0
LINE
  5
2D69
  8
DANMEN
  6
CONTINUOUS
 10
196.26032741059049
 20
276.15026037171828
 30
0.0
 11
194.76032741059061
 21
276.15026037171828
 31
0.0
  0
LINE
  5
2D6A
  8
DANMEN
  6
CONTINUOUS
 10
193.46032741059059
 20
273.4502603717184
 30
0.0
 11
193.46032741059059
 21
275.9502603717184
 31
0.0
  0
LINE
  5
2D6B
  8
DANMEN
  6
CONTINUOUS
 10
194.76032741059061
 20
273.7502603717183
 30
0.0
 11
194.76032741059061
 21
276.15026037171828
 31
0.0
  0
LINE
  5
2D6C
  8
DANMEN
  6
CONTINUOUS
 10
198.76032741059061
 20
274.2502603717183
 30
0.0
 11
197.6103274105906
 21
274.2502603717183
 31
0.0
  0
ARC
  5
2D6D
  8
DANMEN
  6
CONTINUOUS
 10
198.26032741059061
 20
250.7502603717183
 30
0.0
 40
0.5
 50
270.0
 51
0.0
  0
LINE
  5
2D6E
  8
DANMEN
  6
CONTINUOUS
 10
198.76032741059061
 20
250.7502603717183
 30
0.0
 11
198.76032741059061
 21
274.2502603717183
 31
0.0
  0
LINE
  5
2D6F
  8
DANMEN
  6
CONTINUOUS
 10
178.76032741059061
 20
251.9002603717183
 30
0.0
 11
178.76032741059061
 21
268.7502603717183
 31
0.0
  0
LINE
  5
2D70
  8
DANMEN
  6
CONTINUOUS
 10
186.26032741059061
 20
272.95026037171829
 30
0.0
 11
183.26032741059061
 21
272.95026037171829
 31
0.0
  0
LINE
  5
2D71
  8
DANMEN
  6
CONTINUOUS
 10
197.1103274105906
 20
251.9002603717183
 30
0.0
 11
197.1103274105906
 21
269.05026037171831
 31
0.0
  0
LINE
  5
2D72
  8
DANMEN
  6
CONTINUOUS
 10
179.96032741059059
 20
251.9002603717183
 30
0.0
 11
197.1103274105906
 21
251.9002603717183
 31
0.0
  0
LINE
  5
2D73
  8
DANMEN
  6
CONTINUOUS
 10
197.1103274105906
 20
270.2502603717183
 30
0.0
 11
197.1103274105906
 21
272.4502603717184
 31
0.0
  0
ARC
  5
2D74
  8
DANMEN
  6
CONTINUOUS
 10
197.6103274105906
 20
273.7502603717183
 30
0.0
 40
0.5
 50
90.0
 51
180.0
  0
LINE
  5
2D75
  8
DANMEN
  6
CONTINUOUS
 10
179.96032741059059
 20
251.9002603717183
 30
0.0
 11
179.96032741059059
 21
269.05026037171831
 31
0.0
  0
LINE
  5
2D76
  8
SUNPO
  6
CONTINUOUS
 10
304.26394803337331
 20
224.56666107868369
 30
0.0
 11
304.26394803337331
 21
124.56666107868369
 31
0.0
  0
LINE
  5
2D77
  8
SUNPO
  6
CONTINUOUS
 10
392.26394920416323
 20
124.56666107868369
 30
0.0
 11
392.26394920416323
 21
129.56663913148151
 31
0.0
  0
LINE
  5
2D78
  8
SUNPO
  6
CONTINUOUS
 10
392.26394920416323
 20
129.56663913148151
 30
0.0
 11
392.26394920416328
 21
216.56666107868369
 31
0.0
  0
LINE
  5
2D79
  8
SUNPO
  6
CONTINUOUS
 10
397.26394920416323
 20
129.56666107868369
 30
0.0
 11
397.26394920416328
 21
178.56666107868369
 31
0.0
  0
LINE
  5
2D7A
  8
SUNPO
  6
CONTINUOUS
 10
397.26394920416328
 20
178.56666107868369
 30
0.0
 11
397.26394920416328
 21
208.56666107868369
 31
0.0
  0
LINE
  5
2D7B
  8
DANMEN
  6
CONTINUOUS
 10
399.76394705839601
 20
208.56666107868369
 30
0.0
 11
397.26394920416328
 21
208.56666107868369
 31
0.0
  0
LINE
  5
2D7C
  8
DANMEN
  6
CONTINUOUS
 10
399.76394705839601
 20
178.56666107868369
 30
0.0
 11
397.26394920416328
 21
178.56666107868369
 31
0.0
  0
LINE
  5
2D7D
  8
SUNPO
  6
CONTINUOUS
 10
295.2639474478579
 20
108.56666107868369
 30
0.0
 11
271.2639501134268
 21
108.56666107868369
 31
0.0
  0
LINE
  5
2D7E
  8
SUNPO
  6
CONTINUOUS
 10
271.2639501134268
 20
123.06666107868369
 30
0.0
 11
271.2639501134268
 21
108.56666107868369
 31
0.0
  0
LINE
  5
2D7F
  8
SUNPO
  6
CONTINUOUS
 10
295.2639474478579
 20
123.06666107868369
 30
0.0
 11
295.2639474478579
 21
108.56666107868369
 31
0.0
  0
LINE
  5
2D80
  8
SUNPO
  6
CONTINUOUS
 10
271.2639501134268
 20
100.56666107868369
 30
0.0
 11
241.26395011342689
 21
100.56666107868369
 31
0.0
  0
LINE
  5
2D81
  8
SUNPO
  6
CONTINUOUS
 10
241.26395011342689
 20
123.06666107868369
 30
0.0
 11
241.26395011342689
 21
100.56666107868369
 31
0.0
  0
LINE
  5
2D82
  8
SUNPO
  6
CONTINUOUS
 10
271.2639501134268
 20
123.06666107868369
 30
0.0
 11
271.2639501134268
 21
100.56666107868369
 31
0.0
  0
LINE
  5
2D83
  8
SUNPO
  6
CONTINUOUS
 10
332.26395128421689
 20
108.56666107868369
 30
0.0
 11
308.26394861888872
 21
108.56666107868369
 31
0.0
  0
LINE
  5
2D84
  8
SUNPO
  6
CONTINUOUS
 10
308.26394861888872
 20
123.06666107868369
 30
0.0
 11
308.26394861888872
 21
108.56666107868369
 31
0.0
  0
LINE
  5
2D85
  8
SUNPO
  6
CONTINUOUS
 10
364.26394595331971
 20
108.56666107868369
 30
0.0
 11
332.26395128421689
 21
108.56666107868369
 31
0.0
  0
LINE
  5
2D86
  8
SUNPO
  6
CONTINUOUS
 10
332.26395128421689
 20
123.06666107868369
 30
0.0
 11
332.26395128421689
 21
108.56666107868369
 31
0.0
  0
LINE
  5
2D87
  8
SUNPO
  6
CONTINUOUS
 10
388.26394861864787
 20
108.56666107868369
 30
0.0
 11
364.26394595331971
 21
108.56666107868369
 31
0.0
  0
LINE
  5
2D88
  8
SUNPO
  6
CONTINUOUS
 10
364.26394595331971
 20
123.06666107868369
 30
0.0
 11
364.26394595331971
 21
108.56666107868369
 31
0.0
  0
LINE
  5
2D89
  8
SUNPO
  6
CONTINUOUS
 10
388.26394861864787
 20
123.06666107868369
 30
0.0
 11
388.26394861864787
 21
108.56666107868369
 31
0.0
  0
LINE
  5
2D8A
  8
SUNPO
  6
CONTINUOUS
 10
241.26395011342689
 20
240.56666107868369
 30
0.0
 11
271.2639501134268
 21
240.56666107868369
 31
0.0
  0
LINE
  5
2D8B
  8
SUNPO
  6
CONTINUOUS
 10
241.26395011342689
 20
226.06666107868369
 30
0.0
 11
241.26395011342689
 21
240.56666107868369
 31
0.0
  0
LINE
  5
2D8C
  8
SUNPO
  6
CONTINUOUS
 10
271.2639501134268
 20
240.56666107868369
 30
0.0
 11
295.26395011342692
 21
240.56666107868369
 31
0.0
  0
LINE
  5
2D8D
  8
SUNPO
  6
CONTINUOUS
 10
295.26395011342692
 20
226.06666107868369
 30
0.0
 11
295.26395011342692
 21
240.56666107868369
 31
0.0
  0
LINE
  5
2D8E
  8
SUNPO
  6
CONTINUOUS
 10
271.2639501134268
 20
226.06666107868369
 30
0.0
 11
271.2639501134268
 21
240.56666107868369
 31
0.0
  0
LINE
  5
2D8F
  8
SUNPO
  6
CONTINUOUS
 10
280.26394878070261
 20
232.56666107868369
 30
0.0
 11
295.26395011342692
 21
232.56666107868369
 31
0.0
  0
LINE
  5
2D90
  8
SUNPO
  6
CONTINUOUS
 10
295.26395011342692
 20
226.06666107868369
 30
0.0
 11
295.26395011342692
 21
232.56666107868369
 31
0.0
  0
LINE
  5
2D91
  8
SUNPO
  6
CONTINUOUS
 10
280.26394878070261
 20
226.06666107868369
 30
0.0
 11
280.26394878070261
 21
232.56666107868369
 31
0.0
  0
LINE
  5
2D92
  8
SUNPO
  6
CONTINUOUS
 10
308.26394861876832
 20
232.56666107868369
 30
0.0
 11
323.26394728604402
 21
232.56666107868369
 31
0.0
  0
LINE
  5
2D93
  8
SUNPO
  6
CONTINUOUS
 10
323.26394728604402
 20
226.06666107868369
 30
0.0
 11
323.26394728604402
 21
232.56666107868369
 31
0.0
  0
LINE
  5
2D94
  8
SUNPO
  6
CONTINUOUS
 10
373.26394995149252
 20
232.56666107868369
 30
0.0
 11
388.26394861876838
 21
232.56666107868369
 31
0.0
  0
LINE
  5
2D95
  8
SUNPO
  6
CONTINUOUS
 10
373.26394995149252
 20
226.06666107868369
 30
0.0
 11
373.26394995149252
 21
232.56666107868369
 31
0.0
  0
LINE
  5
2D96
  8
SUNPO
  6
CONTINUOUS
 10
308.26394861876832
 20
240.56666107868369
 30
0.0
 11
388.26394861876838
 21
240.56666107868369
 31
0.0
  0
LINE
  5
2D97
  8
SUNPO
  6
CONTINUOUS
 10
388.26394861876838
 20
226.06666107868369
 30
0.0
 11
388.26394861876838
 21
240.56666107868369
 31
0.0
  0
LINE
  5
2D98
  8
SUNPO
  6
CONTINUOUS
 10
308.26394861876832
 20
226.06666107868369
 30
0.0
 11
308.26394861876832
 21
240.56666107868369
 31
0.0
  0
LINE
  5
2D99
  8
SUNPO
  6
CONTINUOUS
 10
271.2639501134268
 20
100.56666107868369
 30
0.0
 11
276.2639500265779
 21
95.566661165532764
 31
0.0
  0
LINE
  5
2D9A
  8
SUNPO
  6
CONTINUOUS
 10
276.2639500265779
 20
105.56666099183469
 30
0.0
 11
271.2639501134268
 21
100.56666107868369
 31
0.0
  0
LINE
  5
2D9B
  8
SUNPO
  6
CONTINUOUS
 10
276.26395011342692
 20
95.566661078683794
 30
0.0
 11
276.26395011342692
 21
105.56666107868369
 31
0.0
  0
LINE
  5
2D9C
  8
SUNPO
  6
CONTINUOUS
 10
343.14072473843572
 20
97.066661899464876
 30
0.0
 11
339.09927919987808
 21
104.0666577165305
 31
0.0
  0
LINE
  5
2D9D
  8
SUNPO
  6
CONTINUOUS
 10
345.45006307005252
 20
97.066660942587376
 30
0.0
 11
341.40861689074529
 21
104.06665786946471
 31
0.0
  0
LINE
  5
2D9E
  8
SUNPO
  6
CONTINUOUS
 10
351.80090922057491
 20
104.06666107868369
 30
0.0
 11
351.80090922057491
 21
97.066663939706785
 31
0.0
  0
LINE
  5
2D9F
  8
SUNPO
  6
CONTINUOUS
 10
352.37825888335573
 20
97.066661078683794
 30
0.0
 11
348.80051058471071
 21
97.066661078683794
 31
0.0
  0
LINE
  5
2DA0
  8
SUNPO
  6
CONTINUOUS
 10
346.45006197631221
 20
97.066661078683794
 30
0.0
 11
341.9725305432068
 21
97.066661078683794
 31
0.0
  0
LINE
  5
2DA1
  8
SUNPO
  6
CONTINUOUS
 10
351.80090799902229
 20
97.066664587563977
 30
0.0
 11
347.7594637270625
 21
104.0666582108157
 31
0.0
  0
LINE
  5
2DA2
  8
SUNPO
  6
CONTINUOUS
 10
349.49150897800507
 20
97.066662061925456
 30
0.0
 11
345.4500627986979
 21
104.0666589888027
 31
0.0
  0
LINE
  5
2DA3
  8
SUNPO
  6
CONTINUOUS
 10
352.7597534054504
 20
104.06666107868369
 30
0.0
 11
350.72323340117799
 21
104.06666107868369
 31
0.0
  0
LINE
  5
2DA4
  8
SUNPO
  6
CONTINUOUS
 10
348.75946253478378
 20
104.06666107868369
 30
0.0
 11
344.45006197631221
 21
104.06666107868369
 31
0.0
  0
LINE
  5
2DA5
  8
SUNPO
  6
CONTINUOUS
 10
342.37028902709352
 20
104.06666107868369
 30
0.0
 11
337.99493902861929
 21
104.06666107868369
 31
0.0
  0
LINE
  5
2DA6
  8
SUNPO
  6
CONTINUOUS
 10
360.53295820891719
 20
99.066661078683779
 30
0.0
 11
355.53295820891708
 21
99.066661078683779
 31
0.0
  0
LINE
  5
2DA7
  8
SUNPO
  6
CONTINUOUS
 10
360.53295820891719
 20
102.06666107868369
 30
0.0
 11
355.53295820891708
 21
102.06666107868369
 31
0.0
  0
LINE
  5
2DA8
  8
SUNPO
  6
CONTINUOUS
 10
345.45006197631221
 20
104.06666107868369
 30
0.0
 11
345.45006197631221
 21
97.066662032358067
 31
0.0
  0
LINE
  5
2DA9
  8
SUNPO
  6
CONTINUOUS
 10
425.26394712410968
 20
100.56666107868369
 30
0.0
 11
420.26394721095869
 21
95.566661165532764
 31
0.0
  0
LINE
  5
2DAA
  8
SUNPO
  6
CONTINUOUS
 10
420.26394721095869
 20
105.56666099183469
 30
0.0
 11
425.26394712410968
 21
100.56666107868369
 31
0.0
  0
LINE
  5
2DAB
  8
SUNPO
  6
CONTINUOUS
 10
420.26394712410979
 20
95.566661078683794
 30
0.0
 11
420.26394712410979
 21
105.56666107868369
 31
0.0
  0
LINE
  5
2DAC
  8
SUNPO
  6
CONTINUOUS
 10
455.26394712410968
 20
100.56666107868369
 30
0.0
 11
425.26394712410968
 21
100.56666107868369
 31
0.0
  0
LINE
  5
2DAD
  8
SUNPO
  6
CONTINUOUS
 10
425.26394712410968
 20
123.06666107868369
 30
0.0
 11
425.26394712410968
 21
100.56666107868369
 31
0.0
  0
LINE
  5
2DAE
  8
SUNPO
  6
CONTINUOUS
 10
455.26394712410968
 20
123.06666107868369
 30
0.0
 11
455.26394712410968
 21
100.56666107868369
 31
0.0
  0
LINE
  5
2DAF
  8
SUNPO
  6
CONTINUOUS
 10
425.26394712410968
 20
108.56666107868369
 30
0.0
 11
401.26394978967858
 21
108.56666107868369
 31
0.0
  0
LINE
  5
2DB0
  8
SUNPO
  6
CONTINUOUS
 10
401.26394978967858
 20
123.06666107868369
 30
0.0
 11
401.26394978967858
 21
108.56666107868369
 31
0.0
  0
LINE
  5
2DB1
  8
SUNPO
  6
CONTINUOUS
 10
425.26394712410968
 20
123.06666107868369
 30
0.0
 11
425.26394712410968
 21
108.56666107868369
 31
0.0
  0
LINE
  5
2DB2
  8
SUNPO
  6
CONTINUOUS
 10
425.26394712410968
 20
240.56666107868369
 30
0.0
 11
455.26394712410968
 21
240.56666107868369
 31
0.0
  0
LINE
  5
2DB3
  8
SUNPO
  6
CONTINUOUS
 10
455.26394712410968
 20
226.06666107868369
 30
0.0
 11
455.26394712410968
 21
240.56666107868369
 31
0.0
  0
LINE
  5
2DB4
  8
SUNPO
  6
CONTINUOUS
 10
401.26394712410968
 20
240.56666107868369
 30
0.0
 11
425.26394712410968
 21
240.56666107868369
 31
0.0
  0
LINE
  5
2DB5
  8
SUNPO
  6
CONTINUOUS
 10
425.26394712410968
 20
226.06666107868369
 30
0.0
 11
425.26394712410968
 21
240.56666107868369
 31
0.0
  0
LINE
  5
2DB6
  8
SUNPO
  6
CONTINUOUS
 10
401.26394712410968
 20
226.06666107868369
 30
0.0
 11
401.26394712410968
 21
240.56666107868369
 31
0.0
  0
LINE
  5
2DB7
  8
SUNPO
  6
CONTINUOUS
 10
401.26394712410968
 20
232.56666107868369
 30
0.0
 11
416.2639484568341
 21
232.56666107868369
 31
0.0
  0
LINE
  5
2DB8
  8
SUNPO
  6
CONTINUOUS
 10
416.2639484568341
 20
226.06666107868369
 30
0.0
 11
416.2639484568341
 21
232.56666107868369
 31
0.0
  0
LINE
  5
2DB9
  8
SUNPO
  6
CONTINUOUS
 10
401.26394712410968
 20
226.06666107868369
 30
0.0
 11
401.26394712410968
 21
232.56666107868369
 31
0.0
  0
LINE
  5
2DBA
  8
DANMEN
  6
CONTINUOUS
 10
335.76394861876832
 20
152.06666107868369
 30
0.0
 11
335.76394861876832
 21
146.06666107868369
 31
0.0
  0
LINE
  5
2DBB
  8
DANMEN
  6
CONTINUOUS
 10
343.56394861876828
 20
152.06666107868369
 30
0.0
 11
343.56394861876828
 21
146.06666107868369
 31
0.0
  0
LINE
  5
2DBC
  8
DANMEN
  6
CONTINUOUS
 10
352.96394861876831
 20
152.06666107868369
 30
0.0
 11
352.96394861876831
 21
146.06666107868369
 31
0.0
  0
LINE
  5
2DBD
  8
DANMEN
  6
CONTINUOUS
 10
360.76394861876832
 20
152.06666107868369
 30
0.0
 11
360.76394861876832
 21
146.06666107868369
 31
0.0
  0
LINE
  5
2DBE
  8
DANMEN
  6
CONTINUOUS
 10
364.26394861876832
 20
132.56666107868369
 30
0.0
 11
364.26394861876832
 21
129.56666107868369
 31
0.0
  0
LINE
  5
2DBF
  8
DANMEN
  6
CONTINUOUS
 10
362.61394861876829
 20
133.06666107868369
 30
0.0
 11
362.61394861876829
 21
131.2166610786837
 31
0.0
  0
ARC
  5
2DC0
  8
DANMEN
  6
CONTINUOUS
 10
363.26394861876838
 20
132.56666107868369
 30
0.0
 40
1.0
 50
0.0
 51
90.0
  0
ARC
  5
2DC1
  8
DANMEN
  6
CONTINUOUS
 10
363.11394861876829
 20
133.06666107868369
 30
0.0
 40
0.5
 50
90.0
 51
180.0
  0
LINE
  5
2DC2
  8
DANMEN
  6
CONTINUOUS
 10
363.26394861876838
 20
133.56666107868369
 30
0.0
 11
363.11394861876829
 21
133.56666107868369
 31
0.0
  0
LINE
  5
2DC3
  8
DANMEN
  6
CONTINUOUS
 10
364.26394861876832
 20
144.06666107868369
 30
0.0
 11
364.26394861876832
 21
142.26666107868371
 31
0.0
  0
LINE
  5
2DC4
  8
DANMEN
  6
CONTINUOUS
 10
362.76394861876832
 20
144.06666107868369
 30
0.0
 11
362.76394861876832
 21
142.26666107868371
 31
0.0
  0
LINE
  5
2DC5
  8
DANMEN
  6
CONTINUOUS
 10
363.76394861876832
 20
144.56666107868369
 30
0.0
 11
363.26394861876838
 21
144.56666107868369
 31
0.0
  0
ARC
  5
2DC6
  8
DANMEN
  6
CONTINUOUS
 10
363.76394861876832
 20
144.06666107868369
 30
0.0
 40
0.5
 50
0.0
 51
90.0
  0
ARC
  5
2DC7
  8
DANMEN
  6
CONTINUOUS
 10
363.26394861876838
 20
144.06666107868369
 30
0.0
 40
0.5
 50
90.0
 51
180.0
  0
LINE
  5
2DC8
  8
DANMEN
  6
CONTINUOUS
 10
362.61394861876829
 20
131.2166610786837
 30
0.0
 11
360.76394861876832
 21
131.2166610786837
 31
0.0
  0
LINE
  5
2DC9
  8
DANMEN
  6
CONTINUOUS
 10
362.76394861876832
 20
140.76666107868371
 30
0.0
 11
360.76394861876832
 21
140.76666107868371
 31
0.0
  0
LINE
  5
2DCA
  8
DANMEN
  6
CONTINUOUS
 10
362.76394861876832
 20
142.26666107868371
 30
0.0
 11
360.76394861876832
 21
142.26666107868371
 31
0.0
  0
LINE
  5
2DCB
  8
DANMEN
  6
CONTINUOUS
 10
364.26394861876832
 20
129.56666107868369
 30
0.0
 11
332.26394861876838
 21
129.56666107868369
 31
0.0
  0
LINE
  5
2DCC
  8
DANMEN
  6
CONTINUOUS
 10
333.9139486187683
 20
131.2166610786837
 30
0.0
 11
335.76394861876832
 21
131.2166610786837
 31
0.0
  0
ARC
  5
2DCD
  8
DANMEN
  6
CONTINUOUS
 10
333.26394861876832
 20
144.06666107868369
 30
0.0
 40
0.5
 50
0.0
 51
90.0
  0
ARC
  5
2DCE
  8
DANMEN
  6
CONTINUOUS
 10
332.76394861876832
 20
144.06666107868369
 30
0.0
 40
0.5
 50
90.0
 51
180.0
  0
LINE
  5
2DCF
  8
DANMEN
  6
CONTINUOUS
 10
332.76394861876832
 20
144.56666107868369
 30
0.0
 11
333.26394861876832
 21
144.56666107868369
 31
0.0
  0
LINE
  5
2DD0
  8
DANMEN
  6
CONTINUOUS
 10
333.76394861876832
 20
144.06666107868369
 30
0.0
 11
333.76394861876832
 21
142.26666107868371
 31
0.0
  0
LINE
  5
2DD1
  8
DANMEN
  6
CONTINUOUS
 10
332.26394861876838
 20
144.06666107868369
 30
0.0
 11
332.26394861876838
 21
142.26666107868371
 31
0.0
  0
LINE
  5
2DD2
  8
DANMEN
  6
CONTINUOUS
 10
333.26394861876832
 20
133.56666107868369
 30
0.0
 11
333.4139486187683
 21
133.56666107868369
 31
0.0
  0
ARC
  5
2DD3
  8
DANMEN
  6
CONTINUOUS
 10
333.4139486187683
 20
133.06666107868369
 30
0.0
 40
0.5
 50
0.0
 51
90.0
  0
ARC
  5
2DD4
  8
DANMEN
  6
CONTINUOUS
 10
333.26394861876832
 20
132.56666107868369
 30
0.0
 40
1.0
 50
90.0
 51
180.0
  0
LINE
  5
2DD5
  8
DANMEN
  6
CONTINUOUS
 10
333.9139486187683
 20
133.06666107868369
 30
0.0
 11
333.9139486187683
 21
131.2166610786837
 31
0.0
  0
LINE
  5
2DD6
  8
DANMEN
  6
CONTINUOUS
 10
332.26394861876838
 20
132.56666107868369
 30
0.0
 11
332.26394861876838
 21
129.56666107868369
 31
0.0
  0
LINE
  5
2DD7
  8
DANMEN
  6
CONTINUOUS
 10
333.76394861876832
 20
140.76666107868371
 30
0.0
 11
335.76394861876832
 21
140.76666107868371
 31
0.0
  0
LINE
  5
2DD8
  8
DANMEN
  6
CONTINUOUS
 10
333.76394861876832
 20
142.26666107868371
 30
0.0
 11
335.76394861876832
 21
142.26666107868371
 31
0.0
  0
LINE
  5
2DD9
  8
DANMEN
  6
CONTINUOUS
 10
375.26394861876832
 20
214.61666107868371
 30
0.0
 11
387.1639486187683
 21
214.61666107868371
 31
0.0
  0
LINE
  5
2DDA
  8
DANMEN
  6
CONTINUOUS
 10
387.1639486187683
 20
214.61666107868371
 30
0.0
 11
387.1639486187683
 21
212.61666107868371
 31
0.0
  0
LINE
  5
2DDB
  8
DANMEN
  6
CONTINUOUS
 10
387.1639486187683
 20
212.61666107868371
 30
0.0
 11
386.31394861876828
 21
212.61666107868371
 31
0.0
  0
LINE
  5
2DDC
  8
DANMEN
  6
CONTINUOUS
 10
386.31394861876828
 20
212.61666107868371
 30
0.0
 11
386.31394861876828
 21
209.76666107868371
 31
0.0
  0
ARC
  5
2DDD
  8
DANMEN
  6
CONTINUOUS
 10
374.76394861876832
 20
209.06666107868369
 30
0.0
 40
0.5
 50
180.0
 51
0.0
  0
LINE
  5
2DDE
  8
DANMEN
  6
CONTINUOUS
 10
374.26394861876832
 20
214.61666107868371
 30
0.0
 11
374.26394861876832
 21
209.06666107868369
 31
0.0
  0
LINE
  5
2DDF
  8
DANMEN
  6
CONTINUOUS
 10
375.26394861876832
 20
214.61666107868371
 30
0.0
 11
375.26394861876832
 21
209.06666107868369
 31
0.0
  0
LINE
  5
2DE0
  8
DANMEN
  6
CONTINUOUS
 10
309.36394861876829
 20
214.61666107868371
 30
0.0
 11
309.36394861876829
 21
212.61666107868371
 31
0.0
  0
LINE
  5
2DE1
  8
DANMEN
  6
CONTINUOUS
 10
309.36394861876829
 20
212.61666107868371
 30
0.0
 11
310.21394861876831
 21
212.61666107868371
 31
0.0
  0
LINE
  5
2DE2
  8
DANMEN
  6
CONTINUOUS
 10
322.26394861876832
 20
214.61666107868371
 30
0.0
 11
335.76394861876832
 21
214.61666107868371
 31
0.0
  0
ARC
  5
2DE3
  8
DANMEN
  6
CONTINUOUS
 10
321.76394861876838
 20
209.06666107868369
 30
0.0
 40
0.5
 50
180.0
 51
0.0
  0
LINE
  5
2DE4
  8
DANMEN
  6
CONTINUOUS
 10
322.26394861876832
 20
214.61666107868371
 30
0.0
 11
322.26394861876832
 21
209.06666107868369
 31
0.0
  0
LINE
  5
2DE5
  8
DANMEN
  6
CONTINUOUS
 10
321.26394861876832
 20
214.61666107868371
 30
0.0
 11
321.26394861876832
 21
209.06666107868369
 31
0.0
  0
LINE
  5
2DE6
  8
DANMEN
  6
CONTINUOUS
 10
308.76394861876832
 20
216.56666107868369
 30
0.0
 11
387.76394861876832
 21
216.56666107868369
 31
0.0
  0
LINE
  5
2DE7
  8
DANMEN
  6
CONTINUOUS
 10
308.26394861876832
 20
216.06666107868369
 30
0.0
 11
308.26394861876832
 21
209.06666107868369
 31
0.0
  0
LINE
  5
2DE8
  8
DANMEN
  6
CONTINUOUS
 10
388.26394861876838
 20
216.06666107868369
 30
0.0
 11
388.26394861876838
 21
209.06666107868369
 31
0.0
  0
ARC
  5
2DE9
  8
DANMEN
  6
CONTINUOUS
 10
308.76394861876832
 20
216.06666107868369
 30
0.0
 40
0.5
 50
90.0
 51
180.0
  0
ARC
  5
2DEA
  8
DANMEN
  6
CONTINUOUS
 10
387.76394861876832
 20
216.06666107868369
 30
0.0
 40
0.5
 50
0.0
 51
90.0
  0
LINE
  5
2DEB
  8
DANMEN
  6
CONTINUOUS
 10
308.76394861876832
 20
208.56666107868369
 30
0.0
 11
315.26394861876832
 21
208.56666107868369
 31
0.0
  0
LINE
  5
2DEC
  8
DANMEN
  6
CONTINUOUS
 10
381.26394861876832
 20
208.56666107868369
 30
0.0
 11
387.76394861876832
 21
208.56666107868369
 31
0.0
  0
LINE
  5
2DED
  8
DANMEN
  6
CONTINUOUS
 10
315.26394861876832
 20
209.26666107868371
 30
0.0
 11
315.26394861876832
 21
208.56666107868369
 31
0.0
  0
LINE
  5
2DEE
  8
DANMEN
  6
CONTINUOUS
 10
310.21394861876831
 20
209.76666107868371
 30
0.0
 11
314.76394861876832
 21
209.76666107868371
 31
0.0
  0
LINE
  5
2DEF
  8
DANMEN
  6
CONTINUOUS
 10
310.21394861876831
 20
212.61666107868371
 30
0.0
 11
310.21394861876831
 21
209.76666107868371
 31
0.0
  0
LINE
  5
2DF0
  8
DANMEN
  6
CONTINUOUS
 10
309.36394861876829
 20
214.61666107868371
 30
0.0
 11
321.26394861876832
 21
214.61666107868371
 31
0.0
  0
ARC
  5
2DF1
  8
DANMEN
  6
CONTINUOUS
 10
308.76394861876832
 20
209.06666107868369
 30
0.0
 40
0.5
 50
180.0
 51
270.0
  0
ARC
  5
2DF2
  8
DANMEN
  6
CONTINUOUS
 10
314.76394861876832
 20
209.26666107868371
 30
0.0
 40
0.5
 50
0.0
 51
90.0
  0
LINE
  5
2DF3
  8
DANMEN
  6
CONTINUOUS
 10
381.26394861876832
 20
209.26666107868371
 30
0.0
 11
381.26394861876832
 21
208.56666107868369
 31
0.0
  0
LINE
  5
2DF4
  8
DANMEN
  6
CONTINUOUS
 10
381.76394861876832
 20
209.76666107868371
 30
0.0
 11
386.31394861876828
 21
209.76666107868371
 31
0.0
  0
ARC
  5
2DF5
  8
DANMEN
  6
CONTINUOUS
 10
381.76394861876832
 20
209.26666107868371
 30
0.0
 40
0.5
 50
90.0
 51
180.0
  0
ARC
  5
2DF6
  8
DANMEN
  6
CONTINUOUS
 10
387.76394861876832
 20
209.06666107868369
 30
0.0
 40
0.5
 50
270.0
 51
0.0
  0
LINE
  5
2DF7
  8
DANMEN
  6
CONTINUOUS
 10
335.76394861876832
 20
214.61666107868371
 30
0.0
 11
335.76394861876832
 21
152.06666107868369
 31
0.0
  0
LINE
  5
2DF8
  8
DANMEN
  6
CONTINUOUS
 10
337.71394861876831
 20
214.61666107868371
 30
0.0
 11
337.71394861876831
 21
158.06666107868369
 31
0.0
  0
LINE
  5
2DF9
  8
DANMEN
  6
CONTINUOUS
 10
360.76394861876832
 20
214.61666107868371
 30
0.0
 11
374.26394861876832
 21
214.61666107868371
 31
0.0
  0
LINE
  5
2DFA
  8
DANMEN
  6
CONTINUOUS
 10
337.71394861876831
 20
214.61666107868371
 30
0.0
 11
358.81394861876828
 21
214.61666107868371
 31
0.0
  0
LINE
  5
2DFB
  8
DANMEN
  6
CONTINUOUS
 10
358.81394861876828
 20
158.06666107868369
 30
0.0
 11
337.71394861876831
 21
158.06666107868369
 31
0.0
  0
LINE
  5
2DFC
  8
DANMEN
  6
CONTINUOUS
 10
360.76394861876832
 20
214.61666107868371
 30
0.0
 11
360.76394861876832
 21
152.06666107868369
 31
0.0
  0
LINE
  5
2DFD
  8
DANMEN
  6
CONTINUOUS
 10
358.81394861876828
 20
214.61666107868371
 30
0.0
 11
358.81394861876828
 21
158.06666107868369
 31
0.0
  0
LINE
  5
2DFE
  8
DANMEN
  6
CONTINUOUS
 10
360.76394861876832
 20
146.06666107868369
 30
0.0
 11
360.76394861876832
 21
142.26666107868371
 31
0.0
  0
LINE
  5
2DFF
  8
DANMEN
  6
CONTINUOUS
 10
345.76394861876082
 20
155.06666107868369
 30
0.0
 11
350.96394861876831
 21
155.06666107868369
 31
0.0
  0
LINE
  5
2E00
  8
DANMEN
  6
CONTINUOUS
 10
358.81394861876828
 20
141.06666107868369
 30
0.0
 11
352.96394861876831
 21
141.06666107868369
 31
0.0
  0
LINE
  5
2E01
  8
DANMEN
  6
CONTINUOUS
 10
360.76394861876832
 20
146.06666107868369
 30
0.0
 11
358.26394861876832
 21
146.06666107868369
 31
0.0
  0
LINE
  5
2E02
  8
DANMEN
  6
CONTINUOUS
 10
360.76394861876832
 20
152.06666107868369
 30
0.0
 11
358.26394861876832
 21
152.06666107868369
 31
0.0
  0
LINE
  5
2E03
  8
DANMEN
  6
CONTINUOUS
 10
358.76394861876832
 20
155.06666107868369
 30
0.0
 11
352.96394861876831
 21
155.06666107868369
 31
0.0
  0
LINE
  5
2E04
  8
DANMEN
  6
CONTINUOUS
 10
358.26394861876832
 20
152.65244751631059
 30
0.0
 11
358.26394861876832
 21
152.06666107868369
 31
0.0
  0
LINE
  5
2E05
  8
DANMEN
  6
CONTINUOUS
 10
358.76394861876832
 20
143.06666107868369
 30
0.0
 11
352.96394861876831
 21
143.06666107868369
 31
0.0
  0
LINE
  5
2E06
  8
DANMEN
  6
CONTINUOUS
 10
359.26394861876838
 20
144.06666107868369
 30
0.0
 11
359.26394861876838
 21
143.56666107868369
 31
0.0
  0
LINE
  5
2E07
  8
DANMEN
  6
CONTINUOUS
 10
359.26394861876838
 20
154.56666107868369
 30
0.0
 11
359.26394861876838
 21
154.06666107868369
 31
0.0
  0
ARC
  5
2E08
  8
DANMEN
  6
CONTINUOUS
 10
358.76394861876832
 20
143.56666107868369
 30
0.0
 40
0.5
 50
270.0
 51
0.0
  0
ARC
  5
2E09
  8
DANMEN
  6
CONTINUOUS
 10
358.76394861876832
 20
154.56666107868369
 30
0.0
 40
0.5
 50
0.0
 51
90.0
  0
ARC
  5
2E0A
  8
DANMEN
  6
CONTINUOUS
 10
358.26394861876832
 20
154.06666107868369
 30
0.0
 40
1.0
 50
289.47122063448961
 51
0.0
  0
ARC
  5
2E0B
  8
DANMEN
  6
CONTINUOUS
 10
358.26394861876832
 20
144.06666107868369
 30
0.0
 40
1.0
 50
0.0
 51
70.528779365508854
  0
ARC
  5
2E0C
  8
DANMEN
  6
CONTINUOUS
 10
358.76394861876832
 20
152.65244751631059
 30
0.0
 40
0.5
 50
109.4712206344896
 51
180.0
  0
ARC
  5
2E0D
  8
DANMEN
  6
CONTINUOUS
 10
358.76394861876832
 20
145.4808746410568
 30
0.0
 40
0.5
 50
180.0
 51
250.5287793655103
  0
LINE
  5
2E0E
  8
DANMEN
  6
CONTINUOUS
 10
358.26394861876832
 20
146.06666107868369
 30
0.0
 11
358.26394861876832
 21
145.4808746410568
 31
0.0
  0
LINE
  5
2E0F
  8
DANMEN
  6
CONTINUOUS
 10
338.26394861876832
 20
146.06666107868369
 30
0.0
 11
338.26394861876832
 21
145.4808746410568
 31
0.0
  0
ARC
  5
2E10
  8
DANMEN
  6
CONTINUOUS
 10
337.76394861876832
 20
145.4808746410568
 30
0.0
 40
0.5
 50
289.47122063448961
 51
0.0
  0
ARC
  5
2E11
  8
DANMEN
  6
CONTINUOUS
 10
337.76394861876832
 20
152.65244751631059
 30
0.0
 40
0.5
 50
0.0
 51
70.528779365508854
  0
ARC
  5
2E12
  8
DANMEN
  6
CONTINUOUS
 10
338.26394861876832
 20
144.06666107868369
 30
0.0
 40
1.0
 50
109.4712206344896
 51
180.0
  0
ARC
  5
2E13
  8
DANMEN
  6
CONTINUOUS
 10
338.26394861876832
 20
154.06666107868369
 30
0.0
 40
1.0
 50
180.0
 51
250.5287793655088
  0
ARC
  5
2E14
  8
DANMEN
  6
CONTINUOUS
 10
337.76394861876832
 20
154.56666107868369
 30
0.0
 40
0.5
 50
90.0
 51
180.0
  0
ARC
  5
2E15
  8
DANMEN
  6
CONTINUOUS
 10
337.76394861876832
 20
143.56666107868369
 30
0.0
 40
0.5
 50
180.0
 51
270.0
  0
LINE
  5
2E16
  8
DANMEN
  6
CONTINUOUS
 10
337.26394861876832
 20
154.56666107868369
 30
0.0
 11
337.26394861876832
 21
154.06666107868369
 31
0.0
  0
LINE
  5
2E17
  8
DANMEN
  6
CONTINUOUS
 10
337.26394861876832
 20
144.06666107868369
 30
0.0
 11
337.26394861876832
 21
143.56666107868369
 31
0.0
  0
LINE
  5
2E18
  8
DANMEN
  6
CONTINUOUS
 10
337.76394861876832
 20
143.06666107868369
 30
0.0
 11
343.26394861876832
 21
143.06666107868369
 31
0.0
  0
LINE
  5
2E19
  8
DANMEN
  6
CONTINUOUS
 10
338.26394861876832
 20
152.65244751631059
 30
0.0
 11
338.26394861876832
 21
152.06666107868369
 31
0.0
  0
LINE
  5
2E1A
  8
DANMEN
  6
CONTINUOUS
 10
337.76394861876832
 20
155.06666107868369
 30
0.0
 11
343.26394861876832
 21
155.06666107868369
 31
0.0
  0
LINE
  5
2E1B
  8
DANMEN
  6
CONTINUOUS
 10
335.76394861876832
 20
152.06666107868369
 30
0.0
 11
338.26394861876832
 21
152.06666107868369
 31
0.0
  0
LINE
  5
2E1C
  8
DANMEN
  6
CONTINUOUS
 10
335.76394861876832
 20
146.06666107868369
 30
0.0
 11
338.26394861876832
 21
146.06666107868369
 31
0.0
  0
LINE
  5
2E1D
  8
DANMEN
  6
CONTINUOUS
 10
337.71394861876831
 20
141.06666107868369
 30
0.0
 11
343.76394861876832
 21
141.06666107868369
 31
0.0
  0
LINE
  5
2E1E
  8
DANMEN
  6
CONTINUOUS
 10
335.76394861876832
 20
146.06666107868369
 30
0.0
 11
335.76394861876832
 21
142.26666107868371
 31
0.0
  0
LINE
  5
2E1F
  8
DANMEN
  6
CONTINUOUS
 10
335.76394861876832
 20
140.76666107868371
 30
0.0
 11
335.76394861876832
 21
131.2166610786837
 31
0.0
  0
LINE
  5
2E20
  8
DANMEN
  6
CONTINUOUS
 10
337.71394861876831
 20
141.06666107868369
 30
0.0
 11
337.71394861876831
 21
133.06666107868369
 31
0.0
  0
LINE
  5
2E21
  8
DANMEN
  6
CONTINUOUS
 10
360.76394861876832
 20
140.76666107868371
 30
0.0
 11
360.76394861876832
 21
131.2166610786837
 31
0.0
  0
LINE
  5
2E22
  8
DANMEN
  6
CONTINUOUS
 10
358.81394861876828
 20
141.06666107868369
 30
0.0
 11
358.81394861876828
 21
133.06666107868369
 31
0.0
  0
ARC
  5
2E23
  8
DANMEN
  6
CONTINUOUS
 10
352.96394861876831
 20
143.06666107868369
 30
0.0
 40
2.0
 50
180.0
 51
270.0
  0
LINE
  5
2E24
  8
DANMEN
  6
CONTINUOUS
 10
352.96394861876831
 20
146.06666107868369
 30
0.0
 11
352.96394861876831
 21
143.06666107868369
 31
0.0
  0
LINE
  5
2E25
  8
DANMEN
  6
CONTINUOUS
 10
352.96394861876831
 20
155.06666107868369
 30
0.0
 11
352.96394861876831
 21
152.06666107868369
 31
0.0
  0
LINE
  5
2E26
  8
DANMEN
  6
CONTINUOUS
 10
350.96394861876831
 20
155.06666107868369
 30
0.0
 11
350.96394861876831
 21
152.06666107868369
 31
0.0
  0
LINE
  5
2E27
  8
DANMEN
  6
CONTINUOUS
 10
352.96394861876831
 20
152.06666107868369
 30
0.0
 11
350.96394861876831
 21
152.06666107868369
 31
0.0
  0
LINE
  5
2E28
  8
DANMEN
  6
CONTINUOUS
 10
352.96394861876831
 20
146.06666107868369
 30
0.0
 11
350.96394861876831
 21
146.06666107868369
 31
0.0
  0
LINE
  5
2E29
  8
DANMEN
  6
CONTINUOUS
 10
345.56394861876828
 20
146.06666107868369
 30
0.0
 11
342.76394861876832
 21
146.06666107868369
 31
0.0
  0
LINE
  5
2E2A
  8
DANMEN
  6
CONTINUOUS
 10
345.56394861876828
 20
152.06666107868369
 30
0.0
 11
342.76394861876832
 21
152.06666107868369
 31
0.0
  0
LINE
  5
2E2B
  8
DANMEN
  6
CONTINUOUS
 10
342.76394861876832
 20
152.65244751631059
 30
0.0
 11
342.76394861876832
 21
152.06666107868369
 31
0.0
  0
LINE
  5
2E2C
  8
DANMEN
  6
CONTINUOUS
 10
343.76394861876832
 20
144.06666107868369
 30
0.0
 11
343.76394861876832
 21
143.56666107868369
 31
0.0
  0
LINE
  5
2E2D
  8
DANMEN
  6
CONTINUOUS
 10
343.76394861876832
 20
154.56666107868369
 30
0.0
 11
343.76394861876832
 21
154.06666107868369
 31
0.0
  0
ARC
  5
2E2E
  8
DANMEN
  6
CONTINUOUS
 10
343.26394861876832
 20
143.56666107868369
 30
0.0
 40
0.5
 50
270.0
 51
0.0
  0
ARC
  5
2E2F
  8
DANMEN
  6
CONTINUOUS
 10
343.26394861876832
 20
154.56666107868369
 30
0.0
 40
0.5
 50
0.0
 51
90.0
  0
ARC
  5
2E30
  8
DANMEN
  6
CONTINUOUS
 10
342.76394861876832
 20
154.06666107868369
 30
0.0
 40
1.0
 50
289.47122063448961
 51
0.0
  0
ARC
  5
2E31
  8
DANMEN
  6
CONTINUOUS
 10
342.76394861876832
 20
144.06666107868369
 30
0.0
 40
1.0
 50
0.0
 51
70.528779365508854
  0
ARC
  5
2E32
  8
DANMEN
  6
CONTINUOUS
 10
343.26394861876832
 20
152.65244751631059
 30
0.0
 40
0.5
 50
109.4712206344896
 51
180.0
  0
ARC
  5
2E33
  8
DANMEN
  6
CONTINUOUS
 10
343.26394861876832
 20
145.4808746410568
 30
0.0
 40
0.5
 50
180.0
 51
250.5287793655103
  0
LINE
  5
2E34
  8
DANMEN
  6
CONTINUOUS
 10
342.76394861876832
 20
146.06666107868369
 30
0.0
 11
342.76394861876832
 21
145.4808746410568
 31
0.0
  0
ARC
  5
2E35
  8
DANMEN
  6
CONTINUOUS
 10
343.76394861876832
 20
143.06666107868369
 30
0.0
 40
2.0
 50
270.0
 51
0.0
  0
LINE
  5
2E36
  8
DANMEN
  6
CONTINUOUS
 10
345.56394861876828
 20
152.06666107868369
 30
0.0
 11
345.76394861876832
 21
152.56666107868369
 31
0.0
  0
LINE
  5
2E37
  8
DANMEN
  6
CONTINUOUS
 10
345.76394861876832
 20
145.56666107868369
 30
0.0
 11
345.56394861876828
 21
146.06666107868369
 31
0.0
  0
LINE
  5
2E38
  8
DANMEN
  6
CONTINUOUS
 10
345.76394861876832
 20
145.56666107868369
 30
0.0
 11
345.76394861876832
 21
143.06666107868369
 31
0.0
  0
LINE
  5
2E39
  8
DANMEN
  6
CONTINUOUS
 10
345.76394861876082
 20
155.06666107868369
 30
0.0
 11
345.76394861876082
 21
152.5666610786763
 31
0.0
  0
LINE
  5
2E3A
  8
DANMEN
  6
CONTINUOUS
 10
358.81394861876828
 20
133.06666107868369
 30
0.0
 11
337.71394861876831
 21
133.06666107868369
 31
0.0
  0
LINE
  5
2E3B
  8
DANMEN
  6
CONTINUOUS
 10
350.96394861876831
 20
146.06666107868369
 30
0.0
 11
350.96394861876831
 21
143.06666107868369
 31
0.0
  0
ARC
  5
2E3C
  8
DANMEN
  6
CONTINUOUS
 10
333.76394861876832
 20
142.26666107868371
 30
0.0
 40
1.5
 50
180.0
 51
270.0
  0
ARC
  5
2E3D
  8
DANMEN
  6
CONTINUOUS
 10
362.76394861876832
 20
142.26666107868371
 30
0.0
 40
1.5
 50
270.0
 51
0.0
  0
LINE
  5
2E3E
  8
DANMEN
  6
CONTINUOUS
 10
388.26394995149258
 20
209.0666501050826
 30
0.0
 11
389.26394995149258
 21
201.5666501050826
 31
0.0
  0
LINE
  5
2E3F
  8
DANMEN
  6
CONTINUOUS
 10
389.26394995149258
 20
185.5666501050826
 30
0.0
 11
388.26394995149258
 21
178.0666501050826
 31
0.0
  0
LINE
  5
2E40
  8
DANMEN
  6
CONTINUOUS
 10
308.26394728604402
 20
209.0666501050826
 30
0.0
 11
307.26394728604402
 21
201.5666501050826
 31
0.0
  0
LINE
  5
2E41
  8
DANMEN
  6
CONTINUOUS
 10
307.26394728604402
 20
185.5666501050826
 30
0.0
 11
308.26394728604402
 21
178.0666501050826
 31
0.0
  0
LINE
  5
2E42
  8
DANMEN
  6
CONTINUOUS
 10
401.2639484568341
 20
209.0666501050826
 30
0.0
 11
400.2639484568341
 21
201.5666501050826
 31
0.0
  0
LINE
  5
2E43
  8
DANMEN
  6
CONTINUOUS
 10
400.2639484568341
 20
185.5666501050826
 30
0.0
 11
401.2639484568341
 21
178.0666501050826
 31
0.0
  0
LINE
  5
2E44
  8
DANMEN
  6
CONTINUOUS
 10
295.26394878070261
 20
209.0666501050826
 30
0.0
 11
296.26394878070261
 21
201.5666501050826
 31
0.0
  0
LINE
  5
2E45
  8
DANMEN
  6
CONTINUOUS
 10
296.26394878070261
 20
185.5666501050826
 30
0.0
 11
295.26394878070261
 21
178.0666501050826
 31
0.0
  0
LINE
  5
2E46
  8
DANMEN
  6
CONTINUOUS
 10
256.26395011342692
 20
152.06666107868369
 30
0.0
 11
256.26395011342692
 21
146.06666107868369
 31
0.0
  0
LINE
  5
2E47
  8
DANMEN
  6
CONTINUOUS
 10
248.26395011342689
 20
152.06666107868369
 30
0.0
 11
248.26395011342689
 21
146.06666107868369
 31
0.0
  0
LINE
  5
2E48
  8
DANMEN
  6
CONTINUOUS
 10
258.26395011342692
 20
142.26666107868371
 30
0.0
 11
258.26395011342692
 21
141.86666107868371
 31
0.0
  0
LINE
  5
2E49
  8
DANMEN
  6
CONTINUOUS
 10
258.26395011342692
 20
141.86666107868371
 30
0.0
 11
256.26395011342692
 21
141.86666107868371
 31
0.0
  0
ARC
  5
2E4A
  8
DANMEN
  6
CONTINUOUS
 10
269.76395011342692
 20
142.26666107868371
 30
0.0
 40
1.5
 50
270.0
 51
0.0
  0
LINE
  5
2E4B
  8
DANMEN
  6
CONTINUOUS
 10
256.26395011342692
 20
140.76666107868371
 30
0.0
 11
256.26395011342692
 21
125.6666610786837
 31
0.0
  0
LINE
  5
2E4C
  8
DANMEN
  6
CONTINUOUS
 10
254.26395011342689
 20
141.06666107868369
 30
0.0
 11
254.26395011342689
 21
126.2166610786837
 31
0.0
  0
LINE
  5
2E4D
  8
DANMEN
  6
CONTINUOUS
 10
248.26395011342689
 20
157.06666107868369
 30
0.0
 11
254.26395011342689
 21
157.06666107868369
 31
0.0
  0
ARC
  5
2E4E
  8
DANMEN
  6
CONTINUOUS
 10
248.26395011342689
 20
155.06666107868369
 30
0.0
 40
2.0
 50
90.0
 51
180.0
  0
LINE
  5
2E4F
  8
DANMEN
  6
CONTINUOUS
 10
246.2639501134268
 20
155.06666107868369
 30
0.0
 11
246.2639501134268
 21
152.56666107868369
 31
0.0
  0
LINE
  5
2E50
  8
DANMEN
  6
CONTINUOUS
 10
249.26395011342689
 20
146.06666107868369
 30
0.0
 11
249.26395011342689
 21
145.4808746410568
 31
0.0
  0
ARC
  5
2E51
  8
DANMEN
  6
CONTINUOUS
 10
248.76395011342689
 20
145.4808746410568
 30
0.0
 40
0.5
 50
289.47122063448961
 51
0.0
  0
ARC
  5
2E52
  8
DANMEN
  6
CONTINUOUS
 10
248.76395011342689
 20
152.65244751631059
 30
0.0
 40
0.5
 50
0.0
 51
70.528779365510388
  0
ARC
  5
2E53
  8
DANMEN
  6
CONTINUOUS
 10
249.26395011342689
 20
144.06666107868369
 30
0.0
 40
1.0
 50
109.4712206344911
 51
180.0
  0
ARC
  5
2E54
  8
DANMEN
  6
CONTINUOUS
 10
249.26395011342689
 20
154.06666107868369
 30
0.0
 40
1.0
 50
180.0
 51
250.5287793655088
  0
ARC
  5
2E55
  8
DANMEN
  6
CONTINUOUS
 10
248.76395011342689
 20
154.56666107868369
 30
0.0
 40
0.5
 50
90.0
 51
180.0
  0
ARC
  5
2E56
  8
DANMEN
  6
CONTINUOUS
 10
248.76395011342689
 20
143.56666107868369
 30
0.0
 40
0.5
 50
180.0
 51
270.0
  0
LINE
  5
2E57
  8
DANMEN
  6
CONTINUOUS
 10
248.26395011342689
 20
154.56666107868369
 30
0.0
 11
248.26395011342689
 21
154.06666107868369
 31
0.0
  0
LINE
  5
2E58
  8
DANMEN
  6
CONTINUOUS
 10
248.26395011342689
 20
144.06666107868369
 30
0.0
 11
248.26395011342689
 21
143.56666107868369
 31
0.0
  0
LINE
  5
2E59
  8
DANMEN
  6
CONTINUOUS
 10
249.26395011342689
 20
152.65244751631059
 30
0.0
 11
249.26395011342689
 21
152.06666107868369
 31
0.0
  0
LINE
  5
2E5A
  8
DANMEN
  6
CONTINUOUS
 10
246.46395010150599
 20
152.06666107868369
 30
0.0
 11
249.26395011342689
 21
152.06666107868369
 31
0.0
  0
LINE
  5
2E5B
  8
DANMEN
  6
CONTINUOUS
 10
246.4639501134269
 20
146.06666107868369
 30
0.0
 11
249.26395011342689
 21
146.06666107868369
 31
0.0
  0
LINE
  5
2E5C
  8
DANMEN
  6
CONTINUOUS
 10
248.76395011342689
 20
155.06666107868369
 30
0.0
 11
254.26395011342689
 21
155.06666107868369
 31
0.0
  0
LINE
  5
2E5D
  8
DANMEN
  6
CONTINUOUS
 10
256.26395011342692
 20
146.06666107868369
 30
0.0
 11
253.76395011342689
 21
146.06666107868369
 31
0.0
  0
LINE
  5
2E5E
  8
DANMEN
  6
CONTINUOUS
 10
256.26395011342692
 20
152.06666107868369
 30
0.0
 11
253.76395011342689
 21
152.06666107868369
 31
0.0
  0
LINE
  5
2E5F
  8
DANMEN
  6
CONTINUOUS
 10
253.76395011342689
 20
152.65244751631059
 30
0.0
 11
253.76395011342689
 21
152.06666107868369
 31
0.0
  0
LINE
  5
2E60
  8
DANMEN
  6
CONTINUOUS
 10
248.76395011342689
 20
143.06666107868369
 30
0.0
 11
254.26395011342689
 21
143.06666107868369
 31
0.0
  0
LINE
  5
2E61
  8
DANMEN
  6
CONTINUOUS
 10
254.76395011342689
 20
144.06666107868369
 30
0.0
 11
254.76395011342689
 21
143.56666107868369
 31
0.0
  0
LINE
  5
2E62
  8
DANMEN
  6
CONTINUOUS
 10
254.76395011342689
 20
154.56666107868369
 30
0.0
 11
254.76395011342689
 21
154.06666107868369
 31
0.0
  0
ARC
  5
2E63
  8
DANMEN
  6
CONTINUOUS
 10
254.26395011342689
 20
143.56666107868369
 30
0.0
 40
0.5
 50
270.0
 51
0.0
  0
ARC
  5
2E64
  8
DANMEN
  6
CONTINUOUS
 10
254.26395011342689
 20
154.56666107868369
 30
0.0
 40
0.5
 50
0.0
 51
90.0
  0
ARC
  5
2E65
  8
DANMEN
  6
CONTINUOUS
 10
253.76395011342689
 20
154.06666107868369
 30
0.0
 40
1.0
 50
289.47122063449109
 51
0.0
  0
ARC
  5
2E66
  8
DANMEN
  6
CONTINUOUS
 10
253.76395011342689
 20
144.06666107868369
 30
0.0
 40
1.0
 50
0.0
 51
70.528779365508854
  0
ARC
  5
2E67
  8
DANMEN
  6
CONTINUOUS
 10
254.26395011342689
 20
152.65244751631059
 30
0.0
 40
0.5
 50
109.4712206344896
 51
180.0
  0
ARC
  5
2E68
  8
DANMEN
  6
CONTINUOUS
 10
254.26395011342689
 20
145.4808746410568
 30
0.0
 40
0.5
 50
180.0
 51
250.5287793655103
  0
LINE
  5
2E69
  8
DANMEN
  6
CONTINUOUS
 10
253.76395011342689
 20
146.06666107868369
 30
0.0
 11
253.76395011342689
 21
145.4808746410568
 31
0.0
  0
LINE
  5
2E6A
  8
DANMEN
  6
CONTINUOUS
 10
248.26395011342689
 20
141.06666107868369
 30
0.0
 11
254.26395011342689
 21
141.06666107868369
 31
0.0
  0
LINE
  5
2E6B
  8
DANMEN
  6
CONTINUOUS
 10
246.2639501134268
 20
145.56666107868369
 30
0.0
 11
246.2639501134268
 21
143.06666107868369
 31
0.0
  0
LINE
  5
2E6C
  8
DANMEN
  6
CONTINUOUS
 10
246.2639501134268
 20
152.56666107868369
 30
0.0
 11
246.4639501134269
 21
152.0666610488814
 31
0.0
  0
LINE
  5
2E6D
  8
DANMEN
  6
CONTINUOUS
 10
246.4639501134269
 20
146.06666107868369
 30
0.0
 11
246.2639501134268
 21
145.56666107868369
 31
0.0
  0
ARC
  5
2E6E
  8
DANMEN
  6
CONTINUOUS
 10
248.26395011342689
 20
143.06666107868369
 30
0.0
 40
2.0
 50
180.0
 51
270.0
  0
LINE
  5
2E6F
  8
DANMEN
  6
CONTINUOUS
 10
242.41395011342689
 20
133.06666107868369
 30
0.0
 11
241.76395011342689
 21
133.06666107868369
 31
0.0
  0
ARC
  5
2E70
  8
DANMEN
  6
CONTINUOUS
 10
242.41395011342689
 20
132.56666107868369
 30
0.0
 40
0.5
 50
0.0
 51
90.0
  0
ARC
  5
2E71
  8
DANMEN
  6
CONTINUOUS
 10
241.76395011342689
 20
132.56666107868369
 30
0.0
 40
0.5
 50
90.0
 51
180.0
  0
LINE
  5
2E72
  8
DANMEN
  6
CONTINUOUS
 10
242.91395011342689
 20
132.56666107868369
 30
0.0
 11
242.91395011342689
 21
126.2166610786837
 31
0.0
  0
LINE
  5
2E73
  8
DANMEN
  6
CONTINUOUS
 10
241.26395011342689
 20
132.56666107868369
 30
0.0
 11
241.26395011342689
 21
125.06666107868369
 31
0.0
  0
LINE
  5
2E74
  8
DANMEN
  6
CONTINUOUS
 10
254.26395011342689
 20
126.2166610786837
 30
0.0
 11
242.91395011342689
 21
126.2166610786837
 31
0.0
  0
ARC
  5
2E75
  8
DANMEN
  6
CONTINUOUS
 10
241.76395011342689
 20
224.06666107868369
 30
0.0
 40
0.5
 50
90.0
 51
180.0
  0
LINE
  5
2E76
  8
DANMEN
  6
CONTINUOUS
 10
242.91395011342689
 20
222.91666107868369
 30
0.0
 11
242.91395011342689
 21
169.56666107868369
 31
0.0
  0
LINE
  5
2E77
  8
DANMEN
  6
CONTINUOUS
 10
241.26395011342689
 20
224.06666107868369
 30
0.0
 11
241.26395011342689
 21
169.56666107868369
 31
0.0
  0
LINE
  5
2E78
  8
DANMEN
  6
CONTINUOUS
 10
241.26395011342689
 20
167.91666107868369
 30
0.0
 11
241.26395011342689
 21
165.56666107868369
 31
0.0
  0
LINE
  5
2E79
  8
DANMEN
  6
CONTINUOUS
 10
241.76395011342689
 20
165.06666107868369
 30
0.0
 11
242.41394400991121
 21
165.06666107868369
 31
0.0
  0
LINE
  5
2E7A
  8
DANMEN
  6
CONTINUOUS
 10
242.91394400991121
 20
167.91666107868369
 30
0.0
 11
242.91394400991121
 21
165.56666107868369
 31
0.0
  0
ARC
  5
2E7B
  8
DANMEN
  6
CONTINUOUS
 10
241.76395011342689
 20
165.56666107868369
 30
0.0
 40
0.5
 50
180.00003597217889
 51
269.99996334457558
  0
ARC
  5
2E7C
  8
DANMEN
  6
CONTINUOUS
 10
242.41394400991121
 20
165.56666107868369
 30
0.0
 40
0.5
 50
270.00001798608901
 51
359.99998133066458
  0
LINE
  5
2E7D
  8
DANMEN
  6
CONTINUOUS
 10
231.76395011342689
 20
169.06666107868369
 30
0.0
 11
231.76395011342689
 21
168.41666107868369
 31
0.0
  0
LINE
  5
2E7E
  8
DANMEN
  6
CONTINUOUS
 10
232.26395011342689
 20
167.91666107868369
 30
0.0
 11
241.26395011342689
 21
167.91666107868369
 31
0.0
  0
ARC
  5
2E7F
  8
DANMEN
  6
CONTINUOUS
 10
232.26395011342689
 20
168.41666107868369
 30
0.0
 40
0.5
 50
180.00001866933439
 51
270.00000068324448
  0
LINE
  5
2E80
  8
DANMEN
  6
CONTINUOUS
 10
232.26395011342689
 20
169.56666107868369
 30
0.0
 11
241.26395011342689
 21
169.56666107868369
 31
0.0
  0
ARC
  5
2E81
  8
DANMEN
  6
CONTINUOUS
 10
232.26395011342689
 20
169.06666107868369
 30
0.0
 40
0.5
 50
89.999982013910966
 51
180.00001866933439
  0
LINE
  5
2E82
  8
DANMEN
  6
CONTINUOUS
 10
242.91394400991121
 20
169.56666107868369
 30
0.0
 11
254.61395621694251
 21
169.56666107868369
 31
0.0
  0
LINE
  5
2E83
  8
DANMEN
  6
CONTINUOUS
 10
242.91394400991121
 20
167.91666107868369
 30
0.0
 11
254.26395011342689
 21
167.91666107868369
 31
0.0
  0
LINE
  5
2E84
  8
DANMEN
  6
CONTINUOUS
 10
270.76395011342692
 20
224.56666107868369
 30
0.0
 11
241.76395011342689
 21
224.56666107868369
 31
0.0
  0
LINE
  5
2E85
  8
DANMEN
  6
CONTINUOUS
 10
254.26395011342689
 20
222.91666107868369
 30
0.0
 11
242.91395011342689
 21
222.91666107868369
 31
0.0
  0
LINE
  5
2E86
  8
DANMEN
  6
CONTINUOUS
 10
294.76395011342692
 20
216.56666107868369
 30
0.0
 11
256.26395011342692
 21
216.56666107868369
 31
0.0
  0
LINE
  5
2E87
  8
DANMEN
  6
CONTINUOUS
 10
295.26395011342692
 20
216.06666107868369
 30
0.0
 11
295.26395011342692
 21
209.06666107868369
 31
0.0
  0
LINE
  5
2E88
  8
DANMEN
  6
CONTINUOUS
 10
271.2639501134268
 20
224.06666107868369
 30
0.0
 11
271.2639501134268
 21
223.41666107868369
 31
0.0
  0
ARC
  5
2E89
  8
DANMEN
  6
CONTINUOUS
 10
270.76395011342692
 20
224.06666107868369
 30
0.0
 40
0.5
 50
0.0
 51
90.0
  0
LINE
  5
2E8A
  8
DANMEN
  6
CONTINUOUS
 10
256.26395011342692
 20
223.4666610786837
 30
0.0
 11
256.26395011342692
 21
216.56666107868369
 31
0.0
  0
LINE
  5
2E8B
  8
DANMEN
  6
CONTINUOUS
 10
270.76395011342692
 20
222.91666107868369
 30
0.0
 11
258.26395011342692
 21
222.91666107868369
 31
0.0
  0
ARC
  5
2E8C
  8
DANMEN
  6
CONTINUOUS
 10
270.76395011342692
 20
223.41666107868369
 30
0.0
 40
0.5
 50
270.0
 51
0.0
  0
LINE
  5
2E8D
  8
DANMEN
  6
CONTINUOUS
 10
258.26395011342692
 20
223.4666610786837
 30
0.0
 11
258.26395011342692
 21
222.91666107868369
 31
0.0
  0
LINE
  5
2E8E
  8
DANMEN
  6
CONTINUOUS
 10
258.26395011342692
 20
223.4666610786837
 30
0.0
 11
256.26395011342692
 21
223.4666610786837
 31
0.0
  0
LINE
  5
2E8F
  8
DANMEN
  6
CONTINUOUS
 10
294.16395011342689
 20
214.91666107868369
 30
0.0
 11
282.26395011342692
 21
214.91666107868369
 31
0.0
  0
LINE
  5
2E90
  8
DANMEN
  6
CONTINUOUS
 10
256.26395011342692
 20
214.91666107868369
 30
0.0
 11
256.26395011342692
 21
152.06666107868369
 31
0.0
  0
LINE
  5
2E91
  8
DANMEN
  6
CONTINUOUS
 10
294.76395011342692
 20
208.56666107868369
 30
0.0
 11
288.26395011342692
 21
208.56666107868369
 31
0.0
  0
LINE
  5
2E92
  8
DANMEN
  6
CONTINUOUS
 10
288.26395011342692
 20
209.26666107868371
 30
0.0
 11
288.26395011342692
 21
208.56666107868369
 31
0.0
  0
LINE
  5
2E93
  8
DANMEN
  6
CONTINUOUS
 10
293.61395011342688
 20
209.76666107868371
 30
0.0
 11
288.76395011342692
 21
209.76666107868371
 31
0.0
  0
LINE
  5
2E94
  8
DANMEN
  6
CONTINUOUS
 10
293.61395011342688
 20
212.91666107868369
 30
0.0
 11
293.61395011342688
 21
209.76666107868371
 31
0.0
  0
ARC
  5
2E95
  8
DANMEN
  6
CONTINUOUS
 10
288.76395011342692
 20
209.26666107868371
 30
0.0
 40
0.5
 50
90.0
 51
180.0
  0
ARC
  5
2E96
  8
DANMEN
  6
CONTINUOUS
 10
294.76395011342692
 20
209.06666107868369
 30
0.0
 40
0.5
 50
270.0
 51
0.0
  0
ARC
  5
2E97
  8
DANMEN
  6
CONTINUOUS
 10
294.76395011342692
 20
216.06666107868369
 30
0.0
 40
0.5
 50
0.0
 51
90.0
  0
LINE
  5
2E98
  8
DANMEN
  6
CONTINUOUS
 10
254.26395011342689
 20
222.91666107868369
 30
0.0
 11
254.26395011342689
 21
172.56666107868369
 31
0.0
  0
LINE
  5
2E99
  8
DANMEN
  6
CONTINUOUS
 10
256.26395011342692
 20
146.06666107868369
 30
0.0
 11
256.26395011342692
 21
141.86666107868371
 31
0.0
  0
LINE
  5
2E9A
  8
DANMEN
  6
CONTINUOUS
 10
258.26395011342692
 20
126.2166610786837
 30
0.0
 11
258.26395011342692
 21
125.6666610786837
 31
0.0
  0
LINE
  5
2E9B
  8
DANMEN
  6
CONTINUOUS
 10
258.26395011342692
 20
125.6666610786837
 30
0.0
 11
256.26395011342692
 21
125.6666610786837
 31
0.0
  0
LINE
  5
2E9C
  8
DANMEN
  6
CONTINUOUS
 10
254.26395011342689
 20
167.91666107868369
 30
0.0
 11
254.26395011342689
 21
157.06666107868369
 31
0.0
  0
LINE
  5
2E9D
  8
DANMEN
  6
CONTINUOUS
 10
254.61395011342691
 20
172.56666107868369
 30
0.0
 11
254.61395011342691
 21
169.56666107868369
 31
0.0
  0
LINE
  5
2E9E
  8
DANMEN
  6
CONTINUOUS
 10
254.61395011342691
 20
172.56666107868369
 30
0.0
 11
254.26395011342689
 21
172.56666107868369
 31
0.0
  0
LINE
  5
2E9F
  8
DANMEN
  6
CONTINUOUS
 10
282.26395011342692
 20
214.91666107868369
 30
0.0
 11
282.26395011342692
 21
209.06666107868369
 31
0.0
  0
LINE
  5
2EA0
  8
DANMEN
  6
CONTINUOUS
 10
281.26395011342692
 20
214.91666107868369
 30
0.0
 11
281.26395011342692
 21
209.06666107868369
 31
0.0
  0
ARC
  5
2EA1
  8
DANMEN
  6
CONTINUOUS
 10
281.76395011342692
 20
209.06666107868369
 30
0.0
 40
0.5
 50
180.0
 51
0.0
  0
LINE
  5
2EA2
  8
DANMEN
  6
CONTINUOUS
 10
281.26395011342692
 20
214.91666107868369
 30
0.0
 11
256.26395011342692
 21
214.91666107868369
 31
0.0
  0
LINE
  5
2EA3
  8
DANMEN
  6
CONTINUOUS
 10
294.16395011342689
 20
214.91666107868369
 30
0.0
 11
294.16395011342689
 21
212.91666107868369
 31
0.0
  0
LINE
  5
2EA4
  8
DANMEN
  6
CONTINUOUS
 10
294.16395011342689
 20
212.91666107868369
 30
0.0
 11
293.61395011342688
 21
212.91666107868369
 31
0.0
  0
LINE
  5
2EA5
  8
DANMEN
  6
CONTINUOUS
 10
241.76395011342689
 20
124.56666107868369
 30
0.0
 11
270.76395011342692
 21
124.56666107868369
 31
0.0
  0
LINE
  5
2EA6
  8
DANMEN
  6
CONTINUOUS
 10
269.61395011342682
 20
126.2166610786837
 30
0.0
 11
258.26395011342692
 21
126.2166610786837
 31
0.0
  0
LINE
  5
2EA7
  8
DANMEN
  6
CONTINUOUS
 10
269.76395011342692
 20
142.26666107868371
 30
0.0
 11
258.26395011342692
 21
142.26666107868371
 31
0.0
  0
LINE
  5
2EA8
  8
DANMEN
  6
CONTINUOUS
 10
269.76395011342692
 20
140.76666107868371
 30
0.0
 11
256.26395011342692
 21
140.76666107868371
 31
0.0
  0
ARC
  5
2EA9
  8
DANMEN
  6
CONTINUOUS
 10
270.26395011342692
 20
144.06666107868369
 30
0.0
 40
0.5
 50
90.0
 51
180.0
  0
ARC
  5
2EAA
  8
DANMEN
  6
CONTINUOUS
 10
270.76395011342692
 20
144.06666107868369
 30
0.0
 40
0.5
 50
0.0
 51
90.0
  0
LINE
  5
2EAB
  8
DANMEN
  6
CONTINUOUS
 10
270.76395011342692
 20
144.56666107868369
 30
0.0
 11
270.26395011342692
 21
144.56666107868369
 31
0.0
  0
LINE
  5
2EAC
  8
DANMEN
  6
CONTINUOUS
 10
269.76395011342692
 20
144.06666107868369
 30
0.0
 11
269.76395011342692
 21
142.26666107868371
 31
0.0
  0
LINE
  5
2EAD
  8
DANMEN
  6
CONTINUOUS
 10
271.2639501134268
 20
144.06666107868369
 30
0.0
 11
271.2639501134268
 21
142.26666107868371
 31
0.0
  0
ARC
  5
2EAE
  8
DANMEN
  6
CONTINUOUS
 10
270.76395011342692
 20
125.06666107868369
 30
0.0
 40
0.5
 50
270.0
 51
0.0
  0
LINE
  5
2EAF
  8
DANMEN
  6
CONTINUOUS
 10
270.26395011342692
 20
133.56666107868369
 30
0.0
 11
270.11395011342682
 21
133.56666107868369
 31
0.0
  0
LINE
  5
2EB0
  8
DANMEN
  6
CONTINUOUS
 10
271.2639501134268
 20
132.56666107868369
 30
0.0
 11
271.2639501134268
 21
125.06666107868369
 31
0.0
  0
LINE
  5
2EB1
  8
DANMEN
  6
CONTINUOUS
 10
269.61395011342682
 20
133.06666107868369
 30
0.0
 11
269.61395011342682
 21
126.2166610786837
 31
0.0
  0
ARC
  5
2EB2
  8
DANMEN
  6
CONTINUOUS
 10
270.11395011342682
 20
133.06666107868369
 30
0.0
 40
0.5
 50
90.0
 51
180.0
  0
ARC
  5
2EB3
  8
DANMEN
  6
CONTINUOUS
 10
270.26395011342692
 20
132.56666107868369
 30
0.0
 40
1.0
 50
0.0
 51
90.0
  0
ARC
  5
2EB4
  8
DANMEN
  6
CONTINUOUS
 10
241.76395011342689
 20
125.06666107868369
 30
0.0
 40
0.5
 50
180.0
 51
270.0
  0
LINE
  5
2EB5
  8
DANMEN
  6
CONTINUOUS
 10
440.26394712410979
 20
152.06666107868369
 30
0.0
 11
440.26394712410979
 21
146.06666107868369
 31
0.0
  0
LINE
  5
2EB6
  8
DANMEN
  6
CONTINUOUS
 10
448.26394712410979
 20
152.06666107868369
 30
0.0
 11
448.26394712410979
 21
146.06666107868369
 31
0.0
  0
LINE
  5
2EB7
  8
DANMEN
  6
CONTINUOUS
 10
438.26394712410968
 20
142.26666107868371
 30
0.0
 11
438.26394712410968
 21
141.86666107868371
 31
0.0
  0
LINE
  5
2EB8
  8
DANMEN
  6
CONTINUOUS
 10
438.26394712410968
 20
141.86666107868371
 30
0.0
 11
440.26394712410979
 21
141.86666107868371
 31
0.0
  0
ARC
  5
2EB9
  8
DANMEN
  6
CONTINUOUS
 10
426.76394712410968
 20
142.26666107868371
 30
0.0
 40
1.5
 50
180.0
 51
270.0
  0
LINE
  5
2EBA
  8
DANMEN
  6
CONTINUOUS
 10
440.26394712410979
 20
140.76666107868371
 30
0.0
 11
440.26394712410979
 21
125.6666610786837
 31
0.0
  0
LINE
  5
2EBB
  8
DANMEN
  6
CONTINUOUS
 10
442.26394712410968
 20
141.06666107868369
 30
0.0
 11
442.26394712410968
 21
126.2166610786837
 31
0.0
  0
LINE
  5
2EBC
  8
DANMEN
  6
CONTINUOUS
 10
448.26394712410979
 20
157.06666107868369
 30
0.0
 11
442.26394712410968
 21
157.06666107868369
 31
0.0
  0
ARC
  5
2EBD
  8
DANMEN
  6
CONTINUOUS
 10
448.26394712410979
 20
155.06666107868369
 30
0.0
 40
2.0
 50
0.0
 51
90.0
  0
LINE
  5
2EBE
  8
DANMEN
  6
CONTINUOUS
 10
450.26394712410968
 20
155.06666107868369
 30
0.0
 11
450.26394712410968
 21
152.56666107868369
 31
0.0
  0
LINE
  5
2EBF
  8
DANMEN
  6
CONTINUOUS
 10
447.26394712410968
 20
146.06666107868369
 30
0.0
 11
447.26394712410968
 21
145.4808746410568
 31
0.0
  0
ARC
  5
2EC0
  8
DANMEN
  6
CONTINUOUS
 10
447.76394712410968
 20
145.4808746410568
 30
0.0
 40
0.5
 50
180.0
 51
250.5287793655103
  0
ARC
  5
2EC1
  8
DANMEN
  6
CONTINUOUS
 10
447.76394712410968
 20
152.65244751631059
 30
0.0
 40
0.5
 50
109.4712206344896
 51
180.0
  0
ARC
  5
2EC2
  8
DANMEN
  6
CONTINUOUS
 10
447.26394712410968
 20
144.06666107868369
 30
0.0
 40
1.0
 50
0.0
 51
70.528779365508854
  0
ARC
  5
2EC3
  8
DANMEN
  6
CONTINUOUS
 10
447.26394712410968
 20
154.06666107868369
 30
0.0
 40
1.0
 50
289.47122063449109
 51
0.0
  0
ARC
  5
2EC4
  8
DANMEN
  6
CONTINUOUS
 10
447.76394712410968
 20
154.56666107868369
 30
0.0
 40
0.5
 50
0.0
 51
90.0
  0
ARC
  5
2EC5
  8
DANMEN
  6
CONTINUOUS
 10
447.76394712410968
 20
143.56666107868369
 30
0.0
 40
0.5
 50
270.0
 51
0.0
  0
LINE
  5
2EC6
  8
DANMEN
  6
CONTINUOUS
 10
448.26394712410979
 20
154.56666107868369
 30
0.0
 11
448.26394712410979
 21
154.06666107868369
 31
0.0
  0
LINE
  5
2EC7
  8
DANMEN
  6
CONTINUOUS
 10
448.26394712410979
 20
144.06666107868369
 30
0.0
 11
448.26394712410979
 21
143.56666107868369
 31
0.0
  0
LINE
  5
2EC8
  8
DANMEN
  6
CONTINUOUS
 10
447.26394712410968
 20
152.65244751631059
 30
0.0
 11
447.26394712410968
 21
152.06666107868369
 31
0.0
  0
LINE
  5
2EC9
  8
DANMEN
  6
CONTINUOUS
 10
450.06394713603049
 20
152.06666107868369
 30
0.0
 11
447.26394712410968
 21
152.06666107868369
 31
0.0
  0
LINE
  5
2ECA
  8
DANMEN
  6
CONTINUOUS
 10
450.06394712410969
 20
146.06666107868369
 30
0.0
 11
447.26394712410968
 21
146.06666107868369
 31
0.0
  0
LINE
  5
2ECB
  8
DANMEN
  6
CONTINUOUS
 10
447.76394712410968
 20
155.06666107868369
 30
0.0
 11
442.26394712410968
 21
155.06666107868369
 31
0.0
  0
LINE
  5
2ECC
  8
DANMEN
  6
CONTINUOUS
 10
440.26394712410979
 20
146.06666107868369
 30
0.0
 11
442.76394712410968
 21
146.06666107868369
 31
0.0
  0
LINE
  5
2ECD
  8
DANMEN
  6
CONTINUOUS
 10
440.26394712410979
 20
152.06666107868369
 30
0.0
 11
442.76394712410968
 21
152.06666107868369
 31
0.0
  0
LINE
  5
2ECE
  8
DANMEN
  6
CONTINUOUS
 10
442.76394712410968
 20
152.65244751631059
 30
0.0
 11
442.76394712410968
 21
152.06666107868369
 31
0.0
  0
LINE
  5
2ECF
  8
DANMEN
  6
CONTINUOUS
 10
447.76394712410968
 20
143.06666107868369
 30
0.0
 11
442.26394712410968
 21
143.06666107868369
 31
0.0
  0
LINE
  5
2ED0
  8
DANMEN
  6
CONTINUOUS
 10
441.76394712410979
 20
144.06666107868369
 30
0.0
 11
441.76394712410979
 21
143.56666107868369
 31
0.0
  0
LINE
  5
2ED1
  8
DANMEN
  6
CONTINUOUS
 10
441.76394712410979
 20
154.56666107868369
 30
0.0
 11
441.76394712410979
 21
154.06666107868369
 31
0.0
  0
ARC
  5
2ED2
  8
DANMEN
  6
CONTINUOUS
 10
442.26394712410968
 20
143.56666107868369
 30
0.0
 40
0.5
 50
180.0
 51
270.0
  0
ARC
  5
2ED3
  8
DANMEN
  6
CONTINUOUS
 10
442.26394712410968
 20
154.56666107868369
 30
0.0
 40
0.5
 50
90.0
 51
180.0
  0
ARC
  5
2ED4
  8
DANMEN
  6
CONTINUOUS
 10
442.76394712410968
 20
154.06666107868369
 30
0.0
 40
1.0
 50
180.0
 51
250.5287793655088
  0
ARC
  5
2ED5
  8
DANMEN
  6
CONTINUOUS
 10
442.76394712410968
 20
144.06666107868369
 30
0.0
 40
1.0
 50
109.4712206344911
 51
180.0
  0
ARC
  5
2ED6
  8
DANMEN
  6
CONTINUOUS
 10
442.26394712410968
 20
152.65244751631059
 30
0.0
 40
0.5
 50
0.0
 51
70.528779365510388
  0
ARC
  5
2ED7
  8
DANMEN
  6
CONTINUOUS
 10
442.26394712410968
 20
145.4808746410568
 30
0.0
 40
0.5
 50
289.47122063448961
 51
0.0
  0
LINE
  5
2ED8
  8
DANMEN
  6
CONTINUOUS
 10
442.76394712410968
 20
146.06666107868369
 30
0.0
 11
442.76394712410968
 21
145.4808746410568
 31
0.0
  0
LINE
  5
2ED9
  8
DANMEN
  6
CONTINUOUS
 10
448.26394712410979
 20
141.06666107868369
 30
0.0
 11
442.26394712410968
 21
141.06666107868369
 31
0.0
  0
LINE
  5
2EDA
  8
DANMEN
  6
CONTINUOUS
 10
450.26394712410968
 20
145.56666107868369
 30
0.0
 11
450.26394712410968
 21
143.06666107868369
 31
0.0
  0
LINE
  5
2EDB
  8
DANMEN
  6
CONTINUOUS
 10
450.26394712410968
 20
152.56666107868369
 30
0.0
 11
450.06394712410969
 21
152.0666610488814
 31
0.0
  0
LINE
  5
2EDC
  8
DANMEN
  6
CONTINUOUS
 10
450.06394712410969
 20
146.06666107868369
 30
0.0
 11
450.26394712410968
 21
145.56666107868369
 31
0.0
  0
ARC
  5
2EDD
  8
DANMEN
  6
CONTINUOUS
 10
448.26394712410979
 20
143.06666107868369
 30
0.0
 40
2.0
 50
270.0
 51
0.0
  0
LINE
  5
2EDE
  8
DANMEN
  6
CONTINUOUS
 10
454.1139471241097
 20
133.06666107868369
 30
0.0
 11
454.76394712410968
 21
133.06666107868369
 31
0.0
  0
ARC
  5
2EDF
  8
DANMEN
  6
CONTINUOUS
 10
454.1139471241097
 20
132.56666107868369
 30
0.0
 40
0.5
 50
90.0
 51
180.0
  0
ARC
  5
2EE0
  8
DANMEN
  6
CONTINUOUS
 10
454.76394712410968
 20
132.56666107868369
 30
0.0
 40
0.5
 50
0.0
 51
90.0
  0
LINE
  5
2EE1
  8
DANMEN
  6
CONTINUOUS
 10
453.61394712410981
 20
132.56666107868369
 30
0.0
 11
453.61394712410981
 21
126.2166610786837
 31
0.0
  0
LINE
  5
2EE2
  8
DANMEN
  6
CONTINUOUS
 10
455.26394712410968
 20
132.56666107868369
 30
0.0
 11
455.26394712410968
 21
125.06666107868369
 31
0.0
  0
LINE
  5
2EE3
  8
DANMEN
  6
CONTINUOUS
 10
442.26394712410968
 20
126.2166610786837
 30
0.0
 11
453.61394712410981
 21
126.2166610786837
 31
0.0
  0
ARC
  5
2EE4
  8
DANMEN
  6
CONTINUOUS
 10
454.76394712410968
 20
224.06666107868369
 30
0.0
 40
0.5
 50
0.0
 51
90.0
  0
LINE
  5
2EE5
  8
DANMEN
  6
CONTINUOUS
 10
453.61394712410981
 20
222.91666107868369
 30
0.0
 11
453.61394712410981
 21
169.56666107868369
 31
0.0
  0
LINE
  5
2EE6
  8
DANMEN
  6
CONTINUOUS
 10
455.26394712410968
 20
224.06666107868369
 30
0.0
 11
455.26394712410968
 21
169.56666107868369
 31
0.0
  0
LINE
  5
2EE7
  8
DANMEN
  6
CONTINUOUS
 10
455.26394712410968
 20
167.91666107868369
 30
0.0
 11
455.26394712410968
 21
165.56666107868369
 31
0.0
  0
LINE
  5
2EE8
  8
DANMEN
  6
CONTINUOUS
 10
454.76394712410968
 20
165.06666107868369
 30
0.0
 11
454.1139532276253
 21
165.06666107868369
 31
0.0
  0
LINE
  5
2EE9
  8
DANMEN
  6
CONTINUOUS
 10
453.6139532276253
 20
167.91666107868369
 30
0.0
 11
453.6139532276253
 21
165.56666107868369
 31
0.0
  0
ARC
  5
2EEA
  8
DANMEN
  6
CONTINUOUS
 10
454.76394712410968
 20
165.56666107868369
 30
0.0
 40
0.5
 50
270.00003665542431
 51
359.99996402782108
  0
ARC
  5
2EEB
  8
DANMEN
  6
CONTINUOUS
 10
454.1139532276253
 20
165.56666107868369
 30
0.0
 40
0.5
 50
180.00001866933519
 51
269.99998201391088
  0
LINE
  5
2EEC
  8
DANMEN
  6
CONTINUOUS
 10
464.76394712410979
 20
169.06666107868369
 30
0.0
 11
464.76394712410979
 21
168.41666107868369
 31
0.0
  0
LINE
  5
2EED
  8
DANMEN
  6
CONTINUOUS
 10
464.26394712410968
 20
167.91666107868369
 30
0.0
 11
455.26394712410968
 21
167.91666107868369
 31
0.0
  0
ARC
  5
2EEE
  8
DANMEN
  6
CONTINUOUS
 10
464.26394712410968
 20
168.41666107868369
 30
0.0
 40
0.5
 50
269.99999931675541
 51
359.99998133066549
  0
LINE
  5
2EEF
  8
DANMEN
  6
CONTINUOUS
 10
464.26394712410968
 20
169.56666107868369
 30
0.0
 11
455.26394712410968
 21
169.56666107868369
 31
0.0
  0
ARC
  5
2EF0
  8
DANMEN
  6
CONTINUOUS
 10
464.26394712410968
 20
169.06666107868369
 30
0.0
 40
0.5
 50
359.99998133066549
 51
90.000017986089034
  0
LINE
  5
2EF1
  8
DANMEN
  6
CONTINUOUS
 10
453.6139532276253
 20
169.56666107868369
 30
0.0
 11
441.91394102059411
 21
169.56666107868369
 31
0.0
  0
LINE
  5
2EF2
  8
DANMEN
  6
CONTINUOUS
 10
453.6139532276253
 20
167.91666107868369
 30
0.0
 11
442.26394712410968
 21
167.91666107868369
 31
0.0
  0
LINE
  5
2EF3
  8
DANMEN
  6
CONTINUOUS
 10
425.76394712410968
 20
224.56666107868369
 30
0.0
 11
454.76394712410968
 21
224.56666107868369
 31
0.0
  0
LINE
  5
2EF4
  8
DANMEN
  6
CONTINUOUS
 10
442.26394712410968
 20
222.91666107868369
 30
0.0
 11
453.61394712410981
 21
222.91666107868369
 31
0.0
  0
LINE
  5
2EF5
  8
DANMEN
  6
CONTINUOUS
 10
401.76394712410968
 20
216.56666107868369
 30
0.0
 11
440.26394712410979
 21
216.56666107868369
 31
0.0
  0
LINE
  5
2EF6
  8
DANMEN
  6
CONTINUOUS
 10
401.26394712410968
 20
216.06666107868369
 30
0.0
 11
401.26394712410968
 21
209.06666107868369
 31
0.0
  0
LINE
  5
2EF7
  8
DANMEN
  6
CONTINUOUS
 10
425.26394712410968
 20
224.06666107868369
 30
0.0
 11
425.26394712410968
 21
223.41666107868369
 31
0.0
  0
ARC
  5
2EF8
  8
DANMEN
  6
CONTINUOUS
 10
425.76394712410968
 20
224.06666107868369
 30
0.0
 40
0.5
 50
90.0
 51
180.0
  0
LINE
  5
2EF9
  8
DANMEN
  6
CONTINUOUS
 10
440.26394712410979
 20
223.4666610786837
 30
0.0
 11
440.26394712410979
 21
216.56666107868369
 31
0.0
  0
LINE
  5
2EFA
  8
DANMEN
  6
CONTINUOUS
 10
425.76394712410968
 20
222.91666107868369
 30
0.0
 11
438.26394712410968
 21
222.91666107868369
 31
0.0
  0
ARC
  5
2EFB
  8
DANMEN
  6
CONTINUOUS
 10
425.76394712410968
 20
223.41666107868369
 30
0.0
 40
0.5
 50
180.0
 51
270.0
  0
LINE
  5
2EFC
  8
DANMEN
  6
CONTINUOUS
 10
438.26394712410968
 20
223.4666610786837
 30
0.0
 11
438.26394712410968
 21
222.91666107868369
 31
0.0
  0
LINE
  5
2EFD
  8
DANMEN
  6
CONTINUOUS
 10
438.26394712410968
 20
223.4666610786837
 30
0.0
 11
440.26394712410979
 21
223.4666610786837
 31
0.0
  0
LINE
  5
2EFE
  8
DANMEN
  6
CONTINUOUS
 10
402.36394712410959
 20
214.91666107868369
 30
0.0
 11
414.26394712410968
 21
214.91666107868369
 31
0.0
  0
LINE
  5
2EFF
  8
DANMEN
  6
CONTINUOUS
 10
440.26394712410979
 20
214.91666107868369
 30
0.0
 11
440.26394712410979
 21
152.06666107868369
 31
0.0
  0
LINE
  5
2F00
  8
DANMEN
  6
CONTINUOUS
 10
401.76394712410968
 20
208.56666107868369
 30
0.0
 11
408.26394712410979
 21
208.56666107868369
 31
0.0
  0
LINE
  5
2F01
  8
DANMEN
  6
CONTINUOUS
 10
408.26394712410979
 20
209.26666107868371
 30
0.0
 11
408.26394712410979
 21
208.56666107868369
 31
0.0
  0
LINE
  5
2F02
  8
DANMEN
  6
CONTINUOUS
 10
402.91394712410971
 20
209.76666107868371
 30
0.0
 11
407.76394712410979
 21
209.76666107868371
 31
0.0
  0
LINE
  5
2F03
  8
DANMEN
  6
CONTINUOUS
 10
402.91394712410971
 20
212.91666107868369
 30
0.0
 11
402.91394712410971
 21
209.76666107868371
 31
0.0
  0
ARC
  5
2F04
  8
DANMEN
  6
CONTINUOUS
 10
407.76394712410979
 20
209.26666107868371
 30
0.0
 40
0.5
 50
0.0
 51
90.0
  0
ARC
  5
2F05
  8
DANMEN
  6
CONTINUOUS
 10
401.76394712410968
 20
209.06666107868369
 30
0.0
 40
0.5
 50
180.0
 51
270.0
  0
ARC
  5
2F06
  8
DANMEN
  6
CONTINUOUS
 10
401.76394712410968
 20
216.06666107868369
 30
0.0
 40
0.5
 50
90.0
 51
180.0
  0
LINE
  5
2F07
  8
DANMEN
  6
CONTINUOUS
 10
442.26394712410968
 20
222.91666107868369
 30
0.0
 11
442.26394712410968
 21
172.56666107868369
 31
0.0
  0
LINE
  5
2F08
  8
DANMEN
  6
CONTINUOUS
 10
440.26394712410979
 20
146.06666107868369
 30
0.0
 11
440.26394712410979
 21
141.86666107868371
 31
0.0
  0
LINE
  5
2F09
  8
DANMEN
  6
CONTINUOUS
 10
438.26394712410968
 20
126.2166610786837
 30
0.0
 11
438.26394712410968
 21
125.6666610786837
 31
0.0
  0
LINE
  5
2F0A
  8
DANMEN
  6
CONTINUOUS
 10
438.26394712410968
 20
125.6666610786837
 30
0.0
 11
440.26394712410979
 21
125.6666610786837
 31
0.0
  0
LINE
  5
2F0B
  8
DANMEN
  6
CONTINUOUS
 10
442.26394712410968
 20
167.91666107868369
 30
0.0
 11
442.26394712410968
 21
157.06666107868369
 31
0.0
  0
LINE
  5
2F0C
  8
DANMEN
  6
CONTINUOUS
 10
441.91394712410982
 20
172.56666107868369
 30
0.0
 11
441.91394712410982
 21
169.56666107868369
 31
0.0
  0
LINE
  5
2F0D
  8
DANMEN
  6
CONTINUOUS
 10
441.91394712410982
 20
172.56666107868369
 30
0.0
 11
442.26394712410968
 21
172.56666107868369
 31
0.0
  0
LINE
  5
2F0E
  8
DANMEN
  6
CONTINUOUS
 10
414.26394712410968
 20
214.91666107868369
 30
0.0
 11
414.26394712410968
 21
209.06666107868369
 31
0.0
  0
LINE
  5
2F0F
  8
DANMEN
  6
CONTINUOUS
 10
415.26394712410979
 20
214.91666107868369
 30
0.0
 11
415.26394712410979
 21
209.06666107868369
 31
0.0
  0
ARC
  5
2F10
  8
DANMEN
  6
CONTINUOUS
 10
414.76394712410968
 20
209.06666107868369
 30
0.0
 40
0.5
 50
180.0
 51
0.0
  0
LINE
  5
2F11
  8
DANMEN
  6
CONTINUOUS
 10
415.26394712410979
 20
214.91666107868369
 30
0.0
 11
440.26394712410979
 21
214.91666107868369
 31
0.0
  0
LINE
  5
2F12
  8
DANMEN
  6
CONTINUOUS
 10
402.36394712410959
 20
214.91666107868369
 30
0.0
 11
402.36394712410959
 21
212.91666107868369
 31
0.0
  0
LINE
  5
2F13
  8
DANMEN
  6
CONTINUOUS
 10
402.36394712410959
 20
212.91666107868369
 30
0.0
 11
402.91394712410971
 21
212.91666107868369
 31
0.0
  0
LINE
  5
2F14
  8
DANMEN
  6
CONTINUOUS
 10
454.76394712410968
 20
124.56666107868369
 30
0.0
 11
425.76394712410968
 21
124.56666107868369
 31
0.0
  0
LINE
  5
2F15
  8
DANMEN
  6
CONTINUOUS
 10
426.91394712410971
 20
126.2166610786837
 30
0.0
 11
438.26394712410968
 21
126.2166610786837
 31
0.0
  0
LINE
  5
2F16
  8
DANMEN
  6
CONTINUOUS
 10
426.76394712410968
 20
142.26666107868371
 30
0.0
 11
438.26394712410968
 21
142.26666107868371
 31
0.0
  0
LINE
  5
2F17
  8
DANMEN
  6
CONTINUOUS
 10
426.76394712410968
 20
140.76666107868371
 30
0.0
 11
440.26394712410979
 21
140.76666107868371
 31
0.0
  0
ARC
  5
2F18
  8
DANMEN
  6
CONTINUOUS
 10
426.26394712410968
 20
144.06666107868369
 30
0.0
 40
0.5
 50
0.0
 51
90.0
  0
ARC
  5
2F19
  8
DANMEN
  6
CONTINUOUS
 10
425.76394712410968
 20
144.06666107868369
 30
0.0
 40
0.5
 50
90.0
 51
180.0
  0
LINE
  5
2F1A
  8
DANMEN
  6
CONTINUOUS
 10
425.76394712410968
 20
144.56666107868369
 30
0.0
 11
426.26394712410968
 21
144.56666107868369
 31
0.0
  0
LINE
  5
2F1B
  8
DANMEN
  6
CONTINUOUS
 10
426.76394712410968
 20
144.06666107868369
 30
0.0
 11
426.76394712410968
 21
142.26666107868371
 31
0.0
  0
LINE
  5
2F1C
  8
DANMEN
  6
CONTINUOUS
 10
425.26394712410968
 20
144.06666107868369
 30
0.0
 11
425.26394712410968
 21
142.26666107868371
 31
0.0
  0
ARC
  5
2F1D
  8
DANMEN
  6
CONTINUOUS
 10
425.76394712410968
 20
125.06666107868369
 30
0.0
 40
0.5
 50
180.0
 51
270.0
  0
LINE
  5
2F1E
  8
DANMEN
  6
CONTINUOUS
 10
426.26394712410968
 20
133.56666107868369
 30
0.0
 11
426.41394712410971
 21
133.56666107868369
 31
0.0
  0
LINE
  5
2F1F
  8
DANMEN
  6
CONTINUOUS
 10
425.26394712410968
 20
132.56666107868369
 30
0.0
 11
425.26394712410968
 21
125.06666107868369
 31
0.0
  0
LINE
  5
2F20
  8
DANMEN
  6
CONTINUOUS
 10
426.91394712410971
 20
133.06666107868369
 30
0.0
 11
426.91394712410971
 21
126.2166610786837
 31
0.0
  0
ARC
  5
2F21
  8
DANMEN
  6
CONTINUOUS
 10
426.41394712410971
 20
133.06666107868369
 30
0.0
 40
0.5
 50
0.0
 51
90.0
  0
ARC
  5
2F22
  8
DANMEN
  6
CONTINUOUS
 10
426.26394712410968
 20
132.56666107868369
 30
0.0
 40
1.0
 50
90.0
 51
180.0
  0
ARC
  5
2F23
  8
DANMEN
  6
CONTINUOUS
 10
454.76394712410968
 20
125.06666107868369
 30
0.0
 40
0.5
 50
270.0
 51
0.0
  0
LINE
  5
2F24
  8
SUNPO
  6
CONTINUOUS
 10
392.26394920416328
 20
224.56666107868369
 30
0.0
 11
392.26394920416328
 21
216.56666107868369
 31
0.0
  0
LINE
  5
2F25
  8
SUNPO
  6
CONTINUOUS
 10
389.26394872732612
 20
216.56666107868369
 30
0.0
 11
392.26394920416328
 21
216.56666107868369
 31
0.0
  0
LINE
  5
2F26
  8
SUNPO
  6
CONTINUOUS
 10
397.26394920416328
 20
208.56666107868369
 30
0.0
 11
397.26394920416328
 21
216.56666107868369
 31
0.0
  0
LINE
  5
2F27
  8
SUNPO
  6
CONTINUOUS
 10
400.26394729681459
 20
216.56666107868369
 30
0.0
 11
397.26394920416328
 21
216.56666107868369
 31
0.0
  0
LINE
  5
2F28
  8
SUNPO
  6
CONTINUOUS
 10
400.26394729681459
 20
208.56666107868369
 30
0.0
 11
397.26394920416328
 21
208.56666107868369
 31
0.0
  0
LINE
  5
2F29
  8
SUNPO
  6
CONTINUOUS
 10
241.26395011342689
 20
100.56666107868369
 30
0.0
 11
231.76395011342689
 21
100.56666107868369
 31
0.0
  0
LINE
  5
2F2A
  8
SUNPO
  6
CONTINUOUS
 10
231.76395011342689
 20
166.41665955280479
 30
0.0
 11
231.76395011342689
 21
100.56666107868369
 31
0.0
  0
LINE
  5
2F2B
  8
SUNPO
  6
CONTINUOUS
 10
241.26395011342689
 20
123.06666107868369
 30
0.0
 11
241.26395011342689
 21
100.56666107868369
 31
0.0
  0
LINE
  5
2F2C
  8
SUNPO
  6
CONTINUOUS
 10
231.76395011342689
 20
240.56666107868369
 30
0.0
 11
241.26395011342689
 21
240.56666107868369
 31
0.0
  0
LINE
  5
2F2D
  8
SUNPO
  6
CONTINUOUS
 10
241.26395011342689
 20
226.06666107868369
 30
0.0
 11
241.26395011342689
 21
240.56666107868369
 31
0.0
  0
LINE
  5
2F2E
  8
SUNPO
  6
CONTINUOUS
 10
231.76395011342689
 20
171.06666107868369
 30
0.0
 11
231.76395011342689
 21
240.56666107868369
 31
0.0
  0
LINE
  5
2F2F
  8
SUNPO
  6
CONTINUOUS
 10
397.26394920416323
 20
124.56666107868369
 30
0.0
 11
397.26394920416323
 21
129.56666107868369
 31
0.0
  0
LINE
  5
2F30
  8
SUNPO
  6
CONTINUOUS
 10
397.26394920416328
 20
216.56666107868369
 30
0.0
 11
397.26394920416328
 21
224.56666107868369
 31
0.0
  0
LINE
  5
2F31
  8
SUNPO
  6
CONTINUOUS
 10
400.26394729681459
 20
216.56666107868369
 30
0.0
 11
397.26394920416328
 21
216.56666107868369
 31
0.0
  0
LINE
  5
2F32
  8
SUNPO
  6
CONTINUOUS
 10
440.26394712410979
 20
108.56666107868369
 30
0.0
 11
425.26394712410968
 21
108.56666107868369
 31
0.0
  0
LINE
  5
2F33
  8
SUNPO
  6
CONTINUOUS
 10
425.26394712410968
 20
123.06666107868369
 30
0.0
 11
425.26394712410968
 21
108.56666107868369
 31
0.0
  0
LINE
  5
2F34
  8
SUNPO
  6
CONTINUOUS
 10
440.26394712410979
 20
123.06666107868369
 30
0.0
 11
440.26394712410979
 21
108.56666107868369
 31
0.0
  0
LINE
  5
2F35
  8
SUNPO
  6
CONTINUOUS
 10
455.26394712410968
 20
108.56666107868369
 30
0.0
 11
440.26394712410979
 21
108.56666107868369
 31
0.0
  0
LINE
  5
2F36
  8
SUNPO
  6
CONTINUOUS
 10
440.26394712410979
 20
123.06666107868369
 30
0.0
 11
440.26394712410979
 21
108.56666107868369
 31
0.0
  0
LINE
  5
2F37
  8
SUNPO
  6
CONTINUOUS
 10
455.26394712410968
 20
123.06666107868369
 30
0.0
 11
455.26394712410968
 21
108.56666107868369
 31
0.0
  0
LINE
  5
2F38
  8
SUNPO
  6
CONTINUOUS
 10
271.2639501134268
 20
108.56666107868369
 30
0.0
 11
256.26395011342692
 21
108.56666107868369
 31
0.0
  0
LINE
  5
2F39
  8
SUNPO
  6
CONTINUOUS
 10
256.26395011342692
 20
123.06666107868369
 30
0.0
 11
256.26395011342692
 21
108.56666107868369
 31
0.0
  0
LINE
  5
2F3A
  8
SUNPO
  6
CONTINUOUS
 10
271.2639501134268
 20
123.06666107868369
 30
0.0
 11
271.2639501134268
 21
108.56666107868369
 31
0.0
  0
LINE
  5
2F3B
  8
SUNPO
  6
CONTINUOUS
 10
256.26395011342692
 20
108.56666107868369
 30
0.0
 11
241.26395011342689
 21
108.56666107868369
 31
0.0
  0
LINE
  5
2F3C
  8
SUNPO
  6
CONTINUOUS
 10
241.26395011342689
 20
123.56666107868369
 30
0.0
 11
241.26395011342689
 21
108.56666107868369
 31
0.0
  0
LINE
  5
2F3D
  8
SUNPO
  6
CONTINUOUS
 10
256.26395011342692
 20
123.06666107868369
 30
0.0
 11
256.26395011342692
 21
108.56666107868369
 31
0.0
  0
LINE
  5
2F3E
  8
DANMEN
  6
CONTINUOUS
 10
372.76394861876832
 20
197.8166501050826
 30
0.0
 11
372.76394861876832
 21
189.3166501050826
 31
0.0
  0
LINE
  5
2F3F
  8
DANMEN
  6
CONTINUOUS
 10
360.76394861876832
 20
197.8166501050826
 30
0.0
 11
372.76394861876832
 21
197.8166501050826
 31
0.0
  0
LINE
  5
2F40
  8
DANMEN
  6
CONTINUOUS
 10
360.76394861876832
 20
197.8166501050826
 30
0.0
 11
360.76394861876832
 21
189.3166501050826
 31
0.0
  0
LINE
  5
2F41
  8
DANMEN
  6
CONTINUOUS
 10
360.76394861876832
 20
189.3166501050826
 30
0.0
 11
372.76394861876832
 21
189.3166501050826
 31
0.0
  0
LINE
  5
2F42
  8
DANMEN
  6
CONTINUOUS
 10
372.76394861876832
 20
189.3166501050826
 30
0.0
 11
360.76394861876832
 21
197.8166501050826
 31
0.0
  0
LINE
  5
2F43
  8
DANMEN
  6
CONTINUOUS
 10
256.26395011342692
 20
189.06666107868369
 30
0.0
 11
256.26395011342692
 21
198.06666107868369
 31
0.0
  0
LINE
  5
2F44
  8
DANMEN
  6
CONTINUOUS
 10
279.26395011342692
 20
189.06666107868369
 30
0.0
 11
256.26395011342692
 21
189.06666107868369
 31
0.0
  0
LINE
  5
2F45
  8
DANMEN
  6
CONTINUOUS
 10
279.26395011342692
 20
198.06666107868369
 30
0.0
 11
256.26395011342692
 21
198.06666107868369
 31
0.0
  0
LINE
  5
2F46
  8
DANMEN
  6
CONTINUOUS
 10
279.26395011342692
 20
189.06666107868369
 30
0.0
 11
279.26395011342692
 21
198.06666107868369
 31
0.0
  0
LINE
  5
2F47
  8
DANMEN
  6
CONTINUOUS
 10
279.26395011342692
 20
198.06666107868369
 30
0.0
 11
256.26395011342692
 21
189.06666107868369
 31
0.0
  0
LINE
  5
2F48
  8
SUNPO
  6
CONTINUOUS
 10
455.26394712410968
 20
240.56666107868369
 30
0.0
 11
464.76394712410979
 21
240.56666107868369
 31
0.0
  0
LINE
  5
2F49
  8
SUNPO
  6
CONTINUOUS
 10
464.76394712410979
 20
171.06666107868369
 30
0.0
 11
464.76394712410979
 21
240.56666107868369
 31
0.0
  0
LINE
  5
2F4A
  8
SUNPO
  6
CONTINUOUS
 10
455.26394712410968
 20
226.06666107868369
 30
0.0
 11
455.26394712410968
 21
240.56666107868369
 31
0.0
  0
LINE
  5
2F4B
  8
SUNPO
  6
CONTINUOUS
 10
464.76394712410979
 20
100.56666107868369
 30
0.0
 11
455.26394712410968
 21
100.56666107868369
 31
0.0
  0
LINE
  5
2F4C
  8
SUNPO
  6
CONTINUOUS
 10
455.26394712410968
 20
123.06666107868369
 30
0.0
 11
455.26394712410968
 21
100.56666107868369
 31
0.0
  0
LINE
  5
2F4D
  8
SUNPO
  6
CONTINUOUS
 10
464.76394712410979
 20
166.41665955280479
 30
0.0
 11
464.76394712410979
 21
100.56666107868369
 31
0.0
  0
LINE
  5
2F4E
  8
SUNPO
  6
CONTINUOUS
 10
462.17632383217318
 20
224.56666107868369
 30
0.0
 11
462.17632383217318
 21
169.56666107868369
 31
0.0
  0
LINE
  5
2F4F
  8
SUNPO
  6
CONTINUOUS
 10
456.76394695152732
 20
224.56666107868369
 30
0.0
 11
462.17632383217318
 21
224.56666107868369
 31
0.0
  0
LINE
  5
2F50
  8
SUNPO
  6
CONTINUOUS
 10
462.17632383217318
 20
169.56666107868369
 30
0.0
 11
462.17632383217318
 21
124.56666107868369
 31
0.0
  0
LINE
  5
2F51
  8
SUNPO
  6
CONTINUOUS
 10
456.76394695152732
 20
124.56666107868369
 30
0.0
 11
462.17632383217318
 21
124.56666107868369
 31
0.0
  0
LINE
  5
2F52
  8
DANMEN
  6
DASHED
 10
176.26030503734401
 20
165.8502600070083
 30
0.0
 11
176.26030503734401
 21
165.25026057921289
 31
0.0
  0
LINE
  5
2F53
  8
DANMEN
  6
DASHED
 10
177.26030485853011
 20
166.75026057921289
 30
0.0
 11
178.76030408366969
 21
166.75026057921289
 31
0.0
  0
LINE
  5
2F54
  8
DANMEN
  6
DASHED
 10
177.76030503734401
 20
165.25026057921289
 30
0.0
 11
177.76030503734401
 21
156.05026023350601
 31
0.0
  0
LINE
  5
2F55
  8
DANMEN
  6
DASHED
 10
176.26030503734401
 20
165.25026057921289
 30
0.0
 11
177.76030503734401
 21
165.25026057921289
 31
0.0
  0
LINE
  5
2F56
  8
DANMEN
  6
DASHED
 10
176.26030527126801
 20
165.85025890561371
 30
0.0
 11
177.26030510716191
 21
166.75025933528519
 31
0.0
  0
LINE
  5
2F57
  8
DANMEN
  6
DASHED
 10
179.26030503734401
 20
165.85025905333401
 30
0.0
 11
179.26030503734401
 21
164.2502596255386
 31
0.0
  0
LINE
  5
2F58
  8
DANMEN
  6
DASHED
 10
178.76030437934659
 20
166.75025941079511
 30
0.0
 11
179.26030454415971
 21
165.85025853728351
 31
0.0
  0
LINE
  5
2F59
  8
DANMEN
  6
DASHED
 10
178.5603042744045
 20
159.62468169890289
 30
0.0
 11
178.5603042744045
 21
155.25026057921289
 31
0.0
  0
LINE
  5
2F5A
  8
DANMEN
  6
DASHED
 10
177.76030474352589
 20
156.0502603508053
 30
0.0
 11
178.16030431744679
 21
155.2502604565955
 31
0.0
  0
LINE
  5
2F5B
  8
DANMEN
  6
DASHED
 10
182.7603043570488
 20
166.75025943395221
 30
0.0
 11
182.26030465538059
 21
165.8502593941021
 31
0.0
  0
LINE
  5
2F5C
  8
DANMEN
  6
DASHED
 10
182.76030408366969
 20
166.75026057921289
 30
0.0
 11
185.76030503734401
 21
166.75026057921289
 31
0.0
  0
LINE
  5
2F5D
  8
DANMEN
  6
DASHED
 10
179.26030503734401
 20
165.8502600070083
 30
0.0
 11
189.26030503734401
 21
165.8502600070083
 31
0.0
  0
LINE
  5
2F5E
  8
DANMEN
  6
DASHED
 10
182.36030446513939
 20
164.2502596255386
 30
0.0
 11
182.36030446513939
 21
162.00560210905911
 31
0.0
  0
LINE
  5
2F5F
  8
DANMEN
  6
DASHED
 10
183.11030446513939
 20
164.2502596255386
 30
0.0
 11
183.11030446513939
 21
162.16156791411279
 31
0.0
  0
LINE
  5
2F60
  8
DANMEN
  6
DASHED
 10
179.26030503734401
 20
164.2502596255386
 30
0.0
 11
189.26030503734401
 21
164.2502596255386
 31
0.0
  0
LINE
  5
2F61
  8
DANMEN
  6
DASHED
 10
178.1603037022
 20
155.25026057921289
 30
0.0
 11
190.36030541881371
 21
155.25026057921289
 31
0.0
  0
LINE
  5
2F62
  8
DANMEN
  6
DASHED
 10
192.26030503734401
 20
165.25026057921289
 30
0.0
 11
192.26030503734401
 21
165.8502600070083
 31
0.0
  0
LINE
  5
2F63
  8
DANMEN
  6
DASHED
 10
189.7603059910183
 20
166.75026057921289
 30
0.0
 11
191.26030503734401
 21
166.75026057921289
 31
0.0
  0
LINE
  5
2F64
  8
DANMEN
  6
DASHED
 10
190.76030503734401
 20
156.05026023350601
 30
0.0
 11
190.76030503734401
 21
165.25026057921289
 31
0.0
  0
LINE
  5
2F65
  8
DANMEN
  6
DASHED
 10
190.76030503734401
 20
165.25026057921289
 30
0.0
 11
192.26030503734401
 21
165.25026057921289
 31
0.0
  0
LINE
  5
2F66
  8
DANMEN
  6
DASHED
 10
191.26030218588051
 20
166.7502572795899
 30
0.0
 11
192.26030202177441
 21
165.8502568499184
 31
0.0
  0
LINE
  5
2F67
  8
DANMEN
  6
DASHED
 10
189.26030503734401
 20
164.2502596255386
 30
0.0
 11
189.26030503734401
 21
165.85025905333401
 31
0.0
  0
LINE
  5
2F68
  8
DANMEN
  6
DASHED
 10
189.2603036350711
 20
165.85025770362211
 30
0.0
 11
189.76030055786961
 21
166.7502527415036
 31
0.0
  0
LINE
  5
2F69
  8
DANMEN
  6
DASHED
 10
189.96030580028341
 20
155.25026057921289
 30
0.0
 11
189.96030580028341
 21
159.62468169890289
 31
0.0
  0
LINE
  5
2F6A
  8
DANMEN
  6
DASHED
 10
190.36030337488151
 20
155.25025987016321
 30
0.0
 11
190.7603030987423
 21
156.05026006425319
 31
0.0
  0
LINE
  5
2F6B
  8
DANMEN
  6
DASHED
 10
186.26030444435051
 20
165.85025746626019
 30
0.0
 11
185.76030474268219
 21
166.7502575061103
 31
0.0
  0
LINE
  5
2F6C
  8
DANMEN
  6
DASHED
 10
186.1603056095486
 20
162.00560210905911
 30
0.0
 11
186.1603056095486
 21
164.2502596255386
 31
0.0
  0
LINE
  5
2F6D
  8
DANMEN
  6
DASHED
 10
185.4103056095486
 20
162.16156791411279
 30
0.0
 11
185.4103056095486
 21
164.2502596255386
 31
0.0
  0
ARC
  5
2F6E
  8
DANMEN
  6
DASHED
 10
184.26030503734401
 20
154.7502596255386
 30
0.0
 40
7.5
 50
40.53579302581376
 51
139.464157341629
  0
LINE
  5
2F6F
  8
DANMEN
  6
DASHED
 10
189.26030388913881
 20
164.2502595275194
 30
0.0
 11
187.76030414023401
 21
161.38350902715291
 31
0.0
  0
LINE
  5
2F70
  8
DANMEN
  6
DASHED
 10
179.2603049545101
 20
164.25025868252709
 30
0.0
 11
180.76030470341479
 21
161.3835081821606
 31
0.0
  0
LINE
  5
2F71
  8
DANMEN
  6
DASHED
 10
183.26030503734401
 20
160.4502613421524
 30
0.0
 11
185.26030503734401
 21
160.4502613421524
 31
0.0
  0
LINE
  5
2F72
  8
DANMEN
  6
DASHED
 10
176.76030503734401
 20
169.25026057921289
 30
0.0
 11
176.76030503734401
 21
165.25026057921289
 31
0.0
  0
LINE
  5
2F73
  8
DANMEN
  6
DASHED
 10
196.26030503734401
 20
169.25026057921289
 30
0.0
 11
196.26030503734401
 21
165.25026057921289
 31
0.0
  0
LINE
  5
2F74
  8
DANMEN
  6
DASHED
 10
181.76030503734401
 20
163.4502613421524
 30
0.0
 11
186.76030503734401
 21
163.4502613421524
 31
0.0
  0
LINE
  5
2F75
  8
DANMEN
  6
DASHED
 10
176.76030503734401
 20
165.25026057921289
 30
0.0
 11
178.26030503734401
 21
165.25026057921289
 31
0.0
  0
LINE
  5
2F76
  8
DANMEN
  6
DASHED
 10
177.76030503734401
 20
170.25026057921289
 30
0.0
 11
195.26030503734401
 21
170.25026057921289
 31
0.0
  0
ARC
  5
2F77
  8
DANMEN
  6
DASHED
 10
177.76030503734401
 20
169.25026057921289
 30
0.0
 40
1.0
 50
90.000017986089034
 51
179.9999640278219
  0
ARC
  5
2F78
  8
DANMEN
  6
DASHED
 10
195.26030503734401
 20
169.25026057921289
 30
0.0
 40
1.0
 50
0.0000359721788891
 51
90.000017986089034
  0
LINE
  5
2F79
  8
DANMEN
  6
DASHED
 10
178.26030503734401
 20
168.45026038847811
 30
0.0
 11
193.26030503734401
 21
168.45026038847811
 31
0.0
  0
LINE
  5
2F7A
  8
DANMEN
  6
DASHED
 10
178.26030503734401
 20
168.45026038847811
 30
0.0
 11
178.26030503734401
 21
165.25026057921289
 31
0.0
  0
LINE
  5
2F7B
  8
DANMEN
  6
DASHED
 10
185.260335807638
 20
160.45028181396589
 30
0.0
 11
186.76033287953979
 21
163.45027595776949
 31
0.0
  0
LINE
  5
2F7C
  8
DANMEN
  6
DASHED
 10
181.7603244426995
 20
163.4502418380803
 30
0.0
 11
183.26032151460129
 21
160.4502476942767
 31
0.0
  0
LINE
  5
2F7D
  8
DANMEN
  6
DASHED
 10
181.26030503734401
 20
168.45026038847811
 30
0.0
 11
181.26030503734401
 21
165.25026057921289
 31
0.0
  0
LINE
  5
2F7E
  8
DANMEN
  6
DASHED
 10
187.26030503734401
 20
168.45026038847811
 30
0.0
 11
187.26030503734401
 21
165.25026057921289
 31
0.0
  0
LINE
  5
2F7F
  8
DANMEN
  6
DASHED
 10
193.26030503734401
 20
165.25026057921289
 30
0.0
 11
196.26030503734401
 21
165.25026057921289
 31
0.0
  0
LINE
  5
2F80
  8
DANMEN
  6
DASHED
 10
181.26030503734401
 20
165.25026057921289
 30
0.0
 11
187.26030503734401
 21
165.25026057921289
 31
0.0
  0
LINE
  5
2F81
  8
DANMEN
  6
DASHED
 10
193.26030503734401
 20
168.45026038847811
 30
0.0
 11
193.26030503734401
 21
165.25026057921289
 31
0.0
  0
LINE
  5
2F82
  8
DANMEN
  6
DASHED
 10
185.76030503734401
 20
165.25026057921289
 30
0.0
 11
185.76030503734401
 21
163.4502613421524
 31
0.0
  0
LINE
  5
2F83
  8
DANMEN
  6
DASHED
 10
182.76030503734401
 20
165.25026057921289
 30
0.0
 11
182.76030503734401
 21
163.4502613421524
 31
0.0
  0
LINE
  5
2F84
  8
DANMEN
  6
CONTINUOUS
 10
162.56030456050689
 20
147.25026057921289
 30
0.0
 11
164.26030456050691
 21
147.25026057921289
 31
0.0
  0
LINE
  5
2F85
  8
DANMEN
  6
DASHED
 10
164.26030456050691
 20
150.25026057921289
 30
0.0
 11
168.76030456050691
 21
150.25026057921289
 31
0.0
  0
LINE
  5
2F86
  8
DANMEN
  6
DASHED
 10
164.26030456050691
 20
154.25026057921289
 30
0.0
 11
168.76030456050691
 21
154.25026057921289
 31
0.0
  0
LINE
  5
2F87
  8
DANMEN
  6
CENTER
 10
162.260304560507
 20
152.25026057921289
 30
0.0
 11
170.76030456050691
 21
152.25026057921289
 31
0.0
  0
LINE
  5
2F88
  8
DANMEN
  6
CENTER
 10
127.7603045605069
 20
142.25026057921289
 30
0.0
 11
127.7603045605069
 21
149.25026057921289
 31
0.0
  0
LINE
  5
2F89
  8
DANMEN
  6
DASHED
 10
161.06030456050689
 20
147.25026057921289
 30
0.0
 11
162.56030456050689
 21
147.25026057921289
 31
0.0
  0
ARC
  5
2F8A
  8
DANMEN
  6
CONTINUOUS
 10
161.56030456050689
 20
148.75026057921289
 30
0.0
 40
0.5
 50
90.0
 51
180.0
  0
LINE
  5
2F8B
  8
DANMEN
  6
CONTINUOUS
 10
161.06030456050689
 20
147.25026057921289
 30
0.0
 11
161.06030456050689
 21
148.75026057921289
 31
0.0
  0
LINE
  5
2F8C
  8
DANMEN
  6
CONTINUOUS
 10
161.56030456050689
 20
149.25026057921289
 30
0.0
 11
162.56030456050689
 21
149.25026057921289
 31
0.0
  0
LINE
  5
2F8D
  8
DANMEN
  6
CONTINUOUS
 10
162.56030456050689
 20
147.25026057921289
 30
0.0
 11
162.56030456050689
 21
149.25026057921289
 31
0.0
  0
ARC
  5
2F8E
  8
DANMEN
  6
CONTINUOUS
 10
169.26030456050691
 20
146.05026057921299
 30
0.0
 40
0.5
 50
180.0
 51
270.0
  0
LINE
  5
2F8F
  8
DANMEN
  6
CONTINUOUS
 10
169.26030456050691
 20
145.5502605792129
 30
0.0
 11
171.26030456050691
 21
145.5502605792129
 31
0.0
  0
ARC
  5
2F90
  8
DANMEN
  6
CONTINUOUS
 10
168.26030456050691
 20
156.75026057921289
 30
0.0
 40
0.5
 50
0.0
 51
90.0
  0
ARC
  5
2F91
  8
DANMEN
  6
CONTINUOUS
 10
164.76030456050691
 20
156.75026057921289
 30
0.0
 40
0.5
 50
90.0
 51
180.0
  0
ARC
  5
2F92
  8
DANMEN
  6
CONTINUOUS
 10
122.2603045605069
 20
144.75026057921289
 30
0.0
 40
0.5
 50
180.0
 51
270.0
  0
ARC
  5
2F93
  8
DANMEN
  6
CONTINUOUS
 10
122.2603045605069
 20
146.75026057921289
 30
0.0
 40
0.5
 50
90.0
 51
180.0
  0
ARC
  5
2F94
  8
DANMEN
  6
CONTINUOUS
 10
170.76030456050691
 20
144.75026057921289
 30
0.0
 40
0.5
 50
270.0
 51
0.0
  0
LINE
  5
2F95
  8
DANMEN
  6
CONTINUOUS
 10
121.7603045605069
 20
144.75026057921289
 30
0.0
 11
121.7603045605069
 21
146.75026057921289
 31
0.0
  0
LINE
  5
2F96
  8
DANMEN
  6
CONTINUOUS
 10
122.2603045605069
 20
144.25026057921289
 30
0.0
 11
170.7603045843488
 21
144.25026057921289
 31
0.0
  0
LINE
  5
2F97
  8
DANMEN
  6
CONTINUOUS
 10
171.26030456050691
 20
144.75026057921289
 30
0.0
 11
171.26030456050691
 21
145.5502605792129
 31
0.0
  0
LINE
  5
2F98
  8
DANMEN
  6
CONTINUOUS
 10
122.2603045605069
 20
147.25026057921289
 30
0.0
 11
161.06030456050689
 21
147.25026057921289
 31
0.0
  0
LINE
  5
2F99
  8
DANMEN
  6
CONTINUOUS
 10
164.26030456050691
 20
147.25026057921289
 30
0.0
 11
164.26030456050691
 21
156.75026057921289
 31
0.0
  0
LINE
  5
2F9A
  8
DANMEN
  6
CONTINUOUS
 10
164.76030456050691
 20
157.25026057921289
 30
0.0
 11
168.26030456050691
 21
157.25026057921289
 31
0.0
  0
LINE
  5
2F9B
  8
DANMEN
  6
CONTINUOUS
 10
168.76030456050691
 20
146.05026057921299
 30
0.0
 11
168.76030456050691
 21
156.75026057921289
 31
0.0
  0
LINE
  5
2F9C
  8
SUNPO
  6
CONTINUOUS
 10
205.26030456050691
 20
115.25026057921291
 30
0.0
 11
219.76030456050691
 21
115.25026057921291
 31
0.0
  0
LINE
  5
2F9D
  8
SUNPO
  6
CONTINUOUS
 10
205.26030456050691
 20
170.25026057921289
 30
0.0
 11
219.76030456050691
 21
170.25026057921289
 31
0.0
  0
LINE
  5
2F9E
  8
SUNPO
  6
CONTINUOUS
 10
219.76030456050691
 20
170.25026057921289
 30
0.0
 11
219.76030456050691
 21
115.25026057921291
 31
0.0
  0
LINE
  5
2F9F
  8
SUNPO
  6
CONTINUOUS
 10
205.26030456050691
 20
100.25026057921291
 30
0.0
 11
219.76030456050691
 21
100.25026057921291
 31
0.0
  0
LINE
  5
2FA0
  8
SUNPO
  6
CONTINUOUS
 10
205.26030456050691
 20
115.25026057921291
 30
0.0
 11
219.76030456050691
 21
115.25026057921291
 31
0.0
  0
LINE
  5
2FA1
  8
SUNPO
  6
CONTINUOUS
 10
219.76030456050691
 20
115.25026057921291
 30
0.0
 11
219.76030456050691
 21
100.25026057921291
 31
0.0
  0
LINE
  5
2FA2
  8
SUNPO
  6
CONTINUOUS
 10
102.2603045605069
 20
309.25026041629218
 30
0.0
 11
95.760304560506924
 21
309.25026041629218
 31
0.0
  0
LINE
  5
2FA3
  8
SUNPO
  6
CONTINUOUS
 10
103.7603045605069
 20
282.25026041629218
 30
0.0
 11
95.760304560506924
 21
282.25026041629218
 31
0.0
  0
LINE
  5
2FA4
  8
SUNPO
  6
CONTINUOUS
 10
95.760304560506924
 20
282.25026041629218
 30
0.0
 11
95.760304560506924
 21
309.25026041629218
 31
0.0
  0
LINE
  5
2FA5
  8
SUNPO
  6
CONTINUOUS
 10
205.26030495833061
 20
282.25026041629218
 30
0.0
 11
212.72611191939029
 21
282.25026041629218
 31
0.0
  0
LINE
  5
2FA6
  8
SUNPO
  6
CONTINUOUS
 10
205.26030495833061
 20
314.25026041629229
 30
0.0
 11
212.72611191939029
 21
314.25026041629229
 31
0.0
  0
LINE
  5
2FA7
  8
SUNPO
  6
CONTINUOUS
 10
212.72611191939029
 20
314.25026041629229
 30
0.0
 11
212.72611191939029
 21
282.25026041629218
 31
0.0
  0
LINE
  5
2FA8
  8
SUNPO
  6
CONTINUOUS
 10
205.26030495833061
 20
274.25026041629218
 30
0.0
 11
212.72611191939029
 21
274.25026041629218
 31
0.0
  0
LINE
  5
2FA9
  8
SUNPO
  6
CONTINUOUS
 10
205.26030495833061
 20
282.25026041629218
 30
0.0
 11
212.72611191939029
 21
282.25026041629218
 31
0.0
  0
LINE
  5
2FAA
  8
SUNPO
  6
CONTINUOUS
 10
212.72611191939029
 20
282.25026041629218
 30
0.0
 11
212.72611191939029
 21
274.25026041629218
 31
0.0
  0
LINE
  5
2FAB
  8
SUNPO
  6
CONTINUOUS
 10
203.76030456050691
 20
325.75026041629218
 30
0.0
 11
203.76030456050691
 21
332.25026041629218
 31
0.0
  0
LINE
  5
2FAC
  8
SUNPO
  6
CONTINUOUS
 10
158.76030456050691
 20
325.75026041629218
 30
0.0
 11
158.76030456050691
 21
332.25026041629218
 31
0.0
  0
LINE
  5
2FAD
  8
SUNPO
  6
CONTINUOUS
 10
158.76030456050691
 20
332.25026041629218
 30
0.0
 11
203.76030456050691
 21
332.25026041629218
 31
0.0
  0
LINE
  5
2FAE
  8
SUNPO
  6
CONTINUOUS
 10
158.76030456050691
 20
325.75026041629218
 30
0.0
 11
158.76030456050691
 21
332.25026041629218
 31
0.0
  0
LINE
  5
2FAF
  8
SUNPO
  6
CONTINUOUS
 10
103.7603045605069
 20
310.75026041629229
 30
0.0
 11
103.7603045605069
 21
332.25026041629218
 31
0.0
  0
LINE
  5
2FB0
  8
SUNPO
  6
CONTINUOUS
 10
103.7603045605069
 20
332.25026041629218
 30
0.0
 11
158.76030456050691
 21
332.25026041629218
 31
0.0
  0
LINE
  5
2FB1
  8
SUNPO
  6
CONTINUOUS
 10
103.7603045605069
 20
282.25026041629218
 30
0.0
 11
95.760304560506924
 21
282.25026041629218
 31
0.0
  0
LINE
  5
2FB2
  8
SUNPO
  6
CONTINUOUS
 10
102.2603045605069
 20
274.25026041629218
 30
0.0
 11
95.760304560506924
 21
274.25026041629218
 31
0.0
  0
LINE
  5
2FB3
  8
SUNPO
  6
CONTINUOUS
 10
95.760304560506924
 20
274.25026041629218
 30
0.0
 11
95.760304560506924
 21
282.25026041629218
 31
0.0
  0
LINE
  5
2FB4
  8
SUNPO
  6
CONTINUOUS
 10
211.76030456050691
 20
144.25026057921289
 30
0.0
 11
211.76030456050691
 21
144.25026057921289
 31
0.0
  0
LINE
  5
2FB5
  8
SUNPO
  6
CONTINUOUS
 10
211.76030456050691
 20
148.75026057921289
 30
0.0
 11
211.76030456050691
 21
148.75026057921289
 31
0.0
  0
LINE
  5
2FB6
  8
SUNPO
  6
CONTINUOUS
 10
205.26030456050691
 20
144.25026057921289
 30
0.0
 11
211.76030456050691
 21
144.25026057921289
 31
0.0
  0
LINE
  5
2FB7
  8
SUNPO
  6
CONTINUOUS
 10
205.26030456050691
 20
148.75026057921289
 30
0.0
 11
211.76030456050691
 21
148.75026057921289
 31
0.0
  0
LINE
  5
2FB8
  8
SUNPO
  6
CONTINUOUS
 10
211.76030456050691
 20
144.25026057921289
 30
0.0
 11
211.76030456050691
 21
136.20412944517969
 31
0.0
  0
LINE
  5
2FB9
  8
SUNPO
  6
CONTINUOUS
 10
211.76030456050691
 20
148.75026057921289
 30
0.0
 11
211.76030456050691
 21
144.25026057921289
 31
0.0
  0
LINE
  5
2FBA
  8
SUNPO
  6
CONTINUOUS
 10
205.26030456050691
 20
148.75026057921289
 30
0.0
 11
211.76030456050691
 21
148.75026057921289
 31
0.0
  0
LINE
  5
2FBB
  8
SUNPO
  6
CONTINUOUS
 10
205.26030456050691
 20
165.25026057921289
 30
0.0
 11
211.76030456050691
 21
165.25026057921289
 31
0.0
  0
LINE
  5
2FBC
  8
SUNPO
  6
CONTINUOUS
 10
211.76030456050691
 20
165.25026057921289
 30
0.0
 11
211.76030456050691
 21
148.75026057921289
 31
0.0
  0
LINE
  5
2FBD
  8
SUNPO
  6
CONTINUOUS
 10
205.26030456050691
 20
165.25026057921289
 30
0.0
 11
211.76030456050691
 21
165.25026057921289
 31
0.0
  0
LINE
  5
2FBE
  8
SUNPO
  6
CONTINUOUS
 10
205.26030456050691
 20
170.25026057921289
 30
0.0
 11
211.76030456050691
 21
170.25026057921289
 31
0.0
  0
LINE
  5
2FBF
  8
SUNPO
  6
CONTINUOUS
 10
211.76030456050691
 20
170.25026057921289
 30
0.0
 11
211.76030456050691
 21
165.25026057921289
 31
0.0
  0
LINE
  5
2FC0
  8
DANMEN
  6
CONTINUOUS
 10
113.7603045605069
 20
171.25026191026569
 30
0.0
 11
113.7603045605069
 21
207.7502542808711
 31
0.0
  0
LINE
  5
2FC1
  8
SUNPO
  6
CONTINUOUS
 10
111.7603045605069
 20
207.7502542808711
 30
0.0
 11
113.7603045605069
 21
207.7502542808711
 31
0.0
  0
LINE
  5
2FC2
  8
SUNPO
  6
CONTINUOUS
 10
103.7603045605069
 20
207.7502542808711
 30
0.0
 11
111.7603045605069
 21
207.7502542808711
 31
0.0
  0
LINE
  5
2FC3
  8
SUNPO
  6
CONTINUOUS
 10
103.7603045605069
 20
212.7502542808711
 30
0.0
 11
203.76030456050691
 21
212.7502542808711
 31
0.0
  0
LINE
  5
2FC4
  8
SUNPO
  6
CONTINUOUS
 10
203.76030456050691
 20
207.7502542808711
 30
0.0
 11
198.7603264838672
 21
207.7502542808711
 31
0.0
  0
LINE
  5
2FC5
  8
DANMEN
  6
CONTINUOUS
 10
176.26030456050691
 20
290.25026041629218
 30
0.0
 11
182.26030456050691
 21
290.25026041629218
 31
0.0
  0
LINE
  5
2FC6
  8
DANMEN
  6
CONTINUOUS
 10
176.26030456050691
 20
282.25026041629218
 30
0.0
 11
182.26030456050691
 21
282.25026041629218
 31
0.0
  0
ARC
  5
2FC7
  8
DANMEN
  6
CONTINUOUS
 10
186.06030456050689
 20
275.75026041629218
 30
0.0
 40
1.5
 50
270.0
 51
0.0
  0
LINE
  5
2FC8
  8
DANMEN
  6
CONTINUOUS
 10
175.76030456050691
 20
292.25026041629218
 30
0.0
 11
176.26030456050691
 21
292.05026042821322
 31
0.0
  0
LINE
  5
2FC9
  8
DANMEN
  6
CONTINUOUS
 10
182.26030456050691
 20
292.0502604162923
 30
0.0
 11
182.76030456050691
 21
292.25026041629218
 31
0.0
  0
LINE
  5
2FCA
  8
DANMEN
  6
CONTINUOUS
 10
176.26030456050691
 20
292.05026042821322
 30
0.0
 11
176.26030456050691
 21
289.25026041629229
 31
0.0
  0
LINE
  5
2FCB
  8
DANMEN
  6
CONTINUOUS
 10
182.26030456050691
 20
292.0502604162923
 30
0.0
 11
182.26030456050691
 21
289.25026041629229
 31
0.0
  0
LINE
  5
2FCC
  8
DANMEN
  6
CONTINUOUS
 10
182.76030456050691
 20
292.25026041629218
 30
0.0
 11
185.26030456050691
 21
292.25026041629218
 31
0.0
  0
LINE
  5
2FCD
  8
DANMEN
  6
CONTINUOUS
 10
173.26030456050691
 20
292.25026041629218
 30
0.0
 11
175.76030456050691
 21
292.25026041629218
 31
0.0
  0
ARC
  5
2FCE
  8
DANMEN
  6
CONTINUOUS
 10
195.76030456050691
 20
275.25026041629229
 30
0.0
 40
1.0
 50
180.0
 51
270.0
  0
ARC
  5
2FCF
  8
DANMEN
  6
CONTINUOUS
 10
195.26030456050691
 20
275.40026041629233
 30
0.0
 40
0.5
 50
90.0
 51
180.0
  0
LINE
  5
2FD0
  8
DANMEN
  6
CONTINUOUS
 10
195.26030456050691
 20
275.90026041629233
 30
0.0
 11
202.1103045605069
 21
275.90026041629233
 31
0.0
  0
ARC
  5
2FD1
  8
DANMEN
  6
CONTINUOUS
 10
125.2603045605069
 20
309.0459398538419
 30
0.0
 40
0.5
 50
0.0
 51
95.19442890773486
  0
ARC
  5
2FD2
  8
DANMEN
  6
CONTINUOUS
 10
128.260304560507
 20
309.31866712656921
 30
0.0
 40
0.5
 50
95.19442890773486
 51
180.0
  0
LINE
  5
2FD3
  8
DANMEN
  6
CONTINUOUS
 10
128.21503668748571
 20
309.81661372980301
 30
0.0
 11
158.76030456050691
 21
312.59345626371407
 31
0.0
  0
LINE
  5
2FD4
  8
DANMEN
  6
CONTINUOUS
 10
123.4603045605069
 20
304.21995426196207
 30
0.0
 11
123.4603045605069
 21
305.55026041629219
 31
0.0
  0
ARC
  5
2FD5
  8
DANMEN
  6
CONTINUOUS
 10
125.2603045605069
 20
308.46745084545512
 30
0.0
 40
0.5
 50
283.49339882155078
 51
0.0
  0
ARC
  5
2FD6
  8
DANMEN
  6
CONTINUOUS
 10
128.260304560507
 20
308.46745084545512
 30
0.0
 40
0.5
 50
180.0
 51
256.5066011784491
  0
ARC
  5
2FD7
  8
DANMEN
  6
CONTINUOUS
 10
127.56030456050701
 20
305.55026041629219
 30
0.0
 40
2.5
 50
0.0
 51
76.506601178449088
  0
LINE
  5
2FD8
  8
DANMEN
  6
CONTINUOUS
 10
125.7603045605069
 20
308.46745084545512
 30
0.0
 11
125.7603045605069
 21
309.0459398538419
 31
0.0
  0
LINE
  5
2FD9
  8
DANMEN
  6
CONTINUOUS
 10
125.960304548586
 20
306.5502604162923
 30
0.0
 11
127.5603045724279
 21
306.5502604162923
 31
0.0
  0
LINE
  5
2FDA
  8
DANMEN
  6
CONTINUOUS
 10
124.9603045605069
 20
304.30419963958173
 30
0.0
 11
124.9603045605069
 21
305.55026042821311
 31
0.0
  0
ARC
  5
2FDB
  8
DANMEN
  6
CONTINUOUS
 10
127.56030456050701
 20
305.55026041629219
 30
0.0
 40
1.0
 50
0.0
 51
90.0
  0
ARC
  5
2FDC
  8
DANMEN
  6
CONTINUOUS
 10
125.9603045605069
 20
305.55026041629219
 30
0.0
 40
1.0
 50
90.0
 51
180.0
  0
LINE
  5
2FDD
  8
DANMEN
  6
CONTINUOUS
 10
125.6603045605069
 20
302.75026041629218
 30
0.0
 11
125.6603045605069
 21
303.21332840624552
 31
0.0
  0
ARC
  5
2FDE
  8
DANMEN
  6
CONTINUOUS
 10
125.9603045605069
 20
304.30419961770912
 30
0.0
 40
1.0
 50
180.0
 51
245.3756816478363
  0
ARC
  5
2FDF
  8
DANMEN
  6
CONTINUOUS
 10
125.4603045605069
 20
303.21332840624552
 30
0.0
 40
0.2
 50
0.0
 51
65.375681647836402
  0
ARC
  5
2FE0
  8
DANMEN
  6
CONTINUOUS
 10
125.1603045605069
 20
302.75026041629218
 30
0.0
 40
0.5
 50
258.46304096718518
 51
0.0
  0
LINE
  5
2FE1
  8
DANMEN
  6
CONTINUOUS
 10
128.56030456050701
 20
304.30419963958173
 30
0.0
 11
128.56030456050701
 21
305.55026042821311
 31
0.0
  0
LINE
  5
2FE2
  8
DANMEN
  6
CONTINUOUS
 10
130.06030456050701
 20
304.21995426196207
 30
0.0
 11
130.06030456050701
 21
305.55026041629219
 31
0.0
  0
ARC
  5
2FE3
  8
DANMEN
  6
CONTINUOUS
 10
128.06030456050701
 20
304.21995426196207
 30
0.0
 40
2.0
 50
281.53695903281471
 51
0.0
  0
ARC
  5
2FE4
  8
DANMEN
  6
CONTINUOUS
 10
128.3603045605069
 20
302.75026041629218
 30
0.0
 40
0.5
 50
180.0
 51
281.53695903281471
  0
ARC
  5
2FE5
  8
DANMEN
  6
CONTINUOUS
 10
128.06030456050701
 20
303.21332840624552
 30
0.0
 40
0.2
 50
114.6243183521636
 51
180.0
  0
ARC
  5
2FE6
  8
DANMEN
  6
CONTINUOUS
 10
127.56030456050701
 20
304.30419961770912
 30
0.0
 40
1.0
 50
294.62431835216358
 51
0.0
  0
LINE
  5
2FE7
  8
DANMEN
  6
CONTINUOUS
 10
127.860304560507
 20
302.75026041629218
 30
0.0
 11
127.860304560507
 21
303.21332840624552
 31
0.0
  0
ARC
  5
2FE8
  8
DANMEN
  6
CONTINUOUS
 10
125.4603045605069
 20
304.21995426196207
 30
0.0
 40
2.0
 50
180.0
 51
258.46304096718518
  0
LINE
  5
2FE9
  8
DANMEN
  6
CONTINUOUS
 10
127.7603045605069
 20
308.46745084545512
 30
0.0
 11
127.7603045605069
 21
309.31866712656921
 31
0.0
  0
ARC
  5
2FEA
  8
DANMEN
  6
CONTINUOUS
 10
125.9603045605069
 20
305.55026041629219
 30
0.0
 40
2.5
 50
103.4933988215509
 51
180.0
  0
LINE
  5
2FEB
  8
DANMEN
  6
CONTINUOUS
 10
160.410304560507
 20
283.90026041629233
 30
0.0
 11
171.26030456050691
 21
283.90026041629233
 31
0.0
  0
LINE
  5
2FEC
  8
DANMEN
  6
CONTINUOUS
 10
159.260304560507
 20
324.25026041629218
 30
0.0
 11
159.91030456050709
 21
324.25026041629218
 31
0.0
  0
LINE
  5
2FED
  8
DANMEN
  6
CONTINUOUS
 10
158.76030456050691
 20
323.75026041629218
 30
0.0
 11
158.76030456050691
 21
314.25026041629229
 31
0.0
  0
LINE
  5
2FEE
  8
DANMEN
  6
CONTINUOUS
 10
104.21503668748571
 20
309.29159970056293
 30
0.0
 11
158.76030456050691
 21
314.25026041629229
 31
0.0
  0
LINE
  5
2FEF
  8
DANMEN
  6
CONTINUOUS
 10
105.410304560507
 20
307.74345626371411
 30
0.0
 11
125.21503668748571
 21
309.54388645707581
 31
0.0
  0
LINE
  5
2FF0
  8
DANMEN
  6
CONTINUOUS
 10
160.410304560507
 20
323.75026041629218
 30
0.0
 11
160.410304560507
 21
314.25026041629229
 31
0.0
  0
ARC
  5
2FF1
  8
DANMEN
  6
CONTINUOUS
 10
104.260304560507
 20
308.79365309732918
 30
0.0
 40
0.5
 50
95.19442890773486
 51
180.0
  0
LINE
  5
2FF2
  8
DANMEN
  6
CONTINUOUS
 10
195.26030456050691
 20
313.75026041629218
 30
0.0
 11
195.26030456050691
 21
313.1002604162922
 31
0.0
  0
LINE
  5
2FF3
  8
DANMEN
  6
CONTINUOUS
 10
160.410304560507
 20
312.6002604162922
 30
0.0
 11
162.76030456050691
 21
312.6002604162922
 31
0.0
  0
LINE
  5
2FF4
  8
DANMEN
  6
CONTINUOUS
 10
195.76030456050691
 20
314.25026041629229
 30
0.0
 11
203.26030456050691
 21
314.25026041629229
 31
0.0
  0
LINE
  5
2FF5
  8
DANMEN
  6
CONTINUOUS
 10
195.76030456050691
 20
312.6002604162922
 30
0.0
 11
202.1103045605069
 21
312.6002604162922
 31
0.0
  0
ARC
  5
2FF6
  8
DANMEN
  6
CONTINUOUS
 10
195.76030456050691
 20
313.75026041629218
 30
0.0
 40
0.5
 50
90.0
 51
180.0
  0
ARC
  5
2FF7
  8
DANMEN
  6
CONTINUOUS
 10
195.76030456050691
 20
313.1002604162922
 30
0.0
 40
0.5
 50
180.0
 51
270.0
  0
ARC
  5
2FF8
  8
DANMEN
  6
CONTINUOUS
 10
203.26030456050691
 20
313.75026041629218
 30
0.0
 40
0.5
 50
0.0
 51
90.0
  0
LINE
  5
2FF9
  8
DANMEN
  6
CONTINUOUS
 10
163.26030456050691
 20
313.75026041629218
 30
0.0
 11
163.26030456050691
 21
313.1002604162922
 31
0.0
  0
ARC
  5
2FFA
  8
DANMEN
  6
CONTINUOUS
 10
162.76030456050691
 20
313.1002604162922
 30
0.0
 40
0.5
 50
270.0
 51
0.0
  0
ARC
  5
2FFB
  8
DANMEN
  6
CONTINUOUS
 10
162.76030456050691
 20
313.75026041629218
 30
0.0
 40
0.5
 50
0.0
 51
90.0
  0
LINE
  5
2FFC
  8
DANMEN
  6
CONTINUOUS
 10
160.410304560507
 20
314.25026041629229
 30
0.0
 11
162.76030456050691
 21
314.25026041629229
 31
0.0
  0
ARC
  5
2FFD
  8
DANMEN
  6
CONTINUOUS
 10
159.91030456050709
 20
323.75026041629218
 30
0.0
 40
0.5
 50
0.0
 51
90.0
  0
ARC
  5
2FFE
  8
DANMEN
  6
CONTINUOUS
 10
159.260304560507
 20
323.75026041629218
 30
0.0
 40
0.5
 50
90.0
 51
180.0
  0
LINE
  5
2FFF
  8
DANMEN
  6
CONTINUOUS
 10
158.76030456050691
 20
312.59345626371407
 30
0.0
 11
158.76030456050691
 21
283.90026041629233
 31
0.0
  0
LINE
  5
3000
  8
DANMEN
  6
CONTINUOUS
 10
160.410304560507
 20
312.6002604162922
 30
0.0
 11
160.410304560507
 21
283.90026041629233
 31
0.0
  0
LINE
  5
3001
  8
DANMEN
  6
CONTINUOUS
 10
202.1103045605069
 20
312.6002604162922
 30
0.0
 11
202.1103045605069
 21
283.90026041629233
 31
0.0
  0
LINE
  5
3002
  8
DANMEN
  6
CONTINUOUS
 10
105.410304560507
 20
307.74345626371411
 30
0.0
 11
105.410304560507
 21
283.90026041629233
 31
0.0
  0
LINE
  5
3003
  8
DANMEN
  6
CONTINUOUS
 10
203.76030456050691
 20
313.75026041629218
 30
0.0
 11
203.76030456050691
 21
274.75026041629229
 31
0.0
  0
LINE
  5
3004
  8
DANMEN
  6
CONTINUOUS
 10
103.7603045605069
 20
308.79365309732918
 30
0.0
 11
103.7603045605069
 21
274.75026041629229
 31
0.0
  0
LINE
  5
3005
  8
DANMEN
  6
CONTINUOUS
 10
105.260304560507
 20
282.25026041629218
 30
0.0
 11
113.7603045605069
 21
282.25026041629218
 31
0.0
  0
LINE
  5
3006
  8
DANMEN
  6
CONTINUOUS
 10
113.7603045605069
 20
250.75026041629221
 30
0.0
 11
113.7603045605069
 21
282.25026041629218
 31
0.0
  0
LINE
  5
3007
  8
DANMEN
  6
CONTINUOUS
 10
114.2603045605069
 20
250.25026041629221
 30
0.0
 11
119.2603045605069
 21
250.25026041629221
 31
0.0
  0
ARC
  5
3008
  8
DANMEN
  6
CONTINUOUS
 10
114.2603045605069
 20
250.75026041629221
 30
0.0
 40
0.5
 50
180.0
 51
270.0
  0
LINE
  5
3009
  8
DANMEN
  6
CONTINUOUS
 10
105.260304560507
 20
274.75026041629229
 30
0.0
 11
105.260304560507
 21
282.25026041629218
 31
0.0
  0
LINE
  5
300A
  8
DANMEN
  6
CONTINUOUS
 10
104.260304560507
 20
274.25026041629218
 30
0.0
 11
104.7603045605069
 21
274.25026041629218
 31
0.0
  0
ARC
  5
300B
  8
DANMEN
  6
CONTINUOUS
 10
104.260304560507
 20
274.75026041629229
 30
0.0
 40
0.5
 50
180.0
 51
270.0
  0
ARC
  5
300C
  8
DANMEN
  6
CONTINUOUS
 10
104.7603045605069
 20
274.75026041629229
 30
0.0
 40
0.5
 50
270.0
 51
0.0
  0
LINE
  5
300D
  8
DANMEN
  6
CONTINUOUS
 10
119.7603045605069
 20
250.75026041629221
 30
0.0
 11
119.7603045605069
 21
257.25026041629218
 31
0.0
  0
LINE
  5
300E
  8
DANMEN
  6
CONTINUOUS
 10
115.4103045605069
 20
251.9002604162923
 30
0.0
 11
115.4103045605069
 21
263.25026041629218
 31
0.0
  0
LINE
  5
300F
  8
DANMEN
  6
CONTINUOUS
 10
115.4103045605069
 20
251.9002604162923
 30
0.0
 11
118.56030456050701
 21
251.9002604162923
 31
0.0
  0
LINE
  5
3010
  8
DANMEN
  6
CONTINUOUS
 10
118.56030456050701
 20
251.9002604162923
 30
0.0
 11
118.56030456050701
 21
256.75026041629218
 31
0.0
  0
LINE
  5
3011
  8
DANMEN
  6
CONTINUOUS
 10
119.06030456050701
 20
257.25026041629218
 30
0.0
 11
119.7603045605069
 21
257.25026041629218
 31
0.0
  0
ARC
  5
3012
  8
DANMEN
  6
CONTINUOUS
 10
119.2603045605069
 20
250.75026041629221
 30
0.0
 40
0.5
 50
270.0
 51
0.0
  0
ARC
  5
3013
  8
DANMEN
  6
CONTINUOUS
 10
119.06030456050701
 20
256.75026041629218
 30
0.0
 40
0.5
 50
90.0
 51
180.0
  0
LINE
  5
3014
  8
DANMEN
  6
CONTINUOUS
 10
115.4103045605069
 20
282.25026041629218
 30
0.0
 11
176.26030456050691
 21
282.25026041629218
 31
0.0
  0
LINE
  5
3015
  8
DANMEN
  6
CONTINUOUS
 10
195.76030456050691
 20
274.25026041629218
 30
0.0
 11
203.26030456050691
 21
274.25026041629218
 31
0.0
  0
LINE
  5
3016
  8
DANMEN
  6
CONTINUOUS
 10
194.76030456050691
 20
275.25026041629229
 30
0.0
 11
194.76030456050691
 21
275.40026041629233
 31
0.0
  0
LINE
  5
3017
  8
DANMEN
  6
CONTINUOUS
 10
202.1103045605069
 20
275.90026041629233
 30
0.0
 11
202.1103045605069
 21
282.25026041629218
 31
0.0
  0
ARC
  5
3018
  8
DANMEN
  6
CONTINUOUS
 10
203.26030456050691
 20
274.75026041629229
 30
0.0
 40
0.5
 50
270.0
 51
0.0
  0
LINE
  5
3019
  8
DANMEN
  6
CONTINUOUS
 10
105.410304560507
 20
283.90026041629233
 30
0.0
 11
122.4603045605069
 21
283.90026041629233
 31
0.0
  0
ARC
  5
301A
  8
DANMEN
  6
CONTINUOUS
 10
128.16030456050689
 20
287.5502604162923
 30
0.0
 40
0.3
 50
90.0
 51
180.0
  0
ARC
  5
301B
  8
DANMEN
  6
CONTINUOUS
 10
125.3603045605069
 20
287.5502604162923
 30
0.0
 40
0.3
 50
0.0
 51
90.0
  0
LINE
  5
301C
  8
DANMEN
  6
CONTINUOUS
 10
125.3603045605069
 20
287.8502604162922
 30
0.0
 11
124.2209251872455
 21
287.8502604162922
 31
0.0
  0
LINE
  5
301D
  8
DANMEN
  6
CONTINUOUS
 10
129.29968391879859
 20
287.8502604162922
 30
0.0
 11
128.16030453666511
 21
287.8502604162922
 31
0.0
  0
LINE
  5
301E
  8
DANMEN
  6
CONTINUOUS
 10
127.5603045724279
 20
283.95026041629222
 30
0.0
 11
125.960304548586
 21
283.95026041629222
 31
0.0
  0
LINE
  5
301F
  8
DANMEN
  6
CONTINUOUS
 10
128.56030456050701
 20
286.1963211930028
 30
0.0
 11
128.56030456050701
 21
284.95026040437131
 31
0.0
  0
LINE
  5
3020
  8
DANMEN
  6
CONTINUOUS
 10
130.06030456050701
 20
286.2805665706224
 30
0.0
 11
130.06030456050701
 21
284.90026041629233
 31
0.0
  0
ARC
  5
3021
  8
DANMEN
  6
CONTINUOUS
 10
125.9603045605069
 20
284.95026041629228
 30
0.0
 40
1.0
 50
180.0
 51
270.0
  0
ARC
  5
3022
  8
DANMEN
  6
CONTINUOUS
 10
127.56030456050701
 20
284.95026041629228
 30
0.0
 40
1.0
 50
270.0
 51
0.0
  0
LINE
  5
3023
  8
DANMEN
  6
CONTINUOUS
 10
127.860304560507
 20
287.5502604162923
 30
0.0
 11
127.860304560507
 21
287.28719242633878
 31
0.0
  0
ARC
  5
3024
  8
DANMEN
  6
CONTINUOUS
 10
127.56030456050701
 20
286.1963212148753
 30
0.0
 40
1.0
 50
0.0
 51
65.375681647836402
  0
ARC
  5
3025
  8
DANMEN
  6
CONTINUOUS
 10
128.06030456050701
 20
287.28719242633878
 30
0.0
 40
0.2
 50
180.0
 51
245.37568164783491
  0
ARC
  5
3026
  8
DANMEN
  6
CONTINUOUS
 10
128.06030456050701
 20
286.2805665706224
 30
0.0
 40
2.0
 50
0.0
 51
51.706522712622238
  0
LINE
  5
3027
  8
DANMEN
  6
CONTINUOUS
 10
124.9603045605069
 20
286.1963211930028
 30
0.0
 11
124.9603045605069
 21
284.95026040437131
 31
0.0
  0
LINE
  5
3028
  8
DANMEN
  6
CONTINUOUS
 10
123.4603045605069
 20
286.2805665706224
 30
0.0
 11
123.4603045605069
 21
284.90026041629233
 31
0.0
  0
ARC
  5
3029
  8
DANMEN
  6
CONTINUOUS
 10
125.4603045605069
 20
286.2805665706224
 30
0.0
 40
2.0
 50
128.2934772873777
 51
180.0
  0
ARC
  5
302A
  8
DANMEN
  6
CONTINUOUS
 10
125.4603045605069
 20
287.28719242633878
 30
0.0
 40
0.2
 50
294.62431835216358
 51
0.0
  0
ARC
  5
302B
  8
DANMEN
  6
CONTINUOUS
 10
125.9603045605069
 20
286.1963212148753
 30
0.0
 40
1.0
 50
114.6243183521636
 51
180.0
  0
LINE
  5
302C
  8
DANMEN
  6
CONTINUOUS
 10
125.6603045605069
 20
287.5502604162923
 30
0.0
 11
125.6603045605069
 21
287.28719242633878
 31
0.0
  0
LINE
  5
302D
  8
DANMEN
  6
CONTINUOUS
 10
189.66030456050689
 20
287.5502604162923
 30
0.0
 11
189.66030456050689
 21
287.28719242633878
 31
0.0
  0
ARC
  5
302E
  8
DANMEN
  6
CONTINUOUS
 10
189.9603045605069
 20
286.1963212148753
 30
0.0
 40
1.0
 50
114.6243183521636
 51
180.0
  0
ARC
  5
302F
  8
DANMEN
  6
CONTINUOUS
 10
189.4603045605069
 20
287.28719242633878
 30
0.0
 40
0.2
 50
294.62431835216358
 51
0.0
  0
LINE
  5
3030
  8
DANMEN
  6
CONTINUOUS
 10
188.9603045605069
 20
286.1963211930028
 30
0.0
 11
188.9603045605069
 21
284.95026040437131
 31
0.0
  0
ARC
  5
3031
  8
DANMEN
  6
CONTINUOUS
 10
192.06030456050689
 20
286.2805665706224
 30
0.0
 40
2.0
 50
0.0
 51
51.706522712622238
  0
ARC
  5
3032
  8
DANMEN
  6
CONTINUOUS
 10
192.06030456050689
 20
287.28719242633878
 30
0.0
 40
0.2
 50
180.0
 51
245.37568164783491
  0
ARC
  5
3033
  8
DANMEN
  6
CONTINUOUS
 10
191.56030456050689
 20
286.1963212148753
 30
0.0
 40
1.0
 50
0.0
 51
65.375681647836402
  0
LINE
  5
3034
  8
DANMEN
  6
CONTINUOUS
 10
191.8603045605069
 20
287.5502604162923
 30
0.0
 11
191.8603045605069
 21
287.28719242633878
 31
0.0
  0
ARC
  5
3035
  8
DANMEN
  6
CONTINUOUS
 10
191.56030456050689
 20
284.95026041629228
 30
0.0
 40
1.0
 50
270.0
 51
0.0
  0
ARC
  5
3036
  8
DANMEN
  6
CONTINUOUS
 10
189.9603045605069
 20
284.95026041629228
 30
0.0
 40
1.0
 50
180.0
 51
270.0
  0
LINE
  5
3037
  8
DANMEN
  6
CONTINUOUS
 10
194.06030456050689
 20
286.2805665706224
 30
0.0
 11
194.06030456050689
 21
284.90026041629233
 31
0.0
  0
LINE
  5
3038
  8
DANMEN
  6
CONTINUOUS
 10
192.56030456050689
 20
286.1963211930028
 30
0.0
 11
192.56030456050689
 21
284.95026040437131
 31
0.0
  0
LINE
  5
3039
  8
DANMEN
  6
CONTINUOUS
 10
191.56030457242781
 20
283.95026041629222
 30
0.0
 11
189.96030454858601
 21
283.95026041629222
 31
0.0
  0
LINE
  5
303A
  8
DANMEN
  6
CONTINUOUS
 10
193.29968391879851
 20
287.8502604162922
 30
0.0
 11
192.160304536665
 21
287.8502604162922
 31
0.0
  0
LINE
  5
303B
  8
DANMEN
  6
CONTINUOUS
 10
189.3603045605069
 20
287.8502604162922
 30
0.0
 11
187.26030456050691
 21
287.8502604162922
 31
0.0
  0
ARC
  5
303C
  8
DANMEN
  6
CONTINUOUS
 10
189.3603045605069
 20
287.5502604162923
 30
0.0
 40
0.3
 50
0.0
 51
90.0
  0
ARC
  5
303D
  8
DANMEN
  6
CONTINUOUS
 10
192.16030456050689
 20
287.5502604162923
 30
0.0
 40
0.3
 50
90.0
 51
180.0
  0
LINE
  5
303E
  8
DANMEN
  6
CONTINUOUS
 10
195.06030456050689
 20
283.90026041629233
 30
0.0
 11
202.1103045605069
 21
283.90026041629233
 31
0.0
  0
ARC
  5
303F
  8
DANMEN
  6
CONTINUOUS
 10
195.06030456050689
 20
284.90026041629233
 30
0.0
 40
1.0
 50
180.0
 51
270.0
  0
LINE
  5
3040
  8
DANMEN
  6
CONTINUOUS
 10
131.06030456050701
 20
283.90026041629233
 30
0.0
 11
158.76030456050691
 21
283.90026041629233
 31
0.0
  0
ARC
  5
3041
  8
DANMEN
  6
CONTINUOUS
 10
122.4603045605069
 20
284.90026041629233
 30
0.0
 40
1.0
 50
270.0
 51
0.0
  0
ARC
  5
3042
  8
DANMEN
  6
CONTINUOUS
 10
131.06030456050701
 20
284.90026041629233
 30
0.0
 40
1.0
 50
180.0
 51
270.0
  0
LINE
  5
3043
  8
DANMEN
  6
CONTINUOUS
 10
115.4103045605069
 20
263.25026041629218
 30
0.0
 11
119.2603045605069
 21
263.25026041629218
 31
0.0
  0
LINE
  5
3044
  8
DANMEN
  6
CONTINUOUS
 10
115.4103045605069
 20
264.25026041629229
 30
0.0
 11
119.2603045605069
 21
264.25026041629229
 31
0.0
  0
ARC
  5
3045
  8
DANMEN
  6
CONTINUOUS
 10
119.2603045605069
 20
263.75026041629218
 30
0.0
 40
0.5
 50
270.0
 51
90.0
  0
LINE
  5
3046
  8
DANMEN
  6
CONTINUOUS
 10
115.4103045605069
 20
264.25026041629229
 30
0.0
 11
115.4103045605069
 21
282.25026041629218
 31
0.0
  0
LINE
  5
3047
  8
DANMEN
  6
CONTINUOUS
 10
182.26030456050691
 20
282.25026041629218
 30
0.0
 11
182.26030456050691
 21
284.75026041629218
 31
0.0
  0
LINE
  5
3048
  8
DANMEN
  6
CONTINUOUS
 10
176.26030456050691
 20
282.25026041629218
 30
0.0
 11
176.26030456050691
 21
284.75026041629218
 31
0.0
  0
ARC
  5
3049
  8
DANMEN
  6
CONTINUOUS
 10
185.26030456050691
 20
290.25026041629218
 30
0.0
 40
2.0
 50
0.0
 51
90.0
  0
LINE
  5
304A
  8
DANMEN
  6
CONTINUOUS
 10
187.26030456050691
 20
290.25026041629218
 30
0.0
 11
187.26030456050691
 21
287.8502604162922
 31
0.0
  0
LINE
  5
304B
  8
DANMEN
  6
CONTINUOUS
 10
182.26030456050691
 20
284.75026041629218
 30
0.0
 11
182.8460909981338
 21
284.75026041629218
 31
0.0
  0
ARC
  5
304C
  8
DANMEN
  6
CONTINUOUS
 10
182.8460909981338
 20
284.25026041629218
 30
0.0
 40
0.5
 50
19.471220634490379
 51
90.0
  0
ARC
  5
304D
  8
DANMEN
  6
CONTINUOUS
 10
175.67451812287999
 20
284.25026041629218
 30
0.0
 40
0.5
 50
90.0
 51
160.52877936550959
  0
ARC
  5
304E
  8
DANMEN
  6
CONTINUOUS
 10
184.26030456050691
 20
284.75026041629218
 30
0.0
 40
1.0
 50
199.47122063449029
 51
270.0
  0
ARC
  5
304F
  8
DANMEN
  6
CONTINUOUS
 10
174.26030456050691
 20
284.75026041629218
 30
0.0
 40
1.0
 50
270.0
 51
340.52877936550863
  0
ARC
  5
3050
  8
DANMEN
  6
CONTINUOUS
 10
173.76030456050691
 20
284.25026041629218
 30
0.0
 40
0.5
 50
180.0
 51
270.0
  0
ARC
  5
3051
  8
DANMEN
  6
CONTINUOUS
 10
184.76030456050691
 20
284.25026041629218
 30
0.0
 40
0.5
 50
270.0
 51
0.0
  0
LINE
  5
3052
  8
DANMEN
  6
CONTINUOUS
 10
173.76030456050691
 20
283.75026041629218
 30
0.0
 11
174.26030456050691
 21
283.75026041629218
 31
0.0
  0
LINE
  5
3053
  8
DANMEN
  6
CONTINUOUS
 10
184.26030456050691
 20
283.75026041629218
 30
0.0
 11
184.76030456050691
 21
283.75026041629218
 31
0.0
  0
LINE
  5
3054
  8
DANMEN
  6
CONTINUOUS
 10
185.26030456050691
 20
289.75026041629229
 30
0.0
 11
185.26030456050691
 21
284.25026041629218
 31
0.0
  0
LINE
  5
3055
  8
DANMEN
  6
CONTINUOUS
 10
175.67451812287999
 20
284.75026041629218
 30
0.0
 11
176.26030456050691
 21
284.75026041629218
 31
0.0
  0
LINE
  5
3056
  8
DANMEN
  6
CONTINUOUS
 10
173.26030456050691
 20
289.75026041629229
 30
0.0
 11
173.26030456050691
 21
284.25026041629218
 31
0.0
  0
LINE
  5
3057
  8
DANMEN
  6
CONTINUOUS
 10
175.67451812287999
 20
289.25026041629229
 30
0.0
 11
176.26030456050691
 21
289.25026041629229
 31
0.0
  0
LINE
  5
3058
  8
DANMEN
  6
CONTINUOUS
 10
184.26030456050691
 20
290.25026041629218
 30
0.0
 11
184.76030456050691
 21
290.25026041629218
 31
0.0
  0
LINE
  5
3059
  8
DANMEN
  6
CONTINUOUS
 10
173.76030456050691
 20
290.25026041629218
 30
0.0
 11
174.26030456050691
 21
290.25026041629218
 31
0.0
  0
ARC
  5
305A
  8
DANMEN
  6
CONTINUOUS
 10
184.76030456050691
 20
289.75026041629229
 30
0.0
 40
0.5
 50
0.0
 51
90.0
  0
ARC
  5
305B
  8
DANMEN
  6
CONTINUOUS
 10
173.76030456050691
 20
289.75026041629229
 30
0.0
 40
0.5
 50
90.0
 51
180.0
  0
ARC
  5
305C
  8
DANMEN
  6
CONTINUOUS
 10
174.26030456050691
 20
289.25026041629229
 30
0.0
 40
1.0
 50
19.47122063449142
 51
90.0
  0
ARC
  5
305D
  8
DANMEN
  6
CONTINUOUS
 10
184.26030456050691
 20
289.25026041629229
 30
0.0
 40
1.0
 50
90.0
 51
160.52877936550851
  0
ARC
  5
305E
  8
DANMEN
  6
CONTINUOUS
 10
175.67451812287999
 20
289.75026041629229
 30
0.0
 40
0.5
 50
199.47122063449029
 51
270.0
  0
ARC
  5
305F
  8
DANMEN
  6
CONTINUOUS
 10
182.8460909981338
 20
289.75026041629229
 30
0.0
 40
0.5
 50
270.0
 51
340.52877936550948
  0
LINE
  5
3060
  8
DANMEN
  6
CONTINUOUS
 10
182.26030456050691
 20
289.25026041629229
 30
0.0
 11
182.8460909981338
 21
289.25026041629229
 31
0.0
  0
ARC
  5
3061
  8
DANMEN
  6
CONTINUOUS
 10
173.26030456050691
 20
290.25026041629218
 30
0.0
 40
2.0
 50
90.0
 51
180.0
  0
LINE
  5
3062
  8
DANMEN
  6
CONTINUOUS
 10
171.26030456050691
 20
290.25026041629218
 30
0.0
 11
171.26030456050691
 21
283.90026041629233
 31
0.0
  0
LINE
  5
3063
  8
DANMEN
  6
CONTINUOUS
 10
182.26030456050691
 20
282.25026041629218
 30
0.0
 11
186.06030456050689
 21
282.25026041629218
 31
0.0
  0
LINE
  5
3064
  8
DANMEN
  6
CONTINUOUS
 10
187.56030456050689
 20
282.25026041629218
 30
0.0
 11
202.1103045605069
 21
282.25026041629218
 31
0.0
  0
LINE
  5
3065
  8
DANMEN
  6
CONTINUOUS
 10
186.06030456050689
 20
275.75026041629218
 30
0.0
 11
186.06030456050689
 21
282.25026041629218
 31
0.0
  0
LINE
  5
3066
  8
DANMEN
  6
CONTINUOUS
 10
187.56030456050689
 20
275.75026041629218
 30
0.0
 11
187.56030456050689
 21
282.25026041629218
 31
0.0
  0
LINE
  5
3067
  8
DANMEN
  6
CONTINUOUS
 10
184.26030456050691
 20
274.25026041629218
 30
0.0
 11
186.06030456050689
 21
274.25026041629218
 31
0.0
  0
LINE
  5
3068
  8
DANMEN
  6
CONTINUOUS
 10
184.26030456050691
 20
275.75026041629218
 30
0.0
 11
186.06030456050689
 21
275.75026041629218
 31
0.0
  0
LINE
  5
3069
  8
DANMEN
  6
CONTINUOUS
 10
183.76030456050691
 20
274.75026041629229
 30
0.0
 11
183.76030456050691
 21
275.25026041629229
 31
0.0
  0
ARC
  5
306A
  8
DANMEN
  6
CONTINUOUS
 10
184.26030456050691
 20
274.75026041629229
 30
0.0
 40
0.5
 50
180.0
 51
270.0
  0
ARC
  5
306B
  8
DANMEN
  6
CONTINUOUS
 10
184.26030456050691
 20
275.25026041629229
 30
0.0
 40
0.5
 50
90.0
 51
180.0
  0
LINE
  5
306C
  8
DANMEN
  6
CONTINUOUS
 10
176.26030456050691
 20
138.95026057921291
 30
0.0
 11
182.26030456050691
 21
138.95026057921291
 31
0.0
  0
LINE
  5
306D
  8
DANMEN
  6
CONTINUOUS
 10
176.26030456050691
 20
146.75026057921289
 30
0.0
 11
182.26030456050691
 21
146.75026057921289
 31
0.0
  0
LINE
  5
306E
  8
DANMEN
  6
CONTINUOUS
 10
176.26030456050691
 20
127.75026057921291
 30
0.0
 11
182.26030456050691
 21
127.75026057921291
 31
0.0
  0
LINE
  5
306F
  8
DANMEN
  6
CONTINUOUS
 10
176.26030456050691
 20
119.75026057921291
 30
0.0
 11
182.26030456050691
 21
119.75026057921291
 31
0.0
  0
ARC
  5
3070
  8
DANMEN
  6
CONTINUOUS
 10
199.26029845699131
 20
160.95025447569731
 30
0.0
 40
0.499993896484373
 50
90.0
 51
270.0
  0
ARC
  5
3071
  8
DANMEN
  6
CONTINUOUS
 10
196.41030456050689
 20
146.60026057921289
 30
0.0
 40
1.5
 50
270.0
 51
0.0
  0
ARC
  5
3072
  8
DANMEN
  6
CONTINUOUS
 10
195.06030456050689
 20
144.10026057921289
 30
0.0
 40
1.0
 50
90.0
 51
180.0
  0
LINE
  5
3073
  8
DANMEN
  6
CONTINUOUS
 10
197.91030456050689
 20
146.60026057921289
 30
0.0
 11
197.91030456050689
 21
147.10026057921289
 31
0.0
  0
LINE
  5
3074
  8
DANMEN
  6
CONTINUOUS
 10
195.06030456050689
 20
145.10026057921289
 30
0.0
 11
196.41030456050689
 21
145.10026057921289
 31
0.0
  0
ARC
  5
3075
  8
DANMEN
  6
CONTINUOUS
 10
196.76030456050691
 20
148.25026057921289
 30
0.0
 40
0.5
 50
90.0
 51
180.0
  0
LINE
  5
3076
  8
DANMEN
  6
CONTINUOUS
 10
196.26030456050691
 20
146.75026057921289
 30
0.0
 11
196.26030456050691
 21
148.25026057921289
 31
0.0
  0
LINE
  5
3077
  8
DANMEN
  6
CONTINUOUS
 10
160.410304560507
 20
115.25026057921291
 30
0.0
 11
160.410304560507
 21
100.75026057921291
 31
0.0
  0
LINE
  5
3078
  8
DANMEN
  6
CONTINUOUS
 10
163.26030456050691
 20
116.4002544756973
 30
0.0
 11
163.26030456050691
 21
115.75026057921291
 31
0.0
  0
ARC
  5
3079
  8
DANMEN
  6
CONTINUOUS
 10
162.76030456050691
 20
115.75026057921291
 30
0.0
 40
0.5
 50
270.00001798608901
 51
0.0
  0
ARC
  5
307A
  8
DANMEN
  6
CONTINUOUS
 10
162.76030456050691
 20
116.4002605792129
 30
0.0
 40
0.5
 50
0.0
 51
90.0
  0
LINE
  5
307B
  8
DANMEN
  6
CONTINUOUS
 10
160.410304560507
 20
116.9002605792129
 30
0.0
 11
162.76030456050691
 21
116.9002605792129
 31
0.0
  0
LINE
  5
307C
  8
DANMEN
  6
CONTINUOUS
 10
160.410304560507
 20
115.25026057921291
 30
0.0
 11
162.76030456050691
 21
115.25026057921291
 31
0.0
  0
LINE
  5
307D
  8
DANMEN
  6
CONTINUOUS
 10
199.76030456050691
 20
168.60026057921289
 30
0.0
 11
202.1103045605069
 21
168.60026057921289
 31
0.0
  0
LINE
  5
307E
  8
DANMEN
  6
CONTINUOUS
 10
182.26030456050691
 20
138.95026057921291
 30
0.0
 11
182.26030456050691
 21
136.95026057921291
 31
0.0
  0
LINE
  5
307F
  8
DANMEN
  6
CONTINUOUS
 10
176.26030456050691
 20
138.95026057921291
 30
0.0
 11
176.26030456050691
 21
136.95026057921291
 31
0.0
  0
LINE
  5
3080
  8
DANMEN
  6
CONTINUOUS
 10
173.26030456050691
 20
136.95026057921291
 30
0.0
 11
176.26030456050691
 21
136.95026057921291
 31
0.0
  0
LINE
  5
3081
  8
DANMEN
  6
CONTINUOUS
 10
173.26030456050691
 20
138.95026057921291
 30
0.0
 11
176.26030456050691
 21
138.95026057921291
 31
0.0
  0
LINE
  5
3082
  8
DANMEN
  6
CONTINUOUS
 10
182.26030456050691
 20
138.95026057921291
 30
0.0
 11
185.26030456050691
 21
138.95026057921291
 31
0.0
  0
LINE
  5
3083
  8
DANMEN
  6
CONTINUOUS
 10
171.26030456050691
 20
124.9002605792129
 30
0.0
 11
171.26030456050691
 21
127.7502605792055
 31
0.0
  0
LINE
  5
3084
  8
DANMEN
  6
CONTINUOUS
 10
187.26030456050691
 20
124.9002605792129
 30
0.0
 11
187.26030456050691
 21
127.75026057921291
 31
0.0
  0
ARC
  5
3085
  8
DANMEN
  6
CONTINUOUS
 10
173.26030456050691
 20
121.75026057921291
 30
0.0
 40
2.0
 50
180.0
 51
270.0
  0
ARC
  5
3086
  8
DANMEN
  6
CONTINUOUS
 10
185.26030456050691
 20
121.75026057921291
 30
0.0
 40
2.0
 50
270.0
 51
0.0
  0
LINE
  5
3087
  8
DANMEN
  6
CONTINUOUS
 10
173.26030456050691
 20
119.75026057921291
 30
0.0
 11
176.26030456050691
 21
119.75026057921291
 31
0.0
  0
LINE
  5
3088
  8
DANMEN
  6
CONTINUOUS
 10
182.26030456050691
 20
119.75026057921291
 30
0.0
 11
185.26030456050691
 21
119.75026057921291
 31
0.0
  0
LINE
  5
3089
  8
DANMEN
  6
CONTINUOUS
 10
173.26030456050691
 20
129.7502605792055
 30
0.0
 11
175.7603045605143
 21
129.7502605792055
 31
0.0
  0
LINE
  5
308A
  8
DANMEN
  6
CONTINUOUS
 10
182.26030456050691
 20
122.25026057921291
 30
0.0
 11
182.8460909981338
 21
122.25026057921291
 31
0.0
  0
ARC
  5
308B
  8
DANMEN
  6
CONTINUOUS
 10
182.8460909981338
 20
121.75026057921291
 30
0.0
 40
0.5
 50
19.471220634490379
 51
90.0
  0
ARC
  5
308C
  8
DANMEN
  6
CONTINUOUS
 10
175.6745181228799
 20
121.75026057921291
 30
0.0
 40
0.5
 50
90.0
 51
160.52877936550959
  0
ARC
  5
308D
  8
DANMEN
  6
CONTINUOUS
 10
184.26030456050691
 20
122.25026057921291
 30
0.0
 40
1.0
 50
199.47122063449029
 51
270.0
  0
ARC
  5
308E
  8
DANMEN
  6
CONTINUOUS
 10
174.26030456050691
 20
122.25026057921291
 30
0.0
 40
1.0
 50
270.0
 51
340.52877936550863
  0
ARC
  5
308F
  8
DANMEN
  6
CONTINUOUS
 10
173.76030456050691
 20
121.75026057921291
 30
0.0
 40
0.5
 50
180.0
 51
270.0
  0
ARC
  5
3090
  8
DANMEN
  6
CONTINUOUS
 10
184.76030456050691
 20
121.75026057921291
 30
0.0
 40
0.5
 50
270.0
 51
0.0
  0
LINE
  5
3091
  8
DANMEN
  6
CONTINUOUS
 10
173.76030456050691
 20
121.25026057921291
 30
0.0
 11
174.26030456050691
 21
121.25026057921291
 31
0.0
  0
LINE
  5
3092
  8
DANMEN
  6
CONTINUOUS
 10
184.26030456050691
 20
121.25026057921291
 30
0.0
 11
184.76030456050691
 21
121.25026057921291
 31
0.0
  0
LINE
  5
3093
  8
DANMEN
  6
CONTINUOUS
 10
175.6745181228799
 20
122.25026057921291
 30
0.0
 11
176.26030456050691
 21
122.25026057921291
 31
0.0
  0
LINE
  5
3094
  8
DANMEN
  6
CONTINUOUS
 10
173.26030456050691
 20
121.75026057921291
 30
0.0
 11
173.26030456050691
 21
127.25026057921291
 31
0.0
  0
LINE
  5
3095
  8
DANMEN
  6
CONTINUOUS
 10
185.26030456050691
 20
121.75026057921291
 30
0.0
 11
185.26030456050691
 21
127.25026057921291
 31
0.0
  0
LINE
  5
3096
  8
DANMEN
  6
CONTINUOUS
 10
182.76030456050691
 20
129.75026057921289
 30
0.0
 11
185.26030456050691
 21
129.75026057921289
 31
0.0
  0
LINE
  5
3097
  8
DANMEN
  6
CONTINUOUS
 10
176.26030456050691
 20
119.75026057921291
 30
0.0
 11
176.26030456050691
 21
122.25026057921291
 31
0.0
  0
LINE
  5
3098
  8
DANMEN
  6
CONTINUOUS
 10
182.26030456050691
 20
119.75026057921291
 30
0.0
 11
182.26030456050691
 21
122.25026057921291
 31
0.0
  0
LINE
  5
3099
  8
DANMEN
  6
CONTINUOUS
 10
182.76030456050691
 20
129.75026057921289
 30
0.0
 11
182.26030456050691
 21
129.5502605792129
 31
0.0
  0
LINE
  5
309A
  8
DANMEN
  6
CONTINUOUS
 10
176.26030456050691
 20
129.5502605792129
 30
0.0
 11
175.76030456050691
 21
129.75026057921289
 31
0.0
  0
ARC
  5
309B
  8
DANMEN
  6
CONTINUOUS
 10
173.26030456050691
 20
127.7502605792055
 30
0.0
 40
2.0
 50
90.0
 51
180.0
  0
ARC
  5
309C
  8
DANMEN
  6
CONTINUOUS
 10
185.26030456050691
 20
127.75026057921291
 30
0.0
 40
2.0
 50
0.0
 51
90.0
  0
LINE
  5
309D
  8
DANMEN
  6
CONTINUOUS
 10
187.26030456050691
 20
121.75026057921291
 30
0.0
 11
187.26030456050691
 21
123.25026057921291
 31
0.0
  0
LINE
  5
309E
  8
DANMEN
  6
CONTINUOUS
 10
171.26030456050691
 20
121.75026057921291
 30
0.0
 11
171.26030456050691
 21
123.25026057921291
 31
0.0
  0
LINE
  5
309F
  8
DANMEN
  6
CONTINUOUS
 10
182.26030456050691
 20
126.75026057921291
 30
0.0
 11
182.8460909981338
 21
126.75026057921291
 31
0.0
  0
ARC
  5
30A0
  8
DANMEN
  6
CONTINUOUS
 10
182.8460909981338
 20
127.25026057921291
 30
0.0
 40
0.5
 50
270.0
 51
340.52877936550948
  0
ARC
  5
30A1
  8
DANMEN
  6
CONTINUOUS
 10
175.67451812287999
 20
127.25026057921291
 30
0.0
 40
0.5
 50
199.47122063449029
 51
270.0
  0
ARC
  5
30A2
  8
DANMEN
  6
CONTINUOUS
 10
184.26030456050691
 20
126.75026057921291
 30
0.0
 40
1.0
 50
90.0
 51
160.52877936550851
  0
ARC
  5
30A3
  8
DANMEN
  6
CONTINUOUS
 10
174.26030456050691
 20
126.75026057921291
 30
0.0
 40
1.0
 50
19.47122063449142
 51
90.0
  0
ARC
  5
30A4
  8
DANMEN
  6
CONTINUOUS
 10
173.76030456050691
 20
127.25026057921291
 30
0.0
 40
0.5
 50
90.0
 51
180.0
  0
ARC
  5
30A5
  8
DANMEN
  6
CONTINUOUS
 10
184.76030456050691
 20
127.25026057921291
 30
0.0
 40
0.5
 50
0.0
 51
90.0
  0
LINE
  5
30A6
  8
DANMEN
  6
CONTINUOUS
 10
173.76030456050691
 20
127.75026057921291
 30
0.0
 11
174.26030456050691
 21
127.75026057921291
 31
0.0
  0
LINE
  5
30A7
  8
DANMEN
  6
CONTINUOUS
 10
184.26030456050691
 20
127.75026057921291
 30
0.0
 11
184.76030456050691
 21
127.75026057921291
 31
0.0
  0
LINE
  5
30A8
  8
DANMEN
  6
CONTINUOUS
 10
175.67451812287999
 20
126.75026057921291
 30
0.0
 11
176.26030456050691
 21
126.75026057921291
 31
0.0
  0
LINE
  5
30A9
  8
DANMEN
  6
CONTINUOUS
 10
176.26030456050691
 20
129.5502605792129
 30
0.0
 11
176.26030456050691
 21
126.75026057921291
 31
0.0
  0
LINE
  5
30AA
  8
DANMEN
  6
CONTINUOUS
 10
182.26030456050691
 20
129.5502605792129
 30
0.0
 11
182.26030456050691
 21
126.75026057921291
 31
0.0
  0
LINE
  5
30AB
  8
DANMEN
  6
CONTINUOUS
 10
187.26030456050691
 20
124.9002605792129
 30
0.0
 11
202.1103045605069
 21
124.9002605792129
 31
0.0
  0
LINE
  5
30AC
  8
DANMEN
  6
CONTINUOUS
 10
160.410304560507
 20
124.9002605792129
 30
0.0
 11
171.26030456050691
 21
124.9002605792129
 31
0.0
  0
LINE
  5
30AD
  8
DANMEN
  6
CONTINUOUS
 10
160.410304560507
 20
123.25026057921291
 30
0.0
 11
171.26030456050691
 21
123.25026057921291
 31
0.0
  0
LINE
  5
30AE
  8
DANMEN
  6
CONTINUOUS
 10
187.26030456050691
 20
123.25026057921291
 30
0.0
 11
202.1103045605069
 21
123.25026057921291
 31
0.0
  0
LINE
  5
30AF
  8
DANMEN
  6
CONTINUOUS
 10
171.26030456050691
 20
142.60026057921289
 30
0.0
 11
171.26030456050691
 21
138.95026057921291
 31
0.0
  0
ARC
  5
30B0
  8
DANMEN
  6
CONTINUOUS
 10
169.76030456050691
 20
146.25026057921289
 30
0.0
 40
0.5
 50
90.0
 51
180.0
  0
LINE
  5
30B1
  8
DANMEN
  6
CONTINUOUS
 10
169.26030456050691
 20
145.75026057921289
 30
0.0
 11
171.26030456050691
 21
145.75026057921289
 31
0.0
  0
LINE
  5
30B2
  8
DANMEN
  6
CONTINUOUS
 10
169.26030456050691
 20
146.25026057921289
 30
0.0
 11
169.26030456050691
 21
145.75026057921289
 31
0.0
  0
LINE
  5
30B3
  8
DANMEN
  6
CONTINUOUS
 10
197.91030456050689
 20
147.10026057921289
 30
0.0
 11
202.1103045605069
 21
147.10026057921289
 31
0.0
  0
LINE
  5
30B4
  8
DANMEN
  6
CONTINUOUS
 10
196.76030456050691
 20
148.75026057921289
 30
0.0
 11
202.1103045605069
 21
148.75026057921289
 31
0.0
  0
LINE
  5
30B5
  8
DANMEN
  6
CONTINUOUS
 10
160.410304560507
 20
142.60026057921289
 30
0.0
 11
171.26030456050691
 21
142.60026057921289
 31
0.0
  0
LINE
  5
30B6
  8
DANMEN
  6
CONTINUOUS
 10
169.76030456050691
 20
146.75026057921289
 30
0.0
 11
176.26030456050691
 21
146.75026057921289
 31
0.0
  0
LINE
  5
30B7
  8
DANMEN
  6
CONTINUOUS
 10
202.1103045605069
 20
160.45026057921291
 30
0.0
 11
202.1103045605069
 21
148.75026057921289
 31
0.0
  0
LINE
  5
30B8
  8
DANMEN
  6
CONTINUOUS
 10
198.76030456050691
 20
169.75026057921289
 30
0.0
 11
198.76030456050691
 21
166.25026057921289
 31
0.0
  0
LINE
  5
30B9
  8
DANMEN
  6
CONTINUOUS
 10
199.26029845699131
 20
160.45026057921291
 30
0.0
 11
202.1103045605069
 21
160.45026057921291
 31
0.0
  0
LINE
  5
30BA
  8
DANMEN
  6
CONTINUOUS
 10
199.26030456050691
 20
165.75026057921289
 30
0.0
 11
199.76030456050691
 21
165.75026057921289
 31
0.0
  0
LINE
  5
30BB
  8
DANMEN
  6
CONTINUOUS
 10
199.26029845699131
 20
161.4502483721817
 30
0.0
 11
202.1103045605069
 21
161.4502483721817
 31
0.0
  0
LINE
  5
30BC
  8
DANMEN
  6
CONTINUOUS
 10
199.76030456050691
 20
168.60026057921289
 30
0.0
 11
199.76030456050691
 21
165.75026057921289
 31
0.0
  0
ARC
  5
30BD
  8
DANMEN
  6
CONTINUOUS
 10
199.26030456050691
 20
169.75026057921289
 30
0.0
 40
0.5
 50
89.999982013910966
 51
179.99996402782111
  0
ARC
  5
30BE
  8
DANMEN
  6
CONTINUOUS
 10
199.26030456050691
 20
166.25026057921289
 30
0.0
 40
0.5
 50
179.99998133066549
 51
270.00001798608901
  0
LINE
  5
30BF
  8
DANMEN
  6
CONTINUOUS
 10
199.26030456050691
 20
170.25026057921289
 30
0.0
 11
203.26030456050691
 21
170.25026057921289
 31
0.0
  0
ARC
  5
30C0
  8
DANMEN
  6
CONTINUOUS
 10
173.26030456050691
 20
138.95026057921291
 30
0.0
 40
2.0
 50
180.0
 51
270.0
  0
LINE
  5
30C1
  8
DANMEN
  6
CONTINUOUS
 10
171.26030456050691
 20
145.75026057921289
 30
0.0
 11
171.26030456050691
 21
144.25026057921289
 31
0.0
  0
ARC
  5
30C2
  8
DANMEN
  6
CONTINUOUS
 10
185.26030456050691
 20
138.95026057921291
 30
0.0
 40
2.0
 50
270.0
 51
0.0
  0
LINE
  5
30C3
  8
DANMEN
  6
CONTINUOUS
 10
187.26030456050691
 20
139.6502605792129
 30
0.0
 11
187.26030456050691
 21
138.95026057921291
 31
0.0
  0
LINE
  5
30C4
  8
DANMEN
  6
CONTINUOUS
 10
182.26030456050691
 20
146.75026057921289
 30
0.0
 11
182.26030456050691
 21
144.25026057921289
 31
0.0
  0
LINE
  5
30C5
  8
DANMEN
  6
CONTINUOUS
 10
176.26030456050691
 20
146.75026057921289
 30
0.0
 11
176.26030456050691
 21
144.25026057921289
 31
0.0
  0
LINE
  5
30C6
  8
DANMEN
  6
CONTINUOUS
 10
173.26030456050691
 20
144.75026057921289
 30
0.0
 11
173.26030456050691
 21
138.95026057921291
 31
0.0
  0
LINE
  5
30C7
  8
DANMEN
  6
CONTINUOUS
 10
175.6745181228799
 20
144.25026057921289
 30
0.0
 11
176.26030456050691
 21
144.25026057921289
 31
0.0
  0
LINE
  5
30C8
  8
DANMEN
  6
CONTINUOUS
 10
185.26030456050691
 20
144.75026057921289
 30
0.0
 11
185.26030456050691
 21
138.95026057921291
 31
0.0
  0
LINE
  5
30C9
  8
DANMEN
  6
CONTINUOUS
 10
184.26030456050691
 20
145.25026057921289
 30
0.0
 11
184.76030456050691
 21
145.25026057921289
 31
0.0
  0
LINE
  5
30CA
  8
DANMEN
  6
CONTINUOUS
 10
173.76030456050691
 20
145.25026057921289
 30
0.0
 11
174.26030456050691
 21
145.25026057921289
 31
0.0
  0
ARC
  5
30CB
  8
DANMEN
  6
CONTINUOUS
 10
184.76030456050691
 20
144.75026057921289
 30
0.0
 40
0.5
 50
0.0
 51
90.0
  0
ARC
  5
30CC
  8
DANMEN
  6
CONTINUOUS
 10
173.76030456050691
 20
144.75026057921289
 30
0.0
 40
0.5
 50
90.0
 51
180.0
  0
ARC
  5
30CD
  8
DANMEN
  6
CONTINUOUS
 10
174.26030456050691
 20
144.25026057921289
 30
0.0
 40
1.0
 50
19.47122063449142
 51
90.0
  0
ARC
  5
30CE
  8
DANMEN
  6
CONTINUOUS
 10
184.26030456050691
 20
144.25026057921289
 30
0.0
 40
1.0
 50
90.0
 51
160.52877936550851
  0
ARC
  5
30CF
  8
DANMEN
  6
CONTINUOUS
 10
175.6745181228799
 20
144.75026057921289
 30
0.0
 40
0.5
 50
199.47122063449029
 51
270.0
  0
ARC
  5
30D0
  8
DANMEN
  6
CONTINUOUS
 10
182.8460909981338
 20
144.75026057921289
 30
0.0
 40
0.5
 50
270.0
 51
340.52877936550948
  0
LINE
  5
30D1
  8
DANMEN
  6
CONTINUOUS
 10
182.26030456050691
 20
144.25026057921289
 30
0.0
 11
182.8460909981338
 21
144.25026057921289
 31
0.0
  0
ARC
  5
30D2
  8
DANMEN
  6
CONTINUOUS
 10
203.26030456050691
 20
169.75026057921289
 30
0.0
 40
0.5
 50
0.0
 51
90.0
  0
ARC
  5
30D3
  8
DANMEN
  6
CONTINUOUS
 10
133.41030456050689
 20
125.1002605792129
 30
0.0
 40
1.5
 50
270.0
 51
0.0
  0
LINE
  5
30D4
  8
DANMEN
  6
CONTINUOUS
 10
114.2603045605069
 20
170.25026057921289
 30
0.0
 11
119.2603045605069
 21
170.25026057921289
 31
0.0
  0
LINE
  5
30D5
  8
DANMEN
  6
CONTINUOUS
 10
113.7603045605069
 20
169.75026057921289
 30
0.0
 11
113.7603045605069
 21
138.75026057921289
 31
0.0
  0
LINE
  5
30D6
  8
DANMEN
  6
CONTINUOUS
 10
119.7603045605069
 20
169.75026057921289
 30
0.0
 11
119.7603045605069
 21
163.25026057921289
 31
0.0
  0
LINE
  5
30D7
  8
DANMEN
  6
CONTINUOUS
 10
203.76030456050691
 20
169.75026057921289
 30
0.0
 11
203.76030456050691
 21
115.75026057921291
 31
0.0
  0
LINE
  5
30D8
  8
DANMEN
  6
CONTINUOUS
 10
202.1103045605069
 20
168.60026057921289
 30
0.0
 11
202.1103045605069
 21
161.4502483721817
 31
0.0
  0
LINE
  5
30D9
  8
DANMEN
  6
CONTINUOUS
 10
115.4103045605069
 20
168.60026057921289
 30
0.0
 11
118.56030456050701
 21
168.60026057921289
 31
0.0
  0
LINE
  5
30DA
  8
DANMEN
  6
CONTINUOUS
 10
115.4103045605069
 20
168.60026057921289
 30
0.0
 11
115.4103045605069
 21
157.25026057921289
 31
0.0
  0
LINE
  5
30DB
  8
DANMEN
  6
CONTINUOUS
 10
118.56030456050701
 20
168.60026057921289
 30
0.0
 11
118.56030456050701
 21
163.75026057921289
 31
0.0
  0
LINE
  5
30DC
  8
DANMEN
  6
CONTINUOUS
 10
119.06030456050701
 20
163.25026057921289
 30
0.0
 11
119.7603045605069
 21
163.25026057921289
 31
0.0
  0
ARC
  5
30DD
  8
DANMEN
  6
CONTINUOUS
 10
119.2603045605069
 20
169.75026057921289
 30
0.0
 40
0.5
 50
0.0
 51
90.0
  0
ARC
  5
30DE
  8
DANMEN
  6
CONTINUOUS
 10
114.2603045605069
 20
169.75026057921289
 30
0.0
 40
0.5
 50
90.0
 51
180.0
  0
ARC
  5
30DF
  8
DANMEN
  6
CONTINUOUS
 10
119.06030456050701
 20
163.75026057921289
 30
0.0
 40
0.5
 50
180.0
 51
270.0
  0
LINE
  5
30E0
  8
DANMEN
  6
CONTINUOUS
 10
115.4103045605069
 20
144.25026057921289
 30
0.0
 11
171.26030456050691
 21
144.25026057921289
 31
0.0
  0
LINE
  5
30E1
  8
DANMEN
  6
CONTINUOUS
 10
114.9603045605069
 20
142.60026057921289
 30
0.0
 11
133.260304560507
 21
142.60026057921289
 31
0.0
  0
LINE
  5
30E2
  8
DANMEN
  6
CONTINUOUS
 10
114.2603045605069
 20
138.25026057921289
 30
0.0
 11
114.4603045605069
 21
138.25026057921289
 31
0.0
  0
ARC
  5
30E3
  8
DANMEN
  6
CONTINUOUS
 10
114.2603045605069
 20
138.75026057921289
 30
0.0
 40
0.5
 50
180.0
 51
270.0
  0
LINE
  5
30E4
  8
DANMEN
  6
CONTINUOUS
 10
114.9603045605069
 20
142.60026057921289
 30
0.0
 11
114.9603045605069
 21
138.75026057921289
 31
0.0
  0
ARC
  5
30E5
  8
DANMEN
  6
CONTINUOUS
 10
114.4603045605069
 20
138.75026057921289
 30
0.0
 40
0.5
 50
270.0
 51
0.0
  0
LINE
  5
30E6
  8
DANMEN
  6
CONTINUOUS
 10
182.26030456050691
 20
146.75026057921289
 30
0.0
 11
196.26030456050691
 21
146.75026057921289
 31
0.0
  0
LINE
  5
30E7
  8
DANMEN
  6
CONTINUOUS
 10
202.1103045605069
 20
147.10026057921289
 30
0.0
 11
202.1103045605069
 21
124.9002605792129
 31
0.0
  0
LINE
  5
30E8
  8
DANMEN
  6
CONTINUOUS
 10
103.7603045605069
 20
119.75026057921291
 30
0.0
 11
103.7603045605069
 21
110.75026057921291
 31
0.0
  0
LINE
  5
30E9
  8
DANMEN
  6
CONTINUOUS
 10
104.260304560507
 20
110.25026057921291
 30
0.0
 11
158.76030456050691
 21
110.25026057921291
 31
0.0
  0
ARC
  5
30EA
  8
DANMEN
  6
CONTINUOUS
 10
104.260304560507
 20
110.75026057921291
 30
0.0
 40
0.5
 50
180.0
 51
270.0
  0
LINE
  5
30EB
  8
DANMEN
  6
CONTINUOUS
 10
104.260304560507
 20
120.25026057921291
 30
0.0
 11
105.56030456050701
 21
120.25026057921291
 31
0.0
  0
LINE
  5
30EC
  8
DANMEN
  6
CONTINUOUS
 10
118.7603045605069
 20
125.25026057921291
 30
0.0
 11
133.260304560507
 21
125.25026057921291
 31
0.0
  0
LINE
  5
30ED
  8
DANMEN
  6
CONTINUOUS
 10
105.56030456050701
 20
120.25026057921291
 30
0.0
 11
118.7603045605069
 21
125.25026057921291
 31
0.0
  0
LINE
  5
30EE
  8
DANMEN
  6
CONTINUOUS
 10
133.260304560507
 20
142.60026057921289
 30
0.0
 11
133.260304560507
 21
125.25026057921291
 31
0.0
  0
ARC
  5
30EF
  8
DANMEN
  6
CONTINUOUS
 10
104.260304560507
 20
119.75026057921291
 30
0.0
 40
0.5
 50
90.0
 51
180.0
  0
LINE
  5
30F0
  8
DANMEN
  6
CONTINUOUS
 10
105.410304560507
 20
118.4290373985354
 30
0.0
 11
105.410304560507
 21
111.9002605792129
 31
0.0
  0
LINE
  5
30F1
  8
DANMEN
  6
CONTINUOUS
 10
105.410304560507
 20
118.4290373985354
 30
0.0
 11
119.06233375749569
 21
123.6002605792129
 31
0.0
  0
LINE
  5
30F2
  8
DANMEN
  6
CONTINUOUS
 10
119.06233375749569
 20
123.6002605792129
 30
0.0
 11
122.4603045605069
 21
123.6002605792129
 31
0.0
  0
LINE
  5
30F3
  8
DANMEN
  6
CONTINUOUS
 10
105.410304560507
 20
111.9002605792129
 30
0.0
 11
158.76030456050691
 21
111.9002605792129
 31
0.0
  0
LINE
  5
30F4
  8
DANMEN
  6
CONTINUOUS
 10
195.26030456050691
 20
116.4002605792129
 30
0.0
 11
195.26030456050691
 21
115.75026057921291
 31
0.0
  0
LINE
  5
30F5
  8
DANMEN
  6
CONTINUOUS
 10
195.76030456050691
 20
116.9002605792129
 30
0.0
 11
202.1103045605069
 21
116.9002605792129
 31
0.0
  0
LINE
  5
30F6
  8
DANMEN
  6
CONTINUOUS
 10
195.76030456050691
 20
115.25026057921291
 30
0.0
 11
203.26030456050691
 21
115.25026057921291
 31
0.0
  0
ARC
  5
30F7
  8
DANMEN
  6
CONTINUOUS
 10
203.26030456050691
 20
115.75026057921291
 30
0.0
 40
0.5
 50
270.0
 51
0.0
  0
ARC
  5
30F8
  8
DANMEN
  6
CONTINUOUS
 10
195.76030456050691
 20
115.75026057921291
 30
0.0
 40
0.5
 50
180.0
 51
270.0
  0
ARC
  5
30F9
  8
DANMEN
  6
CONTINUOUS
 10
195.76030456050691
 20
116.4002605792129
 30
0.0
 40
0.5
 50
90.0
 51
180.0
  0
LINE
  5
30FA
  8
DANMEN
  6
CONTINUOUS
 10
158.76030456050691
 20
142.60026057921289
 30
0.0
 11
158.76030456050691
 21
111.9002605792129
 31
0.0
  0
LINE
  5
30FB
  8
DANMEN
  6
CONTINUOUS
 10
159.260304560507
 20
100.25026057921291
 30
0.0
 11
159.91030456050709
 21
100.25026057921291
 31
0.0
  0
LINE
  5
30FC
  8
DANMEN
  6
CONTINUOUS
 10
160.410304560507
 20
142.60026057921289
 30
0.0
 11
160.410304560507
 21
124.9002605792129
 31
0.0
  0
ARC
  5
30FD
  8
DANMEN
  6
CONTINUOUS
 10
159.91030456050709
 20
100.75026057921291
 30
0.0
 40
0.5
 50
270.0
 51
0.0
  0
ARC
  5
30FE
  8
DANMEN
  6
CONTINUOUS
 10
159.260304560507
 20
100.75026057921291
 30
0.0
 40
0.5
 50
180.0
 51
270.0
  0
LINE
  5
30FF
  8
DANMEN
  6
CONTINUOUS
 10
158.76030456050691
 20
110.25026057921291
 30
0.0
 11
158.76030456050691
 21
100.75026057921291
 31
0.0
  0
LINE
  5
3100
  8
DANMEN
  6
CONTINUOUS
 10
160.410304560507
 20
123.25026057921291
 30
0.0
 11
160.410304560507
 21
116.9002605792129
 31
0.0
  0
LINE
  5
3101
  8
DANMEN
  6
CONTINUOUS
 10
134.910304560507
 20
142.60026057921289
 30
0.0
 11
134.910304560507
 21
125.1002605792129
 31
0.0
  0
LINE
  5
3102
  8
DANMEN
  6
CONTINUOUS
 10
134.910304560507
 20
142.60026057921289
 30
0.0
 11
143.4603045605069
 21
142.60026057921289
 31
0.0
  0
LINE
  5
3103
  8
DANMEN
  6
CONTINUOUS
 10
202.1103045605069
 20
123.25026057921291
 30
0.0
 11
202.1103045605069
 21
116.9002605792129
 31
0.0
  0
ARC
  5
3104
  8
DANMEN
  6
CONTINUOUS
 10
125.3603045605069
 20
119.95026057921289
 30
0.0
 40
0.3
 50
270.0
 51
0.0
  0
ARC
  5
3105
  8
DANMEN
  6
CONTINUOUS
 10
128.16030456050689
 20
119.95026057921289
 30
0.0
 40
0.3
 50
180.0
 51
270.0
  0
LINE
  5
3106
  8
DANMEN
  6
CONTINUOUS
 10
128.16030456050689
 20
119.6502605792129
 30
0.0
 11
129.29968393376839
 21
119.6502605792129
 31
0.0
  0
LINE
  5
3107
  8
DANMEN
  6
CONTINUOUS
 10
124.2209252022153
 20
119.6502605792129
 30
0.0
 11
125.3603045843488
 21
119.6502605792129
 31
0.0
  0
LINE
  5
3108
  8
DANMEN
  6
CONTINUOUS
 10
125.960304548586
 20
123.5502605792129
 30
0.0
 11
127.5603045724279
 21
123.5502605792129
 31
0.0
  0
LINE
  5
3109
  8
DANMEN
  6
CONTINUOUS
 10
124.9603045605069
 20
121.3041998025024
 30
0.0
 11
124.9603045605069
 21
122.55026059113391
 31
0.0
  0
LINE
  5
310A
  8
DANMEN
  6
CONTINUOUS
 10
123.4603045605069
 20
121.2199544248828
 30
0.0
 11
123.4603045605069
 21
122.6002605792129
 31
0.0
  0
ARC
  5
310B
  8
DANMEN
  6
CONTINUOUS
 10
127.56030456050701
 20
122.5502605792129
 30
0.0
 40
1.0
 50
0.0
 51
90.0
  0
ARC
  5
310C
  8
DANMEN
  6
CONTINUOUS
 10
125.9603045605069
 20
122.5502605792129
 30
0.0
 40
1.0
 50
90.0
 51
180.0
  0
LINE
  5
310D
  8
DANMEN
  6
CONTINUOUS
 10
125.6603045605069
 20
119.95026057921289
 30
0.0
 11
125.6603045605069
 21
120.21332856916629
 31
0.0
  0
ARC
  5
310E
  8
DANMEN
  6
CONTINUOUS
 10
125.9603045605069
 20
121.3041997806299
 30
0.0
 40
1.0
 50
180.0
 51
245.3756816478363
  0
ARC
  5
310F
  8
DANMEN
  6
CONTINUOUS
 10
125.4603045605069
 20
120.21332856916629
 30
0.0
 40
0.2
 50
0.0
 51
65.375681647836402
  0
ARC
  5
3110
  8
DANMEN
  6
CONTINUOUS
 10
125.4603045605069
 20
121.2199544248828
 30
0.0
 40
2.0
 50
180.0
 51
231.70652271262219
  0
LINE
  5
3111
  8
DANMEN
  6
CONTINUOUS
 10
128.56030456050701
 20
121.3041998025024
 30
0.0
 11
128.56030456050701
 21
122.55026059113391
 31
0.0
  0
LINE
  5
3112
  8
DANMEN
  6
CONTINUOUS
 10
130.06030456050701
 20
121.2199544248828
 30
0.0
 11
130.06030456050701
 21
122.6002605792129
 31
0.0
  0
ARC
  5
3113
  8
DANMEN
  6
CONTINUOUS
 10
128.06030456050701
 20
121.2199544248828
 30
0.0
 40
2.0
 50
308.2934772873777
 51
0.0
  0
ARC
  5
3114
  8
DANMEN
  6
CONTINUOUS
 10
128.06030456050701
 20
120.21332856916629
 30
0.0
 40
0.2
 50
114.6243183521636
 51
180.0
  0
ARC
  5
3115
  8
DANMEN
  6
CONTINUOUS
 10
127.56030456050701
 20
121.3041997806299
 30
0.0
 40
1.0
 50
294.62431835216358
 51
0.0
  0
LINE
  5
3116
  8
DANMEN
  6
CONTINUOUS
 10
127.860304560507
 20
119.95026057921289
 30
0.0
 11
127.860304560507
 21
120.21332856916629
 31
0.0
  0
ARC
  5
3117
  8
DANMEN
  6
CONTINUOUS
 10
146.3603045605069
 20
138.95026057921291
 30
0.0
 40
0.3
 50
270.0
 51
0.0
  0
ARC
  5
3118
  8
DANMEN
  6
CONTINUOUS
 10
149.160304560507
 20
138.95026057921291
 30
0.0
 40
0.3
 50
180.0
 51
270.0
  0
LINE
  5
3119
  8
DANMEN
  6
CONTINUOUS
 10
149.160304560507
 20
138.6502605792129
 30
0.0
 11
150.29968393376839
 21
138.6502605792129
 31
0.0
  0
LINE
  5
311A
  8
DANMEN
  6
CONTINUOUS
 10
145.22092520221531
 20
138.6502605792129
 30
0.0
 11
146.3603045843488
 21
138.6502605792129
 31
0.0
  0
LINE
  5
311B
  8
DANMEN
  6
CONTINUOUS
 10
146.96030454858601
 20
142.5502605792129
 30
0.0
 11
148.5603045724279
 21
142.5502605792129
 31
0.0
  0
LINE
  5
311C
  8
DANMEN
  6
CONTINUOUS
 10
145.96030456050701
 20
140.30419980250241
 30
0.0
 11
145.96030456050701
 21
141.55026059113391
 31
0.0
  0
LINE
  5
311D
  8
DANMEN
  6
CONTINUOUS
 10
144.4603045605069
 20
140.21995442488279
 30
0.0
 11
144.4603045605069
 21
141.60026057921289
 31
0.0
  0
ARC
  5
311E
  8
DANMEN
  6
CONTINUOUS
 10
148.56030456050689
 20
141.5502605792129
 30
0.0
 40
1.0
 50
0.0
 51
90.0
  0
ARC
  5
311F
  8
DANMEN
  6
CONTINUOUS
 10
146.96030456050701
 20
141.5502605792129
 30
0.0
 40
1.0
 50
90.0
 51
180.0
  0
LINE
  5
3120
  8
DANMEN
  6
CONTINUOUS
 10
146.66030456050689
 20
138.95026057921291
 30
0.0
 11
146.66030456050689
 21
139.21332856916629
 31
0.0
  0
ARC
  5
3121
  8
DANMEN
  6
CONTINUOUS
 10
146.96030456050701
 20
140.30419978062989
 30
0.0
 40
1.0
 50
180.0
 51
245.3756816478363
  0
ARC
  5
3122
  8
DANMEN
  6
CONTINUOUS
 10
146.4603045605069
 20
139.21332856916629
 30
0.0
 40
0.2
 50
0.0
 51
65.375681647836402
  0
ARC
  5
3123
  8
DANMEN
  6
CONTINUOUS
 10
146.4603045605069
 20
140.21995442488279
 30
0.0
 40
2.0
 50
180.0
 51
231.70652271262219
  0
LINE
  5
3124
  8
DANMEN
  6
CONTINUOUS
 10
149.56030456050689
 20
140.30419980250241
 30
0.0
 11
149.56030456050689
 21
141.55026059113391
 31
0.0
  0
LINE
  5
3125
  8
DANMEN
  6
CONTINUOUS
 10
151.06030456050689
 20
140.21995442488279
 30
0.0
 11
151.06030456050689
 21
141.60026057921289
 31
0.0
  0
ARC
  5
3126
  8
DANMEN
  6
CONTINUOUS
 10
149.06030456050689
 20
140.21995442488279
 30
0.0
 40
2.0
 50
308.2934772873777
 51
0.0
  0
ARC
  5
3127
  8
DANMEN
  6
CONTINUOUS
 10
149.06030456050689
 20
139.21332856916629
 30
0.0
 40
0.2
 50
114.6243183521636
 51
180.0
  0
ARC
  5
3128
  8
DANMEN
  6
CONTINUOUS
 10
148.56030456050689
 20
140.30419978062989
 30
0.0
 40
1.0
 50
294.62431835216358
 51
0.0
  0
LINE
  5
3129
  8
DANMEN
  6
CONTINUOUS
 10
148.8603045605069
 20
138.95026057921291
 30
0.0
 11
148.8603045605069
 21
139.21332856916629
 31
0.0
  0
LINE
  5
312A
  8
DANMEN
  6
CONTINUOUS
 10
131.06030456050701
 20
123.6002605792129
 30
0.0
 11
133.41030456050689
 21
123.6002605792129
 31
0.0
  0
ARC
  5
312B
  8
DANMEN
  6
CONTINUOUS
 10
122.4603045605069
 20
122.6002605792129
 30
0.0
 40
1.0
 50
0.0
 51
90.0
  0
ARC
  5
312C
  8
DANMEN
  6
CONTINUOUS
 10
131.06030456050701
 20
122.6002605792129
 30
0.0
 40
1.0
 50
90.0
 51
180.0
  0
LINE
  5
312D
  8
DANMEN
  6
CONTINUOUS
 10
152.06030456050689
 20
142.60026057921289
 30
0.0
 11
158.76030456050691
 21
142.60026057921289
 31
0.0
  0
ARC
  5
312E
  8
DANMEN
  6
CONTINUOUS
 10
143.4603045605069
 20
141.60026057921289
 30
0.0
 40
1.0
 50
0.0
 51
90.0
  0
ARC
  5
312F
  8
DANMEN
  6
CONTINUOUS
 10
152.06030456050689
 20
141.60026057921289
 30
0.0
 40
1.0
 50
90.0
 51
180.0
  0
LINE
  5
3130
  8
DANMEN
  6
CONTINUOUS
 10
115.4103045605069
 20
157.25026057921289
 30
0.0
 11
119.2603045605069
 21
157.25026057921289
 31
0.0
  0
LINE
  5
3131
  8
DANMEN
  6
CONTINUOUS
 10
115.4103045605069
 20
156.25026057921289
 30
0.0
 11
119.2603045605069
 21
156.25026057921289
 31
0.0
  0
ARC
  5
3132
  8
DANMEN
  6
CONTINUOUS
 10
119.2603045605069
 20
156.75026057921289
 30
0.0
 40
0.5
 50
270.0
 51
90.0
  0
LINE
  5
3133
  8
DANMEN
  6
CONTINUOUS
 10
115.4103045605069
 20
156.25026057921289
 30
0.0
 11
115.4103045605069
 21
144.25026057921289
 31
0.0
  0
LINE
  5
3134
  8
DANMEN
  6
CONTINUOUS
 10
188.9603045605069
 20
141.30419980250241
 30
0.0
 11
188.9603045605069
 21
142.55026059113391
 31
0.0
  0
LINE
  5
3135
  8
DANMEN
  6
CONTINUOUS
 10
192.56030456050689
 20
141.30419980250241
 30
0.0
 11
192.56030456050689
 21
142.55026059113391
 31
0.0
  0
ARC
  5
3136
  8
DANMEN
  6
CONTINUOUS
 10
192.06030456050689
 20
141.21995442488279
 30
0.0
 40
2.0
 50
308.2934772873777
 51
0.0
  0
LINE
  5
3137
  8
DANMEN
  6
CONTINUOUS
 10
191.8603045605069
 20
139.95026057921291
 30
0.0
 11
191.8603045605069
 21
140.21332856916629
 31
0.0
  0
ARC
  5
3138
  8
DANMEN
  6
CONTINUOUS
 10
191.56030456050689
 20
141.30419978062989
 30
0.0
 40
1.0
 50
294.62431835216358
 51
0.0
  0
ARC
  5
3139
  8
DANMEN
  6
CONTINUOUS
 10
192.06030456050689
 20
140.21332856916629
 30
0.0
 40
0.2
 50
114.6243183521636
 51
180.0
  0
ARC
  5
313A
  8
DANMEN
  6
CONTINUOUS
 10
189.4603045605069
 20
140.21332856916629
 30
0.0
 40
0.2
 50
0.0
 51
65.375681647836402
  0
ARC
  5
313B
  8
DANMEN
  6
CONTINUOUS
 10
189.9603045605069
 20
141.30419978062989
 30
0.0
 40
1.0
 50
180.0
 51
245.3756816478363
  0
LINE
  5
313C
  8
DANMEN
  6
CONTINUOUS
 10
189.66030456050689
 20
139.95026057921291
 30
0.0
 11
189.66030456050689
 21
140.21332856916629
 31
0.0
  0
LINE
  5
313D
  8
DANMEN
  6
CONTINUOUS
 10
187.26030456050691
 20
139.6502605792129
 30
0.0
 11
189.36030458434871
 21
139.6502605792129
 31
0.0
  0
LINE
  5
313E
  8
DANMEN
  6
CONTINUOUS
 10
192.16030456050689
 20
139.6502605792129
 30
0.0
 11
193.29968393376839
 21
139.6502605792129
 31
0.0
  0
ARC
  5
313F
  8
DANMEN
  6
CONTINUOUS
 10
192.16030456050689
 20
139.95026057921291
 30
0.0
 40
0.3
 50
180.0
 51
270.0
  0
ARC
  5
3140
  8
DANMEN
  6
CONTINUOUS
 10
189.3603045605069
 20
139.95026057921291
 30
0.0
 40
0.3
 50
270.0
 51
0.0
  0
ARC
  5
3141
  8
DANMEN
  6
CONTINUOUS
 10
189.9603045605069
 20
142.5502605792129
 30
0.0
 40
1.0
 50
90.0
 51
180.0
  0
ARC
  5
3142
  8
DANMEN
  6
CONTINUOUS
 10
191.56030456050689
 20
142.5502605792129
 30
0.0
 40
1.0
 50
0.0
 51
90.0
  0
LINE
  5
3143
  8
DANMEN
  6
CONTINUOUS
 10
189.96030454858601
 20
143.5502605792129
 30
0.0
 11
191.56030457242781
 21
143.5502605792129
 31
0.0
  0
LINE
  5
3144
  8
DANMEN
  6
CONTINUOUS
 10
194.06030456050689
 20
141.21995442488279
 30
0.0
 11
194.06030456050689
 21
144.10026057921289
 31
0.0
  0
LINE
  5
3145
  8
DANMEN
  6
CONTINUOUS
 10
182.26030456050691
 20
136.95026057921291
 30
0.0
 11
185.26030456050691
 21
136.95026057921291
 31
0.0
  0
LINE
  5
3146
  8
DANMEN
  6
CONTINUOUS
 10
119.7603045605069
 20
171.75026191026569
 30
0.0
 11
119.7603045605069
 21
207.7502542808711
 31
0.0
  0
LINE
  5
3147
  8
DANMEN
  6
CONTINUOUS
 10
113.7603045605069
 20
171.25026191026569
 30
0.0
 11
113.7603045605069
 21
207.7502542808711
 31
0.0
  0
LINE
  5
3148
  8
SUNPO
  6
CONTINUOUS
 10
113.7603045605069
 20
207.7502542808711
 30
0.0
 11
119.7603045605069
 21
207.7502542808711
 31
0.0
  0
LINE
  5
3149
  8
DANMEN
  6
CONTINUOUS
 10
119.2603106640225
 20
250.25026041629221
 30
0.0
 11
126.7603106640225
 21
249.25026041629221
 31
0.0
  0
LINE
  5
314A
  8
DANMEN
  6
CONTINUOUS
 10
142.7603106640226
 20
249.25026041629221
 30
0.0
 11
150.2603106640226
 21
250.25026041629221
 31
0.0
  0
LINE
  5
314B
  8
DANMEN
  6
CONTINUOUS
 10
119.26029540523351
 20
170.25024814545
 30
0.0
 11
126.76029540523351
 21
171.25024814545
 31
0.0
  0
LINE
  5
314C
  8
DANMEN
  6
CONTINUOUS
 10
142.76029540523351
 20
171.25024814545
 30
0.0
 11
150.26029540523351
 21
170.25024814545
 31
0.0
  0
ARC
  5
314D
  8
DANMEN
  6
CONTINUOUS
 10
150.96032648386719
 20
164.0502605792129
 30
0.0
 40
0.3
 50
0.0
 51
90.0
  0
ARC
  5
314E
  8
DANMEN
  6
CONTINUOUS
 10
150.2603264838672
 20
163.75026057921289
 30
0.0
 40
0.5
 50
180.0
 51
270.0
  0
LINE
  5
314F
  8
DANMEN
  6
CONTINUOUS
 10
150.8603264838672
 20
164.35026057921289
 30
0.0
 11
150.96032648386719
 21
164.35026057921289
 31
0.0
  0
LINE
  5
3150
  8
DANMEN
  6
CONTINUOUS
 10
150.8603264838672
 20
164.35026057921289
 30
0.0
 11
150.8603264838672
 21
168.60026057921289
 31
0.0
  0
ARC
  5
3151
  8
DANMEN
  6
CONTINUOUS
 10
168.6103264838672
 20
165.100260579213
 30
0.0
 40
1.5
 50
180.0
 51
270.0
  0
LINE
  5
3152
  8
DANMEN
  6
CONTINUOUS
 10
164.2603264838672
 20
168.60026057921289
 30
0.0
 11
167.1103264838672
 21
168.60026057921289
 31
0.0
  0
LINE
  5
3153
  8
DANMEN
  6
CONTINUOUS
 10
150.8603264838672
 20
168.60026057921289
 30
0.0
 11
162.7603264838672
 21
168.60026057921289
 31
0.0
  0
LINE
  5
3154
  8
DANMEN
  6
CONTINUOUS
 10
167.1103264838672
 20
168.60026057921289
 30
0.0
 11
167.1103264838672
 21
165.100260579213
 31
0.0
  0
LINE
  5
3155
  8
DANMEN
  6
CONTINUOUS
 10
168.6103264838672
 20
163.60026057921289
 30
0.0
 11
197.56032648386719
 21
163.60026057921289
 31
0.0
  0
ARC
  5
3156
  8
DANMEN
  6
CONTINUOUS
 10
200.7603264838672
 20
159.5502605792129
 30
0.0
 40
0.5
 50
270.0
 51
90.0
  0
LINE
  5
3157
  8
DANMEN
  6
CONTINUOUS
 10
198.7603264838672
 20
159.0502605792129
 30
0.0
 11
200.7603264838672
 21
159.0502605792129
 31
0.0
  0
ARC
  5
3158
  8
DANMEN
  6
CONTINUOUS
 10
168.2603264838672
 20
169.75026057921289
 30
0.0
 40
0.5
 50
0.0
 51
90.0
  0
LINE
  5
3159
  8
DANMEN
  6
CONTINUOUS
 10
196.2603264838672
 20
169.25026057921289
 30
0.0
 11
197.1103264838672
 21
169.25026057921289
 31
0.0
  0
ARC
  5
315A
  8
DANMEN
  6
CONTINUOUS
 10
196.7603264838672
 20
149.25026057921289
 30
0.0
 40
0.5
 50
180.0
 51
270.0
  0
ARC
  5
315B
  8
DANMEN
  6
CONTINUOUS
 10
198.2603264838672
 20
149.25026057921289
 30
0.0
 40
0.5
 50
270.0
 51
0.0
  0
LINE
  5
315C
  8
DANMEN
  6
CONTINUOUS
 10
196.2603264838672
 20
149.75026057921289
 30
0.0
 11
196.2603264838672
 21
149.25026057921289
 31
0.0
  0
LINE
  5
315D
  8
DANMEN
  6
CONTINUOUS
 10
196.7603264838672
 20
148.75026057921289
 30
0.0
 11
198.2603264838672
 21
148.75026057921289
 31
0.0
  0
LINE
  5
315E
  8
DANMEN
  6
CONTINUOUS
 10
198.7603264838672
 20
159.0502605792129
 30
0.0
 11
198.7603264838672
 21
149.25026057921289
 31
0.0
  0
LINE
  5
315F
  8
DANMEN
  6
CONTINUOUS
 10
198.7603264838672
 20
160.0502605792129
 30
0.0
 11
200.7603264838672
 21
160.0502605792129
 31
0.0
  0
LINE
  5
3160
  8
DANMEN
  6
CONTINUOUS
 10
196.7603264838672
 20
170.25026057921289
 30
0.0
 11
198.7603264838672
 21
170.25026057921289
 31
0.0
  0
LINE
  5
3161
  8
DANMEN
  6
CONTINUOUS
 10
197.1103264838672
 20
169.25026057921289
 30
0.0
 11
197.1103264838672
 21
165.25026057921289
 31
0.0
  0
LINE
  5
3162
  8
DANMEN
  6
CONTINUOUS
 10
168.7603264838672
 20
169.75026057921289
 30
0.0
 11
168.7603264838672
 21
165.25026057921289
 31
0.0
  0
LINE
  5
3163
  8
DANMEN
  6
CONTINUOUS
 10
150.2603264838672
 20
170.25026057921289
 30
0.0
 11
168.2603264838672
 21
170.25026057921289
 31
0.0
  0
LINE
  5
3164
  8
DANMEN
  6
CONTINUOUS
 10
150.2603264838672
 20
157.25026057921289
 30
0.0
 11
149.7603264838672
 21
157.25026057921289
 31
0.0
  0
LINE
  5
3165
  8
DANMEN
  6
CONTINUOUS
 10
150.2603264838672
 20
163.25026057921289
 30
0.0
 11
150.2603264838672
 21
157.25026057921289
 31
0.0
  0
LINE
  5
3166
  8
DANMEN
  6
CONTINUOUS
 10
149.7603264838672
 20
157.25026057921289
 30
0.0
 11
149.7603264838672
 21
156.75026057921289
 31
0.0
  0
LINE
  5
3167
  8
DANMEN
  6
CONTINUOUS
 10
150.7603264838672
 20
156.25026057921289
 30
0.0
 11
150.2603264838672
 21
156.25026057921289
 31
0.0
  0
ARC
  5
3168
  8
DANMEN
  6
CONTINUOUS
 10
150.2603264838672
 20
156.75026057921289
 30
0.0
 40
0.5
 50
180.0
 51
270.0
  0
ARC
  5
3169
  8
DANMEN
  6
CONTINUOUS
 10
150.7603264838672
 20
156.75026057921289
 30
0.0
 40
0.5
 50
270.0
 51
0.0
  0
LINE
  5
316A
  8
DANMEN
  6
CONTINUOUS
 10
151.2603264838672
 20
156.75026057921289
 30
0.0
 11
151.2603264838672
 21
164.0502605792129
 31
0.0
  0
LINE
  5
316B
  8
DANMEN
  6
CONTINUOUS
 10
149.7603264838672
 20
163.75026057921289
 30
0.0
 11
149.7603264838672
 21
169.75026057921289
 31
0.0
  0
ARC
  5
316C
  8
DANMEN
  6
CONTINUOUS
 10
150.2603264838672
 20
169.75026057921289
 30
0.0
 40
0.5
 50
90.0
 51
180.0
  0
ARC
  5
316D
  8
DANMEN
  6
CONTINUOUS
 10
163.7603264838672
 20
147.75026057921289
 30
0.0
 40
0.5
 50
270.00001798608901
 51
0.0
  0
ARC
  5
316E
  8
DANMEN
  6
CONTINUOUS
 10
163.2603264838672
 20
147.75026057921289
 30
0.0
 40
0.5
 50
179.99998133066549
 51
270.00001798608901
  0
LINE
  5
316F
  8
DANMEN
  6
CONTINUOUS
 10
163.2603264838672
 20
147.25026057921289
 30
0.0
 11
163.7603264838672
 21
147.25026057921289
 31
0.0
  0
LINE
  5
3170
  8
DANMEN
  6
CONTINUOUS
 10
162.7603264838672
 20
168.60026057921289
 30
0.0
 11
162.7603264838672
 21
147.75026057921289
 31
0.0
  0
LINE
  5
3171
  8
DANMEN
  6
CONTINUOUS
 10
164.2603264838672
 20
168.60026057921289
 30
0.0
 11
164.2603264838672
 21
147.75026057921289
 31
0.0
  0
LINE
  5
3172
  8
DANMEN
  6
CONTINUOUS
 10
198.7603264838672
 20
170.25026057921289
 30
0.0
 11
198.7603264838672
 21
160.0502605792129
 31
0.0
  0
LINE
  5
3173
  8
DANMEN
  6
CONTINUOUS
 10
168.7603264838672
 20
165.25026057921289
 30
0.0
 11
197.1103264838672
 21
165.25026057921289
 31
0.0
  0
LINE
  5
3174
  8
DANMEN
  6
CONTINUOUS
 10
197.56032648386719
 20
163.60026057921289
 30
0.0
 11
197.56032648386719
 21
149.75026057921289
 31
0.0
  0
LINE
  5
3175
  8
DANMEN
  6
CONTINUOUS
 10
196.2603264838672
 20
149.75026057921289
 30
0.0
 11
197.56032648386719
 21
149.75026057921289
 31
0.0
  0
LINE
  5
3176
  8
DANMEN
  6
CONTINUOUS
 10
196.2603264838672
 20
169.75026057921289
 30
0.0
 11
196.2603264838672
 21
169.25026057921289
 31
0.0
  0
ARC
  5
3177
  8
DANMEN
  6
CONTINUOUS
 10
196.7603264838672
 20
169.75026057921289
 30
0.0
 40
0.5
 50
90.0
 51
180.0
  0
LINE
  5
3178
  8
DANMEN
  6
CONTINUOUS
 10
131.26030360683259
 20
147.25026167813809
 30
0.0
 11
124.2603055141813
 21
147.2502594802877
 31
0.0
  0
LINE
  5
3179
  8
DANMEN
  6
CONTINUOUS
 10
129.3813040157477
 20
146.87126060322879
 30
0.0
 11
129.38130640857881
 21
141.25026299552081
 31
0.0
  0
LINE
  5
317A
  8
DANMEN
  6
CONTINUOUS
 10
126.13930534326229
 20
146.8712595853103
 30
0.0
 11
126.1393077360934
 21
141.25026197760229
 31
0.0
  0
LINE
  5
317B
  8
DANMEN
  6
CONTINUOUS
 10
129.76030500007639
 20
145.85026349598871
 30
0.0
 11
129.7603070723361
 21
141.25026311451899
 31
0.0
  0
LINE
  5
317C
  8
DANMEN
  6
CONTINUOUS
 10
125.7603050000764
 20
145.8502622400739
 30
0.0
 11
125.7603070723361
 21
141.25026185860409
 31
0.0
  0
LINE
  5
317D
  8
DANMEN
  6
CONTINUOUS
 10
131.1623602348464
 20
148.36967387301749
 30
0.0
 11
131.26029631515249
 21
147.2502619045402
 31
0.0
  0
LINE
  5
317E
  8
DANMEN
  6
CONTINUOUS
 10
124.3582471396067
 20
148.3696711251107
 30
0.0
 11
124.2603118583861
 21
147.2502598021903
 31
0.0
  0
ARC
  5
317F
  8
DANMEN
  6
CONTINUOUS
 10
127.76030656997089
 20
140.8502600070083
 30
0.0
 40
9.0
 50
74.119191136984583
 51
105.8808821738634
  0
ARC
  5
3180
  8
DANMEN
  6
CONTINUOUS
 10
129.86731349452791
 20
148.25637363158111
 30
0.0
 40
1.2999992370605451
 50
5.0000809630422873
 51
74.119191136984583
  0
ARC
  5
3181
  8
DANMEN
  6
CONTINUOUS
 10
125.6532946728116
 20
148.2563726779068
 30
0.0
 40
1.2999992370605451
 50
105.8808821738634
 51
174.99999234780509
  0
LINE
  5
3182
  8
DANMEN
  6
CONTINUOUS
 10
129.76030309272841
 20
145.85026158863951
 30
0.0
 11
125.7603069074257
 21
145.85026033272581
 31
0.0
  0
ARC
  5
3183
  8
DANMEN
  6
CONTINUOUS
 10
129.76030456050691
 20
146.8712606307113
 30
0.0
 40
0.3790005445480347
 50
90.00003665542431
 51
201.79007065010251
  0
ARC
  5
3184
  8
DANMEN
  6
CONTINUOUS
 10
125.7603055141813
 20
146.87125937901379
 30
0.0
 40
0.3790005445480347
 50
338.21000266074509
 51
90.00003665542431
  0
LINE
  5
3185
  8
DANMEN
  6
CONTINUOUS
 10
129.7602923347124
 20
145.85026728734309
 30
0.0
 11
129.40837190046
 21
146.7305766057988
 31
0.0
  0
LINE
  5
3186
  8
DANMEN
  6
CONTINUOUS
 10
125.76031667751801
 20
145.8502664369731
 30
0.0
 11
126.1122366031985
 21
146.73057598146079
 31
0.0
  0
LINE
  5
3187
  8
DANMEN
  6
DASHED
 10
129.76029905931821
 20
149.6252162182505
 30
0.0
 11
128.90529978731101
 21
147.91035147966471
 31
0.0
  0
LINE
  5
3188
  8
DANMEN
  6
DASHED
 10
125.7603091392856
 20
149.62521410029811
 30
0.0
 11
126.6153090136897
 21
147.91035078625731
 31
0.0
  0
LINE
  5
3189
  8
DANMEN
  6
DASHED
 10
128.90529537632111
 20
147.91035351323211
 30
0.0
 11
127.9950397770255
 21
147.4263612823321
 31
0.0
  0
LINE
  5
318A
  8
DANMEN
  6
DASHED
 10
126.6153124829587
 20
147.91035326259669
 30
0.0
 11
127.5255692841671
 21
147.42636110902421
 31
0.0
  0
ARC
  5
318B
  8
DANMEN
  6
DASHED
 10
127.7603043666016
 20
147.86783533059
 30
0.0
 40
0.5
 50
242.00001265345799
 51
298.00007796023289
  0
LINE
  5
318C
  8
DANMEN
  6
CONTINUOUS
 10
129.7603051649881
 20
141.25026120716981
 30
0.0
 11
125.76030897968531
 21
141.25025995125611
 31
0.0
  0
LINE
  5
318D
  8
DANMEN
  6
CENTER
 10
127.7603045605069
 20
151.85025905333401
 30
0.0
 11
127.7603045605069
 21
139.25026057921289
 31
0.0
  0
LINE
  5
318E
  8
DANMEN
  6
CONTINUOUS
 10
147.76030456050691
 20
155.25026057921289
 30
0.0
 11
121.7603045605069
 21
144.25026057921289
 31
0.0
  0
LINE
  5
318F
  8
DANMEN
  6
CONTINUOUS
 10
121.7603045605069
 20
144.25026057921289
 30
0.0
 11
121.7603045605069
 21
155.25026057921289
 31
0.0
  0
LINE
  5
3190
  8
DANMEN
  6
CONTINUOUS
 10
147.76030456050691
 20
144.25026057921289
 30
0.0
 11
147.76030456050691
 21
155.25026057921289
 31
0.0
  0
LINE
  5
3191
  8
DANMEN
  6
CONTINUOUS
 10
121.7603045605069
 20
155.25026057921289
 30
0.0
 11
147.76030456050691
 21
155.25026057921289
 31
0.0
  0
LINE
  5
3192
  8
DANMEN
  6
CONTINUOUS
 10
121.7603045605069
 20
144.25026057921289
 30
0.0
 11
147.76030456050691
 21
144.25026057921289
 31
0.0
  0
ARC
  5
3193
  8
DANMEN
  6
CONTINUOUS
 10
199.8103053234463
 20
165.8816187258804
 30
0.0
 40
0.8000000119209291
 50
314.99999533266589
 51
82.819212894179444
  0
ARC
  5
3194
  8
DANMEN
  6
CONTINUOUS
 10
200.3103053234463
 20
163.5245134707535
 30
0.0
 40
0.3000000119209289
 50
0.0
 51
120.5792307016785
  0
ARC
  5
3195
  8
DANMEN
  6
CONTINUOUS
 10
198.6103045605069
 20
163.10073779784091
 30
0.0
 40
0.199999988079071
 50
179.9999813306647
 51
300.5792666738559
  0
ARC
  5
3196
  8
DANMEN
  6
CONTINUOUS
 10
200.9103047512418
 20
161.8502483841026
 30
0.0
 40
0.3000000119209289
 50
179.9999813306647
 51
270.00001798608901
  0
ARC
  5
3197
  8
DANMEN
  6
CONTINUOUS
 10
201.6103045605069
 20
167.85024856291651
 30
0.0
 40
0.5
 50
0.0
 51
89.999982013910966
  0
ARC
  5
3198
  8
DANMEN
  6
CONTINUOUS
 10
200.4103047512418
 20
167.85024856291651
 30
0.0
 40
0.5
 50
89.999982013910966
 51
179.99996402782111
  0
LINE
  5
3199
  8
DANMEN
  6
CONTINUOUS
 10
200.6103045605069
 20
163.5245134707535
 30
0.0
 11
200.6103045605069
 21
161.8502483841026
 31
0.0
  0
LINE
  5
319A
  8
DANMEN
  6
CONTINUOUS
 10
200.37599018226319
 20
165.31593323537641
 30
0.0
 11
198.41030554273351
 21
163.35024876154159
 31
0.0
  0
LINE
  5
319B
  8
DANMEN
  6
CONTINUOUS
 10
200.157685853293
 20
163.78279173825169
 30
0.0
 11
198.71205106327361
 21
162.92855299414529
 31
0.0
  0
LINE
  5
319C
  8
DANMEN
  6
CONTINUOUS
 10
198.41030475124171
 20
163.35024760924219
 30
0.0
 11
198.41030475124171
 21
163.10073779784091
 31
0.0
  0
LINE
  5
319D
  8
DANMEN
  6
CONTINUOUS
 10
202.1103045605069
 20
167.85024856291651
 30
0.0
 11
202.1103045605069
 21
161.5502483721817
 31
0.0
  0
LINE
  5
319E
  8
DANMEN
  6
CONTINUOUS
 10
200.4103047512418
 20
168.35024856291659
 30
0.0
 11
201.6103045605069
 21
168.35024856291659
 31
0.0
  0
LINE
  5
319F
  8
DANMEN
  6
CONTINUOUS
 10
200.9103047512418
 20
161.5502483721817
 30
0.0
 11
202.1103045605069
 21
161.5502483721817
 31
0.0
  0
LINE
  5
31A0
  8
DANMEN
  6
CONTINUOUS
 10
199.9103047512418
 20
167.85024856291651
 30
0.0
 11
199.9103047512418
 21
166.6753446932876
 31
0.0
  0
LINE
  5
31A1
  8
DANMEN
  6
CONTINUOUS
 10
149.76030456050691
 20
171.75026191026569
 30
0.0
 11
149.76030456050691
 21
207.7502542808711
 31
0.0
  0
LINE
  5
31A2
  8
DANMEN
  6
CONTINUOUS
 10
119.7603045605069
 20
171.75026191026569
 30
0.0
 11
119.7603045605069
 21
207.7502542808711
 31
0.0
  0
LINE
  5
31A3
  8
SUNPO
  6
CONTINUOUS
 10
119.7603045605069
 20
207.7502542808711
 30
0.0
 11
149.76030456050691
 21
207.7502542808711
 31
0.0
  0
LINE
  5
31A4
  8
SUNPO
  6
CONTINUOUS
 10
149.76030456050691
 20
207.7502542808711
 30
0.0
 11
198.7603264838672
 21
207.7502542808711
 31
0.0
  0
LINE
  5
31A5
  8
SUNPO
  6
CONTINUOUS
 10
102.2603045605069
 20
170.25026057921289
 30
0.0
 11
95.760304560506924
 21
170.25026057921289
 31
0.0
  0
LINE
  5
31A6
  8
SUNPO
  6
CONTINUOUS
 10
102.2603045605069
 20
155.25026057921289
 30
0.0
 11
95.760304560506924
 21
155.25026057921289
 31
0.0
  0
LINE
  5
31A7
  8
SUNPO
  6
CONTINUOUS
 10
95.760304560506924
 20
155.25026057921289
 30
0.0
 11
95.760304560506924
 21
170.25026057921289
 31
0.0
  0
LINE
  5
31A8
  8
SUNPO
  6
CONTINUOUS
 10
102.2603045605069
 20
170.25026057921289
 30
0.0
 11
87.760304560506938
 21
170.25026057921289
 31
0.0
  0
LINE
  5
31A9
  8
SUNPO
  6
CONTINUOUS
 10
102.2603045605069
 20
138.25026057921289
 30
0.0
 11
87.760304560506938
 21
138.25026057921289
 31
0.0
  0
LINE
  5
31AA
  8
SUNPO
  6
CONTINUOUS
 10
87.760304560506938
 20
138.25026057921289
 30
0.0
 11
87.760304560506938
 21
170.25026057921289
 31
0.0
  0
LINE
  5
31AB
  8
SUNPO
  6
CONTINUOUS
 10
102.2603045605069
 20
120.25026057921291
 30
0.0
 11
87.760304560506938
 21
120.25026057921291
 31
0.0
  0
LINE
  5
31AC
  8
SUNPO
  6
CONTINUOUS
 10
87.760304560506938
 20
120.25026057921291
 30
0.0
 11
87.760304560506938
 21
138.25026057921289
 31
0.0
  0
LINE
  5
31AD
  8
SUNPO
  6
CONTINUOUS
 10
102.2603045605069
 20
110.25026057921291
 30
0.0
 11
87.760304560506938
 21
110.25026057921291
 31
0.0
  0
LINE
  5
31AE
  8
SUNPO
  6
CONTINUOUS
 10
87.760304560506938
 20
110.25026057921291
 30
0.0
 11
87.760304560506938
 21
120.25026057921291
 31
0.0
  0
LINE
  5
31AF
  8
SUNPO
  6
CONTINUOUS
 10
157.260304560507
 20
100.25026057921291
 30
0.0
 11
87.760304560506938
 21
100.25026057921291
 31
0.0
  0
LINE
  5
31B0
  8
SUNPO
  6
CONTINUOUS
 10
87.760304560506938
 20
100.25026057921291
 30
0.0
 11
87.760304560506938
 21
110.25026057921291
 31
0.0
  0
LINE
  5
31B1
  8
SUNPO
  6
CONTINUOUS
 10
102.2603045605069
 20
309.25026041629218
 30
0.0
 11
87.760304560506938
 21
309.25026041629218
 31
0.0
  0
LINE
  5
31B2
  8
SUNPO
  6
CONTINUOUS
 10
102.2603045605069
 20
274.25026041629218
 30
0.0
 11
87.760304560506938
 21
274.25026041629218
 31
0.0
  0
LINE
  5
31B3
  8
SUNPO
  6
CONTINUOUS
 10
87.760304560506938
 20
274.25026041629218
 30
0.0
 11
87.760304560506938
 21
309.25026041629218
 31
0.0
  0
LINE
  5
31B4
  8
SUNPO
  6
CONTINUOUS
 10
102.2603045605069
 20
250.25026041629221
 30
0.0
 11
87.760304560506938
 21
250.25026041629221
 31
0.0
  0
LINE
  5
31B5
  8
SUNPO
  6
CONTINUOUS
 10
87.760304560506938
 20
250.25026041629221
 30
0.0
 11
87.760304560506938
 21
274.25026041629218
 31
0.0
  0
LINE
  5
31B6
  8
SUNPO
  6
CONTINUOUS
 10
102.2603045605069
 20
265.25026041629218
 30
0.0
 11
95.760304560506924
 21
265.25026041629218
 31
0.0
  0
LINE
  5
31B7
  8
SUNPO
  6
CONTINUOUS
 10
95.760304560506924
 20
250.25026041629221
 30
0.0
 11
95.760304560506924
 21
265.25026041629218
 31
0.0
  0
LINE
  5
31B8
  8
SUNPO
  6
CONTINUOUS
 10
157.260304560507
 20
314.25026041629229
 30
0.0
 11
87.760304560506938
 21
314.25026041629229
 31
0.0
  0
LINE
  5
31B9
  8
SUNPO
  6
CONTINUOUS
 10
87.760304560506938
 20
309.25026041629218
 30
0.0
 11
87.760304560506938
 21
314.25026041629229
 31
0.0
  0
LINE
  5
31BA
  8
SUNPO
  6
CONTINUOUS
 10
157.260304560507
 20
324.25026041629218
 30
0.0
 11
87.760304560506938
 21
324.25026041629218
 31
0.0
  0
LINE
  5
31BB
  8
SUNPO
  6
CONTINUOUS
 10
87.760304560506938
 20
314.25026041629229
 30
0.0
 11
87.760304560506938
 21
324.25026041629218
 31
0.0
  0
LINE
  5
31BC
  8
SUNPO
  6
CONTINUOUS
 10
205.26030456050691
 20
314.25026041629229
 30
0.0
 11
219.76030456050691
 21
314.25026041629229
 31
0.0
  0
LINE
  5
31BD
  8
SUNPO
  6
CONTINUOUS
 10
205.26030456050691
 20
324.25026041629218
 30
0.0
 11
219.76030456050691
 21
324.25026041629218
 31
0.0
  0
LINE
  5
31BE
  8
SUNPO
  6
CONTINUOUS
 10
219.76030456050691
 20
324.25026041629218
 30
0.0
 11
219.76030456050691
 21
314.25026041629229
 31
0.0
  0
LINE
  5
31BF
  8
SUNPO
  6
CONTINUOUS
 10
205.26030456050691
 20
274.25026041629218
 30
0.0
 11
219.76030456050691
 21
274.25026041629218
 31
0.0
  0
LINE
  5
31C0
  8
SUNPO
  6
CONTINUOUS
 10
219.76030456050691
 20
314.25026041629229
 30
0.0
 11
219.76030456050691
 21
274.25026041629218
 31
0.0
  0
LINE
  5
31C1
  8
SUNPO
  6
CONTINUOUS
 10
205.26030495833061
 20
250.2502603924504
 30
0.0
 11
212.72611191939029
 21
250.2502603924504
 31
0.0
  0
LINE
  5
31C2
  8
SUNPO
  6
CONTINUOUS
 10
212.72611191939029
 20
274.25026041629218
 30
0.0
 11
212.72611191939029
 21
250.2502603924504
 31
0.0
  0
LINE
  5
31C3
  8
SUNPO
  6
CONTINUOUS
 10
219.76030456050691
 20
274.25026041629218
 30
0.0
 11
224.7603044736579
 21
269.25026050314131
 31
0.0
  0
LINE
  5
31C4
  8
SUNPO
  6
CONTINUOUS
 10
214.76030464735589
 20
269.25026050314131
 30
0.0
 11
219.76030456050691
 21
274.25026041629218
 31
0.0
  0
LINE
  5
31C5
  8
SUNPO
  6
CONTINUOUS
 10
224.76030456050691
 20
269.25026041629218
 30
0.0
 11
214.76030456050691
 21
269.25026041629218
 31
0.0
  0
LINE
  5
31C6
  8
SUNPO
  6
CONTINUOUS
 10
215.76030456050691
 20
219.39130511445191
 30
0.0
 11
223.76030456050691
 21
219.39130511445191
 31
0.0
  0
LINE
  5
31C7
  8
SUNPO
  6
CONTINUOUS
 10
218.56023131831941
 20
232.9065648571887
 30
0.0
 11
218.56023131831941
 21
228.11802115601679
 31
0.0
  0
LINE
  5
31C8
  8
SUNPO
  6
CONTINUOUS
 10
220.96022521480381
 20
232.9065648571887
 30
0.0
 11
220.96022521480381
 21
228.11802115601679
 31
0.0
  0
LINE
  5
31C9
  8
SUNPO
  6
CONTINUOUS
 10
215.76030456050691
 20
220.7912990109362
 30
0.0
 11
215.76030456050691
 21
215.5939561383166
 31
0.0
  0
LINE
  5
31CA
  8
SUNPO
  6
CONTINUOUS
 10
215.76030456050691
 20
226.90425124329701
 30
0.0
 11
215.76030456050691
 21
223.17120471161979
 31
0.0
  0
LINE
  5
31CB
  8
SUNPO
  6
CONTINUOUS
 10
215.76030456050691
 20
224.89130559128901
 30
0.0
 11
223.76030456050691
 21
224.89130559128901
 31
0.0
  0
LINE
  5
31CC
  8
SUNPO
  6
CONTINUOUS
 10
223.76030456050691
 20
220.7912990109362
 30
0.0
 11
223.76030456050691
 21
215.5939561383166
 31
0.0
  0
LINE
  5
31CD
  8
SUNPO
  6
CONTINUOUS
 10
219.76030456050691
 20
224.89130559128901
 30
0.0
 11
219.76030456050691
 21
219.39130511445191
 31
0.0
  0
LINE
  5
31CE
  8
SUNPO
  6
CONTINUOUS
 10
223.76030456050691
 20
226.90425124329701
 30
0.0
 11
223.76030456050691
 21
223.17120471161979
 31
0.0
  0
LINE
  5
31CF
  8
SUNPO
  6
CONTINUOUS
 10
215.76030456050691
 20
217.39130511445191
 30
0.0
 11
223.76030456050691
 21
217.39130511445191
 31
0.0
  0
LINE
  5
31D0
  8
SUNPO
  6
CONTINUOUS
 10
219.76030456050691
 20
170.25026057921289
 30
0.0
 11
214.76030464735589
 21
175.25026049236391
 31
0.0
  0
LINE
  5
31D1
  8
SUNPO
  6
CONTINUOUS
 10
224.7603044736579
 20
175.25026049236391
 30
0.0
 11
219.76030456050691
 21
170.25026057921289
 31
0.0
  0
LINE
  5
31D2
  8
SUNPO
  6
CONTINUOUS
 10
214.76030456050691
 20
175.25026057921289
 30
0.0
 11
224.76030456050691
 21
175.25026057921289
 31
0.0
  0
LINE
  5
31D3
  8
SUNPO
  6
CONTINUOUS
 10
219.76030456050691
 20
274.25026041629218
 30
0.0
 11
219.76030456050691
 21
236.3942938927168
 31
0.0
  0
LINE
  5
31D4
  8
SUNPO
  6
CONTINUOUS
 10
219.76030456050691
 20
213.21103108237679
 30
0.0
 11
219.76030456050691
 21
170.25026057921289
 31
0.0
  0
LINE
  5
31D5
  8
DANMEN
  6
CONTINUOUS
 10
198.7603264838672
 20
207.7502542808711
 30
0.0
 11
198.7603264838672
 21
170.25026057921289
 31
0.0
  0
LINE
  5
31D6
  8
DANMEN
  6
CONTINUOUS
 10
198.7603264838672
 20
212.7502542808711
 30
0.0
 11
198.7603264838672
 21
250.25026041629221
 31
0.0
  0
LINE
  5
31D7
  8
DANMEN
  6
CONTINUOUS
 10
203.76030456050691
 20
274.25026041629218
 30
0.0
 11
203.76030456050691
 21
212.7502542808711
 31
0.0
  0
LINE
  5
31D8
  8
DANMEN
  6
CONTINUOUS
 10
159.91030456050709
 20
324.25026041629218
 30
0.0
 11
203.76030456050691
 21
324.25026041629218
 31
0.0
  0
LINE
  5
31D9
  8
DANMEN
  6
CONTINUOUS
 10
126.76029540523361
 20
155.2502478200972
 30
0.0
 11
142.76029540523371
 21
155.2502478200972
 31
0.0
  0
LINE
  5
31DA
  8
DANMEN
  6
CONTINUOUS
 10
126.7603106640225
 20
265.25026041629218
 30
0.0
 11
142.7603106640226
 21
265.25026041629218
 31
0.0
  0
LINE
  5
31DB
  8
DANMEN
  6
CONTINUOUS
 10
137.7603106640226
 20
212.7502542808711
 30
0.0
 11
137.7603106640226
 21
265.25026041629218
 31
0.0
  0
LINE
  5
31DC
  8
DANMEN
  6
CONTINUOUS
 10
131.76031066402251
 20
212.7502542808711
 30
0.0
 11
131.76031066402251
 21
265.25026041629218
 31
0.0
  0
LINE
  5
31DD
  8
DANMEN
  6
CONTINUOUS
 10
142.7603106640226
 20
212.7502542808711
 30
0.0
 11
142.7603106640226
 21
265.25026041629218
 31
0.0
  0
LINE
  5
31DE
  8
DANMEN
  6
CONTINUOUS
 10
126.7603106640225
 20
212.7502542808711
 30
0.0
 11
126.7603106640225
 21
265.25026041629218
 31
0.0
  0
LINE
  5
31DF
  8
DANMEN
  6
CONTINUOUS
 10
131.76031066402251
 20
259.25026041629218
 30
0.0
 11
137.7603106640226
 21
259.25026041629218
 31
0.0
  0
LINE
  5
31E0
  8
DANMEN
  6
CONTINUOUS
 10
131.76031066402251
 20
259.25026041629218
 30
0.0
 11
137.7603106640226
 21
265.25026041629218
 31
0.0
  0
LINE
  5
31E1
  8
DANMEN
  6
CONTINUOUS
 10
131.76031066402251
 20
265.25026041629218
 30
0.0
 11
137.7603106640226
 21
259.25026041629218
 31
0.0
  0
LINE
  5
31E2
  8
DANMEN
  6
CONTINUOUS
 10
127.2603106640226
 20
212.7502542808711
 30
0.0
 11
127.2603106640226
 21
265.25026041629218
 31
0.0
  0
LINE
  5
31E3
  8
DANMEN
  6
CONTINUOUS
 10
131.2603106640226
 20
212.7502542808711
 30
0.0
 11
131.2603106640226
 21
265.25026041629218
 31
0.0
  0
LINE
  5
31E4
  8
DANMEN
  6
CONTINUOUS
 10
138.26031066402251
 20
212.7502542808711
 30
0.0
 11
138.26031066402251
 21
265.25026041629218
 31
0.0
  0
LINE
  5
31E5
  8
DANMEN
  6
CONTINUOUS
 10
142.26031066402251
 20
212.7502542808711
 30
0.0
 11
142.26031066402251
 21
265.25026041629218
 31
0.0
  0
LINE
  5
31E6
  8
DANMEN
  6
CONTINUOUS
 10
126.7603045605069
 20
155.25026057921289
 30
0.0
 11
142.76030456050691
 21
155.25026057921289
 31
0.0
  0
LINE
  5
31E7
  8
DANMEN
  6
CONTINUOUS
 10
137.76030456050691
 20
155.25026057921289
 30
0.0
 11
137.76030456050691
 21
207.7502542808711
 31
0.0
  0
LINE
  5
31E8
  8
DANMEN
  6
CONTINUOUS
 10
131.76030456050691
 20
155.25026057921289
 30
0.0
 11
131.76030456050691
 21
207.7502542808711
 31
0.0
  0
LINE
  5
31E9
  8
DANMEN
  6
CONTINUOUS
 10
142.76030456050691
 20
155.25026057921289
 30
0.0
 11
142.76030456050691
 21
207.7502542808711
 31
0.0
  0
LINE
  5
31EA
  8
DANMEN
  6
CONTINUOUS
 10
126.7603045605069
 20
155.25026057921289
 30
0.0
 11
126.7603045605069
 21
207.7502542808711
 31
0.0
  0
LINE
  5
31EB
  8
DANMEN
  6
CONTINUOUS
 10
131.76030456050691
 20
161.25026057921289
 30
0.0
 11
137.76030456050691
 21
161.25026057921289
 31
0.0
  0
LINE
  5
31EC
  8
DANMEN
  6
CONTINUOUS
 10
131.76030456050691
 20
155.25026057921289
 30
0.0
 11
137.76030456050691
 21
161.25026057921289
 31
0.0
  0
LINE
  5
31ED
  8
DANMEN
  6
CONTINUOUS
 10
131.76030456050691
 20
161.25026057921289
 30
0.0
 11
137.76030456050691
 21
155.25026057921289
 31
0.0
  0
LINE
  5
31EE
  8
DANMEN
  6
CONTINUOUS
 10
127.2603045605069
 20
155.25026057921289
 30
0.0
 11
127.2603045605069
 21
207.7502542808711
 31
0.0
  0
LINE
  5
31EF
  8
DANMEN
  6
CONTINUOUS
 10
131.260304560507
 20
155.25026057921289
 30
0.0
 11
131.260304560507
 21
207.7502542808711
 31
0.0
  0
LINE
  5
31F0
  8
DANMEN
  6
CONTINUOUS
 10
138.26030456050691
 20
155.25026057921289
 30
0.0
 11
138.26030456050691
 21
207.7502542808711
 31
0.0
  0
LINE
  5
31F1
  8
DANMEN
  6
CONTINUOUS
 10
142.26030456050691
 20
155.25026057921289
 30
0.0
 11
142.26030456050691
 21
207.7502542808711
 31
0.0
  0
LINE
  5
31F2
  8
DANMEN
  6
CONTINUOUS
 10
119.2603106640225
 20
212.7502542808711
 30
0.0
 11
119.2603106640225
 21
250.25026041629221
 31
0.0
  0
LINE
  5
31F3
  8
DANMEN
  6
CONTINUOUS
 10
119.2603045605069
 20
170.25026057106791
 30
0.0
 11
119.2603045605069
 21
207.7502542808711
 31
0.0
  0
LINE
  5
31F4
  8
DANMEN
  6
CONTINUOUS
 10
150.2603106640226
 20
212.7502542808711
 30
0.0
 11
150.2603106640226
 21
250.25026041629221
 31
0.0
  0
LINE
  5
31F5
  8
DANMEN
  6
CONTINUOUS
 10
150.26030456050691
 20
170.25026057921289
 30
0.0
 11
150.26030456050691
 21
207.7502542808711
 31
0.0
  0
LINE
  5
31F6
  8
DANMEN
  6
CONTINUOUS
 10
203.76030456050691
 20
324.25026041629218
 30
0.0
 11
203.76030456050691
 21
314.25026041629229
 31
0.0
  0
LINE
  5
31F7
  8
DANMEN
  6
CONTINUOUS
 10
159.91030456050709
 20
100.25026057921291
 30
0.0
 11
203.76030456050691
 21
100.25026057921291
 31
0.0
  0
LINE
  5
31F8
  8
DANMEN
  6
CONTINUOUS
 10
203.76030456050691
 20
115.25026057921291
 30
0.0
 11
203.76030456050691
 21
100.25026057921291
 31
0.0
  0
LINE
  5
31F9
  8
DANMEN
  6
CONTINUOUS
 10
103.7603045605069
 20
274.25026041629229
 30
0.0
 11
105.410304560507
 21
274.25026041629229
 31
0.0
  0
LINE
  5
31FA
  8
DANMEN
  6
CONTINUOUS
 10
105.410304560507
 20
274.25026041629229
 30
0.0
 11
105.410304560507
 21
212.7502542808711
 31
0.0
  0
LINE
  5
31FB
  8
DANMEN
  6
CONTINUOUS
 10
111.7603045605069
 20
282.25026041629229
 30
0.0
 11
111.7603045605069
 21
212.7502542808711
 31
0.0
  0
LINE
  5
31FC
  8
DANMEN
  6
CONTINUOUS
 10
103.7603045605069
 20
274.25026041629218
 30
0.0
 11
103.7603045605069
 21
212.7502542808711
 31
0.0
  0
LINE
  5
31FD
  8
DANMEN
  6
CONTINUOUS
 10
111.7603045605069
 20
138.25026057921289
 30
0.0
 11
113.7603106640225
 21
138.25026057921289
 31
0.0
  0
LINE
  5
31FE
  8
DANMEN
  6
CONTINUOUS
 10
105.410304560507
 20
207.7502542808711
 30
0.0
 11
105.410304560507
 21
120.2502453204239
 31
0.0
  0
LINE
  5
31FF
  8
DANMEN
  6
CONTINUOUS
 10
103.7603045605069
 20
207.7502542808711
 30
0.0
 11
103.7603045605069
 21
120.2502453204239
 31
0.0
  0
LINE
  5
3200
  8
DANMEN
  6
CONTINUOUS
 10
203.76030456050691
 20
207.7502542808711
 30
0.0
 11
203.76030456050691
 21
170.25026057921289
 31
0.0
  0
LINE
  5
3201
  8
DANMEN
  6
CONTINUOUS
 10
111.7603045605069
 20
207.7502542808711
 30
0.0
 11
111.7603045605069
 21
138.25026057921289
 31
0.0
  0
LINE
  5
3202
  8
DANMEN
  6
CONTINUOUS
 10
392.26394920416323
 20
159.56663913148151
 30
0.0
 11
388.26394861864787
 21
159.56663913148151
 31
0.0
  0
LINE
  5
3203
  8
DANMEN
  6
CONTINUOUS
 10
397.26394920416328
 20
159.56666107868369
 30
0.0
 11
401.26394978967858
 21
159.56666107868369
 31
0.0
  0
LINE
  5
3204
  8
DANMEN
  6
CONTINUOUS
 10
392.26394920416323
 20
132.06663913148151
 30
0.0
 11
388.26394861864787
 21
132.06663913148151
 31
0.0
  0
LINE
  5
3205
  8
DANMEN
  6
CONTINUOUS
 10
397.26394920416328
 20
132.06666107868369
 30
0.0
 11
401.26394978967858
 21
132.06666107868369
 31
0.0
  0
LINE
  5
3206
  8
DANMEN
  6
CONTINUOUS
 10
304.26394803337331
 20
132.06663913148151
 30
0.0
 11
308.26394861888872
 21
132.06663913148151
 31
0.0
  0
LINE
  5
3207
  8
DANMEN
  6
CONTINUOUS
 10
304.26394803337331
 20
159.56663913148151
 30
0.0
 11
308.26394861888872
 21
159.56663913148151
 31
0.0
  0
LINE
  5
3208
  8
DANMEN
  6
CONTINUOUS
 10
299.26394803337331
 20
159.56666107868369
 30
0.0
 11
295.2639474478579
 21
159.56666107868369
 31
0.0
  0
LINE
  5
3209
  8
DANMEN
  6
CONTINUOUS
 10
299.26394803337331
 20
132.06666107868369
 30
0.0
 11
295.2639474478579
 21
132.06666107868369
 31
0.0
  0
LINE
  5
320A
  8
DANMEN
  6
CONTINUOUS
 10
440.26394712410979
 20
222.7666610786838
 30
0.0
 11
397.26394920416328
 21
222.7666610786838
 31
0.0
  0
LINE
  5
320B
  8
SUNPO
  6
CONTINUOUS
 10
425.26394712410979
 20
224.56666107868369
 30
0.0
 11
397.26394920416328
 21
224.56666107868369
 31
0.0
  0
LINE
  5
320C
  8
DANMEN
  6
CONTINUOUS
 10
397.26394920416328
 20
214.56666107868369
 30
0.0
 11
401.26394978955818
 21
214.56666107868369
 31
0.0
  0
LINE
  5
320D
  8
DANMEN
  6
CONTINUOUS
 10
299.26394803337331
 20
214.56666107868369
 30
0.0
 11
295.2639474479783
 21
214.56666107868369
 31
0.0
  0
LINE
  5
320E
  8
DANMEN
  6
CONTINUOUS
 10
271.2639501134268
 20
224.56666107868369
 30
0.0
 11
299.26394803337331
 21
224.56666107868369
 31
0.0
  0
LINE
  5
320F
  8
DANMEN
  6
CONTINUOUS
 10
256.26395011342692
 20
222.7666610786838
 30
0.0
 11
299.26394803337331
 21
222.7666610786838
 31
0.0
  0
LINE
  5
3210
  8
DANMEN
  6
CONTINUOUS
 10
280.26394878070261
 20
201.5666501050826
 30
0.0
 11
280.26394878070261
 21
185.5666501050826
 31
0.0
  0
LINE
  5
3211
  8
DANMEN
  6
CONTINUOUS
 10
286.26394878070261
 20
196.5666501050826
 30
0.0
 11
286.26394878070261
 21
190.5666501050826
 31
0.0
  0
LINE
  5
3212
  8
DANMEN
  6
CONTINUOUS
 10
286.26394878070261
 20
196.5666501050826
 30
0.0
 11
280.26394878070261
 21
190.5666501050826
 31
0.0
  0
LINE
  5
3213
  8
DANMEN
  6
CONTINUOUS
 10
280.26394878070261
 20
196.5666501050826
 30
0.0
 11
286.26394878070261
 21
190.5666501050826
 31
0.0
  0
LINE
  5
3214
  8
DANMEN
  6
CONTINUOUS
 10
299.26394803337331
 20
178.0666501050826
 30
0.0
 11
295.2639474478579
 21
178.0666501050826
 31
0.0
  0
LINE
  5
3215
  8
DANMEN
  6
CONTINUOUS
 10
299.26394803337331
 20
209.0666501050826
 30
0.0
 11
295.26395011295892
 21
209.0666501050826
 31
0.0
  0
LINE
  5
3216
  8
DANMEN
  6
CONTINUOUS
 10
299.26394803337331
 20
186.0666501050826
 30
0.0
 11
280.26394878070261
 21
186.0666501050826
 31
0.0
  0
LINE
  5
3217
  8
DANMEN
  6
CONTINUOUS
 10
299.26394803337331
 20
190.0666501050826
 30
0.0
 11
280.26394878070261
 21
190.0666501050826
 31
0.0
  0
LINE
  5
3218
  8
DANMEN
  6
CONTINUOUS
 10
299.26394803337331
 20
197.0666501050826
 30
0.0
 11
280.26394878070261
 21
197.0666501050826
 31
0.0
  0
LINE
  5
3219
  8
DANMEN
  6
CONTINUOUS
 10
299.26394803337331
 20
201.0666501050826
 30
0.0
 11
280.26394878070261
 21
201.0666501050826
 31
0.0
  0
LINE
  5
321A
  8
DANMEN
  6
CONTINUOUS
 10
299.26394803337331
 20
201.5666501050826
 30
0.0
 11
280.26394878070261
 21
201.5666501050826
 31
0.0
  0
LINE
  5
321B
  8
DANMEN
  6
CONTINUOUS
 10
299.26394803337331
 20
185.5666501050826
 30
0.0
 11
280.26394878070261
 21
185.5666501050826
 31
0.0
  0
LINE
  5
321C
  8
DANMEN
  6
CONTINUOUS
 10
299.26394803337331
 20
196.5666501050826
 30
0.0
 11
280.26394878070261
 21
196.5666501050826
 31
0.0
  0
LINE
  5
321D
  8
DANMEN
  6
CONTINUOUS
 10
299.26394803337331
 20
190.5666501050826
 30
0.0
 11
280.26394878070261
 21
190.5666501050826
 31
0.0
  0
LINE
  5
321E
  8
DANMEN
  6
CONTINUOUS
 10
397.26394920416328
 20
178.0666501050826
 30
0.0
 11
401.26394978967858
 21
178.0666501050826
 31
0.0
  0
LINE
  5
321F
  8
DANMEN
  6
CONTINUOUS
 10
397.26394920416328
 20
209.0666501050826
 30
0.0
 11
401.2639471245775
 21
209.0666501050826
 31
0.0
  0
LINE
  5
3220
  8
DANMEN
  6
CONTINUOUS
 10
416.2639484568341
 20
201.5666501050826
 30
0.0
 11
416.2639484568341
 21
185.5666501050826
 31
0.0
  0
LINE
  5
3221
  8
DANMEN
  6
CONTINUOUS
 10
410.26394845683399
 20
196.5666501050826
 30
0.0
 11
410.26394845683399
 21
190.5666501050826
 31
0.0
  0
LINE
  5
3222
  8
DANMEN
  6
CONTINUOUS
 10
410.26394845683399
 20
196.5666501050826
 30
0.0
 11
416.2639484568341
 21
190.5666501050826
 31
0.0
  0
LINE
  5
3223
  8
DANMEN
  6
CONTINUOUS
 10
416.2639484568341
 20
196.5666501050826
 30
0.0
 11
410.26394845683399
 21
190.5666501050826
 31
0.0
  0
LINE
  5
3224
  8
DANMEN
  6
CONTINUOUS
 10
397.26394920416328
 20
186.0666501050826
 30
0.0
 11
416.2639484568341
 21
186.0666501050826
 31
0.0
  0
LINE
  5
3225
  8
DANMEN
  6
CONTINUOUS
 10
397.26394920416328
 20
190.0666501050826
 30
0.0
 11
416.2639484568341
 21
190.0666501050826
 31
0.0
  0
LINE
  5
3226
  8
DANMEN
  6
CONTINUOUS
 10
397.26394920416328
 20
197.0666501050826
 30
0.0
 11
416.2639484568341
 21
197.0666501050826
 31
0.0
  0
LINE
  5
3227
  8
DANMEN
  6
CONTINUOUS
 10
397.26394920416328
 20
201.0666501050826
 30
0.0
 11
416.2639484568341
 21
201.0666501050826
 31
0.0
  0
LINE
  5
3228
  8
DANMEN
  6
CONTINUOUS
 10
397.26394920416328
 20
201.5666501050826
 30
0.0
 11
416.2639484568341
 21
201.5666501050826
 31
0.0
  0
LINE
  5
3229
  8
DANMEN
  6
CONTINUOUS
 10
397.26394920416328
 20
185.5666501050826
 30
0.0
 11
416.2639484568341
 21
185.5666501050826
 31
0.0
  0
LINE
  5
322A
  8
DANMEN
  6
CONTINUOUS
 10
397.26394920416328
 20
196.5666501050826
 30
0.0
 11
416.2639484568341
 21
196.5666501050826
 31
0.0
  0
LINE
  5
322B
  8
DANMEN
  6
CONTINUOUS
 10
397.26394920416328
 20
190.5666501050826
 30
0.0
 11
416.2639484568341
 21
190.5666501050826
 31
0.0
  0
LINE
  5
322C
  8
DANMEN
  6
CONTINUOUS
 10
397.26394920416328
 20
124.56666107868369
 30
0.0
 11
425.26394712410968
 21
124.56666107868369
 31
0.0
  0
LINE
  5
322D
  8
DANMEN
  6
CONTINUOUS
 10
299.26394803337331
 20
124.56666107868369
 30
0.0
 11
271.2639501134268
 21
124.56666107868369
 31
0.0
  0
LINE
  5
322E
  8
DANMEN
  6
CONTINUOUS
 10
392.26394920416323
 20
178.0666501050826
 30
0.0
 11
388.26394861864787
 21
178.0666501050826
 31
0.0
  0
LINE
  5
322F
  8
DANMEN
  6
CONTINUOUS
 10
392.26394920416323
 20
186.0666501050826
 30
0.0
 11
373.26394995149252
 21
186.0666501050826
 31
0.0
  0
LINE
  5
3230
  8
DANMEN
  6
CONTINUOUS
 10
392.26394920416323
 20
190.0666501050826
 30
0.0
 11
373.26394995149252
 21
190.0666501050826
 31
0.0
  0
LINE
  5
3231
  8
DANMEN
  6
CONTINUOUS
 10
392.26394920416323
 20
197.0666501050826
 30
0.0
 11
373.26394995149252
 21
197.0666501050826
 31
0.0
  0
LINE
  5
3232
  8
DANMEN
  6
CONTINUOUS
 10
392.26394920416323
 20
201.0666501050826
 30
0.0
 11
373.26394995149252
 21
201.0666501050826
 31
0.0
  0
LINE
  5
3233
  8
DANMEN
  6
CONTINUOUS
 10
392.26394920416323
 20
201.5666501050826
 30
0.0
 11
373.26394995149252
 21
201.5666501050826
 31
0.0
  0
LINE
  5
3234
  8
DANMEN
  6
CONTINUOUS
 10
392.26394920416323
 20
185.5666501050826
 30
0.0
 11
373.26394995149252
 21
185.5666501050826
 31
0.0
  0
LINE
  5
3235
  8
DANMEN
  6
CONTINUOUS
 10
392.26394920416323
 20
196.5666501050826
 30
0.0
 11
373.26394995149252
 21
196.5666501050826
 31
0.0
  0
LINE
  5
3236
  8
DANMEN
  6
CONTINUOUS
 10
392.26394920416323
 20
190.5666501050826
 30
0.0
 11
373.26394995149252
 21
190.5666501050826
 31
0.0
  0
LINE
  5
3237
  8
DANMEN
  6
CONTINUOUS
 10
392.26394920416323
 20
209.0666501050826
 30
0.0
 11
388.2639512837489
 21
209.0666501050826
 31
0.0
  0
LINE
  5
3238
  8
DANMEN
  6
CONTINUOUS
 10
392.26394920416323
 20
214.56666107868369
 30
0.0
 11
388.26394861876821
 21
214.56666107868369
 31
0.0
  0
LINE
  5
3239
  8
DANMEN
  6
CONTINUOUS
 10
304.26394803337331
 20
209.0666501050826
 30
0.0
 11
308.26394595378758
 21
209.0666501050826
 31
0.0
  0
LINE
  5
323A
  8
DANMEN
  6
CONTINUOUS
 10
304.26394803337331
 20
214.56666107868369
 30
0.0
 11
308.26394861876832
 21
214.56666107868369
 31
0.0
  0
LINE
  5
323B
  8
DANMEN
  6
CONTINUOUS
 10
304.26394803337331
 20
178.0666501050826
 30
0.0
 11
308.26394861888872
 21
178.0666501050826
 31
0.0
  0
LINE
  5
323C
  8
DANMEN
  6
CONTINUOUS
 10
304.26394803337331
 20
186.0666501050826
 30
0.0
 11
323.26394728604402
 21
186.0666501050826
 31
0.0
  0
LINE
  5
323D
  8
DANMEN
  6
CONTINUOUS
 10
304.26394803337331
 20
190.0666501050826
 30
0.0
 11
323.26394728604402
 21
190.0666501050826
 31
0.0
  0
LINE
  5
323E
  8
DANMEN
  6
CONTINUOUS
 10
304.26394803337331
 20
197.0666501050826
 30
0.0
 11
323.26394728604402
 21
197.0666501050826
 31
0.0
  0
LINE
  5
323F
  8
DANMEN
  6
CONTINUOUS
 10
304.26394803337331
 20
201.0666501050826
 30
0.0
 11
323.26394728604402
 21
201.0666501050826
 31
0.0
  0
LINE
  5
3240
  8
DANMEN
  6
CONTINUOUS
 10
304.26394803337331
 20
201.5666501050826
 30
0.0
 11
323.26394728604402
 21
201.5666501050826
 31
0.0
  0
LINE
  5
3241
  8
DANMEN
  6
CONTINUOUS
 10
304.26394803337331
 20
185.5666501050826
 30
0.0
 11
323.26394728604402
 21
185.5666501050826
 31
0.0
  0
LINE
  5
3242
  8
DANMEN
  6
CONTINUOUS
 10
304.26394803337331
 20
196.5666501050826
 30
0.0
 11
323.26394728604402
 21
196.5666501050826
 31
0.0
  0
LINE
  5
3243
  8
DANMEN
  6
CONTINUOUS
 10
304.26394803337331
 20
190.5666501050826
 30
0.0
 11
323.26394728604402
 21
190.5666501050826
 31
0.0
  0
LINE
  5
3244
  8
DANMEN
  6
CONTINUOUS
 10
323.26394728604402
 20
196.5666501050826
 30
0.0
 11
317.26394728604402
 21
190.5666501050826
 31
0.0
  0
LINE
  5
3245
  8
DANMEN
  6
CONTINUOUS
 10
317.26394728604402
 20
196.5666501050826
 30
0.0
 11
323.26394728604402
 21
190.5666501050826
 31
0.0
  0
LINE
  5
3246
  8
DANMEN
  6
CONTINUOUS
 10
317.26394728604402
 20
196.5666501050826
 30
0.0
 11
317.26394728604402
 21
190.5666501050826
 31
0.0
  0
LINE
  5
3247
  8
DANMEN
  6
CONTINUOUS
 10
323.26394728604402
 20
201.5666501050826
 30
0.0
 11
323.26394728604402
 21
185.5666501050826
 31
0.0
  0
LINE
  5
3248
  8
DANMEN
  6
CONTINUOUS
 10
373.26394995149252
 20
201.5666501050826
 30
0.0
 11
373.26394995149252
 21
185.5666501050826
 31
0.0
  0
LINE
  5
3249
  8
DANMEN
  6
CONTINUOUS
 10
379.26394995149252
 20
196.5666501050826
 30
0.0
 11
379.26394995149252
 21
190.5666501050826
 31
0.0
  0
LINE
  5
324A
  8
DANMEN
  6
CONTINUOUS
 10
379.26394995149252
 20
196.5666501050826
 30
0.0
 11
373.26394995149252
 21
190.5666501050826
 31
0.0
  0
LINE
  5
324B
  8
DANMEN
  6
CONTINUOUS
 10
373.26394995149252
 20
196.5666501050826
 30
0.0
 11
379.26394995149252
 21
190.5666501050826
 31
0.0
  0
LINE
  5
324C
  8
DANMEN
  6
CONTINUOUS
 10
304.26394803337331
 20
124.56666107868369
 30
0.0
 11
392.26394920416323
 21
124.56666107868369
 31
0.0
  0
LINE
  5
324D
  8
DANMEN
  6
CONTINUOUS
 10
304.26394803337331
 20
222.7666610786838
 30
0.0
 11
392.26394920416323
 21
222.7666610786838
 31
0.0
  0
LINE
  5
324E
  8
DANMEN
  6
CONTINUOUS
 10
304.26394803337331
 20
224.56666107868369
 30
0.0
 11
392.26394920416323
 21
224.56666107868369
 31
0.0
  0
LINE
  5
324F
  8
DANMEN
  6
CONTINUOUS
 10
299.26394803337331
 20
129.56666107868369
 30
0.0
 11
295.2639474478579
 21
129.56666107868369
 31
0.0
  0
LINE
  5
3250
  8
DANMEN
  6
CONTINUOUS
 10
304.26394803337331
 20
129.56663913148151
 30
0.0
 11
308.26394861888872
 21
129.56663913148151
 31
0.0
  0
LINE
  5
3251
  8
DANMEN
  6
CONTINUOUS
 10
397.26394920416328
 20
129.56666107868369
 30
0.0
 11
401.26394978967858
 21
129.56666107868369
 31
0.0
  0
LINE
  5
3252
  8
DANMEN
  6
CONTINUOUS
 10
392.26394920416323
 20
129.56663913148151
 30
0.0
 11
388.26394861864787
 21
129.56663913148151
 31
0.0
  0
LINE
  5
3253
  8
SUNPO
  6
CONTINUOUS
 10
363.64386284368578
 20
100.56666107868369
 30
0.0
 11
425.26394712410968
 21
100.56666107868369
 31
0.0
  0
LINE
  5
3254
  8
SUNPO
  6
CONTINUOUS
 10
336.79306647867332
 20
100.56666107868369
 30
0.0
 11
271.2639501134268
 21
100.56666107868369
 31
0.0
  0
LINE
  5
3255
  8
DANMEN
  6
CONTINUOUS
 10
299.26394803337331
 20
178.56666107868369
 30
0.0
 11
271.2639501134268
 21
178.56666107868369
 31
0.0
  0
LINE
  5
3256
  8
DANMEN
  6
CONTINUOUS
 10
271.2639501134268
 20
178.56666107868369
 30
0.0
 11
271.2639501134268
 21
129.56666107868369
 31
0.0
  0
LINE
  5
3257
  8
DANMEN
  6
CONTINUOUS
 10
392.26394653871472
 20
178.56666107868369
 30
0.0
 11
364.26394861876832
 21
178.56666107868369
 31
0.0
  0
LINE
  5
3258
  8
DANMEN
  6
CONTINUOUS
 10
364.26394861876832
 20
178.56666107868369
 30
0.0
 11
364.26394861876832
 21
129.56666107868369
 31
0.0
  0
LINE
  5
3259
  8
DANMEN
  6
CONTINUOUS
 10
304.26394803337331
 20
178.56666107868369
 30
0.0
 11
332.26394861876838
 21
178.56666107868369
 31
0.0
  0
LINE
  5
325A
  8
DANMEN
  6
CONTINUOUS
 10
332.26394861876838
 20
178.56666107868369
 30
0.0
 11
332.26394861876838
 21
129.56666107868369
 31
0.0
  0
LINE
  5
325B
  8
DANMEN
  6
CONTINUOUS
 10
397.26394653871478
 20
178.56666107868369
 30
0.0
 11
425.26394712410968
 21
178.56666107868369
 31
0.0
  0
LINE
  5
325C
  8
DANMEN
  6
CONTINUOUS
 10
425.26394712410968
 20
178.56666107868369
 30
0.0
 11
425.26394712410968
 21
129.56666107868369
 31
0.0
  0
ENDSEC
  0
EOF
