  0
SECTION
  2
HEADER
  9
$ACADVER
  1
AC1009
  9
$INSBASE
 10
0.0
 20
0.0
 30
0.0
  9
$EXTMIN
 10
31.50326897646789
 20
28.2661088430051
 30
-0.0015258207003583
  9
$EXTMAX
 10
506.91410931360548
 20
417.88950592026072
 30
0.0000000349246037
  9
$LIMMIN
 10
0.0
 20
0.0
  9
$LIMMAX
 10
420.0
 20
297.0
  9
$ORTHOMODE
 70
     0
  9
$REGENMODE
 70
     1
  9
$FILLMODE
 70
     1
  9
$QTEXTMODE
 70
     0
  9
$MIRRTEXT
 70
     1
  9
$DRAGMODE
 70
     2
  9
$LTSCALE
 40
1.0
  9
$OSMODE
 70
    39
  9
$ATTMODE
 70
     1
  9
$TEXTSIZE
 40
2.5
  9
$TRACEWID
 40
1.0
  9
$TEXTSTYLE
  7
STANDARD
  9
$CLAYER
  8
0
  9
$CELTYPE
  6
BYLAYER
  9
$CECOLOR
 62
   256
  9
$DIMSCALE
 40
1.0
  9
$DIMASZ
 40
2.5
  9
$DIMEXO
 40
0.625
  9
$DIMDLI
 40
3.75
  9
$DIMRND
 40
0.0
  9
$DIMDLE
 40
0.0
  9
$DIMEXE
 40
1.25
  9
$DIMTP
 40
0.0
  9
$DIMTM
 40
0.0
  9
$DIMTXT
 40
2.5
  9
$DIMCEN
 40
2.5
  9
$DIMTSZ
 40
0.0
  9
$DIMTOL
 70
     0
  9
$DIMLIM
 70
     0
  9
$DIMTIH
 70
     0
  9
$DIMTOH
 70
     0
  9
$DIMSE1
 70
     0
  9
$DIMSE2
 70
     0
  9
$DIMTAD
 70
     1
  9
$DIMZIN
 70
     8
  9
$DIMBLK
  1

  9
$DIMASO
 70
     1
  9
$DIMSHO
 70
     1
  9
$DIMPOST
  1

  9
$DIMAPOST
  1

  9
$DIMALT
 70
     0
  9
$DIMALTD
 70
     3
  9
$DIMALTF
 40
0.03937007874016
  9
$DIMLFAC
 40
1.0
  9
$DIMTOFL
 70
     1
  9
$DIMTVP
 40
0.0
  9
$DIMTIX
 70
     0
  9
$DIMSOXD
 70
     0
  9
$DIMSAH
 70
     0
  9
$DIMBLK1
  1

  9
$DIMBLK2
  1

  9
$DIMSTYLE
  2
ISO-25
  9
$DIMCLRD
 70
     0
  9
$DIMCLRE
 70
     0
  9
$DIMCLRT
 70
     0
  9
$DIMTFAC
 40
1.0
  9
$DIMGAP
 40
0.625
  9
$LUNITS
 70
     2
  9
$LUPREC
 70
     4
  9
$SKETCHINC
 40
1.0
  9
$FILLETRAD
 40
10.0
  9
$AUNITS
 70
     0
  9
$AUPREC
 70
     0
  9
$MENU
  1
.
  9
$ELEVATION
 40
0.0
  9
$PELEVATION
 40
0.0
  9
$THICKNESS
 40
0.0
  9
$LIMCHECK
 70
     0
  9
$BLIPMODE
 70
     0
  9
$CHAMFERA
 40
10.0
  9
$CHAMFERB
 40
10.0
  9
$SKPOLY
 70
     0
  9
$TDCREATE
 40
2456583.6822594791
  9
$TDUPDATE
 40
2456667.6199356252
  9
$TDINDWG
 40
0.0231484838
  9
$TDUSRTIMER
 40
0.0231475926
  9
$USRTIMER
 70
     1
  9
$ANGBASE
 50
0.0
  9
$ANGDIR
 70
     0
  9
$PDMODE
 70
     0
  9
$PDSIZE
 40
0.0
  9
$PLINEWID
 40
0.0
  9
$COORDS
 70
     1
  9
$SPLFRAME
 70
     0
  9
$SPLINETYPE
 70
     6
  9
$SPLINESEGS
 70
     8
  9
$ATTDIA
 70
     0
  9
$ATTREQ
 70
     1
  9
$HANDLING
 70
-16383
  9
$HANDSEED
  5
5C12
  9
$SURFTAB1
 70
     6
  9
$SURFTAB2
 70
     6
  9
$SURFTYPE
 70
     6
  9
$SURFU
 70
     6
  9
$SURFV
 70
     6
  9
$UCSNAME
  2

  9
$UCSORG
 10
0.0
 20
0.0
 30
0.0
  9
$UCSXDIR
 10
1.0
 20
0.0
 30
0.0
  9
$UCSYDIR
 10
0.0
 20
1.0
 30
0.0
  9
$PUCSNAME
  2

  9
$PUCSORG
 10
0.0
 20
0.0
 30
0.0
  9
$PUCSXDIR
 10
1.0
 20
0.0
 30
0.0
  9
$PUCSYDIR
 10
0.0
 20
1.0
 30
0.0
  9
$USERI1
 70
     0
  9
$USERI2
 70
     0
  9
$USERI3
 70
     0
  9
$USERI4
 70
     0
  9
$USERI5
 70
     0
  9
$USERR1
 40
0.0
  9
$USERR2
 40
0.0
  9
$USERR3
 40
0.0
  9
$USERR4
 40
0.0
  9
$USERR5
 40
0.0
  9
$WORLDVIEW
 70
     1
  9
$SHADEDGE
 70
     3
  9
$SHADEDIF
 70
    70
  9
$TILEMODE
 70
     1
  9
$MAXACTVP
 70
    64
  9
$PLIMCHECK
 70
     0
  9
$PEXTMIN
 10
1.0000000000000000E+020
 20
1.0000000000000000E+020
 30
1.0000000000000000E+020
  9
$PEXTMAX
 10
-1.0000000000000000E+020
 20
-1.0000000000000000E+020
 30
-1.0000000000000000E+020
  9
$PLIMMIN
 10
0.0
 20
0.0
  9
$PLIMMAX
 10
420.0
 20
297.0
  9
$UNITMODE
 70
     0
  9
$VISRETAIN
 70
     1
  9
$PLINEGEN
 70
     0
  9
$PSLTSCALE
 70
     1
  0
ENDSEC
  0
SECTION
  2
TABLES
  0
TABLE
  2
VPORT
 70
     2
  0
VPORT
  2
*ACTIVE
 70
     0
 10
0.0
 20
0.0
 11
1.0
 21
1.0
 12
269.20868914503671
 22
223.07780738163291
 13
0.0
 23
0.0
 14
10.0
 24
10.0
 15
10.0
 25
10.0
 16
0.0
 26
0.0
 36
1.0
 17
0.0
 27
0.0
 37
0.0
 40
392.09197192674191
 41
1.588794926004228
 42
50.0
 43
0.0
 44
0.0
 50
0.0
 51
0.0
 71
     0
 72
   100
 73
     1
 74
     3
 75
     0
 76
     0
 77
     0
 78
     0
  0
ENDTAB
  0
TABLE
  2
LTYPE
 70
     4
  0
LTYPE
  2
CONTINUOUS
 70
     0
  3
Solid line
 72
    65
 73
     0
 40
0.0
  0
LTYPE
  2
DASHED
 70
     0
  3
Dashed __ __ __ __ __ __ __ __ __ __ __ __ __ _
 72
    65
 73
     2
 40
19.049999999999962
 49
12.699999999999999
 49
-6.349999999999997
  0
LTYPE
  2
CENTER
 70
     0
  3
Center ____ _ ____ _ ____ _ ____ _ ____ _ ____
 72
    65
 73
     4
 40
50.799999999999997
 49
31.75
 49
-6.349999999999997
 49
6.349999999999997
 49
-6.349999999999997
  0
LTYPE
  2
PHANTOM
 70
     0
  3
Phantom ______  __  __  ______  __  __  ______
 72
    65
 73
     6
 40
63.500000000000007
 49
31.75
 49
-6.3499999999999979
 49
6.3499999999999979
 49
-6.3499999999999979
 49
6.3499999999999979
 49
-6.3499999999999979
  0
ENDTAB
  0
TABLE
  2
LAYER
 70
     4
  0
LAYER
  2
0
 70
     0
 62
     7
  6
CONTINUOUS
  0
LAYER
  2
DANMEN
 70
     0
 62
     7
  6
CONTINUOUS
  0
LAYER
  2
SUNPO
 70
     0
 62
     1
  6
CONTINUOUS
  0
LAYER
  2
WAKU
 70
     0
 62
     3
  6
CONTINUOUS
  0
ENDTAB
  0
TABLE
  2
STYLE
 70
     6
  0
STYLE
  2
STANDARD
 70
     0
 40
0.0
 41
1.0
 50
0.0
 71
     0
 42
2.5
  3
txt
  4

  0
STYLE
  2
MX_NOTE_STANDARD
 70
     0
 40
0.0
 41
1.0
 50
0.0
 71
     0
 42
2.5
  3
txt.shx
  4
extfont.shx
  0
STYLE
  2
MX_DIMTXSTY_2
 70
     0
 40
0.0
 41
1.1999999999999991
 50
0.0
 71
     0
 42
2.5
  3
txt.shx
  4
extfont.shx
  0
STYLE
  2
MX_DIMTXSTY_3
 70
     0
 40
0.0
 41
1.1000000000000001
 50
0.0
 71
     0
 42
2.5
  3
txt.shx
  4
extfont.shx
  0
STYLE
  2
MX_DIMTXSTY_4
 70
     0
 40
0.0
 41
1.3500000000000001
 50
0.0
 71
     0
 42
2.5
  3
txt.shx
  4
extfont.shx
  0
STYLE
  2
MX_DIMTXSTY_5
 70
     0
 40
0.0
 41
1.3500000000000001
 50
0.0
 71
     0
 42
2.5
  3
txt.shx
  4
extfont.shx
  0
ENDTAB
  0
TABLE
  2
VIEW
 70
     0
  0
ENDTAB
  0
TABLE
  2
UCS
 70
     0
  0
ENDTAB
  0
TABLE
  2
APPID
 70
     1
  0
APPID
  2
ACAD
 70
     0
  0
ENDTAB
  0
TABLE
  2
DIMSTYLE
 70
     2
  0
DIMSTYLE
  2
ISO-25
 70
     0
  3

  4

  5

  6

  7

 40
1.0
 41
2.5
 42
0.625
 43
3.75
 44
1.25
 45
0.0
 46
0.0
 47
0.0
 48
0.0
140
2.5
141
2.5
142
0.0
143
0.03937007874016
144
1.0
145
0.0
146
1.0
147
0.625
 71
     0
 72
     0
 73
     0
 74
     0
 75
     0
 76
     0
 77
     1
 78
     8
170
     0
171
     3
172
     1
173
     0
174
     0
175
     0
176
     0
177
     0
178
     0
  0
DIMSTYLE
  2
MXDIMSTYLE
 70
     0
  3

  4

  5

  6

  7

 40
1.0
 41
2.5
 42
1.5
 43
3.75
 44
0.0
 45
0.0
 46
0.0
 47
0.0
 48
0.0
140
2.5
141
2.5
142
0.0
143
0.03937007874016
144
1.0
145
0.0
146
1.0
147
0.5
 71
     0
 72
     0
 73
     0
 74
     0
 75
     0
 76
     0
 77
     1
 78
     8
170
     0
171
     4
172
     1
173
     1
174
     0
175
     0
176
     0
177
     0
178
     0
  0
ENDTAB
  0
ENDSEC
  0
SECTION
  2
BLOCKS
  0
BLOCK
  8
0
  2
$MODEL_SPACE
 70
     0
 10
0.0
 20
0.0
 30
0.0
  3
$MODEL_SPACE
  1

  0
ENDBLK
  5
537D
  8
0
  0
BLOCK
 67
     1
  8
0
  2
$PAPER_SPACE
 70
     0
 10
0.0
 20
0.0
 30
0.0
  3
$PAPER_SPACE
  1

  0
ENDBLK
  5
5379
 67
     1
  8
0
  0
BLOCK
  8
0
  6
BYBLOCK
 62
     0
  2
_OPEN30
 70
     2
 10
0.0
 20
0.0
 30
0.0
  3
_OPEN30
  1

  0
LINE
  5
5397
  8
0
  6
BYBLOCK
 62
     0
 10
-1.0
 20
0.267949
 30
0.0
 11
0.0
 21
0.0
 31
0.0
  0
LINE
  5
5398
  8
0
  6
BYBLOCK
 62
     0
 10
0.0
 20
0.0
 30
0.0
 11
-1.0
 21
-0.267949
 31
0.0
  0
LINE
  5
5399
  8
0
  6
BYBLOCK
 62
     0
 10
0.0
 20
0.0
 30
0.0
 11
-1.0
 21
0.0
 31
0.0
  0
ENDBLK
  5
539A
  8
0
  6
BYBLOCK
 62
     0
  0
ENDSEC
  0
SECTION
  2
ENTITIES
  0
LINE
  5
539B
  8
WAKU
  6
CONTINUOUS
 10
494.47477787089508
 20
414.85770574567772
 30
0.0
 11
495.10192687089511
 21
416.5807827456776
 31
0.0
  0
LINE
  5
539C
  8
WAKU
  6
CONTINUOUS
 10
493.76923587089539
 20
412.9192447456777
 30
0.0
 11
494.2395968708953
 21
414.2115517456777
 31
0.0
  0
SOLID
  5
539D
  8
WAKU
  6
CONTINUOUS
 10
497.25577287089561
 20
416.5807827456776
 30
0.0
 11
494.41499387089561
 21
411.73462874567758
 31
0.0
 12
494.70798087089508
 22
409.58078274567771
 32
0.0
 13
494.70798087089508
 23
409.58078274567771
 33
0.0
  0
SOLID
  5
539E
  8
WAKU
  6
CONTINUOUS
 10
494.41499387089561
 20
411.73462874567758
 30
0.0
 11
497.25577287089561
 21
416.5807827456776
 31
0.0
 12
496.17884987089508
 22
416.5807827456776
 32
0.0
 13
496.17884987089508
 23
416.5807827456776
 33
0.0
  0
LINE
  5
539F
  8
WAKU
  6
CONTINUOUS
 10
494.41499387089561
 20
411.73462874567758
 30
0.0
 11
496.17884987089508
 21
416.5807827456776
 31
0.0
  0
LINE
  5
53A0
  8
WAKU
  6
CONTINUOUS
 10
494.70798087089508
 20
409.58078274567771
 30
0.0
 11
497.25577287089561
 21
416.5807827456776
 31
0.0
  0
LINE
  5
53A1
  8
WAKU
  6
CONTINUOUS
 10
496.17884987089508
 20
416.5807827456776
 30
0.0
 11
497.25577287089561
 21
416.5807827456776
 31
0.0
  0
LINE
  5
53A2
  8
WAKU
  6
CONTINUOUS
 10
491.87115787089567
 20
416.5807827456776
 30
0.0
 11
491.2440088708953
 21
414.85770574567772
 31
0.0
  0
LINE
  5
53A3
  8
WAKU
  6
CONTINUOUS
 10
491.00882787089557
 20
414.2115517456777
 30
0.0
 11
490.5384668708956
 21
412.9192447456777
 31
0.0
  0
LINE
  5
53A4
  8
WAKU
  6
CONTINUOUS
 10
489.3233658708956
 20
409.58078274567771
 30
0.0
 11
490.10730187089513
 21
411.73462874567758
 31
0.0
  0
LINE
  5
53A5
  8
WAKU
  6
CONTINUOUS
 10
488.05243587089512
 20
414.96539774567742
 30
0.0
 11
489.1293598708948
 21
414.96539774567742
 31
0.0
  0
SOLID
  5
53A6
  8
WAKU
  6
CONTINUOUS
 10
487.16951987089539
 20
409.58078274567771
 30
0.0
 11
486.68054887089568
 21
411.196167745678
 31
0.0
 12
483.44977887089561
 22
411.196167745678
 32
0.0
 13
483.44977887089561
 23
411.196167745678
 33
0.0
  0
LINE
  5
53A7
  8
WAKU
  6
CONTINUOUS
 10
483.4497788708951
 20
411.1961677456776
 30
0.0
 11
486.68054887089539
 21
411.1961677456776
 31
0.0
  0
SOLID
  5
53A8
  8
WAKU
  6
CONTINUOUS
 10
485.11465387089561
 20
412.81155174567812
 30
0.0
 11
485.89858987089542
 21
414.96539774567827
 31
0.0
 12
484.82166687089563
 22
414.96539774567827
 32
0.0
 13
484.82166687089563
 23
414.96539774567827
 33
0.0
  0
LINE
  5
53A9
  8
WAKU
  6
CONTINUOUS
 10
485.43773087089562
 20
412.81155174567772
 30
0.0
 11
486.22166687089509
 21
414.96539774567742
 31
0.0
  0
LINE
  5
53AA
  8
WAKU
  6
CONTINUOUS
 10
485.11465387089561
 20
412.81155174567772
 30
0.0
 11
485.89858987089502
 21
414.96539774567742
 31
0.0
  0
LINE
  5
53AB
  8
WAKU
  6
CONTINUOUS
 10
485.43773087089562
 20
412.81155174567772
 30
0.0
 11
486.51465387089462
 21
412.81155174567772
 31
0.0
  0
LINE
  5
53AC
  8
WAKU
  6
CONTINUOUS
 10
484.82166687089563
 20
414.96539774567742
 30
0.0
 11
485.89858987089502
 21
414.96539774567742
 31
0.0
  0
SOLID
  5
53AD
  8
WAKU
  6
CONTINUOUS
 10
486.22166687089538
 20
414.96539774567827
 30
0.0
 11
485.43773087089562
 21
412.81155174567812
 31
0.0
 12
487.29858987089511
 22
414.96539774567827
 32
0.0
 13
487.29858987089511
 23
414.96539774567827
 33
0.0
  0
SOLID
  5
53AE
  8
WAKU
  6
CONTINUOUS
 10
487.29858987089511
 20
414.96539774567827
 30
0.0
 11
485.43773087089562
 21
412.81155174567812
 31
0.0
 12
486.51465387089559
 22
412.81155174567812
 32
0.0
 13
486.51465387089559
 23
412.81155174567812
 33
0.0
  0
SOLID
  5
53AF
  8
WAKU
  6
CONTINUOUS
 10
484.82166687089563
 20
414.96539774567827
 30
0.0
 11
484.03773087089581
 21
412.81155174567812
 31
0.0
 12
485.11465387089561
 22
412.81155174567812
 32
0.0
 13
485.11465387089561
 23
412.81155174567812
 33
0.0
  0
LINE
  5
53B0
  8
WAKU
  6
CONTINUOUS
 10
484.03773087089502
 20
412.81155174567772
 30
0.0
 11
484.82166687089563
 21
414.96539774567742
 31
0.0
  0
LINE
  5
53B1
  8
WAKU
  6
CONTINUOUS
 10
484.03773087089502
 20
412.81155174567772
 30
0.0
 11
485.11465387089561
 21
412.81155174567772
 31
0.0
  0
LINE
  5
53B2
  8
WAKU
  6
CONTINUOUS
 10
486.51465387089462
 20
412.81155174567772
 30
0.0
 11
487.29858987089511
 21
414.96539774567742
 31
0.0
  0
LINE
  5
53B3
  8
WAKU
  6
CONTINUOUS
 10
486.22166687089509
 20
414.96539774567742
 30
0.0
 11
487.29858987089511
 21
414.96539774567742
 31
0.0
  0
SOLID
  5
53B4
  8
WAKU
  6
CONTINUOUS
 10
488.05243587089541
 20
414.96539774567827
 30
0.0
 11
486.68054887089568
 21
411.196167745678
 31
0.0
 12
487.16951987089539
 22
409.58078274567771
 32
0.0
 13
487.16951987089539
 23
409.58078274567771
 33
0.0
  0
LINE
  5
53B5
  8
WAKU
  6
CONTINUOUS
 10
486.68054887089539
 20
411.1961677456776
 30
0.0
 11
488.05243587089512
 21
414.96539774567742
 31
0.0
  0
SOLID
  5
53B6
  8
WAKU
  6
CONTINUOUS
 10
489.12935987089583
 20
414.96539774567827
 30
0.0
 11
488.05243587089541
 21
414.96539774567827
 31
0.0
 12
487.16951987089539
 22
409.58078274567771
 32
0.0
 13
487.16951987089539
 23
409.58078274567771
 33
0.0
  0
LINE
  5
53B7
  8
WAKU
  6
CONTINUOUS
 10
487.16951987089539
 20
409.58078274567771
 30
0.0
 11
489.1293598708948
 21
414.96539774567742
 31
0.0
  0
SOLID
  5
53B8
  8
WAKU
  6
CONTINUOUS
 10
482.17884987089508
 20
416.5807827456776
 30
0.0
 11
481.70848787089562
 21
415.28847474567817
 31
0.0
 12
482.78541087089548
 22
415.28847474567817
 32
0.0
 13
482.78541087089548
 23
415.28847474567817
 33
0.0
  0
SOLID
  5
53B9
  8
WAKU
  6
CONTINUOUS
 10
481.70848787089562
 20
415.28847474567817
 30
0.0
 11
482.19745987089561
 21
413.67309074567771
 31
0.0
 12
483.00515187089542
 22
413.67309074567771
 32
0.0
 13
483.00515187089542
 23
413.67309074567771
 33
0.0
  0
LINE
  5
53BA
  8
WAKU
  6
CONTINUOUS
 10
481.70848787089471
 20
415.28847474567772
 30
0.0
 11
482.17884987089508
 21
416.5807827456776
 31
0.0
  0
LINE
  5
53BB
  8
WAKU
  6
CONTINUOUS
 10
482.19745987089539
 20
413.67309074567771
 30
0.0
 11
483.00515187089508
 21
413.67309074567771
 31
0.0
  0
LINE
  5
53BC
  8
WAKU
  6
CONTINUOUS
 10
479.01618087089508
 20
415.28847474567772
 30
0.0
 11
479.48654187089539
 21
416.5807827456776
 31
0.0
  0
LINE
  5
53BD
  8
WAKU
  6
CONTINUOUS
 10
478.40961887089509
 20
416.5807827456776
 30
0.0
 11
479.48654187089539
 21
416.5807827456776
 31
0.0
  0
SOLID
  5
53BE
  8
WAKU
  6
CONTINUOUS
 10
481.12053587089508
 20
413.67309074567771
 30
0.0
 11
480.41499387089561
 21
411.73462874567758
 31
0.0
 12
480.70798087089571
 22
409.58078274567771
 32
0.0
 13
480.70798087089571
 23
409.58078274567771
 33
0.0
  0
LINE
  5
53BF
  8
WAKU
  6
CONTINUOUS
 10
480.41499387089561
 20
411.73462874567758
 30
0.0
 11
481.12053587089503
 21
413.67309074567771
 31
0.0
  0
LINE
  5
53C0
  8
WAKU
  6
CONTINUOUS
 10
478.42822887089523
 20
413.67309074567771
 30
0.0
 11
481.12053587089503
 21
413.67309074567771
 31
0.0
  0
SOLID
  5
53C1
  8
WAKU
  6
CONTINUOUS
 10
482.19745987089561
 20
413.67309074567771
 30
0.0
 11
481.12053587089508
 21
413.67309074567771
 31
0.0
 12
480.70798087089571
 22
409.58078274567771
 32
0.0
 13
480.70798087089571
 23
409.58078274567771
 33
0.0
  0
LINE
  5
53C2
  8
WAKU
  6
CONTINUOUS
 10
480.70798087089531
 20
409.58078274567771
 30
0.0
 11
482.19745987089539
 21
413.67309074567771
 31
0.0
  0
SOLID
  5
53C3
  8
WAKU
  6
CONTINUOUS
 10
482.19745987089561
 20
413.67309074567771
 30
0.0
 11
481.70848787089562
 21
415.28847474567817
 31
0.0
 12
479.0161808708956
 22
415.28847474567817
 32
0.0
 13
479.0161808708956
 23
415.28847474567817
 33
0.0
  0
LINE
  5
53C4
  8
WAKU
  6
CONTINUOUS
 10
479.01618087089508
 20
415.28847474567772
 30
0.0
 11
481.70848787089471
 21
415.28847474567772
 31
0.0
  0
LINE
  5
53C5
  8
WAKU
  6
CONTINUOUS
 10
476.9593378708953
 20
412.59616774567769
 30
0.0
 11
477.3513058708956
 21
413.67309074567771
 31
0.0
  0
LINE
  5
53C6
  8
WAKU
  6
CONTINUOUS
 10
476.9593378708953
 20
412.59616774567769
 30
0.0
 11
478.0362608708956
 21
412.59616774567769
 31
0.0
  0
LINE
  5
53C7
  8
WAKU
  6
CONTINUOUS
 10
475.64644287089448
 20
409.58078274567771
 30
0.0
 11
476.43037887089508
 21
411.73462874567758
 31
0.0
  0
LINE
  5
53C8
  8
WAKU
  6
CONTINUOUS
 10
476.543612870895
 20
413.67309074567771
 30
0.0
 11
477.3513058708956
 21
413.67309074567771
 31
0.0
  0
LINE
  5
53C9
  8
WAKU
  6
CONTINUOUS
 10
477.1315648708956
 20
415.28847474567772
 30
0.0
 11
477.93925787089472
 21
415.28847474567772
 31
0.0
  0
LINE
  5
53CA
  8
WAKU
  6
CONTINUOUS
 10
476.543612870895
 20
413.67309074567771
 30
0.0
 11
477.1315648708956
 21
415.28847474567772
 31
0.0
  0
LINE
  5
53CB
  8
WAKU
  6
CONTINUOUS
 10
475.62862387089513
 20
414.85770574567772
 30
0.0
 11
476.2557728708951
 21
416.5807827456776
 31
0.0
  0
LINE
  5
53CC
  8
WAKU
  6
CONTINUOUS
 10
473.70798087089503
 20
409.58078274567771
 30
0.0
 11
474.49191687089473
 21
411.73462874567758
 31
0.0
  0
SOLID
  5
53CD
  8
WAKU
  6
CONTINUOUS
 10
477.13156487089577
 20
415.28847474567817
 30
0.0
 11
476.54361287089557
 21
413.67309074567771
 31
0.0
 12
479.0161808708956
 22
415.28847474567817
 32
0.0
 13
479.0161808708956
 23
415.28847474567817
 33
0.0
  0
LINE
  5
53CE
  8
WAKU
  6
CONTINUOUS
 10
477.93925787089472
 20
415.28847474567772
 30
0.0
 11
478.40961887089509
 21
416.5807827456776
 31
0.0
  0
SOLID
  5
53CF
  8
WAKU
  6
CONTINUOUS
 10
479.48654187089539
 20
416.5807827456776
 30
0.0
 11
477.93925787089591
 21
415.28847474567817
 31
0.0
 12
479.0161808708956
 22
415.28847474567817
 32
0.0
 13
479.0161808708956
 23
415.28847474567817
 33
0.0
  0
SOLID
  5
53D0
  8
WAKU
  6
CONTINUOUS
 10
477.93925787089591
 20
415.28847474567817
 30
0.0
 11
479.48654187089539
 21
416.5807827456776
 31
0.0
 12
478.40961887089583
 22
416.5807827456776
 32
0.0
 13
478.40961887089583
 23
416.5807827456776
 33
0.0
  0
SOLID
  5
53D1
  8
WAKU
  6
CONTINUOUS
 10
480.70798087089571
 20
409.58078274567771
 30
0.0
 11
480.41499387089561
 21
411.73462874567758
 31
0.0
 12
476.43037887089599
 22
411.73462874567758
 32
0.0
 13
476.43037887089599
 23
411.73462874567758
 33
0.0
  0
SOLID
  5
53D2
  8
WAKU
  6
CONTINUOUS
 10
476.43037887089599
 20
411.73462874567758
 30
0.0
 11
475.64644287089561
 21
409.58078274567771
 31
0.0
 12
480.70798087089571
 22
409.58078274567771
 32
0.0
 13
480.70798087089571
 23
409.58078274567771
 33
0.0
  0
LINE
  5
53D3
  8
WAKU
  6
CONTINUOUS
 10
475.64644287089448
 20
409.58078274567771
 30
0.0
 11
480.70798087089531
 21
409.58078274567771
 31
0.0
  0
SOLID
  5
53D4
  8
WAKU
  6
CONTINUOUS
 10
476.54361287089557
 20
413.67309074567771
 30
0.0
 11
478.42822887089568
 21
413.67309074567771
 31
0.0
 12
481.12053587089508
 22
413.67309074567771
 32
0.0
 13
481.12053587089508
 23
413.67309074567771
 33
0.0
  0
SOLID
  5
53D5
  8
WAKU
  6
CONTINUOUS
 10
479.0161808708956
 20
415.28847474567817
 30
0.0
 11
476.54361287089557
 21
413.67309074567771
 31
0.0
 12
482.19745987089561
 22
413.67309074567771
 32
0.0
 13
482.19745987089561
 23
413.67309074567771
 33
0.0
  0
SOLID
  5
53D6
  8
WAKU
  6
CONTINUOUS
 10
482.19745987089561
 20
413.67309074567771
 30
0.0
 11
476.54361287089557
 21
413.67309074567771
 31
0.0
 12
481.12053587089508
 22
413.67309074567771
 32
0.0
 13
481.12053587089508
 23
413.67309074567771
 33
0.0
  0
SOLID
  5
53D7
  8
WAKU
  6
CONTINUOUS
 10
477.3513058708956
 20
413.67309074567771
 30
0.0
 11
476.9593378708953
 21
412.5961677456782
 31
0.0
 12
478.42822887089568
 22
413.67309074567771
 32
0.0
 13
478.42822887089568
 23
413.67309074567771
 33
0.0
  0
SOLID
  5
53D8
  8
WAKU
  6
CONTINUOUS
 10
478.42822887089568
 20
413.67309074567771
 30
0.0
 11
476.9593378708953
 21
412.5961677456782
 31
0.0
 12
478.0362608708956
 22
412.5961677456782
 32
0.0
 13
478.0362608708956
 23
412.5961677456782
 33
0.0
  0
LINE
  5
53D9
  8
WAKU
  6
CONTINUOUS
 10
478.0362608708956
 20
412.59616774567769
 30
0.0
 11
478.42822887089523
 21
413.67309074567771
 31
0.0
  0
LINE
  5
53DA
  8
WAKU
  6
CONTINUOUS
 10
476.43037887089508
 20
411.73462874567758
 30
0.0
 11
480.41499387089561
 21
411.73462874567758
 31
0.0
  0
SOLID
  5
53DB
  8
WAKU
  6
CONTINUOUS
 10
476.54361287089557
 20
413.67309074567771
 30
0.0
 11
477.3513058708956
 21
413.67309074567771
 31
0.0
 12
478.42822887089568
 22
413.67309074567771
 32
0.0
 13
478.42822887089568
 23
413.67309074567771
 33
0.0
  0
SOLID
  5
53DC
  8
WAKU
  6
CONTINUOUS
 10
479.0161808708956
 20
415.28847474567817
 30
0.0
 11
477.93925787089591
 21
415.28847474567817
 31
0.0
 12
477.13156487089577
 22
415.28847474567817
 32
0.0
 13
477.13156487089577
 23
415.28847474567817
 33
0.0
  0
SOLID
  5
53DD
  8
WAKU
  6
CONTINUOUS
 10
483.44977887089561
 20
411.196167745678
 30
0.0
 11
482.86182787089592
 21
409.58078274567771
 31
0.0
 12
487.16951987089539
 22
409.58078274567771
 32
0.0
 13
487.16951987089539
 23
409.58078274567771
 33
0.0
  0
LINE
  5
53DE
  8
WAKU
  6
CONTINUOUS
 10
482.86182787089592
 20
409.58078274567771
 30
0.0
 11
487.16951987089539
 21
409.58078274567771
 31
0.0
  0
SOLID
  5
53DF
  8
WAKU
  6
CONTINUOUS
 10
482.78541087089548
 20
415.28847474567817
 30
0.0
 11
481.70848787089562
 21
415.28847474567817
 31
0.0
 12
483.59310387089562
 22
415.28847474567817
 32
0.0
 13
483.59310387089562
 23
415.28847474567817
 33
0.0
  0
SOLID
  5
53E0
  8
WAKU
  6
CONTINUOUS
 10
483.59310387089562
 20
415.28847474567817
 30
0.0
 11
481.70848787089562
 21
415.28847474567817
 31
0.0
 12
483.00515187089542
 22
413.67309074567771
 32
0.0
 13
483.00515187089542
 23
413.67309074567771
 33
0.0
  0
LINE
  5
53E1
  8
WAKU
  6
CONTINUOUS
 10
482.86182787089592
 20
409.58078274567771
 30
0.0
 11
483.4497788708951
 21
411.1961677456776
 31
0.0
  0
SOLID
  5
53E2
  8
WAKU
  6
CONTINUOUS
 10
483.25577287089538
 20
416.5807827456776
 30
0.0
 11
482.17884987089508
 21
416.5807827456776
 31
0.0
 12
482.78541087089548
 22
415.28847474567817
 32
0.0
 13
482.78541087089548
 23
415.28847474567817
 33
0.0
  0
LINE
  5
53E3
  8
WAKU
  6
CONTINUOUS
 10
482.17884987089508
 20
416.5807827456776
 30
0.0
 11
483.25577287089448
 21
416.5807827456776
 31
0.0
  0
LINE
  5
53E4
  8
WAKU
  6
CONTINUOUS
 10
482.78541087089548
 20
415.28847474567772
 30
0.0
 11
483.25577287089448
 21
416.5807827456776
 31
0.0
  0
LINE
  5
53E5
  8
WAKU
  6
CONTINUOUS
 10
482.78541087089548
 20
415.28847474567772
 30
0.0
 11
483.59310387089562
 21
415.28847474567772
 31
0.0
  0
LINE
  5
53E6
  8
WAKU
  6
CONTINUOUS
 10
483.00515187089508
 20
413.67309074567771
 30
0.0
 11
483.59310387089562
 21
415.28847474567772
 31
0.0
  0
LINE
  5
53E7
  8
WAKU
  6
CONTINUOUS
 10
470.2440088708953
 20
414.85770574567772
 30
0.0
 11
470.87115787089562
 21
416.5807827456776
 31
0.0
  0
LINE
  5
53E8
  8
WAKU
  6
CONTINUOUS
 10
468.3233658708956
 20
409.58078274567771
 30
0.0
 11
469.10730187089513
 21
411.73462874567758
 31
0.0
  0
LINE
  5
53E9
  8
WAKU
  6
CONTINUOUS
 10
469.5788498708954
 20
416.5807827456776
 30
0.0
 11
468.95170087089451
 21
414.85770574567772
 31
0.0
  0
LINE
  5
53EA
  8
WAKU
  6
CONTINUOUS
 10
466.78062387089511
 20
414.85770574567772
 30
0.0
 11
468.01097787089509
 21
412.27309074567768
 31
0.0
  0
LINE
  5
53EB
  8
WAKU
  6
CONTINUOUS
 10
467.0310578708951
 20
409.58078274567771
 30
0.0
 11
468.01097787089509
 21
412.27309074567768
 31
0.0
  0
SOLID
  5
53EC
  8
WAKU
  6
CONTINUOUS
 10
465.74943987089569
 20
412.27309074567802
 30
0.0
 11
464.65291787089558
 21
412.219244745678
 31
0.0
 12
464.76951987089518
 22
409.58078274567771
 32
0.0
 13
464.76951987089518
 23
409.58078274567771
 33
0.0
  0
LINE
  5
53ED
  8
WAKU
  6
CONTINUOUS
 10
464.76951987089518
 20
409.58078274567771
 30
0.0
 11
465.74943987089512
 21
412.27309074567768
 31
0.0
  0
SOLID
  5
53EE
  8
WAKU
  6
CONTINUOUS
 10
464.65291787089558
 20
412.219244745678
 30
0.0
 11
463.69259687089561
 21
409.58078274567771
 31
0.0
 12
464.76951987089518
 22
409.58078274567771
 32
0.0
 13
464.76951987089518
 23
409.58078274567771
 33
0.0
  0
LINE
  5
53EF
  8
WAKU
  6
CONTINUOUS
 10
463.69259687089561
 20
409.58078274567771
 30
0.0
 11
464.65291787089512
 21
412.219244745678
 31
0.0
  0
LINE
  5
53F0
  8
WAKU
  6
CONTINUOUS
 10
463.69259687089561
 20
409.58078274567771
 30
0.0
 11
464.76951987089518
 21
409.58078274567771
 31
0.0
  0
SOLID
  5
53F1
  8
WAKU
  6
CONTINUOUS
 10
466.78062387089511
 20
414.857705745678
 30
0.0
 11
465.56708587089571
 21
414.857705745678
 31
0.0
 12
465.74943987089569
 22
412.27309074567802
 32
0.0
 13
465.74943987089569
 23
412.27309074567802
 33
0.0
  0
LINE
  5
53F2
  8
WAKU
  6
CONTINUOUS
 10
465.74943987089512
 20
412.27309074567768
 30
0.0
 11
467.0310578708951
 21
409.58078274567771
 31
0.0
  0
SOLID
  5
53F3
  8
WAKU
  6
CONTINUOUS
 10
466.78062387089511
 20
414.857705745678
 30
0.0
 11
465.74943987089569
 21
412.27309074567802
 31
0.0
 12
468.01097787089537
 22
412.27309074567802
 32
0.0
 13
468.01097787089537
 23
412.27309074567802
 33
0.0
  0
SOLID
  5
53F4
  8
WAKU
  6
CONTINUOUS
 10
465.74943987089569
 20
412.27309074567802
 30
0.0
 11
467.03105787089561
 21
409.58078274567771
 31
0.0
 12
468.01097787089537
 22
412.27309074567802
 32
0.0
 13
468.01097787089537
 23
412.27309074567802
 33
0.0
  0
LINE
  5
53F5
  8
WAKU
  6
CONTINUOUS
 10
463.351700870895
 20
414.85770574567772
 30
0.0
 11
465.56708587089503
 21
414.85770574567772
 31
0.0
  0
LINE
  5
53F6
  8
WAKU
  6
CONTINUOUS
 10
463.97884987089509
 20
416.5807827456776
 30
0.0
 11
463.351700870895
 21
414.85770574567772
 31
0.0
  0
SOLID
  5
53F7
  8
WAKU
  6
CONTINUOUS
 10
463.97884987089571
 20
416.5807827456776
 30
0.0
 11
463.35170087089563
 21
414.857705745678
 31
0.0
 12
466.78062387089511
 22
414.857705745678
 32
0.0
 13
466.78062387089511
 23
414.857705745678
 33
0.0
  0
SOLID
  5
53F8
  8
WAKU
  6
CONTINUOUS
 10
466.78062387089511
 20
414.857705745678
 30
0.0
 11
463.35170087089563
 21
414.857705745678
 31
0.0
 12
465.56708587089571
 22
414.857705745678
 32
0.0
 13
465.56708587089571
 23
414.857705745678
 33
0.0
  0
LINE
  5
53F9
  8
WAKU
  6
CONTINUOUS
 10
466.78062387089511
 20
414.85770574567772
 30
0.0
 11
468.95170087089451
 21
414.85770574567772
 31
0.0
  0
SOLID
  5
53FA
  8
WAKU
  6
CONTINUOUS
 10
469.57884987089562
 20
416.5807827456776
 30
0.0
 11
463.97884987089571
 21
416.5807827456776
 31
0.0
 12
468.95170087089531
 22
414.857705745678
 32
0.0
 13
468.95170087089531
 23
414.857705745678
 33
0.0
  0
SOLID
  5
53FB
  8
WAKU
  6
CONTINUOUS
 10
463.97884987089571
 20
416.5807827456776
 30
0.0
 11
466.78062387089511
 21
414.857705745678
 31
0.0
 12
468.95170087089531
 22
414.857705745678
 32
0.0
 13
468.95170087089531
 23
414.857705745678
 33
0.0
  0
LINE
  5
53FC
  8
WAKU
  6
CONTINUOUS
 10
463.97884987089509
 20
416.5807827456776
 30
0.0
 11
469.5788498708954
 21
416.5807827456776
 31
0.0
  0
LINE
  5
53FD
  8
WAKU
  6
CONTINUOUS
 10
461.4310578708953
 20
409.58078274567771
 30
0.0
 11
462.41097787089518
 21
412.27309074567768
 31
0.0
  0
LINE
  5
53FE
  8
WAKU
  6
CONTINUOUS
 10
459.15061587089508
 20
412.86447574567819
 30
0.0
 11
459.4125048708953
 21
413.36581274567772
 31
0.0
  0
SOLID
  5
53FF
  8
WAKU
  6
CONTINUOUS
 10
460.20659987089562
 20
413.67707174567829
 30
0.0
 11
459.81213387089548
 21
413.6506467456777
 31
0.0
 12
460.12175687089558
 22
413.24691674567799
 32
0.0
 13
460.12175687089558
 23
413.24691674567799
 33
0.0
  0
SOLID
  5
5400
  8
WAKU
  6
CONTINUOUS
 10
459.81213387089548
 20
413.6506467456777
 30
0.0
 11
459.71648287089539
 21
413.25503074567729
 31
0.0
 12
460.12175687089558
 22
413.24691674567799
 32
0.0
 13
460.12175687089558
 23
413.24691674567799
 33
0.0
  0
LINE
  5
5401
  8
WAKU
  6
CONTINUOUS
 10
460.12175687089518
 20
413.24691674567748
 30
0.0
 11
460.20659987089562
 21
413.67707174567721
 31
0.0
  0
LINE
  5
5402
  8
WAKU
  6
CONTINUOUS
 10
459.71648287089539
 20
413.25503074567729
 30
0.0
 11
459.81213387089508
 21
413.6506467456768
 31
0.0
  0
SOLID
  5
5403
  8
WAKU
  6
CONTINUOUS
 10
459.71648287089539
 20
413.25503074567729
 30
0.0
 11
459.52427987089561
 21
412.80006074567802
 31
0.0
 12
460.12175687089558
 22
413.24691674567799
 32
0.0
 13
460.12175687089558
 23
413.24691674567799
 33
0.0
  0
SOLID
  5
5404
  8
WAKU
  6
CONTINUOUS
 10
460.12175687089558
 20
413.24691674567799
 30
0.0
 11
459.52427987089561
 21
412.80006074567802
 31
0.0
 12
459.94527587089561
 22
412.7776107456782
 32
0.0
 13
459.94527587089561
 23
412.7776107456782
 33
0.0
  0
LINE
  5
5405
  8
WAKU
  6
CONTINUOUS
 10
459.6836378708951
 20
412.28639174567741
 30
0.0
 11
459.9452758708947
 21
412.77761074567741
 31
0.0
  0
LINE
  5
5406
  8
WAKU
  6
CONTINUOUS
 10
459.9452758708947
 20
412.77761074567741
 30
0.0
 11
460.12175687089518
 21
413.24691674567748
 31
0.0
  0
LINE
  5
5407
  8
WAKU
  6
CONTINUOUS
 10
459.52427987089447
 20
412.80006074567802
 30
0.0
 11
459.71648287089539
 21
413.25503074567729
 31
0.0
  0
LINE
  5
5408
  8
WAKU
  6
CONTINUOUS
 10
458.94610787089471
 20
411.31052674567741
 30
0.0
 11
459.34645387089557
 21
411.79130274567768
 31
0.0
  0
SOLID
  5
5409
  8
WAKU
  6
CONTINUOUS
 10
459.52427987089561
 20
412.80006074567802
 30
0.0
 11
459.24082287089561
 21
412.31450074567812
 31
0.0
 12
459.94527587089561
 22
412.7776107456782
 32
0.0
 13
459.94527587089561
 23
412.7776107456782
 33
0.0
  0
SOLID
  5
540A
  8
WAKU
  6
CONTINUOUS
 10
459.94527587089561
 20
412.7776107456782
 30
0.0
 11
459.24082287089561
 21
412.31450074567812
 31
0.0
 12
459.68363787089561
 22
412.28639174567809
 32
0.0
 13
459.68363787089561
 23
412.28639174567809
 33
0.0
  0
LINE
  5
540B
  8
WAKU
  6
CONTINUOUS
 10
459.34645387089557
 20
411.79130274567768
 30
0.0
 11
459.6836378708951
 21
412.28639174567741
 31
0.0
  0
LINE
  5
540C
  8
WAKU
  6
CONTINUOUS
 10
459.24082287089561
 20
412.31450074567812
 30
0.0
 11
459.52427987089447
 21
412.80006074567802
 31
0.0
  0
SOLID
  5
540D
  8
WAKU
  6
CONTINUOUS
 10
460.09238487089573
 20
414.35874974567793
 30
0.0
 11
459.66058287089538
 21
414.27703174567802
 31
0.0
 12
460.19668787089557
 22
414.05227574567829
 32
0.0
 13
460.19668787089557
 23
414.05227574567829
 33
0.0
  0
SOLID
  5
540E
  8
WAKU
  6
CONTINUOUS
 10
459.66058287089538
 20
414.27703174567802
 30
0.0
 11
459.75872387089561
 21
414.15870074567817
 31
0.0
 12
460.19668787089557
 22
414.05227574567829
 32
0.0
 13
460.19668787089557
 23
414.05227574567829
 33
0.0
  0
SOLID
  5
540F
  8
WAKU
  6
CONTINUOUS
 10
459.75872387089561
 20
414.15870074567817
 30
0.0
 11
459.81757487089561
 21
413.95803574567771
 31
0.0
 12
460.19668787089557
 22
414.05227574567829
 32
0.0
 13
460.19668787089557
 23
414.05227574567829
 33
0.0
  0
SOLID
  5
5410
  8
WAKU
  6
CONTINUOUS
 10
460.19668787089557
 20
414.05227574567829
 30
0.0
 11
459.81757487089561
 21
413.95803574567771
 31
0.0
 12
460.20659987089562
 22
413.67707174567829
 32
0.0
 13
460.20659987089562
 23
413.67707174567829
 33
0.0
  0
SOLID
  5
5411
  8
WAKU
  6
CONTINUOUS
 10
459.81757487089561
 20
413.95803574567771
 30
0.0
 11
459.81213387089548
 21
413.6506467456777
 31
0.0
 12
460.20659987089562
 22
413.67707174567829
 32
0.0
 13
460.20659987089562
 23
413.67707174567829
 33
0.0
  0
LINE
  5
5412
  8
WAKU
  6
CONTINUOUS
 10
460.0923848708947
 20
414.35874974567793
 30
0.0
 11
459.89752187089562
 21
414.5852347456775
 31
0.0
  0
LINE
  5
5413
  8
WAKU
  6
CONTINUOUS
 10
460.20659987089562
 20
413.67707174567721
 30
0.0
 11
460.19668787089512
 21
414.05227574567772
 31
0.0
  0
LINE
  5
5414
  8
WAKU
  6
CONTINUOUS
 10
460.19668787089512
 20
414.05227574567772
 30
0.0
 11
460.0923848708947
 21
414.35874974567793
 31
0.0
  0
LINE
  5
5415
  8
WAKU
  6
CONTINUOUS
 10
459.81213387089508
 20
413.6506467456768
 30
0.0
 11
459.81757487089448
 21
413.95803574567771
 31
0.0
  0
LINE
  5
5416
  8
WAKU
  6
CONTINUOUS
 10
459.81757487089448
 20
413.95803574567771
 30
0.0
 11
459.75872387089453
 21
414.15870074567761
 31
0.0
  0
LINE
  5
5417
  8
WAKU
  6
CONTINUOUS
 10
459.75872387089453
 20
414.15870074567761
 30
0.0
 11
459.66058287089442
 21
414.27703174567802
 31
0.0
  0
LINE
  5
5418
  8
WAKU
  6
CONTINUOUS
 10
459.58469787089513
 20
413.84276974567751
 30
0.0
 11
459.66058287089442
 21
414.27703174567802
 31
0.0
  0
LINE
  5
5419
  8
WAKU
  6
CONTINUOUS
 10
459.89752187089562
 20
414.5852347456775
 30
0.0
 11
459.61925687089439
 21
414.72341274567742
 31
0.0
  0
LINE
  5
541A
  8
WAKU
  6
CONTINUOUS
 10
459.61925687089439
 20
414.72341274567742
 30
0.0
 11
459.48107887089532
 21
415.00167774567768
 31
0.0
  0
LINE
  5
541B
  8
WAKU
  6
CONTINUOUS
 10
459.18784387089522
 20
413.87118474567728
 30
0.0
 11
459.27500187089453
 21
414.37935174567758
 31
0.0
  0
LINE
  5
541C
  8
WAKU
  6
CONTINUOUS
 10
459.17271387089539
 20
414.76472674567748
 30
0.0
 11
459.0549208708951
 21
414.8627117456777
 31
0.0
  0
LINE
  5
541D
  8
WAKU
  6
CONTINUOUS
 10
459.25459387089558
 20
415.1965397456778
 30
0.0
 11
458.94812087089502
 21
415.30084274567793
 31
0.0
  0
SOLID
  5
541E
  8
WAKU
  6
CONTINUOUS
 10
459.05492087089539
 20
414.8627117456777
 30
0.0
 11
459.17271387089539
 21
414.76472674567799
 31
0.0
 12
459.61925687089558
 22
414.72341274567742
 32
0.0
 13
459.61925687089558
 23
414.72341274567742
 33
0.0
  0
SOLID
  5
541F
  8
WAKU
  6
CONTINUOUS
 10
459.89752187089562
 20
414.58523474567818
 30
0.0
 11
459.27500187089538
 21
414.37935174567758
 31
0.0
 12
460.09238487089573
 22
414.35874974567793
 32
0.0
 13
460.09238487089573
 23
414.35874974567793
 33
0.0
  0
SOLID
  5
5420
  8
WAKU
  6
CONTINUOUS
 10
459.27500187089538
 20
414.37935174567758
 30
0.0
 11
459.18784387089562
 21
413.87118474567808
 31
0.0
 12
459.66058287089538
 22
414.27703174567802
 32
0.0
 13
459.66058287089538
 23
414.27703174567802
 33
0.0
  0
SOLID
  5
5421
  8
WAKU
  6
CONTINUOUS
 10
459.27500187089538
 20
414.37935174567758
 30
0.0
 11
459.66058287089538
 21
414.27703174567802
 31
0.0
 12
460.09238487089573
 22
414.35874974567793
 32
0.0
 13
460.09238487089573
 23
414.35874974567793
 33
0.0
  0
SOLID
  5
5422
  8
WAKU
  6
CONTINUOUS
 10
459.66058287089538
 20
414.27703174567802
 30
0.0
 11
459.18784387089562
 21
413.87118474567808
 31
0.0
 12
459.5846978708957
 22
413.84276974567808
 32
0.0
 13
459.5846978708957
 23
413.84276974567808
 33
0.0
  0
LINE
  5
5423
  8
WAKU
  6
CONTINUOUS
 10
459.48107887089532
 20
415.00167774567768
 30
0.0
 11
459.25459387089558
 21
415.1965397456778
 31
0.0
  0
LINE
  5
5424
  8
WAKU
  6
CONTINUOUS
 10
459.4125048708953
 20
413.36581274567772
 30
0.0
 11
459.58469787089513
 21
413.84276974567751
 31
0.0
  0
LINE
  5
5425
  8
WAKU
  6
CONTINUOUS
 10
458.73840887089511
 20
414.68879674567768
 30
0.0
 11
458.26141187089507
 21
414.51655074567719
 31
0.0
  0
LINE
  5
5426
  8
WAKU
  6
CONTINUOUS
 10
458.40103887089452
 20
411.86587174567728
 30
0.0
 11
458.80908887089561
 21
412.35801174567769
 31
0.0
  0
LINE
  5
5427
  8
WAKU
  6
CONTINUOUS
 10
458.47601087089453
 20
412.56270274567771
 30
0.0
 11
458.91712587089501
 21
413.240316745678
 31
0.0
  0
LINE
  5
5428
  8
WAKU
  6
CONTINUOUS
 10
458.85376887089512
 20
414.92168474567728
 30
0.0
 11
458.54662987089472
 21
414.91636374567759
 31
0.0
  0
SOLID
  5
5429
  8
WAKU
  6
CONTINUOUS
 10
458.73840887089563
 20
414.68879674567802
 30
0.0
 11
458.26141187089547
 21
414.5165507456777
 31
0.0
 12
459.89752187089562
 22
414.58523474567818
 32
0.0
 13
459.89752187089562
 23
414.58523474567818
 33
0.0
  0
SOLID
  5
542A
  8
WAKU
  6
CONTINUOUS
 10
459.89752187089562
 20
414.58523474567818
 30
0.0
 11
458.26141187089547
 21
414.5165507456777
 31
0.0
 12
459.27500187089538
 22
414.37935174567758
 32
0.0
 13
459.27500187089538
 23
414.37935174567758
 33
0.0
  0
SOLID
  5
542B
  8
WAKU
  6
CONTINUOUS
 10
459.4125048708953
 20
413.36581274567772
 30
0.0
 11
458.91712587089592
 21
413.240316745678
 31
0.0
 12
459.15061587089508
 22
412.86447574567819
 32
0.0
 13
459.15061587089508
 23
412.86447574567819
 33
0.0
  0
SOLID
  5
542C
  8
WAKU
  6
CONTINUOUS
 10
459.18784387089562
 20
413.87118474567808
 30
0.0
 11
458.91712587089592
 21
413.240316745678
 31
0.0
 12
459.5846978708957
 22
413.84276974567808
 32
0.0
 13
459.5846978708957
 23
413.84276974567808
 33
0.0
  0
SOLID
  5
542D
  8
WAKU
  6
CONTINUOUS
 10
459.5846978708957
 20
413.84276974567808
 30
0.0
 11
458.91712587089592
 21
413.240316745678
 31
0.0
 12
459.4125048708953
 22
413.36581274567772
 32
0.0
 13
459.4125048708953
 23
413.36581274567772
 33
0.0
  0
LINE
  5
542E
  8
WAKU
  6
CONTINUOUS
 10
458.91712587089501
 20
413.240316745678
 30
0.0
 11
459.18784387089522
 21
413.87118474567728
 31
0.0
  0
SOLID
  5
542F
  8
WAKU
  6
CONTINUOUS
 10
458.91712587089592
 20
413.240316745678
 30
0.0
 11
458.47601087089538
 21
412.56270274567771
 31
0.0
 12
459.15061587089508
 22
412.86447574567819
 32
0.0
 13
459.15061587089508
 23
412.86447574567819
 33
0.0
  0
SOLID
  5
5430
  8
WAKU
  6
CONTINUOUS
 10
459.15061587089508
 20
412.86447574567819
 30
0.0
 11
458.47601087089538
 21
412.56270274567771
 31
0.0
 12
458.80908887089561
 22
412.35801174567769
 32
0.0
 13
458.80908887089561
 23
412.35801174567769
 33
0.0
  0
SOLID
  5
5431
  8
WAKU
  6
CONTINUOUS
 10
459.34645387089557
 20
411.79130274567802
 30
0.0
 11
458.45173787089561
 21
411.35601474567773
 31
0.0
 12
458.94610787089562
 22
411.3105267456782
 32
0.0
 13
458.94610787089562
 23
411.3105267456782
 33
0.0
  0
LINE
  5
5432
  8
WAKU
  6
CONTINUOUS
 10
458.45173787089448
 20
411.35601474567773
 30
0.0
 11
459.24082287089561
 21
412.31450074567812
 31
0.0
  0
LINE
  5
5433
  8
WAKU
  6
CONTINUOUS
 10
458.49730487089522
 20
410.8617237456773
 30
0.0
 11
458.94610787089471
 21
411.31052674567741
 31
0.0
  0
LINE
  5
5434
  8
WAKU
  6
CONTINUOUS
 10
458.80908887089561
 20
412.35801174567769
 30
0.0
 11
459.15061587089508
 21
412.86447574567819
 31
0.0
  0
SOLID
  5
5435
  8
WAKU
  6
CONTINUOUS
 10
459.24082287089561
 20
412.31450074567812
 30
0.0
 11
458.45173787089561
 21
411.35601474567773
 31
0.0
 12
459.68363787089561
 22
412.28639174567809
 32
0.0
 13
459.68363787089561
 23
412.28639174567809
 33
0.0
  0
SOLID
  5
5436
  8
WAKU
  6
CONTINUOUS
 10
459.68363787089561
 20
412.28639174567809
 30
0.0
 11
458.45173787089561
 21
411.35601474567773
 31
0.0
 12
459.34645387089557
 22
411.79130274567802
 32
0.0
 13
459.34645387089557
 23
411.79130274567802
 33
0.0
  0
LINE
  5
5437
  8
WAKU
  6
CONTINUOUS
 10
459.27500187089453
 20
414.37935174567758
 30
0.0
 11
458.76651087089539
 21
414.2920227456778
 31
0.0
  0
LINE
  5
5438
  8
WAKU
  6
CONTINUOUS
 10
459.17271387089539
 20
414.76472674567748
 30
0.0
 11
458.73840887089511
 21
414.68879674567768
 31
0.0
  0
LINE
  5
5439
  8
WAKU
  6
CONTINUOUS
 10
459.0549208708951
 20
414.8627117456777
 30
0.0
 11
458.85376887089512
 21
414.92168474567728
 31
0.0
  0
LINE
  5
543A
  8
WAKU
  6
CONTINUOUS
 10
458.94812087089502
 20
415.30084274567793
 30
0.0
 11
458.57291587089509
 21
415.3107547456778
 31
0.0
  0
SOLID
  5
543B
  8
WAKU
  6
CONTINUOUS
 10
459.48107887089571
 20
415.00167774567819
 30
0.0
 11
458.85376887089592
 21
414.92168474567819
 31
0.0
 12
459.61925687089558
 22
414.72341274567742
 32
0.0
 13
459.61925687089558
 23
414.72341274567742
 33
0.0
  0
SOLID
  5
543C
  8
WAKU
  6
CONTINUOUS
 10
458.85376887089592
 20
414.92168474567819
 30
0.0
 11
459.05492087089539
 21
414.8627117456777
 31
0.0
 12
459.61925687089558
 22
414.72341274567742
 32
0.0
 13
459.61925687089558
 23
414.72341274567742
 33
0.0
  0
SOLID
  5
543D
  8
WAKU
  6
CONTINUOUS
 10
459.17271387089539
 20
414.76472674567799
 30
0.0
 11
458.73840887089563
 21
414.68879674567802
 31
0.0
 12
459.61925687089558
 22
414.72341274567742
 32
0.0
 13
459.61925687089558
 23
414.72341274567742
 33
0.0
  0
SOLID
  5
543E
  8
WAKU
  6
CONTINUOUS
 10
459.61925687089558
 20
414.72341274567742
 30
0.0
 11
458.73840887089563
 21
414.68879674567802
 31
0.0
 12
459.89752187089562
 22
414.58523474567818
 32
0.0
 13
459.89752187089562
 23
414.58523474567818
 33
0.0
  0
SOLID
  5
543F
  8
WAKU
  6
CONTINUOUS
 10
455.75756787089563
 20
413.60145974567752
 30
0.0
 11
455.35722187089539
 21
413.12068374567798
 31
0.0
 12
456.25187087089569
 22
413.55589074567808
 32
0.0
 13
456.25187087089569
 23
413.55589074567808
 33
0.0
  0
SOLID
  5
5440
  8
WAKU
  6
CONTINUOUS
 10
456.25187087089569
 20
413.55589074567808
 30
0.0
 11
455.35722187089539
 21
413.12068374567798
 31
0.0
 12
455.46280787089557
 22
412.59735274567771
 32
0.0
 13
455.46280787089557
 23
412.59735274567771
 33
0.0
  0
LINE
  5
5441
  8
WAKU
  6
CONTINUOUS
 10
456.25187087089512
 20
413.55589074567729
 30
0.0
 11
455.46280787089472
 21
412.59735274567771
 31
0.0
  0
SOLID
  5
5442
  8
WAKU
  6
CONTINUOUS
 10
456.30249287089578
 20
413.0459567456781
 30
0.0
 11
455.89444387089588
 21
412.55378274567772
 31
0.0
 12
456.80159987089559
 22
413.00567574567771
 32
0.0
 13
456.80159987089559
 23
413.00567574567771
 33
0.0
  0
SOLID
  5
5443
  8
WAKU
  6
CONTINUOUS
 10
456.80159987089559
 20
413.00567574567771
 30
0.0
 11
455.89444387089588
 21
412.55378274567772
 31
0.0
 12
456.2276688708958
 22
412.34925374567808
 32
0.0
 13
456.2276688708958
 23
412.34925374567808
 33
0.0
  0
SOLID
  5
5444
  8
WAKU
  6
CONTINUOUS
 10
455.89444387089588
 20
412.55378274567772
 30
0.0
 11
455.5529288708957
 21
412.0472917456778
 31
0.0
 12
456.2276688708958
 22
412.34925374567808
 32
0.0
 13
456.2276688708958
 23
412.34925374567808
 33
0.0
  0
SOLID
  5
5445
  8
WAKU
  6
CONTINUOUS
 10
456.2276688708958
 20
412.34925374567808
 30
0.0
 11
455.5529288708957
 21
412.0472917456778
 31
0.0
 12
455.78648487089538
 22
411.67165774567809
 32
0.0
 13
455.78648487089538
 23
411.67165774567809
 33
0.0
  0
SOLID
  5
5446
  8
WAKU
  6
CONTINUOUS
 10
456.56803587089581
 20
410.8911147456771
 30
0.0
 11
455.93716787089568
 21
410.61997774567772
 31
0.0
 12
456.94354287089539
 22
410.65732774567817
 32
0.0
 13
456.94354287089539
 23
410.65732774567817
 33
0.0
  0
SOLID
  5
5447
  8
WAKU
  6
CONTINUOUS
 10
456.94354287089539
 20
410.65732774567817
 30
0.0
 11
455.93716787089568
 21
410.61997774567772
 31
0.0
 12
456.4422008708957
 22
410.3954077456782
 32
0.0
 13
456.4422008708957
 23
410.3954077456782
 33
0.0
  0
SOLID
  5
5448
  8
WAKU
  6
CONTINUOUS
 10
455.93716787089568
 20
410.61997774567772
 30
0.0
 11
455.42868387089538
 21
410.53263874567813
 31
0.0
 12
456.4422008708957
 22
410.3954077456782
 32
0.0
 13
456.4422008708957
 23
410.3954077456782
 33
0.0
  0
SOLID
  5
5449
  8
WAKU
  6
CONTINUOUS
 10
455.42868387089538
 20
410.53263874567813
 30
0.0
 11
454.80615387089563
 21
410.32675174567822
 31
0.0
 12
456.4422008708957
 22
410.3954077456782
 32
0.0
 13
456.4422008708957
 23
410.3954077456782
 33
0.0
  0
SOLID
  5
544A
  8
WAKU
  6
CONTINUOUS
 10
456.4422008708957
 20
410.3954077456782
 30
0.0
 11
454.80615387089563
 21
410.32675174567822
 31
0.0
 12
455.96523087089508
 22
410.22317974567801
 32
0.0
 13
455.96523087089508
 23
410.22317974567801
 33
0.0
  0
SOLID
  5
544B
  8
WAKU
  6
CONTINUOUS
 10
454.80615387089563
 20
410.32675174567822
 30
0.0
 11
455.08441887089589
 21
410.18857374567801
 31
0.0
 12
455.96523087089508
 22
410.22317974567801
 32
0.0
 13
455.96523087089508
 23
410.22317974567801
 33
0.0
  0
SOLID
  5
544C
  8
WAKU
  6
CONTINUOUS
 10
455.96523087089508
 20
410.22317974567801
 30
0.0
 11
455.08441887089589
 21
410.18857374567801
 31
0.0
 12
455.5309498708956
 22
410.14725874567807
 32
0.0
 13
455.5309498708956
 23
410.14725874567807
 33
0.0
  0
SOLID
  5
544D
  8
WAKU
  6
CONTINUOUS
 10
456.15706687089562
 20
409.99564574567802
 30
0.0
 11
455.84994987089573
 21
409.99028074567832
 31
0.0
 12
457.03022087089562
 22
409.86255574567809
 32
0.0
 13
457.03022087089562
 23
409.86255574567809
 33
0.0
  0
SOLID
  5
544E
  8
WAKU
  6
CONTINUOUS
 10
455.84994987089573
 20
409.99028074567832
 30
0.0
 11
455.2225968708957
 21
409.91030874567792
 31
0.0
 12
457.03022087089562
 22
409.86255574567809
 32
0.0
 13
457.03022087089562
 23
409.86255574567809
 33
0.0
  0
SOLID
  5
544F
  8
WAKU
  6
CONTINUOUS
 10
455.2225968708957
 20
409.91030874567792
 30
0.0
 11
455.44908187089561
 21
409.7154467456777
 31
0.0
 12
457.03022087089562
 22
409.86255574567809
 32
0.0
 13
457.03022087089562
 23
409.86255574567809
 33
0.0
  0
SOLID
  5
5450
  8
WAKU
  6
CONTINUOUS
 10
457.03022087089562
 20
409.86255574567809
 30
0.0
 11
455.44908187089561
 21
409.7154467456777
 31
0.0
 12
456.5609148708956
 22
409.68607374567802
 32
0.0
 13
456.5609148708956
 23
409.68607374567802
 33
0.0
  0
SOLID
  5
5451
  8
WAKU
  6
CONTINUOUS
 10
455.44908187089561
 20
409.7154467456777
 30
0.0
 11
455.75555487089559
 21
409.61114374567819
 31
0.0
 12
456.5609148708956
 22
409.68607374567802
 32
0.0
 13
456.5609148708956
 23
409.68607374567802
 33
0.0
  0
SOLID
  5
5452
  8
WAKU
  6
CONTINUOUS
 10
456.5609148708956
 20
409.68607374567802
 30
0.0
 11
455.75555487089559
 21
409.61114374567819
 31
0.0
 12
456.13075987089508
 22
409.60123174567792
 32
0.0
 13
456.13075987089508
 23
409.60123174567792
 33
0.0
  0
LINE
  5
5453
  8
WAKU
  6
CONTINUOUS
 10
455.5309498708956
 20
410.1472587456775
 30
0.0
 11
455.96523087089503
 21
410.22317974567801
 31
0.0
  0
LINE
  5
5454
  8
WAKU
  6
CONTINUOUS
 10
455.75555487089508
 20
409.61114374567819
 30
0.0
 11
456.13075987089508
 21
409.60123174567792
 31
0.0
  0
LINE
  5
5455
  8
WAKU
  6
CONTINUOUS
 10
455.93716787089483
 20
410.61997774567772
 30
0.0
 11
456.56803587089507
 21
410.8911147456771
 31
0.0
  0
LINE
  5
5456
  8
WAKU
  6
CONTINUOUS
 10
455.8499498708951
 20
409.99028074567741
 30
0.0
 11
456.15706687089562
 21
409.99564574567768
 31
0.0
  0
LINE
  5
5457
  8
WAKU
  6
CONTINUOUS
 10
456.22766887089512
 20
412.34925374567808
 30
0.0
 11
455.7864848708947
 21
411.67165774567752
 31
0.0
  0
LINE
  5
5458
  8
WAKU
  6
CONTINUOUS
 10
456.30249287089561
 20
413.04595674567759
 30
0.0
 11
455.89444387089532
 21
412.55378274567772
 31
0.0
  0
SOLID
  5
5459
  8
WAKU
  6
CONTINUOUS
 10
456.20637187089562
 20
414.05026274567751
 30
0.0
 11
455.75756787089563
 21
413.60145974567752
 31
0.0
 12
456.25187087089569
 22
413.55589074567808
 32
0.0
 13
456.25187087089569
 23
413.55589074567808
 33
0.0
  0
LINE
  5
545A
  8
WAKU
  6
CONTINUOUS
 10
456.20637187089523
 20
414.05026274567729
 30
0.0
 11
455.75756787089563
 21
413.60145974567752
 31
0.0
  0
LINE
  5
545B
  8
WAKU
  6
CONTINUOUS
 10
455.75756787089563
 20
413.60145974567752
 30
0.0
 11
455.35722187089539
 21
413.1206837456777
 31
0.0
  0
SOLID
  5
545C
  8
WAKU
  6
CONTINUOUS
 10
455.35722187089539
 20
413.12068374567798
 30
0.0
 11
455.02003787089512
 21
412.62559474567809
 31
0.0
 12
455.46280787089557
 22
412.59735274567771
 32
0.0
 13
455.46280787089557
 23
412.59735274567771
 33
0.0
  0
SOLID
  5
545D
  8
WAKU
  6
CONTINUOUS
 10
455.02003787089512
 20
412.62559474567809
 30
0.0
 11
454.75839987089557
 21
412.13437574567752
 31
0.0
 12
455.46280787089557
 22
412.59735274567771
 32
0.0
 13
455.46280787089557
 23
412.59735274567771
 33
0.0
  0
SOLID
  5
545E
  8
WAKU
  6
CONTINUOUS
 10
455.46280787089557
 20
412.59735274567771
 30
0.0
 11
454.75839987089557
 21
412.13437574567752
 31
0.0
 12
455.17929187089538
 22
412.1118107456781
 32
0.0
 13
455.17929187089538
 23
412.1118107456781
 33
0.0
  0
SOLID
  5
545F
  8
WAKU
  6
CONTINUOUS
 10
455.5529288708957
 20
412.0472917456778
 30
0.0
 11
455.29106587089558
 21
411.54593674567798
 31
0.0
 12
455.78648487089538
 22
411.67165774567809
 32
0.0
 13
455.78648487089538
 23
411.67165774567809
 33
0.0
  0
SOLID
  5
5460
  8
WAKU
  6
CONTINUOUS
 10
455.78648487089538
 20
411.67165774567809
 30
0.0
 11
455.29106587089558
 21
411.54593674567798
 31
0.0
 12
455.51594087089558
 22
411.04075174567799
 32
0.0
 13
455.51594087089558
 23
411.04075174567799
 33
0.0
  0
SOLID
  5
5461
  8
WAKU
  6
CONTINUOUS
 10
455.29106587089558
 20
411.54593674567798
 30
0.0
 11
455.1189118708956
 21
411.06897174567769
 31
0.0
 12
455.51594087089558
 22
411.04075174567799
 32
0.0
 13
455.51594087089558
 23
411.04075174567799
 33
0.0
  0
SOLID
  5
5462
  8
WAKU
  6
CONTINUOUS
 10
455.1189118708956
 20
411.06897174567769
 30
0.0
 11
455.04307787089562
 21
410.63471774567802
 31
0.0
 12
455.51594087089558
 22
411.04075174567799
 32
0.0
 13
455.51594087089558
 23
411.04075174567799
 33
0.0
  0
SOLID
  5
5463
  8
WAKU
  6
CONTINUOUS
 10
455.51594087089558
 20
411.04075174567799
 30
0.0
 11
455.04307787089562
 21
410.63471774567802
 31
0.0
 12
455.42868387089538
 22
410.53263874567813
 32
0.0
 13
455.42868387089538
 23
410.53263874567813
 33
0.0
  0
SOLID
  5
5464
  8
WAKU
  6
CONTINUOUS
 10
455.08441887089589
 20
410.18857374567801
 30
0.0
 11
455.2225968708957
 21
409.91030874567792
 31
0.0
 12
455.5309498708956
 22
410.14725874567807
 32
0.0
 13
455.5309498708956
 23
410.14725874567807
 33
0.0
  0
SOLID
  5
5465
  8
WAKU
  6
CONTINUOUS
 10
455.5309498708956
 20
410.14725874567807
 30
0.0
 11
455.2225968708957
 21
409.91030874567792
 31
0.0
 12
455.6486998708956
 22
410.04935074567823
 32
0.0
 13
455.6486998708956
 23
410.04935074567823
 33
0.0
  0
SOLID
  5
5466
  8
WAKU
  6
CONTINUOUS
 10
455.6486998708956
 20
410.04935074567823
 30
0.0
 11
455.2225968708957
 21
409.91030874567792
 31
0.0
 12
455.84994987089573
 22
409.99028074567832
 32
0.0
 13
455.84994987089573
 23
409.99028074567832
 33
0.0
  0
LINE
  5
5467
  8
WAKU
  6
CONTINUOUS
 10
455.55292887089479
 20
412.0472917456778
 30
0.0
 11
455.29106587089518
 21
411.54593674567769
 31
0.0
  0
LINE
  5
5468
  8
WAKU
  6
CONTINUOUS
 10
454.98726287089562
 20
411.65680374567768
 30
0.0
 11
454.89146887089561
 21
411.26118674567761
 31
0.0
  0
LINE
  5
5469
  8
WAKU
  6
CONTINUOUS
 10
455.7864848708947
 20
411.67165774567752
 30
0.0
 11
455.51594087089558
 21
411.0407517456772
 31
0.0
  0
LINE
  5
546A
  8
WAKU
  6
CONTINUOUS
 10
455.51594087089558
 20
411.0407517456772
 30
0.0
 11
455.4286838708951
 21
410.53263874567801
 31
0.0
  0
LINE
  5
546B
  8
WAKU
  6
CONTINUOUS
 10
454.80615387089563
 20
410.32675174567822
 30
0.0
 11
455.08441887089509
 21
410.18857374567727
 31
0.0
  0
LINE
  5
546C
  8
WAKU
  6
CONTINUOUS
 10
455.08441887089509
 20
410.18857374567727
 30
0.0
 11
455.2225968708953
 21
409.91030874567792
 31
0.0
  0
LINE
  5
546D
  8
WAKU
  6
CONTINUOUS
 10
455.2225968708953
 20
409.91030874567792
 30
0.0
 11
455.44908187089538
 21
409.7154467456777
 31
0.0
  0
LINE
  5
546E
  8
WAKU
  6
CONTINUOUS
 10
455.44908187089538
 20
409.7154467456777
 30
0.0
 11
455.75555487089508
 21
409.61114374567819
 31
0.0
  0
LINE
  5
546F
  8
WAKU
  6
CONTINUOUS
 10
455.29106587089518
 20
411.54593674567769
 30
0.0
 11
455.1189118708956
 21
411.06897174567769
 31
0.0
  0
LINE
  5
5470
  8
WAKU
  6
CONTINUOUS
 10
455.1189118708956
 20
411.06897174567769
 30
0.0
 11
455.04307787089562
 21
410.63471774567751
 31
0.0
  0
LINE
  5
5471
  8
WAKU
  6
CONTINUOUS
 10
455.4286838708951
 20
410.53263874567801
 30
0.0
 11
455.93716787089483
 21
410.61997774567772
 31
0.0
  0
LINE
  5
5472
  8
WAKU
  6
CONTINUOUS
 10
454.89146887089561
 20
411.26118674567761
 30
0.0
 11
454.88613087089448
 21
410.9538697456772
 31
0.0
  0
LINE
  5
5473
  8
WAKU
  6
CONTINUOUS
 10
454.88613087089448
 20
410.9538697456772
 30
0.0
 11
454.94492787089558
 21
410.75321774567772
 31
0.0
  0
LINE
  5
5474
  8
WAKU
  6
CONTINUOUS
 10
454.94492787089558
 20
410.75321774567772
 30
0.0
 11
455.04307787089562
 21
410.63471774567751
 31
0.0
  0
LINE
  5
5475
  8
WAKU
  6
CONTINUOUS
 10
455.5309498708956
 20
410.1472587456775
 30
0.0
 11
455.6486998708956
 21
410.04935074567823
 31
0.0
  0
LINE
  5
5476
  8
WAKU
  6
CONTINUOUS
 10
455.6486998708956
 20
410.04935074567823
 30
0.0
 11
455.8499498708951
 21
409.99028074567741
 31
0.0
  0
LINE
  5
5477
  8
WAKU
  6
CONTINUOUS
 10
455.89444387089532
 20
412.55378274567772
 30
0.0
 11
455.55292887089479
 21
412.0472917456778
 31
0.0
  0
LINE
  5
5478
  8
WAKU
  6
CONTINUOUS
 10
455.46280787089472
 20
412.59735274567771
 30
0.0
 11
455.17929187089447
 21
412.1118107456781
 31
0.0
  0
LINE
  5
5479
  8
WAKU
  6
CONTINUOUS
 10
455.17929187089447
 20
412.1118107456781
 30
0.0
 11
454.98726287089562
 21
411.65680374567768
 31
0.0
  0
LINE
  5
547A
  8
WAKU
  6
CONTINUOUS
 10
455.02003787089478
 20
412.62559474567809
 30
0.0
 11
454.75839987089557
 21
412.13437574567752
 31
0.0
  0
LINE
  5
547B
  8
WAKU
  6
CONTINUOUS
 10
455.35722187089539
 20
413.1206837456777
 30
0.0
 11
455.02003787089478
 21
412.62559474567809
 31
0.0
  0
LINE
  5
547C
  8
WAKU
  6
CONTINUOUS
 10
454.58191887089453
 20
411.66506974567727
 30
0.0
 11
454.49707587089563
 21
411.234914745678
 31
0.0
  0
LINE
  5
547D
  8
WAKU
  6
CONTINUOUS
 10
454.49707587089563
 20
411.234914745678
 30
0.0
 11
454.50698787089539
 21
410.85971074567772
 31
0.0
  0
LINE
  5
547E
  8
WAKU
  6
CONTINUOUS
 10
454.50698787089539
 20
410.85971074567772
 30
0.0
 11
454.61129087089557
 21
410.55323674567768
 31
0.0
  0
SOLID
  5
547F
  8
WAKU
  6
CONTINUOUS
 10
454.75839987089557
 20
412.13437574567752
 30
0.0
 11
454.58191887089538
 21
411.66506974567812
 31
0.0
 12
455.17929187089538
 22
412.1118107456781
 32
0.0
 13
455.17929187089538
 23
412.1118107456781
 33
0.0
  0
SOLID
  5
5480
  8
WAKU
  6
CONTINUOUS
 10
455.17929187089538
 20
412.1118107456781
 30
0.0
 11
454.58191887089538
 21
411.66506974567812
 31
0.0
 12
454.98726287089562
 22
411.65680374567768
 32
0.0
 13
454.98726287089562
 23
411.65680374567768
 33
0.0
  0
SOLID
  5
5481
  8
WAKU
  6
CONTINUOUS
 10
454.58191887089538
 20
411.66506974567812
 30
0.0
 11
454.49707587089512
 21
411.234914745678
 31
0.0
 12
454.98726287089562
 22
411.65680374567768
 32
0.0
 13
454.98726287089562
 23
411.65680374567768
 33
0.0
  0
SOLID
  5
5482
  8
WAKU
  6
CONTINUOUS
 10
454.98726287089562
 20
411.65680374567768
 30
0.0
 11
454.49707587089512
 21
411.234914745678
 31
0.0
 12
454.89146887089561
 22
411.26118674567829
 32
0.0
 13
454.89146887089561
 23
411.26118674567829
 33
0.0
  0
SOLID
  5
5483
  8
WAKU
  6
CONTINUOUS
 10
454.89146887089561
 20
411.26118674567829
 30
0.0
 11
454.49707587089512
 21
411.234914745678
 31
0.0
 12
454.88613087089561
 22
410.95386974567799
 32
0.0
 13
454.88613087089561
 23
410.95386974567799
 33
0.0
  0
SOLID
  5
5484
  8
WAKU
  6
CONTINUOUS
 10
454.49707587089512
 20
411.234914745678
 30
0.0
 11
454.50698787089561
 21
410.85971074567772
 31
0.0
 12
454.88613087089561
 22
410.95386974567799
 32
0.0
 13
454.88613087089561
 23
410.95386974567799
 33
0.0
  0
SOLID
  5
5485
  8
WAKU
  6
CONTINUOUS
 10
454.88613087089561
 20
410.95386974567799
 30
0.0
 11
454.50698787089561
 21
410.85971074567772
 31
0.0
 12
454.94492787089558
 22
410.75321774567772
 32
0.0
 13
454.94492787089558
 23
410.75321774567772
 33
0.0
  0
SOLID
  5
5486
  8
WAKU
  6
CONTINUOUS
 10
454.50698787089561
 20
410.85971074567772
 30
0.0
 11
454.61129087089557
 21
410.55323674567768
 31
0.0
 12
454.94492787089558
 22
410.75321774567772
 32
0.0
 13
454.94492787089558
 23
410.75321774567772
 33
0.0
  0
SOLID
  5
5487
  8
WAKU
  6
CONTINUOUS
 10
454.94492787089558
 20
410.75321774567772
 30
0.0
 11
454.61129087089557
 21
410.55323674567768
 31
0.0
 12
455.04307787089562
 22
410.63471774567802
 32
0.0
 13
455.04307787089562
 23
410.63471774567802
 33
0.0
  0
SOLID
  5
5488
  8
WAKU
  6
CONTINUOUS
 10
455.04307787089562
 20
410.63471774567802
 30
0.0
 11
454.61129087089557
 21
410.55323674567768
 31
0.0
 12
455.42868387089538
 22
410.53263874567813
 32
0.0
 13
455.42868387089538
 23
410.53263874567813
 33
0.0
  0
SOLID
  5
5489
  8
WAKU
  6
CONTINUOUS
 10
454.61129087089557
 20
410.55323674567768
 30
0.0
 11
454.80615387089563
 21
410.32675174567822
 31
0.0
 12
455.42868387089538
 22
410.53263874567813
 32
0.0
 13
455.42868387089538
 23
410.53263874567813
 33
0.0
  0
LINE
  5
548A
  8
WAKU
  6
CONTINUOUS
 10
454.61129087089557
 20
410.55323674567768
 30
0.0
 11
454.80615387089563
 21
410.32675174567822
 31
0.0
  0
LINE
  5
548B
  8
WAKU
  6
CONTINUOUS
 10
454.75839987089557
 20
412.13437574567752
 30
0.0
 11
454.58191887089453
 21
411.66506974567727
 31
0.0
  0
SOLID
  5
548C
  8
WAKU
  6
CONTINUOUS
 10
457.45795387089561
 20
413.57977374567821
 30
0.0
 11
456.76140487089538
 21
413.50491074567771
 31
0.0
 12
456.80159987089559
 22
413.00567574567771
 32
0.0
 13
456.80159987089559
 23
413.00567574567771
 33
0.0
  0
SOLID
  5
548D
  8
WAKU
  6
CONTINUOUS
 10
456.76140487089538
 20
413.50491074567771
 30
0.0
 11
456.30249287089578
 21
413.0459567456781
 31
0.0
 12
456.80159987089559
 22
413.00567574567771
 32
0.0
 13
456.80159987089559
 23
413.00567574567771
 33
0.0
  0
LINE
  5
548E
  8
WAKU
  6
CONTINUOUS
 10
456.76140487089452
 20
413.50491074567771
 30
0.0
 11
456.30249287089561
 21
413.04595674567759
 31
0.0
  0
LINE
  5
548F
  8
WAKU
  6
CONTINUOUS
 10
457.45795387089561
 20
413.57977374567758
 30
0.0
 11
456.80159987089559
 21
413.00567574567771
 31
0.0
  0
SOLID
  5
5490
  8
WAKU
  6
CONTINUOUS
 10
457.94213587089558
 20
411.40695374567758
 30
0.0
 11
457.24571287089589
 21
411.33221374567819
 31
0.0
 12
457.45000487089561
 22
410.99888174567798
 32
0.0
 13
457.45000487089561
 23
410.99888174567798
 33
0.0
  0
SOLID
  5
5491
  8
WAKU
  6
CONTINUOUS
 10
457.24571287089589
 20
411.33221374567819
 30
0.0
 11
456.56803587089581
 21
410.8911147456771
 31
0.0
 12
457.45000487089561
 22
410.99888174567798
 32
0.0
 13
457.45000487089561
 23
410.99888174567798
 33
0.0
  0
SOLID
  5
5492
  8
WAKU
  6
CONTINUOUS
 10
457.45000487089561
 20
410.99888174567798
 30
0.0
 11
456.56803587089581
 21
410.8911147456771
 31
0.0
 12
456.94354287089539
 22
410.65732774567817
 32
0.0
 13
456.94354287089539
 23
410.65732774567817
 33
0.0
  0
SOLID
  5
5493
  8
WAKU
  6
CONTINUOUS
 10
457.49326987089557
 20
410.56689974567769
 30
0.0
 11
457.00765487089518
 21
410.28358074567751
 31
0.0
 12
458.01652887089563
 22
410.46137774567819
 32
0.0
 13
458.01652887089563
 23
410.46137774567819
 33
0.0
  0
SOLID
  5
5494
  8
WAKU
  6
CONTINUOUS
 10
458.01652887089563
 20
410.46137774567819
 30
0.0
 11
457.00765487089518
 21
410.28358074567751
 31
0.0
 12
457.52143887089562
 22
410.1241937456781
 32
0.0
 13
457.52143887089562
 23
410.1241937456781
 33
0.0
  0
SOLID
  5
5495
  8
WAKU
  6
CONTINUOUS
 10
457.00765487089518
 20
410.28358074567751
 30
0.0
 11
456.55275687089471
 21
410.09115074567819
 31
0.0
 12
457.52143887089562
 22
410.1241937456781
 32
0.0
 13
457.52143887089562
 23
410.1241937456781
 33
0.0
  0
SOLID
  5
5496
  8
WAKU
  6
CONTINUOUS
 10
457.52143887089562
 20
410.1241937456781
 30
0.0
 11
456.55275687089471
 21
410.09115074567819
 31
0.0
 12
457.03022087089562
 22
409.86255574567809
 32
0.0
 13
457.03022087089562
 23
409.86255574567809
 33
0.0
  0
LINE
  5
5497
  8
WAKU
  6
CONTINUOUS
 10
457.24571287089452
 20
411.33221374567728
 30
0.0
 11
457.90206887089562
 21
411.90628874567761
 31
0.0
  0
LINE
  5
5498
  8
WAKU
  6
CONTINUOUS
 10
456.94354287089448
 20
410.65732774567772
 30
0.0
 11
457.45000487089561
 21
410.99888174567792
 31
0.0
  0
LINE
  5
5499
  8
WAKU
  6
CONTINUOUS
 10
457.03022087089471
 20
409.86255574567758
 30
0.0
 11
457.52143887089522
 21
410.1241937456777
 31
0.0
  0
LINE
  5
549A
  8
WAKU
  6
CONTINUOUS
 10
457.00765487089518
 20
410.28358074567751
 30
0.0
 11
457.49326987089512
 21
410.56689974567769
 31
0.0
  0
SOLID
  5
549B
  8
WAKU
  6
CONTINUOUS
 10
456.55275687089471
 20
410.09115074567819
 30
0.0
 11
456.15706687089562
 21
409.99564574567802
 31
0.0
 12
457.03022087089562
 22
409.86255574567809
 32
0.0
 13
457.03022087089562
 23
409.86255574567809
 33
0.0
  0
LINE
  5
549C
  8
WAKU
  6
CONTINUOUS
 10
456.15706687089562
 20
409.99564574567768
 30
0.0
 11
456.55275687089562
 21
410.09115074567768
 31
0.0
  0
LINE
  5
549D
  8
WAKU
  6
CONTINUOUS
 10
455.96523087089503
 20
410.22317974567801
 30
0.0
 11
456.4422008708944
 21
410.3954077456782
 31
0.0
  0
LINE
  5
549E
  8
WAKU
  6
CONTINUOUS
 10
456.4422008708944
 20
410.3954077456782
 30
0.0
 11
456.94354287089448
 21
410.65732774567772
 31
0.0
  0
LINE
  5
549F
  8
WAKU
  6
CONTINUOUS
 10
456.5609148708956
 20
409.68607374567802
 30
0.0
 11
457.03022087089471
 21
409.86255574567758
 31
0.0
  0
LINE
  5
54A0
  8
WAKU
  6
CONTINUOUS
 10
456.56803587089507
 20
410.8911147456771
 30
0.0
 11
457.24571287089452
 21
411.33221374567728
 31
0.0
  0
LINE
  5
54A1
  8
WAKU
  6
CONTINUOUS
 10
456.55275687089562
 20
410.09115074567768
 30
0.0
 11
457.00765487089518
 21
410.28358074567751
 31
0.0
  0
LINE
  5
54A2
  8
WAKU
  6
CONTINUOUS
 10
456.13075987089508
 20
409.60123174567792
 30
0.0
 11
456.5609148708956
 21
409.68607374567802
 31
0.0
  0
LINE
  5
54A3
  8
WAKU
  6
CONTINUOUS
 10
456.80159987089559
 20
413.00567574567771
 30
0.0
 11
456.22766887089512
 21
412.34925374567808
 31
0.0
  0
LINE
  5
54A4
  8
WAKU
  6
CONTINUOUS
 10
457.52143887089522
 20
410.1241937456777
 30
0.0
 11
458.01652887089563
 21
410.46137774567751
 31
0.0
  0
LINE
  5
54A5
  8
WAKU
  6
CONTINUOUS
 10
457.45000487089561
 20
410.99888174567792
 30
0.0
 11
457.9421358708953
 21
411.40695374567758
 31
0.0
  0
SOLID
  5
54A6
  8
WAKU
  6
CONTINUOUS
 10
458.15091287089592
 20
414.82084774567818
 30
0.0
 11
457.18223687089562
 21
414.78779274567802
 31
0.0
 12
457.69600787089507
 22
414.6283677456783
 32
0.0
 13
457.69600787089507
 23
414.6283677456783
 33
0.0
  0
SOLID
  5
54A7
  8
WAKU
  6
CONTINUOUS
 10
457.18223687089562
 20
414.78779274567802
 30
0.0
 11
456.68714687089539
 21
414.4506087456781
 31
0.0
 12
457.69600787089507
 22
414.6283677456783
 32
0.0
 13
457.69600787089507
 23
414.6283677456783
 33
0.0
  0
SOLID
  5
54A8
  8
WAKU
  6
CONTINUOUS
 10
457.69600787089507
 20
414.6283677456783
 30
0.0
 11
456.68714687089539
 21
414.4506087456781
 31
0.0
 12
457.21035987089562
 22
414.34506674567808
 32
0.0
 13
457.21035987089562
 23
414.34506674567808
 33
0.0
  0
SOLID
  5
54A9
  8
WAKU
  6
CONTINUOUS
 10
457.76004187089558
 20
414.25460374567729
 30
0.0
 11
457.25355587089558
 21
413.91301774567802
 31
0.0
 12
458.13565087089569
 22
414.02083974567768
 32
0.0
 13
458.13565087089569
 23
414.02083974567768
 33
0.0
  0
LINE
  5
54AA
  8
WAKU
  6
CONTINUOUS
 10
457.69600787089507
 20
414.62836774567711
 30
0.0
 11
457.21035987089562
 21
414.34506674567729
 31
0.0
  0
LINE
  5
54AB
  8
WAKU
  6
CONTINUOUS
 10
457.76004187089518
 20
414.25460374567729
 30
0.0
 11
457.25355587089558
 21
413.91301774567768
 31
0.0
  0
LINE
  5
54AC
  8
WAKU
  6
CONTINUOUS
 10
457.67345587089471
 20
415.0494307456778
 30
0.0
 11
457.18223687089471
 21
414.78779274567802
 31
0.0
  0
SOLID
  5
54AD
  8
WAKU
  6
CONTINUOUS
 10
458.13565087089569
 20
414.02083974567768
 30
0.0
 11
457.25355587089558
 21
413.91301774567802
 31
0.0
 12
457.45795387089561
 22
413.57977374567821
 32
0.0
 13
457.45795387089561
 23
413.57977374567821
 33
0.0
  0
SOLID
  5
54AE
  8
WAKU
  6
CONTINUOUS
 10
457.25355587089558
 20
413.91301774567802
 30
0.0
 11
456.76140487089538
 21
413.50491074567771
 31
0.0
 12
457.45795387089561
 22
413.57977374567821
 32
0.0
 13
457.45795387089561
 23
413.57977374567821
 33
0.0
  0
SOLID
  5
54AF
  8
WAKU
  6
CONTINUOUS
 10
456.68714687089539
 20
414.4506087456781
 30
0.0
 11
456.20637187089562
 21
414.05026274567751
 31
0.0
 12
457.21035987089562
 22
414.34506674567808
 32
0.0
 13
457.21035987089562
 23
414.34506674567808
 33
0.0
  0
LINE
  5
54B0
  8
WAKU
  6
CONTINUOUS
 10
456.68714687089539
 20
414.4506087456781
 30
0.0
 11
456.20637187089523
 21
414.05026274567729
 31
0.0
  0
LINE
  5
54B1
  8
WAKU
  6
CONTINUOUS
 10
457.18223687089471
 20
414.78779274567802
 30
0.0
 11
456.68714687089539
 21
414.4506087456781
 31
0.0
  0
SOLID
  5
54B2
  8
WAKU
  6
CONTINUOUS
 10
457.21035987089562
 20
414.34506674567808
 30
0.0
 11
456.20637187089562
 21
414.05026274567751
 31
0.0
 12
456.25187087089569
 22
413.55589074567808
 32
0.0
 13
456.25187087089569
 23
413.55589074567808
 33
0.0
  0
LINE
  5
54B3
  8
WAKU
  6
CONTINUOUS
 10
457.25355587089558
 20
413.91301774567768
 30
0.0
 11
456.76140487089452
 21
413.50491074567771
 31
0.0
  0
LINE
  5
54B4
  8
WAKU
  6
CONTINUOUS
 10
457.21035987089562
 20
414.34506674567729
 30
0.0
 11
456.25187087089512
 21
413.55589074567729
 31
0.0
  0
LINE
  5
54B5
  8
WAKU
  6
CONTINUOUS
 10
458.15091287089592
 20
414.82084774567818
 30
0.0
 11
457.69600787089507
 21
414.62836774567711
 31
0.0
  0
LINE
  5
54B6
  8
WAKU
  6
CONTINUOUS
 10
458.14276087089462
 20
415.22591174567771
 30
0.0
 11
457.67345587089471
 21
415.0494307456778
 31
0.0
  0
LINE
  5
54B7
  8
WAKU
  6
CONTINUOUS
 10
458.13565087089512
 20
414.02083974567768
 30
0.0
 11
457.45795387089561
 21
413.57977374567758
 31
0.0
  0
SOLID
  5
54B8
  8
WAKU
  6
CONTINUOUS
 10
457.90206887089562
 20
411.90628874567801
 30
0.0
 11
457.24571287089589
 21
411.33221374567819
 31
0.0
 12
458.40103887089572
 22
411.86587174567808
 32
0.0
 13
458.40103887089572
 23
411.86587174567808
 33
0.0
  0
SOLID
  5
54B9
  8
WAKU
  6
CONTINUOUS
 10
458.40103887089572
 20
411.86587174567808
 30
0.0
 11
457.24571287089589
 21
411.33221374567819
 31
0.0
 12
457.94213587089558
 22
411.40695374567758
 32
0.0
 13
457.94213587089558
 23
411.40695374567758
 33
0.0
  0
SOLID
  5
54BA
  8
WAKU
  6
CONTINUOUS
 10
458.47601087089538
 20
412.56270274567771
 30
0.0
 11
457.90206887089562
 21
411.90628874567801
 31
0.0
 12
458.80908887089561
 22
412.35801174567769
 32
0.0
 13
458.80908887089561
 23
412.35801174567769
 33
0.0
  0
SOLID
  5
54BB
  8
WAKU
  6
CONTINUOUS
 10
458.80908887089561
 20
412.35801174567769
 30
0.0
 11
457.90206887089562
 21
411.90628874567801
 31
0.0
 12
458.40103887089572
 22
411.86587174567808
 32
0.0
 13
458.40103887089572
 23
411.86587174567808
 33
0.0
  0
SOLID
  5
54BC
  8
WAKU
  6
CONTINUOUS
 10
458.49730487089562
 20
410.86172374567798
 30
0.0
 11
457.49326987089557
 21
410.56689974567769
 31
0.0
 12
458.01652887089563
 22
410.46137774567819
 32
0.0
 13
458.01652887089563
 23
410.46137774567819
 33
0.0
  0
LINE
  5
54BD
  8
WAKU
  6
CONTINUOUS
 10
457.9421358708953
 20
411.40695374567758
 30
0.0
 11
458.40103887089452
 21
411.86587174567728
 31
0.0
  0
LINE
  5
54BE
  8
WAKU
  6
CONTINUOUS
 10
457.49326987089512
 20
410.56689974567769
 30
0.0
 11
458.45173787089448
 21
411.35601474567773
 31
0.0
  0
LINE
  5
54BF
  8
WAKU
  6
CONTINUOUS
 10
458.01652887089563
 20
410.46137774567751
 30
0.0
 11
458.49730487089522
 21
410.8617237456773
 31
0.0
  0
LINE
  5
54C0
  8
WAKU
  6
CONTINUOUS
 10
457.90206887089562
 20
411.90628874567761
 30
0.0
 11
458.47601087089453
 21
412.56270274567771
 31
0.0
  0
SOLID
  5
54C1
  8
WAKU
  6
CONTINUOUS
 10
457.67345587089562
 20
415.0494307456778
 30
0.0
 11
457.18223687089562
 21
414.78779274567802
 31
0.0
 12
458.54662987089472
 22
414.9163637456781
 32
0.0
 13
458.54662987089472
 23
414.9163637456781
 33
0.0
  0
SOLID
  5
54C2
  8
WAKU
  6
CONTINUOUS
 10
458.54662987089472
 20
414.9163637456781
 30
0.0
 11
457.18223687089562
 21
414.78779274567802
 31
0.0
 12
458.15091287089592
 22
414.82084774567818
 32
0.0
 13
458.15091287089592
 23
414.82084774567818
 33
0.0
  0
SOLID
  5
54C3
  8
WAKU
  6
CONTINUOUS
 10
457.67345587089562
 20
415.0494307456778
 30
0.0
 11
458.54662987089472
 21
414.9163637456781
 31
0.0
 12
458.85376887089592
 22
414.92168474567819
 32
0.0
 13
458.85376887089592
 23
414.92168474567819
 33
0.0
  0
SOLID
  5
54C4
  8
WAKU
  6
CONTINUOUS
 10
458.76651087089539
 20
414.2920227456782
 30
0.0
 11
457.76004187089558
 21
414.25460374567729
 31
0.0
 12
458.13565087089569
 22
414.02083974567768
 32
0.0
 13
458.13565087089569
 23
414.02083974567768
 33
0.0
  0
LINE
  5
54C5
  8
WAKU
  6
CONTINUOUS
 10
458.76651087089539
 20
414.2920227456778
 30
0.0
 11
458.13565087089512
 21
414.02083974567768
 31
0.0
  0
LINE
  5
54C6
  8
WAKU
  6
CONTINUOUS
 10
458.54662987089472
 20
414.91636374567759
 30
0.0
 11
458.15091287089592
 21
414.82084774567818
 31
0.0
  0
LINE
  5
54C7
  8
WAKU
  6
CONTINUOUS
 10
458.57291587089509
 20
415.3107547456778
 30
0.0
 11
458.14276087089462
 21
415.22591174567771
 31
0.0
  0
LINE
  5
54C8
  8
WAKU
  6
CONTINUOUS
 10
458.26141187089507
 20
414.51655074567719
 30
0.0
 11
457.76004187089518
 21
414.25460374567729
 31
0.0
  0
SOLID
  5
54C9
  8
WAKU
  6
CONTINUOUS
 10
458.45173787089561
 20
411.35601474567773
 30
0.0
 11
457.49326987089557
 21
410.56689974567769
 31
0.0
 12
458.94610787089562
 22
411.3105267456782
 32
0.0
 13
458.94610787089562
 23
411.3105267456782
 33
0.0
  0
SOLID
  5
54CA
  8
WAKU
  6
CONTINUOUS
 10
458.94610787089562
 20
411.3105267456782
 30
0.0
 11
457.49326987089557
 21
410.56689974567769
 31
0.0
 12
458.49730487089562
 22
410.86172374567798
 32
0.0
 13
458.49730487089562
 23
410.86172374567798
 33
0.0
  0
SOLID
  5
54CB
  8
WAKU
  6
CONTINUOUS
 10
458.57291587089588
 20
415.3107547456782
 30
0.0
 11
458.14276087089559
 21
415.22591174567799
 31
0.0
 12
458.94812087089508
 22
415.30084274567798
 32
0.0
 13
458.94812087089508
 23
415.30084274567798
 33
0.0
  0
SOLID
  5
54CC
  8
WAKU
  6
CONTINUOUS
 10
458.94812087089508
 20
415.30084274567798
 30
0.0
 11
458.14276087089559
 21
415.22591174567799
 31
0.0
 12
459.25459387089558
 22
415.19653974567802
 32
0.0
 13
459.25459387089558
 23
415.19653974567802
 33
0.0
  0
SOLID
  5
54CD
  8
WAKU
  6
CONTINUOUS
 10
458.14276087089559
 20
415.22591174567799
 30
0.0
 11
457.67345587089562
 21
415.0494307456778
 31
0.0
 12
459.25459387089558
 22
415.19653974567802
 32
0.0
 13
459.25459387089558
 23
415.19653974567802
 33
0.0
  0
SOLID
  5
54CE
  8
WAKU
  6
CONTINUOUS
 10
458.26141187089547
 20
414.5165507456777
 30
0.0
 11
457.76004187089558
 21
414.25460374567729
 31
0.0
 12
459.27500187089538
 22
414.37935174567758
 32
0.0
 13
459.27500187089538
 23
414.37935174567758
 33
0.0
  0
SOLID
  5
54CF
  8
WAKU
  6
CONTINUOUS
 10
459.27500187089538
 20
414.37935174567758
 30
0.0
 11
457.76004187089558
 21
414.25460374567729
 31
0.0
 12
458.76651087089539
 22
414.2920227456782
 32
0.0
 13
458.76651087089539
 23
414.2920227456782
 33
0.0
  0
SOLID
  5
54D0
  8
WAKU
  6
CONTINUOUS
 10
459.25459387089558
 20
415.19653974567802
 30
0.0
 11
457.67345587089562
 21
415.0494307456778
 31
0.0
 12
459.48107887089571
 22
415.00167774567819
 32
0.0
 13
459.48107887089571
 23
415.00167774567819
 33
0.0
  0
SOLID
  5
54D1
  8
WAKU
  6
CONTINUOUS
 10
457.67345587089562
 20
415.0494307456778
 30
0.0
 11
458.85376887089592
 21
414.92168474567819
 31
0.0
 12
459.48107887089571
 22
415.00167774567819
 32
0.0
 13
459.48107887089571
 23
415.00167774567819
 33
0.0
  0
SOLID
  5
54D2
  8
WAKU
  6
CONTINUOUS
 10
465.56708587089571
 20
414.857705745678
 30
0.0
 11
462.41097787089558
 21
412.27309074567802
 31
0.0
 12
465.74943987089569
 22
412.27309074567802
 32
0.0
 13
465.74943987089569
 23
412.27309074567802
 33
0.0
  0
LINE
  5
54D3
  8
WAKU
  6
CONTINUOUS
 10
465.56708587089503
 20
414.85770574567772
 30
0.0
 11
462.41097787089518
 21
412.27309074567768
 31
0.0
  0
SOLID
  5
54D4
  8
WAKU
  6
CONTINUOUS
 10
465.74943987089569
 20
412.27309074567802
 30
0.0
 11
462.41097787089558
 21
412.27309074567802
 31
0.0
 12
464.65291787089558
 22
412.219244745678
 32
0.0
 13
464.65291787089558
 23
412.219244745678
 33
0.0
  0
SOLID
  5
54D5
  8
WAKU
  6
CONTINUOUS
 10
462.41097787089558
 20
412.27309074567802
 30
0.0
 11
461.4310578708953
 21
409.58078274567771
 31
0.0
 12
464.65291787089558
 22
412.219244745678
 32
0.0
 13
464.65291787089558
 23
412.219244745678
 33
0.0
  0
LINE
  5
54D6
  8
WAKU
  6
CONTINUOUS
 10
464.65291787089512
 20
412.219244745678
 30
0.0
 11
461.4310578708953
 21
409.58078274567771
 31
0.0
  0
LINE
  5
54D7
  8
WAKU
  6
CONTINUOUS
 10
468.3233658708956
 20
409.58078274567771
 30
0.0
 11
473.70798087089503
 21
409.58078274567771
 31
0.0
  0
SOLID
  5
54D8
  8
WAKU
  6
CONTINUOUS
 10
470.87115787089562
 20
416.5807827456776
 30
0.0
 11
470.2440088708953
 21
414.857705745678
 31
0.0
 12
475.62862387089592
 22
414.857705745678
 32
0.0
 13
475.62862387089592
 23
414.857705745678
 33
0.0
  0
SOLID
  5
54D9
  8
WAKU
  6
CONTINUOUS
 10
469.1073018708957
 20
411.73462874567758
 30
0.0
 11
468.3233658708956
 21
409.58078274567771
 31
0.0
 12
474.49191687089569
 22
411.73462874567758
 32
0.0
 13
474.49191687089569
 23
411.73462874567758
 33
0.0
  0
SOLID
  5
54DA
  8
WAKU
  6
CONTINUOUS
 10
474.49191687089569
 20
411.73462874567758
 30
0.0
 11
468.3233658708956
 21
409.58078274567771
 31
0.0
 12
473.70798087089508
 22
409.58078274567771
 32
0.0
 13
473.70798087089508
 23
409.58078274567771
 33
0.0
  0
LINE
  5
54DB
  8
WAKU
  6
CONTINUOUS
 10
469.10730187089513
 20
411.73462874567758
 30
0.0
 11
474.49191687089473
 21
411.73462874567758
 31
0.0
  0
LINE
  5
54DC
  8
WAKU
  6
CONTINUOUS
 10
470.2440088708953
 20
414.85770574567772
 30
0.0
 11
475.62862387089513
 21
414.85770574567772
 31
0.0
  0
SOLID
  5
54DD
  8
WAKU
  6
CONTINUOUS
 10
476.25577287089561
 20
416.5807827456776
 30
0.0
 11
470.87115787089562
 21
416.5807827456776
 31
0.0
 12
475.62862387089592
 22
414.857705745678
 32
0.0
 13
475.62862387089592
 23
414.857705745678
 33
0.0
  0
LINE
  5
54DE
  8
WAKU
  6
CONTINUOUS
 10
470.87115787089562
 20
416.5807827456776
 30
0.0
 11
476.2557728708951
 21
416.5807827456776
 31
0.0
  0
LINE
  5
54DF
  8
WAKU
  6
CONTINUOUS
 10
453.22704887089509
 20
416.5807827456776
 30
0.0
 11
453.22704887089509
 21
412.3030047456777
 31
0.0
  0
SOLID
  5
54E0
  8
WAKU
  6
CONTINUOUS
 10
457.50482587089562
 20
416.5807827456776
 30
0.0
 11
453.22704887089571
 21
416.5807827456776
 31
0.0
 12
453.22704887089571
 22
412.3030047456777
 32
0.0
 13
453.22704887089571
 23
412.3030047456777
 33
0.0
  0
LINE
  5
54E1
  8
WAKU
  6
CONTINUOUS
 10
453.22704887089509
 20
412.3030047456777
 30
0.0
 11
457.50482587089562
 21
416.5807827456776
 31
0.0
  0
LINE
  5
54E2
  8
WAKU
  6
CONTINUOUS
 10
453.22704887089509
 20
416.5807827456776
 30
0.0
 11
457.50482587089562
 21
416.5807827456776
 31
0.0
  0
LINE
  5
54E3
  8
WAKU
  6
CONTINUOUS
 10
490.5384668708956
 20
412.9192447456777
 30
0.0
 11
493.76923587089539
 21
412.9192447456777
 31
0.0
  0
SOLID
  5
54E4
  8
WAKU
  6
CONTINUOUS
 10
491.87115787089567
 20
416.5807827456776
 30
0.0
 11
491.24400887089558
 21
414.857705745678
 31
0.0
 12
494.47477787089508
 22
414.857705745678
 32
0.0
 13
494.47477787089508
 23
414.857705745678
 33
0.0
  0
SOLID
  5
54E5
  8
WAKU
  6
CONTINUOUS
 10
494.23959687089558
 20
414.21155174567798
 30
0.0
 11
491.00882787089557
 21
414.21155174567798
 31
0.0
 12
493.76923587089561
 22
412.91924474567821
 32
0.0
 13
493.76923587089561
 23
412.91924474567821
 33
0.0
  0
SOLID
  5
54E6
  8
WAKU
  6
CONTINUOUS
 10
494.70798087089508
 20
409.58078274567771
 30
0.0
 11
494.41499387089561
 21
411.73462874567758
 31
0.0
 12
490.10730187089558
 22
411.73462874567758
 32
0.0
 13
490.10730187089558
 23
411.73462874567758
 33
0.0
  0
SOLID
  5
54E7
  8
WAKU
  6
CONTINUOUS
 10
490.10730187089558
 20
411.73462874567758
 30
0.0
 11
489.3233658708956
 21
409.58078274567771
 31
0.0
 12
494.70798087089508
 22
409.58078274567771
 32
0.0
 13
494.70798087089508
 23
409.58078274567771
 33
0.0
  0
LINE
  5
54E8
  8
WAKU
  6
CONTINUOUS
 10
494.70798087089508
 20
409.58078274567771
 30
0.0
 11
489.3233658708956
 21
409.58078274567771
 31
0.0
  0
LINE
  5
54E9
  8
WAKU
  6
CONTINUOUS
 10
490.10730187089513
 20
411.73462874567758
 30
0.0
 11
494.41499387089561
 21
411.73462874567758
 31
0.0
  0
LINE
  5
54EA
  8
WAKU
  6
CONTINUOUS
 10
491.2440088708953
 20
414.85770574567772
 30
0.0
 11
494.47477787089508
 21
414.85770574567772
 31
0.0
  0
LINE
  5
54EB
  8
WAKU
  6
CONTINUOUS
 10
491.00882787089557
 20
414.2115517456777
 30
0.0
 11
494.2395968708953
 21
414.2115517456777
 31
0.0
  0
SOLID
  5
54EC
  8
WAKU
  6
CONTINUOUS
 10
494.47477787089508
 20
414.857705745678
 30
0.0
 11
495.10192687089562
 21
416.5807827456776
 31
0.0
 12
491.87115787089567
 22
416.5807827456776
 32
0.0
 13
491.87115787089567
 23
416.5807827456776
 33
0.0
  0
LINE
  5
54ED
  8
WAKU
  6
CONTINUOUS
 10
491.87115787089567
 20
416.5807827456776
 30
0.0
 11
495.10192687089511
 21
416.5807827456776
 31
0.0
  0
SOLID
  5
54EE
  8
WAKU
  6
CONTINUOUS
 10
491.00882787089557
 20
414.21155174567798
 30
0.0
 11
490.5384668708956
 21
412.91924474567821
 31
0.0
 12
493.76923587089561
 22
412.91924474567821
 32
0.0
 13
493.76923587089561
 23
412.91924474567821
 33
0.0
  0
LINE
  5
54EF
  8
WAKU
 10
506.89863881456068
 20
417.8041926488375
 30
0.0
 11
506.89863881456068
 21
28.29526935608077
 31
0.0
  0
TEXT
  5
54F0
  8
WAKU
 10
75.69258251726535
 20
409.73737915195221
 30
0.0
 40
5.0
  1
FIX窓面付け枠（ガラス溝幅24ｍｍ）断面詳細図
  7
MX_NOTE_STANDARD
 11
75.69258251726535
 21
412.23737915195221
 31
0.0
 73
     2
  0
TEXT
  5
54F1
  8
WAKU
 10
36.524425493660559
 20
411.37675236086397
 30
0.0
 40
3.0
  1
FP-AT70
 41
0.8679999999999999
  7
MX_NOTE_STANDARD
 11
36.524425493660559
 21
412.87675236086397
 31
0.0
 73
     2
  0
LINE
  5
54F2
  8
WAKU
 10
31.524425493660821
 20
417.87675236086369
 30
0.0
 11
31.524425493660821
 21
28.367829068107071
 31
0.0
  0
LINE
  5
54F3
  8
WAKU
 10
31.524425493660821
 20
28.367829068107071
 30
0.0
 11
506.89863881456068
 21
28.29526935608077
 31
0.0
  0
LINE
  5
54F4
  8
WAKU
 10
31.524425493660821
 20
407.87675236086397
 30
0.0
 11
506.89863881456068
 21
407.80419264883761
 31
0.0
  0
LINE
  5
54F5
  8
WAKU
 10
31.524425493660821
 20
417.87675236086369
 30
0.0
 11
506.89863881456068
 21
417.8041926488375
 31
0.0
  0
LINE
  5
54F6
  8
DANMEN
  6
CONTINUOUS
 10
134.8575152911823
 20
213.978916248975
 30
0.0
 11
134.8575152911823
 21
157.9791603896
 31
0.0
  0
LINE
  5
54F7
  8
DANMEN
  6
CONTINUOUS
 10
128.2575244464557
 20
213.978916248975
 30
0.0
 11
128.2575244464557
 21
157.9791603896
 31
0.0
  0
LINE
  5
54F8
  8
DANMEN
  6
CONTINUOUS
 10
127.5575122394245
 20
213.978916248975
 30
0.0
 11
127.5575122394245
 21
157.9791603896
 31
0.0
  0
LINE
  5
54F9
  8
DANMEN
  6
CONTINUOUS
 10
135.55751223942451
 20
213.978916248975
 30
0.0
 11
135.55751223942451
 21
157.9791603896
 31
0.0
  0
LINE
  5
54FA
  8
DANMEN
  6
CONTINUOUS
 10
113.5575122394244
 20
213.978916248975
 30
0.0
 11
113.5575122394244
 21
124.9791603895999
 31
0.0
  0
LINE
  5
54FB
  8
DANMEN
  6
CONTINUOUS
 10
183.5575122394244
 20
213.978916248975
 30
0.0
 11
183.5575122394244
 21
169.978916248975
 31
0.0
  0
LINE
  5
54FC
  8
DANMEN
  6
CONTINUOUS
 10
143.55751223942451
 20
213.978916248975
 30
0.0
 11
143.55751223942451
 21
168.37222679585
 31
0.0
  0
LINE
  5
54FD
  8
DANMEN
  6
CONTINUOUS
 10
119.5575122394245
 20
213.978916248975
 30
0.0
 11
119.5575122394245
 21
168.37222679585
 31
0.0
  0
LINE
  5
54FE
  8
DANMEN
  6
CONTINUOUS
 10
178.55751223942451
 20
213.978916248975
 30
0.0
 11
178.55751223942451
 21
168.37222679585
 31
0.0
  0
LINE
  5
54FF
  8
DANMEN
  6
CONTINUOUS
 10
203.5575122394244
 20
213.978916248975
 30
0.0
 11
203.5575122394244
 21
124.9791603895999
 31
0.0
  0
LINE
  5
5500
  8
DANMEN
  6
PHANTOM
 10
193.5575122394244
 20
213.978916248975
 30
0.0
 11
193.5575122394244
 21
183.6391583296633
 31
0.0
  0
LINE
  5
5501
  8
DANMEN
  6
CONTINUOUS
 10
126.802671299438
 20
162.97900017231481
 30
0.0
 11
127.5575426670128
 21
163.7338729706922
 31
0.0
  0
LINE
  5
5502
  8
DANMEN
  6
CONTINUOUS
 10
124.557609430559
 20
162.97900017231481
 30
0.0
 11
127.5575423993746
 21
165.97893882727999
 31
0.0
  0
LINE
  5
5503
  8
DANMEN
  6
CONTINUOUS
 10
122.31254756167991
 20
162.97900017231481
 30
0.0
 11
127.5575421317362
 21
168.2240046838678
 31
0.0
  0
LINE
  5
5504
  8
DANMEN
  6
CONTINUOUS
 10
120.0674856928009
 20
162.97900017231481
 30
0.0
 11
127.557541864098
 21
170.4690705404555
 31
0.0
  0
LINE
  5
5505
  8
DANMEN
  6
CONTINUOUS
 10
120.33226554179009
 20
169.9788323256351
 30
0.0
 11
127.3321109627712
 21
162.97900017231481
 31
0.0
  0
LINE
  5
5506
  8
DANMEN
  6
CONTINUOUS
 10
122.5773316660167
 20
169.9788323256351
 30
0.0
 11
127.5575425162388
 21
164.9986309150141
 31
0.0
  0
LINE
  5
5507
  8
DANMEN
  6
CONTINUOUS
 10
124.8223977902434
 20
169.9788323256351
 30
0.0
 11
127.557542248601
 21
167.2436930515305
 31
0.0
  0
LINE
  5
5508
  8
DANMEN
  6
CONTINUOUS
 10
126.970871258092
 20
170.07542479892911
 30
0.0
 11
127.55754198096299
 21
169.48875518804681
 31
0.0
  0
LINE
  5
5509
  8
DANMEN
  6
CONTINUOUS
 10
126.8722917567415
 20
138.02913197010531
 30
0.0
 11
128.82229243444371
 21
139.97913273304471
 31
0.0
  0
LINE
  5
550A
  8
DANMEN
  6
CONTINUOUS
 10
119.5075120486897
 20
139.97913273304471
 30
0.0
 11
147.85748477360411
 21
139.97913273304471
 31
0.0
  0
LINE
  5
550B
  8
DANMEN
  6
CONTINUOUS
 10
119.5075120486897
 20
138.02913197010531
 30
0.0
 11
128.55751223942451
 21
138.02913197010531
 31
0.0
  0
LINE
  5
550C
  8
DANMEN
  6
CONTINUOUS
 10
114.8575114764851
 20
111.9791603896
 30
0.0
 11
163.55751223942451
 21
111.9791603896
 31
0.0
  0
LINE
  5
550D
  8
DANMEN
  6
CONTINUOUS
 10
115.2075118579547
 20
113.6291600081302
 30
0.0
 11
163.4075030841511
 21
113.6291600081302
 31
0.0
  0
LINE
  5
550E
  8
DANMEN
  6
CONTINUOUS
 10
128.55747860101951
 20
128.7791328969825
 30
0.0
 11
120.5575475240783
 21
124.9791394783482
 31
0.0
  0
LINE
  5
550F
  8
DANMEN
  6
CONTINUOUS
 10
128.9294102847937
 20
127.1291250163214
 30
0.0
 11
121.1331215981587
 21
123.42586239892491
 31
0.0
  0
LINE
  5
5510
  8
DANMEN
  6
CONTINUOUS
 10
119.55754275700269
 20
162.97900017231481
 30
0.0
 11
127.55754275700269
 21
162.97900017231481
 31
0.0
  0
ARC
  5
5511
  8
DANMEN
  6
CONTINUOUS
 10
126.55754275700269
 20
170.9788323256351
 30
0.0
 40
1.0
 50
269.9999093863068
 51
359.99989140021859
  0
LINE
  5
5512
  8
DANMEN
  6
CONTINUOUS
 10
114.8575000323933
 20
109.9791603896
 30
0.0
 11
163.55751223942451
 21
109.9791603896
 31
0.0
  0
LINE
  5
5513
  8
DANMEN
  6
CONTINUOUS
 10
139.05754715631491
 20
157.97945364993001
 30
0.0
 11
124.0575666924794
 21
139.97923129331841
 31
0.0
  0
LINE
  5
5514
  8
DANMEN
  6
CONTINUOUS
 10
119.5575122394245
 20
157.9791603896
 30
0.0
 11
142.55751223942451
 21
157.9791603896
 31
0.0
  0
LINE
  5
5515
  8
SUNPO
  6
CONTINUOUS
 10
162.05751223942451
 20
99.979160389599997
 30
0.0
 11
83.557512239424582
 21
99.979160389599997
 31
0.0
  0
TEXT
  5
5516
  8
SUNPO
  6
CONTINUOUS
 10
83.05751223942454
 20
103.5208270562665
 30
0.0
 40
2.5
  1
10
 50
90.0
  7
MX_NOTE_STANDARD
  0
LINE
  5
5517
  8
SUNPO
  6
CONTINUOUS
 10
83.557512239424582
 20
109.9791603896
 30
0.0
 11
83.557512239424582
 21
99.979160389599997
 31
0.0
  0
POLYLINE
  5
5518
  8
SUNPO
  6
BYBLOCK
 66
     1
 10
0.0
 20
0.0
 30
0.0
 70
     1
 40
1.159999999999999
 41
1.159999999999999
  0
VERTEX
  5
5B70
  8
SUNPO
  6
BYBLOCK
 10
83.557512239424582
 20
100.12416038959979
 30
0.0
 42
1.0
  0
VERTEX
  5
5B71
  8
SUNPO
  6
BYBLOCK
 10
83.557512239424582
 20
99.834160389599987
 30
0.0
 42
1.0
  0
SEQEND
  5
5B72
  8
SUNPO
  6
BYBLOCK
  0
LINE
  5
551C
  8
DANMEN
  6
CONTINUOUS
 10
117.55751128575019
 20
169.47911461323281
 30
0.0
 11
117.55751128575019
 21
135.47915180653101
 31
0.0
  0
LINE
  5
551D
  8
DANMEN
  6
CONTINUOUS
 10
119.5075120486897
 20
153.97911461323281
 30
0.0
 11
119.5075120486897
 21
139.97913273304471
 31
0.0
  0
LINE
  5
551E
  8
DANMEN
  6
CONTINUOUS
 10
124.0575122394244
 20
157.9791603896
 30
0.0
 11
124.0575122394244
 21
139.978916248975
 31
0.0
  0
LINE
  5
551F
  8
SUNPO
  6
CONTINUOUS
 10
93.557512239424568
 20
169.978916248975
 30
0.0
 11
93.557512239424568
 21
134.9791603896
 31
0.0
  0
LINE
  5
5520
  8
SUNPO
  6
CONTINUOUS
 10
83.557512239424582
 20
169.978916248975
 30
0.0
 11
83.557512239424582
 21
124.9791603895999
 31
0.0
  0
LINE
  5
5521
  8
SUNPO
  6
CONTINUOUS
 10
112.0575122394245
 20
134.9791603896
 30
0.0
 11
93.557512239424568
 21
134.9791603896
 31
0.0
  0
LINE
  5
5522
  8
SUNPO
  6
CONTINUOUS
 10
112.0575122394245
 20
109.9791603896
 30
0.0
 11
83.557512239424582
 21
109.9791603896
 31
0.0
  0
LINE
  5
5523
  8
SUNPO
  6
CONTINUOUS
 10
112.0575122394245
 20
124.9791603895999
 30
0.0
 11
83.557512239424582
 21
124.9791603895999
 31
0.0
  0
LINE
  5
5524
  8
SUNPO
  6
CONTINUOUS
 10
93.557512239424568
 20
134.9791603896
 30
0.0
 11
93.557512239424568
 21
124.9791603895999
 31
0.0
  0
LINE
  5
5525
  8
SUNPO
  6
CONTINUOUS
 10
83.557512239424582
 20
124.9791603895999
 30
0.0
 11
83.557512239424582
 21
109.9791603896
 31
0.0
  0
POLYLINE
  5
5526
  8
SUNPO
  6
BYBLOCK
 66
     1
 10
0.0
 20
0.0
 30
0.0
 70
     1
 40
1.159999999999999
 41
1.159999999999999
  0
VERTEX
  5
5B73
  8
SUNPO
  6
BYBLOCK
 10
83.557512239424582
 20
110.12416038959999
 30
0.0
 42
1.0
  0
VERTEX
  5
5B74
  8
SUNPO
  6
BYBLOCK
 10
83.557512239424582
 20
109.8341603895999
 30
0.0
 42
1.0
  0
SEQEND
  5
5B75
  8
SUNPO
  6
BYBLOCK
  0
POLYLINE
  5
552A
  8
SUNPO
  6
BYBLOCK
 66
     1
 10
0.0
 20
0.0
 30
0.0
 70
     1
 40
1.159999999999999
 41
1.159999999999999
  0
VERTEX
  5
5B76
  8
SUNPO
  6
BYBLOCK
 10
83.557512239424582
 20
109.8341603895999
 30
0.0
 42
1.0
  0
VERTEX
  5
5B77
  8
SUNPO
  6
BYBLOCK
 10
83.557512239424582
 20
110.12416038959999
 30
0.0
 42
1.0
  0
SEQEND
  5
5B78
  8
SUNPO
  6
BYBLOCK
  0
TEXT
  5
552E
  8
SUNPO
  6
CONTINUOUS
 10
83.05751223942454
 20
115.8124937229332
 30
0.0
 40
2.5
  1
15
 50
90.0
  7
MX_NOTE_STANDARD
  0
POLYLINE
  5
552F
  8
SUNPO
  6
BYBLOCK
 66
     1
 10
0.0
 20
0.0
 30
0.0
 70
     1
 40
1.159999999999999
 41
1.159999999999999
  0
VERTEX
  5
5B79
  8
SUNPO
  6
BYBLOCK
 10
83.557512239424582
 20
125.12416038959979
 30
0.0
 42
1.0
  0
VERTEX
  5
5B7A
  8
SUNPO
  6
BYBLOCK
 10
83.557512239424582
 20
124.8341603895999
 30
0.0
 42
1.0
  0
SEQEND
  5
5B7B
  8
SUNPO
  6
BYBLOCK
  0
POLYLINE
  5
5533
  8
SUNPO
  6
BYBLOCK
 66
     1
 10
0.0
 20
0.0
 30
0.0
 70
     1
 40
1.159999999999999
 41
1.159999999999999
  0
VERTEX
  5
5B7C
  8
SUNPO
  6
BYBLOCK
 10
83.557512239424582
 20
124.8341603895999
 30
0.0
 42
1.0
  0
VERTEX
  5
5B7D
  8
SUNPO
  6
BYBLOCK
 10
83.557512239424582
 20
125.12416038959979
 30
0.0
 42
1.0
  0
SEQEND
  5
5B7E
  8
SUNPO
  6
BYBLOCK
  0
POLYLINE
  5
5537
  8
SUNPO
  6
BYBLOCK
 66
     1
 10
0.0
 20
0.0
 30
0.0
 70
     1
 40
1.159999999999999
 41
1.159999999999999
  0
VERTEX
  5
5B7F
  8
SUNPO
  6
BYBLOCK
 10
93.557512239424568
 20
125.12416038959979
 30
0.0
 42
1.0
  0
VERTEX
  5
5B80
  8
SUNPO
  6
BYBLOCK
 10
93.557512239424568
 20
124.8341603895999
 30
0.0
 42
1.0
  0
SEQEND
  5
5B81
  8
SUNPO
  6
BYBLOCK
  0
TEXT
  5
553B
  8
SUNPO
  6
CONTINUOUS
 10
93.057512239424554
 20
128.52082705626651
 30
0.0
 40
2.5
  1
10
 50
90.0
  7
MX_NOTE_STANDARD
  0
POLYLINE
  5
553C
  8
SUNPO
  6
BYBLOCK
 66
     1
 10
0.0
 20
0.0
 30
0.0
 70
     1
 40
1.159999999999999
 41
1.159999999999999
  0
VERTEX
  5
5B82
  8
SUNPO
  6
BYBLOCK
 10
93.557512239424568
 20
135.12416038959989
 30
0.0
 42
1.0
  0
VERTEX
  5
5B83
  8
SUNPO
  6
BYBLOCK
 10
93.557512239424568
 20
134.83416038959979
 30
0.0
 42
1.0
  0
SEQEND
  5
5B84
  8
SUNPO
  6
BYBLOCK
  0
POLYLINE
  5
5540
  8
SUNPO
  6
BYBLOCK
 66
     1
 10
0.0
 20
0.0
 30
0.0
 70
     1
 40
1.159999999999999
 41
1.159999999999999
  0
VERTEX
  5
5B85
  8
SUNPO
  6
BYBLOCK
 10
93.557512239424568
 20
134.83416038959979
 30
0.0
 42
1.0
  0
VERTEX
  5
5B86
  8
SUNPO
  6
BYBLOCK
 10
93.557512239424568
 20
135.12416038959989
 30
0.0
 42
1.0
  0
SEQEND
  5
5B87
  8
SUNPO
  6
BYBLOCK
  0
TEXT
  5
5544
  8
SUNPO
  6
CONTINUOUS
 10
83.05751223942454
 20
145.39582705626651
 30
0.0
 40
2.5
  1
45
 50
90.0
  7
MX_NOTE_STANDARD
  0
LINE
  5
5545
  8
DANMEN
  6
CONTINUOUS
 10
119.5575122394245
 20
138.0289650771
 30
0.0
 11
119.5575122394245
 21
124.9791603895999
 31
0.0
  0
LINE
  5
5546
  8
DANMEN
  6
CONTINUOUS
 10
113.5575122394244
 20
124.4791603896
 30
0.0
 11
113.5575122394244
 21
110.4791603895999
 31
0.0
  0
LINE
  5
5547
  8
DANMEN
  6
CONTINUOUS
 10
115.2075118579547
 20
123.3291512343265
 30
0.0
 11
115.2075118579547
 21
113.6291600081302
 31
0.0
  0
ARC
  5
5548
  8
DANMEN
  6
CONTINUOUS
 10
114.0575122394245
 20
110.4791603895999
 30
0.0
 40
0.5
 50
179.99996402782111
 51
270.00000068324448
  0
LINE
  5
5549
  8
DANMEN
  6
CONTINUOUS
 10
114.8575114764851
 20
111.9791603896
 30
0.0
 11
114.8575114764851
 21
110.4791603895999
 31
0.0
  0
LINE
  5
554A
  8
DANMEN
  6
CONTINUOUS
 10
114.0575122394245
 20
109.9791603896
 30
0.0
 11
114.3575121917407
 21
109.9791603896
 31
0.0
  0
ARC
  5
554B
  8
DANMEN
  6
CONTINUOUS
 10
114.3575121917407
 20
110.4791603895999
 30
0.0
 40
0.5
 50
270.00001798608889
 51
0.0
  0
LINE
  5
554C
  8
DANMEN
  6
CONTINUOUS
 10
114.0575122394245
 20
124.9791603895999
 30
0.0
 11
120.55755420109431
 21
124.9791603895999
 31
0.0
  0
LINE
  5
554D
  8
DANMEN
  6
CONTINUOUS
 10
115.2075118579547
 20
123.3291512343265
 30
0.0
 11
120.7040729083697
 21
123.3291512343265
 31
0.0
  0
ARC
  5
554E
  8
DANMEN
  6
CONTINUOUS
 10
114.0575122394245
 20
124.4791603896
 30
0.0
 40
0.5
 50
89.999982013910966
 51
179.99996402782111
  0
ARC
  5
554F
  8
DANMEN
  6
CONTINUOUS
 10
120.74414916416821
 20
123.8291512343264
 30
0.0
 40
0.5
 50
269.99996334457552
 51
288.43497176352082
  0
ARC
  5
5550
  8
DANMEN
  6
CONTINUOUS
 10
120.7040729083697
 20
124.3291512343265
 30
0.0
 40
1.0
 50
269.99996334457552
 51
295.40788456643043
  0
LINE
  5
5551
  8
DANMEN
  6
CONTINUOUS
 10
124.6272278092591
 20
138.02913197010531
 30
0.0
 11
126.5772284869612
 21
139.97913273304471
 31
0.0
  0
LINE
  5
5552
  8
DANMEN
  6
CONTINUOUS
 10
122.3821638617766
 20
138.02913197010531
 30
0.0
 11
124.3321645394789
 21
139.97913273304471
 31
0.0
  0
LINE
  5
5553
  8
DANMEN
  6
CONTINUOUS
 10
120.1370999142943
 20
138.02913197010531
 30
0.0
 11
122.0871005919965
 21
139.97913273304471
 31
0.0
  0
LINE
  5
5554
  8
DANMEN
  6
CONTINUOUS
 10
119.5075120486897
 20
138.02913197010531
 30
0.0
 11
119.5075120486897
 21
139.97913273304471
 31
0.0
  0
LINE
  5
5555
  8
DANMEN
  6
CONTINUOUS
 10
118.85751433750789
 20
138.02913197010531
 30
0.0
 11
119.5075120486897
 21
138.02913197010531
 31
0.0
  0
LINE
  5
5556
  8
DANMEN
  6
CONTINUOUS
 10
118.85751433750789
 20
138.02913197010531
 30
0.0
 11
118.85751433750789
 21
135.47915180653101
 31
0.0
  0
LINE
  5
5557
  8
DANMEN
  6
CONTINUOUS
 10
118.0575112857501
 20
134.97915180653109
 30
0.0
 11
118.35751433750789
 21
134.97915180653109
 31
0.0
  0
ARC
  5
5558
  8
DANMEN
  6
CONTINUOUS
 10
118.0575112857501
 20
135.47915180653101
 30
0.0
 40
0.5
 50
179.99996402782111
 51
270.00000068324448
  0
ARC
  5
5559
  8
DANMEN
  6
CONTINUOUS
 10
118.35751433750789
 20
135.47915180653101
 30
0.0
 40
0.5
 50
270.00001798608889
 51
0.0
  0
LINE
  5
555A
  8
DANMEN
  6
CONTINUOUS
 10
119.5075120486897
 20
139.6446081225977
 30
0.0
 11
119.8420366445142
 21
139.97913273304471
 31
0.0
  0
LINE
  5
555B
  8
SUNPO
  6
CONTINUOUS
 10
112.0575122394245
 20
169.978916248975
 30
0.0
 11
83.557512239424582
 21
169.978916248975
 31
0.0
  0
TEXT
  5
555C
  8
SUNPO
  6
CONTINUOUS
 10
93.057512239424554
 20
150.39570498595401
 30
0.0
 40
2.5
  1
35
 50
90.0
  7
MX_NOTE_STANDARD
  0
POLYLINE
  5
555D
  8
SUNPO
  6
BYBLOCK
 66
     1
 10
0.0
 20
0.0
 30
0.0
 70
     1
 40
1.159999999999999
 41
1.159999999999999
  0
VERTEX
  5
5B88
  8
SUNPO
  6
BYBLOCK
 10
83.557512239424582
 20
169.8339162489749
 30
0.0
 42
1.0
  0
VERTEX
  5
5B89
  8
SUNPO
  6
BYBLOCK
 10
83.557512239424582
 20
170.12391624897481
 30
0.0
 42
1.0
  0
SEQEND
  5
5B8A
  8
SUNPO
  6
BYBLOCK
  0
POLYLINE
  5
5561
  8
SUNPO
  6
BYBLOCK
 66
     1
 10
0.0
 20
0.0
 30
0.0
 70
     1
 40
1.159999999999999
 41
1.159999999999999
  0
VERTEX
  5
5B8B
  8
SUNPO
  6
BYBLOCK
 10
93.557512239424568
 20
169.8339162489749
 30
0.0
 42
1.0
  0
VERTEX
  5
5B8C
  8
SUNPO
  6
BYBLOCK
 10
93.557512239424568
 20
170.12391624897481
 30
0.0
 42
1.0
  0
SEQEND
  5
5B8D
  8
SUNPO
  6
BYBLOCK
  0
LINE
  5
5565
  8
DANMEN
  6
CONTINUOUS
 10
119.55751128575019
 20
169.47911461323281
 30
0.0
 11
119.55751128575019
 21
154.97911461323281
 31
0.0
  0
LINE
  5
5566
  8
DANMEN
  6
CONTINUOUS
 10
120.5575122394245
 20
161.9791603896
 30
0.0
 11
120.5575122394245
 21
158.9791603896
 31
0.0
  0
LINE
  5
5567
  8
DANMEN
  6
CONTINUOUS
 10
126.5575122394245
 20
161.9791603896
 30
0.0
 11
126.5575122394245
 21
158.9791603896
 31
0.0
  0
LINE
  5
5568
  8
DANMEN
  6
CONTINUOUS
 10
119.55751128575019
 20
154.97911461323281
 30
0.0
 11
120.0575112857501
 21
154.97911461323281
 31
0.0
  0
LINE
  5
5569
  8
DANMEN
  6
CONTINUOUS
 10
119.5075120486897
 20
153.97911461323281
 30
0.0
 11
120.0575112857501
 21
153.97911461323281
 31
0.0
  0
ARC
  5
556A
  8
DANMEN
  6
CONTINUOUS
 10
120.0575112857501
 20
154.47911461323281
 30
0.0
 40
0.5
 50
270.00001798608889
 51
89.999982013910966
  0
LINE
  5
556B
  8
DANMEN
  6
CONTINUOUS
 10
126.5575122394245
 20
158.9791603896
 30
0.0
 11
120.5575122394245
 21
158.9791603896
 31
0.0
  0
ARC
  5
556C
  8
DANMEN
  6
CONTINUOUS
 10
119.0575112857501
 20
169.47911461323281
 30
0.0
 40
0.5
 50
0.0
 51
89.999982013910966
  0
LINE
  5
556D
  8
DANMEN
  6
CONTINUOUS
 10
118.0575112857501
 20
169.97911461323281
 30
0.0
 11
119.0575112857501
 21
169.97911461323281
 31
0.0
  0
ARC
  5
556E
  8
DANMEN
  6
CONTINUOUS
 10
118.0575112857501
 20
169.47911461323281
 30
0.0
 40
0.5
 50
89.999982013910966
 51
179.99996402782111
  0
LINE
  5
556F
  8
DANMEN
  6
CONTINUOUS
 10
119.55754275700269
 20
164.7141223941843
 30
0.0
 11
124.8222427096066
 21
169.9788323256351
 31
0.0
  0
LINE
  5
5570
  8
DANMEN
  6
CONTINUOUS
 10
119.55754275700269
 20
166.959188518411
 30
0.0
 11
122.57718084072749
 21
169.9788323256351
 31
0.0
  0
LINE
  5
5571
  8
DANMEN
  6
CONTINUOUS
 10
119.55754275700269
 20
168.50849177311699
 30
0.0
 11
125.0870448385446
 21
162.97900017231481
 31
0.0
  0
LINE
  5
5572
  8
DANMEN
  6
CONTINUOUS
 10
120.5575122394245
 20
161.9791603896
 30
0.0
 11
126.5575122394245
 21
161.9791603896
 31
0.0
  0
LINE
  5
5573
  8
DANMEN
  6
CONTINUOUS
 10
119.55754275700269
 20
164.018368035359
 30
0.0
 11
120.59691259009131
 21
162.97900017231481
 31
0.0
  0
LINE
  5
5574
  8
DANMEN
  6
CONTINUOUS
 10
119.55754275700269
 20
166.26342990423791
 30
0.0
 11
122.8419787143179
 21
162.97900017231481
 31
0.0
  0
LINE
  5
5575
  8
DANMEN
  6
CONTINUOUS
 10
119.55754275700269
 20
169.9788323256351
 30
0.0
 11
126.55754275700269
 21
169.9788323256351
 31
0.0
  0
LINE
  5
5576
  8
DANMEN
  6
CONTINUOUS
 10
119.55754275700269
 20
169.20425464263761
 30
0.0
 11
120.3321189718486
 21
169.9788323256351
 31
0.0
  0
LINE
  5
5577
  8
DANMEN
  6
CONTINUOUS
 10
165.05751223942451
 20
113.9791603896
 30
0.0
 11
165.05751223942451
 21
100.4791603896
 31
0.0
  0
LINE
  5
5578
  8
DANMEN
  6
CONTINUOUS
 10
163.55751223942451
 20
111.9791603896
 30
0.0
 11
163.55751223942451
 21
100.4791603896
 31
0.0
  0
LINE
  5
5579
  8
DANMEN
  6
CONTINUOUS
 10
183.5575122394244
 20
122.9791603895999
 30
0.0
 11
183.5575122394244
 21
99.979160389599997
 31
0.0
  0
LINE
  5
557A
  8
DANMEN
  6
CONTINUOUS
 10
165.05751223942451
 20
99.979160389599997
 30
0.0
 11
183.5575122394244
 21
99.979160389599997
 31
0.0
  0
LINE
  5
557B
  8
DANMEN
  6
CONTINUOUS
 10
164.05751223942451
 20
99.979160389599997
 30
0.0
 11
164.55751223942451
 21
99.979160389599997
 31
0.0
  0
ARC
  5
557C
  8
DANMEN
  6
CONTINUOUS
 10
164.05751223942451
 20
100.4791603896
 30
0.0
 40
0.5
 50
179.99996402782111
 51
270.00000068324448
  0
ARC
  5
557D
  8
DANMEN
  6
CONTINUOUS
 10
164.55751223942451
 20
100.4791603896
 30
0.0
 40
0.5
 50
270.00001798608889
 51
0.0
  0
LINE
  5
557E
  8
DANMEN
  6
CONTINUOUS
 10
183.5575122394244
 20
123.1791573378421
 30
0.0
 11
201.55751223942451
 21
123.1791573378421
 31
0.0
  0
LINE
  5
557F
  8
DANMEN
  6
CONTINUOUS
 10
183.5575122394244
 20
124.97914513081091
 30
0.0
 11
203.0575122394244
 21
124.97914513081091
 31
0.0
  0
LINE
  5
5580
  8
DANMEN
  6
PHANTOM
 10
178.5575235721586
 20
174.978909540432
 30
0.0
 11
193.5575257179068
 21
183.63916394017789
 31
0.0
  0
LINE
  5
5581
  8
SUNPO
  6
CONTINUOUS
 10
166.4234180011432
 20
109.9791603896
 30
0.0
 11
223.5575122394244
 21
109.9791603896
 31
0.0
  0
LINE
  5
5582
  8
SUNPO
  6
CONTINUOUS
 10
185.0575122394244
 20
169.978916248975
 30
0.0
 11
223.5575122394244
 21
169.978916248975
 31
0.0
  0
LINE
  5
5583
  8
DANMEN
  6
CONTINUOUS
 10
183.5575122394244
 20
169.4791603896
 30
0.0
 11
183.5575122394244
 21
124.97914513081091
 31
0.0
  0
LINE
  5
5584
  8
DANMEN
  6
CONTINUOUS
 10
181.7575091876667
 20
156.97912987202179
 30
0.0
 11
181.7575091876667
 21
138.9791603896
 31
0.0
  0
LINE
  5
5585
  8
DANMEN
  6
CONTINUOUS
 10
154.5575274982136
 20
163.3289070937015
 30
0.0
 11
154.5575274982136
 21
149.478916248975
 31
0.0
  0
LINE
  5
5586
  8
DANMEN
  6
CONTINUOUS
 10
156.05752749821349
 20
163.3289070937015
 30
0.0
 11
156.05752749821349
 21
149.478916248975
 31
0.0
  0
LINE
  5
5587
  8
DANMEN
  6
PHANTOM
 10
161.05751223942451
 20
152.4791603896
 30
0.0
 11
161.05751223942451
 21
140.4791603896
 31
0.0
  0
LINE
  5
5588
  8
DANMEN
  6
PHANTOM
 10
163.55751223942451
 20
152.4791603896
 30
0.0
 11
163.55751223942451
 21
140.4791603896
 31
0.0
  0
LINE
  5
5589
  8
DANMEN
  6
CONTINUOUS
 10
139.05751223942451
 20
157.9791603896
 30
0.0
 11
139.05751223942451
 21
139.978916248975
 31
0.0
  0
LINE
  5
558A
  8
DANMEN
  6
CONTINUOUS
 10
157.05751223942451
 20
137.9791603896
 30
0.0
 11
180.7575091876667
 21
137.9791603896
 31
0.0
  0
LINE
  5
558B
  8
DANMEN
  6
CONTINUOUS
 10
158.55751223942451
 20
134.9791603896
 30
0.0
 11
166.05751223942451
 21
134.9791603896
 31
0.0
  0
LINE
  5
558C
  8
DANMEN
  6
CONTINUOUS
 10
143.8575000323932
 20
127.1291390272953
 30
0.0
 11
166.7075061359088
 21
127.1291390272953
 31
0.0
  0
LINE
  5
558D
  8
DANMEN
  6
CONTINUOUS
 10
144.05749698063551
 20
128.77914818256869
 30
0.0
 11
166.55751223942451
 21
128.77914818256869
 31
0.0
  0
LINE
  5
558E
  8
DANMEN
  6
PHANTOM
 10
170.55751223942451
 20
137.9791603896
 30
0.0
 11
160.05751223942451
 21
137.9791603896
 31
0.0
  0
LINE
  5
558F
  8
DANMEN
  6
PHANTOM
 10
170.55751223942451
 20
140.4791603896
 30
0.0
 11
160.05751223942451
 21
140.4791603896
 31
0.0
  0
ARC
  5
5590
  8
DANMEN
  6
CONTINUOUS
 10
140.3575000323932
 20
126.0791359755375
 30
0.0
 40
1.0
 50
359.99994535848663
 51
89.999982013910966
  0
ARC
  5
5591
  8
DANMEN
  6
CONTINUOUS
 10
138.75750918766661
 20
126.0791359755375
 30
0.0
 40
1.0
 50
89.999982013910966
 51
180.00001866933439
  0
ARC
  5
5592
  8
DANMEN
  6
CONTINUOUS
 10
143.8575000323932
 20
126.1291390272953
 30
0.0
 40
1.0
 50
89.999982013910966
 51
179.99996402782111
  0
ARC
  5
5593
  8
DANMEN
  6
CONTINUOUS
 10
135.2575091876667
 20
126.1291390272953
 30
0.0
 40
1.0
 50
0.0
 51
89.999982013910966
  0
LINE
  5
5594
  8
DANMEN
  6
CONTINUOUS
 10
137.75750918766661
 20
126.0791359755375
 30
0.0
 11
137.75750918766661
 21
124.83307274311549
 31
0.0
  0
LINE
  5
5595
  8
DANMEN
  6
CONTINUOUS
 10
136.2575091876667
 20
126.1291390272953
 30
0.0
 11
136.2575091876667
 21
124.74855431049841
 31
0.0
  0
LINE
  5
5596
  8
DANMEN
  6
CONTINUOUS
 10
138.4575061359088
 20
123.74220665424831
 30
0.0
 11
138.4575061359088
 21
123.2791481825687
 31
0.0
  0
ARC
  5
5597
  8
DANMEN
  6
CONTINUOUS
 10
137.9575061359088
 20
123.2791481825687
 30
0.0
 40
0.5
 50
258.46093247773001
 51
0.0
  0
ARC
  5
5598
  8
DANMEN
  6
CONTINUOUS
 10
138.2575091876667
 20
124.74855431049841
 30
0.0
 40
2.0
 50
180.00001866933439
 51
258.4609151748856
  0
ARC
  5
5599
  8
DANMEN
  6
CONTINUOUS
 10
138.75750918766661
 20
124.83307274311549
 30
0.0
 40
1.0
 50
180.00001866933439
 51
245.37563876297449
  0
ARC
  5
559A
  8
DANMEN
  6
CONTINUOUS
 10
138.2575091876667
 20
123.74220665424831
 30
0.0
 40
0.199999988079071
 50
0.0
 51
65.375674735154149
  0
LINE
  5
559B
  8
DANMEN
  6
CONTINUOUS
 10
141.3575000323932
 20
124.83307274311549
 30
0.0
 11
141.3575000323932
 21
126.0791359755375
 31
0.0
  0
LINE
  5
559C
  8
DANMEN
  6
CONTINUOUS
 10
142.85750003239329
 20
124.74855431049841
 30
0.0
 11
142.85750003239329
 21
126.1291390272953
 31
0.0
  0
LINE
  5
559D
  8
DANMEN
  6
CONTINUOUS
 10
140.65750308415099
 20
123.2791481825687
 30
0.0
 11
140.65750308415099
 21
123.74220665424831
 31
0.0
  0
ARC
  5
559E
  8
DANMEN
  6
CONTINUOUS
 10
141.1575030841511
 20
123.2791481825687
 30
0.0
 40
0.5
 50
179.99996402782111
 51
281.53903155009192
  0
ARC
  5
559F
  8
DANMEN
  6
CONTINUOUS
 10
140.8575000323932
 20
124.74855431049841
 30
0.0
 40
2.0
 50
281.53904885293559
 51
359.99994535848663
  0
ARC
  5
55A0
  8
DANMEN
  6
CONTINUOUS
 10
140.3575000323932
 20
124.83307274311549
 30
0.0
 40
1.0
 50
294.6243799063601
 51
0.0
  0
ARC
  5
55A1
  8
DANMEN
  6
CONTINUOUS
 10
140.8575000323932
 20
123.74220665424831
 30
0.0
 40
0.199999988079071
 50
114.6243439341807
 51
180.00001866933439
  0
LINE
  5
55A2
  8
DANMEN
  6
CONTINUOUS
 10
143.5827772271513
 20
128.7791064616865
 30
0.0
 11
144.05742068669011
 21
129.2537499419727
 31
0.0
  0
LINE
  5
55A3
  8
DANMEN
  6
CONTINUOUS
 10
142.5574582057352
 20
129.9988514410696
 30
0.0
 11
144.73771823083831
 21
132.17911156147491
 31
0.0
  0
LINE
  5
55A4
  8
DANMEN
  6
CONTINUOUS
 10
142.5877393891181
 20
138.02913197010531
 30
0.0
 11
144.53774006682031
 21
139.97913273304471
 31
0.0
  0
LINE
  5
55A5
  8
DANMEN
  6
CONTINUOUS
 10
130.50751300236399
 20
138.02913197010531
 30
0.0
 11
147.40747256657301
 21
138.02913197010531
 31
0.0
  0
LINE
  5
55A6
  8
DANMEN
  6
CONTINUOUS
 10
143.55749698063551
 20
132.17911156147491
 30
0.0
 11
146.55749698063551
 21
132.17911156147491
 31
0.0
  0
LINE
  5
55A7
  8
DANMEN
  6
CONTINUOUS
 10
142.55749698063551
 20
128.77914818256869
 30
0.0
 11
144.05749698063551
 21
128.77914818256869
 31
0.0
  0
LINE
  5
55A8
  8
DANMEN
  6
CONTINUOUS
 10
140.34267544163581
 20
138.02913197010531
 30
0.0
 11
142.29267611933801
 21
139.97913273304471
 31
0.0
  0
LINE
  5
55A9
  8
DANMEN
  6
CONTINUOUS
 10
138.0976114941534
 20
138.02913197010531
 30
0.0
 11
140.0476121718556
 21
139.97913273304471
 31
0.0
  0
LINE
  5
55AA
  8
DANMEN
  6
CONTINUOUS
 10
135.85254754667099
 20
138.02913197010531
 30
0.0
 11
137.80254822437311
 21
139.97913273304471
 31
0.0
  0
LINE
  5
55AB
  8
DANMEN
  6
CONTINUOUS
 10
133.6074835991885
 20
138.02913197010531
 30
0.0
 11
135.5574842768907
 21
139.97913273304471
 31
0.0
  0
LINE
  5
55AC
  8
DANMEN
  6
CONTINUOUS
 10
131.3624196517062
 20
138.02913197010531
 30
0.0
 11
133.3124203294085
 21
139.97913273304471
 31
0.0
  0
LINE
  5
55AD
  8
DANMEN
  6
CONTINUOUS
 10
128.55751223942451
 20
137.46928848083439
 30
0.0
 11
131.067356381926
 21
139.97913273304471
 31
0.0
  0
LINE
  5
55AE
  8
DANMEN
  6
CONTINUOUS
 10
130.2074908771198
 20
128.77914818256869
 30
0.0
 11
142.55749698063551
 21
128.77914818256869
 31
0.0
  0
LINE
  5
55AF
  8
DANMEN
  6
CONTINUOUS
 10
130.5672881519591
 20
131.47906513689011
 30
0.0
 11
132.06736808030939
 21
132.97914513081091
 31
0.0
  0
LINE
  5
55B0
  8
DANMEN
  6
CONTINUOUS
 10
128.5574977372053
 20
131.71433867990271
 30
0.0
 11
129.8223041328269
 21
132.97914513081091
 31
0.0
  0
LINE
  5
55B1
  8
DANMEN
  6
CONTINUOUS
 10
133.05751128575019
 20
133.47916038959991
 30
0.0
 11
133.05751128575019
 21
131.17916019886511
 31
0.0
  0
LINE
  5
55B2
  8
DANMEN
  6
CONTINUOUS
 10
134.357499078719
 20
133.7791596266604
 30
0.0
 11
134.357499078719
 21
130.87916096180439
 31
0.0
  0
ARC
  5
55B3
  8
DANMEN
  6
CONTINUOUS
 10
129.05751223942451
 20
132.47914513081091
 30
0.0
 40
0.5
 50
89.999982013910966
 51
179.99996402782111
  0
ARC
  5
55B4
  8
DANMEN
  6
CONTINUOUS
 10
132.55751223942451
 20
132.47914513081091
 30
0.0
 40
0.5
 50
0.0
 51
89.999982013910966
  0
LINE
  5
55B5
  8
DANMEN
  6
CONTINUOUS
 10
131.05751128575019
 20
131.17916019886511
 30
0.0
 11
133.05751128575019
 21
131.17916019886511
 31
0.0
  0
ARC
  5
55B6
  8
DANMEN
  6
CONTINUOUS
 10
131.55751128575011
 20
130.37916000813021
 30
0.0
 40
0.5
 50
179.99996402782111
 51
270.00000068324448
  0
LINE
  5
55B7
  8
DANMEN
  6
CONTINUOUS
 10
130.2075061359088
 20
131.47914513081091
 30
0.0
 11
133.05751223942451
 21
131.47914513081091
 31
0.0
  0
LINE
  5
55B8
  8
DANMEN
  6
CONTINUOUS
 10
128.9294242419879
 20
127.1291390272953
 30
0.0
 11
135.2575091876667
 21
127.1291390272953
 31
0.0
  0
LINE
  5
55B9
  8
DANMEN
  6
CONTINUOUS
 10
130.11237158985341
 20
128.779084509282
 30
0.0
 11
130.20746035954161
 21
128.87417328312679
 31
0.0
  0
LINE
  5
55BA
  8
DANMEN
  6
CONTINUOUS
 10
128.55749715854211
 20
129.46927405562241
 30
0.0
 11
130.20746035954161
 21
131.11923732874391
 31
0.0
  0
LINE
  5
55BB
  8
DANMEN
  6
CONTINUOUS
 10
131.05751128575019
 20
130.9890314539696
 30
0.0
 11
131.24764002233491
 21
131.17916019886511
 31
0.0
  0
LINE
  5
55BC
  8
DANMEN
  6
CONTINUOUS
 10
131.05751128575019
 20
131.17916019886511
 30
0.0
 11
131.05751128575019
 21
130.37916000813021
 31
0.0
  0
LINE
  5
55BD
  8
DANMEN
  6
CONTINUOUS
 10
128.5574981875279
 20
132.47908071812631
 30
0.0
 11
128.5574976852067
 21
128.779068731633
 31
0.0
  0
LINE
  5
55BE
  8
DANMEN
  6
CONTINUOUS
 10
130.20747788168001
 20
131.4790802928315
 30
0.0
 11
130.2074774728201
 21
128.7791140230978
 31
0.0
  0
LINE
  5
55BF
  8
DANMEN
  6
CONTINUOUS
 10
130.2074908771198
 20
128.77914818256869
 30
0.0
 11
128.55749698063539
 21
128.77914818256869
 31
0.0
  0
LINE
  5
55C0
  8
DANMEN
  6
CONTINUOUS
 10
132.81242422035211
 20
131.47913725780381
 30
0.0
 11
133.05751223942451
 21
131.72422528758921
 31
0.0
  0
LINE
  5
55C1
  8
DANMEN
  6
CONTINUOUS
 10
132.19270478958151
 20
129.87916096180439
 30
0.0
 11
134.357499078719
 21
132.04395534556801
 31
0.0
  0
LINE
  5
55C2
  8
DANMEN
  6
CONTINUOUS
 10
131.55751128575011
 20
129.87916096180439
 30
0.0
 11
133.357499078719
 21
129.87916096180439
 31
0.0
  0
ARC
  5
55C3
  8
DANMEN
  6
CONTINUOUS
 10
133.357499078719
 20
130.87916096180439
 30
0.0
 40
1.0
 50
270.00001798608889
 51
0.0
  0
LINE
  5
55C4
  8
DANMEN
  6
CONTINUOUS
 10
133.05751223942451
 20
132.47914513081091
 30
0.0
 11
133.05751223942451
 21
131.47914513081091
 31
0.0
  0
LINE
  5
55C5
  8
DANMEN
  6
CONTINUOUS
 10
131.30257616505119
 20
133.47916038959991
 30
0.0
 11
132.60257534528691
 21
134.7791596266604
 31
0.0
  0
LINE
  5
55C6
  8
DANMEN
  6
CONTINUOUS
 10
130.50751300236399
 20
134.7791596266604
 30
0.0
 11
133.357499078719
 21
134.7791596266604
 31
0.0
  0
LINE
  5
55C7
  8
DANMEN
  6
CONTINUOUS
 10
130.50751300236399
 20
133.47916038959991
 30
0.0
 11
133.05751128575019
 21
133.47916038959991
 31
0.0
  0
LINE
  5
55C8
  8
DANMEN
  6
CONTINUOUS
 10
129.05751223942451
 20
132.97914513081091
 30
0.0
 11
132.55751223942451
 21
132.97914513081091
 31
0.0
  0
LINE
  5
55C9
  8
DANMEN
  6
CONTINUOUS
 10
128.55751223942451
 20
132.9791603896
 30
0.0
 11
130.50751300236399
 21
134.9291612377765
 31
0.0
  0
LINE
  5
55CA
  8
DANMEN
  6
CONTINUOUS
 10
128.55751223942451
 20
135.22422443521711
 30
0.0
 11
130.50751300236399
 21
137.17422528339381
 31
0.0
  0
LINE
  5
55CB
  8
DANMEN
  6
CONTINUOUS
 10
128.55751223942451
 20
138.02913197010531
 30
0.0
 11
128.55751223942451
 21
132.9791603896
 31
0.0
  0
LINE
  5
55CC
  8
DANMEN
  6
CONTINUOUS
 10
130.50751300236399
 20
138.02913197010531
 30
0.0
 11
130.50751300236399
 21
134.7791596266604
 31
0.0
  0
LINE
  5
55CD
  8
DANMEN
  6
CONTINUOUS
 10
128.55751223942451
 20
132.9791603896
 30
0.0
 11
130.00751300236391
 21
132.9791603896
 31
0.0
  0
ARC
  5
55CE
  8
DANMEN
  6
CONTINUOUS
 10
130.00751300236391
 20
133.47916038959991
 30
0.0
 40
0.5
 50
270.00001798608889
 51
0.0
  0
LINE
  5
55CF
  8
DANMEN
  6
CONTINUOUS
 10
133.05751128575019
 20
132.98903154139231
 30
0.0
 11
134.2654488121708
 21
134.1969691206136
 31
0.0
  0
ARC
  5
55D0
  8
DANMEN
  6
CONTINUOUS
 10
133.357499078719
 20
133.7791596266604
 30
0.0
 40
1.0
 50
0.0
 51
89.999982013910966
  0
LINE
  5
55D1
  8
DANMEN
  6
CONTINUOUS
 10
138.75750918766661
 20
127.0791359755375
 30
0.0
 11
140.3575000323932
 21
127.0791359755375
 31
0.0
  0
LINE
  5
55D2
  8
DANMEN
  6
CONTINUOUS
 10
142.55743733494211
 20
131.1790755150991
 30
0.0
 11
142.55743698196591
 21
128.7791122792419
 31
0.0
  0
ARC
  5
55D3
  8
DANMEN
  6
CONTINUOUS
 10
143.55749698063551
 20
131.17911156147491
 30
0.0
 40
1.0
 50
90.000255221477786
 51
179.99996402782111
  0
LINE
  5
55D4
  8
DANMEN
  6
CONTINUOUS
 10
157.78283337560069
 20
137.978916248975
 30
0.0
 11
159.24453253931139
 21
139.4406154765785
 31
0.0
  0
LINE
  5
55D5
  8
DANMEN
  6
CONTINUOUS
 10
154.55754151216371
 20
136.99868829017291
 30
0.0
 11
157.03776936255139
 21
139.47891624897491
 31
0.0
  0
LINE
  5
55D6
  8
DANMEN
  6
CONTINUOUS
 10
147.07786728408291
 20
138.02913197010531
 30
0.0
 11
148.73949725246641
 21
139.69076201112111
 31
0.0
  0
LINE
  5
55D7
  8
DANMEN
  6
CONTINUOUS
 10
144.83280333660051
 20
138.02913197010531
 30
0.0
 11
146.78280401430271
 21
139.97913273304471
 31
0.0
  0
LINE
  5
55D8
  8
DANMEN
  6
CONTINUOUS
 10
149.35748477360411
 20
138.47913273304471
 30
0.0
 11
149.35748477360411
 21
129.27916248768341
 31
0.0
  0
LINE
  5
55D9
  8
DANMEN
  6
CONTINUOUS
 10
159.5575274982136
 20
138.978916248975
 30
0.0
 11
159.5575274982136
 21
137.978916248975
 31
0.0
  0
LINE
  5
55DA
  8
DANMEN
  6
CONTINUOUS
 10
154.5575274982136
 20
148.47891624897491
 30
0.0
 11
154.5575274982136
 21
135.978916248975
 31
0.0
  0
LINE
  5
55DB
  8
DANMEN
  6
PHANTOM
 10
160.05751223942451
 20
140.4791603896
 30
0.0
 11
160.05751223942451
 21
137.9791603896
 31
0.0
  0
LINE
  5
55DC
  8
DANMEN
  6
CONTINUOUS
 10
147.40747256657301
 20
131.62354513015109
 30
0.0
 11
149.35748477360411
 21
133.57355742242021
 31
0.0
  0
LINE
  5
55DD
  8
DANMEN
  6
CONTINUOUS
 10
147.40747256657301
 20
138.02913197010531
 30
0.0
 11
147.40747256657301
 21
130.57916267841819
 31
0.0
  0
LINE
  5
55DE
  8
DANMEN
  6
CONTINUOUS
 10
147.3081539740638
 20
129.27916248768341
 30
0.0
 11
149.35748477360411
 21
131.3284933768029
 31
0.0
  0
LINE
  5
55DF
  8
DANMEN
  6
CONTINUOUS
 10
147.40747256657301
 20
128.77916248768341
 30
0.0
 11
148.85748477360411
 21
128.77916248768341
 31
0.0
  0
LINE
  5
55E0
  8
DANMEN
  6
CONTINUOUS
 10
145.6827730872651
 20
130.8791024135941
 30
0.0
 11
146.87235917653049
 21
132.0686885548582
 31
0.0
  0
LINE
  5
55E1
  8
DANMEN
  6
CONTINUOUS
 10
145.06309002658151
 20
129.27916248768341
 30
0.0
 11
146.36309016049151
 21
130.57916267841819
 31
0.0
  0
LINE
  5
55E2
  8
DANMEN
  6
CONTINUOUS
 10
145.05749698063539
 20
129.27916248768341
 30
0.0
 11
147.40747256657301
 21
129.27916248768341
 31
0.0
  0
LINE
  5
55E3
  8
DANMEN
  6
CONTINUOUS
 10
145.05749698063539
 20
130.57916267841819
 30
0.0
 11
147.40747256657301
 21
130.57916267841819
 31
0.0
  0
LINE
  5
55E4
  8
DANMEN
  6
CONTINUOUS
 10
144.55751128575011
 20
130.0791626784183
 30
0.0
 11
144.55751128575011
 21
129.77916248768341
 31
0.0
  0
ARC
  5
55E5
  8
DANMEN
  6
CONTINUOUS
 10
145.05749698063539
 20
129.77916248768341
 30
0.0
 40
0.5
 50
179.99996402782111
 51
270.00000068324448
  0
ARC
  5
55E6
  8
DANMEN
  6
CONTINUOUS
 10
145.05749698063539
 20
130.0791626784183
 30
0.0
 40
0.5
 50
89.999982013910966
 51
179.99996402782111
  0
LINE
  5
55E7
  8
DANMEN
  6
CONTINUOUS
 10
147.40747256657301
 20
129.27916248768341
 30
0.0
 11
147.40747256657301
 21
128.77916248768341
 31
0.0
  0
LINE
  5
55E8
  8
DANMEN
  6
CONTINUOUS
 10
144.05743723519331
 20
130.8790874701026
 30
0.0
 11
144.05743692294391
 21
128.7791120093334
 31
0.0
  0
LINE
  5
55E9
  8
DANMEN
  6
CONTINUOUS
 10
144.05749698063551
 20
130.8791237685061
 30
0.0
 11
146.55749698063551
 21
130.8791237685061
 31
0.0
  0
LINE
  5
55EA
  8
DANMEN
  6
CONTINUOUS
 10
147.05745215354369
 20
131.67909046124899
 30
0.0
 11
147.0574521128168
 21
131.37910268616091
 31
0.0
  0
ARC
  5
55EB
  8
DANMEN
  6
CONTINUOUS
 10
146.55749698063551
 20
131.679111561475
 30
0.0
 40
0.5
 50
359.9999922213334
 51
90.000528429044564
  0
ARC
  5
55EC
  8
DANMEN
  6
CONTINUOUS
 10
146.55749698063551
 20
131.37912376850619
 30
0.0
 40
0.5
 50
269.99947157095539
 51
359.99999222133658
  0
LINE
  5
55ED
  8
DANMEN
  6
CONTINUOUS
 10
149.13725552800651
 20
128.8632000759614
 30
0.0
 11
149.27342961792741
 21
128.9993741718346
 31
0.0
  0
ARC
  5
55EE
  8
DANMEN
  6
CONTINUOUS
 10
148.85748477360411
 20
129.27916248768341
 30
0.0
 40
0.5
 50
270.00001798608889
 51
0.0
  0
LINE
  5
55EF
  8
DANMEN
  6
CONTINUOUS
 10
147.40747256657301
 20
133.8686091757684
 30
0.0
 11
149.35748477360411
 21
135.81862146803741
 31
0.0
  0
LINE
  5
55F0
  8
DANMEN
  6
CONTINUOUS
 10
147.40747256657301
 20
136.11367322138571
 30
0.0
 11
149.35748477360411
 21
138.0636855136546
 31
0.0
  0
LINE
  5
55F1
  8
DANMEN
  6
CONTINUOUS
 10
155.28283348487929
 20
135.47891624897491
 30
0.0
 11
156.05752749821349
 21
136.25361029617221
 31
0.0
  0
ARC
  5
55F2
  8
DANMEN
  6
CONTINUOUS
 10
155.5575274982136
 20
135.978916248975
 30
0.0
 40
0.5
 50
270.00001798608889
 51
0.0
  0
LINE
  5
55F3
  8
DANMEN
  6
CONTINUOUS
 10
155.05752749821349
 20
135.47891624897491
 30
0.0
 11
155.5575274982136
 21
135.47891624897491
 31
0.0
  0
ARC
  5
55F4
  8
DANMEN
  6
CONTINUOUS
 10
155.05752749821349
 20
135.978916248975
 30
0.0
 40
0.5
 50
179.99996402782111
 51
270.00000068324448
  0
LINE
  5
55F5
  8
DANMEN
  6
CONTINUOUS
 10
156.55751223942451
 20
137.47916038959991
 30
0.0
 11
156.55751223942451
 21
136.6791573378421
 31
0.0
  0
ARC
  5
55F6
  8
DANMEN
  6
CONTINUOUS
 10
157.05751223942451
 20
137.47916038959991
 30
0.0
 40
0.5
 50
89.999982013910966
 51
179.99996402782111
  0
LINE
  5
55F7
  8
DANMEN
  6
CONTINUOUS
 10
158.55751223942451
 20
135.6791573378421
 30
0.0
 11
158.55751223942451
 21
134.9791603896
 31
0.0
  0
LINE
  5
55F8
  8
DANMEN
  6
CONTINUOUS
 10
157.05751223942451
 20
136.17915733784201
 30
0.0
 11
158.05751223942451
 21
136.17915733784201
 31
0.0
  0
ARC
  5
55F9
  8
DANMEN
  6
CONTINUOUS
 10
157.05751223942451
 20
136.6791573378421
 30
0.0
 40
0.5
 50
179.99996402782111
 51
270.00000068324448
  0
ARC
  5
55FA
  8
DANMEN
  6
CONTINUOUS
 10
158.05751223942451
 20
135.6791573378421
 30
0.0
 40
0.5
 50
0.0
 51
89.999982013910966
  0
LINE
  5
55FB
  8
DANMEN
  6
CONTINUOUS
 10
156.05752749821349
 20
137.978916248975
 30
0.0
 11
159.5575274982136
 21
137.978916248975
 31
0.0
  0
LINE
  5
55FC
  8
DANMEN
  6
CONTINUOUS
 10
156.05752749821349
 20
137.978916248975
 30
0.0
 11
156.05752749821349
 21
135.978916248975
 31
0.0
  0
ARC
  5
55FD
  8
DANMEN
  6
CONTINUOUS
 10
147.85748477360411
 20
138.47913273304471
 30
0.0
 40
1.5
 50
0.0
 51
89.999982013910966
  0
LINE
  5
55FE
  8
DANMEN
  6
CONTINUOUS
 10
154.5575332905037
 20
143.73387220536429
 30
0.0
 11
156.05752749821349
 21
145.233866478641
 31
0.0
  0
LINE
  5
55FF
  8
DANMEN
  6
CONTINUOUS
 10
156.05752749821349
 20
149.478916248975
 30
0.0
 11
156.05752749821349
 21
139.47891624897491
 31
0.0
  0
LINE
  5
5600
  8
DANMEN
  6
CONTINUOUS
 10
154.55753877161041
 20
139.24374959523669
 30
0.0
 11
156.05752749821349
 21
140.74373838740669
 31
0.0
  0
LINE
  5
5601
  8
DANMEN
  6
CONTINUOUS
 10
154.557536031057
 20
141.48881090030051
 30
0.0
 11
156.05752749821349
 21
142.98880243302381
 31
0.0
  0
LINE
  5
5602
  8
DANMEN
  6
CONTINUOUS
 10
156.05752749821349
 20
139.47891624897491
 30
0.0
 11
159.0575274982136
 21
139.47891624897491
 31
0.0
  0
ARC
  5
5603
  8
DANMEN
  6
CONTINUOUS
 10
159.0575274982136
 20
138.978916248975
 30
0.0
 40
0.5
 50
0.0
 51
89.999982013910966
  0
LINE
  5
5604
  8
DANMEN
  6
CONTINUOUS
 10
154.5575305499502
 20
145.97893351042811
 30
0.0
 11
156.05752749821349
 21
147.4789305242584
 31
0.0
  0
LINE
  5
5605
  8
DANMEN
  6
CONTINUOUS
 10
154.85753054997139
 20
149.478916248975
 30
0.0
 11
156.05752749821349
 21
149.478916248975
 31
0.0
  0
LINE
  5
5606
  8
DANMEN
  6
CONTINUOUS
 10
154.85753054997139
 20
148.5239975691799
 30
0.0
 11
155.81244918802551
 21
149.478916248975
 31
0.0
  0
LINE
  5
5607
  8
DANMEN
  6
CONTINUOUS
 10
154.5575278093969
 20
148.22399481549181
 30
0.0
 11
154.81244923173699
 21
148.47891624897491
 31
0.0
  0
LINE
  5
5608
  8
DANMEN
  6
CONTINUOUS
 10
154.5575274982136
 20
149.478916248975
 30
0.0
 11
154.85753054997139
 21
149.478916248975
 31
0.0
  0
LINE
  5
5609
  8
DANMEN
  6
CONTINUOUS
 10
154.5575274982136
 20
148.47891624897491
 30
0.0
 11
154.85753054997139
 21
148.47891624897491
 31
0.0
  0
LINE
  5
560A
  8
DANMEN
  6
CONTINUOUS
 10
154.85753054997139
 20
149.478916248975
 30
0.0
 11
154.85753054997139
 21
148.47891624897491
 31
0.0
  0
LINE
  5
560B
  8
DANMEN
  6
CONTINUOUS
 10
181.90751834294011
 20
135.32915123432639
 30
0.0
 11
181.90751834294011
 21
124.6291542860842
 31
0.0
  0
ARC
  5
560C
  8
DANMEN
  6
CONTINUOUS
 10
166.7075061359088
 20
129.12913902729531
 30
0.0
 40
2.0
 50
270.00001798608889
 51
0.0
  0
LINE
  5
560D
  8
DANMEN
  6
CONTINUOUS
 10
165.05751223942451
 20
113.9791603896
 30
0.0
 11
177.55751223942451
 21
113.9791603896
 31
0.0
  0
LINE
  5
560E
  8
DANMEN
  6
CONTINUOUS
 10
164.90750308415099
 20
115.6291600081302
 30
0.0
 11
176.90750308415099
 21
115.6291600081302
 31
0.0
  0
ARC
  5
560F
  8
DANMEN
  6
CONTINUOUS
 10
164.90750308415099
 20
114.1291600081302
 30
0.0
 40
1.5
 50
89.999982013910966
 51
179.99996402782111
  0
LINE
  5
5610
  8
DANMEN
  6
CONTINUOUS
 10
163.4075030841511
 20
114.1291600081302
 30
0.0
 11
163.4075030841511
 21
113.6291600081302
 31
0.0
  0
LINE
  5
5611
  8
DANMEN
  6
CONTINUOUS
 10
178.55751223942451
 20
122.9791603895999
 30
0.0
 11
178.55751223942451
 21
114.9791603896
 31
0.0
  0
ARC
  5
5612
  8
DANMEN
  6
CONTINUOUS
 10
177.55751223942451
 20
114.9791603896
 30
0.0
 40
1.0
 50
270.00001798608889
 51
0.0
  0
LINE
  5
5613
  8
DANMEN
  6
CONTINUOUS
 10
176.90750308415099
 20
123.1291542860842
 30
0.0
 11
176.90750308415099
 21
115.6291600081302
 31
0.0
  0
LINE
  5
5614
  8
DANMEN
  6
CONTINUOUS
 10
178.55751223942451
 20
122.9791603895999
 30
0.0
 11
183.5575122394244
 21
122.9791603895999
 31
0.0
  0
LINE
  5
5615
  8
DANMEN
  6
CONTINUOUS
 10
178.40750308415099
 20
124.6291542860842
 30
0.0
 11
181.90751834294011
 21
124.6291542860842
 31
0.0
  0
ARC
  5
5616
  8
DANMEN
  6
CONTINUOUS
 10
178.40750308415099
 20
123.1291542860842
 30
0.0
 40
1.5
 50
89.999982013910966
 51
179.99996402782111
  0
LINE
  5
5617
  8
DANMEN
  6
CONTINUOUS
 10
183.5575122394244
 20
123.1791573378421
 30
0.0
 11
183.5575122394244
 21
122.9791603895999
 31
0.0
  0
ARC
  5
5618
  8
DANMEN
  6
CONTINUOUS
 10
175.3575000323932
 20
135.2791481825686
 30
0.0
 40
1.0
 50
359.99994535848663
 51
89.999982013910966
  0
LINE
  5
5619
  8
DANMEN
  6
CONTINUOUS
 10
175.9575061359088
 20
132.3791542860842
 30
0.0
 11
177.0972308673542
 21
132.3791542860842
 31
0.0
  0
LINE
  5
561A
  8
DANMEN
  6
PHANTOM
 10
170.55751223942451
 20
140.4791603896
 30
0.0
 11
170.55751223942451
 21
137.9791603896
 31
0.0
  0
LINE
  5
561B
  8
DANMEN
  6
CONTINUOUS
 10
167.05751223942451
 20
135.9791603896
 30
0.0
 11
167.05751223942451
 21
129.2791481825686
 31
0.0
  0
ARC
  5
561C
  8
DANMEN
  6
CONTINUOUS
 10
166.55751223942451
 20
129.2791481825686
 30
0.0
 40
0.5
 50
270.00001798608889
 51
0.0
  0
LINE
  5
561D
  8
DANMEN
  6
CONTINUOUS
 10
166.05751223942451
 20
135.9791603896
 30
0.0
 11
166.05751223942451
 21
134.9791603896
 31
0.0
  0
LINE
  5
561E
  8
DANMEN
  6
CONTINUOUS
 10
166.05751223942451
 20
135.9791603896
 30
0.0
 11
167.05751223942451
 21
135.9791603896
 31
0.0
  0
LINE
  5
561F
  8
DANMEN
  6
CONTINUOUS
 10
168.7075061359088
 20
135.32915123432639
 30
0.0
 11
168.7075061359088
 21
129.12913902729531
 31
0.0
  0
ARC
  5
5620
  8
DANMEN
  6
CONTINUOUS
 10
173.25750918766661
 20
133.94856651752951
 30
0.0
 40
2.0
 50
180.00001866933439
 51
231.6936770251726
  0
ARC
  5
5621
  8
DANMEN
  6
CONTINUOUS
 10
173.15750308415099
 20
132.6791573378421
 30
0.0
 40
0.2999999523162842
 50
270.00001798608889
 51
0.0
  0
ARC
  5
5622
  8
DANMEN
  6
CONTINUOUS
 10
175.9575061359088
 20
132.6791573378421
 30
0.0
 40
0.2999999523162842
 50
180.00001866933439
 51
270.00005532475791
  0
LINE
  5
5623
  8
DANMEN
  6
CONTINUOUS
 10
172.0177783527057
 20
132.3791542860842
 30
0.0
 11
173.15750308415099
 21
132.3791542860842
 31
0.0
  0
LINE
  5
5624
  8
DANMEN
  6
CONTINUOUS
 10
169.7075061359088
 20
136.32915123432639
 30
0.0
 11
170.25750918766661
 21
136.32915123432639
 31
0.0
  0
ARC
  5
5625
  8
DANMEN
  6
CONTINUOUS
 10
169.7075061359088
 20
135.32915123432639
 30
0.0
 40
1.0
 50
89.999982013910966
 51
179.99996402782111
  0
LINE
  5
5626
  8
DANMEN
  6
CONTINUOUS
 10
171.25750918766661
 20
135.32915123432639
 30
0.0
 11
171.25750918766661
 21
133.94856651752951
 31
0.0
  0
ARC
  5
5627
  8
DANMEN
  6
CONTINUOUS
 10
170.25750918766661
 20
135.32915123432639
 30
0.0
 40
1.0
 50
0.0
 51
89.999982013910966
  0
LINE
  5
5628
  8
DANMEN
  6
CONTINUOUS
 10
176.3575000323932
 20
134.0330849501467
 30
0.0
 11
176.3575000323932
 21
135.2791481825686
 31
0.0
  0
LINE
  5
5629
  8
DANMEN
  6
CONTINUOUS
 10
175.65750308415099
 20
132.6791573378421
 30
0.0
 11
175.65750308415099
 21
132.94221886127951
 31
0.0
  0
LINE
  5
562A
  8
DANMEN
  6
CONTINUOUS
 10
172.7575091876667
 20
135.2791481825686
 30
0.0
 11
172.7575091876667
 21
134.0330849501467
 31
0.0
  0
LINE
  5
562B
  8
DANMEN
  6
CONTINUOUS
 10
173.75750918766661
 20
136.2791481825686
 30
0.0
 11
175.3575000323932
 21
136.2791481825686
 31
0.0
  0
ARC
  5
562C
  8
DANMEN
  6
CONTINUOUS
 10
173.75750918766661
 20
135.2791481825686
 30
0.0
 40
1.0
 50
89.999982013910966
 51
180.00001866933439
  0
LINE
  5
562D
  8
DANMEN
  6
CONTINUOUS
 10
173.4575061359088
 20
132.94221886127951
 30
0.0
 11
173.4575061359088
 21
132.6791573378421
 31
0.0
  0
ARC
  5
562E
  8
DANMEN
  6
CONTINUOUS
 10
173.75750918766661
 20
134.0330849501467
 30
0.0
 40
1.0
 50
180.00001866933439
 51
245.37563876297449
  0
ARC
  5
562F
  8
DANMEN
  6
CONTINUOUS
 10
173.25750918766661
 20
132.94221886127951
 30
0.0
 40
0.199999988079071
 50
0.0
 51
65.375674735154149
  0
ARC
  5
5630
  8
DANMEN
  6
CONTINUOUS
 10
175.3575000323932
 20
134.0330849501467
 30
0.0
 40
1.0
 50
294.6243799063601
 51
0.0
  0
ARC
  5
5631
  8
DANMEN
  6
CONTINUOUS
 10
175.8575000323932
 20
132.94221886127951
 30
0.0
 40
0.199999988079071
 50
114.6243439341807
 51
180.00001866933439
  0
ARC
  5
5632
  8
DANMEN
  6
CONTINUOUS
 10
180.7575091876667
 20
138.9791603896
 30
0.0
 40
1.0
 50
270.00001798608889
 51
0.0
  0
ARC
  5
5633
  8
DANMEN
  6
CONTINUOUS
 10
175.8575000323932
 20
133.94856651752951
 30
0.0
 40
2.0
 50
308.30634164416182
 51
359.99994535848663
  0
LINE
  5
5634
  8
DANMEN
  6
CONTINUOUS
 10
178.8575000323932
 20
136.32915123432639
 30
0.0
 11
180.90751834294011
 21
136.32915123432639
 31
0.0
  0
LINE
  5
5635
  8
DANMEN
  6
CONTINUOUS
 10
177.8575000323932
 20
133.94856651752951
 30
0.0
 11
177.8575000323932
 21
135.32915123432639
 31
0.0
  0
ARC
  5
5636
  8
DANMEN
  6
CONTINUOUS
 10
178.8575000323932
 20
135.32915123432639
 30
0.0
 40
1.0
 50
89.999982013910966
 51
179.99996402782111
  0
ARC
  5
5637
  8
DANMEN
  6
CONTINUOUS
 10
180.90751834294011
 20
135.32915123432639
 30
0.0
 40
1.0
 50
0.0
 51
89.999982013910966
  0
LINE
  5
5638
  8
DANMEN
  6
CONTINUOUS
 10
151.55751223942451
 20
164.978916248975
 30
0.0
 11
176.90750308415099
 21
164.978916248975
 31
0.0
  0
LINE
  5
5639
  8
DANMEN
  6
CONTINUOUS
 10
156.05752749821349
 20
163.3289070937015
 30
0.0
 11
177.25750918766661
 21
163.3289070937015
 31
0.0
  0
LINE
  5
563A
  8
DANMEN
  6
PHANTOM
 10
161.05751223942451
 20
154.97916038959991
 30
0.0
 11
156.55751223942451
 21
154.97916038959991
 31
0.0
  0
LINE
  5
563B
  8
DANMEN
  6
PHANTOM
 10
161.05751223942451
 20
152.4791603896
 30
0.0
 11
156.55751223942451
 21
152.4791603896
 31
0.0
  0
LINE
  5
563C
  8
DANMEN
  6
CONTINUOUS
 10
151.55751223942451
 20
169.978916248975
 30
0.0
 11
173.05751223942451
 21
169.978916248975
 31
0.0
  0
LINE
  5
563D
  8
DANMEN
  6
CONTINUOUS
 10
173.05716812185011
 20
169.97995004343139
 30
0.0
 11
151.5571626692556
 21
164.9799498463031
 31
0.0
  0
ARC
  5
563E
  8
DANMEN
  6
CONTINUOUS
 10
144.05751223942451
 20
169.47891624897491
 30
0.0
 40
0.5
 50
89.999982013910966
 51
179.99996402782111
  0
LINE
  5
563F
  8
DANMEN
  6
CONTINUOUS
 10
143.05751223942451
 20
156.97891624897491
 30
0.0
 11
143.85751529118221
 21
156.97891624897491
 31
0.0
  0
LINE
  5
5640
  8
DANMEN
  6
CONTINUOUS
 10
143.55751223942451
 20
169.47891624897491
 30
0.0
 11
143.55751223942451
 21
157.97891624897491
 31
0.0
  0
LINE
  5
5641
  8
DANMEN
  6
CONTINUOUS
 10
142.55751223942451
 20
161.9791603896
 30
0.0
 11
142.55751223942451
 21
158.9791603896
 31
0.0
  0
LINE
  5
5642
  8
DANMEN
  6
CONTINUOUS
 10
136.55751223942451
 20
161.9791603896
 30
0.0
 11
136.55751223942451
 21
158.9791603896
 31
0.0
  0
LINE
  5
5643
  8
DANMEN
  6
CONTINUOUS
 10
136.55751223942451
 20
158.9791603896
 30
0.0
 11
142.55751223942451
 21
158.9791603896
 31
0.0
  0
LINE
  5
5644
  8
DANMEN
  6
CONTINUOUS
 10
143.05751223942451
 20
157.97891624897491
 30
0.0
 11
143.55751223942451
 21
157.97891624897491
 31
0.0
  0
ARC
  5
5645
  8
DANMEN
  6
CONTINUOUS
 10
143.05751223942451
 20
157.478916248975
 30
0.0
 40
0.5
 50
89.999982013910966
 51
269.99994604173111
  0
ARC
  5
5646
  8
DANMEN
  6
CONTINUOUS
 10
136.55748172184639
 20
170.9788323256351
 30
0.0
 40
1.0
 50
180.0000366554234
 51
270.00007331084691
  0
LINE
  5
5647
  8
DANMEN
  6
CONTINUOUS
 10
138.29262015853541
 20
169.9788323256351
 30
0.0
 11
135.55748223024821
 21
167.24369427779101
 31
0.0
  0
LINE
  5
5648
  8
DANMEN
  6
CONTINUOUS
 10
140.53768410601791
 20
169.9788323256351
 30
0.0
 11
135.5574819626101
 21
164.99862996453581
 31
0.0
  0
LINE
  5
5649
  8
DANMEN
  6
CONTINUOUS
 10
142.78274805350009
 20
169.9788323256351
 30
0.0
 11
135.78291620615229
 21
162.97900017231481
 31
0.0
  0
LINE
  5
564A
  8
DANMEN
  6
CONTINUOUS
 10
143.55748172184639
 20
168.50850198222861
 30
0.0
 11
138.0279801536347
 21
162.97900017231481
 31
0.0
  0
LINE
  5
564B
  8
DANMEN
  6
CONTINUOUS
 10
143.55748172184639
 20
166.9592030810179
 30
0.0
 11
140.53785234523701
 21
169.9788323256351
 31
0.0
  0
LINE
  5
564C
  8
DANMEN
  6
CONTINUOUS
 10
143.55748172184639
 20
164.71413913353541
 30
0.0
 11
138.2927882996197
 21
169.9788323256351
 31
0.0
  0
LINE
  5
564D
  8
DANMEN
  6
CONTINUOUS
 10
143.04755671329531
 20
162.97900017231481
 30
0.0
 11
135.55748261475151
 21
170.469073943457
 31
0.0
  0
LINE
  5
564E
  8
DANMEN
  6
CONTINUOUS
 10
140.80249266767791
 20
162.97900017231481
 30
0.0
 11
135.55748234711339
 21
168.22401026361271
 31
0.0
  0
LINE
  5
564F
  8
DANMEN
  6
CONTINUOUS
 10
135.55748172184639
 20
162.97900017231481
 30
0.0
 11
143.55748172184639
 21
162.97900017231481
 31
0.0
  0
LINE
  5
5650
  8
DANMEN
  6
CONTINUOUS
 10
142.55751223942451
 20
161.9791603896
 30
0.0
 11
136.55751223942451
 21
161.9791603896
 31
0.0
  0
LINE
  5
5651
  8
DANMEN
  6
CONTINUOUS
 10
138.55742862206071
 20
162.97900017231481
 30
0.0
 11
135.55748207947531
 21
165.97894658376831
 31
0.0
  0
LINE
  5
5652
  8
DANMEN
  6
CONTINUOUS
 10
136.31236457644351
 20
162.97900017231481
 30
0.0
 11
135.55748181183731
 21
163.73388290392401
 31
0.0
  0
LINE
  5
5653
  8
DANMEN
  6
CONTINUOUS
 10
143.55748172184639
 20
166.26343793661141
 30
0.0
 11
140.27304410111711
 21
162.97900017231481
 31
0.0
  0
LINE
  5
5654
  8
DANMEN
  6
CONTINUOUS
 10
143.55748172184639
 20
164.0183738909941
 30
0.0
 11
142.5181080485994
 21
162.97900017231481
 31
0.0
  0
LINE
  5
5655
  8
DANMEN
  6
CONTINUOUS
 10
136.55748172184639
 20
169.9788323256351
 30
0.0
 11
143.55748172184639
 21
169.9788323256351
 31
0.0
  0
LINE
  5
5656
  8
DANMEN
  6
CONTINUOUS
 10
136.14415049886779
 20
170.07542661767221
 30
0.0
 11
135.5574824978863
 21
169.4887585910466
 31
0.0
  0
LINE
  5
5657
  8
DANMEN
  6
CONTINUOUS
 10
143.55748172184639
 20
169.20426702850031
 30
0.0
 11
142.7829163908541
 21
169.9788323256351
 31
0.0
  0
LINE
  5
5658
  8
DANMEN
  6
CONTINUOUS
 10
144.85751529118221
 20
168.32890709370139
 30
0.0
 11
144.85751529118221
 21
157.97891624897491
 31
0.0
  0
ARC
  5
5659
  8
DANMEN
  6
CONTINUOUS
 10
143.85751529118221
 20
157.97891624897491
 30
0.0
 40
1.0
 50
270.00001798608889
 51
0.0
  0
LINE
  5
565A
  8
DANMEN
  6
PHANTOM
 10
156.55751223942451
 20
154.97916038959991
 30
0.0
 11
156.55751223942451
 21
152.4791603896
 31
0.0
  0
LINE
  5
565B
  8
DANMEN
  6
CONTINUOUS
 10
150.90751834294019
 20
163.3289070937015
 30
0.0
 11
154.5575274982136
 21
163.3289070937015
 31
0.0
  0
LINE
  5
565C
  8
DANMEN
  6
CONTINUOUS
 10
151.55751223942451
 20
169.47891624897491
 30
0.0
 11
151.55751223942451
 21
164.978916248975
 31
0.0
  0
LINE
  5
565D
  8
DANMEN
  6
CONTINUOUS
 10
149.90751834294019
 20
168.32890709370139
 30
0.0
 11
149.90751834294019
 21
164.3289070937015
 31
0.0
  0
ARC
  5
565E
  8
DANMEN
  6
CONTINUOUS
 10
150.90751834294019
 20
164.3289070937015
 30
0.0
 40
1.0
 50
179.99996402782111
 51
270.00000068324448
  0
LINE
  5
565F
  8
DANMEN
  6
CONTINUOUS
 10
144.05751223942451
 20
169.978916248975
 30
0.0
 11
151.05751223942451
 21
169.978916248975
 31
0.0
  0
LINE
  5
5660
  8
DANMEN
  6
CONTINUOUS
 10
144.85751529118221
 20
168.32890709370139
 30
0.0
 11
149.90751834294019
 21
168.32890709370139
 31
0.0
  0
ARC
  5
5661
  8
DANMEN
  6
CONTINUOUS
 10
151.05751223942451
 20
169.47891624897491
 30
0.0
 40
0.5
 50
0.0
 51
89.999982013910966
  0
LINE
  5
5662
  8
DANMEN
  6
CONTINUOUS
 10
173.55751223942451
 20
169.978916248975
 30
0.0
 11
178.55751223942451
 21
169.978916248975
 31
0.0
  0
LINE
  5
5663
  8
DANMEN
  6
CONTINUOUS
 10
174.05751223942451
 20
168.6789131972171
 30
0.0
 11
176.90750308415099
 21
168.6789131972171
 31
0.0
  0
ARC
  5
5664
  8
DANMEN
  6
PHANTOM
 10
161.05751223942451
 20
152.4791603896
 30
0.0
 40
2.5
 50
0.0
 51
89.999982013910966
  0
LINE
  5
5665
  8
DANMEN
  6
CONTINUOUS
 10
173.05751223942451
 20
167.97916038959991
 30
0.0
 11
173.05751223942451
 21
164.9791603896
 31
0.0
  0
LINE
  5
5666
  8
DANMEN
  6
CONTINUOUS
 10
173.05751223942451
 20
169.47891624897491
 30
0.0
 11
173.05751223942451
 21
168.27890404194369
 31
0.0
  0
ARC
  5
5667
  8
DANMEN
  6
CONTINUOUS
 10
173.55751223942451
 20
169.47891624897491
 30
0.0
 40
0.5
 50
89.999982013910966
 51
179.99996402782111
  0
LINE
  5
5668
  8
DANMEN
  6
CONTINUOUS
 10
173.3575000323932
 20
167.978916248975
 30
0.0
 11
173.75750918766661
 21
167.978916248975
 31
0.0
  0
LINE
  5
5669
  8
DANMEN
  6
CONTINUOUS
 10
174.05751223942451
 20
168.6789131972171
 30
0.0
 11
174.05751223942451
 21
168.27890404194369
 31
0.0
  0
ARC
  5
566A
  8
DANMEN
  6
CONTINUOUS
 10
173.3575000323932
 20
168.27890404194369
 30
0.0
 40
0.2999999523162842
 50
179.99996402782111
 51
270.00000068324448
  0
ARC
  5
566B
  8
DANMEN
  6
CONTINUOUS
 10
173.75750918766661
 20
168.27890404194369
 30
0.0
 40
0.2999999523162842
 50
270.00001798608889
 51
0.0
  0
LINE
  5
566C
  8
DANMEN
  6
CONTINUOUS
 10
181.7575091876667
 20
168.2791481825686
 30
0.0
 11
181.7575091876667
 21
161.2791481825686
 31
0.0
  0
LINE
  5
566D
  8
DANMEN
  6
CONTINUOUS
 10
178.55751223942451
 20
169.978916248975
 30
0.0
 11
178.55751223942451
 21
159.77890404194369
 31
0.0
  0
LINE
  5
566E
  8
DANMEN
  6
CONTINUOUS
 10
177.25750918766661
 20
163.3289070937015
 30
0.0
 11
177.25750918766661
 21
159.57889183491241
 31
0.0
  0
LINE
  5
566F
  8
DANMEN
  6
CONTINUOUS
 10
180.2575549640338
 20
163.25323875874059
 30
0.0
 11
180.2575549640338
 21
161.57896812885781
 31
0.0
  0
LINE
  5
5670
  8
DANMEN
  6
CONTINUOUS
 10
181.75752207517701
 20
161.57894957394171
 30
0.0
 11
181.7575373339601
 21
167.07894870967431
 31
0.0
  0
LINE
  5
5671
  8
DANMEN
  6
CONTINUOUS
 10
178.55751223942451
 20
161.2791481825686
 30
0.0
 11
181.7575091876667
 21
161.2791481825686
 31
0.0
  0
LINE
  5
5672
  8
DANMEN
  6
CONTINUOUS
 10
179.05751223942451
 20
159.97914513081091
 30
0.0
 11
181.7575091876667
 21
159.97914513081091
 31
0.0
  0
LINE
  5
5673
  8
DANMEN
  6
CONTINUOUS
 10
179.05751223942451
 20
158.27913292377951
 30
0.0
 11
181.7575091876667
 21
158.27913292377951
 31
0.0
  0
LINE
  5
5674
  8
DANMEN
  6
CONTINUOUS
 10
179.05751223942451
 20
156.97912987202179
 30
0.0
 11
181.7575091876667
 21
156.97912987202179
 31
0.0
  0
ARC
  5
5675
  8
DANMEN
  6
CONTINUOUS
 10
180.5575122394244
 20
159.2789040419436
 30
0.0
 40
0.5
 50
0.0
 51
89.999982013910966
  0
ARC
  5
5676
  8
DANMEN
  6
CONTINUOUS
 10
180.5575122394244
 20
158.77890404194369
 30
0.0
 40
0.5
 50
270.00001798608889
 51
0.0
  0
LINE
  5
5677
  8
DANMEN
  6
CONTINUOUS
 10
180.55754275700261
 20
161.2789650771
 30
0.0
 11
181.45755191227599
 21
161.2789650771
 31
0.0
  0
LINE
  5
5678
  8
DANMEN
  6
CONTINUOUS
 10
178.55751223942451
 20
161.2791481825686
 30
0.0
 11
178.55751223942451
 21
160.47914513081091
 31
0.0
  0
ARC
  5
5679
  8
DANMEN
  6
CONTINUOUS
 10
179.05751223942451
 20
160.47914513081091
 30
0.0
 40
0.5
 50
179.99996402782111
 51
270.00000068324448
  0
LINE
  5
567A
  8
DANMEN
  6
CONTINUOUS
 10
178.55751223942451
 20
157.7791329237796
 30
0.0
 11
178.55751223942451
 21
157.47912987202179
 31
0.0
  0
ARC
  5
567B
  8
DANMEN
  6
CONTINUOUS
 10
179.05751223942451
 20
157.7791329237796
 30
0.0
 40
0.5
 50
89.999982013910966
 51
179.99996402782111
  0
ARC
  5
567C
  8
DANMEN
  6
CONTINUOUS
 10
179.05751223942451
 20
157.47912987202179
 30
0.0
 40
0.5
 50
179.99996402782111
 51
270.00000068324448
  0
LINE
  5
567D
  8
DANMEN
  6
CONTINUOUS
 10
178.55751223942451
 20
159.77890404194369
 30
0.0
 11
180.5575122394244
 21
159.77890404194369
 31
0.0
  0
LINE
  5
567E
  8
DANMEN
  6
CONTINUOUS
 10
178.25750918766661
 20
158.57889183491241
 30
0.0
 11
179.8575000323932
 21
158.57889183491241
 31
0.0
  0
LINE
  5
567F
  8
DANMEN
  6
CONTINUOUS
 10
179.8575000323932
 20
158.2789040419436
 30
0.0
 11
180.5575122394244
 21
158.2789040419436
 31
0.0
  0
LINE
  5
5680
  8
DANMEN
  6
CONTINUOUS
 10
179.8575000323932
 20
158.57889183491241
 30
0.0
 11
179.8575000323932
 21
158.2789040419436
 31
0.0
  0
ARC
  5
5681
  8
DANMEN
  6
CONTINUOUS
 10
178.25750918766661
 20
159.57889183491241
 30
0.0
 40
1.0
 50
179.99996402782111
 51
270.00000068324448
  0
ARC
  5
5682
  8
DANMEN
  6
CONTINUOUS
 10
180.55754275700261
 20
161.57896812885781
 30
0.0
 40
0.2999999523162842
 50
179.99996402782111
 51
270.00000068324448
  0
LINE
  5
5683
  8
DANMEN
  6
CONTINUOUS
 10
181.7575091876667
 20
159.97914513081091
 30
0.0
 11
181.7575091876667
 21
158.27913292377951
 31
0.0
  0
LINE
  5
5684
  8
DANMEN
  6
CONTINUOUS
 10
181.0575122394244
 20
159.2789040419436
 30
0.0
 11
181.0575122394244
 21
158.77890404194369
 31
0.0
  0
ARC
  5
5685
  8
DANMEN
  6
CONTINUOUS
 10
181.45755191227599
 20
161.57896812885781
 30
0.0
 40
0.2999999523162842
 50
270.00001798608889
 51
0.0
  0
LINE
  5
5686
  8
DANMEN
  6
CONTINUOUS
 10
178.55751223942451
 20
169.4791603896
 30
0.0
 11
178.55751223942451
 21
165.4791603896
 31
0.0
  0
LINE
  5
5687
  8
DANMEN
  6
CONTINUOUS
 10
179.55751223942451
 20
168.2791481825686
 30
0.0
 11
179.55751223942451
 21
165.4791603896
 31
0.0
  0
LINE
  5
5688
  8
DANMEN
  6
CONTINUOUS
 10
176.90750308415099
 20
168.6789131972171
 30
0.0
 11
176.90750308415099
 21
164.978916248975
 31
0.0
  0
ARC
  5
5689
  8
DANMEN
  6
CONTINUOUS
 10
180.05754275700261
 20
167.07896812885781
 30
0.0
 40
0.5
 50
89.999982013910966
 51
179.99996402782111
  0
ARC
  5
568A
  8
DANMEN
  6
CONTINUOUS
 10
181.2575549640338
 20
167.07896812885781
 30
0.0
 40
0.5
 50
0.0
 51
89.999982013910966
  0
LINE
  5
568B
  8
DANMEN
  6
CONTINUOUS
 10
178.55751223942451
 20
165.4791603896
 30
0.0
 11
179.55751223942451
 21
165.4791603896
 31
0.0
  0
LINE
  5
568C
  8
DANMEN
  6
CONTINUOUS
 10
179.55754275700261
 20
167.07896812885781
 30
0.0
 11
179.55754275700261
 21
166.40407188862341
 31
0.0
  0
LINE
  5
568D
  8
DANMEN
  6
CONTINUOUS
 10
178.05754275700261
 20
163.07898338764679
 30
0.0
 11
178.05754275700261
 21
162.8294411513186
 31
0.0
  0
LINE
  5
568E
  8
DANMEN
  6
CONTINUOUS
 10
178.0575140448187
 20
163.07897130379831
 30
0.0
 11
180.02320458779971
 21
165.04466184677921
 31
0.0
  0
LINE
  5
568F
  8
DANMEN
  6
CONTINUOUS
 10
178.3592638008848
 20
162.65725335466459
 30
0.0
 11
179.80491381282499
 21
163.51150834985779
 31
0.0
  0
ARC
  5
5690
  8
DANMEN
  6
CONTINUOUS
 10
178.2575397052448
 20
162.8294411513186
 30
0.0
 40
0.199999988079071
 50
180.0027134063329
 51
300.57811920207553
  0
ARC
  5
5691
  8
DANMEN
  6
CONTINUOUS
 10
179.45755191227599
 20
165.6103554579592
 30
0.0
 40
0.7999999523162842
 50
315.00000216285559
 51
82.819868592338807
  0
ARC
  5
5692
  8
DANMEN
  6
CONTINUOUS
 10
179.95755191227599
 20
163.25323875874059
 30
0.0
 40
0.2999999523162842
 50
359.99960263006602
 51
120.5796131922707
  0
LINE
  5
5693
  8
DANMEN
  6
CONTINUOUS
 10
179.05751223942451
 20
169.97916038959991
 30
0.0
 11
183.0575122394244
 21
169.97916038959991
 31
0.0
  0
LINE
  5
5694
  8
DANMEN
  6
CONTINUOUS
 10
179.55751223942451
 20
168.2791481825686
 30
0.0
 11
181.7575091876667
 21
168.2791481825686
 31
0.0
  0
LINE
  5
5695
  8
DANMEN
  6
CONTINUOUS
 10
180.05754275700261
 20
167.57896812885781
 30
0.0
 11
181.2575549640338
 21
167.57896812885781
 31
0.0
  0
ARC
  5
5696
  8
DANMEN
  6
CONTINUOUS
 10
179.05751223942451
 20
169.4791603896
 30
0.0
 40
0.5
 50
89.999982013910966
 51
179.99996402782111
  0
ARC
  5
5697
  8
DANMEN
  6
CONTINUOUS
 10
183.0575122394244
 20
169.4791603896
 30
0.0
 40
0.5
 50
0.0
 51
89.999982013910966
  0
LINE
  5
5698
  8
SUNPO
  6
CONTINUOUS
 10
213.5575122394244
 20
124.9791603895999
 30
0.0
 11
213.5575122394244
 21
169.97916038959991
 31
0.0
  0
LINE
  5
5699
  8
SUNPO
  6
CONTINUOUS
 10
223.5575122394244
 20
195.6603585097171
 30
0.0
 11
223.5575122394244
 21
109.9791603896
 31
0.0
  0
LINE
  5
569A
  8
SUNPO
  6
CONTINUOUS
 10
205.0575122394244
 20
124.9791603895999
 30
0.0
 11
213.5575122394244
 21
124.9791603895999
 31
0.0
  0
LINE
  5
569B
  8
DANMEN
  6
CONTINUOUS
 10
203.5575122394244
 20
124.47914513081091
 30
0.0
 11
203.5575122394244
 21
123.4791603896
 31
0.0
  0
ARC
  5
569C
  8
DANMEN
  6
CONTINUOUS
 10
203.0575122394244
 20
124.47914513081091
 30
0.0
 40
0.5
 50
0.0
 51
89.999982013910966
  0
LINE
  5
569D
  8
DANMEN
  6
CONTINUOUS
 10
201.55751223942451
 20
123.1791573378421
 30
0.0
 11
201.55751223942451
 21
122.9791603895999
 31
0.0
  0
ARC
  5
569E
  8
DANMEN
  6
CONTINUOUS
 10
203.0575122394244
 20
123.4791603896
 30
0.0
 40
0.5
 50
270.00001798608889
 51
0.0
  0
LINE
  5
569F
  8
DANMEN
  6
CONTINUOUS
 10
201.55751223942451
 20
122.9791603895999
 30
0.0
 11
203.0575122394244
 21
122.9791603895999
 31
0.0
  0
POLYLINE
  5
56A0
  8
SUNPO
  6
BYBLOCK
 66
     1
 10
0.0
 20
0.0
 30
0.0
 70
     1
 40
1.159999999999999
 41
1.159999999999999
  0
VERTEX
  5
5B8E
  8
SUNPO
  6
BYBLOCK
 10
223.5575122394244
 20
110.12416038959999
 30
0.0
 42
1.0
  0
VERTEX
  5
5B8F
  8
SUNPO
  6
BYBLOCK
 10
223.5575122394244
 20
109.8341603895999
 30
0.0
 42
1.0
  0
SEQEND
  5
5B90
  8
SUNPO
  6
BYBLOCK
  0
POLYLINE
  5
56A4
  8
SUNPO
  6
BYBLOCK
 66
     1
 10
0.0
 20
0.0
 30
0.0
 70
     1
 40
1.159999999999999
 41
1.159999999999999
  0
VERTEX
  5
5B91
  8
SUNPO
  6
BYBLOCK
 10
213.5575122394244
 20
124.8341603895999
 30
0.0
 42
1.0
  0
VERTEX
  5
5B92
  8
SUNPO
  6
BYBLOCK
 10
213.5575122394244
 20
125.12416038959979
 30
0.0
 42
1.0
  0
SEQEND
  5
5B93
  8
SUNPO
  6
BYBLOCK
  0
POLYLINE
  5
56A8
  8
SUNPO
  6
BYBLOCK
 66
     1
 10
0.0
 20
0.0
 30
0.0
 70
     1
 40
1.159999999999999
 41
1.159999999999999
  0
VERTEX
  5
5B94
  8
SUNPO
  6
BYBLOCK
 10
213.5575122394244
 20
125.12416038959979
 30
0.0
 42
1.0
  0
VERTEX
  5
5B95
  8
SUNPO
  6
BYBLOCK
 10
213.5575122394244
 20
124.8341603895999
 30
0.0
 42
1.0
  0
SEQEND
  5
5B96
  8
SUNPO
  6
BYBLOCK
  0
TEXT
  5
56AC
  8
SUNPO
  6
CONTINUOUS
 10
223.0575122394244
 20
138.1041603896
 30
0.0
 40
2.5
  1
60
 50
90.0
  7
MX_NOTE_STANDARD
  0
TEXT
  5
56AD
  8
SUNPO
  6
CONTINUOUS
 10
213.0575122394244
 20
145.39582705626651
 30
0.0
 40
2.5
  1
45
 50
90.0
  7
MX_NOTE_STANDARD
  0
LINE
  5
56AE
  8
SUNPO
  6
CONTINUOUS
 10
218.55751414677309
 20
174.97890099018579
 30
0.0
 11
228.55749698063551
 21
174.97890099018579
 31
0.0
  0
LINE
  5
56AF
  8
SUNPO
  6
CONTINUOUS
 10
223.5575233661923
 20
169.97891376068131
 30
0.0
 11
228.55751761140709
 21
174.9789080058961
 31
0.0
  0
LINE
  5
56B0
  8
SUNPO
  6
CONTINUOUS
 10
218.55750787896631
 20
174.97890766872121
 30
0.0
 11
223.5575017870062
 21
169.97891376068131
 31
0.0
  0
POLYLINE
  5
56B1
  8
SUNPO
  6
BYBLOCK
 66
     1
 10
0.0
 20
0.0
 30
0.0
 70
     1
 40
1.159999999999999
 41
1.159999999999999
  0
VERTEX
  5
5B97
  8
SUNPO
  6
BYBLOCK
 10
213.5575122394244
 20
169.8341603895999
 30
0.0
 42
1.0
  0
VERTEX
  5
5B98
  8
SUNPO
  6
BYBLOCK
 10
213.5575122394244
 20
170.12416038959981
 30
0.0
 42
1.0
  0
SEQEND
  5
5B99
  8
SUNPO
  6
BYBLOCK
  0
LINE
  5
56B5
  8
DANMEN
  6
CONTINUOUS
 10
126.97087397998111
 20
259.88216173965259
 30
0.0
 11
127.5575419809626
 21
260.46882976627842
 31
0.0
  0
LINE
  5
56B6
  8
DANMEN
  6
CONTINUOUS
 10
124.8224043203135
 20
259.97875603168973
 30
0.0
 11
127.5575422486007
 21
262.71389407953382
 31
0.0
  0
LINE
  5
56B7
  8
DANMEN
  6
CONTINUOUS
 10
122.5773403728312
 20
259.97875603168973
 30
0.0
 11
127.557542516239
 21
264.95895839278921
 31
0.0
  0
LINE
  5
56B8
  8
DANMEN
  6
CONTINUOUS
 10
120.33227642534879
 20
259.97875603168973
 30
0.0
 11
127.3321082726966
 21
266.9785881850101
 31
0.0
  0
LINE
  5
56B9
  8
DANMEN
  6
CONTINUOUS
 10
120.0674677655537
 20
266.9785881850101
 30
0.0
 11
127.5575418640976
 21
259.48851441386779
 31
0.0
  0
LINE
  5
56BA
  8
DANMEN
  6
CONTINUOUS
 10
122.312531811171
 20
266.9785881850101
 30
0.0
 11
127.5575421317355
 21
261.73357809371231
 31
0.0
  0
LINE
  5
56BB
  8
DANMEN
  6
CONTINUOUS
 10
124.5575958567882
 20
266.9785881850101
 30
0.0
 11
127.5575423993737
 21
263.9786417735566
 31
0.0
  0
LINE
  5
56BC
  8
DANMEN
  6
CONTINUOUS
 10
126.80265990240549
 20
266.9785881850101
 30
0.0
 11
127.5575426670117
 21
266.2237054534009
 31
0.0
  0
LINE
  5
56BD
  8
DANMEN
  6
CONTINUOUS
 10
127.55754275700269
 20
266.9785881850101
 30
0.0
 11
119.55754275700269
 21
266.9785881850101
 31
0.0
  0
ARC
  5
56BE
  8
DANMEN
  6
CONTINUOUS
 10
126.55754275700269
 20
258.97875603168978
 30
0.0
 40
1.0
 50
0.0000366554235084
 51
90.000073310847014
  0
LINE
  5
56BF
  8
DANMEN
  6
CONTINUOUS
 10
148.55748567910331
 20
298.47862845830321
 30
0.0
 11
114.00775858889079
 21
295.02365637016038
 31
0.0
  0
LINE
  5
56C0
  8
DANMEN
  6
CONTINUOUS
 10
137.5579571000296
 20
295.56969521979852
 30
0.0
 11
115.35751092553041
 21
293.3496510013033
 31
0.0
  0
LINE
  5
56C1
  8
SUNPO
  6
CONTINUOUS
 10
113.5575122394244
 20
232.83438499897491
 30
0.0
 11
183.5575122394244
 21
232.83438499897491
 31
0.0
  0
LINE
  5
56C2
  8
SUNPO
  6
CONTINUOUS
 10
162.05751223942451
 20
317.97867210835
 30
0.0
 11
88.557512239424568
 21
317.97867210835
 31
0.0
  0
LINE
  5
56C3
  8
SUNPO
  6
CONTINUOUS
 10
158.08165164372139
 20
307.97867210834988
 30
0.0
 11
88.557512239424568
 21
307.97867210834988
 31
0.0
  0
LINE
  5
56C4
  8
DANMEN
  6
CONTINUOUS
 10
113.5575122394244
 20
294.52205284565463
 30
0.0
 11
113.5575122394244
 21
267.97867210835
 31
0.0
  0
LINE
  5
56C5
  8
DANMEN
  6
CONTINUOUS
 10
115.357511476485
 20
293.345630726514
 30
0.0
 11
115.357511476485
 21
279.47865684956088
 31
0.0
  0
LINE
  5
56C6
  8
DANMEN
  6
CONTINUOUS
 10
119.5575122394245
 20
293.76968773334988
 30
0.0
 11
119.5575122394245
 21
266.97891624897483
 31
0.0
  0
LINE
  5
56C7
  8
DANMEN
  6
CONTINUOUS
 10
120.5575122394245
 20
292.86490257709983
 30
0.0
 11
120.5575122394245
 21
267.978916248975
 31
0.0
  0
LINE
  5
56C8
  8
DANMEN
  6
CONTINUOUS
 10
126.5575122394245
 20
293.564853748975
 30
0.0
 11
126.5575122394245
 21
267.978916248975
 31
0.0
  0
LINE
  5
56C9
  8
SUNPO
  6
CONTINUOUS
 10
88.557512239424568
 20
259.978916248975
 30
0.0
 11
88.557512239424568
 21
294.97867210835
 31
0.0
  0
LINE
  5
56CA
  8
DANMEN
  6
CONTINUOUS
 10
119.5575122394245
 20
259.978916248975
 30
0.0
 11
119.5575122394245
 21
215.978916248975
 31
0.0
  0
LINE
  5
56CB
  8
DANMEN
  6
CONTINUOUS
 10
113.5575122394244
 20
259.978916248975
 30
0.0
 11
113.5575122394244
 21
215.978916248975
 31
0.0
  0
POLYLINE
  5
56CC
  8
SUNPO
  6
BYBLOCK
 66
     1
 10
0.0
 20
0.0
 30
0.0
 70
     1
 40
1.159999999999999
 41
1.159999999999999
  0
VERTEX
  5
5B9A
  8
SUNPO
  6
BYBLOCK
 10
113.70251223942439
 20
232.83438499897491
 30
0.0
 42
1.0
  0
VERTEX
  5
5B9B
  8
SUNPO
  6
BYBLOCK
 10
113.4125122394245
 20
232.83438499897491
 30
0.0
 42
1.0
  0
SEQEND
  5
5B9C
  8
SUNPO
  6
BYBLOCK
  0
LINE
  5
56D0
  8
SUNPO
  6
CONTINUOUS
 10
107.0575122394245
 20
259.978916248975
 30
0.0
 11
88.557512239424568
 21
259.978916248975
 31
0.0
  0
POLYLINE
  5
56D1
  8
SUNPO
  6
BYBLOCK
 66
     1
 10
0.0
 20
0.0
 30
0.0
 70
     1
 40
1.159999999999999
 41
1.159999999999999
  0
VERTEX
  5
5B9D
  8
SUNPO
  6
BYBLOCK
 10
88.557512239424568
 20
260.12391624897481
 30
0.0
 42
1.0
  0
VERTEX
  5
5B9E
  8
SUNPO
  6
BYBLOCK
 10
88.557512239424568
 20
259.83391624897502
 30
0.0
 42
1.0
  0
SEQEND
  5
5B9F
  8
SUNPO
  6
BYBLOCK
  0
TEXT
  5
56D5
  8
SUNPO
  6
CONTINUOUS
 10
88.057512239424554
 20
275.39533877501663
 30
0.0
 40
2.5
  1
35
 50
90.0
  7
MX_NOTE_STANDARD
  0
LINE
  5
56D6
  8
DANMEN
  6
CONTINUOUS
 10
119.55754275700269
 20
261.4490863750961
 30
0.0
 11
125.08704432521441
 21
266.9785881850101
 31
0.0
  0
LINE
  5
56D7
  8
DANMEN
  6
CONTINUOUS
 10
119.55754275700269
 20
263.69415042071341
 30
0.0
 11
122.8419803777319
 21
266.9785881850101
 31
0.0
  0
LINE
  5
56D8
  8
DANMEN
  6
CONTINUOUS
 10
119.55754275700269
 20
265.93921446633072
 30
0.0
 11
120.59691643024949
 21
266.9785881850101
 31
0.0
  0
LINE
  5
56D9
  8
DANMEN
  6
CONTINUOUS
 10
108.8002653480101
 20
265.12432053614077
 30
0.0
 11
113.5575112581017
 21
267.9786679499245
 31
0.0
  0
LINE
  5
56DA
  8
DANMEN
  6
CONTINUOUS
 10
109.8575121338922
 20
264.24262090386799
 30
0.0
 11
113.55751073644591
 21
266.46261996252503
 31
0.0
  0
LINE
  5
56DB
  8
DANMEN
  6
CONTINUOUS
 10
113.5575122394244
 20
266.46262367695351
 30
0.0
 11
113.5575122394244
 21
260.47867210834983
 31
0.0
  0
LINE
  5
56DC
  8
DANMEN
  6
CONTINUOUS
 10
115.2575120486897
 20
278.27865990131858
 30
0.0
 11
115.2575120486897
 21
261.67867191761502
 31
0.0
  0
LINE
  5
56DD
  8
DANMEN
  6
CONTINUOUS
 10
119.5575122394245
 20
266.47867210834988
 30
0.0
 11
119.5575122394245
 21
260.47867210834983
 31
0.0
  0
LINE
  5
56DE
  8
DANMEN
  6
CONTINUOUS
 10
118.5575122394245
 20
266.47867210834988
 30
0.0
 11
118.5575122394245
 21
261.67867191761502
 31
0.0
  0
LINE
  5
56DF
  8
DANMEN
  6
CONTINUOUS
 10
110.0575122394245
 20
260.97867210835
 30
0.0
 11
110.0575122394245
 21
259.97867210834988
 31
0.0
  0
ARC
  5
56E0
  8
DANMEN
  6
CONTINUOUS
 10
109.0575122394245
 20
260.47867210834983
 30
0.0
 40
0.5
 50
179.99996402782111
 51
270.00000068324448
  0
LINE
  5
56E1
  8
DANMEN
  6
CONTINUOUS
 10
109.0575122394245
 20
259.97867210834988
 30
0.0
 11
110.0575122394245
 21
259.97867210834988
 31
0.0
  0
LINE
  5
56E2
  8
DANMEN
  6
CONTINUOUS
 10
108.5575122394244
 20
264.69557484119912
 30
0.0
 11
108.5575122394244
 21
260.47867210834983
 31
0.0
  0
LINE
  5
56E3
  8
DANMEN
  6
CONTINUOUS
 10
109.8575114764851
 20
260.97867210835
 30
0.0
 11
110.0575122394245
 21
260.97867210835
 31
0.0
  0
LINE
  5
56E4
  8
DANMEN
  6
CONTINUOUS
 10
109.8575114764851
 20
264.24262245625039
 30
0.0
 11
109.8575114764851
 21
260.97867210835
 31
0.0
  0
ARC
  5
56E5
  8
DANMEN
  6
CONTINUOUS
 10
109.0575122394245
 20
264.69557484119912
 30
0.0
 40
0.5
 50
120.96374303119229
 51
180.0000733108478
  0
ARC
  5
56E6
  8
DANMEN
  6
CONTINUOUS
 10
119.0575122394244
 20
260.47867210834983
 30
0.0
 40
0.5
 50
270.00001798608889
 51
0.0
  0
ARC
  5
56E7
  8
DANMEN
  6
CONTINUOUS
 10
114.0575122394245
 20
260.47867210834983
 30
0.0
 40
0.5
 50
179.99996402782111
 51
270.00000068324448
  0
LINE
  5
56E8
  8
DANMEN
  6
CONTINUOUS
 10
114.0575122394245
 20
259.97867210834988
 30
0.0
 11
119.0575122394244
 21
259.97867210834988
 31
0.0
  0
LINE
  5
56E9
  8
DANMEN
  6
CONTINUOUS
 10
115.2575120486897
 20
261.67867191761502
 30
0.0
 11
118.5575122394245
 21
261.67867191761502
 31
0.0
  0
LINE
  5
56EA
  8
DANMEN
  6
CONTINUOUS
 10
119.55754275700269
 20
260.75332132882448
 30
0.0
 11
120.3321080879948
 21
259.97875603168973
 31
0.0
  0
LINE
  5
56EB
  8
DANMEN
  6
CONTINUOUS
 10
119.55754275700269
 20
262.99838527630692
 30
0.0
 11
122.577172133612
 21
259.97875603168973
 31
0.0
  0
LINE
  5
56EC
  8
DANMEN
  6
CONTINUOUS
 10
119.55754275700269
 20
265.2434492237893
 30
0.0
 11
124.82223617922919
 21
259.97875603168973
 31
0.0
  0
LINE
  5
56ED
  8
DANMEN
  6
CONTINUOUS
 10
126.55754275700269
 20
259.97875603168973
 30
0.0
 11
119.55754275700269
 21
259.97875603168973
 31
0.0
  0
LINE
  5
56EE
  8
DANMEN
  6
CONTINUOUS
 10
119.5575122394245
 20
278.97865684956082
 30
0.0
 11
119.5575122394245
 21
276.47867210834988
 31
0.0
  0
LINE
  5
56EF
  8
DANMEN
  6
CONTINUOUS
 10
118.5575122394245
 20
278.27865990131858
 30
0.0
 11
118.5575122394245
 21
276.47867210834988
 31
0.0
  0
ARC
  5
56F0
  8
DANMEN
  6
CONTINUOUS
 10
119.0575122394244
 20
266.47867210834988
 30
0.0
 40
0.5
 50
0.0
 51
89.999982013910966
  0
ARC
  5
56F1
  8
DANMEN
  6
CONTINUOUS
 10
119.0575122394244
 20
276.47867210834988
 30
0.0
 40
0.5
 50
270.00001798608889
 51
0.0
  0
ARC
  5
56F2
  8
DANMEN
  6
CONTINUOUS
 10
119.0575122394244
 20
266.47867210834988
 30
0.0
 40
0.5
 50
89.999982013910966
 51
179.99996402782111
  0
ARC
  5
56F3
  8
DANMEN
  6
CONTINUOUS
 10
119.0575122394244
 20
276.47867210834988
 30
0.0
 40
0.5
 50
179.99996402782111
 51
270.00000068324448
  0
LINE
  5
56F4
  8
DANMEN
  6
CONTINUOUS
 10
120.5575122394245
 20
267.978916248975
 30
0.0
 11
126.5575122394245
 21
267.978916248975
 31
0.0
  0
ARC
  5
56F5
  8
DANMEN
  6
CONTINUOUS
 10
119.0575122394244
 20
278.97865684956082
 30
0.0
 40
0.5
 50
0.0
 51
89.999982013910966
  0
LINE
  5
56F6
  8
DANMEN
  6
CONTINUOUS
 10
115.357511476485
 20
279.47865684956088
 30
0.0
 11
119.0575122394244
 21
279.47865684956088
 31
0.0
  0
LINE
  5
56F7
  8
DANMEN
  6
CONTINUOUS
 10
115.2575120486897
 20
278.27865990131858
 30
0.0
 11
118.5575122394245
 21
278.27865990131858
 31
0.0
  0
LINE
  5
56F8
  8
SUNPO
  6
CONTINUOUS
 10
112.0575122394245
 20
294.97867210835
 30
0.0
 11
88.557512239424568
 21
294.97867210835
 31
0.0
  0
TEXT
  5
56F9
  8
SUNPO
  6
CONTINUOUS
 10
88.057512239424554
 20
311.52033877501663
 30
0.0
 40
2.5
  1
10
 50
90.0
  7
MX_NOTE_STANDARD
  0
LINE
  5
56FA
  8
SUNPO
  6
CONTINUOUS
 10
88.557512239424568
 20
317.97867210835
 30
0.0
 11
88.557512239424568
 21
307.97867210834988
 31
0.0
  0
TEXT
  5
56FB
  8
SUNPO
  6
CONTINUOUS
 10
88.057512239424554
 20
299.8120054416832
 30
0.0
 40
2.5
  1
13
 50
90.0
  7
MX_NOTE_STANDARD
  0
LINE
  5
56FC
  8
SUNPO
  6
CONTINUOUS
 10
88.557512239424568
 20
307.97867210834988
 30
0.0
 11
88.557512239424568
 21
294.97867210835
 31
0.0
  0
POLYLINE
  5
56FD
  8
SUNPO
  6
BYBLOCK
 66
     1
 10
0.0
 20
0.0
 30
0.0
 70
     1
 40
1.159999999999999
 41
1.159999999999999
  0
VERTEX
  5
5BA0
  8
SUNPO
  6
BYBLOCK
 10
88.557512239424568
 20
294.83367210835002
 30
0.0
 42
1.0
  0
VERTEX
  5
5BA1
  8
SUNPO
  6
BYBLOCK
 10
88.557512239424568
 20
295.12367210834992
 30
0.0
 42
1.0
  0
SEQEND
  5
5BA2
  8
SUNPO
  6
BYBLOCK
  0
POLYLINE
  5
5701
  8
SUNPO
  6
BYBLOCK
 66
     1
 10
0.0
 20
0.0
 30
0.0
 70
     1
 40
1.159999999999999
 41
1.159999999999999
  0
VERTEX
  5
5BA3
  8
SUNPO
  6
BYBLOCK
 10
88.557512239424568
 20
295.12367210834992
 30
0.0
 42
1.0
  0
VERTEX
  5
5BA4
  8
SUNPO
  6
BYBLOCK
 10
88.557512239424568
 20
294.83367210835002
 30
0.0
 42
1.0
  0
SEQEND
  5
5BA5
  8
SUNPO
  6
BYBLOCK
  0
POLYLINE
  5
5705
  8
SUNPO
  6
BYBLOCK
 66
     1
 10
0.0
 20
0.0
 30
0.0
 70
     1
 40
1.159999999999999
 41
1.159999999999999
  0
VERTEX
  5
5BA6
  8
SUNPO
  6
BYBLOCK
 10
88.557512239424568
 20
307.83367210835002
 30
0.0
 42
1.0
  0
VERTEX
  5
5BA7
  8
SUNPO
  6
BYBLOCK
 10
88.557512239424568
 20
308.12367210834992
 30
0.0
 42
1.0
  0
SEQEND
  5
5BA8
  8
SUNPO
  6
BYBLOCK
  0
POLYLINE
  5
5709
  8
SUNPO
  6
BYBLOCK
 66
     1
 10
0.0
 20
0.0
 30
0.0
 70
     1
 40
1.159999999999999
 41
1.159999999999999
  0
VERTEX
  5
5BA9
  8
SUNPO
  6
BYBLOCK
 10
88.557512239424568
 20
308.12367210834992
 30
0.0
 42
1.0
  0
VERTEX
  5
5BAA
  8
SUNPO
  6
BYBLOCK
 10
88.557512239424568
 20
307.83367210835002
 30
0.0
 42
1.0
  0
SEQEND
  5
5BAB
  8
SUNPO
  6
BYBLOCK
  0
POLYLINE
  5
570D
  8
SUNPO
  6
BYBLOCK
 66
     1
 10
0.0
 20
0.0
 30
0.0
 70
     1
 40
1.159999999999999
 41
1.159999999999999
  0
VERTEX
  5
5BAC
  8
SUNPO
  6
BYBLOCK
 10
88.557512239424568
 20
317.83367210835002
 30
0.0
 42
1.0
  0
VERTEX
  5
5BAD
  8
SUNPO
  6
BYBLOCK
 10
88.557512239424568
 20
318.12367210834992
 30
0.0
 42
1.0
  0
SEQEND
  5
5BAE
  8
SUNPO
  6
BYBLOCK
  0
ARC
  5
5711
  8
DANMEN
  6
CONTINUOUS
 10
114.0575122394245
 20
294.52614220112332
 30
0.0
 40
0.5
 50
95.710730499715694
 51
180.0017125562488
  0
LINE
  5
5712
  8
DANMEN
  6
CONTINUOUS
 10
126.5575374117512
 20
293.4648246277273
 30
0.0
 11
120.5573887661609
 21
292.86480879273302
 31
0.0
  0
LINE
  5
5713
  8
DANMEN
  6
CONTINUOUS
 10
172.7575091876667
 20
289.92470177143582
 30
0.0
 11
172.7575091876667
 21
288.678638539014
 31
0.0
  0
LINE
  5
5714
  8
DANMEN
  6
CONTINUOUS
 10
171.25750918766661
 20
290.00922020405312
 30
0.0
 11
171.25750918766661
 21
288.62863548725619
 31
0.0
  0
LINE
  5
5715
  8
DANMEN
  6
CONTINUOUS
 10
176.3575000323932
 20
288.678638539014
 30
0.0
 11
176.3575000323932
 21
289.92470177143582
 31
0.0
  0
LINE
  5
5716
  8
DANMEN
  6
CONTINUOUS
 10
177.8575000323932
 20
288.62863548725619
 30
0.0
 11
177.8575000323932
 21
290.00922020405312
 31
0.0
  0
ARC
  5
5717
  8
DANMEN
  6
CONTINUOUS
 10
140.3575000323932
 20
289.27864464252963
 30
0.0
 40
1.0
 50
359.99994535848663
 51
89.999982013910966
  0
ARC
  5
5718
  8
DANMEN
  6
CONTINUOUS
 10
138.75750918766661
 20
289.27864464252963
 30
0.0
 40
1.0
 50
89.999982013910966
 51
180.00001866933439
  0
ARC
  5
5719
  8
DANMEN
  6
CONTINUOUS
 10
138.75750918766661
 20
289.27864464252963
 30
0.0
 40
2.5
 50
92.292903839040363
 51
179.99996402782111
  0
ARC
  5
571A
  8
DANMEN
  6
CONTINUOUS
 10
140.3575000323932
 20
289.27864464252963
 30
0.0
 40
2.6499996185302721
 50
359.99994535848663
 51
87.837544122684264
  0
LINE
  5
571B
  8
DANMEN
  6
CONTINUOUS
 10
183.5575122394244
 20
275.47867115467562
 30
0.0
 11
183.5575122394244
 21
301.97864159077182
 31
0.0
  0
LINE
  5
571C
  8
DANMEN
  6
CONTINUOUS
 10
181.90751834294011
 20
287.6286507460452
 30
0.0
 11
181.90751834294011
 21
302.12860496967801
 31
0.0
  0
LINE
  5
571D
  8
DANMEN
  6
CONTINUOUS
 10
163.55751223942451
 20
288.97864159077182
 30
0.0
 11
163.55751223942451
 21
306.32037743061562
 31
0.0
  0
LINE
  5
571E
  8
DANMEN
  6
CONTINUOUS
 10
164.85750003239329
 20
287.6286507460452
 30
0.0
 11
164.85750003239329
 21
302.12860496967801
 31
0.0
  0
LINE
  5
571F
  8
DANMEN
  6
CONTINUOUS
 10
127.5575122394245
 20
294.569736561475
 30
0.0
 11
127.5575122394245
 21
215.978916248975
 31
0.0
  0
LINE
  5
5720
  8
DANMEN
  6
CONTINUOUS
 10
203.5575122394244
 20
301.97867210834983
 30
0.0
 11
203.5575122394244
 21
215.978916248975
 31
0.0
  0
TEXT
  5
5721
  8
SUNPO
  6
CONTINUOUS
 10
223.0575122394244
 20
286.89533877501668
 30
0.0
 40
2.5
  1
58
 50
90.0
  7
MX_NOTE_STANDARD
  0
TEXT
  5
5722
  8
SUNPO
  6
CONTINUOUS
 10
213.0575122394244
 20
286.39533877501663
 30
0.0
 40
2.5
  1
27
 50
90.0
  7
MX_NOTE_STANDARD
  0
LINE
  5
5723
  8
SUNPO
  6
CONTINUOUS
 10
213.5575122394244
 20
301.97867210834983
 30
0.0
 11
213.5575122394244
 21
274.97867210834983
 31
0.0
  0
LINE
  5
5724
  8
SUNPO
  6
CONTINUOUS
 10
223.5575122394244
 20
217.1463356825686
 30
0.0
 11
223.5575122394244
 21
317.97867210835
 31
0.0
  0
LINE
  5
5725
  8
DANMEN
  6
PHANTOM
 10
178.55751223942451
 20
259.978916248975
 30
0.0
 11
193.5575122394244
 21
259.978916248975
 31
0.0
  0
LINE
  5
5726
  8
SUNPO
  6
CONTINUOUS
 10
183.5575122394244
 20
232.83438499897491
 30
0.0
 11
203.5575122394244
 21
232.83438499897491
 31
0.0
  0
LINE
  5
5727
  8
SUNPO
  6
CONTINUOUS
 10
185.0575122394244
 20
274.97867210834983
 30
0.0
 11
213.5575122394244
 21
274.97867210834983
 31
0.0
  0
LINE
  5
5728
  8
DANMEN
  6
CONTINUOUS
 10
143.55751223942451
 20
259.978916248975
 30
0.0
 11
143.55751223942451
 21
215.978916248975
 31
0.0
  0
LINE
  5
5729
  8
DANMEN
  6
CONTINUOUS
 10
128.2575244464557
 20
271.978916248975
 30
0.0
 11
128.2575244464557
 21
215.978916248975
 31
0.0
  0
LINE
  5
572A
  8
DANMEN
  6
CONTINUOUS
 10
134.8575152911823
 20
271.978916248975
 30
0.0
 11
134.8575152911823
 21
215.978916248975
 31
0.0
  0
LINE
  5
572B
  8
DANMEN
  6
CONTINUOUS
 10
183.5575122394244
 20
274.97867210834983
 30
0.0
 11
183.5575122394244
 21
215.978916248975
 31
0.0
  0
LINE
  5
572C
  8
DANMEN
  6
CONTINUOUS
 10
135.55751223942451
 20
271.978916248975
 30
0.0
 11
135.55751223942451
 21
215.978916248975
 31
0.0
  0
LINE
  5
572D
  8
DANMEN
  6
CONTINUOUS
 10
178.55751223942451
 20
259.978916248975
 30
0.0
 11
178.55751223942451
 21
215.978916248975
 31
0.0
  0
TEXT
  5
572E
  8
SUNPO
  6
CONTINUOUS
 10
146.68258853336971
 20
233.3343849989748
 30
0.0
 40
2.5
  1
70
  7
MX_NOTE_STANDARD
  0
POLYLINE
  5
572F
  8
SUNPO
  6
BYBLOCK
 66
     1
 10
0.0
 20
0.0
 30
0.0
 70
     1
 40
1.159999999999999
 41
1.159999999999999
  0
VERTEX
  5
5BAF
  8
SUNPO
  6
BYBLOCK
 10
183.4125122394245
 20
232.83438499897491
 30
0.0
 42
1.0
  0
VERTEX
  5
5BB0
  8
SUNPO
  6
BYBLOCK
 10
183.70251223942441
 20
232.83438499897491
 30
0.0
 42
1.0
  0
SEQEND
  5
5BB1
  8
SUNPO
  6
BYBLOCK
  0
LINE
  5
5733
  8
DANMEN
  6
CONTINUOUS
 10
144.05751223942451
 20
259.97865684956082
 30
0.0
 11
178.05751223942451
 21
259.97865684956082
 31
0.0
  0
LINE
  5
5734
  8
DANMEN
  6
CONTINUOUS
 10
144.85751529118221
 20
261.62866886585721
 30
0.0
 11
176.90751262089421
 21
261.62866886585721
 31
0.0
  0
LINE
  5
5735
  8
DANMEN
  6
CONTINUOUS
 10
150.35746951481511
 20
285.97867210835
 30
0.0
 11
181.8575000323932
 21
285.97867210835
 31
0.0
  0
LINE
  5
5736
  8
DANMEN
  6
CONTINUOUS
 10
155.05751223942451
 20
288.97865684956082
 30
0.0
 11
163.55751223942451
 21
288.97865684956082
 31
0.0
  0
LINE
  5
5737
  8
DANMEN
  6
CONTINUOUS
 10
138.55741504829001
 20
266.9785881850101
 30
0.0
 11
135.5574820794744
 21
263.97864953004478
 31
0.0
  0
LINE
  5
5738
  8
DANMEN
  6
CONTINUOUS
 10
140.802476917169
 20
266.9785881850101
 30
0.0
 11
135.5574823471128
 21
261.73358367345708
 31
0.0
  0
LINE
  5
5739
  8
DANMEN
  6
CONTINUOUS
 10
143.04753878604811
 20
266.9785881850101
 30
0.0
 11
135.55748261475111
 21
259.48851781686921
 31
0.0
  0
LINE
  5
573A
  8
DANMEN
  6
CONTINUOUS
 10
143.55748172184639
 20
265.93922032196582
 30
0.0
 11
142.5181118887578
 21
266.9785881850101
 31
0.0
  0
LINE
  5
573B
  8
DANMEN
  6
CONTINUOUS
 10
143.55748172184639
 20
263.69415845308691
 30
0.0
 11
140.2730457645311
 21
266.9785881850101
 31
0.0
  0
LINE
  5
573C
  8
DANMEN
  6
CONTINUOUS
 10
143.55748172184639
 20
261.44909658420789
 30
0.0
 11
138.02797964030441
 21
266.9785881850101
 31
0.0
  0
LINE
  5
573D
  8
DANMEN
  6
CONTINUOUS
 10
142.78275893705879
 20
259.97875603168973
 30
0.0
 11
135.7829135160778
 21
266.9785881850101
 31
0.0
  0
LINE
  5
573E
  8
DANMEN
  6
CONTINUOUS
 10
143.55751223942451
 20
260.47865684956082
 30
0.0
 11
143.55751223942451
 21
271.97865684956082
 31
0.0
  0
LINE
  5
573F
  8
DANMEN
  6
CONTINUOUS
 10
144.85751529118221
 20
261.62866886585721
 30
0.0
 11
144.85751529118221
 21
283.77864464252968
 31
0.0
  0
ARC
  5
5740
  8
DANMEN
  6
CONTINUOUS
 10
144.0575274982136
 20
260.47865684956082
 30
0.0
 40
0.5
 50
180.00003597217881
 51
269.99996334457552
  0
ARC
  5
5741
  8
DANMEN
  6
CONTINUOUS
 10
136.55748172184639
 20
258.97875603168978
 30
0.0
 40
1.0
 50
89.999909386306911
 51
179.9998914002187
  0
LINE
  5
5742
  8
DANMEN
  6
CONTINUOUS
 10
143.55748172184639
 20
265.24346596314052
 30
0.0
 11
138.2927817692424
 21
259.97875603168973
 31
0.0
  0
LINE
  5
5743
  8
DANMEN
  6
CONTINUOUS
 10
143.55748172184639
 20
262.99839983891388
 30
0.0
 11
140.53784363812139
 21
259.97875603168973
 31
0.0
  0
LINE
  5
5744
  8
DANMEN
  6
CONTINUOUS
 10
143.55748172184639
 20
260.7533337146873
 30
0.0
 11
142.78290550700041
 21
259.97875603168973
 31
0.0
  0
LINE
  5
5745
  8
DANMEN
  6
CONTINUOUS
 10
140.5376928128322
 20
259.97875603168973
 30
0.0
 11
135.55748196261021
 21
264.95895744231069
 31
0.0
  0
LINE
  5
5746
  8
DANMEN
  6
CONTINUOUS
 10
138.29262668860559
 20
259.97875603168973
 30
0.0
 11
135.5574822302481
 21
262.71389530579438
 31
0.0
  0
LINE
  5
5747
  8
DANMEN
  6
CONTINUOUS
 10
136.14415322075681
 20
259.88216355839569
 30
0.0
 11
135.5574824978859
 21
260.46883316927801
 31
0.0
  0
LINE
  5
5748
  8
DANMEN
  6
CONTINUOUS
 10
143.55748172184639
 20
259.97875603168973
 30
0.0
 11
136.55748172184639
 21
259.97875603168973
 31
0.0
  0
ARC
  5
5749
  8
DANMEN
  6
CONTINUOUS
 10
144.05754275700261
 20
285.4786110731938
 30
0.0
 40
0.5
 50
89.999982013910966
 51
179.99996402782111
  0
LINE
  5
574A
  8
DANMEN
  6
CONTINUOUS
 10
141.1575030841511
 20
285.97865684956088
 30
0.0
 11
148.85746951481519
 21
285.97865684956088
 31
0.0
  0
LINE
  5
574B
  8
DANMEN
  6
CONTINUOUS
 10
143.00749392887769
 20
287.62866600483432
 30
0.0
 11
154.55751223942451
 21
287.62866600483432
 31
0.0
  0
LINE
  5
574C
  8
DANMEN
  6
CONTINUOUS
 10
143.55752749821349
 20
272.97865684956082
 30
0.0
 11
143.55752749821349
 21
285.47865684956082
 31
0.0
  0
LINE
  5
574D
  8
DANMEN
  6
CONTINUOUS
 10
127.5575122394245
 20
271.978916248975
 30
0.0
 11
142.55751223942451
 21
271.978916248975
 31
0.0
  0
LINE
  5
574E
  8
DANMEN
  6
CONTINUOUS
 10
143.55748172184639
 20
266.9785881850101
 30
0.0
 11
135.55748172184639
 21
266.9785881850101
 31
0.0
  0
LINE
  5
574F
  8
DANMEN
  6
CONTINUOUS
 10
136.55751223942451
 20
267.978916248975
 30
0.0
 11
142.55751223942451
 21
267.978916248975
 31
0.0
  0
LINE
  5
5750
  8
DANMEN
  6
CONTINUOUS
 10
136.55751223942451
 20
270.97891624897483
 30
0.0
 11
142.55751223942451
 21
270.97891624897483
 31
0.0
  0
LINE
  5
5751
  8
DANMEN
  6
CONTINUOUS
 10
136.31235317941091
 20
266.9785881850101
 30
0.0
 11
135.5574818118362
 21
266.22371538663259
 31
0.0
  0
LINE
  5
5752
  8
DANMEN
  6
CONTINUOUS
 10
136.55751223942451
 20
270.97891624897483
 30
0.0
 11
136.55751223942451
 21
267.978916248975
 31
0.0
  0
LINE
  5
5753
  8
DANMEN
  6
CONTINUOUS
 10
142.55751223942451
 20
270.97891624897483
 30
0.0
 11
142.55751223942451
 21
267.978916248975
 31
0.0
  0
LINE
  5
5754
  8
DANMEN
  6
CONTINUOUS
 10
143.05751223942451
 20
271.97865684956082
 30
0.0
 11
143.55751223942451
 21
271.97865684956082
 31
0.0
  0
ARC
  5
5755
  8
DANMEN
  6
CONTINUOUS
 10
143.0575274982136
 20
272.47865398853799
 30
0.0
 40
0.5
 50
89.999982013910966
 51
269.9998914002179
  0
LINE
  5
5756
  8
DANMEN
  6
CONTINUOUS
 10
143.05751223942451
 20
272.97865684956082
 30
0.0
 11
143.55752749821349
 21
272.97865684956082
 31
0.0
  0
LINE
  5
5757
  8
DANMEN
  6
CONTINUOUS
 10
134.85746951481511
 20
286.97865684956082
 30
0.0
 11
136.2575091876667
 21
286.97865684956082
 31
0.0
  0
LINE
  5
5758
  8
DANMEN
  6
CONTINUOUS
 10
134.85746951481511
 20
285.97864159077182
 30
0.0
 11
137.9575061359088
 21
285.97864159077182
 31
0.0
  0
LINE
  5
5759
  8
DANMEN
  6
CONTINUOUS
 10
134.55748172184639
 20
286.67865379780312
 30
0.0
 11
134.55748172184639
 21
286.27864464252963
 31
0.0
  0
ARC
  5
575A
  8
DANMEN
  6
CONTINUOUS
 10
134.85746951481511
 20
286.67865379780312
 30
0.0
 40
0.2999999523162842
 50
89.999982013910966
 51
179.99996402782111
  0
ARC
  5
575B
  8
DANMEN
  6
CONTINUOUS
 10
134.85746951481511
 20
286.27864464252963
 30
0.0
 40
0.2999999523162842
 50
179.99996402782111
 51
270.00000068324448
  0
LINE
  5
575C
  8
DANMEN
  6
CONTINUOUS
 10
137.75750918766661
 20
289.27864464252963
 30
0.0
 11
137.75750918766661
 21
288.03258141010781
 31
0.0
  0
LINE
  5
575D
  8
DANMEN
  6
CONTINUOUS
 10
136.2575091876667
 20
289.27864464252963
 30
0.0
 11
136.2575091876667
 21
286.97865684956082
 31
0.0
  0
LINE
  5
575E
  8
DANMEN
  6
CONTINUOUS
 10
138.4575061359088
 20
286.94171532124062
 30
0.0
 11
138.4575061359088
 21
286.47865684956082
 31
0.0
  0
ARC
  5
575F
  8
DANMEN
  6
CONTINUOUS
 10
137.9575061359088
 20
286.47865684956082
 30
0.0
 40
0.5
 50
270.00001798608889
 51
0.0
  0
ARC
  5
5760
  8
DANMEN
  6
CONTINUOUS
 10
138.75750918766661
 20
288.03258141010781
 30
0.0
 40
1.0
 50
180.00001866933439
 51
245.37563876297449
  0
ARC
  5
5761
  8
DANMEN
  6
CONTINUOUS
 10
138.2575091876667
 20
286.94171532124062
 30
0.0
 40
0.199999988079071
 50
0.0
 51
65.375674735154149
  0
LINE
  5
5762
  8
DANMEN
  6
CONTINUOUS
 10
141.3575000323932
 20
288.03258141010781
 30
0.0
 11
141.3575000323932
 21
289.27864464252963
 31
0.0
  0
LINE
  5
5763
  8
DANMEN
  6
CONTINUOUS
 10
140.65750308415099
 20
286.47865684956082
 30
0.0
 11
140.65750308415099
 21
286.94171532124062
 31
0.0
  0
ARC
  5
5764
  8
DANMEN
  6
CONTINUOUS
 10
141.1575030841511
 20
286.47865684956082
 30
0.0
 40
0.5
 50
179.99996402782111
 51
269.99994604173111
  0
ARC
  5
5765
  8
DANMEN
  6
CONTINUOUS
 10
140.3575000323932
 20
288.03258141010781
 30
0.0
 40
1.0
 50
294.6243799063601
 51
0.0
  0
ARC
  5
5766
  8
DANMEN
  6
CONTINUOUS
 10
140.8575000323932
 20
286.94171532124062
 30
0.0
 40
0.199999988079071
 50
114.6243439341807
 51
180.00001866933439
  0
LINE
  5
5767
  8
DANMEN
  6
CONTINUOUS
 10
143.00749392887769
 20
289.27864464252963
 30
0.0
 11
143.00749392887769
 21
287.62866600483432
 31
0.0
  0
LINE
  5
5768
  8
DANMEN
  6
CONTINUOUS
 10
150.35746951481511
 20
285.97867210835
 30
0.0
 11
150.35746951481511
 21
282.97867210834988
 31
0.0
  0
LINE
  5
5769
  8
DANMEN
  6
CONTINUOUS
 10
148.85746951481519
 20
285.97867210835
 30
0.0
 11
148.85746951481519
 21
283.47867210834983
 31
0.0
  0
ARC
  5
576A
  8
DANMEN
  6
CONTINUOUS
 10
145.85746951481511
 20
282.97867210834988
 30
0.0
 40
0.5
 50
89.999982013910966
 51
179.99996402782111
  0
LINE
  5
576B
  8
DANMEN
  6
CONTINUOUS
 10
145.85746951481511
 20
281.97867210835
 30
0.0
 11
149.35746951481511
 21
281.97867210835
 31
0.0
  0
LINE
  5
576C
  8
DANMEN
  6
CONTINUOUS
 10
145.85746951481511
 20
283.47867210834983
 30
0.0
 11
148.85746951481519
 21
283.47867210834983
 31
0.0
  0
LINE
  5
576D
  8
DANMEN
  6
CONTINUOUS
 10
145.35746951481511
 20
282.97867210834988
 30
0.0
 11
145.35746951481511
 21
282.47867210835
 31
0.0
  0
ARC
  5
576E
  8
DANMEN
  6
CONTINUOUS
 10
145.85746951481511
 20
282.47867210835
 30
0.0
 40
0.5
 50
179.99996402782111
 51
270.00000068324448
  0
ARC
  5
576F
  8
DANMEN
  6
CONTINUOUS
 10
149.35746951481511
 20
282.97867210834988
 30
0.0
 40
1.0
 50
270.00001798608889
 51
0.0
  0
LINE
  5
5770
  8
DANMEN
  6
CONTINUOUS
 10
144.85753054997139
 20
283.77864464252968
 30
0.0
 11
147.85751529118221
 21
283.77864464252968
 31
0.0
  0
LINE
  5
5771
  8
DANMEN
  6
CONTINUOUS
 10
144.85753054997139
 20
285.07863243549838
 30
0.0
 11
147.85751529118221
 21
285.07863243549838
 31
0.0
  0
LINE
  5
5772
  8
DANMEN
  6
CONTINUOUS
 10
144.0575274982136
 20
285.97865684956088
 30
0.0
 11
144.85753054997139
 21
285.97865684956088
 31
0.0
  0
LINE
  5
5773
  8
DANMEN
  6
CONTINUOUS
 10
144.85753054997139
 20
285.07863243549838
 30
0.0
 11
144.85753054997139
 21
285.97865684956088
 31
0.0
  0
LINE
  5
5774
  8
DANMEN
  6
CONTINUOUS
 10
148.3575152911823
 20
284.27864464252963
 30
0.0
 11
148.3575152911823
 21
284.57863243549832
 31
0.0
  0
ARC
  5
5775
  8
DANMEN
  6
CONTINUOUS
 10
147.85753054997139
 20
284.57858665913108
 30
0.0
 40
0.5
 50
359.99998201391088
 51
89.999927372397593
  0
ARC
  5
5776
  8
DANMEN
  6
CONTINUOUS
 10
147.85753054997139
 20
284.2785988661625
 30
0.0
 40
0.5
 50
269.99996334457552
 51
359.99992737243991
  0
LINE
  5
5777
  8
DANMEN
  6
CONTINUOUS
 10
154.55751223942451
 20
288.47865684956082
 30
0.0
 11
154.55751223942451
 21
287.62866600483432
 31
0.0
  0
ARC
  5
5778
  8
DANMEN
  6
CONTINUOUS
 10
155.05751223942451
 20
288.47865684956082
 30
0.0
 40
0.5
 50
89.999982013910966
 51
179.99996402782111
  0
LINE
  5
5779
  8
DANMEN
  6
CONTINUOUS
 10
178.55751223942451
 20
260.47865684956082
 30
0.0
 11
178.55751223942451
 21
274.97865684956082
 31
0.0
  0
LINE
  5
577A
  8
DANMEN
  6
CONTINUOUS
 10
176.90751262089421
 20
261.62866886585721
 30
0.0
 11
176.90751262089421
 21
273.17865379780312
 31
0.0
  0
ARC
  5
577B
  8
DANMEN
  6
CONTINUOUS
 10
178.0575122990291
 20
260.47865684956082
 30
0.0
 40
0.5
 50
269.99996334457552
 51
359.99992737243991
  0
LINE
  5
577C
  8
DANMEN
  6
CONTINUOUS
 10
174.25751300236399
 20
273.17865761250022
 30
0.0
 11
176.90751262089421
 21
273.17865761250022
 31
0.0
  0
LINE
  5
577D
  8
DANMEN
  6
CONTINUOUS
 10
174.55751223942451
 20
274.47865684956082
 30
0.0
 11
176.90751262089421
 21
274.47865684956082
 31
0.0
  0
LINE
  5
577E
  8
DANMEN
  6
CONTINUOUS
 10
175.05751223942451
 20
274.97867210834983
 30
0.0
 11
183.0575122394244
 21
274.97867210834983
 31
0.0
  0
LINE
  5
577F
  8
DANMEN
  6
CONTINUOUS
 10
174.55751223942451
 20
276.67866905659213
 30
0.0
 11
181.8575000323932
 21
276.67866905659213
 31
0.0
  0
ARC
  5
5780
  8
DANMEN
  6
CONTINUOUS
 10
175.3575000323932
 20
288.67866905659213
 30
0.0
 40
1.0
 50
270.00001798608889
 51
0.0000186693320283
  0
LINE
  5
5781
  8
DANMEN
  6
CONTINUOUS
 10
176.3575124301594
 20
276.97865684956082
 30
0.0
 11
176.3575124301594
 21
277.77864464252968
 31
0.0
  0
ARC
  5
5782
  8
DANMEN
  6
CONTINUOUS
 10
174.25751395603831
 20
277.27858360737332
 30
0.0
 40
1.0
 50
89.999982013910966
 51
179.99996402782111
  0
LINE
  5
5783
  8
DANMEN
  6
CONTINUOUS
 10
174.55751223942451
 20
274.47865684956082
 30
0.0
 11
174.55751223942451
 21
276.97865684956082
 31
0.0
  0
LINE
  5
5784
  8
DANMEN
  6
CONTINUOUS
 10
173.25751300236399
 20
274.17865761250022
 30
0.0
 11
173.25751300236399
 21
277.27862938374062
 31
0.0
  0
LINE
  5
5785
  8
DANMEN
  6
CONTINUOUS
 10
174.55751223942451
 20
276.97865684956082
 30
0.0
 11
176.3575124301594
 21
276.97865684956082
 31
0.0
  0
ARC
  5
5786
  8
DANMEN
  6
CONTINUOUS
 10
174.25751395603831
 20
274.17865475147732
 30
0.0
 40
1.0
 50
180.00003597217881
 51
269.99996334457552
  0
LINE
  5
5787
  8
DANMEN
  6
CONTINUOUS
 10
174.55751223942451
 20
276.67866905659213
 30
0.0
 11
174.55751223942451
 21
275.47867210835
 31
0.0
  0
ARC
  5
5788
  8
DANMEN
  6
CONTINUOUS
 10
175.05751223942451
 20
275.47867210835
 30
0.0
 40
0.5
 50
179.99996402782111
 51
270.00000068324448
  0
LINE
  5
5789
  8
DANMEN
  6
CONTINUOUS
 10
164.85750003239329
 20
287.62866600483432
 30
0.0
 11
170.25750918766661
 21
287.62866600483432
 31
0.0
  0
ARC
  5
578A
  8
DANMEN
  6
CONTINUOUS
 10
175.85751338383361
 20
277.7785988661625
 30
0.0
 40
0.5
 50
359.99998201391088
 51
89.999927372397593
  0
LINE
  5
578B
  8
DANMEN
  6
CONTINUOUS
 10
174.25751300236399
 20
278.27862938374062
 30
0.0
 11
175.8575124301594
 21
278.27862938374062
 31
0.0
  0
ARC
  5
578C
  8
DANMEN
  6
CONTINUOUS
 10
170.25750918766661
 20
288.62866600483432
 30
0.0
 40
1.0
 50
270.00001798608889
 51
0.0
  0
ARC
  5
578D
  8
DANMEN
  6
CONTINUOUS
 10
173.75750918766661
 20
288.67866905659213
 30
0.0
 40
1.0
 50
179.99990938630759
 51
269.99994604173111
  0
LINE
  5
578E
  8
DANMEN
  6
CONTINUOUS
 10
175.3575000323932
 20
287.67863853901389
 30
0.0
 11
173.75750918766661
 21
287.67863853901389
 31
0.0
  0
LINE
  5
578F
  8
DANMEN
  6
CONTINUOUS
 10
181.8575000323932
 20
285.97867210835
 30
0.0
 11
181.8575000323932
 21
276.67866905659213
 31
0.0
  0
LINE
  5
5790
  8
DANMEN
  6
CONTINUOUS
 10
177.4075126208941
 20
274.97865684956082
 30
0.0
 11
178.55751223942451
 21
274.97865684956082
 31
0.0
  0
ARC
  5
5791
  8
DANMEN
  6
CONTINUOUS
 10
177.4075135745685
 20
274.47865398853793
 30
0.0
 40
0.5
 50
89.999982013910966
 51
179.99996402782111
  0
ARC
  5
5792
  8
DANMEN
  6
CONTINUOUS
 10
183.0575122394244
 20
275.47867210835
 30
0.0
 40
0.5
 50
270.00001798608889
 51
0.0
  0
LINE
  5
5793
  8
DANMEN
  6
CONTINUOUS
 10
178.8575000323932
 20
287.62866600483432
 30
0.0
 11
181.90751834294011
 21
287.62866600483432
 31
0.0
  0
ARC
  5
5794
  8
DANMEN
  6
CONTINUOUS
 10
178.8575000323932
 20
288.62866600483432
 30
0.0
 40
1.0
 50
179.99996402782111
 51
270.00000068324448
  0
LINE
  5
5795
  8
DANMEN
  6
PHANTOM
 10
193.5575122394244
 20
259.978916248975
 30
0.0
 11
193.5575122394244
 21
215.978916248975
 31
0.0
  0
LINE
  5
5796
  8
SUNPO
  6
CONTINUOUS
 10
218.55751223942451
 20
199.782138905225
 30
0.0
 11
228.55751223942451
 21
199.782138905225
 31
0.0
  0
LINE
  5
5797
  8
SUNPO
  6
CONTINUOUS
 10
218.55751223942451
 20
202.7821389052248
 30
0.0
 11
228.55751223942451
 21
202.7821389052248
 31
0.0
  0
LINE
  5
5798
  8
SUNPO
  6
CONTINUOUS
 10
218.55751223942451
 20
210.78213890522491
 30
0.0
 11
228.55751223942451
 21
210.78213890522491
 31
0.0
  0
LINE
  5
5799
  8
SUNPO
  6
CONTINUOUS
 10
223.5575122394244
 20
210.78213890522491
 30
0.0
 11
223.5575122394244
 21
202.7821389052248
 31
0.0
  0
LINE
  5
579A
  8
SUNPO
  6
CONTINUOUS
 10
218.55751223942451
 20
203.782138905225
 30
0.0
 11
218.55751223942451
 21
198.782138905225
 31
0.0
  0
LINE
  5
579B
  8
SUNPO
  6
CONTINUOUS
 10
218.55751223942451
 20
211.782138905225
 30
0.0
 11
218.55751223942451
 21
209.782138905225
 31
0.0
  0
TEXT
  5
579C
  8
SUNPO
  6
CONTINUOUS
 10
194.2785205402057
 20
233.3343849989748
 30
0.0
 40
2.5
  1
20
  7
MX_NOTE_STANDARD
  0
POLYLINE
  5
579D
  8
SUNPO
  6
BYBLOCK
 66
     1
 10
0.0
 20
0.0
 30
0.0
 70
     1
 40
1.159999999999999
 41
1.159999999999999
  0
VERTEX
  5
5BB2
  8
SUNPO
  6
BYBLOCK
 10
203.41251223942439
 20
232.83438499897491
 30
0.0
 42
1.0
  0
VERTEX
  5
5BB3
  8
SUNPO
  6
BYBLOCK
 10
203.70251223942441
 20
232.83438499897491
 30
0.0
 42
1.0
  0
SEQEND
  5
5BB4
  8
SUNPO
  6
BYBLOCK
  0
LINE
  5
57A1
  8
SUNPO
  6
CONTINUOUS
 10
228.55751223942451
 20
203.782138905225
 30
0.0
 11
228.55751223942451
 21
198.782138905225
 31
0.0
  0
LINE
  5
57A2
  8
SUNPO
  6
CONTINUOUS
 10
228.55751223942451
 20
211.782138905225
 30
0.0
 11
228.55751223942451
 21
209.782138905225
 31
0.0
  0
LINE
  5
57A3
  8
SUNPO
  6
CONTINUOUS
 10
218.55751414677309
 20
254.978687367139
 30
0.0
 11
228.55749698063551
 21
254.978687367139
 31
0.0
  0
LINE
  5
57A4
  8
SUNPO
  6
CONTINUOUS
 10
223.5575233661923
 20
259.9786745966436
 30
0.0
 11
228.55751761140709
 21
254.97868035142881
 31
0.0
  0
TEXT
  5
57A5
  8
SUNPO
  6
CONTINUOUS
 10
213.0575122394244
 20
265.81224958230831
 30
0.0
 40
2.5
  1
15
 50
90.0
  7
MX_NOTE_STANDARD
  0
LINE
  5
57A6
  8
SUNPO
  6
CONTINUOUS
 10
213.5575122394244
 20
274.97867210834983
 30
0.0
 11
213.5575122394244
 21
259.978916248975
 31
0.0
  0
LINE
  5
57A7
  8
SUNPO
  6
CONTINUOUS
 10
195.0575122394244
 20
259.978916248975
 30
0.0
 11
223.5575122394244
 21
259.978916248975
 31
0.0
  0
POLYLINE
  5
57A8
  8
SUNPO
  6
BYBLOCK
 66
     1
 10
0.0
 20
0.0
 30
0.0
 70
     1
 40
1.159999999999999
 41
1.159999999999999
  0
VERTEX
  5
5BB5
  8
SUNPO
  6
BYBLOCK
 10
213.5575122394244
 20
260.12391624897481
 30
0.0
 42
1.0
  0
VERTEX
  5
5BB6
  8
SUNPO
  6
BYBLOCK
 10
213.5575122394244
 20
259.83391624897502
 30
0.0
 42
1.0
  0
SEQEND
  5
5BB7
  8
SUNPO
  6
BYBLOCK
  0
LINE
  5
57AC
  8
SUNPO
  6
CONTINUOUS
 10
218.55750787896631
 20
254.9786806886035
 30
0.0
 11
223.5575017870062
 21
259.9786745966436
 31
0.0
  0
POLYLINE
  5
57AD
  8
SUNPO
  6
BYBLOCK
 66
     1
 10
0.0
 20
0.0
 30
0.0
 70
     1
 40
1.159999999999999
 41
1.159999999999999
  0
VERTEX
  5
5BB8
  8
SUNPO
  6
BYBLOCK
 10
213.5575122394244
 20
274.83367210835002
 30
0.0
 42
1.0
  0
VERTEX
  5
5BB9
  8
SUNPO
  6
BYBLOCK
 10
213.5575122394244
 20
275.12367210834998
 30
0.0
 42
1.0
  0
SEQEND
  5
5BBA
  8
SUNPO
  6
BYBLOCK
  0
POLYLINE
  5
57B1
  8
SUNPO
  6
BYBLOCK
 66
     1
 10
0.0
 20
0.0
 30
0.0
 70
     1
 40
1.159999999999999
 41
1.159999999999999
  0
VERTEX
  5
5BBB
  8
SUNPO
  6
BYBLOCK
 10
213.5575122394244
 20
275.12367210834998
 30
0.0
 42
1.0
  0
VERTEX
  5
5BBC
  8
SUNPO
  6
BYBLOCK
 10
213.5575122394244
 20
274.83367210835002
 30
0.0
 42
1.0
  0
SEQEND
  5
5BBD
  8
SUNPO
  6
BYBLOCK
  0
LINE
  5
57B5
  8
DANMEN
  6
CONTINUOUS
 10
183.5575122394244
 20
301.97864159077182
 30
0.0
 11
203.05749698063531
 21
301.97864159077182
 31
0.0
  0
LINE
  5
57B6
  8
DANMEN
  6
CONTINUOUS
 10
165.2075061359088
 20
303.7786141249515
 30
0.0
 11
201.90748782536201
 21
303.7786141249515
 31
0.0
  0
LINE
  5
57B7
  8
SUNPO
  6
CONTINUOUS
 10
185.0575122394244
 20
317.97867210835
 30
0.0
 11
223.5575122394244
 21
317.97867210835
 31
0.0
  0
LINE
  5
57B8
  8
DANMEN
  6
CONTINUOUS
 10
163.55750493930881
 20
307.97863497755571
 30
0.0
 11
149.0077420819996
 21
306.52367394410322
 31
0.0
  0
LINE
  5
57B9
  8
DANMEN
  6
CONTINUOUS
 10
163.55749562668339
 20
306.32039559967399
 30
0.0
 11
150.2074984569532
 21
304.98540987728472
 31
0.0
  0
LINE
  5
57BA
  8
DANMEN
  6
CONTINUOUS
 10
148.85675138930921
 20
296.85031643766422
 30
0.0
 11
140.45746641564051
 21
296.01038809123719
 31
0.0
  0
LINE
  5
57BB
  8
DANMEN
  6
CONTINUOUS
 10
140.4574908771198
 20
296.01039513081082
 30
0.0
 11
140.4574908771198
 21
291.92674644917031
 31
0.0
  0
ARC
  5
57BC
  8
DANMEN
  6
CONTINUOUS
 10
137.6574878253619
 20
294.57466515034213
 30
0.0
 40
1.0
 50
359.99917315946249
 51
95.710621216688708
  0
LINE
  5
57BD
  8
DANMEN
  6
CONTINUOUS
 10
138.75750918766661
 20
290.27864464252968
 30
0.0
 11
140.3575000323932
 21
290.27864464252968
 31
0.0
  0
LINE
  5
57BE
  8
DANMEN
  6
CONTINUOUS
 10
138.6574878253619
 20
294.57466515034213
 30
0.0
 11
138.6574878253619
 21
291.77663048237332
 31
0.0
  0
LINE
  5
57BF
  8
DANMEN
  6
CONTINUOUS
 10
148.55751223942451
 20
298.47735985249062
 30
0.0
 11
148.55751223942451
 21
306.02614220112332
 31
0.0
  0
LINE
  5
57C0
  8
DANMEN
  6
CONTINUOUS
 10
150.2075061359088
 20
298.34285362690463
 30
0.0
 11
150.2075061359088
 21
304.9853859755375
 31
0.0
  0
ARC
  5
57C1
  8
DANMEN
  6
CONTINUOUS
 10
148.7075061359088
 20
298.34286888569358
 30
0.0
 40
1.5
 50
275.71054790584009
 51
359.99947562331528
  0
ARC
  5
57C2
  8
DANMEN
  6
CONTINUOUS
 10
149.05751223942451
 20
306.02615745991233
 30
0.0
 40
0.5
 50
95.710566575174795
 51
180.000401159928
  0
LINE
  5
57C3
  8
DANMEN
  6
CONTINUOUS
 10
163.55751223942451
 20
307.97862633198281
 30
0.0
 11
163.55751223942451
 21
317.47862633198281
 31
0.0
  0
LINE
  5
57C4
  8
DANMEN
  6
CONTINUOUS
 10
165.05751223942451
 20
307.97862633198281
 30
0.0
 11
165.05751223942451
 21
317.47862633198281
 31
0.0
  0
LINE
  5
57C5
  8
DANMEN
  6
CONTINUOUS
 10
183.5575122394244
 20
317.97867210835
 30
0.0
 11
183.5575122394244
 21
303.778720936475
 31
0.0
  0
LINE
  5
57C6
  8
DANMEN
  6
CONTINUOUS
 10
177.0972308673542
 20
291.57863243549838
 30
0.0
 11
175.9575061359088
 21
291.57863243549838
 31
0.0
  0
LINE
  5
57C7
  8
DANMEN
  6
CONTINUOUS
 10
164.85750003239329
 20
302.12862022846718
 30
0.0
 11
181.90751834294011
 21
302.12862022846718
 31
0.0
  0
LINE
  5
57C8
  8
DANMEN
  6
CONTINUOUS
 10
173.15750308415099
 20
291.57863243549838
 30
0.0
 11
172.0177783527057
 21
291.57863243549838
 31
0.0
  0
ARC
  5
57C9
  8
DANMEN
  6
CONTINUOUS
 10
173.25750918766661
 20
290.00925072163119
 30
0.0
 40
2.0
 50
128.30630567198341
 51
179.99990938630759
  0
LINE
  5
57CA
  8
DANMEN
  6
CONTINUOUS
 10
173.4575061359088
 20
291.27862938374062
 30
0.0
 11
173.4575061359088
 21
291.01556786030312
 31
0.0
  0
LINE
  5
57CB
  8
DANMEN
  6
CONTINUOUS
 10
175.65750308415099
 20
291.01556786030312
 30
0.0
 11
175.65750308415099
 21
291.27862938374062
 31
0.0
  0
ARC
  5
57CC
  8
DANMEN
  6
CONTINUOUS
 10
175.3575000323932
 20
289.92473228901389
 30
0.0
 40
1.0
 50
0.0000186693320283
 51
65.375620093639839
  0
ARC
  5
57CD
  8
DANMEN
  6
CONTINUOUS
 10
175.8575000323932
 20
291.01559837788108
 30
0.0
 40
0.199999988079071
 50
180.00003597217801
 51
245.3757107073321
  0
ARC
  5
57CE
  8
DANMEN
  6
CONTINUOUS
 10
173.75750918766661
 20
289.92473228901389
 30
0.0
 40
1.0
 50
114.6243439341807
 51
179.99996402782111
  0
ARC
  5
57CF
  8
DANMEN
  6
CONTINUOUS
 10
173.25750918766661
 20
291.01559837788108
 30
0.0
 40
0.199999988079071
 50
294.6243799063601
 51
0.0000186693320283
  0
ARC
  5
57D0
  8
DANMEN
  6
CONTINUOUS
 10
175.9575061359088
 20
291.27865990131869
 30
0.0
 40
0.2999999523162842
 50
89.999982013910966
 51
179.99996402782111
  0
ARC
  5
57D1
  8
DANMEN
  6
CONTINUOUS
 10
173.15750308415099
 20
291.27865990131869
 30
0.0
 40
0.2999999523162842
 50
0.0000186693320283
 51
90.00003665542431
  0
LINE
  5
57D2
  8
DANMEN
  6
CONTINUOUS
 10
165.2075061359088
 20
306.32863243549832
 30
0.0
 11
169.05749698063551
 21
306.32863243549832
 31
0.0
  0
LINE
  5
57D3
  8
DANMEN
  6
CONTINUOUS
 10
165.05749698063539
 20
307.97864159077182
 30
0.0
 11
169.05749698063551
 21
307.97864159077182
 31
0.0
  0
LINE
  5
57D4
  8
DANMEN
  6
CONTINUOUS
 10
165.20752139469801
 20
306.3286171767092
 30
0.0
 11
165.20752139469801
 21
303.7786141249515
 31
0.0
  0
ARC
  5
57D5
  8
DANMEN
  6
CONTINUOUS
 10
169.05751223942451
 20
306.8286476942875
 30
0.0
 40
0.5
 50
270.00012726911569
 51
0.000072627560058
  0
LINE
  5
57D6
  8
DANMEN
  6
CONTINUOUS
 10
169.55749698063551
 20
307.47864159077182
 30
0.0
 11
169.55749698063551
 21
306.82863243549832
 31
0.0
  0
ARC
  5
57D7
  8
DANMEN
  6
CONTINUOUS
 10
169.05751223942451
 20
307.47865684956082
 30
0.0
 40
0.5
 50
0.000072627560058
 51
89.999982013910966
  0
ARC
  5
57D8
  8
DANMEN
  6
CONTINUOUS
 10
175.8575000323932
 20
290.00925072163119
 30
0.0
 40
2.0
 50
0.0000186693320283
 51
51.693675431310453
  0
LINE
  5
57D9
  8
DANMEN
  6
CONTINUOUS
 10
165.05751223942451
 20
317.97867210835
 30
0.0
 11
183.5575122394244
 21
317.97867210835
 31
0.0
  0
LINE
  5
57DA
  8
DANMEN
  6
CONTINUOUS
 10
164.05748172184639
 20
317.97864159077182
 30
0.0
 11
164.55748172184639
 21
317.97864159077182
 31
0.0
  0
ARC
  5
57DB
  8
DANMEN
  6
CONTINUOUS
 10
164.05751223942451
 20
317.47864159077182
 30
0.0
 40
0.5
 50
89.999982013910966
 51
180.00176719776209
  0
ARC
  5
57DC
  8
DANMEN
  6
CONTINUOUS
 10
164.55751223942451
 20
317.47864159077182
 30
0.0
 40
0.5
 50
359.99825147240682
 51
89.999982013910966
  0
TEXT
  5
57DD
  8
SUNPO
  6
CONTINUOUS
 10
213.0575122394244
 20
311.52033877501663
 30
0.0
 40
2.5
  1
10
 50
90.0
  7
MX_NOTE_STANDARD
  0
LINE
  5
57DE
  8
SUNPO
  6
CONTINUOUS
 10
213.5575122394244
 20
307.97867210834988
 30
0.0
 11
213.5575122394244
 21
317.97867210835
 31
0.0
  0
LINE
  5
57DF
  8
SUNPO
  6
CONTINUOUS
 10
205.0575122394244
 20
301.97867210834983
 30
0.0
 11
213.5575122394244
 21
301.97867210834983
 31
0.0
  0
LINE
  5
57E0
  8
SUNPO
  6
CONTINUOUS
 10
205.0575122394244
 20
307.97867210834988
 30
0.0
 11
213.5575122394244
 21
307.97867210834988
 31
0.0
  0
LINE
  5
57E1
  8
DANMEN
  6
CONTINUOUS
 10
198.05749698063551
 20
307.97862633198281
 30
0.0
 11
203.05749698063531
 21
307.97862633198281
 31
0.0
  0
LINE
  5
57E2
  8
DANMEN
  6
CONTINUOUS
 10
198.05749698063551
 20
306.32863243549832
 30
0.0
 11
201.90748782536201
 21
306.32863243549832
 31
0.0
  0
ARC
  5
57E3
  8
DANMEN
  6
CONTINUOUS
 10
198.0575122394244
 20
306.8286476942875
 30
0.0
 40
0.5
 50
179.99996402782111
 51
269.99994604173111
  0
LINE
  5
57E4
  8
DANMEN
  6
CONTINUOUS
 10
197.55749698063551
 20
306.82863243549832
 30
0.0
 11
197.55749698063551
 21
307.47864159077182
 31
0.0
  0
ARC
  5
57E5
  8
DANMEN
  6
CONTINUOUS
 10
198.0575122394244
 20
307.47865684956082
 30
0.0
 40
0.5
 50
89.999982013910966
 51
179.99996402782111
  0
LINE
  5
57E6
  8
DANMEN
  6
CONTINUOUS
 10
203.55749698063551
 20
302.47864159077182
 30
0.0
 11
203.55749698063551
 21
307.47864159077182
 31
0.0
  0
LINE
  5
57E7
  8
DANMEN
  6
CONTINUOUS
 10
201.90748782536201
 20
303.77862938374062
 30
0.0
 11
201.90748782536201
 21
306.32863243549832
 31
0.0
  0
ARC
  5
57E8
  8
DANMEN
  6
CONTINUOUS
 10
203.05749698063531
 20
302.47865684956088
 30
0.0
 40
0.5
 50
270.00001798608889
 51
0.0000006832454336
  0
ARC
  5
57E9
  8
DANMEN
  6
CONTINUOUS
 10
203.05749698063531
 20
307.47865684956082
 30
0.0
 40
0.5
 50
0.0000179860890374
 51
89.999982013910966
  0
LINE
  5
57EA
  8
SUNPO
  6
CONTINUOUS
 10
213.5575122394244
 20
301.97867210834983
 30
0.0
 11
213.5575122394244
 21
307.97867210834988
 31
0.0
  0
POLYLINE
  5
57EB
  8
SUNPO
  6
BYBLOCK
 66
     1
 10
0.0
 20
0.0
 30
0.0
 70
     1
 40
1.159999999999999
 41
1.159999999999999
  0
VERTEX
  5
5BBE
  8
SUNPO
  6
BYBLOCK
 10
213.5575122394244
 20
302.12367210834998
 30
0.0
 42
1.0
  0
VERTEX
  5
5BBF
  8
SUNPO
  6
BYBLOCK
 10
213.5575122394244
 20
301.83367210835002
 30
0.0
 42
1.0
  0
SEQEND
  5
5BC0
  8
SUNPO
  6
BYBLOCK
  0
POLYLINE
  5
57EF
  8
SUNPO
  6
BYBLOCK
 66
     1
 10
0.0
 20
0.0
 30
0.0
 70
     1
 40
1.159999999999999
 41
1.159999999999999
  0
VERTEX
  5
5BC1
  8
SUNPO
  6
BYBLOCK
 10
213.5575122394244
 20
301.83367210835002
 30
0.0
 42
1.0
  0
VERTEX
  5
5BC2
  8
SUNPO
  6
BYBLOCK
 10
213.5575122394244
 20
302.12367210834998
 30
0.0
 42
1.0
  0
SEQEND
  5
5BC3
  8
SUNPO
  6
BYBLOCK
  0
TEXT
  5
57F3
  8
SUNPO
  6
CONTINUOUS
 10
213.0575122394244
 20
304.14533877501663
 30
0.0
 40
2.5
  1
6
 50
90.0
  7
MX_NOTE_STANDARD
  0
POLYLINE
  5
57F4
  8
SUNPO
  6
BYBLOCK
 66
     1
 10
0.0
 20
0.0
 30
0.0
 70
     1
 40
1.159999999999999
 41
1.159999999999999
  0
VERTEX
  5
5BC4
  8
SUNPO
  6
BYBLOCK
 10
213.5575122394244
 20
308.12367210834992
 30
0.0
 42
1.0
  0
VERTEX
  5
5BC5
  8
SUNPO
  6
BYBLOCK
 10
213.5575122394244
 20
307.83367210835002
 30
0.0
 42
1.0
  0
SEQEND
  5
5BC6
  8
SUNPO
  6
BYBLOCK
  0
POLYLINE
  5
57F8
  8
SUNPO
  6
BYBLOCK
 66
     1
 10
0.0
 20
0.0
 30
0.0
 70
     1
 40
1.159999999999999
 41
1.159999999999999
  0
VERTEX
  5
5BC7
  8
SUNPO
  6
BYBLOCK
 10
213.5575122394244
 20
307.83367210835002
 30
0.0
 42
1.0
  0
VERTEX
  5
5BC8
  8
SUNPO
  6
BYBLOCK
 10
213.5575122394244
 20
308.12367210834992
 30
0.0
 42
1.0
  0
SEQEND
  5
5BC9
  8
SUNPO
  6
BYBLOCK
  0
POLYLINE
  5
57FC
  8
SUNPO
  6
BYBLOCK
 66
     1
 10
0.0
 20
0.0
 30
0.0
 70
     1
 40
1.159999999999999
 41
1.159999999999999
  0
VERTEX
  5
5BCA
  8
SUNPO
  6
BYBLOCK
 10
213.5575122394244
 20
317.83367210835002
 30
0.0
 42
1.0
  0
VERTEX
  5
5BCB
  8
SUNPO
  6
BYBLOCK
 10
213.5575122394244
 20
318.12367210834992
 30
0.0
 42
1.0
  0
SEQEND
  5
5BCC
  8
SUNPO
  6
BYBLOCK
  0
POLYLINE
  5
5800
  8
SUNPO
  6
BYBLOCK
 66
     1
 10
0.0
 20
0.0
 30
0.0
 70
     1
 40
1.159999999999999
 41
1.159999999999999
  0
VERTEX
  5
5BCD
  8
SUNPO
  6
BYBLOCK
 10
223.5575122394244
 20
317.83367210835002
 30
0.0
 42
1.0
  0
VERTEX
  5
5BCE
  8
SUNPO
  6
BYBLOCK
 10
223.5575122394244
 20
318.12367210834992
 30
0.0
 42
1.0
  0
SEQEND
  5
5BCF
  8
SUNPO
  6
BYBLOCK
  0
LINE
  5
5804
  8
DANMEN
  6
CONTINUOUS
 10
272.37353685969168
 20
192.1170725925362
 30
0.0
 11
277.37353685969163
 21
192.1170725925362
 31
0.0
  0
LINE
  5
5805
  8
DANMEN
  6
CONTINUOUS
 10
261.32353380793398
 20
184.11671114997031
 30
0.0
 11
274.37353685969168
 21
184.11671114997031
 31
0.0
  0
LINE
  5
5806
  8
DANMEN
  6
CONTINUOUS
 10
261.32354906672282
 20
190.81708479956751
 30
0.0
 11
275.97352388972098
 21
190.81708479956751
 31
0.0
  0
ARC
  5
5807
  8
DANMEN
  6
CONTINUOUS
 10
273.57353762263108
 20
161.41709090308311
 30
0.0
 40
1.0
 50
89.999982013910966
 51
179.99996402782111
  0
LINE
  5
5808
  8
DANMEN
  6
CONTINUOUS
 10
261.32356432551188
 20
163.11716414527061
 30
0.0
 11
274.37353781336589
 21
163.11716414527061
 31
0.0
  0
LINE
  5
5809
  8
DANMEN
  6
CONTINUOUS
 10
261.32354906672282
 20
159.0671000583564
 30
0.0
 11
272.57353380793393
 21
159.0671000583564
 31
0.0
  0
ARC
  5
580A
  8
DANMEN
  6
CONTINUOUS
 10
272.29640177363211
 20
154.4171338184272
 30
0.0
 40
0.5
 50
15.94538739100205
 51
89.999982013910966
  0
LINE
  5
580B
  8
DANMEN
  6
CONTINUOUS
 10
259.87353685969168
 20
157.11708785132521
 30
0.0
 11
274.37353685969168
 21
157.11708785132521
 31
0.0
  0
LINE
  5
580C
  8
SUNPO
  6
CONTINUOUS
 10
339.66458300226981
 20
102.11701155738
 30
0.0
 11
245.11758593195719
 21
102.11701155738
 31
0.0
  0
LINE
  5
580D
  8
SUNPO
  6
CONTINUOUS
 10
259.37353685969163
 20
112.11696578101279
 30
0.0
 11
299.37353685969168
 21
112.11696578101279
 31
0.0
  0
LINE
  5
580E
  8
SUNPO
  6
CONTINUOUS
 10
259.37353685969163
 20
242.11692000464549
 30
0.0
 11
299.37353685969168
 21
242.11692000464549
 31
0.0
  0
TEXT
  5
580F
  8
SUNPO
  6
CONTINUOUS
 10
266.0277424460316
 20
248.11692000464549
 30
0.0
 40
4.0
  1
中間方立(B)
 41
0.981
  7
MX_NOTE_STANDARD
  0
LINE
  5
5810
  8
DANMEN
  6
CONTINUOUS
 10
251.37356737726981
 20
208.11652232245561
 30
0.0
 11
277.87353685969163
 21
208.11652232245561
 31
0.0
  0
LINE
  5
5811
  8
DANMEN
  6
CONTINUOUS
 10
251.37356737726981
 20
132.11720992163779
 30
0.0
 11
318.478120599926
 21
132.11720992163779
 31
0.0
  0
LINE
  5
5812
  8
DANMEN
  6
CONTINUOUS
 10
251.37356737726981
 20
222.11638594702839
 30
0.0
 11
318.478120599926
 21
222.11638594702839
 31
0.0
  0
LINE
  5
5813
  8
DANMEN
  6
CONTINUOUS
 10
266.37353685969163
 20
216.6170725925362
 30
0.0
 11
277.87353685969163
 21
216.6170725925362
 31
0.0
  0
LINE
  5
5814
  8
DANMEN
  6
CONTINUOUS
 10
260.3735521184808
 20
142.11713362769251
 30
0.0
 11
298.3735521184808
 21
142.11713362769251
 31
0.0
  0
LINE
  5
5815
  8
DANMEN
  6
CONTINUOUS
 10
259.87353685969168
 20
220.11707259253609
 30
0.0
 11
276.87353685969163
 21
220.11707259253609
 31
0.0
  0
LINE
  5
5816
  8
DANMEN
  6
CONTINUOUS
 10
267.37364367121512
 20
215.61708785132521
 30
0.0
 11
276.8735521184808
 21
215.61708785132521
 31
0.0
  0
LINE
  5
5817
  8
DANMEN
  6
CONTINUOUS
 10
267.37353685969163
 20
209.11645747260209
 30
0.0
 11
276.87352160090262
 21
209.11645747260209
 31
0.0
  0
LINE
  5
5818
  8
DANMEN
  6
CONTINUOUS
 10
271.37364367121512
 20
193.11667616204369
 30
0.0
 11
271.37364367121512
 21
208.11652232245561
 31
0.0
  0
LINE
  5
5819
  8
SUNPO
  6
CONTINUOUS
 10
252.77477339662551
 20
107.1170159178382
 30
0.0
 11
247.77477948858541
 21
102.11702200979811
 31
0.0
  0
LINE
  5
581A
  8
SUNPO
  6
CONTINUOUS
 10
247.77477948858541
 20
102.11700043061219
 30
0.0
 11
252.7747737338002
 21
97.117006185397415
 31
0.0
  0
LINE
  5
581B
  8
SUNPO
  6
CONTINUOUS
 10
252.77476671809001
 20
107.11700965003131
 30
0.0
 11
252.77476671809001
 21
97.117026816169073
 31
0.0
  0
LINE
  5
581C
  8
SUNPO
  6
CONTINUOUS
 10
245.11758593195719
 20
112.11696578101279
 30
0.0
 11
259.37353685969163
 21
112.11696578101279
 31
0.0
  0
LINE
  5
581D
  8
SUNPO
  6
CONTINUOUS
 10
249.67508467493039
 20
113.8271545586567
 30
0.0
 11
259.37353276273359
 21
112.1170570273557
 31
0.0
  0
LINE
  5
581E
  8
SUNPO
  6
CONTINUOUS
 10
249.085283793842
 20
110.4827083952312
 30
0.0
 11
249.6750066649422
 21
113.8270781034514
 31
0.0
  0
LINE
  5
581F
  8
SUNPO
  6
CONTINUOUS
 10
259.37353685969163
 20
140.61713362769251
 30
0.0
 11
259.37353685969163
 21
112.11696578101279
 31
0.0
  0
LINE
  5
5820
  8
DANMEN
  6
CONTINUOUS
 10
253.37353685969171
 20
163.11717940405961
 30
0.0
 11
253.37353685969171
 21
184.11682940558541
 31
0.0
  0
LINE
  5
5821
  8
DANMEN
  6
CONTINUOUS
 10
261.32354906672282
 20
190.81708479956751
 30
0.0
 11
261.32354906672282
 21
159.0671000583564
 31
0.0
  0
LINE
  5
5822
  8
DANMEN
  6
CONTINUOUS
 10
259.37353685969163
 20
191.61708785132521
 30
0.0
 11
259.37353685969163
 21
157.61708785132521
 31
0.0
  0
LINE
  5
5823
  8
DANMEN
  6
CONTINUOUS
 10
251.37356737726981
 20
163.11716414527061
 30
0.0
 11
259.37355211848057
 21
163.11716414527061
 31
0.0
  0
LINE
  5
5824
  8
DANMEN
  6
CONTINUOUS
 10
251.37356737726981
 20
157.11716414527061
 30
0.0
 11
259.37353685969163
 21
157.11716414527061
 31
0.0
  0
LINE
  5
5825
  8
DANMEN
  6
CONTINUOUS
 10
251.37356737726981
 20
152.11716414527061
 30
0.0
 11
259.37355211848057
 21
152.11716414527061
 31
0.0
  0
ARC
  5
5826
  8
DANMEN
  6
CONTINUOUS
 10
259.87353685969168
 20
157.61708785132521
 30
0.0
 40
0.5
 50
179.99996402782111
 51
270.00000068324448
  0
LINE
  5
5827
  8
DANMEN
  6
CONTINUOUS
 10
260.67355517023861
 20
143.4171338184272
 30
0.0
 11
271.67355230921561
 21
143.4171338184272
 31
0.0
  0
LINE
  5
5828
  8
DANMEN
  6
CONTINUOUS
 10
260.67355517023861
 20
153.8171334369575
 30
0.0
 11
260.67355517023861
 21
143.4171338184272
 31
0.0
  0
LINE
  5
5829
  8
DANMEN
  6
CONTINUOUS
 10
259.37355211848057
 20
154.61713362769251
 30
0.0
 11
259.37355211848057
 21
143.11713362769251
 31
0.0
  0
ARC
  5
582A
  8
DANMEN
  6
CONTINUOUS
 10
260.3735521184808
 20
143.11713362769251
 30
0.0
 40
1.0
 50
179.99996402782111
 51
270.00000068324448
  0
ARC
  5
582B
  8
DANMEN
  6
CONTINUOUS
 10
261.17355517023861
 20
154.3171334369575
 30
0.0
 40
0.5
 50
270.00001798608889
 51
0.0
  0
ARC
  5
582C
  8
DANMEN
  6
CONTINUOUS
 10
261.17355517023861
 20
156.61713362769251
 30
0.0
 40
0.5
 50
0.0
 51
89.999982013910966
  0
LINE
  5
582D
  8
DANMEN
  6
CONTINUOUS
 10
261.67355517023861
 20
156.61713362769251
 30
0.0
 11
261.67355517023861
 21
154.3171334369575
 31
0.0
  0
ARC
  5
582E
  8
DANMEN
  6
CONTINUOUS
 10
260.8735521184808
 20
156.61713362769251
 30
0.0
 40
0.5
 50
89.999982013910966
 51
179.99996402782111
  0
LINE
  5
582F
  8
DANMEN
  6
CONTINUOUS
 10
260.3735521184808
 20
156.61713362769251
 30
0.0
 11
260.3735521184808
 21
155.11713362769251
 31
0.0
  0
ARC
  5
5830
  8
DANMEN
  6
CONTINUOUS
 10
259.8735521184808
 20
154.61713362769251
 30
0.0
 40
0.5
 50
89.999982013910966
 51
179.99996402782111
  0
LINE
  5
5831
  8
DANMEN
  6
CONTINUOUS
 10
259.8735521184808
 20
155.11713362769251
 30
0.0
 11
260.3735521184808
 21
155.11713362769251
 31
0.0
  0
LINE
  5
5832
  8
DANMEN
  6
CONTINUOUS
 10
260.67355517023861
 20
153.8171334369575
 30
0.0
 11
261.17355517023861
 21
153.8171334369575
 31
0.0
  0
LINE
  5
5833
  8
DANMEN
  6
CONTINUOUS
 10
260.8735521184808
 20
157.11713362769251
 30
0.0
 11
261.17355517023861
 21
157.11713362769251
 31
0.0
  0
LINE
  5
5834
  8
DANMEN
  6
CONTINUOUS
 10
271.67355230921561
 20
154.9171338184272
 30
0.0
 11
271.67355230921561
 21
143.4171338184272
 31
0.0
  0
LINE
  5
5835
  8
DANMEN
  6
CONTINUOUS
 10
271.67355230921561
 20
154.9171338184272
 30
0.0
 11
272.29640177363211
 21
154.9171338184272
 31
0.0
  0
LINE
  5
5836
  8
DANMEN
  6
CONTINUOUS
 10
251.37356737726981
 20
184.11671114997031
 30
0.0
 11
259.37353685969163
 21
184.11671114997031
 31
0.0
  0
LINE
  5
5837
  8
DANMEN
  6
CONTINUOUS
 10
251.3735826360589
 20
192.11655474738239
 30
0.0
 11
259.37353685969163
 21
192.11655474738239
 31
0.0
  0
LINE
  5
5838
  8
DANMEN
  6
CONTINUOUS
 10
271.37361410731131
 20
200.1166596515572
 30
0.0
 11
251.37356737726981
 21
200.1166596515572
 31
0.0
  0
LINE
  5
5839
  8
DANMEN
  6
CONTINUOUS
 10
251.37356737726981
 20
200.81662608222121
 30
0.0
 11
271.37362936610032
 21
200.81662608222121
 31
0.0
  0
LINE
  5
583A
  8
DANMEN
  6
CONTINUOUS
 10
259.87353685969168
 20
192.11708785132521
 30
0.0
 11
271.37353685969163
 21
192.11708785132521
 31
0.0
  0
LINE
  5
583B
  8
DANMEN
  6
CONTINUOUS
 10
259.37362078303153
 20
192.8918411536909
 30
0.0
 11
266.3734529363519
 21
199.89168657467201
 31
0.0
  0
LINE
  5
583C
  8
DANMEN
  6
CONTINUOUS
 10
260.84396133554952
 20
192.11711836890331
 30
0.0
 11
266.3734529363519
 21
197.6466204504452
 31
0.0
  0
LINE
  5
583D
  8
DANMEN
  6
CONTINUOUS
 10
264.63833071448238
 20
192.11711836890331
 30
0.0
 11
259.37362078303153
 21
197.38181832150741
 31
0.0
  0
LINE
  5
583E
  8
DANMEN
  6
CONTINUOUS
 10
266.3734529363519
 20
192.6270613047017
 30
0.0
 11
258.88338256821089
 21
200.1171174759987
 31
0.0
  0
LINE
  5
583F
  8
DANMEN
  6
CONTINUOUS
 10
259.37362078303153
 20
195.1369072779176
 30
0.0
 11
264.35382219365238
 21
200.11711812813959
 31
0.0
  0
LINE
  5
5840
  8
DANMEN
  6
CONTINUOUS
 10
266.3734529363519
 20
194.8721231735806
 30
0.0
 11
261.12844842479882
 21
200.11711774363701
 31
0.0
  0
LINE
  5
5841
  8
DANMEN
  6
CONTINUOUS
 10
259.37362078303153
 20
192.11711836890331
 30
0.0
 11
259.37362078303153
 21
199.11711836890339
 31
0.0
  0
LINE
  5
5842
  8
DANMEN
  6
CONTINUOUS
 10
259.37362078303153
 20
197.3819734021443
 30
0.0
 11
262.10876005713612
 21
200.11711786050159
 31
0.0
  0
ARC
  5
5843
  8
DANMEN
  6
CONTINUOUS
 10
259.87353685969168
 20
191.61708785132521
 30
0.0
 40
0.5
 50
89.999982013910966
 51
179.99996402782111
  0
LINE
  5
5844
  8
DANMEN
  6
CONTINUOUS
 10
260.1481984660291
 20
192.11711836890331
 30
0.0
 11
259.37362078303153
 21
192.89169458374931
 31
0.0
  0
LINE
  5
5845
  8
DANMEN
  6
CONTINUOUS
 10
262.39326459025563
 20
192.11711836890331
 30
0.0
 11
259.37362078303153
 21
195.1367564526283
 31
0.0
  0
ARC
  5
5846
  8
DANMEN
  6
CONTINUOUS
 10
258.37362078303158
 20
199.11711836890339
 30
0.0
 40
1.0
 50
359.99990938630771
 51
89.999891400217919
  0
LINE
  5
5847
  8
DANMEN
  6
CONTINUOUS
 10
259.2770283097372
 20
199.5304468699928
 30
0.0
 11
259.86369792061981
 21
200.11711759286391
 31
0.0
  0
LINE
  5
5848
  8
DANMEN
  6
CONTINUOUS
 10
270.37352160090262
 20
199.11668921546101
 30
0.0
 11
270.37352160090262
 21
193.11667616204369
 31
0.0
  0
LINE
  5
5849
  8
DANMEN
  6
CONTINUOUS
 10
267.37362841242611
 20
199.11668921546101
 30
0.0
 11
267.37362841242611
 21
193.11667616204369
 31
0.0
  0
LINE
  5
584A
  8
DANMEN
  6
CONTINUOUS
 10
266.3734529363519
 20
192.11711836890331
 30
0.0
 11
266.3734529363519
 21
200.11711836890339
 31
0.0
  0
LINE
  5
584B
  8
DANMEN
  6
CONTINUOUS
 10
266.3734529363519
 20
197.1171850424596
 30
0.0
 11
263.37351428138669
 21
200.11711801127541
 31
0.0
  0
LINE
  5
584C
  8
DANMEN
  6
CONTINUOUS
 10
270.37350634211361
 20
193.11669142083281
 30
0.0
 11
267.37358263605893
 21
193.11669142083281
 31
0.0
  0
LINE
  5
584D
  8
DANMEN
  6
CONTINUOUS
 10
265.33408507330762
 20
192.11711836890331
 30
0.0
 11
266.3734529363519
 21
193.156488201992
 31
0.0
  0
LINE
  5
584E
  8
DANMEN
  6
CONTINUOUS
 10
263.08902320442849
 20
192.11711836890331
 30
0.0
 11
266.3734529363519
 21
195.40155432621859
 31
0.0
  0
LINE
  5
584F
  8
DANMEN
  6
CONTINUOUS
 10
272.37353685969168
 20
192.61708785132521
 30
0.0
 11
272.37353685969168
 21
192.1170725925362
 31
0.0
  0
ARC
  5
5850
  8
DANMEN
  6
CONTINUOUS
 10
271.87353685969163
 20
192.61708785132521
 30
0.0
 40
0.5
 50
0.0
 51
179.99996402782111
  0
LINE
  5
5851
  8
DANMEN
  6
CONTINUOUS
 10
271.37353685969163
 20
192.61708785132521
 30
0.0
 11
271.37353685969163
 21
192.11708785132521
 31
0.0
  0
LINE
  5
5852
  8
DANMEN
  6
CONTINUOUS
 10
270.3734910833245
 20
199.1166901691353
 30
0.0
 11
267.37355211848069
 21
199.1166901691353
 31
0.0
  0
LINE
  5
5853
  8
DANMEN
  6
CONTINUOUS
 10
266.3734529363519
 20
199.36224691133879
 30
0.0
 11
265.6185801379745
 21
200.11711827891361
 31
0.0
  0
LINE
  5
5854
  8
SUNPO
  6
CONTINUOUS
 10
259.37353685969163
 20
223.6164012058174
 30
0.0
 11
259.37353685969163
 21
242.11692000464549
 31
0.0
  0
LINE
  5
5855
  8
DANMEN
  6
CONTINUOUS
 10
251.37356737726981
 20
218.1164927585518
 30
0.0
 11
259.37353685969163
 21
218.1164927585518
 31
0.0
  0
LINE
  5
5856
  8
DANMEN
  6
CONTINUOUS
 10
251.37356737726981
 20
216.11650801734081
 30
0.0
 11
259.37353685969163
 21
216.11650801734081
 31
0.0
  0
LINE
  5
5857
  8
DANMEN
  6
CONTINUOUS
 10
251.37356737726981
 20
207.4165406330024
 30
0.0
 11
271.37361410731131
 21
207.4165406330024
 31
0.0
  0
LINE
  5
5858
  8
DANMEN
  6
CONTINUOUS
 10
259.87353685969168
 20
216.1170725925362
 30
0.0
 11
266.37353685969163
 21
216.1170725925362
 31
0.0
  0
LINE
  5
5859
  8
DANMEN
  6
CONTINUOUS
 10
266.3734529363519
 20
213.36206827957869
 30
0.0
 11
261.12844284505383
 21
208.1170579590142
 31
0.0
  0
LINE
  5
585A
  8
DANMEN
  6
CONTINUOUS
 10
266.3734529363519
 20
215.60713232519601
 30
0.0
 11
258.88337916520959
 21
208.1170582266522
 31
0.0
  0
LINE
  5
585B
  8
DANMEN
  6
CONTINUOUS
 10
264.6383139751311
 20
216.11705733374711
 30
0.0
 11
259.37362078303153
 21
210.8523639115204
 31
0.0
  0
LINE
  5
585C
  8
DANMEN
  6
CONTINUOUS
 10
260.84395112643801
 20
216.11705733374711
 30
0.0
 11
266.3734529363519
 21
210.5875557655354
 31
0.0
  0
LINE
  5
585D
  8
DANMEN
  6
CONTINUOUS
 10
259.37362078303153
 20
215.34232366540101
 30
0.0
 11
266.3734529363519
 21
208.34249181805311
 31
0.0
  0
LINE
  5
585E
  8
DANMEN
  6
CONTINUOUS
 10
259.37362078303153
 20
213.09725971791849
 30
0.0
 11
264.3538231441309
 21
208.11705757451071
 31
0.0
  0
LINE
  5
585F
  8
DANMEN
  6
CONTINUOUS
 10
259.37362078303153
 20
209.11705733374711
 30
0.0
 11
259.37362078303153
 21
216.11705733374711
 31
0.0
  0
LINE
  5
5860
  8
DANMEN
  6
CONTINUOUS
 10
262.39325002764872
 20
216.11705733374711
 30
0.0
 11
259.37362078303153
 21
213.0974279571378
 31
0.0
  0
ARC
  5
5861
  8
DANMEN
  6
CONTINUOUS
 10
258.37362078303158
 20
209.11705733374711
 30
0.0
 40
1.0
 50
270.00003665542431
 51
0.0000733108478311
  0
LINE
  5
5862
  8
DANMEN
  6
CONTINUOUS
 10
259.27702649099439
 20
208.70372611076871
 30
0.0
 11
259.8636945176201
 21
208.11705810978711
 31
0.0
  0
LINE
  5
5863
  8
DANMEN
  6
CONTINUOUS
 10
259.37362078303153
 20
210.85219577043631
 30
0.0
 11
262.1087588308755
 21
208.11705784214891
 31
0.0
  0
ARC
  5
5864
  8
DANMEN
  6
CONTINUOUS
 10
259.87353685969168
 20
219.61707259253609
 30
0.0
 40
0.5
 50
89.999982013910966
 51
179.99996402782111
  0
ARC
  5
5865
  8
DANMEN
  6
CONTINUOUS
 10
259.87353685969168
 20
216.6170725925362
 30
0.0
 40
0.5
 50
179.99996402782111
 51
270.00000068324448
  0
LINE
  5
5866
  8
DANMEN
  6
CONTINUOUS
 10
260.14818608016623
 20
216.11705733374711
 30
0.0
 11
259.37362078303153
 21
215.34249200275491
 31
0.0
  0
LINE
  5
5867
  8
DANMEN
  6
CONTINUOUS
 10
259.37353685969163
 20
219.61707259253609
 30
0.0
 11
259.37353685969163
 21
216.6170725925362
 31
0.0
  0
LINE
  5
5868
  8
DANMEN
  6
CONTINUOUS
 10
263.08901517205521
 20
216.11705733374711
 30
0.0
 11
266.3734529363519
 21
212.83261971301769
 31
0.0
  0
LINE
  5
5869
  8
DANMEN
  6
CONTINUOUS
 10
267.373613153637
 20
215.61699629859089
 30
0.0
 11
267.373613153637
 21
209.11645747260209
 31
0.0
  0
LINE
  5
586A
  8
DANMEN
  6
CONTINUOUS
 10
266.3734529363519
 20
208.11705733374711
 30
0.0
 11
266.3734529363519
 21
216.11705733374711
 31
0.0
  0
LINE
  5
586B
  8
DANMEN
  6
CONTINUOUS
 10
266.3734529363519
 20
208.8719401883443
 30
0.0
 11
265.6185702047427
 21
208.117057423738
 31
0.0
  0
LINE
  5
586C
  8
DANMEN
  6
CONTINUOUS
 10
266.3734529363519
 20
211.11700423396141
 30
0.0
 11
263.37350652489818
 21
208.117057691376
 31
0.0
  0
LINE
  5
586D
  8
DANMEN
  6
CONTINUOUS
 10
266.37353685969163
 20
216.6170725925362
 30
0.0
 11
266.37353685969163
 21
216.1170725925362
 31
0.0
  0
LINE
  5
586E
  8
DANMEN
  6
CONTINUOUS
 10
265.33407921767241
 20
216.11705733374711
 30
0.0
 11
266.3734529363519
 21
215.0776836605001
 31
0.0
  0
POLYLINE
  5
586F
  8
SUNPO
  6
BYBLOCK
 66
     1
 10
0.0
 20
0.0
 30
0.0
 70
     1
 40
1.159999999999999
 41
1.159999999999999
  0
VERTEX
  5
5BD0
  8
SUNPO
  6
BYBLOCK
 10
259.51853685969172
 20
242.11692000464549
 30
0.0
 42
1.0
  0
VERTEX
  5
5BD1
  8
SUNPO
  6
BYBLOCK
 10
259.22853685969159
 20
242.11692000464549
 30
0.0
 42
1.0
  0
SEQEND
  5
5BD2
  8
SUNPO
  6
BYBLOCK
  0
LINE
  5
5873
  8
SUNPO
  6
CONTINUOUS
 10
462.58291796320742
 20
188.61692000464549
 30
0.0
 11
462.58291796320742
 21
242.11692000464549
 31
0.0
  0
LINE
  5
5874
  8
SUNPO
  6
CONTINUOUS
 10
472.58293322199631
 20
173.61692000464549
 30
0.0
 11
472.58293322199631
 21
242.11692000464549
 31
0.0
  0
LINE
  5
5875
  8
SUNPO
  6
CONTINUOUS
 10
332.46541293679712
 20
152.11721568864701
 30
0.0
 11
332.46542819552968
 21
222.1162807302444
 31
0.0
  0
LINE
  5
5876
  8
DANMEN
  6
CONTINUOUS
 10
351.37364367121512
 20
193.1166760428344
 30
0.0
 11
351.37364367121512
 21
208.1165232761299
 31
0.0
  0
LINE
  5
5877
  8
DANMEN
  6
CONTINUOUS
 10
367.37339953059018
 20
208.1165194614326
 30
0.0
 11
367.37339953059018
 21
193.11667586402049
 31
0.0
  0
LINE
  5
5878
  8
DANMEN
  6
CONTINUOUS
 10
287.37339953059001
 20
208.116517554084
 30
0.0
 11
287.37339953059001
 21
193.11667592362511
 31
0.0
  0
LINE
  5
5879
  8
DANMEN
  6
CONTINUOUS
 10
432.5829027044183
 20
193.11669118241409
 30
0.0
 11
432.5829027044183
 21
208.1165385349189
 31
0.0
  0
LINE
  5
587A
  8
DANMEN
  6
CONTINUOUS
 10
446.58294848078532
 20
220.31691695288771
 30
0.0
 11
446.58294848078532
 21
186.81694747046581
 31
0.0
  0
LINE
  5
587B
  8
DANMEN
  6
CONTINUOUS
 10
449.08294848078538
 20
217.04619551734081
 30
0.0
 11
449.08294848078538
 21
187.11692000464549
 31
0.0
  0
LINE
  5
587C
  8
DANMEN
  6
CONTINUOUS
 10
357.87353685969163
 20
216.61708785132521
 30
0.0
 11
357.87353685969163
 21
186.81708479956751
 31
0.0
  0
LINE
  5
587D
  8
DANMEN
  6
CONTINUOUS
 10
360.87353685969163
 20
216.61708785132521
 30
0.0
 11
360.87353685969163
 21
186.81708479956751
 31
0.0
  0
LINE
  5
587E
  8
DANMEN
  6
CONTINUOUS
 10
277.87353685969163
 20
216.6170725925362
 30
0.0
 11
277.87353685969163
 21
186.81706954077831
 31
0.0
  0
LINE
  5
587F
  8
DANMEN
  6
CONTINUOUS
 10
280.87353685969163
 20
216.6170725925362
 30
0.0
 11
280.87353685969163
 21
186.81706954077831
 31
0.0
  0
LINE
  5
5880
  8
SUNPO
  6
CONTINUOUS
 10
460.7829301702385
 20
102.11701155738
 30
0.0
 11
361.88542345637131
 21
102.11701155738
 31
0.0
  0
LINE
  5
5881
  8
DANMEN
  6
CONTINUOUS
 10
401.478120599926
 20
132.11716414527049
 30
0.0
 11
460.7829301702385
 21
132.11716414527049
 31
0.0
  0
LINE
  5
5882
  8
DANMEN
  6
CONTINUOUS
 10
401.47815111750418
 20
152.11711836890339
 30
0.0
 11
435.58294848078549
 21
152.11711836890331
 31
0.0
  0
LINE
  5
5883
  8
DANMEN
  6
CONTINUOUS
 10
431.58275011652762
 20
199.1167063815985
 30
0.0
 11
428.58281115168393
 21
199.1167063815985
 31
0.0
  0
LINE
  5
5884
  8
DANMEN
  6
CONTINUOUS
 10
432.58285692805123
 20
200.11667586402041
 30
0.0
 11
401.47815111750418
 21
200.11667586402041
 31
0.0
  0
LINE
  5
5885
  8
DANMEN
  6
CONTINUOUS
 10
401.47815111750418
 20
200.81664229468461
 30
0.0
 11
432.58287218684012
 21
200.81664229468461
 31
0.0
  0
LINE
  5
5886
  8
DANMEN
  6
CONTINUOUS
 10
431.58276537531668
 20
193.11670644120321
 30
0.0
 11
428.582841669262
 21
193.11670644120321
 31
0.0
  0
LINE
  5
5887
  8
DANMEN
  6
CONTINUOUS
 10
422.53288439387131
 20
184.11670828894731
 30
0.0
 11
435.58288744562918
 21
184.11670828894731
 31
0.0
  0
LINE
  5
5888
  8
DANMEN
  6
CONTINUOUS
 10
421.08289297036441
 20
192.1169680698311
 30
0.0
 11
432.58289297036453
 21
192.11696625456111
 31
0.0
  0
LINE
  5
5889
  8
DANMEN
  6
CONTINUOUS
 10
422.53289965266032
 20
163.11711836890331
 30
0.0
 11
435.58294848078549
 21
163.11711836890331
 31
0.0
  0
LINE
  5
588A
  8
DANMEN
  6
CONTINUOUS
 10
422.23289972237728
 20
158.766967506833
 30
0.0
 11
433.78288465432308
 21
158.76696568367271
 31
0.0
  0
LINE
  5
588B
  8
DANMEN
  6
CONTINUOUS
 10
421.08288744562941
 20
157.1169680698317
 30
0.0
 11
435.58288744562918
 21
157.11696578101279
 31
0.0
  0
LINE
  5
588C
  8
DANMEN
  6
CONTINUOUS
 10
422.232904781456
 20
190.8169648365444
 30
0.0
 11
444.38288055812819
 21
190.8169613401802
 31
0.0
  0
LINE
  5
588D
  8
SUNPO
  6
CONTINUOUS
 10
435.58294848078549
 20
112.11696578101279
 30
0.0
 11
420.58282641047282
 21
112.11696578101279
 31
0.0
  0
ARC
  5
588E
  8
DANMEN
  6
CONTINUOUS
 10
351.87353685969163
 20
192.61708785132521
 30
0.0
 40
0.5
 50
0.0
 51
179.99996402782111
  0
LINE
  5
588F
  8
SUNPO
  6
CONTINUOUS
 10
351.97403124445719
 20
107.11699629859091
 30
0.0
 11
347.66462877863688
 21
107.11699629859091
 31
0.0
  0
LINE
  5
5890
  8
SUNPO
  6
CONTINUOUS
 10
339.37353685969163
 20
112.11696578101279
 30
0.0
 11
379.37353685969163
 21
112.11696578101279
 31
0.0
  0
LINE
  5
5891
  8
DANMEN
  6
CONTINUOUS
 10
341.32354906672282
 20
163.11714888648149
 30
0.0
 11
354.37353685969163
 21
163.11714888648149
 31
0.0
  0
LINE
  5
5892
  8
DANMEN
  6
CONTINUOUS
 10
341.32353380793393
 20
184.1167092426216
 30
0.0
 11
354.37353685969163
 21
184.1167092426216
 31
0.0
  0
LINE
  5
5893
  8
DANMEN
  6
CONTINUOUS
 10
320.268876825512
 20
132.1171946628487
 30
0.0
 11
398.47813585871512
 21
132.1171946628487
 31
0.0
  0
LINE
  5
5894
  8
DANMEN
  6
CONTINUOUS
 10
320.26886156672282
 20
152.1171488864814
 30
0.0
 11
398.47815111750413
 21
152.1171488864814
 31
0.0
  0
LINE
  5
5895
  8
DANMEN
  6
CONTINUOUS
 10
341.32354906672282
 20
159.0671000583564
 30
0.0
 11
352.57353380793393
 21
159.0671000583564
 31
0.0
  0
LINE
  5
5896
  8
DANMEN
  6
CONTINUOUS
 10
341.32354906672282
 20
190.81708479956751
 30
0.0
 11
355.97352388972092
 21
190.81708479956751
 31
0.0
  0
LINE
  5
5897
  8
DANMEN
  6
CONTINUOUS
 10
339.87353685969163
 20
157.11708785132521
 30
0.0
 11
354.37353685969163
 21
157.11708785132521
 31
0.0
  0
LINE
  5
5898
  8
SUNPO
  6
CONTINUOUS
 10
354.43798721844308
 20
97.117329201618887
 30
0.0
 11
348.66452449545898
 21
107.11727020330351
 31
0.0
  0
LINE
  5
5899
  8
SUNPO
  6
CONTINUOUS
 10
356.74735592067032
 20
97.117317584515035
 30
0.0
 11
350.9738931976861
 21
107.1172585861998
 31
0.0
  0
TEXT
  5
589A
  8
SUNPO
  6
CONTINUOUS
 10
331.96550158137143
 20
140.24211836890339
 30
0.0
 40
2.5
  1
20
 50
90.0
  7
MX_NOTE_STANDARD
  0
LINE
  5
589B
  8
SUNPO
  6
CONTINUOUS
 10
332.46550158137143
 20
132.11713362769251
 30
0.0
 11
332.46550158137143
 21
152.11708785132521
 31
0.0
  0
LINE
  5
589C
  8
SUNPO
  6
CONTINUOUS
 10
339.37353685969163
 20
150.61708785132529
 30
0.0
 11
339.37353685969163
 21
112.11696578101279
 31
0.0
  0
TEXT
  5
589D
  8
SUNPO
  6
CONTINUOUS
 10
277.49853685969168
 20
112.61696578101279
 30
0.0
 40
2.5
  1
40
  7
MX_NOTE_STANDARD
  0
LINE
  5
589E
  8
SUNPO
  6
CONTINUOUS
 10
299.37353685969168
 20
140.61713362769251
 30
0.0
 11
299.37353685969168
 21
112.11696578101279
 31
0.0
  0
LINE
  5
589F
  8
SUNPO
  6
CONTINUOUS
 10
343.89114550226981
 20
107.11699629859091
 30
0.0
 11
339.5817430364495
 21
107.11699629859091
 31
0.0
  0
LINE
  5
58A0
  8
SUNPO
  6
CONTINUOUS
 10
346.35518878549033
 20
97.117365257027402
 30
0.0
 11
340.58171843311789
 21
107.1173194732135
 31
0.0
  0
LINE
  5
58A1
  8
SUNPO
  6
CONTINUOUS
 10
348.66458065446852
 20
97.117349395913664
 30
0.0
 11
342.8911179314843
 21
107.1172903975984
 31
0.0
  0
LINE
  5
58A2
  8
SUNPO
  6
CONTINUOUS
 10
348.664628778637
 20
107.11699629859091
 30
0.0
 11
348.664628778637
 21
97.11701155738001
 31
0.0
  0
LINE
  5
58A3
  8
SUNPO
  6
CONTINUOUS
 10
349.66462877863688
 20
97.11701155738001
 30
0.0
 11
345.3552415716058
 21
97.11701155738001
 31
0.0
  0
POLYLINE
  5
58A4
  8
SUNPO
  6
BYBLOCK
 66
     1
 10
0.0
 20
0.0
 30
0.0
 70
     1
 40
1.159999999999999
 41
1.159999999999999
  0
VERTEX
  5
5BD3
  8
SUNPO
  6
BYBLOCK
 10
332.46550158137143
 20
132.26213362769249
 30
0.0
 42
1.0
  0
VERTEX
  5
5BD4
  8
SUNPO
  6
BYBLOCK
 10
332.46550158137143
 20
131.9721336276925
 30
0.0
 42
1.0
  0
SEQEND
  5
5BD5
  8
SUNPO
  6
BYBLOCK
  0
LINE
  5
58A8
  8
DANMEN
  6
CONTINUOUS
 10
299.37353685969168
 20
163.11716414527061
 30
0.0
 11
318.47818163508231
 21
163.11716414527061
 31
0.0
  0
LINE
  5
58A9
  8
DANMEN
  6
CONTINUOUS
 10
299.3735521184808
 20
152.11716414527061
 30
0.0
 11
318.47813585871518
 21
152.11716414527061
 31
0.0
  0
LINE
  5
58AA
  8
DANMEN
  6
CONTINUOUS
 10
299.37350634211361
 20
184.11670733527291
 30
0.0
 11
318.478120599926
 21
184.11670733527291
 31
0.0
  0
LINE
  5
58AB
  8
DANMEN
  6
CONTINUOUS
 10
299.37353685969168
 20
157.11716414527061
 30
0.0
 11
318.47818163508231
 21
157.11716414527061
 31
0.0
  0
LINE
  5
58AC
  8
DANMEN
  6
CONTINUOUS
 10
299.37350634211361
 20
192.11657382086869
 30
0.0
 11
318.4781663762933
 21
192.11657382086869
 31
0.0
  0
LINE
  5
58AD
  8
DANMEN
  6
CONTINUOUS
 10
318.478105341137
 20
200.11665583685979
 30
0.0
 11
287.37339953059001
 21
200.11665583685979
 31
0.0
  0
LINE
  5
58AE
  8
DANMEN
  6
CONTINUOUS
 10
287.373384271801
 20
200.816622267524
 30
0.0
 11
318.478105341137
 21
200.816622267524
 31
0.0
  0
LINE
  5
58AF
  8
DANMEN
  6
CONTINUOUS
 10
305.37353685969168
 20
184.11682940558541
 30
0.0
 11
305.37353685969168
 21
163.11716414527061
 31
0.0
  0
LINE
  5
58B0
  8
DANMEN
  6
CONTINUOUS
 10
297.42352465266049
 20
190.81708479956751
 30
0.0
 11
297.42352465266049
 21
159.0671000583564
 31
0.0
  0
LINE
  5
58B1
  8
DANMEN
  6
CONTINUOUS
 10
299.37353685969168
 20
191.61708785132521
 30
0.0
 11
299.37353685969168
 21
157.61708785132521
 31
0.0
  0
LINE
  5
58B2
  8
DANMEN
  6
CONTINUOUS
 10
277.87353685969163
 20
185.31706954077839
 30
0.0
 11
277.87353685969163
 21
159.0671000583564
 31
0.0
  0
LINE
  5
58B3
  8
DANMEN
  6
CONTINUOUS
 10
280.87353685969163
 20
185.31706954077839
 30
0.0
 11
280.87353685969163
 21
159.0671000583564
 31
0.0
  0
LINE
  5
58B4
  8
DANMEN
  6
CONTINUOUS
 10
284.37353685969163
 20
163.11716414527061
 30
0.0
 11
297.42352465266049
 21
163.11716414527061
 31
0.0
  0
LINE
  5
58B5
  8
DANMEN
  6
CONTINUOUS
 10
297.42352465266049
 20
159.0671000583564
 30
0.0
 11
286.1735399114495
 21
159.0671000583564
 31
0.0
  0
LINE
  5
58B6
  8
DANMEN
  6
CONTINUOUS
 10
298.87353685969163
 20
157.11708785132521
 30
0.0
 11
284.37353685969163
 21
157.11708785132521
 31
0.0
  0
LINE
  5
58B7
  8
DANMEN
  6
CONTINUOUS
 10
287.07355192774588
 20
143.4171338184272
 30
0.0
 11
298.07354906672288
 21
143.4171338184272
 31
0.0
  0
LINE
  5
58B8
  8
DANMEN
  6
CONTINUOUS
 10
274.37353685969168
 20
158.5671000583564
 30
0.0
 11
274.37353685969168
 21
157.11708785132521
 31
0.0
  0
ARC
  5
58B9
  8
DANMEN
  6
CONTINUOUS
 10
274.87353685969163
 20
157.61708785132521
 30
0.0
 40
0.5
 50
179.99996402782111
 51
270.00000068324448
  0
LINE
  5
58BA
  8
DANMEN
  6
CONTINUOUS
 10
284.37353685969163
 20
158.5671000583564
 30
0.0
 11
284.37353685969163
 21
157.11708785132521
 31
0.0
  0
ARC
  5
58BB
  8
DANMEN
  6
CONTINUOUS
 10
283.87353685969163
 20
157.61708785132521
 30
0.0
 40
0.5
 50
270.00001798608889
 51
0.0
  0
LINE
  5
58BC
  8
DANMEN
  6
CONTINUOUS
 10
274.87353685969163
 20
143.81709242896201
 30
0.0
 11
283.87353685969163
 21
143.81709242896201
 31
0.0
  0
LINE
  5
58BD
  8
DANMEN
  6
CONTINUOUS
 10
272.8735521184808
 20
143.61713362769251
 30
0.0
 11
285.87353972071452
 21
143.61713362769251
 31
0.0
  0
LINE
  5
58BE
  8
DANMEN
  6
CONTINUOUS
 10
280.87353685969163
 20
157.11708785132521
 30
0.0
 11
283.87353685969163
 21
157.11708785132521
 31
0.0
  0
LINE
  5
58BF
  8
DANMEN
  6
CONTINUOUS
 10
280.87353685969163
 20
146.8170876605904
 30
0.0
 11
282.75364855402762
 21
146.8170876605904
 31
0.0
  0
LINE
  5
58C0
  8
DANMEN
  6
CONTINUOUS
 10
275.17353705042649
 20
150.91708708838581
 30
0.0
 11
275.17353705042649
 21
148.827982435981
 31
0.0
  0
LINE
  5
58C1
  8
DANMEN
  6
CONTINUOUS
 10
273.17355230921561
 20
150.4171338184272
 30
0.0
 11
273.17355230921561
 21
148.9171338184272
 31
0.0
  0
LINE
  5
58C2
  8
DANMEN
  6
CONTINUOUS
 10
273.2327452607953
 20
149.61505085835739
 30
0.0
 11
274.37353712601993
 21
146.8170892481387
 31
0.0
  0
LINE
  5
58C3
  8
DANMEN
  6
CONTINUOUS
 10
277.87353685969163
 20
157.11708785132521
 30
0.0
 11
277.87353685969163
 21
146.8170876605904
 31
0.0
  0
LINE
  5
58C4
  8
DANMEN
  6
CONTINUOUS
 10
280.87353685969163
 20
157.11708785132521
 30
0.0
 11
280.87353685969163
 21
146.8170876605904
 31
0.0
  0
LINE
  5
58C5
  8
DANMEN
  6
CONTINUOUS
 10
275.99342421168132
 20
146.8170876605904
 30
0.0
 11
277.87353685969163
 21
146.8170876605904
 31
0.0
  0
ARC
  5
58C6
  8
DANMEN
  6
CONTINUOUS
 10
273.87355211848069
 20
148.20299101904979
 30
0.0
 40
1.0
 50
134.42697479101551
 51
179.99996402782111
  0
LINE
  5
58C7
  8
DANMEN
  6
CONTINUOUS
 10
274.37353685969168
 20
146.8170876605904
 30
0.0
 11
274.37353685969168
 21
144.31709242896201
 31
0.0
  0
ARC
  5
58C8
  8
DANMEN
  6
CONTINUOUS
 10
274.87353685969163
 20
144.31709242896201
 30
0.0
 40
0.5
 50
179.99996402782111
 51
270.00000068324448
  0
LINE
  5
58C9
  8
DANMEN
  6
CONTINUOUS
 10
275.17353750736811
 20
148.8279834588366
 30
0.0
 11
275.99342428767221
 21
146.8170892668752
 31
0.0
  0
LINE
  5
58CA
  8
DANMEN
  6
CONTINUOUS
 10
272.8735521184808
 20
148.20299101904979
 30
0.0
 11
272.8735521184808
 21
143.61713362769251
 31
0.0
  0
LINE
  5
58CB
  8
DANMEN
  6
CONTINUOUS
 10
274.87353685969163
 20
157.11708785132521
 30
0.0
 11
277.87353685969163
 21
157.11708785132521
 31
0.0
  0
LINE
  5
58CC
  8
DANMEN
  6
CONTINUOUS
 10
274.34695491344479
 20
151.29569483312579
 30
0.0
 11
273.45100548767817
 21
150.52285923070991
 31
0.0
  0
ARC
  5
58CD
  8
DANMEN
  6
CONTINUOUS
 10
274.6735370504266
 20
150.91708708838581
 30
0.0
 40
0.5
 50
0.0
 51
130.7806373214683
  0
ARC
  5
58CE
  8
DANMEN
  6
CONTINUOUS
 10
272.67355230921549
 20
151.2770781619941
 30
0.0
 40
1.0
 50
359.99997566604401
 51
15.94537373062373
  0
LINE
  5
58CF
  8
DANMEN
  6
CONTINUOUS
 10
273.67355230921561
 20
151.2770781619941
 30
0.0
 11
273.67355230921561
 21
150.71713400916209
 31
0.0
  0
LINE
  5
58D0
  8
DANMEN
  6
CONTINUOUS
 10
273.17355230921561
 20
150.4171338184272
 30
0.0
 11
273.3735521184808
 21
150.4171338184272
 31
0.0
  0
ARC
  5
58D1
  8
DANMEN
  6
CONTINUOUS
 10
273.97353628748709
 20
149.91708708838581
 30
0.0
 40
0.7999992370605469
 50
128.9766477578849
 51
202.18179565938169
  0
ARC
  5
58D2
  8
DANMEN
  6
CONTINUOUS
 10
273.3735521184808
 20
150.71713400916209
 30
0.0
 40
0.3000000119209289
 50
270.00001798608889
 51
0.0
  0
LINE
  5
58D3
  8
DANMEN
  6
CONTINUOUS
 10
273.63507631443798
 20
151.55179911551821
 30
0.0
 11
272.77716335182248
 21
154.55449429853579
 31
0.0
  0
LINE
  5
58D4
  8
DANMEN
  6
CONTINUOUS
 10
283.57353666895682
 20
148.827982435981
 30
0.0
 11
283.57353666895682
 21
150.91708708838581
 31
0.0
  0
LINE
  5
58D5
  8
DANMEN
  6
CONTINUOUS
 10
285.57355192774588
 20
150.4171338184272
 30
0.0
 11
285.57355192774588
 21
148.9171338184272
 31
0.0
  0
LINE
  5
58D6
  8
DANMEN
  6
CONTINUOUS
 10
284.37353650268318
 20
146.81709078170391
 30
0.0
 11
285.51432836790781
 21
149.61505239192269
 31
0.0
  0
LINE
  5
58D7
  8
DANMEN
  6
CONTINUOUS
 10
287.07355192774588
 20
154.9171338184272
 30
0.0
 11
287.07355192774588
 21
143.4171338184272
 31
0.0
  0
ARC
  5
58D8
  8
DANMEN
  6
CONTINUOUS
 10
284.8735521184808
 20
148.20299101904979
 30
0.0
 40
1.0
 50
0.0000359721780749
 51
45.573026802847302
  0
LINE
  5
58D9
  8
DANMEN
  6
CONTINUOUS
 10
284.37353685969163
 20
144.31709242896201
 30
0.0
 11
284.37353685969163
 21
146.8170876605904
 31
0.0
  0
ARC
  5
58DA
  8
DANMEN
  6
CONTINUOUS
 10
283.87353685969163
 20
144.31709242896201
 30
0.0
 40
0.5
 50
270.00001798608889
 51
0.0000359721780749
  0
LINE
  5
58DB
  8
DANMEN
  6
CONTINUOUS
 10
282.75364934103101
 20
146.81709080044041
 30
0.0
 11
283.57353612133511
 21
148.82798499240181
 31
0.0
  0
LINE
  5
58DC
  8
DANMEN
  6
CONTINUOUS
 10
285.8735521184808
 20
148.20299101904979
 30
0.0
 11
285.8735521184808
 21
143.61713362769251
 31
0.0
  0
ARC
  5
58DD
  8
DANMEN
  6
CONTINUOUS
 10
286.45070246332932
 20
154.4171338184272
 30
0.0
 40
0.5
 50
90.00003665542431
 51
164.05458688210331
  0
LINE
  5
58DE
  8
DANMEN
  6
CONTINUOUS
 10
287.07355192774588
 20
154.9171338184272
 30
0.0
 11
286.45070246332932
 21
154.9171338184272
 31
0.0
  0
LINE
  5
58DF
  8
DANMEN
  6
CONTINUOUS
 10
285.29606840696351
 20
150.52286055094609
 30
0.0
 11
284.40011898119701
 21
151.29569615336189
 31
0.0
  0
ARC
  5
58E0
  8
DANMEN
  6
CONTINUOUS
 10
284.07353666895682
 20
150.91708708838581
 30
0.0
 40
0.5
 50
49.2193608572979
 51
179.99996402782111
  0
ARC
  5
58E1
  8
DANMEN
  6
CONTINUOUS
 10
284.77353743189622
 20
149.91708708838581
 30
0.0
 40
0.7999992370605469
 50
337.81820593448009
 51
51.023350420882203
  0
ARC
  5
58E2
  8
DANMEN
  6
CONTINUOUS
 10
286.07355192774583
 20
151.2770781619941
 30
0.0
 40
1.0
 50
164.05464152361611
 51
180.00001866933439
  0
ARC
  5
58E3
  8
DANMEN
  6
CONTINUOUS
 10
285.3735521184808
 20
150.71713400916209
 30
0.0
 40
0.3000000119209289
 50
180.00001866933439
 51
270.00000068324448
  0
LINE
  5
58E4
  8
DANMEN
  6
CONTINUOUS
 10
285.07355192774583
 20
151.2770781619941
 30
0.0
 11
285.07355192774583
 21
150.71713400916209
 31
0.0
  0
LINE
  5
58E5
  8
DANMEN
  6
CONTINUOUS
 10
285.57355192774588
 20
150.4171338184272
 30
0.0
 11
285.3735521184808
 21
150.4171338184272
 31
0.0
  0
LINE
  5
58E6
  8
DANMEN
  6
CONTINUOUS
 10
285.11202818929729
 20
151.551799246515
 30
0.0
 11
285.96994108641422
 21
154.55449420028731
 31
0.0
  0
LINE
  5
58E7
  8
DANMEN
  6
CONTINUOUS
 10
285.17353609675217
 20
162.41709090308311
 30
0.0
 11
282.07356432551188
 21
162.41709090308311
 31
0.0
  0
LINE
  5
58E8
  8
DANMEN
  6
CONTINUOUS
 10
282.37353685969168
 20
159.3171000583564
 30
0.0
 11
281.57354906672282
 21
159.3171000583564
 31
0.0
  0
LINE
  5
58E9
  8
DANMEN
  6
CONTINUOUS
 10
280.87353685969163
 20
159.0671000583564
 30
0.0
 11
282.67352465266049
 21
159.0671000583564
 31
0.0
  0
ARC
  5
58EA
  8
DANMEN
  6
CONTINUOUS
 10
276.67350939387143
 20
161.41709090308311
 30
0.0
 40
1.0
 50
0.0
 51
89.999982013910966
  0
ARC
  5
58EB
  8
DANMEN
  6
CONTINUOUS
 10
277.17352465266038
 20
159.8171000583564
 30
0.0
 40
0.5
 50
270.00001798608889
 51
0.0
  0
LINE
  5
58EC
  8
DANMEN
  6
CONTINUOUS
 10
276.07353380793398
 20
159.0671000583564
 30
0.0
 11
277.87353685969163
 21
159.0671000583564
 31
0.0
  0
LINE
  5
58ED
  8
DANMEN
  6
CONTINUOUS
 10
273.87353685969163
 20
161.11708785132521
 30
0.0
 11
273.87353685969163
 21
159.0671000583564
 31
0.0
  0
LINE
  5
58EE
  8
DANMEN
  6
CONTINUOUS
 10
276.37353685969168
 20
159.3171000583564
 30
0.0
 11
277.17352465266038
 21
159.3171000583564
 31
0.0
  0
LINE
  5
58EF
  8
DANMEN
  6
CONTINUOUS
 10
276.37353685969168
 20
161.11708785132521
 30
0.0
 11
276.37353685969168
 21
159.3171000583564
 31
0.0
  0
LINE
  5
58F0
  8
DANMEN
  6
CONTINUOUS
 10
273.57353762263108
 20
162.41709090308311
 30
0.0
 11
276.67350939387143
 21
162.41709090308311
 31
0.0
  0
LINE
  5
58F1
  8
DANMEN
  6
CONTINUOUS
 10
273.87353685969163
 20
161.11708785132521
 30
0.0
 11
276.37353685969168
 21
161.11708785132521
 31
0.0
  0
ARC
  5
58F2
  8
DANMEN
  6
CONTINUOUS
 10
274.87353685969163
 20
160.6170764072335
 30
0.0
 40
0.5
 50
89.999982013910966
 51
179.99996402782111
  0
LINE
  5
58F3
  8
DANMEN
  6
CONTINUOUS
 10
274.87353685969163
 20
161.11707640723341
 30
0.0
 11
276.07353380793398
 21
161.11707640723341
 31
0.0
  0
LINE
  5
58F4
  8
DANMEN
  6
CONTINUOUS
 10
276.07353380793398
 20
161.11707640723341
 30
0.0
 11
276.07353380793398
 21
159.0671000583564
 31
0.0
  0
LINE
  5
58F5
  8
DANMEN
  6
CONTINUOUS
 10
272.57353762263119
 20
161.41709090308311
 30
0.0
 11
272.57353762263119
 21
159.0671000583564
 31
0.0
  0
ARC
  5
58F6
  8
DANMEN
  6
CONTINUOUS
 10
273.87353685969163
 20
158.5671000583564
 30
0.0
 40
0.5
 50
0.0
 51
89.999982013910966
  0
LINE
  5
58F7
  8
DANMEN
  6
CONTINUOUS
 10
274.37353685969168
 20
160.6170764072335
 30
0.0
 11
274.37353685969168
 21
157.61708785132521
 31
0.0
  0
LINE
  5
58F8
  8
DANMEN
  6
CONTINUOUS
 10
277.67350939387143
 20
161.41709090308311
 30
0.0
 11
277.67350939387143
 21
159.8171000583564
 31
0.0
  0
LINE
  5
58F9
  8
DANMEN
  6
CONTINUOUS
 10
281.07356432551188
 20
161.41709090308311
 30
0.0
 11
281.07356432551188
 21
159.8171000583564
 31
0.0
  0
ARC
  5
58FA
  8
DANMEN
  6
CONTINUOUS
 10
281.57354906672282
 20
159.8171000583564
 30
0.0
 40
0.5
 50
180.0
 51
269.99998201391088
  0
ARC
  5
58FB
  8
DANMEN
  6
CONTINUOUS
 10
282.07356432551188
 20
161.41709090308311
 30
0.0
 40
1.0
 50
90.000017986089006
 51
180.0
  0
LINE
  5
58FC
  8
DANMEN
  6
CONTINUOUS
 10
286.17353609675217
 20
161.41709090308311
 30
0.0
 11
286.17353609675217
 21
159.0671000583564
 31
0.0
  0
LINE
  5
58FD
  8
DANMEN
  6
CONTINUOUS
 10
284.87353685969168
 20
161.11708785132521
 30
0.0
 11
284.87353685969168
 21
159.0671000583564
 31
0.0
  0
LINE
  5
58FE
  8
DANMEN
  6
CONTINUOUS
 10
282.37353685969168
 20
161.11708785132521
 30
0.0
 11
282.37353685969168
 21
159.3171000583564
 31
0.0
  0
LINE
  5
58FF
  8
DANMEN
  6
CONTINUOUS
 10
284.87353685969168
 20
161.11708785132521
 30
0.0
 11
282.37353685969168
 21
161.11708785132521
 31
0.0
  0
ARC
  5
5900
  8
DANMEN
  6
CONTINUOUS
 10
283.87353685969163
 20
160.6170764072335
 30
0.0
 40
0.5
 50
0.0
 51
89.999982013910966
  0
LINE
  5
5901
  8
DANMEN
  6
CONTINUOUS
 10
282.67352465266049
 20
161.11707640723341
 30
0.0
 11
283.87353685969163
 21
161.11707640723341
 31
0.0
  0
LINE
  5
5902
  8
DANMEN
  6
CONTINUOUS
 10
282.67352465266049
 20
161.11707640723341
 30
0.0
 11
282.67352465266049
 21
159.0671000583564
 31
0.0
  0
ARC
  5
5903
  8
DANMEN
  6
CONTINUOUS
 10
285.17353609675217
 20
161.41709090308311
 30
0.0
 40
1.0
 50
0.0000359721780749
 51
90.000017986089006
  0
ARC
  5
5904
  8
DANMEN
  6
CONTINUOUS
 10
284.87353685969168
 20
158.5671000583564
 30
0.0
 40
0.5
 50
90.000017986089006
 51
180.0
  0
LINE
  5
5905
  8
DANMEN
  6
CONTINUOUS
 10
284.37353685969163
 20
157.61708785132521
 30
0.0
 11
284.37353685969163
 21
160.6170764072335
 31
0.0
  0
ARC
  5
5906
  8
DANMEN
  6
CONTINUOUS
 10
298.87353685969163
 20
157.61708785132521
 30
0.0
 40
0.5
 50
269.99999931675541
 51
0.0000359721780749
  0
LINE
  5
5907
  8
DANMEN
  6
CONTINUOUS
 10
298.07354906672288
 20
143.4171338184272
 30
0.0
 11
298.07354906672288
 21
153.8171334369575
 31
0.0
  0
LINE
  5
5908
  8
DANMEN
  6
CONTINUOUS
 10
299.3735521184808
 20
143.11713362769251
 30
0.0
 11
299.3735521184808
 21
154.61713362769251
 31
0.0
  0
ARC
  5
5909
  8
DANMEN
  6
CONTINUOUS
 10
298.3735521184808
 20
143.11713362769251
 30
0.0
 40
1.0
 50
270.00001798608889
 51
0.0000359721780749
  0
ARC
  5
590A
  8
DANMEN
  6
CONTINUOUS
 10
297.57354906672282
 20
154.3171334369575
 30
0.0
 40
0.5
 50
180.00003597217801
 51
270.00001798608889
  0
ARC
  5
590B
  8
DANMEN
  6
CONTINUOUS
 10
297.57354906672282
 20
156.61713362769251
 30
0.0
 40
0.5
 50
89.999982013910966
 51
179.99996402782111
  0
LINE
  5
590C
  8
DANMEN
  6
CONTINUOUS
 10
297.07354906672282
 20
154.3171334369575
 30
0.0
 11
297.07354906672282
 21
156.61713362769251
 31
0.0
  0
LINE
  5
590D
  8
DANMEN
  6
CONTINUOUS
 10
298.3735521184808
 20
155.11713362769251
 30
0.0
 11
298.3735521184808
 21
156.61713362769251
 31
0.0
  0
ARC
  5
590E
  8
DANMEN
  6
CONTINUOUS
 10
298.87355211848069
 20
154.61713362769251
 30
0.0
 40
0.5
 50
0.0000359721780749
 51
89.999982013910966
  0
LINE
  5
590F
  8
DANMEN
  6
CONTINUOUS
 10
298.3735521184808
 20
155.11713362769251
 30
0.0
 11
298.87355211848069
 21
155.11713362769251
 31
0.0
  0
LINE
  5
5910
  8
DANMEN
  6
CONTINUOUS
 10
297.57354906672282
 20
157.11713362769251
 30
0.0
 11
297.8735521184808
 21
157.11713362769251
 31
0.0
  0
ARC
  5
5911
  8
DANMEN
  6
CONTINUOUS
 10
297.8735521184808
 20
156.61713362769251
 30
0.0
 40
0.5
 50
0.0000359721780749
 51
89.999982013910966
  0
LINE
  5
5912
  8
DANMEN
  6
CONTINUOUS
 10
297.57354906672282
 20
153.8171334369575
 30
0.0
 11
298.07354906672288
 21
153.8171334369575
 31
0.0
  0
LINE
  5
5913
  8
DANMEN
  6
CONTINUOUS
 10
284.37352160090262
 20
184.11670733527291
 30
0.0
 11
297.42350939387143
 21
184.11670733527291
 31
0.0
  0
LINE
  5
5914
  8
DANMEN
  6
CONTINUOUS
 10
297.42352465266049
 20
190.81708479956751
 30
0.0
 11
282.77354982966239
 21
190.81708479956751
 31
0.0
  0
LINE
  5
5915
  8
DANMEN
  6
CONTINUOUS
 10
298.87353685969163
 20
192.11708785132521
 30
0.0
 11
287.37353685969163
 21
192.11708785132521
 31
0.0
  0
ARC
  5
5916
  8
DANMEN
  6
CONTINUOUS
 10
274.87353685969163
 20
189.81706954077831
 30
0.0
 40
0.5
 50
89.999982013910966
 51
179.99996402782111
  0
ARC
  5
5917
  8
DANMEN
  6
CONTINUOUS
 10
275.17353705042649
 20
189.81706954077831
 30
0.0
 40
0.5
 50
0.0000359721780749
 51
89.999982013910966
  0
LINE
  5
5918
  8
DANMEN
  6
CONTINUOUS
 10
277.27351168268967
 20
190.81706954077831
 30
0.0
 11
277.27351168268967
 21
187.81708479956751
 31
0.0
  0
LINE
  5
5919
  8
DANMEN
  6
CONTINUOUS
 10
275.97352388972098
 20
190.81706954077831
 30
0.0
 11
275.97352388972098
 21
187.81708479956751
 31
0.0
  0
ARC
  5
591A
  8
DANMEN
  6
CONTINUOUS
 10
283.87353685969163
 20
189.81706954077831
 30
0.0
 40
0.5
 50
0.0
 51
89.999982013910966
  0
ARC
  5
591B
  8
DANMEN
  6
CONTINUOUS
 10
283.57353690737528
 20
189.81706954077831
 30
0.0
 40
0.5
 50
89.999982013910966
 51
179.99996402782111
  0
LINE
  5
591C
  8
DANMEN
  6
CONTINUOUS
 10
281.47356203669369
 20
190.81706954077831
 30
0.0
 11
281.47356203669369
 21
187.81708479956751
 31
0.0
  0
LINE
  5
591D
  8
DANMEN
  6
CONTINUOUS
 10
282.77354982966239
 20
190.81706954077831
 30
0.0
 11
282.77354982966239
 21
187.81708479956751
 31
0.0
  0
ARC
  5
591E
  8
DANMEN
  6
CONTINUOUS
 10
282.27354982966227
 20
187.81708479956751
 30
0.0
 40
0.5
 50
269.99999931675541
 51
0.0000359721780749
  0
LINE
  5
591F
  8
DANMEN
  6
CONTINUOUS
 10
280.87353685969163
 20
186.81706954077831
 30
0.0
 11
283.07353762263119
 21
186.81706954077831
 31
0.0
  0
LINE
  5
5920
  8
DANMEN
  6
CONTINUOUS
 10
280.87353685969163
 20
185.31706954077839
 30
0.0
 11
283.37353685969163
 21
185.31706954077839
 31
0.0
  0
LINE
  5
5921
  8
DANMEN
  6
CONTINUOUS
 10
275.67353705042638
 20
186.81706954077831
 30
0.0
 11
277.87353685969163
 21
186.81706954077831
 31
0.0
  0
LINE
  5
5922
  8
DANMEN
  6
CONTINUOUS
 10
275.37353685969163
 20
185.31706954077839
 30
0.0
 11
277.87353685969163
 21
185.31706954077839
 31
0.0
  0
LINE
  5
5923
  8
DANMEN
  6
CONTINUOUS
 10
274.37353685969168
 20
184.1167063815987
 30
0.0
 11
274.37353685969168
 21
185.81708479956751
 31
0.0
  0
ARC
  5
5924
  8
DANMEN
  6
CONTINUOUS
 10
276.47352388972092
 20
187.81708479956751
 30
0.0
 40
0.5
 50
179.99996402782111
 51
270.00000068324448
  0
ARC
  5
5925
  8
DANMEN
  6
CONTINUOUS
 10
276.77351168268967
 20
187.81708479956751
 30
0.0
 40
0.5
 50
270.00001798608889
 51
0.0
  0
LINE
  5
5926
  8
DANMEN
  6
CONTINUOUS
 10
276.47352388972092
 20
187.31708479956751
 30
0.0
 11
276.77351168268967
 21
187.31708479956751
 31
0.0
  0
ARC
  5
5927
  8
DANMEN
  6
CONTINUOUS
 10
275.37353685969163
 20
186.31706954077839
 30
0.0
 40
1.0
 50
180.00003597217801
 51
270.00001798608889
  0
LINE
  5
5928
  8
DANMEN
  6
CONTINUOUS
 10
275.67353705042638
 20
186.81706954077831
 30
0.0
 11
275.67353705042638
 21
189.81706954077831
 31
0.0
  0
LINE
  5
5929
  8
DANMEN
  6
CONTINUOUS
 10
274.37353685969168
 20
186.31706954077839
 30
0.0
 11
274.37353685969168
 21
189.81706954077831
 31
0.0
  0
LINE
  5
592A
  8
DANMEN
  6
CONTINUOUS
 10
282.27354982966227
 20
187.31708479956751
 30
0.0
 11
281.97356203669369
 21
187.31708479956751
 31
0.0
  0
ARC
  5
592B
  8
DANMEN
  6
CONTINUOUS
 10
281.97356203669369
 20
187.81708479956751
 30
0.0
 40
0.5
 50
180.0
 51
269.99998201391088
  0
LINE
  5
592C
  8
DANMEN
  6
CONTINUOUS
 10
284.37353685969163
 20
185.81708479956751
 30
0.0
 11
284.37353685969163
 21
184.11670733527291
 31
0.0
  0
ARC
  5
592D
  8
DANMEN
  6
CONTINUOUS
 10
283.37353685969163
 20
186.31706954077839
 30
0.0
 40
1.0
 50
270.00001798608889
 51
0.0
  0
LINE
  5
592E
  8
DANMEN
  6
CONTINUOUS
 10
283.07353762263119
 20
189.81706954077831
 30
0.0
 11
283.07353762263119
 21
186.81706954077831
 31
0.0
  0
LINE
  5
592F
  8
DANMEN
  6
CONTINUOUS
 10
284.37353685969163
 20
189.81706954077831
 30
0.0
 11
284.37353685969163
 21
186.31706954077839
 31
0.0
  0
LINE
  5
5930
  8
DANMEN
  6
CONTINUOUS
 10
286.37353685969163
 20
192.1170725925362
 30
0.0
 11
281.37353685969163
 21
192.1170725925362
 31
0.0
  0
ARC
  5
5931
  8
DANMEN
  6
CONTINUOUS
 10
277.37353685969163
 20
191.61707259253609
 30
0.0
 40
0.5
 50
0.0
 51
89.999982013910966
  0
LINE
  5
5932
  8
DANMEN
  6
CONTINUOUS
 10
277.27351168268967
 20
190.81706954077831
 30
0.0
 11
277.87353685969163
 21
190.81706954077831
 31
0.0
  0
LINE
  5
5933
  8
DANMEN
  6
CONTINUOUS
 10
274.87353685969163
 20
190.31706954077839
 30
0.0
 11
275.17353705042649
 21
190.31706954077839
 31
0.0
  0
LINE
  5
5934
  8
DANMEN
  6
CONTINUOUS
 10
277.87353685969163
 20
191.61707259253609
 30
0.0
 11
277.87353685969163
 21
190.81706954077831
 31
0.0
  0
ARC
  5
5935
  8
DANMEN
  6
CONTINUOUS
 10
281.37353685969163
 20
191.61707259253609
 30
0.0
 40
0.5
 50
90.000017986089006
 51
180.0
  0
LINE
  5
5936
  8
DANMEN
  6
CONTINUOUS
 10
281.47356203669369
 20
190.81706954077831
 30
0.0
 11
280.87353685969163
 21
190.81706954077831
 31
0.0
  0
LINE
  5
5937
  8
DANMEN
  6
CONTINUOUS
 10
280.87353685969163
 20
191.61707259253609
 30
0.0
 11
280.87353685969163
 21
190.81706954077831
 31
0.0
  0
LINE
  5
5938
  8
DANMEN
  6
CONTINUOUS
 10
288.37352160090262
 20
193.11667592362511
 30
0.0
 11
288.37352160090262
 21
199.116686354438
 31
0.0
  0
LINE
  5
5939
  8
DANMEN
  6
CONTINUOUS
 10
291.37341478937913
 20
193.11667592362511
 30
0.0
 11
291.37341478937913
 21
199.116686354438
 31
0.0
  0
ARC
  5
593A
  8
DANMEN
  6
CONTINUOUS
 10
286.87353685969168
 20
192.61708785132521
 30
0.0
 40
0.5
 50
0.0000359721780749
 51
180.0
  0
LINE
  5
593B
  8
DANMEN
  6
CONTINUOUS
 10
286.37353685969163
 20
192.61708785132521
 30
0.0
 11
286.37353685969163
 21
192.1170725925362
 31
0.0
  0
LINE
  5
593C
  8
DANMEN
  6
CONTINUOUS
 10
283.57353690737528
 20
190.31706954077839
 30
0.0
 11
283.87353685969163
 21
190.31706954077839
 31
0.0
  0
LINE
  5
593D
  8
DANMEN
  6
CONTINUOUS
 10
287.37353685969163
 20
192.61708785132521
 30
0.0
 11
287.37353685969163
 21
192.11708785132521
 31
0.0
  0
LINE
  5
593E
  8
DANMEN
  6
CONTINUOUS
 10
291.37346056574643
 20
193.11669118241431
 30
0.0
 11
288.37353685969163
 21
193.11669118241431
 31
0.0
  0
LINE
  5
593F
  8
DANMEN
  6
CONTINUOUS
 10
291.37347582453532
 20
199.116686354438
 30
0.0
 11
288.37353685969163
 21
199.116686354438
 31
0.0
  0
LINE
  5
5940
  8
DANMEN
  6
CONTINUOUS
 10
292.37362078303158
 20
200.11711836890339
 30
0.0
 11
292.37362078303158
 21
192.11711836890331
 31
0.0
  0
LINE
  5
5941
  8
DANMEN
  6
CONTINUOUS
 10
299.3734529363519
 20
199.11711836890339
 30
0.0
 11
299.3734529363519
 21
192.11711836890331
 31
0.0
  0
LINE
  5
5942
  8
DANMEN
  6
CONTINUOUS
 10
292.37362078303158
 20
192.62704337745461
 30
0.0
 11
299.86369455417372
 21
200.1171174759983
 31
0.0
  0
LINE
  5
5943
  8
DANMEN
  6
CONTINUOUS
 10
299.3734529363519
 20
192.89185203724961
 30
0.0
 11
292.37362078303158
 21
199.89168388459751
 31
0.0
  0
LINE
  5
5944
  8
DANMEN
  6
CONTINUOUS
 10
299.3734529363519
 20
195.1369159847319
 30
0.0
 11
294.39325057525252
 21
200.11711812813959
 31
0.0
  0
LINE
  5
5945
  8
DANMEN
  6
CONTINUOUS
 10
299.3734529363519
 20
197.38197993221431
 30
0.0
 11
296.63831488850792
 21
200.11711786050151
 31
0.0
  0
LINE
  5
5946
  8
DANMEN
  6
CONTINUOUS
 10
292.37362078303158
 20
197.11717146868901
 30
0.0
 11
295.37356719448502
 21
200.11711801127441
 31
0.0
  0
LINE
  5
5947
  8
DANMEN
  6
CONTINUOUS
 10
292.37362078303158
 20
194.87210742307181
 30
0.0
 11
297.61863087432943
 21
200.11711774363641
 31
0.0
  0
LINE
  5
5948
  8
DANMEN
  6
CONTINUOUS
 10
294.10875974425232
 20
192.11711836890331
 30
0.0
 11
299.3734529363519
 21
197.38181179112991
 31
0.0
  0
LINE
  5
5949
  8
DANMEN
  6
CONTINUOUS
 10
296.3538236917347
 20
192.11711836890331
 30
0.0
 11
299.3734529363519
 21
195.13674774551279
 31
0.0
  0
LINE
  5
594A
  8
DANMEN
  6
CONTINUOUS
 10
297.90312259294529
 20
192.11711836890331
 30
0.0
 11
292.37362078303158
 21
197.6466199371151
 31
0.0
  0
LINE
  5
594B
  8
DANMEN
  6
CONTINUOUS
 10
293.41299450171101
 20
192.11711836890331
 30
0.0
 11
292.37362078303158
 21
193.1564920421504
 31
0.0
  0
LINE
  5
594C
  8
DANMEN
  6
CONTINUOUS
 10
295.65805854732821
 20
192.11711836890331
 30
0.0
 11
292.37362078303158
 21
195.40155598963261
 31
0.0
  0
ARC
  5
594D
  8
DANMEN
  6
CONTINUOUS
 10
298.87353685969163
 20
191.61708785132521
 30
0.0
 40
0.5
 50
0.0000359721780749
 51
90.000017986089006
  0
LINE
  5
594E
  8
DANMEN
  6
CONTINUOUS
 10
298.59888763921703
 20
192.11711836890331
 30
0.0
 11
299.3734529363519
 21
192.89168369989551
 31
0.0
  0
LINE
  5
594F
  8
DANMEN
  6
CONTINUOUS
 10
292.37362078303158
 20
199.36223551430621
 30
0.0
 11
293.12850351464073
 21
200.11711827891239
 31
0.0
  0
ARC
  5
5950
  8
DANMEN
  6
CONTINUOUS
 10
300.37345293635173
 20
199.11711836890339
 30
0.0
 40
1.0
 50
90.00003665542431
 51
180.0000733108478
  0
LINE
  5
5951
  8
DANMEN
  6
CONTINUOUS
 10
299.47004722838881
 20
199.5304495918819
 30
0.0
 11
298.8833792017632
 21
200.11711759286351
 31
0.0
  0
LINE
  5
5952
  8
DANMEN
  6
CONTINUOUS
 10
333.37353685969163
 20
163.11714888648149
 30
0.0
 11
333.37353685969163
 21
184.11682940558541
 31
0.0
  0
LINE
  5
5953
  8
DANMEN
  6
CONTINUOUS
 10
341.32354906672282
 20
190.81708479956751
 30
0.0
 11
341.32354906672282
 21
159.0671000583564
 31
0.0
  0
LINE
  5
5954
  8
DANMEN
  6
CONTINUOUS
 10
339.37353685969163
 20
191.61708785132521
 30
0.0
 11
339.37353685969163
 21
157.61708785132521
 31
0.0
  0
LINE
  5
5955
  8
DANMEN
  6
CONTINUOUS
 10
320.268876825512
 20
163.11714888648149
 30
0.0
 11
339.37353685969163
 21
163.11714888648149
 31
0.0
  0
LINE
  5
5956
  8
DANMEN
  6
CONTINUOUS
 10
320.268876825512
 20
157.1171488864814
 30
0.0
 11
339.37353685969163
 21
157.1171488864814
 31
0.0
  0
ARC
  5
5957
  8
DANMEN
  6
CONTINUOUS
 10
339.87353685969163
 20
157.61708785132521
 30
0.0
 40
0.5
 50
179.99996402782111
 51
270.00000068324448
  0
POLYLINE
  5
5958
  8
SUNPO
  6
BYBLOCK
 66
     1
 10
0.0
 20
0.0
 30
0.0
 70
     1
 40
1.159999999999999
 41
1.159999999999999
  0
VERTEX
  5
5BD6
  8
SUNPO
  6
BYBLOCK
 10
332.46550158137143
 20
151.97208785132531
 30
0.0
 42
1.0
  0
VERTEX
  5
5BD7
  8
SUNPO
  6
BYBLOCK
 10
332.46550158137143
 20
152.2620878513253
 30
0.0
 42
1.0
  0
SEQEND
  5
5BD8
  8
SUNPO
  6
BYBLOCK
  0
TEXT
  5
595C
  8
SUNPO
  6
CONTINUOUS
 10
331.96542015744319
 20
185.24175421926941
 30
0.0
 40
2.5
  1
70
 50
89.999987510391477
  7
MX_NOTE_STANDARD
  0
LINE
  5
595D
  8
DANMEN
  6
CONTINUOUS
 10
320.26889208430111
 20
184.116710196296
 30
0.0
 11
339.37350634211361
 21
184.116710196296
 31
0.0
  0
LINE
  5
595E
  8
DANMEN
  6
CONTINUOUS
 10
320.26886156672282
 20
192.11655379370799
 30
0.0
 11
339.37350634211361
 21
192.11655379370799
 31
0.0
  0
LINE
  5
595F
  8
DANMEN
  6
CONTINUOUS
 10
351.37359789484799
 20
200.11666060523149
 30
0.0
 11
320.26889208430111
 21
200.11666060523149
 31
0.0
  0
LINE
  5
5960
  8
DANMEN
  6
CONTINUOUS
 10
320.26889208430111
 20
200.81662703589549
 30
0.0
 11
351.37361315363688
 21
200.81662703589549
 31
0.0
  0
LINE
  5
5961
  8
DANMEN
  6
CONTINUOUS
 10
339.87353685969163
 20
192.11708785132521
 30
0.0
 11
351.37353685969168
 21
192.11708785132521
 31
0.0
  0
LINE
  5
5962
  8
DANMEN
  6
CONTINUOUS
 10
339.37362078303153
 20
192.8918411536909
 30
0.0
 11
346.37345293635173
 21
199.89168657467201
 31
0.0
  0
LINE
  5
5963
  8
DANMEN
  6
CONTINUOUS
 10
340.84396133554952
 20
192.11711836890331
 30
0.0
 11
346.37345293635173
 21
197.6466204504452
 31
0.0
  0
LINE
  5
5964
  8
DANMEN
  6
CONTINUOUS
 10
342.39326459025563
 20
192.11711836890331
 30
0.0
 11
339.37362078303153
 21
195.1367564526283
 31
0.0
  0
LINE
  5
5965
  8
DANMEN
  6
CONTINUOUS
 10
344.63833071448232
 20
192.11711836890331
 30
0.0
 11
339.37362078303153
 21
197.38181832150741
 31
0.0
  0
LINE
  5
5966
  8
DANMEN
  6
CONTINUOUS
 10
346.37345293635173
 20
192.6270613047017
 30
0.0
 11
338.883382568211
 21
200.1171174759987
 31
0.0
  0
LINE
  5
5967
  8
DANMEN
  6
CONTINUOUS
 10
339.37362078303153
 20
197.3819734021443
 30
0.0
 11
342.10876005713601
 21
200.11711786050159
 31
0.0
  0
LINE
  5
5968
  8
DANMEN
  6
CONTINUOUS
 10
339.37362078303153
 20
195.1369072779176
 30
0.0
 11
344.3538221936526
 21
200.11711812813959
 31
0.0
  0
LINE
  5
5969
  8
DANMEN
  6
CONTINUOUS
 10
346.37345293635173
 20
194.8721231735806
 30
0.0
 11
341.12844842479888
 21
200.1171177436371
 31
0.0
  0
LINE
  5
596A
  8
DANMEN
  6
CONTINUOUS
 10
339.37362078303153
 20
192.11711836890331
 30
0.0
 11
339.37362078303153
 21
199.11711836890339
 31
0.0
  0
ARC
  5
596B
  8
DANMEN
  6
CONTINUOUS
 10
339.87353685969163
 20
191.61708785132521
 30
0.0
 40
0.5
 50
89.999982013910966
 51
179.99996402782111
  0
LINE
  5
596C
  8
DANMEN
  6
CONTINUOUS
 10
340.1481984660291
 20
192.11711836890331
 30
0.0
 11
339.37362078303153
 21
192.89169458374931
 31
0.0
  0
ARC
  5
596D
  8
DANMEN
  6
CONTINUOUS
 10
338.37362078303153
 20
199.11711836890339
 30
0.0
 40
1.0
 50
359.99990938630771
 51
89.999891400217919
  0
LINE
  5
596E
  8
DANMEN
  6
CONTINUOUS
 10
339.27702830973732
 20
199.5304468699928
 30
0.0
 11
339.86369792061981
 21
200.11711759286391
 31
0.0
  0
LINE
  5
596F
  8
DANMEN
  6
CONTINUOUS
 10
350.37352160090262
 20
199.1166901691353
 30
0.0
 11
350.37352160090262
 21
193.1166760428344
 31
0.0
  0
LINE
  5
5970
  8
DANMEN
  6
CONTINUOUS
 10
347.373628412426
 20
199.1166901691353
 30
0.0
 11
347.373628412426
 21
193.1166760428344
 31
0.0
  0
LINE
  5
5971
  8
DANMEN
  6
CONTINUOUS
 10
346.37345293635173
 20
192.11711836890331
 30
0.0
 11
346.37345293635173
 21
200.11711836890339
 31
0.0
  0
LINE
  5
5972
  8
DANMEN
  6
CONTINUOUS
 10
346.37345293635173
 20
197.1171850424596
 30
0.0
 11
343.37351428138658
 21
200.11711801127541
 31
0.0
  0
LINE
  5
5973
  8
DANMEN
  6
CONTINUOUS
 10
345.33408507330762
 20
192.11711836890331
 30
0.0
 11
346.37345293635173
 21
193.156488201992
 31
0.0
  0
LINE
  5
5974
  8
DANMEN
  6
CONTINUOUS
 10
343.0890232044286
 20
192.11711836890331
 30
0.0
 11
346.37345293635173
 21
195.40155432621859
 31
0.0
  0
LINE
  5
5975
  8
DANMEN
  6
CONTINUOUS
 10
351.37353685969168
 20
192.61708785132521
 30
0.0
 11
351.37353685969168
 21
192.11708785132521
 31
0.0
  0
LINE
  5
5976
  8
DANMEN
  6
CONTINUOUS
 10
350.37350634211361
 20
193.1166913016234
 30
0.0
 11
347.37358263605893
 21
193.1166913016234
 31
0.0
  0
LINE
  5
5977
  8
DANMEN
  6
CONTINUOUS
 10
346.37345293635173
 20
199.36224691133879
 30
0.0
 11
345.61858013797439
 21
200.11711827891361
 31
0.0
  0
LINE
  5
5978
  8
DANMEN
  6
CONTINUOUS
 10
350.37349108332438
 20
199.11669112280961
 30
0.0
 11
347.3735521184808
 21
199.11669112280961
 31
0.0
  0
LINE
  5
5979
  8
SUNPO
  6
CONTINUOUS
 10
379.37353685969163
 20
150.61708785132529
 30
0.0
 11
379.37353685969163
 21
112.11696578101279
 31
0.0
  0
LINE
  5
597A
  8
SUNPO
  6
CONTINUOUS
 10
420.58282641047282
 20
150.61708785132529
 30
0.0
 11
420.58282641047282
 21
102.11701155738
 31
0.0
  0
LINE
  5
597B
  8
SUNPO
  6
CONTINUOUS
 10
356.74751452082438
 20
107.11699629859091
 30
0.0
 11
356.74751452082438
 21
97.11701155738001
 31
0.0
  0
LINE
  5
597C
  8
SUNPO
  6
CONTINUOUS
 10
357.7475145208245
 20
97.11701155738001
 30
0.0
 11
353.43812731379319
 21
97.11701155738001
 31
0.0
  0
LINE
  5
597D
  8
SUNPO
  6
CONTINUOUS
 10
357.7475145208245
 20
107.11699629859091
 30
0.0
 11
355.7475145208245
 21
107.11699629859091
 31
0.0
  0
TEXT
  5
597E
  8
SUNPO
  6
CONTINUOUS
 10
357.49853685969163
 20
112.61696578101279
 30
0.0
 40
2.5
  1
40
  7
MX_NOTE_STANDARD
  0
LINE
  5
597F
  8
SUNPO
  6
CONTINUOUS
 10
420.5829204515008
 20
102.11700043061219
 30
0.0
 11
415.58292620628612
 21
97.117006185397415
 31
0.0
  0
LINE
  5
5980
  8
SUNPO
  6
CONTINUOUS
 10
415.58293322199643
 20
107.11700965003131
 30
0.0
 11
415.58293322199643
 21
97.117026816169073
 31
0.0
  0
LINE
  5
5981
  8
SUNPO
  6
CONTINUOUS
 10
415.58292654346093
 20
107.1170159178382
 30
0.0
 11
420.5829204515008
 21
102.11702200979811
 31
0.0
  0
TEXT
  5
5982
  8
SUNPO
  6
CONTINUOUS
 10
426.4162207789625
 20
112.61696578101279
 30
0.0
 40
2.5
  1
15
  7
MX_NOTE_STANDARD
  0
LINE
  5
5983
  8
DANMEN
  6
CONTINUOUS
 10
379.37353685969163
 20
163.1171336276924
 30
0.0
 11
398.478120599926
 21
163.1171336276924
 31
0.0
  0
LINE
  5
5984
  8
DANMEN
  6
CONTINUOUS
 10
379.37353685969163
 20
157.1171336276924
 30
0.0
 11
398.47818163508231
 21
157.1171336276924
 31
0.0
  0
LINE
  5
5985
  8
DANMEN
  6
CONTINUOUS
 10
398.47810534113688
 20
200.11665774420871
 30
0.0
 11
367.37339953059018
 21
200.11665774420871
 31
0.0
  0
LINE
  5
5986
  8
DANMEN
  6
CONTINUOUS
 10
367.37338427180111
 20
200.81662417487269
 30
0.0
 11
398.47810534113688
 21
200.81662417487269
 31
0.0
  0
LINE
  5
5987
  8
DANMEN
  6
CONTINUOUS
 10
379.37350634211361
 20
184.1167063815987
 30
0.0
 11
398.478120599926
 21
184.11670638159879
 31
0.0
  0
LINE
  5
5988
  8
DANMEN
  6
CONTINUOUS
 10
379.37350634211361
 20
192.11657191352009
 30
0.0
 11
398.47816637629319
 21
192.11657191352009
 31
0.0
  0
LINE
  5
5989
  8
DANMEN
  6
CONTINUOUS
 10
385.37353685969163
 20
184.11682940558541
 30
0.0
 11
385.37353685969163
 21
163.11713362769251
 31
0.0
  0
LINE
  5
598A
  8
DANMEN
  6
CONTINUOUS
 10
377.42352465266038
 20
190.81708479956751
 30
0.0
 11
377.42352465266038
 21
159.0671000583564
 31
0.0
  0
LINE
  5
598B
  8
DANMEN
  6
CONTINUOUS
 10
379.37353685969163
 20
191.61708785132521
 30
0.0
 11
379.37353685969163
 21
157.61708785132521
 31
0.0
  0
LINE
  5
598C
  8
DANMEN
  6
CONTINUOUS
 10
357.87353685969163
 20
185.31708479956751
 30
0.0
 11
357.87353685969163
 21
159.0671000583564
 31
0.0
  0
LINE
  5
598D
  8
DANMEN
  6
CONTINUOUS
 10
360.87353685969163
 20
185.31708479956751
 30
0.0
 11
360.87353685969163
 21
159.0671000583564
 31
0.0
  0
LINE
  5
598E
  8
DANMEN
  6
CONTINUOUS
 10
364.37353685969163
 20
163.1171336276924
 30
0.0
 11
377.42352465266038
 21
163.1171336276924
 31
0.0
  0
LINE
  5
598F
  8
DANMEN
  6
CONTINUOUS
 10
377.42352465266038
 20
159.0671000583564
 30
0.0
 11
366.17353991144938
 21
159.0671000583564
 31
0.0
  0
LINE
  5
5990
  8
DANMEN
  6
CONTINUOUS
 10
378.87353685969163
 20
157.11708785132521
 30
0.0
 11
364.37353685969163
 21
157.11708785132521
 31
0.0
  0
LINE
  5
5991
  8
DANMEN
  6
CONTINUOUS
 10
364.37353685969163
 20
158.5671000583564
 30
0.0
 11
364.37353685969163
 21
157.11708785132521
 31
0.0
  0
ARC
  5
5992
  8
DANMEN
  6
CONTINUOUS
 10
363.87353685969168
 20
157.61708785132521
 30
0.0
 40
0.5
 50
270.00001798608889
 51
0.0
  0
LINE
  5
5993
  8
DANMEN
  6
CONTINUOUS
 10
354.37353685969163
 20
158.5671000583564
 30
0.0
 11
354.37353685969163
 21
157.11708785132521
 31
0.0
  0
ARC
  5
5994
  8
DANMEN
  6
CONTINUOUS
 10
354.87353685969163
 20
157.61708785132521
 30
0.0
 40
0.5
 50
179.99996402782111
 51
270.00000068324448
  0
LINE
  5
5995
  8
DANMEN
  6
CONTINUOUS
 10
354.87353685969163
 20
157.11708785132521
 30
0.0
 11
363.87353685969168
 21
157.11708785132521
 31
0.0
  0
ARC
  5
5996
  8
DANMEN
  6
CONTINUOUS
 10
362.073564325512
 20
161.41709090308311
 30
0.0
 40
1.0
 50
90.000017986089006
 51
180.0
  0
ARC
  5
5997
  8
DANMEN
  6
CONTINUOUS
 10
361.57354906672282
 20
159.8171000583564
 30
0.0
 40
0.5
 50
180.0
 51
269.99998201391088
  0
LINE
  5
5998
  8
DANMEN
  6
CONTINUOUS
 10
360.87353685969163
 20
159.0671000583564
 30
0.0
 11
362.67352465266032
 21
159.0671000583564
 31
0.0
  0
LINE
  5
5999
  8
DANMEN
  6
CONTINUOUS
 10
356.37353685969163
 20
159.3171000583564
 30
0.0
 11
357.17352465266032
 21
159.3171000583564
 31
0.0
  0
LINE
  5
599A
  8
DANMEN
  6
CONTINUOUS
 10
356.07353380793393
 20
159.0671000583564
 30
0.0
 11
357.87353685969163
 21
159.0671000583564
 31
0.0
  0
LINE
  5
599B
  8
DANMEN
  6
CONTINUOUS
 10
353.57353762263119
 20
162.41709090308311
 30
0.0
 11
356.67350939387148
 21
162.41709090308311
 31
0.0
  0
LINE
  5
599C
  8
DANMEN
  6
CONTINUOUS
 10
356.37353685969163
 20
161.11708785132521
 30
0.0
 11
356.37353685969163
 21
159.3171000583564
 31
0.0
  0
LINE
  5
599D
  8
DANMEN
  6
CONTINUOUS
 10
356.07353380793393
 20
161.11708785132521
 30
0.0
 11
356.07353380793393
 21
159.0671000583564
 31
0.0
  0
ARC
  5
599E
  8
DANMEN
  6
CONTINUOUS
 10
353.57353762263119
 20
161.41709090308311
 30
0.0
 40
1.0
 50
89.999982013910966
 51
179.99996402782111
  0
LINE
  5
599F
  8
DANMEN
  6
CONTINUOUS
 10
353.87353685969163
 20
161.11708785132521
 30
0.0
 11
353.87353685969163
 21
159.0671000583564
 31
0.0
  0
LINE
  5
59A0
  8
DANMEN
  6
CONTINUOUS
 10
352.57353762263108
 20
161.41709090308311
 30
0.0
 11
352.57353762263108
 21
159.0671000583564
 31
0.0
  0
ARC
  5
59A1
  8
DANMEN
  6
CONTINUOUS
 10
354.87353685969163
 20
160.61708785132521
 30
0.0
 40
0.5
 50
89.999982013910966
 51
179.99996402782111
  0
LINE
  5
59A2
  8
DANMEN
  6
CONTINUOUS
 10
353.87353685969163
 20
161.11708785132521
 30
0.0
 11
356.37353685969163
 21
161.11708785132521
 31
0.0
  0
LINE
  5
59A3
  8
DANMEN
  6
CONTINUOUS
 10
354.87353685969163
 20
161.11708785132521
 30
0.0
 11
356.07353380793393
 21
161.11708785132521
 31
0.0
  0
ARC
  5
59A4
  8
DANMEN
  6
CONTINUOUS
 10
353.87353685969163
 20
158.5671000583564
 30
0.0
 40
0.5
 50
0.0
 51
89.999982013910966
  0
LINE
  5
59A5
  8
DANMEN
  6
CONTINUOUS
 10
354.37353685969163
 20
160.61708785132521
 30
0.0
 11
354.37353685969163
 21
157.61708785132521
 31
0.0
  0
LINE
  5
59A6
  8
DANMEN
  6
CONTINUOUS
 10
361.07356432551188
 20
161.41709090308311
 30
0.0
 11
361.07356432551188
 21
159.8171000583564
 31
0.0
  0
ARC
  5
59A7
  8
DANMEN
  6
CONTINUOUS
 10
356.67350939387148
 20
161.41709090308311
 30
0.0
 40
1.0
 50
0.0
 51
89.999982013910966
  0
LINE
  5
59A8
  8
DANMEN
  6
CONTINUOUS
 10
357.67350939387143
 20
161.41709090308311
 30
0.0
 11
357.67350939387143
 21
159.8171000583564
 31
0.0
  0
ARC
  5
59A9
  8
DANMEN
  6
CONTINUOUS
 10
357.17352465266032
 20
159.8171000583564
 30
0.0
 40
0.5
 50
270.00001798608889
 51
0.0
  0
ARC
  5
59AA
  8
DANMEN
  6
CONTINUOUS
 10
365.17353609675212
 20
161.41709090308311
 30
0.0
 40
1.0
 50
0.0000359721788891
 51
90.000017986089006
  0
LINE
  5
59AB
  8
DANMEN
  6
CONTINUOUS
 10
364.87353685969163
 20
161.11708785132521
 30
0.0
 11
364.87353685969163
 21
159.0671000583564
 31
0.0
  0
LINE
  5
59AC
  8
DANMEN
  6
CONTINUOUS
 10
366.17353609675212
 20
161.41709090308311
 30
0.0
 11
366.17353609675212
 21
159.0671000583564
 31
0.0
  0
ARC
  5
59AD
  8
DANMEN
  6
CONTINUOUS
 10
363.87353685969168
 20
160.61708785132521
 30
0.0
 40
0.5
 50
0.0
 51
89.999982013910966
  0
LINE
  5
59AE
  8
DANMEN
  6
CONTINUOUS
 10
362.37353685969163
 20
159.3171000583564
 30
0.0
 11
361.57354906672282
 21
159.3171000583564
 31
0.0
  0
LINE
  5
59AF
  8
DANMEN
  6
CONTINUOUS
 10
362.37353685969163
 20
161.11708785132521
 30
0.0
 11
362.37353685969163
 21
159.3171000583564
 31
0.0
  0
LINE
  5
59B0
  8
DANMEN
  6
CONTINUOUS
 10
362.67352465266032
 20
161.11708785132521
 30
0.0
 11
362.67352465266032
 21
159.0671000583564
 31
0.0
  0
LINE
  5
59B1
  8
DANMEN
  6
CONTINUOUS
 10
365.17353609675212
 20
162.41709090308311
 30
0.0
 11
362.073564325512
 21
162.41709090308311
 31
0.0
  0
LINE
  5
59B2
  8
DANMEN
  6
CONTINUOUS
 10
364.87353685969163
 20
161.11708785132521
 30
0.0
 11
362.37353685969163
 21
161.11708785132521
 31
0.0
  0
LINE
  5
59B3
  8
DANMEN
  6
CONTINUOUS
 10
362.67352465266032
 20
161.11708785132521
 30
0.0
 11
363.87353685969168
 21
161.11708785132521
 31
0.0
  0
ARC
  5
59B4
  8
DANMEN
  6
CONTINUOUS
 10
364.87353685969163
 20
158.5671000583564
 30
0.0
 40
0.5
 50
90.000017986089006
 51
180.0
  0
LINE
  5
59B5
  8
DANMEN
  6
CONTINUOUS
 10
364.37353685969163
 20
160.61708785132521
 30
0.0
 11
364.37353685969163
 21
157.61708785132521
 31
0.0
  0
ARC
  5
59B6
  8
DANMEN
  6
CONTINUOUS
 10
378.87353685969163
 20
157.61708785132521
 30
0.0
 40
0.5
 50
269.9999993167537
 51
0.0000359721788891
  0
LINE
  5
59B7
  8
DANMEN
  6
CONTINUOUS
 10
364.37352160090262
 20
184.1167063815987
 30
0.0
 11
377.42350939387131
 21
184.1167063815987
 31
0.0
  0
LINE
  5
59B8
  8
DANMEN
  6
CONTINUOUS
 10
377.42352465266038
 20
190.81708479956751
 30
0.0
 11
362.77354982966227
 21
190.81708479956751
 31
0.0
  0
LINE
  5
59B9
  8
DANMEN
  6
CONTINUOUS
 10
378.87353685969163
 20
192.11708785132521
 30
0.0
 11
367.37353685969163
 21
192.11708785132521
 31
0.0
  0
ARC
  5
59BA
  8
DANMEN
  6
CONTINUOUS
 10
363.87353685969168
 20
189.81708479956751
 30
0.0
 40
0.5
 50
0.0
 51
89.999982013910966
  0
ARC
  5
59BB
  8
DANMEN
  6
CONTINUOUS
 10
363.5735369073754
 20
189.81708479956751
 30
0.0
 40
0.5
 50
89.999982013910966
 51
179.99996402782111
  0
LINE
  5
59BC
  8
DANMEN
  6
CONTINUOUS
 10
361.47356203669358
 20
190.81706954077831
 30
0.0
 11
361.47356203669358
 21
187.81708479956751
 31
0.0
  0
LINE
  5
59BD
  8
DANMEN
  6
CONTINUOUS
 10
362.77354982966227
 20
190.81706954077831
 30
0.0
 11
362.77354982966227
 21
187.81708479956751
 31
0.0
  0
ARC
  5
59BE
  8
DANMEN
  6
CONTINUOUS
 10
354.87353685969163
 20
189.81708479956751
 30
0.0
 40
0.5
 50
89.999982013910966
 51
179.99996402782111
  0
ARC
  5
59BF
  8
DANMEN
  6
CONTINUOUS
 10
355.1735370504266
 20
189.81708479956751
 30
0.0
 40
0.5
 50
0.0000359721780749
 51
89.999982013910966
  0
LINE
  5
59C0
  8
DANMEN
  6
CONTINUOUS
 10
357.27351168268967
 20
190.81706954077831
 30
0.0
 11
357.27351168268967
 21
187.81708479956751
 31
0.0
  0
LINE
  5
59C1
  8
DANMEN
  6
CONTINUOUS
 10
355.97352388972092
 20
190.81706954077831
 30
0.0
 11
355.97352388972092
 21
187.81708479956751
 31
0.0
  0
ARC
  5
59C2
  8
DANMEN
  6
CONTINUOUS
 10
361.97356203669358
 20
187.81708479956751
 30
0.0
 40
0.5
 50
180.0
 51
269.99998201391088
  0
LINE
  5
59C3
  8
DANMEN
  6
CONTINUOUS
 10
360.87353685969163
 20
186.81708479956751
 30
0.0
 11
363.07353762263108
 21
186.81708479956751
 31
0.0
  0
LINE
  5
59C4
  8
DANMEN
  6
CONTINUOUS
 10
360.87353685969163
 20
185.31708479956751
 30
0.0
 11
363.37353685969163
 21
185.31708479956751
 31
0.0
  0
LINE
  5
59C5
  8
DANMEN
  6
CONTINUOUS
 10
356.47352388972092
 20
187.31708479956751
 30
0.0
 11
356.77351168268962
 21
187.31708479956751
 31
0.0
  0
LINE
  5
59C6
  8
DANMEN
  6
CONTINUOUS
 10
355.6735370504266
 20
186.81708479956751
 30
0.0
 11
357.87353685969163
 21
186.81708479956751
 31
0.0
  0
LINE
  5
59C7
  8
DANMEN
  6
CONTINUOUS
 10
355.37353685969168
 20
185.31708479956751
 30
0.0
 11
357.87353685969163
 21
185.31708479956751
 31
0.0
  0
ARC
  5
59C8
  8
DANMEN
  6
CONTINUOUS
 10
356.47352388972092
 20
187.81708479956751
 30
0.0
 40
0.5
 50
179.99996402782111
 51
270.00000068324448
  0
LINE
  5
59C9
  8
DANMEN
  6
CONTINUOUS
 10
354.37353685969163
 20
184.1167063815987
 30
0.0
 11
354.37353685969163
 21
185.81708479956751
 31
0.0
  0
ARC
  5
59CA
  8
DANMEN
  6
CONTINUOUS
 10
355.37353685969168
 20
186.31708479956751
 30
0.0
 40
1.0
 50
180.00003597217801
 51
270.00001798608889
  0
LINE
  5
59CB
  8
DANMEN
  6
CONTINUOUS
 10
355.6735370504266
 20
186.81708479956751
 30
0.0
 11
355.6735370504266
 21
189.81708479956751
 31
0.0
  0
LINE
  5
59CC
  8
DANMEN
  6
CONTINUOUS
 10
354.37353685969163
 20
186.31708479956751
 30
0.0
 11
354.37353685969163
 21
189.81708479956751
 31
0.0
  0
ARC
  5
59CD
  8
DANMEN
  6
CONTINUOUS
 10
356.77351168268962
 20
187.81708479956751
 30
0.0
 40
0.5
 50
270.00001798608889
 51
0.0
  0
LINE
  5
59CE
  8
DANMEN
  6
CONTINUOUS
 10
364.37353685969163
 20
185.81708479956751
 30
0.0
 11
364.37353685969163
 21
184.11670733527291
 31
0.0
  0
ARC
  5
59CF
  8
DANMEN
  6
CONTINUOUS
 10
362.27354982966239
 20
187.81708479956751
 30
0.0
 40
0.5
 50
269.9999993167537
 51
0.0000359721788891
  0
LINE
  5
59D0
  8
DANMEN
  6
CONTINUOUS
 10
362.27354982966239
 20
187.31708479956751
 30
0.0
 11
361.97356203669358
 21
187.31708479956751
 31
0.0
  0
ARC
  5
59D1
  8
DANMEN
  6
CONTINUOUS
 10
363.37353685969163
 20
186.31708479956751
 30
0.0
 40
1.0
 50
270.00001798608889
 51
0.0
  0
LINE
  5
59D2
  8
DANMEN
  6
CONTINUOUS
 10
363.07353762263108
 20
189.81708479956751
 30
0.0
 11
363.07353762263108
 21
186.81708479956751
 31
0.0
  0
LINE
  5
59D3
  8
DANMEN
  6
CONTINUOUS
 10
364.37353685969163
 20
189.81708479956751
 30
0.0
 11
364.37353685969163
 21
186.31708479956751
 31
0.0
  0
LINE
  5
59D4
  8
DANMEN
  6
CONTINUOUS
 10
366.37353685969163
 20
192.1170725925362
 30
0.0
 11
361.37353685969163
 21
192.1170725925362
 31
0.0
  0
LINE
  5
59D5
  8
DANMEN
  6
CONTINUOUS
 10
352.37353685969163
 20
192.1170725925362
 30
0.0
 11
357.37353685969168
 21
192.1170725925362
 31
0.0
  0
LINE
  5
59D6
  8
DANMEN
  6
CONTINUOUS
 10
352.37353685969163
 20
192.61708785132521
 30
0.0
 11
352.37353685969163
 21
192.1170725925362
 31
0.0
  0
LINE
  5
59D7
  8
DANMEN
  6
CONTINUOUS
 10
354.87353685969163
 20
190.3170847995674
 30
0.0
 11
355.1735370504266
 21
190.3170847995674
 31
0.0
  0
ARC
  5
59D8
  8
DANMEN
  6
CONTINUOUS
 10
361.37353685969163
 20
191.61707259253609
 30
0.0
 40
0.5
 50
90.000017986089006
 51
180.0
  0
LINE
  5
59D9
  8
DANMEN
  6
CONTINUOUS
 10
361.47356203669358
 20
190.81706954077831
 30
0.0
 11
360.87353685969163
 21
190.81706954077831
 31
0.0
  0
LINE
  5
59DA
  8
DANMEN
  6
CONTINUOUS
 10
360.87353685969163
 20
191.61707259253609
 30
0.0
 11
360.87353685969163
 21
190.81706954077831
 31
0.0
  0
ARC
  5
59DB
  8
DANMEN
  6
CONTINUOUS
 10
357.37353685969168
 20
191.61707259253609
 30
0.0
 40
0.5
 50
0.0
 51
89.999982013910966
  0
LINE
  5
59DC
  8
DANMEN
  6
CONTINUOUS
 10
357.27351168268967
 20
190.81706954077831
 30
0.0
 11
357.87353685969163
 21
190.81706954077831
 31
0.0
  0
LINE
  5
59DD
  8
DANMEN
  6
CONTINUOUS
 10
357.87353685969163
 20
191.61707259253609
 30
0.0
 11
357.87353685969163
 21
190.81706954077831
 31
0.0
  0
LINE
  5
59DE
  8
DANMEN
  6
CONTINUOUS
 10
368.37352160090251
 20
193.11667586402049
 30
0.0
 11
368.37352160090251
 21
199.11668826178681
 31
0.0
  0
LINE
  5
59DF
  8
DANMEN
  6
CONTINUOUS
 10
371.37341478937913
 20
193.11667586402049
 30
0.0
 11
371.37341478937913
 21
199.11668826178661
 31
0.0
  0
ARC
  5
59E0
  8
DANMEN
  6
CONTINUOUS
 10
366.87353685969163
 20
192.61708785132521
 30
0.0
 40
0.5
 50
0.0000359721788891
 51
180.0
  0
LINE
  5
59E1
  8
DANMEN
  6
CONTINUOUS
 10
366.37353685969163
 20
192.61708785132521
 30
0.0
 11
366.37353685969163
 21
192.1170725925362
 31
0.0
  0
LINE
  5
59E2
  8
DANMEN
  6
CONTINUOUS
 10
363.5735369073754
 20
190.3170847995674
 30
0.0
 11
363.87353685969168
 21
190.3170847995674
 31
0.0
  0
LINE
  5
59E3
  8
DANMEN
  6
CONTINUOUS
 10
371.37346056574631
 20
193.11669112280961
 30
0.0
 11
368.37353685969163
 21
193.11669112280961
 31
0.0
  0
LINE
  5
59E4
  8
DANMEN
  6
CONTINUOUS
 10
367.37353685969163
 20
192.61708785132521
 30
0.0
 11
367.37353685969163
 21
192.11708785132521
 31
0.0
  0
LINE
  5
59E5
  8
DANMEN
  6
CONTINUOUS
 10
371.37347582453538
 20
199.11668826178681
 30
0.0
 11
368.37353685969163
 21
199.11668826178681
 31
0.0
  0
LINE
  5
59E6
  8
DANMEN
  6
CONTINUOUS
 10
372.37362078303141
 20
200.11711836890339
 30
0.0
 11
372.37362078303141
 21
192.11711836890331
 31
0.0
  0
LINE
  5
59E7
  8
DANMEN
  6
CONTINUOUS
 10
379.37345293635178
 20
199.11711836890339
 30
0.0
 11
379.37345293635178
 21
192.11711836890331
 31
0.0
  0
LINE
  5
59E8
  8
DANMEN
  6
CONTINUOUS
 10
372.37362078303141
 20
192.62704337745461
 30
0.0
 11
379.86369455417361
 21
200.1171174759983
 31
0.0
  0
LINE
  5
59E9
  8
DANMEN
  6
CONTINUOUS
 10
379.37345293635178
 20
192.89185203724961
 30
0.0
 11
372.37362078303141
 21
199.89168388459751
 31
0.0
  0
LINE
  5
59EA
  8
DANMEN
  6
CONTINUOUS
 10
379.37345293635178
 20
197.38197993221431
 30
0.0
 11
376.63831488850792
 21
200.11711786050151
 31
0.0
  0
LINE
  5
59EB
  8
DANMEN
  6
CONTINUOUS
 10
372.37362078303141
 20
197.11717146868901
 30
0.0
 11
375.37356719448502
 21
200.11711801127441
 31
0.0
  0
LINE
  5
59EC
  8
DANMEN
  6
CONTINUOUS
 10
372.37362078303141
 20
194.87210742307181
 30
0.0
 11
377.61863087432943
 21
200.11711774363641
 31
0.0
  0
LINE
  5
59ED
  8
DANMEN
  6
CONTINUOUS
 10
379.37345293635178
 20
195.1369159847319
 30
0.0
 11
374.39325057525252
 21
200.11711812813959
 31
0.0
  0
LINE
  5
59EE
  8
DANMEN
  6
CONTINUOUS
 10
374.10875974425232
 20
192.11711836890331
 30
0.0
 11
379.37345293635178
 21
197.38181179112991
 31
0.0
  0
LINE
  5
59EF
  8
DANMEN
  6
CONTINUOUS
 10
376.3538236917347
 20
192.11711836890331
 30
0.0
 11
379.37345293635178
 21
195.13674774551279
 31
0.0
  0
LINE
  5
59F0
  8
DANMEN
  6
CONTINUOUS
 10
377.90312259294541
 20
192.11711836890331
 30
0.0
 11
372.37362078303141
 21
197.6466199371151
 31
0.0
  0
LINE
  5
59F1
  8
DANMEN
  6
CONTINUOUS
 10
373.41299450171101
 20
192.11711836890331
 30
0.0
 11
372.37362078303141
 21
193.1564920421504
 31
0.0
  0
LINE
  5
59F2
  8
DANMEN
  6
CONTINUOUS
 10
375.65805854732821
 20
192.11711836890331
 30
0.0
 11
372.37362078303141
 21
195.40155598963261
 31
0.0
  0
ARC
  5
59F3
  8
DANMEN
  6
CONTINUOUS
 10
378.87353685969163
 20
191.61708785132521
 30
0.0
 40
0.5
 50
0.0000359721788891
 51
90.000017986089006
  0
LINE
  5
59F4
  8
DANMEN
  6
CONTINUOUS
 10
378.59888763921691
 20
192.11711836890331
 30
0.0
 11
379.37345293635178
 21
192.89168369989559
 31
0.0
  0
LINE
  5
59F5
  8
DANMEN
  6
CONTINUOUS
 10
372.37362078303141
 20
199.36223551430621
 30
0.0
 11
373.12850351464073
 21
200.11711827891239
 31
0.0
  0
ARC
  5
59F6
  8
DANMEN
  6
CONTINUOUS
 10
380.37345293635178
 20
199.11711836890339
 30
0.0
 40
1.0
 50
90.00003665542431
 51
180.0000733108478
  0
LINE
  5
59F7
  8
DANMEN
  6
CONTINUOUS
 10
379.47004722838892
 20
199.5304495918819
 30
0.0
 11
378.8833792017632
 21
200.11711759286351
 31
0.0
  0
LINE
  5
59F8
  8
DANMEN
  6
CONTINUOUS
 10
419.58288744562913
 20
184.11670733527291
 30
0.0
 11
419.58288744562913
 21
163.11711836890339
 31
0.0
  0
LINE
  5
59F9
  8
DANMEN
  6
CONTINUOUS
 10
422.232904781456
 20
190.8169648365444
 30
0.0
 11
422.23289972237728
 21
158.766967506833
 31
0.0
  0
LINE
  5
59FA
  8
DANMEN
  6
CONTINUOUS
 10
420.58289289143988
 20
191.61696814875589
 30
0.0
 11
420.58288752455422
 21
157.61696814875651
 31
0.0
  0
LINE
  5
59FB
  8
DANMEN
  6
CONTINUOUS
 10
401.47815111750418
 20
163.11711836890331
 30
0.0
 11
420.58288744562913
 21
163.11711836890331
 31
0.0
  0
LINE
  5
59FC
  8
DANMEN
  6
CONTINUOUS
 10
401.47815111750418
 20
157.11711836890331
 30
0.0
 11
420.58285692805111
 21
157.11711836890331
 31
0.0
  0
ARC
  5
59FD
  8
DANMEN
  6
CONTINUOUS
 10
421.08288752455422
 20
157.61696801022691
 30
0.0
 40
0.5
 50
179.9999543004607
 51
269.99991832832569
  0
LINE
  5
59FE
  8
DANMEN
  6
CONTINUOUS
 10
401.47815111750418
 20
192.11663199500191
 30
0.0
 11
420.58281115168393
 21
192.11663199500191
 31
0.0
  0
LINE
  5
59FF
  8
DANMEN
  6
CONTINUOUS
 10
401.47815111750418
 20
184.1167092426216
 30
0.0
 11
420.58285692805111
 21
184.1167092426216
 31
0.0
  0
LINE
  5
5A00
  8
DANMEN
  6
CONTINUOUS
 10
423.60257772530929
 20
192.1170972504371
 30
0.0
 11
420.58296959893988
 21
195.1367477451455
 31
0.0
  0
LINE
  5
5A01
  8
DANMEN
  6
CONTINUOUS
 10
425.84764167273681
 20
192.117081549288
 30
0.0
 11
420.58298530008949
 21
197.3818117907077
 31
0.0
  0
LINE
  5
5A02
  8
DANMEN
  6
CONTINUOUS
 10
427.5827842001425
 20
192.62699442290511
 30
0.0
 11
420.09276281199823
 21
200.11712090407809
 31
0.0
  0
LINE
  5
5A03
  8
DANMEN
  6
CONTINUOUS
 10
420.58295389896728
 20
192.89185203693711
 30
0.0
 11
427.5828350063581
 21
199.89163492987041
 31
0.0
  0
LINE
  5
5A04
  8
DANMEN
  6
CONTINUOUS
 10
420.48640603483477
 20
199.53045026695199
 30
0.0
 11
421.07307816438572
 21
200.11711416497931
 31
0.0
  0
LINE
  5
5A05
  8
DANMEN
  6
CONTINUOUS
 10
420.5829853012653
 20
197.3819799317921
 30
0.0
 11
423.31814247758791
 21
200.11709873146609
 31
0.0
  0
LINE
  5
5A06
  8
DANMEN
  6
CONTINUOUS
 10
420.58296960011631
 20
195.13691598436449
 30
0.0
 11
425.56320679079028
 21
200.1170832979526
 31
0.0
  0
ARC
  5
5A07
  8
DANMEN
  6
CONTINUOUS
 10
421.08289289143738
 20
191.6169528110421
 30
0.0
 40
0.5
 50
90.000026928063917
 51
179.9999543004607
  0
LINE
  5
5A08
  8
DANMEN
  6
CONTINUOUS
 10
421.35751377788171
 20
192.11711295158599
 30
0.0
 11
420.58295389779011
 21
192.89168369958301
 31
0.0
  0
LINE
  5
5A09
  8
DANMEN
  6
CONTINUOUS
 10
420.5829974361834
 20
199.11711836843881
 30
0.0
 11
420.58294848076599
 21
192.11711836860991
 31
0.0
  0
ARC
  5
5A0A
  8
DANMEN
  6
CONTINUOUS
 10
419.58299743620779
 20
199.1171253620698
 30
0.0
 40
0.9999999999999998
 50
359.99952598360881
 51
89.999562639033243
  0
LINE
  5
5A0B
  8
DANMEN
  6
CONTINUOUS
 10
428.58288744562913
 20
199.1167054279243
 30
0.0
 11
428.58288744562913
 21
193.11669118241409
 31
0.0
  0
LINE
  5
5A0C
  8
DANMEN
  6
CONTINUOUS
 10
427.58283658296358
 20
200.1170694141708
 30
0.0
 11
427.58278063391509
 21
192.1170694143664
 31
0.0
  0
LINE
  5
5A0D
  8
DANMEN
  6
CONTINUOUS
 10
427.58279990129211
 20
194.87205846846729
 30
0.0
 11
422.33782649178949
 21
200.1171054705691
 31
0.0
  0
LINE
  5
5A0E
  8
DANMEN
  6
CONTINUOUS
 10
427.58281560244183
 20
197.1171225140296
 30
0.0
 11
424.58289017158091
 21
200.11709003706011
 31
0.0
  0
LINE
  5
5A0F
  8
DANMEN
  6
CONTINUOUS
 10
422.0532788241365
 20
192.11710808566201
 30
0.0
 11
427.58281930520911
 21
197.6465709824428
 31
0.0
  0
LINE
  5
5A10
  8
DANMEN
  6
CONTINUOUS
 10
424.29834286969867
 20
192.1170923845122
 30
0.0
 11
427.58280360406002
 21
195.40150703501541
 31
0.0
  0
LINE
  5
5A11
  8
DANMEN
  6
CONTINUOUS
 10
426.54340691526102
 20
192.11707668336271
 30
0.0
 11
427.58278790291121
 21
193.156443087588
 31
0.0
  0
LINE
  5
5A12
  8
DANMEN
  6
CONTINUOUS
 10
427.58283130359138
 20
199.36218655959209
 30
0.0
 11
426.82795385137217
 21
200.11707460355109
 31
0.0
  0
LINE
  5
5A13
  8
SUNPO
  6
CONTINUOUS
 10
435.58294848078549
 20
150.61708785132529
 30
0.0
 11
435.58294848078549
 21
112.11696578101279
 31
0.0
  0
LINE
  5
5A14
  8
SUNPO
  6
BYBLOCK
 10
472.58293322199631
 20
169.11692000464561
 30
0.0
 11
472.58293322199631
 21
102.11701155738
 31
0.0
  0
LINE
  5
5A15
  8
DANMEN
  6
CONTINUOUS
 10
446.58285692805089
 20
132.11716414527049
 30
0.0
 11
446.58285692805089
 21
152.1169810398018
 31
0.0
  0
LINE
  5
5A16
  8
DANMEN
  6
CONTINUOUS
 10
462.58291796320742
 20
170.46691084937211
 30
0.0
 11
462.58291796320742
 21
133.7669291599189
 31
0.0
  0
LINE
  5
5A17
  8
DANMEN
  6
CONTINUOUS
 10
460.7829301702385
 20
152.11692000464561
 30
0.0
 11
460.7829301702385
 21
132.61692000464549
 31
0.0
  0
LINE
  5
5A18
  8
SUNPO
  6
BYBLOCK
 10
466.7829301702385
 20
102.11701155738
 30
0.0
 11
472.58293322199631
 21
102.11701155738
 31
0.0
  0
LINE
  5
5A19
  8
SUNPO
  6
CONTINUOUS
 10
460.7829301702385
 20
130.61713362769251
 30
0.0
 11
460.7829301702385
 21
102.11701155738
 31
0.0
  0
LINE
  5
5A1A
  8
SUNPO
  6
CONTINUOUS
 10
466.7829301702385
 20
130.61713362769251
 30
0.0
 11
466.7829301702385
 21
102.11701155738
 31
0.0
  0
TEXT
  5
5A1B
  8
SUNPO
  6
CONTINUOUS
 10
437.14121162368912
 20
102.61701155738
 30
0.0
 40
2.5
  1
40.2
  7
MX_NOTE_STANDARD
  0
POLYLINE
  5
5A1C
  8
SUNPO
  6
BYBLOCK
 66
     1
 10
0.0
 20
0.0
 30
0.0
 70
     1
 40
1.159999999999999
 41
1.159999999999999
  0
VERTEX
  5
5BD9
  8
SUNPO
  6
BYBLOCK
 10
460.92793017023843
 20
102.11701155738
 30
0.0
 42
1.0
  0
VERTEX
  5
5BDA
  8
SUNPO
  6
BYBLOCK
 10
460.63793017023858
 20
102.11701155738
 30
0.0
 42
1.0
  0
SEQEND
  5
5BDB
  8
SUNPO
  6
BYBLOCK
  0
POLYLINE
  5
5A20
  8
SUNPO
  6
BYBLOCK
 66
     1
 10
0.0
 20
0.0
 30
0.0
 70
     1
 40
1.159999999999999
 41
1.159999999999999
  0
VERTEX
  5
5BDC
  8
SUNPO
  6
BYBLOCK
 10
460.63793017023858
 20
102.11701155738
 30
0.0
 42
1.0
  0
VERTEX
  5
5BDD
  8
SUNPO
  6
BYBLOCK
 10
460.92793017023843
 20
102.11701155738
 30
0.0
 42
1.0
  0
SEQEND
  5
5BDE
  8
SUNPO
  6
BYBLOCK
  0
LINE
  5
5A24
  8
SUNPO
  6
BYBLOCK
 10
465.47821233557352
 20
94.834707136171801
 30
0.0
 11
456.26121805052679
 21
94.834806610531047
 31
0.0
  0
TEXT
  5
5A25
  8
SUNPO
  6
CONTINUOUS
 10
457.51122344670102
 20
95.334793119883926
 30
0.0
 40
2.5
  1
5.8
 50
359.9993816356199
  7
MX_NOTE_STANDARD
  0
LINE
  5
5A26
  8
SUNPO
  6
BYBLOCK
 10
469.6827650364674
 20
102.1170446385553
 30
0.0
 11
465.47821233557352
 21
94.834707136171801
 31
0.0
  0
LINE
  5
5A27
  8
SUNPO
  6
CONTINUOUS
 10
466.7829301702385
 20
102.11701155738
 30
0.0
 11
460.7829301702385
 21
102.11701155738
 31
0.0
  0
TEXT
  5
5A28
  8
SUNPO
  6
CONTINUOUS
 10
462.94959683690507
 20
102.61701155738
 30
0.0
 40
2.5
  1
6
  7
MX_NOTE_STANDARD
  0
POLYLINE
  5
5A29
  8
SUNPO
  6
BYBLOCK
 66
     1
 10
0.0
 20
0.0
 30
0.0
 70
     1
 40
1.159999999999999
 41
1.159999999999999
  0
VERTEX
  5
5BDF
  8
SUNPO
  6
BYBLOCK
 10
466.92793017023871
 20
102.11701155738
 30
0.0
 42
1.0
  0
VERTEX
  5
5BE0
  8
SUNPO
  6
BYBLOCK
 10
466.63793017023852
 20
102.11701155738
 30
0.0
 42
1.0
  0
SEQEND
  5
5BE1
  8
SUNPO
  6
BYBLOCK
  0
POLYLINE
  5
5A2D
  8
SUNPO
  6
BYBLOCK
 66
     1
 10
0.0
 20
0.0
 30
0.0
 70
     1
 40
1.159999999999999
 41
1.159999999999999
  0
VERTEX
  5
5BE2
  8
SUNPO
  6
BYBLOCK
 10
469.61026383136277
 20
101.9914716507819
 30
0.0
 42
1.0
  0
VERTEX
  5
5BE3
  8
SUNPO
  6
BYBLOCK
 10
469.75526624157231
 20
102.24261762632879
 30
0.0
 42
1.0
  0
SEQEND
  5
5BE4
  8
SUNPO
  6
BYBLOCK
  0
POLYLINE
  5
5A31
  8
SUNPO
  6
BYBLOCK
 66
     1
 10
0.0
 20
0.0
 30
0.0
 70
     1
 40
1.159999999999999
 41
1.159999999999999
  0
VERTEX
  5
5BE5
  8
SUNPO
  6
BYBLOCK
 10
466.63793017023852
 20
102.11701155738
 30
0.0
 42
1.0
  0
VERTEX
  5
5BE6
  8
SUNPO
  6
BYBLOCK
 10
466.92793017023871
 20
102.11701155738
 30
0.0
 42
1.0
  0
SEQEND
  5
5BE7
  8
SUNPO
  6
BYBLOCK
  0
TEXT
  5
5A35
  8
SUNPO
  6
CONTINUOUS
 10
444.43283251398873
 20
112.61696578101279
 30
0.0
 40
2.5
  1
25.2
  7
MX_NOTE_STANDARD
  0
LINE
  5
5A36
  8
SUNPO
  6
CONTINUOUS
 10
460.7829301702385
 20
112.11696578101279
 30
0.0
 11
435.58294848078549
 21
112.11696578101279
 31
0.0
  0
POLYLINE
  5
5A37
  8
SUNPO
  6
BYBLOCK
 66
     1
 10
0.0
 20
0.0
 30
0.0
 70
     1
 40
1.159999999999999
 41
1.159999999999999
  0
VERTEX
  5
5BE8
  8
SUNPO
  6
BYBLOCK
 10
435.72794848078541
 20
112.11696578101279
 30
0.0
 42
1.0
  0
VERTEX
  5
5BE9
  8
SUNPO
  6
BYBLOCK
 10
435.43794848078539
 20
112.11696578101279
 30
0.0
 42
1.0
  0
SEQEND
  5
5BEA
  8
SUNPO
  6
BYBLOCK
  0
POLYLINE
  5
5A3B
  8
SUNPO
  6
BYBLOCK
 66
     1
 10
0.0
 20
0.0
 30
0.0
 70
     1
 40
1.159999999999999
 41
1.159999999999999
  0
VERTEX
  5
5BEB
  8
SUNPO
  6
BYBLOCK
 10
435.43794848078539
 20
112.11696578101279
 30
0.0
 42
1.0
  0
VERTEX
  5
5BEC
  8
SUNPO
  6
BYBLOCK
 10
435.72794848078541
 20
112.11696578101279
 30
0.0
 42
1.0
  0
SEQEND
  5
5BED
  8
SUNPO
  6
BYBLOCK
  0
POLYLINE
  5
5A3F
  8
SUNPO
  6
BYBLOCK
 66
     1
 10
0.0
 20
0.0
 30
0.0
 70
     1
 40
1.159999999999999
 41
1.159999999999999
  0
VERTEX
  5
5BEE
  8
SUNPO
  6
BYBLOCK
 10
460.63793017023858
 20
112.11696578101279
 30
0.0
 42
1.0
  0
VERTEX
  5
5BEF
  8
SUNPO
  6
BYBLOCK
 10
460.92793017023843
 20
112.11696578101279
 30
0.0
 42
1.0
  0
SEQEND
  5
5BF0
  8
SUNPO
  6
BYBLOCK
  0
LINE
  5
5A43
  8
DANMEN
  6
CONTINUOUS
 10
466.7829301702385
 20
137.61692000464561
 30
0.0
 11
466.7829301702385
 21
132.61692000464549
 31
0.0
  0
LINE
  5
5A44
  8
DANMEN
  6
CONTINUOUS
 10
461.2829301702385
 20
132.11692000464561
 30
0.0
 11
466.28293017023861
 21
132.11692000464561
 31
0.0
  0
ARC
  5
5A45
  8
DANMEN
  6
CONTINUOUS
 10
461.2829301702385
 20
132.61692000464549
 30
0.0
 40
0.5
 50
179.99996402782111
 51
270.00000068324448
  0
ARC
  5
5A46
  8
DANMEN
  6
CONTINUOUS
 10
466.28293017023861
 20
132.61692000464549
 30
0.0
 40
0.5
 50
270.00001798608889
 51
0.0
  0
ARC
  5
5A47
  8
DANMEN
  6
CONTINUOUS
 10
465.63292101496501
 20
137.61692000464561
 30
0.0
 40
0.5
 50
89.999982013910966
 51
179.99996402782111
  0
LINE
  5
5A48
  8
DANMEN
  6
CONTINUOUS
 10
462.58291796320742
 20
133.7669291599189
 30
0.0
 11
465.13292101496512
 21
133.7669291599189
 31
0.0
  0
LINE
  5
5A49
  8
DANMEN
  6
CONTINUOUS
 10
465.13292101496512
 20
137.61692000464561
 30
0.0
 11
465.13292101496512
 21
133.7669291599189
 31
0.0
  0
ARC
  5
5A4A
  8
DANMEN
  6
CONTINUOUS
 10
466.28293017023861
 20
137.61692000464561
 30
0.0
 40
0.5
 50
0.0
 51
89.999982013910966
  0
LINE
  5
5A4B
  8
DANMEN
  6
CONTINUOUS
 10
465.63292101496501
 20
138.11692000464561
 30
0.0
 11
466.28293017023861
 21
138.11692000464561
 31
0.0
  0
POLYLINE
  5
5A4C
  8
SUNPO
  6
BYBLOCK
 66
     1
 10
0.0
 20
0.0
 30
0.0
 70
     1
 40
1.159999999999999
 41
1.159999999999999
  0
VERTEX
  5
5BF1
  8
SUNPO
  6
BYBLOCK
 10
472.43793322199639
 20
102.11701155738
 30
0.0
 42
1.0
  0
VERTEX
  5
5BF2
  8
SUNPO
  6
BYBLOCK
 10
472.72793322199618
 20
102.11701155738
 30
0.0
 42
1.0
  0
SEQEND
  5
5BF3
  8
SUNPO
  6
BYBLOCK
  0
LINE
  5
5A50
  8
DANMEN
  6
CONTINUOUS
 10
466.7829301702385
 20
170.61692000464561
 30
0.0
 11
472.08293322199631
 21
170.61692000464561
 31
0.0
  0
LINE
  5
5A51
  8
DANMEN
  6
CONTINUOUS
 10
462.58291796320742
 20
172.11692000464549
 30
0.0
 11
472.08293322199631
 21
172.11692000464549
 31
0.0
  0
LINE
  5
5A52
  8
DANMEN
  6
CONTINUOUS
 10
462.58291796320742
 20
186.61692000464549
 30
0.0
 11
462.58291796320742
 21
172.11692000464549
 31
0.0
  0
LINE
  5
5A53
  8
DANMEN
  6
CONTINUOUS
 10
460.93290880793398
 20
185.11692000464549
 30
0.0
 11
460.93290880793398
 21
153.76691390113001
 31
0.0
  0
LINE
  5
5A54
  8
DANMEN
  6
CONTINUOUS
 10
448.23294237726969
 20
185.11692000464549
 30
0.0
 11
448.23294237726969
 21
153.76691390113001
 31
0.0
  0
LINE
  5
5A55
  8
DANMEN
  6
CONTINUOUS
 10
446.58294848078532
 20
185.31694747046581
 30
0.0
 11
446.58294848078532
 21
153.81691695288779
 31
0.0
  0
LINE
  5
5A56
  8
DANMEN
  6
CONTINUOUS
 10
448.23294237726969
 20
153.76691390113001
 30
0.0
 11
460.93290880793398
 21
153.76691390113001
 31
0.0
  0
LINE
  5
5A57
  8
DANMEN
  6
CONTINUOUS
 10
436.08294848078549
 20
152.11692000464561
 30
0.0
 11
460.7829301702385
 21
152.11692000464561
 31
0.0
  0
LINE
  5
5A58
  8
DANMEN
  6
CONTINUOUS
 10
435.58288762715603
 20
158.2669653995431
 30
0.0
 11
435.58288744562918
 21
157.11696578101279
 31
0.0
  0
LINE
  5
5A59
  8
DANMEN
  6
CONTINUOUS
 10
437.28294542902751
 20
161.11692000464561
 30
0.0
 11
437.28294542902751
 21
153.81691695288779
 31
0.0
  0
LINE
  5
5A5A
  8
DANMEN
  6
CONTINUOUS
 10
435.58294848078549
 20
160.61692000464561
 30
0.0
 11
435.58294848078549
 21
152.61692000464561
 31
0.0
  0
LINE
  5
5A5B
  8
DANMEN
  6
CONTINUOUS
 10
437.28294542902751
 20
157.11711836890331
 30
0.0
 11
446.58294848078532
 21
157.11711836890331
 31
0.0
  0
LINE
  5
5A5C
  8
DANMEN
  6
CONTINUOUS
 10
437.28294542902751
 20
153.81691695288779
 30
0.0
 11
446.58294848078532
 21
153.81691695288779
 31
0.0
  0
ARC
  5
5A5D
  8
DANMEN
  6
CONTINUOUS
 10
436.08294848078549
 20
152.61692000464561
 30
0.0
 40
0.5
 50
179.99996402782111
 51
270.00000068324448
  0
ARC
  5
5A5E
  8
DANMEN
  6
CONTINUOUS
 10
436.08294848078549
 20
160.61692000464561
 30
0.0
 40
0.5
 50
89.999982013910966
 51
179.99996402782111
  0
LINE
  5
5A5F
  8
DANMEN
  6
CONTINUOUS
 10
434.78288904517132
 20
162.41696514435279
 30
0.0
 11
437.88286081641138
 21
162.41696465502341
 31
0.0
  0
LINE
  5
5A60
  8
DANMEN
  6
CONTINUOUS
 10
435.08288807702752
 20
161.11696585993741
 30
0.0
 11
437.58288807702752
 21
161.11696546531351
 31
0.0
  0
ARC
  5
5A61
  8
DANMEN
  6
CONTINUOUS
 10
434.78288602629851
 20
161.4169641906789
 30
0.0
 40
1.0
 50
90.000026928063917
 51
179.9999543004607
  0
ARC
  5
5A62
  8
DANMEN
  6
CONTINUOUS
 10
435.08288476613302
 20
158.26696452479391
 30
0.0
 40
0.5
 50
359.99997296979592
 51
89.999954983706147
  0
LINE
  5
5A63
  8
DANMEN
  6
CONTINUOUS
 10
435.08288807702752
 20
161.11696585993741
 30
0.0
 11
435.0828877060809
 21
158.7669654784678
 31
0.0
  0
LINE
  5
5A64
  8
DANMEN
  6
CONTINUOUS
 10
433.78288888732158
 20
161.41696530220241
 30
0.0
 11
433.78288846902029
 21
158.76696568367211
 31
0.0
  0
ARC
  5
5A65
  8
DANMEN
  6
CONTINUOUS
 10
437.88281488219462
 20
161.41696370135651
 30
0.0
 40
1.0
 50
359.99997296979592
 51
89.999954983706147
  0
LINE
  5
5A66
  8
DANMEN
  6
CONTINUOUS
 10
438.88286065856198
 20
161.41696449717401
 30
0.0
 11
438.88286040600258
 21
159.81696506937851
 31
0.0
  0
ARC
  5
5A67
  8
DANMEN
  6
CONTINUOUS
 10
438.38282988842428
 20
159.81696419463381
 30
0.0
 40
0.5
 50
269.99997296979677
 51
359.9999183282826
  0
LINE
  5
5A68
  8
DANMEN
  6
CONTINUOUS
 10
437.58288779289819
 20
159.31696527457871
 30
0.0
 11
438.382875585867
 21
159.31696514830099
 31
0.0
  0
LINE
  5
5A69
  8
DANMEN
  6
CONTINUOUS
 10
437.58288807702752
 20
161.11696546531351
 30
0.0
 11
437.58288779289819
 21
159.31696527457871
 31
0.0
  0
LINE
  5
5A6A
  8
DANMEN
  6
CONTINUOUS
 10
436.08294848078549
 20
161.11692000464561
 30
0.0
 11
437.28294542902751
 21
161.11692000464561
 31
0.0
  0
LINE
  5
5A6B
  8
DANMEN
  6
CONTINUOUS
 10
448.2329271184812
 20
157.61718056634999
 30
0.0
 11
448.2329271184804
 21
164.6171782417693
 31
0.0
  0
LINE
  5
5A6C
  8
DANMEN
  6
PHANTOM
 10
462.58291796320742
 20
168.11717940405961
 30
0.0
 11
462.58291796320742
 21
154.1171794040597
 31
0.0
  0
LINE
  5
5A6D
  8
DANMEN
  6
PHANTOM
 10
463.98291758173752
 20
168.11717940405961
 30
0.0
 11
463.98291758173752
 21
154.1171794040597
 31
0.0
  0
LINE
  5
5A6E
  8
DANMEN
  6
PHANTOM
 10
462.58291796320742
 20
154.1171794040597
 30
0.0
 11
463.98291758173752
 21
154.1171794040597
 31
0.0
  0
LINE
  5
5A6F
  8
DANMEN
  6
PHANTOM
 10
460.98291758173758
 20
164.6171794040597
 30
0.0
 11
462.58291796320742
 21
164.6171794040597
 31
0.0
  0
LINE
  5
5A70
  8
DANMEN
  6
PHANTOM
 10
460.98291758173758
 20
157.6171794040597
 30
0.0
 11
462.58291796320742
 21
157.6171794040597
 31
0.0
  0
LINE
  5
5A71
  8
DANMEN
  6
PHANTOM
 10
460.98291758173758
 20
164.6171794040597
 30
0.0
 11
460.98291758173758
 21
157.6171794040597
 31
0.0
  0
ARC
  5
5A72
  8
DANMEN
  6
CONTINUOUS
 10
465.63292101496501
 20
166.61692000464561
 30
0.0
 40
0.5
 50
180.00009061369221
 51
270.00007262760232
  0
LINE
  5
5A73
  8
DANMEN
  6
CONTINUOUS
 10
465.13292101496512
 20
170.46691084937211
 30
0.0
 11
462.58291796320742
 21
170.46691084937211
 31
0.0
  0
LINE
  5
5A74
  8
DANMEN
  6
CONTINUOUS
 10
465.13292101496512
 20
170.46691084937211
 30
0.0
 11
465.13292101496512
 21
166.61692000464561
 31
0.0
  0
LINE
  5
5A75
  8
DANMEN
  6
PHANTOM
 10
462.58291796320742
 20
168.11717940405961
 30
0.0
 11
463.98291758173752
 21
168.11717940405961
 31
0.0
  0
ARC
  5
5A76
  8
DANMEN
  6
CONTINUOUS
 10
466.28293017023861
 20
166.61692000464561
 30
0.0
 40
0.5
 50
270.00007262760232
 51
0.0
  0
LINE
  5
5A77
  8
DANMEN
  6
CONTINUOUS
 10
466.28293017023861
 20
166.11692000464561
 30
0.0
 11
465.63292101496501
 21
166.11692000464561
 31
0.0
  0
LINE
  5
5A78
  8
DANMEN
  6
CONTINUOUS
 10
466.7829301702385
 20
170.61692000464561
 30
0.0
 11
466.7829301702385
 21
166.61692000464561
 31
0.0
  0
LINE
  5
5A79
  8
DANMEN
  6
CONTINUOUS
 10
448.23294237726969
 20
185.11692000464549
 30
0.0
 11
460.93290880793398
 21
185.11692000464549
 31
0.0
  0
LINE
  5
5A7A
  8
DANMEN
  6
CONTINUOUS
 10
449.08294848078538
 20
187.11692000464549
 30
0.0
 11
462.08291796320742
 21
187.11692000464549
 31
0.0
  0
ARC
  5
5A7B
  8
DANMEN
  6
CONTINUOUS
 10
443.08294848078549
 20
189.81694747046581
 30
0.0
 40
0.5
 50
89.999982013910966
 51
179.99996402782111
  0
ARC
  5
5A7C
  8
DANMEN
  6
CONTINUOUS
 10
443.58294848078549
 20
189.81694747046581
 30
0.0
 40
0.5
 50
0.0
 51
89.999982013910966
  0
LINE
  5
5A7D
  8
DANMEN
  6
CONTINUOUS
 10
445.6828683510945
 20
190.8169458761885
 30
0.0
 11
445.68286787754801
 21
187.81696113497759
 31
0.0
  0
LINE
  5
5A7E
  8
DANMEN
  6
CONTINUOUS
 10
444.38288055812558
 20
190.81694608139111
 30
0.0
 11
444.38288008457943
 21
187.81696134018009
 31
0.0
  0
LINE
  5
5A7F
  8
DANMEN
  6
CONTINUOUS
 10
435.58288744562918
 20
190.81694747046581
 30
0.0
 11
435.58288744562918
 21
184.11670733527291
 31
0.0
  0
LINE
  5
5A80
  8
DANMEN
  6
CONTINUOUS
 10
444.08294848078549
 20
186.81694747046581
 30
0.0
 11
446.58294848078532
 21
186.81694747046581
 31
0.0
  0
LINE
  5
5A81
  8
DANMEN
  6
CONTINUOUS
 10
443.58294848078549
 20
185.31694747046581
 30
0.0
 11
446.58294848078532
 21
185.31694747046581
 31
0.0
  0
ARC
  5
5A82
  8
DANMEN
  6
CONTINUOUS
 10
445.1828221011786
 20
187.8169459551205
 30
0.0
 40
0.5
 50
269.99997296979677
 51
359.9999183282826
  0
ARC
  5
5A83
  8
DANMEN
  6
CONTINUOUS
 10
443.58294848078549
 20
186.31694747046581
 30
0.0
 40
1.0
 50
179.99996402782111
 51
270.00000068324448
  0
ARC
  5
5A84
  8
DANMEN
  6
CONTINUOUS
 10
444.88283430820991
 20
187.8169460024736
 30
0.0
 40
0.5
 50
179.9999543004607
 51
269.99991832832569
  0
LINE
  5
5A85
  8
DANMEN
  6
CONTINUOUS
 10
444.88288000565473
 20
187.3169612612553
 30
0.0
 11
445.18286779862342
 21
187.3169612139024
 31
0.0
  0
LINE
  5
5A86
  8
DANMEN
  6
CONTINUOUS
 10
444.08294848078549
 20
189.81694747046581
 30
0.0
 11
444.08294848078549
 21
186.81694747046581
 31
0.0
  0
LINE
  5
5A87
  8
DANMEN
  6
CONTINUOUS
 10
442.58294848078549
 20
189.81694747046581
 30
0.0
 11
442.58294848078549
 21
186.31694747046581
 31
0.0
  0
LINE
  5
5A88
  8
DANMEN
  6
CONTINUOUS
 10
433.58289297036202
 20
192.1169508379225
 30
0.0
 11
446.08289297036202
 21
192.11694886480271
 31
0.0
  0
LINE
  5
5A89
  8
DANMEN
  6
CONTINUOUS
 10
431.5827806341058
 20
199.1167054279243
 30
0.0
 11
431.5827806341058
 21
193.11669118241409
 31
0.0
  0
LINE
  5
5A8A
  8
DANMEN
  6
CONTINUOUS
 10
433.58289304928911
 20
192.61696609671151
 30
0.0
 11
433.58289297036202
 21
192.1169508379225
 31
0.0
  0
LINE
  5
5A8B
  8
DANMEN
  6
CONTINUOUS
 10
432.58289304928923
 20
192.61696625456111
 30
0.0
 11
432.58289297036453
 21
192.11696625456111
 31
0.0
  0
ARC
  5
5A8C
  8
DANMEN
  6
CONTINUOUS
 10
433.08289018826389
 20
192.6169509168476
 30
0.0
 40
0.5
 50
359.99997296979592
 51
179.99988235610371
  0
LINE
  5
5A8D
  8
DANMEN
  6
CONTINUOUS
 10
449.08293322199671
 20
191.1166758640401
 30
0.0
 11
449.08293322199557
 21
201.11667586403999
 31
0.0
  0
LINE
  5
5A8E
  8
DANMEN
  6
CONTINUOUS
 10
445.6828683510945
 20
190.8169458761885
 30
0.0
 11
446.58289276515688
 21
190.81694573412011
 31
0.0
  0
LINE
  5
5A8F
  8
DANMEN
  6
CONTINUOUS
 10
443.08294848078549
 20
190.31694747046581
 30
0.0
 11
443.58294848078549
 21
190.31694747046581
 31
0.0
  0
ARC
  5
5A90
  8
DANMEN
  6
CONTINUOUS
 10
446.08284711506758
 20
191.61693360602089
 30
0.0
 40
0.5
 50
359.99997296979592
 51
89.999954983706147
  0
LINE
  5
5A91
  8
DANMEN
  6
CONTINUOUS
 10
446.5828928914371
 20
191.6169487858779
 30
0.0
 11
446.58289276515688
 21
190.81694573412011
 31
0.0
  0
ARC
  5
5A92
  8
DANMEN
  6
CONTINUOUS
 10
462.08291796320742
 20
186.61692000464549
 30
0.0
 40
0.5
 50
0.0
 51
89.999982013910966
  0
ARC
  5
5A93
  8
DANMEN
  6
CONTINUOUS
 10
472.08293322199631
 20
171.61692000464561
 30
0.0
 40
0.5
 50
0.0
 51
89.999982013910966
  0
LINE
  5
5A94
  8
DANMEN
  6
CONTINUOUS
 10
472.58293322199631
 20
171.61692000464561
 30
0.0
 11
472.58293322199631
 21
171.11692000464549
 31
0.0
  0
ARC
  5
5A95
  8
DANMEN
  6
CONTINUOUS
 10
472.08293322199631
 20
171.11692000464549
 30
0.0
 40
0.5
 50
270.00001798608889
 51
0.0
  0
LINE
  5
5A96
  8
SUNPO
  6
CONTINUOUS
 10
420.58294848078532
 20
242.11692000464549
 30
0.0
 11
450.58294848078532
 21
242.11692000464549
 31
0.0
  0
LINE
  5
5A97
  8
DANMEN
  6
CONTINUOUS
 10
422.23295763605881
 20
220.31691695288771
 30
0.0
 11
436.88293627375418
 21
220.31691695288771
 31
0.0
  0
LINE
  5
5A98
  8
DANMEN
  6
CONTINUOUS
 10
427.58273485773861
 20
216.1165385349189
 30
0.0
 11
446.58275011652768
 21
216.1165385349189
 31
0.0
  0
LINE
  5
5A99
  8
DANMEN
  6
CONTINUOUS
 10
428.58275011652762
 20
209.11655379370799
 30
0.0
 11
445.58268908137131
 21
209.11655379370799
 31
0.0
  0
LINE
  5
5A9A
  8
DANMEN
  6
CONTINUOUS
 10
428.5827653753168
 20
215.11655379370799
 30
0.0
 11
445.58270434016049
 21
215.11655379370799
 31
0.0
  0
LINE
  5
5A9B
  8
DANMEN
  6
CONTINUOUS
 10
421.08294848078532
 20
222.11692000464561
 30
0.0
 11
450.08294848078532
 21
222.11692000464561
 31
0.0
  0
LINE
  5
5A9C
  8
DANMEN
  6
CONTINUOUS
 10
401.47815111750418
 20
208.1165385349189
 30
0.0
 11
446.58271959894938
 21
208.1165385349189
 31
0.0
  0
LINE
  5
5A9D
  8
DANMEN
  6
CONTINUOUS
 10
401.47813585871518
 20
207.41655684546589
 30
0.0
 11
432.58285692805123
 21
207.41655684546589
 31
0.0
  0
TEXT
  5
5A9E
  8
SUNPO
  6
CONTINUOUS
 10
346.02774244603143
 20
248.11692000464549
 30
0.0
 40
4.0
  1
中間方立(A)
 41
0.981
  7
MX_NOTE_STANDARD
  0
LINE
  5
5A9F
  8
DANMEN
  6
CONTINUOUS
 10
347.37364367121512
 20
215.61708785132521
 30
0.0
 11
356.87355211848069
 21
215.61708785132521
 31
0.0
  0
LINE
  5
5AA0
  8
DANMEN
  6
CONTINUOUS
 10
347.37353685969168
 20
209.11645937995081
 30
0.0
 11
356.87352160090262
 21
209.11645937995081
 31
0.0
  0
LINE
  5
5AA1
  8
DANMEN
  6
CONTINUOUS
 10
346.37353685969163
 20
216.61708785132521
 30
0.0
 11
357.87353685969163
 21
216.61708785132521
 31
0.0
  0
LINE
  5
5AA2
  8
SUNPO
  6
CONTINUOUS
 10
339.37353685969163
 20
242.11692000464549
 30
0.0
 11
379.37353685969163
 21
242.11692000464549
 31
0.0
  0
LINE
  5
5AA3
  8
DANMEN
  6
CONTINUOUS
 10
320.268876825512
 20
208.1165232761299
 30
0.0
 11
357.87352160090262
 21
208.1165232761299
 31
0.0
  0
LINE
  5
5AA4
  8
DANMEN
  6
CONTINUOUS
 10
320.26884630793393
 20
222.11641646460649
 30
0.0
 11
398.47810534113688
 21
222.11641646460649
 31
0.0
  0
LINE
  5
5AA5
  8
DANMEN
  6
CONTINUOUS
 10
339.87353685969163
 20
220.11708785132521
 30
0.0
 11
356.87353685969163
 21
220.11708785132521
 31
0.0
  0
LINE
  5
5AA6
  8
DANMEN
  6
CONTINUOUS
 10
299.37350634211361
 20
218.11650801734081
 30
0.0
 11
317.40902880305111
 21
218.11650801734081
 31
0.0
  0
LINE
  5
5AA7
  8
DANMEN
  6
CONTINUOUS
 10
299.37350634211361
 20
216.11652327613001
 30
0.0
 11
317.40902880305111
 21
216.11652327613001
 31
0.0
  0
LINE
  5
5AA8
  8
DANMEN
  6
CONTINUOUS
 10
280.8734910833245
 20
208.11651850775829
 30
0.0
 11
318.478120599926
 21
208.11651850775829
 31
0.0
  0
LINE
  5
5AA9
  8
DANMEN
  6
CONTINUOUS
 10
287.37339953059001
 20
207.4165368183053
 30
0.0
 11
318.478120599926
 21
207.4165368183053
 31
0.0
  0
LINE
  5
5AAA
  8
SUNPO
  6
CONTINUOUS
 10
299.37353685969168
 20
223.6164012058174
 30
0.0
 11
299.37353685969168
 21
242.11692000464549
 31
0.0
  0
LINE
  5
5AAB
  8
DANMEN
  6
CONTINUOUS
 10
281.87353685969163
 20
220.11707259253609
 30
0.0
 11
298.87353685969163
 21
220.11707259253609
 31
0.0
  0
LINE
  5
5AAC
  8
DANMEN
  6
CONTINUOUS
 10
280.87353685969163
 20
216.6170725925362
 30
0.0
 11
292.37353685969163
 21
216.6170725925362
 31
0.0
  0
LINE
  5
5AAD
  8
DANMEN
  6
CONTINUOUS
 10
281.87352160090262
 20
215.61708785132521
 30
0.0
 11
291.37343004816819
 21
215.61708785132521
 31
0.0
  0
LINE
  5
5AAE
  8
DANMEN
  6
CONTINUOUS
 10
281.87350634211361
 20
209.11647654608839
 30
0.0
 11
291.3734910833245
 21
209.11647654608839
 31
0.0
  0
LINE
  5
5AAF
  8
DANMEN
  6
CONTINUOUS
 10
276.8735521184808
 20
209.1164622409737
 30
0.0
 11
276.8735521184808
 21
215.61708785132521
 31
0.0
  0
LINE
  5
5AB0
  8
DANMEN
  6
CONTINUOUS
 10
281.87352160090262
 20
215.61708785132521
 30
0.0
 11
281.87352160090262
 21
209.11647654608839
 31
0.0
  0
LINE
  5
5AB1
  8
DANMEN
  6
CONTINUOUS
 10
277.37353685969163
 20
219.61707259253609
 30
0.0
 11
281.37353685969163
 21
219.61707259253609
 31
0.0
  0
LINE
  5
5AB2
  8
DANMEN
  6
CONTINUOUS
 10
277.37355100775119
 20
219.61703551514569
 30
0.0
 11
276.8735504769565
 21
220.1170360459403
 31
0.0
  0
LINE
  5
5AB3
  8
DANMEN
  6
CONTINUOUS
 10
281.87353420571799
 20
220.1170360459403
 30
0.0
 11
281.37353367492318
 21
219.61703551514569
 31
0.0
  0
LINE
  5
5AB4
  8
DANMEN
  6
CONTINUOUS
 10
291.37343004816819
 20
209.1164755924141
 30
0.0
 11
291.37343004816819
 21
215.61707259253609
 31
0.0
  0
LINE
  5
5AB5
  8
DANMEN
  6
CONTINUOUS
 10
296.35380912912763
 20
216.11705733374711
 30
0.0
 11
299.3734529363519
 21
213.0974192500222
 31
0.0
  0
LINE
  5
5AB6
  8
DANMEN
  6
CONTINUOUS
 10
299.3734529363519
 20
216.11705733374711
 30
0.0
 11
299.3734529363519
 21
209.11705733374711
 31
0.0
  0
LINE
  5
5AB7
  8
DANMEN
  6
CONTINUOUS
 10
294.10874300490087
 20
216.11705733374711
 30
0.0
 11
299.3734529363519
 21
210.85235738114309
 31
0.0
  0
LINE
  5
5AB8
  8
DANMEN
  6
CONTINUOUS
 10
292.37362078303158
 20
216.11705733374711
 30
0.0
 11
292.37362078303158
 21
208.11705733374711
 31
0.0
  0
LINE
  5
5AB9
  8
DANMEN
  6
CONTINUOUS
 10
299.3734529363519
 20
215.34233454895951
 30
0.0
 11
292.37362078303158
 21
208.3424891279785
 31
0.0
  0
LINE
  5
5ABA
  8
DANMEN
  6
CONTINUOUS
 10
297.90311238383367
 20
216.11705733374711
 30
0.0
 11
292.37362078303158
 21
210.58755525220511
 31
0.0
  0
LINE
  5
5ABB
  8
DANMEN
  6
CONTINUOUS
 10
295.65805051495482
 20
216.11705733374711
 30
0.0
 11
292.37362078303158
 21
212.83262137643189
 31
0.0
  0
LINE
  5
5ABC
  8
DANMEN
  6
CONTINUOUS
 10
292.37362078303158
 20
215.60711439794881
 30
0.0
 11
299.8636911511723
 21
208.11705822665181
 31
0.0
  0
LINE
  5
5ABD
  8
DANMEN
  6
CONTINUOUS
 10
299.3734529363519
 20
210.85220230050621
 30
0.0
 11
296.63831366224713
 21
208.1170578421488
 31
0.0
  0
LINE
  5
5ABE
  8
DANMEN
  6
CONTINUOUS
 10
299.3734529363519
 20
213.09726842473279
 30
0.0
 11
294.39325152573082
 21
208.1170575745108
 31
0.0
  0
LINE
  5
5ABF
  8
DANMEN
  6
CONTINUOUS
 10
292.37362078303158
 20
213.3620525290699
 30
0.0
 11
297.6186252945846
 21
208.11705795901349
 31
0.0
  0
LINE
  5
5AC0
  8
DANMEN
  6
CONTINUOUS
 10
292.37362078303158
 20
208.8719287913118
 30
0.0
 11
293.1284935814088
 21
208.1170574237369
 31
0.0
  0
LINE
  5
5AC1
  8
DANMEN
  6
CONTINUOUS
 10
292.37362078303158
 20
211.11699066019079
 30
0.0
 11
295.37355943799668
 21
208.11705769137521
 31
0.0
  0
ARC
  5
5AC2
  8
DANMEN
  6
CONTINUOUS
 10
300.37345293635173
 20
209.11705733374711
 30
0.0
 40
1.0
 50
179.99990938630759
 51
269.9998914002179
  0
LINE
  5
5AC3
  8
DANMEN
  6
CONTINUOUS
 10
299.4700454096461
 20
208.7037288326575
 30
0.0
 11
298.88337579876361
 21
208.11705810978671
 31
0.0
  0
LINE
  5
5AC4
  8
DANMEN
  6
CONTINUOUS
 10
292.37353685969163
 20
216.1170725925362
 30
0.0
 11
298.87353685969163
 21
216.1170725925362
 31
0.0
  0
LINE
  5
5AC5
  8
DANMEN
  6
CONTINUOUS
 10
292.37353685969163
 20
216.6170725925362
 30
0.0
 11
292.37353685969163
 21
216.1170725925362
 31
0.0
  0
LINE
  5
5AC6
  8
DANMEN
  6
CONTINUOUS
 10
293.4129886460758
 20
216.11705733374711
 30
0.0
 11
292.37362078303158
 21
215.07768750065841
 31
0.0
  0
ARC
  5
5AC7
  8
DANMEN
  6
CONTINUOUS
 10
298.87353685969163
 20
219.61707259253609
 30
0.0
 40
0.5
 50
0.0
 51
89.999982013910966
  0
ARC
  5
5AC8
  8
DANMEN
  6
CONTINUOUS
 10
298.87353685969163
 20
216.6170725925362
 30
0.0
 40
0.5
 50
270.00001798608889
 51
0.0
  0
LINE
  5
5AC9
  8
DANMEN
  6
CONTINUOUS
 10
298.59887525335432
 20
216.11705733374711
 30
0.0
 11
299.3734529363519
 21
215.34248111890111
 31
0.0
  0
LINE
  5
5ACA
  8
DANMEN
  6
CONTINUOUS
 10
299.37353685969168
 20
219.61707259253609
 30
0.0
 11
299.37353685969168
 21
216.6170725925362
 31
0.0
  0
TEXT
  5
5ACB
  8
SUNPO
  6
CONTINUOUS
 10
277.49853685969168
 20
242.61692000464549
 30
0.0
 40
2.5
  1
40
  7
MX_NOTE_STANDARD
  0
POLYLINE
  5
5ACC
  8
SUNPO
  6
BYBLOCK
 66
     1
 10
0.0
 20
0.0
 30
0.0
 70
     1
 40
1.159999999999999
 41
1.159999999999999
  0
VERTEX
  5
5BF4
  8
SUNPO
  6
BYBLOCK
 10
299.2285368596917
 20
242.11692000464549
 30
0.0
 42
1.0
  0
VERTEX
  5
5BF5
  8
SUNPO
  6
BYBLOCK
 10
299.51853685969172
 20
242.11692000464549
 30
0.0
 42
1.0
  0
SEQEND
  5
5BF6
  8
SUNPO
  6
BYBLOCK
  0
LINE
  5
5AD0
  8
SUNPO
  6
CONTINUOUS
 10
339.37353685969163
 20
223.6164012058174
 30
0.0
 11
339.37353685969163
 21
242.11692000464549
 31
0.0
  0
LINE
  5
5AD1
  8
DANMEN
  6
CONTINUOUS
 10
320.26886156672282
 20
218.11652327613001
 30
0.0
 11
339.37350634211361
 21
218.11652327613001
 31
0.0
  0
LINE
  5
5AD2
  8
DANMEN
  6
CONTINUOUS
 10
320.26886156672282
 20
216.1165385349189
 30
0.0
 11
339.37350634211361
 21
216.1165385349189
 31
0.0
  0
LINE
  5
5AD3
  8
DANMEN
  6
CONTINUOUS
 10
320.268876825512
 20
207.4165415866768
 30
0.0
 11
351.37359789484799
 21
207.4165415866768
 31
0.0
  0
LINE
  5
5AD4
  8
DANMEN
  6
CONTINUOUS
 10
342.39325002764872
 20
216.11705733374711
 30
0.0
 11
339.37362078303153
 21
213.0974279571378
 31
0.0
  0
LINE
  5
5AD5
  8
DANMEN
  6
CONTINUOUS
 10
339.37362078303153
 20
210.85219577043631
 30
0.0
 11
342.1087588308755
 21
208.11705784214891
 31
0.0
  0
LINE
  5
5AD6
  8
DANMEN
  6
CONTINUOUS
 10
339.87353685969163
 20
216.11708785132521
 30
0.0
 11
346.37353685969163
 21
216.11708785132521
 31
0.0
  0
LINE
  5
5AD7
  8
DANMEN
  6
CONTINUOUS
 10
346.37345293635173
 20
213.36206827957869
 30
0.0
 11
341.128442845054
 21
208.1170579590142
 31
0.0
  0
LINE
  5
5AD8
  8
DANMEN
  6
CONTINUOUS
 10
346.37345293635173
 20
215.60713232519601
 30
0.0
 11
338.8833791652097
 21
208.1170582266522
 31
0.0
  0
LINE
  5
5AD9
  8
DANMEN
  6
CONTINUOUS
 10
344.6383139751311
 20
216.11705733374711
 30
0.0
 11
339.37362078303153
 21
210.8523639115204
 31
0.0
  0
LINE
  5
5ADA
  8
DANMEN
  6
CONTINUOUS
 10
340.84395112643801
 20
216.11705733374711
 30
0.0
 11
346.37345293635173
 21
210.5875557655354
 31
0.0
  0
LINE
  5
5ADB
  8
DANMEN
  6
CONTINUOUS
 10
339.37362078303153
 20
215.34232366540101
 30
0.0
 11
346.37345293635173
 21
208.34249181805311
 31
0.0
  0
LINE
  5
5ADC
  8
DANMEN
  6
CONTINUOUS
 10
339.37362078303153
 20
213.09725971791849
 30
0.0
 11
344.35382314413079
 21
208.11705757451071
 31
0.0
  0
LINE
  5
5ADD
  8
DANMEN
  6
CONTINUOUS
 10
339.37362078303153
 20
209.11705733374711
 30
0.0
 11
339.37362078303153
 21
216.11705733374711
 31
0.0
  0
LINE
  5
5ADE
  8
DANMEN
  6
CONTINUOUS
 10
339.2770264909945
 20
208.70372611076871
 30
0.0
 11
339.8636945176201
 21
208.11705810978711
 31
0.0
  0
ARC
  5
5ADF
  8
DANMEN
  6
CONTINUOUS
 10
338.37362078303153
 20
209.11705733374711
 30
0.0
 40
1.0
 50
270.00003665542431
 51
0.0000733108478311
  0
POLYLINE
  5
5AE0
  8
SUNPO
  6
BYBLOCK
 66
     1
 10
0.0
 20
0.0
 30
0.0
 70
     1
 40
1.159999999999999
 41
1.159999999999999
  0
VERTEX
  5
5BF7
  8
SUNPO
  6
BYBLOCK
 10
332.4654281639219
 20
221.9712807302445
 30
0.0
 42
1.0
  0
VERTEX
  5
5BF8
  8
SUNPO
  6
BYBLOCK
 10
332.46542822713741
 20
222.26128073024461
 30
0.0
 42
1.0
  0
SEQEND
  5
5BF9
  8
SUNPO
  6
BYBLOCK
  0
ARC
  5
5AE4
  8
DANMEN
  6
CONTINUOUS
 10
339.87353685969163
 20
219.61708785132521
 30
0.0
 40
0.5
 50
89.999982013910966
 51
179.99996402782111
  0
ARC
  5
5AE5
  8
DANMEN
  6
CONTINUOUS
 10
339.87353685969163
 20
216.61708785132521
 30
0.0
 40
0.5
 50
179.99996402782111
 51
270.00000068324448
  0
LINE
  5
5AE6
  8
DANMEN
  6
CONTINUOUS
 10
340.14818608016628
 20
216.11705733374711
 30
0.0
 11
339.37362078303153
 21
215.34249200275491
 31
0.0
  0
LINE
  5
5AE7
  8
DANMEN
  6
CONTINUOUS
 10
339.37353685969163
 20
219.61708785132521
 30
0.0
 11
339.37353685969163
 21
216.61708785132521
 31
0.0
  0
LINE
  5
5AE8
  8
DANMEN
  6
CONTINUOUS
 10
347.37361315363688
 20
215.61702681616899
 30
0.0
 11
347.37361315363688
 21
209.11645937995081
 31
0.0
  0
LINE
  5
5AE9
  8
DANMEN
  6
CONTINUOUS
 10
346.37345293635173
 20
208.11705733374711
 30
0.0
 11
346.37345293635173
 21
216.11705733374711
 31
0.0
  0
LINE
  5
5AEA
  8
DANMEN
  6
CONTINUOUS
 10
343.08901517205521
 20
216.11705733374711
 30
0.0
 11
346.37345293635173
 21
212.83261971301769
 31
0.0
  0
LINE
  5
5AEB
  8
DANMEN
  6
CONTINUOUS
 10
346.37345293635173
 20
208.8719401883443
 30
0.0
 11
345.61857020474258
 21
208.117057423738
 31
0.0
  0
LINE
  5
5AEC
  8
DANMEN
  6
CONTINUOUS
 10
346.37345293635173
 20
211.11700423396141
 30
0.0
 11
343.37350652489829
 21
208.117057691376
 31
0.0
  0
LINE
  5
5AED
  8
DANMEN
  6
CONTINUOUS
 10
346.37353685969163
 20
216.61708785132521
 30
0.0
 11
346.37353685969163
 21
216.11708785132521
 31
0.0
  0
LINE
  5
5AEE
  8
DANMEN
  6
CONTINUOUS
 10
345.3340792176723
 20
216.11705733374711
 30
0.0
 11
346.37345293635173
 21
215.0776836605001
 31
0.0
  0
POLYLINE
  5
5AEF
  8
SUNPO
  6
BYBLOCK
 66
     1
 10
0.0
 20
0.0
 30
0.0
 70
     1
 40
1.159999999999999
 41
1.159999999999999
  0
VERTEX
  5
5BFA
  8
SUNPO
  6
BYBLOCK
 10
339.51853685969172
 20
242.11692000464549
 30
0.0
 42
1.0
  0
VERTEX
  5
5BFB
  8
SUNPO
  6
BYBLOCK
 10
339.2285368596917
 20
242.11692000464549
 30
0.0
 42
1.0
  0
SEQEND
  5
5BFC
  8
SUNPO
  6
BYBLOCK
  0
LINE
  5
5AF3
  8
DANMEN
  6
CONTINUOUS
 10
379.37350634211361
 20
218.1165232761299
 30
0.0
 11
397.40902880305111
 21
218.1165232761299
 31
0.0
  0
LINE
  5
5AF4
  8
DANMEN
  6
CONTINUOUS
 10
379.37350634211361
 20
216.1165385349189
 30
0.0
 11
397.40902880305111
 21
216.1165385349189
 31
0.0
  0
LINE
  5
5AF5
  8
DANMEN
  6
CONTINUOUS
 10
360.87349108332438
 20
208.116520415107
 30
0.0
 11
398.478120599926
 21
208.116520415107
 31
0.0
  0
LINE
  5
5AF6
  8
DANMEN
  6
CONTINUOUS
 10
367.37339953059018
 20
207.41653872565391
 30
0.0
 11
398.478120599926
 21
207.41653872565391
 31
0.0
  0
LINE
  5
5AF7
  8
SUNPO
  6
CONTINUOUS
 10
379.37353685969163
 20
223.6164012058174
 30
0.0
 11
379.37353685969163
 21
242.11692000464549
 31
0.0
  0
LINE
  5
5AF8
  8
DANMEN
  6
CONTINUOUS
 10
360.87353685969163
 20
216.61708785132521
 30
0.0
 11
372.37353685969168
 21
216.61708785132521
 31
0.0
  0
LINE
  5
5AF9
  8
DANMEN
  6
CONTINUOUS
 10
361.87353685969168
 20
220.11708785132521
 30
0.0
 11
378.87353685969163
 21
220.11708785132521
 31
0.0
  0
LINE
  5
5AFA
  8
DANMEN
  6
CONTINUOUS
 10
361.87353420571782
 20
220.11705762512639
 30
0.0
 11
361.37353367492312
 21
219.61705709433181
 31
0.0
  0
LINE
  5
5AFB
  8
DANMEN
  6
CONTINUOUS
 10
356.87355211848069
 20
209.1164622409737
 30
0.0
 11
356.87355211848069
 21
215.61708785132521
 31
0.0
  0
LINE
  5
5AFC
  8
DANMEN
  6
CONTINUOUS
 10
357.3735510077513
 20
219.61705709433181
 30
0.0
 11
356.8735504769565
 21
220.11705762512639
 31
0.0
  0
LINE
  5
5AFD
  8
DANMEN
  6
CONTINUOUS
 10
357.37353685969168
 20
219.61708785132521
 30
0.0
 11
361.37353685969163
 21
219.61708785132521
 31
0.0
  0
LINE
  5
5AFE
  8
DANMEN
  6
CONTINUOUS
 10
371.3734300481683
 20
209.11647654608839
 30
0.0
 11
371.3734300481683
 21
215.61708785132521
 31
0.0
  0
LINE
  5
5AFF
  8
DANMEN
  6
CONTINUOUS
 10
361.87352160090251
 20
215.61708785132521
 30
0.0
 11
361.87352160090251
 21
209.11647654608839
 31
0.0
  0
LINE
  5
5B00
  8
DANMEN
  6
CONTINUOUS
 10
361.87350634211361
 20
209.11647749976271
 30
0.0
 11
371.37349108332438
 21
209.11647749976271
 31
0.0
  0
LINE
  5
5B01
  8
DANMEN
  6
CONTINUOUS
 10
361.87352160090251
 20
215.61708785132521
 30
0.0
 11
371.3734300481683
 21
215.61708785132521
 31
0.0
  0
LINE
  5
5B02
  8
DANMEN
  6
CONTINUOUS
 10
376.35380912912763
 20
216.11705733374711
 30
0.0
 11
379.37345293635178
 21
213.0974192500222
 31
0.0
  0
LINE
  5
5B03
  8
DANMEN
  6
CONTINUOUS
 10
379.37345293635178
 20
216.11705733374711
 30
0.0
 11
379.37345293635178
 21
209.11705733374711
 31
0.0
  0
LINE
  5
5B04
  8
DANMEN
  6
CONTINUOUS
 10
375.65805051495482
 20
216.11705733374711
 30
0.0
 11
372.37362078303141
 21
212.83262137643189
 31
0.0
  0
LINE
  5
5B05
  8
DANMEN
  6
CONTINUOUS
 10
372.37362078303141
 20
216.11705733374711
 30
0.0
 11
372.37362078303141
 21
208.11705733374711
 31
0.0
  0
LINE
  5
5B06
  8
DANMEN
  6
CONTINUOUS
 10
379.37345293635178
 20
215.34233454895951
 30
0.0
 11
372.37362078303141
 21
208.3424891279785
 31
0.0
  0
LINE
  5
5B07
  8
DANMEN
  6
CONTINUOUS
 10
377.90311238383379
 20
216.11705733374711
 30
0.0
 11
372.37362078303141
 21
210.58755525220511
 31
0.0
  0
LINE
  5
5B08
  8
DANMEN
  6
CONTINUOUS
 10
374.10874300490099
 20
216.11705733374711
 30
0.0
 11
379.37345293635178
 21
210.85235738114309
 31
0.0
  0
LINE
  5
5B09
  8
DANMEN
  6
CONTINUOUS
 10
372.37362078303141
 20
215.60711439794881
 30
0.0
 11
379.86369115117242
 21
208.11705822665181
 31
0.0
  0
LINE
  5
5B0A
  8
DANMEN
  6
CONTINUOUS
 10
379.37345293635178
 20
213.09726842473279
 30
0.0
 11
374.39325152573082
 21
208.1170575745108
 31
0.0
  0
LINE
  5
5B0B
  8
DANMEN
  6
CONTINUOUS
 10
372.37362078303141
 20
213.3620525290699
 30
0.0
 11
377.6186252945846
 21
208.11705795901349
 31
0.0
  0
LINE
  5
5B0C
  8
DANMEN
  6
CONTINUOUS
 10
372.37362078303141
 20
211.11699066019079
 30
0.0
 11
375.37355943799679
 21
208.11705769137521
 31
0.0
  0
LINE
  5
5B0D
  8
DANMEN
  6
CONTINUOUS
 10
372.37362078303141
 20
208.8719287913118
 30
0.0
 11
373.1284935814088
 21
208.1170574237369
 31
0.0
  0
LINE
  5
5B0E
  8
DANMEN
  6
CONTINUOUS
 10
379.47004540964599
 20
208.7037288326575
 30
0.0
 11
378.88337579876361
 21
208.11705810978671
 31
0.0
  0
LINE
  5
5B0F
  8
DANMEN
  6
CONTINUOUS
 10
379.37345293635178
 20
210.85220230050621
 30
0.0
 11
376.63831366224713
 21
208.1170578421488
 31
0.0
  0
ARC
  5
5B10
  8
DANMEN
  6
CONTINUOUS
 10
380.37345293635178
 20
209.11705733374711
 30
0.0
 40
1.0
 50
179.99990938630759
 51
269.9998914002179
  0
LINE
  5
5B11
  8
DANMEN
  6
CONTINUOUS
 10
372.37353685969168
 20
216.11708785132521
 30
0.0
 11
378.87353685969163
 21
216.11708785132521
 31
0.0
  0
LINE
  5
5B12
  8
DANMEN
  6
CONTINUOUS
 10
372.37353685969168
 20
216.61708785132521
 30
0.0
 11
372.37353685969168
 21
216.11708785132521
 31
0.0
  0
LINE
  5
5B13
  8
DANMEN
  6
CONTINUOUS
 10
373.41298864607569
 20
216.11705733374711
 30
0.0
 11
372.37362078303141
 21
215.07768750065841
 31
0.0
  0
ARC
  5
5B14
  8
DANMEN
  6
CONTINUOUS
 10
378.87353685969163
 20
219.61708785132521
 30
0.0
 40
0.5
 50
0.0
 51
89.999982013910966
  0
ARC
  5
5B15
  8
DANMEN
  6
CONTINUOUS
 10
378.87353685969163
 20
216.61708785132521
 30
0.0
 40
0.5
 50
270.00001798608889
 51
0.0
  0
LINE
  5
5B16
  8
DANMEN
  6
CONTINUOUS
 10
378.59887525335432
 20
216.11705733374711
 30
0.0
 11
379.37345293635178
 21
215.34248111890111
 31
0.0
  0
LINE
  5
5B17
  8
DANMEN
  6
CONTINUOUS
 10
379.37353685969163
 20
219.61708785132521
 30
0.0
 11
379.37353685969163
 21
216.61708785132521
 31
0.0
  0
TEXT
  5
5B18
  8
SUNPO
  6
CONTINUOUS
 10
357.49853685969163
 20
242.61692000464549
 30
0.0
 40
2.5
  1
40
  7
MX_NOTE_STANDARD
  0
POLYLINE
  5
5B19
  8
SUNPO
  6
BYBLOCK
 66
     1
 10
0.0
 20
0.0
 30
0.0
 70
     1
 40
1.159999999999999
 41
1.159999999999999
  0
VERTEX
  5
5BFD
  8
SUNPO
  6
BYBLOCK
 10
379.2285368596917
 20
242.11692000464549
 30
0.0
 42
1.0
  0
VERTEX
  5
5BFE
  8
SUNPO
  6
BYBLOCK
 10
379.51853685969172
 20
242.11692000464549
 30
0.0
 42
1.0
  0
SEQEND
  5
5BFF
  8
SUNPO
  6
BYBLOCK
  0
LINE
  5
5B1D
  8
SUNPO
  6
CONTINUOUS
 10
420.58294848078532
 20
223.61692000464549
 30
0.0
 11
420.58294848078532
 21
242.11692000464549
 31
0.0
  0
LINE
  5
5B1E
  8
DANMEN
  6
CONTINUOUS
 10
401.47813585871518
 20
218.1165232761299
 30
0.0
 11
420.58281115168393
 21
218.1165232761299
 31
0.0
  0
LINE
  5
5B1F
  8
DANMEN
  6
CONTINUOUS
 10
401.47813585871518
 20
222.11641646460649
 30
0.0
 11
420.58281115168393
 21
222.11641646460649
 31
0.0
  0
LINE
  5
5B20
  8
DANMEN
  6
CONTINUOUS
 10
401.47813585871518
 20
216.1165385349189
 30
0.0
 11
420.58281115168393
 21
216.1165385349189
 31
0.0
  0
ARC
  5
5B21
  8
DANMEN
  6
CONTINUOUS
 10
421.08294848078532
 20
221.61692000464549
 30
0.0
 40
0.5
 50
89.999982013910966
 51
179.99996402782111
  0
ARC
  5
5B22
  8
DANMEN
  6
CONTINUOUS
 10
421.08294848078532
 20
216.61692000464549
 30
0.0
 40
0.5
 50
179.99996402782111
 51
270.00000068324448
  0
LINE
  5
5B23
  8
DANMEN
  6
CONTINUOUS
 10
423.60276013463471
 20
216.11703621459199
 30
0.0
 11
420.58309520924968
 21
213.09741924921559
 31
0.0
  0
LINE
  5
5B24
  8
DANMEN
  6
CONTINUOUS
 10
421.35769401046309
 20
216.11705191575609
 30
0.0
 11
420.58311091038422
 21
215.34248111803959
 31
0.0
  0
LINE
  5
5B25
  8
DANMEN
  6
CONTINUOUS
 10
420.48647200810831
 20
208.70372950749061
 30
0.0
 11
421.07313751601771
 21
208.11705468168319
 31
0.0
  0
LINE
  5
5B26
  8
DANMEN
  6
CONTINUOUS
 10
420.58307950703067
 20
210.85220229975471
 30
0.0
 11
423.31819965247729
 21
208.11703871290911
 31
0.0
  0
LINE
  5
5B27
  8
DANMEN
  6
CONTINUOUS
 10
420.58311090935922
 20
215.34233454809811
 30
0.0
 11
427.5828941081719
 21
208.34244017304479
 31
0.0
  0
LINE
  5
5B28
  8
DANMEN
  6
CONTINUOUS
 10
420.58309520819512
 20
213.09726842392629
 30
0.0
 11
425.56326178893693
 21
208.1170227441348
 31
0.0
  0
LINE
  5
5B29
  8
DANMEN
  6
CONTINUOUS
 10
427.58294491428092
 20
215.60706544283741
 30
0.0
 11
420.09282216363368
 21
208.1170616545123
 31
0.0
  0
LINE
  5
5B2A
  8
DANMEN
  6
CONTINUOUS
 10
425.84782625880672
 20
216.11702051342789
 30
0.0
 11
420.5830795081153
 21
210.8523573803914
 31
0.0
  0
LINE
  5
5B2B
  8
DANMEN
  6
CONTINUOUS
 10
420.5831163274845
 20
216.11705733286661
 30
0.0
 11
420.58306737206698
 21
209.11705733303799
 31
0.0
  0
ARC
  5
5B2C
  8
DANMEN
  6
CONTINUOUS
 10
419.58306737209159
 20
209.11706432666901
 30
0.0
 40
0.9999999999999998
 50
269.99970789423799
 51
359.99968990814881
  0
LINE
  5
5B2D
  8
DANMEN
  6
CONTINUOUS
 10
420.58294848078532
 20
221.61692000464549
 30
0.0
 11
420.58294848078532
 21
216.61692000464549
 31
0.0
  0
LINE
  5
5B2E
  8
DANMEN
  6
CONTINUOUS
 10
428.58288744562913
 20
215.1165995700751
 30
0.0
 11
428.58288744562913
 21
209.11655379370791
 31
0.0
  0
LINE
  5
5B2F
  8
DANMEN
  6
CONTINUOUS
 10
427.58294848063372
 20
216.1170083786231
 30
0.0
 11
427.58289253158517
 21
208.11700837881889
 31
0.0
  0
LINE
  5
5B30
  8
DANMEN
  6
CONTINUOUS
 10
424.29851874879063
 20
216.11703134871291
 30
0.0
 11
427.58292551050022
 21
212.83257242138811
 31
0.0
  0
LINE
  5
5B31
  8
DANMEN
  6
CONTINUOUS
 10
422.05345687996652
 20
216.1170470498474
 30
0.0
 11
427.58290980933612
 21
210.58750629721641
 31
0.0
  0
LINE
  5
5B32
  8
DANMEN
  6
CONTINUOUS
 10
427.58291351201223
 20
211.11694170518911
 30
0.0
 11
424.58295387669591
 21
208.11702971691111
 31
0.0
  0
LINE
  5
5B33
  8
DANMEN
  6
CONTINUOUS
 10
427.58292921314649
 20
213.3620035740133
 30
0.0
 11
422.33788802016471
 21
208.11704568571159
 31
0.0
  0
LINE
  5
5B34
  8
DANMEN
  6
CONTINUOUS
 10
427.58289781087763
 20
208.87187983636511
 30
0.0
 11
426.82801973322682
 21
208.11701374811039
 31
0.0
  0
LINE
  5
5B35
  8
DANMEN
  6
CONTINUOUS
 10
422.23295763605881
 20
217.11692000464549
 30
0.0
 11
427.28296068781668
 21
217.11692000464549
 31
0.0
  0
LINE
  5
5B36
  8
DANMEN
  6
CONTINUOUS
 10
421.08294848078532
 20
216.11692000464549
 30
0.0
 11
427.28296068781668
 21
216.11692000464549
 31
0.0
  0
LINE
  5
5B37
  8
DANMEN
  6
CONTINUOUS
 10
422.23295763605881
 20
220.31691695288771
 30
0.0
 11
422.23295763605881
 21
217.11692000464549
 31
0.0
  0
ARC
  5
5B38
  8
DANMEN
  6
CONTINUOUS
 10
427.28296068781668
 20
216.4169077976143
 30
0.0
 40
0.2999999523162842
 50
270.00001798608889
 51
0.0
  0
LINE
  5
5B39
  8
DANMEN
  6
CONTINUOUS
 10
427.58294848078549
 20
216.81691695288771
 30
0.0
 11
427.58294848078549
 21
216.4169077976143
 31
0.0
  0
LINE
  5
5B3A
  8
DANMEN
  6
CONTINUOUS
 10
426.54358061761491
 20
216.11701564757851
 30
0.0
 11
427.58294121166438
 21
215.07763854555989
 31
0.0
  0
ARC
  5
5B3B
  8
DANMEN
  6
CONTINUOUS
 10
427.28296068781668
 20
216.81691695288771
 30
0.0
 40
0.2999999523162842
 50
0.0
 51
89.999982013910966
  0
POLYLINE
  5
5B3C
  8
SUNPO
  6
BYBLOCK
 66
     1
 10
0.0
 20
0.0
 30
0.0
 70
     1
 40
1.159999999999999
 41
1.159999999999999
  0
VERTEX
  5
5C00
  8
SUNPO
  6
BYBLOCK
 10
420.72794848078541
 20
242.11692000464549
 30
0.0
 42
1.0
  0
VERTEX
  5
5C01
  8
SUNPO
  6
BYBLOCK
 10
420.43794848078551
 20
242.11692000464549
 30
0.0
 42
1.0
  0
SEQEND
  5
5C02
  8
SUNPO
  6
BYBLOCK
  0
LINE
  5
5B40
  8
SUNPO
  6
CONTINUOUS
 10
462.58291796320742
 20
242.11692000464549
 30
0.0
 11
472.58293322199631
 21
242.11692000464549
 31
0.0
  0
LINE
  5
5B41
  8
SUNPO
  6
CONTINUOUS
 10
450.58294848078532
 20
223.6164012058174
 30
0.0
 11
450.58294848078532
 21
242.11692000464549
 31
0.0
  0
ARC
  5
5B42
  8
DANMEN
  6
CONTINUOUS
 10
450.08294848078532
 20
221.61692000464549
 30
0.0
 40
0.5
 50
0.0
 51
89.999982013910966
  0
LINE
  5
5B43
  8
DANMEN
  6
CONTINUOUS
 10
438.08294848078532
 20
220.31691695288771
 30
0.0
 11
446.58294848078532
 21
220.31691695288771
 31
0.0
  0
LINE
  5
5B44
  8
DANMEN
  6
CONTINUOUS
 10
434.8829515325433
 20
217.11692000464549
 30
0.0
 11
436.88293627375418
 21
217.11692000464549
 31
0.0
  0
LINE
  5
5B45
  8
DANMEN
  6
CONTINUOUS
 10
434.8829515325433
 20
216.11692000464549
 30
0.0
 11
437.58294848078532
 21
216.11692000464549
 31
0.0
  0
ARC
  5
5B46
  8
DANMEN
  6
CONTINUOUS
 10
434.8829515325433
 20
216.4169077976143
 30
0.0
 40
0.2999999523162842
 50
179.99996402782111
 51
270.00000068324448
  0
LINE
  5
5B47
  8
DANMEN
  6
CONTINUOUS
 10
434.58294848078549
 20
216.81691695288771
 30
0.0
 11
434.58294848078549
 21
216.4169077976143
 31
0.0
  0
ARC
  5
5B48
  8
DANMEN
  6
CONTINUOUS
 10
434.8829515325433
 20
216.81691695288771
 30
0.0
 40
0.2999999523162842
 50
89.999982013910966
 51
179.99996402782111
  0
LINE
  5
5B49
  8
DANMEN
  6
CONTINUOUS
 10
436.88293627375418
 20
220.31691695288771
 30
0.0
 11
436.88293627375418
 21
217.11692000464549
 31
0.0
  0
ARC
  5
5B4A
  8
DANMEN
  6
CONTINUOUS
 10
437.58294848078532
 20
216.61692000464549
 30
0.0
 40
0.5
 50
270.00001798608889
 51
0.0
  0
LINE
  5
5B4B
  8
DANMEN
  6
CONTINUOUS
 10
438.08294848078532
 20
220.31691695288771
 30
0.0
 11
438.08294848078532
 21
216.61692000464549
 31
0.0
  0
LINE
  5
5B4C
  8
DANMEN
  6
CONTINUOUS
 10
445.58282641047288
 20
209.11655379370791
 30
0.0
 11
445.58282641047288
 21
215.1165995700751
 31
0.0
  0
LINE
  5
5B4D
  8
DANMEN
  6
CONTINUOUS
 10
450.58294848078532
 20
221.61692000464549
 30
0.0
 11
450.58294848078532
 21
220.61692000464549
 31
0.0
  0
ARC
  5
5B4E
  8
DANMEN
  6
CONTINUOUS
 10
454.08294848078532
 20
217.04619551734081
 30
0.0
 40
5.0
 50
134.42697479101551
 51
179.99996402782111
  0
POLYLINE
  5
5B4F
  8
SUNPO
  6
BYBLOCK
 66
     1
 10
0.0
 20
0.0
 30
0.0
 70
     1
 40
1.159999999999999
 41
1.159999999999999
  0
VERTEX
  5
5C03
  8
SUNPO
  6
BYBLOCK
 10
450.72794848078541
 20
242.11692000464549
 30
0.0
 42
1.0
  0
VERTEX
  5
5C04
  8
SUNPO
  6
BYBLOCK
 10
450.43794848078551
 20
242.11692000464549
 30
0.0
 42
1.0
  0
SEQEND
  5
5C05
  8
SUNPO
  6
BYBLOCK
  0
POLYLINE
  5
5B53
  8
SUNPO
  6
BYBLOCK
 66
     1
 10
0.0
 20
0.0
 30
0.0
 70
     1
 40
1.159999999999999
 41
1.159999999999999
  0
VERTEX
  5
5C06
  8
SUNPO
  6
BYBLOCK
 10
450.43794848078551
 20
242.11692000464549
 30
0.0
 42
1.0
  0
VERTEX
  5
5C07
  8
SUNPO
  6
BYBLOCK
 10
450.72794848078541
 20
242.11692000464549
 30
0.0
 42
1.0
  0
SEQEND
  5
5C08
  8
SUNPO
  6
BYBLOCK
  0
LINE
  5
5B57
  8
SUNPO
  6
CONTINUOUS
 10
462.58291796320742
 20
242.11692000464549
 30
0.0
 11
450.58294848078532
 21
242.11692000464549
 31
0.0
  0
TEXT
  5
5B58
  8
SUNPO
  6
CONTINUOUS
 10
433.70794848078549
 20
242.61692000464549
 30
0.0
 40
2.5
  1
30
  7
MX_NOTE_STANDARD
  0
TEXT
  5
5B59
  8
SUNPO
  6
CONTINUOUS
 10
454.91619026138432
 20
242.61692000464549
 30
0.0
 40
2.5
  1
12
  7
MX_NOTE_STANDARD
  0
POLYLINE
  5
5B5A
  8
SUNPO
  6
BYBLOCK
 66
     1
 10
0.0
 20
0.0
 30
0.0
 70
     1
 40
1.159999999999999
 41
1.159999999999999
  0
VERTEX
  5
5C09
  8
SUNPO
  6
BYBLOCK
 10
462.72791796320718
 20
242.11692000464549
 30
0.0
 42
1.0
  0
VERTEX
  5
5C0A
  8
SUNPO
  6
BYBLOCK
 10
462.43791796320733
 20
242.11692000464549
 30
0.0
 42
1.0
  0
SEQEND
  5
5C0B
  8
SUNPO
  6
BYBLOCK
  0
POLYLINE
  5
5B5E
  8
SUNPO
  6
BYBLOCK
 66
     1
 10
0.0
 20
0.0
 30
0.0
 70
     1
 40
1.159999999999999
 41
1.159999999999999
  0
VERTEX
  5
5C0C
  8
SUNPO
  6
BYBLOCK
 10
462.43791796320733
 20
242.11692000464549
 30
0.0
 42
1.0
  0
VERTEX
  5
5C0D
  8
SUNPO
  6
BYBLOCK
 10
462.72791796320718
 20
242.11692000464549
 30
0.0
 42
1.0
  0
SEQEND
  5
5C0E
  8
SUNPO
  6
BYBLOCK
  0
TEXT
  5
5B62
  8
SUNPO
  6
CONTINUOUS
 10
466.12452359471757
 20
242.61692000464549
 30
0.0
 40
2.5
  1
10
  7
MX_NOTE_STANDARD
  0
POLYLINE
  5
5B63
  8
SUNPO
  6
BYBLOCK
 66
     1
 10
0.0
 20
0.0
 30
0.0
 70
     1
 40
1.159999999999999
 41
1.159999999999999
  0
VERTEX
  5
5C0F
  8
SUNPO
  6
BYBLOCK
 10
472.43793322199639
 20
242.11692000464549
 30
0.0
 42
1.0
  0
VERTEX
  5
5C10
  8
SUNPO
  6
BYBLOCK
 10
472.72793322199618
 20
242.11692000464549
 30
0.0
 42
1.0
  0
SEQEND
  5
5C11
  8
SUNPO
  6
BYBLOCK
  0
LINE
  5
5B67
  8
SUNPO
  6
CONTINUOUS
 10
245.1175846095764
 20
102.1170056441609
 30
0.0
 11
247.7747858216112
 21
99.459804432126106
 31
0.0
  0
LINE
  5
5B68
  8
SUNPO
  6
CONTINUOUS
 10
247.77478209317621
 20
104.77421481409969
 30
0.0
 11
247.77478209317621
 21
99.459815396161062
 31
0.0
  0
LINE
  5
5B69
  8
SUNPO
  6
CONTINUOUS
 10
247.7747856424229
 20
104.7742181450684
 30
0.0
 11
245.1175846095764
 21
102.117017112222
 31
0.0
  0
ENDSEC
  0
EOF
