  0
SECTION
  2
HEADER
  9
$ACADVER
  1
AC1009
  9
$INSBASE
 10
0.0
 20
0.0
 30
0.0
  9
$EXTMIN
 10
31.524425493660821
 20
28.29526935608077
 30
0.0
  9
$EXTMAX
 10
625.06861020684937
 20
486.06007735200342
 30
0.0
  9
$LIMMIN
 10
0.0
 20
0.0
  9
$LIMMAX
 10
420.0
 20
297.0
  9
$ORTHOMODE
 70
     0
  9
$REGENMODE
 70
     1
  9
$FILLMODE
 70
     1
  9
$QTEXTMODE
 70
     0
  9
$MIRRTEXT
 70
     1
  9
$DRAGMODE
 70
     2
  9
$LTSCALE
 40
1.0
  9
$OSMODE
 70
    39
  9
$ATTMODE
 70
     1
  9
$TEXTSIZE
 40
2.5
  9
$TRACEWID
 40
1.0
  9
$TEXTSTYLE
  7
STANDARD
  9
$CLAYER
  8
0
  9
$CELTYPE
  6
BYLAYER
  9
$CECOLOR
 62
   256
  9
$DIMSCALE
 40
1.0
  9
$DIMASZ
 40
2.5
  9
$DIMEXO
 40
0.625
  9
$DIMDLI
 40
3.75
  9
$DIMRND
 40
0.0
  9
$DIMDLE
 40
0.0
  9
$DIMEXE
 40
1.25
  9
$DIMTP
 40
0.0
  9
$DIMTM
 40
0.0
  9
$DIMTXT
 40
2.5
  9
$DIMCEN
 40
2.5
  9
$DIMTSZ
 40
0.0
  9
$DIMTOL
 70
     0
  9
$DIMLIM
 70
     0
  9
$DIMTIH
 70
     0
  9
$DIMTOH
 70
     0
  9
$DIMSE1
 70
     0
  9
$DIMSE2
 70
     0
  9
$DIMTAD
 70
     1
  9
$DIMZIN
 70
     8
  9
$DIMBLK
  1

  9
$DIMASO
 70
     1
  9
$DIMSHO
 70
     1
  9
$DIMPOST
  1

  9
$DIMAPOST
  1

  9
$DIMALT
 70
     0
  9
$DIMALTD
 70
     3
  9
$DIMALTF
 40
0.03937007874016
  9
$DIMLFAC
 40
1.0
  9
$DIMTOFL
 70
     1
  9
$DIMTVP
 40
0.0
  9
$DIMTIX
 70
     0
  9
$DIMSOXD
 70
     0
  9
$DIMSAH
 70
     0
  9
$DIMBLK1
  1

  9
$DIMBLK2
  1

  9
$DIMSTYLE
  2
ISO-25
  9
$DIMCLRD
 70
     0
  9
$DIMCLRE
 70
     0
  9
$DIMCLRT
 70
     0
  9
$DIMTFAC
 40
1.0
  9
$DIMGAP
 40
0.625
  9
$LUNITS
 70
     2
  9
$LUPREC
 70
     4
  9
$SKETCHINC
 40
1.0
  9
$FILLETRAD
 40
10.0
  9
$AUNITS
 70
     0
  9
$AUPREC
 70
     0
  9
$MENU
  1
.
  9
$ELEVATION
 40
0.0
  9
$PELEVATION
 40
0.0
  9
$THICKNESS
 40
0.0
  9
$LIMCHECK
 70
     0
  9
$BLIPMODE
 70
     0
  9
$CHAMFERA
 40
10.0
  9
$CHAMFERB
 40
10.0
  9
$SKPOLY
 70
     0
  9
$TDCREATE
 40
2456583.6822594791
  9
$TDUPDATE
 40
2456600.611864537
  9
$TDINDWG
 40
0.0317024884
  9
$TDUSRTIMER
 40
0.0317014005
  9
$USRTIMER
 70
     1
  9
$ANGBASE
 50
0.0
  9
$ANGDIR
 70
     0
  9
$PDMODE
 70
     0
  9
$PDSIZE
 40
0.0
  9
$PLINEWID
 40
0.0
  9
$COORDS
 70
     1
  9
$SPLFRAME
 70
     0
  9
$SPLINETYPE
 70
     6
  9
$SPLINESEGS
 70
     8
  9
$ATTDIA
 70
     0
  9
$ATTREQ
 70
     1
  9
$HANDLING
 70
-16383
  9
$HANDSEED
  5
B011
  9
$SURFTAB1
 70
     6
  9
$SURFTAB2
 70
     6
  9
$SURFTYPE
 70
     6
  9
$SURFU
 70
     6
  9
$SURFV
 70
     6
  9
$UCSNAME
  2

  9
$UCSORG
 10
0.0
 20
0.0
 30
0.0
  9
$UCSXDIR
 10
1.0
 20
0.0
 30
0.0
  9
$UCSYDIR
 10
0.0
 20
1.0
 30
0.0
  9
$PUCSNAME
  2

  9
$PUCSORG
 10
0.0
 20
0.0
 30
0.0
  9
$PUCSXDIR
 10
1.0
 20
0.0
 30
0.0
  9
$PUCSYDIR
 10
0.0
 20
1.0
 30
0.0
  9
$USERI1
 70
     0
  9
$USERI2
 70
     0
  9
$USERI3
 70
     0
  9
$USERI4
 70
     0
  9
$USERI5
 70
     0
  9
$USERR1
 40
0.0
  9
$USERR2
 40
0.0
  9
$USERR3
 40
0.0
  9
$USERR4
 40
0.0
  9
$USERR5
 40
0.0
  9
$WORLDVIEW
 70
     1
  9
$SHADEDGE
 70
     3
  9
$SHADEDIF
 70
    70
  9
$TILEMODE
 70
     1
  9
$MAXACTVP
 70
    64
  9
$PLIMCHECK
 70
     0
  9
$PEXTMIN
 10
1.0000000000000000E+020
 20
1.0000000000000000E+020
 30
1.0000000000000000E+020
  9
$PEXTMAX
 10
-1.0000000000000000E+020
 20
-1.0000000000000000E+020
 30
-1.0000000000000000E+020
  9
$PLIMMIN
 10
0.0
 20
0.0
  9
$PLIMMAX
 10
420.0
 20
297.0
  9
$UNITMODE
 70
     0
  9
$VISRETAIN
 70
     1
  9
$PLINEGEN
 70
     0
  9
$PSLTSCALE
 70
     1
  0
ENDSEC
  0
SECTION
  2
TABLES
  0
TABLE
  2
VPORT
 70
     2
  0
VPORT
  2
*ACTIVE
 70
     0
 10
0.0
 20
0.0
 11
1.0
 21
1.0
 12
316.38681511076561
 22
349.18319369994163
 13
0.0
 23
0.0
 14
10.0
 24
10.0
 15
10.0
 25
10.0
 16
0.0
 26
0.0
 36
1.0
 17
0.0
 27
0.0
 37
0.0
 40
300.24995056416287
 41
1.7359999999999991
 42
50.0
 43
0.0
 44
0.0
 50
0.0
 51
0.0
 71
     0
 72
   100
 73
     1
 74
     3
 75
     0
 76
     0
 77
     0
 78
     0
  0
ENDTAB
  0
TABLE
  2
LTYPE
 70
     4
  0
LTYPE
  2
CONTINUOUS
 70
     0
  3
Solid line
 72
    65
 73
     0
 40
0.0
  0
LTYPE
  2
DASHED
 70
     0
  3
Dashed __ __ __ __ __ __ __ __ __ __ __ __ __ _
 72
    65
 73
     2
 40
19.049999999999962
 49
12.699999999999999
 49
-6.349999999999997
  0
LTYPE
  2
PHANTOM
 70
     0
  3
Phantom ______  __  __  ______  __  __  ______
 72
    65
 73
     6
 40
63.5
 49
31.75
 49
-6.349999999999997
 49
6.349999999999997
 49
-6.349999999999997
 49
6.349999999999997
 49
-6.349999999999997
  0
LTYPE
  2
CENTER
 70
     0
  3
Center ____ _ ____ _ ____ _ ____ _ ____ _ ____
 72
    65
 73
     4
 40
50.799999999999997
 49
31.75
 49
-6.349999999999997
 49
6.349999999999997
 49
-6.349999999999997
  0
ENDTAB
  0
TABLE
  2
LAYER
 70
     4
  0
LAYER
  2
0
 70
     0
 62
     7
  6
CONTINUOUS
  0
LAYER
  2
DANMEN
 70
     0
 62
     7
  6
CONTINUOUS
  0
LAYER
  2
SUNPO
 70
     0
 62
     1
  6
CONTINUOUS
  0
LAYER
  2
WAKU
 70
     0
 62
     3
  6
CONTINUOUS
  0
ENDTAB
  0
TABLE
  2
STYLE
 70
     6
  0
STYLE
  2
STANDARD
 70
     0
 40
0.0
 41
1.0
 50
0.0
 71
     0
 42
2.5
  3
txt
  4

  0
STYLE
  2
MX_NOTE_STANDARD
 70
     0
 40
0.0
 41
1.0
 50
0.0
 71
     0
 42
2.5
  3
txt.shx
  4
extfont.shx
  0
STYLE
  2
MX_DIMTXSTY_2
 70
     0
 40
0.0
 41
1.1999999999999991
 50
0.0
 71
     0
 42
2.5
  3
txt.shx
  4
extfont.shx
  0
STYLE
  2
MX_DIMTXSTY_3
 70
     0
 40
0.0
 41
1.1000000000000001
 50
0.0
 71
     0
 42
2.5
  3
txt.shx
  4
extfont.shx
  0
STYLE
  2
MX_DIMTXSTY_4
 70
     0
 40
0.0
 41
1.3500000000000001
 50
0.0
 71
     0
 42
2.5
  3
txt.shx
  4
extfont.shx
  0
STYLE
  2
MX_DIMTXSTY_5
 70
     0
 40
0.0
 41
1.3
 50
0.0
 71
     0
 42
2.5
  3
txt.shx
  4
extfont.shx
  0
ENDTAB
  0
TABLE
  2
VIEW
 70
     0
  0
ENDTAB
  0
TABLE
  2
UCS
 70
     0
  0
ENDTAB
  0
TABLE
  2
APPID
 70
     1
  0
APPID
  2
ACAD
 70
     0
  0
ENDTAB
  0
TABLE
  2
DIMSTYLE
 70
     2
  0
DIMSTYLE
  2
ISO-25
 70
     0
  3

  4

  5

  6

  7

 40
1.0
 41
2.5
 42
0.625
 43
3.75
 44
1.25
 45
0.0
 46
0.0
 47
0.0
 48
0.0
140
2.5
141
2.5
142
0.0
143
0.03937007874016
144
1.0
145
0.0
146
1.0
147
0.625
 71
     0
 72
     0
 73
     0
 74
     0
 75
     0
 76
     0
 77
     1
 78
     8
170
     0
171
     3
172
     1
173
     0
174
     0
175
     0
176
     0
177
     0
178
     0
  0
DIMSTYLE
  2
MXDIMSTYLE
 70
     0
  3

  4

  5

  6

  7

 40
1.0
 41
2.5
 42
1.5
 43
3.75
 44
0.0
 45
0.0
 46
0.0
 47
0.0
 48
0.0
140
2.5
141
2.5
142
0.0
143
0.03937
144
1.0
145
0.0
146
1.0
147
0.5
 71
     0
 72
     0
 73
     0
 74
     0
 75
     0
 76
     0
 77
     1
 78
     8
170
     0
171
     4
172
     1
173
     1
174
     0
175
     0
176
     0
177
     0
178
     0
  0
ENDTAB
  0
ENDSEC
  0
SECTION
  2
BLOCKS
  0
BLOCK
  8
0
  2
$MODEL_SPACE
 70
     0
 10
0.0
 20
0.0
 30
0.0
  3
$MODEL_SPACE
  1

  0
ENDBLK
  5
9431
  8
0
  0
BLOCK
 67
     1
  8
0
  2
$PAPER_SPACE
 70
     0
 10
0.0
 20
0.0
 30
0.0
  3
$PAPER_SPACE
  1

  0
ENDBLK
  5
942D
 67
     1
  8
0
  0
BLOCK
  8
0
  6
BYBLOCK
 62
     0
  2
_OPEN30
 70
     2
 10
0.0
 20
0.0
 30
0.0
  3
_OPEN30
  1

  0
LINE
  5
944B
  8
0
  6
BYBLOCK
 62
     0
 10
-1.0
 20
0.267949
 30
0.0
 11
0.0
 21
0.0
 31
0.0
  0
LINE
  5
944C
  8
0
  6
BYBLOCK
 62
     0
 10
0.0
 20
0.0
 30
0.0
 11
-1.0
 21
-0.267949
 31
0.0
  0
LINE
  5
944D
  8
0
  6
BYBLOCK
 62
     0
 10
0.0
 20
0.0
 30
0.0
 11
-1.0
 21
0.0
 31
0.0
  0
ENDBLK
  5
944E
  8
0
  6
BYBLOCK
 62
     0
  0
ENDSEC
  0
SECTION
  2
ENTITIES
  0
LINE
  5
944F
  8
WAKU
  6
CONTINUOUS
 10
612.6447492631836
 20
483.04103073681739
 30
0.0
 11
613.27189826318363
 21
484.76410773681721
 31
0.0
  0
LINE
  5
9450
  8
WAKU
  6
CONTINUOUS
 10
611.9392072631839
 20
481.1025697368172
 30
0.0
 11
612.40956826318393
 21
482.39487673681742
 31
0.0
  0
SOLID
  5
9451
  8
WAKU
  6
CONTINUOUS
 10
615.42574426318413
 20
484.76410773681721
 30
0.0
 11
612.58496526318413
 21
479.9179537368172
 31
0.0
 12
612.8779522631836
 22
477.76410773681738
 32
0.0
 13
612.8779522631836
 23
477.76410773681738
 33
0.0
  0
SOLID
  5
9452
  8
WAKU
  6
CONTINUOUS
 10
612.58496526318413
 20
479.9179537368172
 30
0.0
 11
615.42574426318413
 21
484.76410773681721
 31
0.0
 12
614.34882126318359
 22
484.76410773681721
 32
0.0
 13
614.34882126318359
 23
484.76410773681721
 33
0.0
  0
LINE
  5
9453
  8
WAKU
  6
CONTINUOUS
 10
612.58496526318413
 20
479.9179537368172
 30
0.0
 11
614.34882126318359
 21
484.76410773681721
 31
0.0
  0
LINE
  5
9454
  8
WAKU
  6
CONTINUOUS
 10
612.8779522631836
 20
477.76410773681738
 30
0.0
 11
615.42574426318413
 21
484.76410773681721
 31
0.0
  0
LINE
  5
9455
  8
WAKU
  6
CONTINUOUS
 10
614.34882126318359
 20
484.76410773681721
 30
0.0
 11
615.42574426318413
 21
484.76410773681721
 31
0.0
  0
LINE
  5
9456
  8
WAKU
  6
CONTINUOUS
 10
610.04112926318396
 20
484.76410773681721
 30
0.0
 11
609.41398026318393
 21
483.04103073681739
 31
0.0
  0
LINE
  5
9457
  8
WAKU
  6
CONTINUOUS
 10
609.17879926318415
 20
482.39487673681742
 30
0.0
 11
608.70843826318412
 21
481.1025697368172
 31
0.0
  0
LINE
  5
9458
  8
WAKU
  6
CONTINUOUS
 10
607.49333726318412
 20
477.76410773681738
 30
0.0
 11
608.2772732631837
 21
479.9179537368172
 31
0.0
  0
LINE
  5
9459
  8
WAKU
  6
CONTINUOUS
 10
606.22240726318364
 20
483.14872273681692
 30
0.0
 11
607.29933126318315
 21
483.14872273681692
 31
0.0
  0
SOLID
  5
945A
  8
WAKU
  6
CONTINUOUS
 10
605.33949126318385
 20
477.76410773681738
 30
0.0
 11
604.85052026318397
 21
479.37949273681772
 31
0.0
 12
601.61975026318407
 22
479.37949273681772
 32
0.0
 13
601.61975026318407
 23
479.37949273681772
 33
0.0
  0
LINE
  5
945B
  8
WAKU
  6
CONTINUOUS
 10
601.61975026318362
 20
479.37949273681721
 30
0.0
 11
604.85052026318385
 21
479.37949273681721
 31
0.0
  0
SOLID
  5
945C
  8
WAKU
  6
CONTINUOUS
 10
603.28462526318413
 20
480.99487673681779
 30
0.0
 11
604.06856126318394
 21
483.148722736818
 31
0.0
 12
602.99163826318397
 22
483.148722736818
 32
0.0
 13
602.99163826318397
 23
483.148722736818
 33
0.0
  0
LINE
  5
945D
  8
WAKU
  6
CONTINUOUS
 10
603.60770226318414
 20
480.99487673681722
 30
0.0
 11
604.39163826318349
 21
483.14872273681692
 31
0.0
  0
LINE
  5
945E
  8
WAKU
  6
CONTINUOUS
 10
603.28462526318413
 20
480.99487673681722
 30
0.0
 11
604.06856126318337
 21
483.14872273681692
 31
0.0
  0
LINE
  5
945F
  8
WAKU
  6
CONTINUOUS
 10
603.60770226318414
 20
480.99487673681722
 30
0.0
 11
604.68462526318285
 21
480.99487673681722
 31
0.0
  0
LINE
  5
9460
  8
WAKU
  6
CONTINUOUS
 10
602.99163826318397
 20
483.14872273681692
 30
0.0
 11
604.06856126318337
 21
483.14872273681692
 31
0.0
  0
SOLID
  5
9461
  8
WAKU
  6
CONTINUOUS
 10
604.39163826318395
 20
483.148722736818
 30
0.0
 11
603.60770226318414
 21
480.99487673681779
 31
0.0
 12
605.46856126318357
 22
483.148722736818
 32
0.0
 13
605.46856126318357
 23
483.148722736818
 33
0.0
  0
SOLID
  5
9462
  8
WAKU
  6
CONTINUOUS
 10
605.46856126318357
 20
483.148722736818
 30
0.0
 11
603.60770226318414
 21
480.99487673681779
 31
0.0
 12
604.6846252631841
 22
480.99487673681779
 32
0.0
 13
604.6846252631841
 23
480.99487673681779
 33
0.0
  0
SOLID
  5
9463
  8
WAKU
  6
CONTINUOUS
 10
602.99163826318397
 20
483.148722736818
 30
0.0
 11
602.20770226318439
 21
480.99487673681779
 31
0.0
 12
603.28462526318413
 22
480.99487673681779
 32
0.0
 13
603.28462526318413
 23
480.99487673681779
 33
0.0
  0
LINE
  5
9464
  8
WAKU
  6
CONTINUOUS
 10
602.20770226318359
 20
480.99487673681722
 30
0.0
 11
602.99163826318397
 21
483.14872273681692
 31
0.0
  0
LINE
  5
9465
  8
WAKU
  6
CONTINUOUS
 10
602.20770226318359
 20
480.99487673681722
 30
0.0
 11
603.28462526318413
 21
480.99487673681722
 31
0.0
  0
LINE
  5
9466
  8
WAKU
  6
CONTINUOUS
 10
604.68462526318285
 20
480.99487673681722
 30
0.0
 11
605.46856126318357
 21
483.14872273681692
 31
0.0
  0
LINE
  5
9467
  8
WAKU
  6
CONTINUOUS
 10
604.39163826318349
 20
483.14872273681692
 30
0.0
 11
605.46856126318357
 21
483.14872273681692
 31
0.0
  0
SOLID
  5
9468
  8
WAKU
  6
CONTINUOUS
 10
606.22240726318375
 20
483.148722736818
 30
0.0
 11
604.85052026318397
 21
479.37949273681772
 31
0.0
 12
605.33949126318385
 22
477.76410773681738
 32
0.0
 13
605.33949126318385
 23
477.76410773681738
 33
0.0
  0
LINE
  5
9469
  8
WAKU
  6
CONTINUOUS
 10
604.85052026318385
 20
479.37949273681721
 30
0.0
 11
606.22240726318364
 21
483.14872273681692
 31
0.0
  0
SOLID
  5
946A
  8
WAKU
  6
CONTINUOUS
 10
607.29933126318429
 20
483.148722736818
 30
0.0
 11
606.22240726318375
 21
483.148722736818
 31
0.0
 12
605.33949126318385
 22
477.76410773681738
 32
0.0
 13
605.33949126318385
 23
477.76410773681738
 33
0.0
  0
LINE
  5
946B
  8
WAKU
  6
CONTINUOUS
 10
605.33949126318385
 20
477.76410773681738
 30
0.0
 11
607.29933126318315
 21
483.14872273681692
 31
0.0
  0
SOLID
  5
946C
  8
WAKU
  6
CONTINUOUS
 10
600.34882126318359
 20
484.76410773681721
 30
0.0
 11
599.87845926318414
 21
483.47179973681767
 31
0.0
 12
600.95538226318399
 22
483.47179973681767
 32
0.0
 13
600.95538226318399
 23
483.47179973681767
 33
0.0
  0
SOLID
  5
946D
  8
WAKU
  6
CONTINUOUS
 10
599.87845926318414
 20
483.47179973681767
 30
0.0
 11
600.36743126318413
 21
481.85641573681733
 31
0.0
 12
601.17512326318365
 22
481.85641573681733
 32
0.0
 13
601.17512326318365
 23
481.85641573681733
 33
0.0
  0
LINE
  5
946E
  8
WAKU
  6
CONTINUOUS
 10
599.87845926318323
 20
483.47179973681739
 30
0.0
 11
600.34882126318359
 21
484.76410773681721
 31
0.0
  0
LINE
  5
946F
  8
WAKU
  6
CONTINUOUS
 10
600.36743126318368
 20
481.85641573681733
 30
0.0
 11
601.17512326318365
 21
481.85641573681733
 31
0.0
  0
LINE
  5
9470
  8
WAKU
  6
CONTINUOUS
 10
597.18615226318354
 20
483.47179973681739
 30
0.0
 11
597.65651326318391
 21
484.76410773681721
 31
0.0
  0
LINE
  5
9471
  8
WAKU
  6
CONTINUOUS
 10
596.57959026318349
 20
484.76410773681721
 30
0.0
 11
597.65651326318391
 21
484.76410773681721
 31
0.0
  0
SOLID
  5
9472
  8
WAKU
  6
CONTINUOUS
 10
599.2905072631836
 20
481.85641573681733
 30
0.0
 11
598.58496526318413
 21
479.9179537368172
 31
0.0
 12
598.87795226318406
 22
477.76410773681738
 32
0.0
 13
598.87795226318406
 23
477.76410773681738
 33
0.0
  0
LINE
  5
9473
  8
WAKU
  6
CONTINUOUS
 10
598.58496526318413
 20
479.9179537368172
 30
0.0
 11
599.2905072631836
 21
481.85641573681733
 31
0.0
  0
LINE
  5
9474
  8
WAKU
  6
CONTINUOUS
 10
596.59820026318346
 20
481.85641573681733
 30
0.0
 11
599.2905072631836
 21
481.85641573681733
 31
0.0
  0
SOLID
  5
9475
  8
WAKU
  6
CONTINUOUS
 10
600.36743126318413
 20
481.85641573681733
 30
0.0
 11
599.2905072631836
 21
481.85641573681733
 31
0.0
 12
598.87795226318406
 22
477.76410773681738
 32
0.0
 13
598.87795226318406
 23
477.76410773681738
 33
0.0
  0
LINE
  5
9476
  8
WAKU
  6
CONTINUOUS
 10
598.8779522631836
 20
477.76410773681738
 30
0.0
 11
600.36743126318368
 21
481.85641573681733
 31
0.0
  0
SOLID
  5
9477
  8
WAKU
  6
CONTINUOUS
 10
600.36743126318413
 20
481.85641573681733
 30
0.0
 11
599.87845926318414
 21
483.47179973681767
 31
0.0
 12
597.18615226318411
 22
483.47179973681767
 32
0.0
 13
597.18615226318411
 23
483.47179973681767
 33
0.0
  0
LINE
  5
9478
  8
WAKU
  6
CONTINUOUS
 10
597.18615226318354
 20
483.47179973681739
 30
0.0
 11
599.87845926318323
 21
483.47179973681739
 31
0.0
  0
LINE
  5
9479
  8
WAKU
  6
CONTINUOUS
 10
595.1293092631837
 20
480.77949273681742
 30
0.0
 11
595.52127726318406
 21
481.85641573681733
 31
0.0
  0
LINE
  5
947A
  8
WAKU
  6
CONTINUOUS
 10
595.1293092631837
 20
480.77949273681742
 30
0.0
 11
596.20623226318412
 21
480.77949273681742
 31
0.0
  0
LINE
  5
947B
  8
WAKU
  6
CONTINUOUS
 10
593.81641426318299
 20
477.76410773681738
 30
0.0
 11
594.60035026318337
 21
479.9179537368172
 31
0.0
  0
LINE
  5
947C
  8
WAKU
  6
CONTINUOUS
 10
594.71358426318352
 20
481.85641573681733
 30
0.0
 11
595.52127726318406
 21
481.85641573681733
 31
0.0
  0
LINE
  5
947D
  8
WAKU
  6
CONTINUOUS
 10
595.30153626318395
 20
483.47179973681739
 30
0.0
 11
596.10922926318335
 21
483.47179973681739
 31
0.0
  0
LINE
  5
947E
  8
WAKU
  6
CONTINUOUS
 10
594.71358426318352
 20
481.85641573681733
 30
0.0
 11
595.30153626318395
 21
483.47179973681739
 31
0.0
  0
LINE
  5
947F
  8
WAKU
  6
CONTINUOUS
 10
593.79859526318364
 20
483.04103073681739
 30
0.0
 11
594.42574426318345
 21
484.76410773681721
 31
0.0
  0
LINE
  5
9480
  8
WAKU
  6
CONTINUOUS
 10
591.8779522631836
 20
477.76410773681738
 30
0.0
 11
592.66188826318319
 21
479.9179537368172
 31
0.0
  0
SOLID
  5
9481
  8
WAKU
  6
CONTINUOUS
 10
595.30153626318429
 20
483.47179973681767
 30
0.0
 11
594.71358426318409
 21
481.85641573681733
 31
0.0
 12
597.18615226318411
 22
483.47179973681767
 32
0.0
 13
597.18615226318411
 23
483.47179973681767
 33
0.0
  0
LINE
  5
9482
  8
WAKU
  6
CONTINUOUS
 10
596.10922926318335
 20
483.47179973681739
 30
0.0
 11
596.57959026318349
 21
484.76410773681721
 31
0.0
  0
SOLID
  5
9483
  8
WAKU
  6
CONTINUOUS
 10
597.65651326318391
 20
484.76410773681721
 30
0.0
 11
596.10922926318426
 21
483.47179973681767
 31
0.0
 12
597.18615226318411
 22
483.47179973681767
 32
0.0
 13
597.18615226318411
 23
483.47179973681767
 33
0.0
  0
SOLID
  5
9484
  8
WAKU
  6
CONTINUOUS
 10
596.10922926318426
 20
483.47179973681767
 30
0.0
 11
597.65651326318391
 21
484.76410773681721
 31
0.0
 12
596.57959026318429
 22
484.76410773681721
 32
0.0
 13
596.57959026318429
 23
484.76410773681721
 33
0.0
  0
SOLID
  5
9485
  8
WAKU
  6
CONTINUOUS
 10
598.87795226318406
 20
477.76410773681738
 30
0.0
 11
598.58496526318413
 21
479.9179537368172
 31
0.0
 12
594.60035026318451
 22
479.9179537368172
 32
0.0
 13
594.60035026318451
 23
479.9179537368172
 33
0.0
  0
SOLID
  5
9486
  8
WAKU
  6
CONTINUOUS
 10
594.60035026318451
 20
479.9179537368172
 30
0.0
 11
593.81641426318413
 21
477.76410773681738
 31
0.0
 12
598.87795226318406
 22
477.76410773681738
 32
0.0
 13
598.87795226318406
 23
477.76410773681738
 33
0.0
  0
LINE
  5
9487
  8
WAKU
  6
CONTINUOUS
 10
593.81641426318299
 20
477.76410773681738
 30
0.0
 11
598.8779522631836
 21
477.76410773681738
 31
0.0
  0
SOLID
  5
9488
  8
WAKU
  6
CONTINUOUS
 10
594.71358426318409
 20
481.85641573681733
 30
0.0
 11
596.59820026318425
 21
481.85641573681733
 31
0.0
 12
599.2905072631836
 22
481.85641573681733
 32
0.0
 13
599.2905072631836
 23
481.85641573681733
 33
0.0
  0
SOLID
  5
9489
  8
WAKU
  6
CONTINUOUS
 10
597.18615226318411
 20
483.47179973681767
 30
0.0
 11
594.71358426318409
 21
481.85641573681733
 31
0.0
 12
600.36743126318413
 22
481.85641573681733
 32
0.0
 13
600.36743126318413
 23
481.85641573681733
 33
0.0
  0
SOLID
  5
948A
  8
WAKU
  6
CONTINUOUS
 10
600.36743126318413
 20
481.85641573681733
 30
0.0
 11
594.71358426318409
 21
481.85641573681733
 31
0.0
 12
599.2905072631836
 22
481.85641573681733
 32
0.0
 13
599.2905072631836
 23
481.85641573681733
 33
0.0
  0
SOLID
  5
948B
  8
WAKU
  6
CONTINUOUS
 10
595.52127726318406
 20
481.85641573681733
 30
0.0
 11
595.1293092631837
 21
480.7794927368177
 31
0.0
 12
596.59820026318425
 22
481.85641573681733
 32
0.0
 13
596.59820026318425
 23
481.85641573681733
 33
0.0
  0
SOLID
  5
948C
  8
WAKU
  6
CONTINUOUS
 10
596.59820026318425
 20
481.85641573681733
 30
0.0
 11
595.1293092631837
 21
480.7794927368177
 31
0.0
 12
596.20623226318412
 22
480.7794927368177
 32
0.0
 13
596.20623226318412
 23
480.7794927368177
 33
0.0
  0
LINE
  5
948D
  8
WAKU
  6
CONTINUOUS
 10
596.20623226318412
 20
480.77949273681742
 30
0.0
 11
596.59820026318346
 21
481.85641573681733
 31
0.0
  0
LINE
  5
948E
  8
WAKU
  6
CONTINUOUS
 10
594.60035026318337
 20
479.9179537368172
 30
0.0
 11
598.58496526318413
 21
479.9179537368172
 31
0.0
  0
SOLID
  5
948F
  8
WAKU
  6
CONTINUOUS
 10
594.71358426318409
 20
481.85641573681733
 30
0.0
 11
595.52127726318406
 21
481.85641573681733
 31
0.0
 12
596.59820026318425
 22
481.85641573681733
 32
0.0
 13
596.59820026318425
 23
481.85641573681733
 33
0.0
  0
SOLID
  5
9490
  8
WAKU
  6
CONTINUOUS
 10
597.18615226318411
 20
483.47179973681767
 30
0.0
 11
596.10922926318426
 21
483.47179973681767
 31
0.0
 12
595.30153626318429
 22
483.47179973681767
 32
0.0
 13
595.30153626318429
 23
483.47179973681767
 33
0.0
  0
SOLID
  5
9491
  8
WAKU
  6
CONTINUOUS
 10
601.61975026318407
 20
479.37949273681772
 30
0.0
 11
601.03179926318455
 21
477.76410773681738
 31
0.0
 12
605.33949126318385
 22
477.76410773681738
 32
0.0
 13
605.33949126318385
 23
477.76410773681738
 33
0.0
  0
LINE
  5
9492
  8
WAKU
  6
CONTINUOUS
 10
601.03179926318455
 20
477.76410773681738
 30
0.0
 11
605.33949126318385
 21
477.76410773681738
 31
0.0
  0
SOLID
  5
9493
  8
WAKU
  6
CONTINUOUS
 10
600.95538226318399
 20
483.47179973681767
 30
0.0
 11
599.87845926318414
 21
483.47179973681767
 31
0.0
 12
601.76307526318396
 22
483.47179973681767
 32
0.0
 13
601.76307526318396
 23
483.47179973681767
 33
0.0
  0
SOLID
  5
9494
  8
WAKU
  6
CONTINUOUS
 10
601.76307526318396
 20
483.47179973681767
 30
0.0
 11
599.87845926318414
 21
483.47179973681767
 31
0.0
 12
601.17512326318365
 22
481.85641573681733
 32
0.0
 13
601.17512326318365
 23
481.85641573681733
 33
0.0
  0
LINE
  5
9495
  8
WAKU
  6
CONTINUOUS
 10
601.03179926318455
 20
477.76410773681738
 30
0.0
 11
601.61975026318362
 21
479.37949273681721
 31
0.0
  0
SOLID
  5
9496
  8
WAKU
  6
CONTINUOUS
 10
601.4257442631839
 20
484.76410773681721
 30
0.0
 11
600.34882126318359
 21
484.76410773681721
 31
0.0
 12
600.95538226318399
 22
483.47179973681767
 32
0.0
 13
600.95538226318399
 23
483.47179973681767
 33
0.0
  0
LINE
  5
9497
  8
WAKU
  6
CONTINUOUS
 10
600.34882126318359
 20
484.76410773681721
 30
0.0
 11
601.42574426318299
 21
484.76410773681721
 31
0.0
  0
LINE
  5
9498
  8
WAKU
  6
CONTINUOUS
 10
600.95538226318399
 20
483.47179973681739
 30
0.0
 11
601.42574426318299
 21
484.76410773681721
 31
0.0
  0
LINE
  5
9499
  8
WAKU
  6
CONTINUOUS
 10
600.95538226318399
 20
483.47179973681739
 30
0.0
 11
601.76307526318396
 21
483.47179973681739
 31
0.0
  0
LINE
  5
949A
  8
WAKU
  6
CONTINUOUS
 10
601.17512326318365
 20
481.85641573681733
 30
0.0
 11
601.76307526318396
 21
483.47179973681739
 31
0.0
  0
LINE
  5
949B
  8
WAKU
  6
CONTINUOUS
 10
588.41398026318393
 20
483.04103073681739
 30
0.0
 11
589.04112926318385
 21
484.76410773681721
 31
0.0
  0
LINE
  5
949C
  8
WAKU
  6
CONTINUOUS
 10
586.49333726318412
 20
477.76410773681738
 30
0.0
 11
587.2772732631837
 21
479.9179537368172
 31
0.0
  0
LINE
  5
949D
  8
WAKU
  6
CONTINUOUS
 10
587.74882126318369
 20
484.76410773681721
 30
0.0
 11
587.12167226318275
 21
483.04103073681739
 31
0.0
  0
LINE
  5
949E
  8
WAKU
  6
CONTINUOUS
 10
584.95059526318357
 20
483.04103073681739
 30
0.0
 11
586.18094926318349
 21
480.45641573681741
 31
0.0
  0
LINE
  5
949F
  8
WAKU
  6
CONTINUOUS
 10
585.20102926318361
 20
477.76410773681738
 30
0.0
 11
586.18094926318349
 21
480.45641573681741
 31
0.0
  0
SOLID
  5
94A0
  8
WAKU
  6
CONTINUOUS
 10
583.91941126318432
 20
480.45641573681769
 30
0.0
 11
582.82288926318415
 21
480.4025697368175
 31
0.0
 12
582.93949126318375
 22
477.76410773681738
 32
0.0
 13
582.93949126318375
 23
477.76410773681738
 33
0.0
  0
LINE
  5
94A1
  8
WAKU
  6
CONTINUOUS
 10
582.93949126318375
 20
477.76410773681738
 30
0.0
 11
583.91941126318375
 21
480.45641573681741
 31
0.0
  0
SOLID
  5
94A2
  8
WAKU
  6
CONTINUOUS
 10
582.82288926318415
 20
480.4025697368175
 30
0.0
 11
581.86256826318413
 21
477.76410773681738
 31
0.0
 12
582.93949126318375
 22
477.76410773681738
 32
0.0
 13
582.93949126318375
 23
477.76410773681738
 33
0.0
  0
LINE
  5
94A3
  8
WAKU
  6
CONTINUOUS
 10
581.86256826318413
 20
477.76410773681738
 30
0.0
 11
582.8228892631837
 21
480.4025697368175
 31
0.0
  0
LINE
  5
94A4
  8
WAKU
  6
CONTINUOUS
 10
581.86256826318413
 20
477.76410773681738
 30
0.0
 11
582.93949126318375
 21
477.76410773681738
 31
0.0
  0
SOLID
  5
94A5
  8
WAKU
  6
CONTINUOUS
 10
584.95059526318357
 20
483.0410307368175
 30
0.0
 11
583.73705726318406
 21
483.0410307368175
 31
0.0
 12
583.91941126318432
 22
480.45641573681769
 32
0.0
 13
583.91941126318432
 23
480.45641573681769
 33
0.0
  0
LINE
  5
94A6
  8
WAKU
  6
CONTINUOUS
 10
583.91941126318375
 20
480.45641573681741
 30
0.0
 11
585.20102926318361
 21
477.76410773681738
 31
0.0
  0
SOLID
  5
94A7
  8
WAKU
  6
CONTINUOUS
 10
584.95059526318357
 20
483.0410307368175
 30
0.0
 11
583.91941126318432
 21
480.45641573681769
 31
0.0
 12
586.18094926318395
 22
480.45641573681769
 32
0.0
 13
586.18094926318395
 23
480.45641573681769
 33
0.0
  0
SOLID
  5
94A8
  8
WAKU
  6
CONTINUOUS
 10
583.91941126318432
 20
480.45641573681769
 30
0.0
 11
585.20102926318418
 21
477.76410773681738
 31
0.0
 12
586.18094926318395
 22
480.45641573681769
 32
0.0
 13
586.18094926318395
 23
480.45641573681769
 33
0.0
  0
LINE
  5
94A9
  8
WAKU
  6
CONTINUOUS
 10
581.52167226318352
 20
483.04103073681739
 30
0.0
 11
583.7370572631836
 21
483.04103073681739
 31
0.0
  0
LINE
  5
94AA
  8
WAKU
  6
CONTINUOUS
 10
582.14882126318355
 20
484.76410773681721
 30
0.0
 11
581.52167226318352
 21
483.04103073681739
 31
0.0
  0
SOLID
  5
94AB
  8
WAKU
  6
CONTINUOUS
 10
582.14882126318412
 20
484.76410773681721
 30
0.0
 11
581.52167226318397
 21
483.0410307368175
 31
0.0
 12
584.95059526318357
 22
483.0410307368175
 32
0.0
 13
584.95059526318357
 23
483.0410307368175
 33
0.0
  0
SOLID
  5
94AC
  8
WAKU
  6
CONTINUOUS
 10
584.95059526318357
 20
483.0410307368175
 30
0.0
 11
581.52167226318397
 21
483.0410307368175
 31
0.0
 12
583.73705726318406
 22
483.0410307368175
 32
0.0
 13
583.73705726318406
 23
483.0410307368175
 33
0.0
  0
LINE
  5
94AD
  8
WAKU
  6
CONTINUOUS
 10
584.95059526318357
 20
483.04103073681739
 30
0.0
 11
587.12167226318275
 21
483.04103073681739
 31
0.0
  0
SOLID
  5
94AE
  8
WAKU
  6
CONTINUOUS
 10
587.74882126318414
 20
484.76410773681721
 30
0.0
 11
582.14882126318412
 21
484.76410773681721
 31
0.0
 12
587.12167226318354
 22
483.0410307368175
 32
0.0
 13
587.12167226318354
 23
483.0410307368175
 33
0.0
  0
SOLID
  5
94AF
  8
WAKU
  6
CONTINUOUS
 10
582.14882126318412
 20
484.76410773681721
 30
0.0
 11
584.95059526318357
 21
483.0410307368175
 31
0.0
 12
587.12167226318354
 22
483.0410307368175
 32
0.0
 13
587.12167226318354
 23
483.0410307368175
 33
0.0
  0
LINE
  5
94B0
  8
WAKU
  6
CONTINUOUS
 10
582.14882126318355
 20
484.76410773681721
 30
0.0
 11
587.74882126318369
 21
484.76410773681721
 31
0.0
  0
LINE
  5
94B1
  8
WAKU
  6
CONTINUOUS
 10
579.60102926318393
 20
477.76410773681738
 30
0.0
 11
580.58094926318347
 21
480.45641573681741
 31
0.0
  0
LINE
  5
94B2
  8
WAKU
  6
CONTINUOUS
 10
577.3205872631836
 20
481.04780073681769
 30
0.0
 11
577.58247626318393
 21
481.54913773681722
 31
0.0
  0
SOLID
  5
94B3
  8
WAKU
  6
CONTINUOUS
 10
578.37657126318413
 20
481.86039673681802
 30
0.0
 11
577.98210526318394
 21
481.8339717368172
 31
0.0
 12
578.29172826318415
 22
481.43024173681761
 32
0.0
 13
578.29172826318415
 23
481.43024173681761
 33
0.0
  0
SOLID
  5
94B4
  8
WAKU
  6
CONTINUOUS
 10
577.98210526318394
 20
481.8339717368172
 30
0.0
 11
577.88645426318385
 21
481.43835573681679
 31
0.0
 12
578.29172826318415
 22
481.43024173681761
 32
0.0
 13
578.29172826318415
 23
481.43024173681761
 33
0.0
  0
LINE
  5
94B5
  8
WAKU
  6
CONTINUOUS
 10
578.2917282631837
 20
481.43024173681698
 30
0.0
 11
578.37657126318413
 21
481.86039673681688
 31
0.0
  0
LINE
  5
94B6
  8
WAKU
  6
CONTINUOUS
 10
577.88645426318385
 20
481.43835573681679
 30
0.0
 11
577.98210526318348
 21
481.8339717368163
 31
0.0
  0
SOLID
  5
94B7
  8
WAKU
  6
CONTINUOUS
 10
577.88645426318385
 20
481.43835573681679
 30
0.0
 11
577.69425126318401
 21
480.98338573681758
 31
0.0
 12
578.29172826318415
 22
481.43024173681761
 32
0.0
 13
578.29172826318415
 23
481.43024173681761
 33
0.0
  0
SOLID
  5
94B8
  8
WAKU
  6
CONTINUOUS
 10
578.29172826318415
 20
481.43024173681761
 30
0.0
 11
577.69425126318401
 21
480.98338573681758
 31
0.0
 12
578.11524726318385
 22
480.9609357368177
 32
0.0
 13
578.11524726318385
 23
480.9609357368177
 33
0.0
  0
LINE
  5
94B9
  8
WAKU
  6
CONTINUOUS
 10
577.85360926318344
 20
480.46971673681691
 30
0.0
 11
578.11524726318305
 21
480.96093573681691
 31
0.0
  0
LINE
  5
94BA
  8
WAKU
  6
CONTINUOUS
 10
578.11524726318305
 20
480.96093573681691
 30
0.0
 11
578.2917282631837
 21
481.43024173681698
 31
0.0
  0
LINE
  5
94BB
  8
WAKU
  6
CONTINUOUS
 10
577.69425126318299
 20
480.98338573681758
 30
0.0
 11
577.88645426318385
 21
481.43835573681679
 31
0.0
  0
LINE
  5
94BC
  8
WAKU
  6
CONTINUOUS
 10
577.11607926318334
 20
479.49385173681691
 30
0.0
 11
577.51642526318415
 21
479.97462773681741
 31
0.0
  0
SOLID
  5
94BD
  8
WAKU
  6
CONTINUOUS
 10
577.69425126318401
 20
480.98338573681758
 30
0.0
 11
577.41079426318413
 21
480.49782573681767
 31
0.0
 12
578.11524726318385
 22
480.9609357368177
 32
0.0
 13
578.11524726318385
 23
480.9609357368177
 33
0.0
  0
SOLID
  5
94BE
  8
WAKU
  6
CONTINUOUS
 10
578.11524726318385
 20
480.9609357368177
 30
0.0
 11
577.41079426318413
 21
480.49782573681767
 31
0.0
 12
577.85360926318413
 22
480.4697167368177
 32
0.0
 13
577.85360926318413
 23
480.4697167368177
 33
0.0
  0
LINE
  5
94BF
  8
WAKU
  6
CONTINUOUS
 10
577.51642526318415
 20
479.97462773681741
 30
0.0
 11
577.85360926318344
 21
480.46971673681691
 31
0.0
  0
LINE
  5
94C0
  8
WAKU
  6
CONTINUOUS
 10
577.41079426318413
 20
480.49782573681767
 30
0.0
 11
577.69425126318299
 21
480.98338573681758
 31
0.0
  0
SOLID
  5
94C1
  8
WAKU
  6
CONTINUOUS
 10
578.26235626318396
 20
482.5420747368176
 30
0.0
 11
577.8305542631839
 21
482.46035673681769
 31
0.0
 12
578.36665926318415
 22
482.23560073681779
 32
0.0
 13
578.36665926318415
 23
482.23560073681779
 33
0.0
  0
SOLID
  5
94C2
  8
WAKU
  6
CONTINUOUS
 10
577.8305542631839
 20
482.46035673681769
 30
0.0
 11
577.92869526318407
 21
482.34202573681767
 31
0.0
 12
578.36665926318415
 22
482.23560073681779
 32
0.0
 13
578.36665926318415
 23
482.23560073681779
 33
0.0
  0
SOLID
  5
94C3
  8
WAKU
  6
CONTINUOUS
 10
577.92869526318407
 20
482.34202573681767
 30
0.0
 11
577.98754626318396
 21
482.14136073681738
 31
0.0
 12
578.36665926318415
 22
482.23560073681779
 32
0.0
 13
578.36665926318415
 23
482.23560073681779
 33
0.0
  0
SOLID
  5
94C4
  8
WAKU
  6
CONTINUOUS
 10
578.36665926318415
 20
482.23560073681779
 30
0.0
 11
577.98754626318396
 21
482.14136073681738
 31
0.0
 12
578.37657126318413
 22
481.86039673681802
 32
0.0
 13
578.37657126318413
 23
481.86039673681802
 33
0.0
  0
SOLID
  5
94C5
  8
WAKU
  6
CONTINUOUS
 10
577.98754626318396
 20
482.14136073681738
 30
0.0
 11
577.98210526318394
 21
481.8339717368172
 31
0.0
 12
578.37657126318413
 22
481.86039673681802
 32
0.0
 13
578.37657126318413
 23
481.86039673681802
 33
0.0
  0
LINE
  5
94C6
  8
WAKU
  6
CONTINUOUS
 10
578.26235626318305
 20
482.5420747368176
 30
0.0
 11
578.06749326318413
 21
482.76855973681711
 31
0.0
  0
LINE
  5
94C7
  8
WAKU
  6
CONTINUOUS
 10
578.37657126318413
 20
481.86039673681688
 30
0.0
 11
578.36665926318358
 21
482.2356007368171
 31
0.0
  0
LINE
  5
94C8
  8
WAKU
  6
CONTINUOUS
 10
578.36665926318358
 20
482.2356007368171
 30
0.0
 11
578.26235626318305
 21
482.5420747368176
 31
0.0
  0
LINE
  5
94C9
  8
WAKU
  6
CONTINUOUS
 10
577.98210526318348
 20
481.8339717368163
 30
0.0
 11
577.98754626318294
 21
482.14136073681738
 31
0.0
  0
LINE
  5
94CA
  8
WAKU
  6
CONTINUOUS
 10
577.98754626318294
 20
482.14136073681738
 30
0.0
 11
577.92869526318293
 21
482.34202573681722
 31
0.0
  0
LINE
  5
94CB
  8
WAKU
  6
CONTINUOUS
 10
577.92869526318293
 20
482.34202573681722
 30
0.0
 11
577.83055426318265
 21
482.46035673681769
 31
0.0
  0
LINE
  5
94CC
  8
WAKU
  6
CONTINUOUS
 10
577.7546692631837
 20
482.02609473681702
 30
0.0
 11
577.83055426318265
 21
482.46035673681769
 31
0.0
  0
LINE
  5
94CD
  8
WAKU
  6
CONTINUOUS
 10
578.06749326318413
 20
482.76855973681711
 30
0.0
 11
577.78922826318285
 21
482.90673773681681
 31
0.0
  0
LINE
  5
94CE
  8
WAKU
  6
CONTINUOUS
 10
577.78922826318285
 20
482.90673773681681
 30
0.0
 11
577.65105026318395
 21
483.18500273681741
 31
0.0
  0
LINE
  5
94CF
  8
WAKU
  6
CONTINUOUS
 10
577.35781526318362
 20
482.05450973681678
 30
0.0
 11
577.44497326318276
 21
482.5626767368172
 31
0.0
  0
LINE
  5
94D0
  8
WAKU
  6
CONTINUOUS
 10
577.34268526318385
 20
482.94805173681698
 30
0.0
 11
577.22489226318362
 21
483.0460367368172
 31
0.0
  0
LINE
  5
94D1
  8
WAKU
  6
CONTINUOUS
 10
577.42456526318415
 20
483.37986473681741
 30
0.0
 11
577.1180922631836
 21
483.48416773681743
 31
0.0
  0
SOLID
  5
94D2
  8
WAKU
  6
CONTINUOUS
 10
577.22489226318385
 20
483.0460367368172
 30
0.0
 11
577.34268526318385
 21
482.9480517368176
 31
0.0
 12
577.7892282631841
 22
482.90673773681681
 32
0.0
 13
577.7892282631841
 23
482.90673773681681
 33
0.0
  0
SOLID
  5
94D3
  8
WAKU
  6
CONTINUOUS
 10
578.06749326318413
 20
482.76855973681768
 30
0.0
 11
577.4449732631839
 21
482.5626767368172
 31
0.0
 12
578.26235626318396
 22
482.5420747368176
 32
0.0
 13
578.26235626318396
 23
482.5420747368176
 33
0.0
  0
SOLID
  5
94D4
  8
WAKU
  6
CONTINUOUS
 10
577.4449732631839
 20
482.5626767368172
 30
0.0
 11
577.35781526318408
 21
482.05450973681758
 31
0.0
 12
577.8305542631839
 22
482.46035673681769
 32
0.0
 13
577.8305542631839
 23
482.46035673681769
 33
0.0
  0
SOLID
  5
94D5
  8
WAKU
  6
CONTINUOUS
 10
577.4449732631839
 20
482.5626767368172
 30
0.0
 11
577.8305542631839
 21
482.46035673681769
 31
0.0
 12
578.26235626318396
 22
482.5420747368176
 32
0.0
 13
578.26235626318396
 23
482.5420747368176
 33
0.0
  0
SOLID
  5
94D6
  8
WAKU
  6
CONTINUOUS
 10
577.8305542631839
 20
482.46035673681769
 30
0.0
 11
577.35781526318408
 21
482.05450973681758
 31
0.0
 12
577.75466926318416
 22
482.0260947368177
 32
0.0
 13
577.75466926318416
 23
482.0260947368177
 33
0.0
  0
LINE
  5
94D7
  8
WAKU
  6
CONTINUOUS
 10
577.65105026318395
 20
483.18500273681741
 30
0.0
 11
577.42456526318415
 21
483.37986473681741
 31
0.0
  0
LINE
  5
94D8
  8
WAKU
  6
CONTINUOUS
 10
577.58247626318393
 20
481.54913773681722
 30
0.0
 11
577.7546692631837
 21
482.02609473681702
 31
0.0
  0
LINE
  5
94D9
  8
WAKU
  6
CONTINUOUS
 10
576.90838026318363
 20
482.87212173681718
 30
0.0
 11
576.43138326318365
 21
482.69987573681669
 31
0.0
  0
LINE
  5
94DA
  8
WAKU
  6
CONTINUOUS
 10
576.57101026318276
 20
480.04919673681678
 30
0.0
 11
576.97906026318412
 21
480.54133673681719
 31
0.0
  0
LINE
  5
94DB
  8
WAKU
  6
CONTINUOUS
 10
576.64598226318276
 20
480.74602773681721
 30
0.0
 11
577.08709726318352
 21
481.42364173681761
 31
0.0
  0
LINE
  5
94DC
  8
WAKU
  6
CONTINUOUS
 10
577.02374026318375
 20
483.10500973681678
 30
0.0
 11
576.71660126318318
 21
483.0996887368172
 31
0.0
  0
SOLID
  5
94DD
  8
WAKU
  6
CONTINUOUS
 10
576.9083802631842
 20
482.87212173681758
 30
0.0
 11
576.43138326318399
 21
482.69987573681738
 31
0.0
 12
578.06749326318413
 22
482.76855973681768
 32
0.0
 13
578.06749326318413
 23
482.76855973681768
 33
0.0
  0
SOLID
  5
94DE
  8
WAKU
  6
CONTINUOUS
 10
578.06749326318413
 20
482.76855973681768
 30
0.0
 11
576.43138326318399
 21
482.69987573681738
 31
0.0
 12
577.4449732631839
 22
482.5626767368172
 32
0.0
 13
577.4449732631839
 23
482.5626767368172
 33
0.0
  0
SOLID
  5
94DF
  8
WAKU
  6
CONTINUOUS
 10
577.58247626318393
 20
481.54913773681722
 30
0.0
 11
577.08709726318432
 21
481.42364173681761
 31
0.0
 12
577.3205872631836
 22
481.04780073681769
 32
0.0
 13
577.3205872631836
 23
481.04780073681769
 33
0.0
  0
SOLID
  5
94E0
  8
WAKU
  6
CONTINUOUS
 10
577.35781526318408
 20
482.05450973681758
 30
0.0
 11
577.08709726318432
 21
481.42364173681761
 31
0.0
 12
577.75466926318416
 22
482.0260947368177
 32
0.0
 13
577.75466926318416
 23
482.0260947368177
 33
0.0
  0
SOLID
  5
94E1
  8
WAKU
  6
CONTINUOUS
 10
577.75466926318416
 20
482.0260947368177
 30
0.0
 11
577.08709726318432
 21
481.42364173681761
 31
0.0
 12
577.58247626318393
 22
481.54913773681722
 32
0.0
 13
577.58247626318393
 23
481.54913773681722
 33
0.0
  0
LINE
  5
94E2
  8
WAKU
  6
CONTINUOUS
 10
577.08709726318352
 20
481.42364173681761
 30
0.0
 11
577.35781526318362
 21
482.05450973681678
 31
0.0
  0
SOLID
  5
94E3
  8
WAKU
  6
CONTINUOUS
 10
577.08709726318432
 20
481.42364173681761
 30
0.0
 11
576.6459822631839
 21
480.74602773681721
 31
0.0
 12
577.3205872631836
 22
481.04780073681769
 32
0.0
 13
577.3205872631836
 23
481.04780073681769
 33
0.0
  0
SOLID
  5
94E4
  8
WAKU
  6
CONTINUOUS
 10
577.3205872631836
 20
481.04780073681769
 30
0.0
 11
576.6459822631839
 21
480.74602773681721
 31
0.0
 12
576.97906026318412
 22
480.54133673681719
 32
0.0
 13
576.97906026318412
 23
480.54133673681719
 33
0.0
  0
SOLID
  5
94E5
  8
WAKU
  6
CONTINUOUS
 10
577.51642526318415
 20
479.97462773681769
 30
0.0
 11
576.62170926318413
 21
479.53933973681711
 31
0.0
 12
577.11607926318413
 22
479.4938517368177
 32
0.0
 13
577.11607926318413
 23
479.4938517368177
 33
0.0
  0
LINE
  5
94E6
  8
WAKU
  6
CONTINUOUS
 10
576.62170926318299
 20
479.53933973681711
 30
0.0
 11
577.41079426318413
 21
480.49782573681767
 31
0.0
  0
LINE
  5
94E7
  8
WAKU
  6
CONTINUOUS
 10
576.66727626318345
 20
479.04504873681691
 30
0.0
 11
577.11607926318334
 21
479.49385173681691
 31
0.0
  0
LINE
  5
94E8
  8
WAKU
  6
CONTINUOUS
 10
576.97906026318412
 20
480.54133673681719
 30
0.0
 11
577.3205872631836
 21
481.04780073681769
 31
0.0
  0
SOLID
  5
94E9
  8
WAKU
  6
CONTINUOUS
 10
577.41079426318413
 20
480.49782573681767
 30
0.0
 11
576.62170926318413
 21
479.53933973681711
 31
0.0
 12
577.85360926318413
 22
480.4697167368177
 32
0.0
 13
577.85360926318413
 23
480.4697167368177
 33
0.0
  0
SOLID
  5
94EA
  8
WAKU
  6
CONTINUOUS
 10
577.85360926318413
 20
480.4697167368177
 30
0.0
 11
576.62170926318413
 21
479.53933973681711
 31
0.0
 12
577.51642526318415
 22
479.97462773681769
 32
0.0
 13
577.51642526318415
 23
479.97462773681769
 33
0.0
  0
LINE
  5
94EB
  8
WAKU
  6
CONTINUOUS
 10
577.44497326318276
 20
482.5626767368172
 30
0.0
 11
576.93648226318385
 21
482.47534773681741
 31
0.0
  0
LINE
  5
94EC
  8
WAKU
  6
CONTINUOUS
 10
577.34268526318385
 20
482.94805173681698
 30
0.0
 11
576.90838026318363
 21
482.87212173681718
 31
0.0
  0
LINE
  5
94ED
  8
WAKU
  6
CONTINUOUS
 10
577.22489226318362
 20
483.0460367368172
 30
0.0
 11
577.02374026318375
 21
483.10500973681678
 31
0.0
  0
LINE
  5
94EE
  8
WAKU
  6
CONTINUOUS
 10
577.1180922631836
 20
483.48416773681743
 30
0.0
 11
576.74288726318355
 21
483.49407973681741
 31
0.0
  0
SOLID
  5
94EF
  8
WAKU
  6
CONTINUOUS
 10
577.65105026318406
 20
483.18500273681792
 30
0.0
 11
577.02374026318455
 21
483.10500973681769
 31
0.0
 12
577.7892282631841
 22
482.90673773681681
 32
0.0
 13
577.7892282631841
 23
482.90673773681681
 33
0.0
  0
SOLID
  5
94F0
  8
WAKU
  6
CONTINUOUS
 10
577.02374026318455
 20
483.10500973681769
 30
0.0
 11
577.22489226318385
 21
483.0460367368172
 31
0.0
 12
577.7892282631841
 22
482.90673773681681
 32
0.0
 13
577.7892282631841
 23
482.90673773681681
 33
0.0
  0
SOLID
  5
94F1
  8
WAKU
  6
CONTINUOUS
 10
577.34268526318385
 20
482.9480517368176
 30
0.0
 11
576.9083802631842
 21
482.87212173681758
 31
0.0
 12
577.7892282631841
 22
482.90673773681681
 32
0.0
 13
577.7892282631841
 23
482.90673773681681
 33
0.0
  0
SOLID
  5
94F2
  8
WAKU
  6
CONTINUOUS
 10
577.7892282631841
 20
482.90673773681681
 30
0.0
 11
576.9083802631842
 21
482.87212173681758
 31
0.0
 12
578.06749326318413
 22
482.76855973681768
 32
0.0
 13
578.06749326318413
 23
482.76855973681768
 33
0.0
  0
SOLID
  5
94F3
  8
WAKU
  6
CONTINUOUS
 10
573.92753926318414
 20
481.78478473681702
 30
0.0
 11
573.5271932631839
 21
481.30400873681771
 31
0.0
 12
574.42184226318432
 22
481.7392157368177
 32
0.0
 13
574.42184226318432
 23
481.7392157368177
 33
0.0
  0
SOLID
  5
94F4
  8
WAKU
  6
CONTINUOUS
 10
574.42184226318432
 20
481.7392157368177
 30
0.0
 11
573.5271932631839
 21
481.30400873681771
 31
0.0
 12
573.63277926318415
 22
480.78067773681721
 32
0.0
 13
573.63277926318415
 23
480.78067773681721
 33
0.0
  0
LINE
  5
94F5
  8
WAKU
  6
CONTINUOUS
 10
574.42184226318363
 20
481.73921573681679
 30
0.0
 11
573.63277926318324
 21
480.78067773681721
 31
0.0
  0
SOLID
  5
94F6
  8
WAKU
  6
CONTINUOUS
 10
574.47246426318429
 20
481.2292817368176
 30
0.0
 11
574.06441526318417
 21
480.73710773681722
 31
0.0
 12
574.97157126318405
 22
481.18900073681721
 32
0.0
 13
574.97157126318405
 23
481.18900073681721
 33
0.0
  0
SOLID
  5
94F7
  8
WAKU
  6
CONTINUOUS
 10
574.97157126318405
 20
481.18900073681721
 30
0.0
 11
574.06441526318417
 21
480.73710773681722
 31
0.0
 12
574.39764026318414
 22
480.53257873681758
 32
0.0
 13
574.39764026318414
 23
480.53257873681758
 33
0.0
  0
SOLID
  5
94F8
  8
WAKU
  6
CONTINUOUS
 10
574.06441526318417
 20
480.73710773681722
 30
0.0
 11
573.7229002631841
 21
480.23061673681752
 31
0.0
 12
574.39764026318414
 22
480.53257873681758
 32
0.0
 13
574.39764026318414
 23
480.53257873681758
 33
0.0
  0
SOLID
  5
94F9
  8
WAKU
  6
CONTINUOUS
 10
574.39764026318414
 20
480.53257873681758
 30
0.0
 11
573.7229002631841
 21
480.23061673681752
 31
0.0
 12
573.9564562631839
 22
479.8549827368177
 32
0.0
 13
573.9564562631839
 23
479.8549827368177
 33
0.0
  0
SOLID
  5
94FA
  8
WAKU
  6
CONTINUOUS
 10
574.73800726318439
 20
479.07443973681671
 30
0.0
 11
574.10713926318397
 21
478.80330273681727
 31
0.0
 12
575.1135142631839
 22
478.84065273681767
 32
0.0
 13
575.1135142631839
 23
478.84065273681767
 33
0.0
  0
SOLID
  5
94FB
  8
WAKU
  6
CONTINUOUS
 10
575.1135142631839
 20
478.84065273681767
 30
0.0
 11
574.10713926318397
 21
478.80330273681727
 31
0.0
 12
574.61217226318411
 22
478.5787327368177
 32
0.0
 13
574.61217226318411
 23
478.5787327368177
 33
0.0
  0
SOLID
  5
94FC
  8
WAKU
  6
CONTINUOUS
 10
574.10713926318397
 20
478.80330273681727
 30
0.0
 11
573.5986552631839
 21
478.71596373681763
 31
0.0
 12
574.61217226318411
 22
478.5787327368177
 32
0.0
 13
574.61217226318411
 23
478.5787327368177
 33
0.0
  0
SOLID
  5
94FD
  8
WAKU
  6
CONTINUOUS
 10
573.5986552631839
 20
478.71596373681763
 30
0.0
 11
572.97612526318414
 21
478.51007673681772
 31
0.0
 12
574.61217226318411
 22
478.5787327368177
 32
0.0
 13
574.61217226318411
 23
478.5787327368177
 33
0.0
  0
SOLID
  5
94FE
  8
WAKU
  6
CONTINUOUS
 10
574.61217226318411
 20
478.5787327368177
 30
0.0
 11
572.97612526318414
 21
478.51007673681772
 31
0.0
 12
574.13520226318349
 22
478.40650473681762
 32
0.0
 13
574.13520226318349
 23
478.40650473681762
 33
0.0
  0
SOLID
  5
94FF
  8
WAKU
  6
CONTINUOUS
 10
572.97612526318414
 20
478.51007673681772
 30
0.0
 11
573.2543902631844
 21
478.37189873681763
 31
0.0
 12
574.13520226318349
 22
478.40650473681762
 32
0.0
 13
574.13520226318349
 23
478.40650473681762
 33
0.0
  0
SOLID
  5
9500
  8
WAKU
  6
CONTINUOUS
 10
574.13520226318349
 20
478.40650473681762
 30
0.0
 11
573.2543902631844
 21
478.37189873681763
 31
0.0
 12
573.70092126318411
 22
478.33058373681757
 32
0.0
 13
573.70092126318411
 23
478.33058373681757
 33
0.0
  0
SOLID
  5
9501
  8
WAKU
  6
CONTINUOUS
 10
574.32703826318414
 20
478.17897073681769
 30
0.0
 11
574.01992126318396
 21
478.17360573681771
 31
0.0
 12
575.20019226318414
 22
478.04588073681771
 32
0.0
 13
575.20019226318414
 23
478.04588073681771
 33
0.0
  0
SOLID
  5
9502
  8
WAKU
  6
CONTINUOUS
 10
574.01992126318396
 20
478.17360573681771
 30
0.0
 11
573.39256826318399
 21
478.09363373681742
 31
0.0
 12
575.20019226318414
 22
478.04588073681771
 32
0.0
 13
575.20019226318414
 23
478.04588073681771
 33
0.0
  0
SOLID
  5
9503
  8
WAKU
  6
CONTINUOUS
 10
573.39256826318399
 20
478.09363373681742
 30
0.0
 11
573.61905326318413
 21
477.8987717368172
 31
0.0
 12
575.20019226318414
 22
478.04588073681771
 32
0.0
 13
575.20019226318414
 23
478.04588073681771
 33
0.0
  0
SOLID
  5
9504
  8
WAKU
  6
CONTINUOUS
 10
575.20019226318414
 20
478.04588073681771
 30
0.0
 11
573.61905326318413
 21
477.8987717368172
 31
0.0
 12
574.73088626318406
 22
477.86939873681769
 32
0.0
 13
574.73088626318406
 23
477.86939873681769
 33
0.0
  0
SOLID
  5
9505
  8
WAKU
  6
CONTINUOUS
 10
573.61905326318413
 20
477.8987717368172
 30
0.0
 11
573.92552626318411
 21
477.79446873681792
 31
0.0
 12
574.73088626318406
 22
477.86939873681769
 32
0.0
 13
574.73088626318406
 23
477.86939873681769
 33
0.0
  0
SOLID
  5
9506
  8
WAKU
  6
CONTINUOUS
 10
574.73088626318406
 20
477.86939873681769
 30
0.0
 11
573.92552626318411
 21
477.79446873681792
 31
0.0
 12
574.30073126318359
 22
477.78455673681742
 32
0.0
 13
574.30073126318359
 23
477.78455673681742
 33
0.0
  0
LINE
  5
9507
  8
WAKU
  6
CONTINUOUS
 10
573.70092126318411
 20
478.33058373681712
 30
0.0
 11
574.13520226318349
 21
478.40650473681762
 31
0.0
  0
LINE
  5
9508
  8
WAKU
  6
CONTINUOUS
 10
573.92552626318354
 20
477.79446873681792
 30
0.0
 11
574.30073126318359
 21
477.78455673681742
 31
0.0
  0
LINE
  5
9509
  8
WAKU
  6
CONTINUOUS
 10
574.10713926318306
 20
478.80330273681727
 30
0.0
 11
574.73800726318359
 21
479.07443973681671
 31
0.0
  0
LINE
  5
950A
  8
WAKU
  6
CONTINUOUS
 10
574.01992126318362
 20
478.17360573681708
 30
0.0
 11
574.32703826318414
 21
478.1789707368174
 31
0.0
  0
LINE
  5
950B
  8
WAKU
  6
CONTINUOUS
 10
574.39764026318358
 20
480.53257873681758
 30
0.0
 11
573.95645626318321
 21
479.85498273681702
 31
0.0
  0
LINE
  5
950C
  8
WAKU
  6
CONTINUOUS
 10
574.47246426318395
 20
481.2292817368172
 30
0.0
 11
574.06441526318361
 21
480.73710773681722
 31
0.0
  0
SOLID
  5
950D
  8
WAKU
  6
CONTINUOUS
 10
574.37634326318414
 20
482.23358773681701
 30
0.0
 11
573.92753926318414
 21
481.78478473681702
 31
0.0
 12
574.42184226318432
 22
481.7392157368177
 32
0.0
 13
574.42184226318432
 23
481.7392157368177
 33
0.0
  0
LINE
  5
950E
  8
WAKU
  6
CONTINUOUS
 10
574.37634326318346
 20
482.23358773681679
 30
0.0
 11
573.92753926318414
 21
481.78478473681702
 31
0.0
  0
LINE
  5
950F
  8
WAKU
  6
CONTINUOUS
 10
573.92753926318414
 20
481.78478473681702
 30
0.0
 11
573.5271932631839
 21
481.30400873681742
 31
0.0
  0
SOLID
  5
9510
  8
WAKU
  6
CONTINUOUS
 10
573.5271932631839
 20
481.30400873681771
 30
0.0
 11
573.19000926318347
 21
480.80891973681759
 31
0.0
 12
573.63277926318415
 22
480.78067773681721
 32
0.0
 13
573.63277926318415
 23
480.78067773681721
 33
0.0
  0
SOLID
  5
9511
  8
WAKU
  6
CONTINUOUS
 10
573.19000926318347
 20
480.80891973681759
 30
0.0
 11
572.92837126318409
 21
480.31770073681702
 31
0.0
 12
573.63277926318415
 22
480.78067773681721
 32
0.0
 13
573.63277926318415
 23
480.78067773681721
 33
0.0
  0
SOLID
  5
9512
  8
WAKU
  6
CONTINUOUS
 10
573.63277926318415
 20
480.78067773681721
 30
0.0
 11
572.92837126318409
 21
480.31770073681702
 31
0.0
 12
573.34926326318384
 22
480.29513573681771
 32
0.0
 13
573.34926326318384
 23
480.29513573681771
 33
0.0
  0
SOLID
  5
9513
  8
WAKU
  6
CONTINUOUS
 10
573.7229002631841
 20
480.23061673681752
 30
0.0
 11
573.46103726318415
 21
479.7292617368177
 31
0.0
 12
573.9564562631839
 22
479.8549827368177
 32
0.0
 13
573.9564562631839
 23
479.8549827368177
 33
0.0
  0
SOLID
  5
9514
  8
WAKU
  6
CONTINUOUS
 10
573.9564562631839
 20
479.8549827368177
 30
0.0
 11
573.46103726318415
 21
479.7292617368177
 31
0.0
 12
573.68591226318415
 22
479.22407673681772
 32
0.0
 13
573.68591226318415
 23
479.22407673681772
 33
0.0
  0
SOLID
  5
9515
  8
WAKU
  6
CONTINUOUS
 10
573.46103726318415
 20
479.7292617368177
 30
0.0
 11
573.28888326318395
 21
479.2522967368173
 31
0.0
 12
573.68591226318415
 22
479.22407673681772
 32
0.0
 13
573.68591226318415
 23
479.22407673681772
 33
0.0
  0
SOLID
  5
9516
  8
WAKU
  6
CONTINUOUS
 10
573.28888326318395
 20
479.2522967368173
 30
0.0
 11
573.21304926318385
 21
478.81804273681757
 31
0.0
 12
573.68591226318415
 22
479.22407673681772
 32
0.0
 13
573.68591226318415
 23
479.22407673681772
 33
0.0
  0
SOLID
  5
9517
  8
WAKU
  6
CONTINUOUS
 10
573.68591226318415
 20
479.22407673681772
 30
0.0
 11
573.21304926318385
 21
478.81804273681757
 31
0.0
 12
573.5986552631839
 22
478.71596373681763
 32
0.0
 13
573.5986552631839
 23
478.71596373681763
 33
0.0
  0
SOLID
  5
9518
  8
WAKU
  6
CONTINUOUS
 10
573.2543902631844
 20
478.37189873681763
 30
0.0
 11
573.39256826318399
 21
478.09363373681742
 31
0.0
 12
573.70092126318411
 22
478.33058373681757
 32
0.0
 13
573.70092126318411
 23
478.33058373681757
 33
0.0
  0
SOLID
  5
9519
  8
WAKU
  6
CONTINUOUS
 10
573.70092126318411
 20
478.33058373681757
 30
0.0
 11
573.39256826318399
 21
478.09363373681742
 31
0.0
 12
573.81867126318411
 22
478.23267573681778
 32
0.0
 13
573.81867126318411
 23
478.23267573681778
 33
0.0
  0
SOLID
  5
951A
  8
WAKU
  6
CONTINUOUS
 10
573.81867126318411
 20
478.23267573681778
 30
0.0
 11
573.39256826318399
 21
478.09363373681742
 31
0.0
 12
574.01992126318396
 22
478.17360573681771
 32
0.0
 13
574.01992126318396
 23
478.17360573681771
 33
0.0
  0
LINE
  5
951B
  8
WAKU
  6
CONTINUOUS
 10
573.72290026318308
 20
480.23061673681752
 30
0.0
 11
573.4610372631837
 21
479.72926173681742
 31
0.0
  0
LINE
  5
951C
  8
WAKU
  6
CONTINUOUS
 10
573.15723426318414
 20
479.84012873681718
 30
0.0
 11
573.06144026318395
 21
479.44451173681722
 31
0.0
  0
LINE
  5
951D
  8
WAKU
  6
CONTINUOUS
 10
573.95645626318321
 20
479.85498273681702
 30
0.0
 11
573.68591226318415
 21
479.22407673681681
 31
0.0
  0
LINE
  5
951E
  8
WAKU
  6
CONTINUOUS
 10
573.68591226318415
 20
479.22407673681681
 30
0.0
 11
573.59865526318345
 21
478.71596373681751
 31
0.0
  0
LINE
  5
951F
  8
WAKU
  6
CONTINUOUS
 10
572.97612526318414
 20
478.51007673681772
 30
0.0
 11
573.25439026318361
 21
478.37189873681677
 31
0.0
  0
LINE
  5
9520
  8
WAKU
  6
CONTINUOUS
 10
573.25439026318361
 20
478.37189873681677
 30
0.0
 11
573.39256826318388
 21
478.09363373681742
 31
0.0
  0
LINE
  5
9521
  8
WAKU
  6
CONTINUOUS
 10
573.39256826318388
 20
478.09363373681742
 30
0.0
 11
573.61905326318367
 21
477.8987717368172
 31
0.0
  0
LINE
  5
9522
  8
WAKU
  6
CONTINUOUS
 10
573.61905326318367
 20
477.8987717368172
 30
0.0
 11
573.92552626318354
 21
477.79446873681792
 31
0.0
  0
LINE
  5
9523
  8
WAKU
  6
CONTINUOUS
 10
573.4610372631837
 20
479.72926173681742
 30
0.0
 11
573.28888326318395
 21
479.2522967368173
 31
0.0
  0
LINE
  5
9524
  8
WAKU
  6
CONTINUOUS
 10
573.28888326318395
 20
479.2522967368173
 30
0.0
 11
573.21304926318385
 21
478.81804273681712
 31
0.0
  0
LINE
  5
9525
  8
WAKU
  6
CONTINUOUS
 10
573.59865526318345
 20
478.71596373681751
 30
0.0
 11
574.10713926318306
 21
478.80330273681727
 31
0.0
  0
LINE
  5
9526
  8
WAKU
  6
CONTINUOUS
 10
573.06144026318395
 20
479.44451173681722
 30
0.0
 11
573.05610226318299
 21
479.13719473681681
 31
0.0
  0
LINE
  5
9527
  8
WAKU
  6
CONTINUOUS
 10
573.05610226318299
 20
479.13719473681681
 30
0.0
 11
573.11489926318416
 21
478.93654273681722
 31
0.0
  0
LINE
  5
9528
  8
WAKU
  6
CONTINUOUS
 10
573.11489926318416
 20
478.93654273681722
 30
0.0
 11
573.21304926318385
 21
478.81804273681712
 31
0.0
  0
LINE
  5
9529
  8
WAKU
  6
CONTINUOUS
 10
573.70092126318411
 20
478.33058373681712
 30
0.0
 11
573.81867126318411
 21
478.23267573681778
 31
0.0
  0
LINE
  5
952A
  8
WAKU
  6
CONTINUOUS
 10
573.81867126318411
 20
478.23267573681778
 30
0.0
 11
574.01992126318362
 21
478.17360573681708
 31
0.0
  0
LINE
  5
952B
  8
WAKU
  6
CONTINUOUS
 10
574.06441526318361
 20
480.73710773681722
 30
0.0
 11
573.72290026318308
 21
480.23061673681752
 31
0.0
  0
LINE
  5
952C
  8
WAKU
  6
CONTINUOUS
 10
573.63277926318324
 20
480.78067773681721
 30
0.0
 11
573.34926326318305
 21
480.29513573681771
 31
0.0
  0
LINE
  5
952D
  8
WAKU
  6
CONTINUOUS
 10
573.34926326318305
 20
480.29513573681771
 30
0.0
 11
573.15723426318414
 21
479.84012873681718
 31
0.0
  0
LINE
  5
952E
  8
WAKU
  6
CONTINUOUS
 10
573.19000926318336
 20
480.80891973681759
 30
0.0
 11
572.92837126318409
 21
480.31770073681702
 31
0.0
  0
LINE
  5
952F
  8
WAKU
  6
CONTINUOUS
 10
573.5271932631839
 20
481.30400873681742
 30
0.0
 11
573.19000926318336
 21
480.80891973681759
 31
0.0
  0
LINE
  5
9530
  8
WAKU
  6
CONTINUOUS
 10
572.75189026318276
 20
479.84839473681677
 30
0.0
 11
572.66704726318414
 21
479.4182397368175
 31
0.0
  0
LINE
  5
9531
  8
WAKU
  6
CONTINUOUS
 10
572.66704726318414
 20
479.4182397368175
 30
0.0
 11
572.67695926318368
 21
479.04303573681727
 31
0.0
  0
LINE
  5
9532
  8
WAKU
  6
CONTINUOUS
 10
572.67695926318368
 20
479.04303573681727
 30
0.0
 11
572.78126226318409
 21
478.73656173681718
 31
0.0
  0
SOLID
  5
9533
  8
WAKU
  6
CONTINUOUS
 10
572.92837126318409
 20
480.31770073681702
 30
0.0
 11
572.7518902631839
 21
479.84839473681762
 31
0.0
 12
573.34926326318384
 22
480.29513573681771
 32
0.0
 13
573.34926326318384
 23
480.29513573681771
 33
0.0
  0
SOLID
  5
9534
  8
WAKU
  6
CONTINUOUS
 10
573.34926326318384
 20
480.29513573681771
 30
0.0
 11
572.7518902631839
 21
479.84839473681762
 31
0.0
 12
573.15723426318414
 22
479.84012873681718
 32
0.0
 13
573.15723426318414
 23
479.84012873681718
 33
0.0
  0
SOLID
  5
9535
  8
WAKU
  6
CONTINUOUS
 10
572.7518902631839
 20
479.84839473681762
 30
0.0
 11
572.66704726318358
 21
479.4182397368175
 31
0.0
 12
573.15723426318414
 22
479.84012873681718
 32
0.0
 13
573.15723426318414
 23
479.84012873681718
 33
0.0
  0
SOLID
  5
9536
  8
WAKU
  6
CONTINUOUS
 10
573.15723426318414
 20
479.84012873681718
 30
0.0
 11
572.66704726318358
 21
479.4182397368175
 31
0.0
 12
573.06144026318395
 22
479.44451173681801
 32
0.0
 13
573.06144026318395
 23
479.44451173681801
 33
0.0
  0
SOLID
  5
9537
  8
WAKU
  6
CONTINUOUS
 10
573.06144026318395
 20
479.44451173681801
 30
0.0
 11
572.66704726318358
 21
479.4182397368175
 31
0.0
 12
573.05610226318413
 22
479.13719473681772
 32
0.0
 13
573.05610226318413
 23
479.13719473681772
 33
0.0
  0
SOLID
  5
9538
  8
WAKU
  6
CONTINUOUS
 10
572.66704726318358
 20
479.4182397368175
 30
0.0
 11
572.67695926318413
 21
479.04303573681727
 31
0.0
 12
573.05610226318413
 22
479.13719473681772
 32
0.0
 13
573.05610226318413
 23
479.13719473681772
 33
0.0
  0
SOLID
  5
9539
  8
WAKU
  6
CONTINUOUS
 10
573.05610226318413
 20
479.13719473681772
 30
0.0
 11
572.67695926318413
 21
479.04303573681727
 31
0.0
 12
573.11489926318416
 22
478.93654273681722
 32
0.0
 13
573.11489926318416
 23
478.93654273681722
 33
0.0
  0
SOLID
  5
953A
  8
WAKU
  6
CONTINUOUS
 10
572.67695926318413
 20
479.04303573681727
 30
0.0
 11
572.78126226318409
 21
478.73656173681718
 31
0.0
 12
573.11489926318416
 22
478.93654273681722
 32
0.0
 13
573.11489926318416
 23
478.93654273681722
 33
0.0
  0
SOLID
  5
953B
  8
WAKU
  6
CONTINUOUS
 10
573.11489926318416
 20
478.93654273681722
 30
0.0
 11
572.78126226318409
 21
478.73656173681718
 31
0.0
 12
573.21304926318385
 22
478.81804273681757
 32
0.0
 13
573.21304926318385
 23
478.81804273681757
 33
0.0
  0
SOLID
  5
953C
  8
WAKU
  6
CONTINUOUS
 10
573.21304926318385
 20
478.81804273681757
 30
0.0
 11
572.78126226318409
 21
478.73656173681718
 31
0.0
 12
573.5986552631839
 22
478.71596373681763
 32
0.0
 13
573.5986552631839
 23
478.71596373681763
 33
0.0
  0
SOLID
  5
953D
  8
WAKU
  6
CONTINUOUS
 10
572.78126226318409
 20
478.73656173681718
 30
0.0
 11
572.97612526318414
 21
478.51007673681772
 31
0.0
 12
573.5986552631839
 22
478.71596373681763
 32
0.0
 13
573.5986552631839
 23
478.71596373681763
 33
0.0
  0
LINE
  5
953E
  8
WAKU
  6
CONTINUOUS
 10
572.78126226318409
 20
478.73656173681718
 30
0.0
 11
572.97612526318414
 21
478.51007673681772
 31
0.0
  0
LINE
  5
953F
  8
WAKU
  6
CONTINUOUS
 10
572.92837126318409
 20
480.31770073681702
 30
0.0
 11
572.75189026318276
 21
479.84839473681677
 31
0.0
  0
SOLID
  5
9540
  8
WAKU
  6
CONTINUOUS
 10
575.62792526318401
 20
481.76309873681771
 30
0.0
 11
574.93137626318389
 21
481.68823573681721
 31
0.0
 12
574.97157126318405
 22
481.18900073681721
 32
0.0
 13
574.97157126318405
 23
481.18900073681721
 33
0.0
  0
SOLID
  5
9541
  8
WAKU
  6
CONTINUOUS
 10
574.93137626318389
 20
481.68823573681721
 30
0.0
 11
574.47246426318429
 21
481.2292817368176
 31
0.0
 12
574.97157126318405
 22
481.18900073681721
 32
0.0
 13
574.97157126318405
 23
481.18900073681721
 33
0.0
  0
LINE
  5
9542
  8
WAKU
  6
CONTINUOUS
 10
574.93137626318276
 20
481.68823573681721
 30
0.0
 11
574.47246426318395
 21
481.2292817368172
 31
0.0
  0
LINE
  5
9543
  8
WAKU
  6
CONTINUOUS
 10
575.62792526318401
 20
481.7630987368172
 30
0.0
 11
574.97157126318405
 21
481.18900073681721
 31
0.0
  0
SOLID
  5
9544
  8
WAKU
  6
CONTINUOUS
 10
576.11210726318416
 20
479.5902787368172
 30
0.0
 11
575.4156842631844
 21
479.51553873681769
 31
0.0
 12
575.61997626318384
 22
479.1822067368177
 32
0.0
 13
575.61997626318384
 23
479.1822067368177
 33
0.0
  0
SOLID
  5
9545
  8
WAKU
  6
CONTINUOUS
 10
575.4156842631844
 20
479.51553873681769
 30
0.0
 11
574.73800726318439
 21
479.07443973681671
 31
0.0
 12
575.61997626318384
 22
479.1822067368177
 32
0.0
 13
575.61997626318384
 23
479.1822067368177
 33
0.0
  0
SOLID
  5
9546
  8
WAKU
  6
CONTINUOUS
 10
575.61997626318384
 20
479.1822067368177
 30
0.0
 11
574.73800726318439
 21
479.07443973681671
 31
0.0
 12
575.1135142631839
 22
478.84065273681767
 32
0.0
 13
575.1135142631839
 23
478.84065273681767
 33
0.0
  0
SOLID
  5
9547
  8
WAKU
  6
CONTINUOUS
 10
575.66324126318409
 20
478.75022473681719
 30
0.0
 11
575.17762626318347
 21
478.46690573681701
 31
0.0
 12
576.18650026318414
 22
478.64470273681769
 32
0.0
 13
576.18650026318414
 23
478.64470273681769
 33
0.0
  0
SOLID
  5
9548
  8
WAKU
  6
CONTINUOUS
 10
576.18650026318414
 20
478.64470273681769
 30
0.0
 11
575.17762626318347
 21
478.46690573681701
 31
0.0
 12
575.69141026318414
 22
478.30751873681783
 32
0.0
 13
575.69141026318414
 23
478.30751873681783
 33
0.0
  0
SOLID
  5
9549
  8
WAKU
  6
CONTINUOUS
 10
575.17762626318347
 20
478.46690573681701
 30
0.0
 11
574.72272826318317
 21
478.27447573681781
 31
0.0
 12
575.69141026318414
 22
478.30751873681783
 32
0.0
 13
575.69141026318414
 23
478.30751873681783
 33
0.0
  0
SOLID
  5
954A
  8
WAKU
  6
CONTINUOUS
 10
575.69141026318414
 20
478.30751873681783
 30
0.0
 11
574.72272826318317
 21
478.27447573681781
 31
0.0
 12
575.20019226318414
 22
478.04588073681771
 32
0.0
 13
575.20019226318414
 23
478.04588073681771
 33
0.0
  0
LINE
  5
954B
  8
WAKU
  6
CONTINUOUS
 10
575.41568426318281
 20
479.51553873681678
 30
0.0
 11
576.07204026318414
 21
480.08961373681723
 31
0.0
  0
LINE
  5
954C
  8
WAKU
  6
CONTINUOUS
 10
575.11351426318299
 20
478.84065273681739
 30
0.0
 11
575.61997626318384
 21
479.18220673681742
 31
0.0
  0
LINE
  5
954D
  8
WAKU
  6
CONTINUOUS
 10
575.20019226318323
 20
478.0458807368172
 30
0.0
 11
575.69141026318346
 21
478.3075187368172
 31
0.0
  0
LINE
  5
954E
  8
WAKU
  6
CONTINUOUS
 10
575.17762626318347
 20
478.46690573681701
 30
0.0
 11
575.66324126318364
 21
478.75022473681719
 31
0.0
  0
SOLID
  5
954F
  8
WAKU
  6
CONTINUOUS
 10
574.72272826318317
 20
478.27447573681781
 30
0.0
 11
574.32703826318414
 21
478.17897073681769
 31
0.0
 12
575.20019226318414
 22
478.04588073681771
 32
0.0
 13
575.20019226318414
 23
478.04588073681771
 33
0.0
  0
LINE
  5
9550
  8
WAKU
  6
CONTINUOUS
 10
574.32703826318414
 20
478.1789707368174
 30
0.0
 11
574.72272826318408
 21
478.27447573681741
 31
0.0
  0
LINE
  5
9551
  8
WAKU
  6
CONTINUOUS
 10
574.13520226318349
 20
478.40650473681762
 30
0.0
 11
574.61217226318286
 21
478.5787327368177
 31
0.0
  0
LINE
  5
9552
  8
WAKU
  6
CONTINUOUS
 10
574.61217226318286
 20
478.5787327368177
 30
0.0
 11
575.11351426318299
 21
478.84065273681739
 31
0.0
  0
LINE
  5
9553
  8
WAKU
  6
CONTINUOUS
 10
574.73088626318406
 20
477.86939873681769
 30
0.0
 11
575.20019226318323
 21
478.0458807368172
 31
0.0
  0
LINE
  5
9554
  8
WAKU
  6
CONTINUOUS
 10
574.73800726318359
 20
479.07443973681671
 30
0.0
 11
575.41568426318281
 21
479.51553873681678
 31
0.0
  0
LINE
  5
9555
  8
WAKU
  6
CONTINUOUS
 10
574.72272826318408
 20
478.27447573681741
 30
0.0
 11
575.17762626318347
 21
478.46690573681701
 31
0.0
  0
LINE
  5
9556
  8
WAKU
  6
CONTINUOUS
 10
574.30073126318359
 20
477.78455673681742
 30
0.0
 11
574.73088626318406
 21
477.86939873681769
 31
0.0
  0
LINE
  5
9557
  8
WAKU
  6
CONTINUOUS
 10
574.97157126318405
 20
481.18900073681721
 30
0.0
 11
574.39764026318358
 21
480.53257873681758
 31
0.0
  0
LINE
  5
9558
  8
WAKU
  6
CONTINUOUS
 10
575.69141026318346
 20
478.3075187368172
 30
0.0
 11
576.18650026318414
 21
478.64470273681701
 31
0.0
  0
LINE
  5
9559
  8
WAKU
  6
CONTINUOUS
 10
575.61997626318384
 20
479.18220673681742
 30
0.0
 11
576.11210726318393
 21
479.5902787368172
 31
0.0
  0
SOLID
  5
955A
  8
WAKU
  6
CONTINUOUS
 10
576.32088426318455
 20
483.00417273681768
 30
0.0
 11
575.35220826318414
 21
482.97111773681758
 31
0.0
 12
575.86597926318359
 22
482.81169273681797
 32
0.0
 13
575.86597926318359
 23
482.81169273681797
 33
0.0
  0
SOLID
  5
955B
  8
WAKU
  6
CONTINUOUS
 10
575.35220826318414
 20
482.97111773681758
 30
0.0
 11
574.85711826318391
 21
482.6339337368176
 31
0.0
 12
575.86597926318359
 22
482.81169273681797
 32
0.0
 13
575.86597926318359
 23
482.81169273681797
 33
0.0
  0
SOLID
  5
955C
  8
WAKU
  6
CONTINUOUS
 10
575.86597926318359
 20
482.81169273681797
 30
0.0
 11
574.85711826318391
 21
482.6339337368176
 31
0.0
 12
575.38033126318396
 22
482.52839173681758
 32
0.0
 13
575.38033126318396
 23
482.52839173681758
 33
0.0
  0
SOLID
  5
955D
  8
WAKU
  6
CONTINUOUS
 10
575.93001326318415
 20
482.43792873681679
 30
0.0
 11
575.42352726318416
 21
482.09634273681769
 31
0.0
 12
576.30562226318432
 22
482.20416473681718
 32
0.0
 13
576.30562226318432
 23
482.20416473681718
 33
0.0
  0
LINE
  5
955E
  8
WAKU
  6
CONTINUOUS
 10
575.86597926318359
 20
482.81169273681672
 30
0.0
 11
575.38033126318396
 21
482.52839173681679
 31
0.0
  0
LINE
  5
955F
  8
WAKU
  6
CONTINUOUS
 10
575.93001326318347
 20
482.43792873681679
 30
0.0
 11
575.42352726318416
 21
482.09634273681741
 31
0.0
  0
LINE
  5
9560
  8
WAKU
  6
CONTINUOUS
 10
575.84342726318323
 20
483.23275573681741
 30
0.0
 11
575.35220826318323
 21
482.97111773681758
 31
0.0
  0
SOLID
  5
9561
  8
WAKU
  6
CONTINUOUS
 10
576.30562226318432
 20
482.20416473681718
 30
0.0
 11
575.42352726318416
 21
482.09634273681769
 31
0.0
 12
575.62792526318401
 22
481.76309873681771
 32
0.0
 13
575.62792526318401
 23
481.76309873681771
 33
0.0
  0
SOLID
  5
9562
  8
WAKU
  6
CONTINUOUS
 10
575.42352726318416
 20
482.09634273681769
 30
0.0
 11
574.93137626318389
 21
481.68823573681721
 31
0.0
 12
575.62792526318401
 22
481.76309873681771
 32
0.0
 13
575.62792526318401
 23
481.76309873681771
 33
0.0
  0
SOLID
  5
9563
  8
WAKU
  6
CONTINUOUS
 10
574.85711826318391
 20
482.6339337368176
 30
0.0
 11
574.37634326318414
 21
482.23358773681701
 31
0.0
 12
575.38033126318396
 22
482.52839173681758
 32
0.0
 13
575.38033126318396
 23
482.52839173681758
 33
0.0
  0
LINE
  5
9564
  8
WAKU
  6
CONTINUOUS
 10
574.85711826318391
 20
482.6339337368176
 30
0.0
 11
574.37634326318346
 21
482.23358773681679
 31
0.0
  0
LINE
  5
9565
  8
WAKU
  6
CONTINUOUS
 10
575.35220826318323
 20
482.97111773681758
 30
0.0
 11
574.85711826318391
 21
482.6339337368176
 31
0.0
  0
SOLID
  5
9566
  8
WAKU
  6
CONTINUOUS
 10
575.38033126318396
 20
482.52839173681758
 30
0.0
 11
574.37634326318414
 21
482.23358773681701
 31
0.0
 12
574.42184226318432
 22
481.7392157368177
 32
0.0
 13
574.42184226318432
 23
481.7392157368177
 33
0.0
  0
LINE
  5
9567
  8
WAKU
  6
CONTINUOUS
 10
575.42352726318416
 20
482.09634273681741
 30
0.0
 11
574.93137626318276
 21
481.68823573681721
 31
0.0
  0
LINE
  5
9568
  8
WAKU
  6
CONTINUOUS
 10
575.38033126318396
 20
482.52839173681679
 30
0.0
 11
574.42184226318363
 21
481.73921573681679
 31
0.0
  0
LINE
  5
9569
  8
WAKU
  6
CONTINUOUS
 10
576.32088426318455
 20
483.00417273681768
 30
0.0
 11
575.86597926318359
 21
482.81169273681672
 31
0.0
  0
LINE
  5
956A
  8
WAKU
  6
CONTINUOUS
 10
576.31273226318285
 20
483.40923673681738
 30
0.0
 11
575.84342726318323
 21
483.23275573681741
 31
0.0
  0
LINE
  5
956B
  8
WAKU
  6
CONTINUOUS
 10
576.30562226318375
 20
482.20416473681718
 30
0.0
 11
575.62792526318401
 21
481.7630987368172
 31
0.0
  0
SOLID
  5
956C
  8
WAKU
  6
CONTINUOUS
 10
576.07204026318414
 20
480.08961373681768
 30
0.0
 11
575.4156842631844
 21
479.51553873681769
 31
0.0
 12
576.57101026318412
 22
480.04919673681758
 32
0.0
 13
576.57101026318412
 23
480.04919673681758
 33
0.0
  0
SOLID
  5
956D
  8
WAKU
  6
CONTINUOUS
 10
576.57101026318412
 20
480.04919673681758
 30
0.0
 11
575.4156842631844
 21
479.51553873681769
 31
0.0
 12
576.11210726318416
 22
479.5902787368172
 32
0.0
 13
576.11210726318416
 23
479.5902787368172
 33
0.0
  0
SOLID
  5
956E
  8
WAKU
  6
CONTINUOUS
 10
576.6459822631839
 20
480.74602773681721
 30
0.0
 11
576.07204026318414
 21
480.08961373681768
 31
0.0
 12
576.97906026318412
 22
480.54133673681719
 32
0.0
 13
576.97906026318412
 23
480.54133673681719
 33
0.0
  0
SOLID
  5
956F
  8
WAKU
  6
CONTINUOUS
 10
576.97906026318412
 20
480.54133673681719
 30
0.0
 11
576.07204026318414
 21
480.08961373681768
 31
0.0
 12
576.57101026318412
 22
480.04919673681758
 32
0.0
 13
576.57101026318412
 23
480.04919673681758
 33
0.0
  0
SOLID
  5
9570
  8
WAKU
  6
CONTINUOUS
 10
576.66727626318414
 20
479.04504873681759
 30
0.0
 11
575.66324126318409
 21
478.75022473681719
 31
0.0
 12
576.18650026318414
 22
478.64470273681769
 32
0.0
 13
576.18650026318414
 23
478.64470273681769
 33
0.0
  0
LINE
  5
9571
  8
WAKU
  6
CONTINUOUS
 10
576.11210726318393
 20
479.5902787368172
 30
0.0
 11
576.57101026318276
 21
480.04919673681678
 31
0.0
  0
LINE
  5
9572
  8
WAKU
  6
CONTINUOUS
 10
575.66324126318364
 20
478.75022473681719
 30
0.0
 11
576.62170926318299
 21
479.53933973681711
 31
0.0
  0
LINE
  5
9573
  8
WAKU
  6
CONTINUOUS
 10
576.18650026318414
 20
478.64470273681701
 30
0.0
 11
576.66727626318345
 21
479.04504873681691
 31
0.0
  0
LINE
  5
9574
  8
WAKU
  6
CONTINUOUS
 10
576.07204026318414
 20
480.08961373681723
 30
0.0
 11
576.64598226318276
 21
480.74602773681721
 31
0.0
  0
SOLID
  5
9575
  8
WAKU
  6
CONTINUOUS
 10
575.84342726318414
 20
483.23275573681741
 30
0.0
 11
575.35220826318414
 21
482.97111773681758
 31
0.0
 12
576.71660126318318
 22
483.09968873681771
 32
0.0
 13
576.71660126318318
 23
483.09968873681771
 33
0.0
  0
SOLID
  5
9576
  8
WAKU
  6
CONTINUOUS
 10
576.71660126318318
 20
483.09968873681771
 30
0.0
 11
575.35220826318414
 21
482.97111773681758
 31
0.0
 12
576.32088426318455
 22
483.00417273681768
 32
0.0
 13
576.32088426318455
 23
483.00417273681768
 33
0.0
  0
SOLID
  5
9577
  8
WAKU
  6
CONTINUOUS
 10
575.84342726318414
 20
483.23275573681741
 30
0.0
 11
576.71660126318318
 21
483.09968873681771
 31
0.0
 12
577.02374026318455
 22
483.10500973681769
 32
0.0
 13
577.02374026318455
 23
483.10500973681769
 33
0.0
  0
SOLID
  5
9578
  8
WAKU
  6
CONTINUOUS
 10
576.93648226318385
 20
482.47534773681792
 30
0.0
 11
575.93001326318415
 21
482.43792873681679
 31
0.0
 12
576.30562226318432
 22
482.20416473681718
 32
0.0
 13
576.30562226318432
 23
482.20416473681718
 33
0.0
  0
LINE
  5
9579
  8
WAKU
  6
CONTINUOUS
 10
576.93648226318385
 20
482.47534773681741
 30
0.0
 11
576.30562226318375
 21
482.20416473681718
 31
0.0
  0
LINE
  5
957A
  8
WAKU
  6
CONTINUOUS
 10
576.71660126318318
 20
483.0996887368172
 30
0.0
 11
576.32088426318455
 21
483.00417273681768
 31
0.0
  0
LINE
  5
957B
  8
WAKU
  6
CONTINUOUS
 10
576.74288726318355
 20
483.49407973681741
 30
0.0
 11
576.31273226318285
 21
483.40923673681738
 31
0.0
  0
LINE
  5
957C
  8
WAKU
  6
CONTINUOUS
 10
576.43138326318365
 20
482.69987573681669
 30
0.0
 11
575.93001326318347
 21
482.43792873681679
 31
0.0
  0
SOLID
  5
957D
  8
WAKU
  6
CONTINUOUS
 10
576.62170926318413
 20
479.53933973681711
 30
0.0
 11
575.66324126318409
 21
478.75022473681719
 31
0.0
 12
577.11607926318413
 22
479.4938517368177
 32
0.0
 13
577.11607926318413
 23
479.4938517368177
 33
0.0
  0
SOLID
  5
957E
  8
WAKU
  6
CONTINUOUS
 10
577.11607926318413
 20
479.4938517368177
 30
0.0
 11
575.66324126318409
 21
478.75022473681719
 31
0.0
 12
576.66727626318414
 22
479.04504873681759
 32
0.0
 13
576.66727626318414
 23
479.04504873681759
 33
0.0
  0
SOLID
  5
957F
  8
WAKU
  6
CONTINUOUS
 10
576.74288726318434
 20
483.49407973681792
 30
0.0
 11
576.3127322631841
 21
483.40923673681772
 31
0.0
 12
577.1180922631836
 22
483.48416773681771
 32
0.0
 13
577.1180922631836
 23
483.48416773681771
 33
0.0
  0
SOLID
  5
9580
  8
WAKU
  6
CONTINUOUS
 10
577.1180922631836
 20
483.48416773681771
 30
0.0
 11
576.3127322631841
 21
483.40923673681772
 31
0.0
 12
577.42456526318415
 22
483.37986473681758
 32
0.0
 13
577.42456526318415
 23
483.37986473681758
 33
0.0
  0
SOLID
  5
9581
  8
WAKU
  6
CONTINUOUS
 10
576.3127322631841
 20
483.40923673681772
 30
0.0
 11
575.84342726318414
 21
483.23275573681741
 31
0.0
 12
577.42456526318415
 22
483.37986473681758
 32
0.0
 13
577.42456526318415
 23
483.37986473681758
 33
0.0
  0
SOLID
  5
9582
  8
WAKU
  6
CONTINUOUS
 10
576.43138326318399
 20
482.69987573681738
 30
0.0
 11
575.93001326318415
 21
482.43792873681679
 31
0.0
 12
577.4449732631839
 22
482.5626767368172
 32
0.0
 13
577.4449732631839
 23
482.5626767368172
 33
0.0
  0
SOLID
  5
9583
  8
WAKU
  6
CONTINUOUS
 10
577.4449732631839
 20
482.5626767368172
 30
0.0
 11
575.93001326318415
 21
482.43792873681679
 31
0.0
 12
576.93648226318385
 22
482.47534773681792
 32
0.0
 13
576.93648226318385
 23
482.47534773681792
 33
0.0
  0
SOLID
  5
9584
  8
WAKU
  6
CONTINUOUS
 10
577.42456526318415
 20
483.37986473681758
 30
0.0
 11
575.84342726318414
 21
483.23275573681741
 31
0.0
 12
577.65105026318406
 22
483.18500273681792
 32
0.0
 13
577.65105026318406
 23
483.18500273681792
 33
0.0
  0
SOLID
  5
9585
  8
WAKU
  6
CONTINUOUS
 10
575.84342726318414
 20
483.23275573681741
 30
0.0
 11
577.02374026318455
 21
483.10500973681769
 31
0.0
 12
577.65105026318406
 22
483.18500273681792
 32
0.0
 13
577.65105026318406
 23
483.18500273681792
 33
0.0
  0
SOLID
  5
9586
  8
WAKU
  6
CONTINUOUS
 10
583.73705726318406
 20
483.0410307368175
 30
0.0
 11
580.58094926318415
 21
480.45641573681769
 31
0.0
 12
583.91941126318432
 22
480.45641573681769
 32
0.0
 13
583.91941126318432
 23
480.45641573681769
 33
0.0
  0
LINE
  5
9587
  8
WAKU
  6
CONTINUOUS
 10
583.7370572631836
 20
483.04103073681739
 30
0.0
 11
580.58094926318347
 21
480.45641573681741
 31
0.0
  0
SOLID
  5
9588
  8
WAKU
  6
CONTINUOUS
 10
583.91941126318432
 20
480.45641573681769
 30
0.0
 11
580.58094926318415
 21
480.45641573681769
 31
0.0
 12
582.82288926318415
 22
480.4025697368175
 32
0.0
 13
582.82288926318415
 23
480.4025697368175
 33
0.0
  0
SOLID
  5
9589
  8
WAKU
  6
CONTINUOUS
 10
580.58094926318415
 20
480.45641573681769
 30
0.0
 11
579.60102926318393
 21
477.76410773681738
 31
0.0
 12
582.82288926318415
 22
480.4025697368175
 32
0.0
 13
582.82288926318415
 23
480.4025697368175
 33
0.0
  0
LINE
  5
958A
  8
WAKU
  6
CONTINUOUS
 10
582.8228892631837
 20
480.4025697368175
 30
0.0
 11
579.60102926318393
 21
477.76410773681738
 31
0.0
  0
LINE
  5
958B
  8
WAKU
  6
CONTINUOUS
 10
586.49333726318412
 20
477.76410773681738
 30
0.0
 11
591.8779522631836
 21
477.76410773681738
 31
0.0
  0
SOLID
  5
958C
  8
WAKU
  6
CONTINUOUS
 10
589.04112926318385
 20
484.76410773681721
 30
0.0
 11
588.41398026318393
 21
483.0410307368175
 31
0.0
 12
593.79859526318455
 22
483.0410307368175
 32
0.0
 13
593.79859526318455
 23
483.0410307368175
 33
0.0
  0
SOLID
  5
958D
  8
WAKU
  6
CONTINUOUS
 10
587.27727326318416
 20
479.9179537368172
 30
0.0
 11
586.49333726318412
 21
477.76410773681738
 31
0.0
 12
592.66188826318398
 22
479.9179537368172
 32
0.0
 13
592.66188826318398
 23
479.9179537368172
 33
0.0
  0
SOLID
  5
958E
  8
WAKU
  6
CONTINUOUS
 10
592.66188826318398
 20
479.9179537368172
 30
0.0
 11
586.49333726318412
 21
477.76410773681738
 31
0.0
 12
591.8779522631836
 22
477.76410773681738
 32
0.0
 13
591.8779522631836
 23
477.76410773681738
 33
0.0
  0
LINE
  5
958F
  8
WAKU
  6
CONTINUOUS
 10
587.2772732631837
 20
479.9179537368172
 30
0.0
 11
592.66188826318319
 21
479.9179537368172
 31
0.0
  0
LINE
  5
9590
  8
WAKU
  6
CONTINUOUS
 10
588.41398026318393
 20
483.04103073681739
 30
0.0
 11
593.79859526318364
 21
483.04103073681739
 31
0.0
  0
SOLID
  5
9591
  8
WAKU
  6
CONTINUOUS
 10
594.42574426318413
 20
484.76410773681721
 30
0.0
 11
589.04112926318385
 21
484.76410773681721
 31
0.0
 12
593.79859526318455
 22
483.0410307368175
 32
0.0
 13
593.79859526318455
 23
483.0410307368175
 33
0.0
  0
LINE
  5
9592
  8
WAKU
  6
CONTINUOUS
 10
589.04112926318385
 20
484.76410773681721
 30
0.0
 11
594.42574426318345
 21
484.76410773681721
 31
0.0
  0
LINE
  5
9593
  8
WAKU
  6
CONTINUOUS
 10
571.39702026318355
 20
484.76410773681721
 30
0.0
 11
571.39702026318355
 21
480.4863297368172
 31
0.0
  0
SOLID
  5
9594
  8
WAKU
  6
CONTINUOUS
 10
575.67479726318413
 20
484.76410773681721
 30
0.0
 11
571.397020263184
 21
484.76410773681721
 31
0.0
 12
571.397020263184
 22
480.4863297368172
 32
0.0
 13
571.397020263184
 23
480.4863297368172
 33
0.0
  0
LINE
  5
9595
  8
WAKU
  6
CONTINUOUS
 10
571.39702026318355
 20
480.4863297368172
 30
0.0
 11
575.67479726318413
 21
484.76410773681721
 31
0.0
  0
LINE
  5
9596
  8
WAKU
  6
CONTINUOUS
 10
571.39702026318355
 20
484.76410773681721
 30
0.0
 11
575.67479726318413
 21
484.76410773681721
 31
0.0
  0
LINE
  5
9597
  8
WAKU
  6
CONTINUOUS
 10
608.70843826318412
 20
481.1025697368172
 30
0.0
 11
611.9392072631839
 21
481.1025697368172
 31
0.0
  0
SOLID
  5
9598
  8
WAKU
  6
CONTINUOUS
 10
610.04112926318396
 20
484.76410773681721
 30
0.0
 11
609.41398026318416
 21
483.0410307368175
 31
0.0
 12
612.6447492631836
 22
483.0410307368175
 32
0.0
 13
612.6447492631836
 23
483.0410307368175
 33
0.0
  0
SOLID
  5
9599
  8
WAKU
  6
CONTINUOUS
 10
612.40956826318416
 20
482.39487673681771
 30
0.0
 11
609.17879926318415
 21
482.39487673681771
 31
0.0
 12
611.93920726318413
 22
481.10256973681783
 32
0.0
 13
611.93920726318413
 23
481.10256973681783
 33
0.0
  0
SOLID
  5
959A
  8
WAKU
  6
CONTINUOUS
 10
612.8779522631836
 20
477.76410773681738
 30
0.0
 11
612.58496526318413
 21
479.9179537368172
 31
0.0
 12
608.27727326318416
 22
479.9179537368172
 32
0.0
 13
608.27727326318416
 23
479.9179537368172
 33
0.0
  0
SOLID
  5
959B
  8
WAKU
  6
CONTINUOUS
 10
608.27727326318416
 20
479.9179537368172
 30
0.0
 11
607.49333726318412
 21
477.76410773681738
 31
0.0
 12
612.8779522631836
 22
477.76410773681738
 32
0.0
 13
612.8779522631836
 23
477.76410773681738
 33
0.0
  0
LINE
  5
959C
  8
WAKU
  6
CONTINUOUS
 10
612.8779522631836
 20
477.76410773681738
 30
0.0
 11
607.49333726318412
 21
477.76410773681738
 31
0.0
  0
LINE
  5
959D
  8
WAKU
  6
CONTINUOUS
 10
608.2772732631837
 20
479.9179537368172
 30
0.0
 11
612.58496526318413
 21
479.9179537368172
 31
0.0
  0
LINE
  5
959E
  8
WAKU
  6
CONTINUOUS
 10
609.41398026318393
 20
483.04103073681739
 30
0.0
 11
612.6447492631836
 21
483.04103073681739
 31
0.0
  0
LINE
  5
959F
  8
WAKU
  6
CONTINUOUS
 10
609.17879926318415
 20
482.39487673681742
 30
0.0
 11
612.40956826318393
 21
482.39487673681742
 31
0.0
  0
SOLID
  5
95A0
  8
WAKU
  6
CONTINUOUS
 10
612.6447492631836
 20
483.0410307368175
 30
0.0
 11
613.27189826318408
 21
484.76410773681721
 31
0.0
 12
610.04112926318396
 22
484.76410773681721
 32
0.0
 13
610.04112926318396
 23
484.76410773681721
 33
0.0
  0
LINE
  5
95A1
  8
WAKU
  6
CONTINUOUS
 10
610.04112926318396
 20
484.76410773681721
 30
0.0
 11
613.27189826318363
 21
484.76410773681721
 31
0.0
  0
SOLID
  5
95A2
  8
WAKU
  6
CONTINUOUS
 10
609.17879926318415
 20
482.39487673681771
 30
0.0
 11
608.70843826318412
 21
481.10256973681783
 31
0.0
 12
611.93920726318413
 22
481.10256973681783
 32
0.0
 13
611.93920726318413
 23
481.10256973681783
 33
0.0
  0
LINE
  5
95A3
  8
WAKU
 10
625.06861020684937
 20
485.987517639977
 30
0.0
 11
625.06861020684937
 21
28.29526935608077
 31
0.0
  0
TEXT
  5
95A4
  8
WAKU
 10
75.69258251726535
 20
479.59927286510691
 30
0.0
 40
5.0
  1
FIX窓 面付け枠（ガラス溝幅30mm）断面詳細図
  7
MX_NOTE_STANDARD
 11
75.69258251726535
 21
482.09927286510691
 31
0.0
 73
     2
  0
TEXT
  5
95A5
  8
WAKU
 10
36.524425493660559
 20
479.56007735200359
 30
0.0
 40
3.0
  1
断熱100N
 41
0.8679999999999999
  7
MX_NOTE_STANDARD
 11
36.524425493660559
 21
481.0600773520037
 31
0.0
 73
     2
  0
LINE
  5
95A6
  8
WAKU
 10
31.524425493660821
 20
486.06007735200342
 30
0.0
 11
31.524425493660821
 21
28.367829068107071
 31
0.0
  0
LINE
  5
95A7
  8
WAKU
 10
31.524425493660821
 20
28.367829068107071
 30
0.0
 11
625.06861020684937
 21
28.29526935608077
 31
0.0
  0
LINE
  5
95A8
  8
WAKU
 10
31.524425493660821
 20
476.0600773520037
 30
0.0
 11
625.06861020684937
 21
475.98751763997728
 31
0.0
  0
LINE
  5
95A9
  8
WAKU
 10
31.524425493660821
 20
486.06007735200342
 30
0.0
 11
625.06861020684937
 21
485.987517639977
 31
0.0
  0
POLYLINE
  5
A6B8
  8
SUNPO
  6
BYBLOCK
 66
     1
 10
0.0
 20
0.0
 30
0.0
 70
     1
 40
1.159999999999999
 41
1.159999999999999
  0
VERTEX
  5
AF5D
  8
SUNPO
  6
BYBLOCK
 10
218.64268535883309
 20
242.7804752485458
 30
0.0
 42
1.0
  0
VERTEX
  5
AF5E
  8
SUNPO
  6
BYBLOCK
 10
218.93268535883311
 20
242.7804752485458
 30
0.0
 42
1.0
  0
SEQEND
  5
AF5F
  8
SUNPO
  6
BYBLOCK
  0
TEXT
  5
A6B9
  8
SUNPO
  6
CONTINUOUS
 10
215.45435202549979
 20
243.2804752485458
 30
0.0
 40
2.5
  1
5
  0
POLYLINE
  5
A6BA
  8
SUNPO
  6
BYBLOCK
 66
     1
 10
0.0
 20
0.0
 30
0.0
 70
     1
 40
1.159999999999999
 41
1.159999999999999
  0
VERTEX
  5
AF60
  8
SUNPO
  6
BYBLOCK
 10
213.64268535883309
 20
242.7804752485458
 30
0.0
 42
1.0
  0
VERTEX
  5
AF61
  8
SUNPO
  6
BYBLOCK
 10
213.9326853588332
 20
242.7804752485458
 30
0.0
 42
1.0
  0
SEQEND
  5
AF62
  8
SUNPO
  6
BYBLOCK
  0
LINE
  5
A6BB
  8
SUNPO
  6
CONTINUOUS
 10
213.7876853588331
 20
242.7804752485458
 30
0.0
 11
218.7876853588331
 21
242.7804752485458
 31
0.0
  0
TEXT
  5
A6BC
  8
SUNPO
  6
CONTINUOUS
 10
187.20435202549979
 20
243.2804752485458
 30
0.0
 40
2.5
  1
59
  0
POLYLINE
  5
A6BD
  8
SUNPO
  6
BYBLOCK
 66
     1
 10
0.0
 20
0.0
 30
0.0
 70
     1
 40
1.159999999999999
 41
1.159999999999999
  0
VERTEX
  5
AF63
  8
SUNPO
  6
BYBLOCK
 10
154.64268535883321
 20
242.7804752485458
 30
0.0
 42
1.0
  0
VERTEX
  5
AF64
  8
SUNPO
  6
BYBLOCK
 10
154.93268535883311
 20
242.7804752485458
 30
0.0
 42
1.0
  0
SEQEND
  5
AF65
  8
SUNPO
  6
BYBLOCK
  0
TEXT
  5
A6BE
  8
SUNPO
  6
CONTINUOUS
 10
137.7251853588331
 20
243.2804752485458
 30
0.0
 40
2.5
  1
30
 41
1.1000000000000001
  7
MX_DIMTXSTY_2
  0
LINE
  5
A6BF
  8
SUNPO
  6
CONTINUOUS
 10
154.7876853588331
 20
242.7804752485458
 30
0.0
 11
213.7876853588331
 21
242.7804752485458
 31
0.0
  0
POLYLINE
  5
A6C0
  8
SUNPO
  6
BYBLOCK
 66
     1
 10
0.0
 20
0.0
 30
0.0
 70
     1
 40
1.159999999999999
 41
1.159999999999999
  0
VERTEX
  5
AF66
  8
SUNPO
  6
BYBLOCK
 10
124.64268535883311
 20
242.7804752485458
 30
0.0
 42
1.0
  0
VERTEX
  5
AF67
  8
SUNPO
  6
BYBLOCK
 10
124.9326853588332
 20
242.7804752485458
 30
0.0
 42
1.0
  0
SEQEND
  5
AF68
  8
SUNPO
  6
BYBLOCK
  0
POLYLINE
  5
A6C1
  8
SUNPO
  6
BYBLOCK
 66
     1
 10
0.0
 20
0.0
 30
0.0
 70
     1
 40
1.159999999999999
 41
1.159999999999999
  0
VERTEX
  5
AF69
  8
SUNPO
  6
BYBLOCK
 10
118.9326853588331
 20
242.7804752485458
 30
0.0
 42
1.0
  0
VERTEX
  5
AF6A
  8
SUNPO
  6
BYBLOCK
 10
118.64268535883311
 20
242.7804752485458
 30
0.0
 42
1.0
  0
SEQEND
  5
AF6B
  8
SUNPO
  6
BYBLOCK
  0
LINE
  5
A6C2
  8
SUNPO
  6
CONTINUOUS
 10
118.7876853588331
 20
242.7804752485458
 30
0.0
 11
124.7876853588332
 21
242.7804752485458
 31
0.0
  0
TEXT
  5
A6C3
  8
SUNPO
  6
CONTINUOUS
 10
120.9543520254999
 20
243.2804752485458
 30
0.0
 40
2.5
  1
6
  0
LINE
  5
A6C4
  8
SUNPO
  6
CONTINUOUS
 10
124.7876853588332
 20
242.7804752485458
 30
0.0
 11
154.7876853588331
 21
242.7804752485458
 31
0.0
  0
POLYLINE
  5
A6C5
  8
SUNPO
  6
BYBLOCK
 66
     1
 10
0.0
 20
0.0
 30
0.0
 70
     1
 40
1.159999999999999
 41
1.159999999999999
  0
VERTEX
  5
AF6C
  8
SUNPO
  6
BYBLOCK
 10
280.35345549313161
 20
241.7804752485458
 30
0.0
 42
-1.0
  0
VERTEX
  5
AF6D
  8
SUNPO
  6
BYBLOCK
 10
280.0634554931317
 20
241.7804752485458
 30
0.0
 42
-1.0
  0
SEQEND
  5
AF6E
  8
SUNPO
  6
BYBLOCK
  0
TEXT
  5
A6C6
  8
SUNPO
  6
CONTINUOUS
 10
288.47993767099649
 20
242.28047524854591
 30
0.0
 40
2.5
  1
20
 41
1.1000000000000001
  7
MX_DIMTXSTY_2
  0
LINE
  5
A6C7
  8
DANMEN
  6
CONTINUOUS
 10
280.20845549313162
 20
162.28047524854591
 30
0.0
 11
280.20845549313162
 21
161.7804752485458
 31
0.0
  0
ARC
  5
A6C8
  8
DANMEN
  6
CONTINUOUS
 10
280.70845549313162
 20
162.28047524854591
 30
0.0
 40
0.5
 50
90.000017999999187
 51
180.0
  0
ARC
  5
A6C9
  8
DANMEN
  6
CONTINUOUS
 10
280.70845549313162
 20
161.7804752485458
 30
0.0
 40
0.5
 50
180.0
 51
269.99998200000073
  0
LINE
  5
A6CA
  8
DANMEN
  6
CONTINUOUS
 10
290.20845549313162
 20
161.2804752485458
 30
0.0
 11
290.20845549313162
 21
158.4875832485458
 31
0.0
  0
ARC
  5
A6CB
  8
DANMEN
  6
CONTINUOUS
 10
290.70845549313162
 20
158.4875832485458
 30
0.0
 40
0.5
 50
180.0
 51
225.00000100000091
  0
LINE
  5
A6CC
  8
DANMEN
  6
CONTINUOUS
 10
292.34201549313161
 20
159.83052224854589
 30
0.0
 11
293.87490649313162
 21
158.7304122485458
 31
0.0
  0
ARC
  5
A6CD
  8
DANMEN
  6
CONTINUOUS
 10
292.80846149313157
 20
160.48047224854579
 30
0.0
 40
0.8
 50
90.000017999999187
 51
234.33410700000061
  0
LINE
  5
A6CE
  8
DANMEN
  6
CONTINUOUS
 10
297.50845849313163
 20
159.7804752485458
 30
0.0
 11
296.90845249313162
 21
159.7804752485458
 31
0.0
  0
LINE
  5
A6CF
  8
DANMEN
  6
CONTINUOUS
 10
297.80846149313157
 20
160.7804752485458
 30
0.0
 11
297.80846149313157
 21
160.0804782485458
 31
0.0
  0
ARC
  5
A6D0
  8
DANMEN
  6
CONTINUOUS
 10
298.30846149313157
 20
160.7804752485458
 30
0.0
 40
0.5
 50
90.000017999999187
 51
180.0
  0
ARC
  5
A6D1
  8
DANMEN
  6
CONTINUOUS
 10
297.50845849313163
 20
160.0804782485458
 30
0.0
 40
0.3
 50
269.99999900000017
 51
359.99998100000022
  0
LINE
  5
A6D2
  8
DANMEN
  6
CONTINUOUS
 10
296.60844949313162
 20
160.7804752485458
 30
0.0
 11
296.60844949313162
 21
160.0804782485458
 31
0.0
  0
ARC
  5
A6D3
  8
DANMEN
  6
CONTINUOUS
 10
296.10844949313162
 20
160.7804752485458
 30
0.0
 40
0.5
 50
359.99998100000022
 51
90.000017999999187
  0
ARC
  5
A6D4
  8
DANMEN
  6
CONTINUOUS
 10
296.90845249313162
 20
160.0804782485458
 30
0.0
 40
0.3
 50
180.0
 51
269.99998200000073
  0
LINE
  5
A6D5
  8
DANMEN
  6
CONTINUOUS
 10
296.10844949313162
 20
161.2804752485458
 30
0.0
 11
292.80846149313157
 21
161.2804752485458
 31
0.0
  0
LINE
  5
A6D6
  8
DANMEN
  6
CONTINUOUS
 10
290.20845549313162
 20
161.2804752485458
 30
0.0
 11
280.70845549313162
 21
161.2804752485458
 31
0.0
  0
LINE
  5
A6D7
  8
SUNPO
  6
CONTINUOUS
 10
280.20845549313162
 20
164.2804752485458
 30
0.0
 11
280.20845549313162
 21
242.7804752485458
 31
0.0
  0
POLYLINE
  5
A6D8
  8
SUNPO
  6
BYBLOCK
 66
     1
 10
0.0
 20
0.0
 30
0.0
 70
     1
 40
1.159999999999999
 41
1.159999999999999
  0
VERTEX
  5
AF6F
  8
SUNPO
  6
BYBLOCK
 10
300.35345549313161
 20
241.7804752485458
 30
0.0
 42
-1.0
  0
VERTEX
  5
AF70
  8
SUNPO
  6
BYBLOCK
 10
300.0634554931317
 20
241.7804752485458
 30
0.0
 42
-1.0
  0
SEQEND
  5
AF71
  8
SUNPO
  6
BYBLOCK
  0
POLYLINE
  5
A6D9
  8
SUNPO
  6
BYBLOCK
 66
     1
 10
0.0
 20
0.0
 30
0.0
 70
     1
 40
1.159999999999999
 41
1.159999999999999
  0
VERTEX
  5
AF72
  8
SUNPO
  6
BYBLOCK
 10
330.06345549313158
 20
241.7804752485458
 30
0.0
 42
-1.0
  0
VERTEX
  5
AF73
  8
SUNPO
  6
BYBLOCK
 10
330.35345549313161
 20
241.7804752485458
 30
0.0
 42
-1.0
  0
SEQEND
  5
AF74
  8
SUNPO
  6
BYBLOCK
  0
LINE
  5
A6DA
  8
SUNPO
  6
CONTINUOUS
 10
330.20845549313162
 20
241.7804752485458
 30
0.0
 11
300.20845549313162
 21
241.7804752485458
 31
0.0
  0
TEXT
  5
A6DB
  8
SUNPO
  6
CONTINUOUS
 10
312.93732189814591
 20
242.2804752485458
 30
0.0
 40
2.5
  1
30
 41
1.1000000000000001
  7
MX_DIMTXSTY_2
  0
LINE
  5
A6DC
  8
DANMEN
  6
CONTINUOUS
 10
300.20845549313162
 20
217.2804752485458
 30
0.0
 11
300.20845549313162
 21
215.7804752485458
 31
0.0
  0
ARC
  5
A6DD
  8
DANMEN
  6
CONTINUOUS
 10
300.70845549313162
 20
217.2804752485458
 30
0.0
 40
0.5
 50
90.000017999999187
 51
180.0
  0
LINE
  5
A6DE
  8
DANMEN
  6
CONTINUOUS
 10
313.20845549313162
 20
215.98047224854579
 30
0.0
 11
304.20845549313162
 21
215.98047224854579
 31
0.0
  0
ARC
  5
A6DF
  8
DANMEN
  6
CONTINUOUS
 10
305.20845542331853
 20
210.78047699387511
 30
0.0
 40
1.0
 50
90.000031999999294
 51
180.00001400000011
  0
ARC
  5
A6E0
  8
DANMEN
  6
CONTINUOUS
 10
305.20845507425258
 20
205.780476993875
 30
0.0
 40
1.0
 50
180.00001400000011
 51
269.99999599999921
  0
LINE
  5
A6E1
  8
DANMEN
  6
CONTINUOUS
 10
304.20845542331853
 20
210.78047706368821
 30
0.0
 11
304.2084550742527
 21
205.78047706368829
 31
0.0
  0
LINE
  5
A6E2
  8
DANMEN
  6
CONTINUOUS
 10
305.20845542331853
 20
210.78047699387511
 30
0.0
 11
305.20845507425258
 21
205.780476993875
 31
0.0
  0
CIRCLE
  5
A6E3
  8
DANMEN
  6
CONTINUOUS
 10
307.20845535350531
 20
209.78047685424869
 30
0.0
 40
0.1
  0
CIRCLE
  5
A6E4
  8
DANMEN
  6
CONTINUOUS
 10
309.20845535350531
 20
209.78047671462241
 30
0.0
 40
0.1
  0
ARC
  5
A6E5
  8
DANMEN
  6
CONTINUOUS
 10
313.70845549313162
 20
212.2804752485458
 30
0.0
 40
0.5
 50
180.0
 51
269.99998200000073
  0
CIRCLE
  5
A6E6
  8
DANMEN
  6
CONTINUOUS
 10
313.20845535350531
 20
209.78047643536971
 30
0.0
 40
0.1
  0
CIRCLE
  5
A6E7
  8
DANMEN
  6
CONTINUOUS
 10
311.20845535350531
 20
209.7804765749961
 30
0.0
 40
0.1
  0
CIRCLE
  5
A6E8
  8
DANMEN
  6
CONTINUOUS
 10
307.20845521387901
 20
207.78047685424869
 30
0.0
 40
0.1
  0
CIRCLE
  5
A6E9
  8
DANMEN
  6
CONTINUOUS
 10
309.20845521387901
 20
207.78047671462241
 30
0.0
 40
0.1
  0
CIRCLE
  5
A6EA
  8
DANMEN
  6
CONTINUOUS
 10
313.20845521387901
 20
207.78047643536971
 30
0.0
 40
0.1
  0
CIRCLE
  5
A6EB
  8
DANMEN
  6
CONTINUOUS
 10
311.20845521387901
 20
207.7804765749961
 30
0.0
 40
0.1
  0
LINE
  5
A6EC
  8
DANMEN
  6
CONTINUOUS
 10
314.50845549313169
 20
215.98047224854579
 30
0.0
 11
314.50845549313169
 21
212.7804752485458
 31
0.0
  0
LINE
  5
A6ED
  8
DANMEN
  6
CONTINUOUS
 10
313.20845549313162
 20
215.98047224854579
 30
0.0
 11
313.20845549313162
 21
212.2804752485458
 31
0.0
  0
ARC
  5
A6EE
  8
DANMEN
  6
CONTINUOUS
 10
296.70845549313162
 20
212.20975124854581
 30
0.0
 40
5.0
 50
0.0000360000000406
 51
45.573024999999276
  0
ARC
  5
A6EF
  8
DANMEN
  6
CONTINUOUS
 10
329.70845549313162
 20
217.2804752485458
 30
0.0
 40
0.5
 50
0.0000360000000406
 51
90.000017999999187
  0
LINE
  5
A6F0
  8
DANMEN
  6
CONTINUOUS
 10
318.20845549313162
 20
212.48047224854579
 30
0.0
 11
318.20845549313162
 21
212.0804782485458
 31
0.0
  0
ARC
  5
A6F1
  8
DANMEN
  6
CONTINUOUS
 10
317.90845549313161
 20
212.48047224854579
 30
0.0
 40
0.3
 50
0.0000360000000406
 51
90.000017999999187
  0
ARC
  5
A6F2
  8
DANMEN
  6
CONTINUOUS
 10
317.90845549313161
 20
212.0804782485458
 30
0.0
 40
0.3
 50
269.99998200000073
 51
0.0000189999997952
  0
CIRCLE
  5
A6F3
  8
DANMEN
  6
CONTINUOUS
 10
317.20845535350531
 20
209.78047615611709
 30
0.0
 40
0.1
  0
LINE
  5
A6F4
  8
DANMEN
  6
CONTINUOUS
 10
323.20845549313162
 20
212.48047224854579
 30
0.0
 11
323.20845549313162
 21
212.0804782485458
 31
0.0
  0
CIRCLE
  5
A6F5
  8
DANMEN
  6
CONTINUOUS
 10
321.20845535350531
 20
209.7804758768643
 30
0.0
 40
0.1
  0
CIRCLE
  5
A6F6
  8
DANMEN
  6
CONTINUOUS
 10
319.20845535350531
 20
209.7804760164907
 30
0.0
 40
0.1
  0
CIRCLE
  5
A6F7
  8
DANMEN
  6
CONTINUOUS
 10
317.20845521387901
 20
207.780476156117
 30
0.0
 40
0.1
  0
CIRCLE
  5
A6F8
  8
DANMEN
  6
CONTINUOUS
 10
321.20845521387901
 20
207.7804758768643
 30
0.0
 40
0.1
  0
CIRCLE
  5
A6F9
  8
DANMEN
  6
CONTINUOUS
 10
319.20845521387901
 20
207.7804760164907
 30
0.0
 40
0.1
  0
LINE
  5
A6FA
  8
DANMEN
  6
CONTINUOUS
 10
323.20845542331841
 20
210.78047573723799
 30
0.0
 11
323.20845507425258
 21
205.78047573723799
 31
0.0
  0
LINE
  5
A6FB
  8
DANMEN
  6
CONTINUOUS
 10
322.20845542331841
 20
210.7804758070512
 30
0.0
 11
322.20845507425258
 21
205.7804758070512
 31
0.0
  0
LINE
  5
A6FC
  8
DANMEN
  6
CONTINUOUS
 10
330.20845533639658
 20
209.53541121281219
 30
0.0
 11
327.96339155249262
 21
211.78047538855381
 31
0.0
  0
ARC
  5
A6FD
  8
DANMEN
  6
CONTINUOUS
 10
329.70845549313162
 20
212.2804752485458
 30
0.0
 40
0.5
 50
269.99998200000073
 51
0.0000189999997952
  0
LINE
  5
A6FE
  8
DANMEN
  6
CONTINUOUS
 10
329.70845549313162
 20
211.7804752485458
 30
0.0
 11
323.50845549313158
 21
211.7804752485458
 31
0.0
  0
LINE
  5
A6FF
  8
DANMEN
  6
CONTINUOUS
 10
328.50845849313168
 20
212.7804752485458
 30
0.0
 11
323.50845549313158
 21
212.7804752485458
 31
0.0
  0
LINE
  5
A700
  8
DANMEN
  6
CONTINUOUS
 10
330.38403037681121
 20
205.2208586996887
 30
0.0
 11
329.94364686729398
 21
204.7804752670329
 31
0.0
  0
LINE
  5
A701
  8
DANMEN
  6
CONTINUOUS
 10
330.2084551796616
 20
207.29034733381371
 30
0.0
 11
327.69858283156049
 21
204.780475423768
 31
0.0
  0
ARC
  5
A702
  8
DANMEN
  6
CONTINUOUS
 10
331.20845507425258
 20
205.7804751787327
 30
0.0
 40
1.0
 50
180.00001400000011
 51
269.99999599999921
  0
LINE
  5
A703
  8
DANMEN
  6
CONTINUOUS
 10
330.47326288799519
 20
204.78047523005881
 30
0.0
 11
323.47326367121451
 21
211.78047566856981
 31
0.0
  0
LINE
  5
A704
  8
DANMEN
  6
CONTINUOUS
 10
330.20845517966148
 20
207.2903471770787
 30
0.0
 11
325.71832761185362
 21
211.78047552856179
 31
0.0
  0
LINE
  5
A705
  8
DANMEN
  6
CONTINUOUS
 10
330.20845533639658
 20
209.5354112911798
 30
0.0
 11
325.45351879582688
 21
204.78047558050301
 31
0.0
  0
LINE
  5
A706
  8
DANMEN
  6
CONTINUOUS
 10
330.20845549313162
 20
211.7804752485458
 30
0.0
 11
330.20845507425258
 21
205.7804752485458
 31
0.0
  0
LINE
  5
A707
  8
DANMEN
  6
CONTINUOUS
 10
330.20845549313162
 20
211.7804752485458
 30
0.0
 11
323.20845476009328
 21
204.78047573723799
 31
0.0
  0
LINE
  5
A708
  8
DANMEN
  6
CONTINUOUS
 10
328.22819893062911
 20
204.7804753867938
 30
0.0
 11
323.20845535488371
 21
209.80021983864981
 31
0.0
  0
LINE
  5
A709
  8
DANMEN
  6
CONTINUOUS
 10
327.9633914406711
 20
211.78047538855381
 30
0.0
 11
323.20845516117453
 21
207.02553993895009
 31
0.0
  0
LINE
  5
A70A
  8
DANMEN
  6
CONTINUOUS
 10
325.71832738821041
 20
211.78047552856179
 30
0.0
 11
323.20845531790951
 21
209.2706038963162
 31
0.0
  0
LINE
  5
A70B
  8
DANMEN
  6
CONTINUOUS
 10
325.98313497326308
 20
204.78047554352881
 30
0.0
 11
323.20845519814873
 21
207.55515580291629
 31
0.0
  0
LINE
  5
A70C
  8
DANMEN
  6
CONTINUOUS
 10
323.73807101589699
 20
204.78047570026379
 30
0.0
 11
323.13894702277861
 21
205.37959979794911
 31
0.0
  0
ARC
  5
A70D
  8
DANMEN
  6
CONTINUOUS
 10
322.20845507425258
 20
205.7804758070512
 30
0.0
 40
1.0
 50
269.99999599999921
 51
359.999978
  0
LINE
  5
A70E
  8
DANMEN
  6
CONTINUOUS
 10
323.47326333574989
 20
211.78047566856989
 30
0.0
 11
323.03288001077942
 21
211.34009242046071
 31
0.0
  0
ARC
  5
A70F
  8
DANMEN
  6
CONTINUOUS
 10
323.50845549313158
 20
212.48047224854579
 30
0.0
 40
0.3
 50
90.000017999999187
 51
180.0
  0
ARC
  5
A710
  8
DANMEN
  6
CONTINUOUS
 10
323.50845549313158
 20
212.0804782485458
 30
0.0
 40
0.3
 50
180.0
 51
269.99998200000073
  0
ARC
  5
A711
  8
DANMEN
  6
CONTINUOUS
 10
322.20845542331841
 20
210.7804758070512
 30
0.0
 40
1.0
 50
359.999978
 51
90.000014999999877
  0
LINE
  5
A712
  8
DANMEN
  6
CONTINUOUS
 10
330.20845549313162
 20
217.2804752485458
 30
0.0
 11
330.20845549313162
 21
212.2804752485458
 31
0.0
  0
LINE
  5
A713
  8
DANMEN
  6
CONTINUOUS
 10
328.50845849313168
 20
215.98047224854579
 30
0.0
 11
328.50845849313168
 21
212.7804752485458
 31
0.0
  0
LINE
  5
A714
  8
DANMEN
  6
CONTINUOUS
 10
305.20845549313168
 20
211.780476993875
 30
0.0
 11
330.20845549313162
 21
211.7804752485458
 31
0.0
  0
LINE
  5
A715
  8
DANMEN
  6
CONTINUOUS
 10
305.20845500443937
 20
204.78047699387511
 30
0.0
 11
331.20845500443937
 21
204.78047517873259
 31
0.0
  0
LINE
  5
A716
  8
DANMEN
  6
CONTINUOUS
 10
329.70845549313162
 20
217.7804752485458
 30
0.0
 11
300.70845549313162
 21
217.7804752485458
 31
0.0
  0
LINE
  5
A717
  8
DANMEN
  6
CONTINUOUS
 10
305.20845507425258
 20
205.780476993875
 30
0.0
 11
322.20845507425258
 21
205.7804758070512
 31
0.0
  0
LINE
  5
A718
  8
DANMEN
  6
CONTINUOUS
 10
305.20845542331853
 20
210.78047699387511
 30
0.0
 11
322.20845542331841
 21
210.7804758070512
 31
0.0
  0
CIRCLE
  5
A719
  8
DANMEN
  6
CONTINUOUS
 10
315.20845521387901
 20
207.7804762957434
 30
0.0
 40
0.1
  0
LINE
  5
A71A
  8
DANMEN
  6
CONTINUOUS
 10
317.90845549313161
 20
212.7804752485458
 30
0.0
 11
314.50845549313169
 21
212.7804752485458
 31
0.0
  0
LINE
  5
A71B
  8
DANMEN
  6
CONTINUOUS
 10
317.90845549313161
 20
211.7804752485458
 30
0.0
 11
313.70845549313162
 21
211.7804752485458
 31
0.0
  0
CIRCLE
  5
A71C
  8
DANMEN
  6
CONTINUOUS
 10
315.20845535350531
 20
209.7804762957434
 30
0.0
 40
0.1
  0
LINE
  5
A71D
  8
DANMEN
  6
CONTINUOUS
 10
328.50845849313168
 20
215.98047224854579
 30
0.0
 11
314.50845549313169
 21
215.98047224854579
 31
0.0
  0
LINE
  5
A71E
  8
SUNPO
  6
CONTINUOUS
 10
330.20845549313162
 20
219.2804752485458
 30
0.0
 11
330.20845549313162
 21
242.7804752485458
 31
0.0
  0
LINE
  5
A71F
  8
SUNPO
  6
CONTINUOUS
 10
300.20845549313162
 20
219.2804752485458
 30
0.0
 11
300.20845549313162
 21
242.7804752485458
 31
0.0
  0
LINE
  5
A720
  8
DANMEN
  6
CONTINUOUS
 10
405.20845549313162
 20
204.7804752485458
 30
0.0
 11
315.20845549313162
 21
204.7804752485458
 31
0.0
  0
LINE
  5
A721
  8
DANMEN
  6
CONTINUOUS
 10
405.20845549313162
 20
204.2804752485458
 30
0.0
 11
315.20845549313162
 21
204.2804752485458
 31
0.0
  0
LINE
  5
A722
  8
DANMEN
  6
CONTINUOUS
 10
405.20845549313162
 20
217.7804752485458
 30
0.0
 11
330.20845549313162
 21
217.7804752485458
 31
0.0
  0
LINE
  5
A723
  8
DANMEN
  6
CONTINUOUS
 10
405.20845549313162
 20
213.7804752485458
 30
0.0
 11
330.20845549313162
 21
213.7804752485458
 31
0.0
  0
LINE
  5
A724
  8
DANMEN
  6
CONTINUOUS
 10
405.20845549313162
 20
211.7804752485458
 30
0.0
 11
330.20845549313162
 21
211.7804752485458
 31
0.0
  0
ARC
  5
A725
  8
DANMEN
  6
CONTINUOUS
 10
305.20845507425258
 20
187.7804735032166
 30
0.0
 40
1.0
 50
90.000004000000729
 51
179.99998599999981
  0
ARC
  5
A726
  8
DANMEN
  6
CONTINUOUS
 10
305.20845542331853
 20
182.7804735032166
 30
0.0
 40
1.0
 50
179.99998599999981
 51
269.99996800000071
  0
LINE
  5
A727
  8
DANMEN
  6
CONTINUOUS
 10
304.20845542331853
 20
182.78047343340339
 30
0.0
 11
304.2084550742527
 21
187.78047343340339
 31
0.0
  0
LINE
  5
A728
  8
DANMEN
  6
CONTINUOUS
 10
305.20845542331853
 20
182.7804735032166
 30
0.0
 11
305.20845507425258
 21
187.7804735032166
 31
0.0
  0
CIRCLE
  5
A729
  8
DANMEN
  6
CONTINUOUS
 10
307.20845535350531
 20
183.78047364284291
 30
0.0
 40
0.1
  0
CIRCLE
  5
A72A
  8
DANMEN
  6
CONTINUOUS
 10
307.20845521387901
 20
185.78047364284291
 30
0.0
 40
0.1
  0
CIRCLE
  5
A72B
  8
DANMEN
  6
CONTINUOUS
 10
309.20845521387901
 20
185.78047378246919
 30
0.0
 40
0.1
  0
CIRCLE
  5
A72C
  8
DANMEN
  6
CONTINUOUS
 10
309.20845535350531
 20
183.78047378246919
 30
0.0
 40
0.1
  0
CIRCLE
  5
A72D
  8
DANMEN
  6
CONTINUOUS
 10
313.20845521387901
 20
185.78047406172189
 30
0.0
 40
0.1
  0
CIRCLE
  5
A72E
  8
DANMEN
  6
CONTINUOUS
 10
313.20845535350531
 20
183.78047406172189
 30
0.0
 40
0.1
  0
CIRCLE
  5
A72F
  8
DANMEN
  6
CONTINUOUS
 10
311.20845521387901
 20
185.78047392209561
 30
0.0
 40
0.1
  0
CIRCLE
  5
A730
  8
DANMEN
  6
CONTINUOUS
 10
311.20845535350531
 20
183.78047392209561
 30
0.0
 40
0.1
  0
LINE
  5
A731
  8
DANMEN
  6
CONTINUOUS
 10
321.20845549313162
 20
199.7804752485458
 30
0.0
 11
321.20845549313162
 21
193.7804752485458
 31
0.0
  0
LINE
  5
A732
  8
DANMEN
  6
CONTINUOUS
 10
315.20845149313158
 20
193.78048124854581
 30
0.0
 11
321.20845749313162
 21
199.78048824854579
 31
0.0
  0
LINE
  5
A733
  8
DANMEN
  6
CONTINUOUS
 10
315.20845149313158
 20
199.78048824854579
 30
0.0
 11
321.20845749313162
 21
193.78048124854581
 31
0.0
  0
LINE
  5
A734
  8
DANMEN
  6
CONTINUOUS
 10
315.20845549313162
 20
181.2804752485458
 30
0.0
 11
315.20845549313162
 21
180.98047224854579
 31
0.0
  0
CIRCLE
  5
A735
  8
DANMEN
  6
CONTINUOUS
 10
317.20845521387901
 20
185.78047434097459
 30
0.0
 40
0.1
  0
CIRCLE
  5
A736
  8
DANMEN
  6
CONTINUOUS
 10
317.20845535350531
 20
183.78047434097459
 30
0.0
 40
0.1
  0
CIRCLE
  5
A737
  8
DANMEN
  6
CONTINUOUS
 10
321.20845521387889
 20
185.7804746202273
 30
0.0
 40
0.1
  0
CIRCLE
  5
A738
  8
DANMEN
  6
CONTINUOUS
 10
321.20845535350531
 20
183.7804746202273
 30
0.0
 40
0.1
  0
CIRCLE
  5
A739
  8
DANMEN
  6
CONTINUOUS
 10
319.20845521387901
 20
185.7804744806009
 30
0.0
 40
0.1
  0
CIRCLE
  5
A73A
  8
DANMEN
  6
CONTINUOUS
 10
319.20845535350531
 20
183.7804744806009
 30
0.0
 40
0.1
  0
LINE
  5
A73B
  8
DANMEN
  6
CONTINUOUS
 10
323.20845542331841
 20
182.7804747598536
 30
0.0
 11
323.20845507425253
 21
187.7804747598536
 31
0.0
  0
LINE
  5
A73C
  8
DANMEN
  6
CONTINUOUS
 10
322.20845542331841
 20
182.78047469004039
 30
0.0
 11
322.20845507425253
 21
187.78047469004039
 31
0.0
  0
LINE
  5
A73D
  8
DANMEN
  6
CONTINUOUS
 10
330.38403037681121
 20
188.34009179740289
 30
0.0
 11
329.94364686729398
 21
188.7804752300587
 31
0.0
  0
ARC
  5
A73E
  8
DANMEN
  6
CONTINUOUS
 10
331.20845507425253
 20
187.78047531835901
 30
0.0
 40
1.0
 50
90.000004000000729
 51
179.99998599999981
  0
LINE
  5
A73F
  8
DANMEN
  6
CONTINUOUS
 10
330.20845533639658
 20
184.0255392842794
 30
0.0
 11
327.96339155249251
 21
181.78047510853779
 31
0.0
  0
ARC
  5
A740
  8
DANMEN
  6
CONTINUOUS
 10
329.70845549313162
 20
181.2804752485458
 30
0.0
 40
0.5
 50
0.0000360000000406
 51
90.000017999999187
  0
LINE
  5
A741
  8
DANMEN
  6
CONTINUOUS
 10
330.20845517966148
 20
186.2706033200129
 30
0.0
 11
325.71832761185362
 21
181.7804749685298
 31
0.0
  0
LINE
  5
A742
  8
DANMEN
  6
CONTINUOUS
 10
330.47326288799519
 20
188.78047526703281
 30
0.0
 11
323.47326367121451
 21
181.78047482852179
 31
0.0
  0
LINE
  5
A743
  8
DANMEN
  6
CONTINUOUS
 10
330.20845533639658
 20
184.02553920591191
 30
0.0
 11
325.45351879582682
 21
188.78047491658859
 31
0.0
  0
LINE
  5
A744
  8
DANMEN
  6
CONTINUOUS
 10
330.20845517966148
 20
186.27060316327791
 30
0.0
 11
327.69858283156037
 21
188.78047507332369
 31
0.0
  0
LINE
  5
A745
  8
DANMEN
  6
CONTINUOUS
 10
330.20845549313162
 20
181.7804752485458
 30
0.0
 11
330.20845507425258
 21
187.7804752485458
 31
0.0
  0
LINE
  5
A746
  8
DANMEN
  6
CONTINUOUS
 10
330.20845549313162
 20
181.7804752485458
 30
0.0
 11
323.20845476009328
 21
188.7804747598536
 31
0.0
  0
LINE
  5
A747
  8
DANMEN
  6
CONTINUOUS
 10
329.70845549313162
 20
181.7804752485458
 30
0.0
 11
315.70845549313162
 21
181.7804752485458
 31
0.0
  0
LINE
  5
A748
  8
DANMEN
  6
CONTINUOUS
 10
328.22819893062911
 20
188.78047511029791
 30
0.0
 11
323.20845535488371
 21
183.76073065844179
 31
0.0
  0
LINE
  5
A749
  8
DANMEN
  6
CONTINUOUS
 10
325.98313497326308
 20
188.78047495356279
 30
0.0
 11
323.20845519814861
 21
186.00579469417531
 31
0.0
  0
LINE
  5
A74A
  8
DANMEN
  6
CONTINUOUS
 10
327.96339144067099
 20
181.78047510853779
 30
0.0
 11
323.20845516117441
 21
186.53541055814151
 31
0.0
  0
LINE
  5
A74B
  8
DANMEN
  6
CONTINUOUS
 10
323.47326333574978
 20
181.78047482852179
 30
0.0
 11
323.03288001077931
 21
182.22085807663089
 31
0.0
  0
LINE
  5
A74C
  8
DANMEN
  6
CONTINUOUS
 10
325.71832738821041
 20
181.7804749685298
 30
0.0
 11
323.20845531790951
 21
184.29034660077539
 31
0.0
  0
ARC
  5
A74D
  8
DANMEN
  6
CONTINUOUS
 10
322.20845542331841
 20
182.78047469004039
 30
0.0
 40
1.0
 50
269.99998500000009
 51
0.0000219999999343
  0
LINE
  5
A74E
  8
DANMEN
  6
CONTINUOUS
 10
323.73807101589699
 20
188.7804747968278
 30
0.0
 11
323.13894702277861
 21
188.18135069914251
 31
0.0
  0
ARC
  5
A74F
  8
DANMEN
  6
CONTINUOUS
 10
322.20845507425253
 20
187.78047469004039
 30
0.0
 40
1.0
 50
0.0000219999999343
 51
90.000004000000729
  0
LINE
  5
A750
  8
DANMEN
  6
CONTINUOUS
 10
305.20845549313162
 20
181.78047350321651
 30
0.0
 11
330.20845549313162
 21
181.7804752485458
 31
0.0
  0
LINE
  5
A751
  8
DANMEN
  6
CONTINUOUS
 10
305.20845500443937
 20
188.7804735032166
 30
0.0
 11
331.20845500443937
 21
188.78047531835901
 31
0.0
  0
LINE
  5
A752
  8
DANMEN
  6
CONTINUOUS
 10
305.20845507425258
 20
187.7804735032166
 30
0.0
 11
322.20845507425253
 21
187.78047469004039
 31
0.0
  0
LINE
  5
A753
  8
DANMEN
  6
CONTINUOUS
 10
305.20845542331853
 20
182.7804735032166
 30
0.0
 11
322.20845542331841
 21
182.78047469004039
 31
0.0
  0
ARC
  5
A754
  8
DANMEN
  6
CONTINUOUS
 10
315.70845549313162
 20
181.2804752485458
 30
0.0
 40
0.5
 50
90.000017999999187
 51
180.0
  0
CIRCLE
  5
A755
  8
DANMEN
  6
CONTINUOUS
 10
315.20845521387901
 20
185.7804742013482
 30
0.0
 40
0.1
  0
CIRCLE
  5
A756
  8
DANMEN
  6
CONTINUOUS
 10
315.20845535350531
 20
183.7804742013482
 30
0.0
 40
0.1
  0
LINE
  5
A757
  8
DANMEN
  6
CONTINUOUS
 10
300.39259849313157
 20
158.59827924854579
 30
0.0
 11
301.52551849313147
 21
159.9713292485458
 31
0.0
  0
ARC
  5
A758
  8
DANMEN
  6
CONTINUOUS
 10
300.90846749313158
 20
160.48047224854579
 30
0.0
 40
0.8
 50
320.47367699999933
 51
90.000072999999873
  0
LINE
  5
A759
  8
DANMEN
  6
CONTINUOUS
 10
328.70845549313162
 20
180.48047224854579
 30
0.0
 11
315.70845549313162
 21
180.48047224854579
 31
0.0
  0
ARC
  5
A75A
  8
DANMEN
  6
CONTINUOUS
 10
315.70845549313162
 20
180.98047224854579
 30
0.0
 40
0.5
 50
180.0
 51
269.99998200000073
  0
LINE
  5
A75B
  8
DANMEN
  6
CONTINUOUS
 10
405.20845549313162
 20
199.7804752485458
 30
0.0
 11
315.20845549313162
 21
199.7804752485458
 31
0.0
  0
LINE
  5
A75C
  8
DANMEN
  6
CONTINUOUS
 10
405.20845549313162
 20
193.7804752485458
 30
0.0
 11
315.20845549313162
 21
193.7804752485458
 31
0.0
  0
LINE
  5
A75D
  8
DANMEN
  6
CONTINUOUS
 10
405.20845549313162
 20
188.7804752485458
 30
0.0
 11
315.20845549313162
 21
188.7804752485458
 31
0.0
  0
LINE
  5
A75E
  8
DANMEN
  6
CONTINUOUS
 10
405.20845549313162
 20
189.2804752485458
 30
0.0
 11
315.20845549313162
 21
189.2804752485458
 31
0.0
  0
LINE
  5
A75F
  8
DANMEN
  6
CONTINUOUS
 10
405.20845549313162
 20
193.2804752485458
 30
0.0
 11
315.20845549313162
 21
193.2804752485458
 31
0.0
  0
LINE
  5
A760
  8
DANMEN
  6
CONTINUOUS
 10
405.20845549313162
 20
200.2804752485458
 30
0.0
 11
315.20845549313162
 21
200.2804752485458
 31
0.0
  0
LINE
  5
A761
  8
DANMEN
  6
CONTINUOUS
 10
405.20845549313162
 20
181.7804752485458
 30
0.0
 11
330.20845549313162
 21
181.7804752485458
 31
0.0
  0
LINE
  5
A762
  8
DANMEN
  6
CONTINUOUS
 10
304.20845549313162
 20
215.98047224854579
 30
0.0
 11
304.20845549313162
 21
157.7804752485458
 31
0.0
  0
LINE
  5
A763
  8
DANMEN
  6
CONTINUOUS
 10
301.70845549313162
 20
212.20975124854581
 30
0.0
 11
301.70845549313162
 21
162.7804752485458
 31
0.0
  0
LINE
  5
A764
  8
DANMEN
  6
CONTINUOUS
 10
315.20845549313162
 20
204.7804752485458
 30
0.0
 11
315.20845549313162
 21
188.7804752485458
 31
0.0
  0
LINE
  5
A765
  8
DANMEN
  6
CONTINUOUS
 10
301.70845549313162
 20
162.7804752485458
 30
0.0
 11
280.70845549313162
 21
162.7804752485458
 31
0.0
  0
LINE
  5
A766
  8
DANMEN
  6
CONTINUOUS
 10
300.58653447716051
 20
158.83329310065531
 30
0.0
 11
298.16700334197839
 21
161.25282432029499
 31
0.0
  0
LINE
  5
A767
  8
DANMEN
  6
CONTINUOUS
 10
300.90846749313158
 20
161.2804752485458
 30
0.0
 11
298.30846149313157
 21
161.2804752485458
 31
0.0
  0
LINE
  5
A768
  8
SUNPO
  6
CONTINUOUS
 10
300.20845549313162
 20
241.7804752485458
 30
0.0
 11
280.20845549313162
 21
241.7804752485458
 31
0.0
  0
ARC
  5
A769
  8
DANMEN
  6
CONTINUOUS
 10
290.70845549313162
 20
147.07336724854579
 30
0.0
 40
0.5
 50
135.00005300000029
 51
180.0000549999998
  0
LINE
  5
A76A
  8
DANMEN
  6
CONTINUOUS
 10
293.20845549313162
 20
157.2804752485458
 30
0.0
 11
291.20845549313162
 21
157.2804752485458
 31
0.0
  0
LINE
  5
A76B
  8
DANMEN
  6
CONTINUOUS
 10
293.40846749313158
 20
157.2804752485458
 30
0.0
 11
293.20845549313162
 21
157.2804752485458
 31
0.0
  0
LINE
  5
A76C
  8
DANMEN
  6
CONTINUOUS
 10
292.34201249313162
 20
145.7304132485458
 30
0.0
 11
293.87490749313162
 21
146.83052624854579
 31
0.0
  0
LINE
  5
A76D
  8
DANMEN
  6
CONTINUOUS
 10
293.20845549313162
 20
148.2804752485458
 30
0.0
 11
291.20845549313162
 21
148.2804752485458
 31
0.0
  0
LINE
  5
A76E
  8
DANMEN
  6
CONTINUOUS
 10
293.40846749313158
 20
148.2804752485458
 30
0.0
 11
293.20845549313162
 21
148.2804752485458
 31
0.0
  0
ARC
  5
A76F
  8
DANMEN
  6
CONTINUOUS
 10
293.40846749313158
 20
147.48047224854579
 30
0.0
 40
0.8
 50
305.66598999999911
 51
90.000072999999873
  0
LINE
  5
A770
  8
DANMEN
  6
CONTINUOUS
 10
297.50845849313163
 20
145.7804752485458
 30
0.0
 11
296.90845249313162
 21
145.7804752485458
 31
0.0
  0
LINE
  5
A771
  8
DANMEN
  6
CONTINUOUS
 10
293.20845549313162
 20
157.2804752485458
 30
0.0
 11
293.20845549313162
 21
148.2804752485458
 31
0.0
  0
LINE
  5
A772
  8
DANMEN
  6
CONTINUOUS
 10
291.20845649313162
 20
148.2804742485458
 30
0.0
 11
290.35490249313148
 21
147.4269202485458
 31
0.0
  0
LINE
  5
A773
  8
DANMEN
  6
CONTINUOUS
 10
292.65693840222741
 20
144.3122490950478
 30
0.0
 11
292.01663245780958
 21
144.9525550618165
 31
0.0
  0
LINE
  5
A774
  8
DANMEN
  6
CONTINUOUS
 10
297.80846149313157
 20
144.7804752485458
 30
0.0
 11
297.80846149313157
 21
145.48047224854579
 31
0.0
  0
ARC
  5
A775
  8
DANMEN
  6
CONTINUOUS
 10
298.30846149313157
 20
144.7804752485458
 30
0.0
 40
0.5
 50
180.0
 51
269.99998200000073
  0
LINE
  5
A776
  8
DANMEN
  6
CONTINUOUS
 10
296.60844949313162
 20
144.7804752485458
 30
0.0
 11
296.60844949313162
 21
145.48047224854579
 31
0.0
  0
ARC
  5
A777
  8
DANMEN
  6
CONTINUOUS
 10
296.10844949313162
 20
144.7804752485458
 30
0.0
 40
0.5
 50
269.99999900000017
 51
0.0000360000000406
  0
LINE
  5
A778
  8
DANMEN
  6
CONTINUOUS
 10
296.10844949313162
 20
144.2804752485458
 30
0.0
 11
292.80846149313157
 21
144.2804752485458
 31
0.0
  0
ARC
  5
A779
  8
DANMEN
  6
CONTINUOUS
 10
292.20845549313162
 20
144.48047224854579
 30
0.0
 40
2.0
 50
180.0
 51
269.99998200000073
  0
ARC
  5
A77A
  8
DANMEN
  6
CONTINUOUS
 10
297.50845849313163
 20
145.48047224854579
 30
0.0
 40
0.3
 50
0.0000360000000406
 51
90.000017999999187
  0
LINE
  5
A77B
  8
DANMEN
  6
CONTINUOUS
 10
296.60844938961588
 20
144.85086604119269
 30
0.0
 11
294.17761543198361
 21
147.28170008367709
 31
0.0
  0
LINE
  5
A77C
  8
DANMEN
  6
CONTINUOUS
 10
290.20845549313162
 20
147.07336724854579
 30
0.0
 11
290.20845549313162
 21
144.48047224854579
 31
0.0
  0
ARC
  5
A77D
  8
DANMEN
  6
CONTINUOUS
 10
292.80846149313157
 20
145.08046324854581
 30
0.0
 40
0.8
 50
125.6659539999994
 51
270.00003699999968
  0
ARC
  5
A77E
  8
DANMEN
  6
CONTINUOUS
 10
296.90845249313162
 20
145.48047224854579
 30
0.0
 40
0.3
 50
90.000017999999187
 51
180.0
  0
LINE
  5
A77F
  8
DANMEN
  6
CONTINUOUS
 10
291.30846149313157
 20
126.7804752485458
 30
0.0
 11
290.70845549313162
 21
126.7804752485458
 31
0.0
  0
ARC
  5
A780
  8
DANMEN
  6
CONTINUOUS
 10
291.30846149313157
 20
126.2804752485458
 30
0.0
 40
0.5
 50
0.0000360000000406
 51
90.000017999999187
  0
ARC
  5
A781
  8
DANMEN
  6
CONTINUOUS
 10
290.70845549313162
 20
126.2804752485458
 30
0.0
 40
0.5
 50
90.000017999999187
 51
180.0
  0
ARC
  5
A782
  8
DANMEN
  6
CONTINUOUS
 10
290.70845549313162
 20
118.2804752485458
 30
0.0
 40
0.5
 50
180.0
 51
269.99998200000073
  0
LINE
  5
A783
  8
DANMEN
  6
CONTINUOUS
 10
290.20845549313162
 20
126.2804752485458
 30
0.0
 11
290.20845549313162
 21
118.2804752485458
 31
0.0
  0
LINE
  5
A784
  8
DANMEN
  6
CONTINUOUS
 10
291.80846149313157
 20
126.2804752485458
 30
0.0
 11
291.80846149313157
 21
119.4804752485458
 31
0.0
  0
POLYLINE
  5
A785
  8
SUNPO
  6
BYBLOCK
 66
     1
 10
0.0
 20
0.0
 30
0.0
 70
     1
 40
1.159999999999999
 41
1.159999999999999
  0
VERTEX
  5
AF75
  8
SUNPO
  6
BYBLOCK
 10
290.35345549313149
 20
100.7804752485458
 30
0.0
 42
-1.0
  0
VERTEX
  5
AF76
  8
SUNPO
  6
BYBLOCK
 10
290.06345549313158
 20
100.7804752485458
 30
0.0
 42
-1.0
  0
SEQEND
  5
AF77
  8
SUNPO
  6
BYBLOCK
  0
POLYLINE
  5
A786
  8
SUNPO
  6
BYBLOCK
 66
     1
 10
0.0
 20
0.0
 30
0.0
 70
     1
 40
1.159999999999999
 41
1.159999999999999
  0
VERTEX
  5
AF78
  8
SUNPO
  6
BYBLOCK
 10
280.35345549313149
 20
80.780475248545883
 30
0.0
 42
-1.0
  0
VERTEX
  5
AF79
  8
SUNPO
  6
BYBLOCK
 10
280.06345549313153
 20
80.780475248545883
 30
0.0
 42
-1.0
  0
SEQEND
  5
AF7A
  8
SUNPO
  6
BYBLOCK
  0
POLYLINE
  5
A787
  8
SUNPO
  6
BYBLOCK
 66
     1
 10
0.0
 20
0.0
 30
0.0
 70
     1
 40
1.159999999999999
 41
1.159999999999999
  0
VERTEX
  5
AF7B
  8
SUNPO
  6
BYBLOCK
 10
290.35345549313149
 20
80.780475248545883
 30
0.0
 42
-1.0
  0
VERTEX
  5
AF7C
  8
SUNPO
  6
BYBLOCK
 10
290.06345549313153
 20
80.780475248545883
 30
0.0
 42
-1.0
  0
SEQEND
  5
AF7D
  8
SUNPO
  6
BYBLOCK
  0
TEXT
  5
A788
  8
SUNPO
  6
CONTINUOUS
 10
283.42282190943558
 20
81.280475248545855
 30
0.0
 40
2.5
  1
10
 41
1.3500000000000001
  7
MX_DIMTXSTY_4
  0
LINE
  5
A789
  8
SUNPO
  6
CONTINUOUS
 10
290.20845549313151
 20
80.780475248545883
 30
0.0
 11
280.20845549313151
 21
80.780475248545883
 31
0.0
  0
LINE
  5
A78A
  8
SUNPO
  6
CONTINUOUS
 10
290.20845549313162
 20
116.2804752485458
 30
0.0
 11
290.20845549313151
 21
79.780475248545869
 31
0.0
  0
LINE
  5
A78B
  8
DANMEN
  6
CONTINUOUS
 10
303.70845549313162
 20
157.2804752485458
 30
0.0
 11
301.01375349313162
 21
157.2804752485458
 31
0.0
  0
LINE
  5
A78C
  8
DANMEN
  6
CONTINUOUS
 10
304.20845549313162
 20
155.21137195825531
 30
0.0
 11
302.13935227506641
 21
157.2804752485458
 31
0.0
  0
ARC
  5
A78D
  8
DANMEN
  6
CONTINUOUS
 10
301.01375349313162
 20
147.4751772485458
 30
0.0
 40
0.805288
 50
90.000017999999187
 51
219.5264139999999
  0
ARC
  5
A78E
  8
DANMEN
  6
CONTINUOUS
 10
303.70845549313162
 20
147.7804752485458
 30
0.0
 40
0.5
 50
0.0000360000000406
 51
90.000017999999187
  0
LINE
  5
A78F
  8
DANMEN
  6
CONTINUOUS
 10
303.70845549313162
 20
148.2804752485458
 30
0.0
 11
301.01375349313162
 21
148.2804752485458
 31
0.0
  0
ARC
  5
A790
  8
DANMEN
  6
CONTINUOUS
 10
300.90846749313158
 20
145.08046324854581
 30
0.0
 40
0.8
 50
269.99999900000017
 51
39.526450000000459
  0
ARC
  5
A791
  8
DANMEN
  6
CONTINUOUS
 10
301.20845549313162
 20
141.48047224854579
 30
0.0
 40
1.0
 50
0.0000360000000406
 51
90.000017999999187
  0
ARC
  5
A792
  8
DANMEN
  6
CONTINUOUS
 10
305.60846449313158
 20
140.7804752485458
 30
0.0
 40
0.5
 50
180.0
 51
269.99998200000073
  0
LINE
  5
A793
  8
DANMEN
  6
CONTINUOUS
 10
306.40846749313158
 20
143.7804752485458
 30
0.0
 11
306.40846749313158
 21
140.7804752485458
 31
0.0
  0
LINE
  5
A794
  8
DANMEN
  6
CONTINUOUS
 10
305.90846749313158
 20
140.2804752485458
 30
0.0
 11
305.60846449313158
 21
140.2804752485458
 31
0.0
  0
ARC
  5
A795
  8
DANMEN
  6
CONTINUOUS
 10
305.90846749313158
 20
140.7804752485458
 30
0.0
 40
0.5
 50
269.99998200000073
 51
0.0000189999997952
  0
LINE
  5
A796
  8
DANMEN
  6
CONTINUOUS
 10
304.20845549313162
 20
144.7804752485458
 30
0.0
 11
304.20845549313162
 21
143.98047224854579
 31
0.0
  0
LINE
  5
A797
  8
DANMEN
  6
CONTINUOUS
 10
305.10846449313158
 20
143.98047224854579
 30
0.0
 11
305.10846449313158
 21
140.7804752485458
 31
0.0
  0
LINE
  5
A798
  8
DANMEN
  6
CONTINUOUS
 10
305.10846449313158
 20
143.98047224854579
 30
0.0
 11
304.20845549313162
 21
143.98047224854579
 31
0.0
  0
ARC
  5
A799
  8
DANMEN
  6
CONTINUOUS
 10
304.70845549313162
 20
144.7804752485458
 30
0.0
 40
0.5
 50
90.000017999999187
 51
180.0
  0
LINE
  5
A79A
  8
DANMEN
  6
CONTINUOUS
 10
306.70845549313162
 20
139.7804752485458
 30
0.0
 11
304.20845549313162
 21
139.7804752485458
 31
0.0
  0
LINE
  5
A79B
  8
DANMEN
  6
CONTINUOUS
 10
306.70845549313162
 20
142.7804752485458
 30
0.0
 11
306.70845549313162
 21
139.7804752485458
 31
0.0
  0
ARC
  5
A79C
  8
DANMEN
  6
CONTINUOUS
 10
309.70845549313162
 20
141.2804752485458
 30
0.0
 40
1.0
 50
180.0
 51
269.99998200000073
  0
LINE
  5
A79D
  8
DANMEN
  6
CONTINUOUS
 10
310.20845549313162
 20
144.08046324854581
 30
0.0
 11
310.20845549313162
 21
141.7804752485458
 31
0.0
  0
LINE
  5
A79E
  8
DANMEN
  6
CONTINUOUS
 10
307.70845549313162
 20
143.2804752485458
 30
0.0
 11
307.20845549313162
 21
143.2804752485458
 31
0.0
  0
ARC
  5
A79F
  8
DANMEN
  6
CONTINUOUS
 10
307.70845549313162
 20
142.7804752485458
 30
0.0
 40
0.5
 50
0.0000360000000406
 51
90.000017999999187
  0
LINE
  5
A7A0
  8
DANMEN
  6
CONTINUOUS
 10
308.70845549313162
 20
143.7804752485458
 30
0.0
 11
308.70845549313162
 21
141.2804752485458
 31
0.0
  0
LINE
  5
A7A1
  8
DANMEN
  6
CONTINUOUS
 10
314.20845549313162
 20
144.7804752485458
 30
0.0
 11
314.20845549313162
 21
144.08046324854581
 31
0.0
  0
ARC
  5
A7A2
  8
DANMEN
  6
CONTINUOUS
 10
314.70845549313162
 20
144.7804752485458
 30
0.0
 40
0.5
 50
90.000017999999187
 51
180.0
  0
LINE
  5
A7A3
  8
DANMEN
  6
CONTINUOUS
 10
311.20845549313162
 20
144.7804752485458
 30
0.0
 11
311.20845549313162
 21
144.08046324854581
 31
0.0
  0
LINE
  5
A7A4
  8
DANMEN
  6
CONTINUOUS
 10
311.20845549313162
 20
144.08046324854581
 30
0.0
 11
310.20845549313162
 21
144.08046324854581
 31
0.0
  0
ARC
  5
A7A5
  8
DANMEN
  6
CONTINUOUS
 10
310.70845549313162
 20
144.7804752485458
 30
0.0
 40
0.5
 50
0.0000360000000406
 51
90.000017999999187
  0
ARC
  5
A7A6
  8
DANMEN
  6
CONTINUOUS
 10
307.20845549313162
 20
139.2804752485458
 30
0.0
 40
1.0
 50
269.99998200000073
 51
0.0000189999997952
  0
LINE
  5
A7A7
  8
DANMEN
  6
CONTINUOUS
 10
308.20845549313162
 20
142.7804752485458
 30
0.0
 11
308.20845549313162
 21
139.2804752485458
 31
0.0
  0
LINE
  5
A7A8
  8
DANMEN
  6
CONTINUOUS
 10
307.20845549313162
 20
138.2804752485458
 30
0.0
 11
304.20845549313162
 21
138.2804752485458
 31
0.0
  0
LINE
  5
A7A9
  8
DANMEN
  6
CONTINUOUS
 10
310.70845549313162
 20
145.2804752485458
 30
0.0
 11
304.70845549313162
 21
145.2804752485458
 31
0.0
  0
ARC
  5
A7AA
  8
DANMEN
  6
CONTINUOUS
 10
307.20845549313162
 20
142.7804752485458
 30
0.0
 40
0.5
 50
90.000017999999187
 51
180.0
  0
LINE
  5
A7AB
  8
DANMEN
  6
CONTINUOUS
 10
308.70845549313162
 20
143.7804752485458
 30
0.0
 11
306.40846749313158
 21
143.7804752485458
 31
0.0
  0
LINE
  5
A7AC
  8
DANMEN
  6
CONTINUOUS
 10
304.20845549313162
 20
147.7804752485458
 30
0.0
 11
304.20845549313162
 21
139.7804752485458
 31
0.0
  0
LINE
  5
A7AD
  8
DANMEN
  6
CONTINUOUS
 10
300.39260649313161
 20
146.96266624854579
 30
0.0
 11
301.52552649313162
 21
145.58961624854581
 31
0.0
  0
LINE
  5
A7AE
  8
DANMEN
  6
CONTINUOUS
 10
315.20845549313162
 20
144.08046324854581
 30
0.0
 11
315.20845549313162
 21
141.7804752485458
 31
0.0
  0
LINE
  5
A7AF
  8
DANMEN
  6
CONTINUOUS
 10
316.70845549313162
 20
143.7804752485458
 30
0.0
 11
316.70845549313162
 21
141.2804752485458
 31
0.0
  0
ARC
  5
A7B0
  8
DANMEN
  6
CONTINUOUS
 10
315.70845549313162
 20
141.2804752485458
 30
0.0
 40
1.0
 50
269.99998200000073
 51
0.0000189999997952
  0
ARC
  5
A7B1
  8
DANMEN
  6
CONTINUOUS
 10
327.70845549313162
 20
142.7804752485458
 30
0.0
 40
1.0
 50
0.0000360000000406
 51
90.000017999999187
  0
LINE
  5
A7B2
  8
DANMEN
  6
CONTINUOUS
 10
327.70845549313162
 20
143.7804752485458
 30
0.0
 11
316.70845549313162
 21
143.7804752485458
 31
0.0
  0
ARC
  5
A7B3
  8
DANMEN
  6
CONTINUOUS
 10
327.70845549313162
 20
146.2804752485458
 30
0.0
 40
1.0
 50
269.99998200000073
 51
0.0000189999997952
  0
LINE
  5
A7B4
  8
DANMEN
  6
CONTINUOUS
 10
315.20845549313162
 20
141.7804752485458
 30
0.0
 11
310.20845549313162
 21
141.7804752485458
 31
0.0
  0
LINE
  5
A7B5
  8
DANMEN
  6
CONTINUOUS
 10
315.70845549313162
 20
140.2804752485458
 30
0.0
 11
309.70845549313162
 21
140.2804752485458
 31
0.0
  0
LINE
  5
A7B6
  8
DANMEN
  6
CONTINUOUS
 10
328.70845549313162
 20
156.7804752485458
 30
0.0
 11
310.20845549313162
 21
156.7804752485458
 31
0.0
  0
LINE
  5
A7B7
  8
DANMEN
  6
CONTINUOUS
 10
327.70845549313162
 20
145.2804752485458
 30
0.0
 11
314.70845549313162
 21
145.2804752485458
 31
0.0
  0
LINE
  5
A7B8
  8
DANMEN
  6
CONTINUOUS
 10
315.20845549313162
 20
144.08046324854581
 30
0.0
 11
314.20845549313162
 21
144.08046324854581
 31
0.0
  0
LINE
  5
A7B9
  8
DANMEN
  6
CONTINUOUS
 10
306.90846749313158
 20
126.7804752485458
 30
0.0
 11
305.00845849313163
 21
126.7804752485458
 31
0.0
  0
LINE
  5
A7BA
  8
DANMEN
  6
CONTINUOUS
 10
306.90846749313158
 20
126.7804752485458
 30
0.0
 11
306.90846749313158
 21
125.4804752485458
 31
0.0
  0
LINE
  5
A7BB
  8
DANMEN
  6
CONTINUOUS
 10
304.50845849313163
 20
127.5804752485458
 30
0.0
 11
304.50845849313163
 21
127.2804752485458
 31
0.0
  0
ARC
  5
A7BC
  8
DANMEN
  6
CONTINUOUS
 10
305.00845849313163
 20
127.5804752485458
 30
0.0
 40
0.5
 50
90.000017999999187
 51
180.0
  0
ARC
  5
A7BD
  8
DANMEN
  6
CONTINUOUS
 10
305.00845849313163
 20
127.2804752485458
 30
0.0
 40
0.5
 50
180.0
 51
269.99998200000073
  0
LINE
  5
A7BE
  8
DANMEN
  6
CONTINUOUS
 10
309.70845549313162
 20
126.7804752485458
 30
0.0
 11
308.50845849313163
 21
126.7804752485458
 31
0.0
  0
LINE
  5
A7BF
  8
DANMEN
  6
CONTINUOUS
 10
310.70845549313162
 20
126.7804752485458
 30
0.0
 11
308.20845549313162
 21
126.7804752485458
 31
0.0
  0
ARC
  5
A7C0
  8
DANMEN
  6
CONTINUOUS
 10
309.70845549313162
 20
126.2804752485458
 30
0.0
 40
0.5
 50
0.0000360000000406
 51
90.000017999999187
  0
LINE
  5
A7C1
  8
DANMEN
  6
CONTINUOUS
 10
310.20845549313162
 20
123.7804752485458
 30
0.0
 11
310.20845549313162
 21
122.7804752485458
 31
0.0
  0
LINE
  5
A7C2
  8
DANMEN
  6
CONTINUOUS
 10
310.70845549313162
 20
126.7804752485458
 30
0.0
 11
310.70845549313162
 21
124.2804752485458
 31
0.0
  0
ARC
  5
A7C3
  8
DANMEN
  6
CONTINUOUS
 10
310.70845549313162
 20
123.7804752485458
 30
0.0
 40
0.5
 50
90.000017999999187
 51
180.0
  0
LINE
  5
A7C4
  8
DANMEN
  6
CONTINUOUS
 10
308.20845549313162
 20
124.9804752485458
 30
0.0
 11
307.40846749313158
 21
124.9804752485458
 31
0.0
  0
LINE
  5
A7C5
  8
DANMEN
  6
CONTINUOUS
 10
308.20845549313162
 20
126.7804752485458
 30
0.0
 11
308.20845549313162
 21
124.9804752485458
 31
0.0
  0
LINE
  5
A7C6
  8
DANMEN
  6
CONTINUOUS
 10
312.00845849313163
 20
127.0804752485458
 30
0.0
 11
312.00845849313163
 21
124.2804752485458
 31
0.0
  0
ARC
  5
A7C7
  8
DANMEN
  6
CONTINUOUS
 10
311.00845849313163
 20
127.0804752485458
 30
0.0
 40
1.0
 50
0.0000360000000406
 51
90.000017999999187
  0
LINE
  5
A7C8
  8
DANMEN
  6
CONTINUOUS
 10
310.20845549313162
 20
128.2804752485458
 30
0.0
 11
310.20845549313162
 21
128.0804782485458
 31
0.0
  0
LINE
  5
A7C9
  8
DANMEN
  6
CONTINUOUS
 10
311.00845849313163
 20
128.08047524854581
 30
0.0
 11
305.00845849313163
 21
128.08047524854581
 31
0.0
  0
LINE
  5
A7CA
  8
DANMEN
  6
CONTINUOUS
 10
308.50845849313163
 20
122.7804752485458
 30
0.0
 11
304.20845549313162
 21
122.7804752485458
 31
0.0
  0
ARC
  5
A7CB
  8
DANMEN
  6
CONTINUOUS
 10
307.40846749313158
 20
125.4804752485458
 30
0.0
 40
0.5
 50
180.0
 51
269.99998200000073
  0
ARC
  5
A7CC
  8
DANMEN
  6
CONTINUOUS
 10
301.20845549313162
 20
120.4804752485458
 30
0.0
 40
1.0
 50
269.99998200000073
 51
0.0000189999997952
  0
ARC
  5
A7CD
  8
DANMEN
  6
CONTINUOUS
 10
309.70845549313162
 20
118.2804752485458
 30
0.0
 40
0.5
 50
269.99998200000073
 51
0.0000189999997952
  0
LINE
  5
A7CE
  8
DANMEN
  6
CONTINUOUS
 10
308.50845849313163
 20
119.4804752485458
 30
0.0
 11
304.20845549313162
 21
119.4804752485458
 31
0.0
  0
LINE
  5
A7CF
  8
DANMEN
  6
CONTINUOUS
 10
310.20845549313162
 20
126.2804752485458
 30
0.0
 11
310.20845549313162
 21
118.2804752485458
 31
0.0
  0
LINE
  5
A7D0
  8
DANMEN
  6
CONTINUOUS
 10
308.50845849313163
 20
126.7804752485458
 30
0.0
 11
308.50845849313163
 21
119.4804752485458
 31
0.0
  0
ARC
  5
A7D1
  8
DANMEN
  6
CONTINUOUS
 10
329.70845549313162
 20
123.2804752485458
 30
0.0
 40
0.5
 50
269.99998200000073
 51
0.0000189999997952
  0
LINE
  5
A7D2
  8
DANMEN
  6
CONTINUOUS
 10
329.70845549313162
 20
122.7804752485458
 30
0.0
 11
310.20845549313162
 21
122.7804752485458
 31
0.0
  0
LINE
  5
A7D3
  8
DANMEN
  6
CONTINUOUS
 10
328.70845549313162
 20
124.2804752485458
 30
0.0
 11
312.00845849313163
 21
124.2804752485458
 31
0.0
  0
LINE
  5
A7D4
  8
DANMEN
  6
CONTINUOUS
 10
328.70845549313162
 20
128.2804752485458
 30
0.0
 11
310.20845549313162
 21
128.2804752485458
 31
0.0
  0
LINE
  5
A7D5
  8
DANMEN
  6
CONTINUOUS
 10
331.20845549313162
 20
156.7804752485458
 30
0.0
 11
331.20845549313162
 21
128.2804752485458
 31
0.0
  0
LINE
  5
A7D6
  8
DANMEN
  6
CONTINUOUS
 10
302.20845549313162
 20
141.48047224854579
 30
0.0
 11
302.20845549313162
 21
120.4804752485458
 31
0.0
  0
LINE
  5
A7D7
  8
DANMEN
  6
CONTINUOUS
 10
304.20845549313162
 20
138.2804752485458
 30
0.0
 11
304.20845549313162
 21
119.4804752485458
 31
0.0
  0
LINE
  5
A7D8
  8
DANMEN
  6
CONTINUOUS
 10
328.70845549313162
 20
142.7804752485458
 30
0.0
 11
328.70845549313162
 21
124.2804752485458
 31
0.0
  0
LINE
  5
A7D9
  8
DANMEN
  6
CONTINUOUS
 10
405.20845549313162
 20
117.7804752485458
 30
0.0
 11
310.20845549313162
 21
117.7804752485458
 31
0.0
  0
LINE
  5
A7DA
  8
DANMEN
  6
CONTINUOUS
 10
405.20845549313162
 20
128.2804752485458
 30
0.0
 11
330.20845549313162
 21
128.2804752485458
 31
0.0
  0
LINE
  5
A7DB
  8
DANMEN
  6
CONTINUOUS
 10
405.20845549313162
 20
122.7804752485458
 30
0.0
 11
330.20845549313162
 21
122.7804752485458
 31
0.0
  0
LINE
  5
A7DC
  8
DANMEN
  6
CONTINUOUS
 10
405.20845549313162
 20
156.7804752485458
 30
0.0
 11
330.20845549313162
 21
156.7804752485458
 31
0.0
  0
POLYLINE
  5
A7DD
  8
SUNPO
  6
BYBLOCK
 66
     1
 10
0.0
 20
0.0
 30
0.0
 70
     1
 40
1.159999999999999
 41
1.159999999999999
  0
VERTEX
  5
AF7E
  8
SUNPO
  6
BYBLOCK
 10
310.35345549313161
 20
100.7804752485458
 30
0.0
 42
-1.0
  0
VERTEX
  5
AF7F
  8
SUNPO
  6
BYBLOCK
 10
310.06345549313153
 20
100.7804752485458
 30
0.0
 42
-1.0
  0
SEQEND
  5
AF80
  8
SUNPO
  6
BYBLOCK
  0
TEXT
  5
A7DE
  8
SUNPO
  6
CONTINUOUS
 10
317.01939229118119
 20
101.2804752485458
 30
0.0
 40
2.5
  1
20
 41
1.1000000000000001
  7
MX_DIMTXSTY_2
  0
POLYLINE
  5
A7DF
  8
SUNPO
  6
BYBLOCK
 66
     1
 10
0.0
 20
0.0
 30
0.0
 70
     1
 40
1.159999999999999
 41
1.159999999999999
  0
VERTEX
  5
AF81
  8
SUNPO
  6
BYBLOCK
 10
330.06345549313158
 20
100.7804752485458
 30
0.0
 42
-1.0
  0
VERTEX
  5
AF82
  8
SUNPO
  6
BYBLOCK
 10
330.35345549313149
 20
100.7804752485458
 30
0.0
 42
-1.0
  0
SEQEND
  5
AF83
  8
SUNPO
  6
BYBLOCK
  0
LINE
  5
A7E0
  8
SUNPO
  6
CONTINUOUS
 10
330.20845549313151
 20
100.7804752485458
 30
0.0
 11
310.20845549313162
 21
100.7804752485458
 31
0.0
  0
TEXT
  5
A7E1
  8
SUNPO
  6
CONTINUOUS
 10
307.9106571289621
 20
81.280475248545855
 30
0.0
 40
2.5
  1
40
 41
1.1000000000000001
  7
MX_DIMTXSTY_2
  0
LINE
  5
A7E2
  8
SUNPO
  6
CONTINUOUS
 10
336.20845549313162
 20
86.780475248545855
 30
0.0
 11
336.20845549313162
 21
74.78046024854585
 31
0.0
  0
LINE
  5
A7E3
  8
SUNPO
  6
CONTINUOUS
 10
330.2084434931316
 20
80.780461248545848
 30
0.0
 11
336.20845049313158
 21
74.780454248545851
 31
0.0
  0
LINE
  5
A7E4
  8
SUNPO
  6
CONTINUOUS
 10
330.20845849313162
 20
80.780472248545834
 30
0.0
 11
336.20845449313163
 21
86.780467248545875
 31
0.0
  0
LINE
  5
A7E5
  8
SUNPO
  6
CONTINUOUS
 10
330.20845549313162
 20
121.2804752485458
 30
0.0
 11
330.20845549313151
 21
79.780475248545855
 31
0.0
  0
LINE
  5
A7E6
  8
SUNPO
  6
CONTINUOUS
 10
310.20845549313162
 20
116.2804752485458
 30
0.0
 11
310.20845549313162
 21
99.780475248545855
 31
0.0
  0
LINE
  5
A7E7
  8
SUNPO
  6
CONTINUOUS
 10
404.70845549313151
 20
80.780475248545841
 30
0.0
 11
330.20845549313151
 21
80.780475248545855
 31
0.0
  0
LINE
  5
A7E8
  8
SUNPO
  6
CONTINUOUS
 10
330.20845549313151
 20
80.780475248545855
 30
0.0
 11
290.20845549313151
 21
80.780475248545883
 31
0.0
  0
LINE
  5
A7E9
  8
SUNPO
  6
CONTINUOUS
 10
310.20845549313162
 20
100.7804752485458
 30
0.0
 11
290.20845549313162
 21
100.7804752485458
 31
0.0
  0
TEXT
  5
A7EA
  8
SUNPO
  6
CONTINUOUS
 10
296.2891803420689
 20
101.2804752485458
 30
0.0
 40
2.5
  1
20
 41
1.1000000000000001
  7
MX_DIMTXSTY_2
  0
LINE
  5
A7EB
  8
DANMEN
  6
CONTINUOUS
 10
301.45411582052259
 20
144.49532751260759
 30
0.0
 11
293.20845549313162
 21
152.74098812782631
 31
0.0
  0
LINE
  5
A7EC
  8
DANMEN
  6
CONTINUOUS
 10
302.15909613144299
 20
148.2804752485458
 30
0.0
 11
293.20845549313162
 21
157.2311161992935
 31
0.0
  0
LINE
  5
A7ED
  8
DANMEN
  6
CONTINUOUS
 10
309.70845549313162
 20
117.7804752485458
 30
0.0
 11
290.70845549313162
 21
117.7804752485458
 31
0.0
  0
LINE
  5
A7EE
  8
DANMEN
  6
CONTINUOUS
 10
301.20845549313162
 20
142.48047224854579
 30
0.0
 11
292.20845549313162
 21
142.48047224854579
 31
0.0
  0
LINE
  5
A7EF
  8
DANMEN
  6
CONTINUOUS
 10
301.20845549313162
 20
119.4804752485458
 30
0.0
 11
291.80846149313157
 21
119.4804752485458
 31
0.0
  0
LINE
  5
A7F0
  8
DANMEN
  6
CONTINUOUS
 10
300.90846749313158
 20
144.2804752485458
 30
0.0
 11
298.30846149313157
 21
144.2804752485458
 31
0.0
  0
LINE
  5
A7F1
  8
DANMEN
  6
CONTINUOUS
 10
304.20845549313162
 20
150.72124388678819
 30
0.0
 11
293.64923587109939
 21
161.2804638774067
 31
0.0
  0
LINE
  5
A7F2
  8
DANMEN
  6
CONTINUOUS
 10
291.20846149313161
 20
157.28046824854579
 30
0.0
 11
290.35490749313158
 21
158.13402224854579
 31
0.0
  0
ARC
  5
A7F3
  8
DANMEN
  6
CONTINUOUS
 10
293.40846749313158
 20
158.08046324854581
 30
0.0
 40
0.8
 50
269.99999900000017
 51
54.334135999999788
  0
ARC
  5
A7F4
  8
DANMEN
  6
CONTINUOUS
 10
303.70845549313162
 20
157.7804752485458
 30
0.0
 40
0.5
 50
269.99998200000073
 51
0.0000189999997952
  0
ARC
  5
A7F5
  8
DANMEN
  6
CONTINUOUS
 10
301.01375349313162
 20
158.0857582485458
 30
0.0
 40
0.805288
 50
140.47364100000081
 51
270.00003699999968
  0
LINE
  5
A7F6
  8
DANMEN
  6
CONTINUOUS
 10
304.20845549313162
 20
157.7804752485458
 30
0.0
 11
304.20845549313162
 21
147.7804752485458
 31
0.0
  0
LINE
  5
A7F7
  8
DANMEN
  6
CONTINUOUS
 10
330.20845549313162
 20
181.2804752485458
 30
0.0
 11
330.20845549313162
 21
123.2804752485458
 31
0.0
  0
LINE
  5
A7F8
  8
DANMEN
  6
CONTINUOUS
 10
328.70845549313162
 20
180.48047224854579
 30
0.0
 11
328.70845549313162
 21
146.2804752485458
 31
0.0
  0
LINE
  5
A7F9
  8
SUNPO
  6
CONTINUOUS
 10
280.20845549313162
 20
159.7804752485458
 30
0.0
 11
280.20845549313151
 21
79.780475248545869
 31
0.0
  0
LINE
  5
A7FA
  8
DANMEN
  6
CONTINUOUS
 10
310.20845549313162
 20
181.7804752485458
 30
0.0
 11
310.20845549313162
 21
156.7804752485458
 31
0.0
  0
LINE
  5
A7FB
  8
DANMEN
  6
CONTINUOUS
 10
131.7876853588331
 20
137.51566736499001
 30
0.0
 11
131.3538086478635
 21
137.9495440608145
 31
0.0
  0
LINE
  5
A7FC
  8
DANMEN
  6
CONTINUOUS
 10
131.7876853588331
 20
135.27060340762401
 30
0.0
 11
129.2778134303004
 21
137.7804752485458
 31
0.0
  0
LINE
  5
A7FD
  8
DANMEN
  6
CONTINUOUS
 10
131.7876853588331
 20
133.0255394502579
 30
0.0
 11
127.03274939456669
 21
137.7804752485458
 31
0.0
  0
LINE
  5
A7FE
  8
DANMEN
  6
CONTINUOUS
 10
131.7876853588331
 20
130.7804754928919
 30
0.0
 11
124.7876853588332
 21
137.7804752485458
 31
0.0
  0
LINE
  5
A7FF
  8
DANMEN
  6
CONTINUOUS
 10
129.54262156744579
 20
130.7804752485458
 30
0.0
 11
124.7876853755603
 21
135.53541127445271
 31
0.0
  0
LINE
  5
A800
  8
DANMEN
  6
CONTINUOUS
 10
127.2975575317121
 20
130.7804752485458
 30
0.0
 11
124.7876853922873
 21
133.2903473003596
 31
0.0
  0
LINE
  5
A801
  8
DANMEN
  6
CONTINUOUS
 10
125.22156162005589
 20
130.61140713037
 30
0.0
 11
124.7876854090142
 21
131.04528332626651
 31
0.0
  0
LINE
  5
A802
  8
DANMEN
  6
CONTINUOUS
 10
131.1783844769067
 20
130.70079037529541
 30
0.0
 11
131.7876853588331
 21
131.31009127849049
 31
0.0
  0
LINE
  5
A803
  8
DANMEN
  6
CONTINUOUS
 10
129.01300539000951
 20
130.7804752485458
 30
0.0
 11
131.7876853588331
 21
133.55515531422401
 31
0.0
  0
LINE
  5
A804
  8
DANMEN
  6
CONTINUOUS
 10
126.7679414326436
 20
130.7804752485458
 30
0.0
 11
131.7876853588331
 21
135.80021934995759
 31
0.0
  0
LINE
  5
A805
  8
DANMEN
  6
CONTINUOUS
 10
124.7876854090142
 20
131.04528319152621
 30
0.0
 11
131.7876853588331
 21
138.04528338569119
 31
0.0
  0
LINE
  5
A806
  8
DANMEN
  6
CONTINUOUS
 10
124.7876853922873
 20
133.2903472105327
 30
0.0
 11
129.2778132735653
 21
137.7804752485458
 31
0.0
  0
LINE
  5
A807
  8
DANMEN
  6
CONTINUOUS
 10
124.7876853755603
 20
135.53541122953931
 30
0.0
 11
127.0327493161993
 21
137.7804752485458
 31
0.0
  0
LINE
  5
A808
  8
DANMEN
  6
CONTINUOUS
 10
131.7876853588331
 20
403.25085923708821
 30
0.0
 11
131.18856130297459
 21
403.8499832720334
 31
0.0
  0
LINE
  5
A809
  8
DANMEN
  6
CONTINUOUS
 10
131.7876853588331
 20
401.00579527972212
 30
0.0
 11
129.013005293155
 21
403.78047524854571
 31
0.0
  0
LINE
  5
A80A
  8
DANMEN
  6
CONTINUOUS
 10
131.7876853588331
 20
398.76073132235609
 30
0.0
 11
126.7679412574213
 21
403.78047524854571
 31
0.0
  0
LINE
  5
A80B
  8
DANMEN
  6
CONTINUOUS
 10
131.7876853588331
 20
396.51566736499001
 30
0.0
 11
124.7876854090142
 21
403.51566707046283
 31
0.0
  0
LINE
  5
A80C
  8
DANMEN
  6
CONTINUOUS
 10
129.2778134303004
 20
396.78047524854583
 30
0.0
 11
124.7876853922873
 21
401.27060312982383
 31
0.0
  0
LINE
  5
A80D
  8
DANMEN
  6
CONTINUOUS
 10
127.03274939456669
 20
396.78047524854583
 30
0.0
 11
124.7876853755603
 21
399.02553918918483
 31
0.0
  0
LINE
  5
A80E
  8
DANMEN
  6
CONTINUOUS
 10
131.34730189543279
 20
396.60489990691849
 30
0.0
 11
131.7876853588331
 21
397.04528338569099
 31
0.0
  0
LINE
  5
A80F
  8
DANMEN
  6
CONTINUOUS
 10
129.2778132735653
 20
396.78047524854583
 30
0.0
 11
131.7876853588331
 21
399.2903474214246
 31
0.0
  0
LINE
  5
A810
  8
DANMEN
  6
CONTINUOUS
 10
127.0327493161993
 20
396.78047524854583
 30
0.0
 11
131.7876853588331
 21
401.53541145715832
 31
0.0
  0
LINE
  5
A811
  8
DANMEN
  6
CONTINUOUS
 10
124.7876853588332
 20
396.78047524854583
 30
0.0
 11
131.7876853588331
 21
403.7804754928917
 31
0.0
  0
LINE
  5
A812
  8
DANMEN
  6
CONTINUOUS
 10
124.7876853755603
 20
399.02553930100629
 30
0.0
 11
129.542621157121
 21
403.78047524854571
 31
0.0
  0
LINE
  5
A813
  8
DANMEN
  6
CONTINUOUS
 10
124.7876853922873
 20
401.27060335346692
 30
0.0
 11
127.29755719975491
 21
403.78047524854571
 31
0.0
  0
LINE
  5
A814
  8
DANMEN
  6
CONTINUOUS
 10
124.7876854090142
 20
403.5156674059275
 30
0.0
 11
125.2280686878679
 21
403.95605070015353
 31
0.0
  0
LINE
  5
A815
  8
DANMEN
  6
CONTINUOUS
 10
152.54262132309961
 20
396.78047524854583
 30
0.0
 11
154.7876853421061
 21
399.02553918918483
 31
0.0
  0
LINE
  5
A816
  8
DANMEN
  6
CONTINUOUS
 10
150.297557287366
 20
396.78047524854583
 30
0.0
 11
154.7876853253791
 21
401.27060312982383
 31
0.0
  0
LINE
  5
A817
  8
DANMEN
  6
CONTINUOUS
 10
147.7876853588331
 20
396.51566736499001
 30
0.0
 11
154.7876853086521
 21
403.51566707046283
 31
0.0
  0
LINE
  5
A818
  8
DANMEN
  6
CONTINUOUS
 10
147.7876853588331
 20
398.76073132235598
 30
0.0
 11
152.80742946024509
 21
403.78047524854571
 31
0.0
  0
LINE
  5
A819
  8
DANMEN
  6
CONTINUOUS
 10
147.7876853588331
 20
401.00579527972212
 30
0.0
 11
150.5623654245114
 21
403.78047524854571
 31
0.0
  0
LINE
  5
A81A
  8
DANMEN
  6
CONTINUOUS
 10
147.7876853588331
 20
403.25085923708821
 30
0.0
 11
148.3868094146917
 21
403.8499832720334
 31
0.0
  0
LINE
  5
A81B
  8
DANMEN
  6
CONTINUOUS
 10
154.7876853086521
 20
403.5156674059275
 30
0.0
 11
154.34730202979841
 21
403.95605070015353
 31
0.0
  0
LINE
  5
A81C
  8
DANMEN
  6
CONTINUOUS
 10
154.7876853253791
 20
401.27060335346692
 30
0.0
 11
152.2778135179114
 21
403.78047524854571
 31
0.0
  0
LINE
  5
A81D
  8
DANMEN
  6
CONTINUOUS
 10
154.7876853421061
 20
399.0255393010064
 30
0.0
 11
150.03274956054531
 21
403.78047524854571
 31
0.0
  0
LINE
  5
A81E
  8
DANMEN
  6
CONTINUOUS
 10
154.7876853588331
 20
396.78047524854583
 30
0.0
 11
147.7876853588331
 21
403.7804754928917
 31
0.0
  0
LINE
  5
A81F
  8
DANMEN
  6
CONTINUOUS
 10
152.5426214014671
 20
396.78047524854583
 30
0.0
 11
147.7876853588331
 21
401.53541145715832
 31
0.0
  0
LINE
  5
A820
  8
DANMEN
  6
CONTINUOUS
 10
150.2975574441011
 20
396.78047524854583
 30
0.0
 11
147.7876853588333
 21
399.2903474214246
 31
0.0
  0
LINE
  5
A821
  8
DANMEN
  6
CONTINUOUS
 10
148.2280688222335
 20
396.60489990691849
 30
0.0
 11
147.7876853588331
 21
397.04528338569099
 31
0.0
  0
LINE
  5
A822
  8
DANMEN
  6
CONTINUOUS
 10
501.25806983606759
 20
204.78047570026379
 30
0.0
 11
501.85719382918609
 21
205.37959979794911
 31
0.0
  0
LINE
  5
A823
  8
DANMEN
  6
CONTINUOUS
 10
499.01300587870151
 20
204.78047554352881
 30
0.0
 11
501.78768565381603
 21
207.5551558029162
 31
0.0
  0
LINE
  5
A824
  8
DANMEN
  6
CONTINUOUS
 10
496.76794192133548
 20
204.7804753867938
 30
0.0
 11
501.78768549708099
 21
209.80021983864981
 31
0.0
  0
LINE
  5
A825
  8
DANMEN
  6
CONTINUOUS
 10
494.52287796396962
 20
204.7804752300587
 30
0.0
 11
501.52287718075007
 21
211.78047566856981
 31
0.0
  0
LINE
  5
A826
  8
DANMEN
  6
CONTINUOUS
 10
494.78768567230321
 20
207.2903471770787
 30
0.0
 11
499.27781324011107
 21
211.78047552856179
 31
0.0
  0
LINE
  5
A827
  8
DANMEN
  6
CONTINUOUS
 10
494.78768551556823
 20
209.53541121281219
 30
0.0
 11
497.03274929947207
 21
211.78047538855381
 31
0.0
  0
LINE
  5
A828
  8
DANMEN
  6
CONTINUOUS
 10
494.61211047515349
 20
205.2208586996887
 30
0.0
 11
495.05249398467072
 21
204.7804752670329
 31
0.0
  0
LINE
  5
A829
  8
DANMEN
  6
CONTINUOUS
 10
494.78768567230321
 20
207.29034733381371
 30
0.0
 11
497.29755802040421
 21
204.78047542376791
 31
0.0
  0
LINE
  5
A82A
  8
DANMEN
  6
CONTINUOUS
 10
494.78768551556823
 20
209.53541129117971
 30
0.0
 11
499.54262205613787
 21
204.78047558050301
 31
0.0
  0
LINE
  5
A82B
  8
DANMEN
  6
CONTINUOUS
 10
494.78768535883319
 20
211.7804752485458
 30
0.0
 11
501.78768609187131
 21
204.78047573723799
 31
0.0
  0
LINE
  5
A82C
  8
DANMEN
  6
CONTINUOUS
 10
497.03274941129371
 20
211.78047538855381
 30
0.0
 11
501.78768569079028
 21
207.02553993895009
 31
0.0
  0
LINE
  5
A82D
  8
DANMEN
  6
CONTINUOUS
 10
499.27781346375428
 20
211.78047552856179
 30
0.0
 11
501.7876855340553
 21
209.2706038963162
 31
0.0
  0
LINE
  5
A82E
  8
DANMEN
  6
CONTINUOUS
 10
501.52287751621492
 20
211.78047566856981
 30
0.0
 11
501.96326084118527
 21
211.34009242046071
 31
0.0
  0
LINE
  5
A82F
  8
DANMEN
  6
CONTINUOUS
 10
494.78768551556823
 20
184.02553928427929
 30
0.0
 11
497.03274929947207
 21
181.78047510853779
 31
0.0
  0
LINE
  5
A830
  8
DANMEN
  6
CONTINUOUS
 10
494.78768567230321
 20
186.2706033200129
 30
0.0
 11
499.27781324011107
 21
181.7804749685298
 31
0.0
  0
LINE
  5
A831
  8
DANMEN
  6
CONTINUOUS
 10
494.52287796396962
 20
188.78047526703281
 30
0.0
 11
501.52287718075007
 21
181.78047482852179
 31
0.0
  0
LINE
  5
A832
  8
DANMEN
  6
CONTINUOUS
 10
496.76794192133548
 20
188.7804751102978
 30
0.0
 11
501.78768549708099
 21
183.7607306584417
 31
0.0
  0
LINE
  5
A833
  8
DANMEN
  6
CONTINUOUS
 10
499.01300587870151
 20
188.78047495356279
 30
0.0
 11
501.78768565381603
 21
186.00579469417531
 31
0.0
  0
LINE
  5
A834
  8
DANMEN
  6
CONTINUOUS
 10
501.25806983606759
 20
188.78047479682769
 30
0.0
 11
501.85719382918609
 21
188.1813506991424
 31
0.0
  0
LINE
  5
A835
  8
DANMEN
  6
CONTINUOUS
 10
501.52287751621492
 20
181.7804748285217
 30
0.0
 11
501.96326084118527
 21
182.2208580766308
 31
0.0
  0
LINE
  5
A836
  8
DANMEN
  6
CONTINUOUS
 10
499.27781346375428
 20
181.78047496852969
 30
0.0
 11
501.78768553405519
 21
184.29034660077539
 31
0.0
  0
LINE
  5
A837
  8
DANMEN
  6
CONTINUOUS
 10
497.03274941129371
 20
181.78047510853779
 30
0.0
 11
501.78768569079028
 21
186.53541055814139
 31
0.0
  0
LINE
  5
A838
  8
DANMEN
  6
CONTINUOUS
 10
494.78768535883319
 20
181.7804752485458
 30
0.0
 11
501.78768609187131
 21
188.7804747598536
 31
0.0
  0
LINE
  5
A839
  8
DANMEN
  6
CONTINUOUS
 10
494.78768551556823
 20
184.0255392059118
 30
0.0
 11
499.54262205613787
 21
188.78047491658859
 31
0.0
  0
LINE
  5
A83A
  8
DANMEN
  6
CONTINUOUS
 10
494.78768567230321
 20
186.27060316327791
 30
0.0
 11
497.29755802040421
 21
188.7804750733236
 31
0.0
  0
LINE
  5
A83B
  8
DANMEN
  6
CONTINUOUS
 10
494.61211047515349
 20
188.34009179740289
 30
0.0
 11
495.05249398467072
 21
188.7804752300587
 31
0.0
  0
LINE
  5
A83C
  8
DANMEN
  6
CONTINUOUS
 10
454.78768520209809
 20
409.53541121281222
 30
0.0
 11
452.54262141819407
 21
411.78047538855373
 31
0.0
  0
LINE
  5
A83D
  8
DANMEN
  6
CONTINUOUS
 10
454.78768504536311
 20
407.29034717707867
 30
0.0
 11
450.29755747755502
 21
411.78047552856179
 31
0.0
  0
LINE
  5
A83E
  8
DANMEN
  6
CONTINUOUS
 10
455.0524927536967
 20
404.7804752300587
 30
0.0
 11
448.05249353691602
 21
411.78047566856958
 31
0.0
  0
LINE
  5
A83F
  8
DANMEN
  6
CONTINUOUS
 10
452.80742879633061
 20
404.78047538679368
 30
0.0
 11
447.7876852205851
 21
409.80021983864981
 31
0.0
  0
LINE
  5
A840
  8
DANMEN
  6
CONTINUOUS
 10
450.56236483896458
 20
404.78047554352878
 30
0.0
 11
447.78768506385018
 21
407.5551558029162
 31
0.0
  0
LINE
  5
A841
  8
DANMEN
  6
CONTINUOUS
 10
448.31730088159861
 20
404.78047570026382
 30
0.0
 11
447.71817688848012
 21
405.37959979794908
 31
0.0
  0
LINE
  5
A842
  8
DANMEN
  6
CONTINUOUS
 10
448.05249320145123
 20
411.78047566856981
 30
0.0
 11
447.61210987648082
 21
411.34009242046062
 31
0.0
  0
LINE
  5
A843
  8
DANMEN
  6
CONTINUOUS
 10
450.29755725391198
 20
411.78047552856179
 30
0.0
 11
447.7876851836109
 21
409.270603896316
 31
0.0
  0
LINE
  5
A844
  8
DANMEN
  6
CONTINUOUS
 10
452.5426213063725
 20
411.78047538855373
 30
0.0
 11
447.78768502687598
 21
407.02553993895009
 31
0.0
  0
LINE
  5
A845
  8
DANMEN
  6
CONTINUOUS
 10
454.78768535883319
 20
411.78047524854571
 30
0.0
 11
447.7876846257949
 21
404.78047573723802
 31
0.0
  0
LINE
  5
A846
  8
DANMEN
  6
CONTINUOUS
 10
454.78768520209809
 20
409.53541129117963
 30
0.0
 11
450.03274866152839
 21
404.78047558050298
 31
0.0
  0
LINE
  5
A847
  8
DANMEN
  6
CONTINUOUS
 10
454.78768504536311
 20
407.2903473338136
 30
0.0
 11
452.27781269726188
 21
404.78047542376788
 31
0.0
  0
LINE
  5
A848
  8
DANMEN
  6
CONTINUOUS
 10
454.96326024251272
 20
405.22085869968868
 30
0.0
 11
454.52287673299548
 21
404.78047526703278
 31
0.0
  0
LINE
  5
A849
  8
DANMEN
  6
CONTINUOUS
 10
448.31730088159861
 20
388.7804747968276
 30
0.0
 11
447.71817688848012
 21
388.1813506991424
 31
0.0
  0
LINE
  5
A84A
  8
DANMEN
  6
CONTINUOUS
 10
450.56236483896458
 20
388.7804749535627
 30
0.0
 11
447.78768506385018
 21
386.00579469417539
 31
0.0
  0
LINE
  5
A84B
  8
DANMEN
  6
CONTINUOUS
 10
452.80742879633061
 20
388.7804751102978
 30
0.0
 11
447.7876852205851
 21
383.76073065844179
 31
0.0
  0
LINE
  5
A84C
  8
DANMEN
  6
CONTINUOUS
 10
455.0524927536967
 20
388.78047526703273
 30
0.0
 11
448.05249353691602
 21
381.78047482852168
 31
0.0
  0
LINE
  5
A84D
  8
DANMEN
  6
CONTINUOUS
 10
454.78768504536311
 20
386.27060332001292
 30
0.0
 11
450.29755747755502
 21
381.78047496852969
 31
0.0
  0
LINE
  5
A84E
  8
DANMEN
  6
CONTINUOUS
 10
454.78768520209809
 20
384.0255392842792
 30
0.0
 11
452.54262141819407
 21
381.78047510853781
 31
0.0
  0
LINE
  5
A84F
  8
DANMEN
  6
CONTINUOUS
 10
454.96326024251272
 20
388.34009179740292
 30
0.0
 11
454.52287673299548
 21
388.7804752300587
 31
0.0
  0
LINE
  5
A850
  8
DANMEN
  6
CONTINUOUS
 10
454.78768504536311
 20
386.27060316327783
 30
0.0
 11
452.27781269726188
 21
388.7804750733236
 31
0.0
  0
LINE
  5
A851
  8
DANMEN
  6
CONTINUOUS
 10
454.78768520209809
 20
384.0255392059118
 30
0.0
 11
450.03274866152827
 21
388.78047491658862
 31
0.0
  0
LINE
  5
A852
  8
DANMEN
  6
CONTINUOUS
 10
454.78768535883319
 20
381.78047524854583
 30
0.0
 11
447.7876846257949
 21
388.78047475985352
 31
0.0
  0
LINE
  5
A853
  8
DANMEN
  6
CONTINUOUS
 10
452.5426213063725
 20
381.78047510853781
 30
0.0
 11
447.78768502687598
 21
386.53541055814139
 31
0.0
  0
LINE
  5
A854
  8
DANMEN
  6
CONTINUOUS
 10
450.29755725391198
 20
381.78047496852969
 30
0.0
 11
447.7876851836109
 21
384.29034660077531
 31
0.0
  0
LINE
  5
A855
  8
DANMEN
  6
CONTINUOUS
 10
448.05249320145123
 20
381.78047482852168
 30
0.0
 11
447.61210987648082
 21
382.2208580766308
 31
0.0
  0
LINE
  5
A856
  8
DANMEN
  6
CONTINUOUS
 10
215.4876823588331
 20
129.82554217921501
 30
0.0
 11
216.9876823588331
 21
131.32554244101439
 31
0.0
  0
LINE
  5
A857
  8
DANMEN
  6
CONTINUOUS
 10
214.28959085263759
 20
130.87251465638161
 30
0.0
 11
216.9876823588331
 21
133.5706066334831
 31
0.0
  0
LINE
  5
A858
  8
DANMEN
  6
CONTINUOUS
 10
215.19547875764951
 20
134.02346691196951
 30
0.0
 11
216.8671938822194
 21
135.6951823283087
 31
0.0
  0
LINE
  5
A859
  8
DANMEN
  6
CONTINUOUS
 10
154.7876853588331
 20
135.53541129117971
 30
0.0
 11
152.54262132309961
 21
137.7804752485458
 31
0.0
  0
LINE
  5
A85A
  8
DANMEN
  6
CONTINUOUS
 10
154.7876853588331
 20
133.29034733381371
 30
0.0
 11
150.297557287366
 21
137.7804752485458
 31
0.0
  0
LINE
  5
A85B
  8
DANMEN
  6
CONTINUOUS
 10
154.7876853588331
 20
131.0452833764476
 30
0.0
 11
147.78768543673689
 21
138.0452830541978
 31
0.0
  0
LINE
  5
A85C
  8
DANMEN
  6
CONTINUOUS
 10
152.80742946024509
 20
130.7804752485458
 30
0.0
 11
147.7876856746326
 21
135.80021885893609
 31
0.0
  0
LINE
  5
A85D
  8
DANMEN
  6
CONTINUOUS
 10
150.5623654245114
 20
130.7804752485458
 30
0.0
 11
147.7876859125281
 21
133.5551546636745
 31
0.0
  0
LINE
  5
A85E
  8
DANMEN
  6
CONTINUOUS
 10
148.3961915083114
 20
130.70158513176611
 30
0.0
 11
147.7876861504237
 21
131.31009046841291
 31
0.0
  0
LINE
  5
A85F
  8
DANMEN
  6
CONTINUOUS
 10
154.5228774752774
 20
130.7804752485458
 30
0.0
 11
154.7876853588331
 21
131.0452831413451
 31
0.0
  0
LINE
  5
A860
  8
DANMEN
  6
CONTINUOUS
 10
152.2778135179114
 20
130.7804752485458
 30
0.0
 11
154.7876853588331
 21
133.29034717707859
 31
0.0
  0
LINE
  5
A861
  8
DANMEN
  6
CONTINUOUS
 10
150.03274956054531
 20
130.7804752485458
 30
0.0
 11
154.7876853588331
 21
135.53541121281219
 31
0.0
  0
LINE
  5
A862
  8
DANMEN
  6
CONTINUOUS
 10
147.7876862065437
 20
130.7804758519103
 30
0.0
 11
154.7876853588331
 21
137.7804752485458
 31
0.0
  0
LINE
  5
A863
  8
DANMEN
  6
CONTINUOUS
 10
147.78768596864819
 20
133.02553964974831
 30
0.0
 11
152.5426214014671
 21
137.7804752485458
 31
0.0
  0
LINE
  5
A864
  8
DANMEN
  6
CONTINUOUS
 10
147.7876857307526
 20
135.2706034475863
 30
0.0
 11
150.2975574441011
 21
137.7804752485458
 31
0.0
  0
LINE
  5
A865
  8
DANMEN
  6
CONTINUOUS
 10
147.78768549285709
 20
137.51566724542431
 30
0.0
 11
148.2207681920739
 21
137.9487499597586
 31
0.0
  0
POLYLINE
  5
A866
  8
SUNPO
  6
BYBLOCK
 66
     1
 10
0.0
 20
0.0
 30
0.0
 70
     1
 40
1.159999999999999
 41
1.159999999999999
  0
VERTEX
  5
AF84
  8
SUNPO
  6
BYBLOCK
 10
94.787685358833187
 20
396.92547524854569
 30
0.0
 42
1.0
  0
VERTEX
  5
AF85
  8
SUNPO
  6
BYBLOCK
 10
94.787685358833187
 20
396.63547524854579
 30
0.0
 42
1.0
  0
SEQEND
  5
AF86
  8
SUNPO
  6
BYBLOCK
  0
POLYLINE
  5
A867
  8
SUNPO
  6
BYBLOCK
 66
     1
 10
0.0
 20
0.0
 30
0.0
 70
     1
 40
1.159999999999999
 41
1.159999999999999
  0
VERTEX
  5
AF87
  8
SUNPO
  6
BYBLOCK
 10
94.787685358833187
 20
431.63547524854579
 30
0.0
 42
1.0
  0
VERTEX
  5
AF88
  8
SUNPO
  6
BYBLOCK
 10
94.787685358833187
 20
431.92547524854569
 30
0.0
 42
1.0
  0
SEQEND
  5
AF89
  8
SUNPO
  6
BYBLOCK
  0
TEXT
  5
A868
  8
SUNPO
  6
CONTINUOUS
 10
94.287685358833187
 20
412.1971419152124
 30
0.0
 40
2.5
  1
35
 50
90.0
  0
POLYLINE
  5
A869
  8
SUNPO
  6
BYBLOCK
 66
     1
 10
0.0
 20
0.0
 30
0.0
 70
     1
 40
1.159999999999999
 41
1.159999999999999
  0
VERTEX
  5
AF8A
  8
SUNPO
  6
BYBLOCK
 10
94.787685358833187
 20
446.63547524854579
 30
0.0
 42
1.0
  0
VERTEX
  5
AF8B
  8
SUNPO
  6
BYBLOCK
 10
94.787685358833187
 20
446.92547524854569
 30
0.0
 42
1.0
  0
SEQEND
  5
AF8C
  8
SUNPO
  6
BYBLOCK
  0
TEXT
  5
A86A
  8
SUNPO
  6
CONTINUOUS
 10
94.287685358833187
 20
437.28047524854583
 30
0.0
 40
2.5
  1
15
 50
90.0
 41
1.1999999999999991
  7
MX_DIMTXSTY_3
  0
POLYLINE
  5
A86B
  8
SUNPO
  6
BYBLOCK
 66
     1
 10
0.0
 20
0.0
 30
0.0
 70
     1
 40
1.159999999999999
 41
1.159999999999999
  0
VERTEX
  5
AF8D
  8
SUNPO
  6
BYBLOCK
 10
94.787685358833187
 20
67.925475248545823
 30
0.0
 42
1.0
  0
VERTEX
  5
AF8E
  8
SUNPO
  6
BYBLOCK
 10
94.787685358833187
 20
67.635475248545845
 30
0.0
 42
1.0
  0
SEQEND
  5
AF8F
  8
SUNPO
  6
BYBLOCK
  0
POLYLINE
  5
A86C
  8
SUNPO
  6
BYBLOCK
 66
     1
 10
0.0
 20
0.0
 30
0.0
 70
     1
 40
1.159999999999999
 41
1.159999999999999
  0
VERTEX
  5
AF90
  8
SUNPO
  6
BYBLOCK
 10
94.787685358833187
 20
77.635475248545845
 30
0.0
 42
1.0
  0
VERTEX
  5
AF91
  8
SUNPO
  6
BYBLOCK
 10
94.787685358833187
 20
77.925475248545823
 30
0.0
 42
1.0
  0
SEQEND
  5
AF92
  8
SUNPO
  6
BYBLOCK
  0
TEXT
  5
A86D
  8
SUNPO
  6
CONTINUOUS
 10
94.287685358833187
 20
70.811725248545841
 30
0.0
 40
2.5
  1
10
 50
90.0
 41
1.3500000000000001
  7
MX_DIMTXSTY_4
  0
POLYLINE
  5
A86E
  8
SUNPO
  6
BYBLOCK
 66
     1
 10
0.0
 20
0.0
 30
0.0
 70
     1
 40
1.159999999999999
 41
1.159999999999999
  0
VERTEX
  5
AF93
  8
SUNPO
  6
BYBLOCK
 10
94.787685358833187
 20
137.63547524854579
 30
0.0
 42
1.0
  0
VERTEX
  5
AF94
  8
SUNPO
  6
BYBLOCK
 10
94.787685358833187
 20
137.92547524854581
 30
0.0
 42
1.0
  0
SEQEND
  5
AF95
  8
SUNPO
  6
BYBLOCK
  0
TEXT
  5
A86F
  8
SUNPO
  6
CONTINUOUS
 10
94.287685358833187
 20
105.7179752485458
 30
0.0
 40
2.5
  1
60
 50
90.0
 41
1.1000000000000001
  7
MX_DIMTXSTY_2
  0
POLYLINE
  5
A870
  8
SUNPO
  6
BYBLOCK
 66
     1
 10
0.0
 20
0.0
 30
0.0
 70
     1
 40
1.159999999999999
 41
1.159999999999999
  0
VERTEX
  5
AF96
  8
SUNPO
  6
BYBLOCK
 10
101.7876853588331
 20
77.925475248545823
 30
0.0
 42
1.0
  0
VERTEX
  5
AF97
  8
SUNPO
  6
BYBLOCK
 10
101.7876853588331
 20
77.635475248545845
 30
0.0
 42
1.0
  0
SEQEND
  5
AF98
  8
SUNPO
  6
BYBLOCK
  0
POLYLINE
  5
A871
  8
SUNPO
  6
BYBLOCK
 66
     1
 10
0.0
 20
0.0
 30
0.0
 70
     1
 40
1.159999999999999
 41
1.159999999999999
  0
VERTEX
  5
AF99
  8
SUNPO
  6
BYBLOCK
 10
101.7876853588331
 20
92.635475248545831
 30
0.0
 42
1.0
  0
VERTEX
  5
AF9A
  8
SUNPO
  6
BYBLOCK
 10
101.7876853588331
 20
92.925475248545808
 30
0.0
 42
1.0
  0
SEQEND
  5
AF9B
  8
SUNPO
  6
BYBLOCK
  0
TEXT
  5
A872
  8
SUNPO
  6
CONTINUOUS
 10
101.2876853588331
 20
83.280475248545827
 30
0.0
 40
2.5
  1
15
 50
90.0
 41
1.1999999999999991
  7
MX_DIMTXSTY_3
  0
POLYLINE
  5
A873
  8
SUNPO
  6
BYBLOCK
 66
     1
 10
0.0
 20
0.0
 30
0.0
 70
     1
 40
1.159999999999999
 41
1.159999999999999
  0
VERTEX
  5
AF9C
  8
SUNPO
  6
BYBLOCK
 10
235.78768535883319
 20
67.925475248545823
 30
0.0
 42
1.0
  0
VERTEX
  5
AF9D
  8
SUNPO
  6
BYBLOCK
 10
235.78768535883319
 20
67.635475248545845
 30
0.0
 42
1.0
  0
SEQEND
  5
AF9E
  8
SUNPO
  6
BYBLOCK
  0
POLYLINE
  5
A874
  8
SUNPO
  6
BYBLOCK
 66
     1
 10
0.0
 20
0.0
 30
0.0
 70
     1
 40
1.159999999999999
 41
1.159999999999999
  0
VERTEX
  5
AF9F
  8
SUNPO
  6
BYBLOCK
 10
235.78768535883319
 20
77.635475248545845
 30
0.0
 42
1.0
  0
VERTEX
  5
AFA0
  8
SUNPO
  6
BYBLOCK
 10
235.78768535883319
 20
77.925475248545823
 30
0.0
 42
1.0
  0
SEQEND
  5
AFA1
  8
SUNPO
  6
BYBLOCK
  0
TEXT
  5
A875
  8
SUNPO
  6
CONTINUOUS
 10
235.2876853588331
 20
70.811725248545841
 30
0.0
 40
2.5
  1
10
 50
90.0
 41
1.3500000000000001
  7
MX_DIMTXSTY_4
  0
TEXT
  5
A876
  8
SUNPO
  6
CONTINUOUS
 10
235.2876853588331
 20
105.7179752485458
 30
0.0
 40
2.5
  1
60
 50
90.0
 41
1.1000000000000001
  7
MX_DIMTXSTY_2
  0
POLYLINE
  5
A877
  8
SUNPO
  6
BYBLOCK
 66
     1
 10
0.0
 20
0.0
 30
0.0
 70
     1
 40
1.159999999999999
 41
1.159999999999999
  0
VERTEX
  5
AFA2
  8
SUNPO
  6
BYBLOCK
 10
228.7876853588331
 20
85.925475248545823
 30
0.0
 42
1.0
  0
VERTEX
  5
AFA3
  8
SUNPO
  6
BYBLOCK
 10
228.7876853588331
 20
85.635475248545816
 30
0.0
 42
1.0
  0
SEQEND
  5
AFA4
  8
SUNPO
  6
BYBLOCK
  0
POLYLINE
  5
A878
  8
SUNPO
  6
BYBLOCK
 66
     1
 10
0.0
 20
0.0
 30
0.0
 70
     1
 40
1.159999999999999
 41
1.159999999999999
  0
VERTEX
  5
AFA5
  8
SUNPO
  6
BYBLOCK
 10
228.7876853588331
 20
137.63547524854579
 30
0.0
 42
1.0
  0
VERTEX
  5
AFA6
  8
SUNPO
  6
BYBLOCK
 10
228.7876853588331
 20
137.92547524854581
 30
0.0
 42
1.0
  0
SEQEND
  5
AFA7
  8
SUNPO
  6
BYBLOCK
  0
TEXT
  5
A879
  8
SUNPO
  6
CONTINUOUS
 10
228.2876853588331
 20
109.6971419152124
 30
0.0
 40
2.5
  1
52
 50
90.0
  0
POLYLINE
  5
A87A
  8
SUNPO
  6
BYBLOCK
 66
     1
 10
0.0
 20
0.0
 30
0.0
 70
     1
 40
1.159999999999999
 41
1.159999999999999
  0
VERTEX
  5
AFA8
  8
SUNPO
  6
BYBLOCK
 10
235.78768535883319
 20
436.63547524854579
 30
0.0
 42
1.0
  0
VERTEX
  5
AFA9
  8
SUNPO
  6
BYBLOCK
 10
235.78768535883319
 20
436.92547524854569
 30
0.0
 42
1.0
  0
SEQEND
  5
AFAA
  8
SUNPO
  6
BYBLOCK
  0
TEXT
  5
A87B
  8
SUNPO
  6
CONTINUOUS
 10
235.2876853588331
 20
414.71797524854571
 30
0.0
 40
2.5
  1
40
 50
90.0
 41
1.1000000000000001
  7
MX_DIMTXSTY_2
  0
POLYLINE
  5
A87C
  8
SUNPO
  6
BYBLOCK
 66
     1
 10
0.0
 20
0.0
 30
0.0
 70
     1
 40
1.159999999999999
 41
1.159999999999999
  0
VERTEX
  5
AFAB
  8
SUNPO
  6
BYBLOCK
 10
228.7876853588331
 20
396.92547524854569
 30
0.0
 42
1.0
  0
VERTEX
  5
AFAC
  8
SUNPO
  6
BYBLOCK
 10
228.7876853588331
 20
396.63547524854579
 30
0.0
 42
1.0
  0
SEQEND
  5
AFAD
  8
SUNPO
  6
BYBLOCK
  0
POLYLINE
  5
A87D
  8
SUNPO
  6
BYBLOCK
 66
     1
 10
0.0
 20
0.0
 30
0.0
 70
     1
 40
1.159999999999999
 41
1.159999999999999
  0
VERTEX
  5
AFAE
  8
SUNPO
  6
BYBLOCK
 10
228.7876853588331
 20
416.63547524854579
 30
0.0
 42
1.0
  0
VERTEX
  5
AFAF
  8
SUNPO
  6
BYBLOCK
 10
228.7876853588331
 20
416.92547524854569
 30
0.0
 42
1.0
  0
SEQEND
  5
AFB0
  8
SUNPO
  6
BYBLOCK
  0
TEXT
  5
A87E
  8
SUNPO
  6
CONTINUOUS
 10
228.2876853588331
 20
404.71797524854583
 30
0.0
 40
2.5
  1
20
 50
90.0
 41
1.1000000000000001
  7
MX_DIMTXSTY_2
  0
POLYLINE
  5
A87F
  8
SUNPO
  6
BYBLOCK
 66
     1
 10
0.0
 20
0.0
 30
0.0
 70
     1
 40
1.159999999999999
 41
1.159999999999999
  0
VERTEX
  5
AFB1
  8
SUNPO
  6
BYBLOCK
 10
228.7876853588331
 20
436.63547524854579
 30
0.0
 42
1.0
  0
VERTEX
  5
AFB2
  8
SUNPO
  6
BYBLOCK
 10
228.7876853588331
 20
436.92547524854569
 30
0.0
 42
1.0
  0
SEQEND
  5
AFB3
  8
SUNPO
  6
BYBLOCK
  0
TEXT
  5
A880
  8
SUNPO
  6
CONTINUOUS
 10
228.2876853588331
 20
424.71797524854571
 30
0.0
 40
2.5
  1
20
 50
90.0
 41
1.1000000000000001
  7
MX_DIMTXSTY_2
  0
POLYLINE
  5
A881
  8
SUNPO
  6
BYBLOCK
 66
     1
 10
0.0
 20
0.0
 30
0.0
 70
     1
 40
1.159999999999999
 41
1.159999999999999
  0
VERTEX
  5
AFB4
  8
SUNPO
  6
BYBLOCK
 10
544.64268535883321
 20
80.780475248545827
 30
0.0
 42
1.0
  0
VERTEX
  5
AFB5
  8
SUNPO
  6
BYBLOCK
 10
544.93268535883306
 20
80.780475248545827
 30
0.0
 42
1.0
  0
SEQEND
  5
AFB6
  8
SUNPO
  6
BYBLOCK
  0
TEXT
  5
A882
  8
SUNPO
  6
CONTINUOUS
 10
537.81893535883296
 20
81.280475248545827
 30
0.0
 40
2.5
  1
10
 41
1.3500000000000001
  7
MX_DIMTXSTY_4
  0
POLYLINE
  5
A883
  8
SUNPO
  6
BYBLOCK
 66
     1
 10
0.0
 20
0.0
 30
0.0
 70
     1
 40
1.159999999999999
 41
1.159999999999999
  0
VERTEX
  5
AFB7
  8
SUNPO
  6
BYBLOCK
 10
534.64268535883321
 20
80.780475248545827
 30
0.0
 42
1.0
  0
VERTEX
  5
AFB8
  8
SUNPO
  6
BYBLOCK
 10
534.93268535883317
 20
80.780475248545827
 30
0.0
 42
1.0
  0
SEQEND
  5
AFB9
  8
SUNPO
  6
BYBLOCK
  0
TEXT
  5
A884
  8
SUNPO
  6
CONTINUOUS
 10
512.72518535883296
 20
81.280475248545827
 30
0.0
 40
2.5
  1
40
 41
1.1000000000000001
  7
MX_DIMTXSTY_2
  0
POLYLINE
  5
A885
  8
SUNPO
  6
BYBLOCK
 66
     1
 10
0.0
 20
0.0
 30
0.0
 70
     1
 40
1.159999999999999
 41
1.159999999999999
  0
VERTEX
  5
AFBA
  8
SUNPO
  6
BYBLOCK
 10
494.93268535883311
 20
100.7804752485458
 30
0.0
 42
1.0
  0
VERTEX
  5
AFBB
  8
SUNPO
  6
BYBLOCK
 10
494.64268535883309
 20
100.7804752485458
 30
0.0
 42
1.0
  0
SEQEND
  5
AFBC
  8
SUNPO
  6
BYBLOCK
  0
POLYLINE
  5
A886
  8
SUNPO
  6
BYBLOCK
 66
     1
 10
0.0
 20
0.0
 30
0.0
 70
     1
 40
1.159999999999999
 41
1.159999999999999
  0
VERTEX
  5
AFBD
  8
SUNPO
  6
BYBLOCK
 10
514.64268535883321
 20
100.7804752485458
 30
0.0
 42
1.0
  0
VERTEX
  5
AFBE
  8
SUNPO
  6
BYBLOCK
 10
514.93268535883306
 20
100.7804752485458
 30
0.0
 42
1.0
  0
SEQEND
  5
AFBF
  8
SUNPO
  6
BYBLOCK
  0
TEXT
  5
A887
  8
SUNPO
  6
CONTINUOUS
 10
502.72518535883319
 20
101.2804752485458
 30
0.0
 40
2.5
  1
20
 41
1.1000000000000001
  7
MX_DIMTXSTY_2
  0
POLYLINE
  5
A888
  8
SUNPO
  6
BYBLOCK
 66
     1
 10
0.0
 20
0.0
 30
0.0
 70
     1
 40
1.159999999999999
 41
1.159999999999999
  0
VERTEX
  5
AFC0
  8
SUNPO
  6
BYBLOCK
 10
534.64268535883321
 20
100.7804752485458
 30
0.0
 42
1.0
  0
VERTEX
  5
AFC1
  8
SUNPO
  6
BYBLOCK
 10
534.93268535883317
 20
100.7804752485458
 30
0.0
 42
1.0
  0
SEQEND
  5
AFC2
  8
SUNPO
  6
BYBLOCK
  0
TEXT
  5
A889
  8
SUNPO
  6
CONTINUOUS
 10
522.72518535883296
 20
101.2804752485458
 30
0.0
 40
2.5
  1
20
 41
1.1000000000000001
  7
MX_DIMTXSTY_2
  0
POLYLINE
  5
A88A
  8
SUNPO
  6
BYBLOCK
 66
     1
 10
0.0
 20
0.0
 30
0.0
 70
     1
 40
1.159999999999999
 41
1.159999999999999
  0
VERTEX
  5
AFC3
  8
SUNPO
  6
BYBLOCK
 10
454.64268535883309
 20
300.78047524854583
 30
0.0
 42
1.0
  0
VERTEX
  5
AFC4
  8
SUNPO
  6
BYBLOCK
 10
454.93268535883311
 20
300.78047524854583
 30
0.0
 42
1.0
  0
SEQEND
  5
AFC5
  8
SUNPO
  6
BYBLOCK
  0
TEXT
  5
A88B
  8
SUNPO
  6
CONTINUOUS
 10
442.72518535883302
 20
301.28047524854583
 30
0.0
 40
2.5
  1
20
 41
1.1000000000000001
  7
MX_DIMTXSTY_2
  0
POLYLINE
  5
A88C
  8
SUNPO
  6
BYBLOCK
 66
     1
 10
0.0
 20
0.0
 30
0.0
 70
     1
 40
1.159999999999999
 41
1.159999999999999
  0
VERTEX
  5
AFC6
  8
SUNPO
  6
BYBLOCK
 10
454.64268535883309
 20
434.78047524854571
 30
0.0
 42
1.0
  0
VERTEX
  5
AFC7
  8
SUNPO
  6
BYBLOCK
 10
454.93268535883311
 20
434.78047524854571
 30
0.0
 42
1.0
  0
SEQEND
  5
AFC8
  8
SUNPO
  6
BYBLOCK
  0
TEXT
  5
A88D
  8
SUNPO
  6
CONTINUOUS
 10
439.70435202549987
 20
435.28047524854583
 30
0.0
 40
2.5
  1
26
  0
POLYLINE
  5
A88E
  8
SUNPO
  6
BYBLOCK
 66
     1
 10
0.0
 20
0.0
 30
0.0
 70
     1
 40
1.159999999999999
 41
1.159999999999999
  0
VERTEX
  5
AFC9
  8
SUNPO
  6
BYBLOCK
 10
494.93268535883311
 20
241.7804752485458
 30
0.0
 42
1.0
  0
VERTEX
  5
AFCA
  8
SUNPO
  6
BYBLOCK
 10
494.64268535883309
 20
241.7804752485458
 30
0.0
 42
1.0
  0
SEQEND
  5
AFCB
  8
SUNPO
  6
BYBLOCK
  0
POLYLINE
  5
A88F
  8
SUNPO
  6
BYBLOCK
 66
     1
 10
0.0
 20
0.0
 30
0.0
 70
     1
 40
1.159999999999999
 41
1.159999999999999
  0
VERTEX
  5
AFCC
  8
SUNPO
  6
BYBLOCK
 10
524.64268535883321
 20
241.7804752485458
 30
0.0
 42
1.0
  0
VERTEX
  5
AFCD
  8
SUNPO
  6
BYBLOCK
 10
524.93268535883306
 20
241.7804752485458
 30
0.0
 42
1.0
  0
SEQEND
  5
AFCE
  8
SUNPO
  6
BYBLOCK
  0
TEXT
  5
A890
  8
SUNPO
  6
CONTINUOUS
 10
507.72518535883307
 20
242.2804752485458
 30
0.0
 40
2.5
  1
30
 41
1.1000000000000001
  7
MX_DIMTXSTY_2
  0
POLYLINE
  5
A891
  8
SUNPO
  6
BYBLOCK
 66
     1
 10
0.0
 20
0.0
 30
0.0
 70
     1
 40
1.159999999999999
 41
1.159999999999999
  0
VERTEX
  5
AFCF
  8
SUNPO
  6
BYBLOCK
 10
544.64268535883321
 20
241.7804752485458
 30
0.0
 42
1.0
  0
VERTEX
  5
AFD0
  8
SUNPO
  6
BYBLOCK
 10
544.93268535883306
 20
241.7804752485458
 30
0.0
 42
1.0
  0
SEQEND
  5
AFD1
  8
SUNPO
  6
BYBLOCK
  0
TEXT
  5
A892
  8
SUNPO
  6
CONTINUOUS
 10
532.72518535883307
 20
242.2804752485458
 30
0.0
 40
2.5
  1
20
 41
1.1000000000000001
  7
MX_DIMTXSTY_2
  0
POLYLINE
  5
A893
  8
SUNPO
  6
BYBLOCK
 66
     1
 10
0.0
 20
0.0
 30
0.0
 70
     1
 40
1.159999999999999
 41
1.159999999999999
  0
VERTEX
  5
AFD2
  8
SUNPO
  6
BYBLOCK
 10
118.9326853588331
 20
357.78047524854571
 30
0.0
 42
1.0
  0
VERTEX
  5
AFD3
  8
SUNPO
  6
BYBLOCK
 10
118.64268535883311
 20
357.78047524854571
 30
0.0
 42
1.0
  0
SEQEND
  5
AFD4
  8
SUNPO
  6
BYBLOCK
  0
POLYLINE
  5
A894
  8
SUNPO
  6
BYBLOCK
 66
     1
 10
0.0
 20
0.0
 30
0.0
 70
     1
 40
1.159999999999999
 41
1.159999999999999
  0
VERTEX
  5
AFD5
  8
SUNPO
  6
BYBLOCK
 10
218.64268535883309
 20
357.78047524854571
 30
0.0
 42
1.0
  0
VERTEX
  5
AFD6
  8
SUNPO
  6
BYBLOCK
 10
218.93268535883311
 20
357.78047524854571
 30
0.0
 42
1.0
  0
SEQEND
  5
AFD7
  8
SUNPO
  6
BYBLOCK
  0
TEXT
  5
A895
  8
SUNPO
  6
CONTINUOUS
 10
168.34926935883311
 20
358.28047524854583
 30
0.0
 40
2.5
  1
100
 41
1.3
  7
MX_DIMTXSTY_5
  0
POLYLINE
  5
A896
  8
SUNPO
  6
BYBLOCK
 66
     1
 10
0.0
 20
0.0
 30
0.0
 70
     1
 40
1.159999999999999
 41
1.159999999999999
  0
VERTEX
  5
AFD8
  8
SUNPO
  6
BYBLOCK
 10
479.78767035883322
 20
117.92547524854579
 30
0.0
 42
1.0
  0
VERTEX
  5
AFD9
  8
SUNPO
  6
BYBLOCK
 10
479.78767035883322
 20
117.6354752485458
 30
0.0
 42
1.0
  0
SEQEND
  5
AFDA
  8
SUNPO
  6
BYBLOCK
  0
POLYLINE
  5
A897
  8
SUNPO
  6
BYBLOCK
 66
     1
 10
0.0
 20
0.0
 30
0.0
 70
     1
 40
1.159999999999999
 41
1.159999999999999
  0
VERTEX
  5
AFDB
  8
SUNPO
  6
BYBLOCK
 10
479.78767035883322
 20
217.63547524854579
 30
0.0
 42
1.0
  0
VERTEX
  5
AFDC
  8
SUNPO
  6
BYBLOCK
 10
479.78767035883322
 20
217.92547524854581
 30
0.0
 42
1.0
  0
SEQEND
  5
AFDD
  8
SUNPO
  6
BYBLOCK
  0
TEXT
  5
A898
  8
SUNPO
  6
CONTINUOUS
 10
479.28767035883322
 20
161.6643332485458
 30
0.0
 40
2.5
  1
100
 50
90.0
 41
1.3
  7
MX_DIMTXSTY_5
  0
POLYLINE
  5
A899
  8
SUNPO
  6
BYBLOCK
 66
     1
 10
0.0
 20
0.0
 30
0.0
 70
     1
 40
1.159999999999999
 41
1.159999999999999
  0
VERTEX
  5
AFDE
  8
SUNPO
  6
BYBLOCK
 10
469.78767035883322
 20
317.92547524854581
 30
0.0
 42
1.0
  0
VERTEX
  5
AFDF
  8
SUNPO
  6
BYBLOCK
 10
469.78767035883322
 20
317.63547524854579
 30
0.0
 42
1.0
  0
SEQEND
  5
AFE0
  8
SUNPO
  6
BYBLOCK
  0
POLYLINE
  5
A89A
  8
SUNPO
  6
BYBLOCK
 66
     1
 10
0.0
 20
0.0
 30
0.0
 70
     1
 40
1.159999999999999
 41
1.159999999999999
  0
VERTEX
  5
AFE1
  8
SUNPO
  6
BYBLOCK
 10
469.78767035883322
 20
322.63549024854581
 30
0.0
 42
1.0
  0
VERTEX
  5
AFE2
  8
SUNPO
  6
BYBLOCK
 10
469.78767035883322
 20
322.9254902485456
 30
0.0
 42
1.0
  0
SEQEND
  5
AFE3
  8
SUNPO
  6
BYBLOCK
  0
TEXT
  5
A89B
  8
SUNPO
  6
CONTINUOUS
 10
469.28767035883311
 20
319.44715691521242
 30
0.0
 40
2.5
  1
5
 50
90.0
  0
POLYLINE
  5
A89C
  8
SUNPO
  6
BYBLOCK
 66
     1
 10
0.0
 20
0.0
 30
0.0
 70
     1
 40
1.159999999999999
 41
1.159999999999999
  0
VERTEX
  5
AFE4
  8
SUNPO
  6
BYBLOCK
 10
469.78767035883322
 20
381.63547524854579
 30
0.0
 42
1.0
  0
VERTEX
  5
AFE5
  8
SUNPO
  6
BYBLOCK
 10
469.78767035883322
 20
381.92547524854569
 30
0.0
 42
1.0
  0
SEQEND
  5
AFE6
  8
SUNPO
  6
BYBLOCK
  0
TEXT
  5
A89D
  8
SUNPO
  6
CONTINUOUS
 10
469.28767035883311
 20
345.19714791521238
 30
0.0
 40
2.5
  1
59
 50
90.0
  0
POLYLINE
  5
A89E
  8
SUNPO
  6
BYBLOCK
 66
     1
 10
0.0
 20
0.0
 30
0.0
 70
     1
 40
1.159999999999999
 41
1.159999999999999
  0
VERTEX
  5
AFE7
  8
SUNPO
  6
BYBLOCK
 10
469.78767035883322
 20
417.63547524854579
 30
0.0
 42
1.0
  0
VERTEX
  5
AFE8
  8
SUNPO
  6
BYBLOCK
 10
469.78767035883322
 20
417.92547524854569
 30
0.0
 42
1.0
  0
SEQEND
  5
AFE9
  8
SUNPO
  6
BYBLOCK
  0
TEXT
  5
A89F
  8
SUNPO
  6
CONTINUOUS
 10
469.28767035883311
 20
419.87461691521253
 30
0.0
 40
2.5
  1
6
 50
90.0
  0
POLYLINE
  5
A8A0
  8
SUNPO
  6
BYBLOCK
 66
     1
 10
0.0
 20
0.0
 30
0.0
 70
     1
 40
1.159999999999999
 41
1.159999999999999
  0
VERTEX
  5
AFEA
  8
SUNPO
  6
BYBLOCK
 10
101.7876853588331
 20
104.6354752485458
 30
0.0
 42
1.0
  0
VERTEX
  5
AFEB
  8
SUNPO
  6
BYBLOCK
 10
101.7876853588331
 20
104.92547524854579
 30
0.0
 42
1.0
  0
SEQEND
  5
AFEC
  8
SUNPO
  6
BYBLOCK
  0
TEXT
  5
A8A1
  8
SUNPO
  6
CONTINUOUS
 10
101.2876853588331
 20
96.780475248545841
 30
0.0
 40
2.5
  1
12
 50
90.0
 41
1.1999999999999991
  7
MX_DIMTXSTY_3
  0
POLYLINE
  5
A8A2
  8
SUNPO
  6
BYBLOCK
 66
     1
 10
0.0
 20
0.0
 30
0.0
 70
     1
 40
1.159999999999999
 41
1.159999999999999
  0
VERTEX
  5
AFED
  8
SUNPO
  6
BYBLOCK
 10
101.7876853588331
 20
137.63547524854579
 30
0.0
 42
1.0
  0
VERTEX
  5
AFEE
  8
SUNPO
  6
BYBLOCK
 10
101.7876853588331
 20
137.92547524854581
 30
0.0
 42
1.0
  0
SEQEND
  5
AFEF
  8
SUNPO
  6
BYBLOCK
  0
TEXT
  5
A8A3
  8
SUNPO
  6
CONTINUOUS
 10
101.2876853588331
 20
119.1971419152124
 30
0.0
 40
2.5
  1
33
 50
90.0
  0
POLYLINE
  5
A8A4
  8
SUNPO
  6
BYBLOCK
 66
     1
 10
0.0
 20
0.0
 30
0.0
 70
     1
 40
1.159999999999999
 41
1.159999999999999
  0
VERTEX
  5
AFF0
  8
SUNPO
  6
BYBLOCK
 10
235.78768535883319
 20
446.63547524854579
 30
0.0
 42
1.0
  0
VERTEX
  5
AFF1
  8
SUNPO
  6
BYBLOCK
 10
235.78768535883319
 20
446.92547524854569
 30
0.0
 42
1.0
  0
SEQEND
  5
AFF2
  8
SUNPO
  6
BYBLOCK
  0
TEXT
  5
A8A5
  8
SUNPO
  6
CONTINUOUS
 10
235.2876853588331
 20
439.81172524854571
 30
0.0
 40
2.5
  1
10
 50
90.0
 41
1.3500000000000001
  7
MX_DIMTXSTY_4
  0
POLYLINE
  5
A8A6
  8
SUNPO
  6
BYBLOCK
 66
     1
 10
0.0
 20
0.0
 30
0.0
 70
     1
 40
1.159999999999999
 41
1.159999999999999
  0
VERTEX
  5
AFF3
  8
SUNPO
  6
BYBLOCK
 10
469.78767035883322
 20
381.92547524854569
 30
0.0
 42
1.0
  0
VERTEX
  5
AFF4
  8
SUNPO
  6
BYBLOCK
 10
469.78767035883322
 20
381.63547524854579
 30
0.0
 42
1.0
  0
SEQEND
  5
AFF5
  8
SUNPO
  6
BYBLOCK
  0
POLYLINE
  5
A8A7
  8
SUNPO
  6
BYBLOCK
 66
     1
 10
0.0
 20
0.0
 30
0.0
 70
     1
 40
1.159999999999999
 41
1.159999999999999
  0
VERTEX
  5
AFF6
  8
SUNPO
  6
BYBLOCK
 10
469.78767035883322
 20
411.63547524854567
 30
0.0
 42
1.0
  0
VERTEX
  5
AFF7
  8
SUNPO
  6
BYBLOCK
 10
469.78767035883322
 20
411.92547524854581
 30
0.0
 42
1.0
  0
SEQEND
  5
AFF8
  8
SUNPO
  6
BYBLOCK
  0
TEXT
  5
A8A8
  8
SUNPO
  6
CONTINUOUS
 10
469.28767035883311
 20
394.71797524854583
 30
0.0
 40
2.5
  1
30
 50
90.0
 41
1.1000000000000001
  7
MX_DIMTXSTY_2
  0
LINE
  5
A8A9
  8
DANMEN
  6
CONTINUOUS
 10
391.2580698360677
 20
404.78047570026382
 30
0.0
 11
391.85719382918609
 21
405.37959979794908
 31
0.0
  0
LINE
  5
A8AA
  8
DANMEN
  6
CONTINUOUS
 10
389.01300587870162
 20
404.78047554352878
 30
0.0
 11
391.78768565381603
 21
407.5551558029162
 31
0.0
  0
LINE
  5
A8AB
  8
DANMEN
  6
CONTINUOUS
 10
386.76794192133548
 20
404.78047538679368
 30
0.0
 11
391.7876854970811
 21
409.80021983864981
 31
0.0
  0
LINE
  5
A8AC
  8
DANMEN
  6
CONTINUOUS
 10
384.52287796396962
 20
404.7804752300587
 30
0.0
 11
391.52287718075007
 21
411.78047566856981
 31
0.0
  0
LINE
  5
A8AD
  8
DANMEN
  6
CONTINUOUS
 10
384.7876856723031
 20
407.29034717707867
 30
0.0
 11
389.27781324011119
 21
411.78047552856179
 31
0.0
  0
LINE
  5
A8AE
  8
DANMEN
  6
CONTINUOUS
 10
384.78768551556811
 20
409.53541121281222
 30
0.0
 11
387.03274929947219
 21
411.78047538855373
 31
0.0
  0
LINE
  5
A8AF
  8
DANMEN
  6
CONTINUOUS
 10
384.61211047515349
 20
405.22085869968868
 30
0.0
 11
385.05249398467072
 21
404.78047526703278
 31
0.0
  0
LINE
  5
A8B0
  8
DANMEN
  6
CONTINUOUS
 10
384.7876856723031
 20
407.2903473338136
 30
0.0
 11
387.29755802040421
 21
404.78047542376788
 31
0.0
  0
LINE
  5
A8B1
  8
DANMEN
  6
CONTINUOUS
 10
384.78768551556811
 20
409.53541129117963
 30
0.0
 11
389.54262205613787
 21
404.78047558050292
 31
0.0
  0
LINE
  5
A8B2
  8
DANMEN
  6
CONTINUOUS
 10
384.78768535883307
 20
411.78047524854571
 30
0.0
 11
391.78768609187131
 21
404.78047573723802
 31
0.0
  0
LINE
  5
A8B3
  8
DANMEN
  6
CONTINUOUS
 10
387.03274941129371
 20
411.78047538855373
 30
0.0
 11
391.78768569079023
 21
407.02553993895009
 31
0.0
  0
LINE
  5
A8B4
  8
DANMEN
  6
CONTINUOUS
 10
389.27781346375423
 20
411.78047552856179
 30
0.0
 11
391.78768553405507
 21
409.27060389631629
 31
0.0
  0
LINE
  5
A8B5
  8
DANMEN
  6
CONTINUOUS
 10
391.52287751621481
 20
411.78047566856981
 30
0.0
 11
391.96326084118527
 21
411.34009242046062
 31
0.0
  0
LINE
  5
A8B6
  8
DANMEN
  6
CONTINUOUS
 10
384.78768551556811
 20
384.0255392842792
 30
0.0
 11
387.03274929947219
 21
381.78047510853781
 31
0.0
  0
LINE
  5
A8B7
  8
DANMEN
  6
CONTINUOUS
 10
384.7876856723031
 20
386.27060332001292
 30
0.0
 11
389.27781324011119
 21
381.78047496852969
 31
0.0
  0
LINE
  5
A8B8
  8
DANMEN
  6
CONTINUOUS
 10
384.52287796396962
 20
388.78047526703273
 30
0.0
 11
391.52287718075007
 21
381.78047482852168
 31
0.0
  0
LINE
  5
A8B9
  8
DANMEN
  6
CONTINUOUS
 10
386.76794192133548
 20
388.7804751102978
 30
0.0
 11
391.7876854970811
 21
383.76073065844179
 31
0.0
  0
LINE
  5
A8BA
  8
DANMEN
  6
CONTINUOUS
 10
389.01300587870162
 20
388.7804749535627
 30
0.0
 11
391.78768565381603
 21
386.00579469417539
 31
0.0
  0
LINE
  5
A8BB
  8
DANMEN
  6
CONTINUOUS
 10
391.2580698360677
 20
388.7804747968276
 30
0.0
 11
391.85719382918609
 21
388.1813506991424
 31
0.0
  0
LINE
  5
A8BC
  8
DANMEN
  6
CONTINUOUS
 10
391.52287751621481
 20
381.78047482852168
 30
0.0
 11
391.96326084118527
 21
382.2208580766308
 31
0.0
  0
LINE
  5
A8BD
  8
DANMEN
  6
CONTINUOUS
 10
389.27781346375428
 20
381.78047496852969
 30
0.0
 11
391.78768553405507
 21
384.29034660077531
 31
0.0
  0
LINE
  5
A8BE
  8
DANMEN
  6
CONTINUOUS
 10
387.03274941129371
 20
381.78047510853781
 30
0.0
 11
391.78768569079023
 21
386.53541055814139
 31
0.0
  0
LINE
  5
A8BF
  8
DANMEN
  6
CONTINUOUS
 10
384.78768535883307
 20
381.78047524854583
 30
0.0
 11
391.78768609187131
 21
388.78047475985352
 31
0.0
  0
LINE
  5
A8C0
  8
DANMEN
  6
CONTINUOUS
 10
384.78768551556811
 20
384.0255392059118
 30
0.0
 11
389.54262205613787
 21
388.78047491658862
 31
0.0
  0
LINE
  5
A8C1
  8
DANMEN
  6
CONTINUOUS
 10
384.7876856723031
 20
386.27060316327783
 30
0.0
 11
387.29755802040421
 21
388.7804750733236
 31
0.0
  0
LINE
  5
A8C2
  8
DANMEN
  6
CONTINUOUS
 10
384.61211047515349
 20
388.34009179740292
 30
0.0
 11
385.05249398467072
 21
388.78047523005858
 31
0.0
  0
POLYLINE
  5
A8C3
  8
SUNPO
  6
BYBLOCK
 66
     1
 10
0.0
 20
0.0
 30
0.0
 70
     1
 40
1.159999999999999
 41
1.159999999999999
  0
VERTEX
  5
AFF9
  8
SUNPO
  6
BYBLOCK
 10
384.93268535883311
 20
300.78047524854583
 30
0.0
 42
1.0
  0
VERTEX
  5
AFFA
  8
SUNPO
  6
BYBLOCK
 10
384.64268535883321
 20
300.78047524854583
 30
0.0
 42
1.0
  0
SEQEND
  5
AFFB
  8
SUNPO
  6
BYBLOCK
  0
TEXT
  5
A8C4
  8
SUNPO
  6
CONTINUOUS
 10
392.72518535883302
 20
301.28047524854583
 30
0.0
 40
2.5
  1
20
 41
1.1000000000000001
  7
MX_DIMTXSTY_2
  0
POLYLINE
  5
A8C5
  8
SUNPO
  6
BYBLOCK
 66
     1
 10
0.0
 20
0.0
 30
0.0
 70
     1
 40
1.159999999999999
 41
1.159999999999999
  0
VERTEX
  5
AFFC
  8
SUNPO
  6
BYBLOCK
 10
384.93268535883311
 20
434.78047524854571
 30
0.0
 42
1.0
  0
VERTEX
  5
AFFD
  8
SUNPO
  6
BYBLOCK
 10
384.64268535883321
 20
434.78047524854571
 30
0.0
 42
1.0
  0
SEQEND
  5
AFFE
  8
SUNPO
  6
BYBLOCK
  0
TEXT
  5
A8C6
  8
SUNPO
  6
CONTINUOUS
 10
395.70435202549982
 20
435.28047524854583
 30
0.0
 40
2.5
  1
26
  0
POLYLINE
  5
A8C7
  8
SUNPO
  6
BYBLOCK
 66
     1
 10
0.0
 20
0.0
 30
0.0
 70
     1
 40
1.159999999999999
 41
1.159999999999999
  0
VERTEX
  5
AFFF
  8
SUNPO
  6
BYBLOCK
 10
410.93268535883311
 20
434.78047524854571
 30
0.0
 42
1.0
  0
VERTEX
  5
B000
  8
SUNPO
  6
BYBLOCK
 10
410.64268535883321
 20
434.78047524854571
 30
0.0
 42
1.0
  0
SEQEND
  5
B001
  8
SUNPO
  6
BYBLOCK
  0
POLYLINE
  5
A8C8
  8
SUNPO
  6
BYBLOCK
 66
     1
 10
0.0
 20
0.0
 30
0.0
 70
     1
 40
1.159999999999999
 41
1.159999999999999
  0
VERTEX
  5
B002
  8
SUNPO
  6
BYBLOCK
 10
428.64268535883321
 20
434.78047524854571
 30
0.0
 42
1.0
  0
VERTEX
  5
B003
  8
SUNPO
  6
BYBLOCK
 10
428.932685358833
 20
434.78047524854571
 30
0.0
 42
1.0
  0
SEQEND
  5
B004
  8
SUNPO
  6
BYBLOCK
  0
TEXT
  5
A8C9
  8
SUNPO
  6
CONTINUOUS
 10
417.78768535883307
 20
435.28047524854583
 30
0.0
 40
2.5
  1
18
 41
1.1999999999999991
  7
MX_DIMTXSTY_3
  0
POLYLINE
  5
A8CA
  8
SUNPO
  6
BYBLOCK
 66
     1
 10
0.0
 20
0.0
 30
0.0
 70
     1
 40
1.159999999999999
 41
1.159999999999999
  0
VERTEX
  5
B005
  8
SUNPO
  6
BYBLOCK
 10
404.93268535883311
 20
300.78047524854583
 30
0.0
 42
1.0
  0
VERTEX
  5
B006
  8
SUNPO
  6
BYBLOCK
 10
404.64268535883298
 20
300.78047524854583
 30
0.0
 42
1.0
  0
SEQEND
  5
B007
  8
SUNPO
  6
BYBLOCK
  0
POLYLINE
  5
A8CB
  8
SUNPO
  6
BYBLOCK
 66
     1
 10
0.0
 20
0.0
 30
0.0
 70
     1
 40
1.159999999999999
 41
1.159999999999999
  0
VERTEX
  5
B008
  8
SUNPO
  6
BYBLOCK
 10
434.64268535883321
 20
300.78047524854583
 30
0.0
 42
1.0
  0
VERTEX
  5
B009
  8
SUNPO
  6
BYBLOCK
 10
434.932685358833
 20
300.78047524854583
 30
0.0
 42
1.0
  0
SEQEND
  5
B00A
  8
SUNPO
  6
BYBLOCK
  0
TEXT
  5
A8CC
  8
SUNPO
  6
CONTINUOUS
 10
417.72518535883302
 20
301.28047524854583
 30
0.0
 40
2.5
  1
30
 41
1.1000000000000001
  7
MX_DIMTXSTY_2
  0
TEXT
  5
A8CD
  8
SUNPO
  6
CONTINUOUS
 10
417.72518535883302
 20
291.28047524854583
 30
0.0
 40
2.5
  1
70
 41
1.1000000000000001
  7
MX_DIMTXSTY_2
  0
POLYLINE
  5
A8CE
  8
SUNPO
  6
BYBLOCK
 66
     1
 10
0.0
 20
0.0
 30
0.0
 70
     1
 40
1.159999999999999
 41
1.159999999999999
  0
VERTEX
  5
B00B
  8
SUNPO
  6
BYBLOCK
 10
384.93268535883311
 20
441.78047524854583
 30
0.0
 42
1.0
  0
VERTEX
  5
B00C
  8
SUNPO
  6
BYBLOCK
 10
384.64268535883321
 20
441.78047524854583
 30
0.0
 42
1.0
  0
SEQEND
  5
B00D
  8
SUNPO
  6
BYBLOCK
  0
POLYLINE
  5
A8CF
  8
SUNPO
  6
BYBLOCK
 66
     1
 10
0.0
 20
0.0
 30
0.0
 70
     1
 40
1.159999999999999
 41
1.159999999999999
  0
VERTEX
  5
B00E
  8
SUNPO
  6
BYBLOCK
 10
454.64268535883309
 20
441.78047524854583
 30
0.0
 42
1.0
  0
VERTEX
  5
B00F
  8
SUNPO
  6
BYBLOCK
 10
454.93268535883311
 20
441.78047524854583
 30
0.0
 42
1.0
  0
SEQEND
  5
B010
  8
SUNPO
  6
BYBLOCK
  0
TEXT
  5
A8D0
  8
SUNPO
  6
CONTINUOUS
 10
417.72518535883302
 20
442.28047524854583
 30
0.0
 40
2.5
  1
70
 41
1.1000000000000001
  7
MX_DIMTXSTY_2
  0
LINE
  5
A8D1
  8
DANMEN
  6
CONTINUOUS
 10
415.91859542292161
 20
344.48048745557691
 30
0.0
 11
417.28768535883319
 21
345.84957743927868
 31
0.0
  0
LINE
  5
A8D2
  8
DANMEN
  6
CONTINUOUS
 10
413.5953471507417
 20
346.64736717376769
 30
0.0
 11
417.28768535883319
 21
350.33970551074589
 31
0.0
  0
LINE
  5
A8D3
  8
DANMEN
  6
CONTINUOUS
 10
410.78768535883307
 20
348.32983335532032
 30
0.0
 11
417.28768535883319
 21
354.8298335822131
 31
0.0
  0
LINE
  5
A8D4
  8
DANMEN
  6
CONTINUOUS
 10
410.78768535883307
 20
352.81996142678742
 30
0.0
 11
417.28768535883319
 21
359.3199616536802
 31
0.0
  0
LINE
  5
A8D5
  8
DANMEN
  6
CONTINUOUS
 10
413.00385632404829
 20
359.52626054082867
 30
0.0
 11
414.55805877048209
 21
361.08046304151441
 31
0.0
  0
LINE
  5
A8D6
  8
DANMEN
  6
CONTINUOUS
 10
410.78768535883307
 20
357.3100894982544
 30
0.0
 11
411.36992832121541
 21
357.89233248096087
 31
0.0
  0
LINE
  5
A8D7
  8
DANMEN
  6
CONTINUOUS
 10
424.89885125238573
 20
344.48048745557691
 30
0.0
 11
426.51333529154641
 21
346.09497155109392
 31
0.0
  0
LINE
  5
A8D8
  8
DANMEN
  6
CONTINUOUS
 10
422.1987534642488
 20
346.27051764465602
 30
0.0
 11
425.78768535883319
 21
349.85944966451763
 31
0.0
  0
LINE
  5
A8D9
  8
DANMEN
  6
CONTINUOUS
 10
420.587688410591
 20
349.14958060622843
 30
0.0
 11
425.78768535883319
 21
354.34957773598478
 31
0.0
  0
LINE
  5
A8DA
  8
DANMEN
  6
CONTINUOUS
 10
420.587688410591
 20
353.63970867769558
 30
0.0
 11
426.94695090640261
 21
359.9989713954875
 31
0.0
  0
LINE
  5
A8DB
  8
DANMEN
  6
CONTINUOUS
 10
422.28768535883302
 20
359.82983375674593
 30
0.0
 11
423.53831459994632
 21
361.08046304151441
 31
0.0
  0
LINE
  5
A8DC
  8
DANMEN
  6
CONTINUOUS
 10
420.587688410591
 20
358.12983674916262
 30
0.0
 11
421.53831466975947
 21
359.08046304151441
 31
0.0
  0
LINE
  5
A8DD
  8
DANMEN
  6
CONTINUOUS
 10
187.3864057402732
 20
99.280475248545841
 30
0.0
 11
191.85737223193789
 21
103.7514418962767
 31
0.0
  0
LINE
  5
A8DE
  8
DANMEN
  6
CONTINUOUS
 10
182.89627782554109
 20
99.280475248545841
 30
0.0
 11
189.0704587771427
 21
105.454656415667
 31
0.0
  0
LINE
  5
A8DF
  8
DANMEN
  6
CONTINUOUS
 10
178.40614991080901
 20
99.280475248545841
 30
0.0
 11
184.8469761019974
 21
105.72130166456139
 31
0.0
  0
LINE
  5
A8E0
  8
DANMEN
  6
CONTINUOUS
 10
179.13901674420219
 20
104.503470178988
 30
0.0
 11
180.35684818726531
 21
105.72130166456139
 31
0.0
  0
LINE
  5
A8E1
  8
DANMEN
  6
CONTINUOUS
 10
175.48768230707529
 20
100.8521356144055
 30
0.0
 11
177.63104246467671
 21
102.9954958468243
 31
0.0
  0
LINE
  5
A8E2
  8
DANMEN
  6
CONTINUOUS
 10
190.044755977873
 20
88.468441364538123
 30
0.0
 11
192.087688410591
 21
90.511373868567901
 31
0.0
  0
LINE
  5
A8E3
  8
DANMEN
  6
CONTINUOUS
 10
185.86666193625661
 20
88.780475248545827
 30
0.0
 11
190.0686822572562
 21
92.982495716223696
 31
0.0
  0
LINE
  5
A8E4
  8
DANMEN
  6
CONTINUOUS
 10
181.37653402152441
 20
88.780475248545812
 30
0.0
 11
186.37653384699149
 21
93.780475248545827
 31
0.0
  0
LINE
  5
A8E5
  8
DANMEN
  6
CONTINUOUS
 10
175.82576672049069
 20
87.719835825220883
 30
0.0
 11
181.88640593225941
 21
93.780475248545827
 31
0.0
  0
LINE
  5
A8E6
  8
DANMEN
  6
CONTINUOUS
 10
177.22751555093819
 20
93.611712776065787
 30
0.0
 11
177.39627801752729
 21
93.780475248545827
 31
0.0
  0
LINE
  5
A8E7
  8
DANMEN
  6
CONTINUOUS
 10
175.5523110810432
 20
91.936508247695144
 30
0.0
 11
175.83164255701209
 21
92.215839733414555
 31
0.0
  0
LINE
  5
A8E8
  8
DANMEN
  6
CONTINUOUS
 10
190.9198937053628
 20
424.83370719404297
 30
0.0
 11
192.287673896341
 21
426.20148743276582
 31
0.0
  0
LINE
  5
A8E9
  8
DANMEN
  6
CONTINUOUS
 10
192.04278820265901
 20
430.44672980200278
 30
0.0
 11
192.2214216626615
 21
430.62536326824079
 31
0.0
  0
LINE
  5
A8EA
  8
DANMEN
  6
CONTINUOUS
 10
187.376533812085
 20
425.78047524854583
 30
0.0
 11
190.86885268856909
 21
429.27279424693478
 31
0.0
  0
LINE
  5
A8EB
  8
DANMEN
  6
CONTINUOUS
 10
182.88640589735289
 20
425.78047524854583
 30
0.0
 11
191.37661909133121
 21
434.2706887388884
 31
0.0
  0
LINE
  5
A8EC
  8
DANMEN
  6
CONTINUOUS
 10
179.1020397505998
 20
426.48623704116062
 30
0.0
 11
188.28768535883319
 21
435.67188297003338
 31
0.0
  0
LINE
  5
A8ED
  8
DANMEN
  6
CONTINUOUS
 10
175.28767833764391
 20
427.16200356652553
 30
0.0
 11
184.9061496839162
 21
436.78047524854571
 31
0.0
  0
LINE
  5
A8EE
  8
DANMEN
  6
CONTINUOUS
 10
179.2876853588331
 20
435.65213879880838
 30
0.0
 11
180.41602176918411
 21
436.78047524854571
 31
0.0
  0
LINE
  5
A8EF
  8
DANMEN
  6
CONTINUOUS
 10
175.2876853588331
 20
431.65213865918213
 30
0.0
 11
177.22085364895369
 21
433.58530701678291
 31
0.0
  0
LINE
  5
A8F0
  8
DANMEN
  6
CONTINUOUS
 10
532.3392024497374
 20
144.3122490950478
 30
0.0
 11
532.97950839415512
 21
144.95255506181641
 31
0.0
  0
LINE
  5
A8F1
  8
DANMEN
  6
CONTINUOUS
 10
528.38769146234881
 20
144.8508660411926
 30
0.0
 11
530.81852541998114
 21
147.28170008367709
 31
0.0
  0
LINE
  5
A8F2
  8
DANMEN
  6
CONTINUOUS
 10
523.54202503144211
 20
144.4953275126075
 30
0.0
 11
531.78768535883307
 21
152.74098812782631
 31
0.0
  0
LINE
  5
A8F3
  8
DANMEN
  6
CONTINUOUS
 10
522.83704472052182
 20
148.2804752485458
 30
0.0
 11
531.78768535883307
 21
157.2311161992935
 31
0.0
  0
LINE
  5
A8F4
  8
DANMEN
  6
CONTINUOUS
 10
520.78768535883319
 20
150.7212438867881
 30
0.0
 11
531.34690498086525
 21
161.28046387740659
 31
0.0
  0
LINE
  5
A8F5
  8
DANMEN
  6
CONTINUOUS
 10
524.4096063748043
 20
158.83329310065531
 30
0.0
 11
526.82913750998625
 21
161.25282432029491
 31
0.0
  0
LINE
  5
A8F6
  8
DANMEN
  6
CONTINUOUS
 10
520.78768535883319
 20
155.21137195825531
 30
0.0
 11
522.85678857689823
 21
157.2804752485458
 31
0.0
  0
LINE
  5
A8F7
  8
DANMEN
  6
CONTINUOUS
 10
515.28768535883307
 20
117.7804752485458
 30
0.0
 11
534.28768535883307
 21
117.7804752485458
 31
0.0
  0
LINE
  5
A8F8
  8
DANMEN
  6
CONTINUOUS
 10
494.78768535883319
 20
217.2804752485458
 30
0.0
 11
494.78768535883319
 21
212.2804752485458
 31
0.0
  0
LINE
  5
A8F9
  8
DANMEN
  6
CONTINUOUS
 10
544.78768535883319
 20
162.2804752485458
 30
0.0
 11
544.78768535883319
 21
161.7804752485458
 31
0.0
  0
LINE
  5
A8FA
  8
DANMEN
  6
CONTINUOUS
 10
495.28768535883302
 20
217.7804752485458
 30
0.0
 11
524.28768535883296
 21
217.7804752485458
 31
0.0
  0
LINE
  5
A8FB
  8
DANMEN
  6
CONTINUOUS
 10
524.78768535883319
 20
217.2804752485458
 30
0.0
 11
524.78768535883319
 21
215.7804752485458
 31
0.0
  0
LINE
  5
A8FC
  8
DANMEN
  6
CONTINUOUS
 10
495.28768535883302
 20
211.7804752485458
 30
0.0
 11
501.48768535883312
 21
211.7804752485458
 31
0.0
  0
LINE
  5
A8FD
  8
DANMEN
  6
CONTINUOUS
 10
496.48768235883318
 20
215.98047224854579
 30
0.0
 11
510.48768535883312
 21
215.98047224854579
 31
0.0
  0
LINE
  5
A8FE
  8
DANMEN
  6
CONTINUOUS
 10
496.48768235883318
 20
215.98047224854579
 30
0.0
 11
496.48768235883318
 21
212.7804752485458
 31
0.0
  0
LINE
  5
A8FF
  8
DANMEN
  6
CONTINUOUS
 10
501.78768535883307
 20
212.48047224854579
 30
0.0
 11
501.78768535883307
 21
212.0804782485458
 31
0.0
  0
LINE
  5
A900
  8
DANMEN
  6
CONTINUOUS
 10
506.78768535883307
 20
212.48047224854579
 30
0.0
 11
506.78768535883307
 21
212.0804782485458
 31
0.0
  0
LINE
  5
A901
  8
DANMEN
  6
CONTINUOUS
 10
511.78768535883319
 20
215.98047224854579
 30
0.0
 11
511.78768535883319
 21
212.2804752485458
 31
0.0
  0
LINE
  5
A902
  8
DANMEN
  6
CONTINUOUS
 10
510.48768535883312
 20
215.98047224854579
 30
0.0
 11
510.48768535883312
 21
212.7804752485458
 31
0.0
  0
LINE
  5
A903
  8
DANMEN
  6
CONTINUOUS
 10
496.48768235883318
 20
212.7804752485458
 30
0.0
 11
501.48768535883312
 21
212.7804752485458
 31
0.0
  0
LINE
  5
A904
  8
DANMEN
  6
CONTINUOUS
 10
507.08768535883308
 20
212.7804752485458
 30
0.0
 11
510.48768535883312
 21
212.7804752485458
 31
0.0
  0
LINE
  5
A905
  8
DANMEN
  6
CONTINUOUS
 10
507.08768535883308
 20
211.7804752485458
 30
0.0
 11
511.28768535883307
 21
211.7804752485458
 31
0.0
  0
LINE
  5
A906
  8
DANMEN
  6
CONTINUOUS
 10
511.78768535883319
 20
215.98047224854579
 30
0.0
 11
520.78768535883319
 21
215.98047224854579
 31
0.0
  0
LINE
  5
A907
  8
DANMEN
  6
CONTINUOUS
 10
523.28768535883307
 20
162.7804752485458
 30
0.0
 11
544.28768535883307
 21
162.7804752485458
 31
0.0
  0
LINE
  5
A908
  8
DANMEN
  6
CONTINUOUS
 10
534.78768535883307
 20
161.2804752485458
 30
0.0
 11
544.28768535883307
 21
161.2804752485458
 31
0.0
  0
LINE
  5
A909
  8
DANMEN
  6
CONTINUOUS
 10
534.78768535883307
 20
161.2804752485458
 30
0.0
 11
534.78768535883307
 21
158.4875832485458
 31
0.0
  0
LINE
  5
A90A
  8
DANMEN
  6
CONTINUOUS
 10
521.28768535883319
 20
157.2804752485458
 30
0.0
 11
523.98238735883308
 21
157.2804752485458
 31
0.0
  0
LINE
  5
A90B
  8
DANMEN
  6
CONTINUOUS
 10
521.28768535883319
 20
148.2804752485458
 30
0.0
 11
523.98238735883308
 21
148.2804752485458
 31
0.0
  0
LINE
  5
A90C
  8
DANMEN
  6
CONTINUOUS
 10
523.78768535883307
 20
142.48047224854579
 30
0.0
 11
532.78768535883319
 21
142.48047224854579
 31
0.0
  0
LINE
  5
A90D
  8
DANMEN
  6
CONTINUOUS
 10
524.08767335883306
 20
144.2804752485458
 30
0.0
 11
526.68767935883295
 21
144.2804752485458
 31
0.0
  0
LINE
  5
A90E
  8
DANMEN
  6
CONTINUOUS
 10
524.08767335883306
 20
161.2804752485458
 30
0.0
 11
526.68767935883295
 21
161.2804752485458
 31
0.0
  0
LINE
  5
A90F
  8
DANMEN
  6
CONTINUOUS
 10
532.65412535883297
 20
159.8305222485458
 30
0.0
 11
531.12123435883314
 21
158.7304122485458
 31
0.0
  0
LINE
  5
A910
  8
DANMEN
  6
CONTINUOUS
 10
531.58767335883306
 20
157.2804752485458
 30
0.0
 11
531.78768535883307
 21
157.2804752485458
 31
0.0
  0
LINE
  5
A911
  8
DANMEN
  6
CONTINUOUS
 10
534.78768535883307
 20
147.07336724854579
 30
0.0
 11
534.78768535883307
 21
144.48047224854579
 31
0.0
  0
LINE
  5
A912
  8
DANMEN
  6
CONTINUOUS
 10
520.78768535883319
 20
147.7804752485458
 30
0.0
 11
520.78768535883319
 21
139.7804752485458
 31
0.0
  0
LINE
  5
A913
  8
DANMEN
  6
CONTINUOUS
 10
531.58767335883306
 20
148.2804752485458
 30
0.0
 11
531.78768535883307
 21
148.2804752485458
 31
0.0
  0
LINE
  5
A914
  8
DANMEN
  6
CONTINUOUS
 10
532.65412835883319
 20
145.7304132485458
 30
0.0
 11
531.12123335883302
 21
146.83052624854579
 31
0.0
  0
LINE
  5
A915
  8
DANMEN
  6
CONTINUOUS
 10
524.60353435883314
 20
146.96266624854579
 30
0.0
 11
523.47061435883325
 21
145.58961624854581
 31
0.0
  0
LINE
  5
A916
  8
DANMEN
  6
CONTINUOUS
 10
524.60354235883324
 20
158.59827924854579
 30
0.0
 11
523.47062235883311
 21
159.9713292485458
 31
0.0
  0
LINE
  5
A917
  8
DANMEN
  6
CONTINUOUS
 10
522.78768535883307
 20
141.48047224854579
 30
0.0
 11
522.78768535883307
 21
120.4804752485458
 31
0.0
  0
LINE
  5
A918
  8
DANMEN
  6
CONTINUOUS
 10
514.78768535883307
 20
126.2804752485458
 30
0.0
 11
514.78768535883307
 21
118.2804752485458
 31
0.0
  0
LINE
  5
A919
  8
DANMEN
  6
CONTINUOUS
 10
534.78768535883307
 20
126.2804752485458
 30
0.0
 11
534.78768535883307
 21
118.2804752485458
 31
0.0
  0
LINE
  5
A91A
  8
DANMEN
  6
CONTINUOUS
 10
515.28768535883307
 20
126.7804752485458
 30
0.0
 11
516.48768235883313
 21
126.7804752485458
 31
0.0
  0
LINE
  5
A91B
  8
DANMEN
  6
CONTINUOUS
 10
533.18767935883295
 20
126.2804752485458
 30
0.0
 11
533.18767935883295
 21
119.4804752485458
 31
0.0
  0
LINE
  5
A91C
  8
DANMEN
  6
CONTINUOUS
 10
516.48768235883313
 20
119.4804752485458
 30
0.0
 11
520.78768535883319
 21
119.4804752485458
 31
0.0
  0
LINE
  5
A91D
  8
DANMEN
  6
CONTINUOUS
 10
516.48768235883313
 20
126.7804752485458
 30
0.0
 11
516.48768235883313
 21
119.4804752485458
 31
0.0
  0
LINE
  5
A91E
  8
DANMEN
  6
CONTINUOUS
 10
533.68767935883295
 20
126.7804752485458
 30
0.0
 11
534.28768535883307
 21
126.7804752485458
 31
0.0
  0
LINE
  5
A91F
  8
DANMEN
  6
CONTINUOUS
 10
523.78768535883307
 20
119.4804752485458
 30
0.0
 11
533.18767935883295
 21
119.4804752485458
 31
0.0
  0
LINE
  5
A920
  8
DANMEN
  6
CONTINUOUS
 10
520.78768535883319
 20
215.98047224854579
 30
0.0
 11
520.78768535883319
 21
157.7804752485458
 31
0.0
  0
LINE
  5
A921
  8
DANMEN
  6
CONTINUOUS
 10
523.28768535883307
 20
212.20975124854581
 30
0.0
 11
523.28768535883307
 21
162.7804752485458
 31
0.0
  0
LINE
  5
A922
  8
DANMEN
  6
CONTINUOUS
 10
533.7876793588332
 20
157.28046824854579
 30
0.0
 11
534.64123335883323
 21
158.13402224854579
 31
0.0
  0
LINE
  5
A923
  8
DANMEN
  6
CONTINUOUS
 10
533.78768435883319
 20
148.2804742485458
 30
0.0
 11
534.64123835883299
 21
147.4269202485458
 31
0.0
  0
LINE
  5
A924
  8
DANMEN
  6
CONTINUOUS
 10
517.28768535883319
 20
143.2804752485458
 30
0.0
 11
517.78768535883307
 21
143.2804752485458
 31
0.0
  0
LINE
  5
A925
  8
DANMEN
  6
CONTINUOUS
 10
517.78768535883307
 20
138.2804752485458
 30
0.0
 11
520.78768535883319
 21
138.2804752485458
 31
0.0
  0
LINE
  5
A926
  8
DANMEN
  6
CONTINUOUS
 10
516.78768535883319
 20
142.7804752485458
 30
0.0
 11
516.78768535883319
 21
139.2804752485458
 31
0.0
  0
LINE
  5
A927
  8
DANMEN
  6
CONTINUOUS
 10
518.28768535883296
 20
142.7804752485458
 30
0.0
 11
518.28768535883296
 21
139.7804752485458
 31
0.0
  0
LINE
  5
A928
  8
DANMEN
  6
CONTINUOUS
 10
518.28768535883296
 20
139.7804752485458
 30
0.0
 11
520.78768535883319
 21
139.7804752485458
 31
0.0
  0
LINE
  5
A929
  8
DANMEN
  6
CONTINUOUS
 10
520.78768535883319
 20
138.2804752485458
 30
0.0
 11
520.78768535883319
 21
119.4804752485458
 31
0.0
  0
ARC
  5
A92A
  8
DANMEN
  6
CONTINUOUS
 10
495.28768535883302
 20
217.2804752485458
 30
0.0
 40
0.5
 50
89.999982000000799
 51
179.99996399999989
  0
ARC
  5
A92B
  8
DANMEN
  6
CONTINUOUS
 10
495.28768535883302
 20
212.2804752485458
 30
0.0
 40
0.5
 50
179.9999810000001
 51
270.00001799999922
  0
ARC
  5
A92C
  8
DANMEN
  6
CONTINUOUS
 10
501.48768535883312
 20
212.48047224854579
 30
0.0
 40
0.3
 50
0.0
 51
89.999982000000799
  0
ARC
  5
A92D
  8
DANMEN
  6
CONTINUOUS
 10
501.48768535883312
 20
212.0804782485458
 30
0.0
 40
0.3
 50
270.00001799999922
 51
0.0
  0
ARC
  5
A92E
  8
DANMEN
  6
CONTINUOUS
 10
507.08768535883308
 20
212.48047224854579
 30
0.0
 40
0.3
 50
89.999982000000799
 51
179.99996399999989
  0
ARC
  5
A92F
  8
DANMEN
  6
CONTINUOUS
 10
507.08768535883308
 20
212.0804782485458
 30
0.0
 40
0.3
 50
179.9999810000001
 51
270.00001799999922
  0
ARC
  5
A930
  8
DANMEN
  6
CONTINUOUS
 10
511.28768535883307
 20
212.2804752485458
 30
0.0
 40
0.5
 50
270.00001799999922
 51
0.0
  0
ARC
  5
A931
  8
DANMEN
  6
CONTINUOUS
 10
524.28768535883296
 20
217.2804752485458
 30
0.0
 40
0.5
 50
0.0
 51
89.999982000000799
  0
ARC
  5
A932
  8
DANMEN
  6
CONTINUOUS
 10
544.28768535883307
 20
162.2804752485458
 30
0.0
 40
0.5
 50
0.0
 51
89.999982000000799
  0
ARC
  5
A933
  8
DANMEN
  6
CONTINUOUS
 10
544.28768535883307
 20
161.7804752485458
 30
0.0
 40
0.5
 50
270.00001799999922
 51
0.0
  0
ARC
  5
A934
  8
DANMEN
  6
CONTINUOUS
 10
532.18767935883307
 20
160.48047224854579
 30
0.0
 40
0.8
 50
305.6658929999993
 51
89.999982000000799
  0
ARC
  5
A935
  8
DANMEN
  6
CONTINUOUS
 10
531.58767335883306
 20
158.08046324854581
 30
0.0
 40
0.8
 50
125.6658640000001
 51
270.00000099999971
  0
ARC
  5
A936
  8
DANMEN
  6
CONTINUOUS
 10
531.58767335883306
 20
147.48047224854579
 30
0.0
 40
0.8
 50
89.999927000000142
 51
234.3340100000008
  0
ARC
  5
A937
  8
DANMEN
  6
CONTINUOUS
 10
532.18767935883307
 20
145.08046324854581
 30
0.0
 40
0.8
 50
269.99996300000009
 51
54.334046000000541
  0
ARC
  5
A938
  8
DANMEN
  6
CONTINUOUS
 10
532.78768535883319
 20
144.48047224854579
 30
0.0
 40
2.0
 50
270.00001799999922
 51
0.0
  0
ARC
  5
A939
  8
DANMEN
  6
CONTINUOUS
 10
521.28768535883319
 20
147.7804752485458
 30
0.0
 40
0.5
 50
89.999982000000799
 51
179.99996399999989
  0
ARC
  5
A93A
  8
DANMEN
  6
CONTINUOUS
 10
521.28768535883319
 20
157.7804752485458
 30
0.0
 40
0.5
 50
179.9999810000001
 51
270.00001799999922
  0
ARC
  5
A93B
  8
DANMEN
  6
CONTINUOUS
 10
523.98238735883308
 20
147.4751772485458
 30
0.0
 40
0.805288
 50
320.47358600000001
 51
89.999982000000799
  0
ARC
  5
A93C
  8
DANMEN
  6
CONTINUOUS
 10
524.08767335883306
 20
145.08046324854581
 30
0.0
 40
0.8
 50
140.47354999999951
 51
270.00000099999971
  0
ARC
  5
A93D
  8
DANMEN
  6
CONTINUOUS
 10
523.98238735883308
 20
158.0857582485458
 30
0.0
 40
0.805288
 50
269.99996300000009
 51
39.526358999999168
  0
ARC
  5
A93E
  8
DANMEN
  6
CONTINUOUS
 10
524.08767335883306
 20
160.48047224854579
 30
0.0
 40
0.8
 50
89.999927000000142
 51
219.52632300000059
  0
ARC
  5
A93F
  8
DANMEN
  6
CONTINUOUS
 10
523.78768535883307
 20
141.48047224854579
 30
0.0
 40
1.0
 50
89.999982000000799
 51
179.99996399999989
  0
ARC
  5
A940
  8
DANMEN
  6
CONTINUOUS
 10
515.28768535883307
 20
126.2804752485458
 30
0.0
 40
0.5
 50
89.999982000000799
 51
179.99996399999989
  0
ARC
  5
A941
  8
DANMEN
  6
CONTINUOUS
 10
515.28768535883307
 20
118.2804752485458
 30
0.0
 40
0.5
 50
179.9999810000001
 51
270.00001799999922
  0
ARC
  5
A942
  8
DANMEN
  6
CONTINUOUS
 10
533.68767935883295
 20
126.2804752485458
 30
0.0
 40
0.5
 50
89.999982000000799
 51
179.99996399999989
  0
ARC
  5
A943
  8
DANMEN
  6
CONTINUOUS
 10
534.28768535883307
 20
126.2804752485458
 30
0.0
 40
0.5
 50
0.0
 51
89.999982000000799
  0
ARC
  5
A944
  8
DANMEN
  6
CONTINUOUS
 10
534.28768535883307
 20
118.2804752485458
 30
0.0
 40
0.5
 50
270.00001799999922
 51
0.0
  0
ARC
  5
A945
  8
DANMEN
  6
CONTINUOUS
 10
528.28768535883319
 20
212.20975124854581
 30
0.0
 40
5.0
 50
134.42697500000071
 51
179.99996399999989
  0
ARC
  5
A946
  8
DANMEN
  6
CONTINUOUS
 10
523.78768535883307
 20
120.4804752485458
 30
0.0
 40
1.0
 50
179.9999810000001
 51
270.00001799999922
  0
ARC
  5
A947
  8
DANMEN
  6
CONTINUOUS
 10
534.28768535883307
 20
158.4875832485458
 30
0.0
 40
0.5
 50
314.99999899999898
 51
0.0
  0
ARC
  5
A948
  8
DANMEN
  6
CONTINUOUS
 10
534.28768535883307
 20
147.07336724854579
 30
0.0
 40
0.5
 50
359.99994500000008
 51
44.999946999999693
  0
ARC
  5
A949
  8
DANMEN
  6
CONTINUOUS
 10
517.78768535883307
 20
142.7804752485458
 30
0.0
 40
0.5
 50
0.0
 51
89.999982000000799
  0
ARC
  5
A94A
  8
DANMEN
  6
CONTINUOUS
 10
517.28768535883319
 20
142.7804752485458
 30
0.0
 40
0.5
 50
89.999982000000799
 51
179.99996399999989
  0
ARC
  5
A94B
  8
DANMEN
  6
CONTINUOUS
 10
517.78768535883307
 20
139.2804752485458
 30
0.0
 40
1.0
 50
179.9999810000001
 51
270.00001799999922
  0
LINE
  5
A94C
  8
DANMEN
  6
CONTINUOUS
 10
527.18767935883295
 20
160.7804752485458
 30
0.0
 11
527.18767935883295
 21
160.0804782485458
 31
0.0
  0
LINE
  5
A94D
  8
DANMEN
  6
CONTINUOUS
 10
528.38769135883297
 20
160.7804752485458
 30
0.0
 11
528.38769135883297
 21
160.0804782485458
 31
0.0
  0
LINE
  5
A94E
  8
DANMEN
  6
CONTINUOUS
 10
527.48768235883313
 20
159.7804752485458
 30
0.0
 11
528.08768835883325
 21
159.7804752485458
 31
0.0
  0
LINE
  5
A94F
  8
DANMEN
  6
CONTINUOUS
 10
528.88769135883319
 20
161.2804752485458
 30
0.0
 11
532.18767935883307
 21
161.2804752485458
 31
0.0
  0
ARC
  5
A950
  8
DANMEN
  6
CONTINUOUS
 10
528.88769135883319
 20
160.7804752485458
 30
0.0
 40
0.5
 50
89.999982000000799
 51
180.0000189999997
  0
ARC
  5
A951
  8
DANMEN
  6
CONTINUOUS
 10
526.68767935883295
 20
160.7804752485458
 30
0.0
 40
0.5
 50
0.0
 51
89.999982000000799
  0
ARC
  5
A952
  8
DANMEN
  6
CONTINUOUS
 10
527.48768235883313
 20
160.0804782485458
 30
0.0
 40
0.3
 50
180.0000189999997
 51
270.00000099999971
  0
ARC
  5
A953
  8
DANMEN
  6
CONTINUOUS
 10
528.08768835883325
 20
160.0804782485458
 30
0.0
 40
0.3
 50
270.00001799999922
 51
0.0
  0
LINE
  5
A954
  8
DANMEN
  6
CONTINUOUS
 10
528.88769135883319
 20
144.2804752485458
 30
0.0
 11
532.18767935883307
 21
144.2804752485458
 31
0.0
  0
LINE
  5
A955
  8
DANMEN
  6
CONTINUOUS
 10
527.18767935883295
 20
144.7804752485458
 30
0.0
 11
527.18767935883295
 21
145.48047224854579
 31
0.0
  0
LINE
  5
A956
  8
DANMEN
  6
CONTINUOUS
 10
528.38769135883297
 20
144.7804752485458
 30
0.0
 11
528.38769135883297
 21
145.48047224854579
 31
0.0
  0
LINE
  5
A957
  8
DANMEN
  6
CONTINUOUS
 10
527.48768235883313
 20
145.7804752485458
 30
0.0
 11
528.08768835883325
 21
145.7804752485458
 31
0.0
  0
ARC
  5
A958
  8
DANMEN
  6
CONTINUOUS
 10
528.88769135883319
 20
144.7804752485458
 30
0.0
 40
0.5
 50
179.99996399999989
 51
270.00000099999971
  0
ARC
  5
A959
  8
DANMEN
  6
CONTINUOUS
 10
526.68767935883295
 20
144.7804752485458
 30
0.0
 40
0.5
 50
270.00001799999922
 51
0.0
  0
ARC
  5
A95A
  8
DANMEN
  6
CONTINUOUS
 10
527.48768235883313
 20
145.48047224854579
 30
0.0
 40
0.3
 50
89.999982000000799
 51
179.99996399999989
  0
ARC
  5
A95B
  8
DANMEN
  6
CONTINUOUS
 10
528.08768835883325
 20
145.48047224854579
 30
0.0
 40
0.3
 50
0.0
 51
89.999982000000799
  0
LINE
  5
A95C
  8
DANMEN
  6
CONTINUOUS
 10
531.78768535883307
 20
148.2804752485458
 30
0.0
 11
533.78768535883319
 21
148.2804752485458
 31
0.0
  0
LINE
  5
A95D
  8
DANMEN
  6
CONTINUOUS
 10
531.78768535883307
 20
157.2804752485458
 30
0.0
 11
533.78768535883319
 21
157.2804752485458
 31
0.0
  0
LINE
  5
A95E
  8
DANMEN
  6
CONTINUOUS
 10
520.78768535883319
 20
157.7804752485458
 30
0.0
 11
520.78768535883319
 21
147.7804752485458
 31
0.0
  0
LINE
  5
A95F
  8
DANMEN
  6
CONTINUOUS
 10
531.78768535883307
 20
157.2804752485458
 30
0.0
 11
531.78768535883307
 21
148.2804752485458
 31
0.0
  0
LINE
  5
A960
  8
DANMEN
  6
CONTINUOUS
 10
113.7876853588331
 20
401.49738024854571
 30
0.0
 11
113.7876853588331
 21
397.28047524854583
 31
0.0
  0
LINE
  5
A961
  8
DANMEN
  6
CONTINUOUS
 10
114.2876853588331
 20
396.78047524854583
 30
0.0
 11
114.7876853588331
 21
396.78047524854583
 31
0.0
  0
LINE
  5
A962
  8
DANMEN
  6
CONTINUOUS
 10
218.7876853588331
 20
436.28047524854583
 30
0.0
 11
218.7876853588331
 21
417.28047524854583
 31
0.0
  0
LINE
  5
A963
  8
DANMEN
  6
CONTINUOUS
 10
118.7876853588331
 20
431.32385624854578
 30
0.0
 11
118.7876853588331
 21
404.78047524854583
 31
0.0
  0
LINE
  5
A964
  8
DANMEN
  6
CONTINUOUS
 10
174.2876853588331
 20
446.78047524854571
 30
0.0
 11
174.78768535883319
 21
446.78047524854571
 31
0.0
  0
LINE
  5
A965
  8
DANMEN
  6
CONTINUOUS
 10
115.2876853588331
 20
397.78047524854583
 30
0.0
 11
115.2876853588331
 21
397.28047524854583
 31
0.0
  0
LINE
  5
A966
  8
DANMEN
  6
CONTINUOUS
 10
115.08768835883311
 20
401.04442724854579
 30
0.0
 11
115.08768835883311
 21
397.78047524854583
 31
0.0
  0
LINE
  5
A967
  8
DANMEN
  6
CONTINUOUS
 10
115.08768835883311
 20
397.78047524854583
 30
0.0
 11
115.2876853588331
 21
397.78047524854583
 31
0.0
  0
LINE
  5
A968
  8
DANMEN
  6
CONTINUOUS
 10
119.2876853588331
 20
396.78047524854583
 30
0.0
 11
124.2876853588331
 21
396.78047524854583
 31
0.0
  0
LINE
  5
A969
  8
DANMEN
  6
CONTINUOUS
 10
118.7876843588332
 20
404.78046724854579
 30
0.0
 11
114.0304413588332
 21
401.92612124854571
 31
0.0
  0
LINE
  5
A96A
  8
DANMEN
  6
CONTINUOUS
 10
118.7876793588332
 20
403.2644312485458
 30
0.0
 11
115.08768735883309
 21
401.04443524854582
 31
0.0
  0
LINE
  5
A96B
  8
DANMEN
  6
CONTINUOUS
 10
118.7876853588331
 20
403.2644282485457
 30
0.0
 11
118.7876853588331
 21
397.28047524854583
 31
0.0
  0
LINE
  5
A96C
  8
DANMEN
  6
CONTINUOUS
 10
120.5876883588332
 20
430.13669124854579
 30
0.0
 11
120.5876883588332
 21
416.78047524854583
 31
0.0
  0
LINE
  5
A96D
  8
DANMEN
  6
CONTINUOUS
 10
120.5876883588332
 20
416.78047524854583
 30
0.0
 11
124.2876853588331
 21
416.78047524854583
 31
0.0
  0
LINE
  5
A96E
  8
DANMEN
  6
CONTINUOUS
 10
124.7876853588332
 20
416.28047524854583
 30
0.0
 11
124.7876853588332
 21
413.28047524854583
 31
0.0
  0
LINE
  5
A96F
  8
DANMEN
  6
CONTINUOUS
 10
123.7876853588331
 20
415.28047524854583
 30
0.0
 11
123.7876853588331
 21
413.28047524854583
 31
0.0
  0
LINE
  5
A970
  8
DANMEN
  6
CONTINUOUS
 10
120.4876823588331
 20
398.48047224854582
 30
0.0
 11
123.7876853588331
 21
398.48047224854582
 31
0.0
  0
LINE
  5
A971
  8
DANMEN
  6
CONTINUOUS
 10
120.4876823588331
 20
415.28047524854583
 30
0.0
 11
123.7876853588331
 21
415.28047524854583
 31
0.0
  0
LINE
  5
A972
  8
DANMEN
  6
CONTINUOUS
 10
124.7876853588332
 20
403.28047524854583
 30
0.0
 11
124.7876853588332
 21
397.28047524854583
 31
0.0
  0
LINE
  5
A973
  8
DANMEN
  6
CONTINUOUS
 10
123.7876853588331
 20
403.28047524854583
 30
0.0
 11
123.7876853588331
 21
398.48047224854582
 31
0.0
  0
LINE
  5
A974
  8
DANMEN
  6
CONTINUOUS
 10
120.4876823588331
 20
415.28047524854583
 30
0.0
 11
120.4876823588331
 21
398.48047224854582
 31
0.0
  0
LINE
  5
A975
  8
DANMEN
  6
CONTINUOUS
 10
173.7876853588331
 20
446.28047524854583
 30
0.0
 11
173.7876853588331
 21
436.78047524854571
 31
0.0
  0
LINE
  5
A976
  8
DANMEN
  6
CONTINUOUS
 10
175.2876853588331
 20
446.28047524854583
 30
0.0
 11
175.2876853588331
 21
436.78047524854571
 31
0.0
  0
LINE
  5
A977
  8
DANMEN
  6
CONTINUOUS
 10
173.7876793588332
 20
436.7804632485458
 30
0.0
 11
119.2424203588331
 21
431.82180624854573
 31
0.0
  0
LINE
  5
A978
  8
DANMEN
  6
CONTINUOUS
 10
145.68767935883309
 20
432.61932724854569
 30
0.0
 11
145.68767935883309
 21
429.48047224854582
 31
0.0
  0
LINE
  5
A979
  8
DANMEN
  6
CONTINUOUS
 10
143.8876763588332
 20
431.15983924854578
 30
0.0
 11
143.8876763588332
 21
429.48047224854582
 31
0.0
  0
LINE
  5
A97A
  8
DANMEN
  6
CONTINUOUS
 10
210.2876853588331
 20
416.78047524854583
 30
0.0
 11
218.2876853588331
 21
416.78047524854583
 31
0.0
  0
LINE
  5
A97B
  8
DANMEN
  6
CONTINUOUS
 10
146.58767335883309
 20
422.78047524854583
 30
0.0
 11
178.0805773588331
 21
422.78047524854583
 31
0.0
  0
LINE
  5
A97C
  8
DANMEN
  6
CONTINUOUS
 10
146.0876733588332
 20
423.59724724854578
 30
0.0
 11
146.0876733588332
 21
423.28047524854583
 31
0.0
  0
LINE
  5
A97D
  8
DANMEN
  6
CONTINUOUS
 10
143.4876823588331
 20
423.59724724854578
 30
0.0
 11
143.4876823588331
 21
423.28047524854583
 31
0.0
  0
LINE
  5
A97E
  8
DANMEN
  6
CONTINUOUS
 10
147.0876733588332
 20
426.68046924854571
 30
0.0
 11
147.0876733588332
 21
424.78047524854583
 31
0.0
  0
LINE
  5
A97F
  8
DANMEN
  6
CONTINUOUS
 10
142.4876823588331
 20
426.68046924854571
 30
0.0
 11
142.4876823588331
 21
424.78047524854583
 31
0.0
  0
LINE
  5
A980
  8
DANMEN
  6
CONTINUOUS
 10
140.08767335883309
 20
422.78047524854583
 30
0.0
 11
142.9876823588331
 21
422.78047524854583
 31
0.0
  0
LINE
  5
A981
  8
DANMEN
  6
CONTINUOUS
 10
143.4876823588331
 20
427.68046924854582
 30
0.0
 11
146.0876733588332
 21
427.68046924854582
 31
0.0
  0
LINE
  5
A982
  8
DANMEN
  6
CONTINUOUS
 10
148.8876763588332
 20
426.68046924854571
 30
0.0
 11
148.8876763588332
 21
425.78047524854583
 31
0.0
  0
LINE
  5
A983
  8
DANMEN
  6
CONTINUOUS
 10
140.68767935883309
 20
426.68046924854571
 30
0.0
 11
140.68767935883309
 21
423.78047524854583
 31
0.0
  0
LINE
  5
A984
  8
DANMEN
  6
CONTINUOUS
 10
143.4876823588331
 20
429.48047224854582
 30
0.0
 11
143.8876763588332
 21
429.48047224854582
 31
0.0
  0
LINE
  5
A985
  8
DANMEN
  6
CONTINUOUS
 10
145.68767935883309
 20
429.48047224854582
 30
0.0
 11
146.0876733588332
 21
429.48047224854582
 31
0.0
  0
LINE
  5
A986
  8
DANMEN
  6
CONTINUOUS
 10
142.79714435883309
 20
432.15571724854578
 30
0.0
 11
120.5876893588332
 21
430.13667724854582
 31
0.0
  0
LINE
  5
A987
  8
DANMEN
  6
CONTINUOUS
 10
139.7876853588331
 20
423.48047224854582
 30
0.0
 11
139.7876853588331
 21
423.0804632485457
 31
0.0
  0
LINE
  5
A988
  8
DANMEN
  6
CONTINUOUS
 10
140.08767335883309
 20
423.78047524854583
 30
0.0
 11
140.68767935883309
 21
423.78047524854583
 31
0.0
  0
LINE
  5
A989
  8
DANMEN
  6
CONTINUOUS
 10
148.8876763588332
 20
425.78047524854583
 30
0.0
 11
157.2876853588333
 21
425.78047524854583
 31
0.0
  0
LINE
  5
A98A
  8
DANMEN
  6
CONTINUOUS
 10
179.2876853588331
 20
436.28047524854583
 30
0.0
 11
179.2876853588331
 21
433.58046324854581
 31
0.0
  0
LINE
  5
A98B
  8
DANMEN
  6
CONTINUOUS
 10
175.2876853588331
 20
436.78047524854571
 30
0.0
 11
178.7876853588331
 21
436.78047524854571
 31
0.0
  0
LINE
  5
A98C
  8
DANMEN
  6
CONTINUOUS
 10
188.28768535883319
 20
436.28047524854583
 30
0.0
 11
188.28768535883319
 21
433.58046324854581
 31
0.0
  0
LINE
  5
A98D
  8
DANMEN
  6
CONTINUOUS
 10
192.2876853588331
 20
433.48047224854582
 30
0.0
 11
192.2876853588331
 21
430.88048124854578
 31
0.0
  0
LINE
  5
A98E
  8
DANMEN
  6
CONTINUOUS
 10
175.2876853588331
 20
433.48047224854582
 30
0.0
 11
175.2876853588331
 21
430.88048124854578
 31
0.0
  0
LINE
  5
A98F
  8
DANMEN
  6
CONTINUOUS
 10
189.49479335883311
 20
422.78047524854583
 30
0.0
 11
196.7876853588331
 21
422.78047524854583
 31
0.0
  0
LINE
  5
A990
  8
DANMEN
  6
CONTINUOUS
 10
177.9800943588331
 20
432.9621112485458
 30
0.0
 11
176.59523735883309
 21
434.09883824854569
 31
0.0
  0
LINE
  5
A991
  8
DANMEN
  6
CONTINUOUS
 10
190.98011135883311
 20
434.09884624854578
 30
0.0
 11
189.5952553588331
 21
432.96211724854578
 31
0.0
  0
LINE
  5
A992
  8
DANMEN
  6
CONTINUOUS
 10
188.7876853588331
 20
436.78047524854571
 30
0.0
 11
191.88767635883309
 21
436.78047524854571
 31
0.0
  0
LINE
  5
A993
  8
DANMEN
  6
CONTINUOUS
 10
173.6876823588332
 20
435.16476824854578
 30
0.0
 11
145.68768235883309
 21
432.61931524854572
 31
0.0
  0
LINE
  5
A994
  8
DANMEN
  6
CONTINUOUS
 10
173.68767935883309
 20
435.1647832485458
 30
0.0
 11
173.68767935883309
 21
425.58046324854581
 31
0.0
  0
LINE
  5
A995
  8
DANMEN
  6
CONTINUOUS
 10
158.7573663588332
 20
424.58046324854581
 30
0.0
 11
172.68767935883309
 21
424.58046324854581
 31
0.0
  0
LINE
  5
A996
  8
DANMEN
  6
CONTINUOUS
 10
179.2876853588331
 20
425.98047224854582
 30
0.0
 11
179.2876853588331
 21
425.78047524854583
 31
0.0
  0
LINE
  5
A997
  8
DANMEN
  6
CONTINUOUS
 10
177.8377303588332
 20
426.44692424854571
 30
0.0
 11
176.73762335883319
 21
424.91403224854571
 31
0.0
  0
LINE
  5
A998
  8
DANMEN
  6
CONTINUOUS
 10
188.28768535883319
 20
425.98047224854582
 30
0.0
 11
188.28768535883319
 21
425.78047524854583
 31
0.0
  0
LINE
  5
A999
  8
DANMEN
  6
CONTINUOUS
 10
189.73762935883309
 20
426.44692024854578
 30
0.0
 11
190.8377363588331
 21
424.91402724854578
 31
0.0
  0
LINE
  5
A99A
  8
DANMEN
  6
CONTINUOUS
 10
193.88767635883309
 20
434.78047524854571
 30
0.0
 11
193.88767635883309
 21
425.78047524854583
 31
0.0
  0
LINE
  5
A99B
  8
DANMEN
  6
CONTINUOUS
 10
210.2876853588331
 20
436.78047524854571
 30
0.0
 11
218.2876853588331
 21
436.78047524854571
 31
0.0
  0
LINE
  5
A99C
  8
DANMEN
  6
CONTINUOUS
 10
193.88767635883309
 20
425.78047524854583
 30
0.0
 11
199.68767935883309
 21
425.78047524854583
 31
0.0
  0
LINE
  5
A99D
  8
DANMEN
  6
CONTINUOUS
 10
209.7876853588331
 20
436.28047524854583
 30
0.0
 11
209.7876853588331
 21
435.68046924854582
 31
0.0
  0
LINE
  5
A99E
  8
DANMEN
  6
CONTINUOUS
 10
210.2876853588331
 20
435.18046924854559
 30
0.0
 11
217.08768835883319
 21
435.18046924854559
 31
0.0
  0
LINE
  5
A99F
  8
DANMEN
  6
CONTINUOUS
 10
217.08768835883319
 20
435.18046924854559
 30
0.0
 11
217.08768835883319
 21
425.58046324854581
 31
0.0
  0
LINE
  5
A9A0
  8
DANMEN
  6
CONTINUOUS
 10
209.7876853588331
 20
418.4804722485456
 30
0.0
 11
217.08768835883319
 21
418.4804722485456
 31
0.0
  0
LINE
  5
A9A1
  8
DANMEN
  6
CONTINUOUS
 10
209.7876853588331
 20
418.4804722485456
 30
0.0
 11
209.7876853588331
 21
417.28047524854583
 31
0.0
  0
LINE
  5
A9A2
  8
DANMEN
  6
CONTINUOUS
 10
217.08768835883319
 20
421.78047524854583
 30
0.0
 11
217.08768835883319
 21
418.4804722485456
 31
0.0
  0
LINE
  5
A9A3
  8
DANMEN
  6
CONTINUOUS
 10
208.88767635883309
 20
424.58046324854581
 30
0.0
 11
216.08768835883311
 21
424.58046324854581
 31
0.0
  0
LINE
  5
A9A4
  8
DANMEN
  6
CONTINUOUS
 10
201.4876823588331
 20
425.48047224854582
 30
0.0
 11
201.4876823588331
 21
427.38046624854559
 31
0.0
  0
LINE
  5
A9A5
  8
DANMEN
  6
CONTINUOUS
 10
202.4876823588331
 20
428.56367824854578
 30
0.0
 11
202.4876823588331
 21
429.3804662485457
 31
0.0
  0
LINE
  5
A9A6
  8
DANMEN
  6
CONTINUOUS
 10
199.68767935883309
 20
425.78047524854583
 30
0.0
 11
199.68767935883309
 21
427.58046324854581
 31
0.0
  0
LINE
  5
A9A7
  8
DANMEN
  6
CONTINUOUS
 10
205.08768835883311
 20
424.48047224854571
 30
0.0
 11
202.4876823588331
 21
424.48047224854571
 31
0.0
  0
LINE
  5
A9A8
  8
DANMEN
  6
CONTINUOUS
 10
206.08768835883311
 20
427.38046624854559
 30
0.0
 11
206.08768835883311
 21
425.48047224854582
 31
0.0
  0
LINE
  5
A9A9
  8
DANMEN
  6
CONTINUOUS
 10
205.08768835883311
 20
429.3804662485457
 30
0.0
 11
205.08768835883311
 21
428.56367824854578
 31
0.0
  0
LINE
  5
A9AA
  8
DANMEN
  6
CONTINUOUS
 10
207.8876763588332
 20
427.58046324854581
 30
0.0
 11
207.8876763588332
 21
425.58046324854581
 31
0.0
  0
LINE
  5
A9AB
  8
DANMEN
  6
CONTINUOUS
 10
179.2876753588331
 20
423.78048224854581
 30
0.0
 11
178.43412235883309
 21
422.92692924854572
 31
0.0
  0
LINE
  5
A9AC
  8
DANMEN
  6
CONTINUOUS
 10
188.2876743588331
 20
423.78047224854578
 30
0.0
 11
189.14122835883319
 21
422.92691824854569
 31
0.0
  0
LINE
  5
A9AD
  8
DANMEN
  6
CONTINUOUS
 10
193.2876853588331
 20
419.78047524854583
 30
0.0
 11
193.2876853588331
 21
419.28047524854583
 31
0.0
  0
LINE
  5
A9AE
  8
DANMEN
  6
CONTINUOUS
 10
198.2876853588331
 20
422.78047524854583
 30
0.0
 11
198.2876853588331
 21
419.78047524854583
 31
0.0
  0
LINE
  5
A9AF
  8
DANMEN
  6
CONTINUOUS
 10
196.7876853588331
 20
422.78047524854583
 30
0.0
 11
196.7876853588331
 21
420.28047524854583
 31
0.0
  0
LINE
  5
A9B0
  8
DANMEN
  6
CONTINUOUS
 10
193.7876853588331
 20
418.78047524854583
 30
0.0
 11
197.2876853588331
 21
418.78047524854583
 31
0.0
  0
LINE
  5
A9B1
  8
DANMEN
  6
CONTINUOUS
 10
193.7876853588331
 20
420.28047524854583
 30
0.0
 11
196.7876853588331
 21
420.28047524854583
 31
0.0
  0
LINE
  5
A9B2
  8
DANMEN
  6
CONTINUOUS
 10
198.2876853588331
 20
422.78047524854583
 30
0.0
 11
216.08768835883311
 21
422.78047524854583
 31
0.0
  0
ARC
  5
A9B3
  8
DANMEN
  6
CONTINUOUS
 10
114.7876853588331
 20
397.28047524854583
 30
0.0
 40
0.5
 50
270.00001799999922
 51
0.0
  0
ARC
  5
A9B4
  8
DANMEN
  6
CONTINUOUS
 10
114.2876853588331
 20
397.28047524854583
 30
0.0
 40
0.5
 50
179.9999810000001
 51
270.00001799999922
  0
ARC
  5
A9B5
  8
DANMEN
  6
CONTINUOUS
 10
114.2876853588331
 20
401.49738024854571
 30
0.0
 40
0.5
 50
120.96374300000009
 51
179.99996399999989
  0
ARC
  5
A9B6
  8
DANMEN
  6
CONTINUOUS
 10
124.2876853588331
 20
416.28047524854583
 30
0.0
 40
0.5
 50
0.0
 51
89.999981999999164
  0
ARC
  5
A9B7
  8
DANMEN
  6
CONTINUOUS
 10
124.2876853588331
 20
413.28047524854583
 30
0.0
 40
0.5
 50
270.00001799999922
 51
0.0
  0
ARC
  5
A9B8
  8
DANMEN
  6
CONTINUOUS
 10
124.2876853588331
 20
413.28047524854583
 30
0.0
 40
0.5
 50
179.9999810000001
 51
270.00001799999922
  0
ARC
  5
A9B9
  8
DANMEN
  6
CONTINUOUS
 10
124.2876853588331
 20
403.28047524854583
 30
0.0
 40
0.5
 50
0.0
 51
89.999981999999164
  0
ARC
  5
A9BA
  8
DANMEN
  6
CONTINUOUS
 10
124.2876853588331
 20
403.28047524854583
 30
0.0
 40
0.5
 50
89.999981999999164
 51
179.99996399999989
  0
ARC
  5
A9BB
  8
DANMEN
  6
CONTINUOUS
 10
124.2876853588331
 20
397.28047524854583
 30
0.0
 40
0.5
 50
270.00001799999922
 51
0.0
  0
ARC
  5
A9BC
  8
DANMEN
  6
CONTINUOUS
 10
119.2876853588331
 20
397.28047524854583
 30
0.0
 40
0.5
 50
179.9999810000001
 51
270.00001799999922
  0
ARC
  5
A9BD
  8
DANMEN
  6
CONTINUOUS
 10
143.4876823588331
 20
426.68046924854571
 30
0.0
 40
1.0
 50
89.999981999999164
 51
180.0000189999997
  0
ARC
  5
A9BE
  8
DANMEN
  6
CONTINUOUS
 10
146.0876733588332
 20
426.68046924854571
 30
0.0
 40
1.0
 50
0.0
 51
89.999981999999164
  0
ARC
  5
A9BF
  8
DANMEN
  6
CONTINUOUS
 10
143.4876823588331
 20
424.78047524854583
 30
0.0
 40
1.0
 50
180.0000189999997
 51
260.40593399999892
  0
ARC
  5
A9C0
  8
DANMEN
  6
CONTINUOUS
 10
146.0876733588332
 20
424.78047524854583
 30
0.0
 40
1.0
 50
279.59408400000041
 51
0.0
  0
ARC
  5
A9C1
  8
DANMEN
  6
CONTINUOUS
 10
146.2876853588331
 20
423.59724724854578
 30
0.0
 40
0.2
 50
99.594321000000065
 51
180.0000189999997
  0
ARC
  5
A9C2
  8
DANMEN
  6
CONTINUOUS
 10
143.2876853588331
 20
423.59724724854578
 30
0.0
 40
0.2
 50
0.0
 51
80.405697000000458
  0
ARC
  5
A9C3
  8
DANMEN
  6
CONTINUOUS
 10
146.58767335883309
 20
423.28047524854583
 30
0.0
 40
0.5
 50
180.0000189999997
 51
270.00005499999901
  0
ARC
  5
A9C4
  8
DANMEN
  6
CONTINUOUS
 10
142.9876823588331
 20
423.28047524854583
 30
0.0
 40
0.5
 50
270.00001799999922
 51
0.0
  0
ARC
  5
A9C5
  8
DANMEN
  6
CONTINUOUS
 10
143.4876823588331
 20
426.68046924854571
 30
0.0
 40
2.7999990000000001
 50
89.999981999999164
 51
179.99996399999989
  0
ARC
  5
A9C6
  8
DANMEN
  6
CONTINUOUS
 10
146.0876733588332
 20
426.68046924854571
 30
0.0
 40
2.7999990000000001
 50
0.0
 51
89.999981999999164
  0
ARC
  5
A9C7
  8
DANMEN
  6
CONTINUOUS
 10
142.8876763588332
 20
431.15983924854578
 30
0.0
 40
1.0
 50
0.0
 51
95.194423000000953
  0
ARC
  5
A9C8
  8
DANMEN
  6
CONTINUOUS
 10
119.2876853588331
 20
431.32385624854578
 30
0.0
 40
0.5
 50
95.194423000000953
 51
179.99996399999989
  0
ARC
  5
A9C9
  8
DANMEN
  6
CONTINUOUS
 10
140.08767335883309
 20
423.48047224854582
 30
0.0
 40
0.3
 50
89.999981999999164
 51
179.99996399999989
  0
ARC
  5
A9CA
  8
DANMEN
  6
CONTINUOUS
 10
140.08767335883309
 20
423.0804632485457
 30
0.0
 40
0.3
 50
179.9999810000001
 51
270.00001799999922
  0
ARC
  5
A9CB
  8
DANMEN
  6
CONTINUOUS
 10
178.4876823588331
 20
433.58046324854581
 30
0.0
 40
0.8
 50
230.6200980000001
 51
0.0
  0
ARC
  5
A9CC
  8
DANMEN
  6
CONTINUOUS
 10
176.08767335883309
 20
433.48047224854582
 30
0.0
 40
0.8
 50
50.61993900000062
 51
179.99996399999989
  0
ARC
  5
A9CD
  8
DANMEN
  6
CONTINUOUS
 10
191.4876823588331
 20
433.48047224854582
 30
0.0
 40
0.8
 50
0.0
 51
129.3800660000004
  0
ARC
  5
A9CE
  8
DANMEN
  6
CONTINUOUS
 10
189.08768835883311
 20
433.58046324854581
 30
0.0
 40
0.8
 50
179.9999810000001
 51
309.38006099999927
  0
ARC
  5
A9CF
  8
DANMEN
  6
CONTINUOUS
 10
178.7876853588331
 20
436.28047524854583
 30
0.0
 40
0.5
 50
0.0
 51
89.999981999999164
  0
ARC
  5
A9D0
  8
DANMEN
  6
CONTINUOUS
 10
188.7876853588331
 20
436.28047524854583
 30
0.0
 40
0.5
 50
89.999981999999164
 51
179.99996399999989
  0
ARC
  5
A9D1
  8
DANMEN
  6
CONTINUOUS
 10
157.2876853588333
 20
425.28047524854583
 30
0.0
 40
0.5
 50
11.53698500000006
 51
89.999981999999164
  0
ARC
  5
A9D2
  8
DANMEN
  6
CONTINUOUS
 10
158.7573663588332
 20
425.58046324854581
 30
0.0
 40
1.0
 50
191.53693600000031
 51
270.00001799999922
  0
ARC
  5
A9D3
  8
DANMEN
  6
CONTINUOUS
 10
172.68767935883309
 20
425.58046324854581
 30
0.0
 40
1.0
 50
270.00001799999922
 51
0.0
  0
ARC
  5
A9D4
  8
DANMEN
  6
CONTINUOUS
 10
178.4876823588331
 20
425.98047224854582
 30
0.0
 40
0.8
 50
0.0
 51
144.33424600000049
  0
ARC
  5
A9D5
  8
DANMEN
  6
CONTINUOUS
 10
176.08767335883309
 20
425.38046624854582
 30
0.0
 40
0.8
 50
179.9999810000001
 51
324.33422100000018
  0
ARC
  5
A9D6
  8
DANMEN
  6
CONTINUOUS
 10
191.4876823588331
 20
425.38046624854582
 30
0.0
 40
0.8
 50
215.6657539999994
 51
0.0
  0
ARC
  5
A9D7
  8
DANMEN
  6
CONTINUOUS
 10
189.08768835883311
 20
425.98047224854582
 30
0.0
 40
0.8
 50
35.665677000000571
 51
179.99996399999989
  0
ARC
  5
A9D8
  8
DANMEN
  6
CONTINUOUS
 10
191.88767635883309
 20
434.78047524854571
 30
0.0
 40
2.0
 50
0.0
 51
89.999981999999164
  0
ARC
  5
A9D9
  8
DANMEN
  6
CONTINUOUS
 10
218.2876853588331
 20
436.28047524854583
 30
0.0
 40
0.5
 50
0.0
 51
89.999981999999164
  0
ARC
  5
A9DA
  8
DANMEN
  6
CONTINUOUS
 10
218.2876853588331
 20
417.28047524854583
 30
0.0
 40
0.5
 50
270.00001799999922
 51
0.0
  0
ARC
  5
A9DB
  8
DANMEN
  6
CONTINUOUS
 10
210.2876853588331
 20
417.28047524854583
 30
0.0
 40
0.5
 50
179.9999810000001
 51
270.00001799999922
  0
ARC
  5
A9DC
  8
DANMEN
  6
CONTINUOUS
 10
210.2876853588331
 20
436.28047524854583
 30
0.0
 40
0.5
 50
89.999981999999164
 51
179.99996399999989
  0
ARC
  5
A9DD
  8
DANMEN
  6
CONTINUOUS
 10
210.2876853588331
 20
435.68046924854582
 30
0.0
 40
0.5
 50
179.9999810000001
 51
270.00001799999922
  0
ARC
  5
A9DE
  8
DANMEN
  6
CONTINUOUS
 10
216.08768835883311
 20
421.78047524854583
 30
0.0
 40
1.0
 50
0.0
 51
89.999981999999164
  0
ARC
  5
A9DF
  8
DANMEN
  6
CONTINUOUS
 10
216.08768835883311
 20
425.58046324854581
 30
0.0
 40
1.0
 50
270.00001799999922
 51
0.0
  0
ARC
  5
A9E0
  8
DANMEN
  6
CONTINUOUS
 10
174.2876853588331
 20
446.28047524854583
 30
0.0
 40
0.5
 50
89.999981999999164
 51
179.99996399999989
  0
ARC
  5
A9E1
  8
DANMEN
  6
CONTINUOUS
 10
174.78768535883319
 20
446.28047524854583
 30
0.0
 40
0.5
 50
0.0
 51
89.999981999999164
  0
ARC
  5
A9E2
  8
DANMEN
  6
CONTINUOUS
 10
202.4876823588331
 20
425.48047224854582
 30
0.0
 40
1.0
 50
179.99996399999989
 51
270.00000099999971
  0
ARC
  5
A9E3
  8
DANMEN
  6
CONTINUOUS
 10
201.9876823588331
 20
429.3804662485457
 30
0.0
 40
0.5
 50
0.0000369999998155
 51
90.240605999999687
  0
ARC
  5
A9E4
  8
DANMEN
  6
CONTINUOUS
 10
201.9876823588331
 20
427.58046324854581
 30
0.0
 40
2.2999990000000001
 50
90.052274000000409
 51
179.99996399999989
  0
ARC
  5
A9E5
  8
DANMEN
  6
CONTINUOUS
 10
205.08767335883309
 20
425.48047224854582
 30
0.0
 40
1.0
 50
270.00000099999971
 51
359.9999829999997
  0
ARC
  5
A9E6
  8
DANMEN
  6
CONTINUOUS
 10
205.58768835883311
 20
429.3804662485457
 30
0.0
 40
0.5
 50
89.759340999999182
 51
179.99990900000009
  0
ARC
  5
A9E7
  8
DANMEN
  6
CONTINUOUS
 10
205.58768835883311
 20
427.58046324854581
 30
0.0
 40
2.2999990000000001
 50
359.9999829999997
 51
90.052366000000148
  0
ARC
  5
A9E8
  8
DANMEN
  6
CONTINUOUS
 10
205.08768835883311
 20
427.38046624854559
 30
0.0
 40
1.0
 50
0.0000369999998155
 51
80.405953000000537
  0
ARC
  5
A9E9
  8
DANMEN
  6
CONTINUOUS
 10
205.2876853588331
 20
428.56367824854578
 30
0.0
 40
0.2
 50
179.99996399999989
 51
260.40571600000038
  0
ARC
  5
A9EA
  8
DANMEN
  6
CONTINUOUS
 10
202.4876823588331
 20
427.38046624854559
 30
0.0
 40
1.0
 50
99.594047999999177
 51
179.99996399999989
  0
ARC
  5
A9EB
  8
DANMEN
  6
CONTINUOUS
 10
202.2876853588331
 20
428.56367824854578
 30
0.0
 40
0.2
 50
279.59434000000039
 51
359.9999829999997
  0
ARC
  5
A9EC
  8
DANMEN
  6
CONTINUOUS
 10
208.88767635883309
 20
425.58046324854581
 30
0.0
 40
1.0
 50
179.9999810000001
 51
270.00001799999922
  0
ARC
  5
A9ED
  8
DANMEN
  6
CONTINUOUS
 10
178.0805773588331
 20
423.28047524854583
 30
0.0
 40
0.5
 50
270.00001799999922
 51
314.99999900000068
  0
ARC
  5
A9EE
  8
DANMEN
  6
CONTINUOUS
 10
189.49479335883311
 20
423.28047524854583
 30
0.0
 40
0.5
 50
225.0
 51
269.99996300000009
  0
ARC
  5
A9EF
  8
DANMEN
  6
CONTINUOUS
 10
193.7876853588331
 20
419.78047524854583
 30
0.0
 40
0.5
 50
89.999981999999164
 51
179.99996399999989
  0
ARC
  5
A9F0
  8
DANMEN
  6
CONTINUOUS
 10
193.7876853588331
 20
419.28047524854583
 30
0.0
 40
0.5
 50
179.9999810000001
 51
270.00001799999922
  0
ARC
  5
A9F1
  8
DANMEN
  6
CONTINUOUS
 10
197.2876853588331
 20
419.78047524854583
 30
0.0
 40
1.0
 50
270.00001799999922
 51
0.0
  0
LINE
  5
A9F2
  8
DANMEN
  6
CONTINUOUS
 10
191.08768835883311
 20
429.18046924854571
 30
0.0
 11
191.7876853588331
 21
429.18046924854571
 31
0.0
  0
LINE
  5
A9F3
  8
DANMEN
  6
CONTINUOUS
 10
191.08768835883311
 20
430.38048124854572
 30
0.0
 11
191.7876853588331
 21
430.38048124854572
 31
0.0
  0
LINE
  5
A9F4
  8
DANMEN
  6
CONTINUOUS
 10
190.78768535883319
 20
430.08047824854577
 30
0.0
 11
190.78768535883319
 21
429.48047224854582
 31
0.0
  0
LINE
  5
A9F5
  8
DANMEN
  6
CONTINUOUS
 10
192.2876853588331
 20
428.68046924854571
 30
0.0
 11
192.2876853588331
 21
425.38046624854582
 31
0.0
  0
ARC
  5
A9F6
  8
DANMEN
  6
CONTINUOUS
 10
191.7876853588331
 20
430.88048124854578
 30
0.0
 40
0.5
 50
270.00001799999922
 51
0.0
  0
ARC
  5
A9F7
  8
DANMEN
  6
CONTINUOUS
 10
191.7876853588331
 20
428.68046924854571
 30
0.0
 40
0.5
 50
0.0
 51
89.999981999999164
  0
ARC
  5
A9F8
  8
DANMEN
  6
CONTINUOUS
 10
191.08768835883311
 20
429.48047224854582
 30
0.0
 40
0.3
 50
180.0000189999997
 51
270.00000099999971
  0
ARC
  5
A9F9
  8
DANMEN
  6
CONTINUOUS
 10
191.08768835883311
 20
430.08047824854577
 30
0.0
 40
0.3
 50
89.999981999999164
 51
180.0000189999997
  0
LINE
  5
A9FA
  8
DANMEN
  6
CONTINUOUS
 10
176.4876823588331
 20
429.18046924854571
 30
0.0
 11
175.78768535883319
 21
429.18046924854571
 31
0.0
  0
LINE
  5
A9FB
  8
DANMEN
  6
CONTINUOUS
 10
176.4876823588331
 20
430.38048124854572
 30
0.0
 11
175.78768535883319
 21
430.38048124854572
 31
0.0
  0
LINE
  5
A9FC
  8
DANMEN
  6
CONTINUOUS
 10
176.7876853588331
 20
430.08047824854577
 30
0.0
 11
176.7876853588331
 21
429.48047224854582
 31
0.0
  0
ARC
  5
A9FD
  8
DANMEN
  6
CONTINUOUS
 10
175.78768535883319
 20
430.88048124854578
 30
0.0
 40
0.5
 50
180.0000189999997
 51
270.00000099999971
  0
ARC
  5
A9FE
  8
DANMEN
  6
CONTINUOUS
 10
175.78768535883319
 20
428.68046924854571
 30
0.0
 40
0.5
 50
90.000036999999821
 51
180.0000189999997
  0
ARC
  5
A9FF
  8
DANMEN
  6
CONTINUOUS
 10
176.4876823588331
 20
429.48047224854582
 30
0.0
 40
0.3
 50
270.00001799999922
 51
359.99998100000022
  0
ARC
  5
AA00
  8
DANMEN
  6
CONTINUOUS
 10
176.4876823588331
 20
430.08047824854577
 30
0.0
 40
0.3
 50
359.99998100000022
 51
90.000036999999821
  0
LINE
  5
AA01
  8
DANMEN
  6
CONTINUOUS
 10
175.2876853588331
 20
428.68046924854571
 30
0.0
 11
175.2876853588331
 21
425.38046624854582
 31
0.0
  0
LINE
  5
AA02
  8
DANMEN
  6
CONTINUOUS
 10
188.28768535883319
 20
425.78047524854583
 30
0.0
 11
188.28768535883319
 21
423.78047524854583
 31
0.0
  0
LINE
  5
AA03
  8
DANMEN
  6
CONTINUOUS
 10
179.2876853588331
 20
425.78047524854583
 30
0.0
 11
179.2876853588331
 21
423.78047524854583
 31
0.0
  0
LINE
  5
AA04
  8
DANMEN
  6
CONTINUOUS
 10
188.7876853588331
 20
436.78047524854571
 30
0.0
 11
178.7876853588331
 21
436.78047524854571
 31
0.0
  0
LINE
  5
AA05
  8
DANMEN
  6
CONTINUOUS
 10
188.28768535883319
 20
425.78047524854583
 30
0.0
 11
179.2876853588331
 21
425.78047524854583
 31
0.0
  0
LINE
  5
AA06
  8
DANMEN
  6
CONTINUOUS
 10
174.2876853588331
 20
67.780475248545812
 30
0.0
 11
175.2876853588331
 21
67.780475248545812
 31
0.0
  0
LINE
  5
AA07
  8
DANMEN
  6
CONTINUOUS
 10
218.7876853588331
 20
137.2804752485458
 30
0.0
 11
218.7876853588331
 21
86.280475248545827
 31
0.0
  0
LINE
  5
AA08
  8
DANMEN
  6
CONTINUOUS
 10
214.2876853588331
 20
137.7804752485458
 30
0.0
 11
218.2876853588331
 21
137.7804752485458
 31
0.0
  0
LINE
  5
AA09
  8
DANMEN
  6
CONTINUOUS
 10
119.2876853588331
 20
77.780475248545827
 30
0.0
 11
173.7876853588331
 21
77.780475248545827
 31
0.0
  0
LINE
  5
AA0A
  8
DANMEN
  6
CONTINUOUS
 10
173.7876853588331
 20
77.780475248545827
 30
0.0
 11
173.7876853588331
 21
68.280475248545827
 31
0.0
  0
LINE
  5
AA0B
  8
DANMEN
  6
CONTINUOUS
 10
120.38769135883319
 20
79.380475248545821
 30
0.0
 11
173.7876853588331
 21
79.380475248545821
 31
0.0
  0
LINE
  5
AA0C
  8
DANMEN
  6
CONTINUOUS
 10
120.38769135883319
 20
91.180469248545833
 30
0.0
 11
126.14846435883319
 21
91.180469248545833
 31
0.0
  0
LINE
  5
AA0D
  8
DANMEN
  6
CONTINUOUS
 10
120.38769135883319
 20
91.180469248545833
 30
0.0
 11
120.38769135883319
 21
79.380475248545821
 31
0.0
  0
LINE
  5
AA0E
  8
DANMEN
  6
CONTINUOUS
 10
175.78768535883319
 20
85.780475248545827
 30
0.0
 11
175.78768535883319
 21
68.280475248545827
 31
0.0
  0
LINE
  5
AA0F
  8
DANMEN
  6
CONTINUOUS
 10
173.7876853588331
 20
93.980472248545823
 30
0.0
 11
173.7876853588331
 21
79.380475248545821
 31
0.0
  0
LINE
  5
AA10
  8
DANMEN
  6
CONTINUOUS
 10
147.0876733588332
 20
93.880466248545844
 30
0.0
 11
147.0876733588332
 21
91.980472248545809
 31
0.0
  0
LINE
  5
AA11
  8
DANMEN
  6
CONTINUOUS
 10
146.0876733588332
 20
90.797260248545825
 30
0.0
 11
146.0876733588332
 21
89.980472248545823
 31
0.0
  0
LINE
  5
AA12
  8
DANMEN
  6
CONTINUOUS
 10
148.8876763588332
 20
93.980472248545823
 30
0.0
 11
148.8876763588332
 21
91.780475248545827
 31
0.0
  0
LINE
  5
AA13
  8
DANMEN
  6
CONTINUOUS
 10
143.4876823588331
 20
94.880466248545815
 30
0.0
 11
146.0876733588332
 21
94.880466248545815
 31
0.0
  0
LINE
  5
AA14
  8
DANMEN
  6
CONTINUOUS
 10
142.4876823588331
 20
91.980472248545809
 30
0.0
 11
142.4876823588331
 21
93.880466248545844
 31
0.0
  0
LINE
  5
AA15
  8
DANMEN
  6
CONTINUOUS
 10
143.4876823588331
 20
89.980472248545823
 30
0.0
 11
143.4876823588331
 21
90.797260248545825
 31
0.0
  0
LINE
  5
AA16
  8
DANMEN
  6
CONTINUOUS
 10
149.8876763588332
 20
94.980472248545823
 30
0.0
 11
159.68767935883309
 21
94.980472248545823
 31
0.0
  0
LINE
  5
AA17
  8
DANMEN
  6
CONTINUOUS
 10
167.08767335883309
 20
93.880466248545844
 30
0.0
 11
167.08767335883309
 21
91.980472248545809
 31
0.0
  0
LINE
  5
AA18
  8
DANMEN
  6
CONTINUOUS
 10
166.08767335883309
 20
90.797260248545825
 30
0.0
 11
166.08767335883309
 21
89.980472248545823
 31
0.0
  0
LINE
  5
AA19
  8
DANMEN
  6
CONTINUOUS
 10
168.88767635883309
 20
93.980472248545823
 30
0.0
 11
168.88767635883309
 21
91.780475248545827
 31
0.0
  0
LINE
  5
AA1A
  8
DANMEN
  6
CONTINUOUS
 10
163.4876823588331
 20
94.880466248545815
 30
0.0
 11
166.08767335883309
 21
94.880466248545815
 31
0.0
  0
LINE
  5
AA1B
  8
DANMEN
  6
CONTINUOUS
 10
162.48768235883321
 20
91.980472248545809
 30
0.0
 11
162.48768235883321
 21
93.880466248545844
 31
0.0
  0
LINE
  5
AA1C
  8
DANMEN
  6
CONTINUOUS
 10
163.4876823588331
 20
89.980472248545823
 30
0.0
 11
163.4876823588331
 21
90.797260248545825
 31
0.0
  0
LINE
  5
AA1D
  8
DANMEN
  6
CONTINUOUS
 10
160.68767935883329
 20
91.780475248545827
 30
0.0
 11
160.68767935883329
 21
93.980472248545823
 31
0.0
  0
LINE
  5
AA1E
  8
DANMEN
  6
CONTINUOUS
 10
169.88767635883309
 20
94.980472248545823
 30
0.0
 11
172.7876853588331
 21
94.980472248545823
 31
0.0
  0
LINE
  5
AA1F
  8
DANMEN
  6
CONTINUOUS
 10
175.78768535883319
 20
85.780475248545827
 30
0.0
 11
178.0805773588331
 21
85.780475248545827
 31
0.0
  0
LINE
  5
AA20
  8
DANMEN
  6
CONTINUOUS
 10
193.88767635883309
 20
102.98047224854579
 30
0.0
 11
193.88767635883309
 21
87.780475248545827
 31
0.0
  0
LINE
  5
AA21
  8
DANMEN
  6
CONTINUOUS
 10
179.11217835883309
 20
88.780475248545827
 30
0.0
 11
179.2876853588331
 21
88.780475248545827
 31
0.0
  0
LINE
  5
AA22
  8
DANMEN
  6
CONTINUOUS
 10
189.49479335883311
 20
85.780475248545827
 30
0.0
 11
191.88767635883309
 21
85.780475248545827
 31
0.0
  0
LINE
  5
AA23
  8
DANMEN
  6
CONTINUOUS
 10
175.4876823588331
 20
103.1804692485458
 30
0.0
 11
175.4876823588331
 21
99.780475248545827
 31
0.0
  0
LINE
  5
AA24
  8
DANMEN
  6
CONTINUOUS
 10
192.08768835883311
 20
103.1804692485458
 30
0.0
 11
192.08768835883311
 21
99.780475248545827
 31
0.0
  0
LINE
  5
AA25
  8
DANMEN
  6
CONTINUOUS
 10
177.93203235883311
 20
88.856025248545805
 30
0.0
 11
176.84333635883311
 21
87.804936248545829
 31
0.0
  0
LINE
  5
AA26
  8
DANMEN
  6
CONTINUOUS
 10
189.64333835883309
 20
88.856014248545819
 30
0.0
 11
190.73202235883321
 21
87.804933248545822
 31
0.0
  0
LINE
  5
AA27
  8
DANMEN
  6
CONTINUOUS
 10
175.9876823588331
 20
92.280475248545827
 30
0.0
 11
176.7376823588331
 21
92.280475248545827
 31
0.0
  0
LINE
  5
AA28
  8
DANMEN
  6
CONTINUOUS
 10
175.9876823588331
 20
93.780475248545827
 30
0.0
 11
176.7376823588331
 21
93.780475248545827
 31
0.0
  0
LINE
  5
AA29
  8
DANMEN
  6
CONTINUOUS
 10
175.9876823588331
 20
99.280475248545841
 30
0.0
 11
177.7376823588331
 21
99.280475248545841
 31
0.0
  0
LINE
  5
AA2A
  8
DANMEN
  6
CONTINUOUS
 10
175.9876823588331
 20
97.780475248545827
 30
0.0
 11
177.7376823588331
 21
97.780475248545827
 31
0.0
  0
LINE
  5
AA2B
  8
DANMEN
  6
CONTINUOUS
 10
192.08768835883311
 20
91.780475248545827
 30
0.0
 11
192.08768835883311
 21
88.380466248545815
 31
0.0
  0
LINE
  5
AA2C
  8
DANMEN
  6
CONTINUOUS
 10
175.4876823588331
 20
91.780475248545827
 30
0.0
 11
175.4876823588331
 21
88.380466248545815
 31
0.0
  0
LINE
  5
AA2D
  8
DANMEN
  6
CONTINUOUS
 10
190.83768835883311
 20
92.280475248545827
 30
0.0
 11
191.58768835883319
 21
92.280475248545827
 31
0.0
  0
LINE
  5
AA2E
  8
DANMEN
  6
CONTINUOUS
 10
190.83768835883311
 20
93.780475248545827
 30
0.0
 11
191.58768835883319
 21
93.780475248545827
 31
0.0
  0
LINE
  5
AA2F
  8
DANMEN
  6
CONTINUOUS
 10
189.83768835883311
 20
99.280475248545841
 30
0.0
 11
191.58768835883319
 21
99.280475248545841
 31
0.0
  0
LINE
  5
AA30
  8
DANMEN
  6
CONTINUOUS
 10
189.83768835883311
 20
97.780475248545827
 30
0.0
 11
191.58768835883319
 21
97.780475248545827
 31
0.0
  0
LINE
  5
AA31
  8
DANMEN
  6
CONTINUOUS
 10
175.4876823588331
 20
97.280475248545827
 30
0.0
 11
175.4876823588331
 21
94.280475248545827
 31
0.0
  0
LINE
  5
AA32
  8
DANMEN
  6
CONTINUOUS
 10
192.08768835883311
 20
97.280475248545827
 30
0.0
 11
192.08768835883311
 21
94.280475248545827
 31
0.0
  0
LINE
  5
AA33
  8
DANMEN
  6
CONTINUOUS
 10
179.2876853588331
 20
104.2804752485458
 30
0.0
 11
179.2876853588331
 21
103.2804752485458
 31
0.0
  0
LINE
  5
AA34
  8
DANMEN
  6
CONTINUOUS
 10
188.28768535883319
 20
104.2804752485458
 30
0.0
 11
188.28768535883319
 21
103.2804752485458
 31
0.0
  0
LINE
  5
AA35
  8
DANMEN
  6
CONTINUOUS
 10
189.1392423588332
 20
105.55782724854581
 30
0.0
 11
188.2876743588331
 21
104.2804742485458
 31
0.0
  0
LINE
  5
AA36
  8
DANMEN
  6
CONTINUOUS
 10
179.28768335883319
 20
104.2804762485458
 30
0.0
 11
178.43611435883309
 21
105.5578292485458
 31
0.0
  0
LINE
  5
AA37
  8
DANMEN
  6
CONTINUOUS
 10
189.55527835883319
 20
105.7804752485458
 30
0.0
 11
215.9876823588331
 21
105.7804752485458
 31
0.0
  0
LINE
  5
AA38
  8
DANMEN
  6
CONTINUOUS
 10
177.93200935883311
 20
102.7049372485458
 30
0.0
 11
176.84332435883309
 21
103.75601524854579
 31
0.0
  0
LINE
  5
AA39
  8
DANMEN
  6
CONTINUOUS
 10
189.64333835883309
 20
102.7049402485458
 30
0.0
 11
190.73202135883321
 21
103.75602024854579
 31
0.0
  0
LINE
  5
AA3A
  8
DANMEN
  6
CONTINUOUS
 10
194.88767635883309
 20
103.98047224854579
 30
0.0
 11
198.68767935883309
 21
103.98047224854579
 31
0.0
  0
LINE
  5
AA3B
  8
DANMEN
  6
CONTINUOUS
 10
210.2876853588331
 20
85.780475248545827
 30
0.0
 11
218.2876853588331
 21
85.780475248545827
 31
0.0
  0
LINE
  5
AA3C
  8
DANMEN
  6
CONTINUOUS
 10
209.7876853588331
 20
88.280475248545827
 30
0.0
 11
209.7876853588331
 21
86.280475248545827
 31
0.0
  0
LINE
  5
AA3D
  8
DANMEN
  6
CONTINUOUS
 10
216.7876853588331
 20
102.98047224854579
 30
0.0
 11
216.7876853588331
 21
88.780475248545827
 31
0.0
  0
LINE
  5
AA3E
  8
DANMEN
  6
CONTINUOUS
 10
216.9876823588331
 20
136.0804782485458
 30
0.0
 11
216.9876823588331
 21
129.08046324854581
 31
0.0
  0
LINE
  5
AA3F
  8
DANMEN
  6
CONTINUOUS
 10
208.88767635883309
 20
103.98047224854579
 30
0.0
 11
215.7876853588331
 21
103.98047224854579
 31
0.0
  0
LINE
  5
AA40
  8
DANMEN
  6
CONTINUOUS
 10
213.7876853588331
 20
137.2804752485458
 30
0.0
 11
213.7876853588331
 21
133.7804752485458
 31
0.0
  0
LINE
  5
AA41
  8
DANMEN
  6
CONTINUOUS
 10
214.2876853588331
 20
127.7804752485458
 30
0.0
 11
216.9876823588331
 21
127.7804752485458
 31
0.0
  0
LINE
  5
AA42
  8
DANMEN
  6
CONTINUOUS
 10
214.2876853588331
 20
133.2804752485458
 30
0.0
 11
214.78768535883319
 21
133.2804752485458
 31
0.0
  0
LINE
  5
AA43
  8
DANMEN
  6
CONTINUOUS
 10
214.2876853588331
 20
129.08046324854581
 30
0.0
 11
216.9876823588331
 21
129.08046324854581
 31
0.0
  0
LINE
  5
AA44
  8
DANMEN
  6
CONTINUOUS
 10
214.78768535883319
 20
136.0804782485458
 30
0.0
 11
214.78768535883319
 21
133.2804752485458
 31
0.0
  0
LINE
  5
AA45
  8
DANMEN
  6
CONTINUOUS
 10
214.78768535883319
 20
136.0804782485458
 30
0.0
 11
216.9876823588331
 21
136.0804782485458
 31
0.0
  0
LINE
  5
AA46
  8
DANMEN
  6
CONTINUOUS
 10
213.7876853588331
 20
128.58046324854581
 30
0.0
 11
213.7876853588331
 21
128.2804752485458
 31
0.0
  0
LINE
  5
AA47
  8
DANMEN
  6
CONTINUOUS
 10
216.9876823588331
 20
127.7804752485458
 30
0.0
 11
216.9876823588331
 21
106.7804752485458
 31
0.0
  0
LINE
  5
AA48
  8
DANMEN
  6
CONTINUOUS
 10
206.08768835883311
 20
103.0804632485458
 30
0.0
 11
206.08768835883311
 21
101.1804692485458
 31
0.0
  0
LINE
  5
AA49
  8
DANMEN
  6
CONTINUOUS
 10
205.08768835883311
 20
99.997257248545836
 30
0.0
 11
205.08768835883311
 21
99.180469248545819
 31
0.0
  0
LINE
  5
AA4A
  8
DANMEN
  6
CONTINUOUS
 10
207.8876763588332
 20
102.98047224854579
 30
0.0
 11
207.8876763588332
 21
100.98047224854579
 31
0.0
  0
LINE
  5
AA4B
  8
DANMEN
  6
CONTINUOUS
 10
202.4876823588331
 20
104.0804632485458
 30
0.0
 11
205.08768835883311
 21
104.0804632485458
 31
0.0
  0
LINE
  5
AA4C
  8
DANMEN
  6
CONTINUOUS
 10
201.4876823588331
 20
101.1804692485458
 30
0.0
 11
201.4876823588331
 21
103.0804632485458
 31
0.0
  0
LINE
  5
AA4D
  8
DANMEN
  6
CONTINUOUS
 10
202.4876823588331
 20
99.180469248545819
 30
0.0
 11
202.4876823588331
 21
99.997257248545836
 31
0.0
  0
LINE
  5
AA4E
  8
DANMEN
  6
CONTINUOUS
 10
199.68767935883309
 20
100.98047224854579
 30
0.0
 11
199.68767935883309
 21
102.98047224854579
 31
0.0
  0
LINE
  5
AA4F
  8
DANMEN
  6
CONTINUOUS
 10
179.2876753588331
 20
86.780476248545824
 30
0.0
 11
178.43412235883309
 21
85.926922248545793
 31
0.0
  0
LINE
  5
AA50
  8
DANMEN
  6
CONTINUOUS
 10
188.28768535883319
 20
86.780476248545824
 30
0.0
 11
189.14123935883319
 21
85.926922248545793
 31
0.0
  0
ARC
  5
AA51
  8
DANMEN
  6
CONTINUOUS
 10
119.2876853588331
 20
78.280475248545827
 30
0.0
 40
0.5
 50
179.9999810000001
 51
270.00001799999922
  0
ARC
  5
AA52
  8
DANMEN
  6
CONTINUOUS
 10
175.2876853588331
 20
68.280475248545827
 30
0.0
 40
0.5
 50
270.00001799999922
 51
0.0
  0
ARC
  5
AA53
  8
DANMEN
  6
CONTINUOUS
 10
174.2876853588331
 20
68.280475248545827
 30
0.0
 40
0.5
 50
179.9999810000001
 51
270.00001799999922
  0
ARC
  5
AA54
  8
DANMEN
  6
CONTINUOUS
 10
146.0876733588332
 20
93.880466248545844
 30
0.0
 40
1.0
 50
0.0
 51
89.999981999999164
  0
ARC
  5
AA55
  8
DANMEN
  6
CONTINUOUS
 10
146.58767335883309
 20
89.980472248545823
 30
0.0
 40
0.5
 50
180.0000189999997
 51
270.24058699999921
  0
ARC
  5
AA56
  8
DANMEN
  6
CONTINUOUS
 10
146.58767335883309
 20
91.780475248545827
 30
0.0
 40
2.2999990000000001
 50
270.05230999999912
 51
0.0
  0
ARC
  5
AA57
  8
DANMEN
  6
CONTINUOUS
 10
143.4876823588331
 20
93.880466248545844
 30
0.0
 40
1.0
 50
89.999981999999164
 51
179.99996399999989
  0
ARC
  5
AA58
  8
DANMEN
  6
CONTINUOUS
 10
142.9876823588331
 20
89.980472248545823
 30
0.0
 40
0.5
 50
269.75937699999912
 51
359.99994500000008
  0
ARC
  5
AA59
  8
DANMEN
  6
CONTINUOUS
 10
142.9876823588331
 20
91.780475248545827
 30
0.0
 40
2.2999990000000001
 50
179.9999810000001
 51
270.0523649999999
  0
ARC
  5
AA5A
  8
DANMEN
  6
CONTINUOUS
 10
143.4876823588331
 20
91.980472248545809
 30
0.0
 40
1.0
 50
180.0000189999997
 51
260.40593399999892
  0
ARC
  5
AA5B
  8
DANMEN
  6
CONTINUOUS
 10
143.2876853588331
 20
90.797260248545825
 30
0.0
 40
0.2
 50
0.0
 51
80.405697000000458
  0
ARC
  5
AA5C
  8
DANMEN
  6
CONTINUOUS
 10
146.0876733588332
 20
91.980472248545809
 30
0.0
 40
1.0
 50
279.59408400000041
 51
0.0
  0
ARC
  5
AA5D
  8
DANMEN
  6
CONTINUOUS
 10
146.2876853588331
 20
90.797260248545825
 30
0.0
 40
0.2
 50
99.594321000000065
 51
180.0000189999997
  0
ARC
  5
AA5E
  8
DANMEN
  6
CONTINUOUS
 10
149.8876763588332
 20
93.980472248545823
 30
0.0
 40
1.0
 50
89.999981999999164
 51
179.99996399999989
  0
ARC
  5
AA5F
  8
DANMEN
  6
CONTINUOUS
 10
166.08767335883309
 20
93.880466248545844
 30
0.0
 40
1.0
 50
0.0
 51
89.999981999999164
  0
ARC
  5
AA60
  8
DANMEN
  6
CONTINUOUS
 10
166.58767335883309
 20
89.980472248545823
 30
0.0
 40
0.5
 50
180.0000189999997
 51
270.24058699999921
  0
ARC
  5
AA61
  8
DANMEN
  6
CONTINUOUS
 10
166.58767335883309
 20
91.780475248545827
 30
0.0
 40
2.2999990000000001
 50
270.05230999999912
 51
0.0
  0
ARC
  5
AA62
  8
DANMEN
  6
CONTINUOUS
 10
163.4876823588331
 20
93.880466248545844
 30
0.0
 40
1.0
 50
89.999981999999164
 51
179.99996399999989
  0
ARC
  5
AA63
  8
DANMEN
  6
CONTINUOUS
 10
162.9876823588331
 20
89.980472248545823
 30
0.0
 40
0.5
 50
269.75937699999912
 51
359.99994500000008
  0
ARC
  5
AA64
  8
DANMEN
  6
CONTINUOUS
 10
162.9876823588331
 20
91.780475248545827
 30
0.0
 40
2.2999990000000001
 50
179.99996399999989
 51
270.05234699999971
  0
ARC
  5
AA65
  8
DANMEN
  6
CONTINUOUS
 10
163.4876823588331
 20
91.980472248545809
 30
0.0
 40
1.0
 50
180.0000189999997
 51
260.40593399999892
  0
ARC
  5
AA66
  8
DANMEN
  6
CONTINUOUS
 10
163.28768535883319
 20
90.797260248545825
 30
0.0
 40
0.2
 50
0.0
 51
80.405697000000458
  0
ARC
  5
AA67
  8
DANMEN
  6
CONTINUOUS
 10
166.08767335883309
 20
91.980472248545809
 30
0.0
 40
1.0
 50
279.59408400000041
 51
0.0
  0
ARC
  5
AA68
  8
DANMEN
  6
CONTINUOUS
 10
166.2876853588331
 20
90.797260248545825
 30
0.0
 40
0.2
 50
99.594321000000065
 51
180.0000189999997
  0
ARC
  5
AA69
  8
DANMEN
  6
CONTINUOUS
 10
159.68767935883309
 20
93.980472248545823
 30
0.0
 40
1.0
 50
0.0
 51
89.999981999999164
  0
ARC
  5
AA6A
  8
DANMEN
  6
CONTINUOUS
 10
169.88767635883309
 20
93.980472248545823
 30
0.0
 40
1.0
 50
89.999981999999164
 51
179.99996399999989
  0
ARC
  5
AA6B
  8
DANMEN
  6
CONTINUOUS
 10
172.7876853588331
 20
93.980472248545823
 30
0.0
 40
1.0
 50
0.0
 51
89.999981999999164
  0
ARC
  5
AA6C
  8
DANMEN
  6
CONTINUOUS
 10
178.4876823588331
 20
88.280475248545827
 30
0.0
 40
0.8
 50
38.682164999999898
 51
133.99306700000031
  0
ARC
  5
AA6D
  8
DANMEN
  6
CONTINUOUS
 10
176.2876853588331
 20
88.380466248545815
 30
0.0
 40
0.8
 50
179.9999810000001
 51
313.99305800000008
  0
ARC
  5
AA6E
  8
DANMEN
  6
CONTINUOUS
 10
189.08768835883311
 20
88.280475248545827
 30
0.0
 40
0.8
 50
46.006849999999929
 51
141.3176519999999
  0
ARC
  5
AA6F
  8
DANMEN
  6
CONTINUOUS
 10
191.2876853588331
 20
88.380466248545815
 30
0.0
 40
0.8
 50
226.00655100000051
 51
0.0
  0
ARC
  5
AA70
  8
DANMEN
  6
CONTINUOUS
 10
191.88767635883309
 20
87.780475248545827
 30
0.0
 40
2.0
 50
270.00001799999922
 51
0.0
  0
ARC
  5
AA71
  8
DANMEN
  6
CONTINUOUS
 10
191.58768835883319
 20
91.780475248545827
 30
0.0
 40
0.5
 50
0.0
 51
89.999981999999164
  0
ARC
  5
AA72
  8
DANMEN
  6
CONTINUOUS
 10
175.9876823588331
 20
91.780475248545827
 30
0.0
 40
0.5
 50
89.999981999999164
 51
179.99996399999989
  0
ARC
  5
AA73
  8
DANMEN
  6
CONTINUOUS
 10
175.9876823588331
 20
94.280475248545827
 30
0.0
 40
0.5
 50
179.9999810000001
 51
270.00001799999922
  0
ARC
  5
AA74
  8
DANMEN
  6
CONTINUOUS
 10
191.58768835883319
 20
94.280475248545827
 30
0.0
 40
0.5
 50
270.00001799999922
 51
0.0
  0
ARC
  5
AA75
  8
DANMEN
  6
CONTINUOUS
 10
190.83768835883311
 20
93.030475248545827
 30
0.0
 40
0.75
 50
89.999981999999164
 51
270.00000099999971
  0
ARC
  5
AA76
  8
DANMEN
  6
CONTINUOUS
 10
176.7376823588331
 20
93.030475248545827
 30
0.0
 40
0.75
 50
270.00001799999922
 51
89.999981999999164
  0
ARC
  5
AA77
  8
DANMEN
  6
CONTINUOUS
 10
191.58768835883319
 20
97.280475248545827
 30
0.0
 40
0.5
 50
0.0
 51
89.999981999999164
  0
ARC
  5
AA78
  8
DANMEN
  6
CONTINUOUS
 10
191.58768835883319
 20
99.780475248545827
 30
0.0
 40
0.5
 50
270.00001799999922
 51
0.0
  0
ARC
  5
AA79
  8
DANMEN
  6
CONTINUOUS
 10
175.9876823588331
 20
97.280475248545827
 30
0.0
 40
0.5
 50
89.999981999999164
 51
179.99996399999989
  0
ARC
  5
AA7A
  8
DANMEN
  6
CONTINUOUS
 10
175.9876823588331
 20
99.780475248545827
 30
0.0
 40
0.5
 50
179.9999810000001
 51
270.00001799999922
  0
ARC
  5
AA7B
  8
DANMEN
  6
CONTINUOUS
 10
177.7376823588331
 20
98.530475248545827
 30
0.0
 40
0.75
 50
270.00001799999922
 51
89.999981999999164
  0
ARC
  5
AA7C
  8
DANMEN
  6
CONTINUOUS
 10
189.83768835883311
 20
98.530475248545827
 30
0.0
 40
0.75
 50
89.999981999999164
 51
270.00000099999971
  0
ARC
  5
AA7D
  8
DANMEN
  6
CONTINUOUS
 10
176.2876853588331
 20
103.1804692485458
 30
0.0
 40
0.8
 50
46.006897000000329
 51
179.99996399999989
  0
ARC
  5
AA7E
  8
DANMEN
  6
CONTINUOUS
 10
178.4876823588331
 20
103.2804752485458
 30
0.0
 40
0.8
 50
226.0068790000002
 51
0.0
  0
ARC
  5
AA7F
  8
DANMEN
  6
CONTINUOUS
 10
189.08768835883311
 20
103.2804752485458
 30
0.0
 40
0.8
 50
179.9999810000001
 51
313.9930959999993
  0
ARC
  5
AA80
  8
DANMEN
  6
CONTINUOUS
 10
191.2876853588331
 20
103.1804692485458
 30
0.0
 40
0.8
 50
359.99994500000008
 51
133.9933939999992
  0
ARC
  5
AA81
  8
DANMEN
  6
CONTINUOUS
 10
194.88767635883309
 20
102.98047224854579
 30
0.0
 40
1.0
 50
89.999981999999164
 51
179.99996399999989
  0
ARC
  5
AA82
  8
DANMEN
  6
CONTINUOUS
 10
215.7876853588331
 20
102.98047224854579
 30
0.0
 40
1.0
 50
0.0
 51
89.999981999999164
  0
ARC
  5
AA83
  8
DANMEN
  6
CONTINUOUS
 10
210.2876853588331
 20
86.280475248545827
 30
0.0
 40
0.5
 50
179.9999810000001
 51
270.00001799999922
  0
ARC
  5
AA84
  8
DANMEN
  6
CONTINUOUS
 10
218.2876853588331
 20
86.280475248545827
 30
0.0
 40
0.5
 50
270.00001799999922
 51
0.0
  0
ARC
  5
AA85
  8
DANMEN
  6
CONTINUOUS
 10
215.9876823588331
 20
106.7804752485458
 30
0.0
 40
1.0
 50
270.00001799999922
 51
0.0
  0
ARC
  5
AA86
  8
DANMEN
  6
CONTINUOUS
 10
214.2876853588331
 20
137.2804752485458
 30
0.0
 40
0.5
 50
89.999981999999164
 51
179.99996399999989
  0
ARC
  5
AA87
  8
DANMEN
  6
CONTINUOUS
 10
218.2876853588331
 20
137.2804752485458
 30
0.0
 40
0.5
 50
0.0
 51
89.999981999999164
  0
ARC
  5
AA88
  8
DANMEN
  6
CONTINUOUS
 10
214.2876853588331
 20
133.7804752485458
 30
0.0
 40
0.5
 50
179.9999810000001
 51
270.00001799999922
  0
ARC
  5
AA89
  8
DANMEN
  6
CONTINUOUS
 10
214.2876853588331
 20
128.58046324854581
 30
0.0
 40
0.5
 50
89.999981999999164
 51
179.99996399999989
  0
ARC
  5
AA8A
  8
DANMEN
  6
CONTINUOUS
 10
214.2876853588331
 20
128.2804752485458
 30
0.0
 40
0.5
 50
179.9999810000001
 51
270.00001799999922
  0
ARC
  5
AA8B
  8
DANMEN
  6
CONTINUOUS
 10
205.08768835883311
 20
103.0804632485458
 30
0.0
 40
1.0
 50
0.0
 51
89.999981999999164
  0
ARC
  5
AA8C
  8
DANMEN
  6
CONTINUOUS
 10
205.58768835883311
 20
99.180469248545819
 30
0.0
 40
0.5
 50
180.0000189999997
 51
270.24058699999921
  0
ARC
  5
AA8D
  8
DANMEN
  6
CONTINUOUS
 10
205.58768835883311
 20
100.98047224854579
 30
0.0
 40
2.2999990000000001
 50
270.05230999999912
 51
0.0
  0
ARC
  5
AA8E
  8
DANMEN
  6
CONTINUOUS
 10
202.4876823588331
 20
103.0804632485458
 30
0.0
 40
1.0
 50
89.999981999999164
 51
179.99996399999989
  0
ARC
  5
AA8F
  8
DANMEN
  6
CONTINUOUS
 10
201.9876823588331
 20
99.180469248545819
 30
0.0
 40
0.5
 50
269.75937699999912
 51
359.99994500000008
  0
ARC
  5
AA90
  8
DANMEN
  6
CONTINUOUS
 10
201.9876823588331
 20
100.98047224854579
 30
0.0
 40
2.2999990000000001
 50
179.99996399999989
 51
270.05234699999971
  0
ARC
  5
AA91
  8
DANMEN
  6
CONTINUOUS
 10
202.4876823588331
 20
101.1804692485458
 30
0.0
 40
1.0
 50
180.0000189999997
 51
260.40593399999892
  0
ARC
  5
AA92
  8
DANMEN
  6
CONTINUOUS
 10
202.2876853588331
 20
99.997257248545836
 30
0.0
 40
0.2
 50
0.0
 51
80.405697000000458
  0
ARC
  5
AA93
  8
DANMEN
  6
CONTINUOUS
 10
205.08768835883311
 20
101.1804692485458
 30
0.0
 40
1.0
 50
279.59408400000041
 51
0.0
  0
ARC
  5
AA94
  8
DANMEN
  6
CONTINUOUS
 10
205.2876853588331
 20
99.997257248545836
 30
0.0
 40
0.2
 50
99.594321000000065
 51
180.0000189999997
  0
ARC
  5
AA95
  8
DANMEN
  6
CONTINUOUS
 10
208.88767635883309
 20
102.98047224854579
 30
0.0
 40
1.0
 50
89.999981999999164
 51
179.99996399999989
  0
ARC
  5
AA96
  8
DANMEN
  6
CONTINUOUS
 10
198.68767935883309
 20
102.98047224854579
 30
0.0
 40
1.0
 50
0.0
 51
89.999981999999164
  0
ARC
  5
AA97
  8
DANMEN
  6
CONTINUOUS
 10
189.55527835883319
 20
105.2804752485458
 30
0.0
 40
0.5
 50
89.999981999999164
 51
146.30970099999999
  0
ARC
  5
AA98
  8
DANMEN
  6
CONTINUOUS
 10
178.0200923588331
 20
105.2804752485458
 30
0.0
 40
0.5
 50
33.690069000000541
 51
89.999981999999164
  0
ARC
  5
AA99
  8
DANMEN
  6
CONTINUOUS
 10
178.0805773588331
 20
86.280475248545827
 30
0.0
 40
0.5
 50
270.00001799999922
 51
314.99999900000068
  0
ARC
  5
AA9A
  8
DANMEN
  6
CONTINUOUS
 10
189.49479335883311
 20
86.280475248545827
 30
0.0
 40
0.5
 50
225.0
 51
269.99996300000009
  0
LINE
  5
AA9B
  8
DANMEN
  6
CONTINUOUS
 10
118.7876853588331
 20
92.280475248545827
 30
0.0
 11
118.7876853588331
 21
78.280475248545827
 31
0.0
  0
LINE
  5
AA9C
  8
DANMEN
  6
CONTINUOUS
 10
119.2876853588331
 20
92.780475248545827
 30
0.0
 11
125.7877313588331
 21
92.780475248545827
 31
0.0
  0
ARC
  5
AA9D
  8
DANMEN
  6
CONTINUOUS
 10
119.2876853588331
 20
92.280475248545827
 30
0.0
 40
0.5
 50
89.999981999999164
 51
179.99996399999989
  0
LINE
  5
AA9E
  8
DANMEN
  6
CONTINUOUS
 10
133.78767235883319
 20
100.2803972485458
 30
0.0
 11
133.78767135883319
 21
96.580385248545824
 31
0.0
  0
LINE
  5
AA9F
  8
DANMEN
  6
CONTINUOUS
 10
134.2876853588333
 20
100.78046024854579
 30
0.0
 11
137.7876853588331
 21
100.78046024854579
 31
0.0
  0
LINE
  5
AAA0
  8
DANMEN
  6
CONTINUOUS
 10
135.3876613588331
 20
99.280460248545836
 30
0.0
 11
138.2876853588331
 21
99.280460248545836
 31
0.0
  0
LINE
  5
AAA1
  8
DANMEN
  6
CONTINUOUS
 10
138.2876853588331
 20
100.28046024854579
 30
0.0
 11
138.2876853588331
 21
99.280460248545836
 31
0.0
  0
LINE
  5
AAA2
  8
DANMEN
  6
CONTINUOUS
 10
162.28768535883319
 20
105.7804752485458
 30
0.0
 11
178.0200923588331
 21
105.7804752485458
 31
0.0
  0
LINE
  5
AAA3
  8
DANMEN
  6
CONTINUOUS
 10
161.7876853588331
 20
105.2804752485458
 30
0.0
 11
161.7876853588331
 21
104.48047224854579
 31
0.0
  0
ARC
  5
AAA4
  8
DANMEN
  6
CONTINUOUS
 10
162.28768535883319
 20
105.2804752485458
 30
0.0
 40
0.5
 50
89.999981999999164
 51
179.99996399999989
  0
LINE
  5
AAA5
  8
DANMEN
  6
CONTINUOUS
 10
173.7876853588331
 20
103.7804752485458
 30
0.0
 11
173.7876853588331
 21
97.080463248545826
 31
0.0
  0
LINE
  5
AAA6
  8
DANMEN
  6
CONTINUOUS
 10
163.7876853588331
 20
102.7804752485458
 30
0.0
 11
172.7876853588331
 21
102.7804752485458
 31
0.0
  0
LINE
  5
AAA7
  8
DANMEN
  6
CONTINUOUS
 10
135.3876613588331
 20
96.580463248545826
 30
0.0
 11
147.78767035883311
 21
96.580463248545826
 31
0.0
  0
ARC
  5
AAA8
  8
DANMEN
  6
CONTINUOUS
 10
134.2876853588333
 20
100.28046024854579
 30
0.0
 40
0.5
 50
89.999981999999164
 51
179.99996399999989
  0
ARC
  5
AAA9
  8
DANMEN
  6
CONTINUOUS
 10
137.7876853588331
 20
100.28046024854579
 30
0.0
 40
0.5
 50
0.0
 51
89.999981999999164
  0
LINE
  5
AAAA
  8
DANMEN
  6
CONTINUOUS
 10
133.78766135883319
 20
96.580449248545818
 30
0.0
 11
125.7877193588333
 21
92.780451248545845
 31
0.0
  0
LINE
  5
AAAB
  8
DANMEN
  6
CONTINUOUS
 10
163.7876853588331
 20
103.48047224854579
 30
0.0
 11
163.7876853588331
 21
102.7804752485458
 31
0.0
  0
LINE
  5
AAAC
  8
DANMEN
  6
CONTINUOUS
 10
162.28768535883319
 20
103.98047224854579
 30
0.0
 11
163.28768535883319
 21
103.98047224854579
 31
0.0
  0
ARC
  5
AAAD
  8
DANMEN
  6
CONTINUOUS
 10
162.28768535883319
 20
104.48047224854579
 30
0.0
 40
0.5
 50
179.99996399999989
 51
270.00000099999971
  0
ARC
  5
AAAE
  8
DANMEN
  6
CONTINUOUS
 10
163.28768535883319
 20
103.48047224854579
 30
0.0
 40
0.5
 50
0.0
 51
89.999981999999164
  0
LINE
  5
AAAF
  8
DANMEN
  6
CONTINUOUS
 10
149.2876113588332
 20
98.680403248545815
 30
0.0
 11
149.28761035883321
 21
96.580427248545845
 31
0.0
  0
LINE
  5
AAB0
  8
DANMEN
  6
CONTINUOUS
 10
147.78761135883309
 20
98.980392248545826
 30
0.0
 11
147.78761035883321
 21
96.580428248545815
 31
0.0
  0
LINE
  5
AAB1
  8
DANMEN
  6
CONTINUOUS
 10
149.2876703588332
 20
98.680438248545826
 30
0.0
 11
151.78767035883311
 21
98.680438248545826
 31
0.0
  0
LINE
  5
AAB2
  8
DANMEN
  6
CONTINUOUS
 10
148.7876703588332
 20
99.980426248545825
 30
0.0
 11
151.78767035883311
 21
99.980426248545825
 31
0.0
  0
ARC
  5
AAB3
  8
DANMEN
  6
CONTINUOUS
 10
148.7876703588332
 20
98.980426248545825
 30
0.0
 40
1.0
 50
90.000254999999626
 51
179.99996399999989
  0
LINE
  5
AAB4
  8
DANMEN
  6
CONTINUOUS
 10
152.28762635883331
 20
99.480407248545845
 30
0.0
 11
152.28762635883331
 21
99.180419248545846
 31
0.0
  0
ARC
  5
AAB5
  8
DANMEN
  6
CONTINUOUS
 10
151.78767035883311
 20
99.480426248545825
 30
0.0
 40
0.5
 50
359.99999200000008
 51
90.000528000000045
  0
ARC
  5
AAB6
  8
DANMEN
  6
CONTINUOUS
 10
151.78767035883311
 20
99.180438248545826
 30
0.0
 40
0.5
 50
269.99947199999991
 51
359.99999200000008
  0
LINE
  5
AAB7
  8
DANMEN
  6
CONTINUOUS
 10
149.2876703588332
 20
96.580463248545826
 30
0.0
 11
173.2876853588331
 21
96.580463248545826
 31
0.0
  0
LINE
  5
AAB8
  8
DANMEN
  6
CONTINUOUS
 10
172.7876853588331
 20
103.7804752485458
 30
0.0
 11
172.7876853588331
 21
102.7804752485458
 31
0.0
  0
LINE
  5
AAB9
  8
DANMEN
  6
CONTINUOUS
 10
172.7876853588331
 20
103.7804752485458
 30
0.0
 11
173.7876853588331
 21
103.7804752485458
 31
0.0
  0
ARC
  5
AABA
  8
DANMEN
  6
CONTINUOUS
 10
173.2876853588331
 20
97.080463248545826
 30
0.0
 40
0.5
 50
270.00001799999922
 51
0.0
  0
LINE
  5
AABB
  8
DANMEN
  6
CONTINUOUS
 10
134.1483723588332
 20
94.980451248545819
 30
0.0
 11
126.1484583588333
 21
91.180466248545827
 31
0.0
  0
LINE
  5
AABC
  8
DANMEN
  6
CONTINUOUS
 10
134.1483723588332
 20
94.980457248545818
 30
0.0
 11
139.6876943588332
 21
94.980457248545818
 31
0.0
  0
LINE
  5
AABD
  8
DANMEN
  6
CONTINUOUS
 10
140.6876943588332
 20
93.980457248545832
 30
0.0
 11
140.6876943588332
 21
91.780475248545827
 31
0.0
  0
ARC
  5
AABE
  8
DANMEN
  6
CONTINUOUS
 10
139.6876943588332
 20
93.980457248545832
 30
0.0
 40
1.0
 50
0.0
 51
89.999981999999164
  0
LINE
  5
AABF
  8
DANMEN
  6
CONTINUOUS
 10
135.3876623588333
 20
99.280458248545813
 30
0.0
 11
135.3876623588333
 21
96.580461248545845
 31
0.0
  0
LINE
  5
AAC0
  8
DANMEN
  6
CONTINUOUS
 10
210.2876853588331
 20
88.780475248545827
 30
0.0
 11
216.7876853588331
 21
88.780475248545827
 31
0.0
  0
ARC
  5
AAC1
  8
DANMEN
  6
CONTINUOUS
 10
210.2876853588331
 20
88.280475248545827
 30
0.0
 40
0.5
 50
89.999981999999164
 51
180.0000189999997
  0
LINE
  5
AAC2
  8
DANMEN
  6
CONTINUOUS
 10
179.2876853588331
 20
88.780475248545827
 30
0.0
 11
179.2876853588331
 21
86.780475248545827
 31
0.0
  0
LINE
  5
AAC3
  8
DANMEN
  6
CONTINUOUS
 10
188.28768535883319
 20
88.780475248545827
 30
0.0
 11
188.46319235883311
 21
88.780475248545827
 31
0.0
  0
LINE
  5
AAC4
  8
DANMEN
  6
CONTINUOUS
 10
188.28768535883319
 20
88.780475248545827
 30
0.0
 11
188.28768535883319
 21
86.780475248545827
 31
0.0
  0
LINE
  5
AAC5
  8
DANMEN
  6
CONTINUOUS
 10
179.2876853588331
 20
88.780475248545827
 30
0.0
 11
188.28768535883319
 21
88.780475248545827
 31
0.0
  0
LINE
  5
AAC6
  8
DANMEN
  6
CONTINUOUS
 10
176.7376823588331
 20
93.780475248545827
 30
0.0
 11
190.83768835883311
 21
93.780475248545827
 31
0.0
  0
LINE
  5
AAC7
  8
DANMEN
  6
CONTINUOUS
 10
177.7376823588331
 20
99.280475248545841
 30
0.0
 11
189.83768835883311
 21
99.280475248545841
 31
0.0
  0
LINE
  5
AAC8
  8
DANMEN
  6
CONTINUOUS
 10
178.0200923588331
 20
105.7804752485458
 30
0.0
 11
189.55527835883319
 21
105.7804752485458
 31
0.0
  0
LINE
  5
AAC9
  8
DANMEN
  6
CONTINUOUS
 10
404.78768535883319
 20
322.78047524854583
 30
0.0
 11
434.78768535883307
 21
322.78047524854583
 31
0.0
  0
LINE
  5
AACA
  8
DANMEN
  6
CONTINUOUS
 10
385.28768535883307
 20
414.78047524854583
 30
0.0
 11
454.28768535883319
 21
414.78047524854583
 31
0.0
  0
LINE
  5
AACB
  8
DANMEN
  6
CONTINUOUS
 10
434.78768535883307
 20
326.28047524854583
 30
0.0
 11
434.78768535883307
 21
322.78047524854583
 31
0.0
  0
LINE
  5
AACC
  8
DANMEN
  6
CONTINUOUS
 10
454.78768535883319
 20
414.28047524854583
 30
0.0
 11
454.78768535883319
 21
412.28047524854583
 31
0.0
  0
LINE
  5
AACD
  8
DANMEN
  6
CONTINUOUS
 10
410.78768535883307
 20
338.28047524854583
 30
0.0
 11
410.78768535883307
 21
324.48047224854571
 31
0.0
  0
LINE
  5
AACE
  8
DANMEN
  6
CONTINUOUS
 10
412.78768535883319
 20
324.78047524854583
 30
0.0
 11
426.78768535883307
 21
324.78047524854583
 31
0.0
  0
LINE
  5
AACF
  8
DANMEN
  6
CONTINUOUS
 10
428.78768535883319
 20
324.48047224854571
 30
0.0
 11
433.087673358833
 21
324.48047224854571
 31
0.0
  0
LINE
  5
AAD0
  8
DANMEN
  6
CONTINUOUS
 10
433.087673358833
 20
326.78047524854583
 30
0.0
 11
434.28768535883307
 21
326.78047524854583
 31
0.0
  0
LINE
  5
AAD1
  8
DANMEN
  6
CONTINUOUS
 10
433.087673358833
 20
326.78047524854583
 30
0.0
 11
433.087673358833
 21
324.48047224854571
 31
0.0
  0
LINE
  5
AAD2
  8
DANMEN
  6
CONTINUOUS
 10
412.78768535883319
 20
412.28047524854583
 30
0.0
 11
426.78768535883307
 21
412.28047524854583
 31
0.0
  0
LINE
  5
AAD3
  8
DANMEN
  6
CONTINUOUS
 10
429.78768535883319
 20
412.28047524854583
 30
0.0
 11
447.78768535883307
 21
412.28047524854583
 31
0.0
  0
LINE
  5
AAD4
  8
DANMEN
  6
CONTINUOUS
 10
448.28768535883302
 20
411.78047524854571
 30
0.0
 11
454.28768535883319
 21
411.78047524854571
 31
0.0
  0
LINE
  5
AAD5
  8
DANMEN
  6
CONTINUOUS
 10
431.78768535883307
 20
343.28047524854583
 30
0.0
 11
432.28768535883319
 21
343.28047524854583
 31
0.0
  0
LINE
  5
AAD6
  8
DANMEN
  6
CONTINUOUS
 10
428.78768535883319
 20
338.28047524854583
 30
0.0
 11
431.78768535883307
 21
338.28047524854583
 31
0.0
  0
LINE
  5
AAD7
  8
DANMEN
  6
CONTINUOUS
 10
428.78768535883319
 20
339.78047524854583
 30
0.0
 11
431.28768535883307
 21
339.78047524854583
 31
0.0
  0
LINE
  5
AAD8
  8
DANMEN
  6
CONTINUOUS
 10
432.78768535883319
 20
342.78047524854583
 30
0.0
 11
432.78768535883319
 21
339.28047524854583
 31
0.0
  0
LINE
  5
AAD9
  8
DANMEN
  6
CONTINUOUS
 10
431.28768535883307
 20
342.78047524854583
 30
0.0
 11
431.28768535883307
 21
339.78047524854583
 31
0.0
  0
LINE
  5
AADA
  8
DANMEN
  6
CONTINUOUS
 10
428.78768535883319
 20
338.28047524854583
 30
0.0
 11
428.78768535883319
 21
324.48047224854571
 31
0.0
  0
ARC
  5
AADB
  8
DANMEN
  6
CONTINUOUS
 10
434.28768535883307
 20
326.28047524854583
 30
0.0
 40
0.5
 50
0.0
 51
89.999981999999164
  0
ARC
  5
AADC
  8
DANMEN
  6
CONTINUOUS
 10
429.78768535883319
 20
411.28047524854583
 30
0.0
 40
1.0
 50
89.999981999999164
 51
179.99996399999989
  0
ARC
  5
AADD
  8
DANMEN
  6
CONTINUOUS
 10
454.28768535883319
 20
414.28047524854583
 30
0.0
 40
0.5
 50
0.0
 51
89.999981999999164
  0
ARC
  5
AADE
  8
DANMEN
  6
CONTINUOUS
 10
454.28768535883319
 20
412.28047524854583
 30
0.0
 40
0.5
 50
270.00001799999922
 51
0.0
  0
ARC
  5
AADF
  8
DANMEN
  6
CONTINUOUS
 10
448.28768535883302
 20
412.28047524854583
 30
0.0
 40
0.5
 50
179.9999810000001
 51
270.00001799999922
  0
ARC
  5
AAE0
  8
DANMEN
  6
CONTINUOUS
 10
432.28768535883319
 20
342.78047524854583
 30
0.0
 40
0.5
 50
0.0
 51
89.999981999999164
  0
ARC
  5
AAE1
  8
DANMEN
  6
CONTINUOUS
 10
431.78768535883307
 20
342.78047524854583
 30
0.0
 40
0.5
 50
89.999981999999164
 51
179.99996399999989
  0
ARC
  5
AAE2
  8
DANMEN
  6
CONTINUOUS
 10
431.78768535883307
 20
339.28047524854583
 30
0.0
 40
1.0
 50
270.00001799999922
 51
0.0
  0
LINE
  5
AAE3
  8
DANMEN
  6
CONTINUOUS
 10
404.78768535883319
 20
326.28047524854583
 30
0.0
 11
404.78768535883319
 21
322.78047524854583
 31
0.0
  0
LINE
  5
AAE4
  8
DANMEN
  6
CONTINUOUS
 10
384.78768535883307
 20
414.28047524854583
 30
0.0
 11
384.78768535883307
 21
412.28047524854583
 31
0.0
  0
LINE
  5
AAE5
  8
DANMEN
  6
CONTINUOUS
 10
410.78768535883307
 20
324.48047224854571
 30
0.0
 11
406.48769735883309
 21
324.48047224854571
 31
0.0
  0
LINE
  5
AAE6
  8
DANMEN
  6
CONTINUOUS
 10
406.48769735883309
 20
326.78047524854583
 30
0.0
 11
405.28768535883307
 21
326.78047524854583
 31
0.0
  0
LINE
  5
AAE7
  8
DANMEN
  6
CONTINUOUS
 10
406.48769735883309
 20
326.78047524854583
 30
0.0
 11
406.48769735883309
 21
324.48047224854571
 31
0.0
  0
LINE
  5
AAE8
  8
DANMEN
  6
CONTINUOUS
 10
409.78768535883307
 20
412.28047524854583
 30
0.0
 11
391.78768535883319
 21
412.28047524854583
 31
0.0
  0
LINE
  5
AAE9
  8
DANMEN
  6
CONTINUOUS
 10
391.28768535883307
 20
411.78047524854571
 30
0.0
 11
385.28768535883307
 21
411.78047524854571
 31
0.0
  0
LINE
  5
AAEA
  8
DANMEN
  6
CONTINUOUS
 10
407.78768535883319
 20
343.28047524854583
 30
0.0
 11
407.28768535883307
 21
343.28047524854583
 31
0.0
  0
LINE
  5
AAEB
  8
DANMEN
  6
CONTINUOUS
 10
410.78768535883307
 20
338.28047524854583
 30
0.0
 11
407.78768535883319
 21
338.28047524854583
 31
0.0
  0
LINE
  5
AAEC
  8
DANMEN
  6
CONTINUOUS
 10
410.78768535883307
 20
339.78047524854583
 30
0.0
 11
408.28768535883319
 21
339.78047524854583
 31
0.0
  0
LINE
  5
AAED
  8
DANMEN
  6
CONTINUOUS
 10
406.78768535883307
 20
342.78047524854583
 30
0.0
 11
406.78768535883307
 21
339.28047524854583
 31
0.0
  0
LINE
  5
AAEE
  8
DANMEN
  6
CONTINUOUS
 10
408.28768535883319
 20
342.78047524854583
 30
0.0
 11
408.28768535883319
 21
339.78047524854583
 31
0.0
  0
ARC
  5
AAEF
  8
DANMEN
  6
CONTINUOUS
 10
405.28768535883307
 20
326.28047524854583
 30
0.0
 40
0.5
 50
90.000036999999821
 51
180.0000189999997
  0
ARC
  5
AAF0
  8
DANMEN
  6
CONTINUOUS
 10
409.78768535883307
 20
411.28047524854583
 30
0.0
 40
1.0
 50
0.0000360000000406
 51
90.000036999999821
  0
ARC
  5
AAF1
  8
DANMEN
  6
CONTINUOUS
 10
385.28768535883307
 20
414.28047524854583
 30
0.0
 40
0.5
 50
89.999981999999164
 51
180.0000189999997
  0
ARC
  5
AAF2
  8
DANMEN
  6
CONTINUOUS
 10
385.28768535883307
 20
412.28047524854583
 30
0.0
 40
0.5
 50
180.0000189999997
 51
270.00000099999971
  0
ARC
  5
AAF3
  8
DANMEN
  6
CONTINUOUS
 10
391.28768535883307
 20
412.28047524854583
 30
0.0
 40
0.5
 50
269.99996300000009
 51
0.0000189999997952
  0
ARC
  5
AAF4
  8
DANMEN
  6
CONTINUOUS
 10
407.28768535883307
 20
342.78047524854583
 30
0.0
 40
0.5
 50
90.000036999999821
 51
180.0000189999997
  0
ARC
  5
AAF5
  8
DANMEN
  6
CONTINUOUS
 10
407.78768535883319
 20
342.78047524854583
 30
0.0
 40
0.5
 50
0.0000360000000406
 51
90.000036999999821
  0
ARC
  5
AAF6
  8
DANMEN
  6
CONTINUOUS
 10
407.78768535883319
 20
339.28047524854583
 30
0.0
 40
1.0
 50
180.0000189999997
 51
270.00000099999971
  0
LINE
  5
AAF7
  8
DANMEN
  6
CONTINUOUS
 10
413.38769135883308
 20
361.08046324854581
 30
0.0
 11
416.78768535883319
 21
361.08046324854581
 31
0.0
  0
LINE
  5
AAF8
  8
DANMEN
  6
CONTINUOUS
 10
410.78768535883307
 20
339.78047524854583
 30
0.0
 11
410.78768535883307
 21
347.28046024854581
 31
0.0
  0
ARC
  5
AAF9
  8
DANMEN
  6
CONTINUOUS
 10
413.28771635883311
 20
347.48048724854578
 30
0.0
 40
0.799988
 50
316.00846299999961
 51
89.999981999999164
  0
ARC
  5
AAFA
  8
DANMEN
  6
CONTINUOUS
 10
413.38769135883308
 20
345.28047524854583
 30
0.0
 40
0.800003
 50
136.0069339999996
 51
270.00000099999971
  0
ARC
  5
AAFB
  8
DANMEN
  6
CONTINUOUS
 10
413.28768535883319
 20
358.08049324854579
 30
0.0
 40
0.800003
 50
270.00001799999922
 51
43.993046999999521
  0
ARC
  5
AAFC
  8
DANMEN
  6
CONTINUOUS
 10
413.38769135883308
 20
360.28047524854583
 30
0.0
 40
0.800003
 50
89.999981999999164
 51
223.99304900000041
  0
LINE
  5
AAFD
  8
DANMEN
  6
CONTINUOUS
 10
417.28768535883319
 20
358.5804632485457
 30
0.0
 11
417.28768535883319
 21
360.5804632485457
 31
0.0
  0
LINE
  5
AAFE
  8
DANMEN
  6
CONTINUOUS
 10
410.78768535883307
 20
358.28049024854568
 30
0.0
 11
410.78768535883307
 21
411.28047524854583
 31
0.0
  0
ARC
  5
AAFF
  8
DANMEN
  6
CONTINUOUS
 10
416.78768535883319
 20
360.5804632485457
 30
0.0
 40
0.5
 50
0.0000180000000203
 51
89.999981999999164
  0
LINE
  5
AB00
  8
DANMEN
  6
CONTINUOUS
 10
413.86337735883308
 20
346.9249312485457
 30
0.0
 11
412.8123073588331
 21
345.83623824854578
 31
0.0
  0
LINE
  5
AB01
  8
DANMEN
  6
CONTINUOUS
 10
413.86334335883311
 20
358.63615924854582
 30
0.0
 11
412.81227335883301
 21
359.72483224854568
 31
0.0
  0
LINE
  5
AB02
  8
DANMEN
  6
CONTINUOUS
 10
412.78768535883319
 20
342.53047524854583
 30
0.0
 11
426.78768535883307
 21
342.53047524854583
 31
0.0
  0
LINE
  5
AB03
  8
DANMEN
  6
CONTINUOUS
 10
412.78768535883319
 20
363.03047524854583
 30
0.0
 11
426.78768535883307
 21
363.03047524854583
 31
0.0
  0
LINE
  5
AB04
  8
DANMEN
  6
CONTINUOUS
 10
426.18767935883312
 20
361.08046324854581
 30
0.0
 11
422.78768535883307
 21
361.08046324854581
 31
0.0
  0
LINE
  5
AB05
  8
DANMEN
  6
CONTINUOUS
 10
428.78768535883319
 20
339.78047524854583
 30
0.0
 11
428.78768535883319
 21
347.28046024854581
 31
0.0
  0
ARC
  5
AB06
  8
DANMEN
  6
CONTINUOUS
 10
426.28765435883309
 20
347.48048724854578
 30
0.0
 40
0.799988
 50
128.6819109999991
 51
223.9915190000001
  0
ARC
  5
AB07
  8
DANMEN
  6
CONTINUOUS
 10
426.18767935883312
 20
345.28047524854583
 30
0.0
 40
0.800003
 50
269.99996300000009
 51
43.993084999999454
  0
ARC
  5
AB08
  8
DANMEN
  6
CONTINUOUS
 10
426.28768535883307
 20
358.08049324854579
 30
0.0
 40
0.800003
 50
136.0069339999996
 51
231.31725200000051
  0
ARC
  5
AB09
  8
DANMEN
  6
CONTINUOUS
 10
426.18767935883312
 20
360.28047524854583
 30
0.0
 40
0.800003
 50
316.00693300000017
 51
89.999981999999164
  0
LINE
  5
AB0A
  8
DANMEN
  6
CONTINUOUS
 10
422.28768535883302
 20
359.5804632485457
 30
0.0
 11
422.28768535883302
 21
360.5804632485457
 31
0.0
  0
LINE
  5
AB0B
  8
DANMEN
  6
CONTINUOUS
 10
428.78768535883319
 20
358.28049024854568
 30
0.0
 11
428.78768535883319
 21
411.28047524854583
 31
0.0
  0
ARC
  5
AB0C
  8
DANMEN
  6
CONTINUOUS
 10
422.78768535883307
 20
360.5804632485457
 30
0.0
 40
0.5
 50
89.999981999999164
 51
179.99996399999989
  0
LINE
  5
AB0D
  8
DANMEN
  6
CONTINUOUS
 10
425.71198535883309
 20
346.92493924854568
 30
0.0
 11
426.76305535883318
 21
345.83624524854571
 31
0.0
  0
LINE
  5
AB0E
  8
DANMEN
  6
CONTINUOUS
 10
425.7120263588331
 20
358.6361622485457
 30
0.0
 11
426.76308635883311
 21
359.7248232485457
 31
0.0
  0
LINE
  5
AB0F
  8
DANMEN
  6
CONTINUOUS
 10
425.78768535883319
 20
348.10496824854567
 30
0.0
 11
425.78768535883319
 21
348.28047524854583
 31
0.0
  0
LINE
  5
AB10
  8
DANMEN
  6
CONTINUOUS
 10
412.78768535883319
 20
324.78047524854583
 30
0.0
 11
412.78768535883319
 21
342.53047524854583
 31
0.0
  0
LINE
  5
AB11
  8
DANMEN
  6
CONTINUOUS
 10
426.78768535883307
 20
324.78047524854583
 30
0.0
 11
426.78768535883307
 21
342.53047524854583
 31
0.0
  0
LINE
  5
AB12
  8
DANMEN
  6
CONTINUOUS
 10
412.78768535883319
 20
363.03047524854583
 30
0.0
 11
412.78768535883319
 21
412.28047524854583
 31
0.0
  0
LINE
  5
AB13
  8
DANMEN
  6
CONTINUOUS
 10
426.78768535883307
 20
363.03047524854583
 30
0.0
 11
426.78768535883307
 21
412.28047524854583
 31
0.0
  0
LINE
  5
AB14
  8
DANMEN
  6
CONTINUOUS
 10
428.78769035883312
 20
358.28050624854581
 30
0.0
 11
427.78768735883318
 21
357.28048524854569
 31
0.0
  0
LINE
  5
AB15
  8
DANMEN
  6
CONTINUOUS
 10
427.7877023588332
 20
348.28047124854578
 30
0.0
 11
428.7876973588331
 21
347.2804642485458
 31
0.0
  0
LINE
  5
AB16
  8
DANMEN
  6
CONTINUOUS
 10
417.78768535883307
 20
358.0804632485457
 30
0.0
 11
418.48768235883301
 21
358.0804632485457
 31
0.0
  0
ARC
  5
AB17
  8
DANMEN
  6
CONTINUOUS
 10
417.78768535883307
 20
358.5804632485457
 30
0.0
 40
0.5
 50
180.0000189999997
 51
270.00000099999971
  0
LINE
  5
AB18
  8
DANMEN
  6
CONTINUOUS
 10
418.98768235883313
 20
358.5804632485457
 30
0.0
 11
418.98768235883313
 21
360.0804632485457
 31
0.0
  0
ARC
  5
AB19
  8
DANMEN
  6
CONTINUOUS
 10
418.48768235883301
 20
358.5804632485457
 30
0.0
 40
0.5
 50
270.00001799999922
 51
0.0
  0
LINE
  5
AB1A
  8
DANMEN
  6
CONTINUOUS
 10
413.38769135883308
 20
344.48048724854578
 30
0.0
 11
416.78768535883319
 21
344.48048724854578
 31
0.0
  0
ARC
  5
AB1B
  8
DANMEN
  6
CONTINUOUS
 10
416.78768535883319
 20
344.98048724854578
 30
0.0
 40
0.5
 50
270.00001799999922
 51
359.99998199999987
  0
LINE
  5
AB1C
  8
DANMEN
  6
CONTINUOUS
 10
426.18767935883312
 20
344.48048724854578
 30
0.0
 11
422.78768535883307
 21
344.48048724854578
 31
0.0
  0
ARC
  5
AB1D
  8
DANMEN
  6
CONTINUOUS
 10
422.78768535883307
 20
344.98048724854578
 30
0.0
 40
0.5
 50
180.00003599999999
 51
270.00001799999922
  0
LINE
  5
AB1E
  8
DANMEN
  6
CONTINUOUS
 10
412.28770835883307
 20
357.28047324854577
 30
0.0
 11
410.78767635883321
 21
358.28048924854568
 31
0.0
  0
LINE
  5
AB1F
  8
DANMEN
  6
CONTINUOUS
 10
412.2877033588332
 20
348.2804652485458
 30
0.0
 11
410.78769735883299
 21
347.28046624854579
 31
0.0
  0
LINE
  5
AB20
  8
DANMEN
  6
CONTINUOUS
 10
412.28771635883322
 20
357.28047524854583
 30
0.0
 11
413.28768535883319
 21
357.28047524854583
 31
0.0
  0
LINE
  5
AB21
  8
DANMEN
  6
CONTINUOUS
 10
412.28771635883322
 20
348.28046024854569
 30
0.0
 11
413.28768535883319
 21
348.28046024854569
 31
0.0
  0
LINE
  5
AB22
  8
DANMEN
  6
CONTINUOUS
 10
421.08768835883319
 20
359.08046324854581
 30
0.0
 11
421.78768535883307
 21
359.08046324854581
 31
0.0
  0
ARC
  5
AB23
  8
DANMEN
  6
CONTINUOUS
 10
421.08768835883319
 20
359.5804632485457
 30
0.0
 40
0.5
 50
180.0000189999997
 51
270.00000099999971
  0
ARC
  5
AB24
  8
DANMEN
  6
CONTINUOUS
 10
421.78768535883307
 20
359.5804632485457
 30
0.0
 40
0.5
 50
270.00001799999922
 51
0.0
  0
LINE
  5
AB25
  8
DANMEN
  6
CONTINUOUS
 10
418.98768235883313
 20
360.0804632485457
 30
0.0
 11
420.58768835883319
 21
360.0804632485457
 31
0.0
  0
LINE
  5
AB26
  8
DANMEN
  6
CONTINUOUS
 10
420.58768835883319
 20
360.0804632485457
 30
0.0
 11
420.58768835883319
 21
359.5804632485457
 31
0.0
  0
LINE
  5
AB27
  8
DANMEN
  6
CONTINUOUS
 10
417.28768535883319
 20
346.98048724854578
 30
0.0
 11
417.28768535883319
 21
344.98048724854578
 31
0.0
  0
LINE
  5
AB28
  8
DANMEN
  6
CONTINUOUS
 10
422.28768535883302
 20
345.98048724854578
 30
0.0
 11
422.28768535883302
 21
344.98048724854578
 31
0.0
  0
LINE
  5
AB29
  8
DANMEN
  6
CONTINUOUS
 10
417.78768535883307
 20
347.48048724854578
 30
0.0
 11
418.48768235883301
 21
347.48048724854578
 31
0.0
  0
ARC
  5
AB2A
  8
DANMEN
  6
CONTINUOUS
 10
417.78768535883307
 20
346.98048724854578
 30
0.0
 40
0.5
 50
89.999981999999164
 51
179.99996399999989
  0
LINE
  5
AB2B
  8
DANMEN
  6
CONTINUOUS
 10
418.98768235883313
 20
346.98048724854578
 30
0.0
 11
418.98768235883313
 21
345.48048724854578
 31
0.0
  0
ARC
  5
AB2C
  8
DANMEN
  6
CONTINUOUS
 10
418.48768235883301
 20
346.98048724854578
 30
0.0
 40
0.5
 50
0.0
 51
89.999981999999164
  0
LINE
  5
AB2D
  8
DANMEN
  6
CONTINUOUS
 10
421.08768835883319
 20
346.48048724854578
 30
0.0
 11
421.78768535883307
 21
346.48048724854578
 31
0.0
  0
ARC
  5
AB2E
  8
DANMEN
  6
CONTINUOUS
 10
421.08768835883319
 20
345.98048724854578
 30
0.0
 40
0.5
 50
89.999981999999164
 51
179.99996399999989
  0
ARC
  5
AB2F
  8
DANMEN
  6
CONTINUOUS
 10
421.78768535883307
 20
345.98048724854578
 30
0.0
 40
0.5
 50
0.0
 51
89.999981999999164
  0
LINE
  5
AB30
  8
DANMEN
  6
CONTINUOUS
 10
418.98768235883313
 20
345.48048724854578
 30
0.0
 11
420.58768835883319
 21
345.48048724854578
 31
0.0
  0
LINE
  5
AB31
  8
DANMEN
  6
CONTINUOUS
 10
420.58768835883319
 20
345.48048724854578
 30
0.0
 11
420.58768835883319
 21
345.98048724854578
 31
0.0
  0
LINE
  5
AB32
  8
DANMEN
  6
CONTINUOUS
 10
425.78768535883319
 20
357.28047524854583
 30
0.0
 11
427.78768535883307
 21
357.28047524854583
 31
0.0
  0
LINE
  5
AB33
  8
DANMEN
  6
CONTINUOUS
 10
425.78768535883319
 20
357.28047524854583
 30
0.0
 11
425.78768535883319
 21
357.45598224854569
 31
0.0
  0
LINE
  5
AB34
  8
DANMEN
  6
CONTINUOUS
 10
425.78768535883319
 20
348.28047524854583
 30
0.0
 11
427.78768535883307
 21
348.28047524854583
 31
0.0
  0
LINE
  5
AB35
  8
DANMEN
  6
CONTINUOUS
 10
425.78768535883319
 20
357.28047524854583
 30
0.0
 11
425.78768535883319
 21
348.28047524854583
 31
0.0
  0
LINE
  5
AB36
  8
DANMEN
  6
CONTINUOUS
 10
420.58768835883319
 20
359.5804632485457
 30
0.0
 11
420.58768835883319
 21
345.98048724854578
 31
0.0
  0
LINE
  5
AB37
  8
DANMEN
  6
CONTINUOUS
 10
417.28768535883319
 20
358.5804632485457
 30
0.0
 11
417.28768535883319
 21
346.98048724854578
 31
0.0
  0
LINE
  5
AB38
  8
DANMEN
  6
CONTINUOUS
 10
410.78768535883307
 20
358.28049024854568
 30
0.0
 11
410.78768535883307
 21
347.28046024854581
 31
0.0
  0
LINE
  5
AB39
  8
SUNPO
  6
CONTINUOUS
 10
454.78768535883319
 20
416.28047524854583
 30
0.0
 11
454.78768535883319
 21
441.78047524854583
 31
0.0
  0
LINE
  5
AB3A
  8
SUNPO
  6
CONTINUOUS
 10
384.78768535883307
 20
416.28047524854583
 30
0.0
 11
384.78768535883307
 21
441.78047524854583
 31
0.0
  0
LINE
  5
AB3B
  8
SUNPO
  6
CONTINUOUS
 10
384.78768535883307
 20
441.78047524854583
 30
0.0
 11
454.78768535883319
 21
441.78047524854583
 31
0.0
  0
LINE
  5
AB3C
  8
SUNPO
  6
CONTINUOUS
 10
454.78768535883319
 20
321.28049024854579
 30
0.0
 11
454.78768535883319
 21
290.78047524854571
 31
0.0
  0
LINE
  5
AB3D
  8
SUNPO
  6
CONTINUOUS
 10
384.78768535883307
 20
321.28047524854583
 30
0.0
 11
384.78768535883307
 21
290.78047524854571
 31
0.0
  0
LINE
  5
AB3E
  8
SUNPO
  6
CONTINUOUS
 10
384.78768535883307
 20
290.78047524854571
 30
0.0
 11
454.78768535883319
 21
290.78047524854571
 31
0.0
  0
LINE
  5
AB3F
  8
SUNPO
  6
CONTINUOUS
 10
434.78768535883307
 20
321.28047524854583
 30
0.0
 11
434.78768535883307
 21
300.78047524854583
 31
0.0
  0
LINE
  5
AB40
  8
SUNPO
  6
CONTINUOUS
 10
404.78768535883319
 20
321.28047524854583
 30
0.0
 11
404.78768535883319
 21
300.78047524854583
 31
0.0
  0
LINE
  5
AB41
  8
SUNPO
  6
CONTINUOUS
 10
404.78768535883319
 20
300.78047524854583
 30
0.0
 11
434.78768535883307
 21
300.78047524854583
 31
0.0
  0
LINE
  5
AB42
  8
SUNPO
  6
CONTINUOUS
 10
428.78768535883319
 20
413.78047524854571
 30
0.0
 11
428.78768535883319
 21
434.78047524854571
 31
0.0
  0
LINE
  5
AB43
  8
SUNPO
  6
CONTINUOUS
 10
410.78768535883307
 20
413.78047524854571
 30
0.0
 11
410.78768535883307
 21
434.78047524854571
 31
0.0
  0
LINE
  5
AB44
  8
SUNPO
  6
CONTINUOUS
 10
410.78768535883307
 20
434.78047524854571
 30
0.0
 11
428.78768535883319
 21
434.78047524854571
 31
0.0
  0
LINE
  5
AB45
  8
DANMEN
  6
PHANTOM
 10
163.28768535883319
 20
108.2804752485458
 30
0.0
 11
163.28768535883319
 21
106.2804752485458
 31
0.0
  0
LINE
  5
AB46
  8
DANMEN
  6
PHANTOM
 10
163.7876853588331
 20
105.7804752485458
 30
0.0
 11
177.7876853588331
 21
105.7804752485458
 31
0.0
  0
LINE
  5
AB47
  8
DANMEN
  6
PHANTOM
 10
163.7876853588331
 20
108.7804752485458
 30
0.0
 11
177.7876853588331
 21
108.7804752485458
 31
0.0
  0
LINE
  5
AB48
  8
DANMEN
  6
PHANTOM
 10
168.0376853588331
 20
108.7804752485458
 30
0.0
 11
168.0376853588331
 21
105.7804752485458
 31
0.0
  0
LINE
  5
AB49
  8
DANMEN
  6
PHANTOM
 10
172.5376853588331
 20
108.7804752485458
 30
0.0
 11
172.5376853588331
 21
105.7804752485458
 31
0.0
  0
LINE
  5
AB4A
  8
DANMEN
  6
PHANTOM
 10
167.48768635883309
 20
124.7804752485458
 30
0.0
 11
167.48768635883309
 21
113.7804752485458
 31
0.0
  0
LINE
  5
AB4B
  8
DANMEN
  6
PHANTOM
 10
171.48768535883309
 20
124.7804752485458
 30
0.0
 11
171.48768535883309
 21
111.3804742485458
 31
0.0
  0
LINE
  5
AB4C
  8
DANMEN
  6
PHANTOM
 10
168.48768635883309
 20
125.7804752485458
 30
0.0
 11
170.48768635883309
 21
125.7804752485458
 31
0.0
  0
LINE
  5
AB4D
  8
DANMEN
  6
PHANTOM
 10
178.2876853588331
 20
108.2804752485458
 30
0.0
 11
178.2876853588331
 21
106.2804752485458
 31
0.0
  0
LINE
  5
AB4E
  8
DANMEN
  6
PHANTOM
 10
165.48768635883309
 20
113.7804752485458
 30
0.0
 11
167.48768635883309
 21
113.7804752485458
 31
0.0
  0
LINE
  5
AB4F
  8
DANMEN
  6
PHANTOM
 10
165.9876863588332
 20
111.7804752485458
 30
0.0
 11
167.48768635883309
 21
111.7804752485458
 31
0.0
  0
LINE
  5
AB50
  8
DANMEN
  6
PHANTOM
 10
165.48768635883309
 20
113.7804752485458
 30
0.0
 11
165.48768635883309
 21
112.2804752485458
 31
0.0
  0
LINE
  5
AB51
  8
DANMEN
  6
PHANTOM
 10
167.48768635883309
 20
111.7804752485458
 30
0.0
 11
167.48768635883309
 21
110.9634482485458
 31
0.0
  0
ARC
  5
AB52
  8
DANMEN
  6
PHANTOM
 10
163.7876853588331
 20
108.2804752485458
 30
0.0
 40
0.5
 50
89.999981999999164
 51
179.99996399999989
  0
ARC
  5
AB53
  8
DANMEN
  6
PHANTOM
 10
163.7876853588331
 20
106.2804752485458
 30
0.0
 40
0.5
 50
179.9999810000001
 51
270.00001799999922
  0
ARC
  5
AB54
  8
DANMEN
  6
PHANTOM
 10
170.48768635883309
 20
124.7804752485458
 30
0.0
 40
1.0
 50
0.0
 51
89.999981999999164
  0
ARC
  5
AB55
  8
DANMEN
  6
PHANTOM
 10
168.48768635883309
 20
124.7804752485458
 30
0.0
 40
1.0
 50
89.999981999999164
 51
179.99996399999989
  0
ARC
  5
AB56
  8
DANMEN
  6
PHANTOM
 10
177.7876853588331
 20
106.2804752485458
 30
0.0
 40
0.5
 50
270.00001799999922
 51
0.0
  0
ARC
  5
AB57
  8
DANMEN
  6
PHANTOM
 10
177.7876853588331
 20
108.2804752485458
 30
0.0
 40
0.5
 50
0.0
 51
89.999981999999164
  0
ARC
  5
AB58
  8
DANMEN
  6
PHANTOM
 10
165.9876863588332
 20
112.2804752485458
 30
0.0
 40
0.5
 50
179.99996399999989
 51
270.00000099999971
  0
LINE
  5
AB59
  8
DANMEN
  6
PHANTOM
 10
173.7876843588333
 20
108.7804751489887
 30
0.0
 11
166.78768635883301
 21
108.7804753481029
 31
0.0
  0
LINE
  5
AB5A
  8
DANMEN
  6
DASHED
 10
171.9086842397667
 20
108.4014747392939
 30
0.0
 11
171.9086844738778
 21
102.78047573929361
 31
0.0
  0
LINE
  5
AB5B
  8
DANMEN
  6
DASHED
 10
168.66668623976651
 20
108.4014747577977
 30
0.0
 11
168.6666864738776
 21
102.7804757577973
 31
0.0
  0
LINE
  5
AB5C
  8
DANMEN
  6
DASHED
 10
172.28768491901101
 20
107.3804776202273
 30
0.0
 11
172.28768547387779
 21
102.78047562022689
 31
0.0
  0
LINE
  5
AB5D
  8
DANMEN
  6
DASHED
 10
168.2876859190109
 20
107.38047787686411
 30
0.0
 11
168.2876854738777
 21
102.780475876864
 31
0.0
  0
LINE
  5
AB5E
  8
DANMEN
  6
PHANTOM
 10
173.6897397105069
 20
109.89988717975901
 30
0.0
 11
173.7876753588333
 21
108.7804751489915
 31
0.0
  0
LINE
  5
AB5F
  8
DANMEN
  6
PHANTOM
 10
166.88562971050641
 20
109.8998863173331
 30
0.0
 11
166.78769435883299
 21
108.7804753481004
 31
0.0
  0
LINE
  5
AB60
  8
DANMEN
  6
DASHED
 10
172.28768291901039
 20
107.3804756202279
 30
0.0
 11
168.2876869190103
 21
107.3804758768638
 31
0.0
  0
LINE
  5
AB61
  8
DANMEN
  6
DASHED
 10
172.2876699190129
 20
107.380483620232
 30
0.0
 11
171.9357501955698
 21
108.2607917307909
 31
0.0
  0
LINE
  5
AB62
  8
DANMEN
  6
DASHED
 10
168.28769991901279
 20
107.3804838768597
 30
0.0
 11
168.63962019556999
 21
108.2607927663007
 31
0.0
  0
LINE
  5
AB63
  8
DANMEN
  6
DASHED
 10
172.2876791049469
 20
111.1554286202293
 30
0.0
 11
171.43267956620619
 21
109.4405638888353
 31
0.0
  0
LINE
  5
AB64
  8
DANMEN
  6
DASHED
 10
168.2876911049467
 20
111.1554288768626
 30
0.0
 11
169.14269156620631
 21
109.4405646082562
 31
0.0
  0
LINE
  5
AB65
  8
DANMEN
  6
DASHED
 10
171.43267356620709
 20
109.4405668888372
 30
0.0
 11
170.5224204141569
 21
108.9565761748016
 31
0.0
  0
LINE
  5
AB66
  8
DANMEN
  6
DASHED
 10
169.1426955662069
 20
109.440566608255
 30
0.0
 11
170.05295041415661
 21
108.95657532229001
 31
0.0
  0
LINE
  5
AB67
  8
DANMEN
  6
PHANTOM
 10
172.2876832172407
 20
98.780475620227477
 30
0.0
 11
168.2876872172406
 21
98.780475876863278
 31
0.0
  0
LINE
  5
AB68
  8
DANMEN
  6
PHANTOM
 10
168.2876854738777
 20
102.780475876864
 30
0.0
 11
168.2876852172412
 21
98.780477876863927
 31
0.0
  0
LINE
  5
AB69
  8
DANMEN
  6
PHANTOM
 10
168.6666864738776
 20
102.7804757577973
 30
0.0
 11
168.66668621724119
 21
98.780477757797229
 31
0.0
  0
LINE
  5
AB6A
  8
DANMEN
  6
PHANTOM
 10
171.9086844738778
 20
102.78047573929361
 30
0.0
 11
171.9086842172413
 21
98.780477739293531
 31
0.0
  0
LINE
  5
AB6B
  8
DANMEN
  6
PHANTOM
 10
172.28768547387779
 20
102.78047562022689
 30
0.0
 11
172.28768521724129
 21
98.780477620226847
 31
0.0
  0
ARC
  5
AB6C
  8
DANMEN
  6
PHANTOM
 10
170.2876853482135
 20
102.3804742485455
 30
0.0
 40
9.0
 50
74.11917299999952
 51
105.880864
  0
ARC
  5
AB6D
  8
DANMEN
  6
PHANTOM
 10
172.3946946749127
 20
109.7865875866093
 30
0.0
 40
1.299998999999999
 50
5.0000630000002291
 51
74.11917299999952
  0
ARC
  5
AB6E
  8
DANMEN
  6
PHANTOM
 10
168.18067567491269
 20
109.7865879104825
 30
0.0
 40
1.299998999999999
 50
105.880864
 51
174.9999739999997
  0
ARC
  5
AB6F
  8
DANMEN
  6
DASHED
 10
172.28768523976669
 20
108.4014746202273
 30
0.0
 40
0.379001
 50
90.000018999998971
 51
201.79005300000031
  0
ARC
  5
AB70
  8
DANMEN
  6
DASHED
 10
168.28768623976649
 20
108.401474876864
 30
0.0
 40
0.379001
 50
338.2099850000003
 51
90.000018999998971
  0
ARC
  5
AB71
  8
DANMEN
  6
DASHED
 10
170.28768555285009
 20
109.3980502485458
 30
0.0
 40
0.5
 50
241.99999500000041
 51
298.00006000000019
  0
LINE
  5
AB72
  8
SUNPO
  6
CONTINUOUS
 10
410.78768535883307
 20
434.78047524854571
 30
0.0
 11
384.78768535883307
 21
434.78047524854571
 31
0.0
  0
LINE
  5
AB73
  8
SUNPO
  6
CONTINUOUS
 10
384.78768535883307
 20
300.78047524854583
 30
0.0
 11
404.78768535883319
 21
300.78047524854583
 31
0.0
  0
LINE
  5
AB74
  8
DANMEN
  6
CONTINUOUS
 10
384.78768535883307
 20
381.28049024854568
 30
0.0
 11
384.78768535883307
 21
323.28049024854579
 31
0.0
  0
LINE
  5
AB75
  8
DANMEN
  6
CONTINUOUS
 10
385.28768535883307
 20
322.78049024854568
 30
0.0
 11
404.78768535883319
 21
322.78049024854568
 31
0.0
  0
LINE
  5
AB76
  8
DANMEN
  6
CONTINUOUS
 10
385.28768535883307
 20
381.78049024854579
 30
0.0
 11
399.28768535883307
 21
381.78049024854579
 31
0.0
  0
LINE
  5
AB77
  8
DANMEN
  6
CONTINUOUS
 10
404.78768535883319
 20
323.78049024854579
 30
0.0
 11
404.78768535883319
 21
322.78049024854568
 31
0.0
  0
LINE
  5
AB78
  8
DANMEN
  6
CONTINUOUS
 10
410.48768235883313
 20
327.5804902485458
 30
0.0
 11
410.48768235883313
 21
327.28049024854568
 31
0.0
  0
LINE
  5
AB79
  8
DANMEN
  6
CONTINUOUS
 10
404.28768535883319
 20
326.78049024854568
 30
0.0
 11
406.78768535883307
 21
326.78049024854568
 31
0.0
  0
LINE
  5
AB7A
  8
DANMEN
  6
CONTINUOUS
 10
403.98768235883318
 20
328.0804902485458
 30
0.0
 11
409.98768235883301
 21
328.0804902485458
 31
0.0
  0
LINE
  5
AB7B
  8
DANMEN
  6
CONTINUOUS
 10
406.78768535883307
 20
324.98049024854578
 30
0.0
 11
407.587673358833
 21
324.98049024854578
 31
0.0
  0
LINE
  5
AB7C
  8
DANMEN
  6
CONTINUOUS
 10
404.28768535883319
 20
326.78049024854568
 30
0.0
 11
404.28768535883319
 21
324.28049024854568
 31
0.0
  0
LINE
  5
AB7D
  8
DANMEN
  6
CONTINUOUS
 10
406.78768535883307
 20
326.78049024854568
 30
0.0
 11
406.78768535883307
 21
324.98049024854578
 31
0.0
  0
LINE
  5
AB7E
  8
DANMEN
  6
CONTINUOUS
 10
408.087673358833
 20
326.78049024854568
 30
0.0
 11
408.087673358833
 21
325.48049024854578
 31
0.0
  0
LINE
  5
AB7F
  8
DANMEN
  6
CONTINUOUS
 10
408.087673358833
 20
326.78049024854568
 30
0.0
 11
409.98768235883301
 21
326.78049024854568
 31
0.0
  0
LINE
  5
AB80
  8
DANMEN
  6
CONTINUOUS
 10
402.98768235883313
 20
327.0804902485458
 30
0.0
 11
402.98768235883313
 21
324.28049024854568
 31
0.0
  0
LINE
  5
AB81
  8
DANMEN
  6
CONTINUOUS
 10
386.28768535883319
 20
324.28049024854568
 30
0.0
 11
402.98768235883313
 21
324.28049024854568
 31
0.0
  0
LINE
  5
AB82
  8
DANMEN
  6
CONTINUOUS
 10
386.28768535883319
 20
380.48048724854578
 30
0.0
 11
386.28768535883319
 21
346.28049024854579
 31
0.0
  0
LINE
  5
AB83
  8
DANMEN
  6
CONTINUOUS
 10
387.28768535883307
 20
345.28049024854568
 30
0.0
 11
400.28768535883307
 21
345.28049024854568
 31
0.0
  0
LINE
  5
AB84
  8
DANMEN
  6
CONTINUOUS
 10
400.78768535883319
 20
344.78049024854579
 30
0.0
 11
400.78768535883319
 21
344.08047824854577
 31
0.0
  0
LINE
  5
AB85
  8
DANMEN
  6
CONTINUOUS
 10
399.78768535883307
 20
341.78049024854568
 30
0.0
 11
404.78768535883319
 21
341.78049024854568
 31
0.0
  0
LINE
  5
AB86
  8
DANMEN
  6
CONTINUOUS
 10
387.28768535883307
 20
343.78049024854568
 30
0.0
 11
398.28768535883302
 21
343.78049024854568
 31
0.0
  0
LINE
  5
AB87
  8
DANMEN
  6
CONTINUOUS
 10
408.587673358833
 20
343.78049024854568
 30
0.0
 11
408.587673358833
 21
340.78049024854568
 31
0.0
  0
LINE
  5
AB88
  8
DANMEN
  6
CONTINUOUS
 10
403.78768535883319
 20
344.78049024854579
 30
0.0
 11
403.78768535883319
 21
344.08047824854577
 31
0.0
  0
LINE
  5
AB89
  8
DANMEN
  6
CONTINUOUS
 10
404.78768535883319
 20
344.08047824854577
 30
0.0
 11
404.78768535883319
 21
341.78049024854568
 31
0.0
  0
LINE
  5
AB8A
  8
DANMEN
  6
CONTINUOUS
 10
399.78768535883307
 20
344.08047824854577
 30
0.0
 11
400.78768535883319
 21
344.08047824854577
 31
0.0
  0
LINE
  5
AB8B
  8
DANMEN
  6
CONTINUOUS
 10
403.78768535883319
 20
344.08047824854577
 30
0.0
 11
404.78768535883319
 21
344.08047824854577
 31
0.0
  0
LINE
  5
AB8C
  8
DANMEN
  6
CONTINUOUS
 10
399.78768535883307
 20
344.08047824854577
 30
0.0
 11
399.78768535883307
 21
341.78049024854568
 31
0.0
  0
LINE
  5
AB8D
  8
DANMEN
  6
CONTINUOUS
 10
404.28768535883319
 20
345.28049024854568
 30
0.0
 11
410.28768535883307
 21
345.28049024854568
 31
0.0
  0
LINE
  5
AB8E
  8
DANMEN
  6
CONTINUOUS
 10
398.28768535883302
 20
343.78049024854568
 30
0.0
 11
398.28768535883302
 21
341.28049024854568
 31
0.0
  0
LINE
  5
AB8F
  8
DANMEN
  6
CONTINUOUS
 10
399.28768535883307
 20
340.28049024854579
 30
0.0
 11
405.28768535883307
 21
340.28049024854579
 31
0.0
  0
LINE
  5
AB90
  8
DANMEN
  6
CONTINUOUS
 10
406.28768535883307
 20
343.78049024854568
 30
0.0
 11
406.28768535883307
 21
341.28049024854568
 31
0.0
  0
LINE
  5
AB91
  8
DANMEN
  6
CONTINUOUS
 10
410.78768535883307
 20
344.78049024854579
 30
0.0
 11
410.78768535883307
 21
343.98048724854578
 31
0.0
  0
LINE
  5
AB92
  8
DANMEN
  6
CONTINUOUS
 10
409.887676358833
 20
343.98048724854578
 30
0.0
 11
409.887676358833
 21
340.78049024854568
 31
0.0
  0
LINE
  5
AB93
  8
DANMEN
  6
CONTINUOUS
 10
409.887676358833
 20
343.98048724854578
 30
0.0
 11
410.78768535883307
 21
343.98048724854578
 31
0.0
  0
LINE
  5
AB94
  8
DANMEN
  6
CONTINUOUS
 10
406.28768535883307
 20
343.78049024854568
 30
0.0
 11
408.587673358833
 21
343.78049024854568
 31
0.0
  0
LINE
  5
AB95
  8
DANMEN
  6
CONTINUOUS
 10
409.087673358833
 20
340.28049024854579
 30
0.0
 11
409.38767635883312
 21
340.28049024854579
 31
0.0
  0
LINE
  5
AB96
  8
DANMEN
  6
CONTINUOUS
 10
399.78768535883307
 20
381.28049024854568
 30
0.0
 11
399.78768535883307
 21
380.98048724854578
 31
0.0
  0
LINE
  5
AB97
  8
DANMEN
  6
CONTINUOUS
 10
386.28768535883319
 20
342.78049024854568
 30
0.0
 11
386.28768535883319
 21
324.28049024854568
 31
0.0
  0
LINE
  5
AB98
  8
DANMEN
  6
CONTINUOUS
 10
386.28768535883319
 20
380.48048724854578
 30
0.0
 11
399.28768535883307
 21
380.48048724854578
 31
0.0
  0
ARC
  5
AB99
  8
DANMEN
  6
CONTINUOUS
 10
409.98768235883301
 20
327.5804902485458
 30
0.0
 40
0.5
 50
0.0
 51
89.999981999999164
  0
ARC
  5
AB9A
  8
DANMEN
  6
CONTINUOUS
 10
409.98768235883301
 20
327.28049024854568
 30
0.0
 40
0.5
 50
270.00001799999922
 51
0.0
  0
ARC
  5
AB9B
  8
DANMEN
  6
CONTINUOUS
 10
407.587673358833
 20
325.48049024854578
 30
0.0
 40
0.5
 50
270.00001799999922
 51
0.0
  0
ARC
  5
AB9C
  8
DANMEN
  6
CONTINUOUS
 10
403.98768235883318
 20
327.0804902485458
 30
0.0
 40
1.0
 50
89.999981999999164
 51
179.99996399999989
  0
ARC
  5
AB9D
  8
DANMEN
  6
CONTINUOUS
 10
404.28768535883319
 20
323.78049024854579
 30
0.0
 40
0.5
 50
0.0
 51
89.999981999999164
  0
ARC
  5
AB9E
  8
DANMEN
  6
CONTINUOUS
 10
385.28768535883307
 20
323.28049024854579
 30
0.0
 40
0.5
 50
179.9999810000001
 51
270.00001799999922
  0
ARC
  5
AB9F
  8
DANMEN
  6
CONTINUOUS
 10
385.28768535883307
 20
381.28049024854568
 30
0.0
 40
0.5
 50
89.999981999999164
 51
179.99996399999989
  0
ARC
  5
ABA0
  8
DANMEN
  6
CONTINUOUS
 10
404.28768535883319
 20
344.78049024854579
 30
0.0
 40
0.5
 50
89.999981999999164
 51
179.99996399999989
  0
ARC
  5
ABA1
  8
DANMEN
  6
CONTINUOUS
 10
400.28768535883307
 20
344.78049024854579
 30
0.0
 40
0.5
 50
0.0
 51
89.999981999999164
  0
ARC
  5
ABA2
  8
DANMEN
  6
CONTINUOUS
 10
399.28768535883307
 20
341.28049024854568
 30
0.0
 40
1.0
 50
179.9999810000001
 51
270.00001799999922
  0
ARC
  5
ABA3
  8
DANMEN
  6
CONTINUOUS
 10
410.28768535883307
 20
344.78049024854579
 30
0.0
 40
0.5
 50
0.0
 51
89.999981999999164
  0
ARC
  5
ABA4
  8
DANMEN
  6
CONTINUOUS
 10
405.28768535883307
 20
341.28049024854568
 30
0.0
 40
1.0
 50
270.00001799999922
 51
0.0
  0
ARC
  5
ABA5
  8
DANMEN
  6
CONTINUOUS
 10
409.087673358833
 20
340.78049024854568
 30
0.0
 40
0.5
 50
179.9999810000001
 51
270.00001799999922
  0
ARC
  5
ABA6
  8
DANMEN
  6
CONTINUOUS
 10
409.38767635883312
 20
340.78049024854568
 30
0.0
 40
0.5
 50
270.00001799999922
 51
0.0
  0
ARC
  5
ABA7
  8
DANMEN
  6
CONTINUOUS
 10
399.28768535883307
 20
381.28049024854568
 30
0.0
 40
0.5
 50
0.0
 51
89.999981999999164
  0
ARC
  5
ABA8
  8
DANMEN
  6
CONTINUOUS
 10
387.28768535883307
 20
346.28049024854579
 30
0.0
 40
1.0
 50
179.9999810000001
 51
270.00001799999922
  0
ARC
  5
ABA9
  8
DANMEN
  6
CONTINUOUS
 10
387.28768535883307
 20
342.78049024854568
 30
0.0
 40
1.0
 50
89.999981999999164
 51
179.99996399999989
  0
ARC
  5
ABAA
  8
DANMEN
  6
CONTINUOUS
 10
399.28768535883307
 20
380.98048724854578
 30
0.0
 40
0.5
 50
270.00001799999922
 51
0.0
  0
LINE
  5
ABAB
  8
DANMEN
  6
CONTINUOUS
 10
409.78768535883302
 20
381.78047350321651
 30
0.0
 11
384.78768535883307
 21
381.78047524854583
 31
0.0
  0
LINE
  5
ABAC
  8
DANMEN
  6
CONTINUOUS
 10
384.78768535883307
 20
381.78047524854583
 30
0.0
 11
384.78768577771211
 21
387.78047524854583
 31
0.0
  0
LINE
  5
ABAD
  8
DANMEN
  6
CONTINUOUS
 10
409.78768584752521
 20
388.78047350321651
 30
0.0
 11
383.78768584752521
 21
388.78047531835881
 31
0.0
  0
LINE
  5
ABAE
  8
DANMEN
  6
CONTINUOUS
 10
410.78768542864623
 20
382.7804734334033
 30
0.0
 11
410.78768577771211
 21
387.78047343340319
 31
0.0
  0
LINE
  5
ABAF
  8
DANMEN
  6
CONTINUOUS
 10
391.78768542864628
 20
382.7804747598534
 30
0.0
 11
391.78768577771211
 21
387.78047475985358
 31
0.0
  0
LINE
  5
ABB0
  8
DANMEN
  6
CONTINUOUS
 10
392.78768542864623
 20
382.78047469004031
 30
0.0
 11
392.78768577771211
 21
387.78047469004031
 31
0.0
  0
LINE
  5
ABB1
  8
DANMEN
  6
CONTINUOUS
 10
409.78768577771211
 20
387.78047350321651
 30
0.0
 11
392.78768577771211
 21
387.78047469004031
 31
0.0
  0
LINE
  5
ABB2
  8
DANMEN
  6
CONTINUOUS
 10
409.78768542864628
 20
382.78047350321651
 30
0.0
 11
409.78768577771211
 21
387.78047350321651
 31
0.0
  0
LINE
  5
ABB3
  8
DANMEN
  6
CONTINUOUS
 10
409.78768542864628
 20
382.78047350321651
 30
0.0
 11
392.78768542864623
 21
382.78047469004031
 31
0.0
  0
ARC
  5
ABB4
  8
DANMEN
  6
CONTINUOUS
 10
383.78768577771211
 20
387.78047531835881
 30
0.0
 40
1.0
 50
0.0000140000001062
 51
89.999995999999271
  0
ARC
  5
ABB5
  8
DANMEN
  6
CONTINUOUS
 10
409.78768577771211
 20
387.78047350321651
 30
0.0
 40
1.0
 50
0.0000140000001062
 51
89.999995999999271
  0
ARC
  5
ABB6
  8
DANMEN
  6
CONTINUOUS
 10
409.78768542864628
 20
382.78047350321651
 30
0.0
 40
1.0
 50
270.00003199999918
 51
0.0000140000001062
  0
ARC
  5
ABB7
  8
DANMEN
  6
CONTINUOUS
 10
392.78768542864623
 20
382.78047469004031
 30
0.0
 40
1.0
 50
179.999978
 51
270.00001499999991
  0
ARC
  5
ABB8
  8
DANMEN
  6
CONTINUOUS
 10
392.78768577771211
 20
387.78047469004031
 30
0.0
 40
1.0
 50
89.999995999999271
 51
179.999978
  0
CIRCLE
  5
ABB9
  8
DANMEN
  6
CONTINUOUS
 10
407.78768549845938
 20
383.78047364284271
 30
0.0
 40
0.1
  0
CIRCLE
  5
ABBA
  8
DANMEN
  6
CONTINUOUS
 10
407.7876856380858
 20
385.78047364284271
 30
0.0
 40
0.1
  0
CIRCLE
  5
ABBB
  8
DANMEN
  6
CONTINUOUS
 10
393.78768563808569
 20
385.78047462022721
 30
0.0
 40
0.1
  0
CIRCLE
  5
ABBC
  8
DANMEN
  6
CONTINUOUS
 10
393.78768549845938
 20
383.78047462022721
 30
0.0
 40
0.1
  0
CIRCLE
  5
ABBD
  8
DANMEN
  6
CONTINUOUS
 10
395.7876856380858
 20
385.7804744806009
 30
0.0
 40
0.1
  0
CIRCLE
  5
ABBE
  8
DANMEN
  6
CONTINUOUS
 10
395.78768549845938
 20
383.7804744806009
 30
0.0
 40
0.1
  0
CIRCLE
  5
ABBF
  8
DANMEN
  6
CONTINUOUS
 10
397.78768563808569
 20
385.78047434097448
 30
0.0
 40
0.1
  0
CIRCLE
  5
ABC0
  8
DANMEN
  6
CONTINUOUS
 10
397.78768549845938
 20
383.78047434097448
 30
0.0
 40
0.1
  0
CIRCLE
  5
ABC1
  8
DANMEN
  6
CONTINUOUS
 10
399.78768563808569
 20
385.78047420134823
 30
0.0
 40
0.1
  0
CIRCLE
  5
ABC2
  8
DANMEN
  6
CONTINUOUS
 10
399.78768549845938
 20
383.78047420134823
 30
0.0
 40
0.1
  0
CIRCLE
  5
ABC3
  8
DANMEN
  6
CONTINUOUS
 10
401.7876856380858
 20
385.7804740617218
 30
0.0
 40
0.1
  0
CIRCLE
  5
ABC4
  8
DANMEN
  6
CONTINUOUS
 10
401.7876854984595
 20
383.7804740617218
 30
0.0
 40
0.1
  0
CIRCLE
  5
ABC5
  8
DANMEN
  6
CONTINUOUS
 10
403.7876856380858
 20
385.7804739220955
 30
0.0
 40
0.1
  0
CIRCLE
  5
ABC6
  8
DANMEN
  6
CONTINUOUS
 10
403.78768549845938
 20
383.7804739220955
 30
0.0
 40
0.1
  0
CIRCLE
  5
ABC7
  8
DANMEN
  6
CONTINUOUS
 10
405.7876856380858
 20
385.78047378246919
 30
0.0
 40
0.1
  0
CIRCLE
  5
ABC8
  8
DANMEN
  6
CONTINUOUS
 10
405.7876854984595
 20
383.78047378246919
 30
0.0
 40
0.1
  0
LINE
  5
ABC9
  8
DANMEN
  6
CONTINUOUS
 10
409.78768535883302
 20
411.78047699387503
 30
0.0
 11
384.78768535883307
 21
411.78047524854571
 31
0.0
  0
LINE
  5
ABCA
  8
DANMEN
  6
CONTINUOUS
 10
384.78768535883307
 20
411.78047524854571
 30
0.0
 11
384.78768577771211
 21
405.78047524854571
 31
0.0
  0
LINE
  5
ABCB
  8
DANMEN
  6
CONTINUOUS
 10
409.78768584752521
 20
404.78047699387503
 30
0.0
 11
383.78768584752521
 21
404.78047517873262
 31
0.0
  0
LINE
  5
ABCC
  8
DANMEN
  6
CONTINUOUS
 10
410.78768542864623
 20
410.78047706368818
 30
0.0
 11
410.78768577771211
 21
405.78047706368818
 31
0.0
  0
LINE
  5
ABCD
  8
DANMEN
  6
CONTINUOUS
 10
391.78768542864628
 20
410.78047573723802
 30
0.0
 11
391.78768577771211
 21
405.78047573723791
 31
0.0
  0
LINE
  5
ABCE
  8
DANMEN
  6
CONTINUOUS
 10
392.78768542864623
 20
410.78047580705112
 30
0.0
 11
392.78768577771211
 21
405.78047580705112
 31
0.0
  0
LINE
  5
ABCF
  8
DANMEN
  6
CONTINUOUS
 10
409.78768577771211
 20
405.78047699387503
 30
0.0
 11
392.78768577771211
 21
405.78047580705112
 31
0.0
  0
LINE
  5
ABD0
  8
DANMEN
  6
CONTINUOUS
 10
409.78768542864628
 20
410.78047699387503
 30
0.0
 11
409.78768577771211
 21
405.78047699387503
 31
0.0
  0
LINE
  5
ABD1
  8
DANMEN
  6
CONTINUOUS
 10
409.78768542864628
 20
410.78047699387503
 30
0.0
 11
392.78768542864623
 21
410.78047580705112
 31
0.0
  0
ARC
  5
ABD2
  8
DANMEN
  6
CONTINUOUS
 10
383.78768577771211
 20
405.78047517873262
 30
0.0
 40
1.0
 50
270.00000399999908
 51
359.99998599999981
  0
ARC
  5
ABD3
  8
DANMEN
  6
CONTINUOUS
 10
409.78768577771211
 20
405.78047699387503
 30
0.0
 40
1.0
 50
270.00000399999908
 51
359.99998599999981
  0
ARC
  5
ABD4
  8
DANMEN
  6
CONTINUOUS
 10
409.78768542864628
 20
410.78047699387503
 30
0.0
 40
1.0
 50
359.99998599999981
 51
89.999968000000692
  0
ARC
  5
ABD5
  8
DANMEN
  6
CONTINUOUS
 10
392.78768542864623
 20
410.78047580705112
 30
0.0
 40
1.0
 50
89.999985000000123
 51
180.00002199999989
  0
ARC
  5
ABD6
  8
DANMEN
  6
CONTINUOUS
 10
392.78768577771211
 20
405.78047580705112
 30
0.0
 40
1.0
 50
180.00002199999989
 51
270.00000399999908
  0
CIRCLE
  5
ABD7
  8
DANMEN
  6
CONTINUOUS
 10
407.78768549845938
 20
409.78047685424872
 30
0.0
 40
0.1
  0
CIRCLE
  5
ABD8
  8
DANMEN
  6
CONTINUOUS
 10
407.7876856380858
 20
407.7804768542486
 30
0.0
 40
0.1
  0
CIRCLE
  5
ABD9
  8
DANMEN
  6
CONTINUOUS
 10
393.78768563808569
 20
407.78047587686427
 30
0.0
 40
0.1
  0
CIRCLE
  5
ABDA
  8
DANMEN
  6
CONTINUOUS
 10
393.78768549845938
 20
409.78047587686427
 30
0.0
 40
0.1
  0
CIRCLE
  5
ABDB
  8
DANMEN
  6
CONTINUOUS
 10
395.7876856380858
 20
407.78047601649058
 30
0.0
 40
0.1
  0
CIRCLE
  5
ABDC
  8
DANMEN
  6
CONTINUOUS
 10
395.78768549845938
 20
409.78047601649058
 30
0.0
 40
0.1
  0
CIRCLE
  5
ABDD
  8
DANMEN
  6
CONTINUOUS
 10
397.78768563808569
 20
407.780476156117
 30
0.0
 40
0.1
  0
CIRCLE
  5
ABDE
  8
DANMEN
  6
CONTINUOUS
 10
397.78768549845938
 20
409.78047615611689
 30
0.0
 40
0.1
  0
CIRCLE
  5
ABDF
  8
DANMEN
  6
CONTINUOUS
 10
399.78768563808569
 20
407.7804762957432
 30
0.0
 40
0.1
  0
CIRCLE
  5
ABE0
  8
DANMEN
  6
CONTINUOUS
 10
399.78768549845938
 20
409.7804762957432
 30
0.0
 40
0.1
  0
CIRCLE
  5
ABE1
  8
DANMEN
  6
CONTINUOUS
 10
401.7876856380858
 20
407.78047643536968
 30
0.0
 40
0.1
  0
CIRCLE
  5
ABE2
  8
DANMEN
  6
CONTINUOUS
 10
401.7876854984595
 20
409.78047643536968
 30
0.0
 40
0.1
  0
CIRCLE
  5
ABE3
  8
DANMEN
  6
CONTINUOUS
 10
403.7876856380858
 20
407.78047657499587
 30
0.0
 40
0.1
  0
CIRCLE
  5
ABE4
  8
DANMEN
  6
CONTINUOUS
 10
403.78768549845938
 20
409.78047657499599
 30
0.0
 40
0.1
  0
CIRCLE
  5
ABE5
  8
DANMEN
  6
CONTINUOUS
 10
405.7876856380858
 20
407.7804767146223
 30
0.0
 40
0.1
  0
CIRCLE
  5
ABE6
  8
DANMEN
  6
CONTINUOUS
 10
405.7876854984595
 20
409.78047671462218
 30
0.0
 40
0.1
  0
LINE
  5
ABE7
  8
SUNPO
  6
CONTINUOUS
 10
228.7876853588331
 20
122.2804752485458
 30
0.0
 11
228.7876853588331
 21
120.2804752485458
 31
0.0
  0
LINE
  5
ABE8
  8
DANMEN
  6
CONTINUOUS
 10
454.78768535883319
 20
381.28049024854568
 30
0.0
 11
454.78768535883319
 21
323.28049024854579
 31
0.0
  0
LINE
  5
ABE9
  8
DANMEN
  6
CONTINUOUS
 10
454.28768535883319
 20
322.78049024854568
 30
0.0
 11
434.78768535883307
 21
322.78049024854568
 31
0.0
  0
LINE
  5
ABEA
  8
DANMEN
  6
CONTINUOUS
 10
454.28768535883319
 20
381.78049024854579
 30
0.0
 11
440.28768535883307
 21
381.78049024854579
 31
0.0
  0
LINE
  5
ABEB
  8
DANMEN
  6
CONTINUOUS
 10
434.78768535883307
 20
323.78049024854579
 30
0.0
 11
434.78768535883307
 21
322.78049024854568
 31
0.0
  0
LINE
  5
ABEC
  8
DANMEN
  6
CONTINUOUS
 10
429.08768835883319
 20
327.5804902485458
 30
0.0
 11
429.08768835883319
 21
327.28049024854568
 31
0.0
  0
LINE
  5
ABED
  8
DANMEN
  6
CONTINUOUS
 10
435.28768535883307
 20
326.78049024854568
 30
0.0
 11
432.78768535883319
 21
326.78049024854568
 31
0.0
  0
LINE
  5
ABEE
  8
DANMEN
  6
CONTINUOUS
 10
435.58768835883302
 20
328.0804902485458
 30
0.0
 11
429.58768835883319
 21
328.0804902485458
 31
0.0
  0
LINE
  5
ABEF
  8
DANMEN
  6
CONTINUOUS
 10
432.78768535883319
 20
324.98049024854578
 30
0.0
 11
431.9876973588332
 21
324.98049024854578
 31
0.0
  0
LINE
  5
ABF0
  8
DANMEN
  6
CONTINUOUS
 10
435.28768535883307
 20
326.78049024854568
 30
0.0
 11
435.28768535883307
 21
324.28049024854568
 31
0.0
  0
LINE
  5
ABF1
  8
DANMEN
  6
CONTINUOUS
 10
432.78768535883319
 20
326.78049024854568
 30
0.0
 11
432.78768535883319
 21
324.98049024854578
 31
0.0
  0
LINE
  5
ABF2
  8
DANMEN
  6
CONTINUOUS
 10
431.4876973588332
 20
326.78049024854568
 30
0.0
 11
431.4876973588332
 21
325.48049024854578
 31
0.0
  0
LINE
  5
ABF3
  8
DANMEN
  6
CONTINUOUS
 10
431.4876973588332
 20
326.78049024854568
 30
0.0
 11
429.58768835883319
 21
326.78049024854568
 31
0.0
  0
LINE
  5
ABF4
  8
DANMEN
  6
CONTINUOUS
 10
436.58768835883319
 20
327.0804902485458
 30
0.0
 11
436.58768835883319
 21
324.28049024854568
 31
0.0
  0
LINE
  5
ABF5
  8
DANMEN
  6
CONTINUOUS
 10
453.28768535883302
 20
324.28049024854568
 30
0.0
 11
436.58768835883319
 21
324.28049024854568
 31
0.0
  0
LINE
  5
ABF6
  8
DANMEN
  6
CONTINUOUS
 10
453.28768535883302
 20
380.48048724854578
 30
0.0
 11
453.28768535883302
 21
346.28049024854579
 31
0.0
  0
LINE
  5
ABF7
  8
DANMEN
  6
CONTINUOUS
 10
452.28768535883302
 20
345.28049024854568
 30
0.0
 11
439.28768535883307
 21
345.28049024854568
 31
0.0
  0
LINE
  5
ABF8
  8
DANMEN
  6
CONTINUOUS
 10
438.78768535883307
 20
344.78049024854579
 30
0.0
 11
438.78768535883307
 21
344.08047824854577
 31
0.0
  0
LINE
  5
ABF9
  8
DANMEN
  6
CONTINUOUS
 10
439.78768535883307
 20
341.78049024854568
 30
0.0
 11
434.78768535883307
 21
341.78049024854568
 31
0.0
  0
LINE
  5
ABFA
  8
DANMEN
  6
CONTINUOUS
 10
452.28768535883302
 20
343.78049024854568
 30
0.0
 11
441.28768535883319
 21
343.78049024854568
 31
0.0
  0
LINE
  5
ABFB
  8
DANMEN
  6
CONTINUOUS
 10
430.98769735883309
 20
343.78049024854568
 30
0.0
 11
430.98769735883309
 21
340.78049024854568
 31
0.0
  0
LINE
  5
ABFC
  8
DANMEN
  6
CONTINUOUS
 10
435.78768535883307
 20
344.78049024854579
 30
0.0
 11
435.78768535883307
 21
344.08047824854577
 31
0.0
  0
LINE
  5
ABFD
  8
DANMEN
  6
CONTINUOUS
 10
434.78768535883307
 20
344.08047824854577
 30
0.0
 11
434.78768535883307
 21
341.78049024854568
 31
0.0
  0
LINE
  5
ABFE
  8
DANMEN
  6
CONTINUOUS
 10
439.78768535883307
 20
344.08047824854577
 30
0.0
 11
438.78768535883307
 21
344.08047824854577
 31
0.0
  0
LINE
  5
ABFF
  8
DANMEN
  6
CONTINUOUS
 10
435.78768535883307
 20
344.08047824854577
 30
0.0
 11
434.78768535883307
 21
344.08047824854577
 31
0.0
  0
LINE
  5
AC00
  8
DANMEN
  6
CONTINUOUS
 10
439.78768535883307
 20
344.08047824854577
 30
0.0
 11
439.78768535883307
 21
341.78049024854568
 31
0.0
  0
LINE
  5
AC01
  8
DANMEN
  6
CONTINUOUS
 10
435.28768535883307
 20
345.28049024854568
 30
0.0
 11
429.28768535883319
 21
345.28049024854568
 31
0.0
  0
LINE
  5
AC02
  8
DANMEN
  6
CONTINUOUS
 10
441.28768535883319
 20
343.78049024854568
 30
0.0
 11
441.28768535883319
 21
341.28049024854568
 31
0.0
  0
LINE
  5
AC03
  8
DANMEN
  6
CONTINUOUS
 10
440.28768535883307
 20
340.28049024854579
 30
0.0
 11
434.28768535883307
 21
340.28049024854579
 31
0.0
  0
LINE
  5
AC04
  8
DANMEN
  6
CONTINUOUS
 10
433.28768535883319
 20
343.78049024854568
 30
0.0
 11
433.28768535883319
 21
341.28049024854568
 31
0.0
  0
LINE
  5
AC05
  8
DANMEN
  6
CONTINUOUS
 10
428.78768535883319
 20
344.78049024854579
 30
0.0
 11
428.78768535883319
 21
343.98048724854578
 31
0.0
  0
LINE
  5
AC06
  8
DANMEN
  6
CONTINUOUS
 10
429.6876943588332
 20
343.98048724854578
 30
0.0
 11
429.6876943588332
 21
340.78049024854568
 31
0.0
  0
LINE
  5
AC07
  8
DANMEN
  6
CONTINUOUS
 10
429.6876943588332
 20
343.98048724854578
 30
0.0
 11
428.78768535883319
 21
343.98048724854578
 31
0.0
  0
LINE
  5
AC08
  8
DANMEN
  6
CONTINUOUS
 10
433.28768535883319
 20
343.78049024854568
 30
0.0
 11
430.98769735883309
 21
343.78049024854568
 31
0.0
  0
LINE
  5
AC09
  8
DANMEN
  6
CONTINUOUS
 10
430.48769735883309
 20
340.28049024854579
 30
0.0
 11
430.18769435883308
 21
340.28049024854579
 31
0.0
  0
LINE
  5
AC0A
  8
DANMEN
  6
CONTINUOUS
 10
439.78768535883307
 20
381.28049024854568
 30
0.0
 11
439.78768535883307
 21
380.98048724854578
 31
0.0
  0
LINE
  5
AC0B
  8
DANMEN
  6
CONTINUOUS
 10
453.28768535883302
 20
342.78049024854568
 30
0.0
 11
453.28768535883302
 21
324.28049024854568
 31
0.0
  0
LINE
  5
AC0C
  8
DANMEN
  6
CONTINUOUS
 10
453.28768535883302
 20
380.48048724854578
 30
0.0
 11
440.28768535883307
 21
380.48048724854578
 31
0.0
  0
ARC
  5
AC0D
  8
DANMEN
  6
CONTINUOUS
 10
429.58768835883319
 20
327.5804902485458
 30
0.0
 40
0.5
 50
90.000018000000836
 51
180.0
  0
ARC
  5
AC0E
  8
DANMEN
  6
CONTINUOUS
 10
429.58768835883319
 20
327.28049024854568
 30
0.0
 40
0.5
 50
180.0
 51
269.99998199999908
  0
ARC
  5
AC0F
  8
DANMEN
  6
CONTINUOUS
 10
431.9876973588332
 20
325.48049024854578
 30
0.0
 40
0.5
 50
180.0
 51
269.99998199999908
  0
ARC
  5
AC10
  8
DANMEN
  6
CONTINUOUS
 10
435.58768835883302
 20
327.0804902485458
 30
0.0
 40
1.0
 50
0.0000360000000406
 51
90.000018000000836
  0
ARC
  5
AC11
  8
DANMEN
  6
CONTINUOUS
 10
435.28768535883307
 20
323.78049024854579
 30
0.0
 40
0.5
 50
90.000018000000836
 51
180.0
  0
ARC
  5
AC12
  8
DANMEN
  6
CONTINUOUS
 10
454.28768535883319
 20
323.28049024854579
 30
0.0
 40
0.5
 50
269.99998199999908
 51
0.0000189999997952
  0
ARC
  5
AC13
  8
DANMEN
  6
CONTINUOUS
 10
454.28768535883319
 20
381.28049024854568
 30
0.0
 40
0.5
 50
0.0000360000000406
 51
90.000018000000836
  0
ARC
  5
AC14
  8
DANMEN
  6
CONTINUOUS
 10
435.28768535883307
 20
344.78049024854579
 30
0.0
 40
0.5
 50
0.0000360000000406
 51
90.000018000000836
  0
ARC
  5
AC15
  8
DANMEN
  6
CONTINUOUS
 10
439.28768535883307
 20
344.78049024854579
 30
0.0
 40
0.5
 50
90.000018000000836
 51
180.0
  0
ARC
  5
AC16
  8
DANMEN
  6
CONTINUOUS
 10
440.28768535883307
 20
341.28049024854568
 30
0.0
 40
1.0
 50
269.99998199999908
 51
0.0000189999997952
  0
ARC
  5
AC17
  8
DANMEN
  6
CONTINUOUS
 10
429.28768535883319
 20
344.78049024854579
 30
0.0
 40
0.5
 50
90.000018000000836
 51
180.0
  0
ARC
  5
AC18
  8
DANMEN
  6
CONTINUOUS
 10
434.28768535883307
 20
341.28049024854568
 30
0.0
 40
1.0
 50
180.0
 51
269.99998199999908
  0
ARC
  5
AC19
  8
DANMEN
  6
CONTINUOUS
 10
430.48769735883309
 20
340.78049024854568
 30
0.0
 40
0.5
 50
269.99998199999908
 51
0.0000189999997952
  0
ARC
  5
AC1A
  8
DANMEN
  6
CONTINUOUS
 10
430.18769435883308
 20
340.78049024854568
 30
0.0
 40
0.5
 50
180.0
 51
269.99998199999908
  0
ARC
  5
AC1B
  8
DANMEN
  6
CONTINUOUS
 10
440.28768535883307
 20
381.28049024854568
 30
0.0
 40
0.5
 50
90.000018000000836
 51
180.0
  0
ARC
  5
AC1C
  8
DANMEN
  6
CONTINUOUS
 10
452.28768535883302
 20
346.28049024854579
 30
0.0
 40
1.0
 50
269.99998199999908
 51
0.0000189999997952
  0
ARC
  5
AC1D
  8
DANMEN
  6
CONTINUOUS
 10
452.28768535883302
 20
342.78049024854568
 30
0.0
 40
1.0
 50
0.0000360000000406
 51
90.000018000000836
  0
ARC
  5
AC1E
  8
DANMEN
  6
CONTINUOUS
 10
440.28768535883307
 20
380.98048724854578
 30
0.0
 40
0.5
 50
180.0
 51
269.99998199999908
  0
LINE
  5
AC1F
  8
DANMEN
  6
CONTINUOUS
 10
494.78768535883319
 20
181.2804752485458
 30
0.0
 11
494.78768535883319
 21
123.2804752485458
 31
0.0
  0
LINE
  5
AC20
  8
DANMEN
  6
CONTINUOUS
 10
495.28768535883302
 20
122.7804752485458
 30
0.0
 11
514.78768535883307
 21
122.7804752485458
 31
0.0
  0
LINE
  5
AC21
  8
DANMEN
  6
CONTINUOUS
 10
495.28768535883302
 20
181.7804752485458
 30
0.0
 11
509.28768535883307
 21
181.7804752485458
 31
0.0
  0
LINE
  5
AC22
  8
DANMEN
  6
CONTINUOUS
 10
514.78768535883307
 20
123.7804752485458
 30
0.0
 11
514.78768535883307
 21
122.7804752485458
 31
0.0
  0
LINE
  5
AC23
  8
DANMEN
  6
CONTINUOUS
 10
520.48768235883313
 20
127.5804752485458
 30
0.0
 11
520.48768235883313
 21
127.2804752485458
 31
0.0
  0
LINE
  5
AC24
  8
DANMEN
  6
CONTINUOUS
 10
514.28768535883296
 20
126.7804752485458
 30
0.0
 11
516.78768535883319
 21
126.7804752485458
 31
0.0
  0
LINE
  5
AC25
  8
DANMEN
  6
CONTINUOUS
 10
513.98768235883301
 20
128.08047524854581
 30
0.0
 11
519.98768235883313
 21
128.08047524854581
 31
0.0
  0
LINE
  5
AC26
  8
DANMEN
  6
CONTINUOUS
 10
516.78768535883319
 20
124.9804752485458
 30
0.0
 11
517.58767335883317
 21
124.9804752485458
 31
0.0
  0
LINE
  5
AC27
  8
DANMEN
  6
CONTINUOUS
 10
514.28768535883296
 20
126.7804752485458
 30
0.0
 11
514.28768535883296
 21
124.2804752485458
 31
0.0
  0
LINE
  5
AC28
  8
DANMEN
  6
CONTINUOUS
 10
516.78768535883319
 20
126.7804752485458
 30
0.0
 11
516.78768535883319
 21
124.9804752485458
 31
0.0
  0
LINE
  5
AC29
  8
DANMEN
  6
CONTINUOUS
 10
518.08767335883306
 20
126.7804752485458
 30
0.0
 11
518.08767335883306
 21
125.4804752485458
 31
0.0
  0
LINE
  5
AC2A
  8
DANMEN
  6
CONTINUOUS
 10
518.08767335883306
 20
126.7804752485458
 30
0.0
 11
519.98768235883313
 21
126.7804752485458
 31
0.0
  0
LINE
  5
AC2B
  8
DANMEN
  6
CONTINUOUS
 10
512.98768235883324
 20
127.0804752485458
 30
0.0
 11
512.98768235883324
 21
124.2804752485458
 31
0.0
  0
LINE
  5
AC2C
  8
DANMEN
  6
CONTINUOUS
 10
496.28768535883319
 20
124.2804752485458
 30
0.0
 11
512.98768235883324
 21
124.2804752485458
 31
0.0
  0
LINE
  5
AC2D
  8
DANMEN
  6
CONTINUOUS
 10
496.28768535883319
 20
180.48047224854579
 30
0.0
 11
496.28768535883319
 21
146.2804752485458
 31
0.0
  0
LINE
  5
AC2E
  8
DANMEN
  6
CONTINUOUS
 10
497.28768535883302
 20
145.2804752485458
 30
0.0
 11
510.28768535883302
 21
145.2804752485458
 31
0.0
  0
LINE
  5
AC2F
  8
DANMEN
  6
CONTINUOUS
 10
510.78768535883307
 20
144.7804752485458
 30
0.0
 11
510.78768535883307
 21
144.08046324854581
 31
0.0
  0
LINE
  5
AC30
  8
DANMEN
  6
CONTINUOUS
 10
509.78768535883307
 20
141.7804752485458
 30
0.0
 11
514.78768535883307
 21
141.7804752485458
 31
0.0
  0
LINE
  5
AC31
  8
DANMEN
  6
CONTINUOUS
 10
497.28768535883302
 20
143.7804752485458
 30
0.0
 11
508.28768535883302
 21
143.7804752485458
 31
0.0
  0
LINE
  5
AC32
  8
DANMEN
  6
CONTINUOUS
 10
518.58767335883306
 20
143.7804752485458
 30
0.0
 11
518.58767335883306
 21
140.7804752485458
 31
0.0
  0
LINE
  5
AC33
  8
DANMEN
  6
CONTINUOUS
 10
513.78768535883307
 20
144.7804752485458
 30
0.0
 11
513.78768535883307
 21
144.08046324854581
 31
0.0
  0
LINE
  5
AC34
  8
DANMEN
  6
CONTINUOUS
 10
514.78768535883307
 20
144.08046324854581
 30
0.0
 11
514.78768535883307
 21
141.7804752485458
 31
0.0
  0
LINE
  5
AC35
  8
DANMEN
  6
CONTINUOUS
 10
509.78768535883307
 20
144.08046324854581
 30
0.0
 11
510.78768535883307
 21
144.08046324854581
 31
0.0
  0
LINE
  5
AC36
  8
DANMEN
  6
CONTINUOUS
 10
513.78768535883307
 20
144.08046324854581
 30
0.0
 11
514.78768535883307
 21
144.08046324854581
 31
0.0
  0
LINE
  5
AC37
  8
DANMEN
  6
CONTINUOUS
 10
509.78768535883307
 20
144.08046324854581
 30
0.0
 11
509.78768535883307
 21
141.7804752485458
 31
0.0
  0
LINE
  5
AC38
  8
DANMEN
  6
CONTINUOUS
 10
514.28768535883296
 20
145.2804752485458
 30
0.0
 11
520.28768535883296
 21
145.2804752485458
 31
0.0
  0
LINE
  5
AC39
  8
DANMEN
  6
CONTINUOUS
 10
508.28768535883302
 20
143.7804752485458
 30
0.0
 11
508.28768535883302
 21
141.2804752485458
 31
0.0
  0
LINE
  5
AC3A
  8
DANMEN
  6
CONTINUOUS
 10
509.28768535883307
 20
140.2804752485458
 30
0.0
 11
515.28768535883307
 21
140.2804752485458
 31
0.0
  0
LINE
  5
AC3B
  8
DANMEN
  6
CONTINUOUS
 10
516.28768535883296
 20
143.7804752485458
 30
0.0
 11
516.28768535883296
 21
141.2804752485458
 31
0.0
  0
LINE
  5
AC3C
  8
DANMEN
  6
CONTINUOUS
 10
520.78768535883319
 20
144.7804752485458
 30
0.0
 11
520.78768535883319
 21
143.98047224854579
 31
0.0
  0
LINE
  5
AC3D
  8
DANMEN
  6
CONTINUOUS
 10
519.88767635883323
 20
143.98047224854579
 30
0.0
 11
519.88767635883323
 21
140.7804752485458
 31
0.0
  0
LINE
  5
AC3E
  8
DANMEN
  6
CONTINUOUS
 10
519.88767635883323
 20
143.98047224854579
 30
0.0
 11
520.78768535883319
 21
143.98047224854579
 31
0.0
  0
LINE
  5
AC3F
  8
DANMEN
  6
CONTINUOUS
 10
516.28768535883296
 20
143.7804752485458
 30
0.0
 11
518.58767335883306
 21
143.7804752485458
 31
0.0
  0
LINE
  5
AC40
  8
DANMEN
  6
CONTINUOUS
 10
519.08767335883306
 20
140.2804752485458
 30
0.0
 11
519.38767635883323
 21
140.2804752485458
 31
0.0
  0
LINE
  5
AC41
  8
DANMEN
  6
CONTINUOUS
 10
509.78768535883307
 20
181.2804752485458
 30
0.0
 11
509.78768535883307
 21
180.98047224854579
 31
0.0
  0
LINE
  5
AC42
  8
DANMEN
  6
CONTINUOUS
 10
496.28768535883319
 20
142.7804752485458
 30
0.0
 11
496.28768535883319
 21
124.2804752485458
 31
0.0
  0
LINE
  5
AC43
  8
DANMEN
  6
CONTINUOUS
 10
496.28768535883319
 20
180.48047224854579
 30
0.0
 11
509.28768535883307
 21
180.48047224854579
 31
0.0
  0
ARC
  5
AC44
  8
DANMEN
  6
CONTINUOUS
 10
519.98768235883313
 20
127.5804752485458
 30
0.0
 40
0.5
 50
0.0
 51
89.999982000000799
  0
ARC
  5
AC45
  8
DANMEN
  6
CONTINUOUS
 10
519.98768235883313
 20
127.2804752485458
 30
0.0
 40
0.5
 50
270.00001799999922
 51
0.0
  0
ARC
  5
AC46
  8
DANMEN
  6
CONTINUOUS
 10
517.58767335883317
 20
125.4804752485458
 30
0.0
 40
0.5
 50
270.00001799999922
 51
0.0
  0
ARC
  5
AC47
  8
DANMEN
  6
CONTINUOUS
 10
513.98768235883301
 20
127.0804752485458
 30
0.0
 40
1.0
 50
89.999982000000799
 51
179.99996399999989
  0
ARC
  5
AC48
  8
DANMEN
  6
CONTINUOUS
 10
514.28768535883296
 20
123.7804752485458
 30
0.0
 40
0.5
 50
0.0
 51
89.999982000000799
  0
ARC
  5
AC49
  8
DANMEN
  6
CONTINUOUS
 10
495.28768535883302
 20
123.2804752485458
 30
0.0
 40
0.5
 50
179.9999810000001
 51
270.00001799999922
  0
ARC
  5
AC4A
  8
DANMEN
  6
CONTINUOUS
 10
495.28768535883302
 20
181.2804752485458
 30
0.0
 40
0.5
 50
89.999982000000799
 51
179.99996399999989
  0
ARC
  5
AC4B
  8
DANMEN
  6
CONTINUOUS
 10
514.28768535883296
 20
144.7804752485458
 30
0.0
 40
0.5
 50
89.999982000000799
 51
179.99996399999989
  0
ARC
  5
AC4C
  8
DANMEN
  6
CONTINUOUS
 10
510.28768535883302
 20
144.7804752485458
 30
0.0
 40
0.5
 50
0.0
 51
89.999982000000799
  0
ARC
  5
AC4D
  8
DANMEN
  6
CONTINUOUS
 10
509.28768535883307
 20
141.2804752485458
 30
0.0
 40
1.0
 50
179.9999810000001
 51
270.00001799999922
  0
ARC
  5
AC4E
  8
DANMEN
  6
CONTINUOUS
 10
520.28768535883296
 20
144.7804752485458
 30
0.0
 40
0.5
 50
0.0
 51
89.999982000000799
  0
ARC
  5
AC4F
  8
DANMEN
  6
CONTINUOUS
 10
515.28768535883307
 20
141.2804752485458
 30
0.0
 40
1.0
 50
270.00001799999922
 51
0.0
  0
ARC
  5
AC50
  8
DANMEN
  6
CONTINUOUS
 10
519.08767335883306
 20
140.7804752485458
 30
0.0
 40
0.5
 50
179.9999810000001
 51
270.00001799999922
  0
ARC
  5
AC51
  8
DANMEN
  6
CONTINUOUS
 10
519.38767635883323
 20
140.7804752485458
 30
0.0
 40
0.5
 50
270.00001799999922
 51
0.0
  0
ARC
  5
AC52
  8
DANMEN
  6
CONTINUOUS
 10
509.28768535883307
 20
181.2804752485458
 30
0.0
 40
0.5
 50
0.0
 51
89.999982000000799
  0
ARC
  5
AC53
  8
DANMEN
  6
CONTINUOUS
 10
497.28768535883302
 20
146.2804752485458
 30
0.0
 40
1.0
 50
179.9999810000001
 51
270.00001799999922
  0
ARC
  5
AC54
  8
DANMEN
  6
CONTINUOUS
 10
497.28768535883302
 20
142.7804752485458
 30
0.0
 40
1.0
 50
89.999982000000799
 51
179.99996399999989
  0
ARC
  5
AC55
  8
DANMEN
  6
CONTINUOUS
 10
509.28768535883307
 20
180.98047224854579
 30
0.0
 40
0.5
 50
270.00001799999922
 51
0.0
  0
LINE
  5
AC56
  8
SUNPO
  6
CONTINUOUS
 10
469.78767035883322
 20
381.78047524854583
 30
0.0
 11
469.78767035883322
 21
411.78047524854571
 31
0.0
  0
LINE
  5
AC57
  8
DANMEN
  6
CONTINUOUS
 10
154.7876853588331
 20
137.2804752485458
 30
0.0
 11
154.7876853588331
 21
130.7804752485458
 31
0.0
  0
LINE
  5
AC58
  8
DANMEN
  6
CONTINUOUS
 10
155.2876853588333
 20
137.7804752485458
 30
0.0
 11
179.2876853588331
 21
137.7804752485458
 31
0.0
  0
LINE
  5
AC59
  8
DANMEN
  6
CONTINUOUS
 10
213.7876853588331
 20
137.7804752485458
 30
0.0
 11
213.7876853588331
 21
127.7804752485458
 31
0.0
  0
LINE
  5
AC5A
  8
DANMEN
  6
CONTINUOUS
 10
208.2876853588331
 20
137.2804752485458
 30
0.0
 11
208.2876853588331
 21
136.0804782485458
 31
0.0
  0
LINE
  5
AC5B
  8
DANMEN
  6
CONTINUOUS
 10
179.7876853588331
 20
137.2804752485458
 30
0.0
 11
179.7876853588331
 21
132.7804752485458
 31
0.0
  0
LINE
  5
AC5C
  8
DANMEN
  6
CONTINUOUS
 10
179.7876853588331
 20
132.7804752485458
 30
0.0
 11
212.4876823588331
 21
132.7804752485458
 31
0.0
  0
LINE
  5
AC5D
  8
DANMEN
  6
CONTINUOUS
 10
209.2876853588331
 20
136.48047224854579
 30
0.0
 11
209.2876853588331
 21
136.0804782485458
 31
0.0
  0
LINE
  5
AC5E
  8
DANMEN
  6
CONTINUOUS
 10
208.58768835883319
 20
135.7804752485458
 30
0.0
 11
208.98768235883321
 21
135.7804752485458
 31
0.0
  0
LINE
  5
AC5F
  8
DANMEN
  6
CONTINUOUS
 10
209.2876853588331
 20
136.48047224854579
 30
0.0
 11
212.4876823588331
 21
136.48047224854579
 31
0.0
  0
LINE
  5
AC60
  8
DANMEN
  6
CONTINUOUS
 10
212.4876823588331
 20
136.48047224854579
 30
0.0
 11
212.4876823588331
 21
132.7804752485458
 31
0.0
  0
LINE
  5
AC61
  8
DANMEN
  6
CONTINUOUS
 10
179.2876853588331
 20
131.2804752485458
 30
0.0
 11
212.4876823588331
 21
131.2804752485458
 31
0.0
  0
LINE
  5
AC62
  8
DANMEN
  6
CONTINUOUS
 10
208.78768535883319
 20
137.7804752485458
 30
0.0
 11
213.7876853588331
 21
137.7804752485458
 31
0.0
  0
LINE
  5
AC63
  8
DANMEN
  6
CONTINUOUS
 10
178.2876853588331
 20
136.2804752485458
 30
0.0
 11
178.2876853588331
 21
132.2804752485458
 31
0.0
  0
LINE
  5
AC64
  8
DANMEN
  6
CONTINUOUS
 10
156.2876853588333
 20
136.2804752485458
 30
0.0
 11
165.7876853588331
 21
136.2804752485458
 31
0.0
  0
LINE
  5
AC65
  8
DANMEN
  6
CONTINUOUS
 10
156.2876853588333
 20
136.2804752485458
 30
0.0
 11
156.2876853588333
 21
132.2804752485458
 31
0.0
  0
LINE
  5
AC66
  8
DANMEN
  6
CONTINUOUS
 10
154.7876853588331
 20
130.7804752485458
 30
0.0
 11
155.7876853588331
 21
130.7804752485458
 31
0.0
  0
LINE
  5
AC67
  8
DANMEN
  6
CONTINUOUS
 10
154.08768835883319
 20
125.7804752485458
 30
0.0
 11
155.7876853588331
 21
125.7804752485458
 31
0.0
  0
LINE
  5
AC68
  8
DANMEN
  6
CONTINUOUS
 10
154.08768835883319
 20
124.7804752485458
 30
0.0
 11
156.7876853588331
 21
124.7804752485458
 31
0.0
  0
LINE
  5
AC69
  8
DANMEN
  6
CONTINUOUS
 10
153.7876853588331
 20
125.48047224854579
 30
0.0
 11
153.7876853588331
 21
125.0804782485458
 31
0.0
  0
LINE
  5
AC6A
  8
DANMEN
  6
CONTINUOUS
 10
155.7876853588331
 20
130.7804752485458
 30
0.0
 11
155.7876853588331
 21
125.7804752485458
 31
0.0
  0
LINE
  5
AC6B
  8
DANMEN
  6
CONTINUOUS
 10
157.2876853588333
 20
131.2804752485458
 30
0.0
 11
157.2876853588333
 21
125.2804752485458
 31
0.0
  0
LINE
  5
AC6C
  8
DANMEN
  6
CONTINUOUS
 10
212.4876823588331
 20
131.2804752485458
 30
0.0
 11
212.4876823588331
 21
107.0804782485458
 31
0.0
  0
LINE
  5
AC6D
  8
DANMEN
  6
CONTINUOUS
 10
212.2876853588331
 20
105.7804752485458
 30
0.0
 11
213.28768535883319
 21
105.7804752485458
 31
0.0
  0
LINE
  5
AC6E
  8
DANMEN
  6
CONTINUOUS
 10
211.7876853588331
 20
106.5804782485458
 30
0.0
 11
211.7876853588331
 21
106.2804752485458
 31
0.0
  0
LINE
  5
AC6F
  8
DANMEN
  6
CONTINUOUS
 10
212.2876853588331
 20
107.0804782485458
 30
0.0
 11
212.4876823588331
 21
107.0804782485458
 31
0.0
  0
LINE
  5
AC70
  8
DANMEN
  6
CONTINUOUS
 10
213.7876853588331
 20
127.7804752485458
 30
0.0
 11
215.7876853588331
 21
127.7804752485458
 31
0.0
  0
LINE
  5
AC71
  8
DANMEN
  6
CONTINUOUS
 10
213.7876853588331
 20
126.5804782485458
 30
0.0
 11
215.7876853588331
 21
126.5804782485458
 31
0.0
  0
LINE
  5
AC72
  8
DANMEN
  6
CONTINUOUS
 10
216.2876853588331
 20
127.2804752485458
 30
0.0
 11
216.2876853588331
 21
127.0804782485458
 31
0.0
  0
LINE
  5
AC73
  8
DANMEN
  6
CONTINUOUS
 10
213.7876853588331
 20
126.5804782485458
 30
0.0
 11
213.7876853588331
 21
106.2804752485458
 31
0.0
  0
LINE
  5
AC74
  8
DANMEN
  6
CONTINUOUS
 10
166.2876853588331
 20
113.7804752485458
 30
0.0
 11
166.7876853588331
 21
113.7804752485458
 31
0.0
  0
ARC
  5
AC75
  8
DANMEN
  6
CONTINUOUS
 10
208.78768535883319
 20
137.2804752485458
 30
0.0
 40
0.5
 50
89.999981999999164
 51
179.99996399999989
  0
ARC
  5
AC76
  8
DANMEN
  6
CONTINUOUS
 10
208.58768835883319
 20
136.0804782485458
 30
0.0
 40
0.3
 50
179.9999810000001
 51
270.00001799999922
  0
ARC
  5
AC77
  8
DANMEN
  6
CONTINUOUS
 10
208.98768235883321
 20
136.0804782485458
 30
0.0
 40
0.3
 50
270.00001799999922
 51
0.0
  0
ARC
  5
AC78
  8
DANMEN
  6
CONTINUOUS
 10
179.2876853588331
 20
137.2804752485458
 30
0.0
 40
0.5
 50
0.0
 51
89.999981999999164
  0
ARC
  5
AC79
  8
DANMEN
  6
CONTINUOUS
 10
179.2876853588331
 20
132.2804752485458
 30
0.0
 40
1.0
 50
179.9999810000001
 51
270.00001799999922
  0
ARC
  5
AC7A
  8
DANMEN
  6
CONTINUOUS
 10
155.2876853588333
 20
137.2804752485458
 30
0.0
 40
0.5
 50
89.999981999999164
 51
179.99996399999989
  0
ARC
  5
AC7B
  8
DANMEN
  6
CONTINUOUS
 10
154.08768835883319
 20
125.48047224854579
 30
0.0
 40
0.3
 50
89.999981999999164
 51
179.99996399999989
  0
ARC
  5
AC7C
  8
DANMEN
  6
CONTINUOUS
 10
154.08768835883319
 20
125.0804782485458
 30
0.0
 40
0.3
 50
179.9999810000001
 51
270.00001799999922
  0
ARC
  5
AC7D
  8
DANMEN
  6
CONTINUOUS
 10
156.2876853588333
 20
131.2804752485458
 30
0.0
 40
1.0
 50
0.0
 51
89.999981999999164
  0
ARC
  5
AC7E
  8
DANMEN
  6
CONTINUOUS
 10
212.2876853588331
 20
106.5804782485458
 30
0.0
 40
0.5
 50
89.999981999999164
 51
179.99996399999989
  0
ARC
  5
AC7F
  8
DANMEN
  6
CONTINUOUS
 10
212.2876853588331
 20
106.2804752485458
 30
0.0
 40
0.5
 50
179.9999810000001
 51
270.00001799999922
  0
ARC
  5
AC80
  8
DANMEN
  6
CONTINUOUS
 10
213.28768535883319
 20
106.2804752485458
 30
0.0
 40
0.5
 50
270.00001799999922
 51
0.0
  0
ARC
  5
AC81
  8
DANMEN
  6
CONTINUOUS
 10
215.7876853588331
 20
127.2804752485458
 30
0.0
 40
0.5
 50
0.0
 51
89.999981999999164
  0
ARC
  5
AC82
  8
DANMEN
  6
CONTINUOUS
 10
215.7876853588331
 20
127.0804782485458
 30
0.0
 40
0.5
 50
270.00001799999922
 51
0.0
  0
ARC
  5
AC83
  8
DANMEN
  6
CONTINUOUS
 10
166.2876853588331
 20
114.2804752485458
 30
0.0
 40
0.5
 50
179.9999810000001
 51
270.00001799999922
  0
ARC
  5
AC84
  8
DANMEN
  6
CONTINUOUS
 10
166.7876853588331
 20
114.2804752485458
 30
0.0
 40
0.5
 50
270.00001799999922
 51
0.0
  0
LINE
  5
AC85
  8
DANMEN
  6
CONTINUOUS
 10
165.7876853588331
 20
136.2804752485458
 30
0.0
 11
165.7876853588331
 21
114.2804752485458
 31
0.0
  0
LINE
  5
AC86
  8
DANMEN
  6
CONTINUOUS
 10
167.2876853588331
 20
136.2804752485458
 30
0.0
 11
167.2876853588331
 21
114.2804752485458
 31
0.0
  0
ARC
  5
AC87
  8
DANMEN
  6
CONTINUOUS
 10
156.7876853588331
 20
125.2804752485458
 30
0.0
 40
0.5
 50
270.00001799999922
 51
0.0
  0
LINE
  5
AC88
  8
DANMEN
  6
CONTINUOUS
 10
167.2876853588331
 20
136.2804752485458
 30
0.0
 11
178.2876853588331
 21
136.2804752485458
 31
0.0
  0
LINE
  5
AC89
  8
DANMEN
  6
CONTINUOUS
 10
155.2876853588333
 20
396.78047524854583
 30
0.0
 11
213.28768535883319
 21
396.78047524854583
 31
0.0
  0
LINE
  5
AC8A
  8
DANMEN
  6
CONTINUOUS
 10
213.7876853588331
 20
397.28047524854583
 30
0.0
 11
213.7876853588331
 21
416.78047524854583
 31
0.0
  0
LINE
  5
AC8B
  8
DANMEN
  6
CONTINUOUS
 10
154.7876853588331
 20
397.28047524854583
 30
0.0
 11
154.7876853588331
 21
411.28047524854583
 31
0.0
  0
LINE
  5
AC8C
  8
DANMEN
  6
CONTINUOUS
 10
212.78768535883319
 20
416.78047524854583
 30
0.0
 11
213.7876853588331
 21
416.78047524854583
 31
0.0
  0
LINE
  5
AC8D
  8
DANMEN
  6
CONTINUOUS
 10
208.98768535883309
 20
422.48047224854571
 30
0.0
 11
209.2876853588331
 21
422.48047224854571
 31
0.0
  0
LINE
  5
AC8E
  8
DANMEN
  6
CONTINUOUS
 10
209.7876853588331
 20
416.28047524854583
 30
0.0
 11
209.7876853588331
 21
418.78047524854583
 31
0.0
  0
LINE
  5
AC8F
  8
DANMEN
  6
CONTINUOUS
 10
208.48768535883309
 20
415.98047224854571
 30
0.0
 11
208.48768535883309
 21
421.98047224854571
 31
0.0
  0
LINE
  5
AC90
  8
DANMEN
  6
CONTINUOUS
 10
211.5876853588332
 20
418.78047524854583
 30
0.0
 11
211.5876853588332
 21
419.58046324854581
 31
0.0
  0
LINE
  5
AC91
  8
DANMEN
  6
CONTINUOUS
 10
209.7876853588331
 20
416.28047524854583
 30
0.0
 11
212.2876853588331
 21
416.28047524854583
 31
0.0
  0
LINE
  5
AC92
  8
DANMEN
  6
CONTINUOUS
 10
209.7876853588331
 20
418.78047524854583
 30
0.0
 11
211.5876853588332
 21
418.78047524854583
 31
0.0
  0
LINE
  5
AC93
  8
DANMEN
  6
CONTINUOUS
 10
209.7876853588331
 20
420.08046324854581
 30
0.0
 11
211.0876853588332
 21
420.08046324854581
 31
0.0
  0
LINE
  5
AC94
  8
DANMEN
  6
CONTINUOUS
 10
209.7876853588331
 20
420.08046324854581
 30
0.0
 11
209.7876853588331
 21
421.98047224854571
 31
0.0
  0
LINE
  5
AC95
  8
DANMEN
  6
CONTINUOUS
 10
209.4876853588332
 20
414.98047224854582
 30
0.0
 11
212.2876853588331
 21
414.98047224854582
 31
0.0
  0
LINE
  5
AC96
  8
DANMEN
  6
CONTINUOUS
 10
212.2876853588331
 20
398.28047524854583
 30
0.0
 11
212.2876853588331
 21
414.98047224854582
 31
0.0
  0
LINE
  5
AC97
  8
DANMEN
  6
CONTINUOUS
 10
156.08768835883319
 20
398.28047524854583
 30
0.0
 11
190.2876853588331
 21
398.28047524854583
 31
0.0
  0
LINE
  5
AC98
  8
DANMEN
  6
CONTINUOUS
 10
191.2876853588331
 20
399.28047524854583
 30
0.0
 11
191.2876853588331
 21
412.28047524854583
 31
0.0
  0
LINE
  5
AC99
  8
DANMEN
  6
CONTINUOUS
 10
191.7876853588331
 20
412.78047524854583
 30
0.0
 11
192.48769735883309
 21
412.78047524854583
 31
0.0
  0
LINE
  5
AC9A
  8
DANMEN
  6
CONTINUOUS
 10
194.7876853588331
 20
411.78047524854571
 30
0.0
 11
194.7876853588331
 21
416.78047524854583
 31
0.0
  0
LINE
  5
AC9B
  8
DANMEN
  6
CONTINUOUS
 10
192.7876853588331
 20
399.28047524854583
 30
0.0
 11
192.7876853588331
 21
410.28047524854583
 31
0.0
  0
LINE
  5
AC9C
  8
DANMEN
  6
CONTINUOUS
 10
192.7876853588331
 20
420.58046324854581
 30
0.0
 11
195.78768535883319
 21
420.58046324854581
 31
0.0
  0
LINE
  5
AC9D
  8
DANMEN
  6
CONTINUOUS
 10
191.7876853588331
 20
415.78047524854571
 30
0.0
 11
192.48769735883309
 21
415.78047524854571
 31
0.0
  0
LINE
  5
AC9E
  8
DANMEN
  6
CONTINUOUS
 10
192.48769735883309
 20
416.78047524854583
 30
0.0
 11
194.7876853588331
 21
416.78047524854583
 31
0.0
  0
LINE
  5
AC9F
  8
DANMEN
  6
CONTINUOUS
 10
192.48769735883309
 20
411.78047524854571
 30
0.0
 11
192.48769735883309
 21
412.78047524854583
 31
0.0
  0
LINE
  5
ACA0
  8
DANMEN
  6
CONTINUOUS
 10
192.48769735883309
 20
415.78047524854571
 30
0.0
 11
192.48769735883309
 21
416.78047524854583
 31
0.0
  0
LINE
  5
ACA1
  8
DANMEN
  6
CONTINUOUS
 10
192.48769735883309
 20
411.78047524854571
 30
0.0
 11
194.7876853588331
 21
411.78047524854571
 31
0.0
  0
LINE
  5
ACA2
  8
DANMEN
  6
CONTINUOUS
 10
191.2876853588331
 20
416.28047524854583
 30
0.0
 11
191.2876853588331
 21
422.28047524854571
 31
0.0
  0
LINE
  5
ACA3
  8
DANMEN
  6
CONTINUOUS
 10
192.7876853588331
 20
410.28047524854583
 30
0.0
 11
195.2876853588331
 21
410.28047524854583
 31
0.0
  0
LINE
  5
ACA4
  8
DANMEN
  6
CONTINUOUS
 10
196.2876853588331
 20
411.28047524854583
 30
0.0
 11
196.2876853588331
 21
417.28047524854583
 31
0.0
  0
LINE
  5
ACA5
  8
DANMEN
  6
CONTINUOUS
 10
192.7876853588331
 20
418.28047524854571
 30
0.0
 11
195.2876853588331
 21
418.28047524854571
 31
0.0
  0
LINE
  5
ACA6
  8
DANMEN
  6
CONTINUOUS
 10
191.7876853588331
 20
422.78047524854583
 30
0.0
 11
192.58768835883311
 21
422.78047524854583
 31
0.0
  0
LINE
  5
ACA7
  8
DANMEN
  6
CONTINUOUS
 10
192.58768835883311
 20
421.88046624854582
 30
0.0
 11
195.78768535883319
 21
421.88046624854582
 31
0.0
  0
LINE
  5
ACA8
  8
DANMEN
  6
CONTINUOUS
 10
192.58768835883311
 20
421.88046624854582
 30
0.0
 11
192.58768835883311
 21
422.78047524854583
 31
0.0
  0
LINE
  5
ACA9
  8
DANMEN
  6
CONTINUOUS
 10
192.7876853588331
 20
418.28047524854571
 30
0.0
 11
192.7876853588331
 21
420.58046324854581
 31
0.0
  0
LINE
  5
ACAA
  8
DANMEN
  6
CONTINUOUS
 10
196.2876853588331
 20
421.08046324854581
 30
0.0
 11
196.2876853588331
 21
421.38046624854582
 31
0.0
  0
LINE
  5
ACAB
  8
DANMEN
  6
CONTINUOUS
 10
155.2876853588333
 20
411.78047524854571
 30
0.0
 11
155.58768835883311
 21
411.78047524854571
 31
0.0
  0
LINE
  5
ACAC
  8
DANMEN
  6
CONTINUOUS
 10
193.7876853588331
 20
398.28047524854583
 30
0.0
 11
212.2876853588331
 21
398.28047524854583
 31
0.0
  0
LINE
  5
ACAD
  8
DANMEN
  6
CONTINUOUS
 10
156.08768835883319
 20
398.28047524854583
 30
0.0
 11
156.08768835883319
 21
411.28047524854583
 31
0.0
  0
ARC
  5
ACAE
  8
DANMEN
  6
CONTINUOUS
 10
208.98768535883309
 20
421.98047224854571
 30
0.0
 40
0.5
 50
90.0
 51
179.99998199999999
  0
ARC
  5
ACAF
  8
DANMEN
  6
CONTINUOUS
 10
209.2876853588331
 20
421.98047224854571
 30
0.0
 40
0.5
 50
0.0000180000000203
 51
90.0
  0
ARC
  5
ACB0
  8
DANMEN
  6
CONTINUOUS
 10
211.0876853588332
 20
419.58046324854581
 30
0.0
 40
0.5
 50
0.0000180000000203
 51
90.0
  0
ARC
  5
ACB1
  8
DANMEN
  6
CONTINUOUS
 10
209.4876853588332
 20
415.98047224854571
 30
0.0
 40
1.0
 50
179.99998199999999
 51
269.99996399999992
  0
ARC
  5
ACB2
  8
DANMEN
  6
CONTINUOUS
 10
212.78768535883319
 20
416.28047524854583
 30
0.0
 40
0.5
 50
90.0
 51
179.99998199999999
  0
ARC
  5
ACB3
  8
DANMEN
  6
CONTINUOUS
 10
213.28768535883319
 20
397.28047524854583
 30
0.0
 40
0.5
 50
269.99998100000101
 51
0.0000180000000203
  0
ARC
  5
ACB4
  8
DANMEN
  6
CONTINUOUS
 10
155.2876853588333
 20
397.28047524854583
 30
0.0
 40
0.5
 50
179.99998199999999
 51
269.99996399999992
  0
ARC
  5
ACB5
  8
DANMEN
  6
CONTINUOUS
 10
191.7876853588331
 20
416.28047524854583
 30
0.0
 40
0.5
 50
179.99998199999999
 51
269.99996399999992
  0
ARC
  5
ACB6
  8
DANMEN
  6
CONTINUOUS
 10
191.7876853588331
 20
412.28047524854583
 30
0.0
 40
0.5
 50
90.0
 51
179.99998199999999
  0
ARC
  5
ACB7
  8
DANMEN
  6
CONTINUOUS
 10
195.2876853588331
 20
411.28047524854583
 30
0.0
 40
1.0
 50
269.99998100000101
 51
0.0000180000000203
  0
ARC
  5
ACB8
  8
DANMEN
  6
CONTINUOUS
 10
191.7876853588331
 20
422.28047524854571
 30
0.0
 40
0.5
 50
90.0
 51
179.99998199999999
  0
ARC
  5
ACB9
  8
DANMEN
  6
CONTINUOUS
 10
195.2876853588331
 20
417.28047524854583
 30
0.0
 40
1.0
 50
0.0000180000000203
 51
90.0
  0
ARC
  5
ACBA
  8
DANMEN
  6
CONTINUOUS
 10
195.78768535883319
 20
421.08046324854581
 30
0.0
 40
0.5
 50
269.99998100000101
 51
0.0000180000000203
  0
ARC
  5
ACBB
  8
DANMEN
  6
CONTINUOUS
 10
195.78768535883319
 20
421.38046624854582
 30
0.0
 40
0.5
 50
0.0000180000000203
 51
90.0
  0
ARC
  5
ACBC
  8
DANMEN
  6
CONTINUOUS
 10
155.2876853588333
 20
411.28047524854583
 30
0.0
 40
0.5
 50
90.0
 51
179.99998199999999
  0
ARC
  5
ACBD
  8
DANMEN
  6
CONTINUOUS
 10
190.2876853588331
 20
399.28047524854583
 30
0.0
 40
1.0
 50
269.99998100000101
 51
0.0000180000000203
  0
ARC
  5
ACBE
  8
DANMEN
  6
CONTINUOUS
 10
193.7876853588331
 20
399.28047524854583
 30
0.0
 40
1.0
 50
179.99998199999999
 51
269.99996399999992
  0
ARC
  5
ACBF
  8
DANMEN
  6
CONTINUOUS
 10
155.58768835883311
 20
411.28047524854583
 30
0.0
 40
0.5
 50
0.0000180000000203
 51
90.0
  0
LINE
  5
ACC0
  8
DANMEN
  6
CONTINUOUS
 10
122.7876693588332
 20
137.2804292485458
 30
0.0
 11
122.7876693588332
 21
103.2804512485458
 31
0.0
  0
LINE
  5
ACC1
  8
DANMEN
  6
CONTINUOUS
 10
123.2876693588332
 20
137.7804292485458
 30
0.0
 11
124.2876693588332
 21
137.7804292485458
 31
0.0
  0
LINE
  5
ACC2
  8
DANMEN
  6
CONTINUOUS
 10
124.7876693588332
 20
137.2804292485458
 30
0.0
 11
124.7876693588332
 21
122.7804292485458
 31
0.0
  0
ARC
  5
ACC3
  8
DANMEN
  6
CONTINUOUS
 10
123.2876693588332
 20
137.2804292485458
 30
0.0
 40
0.5
 50
89.999982000000799
 51
179.99996399999989
  0
ARC
  5
ACC4
  8
DANMEN
  6
CONTINUOUS
 10
124.2876693588332
 20
137.2804292485458
 30
0.0
 40
0.5
 50
0.0
 51
89.999982000000799
  0
LINE
  5
ACC5
  8
DANMEN
  6
CONTINUOUS
 10
124.0876723588332
 20
105.8304322485458
 30
0.0
 11
124.0876723588332
 21
103.2804512485458
 31
0.0
  0
LINE
  5
ACC6
  8
DANMEN
  6
CONTINUOUS
 10
123.2876693588332
 20
102.7804512485458
 30
0.0
 11
123.5876723588333
 21
102.7804512485458
 31
0.0
  0
ARC
  5
ACC7
  8
DANMEN
  6
CONTINUOUS
 10
123.2876693588332
 20
103.2804512485458
 30
0.0
 40
0.5
 50
179.99996399999989
 51
270.00000099999971
  0
ARC
  5
ACC8
  8
DANMEN
  6
CONTINUOUS
 10
123.5876723588333
 20
103.2804512485458
 30
0.0
 40
0.5
 50
270.00001799999922
 51
0.0
  0
LINE
  5
ACC9
  8
DANMEN
  6
CONTINUOUS
 10
124.7876693588332
 20
122.7804292485458
 30
0.0
 11
125.2876693588332
 21
122.7804292485458
 31
0.0
  0
LINE
  5
ACCA
  8
DANMEN
  6
CONTINUOUS
 10
124.7376813588331
 20
121.7804292485458
 30
0.0
 11
125.2876693588332
 21
121.7804292485458
 31
0.0
  0
ARC
  5
ACCB
  8
DANMEN
  6
CONTINUOUS
 10
125.2876693588332
 20
122.2804292485458
 30
0.0
 40
0.5
 50
270.00001799999922
 51
89.999982000000799
  0
LINE
  5
ACCC
  8
DANMEN
  6
CONTINUOUS
 10
124.7376813588331
 20
107.78043224854579
 30
0.0
 11
153.08765835883321
 21
107.78043224854579
 31
0.0
  0
LINE
  5
ACCD
  8
DANMEN
  6
CONTINUOUS
 10
124.0876723588332
 20
105.8304322485458
 30
0.0
 11
133.78767035883311
 21
105.8304322485458
 31
0.0
  0
LINE
  5
ACCE
  8
DANMEN
  6
CONTINUOUS
 10
138.2876693588332
 20
101.28046024854579
 30
0.0
 11
138.2876693588332
 21
98.980460248545825
 31
0.0
  0
LINE
  5
ACCF
  8
DANMEN
  6
CONTINUOUS
 10
154.58765835883321
 20
106.28043224854579
 30
0.0
 11
154.58765835883321
 21
97.080462248545842
 31
0.0
  0
LINE
  5
ACD0
  8
DANMEN
  6
CONTINUOUS
 10
136.2876693588332
 20
98.980460248545825
 30
0.0
 11
138.2876693588332
 21
98.980460248545825
 31
0.0
  0
LINE
  5
ACD1
  8
DANMEN
  6
CONTINUOUS
 10
136.7876693588332
 20
97.680461248545825
 30
0.0
 11
138.58765735883321
 21
97.680461248545825
 31
0.0
  0
LINE
  5
ACD2
  8
DANMEN
  6
CONTINUOUS
 10
136.2876693588332
 20
98.980460248545825
 30
0.0
 11
136.2876693588332
 21
98.180460248545828
 31
0.0
  0
ARC
  5
ACD3
  8
DANMEN
  6
CONTINUOUS
 10
136.7876693588332
 20
98.180460248545828
 30
0.0
 40
0.5
 50
179.99996399999989
 51
270.00000099999971
  0
LINE
  5
ACD4
  8
DANMEN
  6
CONTINUOUS
 10
133.78767035883311
 20
105.8304322485458
 30
0.0
 11
133.78767035883311
 21
100.78046024854579
 31
0.0
  0
LINE
  5
ACD5
  8
DANMEN
  6
CONTINUOUS
 10
139.58765735883321
 20
101.58045924854579
 30
0.0
 11
139.58765735883321
 21
98.680461248545825
 31
0.0
  0
LINE
  5
ACD6
  8
DANMEN
  6
CONTINUOUS
 10
135.73767135883321
 20
105.8304322485458
 30
0.0
 11
135.73767135883321
 21
102.58045924854579
 31
0.0
  0
ARC
  5
ACD7
  8
DANMEN
  6
CONTINUOUS
 10
138.58765735883321
 20
101.58045924854579
 30
0.0
 40
1.0
 50
0.0
 51
89.999982000000799
  0
ARC
  5
ACD8
  8
DANMEN
  6
CONTINUOUS
 10
138.58765735883321
 20
98.680461248545825
 30
0.0
 40
1.0
 50
270.00001799999922
 51
0.0
  0
LINE
  5
ACD9
  8
DANMEN
  6
CONTINUOUS
 10
150.2876703588332
 20
97.080462248545842
 30
0.0
 11
152.63764635883311
 21
97.080462248545842
 31
0.0
  0
LINE
  5
ACDA
  8
DANMEN
  6
CONTINUOUS
 10
124.7376813588331
 20
121.7804292485458
 30
0.0
 11
124.7376813588331
 21
107.78043224854579
 31
0.0
  0
LINE
  5
ACDB
  8
DANMEN
  6
CONTINUOUS
 10
150.2876703588332
 20
98.380462248545825
 30
0.0
 11
152.63764635883311
 21
98.380462248545825
 31
0.0
  0
LINE
  5
ACDC
  8
DANMEN
  6
CONTINUOUS
 10
149.78766935883331
 20
97.880462248545825
 30
0.0
 11
149.78766935883331
 21
97.580462248545828
 31
0.0
  0
ARC
  5
ACDD
  8
DANMEN
  6
CONTINUOUS
 10
150.2876703588332
 20
97.580462248545828
 30
0.0
 40
0.5
 50
179.99996399999989
 51
270.00000099999971
  0
LINE
  5
ACDE
  8
DANMEN
  6
CONTINUOUS
 10
152.63764635883311
 20
96.580462248545814
 30
0.0
 11
154.08765835883321
 21
96.580462248545814
 31
0.0
  0
ARC
  5
ACDF
  8
DANMEN
  6
CONTINUOUS
 10
154.08765835883321
 20
97.080462248545842
 30
0.0
 40
0.5
 50
270.00001799999922
 51
0.0
  0
ARC
  5
ACE0
  8
DANMEN
  6
CONTINUOUS
 10
150.2876703588332
 20
97.880462248545825
 30
0.0
 40
0.5
 50
89.999982000000799
 51
179.99996399999989
  0
ARC
  5
ACE1
  8
DANMEN
  6
CONTINUOUS
 10
153.08765835883321
 20
106.28043224854579
 30
0.0
 40
1.5
 50
0.0
 51
89.999982000000799
  0
LINE
  5
ACE2
  8
DANMEN
  6
CONTINUOUS
 10
135.73767135883321
 20
102.58045924854579
 30
0.0
 11
138.58765735883321
 21
102.58045924854579
 31
0.0
  0
LINE
  5
ACE3
  8
DANMEN
  6
CONTINUOUS
 10
135.73767135883321
 20
101.28046024854579
 30
0.0
 11
138.2876693588332
 21
101.28046024854579
 31
0.0
  0
LINE
  5
ACE4
  8
DANMEN
  6
CONTINUOUS
 10
133.78767035883311
 20
100.78046024854579
 30
0.0
 11
135.23767135883321
 21
100.78046024854579
 31
0.0
  0
ARC
  5
ACE5
  8
DANMEN
  6
CONTINUOUS
 10
135.23767135883321
 20
101.28046024854579
 30
0.0
 40
0.5
 50
270.00001799999922
 51
0.0
  0
LINE
  5
ACE6
  8
DANMEN
  6
CONTINUOUS
 10
135.73767135883321
 20
105.8304322485458
 30
0.0
 11
152.63764635883311
 21
105.8304322485458
 31
0.0
  0
LINE
  5
ACE7
  8
DANMEN
  6
CONTINUOUS
 10
152.63764635883311
 20
105.8304322485458
 30
0.0
 11
152.63764635883311
 21
98.380462248545825
 31
0.0
  0
LINE
  5
ACE8
  8
DANMEN
  6
CONTINUOUS
 10
152.63764635883311
 20
97.080462248545842
 30
0.0
 11
152.63764635883311
 21
96.580462248545814
 31
0.0
  0
LINE
  5
ACE9
  8
SUNPO
  6
CONTINUOUS
 10
220.2876853588331
 20
446.78047524854571
 30
0.0
 11
236.7876853588331
 21
446.78047524854571
 31
0.0
  0
LINE
  5
ACEA
  8
SUNPO
  6
CONTINUOUS
 10
235.78768535883319
 20
436.78047524854571
 30
0.0
 11
235.78768535883319
 21
446.78047524854571
 31
0.0
  0
LINE
  5
ACEB
  8
SUNPO
  6
CONTINUOUS
 10
101.7876853588331
 20
104.7804752485458
 30
0.0
 11
101.7876853588331
 21
137.7804752485458
 31
0.0
  0
LINE
  5
ACEC
  8
SUNPO
  6
CONTINUOUS
 10
120.2876853588331
 20
104.7804752485458
 30
0.0
 11
100.7876853588331
 21
104.7804752485458
 31
0.0
  0
LINE
  5
ACED
  8
SUNPO
  6
CONTINUOUS
 10
101.7876853588331
 20
92.780475248545827
 30
0.0
 11
101.7876853588331
 21
104.7804752485458
 31
0.0
  0
LINE
  5
ACEE
  8
SUNPO
  6
CONTINUOUS
 10
469.78767035883322
 20
417.78047524854571
 30
0.0
 11
469.78767035883322
 21
421.95795024854579
 31
0.0
  0
LINE
  5
ACEF
  8
SUNPO
  6
CONTINUOUS
 10
469.78767035883322
 20
411.78047524854571
 30
0.0
 11
469.78767035883322
 21
417.78047524854571
 31
0.0
  0
LINE
  5
ACF0
  8
SUNPO
  6
CONTINUOUS
 10
469.78767035883322
 20
322.78049024854568
 30
0.0
 11
469.78767035883322
 21
381.78047524854583
 31
0.0
  0
LINE
  5
ACF1
  8
SUNPO
  6
CONTINUOUS
 10
469.78767035883322
 20
317.78047524854571
 30
0.0
 11
469.78767035883322
 21
322.78049024854568
 31
0.0
  0
LINE
  5
ACF2
  8
SUNPO
  6
CONTINUOUS
 10
479.78767035883322
 20
117.7804752485458
 30
0.0
 11
479.78767035883322
 21
217.7804752485458
 31
0.0
  0
LINE
  5
ACF3
  8
SUNPO
  6
CONTINUOUS
 10
118.7876853588331
 20
357.78047524854571
 30
0.0
 11
218.7876853588331
 21
357.78047524854571
 31
0.0
  0
LINE
  5
ACF4
  8
SUNPO
  6
CONTINUOUS
 10
544.78768535883319
 20
164.2804752485458
 30
0.0
 11
544.78768535883319
 21
242.7804752485458
 31
0.0
  0
LINE
  5
ACF5
  8
SUNPO
  6
CONTINUOUS
 10
524.78768535883319
 20
241.7804752485458
 30
0.0
 11
544.78768535883319
 21
241.7804752485458
 31
0.0
  0
LINE
  5
ACF6
  8
SUNPO
  6
CONTINUOUS
 10
524.78768535883319
 20
219.2804752485458
 30
0.0
 11
524.78768535883319
 21
242.7804752485458
 31
0.0
  0
LINE
  5
ACF7
  8
SUNPO
  6
CONTINUOUS
 10
494.78768535883319
 20
219.2804752485458
 30
0.0
 11
494.78768535883319
 21
242.7804752485458
 31
0.0
  0
LINE
  5
ACF8
  8
SUNPO
  6
CONTINUOUS
 10
494.78768535883319
 20
241.7804752485458
 30
0.0
 11
524.78768535883319
 21
241.7804752485458
 31
0.0
  0
LINE
  5
ACF9
  8
SUNPO
  6
CONTINUOUS
 10
428.78768535883319
 20
434.78047524854571
 30
0.0
 11
454.78768535883319
 21
434.78047524854571
 31
0.0
  0
LINE
  5
ACFA
  8
SUNPO
  6
CONTINUOUS
 10
434.78768535883307
 20
300.78047524854583
 30
0.0
 11
454.78768535883319
 21
300.78047524854583
 31
0.0
  0
LINE
  5
ACFB
  8
SUNPO
  6
CONTINUOUS
 10
514.78768535883307
 20
100.7804752485458
 30
0.0
 11
534.78768535883307
 21
100.7804752485458
 31
0.0
  0
LINE
  5
ACFC
  8
SUNPO
  6
CONTINUOUS
 10
514.78768535883307
 20
116.2804752485458
 30
0.0
 11
514.78768535883307
 21
99.780475248545827
 31
0.0
  0
LINE
  5
ACFD
  8
SUNPO
  6
CONTINUOUS
 10
494.78768535883319
 20
100.7804752485458
 30
0.0
 11
514.78768535883307
 21
100.7804752485458
 31
0.0
  0
LINE
  5
ACFE
  8
SUNPO
  6
CONTINUOUS
 10
534.78768535883307
 20
116.2804752485458
 30
0.0
 11
534.78768535883307
 21
79.780475248545827
 31
0.0
  0
LINE
  5
ACFF
  8
SUNPO
  6
CONTINUOUS
 10
494.78768535883319
 20
121.2804752485458
 30
0.0
 11
494.78768535883319
 21
79.780475248545827
 31
0.0
  0
LINE
  5
AD00
  8
SUNPO
  6
CONTINUOUS
 10
494.78768535883319
 20
80.780475248545827
 30
0.0
 11
534.78768535883307
 21
80.780475248545827
 31
0.0
  0
LINE
  5
AD01
  8
SUNPO
  6
CONTINUOUS
 10
544.78768535883319
 20
159.7804752485458
 30
0.0
 11
544.78768535883319
 21
79.780475248545827
 31
0.0
  0
LINE
  5
AD02
  8
SUNPO
  6
CONTINUOUS
 10
534.78768535883307
 20
80.780475248545827
 30
0.0
 11
544.78768535883319
 21
80.780475248545827
 31
0.0
  0
LINE
  5
AD03
  8
SUNPO
  6
CONTINUOUS
 10
228.7876853588331
 20
416.78047524854583
 30
0.0
 11
228.7876853588331
 21
436.78047524854571
 31
0.0
  0
LINE
  5
AD04
  8
SUNPO
  6
CONTINUOUS
 10
220.2876853588331
 20
416.78047524854583
 30
0.0
 11
229.78768535883319
 21
416.78047524854583
 31
0.0
  0
LINE
  5
AD05
  8
SUNPO
  6
CONTINUOUS
 10
228.7876853588331
 20
396.78047524854583
 30
0.0
 11
228.7876853588331
 21
416.78047524854583
 31
0.0
  0
LINE
  5
AD06
  8
SUNPO
  6
CONTINUOUS
 10
220.2876853588331
 20
436.78047524854571
 30
0.0
 11
236.7876853588331
 21
436.78047524854571
 31
0.0
  0
LINE
  5
AD07
  8
SUNPO
  6
CONTINUOUS
 10
215.28768535883319
 20
396.78047524854583
 30
0.0
 11
236.7876853588331
 21
396.78047524854583
 31
0.0
  0
LINE
  5
AD08
  8
SUNPO
  6
CONTINUOUS
 10
235.78768535883319
 20
396.78047524854583
 30
0.0
 11
235.78768535883319
 21
436.78047524854571
 31
0.0
  0
LINE
  5
AD09
  8
SUNPO
  6
CONTINUOUS
 10
220.2876853588331
 20
85.780475248545827
 30
0.0
 11
229.78768535883319
 21
85.780475248545827
 31
0.0
  0
LINE
  5
AD0A
  8
SUNPO
  6
CONTINUOUS
 10
228.7876853588331
 20
85.780475248545827
 30
0.0
 11
228.7876853588331
 21
137.7804752485458
 31
0.0
  0
LINE
  5
AD0B
  8
SUNPO
  6
CONTINUOUS
 10
220.2876853588331
 20
137.7804752485458
 30
0.0
 11
236.7876853588331
 21
137.7804752485458
 31
0.0
  0
LINE
  5
AD0C
  8
SUNPO
  6
CONTINUOUS
 10
235.78768535883319
 20
77.780475248545827
 30
0.0
 11
235.78768535883319
 21
137.7804752485458
 31
0.0
  0
LINE
  5
AD0D
  8
SUNPO
  6
CONTINUOUS
 10
175.2876853588331
 20
77.780475248545827
 30
0.0
 11
236.7876853588331
 21
77.780475248545827
 31
0.0
  0
LINE
  5
AD0E
  8
SUNPO
  6
CONTINUOUS
 10
220.2876853588331
 20
67.780475248545812
 30
0.0
 11
236.7876853588331
 21
67.780475248545812
 31
0.0
  0
LINE
  5
AD0F
  8
SUNPO
  6
CONTINUOUS
 10
235.78768535883319
 20
67.780475248545812
 30
0.0
 11
235.78768535883319
 21
77.780475248545827
 31
0.0
  0
LINE
  5
AD10
  8
SUNPO
  6
CONTINUOUS
 10
117.2876853588331
 20
92.780475248545827
 30
0.0
 11
100.7876853588331
 21
92.780475248545827
 31
0.0
  0
LINE
  5
AD11
  8
SUNPO
  6
CONTINUOUS
 10
101.7876853588331
 20
77.780475248545827
 30
0.0
 11
101.7876853588331
 21
92.780475248545827
 31
0.0
  0
LINE
  5
AD12
  8
SUNPO
  6
CONTINUOUS
 10
120.2876853588331
 20
137.7804752485458
 30
0.0
 11
93.787685358833187
 21
137.7804752485458
 31
0.0
  0
LINE
  5
AD13
  8
SUNPO
  6
CONTINUOUS
 10
94.787685358833187
 20
77.780475248545827
 30
0.0
 11
94.787685358833187
 21
137.7804752485458
 31
0.0
  0
LINE
  5
AD14
  8
SUNPO
  6
CONTINUOUS
 10
117.2876853588331
 20
77.780475248545827
 30
0.0
 11
93.787685358833187
 21
77.780475248545827
 31
0.0
  0
LINE
  5
AD15
  8
SUNPO
  6
CONTINUOUS
 10
172.2876853588331
 20
67.780475248545812
 30
0.0
 11
93.787685358833187
 21
67.780475248545812
 31
0.0
  0
LINE
  5
AD16
  8
SUNPO
  6
CONTINUOUS
 10
94.787685358833187
 20
67.780475248545812
 30
0.0
 11
94.787685358833187
 21
77.780475248545827
 31
0.0
  0
LINE
  5
AD17
  8
SUNPO
  6
CONTINUOUS
 10
172.2876853588331
 20
446.78047524854571
 30
0.0
 11
93.787685358833187
 21
446.78047524854571
 31
0.0
  0
LINE
  5
AD18
  8
SUNPO
  6
CONTINUOUS
 10
94.787685358833187
 20
431.78047524854583
 30
0.0
 11
94.787685358833187
 21
446.78047524854571
 31
0.0
  0
LINE
  5
AD19
  8
SUNPO
  6
CONTINUOUS
 10
117.2876853588331
 20
431.78047524854583
 30
0.0
 11
93.787685358833187
 21
431.78047524854583
 31
0.0
  0
LINE
  5
AD1A
  8
SUNPO
  6
CONTINUOUS
 10
112.2876853588332
 20
396.78047524854583
 30
0.0
 11
93.787685358833187
 21
396.78047524854583
 31
0.0
  0
LINE
  5
AD1B
  8
SUNPO
  6
CONTINUOUS
 10
94.787685358833187
 20
396.78047524854583
 30
0.0
 11
94.787685358833187
 21
431.78047524854583
 31
0.0
  0
LINE
  5
AD1C
  8
DANMEN
  6
CONTINUOUS
 10
154.7876853588331
 20
137.7804752485458
 30
0.0
 11
148.7876853588331
 21
137.7804752485458
 31
0.0
  0
LINE
  5
AD1D
  8
DANMEN
  6
CONTINUOUS
 10
154.7876853588331
 20
130.7804752485458
 30
0.0
 11
148.7876853588331
 21
130.7804752485458
 31
0.0
  0
LINE
  5
AD1E
  8
DANMEN
  6
CONTINUOUS
 10
154.7876853588331
 20
129.7804752485458
 30
0.0
 11
148.7876853588331
 21
129.7804752485458
 31
0.0
  0
LINE
  5
AD1F
  8
DANMEN
  6
CONTINUOUS
 10
148.7876853588331
 20
129.7804752485458
 30
0.0
 11
148.7876853588331
 21
126.7804752485458
 31
0.0
  0
LINE
  5
AD20
  8
DANMEN
  6
CONTINUOUS
 10
154.7876853588331
 20
126.7804752485458
 30
0.0
 11
148.7876853588331
 21
126.7804752485458
 31
0.0
  0
LINE
  5
AD21
  8
DANMEN
  6
CONTINUOUS
 10
154.7876853588331
 20
129.7804752485458
 30
0.0
 11
154.7876853588331
 21
126.7804752485458
 31
0.0
  0
LINE
  5
AD22
  8
DANMEN
  6
CONTINUOUS
 10
154.7876853588331
 20
125.7804752485458
 30
0.0
 11
148.7876853588331
 21
125.7804752485458
 31
0.0
  0
LINE
  5
AD23
  8
DANMEN
  6
CONTINUOUS
 10
154.7876853588331
 20
137.7804752485458
 30
0.0
 11
154.7876853588331
 21
130.7804752485458
 31
0.0
  0
LINE
  5
AD24
  8
DANMEN
  6
CONTINUOUS
 10
147.7876853588331
 20
138.7804752485458
 30
0.0
 11
147.7876853588331
 21
126.7804752485458
 31
0.0
  0
LINE
  5
AD25
  8
DANMEN
  6
CONTINUOUS
 10
155.7876853588331
 20
129.7804752485458
 30
0.0
 11
155.7876853588331
 21
126.7804752485458
 31
0.0
  0
ARC
  5
AD26
  8
DANMEN
  6
CONTINUOUS
 10
148.7876853588331
 20
138.7804752485458
 30
0.0
 40
1.0
 50
179.99996399999989
 51
269.99994599999911
  0
CIRCLE
  5
AD27
  8
DANMEN
  6
CONTINUOUS
 10
153.2876853588333
 20
127.7804752485458
 30
0.0
 40
0.1
  0
ARC
  5
AD28
  8
DANMEN
  6
CONTINUOUS
 10
148.7876853588331
 20
129.7804752485458
 30
0.0
 40
1.0
 50
89.999981999999164
 51
179.99996399999989
  0
ARC
  5
AD29
  8
DANMEN
  6
CONTINUOUS
 10
148.7876853588331
 20
126.7804752485458
 30
0.0
 40
1.0
 50
179.99996399999989
 51
269.99994599999911
  0
ARC
  5
AD2A
  8
DANMEN
  6
CONTINUOUS
 10
154.7876853588331
 20
129.7804752485458
 30
0.0
 40
1.0
 50
0.0
 51
89.999981999999164
  0
ARC
  5
AD2B
  8
DANMEN
  6
CONTINUOUS
 10
154.7876853588331
 20
126.7804752485458
 30
0.0
 40
1.0
 50
270.00001799999922
 51
0.0
  0
CIRCLE
  5
AD2C
  8
DANMEN
  6
CONTINUOUS
 10
151.2876853588331
 20
127.7804752485458
 30
0.0
 40
0.1
  0
CIRCLE
  5
AD2D
  8
DANMEN
  6
CONTINUOUS
 10
153.2876853588333
 20
128.7804752485458
 30
0.0
 40
0.1
  0
CIRCLE
  5
AD2E
  8
DANMEN
  6
CONTINUOUS
 10
151.2876853588331
 20
128.7804752485458
 30
0.0
 40
0.1
  0
LINE
  5
AD2F
  8
DANMEN
  6
CONTINUOUS
 10
214.78768235883311
 20
135.38047824854581
 30
0.0
 11
214.78768235883311
 21
134.20557424854579
 31
0.0
  0
LINE
  5
AD30
  8
DANMEN
  6
CONTINUOUS
 10
215.78768235883319
 20
129.0804782485458
 30
0.0
 11
216.9876823588331
 21
129.0804782485458
 31
0.0
  0
LINE
  5
AD31
  8
DANMEN
  6
CONTINUOUS
 10
215.28768235883319
 20
135.88047824854581
 30
0.0
 11
216.4876823588331
 21
135.88047824854581
 31
0.0
  0
LINE
  5
AD32
  8
DANMEN
  6
CONTINUOUS
 10
216.9876823588331
 20
135.38047824854581
 30
0.0
 11
216.9876823588331
 21
129.0804782485458
 31
0.0
  0
LINE
  5
AD33
  8
DANMEN
  6
CONTINUOUS
 10
213.28768235883319
 20
130.88047724854579
 30
0.0
 11
213.28768235883319
 21
130.6309672485458
 31
0.0
  0
LINE
  5
AD34
  8
DANMEN
  6
CONTINUOUS
 10
215.03506335883321
 20
131.31302124854579
 30
0.0
 11
213.58942935883309
 21
130.45878324854581
 31
0.0
  0
LINE
  5
AD35
  8
DANMEN
  6
CONTINUOUS
 10
215.2533683588332
 20
132.84616324854579
 30
0.0
 11
213.28768335883319
 21
130.88047824854581
 31
0.0
  0
LINE
  5
AD36
  8
DANMEN
  6
CONTINUOUS
 10
215.4876823588331
 20
131.0547432485458
 30
0.0
 11
215.4876823588331
 21
129.38047824854581
 31
0.0
  0
ARC
  5
AD37
  8
DANMEN
  6
CONTINUOUS
 10
215.28768235883319
 20
135.38047824854581
 30
0.0
 40
0.5
 50
89.999981999999164
 51
179.99996399999989
  0
ARC
  5
AD38
  8
DANMEN
  6
CONTINUOUS
 10
216.4876823588331
 20
135.38047824854581
 30
0.0
 40
0.5
 50
0.0
 51
89.999981999999164
  0
ARC
  5
AD39
  8
DANMEN
  6
CONTINUOUS
 10
215.78768235883319
 20
129.38047824854581
 30
0.0
 40
0.3
 50
179.9999810000001
 51
270.00001799999922
  0
ARC
  5
AD3A
  8
DANMEN
  6
CONTINUOUS
 10
213.4876823588331
 20
130.6309672485458
 30
0.0
 40
0.2
 50
179.9999810000001
 51
300.5792669999999
  0
ARC
  5
AD3B
  8
DANMEN
  6
CONTINUOUS
 10
215.18768335883311
 20
131.0547432485458
 30
0.0
 40
0.3
 50
0.0
 51
120.5792310000005
  0
ARC
  5
AD3C
  8
DANMEN
  6
CONTINUOUS
 10
214.68768335883311
 20
133.41184824854579
 30
0.0
 40
0.8
 50
314.99999500000001
 51
82.819213000000019
  0
LINE
  5
AD3D
  8
SUNPO
  6
CONTINUOUS
 10
240.7876853588331
 20
261.78047524854571
 30
0.0
 11
240.7876853588331
 21
266.78047724854582
 31
0.0
  0
LINE
  5
AD3E
  8
SUNPO
  6
CONTINUOUS
 10
230.78768835883309
 20
262.78047524854571
 30
0.0
 11
240.78768835883309
 21
262.78047524854571
 31
0.0
  0
LINE
  5
AD3F
  8
SUNPO
  6
CONTINUOUS
 10
230.7876853588331
 20
261.78047524854571
 30
0.0
 11
230.7876853588331
 21
266.78047424854577
 31
0.0
  0
LINE
  5
AD40
  8
SUNPO
  6
CONTINUOUS
 10
230.7876853588331
 20
273.78047524854583
 30
0.0
 11
240.7876853588331
 21
273.78047524854583
 31
0.0
  0
LINE
  5
AD41
  8
SUNPO
  6
CONTINUOUS
 10
230.7876873588331
 20
265.78047524854571
 30
0.0
 11
240.7876863588331
 21
265.78047524854571
 31
0.0
  0
LINE
  5
AD42
  8
SUNPO
  6
CONTINUOUS
 10
230.7876853588331
 20
272.78047424854577
 30
0.0
 11
230.7876853588331
 21
274.78047324854577
 31
0.0
  0
LINE
  5
AD43
  8
SUNPO
  6
CONTINUOUS
 10
240.7876853588331
 20
272.78047624854571
 30
0.0
 11
240.7876853588331
 21
274.78047624854571
 31
0.0
  0
LINE
  5
AD44
  8
SUNPO
  6
CONTINUOUS
 10
235.78768535883319
 20
265.78047524854571
 30
0.0
 11
235.78768535883319
 21
273.78047524854583
 31
0.0
  0
LINE
  5
AD45
  8
SUNPO
  6
CONTINUOUS
 10
234.7876853588331
 20
276.78047524854583
 30
0.0
 11
234.7876853588331
 21
281.78047524854583
 31
0.0
  0
LINE
  5
AD46
  8
SUNPO
  6
CONTINUOUS
 10
236.7876853588331
 20
276.78047524854583
 30
0.0
 11
236.7876853588331
 21
281.78047524854583
 31
0.0
  0
LINE
  5
AD47
  8
SUNPO
  6
CONTINUOUS
 10
423.370588358833
 20
85.780475248545827
 30
0.0
 11
423.370588358833
 21
75.780475248545827
 31
0.0
  0
LINE
  5
AD48
  8
SUNPO
  6
CONTINUOUS
 10
406.2047823588332
 20
85.780475248545827
 30
0.0
 11
410.51418335883301
 21
85.780475248545827
 31
0.0
  0
LINE
  5
AD49
  8
SUNPO
  6
CONTINUOUS
 10
417.59708635883311
 20
85.780475248545827
 30
0.0
 11
423.370588358833
 21
75.780475248545827
 31
0.0
  0
LINE
  5
AD4A
  8
SUNPO
  6
CONTINUOUS
 10
415.28768535883307
 20
85.780475248545827
 30
0.0
 11
421.06118735883319
 21
75.780475248545827
 31
0.0
  0
LINE
  5
AD4B
  8
SUNPO
  6
CONTINUOUS
 10
415.28768635883313
 20
85.780475248545827
 30
0.0
 11
415.28768635883313
 21
75.780475248545827
 31
0.0
  0
LINE
  5
AD4C
  8
SUNPO
  6
CONTINUOUS
 10
409.51418335883301
 20
85.780475248545827
 30
0.0
 11
415.28768535883307
 21
75.780474248545843
 31
0.0
  0
LINE
  5
AD4D
  8
SUNPO
  6
CONTINUOUS
 10
407.2047823588332
 20
85.780475248545827
 30
0.0
 11
412.97828335883321
 21
75.780475248545827
 31
0.0
  0
LINE
  5
AD4E
  8
SUNPO
  6
CONTINUOUS
 10
422.37058835883317
 20
85.780475248545827
 30
0.0
 11
424.370588358833
 21
85.780475248545827
 31
0.0
  0
LINE
  5
AD4F
  8
SUNPO
  6
CONTINUOUS
 10
414.28768635883313
 20
85.780475248545827
 30
0.0
 11
418.59708735883311
 21
85.780475248545827
 31
0.0
  0
LINE
  5
AD50
  8
SUNPO
  6
CONTINUOUS
 10
411.97828435883321
 20
75.780475248545827
 30
0.0
 11
416.28768635883318
 21
75.780475248545827
 31
0.0
  0
LINE
  5
AD51
  8
SUNPO
  6
CONTINUOUS
 10
420.06118735883308
 20
75.780475248545827
 30
0.0
 11
424.370588358833
 21
75.780475248545827
 31
0.0
  0
LINE
  5
AD52
  8
SUNPO
  6
CONTINUOUS
 10
426.37058835883317
 20
81.780475248545827
 30
0.0
 11
431.37058835883312
 21
81.780475248545827
 31
0.0
  0
LINE
  5
AD53
  8
SUNPO
  6
CONTINUOUS
 10
426.37058835883317
 20
79.780475248545827
 30
0.0
 11
431.37058835883312
 21
79.780475248545827
 31
0.0
  0
LINE
  5
AD54
  8
DANMEN
  6
CONTINUOUS
 10
429.78768535883319
 20
381.78047350321651
 30
0.0
 11
454.78768535883319
 21
381.78047524854583
 31
0.0
  0
LINE
  5
AD55
  8
DANMEN
  6
CONTINUOUS
 10
454.78768535883319
 20
381.78047524854583
 30
0.0
 11
454.78768493995409
 21
387.78047524854583
 31
0.0
  0
LINE
  5
AD56
  8
DANMEN
  6
CONTINUOUS
 10
429.78768487014099
 20
388.78047350321651
 30
0.0
 11
455.78768487014088
 21
388.78047531835881
 31
0.0
  0
LINE
  5
AD57
  8
DANMEN
  6
CONTINUOUS
 10
428.78768528901998
 20
382.7804734334033
 30
0.0
 11
428.7876849399542
 21
387.78047343340319
 31
0.0
  0
LINE
  5
AD58
  8
DANMEN
  6
CONTINUOUS
 10
447.78768528901998
 20
382.7804747598534
 30
0.0
 11
447.7876849399542
 21
387.78047475985358
 31
0.0
  0
LINE
  5
AD59
  8
DANMEN
  6
CONTINUOUS
 10
446.78768528901998
 20
382.78047469004031
 30
0.0
 11
446.78768493995409
 21
387.78047469004031
 31
0.0
  0
LINE
  5
AD5A
  8
DANMEN
  6
CONTINUOUS
 10
429.7876849399542
 20
387.78047350321651
 30
0.0
 11
446.78768493995409
 21
387.78047469004031
 31
0.0
  0
LINE
  5
AD5B
  8
DANMEN
  6
CONTINUOUS
 10
429.78768528901998
 20
382.78047350321651
 30
0.0
 11
429.7876849399542
 21
387.78047350321651
 31
0.0
  0
LINE
  5
AD5C
  8
DANMEN
  6
CONTINUOUS
 10
429.78768528901998
 20
382.78047350321651
 30
0.0
 11
446.78768528901998
 21
382.78047469004031
 31
0.0
  0
ARC
  5
AD5D
  8
DANMEN
  6
CONTINUOUS
 10
455.78768493995409
 20
387.78047531835881
 30
0.0
 40
1.0
 50
90.000004000000729
 51
179.99998599999981
  0
ARC
  5
AD5E
  8
DANMEN
  6
CONTINUOUS
 10
429.7876849399542
 20
387.78047350321651
 30
0.0
 40
1.0
 50
90.000004000000729
 51
179.99998599999981
  0
ARC
  5
AD5F
  8
DANMEN
  6
CONTINUOUS
 10
429.78768528901998
 20
382.78047350321651
 30
0.0
 40
1.0
 50
179.99998599999981
 51
269.999967999999
  0
ARC
  5
AD60
  8
DANMEN
  6
CONTINUOUS
 10
446.78768528901998
 20
382.78047469004031
 30
0.0
 40
1.0
 50
269.99998500000009
 51
0.0000219999999343
  0
ARC
  5
AD61
  8
DANMEN
  6
CONTINUOUS
 10
446.78768493995409
 20
387.78047469004031
 30
0.0
 40
1.0
 50
0.0000219999999343
 51
90.000004000000729
  0
CIRCLE
  5
AD62
  8
DANMEN
  6
CONTINUOUS
 10
431.78768521920682
 20
383.78047364284271
 30
0.0
 40
0.1
  0
CIRCLE
  5
AD63
  8
DANMEN
  6
CONTINUOUS
 10
431.78768507958051
 20
385.78047364284271
 30
0.0
 40
0.1
  0
CIRCLE
  5
AD64
  8
DANMEN
  6
CONTINUOUS
 10
445.78768507958051
 20
385.78047462022721
 30
0.0
 40
0.1
  0
CIRCLE
  5
AD65
  8
DANMEN
  6
CONTINUOUS
 10
445.78768521920671
 20
383.78047462022721
 30
0.0
 40
0.1
  0
CIRCLE
  5
AD66
  8
DANMEN
  6
CONTINUOUS
 10
443.7876850795804
 20
385.7804744806009
 30
0.0
 40
0.1
  0
CIRCLE
  5
AD67
  8
DANMEN
  6
CONTINUOUS
 10
443.78768521920682
 20
383.7804744806009
 30
0.0
 40
0.1
  0
CIRCLE
  5
AD68
  8
DANMEN
  6
CONTINUOUS
 10
441.78768507958051
 20
385.78047434097448
 30
0.0
 40
0.1
  0
CIRCLE
  5
AD69
  8
DANMEN
  6
CONTINUOUS
 10
441.78768521920671
 20
383.78047434097448
 30
0.0
 40
0.1
  0
CIRCLE
  5
AD6A
  8
DANMEN
  6
CONTINUOUS
 10
439.7876850795804
 20
385.78047420134823
 30
0.0
 40
0.1
  0
CIRCLE
  5
AD6B
  8
DANMEN
  6
CONTINUOUS
 10
439.78768521920682
 20
383.78047420134823
 30
0.0
 40
0.1
  0
CIRCLE
  5
AD6C
  8
DANMEN
  6
CONTINUOUS
 10
437.78768507958051
 20
385.7804740617218
 30
0.0
 40
0.1
  0
CIRCLE
  5
AD6D
  8
DANMEN
  6
CONTINUOUS
 10
437.78768521920671
 20
383.7804740617218
 30
0.0
 40
0.1
  0
CIRCLE
  5
AD6E
  8
DANMEN
  6
CONTINUOUS
 10
435.7876850795804
 20
385.7804739220955
 30
0.0
 40
0.1
  0
CIRCLE
  5
AD6F
  8
DANMEN
  6
CONTINUOUS
 10
435.78768521920682
 20
383.7804739220955
 30
0.0
 40
0.1
  0
CIRCLE
  5
AD70
  8
DANMEN
  6
CONTINUOUS
 10
433.7876850795804
 20
385.78047378246919
 30
0.0
 40
0.1
  0
CIRCLE
  5
AD71
  8
DANMEN
  6
CONTINUOUS
 10
433.78768521920671
 20
383.78047378246919
 30
0.0
 40
0.1
  0
LINE
  5
AD72
  8
DANMEN
  6
CONTINUOUS
 10
429.78768535883319
 20
411.78047699387503
 30
0.0
 11
454.78768535883319
 21
411.78047524854571
 31
0.0
  0
LINE
  5
AD73
  8
DANMEN
  6
CONTINUOUS
 10
454.78768535883319
 20
411.78047524854571
 30
0.0
 11
454.78768493995409
 21
405.78047524854571
 31
0.0
  0
LINE
  5
AD74
  8
DANMEN
  6
CONTINUOUS
 10
429.78768487014099
 20
404.78047699387503
 30
0.0
 11
455.78768487014088
 21
404.78047517873262
 31
0.0
  0
LINE
  5
AD75
  8
DANMEN
  6
CONTINUOUS
 10
428.78768528901998
 20
410.78047706368818
 30
0.0
 11
428.7876849399542
 21
405.78047706368818
 31
0.0
  0
LINE
  5
AD76
  8
DANMEN
  6
CONTINUOUS
 10
447.78768528901998
 20
410.78047573723802
 30
0.0
 11
447.7876849399542
 21
405.78047573723791
 31
0.0
  0
LINE
  5
AD77
  8
DANMEN
  6
CONTINUOUS
 10
446.78768528901998
 20
410.78047580705112
 30
0.0
 11
446.78768493995409
 21
405.78047580705112
 31
0.0
  0
LINE
  5
AD78
  8
DANMEN
  6
CONTINUOUS
 10
429.7876849399542
 20
405.78047699387503
 30
0.0
 11
446.78768493995409
 21
405.78047580705112
 31
0.0
  0
LINE
  5
AD79
  8
DANMEN
  6
CONTINUOUS
 10
429.78768528901998
 20
410.78047699387503
 30
0.0
 11
429.7876849399542
 21
405.78047699387503
 31
0.0
  0
LINE
  5
AD7A
  8
DANMEN
  6
CONTINUOUS
 10
429.78768528901998
 20
410.78047699387503
 30
0.0
 11
446.78768528901998
 21
410.78047580705112
 31
0.0
  0
ARC
  5
AD7B
  8
DANMEN
  6
CONTINUOUS
 10
455.78768493995409
 20
405.78047517873262
 30
0.0
 40
1.0
 50
180.00001400000011
 51
269.99999599999921
  0
ARC
  5
AD7C
  8
DANMEN
  6
CONTINUOUS
 10
429.7876849399542
 20
405.78047699387503
 30
0.0
 40
1.0
 50
180.00001400000011
 51
269.99999599999921
  0
ARC
  5
AD7D
  8
DANMEN
  6
CONTINUOUS
 10
429.78768528901998
 20
410.78047699387503
 30
0.0
 40
1.0
 50
90.000031999999294
 51
180.00001400000011
  0
ARC
  5
AD7E
  8
DANMEN
  6
CONTINUOUS
 10
446.78768528901998
 20
410.78047580705112
 30
0.0
 40
1.0
 50
359.999978
 51
90.000014999999877
  0
ARC
  5
AD7F
  8
DANMEN
  6
CONTINUOUS
 10
446.78768493995409
 20
405.78047580705112
 30
0.0
 40
1.0
 50
269.99999599999921
 51
359.999978
  0
CIRCLE
  5
AD80
  8
DANMEN
  6
CONTINUOUS
 10
431.78768521920682
 20
409.7804768542486
 30
0.0
 40
0.1
  0
CIRCLE
  5
AD81
  8
DANMEN
  6
CONTINUOUS
 10
431.78768507958051
 20
407.7804768542486
 30
0.0
 40
0.1
  0
CIRCLE
  5
AD82
  8
DANMEN
  6
CONTINUOUS
 10
445.78768507958051
 20
407.78047587686427
 30
0.0
 40
0.1
  0
CIRCLE
  5
AD83
  8
DANMEN
  6
CONTINUOUS
 10
445.78768521920671
 20
409.78047587686427
 30
0.0
 40
0.1
  0
CIRCLE
  5
AD84
  8
DANMEN
  6
CONTINUOUS
 10
443.7876850795804
 20
407.78047601649058
 30
0.0
 40
0.1
  0
CIRCLE
  5
AD85
  8
DANMEN
  6
CONTINUOUS
 10
443.78768521920682
 20
409.78047601649058
 30
0.0
 40
0.1
  0
CIRCLE
  5
AD86
  8
DANMEN
  6
CONTINUOUS
 10
441.78768507958051
 20
407.780476156117
 30
0.0
 40
0.1
  0
CIRCLE
  5
AD87
  8
DANMEN
  6
CONTINUOUS
 10
441.78768521920671
 20
409.78047615611689
 30
0.0
 40
0.1
  0
CIRCLE
  5
AD88
  8
DANMEN
  6
CONTINUOUS
 10
439.7876850795804
 20
407.7804762957432
 30
0.0
 40
0.1
  0
CIRCLE
  5
AD89
  8
DANMEN
  6
CONTINUOUS
 10
439.78768521920682
 20
409.7804762957432
 30
0.0
 40
0.1
  0
CIRCLE
  5
AD8A
  8
DANMEN
  6
CONTINUOUS
 10
437.78768507958051
 20
407.78047643536968
 30
0.0
 40
0.1
  0
CIRCLE
  5
AD8B
  8
DANMEN
  6
CONTINUOUS
 10
437.78768521920671
 20
409.78047643536951
 30
0.0
 40
0.1
  0
CIRCLE
  5
AD8C
  8
DANMEN
  6
CONTINUOUS
 10
435.7876850795804
 20
407.78047657499587
 30
0.0
 40
0.1
  0
CIRCLE
  5
AD8D
  8
DANMEN
  6
CONTINUOUS
 10
435.78768521920682
 20
409.78047657499599
 30
0.0
 40
0.1
  0
CIRCLE
  5
AD8E
  8
DANMEN
  6
CONTINUOUS
 10
433.7876850795804
 20
407.7804767146223
 30
0.0
 40
0.1
  0
CIRCLE
  5
AD8F
  8
DANMEN
  6
CONTINUOUS
 10
433.78768521920671
 20
409.78047671462218
 30
0.0
 40
0.1
  0
LINE
  5
AD90
  8
DANMEN
  6
CONTINUOUS
 10
519.78768535883296
 20
181.78047350321651
 30
0.0
 11
494.78768535883319
 21
181.7804752485458
 31
0.0
  0
LINE
  5
AD91
  8
DANMEN
  6
CONTINUOUS
 10
494.78768535883319
 20
181.7804752485458
 30
0.0
 11
494.78768577771223
 21
187.7804752485458
 31
0.0
  0
LINE
  5
AD92
  8
DANMEN
  6
CONTINUOUS
 10
519.78768584752515
 20
188.78047350321651
 30
0.0
 11
493.78768584752521
 21
188.7804753183589
 31
0.0
  0
LINE
  5
AD93
  8
DANMEN
  6
CONTINUOUS
 10
520.78768542864623
 20
182.78047343340339
 30
0.0
 11
520.78768577771211
 21
187.7804734334033
 31
0.0
  0
LINE
  5
AD94
  8
DANMEN
  6
CONTINUOUS
 10
501.78768542864623
 20
182.7804747598536
 30
0.0
 11
501.78768577771223
 21
187.7804747598536
 31
0.0
  0
LINE
  5
AD95
  8
DANMEN
  6
CONTINUOUS
 10
502.78768542864623
 20
182.78047469004039
 30
0.0
 11
502.78768577771223
 21
187.78047469004039
 31
0.0
  0
LINE
  5
AD96
  8
DANMEN
  6
CONTINUOUS
 10
519.78768577771211
 20
187.78047350321651
 30
0.0
 11
502.78768577771223
 21
187.78047469004039
 31
0.0
  0
LINE
  5
AD97
  8
DANMEN
  6
CONTINUOUS
 10
519.78768542864611
 20
182.78047350321651
 30
0.0
 11
519.78768577771211
 21
187.78047350321651
 31
0.0
  0
LINE
  5
AD98
  8
DANMEN
  6
CONTINUOUS
 10
519.78768542864611
 20
182.78047350321651
 30
0.0
 11
502.78768542864623
 21
182.78047469004039
 31
0.0
  0
ARC
  5
AD99
  8
DANMEN
  6
CONTINUOUS
 10
493.78768577771223
 20
187.7804753183589
 30
0.0
 40
1.0
 50
0.0000140000001062
 51
89.999995999999271
  0
ARC
  5
AD9A
  8
DANMEN
  6
CONTINUOUS
 10
519.78768577771211
 20
187.78047350321651
 30
0.0
 40
1.0
 50
0.0000140000001062
 51
89.999995999999271
  0
ARC
  5
AD9B
  8
DANMEN
  6
CONTINUOUS
 10
519.78768542864611
 20
182.78047350321651
 30
0.0
 40
1.0
 50
270.00003199999918
 51
0.0000140000001062
  0
ARC
  5
AD9C
  8
DANMEN
  6
CONTINUOUS
 10
502.78768542864623
 20
182.78047469004039
 30
0.0
 40
1.0
 50
179.999978
 51
270.00001499999991
  0
ARC
  5
AD9D
  8
DANMEN
  6
CONTINUOUS
 10
502.78768577771223
 20
187.78047469004039
 30
0.0
 40
1.0
 50
89.999995999999271
 51
179.999978
  0
CIRCLE
  5
AD9E
  8
DANMEN
  6
CONTINUOUS
 10
517.78768549845927
 20
183.78047364284291
 30
0.0
 40
0.1
  0
CIRCLE
  5
AD9F
  8
DANMEN
  6
CONTINUOUS
 10
517.7876856380858
 20
185.78047364284279
 30
0.0
 40
0.1
  0
CIRCLE
  5
ADA0
  8
DANMEN
  6
CONTINUOUS
 10
503.78768563808592
 20
185.78047462022721
 30
0.0
 40
0.1
  0
CIRCLE
  5
ADA1
  8
DANMEN
  6
CONTINUOUS
 10
503.78768549845938
 20
183.7804746202273
 30
0.0
 40
0.1
  0
CIRCLE
  5
ADA2
  8
DANMEN
  6
CONTINUOUS
 10
505.78768563808569
 20
185.7804744806009
 30
0.0
 40
0.1
  0
CIRCLE
  5
ADA3
  8
DANMEN
  6
CONTINUOUS
 10
505.7876854984595
 20
183.7804744806009
 30
0.0
 40
0.1
  0
CIRCLE
  5
ADA4
  8
DANMEN
  6
CONTINUOUS
 10
507.78768563808569
 20
185.78047434097451
 30
0.0
 40
0.1
  0
CIRCLE
  5
ADA5
  8
DANMEN
  6
CONTINUOUS
 10
507.78768549845938
 20
183.78047434097459
 30
0.0
 40
0.1
  0
CIRCLE
  5
ADA6
  8
DANMEN
  6
CONTINUOUS
 10
509.78768563808569
 20
185.7804742013482
 30
0.0
 40
0.1
  0
CIRCLE
  5
ADA7
  8
DANMEN
  6
CONTINUOUS
 10
509.7876854984595
 20
183.7804742013482
 30
0.0
 40
0.1
  0
CIRCLE
  5
ADA8
  8
DANMEN
  6
CONTINUOUS
 10
511.78768563808569
 20
185.78047406172189
 30
0.0
 40
0.1
  0
CIRCLE
  5
ADA9
  8
DANMEN
  6
CONTINUOUS
 10
511.78768549845938
 20
183.78047406172189
 30
0.0
 40
0.1
  0
CIRCLE
  5
ADAA
  8
DANMEN
  6
CONTINUOUS
 10
513.7876856380858
 20
185.7804739220955
 30
0.0
 40
0.1
  0
CIRCLE
  5
ADAB
  8
DANMEN
  6
CONTINUOUS
 10
513.7876854984595
 20
183.7804739220955
 30
0.0
 40
0.1
  0
CIRCLE
  5
ADAC
  8
DANMEN
  6
CONTINUOUS
 10
515.7876856380858
 20
185.78047378246919
 30
0.0
 40
0.1
  0
CIRCLE
  5
ADAD
  8
DANMEN
  6
CONTINUOUS
 10
515.78768549845938
 20
183.78047378246919
 30
0.0
 40
0.1
  0
LINE
  5
ADAE
  8
DANMEN
  6
CONTINUOUS
 10
519.78768535883296
 20
211.780476993875
 30
0.0
 11
494.78768535883319
 21
211.7804752485458
 31
0.0
  0
LINE
  5
ADAF
  8
DANMEN
  6
CONTINUOUS
 10
494.78768535883319
 20
211.7804752485458
 30
0.0
 11
494.78768577771223
 21
205.7804752485458
 31
0.0
  0
LINE
  5
ADB0
  8
DANMEN
  6
CONTINUOUS
 10
519.78768584752515
 20
204.78047699387511
 30
0.0
 11
493.78768584752521
 21
204.78047517873259
 31
0.0
  0
LINE
  5
ADB1
  8
DANMEN
  6
CONTINUOUS
 10
520.78768542864623
 20
210.78047706368821
 30
0.0
 11
520.78768577771211
 21
205.78047706368821
 31
0.0
  0
LINE
  5
ADB2
  8
DANMEN
  6
CONTINUOUS
 10
501.78768542864623
 20
210.78047573723799
 30
0.0
 11
501.78768577771223
 21
205.78047573723799
 31
0.0
  0
LINE
  5
ADB3
  8
DANMEN
  6
CONTINUOUS
 10
502.78768542864623
 20
210.78047580705109
 30
0.0
 11
502.78768577771223
 21
205.7804758070512
 31
0.0
  0
LINE
  5
ADB4
  8
DANMEN
  6
CONTINUOUS
 10
519.78768577771211
 20
205.780476993875
 30
0.0
 11
502.78768577771223
 21
205.7804758070512
 31
0.0
  0
LINE
  5
ADB5
  8
DANMEN
  6
CONTINUOUS
 10
519.78768542864611
 20
210.780476993875
 30
0.0
 11
519.78768577771211
 21
205.780476993875
 31
0.0
  0
LINE
  5
ADB6
  8
DANMEN
  6
CONTINUOUS
 10
519.78768542864611
 20
210.780476993875
 30
0.0
 11
502.78768542864623
 21
210.78047580705109
 31
0.0
  0
ARC
  5
ADB7
  8
DANMEN
  6
CONTINUOUS
 10
493.78768577771223
 20
205.78047517873259
 30
0.0
 40
1.0
 50
270.00000400000067
 51
359.99998599999981
  0
ARC
  5
ADB8
  8
DANMEN
  6
CONTINUOUS
 10
519.78768577771211
 20
205.780476993875
 30
0.0
 40
1.0
 50
270.00000400000067
 51
359.99998599999981
  0
ARC
  5
ADB9
  8
DANMEN
  6
CONTINUOUS
 10
519.78768542864611
 20
210.780476993875
 30
0.0
 40
1.0
 50
359.99998599999981
 51
89.999968000000692
  0
ARC
  5
ADBA
  8
DANMEN
  6
CONTINUOUS
 10
502.78768542864623
 20
210.78047580705109
 30
0.0
 40
1.0
 50
89.999985000000123
 51
180.00002199999989
  0
ARC
  5
ADBB
  8
DANMEN
  6
CONTINUOUS
 10
502.78768577771223
 20
205.7804758070512
 30
0.0
 40
1.0
 50
180.00002199999989
 51
270.00000400000067
  0
CIRCLE
  5
ADBC
  8
DANMEN
  6
CONTINUOUS
 10
517.78768549845927
 20
209.78047685424869
 30
0.0
 40
0.1
  0
CIRCLE
  5
ADBD
  8
DANMEN
  6
CONTINUOUS
 10
517.7876856380858
 20
207.78047685424869
 30
0.0
 40
0.1
  0
CIRCLE
  5
ADBE
  8
DANMEN
  6
CONTINUOUS
 10
503.78768563808592
 20
207.7804758768643
 30
0.0
 40
0.1
  0
CIRCLE
  5
ADBF
  8
DANMEN
  6
CONTINUOUS
 10
503.78768549845938
 20
209.7804758768643
 30
0.0
 40
0.1
  0
CIRCLE
  5
ADC0
  8
DANMEN
  6
CONTINUOUS
 10
505.78768563808569
 20
207.7804760164907
 30
0.0
 40
0.1
  0
CIRCLE
  5
ADC1
  8
DANMEN
  6
CONTINUOUS
 10
505.7876854984595
 20
209.7804760164907
 30
0.0
 40
0.1
  0
CIRCLE
  5
ADC2
  8
DANMEN
  6
CONTINUOUS
 10
507.78768563808569
 20
207.780476156117
 30
0.0
 40
0.1
  0
CIRCLE
  5
ADC3
  8
DANMEN
  6
CONTINUOUS
 10
507.78768549845938
 20
209.780476156117
 30
0.0
 40
0.1
  0
CIRCLE
  5
ADC4
  8
DANMEN
  6
CONTINUOUS
 10
509.78768563808569
 20
207.7804762957434
 30
0.0
 40
0.1
  0
CIRCLE
  5
ADC5
  8
DANMEN
  6
CONTINUOUS
 10
509.7876854984595
 20
209.7804762957434
 30
0.0
 40
0.1
  0
CIRCLE
  5
ADC6
  8
DANMEN
  6
CONTINUOUS
 10
511.78768563808569
 20
207.78047643536971
 30
0.0
 40
0.1
  0
CIRCLE
  5
ADC7
  8
DANMEN
  6
CONTINUOUS
 10
511.78768549845938
 20
209.78047643536971
 30
0.0
 40
0.1
  0
CIRCLE
  5
ADC8
  8
DANMEN
  6
CONTINUOUS
 10
513.7876856380858
 20
207.78047657499599
 30
0.0
 40
0.1
  0
CIRCLE
  5
ADC9
  8
DANMEN
  6
CONTINUOUS
 10
513.7876854984595
 20
209.78047657499599
 30
0.0
 40
0.1
  0
CIRCLE
  5
ADCA
  8
DANMEN
  6
CONTINUOUS
 10
515.7876856380858
 20
207.78047671462241
 30
0.0
 40
0.1
  0
CIRCLE
  5
ADCB
  8
DANMEN
  6
CONTINUOUS
 10
515.78768549845938
 20
209.78047671462241
 30
0.0
 40
0.1
  0
LINE
  5
ADCC
  8
DANMEN
  6
CONTINUOUS
 10
154.7876853588331
 20
421.78047524854583
 30
0.0
 11
154.7876853588331
 21
396.78047524854583
 31
0.0
  0
LINE
  5
ADCD
  8
DANMEN
  6
CONTINUOUS
 10
154.7876853588331
 20
396.78047524854583
 30
0.0
 11
148.7876853588331
 21
396.78047524854583
 31
0.0
  0
LINE
  5
ADCE
  8
DANMEN
  6
CONTINUOUS
 10
147.7876853588331
 20
421.78047524854583
 30
0.0
 11
147.7876853588331
 21
395.78047524854583
 31
0.0
  0
LINE
  5
ADCF
  8
DANMEN
  6
CONTINUOUS
 10
153.7876853588331
 20
422.78047524854583
 30
0.0
 11
148.7876853588331
 21
422.78047524854583
 31
0.0
  0
LINE
  5
ADD0
  8
DANMEN
  6
CONTINUOUS
 10
153.7876853588331
 20
403.78047524854571
 30
0.0
 11
148.7876853588331
 21
403.78047524854571
 31
0.0
  0
LINE
  5
ADD1
  8
DANMEN
  6
CONTINUOUS
 10
153.7876853588331
 20
404.78047524854583
 30
0.0
 11
148.7876853588331
 21
404.78047524854583
 31
0.0
  0
LINE
  5
ADD2
  8
DANMEN
  6
CONTINUOUS
 10
148.7876853588331
 20
421.78047524854583
 30
0.0
 11
148.7876853588331
 21
404.78047524854583
 31
0.0
  0
LINE
  5
ADD3
  8
DANMEN
  6
CONTINUOUS
 10
153.7876853588331
 20
421.78047524854583
 30
0.0
 11
148.7876853588331
 21
421.78047524854583
 31
0.0
  0
LINE
  5
ADD4
  8
DANMEN
  6
CONTINUOUS
 10
153.7876853588331
 20
421.78047524854583
 30
0.0
 11
153.7876853588331
 21
404.78047524854583
 31
0.0
  0
ARC
  5
ADD5
  8
DANMEN
  6
CONTINUOUS
 10
148.7876853588331
 20
395.78047524854583
 30
0.0
 40
1.0
 50
90.000018000000836
 51
180.0
  0
ARC
  5
ADD6
  8
DANMEN
  6
CONTINUOUS
 10
148.7876853588331
 20
421.78047524854583
 30
0.0
 40
1.0
 50
90.000018000000836
 51
180.0
  0
ARC
  5
ADD7
  8
DANMEN
  6
CONTINUOUS
 10
153.7876853588331
 20
421.78047524854583
 30
0.0
 40
1.0
 50
0.0000360000000406
 51
90.000018000000836
  0
ARC
  5
ADD8
  8
DANMEN
  6
CONTINUOUS
 10
153.7876853588331
 20
404.78047524854583
 30
0.0
 40
1.0
 50
269.99998199999908
 51
0.0000189999997952
  0
ARC
  5
ADD9
  8
DANMEN
  6
CONTINUOUS
 10
148.7876853588331
 20
404.78047524854583
 30
0.0
 40
1.0
 50
180.0
 51
269.99998199999908
  0
CIRCLE
  5
ADDA
  8
DANMEN
  6
CONTINUOUS
 10
152.7876853588331
 20
419.78047524854583
 30
0.0
 40
0.1
  0
CIRCLE
  5
ADDB
  8
DANMEN
  6
CONTINUOUS
 10
150.78768535883319
 20
419.78047524854583
 30
0.0
 40
0.1
  0
CIRCLE
  5
ADDC
  8
DANMEN
  6
CONTINUOUS
 10
150.78768535883319
 20
405.78047524854571
 30
0.0
 40
0.1
  0
CIRCLE
  5
ADDD
  8
DANMEN
  6
CONTINUOUS
 10
152.7876853588331
 20
405.78047524854571
 30
0.0
 40
0.1
  0
CIRCLE
  5
ADDE
  8
DANMEN
  6
CONTINUOUS
 10
150.78768535883319
 20
407.78047524854571
 30
0.0
 40
0.1
  0
CIRCLE
  5
ADDF
  8
DANMEN
  6
CONTINUOUS
 10
152.7876853588331
 20
407.78047524854571
 30
0.0
 40
0.1
  0
CIRCLE
  5
ADE0
  8
DANMEN
  6
CONTINUOUS
 10
150.78768535883319
 20
409.78047524854571
 30
0.0
 40
0.1
  0
CIRCLE
  5
ADE1
  8
DANMEN
  6
CONTINUOUS
 10
152.7876853588331
 20
409.78047524854571
 30
0.0
 40
0.1
  0
CIRCLE
  5
ADE2
  8
DANMEN
  6
CONTINUOUS
 10
150.78768535883319
 20
411.78047524854571
 30
0.0
 40
0.1
  0
CIRCLE
  5
ADE3
  8
DANMEN
  6
CONTINUOUS
 10
152.7876853588331
 20
411.78047524854571
 30
0.0
 40
0.1
  0
CIRCLE
  5
ADE4
  8
DANMEN
  6
CONTINUOUS
 10
150.78768535883319
 20
413.78047524854571
 30
0.0
 40
0.1
  0
CIRCLE
  5
ADE5
  8
DANMEN
  6
CONTINUOUS
 10
152.7876853588331
 20
413.78047524854571
 30
0.0
 40
0.1
  0
CIRCLE
  5
ADE6
  8
DANMEN
  6
CONTINUOUS
 10
150.78768535883319
 20
415.78047524854571
 30
0.0
 40
0.1
  0
CIRCLE
  5
ADE7
  8
DANMEN
  6
CONTINUOUS
 10
152.7876853588331
 20
415.78047524854571
 30
0.0
 40
0.1
  0
CIRCLE
  5
ADE8
  8
DANMEN
  6
CONTINUOUS
 10
150.78768535883319
 20
417.78047524854571
 30
0.0
 40
0.1
  0
CIRCLE
  5
ADE9
  8
DANMEN
  6
CONTINUOUS
 10
152.7876853588331
 20
417.78047524854571
 30
0.0
 40
0.1
  0
LINE
  5
ADEA
  8
DANMEN
  6
CONTINUOUS
 10
124.7876853588332
 20
421.78047524854583
 30
0.0
 11
124.7876853588332
 21
396.78047524854583
 31
0.0
  0
LINE
  5
ADEB
  8
DANMEN
  6
CONTINUOUS
 10
124.7876853588332
 20
396.78047524854583
 30
0.0
 11
130.7876853588331
 21
396.78047524854583
 31
0.0
  0
LINE
  5
ADEC
  8
DANMEN
  6
CONTINUOUS
 10
131.7876853588331
 20
421.78047524854583
 30
0.0
 11
131.7876853588331
 21
395.78047524854583
 31
0.0
  0
LINE
  5
ADED
  8
DANMEN
  6
CONTINUOUS
 10
125.7876853588331
 20
422.78047524854583
 30
0.0
 11
130.7876853588331
 21
422.78047524854583
 31
0.0
  0
LINE
  5
ADEE
  8
DANMEN
  6
CONTINUOUS
 10
125.7876853588331
 20
403.78047524854571
 30
0.0
 11
130.7876853588331
 21
403.78047524854571
 31
0.0
  0
LINE
  5
ADEF
  8
DANMEN
  6
CONTINUOUS
 10
125.7876853588331
 20
404.78047524854583
 30
0.0
 11
130.7876853588331
 21
404.78047524854583
 31
0.0
  0
LINE
  5
ADF0
  8
DANMEN
  6
CONTINUOUS
 10
130.7876853588331
 20
421.78047524854583
 30
0.0
 11
130.7876853588331
 21
404.78047524854583
 31
0.0
  0
LINE
  5
ADF1
  8
DANMEN
  6
CONTINUOUS
 10
125.7876853588331
 20
421.78047524854583
 30
0.0
 11
130.7876853588331
 21
421.78047524854583
 31
0.0
  0
LINE
  5
ADF2
  8
DANMEN
  6
CONTINUOUS
 10
125.7876853588331
 20
421.78047524854583
 30
0.0
 11
125.7876853588331
 21
404.78047524854583
 31
0.0
  0
ARC
  5
ADF3
  8
DANMEN
  6
CONTINUOUS
 10
130.7876853588331
 20
395.78047524854583
 30
0.0
 40
1.0
 50
0.0
 51
89.999982000000799
  0
ARC
  5
ADF4
  8
DANMEN
  6
CONTINUOUS
 10
130.7876853588331
 20
421.78047524854583
 30
0.0
 40
1.0
 50
0.0
 51
89.999982000000799
  0
ARC
  5
ADF5
  8
DANMEN
  6
CONTINUOUS
 10
125.7876853588331
 20
421.78047524854583
 30
0.0
 40
1.0
 50
89.999982000000799
 51
179.99996399999989
  0
ARC
  5
ADF6
  8
DANMEN
  6
CONTINUOUS
 10
125.7876853588331
 20
404.78047524854583
 30
0.0
 40
1.0
 50
179.9999810000001
 51
270.00001799999922
  0
ARC
  5
ADF7
  8
DANMEN
  6
CONTINUOUS
 10
130.7876853588331
 20
404.78047524854583
 30
0.0
 40
1.0
 50
270.00001799999922
 51
0.0
  0
CIRCLE
  5
ADF8
  8
DANMEN
  6
CONTINUOUS
 10
126.7876853588331
 20
419.78047524854583
 30
0.0
 40
0.1
  0
CIRCLE
  5
ADF9
  8
DANMEN
  6
CONTINUOUS
 10
128.7876853588331
 20
419.78047524854583
 30
0.0
 40
0.1
  0
CIRCLE
  5
ADFA
  8
DANMEN
  6
CONTINUOUS
 10
128.7876853588331
 20
405.78047524854571
 30
0.0
 40
0.1
  0
CIRCLE
  5
ADFB
  8
DANMEN
  6
CONTINUOUS
 10
126.7876853588331
 20
405.78047524854571
 30
0.0
 40
0.1
  0
CIRCLE
  5
ADFC
  8
DANMEN
  6
CONTINUOUS
 10
128.7876853588331
 20
407.78047524854571
 30
0.0
 40
0.1
  0
CIRCLE
  5
ADFD
  8
DANMEN
  6
CONTINUOUS
 10
126.7876853588331
 20
407.78047524854571
 30
0.0
 40
0.1
  0
CIRCLE
  5
ADFE
  8
DANMEN
  6
CONTINUOUS
 10
128.7876853588331
 20
409.78047524854571
 30
0.0
 40
0.1
  0
CIRCLE
  5
ADFF
  8
DANMEN
  6
CONTINUOUS
 10
126.7876853588331
 20
409.78047524854571
 30
0.0
 40
0.1
  0
CIRCLE
  5
AE00
  8
DANMEN
  6
CONTINUOUS
 10
128.7876853588331
 20
411.78047524854571
 30
0.0
 40
0.1
  0
CIRCLE
  5
AE01
  8
DANMEN
  6
CONTINUOUS
 10
126.7876853588331
 20
411.78047524854571
 30
0.0
 40
0.1
  0
CIRCLE
  5
AE02
  8
DANMEN
  6
CONTINUOUS
 10
128.7876853588331
 20
413.78047524854571
 30
0.0
 40
0.1
  0
CIRCLE
  5
AE03
  8
DANMEN
  6
CONTINUOUS
 10
126.7876853588331
 20
413.78047524854571
 30
0.0
 40
0.1
  0
CIRCLE
  5
AE04
  8
DANMEN
  6
CONTINUOUS
 10
128.7876853588331
 20
415.78047524854571
 30
0.0
 40
0.1
  0
CIRCLE
  5
AE05
  8
DANMEN
  6
CONTINUOUS
 10
126.7876853588331
 20
415.78047524854571
 30
0.0
 40
0.1
  0
CIRCLE
  5
AE06
  8
DANMEN
  6
CONTINUOUS
 10
128.7876853588331
 20
417.78047524854571
 30
0.0
 40
0.1
  0
CIRCLE
  5
AE07
  8
DANMEN
  6
CONTINUOUS
 10
126.7876853588331
 20
417.78047524854571
 30
0.0
 40
0.1
  0
LINE
  5
AE08
  8
DANMEN
  6
CONTINUOUS
 10
124.7876853588332
 20
137.7804752485458
 30
0.0
 11
130.7876853588331
 21
137.7804752485458
 31
0.0
  0
LINE
  5
AE09
  8
DANMEN
  6
CONTINUOUS
 10
125.7876853588331
 20
130.7804752485458
 30
0.0
 11
130.7876853588331
 21
130.7804752485458
 31
0.0
  0
LINE
  5
AE0A
  8
DANMEN
  6
CONTINUOUS
 10
125.7876853588331
 20
129.7804752485458
 30
0.0
 11
130.7876853588331
 21
129.7804752485458
 31
0.0
  0
LINE
  5
AE0B
  8
DANMEN
  6
CONTINUOUS
 10
130.7876853588331
 20
129.7804752485458
 30
0.0
 11
130.7876853588331
 21
123.7804752485458
 31
0.0
  0
LINE
  5
AE0C
  8
DANMEN
  6
CONTINUOUS
 10
125.7876853588331
 20
123.7804752485458
 30
0.0
 11
130.7876853588331
 21
123.7804752485458
 31
0.0
  0
LINE
  5
AE0D
  8
DANMEN
  6
CONTINUOUS
 10
125.7876853588331
 20
129.7804752485458
 30
0.0
 11
125.7876853588331
 21
123.7804752485458
 31
0.0
  0
LINE
  5
AE0E
  8
DANMEN
  6
CONTINUOUS
 10
125.7876853588331
 20
122.7804752485458
 30
0.0
 11
130.7876853588331
 21
122.7804752485458
 31
0.0
  0
LINE
  5
AE0F
  8
DANMEN
  6
CONTINUOUS
 10
124.7876853588332
 20
137.7804752485458
 30
0.0
 11
124.7876853588332
 21
123.7804752485458
 31
0.0
  0
LINE
  5
AE10
  8
DANMEN
  6
CONTINUOUS
 10
131.7876853588331
 20
138.7804752485458
 30
0.0
 11
131.7876853588331
 21
123.7804752485458
 31
0.0
  0
ARC
  5
AE11
  8
DANMEN
  6
CONTINUOUS
 10
130.7876853588331
 20
138.7804752485458
 30
0.0
 40
1.0
 50
270.00001799999922
 51
0.0
  0
CIRCLE
  5
AE12
  8
DANMEN
  6
CONTINUOUS
 10
127.7876853588331
 20
128.7804752485458
 30
0.0
 40
0.1
  0
CIRCLE
  5
AE13
  8
DANMEN
  6
CONTINUOUS
 10
127.7876853588331
 20
126.7804752485458
 30
0.0
 40
0.1
  0
CIRCLE
  5
AE14
  8
DANMEN
  6
CONTINUOUS
 10
127.7876853588331
 20
124.7804752485458
 30
0.0
 40
0.1
  0
CIRCLE
  5
AE15
  8
DANMEN
  6
CONTINUOUS
 10
129.7876853588331
 20
128.7804752485458
 30
0.0
 40
0.1
  0
CIRCLE
  5
AE16
  8
DANMEN
  6
CONTINUOUS
 10
129.7876853588331
 20
126.7804752485458
 30
0.0
 40
0.1
  0
CIRCLE
  5
AE17
  8
DANMEN
  6
CONTINUOUS
 10
129.7876853588331
 20
124.7804752485458
 30
0.0
 40
0.1
  0
ARC
  5
AE18
  8
DANMEN
  6
CONTINUOUS
 10
130.7876853588331
 20
129.7804752485458
 30
0.0
 40
1.0
 50
0.0
 51
89.999982000000799
  0
ARC
  5
AE19
  8
DANMEN
  6
CONTINUOUS
 10
125.7876853588331
 20
129.7804752485458
 30
0.0
 40
1.0
 50
89.999982000000799
 51
179.99996399999989
  0
ARC
  5
AE1A
  8
DANMEN
  6
CONTINUOUS
 10
125.7876853588331
 20
123.7804752485458
 30
0.0
 40
1.0
 50
179.9999810000001
 51
270.00001799999922
  0
ARC
  5
AE1B
  8
DANMEN
  6
CONTINUOUS
 10
130.7876853588331
 20
123.7804752485458
 30
0.0
 40
1.0
 50
270.00001799999922
 51
0.0
  0
LINE
  5
AE1C
  8
DANMEN
  6
CONTINUOUS
 10
125.7876853588331
 20
107.7804752485458
 30
0.0
 11
153.7876853588331
 21
107.7804752485458
 31
0.0
  0
LINE
  5
AE1D
  8
DANMEN
  6
CONTINUOUS
 10
125.7876853588331
 20
122.7804752485458
 30
0.0
 11
153.7876853588331
 21
122.7804752485458
 31
0.0
  0
LINE
  5
AE1E
  8
DANMEN
  6
CONTINUOUS
 10
153.7876853588331
 20
122.7804752485458
 30
0.0
 11
153.7876853588331
 21
107.7804752485458
 31
0.0
  0
LINE
  5
AE1F
  8
DANMEN
  6
CONTINUOUS
 10
125.7876853588331
 20
122.7804752485458
 30
0.0
 11
125.7876853588331
 21
107.7804752485458
 31
0.0
  0
LINE
  5
AE20
  8
DANMEN
  6
CONTINUOUS
 10
153.7876733588331
 20
122.7804682485458
 30
0.0
 11
125.7876843588331
 21
107.7804742485458
 31
0.0
  0
LINE
  5
AE21
  8
DANMEN
  6
CONTINUOUS
 10
118.7876853588331
 20
396.78047524854583
 30
0.0
 11
118.7876853588331
 21
274.28047524854583
 31
0.0
  0
LINE
  5
AE22
  8
DANMEN
  6
CONTINUOUS
 10
218.7876853588331
 20
416.78047524854583
 30
0.0
 11
218.7876853588331
 21
274.28047524854583
 31
0.0
  0
LINE
  5
AE23
  8
DANMEN
  6
CONTINUOUS
 10
175.2876853588331
 20
67.780475248545812
 30
0.0
 11
218.7876853588331
 21
67.780475248545812
 31
0.0
  0
LINE
  5
AE24
  8
DANMEN
  6
CONTINUOUS
 10
218.7876853588331
 20
85.780475248545827
 30
0.0
 11
218.7876853588331
 21
67.780475248545812
 31
0.0
  0
LINE
  5
AE25
  8
DANMEN
  6
CONTINUOUS
 10
213.7876853588331
 20
396.78047524854583
 30
0.0
 11
213.7876853588331
 21
274.28047524854583
 31
0.0
  0
LINE
  5
AE26
  8
DANMEN
  6
CONTINUOUS
 10
208.2876853588331
 20
137.7804752485458
 30
0.0
 11
179.7876853588331
 21
137.7804752485458
 31
0.0
  0
LINE
  5
AE27
  8
DANMEN
  6
CONTINUOUS
 10
124.7876853588332
 20
396.78047524854583
 30
0.0
 11
124.7876853588332
 21
274.28047524854583
 31
0.0
  0
LINE
  5
AE28
  8
DANMEN
  6
CONTINUOUS
 10
124.7876853588332
 20
105.85129124854581
 30
0.0
 11
124.7876853588332
 21
92.780475248545827
 31
0.0
  0
LINE
  5
AE29
  8
DANMEN
  6
CONTINUOUS
 10
350.78768535883319
 20
317.78047524854571
 30
0.0
 11
472.78768535883307
 21
317.78047524854571
 31
0.0
  0
LINE
  5
AE2A
  8
DANMEN
  6
CONTINUOUS
 10
131.7876853588331
 20
411.78047524854571
 30
0.0
 11
131.7876853588331
 21
274.28047524854583
 31
0.0
  0
LINE
  5
AE2B
  8
DANMEN
  6
CONTINUOUS
 10
147.7876853588331
 20
411.78047524854571
 30
0.0
 11
147.7876853588331
 21
274.28047524854583
 31
0.0
  0
LINE
  5
AE2C
  8
DANMEN
  6
CONTINUOUS
 10
136.7876853588331
 20
411.78047524854571
 30
0.0
 11
136.7876853588331
 21
274.28047524854583
 31
0.0
  0
LINE
  5
AE2D
  8
DANMEN
  6
CONTINUOUS
 10
142.7876853588331
 20
411.78047524854571
 30
0.0
 11
142.7876853588331
 21
274.28047524854583
 31
0.0
  0
LINE
  5
AE2E
  8
DANMEN
  6
CONTINUOUS
 10
136.78766035883311
 20
128.7804982485458
 30
0.0
 11
142.7876743588331
 21
122.78047724854579
 31
0.0
  0
LINE
  5
AE2F
  8
DANMEN
  6
CONTINUOUS
 10
142.7876683588332
 20
128.7804752485458
 30
0.0
 11
136.78767135883319
 21
122.7804812485458
 31
0.0
  0
LINE
  5
AE30
  8
DANMEN
  6
CONTINUOUS
 10
142.7876853588331
 20
128.7804752485458
 30
0.0
 11
136.7876853588331
 21
128.7804752485458
 31
0.0
  0
LINE
  5
AE31
  8
DANMEN
  6
CONTINUOUS
 10
132.2876853588333
 20
411.78047524854571
 30
0.0
 11
132.2876853588333
 21
274.28047524854583
 31
0.0
  0
LINE
  5
AE32
  8
DANMEN
  6
CONTINUOUS
 10
136.2876853588331
 20
411.78047524854571
 30
0.0
 11
136.2876853588331
 21
274.28047524854583
 31
0.0
  0
LINE
  5
AE33
  8
DANMEN
  6
CONTINUOUS
 10
143.2876853588331
 20
411.78047524854571
 30
0.0
 11
143.2876853588331
 21
274.28047524854583
 31
0.0
  0
LINE
  5
AE34
  8
DANMEN
  6
CONTINUOUS
 10
147.2876853588331
 20
411.78047524854571
 30
0.0
 11
147.2876853588331
 21
274.28047524854583
 31
0.0
  0
LINE
  5
AE35
  8
DANMEN
  6
CONTINUOUS
 10
131.7876853588331
 20
411.78047524854571
 30
0.0
 11
147.7876853588331
 21
411.78047524854571
 31
0.0
  0
LINE
  5
AE36
  8
DANMEN
  6
CONTINUOUS
 10
136.7876853588331
 20
405.78047524854571
 30
0.0
 11
142.7876853588331
 21
405.78047524854571
 31
0.0
  0
LINE
  5
AE37
  8
DANMEN
  6
CONTINUOUS
 10
136.7876803588332
 20
411.78048924854568
 30
0.0
 11
142.7876863588331
 21
405.78048324854569
 31
0.0
  0
LINE
  5
AE38
  8
DANMEN
  6
CONTINUOUS
 10
142.7876753588331
 20
411.78047824854582
 30
0.0
 11
136.7876803588332
 21
405.78048324854569
 31
0.0
  0
LINE
  5
AE39
  8
DANMEN
  6
CONTINUOUS
 10
454.78768535883319
 20
322.78047524854583
 30
0.0
 11
472.78768535883307
 21
322.78047524854583
 31
0.0
  0
LINE
  5
AE3A
  8
DANMEN
  6
CONTINUOUS
 10
454.78768535883319
 20
381.78047524854583
 30
0.0
 11
472.78768535883307
 21
381.78047524854583
 31
0.0
  0
LINE
  5
AE3B
  8
DANMEN
  6
CONTINUOUS
 10
350.78768535883319
 20
417.78047524854571
 30
0.0
 11
472.78768535883307
 21
417.78047524854571
 31
0.0
  0
LINE
  5
AE3C
  8
DANMEN
  6
CONTINUOUS
 10
454.78768535883319
 20
413.78047524854571
 30
0.0
 11
472.78768535883307
 21
413.78047524854571
 31
0.0
  0
LINE
  5
AE3D
  8
DANMEN
  6
CONTINUOUS
 10
454.78768535883319
 20
411.78047524854571
 30
0.0
 11
472.78768535883307
 21
411.78047524854571
 31
0.0
  0
LINE
  5
AE3E
  8
DANMEN
  6
CONTINUOUS
 10
454.78768535883319
 20
328.28047524854583
 30
0.0
 11
472.78768535883307
 21
328.28047524854583
 31
0.0
  0
LINE
  5
AE3F
  8
DANMEN
  6
CONTINUOUS
 10
454.78768535883319
 20
356.78047524854583
 30
0.0
 11
472.78768535883307
 21
356.78047524854583
 31
0.0
  0
LINE
  5
AE40
  8
DANMEN
  6
CONTINUOUS
 10
414.78768535883307
 20
217.7804752485458
 30
0.0
 11
494.78768535883319
 21
217.7804752485458
 31
0.0
  0
LINE
  5
AE41
  8
DANMEN
  6
CONTINUOUS
 10
414.78768535883307
 20
213.7804752485458
 30
0.0
 11
494.78768535883319
 21
213.7804752485458
 31
0.0
  0
LINE
  5
AE42
  8
DANMEN
  6
CONTINUOUS
 10
414.78768535883307
 20
211.7804752485458
 30
0.0
 11
494.78768535883319
 21
211.7804752485458
 31
0.0
  0
LINE
  5
AE43
  8
DANMEN
  6
CONTINUOUS
 10
414.78768535883307
 20
181.7804752485458
 30
0.0
 11
494.78768535883319
 21
181.7804752485458
 31
0.0
  0
LINE
  5
AE44
  8
DANMEN
  6
CONTINUOUS
 10
414.78768535883307
 20
156.7804752485458
 30
0.0
 11
494.78768535883319
 21
156.7804752485458
 31
0.0
  0
LINE
  5
AE45
  8
DANMEN
  6
CONTINUOUS
 10
414.78768535883307
 20
128.2804752485458
 30
0.0
 11
494.78768535883319
 21
128.2804752485458
 31
0.0
  0
LINE
  5
AE46
  8
DANMEN
  6
CONTINUOUS
 10
414.78768535883307
 20
122.7804752485458
 30
0.0
 11
494.78768535883319
 21
122.7804752485458
 31
0.0
  0
LINE
  5
AE47
  8
DANMEN
  6
CONTINUOUS
 10
414.78768535883307
 20
117.7804752485458
 30
0.0
 11
514.78768535883307
 21
117.7804752485458
 31
0.0
  0
LINE
  5
AE48
  8
DANMEN
  6
CONTINUOUS
 10
439.78768535883307
 20
404.78047524854583
 30
0.0
 11
472.78768535883307
 21
404.78047524854583
 31
0.0
  0
LINE
  5
AE49
  8
DANMEN
  6
CONTINUOUS
 10
414.78768535883307
 20
204.7804752485458
 30
0.0
 11
509.78768535883307
 21
204.7804752485458
 31
0.0
  0
LINE
  5
AE4A
  8
DANMEN
  6
CONTINUOUS
 10
414.78768535883307
 20
199.7804752485458
 30
0.0
 11
509.78768535883307
 21
199.7804752485458
 31
0.0
  0
LINE
  5
AE4B
  8
DANMEN
  6
CONTINUOUS
 10
439.78768535883307
 20
399.78047524854583
 30
0.0
 11
472.78768535883307
 21
399.78047524854583
 31
0.0
  0
LINE
  5
AE4C
  8
DANMEN
  6
CONTINUOUS
 10
439.78768535883307
 20
393.78047524854583
 30
0.0
 11
472.78768535883307
 21
393.78047524854583
 31
0.0
  0
LINE
  5
AE4D
  8
DANMEN
  6
CONTINUOUS
 10
414.78768535883307
 20
193.7804752485458
 30
0.0
 11
509.78768535883307
 21
193.7804752485458
 31
0.0
  0
LINE
  5
AE4E
  8
DANMEN
  6
CONTINUOUS
 10
414.78768535883307
 20
188.7804752485458
 30
0.0
 11
509.78768535883307
 21
188.7804752485458
 31
0.0
  0
LINE
  5
AE4F
  8
DANMEN
  6
CONTINUOUS
 10
439.78768535883307
 20
388.78047524854571
 30
0.0
 11
472.78768535883307
 21
388.78047524854571
 31
0.0
  0
LINE
  5
AE50
  8
DANMEN
  6
CONTINUOUS
 10
439.78768535883307
 20
389.28047524854583
 30
0.0
 11
472.78768535883307
 21
389.28047524854583
 31
0.0
  0
LINE
  5
AE51
  8
DANMEN
  6
CONTINUOUS
 10
414.78768535883307
 20
189.2804752485458
 30
0.0
 11
509.78768535883307
 21
189.2804752485458
 31
0.0
  0
LINE
  5
AE52
  8
DANMEN
  6
CONTINUOUS
 10
414.78768535883307
 20
193.2804752485458
 30
0.0
 11
509.78768535883307
 21
193.2804752485458
 31
0.0
  0
LINE
  5
AE53
  8
DANMEN
  6
CONTINUOUS
 10
439.78768535883307
 20
393.28047524854583
 30
0.0
 11
472.78768535883307
 21
393.28047524854583
 31
0.0
  0
LINE
  5
AE54
  8
DANMEN
  6
CONTINUOUS
 10
439.78768535883307
 20
400.28047524854583
 30
0.0
 11
472.78768535883307
 21
400.28047524854583
 31
0.0
  0
LINE
  5
AE55
  8
DANMEN
  6
CONTINUOUS
 10
439.78768535883307
 20
404.28047524854583
 30
0.0
 11
472.78768535883307
 21
404.28047524854583
 31
0.0
  0
LINE
  5
AE56
  8
DANMEN
  6
CONTINUOUS
 10
414.78768535883307
 20
204.2804752485458
 30
0.0
 11
509.78768535883307
 21
204.2804752485458
 31
0.0
  0
LINE
  5
AE57
  8
DANMEN
  6
CONTINUOUS
 10
414.78768535883307
 20
200.2804752485458
 30
0.0
 11
509.78768535883307
 21
200.2804752485458
 31
0.0
  0
LINE
  5
AE58
  8
DANMEN
  6
CONTINUOUS
 10
509.78768535883307
 20
204.7804752485458
 30
0.0
 11
509.78768535883307
 21
188.7804752485458
 31
0.0
  0
LINE
  5
AE59
  8
DANMEN
  6
CONTINUOUS
 10
439.78768535883307
 20
404.78047524854583
 30
0.0
 11
439.78768535883307
 21
388.78047524854571
 31
0.0
  0
LINE
  5
AE5A
  8
DANMEN
  6
CONTINUOUS
 10
445.78768535883319
 20
399.78047524854583
 30
0.0
 11
445.78768535883319
 21
393.78047524854583
 31
0.0
  0
LINE
  5
AE5B
  8
DANMEN
  6
CONTINUOUS
 10
503.78768535883319
 20
199.7804752485458
 30
0.0
 11
503.78768535883319
 21
193.7804752485458
 31
0.0
  0
LINE
  5
AE5C
  8
DANMEN
  6
CONTINUOUS
 10
509.78768935883312
 20
193.78048124854581
 30
0.0
 11
503.78768335883319
 21
199.78048824854579
 31
0.0
  0
LINE
  5
AE5D
  8
DANMEN
  6
CONTINUOUS
 10
509.78768935883312
 20
199.78048824854579
 30
0.0
 11
503.78768335883319
 21
193.78048124854581
 31
0.0
  0
LINE
  5
AE5E
  8
DANMEN
  6
CONTINUOUS
 10
445.78768635883318
 20
399.78048824854568
 30
0.0
 11
439.78769035883312
 21
393.78049224854578
 31
0.0
  0
LINE
  5
AE5F
  8
DANMEN
  6
CONTINUOUS
 10
445.78768635883318
 20
393.7804812485457
 30
0.0
 11
439.78769035883312
 21
399.78047724854582
 31
0.0
  0
LINE
  5
AE60
  8
DANMEN
  6
CONTINUOUS
 10
118.7876853588331
 20
263.28047524854583
 30
0.0
 11
118.7876853588331
 21
92.780475248545827
 31
0.0
  0
LINE
  5
AE61
  8
DANMEN
  6
CONTINUOUS
 10
124.7876853588332
 20
263.28047524854583
 30
0.0
 11
124.7876853588332
 21
137.7804752485458
 31
0.0
  0
LINE
  5
AE62
  8
DANMEN
  6
CONTINUOUS
 10
131.7876853588331
 20
263.28047524854583
 30
0.0
 11
131.7876853588331
 21
122.7804752485458
 31
0.0
  0
LINE
  5
AE63
  8
DANMEN
  6
CONTINUOUS
 10
132.2876853588333
 20
263.28047524854583
 30
0.0
 11
132.2876853588333
 21
122.7804752485458
 31
0.0
  0
LINE
  5
AE64
  8
DANMEN
  6
CONTINUOUS
 10
136.2876853588331
 20
263.28047524854583
 30
0.0
 11
136.2876853588331
 21
122.7804752485458
 31
0.0
  0
LINE
  5
AE65
  8
DANMEN
  6
CONTINUOUS
 10
136.7876853588331
 20
263.28047524854583
 30
0.0
 11
136.7876853588331
 21
122.7804752485458
 31
0.0
  0
LINE
  5
AE66
  8
DANMEN
  6
CONTINUOUS
 10
142.7876853588331
 20
263.28047524854583
 30
0.0
 11
142.7876853588331
 21
122.7804752485458
 31
0.0
  0
LINE
  5
AE67
  8
DANMEN
  6
CONTINUOUS
 10
143.2876853588331
 20
263.28047524854583
 30
0.0
 11
143.2876853588331
 21
122.7804752485458
 31
0.0
  0
LINE
  5
AE68
  8
DANMEN
  6
CONTINUOUS
 10
147.2876853588331
 20
263.28047524854583
 30
0.0
 11
147.2876853588331
 21
122.7804752485458
 31
0.0
  0
LINE
  5
AE69
  8
DANMEN
  6
CONTINUOUS
 10
147.7876853588331
 20
263.28047524854583
 30
0.0
 11
147.7876853588331
 21
122.7804752485458
 31
0.0
  0
LINE
  5
AE6A
  8
DANMEN
  6
CONTINUOUS
 10
154.7876853588331
 20
263.28047524854583
 30
0.0
 11
154.7876853588331
 21
137.7804752485458
 31
0.0
  0
LINE
  5
AE6B
  8
DANMEN
  6
CONTINUOUS
 10
213.7876853588331
 20
263.28047524854583
 30
0.0
 11
213.7876853588331
 21
137.7804752485458
 31
0.0
  0
LINE
  5
AE6C
  8
DANMEN
  6
CONTINUOUS
 10
218.7876853588331
 20
263.28047524854583
 30
0.0
 11
218.7876853588331
 21
137.7804752485458
 31
0.0
  0
LINE
  5
AE6D
  8
SUNPO
  6
CONTINUOUS
 10
235.78768535883319
 20
390.78047524854571
 30
0.0
 11
235.78768535883319
 21
284.28047524854583
 31
0.0
  0
LINE
  5
AE6E
  8
SUNPO
  6
CONTINUOUS
 10
235.78768635883321
 20
137.7804742485458
 30
0.0
 11
241.7876923588332
 21
143.78048224854581
 31
0.0
  0
LINE
  5
AE6F
  8
SUNPO
  6
CONTINUOUS
 10
229.78768335883319
 20
143.78047824854579
 30
0.0
 11
235.78768535883319
 21
137.7804762485458
 31
0.0
  0
LINE
  5
AE70
  8
SUNPO
  6
CONTINUOUS
 10
229.78767235883311
 20
390.78047124854578
 30
0.0
 11
235.7876793588332
 21
396.78047724854571
 31
0.0
  0
LINE
  5
AE71
  8
SUNPO
  6
CONTINUOUS
 10
235.78768435883319
 20
396.7804582485457
 30
0.0
 11
241.7876803588332
 21
390.7804622485458
 31
0.0
  0
LINE
  5
AE72
  8
DANMEN
  6
CONTINUOUS
 10
412.78768535883319
 20
410.78047524854583
 30
0.0
 11
426.78768535883307
 21
410.78047524854583
 31
0.0
  0
LINE
  5
AE73
  8
SUNPO
  6
CONTINUOUS
 10
494.78768235883308
 20
80.780472248545834
 30
0.0
 11
488.78768635883301
 21
86.780467248545847
 31
0.0
  0
LINE
  5
AE74
  8
SUNPO
  6
CONTINUOUS
 10
494.7876973588331
 20
80.780461248545805
 30
0.0
 11
488.78769035883312
 21
74.780454248545823
 31
0.0
  0
LINE
  5
AE75
  8
SUNPO
  6
CONTINUOUS
 10
434.28768535883307
 20
80.780475248545827
 30
0.0
 11
494.78768535883319
 21
80.780475248545827
 31
0.0
  0
LINE
  5
AE76
  8
SUNPO
  6
CONTINUOUS
 10
488.78768535883307
 20
86.780475248545827
 30
0.0
 11
488.78768535883307
 21
74.780460248545822
 31
0.0
  0
LINE
  5
AE77
  8
SUNPO
  6
CONTINUOUS
 10
241.7876853588331
 20
390.78047524854571
 30
0.0
 11
229.78768535883319
 21
390.78047524854571
 31
0.0
  0
LINE
  5
AE78
  8
SUNPO
  6
CONTINUOUS
 10
241.7876853588331
 20
143.7804752485458
 30
0.0
 11
229.78768535883319
 21
143.7804752485458
 31
0.0
  0
LINE
  5
AE79
  8
SUNPO
  6
CONTINUOUS
 10
235.78768535883319
 20
258.28047524854583
 30
0.0
 11
235.7876853588331
 21
132.7804752485458
 31
0.0
  0
LINE
  5
AE7A
  8
DANMEN
  6
CONTINUOUS
 10
208.2876853588331
 20
137.7804752485458
 30
0.0
 11
208.2876853588331
 21
132.7804752485458
 31
0.0
  0
LINE
  5
AE7B
  8
DANMEN
  6
CONTINUOUS
 10
208.28769035883309
 20
137.7804762485458
 30
0.0
 11
179.78769035883309
 21
132.78047724854579
 31
0.0
  0
LINE
  5
AE7C
  8
DANMEN
  6
CONTINUOUS
 10
412.78768535883319
 20
395.78047524854583
 30
0.0
 11
426.78768535883307
 21
395.78047524854583
 31
0.0
  0
LINE
  5
AE7D
  8
DANMEN
  6
CONTINUOUS
 10
412.78768535883319
 20
391.28047524854583
 30
0.0
 11
426.78768535883307
 21
391.28047524854583
 31
0.0
  0
LINE
  5
AE7E
  8
DANMEN
  6
CONTINUOUS
 10
412.78768535883319
 20
374.78047524854583
 30
0.0
 11
426.78768535883307
 21
374.78047524854583
 31
0.0
  0
LINE
  5
AE7F
  8
DANMEN
  6
CONTINUOUS
 10
514.78768535883307
 20
181.7804752485458
 30
0.0
 11
514.78768535883307
 21
156.7804752485458
 31
0.0
  0
LINE
  5
AE80
  8
DANMEN
  6
CONTINUOUS
 10
496.28768535883319
 20
128.2804752485458
 30
0.0
 11
514.78768535883307
 21
128.2804752485458
 31
0.0
  0
LINE
  5
AE81
  8
DANMEN
  6
CONTINUOUS
 10
496.28768535883319
 20
156.7804752485458
 30
0.0
 11
514.78768535883307
 21
156.7804752485458
 31
0.0
  0
LINE
  5
AE82
  8
DANMEN
  6
CONTINUOUS
 10
514.78768535883307
 20
128.2804752485458
 30
0.0
 11
514.78768535883307
 21
128.0804782485458
 31
0.0
  0
LINE
  5
AE83
  8
DANMEN
  6
CONTINUOUS
 10
516.48768235883313
 20
122.7804752485458
 30
0.0
 11
520.78768535883319
 21
122.7804752485458
 31
0.0
  0
LINE
  5
AE84
  8
DANMEN
  6
CONTINUOUS
 10
434.78768535883307
 20
381.78049024854579
 30
0.0
 11
434.78768535883307
 21
356.78047524854583
 31
0.0
  0
LINE
  5
AE85
  8
DANMEN
  6
CONTINUOUS
 10
453.28768535883302
 20
328.28047524854583
 30
0.0
 11
434.78768535883307
 21
328.28047524854583
 31
0.0
  0
LINE
  5
AE86
  8
DANMEN
  6
CONTINUOUS
 10
453.28768535883302
 20
356.78047524854583
 30
0.0
 11
434.78768535883307
 21
356.78047524854583
 31
0.0
  0
LINE
  5
AE87
  8
DANMEN
  6
CONTINUOUS
 10
434.78768535883307
 20
328.28047524854583
 30
0.0
 11
434.78768535883307
 21
328.08047824854577
 31
0.0
  0
LINE
  5
AE88
  8
DANMEN
  6
CONTINUOUS
 10
493.78768535883307
 20
156.7804752485458
 30
0.0
 11
493.78768535883307
 21
128.2804752485458
 31
0.0
  0
LINE
  5
AE89
  8
DANMEN
  6
CONTINUOUS
 10
455.78768535883307
 20
356.78047524854583
 30
0.0
 11
455.78768535883307
 21
328.28047524854583
 31
0.0
  0
LINE
  5
AE8A
  8
DANMEN
  6
CONTINUOUS
 10
175.2876853588331
 20
446.78047524854571
 30
0.0
 11
218.7876853588331
 21
446.78047524854571
 31
0.0
  0
LINE
  5
AE8B
  8
DANMEN
  6
CONTINUOUS
 10
218.7876853588331
 20
446.78047524854571
 30
0.0
 11
218.7876853588331
 21
436.78047524854571
 31
0.0
  0
LINE
  5
AE8C
  8
DANMEN
  6
CONTINUOUS
 10
154.7876853588331
 20
396.78047524854583
 30
0.0
 11
154.7876853588331
 21
274.28047524854583
 31
0.0
  0
LINE
  5
AE8D
  8
DANMEN
  6
CONTINUOUS
 10
384.78768535883307
 20
381.78047524854583
 30
0.0
 11
350.78768535883319
 21
381.78047524854583
 31
0.0
  0
LINE
  5
AE8E
  8
DANMEN
  6
CONTINUOUS
 10
384.78768535883307
 20
413.78047524854571
 30
0.0
 11
350.78768535883319
 21
413.78047524854571
 31
0.0
  0
LINE
  5
AE8F
  8
DANMEN
  6
CONTINUOUS
 10
384.78768535883307
 20
411.78047524854571
 30
0.0
 11
350.78768535883319
 21
411.78047524854571
 31
0.0
  0
LINE
  5
AE90
  8
DANMEN
  6
CONTINUOUS
 10
384.78768535883307
 20
328.28047524854583
 30
0.0
 11
350.78768535883319
 21
328.28047524854583
 31
0.0
  0
LINE
  5
AE91
  8
DANMEN
  6
CONTINUOUS
 10
384.78768535883307
 20
356.78047524854583
 30
0.0
 11
350.78768535883319
 21
356.78047524854583
 31
0.0
  0
LINE
  5
AE92
  8
DANMEN
  6
CONTINUOUS
 10
399.78768535883307
 20
404.78047524854583
 30
0.0
 11
350.78768535883319
 21
404.78047524854583
 31
0.0
  0
LINE
  5
AE93
  8
DANMEN
  6
CONTINUOUS
 10
399.78768535883307
 20
399.78047524854583
 30
0.0
 11
350.78768535883319
 21
399.78047524854583
 31
0.0
  0
LINE
  5
AE94
  8
DANMEN
  6
CONTINUOUS
 10
399.78768535883307
 20
393.78047524854583
 30
0.0
 11
350.78768535883319
 21
393.78047524854583
 31
0.0
  0
LINE
  5
AE95
  8
DANMEN
  6
CONTINUOUS
 10
399.78768535883307
 20
388.78047524854571
 30
0.0
 11
350.78768535883319
 21
388.78047524854571
 31
0.0
  0
LINE
  5
AE96
  8
DANMEN
  6
CONTINUOUS
 10
399.78768535883307
 20
389.28047524854583
 30
0.0
 11
350.78768535883319
 21
389.28047524854583
 31
0.0
  0
LINE
  5
AE97
  8
DANMEN
  6
CONTINUOUS
 10
399.78768535883307
 20
393.28047524854583
 30
0.0
 11
350.78768535883319
 21
393.28047524854583
 31
0.0
  0
LINE
  5
AE98
  8
DANMEN
  6
CONTINUOUS
 10
399.78768535883307
 20
400.28047524854583
 30
0.0
 11
350.78768535883319
 21
400.28047524854583
 31
0.0
  0
LINE
  5
AE99
  8
DANMEN
  6
CONTINUOUS
 10
399.78768535883307
 20
404.28047524854583
 30
0.0
 11
350.78768535883319
 21
404.28047524854583
 31
0.0
  0
LINE
  5
AE9A
  8
DANMEN
  6
CONTINUOUS
 10
399.78768535883307
 20
404.78047524854583
 30
0.0
 11
399.78768535883307
 21
388.78047524854571
 31
0.0
  0
LINE
  5
AE9B
  8
DANMEN
  6
CONTINUOUS
 10
393.78768535883319
 20
399.78047524854583
 30
0.0
 11
393.78768535883319
 21
393.78047524854583
 31
0.0
  0
LINE
  5
AE9C
  8
DANMEN
  6
CONTINUOUS
 10
393.78770035883309
 20
399.78048324854581
 30
0.0
 11
399.787691358833
 21
393.78049224854578
 31
0.0
  0
LINE
  5
AE9D
  8
DANMEN
  6
CONTINUOUS
 10
393.7876953588331
 20
393.7804812485457
 30
0.0
 11
399.787691358833
 21
399.78047724854582
 31
0.0
  0
LINE
  5
AE9E
  8
DANMEN
  6
CONTINUOUS
 10
404.78768535883319
 20
381.78049024854579
 30
0.0
 11
404.78768535883319
 21
356.78047524854583
 31
0.0
  0
LINE
  5
AE9F
  8
DANMEN
  6
CONTINUOUS
 10
386.28768535883319
 20
328.28047524854583
 30
0.0
 11
404.78768535883319
 21
328.28047524854583
 31
0.0
  0
LINE
  5
AEA0
  8
DANMEN
  6
CONTINUOUS
 10
386.28768535883319
 20
356.78047524854583
 30
0.0
 11
404.78768535883319
 21
356.78047524854583
 31
0.0
  0
LINE
  5
AEA1
  8
DANMEN
  6
CONTINUOUS
 10
404.78768535883319
 20
328.28047524854583
 30
0.0
 11
404.78768535883319
 21
328.08047824854577
 31
0.0
  0
LINE
  5
AEA2
  8
DANMEN
  6
CONTINUOUS
 10
383.78768535883319
 20
356.78047524854583
 30
0.0
 11
383.78768535883319
 21
328.28047524854583
 31
0.0
  0
LINE
  5
AEA3
  8
DANMEN
  6
CENTER
 10
170.2876853588331
 20
112.97180524854581
 30
0.0
 11
170.2876853588331
 21
96.965503248545843
 31
0.0
  0
ENDSEC
  0
EOF
