  0
SECTION
  2
HEADER
  9
$ACADVER
  1
AC1009
  9
$INSBASE
 10
0.0
 20
0.0
 30
0.0
  9
$EXTMIN
 10
31.524425493660821
 20
28.29526935608077
 30
0.0
  9
$EXTMAX
 10
506.89863881456068
 20
417.87675236086369
 30
0.0
  9
$LIMMIN
 10
0.0
 20
0.0
  9
$LIMMAX
 10
420.0
 20
297.0
  9
$ORTHOMODE
 70
     0
  9
$REGENMODE
 70
     1
  9
$FILLMODE
 70
     1
  9
$QTEXTMODE
 70
     0
  9
$MIRRTEXT
 70
     1
  9
$DRAGMODE
 70
     2
  9
$LTSCALE
 40
1.0
  9
$OSMODE
 70
    39
  9
$ATTMODE
 70
     1
  9
$TEXTSIZE
 40
2.5
  9
$TRACEWID
 40
1.0
  9
$TEXTSTYLE
  7
STANDARD
  9
$CLAYER
  8
0
  9
$CELTYPE
  6
BYLAYER
  9
$CECOLOR
 62
   256
  9
$DIMSCALE
 40
1.0
  9
$DIMASZ
 40
2.5
  9
$DIMEXO
 40
0.625
  9
$DIMDLI
 40
3.75
  9
$DIMRND
 40
0.0
  9
$DIMDLE
 40
0.0
  9
$DIMEXE
 40
1.25
  9
$DIMTP
 40
0.0
  9
$DIMTM
 40
0.0
  9
$DIMTXT
 40
2.5
  9
$DIMCEN
 40
2.5
  9
$DIMTSZ
 40
0.0
  9
$DIMTOL
 70
     0
  9
$DIMLIM
 70
     0
  9
$DIMTIH
 70
     0
  9
$DIMTOH
 70
     0
  9
$DIMSE1
 70
     0
  9
$DIMSE2
 70
     0
  9
$DIMTAD
 70
     1
  9
$DIMZIN
 70
     8
  9
$DIMBLK
  1

  9
$DIMASO
 70
     1
  9
$DIMSHO
 70
     1
  9
$DIMPOST
  1

  9
$DIMAPOST
  1

  9
$DIMALT
 70
     0
  9
$DIMALTD
 70
     3
  9
$DIMALTF
 40
0.03937007874016
  9
$DIMLFAC
 40
1.0
  9
$DIMTOFL
 70
     1
  9
$DIMTVP
 40
0.0
  9
$DIMTIX
 70
     0
  9
$DIMSOXD
 70
     0
  9
$DIMSAH
 70
     0
  9
$DIMBLK1
  1

  9
$DIMBLK2
  1

  9
$DIMSTYLE
  2
ISO-25
  9
$DIMCLRD
 70
     0
  9
$DIMCLRE
 70
     0
  9
$DIMCLRT
 70
     0
  9
$DIMTFAC
 40
1.0
  9
$DIMGAP
 40
0.625
  9
$LUNITS
 70
     2
  9
$LUPREC
 70
     4
  9
$SKETCHINC
 40
1.0
  9
$FILLETRAD
 40
10.0
  9
$AUNITS
 70
     0
  9
$AUPREC
 70
     0
  9
$MENU
  1
.
  9
$ELEVATION
 40
0.0
  9
$PELEVATION
 40
0.0
  9
$THICKNESS
 40
0.0
  9
$LIMCHECK
 70
     0
  9
$BLIPMODE
 70
     0
  9
$CHAMFERA
 40
10.0
  9
$CHAMFERB
 40
10.0
  9
$SKPOLY
 70
     0
  9
$TDCREATE
 40
2456583.6822594791
  9
$TDUPDATE
 40
2456599.5030338541
  9
$TDINDWG
 40
0.0290389815
  9
$TDUSRTIMER
 40
0.0290382523
  9
$USRTIMER
 70
     1
  9
$ANGBASE
 50
0.0
  9
$ANGDIR
 70
     0
  9
$PDMODE
 70
     0
  9
$PDSIZE
 40
0.0
  9
$PLINEWID
 40
0.0
  9
$COORDS
 70
     1
  9
$SPLFRAME
 70
     0
  9
$SPLINETYPE
 70
     6
  9
$SPLINESEGS
 70
     8
  9
$ATTDIA
 70
     0
  9
$ATTREQ
 70
     1
  9
$HANDLING
 70
-16383
  9
$HANDSEED
  5
6250
  9
$SURFTAB1
 70
     6
  9
$SURFTAB2
 70
     6
  9
$SURFTYPE
 70
     6
  9
$SURFU
 70
     6
  9
$SURFV
 70
     6
  9
$UCSNAME
  2

  9
$UCSORG
 10
0.0
 20
0.0
 30
0.0
  9
$UCSXDIR
 10
1.0
 20
0.0
 30
0.0
  9
$UCSYDIR
 10
0.0
 20
1.0
 30
0.0
  9
$PUCSNAME
  2

  9
$PUCSORG
 10
0.0
 20
0.0
 30
0.0
  9
$PUCSXDIR
 10
1.0
 20
0.0
 30
0.0
  9
$PUCSYDIR
 10
0.0
 20
1.0
 30
0.0
  9
$USERI1
 70
     0
  9
$USERI2
 70
     0
  9
$USERI3
 70
     0
  9
$USERI4
 70
     0
  9
$USERI5
 70
     0
  9
$USERR1
 40
0.0
  9
$USERR2
 40
0.0
  9
$USERR3
 40
0.0
  9
$USERR4
 40
0.0
  9
$USERR5
 40
0.0
  9
$WORLDVIEW
 70
     1
  9
$SHADEDGE
 70
     3
  9
$SHADEDIF
 70
    70
  9
$TILEMODE
 70
     1
  9
$MAXACTVP
 70
    64
  9
$PLIMCHECK
 70
     0
  9
$PEXTMIN
 10
1.0000000000000000E+020
 20
1.0000000000000000E+020
 30
1.0000000000000000E+020
  9
$PEXTMAX
 10
-1.0000000000000000E+020
 20
-1.0000000000000000E+020
 30
-1.0000000000000000E+020
  9
$PLIMMIN
 10
0.0
 20
0.0
  9
$PLIMMAX
 10
420.0
 20
297.0
  9
$UNITMODE
 70
     0
  9
$VISRETAIN
 70
     1
  9
$PLINEGEN
 70
     0
  9
$PSLTSCALE
 70
     1
  0
ENDSEC
  0
SECTION
  2
TABLES
  0
TABLE
  2
VPORT
 70
     2
  0
VPORT
  2
*ACTIVE
 70
     0
 10
0.0
 20
0.0
 11
1.0
 21
1.0
 12
300.34998955172318
 22
263.25384126930112
 13
0.0
 23
0.0
 14
10.0
 24
10.0
 15
10.0
 25
10.0
 16
0.0
 26
0.0
 36
1.0
 17
0.0
 27
0.0
 37
0.0
 40
314.31921850117573
 41
2.1906666666666661
 42
50.0
 43
0.0
 44
0.0
 50
0.0
 51
0.0
 71
     0
 72
   100
 73
     1
 74
     3
 75
     0
 76
     0
 77
     0
 78
     0
  0
ENDTAB
  0
TABLE
  2
LTYPE
 70
     4
  0
LTYPE
  2
CONTINUOUS
 70
     0
  3
Solid line
 72
    65
 73
     0
 40
0.0
  0
LTYPE
  2
DASHED
 70
     0
  3
Dashed __ __ __ __ __ __ __ __ __ __ __ __ __ _
 72
    65
 73
     2
 40
19.049999999999962
 49
12.699999999999999
 49
-6.349999999999997
  0
LTYPE
  2
PHANTOM
 70
     0
  3
Phantom ______  __  __  ______  __  __  ______
 72
    65
 73
     6
 40
63.5
 49
31.75
 49
-6.349999999999997
 49
6.349999999999997
 49
-6.349999999999997
 49
6.349999999999997
 49
-6.349999999999997
  0
LTYPE
  2
CENTER
 70
     0
  3
Center ____ _ ____ _ ____ _ ____ _ ____ _ ____
 72
    65
 73
     4
 40
50.799999999999997
 49
31.75
 49
-6.349999999999997
 49
6.349999999999997
 49
-6.349999999999997
  0
ENDTAB
  0
TABLE
  2
LAYER
 70
     4
  0
LAYER
  2
0
 70
     0
 62
     7
  6
CONTINUOUS
  0
LAYER
  2
DANMEN
 70
     0
 62
     7
  6
CONTINUOUS
  0
LAYER
  2
SUNPO
 70
     0
 62
     1
  6
CONTINUOUS
  0
LAYER
  2
WAKU
 70
     0
 62
     3
  6
CONTINUOUS
  0
ENDTAB
  0
TABLE
  2
STYLE
 70
     5
  0
STYLE
  2
STANDARD
 70
     0
 40
0.0
 41
1.0
 50
0.0
 71
     0
 42
2.5
  3
txt
  4

  0
STYLE
  2
MX_NOTE_STANDARD
 70
     0
 40
0.0
 41
1.0
 50
0.0
 71
     0
 42
2.5
  3
txt.shx
  4
extfont.shx
  0
STYLE
  2
MX_DIMTXSTY_2
 70
     0
 40
0.0
 41
1.1999999999999991
 50
0.0
 71
     0
 42
2.5
  3
txt.shx
  4
extfont.shx
  0
STYLE
  2
MX_DIMTXSTY_3
 70
     0
 40
0.0
 41
1.1000000000000001
 50
0.0
 71
     0
 42
2.5
  3
txt.shx
  4
extfont.shx
  0
STYLE
  2
MX_DIMTXSTY_4
 70
     0
 40
0.0
 41
1.3500000000000001
 50
0.0
 71
     0
 42
2.5
  3
txt.shx
  4
extfont.shx
  0
ENDTAB
  0
TABLE
  2
VIEW
 70
     0
  0
ENDTAB
  0
TABLE
  2
UCS
 70
     0
  0
ENDTAB
  0
TABLE
  2
APPID
 70
     1
  0
APPID
  2
ACAD
 70
     0
  0
ENDTAB
  0
TABLE
  2
DIMSTYLE
 70
     2
  0
DIMSTYLE
  2
ISO-25
 70
     0
  3

  4

  5

  6

  7

 40
1.0
 41
2.5
 42
0.625
 43
3.75
 44
1.25
 45
0.0
 46
0.0
 47
0.0
 48
0.0
140
2.5
141
2.5
142
0.0
143
0.03937007874016
144
1.0
145
0.0
146
1.0
147
0.625
 71
     0
 72
     0
 73
     0
 74
     0
 75
     0
 76
     0
 77
     1
 78
     8
170
     0
171
     3
172
     1
173
     0
174
     0
175
     0
176
     0
177
     0
178
     0
  0
DIMSTYLE
  2
MXDIMSTYLE
 70
     0
  3

  4

  5

  6

  7

 40
1.0
 41
2.5
 42
1.5
 43
3.75
 44
0.0
 45
0.0
 46
0.0
 47
0.0
 48
0.0
140
2.5
141
2.5
142
0.0
143
0.03937
144
1.0
145
0.0
146
1.0
147
0.5
 71
     0
 72
     0
 73
     0
 74
     0
 75
     0
 76
     0
 77
     1
 78
     8
170
     0
171
     4
172
     1
173
     1
174
     0
175
     0
176
     0
177
     0
178
     0
  0
ENDTAB
  0
ENDSEC
  0
SECTION
  2
BLOCKS
  0
BLOCK
  8
0
  2
$MODEL_SPACE
 70
     0
 10
0.0
 20
0.0
 30
0.0
  3
$MODEL_SPACE
  1

  0
ENDBLK
  5
526D
  8
0
  0
BLOCK
 67
     1
  8
0
  2
$PAPER_SPACE
 70
     0
 10
0.0
 20
0.0
 30
0.0
  3
$PAPER_SPACE
  1

  0
ENDBLK
  5
5269
 67
     1
  8
0
  0
BLOCK
  8
0
  6
BYBLOCK
 62
     0
  2
_OPEN30
 70
     2
 10
0.0
 20
0.0
 30
0.0
  3
_OPEN30
  1

  0
LINE
  5
5286
  8
0
  6
BYBLOCK
 62
     0
 10
-1.0
 20
0.267949
 30
0.0
 11
0.0
 21
0.0
 31
0.0
  0
LINE
  5
5287
  8
0
  6
BYBLOCK
 62
     0
 10
0.0
 20
0.0
 30
0.0
 11
-1.0
 21
-0.267949
 31
0.0
  0
LINE
  5
5288
  8
0
  6
BYBLOCK
 62
     0
 10
0.0
 20
0.0
 30
0.0
 11
-1.0
 21
0.0
 31
0.0
  0
ENDBLK
  5
5289
  8
0
  6
BYBLOCK
 62
     0
  0
ENDSEC
  0
SECTION
  2
ENTITIES
  0
LINE
  5
528A
  8
WAKU
  6
CONTINUOUS
 10
494.47477787089508
 20
414.85770574567772
 30
0.0
 11
495.10192687089511
 21
416.5807827456776
 31
0.0
  0
LINE
  5
528B
  8
WAKU
  6
CONTINUOUS
 10
493.76923587089539
 20
412.9192447456777
 30
0.0
 11
494.2395968708953
 21
414.2115517456777
 31
0.0
  0
SOLID
  5
528C
  8
WAKU
  6
CONTINUOUS
 10
497.25577287089561
 20
416.5807827456776
 30
0.0
 11
494.41499387089561
 21
411.73462874567758
 31
0.0
 12
494.70798087089508
 22
409.58078274567771
 32
0.0
 13
494.70798087089508
 23
409.58078274567771
 33
0.0
  0
SOLID
  5
528D
  8
WAKU
  6
CONTINUOUS
 10
494.41499387089561
 20
411.73462874567758
 30
0.0
 11
497.25577287089561
 21
416.5807827456776
 31
0.0
 12
496.17884987089508
 22
416.5807827456776
 32
0.0
 13
496.17884987089508
 23
416.5807827456776
 33
0.0
  0
LINE
  5
528E
  8
WAKU
  6
CONTINUOUS
 10
494.41499387089561
 20
411.73462874567758
 30
0.0
 11
496.17884987089508
 21
416.5807827456776
 31
0.0
  0
LINE
  5
528F
  8
WAKU
  6
CONTINUOUS
 10
494.70798087089508
 20
409.58078274567771
 30
0.0
 11
497.25577287089561
 21
416.5807827456776
 31
0.0
  0
LINE
  5
5290
  8
WAKU
  6
CONTINUOUS
 10
496.17884987089508
 20
416.5807827456776
 30
0.0
 11
497.25577287089561
 21
416.5807827456776
 31
0.0
  0
LINE
  5
5291
  8
WAKU
  6
CONTINUOUS
 10
491.87115787089567
 20
416.5807827456776
 30
0.0
 11
491.2440088708953
 21
414.85770574567772
 31
0.0
  0
LINE
  5
5292
  8
WAKU
  6
CONTINUOUS
 10
491.00882787089557
 20
414.2115517456777
 30
0.0
 11
490.5384668708956
 21
412.9192447456777
 31
0.0
  0
LINE
  5
5293
  8
WAKU
  6
CONTINUOUS
 10
489.3233658708956
 20
409.58078274567771
 30
0.0
 11
490.10730187089513
 21
411.73462874567758
 31
0.0
  0
LINE
  5
5294
  8
WAKU
  6
CONTINUOUS
 10
488.05243587089512
 20
414.96539774567742
 30
0.0
 11
489.1293598708948
 21
414.96539774567742
 31
0.0
  0
SOLID
  5
5295
  8
WAKU
  6
CONTINUOUS
 10
487.16951987089539
 20
409.58078274567771
 30
0.0
 11
486.68054887089568
 21
411.196167745678
 31
0.0
 12
483.44977887089561
 22
411.196167745678
 32
0.0
 13
483.44977887089561
 23
411.196167745678
 33
0.0
  0
LINE
  5
5296
  8
WAKU
  6
CONTINUOUS
 10
483.4497788708951
 20
411.1961677456776
 30
0.0
 11
486.68054887089539
 21
411.1961677456776
 31
0.0
  0
SOLID
  5
5297
  8
WAKU
  6
CONTINUOUS
 10
485.11465387089561
 20
412.81155174567812
 30
0.0
 11
485.89858987089542
 21
414.96539774567827
 31
0.0
 12
484.82166687089563
 22
414.96539774567827
 32
0.0
 13
484.82166687089563
 23
414.96539774567827
 33
0.0
  0
LINE
  5
5298
  8
WAKU
  6
CONTINUOUS
 10
485.43773087089562
 20
412.81155174567772
 30
0.0
 11
486.22166687089509
 21
414.96539774567742
 31
0.0
  0
LINE
  5
5299
  8
WAKU
  6
CONTINUOUS
 10
485.11465387089561
 20
412.81155174567772
 30
0.0
 11
485.89858987089502
 21
414.96539774567742
 31
0.0
  0
LINE
  5
529A
  8
WAKU
  6
CONTINUOUS
 10
485.43773087089562
 20
412.81155174567772
 30
0.0
 11
486.51465387089462
 21
412.81155174567772
 31
0.0
  0
LINE
  5
529B
  8
WAKU
  6
CONTINUOUS
 10
484.82166687089563
 20
414.96539774567742
 30
0.0
 11
485.89858987089502
 21
414.96539774567742
 31
0.0
  0
SOLID
  5
529C
  8
WAKU
  6
CONTINUOUS
 10
486.22166687089538
 20
414.96539774567827
 30
0.0
 11
485.43773087089562
 21
412.81155174567812
 31
0.0
 12
487.29858987089511
 22
414.96539774567827
 32
0.0
 13
487.29858987089511
 23
414.96539774567827
 33
0.0
  0
SOLID
  5
529D
  8
WAKU
  6
CONTINUOUS
 10
487.29858987089511
 20
414.96539774567827
 30
0.0
 11
485.43773087089562
 21
412.81155174567812
 31
0.0
 12
486.51465387089559
 22
412.81155174567812
 32
0.0
 13
486.51465387089559
 23
412.81155174567812
 33
0.0
  0
SOLID
  5
529E
  8
WAKU
  6
CONTINUOUS
 10
484.82166687089563
 20
414.96539774567827
 30
0.0
 11
484.03773087089581
 21
412.81155174567812
 31
0.0
 12
485.11465387089561
 22
412.81155174567812
 32
0.0
 13
485.11465387089561
 23
412.81155174567812
 33
0.0
  0
LINE
  5
529F
  8
WAKU
  6
CONTINUOUS
 10
484.03773087089502
 20
412.81155174567772
 30
0.0
 11
484.82166687089563
 21
414.96539774567742
 31
0.0
  0
LINE
  5
52A0
  8
WAKU
  6
CONTINUOUS
 10
484.03773087089502
 20
412.81155174567772
 30
0.0
 11
485.11465387089561
 21
412.81155174567772
 31
0.0
  0
LINE
  5
52A1
  8
WAKU
  6
CONTINUOUS
 10
486.51465387089462
 20
412.81155174567772
 30
0.0
 11
487.29858987089511
 21
414.96539774567742
 31
0.0
  0
LINE
  5
52A2
  8
WAKU
  6
CONTINUOUS
 10
486.22166687089509
 20
414.96539774567742
 30
0.0
 11
487.29858987089511
 21
414.96539774567742
 31
0.0
  0
SOLID
  5
52A3
  8
WAKU
  6
CONTINUOUS
 10
488.05243587089541
 20
414.96539774567827
 30
0.0
 11
486.68054887089568
 21
411.196167745678
 31
0.0
 12
487.16951987089539
 22
409.58078274567771
 32
0.0
 13
487.16951987089539
 23
409.58078274567771
 33
0.0
  0
LINE
  5
52A4
  8
WAKU
  6
CONTINUOUS
 10
486.68054887089539
 20
411.1961677456776
 30
0.0
 11
488.05243587089512
 21
414.96539774567742
 31
0.0
  0
SOLID
  5
52A5
  8
WAKU
  6
CONTINUOUS
 10
489.12935987089583
 20
414.96539774567827
 30
0.0
 11
488.05243587089541
 21
414.96539774567827
 31
0.0
 12
487.16951987089539
 22
409.58078274567771
 32
0.0
 13
487.16951987089539
 23
409.58078274567771
 33
0.0
  0
LINE
  5
52A6
  8
WAKU
  6
CONTINUOUS
 10
487.16951987089539
 20
409.58078274567771
 30
0.0
 11
489.1293598708948
 21
414.96539774567742
 31
0.0
  0
SOLID
  5
52A7
  8
WAKU
  6
CONTINUOUS
 10
482.17884987089508
 20
416.5807827456776
 30
0.0
 11
481.70848787089562
 21
415.28847474567817
 31
0.0
 12
482.78541087089548
 22
415.28847474567817
 32
0.0
 13
482.78541087089548
 23
415.28847474567817
 33
0.0
  0
SOLID
  5
52A8
  8
WAKU
  6
CONTINUOUS
 10
481.70848787089562
 20
415.28847474567817
 30
0.0
 11
482.19745987089561
 21
413.67309074567771
 31
0.0
 12
483.00515187089542
 22
413.67309074567771
 32
0.0
 13
483.00515187089542
 23
413.67309074567771
 33
0.0
  0
LINE
  5
52A9
  8
WAKU
  6
CONTINUOUS
 10
481.70848787089471
 20
415.28847474567772
 30
0.0
 11
482.17884987089508
 21
416.5807827456776
 31
0.0
  0
LINE
  5
52AA
  8
WAKU
  6
CONTINUOUS
 10
482.19745987089539
 20
413.67309074567771
 30
0.0
 11
483.00515187089508
 21
413.67309074567771
 31
0.0
  0
LINE
  5
52AB
  8
WAKU
  6
CONTINUOUS
 10
479.01618087089508
 20
415.28847474567772
 30
0.0
 11
479.48654187089539
 21
416.5807827456776
 31
0.0
  0
LINE
  5
52AC
  8
WAKU
  6
CONTINUOUS
 10
478.40961887089509
 20
416.5807827456776
 30
0.0
 11
479.48654187089539
 21
416.5807827456776
 31
0.0
  0
SOLID
  5
52AD
  8
WAKU
  6
CONTINUOUS
 10
481.12053587089508
 20
413.67309074567771
 30
0.0
 11
480.41499387089561
 21
411.73462874567758
 31
0.0
 12
480.70798087089571
 22
409.58078274567771
 32
0.0
 13
480.70798087089571
 23
409.58078274567771
 33
0.0
  0
LINE
  5
52AE
  8
WAKU
  6
CONTINUOUS
 10
480.41499387089561
 20
411.73462874567758
 30
0.0
 11
481.12053587089503
 21
413.67309074567771
 31
0.0
  0
LINE
  5
52AF
  8
WAKU
  6
CONTINUOUS
 10
478.42822887089523
 20
413.67309074567771
 30
0.0
 11
481.12053587089503
 21
413.67309074567771
 31
0.0
  0
SOLID
  5
52B0
  8
WAKU
  6
CONTINUOUS
 10
482.19745987089561
 20
413.67309074567771
 30
0.0
 11
481.12053587089508
 21
413.67309074567771
 31
0.0
 12
480.70798087089571
 22
409.58078274567771
 32
0.0
 13
480.70798087089571
 23
409.58078274567771
 33
0.0
  0
LINE
  5
52B1
  8
WAKU
  6
CONTINUOUS
 10
480.70798087089531
 20
409.58078274567771
 30
0.0
 11
482.19745987089539
 21
413.67309074567771
 31
0.0
  0
SOLID
  5
52B2
  8
WAKU
  6
CONTINUOUS
 10
482.19745987089561
 20
413.67309074567771
 30
0.0
 11
481.70848787089562
 21
415.28847474567817
 31
0.0
 12
479.0161808708956
 22
415.28847474567817
 32
0.0
 13
479.0161808708956
 23
415.28847474567817
 33
0.0
  0
LINE
  5
52B3
  8
WAKU
  6
CONTINUOUS
 10
479.01618087089508
 20
415.28847474567772
 30
0.0
 11
481.70848787089471
 21
415.28847474567772
 31
0.0
  0
LINE
  5
52B4
  8
WAKU
  6
CONTINUOUS
 10
476.9593378708953
 20
412.59616774567769
 30
0.0
 11
477.3513058708956
 21
413.67309074567771
 31
0.0
  0
LINE
  5
52B5
  8
WAKU
  6
CONTINUOUS
 10
476.9593378708953
 20
412.59616774567769
 30
0.0
 11
478.0362608708956
 21
412.59616774567769
 31
0.0
  0
LINE
  5
52B6
  8
WAKU
  6
CONTINUOUS
 10
475.64644287089448
 20
409.58078274567771
 30
0.0
 11
476.43037887089508
 21
411.73462874567758
 31
0.0
  0
LINE
  5
52B7
  8
WAKU
  6
CONTINUOUS
 10
476.543612870895
 20
413.67309074567771
 30
0.0
 11
477.3513058708956
 21
413.67309074567771
 31
0.0
  0
LINE
  5
52B8
  8
WAKU
  6
CONTINUOUS
 10
477.1315648708956
 20
415.28847474567772
 30
0.0
 11
477.93925787089472
 21
415.28847474567772
 31
0.0
  0
LINE
  5
52B9
  8
WAKU
  6
CONTINUOUS
 10
476.543612870895
 20
413.67309074567771
 30
0.0
 11
477.1315648708956
 21
415.28847474567772
 31
0.0
  0
LINE
  5
52BA
  8
WAKU
  6
CONTINUOUS
 10
475.62862387089513
 20
414.85770574567772
 30
0.0
 11
476.2557728708951
 21
416.5807827456776
 31
0.0
  0
LINE
  5
52BB
  8
WAKU
  6
CONTINUOUS
 10
473.70798087089503
 20
409.58078274567771
 30
0.0
 11
474.49191687089473
 21
411.73462874567758
 31
0.0
  0
SOLID
  5
52BC
  8
WAKU
  6
CONTINUOUS
 10
477.13156487089577
 20
415.28847474567817
 30
0.0
 11
476.54361287089557
 21
413.67309074567771
 31
0.0
 12
479.0161808708956
 22
415.28847474567817
 32
0.0
 13
479.0161808708956
 23
415.28847474567817
 33
0.0
  0
LINE
  5
52BD
  8
WAKU
  6
CONTINUOUS
 10
477.93925787089472
 20
415.28847474567772
 30
0.0
 11
478.40961887089509
 21
416.5807827456776
 31
0.0
  0
SOLID
  5
52BE
  8
WAKU
  6
CONTINUOUS
 10
479.48654187089539
 20
416.5807827456776
 30
0.0
 11
477.93925787089591
 21
415.28847474567817
 31
0.0
 12
479.0161808708956
 22
415.28847474567817
 32
0.0
 13
479.0161808708956
 23
415.28847474567817
 33
0.0
  0
SOLID
  5
52BF
  8
WAKU
  6
CONTINUOUS
 10
477.93925787089591
 20
415.28847474567817
 30
0.0
 11
479.48654187089539
 21
416.5807827456776
 31
0.0
 12
478.40961887089583
 22
416.5807827456776
 32
0.0
 13
478.40961887089583
 23
416.5807827456776
 33
0.0
  0
SOLID
  5
52C0
  8
WAKU
  6
CONTINUOUS
 10
480.70798087089571
 20
409.58078274567771
 30
0.0
 11
480.41499387089561
 21
411.73462874567758
 31
0.0
 12
476.43037887089599
 22
411.73462874567758
 32
0.0
 13
476.43037887089599
 23
411.73462874567758
 33
0.0
  0
SOLID
  5
52C1
  8
WAKU
  6
CONTINUOUS
 10
476.43037887089599
 20
411.73462874567758
 30
0.0
 11
475.64644287089561
 21
409.58078274567771
 31
0.0
 12
480.70798087089571
 22
409.58078274567771
 32
0.0
 13
480.70798087089571
 23
409.58078274567771
 33
0.0
  0
LINE
  5
52C2
  8
WAKU
  6
CONTINUOUS
 10
475.64644287089448
 20
409.58078274567771
 30
0.0
 11
480.70798087089531
 21
409.58078274567771
 31
0.0
  0
SOLID
  5
52C3
  8
WAKU
  6
CONTINUOUS
 10
476.54361287089557
 20
413.67309074567771
 30
0.0
 11
478.42822887089568
 21
413.67309074567771
 31
0.0
 12
481.12053587089508
 22
413.67309074567771
 32
0.0
 13
481.12053587089508
 23
413.67309074567771
 33
0.0
  0
SOLID
  5
52C4
  8
WAKU
  6
CONTINUOUS
 10
479.0161808708956
 20
415.28847474567817
 30
0.0
 11
476.54361287089557
 21
413.67309074567771
 31
0.0
 12
482.19745987089561
 22
413.67309074567771
 32
0.0
 13
482.19745987089561
 23
413.67309074567771
 33
0.0
  0
SOLID
  5
52C5
  8
WAKU
  6
CONTINUOUS
 10
482.19745987089561
 20
413.67309074567771
 30
0.0
 11
476.54361287089557
 21
413.67309074567771
 31
0.0
 12
481.12053587089508
 22
413.67309074567771
 32
0.0
 13
481.12053587089508
 23
413.67309074567771
 33
0.0
  0
SOLID
  5
52C6
  8
WAKU
  6
CONTINUOUS
 10
477.3513058708956
 20
413.67309074567771
 30
0.0
 11
476.9593378708953
 21
412.5961677456782
 31
0.0
 12
478.42822887089568
 22
413.67309074567771
 32
0.0
 13
478.42822887089568
 23
413.67309074567771
 33
0.0
  0
SOLID
  5
52C7
  8
WAKU
  6
CONTINUOUS
 10
478.42822887089568
 20
413.67309074567771
 30
0.0
 11
476.9593378708953
 21
412.5961677456782
 31
0.0
 12
478.0362608708956
 22
412.5961677456782
 32
0.0
 13
478.0362608708956
 23
412.5961677456782
 33
0.0
  0
LINE
  5
52C8
  8
WAKU
  6
CONTINUOUS
 10
478.0362608708956
 20
412.59616774567769
 30
0.0
 11
478.42822887089523
 21
413.67309074567771
 31
0.0
  0
LINE
  5
52C9
  8
WAKU
  6
CONTINUOUS
 10
476.43037887089508
 20
411.73462874567758
 30
0.0
 11
480.41499387089561
 21
411.73462874567758
 31
0.0
  0
SOLID
  5
52CA
  8
WAKU
  6
CONTINUOUS
 10
476.54361287089557
 20
413.67309074567771
 30
0.0
 11
477.3513058708956
 21
413.67309074567771
 31
0.0
 12
478.42822887089568
 22
413.67309074567771
 32
0.0
 13
478.42822887089568
 23
413.67309074567771
 33
0.0
  0
SOLID
  5
52CB
  8
WAKU
  6
CONTINUOUS
 10
479.0161808708956
 20
415.28847474567817
 30
0.0
 11
477.93925787089591
 21
415.28847474567817
 31
0.0
 12
477.13156487089577
 22
415.28847474567817
 32
0.0
 13
477.13156487089577
 23
415.28847474567817
 33
0.0
  0
SOLID
  5
52CC
  8
WAKU
  6
CONTINUOUS
 10
483.44977887089561
 20
411.196167745678
 30
0.0
 11
482.86182787089592
 21
409.58078274567771
 31
0.0
 12
487.16951987089539
 22
409.58078274567771
 32
0.0
 13
487.16951987089539
 23
409.58078274567771
 33
0.0
  0
LINE
  5
52CD
  8
WAKU
  6
CONTINUOUS
 10
482.86182787089592
 20
409.58078274567771
 30
0.0
 11
487.16951987089539
 21
409.58078274567771
 31
0.0
  0
SOLID
  5
52CE
  8
WAKU
  6
CONTINUOUS
 10
482.78541087089548
 20
415.28847474567817
 30
0.0
 11
481.70848787089562
 21
415.28847474567817
 31
0.0
 12
483.59310387089562
 22
415.28847474567817
 32
0.0
 13
483.59310387089562
 23
415.28847474567817
 33
0.0
  0
SOLID
  5
52CF
  8
WAKU
  6
CONTINUOUS
 10
483.59310387089562
 20
415.28847474567817
 30
0.0
 11
481.70848787089562
 21
415.28847474567817
 31
0.0
 12
483.00515187089542
 22
413.67309074567771
 32
0.0
 13
483.00515187089542
 23
413.67309074567771
 33
0.0
  0
LINE
  5
52D0
  8
WAKU
  6
CONTINUOUS
 10
482.86182787089592
 20
409.58078274567771
 30
0.0
 11
483.4497788708951
 21
411.1961677456776
 31
0.0
  0
SOLID
  5
52D1
  8
WAKU
  6
CONTINUOUS
 10
483.25577287089538
 20
416.5807827456776
 30
0.0
 11
482.17884987089508
 21
416.5807827456776
 31
0.0
 12
482.78541087089548
 22
415.28847474567817
 32
0.0
 13
482.78541087089548
 23
415.28847474567817
 33
0.0
  0
LINE
  5
52D2
  8
WAKU
  6
CONTINUOUS
 10
482.17884987089508
 20
416.5807827456776
 30
0.0
 11
483.25577287089448
 21
416.5807827456776
 31
0.0
  0
LINE
  5
52D3
  8
WAKU
  6
CONTINUOUS
 10
482.78541087089548
 20
415.28847474567772
 30
0.0
 11
483.25577287089448
 21
416.5807827456776
 31
0.0
  0
LINE
  5
52D4
  8
WAKU
  6
CONTINUOUS
 10
482.78541087089548
 20
415.28847474567772
 30
0.0
 11
483.59310387089562
 21
415.28847474567772
 31
0.0
  0
LINE
  5
52D5
  8
WAKU
  6
CONTINUOUS
 10
483.00515187089508
 20
413.67309074567771
 30
0.0
 11
483.59310387089562
 21
415.28847474567772
 31
0.0
  0
LINE
  5
52D6
  8
WAKU
  6
CONTINUOUS
 10
470.2440088708953
 20
414.85770574567772
 30
0.0
 11
470.87115787089562
 21
416.5807827456776
 31
0.0
  0
LINE
  5
52D7
  8
WAKU
  6
CONTINUOUS
 10
468.3233658708956
 20
409.58078274567771
 30
0.0
 11
469.10730187089513
 21
411.73462874567758
 31
0.0
  0
LINE
  5
52D8
  8
WAKU
  6
CONTINUOUS
 10
469.5788498708954
 20
416.5807827456776
 30
0.0
 11
468.95170087089451
 21
414.85770574567772
 31
0.0
  0
LINE
  5
52D9
  8
WAKU
  6
CONTINUOUS
 10
466.78062387089511
 20
414.85770574567772
 30
0.0
 11
468.01097787089509
 21
412.27309074567768
 31
0.0
  0
LINE
  5
52DA
  8
WAKU
  6
CONTINUOUS
 10
467.0310578708951
 20
409.58078274567771
 30
0.0
 11
468.01097787089509
 21
412.27309074567768
 31
0.0
  0
SOLID
  5
52DB
  8
WAKU
  6
CONTINUOUS
 10
465.74943987089569
 20
412.27309074567802
 30
0.0
 11
464.65291787089558
 21
412.219244745678
 31
0.0
 12
464.76951987089518
 22
409.58078274567771
 32
0.0
 13
464.76951987089518
 23
409.58078274567771
 33
0.0
  0
LINE
  5
52DC
  8
WAKU
  6
CONTINUOUS
 10
464.76951987089518
 20
409.58078274567771
 30
0.0
 11
465.74943987089512
 21
412.27309074567768
 31
0.0
  0
SOLID
  5
52DD
  8
WAKU
  6
CONTINUOUS
 10
464.65291787089558
 20
412.219244745678
 30
0.0
 11
463.69259687089561
 21
409.58078274567771
 31
0.0
 12
464.76951987089518
 22
409.58078274567771
 32
0.0
 13
464.76951987089518
 23
409.58078274567771
 33
0.0
  0
LINE
  5
52DE
  8
WAKU
  6
CONTINUOUS
 10
463.69259687089561
 20
409.58078274567771
 30
0.0
 11
464.65291787089512
 21
412.219244745678
 31
0.0
  0
LINE
  5
52DF
  8
WAKU
  6
CONTINUOUS
 10
463.69259687089561
 20
409.58078274567771
 30
0.0
 11
464.76951987089518
 21
409.58078274567771
 31
0.0
  0
SOLID
  5
52E0
  8
WAKU
  6
CONTINUOUS
 10
466.78062387089511
 20
414.857705745678
 30
0.0
 11
465.56708587089571
 21
414.857705745678
 31
0.0
 12
465.74943987089569
 22
412.27309074567802
 32
0.0
 13
465.74943987089569
 23
412.27309074567802
 33
0.0
  0
LINE
  5
52E1
  8
WAKU
  6
CONTINUOUS
 10
465.74943987089512
 20
412.27309074567768
 30
0.0
 11
467.0310578708951
 21
409.58078274567771
 31
0.0
  0
SOLID
  5
52E2
  8
WAKU
  6
CONTINUOUS
 10
466.78062387089511
 20
414.857705745678
 30
0.0
 11
465.74943987089569
 21
412.27309074567802
 31
0.0
 12
468.01097787089537
 22
412.27309074567802
 32
0.0
 13
468.01097787089537
 23
412.27309074567802
 33
0.0
  0
SOLID
  5
52E3
  8
WAKU
  6
CONTINUOUS
 10
465.74943987089569
 20
412.27309074567802
 30
0.0
 11
467.03105787089561
 21
409.58078274567771
 31
0.0
 12
468.01097787089537
 22
412.27309074567802
 32
0.0
 13
468.01097787089537
 23
412.27309074567802
 33
0.0
  0
LINE
  5
52E4
  8
WAKU
  6
CONTINUOUS
 10
463.351700870895
 20
414.85770574567772
 30
0.0
 11
465.56708587089503
 21
414.85770574567772
 31
0.0
  0
LINE
  5
52E5
  8
WAKU
  6
CONTINUOUS
 10
463.97884987089509
 20
416.5807827456776
 30
0.0
 11
463.351700870895
 21
414.85770574567772
 31
0.0
  0
SOLID
  5
52E6
  8
WAKU
  6
CONTINUOUS
 10
463.97884987089571
 20
416.5807827456776
 30
0.0
 11
463.35170087089563
 21
414.857705745678
 31
0.0
 12
466.78062387089511
 22
414.857705745678
 32
0.0
 13
466.78062387089511
 23
414.857705745678
 33
0.0
  0
SOLID
  5
52E7
  8
WAKU
  6
CONTINUOUS
 10
466.78062387089511
 20
414.857705745678
 30
0.0
 11
463.35170087089563
 21
414.857705745678
 31
0.0
 12
465.56708587089571
 22
414.857705745678
 32
0.0
 13
465.56708587089571
 23
414.857705745678
 33
0.0
  0
LINE
  5
52E8
  8
WAKU
  6
CONTINUOUS
 10
466.78062387089511
 20
414.85770574567772
 30
0.0
 11
468.95170087089451
 21
414.85770574567772
 31
0.0
  0
SOLID
  5
52E9
  8
WAKU
  6
CONTINUOUS
 10
469.57884987089562
 20
416.5807827456776
 30
0.0
 11
463.97884987089571
 21
416.5807827456776
 31
0.0
 12
468.95170087089531
 22
414.857705745678
 32
0.0
 13
468.95170087089531
 23
414.857705745678
 33
0.0
  0
SOLID
  5
52EA
  8
WAKU
  6
CONTINUOUS
 10
463.97884987089571
 20
416.5807827456776
 30
0.0
 11
466.78062387089511
 21
414.857705745678
 31
0.0
 12
468.95170087089531
 22
414.857705745678
 32
0.0
 13
468.95170087089531
 23
414.857705745678
 33
0.0
  0
LINE
  5
52EB
  8
WAKU
  6
CONTINUOUS
 10
463.97884987089509
 20
416.5807827456776
 30
0.0
 11
469.5788498708954
 21
416.5807827456776
 31
0.0
  0
LINE
  5
52EC
  8
WAKU
  6
CONTINUOUS
 10
461.4310578708953
 20
409.58078274567771
 30
0.0
 11
462.41097787089518
 21
412.27309074567768
 31
0.0
  0
LINE
  5
52ED
  8
WAKU
  6
CONTINUOUS
 10
459.15061587089508
 20
412.86447574567819
 30
0.0
 11
459.4125048708953
 21
413.36581274567772
 31
0.0
  0
SOLID
  5
52EE
  8
WAKU
  6
CONTINUOUS
 10
460.20659987089562
 20
413.67707174567829
 30
0.0
 11
459.81213387089548
 21
413.6506467456777
 31
0.0
 12
460.12175687089558
 22
413.24691674567799
 32
0.0
 13
460.12175687089558
 23
413.24691674567799
 33
0.0
  0
SOLID
  5
52EF
  8
WAKU
  6
CONTINUOUS
 10
459.81213387089548
 20
413.6506467456777
 30
0.0
 11
459.71648287089539
 21
413.25503074567729
 31
0.0
 12
460.12175687089558
 22
413.24691674567799
 32
0.0
 13
460.12175687089558
 23
413.24691674567799
 33
0.0
  0
LINE
  5
52F0
  8
WAKU
  6
CONTINUOUS
 10
460.12175687089518
 20
413.24691674567748
 30
0.0
 11
460.20659987089562
 21
413.67707174567721
 31
0.0
  0
LINE
  5
52F1
  8
WAKU
  6
CONTINUOUS
 10
459.71648287089539
 20
413.25503074567729
 30
0.0
 11
459.81213387089508
 21
413.6506467456768
 31
0.0
  0
SOLID
  5
52F2
  8
WAKU
  6
CONTINUOUS
 10
459.71648287089539
 20
413.25503074567729
 30
0.0
 11
459.52427987089561
 21
412.80006074567802
 31
0.0
 12
460.12175687089558
 22
413.24691674567799
 32
0.0
 13
460.12175687089558
 23
413.24691674567799
 33
0.0
  0
SOLID
  5
52F3
  8
WAKU
  6
CONTINUOUS
 10
460.12175687089558
 20
413.24691674567799
 30
0.0
 11
459.52427987089561
 21
412.80006074567802
 31
0.0
 12
459.94527587089561
 22
412.7776107456782
 32
0.0
 13
459.94527587089561
 23
412.7776107456782
 33
0.0
  0
LINE
  5
52F4
  8
WAKU
  6
CONTINUOUS
 10
459.6836378708951
 20
412.28639174567741
 30
0.0
 11
459.9452758708947
 21
412.77761074567741
 31
0.0
  0
LINE
  5
52F5
  8
WAKU
  6
CONTINUOUS
 10
459.9452758708947
 20
412.77761074567741
 30
0.0
 11
460.12175687089518
 21
413.24691674567748
 31
0.0
  0
LINE
  5
52F6
  8
WAKU
  6
CONTINUOUS
 10
459.52427987089447
 20
412.80006074567802
 30
0.0
 11
459.71648287089539
 21
413.25503074567729
 31
0.0
  0
LINE
  5
52F7
  8
WAKU
  6
CONTINUOUS
 10
458.94610787089471
 20
411.31052674567741
 30
0.0
 11
459.34645387089557
 21
411.79130274567768
 31
0.0
  0
SOLID
  5
52F8
  8
WAKU
  6
CONTINUOUS
 10
459.52427987089561
 20
412.80006074567802
 30
0.0
 11
459.24082287089561
 21
412.31450074567812
 31
0.0
 12
459.94527587089561
 22
412.7776107456782
 32
0.0
 13
459.94527587089561
 23
412.7776107456782
 33
0.0
  0
SOLID
  5
52F9
  8
WAKU
  6
CONTINUOUS
 10
459.94527587089561
 20
412.7776107456782
 30
0.0
 11
459.24082287089561
 21
412.31450074567812
 31
0.0
 12
459.68363787089561
 22
412.28639174567809
 32
0.0
 13
459.68363787089561
 23
412.28639174567809
 33
0.0
  0
LINE
  5
52FA
  8
WAKU
  6
CONTINUOUS
 10
459.34645387089557
 20
411.79130274567768
 30
0.0
 11
459.6836378708951
 21
412.28639174567741
 31
0.0
  0
LINE
  5
52FB
  8
WAKU
  6
CONTINUOUS
 10
459.24082287089561
 20
412.31450074567812
 30
0.0
 11
459.52427987089447
 21
412.80006074567802
 31
0.0
  0
SOLID
  5
52FC
  8
WAKU
  6
CONTINUOUS
 10
460.09238487089573
 20
414.35874974567793
 30
0.0
 11
459.66058287089538
 21
414.27703174567802
 31
0.0
 12
460.19668787089557
 22
414.05227574567829
 32
0.0
 13
460.19668787089557
 23
414.05227574567829
 33
0.0
  0
SOLID
  5
52FD
  8
WAKU
  6
CONTINUOUS
 10
459.66058287089538
 20
414.27703174567802
 30
0.0
 11
459.75872387089561
 21
414.15870074567817
 31
0.0
 12
460.19668787089557
 22
414.05227574567829
 32
0.0
 13
460.19668787089557
 23
414.05227574567829
 33
0.0
  0
SOLID
  5
52FE
  8
WAKU
  6
CONTINUOUS
 10
459.75872387089561
 20
414.15870074567817
 30
0.0
 11
459.81757487089561
 21
413.95803574567771
 31
0.0
 12
460.19668787089557
 22
414.05227574567829
 32
0.0
 13
460.19668787089557
 23
414.05227574567829
 33
0.0
  0
SOLID
  5
52FF
  8
WAKU
  6
CONTINUOUS
 10
460.19668787089557
 20
414.05227574567829
 30
0.0
 11
459.81757487089561
 21
413.95803574567771
 31
0.0
 12
460.20659987089562
 22
413.67707174567829
 32
0.0
 13
460.20659987089562
 23
413.67707174567829
 33
0.0
  0
SOLID
  5
5300
  8
WAKU
  6
CONTINUOUS
 10
459.81757487089561
 20
413.95803574567771
 30
0.0
 11
459.81213387089548
 21
413.6506467456777
 31
0.0
 12
460.20659987089562
 22
413.67707174567829
 32
0.0
 13
460.20659987089562
 23
413.67707174567829
 33
0.0
  0
LINE
  5
5301
  8
WAKU
  6
CONTINUOUS
 10
460.0923848708947
 20
414.35874974567793
 30
0.0
 11
459.89752187089562
 21
414.5852347456775
 31
0.0
  0
LINE
  5
5302
  8
WAKU
  6
CONTINUOUS
 10
460.20659987089562
 20
413.67707174567721
 30
0.0
 11
460.19668787089512
 21
414.05227574567772
 31
0.0
  0
LINE
  5
5303
  8
WAKU
  6
CONTINUOUS
 10
460.19668787089512
 20
414.05227574567772
 30
0.0
 11
460.0923848708947
 21
414.35874974567793
 31
0.0
  0
LINE
  5
5304
  8
WAKU
  6
CONTINUOUS
 10
459.81213387089508
 20
413.6506467456768
 30
0.0
 11
459.81757487089442
 21
413.95803574567771
 31
0.0
  0
LINE
  5
5305
  8
WAKU
  6
CONTINUOUS
 10
459.81757487089442
 20
413.95803574567771
 30
0.0
 11
459.75872387089441
 21
414.15870074567761
 31
0.0
  0
LINE
  5
5306
  8
WAKU
  6
CONTINUOUS
 10
459.75872387089441
 20
414.15870074567761
 30
0.0
 11
459.66058287089442
 21
414.27703174567802
 31
0.0
  0
LINE
  5
5307
  8
WAKU
  6
CONTINUOUS
 10
459.58469787089513
 20
413.84276974567751
 30
0.0
 11
459.66058287089442
 21
414.27703174567802
 31
0.0
  0
LINE
  5
5308
  8
WAKU
  6
CONTINUOUS
 10
459.89752187089562
 20
414.5852347456775
 30
0.0
 11
459.61925687089439
 21
414.72341274567742
 31
0.0
  0
LINE
  5
5309
  8
WAKU
  6
CONTINUOUS
 10
459.61925687089439
 20
414.72341274567742
 30
0.0
 11
459.48107887089532
 21
415.00167774567768
 31
0.0
  0
LINE
  5
530A
  8
WAKU
  6
CONTINUOUS
 10
459.18784387089522
 20
413.87118474567728
 30
0.0
 11
459.27500187089453
 21
414.37935174567758
 31
0.0
  0
LINE
  5
530B
  8
WAKU
  6
CONTINUOUS
 10
459.17271387089539
 20
414.76472674567748
 30
0.0
 11
459.0549208708951
 21
414.8627117456777
 31
0.0
  0
LINE
  5
530C
  8
WAKU
  6
CONTINUOUS
 10
459.25459387089558
 20
415.1965397456778
 30
0.0
 11
458.94812087089502
 21
415.30084274567793
 31
0.0
  0
SOLID
  5
530D
  8
WAKU
  6
CONTINUOUS
 10
459.05492087089539
 20
414.8627117456777
 30
0.0
 11
459.17271387089539
 21
414.76472674567799
 31
0.0
 12
459.61925687089558
 22
414.72341274567742
 32
0.0
 13
459.61925687089558
 23
414.72341274567742
 33
0.0
  0
SOLID
  5
530E
  8
WAKU
  6
CONTINUOUS
 10
459.89752187089562
 20
414.58523474567818
 30
0.0
 11
459.27500187089538
 21
414.37935174567758
 31
0.0
 12
460.09238487089573
 22
414.35874974567793
 32
0.0
 13
460.09238487089573
 23
414.35874974567793
 33
0.0
  0
SOLID
  5
530F
  8
WAKU
  6
CONTINUOUS
 10
459.27500187089538
 20
414.37935174567758
 30
0.0
 11
459.18784387089562
 21
413.87118474567808
 31
0.0
 12
459.66058287089538
 22
414.27703174567802
 32
0.0
 13
459.66058287089538
 23
414.27703174567802
 33
0.0
  0
SOLID
  5
5310
  8
WAKU
  6
CONTINUOUS
 10
459.27500187089538
 20
414.37935174567758
 30
0.0
 11
459.66058287089538
 21
414.27703174567802
 31
0.0
 12
460.09238487089573
 22
414.35874974567793
 32
0.0
 13
460.09238487089573
 23
414.35874974567793
 33
0.0
  0
SOLID
  5
5311
  8
WAKU
  6
CONTINUOUS
 10
459.66058287089538
 20
414.27703174567802
 30
0.0
 11
459.18784387089562
 21
413.87118474567808
 31
0.0
 12
459.5846978708957
 22
413.84276974567808
 32
0.0
 13
459.5846978708957
 23
413.84276974567808
 33
0.0
  0
LINE
  5
5312
  8
WAKU
  6
CONTINUOUS
 10
459.48107887089532
 20
415.00167774567768
 30
0.0
 11
459.25459387089558
 21
415.1965397456778
 31
0.0
  0
LINE
  5
5313
  8
WAKU
  6
CONTINUOUS
 10
459.4125048708953
 20
413.36581274567772
 30
0.0
 11
459.58469787089513
 21
413.84276974567751
 31
0.0
  0
LINE
  5
5314
  8
WAKU
  6
CONTINUOUS
 10
458.73840887089511
 20
414.68879674567768
 30
0.0
 11
458.26141187089507
 21
414.51655074567719
 31
0.0
  0
LINE
  5
5315
  8
WAKU
  6
CONTINUOUS
 10
458.40103887089452
 20
411.86587174567728
 30
0.0
 11
458.80908887089561
 21
412.35801174567769
 31
0.0
  0
LINE
  5
5316
  8
WAKU
  6
CONTINUOUS
 10
458.47601087089453
 20
412.56270274567771
 30
0.0
 11
458.91712587089501
 21
413.240316745678
 31
0.0
  0
LINE
  5
5317
  8
WAKU
  6
CONTINUOUS
 10
458.85376887089512
 20
414.92168474567728
 30
0.0
 11
458.54662987089472
 21
414.91636374567759
 31
0.0
  0
SOLID
  5
5318
  8
WAKU
  6
CONTINUOUS
 10
458.73840887089563
 20
414.68879674567802
 30
0.0
 11
458.26141187089547
 21
414.5165507456777
 31
0.0
 12
459.89752187089562
 22
414.58523474567818
 32
0.0
 13
459.89752187089562
 23
414.58523474567818
 33
0.0
  0
SOLID
  5
5319
  8
WAKU
  6
CONTINUOUS
 10
459.89752187089562
 20
414.58523474567818
 30
0.0
 11
458.26141187089547
 21
414.5165507456777
 31
0.0
 12
459.27500187089538
 22
414.37935174567758
 32
0.0
 13
459.27500187089538
 23
414.37935174567758
 33
0.0
  0
SOLID
  5
531A
  8
WAKU
  6
CONTINUOUS
 10
459.4125048708953
 20
413.36581274567772
 30
0.0
 11
458.91712587089592
 21
413.240316745678
 31
0.0
 12
459.15061587089508
 22
412.86447574567819
 32
0.0
 13
459.15061587089508
 23
412.86447574567819
 33
0.0
  0
SOLID
  5
531B
  8
WAKU
  6
CONTINUOUS
 10
459.18784387089562
 20
413.87118474567808
 30
0.0
 11
458.91712587089592
 21
413.240316745678
 31
0.0
 12
459.5846978708957
 22
413.84276974567808
 32
0.0
 13
459.5846978708957
 23
413.84276974567808
 33
0.0
  0
SOLID
  5
531C
  8
WAKU
  6
CONTINUOUS
 10
459.5846978708957
 20
413.84276974567808
 30
0.0
 11
458.91712587089592
 21
413.240316745678
 31
0.0
 12
459.4125048708953
 22
413.36581274567772
 32
0.0
 13
459.4125048708953
 23
413.36581274567772
 33
0.0
  0
LINE
  5
531D
  8
WAKU
  6
CONTINUOUS
 10
458.91712587089501
 20
413.240316745678
 30
0.0
 11
459.18784387089522
 21
413.87118474567728
 31
0.0
  0
SOLID
  5
531E
  8
WAKU
  6
CONTINUOUS
 10
458.91712587089592
 20
413.240316745678
 30
0.0
 11
458.47601087089538
 21
412.56270274567771
 31
0.0
 12
459.15061587089508
 22
412.86447574567819
 32
0.0
 13
459.15061587089508
 23
412.86447574567819
 33
0.0
  0
SOLID
  5
531F
  8
WAKU
  6
CONTINUOUS
 10
459.15061587089508
 20
412.86447574567819
 30
0.0
 11
458.47601087089538
 21
412.56270274567771
 31
0.0
 12
458.80908887089561
 22
412.35801174567769
 32
0.0
 13
458.80908887089561
 23
412.35801174567769
 33
0.0
  0
SOLID
  5
5320
  8
WAKU
  6
CONTINUOUS
 10
459.34645387089557
 20
411.79130274567802
 30
0.0
 11
458.45173787089561
 21
411.35601474567773
 31
0.0
 12
458.94610787089562
 22
411.3105267456782
 32
0.0
 13
458.94610787089562
 23
411.3105267456782
 33
0.0
  0
LINE
  5
5321
  8
WAKU
  6
CONTINUOUS
 10
458.45173787089448
 20
411.35601474567773
 30
0.0
 11
459.24082287089561
 21
412.31450074567812
 31
0.0
  0
LINE
  5
5322
  8
WAKU
  6
CONTINUOUS
 10
458.49730487089522
 20
410.8617237456773
 30
0.0
 11
458.94610787089471
 21
411.31052674567741
 31
0.0
  0
LINE
  5
5323
  8
WAKU
  6
CONTINUOUS
 10
458.80908887089561
 20
412.35801174567769
 30
0.0
 11
459.15061587089508
 21
412.86447574567819
 31
0.0
  0
SOLID
  5
5324
  8
WAKU
  6
CONTINUOUS
 10
459.24082287089561
 20
412.31450074567812
 30
0.0
 11
458.45173787089561
 21
411.35601474567773
 31
0.0
 12
459.68363787089561
 22
412.28639174567809
 32
0.0
 13
459.68363787089561
 23
412.28639174567809
 33
0.0
  0
SOLID
  5
5325
  8
WAKU
  6
CONTINUOUS
 10
459.68363787089561
 20
412.28639174567809
 30
0.0
 11
458.45173787089561
 21
411.35601474567773
 31
0.0
 12
459.34645387089557
 22
411.79130274567802
 32
0.0
 13
459.34645387089557
 23
411.79130274567802
 33
0.0
  0
LINE
  5
5326
  8
WAKU
  6
CONTINUOUS
 10
459.27500187089453
 20
414.37935174567758
 30
0.0
 11
458.76651087089539
 21
414.2920227456778
 31
0.0
  0
LINE
  5
5327
  8
WAKU
  6
CONTINUOUS
 10
459.17271387089539
 20
414.76472674567748
 30
0.0
 11
458.73840887089511
 21
414.68879674567768
 31
0.0
  0
LINE
  5
5328
  8
WAKU
  6
CONTINUOUS
 10
459.0549208708951
 20
414.8627117456777
 30
0.0
 11
458.85376887089512
 21
414.92168474567728
 31
0.0
  0
LINE
  5
5329
  8
WAKU
  6
CONTINUOUS
 10
458.94812087089502
 20
415.30084274567793
 30
0.0
 11
458.57291587089509
 21
415.3107547456778
 31
0.0
  0
SOLID
  5
532A
  8
WAKU
  6
CONTINUOUS
 10
459.48107887089571
 20
415.00167774567819
 30
0.0
 11
458.85376887089592
 21
414.92168474567819
 31
0.0
 12
459.61925687089558
 22
414.72341274567742
 32
0.0
 13
459.61925687089558
 23
414.72341274567742
 33
0.0
  0
SOLID
  5
532B
  8
WAKU
  6
CONTINUOUS
 10
458.85376887089592
 20
414.92168474567819
 30
0.0
 11
459.05492087089539
 21
414.8627117456777
 31
0.0
 12
459.61925687089558
 22
414.72341274567742
 32
0.0
 13
459.61925687089558
 23
414.72341274567742
 33
0.0
  0
SOLID
  5
532C
  8
WAKU
  6
CONTINUOUS
 10
459.17271387089539
 20
414.76472674567799
 30
0.0
 11
458.73840887089563
 21
414.68879674567802
 31
0.0
 12
459.61925687089558
 22
414.72341274567742
 32
0.0
 13
459.61925687089558
 23
414.72341274567742
 33
0.0
  0
SOLID
  5
532D
  8
WAKU
  6
CONTINUOUS
 10
459.61925687089558
 20
414.72341274567742
 30
0.0
 11
458.73840887089563
 21
414.68879674567802
 31
0.0
 12
459.89752187089562
 22
414.58523474567818
 32
0.0
 13
459.89752187089562
 23
414.58523474567818
 33
0.0
  0
SOLID
  5
532E
  8
WAKU
  6
CONTINUOUS
 10
455.75756787089563
 20
413.60145974567752
 30
0.0
 11
455.35722187089539
 21
413.12068374567798
 31
0.0
 12
456.25187087089569
 22
413.55589074567808
 32
0.0
 13
456.25187087089569
 23
413.55589074567808
 33
0.0
  0
SOLID
  5
532F
  8
WAKU
  6
CONTINUOUS
 10
456.25187087089569
 20
413.55589074567808
 30
0.0
 11
455.35722187089539
 21
413.12068374567798
 31
0.0
 12
455.46280787089557
 22
412.59735274567771
 32
0.0
 13
455.46280787089557
 23
412.59735274567771
 33
0.0
  0
LINE
  5
5330
  8
WAKU
  6
CONTINUOUS
 10
456.25187087089512
 20
413.55589074567729
 30
0.0
 11
455.46280787089472
 21
412.59735274567771
 31
0.0
  0
SOLID
  5
5331
  8
WAKU
  6
CONTINUOUS
 10
456.30249287089578
 20
413.0459567456781
 30
0.0
 11
455.89444387089588
 21
412.55378274567772
 31
0.0
 12
456.80159987089559
 22
413.00567574567771
 32
0.0
 13
456.80159987089559
 23
413.00567574567771
 33
0.0
  0
SOLID
  5
5332
  8
WAKU
  6
CONTINUOUS
 10
456.80159987089559
 20
413.00567574567771
 30
0.0
 11
455.89444387089588
 21
412.55378274567772
 31
0.0
 12
456.2276688708958
 22
412.34925374567808
 32
0.0
 13
456.2276688708958
 23
412.34925374567808
 33
0.0
  0
SOLID
  5
5333
  8
WAKU
  6
CONTINUOUS
 10
455.89444387089588
 20
412.55378274567772
 30
0.0
 11
455.5529288708957
 21
412.0472917456778
 31
0.0
 12
456.2276688708958
 22
412.34925374567808
 32
0.0
 13
456.2276688708958
 23
412.34925374567808
 33
0.0
  0
SOLID
  5
5334
  8
WAKU
  6
CONTINUOUS
 10
456.2276688708958
 20
412.34925374567808
 30
0.0
 11
455.5529288708957
 21
412.0472917456778
 31
0.0
 12
455.78648487089538
 22
411.67165774567809
 32
0.0
 13
455.78648487089538
 23
411.67165774567809
 33
0.0
  0
SOLID
  5
5335
  8
WAKU
  6
CONTINUOUS
 10
456.56803587089581
 20
410.8911147456771
 30
0.0
 11
455.93716787089568
 21
410.61997774567772
 31
0.0
 12
456.94354287089539
 22
410.65732774567817
 32
0.0
 13
456.94354287089539
 23
410.65732774567817
 33
0.0
  0
SOLID
  5
5336
  8
WAKU
  6
CONTINUOUS
 10
456.94354287089539
 20
410.65732774567817
 30
0.0
 11
455.93716787089568
 21
410.61997774567772
 31
0.0
 12
456.4422008708957
 22
410.3954077456782
 32
0.0
 13
456.4422008708957
 23
410.3954077456782
 33
0.0
  0
SOLID
  5
5337
  8
WAKU
  6
CONTINUOUS
 10
455.93716787089568
 20
410.61997774567772
 30
0.0
 11
455.42868387089538
 21
410.53263874567813
 31
0.0
 12
456.4422008708957
 22
410.3954077456782
 32
0.0
 13
456.4422008708957
 23
410.3954077456782
 33
0.0
  0
SOLID
  5
5338
  8
WAKU
  6
CONTINUOUS
 10
455.42868387089538
 20
410.53263874567813
 30
0.0
 11
454.80615387089563
 21
410.32675174567822
 31
0.0
 12
456.4422008708957
 22
410.3954077456782
 32
0.0
 13
456.4422008708957
 23
410.3954077456782
 33
0.0
  0
SOLID
  5
5339
  8
WAKU
  6
CONTINUOUS
 10
456.4422008708957
 20
410.3954077456782
 30
0.0
 11
454.80615387089563
 21
410.32675174567822
 31
0.0
 12
455.96523087089508
 22
410.22317974567801
 32
0.0
 13
455.96523087089508
 23
410.22317974567801
 33
0.0
  0
SOLID
  5
533A
  8
WAKU
  6
CONTINUOUS
 10
454.80615387089563
 20
410.32675174567822
 30
0.0
 11
455.08441887089589
 21
410.18857374567801
 31
0.0
 12
455.96523087089508
 22
410.22317974567801
 32
0.0
 13
455.96523087089508
 23
410.22317974567801
 33
0.0
  0
SOLID
  5
533B
  8
WAKU
  6
CONTINUOUS
 10
455.96523087089508
 20
410.22317974567801
 30
0.0
 11
455.08441887089589
 21
410.18857374567801
 31
0.0
 12
455.5309498708956
 22
410.14725874567807
 32
0.0
 13
455.5309498708956
 23
410.14725874567807
 33
0.0
  0
SOLID
  5
533C
  8
WAKU
  6
CONTINUOUS
 10
456.15706687089562
 20
409.99564574567802
 30
0.0
 11
455.84994987089573
 21
409.99028074567832
 31
0.0
 12
457.03022087089562
 22
409.86255574567809
 32
0.0
 13
457.03022087089562
 23
409.86255574567809
 33
0.0
  0
SOLID
  5
533D
  8
WAKU
  6
CONTINUOUS
 10
455.84994987089573
 20
409.99028074567832
 30
0.0
 11
455.2225968708957
 21
409.91030874567792
 31
0.0
 12
457.03022087089562
 22
409.86255574567809
 32
0.0
 13
457.03022087089562
 23
409.86255574567809
 33
0.0
  0
SOLID
  5
533E
  8
WAKU
  6
CONTINUOUS
 10
455.2225968708957
 20
409.91030874567792
 30
0.0
 11
455.44908187089561
 21
409.7154467456777
 31
0.0
 12
457.03022087089562
 22
409.86255574567809
 32
0.0
 13
457.03022087089562
 23
409.86255574567809
 33
0.0
  0
SOLID
  5
533F
  8
WAKU
  6
CONTINUOUS
 10
457.03022087089562
 20
409.86255574567809
 30
0.0
 11
455.44908187089561
 21
409.7154467456777
 31
0.0
 12
456.5609148708956
 22
409.68607374567802
 32
0.0
 13
456.5609148708956
 23
409.68607374567802
 33
0.0
  0
SOLID
  5
5340
  8
WAKU
  6
CONTINUOUS
 10
455.44908187089561
 20
409.7154467456777
 30
0.0
 11
455.75555487089559
 21
409.61114374567819
 31
0.0
 12
456.5609148708956
 22
409.68607374567802
 32
0.0
 13
456.5609148708956
 23
409.68607374567802
 33
0.0
  0
SOLID
  5
5341
  8
WAKU
  6
CONTINUOUS
 10
456.5609148708956
 20
409.68607374567802
 30
0.0
 11
455.75555487089559
 21
409.61114374567819
 31
0.0
 12
456.13075987089508
 22
409.60123174567792
 32
0.0
 13
456.13075987089508
 23
409.60123174567792
 33
0.0
  0
LINE
  5
5342
  8
WAKU
  6
CONTINUOUS
 10
455.5309498708956
 20
410.1472587456775
 30
0.0
 11
455.96523087089503
 21
410.22317974567801
 31
0.0
  0
LINE
  5
5343
  8
WAKU
  6
CONTINUOUS
 10
455.75555487089508
 20
409.61114374567819
 30
0.0
 11
456.13075987089508
 21
409.60123174567792
 31
0.0
  0
LINE
  5
5344
  8
WAKU
  6
CONTINUOUS
 10
455.93716787089483
 20
410.61997774567772
 30
0.0
 11
456.56803587089507
 21
410.8911147456771
 31
0.0
  0
LINE
  5
5345
  8
WAKU
  6
CONTINUOUS
 10
455.8499498708951
 20
409.99028074567741
 30
0.0
 11
456.15706687089562
 21
409.99564574567768
 31
0.0
  0
LINE
  5
5346
  8
WAKU
  6
CONTINUOUS
 10
456.22766887089512
 20
412.34925374567808
 30
0.0
 11
455.7864848708947
 21
411.67165774567752
 31
0.0
  0
LINE
  5
5347
  8
WAKU
  6
CONTINUOUS
 10
456.30249287089561
 20
413.04595674567759
 30
0.0
 11
455.89444387089532
 21
412.55378274567772
 31
0.0
  0
SOLID
  5
5348
  8
WAKU
  6
CONTINUOUS
 10
456.20637187089562
 20
414.05026274567751
 30
0.0
 11
455.75756787089563
 21
413.60145974567752
 31
0.0
 12
456.25187087089569
 22
413.55589074567808
 32
0.0
 13
456.25187087089569
 23
413.55589074567808
 33
0.0
  0
LINE
  5
5349
  8
WAKU
  6
CONTINUOUS
 10
456.20637187089523
 20
414.05026274567729
 30
0.0
 11
455.75756787089563
 21
413.60145974567752
 31
0.0
  0
LINE
  5
534A
  8
WAKU
  6
CONTINUOUS
 10
455.75756787089563
 20
413.60145974567752
 30
0.0
 11
455.35722187089539
 21
413.1206837456777
 31
0.0
  0
SOLID
  5
534B
  8
WAKU
  6
CONTINUOUS
 10
455.35722187089539
 20
413.12068374567798
 30
0.0
 11
455.02003787089512
 21
412.62559474567809
 31
0.0
 12
455.46280787089557
 22
412.59735274567771
 32
0.0
 13
455.46280787089557
 23
412.59735274567771
 33
0.0
  0
SOLID
  5
534C
  8
WAKU
  6
CONTINUOUS
 10
455.02003787089512
 20
412.62559474567809
 30
0.0
 11
454.75839987089557
 21
412.13437574567752
 31
0.0
 12
455.46280787089557
 22
412.59735274567771
 32
0.0
 13
455.46280787089557
 23
412.59735274567771
 33
0.0
  0
SOLID
  5
534D
  8
WAKU
  6
CONTINUOUS
 10
455.46280787089557
 20
412.59735274567771
 30
0.0
 11
454.75839987089557
 21
412.13437574567752
 31
0.0
 12
455.17929187089538
 22
412.1118107456781
 32
0.0
 13
455.17929187089538
 23
412.1118107456781
 33
0.0
  0
SOLID
  5
534E
  8
WAKU
  6
CONTINUOUS
 10
455.5529288708957
 20
412.0472917456778
 30
0.0
 11
455.29106587089558
 21
411.54593674567798
 31
0.0
 12
455.78648487089538
 22
411.67165774567809
 32
0.0
 13
455.78648487089538
 23
411.67165774567809
 33
0.0
  0
SOLID
  5
534F
  8
WAKU
  6
CONTINUOUS
 10
455.78648487089538
 20
411.67165774567809
 30
0.0
 11
455.29106587089558
 21
411.54593674567798
 31
0.0
 12
455.51594087089558
 22
411.04075174567799
 32
0.0
 13
455.51594087089558
 23
411.04075174567799
 33
0.0
  0
SOLID
  5
5350
  8
WAKU
  6
CONTINUOUS
 10
455.29106587089558
 20
411.54593674567798
 30
0.0
 11
455.1189118708956
 21
411.06897174567769
 31
0.0
 12
455.51594087089558
 22
411.04075174567799
 32
0.0
 13
455.51594087089558
 23
411.04075174567799
 33
0.0
  0
SOLID
  5
5351
  8
WAKU
  6
CONTINUOUS
 10
455.1189118708956
 20
411.06897174567769
 30
0.0
 11
455.04307787089562
 21
410.63471774567802
 31
0.0
 12
455.51594087089558
 22
411.04075174567799
 32
0.0
 13
455.51594087089558
 23
411.04075174567799
 33
0.0
  0
SOLID
  5
5352
  8
WAKU
  6
CONTINUOUS
 10
455.51594087089558
 20
411.04075174567799
 30
0.0
 11
455.04307787089562
 21
410.63471774567802
 31
0.0
 12
455.42868387089538
 22
410.53263874567813
 32
0.0
 13
455.42868387089538
 23
410.53263874567813
 33
0.0
  0
SOLID
  5
5353
  8
WAKU
  6
CONTINUOUS
 10
455.08441887089589
 20
410.18857374567801
 30
0.0
 11
455.2225968708957
 21
409.91030874567792
 31
0.0
 12
455.5309498708956
 22
410.14725874567807
 32
0.0
 13
455.5309498708956
 23
410.14725874567807
 33
0.0
  0
SOLID
  5
5354
  8
WAKU
  6
CONTINUOUS
 10
455.5309498708956
 20
410.14725874567807
 30
0.0
 11
455.2225968708957
 21
409.91030874567792
 31
0.0
 12
455.6486998708956
 22
410.04935074567823
 32
0.0
 13
455.6486998708956
 23
410.04935074567823
 33
0.0
  0
SOLID
  5
5355
  8
WAKU
  6
CONTINUOUS
 10
455.6486998708956
 20
410.04935074567823
 30
0.0
 11
455.2225968708957
 21
409.91030874567792
 31
0.0
 12
455.84994987089573
 22
409.99028074567832
 32
0.0
 13
455.84994987089573
 23
409.99028074567832
 33
0.0
  0
LINE
  5
5356
  8
WAKU
  6
CONTINUOUS
 10
455.55292887089479
 20
412.0472917456778
 30
0.0
 11
455.29106587089518
 21
411.54593674567769
 31
0.0
  0
LINE
  5
5357
  8
WAKU
  6
CONTINUOUS
 10
454.98726287089562
 20
411.65680374567768
 30
0.0
 11
454.89146887089561
 21
411.26118674567761
 31
0.0
  0
LINE
  5
5358
  8
WAKU
  6
CONTINUOUS
 10
455.7864848708947
 20
411.67165774567752
 30
0.0
 11
455.51594087089558
 21
411.0407517456772
 31
0.0
  0
LINE
  5
5359
  8
WAKU
  6
CONTINUOUS
 10
455.51594087089558
 20
411.0407517456772
 30
0.0
 11
455.4286838708951
 21
410.53263874567801
 31
0.0
  0
LINE
  5
535A
  8
WAKU
  6
CONTINUOUS
 10
454.80615387089563
 20
410.32675174567822
 30
0.0
 11
455.08441887089509
 21
410.18857374567727
 31
0.0
  0
LINE
  5
535B
  8
WAKU
  6
CONTINUOUS
 10
455.08441887089509
 20
410.18857374567727
 30
0.0
 11
455.2225968708953
 21
409.91030874567792
 31
0.0
  0
LINE
  5
535C
  8
WAKU
  6
CONTINUOUS
 10
455.2225968708953
 20
409.91030874567792
 30
0.0
 11
455.44908187089538
 21
409.7154467456777
 31
0.0
  0
LINE
  5
535D
  8
WAKU
  6
CONTINUOUS
 10
455.44908187089538
 20
409.7154467456777
 30
0.0
 11
455.75555487089508
 21
409.61114374567819
 31
0.0
  0
LINE
  5
535E
  8
WAKU
  6
CONTINUOUS
 10
455.29106587089518
 20
411.54593674567769
 30
0.0
 11
455.1189118708956
 21
411.06897174567769
 31
0.0
  0
LINE
  5
535F
  8
WAKU
  6
CONTINUOUS
 10
455.1189118708956
 20
411.06897174567769
 30
0.0
 11
455.04307787089562
 21
410.63471774567751
 31
0.0
  0
LINE
  5
5360
  8
WAKU
  6
CONTINUOUS
 10
455.4286838708951
 20
410.53263874567801
 30
0.0
 11
455.93716787089483
 21
410.61997774567772
 31
0.0
  0
LINE
  5
5361
  8
WAKU
  6
CONTINUOUS
 10
454.89146887089561
 20
411.26118674567761
 30
0.0
 11
454.88613087089448
 21
410.9538697456772
 31
0.0
  0
LINE
  5
5362
  8
WAKU
  6
CONTINUOUS
 10
454.88613087089448
 20
410.9538697456772
 30
0.0
 11
454.94492787089558
 21
410.75321774567772
 31
0.0
  0
LINE
  5
5363
  8
WAKU
  6
CONTINUOUS
 10
454.94492787089558
 20
410.75321774567772
 30
0.0
 11
455.04307787089562
 21
410.63471774567751
 31
0.0
  0
LINE
  5
5364
  8
WAKU
  6
CONTINUOUS
 10
455.5309498708956
 20
410.1472587456775
 30
0.0
 11
455.6486998708956
 21
410.04935074567823
 31
0.0
  0
LINE
  5
5365
  8
WAKU
  6
CONTINUOUS
 10
455.6486998708956
 20
410.04935074567823
 30
0.0
 11
455.8499498708951
 21
409.99028074567741
 31
0.0
  0
LINE
  5
5366
  8
WAKU
  6
CONTINUOUS
 10
455.89444387089532
 20
412.55378274567772
 30
0.0
 11
455.55292887089479
 21
412.0472917456778
 31
0.0
  0
LINE
  5
5367
  8
WAKU
  6
CONTINUOUS
 10
455.46280787089472
 20
412.59735274567771
 30
0.0
 11
455.17929187089447
 21
412.1118107456781
 31
0.0
  0
LINE
  5
5368
  8
WAKU
  6
CONTINUOUS
 10
455.17929187089447
 20
412.1118107456781
 30
0.0
 11
454.98726287089562
 21
411.65680374567768
 31
0.0
  0
LINE
  5
5369
  8
WAKU
  6
CONTINUOUS
 10
455.02003787089478
 20
412.62559474567809
 30
0.0
 11
454.75839987089557
 21
412.13437574567752
 31
0.0
  0
LINE
  5
536A
  8
WAKU
  6
CONTINUOUS
 10
455.35722187089539
 20
413.1206837456777
 30
0.0
 11
455.02003787089478
 21
412.62559474567809
 31
0.0
  0
LINE
  5
536B
  8
WAKU
  6
CONTINUOUS
 10
454.58191887089453
 20
411.66506974567727
 30
0.0
 11
454.49707587089563
 21
411.234914745678
 31
0.0
  0
LINE
  5
536C
  8
WAKU
  6
CONTINUOUS
 10
454.49707587089563
 20
411.234914745678
 30
0.0
 11
454.50698787089539
 21
410.85971074567772
 31
0.0
  0
LINE
  5
536D
  8
WAKU
  6
CONTINUOUS
 10
454.50698787089539
 20
410.85971074567772
 30
0.0
 11
454.61129087089557
 21
410.55323674567768
 31
0.0
  0
SOLID
  5
536E
  8
WAKU
  6
CONTINUOUS
 10
454.75839987089557
 20
412.13437574567752
 30
0.0
 11
454.58191887089538
 21
411.66506974567812
 31
0.0
 12
455.17929187089538
 22
412.1118107456781
 32
0.0
 13
455.17929187089538
 23
412.1118107456781
 33
0.0
  0
SOLID
  5
536F
  8
WAKU
  6
CONTINUOUS
 10
455.17929187089538
 20
412.1118107456781
 30
0.0
 11
454.58191887089538
 21
411.66506974567812
 31
0.0
 12
454.98726287089562
 22
411.65680374567768
 32
0.0
 13
454.98726287089562
 23
411.65680374567768
 33
0.0
  0
SOLID
  5
5370
  8
WAKU
  6
CONTINUOUS
 10
454.58191887089538
 20
411.66506974567812
 30
0.0
 11
454.49707587089512
 21
411.234914745678
 31
0.0
 12
454.98726287089562
 22
411.65680374567768
 32
0.0
 13
454.98726287089562
 23
411.65680374567768
 33
0.0
  0
SOLID
  5
5371
  8
WAKU
  6
CONTINUOUS
 10
454.98726287089562
 20
411.65680374567768
 30
0.0
 11
454.49707587089512
 21
411.234914745678
 31
0.0
 12
454.89146887089561
 22
411.26118674567829
 32
0.0
 13
454.89146887089561
 23
411.26118674567829
 33
0.0
  0
SOLID
  5
5372
  8
WAKU
  6
CONTINUOUS
 10
454.89146887089561
 20
411.26118674567829
 30
0.0
 11
454.49707587089512
 21
411.234914745678
 31
0.0
 12
454.88613087089561
 22
410.95386974567799
 32
0.0
 13
454.88613087089561
 23
410.95386974567799
 33
0.0
  0
SOLID
  5
5373
  8
WAKU
  6
CONTINUOUS
 10
454.49707587089512
 20
411.234914745678
 30
0.0
 11
454.50698787089561
 21
410.85971074567772
 31
0.0
 12
454.88613087089561
 22
410.95386974567799
 32
0.0
 13
454.88613087089561
 23
410.95386974567799
 33
0.0
  0
SOLID
  5
5374
  8
WAKU
  6
CONTINUOUS
 10
454.88613087089561
 20
410.95386974567799
 30
0.0
 11
454.50698787089561
 21
410.85971074567772
 31
0.0
 12
454.94492787089558
 22
410.75321774567772
 32
0.0
 13
454.94492787089558
 23
410.75321774567772
 33
0.0
  0
SOLID
  5
5375
  8
WAKU
  6
CONTINUOUS
 10
454.50698787089561
 20
410.85971074567772
 30
0.0
 11
454.61129087089557
 21
410.55323674567768
 31
0.0
 12
454.94492787089558
 22
410.75321774567772
 32
0.0
 13
454.94492787089558
 23
410.75321774567772
 33
0.0
  0
SOLID
  5
5376
  8
WAKU
  6
CONTINUOUS
 10
454.94492787089558
 20
410.75321774567772
 30
0.0
 11
454.61129087089557
 21
410.55323674567768
 31
0.0
 12
455.04307787089562
 22
410.63471774567802
 32
0.0
 13
455.04307787089562
 23
410.63471774567802
 33
0.0
  0
SOLID
  5
5377
  8
WAKU
  6
CONTINUOUS
 10
455.04307787089562
 20
410.63471774567802
 30
0.0
 11
454.61129087089557
 21
410.55323674567768
 31
0.0
 12
455.42868387089538
 22
410.53263874567813
 32
0.0
 13
455.42868387089538
 23
410.53263874567813
 33
0.0
  0
SOLID
  5
5378
  8
WAKU
  6
CONTINUOUS
 10
454.61129087089557
 20
410.55323674567768
 30
0.0
 11
454.80615387089563
 21
410.32675174567822
 31
0.0
 12
455.42868387089538
 22
410.53263874567813
 32
0.0
 13
455.42868387089538
 23
410.53263874567813
 33
0.0
  0
LINE
  5
5379
  8
WAKU
  6
CONTINUOUS
 10
454.61129087089557
 20
410.55323674567768
 30
0.0
 11
454.80615387089563
 21
410.32675174567822
 31
0.0
  0
LINE
  5
537A
  8
WAKU
  6
CONTINUOUS
 10
454.75839987089557
 20
412.13437574567752
 30
0.0
 11
454.58191887089453
 21
411.66506974567727
 31
0.0
  0
SOLID
  5
537B
  8
WAKU
  6
CONTINUOUS
 10
457.45795387089561
 20
413.57977374567821
 30
0.0
 11
456.76140487089538
 21
413.50491074567771
 31
0.0
 12
456.80159987089559
 22
413.00567574567771
 32
0.0
 13
456.80159987089559
 23
413.00567574567771
 33
0.0
  0
SOLID
  5
537C
  8
WAKU
  6
CONTINUOUS
 10
456.76140487089538
 20
413.50491074567771
 30
0.0
 11
456.30249287089578
 21
413.0459567456781
 31
0.0
 12
456.80159987089559
 22
413.00567574567771
 32
0.0
 13
456.80159987089559
 23
413.00567574567771
 33
0.0
  0
LINE
  5
537D
  8
WAKU
  6
CONTINUOUS
 10
456.76140487089452
 20
413.50491074567771
 30
0.0
 11
456.30249287089561
 21
413.04595674567759
 31
0.0
  0
LINE
  5
537E
  8
WAKU
  6
CONTINUOUS
 10
457.45795387089561
 20
413.57977374567758
 30
0.0
 11
456.80159987089559
 21
413.00567574567771
 31
0.0
  0
SOLID
  5
537F
  8
WAKU
  6
CONTINUOUS
 10
457.94213587089558
 20
411.40695374567758
 30
0.0
 11
457.24571287089589
 21
411.33221374567819
 31
0.0
 12
457.45000487089561
 22
410.99888174567798
 32
0.0
 13
457.45000487089561
 23
410.99888174567798
 33
0.0
  0
SOLID
  5
5380
  8
WAKU
  6
CONTINUOUS
 10
457.24571287089589
 20
411.33221374567819
 30
0.0
 11
456.56803587089581
 21
410.8911147456771
 31
0.0
 12
457.45000487089561
 22
410.99888174567798
 32
0.0
 13
457.45000487089561
 23
410.99888174567798
 33
0.0
  0
SOLID
  5
5381
  8
WAKU
  6
CONTINUOUS
 10
457.45000487089561
 20
410.99888174567798
 30
0.0
 11
456.56803587089581
 21
410.8911147456771
 31
0.0
 12
456.94354287089539
 22
410.65732774567817
 32
0.0
 13
456.94354287089539
 23
410.65732774567817
 33
0.0
  0
SOLID
  5
5382
  8
WAKU
  6
CONTINUOUS
 10
457.49326987089557
 20
410.56689974567769
 30
0.0
 11
457.00765487089518
 21
410.28358074567751
 31
0.0
 12
458.01652887089563
 22
410.46137774567819
 32
0.0
 13
458.01652887089563
 23
410.46137774567819
 33
0.0
  0
SOLID
  5
5383
  8
WAKU
  6
CONTINUOUS
 10
458.01652887089563
 20
410.46137774567819
 30
0.0
 11
457.00765487089518
 21
410.28358074567751
 31
0.0
 12
457.52143887089562
 22
410.1241937456781
 32
0.0
 13
457.52143887089562
 23
410.1241937456781
 33
0.0
  0
SOLID
  5
5384
  8
WAKU
  6
CONTINUOUS
 10
457.00765487089518
 20
410.28358074567751
 30
0.0
 11
456.55275687089471
 21
410.09115074567819
 31
0.0
 12
457.52143887089562
 22
410.1241937456781
 32
0.0
 13
457.52143887089562
 23
410.1241937456781
 33
0.0
  0
SOLID
  5
5385
  8
WAKU
  6
CONTINUOUS
 10
457.52143887089562
 20
410.1241937456781
 30
0.0
 11
456.55275687089471
 21
410.09115074567819
 31
0.0
 12
457.03022087089562
 22
409.86255574567809
 32
0.0
 13
457.03022087089562
 23
409.86255574567809
 33
0.0
  0
LINE
  5
5386
  8
WAKU
  6
CONTINUOUS
 10
457.24571287089429
 20
411.33221374567728
 30
0.0
 11
457.90206887089562
 21
411.90628874567761
 31
0.0
  0
LINE
  5
5387
  8
WAKU
  6
CONTINUOUS
 10
456.94354287089448
 20
410.65732774567772
 30
0.0
 11
457.45000487089561
 21
410.99888174567792
 31
0.0
  0
LINE
  5
5388
  8
WAKU
  6
CONTINUOUS
 10
457.03022087089471
 20
409.86255574567758
 30
0.0
 11
457.52143887089522
 21
410.1241937456777
 31
0.0
  0
LINE
  5
5389
  8
WAKU
  6
CONTINUOUS
 10
457.00765487089518
 20
410.28358074567751
 30
0.0
 11
457.49326987089512
 21
410.56689974567769
 31
0.0
  0
SOLID
  5
538A
  8
WAKU
  6
CONTINUOUS
 10
456.55275687089471
 20
410.09115074567819
 30
0.0
 11
456.15706687089562
 21
409.99564574567802
 31
0.0
 12
457.03022087089562
 22
409.86255574567809
 32
0.0
 13
457.03022087089562
 23
409.86255574567809
 33
0.0
  0
LINE
  5
538B
  8
WAKU
  6
CONTINUOUS
 10
456.15706687089562
 20
409.99564574567768
 30
0.0
 11
456.55275687089562
 21
410.09115074567768
 31
0.0
  0
LINE
  5
538C
  8
WAKU
  6
CONTINUOUS
 10
455.96523087089503
 20
410.22317974567801
 30
0.0
 11
456.4422008708944
 21
410.3954077456782
 31
0.0
  0
LINE
  5
538D
  8
WAKU
  6
CONTINUOUS
 10
456.4422008708944
 20
410.3954077456782
 30
0.0
 11
456.94354287089448
 21
410.65732774567772
 31
0.0
  0
LINE
  5
538E
  8
WAKU
  6
CONTINUOUS
 10
456.5609148708956
 20
409.68607374567802
 30
0.0
 11
457.03022087089471
 21
409.86255574567758
 31
0.0
  0
LINE
  5
538F
  8
WAKU
  6
CONTINUOUS
 10
456.56803587089507
 20
410.8911147456771
 30
0.0
 11
457.24571287089429
 21
411.33221374567728
 31
0.0
  0
LINE
  5
5390
  8
WAKU
  6
CONTINUOUS
 10
456.55275687089562
 20
410.09115074567768
 30
0.0
 11
457.00765487089518
 21
410.28358074567751
 31
0.0
  0
LINE
  5
5391
  8
WAKU
  6
CONTINUOUS
 10
456.13075987089508
 20
409.60123174567792
 30
0.0
 11
456.5609148708956
 21
409.68607374567802
 31
0.0
  0
LINE
  5
5392
  8
WAKU
  6
CONTINUOUS
 10
456.80159987089559
 20
413.00567574567771
 30
0.0
 11
456.22766887089512
 21
412.34925374567808
 31
0.0
  0
LINE
  5
5393
  8
WAKU
  6
CONTINUOUS
 10
457.52143887089522
 20
410.1241937456777
 30
0.0
 11
458.01652887089563
 21
410.46137774567751
 31
0.0
  0
LINE
  5
5394
  8
WAKU
  6
CONTINUOUS
 10
457.45000487089561
 20
410.99888174567792
 30
0.0
 11
457.9421358708953
 21
411.40695374567758
 31
0.0
  0
SOLID
  5
5395
  8
WAKU
  6
CONTINUOUS
 10
458.15091287089592
 20
414.82084774567818
 30
0.0
 11
457.18223687089562
 21
414.78779274567802
 31
0.0
 12
457.69600787089507
 22
414.6283677456783
 32
0.0
 13
457.69600787089507
 23
414.6283677456783
 33
0.0
  0
SOLID
  5
5396
  8
WAKU
  6
CONTINUOUS
 10
457.18223687089562
 20
414.78779274567802
 30
0.0
 11
456.68714687089539
 21
414.4506087456781
 31
0.0
 12
457.69600787089507
 22
414.6283677456783
 32
0.0
 13
457.69600787089507
 23
414.6283677456783
 33
0.0
  0
SOLID
  5
5397
  8
WAKU
  6
CONTINUOUS
 10
457.69600787089507
 20
414.6283677456783
 30
0.0
 11
456.68714687089539
 21
414.4506087456781
 31
0.0
 12
457.21035987089562
 22
414.34506674567808
 32
0.0
 13
457.21035987089562
 23
414.34506674567808
 33
0.0
  0
SOLID
  5
5398
  8
WAKU
  6
CONTINUOUS
 10
457.76004187089558
 20
414.25460374567729
 30
0.0
 11
457.25355587089558
 21
413.91301774567802
 31
0.0
 12
458.13565087089569
 22
414.02083974567768
 32
0.0
 13
458.13565087089569
 23
414.02083974567768
 33
0.0
  0
LINE
  5
5399
  8
WAKU
  6
CONTINUOUS
 10
457.69600787089507
 20
414.62836774567711
 30
0.0
 11
457.21035987089562
 21
414.34506674567729
 31
0.0
  0
LINE
  5
539A
  8
WAKU
  6
CONTINUOUS
 10
457.76004187089518
 20
414.25460374567729
 30
0.0
 11
457.25355587089558
 21
413.91301774567768
 31
0.0
  0
LINE
  5
539B
  8
WAKU
  6
CONTINUOUS
 10
457.67345587089471
 20
415.0494307456778
 30
0.0
 11
457.18223687089471
 21
414.78779274567802
 31
0.0
  0
SOLID
  5
539C
  8
WAKU
  6
CONTINUOUS
 10
458.13565087089569
 20
414.02083974567768
 30
0.0
 11
457.25355587089558
 21
413.91301774567802
 31
0.0
 12
457.45795387089561
 22
413.57977374567821
 32
0.0
 13
457.45795387089561
 23
413.57977374567821
 33
0.0
  0
SOLID
  5
539D
  8
WAKU
  6
CONTINUOUS
 10
457.25355587089558
 20
413.91301774567802
 30
0.0
 11
456.76140487089538
 21
413.50491074567771
 31
0.0
 12
457.45795387089561
 22
413.57977374567821
 32
0.0
 13
457.45795387089561
 23
413.57977374567821
 33
0.0
  0
SOLID
  5
539E
  8
WAKU
  6
CONTINUOUS
 10
456.68714687089539
 20
414.4506087456781
 30
0.0
 11
456.20637187089562
 21
414.05026274567751
 31
0.0
 12
457.21035987089562
 22
414.34506674567808
 32
0.0
 13
457.21035987089562
 23
414.34506674567808
 33
0.0
  0
LINE
  5
539F
  8
WAKU
  6
CONTINUOUS
 10
456.68714687089539
 20
414.4506087456781
 30
0.0
 11
456.20637187089523
 21
414.05026274567729
 31
0.0
  0
LINE
  5
53A0
  8
WAKU
  6
CONTINUOUS
 10
457.18223687089471
 20
414.78779274567802
 30
0.0
 11
456.68714687089539
 21
414.4506087456781
 31
0.0
  0
SOLID
  5
53A1
  8
WAKU
  6
CONTINUOUS
 10
457.21035987089562
 20
414.34506674567808
 30
0.0
 11
456.20637187089562
 21
414.05026274567751
 31
0.0
 12
456.25187087089569
 22
413.55589074567808
 32
0.0
 13
456.25187087089569
 23
413.55589074567808
 33
0.0
  0
LINE
  5
53A2
  8
WAKU
  6
CONTINUOUS
 10
457.25355587089558
 20
413.91301774567768
 30
0.0
 11
456.76140487089452
 21
413.50491074567771
 31
0.0
  0
LINE
  5
53A3
  8
WAKU
  6
CONTINUOUS
 10
457.21035987089562
 20
414.34506674567729
 30
0.0
 11
456.25187087089512
 21
413.55589074567729
 31
0.0
  0
LINE
  5
53A4
  8
WAKU
  6
CONTINUOUS
 10
458.15091287089592
 20
414.82084774567818
 30
0.0
 11
457.69600787089507
 21
414.62836774567711
 31
0.0
  0
LINE
  5
53A5
  8
WAKU
  6
CONTINUOUS
 10
458.14276087089462
 20
415.22591174567771
 30
0.0
 11
457.67345587089471
 21
415.0494307456778
 31
0.0
  0
LINE
  5
53A6
  8
WAKU
  6
CONTINUOUS
 10
458.13565087089512
 20
414.02083974567768
 30
0.0
 11
457.45795387089561
 21
413.57977374567758
 31
0.0
  0
SOLID
  5
53A7
  8
WAKU
  6
CONTINUOUS
 10
457.90206887089562
 20
411.90628874567801
 30
0.0
 11
457.24571287089589
 21
411.33221374567819
 31
0.0
 12
458.40103887089572
 22
411.86587174567808
 32
0.0
 13
458.40103887089572
 23
411.86587174567808
 33
0.0
  0
SOLID
  5
53A8
  8
WAKU
  6
CONTINUOUS
 10
458.40103887089572
 20
411.86587174567808
 30
0.0
 11
457.24571287089589
 21
411.33221374567819
 31
0.0
 12
457.94213587089558
 22
411.40695374567758
 32
0.0
 13
457.94213587089558
 23
411.40695374567758
 33
0.0
  0
SOLID
  5
53A9
  8
WAKU
  6
CONTINUOUS
 10
458.47601087089538
 20
412.56270274567771
 30
0.0
 11
457.90206887089562
 21
411.90628874567801
 31
0.0
 12
458.80908887089561
 22
412.35801174567769
 32
0.0
 13
458.80908887089561
 23
412.35801174567769
 33
0.0
  0
SOLID
  5
53AA
  8
WAKU
  6
CONTINUOUS
 10
458.80908887089561
 20
412.35801174567769
 30
0.0
 11
457.90206887089562
 21
411.90628874567801
 31
0.0
 12
458.40103887089572
 22
411.86587174567808
 32
0.0
 13
458.40103887089572
 23
411.86587174567808
 33
0.0
  0
SOLID
  5
53AB
  8
WAKU
  6
CONTINUOUS
 10
458.49730487089562
 20
410.86172374567798
 30
0.0
 11
457.49326987089557
 21
410.56689974567769
 31
0.0
 12
458.01652887089563
 22
410.46137774567819
 32
0.0
 13
458.01652887089563
 23
410.46137774567819
 33
0.0
  0
LINE
  5
53AC
  8
WAKU
  6
CONTINUOUS
 10
457.9421358708953
 20
411.40695374567758
 30
0.0
 11
458.40103887089452
 21
411.86587174567728
 31
0.0
  0
LINE
  5
53AD
  8
WAKU
  6
CONTINUOUS
 10
457.49326987089512
 20
410.56689974567769
 30
0.0
 11
458.45173787089448
 21
411.35601474567773
 31
0.0
  0
LINE
  5
53AE
  8
WAKU
  6
CONTINUOUS
 10
458.01652887089563
 20
410.46137774567751
 30
0.0
 11
458.49730487089522
 21
410.8617237456773
 31
0.0
  0
LINE
  5
53AF
  8
WAKU
  6
CONTINUOUS
 10
457.90206887089562
 20
411.90628874567761
 30
0.0
 11
458.47601087089453
 21
412.56270274567771
 31
0.0
  0
SOLID
  5
53B0
  8
WAKU
  6
CONTINUOUS
 10
457.67345587089562
 20
415.0494307456778
 30
0.0
 11
457.18223687089562
 21
414.78779274567802
 31
0.0
 12
458.54662987089472
 22
414.9163637456781
 32
0.0
 13
458.54662987089472
 23
414.9163637456781
 33
0.0
  0
SOLID
  5
53B1
  8
WAKU
  6
CONTINUOUS
 10
458.54662987089472
 20
414.9163637456781
 30
0.0
 11
457.18223687089562
 21
414.78779274567802
 31
0.0
 12
458.15091287089592
 22
414.82084774567818
 32
0.0
 13
458.15091287089592
 23
414.82084774567818
 33
0.0
  0
SOLID
  5
53B2
  8
WAKU
  6
CONTINUOUS
 10
457.67345587089562
 20
415.0494307456778
 30
0.0
 11
458.54662987089472
 21
414.9163637456781
 31
0.0
 12
458.85376887089592
 22
414.92168474567819
 32
0.0
 13
458.85376887089592
 23
414.92168474567819
 33
0.0
  0
SOLID
  5
53B3
  8
WAKU
  6
CONTINUOUS
 10
458.76651087089539
 20
414.2920227456782
 30
0.0
 11
457.76004187089558
 21
414.25460374567729
 31
0.0
 12
458.13565087089569
 22
414.02083974567768
 32
0.0
 13
458.13565087089569
 23
414.02083974567768
 33
0.0
  0
LINE
  5
53B4
  8
WAKU
  6
CONTINUOUS
 10
458.76651087089539
 20
414.2920227456778
 30
0.0
 11
458.13565087089512
 21
414.02083974567768
 31
0.0
  0
LINE
  5
53B5
  8
WAKU
  6
CONTINUOUS
 10
458.54662987089472
 20
414.91636374567759
 30
0.0
 11
458.15091287089592
 21
414.82084774567818
 31
0.0
  0
LINE
  5
53B6
  8
WAKU
  6
CONTINUOUS
 10
458.57291587089509
 20
415.3107547456778
 30
0.0
 11
458.14276087089462
 21
415.22591174567771
 31
0.0
  0
LINE
  5
53B7
  8
WAKU
  6
CONTINUOUS
 10
458.26141187089507
 20
414.51655074567719
 30
0.0
 11
457.76004187089518
 21
414.25460374567729
 31
0.0
  0
SOLID
  5
53B8
  8
WAKU
  6
CONTINUOUS
 10
458.45173787089561
 20
411.35601474567773
 30
0.0
 11
457.49326987089557
 21
410.56689974567769
 31
0.0
 12
458.94610787089562
 22
411.3105267456782
 32
0.0
 13
458.94610787089562
 23
411.3105267456782
 33
0.0
  0
SOLID
  5
53B9
  8
WAKU
  6
CONTINUOUS
 10
458.94610787089562
 20
411.3105267456782
 30
0.0
 11
457.49326987089557
 21
410.56689974567769
 31
0.0
 12
458.49730487089562
 22
410.86172374567798
 32
0.0
 13
458.49730487089562
 23
410.86172374567798
 33
0.0
  0
SOLID
  5
53BA
  8
WAKU
  6
CONTINUOUS
 10
458.57291587089588
 20
415.3107547456782
 30
0.0
 11
458.14276087089559
 21
415.22591174567799
 31
0.0
 12
458.94812087089508
 22
415.30084274567798
 32
0.0
 13
458.94812087089508
 23
415.30084274567798
 33
0.0
  0
SOLID
  5
53BB
  8
WAKU
  6
CONTINUOUS
 10
458.94812087089508
 20
415.30084274567798
 30
0.0
 11
458.14276087089559
 21
415.22591174567799
 31
0.0
 12
459.25459387089558
 22
415.19653974567802
 32
0.0
 13
459.25459387089558
 23
415.19653974567802
 33
0.0
  0
SOLID
  5
53BC
  8
WAKU
  6
CONTINUOUS
 10
458.14276087089559
 20
415.22591174567799
 30
0.0
 11
457.67345587089562
 21
415.0494307456778
 31
0.0
 12
459.25459387089558
 22
415.19653974567802
 32
0.0
 13
459.25459387089558
 23
415.19653974567802
 33
0.0
  0
SOLID
  5
53BD
  8
WAKU
  6
CONTINUOUS
 10
458.26141187089547
 20
414.5165507456777
 30
0.0
 11
457.76004187089558
 21
414.25460374567729
 31
0.0
 12
459.27500187089538
 22
414.37935174567758
 32
0.0
 13
459.27500187089538
 23
414.37935174567758
 33
0.0
  0
SOLID
  5
53BE
  8
WAKU
  6
CONTINUOUS
 10
459.27500187089538
 20
414.37935174567758
 30
0.0
 11
457.76004187089558
 21
414.25460374567729
 31
0.0
 12
458.76651087089539
 22
414.2920227456782
 32
0.0
 13
458.76651087089539
 23
414.2920227456782
 33
0.0
  0
SOLID
  5
53BF
  8
WAKU
  6
CONTINUOUS
 10
459.25459387089558
 20
415.19653974567802
 30
0.0
 11
457.67345587089562
 21
415.0494307456778
 31
0.0
 12
459.48107887089571
 22
415.00167774567819
 32
0.0
 13
459.48107887089571
 23
415.00167774567819
 33
0.0
  0
SOLID
  5
53C0
  8
WAKU
  6
CONTINUOUS
 10
457.67345587089562
 20
415.0494307456778
 30
0.0
 11
458.85376887089592
 21
414.92168474567819
 31
0.0
 12
459.48107887089571
 22
415.00167774567819
 32
0.0
 13
459.48107887089571
 23
415.00167774567819
 33
0.0
  0
SOLID
  5
53C1
  8
WAKU
  6
CONTINUOUS
 10
465.56708587089571
 20
414.857705745678
 30
0.0
 11
462.41097787089558
 21
412.27309074567802
 31
0.0
 12
465.74943987089569
 22
412.27309074567802
 32
0.0
 13
465.74943987089569
 23
412.27309074567802
 33
0.0
  0
LINE
  5
53C2
  8
WAKU
  6
CONTINUOUS
 10
465.56708587089503
 20
414.85770574567772
 30
0.0
 11
462.41097787089518
 21
412.27309074567768
 31
0.0
  0
SOLID
  5
53C3
  8
WAKU
  6
CONTINUOUS
 10
465.74943987089569
 20
412.27309074567802
 30
0.0
 11
462.41097787089558
 21
412.27309074567802
 31
0.0
 12
464.65291787089558
 22
412.219244745678
 32
0.0
 13
464.65291787089558
 23
412.219244745678
 33
0.0
  0
SOLID
  5
53C4
  8
WAKU
  6
CONTINUOUS
 10
462.41097787089558
 20
412.27309074567802
 30
0.0
 11
461.4310578708953
 21
409.58078274567771
 31
0.0
 12
464.65291787089558
 22
412.219244745678
 32
0.0
 13
464.65291787089558
 23
412.219244745678
 33
0.0
  0
LINE
  5
53C5
  8
WAKU
  6
CONTINUOUS
 10
464.65291787089512
 20
412.219244745678
 30
0.0
 11
461.4310578708953
 21
409.58078274567771
 31
0.0
  0
LINE
  5
53C6
  8
WAKU
  6
CONTINUOUS
 10
468.3233658708956
 20
409.58078274567771
 30
0.0
 11
473.70798087089503
 21
409.58078274567771
 31
0.0
  0
SOLID
  5
53C7
  8
WAKU
  6
CONTINUOUS
 10
470.87115787089562
 20
416.5807827456776
 30
0.0
 11
470.2440088708953
 21
414.857705745678
 31
0.0
 12
475.62862387089592
 22
414.857705745678
 32
0.0
 13
475.62862387089592
 23
414.857705745678
 33
0.0
  0
SOLID
  5
53C8
  8
WAKU
  6
CONTINUOUS
 10
469.1073018708957
 20
411.73462874567758
 30
0.0
 11
468.3233658708956
 21
409.58078274567771
 31
0.0
 12
474.49191687089569
 22
411.73462874567758
 32
0.0
 13
474.49191687089569
 23
411.73462874567758
 33
0.0
  0
SOLID
  5
53C9
  8
WAKU
  6
CONTINUOUS
 10
474.49191687089569
 20
411.73462874567758
 30
0.0
 11
468.3233658708956
 21
409.58078274567771
 31
0.0
 12
473.70798087089508
 22
409.58078274567771
 32
0.0
 13
473.70798087089508
 23
409.58078274567771
 33
0.0
  0
LINE
  5
53CA
  8
WAKU
  6
CONTINUOUS
 10
469.10730187089513
 20
411.73462874567758
 30
0.0
 11
474.49191687089473
 21
411.73462874567758
 31
0.0
  0
LINE
  5
53CB
  8
WAKU
  6
CONTINUOUS
 10
470.2440088708953
 20
414.85770574567772
 30
0.0
 11
475.62862387089513
 21
414.85770574567772
 31
0.0
  0
SOLID
  5
53CC
  8
WAKU
  6
CONTINUOUS
 10
476.25577287089561
 20
416.5807827456776
 30
0.0
 11
470.87115787089562
 21
416.5807827456776
 31
0.0
 12
475.62862387089592
 22
414.857705745678
 32
0.0
 13
475.62862387089592
 23
414.857705745678
 33
0.0
  0
LINE
  5
53CD
  8
WAKU
  6
CONTINUOUS
 10
470.87115787089562
 20
416.5807827456776
 30
0.0
 11
476.2557728708951
 21
416.5807827456776
 31
0.0
  0
LINE
  5
53CE
  8
WAKU
  6
CONTINUOUS
 10
453.22704887089509
 20
416.5807827456776
 30
0.0
 11
453.22704887089509
 21
412.3030047456777
 31
0.0
  0
SOLID
  5
53CF
  8
WAKU
  6
CONTINUOUS
 10
457.50482587089562
 20
416.5807827456776
 30
0.0
 11
453.22704887089571
 21
416.5807827456776
 31
0.0
 12
453.22704887089571
 22
412.3030047456777
 32
0.0
 13
453.22704887089571
 23
412.3030047456777
 33
0.0
  0
LINE
  5
53D0
  8
WAKU
  6
CONTINUOUS
 10
453.22704887089509
 20
412.3030047456777
 30
0.0
 11
457.50482587089562
 21
416.5807827456776
 31
0.0
  0
LINE
  5
53D1
  8
WAKU
  6
CONTINUOUS
 10
453.22704887089509
 20
416.5807827456776
 30
0.0
 11
457.50482587089562
 21
416.5807827456776
 31
0.0
  0
LINE
  5
53D2
  8
WAKU
  6
CONTINUOUS
 10
490.5384668708956
 20
412.9192447456777
 30
0.0
 11
493.76923587089539
 21
412.9192447456777
 31
0.0
  0
SOLID
  5
53D3
  8
WAKU
  6
CONTINUOUS
 10
491.87115787089567
 20
416.5807827456776
 30
0.0
 11
491.24400887089558
 21
414.857705745678
 31
0.0
 12
494.47477787089508
 22
414.857705745678
 32
0.0
 13
494.47477787089508
 23
414.857705745678
 33
0.0
  0
SOLID
  5
53D4
  8
WAKU
  6
CONTINUOUS
 10
494.23959687089558
 20
414.21155174567798
 30
0.0
 11
491.00882787089557
 21
414.21155174567798
 31
0.0
 12
493.76923587089561
 22
412.91924474567821
 32
0.0
 13
493.76923587089561
 23
412.91924474567821
 33
0.0
  0
SOLID
  5
53D5
  8
WAKU
  6
CONTINUOUS
 10
494.70798087089508
 20
409.58078274567771
 30
0.0
 11
494.41499387089561
 21
411.73462874567758
 31
0.0
 12
490.10730187089558
 22
411.73462874567758
 32
0.0
 13
490.10730187089558
 23
411.73462874567758
 33
0.0
  0
SOLID
  5
53D6
  8
WAKU
  6
CONTINUOUS
 10
490.10730187089558
 20
411.73462874567758
 30
0.0
 11
489.3233658708956
 21
409.58078274567771
 31
0.0
 12
494.70798087089508
 22
409.58078274567771
 32
0.0
 13
494.70798087089508
 23
409.58078274567771
 33
0.0
  0
LINE
  5
53D7
  8
WAKU
  6
CONTINUOUS
 10
494.70798087089508
 20
409.58078274567771
 30
0.0
 11
489.3233658708956
 21
409.58078274567771
 31
0.0
  0
LINE
  5
53D8
  8
WAKU
  6
CONTINUOUS
 10
490.10730187089513
 20
411.73462874567758
 30
0.0
 11
494.41499387089561
 21
411.73462874567758
 31
0.0
  0
LINE
  5
53D9
  8
WAKU
  6
CONTINUOUS
 10
491.2440088708953
 20
414.85770574567772
 30
0.0
 11
494.47477787089508
 21
414.85770574567772
 31
0.0
  0
LINE
  5
53DA
  8
WAKU
  6
CONTINUOUS
 10
491.00882787089557
 20
414.2115517456777
 30
0.0
 11
494.2395968708953
 21
414.2115517456777
 31
0.0
  0
SOLID
  5
53DB
  8
WAKU
  6
CONTINUOUS
 10
494.47477787089508
 20
414.857705745678
 30
0.0
 11
495.10192687089562
 21
416.5807827456776
 31
0.0
 12
491.87115787089567
 22
416.5807827456776
 32
0.0
 13
491.87115787089567
 23
416.5807827456776
 33
0.0
  0
LINE
  5
53DC
  8
WAKU
  6
CONTINUOUS
 10
491.87115787089567
 20
416.5807827456776
 30
0.0
 11
495.10192687089511
 21
416.5807827456776
 31
0.0
  0
SOLID
  5
53DD
  8
WAKU
  6
CONTINUOUS
 10
491.00882787089557
 20
414.21155174567798
 30
0.0
 11
490.5384668708956
 21
412.91924474567821
 31
0.0
 12
493.76923587089561
 22
412.91924474567821
 32
0.0
 13
493.76923587089561
 23
412.91924474567821
 33
0.0
  0
LINE
  5
53DE
  8
WAKU
 10
506.89863881456068
 20
417.8041926488375
 30
0.0
 11
506.89863881456068
 21
28.29526935608077
 31
0.0
  0
TEXT
  5
53DF
  8
WAKU
 10
75.69258251726535
 20
411.41594787396718
 30
0.0
 40
5.0
  1
FIX窓 面付け枠（ガラス溝幅36mm）断面詳細図
  7
MX_NOTE_STANDARD
 11
75.69258251726535
 21
413.9159478739673
 31
0.0
 73
     2
  0
TEXT
  5
53E0
  8
WAKU
 10
36.524425493660559
 20
411.37675236086397
 30
0.0
 40
3.0
  1
Comfort CF
 41
0.8679999999999999
  7
MX_NOTE_STANDARD
 11
36.524425493660559
 21
412.87675236086397
 31
0.0
 73
     2
  0
LINE
  5
53E1
  8
WAKU
 10
31.524425493660821
 20
417.87675236086369
 30
0.0
 11
31.524425493660821
 21
28.367829068107071
 31
0.0
  0
LINE
  5
53E2
  8
WAKU
 10
31.524425493660821
 20
28.367829068107071
 30
0.0
 11
506.89863881456068
 21
28.29526935608077
 31
0.0
  0
LINE
  5
53E3
  8
WAKU
 10
31.524425493660821
 20
407.87675236086397
 30
0.0
 11
506.89863881456068
 21
407.80419264883761
 31
0.0
  0
LINE
  5
53E4
  8
WAKU
 10
31.524425493660821
 20
417.87675236086369
 30
0.0
 11
506.89863881456068
 21
417.8041926488375
 31
0.0
  0
POLYLINE
  5
5CA4
  8
SUNPO
  6
BYBLOCK
 66
     1
 10
0.0
 20
0.0
 30
0.0
 70
     1
 40
1.159999999999999
 41
1.159999999999999
  0
VERTEX
  5
61B7
  8
SUNPO
  6
BYBLOCK
 10
420.42439713700838
 20
280.31691179089052
 30
0.0
 42
1.0
  0
VERTEX
  5
61B8
  8
SUNPO
  6
BYBLOCK
 10
420.13439713700842
 20
280.31691179089052
 30
0.0
 42
1.0
  0
SEQEND
  5
61B9
  8
SUNPO
  6
BYBLOCK
  0
POLYLINE
  5
5CA5
  8
SUNPO
  6
BYBLOCK
 66
     1
 10
0.0
 20
0.0
 30
0.0
 70
     1
 40
1.159999999999999
 41
1.159999999999999
  0
VERTEX
  5
61BA
  8
SUNPO
  6
BYBLOCK
 10
425.13439613700848
 20
280.31691179089052
 30
0.0
 42
1.0
  0
VERTEX
  5
61BB
  8
SUNPO
  6
BYBLOCK
 10
425.42439613700839
 20
280.31691179089052
 30
0.0
 42
1.0
  0
SEQEND
  5
61BC
  8
SUNPO
  6
BYBLOCK
  0
TEXT
  5
5CA6
  8
SUNPO
  6
CONTINUOUS
 10
421.7793971370084
 20
280.81691179089052
 30
0.0
 40
3.0
  1
5
  7
MX_NOTE_STANDARD
  0
POLYLINE
  5
5CA7
  8
SUNPO
  6
BYBLOCK
 66
     1
 10
0.0
 20
0.0
 30
0.0
 70
     1
 40
1.159999999999999
 41
1.159999999999999
  0
VERTEX
  5
61BD
  8
SUNPO
  6
BYBLOCK
 10
255.9247841370084
 20
280.31691179089052
 30
0.0
 42
1.0
  0
VERTEX
  5
61BE
  8
SUNPO
  6
BYBLOCK
 10
255.63478413700841
 20
280.31691179089052
 30
0.0
 42
1.0
  0
SEQEND
  5
61BF
  8
SUNPO
  6
BYBLOCK
  0
POLYLINE
  5
5CA8
  8
SUNPO
  6
BYBLOCK
 66
     1
 10
0.0
 20
0.0
 30
0.0
 70
     1
 40
1.159999999999999
 41
1.159999999999999
  0
VERTEX
  5
61C0
  8
SUNPO
  6
BYBLOCK
 10
260.63478313700841
 20
280.31691179089052
 30
0.0
 42
1.0
  0
VERTEX
  5
61C1
  8
SUNPO
  6
BYBLOCK
 10
260.92478313700849
 20
280.31691179089052
 30
0.0
 42
1.0
  0
SEQEND
  5
61C2
  8
SUNPO
  6
BYBLOCK
  0
TEXT
  5
5CA9
  8
SUNPO
  6
CONTINUOUS
 10
257.27978313700851
 20
280.81691179089052
 30
0.0
 40
3.0
  1
5
  7
MX_NOTE_STANDARD
  0
POLYLINE
  5
5CAA
  8
SUNPO
  6
BYBLOCK
 66
     1
 10
0.0
 20
0.0
 30
0.0
 70
     1
 40
1.159999999999999
 41
1.159999999999999
  0
VERTEX
  5
61C3
  8
SUNPO
  6
BYBLOCK
 10
107.57323013700839
 20
335.0478477908905
 30
0.0
 42
1.0
  0
VERTEX
  5
61C4
  8
SUNPO
  6
BYBLOCK
 10
107.57323013700839
 20
334.75784779089048
 30
0.0
 42
1.0
  0
SEQEND
  5
61C5
  8
SUNPO
  6
BYBLOCK
  0
POLYLINE
  5
5CAB
  8
SUNPO
  6
BYBLOCK
 66
     1
 10
0.0
 20
0.0
 30
0.0
 70
     1
 40
1.159999999999999
 41
1.159999999999999
  0
VERTEX
  5
61C6
  8
SUNPO
  6
BYBLOCK
 10
107.57323013700839
 20
337.75784779089048
 30
0.0
 42
1.0
  0
VERTEX
  5
61C7
  8
SUNPO
  6
BYBLOCK
 10
107.57323013700839
 20
338.04784779089039
 30
0.0
 42
1.0
  0
SEQEND
  5
61C8
  8
SUNPO
  6
BYBLOCK
  0
TEXT
  5
5CAC
  8
SUNPO
  6
CONTINUOUS
 10
107.07323013700839
 20
335.40284779089052
 30
0.0
 40
3.0
  1
3
 50
90.0
  7
MX_NOTE_STANDARD
  0
POLYLINE
  5
5CAD
  8
SUNPO
  6
BYBLOCK
 66
     1
 10
0.0
 20
0.0
 30
0.0
 70
     1
 40
1.159999999999999
 41
1.159999999999999
  0
VERTEX
  5
61C9
  8
SUNPO
  6
BYBLOCK
 10
107.57323013700839
 20
323.04783379089048
 30
0.0
 42
1.0
  0
VERTEX
  5
61CA
  8
SUNPO
  6
BYBLOCK
 10
107.57323013700839
 20
322.75783379089052
 30
0.0
 42
1.0
  0
SEQEND
  5
61CB
  8
SUNPO
  6
BYBLOCK
  0
POLYLINE
  5
5CAE
  8
SUNPO
  6
BYBLOCK
 66
     1
 10
0.0
 20
0.0
 30
0.0
 70
     1
 40
1.159999999999999
 41
1.159999999999999
  0
VERTEX
  5
61CC
  8
SUNPO
  6
BYBLOCK
 10
107.57323013700839
 20
334.75784779089048
 30
0.0
 42
1.0
  0
VERTEX
  5
61CD
  8
SUNPO
  6
BYBLOCK
 10
107.57323013700839
 20
335.0478477908905
 30
0.0
 42
1.0
  0
SEQEND
  5
61CE
  8
SUNPO
  6
BYBLOCK
  0
TEXT
  5
5CAF
  8
SUNPO
  6
CONTINUOUS
 10
107.07323013700839
 20
326.5028407908905
 30
0.0
 40
3.0
  1
12
 50
90.0
 41
1.1999999999999991
  7
MX_DIMTXSTY_3
  0
POLYLINE
  5
5CB0
  8
SUNPO
  6
BYBLOCK
 66
     1
 10
0.0
 20
0.0
 30
0.0
 70
     1
 40
1.159999999999999
 41
1.159999999999999
  0
VERTEX
  5
61CF
  8
SUNPO
  6
BYBLOCK
 10
107.57323013700839
 20
298.04783379089048
 30
0.0
 42
1.0
  0
VERTEX
  5
61D0
  8
SUNPO
  6
BYBLOCK
 10
107.57323013700839
 20
297.75783379089052
 30
0.0
 42
1.0
  0
SEQEND
  5
61D1
  8
SUNPO
  6
BYBLOCK
  0
POLYLINE
  5
5CB1
  8
SUNPO
  6
BYBLOCK
 66
     1
 10
0.0
 20
0.0
 30
0.0
 70
     1
 40
1.159999999999999
 41
1.159999999999999
  0
VERTEX
  5
61D2
  8
SUNPO
  6
BYBLOCK
 10
107.57323013700839
 20
322.75783379089052
 30
0.0
 42
1.0
  0
VERTEX
  5
61D3
  8
SUNPO
  6
BYBLOCK
 10
107.57323013700839
 20
323.04783379089048
 30
0.0
 42
1.0
  0
SEQEND
  5
61D4
  8
SUNPO
  6
BYBLOCK
  0
TEXT
  5
5CB2
  8
SUNPO
  6
CONTINUOUS
 10
107.07323013700839
 20
307.9028337908905
 30
0.0
 40
3.0
  1
25
 50
90.0
  7
MX_NOTE_STANDARD
  0
POLYLINE
  5
5CB3
  8
SUNPO
  6
BYBLOCK
 66
     1
 10
0.0
 20
0.0
 30
0.0
 70
     1
 40
1.159999999999999
 41
1.159999999999999
  0
VERTEX
  5
61D5
  8
SUNPO
  6
BYBLOCK
 10
97.573230137008466
 20
338.04806979089051
 30
0.0
 42
1.0
  0
VERTEX
  5
61D6
  8
SUNPO
  6
BYBLOCK
 10
97.573230137008466
 20
337.75806979089049
 30
0.0
 42
1.0
  0
SEQEND
  5
61D7
  8
SUNPO
  6
BYBLOCK
  0
POLYLINE
  5
5CB4
  8
SUNPO
  6
BYBLOCK
 66
     1
 10
0.0
 20
0.0
 30
0.0
 70
     1
 40
1.159999999999999
 41
1.159999999999999
  0
VERTEX
  5
61D8
  8
SUNPO
  6
BYBLOCK
 10
97.573230137008466
 20
342.7580637908905
 30
0.0
 42
1.0
  0
VERTEX
  5
61D9
  8
SUNPO
  6
BYBLOCK
 10
97.573230137008466
 20
343.04806379089052
 30
0.0
 42
1.0
  0
SEQEND
  5
61DA
  8
SUNPO
  6
BYBLOCK
  0
TEXT
  5
5CB5
  8
SUNPO
  6
CONTINUOUS
 10
97.073230137008466
 20
339.40306679089048
 30
0.0
 40
3.0
  1
5
 50
90.0
  7
MX_NOTE_STANDARD
  0
POLYLINE
  5
5CB6
  8
SUNPO
  6
BYBLOCK
 66
     1
 10
0.0
 20
0.0
 30
0.0
 70
     1
 40
1.159999999999999
 41
1.159999999999999
  0
VERTEX
  5
61DB
  8
SUNPO
  6
BYBLOCK
 10
97.573230137008466
 20
343.04806379089052
 30
0.0
 42
1.0
  0
VERTEX
  5
61DC
  8
SUNPO
  6
BYBLOCK
 10
97.573230137008466
 20
342.7580637908905
 30
0.0
 42
1.0
  0
SEQEND
  5
61DD
  8
SUNPO
  6
BYBLOCK
  0
POLYLINE
  5
5CB7
  8
SUNPO
  6
BYBLOCK
 66
     1
 10
0.0
 20
0.0
 30
0.0
 70
     1
 40
1.159999999999999
 41
1.159999999999999
  0
VERTEX
  5
61DE
  8
SUNPO
  6
BYBLOCK
 10
97.573230137008466
 20
352.75806979089049
 30
0.0
 42
1.0
  0
VERTEX
  5
61DF
  8
SUNPO
  6
BYBLOCK
 10
97.573230137008466
 20
353.04806979089051
 30
0.0
 42
1.0
  0
SEQEND
  5
61E0
  8
SUNPO
  6
BYBLOCK
  0
TEXT
  5
5CB8
  8
SUNPO
  6
CONTINUOUS
 10
97.073230137008466
 20
345.54056679089041
 30
0.0
 40
3.0
  1
10
 50
90.0
 41
1.3500000000000001
  7
MX_DIMTXSTY_4
  0
POLYLINE
  5
5CB9
  8
SUNPO
  6
BYBLOCK
 66
     1
 10
0.0
 20
0.0
 30
0.0
 70
     1
 40
1.159999999999999
 41
1.159999999999999
  0
VERTEX
  5
61E1
  8
SUNPO
  6
BYBLOCK
 10
97.57259013700849
 20
183.0479057908905
 30
0.0
 42
1.0
  0
VERTEX
  5
61E2
  8
SUNPO
  6
BYBLOCK
 10
97.57259013700849
 20
182.7579057908905
 30
0.0
 42
1.0
  0
SEQEND
  5
61E3
  8
SUNPO
  6
BYBLOCK
  0
POLYLINE
  5
5CBA
  8
SUNPO
  6
BYBLOCK
 66
     1
 10
0.0
 20
0.0
 30
0.0
 70
     1
 40
1.159999999999999
 41
1.159999999999999
  0
VERTEX
  5
61E4
  8
SUNPO
  6
BYBLOCK
 10
97.57259013700849
 20
187.75784779089051
 30
0.0
 42
1.0
  0
VERTEX
  5
61E5
  8
SUNPO
  6
BYBLOCK
 10
97.57259013700849
 20
188.0478477908905
 30
0.0
 42
1.0
  0
SEQEND
  5
61E6
  8
SUNPO
  6
BYBLOCK
  0
TEXT
  5
5CBB
  8
SUNPO
  6
CONTINUOUS
 10
97.072590137008476
 20
184.4028767908905
 30
0.0
 40
3.0
  1
5
 50
90.0
  7
MX_NOTE_STANDARD
  0
POLYLINE
  5
5CBC
  8
SUNPO
  6
BYBLOCK
 66
     1
 10
0.0
 20
0.0
 30
0.0
 70
     1
 40
1.159999999999999
 41
1.159999999999999
  0
VERTEX
  5
61E7
  8
SUNPO
  6
BYBLOCK
 10
97.63509013700849
 20
173.0478477908905
 30
0.0
 42
1.0
  0
VERTEX
  5
61E8
  8
SUNPO
  6
BYBLOCK
 10
97.63509013700849
 20
172.75784779089051
 30
0.0
 42
1.0
  0
SEQEND
  5
61E9
  8
SUNPO
  6
BYBLOCK
  0
POLYLINE
  5
5CBD
  8
SUNPO
  6
BYBLOCK
 66
     1
 10
0.0
 20
0.0
 30
0.0
 70
     1
 40
1.159999999999999
 41
1.159999999999999
  0
VERTEX
  5
61EA
  8
SUNPO
  6
BYBLOCK
 10
97.63509013700849
 20
182.7579057908905
 30
0.0
 42
1.0
  0
VERTEX
  5
61EB
  8
SUNPO
  6
BYBLOCK
 10
97.63509013700849
 20
183.0479057908905
 30
0.0
 42
1.0
  0
SEQEND
  5
61EC
  8
SUNPO
  6
BYBLOCK
  0
TEXT
  5
5CBE
  8
SUNPO
  6
CONTINUOUS
 10
97.135090137008504
 20
175.54037679089049
 30
0.0
 40
3.0
  1
10
 50
90.0
 41
1.3500000000000001
  7
MX_DIMTXSTY_4
  0
POLYLINE
  5
5CBF
  8
SUNPO
  6
BYBLOCK
 66
     1
 10
0.0
 20
0.0
 30
0.0
 70
     1
 40
1.159999999999999
 41
1.159999999999999
  0
VERTEX
  5
61ED
  8
SUNPO
  6
BYBLOCK
 10
395.42439913700838
 20
280.31691179089052
 30
0.0
 42
1.0
  0
VERTEX
  5
61EE
  8
SUNPO
  6
BYBLOCK
 10
395.13439913700842
 20
280.31691179089052
 30
0.0
 42
1.0
  0
SEQEND
  5
61EF
  8
SUNPO
  6
BYBLOCK
  0
POLYLINE
  5
5CC0
  8
SUNPO
  6
BYBLOCK
 66
     1
 10
0.0
 20
0.0
 30
0.0
 70
     1
 40
1.159999999999999
 41
1.159999999999999
  0
VERTEX
  5
61F0
  8
SUNPO
  6
BYBLOCK
 10
420.13439913700847
 20
280.31691179089052
 30
0.0
 42
1.0
  0
VERTEX
  5
61F1
  8
SUNPO
  6
BYBLOCK
 10
420.42439913700838
 20
280.31691179089052
 30
0.0
 42
1.0
  0
SEQEND
  5
61F2
  8
SUNPO
  6
BYBLOCK
  0
TEXT
  5
5CC1
  8
SUNPO
  6
CONTINUOUS
 10
405.27939913700851
 20
280.81691179089052
 30
0.0
 40
3.0
  1
25
  7
MX_NOTE_STANDARD
  0
LINE
  5
5CC2
  8
DANMEN
  6
CONTINUOUS
 10
153.57501913700841
 20
306.51803487792802
 30
0.0
 11
153.21133671682151
 21
306.1543524577412
 31
0.0
  0
LINE
  5
5CC3
  8
DANMEN
  6
CONTINUOUS
 10
153.57501913700841
 20
305.10381965385398
 30
0.0
 11
153.2529312843804
 21
304.78173180122587
 31
0.0
  0
LINE
  5
5CC4
  8
DANMEN
  6
CONTINUOUS
 10
153.57501913700841
 20
303.68960442977999
 30
0.0
 11
153.2945258519392
 21
303.40911114471072
 31
0.0
  0
LINE
  5
5CC5
  8
DANMEN
  6
CONTINUOUS
 10
153.3198874109749
 20
302.57217974099808
 30
0.0
 11
153.4892343610824
 21
302.4028327908905
 31
0.0
  0
LINE
  5
5CC6
  8
DANMEN
  6
CONTINUOUS
 10
153.27569318280121
 20
304.03058919324582
 30
0.0
 11
153.5750191370083
 21
303.7312632390387
 31
0.0
  0
LINE
  5
5CC7
  8
DANMEN
  6
CONTINUOUS
 10
153.23149895462751
 20
305.48899864549361
 30
0.0
 11
153.5750191370083
 21
305.14547846311262
 31
0.0
  0
LINE
  5
5CC8
  8
DANMEN
  6
CONTINUOUS
 10
153.18730472645379
 20
306.94740809774129
 30
0.0
 11
153.57501913700841
 21
306.55969368718672
 31
0.0
  0
LINE
  5
5CC9
  8
DANMEN
  6
CONTINUOUS
 10
141.73188003330461
 20
307.4028327908905
 30
0.0
 11
141.5750191370085
 21
307.2459718945945
 31
0.0
  0
LINE
  5
5CCA
  8
DANMEN
  6
CONTINUOUS
 10
141.93998550824691
 20
306.19672304175867
 30
0.0
 11
141.5750191370085
 21
305.83175667052041
 31
0.0
  0
LINE
  5
5CCB
  8
DANMEN
  6
CONTINUOUS
 10
141.89579128249451
 20
304.73831359193241
 30
0.0
 11
141.57501913700841
 21
304.41754144644642
 31
0.0
  0
LINE
  5
5CCC
  8
DANMEN
  6
CONTINUOUS
 10
141.85159705674221
 20
303.27990414210598
 30
0.0
 11
141.57501913700841
 21
303.00332622237238
 31
0.0
  0
LINE
  5
5CCD
  8
DANMEN
  6
CONTINUOUS
 10
141.5750191370085
 20
303.00332622237221
 30
0.0
 11
141.83532776734609
 21
302.74301759203468
 31
0.0
  0
LINE
  5
5CCE
  8
DANMEN
  6
CONTINUOUS
 10
141.5750191370085
 20
304.41754144644631
 30
0.0
 11
141.8769223327601
 21
304.1156382506947
 31
0.0
  0
LINE
  5
5CCF
  8
DANMEN
  6
CONTINUOUS
 10
141.57501913700841
 20
305.83175667052029
 30
0.0
 11
141.918516898174
 21
305.48825890935478
 31
0.0
  0
LINE
  5
5CD0
  8
DANMEN
  6
CONTINUOUS
 10
141.57501913700841
 20
307.24597189459428
 30
0.0
 11
141.96011146358791
 21
306.86087956801481
 31
0.0
  0
LINE
  5
5CD1
  8
DANMEN
  6
CONTINUOUS
 10
142.98923436108251
 20
312.9028327908905
 30
0.0
 11
141.57501913700841
 21
311.48861756681652
 31
0.0
  0
LINE
  5
5CD2
  8
DANMEN
  6
CONTINUOUS
 10
144.40344958515649
 20
312.9028327908905
 30
0.0
 11
141.5750191370085
 21
310.07440234274242
 31
0.0
  0
LINE
  5
5CD3
  8
DANMEN
  6
CONTINUOUS
 10
145.81766480923059
 20
312.9028327908905
 30
0.0
 11
141.5750191370085
 21
308.66018711866838
 31
0.0
  0
LINE
  5
5CD4
  8
DANMEN
  6
CONTINUOUS
 10
147.23188003330461
 20
312.9028327908905
 30
0.0
 11
141.73188003330461
 21
307.4028327908905
 31
0.0
  0
LINE
  5
5CD5
  8
DANMEN
  6
CONTINUOUS
 10
148.6460952573787
 20
312.9028327908905
 30
0.0
 11
144.74609525737861
 21
309.00283279089052
 31
0.0
  0
LINE
  5
5CD6
  8
DANMEN
  6
CONTINUOUS
 10
150.0603104814526
 20
312.9028327908905
 30
0.0
 11
146.1603104814526
 21
309.00283279089052
 31
0.0
  0
LINE
  5
5CD7
  8
DANMEN
  6
CONTINUOUS
 10
151.47452570552659
 20
312.9028327908905
 30
0.0
 11
147.57452570552661
 21
309.00283279089052
 31
0.0
  0
LINE
  5
5CD8
  8
DANMEN
  6
CONTINUOUS
 10
152.88874092960069
 20
312.9028327908905
 30
0.0
 11
148.9887409296006
 21
309.00283279089041
 31
0.0
  0
LINE
  5
5CD9
  8
DANMEN
  6
CONTINUOUS
 10
153.5750191370083
 20
312.17489577422413
 30
0.0
 11
150.40295615367469
 21
309.00283279089052
 31
0.0
  0
LINE
  5
5CDA
  8
DANMEN
  6
CONTINUOUS
 10
153.57501913700841
 20
310.76068055015008
 30
0.0
 11
151.33085643680661
 21
308.5165178499484
 31
0.0
  0
LINE
  5
5CDB
  8
DANMEN
  6
CONTINUOUS
 10
153.57501913700841
 20
309.3464653260761
 30
0.0
 11
152.03109696039661
 21
307.80254314946433
 31
0.0
  0
LINE
  5
5CDC
  8
DANMEN
  6
CONTINUOUS
 10
153.57501913700841
 20
307.932250102002
 30
0.0
 11
153.02208031738681
 21
307.37931128238051
 31
0.0
  0
LINE
  5
5CDD
  8
DANMEN
  6
CONTINUOUS
 10
141.57501913700841
 20
308.66018711866838
 30
0.0
 11
142.67968297867111
 21
307.55552327700582
 31
0.0
  0
LINE
  5
5CDE
  8
DANMEN
  6
CONTINUOUS
 10
141.57501913700841
 20
310.07440234274242
 30
0.0
 11
143.51274410544249
 21
308.13667737430842
 31
0.0
  0
LINE
  5
5CDF
  8
DANMEN
  6
CONTINUOUS
 10
141.57501913700841
 20
311.48861756681652
 30
0.0
 11
144.0709343788981
 21
308.99270232492688
 31
0.0
  0
LINE
  5
5CE0
  8
DANMEN
  6
CONTINUOUS
 10
141.57501913700841
 20
312.9028327908905
 30
0.0
 11
145.47501913700839
 21
309.00283279089052
 31
0.0
  0
LINE
  5
5CE1
  8
DANMEN
  6
CONTINUOUS
 10
142.98923436108251
 20
312.9028327908905
 30
0.0
 11
146.88923436108249
 21
309.00283279089052
 31
0.0
  0
LINE
  5
5CE2
  8
DANMEN
  6
CONTINUOUS
 10
144.40344958515649
 20
312.9028327908905
 30
0.0
 11
148.3034495851565
 21
309.00283279089052
 31
0.0
  0
LINE
  5
5CE3
  8
DANMEN
  6
CONTINUOUS
 10
145.81766480923051
 20
312.9028327908905
 30
0.0
 11
149.7176648092306
 21
309.00283279089041
 31
0.0
  0
LINE
  5
5CE4
  8
DANMEN
  6
CONTINUOUS
 10
147.23188003330461
 20
312.9028327908905
 30
0.0
 11
152.65197245087711
 21
307.48274037331788
 31
0.0
  0
LINE
  5
5CE5
  8
DANMEN
  6
CONTINUOUS
 10
148.64609525737859
 20
312.9028327908905
 30
0.0
 11
153.57501913700841
 21
307.97390891126071
 31
0.0
  0
LINE
  5
5CE6
  8
DANMEN
  6
CONTINUOUS
 10
150.0603104814526
 20
312.9028327908905
 30
0.0
 11
153.5750191370083
 21
309.38812413533481
 31
0.0
  0
LINE
  5
5CE7
  8
DANMEN
  6
CONTINUOUS
 10
151.47452570552659
 20
312.9028327908905
 30
0.0
 11
153.5750191370083
 21
310.80233935940879
 31
0.0
  0
LINE
  5
5CE8
  8
DANMEN
  6
CONTINUOUS
 10
152.88874092960069
 20
312.9028327908905
 30
0.0
 11
153.5750191370083
 21
312.21655458348278
 31
0.0
  0
LINE
  5
5CE9
  8
DANMEN
  6
CONTINUOUS
 10
153.5750391370083
 20
222.11603915200109
 30
0.0
 11
153.29454585193909
 21
222.39653243707031
 31
0.0
  0
LINE
  5
5CEA
  8
DANMEN
  6
CONTINUOUS
 10
153.5750391370083
 20
220.70182392792699
 30
0.0
 11
153.25295128438029
 21
221.0239117805551
 31
0.0
  0
LINE
  5
5CEB
  8
DANMEN
  6
CONTINUOUS
 10
153.5750391370083
 20
219.28760870385301
 30
0.0
 11
153.21135671682151
 21
219.65129112403989
 31
0.0
  0
LINE
  5
5CEC
  8
DANMEN
  6
CONTINUOUS
 10
153.1873247264538
 20
218.85823548403971
 30
0.0
 11
153.5750391370083
 21
219.24594989459419
 31
0.0
  0
LINE
  5
5CED
  8
DANMEN
  6
CONTINUOUS
 10
153.23151895462749
 20
220.31664493628739
 30
0.0
 11
153.5750391370083
 21
220.66016511866829
 31
0.0
  0
LINE
  5
5CEE
  8
DANMEN
  6
CONTINUOUS
 10
153.27571318280121
 20
221.7750543885351
 30
0.0
 11
153.5750391370083
 21
222.0743803427423
 31
0.0
  0
LINE
  5
5CEF
  8
DANMEN
  6
CONTINUOUS
 10
153.31990741097491
 20
223.23346384078289
 30
0.0
 11
153.48925436108249
 21
223.4028107908905
 31
0.0
  0
LINE
  5
5CF0
  8
DANMEN
  6
CONTINUOUS
 10
141.85161705674221
 20
222.52573943967499
 30
0.0
 11
141.5750391370085
 21
222.8023173594087
 31
0.0
  0
LINE
  5
5CF1
  8
DANMEN
  6
CONTINUOUS
 10
141.89581128249449
 20
221.06732998984859
 30
0.0
 11
141.57503913700839
 21
221.38810213533469
 31
0.0
  0
LINE
  5
5CF2
  8
DANMEN
  6
CONTINUOUS
 10
141.94000550824691
 20
219.60892054002221
 30
0.0
 11
141.5750391370085
 21
219.97388691126071
 31
0.0
  0
LINE
  5
5CF3
  8
DANMEN
  6
CONTINUOUS
 10
141.73190003330461
 20
218.4028107908905
 30
0.0
 11
141.5750391370085
 21
218.55967168718661
 31
0.0
  0
LINE
  5
5CF4
  8
DANMEN
  6
CONTINUOUS
 10
141.5750391370085
 20
218.55967168718661
 30
0.0
 11
141.960131463588
 21
218.9447640137661
 31
0.0
  0
LINE
  5
5CF5
  8
DANMEN
  6
CONTINUOUS
 10
141.5750391370085
 20
219.97388691126059
 30
0.0
 11
141.91853689817401
 21
220.31738467242619
 31
0.0
  0
LINE
  5
5CF6
  8
DANMEN
  6
CONTINUOUS
 10
141.5750391370085
 20
221.38810213533469
 30
0.0
 11
141.87694233276011
 21
221.69000533108621
 31
0.0
  0
LINE
  5
5CF7
  8
DANMEN
  6
CONTINUOUS
 10
141.5750391370085
 20
222.8023173594087
 30
0.0
 11
141.83534776734601
 21
223.06262598974629
 31
0.0
  0
LINE
  5
5CF8
  8
DANMEN
  6
CONTINUOUS
 10
153.5750391370083
 20
217.873393479779
 30
0.0
 11
153.0221003173869
 21
218.42633229940051
 31
0.0
  0
LINE
  5
5CF9
  8
DANMEN
  6
CONTINUOUS
 10
153.5750391370083
 20
216.4591782557049
 30
0.0
 11
152.03111696039659
 21
218.0031004323167
 31
0.0
  0
LINE
  5
5CFA
  8
DANMEN
  6
CONTINUOUS
 10
153.5750391370083
 20
215.04496303163091
 30
0.0
 11
151.33087643680659
 21
217.2891257318326
 31
0.0
  0
LINE
  5
5CFB
  8
DANMEN
  6
CONTINUOUS
 10
153.5750391370083
 20
213.6307478075569
 30
0.0
 11
150.4029761536747
 21
216.8028107908905
 31
0.0
  0
LINE
  5
5CFC
  8
DANMEN
  6
CONTINUOUS
 10
152.88876092960069
 20
212.9028107908905
 30
0.0
 11
148.98876092960069
 21
216.8028107908905
 31
0.0
  0
LINE
  5
5CFD
  8
DANMEN
  6
CONTINUOUS
 10
151.47454570552659
 20
212.90281079089041
 30
0.0
 11
147.5745457055267
 21
216.8028107908905
 31
0.0
  0
LINE
  5
5CFE
  8
DANMEN
  6
CONTINUOUS
 10
150.06033048145261
 20
212.9028107908905
 30
0.0
 11
146.1603304814526
 21
216.8028107908905
 31
0.0
  0
LINE
  5
5CFF
  8
DANMEN
  6
CONTINUOUS
 10
148.6461152573786
 20
212.9028107908905
 30
0.0
 11
144.74611525737859
 21
216.8028107908905
 31
0.0
  0
LINE
  5
5D00
  8
DANMEN
  6
CONTINUOUS
 10
147.23190003330461
 20
212.9028107908905
 30
0.0
 11
141.73190003330461
 21
218.4028107908905
 31
0.0
  0
LINE
  5
5D01
  8
DANMEN
  6
CONTINUOUS
 10
145.81768480923051
 20
212.9028107908905
 30
0.0
 11
141.5750391370085
 21
217.14545646311259
 31
0.0
  0
LINE
  5
5D02
  8
DANMEN
  6
CONTINUOUS
 10
144.4034695851565
 20
212.90281079089041
 30
0.0
 11
141.5750391370085
 21
215.7312412390385
 31
0.0
  0
LINE
  5
5D03
  8
DANMEN
  6
CONTINUOUS
 10
142.98925436108249
 20
212.9028107908905
 30
0.0
 11
141.5750391370085
 21
214.31702601496451
 31
0.0
  0
LINE
  5
5D04
  8
DANMEN
  6
CONTINUOUS
 10
152.88876092960069
 20
212.90281079089041
 30
0.0
 11
153.5750391370083
 21
213.58908899829811
 31
0.0
  0
LINE
  5
5D05
  8
DANMEN
  6
CONTINUOUS
 10
151.47454570552659
 20
212.90281079089041
 30
0.0
 11
153.5750391370083
 21
215.00330422237209
 31
0.0
  0
LINE
  5
5D06
  8
DANMEN
  6
CONTINUOUS
 10
150.06033048145261
 20
212.90281079089041
 30
0.0
 11
153.5750391370083
 21
216.41751944644619
 31
0.0
  0
LINE
  5
5D07
  8
DANMEN
  6
CONTINUOUS
 10
148.64611525737871
 20
212.9028107908905
 30
0.0
 11
153.5750391370083
 21
217.83173467052021
 31
0.0
  0
LINE
  5
5D08
  8
DANMEN
  6
CONTINUOUS
 10
147.23190003330461
 20
212.9028107908905
 30
0.0
 11
152.6519924508772
 21
218.32290320846309
 31
0.0
  0
LINE
  5
5D09
  8
DANMEN
  6
CONTINUOUS
 10
145.8176848092306
 20
212.90281079089041
 30
0.0
 11
149.7176848092306
 21
216.8028107908905
 31
0.0
  0
LINE
  5
5D0A
  8
DANMEN
  6
CONTINUOUS
 10
144.4034695851565
 20
212.90281079089041
 30
0.0
 11
148.30346958515651
 21
216.8028107908905
 31
0.0
  0
LINE
  5
5D0B
  8
DANMEN
  6
CONTINUOUS
 10
142.98925436108249
 20
212.9028107908905
 30
0.0
 11
146.88925436108249
 21
216.8028107908905
 31
0.0
  0
LINE
  5
5D0C
  8
DANMEN
  6
CONTINUOUS
 10
141.5750391370085
 20
212.9028107908905
 30
0.0
 11
145.47503913700851
 21
216.8028107908905
 31
0.0
  0
LINE
  5
5D0D
  8
DANMEN
  6
CONTINUOUS
 10
141.5750391370085
 20
214.31702601496451
 30
0.0
 11
144.07095437889811
 21
216.81294125685409
 31
0.0
  0
LINE
  5
5D0E
  8
DANMEN
  6
CONTINUOUS
 10
141.5750391370085
 20
215.7312412390385
 30
0.0
 11
143.51276410544239
 21
217.66896620747261
 31
0.0
  0
LINE
  5
5D0F
  8
DANMEN
  6
CONTINUOUS
 10
141.5750391370085
 20
217.14545646311259
 30
0.0
 11
142.67970297867109
 21
218.25012030477521
 31
0.0
  0
POLYLINE
  5
5D10
  8
SUNPO
  6
BYBLOCK
 66
     1
 10
0.0
 20
0.0
 30
0.0
 70
     1
 40
1.159999999999999
 41
1.159999999999999
  0
VERTEX
  5
61F3
  8
SUNPO
  6
BYBLOCK
 10
97.573230137008466
 20
298.04783379089048
 30
0.0
 42
1.0
  0
VERTEX
  5
61F4
  8
SUNPO
  6
BYBLOCK
 10
97.573230137008466
 20
297.75783379089052
 30
0.0
 42
1.0
  0
SEQEND
  5
61F5
  8
SUNPO
  6
BYBLOCK
  0
POLYLINE
  5
5D11
  8
SUNPO
  6
BYBLOCK
 66
     1
 10
0.0
 20
0.0
 30
0.0
 70
     1
 40
1.159999999999999
 41
1.159999999999999
  0
VERTEX
  5
61F6
  8
SUNPO
  6
BYBLOCK
 10
97.573230137008466
 20
337.75784779089048
 30
0.0
 42
1.0
  0
VERTEX
  5
61F7
  8
SUNPO
  6
BYBLOCK
 10
97.573230137008466
 20
338.04784779089039
 30
0.0
 42
1.0
  0
SEQEND
  5
61F8
  8
SUNPO
  6
BYBLOCK
  0
TEXT
  5
5D12
  8
SUNPO
  6
CONTINUOUS
 10
97.073230137008466
 20
315.42784079089051
 30
0.0
 40
3.0
  1
40
 50
90.0
 41
1.1000000000000001
  7
MX_DIMTXSTY_2
  0
POLYLINE
  5
5D13
  8
SUNPO
  6
BYBLOCK
 66
     1
 10
0.0
 20
0.0
 30
0.0
 70
     1
 40
1.159999999999999
 41
1.159999999999999
  0
VERTEX
  5
61F9
  8
SUNPO
  6
BYBLOCK
 10
222.5749891370084
 20
347.7578417908905
 30
0.0
 42
1.0
  0
VERTEX
  5
61FA
  8
SUNPO
  6
BYBLOCK
 10
222.5749891370084
 20
348.04784179089052
 30
0.0
 42
1.0
  0
SEQEND
  5
61FB
  8
SUNPO
  6
BYBLOCK
  0
TEXT
  5
5D14
  8
SUNPO
  6
CONTINUOUS
 10
222.0749891370084
 20
320.42783779089052
 30
0.0
 40
3.0
  1
50
 50
90.0
 41
1.1000000000000001
  7
MX_DIMTXSTY_2
  0
POLYLINE
  5
5D15
  8
SUNPO
  6
BYBLOCK
 66
     1
 10
0.0
 20
0.0
 30
0.0
 70
     1
 40
1.159999999999999
 41
1.159999999999999
  0
VERTEX
  5
61FC
  8
SUNPO
  6
BYBLOCK
 10
165.4299891370085
 20
261.40662079089049
 30
0.0
 42
1.0
  0
VERTEX
  5
61FD
  8
SUNPO
  6
BYBLOCK
 10
165.71998913700841
 20
261.40662079089049
 30
0.0
 42
1.0
  0
SEQEND
  5
61FE
  8
SUNPO
  6
BYBLOCK
  0
POLYLINE
  5
5D16
  8
SUNPO
  6
BYBLOCK
 66
     1
 10
0.0
 20
0.0
 30
0.0
 70
     1
 40
1.159999999999999
 41
1.159999999999999
  0
VERTEX
  5
61FF
  8
SUNPO
  6
BYBLOCK
 10
129.7199891370085
 20
261.40662079089049
 30
0.0
 42
1.0
  0
VERTEX
  5
6200
  8
SUNPO
  6
BYBLOCK
 10
129.4299891370085
 20
261.40662079089049
 30
0.0
 42
1.0
  0
SEQEND
  5
6201
  8
SUNPO
  6
BYBLOCK
  0
TEXT
  5
5D17
  8
SUNPO
  6
CONTINUOUS
 10
145.07498913700849
 20
261.90662079089049
 30
0.0
 40
3.0
  1
36
  7
MX_NOTE_STANDARD
  0
POLYLINE
  5
5D18
  8
SUNPO
  6
BYBLOCK
 66
     1
 10
0.0
 20
0.0
 30
0.0
 70
     1
 40
1.159999999999999
 41
1.159999999999999
  0
VERTEX
  5
6202
  8
SUNPO
  6
BYBLOCK
 10
129.4299891370085
 20
261.40662079089049
 30
0.0
 42
1.0
  0
VERTEX
  5
6203
  8
SUNPO
  6
BYBLOCK
 10
129.7199891370085
 20
261.40662079089049
 30
0.0
 42
1.0
  0
SEQEND
  5
6204
  8
SUNPO
  6
BYBLOCK
  0
POLYLINE
  5
5D19
  8
SUNPO
  6
BYBLOCK
 66
     1
 10
0.0
 20
0.0
 30
0.0
 70
     1
 40
1.159999999999999
 41
1.159999999999999
  0
VERTEX
  5
6205
  8
SUNPO
  6
BYBLOCK
 10
127.7199891370085
 20
261.40662079089049
 30
0.0
 42
1.0
  0
VERTEX
  5
6206
  8
SUNPO
  6
BYBLOCK
 10
127.4299891370085
 20
261.40662079089049
 30
0.0
 42
1.0
  0
SEQEND
  5
6207
  8
SUNPO
  6
BYBLOCK
  0
TEXT
  5
5D1A
  8
SUNPO
  6
CONTINUOUS
 10
123.0232111370084
 20
261.90662079089049
 30
0.0
 40
3.0
  1
2
  7
MX_NOTE_STANDARD
  0
POLYLINE
  5
5D1B
  8
SUNPO
  6
BYBLOCK
 66
     1
 10
0.0
 20
0.0
 30
0.0
 70
     1
 40
1.159999999999999
 41
1.159999999999999
  0
VERTEX
  5
6208
  8
SUNPO
  6
BYBLOCK
 10
222.5749891370084
 20
178.0478477908905
 30
0.0
 42
1.0
  0
VERTEX
  5
6209
  8
SUNPO
  6
BYBLOCK
 10
222.5749891370084
 20
177.75784779089051
 30
0.0
 42
1.0
  0
SEQEND
  5
620A
  8
SUNPO
  6
BYBLOCK
  0
TEXT
  5
5D1C
  8
SUNPO
  6
CONTINUOUS
 10
222.0749891370084
 20
202.90284779089049
 30
0.0
 40
3.0
  1
55
 50
90.0
  7
MX_NOTE_STANDARD
  0
POLYLINE
  5
5D1D
  8
SUNPO
  6
BYBLOCK
 66
     1
 10
0.0
 20
0.0
 30
0.0
 70
     1
 40
1.159999999999999
 41
1.159999999999999
  0
VERTEX
  5
620B
  8
SUNPO
  6
BYBLOCK
 10
197.4299891370085
 20
261.40662079089049
 30
0.0
 42
1.0
  0
VERTEX
  5
620C
  8
SUNPO
  6
BYBLOCK
 10
197.7199891370085
 20
261.40662079089049
 30
0.0
 42
1.0
  0
SEQEND
  5
620D
  8
SUNPO
  6
BYBLOCK
  0
TEXT
  5
5D1E
  8
SUNPO
  6
CONTINUOUS
 10
179.10148013700839
 20
261.90662079089049
 30
0.0
 40
3.0
  1
32
  7
MX_NOTE_STANDARD
  0
POLYLINE
  5
5D1F
  8
SUNPO
  6
BYBLOCK
 66
     1
 10
0.0
 20
0.0
 30
0.0
 70
     1
 40
1.159999999999999
 41
1.159999999999999
  0
VERTEX
  5
620E
  8
SUNPO
  6
BYBLOCK
 10
97.572473982271447
 20
188.048025790888
 30
0.0
 42
1.0
  0
VERTEX
  5
620F
  8
SUNPO
  6
BYBLOCK
 10
97.572472291745555
 20
187.7580257908929
 30
0.0
 42
1.0
  0
SEQEND
  5
6210
  8
SUNPO
  6
BYBLOCK
  0
POLYLINE
  5
5D20
  8
SUNPO
  6
BYBLOCK
 66
     1
 10
0.0
 20
0.0
 30
0.0
 70
     1
 40
1.159999999999999
 41
1.159999999999999
  0
VERTEX
  5
6211
  8
SUNPO
  6
BYBLOCK
 10
97.572705291745535
 20
227.75806279089301
 30
0.0
 42
1.0
  0
VERTEX
  5
6212
  8
SUNPO
  6
BYBLOCK
 10
97.572706982271427
 20
228.048062790888
 30
0.0
 42
1.0
  0
SEQEND
  5
6213
  8
SUNPO
  6
BYBLOCK
  0
TEXT
  5
5D21
  8
SUNPO
  6
CONTINUOUS
 10
97.072575286981476
 20
205.42804679093501
 30
0.0
 40
3.0
  1
40
 50
89.999656225323776
 41
1.1000000000000001
  7
MX_DIMTXSTY_2
  0
POLYLINE
  5
5D22
  8
SUNPO
  6
BYBLOCK
 66
     1
 10
0.0
 20
0.0
 30
0.0
 70
     1
 40
1.159999999999999
 41
1.159999999999999
  0
VERTEX
  5
6214
  8
SUNPO
  6
BYBLOCK
 10
107.57323013700839
 20
188.0478477908905
 30
0.0
 42
1.0
  0
VERTEX
  5
6215
  8
SUNPO
  6
BYBLOCK
 10
107.57323013700839
 20
187.75784779089051
 30
0.0
 42
1.0
  0
SEQEND
  5
6216
  8
SUNPO
  6
BYBLOCK
  0
POLYLINE
  5
5D23
  8
SUNPO
  6
BYBLOCK
 66
     1
 10
0.0
 20
0.0
 30
0.0
 70
     1
 40
1.159999999999999
 41
1.159999999999999
  0
VERTEX
  5
6217
  8
SUNPO
  6
BYBLOCK
 10
107.57323013700839
 20
190.75784779089051
 30
0.0
 42
1.0
  0
VERTEX
  5
6218
  8
SUNPO
  6
BYBLOCK
 10
107.57323013700839
 20
191.0478477908905
 30
0.0
 42
1.0
  0
SEQEND
  5
6219
  8
SUNPO
  6
BYBLOCK
  0
TEXT
  5
5D24
  8
SUNPO
  6
CONTINUOUS
 10
107.07323013700839
 20
188.40284779089049
 30
0.0
 40
3.0
  1
3
 50
90.0
  7
MX_NOTE_STANDARD
  0
POLYLINE
  5
5D25
  8
SUNPO
  6
BYBLOCK
 66
     1
 10
0.0
 20
0.0
 30
0.0
 70
     1
 40
1.159999999999999
 41
1.159999999999999
  0
VERTEX
  5
621A
  8
SUNPO
  6
BYBLOCK
 10
107.57323013700839
 20
228.04784779089039
 30
0.0
 42
1.0
  0
VERTEX
  5
621B
  8
SUNPO
  6
BYBLOCK
 10
107.57323013700839
 20
227.75784779089051
 30
0.0
 42
1.0
  0
SEQEND
  5
621C
  8
SUNPO
  6
BYBLOCK
  0
POLYLINE
  5
5D26
  8
SUNPO
  6
BYBLOCK
 66
     1
 10
0.0
 20
0.0
 30
0.0
 70
     1
 40
1.159999999999999
 41
1.159999999999999
  0
VERTEX
  5
621D
  8
SUNPO
  6
BYBLOCK
 10
107.57323013700839
 20
232.75784779089051
 30
0.0
 42
1.0
  0
VERTEX
  5
621E
  8
SUNPO
  6
BYBLOCK
 10
107.57323013700839
 20
233.0478477908905
 30
0.0
 42
1.0
  0
SEQEND
  5
621F
  8
SUNPO
  6
BYBLOCK
  0
TEXT
  5
5D27
  8
SUNPO
  6
CONTINUOUS
 10
107.07323013700839
 20
229.40284779089049
 30
0.0
 40
3.0
  1
5
 50
90.0
  7
MX_NOTE_STANDARD
  0
POLYLINE
  5
5D28
  8
SUNPO
  6
BYBLOCK
 66
     1
 10
0.0
 20
0.0
 30
0.0
 70
     1
 40
1.159999999999999
 41
1.159999999999999
  0
VERTEX
  5
6220
  8
SUNPO
  6
BYBLOCK
 10
107.57323013700839
 20
191.0478477908905
 30
0.0
 42
1.0
  0
VERTEX
  5
6221
  8
SUNPO
  6
BYBLOCK
 10
107.57323013700839
 20
190.75784779089051
 30
0.0
 42
1.0
  0
SEQEND
  5
6222
  8
SUNPO
  6
BYBLOCK
  0
POLYLINE
  5
5D29
  8
SUNPO
  6
BYBLOCK
 66
     1
 10
0.0
 20
0.0
 30
0.0
 70
     1
 40
1.159999999999999
 41
1.159999999999999
  0
VERTEX
  5
6223
  8
SUNPO
  6
BYBLOCK
 10
107.57323013700839
 20
202.75766479089049
 30
0.0
 42
1.0
  0
VERTEX
  5
6224
  8
SUNPO
  6
BYBLOCK
 10
107.57323013700839
 20
203.04766479089051
 30
0.0
 42
1.0
  0
SEQEND
  5
6225
  8
SUNPO
  6
BYBLOCK
  0
TEXT
  5
5D2A
  8
SUNPO
  6
CONTINUOUS
 10
107.07323013700839
 20
194.50275679089049
 30
0.0
 40
3.0
  1
12
 50
90.0
 41
1.1999999999999991
  7
MX_DIMTXSTY_3
  0
POLYLINE
  5
5D2B
  8
SUNPO
  6
BYBLOCK
 66
     1
 10
0.0
 20
0.0
 30
0.0
 70
     1
 40
1.159999999999999
 41
1.159999999999999
  0
VERTEX
  5
6226
  8
SUNPO
  6
BYBLOCK
 10
107.57323013700839
 20
203.04766479089051
 30
0.0
 42
1.0
  0
VERTEX
  5
6227
  8
SUNPO
  6
BYBLOCK
 10
107.57323013700839
 20
202.75766479089049
 30
0.0
 42
1.0
  0
SEQEND
  5
6228
  8
SUNPO
  6
BYBLOCK
  0
POLYLINE
  5
5D2C
  8
SUNPO
  6
BYBLOCK
 66
     1
 10
0.0
 20
0.0
 30
0.0
 70
     1
 40
1.159999999999999
 41
1.159999999999999
  0
VERTEX
  5
6229
  8
SUNPO
  6
BYBLOCK
 10
107.57323013700839
 20
227.75766379089049
 30
0.0
 42
1.0
  0
VERTEX
  5
622A
  8
SUNPO
  6
BYBLOCK
 10
107.57323013700839
 20
228.0476637908904
 30
0.0
 42
1.0
  0
SEQEND
  5
622B
  8
SUNPO
  6
BYBLOCK
  0
TEXT
  5
5D2D
  8
SUNPO
  6
CONTINUOUS
 10
107.07323013700839
 20
212.9026637908905
 30
0.0
 40
3.0
  1
25
 50
90.0
  7
MX_NOTE_STANDARD
  0
POLYLINE
  5
5D2E
  8
SUNPO
  6
BYBLOCK
 66
     1
 10
0.0
 20
0.0
 30
0.0
 70
     1
 40
1.159999999999999
 41
1.159999999999999
  0
VERTEX
  5
622C
  8
SUNPO
  6
BYBLOCK
 10
425.13459713700843
 20
170.3168467149687
 30
0.0
 42
1.0
  0
VERTEX
  5
622D
  8
SUNPO
  6
BYBLOCK
 10
425.42459713700839
 20
170.31684686681231
 30
0.0
 42
1.0
  0
SEQEND
  5
622E
  8
SUNPO
  6
BYBLOCK
  0
TEXT
  5
5D2F
  8
SUNPO
  6
CONTINUOUS
 10
407.80460063700968
 20
170.81683631589129
 30
0.0
 40
3.0
  1
30
 50
0.0000572957793684
 41
1.1000000000000001
  7
MX_DIMTXSTY_2
  0
POLYLINE
  5
5D30
  8
SUNPO
  6
BYBLOCK
 66
     1
 10
0.0
 20
0.0
 30
0.0
 70
     1
 40
1.159999999999999
 41
1.159999999999999
  0
VERTEX
  5
622F
  8
SUNPO
  6
BYBLOCK
 10
255.9245831370084
 20
170.3168467149687
 30
0.0
 42
1.0
  0
VERTEX
  5
6230
  8
SUNPO
  6
BYBLOCK
 10
255.63458313700849
 20
170.31684686681231
 30
0.0
 42
1.0
  0
SEQEND
  5
6231
  8
SUNPO
  6
BYBLOCK
  0
TEXT
  5
5D31
  8
SUNPO
  6
CONTINUOUS
 10
268.30457963700968
 20
170.81684126589121
 30
0.0
 40
3.0
  1
30
 50
359.99994270422059
 41
1.1000000000000001
  7
MX_DIMTXSTY_2
  0
POLYLINE
  5
5D32
  8
SUNPO
  6
BYBLOCK
 66
     1
 10
0.0
 20
0.0
 30
0.0
 70
     1
 40
1.159999999999999
 41
1.159999999999999
  0
VERTEX
  5
6232
  8
SUNPO
  6
BYBLOCK
 10
260.92478313700849
 20
280.31691179089052
 30
0.0
 42
1.0
  0
VERTEX
  5
6233
  8
SUNPO
  6
BYBLOCK
 10
260.63478313700841
 20
280.31691179089052
 30
0.0
 42
1.0
  0
SEQEND
  5
6234
  8
SUNPO
  6
BYBLOCK
  0
POLYLINE
  5
5D33
  8
SUNPO
  6
BYBLOCK
 66
     1
 10
0.0
 20
0.0
 30
0.0
 70
     1
 40
1.159999999999999
 41
1.159999999999999
  0
VERTEX
  5
6235
  8
SUNPO
  6
BYBLOCK
 10
285.63478313700841
 20
280.31691179089052
 30
0.0
 42
1.0
  0
VERTEX
  5
6236
  8
SUNPO
  6
BYBLOCK
 10
285.92478313700849
 20
280.31691179089052
 30
0.0
 42
1.0
  0
SEQEND
  5
6237
  8
SUNPO
  6
BYBLOCK
  0
TEXT
  5
5D34
  8
SUNPO
  6
CONTINUOUS
 10
270.77978313700851
 20
280.81691179089052
 30
0.0
 40
3.0
  1
25
  7
MX_NOTE_STANDARD
  0
POLYLINE
  5
5D35
  8
SUNPO
  6
BYBLOCK
 66
     1
 10
0.0
 20
0.0
 30
0.0
 70
     1
 40
1.159999999999999
 41
1.159999999999999
  0
VERTEX
  5
6238
  8
SUNPO
  6
BYBLOCK
 10
331.29423513700851
 20
190.46191279089049
 30
0.0
 42
1.0
  0
VERTEX
  5
6239
  8
SUNPO
  6
BYBLOCK
 10
331.29423513700851
 20
190.1719127908905
 30
0.0
 42
1.0
  0
SEQEND
  5
623A
  8
SUNPO
  6
BYBLOCK
  0
POLYLINE
  5
5D36
  8
SUNPO
  6
BYBLOCK
 66
     1
 10
0.0
 20
0.0
 30
0.0
 70
     1
 40
1.159999999999999
 41
1.159999999999999
  0
VERTEX
  5
623B
  8
SUNPO
  6
BYBLOCK
 10
331.29423513700851
 20
260.17191179089048
 30
0.0
 42
1.0
  0
VERTEX
  5
623C
  8
SUNPO
  6
BYBLOCK
 10
331.29423513700851
 20
260.4619117908905
 30
0.0
 42
1.0
  0
SEQEND
  5
623D
  8
SUNPO
  6
BYBLOCK
  0
TEXT
  5
5D37
  8
SUNPO
  6
CONTINUOUS
 10
330.79423513700851
 20
214.9024277908905
 30
0.0
 40
3.0
  1
70
 50
90.0
 41
1.1000000000000001
  7
MX_DIMTXSTY_2
  0
LINE
  5
5D38
  8
DANMEN
  6
CONTINUOUS
 10
279.99302549811898
 20
234.3168677908906
 30
0.0
 11
280.27351878318819
 21
234.59736107595981
 31
0.0
  0
LINE
  5
5D39
  8
DANMEN
  6
CONTINUOUS
 10
278.578810274045
 20
234.3168677908906
 30
0.0
 11
278.90089812667298
 21
234.63895564351861
 31
0.0
  0
LINE
  5
5D3A
  8
DANMEN
  6
CONTINUOUS
 10
277.1645950499709
 20
234.3168677908906
 30
0.0
 11
277.52827747015778
 21
234.6805502110775
 31
0.0
  0
LINE
  5
5D3B
  8
DANMEN
  6
CONTINUOUS
 10
276.73522183015751
 20
234.70458220144519
 30
0.0
 11
277.12293624071219
 21
234.3168677908906
 31
0.0
  0
LINE
  5
5D3C
  8
DANMEN
  6
CONTINUOUS
 10
278.19363128240531
 20
234.66038797327161
 30
0.0
 11
278.53715146478618
 21
234.3168677908906
 31
0.0
  0
LINE
  5
5D3D
  8
DANMEN
  6
CONTINUOUS
 10
279.65204073465299
 20
234.6161937450978
 30
0.0
 11
279.95136668886022
 21
234.3168677908906
 31
0.0
  0
LINE
  5
5D3E
  8
DANMEN
  6
CONTINUOUS
 10
281.11045018690078
 20
234.57199951692411
 30
0.0
 11
281.27979713700842
 21
234.40265256681641
 31
0.0
  0
LINE
  5
5D3F
  8
DANMEN
  6
CONTINUOUS
 10
280.402725785793
 20
246.0402898711568
 30
0.0
 11
280.67930370552659
 21
246.31686779089051
 31
0.0
  0
LINE
  5
5D40
  8
DANMEN
  6
CONTINUOUS
 10
278.94431633596662
 20
245.99609564540441
 30
0.0
 11
279.26508848145261
 21
246.31686779089051
 31
0.0
  0
LINE
  5
5D41
  8
DANMEN
  6
CONTINUOUS
 10
277.48590688614019
 20
245.9519014196521
 30
0.0
 11
277.85087325737862
 21
246.31686779089051
 31
0.0
  0
LINE
  5
5D42
  8
DANMEN
  6
CONTINUOUS
 10
276.27979713700842
 20
246.1600068945944
 30
0.0
 11
276.43665803330452
 21
246.31686779089051
 31
0.0
  0
LINE
  5
5D43
  8
DANMEN
  6
CONTINUOUS
 10
276.43665803330452
 20
246.31686779089051
 30
0.0
 11
276.82175035988399
 21
245.93177546431099
 31
0.0
  0
LINE
  5
5D44
  8
DANMEN
  6
CONTINUOUS
 10
277.85087325737862
 20
246.31686779089051
 30
0.0
 11
278.19437101854408
 21
245.97337002972489
 31
0.0
  0
LINE
  5
5D45
  8
DANMEN
  6
CONTINUOUS
 10
279.26508848145261
 20
246.31686779089051
 30
0.0
 11
279.56699167720421
 21
246.01496459513899
 31
0.0
  0
LINE
  5
5D46
  8
DANMEN
  6
CONTINUOUS
 10
280.67930370552659
 20
246.31686779089051
 30
0.0
 11
280.93961233586418
 21
246.05655916055289
 31
0.0
  0
LINE
  5
5D47
  8
DANMEN
  6
CONTINUOUS
 10
275.75037982589691
 20
234.3168677908906
 30
0.0
 11
276.30331864551852
 21
234.86980661051209
 31
0.0
  0
LINE
  5
5D48
  8
DANMEN
  6
CONTINUOUS
 10
274.33616460182287
 20
234.3168677908906
 30
0.0
 11
275.88008677843459
 21
235.8607899675024
 31
0.0
  0
LINE
  5
5D49
  8
DANMEN
  6
CONTINUOUS
 10
272.92194937774877
 20
234.3168677908906
 30
0.0
 11
275.16611207795057
 21
236.56103049109231
 31
0.0
  0
LINE
  5
5D4A
  8
DANMEN
  6
CONTINUOUS
 10
271.50773415367479
 20
234.3168677908906
 30
0.0
 11
274.67979713700851
 21
237.4889307742242
 31
0.0
  0
LINE
  5
5D4B
  8
DANMEN
  6
CONTINUOUS
 10
270.77979713700842
 20
235.00314599829821
 30
0.0
 11
274.67979713700851
 21
238.9031459982983
 31
0.0
  0
LINE
  5
5D4C
  8
DANMEN
  6
CONTINUOUS
 10
270.77979713700842
 20
236.41736122237231
 30
0.0
 11
274.67979713700851
 21
240.31736122237231
 31
0.0
  0
LINE
  5
5D4D
  8
DANMEN
  6
CONTINUOUS
 10
270.77979713700842
 20
237.83157644644629
 30
0.0
 11
274.67979713700851
 21
241.73157644644641
 31
0.0
  0
LINE
  5
5D4E
  8
DANMEN
  6
CONTINUOUS
 10
270.77979713700842
 20
239.24579167052039
 30
0.0
 11
274.67979713700851
 21
243.1457916705204
 31
0.0
  0
LINE
  5
5D4F
  8
DANMEN
  6
CONTINUOUS
 10
270.77979713700842
 20
240.6600068945944
 30
0.0
 11
276.27979713700842
 21
246.1600068945944
 31
0.0
  0
LINE
  5
5D50
  8
DANMEN
  6
CONTINUOUS
 10
270.77979713700842
 20
242.07422211866839
 30
0.0
 11
275.02244280923048
 21
246.31686779089051
 31
0.0
  0
LINE
  5
5D51
  8
DANMEN
  6
CONTINUOUS
 10
270.77979713700842
 20
243.4884373427424
 30
0.0
 11
273.6082275851565
 21
246.31686779089051
 31
0.0
  0
LINE
  5
5D52
  8
DANMEN
  6
CONTINUOUS
 10
270.77979713700842
 20
244.9026525668165
 30
0.0
 11
272.19401236108251
 21
246.31686779089051
 31
0.0
  0
LINE
  5
5D53
  8
DANMEN
  6
CONTINUOUS
 10
270.77979713700842
 20
235.00314599829821
 30
0.0
 11
271.46607534441603
 21
234.3168677908906
 31
0.0
  0
LINE
  5
5D54
  8
DANMEN
  6
CONTINUOUS
 10
270.77979713700842
 20
236.41736122237219
 30
0.0
 11
272.88029056849012
 21
234.3168677908906
 31
0.0
  0
LINE
  5
5D55
  8
DANMEN
  6
CONTINUOUS
 10
270.77979713700842
 20
237.83157644644629
 30
0.0
 11
274.29450579256411
 21
234.3168677908906
 31
0.0
  0
LINE
  5
5D56
  8
DANMEN
  6
CONTINUOUS
 10
270.77979713700842
 20
239.24579167052039
 30
0.0
 11
275.70872101663809
 21
234.3168677908906
 31
0.0
  0
LINE
  5
5D57
  8
DANMEN
  6
CONTINUOUS
 10
270.77979713700842
 20
240.6600068945944
 30
0.0
 11
276.19988955458109
 21
235.23991447702181
 31
0.0
  0
LINE
  5
5D58
  8
DANMEN
  6
CONTINUOUS
 10
270.77979713700842
 20
242.07422211866839
 30
0.0
 11
274.67979713700839
 21
238.17422211866841
 31
0.0
  0
LINE
  5
5D59
  8
DANMEN
  6
CONTINUOUS
 10
270.77979713700842
 20
243.4884373427424
 30
0.0
 11
274.67979713700839
 21
239.5884373427424
 31
0.0
  0
LINE
  5
5D5A
  8
DANMEN
  6
CONTINUOUS
 10
270.77979713700842
 20
244.90265256681641
 30
0.0
 11
274.67979713700839
 21
241.00265256681641
 31
0.0
  0
LINE
  5
5D5B
  8
DANMEN
  6
CONTINUOUS
 10
270.77979713700842
 20
246.31686779089051
 30
0.0
 11
274.67979713700839
 21
242.41686779089051
 31
0.0
  0
LINE
  5
5D5C
  8
DANMEN
  6
CONTINUOUS
 10
272.19401236108251
 20
246.31686779089051
 30
0.0
 11
274.68992760297209
 21
243.82095254900079
 31
0.0
  0
LINE
  5
5D5D
  8
DANMEN
  6
CONTINUOUS
 10
273.6082275851565
 20
246.31686779089051
 30
0.0
 11
275.54595255359061
 21
244.37914282245649
 31
0.0
  0
LINE
  5
5D5E
  8
DANMEN
  6
CONTINUOUS
 10
275.02244280923048
 20
246.31686779089051
 30
0.0
 11
276.1271066508931
 21
245.21220394922781
 31
0.0
  0
LINE
  5
5D5F
  8
DANMEN
  6
CONTINUOUS
 10
403.8945852240459
 20
234.3168677908906
 30
0.0
 11
403.53090280385891
 21
234.6805502110775
 31
0.0
  0
LINE
  5
5D60
  8
DANMEN
  6
CONTINUOUS
 10
402.4803699999718
 20
234.3168677908906
 30
0.0
 11
402.15828214734393
 21
234.6389556435187
 31
0.0
  0
LINE
  5
5D61
  8
DANMEN
  6
CONTINUOUS
 10
401.06615477589781
 20
234.3168677908906
 30
0.0
 11
400.78566149082872
 21
234.59736107595981
 31
0.0
  0
LINE
  5
5D62
  8
DANMEN
  6
CONTINUOUS
 10
399.94873008711602
 20
234.57199951692411
 30
0.0
 11
399.77938313700849
 21
234.4026525668165
 31
0.0
  0
LINE
  5
5D63
  8
DANMEN
  6
CONTINUOUS
 10
401.40713953936381
 20
234.6161937450978
 30
0.0
 11
401.10781358515658
 21
234.3168677908906
 31
0.0
  0
LINE
  5
5D64
  8
DANMEN
  6
CONTINUOUS
 10
402.8655489916116
 20
234.6603879732715
 30
0.0
 11
402.52202880923062
 21
234.3168677908906
 31
0.0
  0
LINE
  5
5D65
  8
DANMEN
  6
CONTINUOUS
 10
404.32395844385928
 20
234.70458220144519
 30
0.0
 11
403.93624403330472
 21
234.3168677908906
 31
0.0
  0
LINE
  5
5D66
  8
DANMEN
  6
CONTINUOUS
 10
404.77938313700849
 20
246.1600068945944
 30
0.0
 11
404.62252224071233
 21
246.31686779089051
 31
0.0
  0
LINE
  5
5D67
  8
DANMEN
  6
CONTINUOUS
 10
403.57327338787661
 20
245.9519014196521
 30
0.0
 11
403.20830701663829
 21
246.31686779089051
 31
0.0
  0
LINE
  5
5D68
  8
DANMEN
  6
CONTINUOUS
 10
402.11486393805029
 20
245.99609564540449
 30
0.0
 11
401.7940917925643
 21
246.31686779089051
 31
0.0
  0
LINE
  5
5D69
  8
DANMEN
  6
CONTINUOUS
 10
400.65645448822391
 20
246.0402898711568
 30
0.0
 11
400.3798765684902
 21
246.31686779089051
 31
0.0
  0
LINE
  5
5D6A
  8
DANMEN
  6
CONTINUOUS
 10
400.3798765684902
 20
246.31686779089051
 30
0.0
 11
400.11956793815273
 21
246.05655916055289
 31
0.0
  0
LINE
  5
5D6B
  8
DANMEN
  6
CONTINUOUS
 10
401.7940917925643
 20
246.31686779089051
 30
0.0
 11
401.4921885968127
 21
246.01496459513899
 31
0.0
  0
LINE
  5
5D6C
  8
DANMEN
  6
CONTINUOUS
 10
403.20830701663829
 20
246.31686779089051
 30
0.0
 11
402.86480925547272
 21
245.97337002972489
 31
0.0
  0
LINE
  5
5D6D
  8
DANMEN
  6
CONTINUOUS
 10
404.62252224071233
 20
246.31686779089051
 30
0.0
 11
404.2374299141328
 21
245.93177546431099
 31
0.0
  0
LINE
  5
5D6E
  8
DANMEN
  6
CONTINUOUS
 10
410.27938313700838
 20
244.90265256681641
 30
0.0
 11
408.8651679129344
 21
246.31686779089051
 31
0.0
  0
LINE
  5
5D6F
  8
DANMEN
  6
CONTINUOUS
 10
410.27938313700838
 20
243.4884373427424
 30
0.0
 11
407.4509526888603
 21
246.31686779089051
 31
0.0
  0
LINE
  5
5D70
  8
DANMEN
  6
CONTINUOUS
 10
410.27938313700838
 20
242.07422211866839
 30
0.0
 11
406.03673746478643
 21
246.31686779089051
 31
0.0
  0
LINE
  5
5D71
  8
DANMEN
  6
CONTINUOUS
 10
410.27938313700838
 20
240.6600068945944
 30
0.0
 11
404.77938313700849
 21
246.1600068945944
 31
0.0
  0
LINE
  5
5D72
  8
DANMEN
  6
CONTINUOUS
 10
410.27938313700838
 20
239.24579167052039
 30
0.0
 11
406.3793831370084
 21
243.1457916705204
 31
0.0
  0
LINE
  5
5D73
  8
DANMEN
  6
CONTINUOUS
 10
410.27938313700838
 20
237.83157644644629
 30
0.0
 11
406.3793831370084
 21
241.7315764464463
 31
0.0
  0
LINE
  5
5D74
  8
DANMEN
  6
CONTINUOUS
 10
410.27938313700838
 20
236.41736122237219
 30
0.0
 11
406.3793831370084
 21
240.31736122237231
 31
0.0
  0
LINE
  5
5D75
  8
DANMEN
  6
CONTINUOUS
 10
410.27938313700838
 20
235.00314599829821
 30
0.0
 11
406.3793831370084
 21
238.90314599829821
 31
0.0
  0
LINE
  5
5D76
  8
DANMEN
  6
CONTINUOUS
 10
409.55144612034201
 20
234.3168677908906
 30
0.0
 11
406.3793831370084
 21
237.4889307742242
 31
0.0
  0
LINE
  5
5D77
  8
DANMEN
  6
CONTINUOUS
 10
408.13723089626802
 20
234.3168677908906
 30
0.0
 11
405.89306819606628
 21
236.56103049109231
 31
0.0
  0
LINE
  5
5D78
  8
DANMEN
  6
CONTINUOUS
 10
406.72301567219398
 20
234.3168677908906
 30
0.0
 11
405.17909349558221
 21
235.8607899675024
 31
0.0
  0
LINE
  5
5D79
  8
DANMEN
  6
CONTINUOUS
 10
405.30880044812
 20
234.3168677908906
 30
0.0
 11
404.75586162849839
 21
234.86980661051209
 31
0.0
  0
LINE
  5
5D7A
  8
DANMEN
  6
CONTINUOUS
 10
406.03673746478643
 20
246.31686779089051
 30
0.0
 11
404.9320736231237
 21
245.21220394922781
 31
0.0
  0
LINE
  5
5D7B
  8
DANMEN
  6
CONTINUOUS
 10
407.4509526888603
 20
246.31686779089051
 30
0.0
 11
405.5132277204263
 21
244.37914282245649
 31
0.0
  0
LINE
  5
5D7C
  8
DANMEN
  6
CONTINUOUS
 10
408.8651679129344
 20
246.31686779089051
 30
0.0
 11
406.36925267104482
 21
243.82095254900079
 31
0.0
  0
LINE
  5
5D7D
  8
DANMEN
  6
CONTINUOUS
 10
410.27938313700838
 20
246.31686779089051
 30
0.0
 11
406.3793831370084
 21
242.41686779089051
 31
0.0
  0
LINE
  5
5D7E
  8
DANMEN
  6
CONTINUOUS
 10
410.27938313700838
 20
244.9026525668165
 30
0.0
 11
406.3793831370084
 21
241.00265256681641
 31
0.0
  0
LINE
  5
5D7F
  8
DANMEN
  6
CONTINUOUS
 10
410.27938313700838
 20
243.4884373427424
 30
0.0
 11
406.3793831370084
 21
239.5884373427424
 31
0.0
  0
LINE
  5
5D80
  8
DANMEN
  6
CONTINUOUS
 10
410.27938313700838
 20
242.07422211866839
 30
0.0
 11
406.3793831370084
 21
238.17422211866841
 31
0.0
  0
LINE
  5
5D81
  8
DANMEN
  6
CONTINUOUS
 10
410.27938313700838
 20
240.6600068945944
 30
0.0
 11
404.85929071943582
 21
235.23991447702181
 31
0.0
  0
LINE
  5
5D82
  8
DANMEN
  6
CONTINUOUS
 10
410.27938313700838
 20
239.24579167052039
 30
0.0
 11
405.35045925737859
 21
234.3168677908906
 31
0.0
  0
LINE
  5
5D83
  8
DANMEN
  6
CONTINUOUS
 10
410.27938313700838
 20
237.83157644644629
 30
0.0
 11
406.76467448145269
 21
234.3168677908906
 31
0.0
  0
LINE
  5
5D84
  8
DANMEN
  6
CONTINUOUS
 10
410.27938313700838
 20
236.41736122237231
 30
0.0
 11
408.17888970552667
 21
234.3168677908906
 31
0.0
  0
LINE
  5
5D85
  8
DANMEN
  6
CONTINUOUS
 10
410.27938313700838
 20
235.00314599829821
 30
0.0
 11
409.59310492960083
 21
234.3168677908906
 31
0.0
  0
POLYLINE
  5
5D86
  8
SUNPO
  6
BYBLOCK
 66
     1
 10
0.0
 20
0.0
 30
0.0
 70
     1
 40
1.159999999999999
 41
1.159999999999999
  0
VERTEX
  5
623E
  8
SUNPO
  6
BYBLOCK
 10
127.7199891370085
 20
275.15558879089048
 30
0.0
 42
1.0
  0
VERTEX
  5
623F
  8
SUNPO
  6
BYBLOCK
 10
127.4299891370085
 20
275.15558879089048
 30
0.0
 42
1.0
  0
SEQEND
  5
6240
  8
SUNPO
  6
BYBLOCK
  0
POLYLINE
  5
5D87
  8
SUNPO
  6
BYBLOCK
 66
     1
 10
0.0
 20
0.0
 30
0.0
 70
     1
 40
1.159999999999999
 41
1.159999999999999
  0
VERTEX
  5
6241
  8
SUNPO
  6
BYBLOCK
 10
197.4299891370085
 20
275.15558879089048
 30
0.0
 42
1.0
  0
VERTEX
  5
6242
  8
SUNPO
  6
BYBLOCK
 10
197.7199891370085
 20
275.15558879089048
 30
0.0
 42
1.0
  0
SEQEND
  5
6243
  8
SUNPO
  6
BYBLOCK
  0
TEXT
  5
5D88
  8
SUNPO
  6
CONTINUOUS
 10
168.1330661370084
 20
275.65558879089048
 30
0.0
 40
3.0
  1
70
 41
1.1000000000000001
  7
MX_DIMTXSTY_2
  0
POLYLINE
  5
5D89
  8
SUNPO
  6
BYBLOCK
 66
     1
 10
0.0
 20
0.0
 30
0.0
 70
     1
 40
1.159999999999999
 41
1.159999999999999
  0
VERTEX
  5
6244
  8
SUNPO
  6
BYBLOCK
 10
352.96153113700842
 20
260.17191179089048
 30
0.0
 42
1.0
  0
VERTEX
  5
6245
  8
SUNPO
  6
BYBLOCK
 10
352.96153113700842
 20
260.4619117908905
 30
0.0
 42
1.0
  0
SEQEND
  5
6246
  8
SUNPO
  6
BYBLOCK
  0
POLYLINE
  5
5D8A
  8
SUNPO
  6
BYBLOCK
 66
     1
 10
0.0
 20
0.0
 30
0.0
 70
     1
 40
1.159999999999999
 41
1.159999999999999
  0
VERTEX
  5
6247
  8
SUNPO
  6
BYBLOCK
 10
352.96153113700842
 20
258.46189779089048
 30
0.0
 42
1.0
  0
VERTEX
  5
6248
  8
SUNPO
  6
BYBLOCK
 10
352.96153113700842
 20
258.17189779089051
 30
0.0
 42
1.0
  0
SEQEND
  5
6249
  8
SUNPO
  6
BYBLOCK
  0
TEXT
  5
5D8B
  8
SUNPO
  6
CONTINUOUS
 10
352.46153113700842
 20
263.71757479089052
 30
0.0
 40
3.0
  1
2
 50
90.0
  7
MX_NOTE_STANDARD
  0
POLYLINE
  5
5D8C
  8
SUNPO
  6
BYBLOCK
 66
     1
 10
0.0
 20
0.0
 30
0.0
 70
     1
 40
1.159999999999999
 41
1.159999999999999
  0
VERTEX
  5
624A
  8
SUNPO
  6
BYBLOCK
 10
352.96153113700842
 20
222.4619117908905
 30
0.0
 42
1.0
  0
VERTEX
  5
624B
  8
SUNPO
  6
BYBLOCK
 10
352.96153113700842
 20
222.1719117908905
 30
0.0
 42
1.0
  0
SEQEND
  5
624C
  8
SUNPO
  6
BYBLOCK
  0
TEXT
  5
5D8D
  8
SUNPO
  6
CONTINUOUS
 10
352.46153113700842
 20
237.8169057908905
 30
0.0
 40
3.0
  1
36
 50
90.0
  7
MX_NOTE_STANDARD
  0
POLYLINE
  5
5D8E
  8
SUNPO
  6
BYBLOCK
 66
     1
 10
0.0
 20
0.0
 30
0.0
 70
     1
 40
1.159999999999999
 41
1.159999999999999
  0
VERTEX
  5
624D
  8
SUNPO
  6
BYBLOCK
 10
352.96153113700842
 20
190.46191279089049
 30
0.0
 42
1.0
  0
VERTEX
  5
624E
  8
SUNPO
  6
BYBLOCK
 10
352.96153113700842
 20
190.1719127908905
 30
0.0
 42
1.0
  0
SEQEND
  5
624F
  8
SUNPO
  6
BYBLOCK
  0
TEXT
  5
5D8F
  8
SUNPO
  6
CONTINUOUS
 10
352.46153113700842
 20
203.81691279089051
 30
0.0
 40
3.0
  1
32
 50
90.0
  7
MX_NOTE_STANDARD
  0
LINE
  5
5D90
  8
DANMEN
  6
CONTINUOUS
 10
401.27961153589803
 20
257.8517558848942
 30
0.0
 11
400.81445637624188
 21
258.31691104455018
 31
0.0
  0
LINE
  5
5D91
  8
DANMEN
  6
CONTINUOUS
 10
401.27961153589803
 20
256.4375423225211
 30
0.0
 11
399.40024895143642
 21
258.31690490698281
 31
0.0
  0
LINE
  5
5D92
  8
DANMEN
  6
CONTINUOUS
 10
401.27961153589803
 20
255.02332876014799
 30
0.0
 11
397.9860415266308
 21
258.31689876941527
 31
0.0
  0
LINE
  5
5D93
  8
DANMEN
  6
CONTINUOUS
 10
401.27961153589803
 20
253.60911519777491
 30
0.0
 11
396.57184706605631
 21
258.31687966761672
 31
0.0
  0
LINE
  5
5D94
  8
DANMEN
  6
CONTINUOUS
 10
401.15764529874161
 20
252.3168678725583
 30
0.0
 11
395.26525435552338
 21
258.20925881577648
 31
0.0
  0
LINE
  5
5D95
  8
DANMEN
  6
CONTINUOUS
 10
399.74343173636851
 20
252.3168678725583
 30
0.0
 11
395.09888340660501
 21
256.9614162023218
 31
0.0
  0
LINE
  5
5D96
  8
DANMEN
  6
CONTINUOUS
 10
398.3292181739954
 20
252.3168678725583
 30
0.0
 11
394.93251245768658
 21
255.71357358886709
 31
0.0
  0
LINE
  5
5D97
  8
DANMEN
  6
CONTINUOUS
 10
396.91500461162229
 20
252.3168678725583
 30
0.0
 11
394.76614150876821
 21
254.46573097541241
 31
0.0
  0
LINE
  5
5D98
  8
DANMEN
  6
CONTINUOUS
 10
395.50079104924919
 20
252.3168678725583
 30
0.0
 11
394.59977055984979
 21
253.21788836195771
 31
0.0
  0
LINE
  5
5D99
  8
DANMEN
  6
CONTINUOUS
 10
400.8352218627121
 20
252.3168678725583
 30
0.0
 11
401.27961153589808
 21
252.76125754574429
 31
0.0
  0
LINE
  5
5D9A
  8
DANMEN
  6
CONTINUOUS
 10
399.421008300339
 20
252.3168678725583
 30
0.0
 11
401.27961153589808
 21
254.17547110811739
 31
0.0
  0
LINE
  5
5D9B
  8
DANMEN
  6
CONTINUOUS
 10
398.00679473796589
 20
252.3168678725583
 30
0.0
 11
401.27961153589808
 21
255.5896846704905
 31
0.0
  0
LINE
  5
5D9C
  8
DANMEN
  6
CONTINUOUS
 10
396.59258117559273
 20
252.3168678725583
 30
0.0
 11
401.27961153589803
 21
257.00389823286361
 31
0.0
  0
LINE
  5
5D9D
  8
DANMEN
  6
CONTINUOUS
 10
395.17836761321968
 20
252.3168678725583
 30
0.0
 11
401.17841236475681
 21
258.31691262409538
 31
0.0
  0
LINE
  5
5D9E
  8
DANMEN
  6
CONTINUOUS
 10
394.58970897188738
 20
253.14242279359911
 30
0.0
 11
399.7641926647629
 21
258.31690648647458
 31
0.0
  0
LINE
  5
5D9F
  8
DANMEN
  6
CONTINUOUS
 10
394.80726811842879
 20
254.77419550251369
 30
0.0
 11
398.34997296476911
 21
258.31690034885389
 31
0.0
  0
LINE
  5
5DA0
  8
DANMEN
  6
CONTINUOUS
 10
395.02482726497033
 20
256.40596821142822
 30
0.0
 11
396.93574420728248
 21
258.31688515374032
 31
0.0
  0
LINE
  5
5DA1
  8
DANMEN
  6
CONTINUOUS
 10
395.2423864115118
 20
258.03774092034269
 30
0.0
 11
395.5215132117915
 21
258.31686772062261
 31
0.0
  0
LINE
  5
5DA2
  8
DANMEN
  6
CONTINUOUS
 10
401.27938933042361
 20
228.1534932805337
 30
0.0
 11
401.11601473839892
 21
228.3168678725583
 31
0.0
  0
LINE
  5
5DA3
  8
DANMEN
  6
CONTINUOUS
 10
401.2793893304235
 20
226.73927971816059
 30
0.0
 11
399.70180117602581
 21
228.3168678725583
 31
0.0
  0
LINE
  5
5DA4
  8
DANMEN
  6
CONTINUOUS
 10
401.27938933042361
 20
225.32506615578751
 30
0.0
 11
398.2875876136527
 21
228.31686787255839
 31
0.0
  0
LINE
  5
5DA5
  8
DANMEN
  6
CONTINUOUS
 10
401.27938933042361
 20
223.9108525934144
 30
0.0
 11
396.87337405127971
 21
228.3168678725583
 31
0.0
  0
LINE
  5
5DA6
  8
DANMEN
  6
CONTINUOUS
 10
401.27938933042361
 20
222.4966390310413
 30
0.0
 11
395.4591604889066
 21
228.31686787255839
 31
0.0
  0
LINE
  5
5DA7
  8
DANMEN
  6
CONTINUOUS
 10
400.04489276685177
 20
222.31692203224
 30
0.0
 11
394.54619492594708
 21
227.81561987314461
 31
0.0
  0
LINE
  5
5DA8
  8
DANMEN
  6
CONTINUOUS
 10
398.63067780060078
 20
222.3169234361178
 30
0.0
 11
394.76377638781071
 21
226.18382484890799
 31
0.0
  0
LINE
  5
5DA9
  8
DANMEN
  6
CONTINUOUS
 10
397.21646283435001
 20
222.31692483999561
 30
0.0
 11
394.98135784967428
 21
224.55202982467131
 31
0.0
  0
LINE
  5
5DAA
  8
DANMEN
  6
CONTINUOUS
 10
395.80224786809907
 20
222.31692624387341
 30
0.0
 11
395.19893931153791
 21
222.92023480043471
 31
0.0
  0
LINE
  5
5DAB
  8
DANMEN
  6
CONTINUOUS
 10
400.53376034693451
 20
222.31692154694579
 30
0.0
 11
401.2793893304235
 21
223.06255053043481
 31
0.0
  0
LINE
  5
5DAC
  8
DANMEN
  6
CONTINUOUS
 10
399.11954818843651
 20
222.31692295082081
 30
0.0
 11
401.2793893304235
 21
224.47676409280791
 31
0.0
  0
LINE
  5
5DAD
  8
DANMEN
  6
CONTINUOUS
 10
397.70533602993828
 20
222.3169243546958
 30
0.0
 11
401.2793893304235
 21
225.89097765518099
 31
0.0
  0
LINE
  5
5DAE
  8
DANMEN
  6
CONTINUOUS
 10
396.29112387144028
 20
222.3169257585709
 30
0.0
 11
401.27938933042361
 21
227.3051912175541
 31
0.0
  0
LINE
  5
5DAF
  8
DANMEN
  6
CONTINUOUS
 10
395.2320322607693
 20
222.67204771027289
 30
0.0
 11
400.87685242305469
 21
228.3168678725583
 31
0.0
  0
LINE
  5
5DB0
  8
DANMEN
  6
CONTINUOUS
 10
395.06564826237781
 20
223.91987727425459
 30
0.0
 11
399.46263886068158
 21
228.3168678725583
 31
0.0
  0
LINE
  5
5DB1
  8
DANMEN
  6
CONTINUOUS
 10
394.89926426398642
 20
225.1677068382362
 30
0.0
 11
398.04842529830847
 21
228.3168678725583
 31
0.0
  0
LINE
  5
5DB2
  8
DANMEN
  6
CONTINUOUS
 10
394.73288026559487
 20
226.4155364022179
 30
0.0
 11
396.63421173593542
 21
228.3168678725583
 31
0.0
  0
LINE
  5
5DB3
  8
DANMEN
  6
CONTINUOUS
 10
394.5664962672036
 20
227.66336596619959
 30
0.0
 11
395.21999817356232
 21
228.3168678725583
 31
0.0
  0
LINE
  5
5DB4
  8
DANMEN
  6
CONTINUOUS
 10
285.92273907077191
 20
257.24311623542661
 30
0.0
 11
284.84898109078978
 21
258.31687421540869
 31
0.0
  0
LINE
  5
5DB5
  8
DANMEN
  6
CONTINUOUS
 10
286.14029821731327
 20
255.61134352651209
 30
0.0
 11
283.43474620737118
 21
258.31689553645413
 31
0.0
  0
LINE
  5
5DB6
  8
DANMEN
  6
CONTINUOUS
 10
286.35785736385481
 20
253.97957081759751
 30
0.0
 11
282.02052484375997
 21
258.31690333769228
 31
0.0
  0
LINE
  5
5DB7
  8
DANMEN
  6
CONTINUOUS
 10
286.57541651039622
 20
252.34779810868301
 30
0.0
 11
280.60630514376612
 21
258.31690947531303
 31
0.0
  0
LINE
  5
5DB8
  8
DANMEN
  6
CONTINUOUS
 10
285.19213318414768
 20
252.3168678725583
 30
0.0
 11
279.77956912494892
 21
257.72943193175729
 31
0.0
  0
LINE
  5
5DB9
  8
DANMEN
  6
CONTINUOUS
 10
283.77791962177457
 20
252.3168678725583
 30
0.0
 11
279.77956912494881
 21
256.31521836938418
 31
0.0
  0
LINE
  5
5DBA
  8
DANMEN
  6
CONTINUOUS
 10
282.36370605940152
 20
252.3168678725583
 30
0.0
 11
279.77956912494881
 21
254.90100480701111
 31
0.0
  0
LINE
  5
5DBB
  8
DANMEN
  6
CONTINUOUS
 10
280.94949249702859
 20
252.3168678725583
 30
0.0
 11
279.77956912494892
 21
253.486791244638
 31
0.0
  0
LINE
  5
5DBC
  8
DANMEN
  6
CONTINUOUS
 10
286.28392331049128
 20
252.3168678725583
 30
0.0
 11
286.54476335539158
 21
252.5777079174585
 31
0.0
  0
LINE
  5
5DBD
  8
DANMEN
  6
CONTINUOUS
 10
284.86970974811828
 20
252.3168678725583
 30
0.0
 11
286.37839240647321
 21
253.8255505309132
 31
0.0
  0
LINE
  5
5DBE
  8
DANMEN
  6
CONTINUOUS
 10
283.45549618574518
 20
252.3168678725583
 30
0.0
 11
286.21202145755473
 21
255.07339314436791
 31
0.0
  0
LINE
  5
5DBF
  8
DANMEN
  6
CONTINUOUS
 10
282.04128262337213
 20
252.3168678725583
 30
0.0
 11
286.04565050863641
 21
256.32123575782259
 31
0.0
  0
LINE
  5
5DC0
  8
DANMEN
  6
CONTINUOUS
 10
280.62706906099902
 20
252.3168678725583
 30
0.0
 11
285.87927955971799
 21
257.56907837127733
 31
0.0
  0
LINE
  5
5DC1
  8
DANMEN
  6
CONTINUOUS
 10
279.77956912494892
 20
252.88358149888131
 30
0.0
 11
285.21285635568239
 21
258.31686872961478
 31
0.0
  0
LINE
  5
5DC2
  8
DANMEN
  6
CONTINUOUS
 10
279.77956912494892
 20
254.29779506125439
 30
0.0
 11
283.79866411371188
 21
258.31689005001749
 31
0.0
  0
LINE
  5
5DC3
  8
DANMEN
  6
CONTINUOUS
 10
279.77956912494892
 20
255.7120086236275
 30
0.0
 11
282.38446225954908
 21
258.3169017582278
 31
0.0
  0
LINE
  5
5DC4
  8
DANMEN
  6
CONTINUOUS
 10
279.77956912494881
 20
257.12622218600052
 30
0.0
 11
280.97025483474363
 21
258.31690789579528
 31
0.0
  0
LINE
  5
5DC5
  8
DANMEN
  6
CONTINUOUS
 10
286.57804434280632
 20
228.3035397159303
 30
0.0
 11
286.5647161861782
 21
228.31686787255839
 31
0.0
  0
LINE
  5
5DC6
  8
DANMEN
  6
CONTINUOUS
 10
286.41166034441483
 20
227.0557101519486
 30
0.0
 11
285.1505026238051
 21
228.3168678725583
 31
0.0
  0
LINE
  5
5DC7
  8
DANMEN
  6
CONTINUOUS
 10
286.24527634602339
 20
225.80788058796691
 30
0.0
 11
283.7362890614321
 21
228.31686787255839
 31
0.0
  0
LINE
  5
5DC8
  8
DANMEN
  6
CONTINUOUS
 10
286.07889234763201
 20
224.5600510239853
 30
0.0
 11
282.322075499059
 21
228.31686787255839
 31
0.0
  0
LINE
  5
5DC9
  8
DANMEN
  6
CONTINUOUS
 10
285.91250834924062
 20
223.3122214600036
 30
0.0
 11
280.90786193668589
 21
228.31686787255839
 31
0.0
  0
LINE
  5
5DCA
  8
DANMEN
  6
CONTINUOUS
 10
285.49359613607157
 20
222.31692011079949
 30
0.0
 11
279.77979133042339
 21
228.0307249164477
 31
0.0
  0
LINE
  5
5DCB
  8
DANMEN
  6
CONTINUOUS
 10
284.07937760957242
 20
222.31692507492559
 30
0.0
 11
279.77979133042339
 21
226.61651135407459
 31
0.0
  0
LINE
  5
5DCC
  8
DANMEN
  6
CONTINUOUS
 10
282.66516545107442
 20
222.3169236710506
 30
0.0
 11
279.77979133042339
 21
225.20229779170151
 31
0.0
  0
LINE
  5
5DCD
  8
DANMEN
  6
CONTINUOUS
 10
281.25095329257618
 20
222.31692226717561
 30
0.0
 11
279.77979133042339
 21
223.7880842293284
 31
0.0
  0
LINE
  5
5DCE
  8
DANMEN
  6
CONTINUOUS
 10
279.83674113407818
 20
222.31692086330051
 30
0.0
 11
279.77979133042339
 21
222.3738706669553
 31
0.0
  0
LINE
  5
5DCF
  8
DANMEN
  6
CONTINUOUS
 10
284.56825224562181
 20
222.31692556022679
 30
0.0
 11
285.9661970376427
 21
223.71487035224769
 31
0.0
  0
LINE
  5
5DD0
  8
DANMEN
  6
CONTINUOUS
 10
283.15403727937081
 20
222.31692415634899
 30
0.0
 11
286.18377849950622
 21
225.3466653764844
 31
0.0
  0
LINE
  5
5DD1
  8
DANMEN
  6
CONTINUOUS
 10
281.73982231311987
 20
222.31692275247121
 30
0.0
 11
286.40135996136979
 21
226.97846040072099
 31
0.0
  0
LINE
  5
5DD2
  8
DANMEN
  6
CONTINUOUS
 10
280.32560734686911
 20
222.31692134859341
 30
0.0
 11
286.32555387083403
 21
228.31686787255839
 31
0.0
  0
LINE
  5
5DD3
  8
DANMEN
  6
CONTINUOUS
 10
279.77979133042339
 20
223.1853188945208
 30
0.0
 11
284.91134030846092
 21
228.3168678725583
 31
0.0
  0
LINE
  5
5DD4
  8
DANMEN
  6
CONTINUOUS
 10
279.77979133042339
 20
224.59953245689391
 30
0.0
 11
283.49712674608782
 21
228.3168678725583
 31
0.0
  0
LINE
  5
5DD5
  8
DANMEN
  6
CONTINUOUS
 10
279.77979133042339
 20
226.01374601926699
 30
0.0
 11
282.08291318371471
 21
228.3168678725583
 31
0.0
  0
LINE
  5
5DD6
  8
DANMEN
  6
CONTINUOUS
 10
279.77979133042339
 20
227.4279595816401
 30
0.0
 11
280.6686996213416
 21
228.31686787255839
 31
0.0
  0
LINE
  5
5DD7
  8
DANMEN
  6
CONTINUOUS
 10
165.57498889736169
 20
227.68422879728871
 30
0.0
 11
165.27690281625891
 21
227.98231487839141
 31
0.0
  0
LINE
  5
5DD8
  8
DANMEN
  6
CONTINUOUS
 10
165.57498888045561
 20
226.27001525182169
 30
0.0
 11
163.34843260683579
 21
228.49657152544151
 31
0.0
  0
LINE
  5
5DD9
  8
DANMEN
  6
CONTINUOUS
 10
165.57498885931099
 20
224.8558017105932
 30
0.0
 11
161.4199623974126
 21
229.01082817249161
 31
0.0
  0
LINE
  5
5DDA
  8
DANMEN
  6
CONTINUOUS
 10
165.57498883816641
 20
223.44158816936479
 30
0.0
 11
159.575039504865
 21
229.44153750266619
 31
0.0
  0
LINE
  5
5DDB
  8
DANMEN
  6
CONTINUOUS
 10
165.5749888170217
 20
222.02737462813619
 30
0.0
 11
159.575039504865
 21
228.02732394029309
 31
0.0
  0
LINE
  5
5DDC
  8
DANMEN
  6
CONTINUOUS
 10
164.28534606712691
 20
221.90280381565799
 30
0.0
 11
159.575039504865
 21
226.61311037792001
 31
0.0
  0
LINE
  5
5DDD
  8
DANMEN
  6
CONTINUOUS
 10
162.8711325047538
 20
221.90280381565799
 30
0.0
 11
159.57503950486489
 21
225.1988968155469
 31
0.0
  0
LINE
  5
5DDE
  8
DANMEN
  6
CONTINUOUS
 10
161.45691894238081
 20
221.90280381565799
 30
0.0
 11
159.57503950486489
 21
223.7846832531738
 31
0.0
  0
LINE
  5
5DDF
  8
DANMEN
  6
CONTINUOUS
 10
160.0427053800077
 20
221.9028038156579
 30
0.0
 11
159.57503950486489
 21
222.37046969080069
 31
0.0
  0
LINE
  5
5DE0
  8
DANMEN
  6
CONTINUOUS
 10
165.36019126171291
 20
221.90280381565799
 30
0.0
 11
165.5749888183708
 21
222.11760137231579
 31
0.0
  0
LINE
  5
5DE1
  8
DANMEN
  6
CONTINUOUS
 10
163.94597769933981
 20
221.90280381565799
 30
0.0
 11
165.57498883951541
 21
223.53181495583351
 31
0.0
  0
LINE
  5
5DE2
  8
DANMEN
  6
CONTINUOUS
 10
162.53176413696681
 20
221.90280381565799
 30
0.0
 11
165.57498886066
 21
224.9460285393512
 31
0.0
  0
LINE
  5
5DE3
  8
DANMEN
  6
CONTINUOUS
 10
161.11755057459371
 20
221.90280381565799
 30
0.0
 11
165.57498888180459
 21
226.3602421228689
 31
0.0
  0
LINE
  5
5DE4
  8
DANMEN
  6
CONTINUOUS
 10
159.7033370122206
 20
221.90280381565799
 30
0.0
 11
165.57498889736169
 21
227.77445570079911
 31
0.0
  0
LINE
  5
5DE5
  8
DANMEN
  6
CONTINUOUS
 10
159.57503950486489
 20
223.18871987067541
 30
0.0
 11
164.55984828305779
 21
228.17352864886831
 31
0.0
  0
LINE
  5
5DE6
  8
DANMEN
  6
CONTINUOUS
 10
159.57503950486489
 20
224.60293343304861
 30
0.0
 11
163.44336294308971
 21
228.47125687127331
 31
0.0
  0
LINE
  5
5DE7
  8
DANMEN
  6
CONTINUOUS
 10
159.575039504865
 20
226.01714699542171
 30
0.0
 11
162.3268776031216
 21
228.76898509367831
 31
0.0
  0
LINE
  5
5DE8
  8
DANMEN
  6
CONTINUOUS
 10
159.575039504865
 20
227.4313605577947
 30
0.0
 11
161.21039226315349
 21
229.06671331608331
 31
0.0
  0
LINE
  5
5DE9
  8
DANMEN
  6
CONTINUOUS
 10
159.575039504865
 20
228.84557412016781
 30
0.0
 11
160.0939069231853
 21
229.36444153848819
 31
0.0
  0
LINE
  5
5DEA
  8
DANMEN
  6
CONTINUOUS
 10
135.57503950486489
 20
229.39990694232361
 30
0.0
 11
135.49376900035529
 21
229.4811774468333
 31
0.0
  0
LINE
  5
5DEB
  8
DANMEN
  6
CONTINUOUS
 10
135.57503950486489
 20
227.9856933799505
 30
0.0
 11
134.37728366038709
 21
229.1834492244283
 31
0.0
  0
LINE
  5
5DEC
  8
DANMEN
  6
CONTINUOUS
 10
135.57503950486489
 20
226.5714798175774
 30
0.0
 11
133.26079832041901
 21
228.8857210020233
 31
0.0
  0
LINE
  5
5DED
  8
DANMEN
  6
CONTINUOUS
 10
135.57503950486489
 20
225.15726625520429
 30
0.0
 11
132.14431298045091
 21
228.5879927796183
 31
0.0
  0
LINE
  5
5DEE
  8
DANMEN
  6
CONTINUOUS
 10
135.57503950486489
 20
223.74305269283121
 30
0.0
 11
131.0278276404828
 21
228.29026455721331
 31
0.0
  0
LINE
  5
5DEF
  8
DANMEN
  6
CONTINUOUS
 10
135.57503950486489
 20
222.32883913045811
 30
0.0
 11
129.91134230051469
 21
227.99253633480839
 31
0.0
  0
LINE
  5
5DF0
  8
DANMEN
  6
CONTINUOUS
 10
134.5868171216791
 20
221.90284795127079
 30
0.0
 11
129.57498872731759
 21
226.9146763456323
 31
0.0
  0
LINE
  5
5DF1
  8
DANMEN
  6
CONTINUOUS
 10
133.172603559306
 20
221.90284795127079
 30
0.0
 11
129.57498878725721
 21
225.5004627233196
 31
0.0
  0
LINE
  5
5DF2
  8
DANMEN
  6
CONTINUOUS
 10
131.75838999693289
 20
221.90284795127079
 30
0.0
 11
129.57498884719681
 21
224.0862491010069
 31
0.0
  0
LINE
  5
5DF3
  8
DANMEN
  6
CONTINUOUS
 10
130.34417643455981
 20
221.90284795127079
 30
0.0
 11
129.57499365094191
 21
222.67203073488869
 31
0.0
  0
LINE
  5
5DF4
  8
DANMEN
  6
CONTINUOUS
 10
134.24753702511771
 20
221.90284795127079
 30
0.0
 11
135.57503950486489
 21
223.230350431018
 31
0.0
  0
LINE
  5
5DF5
  8
DANMEN
  6
CONTINUOUS
 10
132.8333234627446
 20
221.90284795127079
 30
0.0
 11
135.57503950486489
 21
224.6445639933911
 31
0.0
  0
LINE
  5
5DF6
  8
DANMEN
  6
CONTINUOUS
 10
131.4191099003715
 20
221.90284795127079
 30
0.0
 11
135.57503950486489
 21
226.05877755576421
 31
0.0
  0
LINE
  5
5DF7
  8
DANMEN
  6
CONTINUOUS
 10
130.00489633799839
 20
221.90284795127079
 30
0.0
 11
135.575039504865
 21
227.47299111813729
 31
0.0
  0
LINE
  5
5DF8
  8
DANMEN
  6
CONTINUOUS
 10
129.574989216945
 20
222.8871543925905
 30
0.0
 11
135.575039504865
 21
228.88720468051039
 31
0.0
  0
LINE
  5
5DF9
  8
DANMEN
  6
CONTINUOUS
 10
129.57498883807929
 20
224.30136757609799
 30
0.0
 11
134.48608371801819
 21
229.21246245603689
 31
0.0
  0
LINE
  5
5DFA
  8
DANMEN
  6
CONTINUOUS
 10
129.57498877813981
 20
225.71558107853139
 30
0.0
 11
132.55761350859521
 21
228.69820580898681
 31
0.0
  0
LINE
  5
5DFB
  8
DANMEN
  6
CONTINUOUS
 10
129.5749887182001
 20
227.1297945809649
 30
0.0
 11
130.629143299172
 21
228.18394916193679
 31
0.0
  0
LINE
  5
5DFC
  8
DANMEN
  6
CONTINUOUS
 10
165.57498889736169
 20
302.63754760306279
 30
0.0
 11
164.3096989289094
 21
303.90283757151508
 31
0.0
  0
LINE
  5
5DFD
  8
DANMEN
  6
CONTINUOUS
 10
165.57498889736169
 20
301.22333404068968
 30
0.0
 11
162.89548536653629
 21
303.90283757151508
 31
0.0
  0
LINE
  5
5DFE
  8
DANMEN
  6
CONTINUOUS
 10
165.57498889736169
 20
299.80912047831652
 30
0.0
 11
161.48127180416321
 21
303.90283757151508
 31
0.0
  0
LINE
  5
5DFF
  8
DANMEN
  6
CONTINUOUS
 10
165.57498889736169
 20
298.39490691594341
 30
0.0
 11
160.06705824179019
 21
303.90283757151502
 31
0.0
  0
LINE
  5
5E00
  8
DANMEN
  6
CONTINUOUS
 10
164.84698248100591
 20
297.70869976992623
 30
0.0
 11
159.57501889736159
 21
302.98066335357038
 31
0.0
  0
LINE
  5
5E01
  8
DANMEN
  6
CONTINUOUS
 10
163.7305014279664
 20
297.4109672605926
 30
0.0
 11
159.57501889736159
 21
301.56644979119727
 31
0.0
  0
LINE
  5
5E02
  8
DANMEN
  6
CONTINUOUS
 10
162.61402037492701
 20
297.11323475125891
 30
0.0
 11
159.57501889736159
 21
300.15223622882422
 31
0.0
  0
LINE
  5
5E03
  8
DANMEN
  6
CONTINUOUS
 10
161.4975393218875
 20
296.81550224192529
 30
0.0
 11
159.57501889736159
 21
298.73802266645112
 31
0.0
  0
LINE
  5
5E04
  8
DANMEN
  6
CONTINUOUS
 10
160.38105826884811
 20
296.5177697325916
 30
0.0
 11
159.57501889736159
 21
297.32380910407812
 31
0.0
  0
LINE
  5
5E05
  8
DANMEN
  6
CONTINUOUS
 10
164.78094445834861
 20
297.6910893804407
 30
0.0
 11
165.57498889736169
 21
298.48513381945389
 31
0.0
  0
LINE
  5
5E06
  8
DANMEN
  6
CONTINUOUS
 10
162.8524614589231
 20
297.1768199433883
 30
0.0
 11
165.57498889736169
 21
299.899347381827
 31
0.0
  0
LINE
  5
5E07
  8
DANMEN
  6
CONTINUOUS
 10
160.92397845949759
 20
296.662550506336
 30
0.0
 11
165.57498889736169
 21
301.31356094419999
 31
0.0
  0
LINE
  5
5E08
  8
DANMEN
  6
CONTINUOUS
 10
159.57501889736159
 20
296.72780450657308
 30
0.0
 11
165.57498889736169
 21
302.7277745065731
 31
0.0
  0
LINE
  5
5E09
  8
DANMEN
  6
CONTINUOUS
 10
159.57501889736159
 20
298.14201806894619
 30
0.0
 11
165.33583839993051
 21
303.90283757151508
 31
0.0
  0
LINE
  5
5E0A
  8
DANMEN
  6
CONTINUOUS
 10
159.57501889736159
 20
299.55623163131929
 30
0.0
 11
163.9216248375574
 21
303.90283757151508
 31
0.0
  0
LINE
  5
5E0B
  8
DANMEN
  6
CONTINUOUS
 10
159.57501889736159
 20
300.9704451936924
 30
0.0
 11
162.5074112751843
 21
303.90283757151508
 31
0.0
  0
LINE
  5
5E0C
  8
DANMEN
  6
CONTINUOUS
 10
159.5750188973617
 20
302.38465875606551
 30
0.0
 11
161.09319771281119
 21
303.90283757151508
 31
0.0
  0
LINE
  5
5E0D
  8
DANMEN
  6
CONTINUOUS
 10
159.57501889736159
 20
303.79887231843861
 30
0.0
 11
159.67898415043811
 21
303.90283757151502
 31
0.0
  0
LINE
  5
5E0E
  8
DANMEN
  6
CONTINUOUS
 10
135.57501889736159
 20
302.9390327932278
 30
0.0
 11
134.61121411907439
 21
303.90283757151508
 31
0.0
  0
LINE
  5
5E0F
  8
DANMEN
  6
CONTINUOUS
 10
135.57501889736159
 20
301.52481923085469
 30
0.0
 11
133.19700055670131
 21
303.90283757151508
 31
0.0
  0
LINE
  5
5E10
  8
DANMEN
  6
CONTINUOUS
 10
135.57501889736159
 20
300.11060566848158
 30
0.0
 11
131.78278699432829
 21
303.90283757151502
 31
0.0
  0
LINE
  5
5E11
  8
DANMEN
  6
CONTINUOUS
 10
135.57501889736159
 20
298.69639210610848
 30
0.0
 11
130.36857343195521
 21
303.90283757151508
 31
0.0
  0
LINE
  5
5E12
  8
DANMEN
  6
CONTINUOUS
 10
135.57501889736159
 20
297.28217854373543
 30
0.0
 11
129.57498889736169
 21
303.28220854373529
 31
0.0
  0
LINE
  5
5E13
  8
DANMEN
  6
CONTINUOUS
 10
134.98201918921021
 20
296.46096468951367
 30
0.0
 11
129.57498889736169
 21
301.86799498136219
 31
0.0
  0
LINE
  5
5E14
  8
DANMEN
  6
CONTINUOUS
 10
133.05354897978711
 20
296.97522133656378
 30
0.0
 11
129.57498889736169
 21
300.45378141898908
 31
0.0
  0
LINE
  5
5E15
  8
DANMEN
  6
CONTINUOUS
 10
131.1250787703639
 20
297.48947798361382
 30
0.0
 11
129.57498889736169
 21
299.03956785661609
 31
0.0
  0
LINE
  5
5E16
  8
DANMEN
  6
CONTINUOUS
 10
135.20664779907841
 20
296.40106396863251
 30
0.0
 11
135.57501889736159
 21
296.76943506691578
 31
0.0
  0
LINE
  5
5E17
  8
DANMEN
  6
CONTINUOUS
 10
134.0901624591103
 20
296.69879219103751
 30
0.0
 11
135.57501889736159
 21
298.18364862928883
 31
0.0
  0
LINE
  5
5E18
  8
DANMEN
  6
CONTINUOUS
 10
132.9736771191422
 20
296.99652041344251
 30
0.0
 11
135.57501889736159
 21
299.59786219166187
 31
0.0
  0
LINE
  5
5E19
  8
DANMEN
  6
CONTINUOUS
 10
131.8571917791742
 20
297.29424863584751
 30
0.0
 11
135.5750188973617
 21
301.01207575403498
 31
0.0
  0
LINE
  5
5E1A
  8
DANMEN
  6
CONTINUOUS
 10
130.74070643920609
 20
297.59197685825239
 30
0.0
 11
135.5750188973617
 21
302.42628931640809
 31
0.0
  0
LINE
  5
5E1B
  8
DANMEN
  6
CONTINUOUS
 10
129.62422109923801
 20
297.88970508065751
 30
0.0
 11
135.57501889736159
 21
303.84050287878119
 31
0.0
  0
LINE
  5
5E1C
  8
DANMEN
  6
CONTINUOUS
 10
129.57498889736169
 20
299.25468644115438
 30
0.0
 11
134.22314002772239
 21
303.90283757151508
 31
0.0
  0
LINE
  5
5E1D
  8
DANMEN
  6
CONTINUOUS
 10
129.57498889736169
 20
300.66890000352748
 30
0.0
 11
132.80892646534929
 21
303.90283757151508
 31
0.0
  0
LINE
  5
5E1E
  8
DANMEN
  6
CONTINUOUS
 10
129.57498889736169
 20
302.08311356590059
 30
0.0
 11
131.39471290297621
 21
303.90283757151508
 31
0.0
  0
LINE
  5
5E1F
  8
DANMEN
  6
CONTINUOUS
 10
129.57498889736169
 20
303.4973271282737
 30
0.0
 11
129.9804993406031
 21
303.90283757151508
 31
0.0
  0
LINE
  5
5E20
  8
SUNPO
  6
CONTINUOUS
 10
352.96153113700842
 20
222.31691179089049
 30
0.0
 11
352.96153113700842
 21
190.31691279089051
 31
0.0
  0
LINE
  5
5E21
  8
SUNPO
  6
CONTINUOUS
 10
352.96153113700842
 20
258.31689779089049
 30
0.0
 11
352.96153113700842
 21
222.31691179089049
 31
0.0
  0
LINE
  5
5E22
  8
SUNPO
  6
CONTINUOUS
 10
352.96153113700842
 20
266.21757479089052
 30
0.0
 11
352.96153113700842
 21
260.31691179089052
 31
0.0
  0
LINE
  5
5E23
  8
SUNPO
  6
CONTINUOUS
 10
352.96153113700842
 20
260.31691179089052
 30
0.0
 11
352.96153113700842
 21
258.31689779089049
 31
0.0
  0
LINE
  5
5E24
  8
SUNPO
  6
CONTINUOUS
 10
127.5749891370085
 20
275.15558879089048
 30
0.0
 11
197.57498913700849
 21
275.15558879089048
 31
0.0
  0
LINE
  5
5E25
  8
SUNPO
  6
CONTINUOUS
 10
336.51175333700849
 20
168.5088244908905
 30
0.0
 11
333.68274183700851
 21
173.40882169089051
 31
0.0
  0
LINE
  5
5E26
  8
SUNPO
  6
CONTINUOUS
 10
338.1282899370085
 20
168.50882379089049
 30
0.0
 11
335.29927773700848
 21
173.40882169089051
 31
0.0
  0
LINE
  5
5E27
  8
SUNPO
  6
CONTINUOUS
 10
342.57388283700851
 20
173.40882379089049
 30
0.0
 11
342.57388283700851
 21
168.50882589089051
 31
0.0
  0
LINE
  5
5E28
  8
SUNPO
  6
CONTINUOUS
 10
342.9780271370085
 20
168.50882379089049
 30
0.0
 11
340.4736035370085
 21
168.50882379089049
 31
0.0
  0
LINE
  5
5E29
  8
SUNPO
  6
CONTINUOUS
 10
338.82828923700851
 20
168.50882379089049
 30
0.0
 11
335.69401753700839
 21
168.50882379089049
 31
0.0
  0
LINE
  5
5E2A
  8
SUNPO
  6
CONTINUOUS
 10
342.57388143700848
 20
168.50882659089049
 30
0.0
 11
339.74487063700838
 21
173.40882169089051
 31
0.0
  0
LINE
  5
5E2B
  8
SUNPO
  6
CONTINUOUS
 10
340.95730213700841
 20
168.5088244908905
 30
0.0
 11
338.1282899370085
 21
173.40882239089049
 31
0.0
  0
LINE
  5
5E2C
  8
SUNPO
  6
CONTINUOUS
 10
343.24507363700849
 20
173.40882379089049
 30
0.0
 11
341.81950963700848
 21
173.40882379089049
 31
0.0
  0
LINE
  5
5E2D
  8
SUNPO
  6
CONTINUOUS
 10
340.44486993700838
 20
173.40882379089049
 30
0.0
 11
337.42828923700841
 21
173.40882379089049
 31
0.0
  0
LINE
  5
5E2E
  8
SUNPO
  6
CONTINUOUS
 10
335.97244813700848
 20
173.40882379089049
 30
0.0
 11
332.90970313700842
 21
173.40882379089049
 31
0.0
  0
LINE
  5
5E2F
  8
SUNPO
  6
CONTINUOUS
 10
348.68631713700842
 20
169.90882379089049
 30
0.0
 11
345.18631713700842
 21
169.90882379089049
 31
0.0
  0
LINE
  5
5E30
  8
SUNPO
  6
CONTINUOUS
 10
348.68631713700842
 20
172.00882379089049
 30
0.0
 11
345.18631713700842
 21
172.00882379089049
 31
0.0
  0
LINE
  5
5E31
  8
SUNPO
  6
CONTINUOUS
 10
338.12828923700852
 20
173.40882379089049
 30
0.0
 11
338.12828923700852
 21
168.5088244908905
 31
0.0
  0
LINE
  5
5E32
  8
SUNPO
  6
CONTINUOUS
 10
390.27961413700842
 20
175.3168277908905
 30
0.0
 11
390.27961413700842
 21
165.3168277908905
 31
0.0
  0
LINE
  5
5E33
  8
SUNPO
  6
CONTINUOUS
 10
390.27961413700842
 20
165.3168277908905
 30
0.0
 11
395.27961413700842
 21
170.3168277908905
 31
0.0
  0
LINE
  5
5E34
  8
SUNPO
  6
CONTINUOUS
 10
395.27961413700842
 20
170.3168277908905
 30
0.0
 11
390.27961413700842
 21
175.3168277908905
 31
0.0
  0
LINE
  5
5E35
  8
SUNPO
  6
CONTINUOUS
 10
290.77956613700849
 20
175.31691279089051
 30
0.0
 11
290.77956613700849
 21
165.31691279089051
 31
0.0
  0
LINE
  5
5E36
  8
SUNPO
  6
CONTINUOUS
 10
290.77956613700849
 20
165.31691279089051
 30
0.0
 11
285.77956613700837
 21
170.31691279089051
 31
0.0
  0
LINE
  5
5E37
  8
SUNPO
  6
CONTINUOUS
 10
285.77956613700837
 20
170.31691279089051
 30
0.0
 11
290.77956613700849
 21
175.31691279089051
 31
0.0
  0
LINE
  5
5E38
  8
DANMEN
  6
CONTINUOUS
 10
399.77938313700849
 20
234.31686779089051
 30
0.0
 11
399.77938313700849
 21
234.56686779089051
 31
0.0
  0
ARC
  5
5E39
  8
DANMEN
  6
CONTINUOUS
 10
407.3730361370084
 20
234.33792579089049
 30
0.0
 40
3.0106739999999999
 50
116.2938520000007
 51
166.3487499999994
  0
ARC
  5
5E3A
  8
DANMEN
  6
CONTINUOUS
 10
407.3730361370084
 20
234.33792579089049
 30
0.0
 40
2.6706739999999991
 50
111.8427730000014
 51
171.8427729999998
  0
LINE
  5
5E3B
  8
DANMEN
  6
CONTINUOUS
 10
404.77938313700849
 20
234.31686779089051
 30
0.0
 11
404.77938313700849
 21
234.71686779089049
 31
0.0
  0
LINE
  5
5E3C
  8
DANMEN
  6
CONTINUOUS
 10
404.77938313700849
 20
234.71686779089049
 30
0.0
 11
404.72938313700843
 21
234.71686779089049
 31
0.0
  0
LINE
  5
5E3D
  8
DANMEN
  6
CONTINUOUS
 10
404.72938313700843
 20
234.71686779089049
 30
0.0
 11
399.77938313700849
 21
234.56686779089051
 31
0.0
  0
LINE
  5
5E3E
  8
DANMEN
  6
CONTINUOUS
 10
404.44741313700843
 20
235.0484797908905
 30
0.0
 11
400.11938313700841
 21
234.91732679089051
 31
0.0
  0
LINE
  5
5E3F
  8
DANMEN
  6
CONTINUOUS
 10
399.77938313700849
 20
234.31686779089051
 30
0.0
 11
410.27938313700838
 21
234.31686779089051
 31
0.0
  0
LINE
  5
5E40
  8
DANMEN
  6
CONTINUOUS
 10
399.77938313700849
 20
246.31686779089051
 30
0.0
 11
399.77938313700849
 21
246.06686779089051
 31
0.0
  0
ARC
  5
5E41
  8
DANMEN
  6
CONTINUOUS
 10
407.3730361370084
 20
246.2958097908905
 30
0.0
 40
3.0106739999999999
 50
193.65125000000049
 51
243.70614799999919
  0
ARC
  5
5E42
  8
DANMEN
  6
CONTINUOUS
 10
407.3730361370084
 20
246.2958097908905
 30
0.0
 40
2.6706739999999991
 50
188.15722700000009
 51
248.15722699999839
  0
LINE
  5
5E43
  8
DANMEN
  6
CONTINUOUS
 10
404.77938313700849
 20
246.31686779089051
 30
0.0
 11
404.77938313700849
 21
245.91686779089051
 31
0.0
  0
LINE
  5
5E44
  8
DANMEN
  6
CONTINUOUS
 10
404.77938313700849
 20
245.91686779089051
 30
0.0
 11
404.72938313700843
 21
245.91686779089051
 31
0.0
  0
LINE
  5
5E45
  8
DANMEN
  6
CONTINUOUS
 10
404.72938313700843
 20
245.91686779089051
 30
0.0
 11
399.77938313700849
 21
246.06686779089051
 31
0.0
  0
LINE
  5
5E46
  8
DANMEN
  6
CONTINUOUS
 10
404.44741313700843
 20
245.5852567908905
 30
0.0
 11
400.11938313700841
 21
245.71640879089051
 31
0.0
  0
LINE
  5
5E47
  8
DANMEN
  6
CONTINUOUS
 10
399.77938313700849
 20
246.31686779089051
 30
0.0
 11
410.27938313700838
 21
246.31686779089051
 31
0.0
  0
LINE
  5
5E48
  8
DANMEN
  6
CONTINUOUS
 10
399.77938313700849
 20
234.56686779089051
 30
0.0
 11
399.77938313700849
 21
246.06686779089051
 31
0.0
  0
LINE
  5
5E49
  8
DANMEN
  6
CONTINUOUS
 10
406.03938313700849
 20
237.0370977908905
 30
0.0
 11
406.03938313700849
 21
243.59663879089049
 31
0.0
  0
LINE
  5
5E4A
  8
DANMEN
  6
CONTINUOUS
 10
400.11938313700841
 20
245.71640879089051
 30
0.0
 11
400.11938313700841
 21
234.91732679089051
 31
0.0
  0
LINE
  5
5E4B
  8
DANMEN
  6
CONTINUOUS
 10
406.3793831370084
 20
236.81686779089051
 30
0.0
 11
406.3793831370084
 21
243.81686779089051
 31
0.0
  0
LINE
  5
5E4C
  8
DANMEN
  6
CONTINUOUS
 10
410.27938313700838
 20
246.31686779089051
 30
0.0
 11
410.27938313700838
 21
234.31686779089051
 31
0.0
  0
LINE
  5
5E4D
  8
DANMEN
  6
CONTINUOUS
 10
281.27979713700842
 20
234.31686779089051
 30
0.0
 11
281.27979713700842
 21
234.56686779089051
 31
0.0
  0
ARC
  5
5E4E
  8
DANMEN
  6
CONTINUOUS
 10
273.6861441370084
 20
234.33792579089049
 30
0.0
 40
3.0106739999999999
 50
13.651250000000569
 51
63.706147999999189
  0
ARC
  5
5E4F
  8
DANMEN
  6
CONTINUOUS
 10
273.6861441370084
 20
234.33792579089049
 30
0.0
 40
2.6706739999999991
 50
8.1572270000001073
 51
68.157227000002152
  0
LINE
  5
5E50
  8
DANMEN
  6
CONTINUOUS
 10
276.27979713700842
 20
234.31686779089051
 30
0.0
 11
276.27979713700842
 21
234.71686779089049
 31
0.0
  0
LINE
  5
5E51
  8
DANMEN
  6
CONTINUOUS
 10
276.27979713700842
 20
234.71686779089049
 30
0.0
 11
276.32979713700843
 21
234.71686779089049
 31
0.0
  0
LINE
  5
5E52
  8
DANMEN
  6
CONTINUOUS
 10
276.32979713700843
 20
234.71686779089049
 30
0.0
 11
281.27979713700842
 21
234.56686779089051
 31
0.0
  0
LINE
  5
5E53
  8
DANMEN
  6
CONTINUOUS
 10
276.61176713700843
 20
235.0484797908905
 30
0.0
 11
280.93979713700838
 21
234.91732679089051
 31
0.0
  0
LINE
  5
5E54
  8
DANMEN
  6
CONTINUOUS
 10
281.27979713700842
 20
234.31686779089051
 30
0.0
 11
270.77979713700842
 21
234.31686779089051
 31
0.0
  0
LINE
  5
5E55
  8
DANMEN
  6
CONTINUOUS
 10
281.27979713700842
 20
246.31686779089051
 30
0.0
 11
281.27979713700842
 21
246.06686779089051
 31
0.0
  0
ARC
  5
5E56
  8
DANMEN
  6
CONTINUOUS
 10
273.6861441370084
 20
246.2958097908905
 30
0.0
 40
3.0106739999999999
 50
296.29385200000081
 51
346.34874999999943
  0
ARC
  5
5E57
  8
DANMEN
  6
CONTINUOUS
 10
273.6861441370084
 20
246.2958097908905
 30
0.0
 40
2.6706739999999991
 50
291.84277299999781
 51
351.84277299999991
  0
LINE
  5
5E58
  8
DANMEN
  6
CONTINUOUS
 10
276.27979713700842
 20
246.31686779089051
 30
0.0
 11
276.27979713700842
 21
245.91686779089051
 31
0.0
  0
LINE
  5
5E59
  8
DANMEN
  6
CONTINUOUS
 10
276.27979713700842
 20
245.91686779089051
 30
0.0
 11
276.32979713700843
 21
245.91686779089051
 31
0.0
  0
LINE
  5
5E5A
  8
DANMEN
  6
CONTINUOUS
 10
276.32979713700843
 20
245.91686779089051
 30
0.0
 11
281.27979713700842
 21
246.06686779089051
 31
0.0
  0
LINE
  5
5E5B
  8
DANMEN
  6
CONTINUOUS
 10
276.61176713700843
 20
245.5852567908905
 30
0.0
 11
280.93979713700838
 21
245.71640879089051
 31
0.0
  0
LINE
  5
5E5C
  8
DANMEN
  6
CONTINUOUS
 10
281.27979713700842
 20
246.31686779089051
 30
0.0
 11
270.77979713700842
 21
246.31686779089051
 31
0.0
  0
LINE
  5
5E5D
  8
DANMEN
  6
CONTINUOUS
 10
281.27979713700842
 20
234.56686779089051
 30
0.0
 11
281.27979713700842
 21
246.06686779089051
 31
0.0
  0
LINE
  5
5E5E
  8
DANMEN
  6
CONTINUOUS
 10
275.01979713700842
 20
237.0370977908905
 30
0.0
 11
275.01979713700842
 21
243.59663879089049
 31
0.0
  0
LINE
  5
5E5F
  8
DANMEN
  6
CONTINUOUS
 10
280.93979713700838
 20
245.71640879089051
 30
0.0
 11
280.93979713700838
 21
234.91732679089051
 31
0.0
  0
LINE
  5
5E60
  8
DANMEN
  6
CONTINUOUS
 10
274.67979713700839
 20
236.81686779089051
 30
0.0
 11
274.67979713700839
 21
243.81686779089051
 31
0.0
  0
LINE
  5
5E61
  8
DANMEN
  6
CONTINUOUS
 10
270.77979713700842
 20
246.31686779089051
 30
0.0
 11
270.77979713700842
 21
234.31686779089051
 31
0.0
  0
LINE
  5
5E62
  8
SUNPO
  6
CONTINUOUS
 10
331.29423513700851
 20
190.31691279089051
 30
0.0
 11
331.29423513700851
 21
260.31691179089052
 31
0.0
  0
LINE
  5
5E63
  8
DANMEN
  6
CONTINUOUS
 10
416.57934313700849
 20
254.13211379089049
 30
0.0
 11
416.57934313700849
 21
255.3485167908905
 31
0.0
  0
LINE
  5
5E64
  8
DANMEN
  6
CONTINUOUS
 10
417.57934313700849
 20
253.97450279089051
 30
0.0
 11
417.57934313700849
 21
255.58270479089049
 31
0.0
  0
ARC
  5
5E65
  8
DANMEN
  6
CONTINUOUS
 10
413.77935813700839
 20
256.81689179089051
 30
0.0
 40
0.5
 50
180.0
 51
270.0
  0
LINE
  5
5E66
  8
DANMEN
  6
CONTINUOUS
 10
413.77935813700839
 20
256.31689179089039
 30
0.0
 11
415.41729313700853
 21
256.31689179089039
 31
0.0
  0
LINE
  5
5E67
  8
DANMEN
  6
CONTINUOUS
 10
414.27935813700839
 20
257.31689179089051
 30
0.0
 11
415.5983181370085
 21
257.31689179089051
 31
0.0
  0
ARC
  5
5E68
  8
DANMEN
  6
CONTINUOUS
 10
416.02934413700842
 20
252.61689179089049
 30
0.0
 40
0.3
 50
180.0
 51
270.0
  0
LINE
  5
5E69
  8
DANMEN
  6
CONTINUOUS
 10
415.72934413700841
 20
252.91782979089049
 30
0.0
 11
415.72934413700841
 21
252.61689179089049
 31
0.0
  0
LINE
  5
5E6A
  8
DANMEN
  6
CONTINUOUS
 10
416.52934313700842
 20
252.31689179089051
 30
0.0
 11
416.02934413700842
 21
252.31689179089051
 31
0.0
  0
LINE
  5
5E6B
  8
DANMEN
  6
CONTINUOUS
 10
417.39943513700842
 20
255.96681479089051
 30
0.0
 11
415.91841013700849
 21
257.20100279089053
 31
0.0
  0
LINE
  5
5E6C
  8
DANMEN
  6
CONTINUOUS
 10
416.57934313700849
 20
255.3485167908905
 30
0.0
 11
415.41729313700853
 21
256.31689179089039
 31
0.0
  0
ARC
  5
5E6D
  8
DANMEN
  6
CONTINUOUS
 10
415.5983181370085
 20
256.81689179089051
 30
0.0
 40
0.5
 50
50.194429000000831
 51
90.0
  0
ARC
  5
5E6E
  8
DANMEN
  6
CONTINUOUS
 10
417.07934313700849
 20
255.58270479089049
 30
0.0
 40
0.5
 50
0.0
 51
50.194429000000831
  0
LINE
  5
5E6F
  8
DANMEN
  6
CONTINUOUS
 10
416.52934313700842
 20
252.31689179089051
 30
0.0
 11
417.48895913700841
 21
253.68777179089051
 31
0.0
  0
LINE
  5
5E70
  8
DANMEN
  6
CONTINUOUS
 10
415.72934413700841
 20
252.91782979089049
 30
0.0
 11
416.57934313700849
 21
254.13211379089049
 31
0.0
  0
ARC
  5
5E71
  8
DANMEN
  6
CONTINUOUS
 10
417.07934313700849
 20
253.97450279089051
 30
0.0
 40
0.5
 50
325.00797999999998
 51
0.0
  0
LINE
  5
5E72
  8
DANMEN
  6
CONTINUOUS
 10
413.27935813700839
 20
258.31689179089051
 30
0.0
 11
413.27935813700839
 21
256.81689179089051
 31
0.0
  0
LINE
  5
5E73
  8
DANMEN
  6
CONTINUOUS
 10
414.27935813700839
 20
259.11689479089051
 30
0.0
 11
414.27935813700839
 21
257.31689179089051
 31
0.0
  0
LINE
  5
5E74
  8
DANMEN
  6
CONTINUOUS
 10
411.2793581370085
 20
258.31689179089051
 30
0.0
 11
413.27935813700839
 21
258.31689179089051
 31
0.0
  0
ARC
  5
5E75
  8
DANMEN
  6
CONTINUOUS
 10
410.7793581370085
 20
257.31686179089053
 30
0.0
 40
0.5
 50
180.0
 51
270.0
  0
ARC
  5
5E76
  8
DANMEN
  6
CONTINUOUS
 10
410.7793581370085
 20
257.31686179089053
 30
0.0
 40
0.5
 50
270.0
 51
0.0
  0
LINE
  5
5E77
  8
DANMEN
  6
CONTINUOUS
 10
410.27935813700839
 20
257.31686179089053
 30
0.0
 11
410.27935813700839
 21
258.31689179089051
 31
0.0
  0
LINE
  5
5E78
  8
DANMEN
  6
CONTINUOUS
 10
411.2793581370085
 20
257.31686179089053
 30
0.0
 11
411.2793581370085
 21
258.31689179089051
 31
0.0
  0
ARC
  5
5E79
  8
DANMEN
  6
CONTINUOUS
 10
395.77935813700839
 20
258.81689179089051
 30
0.0
 40
0.5
 50
180.0
 51
270.0
  0
ARC
  5
5E7A
  8
DANMEN
  6
CONTINUOUS
 10
395.77935813700839
 20
259.81689179089051
 30
0.0
 40
0.5
 50
90.0
 51
180.0
  0
LINE
  5
5E7B
  8
DANMEN
  6
CONTINUOUS
 10
395.27935813700839
 20
258.81689179089051
 30
0.0
 11
395.27935813700839
 21
259.81689179089051
 31
0.0
  0
LINE
  5
5E7C
  8
DANMEN
  6
CONTINUOUS
 10
395.77935813700839
 20
258.31689179089051
 30
0.0
 11
410.27935813700839
 21
258.31689179089051
 31
0.0
  0
LINE
  5
5E7D
  8
DANMEN
  6
CONTINUOUS
 10
395.77935813700839
 20
260.31689179089051
 30
0.0
 11
414.7793581370085
 21
260.31689179089051
 31
0.0
  0
ARC
  5
5E7E
  8
DANMEN
  6
CONTINUOUS
 10
414.27935813700839
 20
259.61689479089051
 30
0.0
 40
0.5
 50
270.0
 51
0.0000190000006095
  0
LINE
  5
5E7F
  8
DANMEN
  6
CONTINUOUS
 10
414.7793581370085
 20
259.61689479089051
 30
0.0
 11
414.7793581370085
 21
260.31689179089051
 31
0.0
  0
LINE
  5
5E80
  8
DANMEN
  6
CONTINUOUS
 10
264.47979813700852
 20
254.13213479089049
 30
0.0
 11
264.47979813700852
 21
255.3485377908905
 31
0.0
  0
LINE
  5
5E81
  8
DANMEN
  6
CONTINUOUS
 10
263.47979813700852
 20
253.97452379089049
 30
0.0
 11
263.47979813700852
 21
255.58272579089049
 31
0.0
  0
ARC
  5
5E82
  8
DANMEN
  6
CONTINUOUS
 10
267.27978313700851
 20
256.81691279089051
 30
0.0
 40
0.5
 50
270.0
 51
0.0
  0
LINE
  5
5E83
  8
DANMEN
  6
CONTINUOUS
 10
267.27978313700851
 20
256.31691279089051
 30
0.0
 11
265.64184813700848
 21
256.31691279089051
 31
0.0
  0
LINE
  5
5E84
  8
DANMEN
  6
CONTINUOUS
 10
266.77978313700839
 20
257.31691279089051
 30
0.0
 11
265.46082313700839
 21
257.31691279089051
 31
0.0
  0
ARC
  5
5E85
  8
DANMEN
  6
CONTINUOUS
 10
265.02979713700842
 20
252.6169127908905
 30
0.0
 40
0.3
 50
270.0
 51
0.0
  0
LINE
  5
5E86
  8
DANMEN
  6
CONTINUOUS
 10
265.32979713700848
 20
252.9178507908905
 30
0.0
 11
265.32979713700848
 21
252.6169127908905
 31
0.0
  0
LINE
  5
5E87
  8
DANMEN
  6
CONTINUOUS
 10
264.52979813700841
 20
252.31691279089051
 30
0.0
 11
265.02979713700842
 21
252.31691279089051
 31
0.0
  0
LINE
  5
5E88
  8
DANMEN
  6
CONTINUOUS
 10
263.65970613700841
 20
255.96683579089051
 30
0.0
 11
265.14073113700852
 21
257.20102379089047
 31
0.0
  0
LINE
  5
5E89
  8
DANMEN
  6
CONTINUOUS
 10
264.47979813700852
 20
255.3485377908905
 30
0.0
 11
265.64184813700848
 21
256.31691279089051
 31
0.0
  0
ARC
  5
5E8A
  8
DANMEN
  6
CONTINUOUS
 10
265.46082313700839
 20
256.81691279089051
 30
0.0
 40
0.5
 50
90.0
 51
129.80557099999911
  0
ARC
  5
5E8B
  8
DANMEN
  6
CONTINUOUS
 10
263.97979813700852
 20
255.58272579089049
 30
0.0
 40
0.5
 50
129.80557099999911
 51
180.0
  0
LINE
  5
5E8C
  8
DANMEN
  6
CONTINUOUS
 10
264.52979813700841
 20
252.31691279089051
 30
0.0
 11
263.57018213700837
 21
253.68779279089051
 31
0.0
  0
LINE
  5
5E8D
  8
DANMEN
  6
CONTINUOUS
 10
265.32979713700848
 20
252.9178507908905
 30
0.0
 11
264.47979813700852
 21
254.13213479089049
 31
0.0
  0
ARC
  5
5E8E
  8
DANMEN
  6
CONTINUOUS
 10
263.97979813700852
 20
253.97452379089049
 30
0.0
 40
0.5
 50
180.0
 51
214.99201999999991
  0
LINE
  5
5E8F
  8
DANMEN
  6
CONTINUOUS
 10
267.77978313700851
 20
258.31691279089051
 30
0.0
 11
267.77978313700851
 21
256.81691279089051
 31
0.0
  0
LINE
  5
5E90
  8
DANMEN
  6
CONTINUOUS
 10
266.77978313700839
 20
259.11691579089052
 30
0.0
 11
266.77978313700839
 21
257.31691279089051
 31
0.0
  0
LINE
  5
5E91
  8
DANMEN
  6
CONTINUOUS
 10
269.77978313700851
 20
258.31691279089051
 30
0.0
 11
267.77978313700851
 21
258.31691279089051
 31
0.0
  0
ARC
  5
5E92
  8
DANMEN
  6
CONTINUOUS
 10
270.27978313700851
 20
257.31688279089047
 30
0.0
 40
0.5
 50
270.0
 51
0.0
  0
ARC
  5
5E93
  8
DANMEN
  6
CONTINUOUS
 10
270.27978313700851
 20
257.31688279089047
 30
0.0
 40
0.5
 50
180.0
 51
270.0
  0
LINE
  5
5E94
  8
DANMEN
  6
CONTINUOUS
 10
270.77978313700851
 20
257.31688279089047
 30
0.0
 11
270.77978313700851
 21
258.31691279089051
 31
0.0
  0
LINE
  5
5E95
  8
DANMEN
  6
CONTINUOUS
 10
269.77978313700851
 20
257.31688279089047
 30
0.0
 11
269.77978313700851
 21
258.31691279089051
 31
0.0
  0
ARC
  5
5E96
  8
DANMEN
  6
CONTINUOUS
 10
285.27978313700839
 20
258.81691279089051
 30
0.0
 40
0.5
 50
270.0
 51
0.0
  0
ARC
  5
5E97
  8
DANMEN
  6
CONTINUOUS
 10
285.27978313700839
 20
259.81691279089051
 30
0.0
 40
0.5
 50
0.0
 51
90.0
  0
LINE
  5
5E98
  8
DANMEN
  6
CONTINUOUS
 10
285.77978313700851
 20
258.81691279089051
 30
0.0
 11
285.77978313700851
 21
259.81691279089051
 31
0.0
  0
LINE
  5
5E99
  8
DANMEN
  6
CONTINUOUS
 10
285.27978313700839
 20
258.31691279089051
 30
0.0
 11
270.77978313700851
 21
258.31691279089051
 31
0.0
  0
LINE
  5
5E9A
  8
DANMEN
  6
CONTINUOUS
 10
285.27978313700839
 20
260.31691279089051
 30
0.0
 11
266.27978313700851
 21
260.31691279089051
 31
0.0
  0
ARC
  5
5E9B
  8
DANMEN
  6
CONTINUOUS
 10
266.77978313700839
 20
259.61691579089052
 30
0.0
 40
0.5
 50
179.99998099999931
 51
270.0
  0
LINE
  5
5E9C
  8
DANMEN
  6
CONTINUOUS
 10
266.27978313700851
 20
259.61691579089052
 30
0.0
 11
266.27978313700851
 21
260.31691279089051
 31
0.0
  0
LINE
  5
5E9D
  8
SUNPO
  6
CONTINUOUS
 10
285.77978313700851
 20
262.56691379089051
 30
0.0
 11
285.77978313700851
 21
280.31691179089052
 31
0.0
  0
LINE
  5
5E9E
  8
SUNPO
  6
CONTINUOUS
 10
260.77978313700839
 20
261.31691379089051
 30
0.0
 11
260.77978313700839
 21
280.31691179089052
 31
0.0
  0
LINE
  5
5E9F
  8
SUNPO
  6
CONTINUOUS
 10
260.77978313700839
 20
280.31691179089052
 30
0.0
 11
285.77978313700851
 21
280.31691179089052
 31
0.0
  0
LINE
  5
5EA0
  8
SUNPO
  6
CONTINUOUS
 10
255.7795931370085
 20
189.31692679089051
 30
0.0
 11
255.7795831370085
 21
170.31684679089051
 31
0.0
  0
LINE
  5
5EA1
  8
SUNPO
  6
CONTINUOUS
 10
285.77958713700838
 20
189.31691279089051
 30
0.0
 11
285.7795771370084
 21
170.31683079089049
 31
0.0
  0
LINE
  5
5EA2
  8
SUNPO
  6
CONTINUOUS
 10
285.7795771370084
 20
170.31683079089049
 30
0.0
 11
255.7795831370085
 21
170.31684679089051
 31
0.0
  0
LINE
  5
5EA3
  8
SUNPO
  6
CONTINUOUS
 10
395.27959313700842
 20
189.31691279089051
 30
0.0
 11
395.27960313700839
 21
170.31683079089049
 31
0.0
  0
LINE
  5
5EA4
  8
SUNPO
  6
CONTINUOUS
 10
425.27958713700849
 20
189.31692679089051
 30
0.0
 11
425.27959713700841
 21
170.31684679089051
 31
0.0
  0
LINE
  5
5EA5
  8
SUNPO
  6
CONTINUOUS
 10
425.27959713700841
 20
170.31684679089051
 30
0.0
 11
395.27960313700839
 21
170.31683079089049
 31
0.0
  0
LINE
  5
5EA6
  8
DANMEN
  6
CONTINUOUS
 10
414.77940013700839
 20
191.96693579089049
 30
0.0
 11
414.77940013700839
 21
192.81693479089051
 31
0.0
  0
LINE
  5
5EA7
  8
DANMEN
  6
CONTINUOUS
 10
417.77940013700839
 20
191.96693579089049
 30
0.0
 11
414.77940013700839
 21
191.96693579089049
 31
0.0
  0
LINE
  5
5EA8
  8
DANMEN
  6
CONTINUOUS
 10
396.92943613700839
 20
220.6669257908905
 30
0.0
 11
417.77940013700839
 21
220.6669167908905
 31
0.0
  0
LINE
  5
5EA9
  8
DANMEN
  6
CONTINUOUS
 10
396.92942313700848
 20
192.81692579089051
 30
0.0
 11
396.92943613700839
 21
220.6669257908905
 31
0.0
  0
LINE
  5
5EAA
  8
DANMEN
  6
CONTINUOUS
 10
396.92942313700848
 20
192.81692579089051
 30
0.0
 11
414.77940013700839
 21
192.81693479089051
 31
0.0
  0
ARC
  5
5EAB
  8
DANMEN
  6
CONTINUOUS
 10
415.2793981370084
 20
250.41690079089051
 30
0.0
 40
0.5
 50
180.0
 51
270.0
  0
LINE
  5
5EAC
  8
DANMEN
  6
CONTINUOUS
 10
419.42939813700838
 20
191.96693579089049
 30
0.0
 11
419.42939813700838
 21
223.66693179089049
 31
0.0
  0
ARC
  5
5EAD
  8
DANMEN
  6
CONTINUOUS
 10
424.7793991370084
 20
190.8169387908905
 30
0.0
 40
0.5
 50
270.0
 51
0.0
  0
LINE
  5
5EAE
  8
DANMEN
  6
CONTINUOUS
 10
419.42939813700838
 20
223.66693179089049
 30
0.0
 11
423.62939813700842
 21
223.66693179089049
 31
0.0
  0
ARC
  5
5EAF
  8
DANMEN
  6
CONTINUOUS
 10
424.7793961370084
 20
195.8169387908905
 30
0.0
 40
0.5
 50
0.0
 51
90.0
  0
ARC
  5
5EB0
  8
DANMEN
  6
CONTINUOUS
 10
424.12939613700843
 20
195.8169387908905
 30
0.0
 40
0.5
 50
90.0
 51
180.0
  0
LINE
  5
5EB1
  8
DANMEN
  6
CONTINUOUS
 10
424.12939613700843
 20
196.3169387908905
 30
0.0
 11
424.7793961370084
 21
196.3169387908905
 31
0.0
  0
LINE
  5
5EB2
  8
DANMEN
  6
CONTINUOUS
 10
425.2793961370084
 20
195.8169387908905
 30
0.0
 11
425.2793991370084
 21
190.8169387908905
 31
0.0
  0
LINE
  5
5EB3
  8
DANMEN
  6
CONTINUOUS
 10
423.62939613700843
 20
195.8169387908905
 30
0.0
 11
423.62939813700842
 21
191.96693579089049
 31
0.0
  0
LINE
  5
5EB4
  8
DANMEN
  6
CONTINUOUS
 10
419.42939813700838
 20
191.96693579089049
 30
0.0
 11
423.62939813700842
 21
191.96693579089049
 31
0.0
  0
LINE
  5
5EB5
  8
DANMEN
  6
CONTINUOUS
 10
425.2793971370084
 20
224.8169277908905
 30
0.0
 11
425.27940013700839
 21
219.81693479089051
 31
0.0
  0
LINE
  5
5EB6
  8
DANMEN
  6
CONTINUOUS
 10
395.77942313700851
 20
190.31692479089051
 30
0.0
 11
420.81525513700842
 21
190.31693779089051
 31
0.0
  0
LINE
  5
5EB7
  8
DANMEN
  6
CONTINUOUS
 10
420.2793981370084
 20
225.3169277908905
 30
0.0
 11
424.7793971370084
 21
225.3169277908905
 31
0.0
  0
LINE
  5
5EB8
  8
DANMEN
  6
CONTINUOUS
 10
420.2793981370084
 20
225.3169277908905
 30
0.0
 11
420.2793981370084
 21
259.81691279089051
 31
0.0
  0
ARC
  5
5EB9
  8
DANMEN
  6
CONTINUOUS
 10
424.77940013700839
 20
219.81693479089051
 30
0.0
 40
0.5
 50
270.0
 51
0.0
  0
LINE
  5
5EBA
  8
DANMEN
  6
CONTINUOUS
 10
423.62939813700842
 20
223.66693179089049
 30
0.0
 11
423.62940013700842
 21
219.81693379089049
 31
0.0
  0
LINE
  5
5EBB
  8
DANMEN
  6
CONTINUOUS
 10
424.12940013700842
 20
219.31693379089049
 30
0.0
 11
424.77940013700839
 21
219.31693479089051
 31
0.0
  0
ARC
  5
5EBC
  8
DANMEN
  6
CONTINUOUS
 10
424.12940013700842
 20
219.81693379089049
 30
0.0
 40
0.5
 50
180.0
 51
270.0
  0
ARC
  5
5EBD
  8
DANMEN
  6
CONTINUOUS
 10
419.7793971370084
 20
259.81691479089051
 30
0.0
 40
0.5
 50
0.0
 51
90.0
  0
LINE
  5
5EBE
  8
DANMEN
  6
CONTINUOUS
 10
419.7793971370084
 20
260.31691479089051
 30
0.0
 11
414.7793981370084
 21
260.31691279089051
 31
0.0
  0
ARC
  5
5EBF
  8
DANMEN
  6
CONTINUOUS
 10
421.5293981370084
 20
189.61693779089049
 30
0.0
 40
1.0
 50
44.427033000001373
 51
135.57302499999929
  0
LINE
  5
5EC0
  8
DANMEN
  6
CONTINUOUS
 10
422.24354013700838
 20
190.3169387908905
 30
0.0
 11
424.7793991370084
 21
190.3169397908905
 31
0.0
  0
LINE
  5
5EC1
  8
DANMEN
  6
CONTINUOUS
 10
417.77940013700839
 20
191.96693579089049
 30
0.0
 11
417.77940013700839
 21
220.6669167908905
 31
0.0
  0
LINE
  5
5EC2
  8
DANMEN
  6
CONTINUOUS
 10
417.77940013700839
 20
222.31691279089051
 30
0.0
 11
417.77940013700839
 21
249.91690079089051
 31
0.0
  0
LINE
  5
5EC3
  8
DANMEN
  6
CONTINUOUS
 10
411.27943613700847
 20
222.31691979089049
 30
0.0
 11
417.77940013700839
 21
222.31691279089051
 31
0.0
  0
LINE
  5
5EC4
  8
DANMEN
  6
CONTINUOUS
 10
411.27943713700841
 20
223.3169497908905
 30
0.0
 11
411.27943613700847
 21
222.31691979089049
 31
0.0
  0
LINE
  5
5EC5
  8
DANMEN
  6
CONTINUOUS
 10
410.27943713700847
 20
223.3169507908905
 30
0.0
 11
410.27943613700847
 21
222.31691979089049
 31
0.0
  0
ARC
  5
5EC6
  8
DANMEN
  6
CONTINUOUS
 10
410.77943713700847
 20
223.3169497908905
 30
0.0
 40
0.5
 50
359.99997600000052
 51
89.999975999998881
  0
ARC
  5
5EC7
  8
DANMEN
  6
CONTINUOUS
 10
410.77943713700847
 20
223.3169497908905
 30
0.0
 40
0.5
 50
89.999975999998881
 51
179.99997600000049
  0
ARC
  5
5EC8
  8
DANMEN
  6
CONTINUOUS
 10
395.77943613700842
 20
221.81692579089051
 30
0.0
 40
0.5
 50
89.999975999998881
 51
179.99997600000049
  0
LINE
  5
5EC9
  8
DANMEN
  6
CONTINUOUS
 10
395.77943613700842
 20
222.31692579089051
 30
0.0
 11
410.27943613700847
 21
222.31691979089049
 31
0.0
  0
LINE
  5
5ECA
  8
DANMEN
  6
CONTINUOUS
 10
395.27942313700851
 20
190.8169067908905
 30
0.0
 11
395.27943613700842
 21
221.81692679089051
 31
0.0
  0
ARC
  5
5ECB
  8
DANMEN
  6
CONTINUOUS
 10
395.77942313700851
 20
190.8169067908905
 30
0.0
 40
0.5
 50
180.0
 51
270.0
  0
LINE
  5
5ECC
  8
DANMEN
  6
CONTINUOUS
 10
417.77940013700839
 20
249.91690079089051
 30
0.0
 11
415.2793981370084
 21
249.91690079089051
 31
0.0
  0
LINE
  5
5ECD
  8
DANMEN
  6
CONTINUOUS
 10
417.77939813700851
 20
251.1169007908905
 30
0.0
 11
417.77939813700851
 21
258.3669007908905
 31
0.0
  0
LINE
  5
5ECE
  8
DANMEN
  6
CONTINUOUS
 10
417.77939813700851
 20
251.1169007908905
 30
0.0
 11
415.7793981370084
 21
251.1169007908905
 31
0.0
  0
LINE
  5
5ECF
  8
DANMEN
  6
CONTINUOUS
 10
414.7793981370084
 20
257.31689779089049
 30
0.0
 11
414.7793981370084
 21
260.31689779089049
 31
0.0
  0
LINE
  5
5ED0
  8
DANMEN
  6
CONTINUOUS
 10
417.77939813700851
 20
258.3669007908905
 30
0.0
 11
415.7793981370084
 21
258.3669007908905
 31
0.0
  0
LINE
  5
5ED1
  8
DANMEN
  6
CONTINUOUS
 10
415.7793981370084
 20
257.31689779089049
 30
0.0
 11
415.7793981370084
 21
258.3669007908905
 31
0.0
  0
LINE
  5
5ED2
  8
DANMEN
  6
CONTINUOUS
 10
415.7793981370084
 20
253.1169007908905
 30
0.0
 11
415.7793981370084
 21
251.1169007908905
 31
0.0
  0
LINE
  5
5ED3
  8
DANMEN
  6
CONTINUOUS
 10
415.7793981370084
 20
253.1169007908905
 30
0.0
 11
415.2793981370084
 21
253.1169007908905
 31
0.0
  0
ARC
  5
5ED4
  8
DANMEN
  6
CONTINUOUS
 10
415.2793981370084
 20
252.6169007908905
 30
0.0
 40
0.5
 50
90.000017999999187
 51
179.99998199999911
  0
LINE
  5
5ED5
  8
DANMEN
  6
CONTINUOUS
 10
415.7793981370084
 20
257.31689779089049
 30
0.0
 11
414.7793981370084
 21
257.31689779089049
 31
0.0
  0
LINE
  5
5ED6
  8
DANMEN
  6
CONTINUOUS
 10
414.7793981370084
 20
252.6169007908905
 30
0.0
 11
414.7793981370084
 21
250.41690079089051
 31
0.0
  0
ARC
  5
5ED7
  8
DANMEN
  6
CONTINUOUS
 10
424.7793971370084
 20
224.8169277908905
 30
0.0
 40
0.5
 50
0.0
 51
90.0
  0
LINE
  5
5ED8
  8
DANMEN
  6
CONTINUOUS
 10
266.27978113700851
 20
191.96693579089049
 30
0.0
 11
266.27978113700851
 21
192.81693479089051
 31
0.0
  0
LINE
  5
5ED9
  8
DANMEN
  6
CONTINUOUS
 10
263.27978113700851
 20
191.96693579089049
 30
0.0
 11
266.27978113700851
 21
191.96693579089049
 31
0.0
  0
LINE
  5
5EDA
  8
DANMEN
  6
CONTINUOUS
 10
284.12974513700851
 20
220.6669257908905
 30
0.0
 11
263.27978113700851
 21
220.6669167908905
 31
0.0
  0
LINE
  5
5EDB
  8
DANMEN
  6
CONTINUOUS
 10
284.12975813700848
 20
192.81692579089051
 30
0.0
 11
284.12974513700851
 21
220.6669257908905
 31
0.0
  0
LINE
  5
5EDC
  8
DANMEN
  6
CONTINUOUS
 10
284.12975813700848
 20
192.81692579089051
 30
0.0
 11
266.27978113700851
 21
192.81693479089051
 31
0.0
  0
ARC
  5
5EDD
  8
DANMEN
  6
CONTINUOUS
 10
265.77978313700851
 20
250.41690079089051
 30
0.0
 40
0.5
 50
270.0
 51
0.0
  0
LINE
  5
5EDE
  8
DANMEN
  6
CONTINUOUS
 10
261.62978313700842
 20
191.96693579089049
 30
0.0
 11
261.62978313700842
 21
223.66693179089049
 31
0.0
  0
ARC
  5
5EDF
  8
DANMEN
  6
CONTINUOUS
 10
256.27978213700851
 20
190.8169387908905
 30
0.0
 40
0.5
 50
180.0
 51
270.0
  0
LINE
  5
5EE0
  8
DANMEN
  6
CONTINUOUS
 10
261.62978313700842
 20
223.66693179089049
 30
0.0
 11
257.42978313700843
 21
223.66693179089049
 31
0.0
  0
ARC
  5
5EE1
  8
DANMEN
  6
CONTINUOUS
 10
256.27978513700839
 20
195.8169387908905
 30
0.0
 40
0.5
 50
90.0
 51
180.0
  0
ARC
  5
5EE2
  8
DANMEN
  6
CONTINUOUS
 10
256.92978513700842
 20
195.8169387908905
 30
0.0
 40
0.5
 50
0.0
 51
90.0
  0
LINE
  5
5EE3
  8
DANMEN
  6
CONTINUOUS
 10
256.92978513700842
 20
196.3169387908905
 30
0.0
 11
256.27978513700839
 21
196.3169387908905
 31
0.0
  0
LINE
  5
5EE4
  8
DANMEN
  6
CONTINUOUS
 10
255.77978513700839
 20
195.8169387908905
 30
0.0
 11
255.7797821370084
 21
190.8169387908905
 31
0.0
  0
LINE
  5
5EE5
  8
DANMEN
  6
CONTINUOUS
 10
257.42978513700842
 20
195.8169387908905
 30
0.0
 11
257.42978313700843
 21
191.96693579089049
 31
0.0
  0
LINE
  5
5EE6
  8
DANMEN
  6
CONTINUOUS
 10
261.62978313700842
 20
191.96693579089049
 30
0.0
 11
257.42978313700843
 21
191.96693579089049
 31
0.0
  0
LINE
  5
5EE7
  8
DANMEN
  6
CONTINUOUS
 10
255.77978413700851
 20
224.8169277908905
 30
0.0
 11
255.7797811370084
 21
219.81693479089051
 31
0.0
  0
LINE
  5
5EE8
  8
DANMEN
  6
CONTINUOUS
 10
285.2797581370084
 20
190.31692479089051
 30
0.0
 11
260.24392613700849
 21
190.31693779089051
 31
0.0
  0
LINE
  5
5EE9
  8
DANMEN
  6
CONTINUOUS
 10
260.77978313700839
 20
225.3169277908905
 30
0.0
 11
256.27978413700839
 21
225.3169277908905
 31
0.0
  0
LINE
  5
5EEA
  8
DANMEN
  6
CONTINUOUS
 10
260.77978313700839
 20
225.3169277908905
 30
0.0
 11
260.77978313700839
 21
259.81691279089051
 31
0.0
  0
ARC
  5
5EEB
  8
DANMEN
  6
CONTINUOUS
 10
256.27978113700851
 20
219.81693479089051
 30
0.0
 40
0.5
 50
180.0
 51
270.0
  0
LINE
  5
5EEC
  8
DANMEN
  6
CONTINUOUS
 10
257.42978313700843
 20
223.66693179089049
 30
0.0
 11
257.42978113700838
 21
219.81693379089049
 31
0.0
  0
LINE
  5
5EED
  8
DANMEN
  6
CONTINUOUS
 10
256.92978113700849
 20
219.31693379089049
 30
0.0
 11
256.27978113700851
 21
219.31693479089051
 31
0.0
  0
ARC
  5
5EEE
  8
DANMEN
  6
CONTINUOUS
 10
256.92978113700849
 20
219.81693379089049
 30
0.0
 40
0.5
 50
270.0
 51
0.0
  0
ARC
  5
5EEF
  8
DANMEN
  6
CONTINUOUS
 10
261.27978413700851
 20
259.81691479089051
 30
0.0
 40
0.5
 50
90.0
 51
180.0
  0
LINE
  5
5EF0
  8
DANMEN
  6
CONTINUOUS
 10
261.27978413700851
 20
260.31691479089051
 30
0.0
 11
266.27978313700851
 21
260.31691279089051
 31
0.0
  0
ARC
  5
5EF1
  8
DANMEN
  6
CONTINUOUS
 10
259.52978313700851
 20
189.61693779089049
 30
0.0
 40
1.0
 50
44.426975000000724
 51
135.57296700000089
  0
LINE
  5
5EF2
  8
DANMEN
  6
CONTINUOUS
 10
258.81564113700841
 20
190.3169387908905
 30
0.0
 11
256.27978213700851
 21
190.3169397908905
 31
0.0
  0
LINE
  5
5EF3
  8
DANMEN
  6
CONTINUOUS
 10
263.27978113700851
 20
191.96693579089049
 30
0.0
 11
263.27978113700851
 21
220.6669167908905
 31
0.0
  0
LINE
  5
5EF4
  8
DANMEN
  6
CONTINUOUS
 10
263.27978113700851
 20
222.31691279089051
 30
0.0
 11
263.27978113700851
 21
249.91690079089051
 31
0.0
  0
LINE
  5
5EF5
  8
DANMEN
  6
CONTINUOUS
 10
269.77974513700838
 20
222.31691979089049
 30
0.0
 11
263.27978113700851
 21
222.31691279089051
 31
0.0
  0
LINE
  5
5EF6
  8
DANMEN
  6
CONTINUOUS
 10
269.77974413700838
 20
223.3169497908905
 30
0.0
 11
269.77974513700838
 21
222.31691979089049
 31
0.0
  0
LINE
  5
5EF7
  8
DANMEN
  6
CONTINUOUS
 10
270.77974413700849
 20
223.3169507908905
 30
0.0
 11
270.77974513700849
 21
222.31691979089049
 31
0.0
  0
ARC
  5
5EF8
  8
DANMEN
  6
CONTINUOUS
 10
270.27974413700838
 20
223.3169497908905
 30
0.0
 40
0.5
 50
90.000023999997836
 51
180.0000239999994
  0
ARC
  5
5EF9
  8
DANMEN
  6
CONTINUOUS
 10
270.27974413700838
 20
223.3169497908905
 30
0.0
 40
0.5
 50
0.0000239999994842
 51
90.000023999997836
  0
ARC
  5
5EFA
  8
DANMEN
  6
CONTINUOUS
 10
285.27974513700849
 20
221.81692579089051
 30
0.0
 40
0.5
 50
0.0000239999994842
 51
90.000023999997836
  0
LINE
  5
5EFB
  8
DANMEN
  6
CONTINUOUS
 10
285.27974513700849
 20
222.31692579089051
 30
0.0
 11
270.77974513700849
 21
222.31691979089049
 31
0.0
  0
LINE
  5
5EFC
  8
DANMEN
  6
CONTINUOUS
 10
285.7797581370084
 20
190.8169067908905
 30
0.0
 11
285.77974513700849
 21
221.81692679089051
 31
0.0
  0
ARC
  5
5EFD
  8
DANMEN
  6
CONTINUOUS
 10
285.2797581370084
 20
190.8169067908905
 30
0.0
 40
0.5
 50
270.0
 51
0.0
  0
LINE
  5
5EFE
  8
DANMEN
  6
CONTINUOUS
 10
263.27978113700851
 20
249.91690079089051
 30
0.0
 11
265.77978313700851
 21
249.91690079089051
 31
0.0
  0
LINE
  5
5EFF
  8
DANMEN
  6
CONTINUOUS
 10
263.27978313700851
 20
251.1169007908905
 30
0.0
 11
263.27978313700851
 21
258.3669007908905
 31
0.0
  0
LINE
  5
5F00
  8
DANMEN
  6
CONTINUOUS
 10
263.27978313700851
 20
251.1169007908905
 30
0.0
 11
265.27978313700851
 21
251.1169007908905
 31
0.0
  0
LINE
  5
5F01
  8
DANMEN
  6
CONTINUOUS
 10
266.27978313700851
 20
257.31689779089049
 30
0.0
 11
266.27978313700851
 21
260.31689779089049
 31
0.0
  0
LINE
  5
5F02
  8
DANMEN
  6
CONTINUOUS
 10
263.27978313700851
 20
258.3669007908905
 30
0.0
 11
265.27978313700851
 21
258.3669007908905
 31
0.0
  0
LINE
  5
5F03
  8
DANMEN
  6
CONTINUOUS
 10
265.27978313700851
 20
257.31689779089049
 30
0.0
 11
265.27978313700851
 21
258.3669007908905
 31
0.0
  0
LINE
  5
5F04
  8
DANMEN
  6
CONTINUOUS
 10
265.27978313700851
 20
253.1169007908905
 30
0.0
 11
265.27978313700851
 21
251.1169007908905
 31
0.0
  0
LINE
  5
5F05
  8
DANMEN
  6
CONTINUOUS
 10
265.27978313700851
 20
253.1169007908905
 30
0.0
 11
265.77978313700851
 21
253.1169007908905
 31
0.0
  0
ARC
  5
5F06
  8
DANMEN
  6
CONTINUOUS
 10
265.77978313700851
 20
252.6169007908905
 30
0.0
 40
0.5
 50
0.0000180000008345
 51
89.999982000000799
  0
LINE
  5
5F07
  8
DANMEN
  6
CONTINUOUS
 10
265.27978313700851
 20
257.31689779089049
 30
0.0
 11
266.27978313700851
 21
257.31689779089049
 31
0.0
  0
LINE
  5
5F08
  8
DANMEN
  6
CONTINUOUS
 10
266.27978313700851
 20
252.6169007908905
 30
0.0
 11
266.27978313700851
 21
250.41690079089051
 31
0.0
  0
ARC
  5
5F09
  8
DANMEN
  6
CONTINUOUS
 10
256.27978413700839
 20
224.8169277908905
 30
0.0
 40
0.5
 50
90.0
 51
180.0
  0
LINE
  5
5F0A
  8
SUNPO
  6
CONTINUOUS
 10
126.0749891370085
 20
227.9026637908905
 30
0.0
 11
107.57323013700839
 21
227.9026637908905
 31
0.0
  0
LINE
  5
5F0B
  8
SUNPO
  6
CONTINUOUS
 10
126.0749891370085
 20
202.9026647908905
 30
0.0
 11
107.57323013700839
 21
202.9026647908905
 31
0.0
  0
LINE
  5
5F0C
  8
SUNPO
  6
CONTINUOUS
 10
107.57323013700839
 20
202.9026647908905
 30
0.0
 11
107.57323013700839
 21
227.9026637908905
 31
0.0
  0
LINE
  5
5F0D
  8
SUNPO
  6
CONTINUOUS
 10
126.0749891370085
 20
202.9026647908905
 30
0.0
 11
107.57323013700839
 21
202.9026647908905
 31
0.0
  0
LINE
  5
5F0E
  8
SUNPO
  6
CONTINUOUS
 10
126.0749891370085
 20
190.90284779089049
 30
0.0
 11
107.57323013700839
 21
190.90284779089049
 31
0.0
  0
LINE
  5
5F0F
  8
SUNPO
  6
CONTINUOUS
 10
107.57323013700839
 20
190.90284779089049
 30
0.0
 11
107.57323013700839
 21
202.9026647908905
 31
0.0
  0
LINE
  5
5F10
  8
SUNPO
  6
CONTINUOUS
 10
186.07499313700851
 20
232.90284779089049
 30
0.0
 11
107.57323013700839
 21
232.90284779089049
 31
0.0
  0
LINE
  5
5F11
  8
SUNPO
  6
CONTINUOUS
 10
164.07507313700839
 20
227.90284779089049
 30
0.0
 11
107.57323013700839
 21
227.90284779089049
 31
0.0
  0
LINE
  5
5F12
  8
SUNPO
  6
CONTINUOUS
 10
107.57323013700839
 20
227.90284779089049
 30
0.0
 11
107.57323013700839
 21
232.90284779089049
 31
0.0
  0
LINE
  5
5F13
  8
SUNPO
  6
CONTINUOUS
 10
126.0749891370085
 20
190.90284779089049
 30
0.0
 11
107.57323013700839
 21
190.90284779089049
 31
0.0
  0
LINE
  5
5F14
  8
SUNPO
  6
CONTINUOUS
 10
126.0749891370085
 20
187.90284779089049
 30
0.0
 11
107.57323013700839
 21
187.90284779089049
 31
0.0
  0
LINE
  5
5F15
  8
SUNPO
  6
CONTINUOUS
 10
107.57323013700839
 20
187.90284779089049
 30
0.0
 11
107.57323013700839
 21
190.90284779089049
 31
0.0
  0
LINE
  5
5F16
  8
SUNPO
  6
CONTINUOUS
 10
126.5750451370084
 20
227.90289479089051
 30
0.0
 11
97.572706137008481
 21
227.90306279089049
 31
0.0
  0
LINE
  5
5F17
  8
SUNPO
  6
CONTINUOUS
 10
126.57498713700841
 20
187.9028567908905
 30
0.0
 11
97.572473137008515
 21
187.9030257908905
 31
0.0
  0
LINE
  5
5F18
  8
SUNPO
  6
CONTINUOUS
 10
97.572473137008515
 20
187.9030257908905
 30
0.0
 11
97.572706137008481
 21
227.90306279089049
 31
0.0
  0
LINE
  5
5F19
  8
SUNPO
  6
CONTINUOUS
 10
165.57498913700849
 20
261.40662079089049
 30
0.0
 11
197.57498913700849
 21
261.40662079089049
 31
0.0
  0
LINE
  5
5F1A
  8
SUNPO
  6
CONTINUOUS
 10
198.57498913700849
 20
177.90284779089049
 30
0.0
 11
222.5749891370084
 21
177.90284779089049
 31
0.0
  0
LINE
  5
5F1B
  8
SUNPO
  6
CONTINUOUS
 10
198.57498913700849
 20
232.90284779089049
 30
0.0
 11
222.5749891370084
 21
232.90284779089049
 31
0.0
  0
LINE
  5
5F1C
  8
SUNPO
  6
CONTINUOUS
 10
222.5749891370084
 20
232.90284779089049
 30
0.0
 11
222.5749891370084
 21
177.90284779089049
 31
0.0
  0
LINE
  5
5F1D
  8
SUNPO
  6
CONTINUOUS
 10
127.5749891370085
 20
261.40662079089049
 30
0.0
 11
122.5232111370084
 21
261.40662079089049
 31
0.0
  0
LINE
  5
5F1E
  8
SUNPO
  6
CONTINUOUS
 10
129.57498913700849
 20
261.40662079089049
 30
0.0
 11
127.5749891370085
 21
261.40662079089049
 31
0.0
  0
LINE
  5
5F1F
  8
SUNPO
  6
CONTINUOUS
 10
165.57498913700849
 20
261.40662079089049
 30
0.0
 11
129.57498913700849
 21
261.40662079089049
 31
0.0
  0
LINE
  5
5F20
  8
SUNPO
  6
CONTINUOUS
 10
219.90610313700839
 20
262.45880029089051
 30
0.0
 11
225.50610313700841
 21
262.45880029089051
 31
0.0
  0
LINE
  5
5F21
  8
SUNPO
  6
CONTINUOUS
 10
221.86605203700839
 20
271.91948159089048
 30
0.0
 11
221.86605203700839
 21
268.56750149089049
 31
0.0
  0
LINE
  5
5F22
  8
SUNPO
  6
CONTINUOUS
 10
223.54604783700839
 20
271.91948159089048
 30
0.0
 11
223.54604783700839
 21
268.56750149089049
 31
0.0
  0
LINE
  5
5F23
  8
SUNPO
  6
CONTINUOUS
 10
219.90610313700839
 20
263.43879609089049
 30
0.0
 11
219.90610313700839
 21
259.8006559908905
 31
0.0
  0
LINE
  5
5F24
  8
SUNPO
  6
CONTINUOUS
 10
219.90610313700839
 20
267.71786249089052
 30
0.0
 11
219.90610313700839
 21
265.10472959089049
 31
0.0
  0
LINE
  5
5F25
  8
SUNPO
  6
CONTINUOUS
 10
219.90610313700839
 20
266.30880029089047
 30
0.0
 11
225.50610313700841
 21
266.30880029089047
 31
0.0
  0
LINE
  5
5F26
  8
SUNPO
  6
CONTINUOUS
 10
225.50610313700841
 20
263.43879609089049
 30
0.0
 11
225.50610313700841
 21
259.8006559908905
 31
0.0
  0
LINE
  5
5F27
  8
SUNPO
  6
CONTINUOUS
 10
222.7061031370084
 20
266.30880029089047
 30
0.0
 11
222.7061031370084
 21
262.45880029089051
 31
0.0
  0
LINE
  5
5F28
  8
SUNPO
  6
CONTINUOUS
 10
225.50610313700841
 20
267.71786249089052
 30
0.0
 11
225.50610313700841
 21
265.10472959089049
 31
0.0
  0
LINE
  5
5F29
  8
SUNPO
  6
CONTINUOUS
 10
219.90610313700839
 20
261.05880029089047
 30
0.0
 11
225.50610313700841
 21
261.05880029089047
 31
0.0
  0
LINE
  5
5F2A
  8
SUNPO
  6
CONTINUOUS
 10
217.57498913700849
 20
237.90284779089049
 30
0.0
 11
227.57498913700849
 21
237.90284779089049
 31
0.0
  0
LINE
  5
5F2B
  8
SUNPO
  6
CONTINUOUS
 10
227.57498913700849
 20
237.90284779089049
 30
0.0
 11
222.5749891370084
 21
232.90284779089049
 31
0.0
  0
LINE
  5
5F2C
  8
SUNPO
  6
CONTINUOUS
 10
222.5749891370084
 20
232.90284779089049
 30
0.0
 11
217.57498913700849
 21
237.90284779089049
 31
0.0
  0
LINE
  5
5F2D
  8
SUNPO
  6
CONTINUOUS
 10
198.57498913700849
 20
297.9028337908905
 30
0.0
 11
222.5749891370084
 21
297.9028337908905
 31
0.0
  0
LINE
  5
5F2E
  8
SUNPO
  6
CONTINUOUS
 10
198.57498113700839
 20
347.90284179089048
 30
0.0
 11
222.5749891370084
 21
347.90284179089048
 31
0.0
  0
LINE
  5
5F2F
  8
SUNPO
  6
CONTINUOUS
 10
222.5749891370084
 20
347.90284179089048
 30
0.0
 11
222.5749891370084
 21
297.9028337908905
 31
0.0
  0
LINE
  5
5F30
  8
SUNPO
  6
CONTINUOUS
 10
126.0749891370085
 20
337.90284779089052
 30
0.0
 11
97.573230137008466
 21
337.90284779089052
 31
0.0
  0
LINE
  5
5F31
  8
SUNPO
  6
CONTINUOUS
 10
126.5749891370085
 20
297.9028337908905
 30
0.0
 11
97.573230137008466
 21
297.9028337908905
 31
0.0
  0
LINE
  5
5F32
  8
SUNPO
  6
CONTINUOUS
 10
97.573230137008466
 20
297.9028337908905
 30
0.0
 11
97.573230137008466
 21
337.90284779089052
 31
0.0
  0
LINE
  5
5F33
  8
SUNPO
  6
CONTINUOUS
 10
227.57498913700849
 20
292.90284779089052
 30
0.0
 11
217.57498913700849
 21
292.90284779089052
 31
0.0
  0
LINE
  5
5F34
  8
SUNPO
  6
CONTINUOUS
 10
217.57498913700849
 20
292.90284779089052
 30
0.0
 11
222.5749891370084
 21
297.90284779089052
 31
0.0
  0
LINE
  5
5F35
  8
SUNPO
  6
CONTINUOUS
 10
222.5749891370084
 20
297.90284779089052
 30
0.0
 11
227.57498913700849
 21
292.90284779089052
 31
0.0
  0
LINE
  5
5F36
  8
DANMEN
  6
CONTINUOUS
 10
153.57503913700839
 20
223.4028107908905
 30
0.0
 11
153.3250391370085
 21
223.4028107908905
 31
0.0
  0
ARC
  5
5F37
  8
DANMEN
  6
CONTINUOUS
 10
153.55398113700849
 20
215.80915779089051
 30
0.0
 40
3.0106739999999999
 50
103.6512499999989
 51
153.70614800000061
  0
ARC
  5
5F38
  8
DANMEN
  6
CONTINUOUS
 10
153.55398113700849
 20
215.80915779089051
 30
0.0
 40
2.6706739999999991
 50
98.157227000000091
 51
158.15722699999881
  0
LINE
  5
5F39
  8
DANMEN
  6
CONTINUOUS
 10
153.57503913700839
 20
218.4028107908905
 30
0.0
 11
153.1750391370085
 21
218.4028107908905
 31
0.0
  0
LINE
  5
5F3A
  8
DANMEN
  6
CONTINUOUS
 10
153.1750391370085
 20
218.4028107908905
 30
0.0
 11
153.1750391370085
 21
218.45281079089051
 31
0.0
  0
LINE
  5
5F3B
  8
DANMEN
  6
CONTINUOUS
 10
153.1750391370085
 20
218.45281079089051
 30
0.0
 11
153.3250391370085
 21
223.4028107908905
 31
0.0
  0
LINE
  5
5F3C
  8
DANMEN
  6
CONTINUOUS
 10
152.84342713700849
 20
218.73478079089051
 30
0.0
 11
152.9745801370085
 21
223.0628107908905
 31
0.0
  0
LINE
  5
5F3D
  8
DANMEN
  6
CONTINUOUS
 10
153.57503913700839
 20
223.4028107908905
 30
0.0
 11
153.57503913700839
 21
212.9028107908905
 31
0.0
  0
LINE
  5
5F3E
  8
DANMEN
  6
CONTINUOUS
 10
141.5750391370085
 20
223.4028107908905
 30
0.0
 11
141.8250391370085
 21
223.4028107908905
 31
0.0
  0
ARC
  5
5F3F
  8
DANMEN
  6
CONTINUOUS
 10
141.5960971370084
 20
215.80915779089051
 30
0.0
 40
3.0106739999999999
 50
26.293851999999351
 51
76.348750000001004
  0
ARC
  5
5F40
  8
DANMEN
  6
CONTINUOUS
 10
141.5960971370084
 20
215.80915779089051
 30
0.0
 40
2.6706739999999991
 50
21.842773000001181
 51
81.842772999999895
  0
LINE
  5
5F41
  8
DANMEN
  6
CONTINUOUS
 10
141.5750391370085
 20
218.4028107908905
 30
0.0
 11
141.97503913700839
 21
218.4028107908905
 31
0.0
  0
LINE
  5
5F42
  8
DANMEN
  6
CONTINUOUS
 10
141.97503913700839
 20
218.4028107908905
 30
0.0
 11
141.97503913700839
 21
218.45281079089051
 31
0.0
  0
LINE
  5
5F43
  8
DANMEN
  6
CONTINUOUS
 10
141.97503913700839
 20
218.45281079089051
 30
0.0
 11
141.8250391370085
 21
223.4028107908905
 31
0.0
  0
LINE
  5
5F44
  8
DANMEN
  6
CONTINUOUS
 10
142.3066501370084
 20
218.73478079089051
 30
0.0
 11
142.1754981370085
 21
223.0628107908905
 31
0.0
  0
LINE
  5
5F45
  8
DANMEN
  6
CONTINUOUS
 10
141.5750391370085
 20
223.4028107908905
 30
0.0
 11
141.5750391370085
 21
212.9028107908905
 31
0.0
  0
LINE
  5
5F46
  8
DANMEN
  6
CONTINUOUS
 10
153.3250391370085
 20
223.4028107908905
 30
0.0
 11
141.8250391370085
 21
223.4028107908905
 31
0.0
  0
LINE
  5
5F47
  8
DANMEN
  6
CONTINUOUS
 10
150.8548091370084
 20
217.14281079089051
 30
0.0
 11
144.29526813700849
 21
217.14281079089051
 31
0.0
  0
LINE
  5
5F48
  8
DANMEN
  6
CONTINUOUS
 10
142.1754981370085
 20
223.0628107908905
 30
0.0
 11
152.9745801370085
 21
223.0628107908905
 31
0.0
  0
LINE
  5
5F49
  8
DANMEN
  6
CONTINUOUS
 10
151.0750391370085
 20
216.8028107908905
 30
0.0
 11
144.0750391370085
 21
216.8028107908905
 31
0.0
  0
LINE
  5
5F4A
  8
DANMEN
  6
CONTINUOUS
 10
141.5750391370085
 20
212.9028107908905
 30
0.0
 11
153.57503913700839
 21
212.9028107908905
 31
0.0
  0
LINE
  5
5F4B
  8
DANMEN
  6
CONTINUOUS
 10
133.75976713700851
 20
206.6028627908905
 30
0.0
 11
132.54336413700841
 21
206.6028627908905
 31
0.0
  0
LINE
  5
5F4C
  8
DANMEN
  6
CONTINUOUS
 10
133.91737813700851
 20
205.6028627908905
 30
0.0
 11
132.30917613700851
 21
205.6028627908905
 31
0.0
  0
ARC
  5
5F4D
  8
DANMEN
  6
CONTINUOUS
 10
131.07498913700849
 20
209.40284779089049
 30
0.0
 40
0.5
 50
0.0
 51
90.0
  0
LINE
  5
5F4E
  8
DANMEN
  6
CONTINUOUS
 10
131.57498913700849
 20
209.40284779089049
 30
0.0
 11
131.57498913700849
 21
207.76491279089049
 31
0.0
  0
LINE
  5
5F4F
  8
DANMEN
  6
CONTINUOUS
 10
130.57498913700849
 20
208.90284779089049
 30
0.0
 11
130.57498913700849
 21
207.58388779089049
 31
0.0
  0
ARC
  5
5F50
  8
DANMEN
  6
CONTINUOUS
 10
135.2749891370085
 20
207.15286179089051
 30
0.0
 40
0.3
 50
0.0
 51
90.0
  0
LINE
  5
5F51
  8
DANMEN
  6
CONTINUOUS
 10
134.9740511370085
 20
207.45286179089049
 30
0.0
 11
135.2749891370085
 21
207.45286179089049
 31
0.0
  0
LINE
  5
5F52
  8
DANMEN
  6
CONTINUOUS
 10
135.57498913700849
 20
206.65286279089051
 30
0.0
 11
135.57498913700849
 21
207.15286179089051
 31
0.0
  0
LINE
  5
5F53
  8
DANMEN
  6
CONTINUOUS
 10
131.92506613700851
 20
205.78277079089051
 30
0.0
 11
130.6908781370085
 21
207.2637957908905
 31
0.0
  0
LINE
  5
5F54
  8
DANMEN
  6
CONTINUOUS
 10
132.54336413700841
 20
206.6028627908905
 30
0.0
 11
131.57498913700849
 21
207.76491279089049
 31
0.0
  0
ARC
  5
5F55
  8
DANMEN
  6
CONTINUOUS
 10
131.07498913700849
 20
207.58388779089049
 30
0.0
 40
0.5
 50
180.0
 51
219.80557100000141
  0
ARC
  5
5F56
  8
DANMEN
  6
CONTINUOUS
 10
132.30917613700851
 20
206.1028627908905
 30
0.0
 40
0.5
 50
219.80557100000141
 51
270.0
  0
LINE
  5
5F57
  8
DANMEN
  6
CONTINUOUS
 10
135.57498913700849
 20
206.65286279089051
 30
0.0
 11
134.20410913700849
 21
205.6932467908905
 31
0.0
  0
LINE
  5
5F58
  8
DANMEN
  6
CONTINUOUS
 10
134.9740511370085
 20
207.45286179089049
 30
0.0
 11
133.75976713700851
 21
206.6028627908905
 31
0.0
  0
ARC
  5
5F59
  8
DANMEN
  6
CONTINUOUS
 10
133.91737813700851
 20
206.1028627908905
 30
0.0
 40
0.5
 50
270.0
 51
304.99202000000167
  0
LINE
  5
5F5A
  8
DANMEN
  6
CONTINUOUS
 10
129.57498913700849
 20
209.90284779089049
 30
0.0
 11
131.07498913700849
 21
209.90284779089049
 31
0.0
  0
LINE
  5
5F5B
  8
DANMEN
  6
CONTINUOUS
 10
128.77498613700851
 20
208.90284779089049
 30
0.0
 11
130.57498913700849
 21
208.90284779089049
 31
0.0
  0
LINE
  5
5F5C
  8
DANMEN
  6
CONTINUOUS
 10
129.57498913700849
 20
211.90284779089049
 30
0.0
 11
129.57498913700849
 21
209.90284779089049
 31
0.0
  0
ARC
  5
5F5D
  8
DANMEN
  6
CONTINUOUS
 10
130.5750191370085
 20
212.40284779089049
 30
0.0
 40
0.5
 50
0.0
 51
90.0
  0
ARC
  5
5F5E
  8
DANMEN
  6
CONTINUOUS
 10
130.5750191370085
 20
212.40284779089049
 30
0.0
 40
0.5
 50
270.0
 51
0.0
  0
LINE
  5
5F5F
  8
DANMEN
  6
CONTINUOUS
 10
130.5750191370085
 20
212.90284779089049
 30
0.0
 11
129.57498913700849
 21
212.90284779089049
 31
0.0
  0
LINE
  5
5F60
  8
DANMEN
  6
CONTINUOUS
 10
130.5750191370085
 20
211.90284779089049
 30
0.0
 11
129.57498913700849
 21
211.90284779089049
 31
0.0
  0
ARC
  5
5F61
  8
DANMEN
  6
CONTINUOUS
 10
129.07498913700849
 20
227.40284779089049
 30
0.0
 40
0.5
 50
0.0
 51
90.0
  0
ARC
  5
5F62
  8
DANMEN
  6
CONTINUOUS
 10
128.07498913700849
 20
227.40284779089049
 30
0.0
 40
0.5
 50
90.0
 51
180.0
  0
LINE
  5
5F63
  8
DANMEN
  6
CONTINUOUS
 10
129.07498913700849
 20
227.90284779089049
 30
0.0
 11
128.07498913700849
 21
227.90284779089049
 31
0.0
  0
LINE
  5
5F64
  8
DANMEN
  6
CONTINUOUS
 10
129.57498913700849
 20
227.40284779089049
 30
0.0
 11
129.57498913700849
 21
212.90284779089049
 31
0.0
  0
LINE
  5
5F65
  8
DANMEN
  6
CONTINUOUS
 10
127.5749891370085
 20
227.40284779089049
 30
0.0
 11
127.5749891370085
 21
208.40284779089049
 31
0.0
  0
ARC
  5
5F66
  8
DANMEN
  6
CONTINUOUS
 10
128.27498613700851
 20
208.90284779089049
 30
0.0
 40
0.5
 50
269.99998099999931
 51
0.0
  0
LINE
  5
5F67
  8
DANMEN
  6
CONTINUOUS
 10
128.27498613700851
 20
208.40284779089049
 30
0.0
 11
127.5749891370085
 21
208.40284779089049
 31
0.0
  0
LINE
  5
5F68
  8
DANMEN
  6
CONTINUOUS
 10
153.5750191370085
 20
302.4028327908905
 30
0.0
 11
153.32501913700841
 21
302.4028327908905
 31
0.0
  0
ARC
  5
5F69
  8
DANMEN
  6
CONTINUOUS
 10
153.55396113700851
 20
309.99648579089052
 30
0.0
 40
3.0106739999999999
 50
206.2938519999993
 51
256.34875000000102
  0
ARC
  5
5F6A
  8
DANMEN
  6
CONTINUOUS
 10
153.55396113700851
 20
309.99648579089052
 30
0.0
 40
2.6706739999999991
 50
201.8427729999996
 51
261.84277299999991
  0
LINE
  5
5F6B
  8
DANMEN
  6
CONTINUOUS
 10
153.5750191370085
 20
307.4028327908905
 30
0.0
 11
153.17501913700849
 21
307.4028327908905
 31
0.0
  0
LINE
  5
5F6C
  8
DANMEN
  6
CONTINUOUS
 10
153.17501913700849
 20
307.4028327908905
 30
0.0
 11
153.17501913700849
 21
307.35283279089037
 31
0.0
  0
LINE
  5
5F6D
  8
DANMEN
  6
CONTINUOUS
 10
153.17501913700849
 20
307.35283279089037
 30
0.0
 11
153.32501913700841
 21
302.4028327908905
 31
0.0
  0
LINE
  5
5F6E
  8
DANMEN
  6
CONTINUOUS
 10
152.84340713700851
 20
307.07086279089049
 30
0.0
 11
152.97456013700841
 21
302.74283279089047
 31
0.0
  0
LINE
  5
5F6F
  8
DANMEN
  6
CONTINUOUS
 10
153.5750191370085
 20
302.4028327908905
 30
0.0
 11
153.5750191370085
 21
312.9028327908905
 31
0.0
  0
LINE
  5
5F70
  8
DANMEN
  6
CONTINUOUS
 10
141.57501913700841
 20
302.4028327908905
 30
0.0
 11
141.82501913700841
 21
302.4028327908905
 31
0.0
  0
ARC
  5
5F71
  8
DANMEN
  6
CONTINUOUS
 10
141.59607713700839
 20
309.99648579089052
 30
0.0
 40
3.0106739999999999
 50
283.65124999999892
 51
333.70614800000061
  0
ARC
  5
5F72
  8
DANMEN
  6
CONTINUOUS
 10
141.59607713700839
 20
309.99648579089052
 30
0.0
 40
2.6706739999999991
 50
278.15722700000009
 51
338.15722699999878
  0
LINE
  5
5F73
  8
DANMEN
  6
CONTINUOUS
 10
141.57501913700841
 20
307.4028327908905
 30
0.0
 11
141.97501913700839
 21
307.4028327908905
 31
0.0
  0
LINE
  5
5F74
  8
DANMEN
  6
CONTINUOUS
 10
141.97501913700839
 20
307.4028327908905
 30
0.0
 11
141.97501913700839
 21
307.35283279089037
 31
0.0
  0
LINE
  5
5F75
  8
DANMEN
  6
CONTINUOUS
 10
141.97501913700839
 20
307.35283279089037
 30
0.0
 11
141.82501913700841
 21
302.4028327908905
 31
0.0
  0
LINE
  5
5F76
  8
DANMEN
  6
CONTINUOUS
 10
142.3066301370084
 20
307.07086279089049
 30
0.0
 11
142.1754781370085
 21
302.74283279089047
 31
0.0
  0
LINE
  5
5F77
  8
DANMEN
  6
CONTINUOUS
 10
141.57501913700841
 20
302.4028327908905
 30
0.0
 11
141.57501913700841
 21
312.9028327908905
 31
0.0
  0
LINE
  5
5F78
  8
DANMEN
  6
CONTINUOUS
 10
153.32501913700841
 20
302.4028327908905
 30
0.0
 11
141.82501913700841
 21
302.4028327908905
 31
0.0
  0
LINE
  5
5F79
  8
DANMEN
  6
CONTINUOUS
 10
150.8547891370084
 20
308.66283279089049
 30
0.0
 11
144.29524813700851
 21
308.66283279089049
 31
0.0
  0
LINE
  5
5F7A
  8
DANMEN
  6
CONTINUOUS
 10
142.1754781370085
 20
302.74283279089047
 30
0.0
 11
152.97456013700841
 21
302.74283279089047
 31
0.0
  0
LINE
  5
5F7B
  8
DANMEN
  6
CONTINUOUS
 10
151.07501913700841
 20
309.00283279089052
 30
0.0
 11
144.0750191370085
 21
309.00283279089052
 31
0.0
  0
LINE
  5
5F7C
  8
DANMEN
  6
CONTINUOUS
 10
141.57501913700841
 20
312.9028327908905
 30
0.0
 11
153.5750191370085
 21
312.9028327908905
 31
0.0
  0
LINE
  5
5F7D
  8
SUNPO
  6
CONTINUOUS
 10
420.2793991370084
 20
261.31691379089051
 30
0.0
 11
420.2793991370084
 21
280.31691179089052
 31
0.0
  0
LINE
  5
5F7E
  8
SUNPO
  6
CONTINUOUS
 10
395.2793991370084
 20
262.56691379089051
 30
0.0
 11
395.2793991370084
 21
280.31691179089052
 31
0.0
  0
LINE
  5
5F7F
  8
SUNPO
  6
CONTINUOUS
 10
395.2793991370084
 20
280.31691179089052
 30
0.0
 11
420.2793991370084
 21
280.31691179089052
 31
0.0
  0
LINE
  5
5F80
  8
SUNPO
  6
CONTINUOUS
 10
161.07438313700851
 20
172.90284779089049
 30
0.0
 11
97.63509013700849
 21
172.90284779089049
 31
0.0
  0
LINE
  5
5F81
  8
SUNPO
  6
CONTINUOUS
 10
97.63509013700849
 20
172.90284779089049
 30
0.0
 11
97.63509013700849
 21
182.90290579089049
 31
0.0
  0
LINE
  5
5F82
  8
SUNPO
  6
CONTINUOUS
 10
106.0726481370084
 20
187.90284779089049
 30
0.0
 11
97.57259013700849
 21
187.90284779089049
 31
0.0
  0
LINE
  5
5F83
  8
SUNPO
  6
CONTINUOUS
 10
151.07437913700841
 20
182.90290579089049
 30
0.0
 11
97.57259013700849
 21
182.90290579089049
 31
0.0
  0
LINE
  5
5F84
  8
SUNPO
  6
CONTINUOUS
 10
97.57259013700849
 20
182.90290579089049
 30
0.0
 11
97.57259013700849
 21
187.90284779089049
 31
0.0
  0
LINE
  5
5F85
  8
SUNPO
  6
CONTINUOUS
 10
161.07499313700851
 20
352.90306979089053
 30
0.0
 11
97.573230137008466
 21
352.90306979089053
 31
0.0
  0
LINE
  5
5F86
  8
SUNPO
  6
CONTINUOUS
 10
97.573230137008466
 20
342.90306379089049
 30
0.0
 11
97.573230137008466
 21
352.90306979089053
 31
0.0
  0
LINE
  5
5F87
  8
SUNPO
  6
CONTINUOUS
 10
150.5749961370085
 20
342.90306379089049
 30
0.0
 11
97.573230137008466
 21
342.90306379089049
 31
0.0
  0
LINE
  5
5F88
  8
SUNPO
  6
CONTINUOUS
 10
97.573230137008466
 20
337.90306979089053
 30
0.0
 11
97.573230137008466
 21
342.90306379089049
 31
0.0
  0
LINE
  5
5F89
  8
SUNPO
  6
CONTINUOUS
 10
126.0749891370085
 20
322.9028337908905
 30
0.0
 11
107.57323013700839
 21
322.9028337908905
 31
0.0
  0
LINE
  5
5F8A
  8
SUNPO
  6
CONTINUOUS
 10
107.57323013700839
 20
297.9028337908905
 30
0.0
 11
107.57323013700839
 21
322.9028337908905
 31
0.0
  0
LINE
  5
5F8B
  8
SUNPO
  6
CONTINUOUS
 10
126.5749891370085
 20
334.90284779089052
 30
0.0
 11
107.57323013700839
 21
334.90284779089052
 31
0.0
  0
LINE
  5
5F8C
  8
SUNPO
  6
CONTINUOUS
 10
107.57323013700839
 20
322.9028337908905
 30
0.0
 11
107.57323013700839
 21
334.90284779089052
 31
0.0
  0
LINE
  5
5F8D
  8
SUNPO
  6
CONTINUOUS
 10
107.57323013700839
 20
334.90284779089052
 30
0.0
 11
107.57323013700839
 21
337.90284779089052
 31
0.0
  0
LINE
  5
5F8E
  8
DANMEN
  6
CONTINUOUS
 10
139.78916758546029
 20
203.40284795127079
 30
0.0
 11
140.97501528637019
 21
204.58869565218069
 31
0.0
  0
LINE
  5
5F8F
  8
DANMEN
  6
CONTINUOUS
 10
136.96074046071411
 20
203.40284795127079
 30
0.0
 11
138.96074046071419
 21
205.40284795127079
 31
0.0
  0
LINE
  5
5F90
  8
DANMEN
  6
CONTINUOUS
 10
136.7750011043932
 20
206.04553571969609
 30
0.0
 11
137.97500110439319
 21
207.24553571969611
 31
0.0
  0
LINE
  5
5F91
  8
DANMEN
  6
CONTINUOUS
 10
134.13231333596789
 20
203.40284795127079
 30
0.0
 11
136.13231333596789
 21
205.40284795127079
 31
0.0
  0
LINE
  5
5F92
  8
DANMEN
  6
CONTINUOUS
 10
135.34549713556501
 20
207.44445887561409
 30
0.0
 11
136.30388625890541
 21
208.40284799895451
 31
0.0
  0
LINE
  5
5F93
  8
DANMEN
  6
CONTINUOUS
 10
132.97501528637019
 20
205.0739770264193
 30
0.0
 11
133.30388621122171
 21
205.40284795127079
 31
0.0
  0
LINE
  5
5F94
  8
DANMEN
  6
CONTINUOUS
 10
133.50390147001079
 20
205.60286321005989
 30
0.0
 11
135.30388621122171
 21
207.40284795127079
 31
0.0
  0
LINE
  5
5F95
  8
DANMEN
  6
CONTINUOUS
 10
131.4388459191359
 20
206.36623478393111
 30
0.0
 11
132.14886861694561
 21
207.0762574817409
 31
0.0
  0
LINE
  5
5F96
  8
DANMEN
  6
CONTINUOUS
 10
130.57500415615101
 20
208.33082014569251
 30
0.0
 11
130.59703196172941
 21
208.35284795127089
 31
0.0
  0
LINE
  5
5F97
  8
SUNPO
  6
CONTINUOUS
 10
260.77978313700839
 20
261.31691379089051
 30
0.0
 11
260.77978313700839
 21
280.31691179089052
 31
0.0
  0
LINE
  5
5F98
  8
SUNPO
  6
CONTINUOUS
 10
255.77978413700851
 20
226.3169307908905
 30
0.0
 11
255.77978413700851
 21
280.31691179089052
 31
0.0
  0
LINE
  5
5F99
  8
SUNPO
  6
CONTINUOUS
 10
255.77978413700851
 20
280.31691179089052
 30
0.0
 11
260.77978313700839
 21
280.31691179089052
 31
0.0
  0
LINE
  5
5F9A
  8
SUNPO
  6
CONTINUOUS
 10
425.2793961370084
 20
226.3169307908905
 30
0.0
 11
425.2793961370084
 21
280.31691179089052
 31
0.0
  0
LINE
  5
5F9B
  8
SUNPO
  6
CONTINUOUS
 10
420.2793971370084
 20
261.31691379089051
 30
0.0
 11
420.2793971370084
 21
280.31691179089052
 31
0.0
  0
LINE
  5
5F9C
  8
SUNPO
  6
CONTINUOUS
 10
420.2793971370084
 20
280.31691179089052
 30
0.0
 11
425.2793961370084
 21
280.31691179089052
 31
0.0
  0
LINE
  5
5F9D
  8
DANMEN
  6
PHANTOM
 10
137.97500113700841
 20
208.40284779089049
 30
0.0
 11
135.27502213700839
 21
208.40284779089049
 31
0.0
  0
LINE
  5
5F9E
  8
DANMEN
  6
PHANTOM
 10
159.57503913700839
 20
205.4029917908905
 30
0.0
 11
137.97500113700841
 21
205.4029917908905
 31
0.0
  0
LINE
  5
5F9F
  8
DANMEN
  6
PHANTOM
 10
137.97500113700841
 20
208.40284779089049
 30
0.0
 11
137.97500113700841
 21
205.40284779089049
 31
0.0
  0
LINE
  5
5FA0
  8
DANMEN
  6
PHANTOM
 10
135.27502213700839
 20
212.90284779089049
 30
0.0
 11
135.27502213700839
 21
208.40284779089049
 31
0.0
  0
LINE
  5
5FA1
  8
DANMEN
  6
PHANTOM
 10
159.57503913700839
 20
212.90284779089049
 30
0.0
 11
159.57503913700839
 21
205.4029917908905
 31
0.0
  0
LINE
  5
5FA2
  8
DANMEN
  6
PHANTOM
 10
159.57503913700839
 20
212.90284779089049
 30
0.0
 11
135.27502213700839
 21
212.90284779089049
 31
0.0
  0
LINE
  5
5FA3
  8
DANMEN
  6
PHANTOM
 10
159.57503913700839
 20
212.90284779089049
 30
0.0
 11
137.97500113700841
 21
205.40284779089049
 31
0.0
  0
LINE
  5
5FA4
  8
DANMEN
  6
CONTINUOUS
 10
129.57498913700849
 20
298.4028337908905
 30
0.0
 11
129.57498913700849
 21
312.9028337908905
 31
0.0
  0
LINE
  5
5FA5
  8
DANMEN
  6
CONTINUOUS
 10
130.57498913700849
 20
312.9028337908905
 30
0.0
 11
129.57498913700849
 21
312.9028337908905
 31
0.0
  0
ARC
  5
5FA6
  8
DANMEN
  6
CONTINUOUS
 10
129.07498913700849
 20
298.4028337908905
 30
0.0
 40
0.5
 50
270.0
 51
0.0
  0
LINE
  5
5FA7
  8
DANMEN
  6
CONTINUOUS
 10
128.07498913700849
 20
297.9028337908905
 30
0.0
 11
129.07498913700849
 21
297.9028337908905
 31
0.0
  0
LINE
  5
5FA8
  8
DANMEN
  6
CONTINUOUS
 10
130.57498913700849
 20
313.9028337908905
 30
0.0
 11
129.22498913700849
 21
313.9028337908905
 31
0.0
  0
ARC
  5
5FA9
  8
DANMEN
  6
CONTINUOUS
 10
130.57498913700849
 20
313.4028337908905
 30
0.0
 40
0.5
 50
0.0
 51
90.0
  0
ARC
  5
5FAA
  8
DANMEN
  6
CONTINUOUS
 10
130.57498913700849
 20
313.4028337908905
 30
0.0
 40
0.5
 50
270.0
 51
0.0
  0
ARC
  5
5FAB
  8
DANMEN
  6
CONTINUOUS
 10
164.57498913700849
 20
313.4028337908905
 30
0.0
 40
0.5
 50
180.0
 51
270.0
  0
ARC
  5
5FAC
  8
DANMEN
  6
CONTINUOUS
 10
164.57498913700849
 20
313.4028337908905
 30
0.0
 40
0.5
 50
90.0
 51
180.0
  0
LINE
  5
5FAD
  8
DANMEN
  6
CONTINUOUS
 10
164.57498913700849
 20
312.9028337908905
 30
0.0
 11
165.57498913700849
 21
312.9028337908905
 31
0.0
  0
LINE
  5
5FAE
  8
DANMEN
  6
CONTINUOUS
 10
164.57498913700849
 20
313.9028337908905
 30
0.0
 11
165.57498913700849
 21
313.9028337908905
 31
0.0
  0
LINE
  5
5FAF
  8
DANMEN
  6
CONTINUOUS
 10
165.57498913700849
 20
298.4028337908905
 30
0.0
 11
165.57498913700849
 21
312.9028337908905
 31
0.0
  0
LINE
  5
5FB0
  8
DANMEN
  6
CONTINUOUS
 10
167.22498913700841
 20
299.55283379089047
 30
0.0
 11
167.22498913700841
 21
335.25284779089048
 31
0.0
  0
LINE
  5
5FB1
  8
DANMEN
  6
CONTINUOUS
 10
165.57498913700849
 20
313.9028337908905
 30
0.0
 11
165.57498913700849
 21
335.25284779089048
 31
0.0
  0
LINE
  5
5FB2
  8
DANMEN
  6
CONTINUOUS
 10
145.60529513700851
 20
323.10283379089049
 30
0.0
 11
140.09244513700841
 21
323.10283379089049
 31
0.0
  0
LINE
  5
5FB3
  8
DANMEN
  6
CONTINUOUS
 10
145.5210501370085
 20
324.60283379089037
 30
0.0
 11
144.2749891370085
 21
324.60283379089037
 31
0.0
  0
LINE
  5
5FB4
  8
DANMEN
  6
CONTINUOUS
 10
145.60529513700851
 20
329.70283379089051
 30
0.0
 11
143.6249891370085
 21
329.70283379089051
 31
0.0
  0
LINE
  5
5FB5
  8
DANMEN
  6
CONTINUOUS
 10
145.5210501370085
 20
328.20283379089051
 30
0.0
 11
144.2749891370085
 21
328.20283379089051
 31
0.0
  0
LINE
  5
5FB6
  8
DANMEN
  6
CONTINUOUS
 10
147.07498913700849
 20
327.50283379089052
 30
0.0
 11
146.61192113700841
 21
327.50283379089052
 31
0.0
  0
ARC
  5
5FB7
  8
DANMEN
  6
CONTINUOUS
 10
145.5210501370085
 20
327.20283379089051
 30
0.0
 40
1.0
 50
24.624318000000081
 51
90.0
  0
ARC
  5
5FB8
  8
DANMEN
  6
CONTINUOUS
 10
146.61192113700841
 20
327.70283379089051
 30
0.0
 40
0.2
 50
204.6243180000001
 51
270.0
  0
ARC
  5
5FB9
  8
DANMEN
  6
CONTINUOUS
 10
147.07498913700849
 20
328.00283379089052
 30
0.0
 40
0.5
 50
270.0
 51
11.536958999999859
  0
ARC
  5
5FBA
  8
DANMEN
  6
CONTINUOUS
 10
145.60529513700851
 20
327.70283379089051
 30
0.0
 40
2.0
 50
11.536958999999859
 51
90.0
  0
ARC
  5
5FBB
  8
DANMEN
  6
CONTINUOUS
 10
145.60529513700851
 20
325.10283379089049
 30
0.0
 40
2.0
 50
270.0
 51
348.46304100000009
  0
ARC
  5
5FBC
  8
DANMEN
  6
CONTINUOUS
 10
147.07498913700849
 20
324.80283379089047
 30
0.0
 40
0.5
 50
348.46304100000009
 51
90.0
  0
ARC
  5
5FBD
  8
DANMEN
  6
CONTINUOUS
 10
146.61192113700841
 20
325.10283379089049
 30
0.0
 40
0.2
 50
90.0
 51
155.37568199999981
  0
ARC
  5
5FBE
  8
DANMEN
  6
CONTINUOUS
 10
145.5210501370085
 20
325.60283379089049
 30
0.0
 40
1.0
 50
270.0
 51
335.37568199999993
  0
LINE
  5
5FBF
  8
DANMEN
  6
CONTINUOUS
 10
147.07498913700849
 20
325.30283379089047
 30
0.0
 11
146.61192113700841
 21
325.30283379089047
 31
0.0
  0
ARC
  5
5FC0
  8
DANMEN
  6
CONTINUOUS
 10
144.2749891370085
 20
325.60283379089049
 30
0.0
 40
1.0
 50
180.0
 51
270.0
  0
LINE
  5
5FC1
  8
DANMEN
  6
CONTINUOUS
 10
143.2749891370085
 20
327.20283379089051
 30
0.0
 11
143.2749891370085
 21
325.60283379089049
 31
0.0
  0
ARC
  5
5FC2
  8
DANMEN
  6
CONTINUOUS
 10
144.2749891370085
 20
327.20283379089051
 30
0.0
 40
1.0
 50
90.0
 51
180.0
  0
ARC
  5
5FC3
  8
DANMEN
  6
CONTINUOUS
 10
128.07498913700849
 20
322.47192179089052
 30
0.0
 40
0.5
 50
98.488944000001325
 51
180.0
  0
LINE
  5
5FC4
  8
DANMEN
  6
CONTINUOUS
 10
128.0011801370085
 20
322.96644479089048
 30
0.0
 11
140.97498913700841
 21
324.9028337908905
 31
0.0
  0
ARC
  5
5FC5
  8
DANMEN
  6
CONTINUOUS
 10
128.07498913700849
 20
335.40284779089052
 30
0.0
 40
0.5
 50
180.0
 51
270.0
  0
ARC
  5
5FC6
  8
DANMEN
  6
CONTINUOUS
 10
128.07498913700849
 20
337.40284779089052
 30
0.0
 40
0.5
 50
90.0
 51
180.0
  0
LINE
  5
5FC7
  8
DANMEN
  6
CONTINUOUS
 10
127.5749891370085
 20
335.40284779089052
 30
0.0
 11
127.5749891370085
 21
337.40284779089052
 31
0.0
  0
ARC
  5
5FC8
  8
DANMEN
  6
CONTINUOUS
 10
197.0749831370085
 20
298.4028337908905
 30
0.0
 40
0.5
 50
270.0
 51
0.0
  0
LINE
  5
5FC9
  8
DANMEN
  6
CONTINUOUS
 10
140.97498913700841
 20
334.90284779089052
 30
0.0
 11
140.97498913700841
 21
324.9028337908905
 31
0.0
  0
LINE
  5
5FCA
  8
DANMEN
  6
CONTINUOUS
 10
142.6249891370085
 20
330.70283379089051
 30
0.0
 11
142.6249891370085
 21
335.25284779089048
 31
0.0
  0
LINE
  5
5FCB
  8
DANMEN
  6
CONTINUOUS
 10
152.07499813700841
 20
337.90284779089052
 30
0.0
 11
128.07498913700849
 21
337.90284779089052
 31
0.0
  0
LINE
  5
5FCC
  8
DANMEN
  6
CONTINUOUS
 10
189.8749831370084
 20
335.25284779089048
 30
0.0
 11
195.9249831370085
 21
335.25284779089048
 31
0.0
  0
LINE
  5
5FCD
  8
DANMEN
  6
CONTINUOUS
 10
186.3749831370084
 20
334.70284779089047
 30
0.0
 11
184.77498313700849
 21
334.70284779089047
 31
0.0
  0
LINE
  5
5FCE
  8
DANMEN
  6
CONTINUOUS
 10
187.3749831370084
 20
332.45678679089048
 30
0.0
 11
187.3749831370084
 21
333.70284779089047
 31
0.0
  0
LINE
  5
5FCF
  8
DANMEN
  6
CONTINUOUS
 10
188.8749831370084
 20
332.37254179089052
 30
0.0
 11
188.8749831370084
 21
334.25284779089048
 31
0.0
  0
ARC
  5
5FD0
  8
DANMEN
  6
CONTINUOUS
 10
184.77498313700849
 20
333.70284779089047
 30
0.0
 40
1.0
 50
90.0
 51
180.0
  0
ARC
  5
5FD1
  8
DANMEN
  6
CONTINUOUS
 10
186.3749831370084
 20
333.70284779089047
 30
0.0
 40
1.0
 50
0.0
 51
90.0
  0
LINE
  5
5FD2
  8
DANMEN
  6
CONTINUOUS
 10
186.6749831370085
 20
330.90284779089052
 30
0.0
 11
186.6749831370085
 21
331.36591579089048
 31
0.0
  0
ARC
  5
5FD3
  8
DANMEN
  6
CONTINUOUS
 10
186.3749831370084
 20
332.45678679089048
 30
0.0
 40
1.0
 50
294.62431799999968
 51
0.0
  0
ARC
  5
5FD4
  8
DANMEN
  6
CONTINUOUS
 10
186.8749831370084
 20
331.36591579089048
 30
0.0
 40
0.2
 50
114.6243179999997
 51
180.0
  0
ARC
  5
5FD5
  8
DANMEN
  6
CONTINUOUS
 10
187.1749831370085
 20
330.90284779089052
 30
0.0
 40
0.5
 50
180.0
 51
281.53695899999963
  0
ARC
  5
5FD6
  8
DANMEN
  6
CONTINUOUS
 10
186.8749831370084
 20
332.37254179089052
 30
0.0
 40
2.0
 50
281.53695899999963
 51
0.0
  0
LINE
  5
5FD7
  8
DANMEN
  6
CONTINUOUS
 10
183.77498313700849
 20
332.45678679089048
 30
0.0
 11
183.77498313700849
 21
333.70284779089047
 31
0.0
  0
LINE
  5
5FD8
  8
DANMEN
  6
CONTINUOUS
 10
182.27498313700849
 20
332.37254179089052
 30
0.0
 11
182.27498313700849
 21
334.25284779089048
 31
0.0
  0
ARC
  5
5FD9
  8
DANMEN
  6
CONTINUOUS
 10
184.27498313700849
 20
332.37254179089052
 30
0.0
 40
2.0
 50
180.0
 51
258.46304100000032
  0
ARC
  5
5FDA
  8
DANMEN
  6
CONTINUOUS
 10
183.97498313700851
 20
330.90284779089052
 30
0.0
 40
0.5
 50
258.46304100000032
 51
0.0
  0
ARC
  5
5FDB
  8
DANMEN
  6
CONTINUOUS
 10
184.27498313700849
 20
331.36591579089048
 30
0.0
 40
0.2
 50
0.0
 51
65.375682000000253
  0
ARC
  5
5FDC
  8
DANMEN
  6
CONTINUOUS
 10
184.77498313700849
 20
332.45678679089048
 30
0.0
 40
1.0
 50
180.0
 51
245.37568200000021
  0
LINE
  5
5FDD
  8
DANMEN
  6
CONTINUOUS
 10
184.47498313700851
 20
330.90284779089052
 30
0.0
 11
184.47498313700851
 21
331.36591579089048
 31
0.0
  0
LINE
  5
5FDE
  8
DANMEN
  6
CONTINUOUS
 10
127.5749891370085
 20
298.4028337908905
 30
0.0
 11
127.5749891370085
 21
322.47192179089052
 31
0.0
  0
LINE
  5
5FDF
  8
DANMEN
  6
CONTINUOUS
 10
129.22498913700849
 20
313.9028337908905
 30
0.0
 11
129.22498913700849
 21
321.48082579089049
 31
0.0
  0
LINE
  5
5FE0
  8
DANMEN
  6
CONTINUOUS
 10
140.9749981370085
 20
334.90284779089052
 30
0.0
 11
128.07498913700849
 21
334.90284779089052
 31
0.0
  0
LINE
  5
5FE1
  8
DANMEN
  6
CONTINUOUS
 10
166.07498913700849
 20
297.9028337908905
 30
0.0
 11
197.0749831370085
 21
297.9028337908905
 31
0.0
  0
LINE
  5
5FE2
  8
DANMEN
  6
CONTINUOUS
 10
195.9249831370085
 20
299.55283379089047
 30
0.0
 11
189.8749831370084
 21
299.55283379089047
 31
0.0
  0
LINE
  5
5FE3
  8
DANMEN
  6
CONTINUOUS
 10
186.3749831370084
 20
300.10283379089049
 30
0.0
 11
184.77498313700849
 21
300.10283379089049
 31
0.0
  0
LINE
  5
5FE4
  8
DANMEN
  6
CONTINUOUS
 10
187.3749831370084
 20
302.34889479089048
 30
0.0
 11
187.3749831370084
 21
301.10283379089037
 31
0.0
  0
LINE
  5
5FE5
  8
DANMEN
  6
CONTINUOUS
 10
188.8749831370084
 20
302.43313979089049
 30
0.0
 11
188.8749831370084
 21
300.55283379089047
 31
0.0
  0
ARC
  5
5FE6
  8
DANMEN
  6
CONTINUOUS
 10
184.77498313700849
 20
301.10283379089037
 30
0.0
 40
1.0
 50
180.0
 51
270.0
  0
ARC
  5
5FE7
  8
DANMEN
  6
CONTINUOUS
 10
186.3749831370084
 20
301.10283379089037
 30
0.0
 40
1.0
 50
270.0
 51
0.0
  0
LINE
  5
5FE8
  8
DANMEN
  6
CONTINUOUS
 10
186.6749831370085
 20
303.9028337908905
 30
0.0
 11
186.6749831370085
 21
303.43976579089048
 31
0.0
  0
ARC
  5
5FE9
  8
DANMEN
  6
CONTINUOUS
 10
186.3749831370084
 20
302.34889479089048
 30
0.0
 40
1.0
 50
0.0
 51
65.375682000000253
  0
ARC
  5
5FEA
  8
DANMEN
  6
CONTINUOUS
 10
186.8749831370084
 20
303.43976579089048
 30
0.0
 40
0.2
 50
180.0
 51
245.37568200000021
  0
ARC
  5
5FEB
  8
DANMEN
  6
CONTINUOUS
 10
187.1749831370085
 20
303.9028337908905
 30
0.0
 40
0.5
 50
78.463041000000317
 51
180.0
  0
ARC
  5
5FEC
  8
DANMEN
  6
CONTINUOUS
 10
186.8749831370084
 20
302.43313979089049
 30
0.0
 40
2.0
 50
0.0
 51
78.463041000000317
  0
LINE
  5
5FED
  8
DANMEN
  6
CONTINUOUS
 10
183.77498313700849
 20
302.34889479089048
 30
0.0
 11
183.77498313700849
 21
301.10283379089037
 31
0.0
  0
LINE
  5
5FEE
  8
DANMEN
  6
CONTINUOUS
 10
182.27498313700849
 20
302.43313979089049
 30
0.0
 11
182.27498313700849
 21
300.55283379089047
 31
0.0
  0
ARC
  5
5FEF
  8
DANMEN
  6
CONTINUOUS
 10
184.27498313700849
 20
302.43313979089049
 30
0.0
 40
2.0
 50
101.5369589999996
 51
180.0
  0
ARC
  5
5FF0
  8
DANMEN
  6
CONTINUOUS
 10
183.97498313700851
 20
303.9028337908905
 30
0.0
 40
0.5
 50
0.0
 51
101.5369589999996
  0
ARC
  5
5FF1
  8
DANMEN
  6
CONTINUOUS
 10
184.27498313700849
 20
303.43976579089048
 30
0.0
 40
0.2
 50
294.62431799999968
 51
0.0
  0
ARC
  5
5FF2
  8
DANMEN
  6
CONTINUOUS
 10
184.77498313700849
 20
302.34889479089048
 30
0.0
 40
1.0
 50
114.6243179999997
 51
180.0
  0
LINE
  5
5FF3
  8
DANMEN
  6
CONTINUOUS
 10
184.47498313700851
 20
303.9028337908905
 30
0.0
 11
184.47498313700851
 21
303.43976579089048
 31
0.0
  0
LINE
  5
5FF4
  8
DANMEN
  6
CONTINUOUS
 10
181.27498313700849
 20
299.55283379089047
 30
0.0
 11
167.22498913700841
 21
299.55283379089047
 31
0.0
  0
LINE
  5
5FF5
  8
DANMEN
  6
CONTINUOUS
 10
195.92498913700851
 20
299.55283379089047
 30
0.0
 11
195.92498913700851
 21
335.25284779089048
 31
0.0
  0
LINE
  5
5FF6
  8
DANMEN
  6
CONTINUOUS
 10
195.92498913700851
 20
336.90284779089052
 30
0.0
 11
153.7249981370085
 21
336.90284779089052
 31
0.0
  0
LINE
  5
5FF7
  8
DANMEN
  6
CONTINUOUS
 10
142.62499213700849
 20
335.25284779089048
 30
0.0
 11
165.57498913700849
 21
335.25284779089048
 31
0.0
  0
ARC
  5
5FF8
  8
DANMEN
  6
CONTINUOUS
 10
128.07498913700849
 20
298.4028337908905
 30
0.0
 40
0.5
 50
180.0
 51
270.0
  0
LINE
  5
5FF9
  8
DANMEN
  6
CONTINUOUS
 10
167.22498913700841
 20
335.25284779089048
 30
0.0
 11
181.27498313700849
 21
335.25284779089048
 31
0.0
  0
ARC
  5
5FFA
  8
DANMEN
  6
CONTINUOUS
 10
166.07498913700849
 20
298.4028337908905
 30
0.0
 40
0.5
 50
180.0
 51
270.0
  0
LINE
  5
5FFB
  8
DANMEN
  6
CONTINUOUS
 10
129.22498913700849
 20
321.48082579089049
 30
0.0
 11
140.09244513700841
 21
323.10283379089049
 31
0.0
  0
ARC
  5
5FFC
  8
DANMEN
  6
CONTINUOUS
 10
189.8749831370084
 20
300.55283379089047
 30
0.0
 40
1.0
 50
180.0
 51
270.0
  0
ARC
  5
5FFD
  8
DANMEN
  6
CONTINUOUS
 10
181.27498313700849
 20
300.55283379089047
 30
0.0
 40
1.0
 50
270.0
 51
0.0
  0
ARC
  5
5FFE
  8
DANMEN
  6
CONTINUOUS
 10
189.8749831370084
 20
334.25284779089048
 30
0.0
 40
1.0
 50
90.0
 51
180.0
  0
ARC
  5
5FFF
  8
DANMEN
  6
CONTINUOUS
 10
181.27498313700849
 20
334.25284779089048
 30
0.0
 40
1.0
 50
0.0
 51
90.0
  0
ARC
  5
6000
  8
DANMEN
  6
CONTINUOUS
 10
143.6249891370085
 20
330.70283379089051
 30
0.0
 40
1.0
 50
180.0
 51
270.0
  0
LINE
  5
6001
  8
DANMEN
  6
CONTINUOUS
 10
197.57498913700849
 20
347.40284779089052
 30
0.0
 11
197.57498913700849
 21
298.4028337908905
 31
0.0
  0
LINE
  5
6002
  8
DANMEN
  6
CONTINUOUS
 10
195.92498913700851
 20
336.90284779089052
 30
0.0
 11
195.92498913700851
 21
343.25284779089048
 31
0.0
  0
ARC
  5
6003
  8
DANMEN
  6
CONTINUOUS
 10
192.07498913700849
 20
343.75284779089048
 30
0.0
 40
0.5
 50
180.0
 51
270.0
  0
LINE
  5
6004
  8
DANMEN
  6
CONTINUOUS
 10
192.07498913700849
 20
343.25284779089048
 30
0.0
 11
195.92498913700851
 21
343.25284779089048
 31
0.0
  0
LINE
  5
6005
  8
DANMEN
  6
CONTINUOUS
 10
153.72498913700841
 20
341.25284779089048
 30
0.0
 11
163.72498913700849
 21
341.25284779089048
 31
0.0
  0
ARC
  5
6006
  8
DANMEN
  6
CONTINUOUS
 10
163.07498913700849
 20
352.40284779089052
 30
0.0
 40
0.5
 50
90.0
 51
180.0
  0
ARC
  5
6007
  8
DANMEN
  6
CONTINUOUS
 10
163.72498913700849
 20
352.40284779089052
 30
0.0
 40
0.5
 50
0.0
 51
90.0
  0
LINE
  5
6008
  8
DANMEN
  6
CONTINUOUS
 10
163.72498913700849
 20
352.90284779089052
 30
0.0
 11
163.07498913700849
 21
352.90284779089052
 31
0.0
  0
LINE
  5
6009
  8
DANMEN
  6
CONTINUOUS
 10
152.07498913700849
 20
342.40284779089052
 30
0.0
 11
152.07498913700849
 21
337.90284779089052
 31
0.0
  0
LINE
  5
600A
  8
DANMEN
  6
CONTINUOUS
 10
162.57498913700849
 20
342.90284779089052
 30
0.0
 11
152.57498913700849
 21
342.90284779089052
 31
0.0
  0
ARC
  5
600B
  8
DANMEN
  6
CONTINUOUS
 10
152.57498913700849
 20
342.40284779089052
 30
0.0
 40
0.5
 50
90.0
 51
180.0
  0
ARC
  5
600C
  8
DANMEN
  6
CONTINUOUS
 10
192.07498913700849
 20
344.40284779089052
 30
0.0
 40
0.5
 50
89.999998999998596
 51
179.99998099999931
  0
LINE
  5
600D
  8
DANMEN
  6
CONTINUOUS
 10
191.57498913700849
 20
343.75284779089048
 30
0.0
 11
191.57498913700849
 21
344.40284779089052
 31
0.0
  0
LINE
  5
600E
  8
DANMEN
  6
CONTINUOUS
 10
162.57498913700849
 20
342.90284779089052
 30
0.0
 11
162.57498913700849
 21
352.40284779089052
 31
0.0
  0
LINE
  5
600F
  8
DANMEN
  6
CONTINUOUS
 10
164.22498913700841
 20
341.75284779089048
 30
0.0
 11
164.22498913700841
 21
343.25284779089048
 31
0.0
  0
LINE
  5
6010
  8
DANMEN
  6
CONTINUOUS
 10
192.07498913700849
 20
344.90284779089052
 30
0.0
 11
196.3749891370085
 21
344.90284779089052
 31
0.0
  0
LINE
  5
6011
  8
DANMEN
  6
CONTINUOUS
 10
164.22498913700841
 20
343.25284779089048
 30
0.0
 11
168.07498913700849
 21
343.25284779089048
 31
0.0
  0
LINE
  5
6012
  8
DANMEN
  6
CONTINUOUS
 10
164.22498913700841
 20
344.90284779089052
 30
0.0
 11
168.07498913700849
 21
344.90284779089052
 31
0.0
  0
ARC
  5
6013
  8
DANMEN
  6
CONTINUOUS
 10
168.07498913700849
 20
344.40284779089052
 30
0.0
 40
0.5
 50
0.0
 51
89.999982000000799
  0
LINE
  5
6014
  8
DANMEN
  6
CONTINUOUS
 10
168.57498913700849
 20
343.75284779089048
 30
0.0
 11
168.57498913700849
 21
344.40284779089052
 31
0.0
  0
ARC
  5
6015
  8
DANMEN
  6
CONTINUOUS
 10
168.07498913700849
 20
343.75284779089048
 30
0.0
 40
0.5
 50
270.0
 51
0.0
  0
ARC
  5
6016
  8
DANMEN
  6
CONTINUOUS
 10
163.72498913700849
 20
341.75284779089048
 30
0.0
 40
0.5
 50
270.0
 51
0.0
  0
LINE
  5
6017
  8
DANMEN
  6
CONTINUOUS
 10
164.22498913700841
 20
344.90284779089052
 30
0.0
 11
164.22498913700841
 21
352.40284779089052
 31
0.0
  0
LINE
  5
6018
  8
DANMEN
  6
CONTINUOUS
 10
153.72498913700841
 20
341.25284779089048
 30
0.0
 11
153.72498913700841
 21
336.90284779089052
 31
0.0
  0
LINE
  5
6019
  8
DANMEN
  6
CONTINUOUS
 10
196.8749891370085
 20
347.90284779089052
 30
0.0
 11
197.07498913700849
 21
347.90284779089052
 31
0.0
  0
ARC
  5
601A
  8
DANMEN
  6
CONTINUOUS
 10
197.07498913700849
 20
347.40284779089052
 30
0.0
 40
0.5
 50
0.0
 51
90.0
  0
LINE
  5
601B
  8
DANMEN
  6
CONTINUOUS
 10
196.3749891370085
 20
347.40284779089052
 30
0.0
 11
196.3749891370085
 21
344.90284779089052
 31
0.0
  0
ARC
  5
601C
  8
DANMEN
  6
CONTINUOUS
 10
196.8749891370085
 20
347.40284779089052
 30
0.0
 40
0.5
 50
90.0
 51
180.0
  0
ARC
  5
601D
  8
DANMEN
  6
CONTINUOUS
 10
128.0749891370084
 20
203.40280779089051
 30
0.0
 40
0.5
 50
180.0
 51
270.0
  0
ARC
  5
601E
  8
DANMEN
  6
CONTINUOUS
 10
196.87498913700841
 20
178.40284879089049
 30
0.0
 40
0.5
 50
180.0
 51
270.0
  0
LINE
  5
601F
  8
DANMEN
  6
CONTINUOUS
 10
196.37498913700841
 20
180.90284879089049
 30
0.0
 11
196.37498913700841
 21
178.40284879089049
 31
0.0
  0
ARC
  5
6020
  8
DANMEN
  6
CONTINUOUS
 10
197.0749891370084
 20
178.40284879089049
 30
0.0
 40
0.5
 50
270.0
 51
0.0
  0
LINE
  5
6021
  8
DANMEN
  6
CONTINUOUS
 10
196.87498913700841
 20
177.90284879089049
 30
0.0
 11
197.0749891370084
 21
177.90284879089049
 31
0.0
  0
ARC
  5
6022
  8
DANMEN
  6
CONTINUOUS
 10
168.07501513700839
 20
182.0528017908905
 30
0.0
 40
0.5
 50
0.0
 51
90.0
  0
LINE
  5
6023
  8
DANMEN
  6
CONTINUOUS
 10
164.2250151370084
 20
182.5528017908905
 30
0.0
 11
168.07501513700839
 21
182.5528017908905
 31
0.0
  0
LINE
  5
6024
  8
DANMEN
  6
CONTINUOUS
 10
162.57501513700839
 20
182.90282479089049
 30
0.0
 11
162.57501513700839
 21
173.40280779089051
 31
0.0
  0
LINE
  5
6025
  8
DANMEN
  6
CONTINUOUS
 10
164.2250151370084
 20
184.0528017908905
 30
0.0
 11
164.2250151370084
 21
182.5528017908905
 31
0.0
  0
ARC
  5
6026
  8
DANMEN
  6
CONTINUOUS
 10
168.07501513700839
 20
181.40280779089051
 30
0.0
 40
0.5
 50
270.00001799999922
 51
0.0
  0
LINE
  5
6027
  8
DANMEN
  6
CONTINUOUS
 10
168.57501513700839
 20
182.0528017908905
 30
0.0
 11
168.57501513700839
 21
181.40280779089051
 31
0.0
  0
LINE
  5
6028
  8
DANMEN
  6
CONTINUOUS
 10
164.2250151370084
 20
180.90280779089051
 30
0.0
 11
168.07501513700839
 21
180.90280779089051
 31
0.0
  0
LINE
  5
6029
  8
DANMEN
  6
CONTINUOUS
 10
163.07501513700839
 20
172.90280779089051
 30
0.0
 11
163.7250151370084
 21
172.90280779089051
 31
0.0
  0
ARC
  5
602A
  8
DANMEN
  6
CONTINUOUS
 10
163.07501513700839
 20
173.40280779089051
 30
0.0
 40
0.5
 50
180.0
 51
270.0
  0
ARC
  5
602B
  8
DANMEN
  6
CONTINUOUS
 10
163.7250151370084
 20
173.40280779089051
 30
0.0
 40
0.5
 50
270.0
 51
0.0
  0
LINE
  5
602C
  8
DANMEN
  6
CONTINUOUS
 10
197.5749891370084
 20
232.40284879089049
 30
0.0
 11
197.5749891370084
 21
178.40284879089049
 31
0.0
  0
LINE
  5
602D
  8
DANMEN
  6
CONTINUOUS
 10
195.92499513700841
 20
190.90284179089051
 30
0.0
 11
195.92499513700841
 21
182.55284179089051
 31
0.0
  0
LINE
  5
602E
  8
DANMEN
  6
CONTINUOUS
 10
192.0749891370084
 20
180.90284879089049
 30
0.0
 11
196.37498913700841
 21
180.90284879089049
 31
0.0
  0
LINE
  5
602F
  8
DANMEN
  6
CONTINUOUS
 10
191.5749891370084
 20
182.05284179089051
 30
0.0
 11
191.5749891370084
 21
181.40284879089049
 31
0.0
  0
LINE
  5
6030
  8
DANMEN
  6
CONTINUOUS
 10
192.0749891370084
 20
182.55284179089051
 30
0.0
 11
195.92499513700841
 21
182.55284179089051
 31
0.0
  0
ARC
  5
6031
  8
DANMEN
  6
CONTINUOUS
 10
192.0749891370084
 20
181.40284879089049
 30
0.0
 40
0.5
 50
180.0000189999989
 51
270.00000100000142
  0
ARC
  5
6032
  8
DANMEN
  6
CONTINUOUS
 10
192.0749891370084
 20
182.05284179089051
 30
0.0
 40
0.5
 50
89.999982000000799
 51
180.0000189999989
  0
LINE
  5
6033
  8
DANMEN
  6
CONTINUOUS
 10
161.91556213700841
 20
184.5528017908905
 30
0.0
 11
163.7250151370084
 21
184.5528017908905
 31
0.0
  0
LINE
  5
6034
  8
DANMEN
  6
CONTINUOUS
 10
164.2250151370084
 20
180.90280779089051
 30
0.0
 11
164.2250151370084
 21
173.40280779089051
 31
0.0
  0
ARC
  5
6035
  8
DANMEN
  6
CONTINUOUS
 10
163.7250151370084
 20
184.0528017908905
 30
0.0
 40
0.5
 50
0.0
 51
90.0
  0
ARC
  5
6036
  8
DANMEN
  6
CONTINUOUS
 10
183.77498913700839
 20
220.9230517908905
 30
0.0
 40
0.5
 50
78.463041000000317
 51
180.0
  0
LINE
  5
6037
  8
DANMEN
  6
CONTINUOUS
 10
183.27498913700839
 20
209.30284879089049
 30
0.0
 11
169.9549891370084
 21
203.75284879089051
 31
0.0
  0
LINE
  5
6038
  8
DANMEN
  6
CONTINUOUS
 10
181.62498913700841
 20
210.40284879089049
 30
0.0
 11
169.62498913700841
 21
205.40284879089049
 31
0.0
  0
ARC
  5
6039
  8
DANMEN
  6
CONTINUOUS
 10
189.87498913700841
 20
225.86149979089049
 30
0.0
 40
1.0
 50
119.64493700000151
 51
180.0
  0
ARC
  5
603A
  8
DANMEN
  6
CONTINUOUS
 10
143.6250151370084
 20
197.2028487908905
 30
0.0
 40
1.0
 50
90.0
 51
180.0
  0
ARC
  5
603B
  8
DANMEN
  6
CONTINUOUS
 10
149.27498913700839
 20
202.75284879089051
 30
0.0
 40
1.0
 50
90.0
 51
180.0
  0
ARC
  5
603C
  8
DANMEN
  6
CONTINUOUS
 10
181.27498913700839
 20
193.55284179089051
 30
0.0
 40
1.0
 50
270.0
 51
0.0
  0
ARC
  5
603D
  8
DANMEN
  6
CONTINUOUS
 10
189.87498913700841
 20
193.55284179089051
 30
0.0
 40
1.0
 50
180.0
 51
270.0
  0
LINE
  5
603E
  8
DANMEN
  6
CONTINUOUS
 10
182.27498913700839
 20
195.43315479089051
 30
0.0
 11
182.27498913700839
 21
193.55284179089051
 31
0.0
  0
LINE
  5
603F
  8
DANMEN
  6
CONTINUOUS
 10
184.77498913700839
 20
193.1028487908905
 30
0.0
 11
186.37498913700841
 21
193.1028487908905
 31
0.0
  0
LINE
  5
6040
  8
DANMEN
  6
CONTINUOUS
 10
183.77498913700839
 20
195.3489087908905
 30
0.0
 11
183.77498913700839
 21
194.1028487908905
 31
0.0
  0
ARC
  5
6041
  8
DANMEN
  6
CONTINUOUS
 10
186.37498913700841
 20
194.1028487908905
 30
0.0
 40
1.0
 50
270.0
 51
0.0
  0
ARC
  5
6042
  8
DANMEN
  6
CONTINUOUS
 10
184.77498913700839
 20
194.1028487908905
 30
0.0
 40
1.0
 50
180.0
 51
270.0
  0
LINE
  5
6043
  8
DANMEN
  6
CONTINUOUS
 10
184.47498913700841
 20
196.90284879089049
 30
0.0
 11
184.47498913700841
 21
196.4397807908905
 31
0.0
  0
ARC
  5
6044
  8
DANMEN
  6
CONTINUOUS
 10
184.77498913700839
 20
195.3489087908905
 30
0.0
 40
1.0
 50
114.6243179999997
 51
180.0
  0
ARC
  5
6045
  8
DANMEN
  6
CONTINUOUS
 10
184.27498913700839
 20
196.4397807908905
 30
0.0
 40
0.2
 50
294.62431799999968
 51
0.0
  0
ARC
  5
6046
  8
DANMEN
  6
CONTINUOUS
 10
183.97498913700841
 20
196.90284879089049
 30
0.0
 40
0.5
 50
0.0
 51
101.5369589999996
  0
LINE
  5
6047
  8
DANMEN
  6
CONTINUOUS
 10
187.37498913700841
 20
195.3489087908905
 30
0.0
 11
187.37498913700841
 21
194.1028487908905
 31
0.0
  0
LINE
  5
6048
  8
DANMEN
  6
CONTINUOUS
 10
188.87498913700841
 20
195.43315479089051
 30
0.0
 11
188.87498913700841
 21
193.55284179089051
 31
0.0
  0
ARC
  5
6049
  8
DANMEN
  6
CONTINUOUS
 10
186.87498913700841
 20
195.43315479089051
 30
0.0
 40
2.0
 50
0.0
 51
78.463041000000317
  0
ARC
  5
604A
  8
DANMEN
  6
CONTINUOUS
 10
187.1749891370084
 20
196.90284879089049
 30
0.0
 40
0.5
 50
78.463041000000317
 51
180.0
  0
ARC
  5
604B
  8
DANMEN
  6
CONTINUOUS
 10
186.87498913700841
 20
196.4397807908905
 30
0.0
 40
0.2
 50
180.0
 51
245.37568200000021
  0
ARC
  5
604C
  8
DANMEN
  6
CONTINUOUS
 10
186.37498913700841
 20
195.3489087908905
 30
0.0
 40
1.0
 50
0.0
 51
65.375682000000253
  0
LINE
  5
604D
  8
DANMEN
  6
CONTINUOUS
 10
186.6749891370084
 20
196.90284879089049
 30
0.0
 11
186.6749891370084
 21
196.4397807908905
 31
0.0
  0
ARC
  5
604E
  8
DANMEN
  6
CONTINUOUS
 10
184.27498913700839
 20
195.43315479089051
 30
0.0
 40
2.0
 50
101.5369589999996
 51
180.0
  0
LINE
  5
604F
  8
DANMEN
  6
CONTINUOUS
 10
148.27498913700839
 20
201.56914379089051
 30
0.0
 11
148.27498913700839
 21
202.75284879089051
 31
0.0
  0
LINE
  5
6050
  8
DANMEN
  6
CONTINUOUS
 10
144.27498913700839
 20
203.2028487908905
 30
0.0
 11
145.77498913700839
 21
203.2028487908905
 31
0.0
  0
LINE
  5
6051
  8
DANMEN
  6
CONTINUOUS
 10
143.27498913700839
 20
200.7028487908905
 30
0.0
 11
143.27498913700839
 21
202.2028487908905
 31
0.0
  0
LINE
  5
6052
  8
DANMEN
  6
CONTINUOUS
 10
146.77498913700839
 20
201.56914379089051
 30
0.0
 11
146.77498913700839
 21
202.2028487908905
 31
0.0
  0
LINE
  5
6053
  8
DANMEN
  6
CONTINUOUS
 10
144.27498913700839
 20
199.7028487908905
 30
0.0
 11
144.90869413700841
 21
199.7028487908905
 31
0.0
  0
LINE
  5
6054
  8
DANMEN
  6
CONTINUOUS
 10
143.6250151370084
 20
198.2028487908905
 30
0.0
 11
144.90869413700841
 21
198.2028487908905
 31
0.0
  0
ARC
  5
6055
  8
DANMEN
  6
CONTINUOUS
 10
144.27498913700839
 20
202.2028487908905
 30
0.0
 40
1.0
 50
90.0
 51
180.0
  0
ARC
  5
6056
  8
DANMEN
  6
CONTINUOUS
 10
145.77498913700839
 20
202.2028487908905
 30
0.0
 40
1.0
 50
0.0
 51
90.0
  0
ARC
  5
6057
  8
DANMEN
  6
CONTINUOUS
 10
144.27498913700839
 20
200.7028487908905
 30
0.0
 40
1.0
 50
180.0
 51
270.0
  0
ARC
  5
6058
  8
DANMEN
  6
CONTINUOUS
 10
147.52498913700839
 20
201.56914379089051
 30
0.0
 40
0.75
 50
180.0
 51
0.0
  0
ARC
  5
6059
  8
DANMEN
  6
CONTINUOUS
 10
144.90869413700841
 20
198.9528487908905
 30
0.0
 40
0.75
 50
270.0
 51
90.0
  0
LINE
  5
605A
  8
DANMEN
  6
CONTINUOUS
 10
142.6250151370084
 20
189.5528247908905
 30
0.0
 11
142.6250151370084
 21
197.2028487908905
 31
0.0
  0
LINE
  5
605B
  8
DANMEN
  6
CONTINUOUS
 10
149.27498913700839
 20
203.75284879089051
 30
0.0
 11
169.9549891370084
 21
203.75284879089051
 31
0.0
  0
ARC
  5
605C
  8
DANMEN
  6
CONTINUOUS
 10
187.5749891370084
 20
229.90284879089049
 30
0.0
 40
3.649999999999999
 50
299.64493700000151
 51
0.0
  0
LINE
  5
605D
  8
DANMEN
  6
CONTINUOUS
 10
154.27501513700841
 20
191.55284179089051
 30
0.0
 11
154.27501513700841
 21
189.5528247908905
 31
0.0
  0
LINE
  5
605E
  8
DANMEN
  6
CONTINUOUS
 10
142.6250151370084
 20
189.5528247908905
 30
0.0
 11
154.27501513700841
 21
189.5528247908905
 31
0.0
  0
ARC
  5
605F
  8
DANMEN
  6
CONTINUOUS
 10
155.27501513700841
 20
191.55284179089051
 30
0.0
 40
1.0
 50
90.0
 51
180.0
  0
ARC
  5
6060
  8
DANMEN
  6
CONTINUOUS
 10
128.07501513700839
 20
188.40282479089049
 30
0.0
 40
0.5
 50
180.0
 51
270.0
  0
ARC
  5
6061
  8
DANMEN
  6
CONTINUOUS
 10
162.0225071370084
 20
189.90284179089051
 30
0.0
 40
1.0
 50
90.0
 51
193.49373699999919
  0
ARC
  5
6062
  8
DANMEN
  6
CONTINUOUS
 10
161.91556213700841
 20
185.5528017908905
 30
0.0
 40
1.0
 50
159.51220900000001
 51
270.0
  0
LINE
  5
6063
  8
DANMEN
  6
CONTINUOUS
 10
156.77501513700841
 20
188.7028247908905
 30
0.0
 11
156.77501513700841
 21
187.10282479089051
 31
0.0
  0
LINE
  5
6064
  8
DANMEN
  6
CONTINUOUS
 10
159.02107613700841
 20
189.7028247908905
 30
0.0
 11
157.77501513700841
 21
189.7028247908905
 31
0.0
  0
LINE
  5
6065
  8
DANMEN
  6
CONTINUOUS
 10
160.57501513700839
 20
189.00282479089049
 30
0.0
 11
160.1119471370084
 21
189.00282479089049
 31
0.0
  0
ARC
  5
6066
  8
DANMEN
  6
CONTINUOUS
 10
159.02107613700841
 20
188.7028247908905
 30
0.0
 40
1.0
 50
24.624318000000081
 51
90.0
  0
ARC
  5
6067
  8
DANMEN
  6
CONTINUOUS
 10
160.1119471370084
 20
189.2028247908905
 30
0.0
 40
0.2
 50
204.6243180000001
 51
270.0
  0
ARC
  5
6068
  8
DANMEN
  6
CONTINUOUS
 10
160.57501513700839
 20
189.50282479089049
 30
0.0
 40
0.5
 50
270.0
 51
11.536958999999859
  0
ARC
  5
6069
  8
DANMEN
  6
CONTINUOUS
 10
159.10532113700839
 20
189.2028247908905
 30
0.0
 40
2.0
 50
11.536958999999859
 51
13.49373699999926
  0
LINE
  5
606A
  8
DANMEN
  6
CONTINUOUS
 10
159.02107613700841
 20
186.10282479089051
 30
0.0
 11
157.77501513700841
 21
186.10282479089051
 31
0.0
  0
ARC
  5
606B
  8
DANMEN
  6
CONTINUOUS
 10
159.10532113700839
 20
186.60282479089051
 30
0.0
 40
2.0
 50
339.51220899999998
 51
348.46304100000009
  0
ARC
  5
606C
  8
DANMEN
  6
CONTINUOUS
 10
160.57501513700839
 20
186.3028247908905
 30
0.0
 40
0.5
 50
348.46304100000009
 51
90.0
  0
ARC
  5
606D
  8
DANMEN
  6
CONTINUOUS
 10
160.1119471370084
 20
186.60282479089051
 30
0.0
 40
0.2
 50
90.0
 51
155.37568199999981
  0
ARC
  5
606E
  8
DANMEN
  6
CONTINUOUS
 10
159.02107613700841
 20
187.10282479089051
 30
0.0
 40
1.0
 50
270.0
 51
335.37568199999993
  0
LINE
  5
606F
  8
DANMEN
  6
CONTINUOUS
 10
160.57501513700839
 20
186.8028247908905
 30
0.0
 11
160.1119471370084
 21
186.8028247908905
 31
0.0
  0
ARC
  5
6070
  8
DANMEN
  6
CONTINUOUS
 10
157.77501513700841
 20
188.7028247908905
 30
0.0
 40
1.0
 50
90.0
 51
180.0
  0
ARC
  5
6071
  8
DANMEN
  6
CONTINUOUS
 10
157.77501513700841
 20
187.10282479089051
 30
0.0
 40
1.0
 50
180.0
 51
270.0
  0
ARC
  5
6072
  8
DANMEN
  6
CONTINUOUS
 10
152.57501513700839
 20
183.40282479089049
 30
0.0
 40
0.5
 50
180.0
 51
270.0
  0
LINE
  5
6073
  8
DANMEN
  6
CONTINUOUS
 10
162.57501513700839
 20
182.90282479089049
 30
0.0
 11
152.57501513700839
 21
182.90282479089049
 31
0.0
  0
LINE
  5
6074
  8
DANMEN
  6
CONTINUOUS
 10
152.07501513700839
 20
183.40282479089049
 30
0.0
 11
152.07501513700839
 21
187.90282479089049
 31
0.0
  0
ARC
  5
6075
  8
DANMEN
  6
CONTINUOUS
 10
128.07501513700839
 20
190.47257779089051
 30
0.0
 40
0.5
 50
98.57868900000021
 51
180.0
  0
LINE
  5
6076
  8
DANMEN
  6
CONTINUOUS
 10
128.07501513700839
 20
187.90282479089049
 30
0.0
 11
152.07501513700839
 21
187.90282479089049
 31
0.0
  0
LINE
  5
6077
  8
DANMEN
  6
CONTINUOUS
 10
128.00043113700841
 20
190.96698379089051
 30
0.0
 11
140.9750151370084
 21
192.92426979089049
 31
0.0
  0
ARC
  5
6078
  8
DANMEN
  6
CONTINUOUS
 10
128.57502713700839
 20
203.40280779089051
 30
0.0
 40
0.5
 50
270.0
 51
0.0046549999997365
  0
LINE
  5
6079
  8
DANMEN
  6
CONTINUOUS
 10
128.57502713700839
 20
202.90280779089051
 30
0.0
 11
128.0749891370084
 21
202.90280779089051
 31
0.0
  0
LINE
  5
607A
  8
DANMEN
  6
CONTINUOUS
 10
127.57501513700841
 20
188.40282479089049
 30
0.0
 11
127.57501513700841
 21
190.47257779089051
 31
0.0
  0
LINE
  5
607B
  8
DANMEN
  6
CONTINUOUS
 10
140.9750151370084
 20
192.92426979089049
 30
0.0
 11
140.9750151370084
 21
203.40284879089049
 31
0.0
  0
LINE
  5
607C
  8
DANMEN
  6
CONTINUOUS
 10
195.9249891370084
 20
192.55284179089051
 30
0.0
 11
195.9249891370084
 21
231.25284879089051
 31
0.0
  0
LINE
  5
607D
  8
DANMEN
  6
CONTINUOUS
 10
155.27501513700841
 20
192.55284179089051
 30
0.0
 11
181.27498913700839
 21
192.55284179089051
 31
0.0
  0
LINE
  5
607E
  8
DANMEN
  6
CONTINUOUS
 10
189.87498913700841
 20
192.55284179089051
 30
0.0
 11
195.9249891370084
 21
192.55284179089051
 31
0.0
  0
LINE
  5
607F
  8
DANMEN
  6
CONTINUOUS
 10
162.0225071370084
 20
190.90284179089051
 30
0.0
 11
195.92499513700841
 21
190.90284179089051
 31
0.0
  0
LINE
  5
6080
  8
DANMEN
  6
CONTINUOUS
 10
166.0749891370084
 20
227.90284879089049
 30
0.0
 11
187.5749891370084
 21
227.90284879089049
 31
0.0
  0
ARC
  5
6081
  8
DANMEN
  6
CONTINUOUS
 10
197.0749891370084
 20
232.40284879089049
 30
0.0
 40
0.5
 50
0.0
 51
89.999982000000799
  0
LINE
  5
6082
  8
DANMEN
  6
CONTINUOUS
 10
191.22498913700841
 20
229.90284879089049
 30
0.0
 11
191.22498913700841
 21
231.25284879089051
 31
0.0
  0
LINE
  5
6083
  8
DANMEN
  6
CONTINUOUS
 10
189.5749891370084
 20
229.90284879089049
 30
0.0
 11
189.5749891370084
 21
232.40284879089049
 31
0.0
  0
ARC
  5
6084
  8
DANMEN
  6
CONTINUOUS
 10
190.0749891370084
 20
232.40284879089049
 30
0.0
 40
0.5
 50
90.0
 51
180.0
  0
LINE
  5
6085
  8
DANMEN
  6
CONTINUOUS
 10
191.22498913700841
 20
231.25284879089051
 30
0.0
 11
195.9249891370084
 21
231.25284879089051
 31
0.0
  0
LINE
  5
6086
  8
DANMEN
  6
CONTINUOUS
 10
190.0749891370084
 20
232.90284879089049
 30
0.0
 11
197.0749891370084
 21
232.90284879089049
 31
0.0
  0
ARC
  5
6087
  8
DANMEN
  6
CONTINUOUS
 10
187.5749891370084
 20
229.90284879089049
 30
0.0
 40
2.0
 50
270.0
 51
0.0
  0
LINE
  5
6088
  8
DANMEN
  6
CONTINUOUS
 10
181.62498913700841
 20
226.25284879089051
 30
0.0
 11
181.62498913700841
 21
210.40284879089049
 31
0.0
  0
LINE
  5
6089
  8
DANMEN
  6
CONTINUOUS
 10
183.27498913700839
 20
209.30284879089049
 30
0.0
 11
183.27498913700839
 21
220.9230517908905
 31
0.0
  0
LINE
  5
608A
  8
DANMEN
  6
CONTINUOUS
 10
129.07502713700839
 20
203.40284879089049
 30
0.0
 11
140.9750151370084
 21
203.40284879089049
 31
0.0
  0
LINE
  5
608B
  8
DANMEN
  6
CONTINUOUS
 10
135.27500113700839
 20
208.40284879089049
 30
0.0
 11
137.97500113700841
 21
208.40284879089049
 31
0.0
  0
LINE
  5
608C
  8
DANMEN
  6
CONTINUOUS
 10
130.57500413700839
 20
208.40284879089049
 30
0.0
 11
127.5749891370084
 21
208.40284879089049
 31
0.0
  0
LINE
  5
608D
  8
DANMEN
  6
CONTINUOUS
 10
129.5750011370084
 20
205.40284879089049
 30
0.0
 11
129.5750011370084
 21
207.40284879089049
 31
0.0
  0
LINE
  5
608E
  8
DANMEN
  6
CONTINUOUS
 10
130.57500413700839
 20
207.40284879089049
 30
0.0
 11
129.5750011370084
 21
207.40284879089049
 31
0.0
  0
LINE
  5
608F
  8
DANMEN
  6
CONTINUOUS
 10
129.5750011370084
 20
205.40284879089049
 30
0.0
 11
136.77500113700839
 21
205.40284879089049
 31
0.0
  0
LINE
  5
6090
  8
DANMEN
  6
CONTINUOUS
 10
134.77500113700839
 20
207.40284879089049
 30
0.0
 11
136.77500113700839
 21
207.40284879089049
 31
0.0
  0
LINE
  5
6091
  8
DANMEN
  6
CONTINUOUS
 10
136.77500113700839
 20
205.40284879089049
 30
0.0
 11
136.77500113700839
 21
207.40284879089049
 31
0.0
  0
LINE
  5
6092
  8
DANMEN
  6
CONTINUOUS
 10
134.77500113700839
 20
207.40284879089049
 30
0.0
 11
134.77500113700839
 21
207.90284879089049
 31
0.0
  0
ARC
  5
6093
  8
DANMEN
  6
CONTINUOUS
 10
135.27500113700839
 20
207.90284879089049
 30
0.0
 40
0.5
 50
90.000017999999187
 51
179.99998199999911
  0
LINE
  5
6094
  8
DANMEN
  6
CONTINUOUS
 10
130.57500413700839
 20
207.40284879089049
 30
0.0
 11
130.57500413700839
 21
208.40284879089049
 31
0.0
  0
LINE
  5
6095
  8
DANMEN
  6
CONTINUOUS
 10
127.5749891370084
 20
208.40284879089049
 30
0.0
 11
127.5749891370084
 21
203.40280779089051
 31
0.0
  0
LINE
  5
6096
  8
DANMEN
  6
CONTINUOUS
 10
137.97500113700841
 20
208.40284879089049
 30
0.0
 11
137.97500113700841
 21
205.40284879089049
 31
0.0
  0
LINE
  5
6097
  8
DANMEN
  6
CONTINUOUS
 10
184.77498913700839
 20
225.7028477908905
 30
0.0
 11
186.37498913700841
 21
225.7028477908905
 31
0.0
  0
LINE
  5
6098
  8
DANMEN
  6
CONTINUOUS
 10
183.77498913700839
 20
223.4567877908905
 30
0.0
 11
183.77498913700839
 21
224.7028477908905
 31
0.0
  0
ARC
  5
6099
  8
DANMEN
  6
CONTINUOUS
 10
186.37498913700841
 20
224.7028477908905
 30
0.0
 40
1.0
 50
0.0
 51
90.0
  0
ARC
  5
609A
  8
DANMEN
  6
CONTINUOUS
 10
184.77498913700839
 20
224.7028477908905
 30
0.0
 40
1.0
 50
90.0
 51
180.0
  0
LINE
  5
609B
  8
DANMEN
  6
CONTINUOUS
 10
184.47498913700841
 20
221.90284779089049
 30
0.0
 11
184.47498913700841
 21
222.36591579089051
 31
0.0
  0
ARC
  5
609C
  8
DANMEN
  6
CONTINUOUS
 10
184.77498913700839
 20
223.4567877908905
 30
0.0
 40
1.0
 50
180.0
 51
245.37568200000021
  0
ARC
  5
609D
  8
DANMEN
  6
CONTINUOUS
 10
184.27498913700839
 20
222.36591579089051
 30
0.0
 40
0.2
 50
0.0
 51
65.375682000000253
  0
ARC
  5
609E
  8
DANMEN
  6
CONTINUOUS
 10
183.97498913700841
 20
221.90284779089049
 30
0.0
 40
0.5
 50
258.46304100000032
 51
0.0
  0
LINE
  5
609F
  8
DANMEN
  6
CONTINUOUS
 10
187.37498913700841
 20
223.4567877908905
 30
0.0
 11
187.37498913700841
 21
224.7028477908905
 31
0.0
  0
ARC
  5
60A0
  8
DANMEN
  6
CONTINUOUS
 10
187.1749891370084
 20
221.90284779089049
 30
0.0
 40
0.5
 50
180.0
 51
281.53695899999963
  0
ARC
  5
60A1
  8
DANMEN
  6
CONTINUOUS
 10
186.87498913700841
 20
222.36591579089051
 30
0.0
 40
0.2
 50
114.6243179999997
 51
180.0
  0
ARC
  5
60A2
  8
DANMEN
  6
CONTINUOUS
 10
186.37498913700841
 20
223.4567877908905
 30
0.0
 40
1.0
 50
294.62431799999968
 51
0.0
  0
LINE
  5
60A3
  8
DANMEN
  6
CONTINUOUS
 10
186.6749891370084
 20
221.90284779089049
 30
0.0
 11
186.6749891370084
 21
222.36591579089051
 31
0.0
  0
LINE
  5
60A4
  8
DANMEN
  6
CONTINUOUS
 10
188.87498913700841
 20
223.37254179089049
 30
0.0
 11
188.87498913700841
 21
225.86149979089049
 31
0.0
  0
LINE
  5
60A5
  8
DANMEN
  6
CONTINUOUS
 10
137.97500113700841
 20
205.40284879089049
 30
0.0
 11
169.62498913700841
 21
205.40284879089049
 31
0.0
  0
LINE
  5
60A6
  8
DANMEN
  6
CONTINUOUS
 10
165.5749881370084
 20
227.40284879089049
 30
0.0
 11
165.5749881370084
 21
216.90284879089049
 31
0.0
  0
LINE
  5
60A7
  8
DANMEN
  6
CONTINUOUS
 10
167.22498813700841
 20
215.90284879089049
 30
0.0
 11
167.22498813700841
 21
226.25284879089051
 31
0.0
  0
LINE
  5
60A8
  8
DANMEN
  6
CONTINUOUS
 10
165.5749881370084
 20
216.90284879089049
 30
0.0
 11
165.0749881370084
 21
216.90284879089049
 31
0.0
  0
LINE
  5
60A9
  8
DANMEN
  6
CONTINUOUS
 10
167.22498813700841
 20
215.90284879089049
 30
0.0
 11
165.0749881370084
 21
215.90284879089049
 31
0.0
  0
ARC
  5
60AA
  8
DANMEN
  6
CONTINUOUS
 10
165.0749881370084
 20
216.40284879089049
 30
0.0
 40
0.5
 50
90.0
 51
180.0
  0
ARC
  5
60AB
  8
DANMEN
  6
CONTINUOUS
 10
165.0749881370084
 20
216.40284879089049
 30
0.0
 40
0.5
 50
180.0
 51
270.0
  0
LINE
  5
60AC
  8
DANMEN
  6
CONTINUOUS
 10
167.22498813700841
 20
226.25284879089051
 30
0.0
 11
181.62498913700841
 21
226.25284879089051
 31
0.0
  0
ARC
  5
60AD
  8
DANMEN
  6
CONTINUOUS
 10
166.0749891370084
 20
227.40284879089049
 30
0.0
 40
0.5
 50
90.0
 51
180.0
  0
ARC
  5
60AE
  8
DANMEN
  6
CONTINUOUS
 10
186.87498913700841
 20
223.37254179089049
 30
0.0
 40
2.0
 50
281.53695899999963
 51
0.0
  0
LINE
  5
60AF
  8
DANMEN
  6
CONTINUOUS
 10
162.57498913700849
 20
342.90284779089052
 30
0.0
 11
162.57498913700849
 21
352.90284779089052
 31
0.0
  0
LINE
  5
60B0
  8
DANMEN
  6
CONTINUOUS
 10
410.27938313700838
 20
233.31686779089051
 30
0.0
 11
342.91298613700849
 21
233.31686779089051
 31
0.0
  0
LINE
  5
60B1
  8
DANMEN
  6
CONTINUOUS
 10
395.27941513700841
 20
222.31664179089049
 30
0.0
 11
394.47938813700841
 21
228.31686779089051
 31
0.0
  0
LINE
  5
60B2
  8
DANMEN
  6
CONTINUOUS
 10
395.27923513700841
 20
258.31672979089052
 30
0.0
 11
394.47925613700841
 21
252.31686779089051
 31
0.0
  0
LINE
  5
60B3
  8
DANMEN
  6
CONTINUOUS
 10
285.77979513700842
 20
222.31691179089049
 30
0.0
 11
286.57982113700842
 21
228.31686779089051
 31
0.0
  0
LINE
  5
60B4
  8
DANMEN
  6
CONTINUOUS
 10
285.77956913700848
 20
258.31694279089049
 30
0.0
 11
286.57954013700851
 21
252.31686779089051
 31
0.0
  0
LINE
  5
60B5
  8
DANMEN
  6
CONTINUOUS
 10
159.5750391370085
 20
229.50280579089051
 30
0.0
 11
165.57498913700849
 21
227.90282579089049
 31
0.0
  0
LINE
  5
60B6
  8
DANMEN
  6
CONTINUOUS
 10
135.5750391370085
 20
229.50284979089051
 30
0.0
 11
129.5749551370084
 21
227.9028337908905
 31
0.0
  0
LINE
  5
60B7
  8
DANMEN
  6
CONTINUOUS
 10
159.57501913700841
 20
296.3028227908905
 30
0.0
 11
165.57505013700839
 21
297.90283779089049
 31
0.0
  0
LINE
  5
60B8
  8
DANMEN
  6
CONTINUOUS
 10
135.57501913700841
 20
296.30283179089048
 30
0.0
 11
129.32460813700851
 21
297.96960179089052
 31
0.0
  0
LINE
  5
60B9
  8
DANMEN
  6
PHANTOM
 10
135.97502213700849
 20
208.40284779089049
 30
0.0
 11
137.97502213700849
 21
208.40284779089049
 31
0.0
  0
LINE
  5
60BA
  8
DANMEN
  6
PHANTOM
 10
137.97502213700849
 20
208.40284779089049
 30
0.0
 11
137.97502213700849
 21
205.4204497908905
 31
0.0
  0
LINE
  5
60BB
  8
DANMEN
  6
CONTINUOUS
 10
263.27961513700842
 20
198.31691279089051
 30
0.0
 11
284.1295881370084
 21
198.31691279089051
 31
0.0
  0
LINE
  5
60BC
  8
DANMEN
  6
CONTINUOUS
 10
417.77956513700838
 20
198.31691279089051
 30
0.0
 11
396.9295921370084
 21
198.31691279089051
 31
0.0
  0
LINE
  5
60BD
  8
DANMEN
  6
CONTINUOUS
 10
130.57501513700839
 20
208.35284779089051
 30
0.0
 11
131.5750111370084
 21
208.35284779089051
 31
0.0
  0
LINE
  5
60BE
  8
DANMEN
  6
CONTINUOUS
 10
140.97501513700851
 20
203.40284779089049
 30
0.0
 11
140.97501513700851
 21
205.40280779089051
 31
0.0
  0
LINE
  5
60BF
  8
DANMEN
  6
CONTINUOUS
 10
132.9750151370084
 20
203.40284779089049
 30
0.0
 11
132.9750151370084
 21
205.40284779089049
 31
0.0
  0
LINE
  5
60C0
  8
DANMEN
  6
CONTINUOUS
 10
187.57498913700849
 20
232.90284779089049
 30
0.0
 11
190.07498913700849
 21
232.90284779089049
 31
0.0
  0
LINE
  5
60C1
  8
DANMEN
  6
CONTINUOUS
 10
187.57498913700849
 20
227.90284779089049
 30
0.0
 11
187.57498913700849
 21
232.90284779089049
 31
0.0
  0
LINE
  5
60C2
  8
DANMEN
  6
CONTINUOUS
 10
197.57440713700839
 20
172.90262579089051
 30
0.0
 11
197.57440713700839
 21
183.4026257908904
 31
0.0
  0
LINE
  5
60C3
  8
DANMEN
  6
CONTINUOUS
 10
162.57440713700839
 20
172.90262579089051
 30
0.0
 11
197.57440713700839
 21
172.90262579089051
 31
0.0
  0
LINE
  5
60C4
  8
DANMEN
  6
CONTINUOUS
 10
197.57498913700849
 20
352.90284779089052
 30
0.0
 11
197.57498913700849
 21
270.18558479089052
 31
0.0
  0
LINE
  5
60C5
  8
DANMEN
  6
CONTINUOUS
 10
162.57498913700849
 20
352.90284779089052
 30
0.0
 11
197.57498913700849
 21
352.90284779089052
 31
0.0
  0
LINE
  5
60C6
  8
DANMEN
  6
CONTINUOUS
 10
127.5749891370085
 20
337.40284779089052
 30
0.0
 11
127.5749891370085
 21
337.90284779089052
 31
0.0
  0
LINE
  5
60C7
  8
DANMEN
  6
CONTINUOUS
 10
159.5750391370085
 20
216.90284779089049
 30
0.0
 11
165.57500913700841
 21
216.90284779089049
 31
0.0
  0
LINE
  5
60C8
  8
DANMEN
  6
CONTINUOUS
 10
395.27959213700842
 20
198.31691279089051
 30
0.0
 11
342.91298613700849
 21
198.31691279089051
 31
0.0
  0
LINE
  5
60C9
  8
DANMEN
  6
CONTINUOUS
 10
285.77958813700837
 20
198.31691279089051
 30
0.0
 11
339.17815913700838
 21
198.31691279089051
 31
0.0
  0
LINE
  5
60CA
  8
DANMEN
  6
CONTINUOUS
 10
135.57501913700841
 20
212.90284779089049
 30
0.0
 11
129.57498913700849
 21
212.90284779089049
 31
0.0
  0
LINE
  5
60CB
  8
DANMEN
  6
CONTINUOUS
 10
270.77992713700843
 20
252.3168377908905
 30
0.0
 11
270.77992713700843
 21
258.31686779089051
 31
0.0
  0
LINE
  5
60CC
  8
DANMEN
  6
CONTINUOUS
 10
410.27935813700839
 20
252.3168167908905
 30
0.0
 11
410.27935813700839
 21
258.31689779089049
 31
0.0
  0
LINE
  5
60CD
  8
DANMEN
  6
CONTINUOUS
 10
129.57498913700849
 20
270.6528327908905
 30
0.0
 11
129.57498913700849
 21
297.90283779089049
 31
0.0
  0
LINE
  5
60CE
  8
DANMEN
  6
CONTINUOUS
 10
165.57498913700849
 20
270.6528327908905
 30
0.0
 11
165.57498913700849
 21
297.90283779089049
 31
0.0
  0
LINE
  5
60CF
  8
DANMEN
  6
CONTINUOUS
 10
159.57501913700841
 20
309.9028317908905
 30
0.0
 11
159.57501913700841
 21
312.9028327908905
 31
0.0
  0
LINE
  5
60D0
  8
DANMEN
  6
CONTINUOUS
 10
135.57501913700841
 20
312.9028327908905
 30
0.0
 11
135.57501913700841
 21
309.9028317908905
 31
0.0
  0
LINE
  5
60D1
  8
DANMEN
  6
CONTINUOUS
 10
135.57501913700841
 20
312.9028327908905
 30
0.0
 11
159.57501913700841
 21
312.9028327908905
 31
0.0
  0
LINE
  5
60D2
  8
DANMEN
  6
CONTINUOUS
 10
135.57501913700841
 20
312.9028327908905
 30
0.0
 11
130.07498913700849
 21
312.9028327908905
 31
0.0
  0
LINE
  5
60D3
  8
DANMEN
  6
CONTINUOUS
 10
129.57498913700849
 20
303.90283779089049
 30
0.0
 11
135.57501913700841
 21
303.90283779089049
 31
0.0
  0
LINE
  5
60D4
  8
DANMEN
  6
CONTINUOUS
 10
153.5750191370085
 20
312.9028327908905
 30
0.0
 11
153.5750191370085
 21
270.18558479089052
 31
0.0
  0
LINE
  5
60D5
  8
DANMEN
  6
CONTINUOUS
 10
159.57501913700841
 20
312.9028327908905
 30
0.0
 11
159.57501913700841
 21
270.18558479089052
 31
0.0
  0
LINE
  5
60D6
  8
DANMEN
  6
CONTINUOUS
 10
158.5750191370085
 20
312.9028327908905
 30
0.0
 11
158.5750191370085
 21
270.18558479089052
 31
0.0
  0
LINE
  5
60D7
  8
DANMEN
  6
CONTINUOUS
 10
154.5750191370085
 20
312.9028327908905
 30
0.0
 11
154.5750191370085
 21
270.18558479089052
 31
0.0
  0
LINE
  5
60D8
  8
DANMEN
  6
CONTINUOUS
 10
141.57501913700841
 20
312.9028327908905
 30
0.0
 11
141.57501913700841
 21
270.18558479089052
 31
0.0
  0
LINE
  5
60D9
  8
DANMEN
  6
CONTINUOUS
 10
140.57501913700841
 20
312.9028327908905
 30
0.0
 11
140.57501913700841
 21
270.18558479089052
 31
0.0
  0
LINE
  5
60DA
  8
DANMEN
  6
CONTINUOUS
 10
135.57501913700841
 20
312.9028327908905
 30
0.0
 11
135.57501913700841
 21
270.18558479089052
 31
0.0
  0
LINE
  5
60DB
  8
DANMEN
  6
CONTINUOUS
 10
136.57501913700841
 20
312.9028327908905
 30
0.0
 11
136.57501913700841
 21
270.18558479089052
 31
0.0
  0
LINE
  5
60DC
  8
DANMEN
  6
CONTINUOUS
 10
159.57501913700841
 20
312.9028327908905
 30
0.0
 11
165.07505013700839
 21
312.9028327908905
 31
0.0
  0
LINE
  5
60DD
  8
DANMEN
  6
CONTINUOUS
 10
165.57505013700839
 20
303.90283779089049
 30
0.0
 11
159.57501913700841
 21
303.90283779089049
 31
0.0
  0
LINE
  5
60DE
  8
DANMEN
  6
CONTINUOUS
 10
135.5750391370085
 20
212.9028107908905
 30
0.0
 11
159.5750391370085
 21
212.9028107908905
 31
0.0
  0
LINE
  5
60DF
  8
DANMEN
  6
CONTINUOUS
 10
135.57504013700839
 20
221.90284779089049
 30
0.0
 11
129.57500913700841
 21
221.90284779089049
 31
0.0
  0
LINE
  5
60E0
  8
DANMEN
  6
CONTINUOUS
 10
135.57504013700839
 20
221.90284779089049
 30
0.0
 11
129.57500913700841
 21
221.90284779089049
 31
0.0
  0
LINE
  5
60E1
  8
DANMEN
  6
CONTINUOUS
 10
153.57503913700839
 20
212.9028107908905
 30
0.0
 11
153.57503913700839
 21
258.79502779089052
 31
0.0
  0
LINE
  5
60E2
  8
DANMEN
  6
CONTINUOUS
 10
159.5750391370085
 20
212.9028107908905
 30
0.0
 11
159.5750391370085
 21
258.79502779089052
 31
0.0
  0
LINE
  5
60E3
  8
DANMEN
  6
CONTINUOUS
 10
158.57503913700839
 20
212.9028107908905
 30
0.0
 11
158.57503913700839
 21
258.79502779089052
 31
0.0
  0
LINE
  5
60E4
  8
DANMEN
  6
CONTINUOUS
 10
154.57503913700839
 20
212.9028107908905
 30
0.0
 11
154.57503913700839
 21
258.79502779089052
 31
0.0
  0
LINE
  5
60E5
  8
DANMEN
  6
CONTINUOUS
 10
141.5750391370085
 20
212.9028107908905
 30
0.0
 11
141.5750391370085
 21
258.79502779089052
 31
0.0
  0
LINE
  5
60E6
  8
DANMEN
  6
CONTINUOUS
 10
140.5750391370085
 20
212.9028107908905
 30
0.0
 11
140.5750391370085
 21
258.79502779089052
 31
0.0
  0
LINE
  5
60E7
  8
DANMEN
  6
CONTINUOUS
 10
135.5750391370085
 20
212.9028107908905
 30
0.0
 11
135.5750391370085
 21
258.79502779089052
 31
0.0
  0
LINE
  5
60E8
  8
DANMEN
  6
CONTINUOUS
 10
136.5750391370085
 20
212.9028107908905
 30
0.0
 11
136.5750391370085
 21
258.79502779089052
 31
0.0
  0
LINE
  5
60E9
  8
DANMEN
  6
CONTINUOUS
 10
165.5750701370084
 20
221.90280379089049
 30
0.0
 11
159.5750391370085
 21
221.90280379089049
 31
0.0
  0
LINE
  5
60EA
  8
DANMEN
  6
CONTINUOUS
 10
165.57498913700849
 20
270.18558479089052
 30
0.0
 11
165.57498913700849
 21
302.90283779089049
 31
0.0
  0
LINE
  5
60EB
  8
SUNPO
  6
CONTINUOUS
 10
222.5749891370084
 20
297.90284779089052
 30
0.0
 11
222.5749891370084
 21
276.04473379089052
 31
0.0
  0
LINE
  5
60EC
  8
DANMEN
  6
CONTINUOUS
 10
197.57498913700849
 20
297.90283779089049
 30
0.0
 11
197.57498913700849
 21
270.18558479089052
 31
0.0
  0
LINE
  5
60ED
  8
DANMEN
  6
CONTINUOUS
 10
127.5749891370085
 20
302.90283779089049
 30
0.0
 11
127.5749891370085
 21
270.18558479089052
 31
0.0
  0
LINE
  5
60EE
  8
DANMEN
  6
CONTINUOUS
 10
129.57498913700849
 20
270.18558479089052
 30
0.0
 11
129.57498913700849
 21
302.90283779089049
 31
0.0
  0
LINE
  5
60EF
  8
DANMEN
  6
CONTINUOUS
 10
127.5749891370085
 20
270.18558479089052
 30
0.0
 11
127.5749891370085
 21
335.40284779089052
 31
0.0
  0
LINE
  5
60F0
  8
SUNPO
  6
CONTINUOUS
 10
222.5749891370084
 20
232.90284779089049
 30
0.0
 11
222.5749891370084
 21
255.30783779089049
 31
0.0
  0
LINE
  5
60F1
  8
DANMEN
  6
CONTINUOUS
 10
197.57498913700849
 20
232.9026647908905
 30
0.0
 11
197.57498913700849
 21
267.58779679089048
 31
0.0
  0
LINE
  5
60F2
  8
DANMEN
  6
CONTINUOUS
 10
127.5749891370085
 20
187.90284779089049
 30
0.0
 11
127.5749891370085
 21
267.58779679089048
 31
0.0
  0
LINE
  5
60F3
  8
DANMEN
  6
CONTINUOUS
 10
129.57498913700849
 20
222.90265979089051
 30
0.0
 11
129.57498913700849
 21
267.58779679089048
 31
0.0
  0
LINE
  5
60F4
  8
DANMEN
  6
CONTINUOUS
 10
165.57498913700849
 20
227.4007497908905
 30
0.0
 11
165.57498913700849
 21
267.58779679089048
 31
0.0
  0
LINE
  5
60F5
  8
SUNPO
  6
CONTINUOUS
 10
395.27961713700847
 20
170.31682479089051
 30
0.0
 11
395.27961713700847
 21
170.31691279089051
 31
0.0
  0
LINE
  5
60F6
  8
DANMEN
  6
CONTINUOUS
 10
410.27938313700838
 20
228.31686779089051
 30
0.0
 11
410.27938313700838
 21
222.31691279089051
 31
0.0
  0
LINE
  5
60F7
  8
DANMEN
  6
CONTINUOUS
 10
270.77979713700842
 20
228.31686779089051
 30
0.0
 11
270.77979713700842
 21
222.31691179089049
 31
0.0
  0
LINE
  5
60F8
  8
DANMEN
  6
CONTINUOUS
 10
330.27998113700841
 20
258.31686779089051
 30
0.0
 11
285.27978313700839
 21
258.31686779089051
 31
0.0
  0
LINE
  5
60F9
  8
DANMEN
  6
CONTINUOUS
 10
279.77956913700842
 20
258.31694279089049
 30
0.0
 11
279.77956913700842
 21
252.31691279089051
 31
0.0
  0
LINE
  5
60FA
  8
DANMEN
  6
CONTINUOUS
 10
401.27922013700839
 20
258.31684679089051
 30
0.0
 11
401.27922013700839
 21
252.3168167908905
 31
0.0
  0
LINE
  5
60FB
  8
DANMEN
  6
CONTINUOUS
 10
270.77979713700842
 20
228.31686779089051
 30
0.0
 11
339.17815913700838
 21
228.31686779089051
 31
0.0
  0
LINE
  5
60FC
  8
DANMEN
  6
CONTINUOUS
 10
270.77979713700842
 20
252.31686779089051
 30
0.0
 11
270.77979713700842
 21
228.31686779089051
 31
0.0
  0
LINE
  5
60FD
  8
DANMEN
  6
CONTINUOUS
 10
279.77979113700837
 20
222.3169237908904
 30
0.0
 11
279.77979113700837
 21
228.31686779089051
 31
0.0
  0
LINE
  5
60FE
  8
DANMEN
  6
CONTINUOUS
 10
339.17815913700838
 20
258.31689779089049
 30
0.0
 11
283.27979113700837
 21
258.31689779089049
 31
0.0
  0
LINE
  5
60FF
  8
DANMEN
  6
CONTINUOUS
 10
270.77979713700842
 20
251.31686779089051
 30
0.0
 11
339.17815913700838
 21
251.31686779089051
 31
0.0
  0
LINE
  5
6100
  8
DANMEN
  6
CONTINUOUS
 10
270.77979713700842
 20
252.31686779089051
 30
0.0
 11
339.17815913700838
 21
252.31686779089051
 31
0.0
  0
LINE
  5
6101
  8
DANMEN
  6
CONTINUOUS
 10
270.77979713700842
 20
247.31686779089051
 30
0.0
 11
339.17815913700838
 21
247.31686779089051
 31
0.0
  0
LINE
  5
6102
  8
DANMEN
  6
CONTINUOUS
 10
270.77979713700842
 20
246.31686779089051
 30
0.0
 11
339.17815913700838
 21
246.31686779089051
 31
0.0
  0
LINE
  5
6103
  8
DANMEN
  6
CONTINUOUS
 10
270.77979713700842
 20
233.31686779089051
 30
0.0
 11
339.17815913700838
 21
233.31686779089051
 31
0.0
  0
LINE
  5
6104
  8
DANMEN
  6
CONTINUOUS
 10
270.77979713700842
 20
229.31686779089051
 30
0.0
 11
339.17815913700838
 21
229.31686779089051
 31
0.0
  0
LINE
  5
6105
  8
DANMEN
  6
CONTINUOUS
 10
270.77979713700842
 20
228.31686779089051
 30
0.0
 11
339.17815913700838
 21
228.31686779089051
 31
0.0
  0
LINE
  5
6106
  8
DANMEN
  6
CONTINUOUS
 10
270.77979713700842
 20
234.31686779089051
 30
0.0
 11
339.17815913700838
 21
234.31686779089051
 31
0.0
  0
LINE
  5
6107
  8
DANMEN
  6
CONTINUOUS
 10
339.17815913700838
 20
260.31691179089052
 30
0.0
 11
261.27978413700851
 21
260.31691179089052
 31
0.0
  0
LINE
  5
6108
  8
DANMEN
  6
CONTINUOUS
 10
270.77979713700842
 20
222.31691179089049
 30
0.0
 11
339.17815913700838
 21
222.31691179089049
 31
0.0
  0
LINE
  5
6109
  8
DANMEN
  6
CONTINUOUS
 10
285.77958813700837
 20
190.31691279089051
 30
0.0
 11
339.17815913700838
 21
190.31691279089051
 31
0.0
  0
LINE
  5
610A
  8
DANMEN
  6
CONTINUOUS
 10
342.91298613700849
 20
258.31689779089049
 30
0.0
 11
395.77935813700839
 21
258.31689779089049
 31
0.0
  0
LINE
  5
610B
  8
DANMEN
  6
CONTINUOUS
 10
410.27938313700838
 20
251.31686779089051
 30
0.0
 11
342.91298613700849
 21
251.31686779089051
 31
0.0
  0
LINE
  5
610C
  8
DANMEN
  6
CONTINUOUS
 10
410.27938313700838
 20
252.31686779089051
 30
0.0
 11
342.91298613700849
 21
252.31686779089051
 31
0.0
  0
LINE
  5
610D
  8
DANMEN
  6
CONTINUOUS
 10
410.27938313700838
 20
247.31686779089051
 30
0.0
 11
342.91298613700849
 21
247.31686779089051
 31
0.0
  0
LINE
  5
610E
  8
DANMEN
  6
CONTINUOUS
 10
410.27938313700838
 20
246.31686779089051
 30
0.0
 11
342.91298613700849
 21
246.31686779089051
 31
0.0
  0
LINE
  5
610F
  8
DANMEN
  6
CONTINUOUS
 10
401.27938913700842
 20
222.31683679089051
 30
0.0
 11
401.27938913700842
 21
228.31686779089051
 31
0.0
  0
LINE
  5
6110
  8
DANMEN
  6
CONTINUOUS
 10
410.27938313700838
 20
252.31686779089051
 30
0.0
 11
410.27938313700838
 21
228.31686779089051
 31
0.0
  0
LINE
  5
6111
  8
DANMEN
  6
CONTINUOUS
 10
410.27938313700838
 20
229.31686779089051
 30
0.0
 11
342.91298613700849
 21
229.31686779089051
 31
0.0
  0
LINE
  5
6112
  8
DANMEN
  6
CONTINUOUS
 10
410.27938313700838
 20
228.31686779089051
 30
0.0
 11
342.91298613700849
 21
228.31686779089051
 31
0.0
  0
LINE
  5
6113
  8
DANMEN
  6
CONTINUOUS
 10
410.27938313700838
 20
234.31686779089051
 30
0.0
 11
342.91298613700849
 21
234.31686779089051
 31
0.0
  0
LINE
  5
6114
  8
DANMEN
  6
CONTINUOUS
 10
342.91298613700849
 20
260.31691179089052
 30
0.0
 11
419.7793971370084
 21
260.31691179089052
 31
0.0
  0
LINE
  5
6115
  8
DANMEN
  6
CONTINUOUS
 10
395.7756421370085
 20
222.31691179089049
 30
0.0
 11
342.91298613700849
 21
222.31691179089049
 31
0.0
  0
LINE
  5
6116
  8
SUNPO
  6
CONTINUOUS
 10
285.77956613700837
 20
170.31691279089051
 30
0.0
 11
329.84109113700839
 21
170.31691279089051
 31
0.0
  0
LINE
  5
6117
  8
SUNPO
  6
CONTINUOUS
 10
395.27961413700842
 20
170.3168277908905
 30
0.0
 11
352.45754513700842
 21
170.3168277908905
 31
0.0
  0
LINE
  5
6118
  8
DANMEN
  6
CONTINUOUS
 10
395.27959213700842
 20
190.31691279089051
 30
0.0
 11
342.91298613700849
 21
190.31691279089051
 31
0.0
  0
ENDSEC
  0
EOF
