  0
SECTION
  2
HEADER
  9
$ACADVER
  1
AC1009
  9
$INSBASE
 10
0.0
 20
0.0
 30
0.0
  9
$EXTMIN
 10
31.524425493660821
 20
28.29526935608077
 30
0.0
  9
$EXTMAX
 10
506.89863881456068
 20
417.87675236086369
 30
0.0
  9
$LIMMIN
 10
0.0
 20
0.0
  9
$LIMMAX
 10
420.0
 20
297.0
  9
$ORTHOMODE
 70
     0
  9
$REGENMODE
 70
     1
  9
$FILLMODE
 70
     1
  9
$QTEXTMODE
 70
     0
  9
$MIRRTEXT
 70
     1
  9
$DRAGMODE
 70
     2
  9
$LTSCALE
 40
1.0
  9
$OSMODE
 70
    39
  9
$ATTMODE
 70
     1
  9
$TEXTSIZE
 40
2.5
  9
$TRACEWID
 40
1.0
  9
$TEXTSTYLE
  7
STANDARD
  9
$CLAYER
  8
0
  9
$CELTYPE
  6
BYLAYER
  9
$CECOLOR
 62
   256
  9
$DIMSCALE
 40
1.0
  9
$DIMASZ
 40
2.5
  9
$DIMEXO
 40
0.625
  9
$DIMDLI
 40
3.75
  9
$DIMRND
 40
0.0
  9
$DIMDLE
 40
0.0
  9
$DIMEXE
 40
1.25
  9
$DIMTP
 40
0.0
  9
$DIMTM
 40
0.0
  9
$DIMTXT
 40
2.5
  9
$DIMCEN
 40
2.5
  9
$DIMTSZ
 40
0.0
  9
$DIMTOL
 70
     0
  9
$DIMLIM
 70
     0
  9
$DIMTIH
 70
     0
  9
$DIMTOH
 70
     0
  9
$DIMSE1
 70
     0
  9
$DIMSE2
 70
     0
  9
$DIMTAD
 70
     1
  9
$DIMZIN
 70
     8
  9
$DIMBLK
  1

  9
$DIMASO
 70
     1
  9
$DIMSHO
 70
     1
  9
$DIMPOST
  1

  9
$DIMAPOST
  1

  9
$DIMALT
 70
     0
  9
$DIMALTD
 70
     3
  9
$DIMALTF
 40
0.03937007874016
  9
$DIMLFAC
 40
1.0
  9
$DIMTOFL
 70
     1
  9
$DIMTVP
 40
0.0
  9
$DIMTIX
 70
     0
  9
$DIMSOXD
 70
     0
  9
$DIMSAH
 70
     0
  9
$DIMBLK1
  1

  9
$DIMBLK2
  1

  9
$DIMSTYLE
  2
ISO-25
  9
$DIMCLRD
 70
     0
  9
$DIMCLRE
 70
     0
  9
$DIMCLRT
 70
     0
  9
$DIMTFAC
 40
1.0
  9
$DIMGAP
 40
0.625
  9
$LUNITS
 70
     2
  9
$LUPREC
 70
     4
  9
$SKETCHINC
 40
1.0
  9
$FILLETRAD
 40
10.0
  9
$AUNITS
 70
     0
  9
$AUPREC
 70
     0
  9
$MENU
  1
.
  9
$ELEVATION
 40
0.0
  9
$PELEVATION
 40
0.0
  9
$THICKNESS
 40
0.0
  9
$LIMCHECK
 70
     0
  9
$BLIPMODE
 70
     0
  9
$CHAMFERA
 40
10.0
  9
$CHAMFERB
 40
10.0
  9
$SKPOLY
 70
     0
  9
$TDCREATE
 40
2456583.6822594791
  9
$TDUPDATE
 40
2456599.5040711798
  9
$TDINDWG
 40
0.0285474421
  9
$TDUSRTIMER
 40
0.0285465394
  9
$USRTIMER
 70
     1
  9
$ANGBASE
 50
0.0
  9
$ANGDIR
 70
     0
  9
$PDMODE
 70
     0
  9
$PDSIZE
 40
0.0
  9
$PLINEWID
 40
0.0
  9
$COORDS
 70
     1
  9
$SPLFRAME
 70
     0
  9
$SPLINETYPE
 70
     6
  9
$SPLINESEGS
 70
     8
  9
$ATTDIA
 70
     0
  9
$ATTREQ
 70
     1
  9
$HANDLING
 70
-16383
  9
$HANDSEED
  5
58D5
  9
$SURFTAB1
 70
     6
  9
$SURFTAB2
 70
     6
  9
$SURFTYPE
 70
     6
  9
$SURFU
 70
     6
  9
$SURFV
 70
     6
  9
$UCSNAME
  2

  9
$UCSORG
 10
0.0
 20
0.0
 30
0.0
  9
$UCSXDIR
 10
1.0
 20
0.0
 30
0.0
  9
$UCSYDIR
 10
0.0
 20
1.0
 30
0.0
  9
$PUCSNAME
  2

  9
$PUCSORG
 10
0.0
 20
0.0
 30
0.0
  9
$PUCSXDIR
 10
1.0
 20
0.0
 30
0.0
  9
$PUCSYDIR
 10
0.0
 20
1.0
 30
0.0
  9
$USERI1
 70
     0
  9
$USERI2
 70
     0
  9
$USERI3
 70
     0
  9
$USERI4
 70
     0
  9
$USERI5
 70
     0
  9
$USERR1
 40
0.0
  9
$USERR2
 40
0.0
  9
$USERR3
 40
0.0
  9
$USERR4
 40
0.0
  9
$USERR5
 40
0.0
  9
$WORLDVIEW
 70
     1
  9
$SHADEDGE
 70
     3
  9
$SHADEDIF
 70
    70
  9
$TILEMODE
 70
     1
  9
$MAXACTVP
 70
    64
  9
$PLIMCHECK
 70
     0
  9
$PEXTMIN
 10
1.0000000000000000E+020
 20
1.0000000000000000E+020
 30
1.0000000000000000E+020
  9
$PEXTMAX
 10
-1.0000000000000000E+020
 20
-1.0000000000000000E+020
 30
-1.0000000000000000E+020
  9
$PLIMMIN
 10
0.0
 20
0.0
  9
$PLIMMAX
 10
420.0
 20
297.0
  9
$UNITMODE
 70
     0
  9
$VISRETAIN
 70
     1
  9
$PLINEGEN
 70
     0
  9
$PSLTSCALE
 70
     1
  0
ENDSEC
  0
SECTION
  2
TABLES
  0
TABLE
  2
VPORT
 70
     2
  0
VPORT
  2
*ACTIVE
 70
     0
 10
0.0
 20
0.0
 11
1.0
 21
1.0
 12
300.34998955172318
 22
263.25384126930112
 13
0.0
 23
0.0
 14
10.0
 24
10.0
 15
10.0
 25
10.0
 16
0.0
 26
0.0
 36
1.0
 17
0.0
 27
0.0
 37
0.0
 40
314.31921850117573
 41
2.1906666666666661
 42
50.0
 43
0.0
 44
0.0
 50
0.0
 51
0.0
 71
     0
 72
   100
 73
     1
 74
     3
 75
     0
 76
     0
 77
     0
 78
     0
  0
ENDTAB
  0
TABLE
  2
LTYPE
 70
     4
  0
LTYPE
  2
CONTINUOUS
 70
     0
  3
Solid line
 72
    65
 73
     0
 40
0.0
  0
LTYPE
  2
DASHED
 70
     0
  3
Dashed __ __ __ __ __ __ __ __ __ __ __ __ __ _
 72
    65
 73
     2
 40
19.049999999999962
 49
12.699999999999999
 49
-6.349999999999997
  0
LTYPE
  2
PHANTOM
 70
     0
  3
Phantom ______  __  __  ______  __  __  ______
 72
    65
 73
     6
 40
63.5
 49
31.75
 49
-6.349999999999997
 49
6.349999999999997
 49
-6.349999999999997
 49
6.349999999999997
 49
-6.349999999999997
  0
LTYPE
  2
CENTER
 70
     0
  3
Center ____ _ ____ _ ____ _ ____ _ ____ _ ____
 72
    65
 73
     4
 40
50.799999999999997
 49
31.75
 49
-6.349999999999997
 49
6.349999999999997
 49
-6.349999999999997
  0
ENDTAB
  0
TABLE
  2
LAYER
 70
     4
  0
LAYER
  2
0
 70
     0
 62
     7
  6
CONTINUOUS
  0
LAYER
  2
DANMEN
 70
     0
 62
     7
  6
CONTINUOUS
  0
LAYER
  2
SUNPO
 70
     0
 62
     1
  6
CONTINUOUS
  0
LAYER
  2
WAKU
 70
     0
 62
     3
  6
CONTINUOUS
  0
ENDTAB
  0
TABLE
  2
STYLE
 70
     5
  0
STYLE
  2
STANDARD
 70
     0
 40
0.0
 41
1.0
 50
0.0
 71
     0
 42
2.5
  3
txt
  4

  0
STYLE
  2
MX_NOTE_STANDARD
 70
     0
 40
0.0
 41
1.0
 50
0.0
 71
     0
 42
2.5
  3
txt.shx
  4
extfont.shx
  0
STYLE
  2
MX_DIMTXSTY_2
 70
     0
 40
0.0
 41
1.1999999999999991
 50
0.0
 71
     0
 42
2.5
  3
txt.shx
  4
extfont.shx
  0
STYLE
  2
MX_DIMTXSTY_3
 70
     0
 40
0.0
 41
1.1000000000000001
 50
0.0
 71
     0
 42
2.5
  3
txt.shx
  4
extfont.shx
  0
STYLE
  2
MX_DIMTXSTY_4
 70
     0
 40
0.0
 41
1.3500000000000001
 50
0.0
 71
     0
 42
2.5
  3
txt.shx
  4
extfont.shx
  0
ENDTAB
  0
TABLE
  2
VIEW
 70
     0
  0
ENDTAB
  0
TABLE
  2
UCS
 70
     0
  0
ENDTAB
  0
TABLE
  2
APPID
 70
     1
  0
APPID
  2
ACAD
 70
     0
  0
ENDTAB
  0
TABLE
  2
DIMSTYLE
 70
     2
  0
DIMSTYLE
  2
ISO-25
 70
     0
  3

  4

  5

  6

  7

 40
1.0
 41
2.5
 42
0.625
 43
3.75
 44
1.25
 45
0.0
 46
0.0
 47
0.0
 48
0.0
140
2.5
141
2.5
142
0.0
143
0.03937007874016
144
1.0
145
0.0
146
1.0
147
0.625
 71
     0
 72
     0
 73
     0
 74
     0
 75
     0
 76
     0
 77
     1
 78
     8
170
     0
171
     3
172
     1
173
     0
174
     0
175
     0
176
     0
177
     0
178
     0
  0
DIMSTYLE
  2
MXDIMSTYLE
 70
     0
  3

  4

  5

  6

  7

 40
1.0
 41
2.5
 42
1.5
 43
3.75
 44
0.0
 45
0.0
 46
0.0
 47
0.0
 48
0.0
140
2.5
141
2.5
142
0.0
143
0.03937
144
1.0
145
0.0
146
1.0
147
0.5
 71
     0
 72
     0
 73
     0
 74
     0
 75
     0
 76
     0
 77
     1
 78
     8
170
     0
171
     4
172
     1
173
     1
174
     0
175
     0
176
     0
177
     0
178
     0
  0
ENDTAB
  0
ENDSEC
  0
SECTION
  2
BLOCKS
  0
BLOCK
  8
0
  2
$MODEL_SPACE
 70
     0
 10
0.0
 20
0.0
 30
0.0
  3
$MODEL_SPACE
  1

  0
ENDBLK
  5
526D
  8
0
  0
BLOCK
 67
     1
  8
0
  2
$PAPER_SPACE
 70
     0
 10
0.0
 20
0.0
 30
0.0
  3
$PAPER_SPACE
  1

  0
ENDBLK
  5
5269
 67
     1
  8
0
  0
BLOCK
  8
0
  6
BYBLOCK
 62
     0
  2
_OPEN30
 70
     2
 10
0.0
 20
0.0
 30
0.0
  3
_OPEN30
  1

  0
LINE
  5
5286
  8
0
  6
BYBLOCK
 62
     0
 10
-1.0
 20
0.267949
 30
0.0
 11
0.0
 21
0.0
 31
0.0
  0
LINE
  5
5287
  8
0
  6
BYBLOCK
 62
     0
 10
0.0
 20
0.0
 30
0.0
 11
-1.0
 21
-0.267949
 31
0.0
  0
LINE
  5
5288
  8
0
  6
BYBLOCK
 62
     0
 10
0.0
 20
0.0
 30
0.0
 11
-1.0
 21
0.0
 31
0.0
  0
ENDBLK
  5
5289
  8
0
  6
BYBLOCK
 62
     0
  0
ENDSEC
  0
SECTION
  2
ENTITIES
  0
LINE
  5
528A
  8
WAKU
  6
CONTINUOUS
 10
494.47477787089508
 20
414.85770574567772
 30
0.0
 11
495.10192687089511
 21
416.5807827456776
 31
0.0
  0
LINE
  5
528B
  8
WAKU
  6
CONTINUOUS
 10
493.76923587089539
 20
412.9192447456777
 30
0.0
 11
494.2395968708953
 21
414.2115517456777
 31
0.0
  0
SOLID
  5
528C
  8
WAKU
  6
CONTINUOUS
 10
497.25577287089561
 20
416.5807827456776
 30
0.0
 11
494.41499387089561
 21
411.73462874567758
 31
0.0
 12
494.70798087089508
 22
409.58078274567771
 32
0.0
 13
494.70798087089508
 23
409.58078274567771
 33
0.0
  0
SOLID
  5
528D
  8
WAKU
  6
CONTINUOUS
 10
494.41499387089561
 20
411.73462874567758
 30
0.0
 11
497.25577287089561
 21
416.5807827456776
 31
0.0
 12
496.17884987089508
 22
416.5807827456776
 32
0.0
 13
496.17884987089508
 23
416.5807827456776
 33
0.0
  0
LINE
  5
528E
  8
WAKU
  6
CONTINUOUS
 10
494.41499387089561
 20
411.73462874567758
 30
0.0
 11
496.17884987089508
 21
416.5807827456776
 31
0.0
  0
LINE
  5
528F
  8
WAKU
  6
CONTINUOUS
 10
494.70798087089508
 20
409.58078274567771
 30
0.0
 11
497.25577287089561
 21
416.5807827456776
 31
0.0
  0
LINE
  5
5290
  8
WAKU
  6
CONTINUOUS
 10
496.17884987089508
 20
416.5807827456776
 30
0.0
 11
497.25577287089561
 21
416.5807827456776
 31
0.0
  0
LINE
  5
5291
  8
WAKU
  6
CONTINUOUS
 10
491.87115787089567
 20
416.5807827456776
 30
0.0
 11
491.2440088708953
 21
414.85770574567772
 31
0.0
  0
LINE
  5
5292
  8
WAKU
  6
CONTINUOUS
 10
491.00882787089557
 20
414.2115517456777
 30
0.0
 11
490.5384668708956
 21
412.9192447456777
 31
0.0
  0
LINE
  5
5293
  8
WAKU
  6
CONTINUOUS
 10
489.3233658708956
 20
409.58078274567771
 30
0.0
 11
490.10730187089513
 21
411.73462874567758
 31
0.0
  0
LINE
  5
5294
  8
WAKU
  6
CONTINUOUS
 10
488.05243587089512
 20
414.96539774567742
 30
0.0
 11
489.1293598708948
 21
414.96539774567742
 31
0.0
  0
SOLID
  5
5295
  8
WAKU
  6
CONTINUOUS
 10
487.16951987089539
 20
409.58078274567771
 30
0.0
 11
486.68054887089568
 21
411.196167745678
 31
0.0
 12
483.44977887089561
 22
411.196167745678
 32
0.0
 13
483.44977887089561
 23
411.196167745678
 33
0.0
  0
LINE
  5
5296
  8
WAKU
  6
CONTINUOUS
 10
483.4497788708951
 20
411.1961677456776
 30
0.0
 11
486.68054887089539
 21
411.1961677456776
 31
0.0
  0
SOLID
  5
5297
  8
WAKU
  6
CONTINUOUS
 10
485.11465387089561
 20
412.81155174567812
 30
0.0
 11
485.89858987089542
 21
414.96539774567827
 31
0.0
 12
484.82166687089563
 22
414.96539774567827
 32
0.0
 13
484.82166687089563
 23
414.96539774567827
 33
0.0
  0
LINE
  5
5298
  8
WAKU
  6
CONTINUOUS
 10
485.43773087089562
 20
412.81155174567772
 30
0.0
 11
486.22166687089509
 21
414.96539774567742
 31
0.0
  0
LINE
  5
5299
  8
WAKU
  6
CONTINUOUS
 10
485.11465387089561
 20
412.81155174567772
 30
0.0
 11
485.89858987089502
 21
414.96539774567742
 31
0.0
  0
LINE
  5
529A
  8
WAKU
  6
CONTINUOUS
 10
485.43773087089562
 20
412.81155174567772
 30
0.0
 11
486.51465387089462
 21
412.81155174567772
 31
0.0
  0
LINE
  5
529B
  8
WAKU
  6
CONTINUOUS
 10
484.82166687089563
 20
414.96539774567742
 30
0.0
 11
485.89858987089502
 21
414.96539774567742
 31
0.0
  0
SOLID
  5
529C
  8
WAKU
  6
CONTINUOUS
 10
486.22166687089538
 20
414.96539774567827
 30
0.0
 11
485.43773087089562
 21
412.81155174567812
 31
0.0
 12
487.29858987089511
 22
414.96539774567827
 32
0.0
 13
487.29858987089511
 23
414.96539774567827
 33
0.0
  0
SOLID
  5
529D
  8
WAKU
  6
CONTINUOUS
 10
487.29858987089511
 20
414.96539774567827
 30
0.0
 11
485.43773087089562
 21
412.81155174567812
 31
0.0
 12
486.51465387089559
 22
412.81155174567812
 32
0.0
 13
486.51465387089559
 23
412.81155174567812
 33
0.0
  0
SOLID
  5
529E
  8
WAKU
  6
CONTINUOUS
 10
484.82166687089563
 20
414.96539774567827
 30
0.0
 11
484.03773087089581
 21
412.81155174567812
 31
0.0
 12
485.11465387089561
 22
412.81155174567812
 32
0.0
 13
485.11465387089561
 23
412.81155174567812
 33
0.0
  0
LINE
  5
529F
  8
WAKU
  6
CONTINUOUS
 10
484.03773087089502
 20
412.81155174567772
 30
0.0
 11
484.82166687089563
 21
414.96539774567742
 31
0.0
  0
LINE
  5
52A0
  8
WAKU
  6
CONTINUOUS
 10
484.03773087089502
 20
412.81155174567772
 30
0.0
 11
485.11465387089561
 21
412.81155174567772
 31
0.0
  0
LINE
  5
52A1
  8
WAKU
  6
CONTINUOUS
 10
486.51465387089462
 20
412.81155174567772
 30
0.0
 11
487.29858987089511
 21
414.96539774567742
 31
0.0
  0
LINE
  5
52A2
  8
WAKU
  6
CONTINUOUS
 10
486.22166687089509
 20
414.96539774567742
 30
0.0
 11
487.29858987089511
 21
414.96539774567742
 31
0.0
  0
SOLID
  5
52A3
  8
WAKU
  6
CONTINUOUS
 10
488.05243587089541
 20
414.96539774567827
 30
0.0
 11
486.68054887089568
 21
411.196167745678
 31
0.0
 12
487.16951987089539
 22
409.58078274567771
 32
0.0
 13
487.16951987089539
 23
409.58078274567771
 33
0.0
  0
LINE
  5
52A4
  8
WAKU
  6
CONTINUOUS
 10
486.68054887089539
 20
411.1961677456776
 30
0.0
 11
488.05243587089512
 21
414.96539774567742
 31
0.0
  0
SOLID
  5
52A5
  8
WAKU
  6
CONTINUOUS
 10
489.12935987089583
 20
414.96539774567827
 30
0.0
 11
488.05243587089541
 21
414.96539774567827
 31
0.0
 12
487.16951987089539
 22
409.58078274567771
 32
0.0
 13
487.16951987089539
 23
409.58078274567771
 33
0.0
  0
LINE
  5
52A6
  8
WAKU
  6
CONTINUOUS
 10
487.16951987089539
 20
409.58078274567771
 30
0.0
 11
489.1293598708948
 21
414.96539774567742
 31
0.0
  0
SOLID
  5
52A7
  8
WAKU
  6
CONTINUOUS
 10
482.17884987089508
 20
416.5807827456776
 30
0.0
 11
481.70848787089562
 21
415.28847474567817
 31
0.0
 12
482.78541087089548
 22
415.28847474567817
 32
0.0
 13
482.78541087089548
 23
415.28847474567817
 33
0.0
  0
SOLID
  5
52A8
  8
WAKU
  6
CONTINUOUS
 10
481.70848787089562
 20
415.28847474567817
 30
0.0
 11
482.19745987089561
 21
413.67309074567771
 31
0.0
 12
483.00515187089542
 22
413.67309074567771
 32
0.0
 13
483.00515187089542
 23
413.67309074567771
 33
0.0
  0
LINE
  5
52A9
  8
WAKU
  6
CONTINUOUS
 10
481.70848787089471
 20
415.28847474567772
 30
0.0
 11
482.17884987089508
 21
416.5807827456776
 31
0.0
  0
LINE
  5
52AA
  8
WAKU
  6
CONTINUOUS
 10
482.19745987089539
 20
413.67309074567771
 30
0.0
 11
483.00515187089508
 21
413.67309074567771
 31
0.0
  0
LINE
  5
52AB
  8
WAKU
  6
CONTINUOUS
 10
479.01618087089508
 20
415.28847474567772
 30
0.0
 11
479.48654187089539
 21
416.5807827456776
 31
0.0
  0
LINE
  5
52AC
  8
WAKU
  6
CONTINUOUS
 10
478.40961887089509
 20
416.5807827456776
 30
0.0
 11
479.48654187089539
 21
416.5807827456776
 31
0.0
  0
SOLID
  5
52AD
  8
WAKU
  6
CONTINUOUS
 10
481.12053587089508
 20
413.67309074567771
 30
0.0
 11
480.41499387089561
 21
411.73462874567758
 31
0.0
 12
480.70798087089571
 22
409.58078274567771
 32
0.0
 13
480.70798087089571
 23
409.58078274567771
 33
0.0
  0
LINE
  5
52AE
  8
WAKU
  6
CONTINUOUS
 10
480.41499387089561
 20
411.73462874567758
 30
0.0
 11
481.12053587089503
 21
413.67309074567771
 31
0.0
  0
LINE
  5
52AF
  8
WAKU
  6
CONTINUOUS
 10
478.42822887089523
 20
413.67309074567771
 30
0.0
 11
481.12053587089503
 21
413.67309074567771
 31
0.0
  0
SOLID
  5
52B0
  8
WAKU
  6
CONTINUOUS
 10
482.19745987089561
 20
413.67309074567771
 30
0.0
 11
481.12053587089508
 21
413.67309074567771
 31
0.0
 12
480.70798087089571
 22
409.58078274567771
 32
0.0
 13
480.70798087089571
 23
409.58078274567771
 33
0.0
  0
LINE
  5
52B1
  8
WAKU
  6
CONTINUOUS
 10
480.70798087089531
 20
409.58078274567771
 30
0.0
 11
482.19745987089539
 21
413.67309074567771
 31
0.0
  0
SOLID
  5
52B2
  8
WAKU
  6
CONTINUOUS
 10
482.19745987089561
 20
413.67309074567771
 30
0.0
 11
481.70848787089562
 21
415.28847474567817
 31
0.0
 12
479.0161808708956
 22
415.28847474567817
 32
0.0
 13
479.0161808708956
 23
415.28847474567817
 33
0.0
  0
LINE
  5
52B3
  8
WAKU
  6
CONTINUOUS
 10
479.01618087089508
 20
415.28847474567772
 30
0.0
 11
481.70848787089471
 21
415.28847474567772
 31
0.0
  0
LINE
  5
52B4
  8
WAKU
  6
CONTINUOUS
 10
476.9593378708953
 20
412.59616774567769
 30
0.0
 11
477.3513058708956
 21
413.67309074567771
 31
0.0
  0
LINE
  5
52B5
  8
WAKU
  6
CONTINUOUS
 10
476.9593378708953
 20
412.59616774567769
 30
0.0
 11
478.0362608708956
 21
412.59616774567769
 31
0.0
  0
LINE
  5
52B6
  8
WAKU
  6
CONTINUOUS
 10
475.64644287089448
 20
409.58078274567771
 30
0.0
 11
476.43037887089508
 21
411.73462874567758
 31
0.0
  0
LINE
  5
52B7
  8
WAKU
  6
CONTINUOUS
 10
476.543612870895
 20
413.67309074567771
 30
0.0
 11
477.3513058708956
 21
413.67309074567771
 31
0.0
  0
LINE
  5
52B8
  8
WAKU
  6
CONTINUOUS
 10
477.1315648708956
 20
415.28847474567772
 30
0.0
 11
477.93925787089472
 21
415.28847474567772
 31
0.0
  0
LINE
  5
52B9
  8
WAKU
  6
CONTINUOUS
 10
476.543612870895
 20
413.67309074567771
 30
0.0
 11
477.1315648708956
 21
415.28847474567772
 31
0.0
  0
LINE
  5
52BA
  8
WAKU
  6
CONTINUOUS
 10
475.62862387089513
 20
414.85770574567772
 30
0.0
 11
476.2557728708951
 21
416.5807827456776
 31
0.0
  0
LINE
  5
52BB
  8
WAKU
  6
CONTINUOUS
 10
473.70798087089503
 20
409.58078274567771
 30
0.0
 11
474.49191687089473
 21
411.73462874567758
 31
0.0
  0
SOLID
  5
52BC
  8
WAKU
  6
CONTINUOUS
 10
477.13156487089577
 20
415.28847474567817
 30
0.0
 11
476.54361287089557
 21
413.67309074567771
 31
0.0
 12
479.0161808708956
 22
415.28847474567817
 32
0.0
 13
479.0161808708956
 23
415.28847474567817
 33
0.0
  0
LINE
  5
52BD
  8
WAKU
  6
CONTINUOUS
 10
477.93925787089472
 20
415.28847474567772
 30
0.0
 11
478.40961887089509
 21
416.5807827456776
 31
0.0
  0
SOLID
  5
52BE
  8
WAKU
  6
CONTINUOUS
 10
479.48654187089539
 20
416.5807827456776
 30
0.0
 11
477.93925787089591
 21
415.28847474567817
 31
0.0
 12
479.0161808708956
 22
415.28847474567817
 32
0.0
 13
479.0161808708956
 23
415.28847474567817
 33
0.0
  0
SOLID
  5
52BF
  8
WAKU
  6
CONTINUOUS
 10
477.93925787089591
 20
415.28847474567817
 30
0.0
 11
479.48654187089539
 21
416.5807827456776
 31
0.0
 12
478.40961887089583
 22
416.5807827456776
 32
0.0
 13
478.40961887089583
 23
416.5807827456776
 33
0.0
  0
SOLID
  5
52C0
  8
WAKU
  6
CONTINUOUS
 10
480.70798087089571
 20
409.58078274567771
 30
0.0
 11
480.41499387089561
 21
411.73462874567758
 31
0.0
 12
476.43037887089599
 22
411.73462874567758
 32
0.0
 13
476.43037887089599
 23
411.73462874567758
 33
0.0
  0
SOLID
  5
52C1
  8
WAKU
  6
CONTINUOUS
 10
476.43037887089599
 20
411.73462874567758
 30
0.0
 11
475.64644287089561
 21
409.58078274567771
 31
0.0
 12
480.70798087089571
 22
409.58078274567771
 32
0.0
 13
480.70798087089571
 23
409.58078274567771
 33
0.0
  0
LINE
  5
52C2
  8
WAKU
  6
CONTINUOUS
 10
475.64644287089448
 20
409.58078274567771
 30
0.0
 11
480.70798087089531
 21
409.58078274567771
 31
0.0
  0
SOLID
  5
52C3
  8
WAKU
  6
CONTINUOUS
 10
476.54361287089557
 20
413.67309074567771
 30
0.0
 11
478.42822887089568
 21
413.67309074567771
 31
0.0
 12
481.12053587089508
 22
413.67309074567771
 32
0.0
 13
481.12053587089508
 23
413.67309074567771
 33
0.0
  0
SOLID
  5
52C4
  8
WAKU
  6
CONTINUOUS
 10
479.0161808708956
 20
415.28847474567817
 30
0.0
 11
476.54361287089557
 21
413.67309074567771
 31
0.0
 12
482.19745987089561
 22
413.67309074567771
 32
0.0
 13
482.19745987089561
 23
413.67309074567771
 33
0.0
  0
SOLID
  5
52C5
  8
WAKU
  6
CONTINUOUS
 10
482.19745987089561
 20
413.67309074567771
 30
0.0
 11
476.54361287089557
 21
413.67309074567771
 31
0.0
 12
481.12053587089508
 22
413.67309074567771
 32
0.0
 13
481.12053587089508
 23
413.67309074567771
 33
0.0
  0
SOLID
  5
52C6
  8
WAKU
  6
CONTINUOUS
 10
477.3513058708956
 20
413.67309074567771
 30
0.0
 11
476.9593378708953
 21
412.5961677456782
 31
0.0
 12
478.42822887089568
 22
413.67309074567771
 32
0.0
 13
478.42822887089568
 23
413.67309074567771
 33
0.0
  0
SOLID
  5
52C7
  8
WAKU
  6
CONTINUOUS
 10
478.42822887089568
 20
413.67309074567771
 30
0.0
 11
476.9593378708953
 21
412.5961677456782
 31
0.0
 12
478.0362608708956
 22
412.5961677456782
 32
0.0
 13
478.0362608708956
 23
412.5961677456782
 33
0.0
  0
LINE
  5
52C8
  8
WAKU
  6
CONTINUOUS
 10
478.0362608708956
 20
412.59616774567769
 30
0.0
 11
478.42822887089523
 21
413.67309074567771
 31
0.0
  0
LINE
  5
52C9
  8
WAKU
  6
CONTINUOUS
 10
476.43037887089508
 20
411.73462874567758
 30
0.0
 11
480.41499387089561
 21
411.73462874567758
 31
0.0
  0
SOLID
  5
52CA
  8
WAKU
  6
CONTINUOUS
 10
476.54361287089557
 20
413.67309074567771
 30
0.0
 11
477.3513058708956
 21
413.67309074567771
 31
0.0
 12
478.42822887089568
 22
413.67309074567771
 32
0.0
 13
478.42822887089568
 23
413.67309074567771
 33
0.0
  0
SOLID
  5
52CB
  8
WAKU
  6
CONTINUOUS
 10
479.0161808708956
 20
415.28847474567817
 30
0.0
 11
477.93925787089591
 21
415.28847474567817
 31
0.0
 12
477.13156487089577
 22
415.28847474567817
 32
0.0
 13
477.13156487089577
 23
415.28847474567817
 33
0.0
  0
SOLID
  5
52CC
  8
WAKU
  6
CONTINUOUS
 10
483.44977887089561
 20
411.196167745678
 30
0.0
 11
482.86182787089592
 21
409.58078274567771
 31
0.0
 12
487.16951987089539
 22
409.58078274567771
 32
0.0
 13
487.16951987089539
 23
409.58078274567771
 33
0.0
  0
LINE
  5
52CD
  8
WAKU
  6
CONTINUOUS
 10
482.86182787089592
 20
409.58078274567771
 30
0.0
 11
487.16951987089539
 21
409.58078274567771
 31
0.0
  0
SOLID
  5
52CE
  8
WAKU
  6
CONTINUOUS
 10
482.78541087089548
 20
415.28847474567817
 30
0.0
 11
481.70848787089562
 21
415.28847474567817
 31
0.0
 12
483.59310387089562
 22
415.28847474567817
 32
0.0
 13
483.59310387089562
 23
415.28847474567817
 33
0.0
  0
SOLID
  5
52CF
  8
WAKU
  6
CONTINUOUS
 10
483.59310387089562
 20
415.28847474567817
 30
0.0
 11
481.70848787089562
 21
415.28847474567817
 31
0.0
 12
483.00515187089542
 22
413.67309074567771
 32
0.0
 13
483.00515187089542
 23
413.67309074567771
 33
0.0
  0
LINE
  5
52D0
  8
WAKU
  6
CONTINUOUS
 10
482.86182787089592
 20
409.58078274567771
 30
0.0
 11
483.4497788708951
 21
411.1961677456776
 31
0.0
  0
SOLID
  5
52D1
  8
WAKU
  6
CONTINUOUS
 10
483.25577287089538
 20
416.5807827456776
 30
0.0
 11
482.17884987089508
 21
416.5807827456776
 31
0.0
 12
482.78541087089548
 22
415.28847474567817
 32
0.0
 13
482.78541087089548
 23
415.28847474567817
 33
0.0
  0
LINE
  5
52D2
  8
WAKU
  6
CONTINUOUS
 10
482.17884987089508
 20
416.5807827456776
 30
0.0
 11
483.25577287089448
 21
416.5807827456776
 31
0.0
  0
LINE
  5
52D3
  8
WAKU
  6
CONTINUOUS
 10
482.78541087089548
 20
415.28847474567772
 30
0.0
 11
483.25577287089448
 21
416.5807827456776
 31
0.0
  0
LINE
  5
52D4
  8
WAKU
  6
CONTINUOUS
 10
482.78541087089548
 20
415.28847474567772
 30
0.0
 11
483.59310387089562
 21
415.28847474567772
 31
0.0
  0
LINE
  5
52D5
  8
WAKU
  6
CONTINUOUS
 10
483.00515187089508
 20
413.67309074567771
 30
0.0
 11
483.59310387089562
 21
415.28847474567772
 31
0.0
  0
LINE
  5
52D6
  8
WAKU
  6
CONTINUOUS
 10
470.2440088708953
 20
414.85770574567772
 30
0.0
 11
470.87115787089562
 21
416.5807827456776
 31
0.0
  0
LINE
  5
52D7
  8
WAKU
  6
CONTINUOUS
 10
468.3233658708956
 20
409.58078274567771
 30
0.0
 11
469.10730187089513
 21
411.73462874567758
 31
0.0
  0
LINE
  5
52D8
  8
WAKU
  6
CONTINUOUS
 10
469.5788498708954
 20
416.5807827456776
 30
0.0
 11
468.95170087089451
 21
414.85770574567772
 31
0.0
  0
LINE
  5
52D9
  8
WAKU
  6
CONTINUOUS
 10
466.78062387089511
 20
414.85770574567772
 30
0.0
 11
468.01097787089509
 21
412.27309074567768
 31
0.0
  0
LINE
  5
52DA
  8
WAKU
  6
CONTINUOUS
 10
467.0310578708951
 20
409.58078274567771
 30
0.0
 11
468.01097787089509
 21
412.27309074567768
 31
0.0
  0
SOLID
  5
52DB
  8
WAKU
  6
CONTINUOUS
 10
465.74943987089569
 20
412.27309074567802
 30
0.0
 11
464.65291787089558
 21
412.219244745678
 31
0.0
 12
464.76951987089518
 22
409.58078274567771
 32
0.0
 13
464.76951987089518
 23
409.58078274567771
 33
0.0
  0
LINE
  5
52DC
  8
WAKU
  6
CONTINUOUS
 10
464.76951987089518
 20
409.58078274567771
 30
0.0
 11
465.74943987089512
 21
412.27309074567768
 31
0.0
  0
SOLID
  5
52DD
  8
WAKU
  6
CONTINUOUS
 10
464.65291787089558
 20
412.219244745678
 30
0.0
 11
463.69259687089561
 21
409.58078274567771
 31
0.0
 12
464.76951987089518
 22
409.58078274567771
 32
0.0
 13
464.76951987089518
 23
409.58078274567771
 33
0.0
  0
LINE
  5
52DE
  8
WAKU
  6
CONTINUOUS
 10
463.69259687089561
 20
409.58078274567771
 30
0.0
 11
464.65291787089512
 21
412.219244745678
 31
0.0
  0
LINE
  5
52DF
  8
WAKU
  6
CONTINUOUS
 10
463.69259687089561
 20
409.58078274567771
 30
0.0
 11
464.76951987089518
 21
409.58078274567771
 31
0.0
  0
SOLID
  5
52E0
  8
WAKU
  6
CONTINUOUS
 10
466.78062387089511
 20
414.857705745678
 30
0.0
 11
465.56708587089571
 21
414.857705745678
 31
0.0
 12
465.74943987089569
 22
412.27309074567802
 32
0.0
 13
465.74943987089569
 23
412.27309074567802
 33
0.0
  0
LINE
  5
52E1
  8
WAKU
  6
CONTINUOUS
 10
465.74943987089512
 20
412.27309074567768
 30
0.0
 11
467.0310578708951
 21
409.58078274567771
 31
0.0
  0
SOLID
  5
52E2
  8
WAKU
  6
CONTINUOUS
 10
466.78062387089511
 20
414.857705745678
 30
0.0
 11
465.74943987089569
 21
412.27309074567802
 31
0.0
 12
468.01097787089537
 22
412.27309074567802
 32
0.0
 13
468.01097787089537
 23
412.27309074567802
 33
0.0
  0
SOLID
  5
52E3
  8
WAKU
  6
CONTINUOUS
 10
465.74943987089569
 20
412.27309074567802
 30
0.0
 11
467.03105787089561
 21
409.58078274567771
 31
0.0
 12
468.01097787089537
 22
412.27309074567802
 32
0.0
 13
468.01097787089537
 23
412.27309074567802
 33
0.0
  0
LINE
  5
52E4
  8
WAKU
  6
CONTINUOUS
 10
463.351700870895
 20
414.85770574567772
 30
0.0
 11
465.56708587089503
 21
414.85770574567772
 31
0.0
  0
LINE
  5
52E5
  8
WAKU
  6
CONTINUOUS
 10
463.97884987089509
 20
416.5807827456776
 30
0.0
 11
463.351700870895
 21
414.85770574567772
 31
0.0
  0
SOLID
  5
52E6
  8
WAKU
  6
CONTINUOUS
 10
463.97884987089571
 20
416.5807827456776
 30
0.0
 11
463.35170087089563
 21
414.857705745678
 31
0.0
 12
466.78062387089511
 22
414.857705745678
 32
0.0
 13
466.78062387089511
 23
414.857705745678
 33
0.0
  0
SOLID
  5
52E7
  8
WAKU
  6
CONTINUOUS
 10
466.78062387089511
 20
414.857705745678
 30
0.0
 11
463.35170087089563
 21
414.857705745678
 31
0.0
 12
465.56708587089571
 22
414.857705745678
 32
0.0
 13
465.56708587089571
 23
414.857705745678
 33
0.0
  0
LINE
  5
52E8
  8
WAKU
  6
CONTINUOUS
 10
466.78062387089511
 20
414.85770574567772
 30
0.0
 11
468.95170087089451
 21
414.85770574567772
 31
0.0
  0
SOLID
  5
52E9
  8
WAKU
  6
CONTINUOUS
 10
469.57884987089562
 20
416.5807827456776
 30
0.0
 11
463.97884987089571
 21
416.5807827456776
 31
0.0
 12
468.95170087089531
 22
414.857705745678
 32
0.0
 13
468.95170087089531
 23
414.857705745678
 33
0.0
  0
SOLID
  5
52EA
  8
WAKU
  6
CONTINUOUS
 10
463.97884987089571
 20
416.5807827456776
 30
0.0
 11
466.78062387089511
 21
414.857705745678
 31
0.0
 12
468.95170087089531
 22
414.857705745678
 32
0.0
 13
468.95170087089531
 23
414.857705745678
 33
0.0
  0
LINE
  5
52EB
  8
WAKU
  6
CONTINUOUS
 10
463.97884987089509
 20
416.5807827456776
 30
0.0
 11
469.5788498708954
 21
416.5807827456776
 31
0.0
  0
LINE
  5
52EC
  8
WAKU
  6
CONTINUOUS
 10
461.4310578708953
 20
409.58078274567771
 30
0.0
 11
462.41097787089518
 21
412.27309074567768
 31
0.0
  0
LINE
  5
52ED
  8
WAKU
  6
CONTINUOUS
 10
459.15061587089508
 20
412.86447574567819
 30
0.0
 11
459.4125048708953
 21
413.36581274567772
 31
0.0
  0
SOLID
  5
52EE
  8
WAKU
  6
CONTINUOUS
 10
460.20659987089562
 20
413.67707174567829
 30
0.0
 11
459.81213387089548
 21
413.6506467456777
 31
0.0
 12
460.12175687089558
 22
413.24691674567799
 32
0.0
 13
460.12175687089558
 23
413.24691674567799
 33
0.0
  0
SOLID
  5
52EF
  8
WAKU
  6
CONTINUOUS
 10
459.81213387089548
 20
413.6506467456777
 30
0.0
 11
459.71648287089539
 21
413.25503074567729
 31
0.0
 12
460.12175687089558
 22
413.24691674567799
 32
0.0
 13
460.12175687089558
 23
413.24691674567799
 33
0.0
  0
LINE
  5
52F0
  8
WAKU
  6
CONTINUOUS
 10
460.12175687089518
 20
413.24691674567748
 30
0.0
 11
460.20659987089562
 21
413.67707174567721
 31
0.0
  0
LINE
  5
52F1
  8
WAKU
  6
CONTINUOUS
 10
459.71648287089539
 20
413.25503074567729
 30
0.0
 11
459.81213387089508
 21
413.6506467456768
 31
0.0
  0
SOLID
  5
52F2
  8
WAKU
  6
CONTINUOUS
 10
459.71648287089539
 20
413.25503074567729
 30
0.0
 11
459.52427987089561
 21
412.80006074567802
 31
0.0
 12
460.12175687089558
 22
413.24691674567799
 32
0.0
 13
460.12175687089558
 23
413.24691674567799
 33
0.0
  0
SOLID
  5
52F3
  8
WAKU
  6
CONTINUOUS
 10
460.12175687089558
 20
413.24691674567799
 30
0.0
 11
459.52427987089561
 21
412.80006074567802
 31
0.0
 12
459.94527587089561
 22
412.7776107456782
 32
0.0
 13
459.94527587089561
 23
412.7776107456782
 33
0.0
  0
LINE
  5
52F4
  8
WAKU
  6
CONTINUOUS
 10
459.6836378708951
 20
412.28639174567741
 30
0.0
 11
459.9452758708947
 21
412.77761074567741
 31
0.0
  0
LINE
  5
52F5
  8
WAKU
  6
CONTINUOUS
 10
459.9452758708947
 20
412.77761074567741
 30
0.0
 11
460.12175687089518
 21
413.24691674567748
 31
0.0
  0
LINE
  5
52F6
  8
WAKU
  6
CONTINUOUS
 10
459.52427987089447
 20
412.80006074567802
 30
0.0
 11
459.71648287089539
 21
413.25503074567729
 31
0.0
  0
LINE
  5
52F7
  8
WAKU
  6
CONTINUOUS
 10
458.94610787089471
 20
411.31052674567741
 30
0.0
 11
459.34645387089557
 21
411.79130274567768
 31
0.0
  0
SOLID
  5
52F8
  8
WAKU
  6
CONTINUOUS
 10
459.52427987089561
 20
412.80006074567802
 30
0.0
 11
459.24082287089561
 21
412.31450074567812
 31
0.0
 12
459.94527587089561
 22
412.7776107456782
 32
0.0
 13
459.94527587089561
 23
412.7776107456782
 33
0.0
  0
SOLID
  5
52F9
  8
WAKU
  6
CONTINUOUS
 10
459.94527587089561
 20
412.7776107456782
 30
0.0
 11
459.24082287089561
 21
412.31450074567812
 31
0.0
 12
459.68363787089561
 22
412.28639174567809
 32
0.0
 13
459.68363787089561
 23
412.28639174567809
 33
0.0
  0
LINE
  5
52FA
  8
WAKU
  6
CONTINUOUS
 10
459.34645387089557
 20
411.79130274567768
 30
0.0
 11
459.6836378708951
 21
412.28639174567741
 31
0.0
  0
LINE
  5
52FB
  8
WAKU
  6
CONTINUOUS
 10
459.24082287089561
 20
412.31450074567812
 30
0.0
 11
459.52427987089447
 21
412.80006074567802
 31
0.0
  0
SOLID
  5
52FC
  8
WAKU
  6
CONTINUOUS
 10
460.09238487089573
 20
414.35874974567793
 30
0.0
 11
459.66058287089538
 21
414.27703174567802
 31
0.0
 12
460.19668787089557
 22
414.05227574567829
 32
0.0
 13
460.19668787089557
 23
414.05227574567829
 33
0.0
  0
SOLID
  5
52FD
  8
WAKU
  6
CONTINUOUS
 10
459.66058287089538
 20
414.27703174567802
 30
0.0
 11
459.75872387089561
 21
414.15870074567817
 31
0.0
 12
460.19668787089557
 22
414.05227574567829
 32
0.0
 13
460.19668787089557
 23
414.05227574567829
 33
0.0
  0
SOLID
  5
52FE
  8
WAKU
  6
CONTINUOUS
 10
459.75872387089561
 20
414.15870074567817
 30
0.0
 11
459.81757487089561
 21
413.95803574567771
 31
0.0
 12
460.19668787089557
 22
414.05227574567829
 32
0.0
 13
460.19668787089557
 23
414.05227574567829
 33
0.0
  0
SOLID
  5
52FF
  8
WAKU
  6
CONTINUOUS
 10
460.19668787089557
 20
414.05227574567829
 30
0.0
 11
459.81757487089561
 21
413.95803574567771
 31
0.0
 12
460.20659987089562
 22
413.67707174567829
 32
0.0
 13
460.20659987089562
 23
413.67707174567829
 33
0.0
  0
SOLID
  5
5300
  8
WAKU
  6
CONTINUOUS
 10
459.81757487089561
 20
413.95803574567771
 30
0.0
 11
459.81213387089548
 21
413.6506467456777
 31
0.0
 12
460.20659987089562
 22
413.67707174567829
 32
0.0
 13
460.20659987089562
 23
413.67707174567829
 33
0.0
  0
LINE
  5
5301
  8
WAKU
  6
CONTINUOUS
 10
460.0923848708947
 20
414.35874974567793
 30
0.0
 11
459.89752187089562
 21
414.5852347456775
 31
0.0
  0
LINE
  5
5302
  8
WAKU
  6
CONTINUOUS
 10
460.20659987089562
 20
413.67707174567721
 30
0.0
 11
460.19668787089512
 21
414.05227574567772
 31
0.0
  0
LINE
  5
5303
  8
WAKU
  6
CONTINUOUS
 10
460.19668787089512
 20
414.05227574567772
 30
0.0
 11
460.0923848708947
 21
414.35874974567793
 31
0.0
  0
LINE
  5
5304
  8
WAKU
  6
CONTINUOUS
 10
459.81213387089508
 20
413.6506467456768
 30
0.0
 11
459.81757487089442
 21
413.95803574567771
 31
0.0
  0
LINE
  5
5305
  8
WAKU
  6
CONTINUOUS
 10
459.81757487089442
 20
413.95803574567771
 30
0.0
 11
459.75872387089441
 21
414.15870074567761
 31
0.0
  0
LINE
  5
5306
  8
WAKU
  6
CONTINUOUS
 10
459.75872387089441
 20
414.15870074567761
 30
0.0
 11
459.66058287089442
 21
414.27703174567802
 31
0.0
  0
LINE
  5
5307
  8
WAKU
  6
CONTINUOUS
 10
459.58469787089513
 20
413.84276974567751
 30
0.0
 11
459.66058287089442
 21
414.27703174567802
 31
0.0
  0
LINE
  5
5308
  8
WAKU
  6
CONTINUOUS
 10
459.89752187089562
 20
414.5852347456775
 30
0.0
 11
459.61925687089439
 21
414.72341274567742
 31
0.0
  0
LINE
  5
5309
  8
WAKU
  6
CONTINUOUS
 10
459.61925687089439
 20
414.72341274567742
 30
0.0
 11
459.48107887089532
 21
415.00167774567768
 31
0.0
  0
LINE
  5
530A
  8
WAKU
  6
CONTINUOUS
 10
459.18784387089522
 20
413.87118474567728
 30
0.0
 11
459.27500187089453
 21
414.37935174567758
 31
0.0
  0
LINE
  5
530B
  8
WAKU
  6
CONTINUOUS
 10
459.17271387089539
 20
414.76472674567748
 30
0.0
 11
459.0549208708951
 21
414.8627117456777
 31
0.0
  0
LINE
  5
530C
  8
WAKU
  6
CONTINUOUS
 10
459.25459387089558
 20
415.1965397456778
 30
0.0
 11
458.94812087089502
 21
415.30084274567793
 31
0.0
  0
SOLID
  5
530D
  8
WAKU
  6
CONTINUOUS
 10
459.05492087089539
 20
414.8627117456777
 30
0.0
 11
459.17271387089539
 21
414.76472674567799
 31
0.0
 12
459.61925687089558
 22
414.72341274567742
 32
0.0
 13
459.61925687089558
 23
414.72341274567742
 33
0.0
  0
SOLID
  5
530E
  8
WAKU
  6
CONTINUOUS
 10
459.89752187089562
 20
414.58523474567818
 30
0.0
 11
459.27500187089538
 21
414.37935174567758
 31
0.0
 12
460.09238487089573
 22
414.35874974567793
 32
0.0
 13
460.09238487089573
 23
414.35874974567793
 33
0.0
  0
SOLID
  5
530F
  8
WAKU
  6
CONTINUOUS
 10
459.27500187089538
 20
414.37935174567758
 30
0.0
 11
459.18784387089562
 21
413.87118474567808
 31
0.0
 12
459.66058287089538
 22
414.27703174567802
 32
0.0
 13
459.66058287089538
 23
414.27703174567802
 33
0.0
  0
SOLID
  5
5310
  8
WAKU
  6
CONTINUOUS
 10
459.27500187089538
 20
414.37935174567758
 30
0.0
 11
459.66058287089538
 21
414.27703174567802
 31
0.0
 12
460.09238487089573
 22
414.35874974567793
 32
0.0
 13
460.09238487089573
 23
414.35874974567793
 33
0.0
  0
SOLID
  5
5311
  8
WAKU
  6
CONTINUOUS
 10
459.66058287089538
 20
414.27703174567802
 30
0.0
 11
459.18784387089562
 21
413.87118474567808
 31
0.0
 12
459.5846978708957
 22
413.84276974567808
 32
0.0
 13
459.5846978708957
 23
413.84276974567808
 33
0.0
  0
LINE
  5
5312
  8
WAKU
  6
CONTINUOUS
 10
459.48107887089532
 20
415.00167774567768
 30
0.0
 11
459.25459387089558
 21
415.1965397456778
 31
0.0
  0
LINE
  5
5313
  8
WAKU
  6
CONTINUOUS
 10
459.4125048708953
 20
413.36581274567772
 30
0.0
 11
459.58469787089513
 21
413.84276974567751
 31
0.0
  0
LINE
  5
5314
  8
WAKU
  6
CONTINUOUS
 10
458.73840887089511
 20
414.68879674567768
 30
0.0
 11
458.26141187089507
 21
414.51655074567719
 31
0.0
  0
LINE
  5
5315
  8
WAKU
  6
CONTINUOUS
 10
458.40103887089452
 20
411.86587174567728
 30
0.0
 11
458.80908887089561
 21
412.35801174567769
 31
0.0
  0
LINE
  5
5316
  8
WAKU
  6
CONTINUOUS
 10
458.47601087089453
 20
412.56270274567771
 30
0.0
 11
458.91712587089501
 21
413.240316745678
 31
0.0
  0
LINE
  5
5317
  8
WAKU
  6
CONTINUOUS
 10
458.85376887089512
 20
414.92168474567728
 30
0.0
 11
458.54662987089472
 21
414.91636374567759
 31
0.0
  0
SOLID
  5
5318
  8
WAKU
  6
CONTINUOUS
 10
458.73840887089563
 20
414.68879674567802
 30
0.0
 11
458.26141187089547
 21
414.5165507456777
 31
0.0
 12
459.89752187089562
 22
414.58523474567818
 32
0.0
 13
459.89752187089562
 23
414.58523474567818
 33
0.0
  0
SOLID
  5
5319
  8
WAKU
  6
CONTINUOUS
 10
459.89752187089562
 20
414.58523474567818
 30
0.0
 11
458.26141187089547
 21
414.5165507456777
 31
0.0
 12
459.27500187089538
 22
414.37935174567758
 32
0.0
 13
459.27500187089538
 23
414.37935174567758
 33
0.0
  0
SOLID
  5
531A
  8
WAKU
  6
CONTINUOUS
 10
459.4125048708953
 20
413.36581274567772
 30
0.0
 11
458.91712587089592
 21
413.240316745678
 31
0.0
 12
459.15061587089508
 22
412.86447574567819
 32
0.0
 13
459.15061587089508
 23
412.86447574567819
 33
0.0
  0
SOLID
  5
531B
  8
WAKU
  6
CONTINUOUS
 10
459.18784387089562
 20
413.87118474567808
 30
0.0
 11
458.91712587089592
 21
413.240316745678
 31
0.0
 12
459.5846978708957
 22
413.84276974567808
 32
0.0
 13
459.5846978708957
 23
413.84276974567808
 33
0.0
  0
SOLID
  5
531C
  8
WAKU
  6
CONTINUOUS
 10
459.5846978708957
 20
413.84276974567808
 30
0.0
 11
458.91712587089592
 21
413.240316745678
 31
0.0
 12
459.4125048708953
 22
413.36581274567772
 32
0.0
 13
459.4125048708953
 23
413.36581274567772
 33
0.0
  0
LINE
  5
531D
  8
WAKU
  6
CONTINUOUS
 10
458.91712587089501
 20
413.240316745678
 30
0.0
 11
459.18784387089522
 21
413.87118474567728
 31
0.0
  0
SOLID
  5
531E
  8
WAKU
  6
CONTINUOUS
 10
458.91712587089592
 20
413.240316745678
 30
0.0
 11
458.47601087089538
 21
412.56270274567771
 31
0.0
 12
459.15061587089508
 22
412.86447574567819
 32
0.0
 13
459.15061587089508
 23
412.86447574567819
 33
0.0
  0
SOLID
  5
531F
  8
WAKU
  6
CONTINUOUS
 10
459.15061587089508
 20
412.86447574567819
 30
0.0
 11
458.47601087089538
 21
412.56270274567771
 31
0.0
 12
458.80908887089561
 22
412.35801174567769
 32
0.0
 13
458.80908887089561
 23
412.35801174567769
 33
0.0
  0
SOLID
  5
5320
  8
WAKU
  6
CONTINUOUS
 10
459.34645387089557
 20
411.79130274567802
 30
0.0
 11
458.45173787089561
 21
411.35601474567773
 31
0.0
 12
458.94610787089562
 22
411.3105267456782
 32
0.0
 13
458.94610787089562
 23
411.3105267456782
 33
0.0
  0
LINE
  5
5321
  8
WAKU
  6
CONTINUOUS
 10
458.45173787089448
 20
411.35601474567773
 30
0.0
 11
459.24082287089561
 21
412.31450074567812
 31
0.0
  0
LINE
  5
5322
  8
WAKU
  6
CONTINUOUS
 10
458.49730487089522
 20
410.8617237456773
 30
0.0
 11
458.94610787089471
 21
411.31052674567741
 31
0.0
  0
LINE
  5
5323
  8
WAKU
  6
CONTINUOUS
 10
458.80908887089561
 20
412.35801174567769
 30
0.0
 11
459.15061587089508
 21
412.86447574567819
 31
0.0
  0
SOLID
  5
5324
  8
WAKU
  6
CONTINUOUS
 10
459.24082287089561
 20
412.31450074567812
 30
0.0
 11
458.45173787089561
 21
411.35601474567773
 31
0.0
 12
459.68363787089561
 22
412.28639174567809
 32
0.0
 13
459.68363787089561
 23
412.28639174567809
 33
0.0
  0
SOLID
  5
5325
  8
WAKU
  6
CONTINUOUS
 10
459.68363787089561
 20
412.28639174567809
 30
0.0
 11
458.45173787089561
 21
411.35601474567773
 31
0.0
 12
459.34645387089557
 22
411.79130274567802
 32
0.0
 13
459.34645387089557
 23
411.79130274567802
 33
0.0
  0
LINE
  5
5326
  8
WAKU
  6
CONTINUOUS
 10
459.27500187089453
 20
414.37935174567758
 30
0.0
 11
458.76651087089539
 21
414.2920227456778
 31
0.0
  0
LINE
  5
5327
  8
WAKU
  6
CONTINUOUS
 10
459.17271387089539
 20
414.76472674567748
 30
0.0
 11
458.73840887089511
 21
414.68879674567768
 31
0.0
  0
LINE
  5
5328
  8
WAKU
  6
CONTINUOUS
 10
459.0549208708951
 20
414.8627117456777
 30
0.0
 11
458.85376887089512
 21
414.92168474567728
 31
0.0
  0
LINE
  5
5329
  8
WAKU
  6
CONTINUOUS
 10
458.94812087089502
 20
415.30084274567793
 30
0.0
 11
458.57291587089509
 21
415.3107547456778
 31
0.0
  0
SOLID
  5
532A
  8
WAKU
  6
CONTINUOUS
 10
459.48107887089571
 20
415.00167774567819
 30
0.0
 11
458.85376887089592
 21
414.92168474567819
 31
0.0
 12
459.61925687089558
 22
414.72341274567742
 32
0.0
 13
459.61925687089558
 23
414.72341274567742
 33
0.0
  0
SOLID
  5
532B
  8
WAKU
  6
CONTINUOUS
 10
458.85376887089592
 20
414.92168474567819
 30
0.0
 11
459.05492087089539
 21
414.8627117456777
 31
0.0
 12
459.61925687089558
 22
414.72341274567742
 32
0.0
 13
459.61925687089558
 23
414.72341274567742
 33
0.0
  0
SOLID
  5
532C
  8
WAKU
  6
CONTINUOUS
 10
459.17271387089539
 20
414.76472674567799
 30
0.0
 11
458.73840887089563
 21
414.68879674567802
 31
0.0
 12
459.61925687089558
 22
414.72341274567742
 32
0.0
 13
459.61925687089558
 23
414.72341274567742
 33
0.0
  0
SOLID
  5
532D
  8
WAKU
  6
CONTINUOUS
 10
459.61925687089558
 20
414.72341274567742
 30
0.0
 11
458.73840887089563
 21
414.68879674567802
 31
0.0
 12
459.89752187089562
 22
414.58523474567818
 32
0.0
 13
459.89752187089562
 23
414.58523474567818
 33
0.0
  0
SOLID
  5
532E
  8
WAKU
  6
CONTINUOUS
 10
455.75756787089563
 20
413.60145974567752
 30
0.0
 11
455.35722187089539
 21
413.12068374567798
 31
0.0
 12
456.25187087089569
 22
413.55589074567808
 32
0.0
 13
456.25187087089569
 23
413.55589074567808
 33
0.0
  0
SOLID
  5
532F
  8
WAKU
  6
CONTINUOUS
 10
456.25187087089569
 20
413.55589074567808
 30
0.0
 11
455.35722187089539
 21
413.12068374567798
 31
0.0
 12
455.46280787089557
 22
412.59735274567771
 32
0.0
 13
455.46280787089557
 23
412.59735274567771
 33
0.0
  0
LINE
  5
5330
  8
WAKU
  6
CONTINUOUS
 10
456.25187087089512
 20
413.55589074567729
 30
0.0
 11
455.46280787089472
 21
412.59735274567771
 31
0.0
  0
SOLID
  5
5331
  8
WAKU
  6
CONTINUOUS
 10
456.30249287089578
 20
413.0459567456781
 30
0.0
 11
455.89444387089588
 21
412.55378274567772
 31
0.0
 12
456.80159987089559
 22
413.00567574567771
 32
0.0
 13
456.80159987089559
 23
413.00567574567771
 33
0.0
  0
SOLID
  5
5332
  8
WAKU
  6
CONTINUOUS
 10
456.80159987089559
 20
413.00567574567771
 30
0.0
 11
455.89444387089588
 21
412.55378274567772
 31
0.0
 12
456.2276688708958
 22
412.34925374567808
 32
0.0
 13
456.2276688708958
 23
412.34925374567808
 33
0.0
  0
SOLID
  5
5333
  8
WAKU
  6
CONTINUOUS
 10
455.89444387089588
 20
412.55378274567772
 30
0.0
 11
455.5529288708957
 21
412.0472917456778
 31
0.0
 12
456.2276688708958
 22
412.34925374567808
 32
0.0
 13
456.2276688708958
 23
412.34925374567808
 33
0.0
  0
SOLID
  5
5334
  8
WAKU
  6
CONTINUOUS
 10
456.2276688708958
 20
412.34925374567808
 30
0.0
 11
455.5529288708957
 21
412.0472917456778
 31
0.0
 12
455.78648487089538
 22
411.67165774567809
 32
0.0
 13
455.78648487089538
 23
411.67165774567809
 33
0.0
  0
SOLID
  5
5335
  8
WAKU
  6
CONTINUOUS
 10
456.56803587089581
 20
410.8911147456771
 30
0.0
 11
455.93716787089568
 21
410.61997774567772
 31
0.0
 12
456.94354287089539
 22
410.65732774567817
 32
0.0
 13
456.94354287089539
 23
410.65732774567817
 33
0.0
  0
SOLID
  5
5336
  8
WAKU
  6
CONTINUOUS
 10
456.94354287089539
 20
410.65732774567817
 30
0.0
 11
455.93716787089568
 21
410.61997774567772
 31
0.0
 12
456.4422008708957
 22
410.3954077456782
 32
0.0
 13
456.4422008708957
 23
410.3954077456782
 33
0.0
  0
SOLID
  5
5337
  8
WAKU
  6
CONTINUOUS
 10
455.93716787089568
 20
410.61997774567772
 30
0.0
 11
455.42868387089538
 21
410.53263874567813
 31
0.0
 12
456.4422008708957
 22
410.3954077456782
 32
0.0
 13
456.4422008708957
 23
410.3954077456782
 33
0.0
  0
SOLID
  5
5338
  8
WAKU
  6
CONTINUOUS
 10
455.42868387089538
 20
410.53263874567813
 30
0.0
 11
454.80615387089563
 21
410.32675174567822
 31
0.0
 12
456.4422008708957
 22
410.3954077456782
 32
0.0
 13
456.4422008708957
 23
410.3954077456782
 33
0.0
  0
SOLID
  5
5339
  8
WAKU
  6
CONTINUOUS
 10
456.4422008708957
 20
410.3954077456782
 30
0.0
 11
454.80615387089563
 21
410.32675174567822
 31
0.0
 12
455.96523087089508
 22
410.22317974567801
 32
0.0
 13
455.96523087089508
 23
410.22317974567801
 33
0.0
  0
SOLID
  5
533A
  8
WAKU
  6
CONTINUOUS
 10
454.80615387089563
 20
410.32675174567822
 30
0.0
 11
455.08441887089589
 21
410.18857374567801
 31
0.0
 12
455.96523087089508
 22
410.22317974567801
 32
0.0
 13
455.96523087089508
 23
410.22317974567801
 33
0.0
  0
SOLID
  5
533B
  8
WAKU
  6
CONTINUOUS
 10
455.96523087089508
 20
410.22317974567801
 30
0.0
 11
455.08441887089589
 21
410.18857374567801
 31
0.0
 12
455.5309498708956
 22
410.14725874567807
 32
0.0
 13
455.5309498708956
 23
410.14725874567807
 33
0.0
  0
SOLID
  5
533C
  8
WAKU
  6
CONTINUOUS
 10
456.15706687089562
 20
409.99564574567802
 30
0.0
 11
455.84994987089573
 21
409.99028074567832
 31
0.0
 12
457.03022087089562
 22
409.86255574567809
 32
0.0
 13
457.03022087089562
 23
409.86255574567809
 33
0.0
  0
SOLID
  5
533D
  8
WAKU
  6
CONTINUOUS
 10
455.84994987089573
 20
409.99028074567832
 30
0.0
 11
455.2225968708957
 21
409.91030874567792
 31
0.0
 12
457.03022087089562
 22
409.86255574567809
 32
0.0
 13
457.03022087089562
 23
409.86255574567809
 33
0.0
  0
SOLID
  5
533E
  8
WAKU
  6
CONTINUOUS
 10
455.2225968708957
 20
409.91030874567792
 30
0.0
 11
455.44908187089561
 21
409.7154467456777
 31
0.0
 12
457.03022087089562
 22
409.86255574567809
 32
0.0
 13
457.03022087089562
 23
409.86255574567809
 33
0.0
  0
SOLID
  5
533F
  8
WAKU
  6
CONTINUOUS
 10
457.03022087089562
 20
409.86255574567809
 30
0.0
 11
455.44908187089561
 21
409.7154467456777
 31
0.0
 12
456.5609148708956
 22
409.68607374567802
 32
0.0
 13
456.5609148708956
 23
409.68607374567802
 33
0.0
  0
SOLID
  5
5340
  8
WAKU
  6
CONTINUOUS
 10
455.44908187089561
 20
409.7154467456777
 30
0.0
 11
455.75555487089559
 21
409.61114374567819
 31
0.0
 12
456.5609148708956
 22
409.68607374567802
 32
0.0
 13
456.5609148708956
 23
409.68607374567802
 33
0.0
  0
SOLID
  5
5341
  8
WAKU
  6
CONTINUOUS
 10
456.5609148708956
 20
409.68607374567802
 30
0.0
 11
455.75555487089559
 21
409.61114374567819
 31
0.0
 12
456.13075987089508
 22
409.60123174567792
 32
0.0
 13
456.13075987089508
 23
409.60123174567792
 33
0.0
  0
LINE
  5
5342
  8
WAKU
  6
CONTINUOUS
 10
455.5309498708956
 20
410.1472587456775
 30
0.0
 11
455.96523087089503
 21
410.22317974567801
 31
0.0
  0
LINE
  5
5343
  8
WAKU
  6
CONTINUOUS
 10
455.75555487089508
 20
409.61114374567819
 30
0.0
 11
456.13075987089508
 21
409.60123174567792
 31
0.0
  0
LINE
  5
5344
  8
WAKU
  6
CONTINUOUS
 10
455.93716787089483
 20
410.61997774567772
 30
0.0
 11
456.56803587089507
 21
410.8911147456771
 31
0.0
  0
LINE
  5
5345
  8
WAKU
  6
CONTINUOUS
 10
455.8499498708951
 20
409.99028074567741
 30
0.0
 11
456.15706687089562
 21
409.99564574567768
 31
0.0
  0
LINE
  5
5346
  8
WAKU
  6
CONTINUOUS
 10
456.22766887089512
 20
412.34925374567808
 30
0.0
 11
455.7864848708947
 21
411.67165774567752
 31
0.0
  0
LINE
  5
5347
  8
WAKU
  6
CONTINUOUS
 10
456.30249287089561
 20
413.04595674567759
 30
0.0
 11
455.89444387089532
 21
412.55378274567772
 31
0.0
  0
SOLID
  5
5348
  8
WAKU
  6
CONTINUOUS
 10
456.20637187089562
 20
414.05026274567751
 30
0.0
 11
455.75756787089563
 21
413.60145974567752
 31
0.0
 12
456.25187087089569
 22
413.55589074567808
 32
0.0
 13
456.25187087089569
 23
413.55589074567808
 33
0.0
  0
LINE
  5
5349
  8
WAKU
  6
CONTINUOUS
 10
456.20637187089523
 20
414.05026274567729
 30
0.0
 11
455.75756787089563
 21
413.60145974567752
 31
0.0
  0
LINE
  5
534A
  8
WAKU
  6
CONTINUOUS
 10
455.75756787089563
 20
413.60145974567752
 30
0.0
 11
455.35722187089539
 21
413.1206837456777
 31
0.0
  0
SOLID
  5
534B
  8
WAKU
  6
CONTINUOUS
 10
455.35722187089539
 20
413.12068374567798
 30
0.0
 11
455.02003787089512
 21
412.62559474567809
 31
0.0
 12
455.46280787089557
 22
412.59735274567771
 32
0.0
 13
455.46280787089557
 23
412.59735274567771
 33
0.0
  0
SOLID
  5
534C
  8
WAKU
  6
CONTINUOUS
 10
455.02003787089512
 20
412.62559474567809
 30
0.0
 11
454.75839987089557
 21
412.13437574567752
 31
0.0
 12
455.46280787089557
 22
412.59735274567771
 32
0.0
 13
455.46280787089557
 23
412.59735274567771
 33
0.0
  0
SOLID
  5
534D
  8
WAKU
  6
CONTINUOUS
 10
455.46280787089557
 20
412.59735274567771
 30
0.0
 11
454.75839987089557
 21
412.13437574567752
 31
0.0
 12
455.17929187089538
 22
412.1118107456781
 32
0.0
 13
455.17929187089538
 23
412.1118107456781
 33
0.0
  0
SOLID
  5
534E
  8
WAKU
  6
CONTINUOUS
 10
455.5529288708957
 20
412.0472917456778
 30
0.0
 11
455.29106587089558
 21
411.54593674567798
 31
0.0
 12
455.78648487089538
 22
411.67165774567809
 32
0.0
 13
455.78648487089538
 23
411.67165774567809
 33
0.0
  0
SOLID
  5
534F
  8
WAKU
  6
CONTINUOUS
 10
455.78648487089538
 20
411.67165774567809
 30
0.0
 11
455.29106587089558
 21
411.54593674567798
 31
0.0
 12
455.51594087089558
 22
411.04075174567799
 32
0.0
 13
455.51594087089558
 23
411.04075174567799
 33
0.0
  0
SOLID
  5
5350
  8
WAKU
  6
CONTINUOUS
 10
455.29106587089558
 20
411.54593674567798
 30
0.0
 11
455.1189118708956
 21
411.06897174567769
 31
0.0
 12
455.51594087089558
 22
411.04075174567799
 32
0.0
 13
455.51594087089558
 23
411.04075174567799
 33
0.0
  0
SOLID
  5
5351
  8
WAKU
  6
CONTINUOUS
 10
455.1189118708956
 20
411.06897174567769
 30
0.0
 11
455.04307787089562
 21
410.63471774567802
 31
0.0
 12
455.51594087089558
 22
411.04075174567799
 32
0.0
 13
455.51594087089558
 23
411.04075174567799
 33
0.0
  0
SOLID
  5
5352
  8
WAKU
  6
CONTINUOUS
 10
455.51594087089558
 20
411.04075174567799
 30
0.0
 11
455.04307787089562
 21
410.63471774567802
 31
0.0
 12
455.42868387089538
 22
410.53263874567813
 32
0.0
 13
455.42868387089538
 23
410.53263874567813
 33
0.0
  0
SOLID
  5
5353
  8
WAKU
  6
CONTINUOUS
 10
455.08441887089589
 20
410.18857374567801
 30
0.0
 11
455.2225968708957
 21
409.91030874567792
 31
0.0
 12
455.5309498708956
 22
410.14725874567807
 32
0.0
 13
455.5309498708956
 23
410.14725874567807
 33
0.0
  0
SOLID
  5
5354
  8
WAKU
  6
CONTINUOUS
 10
455.5309498708956
 20
410.14725874567807
 30
0.0
 11
455.2225968708957
 21
409.91030874567792
 31
0.0
 12
455.6486998708956
 22
410.04935074567823
 32
0.0
 13
455.6486998708956
 23
410.04935074567823
 33
0.0
  0
SOLID
  5
5355
  8
WAKU
  6
CONTINUOUS
 10
455.6486998708956
 20
410.04935074567823
 30
0.0
 11
455.2225968708957
 21
409.91030874567792
 31
0.0
 12
455.84994987089573
 22
409.99028074567832
 32
0.0
 13
455.84994987089573
 23
409.99028074567832
 33
0.0
  0
LINE
  5
5356
  8
WAKU
  6
CONTINUOUS
 10
455.55292887089479
 20
412.0472917456778
 30
0.0
 11
455.29106587089518
 21
411.54593674567769
 31
0.0
  0
LINE
  5
5357
  8
WAKU
  6
CONTINUOUS
 10
454.98726287089562
 20
411.65680374567768
 30
0.0
 11
454.89146887089561
 21
411.26118674567761
 31
0.0
  0
LINE
  5
5358
  8
WAKU
  6
CONTINUOUS
 10
455.7864848708947
 20
411.67165774567752
 30
0.0
 11
455.51594087089558
 21
411.0407517456772
 31
0.0
  0
LINE
  5
5359
  8
WAKU
  6
CONTINUOUS
 10
455.51594087089558
 20
411.0407517456772
 30
0.0
 11
455.4286838708951
 21
410.53263874567801
 31
0.0
  0
LINE
  5
535A
  8
WAKU
  6
CONTINUOUS
 10
454.80615387089563
 20
410.32675174567822
 30
0.0
 11
455.08441887089509
 21
410.18857374567727
 31
0.0
  0
LINE
  5
535B
  8
WAKU
  6
CONTINUOUS
 10
455.08441887089509
 20
410.18857374567727
 30
0.0
 11
455.2225968708953
 21
409.91030874567792
 31
0.0
  0
LINE
  5
535C
  8
WAKU
  6
CONTINUOUS
 10
455.2225968708953
 20
409.91030874567792
 30
0.0
 11
455.44908187089538
 21
409.7154467456777
 31
0.0
  0
LINE
  5
535D
  8
WAKU
  6
CONTINUOUS
 10
455.44908187089538
 20
409.7154467456777
 30
0.0
 11
455.75555487089508
 21
409.61114374567819
 31
0.0
  0
LINE
  5
535E
  8
WAKU
  6
CONTINUOUS
 10
455.29106587089518
 20
411.54593674567769
 30
0.0
 11
455.1189118708956
 21
411.06897174567769
 31
0.0
  0
LINE
  5
535F
  8
WAKU
  6
CONTINUOUS
 10
455.1189118708956
 20
411.06897174567769
 30
0.0
 11
455.04307787089562
 21
410.63471774567751
 31
0.0
  0
LINE
  5
5360
  8
WAKU
  6
CONTINUOUS
 10
455.4286838708951
 20
410.53263874567801
 30
0.0
 11
455.93716787089483
 21
410.61997774567772
 31
0.0
  0
LINE
  5
5361
  8
WAKU
  6
CONTINUOUS
 10
454.89146887089561
 20
411.26118674567761
 30
0.0
 11
454.88613087089448
 21
410.9538697456772
 31
0.0
  0
LINE
  5
5362
  8
WAKU
  6
CONTINUOUS
 10
454.88613087089448
 20
410.9538697456772
 30
0.0
 11
454.94492787089558
 21
410.75321774567772
 31
0.0
  0
LINE
  5
5363
  8
WAKU
  6
CONTINUOUS
 10
454.94492787089558
 20
410.75321774567772
 30
0.0
 11
455.04307787089562
 21
410.63471774567751
 31
0.0
  0
LINE
  5
5364
  8
WAKU
  6
CONTINUOUS
 10
455.5309498708956
 20
410.1472587456775
 30
0.0
 11
455.6486998708956
 21
410.04935074567823
 31
0.0
  0
LINE
  5
5365
  8
WAKU
  6
CONTINUOUS
 10
455.6486998708956
 20
410.04935074567823
 30
0.0
 11
455.8499498708951
 21
409.99028074567741
 31
0.0
  0
LINE
  5
5366
  8
WAKU
  6
CONTINUOUS
 10
455.89444387089532
 20
412.55378274567772
 30
0.0
 11
455.55292887089479
 21
412.0472917456778
 31
0.0
  0
LINE
  5
5367
  8
WAKU
  6
CONTINUOUS
 10
455.46280787089472
 20
412.59735274567771
 30
0.0
 11
455.17929187089447
 21
412.1118107456781
 31
0.0
  0
LINE
  5
5368
  8
WAKU
  6
CONTINUOUS
 10
455.17929187089447
 20
412.1118107456781
 30
0.0
 11
454.98726287089562
 21
411.65680374567768
 31
0.0
  0
LINE
  5
5369
  8
WAKU
  6
CONTINUOUS
 10
455.02003787089478
 20
412.62559474567809
 30
0.0
 11
454.75839987089557
 21
412.13437574567752
 31
0.0
  0
LINE
  5
536A
  8
WAKU
  6
CONTINUOUS
 10
455.35722187089539
 20
413.1206837456777
 30
0.0
 11
455.02003787089478
 21
412.62559474567809
 31
0.0
  0
LINE
  5
536B
  8
WAKU
  6
CONTINUOUS
 10
454.58191887089453
 20
411.66506974567727
 30
0.0
 11
454.49707587089563
 21
411.234914745678
 31
0.0
  0
LINE
  5
536C
  8
WAKU
  6
CONTINUOUS
 10
454.49707587089563
 20
411.234914745678
 30
0.0
 11
454.50698787089539
 21
410.85971074567772
 31
0.0
  0
LINE
  5
536D
  8
WAKU
  6
CONTINUOUS
 10
454.50698787089539
 20
410.85971074567772
 30
0.0
 11
454.61129087089557
 21
410.55323674567768
 31
0.0
  0
SOLID
  5
536E
  8
WAKU
  6
CONTINUOUS
 10
454.75839987089557
 20
412.13437574567752
 30
0.0
 11
454.58191887089538
 21
411.66506974567812
 31
0.0
 12
455.17929187089538
 22
412.1118107456781
 32
0.0
 13
455.17929187089538
 23
412.1118107456781
 33
0.0
  0
SOLID
  5
536F
  8
WAKU
  6
CONTINUOUS
 10
455.17929187089538
 20
412.1118107456781
 30
0.0
 11
454.58191887089538
 21
411.66506974567812
 31
0.0
 12
454.98726287089562
 22
411.65680374567768
 32
0.0
 13
454.98726287089562
 23
411.65680374567768
 33
0.0
  0
SOLID
  5
5370
  8
WAKU
  6
CONTINUOUS
 10
454.58191887089538
 20
411.66506974567812
 30
0.0
 11
454.49707587089512
 21
411.234914745678
 31
0.0
 12
454.98726287089562
 22
411.65680374567768
 32
0.0
 13
454.98726287089562
 23
411.65680374567768
 33
0.0
  0
SOLID
  5
5371
  8
WAKU
  6
CONTINUOUS
 10
454.98726287089562
 20
411.65680374567768
 30
0.0
 11
454.49707587089512
 21
411.234914745678
 31
0.0
 12
454.89146887089561
 22
411.26118674567829
 32
0.0
 13
454.89146887089561
 23
411.26118674567829
 33
0.0
  0
SOLID
  5
5372
  8
WAKU
  6
CONTINUOUS
 10
454.89146887089561
 20
411.26118674567829
 30
0.0
 11
454.49707587089512
 21
411.234914745678
 31
0.0
 12
454.88613087089561
 22
410.95386974567799
 32
0.0
 13
454.88613087089561
 23
410.95386974567799
 33
0.0
  0
SOLID
  5
5373
  8
WAKU
  6
CONTINUOUS
 10
454.49707587089512
 20
411.234914745678
 30
0.0
 11
454.50698787089561
 21
410.85971074567772
 31
0.0
 12
454.88613087089561
 22
410.95386974567799
 32
0.0
 13
454.88613087089561
 23
410.95386974567799
 33
0.0
  0
SOLID
  5
5374
  8
WAKU
  6
CONTINUOUS
 10
454.88613087089561
 20
410.95386974567799
 30
0.0
 11
454.50698787089561
 21
410.85971074567772
 31
0.0
 12
454.94492787089558
 22
410.75321774567772
 32
0.0
 13
454.94492787089558
 23
410.75321774567772
 33
0.0
  0
SOLID
  5
5375
  8
WAKU
  6
CONTINUOUS
 10
454.50698787089561
 20
410.85971074567772
 30
0.0
 11
454.61129087089557
 21
410.55323674567768
 31
0.0
 12
454.94492787089558
 22
410.75321774567772
 32
0.0
 13
454.94492787089558
 23
410.75321774567772
 33
0.0
  0
SOLID
  5
5376
  8
WAKU
  6
CONTINUOUS
 10
454.94492787089558
 20
410.75321774567772
 30
0.0
 11
454.61129087089557
 21
410.55323674567768
 31
0.0
 12
455.04307787089562
 22
410.63471774567802
 32
0.0
 13
455.04307787089562
 23
410.63471774567802
 33
0.0
  0
SOLID
  5
5377
  8
WAKU
  6
CONTINUOUS
 10
455.04307787089562
 20
410.63471774567802
 30
0.0
 11
454.61129087089557
 21
410.55323674567768
 31
0.0
 12
455.42868387089538
 22
410.53263874567813
 32
0.0
 13
455.42868387089538
 23
410.53263874567813
 33
0.0
  0
SOLID
  5
5378
  8
WAKU
  6
CONTINUOUS
 10
454.61129087089557
 20
410.55323674567768
 30
0.0
 11
454.80615387089563
 21
410.32675174567822
 31
0.0
 12
455.42868387089538
 22
410.53263874567813
 32
0.0
 13
455.42868387089538
 23
410.53263874567813
 33
0.0
  0
LINE
  5
5379
  8
WAKU
  6
CONTINUOUS
 10
454.61129087089557
 20
410.55323674567768
 30
0.0
 11
454.80615387089563
 21
410.32675174567822
 31
0.0
  0
LINE
  5
537A
  8
WAKU
  6
CONTINUOUS
 10
454.75839987089557
 20
412.13437574567752
 30
0.0
 11
454.58191887089453
 21
411.66506974567727
 31
0.0
  0
SOLID
  5
537B
  8
WAKU
  6
CONTINUOUS
 10
457.45795387089561
 20
413.57977374567821
 30
0.0
 11
456.76140487089538
 21
413.50491074567771
 31
0.0
 12
456.80159987089559
 22
413.00567574567771
 32
0.0
 13
456.80159987089559
 23
413.00567574567771
 33
0.0
  0
SOLID
  5
537C
  8
WAKU
  6
CONTINUOUS
 10
456.76140487089538
 20
413.50491074567771
 30
0.0
 11
456.30249287089578
 21
413.0459567456781
 31
0.0
 12
456.80159987089559
 22
413.00567574567771
 32
0.0
 13
456.80159987089559
 23
413.00567574567771
 33
0.0
  0
LINE
  5
537D
  8
WAKU
  6
CONTINUOUS
 10
456.76140487089452
 20
413.50491074567771
 30
0.0
 11
456.30249287089561
 21
413.04595674567759
 31
0.0
  0
LINE
  5
537E
  8
WAKU
  6
CONTINUOUS
 10
457.45795387089561
 20
413.57977374567758
 30
0.0
 11
456.80159987089559
 21
413.00567574567771
 31
0.0
  0
SOLID
  5
537F
  8
WAKU
  6
CONTINUOUS
 10
457.94213587089558
 20
411.40695374567758
 30
0.0
 11
457.24571287089589
 21
411.33221374567819
 31
0.0
 12
457.45000487089561
 22
410.99888174567798
 32
0.0
 13
457.45000487089561
 23
410.99888174567798
 33
0.0
  0
SOLID
  5
5380
  8
WAKU
  6
CONTINUOUS
 10
457.24571287089589
 20
411.33221374567819
 30
0.0
 11
456.56803587089581
 21
410.8911147456771
 31
0.0
 12
457.45000487089561
 22
410.99888174567798
 32
0.0
 13
457.45000487089561
 23
410.99888174567798
 33
0.0
  0
SOLID
  5
5381
  8
WAKU
  6
CONTINUOUS
 10
457.45000487089561
 20
410.99888174567798
 30
0.0
 11
456.56803587089581
 21
410.8911147456771
 31
0.0
 12
456.94354287089539
 22
410.65732774567817
 32
0.0
 13
456.94354287089539
 23
410.65732774567817
 33
0.0
  0
SOLID
  5
5382
  8
WAKU
  6
CONTINUOUS
 10
457.49326987089557
 20
410.56689974567769
 30
0.0
 11
457.00765487089518
 21
410.28358074567751
 31
0.0
 12
458.01652887089563
 22
410.46137774567819
 32
0.0
 13
458.01652887089563
 23
410.46137774567819
 33
0.0
  0
SOLID
  5
5383
  8
WAKU
  6
CONTINUOUS
 10
458.01652887089563
 20
410.46137774567819
 30
0.0
 11
457.00765487089518
 21
410.28358074567751
 31
0.0
 12
457.52143887089562
 22
410.1241937456781
 32
0.0
 13
457.52143887089562
 23
410.1241937456781
 33
0.0
  0
SOLID
  5
5384
  8
WAKU
  6
CONTINUOUS
 10
457.00765487089518
 20
410.28358074567751
 30
0.0
 11
456.55275687089471
 21
410.09115074567819
 31
0.0
 12
457.52143887089562
 22
410.1241937456781
 32
0.0
 13
457.52143887089562
 23
410.1241937456781
 33
0.0
  0
SOLID
  5
5385
  8
WAKU
  6
CONTINUOUS
 10
457.52143887089562
 20
410.1241937456781
 30
0.0
 11
456.55275687089471
 21
410.09115074567819
 31
0.0
 12
457.03022087089562
 22
409.86255574567809
 32
0.0
 13
457.03022087089562
 23
409.86255574567809
 33
0.0
  0
LINE
  5
5386
  8
WAKU
  6
CONTINUOUS
 10
457.24571287089429
 20
411.33221374567728
 30
0.0
 11
457.90206887089562
 21
411.90628874567761
 31
0.0
  0
LINE
  5
5387
  8
WAKU
  6
CONTINUOUS
 10
456.94354287089448
 20
410.65732774567772
 30
0.0
 11
457.45000487089561
 21
410.99888174567792
 31
0.0
  0
LINE
  5
5388
  8
WAKU
  6
CONTINUOUS
 10
457.03022087089471
 20
409.86255574567758
 30
0.0
 11
457.52143887089522
 21
410.1241937456777
 31
0.0
  0
LINE
  5
5389
  8
WAKU
  6
CONTINUOUS
 10
457.00765487089518
 20
410.28358074567751
 30
0.0
 11
457.49326987089512
 21
410.56689974567769
 31
0.0
  0
SOLID
  5
538A
  8
WAKU
  6
CONTINUOUS
 10
456.55275687089471
 20
410.09115074567819
 30
0.0
 11
456.15706687089562
 21
409.99564574567802
 31
0.0
 12
457.03022087089562
 22
409.86255574567809
 32
0.0
 13
457.03022087089562
 23
409.86255574567809
 33
0.0
  0
LINE
  5
538B
  8
WAKU
  6
CONTINUOUS
 10
456.15706687089562
 20
409.99564574567768
 30
0.0
 11
456.55275687089562
 21
410.09115074567768
 31
0.0
  0
LINE
  5
538C
  8
WAKU
  6
CONTINUOUS
 10
455.96523087089503
 20
410.22317974567801
 30
0.0
 11
456.4422008708944
 21
410.3954077456782
 31
0.0
  0
LINE
  5
538D
  8
WAKU
  6
CONTINUOUS
 10
456.4422008708944
 20
410.3954077456782
 30
0.0
 11
456.94354287089448
 21
410.65732774567772
 31
0.0
  0
LINE
  5
538E
  8
WAKU
  6
CONTINUOUS
 10
456.5609148708956
 20
409.68607374567802
 30
0.0
 11
457.03022087089471
 21
409.86255574567758
 31
0.0
  0
LINE
  5
538F
  8
WAKU
  6
CONTINUOUS
 10
456.56803587089507
 20
410.8911147456771
 30
0.0
 11
457.24571287089429
 21
411.33221374567728
 31
0.0
  0
LINE
  5
5390
  8
WAKU
  6
CONTINUOUS
 10
456.55275687089562
 20
410.09115074567768
 30
0.0
 11
457.00765487089518
 21
410.28358074567751
 31
0.0
  0
LINE
  5
5391
  8
WAKU
  6
CONTINUOUS
 10
456.13075987089508
 20
409.60123174567792
 30
0.0
 11
456.5609148708956
 21
409.68607374567802
 31
0.0
  0
LINE
  5
5392
  8
WAKU
  6
CONTINUOUS
 10
456.80159987089559
 20
413.00567574567771
 30
0.0
 11
456.22766887089512
 21
412.34925374567808
 31
0.0
  0
LINE
  5
5393
  8
WAKU
  6
CONTINUOUS
 10
457.52143887089522
 20
410.1241937456777
 30
0.0
 11
458.01652887089563
 21
410.46137774567751
 31
0.0
  0
LINE
  5
5394
  8
WAKU
  6
CONTINUOUS
 10
457.45000487089561
 20
410.99888174567792
 30
0.0
 11
457.9421358708953
 21
411.40695374567758
 31
0.0
  0
SOLID
  5
5395
  8
WAKU
  6
CONTINUOUS
 10
458.15091287089592
 20
414.82084774567818
 30
0.0
 11
457.18223687089562
 21
414.78779274567802
 31
0.0
 12
457.69600787089507
 22
414.6283677456783
 32
0.0
 13
457.69600787089507
 23
414.6283677456783
 33
0.0
  0
SOLID
  5
5396
  8
WAKU
  6
CONTINUOUS
 10
457.18223687089562
 20
414.78779274567802
 30
0.0
 11
456.68714687089539
 21
414.4506087456781
 31
0.0
 12
457.69600787089507
 22
414.6283677456783
 32
0.0
 13
457.69600787089507
 23
414.6283677456783
 33
0.0
  0
SOLID
  5
5397
  8
WAKU
  6
CONTINUOUS
 10
457.69600787089507
 20
414.6283677456783
 30
0.0
 11
456.68714687089539
 21
414.4506087456781
 31
0.0
 12
457.21035987089562
 22
414.34506674567808
 32
0.0
 13
457.21035987089562
 23
414.34506674567808
 33
0.0
  0
SOLID
  5
5398
  8
WAKU
  6
CONTINUOUS
 10
457.76004187089558
 20
414.25460374567729
 30
0.0
 11
457.25355587089558
 21
413.91301774567802
 31
0.0
 12
458.13565087089569
 22
414.02083974567768
 32
0.0
 13
458.13565087089569
 23
414.02083974567768
 33
0.0
  0
LINE
  5
5399
  8
WAKU
  6
CONTINUOUS
 10
457.69600787089507
 20
414.62836774567711
 30
0.0
 11
457.21035987089562
 21
414.34506674567729
 31
0.0
  0
LINE
  5
539A
  8
WAKU
  6
CONTINUOUS
 10
457.76004187089518
 20
414.25460374567729
 30
0.0
 11
457.25355587089558
 21
413.91301774567768
 31
0.0
  0
LINE
  5
539B
  8
WAKU
  6
CONTINUOUS
 10
457.67345587089471
 20
415.0494307456778
 30
0.0
 11
457.18223687089471
 21
414.78779274567802
 31
0.0
  0
SOLID
  5
539C
  8
WAKU
  6
CONTINUOUS
 10
458.13565087089569
 20
414.02083974567768
 30
0.0
 11
457.25355587089558
 21
413.91301774567802
 31
0.0
 12
457.45795387089561
 22
413.57977374567821
 32
0.0
 13
457.45795387089561
 23
413.57977374567821
 33
0.0
  0
SOLID
  5
539D
  8
WAKU
  6
CONTINUOUS
 10
457.25355587089558
 20
413.91301774567802
 30
0.0
 11
456.76140487089538
 21
413.50491074567771
 31
0.0
 12
457.45795387089561
 22
413.57977374567821
 32
0.0
 13
457.45795387089561
 23
413.57977374567821
 33
0.0
  0
SOLID
  5
539E
  8
WAKU
  6
CONTINUOUS
 10
456.68714687089539
 20
414.4506087456781
 30
0.0
 11
456.20637187089562
 21
414.05026274567751
 31
0.0
 12
457.21035987089562
 22
414.34506674567808
 32
0.0
 13
457.21035987089562
 23
414.34506674567808
 33
0.0
  0
LINE
  5
539F
  8
WAKU
  6
CONTINUOUS
 10
456.68714687089539
 20
414.4506087456781
 30
0.0
 11
456.20637187089523
 21
414.05026274567729
 31
0.0
  0
LINE
  5
53A0
  8
WAKU
  6
CONTINUOUS
 10
457.18223687089471
 20
414.78779274567802
 30
0.0
 11
456.68714687089539
 21
414.4506087456781
 31
0.0
  0
SOLID
  5
53A1
  8
WAKU
  6
CONTINUOUS
 10
457.21035987089562
 20
414.34506674567808
 30
0.0
 11
456.20637187089562
 21
414.05026274567751
 31
0.0
 12
456.25187087089569
 22
413.55589074567808
 32
0.0
 13
456.25187087089569
 23
413.55589074567808
 33
0.0
  0
LINE
  5
53A2
  8
WAKU
  6
CONTINUOUS
 10
457.25355587089558
 20
413.91301774567768
 30
0.0
 11
456.76140487089452
 21
413.50491074567771
 31
0.0
  0
LINE
  5
53A3
  8
WAKU
  6
CONTINUOUS
 10
457.21035987089562
 20
414.34506674567729
 30
0.0
 11
456.25187087089512
 21
413.55589074567729
 31
0.0
  0
LINE
  5
53A4
  8
WAKU
  6
CONTINUOUS
 10
458.15091287089592
 20
414.82084774567818
 30
0.0
 11
457.69600787089507
 21
414.62836774567711
 31
0.0
  0
LINE
  5
53A5
  8
WAKU
  6
CONTINUOUS
 10
458.14276087089462
 20
415.22591174567771
 30
0.0
 11
457.67345587089471
 21
415.0494307456778
 31
0.0
  0
LINE
  5
53A6
  8
WAKU
  6
CONTINUOUS
 10
458.13565087089512
 20
414.02083974567768
 30
0.0
 11
457.45795387089561
 21
413.57977374567758
 31
0.0
  0
SOLID
  5
53A7
  8
WAKU
  6
CONTINUOUS
 10
457.90206887089562
 20
411.90628874567801
 30
0.0
 11
457.24571287089589
 21
411.33221374567819
 31
0.0
 12
458.40103887089572
 22
411.86587174567808
 32
0.0
 13
458.40103887089572
 23
411.86587174567808
 33
0.0
  0
SOLID
  5
53A8
  8
WAKU
  6
CONTINUOUS
 10
458.40103887089572
 20
411.86587174567808
 30
0.0
 11
457.24571287089589
 21
411.33221374567819
 31
0.0
 12
457.94213587089558
 22
411.40695374567758
 32
0.0
 13
457.94213587089558
 23
411.40695374567758
 33
0.0
  0
SOLID
  5
53A9
  8
WAKU
  6
CONTINUOUS
 10
458.47601087089538
 20
412.56270274567771
 30
0.0
 11
457.90206887089562
 21
411.90628874567801
 31
0.0
 12
458.80908887089561
 22
412.35801174567769
 32
0.0
 13
458.80908887089561
 23
412.35801174567769
 33
0.0
  0
SOLID
  5
53AA
  8
WAKU
  6
CONTINUOUS
 10
458.80908887089561
 20
412.35801174567769
 30
0.0
 11
457.90206887089562
 21
411.90628874567801
 31
0.0
 12
458.40103887089572
 22
411.86587174567808
 32
0.0
 13
458.40103887089572
 23
411.86587174567808
 33
0.0
  0
SOLID
  5
53AB
  8
WAKU
  6
CONTINUOUS
 10
458.49730487089562
 20
410.86172374567798
 30
0.0
 11
457.49326987089557
 21
410.56689974567769
 31
0.0
 12
458.01652887089563
 22
410.46137774567819
 32
0.0
 13
458.01652887089563
 23
410.46137774567819
 33
0.0
  0
LINE
  5
53AC
  8
WAKU
  6
CONTINUOUS
 10
457.9421358708953
 20
411.40695374567758
 30
0.0
 11
458.40103887089452
 21
411.86587174567728
 31
0.0
  0
LINE
  5
53AD
  8
WAKU
  6
CONTINUOUS
 10
457.49326987089512
 20
410.56689974567769
 30
0.0
 11
458.45173787089448
 21
411.35601474567773
 31
0.0
  0
LINE
  5
53AE
  8
WAKU
  6
CONTINUOUS
 10
458.01652887089563
 20
410.46137774567751
 30
0.0
 11
458.49730487089522
 21
410.8617237456773
 31
0.0
  0
LINE
  5
53AF
  8
WAKU
  6
CONTINUOUS
 10
457.90206887089562
 20
411.90628874567761
 30
0.0
 11
458.47601087089453
 21
412.56270274567771
 31
0.0
  0
SOLID
  5
53B0
  8
WAKU
  6
CONTINUOUS
 10
457.67345587089562
 20
415.0494307456778
 30
0.0
 11
457.18223687089562
 21
414.78779274567802
 31
0.0
 12
458.54662987089472
 22
414.9163637456781
 32
0.0
 13
458.54662987089472
 23
414.9163637456781
 33
0.0
  0
SOLID
  5
53B1
  8
WAKU
  6
CONTINUOUS
 10
458.54662987089472
 20
414.9163637456781
 30
0.0
 11
457.18223687089562
 21
414.78779274567802
 31
0.0
 12
458.15091287089592
 22
414.82084774567818
 32
0.0
 13
458.15091287089592
 23
414.82084774567818
 33
0.0
  0
SOLID
  5
53B2
  8
WAKU
  6
CONTINUOUS
 10
457.67345587089562
 20
415.0494307456778
 30
0.0
 11
458.54662987089472
 21
414.9163637456781
 31
0.0
 12
458.85376887089592
 22
414.92168474567819
 32
0.0
 13
458.85376887089592
 23
414.92168474567819
 33
0.0
  0
SOLID
  5
53B3
  8
WAKU
  6
CONTINUOUS
 10
458.76651087089539
 20
414.2920227456782
 30
0.0
 11
457.76004187089558
 21
414.25460374567729
 31
0.0
 12
458.13565087089569
 22
414.02083974567768
 32
0.0
 13
458.13565087089569
 23
414.02083974567768
 33
0.0
  0
LINE
  5
53B4
  8
WAKU
  6
CONTINUOUS
 10
458.76651087089539
 20
414.2920227456778
 30
0.0
 11
458.13565087089512
 21
414.02083974567768
 31
0.0
  0
LINE
  5
53B5
  8
WAKU
  6
CONTINUOUS
 10
458.54662987089472
 20
414.91636374567759
 30
0.0
 11
458.15091287089592
 21
414.82084774567818
 31
0.0
  0
LINE
  5
53B6
  8
WAKU
  6
CONTINUOUS
 10
458.57291587089509
 20
415.3107547456778
 30
0.0
 11
458.14276087089462
 21
415.22591174567771
 31
0.0
  0
LINE
  5
53B7
  8
WAKU
  6
CONTINUOUS
 10
458.26141187089507
 20
414.51655074567719
 30
0.0
 11
457.76004187089518
 21
414.25460374567729
 31
0.0
  0
SOLID
  5
53B8
  8
WAKU
  6
CONTINUOUS
 10
458.45173787089561
 20
411.35601474567773
 30
0.0
 11
457.49326987089557
 21
410.56689974567769
 31
0.0
 12
458.94610787089562
 22
411.3105267456782
 32
0.0
 13
458.94610787089562
 23
411.3105267456782
 33
0.0
  0
SOLID
  5
53B9
  8
WAKU
  6
CONTINUOUS
 10
458.94610787089562
 20
411.3105267456782
 30
0.0
 11
457.49326987089557
 21
410.56689974567769
 31
0.0
 12
458.49730487089562
 22
410.86172374567798
 32
0.0
 13
458.49730487089562
 23
410.86172374567798
 33
0.0
  0
SOLID
  5
53BA
  8
WAKU
  6
CONTINUOUS
 10
458.57291587089588
 20
415.3107547456782
 30
0.0
 11
458.14276087089559
 21
415.22591174567799
 31
0.0
 12
458.94812087089508
 22
415.30084274567798
 32
0.0
 13
458.94812087089508
 23
415.30084274567798
 33
0.0
  0
SOLID
  5
53BB
  8
WAKU
  6
CONTINUOUS
 10
458.94812087089508
 20
415.30084274567798
 30
0.0
 11
458.14276087089559
 21
415.22591174567799
 31
0.0
 12
459.25459387089558
 22
415.19653974567802
 32
0.0
 13
459.25459387089558
 23
415.19653974567802
 33
0.0
  0
SOLID
  5
53BC
  8
WAKU
  6
CONTINUOUS
 10
458.14276087089559
 20
415.22591174567799
 30
0.0
 11
457.67345587089562
 21
415.0494307456778
 31
0.0
 12
459.25459387089558
 22
415.19653974567802
 32
0.0
 13
459.25459387089558
 23
415.19653974567802
 33
0.0
  0
SOLID
  5
53BD
  8
WAKU
  6
CONTINUOUS
 10
458.26141187089547
 20
414.5165507456777
 30
0.0
 11
457.76004187089558
 21
414.25460374567729
 31
0.0
 12
459.27500187089538
 22
414.37935174567758
 32
0.0
 13
459.27500187089538
 23
414.37935174567758
 33
0.0
  0
SOLID
  5
53BE
  8
WAKU
  6
CONTINUOUS
 10
459.27500187089538
 20
414.37935174567758
 30
0.0
 11
457.76004187089558
 21
414.25460374567729
 31
0.0
 12
458.76651087089539
 22
414.2920227456782
 32
0.0
 13
458.76651087089539
 23
414.2920227456782
 33
0.0
  0
SOLID
  5
53BF
  8
WAKU
  6
CONTINUOUS
 10
459.25459387089558
 20
415.19653974567802
 30
0.0
 11
457.67345587089562
 21
415.0494307456778
 31
0.0
 12
459.48107887089571
 22
415.00167774567819
 32
0.0
 13
459.48107887089571
 23
415.00167774567819
 33
0.0
  0
SOLID
  5
53C0
  8
WAKU
  6
CONTINUOUS
 10
457.67345587089562
 20
415.0494307456778
 30
0.0
 11
458.85376887089592
 21
414.92168474567819
 31
0.0
 12
459.48107887089571
 22
415.00167774567819
 32
0.0
 13
459.48107887089571
 23
415.00167774567819
 33
0.0
  0
SOLID
  5
53C1
  8
WAKU
  6
CONTINUOUS
 10
465.56708587089571
 20
414.857705745678
 30
0.0
 11
462.41097787089558
 21
412.27309074567802
 31
0.0
 12
465.74943987089569
 22
412.27309074567802
 32
0.0
 13
465.74943987089569
 23
412.27309074567802
 33
0.0
  0
LINE
  5
53C2
  8
WAKU
  6
CONTINUOUS
 10
465.56708587089503
 20
414.85770574567772
 30
0.0
 11
462.41097787089518
 21
412.27309074567768
 31
0.0
  0
SOLID
  5
53C3
  8
WAKU
  6
CONTINUOUS
 10
465.74943987089569
 20
412.27309074567802
 30
0.0
 11
462.41097787089558
 21
412.27309074567802
 31
0.0
 12
464.65291787089558
 22
412.219244745678
 32
0.0
 13
464.65291787089558
 23
412.219244745678
 33
0.0
  0
SOLID
  5
53C4
  8
WAKU
  6
CONTINUOUS
 10
462.41097787089558
 20
412.27309074567802
 30
0.0
 11
461.4310578708953
 21
409.58078274567771
 31
0.0
 12
464.65291787089558
 22
412.219244745678
 32
0.0
 13
464.65291787089558
 23
412.219244745678
 33
0.0
  0
LINE
  5
53C5
  8
WAKU
  6
CONTINUOUS
 10
464.65291787089512
 20
412.219244745678
 30
0.0
 11
461.4310578708953
 21
409.58078274567771
 31
0.0
  0
LINE
  5
53C6
  8
WAKU
  6
CONTINUOUS
 10
468.3233658708956
 20
409.58078274567771
 30
0.0
 11
473.70798087089503
 21
409.58078274567771
 31
0.0
  0
SOLID
  5
53C7
  8
WAKU
  6
CONTINUOUS
 10
470.87115787089562
 20
416.5807827456776
 30
0.0
 11
470.2440088708953
 21
414.857705745678
 31
0.0
 12
475.62862387089592
 22
414.857705745678
 32
0.0
 13
475.62862387089592
 23
414.857705745678
 33
0.0
  0
SOLID
  5
53C8
  8
WAKU
  6
CONTINUOUS
 10
469.1073018708957
 20
411.73462874567758
 30
0.0
 11
468.3233658708956
 21
409.58078274567771
 31
0.0
 12
474.49191687089569
 22
411.73462874567758
 32
0.0
 13
474.49191687089569
 23
411.73462874567758
 33
0.0
  0
SOLID
  5
53C9
  8
WAKU
  6
CONTINUOUS
 10
474.49191687089569
 20
411.73462874567758
 30
0.0
 11
468.3233658708956
 21
409.58078274567771
 31
0.0
 12
473.70798087089508
 22
409.58078274567771
 32
0.0
 13
473.70798087089508
 23
409.58078274567771
 33
0.0
  0
LINE
  5
53CA
  8
WAKU
  6
CONTINUOUS
 10
469.10730187089513
 20
411.73462874567758
 30
0.0
 11
474.49191687089473
 21
411.73462874567758
 31
0.0
  0
LINE
  5
53CB
  8
WAKU
  6
CONTINUOUS
 10
470.2440088708953
 20
414.85770574567772
 30
0.0
 11
475.62862387089513
 21
414.85770574567772
 31
0.0
  0
SOLID
  5
53CC
  8
WAKU
  6
CONTINUOUS
 10
476.25577287089561
 20
416.5807827456776
 30
0.0
 11
470.87115787089562
 21
416.5807827456776
 31
0.0
 12
475.62862387089592
 22
414.857705745678
 32
0.0
 13
475.62862387089592
 23
414.857705745678
 33
0.0
  0
LINE
  5
53CD
  8
WAKU
  6
CONTINUOUS
 10
470.87115787089562
 20
416.5807827456776
 30
0.0
 11
476.2557728708951
 21
416.5807827456776
 31
0.0
  0
LINE
  5
53CE
  8
WAKU
  6
CONTINUOUS
 10
453.22704887089509
 20
416.5807827456776
 30
0.0
 11
453.22704887089509
 21
412.3030047456777
 31
0.0
  0
SOLID
  5
53CF
  8
WAKU
  6
CONTINUOUS
 10
457.50482587089562
 20
416.5807827456776
 30
0.0
 11
453.22704887089571
 21
416.5807827456776
 31
0.0
 12
453.22704887089571
 22
412.3030047456777
 32
0.0
 13
453.22704887089571
 23
412.3030047456777
 33
0.0
  0
LINE
  5
53D0
  8
WAKU
  6
CONTINUOUS
 10
453.22704887089509
 20
412.3030047456777
 30
0.0
 11
457.50482587089562
 21
416.5807827456776
 31
0.0
  0
LINE
  5
53D1
  8
WAKU
  6
CONTINUOUS
 10
453.22704887089509
 20
416.5807827456776
 30
0.0
 11
457.50482587089562
 21
416.5807827456776
 31
0.0
  0
LINE
  5
53D2
  8
WAKU
  6
CONTINUOUS
 10
490.5384668708956
 20
412.9192447456777
 30
0.0
 11
493.76923587089539
 21
412.9192447456777
 31
0.0
  0
SOLID
  5
53D3
  8
WAKU
  6
CONTINUOUS
 10
491.87115787089567
 20
416.5807827456776
 30
0.0
 11
491.24400887089558
 21
414.857705745678
 31
0.0
 12
494.47477787089508
 22
414.857705745678
 32
0.0
 13
494.47477787089508
 23
414.857705745678
 33
0.0
  0
SOLID
  5
53D4
  8
WAKU
  6
CONTINUOUS
 10
494.23959687089558
 20
414.21155174567798
 30
0.0
 11
491.00882787089557
 21
414.21155174567798
 31
0.0
 12
493.76923587089561
 22
412.91924474567821
 32
0.0
 13
493.76923587089561
 23
412.91924474567821
 33
0.0
  0
SOLID
  5
53D5
  8
WAKU
  6
CONTINUOUS
 10
494.70798087089508
 20
409.58078274567771
 30
0.0
 11
494.41499387089561
 21
411.73462874567758
 31
0.0
 12
490.10730187089558
 22
411.73462874567758
 32
0.0
 13
490.10730187089558
 23
411.73462874567758
 33
0.0
  0
SOLID
  5
53D6
  8
WAKU
  6
CONTINUOUS
 10
490.10730187089558
 20
411.73462874567758
 30
0.0
 11
489.3233658708956
 21
409.58078274567771
 31
0.0
 12
494.70798087089508
 22
409.58078274567771
 32
0.0
 13
494.70798087089508
 23
409.58078274567771
 33
0.0
  0
LINE
  5
53D7
  8
WAKU
  6
CONTINUOUS
 10
494.70798087089508
 20
409.58078274567771
 30
0.0
 11
489.3233658708956
 21
409.58078274567771
 31
0.0
  0
LINE
  5
53D8
  8
WAKU
  6
CONTINUOUS
 10
490.10730187089513
 20
411.73462874567758
 30
0.0
 11
494.41499387089561
 21
411.73462874567758
 31
0.0
  0
LINE
  5
53D9
  8
WAKU
  6
CONTINUOUS
 10
491.2440088708953
 20
414.85770574567772
 30
0.0
 11
494.47477787089508
 21
414.85770574567772
 31
0.0
  0
LINE
  5
53DA
  8
WAKU
  6
CONTINUOUS
 10
491.00882787089557
 20
414.2115517456777
 30
0.0
 11
494.2395968708953
 21
414.2115517456777
 31
0.0
  0
SOLID
  5
53DB
  8
WAKU
  6
CONTINUOUS
 10
494.47477787089508
 20
414.857705745678
 30
0.0
 11
495.10192687089562
 21
416.5807827456776
 31
0.0
 12
491.87115787089567
 22
416.5807827456776
 32
0.0
 13
491.87115787089567
 23
416.5807827456776
 33
0.0
  0
LINE
  5
53DC
  8
WAKU
  6
CONTINUOUS
 10
491.87115787089567
 20
416.5807827456776
 30
0.0
 11
495.10192687089511
 21
416.5807827456776
 31
0.0
  0
SOLID
  5
53DD
  8
WAKU
  6
CONTINUOUS
 10
491.00882787089557
 20
414.21155174567798
 30
0.0
 11
490.5384668708956
 21
412.91924474567821
 31
0.0
 12
493.76923587089561
 22
412.91924474567821
 32
0.0
 13
493.76923587089561
 23
412.91924474567821
 33
0.0
  0
LINE
  5
53DE
  8
WAKU
 10
506.89863881456068
 20
417.8041926488375
 30
0.0
 11
506.89863881456068
 21
28.29526935608077
 31
0.0
  0
TEXT
  5
53DF
  8
WAKU
 10
75.69258251726535
 20
411.41594787396718
 30
0.0
 40
5.0
  1
FIX窓 面付け枠（ガラス溝幅20mm）断面詳細図
  7
MX_NOTE_STANDARD
 11
75.69258251726535
 21
413.9159478739673
 31
0.0
 73
     2
  0
TEXT
  5
53E0
  8
WAKU
 10
36.524425493660559
 20
411.37675236086397
 30
0.0
 40
3.0
  1
Comfort CF
 41
0.8679999999999999
  7
MX_NOTE_STANDARD
 11
36.524425493660559
 21
412.87675236086397
 31
0.0
 73
     2
  0
LINE
  5
53E1
  8
WAKU
 10
31.524425493660821
 20
417.87675236086369
 30
0.0
 11
31.524425493660821
 21
28.367829068107071
 31
0.0
  0
LINE
  5
53E2
  8
WAKU
 10
31.524425493660821
 20
28.367829068107071
 30
0.0
 11
506.89863881456068
 21
28.29526935608077
 31
0.0
  0
LINE
  5
53E3
  8
WAKU
 10
31.524425493660821
 20
407.87675236086397
 30
0.0
 11
506.89863881456068
 21
407.80419264883761
 31
0.0
  0
LINE
  5
53E4
  8
WAKU
 10
31.524425493660821
 20
417.87675236086369
 30
0.0
 11
506.89863881456068
 21
417.8041926488375
 31
0.0
  0
POLYLINE
  5
53E5
  8
SUNPO
  6
BYBLOCK
 66
     1
 10
0.0
 20
0.0
 30
0.0
 70
     1
 40
1.159999999999999
 41
1.159999999999999
  0
VERTEX
  5
5830
  8
SUNPO
  6
BYBLOCK
 10
133.23253196108001
 20
224.1355482999009
 30
0.0
 42
1.0
  0
VERTEX
  5
5831
  8
SUNPO
  6
BYBLOCK
 10
132.94253196108011
 20
224.1355482999009
 30
0.0
 42
1.0
  0
SEQEND
  5
5832
  8
SUNPO
  6
BYBLOCK
  0
POLYLINE
  5
53E9
  8
SUNPO
  6
BYBLOCK
 66
     1
 10
0.0
 20
0.0
 30
0.0
 70
     1
 40
1.159999999999999
 41
1.159999999999999
  0
VERTEX
  5
5833
  8
SUNPO
  6
BYBLOCK
 10
152.9426579610801
 20
224.1355482999009
 30
0.0
 42
1.0
  0
VERTEX
  5
5834
  8
SUNPO
  6
BYBLOCK
 10
153.23265796108001
 20
224.1355482999009
 30
0.0
 42
1.0
  0
SEQEND
  5
5835
  8
SUNPO
  6
BYBLOCK
  0
TEXT
  5
53ED
  8
SUNPO
  6
CONTINUOUS
 10
140.61259496108011
 20
224.6355482999009
 30
0.0
 40
3.0
  1
20
 41
1.1000000000000001
  7
MX_DIMTXSTY_3
  0
POLYLINE
  5
53EE
  8
SUNPO
  6
BYBLOCK
 66
     1
 10
0.0
 20
0.0
 30
0.0
 70
     1
 40
1.159999999999999
 41
1.159999999999999
  0
VERTEX
  5
5836
  8
SUNPO
  6
BYBLOCK
 10
200.94252096107999
 20
224.1355482999009
 30
0.0
 42
1.0
  0
VERTEX
  5
5837
  8
SUNPO
  6
BYBLOCK
 10
201.23252096108001
 20
224.1355482999009
 30
0.0
 42
1.0
  0
SEQEND
  5
5838
  8
SUNPO
  6
BYBLOCK
  0
TEXT
  5
53F2
  8
SUNPO
  6
CONTINUOUS
 10
173.93882396108
 20
224.6355482999009
 30
0.0
 40
3.0
  1
48
  7
MX_NOTE_STANDARD
  0
POLYLINE
  5
53F3
  8
SUNPO
  6
BYBLOCK
 66
     1
 10
0.0
 20
0.0
 30
0.0
 70
     1
 40
1.159999999999999
 41
1.159999999999999
  0
VERTEX
  5
5839
  8
SUNPO
  6
BYBLOCK
 10
111.08752096108
 20
191.63370029990111
 30
0.0
 42
1.0
  0
VERTEX
  5
583A
  8
SUNPO
  6
BYBLOCK
 10
111.08752096108
 20
191.343700299901
 30
0.0
 42
1.0
  0
SEQEND
  5
583B
  8
SUNPO
  6
BYBLOCK
  0
POLYLINE
  5
53F7
  8
SUNPO
  6
BYBLOCK
 66
     1
 10
0.0
 20
0.0
 30
0.0
 70
     1
 40
1.159999999999999
 41
1.159999999999999
  0
VERTEX
  5
583C
  8
SUNPO
  6
BYBLOCK
 10
111.08752096108
 20
196.343700299901
 30
0.0
 42
1.0
  0
VERTEX
  5
583D
  8
SUNPO
  6
BYBLOCK
 10
111.08752096108
 20
196.63370029990111
 30
0.0
 42
1.0
  0
SEQEND
  5
583E
  8
SUNPO
  6
BYBLOCK
  0
TEXT
  5
53FB
  8
SUNPO
  6
CONTINUOUS
 10
110.58752096108
 20
192.98870029990101
 30
0.0
 40
3.0
  1
5
 50
90.0
  7
MX_NOTE_STANDARD
  0
POLYLINE
  5
53FC
  8
SUNPO
  6
BYBLOCK
 66
     1
 10
0.0
 20
0.0
 30
0.0
 70
     1
 40
1.159999999999999
 41
1.159999999999999
  0
VERTEX
  5
583F
  8
SUNPO
  6
BYBLOCK
 10
263.97603096107957
 20
126.6294039354763
 30
0.0
 42
1.0
  0
VERTEX
  5
5840
  8
SUNPO
  6
BYBLOCK
 10
263.68603096108052
 20
126.6294046643257
 30
0.0
 42
1.0
  0
SEQEND
  5
5841
  8
SUNPO
  6
BYBLOCK
  0
TEXT
  5
5400
  8
SUNPO
  6
CONTINUOUS
 10
276.35603146109122
 20
127.12937372490779
 30
0.0
 40
3.0
  1
30
 50
359.99982811266102
 41
1.1000000000000001
  7
MX_DIMTXSTY_3
  0
POLYLINE
  5
5401
  8
SUNPO
  6
BYBLOCK
 66
     1
 10
0.0
 20
0.0
 30
0.0
 70
     1
 40
1.159999999999999
 41
1.159999999999999
  0
VERTEX
  5
5842
  8
SUNPO
  6
BYBLOCK
 10
433.18580396108018
 20
126.6290262239792
 30
0.0
 42
1.0
  0
VERTEX
  5
5843
  8
SUNPO
  6
BYBLOCK
 10
433.47580396107998
 20
126.6290263758228
 30
0.0
 42
1.0
  0
SEQEND
  5
5844
  8
SUNPO
  6
BYBLOCK
  0
TEXT
  5
5405
  8
SUNPO
  6
CONTINUOUS
 10
415.85580446108122
 20
127.1290158249017
 30
0.0
 40
3.0
  1
30
 50
0.0000572957793684
 41
1.1000000000000001
  7
MX_DIMTXSTY_3
  0
POLYLINE
  5
5406
  8
SUNPO
  6
BYBLOCK
 66
     1
 10
0.0
 20
0.0
 30
0.0
 70
     1
 40
1.159999999999999
 41
1.159999999999999
  0
VERTEX
  5
5845
  8
SUNPO
  6
BYBLOCK
 10
428.47579096108001
 20
241.6291002999011
 30
0.0
 42
1.0
  0
VERTEX
  5
5846
  8
SUNPO
  6
BYBLOCK
 10
428.1857909610801
 20
241.6291002999011
 30
0.0
 42
1.0
  0
SEQEND
  5
5847
  8
SUNPO
  6
BYBLOCK
  0
POLYLINE
  5
540A
  8
SUNPO
  6
BYBLOCK
 66
     1
 10
0.0
 20
0.0
 30
0.0
 70
     1
 40
1.159999999999999
 41
1.159999999999999
  0
VERTEX
  5
5848
  8
SUNPO
  6
BYBLOCK
 10
433.18578996108022
 20
241.6291002999011
 30
0.0
 42
1.0
  0
VERTEX
  5
5849
  8
SUNPO
  6
BYBLOCK
 10
433.47578996108001
 20
241.6291002999011
 30
0.0
 42
1.0
  0
SEQEND
  5
584A
  8
SUNPO
  6
BYBLOCK
  0
TEXT
  5
540E
  8
SUNPO
  6
CONTINUOUS
 10
429.8307909610802
 20
242.12910029990101
 30
0.0
 40
3.0
  1
5
  7
MX_NOTE_STANDARD
  0
POLYLINE
  5
540F
  8
SUNPO
  6
BYBLOCK
 66
     1
 10
0.0
 20
0.0
 30
0.0
 70
     1
 40
1.159999999999999
 41
1.159999999999999
  0
VERTEX
  5
584B
  8
SUNPO
  6
BYBLOCK
 10
263.97617796108023
 20
241.6291002999011
 30
0.0
 42
1.0
  0
VERTEX
  5
584C
  8
SUNPO
  6
BYBLOCK
 10
263.68617796107998
 20
241.6291002999011
 30
0.0
 42
1.0
  0
SEQEND
  5
584D
  8
SUNPO
  6
BYBLOCK
  0
POLYLINE
  5
5413
  8
SUNPO
  6
BYBLOCK
 66
     1
 10
0.0
 20
0.0
 30
0.0
 70
     1
 40
1.159999999999999
 41
1.159999999999999
  0
VERTEX
  5
584E
  8
SUNPO
  6
BYBLOCK
 10
268.68617696107998
 20
241.6291002999011
 30
0.0
 42
1.0
  0
VERTEX
  5
584F
  8
SUNPO
  6
BYBLOCK
 10
268.97617696108011
 20
241.6291002999011
 30
0.0
 42
1.0
  0
SEQEND
  5
5850
  8
SUNPO
  6
BYBLOCK
  0
TEXT
  5
5417
  8
SUNPO
  6
CONTINUOUS
 10
265.33117796108019
 20
242.12910029990101
 30
0.0
 40
3.0
  1
5
  7
MX_NOTE_STANDARD
  0
POLYLINE
  5
5418
  8
SUNPO
  6
BYBLOCK
 66
     1
 10
0.0
 20
0.0
 30
0.0
 70
     1
 40
1.159999999999999
 41
1.159999999999999
  0
VERTEX
  5
5851
  8
SUNPO
  6
BYBLOCK
 10
111.0874939610801
 20
298.63350129990118
 30
0.0
 42
1.0
  0
VERTEX
  5
5852
  8
SUNPO
  6
BYBLOCK
 10
111.0874939610801
 20
298.34350129990088
 30
0.0
 42
1.0
  0
SEQEND
  5
5853
  8
SUNPO
  6
BYBLOCK
  0
POLYLINE
  5
541C
  8
SUNPO
  6
BYBLOCK
 66
     1
 10
0.0
 20
0.0
 30
0.0
 70
     1
 40
1.159999999999999
 41
1.159999999999999
  0
VERTEX
  5
5854
  8
SUNPO
  6
BYBLOCK
 10
111.0874939610801
 20
301.34350129990088
 30
0.0
 42
1.0
  0
VERTEX
  5
5855
  8
SUNPO
  6
BYBLOCK
 10
111.0874939610801
 20
301.63350129990113
 30
0.0
 42
1.0
  0
SEQEND
  5
5856
  8
SUNPO
  6
BYBLOCK
  0
TEXT
  5
5420
  8
SUNPO
  6
CONTINUOUS
 10
110.58749396108
 20
298.98850129990092
 30
0.0
 40
3.0
  1
3
 50
90.0
  7
MX_NOTE_STANDARD
  0
POLYLINE
  5
5421
  8
SUNPO
  6
BYBLOCK
 66
     1
 10
0.0
 20
0.0
 30
0.0
 70
     1
 40
1.159999999999999
 41
1.159999999999999
  0
VERTEX
  5
5857
  8
SUNPO
  6
BYBLOCK
 10
111.0874939610801
 20
286.63348729990111
 30
0.0
 42
1.0
  0
VERTEX
  5
5858
  8
SUNPO
  6
BYBLOCK
 10
111.0874939610801
 20
286.34348729990103
 30
0.0
 42
1.0
  0
SEQEND
  5
5859
  8
SUNPO
  6
BYBLOCK
  0
POLYLINE
  5
5425
  8
SUNPO
  6
BYBLOCK
 66
     1
 10
0.0
 20
0.0
 30
0.0
 70
     1
 40
1.159999999999999
 41
1.159999999999999
  0
VERTEX
  5
585A
  8
SUNPO
  6
BYBLOCK
 10
111.0874939610801
 20
298.34350129990088
 30
0.0
 42
1.0
  0
VERTEX
  5
585B
  8
SUNPO
  6
BYBLOCK
 10
111.0874939610801
 20
298.63350129990118
 30
0.0
 42
1.0
  0
SEQEND
  5
585C
  8
SUNPO
  6
BYBLOCK
  0
TEXT
  5
5429
  8
SUNPO
  6
CONTINUOUS
 10
110.58749396108
 20
290.08849429990101
 30
0.0
 40
3.0
  1
12
 50
90.0
 41
1.1999999999999991
  7
MX_DIMTXSTY_2
  0
POLYLINE
  5
542A
  8
SUNPO
  6
BYBLOCK
 66
     1
 10
0.0
 20
0.0
 30
0.0
 70
     1
 40
1.159999999999999
 41
1.159999999999999
  0
VERTEX
  5
585D
  8
SUNPO
  6
BYBLOCK
 10
111.0874939610801
 20
261.63348729990111
 30
0.0
 42
1.0
  0
VERTEX
  5
585E
  8
SUNPO
  6
BYBLOCK
 10
111.0874939610801
 20
261.34348729990108
 30
0.0
 42
1.0
  0
SEQEND
  5
585F
  8
SUNPO
  6
BYBLOCK
  0
POLYLINE
  5
542E
  8
SUNPO
  6
BYBLOCK
 66
     1
 10
0.0
 20
0.0
 30
0.0
 70
     1
 40
1.159999999999999
 41
1.159999999999999
  0
VERTEX
  5
5860
  8
SUNPO
  6
BYBLOCK
 10
111.0874939610801
 20
286.34348729990103
 30
0.0
 42
1.0
  0
VERTEX
  5
5861
  8
SUNPO
  6
BYBLOCK
 10
111.0874939610801
 20
286.63348729990111
 30
0.0
 42
1.0
  0
SEQEND
  5
5862
  8
SUNPO
  6
BYBLOCK
  0
TEXT
  5
5432
  8
SUNPO
  6
CONTINUOUS
 10
110.58749396108
 20
271.48848729990101
 30
0.0
 40
3.0
  1
25
 50
90.0
  7
MX_NOTE_STANDARD
  0
POLYLINE
  5
5433
  8
SUNPO
  6
BYBLOCK
 66
     1
 10
0.0
 20
0.0
 30
0.0
 70
     1
 40
1.159999999999999
 41
1.159999999999999
  0
VERTEX
  5
5863
  8
SUNPO
  6
BYBLOCK
 10
101.08749396108
 20
301.63372329990102
 30
0.0
 42
1.0
  0
VERTEX
  5
5864
  8
SUNPO
  6
BYBLOCK
 10
101.08749396108
 20
301.343723299901
 30
0.0
 42
1.0
  0
SEQEND
  5
5865
  8
SUNPO
  6
BYBLOCK
  0
POLYLINE
  5
5437
  8
SUNPO
  6
BYBLOCK
 66
     1
 10
0.0
 20
0.0
 30
0.0
 70
     1
 40
1.159999999999999
 41
1.159999999999999
  0
VERTEX
  5
5866
  8
SUNPO
  6
BYBLOCK
 10
101.08749396108
 20
306.34371729990102
 30
0.0
 42
1.0
  0
VERTEX
  5
5867
  8
SUNPO
  6
BYBLOCK
 10
101.08749396108
 20
306.63371729990098
 30
0.0
 42
1.0
  0
SEQEND
  5
5868
  8
SUNPO
  6
BYBLOCK
  0
TEXT
  5
543B
  8
SUNPO
  6
CONTINUOUS
 10
100.5874939610801
 20
302.98872029990088
 30
0.0
 40
3.0
  1
5
 50
90.0
  7
MX_NOTE_STANDARD
  0
POLYLINE
  5
543C
  8
SUNPO
  6
BYBLOCK
 66
     1
 10
0.0
 20
0.0
 30
0.0
 70
     1
 40
1.159999999999999
 41
1.159999999999999
  0
VERTEX
  5
5869
  8
SUNPO
  6
BYBLOCK
 10
101.08749396108
 20
306.63371729990098
 30
0.0
 42
1.0
  0
VERTEX
  5
586A
  8
SUNPO
  6
BYBLOCK
 10
101.08749396108
 20
306.34371729990102
 30
0.0
 42
1.0
  0
SEQEND
  5
586B
  8
SUNPO
  6
BYBLOCK
  0
POLYLINE
  5
5440
  8
SUNPO
  6
BYBLOCK
 66
     1
 10
0.0
 20
0.0
 30
0.0
 70
     1
 40
1.159999999999999
 41
1.159999999999999
  0
VERTEX
  5
586C
  8
SUNPO
  6
BYBLOCK
 10
101.08749396108
 20
316.34372329990089
 30
0.0
 42
1.0
  0
VERTEX
  5
586D
  8
SUNPO
  6
BYBLOCK
 10
101.08749396108
 20
316.63372329990102
 30
0.0
 42
1.0
  0
SEQEND
  5
586E
  8
SUNPO
  6
BYBLOCK
  0
TEXT
  5
5444
  8
SUNPO
  6
CONTINUOUS
 10
100.5874939610801
 20
309.12622029990092
 30
0.0
 40
3.0
  1
10
 50
90.0
 41
1.3500000000000001
  7
MX_DIMTXSTY_4
  0
POLYLINE
  5
5445
  8
SUNPO
  6
BYBLOCK
 66
     1
 10
0.0
 20
0.0
 30
0.0
 70
     1
 40
1.159999999999999
 41
1.159999999999999
  0
VERTEX
  5
586F
  8
SUNPO
  6
BYBLOCK
 10
101.0868539610801
 20
146.63355929990101
 30
0.0
 42
1.0
  0
VERTEX
  5
5870
  8
SUNPO
  6
BYBLOCK
 10
101.0868539610801
 20
146.34355929990099
 30
0.0
 42
1.0
  0
SEQEND
  5
5871
  8
SUNPO
  6
BYBLOCK
  0
POLYLINE
  5
5449
  8
SUNPO
  6
BYBLOCK
 66
     1
 10
0.0
 20
0.0
 30
0.0
 70
     1
 40
1.159999999999999
 41
1.159999999999999
  0
VERTEX
  5
5872
  8
SUNPO
  6
BYBLOCK
 10
101.0868539610801
 20
151.34350129990111
 30
0.0
 42
1.0
  0
VERTEX
  5
5873
  8
SUNPO
  6
BYBLOCK
 10
101.0868539610801
 20
151.63350129990101
 30
0.0
 42
1.0
  0
SEQEND
  5
5874
  8
SUNPO
  6
BYBLOCK
  0
TEXT
  5
544D
  8
SUNPO
  6
CONTINUOUS
 10
100.58685396108
 20
147.98853029990099
 30
0.0
 40
3.0
  1
5
 50
90.0
  7
MX_NOTE_STANDARD
  0
POLYLINE
  5
544E
  8
SUNPO
  6
BYBLOCK
 66
     1
 10
0.0
 20
0.0
 30
0.0
 70
     1
 40
1.159999999999999
 41
1.159999999999999
  0
VERTEX
  5
5875
  8
SUNPO
  6
BYBLOCK
 10
101.14935396108
 20
136.6335012999011
 30
0.0
 42
1.0
  0
VERTEX
  5
5876
  8
SUNPO
  6
BYBLOCK
 10
101.14935396108
 20
136.34350129990111
 30
0.0
 42
1.0
  0
SEQEND
  5
5877
  8
SUNPO
  6
BYBLOCK
  0
POLYLINE
  5
5452
  8
SUNPO
  6
BYBLOCK
 66
     1
 10
0.0
 20
0.0
 30
0.0
 70
     1
 40
1.159999999999999
 41
1.159999999999999
  0
VERTEX
  5
5878
  8
SUNPO
  6
BYBLOCK
 10
101.14935396108
 20
146.34355929990099
 30
0.0
 42
1.0
  0
VERTEX
  5
5879
  8
SUNPO
  6
BYBLOCK
 10
101.14935396108
 20
146.63355929990101
 30
0.0
 42
1.0
  0
SEQEND
  5
587A
  8
SUNPO
  6
BYBLOCK
  0
TEXT
  5
5456
  8
SUNPO
  6
CONTINUOUS
 10
100.6493539610801
 20
139.126030299901
 30
0.0
 40
3.0
  1
10
 50
90.0
 41
1.3500000000000001
  7
MX_DIMTXSTY_4
  0
POLYLINE
  5
5457
  8
SUNPO
  6
BYBLOCK
 66
     1
 10
0.0
 20
0.0
 30
0.0
 70
     1
 40
1.159999999999999
 41
1.159999999999999
  0
VERTEX
  5
587B
  8
SUNPO
  6
BYBLOCK
 10
403.47579296108012
 20
241.6291002999011
 30
0.0
 42
1.0
  0
VERTEX
  5
587C
  8
SUNPO
  6
BYBLOCK
 10
403.1857929610801
 20
241.6291002999011
 30
0.0
 42
1.0
  0
SEQEND
  5
587D
  8
SUNPO
  6
BYBLOCK
  0
POLYLINE
  5
545B
  8
SUNPO
  6
BYBLOCK
 66
     1
 10
0.0
 20
0.0
 30
0.0
 70
     1
 40
1.159999999999999
 41
1.159999999999999
  0
VERTEX
  5
587E
  8
SUNPO
  6
BYBLOCK
 10
428.1857929610801
 20
241.6291002999011
 30
0.0
 42
1.0
  0
VERTEX
  5
587F
  8
SUNPO
  6
BYBLOCK
 10
428.47579296108012
 20
241.6291002999011
 30
0.0
 42
1.0
  0
SEQEND
  5
5880
  8
SUNPO
  6
BYBLOCK
  0
TEXT
  5
545F
  8
SUNPO
  6
CONTINUOUS
 10
413.33079296108008
 20
242.12910029990101
 30
0.0
 40
3.0
  1
25
  7
MX_NOTE_STANDARD
  0
POLYLINE
  5
5460
  8
SUNPO
  6
BYBLOCK
 66
     1
 10
0.0
 20
0.0
 30
0.0
 70
     1
 40
1.159999999999999
 41
1.159999999999999
  0
VERTEX
  5
5881
  8
SUNPO
  6
BYBLOCK
 10
101.08749396108
 20
261.63348729990111
 30
0.0
 42
1.0
  0
VERTEX
  5
5882
  8
SUNPO
  6
BYBLOCK
 10
101.08749396108
 20
261.34348729990108
 30
0.0
 42
1.0
  0
SEQEND
  5
5883
  8
SUNPO
  6
BYBLOCK
  0
POLYLINE
  5
5464
  8
SUNPO
  6
BYBLOCK
 66
     1
 10
0.0
 20
0.0
 30
0.0
 70
     1
 40
1.159999999999999
 41
1.159999999999999
  0
VERTEX
  5
5884
  8
SUNPO
  6
BYBLOCK
 10
101.08749396108
 20
301.34350129990088
 30
0.0
 42
1.0
  0
VERTEX
  5
5885
  8
SUNPO
  6
BYBLOCK
 10
101.08749396108
 20
301.63350129990113
 30
0.0
 42
1.0
  0
SEQEND
  5
5886
  8
SUNPO
  6
BYBLOCK
  0
TEXT
  5
5468
  8
SUNPO
  6
CONTINUOUS
 10
100.5874939610801
 20
279.01349429990103
 30
0.0
 40
3.0
  1
40
 50
90.0
 41
1.1000000000000001
  7
MX_DIMTXSTY_3
  0
POLYLINE
  5
5469
  8
SUNPO
  6
BYBLOCK
 66
     1
 10
0.0
 20
0.0
 30
0.0
 70
     1
 40
1.159999999999999
 41
1.159999999999999
  0
VERTEX
  5
5887
  8
SUNPO
  6
BYBLOCK
 10
226.08749496108001
 20
311.34349529990101
 30
0.0
 42
1.0
  0
VERTEX
  5
5888
  8
SUNPO
  6
BYBLOCK
 10
226.08749496108001
 20
311.63349529990103
 30
0.0
 42
1.0
  0
SEQEND
  5
5889
  8
SUNPO
  6
BYBLOCK
  0
TEXT
  5
546D
  8
SUNPO
  6
CONTINUOUS
 10
225.5874949610801
 20
284.01349129990092
 30
0.0
 40
3.0
  1
50
 50
90.0
 41
1.1000000000000001
  7
MX_DIMTXSTY_3
  0
POLYLINE
  5
546E
  8
SUNPO
  6
BYBLOCK
 66
     1
 10
0.0
 20
0.0
 30
0.0
 70
     1
 40
1.159999999999999
 41
1.159999999999999
  0
VERTEX
  5
588A
  8
SUNPO
  6
BYBLOCK
 10
131.23249496108019
 20
224.1355482999009
 30
0.0
 42
1.0
  0
VERTEX
  5
588B
  8
SUNPO
  6
BYBLOCK
 10
130.9424949610802
 20
224.1355482999009
 30
0.0
 42
1.0
  0
SEQEND
  5
588C
  8
SUNPO
  6
BYBLOCK
  0
TEXT
  5
5472
  8
SUNPO
  6
CONTINUOUS
 10
126.5357169610801
 20
224.6355482999009
 30
0.0
 40
3.0
  1
2
  7
MX_NOTE_STANDARD
  0
POLYLINE
  5
5473
  8
SUNPO
  6
BYBLOCK
 66
     1
 10
0.0
 20
0.0
 30
0.0
 70
     1
 40
1.159999999999999
 41
1.159999999999999
  0
VERTEX
  5
588D
  8
SUNPO
  6
BYBLOCK
 10
226.08749496108001
 20
141.6335012999011
 30
0.0
 42
1.0
  0
VERTEX
  5
588E
  8
SUNPO
  6
BYBLOCK
 10
226.08749496108001
 20
141.34350129990111
 30
0.0
 42
1.0
  0
SEQEND
  5
588F
  8
SUNPO
  6
BYBLOCK
  0
TEXT
  5
5477
  8
SUNPO
  6
CONTINUOUS
 10
225.5874949610801
 20
166.48850129990089
 30
0.0
 40
3.0
  1
55
 50
90.0
  7
MX_NOTE_STANDARD
  0
POLYLINE
  5
5478
  8
SUNPO
  6
BYBLOCK
 66
     1
 10
0.0
 20
0.0
 30
0.0
 70
     1
 40
1.159999999999999
 41
1.159999999999999
  0
VERTEX
  5
5890
  8
SUNPO
  6
BYBLOCK
 10
101.086737806343
 20
151.63367929989849
 30
0.0
 42
1.0
  0
VERTEX
  5
5891
  8
SUNPO
  6
BYBLOCK
 10
101.0867361158171
 20
151.3436792999035
 30
0.0
 42
1.0
  0
SEQEND
  5
5892
  8
SUNPO
  6
BYBLOCK
  0
POLYLINE
  5
547C
  8
SUNPO
  6
BYBLOCK
 66
     1
 10
0.0
 20
0.0
 30
0.0
 70
     1
 40
1.159999999999999
 41
1.159999999999999
  0
VERTEX
  5
5893
  8
SUNPO
  6
BYBLOCK
 10
101.0869691158172
 20
191.34371629990341
 30
0.0
 42
1.0
  0
VERTEX
  5
5894
  8
SUNPO
  6
BYBLOCK
 10
101.0869708063431
 20
191.63371629989851
 30
0.0
 42
1.0
  0
SEQEND
  5
5895
  8
SUNPO
  6
BYBLOCK
  0
TEXT
  5
5480
  8
SUNPO
  6
CONTINUOUS
 10
100.586839111053
 20
169.01370029994561
 30
0.0
 40
3.0
  1
40
 50
89.999656225323776
 41
1.1000000000000001
  7
MX_DIMTXSTY_3
  0
POLYLINE
  5
5481
  8
SUNPO
  6
BYBLOCK
 66
     1
 10
0.0
 20
0.0
 30
0.0
 70
     1
 40
1.159999999999999
 41
1.159999999999999
  0
VERTEX
  5
5896
  8
SUNPO
  6
BYBLOCK
 10
111.0874939610801
 20
151.63350129990101
 30
0.0
 42
1.0
  0
VERTEX
  5
5897
  8
SUNPO
  6
BYBLOCK
 10
111.0874939610801
 20
151.34350129990111
 30
0.0
 42
1.0
  0
SEQEND
  5
5898
  8
SUNPO
  6
BYBLOCK
  0
POLYLINE
  5
5485
  8
SUNPO
  6
BYBLOCK
 66
     1
 10
0.0
 20
0.0
 30
0.0
 70
     1
 40
1.159999999999999
 41
1.159999999999999
  0
VERTEX
  5
5899
  8
SUNPO
  6
BYBLOCK
 10
111.0874939610801
 20
154.34350129990111
 30
0.0
 42
1.0
  0
VERTEX
  5
589A
  8
SUNPO
  6
BYBLOCK
 10
111.0874939610801
 20
154.63350129990101
 30
0.0
 42
1.0
  0
SEQEND
  5
589B
  8
SUNPO
  6
BYBLOCK
  0
TEXT
  5
5489
  8
SUNPO
  6
CONTINUOUS
 10
110.58749396108
 20
151.988501299901
 30
0.0
 40
3.0
  1
3
 50
90.0
  7
MX_NOTE_STANDARD
  0
POLYLINE
  5
548A
  8
SUNPO
  6
BYBLOCK
 66
     1
 10
0.0
 20
0.0
 30
0.0
 70
     1
 40
1.159999999999999
 41
1.159999999999999
  0
VERTEX
  5
589C
  8
SUNPO
  6
BYBLOCK
 10
111.0874939610801
 20
191.63350129990101
 30
0.0
 42
1.0
  0
VERTEX
  5
589D
  8
SUNPO
  6
BYBLOCK
 10
111.0874939610801
 20
191.34350129990111
 30
0.0
 42
1.0
  0
SEQEND
  5
589E
  8
SUNPO
  6
BYBLOCK
  0
POLYLINE
  5
548E
  8
SUNPO
  6
BYBLOCK
 66
     1
 10
0.0
 20
0.0
 30
0.0
 70
     1
 40
1.159999999999999
 41
1.159999999999999
  0
VERTEX
  5
589F
  8
SUNPO
  6
BYBLOCK
 10
111.0874939610801
 20
196.34350129990111
 30
0.0
 42
1.0
  0
VERTEX
  5
58A0
  8
SUNPO
  6
BYBLOCK
 10
111.0874939610801
 20
196.63350129990101
 30
0.0
 42
1.0
  0
SEQEND
  5
58A1
  8
SUNPO
  6
BYBLOCK
  0
TEXT
  5
5492
  8
SUNPO
  6
CONTINUOUS
 10
110.58749396108
 20
192.988501299901
 30
0.0
 40
3.0
  1
5
 50
90.0
  7
MX_NOTE_STANDARD
  0
POLYLINE
  5
5493
  8
SUNPO
  6
BYBLOCK
 66
     1
 10
0.0
 20
0.0
 30
0.0
 70
     1
 40
1.159999999999999
 41
1.159999999999999
  0
VERTEX
  5
58A2
  8
SUNPO
  6
BYBLOCK
 10
111.0874939610801
 20
154.63350129990101
 30
0.0
 42
1.0
  0
VERTEX
  5
58A3
  8
SUNPO
  6
BYBLOCK
 10
111.0874939610801
 20
154.34350129990111
 30
0.0
 42
1.0
  0
SEQEND
  5
58A4
  8
SUNPO
  6
BYBLOCK
  0
POLYLINE
  5
5497
  8
SUNPO
  6
BYBLOCK
 66
     1
 10
0.0
 20
0.0
 30
0.0
 70
     1
 40
1.159999999999999
 41
1.159999999999999
  0
VERTEX
  5
58A5
  8
SUNPO
  6
BYBLOCK
 10
111.0874939610801
 20
166.34331829990111
 30
0.0
 42
1.0
  0
VERTEX
  5
58A6
  8
SUNPO
  6
BYBLOCK
 10
111.0874939610801
 20
166.63331829990111
 30
0.0
 42
1.0
  0
SEQEND
  5
58A7
  8
SUNPO
  6
BYBLOCK
  0
TEXT
  5
549B
  8
SUNPO
  6
CONTINUOUS
 10
110.58749396108
 20
158.08841029990089
 30
0.0
 40
3.0
  1
12
 50
90.0
 41
1.1999999999999991
  7
MX_DIMTXSTY_2
  0
POLYLINE
  5
549C
  8
SUNPO
  6
BYBLOCK
 66
     1
 10
0.0
 20
0.0
 30
0.0
 70
     1
 40
1.159999999999999
 41
1.159999999999999
  0
VERTEX
  5
58A8
  8
SUNPO
  6
BYBLOCK
 10
111.0874939610801
 20
166.63331829990111
 30
0.0
 42
1.0
  0
VERTEX
  5
58A9
  8
SUNPO
  6
BYBLOCK
 10
111.0874939610801
 20
166.34331829990111
 30
0.0
 42
1.0
  0
SEQEND
  5
58AA
  8
SUNPO
  6
BYBLOCK
  0
POLYLINE
  5
54A0
  8
SUNPO
  6
BYBLOCK
 66
     1
 10
0.0
 20
0.0
 30
0.0
 70
     1
 40
1.159999999999999
 41
1.159999999999999
  0
VERTEX
  5
58AB
  8
SUNPO
  6
BYBLOCK
 10
111.0874939610801
 20
191.343317299901
 30
0.0
 42
1.0
  0
VERTEX
  5
58AC
  8
SUNPO
  6
BYBLOCK
 10
111.0874939610801
 20
191.63331729990091
 30
0.0
 42
1.0
  0
SEQEND
  5
58AD
  8
SUNPO
  6
BYBLOCK
  0
TEXT
  5
54A4
  8
SUNPO
  6
CONTINUOUS
 10
110.58749396108
 20
176.4883172999011
 30
0.0
 40
3.0
  1
25
 50
90.0
  7
MX_NOTE_STANDARD
  0
POLYLINE
  5
54A5
  8
SUNPO
  6
BYBLOCK
 66
     1
 10
0.0
 20
0.0
 30
0.0
 70
     1
 40
1.159999999999999
 41
1.159999999999999
  0
VERTEX
  5
58AE
  8
SUNPO
  6
BYBLOCK
 10
268.97617696108011
 20
241.6291002999011
 30
0.0
 42
1.0
  0
VERTEX
  5
58AF
  8
SUNPO
  6
BYBLOCK
 10
268.68617696107998
 20
241.6291002999011
 30
0.0
 42
1.0
  0
SEQEND
  5
58B0
  8
SUNPO
  6
BYBLOCK
  0
POLYLINE
  5
54A9
  8
SUNPO
  6
BYBLOCK
 66
     1
 10
0.0
 20
0.0
 30
0.0
 70
     1
 40
1.159999999999999
 41
1.159999999999999
  0
VERTEX
  5
58B1
  8
SUNPO
  6
BYBLOCK
 10
293.68617696107998
 20
241.6291002999011
 30
0.0
 42
1.0
  0
VERTEX
  5
58B2
  8
SUNPO
  6
BYBLOCK
 10
293.97617696108
 20
241.6291002999011
 30
0.0
 42
1.0
  0
SEQEND
  5
58B3
  8
SUNPO
  6
BYBLOCK
  0
TEXT
  5
54AD
  8
SUNPO
  6
CONTINUOUS
 10
279.33882196107999
 20
242.12910029990101
 30
0.0
 40
3.0
  1
25
  7
MX_NOTE_STANDARD
  0
POLYLINE
  5
54AE
  8
SUNPO
  6
BYBLOCK
 66
     1
 10
0.0
 20
0.0
 30
0.0
 70
     1
 40
1.159999999999999
 41
1.159999999999999
  0
VERTEX
  5
58B4
  8
SUNPO
  6
BYBLOCK
 10
339.34562896108002
 20
151.77415729990111
 30
0.0
 42
1.0
  0
VERTEX
  5
58B5
  8
SUNPO
  6
BYBLOCK
 10
339.34562896108002
 20
151.484157299901
 30
0.0
 42
1.0
  0
SEQEND
  5
58B6
  8
SUNPO
  6
BYBLOCK
  0
POLYLINE
  5
54B2
  8
SUNPO
  6
BYBLOCK
 66
     1
 10
0.0
 20
0.0
 30
0.0
 70
     1
 40
1.159999999999999
 41
1.159999999999999
  0
VERTEX
  5
58B7
  8
SUNPO
  6
BYBLOCK
 10
339.34562896108002
 20
221.48415629990089
 30
0.0
 42
1.0
  0
VERTEX
  5
58B8
  8
SUNPO
  6
BYBLOCK
 10
339.34562896108002
 20
221.77415629990111
 30
0.0
 42
1.0
  0
SEQEND
  5
58B9
  8
SUNPO
  6
BYBLOCK
  0
TEXT
  5
54B6
  8
SUNPO
  6
CONTINUOUS
 10
338.84562896108002
 20
184.15415729990099
 30
0.0
 40
3.0
  1
70
 50
90.0
 41
1.1000000000000001
  7
MX_DIMTXSTY_3
  0
POLYLINE
  5
54B7
  8
SUNPO
  6
BYBLOCK
 66
     1
 10
0.0
 20
0.0
 30
0.0
 70
     1
 40
1.159999999999999
 41
1.159999999999999
  0
VERTEX
  5
58BA
  8
SUNPO
  6
BYBLOCK
 10
131.23249496108019
 20
238.43454329990109
 30
0.0
 42
1.0
  0
VERTEX
  5
58BB
  8
SUNPO
  6
BYBLOCK
 10
130.9424949610802
 20
238.43454329990109
 30
0.0
 42
1.0
  0
SEQEND
  5
58BC
  8
SUNPO
  6
BYBLOCK
  0
POLYLINE
  5
54BB
  8
SUNPO
  6
BYBLOCK
 66
     1
 10
0.0
 20
0.0
 30
0.0
 70
     1
 40
1.159999999999999
 41
1.159999999999999
  0
VERTEX
  5
58BD
  8
SUNPO
  6
BYBLOCK
 10
200.94249496108009
 20
238.43454329990109
 30
0.0
 42
1.0
  0
VERTEX
  5
58BE
  8
SUNPO
  6
BYBLOCK
 10
201.23249496108011
 20
238.43454329990109
 30
0.0
 42
1.0
  0
SEQEND
  5
58BF
  8
SUNPO
  6
BYBLOCK
  0
TEXT
  5
54BF
  8
SUNPO
  6
CONTINUOUS
 10
163.6124949610801
 20
238.93454329990101
 30
0.0
 40
3.0
  1
70
 41
1.1000000000000001
  7
MX_DIMTXSTY_3
  0
POLYLINE
  5
54C0
  8
SUNPO
  6
BYBLOCK
 66
     1
 10
0.0
 20
0.0
 30
0.0
 70
     1
 40
1.159999999999999
 41
1.159999999999999
  0
VERTEX
  5
58C0
  8
SUNPO
  6
BYBLOCK
 10
361.05671296108011
 20
221.48415629990089
 30
0.0
 42
1.0
  0
VERTEX
  5
58C1
  8
SUNPO
  6
BYBLOCK
 10
361.05671296108011
 20
221.77415629990111
 30
0.0
 42
1.0
  0
SEQEND
  5
58C2
  8
SUNPO
  6
BYBLOCK
  0
POLYLINE
  5
54C4
  8
SUNPO
  6
BYBLOCK
 66
     1
 10
0.0
 20
0.0
 30
0.0
 70
     1
 40
1.159999999999999
 41
1.159999999999999
  0
VERTEX
  5
58C3
  8
SUNPO
  6
BYBLOCK
 10
361.05671296108011
 20
219.77406129990109
 30
0.0
 42
1.0
  0
VERTEX
  5
58C4
  8
SUNPO
  6
BYBLOCK
 10
361.05671296108011
 20
219.48406129990099
 30
0.0
 42
1.0
  0
SEQEND
  5
58C5
  8
SUNPO
  6
BYBLOCK
  0
TEXT
  5
54C8
  8
SUNPO
  6
CONTINUOUS
 10
360.55671296108
 20
225.6734422999011
 30
0.0
 40
3.0
  1
2
 50
90.0
  7
MX_NOTE_STANDARD
  0
POLYLINE
  5
54C9
  8
SUNPO
  6
BYBLOCK
 66
     1
 10
0.0
 20
0.0
 30
0.0
 70
     1
 40
1.159999999999999
 41
1.159999999999999
  0
VERTEX
  5
58C6
  8
SUNPO
  6
BYBLOCK
 10
361.05671296108011
 20
199.77415529990091
 30
0.0
 42
1.0
  0
VERTEX
  5
58C7
  8
SUNPO
  6
BYBLOCK
 10
361.05671296108011
 20
199.484155299901
 30
0.0
 42
1.0
  0
SEQEND
  5
58C8
  8
SUNPO
  6
BYBLOCK
  0
POLYLINE
  5
54CD
  8
SUNPO
  6
BYBLOCK
 66
     1
 10
0.0
 20
0.0
 30
0.0
 70
     1
 40
1.159999999999999
 41
1.159999999999999
  0
VERTEX
  5
58C9
  8
SUNPO
  6
BYBLOCK
 10
361.05671296108011
 20
219.48406129990099
 30
0.0
 42
1.0
  0
VERTEX
  5
58CA
  8
SUNPO
  6
BYBLOCK
 10
361.05671296108011
 20
219.77406129990109
 30
0.0
 42
1.0
  0
SEQEND
  5
58CB
  8
SUNPO
  6
BYBLOCK
  0
TEXT
  5
54D1
  8
SUNPO
  6
CONTINUOUS
 10
360.55671296108
 20
207.15410829990111
 30
0.0
 40
3.0
  1
20
 50
90.0
 41
1.1000000000000001
  7
MX_DIMTXSTY_3
  0
POLYLINE
  5
54D2
  8
SUNPO
  6
BYBLOCK
 66
     1
 10
0.0
 20
0.0
 30
0.0
 70
     1
 40
1.159999999999999
 41
1.159999999999999
  0
VERTEX
  5
58CC
  8
SUNPO
  6
BYBLOCK
 10
361.05671296108011
 20
151.77415729990111
 30
0.0
 42
1.0
  0
VERTEX
  5
58CD
  8
SUNPO
  6
BYBLOCK
 10
361.05671296108011
 20
151.484157299901
 30
0.0
 42
1.0
  0
SEQEND
  5
58CE
  8
SUNPO
  6
BYBLOCK
  0
TEXT
  5
54D6
  8
SUNPO
  6
CONTINUOUS
 10
360.55671296108
 20
173.1291572999011
 30
0.0
 40
3.0
  1
48
 50
90.0
  7
MX_NOTE_STANDARD
  0
POLYLINE
  5
54D7
  8
SUNPO
  6
BYBLOCK
 66
     1
 10
0.0
 20
0.0
 30
0.0
 70
     1
 40
1.159999999999999
 41
1.159999999999999
  0
VERTEX
  5
58CF
  8
SUNPO
  6
BYBLOCK
 10
121.08752096108
 20
179.63351029990099
 30
0.0
 42
1.0
  0
VERTEX
  5
58D0
  8
SUNPO
  6
BYBLOCK
 10
121.08752096108
 20
179.343510299901
 30
0.0
 42
1.0
  0
SEQEND
  5
58D1
  8
SUNPO
  6
BYBLOCK
  0
POLYLINE
  5
54DB
  8
SUNPO
  6
BYBLOCK
 66
     1
 10
0.0
 20
0.0
 30
0.0
 70
     1
 40
1.159999999999999
 41
1.159999999999999
  0
VERTEX
  5
58D2
  8
SUNPO
  6
BYBLOCK
 10
121.08752096108
 20
191.34350129990111
 30
0.0
 42
1.0
  0
VERTEX
  5
58D3
  8
SUNPO
  6
BYBLOCK
 10
121.08752096108
 20
191.63350129990101
 30
0.0
 42
1.0
  0
SEQEND
  5
58D4
  8
SUNPO
  6
BYBLOCK
  0
TEXT
  5
54DF
  8
SUNPO
  6
CONTINUOUS
 10
120.58752096108
 20
183.08850529990099
 30
0.0
 40
3.0
  1
12
 50
90.0
 41
1.1999999999999991
  7
MX_DIMTXSTY_2
  0
LINE
  5
54E0
  8
SUNPO
  6
CONTINUOUS
 10
130.08749496108021
 20
191.48850129990089
 30
0.0
 11
121.08752096108
 21
191.48850129990089
 31
0.0
  0
LINE
  5
54E1
  8
SUNPO
  6
CONTINUOUS
 10
136.98753396108
 20
179.48851029990101
 30
0.0
 11
121.08752096108
 21
179.48851029990101
 31
0.0
  0
LINE
  5
54E2
  8
SUNPO
  6
CONTINUOUS
 10
121.08752096108
 20
179.48851029990101
 30
0.0
 11
121.08752096108
 21
191.48850129990089
 31
0.0
  0
ARC
  5
54E3
  8
DANMEN
  6
CONTINUOUS
 10
152.7874889610801
 20
289.188487299901
 30
0.0
 40
1.0
 50
180.0
 51
270.0
  0
ARC
  5
54E4
  8
DANMEN
  6
CONTINUOUS
 10
153.73749496108019
 20
287.18848729990111
 30
0.0
 40
1.0
 50
0.0
 51
90.0
  0
LINE
  5
54E5
  8
DANMEN
  6
CONTINUOUS
 10
152.7874889610801
 20
288.18848729990111
 30
0.0
 11
153.73749496108019
 21
288.18848729990111
 31
0.0
  0
ARC
  5
54E6
  8
DANMEN
  6
CONTINUOUS
 10
184.7874889610801
 20
264.1384872999011
 30
0.0
 40
1.0
 50
270.0
 51
0.0
  0
ARC
  5
54E7
  8
DANMEN
  6
CONTINUOUS
 10
193.38748896108001
 20
264.1384872999011
 30
0.0
 40
1.0
 50
180.0
 51
270.0
  0
ARC
  5
54E8
  8
DANMEN
  6
CONTINUOUS
 10
184.7874889610801
 20
297.83850129990111
 30
0.0
 40
1.0
 50
0.0
 51
90.0
  0
LINE
  5
54E9
  8
DANMEN
  6
CONTINUOUS
 10
199.43749496108009
 20
263.1384872999011
 30
0.0
 11
199.43749496108009
 21
298.83850129990111
 31
0.0
  0
LINE
  5
54EA
  8
DANMEN
  6
CONTINUOUS
 10
184.7874889610801
 20
263.1384872999011
 30
0.0
 11
154.7374889610802
 21
263.1384872999011
 31
0.0
  0
LINE
  5
54EB
  8
DANMEN
  6
CONTINUOUS
 10
187.98748896108
 20
267.48848729990101
 30
0.0
 11
187.98748896108
 21
267.02541929990099
 31
0.0
  0
ARC
  5
54EC
  8
DANMEN
  6
CONTINUOUS
 10
188.2874889610801
 20
265.93454829990111
 30
0.0
 40
1.0
 50
114.6243180000001
 51
180.0
  0
ARC
  5
54ED
  8
DANMEN
  6
CONTINUOUS
 10
187.7874889610801
 20
267.02541929990099
 30
0.0
 40
0.2
 50
294.62431800000002
 51
0.0
  0
ARC
  5
54EE
  8
DANMEN
  6
CONTINUOUS
 10
187.48748896108009
 20
267.48848729990101
 30
0.0
 40
0.5
 50
0.0
 51
101.5369589999997
  0
ARC
  5
54EF
  8
DANMEN
  6
CONTINUOUS
 10
187.7874889610801
 20
266.01879329990101
 30
0.0
 40
2.0
 50
101.5369589999997
 51
180.0
  0
LINE
  5
54F0
  8
DANMEN
  6
CONTINUOUS
 10
185.7874889610801
 20
266.01879329990101
 30
0.0
 11
185.7874889610801
 21
264.1384872999011
 31
0.0
  0
LINE
  5
54F1
  8
DANMEN
  6
CONTINUOUS
 10
187.2874889610801
 20
265.93454829990111
 30
0.0
 11
187.2874889610801
 21
264.68848729990111
 31
0.0
  0
ARC
  5
54F2
  8
DANMEN
  6
CONTINUOUS
 10
190.38748896108009
 20
266.01879329990101
 30
0.0
 40
2.0
 50
0.0
 51
78.463041000000146
  0
ARC
  5
54F3
  8
DANMEN
  6
CONTINUOUS
 10
190.68748896108011
 20
267.48848729990101
 30
0.0
 40
0.5
 50
78.463041000000146
 51
180.0
  0
ARC
  5
54F4
  8
DANMEN
  6
CONTINUOUS
 10
190.38748896108009
 20
267.02541929990099
 30
0.0
 40
0.2
 50
180.0
 51
245.37568199999981
  0
ARC
  5
54F5
  8
DANMEN
  6
CONTINUOUS
 10
189.88748896108009
 20
265.93454829990111
 30
0.0
 40
1.0
 50
0.0
 51
65.375681999999898
  0
LINE
  5
54F6
  8
DANMEN
  6
CONTINUOUS
 10
190.18748896108011
 20
267.48848729990101
 30
0.0
 11
190.18748896108011
 21
267.02541929990099
 31
0.0
  0
ARC
  5
54F7
  8
DANMEN
  6
CONTINUOUS
 10
189.88748896108009
 20
264.68848729990111
 30
0.0
 40
1.0
 50
270.0
 51
0.0
  0
ARC
  5
54F8
  8
DANMEN
  6
CONTINUOUS
 10
188.2874889610801
 20
264.68848729990111
 30
0.0
 40
1.0
 50
180.0
 51
270.0
  0
LINE
  5
54F9
  8
DANMEN
  6
CONTINUOUS
 10
192.38748896108001
 20
266.01879329990101
 30
0.0
 11
192.38748896108001
 21
264.1384872999011
 31
0.0
  0
LINE
  5
54FA
  8
DANMEN
  6
CONTINUOUS
 10
190.88748896108001
 20
265.93454829990111
 30
0.0
 11
190.88748896108001
 21
264.68848729990111
 31
0.0
  0
LINE
  5
54FB
  8
DANMEN
  6
CONTINUOUS
 10
189.88748896108009
 20
263.68848729990111
 30
0.0
 11
188.2874889610801
 21
263.68848729990111
 31
0.0
  0
LINE
  5
54FC
  8
DANMEN
  6
CONTINUOUS
 10
199.43748896108011
 20
263.1384872999011
 30
0.0
 11
193.38748896108001
 21
263.1384872999011
 31
0.0
  0
LINE
  5
54FD
  8
DANMEN
  6
CONTINUOUS
 10
153.5874949610801
 20
261.4884872999009
 30
0.0
 11
200.58748896108011
 21
261.4884872999009
 31
0.0
  0
LINE
  5
54FE
  8
DANMEN
  6
CONTINUOUS
 10
154.73749496108019
 20
263.1384872999011
 30
0.0
 11
154.73749496108019
 21
287.18848729990111
 31
0.0
  0
LINE
  5
54FF
  8
DANMEN
  6
CONTINUOUS
 10
133.08749496108021
 20
261.98848729990101
 30
0.0
 11
133.08749496108021
 21
271.48848729990101
 31
0.0
  0
LINE
  5
5500
  8
DANMEN
  6
CONTINUOUS
 10
134.08749496108021
 20
272.48848729990101
 30
0.0
 11
132.7374949610801
 21
272.48848729990101
 31
0.0
  0
LINE
  5
5501
  8
DANMEN
  6
CONTINUOUS
 10
134.08749496108021
 20
271.48848729990101
 30
0.0
 11
133.08749496108021
 21
271.48848729990101
 31
0.0
  0
ARC
  5
5502
  8
DANMEN
  6
CONTINUOUS
 10
134.08749496108021
 20
271.9884872999009
 30
0.0
 40
0.5
 50
0.0
 51
90.0
  0
ARC
  5
5503
  8
DANMEN
  6
CONTINUOUS
 10
134.08749496108021
 20
271.9884872999009
 30
0.0
 40
0.5
 50
270.0
 51
0.0
  0
LINE
  5
5504
  8
DANMEN
  6
CONTINUOUS
 10
153.0874949610801
 20
261.98848729990101
 30
0.0
 11
153.0874949610801
 21
271.48848729990101
 31
0.0
  0
LINE
  5
5505
  8
DANMEN
  6
CONTINUOUS
 10
152.0874949610801
 20
272.48848729990101
 30
0.0
 11
153.0874949610801
 21
272.48848729990101
 31
0.0
  0
LINE
  5
5506
  8
DANMEN
  6
CONTINUOUS
 10
152.0874949610801
 20
271.48848729990101
 30
0.0
 11
153.0874949610801
 21
271.48848729990101
 31
0.0
  0
ARC
  5
5507
  8
DANMEN
  6
CONTINUOUS
 10
152.0874949610801
 20
271.9884872999009
 30
0.0
 40
0.5
 50
90.0
 51
180.0
  0
ARC
  5
5508
  8
DANMEN
  6
CONTINUOUS
 10
152.0874949610801
 20
271.9884872999009
 30
0.0
 40
0.5
 50
180.0
 51
270.0
  0
ARC
  5
5509
  8
DANMEN
  6
CONTINUOUS
 10
153.5874949610801
 20
261.98848729990101
 30
0.0
 40
0.5
 50
180.0
 51
270.0
  0
LINE
  5
550A
  8
DANMEN
  6
CONTINUOUS
 10
153.0874949610801
 20
272.48848729990101
 30
0.0
 11
153.0874949610801
 21
286.53848729990102
 31
0.0
  0
LINE
  5
550B
  8
DANMEN
  6
CONTINUOUS
 10
132.7374949610801
 20
272.48848729990101
 30
0.0
 11
132.7374949610801
 21
285.066479299901
 31
0.0
  0
ARC
  5
550C
  8
DANMEN
  6
CONTINUOUS
 10
131.58749496108021
 20
261.98848729990101
 30
0.0
 40
0.5
 50
180.0
 51
270.0
  0
ARC
  5
550D
  8
DANMEN
  6
CONTINUOUS
 10
132.58749496108021
 20
261.98848729990101
 30
0.0
 40
0.5
 50
270.0
 51
0.0
  0
LINE
  5
550E
  8
DANMEN
  6
CONTINUOUS
 10
131.58749496108021
 20
261.4884872999009
 30
0.0
 11
132.58749496108021
 21
261.4884872999009
 31
0.0
  0
LINE
  5
550F
  8
DANMEN
  6
CONTINUOUS
 10
131.08749496108021
 20
261.98848729990101
 30
0.0
 11
131.08749496108021
 21
286.05757529990098
 31
0.0
  0
LINE
  5
5510
  8
DANMEN
  6
CONTINUOUS
 10
187.98748896108
 20
294.48850129990092
 30
0.0
 11
187.98748896108
 21
294.951569299901
 31
0.0
  0
ARC
  5
5511
  8
DANMEN
  6
CONTINUOUS
 10
188.2874889610801
 20
296.0424402999011
 30
0.0
 40
1.0
 50
180.0
 51
245.37568199999981
  0
ARC
  5
5512
  8
DANMEN
  6
CONTINUOUS
 10
187.7874889610801
 20
294.951569299901
 30
0.0
 40
0.2
 50
0.0
 51
65.375681999999898
  0
ARC
  5
5513
  8
DANMEN
  6
CONTINUOUS
 10
187.48748896108009
 20
294.48850129990092
 30
0.0
 40
0.5
 50
258.46304099999998
 51
0.0
  0
ARC
  5
5514
  8
DANMEN
  6
CONTINUOUS
 10
187.7874889610801
 20
295.95819529990092
 30
0.0
 40
2.0
 50
180.0
 51
258.46304099999998
  0
LINE
  5
5515
  8
DANMEN
  6
CONTINUOUS
 10
185.7874889610801
 20
295.95819529990092
 30
0.0
 11
185.7874889610801
 21
297.83850129990111
 31
0.0
  0
LINE
  5
5516
  8
DANMEN
  6
CONTINUOUS
 10
187.2874889610801
 20
296.0424402999011
 30
0.0
 11
187.2874889610801
 21
297.2885012999011
 31
0.0
  0
ARC
  5
5517
  8
DANMEN
  6
CONTINUOUS
 10
190.38748896108009
 20
295.95819529990092
 30
0.0
 40
2.0
 50
281.5369589999998
 51
0.0
  0
ARC
  5
5518
  8
DANMEN
  6
CONTINUOUS
 10
190.68748896108011
 20
294.48850129990092
 30
0.0
 40
0.5
 50
180.0
 51
281.5369589999998
  0
ARC
  5
5519
  8
DANMEN
  6
CONTINUOUS
 10
190.38748896108009
 20
294.951569299901
 30
0.0
 40
0.2
 50
114.6243180000001
 51
180.0
  0
ARC
  5
551A
  8
DANMEN
  6
CONTINUOUS
 10
189.88748896108009
 20
296.0424402999011
 30
0.0
 40
1.0
 50
294.62431800000002
 51
0.0
  0
LINE
  5
551B
  8
DANMEN
  6
CONTINUOUS
 10
190.18748896108011
 20
294.48850129990092
 30
0.0
 11
190.18748896108011
 21
294.951569299901
 31
0.0
  0
ARC
  5
551C
  8
DANMEN
  6
CONTINUOUS
 10
189.88748896108009
 20
297.2885012999011
 30
0.0
 40
1.0
 50
0.0
 51
90.0
  0
ARC
  5
551D
  8
DANMEN
  6
CONTINUOUS
 10
188.2874889610801
 20
297.2885012999011
 30
0.0
 40
1.0
 50
90.0
 51
180.0
  0
LINE
  5
551E
  8
DANMEN
  6
CONTINUOUS
 10
192.38748896108001
 20
295.95819529990092
 30
0.0
 11
192.38748896108001
 21
297.83850129990111
 31
0.0
  0
LINE
  5
551F
  8
DANMEN
  6
CONTINUOUS
 10
190.88748896108001
 20
296.0424402999011
 30
0.0
 11
190.88748896108001
 21
297.2885012999011
 31
0.0
  0
LINE
  5
5520
  8
DANMEN
  6
CONTINUOUS
 10
189.88748896108009
 20
298.2885012999011
 30
0.0
 11
188.2874889610801
 21
298.2885012999011
 31
0.0
  0
LINE
  5
5521
  8
DANMEN
  6
CONTINUOUS
 10
193.38748896108001
 20
298.83850129990111
 30
0.0
 11
199.43748896108011
 21
298.83850129990111
 31
0.0
  0
LINE
  5
5522
  8
DANMEN
  6
CONTINUOUS
 10
146.13749496108011
 20
294.18848729990111
 30
0.0
 11
146.13749496108011
 21
298.83850129990111
 31
0.0
  0
ARC
  5
5523
  8
DANMEN
  6
CONTINUOUS
 10
148.42119396108009
 20
292.43848729990111
 30
0.0
 40
0.75
 50
270.0
 51
90.0
  0
ARC
  5
5524
  8
DANMEN
  6
CONTINUOUS
 10
151.0374889610801
 20
289.82219229990102
 30
0.0
 40
0.75
 50
0.0
 51
180.0
  0
ARC
  5
5525
  8
DANMEN
  6
CONTINUOUS
 10
147.7874889610801
 20
290.68848729990111
 30
0.0
 40
1.0
 50
90.0
 51
180.0
  0
ARC
  5
5526
  8
DANMEN
  6
CONTINUOUS
 10
149.2874889610801
 20
289.188487299901
 30
0.0
 40
1.0
 50
270.0
 51
0.0
  0
ARC
  5
5527
  8
DANMEN
  6
CONTINUOUS
 10
147.7874889610801
 20
289.188487299901
 30
0.0
 40
1.0
 50
180.0
 51
270.0
  0
LINE
  5
5528
  8
DANMEN
  6
CONTINUOUS
 10
147.13749496108011
 20
293.18848729990111
 30
0.0
 11
148.42119396108009
 21
293.18848729990111
 31
0.0
  0
LINE
  5
5529
  8
DANMEN
  6
CONTINUOUS
 10
147.7874889610801
 20
291.68848729990111
 30
0.0
 11
148.42119396108009
 21
291.68848729990111
 31
0.0
  0
LINE
  5
552A
  8
DANMEN
  6
CONTINUOUS
 10
150.28748896108019
 20
289.82219229990102
 30
0.0
 11
150.28748896108019
 21
289.188487299901
 31
0.0
  0
LINE
  5
552B
  8
DANMEN
  6
CONTINUOUS
 10
146.7874889610801
 20
290.68848729990111
 30
0.0
 11
146.7874889610801
 21
289.188487299901
 31
0.0
  0
LINE
  5
552C
  8
DANMEN
  6
CONTINUOUS
 10
147.7874889610801
 20
288.18848729990111
 30
0.0
 11
149.2874889610801
 21
288.18848729990111
 31
0.0
  0
LINE
  5
552D
  8
DANMEN
  6
CONTINUOUS
 10
151.7874889610801
 20
289.82219229990102
 30
0.0
 11
151.7874889610801
 21
289.188487299901
 31
0.0
  0
LINE
  5
552E
  8
DANMEN
  6
CONTINUOUS
 10
144.4874949610801
 20
298.48850129990092
 30
0.0
 11
144.4874949610801
 21
288.4884872999009
 31
0.0
  0
ARC
  5
552F
  8
DANMEN
  6
CONTINUOUS
 10
200.58748896108011
 20
261.98848729990101
 30
0.0
 40
0.5
 50
270.0
 51
0.0
  0
LINE
  5
5530
  8
DANMEN
  6
CONTINUOUS
 10
131.51368596108011
 20
286.5520982999011
 30
0.0
 11
144.4874949610801
 21
288.4884872999009
 31
0.0
  0
ARC
  5
5531
  8
DANMEN
  6
CONTINUOUS
 10
131.58749496108021
 20
286.05757529990098
 30
0.0
 40
0.5
 50
98.488944000001325
 51
180.0
  0
LINE
  5
5532
  8
DANMEN
  6
CONTINUOUS
 10
132.7374949610801
 20
285.066479299901
 30
0.0
 11
142.5999509610802
 21
286.53848729990102
 31
0.0
  0
LINE
  5
5533
  8
DANMEN
  6
CONTINUOUS
 10
142.5999509610802
 20
286.53848729990102
 30
0.0
 11
153.0874949610801
 21
286.53848729990102
 31
0.0
  0
ARC
  5
5534
  8
DANMEN
  6
CONTINUOUS
 10
147.13749496108011
 20
294.18848729990111
 30
0.0
 40
1.0
 50
180.0
 51
270.0
  0
ARC
  5
5535
  8
DANMEN
  6
CONTINUOUS
 10
131.58749496108021
 20
298.98850129990092
 30
0.0
 40
0.5
 50
180.0
 51
270.0
  0
ARC
  5
5536
  8
DANMEN
  6
CONTINUOUS
 10
131.58749496108021
 20
300.98850129990092
 30
0.0
 40
0.5
 50
90.0
 51
180.0
  0
LINE
  5
5537
  8
DANMEN
  6
CONTINUOUS
 10
131.08749496108021
 20
298.98850129990092
 30
0.0
 11
131.08749496108021
 21
300.98850129990092
 31
0.0
  0
LINE
  5
5538
  8
DANMEN
  6
CONTINUOUS
 10
155.5875039610801
 20
301.48850129990092
 30
0.0
 11
131.58749496108021
 21
301.48850129990092
 31
0.0
  0
LINE
  5
5539
  8
DANMEN
  6
CONTINUOUS
 10
144.48750396108011
 20
298.48850129990092
 30
0.0
 11
131.58749496108021
 21
298.48850129990092
 31
0.0
  0
LINE
  5
553A
  8
DANMEN
  6
CONTINUOUS
 10
199.43749496108009
 20
300.48850129990097
 30
0.0
 11
157.23750396108019
 21
300.48850129990097
 31
0.0
  0
LINE
  5
553B
  8
DANMEN
  6
CONTINUOUS
 10
146.13749496108011
 20
298.83850129990111
 30
0.0
 11
184.7874889610801
 21
298.83850129990111
 31
0.0
  0
LINE
  5
553C
  8
DANMEN
  6
CONTINUOUS
 10
201.0874949610801
 20
310.98850129990092
 30
0.0
 11
201.0874949610801
 21
261.98848729990101
 31
0.0
  0
LINE
  5
553D
  8
DANMEN
  6
CONTINUOUS
 10
199.43749496108009
 20
300.48850129990097
 30
0.0
 11
199.43749496108009
 21
306.83850129990111
 31
0.0
  0
ARC
  5
553E
  8
DANMEN
  6
CONTINUOUS
 10
195.5874949610801
 20
307.33850129990111
 30
0.0
 40
0.5
 50
180.0
 51
270.0
  0
LINE
  5
553F
  8
DANMEN
  6
CONTINUOUS
 10
195.5874949610801
 20
306.83850129990111
 30
0.0
 11
199.43749496108009
 21
306.83850129990111
 31
0.0
  0
LINE
  5
5540
  8
DANMEN
  6
CONTINUOUS
 10
157.2374949610801
 20
304.83850129990111
 30
0.0
 11
167.23749496108019
 21
304.83850129990111
 31
0.0
  0
ARC
  5
5541
  8
DANMEN
  6
CONTINUOUS
 10
166.5874949610801
 20
315.98850129990092
 30
0.0
 40
0.5
 50
90.0
 51
180.0
  0
ARC
  5
5542
  8
DANMEN
  6
CONTINUOUS
 10
167.23749496108019
 20
315.98850129990092
 30
0.0
 40
0.5
 50
0.0
 51
90.0
  0
LINE
  5
5543
  8
DANMEN
  6
CONTINUOUS
 10
167.23749496108019
 20
316.48850129990097
 30
0.0
 11
166.5874949610801
 21
316.48850129990097
 31
0.0
  0
LINE
  5
5544
  8
DANMEN
  6
CONTINUOUS
 10
155.5874949610801
 20
305.98850129990097
 30
0.0
 11
155.5874949610801
 21
301.48850129990092
 31
0.0
  0
LINE
  5
5545
  8
DANMEN
  6
CONTINUOUS
 10
166.0874949610801
 20
306.48850129990097
 30
0.0
 11
156.0874949610801
 21
306.48850129990097
 31
0.0
  0
ARC
  5
5546
  8
DANMEN
  6
CONTINUOUS
 10
156.0874949610801
 20
305.98850129990097
 30
0.0
 40
0.5
 50
90.0
 51
180.0
  0
ARC
  5
5547
  8
DANMEN
  6
CONTINUOUS
 10
195.5874949610801
 20
307.98850129990092
 30
0.0
 40
0.5
 50
89.999998999998596
 51
179.99998099999931
  0
LINE
  5
5548
  8
DANMEN
  6
CONTINUOUS
 10
195.0874949610801
 20
307.33850129990111
 30
0.0
 11
195.0874949610801
 21
307.98850129990092
 31
0.0
  0
LINE
  5
5549
  8
DANMEN
  6
CONTINUOUS
 10
166.0874949610801
 20
306.48850129990097
 30
0.0
 11
166.0874949610801
 21
315.98850129990092
 31
0.0
  0
LINE
  5
554A
  8
DANMEN
  6
CONTINUOUS
 10
167.7374949610801
 20
305.33850129990111
 30
0.0
 11
167.7374949610801
 21
306.83850129990111
 31
0.0
  0
LINE
  5
554B
  8
DANMEN
  6
CONTINUOUS
 10
195.5874949610801
 20
308.48850129990097
 30
0.0
 11
199.88749496108011
 21
308.48850129990097
 31
0.0
  0
LINE
  5
554C
  8
DANMEN
  6
CONTINUOUS
 10
167.7374949610801
 20
306.83850129990111
 30
0.0
 11
171.5874949610801
 21
306.83850129990111
 31
0.0
  0
LINE
  5
554D
  8
DANMEN
  6
CONTINUOUS
 10
167.7374949610801
 20
308.48850129990097
 30
0.0
 11
171.5874949610801
 21
308.48850129990097
 31
0.0
  0
ARC
  5
554E
  8
DANMEN
  6
CONTINUOUS
 10
171.5874949610801
 20
307.98850129990092
 30
0.0
 40
0.5
 50
0.0
 51
89.999982000000813
  0
LINE
  5
554F
  8
DANMEN
  6
CONTINUOUS
 10
172.0874949610801
 20
307.33850129990111
 30
0.0
 11
172.0874949610801
 21
307.98850129990092
 31
0.0
  0
ARC
  5
5550
  8
DANMEN
  6
CONTINUOUS
 10
171.5874949610801
 20
307.33850129990111
 30
0.0
 40
0.5
 50
270.0
 51
0.0
  0
ARC
  5
5551
  8
DANMEN
  6
CONTINUOUS
 10
167.23749496108019
 20
305.33850129990111
 30
0.0
 40
0.5
 50
270.0
 51
0.0
  0
LINE
  5
5552
  8
DANMEN
  6
CONTINUOUS
 10
167.7374949610801
 20
308.48850129990097
 30
0.0
 11
167.7374949610801
 21
315.98850129990092
 31
0.0
  0
LINE
  5
5553
  8
DANMEN
  6
CONTINUOUS
 10
157.2374949610801
 20
304.83850129990111
 30
0.0
 11
157.2374949610801
 21
300.48850129990097
 31
0.0
  0
LINE
  5
5554
  8
DANMEN
  6
CONTINUOUS
 10
200.38749496108011
 20
311.48850129990092
 30
0.0
 11
200.5874949610801
 21
311.48850129990092
 31
0.0
  0
ARC
  5
5555
  8
DANMEN
  6
CONTINUOUS
 10
200.5874949610801
 20
310.98850129990092
 30
0.0
 40
0.5
 50
0.0
 51
90.0
  0
LINE
  5
5556
  8
DANMEN
  6
CONTINUOUS
 10
199.88749496108011
 20
310.98850129990092
 30
0.0
 11
199.88749496108011
 21
308.48850129990097
 31
0.0
  0
ARC
  5
5557
  8
DANMEN
  6
CONTINUOUS
 10
200.38749496108011
 20
310.98850129990092
 30
0.0
 40
0.5
 50
90.0
 51
180.0
  0
ARC
  5
5558
  8
DANMEN
  6
CONTINUOUS
 10
193.38748896108001
 20
297.83850129990111
 30
0.0
 40
1.0
 50
90.0
 51
180.0
  0
LINE
  5
5559
  8
SUNPO
  6
CONTINUOUS
 10
361.05671296108011
 20
199.6291552999009
 30
0.0
 11
361.05671296108011
 21
151.62915729990101
 31
0.0
  0
LINE
  5
555A
  8
SUNPO
  6
CONTINUOUS
 10
361.05671296108011
 20
199.6291552999009
 30
0.0
 11
361.05671296108011
 21
219.629061299901
 31
0.0
  0
LINE
  5
555B
  8
SUNPO
  6
CONTINUOUS
 10
361.05671296108011
 20
228.1734422999011
 30
0.0
 11
361.05671296108011
 21
221.62915629990101
 31
0.0
  0
LINE
  5
555C
  8
SUNPO
  6
CONTINUOUS
 10
361.05671296108011
 20
221.62915629990101
 30
0.0
 11
361.05671296108011
 21
219.629061299901
 31
0.0
  0
LINE
  5
555D
  8
SUNPO
  6
CONTINUOUS
 10
131.08749496108021
 20
238.43454329990109
 30
0.0
 11
201.0874949610801
 21
238.43454329990109
 31
0.0
  0
LINE
  5
555E
  8
SUNPO
  6
CONTINUOUS
 10
339.34562896108002
 20
151.62915729990101
 30
0.0
 11
339.34562896108002
 21
221.62915629990101
 31
0.0
  0
LINE
  5
555F
  8
SUNPO
  6
CONTINUOUS
 10
293.83117696108002
 20
223.8791572999009
 30
0.0
 11
293.83117696108002
 21
241.6291002999011
 31
0.0
  0
LINE
  5
5560
  8
SUNPO
  6
CONTINUOUS
 10
268.83117696108002
 20
222.6291572999011
 30
0.0
 11
268.83117696108002
 21
241.6291002999011
 31
0.0
  0
LINE
  5
5561
  8
SUNPO
  6
CONTINUOUS
 10
268.83117696108002
 20
241.6291002999011
 30
0.0
 11
293.83117696108002
 21
241.6291002999011
 31
0.0
  0
LINE
  5
5562
  8
SUNPO
  6
CONTINUOUS
 10
129.58749396108001
 20
191.4883172999011
 30
0.0
 11
111.0874939610801
 21
191.4883172999011
 31
0.0
  0
LINE
  5
5563
  8
SUNPO
  6
CONTINUOUS
 10
129.58749396108001
 20
166.48831829990101
 30
0.0
 11
111.0874939610801
 21
166.48831829990101
 31
0.0
  0
LINE
  5
5564
  8
SUNPO
  6
CONTINUOUS
 10
111.0874939610801
 20
166.48831829990101
 30
0.0
 11
111.0874939610801
 21
191.4883172999011
 31
0.0
  0
LINE
  5
5565
  8
SUNPO
  6
CONTINUOUS
 10
129.58749396108001
 20
166.48831829990101
 30
0.0
 11
111.0874939610801
 21
166.48831829990101
 31
0.0
  0
LINE
  5
5566
  8
SUNPO
  6
CONTINUOUS
 10
129.58749396108001
 20
154.488501299901
 30
0.0
 11
111.0874939610801
 21
154.488501299901
 31
0.0
  0
LINE
  5
5567
  8
SUNPO
  6
CONTINUOUS
 10
111.0874939610801
 20
154.488501299901
 30
0.0
 11
111.0874939610801
 21
166.48831829990101
 31
0.0
  0
LINE
  5
5568
  8
SUNPO
  6
CONTINUOUS
 10
189.58749396108001
 20
196.488501299901
 30
0.0
 11
111.0874939610801
 21
196.488501299901
 31
0.0
  0
LINE
  5
5569
  8
SUNPO
  6
CONTINUOUS
 10
129.58749396108001
 20
191.48850129990089
 30
0.0
 11
111.0874939610801
 21
191.48850129990089
 31
0.0
  0
LINE
  5
556A
  8
SUNPO
  6
CONTINUOUS
 10
111.0874939610801
 20
191.48850129990089
 30
0.0
 11
111.0874939610801
 21
196.488501299901
 31
0.0
  0
LINE
  5
556B
  8
SUNPO
  6
CONTINUOUS
 10
129.58749396108001
 20
154.488501299901
 30
0.0
 11
111.0874939610801
 21
154.488501299901
 31
0.0
  0
LINE
  5
556C
  8
SUNPO
  6
CONTINUOUS
 10
129.58749396108001
 20
151.48850129990109
 30
0.0
 11
111.0874939610801
 21
151.48850129990109
 31
0.0
  0
LINE
  5
556D
  8
SUNPO
  6
CONTINUOUS
 10
111.0874939610801
 20
151.48850129990109
 30
0.0
 11
111.0874939610801
 21
154.488501299901
 31
0.0
  0
LINE
  5
556E
  8
SUNPO
  6
CONTINUOUS
 10
130.08754996107999
 20
191.48854829990111
 30
0.0
 11
101.08696996108
 21
191.48871629990111
 31
0.0
  0
LINE
  5
556F
  8
SUNPO
  6
CONTINUOUS
 10
130.0874929610801
 20
151.4885102999009
 30
0.0
 11
101.08673696108011
 21
151.48867929990109
 31
0.0
  0
LINE
  5
5570
  8
SUNPO
  6
CONTINUOUS
 10
101.08673696108011
 20
151.48867929990109
 30
0.0
 11
101.08696996108
 21
191.48871629990111
 31
0.0
  0
LINE
  5
5571
  8
SUNPO
  6
CONTINUOUS
 10
202.08749496108021
 20
141.48850129990089
 30
0.0
 11
226.08749496108001
 21
141.48850129990089
 31
0.0
  0
LINE
  5
5572
  8
SUNPO
  6
CONTINUOUS
 10
202.08749496108021
 20
196.488501299901
 30
0.0
 11
226.08749496108001
 21
196.488501299901
 31
0.0
  0
LINE
  5
5573
  8
SUNPO
  6
CONTINUOUS
 10
226.08749496108001
 20
196.488501299901
 30
0.0
 11
226.08749496108001
 21
141.48850129990089
 31
0.0
  0
LINE
  5
5574
  8
SUNPO
  6
CONTINUOUS
 10
131.08749496108021
 20
224.1355482999009
 30
0.0
 11
126.03571696108
 21
224.1355482999009
 31
0.0
  0
LINE
  5
5575
  8
SUNPO
  6
CONTINUOUS
 10
133.08749496108021
 20
224.1355482999009
 30
0.0
 11
131.08749496108021
 21
224.1355482999009
 31
0.0
  0
LINE
  5
5576
  8
SUNPO
  6
CONTINUOUS
 10
223.41860896108
 20
226.73360879990091
 30
0.0
 11
229.0186089610801
 21
226.73360879990091
 31
0.0
  0
LINE
  5
5577
  8
SUNPO
  6
CONTINUOUS
 10
225.37855786108
 20
236.194290099901
 30
0.0
 11
225.37855786108
 21
232.842309999901
 31
0.0
  0
LINE
  5
5578
  8
SUNPO
  6
CONTINUOUS
 10
227.05855366108
 20
236.194290099901
 30
0.0
 11
227.05855366108
 21
232.842309999901
 31
0.0
  0
LINE
  5
5579
  8
SUNPO
  6
CONTINUOUS
 10
223.41860896108
 20
227.71360459990089
 30
0.0
 11
223.41860896108
 21
224.0754644999011
 31
0.0
  0
LINE
  5
557A
  8
SUNPO
  6
CONTINUOUS
 10
223.41860896108
 20
231.99267099990089
 30
0.0
 11
223.41860896108
 21
229.37953809990091
 31
0.0
  0
LINE
  5
557B
  8
SUNPO
  6
CONTINUOUS
 10
223.41860896108
 20
230.5836087999009
 30
0.0
 11
229.0186089610801
 21
230.5836087999009
 31
0.0
  0
LINE
  5
557C
  8
SUNPO
  6
CONTINUOUS
 10
229.0186089610801
 20
227.71360459990089
 30
0.0
 11
229.0186089610801
 21
224.0754644999011
 31
0.0
  0
LINE
  5
557D
  8
SUNPO
  6
CONTINUOUS
 10
226.21860896108001
 20
230.5836087999009
 30
0.0
 11
226.21860896108001
 21
226.73360879990091
 31
0.0
  0
LINE
  5
557E
  8
SUNPO
  6
CONTINUOUS
 10
229.0186089610801
 20
231.99267099990089
 30
0.0
 11
229.0186089610801
 21
229.37953809990091
 31
0.0
  0
LINE
  5
557F
  8
SUNPO
  6
CONTINUOUS
 10
223.41860896108
 20
225.33360879990099
 30
0.0
 11
229.0186089610801
 21
225.33360879990099
 31
0.0
  0
LINE
  5
5580
  8
SUNPO
  6
CONTINUOUS
 10
221.0874949610801
 20
201.48850129990089
 30
0.0
 11
231.08749496108021
 21
201.48850129990089
 31
0.0
  0
LINE
  5
5581
  8
SUNPO
  6
CONTINUOUS
 10
231.08749496108021
 20
201.48850129990089
 30
0.0
 11
226.08749496108001
 21
196.488501299901
 31
0.0
  0
LINE
  5
5582
  8
SUNPO
  6
CONTINUOUS
 10
226.08749496108001
 20
196.488501299901
 30
0.0
 11
221.0874949610801
 21
201.48850129990089
 31
0.0
  0
LINE
  5
5583
  8
SUNPO
  6
CONTINUOUS
 10
202.08749496108021
 20
261.4884872999009
 30
0.0
 11
226.08749496108001
 21
261.4884872999009
 31
0.0
  0
LINE
  5
5584
  8
SUNPO
  6
CONTINUOUS
 10
202.08748696108
 20
311.48849529990088
 30
0.0
 11
226.08749496108001
 21
311.48849529990088
 31
0.0
  0
LINE
  5
5585
  8
SUNPO
  6
CONTINUOUS
 10
226.08749496108001
 20
311.48849529990088
 30
0.0
 11
226.08749496108001
 21
261.4884872999009
 31
0.0
  0
LINE
  5
5586
  8
SUNPO
  6
CONTINUOUS
 10
129.58749396108001
 20
301.48850129990092
 30
0.0
 11
101.08749396108
 21
301.48850129990092
 31
0.0
  0
LINE
  5
5587
  8
SUNPO
  6
CONTINUOUS
 10
130.0874939610801
 20
261.4884872999009
 30
0.0
 11
101.08749396108
 21
261.4884872999009
 31
0.0
  0
LINE
  5
5588
  8
SUNPO
  6
CONTINUOUS
 10
101.08749396108
 20
261.4884872999009
 30
0.0
 11
101.08749396108
 21
301.48850129990092
 31
0.0
  0
LINE
  5
5589
  8
SUNPO
  6
CONTINUOUS
 10
231.08749496108021
 20
256.48850129990109
 30
0.0
 11
221.0874949610801
 21
256.48850129990109
 31
0.0
  0
LINE
  5
558A
  8
SUNPO
  6
CONTINUOUS
 10
221.0874949610801
 20
256.48850129990109
 30
0.0
 11
226.08749496108001
 21
261.48850129990092
 31
0.0
  0
LINE
  5
558B
  8
SUNPO
  6
CONTINUOUS
 10
226.08749496108001
 20
261.48850129990092
 30
0.0
 11
231.08749496108021
 21
256.48850129990109
 31
0.0
  0
LINE
  5
558C
  8
DANMEN
  6
CONTINUOUS
 10
131.78749196108021
 20
171.98850129990089
 30
0.0
 11
131.08749496108021
 21
171.98850129990089
 31
0.0
  0
ARC
  5
558D
  8
DANMEN
  6
CONTINUOUS
 10
131.78749196108021
 20
172.48850129990109
 30
0.0
 40
0.5
 50
269.9999809999992
 51
0.0
  0
LINE
  5
558E
  8
DANMEN
  6
CONTINUOUS
 10
131.08749496108021
 20
190.988501299901
 30
0.0
 11
131.08749496108021
 21
171.98850129990089
 31
0.0
  0
LINE
  5
558F
  8
DANMEN
  6
CONTINUOUS
 10
133.08749496108021
 20
190.988501299901
 30
0.0
 11
133.08749496108021
 21
176.48850129990109
 31
0.0
  0
LINE
  5
5590
  8
DANMEN
  6
CONTINUOUS
 10
132.58749496108021
 20
191.48850129990089
 30
0.0
 11
131.58749496108021
 21
191.48850129990089
 31
0.0
  0
ARC
  5
5591
  8
DANMEN
  6
CONTINUOUS
 10
131.58749496108021
 20
190.988501299901
 30
0.0
 40
0.5
 50
90.0
 51
180.0
  0
ARC
  5
5592
  8
DANMEN
  6
CONTINUOUS
 10
132.58749496108021
 20
190.988501299901
 30
0.0
 40
0.5
 50
0.0
 51
90.0
  0
LINE
  5
5593
  8
DANMEN
  6
CONTINUOUS
 10
134.08752496108011
 20
175.48850129990109
 30
0.0
 11
133.08749496108021
 21
175.48850129990109
 31
0.0
  0
LINE
  5
5594
  8
DANMEN
  6
CONTINUOUS
 10
134.08752496108011
 20
176.48850129990109
 30
0.0
 11
133.08749496108021
 21
176.48850129990109
 31
0.0
  0
ARC
  5
5595
  8
DANMEN
  6
CONTINUOUS
 10
134.08752496108011
 20
175.988501299901
 30
0.0
 40
0.5
 50
270.0
 51
0.0
  0
ARC
  5
5596
  8
DANMEN
  6
CONTINUOUS
 10
134.08752496108011
 20
175.988501299901
 30
0.0
 40
0.5
 50
0.0
 51
90.0
  0
LINE
  5
5597
  8
DANMEN
  6
CONTINUOUS
 10
133.08749496108021
 20
175.48850129990109
 30
0.0
 11
133.08749496108021
 21
173.488501299901
 31
0.0
  0
LINE
  5
5598
  8
DANMEN
  6
CONTINUOUS
 10
132.28749196108021
 20
172.48850129990109
 30
0.0
 11
134.08749496108021
 21
172.48850129990109
 31
0.0
  0
LINE
  5
5599
  8
DANMEN
  6
CONTINUOUS
 10
133.08749496108021
 20
173.488501299901
 30
0.0
 11
134.58749496108021
 21
173.488501299901
 31
0.0
  0
ARC
  5
559A
  8
DANMEN
  6
CONTINUOUS
 10
137.42988396108021
 20
169.6885162999009
 30
0.0
 40
0.5
 50
270.0
 51
304.99202000000162
  0
LINE
  5
559B
  8
DANMEN
  6
CONTINUOUS
 10
138.4865569610802
 20
171.03851529990109
 30
0.0
 11
137.27227296108001
 21
170.1885162999011
 31
0.0
  0
LINE
  5
559C
  8
DANMEN
  6
CONTINUOUS
 10
139.08749496108021
 20
170.23851629990111
 30
0.0
 11
137.71661496108021
 21
169.27890029990101
 31
0.0
  0
ARC
  5
559D
  8
DANMEN
  6
CONTINUOUS
 10
135.82168196108009
 20
169.6885162999009
 30
0.0
 40
0.5
 50
219.80557100000129
 51
270.0
  0
ARC
  5
559E
  8
DANMEN
  6
CONTINUOUS
 10
134.58749496108021
 20
171.169541299901
 30
0.0
 40
0.5
 50
180.0
 51
219.80557100000129
  0
LINE
  5
559F
  8
DANMEN
  6
CONTINUOUS
 10
136.05586996108011
 20
170.1885162999011
 30
0.0
 11
135.08749496108021
 21
171.350566299901
 31
0.0
  0
LINE
  5
55A0
  8
DANMEN
  6
CONTINUOUS
 10
135.43757196108021
 20
169.36842429990111
 30
0.0
 11
134.20338396108019
 21
170.84944929990101
 31
0.0
  0
LINE
  5
55A1
  8
DANMEN
  6
CONTINUOUS
 10
139.08749496108021
 20
170.23851629990111
 30
0.0
 11
139.08749496108021
 21
170.73851529990111
 31
0.0
  0
LINE
  5
55A2
  8
DANMEN
  6
CONTINUOUS
 10
138.4865569610802
 20
171.03851529990109
 30
0.0
 11
138.7874949610802
 21
171.03851529990109
 31
0.0
  0
ARC
  5
55A3
  8
DANMEN
  6
CONTINUOUS
 10
138.7874949610802
 20
170.73851529990111
 30
0.0
 40
0.3
 50
0.0
 51
90.0
  0
LINE
  5
55A4
  8
DANMEN
  6
CONTINUOUS
 10
134.08749496108021
 20
172.48850129990109
 30
0.0
 11
134.08749496108021
 21
171.169541299901
 31
0.0
  0
LINE
  5
55A5
  8
DANMEN
  6
CONTINUOUS
 10
135.08749496108021
 20
172.988501299901
 30
0.0
 11
135.08749496108021
 21
171.350566299901
 31
0.0
  0
ARC
  5
55A6
  8
DANMEN
  6
CONTINUOUS
 10
134.58749496108021
 20
172.988501299901
 30
0.0
 40
0.5
 50
0.0
 51
90.0
  0
LINE
  5
55A7
  8
DANMEN
  6
CONTINUOUS
 10
137.42988396108021
 20
169.18851629990101
 30
0.0
 11
135.82168196108009
 21
169.18851629990101
 31
0.0
  0
LINE
  5
55A8
  8
DANMEN
  6
CONTINUOUS
 10
137.27227296108001
 20
170.1885162999011
 30
0.0
 11
136.05586996108011
 21
170.1885162999011
 31
0.0
  0
LINE
  5
55A9
  8
SUNPO
  6
CONTINUOUS
 10
428.33079296108019
 20
222.6291572999011
 30
0.0
 11
428.33079296108019
 21
241.6291002999011
 31
0.0
  0
LINE
  5
55AA
  8
SUNPO
  6
CONTINUOUS
 10
403.33079296108019
 20
223.8791572999009
 30
0.0
 11
403.33079296108019
 21
241.6291002999011
 31
0.0
  0
LINE
  5
55AB
  8
SUNPO
  6
CONTINUOUS
 10
403.33079296108019
 20
241.6291002999011
 30
0.0
 11
428.33079296108019
 21
241.6291002999011
 31
0.0
  0
LINE
  5
55AC
  8
SUNPO
  6
CONTINUOUS
 10
164.58688396107999
 20
136.48850129990089
 30
0.0
 11
101.14935396108
 21
136.48850129990089
 31
0.0
  0
LINE
  5
55AD
  8
SUNPO
  6
CONTINUOUS
 10
101.14935396108
 20
136.48850129990089
 30
0.0
 11
101.14935396108
 21
146.48855929990111
 31
0.0
  0
LINE
  5
55AE
  8
SUNPO
  6
CONTINUOUS
 10
109.5869119610802
 20
151.48850129990109
 30
0.0
 11
101.0868539610801
 21
151.48850129990109
 31
0.0
  0
LINE
  5
55AF
  8
SUNPO
  6
CONTINUOUS
 10
154.5868839610801
 20
146.48855929990111
 30
0.0
 11
101.0868539610801
 21
146.48855929990111
 31
0.0
  0
LINE
  5
55B0
  8
SUNPO
  6
CONTINUOUS
 10
101.0868539610801
 20
146.48855929990111
 30
0.0
 11
101.0868539610801
 21
151.48850129990109
 31
0.0
  0
LINE
  5
55B1
  8
SUNPO
  6
CONTINUOUS
 10
164.58749396108001
 20
316.48872329990093
 30
0.0
 11
101.08749396108
 21
316.48872329990093
 31
0.0
  0
LINE
  5
55B2
  8
SUNPO
  6
CONTINUOUS
 10
101.08749396108
 20
306.48871729990111
 30
0.0
 11
101.08749396108
 21
316.48872329990093
 31
0.0
  0
LINE
  5
55B3
  8
SUNPO
  6
CONTINUOUS
 10
154.08750196108011
 20
306.48871729990111
 30
0.0
 11
101.08749396108
 21
306.48871729990111
 31
0.0
  0
LINE
  5
55B4
  8
SUNPO
  6
CONTINUOUS
 10
101.08749396108
 20
301.4887232999011
 30
0.0
 11
101.08749396108
 21
306.48871729990111
 31
0.0
  0
LINE
  5
55B5
  8
SUNPO
  6
CONTINUOUS
 10
129.58749396108001
 20
286.48848729990112
 30
0.0
 11
111.0874939610801
 21
286.48848729990112
 31
0.0
  0
LINE
  5
55B6
  8
SUNPO
  6
CONTINUOUS
 10
111.0874939610801
 20
261.4884872999009
 30
0.0
 11
111.0874939610801
 21
286.48848729990112
 31
0.0
  0
LINE
  5
55B7
  8
SUNPO
  6
CONTINUOUS
 10
130.0874939610801
 20
298.48850129990092
 30
0.0
 11
111.0874939610801
 21
298.48850129990092
 31
0.0
  0
LINE
  5
55B8
  8
SUNPO
  6
CONTINUOUS
 10
111.0874939610801
 20
286.48848729990112
 30
0.0
 11
111.0874939610801
 21
298.48850129990092
 31
0.0
  0
LINE
  5
55B9
  8
SUNPO
  6
CONTINUOUS
 10
111.0874939610801
 20
298.48850129990092
 30
0.0
 11
111.0874939610801
 21
301.48850129990092
 31
0.0
  0
LINE
  5
55BA
  8
DANMEN
  6
CONTINUOUS
 10
143.3016734095319
 20
166.98850146028141
 30
0.0
 11
144.4875211104418
 21
168.1743491611912
 31
0.0
  0
LINE
  5
55BB
  8
DANMEN
  6
CONTINUOUS
 10
140.4732462847858
 20
166.98850146028141
 30
0.0
 11
142.4732462847858
 21
168.98850146028141
 31
0.0
  0
LINE
  5
55BC
  8
DANMEN
  6
CONTINUOUS
 10
140.28750692846481
 20
169.63118922870669
 30
0.0
 11
141.48750692846491
 21
170.83118922870651
 31
0.0
  0
LINE
  5
55BD
  8
DANMEN
  6
CONTINUOUS
 10
137.6448191600395
 20
166.98850146028141
 30
0.0
 11
139.6448191600395
 21
168.98850146028141
 31
0.0
  0
LINE
  5
55BE
  8
DANMEN
  6
CONTINUOUS
 10
138.85800295963671
 20
171.0301123846246
 30
0.0
 11
139.81639208297699
 21
171.98850150796511
 31
0.0
  0
LINE
  5
55BF
  8
DANMEN
  6
CONTINUOUS
 10
136.4875211104418
 20
168.65963053542981
 30
0.0
 11
136.8163920352934
 21
168.98850146028141
 31
0.0
  0
LINE
  5
55C0
  8
DANMEN
  6
CONTINUOUS
 10
137.01640729408251
 20
169.18851671907041
 30
0.0
 11
138.8163920352934
 21
170.98850146028141
 31
0.0
  0
LINE
  5
55C1
  8
DANMEN
  6
CONTINUOUS
 10
134.9513517432076
 20
169.95188829294159
 30
0.0
 11
135.6613744410173
 21
170.66191099075141
 31
0.0
  0
LINE
  5
55C2
  8
DANMEN
  6
CONTINUOUS
 10
134.08750998022271
 20
171.91647365470311
 30
0.0
 11
134.10953778580111
 21
171.9385014602814
 31
0.0
  0
LINE
  5
55C3
  8
SUNPO
  6
CONTINUOUS
 10
268.83117696108002
 20
222.6291572999011
 30
0.0
 11
268.83117696108002
 21
241.6291002999011
 31
0.0
  0
LINE
  5
55C4
  8
SUNPO
  6
CONTINUOUS
 10
263.83117796108002
 20
187.62917329990111
 30
0.0
 11
263.83117796108002
 21
241.6291002999011
 31
0.0
  0
LINE
  5
55C5
  8
SUNPO
  6
CONTINUOUS
 10
263.83117796108002
 20
241.6291002999011
 30
0.0
 11
268.83117696108002
 21
241.6291002999011
 31
0.0
  0
LINE
  5
55C6
  8
SUNPO
  6
CONTINUOUS
 10
433.33078996108009
 20
187.62917329990111
 30
0.0
 11
433.33078996108009
 21
241.6291002999011
 31
0.0
  0
LINE
  5
55C7
  8
SUNPO
  6
CONTINUOUS
 10
428.3307909610802
 20
222.6291572999011
 30
0.0
 11
428.3307909610802
 21
241.6291002999011
 31
0.0
  0
LINE
  5
55C8
  8
SUNPO
  6
CONTINUOUS
 10
428.3307909610802
 20
241.6291002999011
 30
0.0
 11
433.33078996108009
 21
241.6291002999011
 31
0.0
  0
ARC
  5
55C9
  8
DANMEN
  6
CONTINUOUS
 10
152.78746896108009
 20
166.33855929990111
 30
0.0
 40
1.0
 50
90.0
 51
180.0
  0
ARC
  5
55CA
  8
DANMEN
  6
CONTINUOUS
 10
200.38746896108009
 20
141.98855929990111
 30
0.0
 40
0.5
 50
180.0
 51
270.0
  0
LINE
  5
55CB
  8
DANMEN
  6
CONTINUOUS
 10
199.88746896108009
 20
144.48855929990111
 30
0.0
 11
199.88746896108009
 21
141.98855929990111
 31
0.0
  0
ARC
  5
55CC
  8
DANMEN
  6
CONTINUOUS
 10
200.58746896108011
 20
141.98855929990111
 30
0.0
 40
0.5
 50
270.0
 51
0.0
  0
LINE
  5
55CD
  8
DANMEN
  6
CONTINUOUS
 10
200.38746896108009
 20
141.48855929990111
 30
0.0
 11
200.58746896108011
 21
141.48855929990111
 31
0.0
  0
ARC
  5
55CE
  8
DANMEN
  6
CONTINUOUS
 10
171.5874949610801
 20
145.63851229990109
 30
0.0
 40
0.5
 50
0.0
 51
90.0
  0
LINE
  5
55CF
  8
DANMEN
  6
CONTINUOUS
 10
167.7374949610801
 20
146.13851229990101
 30
0.0
 11
171.5874949610801
 21
146.13851229990101
 31
0.0
  0
LINE
  5
55D0
  8
DANMEN
  6
CONTINUOUS
 10
166.0874949610801
 20
146.488535299901
 30
0.0
 11
166.0874949610801
 21
136.98851829990099
 31
0.0
  0
LINE
  5
55D1
  8
DANMEN
  6
CONTINUOUS
 10
167.7374949610801
 20
147.63851229990109
 30
0.0
 11
167.7374949610801
 21
146.13851229990101
 31
0.0
  0
ARC
  5
55D2
  8
DANMEN
  6
CONTINUOUS
 10
171.5874949610801
 20
144.98851829990099
 30
0.0
 40
0.5
 50
270.00001799999922
 51
0.0
  0
LINE
  5
55D3
  8
DANMEN
  6
CONTINUOUS
 10
172.0874949610801
 20
145.63851229990109
 30
0.0
 11
172.0874949610801
 21
144.98851829990099
 31
0.0
  0
LINE
  5
55D4
  8
DANMEN
  6
CONTINUOUS
 10
167.7374949610801
 20
144.48851829990099
 30
0.0
 11
171.5874949610801
 21
144.48851829990099
 31
0.0
  0
LINE
  5
55D5
  8
DANMEN
  6
CONTINUOUS
 10
166.5874949610801
 20
136.48851829990099
 30
0.0
 11
167.23749496108019
 21
136.48851829990099
 31
0.0
  0
ARC
  5
55D6
  8
DANMEN
  6
CONTINUOUS
 10
166.5874949610801
 20
136.98851829990099
 30
0.0
 40
0.5
 50
180.0
 51
270.0
  0
ARC
  5
55D7
  8
DANMEN
  6
CONTINUOUS
 10
167.23749496108019
 20
136.98851829990099
 30
0.0
 40
0.5
 50
270.0
 51
0.0
  0
LINE
  5
55D8
  8
DANMEN
  6
CONTINUOUS
 10
201.08746896108011
 20
195.98855929990111
 30
0.0
 11
201.08746896108011
 21
141.98855929990111
 31
0.0
  0
LINE
  5
55D9
  8
DANMEN
  6
CONTINUOUS
 10
199.43747496108011
 20
154.48855229990099
 30
0.0
 11
199.43747496108011
 21
146.13855229990111
 31
0.0
  0
LINE
  5
55DA
  8
DANMEN
  6
CONTINUOUS
 10
195.58746896108011
 20
144.48855929990111
 30
0.0
 11
199.88746896108009
 21
144.48855929990111
 31
0.0
  0
LINE
  5
55DB
  8
DANMEN
  6
CONTINUOUS
 10
195.08746896108011
 20
145.63855229990111
 30
0.0
 11
195.08746896108011
 21
144.98855929990111
 31
0.0
  0
LINE
  5
55DC
  8
DANMEN
  6
CONTINUOUS
 10
195.58746896108011
 20
146.13855229990111
 30
0.0
 11
199.43747496108011
 21
146.13855229990111
 31
0.0
  0
ARC
  5
55DD
  8
DANMEN
  6
CONTINUOUS
 10
195.58746896108011
 20
144.98855929990111
 30
0.0
 40
0.5
 50
180.00001899999961
 51
270.00000100000148
  0
ARC
  5
55DE
  8
DANMEN
  6
CONTINUOUS
 10
195.58746896108011
 20
145.63855229990111
 30
0.0
 40
0.5
 50
89.999982000000813
 51
180.00001899999961
  0
LINE
  5
55DF
  8
DANMEN
  6
CONTINUOUS
 10
165.4280419610802
 20
148.13851229990101
 30
0.0
 11
167.23749496108019
 21
148.13851229990101
 31
0.0
  0
LINE
  5
55E0
  8
DANMEN
  6
CONTINUOUS
 10
167.7374949610801
 20
144.48851829990099
 30
0.0
 11
167.7374949610801
 21
136.98851829990099
 31
0.0
  0
ARC
  5
55E1
  8
DANMEN
  6
CONTINUOUS
 10
167.23749496108019
 20
147.63851229990109
 30
0.0
 40
0.5
 50
0.0
 51
90.0
  0
ARC
  5
55E2
  8
DANMEN
  6
CONTINUOUS
 10
156.0874949610801
 20
146.988535299901
 30
0.0
 40
0.5
 50
180.0
 51
270.0
  0
LINE
  5
55E3
  8
DANMEN
  6
CONTINUOUS
 10
166.0874949610801
 20
146.488535299901
 30
0.0
 11
156.0874949610801
 21
146.488535299901
 31
0.0
  0
LINE
  5
55E4
  8
DANMEN
  6
CONTINUOUS
 10
155.5874949610801
 20
146.988535299901
 30
0.0
 11
155.5874949610801
 21
151.488535299901
 31
0.0
  0
ARC
  5
55E5
  8
DANMEN
  6
CONTINUOUS
 10
131.58749496108021
 20
154.05760729990109
 30
0.0
 40
0.5
 50
98.489015999998642
 51
180.0
  0
LINE
  5
55E6
  8
DANMEN
  6
CONTINUOUS
 10
144.4874949610801
 20
156.488535299901
 30
0.0
 11
131.5136849610802
 21
154.552129299901
 31
0.0
  0
ARC
  5
55E7
  8
DANMEN
  6
CONTINUOUS
 10
184.78746896108009
 20
188.83855929990111
 30
0.0
 40
1.0
 50
0.0
 51
90.0
  0
ARC
  5
55E8
  8
DANMEN
  6
CONTINUOUS
 10
193.38746896108009
 20
189.447210299901
 30
0.0
 40
1.0
 50
119.6449370000019
 51
180.0
  0
ARC
  5
55E9
  8
DANMEN
  6
CONTINUOUS
 10
184.78746896108009
 20
157.13855229990111
 30
0.0
 40
1.0
 50
270.0
 51
0.0
  0
ARC
  5
55EA
  8
DANMEN
  6
CONTINUOUS
 10
193.38746896108009
 20
157.13855229990111
 30
0.0
 40
1.0
 50
180.0
 51
270.0
  0
ARC
  5
55EB
  8
DANMEN
  6
CONTINUOUS
 10
147.13749496108011
 20
160.7885592999011
 30
0.0
 40
1.0
 50
90.0
 51
180.0
  0
ARC
  5
55EC
  8
DANMEN
  6
CONTINUOUS
 10
191.08746896108011
 20
193.48855929990111
 30
0.0
 40
3.649999999999999
 50
299.6449370000019
 51
0.0
  0
LINE
  5
55ED
  8
DANMEN
  6
CONTINUOUS
 10
176.73746896108011
 20
178.7002682999011
 30
0.0
 11
176.73746896108011
 21
189.83855929990091
 31
0.0
  0
LINE
  5
55EE
  8
DANMEN
  6
CONTINUOUS
 10
162.67058996108011
 20
167.33855929990111
 30
0.0
 11
176.73746896108011
 21
178.7002682999011
 31
0.0
  0
ARC
  5
55EF
  8
DANMEN
  6
CONTINUOUS
 10
158.78749496108011
 20
155.13855229990111
 30
0.0
 40
1.0
 50
90.0
 51
180.0
  0
LINE
  5
55F0
  8
DANMEN
  6
CONTINUOUS
 10
157.78749496108011
 20
155.13855229990111
 30
0.0
 11
157.78749496108011
 21
153.13853529990089
 31
0.0
  0
LINE
  5
55F1
  8
DANMEN
  6
CONTINUOUS
 10
146.13749496108011
 20
153.13853529990089
 30
0.0
 11
157.78749496108011
 21
153.13853529990089
 31
0.0
  0
ARC
  5
55F2
  8
DANMEN
  6
CONTINUOUS
 10
131.58749496108021
 20
151.988535299901
 30
0.0
 40
0.5
 50
180.0
 51
270.0
  0
ARC
  5
55F3
  8
DANMEN
  6
CONTINUOUS
 10
165.53498696108019
 20
153.48855229990099
 30
0.0
 40
1.0
 50
90.0
 51
193.4937369999991
  0
ARC
  5
55F4
  8
DANMEN
  6
CONTINUOUS
 10
165.4280419610802
 20
149.13851229990101
 30
0.0
 40
1.0
 50
159.5122089999993
 51
270.0
  0
LINE
  5
55F5
  8
DANMEN
  6
CONTINUOUS
 10
160.2874949610802
 20
152.28853529990101
 30
0.0
 11
160.2874949610802
 21
150.68853529990099
 31
0.0
  0
LINE
  5
55F6
  8
DANMEN
  6
CONTINUOUS
 10
162.53355596108011
 20
153.28853529990101
 30
0.0
 11
161.2874949610802
 21
153.28853529990101
 31
0.0
  0
LINE
  5
55F7
  8
DANMEN
  6
CONTINUOUS
 10
164.0874949610801
 20
152.58853529990111
 30
0.0
 11
163.6244269610801
 21
152.58853529990111
 31
0.0
  0
ARC
  5
55F8
  8
DANMEN
  6
CONTINUOUS
 10
162.53355596108011
 20
152.28853529990101
 30
0.0
 40
1.0
 50
24.62431800000083
 51
90.0
  0
ARC
  5
55F9
  8
DANMEN
  6
CONTINUOUS
 10
163.6244269610801
 20
152.7885352999011
 30
0.0
 40
0.2
 50
204.62431800000081
 51
270.0
  0
ARC
  5
55FA
  8
DANMEN
  6
CONTINUOUS
 10
164.0874949610801
 20
153.08853529990111
 30
0.0
 40
0.5
 50
270.0
 51
11.536958999999859
  0
ARC
  5
55FB
  8
DANMEN
  6
CONTINUOUS
 10
162.61780096108009
 20
152.7885352999011
 30
0.0
 40
2.0
 50
11.536958999999859
 51
13.49373699999926
  0
LINE
  5
55FC
  8
DANMEN
  6
CONTINUOUS
 10
162.53355596108011
 20
149.68853529990099
 30
0.0
 11
161.2874949610802
 21
149.68853529990099
 31
0.0
  0
ARC
  5
55FD
  8
DANMEN
  6
CONTINUOUS
 10
162.61780096108009
 20
150.18853529990099
 30
0.0
 40
2.0
 50
339.51220899999919
 51
348.46304100000009
  0
ARC
  5
55FE
  8
DANMEN
  6
CONTINUOUS
 10
164.0874949610801
 20
149.88853529990101
 30
0.0
 40
0.5
 50
348.46304100000009
 51
90.0
  0
ARC
  5
55FF
  8
DANMEN
  6
CONTINUOUS
 10
163.6244269610801
 20
150.18853529990099
 30
0.0
 40
0.2
 50
90.0
 51
155.37568199999899
  0
ARC
  5
5600
  8
DANMEN
  6
CONTINUOUS
 10
162.53355596108011
 20
150.68853529990099
 30
0.0
 40
1.0
 50
270.0
 51
335.37568199999919
  0
LINE
  5
5601
  8
DANMEN
  6
CONTINUOUS
 10
164.0874949610801
 20
150.38853529990109
 30
0.0
 11
163.6244269610801
 21
150.38853529990109
 31
0.0
  0
ARC
  5
5602
  8
DANMEN
  6
CONTINUOUS
 10
161.2874949610802
 20
152.28853529990101
 30
0.0
 40
1.0
 50
90.0
 51
180.0
  0
ARC
  5
5603
  8
DANMEN
  6
CONTINUOUS
 10
161.2874949610802
 20
150.68853529990099
 30
0.0
 40
1.0
 50
180.0
 51
270.0
  0
ARC
  5
5604
  8
DANMEN
  6
CONTINUOUS
 10
148.4211739610802
 20
162.5385592999011
 30
0.0
 40
0.75
 50
270.0
 51
90.0
  0
ARC
  5
5605
  8
DANMEN
  6
CONTINUOUS
 10
151.03746896108009
 20
165.15485429990099
 30
0.0
 40
0.75
 50
180.0
 51
0.0
  0
ARC
  5
5606
  8
DANMEN
  6
CONTINUOUS
 10
147.78746896108009
 20
164.28855929990101
 30
0.0
 40
1.0
 50
180.0
 51
270.0
  0
ARC
  5
5607
  8
DANMEN
  6
CONTINUOUS
 10
149.28746896108009
 20
165.7885592999011
 30
0.0
 40
1.0
 50
0.0
 51
90.0
  0
ARC
  5
5608
  8
DANMEN
  6
CONTINUOUS
 10
147.78746896108009
 20
165.7885592999011
 30
0.0
 40
1.0
 50
90.0
 51
180.0
  0
LINE
  5
5609
  8
DANMEN
  6
CONTINUOUS
 10
147.13749496108011
 20
161.7885592999011
 30
0.0
 11
148.4211739610802
 21
161.7885592999011
 31
0.0
  0
LINE
  5
560A
  8
DANMEN
  6
CONTINUOUS
 10
147.78746896108009
 20
163.2885592999009
 30
0.0
 11
148.4211739610802
 21
163.2885592999009
 31
0.0
  0
LINE
  5
560B
  8
DANMEN
  6
CONTINUOUS
 10
150.28746896108009
 20
165.15485429990099
 30
0.0
 11
150.28746896108009
 21
165.7885592999011
 31
0.0
  0
LINE
  5
560C
  8
DANMEN
  6
CONTINUOUS
 10
146.78746896108009
 20
164.28855929990101
 30
0.0
 11
146.78746896108009
 21
165.7885592999011
 31
0.0
  0
LINE
  5
560D
  8
DANMEN
  6
CONTINUOUS
 10
147.78746896108009
 20
166.7885592999011
 30
0.0
 11
149.28746896108009
 21
166.7885592999011
 31
0.0
  0
LINE
  5
560E
  8
DANMEN
  6
CONTINUOUS
 10
151.78746896108009
 20
165.15485429990099
 30
0.0
 11
151.78746896108009
 21
166.33855929990111
 31
0.0
  0
LINE
  5
560F
  8
DANMEN
  6
CONTINUOUS
 10
146.13749496108011
 20
153.13853529990089
 30
0.0
 11
146.13749496108011
 21
160.7885592999011
 31
0.0
  0
LINE
  5
5610
  8
DANMEN
  6
CONTINUOUS
 10
152.78746896108009
 20
167.33855929990111
 30
0.0
 11
162.67058996108011
 21
167.33855929990111
 31
0.0
  0
LINE
  5
5611
  8
DANMEN
  6
CONTINUOUS
 10
131.58749496108021
 20
151.488535299901
 30
0.0
 11
155.5874949610801
 21
151.488535299901
 31
0.0
  0
ARC
  5
5612
  8
DANMEN
  6
CONTINUOUS
 10
131.58749496108021
 20
166.98851829990099
 30
0.0
 40
0.5
 50
180.0
 51
270.0
  0
ARC
  5
5613
  8
DANMEN
  6
CONTINUOUS
 10
132.08750696108021
 20
166.98851829990099
 30
0.0
 40
0.5
 50
270.0
 51
0.0
  0
LINE
  5
5614
  8
DANMEN
  6
CONTINUOUS
 10
132.58750696108021
 20
166.98851829990099
 30
0.0
 11
144.4874949610801
 21
166.98851829990099
 31
0.0
  0
LINE
  5
5615
  8
DANMEN
  6
CONTINUOUS
 10
132.08750696108021
 20
166.48851829990099
 30
0.0
 11
131.58749496108021
 21
166.48851829990099
 31
0.0
  0
LINE
  5
5616
  8
DANMEN
  6
CONTINUOUS
 10
138.78750696108011
 20
171.98851829990099
 30
0.0
 11
141.4875069610801
 21
171.98851829990099
 31
0.0
  0
LINE
  5
5617
  8
DANMEN
  6
CONTINUOUS
 10
134.0875099610802
 20
171.98851829990099
 30
0.0
 11
131.0875099610802
 21
171.98851829990099
 31
0.0
  0
LINE
  5
5618
  8
DANMEN
  6
CONTINUOUS
 10
133.08750696108021
 20
168.98851829990099
 30
0.0
 11
133.08750696108021
 21
170.98851829990099
 31
0.0
  0
LINE
  5
5619
  8
DANMEN
  6
CONTINUOUS
 10
134.0875099610802
 20
170.98851829990099
 30
0.0
 11
133.08750696108021
 21
170.98851829990099
 31
0.0
  0
LINE
  5
561A
  8
DANMEN
  6
CONTINUOUS
 10
133.08750696108021
 20
168.98851829990099
 30
0.0
 11
140.2875069610802
 21
168.98851829990099
 31
0.0
  0
LINE
  5
561B
  8
DANMEN
  6
CONTINUOUS
 10
138.2875069610802
 20
170.98851829990099
 30
0.0
 11
140.2875069610802
 21
170.98851829990099
 31
0.0
  0
LINE
  5
561C
  8
DANMEN
  6
CONTINUOUS
 10
140.2875069610802
 20
168.98851829990099
 30
0.0
 11
140.2875069610802
 21
170.98851829990099
 31
0.0
  0
LINE
  5
561D
  8
DANMEN
  6
CONTINUOUS
 10
138.2875069610802
 20
170.98851829990099
 30
0.0
 11
138.2875069610802
 21
171.48851829990099
 31
0.0
  0
ARC
  5
561E
  8
DANMEN
  6
CONTINUOUS
 10
138.78750696108011
 20
171.48851829990099
 30
0.0
 40
0.5
 50
90.000017999999173
 51
179.99998199999999
  0
LINE
  5
561F
  8
DANMEN
  6
CONTINUOUS
 10
134.0875099610802
 20
170.98851829990099
 30
0.0
 11
134.0875099610802
 21
171.98851829990099
 31
0.0
  0
LINE
  5
5620
  8
DANMEN
  6
CONTINUOUS
 10
131.08749496108021
 20
171.98851829990099
 30
0.0
 11
131.08749496108021
 21
166.98851829990099
 31
0.0
  0
LINE
  5
5621
  8
DANMEN
  6
CONTINUOUS
 10
141.4875069610801
 20
171.98851829990099
 30
0.0
 11
141.4875069610801
 21
168.98851829990099
 31
0.0
  0
LINE
  5
5622
  8
DANMEN
  6
CONTINUOUS
 10
131.08749496108021
 20
151.988535299901
 30
0.0
 11
131.08749496108021
 21
154.05760729990109
 31
0.0
  0
LINE
  5
5623
  8
DANMEN
  6
CONTINUOUS
 10
144.4874949610801
 20
156.488535299901
 30
0.0
 11
144.4874949610801
 21
167.03851829990111
 31
0.0
  0
LINE
  5
5624
  8
DANMEN
  6
CONTINUOUS
 10
141.48748096108011
 20
168.98855929990111
 30
0.0
 11
162.08746896108011
 21
168.98855929990111
 31
0.0
  0
ARC
  5
5625
  8
DANMEN
  6
CONTINUOUS
 10
200.58746896108011
 20
195.98855929990111
 30
0.0
 40
0.5
 50
0.0
 51
90.0
  0
LINE
  5
5626
  8
DANMEN
  6
CONTINUOUS
 10
154.7374679610802
 20
189.83855929990091
 30
0.0
 11
175.08746896108011
 21
189.83855929990091
 31
0.0
  0
LINE
  5
5627
  8
DANMEN
  6
CONTINUOUS
 10
199.43746896107999
 20
156.13855229990099
 30
0.0
 11
199.43746896107999
 21
194.83855929990091
 31
0.0
  0
LINE
  5
5628
  8
DANMEN
  6
CONTINUOUS
 10
154.7374679610802
 20
180.48855929990111
 30
0.0
 11
154.7374679610802
 21
189.83855929990091
 31
0.0
  0
ARC
  5
5629
  8
DANMEN
  6
CONTINUOUS
 10
152.0874379610801
 20
180.98855929990111
 30
0.0
 40
0.5
 50
90.0
 51
180.0
  0
ARC
  5
562A
  8
DANMEN
  6
CONTINUOUS
 10
152.0874379610801
 20
180.98855929990111
 30
0.0
 40
0.5
 50
180.0
 51
270.0
  0
LINE
  5
562B
  8
DANMEN
  6
CONTINUOUS
 10
152.0874379610801
 20
181.48855929990111
 30
0.0
 11
153.08746796108011
 21
181.48855929990111
 31
0.0
  0
LINE
  5
562C
  8
DANMEN
  6
CONTINUOUS
 10
152.0874379610801
 20
180.48855929990111
 30
0.0
 11
154.7374679610802
 21
180.48855929990111
 31
0.0
  0
LINE
  5
562D
  8
DANMEN
  6
CONTINUOUS
 10
153.08746796108011
 20
190.98855929990111
 30
0.0
 11
153.08746796108011
 21
181.48855929990111
 31
0.0
  0
LINE
  5
562E
  8
DANMEN
  6
CONTINUOUS
 10
175.08746896108011
 20
179.48855929990111
 30
0.0
 11
175.08746896108011
 21
189.83855929990091
 31
0.0
  0
LINE
  5
562F
  8
DANMEN
  6
CONTINUOUS
 10
190.18746896107999
 20
160.48855929990111
 30
0.0
 11
190.18746896107999
 21
160.02549129990101
 31
0.0
  0
ARC
  5
5630
  8
DANMEN
  6
CONTINUOUS
 10
189.88746896108009
 20
158.93461929990099
 30
0.0
 40
1.0
 50
0.0
 51
65.375681999999898
  0
ARC
  5
5631
  8
DANMEN
  6
CONTINUOUS
 10
190.38746896108009
 20
160.02549129990101
 30
0.0
 40
0.2
 50
180.0
 51
245.37568199999981
  0
ARC
  5
5632
  8
DANMEN
  6
CONTINUOUS
 10
190.6874689610801
 20
160.48855929990111
 30
0.0
 40
0.5
 50
78.463041000000146
 51
180.0
  0
ARC
  5
5633
  8
DANMEN
  6
CONTINUOUS
 10
190.38746896108009
 20
159.01886529990091
 30
0.0
 40
2.0
 50
0.0
 51
78.463041000000146
  0
LINE
  5
5634
  8
DANMEN
  6
CONTINUOUS
 10
192.38746896108009
 20
159.01886529990091
 30
0.0
 11
192.38746896108009
 21
157.13855229990111
 31
0.0
  0
LINE
  5
5635
  8
DANMEN
  6
CONTINUOUS
 10
190.88746896108009
 20
158.93461929990099
 30
0.0
 11
190.88746896108009
 21
157.68855929990099
 31
0.0
  0
ARC
  5
5636
  8
DANMEN
  6
CONTINUOUS
 10
187.78746896108009
 20
159.01886529990091
 30
0.0
 40
2.0
 50
101.5369589999997
 51
180.0
  0
ARC
  5
5637
  8
DANMEN
  6
CONTINUOUS
 10
187.48746896108011
 20
160.48855929990111
 30
0.0
 40
0.5
 50
0.0
 51
101.5369589999997
  0
ARC
  5
5638
  8
DANMEN
  6
CONTINUOUS
 10
187.78746896108009
 20
160.02549129990101
 30
0.0
 40
0.2
 50
294.62431800000002
 51
0.0
  0
ARC
  5
5639
  8
DANMEN
  6
CONTINUOUS
 10
188.28746896108009
 20
158.93461929990099
 30
0.0
 40
1.0
 50
114.6243180000001
 51
180.0
  0
LINE
  5
563A
  8
DANMEN
  6
CONTINUOUS
 10
187.98746896108011
 20
160.48855929990111
 30
0.0
 11
187.98746896108011
 21
160.02549129990101
 31
0.0
  0
ARC
  5
563B
  8
DANMEN
  6
CONTINUOUS
 10
188.28746896108009
 20
157.68855929990099
 30
0.0
 40
1.0
 50
180.0
 51
270.0
  0
ARC
  5
563C
  8
DANMEN
  6
CONTINUOUS
 10
189.88746896108009
 20
157.68855929990099
 30
0.0
 40
1.0
 50
270.0
 51
0.0
  0
LINE
  5
563D
  8
DANMEN
  6
CONTINUOUS
 10
185.78746896108009
 20
159.01886529990091
 30
0.0
 11
185.78746896108009
 21
157.13855229990111
 31
0.0
  0
LINE
  5
563E
  8
DANMEN
  6
CONTINUOUS
 10
187.28746896108009
 20
158.93461929990099
 30
0.0
 11
187.28746896108009
 21
157.68855929990099
 31
0.0
  0
LINE
  5
563F
  8
DANMEN
  6
CONTINUOUS
 10
188.28746896108009
 20
156.68855929990099
 30
0.0
 11
189.88746896108009
 21
156.68855929990099
 31
0.0
  0
LINE
  5
5640
  8
DANMEN
  6
CONTINUOUS
 10
158.78749496108011
 20
156.13855229990099
 30
0.0
 11
184.78746896108009
 21
156.13855229990099
 31
0.0
  0
LINE
  5
5641
  8
DANMEN
  6
CONTINUOUS
 10
193.38746896108009
 20
156.13855229990099
 30
0.0
 11
199.43746896107999
 21
156.13855229990099
 31
0.0
  0
LINE
  5
5642
  8
DANMEN
  6
CONTINUOUS
 10
162.08746896108011
 20
168.98855929990111
 30
0.0
 11
175.08746896108011
 21
179.48855929990111
 31
0.0
  0
LINE
  5
5643
  8
DANMEN
  6
CONTINUOUS
 10
165.53498696108019
 20
154.48855229990099
 30
0.0
 11
199.43747496108011
 21
154.48855229990099
 31
0.0
  0
ARC
  5
5644
  8
DANMEN
  6
CONTINUOUS
 10
191.08746896108011
 20
193.48855929990111
 30
0.0
 40
2.0
 50
270.0
 51
0.0
  0
LINE
  5
5645
  8
DANMEN
  6
CONTINUOUS
 10
193.58746896108011
 20
196.48855929990111
 30
0.0
 11
200.58746896108011
 21
196.48855929990111
 31
0.0
  0
LINE
  5
5646
  8
DANMEN
  6
CONTINUOUS
 10
194.73746896108011
 20
194.83855929990091
 30
0.0
 11
199.43746896107999
 21
194.83855929990091
 31
0.0
  0
LINE
  5
5647
  8
DANMEN
  6
CONTINUOUS
 10
194.73746896108011
 20
193.48855929990111
 30
0.0
 11
194.73746896108011
 21
194.83855929990091
 31
0.0
  0
LINE
  5
5648
  8
DANMEN
  6
CONTINUOUS
 10
193.08746896108011
 20
193.48855929990111
 30
0.0
 11
193.08746896108011
 21
195.98855929990111
 31
0.0
  0
ARC
  5
5649
  8
DANMEN
  6
CONTINUOUS
 10
193.58746896108011
 20
195.98855929990111
 30
0.0
 40
0.5
 50
90.0
 51
180.0
  0
LINE
  5
564A
  8
DANMEN
  6
CONTINUOUS
 10
153.58746796108019
 20
191.48855929990111
 30
0.0
 11
191.08746896108011
 21
191.48855929990111
 31
0.0
  0
LINE
  5
564B
  8
DANMEN
  6
CONTINUOUS
 10
176.73746896108011
 20
189.83855929990091
 30
0.0
 11
184.78746896108009
 21
189.83855929990091
 31
0.0
  0
LINE
  5
564C
  8
DANMEN
  6
CONTINUOUS
 10
187.98746896108011
 20
185.48855929990111
 30
0.0
 11
187.98746896108011
 21
185.95162729990111
 31
0.0
  0
ARC
  5
564D
  8
DANMEN
  6
CONTINUOUS
 10
188.28746896108009
 20
187.04249829990101
 30
0.0
 40
1.0
 50
180.0
 51
245.37568199999981
  0
ARC
  5
564E
  8
DANMEN
  6
CONTINUOUS
 10
187.78746896108009
 20
185.95162729990111
 30
0.0
 40
0.2
 50
0.0
 51
65.375681999999898
  0
ARC
  5
564F
  8
DANMEN
  6
CONTINUOUS
 10
187.48746896108011
 20
185.48855929990111
 30
0.0
 40
0.5
 50
258.46304099999998
 51
0.0
  0
ARC
  5
5650
  8
DANMEN
  6
CONTINUOUS
 10
187.78746896108009
 20
186.95825229990101
 30
0.0
 40
2.0
 50
180.0
 51
258.46304099999998
  0
LINE
  5
5651
  8
DANMEN
  6
CONTINUOUS
 10
185.78746896108009
 20
186.95825229990101
 30
0.0
 11
185.78746896108009
 21
188.83855929990111
 31
0.0
  0
LINE
  5
5652
  8
DANMEN
  6
CONTINUOUS
 10
187.28746896108009
 20
187.04249829990101
 30
0.0
 11
187.28746896108009
 21
188.2885592999009
 31
0.0
  0
ARC
  5
5653
  8
DANMEN
  6
CONTINUOUS
 10
190.38746896108009
 20
186.95825229990101
 30
0.0
 40
2.0
 50
281.5369589999998
 51
0.0
  0
ARC
  5
5654
  8
DANMEN
  6
CONTINUOUS
 10
190.6874689610801
 20
185.48855929990111
 30
0.0
 40
0.5
 50
180.0
 51
281.5369589999998
  0
ARC
  5
5655
  8
DANMEN
  6
CONTINUOUS
 10
190.38746896108009
 20
185.95162729990111
 30
0.0
 40
0.2
 50
114.6243180000001
 51
180.0
  0
ARC
  5
5656
  8
DANMEN
  6
CONTINUOUS
 10
189.88746896108009
 20
187.04249829990101
 30
0.0
 40
1.0
 50
294.62431800000002
 51
0.0
  0
LINE
  5
5657
  8
DANMEN
  6
CONTINUOUS
 10
190.18746896107999
 20
185.48855929990111
 30
0.0
 11
190.18746896107999
 21
185.95162729990111
 31
0.0
  0
ARC
  5
5658
  8
DANMEN
  6
CONTINUOUS
 10
189.88746896108009
 20
188.2885592999009
 30
0.0
 40
1.0
 50
0.0
 51
90.0
  0
ARC
  5
5659
  8
DANMEN
  6
CONTINUOUS
 10
188.28746896108009
 20
188.2885592999009
 30
0.0
 40
1.0
 50
90.0
 51
180.0
  0
LINE
  5
565A
  8
DANMEN
  6
CONTINUOUS
 10
192.38746896108009
 20
186.95825229990101
 30
0.0
 11
192.38746896108009
 21
189.447210299901
 31
0.0
  0
LINE
  5
565B
  8
DANMEN
  6
CONTINUOUS
 10
190.88746896108009
 20
187.04249829990101
 30
0.0
 11
190.88746896108009
 21
188.2885592999009
 31
0.0
  0
LINE
  5
565C
  8
DANMEN
  6
CONTINUOUS
 10
189.88746896108009
 20
189.2885592999011
 30
0.0
 11
188.28746896108009
 21
189.2885592999011
 31
0.0
  0
ARC
  5
565D
  8
DANMEN
  6
CONTINUOUS
 10
153.58746796108019
 20
190.98855929990111
 30
0.0
 40
0.5
 50
90.0
 51
180.0
  0
LINE
  5
565E
  8
DANMEN
  6
CONTINUOUS
 10
408.33075751883212
 20
206.58506073605739
 30
0.0
 11
407.78676259910651
 21
207.1290556557833
 31
0.0
  0
LINE
  5
565F
  8
DANMEN
  6
CONTINUOUS
 10
408.33075751883212
 20
205.17084717368439
 30
0.0
 11
406.3725490367334
 21
207.1290556557833
 31
0.0
  0
LINE
  5
5660
  8
DANMEN
  6
CONTINUOUS
 10
408.33075751883212
 20
203.7566336113114
 30
0.0
 11
404.95833547436013
 21
207.1290556557833
 31
0.0
  0
LINE
  5
5661
  8
DANMEN
  6
CONTINUOUS
 10
408.33075751883212
 20
202.34242004893821
 30
0.0
 11
403.54412191198708
 21
207.1290556557833
 31
0.0
  0
LINE
  5
5662
  8
DANMEN
  6
CONTINUOUS
 10
408.33075751883212
 20
200.9282064865651
 30
0.0
 11
402.3616494888451
 21
206.89731451655231
 31
0.0
  0
LINE
  5
5663
  8
DANMEN
  6
CONTINUOUS
 10
408.21559527193642
 20
199.62915517108769
 30
0.0
 11
402.5792197929627
 21
205.26553065006161
 31
0.0
  0
LINE
  5
5664
  8
DANMEN
  6
CONTINUOUS
 10
406.80138170956337
 20
199.62915517108769
 30
0.0
 11
402.79679009708008
 21
203.63374678357081
 31
0.0
  0
LINE
  5
5665
  8
DANMEN
  6
CONTINUOUS
 10
405.38716814719032
 20
199.62915517108769
 30
0.0
 11
403.01436040119768
 21
202.00196291708031
 31
0.0
  0
LINE
  5
5666
  8
DANMEN
  6
CONTINUOUS
 10
403.97295458481727
 20
199.62915517108769
 30
0.0
 11
403.23193070531528
 21
200.37017905058951
 31
0.0
  0
LINE
  5
5667
  8
DANMEN
  6
CONTINUOUS
 10
407.87335134952582
 20
199.6291551710878
 30
0.0
 11
408.33075751883212
 21
200.0865613403939
 31
0.0
  0
LINE
  5
5668
  8
DANMEN
  6
CONTINUOUS
 10
406.45913778715271
 20
199.62915517108769
 30
0.0
 11
408.33075751883212
 21
201.50077490276701
 31
0.0
  0
LINE
  5
5669
  8
DANMEN
  6
CONTINUOUS
 10
405.04492422477972
 20
199.62915517108769
 30
0.0
 11
408.33075751883212
 21
202.9149884651402
 31
0.0
  0
LINE
  5
566A
  8
DANMEN
  6
CONTINUOUS
 10
403.6307106624065
 20
199.62915517108769
 30
0.0
 11
408.33075751883212
 21
204.3292020275133
 31
0.0
  0
LINE
  5
566B
  8
DANMEN
  6
CONTINUOUS
 10
403.19964732312729
 20
200.61230539418159
 30
0.0
 11
408.33075751883212
 21
205.74341558988641
 31
0.0
  0
LINE
  5
566C
  8
DANMEN
  6
CONTINUOUS
 10
403.03326984944329
 20
201.8601414828706
 30
0.0
 11
408.30218402235602
 21
207.1290556557833
 31
0.0
  0
LINE
  5
566D
  8
DANMEN
  6
CONTINUOUS
 10
402.86689237575928
 20
203.1079775715597
 30
0.0
 11
406.88797045998291
 21
207.1290556557833
 31
0.0
  0
LINE
  5
566E
  8
DANMEN
  6
CONTINUOUS
 10
402.70051490207533
 20
204.3558136602488
 30
0.0
 11
405.4737568976098
 21
207.1290556557833
 31
0.0
  0
LINE
  5
566F
  8
DANMEN
  6
CONTINUOUS
 10
402.53413742839138
 20
205.6036497489379
 30
0.0
 11
404.05954333523658
 21
207.1290556557833
 31
0.0
  0
LINE
  5
5670
  8
DANMEN
  6
CONTINUOUS
 10
402.36775995470742
 20
206.85148583762711
 30
0.0
 11
402.6453297728637
 21
207.1290556557833
 31
0.0
  0
LINE
  5
5671
  8
DANMEN
  6
CONTINUOUS
 10
408.33075751883212
 20
219.3129827974154
 30
0.0
 11
408.01467861577362
 21
219.62906170047401
 31
0.0
  0
LINE
  5
5672
  8
DANMEN
  6
CONTINUOUS
 10
408.33075751883212
 20
217.89876923504221
 30
0.0
 11
406.60046505340028
 21
219.62906170047401
 31
0.0
  0
LINE
  5
5673
  8
DANMEN
  6
CONTINUOUS
 10
408.33075751883212
 20
216.4845556726691
 30
0.0
 11
405.18625149102729
 21
219.62906170047401
 31
0.0
  0
LINE
  5
5674
  8
DANMEN
  6
CONTINUOUS
 10
408.33075751883212
 20
215.070342110296
 30
0.0
 11
403.77203792865407
 21
219.62906170047401
 31
0.0
  0
LINE
  5
5675
  8
DANMEN
  6
CONTINUOUS
 10
408.33075751883212
 20
213.65612854792289
 30
0.0
 11
403.21628641990338
 21
218.77059964685191
 31
0.0
  0
LINE
  5
5676
  8
DANMEN
  6
CONTINUOUS
 10
408.33075751883212
 20
212.24191498554981
 30
0.0
 11
403.04990894621938
 21
217.52276355816261
 31
0.0
  0
LINE
  5
5677
  8
DANMEN
  6
CONTINUOUS
 10
407.0294032862256
 20
212.1290556557833
 30
0.0
 11
402.88353147253542
 21
216.2749274694736
 31
0.0
  0
LINE
  5
5678
  8
DANMEN
  6
CONTINUOUS
 10
405.6151897238525
 20
212.1290556557833
 30
0.0
 11
402.71715399885142
 21
215.02709138078441
 31
0.0
  0
LINE
  5
5679
  8
DANMEN
  6
CONTINUOUS
 10
404.20097616147967
 20
212.1290556557833
 30
0.0
 11
402.55077652516741
 21
213.7792552920954
 31
0.0
  0
LINE
  5
567A
  8
DANMEN
  6
CONTINUOUS
 10
402.78676259910628
 20
212.1290556557833
 30
0.0
 11
402.3843990514834
 21
212.5314192034063
 31
0.0
  0
LINE
  5
567B
  8
DANMEN
  6
CONTINUOUS
 10
407.64532977286359
 20
212.1290556557833
 30
0.0
 11
408.33075751883212
 21
212.8144834017518
 31
0.0
  0
LINE
  5
567C
  8
DANMEN
  6
CONTINUOUS
 10
406.23111621049043
 20
212.1290556557833
 30
0.0
 11
408.33075751883212
 21
214.22869696412491
 31
0.0
  0
LINE
  5
567D
  8
DANMEN
  6
CONTINUOUS
 10
404.81690264811749
 20
212.1290556557833
 30
0.0
 11
408.33075751883212
 21
215.6429105264979
 31
0.0
  0
LINE
  5
567E
  8
DANMEN
  6
CONTINUOUS
 10
403.40268908574433
 20
212.1290556557833
 30
0.0
 11
408.33075751883212
 21
217.05712408887109
 31
0.0
  0
LINE
  5
567F
  8
DANMEN
  6
CONTINUOUS
 10
402.38340828386492
 20
212.52398841627681
 30
0.0
 11
408.33075751883212
 21
218.4713376512442
 31
0.0
  0
LINE
  5
5680
  8
DANMEN
  6
CONTINUOUS
 10
402.60097858798241
 20
214.1557722827676
 30
0.0
 11
408.07426800568879
 21
219.62906170047401
 31
0.0
  0
LINE
  5
5681
  8
DANMEN
  6
CONTINUOUS
 10
402.81854889210013
 20
215.78755614925831
 30
0.0
 11
406.6600544433158
 21
219.62906170047401
 31
0.0
  0
LINE
  5
5682
  8
DANMEN
  6
CONTINUOUS
 10
403.03611919621761
 20
217.4193400157489
 30
0.0
 11
405.24584088094258
 21
219.62906170047401
 31
0.0
  0
LINE
  5
5683
  8
DANMEN
  6
CONTINUOUS
 10
403.2536895003351
 20
219.05112388223949
 30
0.0
 11
403.83162731856959
 21
219.62906170047401
 31
0.0
  0
LINE
  5
5684
  8
DANMEN
  6
CONTINUOUS
 10
294.80985603614329
 20
206.9688772288988
 30
0.0
 11
294.64974428232409
 21
207.128988982718
 31
0.0
  0
LINE
  5
5685
  8
DANMEN
  6
CONTINUOUS
 10
294.64347203775202
 20
205.72104766491711
 30
0.0
 11
293.23552383344389
 21
207.12899586922509
 31
0.0
  0
LINE
  5
5686
  8
DANMEN
  6
CONTINUOUS
 10
294.47708803936052
 20
204.4732181009353
 30
0.0
 11
291.82130338456381
 21
207.1290027557321
 31
0.0
  0
LINE
  5
5687
  8
DANMEN
  6
CONTINUOUS
 10
294.31070404096897
 20
203.22538853695369
 30
0.0
 11
290.4070829356836
 21
207.1290096422392
 31
0.0
  0
LINE
  5
5688
  8
DANMEN
  6
CONTINUOUS
 10
294.14432004257759
 20
201.97755897297191
 30
0.0
 11
288.99286248680329
 21
207.1290165287464
 31
0.0
  0
LINE
  5
5689
  8
DANMEN
  6
CONTINUOUS
 10
293.97793604418638
 20
200.72972940899021
 30
0.0
 11
288.83118960036018
 21
205.8764758528163
 31
0.0
  0
LINE
  5
568A
  8
DANMEN
  6
CONTINUOUS
 10
293.66429111417028
 20
199.6291607766334
 30
0.0
 11
288.83118136614058
 21
204.46227052466301
 31
0.0
  0
LINE
  5
568B
  8
DANMEN
  6
CONTINUOUS
 10
292.25007755179712
 20
199.6291607766334
 30
0.0
 11
288.83117313192071
 21
203.04806519650981
 31
0.0
  0
LINE
  5
568C
  8
DANMEN
  6
CONTINUOUS
 10
290.83586398942401
 20
199.6291607766334
 30
0.0
 11
288.83116489770077
 21
201.63385986835661
 31
0.0
  0
LINE
  5
568D
  8
DANMEN
  6
CONTINUOUS
 10
289.42165042705079
 20
199.6291607766334
 30
0.0
 11
288.83115666348101
 21
200.21965454020321
 31
0.0
  0
LINE
  5
568E
  8
DANMEN
  6
CONTINUOUS
 10
293.32205840285093
 20
199.6291607766334
 30
0.0
 11
293.9095188556667
 21
200.2166212294492
 31
0.0
  0
LINE
  5
568F
  8
DANMEN
  6
CONTINUOUS
 10
291.90784484047782
 20
199.6291607766334
 30
0.0
 11
294.12710031753022
 21
201.8484162536858
 31
0.0
  0
LINE
  5
5690
  8
DANMEN
  6
CONTINUOUS
 10
290.49363127810477
 20
199.6291607766334
 30
0.0
 11
294.3446817793938
 21
203.48021127792239
 31
0.0
  0
LINE
  5
5691
  8
DANMEN
  6
CONTINUOUS
 10
289.07941771573161
 20
199.6291607766334
 30
0.0
 11
294.5622632412572
 21
205.11200630215899
 31
0.0
  0
LINE
  5
5692
  8
DANMEN
  6
CONTINUOUS
 10
288.83116001411281
 20
200.79511663738771
 30
0.0
 11
294.77984470312089
 21
206.74380132639561
 31
0.0
  0
LINE
  5
5693
  8
DANMEN
  6
CONTINUOUS
 10
288.83116824842853
 20
202.2093384340765
 30
0.0
 11
293.75082317434141
 21
207.12899335998929
 31
0.0
  0
LINE
  5
5694
  8
DANMEN
  6
CONTINUOUS
 10
288.8311764827443
 20
203.62356023076529
 30
0.0
 11
292.33661649840832
 21
207.12900024642931
 31
0.0
  0
LINE
  5
5695
  8
DANMEN
  6
CONTINUOUS
 10
288.83118471706001
 20
205.0377820274542
 30
0.0
 11
290.92240982247517
 21
207.1290071328693
 31
0.0
  0
LINE
  5
5696
  8
DANMEN
  6
CONTINUOUS
 10
288.83119295137573
 20
206.45200382414291
 30
0.0
 11
289.50820314654197
 21
207.1290140193093
 31
0.0
  0
LINE
  5
5697
  8
DANMEN
  6
CONTINUOUS
 10
293.88786528533171
 20
219.20457647869529
 30
0.0
 11
293.4633251393293
 21
219.62911662469759
 31
0.0
  0
LINE
  5
5698
  8
DANMEN
  6
CONTINUOUS
 10
294.10542443187302
 20
217.57280376978071
 30
0.0
 11
292.04911157695619
 21
219.62911662469759
 31
0.0
  0
LINE
  5
5699
  8
DANMEN
  6
CONTINUOUS
 10
294.32298357841461
 20
215.94103106086601
 30
0.0
 11
290.63489801458297
 21
219.62911662469759
 31
0.0
  0
LINE
  5
569A
  8
DANMEN
  6
CONTINUOUS
 10
294.5405427249562
 20
214.30925835195151
 30
0.0
 11
289.22068445220992
 21
219.62911662469759
 31
0.0
  0
LINE
  5
569B
  8
DANMEN
  6
CONTINUOUS
 10
294.75810187149762
 20
212.6774856430369
 30
0.0
 11
288.83126370833889
 21
218.60432380619559
 31
0.0
  0
LINE
  5
569C
  8
DANMEN
  6
CONTINUOUS
 10
293.8923812814283
 20
212.12899267073311
 30
0.0
 11
288.83125547411919
 21
217.19011847804231
 31
0.0
  0
LINE
  5
569D
  8
DANMEN
  6
CONTINUOUS
 10
292.4781608325481
 20
212.12899955724001
 30
0.0
 11
288.8312472398992
 21
215.77591314988911
 31
0.0
  0
LINE
  5
569E
  8
DANMEN
  6
CONTINUOUS
 10
291.06394038366801
 20
212.1290064437471
 30
0.0
 11
288.83123900567932
 21
214.36170782173591
 31
0.0
  0
LINE
  5
569F
  8
DANMEN
  6
CONTINUOUS
 10
289.64971993478798
 20
212.12901333025411
 30
0.0
 11
288.83123077145962
 21
212.9475024935825
 31
0.0
  0
LINE
  5
56A0
  8
DANMEN
  6
CONTINUOUS
 10
294.50817879935698
 20
212.12898967212411
 30
0.0
 11
294.79322659226932
 21
212.4140374650365
 31
0.0
  0
LINE
  5
56A1
  8
DANMEN
  6
CONTINUOUS
 10
293.09397212342378
 20
212.1289965585641
 30
0.0
 11
294.62685564335101
 21
213.66188007849121
 31
0.0
  0
LINE
  5
56A2
  8
DANMEN
  6
CONTINUOUS
 10
291.67976544749081
 20
212.1290034450042
 30
0.0
 11
294.46048469443241
 21
214.90972269194589
 31
0.0
  0
LINE
  5
56A3
  8
DANMEN
  6
CONTINUOUS
 10
290.26555877155772
 20
212.12901033144411
 30
0.0
 11
294.29411374551421
 21
216.15756530540071
 31
0.0
  0
LINE
  5
56A4
  8
DANMEN
  6
CONTINUOUS
 10
288.85135209562452
 20
212.1290172178841
 30
0.0
 11
294.12774279659573
 21
217.4054079188553
 31
0.0
  0
LINE
  5
56A5
  8
DANMEN
  6
CONTINUOUS
 10
288.8312341229543
 20
213.52311280758721
 30
0.0
 11
293.9613718476773
 21
218.6532505323099
 31
0.0
  0
LINE
  5
56A6
  8
DANMEN
  6
CONTINUOUS
 10
288.83124235727013
 20
214.9373346042758
 30
0.0
 11
293.52302437769168
 21
219.62911662469759
 31
0.0
  0
LINE
  5
56A7
  8
DANMEN
  6
CONTINUOUS
 10
288.8312505915859
 20
216.3515564009648
 30
0.0
 11
292.10881081531858
 21
219.62911662469759
 31
0.0
  0
LINE
  5
56A8
  8
DANMEN
  6
CONTINUOUS
 10
288.83125882590161
 20
217.7657781976535
 30
0.0
 11
290.69459725294558
 21
219.62911662469759
 31
0.0
  0
LINE
  5
56A9
  8
DANMEN
  6
CONTINUOUS
 10
288.83126706021721
 20
219.1799999943425
 30
0.0
 11
289.28038369057248
 21
219.62911662469759
 31
0.0
  0
LINE
  5
56AA
  8
DANMEN
  6
CONTINUOUS
 10
153.0874947214333
 20
265.25263836359608
 30
0.0
 11
151.85163820705199
 21
266.48849487797742
 31
0.0
  0
LINE
  5
56AB
  8
DANMEN
  6
CONTINUOUS
 10
153.0874947214333
 20
263.83842480122308
 30
0.0
 11
150.43742464467891
 21
266.48849487797742
 31
0.0
  0
LINE
  5
56AC
  8
DANMEN
  6
CONTINUOUS
 10
153.0874947214333
 20
262.42421123884998
 30
0.0
 11
149.02321108230581
 21
266.48849487797742
 31
0.0
  0
LINE
  5
56AD
  8
DANMEN
  6
CONTINUOUS
 10
152.70973409384709
 20
261.38775830406303
 30
0.0
 11
147.60899751993281
 21
266.48849487797742
 31
0.0
  0
LINE
  5
56AE
  8
DANMEN
  6
CONTINUOUS
 10
151.59325065112691
 20
261.09002818441007
 30
0.0
 11
146.19478395755979
 21
266.48849487797742
 31
0.0
  0
LINE
  5
56AF
  8
DANMEN
  6
CONTINUOUS
 10
150.4767672084069
 20
260.79229806475712
 30
0.0
 11
145.58752499031141
 21
265.68154028285261
 31
0.0
  0
LINE
  5
56B0
  8
DANMEN
  6
CONTINUOUS
 10
149.36028376568649
 20
260.49456794510439
 30
0.0
 11
145.58752499031149
 21
264.2673267204795
 31
0.0
  0
LINE
  5
56B1
  8
DANMEN
  6
CONTINUOUS
 10
148.24380032296651
 20
260.1968378254515
 30
0.0
 11
145.58752499031141
 21
262.85311315810628
 31
0.0
  0
LINE
  5
56B2
  8
DANMEN
  6
CONTINUOUS
 10
147.1273168802461
 20
259.8991077057986
 30
0.0
 11
145.58752499031141
 21
261.43889959573318
 31
0.0
  0
LINE
  5
56B3
  8
DANMEN
  6
CONTINUOUS
 10
146.010833437526
 20
259.60137758614559
 30
0.0
 11
145.58752499031141
 21
260.02468603336013
 31
0.0
  0
LINE
  5
56B4
  8
DANMEN
  6
CONTINUOUS
 10
152.89843766680551
 20
261.43807945994041
 30
0.0
 11
153.08749472143339
 21
261.62713651456841
 31
0.0
  0
LINE
  5
56B5
  8
DANMEN
  6
CONTINUOUS
 10
150.96996179699801
 20
260.92381715250622
 30
0.0
 11
153.0874947214333
 21
263.04135007694151
 31
0.0
  0
LINE
  5
56B6
  8
DANMEN
  6
CONTINUOUS
 10
149.04148592719071
 20
260.40955484507191
 30
0.0
 11
153.0874947214333
 21
264.45556363931462
 31
0.0
  0
LINE
  5
56B7
  8
DANMEN
  6
CONTINUOUS
 10
147.11301005738341
 20
259.8952925376376
 30
0.0
 11
153.0874947214333
 21
265.86977720168773
 31
0.0
  0
LINE
  5
56B8
  8
DANMEN
  6
CONTINUOUS
 10
145.58752499031141
 20
259.78402103293888
 30
0.0
 11
152.29199883535011
 21
266.48849487797742
 31
0.0
  0
LINE
  5
56B9
  8
DANMEN
  6
CONTINUOUS
 10
145.58752499031141
 20
261.1982345953121
 30
0.0
 11
150.87778527297681
 21
266.48849487797742
 31
0.0
  0
LINE
  5
56BA
  8
DANMEN
  6
CONTINUOUS
 10
145.58752499031141
 20
262.61244815768521
 30
0.0
 11
149.46357171060379
 21
266.48849487797742
 31
0.0
  0
LINE
  5
56BB
  8
DANMEN
  6
CONTINUOUS
 10
145.58752499031141
 20
264.02666172005831
 30
0.0
 11
148.04935814823071
 21
266.48849487797742
 31
0.0
  0
LINE
  5
56BC
  8
DANMEN
  6
CONTINUOUS
 10
145.58752499031141
 20
265.44087528243142
 30
0.0
 11
146.6351445858576
 21
266.48849487797742
 31
0.0
  0
LINE
  5
56BD
  8
DANMEN
  6
CONTINUOUS
 10
140.58752499031141
 20
266.43889959573318
 30
0.0
 11
140.5379375055193
 21
266.4884870805256
 31
0.0
  0
LINE
  5
56BE
  8
DANMEN
  6
CONTINUOUS
 10
140.58752499031141
 20
265.02468603336013
 30
0.0
 11
139.12372394314619
 21
266.4884870805256
 31
0.0
  0
LINE
  5
56BF
  8
DANMEN
  6
CONTINUOUS
 10
140.58752499031141
 20
263.61047247098702
 30
0.0
 11
137.70951038077311
 21
266.4884870805256
 31
0.0
  0
LINE
  5
56C0
  8
DANMEN
  6
CONTINUOUS
 10
140.58752499031141
 20
262.19625890861403
 30
0.0
 11
136.2952968184
 21
266.4884870805256
 31
0.0
  0
LINE
  5
56C1
  8
DANMEN
  6
CONTINUOUS
 10
140.58752499031141
 20
260.78204534624081
 30
0.0
 11
134.8810832560269
 21
266.4884870805256
 31
0.0
  0
LINE
  5
56C2
  8
DANMEN
  6
CONTINUOUS
 10
140.4229952817835
 20
259.53236149239592
 30
0.0
 11
133.46686969365379
 21
266.4884870805256
 31
0.0
  0
LINE
  5
56C3
  8
DANMEN
  6
CONTINUOUS
 10
138.49452507236029
 20
260.0466181394458
 30
0.0
 11
133.0874947214335
 21
265.4536484903727
 31
0.0
  0
LINE
  5
56C4
  8
DANMEN
  6
CONTINUOUS
 10
136.56605486293719
 20
260.56087478649579
 30
0.0
 11
133.0874947214335
 21
264.03943492799971
 31
0.0
  0
LINE
  5
56C5
  8
DANMEN
  6
CONTINUOUS
 10
134.63758465351401
 20
261.07513143354589
 30
0.0
 11
133.0874947214335
 21
262.6252213656266
 31
0.0
  0
LINE
  5
56C6
  8
DANMEN
  6
CONTINUOUS
 10
139.8356389289149
 20
259.68898922103472
 30
0.0
 11
140.58752499031141
 21
260.44087528243142
 31
0.0
  0
LINE
  5
56C7
  8
DANMEN
  6
CONTINUOUS
 10
138.71915358894671
 20
259.98671744343972
 30
0.0
 11
140.58752499031141
 21
261.85508884480453
 31
0.0
  0
LINE
  5
56C8
  8
DANMEN
  6
CONTINUOUS
 10
137.6026682489786
 20
260.28444566584471
 30
0.0
 11
140.58752499031141
 21
263.26930240717752
 31
0.0
  0
LINE
  5
56C9
  8
DANMEN
  6
CONTINUOUS
 10
136.48618290901061
 20
260.58217388824971
 30
0.0
 11
140.58752499031141
 21
264.68351596955063
 31
0.0
  0
LINE
  5
56CA
  8
DANMEN
  6
CONTINUOUS
 10
135.3696975690425
 20
260.87990211065471
 30
0.0
 11
140.58752499031149
 21
266.09772953192362
 31
0.0
  0
LINE
  5
56CB
  8
DANMEN
  6
CONTINUOUS
 10
134.25321222907439
 20
261.1776303330596
 30
0.0
 11
139.5640689765402
 21
266.4884870805256
 31
0.0
  0
LINE
  5
56CC
  8
DANMEN
  6
CONTINUOUS
 10
133.13672688910631
 20
261.47535855546471
 30
0.0
 11
138.14985541416709
 21
266.4884870805256
 31
0.0
  0
LINE
  5
56CD
  8
DANMEN
  6
CONTINUOUS
 10
133.08749472143339
 20
262.840339950165
 30
0.0
 11
136.73564185179401
 21
266.4884870805256
 31
0.0
  0
LINE
  5
56CE
  8
DANMEN
  6
CONTINUOUS
 10
133.0874947214335
 20
264.25455351253811
 30
0.0
 11
135.32142828942091
 21
266.4884870805256
 31
0.0
  0
LINE
  5
56CF
  8
DANMEN
  6
CONTINUOUS
 10
133.0874947214335
 20
265.66876707491122
 30
0.0
 11
133.9072147270478
 21
266.4884870805256
 31
0.0
  0
LINE
  5
56D0
  8
DANMEN
  6
CONTINUOUS
 10
153.08751728106819
 20
190.2992969981872
 30
0.0
 11
151.486990893295
 21
191.8998233859603
 31
0.0
  0
LINE
  5
56D1
  8
DANMEN
  6
CONTINUOUS
 10
153.08750939916061
 20
188.88509131772159
 30
0.0
 11
149.5585206838719
 21
192.41408003301041
 31
0.0
  0
LINE
  5
56D2
  8
DANMEN
  6
CONTINUOUS
 10
153.0875015172532
 20
187.470885637256
 30
0.0
 11
147.63005047444881
 21
192.9283366800604
 31
0.0
  0
LINE
  5
56D3
  8
DANMEN
  6
CONTINUOUS
 10
152.65569547192311
 20
186.48847812021299
 30
0.0
 11
145.70158026502571
 21
193.44259332711039
 31
0.0
  0
LINE
  5
56D4
  8
DANMEN
  6
CONTINUOUS
 10
151.24148190955
 20
186.48847812021299
 30
0.0
 11
145.63756644737299
 21
192.09239358239009
 31
0.0
  0
LINE
  5
56D5
  8
DANMEN
  6
CONTINUOUS
 10
149.8272683471769
 20
186.48847812021299
 30
0.0
 11
145.63756644737299
 21
190.67818002001701
 31
0.0
  0
LINE
  5
56D6
  8
DANMEN
  6
CONTINUOUS
 10
148.41305478480379
 20
186.48847812021299
 30
0.0
 11
145.63756644737299
 21
189.2639664576439
 31
0.0
  0
LINE
  5
56D7
  8
DANMEN
  6
CONTINUOUS
 10
146.99884122243071
 20
186.48847812021299
 30
0.0
 11
145.63756644737299
 21
187.84975289527071
 31
0.0
  0
LINE
  5
56D8
  8
DANMEN
  6
CONTINUOUS
 10
152.90215513285199
 20
186.48847812021299
 30
0.0
 11
153.08749707490281
 21
186.6738200622637
 31
0.0
  0
LINE
  5
56D9
  8
DANMEN
  6
CONTINUOUS
 10
151.48794157047899
 20
186.48847812021299
 30
0.0
 11
153.0875049568981
 21
188.08804150663221
 31
0.0
  0
LINE
  5
56DA
  8
DANMEN
  6
CONTINUOUS
 10
150.0737280081058
 20
186.48847812021299
 30
0.0
 11
153.0875128388935
 21
189.5022629510008
 31
0.0
  0
LINE
  5
56DB
  8
DANMEN
  6
CONTINUOUS
 10
148.65951444573281
 20
186.48847812021299
 30
0.0
 11
153.0875207208889
 21
190.91648439536911
 31
0.0
  0
LINE
  5
56DC
  8
DANMEN
  6
CONTINUOUS
 10
147.24530088335959
 20
186.48847812021299
 30
0.0
 11
152.4104037219341
 21
191.6535809587875
 31
0.0
  0
LINE
  5
56DD
  8
DANMEN
  6
CONTINUOUS
 10
145.8310873209866
 20
186.48847812021299
 30
0.0
 11
151.29391838196611
 21
191.9513091811925
 31
0.0
  0
LINE
  5
56DE
  8
DANMEN
  6
CONTINUOUS
 10
145.63756644737299
 20
187.70917080897269
 30
0.0
 11
150.1774330419978
 21
192.2490374035975
 31
0.0
  0
LINE
  5
56DF
  8
DANMEN
  6
CONTINUOUS
 10
145.63756644737299
 20
189.12338437134571
 30
0.0
 11
149.06094770202981
 21
192.5467656260025
 31
0.0
  0
LINE
  5
56E0
  8
DANMEN
  6
CONTINUOUS
 10
145.63756644737299
 20
190.53759793371881
 30
0.0
 11
147.9444623620617
 21
192.8444938484075
 31
0.0
  0
LINE
  5
56E1
  8
DANMEN
  6
CONTINUOUS
 10
145.63756644737299
 20
191.95181149609201
 30
0.0
 11
146.82797702209351
 21
193.14222207081241
 31
0.0
  0
LINE
  5
56E2
  8
DANMEN
  6
CONTINUOUS
 10
145.63756644737299
 20
193.36602505846511
 30
0.0
 11
145.7114916821254
 21
193.43995029321741
 31
0.0
  0
LINE
  5
56E3
  8
DANMEN
  6
CONTINUOUS
 10
140.63756644737299
 20
192.84975289527071
 30
0.0
 11
140.13496297248011
 21
193.35235637016359
 31
0.0
  0
LINE
  5
56E4
  8
DANMEN
  6
CONTINUOUS
 10
140.63756644737299
 20
191.4355393328976
 30
0.0
 11
139.018477632512
 21
193.05462814775871
 31
0.0
  0
LINE
  5
56E5
  8
DANMEN
  6
CONTINUOUS
 10
140.63756644737299
 20
190.02132577052461
 30
0.0
 11
137.90199229254381
 21
192.75689992535371
 31
0.0
  0
LINE
  5
56E6
  8
DANMEN
  6
CONTINUOUS
 10
140.63756644737299
 20
188.60711220815151
 30
0.0
 11
136.7855069525757
 21
192.45917170294871
 31
0.0
  0
LINE
  5
56E7
  8
DANMEN
  6
CONTINUOUS
 10
140.63756644737299
 20
187.19289864577831
 30
0.0
 11
135.66902161260771
 21
192.1614434805438
 31
0.0
  0
LINE
  5
56E8
  8
DANMEN
  6
CONTINUOUS
 10
139.9277444790325
 20
186.4885070517457
 30
0.0
 11
134.5525362726396
 21
191.86371525813871
 31
0.0
  0
LINE
  5
56E9
  8
DANMEN
  6
CONTINUOUS
 10
138.51353091665939
 20
186.4885070517457
 30
0.0
 11
133.43605093267149
 21
191.56598703573371
 31
0.0
  0
LINE
  5
56EA
  8
DANMEN
  6
CONTINUOUS
 10
137.09931735428631
 20
186.4885070517457
 30
0.0
 11
133.08750566091791
 21
190.5003187451143
 31
0.0
  0
LINE
  5
56EB
  8
DANMEN
  6
CONTINUOUS
 10
135.68510379191321
 20
186.4885070517457
 30
0.0
 11
133.08750566091791
 21
189.08610518274111
 31
0.0
  0
LINE
  5
56EC
  8
DANMEN
  6
CONTINUOUS
 10
134.2708902295401
 20
186.4885070517457
 30
0.0
 11
133.08750566091791
 21
187.671891620368
 31
0.0
  0
LINE
  5
56ED
  8
DANMEN
  6
CONTINUOUS
 10
140.17426200302691
 20
186.4885070517457
 30
0.0
 11
140.63756644737299
 21
186.95181149609201
 31
0.0
  0
LINE
  5
56EE
  8
DANMEN
  6
CONTINUOUS
 10
138.7600484406538
 20
186.4885070517457
 30
0.0
 11
140.63756644737299
 21
188.36602505846511
 31
0.0
  0
LINE
  5
56EF
  8
DANMEN
  6
CONTINUOUS
 10
137.34583487828061
 20
186.4885070517457
 30
0.0
 11
140.63756644737299
 21
189.78023862083811
 31
0.0
  0
LINE
  5
56F0
  8
DANMEN
  6
CONTINUOUS
 10
135.93162131590751
 20
186.4885070517457
 30
0.0
 11
140.63756644737299
 21
191.1944521832113
 31
0.0
  0
LINE
  5
56F1
  8
DANMEN
  6
CONTINUOUS
 10
134.51740775353451
 20
186.4885070517457
 30
0.0
 11
140.63756644737299
 21
192.6086657455844
 31
0.0
  0
LINE
  5
56F2
  8
DANMEN
  6
CONTINUOUS
 10
133.10319419116141
 20
186.4885070517457
 30
0.0
 11
139.9059822227529
 21
193.2912950833373
 31
0.0
  0
LINE
  5
56F3
  8
DANMEN
  6
CONTINUOUS
 10
133.087505660918
 20
187.8870320838754
 30
0.0
 11
137.97751201332969
 21
192.7770384362872
 31
0.0
  0
LINE
  5
56F4
  8
DANMEN
  6
CONTINUOUS
 10
133.08750566091791
 20
189.3012456462485
 30
0.0
 11
136.0490418039067
 21
192.2627817892371
 31
0.0
  0
LINE
  5
56F5
  8
DANMEN
  6
CONTINUOUS
 10
133.08750566091791
 20
190.71545920862161
 30
0.0
 11
134.12057159448349
 21
191.74852514218711
 31
0.0
  0
LINE
  5
56F6
  8
SUNPO
  6
CONTINUOUS
 10
403.33079196108019
 20
150.62914029990111
 30
0.0
 11
403.33080496107999
 21
126.629010299901
 31
0.0
  0
LINE
  5
56F7
  8
SUNPO
  6
CONTINUOUS
 10
433.3307909610802
 20
150.62915429990099
 30
0.0
 11
433.33080396108011
 21
126.629026299901
 31
0.0
  0
LINE
  5
56F8
  8
SUNPO
  6
CONTINUOUS
 10
433.33080396108011
 20
126.629026299901
 30
0.0
 11
403.33080496107999
 21
126.629010299901
 31
0.0
  0
LINE
  5
56F9
  8
SUNPO
  6
CONTINUOUS
 10
263.83109196108012
 20
150.62915829990101
 30
0.0
 11
263.8310309610801
 21
126.629404299901
 31
0.0
  0
LINE
  5
56FA
  8
SUNPO
  6
CONTINUOUS
 10
293.83109096108001
 20
150.629069299901
 30
0.0
 11
293.8310309610801
 21
126.629329299901
 31
0.0
  0
LINE
  5
56FB
  8
SUNPO
  6
CONTINUOUS
 10
293.8310309610801
 20
126.629329299901
 30
0.0
 11
263.8310309610801
 21
126.629404299901
 31
0.0
  0
LINE
  5
56FC
  8
SUNPO
  6
CONTINUOUS
 10
346.08038676108009
 20
123.77469109990101
 30
0.0
 11
342.84723076108003
 21
129.37468789990101
 31
0.0
  0
LINE
  5
56FD
  8
SUNPO
  6
CONTINUOUS
 10
347.92785716108011
 20
123.774690299901
 30
0.0
 11
344.69470036108009
 21
129.37468789990101
 31
0.0
  0
LINE
  5
56FE
  8
SUNPO
  6
CONTINUOUS
 10
353.00853476108023
 20
129.374690299901
 30
0.0
 11
353.00853476108023
 21
123.774692699901
 31
0.0
  0
LINE
  5
56FF
  8
SUNPO
  6
CONTINUOUS
 10
353.47041396108023
 20
123.774690299901
 30
0.0
 11
350.6082155610801
 21
123.774690299901
 31
0.0
  0
LINE
  5
5700
  8
SUNPO
  6
CONTINUOUS
 10
348.72785636108011
 20
123.774690299901
 30
0.0
 11
345.14583156108012
 21
123.774690299901
 31
0.0
  0
LINE
  5
5701
  8
SUNPO
  6
CONTINUOUS
 10
353.00853316108009
 20
123.77469349990101
 30
0.0
 11
349.7753779610801
 21
129.37468789990101
 31
0.0
  0
LINE
  5
5702
  8
SUNPO
  6
CONTINUOUS
 10
351.16101396108019
 20
123.77469109990101
 30
0.0
 11
347.92785716108011
 21
129.37468869990099
 31
0.0
  0
LINE
  5
5703
  8
SUNPO
  6
CONTINUOUS
 10
353.77560996108019
 20
129.374690299901
 30
0.0
 11
352.14639396108009
 21
129.374690299901
 31
0.0
  0
LINE
  5
5704
  8
SUNPO
  6
CONTINUOUS
 10
350.5753771610801
 20
129.374690299901
 30
0.0
 11
347.12785636108009
 21
129.374690299901
 31
0.0
  0
LINE
  5
5705
  8
SUNPO
  6
CONTINUOUS
 10
345.46403796108001
 20
129.374690299901
 30
0.0
 11
341.96375796108009
 21
129.374690299901
 31
0.0
  0
LINE
  5
5706
  8
SUNPO
  6
CONTINUOUS
 10
359.99417396108009
 20
125.374690299901
 30
0.0
 11
355.99417396108009
 21
125.374690299901
 31
0.0
  0
LINE
  5
5707
  8
SUNPO
  6
CONTINUOUS
 10
359.99417396108009
 20
127.774690299901
 30
0.0
 11
355.99417396108009
 21
127.774690299901
 31
0.0
  0
LINE
  5
5708
  8
SUNPO
  6
CONTINUOUS
 10
347.92785636108022
 20
129.374690299901
 30
0.0
 11
347.92785636108022
 21
123.77469109990101
 31
0.0
  0
LINE
  5
5709
  8
SUNPO
  6
CONTINUOUS
 10
398.33078696108009
 20
131.6290102999011
 30
0.0
 11
398.33078696108009
 21
121.629010299901
 31
0.0
  0
LINE
  5
570A
  8
SUNPO
  6
CONTINUOUS
 10
398.33078696108009
 20
121.629010299901
 30
0.0
 11
403.33078696107998
 21
126.629010299901
 31
0.0
  0
LINE
  5
570B
  8
SUNPO
  6
CONTINUOUS
 10
403.33078696107998
 20
126.629010299901
 30
0.0
 11
398.33078696108009
 21
131.6290102999011
 31
0.0
  0
LINE
  5
570C
  8
SUNPO
  6
CONTINUOUS
 10
298.83107096108017
 20
131.62910029990101
 30
0.0
 11
298.83107096108017
 21
121.629100299901
 31
0.0
  0
LINE
  5
570D
  8
SUNPO
  6
CONTINUOUS
 10
298.83107096108017
 20
121.629100299901
 30
0.0
 11
293.83107096108
 21
126.629100299901
 31
0.0
  0
LINE
  5
570E
  8
SUNPO
  6
CONTINUOUS
 10
293.83107096108
 20
126.629100299901
 30
0.0
 11
298.83107096108017
 21
131.62910029990101
 31
0.0
  0
LINE
  5
570F
  8
DANMEN
  6
CONTINUOUS
 10
414.33079096108003
 20
199.62912729990111
 30
0.0
 11
425.83078896108009
 21
199.62912729990111
 31
0.0
  0
LINE
  5
5710
  8
DANMEN
  6
CONTINUOUS
 10
404.98079096108017
 20
197.97912729990091
 30
0.0
 11
425.83078896108009
 21
197.97912729990091
 31
0.0
  0
LINE
  5
5711
  8
DANMEN
  6
CONTINUOUS
 10
404.98079096108017
 20
154.12917329990111
 30
0.0
 11
404.98079096108017
 21
197.97912729990091
 31
0.0
  0
LINE
  5
5712
  8
DANMEN
  6
CONTINUOUS
 10
403.3307909610802
 20
152.12914229990099
 30
0.0
 11
403.3307909610802
 21
199.12912729990111
 31
0.0
  0
LINE
  5
5713
  8
DANMEN
  6
CONTINUOUS
 10
403.8307909610802
 20
199.62912729990111
 30
0.0
 11
413.3307909610802
 21
199.62912729990111
 31
0.0
  0
ARC
  5
5714
  8
DANMEN
  6
CONTINUOUS
 10
403.8307909610802
 20
199.12912729990111
 30
0.0
 40
0.5
 50
90.0
 51
180.0
  0
LINE
  5
5715
  8
DANMEN
  6
CONTINUOUS
 10
413.3307909610802
 20
200.6291122999011
 30
0.0
 11
413.3307909610802
 21
199.6291122999011
 31
0.0
  0
LINE
  5
5716
  8
DANMEN
  6
CONTINUOUS
 10
414.33079096108003
 20
200.6291122999011
 30
0.0
 11
414.33079096108003
 21
199.6291122999011
 31
0.0
  0
ARC
  5
5717
  8
DANMEN
  6
CONTINUOUS
 10
413.83079096108008
 20
200.6291122999011
 30
0.0
 40
0.5
 50
0.0
 51
90.0
  0
ARC
  5
5718
  8
DANMEN
  6
CONTINUOUS
 10
413.83079096108008
 20
200.6291122999011
 30
0.0
 40
0.5
 50
90.0
 51
180.0
  0
ARC
  5
5719
  8
DANMEN
  6
CONTINUOUS
 10
403.8307909610802
 20
152.12914229990099
 30
0.0
 40
0.5
 50
180.0
 51
270.0
  0
LINE
  5
571A
  8
DANMEN
  6
CONTINUOUS
 10
425.83078896108009
 20
153.27918129990101
 30
0.0
 11
425.83078896108009
 21
197.97912729990091
 31
0.0
  0
LINE
  5
571B
  8
DANMEN
  6
CONTINUOUS
 10
425.83078896108009
 20
199.62912729990111
 30
0.0
 11
425.83078896108009
 21
211.22913029990099
 31
0.0
  0
LINE
  5
571C
  8
DANMEN
  6
CONTINUOUS
 10
422.83079096108003
 20
221.62914229990091
 30
0.0
 11
427.83078896107997
 21
221.62914229990091
 31
0.0
  0
LINE
  5
571D
  8
DANMEN
  6
CONTINUOUS
 10
422.83079096108003
 20
213.929130299901
 30
0.0
 11
422.83079096108003
 21
211.72913029990099
 31
0.0
  0
LINE
  5
571E
  8
DANMEN
  6
CONTINUOUS
 10
422.83079096108003
 20
218.629127299901
 30
0.0
 11
422.83079096108003
 21
221.629127299901
 31
0.0
  0
LINE
  5
571F
  8
DANMEN
  6
CONTINUOUS
 10
425.8307909610802
 20
219.679130299901
 30
0.0
 11
423.83079096108003
 21
219.679130299901
 31
0.0
  0
LINE
  5
5720
  8
DANMEN
  6
CONTINUOUS
 10
423.83079096108003
 20
218.629127299901
 30
0.0
 11
423.83079096108003
 21
219.679130299901
 31
0.0
  0
LINE
  5
5721
  8
DANMEN
  6
CONTINUOUS
 10
425.8307909610802
 20
219.679130299901
 30
0.0
 11
425.8307909610802
 21
212.42913029990109
 31
0.0
  0
LINE
  5
5722
  8
DANMEN
  6
CONTINUOUS
 10
423.83079096108003
 20
214.42913029990109
 30
0.0
 11
423.83079096108003
 21
212.42913029990109
 31
0.0
  0
LINE
  5
5723
  8
DANMEN
  6
CONTINUOUS
 10
425.8307909610802
 20
212.42913029990109
 30
0.0
 11
423.83079096108003
 21
212.42913029990109
 31
0.0
  0
LINE
  5
5724
  8
DANMEN
  6
CONTINUOUS
 10
423.83079096108003
 20
214.42913029990109
 30
0.0
 11
423.33079096108003
 21
214.42913029990109
 31
0.0
  0
ARC
  5
5725
  8
DANMEN
  6
CONTINUOUS
 10
423.33079096108003
 20
213.929130299901
 30
0.0
 40
0.5
 50
90.000017999999173
 51
179.99998199999999
  0
LINE
  5
5726
  8
DANMEN
  6
CONTINUOUS
 10
423.83079096108003
 20
218.629127299901
 30
0.0
 11
422.83079096108003
 21
218.629127299901
 31
0.0
  0
LINE
  5
5727
  8
DANMEN
  6
CONTINUOUS
 10
425.83078896108009
 20
211.22913029990099
 30
0.0
 11
423.33079096108003
 21
211.22913029990099
 31
0.0
  0
ARC
  5
5728
  8
DANMEN
  6
CONTINUOUS
 10
427.83078896107997
 20
221.12914229990099
 30
0.0
 40
0.5
 50
0.0
 51
90.0
  0
ARC
  5
5729
  8
DANMEN
  6
CONTINUOUS
 10
432.8307909610802
 20
186.12917229990109
 30
0.0
 40
0.5
 50
0.0
 51
90.0
  0
LINE
  5
572A
  8
DANMEN
  6
CONTINUOUS
 10
430.29493396108012
 20
151.629183299901
 30
0.0
 11
432.83079296108019
 21
151.62918429990111
 31
0.0
  0
ARC
  5
572B
  8
DANMEN
  6
CONTINUOUS
 10
429.58079196108002
 20
150.92918229990099
 30
0.0
 40
1.0
 50
44.427033000000783
 51
135.5730249999998
  0
ARC
  5
572C
  8
DANMEN
  6
CONTINUOUS
 10
432.1807929610801
 20
181.1291792999011
 30
0.0
 40
0.5
 50
180.0
 51
270.0
  0
LINE
  5
572D
  8
DANMEN
  6
CONTINUOUS
 10
432.1807929610801
 20
180.6291792999011
 30
0.0
 11
432.83079296108019
 21
180.6291792999011
 31
0.0
  0
LINE
  5
572E
  8
DANMEN
  6
CONTINUOUS
 10
431.6807919610801
 20
184.9791762999011
 30
0.0
 11
431.6807929610801
 21
181.12917829990101
 31
0.0
  0
ARC
  5
572F
  8
DANMEN
  6
CONTINUOUS
 10
432.83079296108019
 20
181.1291792999011
 30
0.0
 40
0.5
 50
270.0
 51
0.0
  0
LINE
  5
5730
  8
DANMEN
  6
CONTINUOUS
 10
428.3307909610802
 20
186.629172299901
 30
0.0
 11
428.3307909610802
 21
221.1291572999011
 31
0.0
  0
LINE
  5
5731
  8
DANMEN
  6
CONTINUOUS
 10
428.3307909610802
 20
186.629172299901
 30
0.0
 11
432.8307909610802
 21
186.629172299901
 31
0.0
  0
LINE
  5
5732
  8
DANMEN
  6
CONTINUOUS
 10
403.8307909610802
 20
151.629172299901
 30
0.0
 11
428.86664796107999
 21
151.629182299901
 31
0.0
  0
LINE
  5
5733
  8
DANMEN
  6
CONTINUOUS
 10
433.3307909610802
 20
186.12917329990111
 30
0.0
 11
433.33079296108019
 21
181.1291792999011
 31
0.0
  0
LINE
  5
5734
  8
DANMEN
  6
CONTINUOUS
 10
427.48079096108
 20
153.27918129990101
 30
0.0
 11
431.6807919610801
 21
153.27918129990101
 31
0.0
  0
LINE
  5
5735
  8
DANMEN
  6
CONTINUOUS
 10
431.68078996108
 20
157.129183299901
 30
0.0
 11
431.6807919610801
 21
153.27918129990101
 31
0.0
  0
LINE
  5
5736
  8
DANMEN
  6
CONTINUOUS
 10
433.33078996108009
 20
157.129183299901
 30
0.0
 11
433.33079196108019
 21
152.129183299901
 31
0.0
  0
LINE
  5
5737
  8
DANMEN
  6
CONTINUOUS
 10
432.18078996108011
 20
157.629183299901
 30
0.0
 11
432.83078996108009
 21
157.629183299901
 31
0.0
  0
ARC
  5
5738
  8
DANMEN
  6
CONTINUOUS
 10
432.18078996108011
 20
157.129183299901
 30
0.0
 40
0.5
 50
90.0
 51
180.0
  0
ARC
  5
5739
  8
DANMEN
  6
CONTINUOUS
 10
432.83078996108009
 20
157.129183299901
 30
0.0
 40
0.5
 50
0.0
 51
90.0
  0
LINE
  5
573A
  8
DANMEN
  6
CONTINUOUS
 10
427.48079096108
 20
184.9791762999011
 30
0.0
 11
431.6807919610801
 21
184.9791762999011
 31
0.0
  0
ARC
  5
573B
  8
DANMEN
  6
CONTINUOUS
 10
432.83079196108019
 20
152.129183299901
 30
0.0
 40
0.5
 50
270.0
 51
0.0
  0
LINE
  5
573C
  8
DANMEN
  6
CONTINUOUS
 10
427.48079096108
 20
153.27918129990101
 30
0.0
 11
427.48079096108
 21
184.9791762999011
 31
0.0
  0
ARC
  5
573D
  8
DANMEN
  6
CONTINUOUS
 10
423.33079096108003
 20
211.72913029990099
 30
0.0
 40
0.5
 50
180.0
 51
270.0
  0
LINE
  5
573E
  8
DANMEN
  6
CONTINUOUS
 10
404.98079096108017
 20
154.12917329990111
 30
0.0
 11
422.83078896108009
 21
154.1291792999011
 31
0.0
  0
LINE
  5
573F
  8
DANMEN
  6
CONTINUOUS
 10
422.83078896108009
 20
153.27917929990099
 30
0.0
 11
422.83078896108009
 21
154.1291792999011
 31
0.0
  0
LINE
  5
5740
  8
DANMEN
  6
CONTINUOUS
 10
422.83078896108009
 20
153.27917929990099
 30
0.0
 11
425.83078896108009
 21
153.27918129990101
 31
0.0
  0
LINE
  5
5741
  8
DANMEN
  6
CONTINUOUS
 10
282.83121445124431
 20
199.6290835333449
 30
0.0
 11
271.33121645128062
 21
199.6291124359924
 31
0.0
  0
LINE
  5
5742
  8
DANMEN
  6
CONTINUOUS
 10
292.18121030431229
 20
197.97906003423711
 30
0.0
 11
271.33121230437831
 21
197.97911243599771
 31
0.0
  0
LINE
  5
5743
  8
DANMEN
  6
CONTINUOUS
 10
292.18110009735773
 20
154.1291060343757
 30
0.0
 11
292.18121030431229
 21
197.97906003423711
 31
0.0
  0
LINE
  5
5744
  8
DANMEN
  6
CONTINUOUS
 10
293.83109507072618
 20
152.12907088747971
 30
0.0
 11
293.83121319457251
 21
199.1290558873313
 31
0.0
  0
LINE
  5
5745
  8
DANMEN
  6
CONTINUOUS
 10
293.33121445121111
 20
199.6290571439668
 30
0.0
 11
283.83121445124112
 21
199.6290810200708
 31
0.0
  0
ARC
  5
5746
  8
DANMEN
  6
CONTINUOUS
 10
293.33121319457399
 20
199.1290571439684
 30
0.0
 40
0.5
 50
359.9998559999998
 51
89.999855999999866
  0
LINE
  5
5747
  8
DANMEN
  6
CONTINUOUS
 10
283.83121696447751
 20
200.6290660200678
 30
0.0
 11
283.83121445120338
 21
199.62906602007081
 31
0.0
  0
LINE
  5
5748
  8
DANMEN
  6
CONTINUOUS
 10
282.83121696448069
 20
200.62906853334181
 30
0.0
 11
282.83121445120662
 21
199.62906853334491
 31
0.0
  0
ARC
  5
5749
  8
DANMEN
  6
CONTINUOUS
 10
283.3312169644791
 20
200.6290672767048
 30
0.0
 40
0.5
 50
89.999855999999866
 51
179.99985599999971
  0
ARC
  5
574A
  8
DANMEN
  6
CONTINUOUS
 10
283.3312169644791
 20
200.6290672767048
 30
0.0
 40
0.5
 50
359.9998559999998
 51
89.999855999999866
  0
ARC
  5
574B
  8
DANMEN
  6
CONTINUOUS
 10
293.331095070728
 20
152.1290721441168
 30
0.0
 40
0.5
 50
269.99985599999968
 51
359.9998559999998
  0
LINE
  5
574C
  8
DANMEN
  6
CONTINUOUS
 10
271.3310999611607
 20
153.27916643613881
 30
0.0
 11
271.33121230437831
 21
197.97911243599771
 31
0.0
  0
LINE
  5
574D
  8
DANMEN
  6
CONTINUOUS
 10
271.33121645128062
 20
199.6291124359924
 30
0.0
 11
271.33124560526801
 21
211.22911543595569
 31
0.0
  0
LINE
  5
574E
  8
DANMEN
  6
CONTINUOUS
 10
274.33126974333948
 20
221.62911989610549
 30
0.0
 11
269.33127174335522
 21
221.6291324624712
 31
0.0
  0
LINE
  5
574F
  8
DANMEN
  6
CONTINUOUS
 10
274.33125039109842
 20
213.92910789612981
 30
0.0
 11
274.33124486189553
 21
211.72910789613681
 31
0.0
  0
LINE
  5
5750
  8
DANMEN
  6
CONTINUOUS
 10
274.33126220347941
 20
218.62910489611511
 30
0.0
 11
274.33126974330168
 21
221.62910489610559
 31
0.0
  0
LINE
  5
5751
  8
DANMEN
  6
CONTINUOUS
 10
271.33126484243422
 20
219.67911543593411
 30
0.0
 11
273.33126484242803
 21
219.67911040938591
 31
0.0
  0
LINE
  5
5752
  8
DANMEN
  6
CONTINUOUS
 10
273.33126220348248
 20
218.62910740938909
 30
0.0
 11
273.33126484242803
 21
219.67911040938591
 31
0.0
  0
LINE
  5
5753
  8
DANMEN
  6
CONTINUOUS
 10
271.33126484243422
 20
219.67911543593411
 30
0.0
 11
271.3312466211969
 21
212.4291154359569
 31
0.0
  0
LINE
  5
5754
  8
DANMEN
  6
CONTINUOUS
 10
273.3312516477389
 20
214.4291104094024
 30
0.0
 11
273.33124662119047
 21
212.42911040940871
 31
0.0
  0
LINE
  5
5755
  8
DANMEN
  6
CONTINUOUS
 10
271.3312466211969
 20
212.4291154359569
 30
0.0
 11
273.33124662119047
 21
212.42911040940871
 31
0.0
  0
LINE
  5
5756
  8
DANMEN
  6
CONTINUOUS
 10
273.3312516477389
 20
214.4291104094024
 30
0.0
 11
273.83125164773719
 21
214.42910915276531
 31
0.0
  0
ARC
  5
5757
  8
DANMEN
  6
CONTINUOUS
 10
273.83125039110013
 20
213.9291091527669
 30
0.0
 40
0.5
 50
359.99987399999981
 51
89.999838000000636
  0
LINE
  5
5758
  8
DANMEN
  6
CONTINUOUS
 10
273.33126220348248
 20
218.62910740938909
 30
0.0
 11
274.33126220347941
 21
218.62910489611511
 31
0.0
  0
LINE
  5
5759
  8
DANMEN
  6
CONTINUOUS
 10
271.33124560526801
 20
211.22911543595569
 30
0.0
 11
273.83124360525989
 21
211.22910915277541
 31
0.0
  0
ARC
  5
575A
  8
DANMEN
  6
CONTINUOUS
 10
269.3312704867181
 20
221.1291324624728
 30
0.0
 40
0.5
 50
89.999855999999866
 51
179.99985599999971
  0
ARC
  5
575B
  8
DANMEN
  6
CONTINUOUS
 10
264.33118052221499
 20
186.129175028959
 30
0.0
 40
0.5
 50
89.999855999999866
 51
179.99985599999971
  0
LINE
  5
575C
  8
DANMEN
  6
CONTINUOUS
 10
266.86695081427752
 20
151.62917965576409
 30
0.0
 11
264.33109181428807
 21
151.62918702907291
 31
0.0
  0
ARC
  5
575D
  8
DANMEN
  6
CONTINUOUS
 10
267.5810910549809
 20
150.92917686093159
 30
0.0
 40
1.0
 50
44.42683099999941
 51
135.57282299999821
  0
ARC
  5
575E
  8
DANMEN
  6
CONTINUOUS
 10
264.98116595585992
 20
181.12918039535151
 30
0.0
 40
0.5
 50
269.99985599999968
 51
359.9998559999998
  0
LINE
  5
575F
  8
DANMEN
  6
CONTINUOUS
 10
264.98116469922292
 20
180.62918039535319
 30
0.0
 11
264.3311646992251
 21
180.6291820289814
 31
0.0
  0
LINE
  5
5760
  8
DANMEN
  6
CONTINUOUS
 10
265.48117663195632
 20
184.9791761386999
 30
0.0
 11
265.481165955856
 21
181.12917813871439
 31
0.0
  0
ARC
  5
5761
  8
DANMEN
  6
CONTINUOUS
 10
264.3311659558621
 20
181.12918202897961
 30
0.0
 40
0.5
 50
179.99985599999971
 51
269.99985599999968
  0
LINE
  5
5762
  8
DANMEN
  6
CONTINUOUS
 10
268.83118177883802
 20
186.62916371922381
 30
0.0
 11
268.83126848675738
 21
221.12914871911471
 31
0.0
  0
LINE
  5
5763
  8
DANMEN
  6
CONTINUOUS
 10
268.83118177883802
 20
186.62916371922381
 30
0.0
 11
264.33118177885223
 21
186.62917502895741
 31
0.0
  0
LINE
  5
5764
  8
DANMEN
  6
CONTINUOUS
 10
293.33109381416631
 20
151.62910214411821
 30
0.0
 11
268.29523681427042
 21
151.6291750660898
 31
0.0
  0
LINE
  5
5765
  8
DANMEN
  6
CONTINUOUS
 10
263.83118052221909
 20
186.129177285596
 30
0.0
 11
263.83116595586358
 21
181.1291832856167
 31
0.0
  0
LINE
  5
5766
  8
DANMEN
  6
CONTINUOUS
 10
269.6810979611659
 20
153.2791705830461
 30
0.0
 11
265.48109696117922
 21
153.27918113879991
 31
0.0
  0
LINE
  5
5767
  8
DANMEN
  6
CONTINUOUS
 10
265.48110863728942
 20
157.12918313878271
 30
0.0
 11
265.48109696117922
 21
153.27918113879991
 31
0.0
  0
LINE
  5
5768
  8
DANMEN
  6
CONTINUOUS
 10
263.83110863729468
 20
157.12918728568511
 30
0.0
 11
263.83109407092422
 21
152.12918728570591
 31
0.0
  0
LINE
  5
5769
  8
DANMEN
  6
CONTINUOUS
 10
264.98110989392831
 20
157.62918439541809
 30
0.0
 11
264.33110989393032
 21
157.62918602904639
 31
0.0
  0
ARC
  5
576A
  8
DANMEN
  6
CONTINUOUS
 10
264.98110863729119
 20
157.1291843954198
 30
0.0
 40
0.5
 50
359.9998559999998
 51
89.999855999999866
  0
ARC
  5
576B
  8
DANMEN
  6
CONTINUOUS
 10
264.3311086372932
 20
157.12918602904799
 30
0.0
 40
0.5
 50
89.999855999999866
 51
179.99985599999971
  0
LINE
  5
576C
  8
DANMEN
  6
CONTINUOUS
 10
269.68117763194311
 20
184.979165582946
 30
0.0
 11
265.48117663195632
 21
184.9791761386999
 31
0.0
  0
ARC
  5
576D
  8
DANMEN
  6
CONTINUOUS
 10
264.33109407092252
 20
152.12918602906879
 30
0.0
 40
0.5
 50
179.99985599999971
 51
269.99985599999968
  0
LINE
  5
576E
  8
DANMEN
  6
CONTINUOUS
 10
269.6810979611659
 20
153.2791705830461
 30
0.0
 11
269.68117763194311
 21
184.979165582946
 31
0.0
  0
ARC
  5
576F
  8
DANMEN
  6
CONTINUOUS
 10
273.83124486189712
 20
211.72910915277379
 30
0.0
 40
0.5
 50
269.99985599999968
 51
359.9998559999998
  0
LINE
  5
5770
  8
DANMEN
  6
CONTINUOUS
 10
292.18110009735773
 20
154.1291060343757
 30
0.0
 11
274.33110209742921
 21
154.12915689631379
 31
0.0
  0
LINE
  5
5771
  8
DANMEN
  6
CONTINUOUS
 10
274.33109996114621
 20
153.27915689631641
 30
0.0
 11
274.33110209742921
 21
154.12915689631379
 31
0.0
  0
LINE
  5
5772
  8
DANMEN
  6
CONTINUOUS
 10
274.33109996114621
 20
153.27915689631641
 30
0.0
 11
271.3310999611607
 21
153.27916643613881
 31
0.0
  0
LINE
  5
5773
  8
DANMEN
  6
CONTINUOUS
 10
274.3312869610802
 20
220.92914029990101
 30
0.0
 11
274.3312869610802
 21
221.62913729990089
 31
0.0
  0
ARC
  5
5774
  8
DANMEN
  6
CONTINUOUS
 10
274.83128696108008
 20
220.92914029990101
 30
0.0
 40
0.5
 50
179.99998099999931
 51
270.0
  0
LINE
  5
5775
  8
DANMEN
  6
CONTINUOUS
 10
293.33128696108008
 20
221.62913729990089
 30
0.0
 11
274.3312869610802
 21
221.62913729990089
 31
0.0
  0
LINE
  5
5776
  8
DANMEN
  6
CONTINUOUS
 10
293.33128696108008
 20
219.62913729990089
 30
0.0
 11
278.83128696108008
 21
219.62913729990089
 31
0.0
  0
LINE
  5
5777
  8
DANMEN
  6
CONTINUOUS
 10
293.83128696108002
 20
220.12913729990109
 30
0.0
 11
293.83128696108002
 21
221.129137299901
 31
0.0
  0
ARC
  5
5778
  8
DANMEN
  6
CONTINUOUS
 10
293.33128696108008
 20
221.129137299901
 30
0.0
 40
0.5
 50
0.0
 51
90.0
  0
ARC
  5
5779
  8
DANMEN
  6
CONTINUOUS
 10
293.33128696108008
 20
220.12913729990109
 30
0.0
 40
0.5
 50
270.0
 51
0.0
  0
LINE
  5
577A
  8
DANMEN
  6
CONTINUOUS
 10
277.8312869610802
 20
218.62910729990111
 30
0.0
 11
277.8312869610802
 21
219.62913729990089
 31
0.0
  0
LINE
  5
577B
  8
DANMEN
  6
CONTINUOUS
 10
278.83128696108008
 20
218.62910729990111
 30
0.0
 11
278.83128696108008
 21
219.62913729990089
 31
0.0
  0
ARC
  5
577C
  8
DANMEN
  6
CONTINUOUS
 10
278.3312869610802
 20
218.62910729990111
 30
0.0
 40
0.5
 50
180.0
 51
270.0
  0
ARC
  5
577D
  8
DANMEN
  6
CONTINUOUS
 10
278.3312869610802
 20
218.62910729990111
 30
0.0
 40
0.5
 50
270.0
 51
0.0
  0
LINE
  5
577E
  8
DANMEN
  6
CONTINUOUS
 10
277.8312869610802
 20
219.62913729990089
 30
0.0
 11
275.8312869610802
 21
219.62913729990089
 31
0.0
  0
LINE
  5
577F
  8
DANMEN
  6
CONTINUOUS
 10
274.83128696108008
 20
220.42914029990109
 30
0.0
 11
274.83128696108008
 21
218.629137299901
 31
0.0
  0
LINE
  5
5780
  8
DANMEN
  6
CONTINUOUS
 10
275.8312869610802
 20
219.62913729990089
 30
0.0
 11
275.8312869610802
 21
218.12913729990109
 31
0.0
  0
ARC
  5
5781
  8
DANMEN
  6
CONTINUOUS
 10
272.03130196108009
 20
215.28674829990109
 30
0.0
 40
0.5
 50
180.0
 51
214.99201999999869
  0
LINE
  5
5782
  8
DANMEN
  6
CONTINUOUS
 10
273.38130096108023
 20
214.23007529990099
 30
0.0
 11
272.53130196108009
 21
215.44435929990101
 31
0.0
  0
LINE
  5
5783
  8
DANMEN
  6
CONTINUOUS
 10
272.5813019610801
 20
213.629137299901
 30
0.0
 11
271.62168596108012
 21
215.00001729990109
 31
0.0
  0
ARC
  5
5784
  8
DANMEN
  6
CONTINUOUS
 10
272.03130196108009
 20
216.89495029990101
 30
0.0
 40
0.5
 50
129.80557099999911
 51
180.0
  0
ARC
  5
5785
  8
DANMEN
  6
CONTINUOUS
 10
273.51232696108002
 20
218.12913729990109
 30
0.0
 40
0.5
 50
90.0
 51
129.80557099999911
  0
LINE
  5
5786
  8
DANMEN
  6
CONTINUOUS
 10
272.53130196108009
 20
216.66076229990091
 30
0.0
 11
273.69335196108023
 21
217.62913729990089
 31
0.0
  0
LINE
  5
5787
  8
DANMEN
  6
CONTINUOUS
 10
271.7112099610801
 20
217.27906029990109
 30
0.0
 11
273.19223496108009
 21
218.51324829990091
 31
0.0
  0
LINE
  5
5788
  8
DANMEN
  6
CONTINUOUS
 10
272.5813019610801
 20
213.629137299901
 30
0.0
 11
273.08130096107999
 21
213.629137299901
 31
0.0
  0
LINE
  5
5789
  8
DANMEN
  6
CONTINUOUS
 10
273.38130096108023
 20
214.23007529990099
 30
0.0
 11
273.38130096108023
 21
213.9291372999009
 31
0.0
  0
ARC
  5
578A
  8
DANMEN
  6
CONTINUOUS
 10
273.08130096107999
 20
213.9291372999009
 30
0.0
 40
0.3
 50
270.0
 51
0.0
  0
LINE
  5
578B
  8
DANMEN
  6
CONTINUOUS
 10
274.83128696108008
 20
218.629137299901
 30
0.0
 11
273.51232696108002
 21
218.629137299901
 31
0.0
  0
LINE
  5
578C
  8
DANMEN
  6
CONTINUOUS
 10
275.33128696108002
 20
217.62913729990089
 30
0.0
 11
273.69335196108023
 21
217.62913729990089
 31
0.0
  0
ARC
  5
578D
  8
DANMEN
  6
CONTINUOUS
 10
275.33128696108002
 20
218.12913729990109
 30
0.0
 40
0.5
 50
270.0
 51
0.0
  0
LINE
  5
578E
  8
DANMEN
  6
CONTINUOUS
 10
271.53130196108009
 20
215.28674829990109
 30
0.0
 11
271.53130196108009
 21
216.89495029990101
 31
0.0
  0
LINE
  5
578F
  8
DANMEN
  6
CONTINUOUS
 10
272.53130196108009
 20
215.44435929990101
 30
0.0
 11
272.53130196108009
 21
216.66076229990091
 31
0.0
  0
LINE
  5
5790
  8
DANMEN
  6
CONTINUOUS
 10
422.83079096108003
 20
220.92914529990111
 30
0.0
 11
422.83079096108003
 21
221.62914229990091
 31
0.0
  0
ARC
  5
5791
  8
DANMEN
  6
CONTINUOUS
 10
422.33079096108008
 20
220.92914529990111
 30
0.0
 40
0.5
 50
270.0
 51
0.0000190000006095
  0
LINE
  5
5792
  8
DANMEN
  6
CONTINUOUS
 10
403.8307909610802
 20
221.62914229990091
 30
0.0
 11
422.83079096108003
 21
221.62914229990091
 31
0.0
  0
LINE
  5
5793
  8
DANMEN
  6
CONTINUOUS
 10
403.8307909610802
 20
219.62914229990091
 30
0.0
 11
418.33079096108008
 21
219.62914229990091
 31
0.0
  0
LINE
  5
5794
  8
DANMEN
  6
CONTINUOUS
 10
403.3307909610802
 20
220.12914229990099
 30
0.0
 11
403.3307909610802
 21
221.12914229990099
 31
0.0
  0
ARC
  5
5795
  8
DANMEN
  6
CONTINUOUS
 10
403.8307909610802
 20
221.12914229990099
 30
0.0
 40
0.5
 50
90.0
 51
180.0
  0
ARC
  5
5796
  8
DANMEN
  6
CONTINUOUS
 10
403.8307909610802
 20
220.12914229990099
 30
0.0
 40
0.5
 50
180.0
 51
270.0
  0
LINE
  5
5797
  8
DANMEN
  6
CONTINUOUS
 10
419.33079096108003
 20
218.6291122999011
 30
0.0
 11
419.33079096108003
 21
219.62914229990091
 31
0.0
  0
LINE
  5
5798
  8
DANMEN
  6
CONTINUOUS
 10
418.33079096108008
 20
218.6291122999011
 30
0.0
 11
418.33079096108008
 21
219.62914229990091
 31
0.0
  0
ARC
  5
5799
  8
DANMEN
  6
CONTINUOUS
 10
418.83079096108003
 20
218.6291122999011
 30
0.0
 40
0.5
 50
270.0
 51
0.0
  0
ARC
  5
579A
  8
DANMEN
  6
CONTINUOUS
 10
418.83079096108003
 20
218.6291122999011
 30
0.0
 40
0.5
 50
180.0
 51
270.0
  0
LINE
  5
579B
  8
DANMEN
  6
CONTINUOUS
 10
419.33079096108003
 20
219.62914229990091
 30
0.0
 11
421.3307909610802
 21
219.62914229990091
 31
0.0
  0
LINE
  5
579C
  8
DANMEN
  6
CONTINUOUS
 10
422.33079096108008
 20
220.42914529990111
 30
0.0
 11
422.33079096108008
 21
218.62914229990099
 31
0.0
  0
LINE
  5
579D
  8
DANMEN
  6
CONTINUOUS
 10
421.3307909610802
 20
219.62914229990091
 30
0.0
 11
421.3307909610802
 21
218.12914229990099
 31
0.0
  0
ARC
  5
579E
  8
DANMEN
  6
CONTINUOUS
 10
425.13077596108002
 20
215.28675329990111
 30
0.0
 40
0.5
 50
325.00797999999992
 51
0.0
  0
LINE
  5
579F
  8
DANMEN
  6
CONTINUOUS
 10
423.78077696107999
 20
214.230080299901
 30
0.0
 11
424.63077596108002
 21
215.44436429990111
 31
0.0
  0
LINE
  5
57A0
  8
DANMEN
  6
CONTINUOUS
 10
424.58077596108012
 20
213.62914229990099
 30
0.0
 11
425.5403919610801
 21
215.00002229990099
 31
0.0
  0
ARC
  5
57A1
  8
DANMEN
  6
CONTINUOUS
 10
425.13077596108002
 20
216.89495529990111
 30
0.0
 40
0.5
 50
0.0
 51
50.194429000000831
  0
ARC
  5
57A2
  8
DANMEN
  6
CONTINUOUS
 10
423.64975096107997
 20
218.12914229990099
 30
0.0
 40
0.5
 50
50.194429000000831
 51
90.0
  0
LINE
  5
57A3
  8
DANMEN
  6
CONTINUOUS
 10
424.63077596108002
 20
216.6607672999011
 30
0.0
 11
423.46872596108011
 21
217.62914229990091
 31
0.0
  0
LINE
  5
57A4
  8
DANMEN
  6
CONTINUOUS
 10
425.45086796108001
 20
217.27906529990111
 30
0.0
 11
423.96984296108002
 21
218.51325329990109
 31
0.0
  0
LINE
  5
57A5
  8
DANMEN
  6
CONTINUOUS
 10
424.58077596108012
 20
213.62914229990099
 30
0.0
 11
424.08077696108012
 21
213.62914229990099
 31
0.0
  0
LINE
  5
57A6
  8
DANMEN
  6
CONTINUOUS
 10
423.78077696107999
 20
214.230080299901
 30
0.0
 11
423.78077696107999
 21
213.929142299901
 31
0.0
  0
ARC
  5
57A7
  8
DANMEN
  6
CONTINUOUS
 10
424.08077696108012
 20
213.929142299901
 30
0.0
 40
0.3
 50
180.0
 51
270.0
  0
LINE
  5
57A8
  8
DANMEN
  6
CONTINUOUS
 10
422.33079096108008
 20
218.62914229990099
 30
0.0
 11
423.64975096107997
 21
218.62914229990099
 31
0.0
  0
LINE
  5
57A9
  8
DANMEN
  6
CONTINUOUS
 10
421.8307909610802
 20
217.62914229990091
 30
0.0
 11
423.46872596108011
 21
217.62914229990091
 31
0.0
  0
ARC
  5
57AA
  8
DANMEN
  6
CONTINUOUS
 10
421.8307909610802
 20
218.12914229990099
 30
0.0
 40
0.5
 50
180.0
 51
270.0
  0
LINE
  5
57AB
  8
DANMEN
  6
CONTINUOUS
 10
425.63077596108019
 20
215.28675329990111
 30
0.0
 11
425.63077596108019
 21
216.89495529990111
 31
0.0
  0
LINE
  5
57AC
  8
DANMEN
  6
CONTINUOUS
 10
424.63077596108002
 20
215.44436429990111
 30
0.0
 11
424.63077596108002
 21
216.6607672999011
 31
0.0
  0
LINE
  5
57AD
  8
DANMEN
  6
PHANTOM
 10
148.48753296108009
 20
179.48851029990101
 30
0.0
 11
141.48753296108009
 21
168.98847829990089
 31
0.0
  0
LINE
  5
57AE
  8
DANMEN
  6
CONTINUOUS
 10
141.48753296108009
 20
168.98847829990089
 30
0.0
 11
148.48753296108009
 21
168.98847829990089
 31
0.0
  0
LINE
  5
57AF
  8
DANMEN
  6
CONTINUOUS
 10
141.48753296108009
 20
171.988478299901
 30
0.0
 11
141.48753296108009
 21
168.98847829990089
 31
0.0
  0
LINE
  5
57B0
  8
DANMEN
  6
CONTINUOUS
 10
138.48753296108021
 20
171.988478299901
 30
0.0
 11
141.48753296108009
 21
171.988478299901
 31
0.0
  0
LINE
  5
57B1
  8
DANMEN
  6
CONTINUOUS
 10
138.48753296108021
 20
179.48851029990101
 30
0.0
 11
138.48753296108021
 21
171.988478299901
 31
0.0
  0
LINE
  5
57B2
  8
DANMEN
  6
CONTINUOUS
 10
148.48753296108009
 20
179.48851029990101
 30
0.0
 11
148.48753296108009
 21
168.98847829990089
 31
0.0
  0
LINE
  5
57B3
  8
DANMEN
  6
CONTINUOUS
 10
138.48753296108021
 20
179.48851029990101
 30
0.0
 11
148.48753296108009
 21
179.48851029990101
 31
0.0
  0
LINE
  5
57B4
  8
SUNPO
  6
CONTINUOUS
 10
189.58746696108
 20
196.4887002999011
 30
0.0
 11
111.08752096108
 21
196.4887002999011
 31
0.0
  0
LINE
  5
57B5
  8
SUNPO
  6
CONTINUOUS
 10
130.0875049610801
 20
191.4887002999011
 30
0.0
 11
111.08752096108
 21
191.4887002999011
 31
0.0
  0
LINE
  5
57B6
  8
SUNPO
  6
CONTINUOUS
 10
111.08752096108
 20
191.4887002999011
 30
0.0
 11
111.08752096108
 21
196.4887002999011
 31
0.0
  0
LINE
  5
57B7
  8
DANMEN
  6
CONTINUOUS
 10
143.30169064608441
 20
166.98851869683381
 30
0.0
 11
144.4874947214341
 21
168.1743227721835
 31
0.0
  0
LINE
  5
57B8
  8
DANMEN
  6
CONTINUOUS
 10
141.88747708371139
 20
166.98851869683381
 30
0.0
 11
143.88743655477441
 21
168.9884781678968
 31
0.0
  0
LINE
  5
57B9
  8
DANMEN
  6
CONTINUOUS
 10
140.47326352133831
 20
166.98851869683381
 30
0.0
 11
142.4732229924013
 21
168.9884781678968
 31
0.0
  0
LINE
  5
57BA
  8
DANMEN
  6
CONTINUOUS
 10
139.0590499589652
 20
166.98851869683381
 30
0.0
 11
141.4875333174727
 21
169.4170020553413
 31
0.0
  0
LINE
  5
57BB
  8
DANMEN
  6
CONTINUOUS
 10
140.28750692846481
 20
169.63118922870669
 30
0.0
 11
141.4875333174725
 21
170.83121561771441
 31
0.0
  0
LINE
  5
57BC
  8
DANMEN
  6
CONTINUOUS
 10
137.64483639659221
 20
166.98851869683381
 30
0.0
 11
139.64483639659221
 21
168.98851869683381
 31
0.0
  0
LINE
  5
57BD
  8
DANMEN
  6
CONTINUOUS
 10
140.23062283421891
 20
170.98851869683381
 30
0.0
 11
141.23058235296571
 21
171.98847821558039
 31
0.0
  0
LINE
  5
57BE
  8
DANMEN
  6
CONTINUOUS
 10
136.48749472143419
 20
167.24539058404909
 30
0.0
 11
138.23062283421891
 21
168.98851869683381
 31
0.0
  0
LINE
  5
57BF
  8
DANMEN
  6
CONTINUOUS
 10
138.8579793189005
 20
171.0300887438886
 30
0.0
 11
139.81636879059261
 21
171.98847821558039
 31
0.0
  0
LINE
  5
57C0
  8
DANMEN
  6
CONTINUOUS
 10
136.48749472143419
 20
168.6596041464222
 30
0.0
 11
136.81640927184591
 21
168.98851869683381
 31
0.0
  0
LINE
  5
57C1
  8
DANMEN
  6
CONTINUOUS
 10
137.0163900095564
 20
169.1884994345445
 30
0.0
 11
138.81640927184591
 21
170.98851869683381
 31
0.0
  0
LINE
  5
57C2
  8
DANMEN
  6
CONTINUOUS
 10
135.63738351774811
 20
169.22370650510911
 30
0.0
 11
136.60217885894741
 21
170.18850184630841
 31
0.0
  0
LINE
  5
57C3
  8
DANMEN
  6
CONTINUOUS
 10
134.9513428837991
 20
169.95187943353309
 30
0.0
 11
135.6613659574495
 21
170.6619025071835
 31
0.0
  0
LINE
  5
57C4
  8
DANMEN
  6
CONTINUOUS
 10
134.3085226884277
 20
170.723272800535
 30
0.0
 11
135.08749189015231
 21
171.50224200225941
 31
0.0
  0
LINE
  5
57C5
  8
DANMEN
  6
CONTINUOUS
 10
134.0874943019106
 20
171.91645797639089
 30
0.0
 11
134.15955502235349
 21
171.98851869683381
 31
0.0
  0
LINE
  5
57C6
  8
SUNPO
  6
CONTINUOUS
 10
153.08752096108
 20
224.1355482999009
 30
0.0
 11
201.08752096108009
 21
224.1355482999009
 31
0.0
  0
LINE
  5
57C7
  8
SUNPO
  6
CONTINUOUS
 10
133.08753196108
 20
224.1355482999009
 30
0.0
 11
153.08765796108011
 21
224.1355482999009
 31
0.0
  0
LINE
  5
57C8
  8
DANMEN
  6
CONTINUOUS
 10
166.08752096108
 20
146.488478299901
 30
0.0
 11
166.08752096108
 21
136.488478299901
 31
0.0
  0
LINE
  5
57C9
  8
DANMEN
  6
CONTINUOUS
 10
166.08752096108
 20
136.488478299901
 30
0.0
 11
201.08752096108009
 21
136.488478299901
 31
0.0
  0
LINE
  5
57CA
  8
DANMEN
  6
CONTINUOUS
 10
201.08752096108009
 20
231.17345029990111
 30
0.0
 11
201.08752096108009
 21
136.488478299901
 31
0.0
  0
LINE
  5
57CB
  8
DANMEN
  6
CONTINUOUS
 10
153.08752096108
 20
190.9863792999009
 30
0.0
 11
153.08752096108
 21
231.17345029990111
 31
0.0
  0
LINE
  5
57CC
  8
DANMEN
  6
CONTINUOUS
 10
134.08749496108021
 20
171.98851829990099
 30
0.0
 11
135.08749096108011
 21
171.98851829990099
 31
0.0
  0
LINE
  5
57CD
  8
DANMEN
  6
CONTINUOUS
 10
136.4874949610801
 20
166.98851829990099
 30
0.0
 11
136.4874949610801
 21
168.98847829990089
 31
0.0
  0
LINE
  5
57CE
  8
DANMEN
  6
CONTINUOUS
 10
144.4874949610801
 20
167.03851829990111
 30
0.0
 11
144.4874949610801
 21
169.03847829990099
 31
0.0
  0
LINE
  5
57CF
  8
DANMEN
  6
CONTINUOUS
 10
191.08746796107999
 20
191.48855929990111
 30
0.0
 11
191.08746796107999
 21
196.48855929990111
 31
0.0
  0
LINE
  5
57D0
  8
DANMEN
  6
CONTINUOUS
 10
191.08746796107999
 20
196.48855929990111
 30
0.0
 11
193.58746796107999
 21
196.48855929990111
 31
0.0
  0
LINE
  5
57D1
  8
DANMEN
  6
CONTINUOUS
 10
201.0874949610801
 20
316.48850129990097
 30
0.0
 11
201.0874949610801
 21
233.771238299901
 31
0.0
  0
LINE
  5
57D2
  8
DANMEN
  6
CONTINUOUS
 10
145.08752496108011
 20
273.48848429990102
 30
0.0
 11
145.08752496108011
 21
233.771238299901
 31
0.0
  0
LINE
  5
57D3
  8
DANMEN
  6
CONTINUOUS
 10
141.08752496108011
 20
273.48848429990102
 30
0.0
 11
141.08752496108011
 21
233.771238299901
 31
0.0
  0
LINE
  5
57D4
  8
DANMEN
  6
CONTINUOUS
 10
145.58752496108011
 20
273.48848429990102
 30
0.0
 11
145.58752496108011
 21
233.771238299901
 31
0.0
  0
LINE
  5
57D5
  8
DANMEN
  6
CONTINUOUS
 10
140.58752496108019
 20
273.48848429990102
 30
0.0
 11
140.58752496108019
 21
233.771238299901
 31
0.0
  0
LINE
  5
57D6
  8
DANMEN
  6
CONTINUOUS
 10
166.08750396107999
 20
311.48850129990092
 30
0.0
 11
166.08750396107999
 21
316.48850129990097
 31
0.0
  0
LINE
  5
57D7
  8
DANMEN
  6
CONTINUOUS
 10
166.08750396107999
 20
316.48850129990097
 30
0.0
 11
201.0874949610801
 21
316.48850129990097
 31
0.0
  0
LINE
  5
57D8
  8
DANMEN
  6
CONTINUOUS
 10
145.58752496108011
 20
268.48848829990101
 30
0.0
 11
145.58752496108011
 21
273.48848429990102
 31
0.0
  0
LINE
  5
57D9
  8
DANMEN
  6
CONTINUOUS
 10
145.58752496108011
 20
271.48848729990101
 30
0.0
 11
153.0874949610801
 21
271.48848729990101
 31
0.0
  0
LINE
  5
57DA
  8
DANMEN
  6
CONTINUOUS
 10
133.08749496108021
 20
271.48848729990101
 30
0.0
 11
140.58752496108019
 21
271.48848729990101
 31
0.0
  0
LINE
  5
57DB
  8
DANMEN
  6
CONTINUOUS
 10
133.08749496108021
 20
233.771238299901
 30
0.0
 11
133.08749496108021
 21
266.48849129990111
 31
0.0
  0
LINE
  5
57DC
  8
DANMEN
  6
CONTINUOUS
 10
153.0874949610801
 20
233.771238299901
 30
0.0
 11
153.0874949610801
 21
266.48849129990111
 31
0.0
  0
LINE
  5
57DD
  8
DANMEN
  6
CONTINUOUS
 10
145.58752496108011
 20
259.4884952999011
 30
0.0
 11
153.0874949610801
 21
261.4884952999011
 31
0.0
  0
LINE
  5
57DE
  8
DANMEN
  6
CONTINUOUS
 10
153.0874949610801
 20
266.4884952999011
 30
0.0
 11
145.58752496108011
 21
266.4884952999011
 31
0.0
  0
LINE
  5
57DF
  8
DANMEN
  6
CONTINUOUS
 10
133.08749496108021
 20
266.48848729990101
 30
0.0
 11
140.58752496108019
 21
266.48848729990101
 31
0.0
  0
LINE
  5
57E0
  8
DANMEN
  6
CONTINUOUS
 10
140.58752496108019
 20
259.4884872999009
 30
0.0
 11
132.83711396108001
 21
261.55525529990109
 31
0.0
  0
LINE
  5
57E1
  8
DANMEN
  6
CONTINUOUS
 10
133.08752096108
 20
185.9885072999009
 30
0.0
 11
133.08752096108
 21
222.73403029990109
 31
0.0
  0
LINE
  5
57E2
  8
DANMEN
  6
CONTINUOUS
 10
131.08752096108
 20
151.48847829990089
 30
0.0
 11
131.08752096108
 21
222.73403029990109
 31
0.0
  0
LINE
  5
57E3
  8
DANMEN
  6
CONTINUOUS
 10
140.63756596108021
 20
223.05267329990099
 30
0.0
 11
140.63756596108021
 21
176.48851829990099
 31
0.0
  0
LINE
  5
57E4
  8
DANMEN
  6
CONTINUOUS
 10
145.6375659610801
 20
223.05267329990099
 30
0.0
 11
145.6375659610801
 21
179.48851029990101
 31
0.0
  0
LINE
  5
57E5
  8
DANMEN
  6
CONTINUOUS
 10
145.1375659610801
 20
223.05267329990099
 30
0.0
 11
145.1375659610801
 21
179.48851029990101
 31
0.0
  0
LINE
  5
57E6
  8
DANMEN
  6
CONTINUOUS
 10
141.1375659610801
 20
223.05267329990099
 30
0.0
 11
141.1375659610801
 21
179.48851029990101
 31
0.0
  0
LINE
  5
57E7
  8
DANMEN
  6
CONTINUOUS
 10
145.6375659610801
 20
193.459663299901
 30
0.0
 11
153.08752096108
 21
191.47301729990099
 31
0.0
  0
LINE
  5
57E8
  8
DANMEN
  6
CONTINUOUS
 10
153.08752096108
 20
181.48847829990089
 30
0.0
 11
145.6375659610801
 21
181.48847829990089
 31
0.0
  0
LINE
  5
57E9
  8
DANMEN
  6
CONTINUOUS
 10
153.08752096108
 20
186.48847829990109
 30
0.0
 11
145.6375659610801
 21
186.48847829990109
 31
0.0
  0
LINE
  5
57EA
  8
DANMEN
  6
CONTINUOUS
 10
133.08752096108
 20
186.4885072999009
 30
0.0
 11
140.63756596108021
 21
186.4885072999009
 31
0.0
  0
LINE
  5
57EB
  8
DANMEN
  6
CONTINUOUS
 10
133.08750596108001
 20
176.48851829990099
 30
0.0
 11
140.63755096108011
 21
176.48851829990099
 31
0.0
  0
LINE
  5
57EC
  8
DANMEN
  6
CONTINUOUS
 10
140.63756596108021
 20
193.48638329990101
 30
0.0
 11
133.08752096108
 21
191.47304629990111
 31
0.0
  0
LINE
  5
57ED
  8
DANMEN
  6
CONTINUOUS
 10
425.83078896108009
 20
159.62912129990099
 30
0.0
 11
404.98079096108017
 21
159.62912129990099
 31
0.0
  0
LINE
  5
57EE
  8
DANMEN
  6
CONTINUOUS
 10
271.3310999610801
 20
159.629148299901
 30
0.0
 11
292.18111296108009
 21
159.629148299901
 31
0.0
  0
LINE
  5
57EF
  8
DANMEN
  6
CONTINUOUS
 10
403.3307909610802
 20
159.6291562999011
 30
0.0
 11
351.33098396108011
 21
159.6291562999011
 31
0.0
  0
LINE
  5
57F0
  8
DANMEN
  6
CONTINUOUS
 10
293.83111296108001
 20
159.62916129990111
 30
0.0
 11
346.33098396108011
 21
159.62916129990111
 31
0.0
  0
LINE
  5
57F1
  8
DANMEN
  6
CONTINUOUS
 10
346.33098396108011
 20
219.62911629990111
 30
0.0
 11
293.33128696108008
 21
219.62911629990111
 31
0.0
  0
LINE
  5
57F2
  8
DANMEN
  6
CONTINUOUS
 10
288.3312139610801
 20
199.629160299901
 30
0.0
 11
346.33098396108011
 21
199.629160299901
 31
0.0
  0
LINE
  5
57F3
  8
DANMEN
  6
CONTINUOUS
 10
293.83109296108
 20
151.62916129990111
 30
0.0
 11
346.33098396108011
 21
151.62916129990111
 31
0.0
  0
LINE
  5
57F4
  8
DANMEN
  6
CONTINUOUS
 10
408.8307909610802
 20
199.6291552999009
 30
0.0
 11
351.33098396108011
 21
199.6291552999009
 31
0.0
  0
LINE
  5
57F5
  8
SUNPO
  6
CONTINUOUS
 10
293.83107096108
 20
126.629100299901
 30
0.0
 11
338.41975696108
 21
126.629100299901
 31
0.0
  0
LINE
  5
57F6
  8
SUNPO
  6
CONTINUOUS
 10
403.33078696107998
 20
126.629010299901
 30
0.0
 11
363.7552249610801
 21
126.629010299901
 31
0.0
  0
LINE
  5
57F7
  8
DANMEN
  6
CONTINUOUS
 10
278.83128696108008
 20
212.12906629990101
 30
0.0
 11
346.33095696108012
 21
212.12887029990111
 31
0.0
  0
LINE
  5
57F8
  8
DANMEN
  6
CONTINUOUS
 10
281.83138496108018
 20
207.129047299901
 30
0.0
 11
346.33094496107998
 21
207.12887129990091
 31
0.0
  0
LINE
  5
57F9
  8
DANMEN
  6
CONTINUOUS
 10
351.33098396108011
 20
219.629061299901
 30
0.0
 11
403.8307909610802
 21
219.629061299901
 31
0.0
  0
LINE
  5
57FA
  8
DANMEN
  6
CONTINUOUS
 10
288.83115296108019
 20
199.629081299901
 30
0.0
 11
288.8311969610802
 21
207.12901729990091
 31
0.0
  0
LINE
  5
57FB
  8
DANMEN
  6
CONTINUOUS
 10
293.83118796108022
 20
199.629160299901
 30
0.0
 11
294.83120496108
 21
207.12898829990101
 31
0.0
  0
LINE
  5
57FC
  8
DANMEN
  6
CONTINUOUS
 10
281.83138796108
 20
207.62902929990111
 30
0.0
 11
346.33094896108003
 21
207.62887229990099
 31
0.0
  0
LINE
  5
57FD
  8
DANMEN
  6
CONTINUOUS
 10
281.83141096108
 20
211.62902929990091
 30
0.0
 11
346.33095896108011
 21
211.62887229990099
 31
0.0
  0
LINE
  5
57FE
  8
DANMEN
  6
CONTINUOUS
 10
288.83126996108001
 20
219.62908729990099
 30
0.0
 11
288.83122596108001
 21
212.12905729990109
 31
0.0
  0
LINE
  5
57FF
  8
DANMEN
  6
CONTINUOUS
 10
293.83126996108001
 20
219.62906429990099
 30
0.0
 11
294.83122596108001
 21
212.12902829990111
 31
0.0
  0
LINE
  5
5800
  8
DANMEN
  6
CONTINUOUS
 10
418.33075196108001
 20
212.1290552999011
 30
0.0
 11
361.55472396108001
 21
212.1290552999011
 31
0.0
  0
LINE
  5
5801
  8
DANMEN
  6
CONTINUOUS
 10
415.33056996108002
 20
211.62905529990101
 30
0.0
 11
361.55472396108001
 21
211.62905529990101
 31
0.0
  0
LINE
  5
5802
  8
DANMEN
  6
CONTINUOUS
 10
408.33075796108011
 20
219.6291212999009
 30
0.0
 11
408.33075796108011
 21
212.12904029990111
 31
0.0
  0
LINE
  5
5803
  8
DANMEN
  6
CONTINUOUS
 10
403.33074996108019
 20
219.6290762999009
 30
0.0
 11
402.33075096108001
 21
212.1290552999011
 31
0.0
  0
LINE
  5
5804
  8
DANMEN
  6
CONTINUOUS
 10
418.33075196108001
 20
212.12907629990099
 30
0.0
 11
418.33075196108001
 21
219.6291212999009
 31
0.0
  0
LINE
  5
5805
  8
DANMEN
  6
CONTINUOUS
 10
408.33075796108011
 20
199.62914229990099
 30
0.0
 11
408.33075796108011
 21
207.1290552999009
 31
0.0
  0
LINE
  5
5806
  8
DANMEN
  6
CONTINUOUS
 10
403.33075796108
 20
199.62897529990099
 30
0.0
 11
402.33075096108001
 21
207.1290552999009
 31
0.0
  0
LINE
  5
5807
  8
DANMEN
  6
CONTINUOUS
 10
413.33075196108001
 20
207.12902029990099
 30
0.0
 11
413.33075196108001
 21
199.6289742999009
 31
0.0
  0
LINE
  5
5808
  8
DANMEN
  6
CONTINUOUS
 10
415.33056996108002
 20
207.1290552999009
 30
0.0
 11
361.55472396108001
 21
207.1290552999009
 31
0.0
  0
LINE
  5
5809
  8
DANMEN
  6
CONTINUOUS
 10
415.33056996108002
 20
207.6290552999011
 30
0.0
 11
361.55472396108001
 21
207.6290552999011
 31
0.0
  0
LINE
  5
580A
  8
DANMEN
  6
CONTINUOUS
 10
351.33098396108011
 20
221.62915629990101
 30
0.0
 11
403.8307909610802
 21
221.62915629990101
 31
0.0
  0
LINE
  5
580B
  8
DANMEN
  6
CONTINUOUS
 10
293.33128696108008
 20
221.62916129990111
 30
0.0
 11
346.33098396108011
 21
221.62916129990111
 31
0.0
  0
LINE
  5
580C
  8
DANMEN
  6
CONTINUOUS
 10
278.83128696108008
 20
212.12909229990109
 30
0.0
 11
278.83128696108008
 21
219.62913729990089
 31
0.0
  0
LINE
  5
580D
  8
DANMEN
  6
CONTINUOUS
 10
283.83120196108018
 20
207.12900629990091
 30
0.0
 11
283.83120196108018
 21
199.62896029990111
 31
0.0
  0
LINE
  5
580E
  8
DANMEN
  6
CONTINUOUS
 10
166.0874949610801
 20
306.48850129990097
 30
0.0
 11
166.0874949610801
 21
316.48850129990097
 31
0.0
  0
LINE
  5
580F
  8
DANMEN
  6
PHANTOM
 10
139.48752796108019
 20
171.98850129990089
 30
0.0
 11
141.4875279610801
 21
171.98850129990089
 31
0.0
  0
LINE
  5
5810
  8
DANMEN
  6
PHANTOM
 10
141.4875279610801
 20
171.98850129990089
 30
0.0
 11
141.4875279610801
 21
169.0061032999011
 31
0.0
  0
LINE
  5
5811
  8
DANMEN
  6
CONTINUOUS
 10
134.08752096108
 20
171.93850129990111
 30
0.0
 11
135.0875169610801
 21
171.93850129990111
 31
0.0
  0
LINE
  5
5812
  8
DANMEN
  6
CONTINUOUS
 10
144.48752096108009
 20
166.988501299901
 30
0.0
 11
144.48752096108009
 21
168.98846129990099
 31
0.0
  0
LINE
  5
5813
  8
DANMEN
  6
CONTINUOUS
 10
136.48752096108001
 20
166.988501299901
 30
0.0
 11
136.48752096108001
 21
168.988501299901
 31
0.0
  0
LINE
  5
5814
  8
DANMEN
  6
CONTINUOUS
 10
191.0874949610801
 20
196.488501299901
 30
0.0
 11
193.5874949610801
 21
196.488501299901
 31
0.0
  0
LINE
  5
5815
  8
DANMEN
  6
CONTINUOUS
 10
191.0874949610801
 20
191.48850129990089
 30
0.0
 11
191.0874949610801
 21
196.488501299901
 31
0.0
  0
LINE
  5
5816
  8
DANMEN
  6
CONTINUOUS
 10
201.08691296108
 20
136.48827929990111
 30
0.0
 11
201.08691296108
 21
146.98827929990091
 31
0.0
  0
LINE
  5
5817
  8
DANMEN
  6
CONTINUOUS
 10
166.08691296108
 20
136.48827929990111
 30
0.0
 11
201.08691296108
 21
136.48827929990111
 31
0.0
  0
LINE
  5
5818
  8
DANMEN
  6
CONTINUOUS
 10
201.0874949610801
 20
316.48850129990097
 30
0.0
 11
201.0874949610801
 21
233.771238299901
 31
0.0
  0
LINE
  5
5819
  8
DANMEN
  6
CONTINUOUS
 10
166.0874949610801
 20
316.48850129990097
 30
0.0
 11
201.0874949610801
 21
316.48850129990097
 31
0.0
  0
LINE
  5
581A
  8
DANMEN
  6
CONTINUOUS
 10
131.08749496108021
 20
300.98850129990092
 30
0.0
 11
131.08749496108021
 21
301.48850129990092
 31
0.0
  0
LINE
  5
581B
  8
DANMEN
  6
CONTINUOUS
 10
133.08749496108021
 20
234.23848629990101
 30
0.0
 11
133.08749496108021
 21
261.48849129990111
 31
0.0
  0
LINE
  5
581C
  8
SUNPO
  6
CONTINUOUS
 10
226.08749496108001
 20
261.48850129990092
 30
0.0
 11
226.08749496108001
 21
238.99166429990089
 31
0.0
  0
LINE
  5
581D
  8
DANMEN
  6
CONTINUOUS
 10
201.0874949610801
 20
261.48849129990111
 30
0.0
 11
201.0874949610801
 21
233.771238299901
 31
0.0
  0
LINE
  5
581E
  8
DANMEN
  6
CONTINUOUS
 10
131.08749496108021
 20
266.48849129990111
 30
0.0
 11
131.08749496108021
 21
233.771238299901
 31
0.0
  0
LINE
  5
581F
  8
DANMEN
  6
CONTINUOUS
 10
133.08749496108021
 20
233.771238299901
 30
0.0
 11
133.08749496108021
 21
266.48849129990111
 31
0.0
  0
LINE
  5
5820
  8
DANMEN
  6
CONTINUOUS
 10
131.08749496108021
 20
233.771238299901
 30
0.0
 11
131.08749496108021
 21
300.98850129990092
 31
0.0
  0
LINE
  5
5821
  8
SUNPO
  6
CONTINUOUS
 10
226.08749496108001
 20
196.488501299901
 30
0.0
 11
226.08749496108001
 21
222.19442029990111
 31
0.0
  0
LINE
  5
5822
  8
DANMEN
  6
CONTINUOUS
 10
131.08749496108021
 20
151.48850129990109
 30
0.0
 11
131.08749496108021
 21
231.17345029990111
 31
0.0
  0
LINE
  5
5823
  8
DANMEN
  6
CONTINUOUS
 10
133.08749496108021
 20
186.48831329990111
 30
0.0
 11
133.08749496108021
 21
231.17345029990111
 31
0.0
  0
LINE
  5
5824
  8
SUNPO
  6
CONTINUOUS
 10
403.33101096107998
 20
131.62900829990099
 30
0.0
 11
403.33101096107998
 21
131.62909629990111
 31
0.0
  0
LINE
  5
5825
  8
DANMEN
  6
CONTINUOUS
 10
293.83098196108
 20
151.62915729990101
 30
0.0
 11
346.33098396108011
 21
151.62915729990101
 31
0.0
  0
LINE
  5
5826
  8
DANMEN
  6
CONTINUOUS
 10
403.3309859610801
 20
151.62915729990101
 30
0.0
 11
351.33098396108011
 21
151.62915729990101
 31
0.0
  0
LINE
  5
5827
  8
DANMEN
  6
CONTINUOUS
 10
140.58752496108019
 20
273.48848429990102
 30
0.0
 11
145.58752496108011
 21
273.48848429990102
 31
0.0
  0
LINE
  5
5828
  8
DANMEN
  6
CONTINUOUS
 10
415.33056996108002
 20
212.1290552999011
 30
0.0
 11
415.33056996108002
 21
207.1290552999009
 31
0.0
  0
LINE
  5
5829
  8
DANMEN
  6
CONTINUOUS
 10
281.83141396108022
 20
212.129024299901
 30
0.0
 11
281.83138496108018
 21
207.129024299901
 31
0.0
  0
ENDSEC
  0
EOF
