  0
SECTION
  2
HEADER
  9
$ACADVER
  1
AC1009
  9
$INSBASE
 10
0.0
 20
0.0
 30
0.0
  9
$EXTMIN
 10
5.0
 20
205.0
 30
0.0
  9
$EXTMAX
 10
500.0
 20
505.0
 30
0.0
  9
$LIMMIN
 10
-210.0
 20
-148.5
  9
$LIMMAX
 10
210.0
 20
148.5
  9
$ORTHOMODE
 70
     1
  9
$REGENMODE
 70
     1
  9
$FILLMODE
 70
     1
  9
$QTEXTMODE
 70
     0
  9
$MIRRTEXT
 70
     1
  9
$DRAGMODE
 70
     2
  9
$LTSCALE
 40
0.5
  9
$OSMODE
 70
  3071
  9
$ATTMODE
 70
     1
  9
$TEXTSIZE
 40
0.2
  9
$TRACEWID
 40
0.05
  9
$TEXTSTYLE
  7
STANDARD
  9
$CLAYER
  8
0
  9
$CELTYPE
  6
CONTINUOUS
  9
$CECOLOR
 62
   256
  9
$DIMSCALE
 40
1.0
  9
$DIMASZ
 40
2.3199999999999981
  9
$DIMEXO
 40
1.5
  9
$DIMDLI
 40
3.75
  9
$DIMRND
 40
0.0
  9
$DIMDLE
 40
0.0
  9
$DIMEXE
 40
0.0
  9
$DIMTP
 40
0.0
  9
$DIMTM
 40
0.0
  9
$DIMTXT
 40
2.5
  9
$DIMCEN
 40
2.5
  9
$DIMTSZ
 40
0.0
  9
$DIMTOL
 70
     0
  9
$DIMLIM
 70
     0
  9
$DIMTIH
 70
     0
  9
$DIMTOH
 70
     0
  9
$DIMSE1
 70
     1
  9
$DIMSE2
 70
     1
  9
$DIMTAD
 70
     1
  9
$DIMZIN
 70
     0
  9
$DIMBLK
  1

  9
$DIMASO
 70
     1
  9
$DIMSHO
 70
     1
  9
$DIMPOST
  1

  9
$DIMAPOST
  1

  9
$DIMALT
 70
     0
  9
$DIMALTD
 70
     4
  9
$DIMALTF
 40
0.0394
  9
$DIMLFAC
 40
1.0
  9
$DIMTOFL
 70
     1
  9
$DIMTVP
 40
0.0
  9
$DIMTIX
 70
     0
  9
$DIMSOXD
 70
     0
  9
$DIMSAH
 70
     1
  9
$DIMBLK1
  1

  9
$DIMBLK2
  1

  9
$DIMSTYLE
  2
MXDIMSTYLE
  9
$DIMCLRD
 70
     0
  9
$DIMCLRE
 70
     0
  9
$DIMCLRT
 70
     0
  9
$DIMTFAC
 40
1.0
  9
$DIMGAP
 40
1.0
  9
$LUNITS
 70
     2
  9
$LUPREC
 70
     4
  9
$SKETCHINC
 40
0.1
  9
$FILLETRAD
 40
0.0
  9
$AUNITS
 70
     0
  9
$AUPREC
 70
     0
  9
$MENU
  1
acad
  9
$ELEVATION
 40
0.0
  9
$PELEVATION
 40
0.0
  9
$THICKNESS
 40
0.0
  9
$LIMCHECK
 70
     0
  9
$BLIPMODE
 70
     0
  9
$CHAMFERA
 40
0.0
  9
$CHAMFERB
 40
0.0
  9
$SKPOLY
 70
     0
  9
$TDCREATE
 40
2452200.7321329978
  9
$TDUPDATE
 40
2454217.5679804389
  9
$TDINDWG
 40
0.058262963
  9
$TDUSRTIMER
 40
0.0582564815
  9
$USRTIMER
 70
     1
  9
$ANGBASE
 50
0.0
  9
$ANGDIR
 70
     0
  9
$PDMODE
 70
     3
  9
$PDSIZE
 40
-100.0
  9
$PLINEWID
 40
0.0
  9
$COORDS
 70
     2
  9
$SPLFRAME
 70
     0
  9
$SPLINETYPE
 70
     6
  9
$SPLINESEGS
 70
     8
  9
$ATTDIA
 70
     0
  9
$ATTREQ
 70
     1
  9
$HANDLING
 70
 22529
  9
$HANDSEED
  5
17436
  9
$SURFTAB1
 70
     6
  9
$SURFTAB2
 70
     6
  9
$SURFTYPE
 70
     6
  9
$SURFU
 70
     6
  9
$SURFV
 70
     6
  9
$UCSNAME
  2

  9
$UCSORG
 10
0.0
 20
0.0
 30
0.0
  9
$UCSXDIR
 10
1.0
 20
0.0
 30
0.0
  9
$UCSYDIR
 10
0.0
 20
1.0
 30
0.0
  9
$PUCSNAME
  2

  9
$PUCSORG
 10
0.0
 20
0.0
 30
0.0
  9
$PUCSXDIR
 10
1.0
 20
0.0
 30
0.0
  9
$PUCSYDIR
 10
0.0
 20
1.0
 30
0.0
  9
$USERI1
 70
     0
  9
$USERI2
 70
     0
  9
$USERI3
 70
     0
  9
$USERI4
 70
     0
  9
$USERI5
 70
     0
  9
$USERR1
 40
0.0
  9
$USERR2
 40
0.0
  9
$USERR3
 40
0.0
  9
$USERR4
 40
0.0
  9
$USERR5
 40
0.0
  9
$WORLDVIEW
 70
     1
  9
$SHADEDGE
 70
     3
  9
$SHADEDIF
 70
    70
  9
$TILEMODE
 70
     1
  9
$MAXACTVP
 70
    16
  9
$PLIMCHECK
 70
     0
  9
$PEXTMIN
 10
1.0000000000000000E+020
 20
1.0000000000000000E+020
 30
1.0000000000000000E+020
  9
$PEXTMAX
 10
-1.0000000000000000E+020
 20
-1.0000000000000000E+020
 30
-1.0000000000000000E+020
  9
$PLIMMIN
 10
0.0
 20
0.0
  9
$PLIMMAX
 10
12.0
 20
9.0
  9
$UNITMODE
 70
     0
  9
$VISRETAIN
 70
     0
  9
$PLINEGEN
 70
     1
  9
$PSLTSCALE
 70
     0
  0
ENDSEC
  0
SECTION
  2
TABLES
  0
TABLE
  2
VPORT
 70
     2
  0
VPORT
  2
*ACTIVE
 70
     0
 10
0.0
 20
0.0
 11
1.0
 21
1.0
 12
213.7896185293306
 22
378.87655351649141
 13
0.0
 23
0.0
 14
1.0
 24
1.0
 15
0.0
 25
0.0
 16
0.0
 26
0.0
 36
1.0
 17
0.0
 27
0.0
 37
0.0
 40
492.86647583776909
 41
1.4837545126353791
 42
50.0
 43
0.0
 44
0.0
 50
0.0
 51
0.0
 71
     0
 72
   100
 73
     1
 74
     0
 75
     0
 76
     0
 77
     0
 78
     0
  0
ENDTAB
  0
TABLE
  2
LTYPE
 70
     3
  0
LTYPE
  2
CONTINUOUS
 70
     0
  3
Solid line
 72
    65
 73
     0
 40
0.0
  0
LTYPE
  2
DASHED
 70
     0
  3
Dashed __ __ __ __ __ __ __ __ __ __ __ __ __ _
 72
    65
 73
     2
 40
19.050000000000001
 49
12.699999999999999
 49
-6.349999999999997
  0
LTYPE
  2
CENTER
 70
     0
  3
Center ____ _ ____ _ ____ _ ____ _ ____ _ ____
 72
    65
 73
     4
 40
50.799999999999997
 49
31.75
 49
-6.349999999999997
 49
6.349999999999997
 49
-6.349999999999997
  0
ENDTAB
  0
TABLE
  2
LAYER
 70
     4
  0
LAYER
  2
0
 70
     0
 62
     7
  6
CONTINUOUS
  0
LAYER
  2
SUNPO
 70
     0
 62
     1
  6
CONTINUOUS
  0
LAYER
  2
DANMEN
 70
     0
 62
     7
  6
CONTINUOUS
  0
LAYER
  2
WAKU
 70
     0
 62
     3
  6
CONTINUOUS
  0
ENDTAB
  0
TABLE
  2
STYLE
 70
     9
  0
STYLE
  2
STANDARD
 70
     0
 40
0.2
 41
1.0
 50
0.0
 71
     0
 42
0.2
  3
txt.shx
  4
bigfont.shx
  0
STYLE
  2
MX_NOTE_STANDARD
 70
     0
 40
2.5
 41
1.0
 50
0.0
 71
     0
 42
2.5
  3
txt.shx
  4
extfont.shx
  0
STYLE
  2
MX_DIMTXSTY_2
 70
     0
 40
0.0
 41
1.5
 50
0.0
 71
     0
 42
2.5
  3
txt.shx
  4
extfont.shx
  0
STYLE
  2
MX_DIMTXSTY_3
 70
     0
 40
0.0
 41
1.1000000000000001
 50
0.0
 71
     0
 42
2.5
  3
txt.shx
  4
extfont.shx
  0
STYLE
  2
MX_DIMTXSTY_4
 70
     0
 40
0.0
 41
1.3
 50
0.0
 71
     0
 42
2.5
  3
txt.shx
  4
extfont.shx
  0
STYLE
  2
MX_DIMTXSTY_5
 70
     0
 40
0.0
 41
1.3500000000000001
 50
0.0
 71
     0
 42
2.5
  3
txt.shx
  4
extfont.shx
  0
STYLE
  2
MX_DIMTXSTY_6
 70
     0
 40
0.0
 41
1.1999999999999991
 50
0.0
 71
     0
 42
2.5
  3
txt.shx
  4
extfont.shx
  0
STYLE
  2
MX_DIMTXSTY_7
 70
     0
 40
0.0
 41
0.85
 50
0.0
 71
     0
 42
2.5
  3
txt.shx
  4
extfont.shx
  0
STYLE
  2
MX_DIMTXSTY_8
 70
     0
 40
0.0
 41
1.399999999999999
 50
0.0
 71
     0
 42
2.5
  3
txt.shx
  4
extfont.shx
  0
ENDTAB
  0
TABLE
  2
VIEW
 70
     0
  0
ENDTAB
  0
TABLE
  2
UCS
 70
     0
  0
ENDTAB
  0
TABLE
  2
APPID
 70
     1
  0
APPID
  2
ACAD
 70
     0
  0
ENDTAB
  0
TABLE
  2
DIMSTYLE
 70
     1
  0
DIMSTYLE
  2
MXDIMSTYLE
 70
     0
  3

  4

  5

  6

  7

 40
1.0
 41
2.5
 42
1.5
 43
3.75
 44
0.0
 45
0.0
 46
0.0
 47
0.0
 48
0.0
140
2.5
141
2.5
142
0.0
143
0.0394
144
1.0
145
0.0
146
1.0
147
1.0
 71
     0
 72
     0
 73
     0
 74
     0
 75
     0
 76
     0
 77
     1
 78
     8
170
     0
171
     4
172
     1
173
     0
174
     0
175
     0
176
     0
177
     0
178
     0
  0
ENDTAB
  0
ENDSEC
  0
SECTION
  2
BLOCKS
  0
BLOCK
  8
0
  2
$MODEL_SPACE
 70
     0
 10
0.0
 20
0.0
 30
0.0
  3
$MODEL_SPACE
  1

  0
ENDBLK
  5
16C2B
  8
0
  0
BLOCK
 67
     1
  8
0
  2
$PAPER_SPACE
 70
     0
 10
0.0
 20
0.0
 30
0.0
  3
$PAPER_SPACE
  1

  0
ENDBLK
  5
16C27
 67
     1
  8
0
  0
BLOCK
  8
0
  2
*U2
 70
     1
 10
0.0
 20
0.0
 30
0.0
  3
*U2
  1

  0
SOLID
  5
16C47
  8
WAKU
  6
CONTINUOUS
 10
371.30514199999988
 20
283.60529100000002
 30
0.0
 11
370.49978199999993
 21
283.53036100000003
 31
0.0
 12
370.87498699999992
 22
283.52044899999993
 32
0.0
 13
370.87498699999992
 23
283.52044899999993
 33
0.0
  0
SOLID
  5
16C48
  8
WAKU
  6
CONTINUOUS
 10
370.193309
 20
283.63466399999999
 30
0.0
 11
370.49978199999993
 21
283.53036100000003
 31
0.0
 12
371.30514199999988
 22
283.60529100000002
 32
0.0
 13
371.30514199999988
 23
283.60529100000002
 33
0.0
  0
SOLID
  5
16C49
  8
WAKU
  6
CONTINUOUS
 10
371.77444800000001
 20
283.78177299999987
 30
0.0
 11
370.193309
 21
283.63466399999999
 31
0.0
 12
371.30514199999988
 22
283.60529100000002
 32
0.0
 13
371.30514199999988
 23
283.60529100000002
 33
0.0
  0
SOLID
  5
16C4A
  8
WAKU
  6
CONTINUOUS
 10
369.96682399999992
 20
283.82952599999982
 30
0.0
 11
370.193309
 21
283.63466399999999
 31
0.0
 12
371.77444800000001
 22
283.78177299999987
 32
0.0
 13
371.77444800000001
 23
283.78177299999987
 33
0.0
  0
SOLID
  5
16C4B
  8
WAKU
  6
CONTINUOUS
 10
370.59417699999989
 20
283.90949799999999
 30
0.0
 11
369.96682399999992
 21
283.82952599999982
 31
0.0
 12
371.77444800000001
 22
283.78177299999987
 32
0.0
 13
371.77444800000001
 23
283.78177299999987
 33
0.0
  0
SOLID
  5
16C4C
  8
WAKU
  6
CONTINUOUS
 10
370.90129400000001
 20
283.91486300000003
 30
0.0
 11
370.59417699999989
 21
283.90949799999999
 31
0.0
 12
371.77444800000001
 22
283.78177299999987
 32
0.0
 13
371.77444800000001
 23
283.78177299999987
 33
0.0
  0
SOLID
  5
16C4D
  8
WAKU
  6
CONTINUOUS
 10
370.39292699999987
 20
283.968568
 30
0.0
 11
369.96682399999992
 21
283.82952599999982
 31
0.0
 12
370.59417699999989
 22
283.90949799999999
 32
0.0
 13
370.59417699999989
 23
283.90949799999999
 33
0.0
  0
SOLID
  5
16C4E
  8
WAKU
  6
CONTINUOUS
 10
371.2969839999991
 20
284.01036800000003
 30
0.0
 11
370.90129400000001
 21
283.91486300000003
 31
0.0
 12
371.77444800000001
 22
283.78177299999987
 32
0.0
 13
371.77444800000001
 23
283.78177299999987
 33
0.0
  0
SOLID
  5
16C4F
  8
WAKU
  6
CONTINUOUS
 10
372.26566600000001
 20
284.04341099999982
 30
0.0
 11
371.2969839999991
 21
284.01036800000003
 31
0.0
 12
371.77444800000001
 22
283.78177299999987
 32
0.0
 13
371.77444800000001
 23
283.78177299999987
 33
0.0
  0
SOLID
  5
16C50
  8
WAKU
  6
CONTINUOUS
 10
370.27517699999993
 20
284.06647599999991
 30
0.0
 11
369.96682399999992
 21
283.82952599999982
 31
0.0
 12
370.39292699999987
 22
283.968568
 32
0.0
 13
370.39292699999987
 23
283.968568
 33
0.0
  0
SOLID
  5
16C51
  8
WAKU
  6
CONTINUOUS
 10
369.82864599999988
 20
284.10779100000002
 30
0.0
 11
369.96682399999992
 21
283.82952599999982
 31
0.0
 12
370.27517699999993
 22
284.06647599999991
 32
0.0
 13
370.27517699999993
 23
284.06647599999991
 33
0.0
  0
SOLID
  5
16C52
  8
WAKU
  6
CONTINUOUS
 10
370.70945799999993
 20
284.14239700000002
 30
0.0
 11
369.82864599999988
 21
284.10779100000002
 31
0.0
 12
370.27517699999993
 22
284.06647599999991
 32
0.0
 13
370.27517699999993
 23
284.06647599999991
 33
0.0
  0
SOLID
  5
16C53
  8
WAKU
  6
CONTINUOUS
 10
371.75188199999991
 20
284.20279799999992
 30
0.0
 11
371.2969839999991
 21
284.01036800000003
 31
0.0
 12
372.26566600000001
 22
284.04341099999982
 32
0.0
 13
372.26566600000001
 23
284.04341099999982
 33
0.0
  0
SOLID
  5
16C54
  8
WAKU
  6
CONTINUOUS
 10
369.55038100000002
 20
284.245969
 30
0.0
 11
369.82864599999988
 21
284.10779100000002
 31
0.0
 12
370.70945799999993
 22
284.14239700000002
 32
0.0
 13
370.70945799999993
 23
284.14239700000002
 33
0.0
  0
SOLID
  5
16C55
  8
WAKU
  6
CONTINUOUS
 10
371.18642799999992
 20
284.31462499999992
 30
0.0
 11
369.55038100000002
 21
284.245969
 31
0.0
 12
370.70945799999993
 22
284.14239700000002
 32
0.0
 13
370.70945799999993
 23
284.14239700000002
 33
0.0
  0
SOLID
  5
16C56
  8
WAKU
  6
CONTINUOUS
 10
372.76075600000001
 20
284.38059500000008
 30
0.0
 11
371.75188199999991
 21
284.20279799999992
 31
0.0
 12
372.26566600000001
 22
284.04341099999982
 32
0.0
 13
372.26566600000001
 23
284.04341099999982
 33
0.0
  0
SOLID
  5
16C57
  8
WAKU
  6
CONTINUOUS
 10
370.172911
 20
284.45185600000002
 30
0.0
 11
369.55038100000002
 21
284.245969
 31
0.0
 12
371.18642799999992
 22
284.31462499999992
 32
0.0
 13
371.18642799999992
 23
284.31462499999992
 33
0.0
  0
SOLID
  5
16C58
  8
WAKU
  6
CONTINUOUS
 10
369.35551800000002
 20
284.47245400000008
 30
0.0
 11
369.55038100000002
 21
284.245969
 31
0.0
 12
370.172911
 22
284.45185600000002
 32
0.0
 13
370.172911
 23
284.45185600000002
 33
0.0
  0
SOLID
  5
16C59
  8
WAKU
  6
CONTINUOUS
 10
372.23749700000002
 20
284.48611699999992
 30
0.0
 11
371.75188199999991
 21
284.20279799999992
 31
0.0
 12
372.76075600000001
 22
284.38059500000008
 32
0.0
 13
372.76075600000001
 23
284.38059500000008
 33
0.0
  0
SOLID
  5
16C5A
  8
WAKU
  6
CONTINUOUS
 10
370.68139500000001
 20
284.53919500000001
 30
0.0
 11
370.172911
 21
284.45185600000002
 31
0.0
 12
371.18642799999992
 22
284.31462499999992
 32
0.0
 13
371.18642799999992
 23
284.31462499999992
 33
0.0
  0
SOLID
  5
16C5B
  8
WAKU
  6
CONTINUOUS
 10
369.787305
 20
284.55393500000002
 30
0.0
 11
369.35551800000002
 21
284.47245400000008
 31
0.0
 12
370.172911
 22
284.45185600000002
 32
0.0
 13
370.172911
 23
284.45185600000002
 33
0.0
  0
SOLID
  5
16C5C
  8
WAKU
  6
CONTINUOUS
 10
371.68776999999989
 20
284.57654500000001
 30
0.0
 11
370.68139500000001
 21
284.53919500000001
 31
0.0
 12
371.18642799999992
 22
284.31462499999992
 32
0.0
 13
371.18642799999992
 23
284.31462499999992
 33
0.0
  0
SOLID
  5
16C5D
  8
WAKU
  6
CONTINUOUS
 10
369.68915499999991
 20
284.67243500000001
 30
0.0
 11
369.35551800000002
 21
284.47245400000008
 31
0.0
 12
369.787305
 22
284.55393500000002
 32
0.0
 13
369.787305
 23
284.55393500000002
 33
0.0
  0
SOLID
  5
16C5E
  8
WAKU
  6
CONTINUOUS
 10
369.251215
 20
284.77892800000001
 30
0.0
 11
369.35551800000002
 21
284.47245400000008
 31
0.0
 12
369.68915499999991
 22
284.67243500000001
 32
0.0
 13
369.68915499999991
 23
284.67243500000001
 33
0.0
  0
SOLID
  5
16C5F
  8
WAKU
  6
CONTINUOUS
 10
373.24153200000001
 20
284.78094099999993
 30
0.0
 11
372.23749700000002
 21
284.48611699999992
 31
0.0
 12
372.76075600000001
 22
284.38059500000008
 32
0.0
 13
372.76075600000001
 23
284.38059500000008
 33
0.0
  0
SOLID
  5
16C60
  8
WAKU
  6
CONTINUOUS
 10
371.31226299999992
 20
284.81033199999962
 30
0.0
 11
370.68139500000001
 21
284.53919500000001
 31
0.0
 12
371.68776999999989
 22
284.57654500000001
 32
0.0
 13
371.68776999999989
 23
284.57654500000001
 33
0.0
  0
SOLID
  5
16C61
  8
WAKU
  6
CONTINUOUS
 10
369.63035799999989
 20
284.873087
 30
0.0
 11
369.251215
 21
284.77892800000001
 31
0.0
 12
369.68915499999991
 22
284.67243500000001
 32
0.0
 13
369.68915499999991
 23
284.67243500000001
 33
0.0
  0
SOLID
  5
16C62
  8
WAKU
  6
CONTINUOUS
 10
372.194232
 20
284.91809899999993
 30
0.0
 11
371.31226299999992
 21
284.81033199999962
 31
0.0
 12
371.68776999999989
 22
284.57654500000001
 32
0.0
 13
371.68776999999989
 23
284.57654500000001
 33
0.0
  0
SOLID
  5
16C63
  8
WAKU
  6
CONTINUOUS
 10
370.26016800000002
 20
284.959969
 30
0.0
 11
369.787305
 21
284.55393500000002
 31
0.0
 12
370.172911
 22
284.45185600000002
 32
0.0
 13
370.172911
 23
284.45185600000002
 33
0.0
  0
SOLID
  5
16C64
  8
WAKU
  6
CONTINUOUS
 10
369.86313899999999
 20
284.98818899999992
 30
0.0
 11
369.787305
 21
284.55393500000002
 31
0.0
 12
370.26016800000002
 22
284.959969
 32
0.0
 13
370.26016800000002
 23
284.959969
 33
0.0
  0
SOLID
  5
16C65
  8
WAKU
  6
CONTINUOUS
 10
398.19400599999989
 20
285.115385
 30
0.0
 11
397.60605499999991
 21
283.49999999999989
 31
0.0
 12
401.913747
 22
283.49999999999989
 32
0.0
 13
401.913747
 23
283.49999999999989
 33
0.0
  0
SOLID
  5
16C66
  8
WAKU
  6
CONTINUOUS
 10
401.913747
 20
283.49999999999989
 30
0.0
 11
401.42477599999989
 21
285.115385
 31
0.0
 12
398.19400599999989
 22
285.115385
 32
0.0
 13
398.19400599999989
 23
285.115385
 33
0.0
  0
SOLID
  5
16C67
  8
WAKU
  6
CONTINUOUS
 10
369.24130299999962
 20
285.15413199999989
 30
0.0
 11
369.251215
 21
284.77892800000001
 31
0.0
 12
369.63035799999989
 22
284.873087
 32
0.0
 13
369.63035799999989
 23
284.873087
 33
0.0
  0
SOLID
  5
16C68
  8
WAKU
  6
CONTINUOUS
 10
369.635696
 20
285.18040400000001
 30
0.0
 11
369.24130299999962
 21
285.15413199999989
 31
0.0
 12
369.63035799999989
 22
284.873087
 32
0.0
 13
369.63035799999989
 23
284.873087
 33
0.0
  0
SOLID
  5
16C69
  8
WAKU
  6
CONTINUOUS
 10
373.69033499999989
 20
285.22974399999998
 30
0.0
 11
372.23749700000002
 21
284.48611699999992
 31
0.0
 12
373.24153200000001
 22
284.78094099999993
 32
0.0
 13
373.24153200000001
 23
284.78094099999993
 33
0.0
  0
SOLID
  5
16C6A
  8
WAKU
  6
CONTINUOUS
 10
371.98993999999999
 20
285.25143100000003
 30
0.0
 11
371.31226299999992
 21
284.81033199999962
 31
0.0
 12
372.194232
 22
284.91809899999993
 32
0.0
 13
372.194232
 23
284.91809899999993
 33
0.0
  0
SOLID
  5
16C6B
  8
WAKU
  6
CONTINUOUS
 10
373.195965
 20
285.2752319999999
 30
0.0
 11
372.23749700000002
 21
284.48611699999992
 31
0.0
 12
373.69033499999989
 22
285.22974399999998
 32
0.0
 13
373.69033499999989
 23
285.22974399999998
 33
0.0
  0
SOLID
  5
16C6C
  8
WAKU
  6
CONTINUOUS
 10
372.68636299999991
 20
285.32617099999982
 30
0.0
 11
371.98993999999999
 21
285.25143100000003
 31
0.0
 12
372.194232
 22
284.91809899999993
 32
0.0
 13
372.194232
 23
284.91809899999993
 33
0.0
  0
SOLID
  5
16C6D
  8
WAKU
  6
CONTINUOUS
 10
370.03529300000002
 20
285.46515399999993
 30
0.0
 11
369.86313899999999
 21
284.98818899999992
 31
0.0
 12
370.26016800000002
 22
284.959969
 32
0.0
 13
370.26016800000002
 23
284.959969
 33
0.0
  0
SOLID
  5
16C6E
  8
WAKU
  6
CONTINUOUS
 10
369.73149000000001
 20
285.57602099999991
 30
0.0
 11
369.24130299999962
 21
285.15413199999989
 31
0.0
 12
369.635696
 22
285.18040400000001
 32
0.0
 13
369.635696
 23
285.18040400000001
 33
0.0
  0
SOLID
  5
16C6F
  8
WAKU
  6
CONTINUOUS
 10
369.32614599999988
 20
285.58428700000002
 30
0.0
 11
369.24130299999962
 21
285.15413199999989
 31
0.0
 12
369.73149000000001
 22
285.57602099999991
 32
0.0
 13
369.73149000000001
 23
285.57602099999991
 33
0.0
  0
SOLID
  5
16C70
  8
WAKU
  6
CONTINUOUS
 10
370.53071199999999
 20
285.59087499999993
 30
0.0
 11
370.03529300000002
 21
285.46515399999993
 31
0.0
 12
370.26016800000002
 22
284.959969
 32
0.0
 13
370.26016800000002
 23
284.959969
 33
0.0
  0
SOLID
  5
16C71
  8
WAKU
  6
CONTINUOUS
 10
388.45220799999993
 20
283.49999999999989
 30
0.0
 11
389.23614399999991
 21
285.65384599999987
 31
0.0
 12
383.85152900000003
 22
285.65384599999987
 32
0.0
 13
383.85152900000003
 23
285.65384599999987
 33
0.0
  0
SOLID
  5
16C72
  8
WAKU
  6
CONTINUOUS
 10
383.85152900000003
 20
285.65384599999987
 30
0.0
 11
383.06759299999987
 21
283.49999999999989
 31
0.0
 12
388.45220799999993
 22
283.49999999999989
 32
0.0
 13
388.45220799999993
 23
283.49999999999989
 33
0.0
  0
SOLID
  5
16C73
  8
WAKU
  6
CONTINUOUS
 10
391.17460599999998
 20
285.65384599999987
 30
0.0
 11
390.39067
 21
283.49999999999989
 31
0.0
 12
395.45220799999993
 22
283.49999999999989
 32
0.0
 13
395.45220799999993
 23
283.49999999999989
 33
0.0
  0
SOLID
  5
16C74
  8
WAKU
  6
CONTINUOUS
 10
395.45220799999993
 20
283.49999999999989
 30
0.0
 11
395.159221
 21
285.65384599999987
 31
0.0
 12
391.17460599999998
 22
285.65384599999987
 32
0.0
 13
391.17460599999998
 23
285.65384599999987
 33
0.0
  0
SOLID
  5
16C75
  8
WAKU
  6
CONTINUOUS
 10
404.85152900000003
 20
285.65384599999987
 30
0.0
 11
404.06759299999987
 21
283.49999999999989
 31
0.0
 12
409.45220799999993
 22
283.49999999999989
 32
0.0
 13
409.45220799999993
 23
283.49999999999989
 33
0.0
  0
SOLID
  5
16C76
  8
WAKU
  6
CONTINUOUS
 10
409.45220799999993
 20
283.49999999999989
 30
0.0
 11
409.15922099999989
 21
285.65384599999987
 31
0.0
 12
404.85152900000003
 22
285.65384599999987
 32
0.0
 13
404.85152900000003
 23
285.65384599999987
 33
0.0
  0
SOLID
  5
16C77
  8
WAKU
  6
CONTINUOUS
 10
374.09068100000002
 20
285.71051999999992
 30
0.0
 11
373.195965
 21
285.2752319999999
 31
0.0
 12
373.69033499999989
 22
285.22974399999998
 32
0.0
 13
373.69033499999989
 23
285.22974399999998
 33
0.0
  0
SOLID
  5
16C78
  8
WAKU
  6
CONTINUOUS
 10
373.14526599999988
 20
285.78508900000003
 30
0.0
 11
371.98993999999999
 21
285.25143100000003
 31
0.0
 12
372.68636299999991
 22
285.32617099999982
 32
0.0
 13
372.68636299999991
 23
285.32617099999982
 33
0.0
  0
SOLID
  5
16C79
  8
WAKU
  6
CONTINUOUS
 10
372.64629600000001
 20
285.82550600000002
 30
0.0
 11
371.98993999999999
 21
285.25143100000003
 31
0.0
 12
373.14526599999988
 22
285.78508900000003
 32
0.0
 13
373.14526599999988
 23
285.78508900000003
 33
0.0
  0
SOLID
  5
16C7A
  8
WAKU
  6
CONTINUOUS
 10
370.29715599999992
 20
285.96650899999992
 30
0.0
 11
370.03529300000002
 21
285.46515399999993
 31
0.0
 12
370.53071199999999
 22
285.59087499999993
 32
0.0
 13
370.53071199999999
 23
285.59087499999993
 33
0.0
  0
SOLID
  5
16C7B
  8
WAKU
  6
CONTINUOUS
 10
369.923519
 20
286.03102799999982
 30
0.0
 11
369.32614599999988
 21
285.58428700000002
 31
0.0
 12
369.73149000000001
 22
285.57602099999991
 32
0.0
 13
369.73149000000001
 23
285.57602099999991
 33
0.0
  0
SOLID
  5
16C7C
  8
WAKU
  6
CONTINUOUS
 10
369.50262700000002
 20
286.05359299999992
 30
0.0
 11
369.32614599999988
 21
285.58428700000002
 31
0.0
 12
369.923519
 22
286.03102799999982
 32
0.0
 13
369.923519
 23
286.03102799999982
 33
0.0
  0
SOLID
  5
16C7D
  8
WAKU
  6
CONTINUOUS
 10
379.39714500000002
 20
286.13846199999989
 30
0.0
 11
378.436824
 21
283.49999999999989
 31
0.0
 12
379.51374700000002
 22
283.49999999999989
 32
0.0
 13
379.51374700000002
 23
283.49999999999989
 33
0.0
  0
SOLID
  5
16C7E
  8
WAKU
  6
CONTINUOUS
 10
380.49366700000002
 20
286.19230800000003
 30
0.0
 11
379.39714500000002
 21
286.13846199999989
 31
0.0
 12
379.51374700000002
 22
283.49999999999989
 32
0.0
 13
379.51374700000002
 23
283.49999999999989
 33
0.0
  0
SOLID
  5
16C7F
  8
WAKU
  6
CONTINUOUS
 10
382.75520499999988
 20
286.19230800000003
 30
0.0
 11
380.49366700000002
 21
286.19230800000003
 31
0.0
 12
381.775285
 22
283.49999999999989
 32
0.0
 13
381.775285
 23
283.49999999999989
 33
0.0
  0
SOLID
  5
16C80
  8
WAKU
  6
CONTINUOUS
 10
377.15520499999991
 20
286.19230800000003
 30
0.0
 11
380.49366700000002
 21
286.19230800000003
 31
0.0
 12
382.75520499999988
 22
286.19230800000003
 32
0.0
 13
382.75520499999988
 23
286.19230800000003
 33
0.0
  0
SOLID
  5
16C81
  8
WAKU
  6
CONTINUOUS
 10
377.15520499999991
 20
286.19230800000003
 30
0.0
 11
379.39714500000002
 21
286.13846199999989
 31
0.0
 12
380.49366700000002
 22
286.19230800000003
 32
0.0
 13
380.49366700000002
 23
286.19230800000003
 33
0.0
  0
SOLID
  5
16C82
  8
WAKU
  6
CONTINUOUS
 10
377.15520499999991
 20
286.19230800000003
 30
0.0
 11
376.17528499999992
 21
283.49999999999989
 31
0.0
 12
379.39714500000002
 22
286.13846199999989
 32
0.0
 13
379.39714500000002
 23
286.13846199999989
 33
0.0
  0
SOLID
  5
16C83
  8
WAKU
  6
CONTINUOUS
 10
374.427865
 20
286.20560899999992
 30
0.0
 11
373.195965
 21
285.2752319999999
 31
0.0
 12
374.09068100000002
 22
285.71051999999992
 32
0.0
 13
374.09068100000002
 23
285.71051999999992
 33
0.0
  0
SOLID
  5
16C84
  8
WAKU
  6
CONTINUOUS
 10
373.98505
 20
286.23371800000001
 30
0.0
 11
373.195965
 21
285.2752319999999
 31
0.0
 12
374.427865
 22
286.20560899999992
 32
0.0
 13
374.427865
 23
286.20560899999992
 33
0.0
  0
SOLID
  5
16C85
  8
WAKU
  6
CONTINUOUS
 10
370.97189600000002
 20
286.26847099999992
 30
0.0
 11
370.29715599999992
 21
285.96650899999992
 31
0.0
 12
370.53071199999999
 22
285.59087499999993
 32
0.0
 13
370.53071199999999
 23
285.59087499999993
 33
0.0
  0
SOLID
  5
16C86
  8
WAKU
  6
CONTINUOUS
 10
373.553316
 20
286.27722899999992
 30
0.0
 11
372.64629600000001
 21
285.82550600000002
 31
0.0
 12
373.14526599999988
 22
285.78508900000003
 32
0.0
 13
373.14526599999988
 23
285.78508900000003
 33
0.0
  0
SOLID
  5
16C87
  8
WAKU
  6
CONTINUOUS
 10
370.63867099999987
 20
286.47300000000001
 30
0.0
 11
370.29715599999992
 21
285.96650899999992
 31
0.0
 12
370.97189600000002
 22
286.26847099999992
 32
0.0
 13
370.97189600000002
 23
286.26847099999992
 33
0.0
  0
SOLID
  5
16C88
  8
WAKU
  6
CONTINUOUS
 10
373.22023799999988
 20
286.48191999999989
 30
0.0
 11
372.64629600000001
 21
285.82550600000002
 31
0.0
 12
373.553316
 22
286.27722899999992
 32
0.0
 13
373.553316
 23
286.27722899999992
 33
0.0
  0
SOLID
  5
16C89
  8
WAKU
  6
CONTINUOUS
 10
370.20703500000002
 20
286.51657
 30
0.0
 11
369.50262700000002
 21
286.05359299999992
 31
0.0
 12
369.923519
 22
286.03102799999982
 32
0.0
 13
369.923519
 23
286.03102799999982
 33
0.0
  0
SOLID
  5
16C8A
  8
WAKU
  6
CONTINUOUS
 10
369.76426499999991
 20
286.54481199999992
 30
0.0
 11
369.50262700000002
 21
286.05359299999992
 31
0.0
 12
370.20703500000002
 22
286.51657
 32
0.0
 13
370.20703500000002
 23
286.51657
 33
0.0
  0
SOLID
  5
16C8B
  8
WAKU
  6
CONTINUOUS
 10
374.689503
 20
286.69682799999998
 30
0.0
 11
373.98505
 21
286.23371800000001
 31
0.0
 12
374.427865
 22
286.20560899999992
 32
0.0
 13
374.427865
 23
286.20560899999992
 33
0.0
  0
SOLID
  5
16C8C
  8
WAKU
  6
CONTINUOUS
 10
374.268507
 20
286.71927799999992
 30
0.0
 11
373.98505
 21
286.23371800000001
 31
0.0
 12
374.689503
 22
286.69682799999998
 32
0.0
 13
374.689503
 23
286.69682799999998
 33
0.0
  0
SOLID
  5
16C8D
  8
WAKU
  6
CONTINUOUS
 10
373.89484299999992
 20
286.78369300000008
 30
0.0
 11
373.22023799999988
 21
286.48191999999989
 31
0.0
 12
373.553316
 22
286.27722899999992
 32
0.0
 13
373.553316
 23
286.27722899999992
 33
0.0
  0
SOLID
  5
16C8E
  8
WAKU
  6
CONTINUOUS
 10
371.54582699999992
 20
286.92489299999988
 30
0.0
 11
370.63867099999987
 21
286.47300000000001
 31
0.0
 12
370.97189600000002
 22
286.26847099999992
 32
0.0
 13
370.97189600000002
 23
286.26847099999992
 33
0.0
  0
SOLID
  5
16C8F
  8
WAKU
  6
CONTINUOUS
 10
371.04671999999999
 20
286.96517399999999
 30
0.0
 11
370.63867099999987
 21
286.47300000000001
 31
0.0
 12
371.54582699999992
 22
286.92489299999988
 32
0.0
 13
371.54582699999992
 23
286.92489299999988
 33
0.0
  0
SOLID
  5
16C90
  8
WAKU
  6
CONTINUOUS
 10
370.10144899999989
 20
287.03990099999982
 30
0.0
 11
369.76426499999991
 21
286.54481199999992
 31
0.0
 12
370.20703500000002
 22
286.51657
 32
0.0
 13
370.20703500000002
 23
286.51657
 33
0.0
  0
SOLID
  5
16C91
  8
WAKU
  6
CONTINUOUS
 10
373.66135299999991
 20
287.15953400000001
 30
0.0
 11
373.22023799999988
 21
286.48191999999989
 31
0.0
 12
373.89484299999992
 22
286.78369300000008
 32
0.0
 13
373.89484299999992
 23
286.78369300000008
 33
0.0
  0
SOLID
  5
16C92
  8
WAKU
  6
CONTINUOUS
 10
374.86598399999991
 20
287.166134
 30
0.0
 11
374.268507
 21
286.71927799999992
 31
0.0
 12
374.689503
 22
286.69682799999998
 32
0.0
 13
374.689503
 23
286.69682799999998
 33
0.0
  0
SOLID
  5
16C93
  8
WAKU
  6
CONTINUOUS
 10
374.46071000000001
 20
287.17424799999992
 30
0.0
 11
374.268507
 21
286.71927799999992
 31
0.0
 12
374.86598399999991
 22
287.166134
 32
0.0
 13
374.86598399999991
 23
287.166134
 33
0.0
  0
SOLID
  5
16C94
  8
WAKU
  6
CONTINUOUS
 10
374.15673199999992
 20
287.28502999999989
 30
0.0
 11
373.66135299999991
 21
287.15953400000001
 31
0.0
 12
373.89484299999992
 22
286.78369300000008
 32
0.0
 13
373.89484299999992
 23
286.78369300000008
 33
0.0
  0
SOLID
  5
16C95
  8
WAKU
  6
CONTINUOUS
 10
371.50563199999988
 20
287.424128
 30
0.0
 11
371.04671999999999
 21
286.96517399999999
 31
0.0
 12
371.54582699999992
 22
286.92489299999988
 32
0.0
 13
371.54582699999992
 23
286.92489299999988
 33
0.0
  0
SOLID
  5
16C96
  8
WAKU
  6
CONTINUOUS
 10
370.99609800000002
 20
287.47510799999992
 30
0.0
 11
370.10144899999989
 21
287.03990099999982
 31
0.0
 12
370.20703500000002
 22
286.51657
 32
0.0
 13
370.20703500000002
 23
286.51657
 33
0.0
  0
SOLID
  5
16C97
  8
WAKU
  6
CONTINUOUS
 10
372.202181
 20
287.49899099999999
 30
0.0
 11
371.50563199999988
 21
287.424128
 31
0.0
 12
371.54582699999992
 22
286.92489299999988
 32
0.0
 13
371.54582699999992
 23
286.92489299999988
 33
0.0
  0
SOLID
  5
16C98
  8
WAKU
  6
CONTINUOUS
 10
370.50179500000002
 20
287.52067699999992
 30
0.0
 11
370.10144899999989
 21
287.03990099999982
 31
0.0
 12
370.99609800000002
 22
287.47510799999992
 32
0.0
 13
370.99609800000002
 23
287.47510799999992
 33
0.0
  0
SOLID
  5
16C99
  8
WAKU
  6
CONTINUOUS
 10
374.55636099999998
 20
287.56986399999988
 30
0.0
 11
374.46071000000001
 21
287.17424799999992
 31
0.0
 12
374.86598399999991
 22
287.166134
 32
0.0
 13
374.86598399999991
 23
287.166134
 33
0.0
  0
SOLID
  5
16C9A
  8
WAKU
  6
CONTINUOUS
 10
393.17245600000001
 20
287.592308
 30
0.0
 11
391.70356499999991
 21
286.51538499999998
 31
0.0
 12
392.78048799999999
 22
286.51538499999998
 32
0.0
 13
392.78048799999999
 23
286.51538499999998
 33
0.0
  0
SOLID
  5
16C9B
  8
WAKU
  6
CONTINUOUS
 10
395.86476299999993
 20
287.592308
 30
0.0
 11
395.159221
 21
285.65384599999987
 31
0.0
 12
395.45220799999993
 22
283.49999999999989
 32
0.0
 13
395.45220799999993
 23
283.49999999999989
 33
0.0
  0
SOLID
  5
16C9C
  8
WAKU
  6
CONTINUOUS
 10
396.941687
 20
287.592308
 30
0.0
 11
393.17245600000001
 21
287.592308
 31
0.0
 12
395.86476299999993
 22
287.592308
 32
0.0
 13
395.86476299999993
 23
287.592308
 33
0.0
  0
SOLID
  5
16C9D
  8
WAKU
  6
CONTINUOUS
 10
396.941687
 20
287.592308
 30
0.0
 11
395.86476299999993
 21
287.592308
 31
0.0
 12
395.45220799999993
 22
283.49999999999989
 32
0.0
 13
395.45220799999993
 23
283.49999999999989
 33
0.0
  0
SOLID
  5
16C9E
  8
WAKU
  6
CONTINUOUS
 10
392.09553299999988
 20
287.592308
 30
0.0
 11
396.941687
 21
287.592308
 31
0.0
 12
397.74937899999998
 22
287.592308
 32
0.0
 13
397.74937899999998
 23
287.592308
 33
0.0
  0
SOLID
  5
16C9F
  8
WAKU
  6
CONTINUOUS
 10
392.09553299999988
 20
287.592308
 30
0.0
 11
393.17245600000001
 21
287.592308
 31
0.0
 12
396.941687
 22
287.592308
 32
0.0
 13
396.941687
 23
287.592308
 33
0.0
  0
SOLID
  5
16CA0
  8
WAKU
  6
CONTINUOUS
 10
392.09553299999988
 20
287.592308
 30
0.0
 11
391.70356499999991
 21
286.51538499999998
 31
0.0
 12
393.17245600000001
 22
287.592308
 32
0.0
 13
393.17245600000001
 23
287.592308
 33
0.0
  0
SOLID
  5
16CA1
  8
WAKU
  6
CONTINUOUS
 10
374.950827
 20
287.59628900000001
 30
0.0
 11
374.55636099999998
 21
287.56986399999988
 31
0.0
 12
374.86598399999991
 22
287.166134
 32
0.0
 13
374.86598399999991
 23
287.166134
 33
0.0
  0
SOLID
  5
16CA2
  8
WAKU
  6
CONTINUOUS
 10
374.32892500000003
 20
287.76198699999992
 30
0.0
 11
373.66135299999991
 21
287.15953400000001
 31
0.0
 12
374.15673199999992
 22
287.28502999999989
 32
0.0
 13
374.15673199999992
 23
287.28502999999989
 33
0.0
  0
SOLID
  5
16CA3
  8
WAKU
  6
CONTINUOUS
 10
373.93207100000001
 20
287.79040199999992
 30
0.0
 11
373.66135299999991
 21
287.15953400000001
 31
0.0
 12
374.32892500000003
 22
287.76198699999992
 32
0.0
 13
374.32892500000003
 23
287.76198699999992
 33
0.0
  0
SOLID
  5
16CA4
  8
WAKU
  6
CONTINUOUS
 10
371.99778300000003
 20
287.83223500000003
 30
0.0
 11
371.50563199999988
 21
287.424128
 31
0.0
 12
372.202181
 22
287.49899099999999
 32
0.0
 13
372.202181
 23
287.49899099999999
 33
0.0
  0
SOLID
  5
16CA5
  8
WAKU
  6
CONTINUOUS
 10
374.561802
 20
287.87725299999983
 30
0.0
 11
374.55636099999998
 21
287.56986399999988
 31
0.0
 12
374.950827
 22
287.59628900000001
 32
0.0
 13
374.950827
 23
287.59628900000001
 33
0.0
  0
SOLID
  5
16CA6
  8
WAKU
  6
CONTINUOUS
 10
372.87987799999991
 20
287.94005699999991
 30
0.0
 11
371.99778300000003
 21
287.83223500000003
 31
0.0
 12
372.202181
 22
287.49899099999999
 32
0.0
 13
372.202181
 23
287.49899099999999
 33
0.0
  0
SOLID
  5
16CA7
  8
WAKU
  6
CONTINUOUS
 10
370.95059900000001
 20
287.96947999999992
 30
0.0
 11
370.50179500000002
 21
287.52067699999992
 31
0.0
 12
370.99609800000002
 22
287.47510799999992
 32
0.0
 13
370.99609800000002
 23
287.47510799999992
 33
0.0
  0
SOLID
  5
16CA8
  8
WAKU
  6
CONTINUOUS
 10
374.94091500000002
 20
287.97149300000001
 30
0.0
 11
374.561802
 21
287.87725299999983
 31
0.0
 12
374.950827
 22
287.59628900000001
 32
0.0
 13
374.950827
 23
287.59628900000001
 33
0.0
  0
SOLID
  5
16CA9
  8
WAKU
  6
CONTINUOUS
 10
374.502951
 20
288.07791800000001
 30
0.0
 11
374.561802
 21
287.87725299999983
 31
0.0
 12
374.94091500000002
 22
287.97149300000001
 32
0.0
 13
374.94091500000002
 23
287.97149300000001
 33
0.0
  0
SOLID
  5
16CAA
  8
WAKU
  6
CONTINUOUS
 10
408.51346299999989
 20
286.83846199999999
 30
0.0
 11
408.98382400000003
 21
288.13076899999982
 31
0.0
 12
405.75305500000002
 22
288.13076899999982
 32
0.0
 13
405.75305500000002
 23
288.13076899999982
 33
0.0
  0
SOLID
  5
16CAB
  8
WAKU
  6
CONTINUOUS
 10
405.75305500000002
 20
288.13076899999982
 30
0.0
 11
405.28269399999999
 21
286.83846199999999
 31
0.0
 12
408.51346299999989
 22
286.83846199999999
 32
0.0
 13
408.51346299999989
 23
286.83846199999999
 33
0.0
  0
SOLID
  5
16CAC
  8
WAKU
  6
CONTINUOUS
 10
372.50426900000002
 20
288.17382099999992
 30
0.0
 11
371.99778300000003
 21
287.83223500000003
 31
0.0
 12
372.87987799999991
 22
287.94005699999991
 32
0.0
 13
372.87987799999991
 23
287.94005699999991
 33
0.0
  0
SOLID
  5
16CAD
  8
WAKU
  6
CONTINUOUS
 10
374.40481
 20
288.19624900000002
 30
0.0
 11
373.93207100000001
 21
287.79040199999992
 31
0.0
 12
374.32892500000003
 22
287.76198699999992
 32
0.0
 13
374.32892500000003
 23
287.76198699999992
 33
0.0
  0
SOLID
  5
16CAE
  8
WAKU
  6
CONTINUOUS
 10
374.40481
 20
288.19624900000002
 30
0.0
 11
374.502951
 21
288.07791800000001
 31
0.0
 12
374.94091500000002
 22
287.97149300000001
 32
0.0
 13
374.94091500000002
 23
287.97149300000001
 33
0.0
  0
SOLID
  5
16CAF
  8
WAKU
  6
CONTINUOUS
 10
373.510738
 20
288.21123999999998
 30
0.0
 11
372.50426900000002
 21
288.17382099999992
 31
0.0
 12
372.87987799999991
 22
287.94005699999991
 32
0.0
 13
372.87987799999991
 23
287.94005699999991
 33
0.0
  0
SOLID
  5
16CB0
  8
WAKU
  6
CONTINUOUS
 10
371.954587
 20
288.26428399999992
 30
0.0
 11
370.95059900000001
 21
287.96947999999992
 31
0.0
 12
370.99609800000002
 22
287.47510799999992
 32
0.0
 13
370.99609800000002
 23
287.47510799999992
 33
0.0
  0
SOLID
  5
16CB1
  8
WAKU
  6
CONTINUOUS
 10
374.836612
 20
288.27796699999999
 30
0.0
 11
374.40481
 21
288.19624900000002
 31
0.0
 12
374.94091500000002
 22
287.97149300000001
 32
0.0
 13
374.94091500000002
 23
287.97149300000001
 33
0.0
  0
SOLID
  5
16CB2
  8
WAKU
  6
CONTINUOUS
 10
374.01922899999988
 20
288.29856899999982
 30
0.0
 11
372.50426900000002
 21
288.17382099999992
 31
0.0
 12
373.510738
 22
288.21123999999998
 32
0.0
 13
373.510738
 23
288.21123999999998
 33
0.0
  0
SOLID
  5
16CB3
  8
WAKU
  6
CONTINUOUS
 10
374.01922899999988
 20
288.29856899999982
 30
0.0
 11
374.40481
 21
288.19624900000002
 31
0.0
 12
374.836612
 22
288.27796699999999
 32
0.0
 13
374.836612
 23
288.27796699999999
 33
0.0
  0
SOLID
  5
16CB4
  8
WAKU
  6
CONTINUOUS
 10
374.01922899999988
 20
288.29856899999982
 30
0.0
 11
373.93207100000001
 21
287.79040199999992
 31
0.0
 12
374.40481
 22
288.19624900000002
 32
0.0
 13
374.40481
 23
288.19624900000002
 33
0.0
  0
SOLID
  5
16CB5
  8
WAKU
  6
CONTINUOUS
 10
371.43137400000001
 20
288.36982599999999
 30
0.0
 11
370.95059900000001
 21
287.96947999999992
 31
0.0
 12
371.954587
 22
288.26428399999992
 32
0.0
 13
371.954587
 23
288.26428399999992
 33
0.0
  0
SOLID
  5
16CB6
  8
WAKU
  6
CONTINUOUS
 10
373.00563899999992
 20
288.43576799999988
 30
0.0
 11
372.50426900000002
 21
288.17382099999992
 31
0.0
 12
374.01922899999988
 22
288.29856899999982
 32
0.0
 13
374.01922899999988
 23
288.29856899999982
 33
0.0
  0
SOLID
  5
16CB7
  8
WAKU
  6
CONTINUOUS
 10
374.641749
 20
288.50445200000001
 30
0.0
 11
373.00563899999992
 21
288.43576799999988
 31
0.0
 12
374.01922899999988
 22
288.29856899999982
 32
0.0
 13
374.01922899999988
 23
288.29856899999982
 33
0.0
  0
SOLID
  5
16CB8
  8
WAKU
  6
CONTINUOUS
 10
374.641749
 20
288.50445200000001
 30
0.0
 11
374.01922899999988
 21
288.29856899999982
 31
0.0
 12
374.836612
 22
288.27796699999999
 32
0.0
 13
374.836612
 23
288.27796699999999
 33
0.0
  0
SOLID
  5
16CB9
  8
WAKU
  6
CONTINUOUS
 10
372.44023499999992
 20
288.54758500000003
 30
0.0
 11
371.43137400000001
 21
288.36982599999999
 31
0.0
 12
371.954587
 22
288.26428399999992
 32
0.0
 13
371.954587
 23
288.26428399999992
 33
0.0
  0
SOLID
  5
16CBA
  8
WAKU
  6
CONTINUOUS
 10
373.48263600000001
 20
288.60801400000003
 30
0.0
 11
373.00563899999992
 21
288.43576799999988
 31
0.0
 12
374.641749
 22
288.50445200000001
 32
0.0
 13
374.641749
 23
288.50445200000001
 33
0.0
  0
SOLID
  5
16CBB
  8
WAKU
  6
CONTINUOUS
 10
374.36348399999991
 20
288.64263
 30
0.0
 11
373.48263600000001
 21
288.60801400000003
 31
0.0
 12
374.641749
 22
288.50445200000001
 32
0.0
 13
374.641749
 23
288.50445200000001
 33
0.0
  0
SOLID
  5
16CBC
  8
WAKU
  6
CONTINUOUS
 10
373.91694100000001
 20
288.683944
 30
0.0
 11
373.48263600000001
 21
288.60801400000003
 31
0.0
 12
374.36348399999991
 22
288.64263
 32
0.0
 13
374.36348399999991
 23
288.64263
 33
0.0
  0
SOLID
  5
16CBD
  8
WAKU
  6
CONTINUOUS
 10
371.92646400000001
 20
288.70701000000003
 30
0.0
 11
371.43137400000001
 21
288.36982599999999
 31
0.0
 12
372.44023499999992
 22
288.54758500000003
 32
0.0
 13
372.44023499999992
 23
288.54758500000003
 33
0.0
  0
SOLID
  5
16CBE
  8
WAKU
  6
CONTINUOUS
 10
372.89513999999991
 20
288.74006500000002
 30
0.0
 11
371.92646400000001
 21
288.70701000000003
 31
0.0
 12
372.44023499999992
 22
288.54758500000003
 32
0.0
 13
372.44023499999992
 23
288.54758500000003
 33
0.0
  0
SOLID
  5
16CBF
  8
WAKU
  6
CONTINUOUS
 10
381.52485099999961
 20
288.7769229999999
 30
0.0
 11
377.15520499999991
 21
286.19230800000003
 31
0.0
 12
382.75520499999988
 22
286.19230800000003
 32
0.0
 13
382.75520499999988
 23
286.19230800000003
 33
0.0
  0
SOLID
  5
16CC0
  8
WAKU
  6
CONTINUOUS
 10
380.31131299999993
 20
288.7769229999999
 30
0.0
 11
381.52485099999961
 21
288.7769229999999
 31
0.0
 12
383.69592799999992
 22
288.7769229999999
 32
0.0
 13
383.69592799999992
 23
288.7769229999999
 33
0.0
  0
SOLID
  5
16CC1
  8
WAKU
  6
CONTINUOUS
 10
380.31131299999993
 20
288.7769229999999
 30
0.0
 11
377.15520499999991
 21
286.19230800000003
 31
0.0
 12
381.52485099999961
 22
288.7769229999999
 32
0.0
 13
381.52485099999961
 23
288.7769229999999
 33
0.0
  0
SOLID
  5
16CC2
  8
WAKU
  6
CONTINUOUS
 10
373.799148
 20
288.78192899999988
 30
0.0
 11
373.91694100000001
 21
288.683944
 31
0.0
 12
374.36348399999991
 22
288.64263
 32
0.0
 13
374.36348399999991
 23
288.64263
 33
0.0
  0
SOLID
  5
16CC3
  8
WAKU
  6
CONTINUOUS
 10
373.29085699999962
 20
288.83558099999982
 30
0.0
 11
371.92646400000001
 21
288.70701000000003
 31
0.0
 12
372.89513999999991
 22
288.74006500000002
 32
0.0
 13
372.89513999999991
 23
288.74006500000002
 33
0.0
  0
SOLID
  5
16CC4
  8
WAKU
  6
CONTINUOUS
 10
373.59799600000002
 20
288.84090200000003
 30
0.0
 11
373.799148
 21
288.78192899999988
 31
0.0
 12
374.36348399999991
 22
288.64263
 32
0.0
 13
374.36348399999991
 23
288.64263
 33
0.0
  0
SOLID
  5
16CC5
  8
WAKU
  6
CONTINUOUS
 10
401.25888099999992
 20
286.73076900000001
 30
0.0
 11
402.04281700000001
 21
288.884615
 31
0.0
 12
400.96589399999988
 22
288.884615
 32
0.0
 13
400.96589399999988
 23
288.884615
 33
0.0
  0
SOLID
  5
16CC6
  8
WAKU
  6
CONTINUOUS
 10
400.96589399999988
 20
288.884615
 30
0.0
 11
400.18195800000001
 21
286.73076900000001
 31
0.0
 12
401.25888099999992
 22
286.73076900000001
 32
0.0
 13
401.25888099999992
 23
286.73076900000001
 33
0.0
  0
SOLID
  5
16CC7
  8
WAKU
  6
CONTINUOUS
 10
401.42477599999989
 20
285.115385
 30
0.0
 11
403.87358699999999
 21
288.884615
 31
0.0
 12
402.7966629999998
 22
288.884615
 32
0.0
 13
402.7966629999998
 23
288.884615
 33
0.0
  0
SOLID
  5
16CC8
  8
WAKU
  6
CONTINUOUS
 10
403.87358699999999
 20
288.884615
 30
0.0
 11
401.42477599999989
 21
285.115385
 31
0.0
 12
401.913747
 22
283.49999999999989
 32
0.0
 13
401.913747
 23
283.49999999999989
 33
0.0
  0
SOLID
  5
16CC9
  8
WAKU
  6
CONTINUOUS
 10
399.858881
 20
286.73076900000001
 30
0.0
 11
400.64281699999992
 21
288.884615
 31
0.0
 12
399.56589400000001
 22
288.884615
 32
0.0
 13
399.56589400000001
 23
288.884615
 33
0.0
  0
SOLID
  5
16CCA
  8
WAKU
  6
CONTINUOUS
 10
399.56589400000001
 20
288.884615
 30
0.0
 11
398.78195799999997
 21
286.73076900000001
 31
0.0
 12
399.858881
 22
286.73076900000001
 32
0.0
 13
399.858881
 23
286.73076900000001
 33
0.0
  0
SOLID
  5
16CCB
  8
WAKU
  6
CONTINUOUS
 10
374.22530599999988
 20
288.92089499999997
 30
0.0
 11
373.59799600000002
 21
288.84090200000003
 31
0.0
 12
374.36348399999991
 22
288.64263
 32
0.0
 13
374.36348399999991
 23
288.64263
 33
0.0
  0
SOLID
  5
16CCC
  8
WAKU
  6
CONTINUOUS
 10
372.41768300000001
 20
288.96864799999992
 30
0.0
 11
373.59799600000002
 21
288.84090200000003
 31
0.0
 12
374.22530599999988
 22
288.92089499999997
 32
0.0
 13
374.22530599999988
 23
288.92089499999997
 33
0.0
  0
SOLID
  5
16CCD
  8
WAKU
  6
CONTINUOUS
 10
372.41768300000001
 20
288.96864799999992
 30
0.0
 11
373.29085699999962
 21
288.83558099999982
 31
0.0
 12
373.59799600000002
 22
288.84090200000003
 32
0.0
 13
373.59799600000002
 23
288.84090200000003
 33
0.0
  0
SOLID
  5
16CCE
  8
WAKU
  6
CONTINUOUS
 10
372.41768300000001
 20
288.96864799999992
 30
0.0
 11
371.92646400000001
 21
288.70701000000003
 31
0.0
 12
373.29085699999962
 22
288.83558099999982
 32
0.0
 13
373.29085699999962
 23
288.83558099999982
 33
0.0
  0
SOLID
  5
16CCF
  8
WAKU
  6
CONTINUOUS
 10
373.99882100000002
 20
289.11575699999992
 30
0.0
 11
372.41768300000001
 21
288.96864799999992
 31
0.0
 12
374.22530599999988
 22
288.92089499999997
 32
0.0
 13
374.22530599999988
 23
288.92089499999997
 33
0.0
  0
SOLID
  5
16CD0
  8
WAKU
  6
CONTINUOUS
 10
372.88698799999992
 20
289.145129
 30
0.0
 11
372.41768300000001
 21
288.96864799999992
 31
0.0
 12
373.99882100000002
 22
289.11575699999992
 32
0.0
 13
373.99882100000002
 23
289.11575699999992
 33
0.0
  0
SOLID
  5
16CD1
  8
WAKU
  6
CONTINUOUS
 10
398.33733100000001
 20
289.20769200000001
 30
0.0
 11
391.28784000000002
 21
287.592308
 31
0.0
 12
392.09553299999988
 22
287.592308
 32
0.0
 13
392.09553299999988
 23
287.592308
 33
0.0
  0
SOLID
  5
16CD2
  8
WAKU
  6
CONTINUOUS
 10
398.33733100000001
 20
289.20769200000001
 30
0.0
 11
392.09553299999988
 21
287.592308
 31
0.0
 12
397.74937899999998
 22
287.592308
 32
0.0
 13
397.74937899999998
 23
287.592308
 33
0.0
  0
SOLID
  5
16CD3
  8
WAKU
  6
CONTINUOUS
 10
391.28784000000002
 20
287.592308
 30
0.0
 11
398.33733100000001
 21
289.20769200000001
 31
0.0
 12
397.52963799999992
 22
289.20769200000001
 32
0.0
 13
397.52963799999992
 23
289.20769200000001
 33
0.0
  0
SOLID
  5
16CD4
  8
WAKU
  6
CONTINUOUS
 10
391.87579199999999
 20
289.20769200000001
 30
0.0
 11
391.28784000000002
 21
287.592308
 31
0.0
 12
397.52963799999992
 22
289.20769200000001
 32
0.0
 13
397.52963799999992
 23
289.20769200000001
 33
0.0
  0
SOLID
  5
16CD5
  8
WAKU
  6
CONTINUOUS
 10
397.52963799999992
 20
289.20769200000001
 30
0.0
 11
392.68348500000002
 21
289.20769200000001
 31
0.0
 12
391.87579199999999
 22
289.20769200000001
 32
0.0
 13
391.87579199999999
 23
289.20769200000001
 33
0.0
  0
SOLID
  5
16CD6
  8
WAKU
  6
CONTINUOUS
 10
393.76040799999993
 20
289.20769200000001
 30
0.0
 11
392.68348500000002
 21
289.20769200000001
 31
0.0
 12
397.52963799999992
 22
289.20769200000001
 32
0.0
 13
397.52963799999992
 23
289.20769200000001
 33
0.0
  0
SOLID
  5
16CD7
  8
WAKU
  6
CONTINUOUS
 10
397.52963799999992
 20
289.20769200000001
 30
0.0
 11
396.45271500000001
 21
289.20769200000001
 31
0.0
 12
393.76040799999993
 22
289.20769200000001
 32
0.0
 13
393.76040799999993
 23
289.20769200000001
 33
0.0
  0
SOLID
  5
16CD8
  8
WAKU
  6
CONTINUOUS
 10
373.69234799999992
 20
289.22005999999982
 30
0.0
 11
372.88698799999992
 21
289.145129
 31
0.0
 12
373.99882100000002
 22
289.11575699999992
 32
0.0
 13
373.99882100000002
 23
289.11575699999992
 33
0.0
  0
SOLID
  5
16CD9
  8
WAKU
  6
CONTINUOUS
 10
373.31714299999999
 20
289.22997199999998
 30
0.0
 11
372.88698799999992
 21
289.145129
 31
0.0
 12
373.69234799999992
 22
289.22005999999982
 32
0.0
 13
373.69234799999992
 23
289.22005999999982
 33
0.0
  0
SOLID
  5
16CDA
  8
WAKU
  6
CONTINUOUS
 10
367.97127599999999
 20
286.22222199999982
 30
0.0
 11
372.24905299999989
 21
290.5
 31
0.0
 12
367.97127599999999
 22
290.5
 32
0.0
 13
367.97127599999999
 23
290.5
 33
0.0
  0
SOLID
  5
16CDB
  8
WAKU
  6
CONTINUOUS
 10
409.21900499999998
 20
288.7769229999999
 30
0.0
 11
409.84615400000001
 21
290.5
 31
0.0
 12
406.615385
 22
290.5
 32
0.0
 13
406.615385
 23
290.5
 33
0.0
  0
SOLID
  5
16CDC
  8
WAKU
  6
CONTINUOUS
 10
406.615385
 20
290.5
 30
0.0
 11
405.98823599999992
 21
288.7769229999999
 31
0.0
 12
409.21900499999998
 22
288.7769229999999
 32
0.0
 13
409.21900499999998
 23
288.7769229999999
 33
0.0
  0
SOLID
  5
16CDD
  8
WAKU
  6
CONTINUOUS
 10
409.15922099999989
 20
285.65384599999987
 30
0.0
 11
412.0
 21
290.5
 31
0.0
 12
410.92307699999992
 22
290.5
 32
0.0
 13
410.92307699999992
 23
290.5
 33
0.0
  0
SOLID
  5
16CDE
  8
WAKU
  6
CONTINUOUS
 10
412.0
 20
290.5
 30
0.0
 11
409.15922099999989
 21
285.65384599999987
 31
0.0
 12
409.45220799999993
 22
283.49999999999989
 32
0.0
 13
409.45220799999993
 23
283.49999999999989
 33
0.0
  0
SOLID
  5
16CDF
  8
WAKU
  6
CONTINUOUS
 10
378.09592799999979
 20
288.7769229999999
 30
0.0
 11
384.32307700000001
 21
290.5
 31
0.0
 12
378.72307699999988
 22
290.5
 32
0.0
 13
378.72307699999988
 23
290.5
 33
0.0
  0
SOLID
  5
16CE0
  8
WAKU
  6
CONTINUOUS
 10
384.32307700000001
 20
290.5
 30
0.0
 11
378.09592799999979
 21
288.7769229999999
 31
0.0
 12
380.31131299999993
 22
288.7769229999999
 32
0.0
 13
380.31131299999993
 23
288.7769229999999
 33
0.0
  0
SOLID
  5
16CE1
  8
WAKU
  6
CONTINUOUS
 10
384.32307700000001
 20
290.5
 30
0.0
 11
380.31131299999993
 21
288.7769229999999
 31
0.0
 12
383.69592799999992
 22
288.7769229999999
 32
0.0
 13
383.69592799999992
 23
288.7769229999999
 33
0.0
  0
SOLID
  5
16CE2
  8
WAKU
  6
CONTINUOUS
 10
390.37285099999991
 20
288.7769229999999
 30
0.0
 11
391.0
 21
290.5
 31
0.0
 12
385.615385
 22
290.5
 32
0.0
 13
385.615385
 23
290.5
 33
0.0
  0
SOLID
  5
16CE3
  8
WAKU
  6
CONTINUOUS
 10
385.615385
 20
290.5
 30
0.0
 11
384.98823599999992
 21
288.7769229999999
 31
0.0
 12
390.37285099999991
 22
288.7769229999999
 32
0.0
 13
390.37285099999991
 23
288.7769229999999
 33
0.0
  0
SOLID
  5
16CE4
  8
WAKU
  6
CONTINUOUS
 10
393.76040799999993
 20
289.20769200000001
 30
0.0
 11
394.23076900000001
 21
290.5
 31
0.0
 12
393.15384599999999
 22
290.5
 32
0.0
 13
393.15384599999999
 23
290.5
 33
0.0
  0
SOLID
  5
16CE5
  8
WAKU
  6
CONTINUOUS
 10
393.15384599999999
 20
290.5
 30
0.0
 11
392.68348500000002
 21
289.20769200000001
 31
0.0
 12
393.76040799999993
 22
289.20769200000001
 32
0.0
 13
393.76040799999993
 23
289.20769200000001
 33
0.0
  0
SOLID
  5
16CE6
  8
WAKU
  6
CONTINUOUS
 10
396.45271500000001
 20
289.20769200000001
 30
0.0
 11
398.0
 21
290.5
 31
0.0
 12
396.92307699999992
 22
290.5
 32
0.0
 13
396.92307699999992
 23
290.5
 33
0.0
  0
SOLID
  5
16CE7
  8
WAKU
  6
CONTINUOUS
 10
398.0
 20
290.5
 30
0.0
 11
396.45271500000001
 21
289.20769200000001
 31
0.0
 12
397.52963799999992
 22
289.20769200000001
 32
0.0
 13
397.52963799999992
 23
289.20769200000001
 33
0.0
  0
ENDBLK
  5
16CE8
  8
0
  0
BLOCK
  8
0
  6
BYBLOCK
 62
     0
  2
_DOTSMALL
 70
     2
 10
0.0
 20
0.0
 30
0.0
  3
_DOTSMALL
  1

  0
POLYLINE
  5
16CEB
  8
0
  6
BYBLOCK
 62
     0
 66
     1
 10
0.0
 20
0.0
 30
0.0
 70
     1
 40
0.5
 41
0.5
  0
VERTEX
  5
17433
  8
0
  6
BYBLOCK
 62
     0
 10
-0.0625
 20
0.0
 30
0.0
 42
1.0
  0
VERTEX
  5
17434
  8
0
  6
BYBLOCK
 62
     0
 10
0.0625
 20
0.0
 30
0.0
 42
1.0
  0
SEQEND
  5
17435
  8
0
  6
BYBLOCK
 62
     0
  0
ENDBLK
  5
16CEF
  8
0
  6
BYBLOCK
 62
     0
  0
BLOCK
  8
0
  2
*X4
 70
     1
 10
0.0
 20
0.0
 30
0.0
  3
*X4
  1

  0
LINE
  5
16CF2
  8
0
  6
CONTINUOUS
 62
     0
 10
-47.083227969321072
 20
-32.417034999999991
 30
0.0
 11
-48.447189000000002
 21
-33.780996030678928
 31
0.0
  0
LINE
  5
16CF3
  8
0
  6
CONTINUOUS
 62
     0
 10
-44.961907625761427
 20
-32.417034999999991
 30
0.0
 11
-48.447189000000002
 21
-35.902316374238559
 31
0.0
  0
LINE
  5
16CF4
  8
0
  6
CONTINUOUS
 62
     0
 10
-42.840587282201767
 20
-32.417034999999991
 30
0.0
 11
-48.447189000000002
 21
-38.023636717798212
 31
0.0
  0
LINE
  5
16CF5
  8
0
  6
CONTINUOUS
 62
     0
 10
-41.447188999999987
 20
-33.14495706135785
 30
0.0
 11
-48.447189000000002
 21
-40.14495706135785
 31
0.0
  0
LINE
  5
16CF6
  8
0
  6
CONTINUOUS
 62
     0
 10
-41.447188999999987
 20
-35.266277404917503
 30
0.0
 11
-46.313441939786287
 21
-40.132530344703802
 31
0.0
  0
LINE
  5
16CF7
  8
0
  6
CONTINUOUS
 62
     0
 10
-41.447188999999987
 20
-37.387597748477127
 30
0.0
 11
-43.865764919679741
 21
-39.806173668156902
 31
0.0
  0
LINE
  5
16CF8
  8
0
  6
CONTINUOUS
 62
     0
 10
-41.251803261734722
 20
-39.3135323537715
 30
0.0
 11
-41.418087899573209
 21
-39.479816991610001
 31
0.0
  0
LINE
  5
16CF9
  8
0
  6
CONTINUOUS
 62
     0
 10
-48.447189000000002
 20
-38.689112938642147
 30
0.0
 11
-46.922556397481777
 21
-40.21374554116035
 31
0.0
  0
LINE
  5
16CFA
  8
0
  6
CONTINUOUS
 62
     0
 10
-48.447189000000002
 20
-36.567792595082487
 30
0.0
 11
-45.050802978091319
 21
-39.964178616991127
 31
0.0
  0
LINE
  5
16CFB
  8
0
  6
CONTINUOUS
 62
     0
 10
-48.447189000000002
 20
-34.446472251522849
 30
0.0
 11
-43.179049558700839
 21
-39.714611692822011
 31
0.0
  0
LINE
  5
16CFC
  8
0
  6
CONTINUOUS
 62
     0
 10
-48.355305907963221
 20
-32.417034999999991
 30
0.0
 11
-41.307296139310381
 21
-39.465044768652831
 31
0.0
  0
LINE
  5
16CFD
  8
0
  6
CONTINUOUS
 62
     0
 10
-46.233985564403568
 20
-32.417034999999991
 30
0.0
 11
-41.447188999999987
 21
-37.203831564403572
 31
0.0
  0
LINE
  5
16CFE
  8
0
  6
CONTINUOUS
 62
     0
 10
-44.112665220843922
 20
-32.417034999999991
 30
0.0
 11
-41.447188999999987
 21
-35.082511220843926
 31
0.0
  0
LINE
  5
16CFF
  8
0
  6
CONTINUOUS
 62
     0
 10
-41.991344877284277
 20
-32.417034999999991
 30
0.0
 11
-41.447188999999987
 21
-32.961190877284281
 31
0.0
  0
ENDBLK
  5
16D00
  8
0
  0
BLOCK
  8
0
  2
*X5
 70
     1
 10
0.0
 20
0.0
 30
0.0
  3
*X5
  1

  0
LINE
  5
16D03
  8
0
  6
CONTINUOUS
 62
     0
 10
-78.903033122715684
 20
-32.417034999999991
 30
0.0
 11
-79.447189000000023
 21
-32.961190877284281
 31
0.0
  0
LINE
  5
16D04
  8
0
  6
CONTINUOUS
 62
     0
 10
-76.781712779156081
 20
-32.417034999999991
 30
0.0
 11
-79.447189000000023
 21
-35.082511220843912
 31
0.0
  0
LINE
  5
16D05
  8
0
  6
CONTINUOUS
 62
     0
 10
-74.660392435596421
 20
-32.417034999999991
 30
0.0
 11
-79.447189000000023
 21
-37.203831564403572
 31
0.0
  0
LINE
  5
16D06
  8
0
  6
CONTINUOUS
 62
     0
 10
-72.539072092036804
 20
-32.417034999999991
 30
0.0
 11
-79.587081860689622
 21
-39.465044768652838
 31
0.0
  0
LINE
  5
16D07
  8
0
  6
CONTINUOUS
 62
     0
 10
-72.447189000000023
 20
-34.446472251522863
 30
0.0
 11
-77.715328441299178
 21
-39.714611692822018
 31
0.0
  0
LINE
  5
16D08
  8
0
  6
CONTINUOUS
 62
     0
 10
-72.447189000000023
 20
-36.567792595082508
 30
0.0
 11
-75.843575021908677
 21
-39.964178616991127
 31
0.0
  0
LINE
  5
16D09
  8
0
  6
CONTINUOUS
 62
     0
 10
-72.447189000000023
 20
-38.689112938642147
 30
0.0
 11
-73.971821602518219
 21
-40.21374554116035
 31
0.0
  0
LINE
  5
16D0A
  8
0
  6
CONTINUOUS
 62
     0
 10
-79.642574738265267
 20
-39.3135323537715
 30
0.0
 11
-79.476290100426752
 21
-39.479816991610008
 31
0.0
  0
LINE
  5
16D0B
  8
0
  6
CONTINUOUS
 62
     0
 10
-79.447189000000023
 20
-37.387597748477113
 30
0.0
 11
-77.028613080320213
 21
-39.806173668156909
 31
0.0
  0
LINE
  5
16D0C
  8
0
  6
CONTINUOUS
 62
     0
 10
-79.447189000000023
 20
-35.26627740491746
 30
0.0
 11
-74.580936060213617
 21
-40.132530344703802
 31
0.0
  0
LINE
  5
16D0D
  8
0
  6
CONTINUOUS
 62
     0
 10
-79.447189000000023
 20
-33.144957061357829
 30
0.0
 11
-72.447189000000023
 21
-40.144957061357843
 31
0.0
  0
LINE
  5
16D0E
  8
0
  6
CONTINUOUS
 62
     0
 10
-78.053790717798094
 20
-32.417034999999991
 30
0.0
 11
-72.447189000000023
 21
-38.023636717798169
 31
0.0
  0
LINE
  5
16D0F
  8
0
  6
CONTINUOUS
 62
     0
 10
-75.932470374238562
 20
-32.417034999999991
 30
0.0
 11
-72.447189000000023
 21
-35.902316374238559
 31
0.0
  0
LINE
  5
16D10
  8
0
  6
CONTINUOUS
 62
     0
 10
-73.811150030678903
 20
-32.417034999999991
 30
0.0
 11
-72.447189000000023
 21
-33.780996030678907
 31
0.0
  0
ENDBLK
  5
16D11
  8
0
  0
BLOCK
  8
0
  2
*X6
 70
     1
 10
0.0
 20
0.0
 30
0.0
  3
*X6
  1

  0
LINE
  5
16D14
  8
0
  6
CONTINUOUS
 62
     0
 10
-73.811150030678945
 20
33.582965000000002
 30
0.0
 11
-72.447189000000023
 21
34.94692603067891
 31
0.0
  0
LINE
  5
16D15
  8
0
  6
CONTINUOUS
 62
     0
 10
-75.932470374238562
 20
33.582965000000009
 30
0.0
 11
-72.447189000000023
 21
37.068246374238562
 31
0.0
  0
LINE
  5
16D16
  8
0
  6
CONTINUOUS
 62
     0
 10
-78.053790717798208
 20
33.582965000000009
 30
0.0
 11
-72.447189000000023
 21
39.189566717798201
 31
0.0
  0
LINE
  5
16D17
  8
0
  6
CONTINUOUS
 62
     0
 10
-79.447189000000023
 20
34.310887061357853
 30
0.0
 11
-72.447189000000023
 21
41.310887061357811
 31
0.0
  0
LINE
  5
16D18
  8
0
  6
CONTINUOUS
 62
     0
 10
-79.447189000000023
 20
36.432207404917492
 30
0.0
 11
-74.580936060213617
 21
41.298460344703813
 31
0.0
  0
LINE
  5
16D19
  8
0
  6
CONTINUOUS
 62
     0
 10
-79.447189000000023
 20
38.55352774847713
 30
0.0
 11
-77.028613080320241
 21
40.972103668156898
 31
0.0
  0
LINE
  5
16D1A
  8
0
  6
CONTINUOUS
 62
     0
 10
-79.642574738265267
 20
40.47946235377151
 30
0.0
 11
-79.476290100426752
 21
40.645746991609983
 31
0.0
  0
LINE
  5
16D1B
  8
0
  6
CONTINUOUS
 62
     0
 10
-72.447189000000023
 20
39.85504293864215
 30
0.0
 11
-73.971821602518219
 21
41.379675541160367
 31
0.0
  0
LINE
  5
16D1C
  8
0
  6
CONTINUOUS
 62
     0
 10
-72.447189000000023
 20
37.73372259508249
 30
0.0
 11
-75.843575021908677
 21
41.130108616991187
 31
0.0
  0
LINE
  5
16D1D
  8
0
  6
CONTINUOUS
 62
     0
 10
-72.447189000000023
 20
35.612402251522852
 30
0.0
 11
-77.715328441299135
 21
40.880541692822007
 31
0.0
  0
LINE
  5
16D1E
  8
0
  6
CONTINUOUS
 62
     0
 10
-72.539072092036804
 20
33.582965000000002
 30
0.0
 11
-79.587081860689622
 21
40.630974768652841
 31
0.0
  0
LINE
  5
16D1F
  8
0
  6
CONTINUOUS
 62
     0
 10
-74.660392435596435
 20
33.58296499999998
 30
0.0
 11
-79.447189000000023
 21
38.369761564403589
 31
0.0
  0
LINE
  5
16D20
  8
0
  6
CONTINUOUS
 62
     0
 10
-76.781712779156067
 20
33.582965000000002
 30
0.0
 11
-79.447189000000023
 21
36.24844122084393
 31
0.0
  0
LINE
  5
16D21
  8
0
  6
CONTINUOUS
 62
     0
 10
-78.903033122715684
 20
33.582965000000002
 30
0.0
 11
-79.447189000000023
 21
34.127120877284291
 31
0.0
  0
ENDBLK
  5
16D22
  8
0
  0
BLOCK
  8
0
  2
*X7
 70
     1
 10
0.0
 20
0.0
 30
0.0
  3
*X7
  1

  0
LINE
  5
16D25
  8
0
  6
CONTINUOUS
 62
     0
 10
-41.991344877284277
 20
33.582965000000002
 30
0.0
 11
-41.447188999999987
 21
34.127120877284277
 31
0.0
  0
LINE
  5
16D26
  8
0
  6
CONTINUOUS
 62
     0
 10
-44.112665220843922
 20
33.582965000000009
 30
0.0
 11
-41.447188999999987
 21
36.24844122084393
 31
0.0
  0
LINE
  5
16D27
  8
0
  6
CONTINUOUS
 62
     0
 10
-46.233985564403547
 20
33.582965000000009
 30
0.0
 11
-41.447188999999987
 21
38.369761564403568
 31
0.0
  0
LINE
  5
16D28
  8
0
  6
CONTINUOUS
 62
     0
 10
-48.355305907963199
 20
33.582965000000009
 30
0.0
 11
-41.307296139310381
 21
40.630974768652841
 31
0.0
  0
LINE
  5
16D29
  8
0
  6
CONTINUOUS
 62
     0
 10
-48.447189000000002
 20
35.612402251522852
 30
0.0
 11
-43.179049558700839
 21
40.880541692822021
 31
0.0
  0
LINE
  5
16D2A
  8
0
  6
CONTINUOUS
 62
     0
 10
-48.447189000000002
 20
37.73372259508249
 30
0.0
 11
-45.050802978091319
 21
41.130108616991187
 31
0.0
  0
LINE
  5
16D2B
  8
0
  6
CONTINUOUS
 62
     0
 10
-48.447189000000002
 20
39.85504293864215
 30
0.0
 11
-46.922556397481777
 21
41.379675541160367
 31
0.0
  0
LINE
  5
16D2C
  8
0
  6
CONTINUOUS
 62
     0
 10
-41.251803261734729
 20
40.47946235377151
 30
0.0
 11
-41.418087899573209
 21
40.645746991609983
 31
0.0
  0
LINE
  5
16D2D
  8
0
  6
CONTINUOUS
 62
     0
 10
-41.447188999999987
 20
38.55352774847713
 30
0.0
 11
-43.865764919679783
 21
40.972103668156898
 31
0.0
  0
LINE
  5
16D2E
  8
0
  6
CONTINUOUS
 62
     0
 10
-41.447188999999987
 20
36.432207404917492
 30
0.0
 11
-46.313441939786287
 21
41.298460344703813
 31
0.0
  0
LINE
  5
16D2F
  8
0
  6
CONTINUOUS
 62
     0
 10
-41.447188999999987
 20
34.310887061357853
 30
0.0
 11
-48.447189000000002
 21
41.310887061357853
 31
0.0
  0
LINE
  5
16D30
  8
0
  6
CONTINUOUS
 62
     0
 10
-42.840587282201803
 20
33.582965000000009
 30
0.0
 11
-48.447189000000002
 21
39.189566717798201
 31
0.0
  0
LINE
  5
16D31
  8
0
  6
CONTINUOUS
 62
     0
 10
-44.961907625761427
 20
33.582965000000002
 30
0.0
 11
-48.447189000000002
 21
37.068246374238562
 31
0.0
  0
LINE
  5
16D32
  8
0
  6
CONTINUOUS
 62
     0
 10
-47.083227969321072
 20
33.582965000000002
 30
0.0
 11
-48.447189000000002
 21
34.946926030678917
 31
0.0
  0
ENDBLK
  5
16D33
  8
0
  0
BLOCK
  8
0
  2
*X8
 70
     1
 10
0.0
 20
0.0
 30
0.0
  3
*X8
  1

  0
LINE
  5
16D36
  8
0
  6
CONTINUOUS
 62
     0
 10
-135.8111410306789
 20
33.582962000000002
 30
0.0
 11
-134.44717999999921
 21
34.946923030678931
 31
0.0
  0
LINE
  5
16D37
  8
0
  6
CONTINUOUS
 62
     0
 10
-137.9324613742385
 20
33.582962000000009
 30
0.0
 11
-134.44717999999921
 21
37.068243374238563
 31
0.0
  0
LINE
  5
16D38
  8
0
  6
CONTINUOUS
 62
     0
 10
-140.0537817177981
 20
33.582962000000002
 30
0.0
 11
-134.44717999999921
 21
39.189563717798201
 31
0.0
  0
LINE
  5
16D39
  8
0
  6
CONTINUOUS
 62
     0
 10
-141.44718
 20
34.310884061357847
 30
0.0
 11
-134.44717999999921
 21
41.310884061357847
 31
0.0
  0
LINE
  5
16D3A
  8
0
  6
CONTINUOUS
 62
     0
 10
-141.44718
 20
36.432204404917492
 30
0.0
 11
-136.58092706021341
 21
41.298457344703813
 31
0.0
  0
LINE
  5
16D3B
  8
0
  6
CONTINUOUS
 62
     0
 10
-141.44718
 20
38.55352474847713
 30
0.0
 11
-139.02860408032021
 21
40.972100668156898
 31
0.0
  0
LINE
  5
16D3C
  8
0
  6
CONTINUOUS
 62
     0
 10
-141.64256573826501
 20
40.47945935377151
 30
0.0
 11
-141.4762811004266
 21
40.645743991609983
 31
0.0
  0
LINE
  5
16D3D
  8
0
  6
CONTINUOUS
 62
     0
 10
-134.44717999999921
 20
39.85503993864215
 30
0.0
 11
-135.97181260251801
 21
41.37967254116036
 31
0.0
  0
LINE
  5
16D3E
  8
0
  6
CONTINUOUS
 62
     0
 10
-134.44717999999921
 20
37.733719595082491
 30
0.0
 11
-137.8435660219084
 21
41.130105616991187
 31
0.0
  0
LINE
  5
16D3F
  8
0
  6
CONTINUOUS
 62
     0
 10
-134.44717999999921
 20
35.612399251522852
 30
0.0
 11
-139.7153194412991
 21
40.880538692822007
 31
0.0
  0
LINE
  5
16D40
  8
0
  6
CONTINUOUS
 62
     0
 10
-134.53906309203671
 20
33.582962000000009
 30
0.0
 11
-141.5870728606896
 21
40.630971768652827
 31
0.0
  0
LINE
  5
16D41
  8
0
  6
CONTINUOUS
 62
     0
 10
-136.6603834355964
 20
33.582962000000002
 30
0.0
 11
-141.44718
 21
38.36975856440359
 31
0.0
  0
LINE
  5
16D42
  8
0
  6
CONTINUOUS
 62
     0
 10
-138.78170377915561
 20
33.582961999999981
 30
0.0
 11
-141.44718
 21
36.24843822084393
 31
0.0
  0
LINE
  5
16D43
  8
0
  6
CONTINUOUS
 62
     0
 10
-140.90302412271541
 20
33.582962000000002
 30
0.0
 11
-141.44718
 21
34.127117877284292
 31
0.0
  0
ENDBLK
  5
16D44
  8
0
  0
BLOCK
  8
0
  2
*X9
 70
     1
 10
0.0
 20
0.0
 30
0.0
  3
*X9
  1

  0
LINE
  5
16D47
  8
0
  6
CONTINUOUS
 62
     0
 10
-103.9913358772839
 20
33.582962000000002
 30
0.0
 11
-103.4471799999999
 21
34.127117877284277
 31
0.0
  0
LINE
  5
16D48
  8
0
  6
CONTINUOUS
 62
     0
 10
-106.1126562208439
 20
33.582962000000009
 30
0.0
 11
-103.4471799999999
 21
36.24843822084393
 31
0.0
  0
LINE
  5
16D49
  8
0
  6
CONTINUOUS
 62
     0
 10
-108.23397656440351
 20
33.582962000000009
 30
0.0
 11
-103.4471799999999
 21
38.369758564403568
 31
0.0
  0
LINE
  5
16D4A
  8
0
  6
CONTINUOUS
 62
     0
 10
-110.35529690796299
 20
33.582962000000009
 30
0.0
 11
-103.3072871393102
 21
40.630971768652827
 31
0.0
  0
LINE
  5
16D4B
  8
0
  6
CONTINUOUS
 62
     0
 10
-110.44718
 20
35.612399251522852
 30
0.0
 11
-105.17904055870071
 21
40.880538692822
 31
0.0
  0
LINE
  5
16D4C
  8
0
  6
CONTINUOUS
 62
     0
 10
-110.44718
 20
37.733719595082491
 30
0.0
 11
-107.05079397809131
 21
41.130105616991187
 31
0.0
  0
LINE
  5
16D4D
  8
0
  6
CONTINUOUS
 62
     0
 10
-110.44718
 20
39.85503993864215
 30
0.0
 11
-108.92254739748169
 21
41.379672541160367
 31
0.0
  0
LINE
  5
16D4E
  8
0
  6
CONTINUOUS
 62
     0
 10
-103.2517942617346
 20
40.47945935377151
 30
0.0
 11
-103.4180788995732
 21
40.645743991609983
 31
0.0
  0
LINE
  5
16D4F
  8
0
  6
CONTINUOUS
 62
     0
 10
-103.4471799999999
 20
38.55352474847713
 30
0.0
 11
-105.8657559196797
 21
40.972100668156898
 31
0.0
  0
LINE
  5
16D50
  8
0
  6
CONTINUOUS
 62
     0
 10
-103.4471799999999
 20
36.432204404917492
 30
0.0
 11
-108.3134329397863
 21
41.298457344703799
 31
0.0
  0
LINE
  5
16D51
  8
0
  6
CONTINUOUS
 62
     0
 10
-103.4471799999999
 20
34.310884061357868
 30
0.0
 11
-110.44718
 21
41.310884061357847
 31
0.0
  0
LINE
  5
16D52
  8
0
  6
CONTINUOUS
 62
     0
 10
-104.8405782822017
 20
33.582961999999981
 30
0.0
 11
-110.44718
 21
39.189563717798201
 31
0.0
  0
LINE
  5
16D53
  8
0
  6
CONTINUOUS
 62
     0
 10
-106.96189862576141
 20
33.582961999999981
 30
0.0
 11
-110.44718
 21
37.068243374238563
 31
0.0
  0
LINE
  5
16D54
  8
0
  6
CONTINUOUS
 62
     0
 10
-109.083218969321
 20
33.582961999999981
 30
0.0
 11
-110.44718
 21
34.946923030678931
 31
0.0
  0
ENDBLK
  5
16D55
  8
0
  0
BLOCK
  8
0
  2
*X10
 70
     1
 10
0.0
 20
0.0
 30
0.0
  3
*X10
  1

  0
LINE
  5
16D58
  8
0
  6
CONTINUOUS
 62
     0
 10
-109.083218969321
 20
-32.417037999999991
 30
0.0
 11
-110.44718
 21
-33.780999030678927
 31
0.0
  0
LINE
  5
16D59
  8
0
  6
CONTINUOUS
 62
     0
 10
-106.96189862576141
 20
-32.417037999999991
 30
0.0
 11
-110.44718
 21
-35.902319374238559
 31
0.0
  0
LINE
  5
16D5A
  8
0
  6
CONTINUOUS
 62
     0
 10
-104.8405782822017
 20
-32.417037999999991
 30
0.0
 11
-110.44718
 21
-38.023639717798197
 31
0.0
  0
LINE
  5
16D5B
  8
0
  6
CONTINUOUS
 62
     0
 10
-103.4471799999999
 20
-33.14496006135785
 30
0.0
 11
-110.44718
 21
-40.14496006135785
 31
0.0
  0
LINE
  5
16D5C
  8
0
  6
CONTINUOUS
 62
     0
 10
-103.4471799999999
 20
-35.266280404917488
 30
0.0
 11
-108.3134329397863
 21
-40.132533344703802
 31
0.0
  0
LINE
  5
16D5D
  8
0
  6
CONTINUOUS
 62
     0
 10
-103.4471799999999
 20
-37.387600748477134
 30
0.0
 11
-105.8657559196797
 21
-39.806176668156908
 31
0.0
  0
LINE
  5
16D5E
  8
0
  6
CONTINUOUS
 62
     0
 10
-103.2517942617346
 20
-39.313535353771492
 30
0.0
 11
-103.4180788995732
 21
-39.479819991610007
 31
0.0
  0
LINE
  5
16D5F
  8
0
  6
CONTINUOUS
 62
     0
 10
-110.44718
 20
-38.689115938642111
 30
0.0
 11
-108.92254739748169
 21
-40.213748541160371
 31
0.0
  0
LINE
  5
16D60
  8
0
  6
CONTINUOUS
 62
     0
 10
-110.44718
 20
-36.567795595082487
 30
0.0
 11
-107.05079397809131
 21
-39.964181616991198
 31
0.0
  0
LINE
  5
16D61
  8
0
  6
CONTINUOUS
 62
     0
 10
-110.44718
 20
-34.446475251522848
 30
0.0
 11
-105.17904055870071
 21
-39.714614692822018
 31
0.0
  0
LINE
  5
16D62
  8
0
  6
CONTINUOUS
 62
     0
 10
-110.35529690796299
 20
-32.417037999999991
 30
0.0
 11
-103.3072871393102
 21
-39.465047768652838
 31
0.0
  0
LINE
  5
16D63
  8
0
  6
CONTINUOUS
 62
     0
 10
-108.23397656440351
 20
-32.417037999999991
 30
0.0
 11
-103.4471799999999
 21
-37.203834564403557
 31
0.0
  0
LINE
  5
16D64
  8
0
  6
CONTINUOUS
 62
     0
 10
-106.1126562208439
 20
-32.417038000000012
 30
0.0
 11
-103.4471799999999
 21
-35.082514220843912
 31
0.0
  0
LINE
  5
16D65
  8
0
  6
CONTINUOUS
 62
     0
 10
-103.9913358772839
 20
-32.417037999999991
 30
0.0
 11
-103.4471799999999
 21
-32.961193877284281
 31
0.0
  0
ENDBLK
  5
16D66
  8
0
  0
BLOCK
  8
0
  2
*X11
 70
     1
 10
0.0
 20
0.0
 30
0.0
  3
*X11
  1

  0
LINE
  5
16D69
  8
0
  6
CONTINUOUS
 62
     0
 10
-140.90302412271541
 20
-32.417037999999991
 30
0.0
 11
-141.44718
 21
-32.961193877284281
 31
0.0
  0
LINE
  5
16D6A
  8
0
  6
CONTINUOUS
 62
     0
 10
-138.78170377915561
 20
-32.417037999999991
 30
0.0
 11
-141.44718
 21
-35.082514220843912
 31
0.0
  0
LINE
  5
16D6B
  8
0
  6
CONTINUOUS
 62
     0
 10
-136.6603834355964
 20
-32.417037999999991
 30
0.0
 11
-141.44718
 21
-37.203834564403572
 31
0.0
  0
LINE
  5
16D6C
  8
0
  6
CONTINUOUS
 62
     0
 10
-134.5390630920368
 20
-32.417037999999991
 30
0.0
 11
-141.5870728606896
 21
-39.465047768652838
 31
0.0
  0
LINE
  5
16D6D
  8
0
  6
CONTINUOUS
 62
     0
 10
-134.44717999999921
 20
-34.446475251522848
 30
0.0
 11
-139.7153194412991
 21
-39.714614692822011
 31
0.0
  0
LINE
  5
16D6E
  8
0
  6
CONTINUOUS
 62
     0
 10
-134.44717999999921
 20
-36.567795595082472
 30
0.0
 11
-137.8435660219084
 21
-39.964181616991183
 31
0.0
  0
LINE
  5
16D6F
  8
0
  6
CONTINUOUS
 62
     0
 10
-134.44717999999921
 20
-38.689115938642132
 30
0.0
 11
-135.97181260251801
 21
-40.213748541160371
 31
0.0
  0
LINE
  5
16D70
  8
0
  6
CONTINUOUS
 62
     0
 10
-141.64256573826501
 20
-39.313535353771492
 30
0.0
 11
-141.4762811004266
 21
-39.479819991610043
 31
0.0
  0
LINE
  5
16D71
  8
0
  6
CONTINUOUS
 62
     0
 10
-141.44718
 20
-37.387600748477112
 30
0.0
 11
-139.02860408032021
 21
-39.806176668156922
 31
0.0
  0
LINE
  5
16D72
  8
0
  6
CONTINUOUS
 62
     0
 10
-141.44718
 20
-35.266280404917481
 30
0.0
 11
-136.58092706021341
 21
-40.132533344703802
 31
0.0
  0
LINE
  5
16D73
  8
0
  6
CONTINUOUS
 62
     0
 10
-141.44718
 20
-33.14496006135785
 30
0.0
 11
-134.44717999999921
 21
-40.14496006135785
 31
0.0
  0
LINE
  5
16D74
  8
0
  6
CONTINUOUS
 62
     0
 10
-140.0537817177981
 20
-32.417037999999991
 30
0.0
 11
-134.44717999999921
 21
-38.023639717798197
 31
0.0
  0
LINE
  5
16D75
  8
0
  6
CONTINUOUS
 62
     0
 10
-137.9324613742385
 20
-32.417037999999991
 30
0.0
 11
-134.44717999999921
 21
-35.902319374238559
 31
0.0
  0
LINE
  5
16D76
  8
0
  6
CONTINUOUS
 62
     0
 10
-135.8111410306789
 20
-32.417038000000012
 30
0.0
 11
-134.44717999999921
 21
-33.780999030678913
 31
0.0
  0
ENDBLK
  5
16D77
  8
0
  0
BLOCK
  8
0
 62
     0
  2
_CLOSED
 70
     2
 10
0.0
 20
0.0
 30
0.0
  3
_CLOSED
  1

  0
LINE
  5
16D7A
  8
0
  6
BYBLOCK
 62
     0
 10
-1.0
 20
0.167
 30
0.0
 11
0.0
 21
0.0
 31
0.0
  0
LINE
  5
16D7B
  8
0
  6
BYBLOCK
 62
     0
 10
0.0
 20
0.0
 30
0.0
 11
-1.0
 21
-0.167
 31
0.0
  0
LINE
  5
16D7C
  8
0
  6
BYBLOCK
 62
     0
 10
-1.0
 20
0.167
 30
0.0
 11
-1.0
 21
-0.167
 31
0.0
  0
LINE
  5
16D7D
  8
0
  6
BYBLOCK
 62
     0
 10
0.0
 20
0.0
 30
0.0
 11
-1.0
 21
0.0
 31
0.0
  0
ENDBLK
  5
16D7E
  8
0
 62
     0
  0
ENDSEC
  0
SECTION
  2
ENTITIES
  0
LINE
  5
16D7F
  8
WAKU
 10
500.0
 20
505.0
 30
0.0
 11
500.0
 21
205.0
 31
0.0
  0
LINE
  5
16D80
  8
WAKU
 10
5.0
 20
505.0
 30
0.0
 11
5.0
 21
205.0
 31
0.0
  0
LINE
  5
16D81
  8
WAKU
 10
5.0
 20
205.0
 30
0.0
 11
500.0
 21
205.0
 31
0.0
  0
TEXT
  5
16D82
  8
WAKU
 10
34.469413000000003
 20
497.67056799999989
 30
0.0
 40
5.0
  1
断面詳細図（連窓）                                                   　　　　　　　　　　　　　　swin70i-sube-z002.dxf
 41
0.9769999999999999
  0
LINE
  5
16D83
  8
WAKU
 10
5.0
 20
495.0
 30
0.0
 11
500.0
 21
495.0
 31
0.0
  0
TEXT
  5
16D84
  8
WAKU
 10
10.048814999999991
 20
498.43971699999997
 30
0.0
 40
3.0
  1
ウインブレス
  0
LINE
  5
16D85
  8
WAKU
  6
CONTINUOUS
 10
474.42887799250781
 20
502.20769199999989
 30
0.0
 11
477.12118499250772
 21
502.20769199999989
 31
0.0
  0
LINE
  5
16D86
  8
WAKU
  6
CONTINUOUS
 10
473.84092599250761
 20
500.592308
 30
0.0
 11
476.53323299250792
 21
500.592308
 31
0.0
  0
LINE
  5
16D87
  8
WAKU
  6
CONTINUOUS
 10
471.05913999250771
 20
496.49999999999989
 30
0.0
 11
476.12067799250792
 21
496.49999999999989
 31
0.0
  0
LINE
  5
16D88
  8
WAKU
  6
CONTINUOUS
 10
475.82769099250771
 20
498.65384599999999
 30
0.0
 11
476.53323299250792
 21
500.592308
 31
0.0
  0
LINE
  5
16D89
  8
WAKU
  6
CONTINUOUS
 10
448.63974599250753
 20
503.5
 30
0.0
 11
452.91752299250788
 21
503.5
 31
0.0
  0
LINE
  5
16D8A
  8
WAKU
  6
CONTINUOUS
 10
448.63974599250753
 20
499.22222199999999
 30
0.0
 11
452.91752299250788
 21
503.5
 31
0.0
  0
LINE
  5
16D8B
  8
WAKU
  6
CONTINUOUS
 10
448.63974599250753
 20
503.5
 30
0.0
 11
448.63974599250753
 21
499.22222199999999
 31
0.0
  0
LINE
  5
16D8C
  8
WAKU
  6
CONTINUOUS
 10
462.19332099250789
 20
501.77692299999978
 30
0.0
 11
464.36439799250741
 21
501.77692299999978
 31
0.0
  0
LINE
  5
16D8D
  8
WAKU
  6
CONTINUOUS
 10
459.3915469925077
 20
503.5
 30
0.0
 11
464.99154699250789
 21
503.5
 31
0.0
  0
LINE
  5
16D8E
  8
WAKU
  6
CONTINUOUS
 10
460.97978299250792
 20
501.77692299999978
 30
0.0
 11
457.82367499250779
 21
499.19230800000003
 31
0.0
  0
LINE
  5
16D8F
  8
WAKU
  6
CONTINUOUS
 10
462.19332099250789
 20
501.77692299999978
 30
0.0
 11
463.4236749925077
 21
499.19230800000003
 31
0.0
  0
LINE
  5
16D90
  8
WAKU
  6
CONTINUOUS
 10
456.84375499250717
 20
496.49999999999989
 30
0.0
 11
457.82367499250779
 21
499.19230800000003
 31
0.0
  0
LINE
  5
16D91
  8
WAKU
  6
CONTINUOUS
 10
460.06561499250779
 20
499.13846199999989
 30
0.0
 11
456.84375499250717
 21
496.49999999999989
 31
0.0
  0
LINE
  5
16D92
  8
WAKU
  6
CONTINUOUS
 10
462.44375499250771
 20
496.49999999999989
 30
0.0
 11
463.4236749925077
 21
499.19230800000003
 31
0.0
  0
LINE
  5
16D93
  8
WAKU
  6
CONTINUOUS
 10
461.16213699250773
 20
499.19230800000003
 30
0.0
 11
462.44375499250771
 21
496.49999999999989
 31
0.0
  0
LINE
  5
16D94
  8
WAKU
  6
CONTINUOUS
 10
460.18221699250768
 20
496.49999999999989
 30
0.0
 11
461.16213699250773
 21
499.19230800000003
 31
0.0
  0
LINE
  5
16D95
  8
WAKU
  6
CONTINUOUS
 10
459.1052939925076
 20
496.49999999999989
 30
0.0
 11
460.18221699250768
 21
496.49999999999989
 31
0.0
  0
LINE
  5
16D96
  8
WAKU
  6
CONTINUOUS
 10
459.1052939925076
 20
496.49999999999989
 30
0.0
 11
460.06561499250779
 21
499.13846199999989
 31
0.0
  0
LINE
  5
16D97
  8
WAKU
  6
CONTINUOUS
 10
458.76439799250761
 20
501.77692299999978
 30
0.0
 11
460.97978299250792
 21
501.77692299999978
 31
0.0
  0
LINE
  5
16D98
  8
WAKU
  6
CONTINUOUS
 10
459.3915469925077
 20
503.5
 30
0.0
 11
458.76439799250761
 21
501.77692299999978
 31
0.0
  0
LINE
  5
16D99
  8
WAKU
  6
CONTINUOUS
 10
473.44895799250759
 20
499.51538499999998
 30
0.0
 11
473.84092599250761
 21
500.592308
 31
0.0
  0
LINE
  5
16D9A
  8
WAKU
  6
CONTINUOUS
 10
472.37203499250791
 20
499.51538499999998
 30
0.0
 11
472.76400299250793
 21
500.592308
 31
0.0
  0
LINE
  5
16D9B
  8
WAKU
  6
CONTINUOUS
 10
469.12067799250792
 20
496.49999999999989
 30
0.0
 11
469.90461399250762
 21
498.65384599999999
 31
0.0
  0
LINE
  5
16D9C
  8
WAKU
  6
CONTINUOUS
 10
464.51999899250791
 20
498.65384599999999
 30
0.0
 11
469.90461399250762
 21
498.65384599999999
 31
0.0
  0
LINE
  5
16D9D
  8
WAKU
  6
CONTINUOUS
 10
463.73606299250758
 20
496.49999999999989
 30
0.0
 11
464.51999899250791
 21
498.65384599999999
 31
0.0
  0
LINE
  5
16D9E
  8
WAKU
  6
CONTINUOUS
 10
463.73606299250758
 20
496.49999999999989
 30
0.0
 11
469.12067799250792
 21
496.49999999999989
 31
0.0
  0
LINE
  5
16D9F
  8
WAKU
  6
CONTINUOUS
 10
471.84307599250769
 20
498.65384599999999
 30
0.0
 11
475.82769099250771
 21
498.65384599999999
 31
0.0
  0
LINE
  5
16DA0
  8
WAKU
  6
CONTINUOUS
 10
472.37203499250791
 20
499.51538499999998
 30
0.0
 11
473.44895799250759
 21
499.51538499999998
 31
0.0
  0
LINE
  5
16DA1
  8
WAKU
  6
CONTINUOUS
 10
471.05913999250771
 20
496.49999999999989
 30
0.0
 11
471.84307599250769
 21
498.65384599999999
 31
0.0
  0
LINE
  5
16DA2
  8
WAKU
  6
CONTINUOUS
 10
465.65670599250791
 20
501.77692299999978
 30
0.0
 11
471.04132099250768
 21
501.77692299999978
 31
0.0
  0
LINE
  5
16DA3
  8
WAKU
  6
CONTINUOUS
 10
466.2838549925076
 20
503.5
 30
0.0
 11
471.6684699925076
 21
503.5
 31
0.0
  0
LINE
  5
16DA4
  8
WAKU
  6
CONTINUOUS
 10
465.65670599250791
 20
501.77692299999978
 30
0.0
 11
466.2838549925076
 21
503.5
 31
0.0
  0
LINE
  5
16DA5
  8
WAKU
  6
CONTINUOUS
 10
464.99154699250789
 20
503.5
 30
0.0
 11
464.36439799250741
 21
501.77692299999978
 31
0.0
  0
LINE
  5
16DA6
  8
WAKU
  6
CONTINUOUS
 10
473.82231599250792
 20
503.5
 30
0.0
 11
474.89923899250789
 21
503.5
 31
0.0
  0
LINE
  5
16DA7
  8
WAKU
  6
CONTINUOUS
 10
474.42887799250781
 20
502.20769199999989
 30
0.0
 11
474.89923899250789
 21
503.5
 31
0.0
  0
LINE
  5
16DA8
  8
WAKU
  6
CONTINUOUS
 10
472.54426199250793
 20
502.20769199999989
 30
0.0
 11
473.35195499250779
 21
502.20769199999989
 31
0.0
  0
LINE
  5
16DA9
  8
WAKU
  6
CONTINUOUS
 10
471.95630999250773
 20
500.592308
 30
0.0
 11
472.76400299250793
 21
500.592308
 31
0.0
  0
LINE
  5
16DAA
  8
WAKU
  6
CONTINUOUS
 10
471.95630999250773
 20
500.592308
 30
0.0
 11
472.54426199250793
 21
502.20769199999989
 31
0.0
  0
LINE
  5
16DAB
  8
WAKU
  6
CONTINUOUS
 10
473.35195499250779
 20
502.20769199999989
 30
0.0
 11
473.82231599250792
 21
503.5
 31
0.0
  0
LINE
  5
16DAC
  8
WAKU
  6
CONTINUOUS
 10
471.04132099250768
 20
501.77692299999978
 30
0.0
 11
471.6684699925076
 21
503.5
 31
0.0
  0
LINE
  5
16DAD
  8
WAKU
  6
CONTINUOUS
 10
486.42152499250773
 20
501.13076899999987
 30
0.0
 11
489.65229399250791
 21
501.13076899999987
 31
0.0
  0
LINE
  5
16DAE
  8
WAKU
  6
CONTINUOUS
 10
485.95116399250759
 20
499.83846199999999
 30
0.0
 11
489.18193299250788
 21
499.83846199999999
 31
0.0
  0
LINE
  5
16DAF
  8
WAKU
  6
CONTINUOUS
 10
490.12067799250792
 20
496.49999999999989
 30
0.0
 11
484.73606299250758
 21
496.49999999999989
 31
0.0
  0
LINE
  5
16DB0
  8
WAKU
  6
CONTINUOUS
 10
485.51999899250791
 20
498.65384599999999
 30
0.0
 11
489.82769099250788
 21
498.65384599999999
 31
0.0
  0
LINE
  5
16DB1
  8
WAKU
  6
CONTINUOUS
 10
486.6567059925078
 20
501.77692299999978
 30
0.0
 11
489.88747499250752
 21
501.77692299999978
 31
0.0
  0
LINE
  5
16DB2
  8
WAKU
  6
CONTINUOUS
 10
487.2838549925076
 20
503.5
 30
0.0
 11
490.51462399250772
 21
503.5
 31
0.0
  0
LINE
  5
16DB3
  8
WAKU
  6
CONTINUOUS
 10
479.45042799250791
 20
499.73076900000001
 30
0.0
 11
480.23436399250761
 21
501.884615
 31
0.0
  0
LINE
  5
16DB4
  8
WAKU
  6
CONTINUOUS
 10
480.85042799250772
 20
499.73076900000001
 30
0.0
 11
481.63436399250782
 21
501.884615
 31
0.0
  0
LINE
  5
16DB5
  8
WAKU
  6
CONTINUOUS
 10
480.52735099250759
 20
499.73076900000001
 30
0.0
 11
481.3112869925078
 21
501.884615
 31
0.0
  0
LINE
  5
16DB6
  8
WAKU
  6
CONTINUOUS
 10
481.92735099250768
 20
499.73076900000001
 30
0.0
 11
482.71128699250801
 21
501.884615
 31
0.0
  0
LINE
  5
16DB7
  8
WAKU
  6
CONTINUOUS
 10
482.58221699250771
 20
496.49999999999989
 30
0.0
 11
484.54205699250792
 21
501.884615
 31
0.0
  0
LINE
  5
16DB8
  8
WAKU
  6
CONTINUOUS
 10
482.09324599250772
 20
498.11538499999989
 30
0.0
 11
483.46513299250768
 21
501.884615
 31
0.0
  0
LINE
  5
16DB9
  8
WAKU
  6
CONTINUOUS
 10
476.12067799250792
 20
496.49999999999989
 30
0.0
 11
477.61015699250788
 21
500.592308
 31
0.0
  0
LINE
  5
16DBA
  8
WAKU
  6
CONTINUOUS
 10
478.27452499250768
 20
496.49999999999989
 30
0.0
 11
482.58221699250771
 21
496.49999999999989
 31
0.0
  0
LINE
  5
16DBB
  8
WAKU
  6
CONTINUOUS
 10
479.45042799250791
 20
499.73076900000001
 30
0.0
 11
480.52735099250759
 21
499.73076900000001
 31
0.0
  0
LINE
  5
16DBC
  8
WAKU
  6
CONTINUOUS
 10
478.86247599250771
 20
498.11538499999989
 30
0.0
 11
482.09324599250772
 21
498.11538499999989
 31
0.0
  0
LINE
  5
16DBD
  8
WAKU
  6
CONTINUOUS
 10
478.27452499250768
 20
496.49999999999989
 30
0.0
 11
478.86247599250771
 21
498.11538499999989
 31
0.0
  0
LINE
  5
16DBE
  8
WAKU
  6
CONTINUOUS
 10
480.85042799250772
 20
499.73076900000001
 30
0.0
 11
481.92735099250768
 21
499.73076900000001
 31
0.0
  0
LINE
  5
16DBF
  8
WAKU
  6
CONTINUOUS
 10
484.73606299250758
 20
496.49999999999989
 30
0.0
 11
485.51999899250791
 21
498.65384599999999
 31
0.0
  0
LINE
  5
16DC0
  8
WAKU
  6
CONTINUOUS
 10
481.63436399250782
 20
501.884615
 30
0.0
 11
482.71128699250801
 21
501.884615
 31
0.0
  0
LINE
  5
16DC1
  8
WAKU
  6
CONTINUOUS
 10
477.59154699250757
 20
503.5
 30
0.0
 11
478.66846999250782
 21
503.5
 31
0.0
  0
LINE
  5
16DC2
  8
WAKU
  6
CONTINUOUS
 10
478.19810799250769
 20
502.20769199999989
 30
0.0
 11
478.66846999250782
 21
503.5
 31
0.0
  0
LINE
  5
16DC3
  8
WAKU
  6
CONTINUOUS
 10
478.19810799250769
 20
502.20769199999989
 30
0.0
 11
479.0058009925076
 21
502.20769199999989
 31
0.0
  0
LINE
  5
16DC4
  8
WAKU
  6
CONTINUOUS
 10
477.61015699250788
 20
500.592308
 30
0.0
 11
478.41784899250769
 21
500.592308
 31
0.0
  0
LINE
  5
16DC5
  8
WAKU
  6
CONTINUOUS
 10
478.41784899250769
 20
500.592308
 30
0.0
 11
479.0058009925076
 21
502.20769199999989
 31
0.0
  0
LINE
  5
16DC6
  8
WAKU
  6
CONTINUOUS
 10
480.23436399250761
 20
501.884615
 30
0.0
 11
481.3112869925078
 21
501.884615
 31
0.0
  0
LINE
  5
16DC7
  8
WAKU
  6
CONTINUOUS
 10
477.12118499250772
 20
502.20769199999989
 30
0.0
 11
477.59154699250757
 21
503.5
 31
0.0
  0
LINE
  5
16DC8
  8
WAKU
  6
CONTINUOUS
 10
487.2838549925076
 20
503.5
 30
0.0
 11
486.6567059925078
 21
501.77692299999978
 31
0.0
  0
LINE
  5
16DC9
  8
WAKU
  6
CONTINUOUS
 10
486.42152499250773
 20
501.13076899999987
 30
0.0
 11
485.95116399250759
 21
499.83846199999999
 31
0.0
  0
LINE
  5
16DCA
  8
WAKU
  6
CONTINUOUS
 10
483.46513299250768
 20
501.884615
 30
0.0
 11
484.54205699250792
 21
501.884615
 31
0.0
  0
LINE
  5
16DCB
  8
WAKU
  6
CONTINUOUS
 10
489.82769099250788
 20
498.65384599999999
 30
0.0
 11
491.59154699250757
 21
503.5
 31
0.0
  0
LINE
  5
16DCC
  8
WAKU
  6
CONTINUOUS
 10
490.12067799250792
 20
496.49999999999989
 30
0.0
 11
492.6684699925076
 21
503.5
 31
0.0
  0
LINE
  5
16DCD
  8
WAKU
  6
CONTINUOUS
 10
489.88747499250752
 20
501.77692299999978
 30
0.0
 11
490.51462399250772
 21
503.5
 31
0.0
  0
LINE
  5
16DCE
  8
WAKU
  6
CONTINUOUS
 10
491.59154699250757
 20
503.5
 30
0.0
 11
492.6684699925076
 21
503.5
 31
0.0
  0
LINE
  5
16DCF
  8
WAKU
  6
CONTINUOUS
 10
489.18193299250788
 20
499.83846199999999
 30
0.0
 11
489.65229399250791
 21
501.13076899999987
 31
0.0
  0
LINE
  5
16DD0
  8
WAKU
  6
CONTINUOUS
 10
450.49711599250787
 20
497.10779099999991
 30
0.0
 11
450.63529399250763
 21
496.82952599999987
 31
0.0
  0
LINE
  5
16DD1
  8
WAKU
  6
CONTINUOUS
 10
450.63529399250763
 20
496.82952599999987
 30
0.0
 11
450.86177899250788
 21
496.63466399999999
 31
0.0
  0
LINE
  5
16DD2
  8
WAKU
  6
CONTINUOUS
 10
450.86177899250788
 20
496.63466399999999
 30
0.0
 11
451.16825199250781
 21
496.53036100000003
 31
0.0
  0
LINE
  5
16DD3
  8
WAKU
  6
CONTINUOUS
 10
451.16825199250781
 20
496.53036100000003
 30
0.0
 11
451.54345699250791
 21
496.52044899999993
 31
0.0
  0
LINE
  5
16DD4
  8
WAKU
  6
CONTINUOUS
 10
451.54345699250791
 20
496.52044899999993
 30
0.0
 11
451.97361199250793
 21
496.60529100000002
 31
0.0
  0
LINE
  5
16DD5
  8
WAKU
  6
CONTINUOUS
 10
451.97361199250793
 20
496.60529100000002
 30
0.0
 11
452.44291799250692
 21
496.78177299999999
 31
0.0
  0
LINE
  5
16DD6
  8
WAKU
  6
CONTINUOUS
 10
452.44291799250692
 20
496.78177299999999
 30
0.0
 11
452.93413599250761
 21
497.04341099999999
 31
0.0
  0
LINE
  5
16DD7
  8
WAKU
  6
CONTINUOUS
 10
452.93413599250761
 20
497.04341099999999
 30
0.0
 11
453.42922599250772
 21
497.38059500000003
 31
0.0
  0
LINE
  5
16DD8
  8
WAKU
  6
CONTINUOUS
 10
453.42922599250772
 20
497.38059500000003
 30
0.0
 11
453.91000199250692
 21
497.78094099999981
 31
0.0
  0
LINE
  5
16DD9
  8
WAKU
  6
CONTINUOUS
 10
453.91000199250692
 20
497.78094099999981
 30
0.0
 11
454.35880499250692
 21
498.22974399999993
 31
0.0
  0
LINE
  5
16DDA
  8
WAKU
  6
CONTINUOUS
 10
454.35880499250692
 20
498.22974399999993
 30
0.0
 11
454.75915099250761
 21
498.71051999999997
 31
0.0
  0
LINE
  5
16DDB
  8
WAKU
  6
CONTINUOUS
 10
454.75915099250761
 20
498.71051999999997
 30
0.0
 11
455.09633499250759
 21
499.20560899999998
 31
0.0
  0
LINE
  5
16DDC
  8
WAKU
  6
CONTINUOUS
 10
455.09633499250759
 20
499.20560899999998
 30
0.0
 11
455.3579729925076
 21
499.69682799999993
 31
0.0
  0
LINE
  5
16DDD
  8
WAKU
  6
CONTINUOUS
 10
455.3579729925076
 20
499.69682799999993
 30
0.0
 11
455.53445399250791
 21
500.166134
 31
0.0
  0
LINE
  5
16DDE
  8
WAKU
  6
CONTINUOUS
 10
455.53445399250791
 20
500.166134
 30
0.0
 11
455.61929699250788
 21
500.59628899999979
 31
0.0
  0
LINE
  5
16DDF
  8
WAKU
  6
CONTINUOUS
 10
455.61929699250788
 20
500.59628899999979
 30
0.0
 11
455.60938499250773
 21
500.97149299999938
 31
0.0
  0
LINE
  5
16DE0
  8
WAKU
  6
CONTINUOUS
 10
455.60938499250773
 20
500.97149299999938
 30
0.0
 11
455.50508199250771
 21
501.27796699999988
 31
0.0
  0
LINE
  5
16DE1
  8
WAKU
  6
CONTINUOUS
 10
455.50508199250771
 20
501.27796699999988
 30
0.0
 11
455.31021899250788
 21
501.50445200000001
 31
0.0
  0
LINE
  5
16DE2
  8
WAKU
  6
CONTINUOUS
 10
455.31021899250788
 20
501.50445200000001
 30
0.0
 11
455.03195399250762
 21
501.64263
 31
0.0
  0
LINE
  5
16DE3
  8
WAKU
  6
CONTINUOUS
 10
454.58541099250778
 20
501.683944
 30
0.0
 11
454.15110599250778
 21
501.6080139999998
 31
0.0
  0
LINE
  5
16DE4
  8
WAKU
  6
CONTINUOUS
 10
454.15110599250778
 20
501.6080139999998
 30
0.0
 11
453.67410899250791
 21
501.43576799999988
 31
0.0
  0
LINE
  5
16DE5
  8
WAKU
  6
CONTINUOUS
 10
453.67410899250791
 20
501.43576799999988
 30
0.0
 11
453.17273899250779
 21
501.1738209999998
 31
0.0
  0
LINE
  5
16DE6
  8
WAKU
  6
CONTINUOUS
 10
453.17273899250779
 20
501.1738209999998
 30
0.0
 11
452.66625299250779
 21
500.83223499999991
 31
0.0
  0
LINE
  5
16DE7
  8
WAKU
  6
CONTINUOUS
 10
452.66625299250779
 20
500.83223499999991
 30
0.0
 11
452.17410199250742
 21
500.424128
 31
0.0
  0
LINE
  5
16DE8
  8
WAKU
  6
CONTINUOUS
 10
452.17410199250742
 20
500.424128
 30
0.0
 11
451.71518999250799
 21
499.96517399999999
 31
0.0
  0
LINE
  5
16DE9
  8
WAKU
  6
CONTINUOUS
 10
451.71518999250799
 20
499.96517399999999
 30
0.0
 11
451.30714099250793
 21
499.47300000000001
 31
0.0
  0
LINE
  5
16DEA
  8
WAKU
  6
CONTINUOUS
 10
451.30714099250793
 20
499.47300000000001
 30
0.0
 11
450.9656259925078
 21
498.96650899999992
 31
0.0
  0
LINE
  5
16DEB
  8
WAKU
  6
CONTINUOUS
 10
450.9656259925078
 20
498.96650899999992
 30
0.0
 11
450.70376299250768
 21
498.46515399999993
 31
0.0
  0
LINE
  5
16DEC
  8
WAKU
  6
CONTINUOUS
 10
450.70376299250768
 20
498.46515399999993
 30
0.0
 11
450.53160899250759
 21
497.98818899999992
 31
0.0
  0
LINE
  5
16DED
  8
WAKU
  6
CONTINUOUS
 10
450.53160899250759
 20
497.98818899999992
 30
0.0
 11
450.4557749925076
 21
497.55393500000002
 31
0.0
  0
LINE
  5
16DEE
  8
WAKU
  6
CONTINUOUS
 10
450.84138099250782
 20
497.45185599999991
 30
0.0
 11
451.34986499250812
 21
497.53919500000001
 31
0.0
  0
LINE
  5
16DEF
  8
WAKU
  6
CONTINUOUS
 10
451.34986499250812
 20
497.53919500000001
 30
0.0
 11
451.98073299250791
 21
497.81033200000002
 31
0.0
  0
LINE
  5
16DF0
  8
WAKU
  6
CONTINUOUS
 10
451.98073299250791
 20
497.81033200000002
 30
0.0
 11
452.65840999250798
 21
498.25143100000003
 31
0.0
  0
LINE
  5
16DF1
  8
WAKU
  6
CONTINUOUS
 10
452.65840999250798
 20
498.25143100000003
 30
0.0
 11
453.31476599250738
 21
498.82550599999979
 31
0.0
  0
LINE
  5
16DF2
  8
WAKU
  6
CONTINUOUS
 10
453.31476599250738
 20
498.82550599999979
 30
0.0
 11
453.88870799250742
 21
499.48192
 31
0.0
  0
LINE
  5
16DF3
  8
WAKU
  6
CONTINUOUS
 10
453.88870799250742
 20
499.48192
 30
0.0
 11
454.32982299250767
 21
500.15953400000001
 31
0.0
  0
LINE
  5
16DF4
  8
WAKU
  6
CONTINUOUS
 10
454.32982299250767
 20
500.15953400000001
 30
0.0
 11
454.60054099250772
 21
500.7904019999998
 31
0.0
  0
LINE
  5
16DF5
  8
WAKU
  6
CONTINUOUS
 10
454.60054099250772
 20
500.7904019999998
 30
0.0
 11
454.68769899250742
 21
501.29856899999987
 31
0.0
  0
LINE
  5
16DF6
  8
WAKU
  6
CONTINUOUS
 10
454.58541099250778
 20
501.683944
 30
0.0
 11
454.467617992508
 21
501.78192899999999
 31
0.0
  0
LINE
  5
16DF7
  8
WAKU
  6
CONTINUOUS
 10
454.467617992508
 20
501.78192899999999
 30
0.0
 11
454.26646599250779
 21
501.84090199999991
 31
0.0
  0
LINE
  5
16DF8
  8
WAKU
  6
CONTINUOUS
 10
454.26646599250779
 20
501.84090199999991
 30
0.0
 11
453.95932699250761
 21
501.83558099999988
 31
0.0
  0
LINE
  5
16DF9
  8
WAKU
  6
CONTINUOUS
 10
453.95932699250761
 20
501.83558099999988
 30
0.0
 11
453.56360999250779
 21
501.74006499999979
 31
0.0
  0
LINE
  5
16DFA
  8
WAKU
  6
CONTINUOUS
 10
453.56360999250779
 20
501.74006499999979
 30
0.0
 11
453.10870499250751
 21
501.54758499999991
 31
0.0
  0
LINE
  5
16DFB
  8
WAKU
  6
CONTINUOUS
 10
453.10870499250751
 20
501.54758499999991
 30
0.0
 11
452.6230569925076
 21
501.2642839999998
 31
0.0
  0
LINE
  5
16DFC
  8
WAKU
  6
CONTINUOUS
 10
452.6230569925076
 20
501.2642839999998
 30
0.0
 11
451.66456799250813
 21
500.47510799999998
 31
0.0
  0
LINE
  5
16DFD
  8
WAKU
  6
CONTINUOUS
 10
451.66456799250813
 20
500.47510799999998
 30
0.0
 11
450.8755049925075
 21
499.51657
 31
0.0
  0
LINE
  5
16DFE
  8
WAKU
  6
CONTINUOUS
 10
450.8755049925075
 20
499.51657
 30
0.0
 11
450.59198899250788
 21
499.03102799999999
 31
0.0
  0
LINE
  5
16DFF
  8
WAKU
  6
CONTINUOUS
 10
450.59198899250788
 20
499.03102799999999
 30
0.0
 11
450.39995999250772
 21
498.57602099999991
 31
0.0
  0
LINE
  5
16E00
  8
WAKU
  6
CONTINUOUS
 10
450.39995999250772
 20
498.57602099999991
 30
0.0
 11
450.30416599250799
 21
498.18040400000001
 31
0.0
  0
LINE
  5
16E01
  8
WAKU
  6
CONTINUOUS
 10
450.30416599250799
 20
498.18040400000001
 30
0.0
 11
450.29882799250743
 21
497.87308699999988
 31
0.0
  0
LINE
  5
16E02
  8
WAKU
  6
CONTINUOUS
 10
450.29882799250743
 20
497.87308699999988
 30
0.0
 11
450.35762499250791
 21
497.67243499999989
 31
0.0
  0
LINE
  5
16E03
  8
WAKU
  6
CONTINUOUS
 10
450.35762499250791
 20
497.67243499999989
 30
0.0
 11
450.4557749925076
 21
497.55393500000002
 31
0.0
  0
LINE
  5
16E04
  8
WAKU
  6
CONTINUOUS
 10
450.94364699250781
 20
497.06647600000002
 30
0.0
 11
451.06139699250792
 21
496.96856799999989
 31
0.0
  0
LINE
  5
16E05
  8
WAKU
  6
CONTINUOUS
 10
451.06139699250792
 20
496.96856799999989
 30
0.0
 11
451.26264699250771
 21
496.90949799999999
 31
0.0
  0
LINE
  5
16E06
  8
WAKU
  6
CONTINUOUS
 10
451.26264699250771
 20
496.90949799999999
 30
0.0
 11
451.56976399250772
 21
496.91486299999991
 31
0.0
  0
LINE
  5
16E07
  8
WAKU
  6
CONTINUOUS
 10
451.56976399250772
 20
496.91486299999991
 30
0.0
 11
451.96545399250778
 21
497.01036800000003
 31
0.0
  0
LINE
  5
16E08
  8
WAKU
  6
CONTINUOUS
 10
451.96545399250778
 20
497.01036800000003
 30
0.0
 11
452.42035199250779
 21
497.20279799999997
 31
0.0
  0
LINE
  5
16E09
  8
WAKU
  6
CONTINUOUS
 10
452.42035199250779
 20
497.20279799999997
 30
0.0
 11
452.90596699250779
 21
497.48611699999992
 31
0.0
  0
LINE
  5
16E0A
  8
WAKU
  6
CONTINUOUS
 10
452.90596699250779
 20
497.48611699999992
 30
0.0
 11
453.86443499250743
 21
498.27523200000002
 31
0.0
  0
LINE
  5
16E0B
  8
WAKU
  6
CONTINUOUS
 10
453.86443499250743
 20
498.27523200000002
 30
0.0
 11
454.6535199925076
 21
499.23371799999978
 31
0.0
  0
LINE
  5
16E0C
  8
WAKU
  6
CONTINUOUS
 10
454.6535199925076
 20
499.23371799999978
 30
0.0
 11
454.93697699250743
 21
499.7192779999998
 31
0.0
  0
LINE
  5
16E0D
  8
WAKU
  6
CONTINUOUS
 10
454.93697699250743
 20
499.7192779999998
 30
0.0
 11
455.12917999250777
 21
500.17424799999981
 31
0.0
  0
LINE
  5
16E0E
  8
WAKU
  6
CONTINUOUS
 10
455.12917999250777
 20
500.17424799999981
 30
0.0
 11
455.22483099250792
 21
500.56986399999988
 31
0.0
  0
LINE
  5
16E0F
  8
WAKU
  6
CONTINUOUS
 10
455.22483099250792
 20
500.56986399999988
 30
0.0
 11
455.2302719925076
 21
500.877253
 31
0.0
  0
LINE
  5
16E10
  8
WAKU
  6
CONTINUOUS
 10
455.2302719925076
 20
500.877253
 30
0.0
 11
455.17142099250788
 21
501.07791799999978
 31
0.0
  0
LINE
  5
16E11
  8
WAKU
  6
CONTINUOUS
 10
455.17142099250788
 20
501.07791799999978
 30
0.0
 11
455.07327999250788
 21
501.19624900000002
 31
0.0
  0
LINE
  5
16E12
  8
WAKU
  6
CONTINUOUS
 10
454.68769899250742
 20
501.29856899999987
 30
0.0
 11
454.17920799250783
 21
501.21123999999992
 31
0.0
  0
LINE
  5
16E13
  8
WAKU
  6
CONTINUOUS
 10
454.17920799250783
 20
501.21123999999992
 30
0.0
 11
453.54834799250813
 21
500.94005700000002
 31
0.0
  0
LINE
  5
16E14
  8
WAKU
  6
CONTINUOUS
 10
453.54834799250813
 20
500.94005700000002
 30
0.0
 11
452.87065099250742
 21
500.49899099999988
 31
0.0
  0
LINE
  5
16E15
  8
WAKU
  6
CONTINUOUS
 10
452.87065099250742
 20
500.49899099999988
 30
0.0
 11
452.21429699250751
 21
499.924893
 31
0.0
  0
LINE
  5
16E16
  8
WAKU
  6
CONTINUOUS
 10
452.21429699250751
 20
499.924893
 30
0.0
 11
451.64036599250772
 21
499.26847099999981
 31
0.0
  0
LINE
  5
16E17
  8
WAKU
  6
CONTINUOUS
 10
451.64036599250772
 20
499.26847099999981
 30
0.0
 11
451.19918199250782
 21
498.59087499999998
 31
0.0
  0
LINE
  5
16E18
  8
WAKU
  6
CONTINUOUS
 10
451.19918199250782
 20
498.59087499999998
 30
0.0
 11
450.92863799250779
 21
497.959969
 31
0.0
  0
LINE
  5
16E19
  8
WAKU
  6
CONTINUOUS
 10
450.92863799250779
 20
497.959969
 30
0.0
 11
450.84138099250782
 21
497.45185599999991
 31
0.0
  0
LINE
  5
16E1A
  8
WAKU
  6
CONTINUOUS
 10
450.94364699250781
 20
497.06647600000002
 30
0.0
 11
451.37792799250792
 21
497.14239700000002
 31
0.0
  0
LINE
  5
16E1B
  8
WAKU
  6
CONTINUOUS
 10
451.37792799250792
 20
497.14239700000002
 30
0.0
 11
451.85489799250757
 21
497.31462499999998
 31
0.0
  0
LINE
  5
16E1C
  8
WAKU
  6
CONTINUOUS
 10
451.85489799250757
 20
497.31462499999998
 30
0.0
 11
452.35623999250743
 21
497.57654499999978
 31
0.0
  0
LINE
  5
16E1D
  8
WAKU
  6
CONTINUOUS
 10
452.35623999250743
 20
497.57654499999978
 30
0.0
 11
452.86270199250799
 21
497.91809899999993
 31
0.0
  0
LINE
  5
16E1E
  8
WAKU
  6
CONTINUOUS
 10
452.86270199250799
 20
497.91809899999993
 30
0.0
 11
453.3548329925078
 21
498.32617099999987
 31
0.0
  0
LINE
  5
16E1F
  8
WAKU
  6
CONTINUOUS
 10
453.3548329925078
 20
498.32617099999987
 30
0.0
 11
453.81373599250742
 21
498.7850889999998
 31
0.0
  0
LINE
  5
16E20
  8
WAKU
  6
CONTINUOUS
 10
453.81373599250742
 20
498.7850889999998
 30
0.0
 11
454.22178599250759
 21
499.27722899999992
 31
0.0
  0
LINE
  5
16E21
  8
WAKU
  6
CONTINUOUS
 10
454.22178599250759
 20
499.27722899999992
 30
0.0
 11
454.56331299250769
 21
499.78369300000003
 31
0.0
  0
LINE
  5
16E22
  8
WAKU
  6
CONTINUOUS
 10
454.56331299250769
 20
499.78369300000003
 30
0.0
 11
454.82520199250791
 21
500.28503000000001
 31
0.0
  0
LINE
  5
16E23
  8
WAKU
  6
CONTINUOUS
 10
454.82520199250791
 20
500.28503000000001
 30
0.0
 11
454.99739499250791
 21
500.76198699999998
 31
0.0
  0
LINE
  5
16E24
  8
WAKU
  6
CONTINUOUS
 10
454.99739499250791
 20
500.76198699999998
 30
0.0
 11
455.07327999250788
 21
501.19624900000002
 31
0.0
  0
LINE
  5
16E25
  8
WAKU
  6
CONTINUOUS
 10
455.03195399250762
 20
501.64263
 30
0.0
 11
454.8937759925077
 21
501.92089499999992
 31
0.0
  0
LINE
  5
16E26
  8
WAKU
  6
CONTINUOUS
 10
454.8937759925077
 20
501.92089499999992
 30
0.0
 11
454.66729099250767
 21
502.1157569999998
 31
0.0
  0
LINE
  5
16E27
  8
WAKU
  6
CONTINUOUS
 10
454.66729099250767
 20
502.1157569999998
 30
0.0
 11
454.36081799250792
 21
502.22005999999988
 31
0.0
  0
LINE
  5
16E28
  8
WAKU
  6
CONTINUOUS
 10
454.36081799250792
 20
502.22005999999988
 30
0.0
 11
453.9856129925077
 21
502.22997199999992
 31
0.0
  0
LINE
  5
16E29
  8
WAKU
  6
CONTINUOUS
 10
453.9856129925077
 20
502.22997199999992
 30
0.0
 11
453.55545799250763
 21
502.14512899999988
 31
0.0
  0
LINE
  5
16E2A
  8
WAKU
  6
CONTINUOUS
 10
453.55545799250763
 20
502.14512899999988
 30
0.0
 11
453.08615299250761
 21
501.9686479999998
 31
0.0
  0
LINE
  5
16E2B
  8
WAKU
  6
CONTINUOUS
 10
453.08615299250761
 20
501.9686479999998
 30
0.0
 11
452.59493399250778
 21
501.7070099999998
 31
0.0
  0
LINE
  5
16E2C
  8
WAKU
  6
CONTINUOUS
 10
452.59493399250778
 20
501.7070099999998
 30
0.0
 11
452.09984399250789
 21
501.36982599999988
 31
0.0
  0
LINE
  5
16E2D
  8
WAKU
  6
CONTINUOUS
 10
452.09984399250789
 20
501.36982599999988
 30
0.0
 11
451.61906899250761
 21
500.96947999999998
 31
0.0
  0
LINE
  5
16E2E
  8
WAKU
  6
CONTINUOUS
 10
451.61906899250761
 20
500.96947999999998
 30
0.0
 11
451.17026499250761
 21
500.52067699999998
 31
0.0
  0
LINE
  5
16E2F
  8
WAKU
  6
CONTINUOUS
 10
451.17026499250761
 20
500.52067699999998
 30
0.0
 11
450.76991899250743
 21
500.03990099999987
 31
0.0
  0
LINE
  5
16E30
  8
WAKU
  6
CONTINUOUS
 10
450.76991899250743
 20
500.03990099999987
 30
0.0
 11
450.43273499250779
 21
499.54481199999981
 31
0.0
  0
LINE
  5
16E31
  8
WAKU
  6
CONTINUOUS
 10
450.43273499250779
 20
499.54481199999981
 30
0.0
 11
450.17109699250773
 21
499.05359299999998
 31
0.0
  0
LINE
  5
16E32
  8
WAKU
  6
CONTINUOUS
 10
450.17109699250773
 20
499.05359299999998
 30
0.0
 11
449.99461599250782
 21
498.58428699999979
 31
0.0
  0
LINE
  5
16E33
  8
WAKU
  6
CONTINUOUS
 10
449.99461599250782
 20
498.58428699999979
 30
0.0
 11
449.90977299250773
 21
498.15413199999989
 31
0.0
  0
LINE
  5
16E34
  8
WAKU
  6
CONTINUOUS
 10
449.90977299250773
 20
498.15413199999989
 30
0.0
 11
449.91968499250788
 21
497.77892800000001
 31
0.0
  0
LINE
  5
16E35
  8
WAKU
  6
CONTINUOUS
 10
449.91968499250788
 20
497.77892800000001
 30
0.0
 11
450.02398799250778
 21
497.47245400000003
 31
0.0
  0
LINE
  5
16E36
  8
WAKU
  6
CONTINUOUS
 10
450.02398799250778
 20
497.47245400000003
 30
0.0
 11
450.21885099250773
 21
497.245969
 31
0.0
  0
LINE
  5
16E37
  8
WAKU
  6
CONTINUOUS
 10
450.21885099250773
 20
497.245969
 30
0.0
 11
450.49711599250787
 21
497.10779099999991
 31
0.0
  0
INSERT
  5
16E38
  8
WAKU
  6
CONTINUOUS
  2
*U2
 10
80.66846999250788
 20
213.0
 30
0.0
1001
ACAD
1002
{
1000
R14_HATCH_DATA
1000
D6F
1011
81.66846999250788
1021
0.0
1031
0.0
1021
213.0
1031
0.0
1011
80.66846999250788
1021
0.0
1031
0.0
1021
214.0
1031
0.0
1011
80.66846999250788
1021
0.0
1031
0.0
1021
213.0
1031
1.0
1040
0.0
1010
0.0
1020
0.0
1030
1.0
1000
SOLID
1070
     1
1070
     1
1071
       15
1071
        7
1070
     0
1070
     1
1071
        3
1040
372.24905299999989
1040
290.5
1040
367.97127599999999
1040
290.5
1040
367.97127599999999
1040
286.22222199999982
1071
        3
1005
CC0
1005
CC2
1005
CC1
1071
        7
1070
     0
1070
     1
1071
       38
1040
373.99882100000002
1040
289.11575699999992
1040
373.69234799999992
1040
289.22005999999982
1040
373.31714299999999
1040
289.22997199999998
1040
372.88698799999992
1040
289.145129
1040
372.41768300000001
1040
288.96864799999992
1040
371.92646400000001
1040
288.70701000000003
1040
371.43137400000001
1040
288.36982599999999
1040
370.95059900000001
1040
287.96947999999992
1040
370.50179500000002
1040
287.52067699999992
1040
370.10144899999989
1040
287.03990099999982
1040
369.76426499999991
1040
286.54481199999992
1040
369.50262700000002
1040
286.05359299999992
1040
369.32614599999988
1040
285.58428700000002
1040
369.24130299999962
1040
285.15413199999989
1040
369.251215
1040
284.77892800000001
1040
369.35551800000002
1040
284.47245400000008
1040
369.55038100000002
1040
284.245969
1040
369.82864599999988
1040
284.10779100000002
1040
369.96682399999992
1040
283.82952599999982
1040
370.193309
1040
283.63466399999999
1040
370.49978199999993
1040
283.53036100000003
1040
370.87498699999992
1040
283.52044899999993
1040
371.30514199999988
1040
283.60529100000002
1040
371.77444800000001
1040
283.78177299999987
1040
372.26566600000001
1040
284.04341099999982
1040
372.76075600000001
1040
284.38059500000008
1040
373.24153200000001
1040
284.78094099999993
1040
373.69033499999989
1040
285.22974399999998
1040
374.09068100000002
1040
285.71051999999992
1040
374.427865
1040
286.20560899999992
1040
374.689503
1040
286.69682799999998
1040
374.86598399999991
1040
287.166134
1040
374.950827
1040
287.59628900000001
1040
374.94091500000002
1040
287.97149300000001
1040
374.836612
1040
288.27796699999999
1040
374.641749
1040
288.50445200000001
1040
374.36348399999991
1040
288.64263
1040
374.22530599999988
1040
288.92089499999997
1071
       38
1005
D5D
1005
D5E
1005
D5F
1005
D60
1005
D61
1005
D62
1005
D63
1005
D64
1005
D65
1005
D66
1005
D67
1005
D68
1005
D69
1005
D6A
1005
D6B
1005
D6C
1005
D6D
1005
D6E
1005
D07
1005
D08
1005
D09
1005
D0A
1005
D0B
1005
D0C
1005
D0D
1005
D0E
1005
D0F
1005
D10
1005
D11
1005
D12
1005
D13
1005
D14
1005
D15
1005
D16
1005
D17
1005
D18
1005
D19
1005
D5C
1071
       22
1070
     0
1070
     1
1071
       25
1040
373.799148
1040
288.78192899999988
1040
373.91694100000001
1040
288.683944
1040
373.48263600000001
1040
288.60801400000003
1040
373.00563899999992
1040
288.43576799999988
1040
372.50426900000002
1040
288.17382099999992
1040
371.99778300000003
1040
287.83223500000003
1040
371.50563199999988
1040
287.424128
1040
371.04671999999999
1040
286.96517399999999
1040
370.63867099999987
1040
286.47300000000001
1040
370.29715599999992
1040
285.96650899999992
1040
370.03529300000002
1040
285.46515399999993
1040
369.86313899999999
1040
284.98818899999992
1040
369.787305
1040
284.55393500000002
1040
369.68915499999991
1040
284.67243500000001
1040
369.63035799999989
1040
284.873087
1040
369.635696
1040
285.18040400000001
1040
369.73149000000001
1040
285.57602099999991
1040
369.923519
1040
286.03102799999982
1040
370.20703500000002
1040
286.51657
1040
370.99609800000002
1040
287.47510799999992
1040
371.954587
1040
288.26428399999992
1040
372.44023499999992
1040
288.54758500000003
1040
372.89513999999991
1040
288.74006500000002
1040
373.29085699999962
1040
288.83558099999982
1040
373.59799600000002
1040
288.84090200000003
1071
       25
1005
D2D
1005
D1A
1005
D1B
1005
D1C
1005
D1D
1005
D1E
1005
D1F
1005
D20
1005
D21
1005
D22
1005
D23
1005
D24
1005
D3A
1005
D39
1005
D38
1005
D37
1005
D36
1005
D35
1005
D34
1005
D33
1005
D32
1005
D31
1005
D30
1005
D2F
1005
D2E
1071
       22
1070
     0
1070
     1
1071
       16
1040
374.01922899999988
1040
288.29856899999982
1040
373.93207100000001
1040
287.79040199999992
1040
373.66135299999991
1040
287.15953400000001
1040
373.22023799999988
1040
286.48191999999989
1040
372.64629600000001
1040
285.82550600000002
1040
371.98993999999999
1040
285.25143100000003
1040
371.31226299999992
1040
284.81033199999962
1040
370.68139500000001
1040
284.53919500000001
1040
370.172911
1040
284.45185600000002
1040
370.26016800000002
1040
284.959969
1040
370.53071199999999
1040
285.59087499999993
1040
370.97189600000002
1040
286.26847099999992
1040
371.54582699999992
1040
286.92489299999988
1040
372.202181
1040
287.49899099999999
1040
372.87987799999991
1040
287.94005699999991
1040
373.510738
1040
288.21123999999998
1071
       16
1005
D2C
1005
D2B
1005
D2A
1005
D29
1005
D28
1005
D27
1005
D26
1005
D25
1005
D50
1005
D4F
1005
D4E
1005
D4D
1005
D4C
1005
D4B
1005
D4A
1005
D49
1071
       22
1070
     0
1070
     1
1071
       25
1040
374.40481
1040
288.19624900000002
1040
374.502951
1040
288.07791800000001
1040
374.561802
1040
287.87725299999983
1040
374.55636099999998
1040
287.56986399999988
1040
374.46071000000001
1040
287.17424799999992
1040
374.268507
1040
286.71927799999992
1040
373.98505
1040
286.23371800000001
1040
373.195965
1040
285.2752319999999
1040
372.23749700000002
1040
284.48611699999992
1040
371.75188199999991
1040
284.20279799999992
1040
371.2969839999991
1040
284.01036800000003
1040
370.90129400000001
1040
283.91486300000003
1040
370.59417699999989
1040
283.90949799999999
1040
370.39292699999987
1040
283.968568
1040
370.27517699999993
1040
284.06647599999991
1040
370.70945799999993
1040
284.14239700000002
1040
371.18642799999992
1040
284.31462499999992
1040
371.68776999999989
1040
284.57654500000001
1040
372.194232
1040
284.91809899999993
1040
372.68636299999991
1040
285.32617099999982
1040
373.14526599999988
1040
285.78508900000003
1040
373.553316
1040
286.27722899999992
1040
373.89484299999992
1040
286.78369300000008
1040
374.15673199999992
1040
287.28502999999989
1040
374.32892500000003
1040
287.76198699999992
1071
       25
1005
D48
1005
D47
1005
D46
1005
D45
1005
D44
1005
D43
1005
D42
1005
D41
1005
D40
1005
D3F
1005
D3E
1005
D3D
1005
D3C
1005
D3B
1005
D51
1005
D52
1005
D53
1005
D54
1005
D55
1005
D56
1005
D57
1005
D58
1005
D59
1005
D5A
1005
D5B
1071
        7
1070
     0
1070
     1
1071
       14
1040
378.72307699999988
1040
290.5
1040
378.09592799999979
1040
288.7769229999999
1040
380.31131299999993
1040
288.7769229999999
1040
377.15520499999991
1040
286.19230800000003
1040
376.17528499999992
1040
283.49999999999989
1040
379.39714500000002
1040
286.13846199999989
1040
378.436824
1040
283.49999999999989
1040
379.51374700000002
1040
283.49999999999989
1040
380.49366700000002
1040
286.19230800000003
1040
381.775285
1040
283.49999999999989
1040
382.75520499999988
1040
286.19230800000003
1040
381.52485099999961
1040
288.7769229999999
1040
383.69592799999992
1040
288.7769229999999
1040
384.32307700000001
1040
290.5
1071
       14
1005
CC4
1005
CCF
1005
CCE
1005
CC5
1005
CC7
1005
CC8
1005
CCD
1005
CCC
1005
CCB
1005
CCA
1005
CC9
1005
CC6
1005
CC3
1005
CDC
1071
        7
1070
     0
1070
     1
1071
        4
1040
385.615385
1040
290.5
1040
384.98823599999992
1040
288.7769229999999
1040
390.37285099999991
1040
288.7769229999999
1040
391.0
1040
290.5
1071
        4
1005
CDA
1005
CDB
1005
CD9
1005
CE3
1071
        7
1070
     0
1070
     1
1071
        4
1040
388.45220799999993
1040
283.49999999999989
1040
389.23614399999991
1040
285.65384599999987
1040
383.85152900000003
1040
285.65384599999987
1040
383.06759299999987
1040
283.49999999999989
1071
        4
1005
CD3
1005
CD4
1005
CD5
1005
CD2
1071
        7
1070
     0
1070
     1
1071
       22
1040
395.45220799999993
1040
283.49999999999989
1040
396.941687
1040
287.592308
1040
397.74937899999998
1040
287.592308
1040
398.33733100000001
1040
289.20769200000001
1040
397.52963799999992
1040
289.20769200000001
1040
398.0
1040
290.5
1040
396.92307699999992
1040
290.5
1040
396.45271500000001
1040
289.20769200000001
1040
393.76040799999993
1040
289.20769200000001
1040
394.23076900000001
1040
290.5
1040
393.15384599999999
1040
290.5
1040
392.68348500000002
1040
289.20769200000001
1040
391.87579199999999
1040
289.20769200000001
1040
391.28784000000002
1040
287.592308
1040
392.09553299999988
1040
287.592308
1040
391.70356499999991
1040
286.51538499999998
1040
392.78048799999999
1040
286.51538499999998
1040
393.17245600000001
1040
287.592308
1040
395.86476299999993
1040
287.592308
1040
395.159221
1040
285.65384599999987
1040
391.17460599999998
1040
285.65384599999987
1040
390.39067
1040
283.49999999999989
1071
       22
1005
CFB
1005
CFC
1005
CFA
1005
CF9
1005
CF8
1005
CFE
1005
CBC
1005
CDE
1005
CDD
1005
CE2
1005
CDF
1005
CE1
1005
CE0
1005
CD1
1005
CD7
1005
CD0
1005
CBD
1005
CBF
1005
CD6
1005
CD8
1005
CBE
1005
CF0
1071
        7
1070
     0
1070
     1
1071
        6
1040
398.19400599999989
1040
285.115385
1040
397.60605499999991
1040
283.49999999999989
1040
401.913747
1040
283.49999999999989
1040
403.87358699999999
1040
288.884615
1040
402.7966629999998
1040
288.884615
1040
401.42477599999989
1040
285.115385
1071
        6
1005
D01
1005
CEF
1005
CF3
1005
CF4
1005
CF1
1005
CEE
1071
       23
1070
     0
1070
     1
1071
        4
1040
402.04281700000001
1040
288.884615
1040
400.96589399999988
1040
288.884615
1040
400.18195800000001
1040
286.73076900000001
1040
401.25888099999992
1040
286.73076900000001
1071
        4
1005
CF7
1005
CEB
1005
CF5
1005
CED
1071
       23
1070
     0
1070
     1
1071
        4
1040
400.64281699999992
1040
288.884615
1040
399.56589400000001
1040
288.884615
1040
398.78195799999997
1040
286.73076900000001
1040
399.858881
1040
286.73076900000001
1071
        4
1005
CFD
1005
CEA
1005
CF2
1005
CEC
1071
       23
1070
     0
1070
     1
1071
        4
1040
406.615385
1040
290.5
1040
405.98823599999992
1040
288.7769229999999
1040
409.21900499999998
1040
288.7769229999999
1040
409.84615400000001
1040
290.5
1071
        4
1005
CE9
1005
CFF
1005
CE8
1005
D04
1071
       23
1070
     0
1070
     1
1071
        4
1040
405.75305500000002
1040
288.13076899999982
1040
405.28269399999999
1040
286.83846199999999
1040
408.51346299999989
1040
286.83846199999999
1040
408.98382400000003
1040
288.13076899999982
1071
        4
1005
CE4
1005
D00
1005
CE5
1005
D06
1071
        7
1070
     0
1070
     1
1071
        6
1040
409.45220799999993
1040
283.49999999999989
1040
412.0
1040
290.5
1040
410.92307699999992
1040
290.5
1040
409.15922099999989
1040
285.65384599999987
1040
404.85152900000003
1040
285.65384599999987
1040
404.06759299999987
1040
283.49999999999989
1071
        6
1005
D05
1005
D02
1005
CE7
1005
CF6
1005
CE6
1005
D03
1070
     0
1070
     1
1040
0.054099
1071
       15
1040
371.24837300000002
1040
289.88140899999991
1040
0.0
1040
373.90111799999988
1040
288.90763299999992
1040
0.0
1040
373.90111799999988
1040
288.90763299999992
1040
0.0
1040
373.90111799999988
1040
288.90763299999992
1040
0.0
1040
373.90111799999988
1040
288.90763299999992
1040
0.0
1040
380.34350000000001
1040
289.82731000000001
1040
0.0
1040
388.24759699999993
1040
289.66501399999993
1040
0.0
1040
386.51519200000001
1040
284.14694900000001
1040
0.0
1040
392.57860899999991
1040
284.25514599999991
1040
0.0
1040
400.53684500000003
1040
284.30924499999992
1040
0.0
1040
401.02408299999979
1040
287.55516599999982
1040
0.0
1040
399.72478000000001
1040
287.60926399999988
1040
0.0
1040
407.35818899999981
1040
289.98960599999992
1040
0.0
1040
407.141639
1040
287.50106699999992
1040
0.0
1040
407.19577600000002
1040
284.471541
1040
0.0
1002
}
  0
LINE
  5
16E39
  8
WAKU
 10
5.0
 20
505.0
 30
0.0
 11
500.0
 21
505.0
 31
0.0
  0
LINE
  5
16E3A
  8
SUNPO
  6
CONTINUOUS
 10
247.04300951949139
 20
280.42584761861241
 30
0.0
 11
242.71300951949141
 21
277.92584761861241
 31
0.0
  0
LINE
  5
16E3B
  8
SUNPO
  6
CONTINUOUS
 10
242.71300951949141
 20
277.92584761861241
 30
0.0
 11
247.04300951949139
 21
275.42584761861229
 31
0.0
  0
LINE
  5
16E3C
  8
SUNPO
  6
CONTINUOUS
 10
432.11300951949153
 20
277.92584761861241
 30
0.0
 11
243.11300951949141
 21
277.92584761861241
 31
0.0
  0
LINE
  5
16E3D
  8
DANMEN
  6
CONTINUOUS
 10
240.11300951949141
 20
385.92584761861229
 30
0.0
 11
322.61300951949141
 21
385.92584761861229
 31
0.0
  0
LINE
  5
16E3E
  8
DANMEN
  6
CONTINUOUS
 10
240.11300951949141
 20
381.92584761861229
 30
0.0
 11
322.61300951949141
 21
381.92584761861229
 31
0.0
  0
LINE
  5
16E3F
  8
DANMEN
  6
CONTINUOUS
 10
240.11300951949141
 20
386.92584761861229
 30
0.0
 11
322.61300951949141
 21
386.92584761861229
 31
0.0
  0
LINE
  5
16E40
  8
DANMEN
  6
CONTINUOUS
 10
240.11300951949141
 20
380.92584761861229
 30
0.0
 11
322.61300951949141
 21
380.92584761861229
 31
0.0
  0
LINE
  5
16E41
  8
DANMEN
  6
CONTINUOUS
 10
240.11300951949141
 20
392.92584761861229
 30
0.0
 11
312.61300951949141
 21
392.92584761861229
 31
0.0
  0
LINE
  5
16E42
  8
DANMEN
  6
CONTINUOUS
 10
240.11300951949141
 20
323.92584761861229
 30
0.0
 11
290.11300951949141
 21
323.92584761861229
 31
0.0
  0
LINE
  5
16E43
  8
DANMEN
  6
CONTINUOUS
 10
290.11300951949141
 20
327.92584761861229
 30
0.0
 11
240.11300951949141
 21
327.92584761861229
 31
0.0
  0
LINE
  5
16E44
  8
DANMEN
  6
CONTINUOUS
 10
290.11300951949141
 20
374.92584761861229
 30
0.0
 11
240.11300951949141
 21
374.92584761861229
 31
0.0
  0
LINE
  5
16E45
  8
DANMEN
  6
CONTINUOUS
 10
240.11300951949141
 20
402.92584761861229
 30
0.0
 11
337.61300951949141
 21
402.92584761861229
 31
0.0
  0
LINE
  5
16E46
  8
DANMEN
  6
CONTINUOUS
 10
240.11300951949141
 20
302.92584761861229
 30
0.0
 11
435.1130095194913
 21
302.92584761861229
 31
0.0
  0
LINE
  5
16E47
  8
DANMEN
  6
CONTINUOUS
 10
240.11300951949141
 20
329.92584761861229
 30
0.0
 11
287.61300951949141
 21
329.92584761861229
 31
0.0
  0
LINE
  5
16E48
  8
SUNPO
  6
CONTINUOUS
 10
212.61300951949141
 20
411.42584761861229
 30
0.0
 11
212.61300951949141
 21
313.92584761861229
 31
0.0
  0
LINE
  5
16E49
  8
SUNPO
  6
CONTINUOUS
 10
202.61300951949141
 20
338.92584761861229
 30
0.0
 11
202.61300951949141
 21
306.42584761861229
 31
0.0
  0
LINE
  5
16E4A
  8
SUNPO
  6
CONTINUOUS
 10
147.11300951949141
 20
333.92584761861229
 30
0.0
 11
147.11300951949141
 21
338.92584761861229
 31
0.0
  0
ARC
  5
16E4B
  8
DANMEN
  6
CONTINUOUS
 10
159.11300951949141
 20
338.42584761861229
 30
0.0
 40
0.5
 50
0.0
 51
90.0
  0
ARC
  5
16E4C
  8
DANMEN
  6
CONTINUOUS
 10
158.11300951949141
 20
338.42584761861229
 30
0.0
 40
0.5
 50
90.0
 51
180.0
  0
LINE
  5
16E4D
  8
DANMEN
  6
CONTINUOUS
 10
112.6130095194914
 20
333.92584761861229
 30
0.0
 11
112.6130095194914
 21
353.92584761861229
 31
0.0
  0
LINE
  5
16E4E
  8
DANMEN
  6
CONTINUOUS
 10
94.613009519491442
 20
301.42584761861229
 30
0.0
 11
94.613009519491442
 21
353.92584761861229
 31
0.0
  0
LINE
  5
16E4F
  8
DANMEN
  6
CONTINUOUS
 10
84.613009519491456
 20
300.42584761861229
 30
0.0
 11
84.613009519491456
 21
353.92584761861229
 31
0.0
  0
LINE
  5
16E50
  8
DANMEN
  6
CONTINUOUS
 10
184.61300951949141
 20
306.42584761861229
 30
0.0
 11
184.61300951949141
 21
353.92584761861229
 31
0.0
  0
LINE
  5
16E51
  8
DANMEN
  6
CONTINUOUS
 10
100.6130095194913
 20
290.92584761861229
 30
0.0
 11
100.6130095194913
 21
353.92584761861229
 31
0.0
  0
LINE
  5
16E52
  8
DANMEN
  6
CONTINUOUS
 10
106.6130095194913
 20
290.92584761861229
 30
0.0
 11
106.6130095194913
 21
353.92584761861229
 31
0.0
  0
LINE
  5
16E53
  8
DANMEN
  6
CONTINUOUS
 10
101.6130095194913
 20
290.92584761861229
 30
0.0
 11
101.6130095194913
 21
353.92584761861229
 31
0.0
  0
LINE
  5
16E54
  8
DANMEN
  6
CONTINUOUS
 10
105.6130095194913
 20
290.92584761861229
 30
0.0
 11
105.6130095194913
 21
353.92584761861229
 31
0.0
  0
LINE
  5
16E55
  8
DANMEN
  6
CONTINUOUS
 10
163.61300951949141
 20
306.42584761861229
 30
0.0
 11
163.61300951949141
 21
353.92584761861229
 31
0.0
  0
LINE
  5
16E56
  8
DANMEN
  6
CONTINUOUS
 10
92.613009519491484
 20
301.42584761861229
 30
0.0
 11
92.613009519491484
 21
353.92584761861229
 31
0.0
  0
LINE
  5
16E57
  8
DANMEN
  6
CONTINUOUS
 10
182.11300951949141
 20
306.42584761861229
 30
0.0
 11
182.11300951949141
 21
353.92584761861229
 31
0.0
  0
TEXT
  5
16E58
  8
SUNPO
  6
CONTINUOUS
 10
110.029676186158
 20
232.42584761861241
 30
0.0
 40
2.5
  1
55
  7
MX_NOTE_STANDARD
  0
LINE
  5
16E59
  8
SUNPO
  6
CONTINUOUS
 10
139.61300951949141
 20
231.42584761861241
 30
0.0
 11
84.613009519491456
 21
231.42584761861241
 31
0.0
  0
LINE
  5
16E5A
  8
SUNPO
  6
CONTINUOUS
 10
138.11300951949141
 20
236.42584761861241
 30
0.0
 11
64.613009519491428
 21
236.42584761861241
 31
0.0
  0
LINE
  5
16E5B
  8
SUNPO
  6
CONTINUOUS
 10
117.1130095194913
 20
262.92584761861229
 30
0.0
 11
74.613009519491428
 21
262.92584761861229
 31
0.0
  0
LINE
  5
16E5C
  8
DANMEN
  6
CONTINUOUS
 10
118.6130095194914
 20
261.27384761861242
 30
0.0
 11
111.8690095194913
 21
260.9768476186124
 31
0.0
  0
LINE
  5
16E5D
  8
DANMEN
  6
CONTINUOUS
 10
118.6130095194914
 20
262.92584761861229
 30
0.0
 11
85.091009519491479
 21
261.44684761861242
 31
0.0
  0
LINE
  5
16E5E
  8
DANMEN
  6
CONTINUOUS
 10
85.11300951949147
 20
246.42584761861229
 30
0.0
 11
139.61300951949141
 21
246.42584761861229
 31
0.0
  0
LINE
  5
16E5F
  8
DANMEN
  6
CONTINUOUS
 10
86.263009519491447
 20
248.07584761861241
 30
0.0
 11
118.6130095194914
 21
248.07584761861241
 31
0.0
  0
LINE
  5
16E60
  8
DANMEN
  6
CONTINUOUS
 10
112.6130095194914
 20
333.66084761861231
 30
0.0
 11
112.29600951949141
 21
333.97884761861229
 31
0.0
  0
LINE
  5
16E61
  8
DANMEN
  6
CONTINUOUS
 10
112.6130095194914
 20
330.83284761861228
 30
0.0
 11
108.9010095194914
 21
334.54484761861238
 31
0.0
  0
LINE
  5
16E62
  8
DANMEN
  6
CONTINUOUS
 10
112.6130095194914
 20
328.0048476186123
 30
0.0
 11
106.6130095194913
 21
334.0048476186123
 31
0.0
  0
LINE
  5
16E63
  8
DANMEN
  6
CONTINUOUS
 10
108.66200951949141
 20
327.92584761861229
 30
0.0
 11
112.6130095194914
 21
331.87684761861249
 31
0.0
  0
LINE
  5
16E64
  8
DANMEN
  6
CONTINUOUS
 10
111.4910095194914
 20
327.92584761861229
 30
0.0
 11
112.6130095194914
 21
329.04784761861231
 31
0.0
  0
LINE
  5
16E65
  8
DANMEN
  6
CONTINUOUS
 10
86.613009519491456
 20
281.92584761861229
 30
0.0
 11
112.6130095194914
 21
281.92584761861229
 31
0.0
  0
LINE
  5
16E66
  8
DANMEN
  6
CONTINUOUS
 10
86.613009519491456
 20
283.92584761861229
 30
0.0
 11
112.6130095194914
 21
283.92584761861229
 31
0.0
  0
LINE
  5
16E67
  8
DANMEN
  6
CONTINUOUS
 10
111.1130095194914
 20
270.42584761861241
 30
0.0
 11
114.1130095194913
 21
270.42584761861241
 31
0.0
  0
LINE
  5
16E68
  8
DANMEN
  6
CONTINUOUS
 10
111.1130095194914
 20
272.42584761861241
 30
0.0
 11
112.6130095194914
 21
272.42584761861241
 31
0.0
  0
LINE
  5
16E69
  8
DANMEN
  6
CONTINUOUS
 10
112.6130095194914
 20
333.92584761861229
 30
0.0
 11
106.6130095194913
 21
334.92584761861229
 31
0.0
  0
LINE
  5
16E6A
  8
DANMEN
  6
CONTINUOUS
 10
106.6130095194913
 20
327.92584761861229
 30
0.0
 11
112.6130095194914
 21
327.92584761861229
 31
0.0
  0
LINE
  5
16E6B
  8
DANMEN
  6
CONTINUOUS
 10
108.6130095194913
 20
290.92584761861229
 30
0.0
 11
112.6130095194914
 21
290.92584761861229
 31
0.0
  0
LINE
  5
16E6C
  8
SUNPO
  6
CONTINUOUS
 10
64.613009519491428
 20
236.42584761861241
 30
0.0
 11
64.613009519491428
 21
246.42584761861229
 31
0.0
  0
TEXT
  5
16E6D
  8
SUNPO
  6
CONTINUOUS
 10
63.61300951949147
 20
239.67584761861241
 30
0.0
 40
2.5
  1
10
 50
90.0
 41
1.1999999999999991
  7
MX_DIMTXSTY_6
  0
INSERT
  5
16E6E
  8
SUNPO
  6
CONTINUOUS
  2
_DOTSMALL
 10
64.613009519491428
 20
236.42584761861241
 30
0.0
 41
2.3199999999999918
 42
2.3199999999999918
 43
2.3199999999999981
 50
270.0
  0
LINE
  5
16E6F
  8
SUNPO
  6
CONTINUOUS
 10
84.613009519491456
 20
245.42584761861241
 30
0.0
 11
84.613009519491456
 21
231.42584761861241
 31
0.0
  0
INSERT
  5
16E70
  8
SUNPO
  6
CONTINUOUS
  2
_DOTSMALL
 10
84.613009519491456
 20
231.42584761861241
 30
0.0
 41
2.3199999999999918
 42
2.3199999999999918
 43
2.3199999999999981
 50
180.0
  0
LINE
  5
16E71
  8
SUNPO
  6
CONTINUOUS
 10
64.613009519491428
 20
270.42584761861241
 30
0.0
 11
64.61300951949147
 21
300.42584761861229
 31
0.0
  0
TEXT
  5
16E72
  8
SUNPO
  6
CONTINUOUS
 10
73.61300951949147
 20
290.60184761861228
 30
0.0
 40
2.5
  1
10.5
 50
90.0
 41
1.399999999999999
  7
MX_DIMTXSTY_8
  0
LINE
  5
16E73
  8
SUNPO
  6
CONTINUOUS
 10
74.61300951949147
 20
290.92584761861229
 30
0.0
 11
74.61300951949147
 21
301.42584761861229
 31
0.0
  0
LINE
  5
16E74
  8
DANMEN
  6
CONTINUOUS
 10
84.613009519491456
 20
270.92584761861241
 30
0.0
 11
84.613009519491456
 21
299.9738476186123
 31
0.0
  0
LINE
  5
16E75
  8
DANMEN
  6
CONTINUOUS
 10
94.613009519491442
 20
291.92584761861229
 30
0.0
 11
94.613009519491442
 21
300.87384761861239
 31
0.0
  0
LINE
  5
16E76
  8
DANMEN
  6
CONTINUOUS
 10
93.113009519491484
 20
291.92584761861229
 30
0.0
 11
93.113009519491484
 21
299.2658476186125
 31
0.0
  0
LINE
  5
16E77
  8
DANMEN
  6
CONTINUOUS
 10
86.613009519491456
 20
283.92584761861229
 30
0.0
 11
86.613009519491456
 21
298.61584761861229
 31
0.0
  0
LINE
  5
16E78
  8
SUNPO
  6
CONTINUOUS
 10
83.61300951949147
 20
270.42584761861241
 30
0.0
 11
64.613009519491428
 21
270.42584761861241
 31
0.0
  0
LINE
  5
16E79
  8
SUNPO
  6
CONTINUOUS
 10
83.113009519491484
 20
261.42584761861241
 30
0.0
 11
64.613009519491428
 21
261.42584761861241
 31
0.0
  0
LINE
  5
16E7A
  8
SUNPO
  6
CONTINUOUS
 10
83.113009519491484
 20
261.42584761861241
 30
0.0
 11
64.613009519491428
 21
261.42584761861241
 31
0.0
  0
LINE
  5
16E7B
  8
SUNPO
  6
CONTINUOUS
 10
83.61300951949147
 20
246.42584761861229
 30
0.0
 11
64.613009519491428
 21
246.42584761861229
 31
0.0
  0
LINE
  5
16E7C
  8
SUNPO
  6
CONTINUOUS
 10
83.61300951949147
 20
270.42584761861241
 30
0.0
 11
64.613009519491428
 21
270.42584761861241
 31
0.0
  0
LINE
  5
16E7D
  8
SUNPO
  6
CONTINUOUS
 10
93.113009519491484
 20
290.92584761861229
 30
0.0
 11
74.61300951949147
 21
290.92584761861229
 31
0.0
  0
LINE
  5
16E7E
  8
SUNPO
  6
CONTINUOUS
 10
83.61300951949147
 20
246.42584761861229
 30
0.0
 11
64.613009519491428
 21
246.42584761861229
 31
0.0
  0
LINE
  5
16E7F
  8
SUNPO
  6
CONTINUOUS
 10
64.613009519491428
 20
261.42584761861241
 30
0.0
 11
64.613009519491428
 21
270.42584761861241
 31
0.0
  0
TEXT
  5
16E80
  8
SUNPO
  6
CONTINUOUS
 10
63.61300951949147
 20
265.09251428527898
 30
0.0
 40
2.5
  1
9
 50
90.0
  7
MX_NOTE_STANDARD
  0
TEXT
  5
16E81
  8
SUNPO
  6
CONTINUOUS
 10
63.61300951949147
 20
251.67584761861241
 30
0.0
 40
2.5
  1
15
 50
90.0
 41
1.3500000000000001
  7
MX_DIMTXSTY_5
  0
LINE
  5
16E82
  8
SUNPO
  6
CONTINUOUS
 10
64.613009519491428
 20
246.42584761861229
 30
0.0
 11
64.613009519491428
 21
261.42584761861241
 31
0.0
  0
LINE
  5
16E83
  8
SUNPO
  6
CONTINUOUS
 10
74.613009519491428
 20
261.42584761861241
 30
0.0
 11
74.613009519491428
 21
248.53584761861239
 31
0.0
  0
TEXT
  5
16E84
  8
SUNPO
  6
CONTINUOUS
 10
73.61300951949147
 20
250.36918095194559
 30
0.0
 40
2.5
  1
1.5
 50
90.0
 41
1.1000000000000001
  7
MX_DIMTXSTY_3
  0
INSERT
  5
16E85
  8
SUNPO
  6
CONTINUOUS
  2
_DOTSMALL
 10
64.613009519491428
 20
246.42584761861229
 30
0.0
 41
2.3199999999999918
 42
2.3199999999999918
 43
2.3199999999999981
 50
270.0
  0
INSERT
  5
16E86
  8
SUNPO
  6
CONTINUOUS
  2
_DOTSMALL
 10
64.613009519491428
 20
246.42584761861229
 30
0.0
 41
2.3199999999999918
 42
2.3199999999999918
 43
2.3199999999999981
 50
90.0
  0
INSERT
  5
16E87
  8
SUNPO
  6
CONTINUOUS
  2
_DOTSMALL
 10
64.613009519491428
 20
261.42584761861241
 30
0.0
 41
2.3199999999999918
 42
2.3199999999999918
 43
2.3199999999999981
 50
270.0
  0
INSERT
  5
16E88
  8
SUNPO
  6
CONTINUOUS
  2
_DOTSMALL
 10
64.613009519491428
 20
261.42584761861241
 30
0.0
 41
2.3199999999999918
 42
2.3199999999999918
 43
2.3199999999999981
 50
90.0
  0
INSERT
  5
16E89
  8
SUNPO
  6
CONTINUOUS
  2
_DOTSMALL
 10
74.613009519491428
 20
262.92584761861229
 30
0.0
 41
2.3199999999999918
 42
2.3199999999999918
 43
2.3199999999999981
 50
270.0
  0
LINE
  5
16E8A
  8
SUNPO
  6
CONTINUOUS
 10
74.613009519491428
 20
262.92584761861229
 30
0.0
 11
74.613009519491428
 21
265.2458476186124
 31
0.0
  0
INSERT
  5
16E8B
  8
SUNPO
  6
CONTINUOUS
  2
_DOTSMALL
 10
74.613009519491428
 20
261.42584761861241
 30
0.0
 41
2.3199999999999918
 42
2.3199999999999918
 43
2.3199999999999981
 50
90.0
  0
LINE
  5
16E8C
  8
SUNPO
  6
CONTINUOUS
 10
74.613009519491428
 20
262.92584761861229
 30
0.0
 11
74.613009519491428
 21
261.42584761861241
 31
0.0
  0
TEXT
  5
16E8D
  8
SUNPO
  6
CONTINUOUS
 10
63.61300951949147
 20
282.61334761861229
 30
0.0
 40
2.5
  1
30
 50
90.0
 41
1.5
  7
MX_DIMTXSTY_2
  0
INSERT
  5
16E8E
  8
SUNPO
  6
CONTINUOUS
  2
_DOTSMALL
 10
64.613009519491428
 20
270.42584761861241
 30
0.0
 41
2.3199999999999918
 42
2.3199999999999918
 43
2.3199999999999981
 50
90.0
  0
INSERT
  5
16E8F
  8
SUNPO
  6
CONTINUOUS
  2
_DOTSMALL
 10
64.613009519491428
 20
270.42584761861241
 30
0.0
 41
2.3199999999999918
 42
2.3199999999999918
 43
2.3199999999999981
 50
270.0
  0
INSERT
  5
16E90
  8
SUNPO
  6
CONTINUOUS
  2
_DOTSMALL
 10
74.61300951949147
 20
290.92584761861229
 30
0.0
 41
2.3199999999999918
 42
2.3199999999999918
 43
2.3199999999999981
 50
270.0
  0
LINE
  5
16E91
  8
DANMEN
  6
CONTINUOUS
 10
84.613009519491456
 20
270.42584761861241
 30
0.0
 11
84.613009519491456
 21
261.42584761861241
 31
0.0
  0
LINE
  5
16E92
  8
DANMEN
  6
CONTINUOUS
 10
103.26900951949141
 20
260.5968476186124
 30
0.0
 11
86.263009519491447
 21
259.84684761861229
 31
0.0
  0
LINE
  5
16E93
  8
DANMEN
  6
CONTINUOUS
 10
84.613009519491456
 20
260.9478476186124
 30
0.0
 11
84.613009519491456
 21
246.92584761861241
 31
0.0
  0
LINE
  5
16E94
  8
DANMEN
  6
CONTINUOUS
 10
86.263009519491447
 20
259.84684761861229
 30
0.0
 11
86.263009519491447
 21
248.07584761861241
 31
0.0
  0
ARC
  5
16E95
  8
DANMEN
  6
CONTINUOUS
 10
85.11300951949147
 20
246.92584761861241
 30
0.0
 40
0.5
 50
180.0
 51
270.0
  0
ARC
  5
16E96
  8
DANMEN
  6
CONTINUOUS
 10
85.11300951949147
 20
260.9478476186124
 30
0.0
 40
0.5
 50
92.526000000000664
 51
180.0
  0
ARC
  5
16E97
  8
DANMEN
  6
CONTINUOUS
 10
106.8130095194913
 20
257.97984761861233
 30
0.0
 40
1.0
 50
180.0
 51
245.3760000000004
  0
ARC
  5
16E98
  8
DANMEN
  6
CONTINUOUS
 10
108.4130095194914
 20
257.97984761861233
 30
0.0
 40
1.0
 50
294.6239999999994
 51
0.0
  0
ARC
  5
16E99
  8
DANMEN
  6
CONTINUOUS
 10
106.3130095194914
 20
257.89584761861232
 30
0.0
 40
2.0
 50
180.0
 51
231.7069999999994
  0
ARC
  5
16E9A
  8
DANMEN
  6
CONTINUOUS
 10
108.9130095194914
 20
257.89584761861232
 30
0.0
 40
2.0
 50
308.29300000000052
 51
0.0
  0
LINE
  5
16E9B
  8
DANMEN
  6
CONTINUOUS
 10
105.0740095194914
 20
256.32584761861239
 30
0.0
 11
106.21300951949139
 21
256.32584761861239
 31
0.0
  0
ARC
  5
16E9C
  8
DANMEN
  6
CONTINUOUS
 10
106.21300951949139
 20
256.6258476186124
 30
0.0
 40
0.3
 50
270.0
 51
0.0
  0
LINE
  5
16E9D
  8
DANMEN
  6
CONTINUOUS
 10
106.5130095194914
 20
256.6258476186124
 30
0.0
 11
106.5130095194914
 21
256.88884761861237
 31
0.0
  0
ARC
  5
16E9E
  8
DANMEN
  6
CONTINUOUS
 10
106.3130095194914
 20
256.88884761861237
 30
0.0
 40
0.2
 50
0.0
 51
65.376000000000531
  0
LINE
  5
16E9F
  8
DANMEN
  6
CONTINUOUS
 10
110.1520095194914
 20
256.32584761861239
 30
0.0
 11
109.01300951949131
 21
256.32584761861239
 31
0.0
  0
ARC
  5
16EA0
  8
DANMEN
  6
CONTINUOUS
 10
109.01300951949131
 20
256.6258476186124
 30
0.0
 40
0.3
 50
180.0
 51
270.0
  0
ARC
  5
16EA1
  8
DANMEN
  6
CONTINUOUS
 10
108.9130095194914
 20
256.88884761861237
 30
0.0
 40
0.2
 50
114.6239999999994
 51
180.0
  0
LINE
  5
16EA2
  8
DANMEN
  6
CONTINUOUS
 10
108.71300951949139
 20
256.6258476186124
 30
0.0
 11
108.71300951949139
 21
256.88884761861237
 31
0.0
  0
ARC
  5
16EA3
  8
DANMEN
  6
CONTINUOUS
 10
103.3130095194914
 20
259.59784761861232
 30
0.0
 40
1.0
 50
0.0
 51
92.526000000000664
  0
LINE
  5
16EA4
  8
DANMEN
  6
CONTINUOUS
 10
106.8130095194913
 20
260.22584761861242
 30
0.0
 11
108.4130095194914
 21
260.22584761861242
 31
0.0
  0
LINE
  5
16EA5
  8
DANMEN
  6
CONTINUOUS
 10
104.3130095194914
 20
257.89584761861232
 30
0.0
 11
104.3130095194914
 21
259.59784761861232
 31
0.0
  0
LINE
  5
16EA6
  8
DANMEN
  6
CONTINUOUS
 10
105.8130095194913
 20
257.97984761861233
 30
0.0
 11
105.8130095194913
 21
259.22584761861242
 31
0.0
  0
ARC
  5
16EA7
  8
DANMEN
  6
CONTINUOUS
 10
106.8130095194913
 20
259.22584761861242
 30
0.0
 40
1.0
 50
90.0
 51
180.0
  0
LINE
  5
16EA8
  8
DANMEN
  6
CONTINUOUS
 10
110.9130095194914
 20
257.89584761861232
 30
0.0
 11
110.9130095194914
 21
259.97784761861237
 31
0.0
  0
LINE
  5
16EA9
  8
DANMEN
  6
CONTINUOUS
 10
109.4130095194914
 20
257.97984761861233
 30
0.0
 11
109.4130095194914
 21
259.22584761861242
 31
0.0
  0
ARC
  5
16EAA
  8
DANMEN
  6
CONTINUOUS
 10
108.4130095194914
 20
259.22584761861242
 30
0.0
 40
1.0
 50
0.0
 51
90.0
  0
ARC
  5
16EAB
  8
DANMEN
  6
CONTINUOUS
 10
111.9130095194914
 20
259.97784761861237
 30
0.0
 40
1.0
 50
92.526000000000664
 51
180.0
  0
LINE
  5
16EAC
  8
DANMEN
  6
CONTINUOUS
 10
98.613009519491484
 20
290.92584761861229
 30
0.0
 11
94.613009519491442
 21
290.92584761861229
 31
0.0
  0
LINE
  5
16EAD
  8
DANMEN
  6
CONTINUOUS
 10
86.613009519491456
 20
272.42584761861241
 30
0.0
 11
86.613009519491456
 21
281.92584761861229
 31
0.0
  0
LINE
  5
16EAE
  8
DANMEN
  6
CONTINUOUS
 10
85.11300951949147
 20
270.42584761861241
 30
0.0
 11
89.113009519491456
 21
270.42584761861241
 31
0.0
  0
LINE
  5
16EAF
  8
DANMEN
  6
CONTINUOUS
 10
86.613009519491456
 20
272.42584761861241
 30
0.0
 11
89.113009519491456
 21
272.42584761861241
 31
0.0
  0
ARC
  5
16EB0
  8
DANMEN
  6
CONTINUOUS
 10
85.11300951949147
 20
270.92584761861241
 30
0.0
 40
0.5
 50
180.0
 51
270.0
  0
LINE
  5
16EB1
  8
DANMEN
  6
CONTINUOUS
 10
89.613009519491442
 20
270.92584761861241
 30
0.0
 11
89.613009519491442
 21
271.92584761861241
 31
0.0
  0
ARC
  5
16EB2
  8
DANMEN
  6
CONTINUOUS
 10
89.113009519491456
 20
271.92584761861241
 30
0.0
 40
0.5
 50
0.0
 51
90.0
  0
ARC
  5
16EB3
  8
DANMEN
  6
CONTINUOUS
 10
89.113009519491456
 20
270.92584761861241
 30
0.0
 40
0.5
 50
270.0
 51
0.0
  0
LINE
  5
16EB4
  8
DANMEN
  6
CONTINUOUS
 10
93.613009519491484
 20
291.42584761861229
 30
0.0
 11
94.113009519491484
 21
291.42584761861229
 31
0.0
  0
ARC
  5
16EB5
  8
DANMEN
  6
CONTINUOUS
 10
94.113009519491484
 20
291.92584761861229
 30
0.0
 40
0.5
 50
270.0
 51
0.0
  0
ARC
  5
16EB6
  8
DANMEN
  6
CONTINUOUS
 10
93.613009519491484
 20
291.92584761861229
 30
0.0
 40
0.5
 50
180.0
 51
270.0
  0
LINE
  5
16EB7
  8
DANMEN
  6
CONTINUOUS
 10
94.613009519491442
 20
290.92584761861229
 30
0.0
 11
94.613009519491442
 21
291.42584761861229
 31
0.0
  0
LINE
  5
16EB8
  8
DANMEN
  6
CONTINUOUS
 10
110.6130095194914
 20
270.92584761861241
 30
0.0
 11
110.6130095194914
 21
271.92584761861241
 31
0.0
  0
ARC
  5
16EB9
  8
DANMEN
  6
CONTINUOUS
 10
111.1130095194914
 20
270.92584761861241
 30
0.0
 40
0.5
 50
180.0
 51
270.0
  0
ARC
  5
16EBA
  8
DANMEN
  6
CONTINUOUS
 10
111.1130095194914
 20
271.92584761861241
 30
0.0
 40
0.5
 50
90.0
 51
180.0
  0
LINE
  5
16EBB
  8
DANMEN
  6
CONTINUOUS
 10
98.613009519491484
 20
290.92584761861229
 30
0.0
 11
108.6130095194913
 21
283.92584761861229
 31
0.0
  0
LINE
  5
16EBC
  8
DANMEN
  6
CONTINUOUS
 10
108.6130095194913
 20
290.92584761861229
 30
0.0
 11
98.613009519491484
 21
290.92584761861229
 31
0.0
  0
LINE
  5
16EBD
  8
DANMEN
  6
CONTINUOUS
 10
108.6130095194913
 20
283.92584761861229
 30
0.0
 11
98.613009519491484
 21
283.92584761861229
 31
0.0
  0
LINE
  5
16EBE
  8
DANMEN
  6
CONTINUOUS
 10
98.613009519491484
 20
290.92584761861229
 30
0.0
 11
98.613009519491484
 21
283.92584761861229
 31
0.0
  0
LINE
  5
16EBF
  8
DANMEN
  6
CONTINUOUS
 10
108.6130095194913
 20
290.92584761861229
 30
0.0
 11
108.6130095194913
 21
283.92584761861229
 31
0.0
  0
LINE
  5
16EC0
  8
SUNPO
  6
CONTINUOUS
 10
91.113009519491484
 20
301.42584761861229
 30
0.0
 11
64.61300951949147
 21
301.42584761861229
 31
0.0
  0
LINE
  5
16EC1
  8
SUNPO
  6
CONTINUOUS
 10
83.113009519491484
 20
300.42584761861229
 30
0.0
 11
64.61300951949147
 21
300.42584761861229
 31
0.0
  0
LINE
  5
16EC2
  8
SUNPO
  6
CONTINUOUS
 10
91.113009519491484
 20
301.42584761861229
 30
0.0
 11
74.61300951949147
 21
301.42584761861229
 31
0.0
  0
TEXT
  5
16EC3
  8
SUNPO
  6
CONTINUOUS
 10
63.61300951949147
 20
300.46751428527898
 30
0.0
 40
2.5
  1
1
 50
90.0
 41
1.1000000000000001
  7
MX_DIMTXSTY_3
  0
LINE
  5
16EC4
  8
SUNPO
  6
CONTINUOUS
 10
64.61300951949147
 20
301.42584761861229
 30
0.0
 11
64.61300951949147
 21
303.74584761861229
 31
0.0
  0
INSERT
  5
16EC5
  8
SUNPO
  6
CONTINUOUS
  2
_DOTSMALL
 10
64.61300951949147
 20
301.42584761861229
 30
0.0
 41
2.3199999999999918
 42
2.3199999999999918
 43
2.3199999999999981
 50
270.0
  0
INSERT
  5
16EC6
  8
SUNPO
  6
CONTINUOUS
  2
_DOTSMALL
 10
64.61300951949147
 20
300.42584761861229
 30
0.0
 41
2.3199999999999918
 42
2.3199999999999918
 43
2.3199999999999981
 50
90.0
  0
LINE
  5
16EC7
  8
SUNPO
  6
CONTINUOUS
 10
64.61300951949147
 20
300.42584761861229
 30
0.0
 11
64.61300951949147
 21
301.42584761861229
 31
0.0
  0
LINE
  5
16EC8
  8
SUNPO
  6
CONTINUOUS
 10
64.61300951949147
 20
300.42584761861229
 30
0.0
 11
64.61300951949147
 21
298.1058476186123
 31
0.0
  0
INSERT
  5
16EC9
  8
SUNPO
  6
CONTINUOUS
  2
_DOTSMALL
 10
64.61300951949147
 20
300.42584761861229
 30
0.0
 41
2.3199999999999918
 42
2.3199999999999918
 43
2.3199999999999981
 50
90.0
  0
INSERT
  5
16ECA
  8
SUNPO
  6
CONTINUOUS
  2
_DOTSMALL
 10
74.61300951949147
 20
301.42584761861229
 30
0.0
 41
2.3199999999999918
 42
2.3199999999999918
 43
2.3199999999999981
 50
90.0
  0
LINE
  5
16ECB
  8
DANMEN
  6
CONTINUOUS
 10
99.937009519491426
 20
295.42584761861229
 30
0.0
 11
94.613009519491442
 21
300.74984761861231
 31
0.0
  0
LINE
  5
16ECC
  8
DANMEN
  6
CONTINUOUS
 10
97.108009519491475
 20
295.42584761861229
 30
0.0
 11
94.613009519491442
 21
297.9208476186123
 31
0.0
  0
LINE
  5
16ECD
  8
DANMEN
  6
CONTINUOUS
 10
94.613009519491442
 20
299.73484761861232
 30
0.0
 11
96.643009519491486
 21
301.76384761861232
 31
0.0
  0
LINE
  5
16ECE
  8
DANMEN
  6
CONTINUOUS
 10
94.613009519491442
 20
296.90584761861243
 30
0.0
 11
100.03700951949141
 21
302.32984761861229
 31
0.0
  0
LINE
  5
16ECF
  8
DANMEN
  6
CONTINUOUS
 10
100.6130095194913
 20
302.42584761861229
 30
0.0
 11
94.613009519491442
 21
301.42584761861229
 31
0.0
  0
LINE
  5
16ED0
  8
DANMEN
  6
CONTINUOUS
 10
94.613009519491442
 20
295.42584761861229
 30
0.0
 11
100.6130095194913
 21
295.42584761861229
 31
0.0
  0
LINE
  5
16ED1
  8
DANMEN
  6
CONTINUOUS
 10
85.063009519491473
 20
300.47084761861231
 30
0.0
 11
94.063009519491445
 21
301.37084761861229
 31
0.0
  0
LINE
  5
16ED2
  8
DANMEN
  6
CONTINUOUS
 10
86.613009519491456
 20
298.61584761861229
 30
0.0
 11
93.113009519491484
 21
299.2658476186125
 31
0.0
  0
ARC
  5
16ED3
  8
DANMEN
  6
CONTINUOUS
 10
85.11300951949147
 20
299.9738476186123
 30
0.0
 40
0.5
 50
95.710999999999942
 51
180.0
  0
ARC
  5
16ED4
  8
DANMEN
  6
CONTINUOUS
 10
94.113009519491484
 20
300.87384761861239
 30
0.0
 40
0.5
 50
0.0
 51
95.710999999999942
  0
LINE
  5
16ED5
  8
DANMEN
  6
CONTINUOUS
 10
94.613009519491442
 20
301.42584761861229
 30
0.0
 11
92.613009519491484
 21
301.42584761861229
 31
0.0
  0
LINE
  5
16ED6
  8
DANMEN
  6
CONTINUOUS
 10
100.6130095194913
 20
297.57784761861228
 30
0.0
 11
96.458009519491483
 21
301.73284761861231
 31
0.0
  0
LINE
  5
16ED7
  8
DANMEN
  6
CONTINUOUS
 10
95.961009519491455
 20
295.42584761861229
 30
0.0
 11
100.6130095194913
 21
300.07784761861228
 31
0.0
  0
LINE
  5
16ED8
  8
DANMEN
  6
CONTINUOUS
 10
98.790009519491505
 20
295.42584761861229
 30
0.0
 11
100.6130095194913
 21
297.24884761861239
 31
0.0
  0
LINE
  5
16ED9
  8
DANMEN
  6
CONTINUOUS
 10
100.6130095194913
 20
300.40684761861229
 30
0.0
 11
98.882009519491476
 21
302.13784761861228
 31
0.0
  0
LINE
  5
16EDA
  8
DANMEN
  6
CONTINUOUS
 10
106.6130095194913
 20
331.5338476186123
 30
0.0
 11
109.5210095194913
 21
334.44084761861228
 31
0.0
  0
LINE
  5
16EDB
  8
DANMEN
  6
CONTINUOUS
 10
106.6130095194913
 20
328.70484761861229
 30
0.0
 11
111.94500951949141
 21
334.03684761861228
 31
0.0
  0
LINE
  5
16EDC
  8
DANMEN
  6
CONTINUOUS
 10
109.8630095194913
 20
327.92584761861229
 30
0.0
 11
106.6130095194913
 21
331.17584761861229
 31
0.0
  0
LINE
  5
16EDD
  8
DANMEN
  6
CONTINUOUS
 10
107.0350095194914
 20
327.92584761861229
 30
0.0
 11
106.6130095194913
 21
328.34784761861232
 31
0.0
  0
LINE
  5
16EDE
  8
DANMEN
  6
CONTINUOUS
 10
106.6130095194913
 20
334.36184761861239
 30
0.0
 11
107.0960095194914
 21
334.84484761861239
 31
0.0
  0
LINE
  5
16EDF
  8
SUNPO
  6
CONTINUOUS
 10
212.61300951949141
 20
266.42584761861241
 30
0.0
 11
212.61300951949141
 21
236.42584761861241
 31
0.0
  0
LINE
  5
16EE0
  8
DANMEN
  6
CONTINUOUS
 10
139.61300951949141
 20
246.42584761861229
 30
0.0
 11
139.61300951949141
 21
236.92584761861241
 31
0.0
  0
LINE
  5
16EE1
  8
DANMEN
  6
CONTINUOUS
 10
141.26300951949139
 20
236.92584761861241
 30
0.0
 11
141.26300951949139
 21
266.42584761861241
 31
0.0
  0
LINE
  5
16EE2
  8
DANMEN
  6
CONTINUOUS
 10
184.61300951949141
 20
236.42584761861241
 30
0.0
 11
184.61300951949141
 21
266.42584761861241
 31
0.0
  0
LINE
  5
16EE3
  8
SUNPO
  6
CONTINUOUS
 10
184.61300951949141
 20
231.42584761861241
 30
0.0
 11
139.61300951949141
 21
231.42584761861241
 31
0.0
  0
LINE
  5
16EE4
  8
DANMEN
  6
CONTINUOUS
 10
141.11300951949141
 20
236.42584761861241
 30
0.0
 11
184.61300951949141
 21
236.42584761861241
 31
0.0
  0
LINE
  5
16EE5
  8
SUNPO
  6
CONTINUOUS
 10
139.61300951949141
 20
235.42584761861241
 30
0.0
 11
139.61300951949141
 21
231.42584761861241
 31
0.0
  0
INSERT
  5
16EE6
  8
SUNPO
  6
CONTINUOUS
  2
_DOTSMALL
 10
139.61300951949141
 20
231.42584761861241
 30
0.0
 41
2.3199999999999918
 42
2.3199999999999918
 43
2.3199999999999981
 50
180.0
  0
INSERT
  5
16EE7
  8
SUNPO
  6
CONTINUOUS
  2
_DOTSMALL
 10
139.61300951949141
 20
231.42584761861241
 30
0.0
 41
2.3199999999999918
 42
2.3199999999999918
 43
2.3199999999999981
  0
ARC
  5
16EE8
  8
DANMEN
  6
CONTINUOUS
 10
140.76300951949139
 20
236.92584761861241
 30
0.0
 40
0.5
 50
270.0
 51
0.0
  0
LINE
  5
16EE9
  8
DANMEN
  6
CONTINUOUS
 10
140.11300951949141
 20
236.42584761861241
 30
0.0
 11
140.76300951949139
 21
236.42584761861241
 31
0.0
  0
ARC
  5
16EEA
  8
DANMEN
  6
CONTINUOUS
 10
140.11300951949141
 20
236.92584761861241
 30
0.0
 40
0.5
 50
180.0
 51
270.0
  0
TEXT
  5
16EEB
  8
SUNPO
  6
CONTINUOUS
 10
160.0296761861581
 20
232.42584761861241
 30
0.0
 40
2.5
  1
45
  7
MX_NOTE_STANDARD
  0
LINE
  5
16EEC
  8
SUNPO
  6
CONTINUOUS
 10
186.11300951949141
 20
236.42584761861241
 30
0.0
 11
212.61300951949141
 21
236.42584761861241
 31
0.0
  0
LINE
  5
16EED
  8
SUNPO
  6
CONTINUOUS
 10
184.61300951949141
 20
234.92584761861241
 30
0.0
 11
184.61300951949141
 21
231.42584761861241
 31
0.0
  0
INSERT
  5
16EEE
  8
SUNPO
  6
CONTINUOUS
  2
_DOTSMALL
 10
184.61300951949141
 20
231.42584761861241
 30
0.0
 41
2.3199999999999918
 42
2.3199999999999918
 43
2.3199999999999981
  0
INSERT
  5
16EEF
  8
SUNPO
  6
CONTINUOUS
  2
_DOTSMALL
 10
212.61300951949141
 20
236.42584761861241
 30
0.0
 41
2.3199999999999918
 42
2.3199999999999918
 43
2.3199999999999981
 50
270.0
  0
LINE
  5
16EF0
  8
DANMEN
  6
CONTINUOUS
 10
164.11300951949141
 20
306.42584761861229
 30
0.0
 11
184.11300951949141
 21
306.42584761861229
 31
0.0
  0
LINE
  5
16EF1
  8
DANMEN
  6
CONTINUOUS
 10
175.11300951949141
 20
266.42584761861241
 30
0.0
 11
184.11300951949141
 21
266.42584761861241
 31
0.0
  0
LINE
  5
16EF2
  8
DANMEN
  6
CONTINUOUS
 10
175.11300951949141
 20
268.07584761861227
 30
0.0
 11
182.96300951949141
 21
268.07584761861227
 31
0.0
  0
LINE
  5
16EF3
  8
DANMEN
  6
CONTINUOUS
 10
170.26300951949139
 20
281.42584761861241
 30
0.0
 11
178.96300951949141
 21
281.42584761861241
 31
0.0
  0
LINE
  5
16EF4
  8
DANMEN
  6
CONTINUOUS
 10
175.8130095194914
 20
304.77584761861249
 30
0.0
 11
178.96300951949141
 21
304.77584761861249
 31
0.0
  0
LINE
  5
16EF5
  8
DANMEN
  6
CONTINUOUS
 10
158.9130095194914
 20
279.77584761861237
 30
0.0
 11
182.96300951949141
 21
279.77584761861237
 31
0.0
  0
LINE
  5
16EF6
  8
DANMEN
  6
CONTINUOUS
 10
168.61300951949141
 20
281.42584761861241
 30
0.0
 11
168.61300951949141
 21
296.42584761861229
 31
0.0
  0
LINE
  5
16EF7
  8
DANMEN
  6
CONTINUOUS
 10
170.26300951949139
 20
281.42584761861241
 30
0.0
 11
170.26300951949139
 21
297.72584761861231
 31
0.0
  0
LINE
  5
16EF8
  8
DANMEN
  6
CONTINUOUS
 10
159.61300951949141
 20
291.92584761861229
 30
0.0
 11
159.61300951949141
 21
338.42584761861229
 31
0.0
  0
LINE
  5
16EF9
  8
DANMEN
  6
CONTINUOUS
 10
112.6130095194914
 20
283.92584761861229
 30
0.0
 11
112.6130095194914
 21
333.42584761861229
 31
0.0
  0
LINE
  5
16EFA
  8
DANMEN
  6
CONTINUOUS
 10
163.61300951949141
 20
281.42584761861241
 30
0.0
 11
163.61300951949141
 21
296.42584761861229
 31
0.0
  0
LINE
  5
16EFB
  8
DANMEN
  6
CONTINUOUS
 10
119.1130095194913
 20
281.42584761861241
 30
0.0
 11
168.61300951949141
 21
281.42584761861241
 31
0.0
  0
LINE
  5
16EFC
  8
DANMEN
  6
CONTINUOUS
 10
141.26300951949139
 20
279.77584761861237
 30
0.0
 11
150.31300951949129
 21
279.77584761861237
 31
0.0
  0
LINE
  5
16EFD
  8
DANMEN
  6
CONTINUOUS
 10
114.6130095194914
 20
291.42584761861229
 30
0.0
 11
159.11300951949141
 21
291.42584761861229
 31
0.0
  0
LINE
  5
16EFE
  8
DANMEN
  6
CONTINUOUS
 10
120.2630095194914
 20
248.07584761861241
 30
0.0
 11
120.2630095194914
 21
279.77584761861237
 31
0.0
  0
LINE
  5
16EFF
  8
DANMEN
  6
CONTINUOUS
 10
139.61300951949141
 20
248.07584761861241
 30
0.0
 11
139.61300951949141
 21
279.77584761861237
 31
0.0
  0
LINE
  5
16F00
  8
DANMEN
  6
CONTINUOUS
 10
141.26300951949139
 20
268.07584761861227
 30
0.0
 11
141.26300951949139
 21
279.77584761861237
 31
0.0
  0
LINE
  5
16F01
  8
DANMEN
  6
CONTINUOUS
 10
118.6130095194914
 20
262.92584761861229
 30
0.0
 11
118.6130095194914
 21
280.92584761861241
 31
0.0
  0
LINE
  5
16F02
  8
DANMEN
  6
CONTINUOUS
 10
120.2630095194914
 20
248.07584761861241
 30
0.0
 11
139.61300951949141
 21
248.07584761861241
 31
0.0
  0
LINE
  5
16F03
  8
DANMEN
  6
CONTINUOUS
 10
118.6130095194914
 20
248.07584761861241
 30
0.0
 11
118.6130095194914
 21
261.27384761861242
 31
0.0
  0
LINE
  5
16F04
  8
DANMEN
  6
CONTINUOUS
 10
141.26300951949139
 20
268.07584761861227
 30
0.0
 11
143.61300951949141
 21
268.07584761861227
 31
0.0
  0
LINE
  5
16F05
  8
DANMEN
  6
CONTINUOUS
 10
141.26300951949139
 20
266.42584761861241
 30
0.0
 11
143.61300951949141
 21
266.42584761861241
 31
0.0
  0
LINE
  5
16F06
  8
DANMEN
  6
CONTINUOUS
 10
144.11300951949141
 20
267.57584761861227
 30
0.0
 11
144.11300951949141
 21
266.92584761861229
 31
0.0
  0
ARC
  5
16F07
  8
DANMEN
  6
CONTINUOUS
 10
143.61300951949141
 20
266.92584761861229
 30
0.0
 40
0.5
 50
270.0
 51
0.0
  0
ARC
  5
16F08
  8
DANMEN
  6
CONTINUOUS
 10
143.61300951949141
 20
267.57584761861227
 30
0.0
 40
0.5
 50
0.0
 51
90.0
  0
ARC
  5
16F09
  8
DANMEN
  6
CONTINUOUS
 10
130.3130095194914
 20
275.89584761861232
 30
0.0
 40
2.0
 50
180.0
 51
231.7069999999994
  0
LINE
  5
16F0A
  8
DANMEN
  6
CONTINUOUS
 10
112.6130095194914
 20
272.42584761861241
 30
0.0
 11
112.6130095194914
 21
281.92584761861229
 31
0.0
  0
LINE
  5
16F0B
  8
DANMEN
  6
CONTINUOUS
 10
114.6130095194914
 20
270.92584761861241
 30
0.0
 11
114.6130095194914
 21
291.42584761861229
 31
0.0
  0
LINE
  5
16F0C
  8
DANMEN
  6
CONTINUOUS
 10
120.2630095194914
 20
279.77584761861237
 30
0.0
 11
127.3130095194914
 21
279.77584761861237
 31
0.0
  0
ARC
  5
16F0D
  8
DANMEN
  6
CONTINUOUS
 10
114.1130095194913
 20
270.92584761861241
 30
0.0
 40
0.5
 50
270.0
 51
0.0
  0
LINE
  5
16F0E
  8
DANMEN
  6
CONTINUOUS
 10
128.3130095194914
 20
275.89584761861232
 30
0.0
 11
128.3130095194914
 21
278.77584761861237
 31
0.0
  0
ARC
  5
16F0F
  8
DANMEN
  6
CONTINUOUS
 10
127.3130095194914
 20
278.77584761861237
 30
0.0
 40
1.0
 50
0.0
 51
90.0
  0
LINE
  5
16F10
  8
DANMEN
  6
CONTINUOUS
 10
118.6130095194914
 20
281.42584761861241
 30
0.0
 11
118.6130095194914
 21
291.42584761861229
 31
0.0
  0
ARC
  5
16F11
  8
DANMEN
  6
CONTINUOUS
 10
119.1130095194913
 20
280.92584761861241
 30
0.0
 40
0.5
 50
90.0
 51
180.0
  0
LINE
  5
16F12
  8
DANMEN
  6
CONTINUOUS
 10
125.6130095194913
 20
281.42584761861241
 30
0.0
 11
125.6130095194913
 21
291.42584761861229
 31
0.0
  0
LINE
  5
16F13
  8
DANMEN
  6
CONTINUOUS
 10
135.91300951949131
 20
279.77584761861237
 30
0.0
 11
139.61300951949141
 21
279.77584761861237
 31
0.0
  0
ARC
  5
16F14
  8
DANMEN
  6
CONTINUOUS
 10
133.01300951949139
 20
274.62584761861228
 30
0.0
 40
0.3
 50
180.0
 51
270.0
  0
ARC
  5
16F15
  8
DANMEN
  6
CONTINUOUS
 10
130.21300951949141
 20
274.62584761861228
 30
0.0
 40
0.3
 50
270.0
 51
0.0
  0
ARC
  5
16F16
  8
DANMEN
  6
CONTINUOUS
 10
132.9130095194914
 20
275.89584761861232
 30
0.0
 40
2.0
 50
308.29300000000052
 51
0.0
  0
LINE
  5
16F17
  8
DANMEN
  6
CONTINUOUS
 10
129.07400951949131
 20
274.32584761861227
 30
0.0
 11
130.21300951949141
 21
274.32584761861227
 31
0.0
  0
LINE
  5
16F18
  8
DANMEN
  6
CONTINUOUS
 10
134.15200951949129
 20
274.32584761861227
 30
0.0
 11
133.01300951949139
 21
274.32584761861227
 31
0.0
  0
ARC
  5
16F19
  8
DANMEN
  6
CONTINUOUS
 10
132.41300951949131
 20
275.97984761861233
 30
0.0
 40
1.0
 50
294.6239999999994
 51
0.0
  0
ARC
  5
16F1A
  8
DANMEN
  6
CONTINUOUS
 10
132.41300951949131
 20
277.22584761861242
 30
0.0
 40
1.0
 50
0.0
 51
90.0
  0
LINE
  5
16F1B
  8
DANMEN
  6
CONTINUOUS
 10
129.81300951949129
 20
275.97984761861233
 30
0.0
 11
129.81300951949129
 21
277.22584761861242
 31
0.0
  0
LINE
  5
16F1C
  8
DANMEN
  6
CONTINUOUS
 10
132.71300951949141
 20
274.62584761861228
 30
0.0
 11
132.71300951949141
 21
274.88884761861237
 31
0.0
  0
ARC
  5
16F1D
  8
DANMEN
  6
CONTINUOUS
 10
132.9130095194914
 20
274.88884761861237
 30
0.0
 40
0.2
 50
114.6239999999994
 51
180.0
  0
ARC
  5
16F1E
  8
DANMEN
  6
CONTINUOUS
 10
130.3130095194914
 20
274.88884761861237
 30
0.0
 40
0.2
 50
0.0
 51
65.376000000000531
  0
ARC
  5
16F1F
  8
DANMEN
  6
CONTINUOUS
 10
130.81300951949129
 20
275.97984761861233
 30
0.0
 40
1.0
 50
180.0
 51
245.3760000000004
  0
LINE
  5
16F20
  8
DANMEN
  6
CONTINUOUS
 10
130.51300951949139
 20
274.62584761861228
 30
0.0
 11
130.51300951949139
 21
274.88884761861237
 31
0.0
  0
LINE
  5
16F21
  8
DANMEN
  6
CONTINUOUS
 10
132.41300951949131
 20
278.22584761861242
 30
0.0
 11
130.81300951949129
 21
278.22584761861242
 31
0.0
  0
ARC
  5
16F22
  8
DANMEN
  6
CONTINUOUS
 10
130.81300951949129
 20
277.22584761861242
 30
0.0
 40
1.0
 50
90.0
 51
180.0
  0
LINE
  5
16F23
  8
DANMEN
  6
CONTINUOUS
 10
134.91300951949131
 20
275.89584761861232
 30
0.0
 11
134.91300951949131
 21
278.77584761861237
 31
0.0
  0
LINE
  5
16F24
  8
DANMEN
  6
CONTINUOUS
 10
133.41300951949131
 20
275.97984761861233
 30
0.0
 11
133.41300951949131
 21
277.22584761861242
 31
0.0
  0
ARC
  5
16F25
  8
DANMEN
  6
CONTINUOUS
 10
135.91300951949131
 20
278.77584761861237
 30
0.0
 40
1.0
 50
90.0
 51
180.0
  0
LINE
  5
16F26
  8
DANMEN
  6
CONTINUOUS
 10
174.61300951949141
 20
267.57584761861227
 30
0.0
 11
174.61300951949141
 21
266.92584761861229
 31
0.0
  0
ARC
  5
16F27
  8
DANMEN
  6
CONTINUOUS
 10
175.11300951949141
 20
266.92584761861229
 30
0.0
 40
0.5
 50
180.0
 51
270.0
  0
ARC
  5
16F28
  8
DANMEN
  6
CONTINUOUS
 10
175.11300951949141
 20
267.57584761861227
 30
0.0
 40
0.5
 50
90.0
 51
180.0
  0
ARC
  5
16F29
  8
DANMEN
  6
CONTINUOUS
 10
153.81300951949129
 20
277.22584761861242
 30
0.0
 40
1.0
 50
90.0
 51
180.0
  0
ARC
  5
16F2A
  8
DANMEN
  6
CONTINUOUS
 10
153.81300951949129
 20
275.97984761861233
 30
0.0
 40
1.0
 50
180.0
 51
245.3760000000004
  0
ARC
  5
16F2B
  8
DANMEN
  6
CONTINUOUS
 10
153.21300951949141
 20
274.62584761861228
 30
0.0
 40
0.3
 50
270.0
 51
0.0
  0
ARC
  5
16F2C
  8
DANMEN
  6
CONTINUOUS
 10
153.3130095194914
 20
275.89584761861232
 30
0.0
 40
2.0
 50
180.0
 51
231.7069999999994
  0
LINE
  5
16F2D
  8
DANMEN
  6
CONTINUOUS
 10
152.07400951949131
 20
274.32584761861227
 30
0.0
 11
153.21300951949141
 21
274.32584761861227
 31
0.0
  0
ARC
  5
16F2E
  8
DANMEN
  6
CONTINUOUS
 10
150.31300951949129
 20
278.77584761861237
 30
0.0
 40
1.0
 50
0.0
 51
90.0
  0
LINE
  5
16F2F
  8
DANMEN
  6
CONTINUOUS
 10
152.8130095194914
 20
275.97984761861233
 30
0.0
 11
152.8130095194914
 21
277.22584761861242
 31
0.0
  0
LINE
  5
16F30
  8
DANMEN
  6
CONTINUOUS
 10
151.3130095194914
 20
275.89584761861232
 30
0.0
 11
151.3130095194914
 21
278.77584761861237
 31
0.0
  0
ARC
  5
16F31
  8
DANMEN
  6
CONTINUOUS
 10
155.9130095194914
 20
275.89584761861232
 30
0.0
 40
2.0
 50
308.29300000000052
 51
0.0
  0
ARC
  5
16F32
  8
DANMEN
  6
CONTINUOUS
 10
156.01300951949139
 20
274.62584761861228
 30
0.0
 40
0.3
 50
180.0
 51
270.0
  0
LINE
  5
16F33
  8
DANMEN
  6
CONTINUOUS
 10
157.15200951949129
 20
274.32584761861227
 30
0.0
 11
156.01300951949139
 21
274.32584761861227
 31
0.0
  0
ARC
  5
16F34
  8
DANMEN
  6
CONTINUOUS
 10
155.41300951949131
 20
277.22584761861242
 30
0.0
 40
1.0
 50
0.0
 51
90.0
  0
LINE
  5
16F35
  8
DANMEN
  6
CONTINUOUS
 10
155.41300951949131
 20
278.22584761861242
 30
0.0
 11
153.81300951949129
 21
278.22584761861242
 31
0.0
  0
LINE
  5
16F36
  8
DANMEN
  6
CONTINUOUS
 10
153.51300951949139
 20
274.62584761861228
 30
0.0
 11
153.51300951949139
 21
274.88884761861237
 31
0.0
  0
ARC
  5
16F37
  8
DANMEN
  6
CONTINUOUS
 10
153.3130095194914
 20
274.88884761861237
 30
0.0
 40
0.2
 50
0.0
 51
65.376000000000531
  0
ARC
  5
16F38
  8
DANMEN
  6
CONTINUOUS
 10
155.9130095194914
 20
274.88884761861237
 30
0.0
 40
0.2
 50
114.6239999999994
 51
180.0
  0
ARC
  5
16F39
  8
DANMEN
  6
CONTINUOUS
 10
155.41300951949131
 20
275.97984761861233
 30
0.0
 40
1.0
 50
294.6239999999994
 51
0.0
  0
LINE
  5
16F3A
  8
DANMEN
  6
CONTINUOUS
 10
155.71300951949141
 20
274.62584761861228
 30
0.0
 11
155.71300951949141
 21
274.88884761861237
 31
0.0
  0
LINE
  5
16F3B
  8
DANMEN
  6
CONTINUOUS
 10
156.41300951949131
 20
275.97984761861233
 30
0.0
 11
156.41300951949131
 21
277.22584761861242
 31
0.0
  0
ARC
  5
16F3C
  8
DANMEN
  6
CONTINUOUS
 10
158.9130095194914
 20
278.77584761861237
 30
0.0
 40
1.0
 50
90.0
 51
180.0
  0
LINE
  5
16F3D
  8
DANMEN
  6
CONTINUOUS
 10
157.9130095194914
 20
275.89584761861232
 30
0.0
 11
157.9130095194914
 21
278.77584761861237
 31
0.0
  0
ARC
  5
16F3E
  8
DANMEN
  6
CONTINUOUS
 10
159.11300951949141
 20
291.92584761861229
 30
0.0
 40
0.5
 50
270.0
 51
0.0
  0
TEXT
  5
16F3F
  8
SUNPO
  6
CONTINUOUS
 10
146.11300951949141
 20
335.59251428527898
 30
0.0
 40
2.5
  1
5
 50
90.0
  7
MX_NOTE_STANDARD
  0
LINE
  5
16F40
  8
DANMEN
  6
CONTINUOUS
 10
113.1130095194913
 20
333.92584761861229
 30
0.0
 11
154.61300951949141
 21
333.92584761861229
 31
0.0
  0
LINE
  5
16F41
  8
DANMEN
  6
CONTINUOUS
 10
126.6130095194913
 20
331.42584761861229
 30
0.0
 11
145.61300951949141
 21
331.42584761861229
 31
0.0
  0
LINE
  5
16F42
  8
DANMEN
  6
CONTINUOUS
 10
145.61300951949141
 20
293.42584761861229
 30
0.0
 11
126.6130095194913
 21
293.42584761861229
 31
0.0
  0
LINE
  5
16F43
  8
DANMEN
  6
CONTINUOUS
 10
126.21300951949139
 20
293.42584761861229
 30
0.0
 11
146.01300951949139
 21
293.42584761861229
 31
0.0
  0
LINE
  5
16F44
  8
DANMEN
  6
CONTINUOUS
 10
126.21300951949139
 20
331.92584761861229
 30
0.0
 11
146.01300951949139
 21
331.92584761861229
 31
0.0
  0
ARC
  5
16F45
  8
DANMEN
  6
CONTINUOUS
 10
122.4130095194914
 20
314.47584761861231
 30
0.0
 40
2.299999999999998
 50
0.0
 51
90.0
  0
ARC
  5
16F46
  8
DANMEN
  6
CONTINUOUS
 10
116.6130095194914
 20
315.67584761861229
 30
0.0
 40
2.0
 50
180.0
 51
270.0
  0
ARC
  5
16F47
  8
DANMEN
  6
CONTINUOUS
 10
119.1130095194913
 20
314.77584761861232
 30
0.0
 40
2.0
 50
90.0
 51
180.0
  0
LINE
  5
16F48
  8
DANMEN
  6
CONTINUOUS
 10
126.6130095194913
 20
293.42584761861229
 30
0.0
 11
126.6130095194913
 21
331.42584761861229
 31
0.0
  0
LINE
  5
16F49
  8
DANMEN
  6
CONTINUOUS
 10
114.6130095194914
 20
293.42584761861229
 30
0.0
 11
114.6130095194914
 21
309.67584761861229
 31
0.0
  0
LINE
  5
16F4A
  8
DANMEN
  6
CONTINUOUS
 10
114.6130095194914
 20
293.42584761861229
 30
0.0
 11
124.71300951949139
 21
293.42584761861229
 31
0.0
  0
ARC
  5
16F4B
  8
DANMEN
  6
CONTINUOUS
 10
125.21300951949139
 20
294.92584761861229
 30
0.0
 40
0.5
 50
90.0
 51
180.0
  0
LINE
  5
16F4C
  8
DANMEN
  6
CONTINUOUS
 10
125.21300951949139
 20
295.42584761861229
 30
0.0
 11
125.71300951949139
 21
295.42584761861229
 31
0.0
  0
LINE
  5
16F4D
  8
DANMEN
  6
CONTINUOUS
 10
124.71300951949139
 20
293.42584761861229
 30
0.0
 11
124.71300951949139
 21
294.92584761861229
 31
0.0
  0
LINE
  5
16F4E
  8
DANMEN
  6
CONTINUOUS
 10
126.21300951949139
 20
293.42584761861229
 30
0.0
 11
126.21300951949139
 21
294.92584761861229
 31
0.0
  0
ARC
  5
16F4F
  8
DANMEN
  6
CONTINUOUS
 10
125.71300951949139
 20
294.92584761861229
 30
0.0
 40
0.5
 50
0.0
 51
90.0
  0
LINE
  5
16F50
  8
DANMEN
  6
CONTINUOUS
 10
122.21300951949139
 20
310.37584761861228
 30
0.0
 11
120.3130095194913
 21
310.37584761861228
 31
0.0
  0
LINE
  5
16F51
  8
DANMEN
  6
CONTINUOUS
 10
122.21300951949139
 20
314.97584761861248
 30
0.0
 11
120.3130095194913
 21
314.97584761861248
 31
0.0
  0
LINE
  5
16F52
  8
DANMEN
  6
CONTINUOUS
 10
122.4130095194914
 20
308.57584761861239
 30
0.0
 11
119.1130095194913
 21
308.57584761861239
 31
0.0
  0
ARC
  5
16F53
  8
DANMEN
  6
CONTINUOUS
 10
119.1130095194913
 20
310.57584761861239
 30
0.0
 40
2.0
 50
180.0
 51
270.0
  0
ARC
  5
16F54
  8
DANMEN
  6
CONTINUOUS
 10
116.6130095194914
 20
309.67584761861229
 30
0.0
 40
2.0
 50
90.0
 51
180.0
  0
LINE
  5
16F55
  8
DANMEN
  6
CONTINUOUS
 10
119.3130095194913
 20
311.37584761861228
 30
0.0
 11
119.3130095194913
 21
313.97584761861231
 31
0.0
  0
ARC
  5
16F56
  8
DANMEN
  6
CONTINUOUS
 10
120.3130095194913
 20
311.37584761861228
 30
0.0
 40
1.0
 50
180.0
 51
270.0
  0
ARC
  5
16F57
  8
DANMEN
  6
CONTINUOUS
 10
120.3130095194913
 20
313.97584761861231
 30
0.0
 40
1.0
 50
90.0
 51
180.0
  0
LINE
  5
16F58
  8
DANMEN
  6
CONTINUOUS
 10
117.1130095194913
 20
310.57584761861239
 30
0.0
 11
117.1130095194913
 21
311.17584761861229
 31
0.0
  0
LINE
  5
16F59
  8
DANMEN
  6
CONTINUOUS
 10
117.1130095194913
 20
314.17584761861229
 30
0.0
 11
117.1130095194913
 21
314.77584761861232
 31
0.0
  0
ARC
  5
16F5A
  8
DANMEN
  6
CONTINUOUS
 10
116.6130095194914
 20
314.17584761861229
 30
0.0
 40
0.5
 50
270.0
 51
0.0
  0
ARC
  5
16F5B
  8
DANMEN
  6
CONTINUOUS
 10
116.6130095194914
 20
311.17584761861229
 30
0.0
 40
0.5
 50
0.0
 51
90.0
  0
ARC
  5
16F5C
  8
DANMEN
  6
CONTINUOUS
 10
122.4130095194914
 20
310.87584761861228
 30
0.0
 40
2.299999999999998
 50
270.0
 51
0.0
  0
ARC
  5
16F5D
  8
DANMEN
  6
CONTINUOUS
 10
124.21300951949139
 20
314.47584761861231
 30
0.0
 40
0.5
 50
270.0
 51
0.0
  0
ARC
  5
16F5E
  8
DANMEN
  6
CONTINUOUS
 10
124.21300951949139
 20
310.87584761861228
 30
0.0
 40
0.5
 50
0.0
 51
90.0
  0
LINE
  5
16F5F
  8
DANMEN
  6
CONTINUOUS
 10
124.21300951949139
 20
311.37584761861228
 30
0.0
 11
123.3960095194914
 21
311.37584761861228
 31
0.0
  0
LINE
  5
16F60
  8
DANMEN
  6
CONTINUOUS
 10
124.21300951949139
 20
313.97584761861231
 30
0.0
 11
123.3960095194914
 21
313.97584761861231
 31
0.0
  0
ARC
  5
16F61
  8
DANMEN
  6
CONTINUOUS
 10
122.21300951949139
 20
313.97584761861231
 30
0.0
 40
1.0
 50
9.5940000000000403
 51
90.0
  0
ARC
  5
16F62
  8
DANMEN
  6
CONTINUOUS
 10
122.21300951949139
 20
311.37584761861228
 30
0.0
 40
1.0
 50
270.0
 51
350.40599999999978
  0
ARC
  5
16F63
  8
DANMEN
  6
CONTINUOUS
 10
123.3960095194914
 20
311.17584761861229
 30
0.0
 40
0.2
 50
90.0
 51
170.40599999999981
  0
ARC
  5
16F64
  8
DANMEN
  6
CONTINUOUS
 10
123.3960095194914
 20
314.17584761861229
 30
0.0
 40
0.2
 50
189.59399999999999
 51
270.0
  0
LINE
  5
16F65
  8
DANMEN
  6
CONTINUOUS
 10
114.6130095194914
 20
315.67584761861229
 30
0.0
 11
114.6130095194914
 21
331.92584761861229
 31
0.0
  0
LINE
  5
16F66
  8
DANMEN
  6
CONTINUOUS
 10
122.4130095194914
 20
316.77584761861232
 30
0.0
 11
119.1130095194913
 21
316.77584761861232
 31
0.0
  0
LINE
  5
16F67
  8
DANMEN
  6
CONTINUOUS
 10
114.6130095194914
 20
331.92584761861229
 30
0.0
 11
124.71300951949139
 21
331.92584761861229
 31
0.0
  0
ARC
  5
16F68
  8
DANMEN
  6
CONTINUOUS
 10
113.1130095194913
 20
333.42584761861229
 30
0.0
 40
0.5
 50
90.0
 51
180.0
  0
ARC
  5
16F69
  8
DANMEN
  6
CONTINUOUS
 10
125.21300951949139
 20
330.42584761861229
 30
0.0
 40
0.5
 50
180.0
 51
270.0
  0
ARC
  5
16F6A
  8
DANMEN
  6
CONTINUOUS
 10
125.71300951949139
 20
330.42584761861229
 30
0.0
 40
0.5
 50
270.0
 51
0.0
  0
LINE
  5
16F6B
  8
DANMEN
  6
CONTINUOUS
 10
126.21300951949139
 20
331.92584761861229
 30
0.0
 11
126.21300951949139
 21
330.42584761861229
 31
0.0
  0
LINE
  5
16F6C
  8
DANMEN
  6
CONTINUOUS
 10
124.71300951949139
 20
331.92584761861229
 30
0.0
 11
124.71300951949139
 21
330.42584761861229
 31
0.0
  0
LINE
  5
16F6D
  8
DANMEN
  6
CONTINUOUS
 10
125.21300951949139
 20
329.92584761861229
 30
0.0
 11
125.71300951949139
 21
329.92584761861229
 31
0.0
  0
ARC
  5
16F6E
  8
DANMEN
  6
CONTINUOUS
 10
149.8130095194914
 20
314.47584761861231
 30
0.0
 40
2.299999999999998
 50
90.0
 51
180.0
  0
ARC
  5
16F6F
  8
DANMEN
  6
CONTINUOUS
 10
155.61300951949141
 20
315.67584761861229
 30
0.0
 40
2.0
 50
270.0
 51
0.0
  0
ARC
  5
16F70
  8
DANMEN
  6
CONTINUOUS
 10
153.11300951949141
 20
314.77584761861232
 30
0.0
 40
2.0
 50
0.0
 51
90.0
  0
LINE
  5
16F71
  8
DANMEN
  6
CONTINUOUS
 10
145.61300951949141
 20
293.42584761861229
 30
0.0
 11
145.61300951949141
 21
331.42584761861229
 31
0.0
  0
ARC
  5
16F72
  8
DANMEN
  6
CONTINUOUS
 10
161.41600951949141
 20
298.45784761861228
 30
0.0
 40
0.3
 50
180.0
 51
304.84899999999942
  0
ARC
  5
16F73
  8
DANMEN
  6
CONTINUOUS
 10
161.16200951949139
 20
297.9628476186125
 30
0.0
 40
1.5469999999999979
 50
176.75499999999931
 51
339.6980000000006
  0
ARC
  5
16F74
  8
DANMEN
  6
CONTINUOUS
 10
161.41600951949141
 20
304.39384761861248
 30
0.0
 40
0.3
 50
55.151000000000458
 51
180.0
  0
ARC
  5
16F75
  8
DANMEN
  6
CONTINUOUS
 10
161.16200951949139
 20
304.88884761861232
 30
0.0
 40
1.5469999999999979
 50
20.301999999999421
 51
183.2449999999989
  0
LINE
  5
16F76
  8
DANMEN
  6
CONTINUOUS
 10
157.61300951949141
 20
293.42584761861229
 30
0.0
 11
157.61300951949141
 21
309.67584761861229
 31
0.0
  0
LINE
  5
16F77
  8
DANMEN
  6
CONTINUOUS
 10
159.61800951949141
 20
304.80184761861233
 30
0.0
 11
159.61800951949141
 21
298.04984761861249
 31
0.0
  0
LINE
  5
16F78
  8
DANMEN
  6
CONTINUOUS
 10
161.1160095194914
 20
298.45784761861228
 30
0.0
 11
161.1160095194914
 21
304.39384761861248
 31
0.0
  0
LINE
  5
16F79
  8
DANMEN
  6
CONTINUOUS
 10
147.51300951949139
 20
293.42584761861229
 30
0.0
 11
157.61300951949141
 21
293.42584761861229
 31
0.0
  0
LINE
  5
16F7A
  8
DANMEN
  6
CONTINUOUS
 10
146.01300951949139
 20
293.42584761861229
 30
0.0
 11
146.01300951949139
 21
294.92584761861229
 31
0.0
  0
LINE
  5
16F7B
  8
DANMEN
  6
CONTINUOUS
 10
147.51300951949139
 20
293.42584761861229
 30
0.0
 11
147.51300951949139
 21
294.92584761861229
 31
0.0
  0
ARC
  5
16F7C
  8
DANMEN
  6
CONTINUOUS
 10
147.01300951949139
 20
294.92584761861229
 30
0.0
 40
0.5
 50
0.0
 51
90.0
  0
LINE
  5
16F7D
  8
DANMEN
  6
CONTINUOUS
 10
146.51300951949139
 20
295.42584761861229
 30
0.0
 11
147.01300951949139
 21
295.42584761861229
 31
0.0
  0
ARC
  5
16F7E
  8
DANMEN
  6
CONTINUOUS
 10
146.51300951949139
 20
294.92584761861229
 30
0.0
 40
0.5
 50
90.0
 51
180.0
  0
ARC
  5
16F7F
  8
DANMEN
  6
CONTINUOUS
 10
153.11300951949141
 20
310.57584761861239
 30
0.0
 40
2.0
 50
270.0
 51
0.0
  0
ARC
  5
16F80
  8
DANMEN
  6
CONTINUOUS
 10
149.8130095194914
 20
310.87584761861228
 30
0.0
 40
2.299999999999998
 50
180.0
 51
270.0
  0
LINE
  5
16F81
  8
DANMEN
  6
CONTINUOUS
 10
149.8130095194914
 20
308.57584761861239
 30
0.0
 11
153.11300951949141
 21
308.57584761861239
 31
0.0
  0
ARC
  5
16F82
  8
DANMEN
  6
CONTINUOUS
 10
150.01300951949139
 20
311.37584761861228
 30
0.0
 40
1.0
 50
189.59399999999999
 51
270.0
  0
ARC
  5
16F83
  8
DANMEN
  6
CONTINUOUS
 10
150.01300951949139
 20
313.97584761861231
 30
0.0
 40
1.0
 50
90.0
 51
170.40599999999981
  0
LINE
  5
16F84
  8
DANMEN
  6
CONTINUOUS
 10
148.01300951949139
 20
313.97584761861231
 30
0.0
 11
148.83000951949131
 21
313.97584761861231
 31
0.0
  0
LINE
  5
16F85
  8
DANMEN
  6
CONTINUOUS
 10
148.01300951949139
 20
311.37584761861228
 30
0.0
 11
148.83000951949131
 21
311.37584761861228
 31
0.0
  0
ARC
  5
16F86
  8
DANMEN
  6
CONTINUOUS
 10
148.83000951949131
 20
314.17584761861229
 30
0.0
 40
0.2
 50
270.0
 51
350.40599999999978
  0
ARC
  5
16F87
  8
DANMEN
  6
CONTINUOUS
 10
148.83000951949131
 20
311.17584761861229
 30
0.0
 40
0.2
 50
9.5940000000000403
 51
90.0
  0
ARC
  5
16F88
  8
DANMEN
  6
CONTINUOUS
 10
148.01300951949139
 20
310.87584761861228
 30
0.0
 40
0.5
 50
90.0
 51
180.0
  0
ARC
  5
16F89
  8
DANMEN
  6
CONTINUOUS
 10
148.01300951949139
 20
314.47584761861231
 30
0.0
 40
0.5
 50
180.0
 51
270.0
  0
LINE
  5
16F8A
  8
DANMEN
  6
CONTINUOUS
 10
150.01300951949139
 20
314.97584761861248
 30
0.0
 11
151.91300951949131
 21
314.97584761861248
 31
0.0
  0
LINE
  5
16F8B
  8
DANMEN
  6
CONTINUOUS
 10
150.01300951949139
 20
310.37584761861228
 30
0.0
 11
151.91300951949131
 21
310.37584761861228
 31
0.0
  0
LINE
  5
16F8C
  8
DANMEN
  6
CONTINUOUS
 10
152.9130095194914
 20
313.97584761861231
 30
0.0
 11
152.9130095194914
 21
311.37584761861228
 31
0.0
  0
ARC
  5
16F8D
  8
DANMEN
  6
CONTINUOUS
 10
151.91300951949131
 20
313.97584761861231
 30
0.0
 40
1.0
 50
0.0
 51
90.0
  0
ARC
  5
16F8E
  8
DANMEN
  6
CONTINUOUS
 10
151.91300951949131
 20
311.37584761861228
 30
0.0
 40
1.0
 50
270.0
 51
0.0
  0
ARC
  5
16F8F
  8
DANMEN
  6
CONTINUOUS
 10
155.61300951949141
 20
309.67584761861229
 30
0.0
 40
2.0
 50
0.0
 51
90.0
  0
LINE
  5
16F90
  8
DANMEN
  6
CONTINUOUS
 10
155.11300951949141
 20
314.77584761861232
 30
0.0
 11
155.11300951949141
 21
314.17584761861229
 31
0.0
  0
LINE
  5
16F91
  8
DANMEN
  6
CONTINUOUS
 10
155.11300951949141
 20
311.17584761861229
 30
0.0
 11
155.11300951949141
 21
310.57584761861239
 31
0.0
  0
ARC
  5
16F92
  8
DANMEN
  6
CONTINUOUS
 10
155.61300951949141
 20
314.17584761861229
 30
0.0
 40
0.5
 50
180.0
 51
270.0
  0
ARC
  5
16F93
  8
DANMEN
  6
CONTINUOUS
 10
155.61300951949141
 20
311.17584761861229
 30
0.0
 40
0.5
 50
90.0
 51
180.0
  0
LINE
  5
16F94
  8
DANMEN
  6
CONTINUOUS
 10
165.36300951949141
 20
303.42584761861229
 30
0.0
 11
165.14600951949151
 21
303.80084761861229
 31
0.0
  0
LINE
  5
16F95
  8
DANMEN
  6
CONTINUOUS
 10
167.61300951949141
 20
302.92584761861229
 30
0.0
 11
165.48700951949141
 21
304.14284761861239
 31
0.0
  0
LINE
  5
16F96
  8
DANMEN
  6
CONTINUOUS
 10
162.61300951949141
 20
305.42584761861229
 30
0.0
 11
162.61300951949141
 21
297.42584761861229
 31
0.0
  0
LINE
  5
16F97
  8
DANMEN
  6
CONTINUOUS
 10
163.61300951949141
 20
303.42584761861229
 30
0.0
 11
163.61300951949141
 21
305.42584761861229
 31
0.0
  0
LINE
  5
16F98
  8
DANMEN
  6
CONTINUOUS
 10
167.96300951949141
 20
297.72584761861231
 30
0.0
 11
167.96300951949141
 21
304.77584761861249
 31
0.0
  0
ARC
  5
16F99
  8
DANMEN
  6
CONTINUOUS
 10
164.11300951949141
 20
303.92584761861229
 30
0.0
 40
0.5
 50
180.0
 51
270.0
  0
LINE
  5
16F9A
  8
DANMEN
  6
CONTINUOUS
 10
164.61300951949141
 20
303.42584761861229
 30
0.0
 11
164.61300951949141
 21
304.77584761861249
 31
0.0
  0
LINE
  5
16F9B
  8
DANMEN
  6
CONTINUOUS
 10
174.8130095194914
 20
302.09184761861229
 30
0.0
 11
174.8130095194914
 21
303.77584761861232
 31
0.0
  0
ARC
  5
16F9C
  8
DANMEN
  6
CONTINUOUS
 10
170.8130095194914
 20
302.72584761861231
 30
0.0
 40
1.0
 50
90.0
 51
180.0
  0
ARC
  5
16F9D
  8
DANMEN
  6
CONTINUOUS
 10
172.3130095194914
 20
302.72584761861231
 30
0.0
 40
1.0
 50
0.0
 51
90.0
  0
ARC
  5
16F9E
  8
DANMEN
  6
CONTINUOUS
 10
170.8130095194914
 20
301.22584761861231
 30
0.0
 40
1.0
 50
180.0
 51
270.0
  0
LINE
  5
16F9F
  8
DANMEN
  6
CONTINUOUS
 10
163.61300951949141
 20
299.42584761861229
 30
0.0
 11
163.61300951949141
 21
297.42584761861229
 31
0.0
  0
LINE
  5
16FA0
  8
DANMEN
  6
CONTINUOUS
 10
164.61300951949141
 20
297.72584761861231
 30
0.0
 11
164.61300951949141
 21
299.42584761861229
 31
0.0
  0
LINE
  5
16FA1
  8
DANMEN
  6
CONTINUOUS
 10
163.61300951949141
 20
296.92584761861229
 30
0.0
 11
163.61300951949141
 21
298.92584761861229
 31
0.0
  0
LINE
  5
16FA2
  8
DANMEN
  6
CONTINUOUS
 10
164.61300951949141
 20
297.72584761861231
 30
0.0
 11
167.96300951949141
 21
297.72584761861231
 31
0.0
  0
LINE
  5
16FA3
  8
DANMEN
  6
CONTINUOUS
 10
164.11300951949141
 20
296.42584761861229
 30
0.0
 11
168.61300951949141
 21
296.42584761861229
 31
0.0
  0
LINE
  5
16FA4
  8
DANMEN
  6
CONTINUOUS
 10
162.61300951949141
 20
297.42584761861229
 30
0.0
 11
163.61300951949141
 21
297.42584761861229
 31
0.0
  0
ARC
  5
16FA5
  8
DANMEN
  6
CONTINUOUS
 10
164.11300951949141
 20
296.92584761861229
 30
0.0
 40
0.5
 50
180.0
 51
270.0
  0
LINE
  5
16FA6
  8
DANMEN
  6
CONTINUOUS
 10
164.51300951949139
 20
300.52584761861232
 30
0.0
 11
165.71300951949141
 21
300.52584761861232
 31
0.0
  0
LINE
  5
16FA7
  8
DANMEN
  6
CONTINUOUS
 10
164.51300951949139
 20
302.32584761861239
 30
0.0
 11
165.71300951949141
 21
302.32584761861239
 31
0.0
  0
LINE
  5
16FA8
  8
DANMEN
  6
CONTINUOUS
 10
167.61300951949141
 20
299.92584761861229
 30
0.0
 11
165.48700951949141
 21
298.70884761861231
 31
0.0
  0
LINE
  5
16FA9
  8
DANMEN
  6
CONTINUOUS
 10
163.61300951949141
 20
299.42584761861229
 30
0.0
 11
165.36300951949141
 21
299.42584761861229
 31
0.0
  0
LINE
  5
16FAA
  8
DANMEN
  6
CONTINUOUS
 10
163.61300951949141
 20
303.42584761861229
 30
0.0
 11
165.36300951949141
 21
303.42584761861229
 31
0.0
  0
ARC
  5
16FAB
  8
DANMEN
  6
CONTINUOUS
 10
164.51300951949139
 20
301.42584761861229
 30
0.0
 40
0.9
 50
90.0
 51
270.0
  0
LINE
  5
16FAC
  8
DANMEN
  6
CONTINUOUS
 10
165.36300951949141
 20
299.42584761861229
 30
0.0
 11
165.14600951949151
 21
299.05084761861252
 31
0.0
  0
ARC
  5
16FAD
  8
DANMEN
  6
CONTINUOUS
 10
165.36300951949141
 20
298.92584761861229
 30
0.0
 40
0.25
 50
149.9999999999998
 51
299.78999999999962
  0
LINE
  5
16FAE
  8
DANMEN
  6
CONTINUOUS
 10
162.61300951949141
 20
298.92584761861229
 30
0.0
 11
161.5870095194914
 21
298.2118476186123
 31
0.0
  0
ARC
  5
16FAF
  8
DANMEN
  6
CONTINUOUS
 10
164.11300951949141
 20
298.92584761861229
 30
0.0
 40
0.5
 50
90.0
 51
180.0
  0
LINE
  5
16FB0
  8
DANMEN
  6
CONTINUOUS
 10
164.11300951949141
 20
299.42584761861229
 30
0.0
 11
164.61300951949141
 21
299.42584761861229
 31
0.0
  0
LINE
  5
16FB1
  8
DANMEN
  6
CONTINUOUS
 10
164.11300951949141
 20
303.42584761861229
 30
0.0
 11
164.61300951949141
 21
303.42584761861229
 31
0.0
  0
LINE
  5
16FB2
  8
DANMEN
  6
CONTINUOUS
 10
167.61300951949141
 20
302.92584761861229
 30
0.0
 11
167.61300951949141
 21
299.92584761861229
 31
0.0
  0
ARC
  5
16FB3
  8
DANMEN
  6
CONTINUOUS
 10
165.71300951949141
 20
301.42584761861229
 30
0.0
 40
0.9
 50
270.0
 51
90.0
  0
ARC
  5
16FB4
  8
DANMEN
  6
CONTINUOUS
 10
171.26300951949139
 20
297.72584761861231
 30
0.0
 40
1.0
 50
90.0
 51
180.0
  0
ARC
  5
16FB5
  8
DANMEN
  6
CONTINUOUS
 10
174.0630095194914
 20
302.09184761861229
 30
0.0
 40
0.75
 50
180.0
 51
0.0
  0
LINE
  5
16FB6
  8
DANMEN
  6
CONTINUOUS
 10
169.8130095194914
 20
301.22584761861231
 30
0.0
 11
169.8130095194914
 21
302.72584761861231
 31
0.0
  0
LINE
  5
16FB7
  8
DANMEN
  6
CONTINUOUS
 10
173.3130095194914
 20
302.09184761861229
 30
0.0
 11
173.3130095194914
 21
302.72584761861231
 31
0.0
  0
LINE
  5
16FB8
  8
DANMEN
  6
CONTINUOUS
 10
170.8130095194914
 20
300.22584761861231
 30
0.0
 11
171.44700951949139
 21
300.22584761861231
 31
0.0
  0
LINE
  5
16FB9
  8
DANMEN
  6
CONTINUOUS
 10
171.26300951949139
 20
298.72584761861231
 30
0.0
 11
171.44700951949139
 21
298.72584761861231
 31
0.0
  0
ARC
  5
16FBA
  8
DANMEN
  6
CONTINUOUS
 10
171.44700951949139
 20
299.47584761861231
 30
0.0
 40
0.75
 50
270.0
 51
90.0
  0
LINE
  5
16FBB
  8
DANMEN
  6
CONTINUOUS
 10
164.61300951949141
 20
304.77584761861249
 30
0.0
 11
167.96300951949141
 21
304.77584761861249
 31
0.0
  0
LINE
  5
16FBC
  8
DANMEN
  6
CONTINUOUS
 10
162.61300951949141
 20
305.42584761861229
 30
0.0
 11
163.61300951949141
 21
305.42584761861229
 31
0.0
  0
ARC
  5
16FBD
  8
DANMEN
  6
CONTINUOUS
 10
165.36300951949141
 20
303.92584761861229
 30
0.0
 40
0.25
 50
60.210000000000342
 51
209.9999999999996
  0
LINE
  5
16FBE
  8
DANMEN
  6
CONTINUOUS
 10
161.5870095194914
 20
304.63984761861229
 30
0.0
 11
162.61300951949141
 21
303.92584761861229
 31
0.0
  0
ARC
  5
16FBF
  8
DANMEN
  6
CONTINUOUS
 10
164.11300951949141
 20
305.92584761861229
 30
0.0
 40
0.5
 50
90.0
 51
180.0
  0
LINE
  5
16FC0
  8
DANMEN
  6
CONTINUOUS
 10
163.61300951949141
 20
303.92584761861229
 30
0.0
 11
163.61300951949141
 21
305.92584761861229
 31
0.0
  0
LINE
  5
16FC1
  8
DANMEN
  6
CONTINUOUS
 10
170.8130095194914
 20
303.72584761861231
 30
0.0
 11
172.3130095194914
 21
303.72584761861231
 31
0.0
  0
ARC
  5
16FC2
  8
DANMEN
  6
CONTINUOUS
 10
175.8130095194914
 20
303.77584761861232
 30
0.0
 40
1.0
 50
90.0
 51
180.0
  0
LINE
  5
16FC3
  8
DANMEN
  6
CONTINUOUS
 10
157.61300951949141
 20
315.67584761861229
 30
0.0
 11
157.61300951949141
 21
331.92584761861229
 31
0.0
  0
LINE
  5
16FC4
  8
DANMEN
  6
CONTINUOUS
 10
149.8130095194914
 20
316.77584761861232
 30
0.0
 11
153.11300951949141
 21
316.77584761861232
 31
0.0
  0
LINE
  5
16FC5
  8
DANMEN
  6
CONTINUOUS
 10
147.51300951949139
 20
331.92584761861229
 30
0.0
 11
153.51300951949139
 21
331.92584761861229
 31
0.0
  0
ARC
  5
16FC6
  8
DANMEN
  6
CONTINUOUS
 10
146.51300951949139
 20
330.42584761861229
 30
0.0
 40
0.5
 50
180.0
 51
270.0
  0
LINE
  5
16FC7
  8
DANMEN
  6
CONTINUOUS
 10
146.51300951949139
 20
329.92584761861229
 30
0.0
 11
147.01300951949139
 21
329.92584761861229
 31
0.0
  0
ARC
  5
16FC8
  8
DANMEN
  6
CONTINUOUS
 10
147.01300951949139
 20
330.42584761861229
 30
0.0
 40
0.5
 50
270.0
 51
0.0
  0
LINE
  5
16FC9
  8
DANMEN
  6
CONTINUOUS
 10
147.51300951949139
 20
331.92584761861229
 30
0.0
 11
147.51300951949139
 21
330.42584761861229
 31
0.0
  0
LINE
  5
16FCA
  8
DANMEN
  6
CONTINUOUS
 10
146.01300951949139
 20
331.92584761861229
 30
0.0
 11
146.01300951949139
 21
330.42584761861229
 31
0.0
  0
INSERT
  5
16FCB
  8
SUNPO
  6
CONTINUOUS
  2
_DOTSMALL
 10
147.11300951949141
 20
333.92584761861229
 30
0.0
 41
2.3199999999999918
 42
2.3199999999999918
 43
2.3199999999999981
 50
270.0
  0
LINE
  5
16FCC
  8
DANMEN
  6
CONTINUOUS
 10
155.01300951949139
 20
331.92584761861229
 30
0.0
 11
157.61300951949141
 21
331.92584761861229
 31
0.0
  0
LINE
  5
16FCD
  8
DANMEN
  6
CONTINUOUS
 10
154.01300951949139
 20
330.42584761861229
 30
0.0
 11
154.51300951949139
 21
330.42584761861229
 31
0.0
  0
LINE
  5
16FCE
  8
DANMEN
  6
CONTINUOUS
 10
155.01300951949139
 20
330.92584761861229
 30
0.0
 11
155.01300951949139
 21
331.92584761861229
 31
0.0
  0
LINE
  5
16FCF
  8
DANMEN
  6
CONTINUOUS
 10
153.51300951949139
 20
330.92584761861229
 30
0.0
 11
153.51300951949139
 21
331.92584761861229
 31
0.0
  0
ARC
  5
16FD0
  8
DANMEN
  6
CONTINUOUS
 10
154.51300951949139
 20
330.92584761861229
 30
0.0
 40
0.5
 50
270.0
 51
0.0
  0
ARC
  5
16FD1
  8
DANMEN
  6
CONTINUOUS
 10
154.01300951949139
 20
330.92584761861229
 30
0.0
 40
0.5
 50
180.0
 51
270.0
  0
ARC
  5
16FD2
  8
DANMEN
  6
CONTINUOUS
 10
154.61300951949141
 20
336.92584761861229
 30
0.0
 40
3.0
 50
270.0
 51
0.0
  0
LINE
  5
16FD3
  8
DANMEN
  6
CONTINUOUS
 10
157.61300951949141
 20
336.92584761861229
 30
0.0
 11
157.61300951949141
 21
338.42584761861229
 31
0.0
  0
LINE
  5
16FD4
  8
SUNPO
  6
CONTINUOUS
 10
240.11300951949141
 20
337.04384761861229
 30
0.0
 11
240.11300951949141
 21
277.92584761861241
 31
0.0
  0
LINE
  5
16FD5
  8
SUNPO
  6
CONTINUOUS
 10
212.61300951949141
 20
306.42584761861229
 30
0.0
 11
212.61300951949141
 21
266.42584761861241
 31
0.0
  0
LINE
  5
16FD6
  8
DANMEN
  6
CONTINUOUS
 10
184.61300951949141
 20
305.92584761861229
 30
0.0
 11
184.61300951949141
 21
266.92584761861229
 31
0.0
  0
LINE
  5
16FD7
  8
DANMEN
  6
CONTINUOUS
 10
182.96300951949141
 20
281.42584761861241
 30
0.0
 11
182.96300951949141
 21
304.77584761861249
 31
0.0
  0
TEXT
  5
16FD8
  8
SUNPO
  6
CONTINUOUS
 10
211.61300951949141
 20
283.61334761861229
 30
0.0
 40
2.5
  1
40
 50
90.0
 41
1.5
  7
MX_DIMTXSTY_2
  0
LINE
  5
16FD9
  8
SUNPO
  6
CONTINUOUS
 10
185.61300951949141
 20
266.42584761861241
 30
0.0
 11
212.61300951949141
 21
266.42584761861241
 31
0.0
  0
TEXT
  5
16FDA
  8
SUNPO
  6
CONTINUOUS
 10
211.61300951949141
 20
248.61334761861241
 30
0.0
 40
2.5
  1
30
 50
90.0
 41
1.5
  7
MX_DIMTXSTY_2
  0
LINE
  5
16FDB
  8
SUNPO
  6
CONTINUOUS
 10
185.61300951949141
 20
266.42584761861241
 30
0.0
 11
212.61300951949141
 21
266.42584761861241
 31
0.0
  0
LINE
  5
16FDC
  8
DANMEN
  6
CONTINUOUS
 10
182.96300951949141
 20
279.77584761861237
 30
0.0
 11
182.96300951949141
 21
268.07584761861227
 31
0.0
  0
ARC
  5
16FDD
  8
DANMEN
  6
CONTINUOUS
 10
184.11300951949141
 20
266.92584761861229
 30
0.0
 40
0.5
 50
270.0
 51
0.0
  0
LINE
  5
16FDE
  8
DANMEN
  6
CONTINUOUS
 10
180.46300951949141
 20
281.42584761861241
 30
0.0
 11
182.96300951949141
 21
281.42584761861241
 31
0.0
  0
LINE
  5
16FDF
  8
DANMEN
  6
CONTINUOUS
 10
179.96300951949141
 20
283.42584761861252
 30
0.0
 11
179.46300951949141
 21
283.42584761861252
 31
0.0
  0
LINE
  5
16FE0
  8
DANMEN
  6
CONTINUOUS
 10
180.46300951949141
 20
282.92584761861229
 30
0.0
 11
180.46300951949141
 21
281.42584761861241
 31
0.0
  0
LINE
  5
16FE1
  8
DANMEN
  6
CONTINUOUS
 10
178.96300951949141
 20
282.92584761861229
 30
0.0
 11
178.96300951949141
 21
281.42584761861241
 31
0.0
  0
ARC
  5
16FE2
  8
DANMEN
  6
CONTINUOUS
 10
179.96300951949141
 20
282.92584761861229
 30
0.0
 40
0.5
 50
0.0
 51
90.0
  0
ARC
  5
16FE3
  8
DANMEN
  6
CONTINUOUS
 10
179.46300951949141
 20
282.92584761861229
 30
0.0
 40
0.5
 50
90.0
 51
180.0
  0
INSERT
  5
16FE4
  8
SUNPO
  6
CONTINUOUS
  2
_DOTSMALL
 10
212.61300951949141
 20
266.42584761861241
 30
0.0
 41
2.3199999999999918
 42
2.3199999999999918
 43
2.3199999999999981
 50
270.0
  0
INSERT
  5
16FE5
  8
SUNPO
  6
CONTINUOUS
  2
_DOTSMALL
 10
212.61300951949141
 20
266.42584761861241
 30
0.0
 41
2.3199999999999918
 42
2.3199999999999918
 43
2.3199999999999981
 50
90.0
  0
INSERT
  5
16FE6
  8
SUNPO
  6
CONTINUOUS
  2
_CLOSED
 10
240.11300951949141
 20
277.92584761861241
 30
0.0
 41
3.0
 42
3.0
 43
3.0
 50
180.0
  0
LINE
  5
16FE7
  8
SUNPO
  6
CONTINUOUS
 10
185.61300951949141
 20
306.42584761861229
 30
0.0
 11
212.61300951949141
 21
306.42584761861229
 31
0.0
  0
LINE
  5
16FE8
  8
SUNPO
  6
CONTINUOUS
 10
185.61300951949141
 20
306.42584761861229
 30
0.0
 11
212.61300951949141
 21
306.42584761861229
 31
0.0
  0
LINE
  5
16FE9
  8
SUNPO
  6
CONTINUOUS
 10
185.61300951949141
 20
306.42584761861229
 30
0.0
 11
202.61300951949141
 21
306.42584761861229
 31
0.0
  0
LINE
  5
16FEA
  8
DANMEN
  6
CONTINUOUS
 10
180.46300951949141
 20
303.27584761861249
 30
0.0
 11
180.46300951949141
 21
304.77584761861249
 31
0.0
  0
LINE
  5
16FEB
  8
DANMEN
  6
CONTINUOUS
 10
178.96300951949141
 20
303.27584761861249
 30
0.0
 11
178.96300951949141
 21
304.77584761861249
 31
0.0
  0
ARC
  5
16FEC
  8
DANMEN
  6
CONTINUOUS
 10
179.46300951949141
 20
303.27584761861249
 30
0.0
 40
0.5
 50
180.0
 51
270.0
  0
ARC
  5
16FED
  8
DANMEN
  6
CONTINUOUS
 10
179.96300951949141
 20
303.27584761861249
 30
0.0
 40
0.5
 50
270.0
 51
0.0
  0
LINE
  5
16FEE
  8
DANMEN
  6
CONTINUOUS
 10
179.96300951949141
 20
302.77584761861249
 30
0.0
 11
179.46300951949141
 21
302.77584761861249
 31
0.0
  0
LINE
  5
16FEF
  8
DANMEN
  6
CONTINUOUS
 10
180.46300951949141
 20
304.77584761861249
 30
0.0
 11
182.96300951949141
 21
304.77584761861249
 31
0.0
  0
ARC
  5
16FF0
  8
DANMEN
  6
CONTINUOUS
 10
184.11300951949141
 20
305.92584761861229
 30
0.0
 40
0.5
 50
0.0
 51
90.0
  0
INSERT
  5
16FF1
  8
SUNPO
  6
CONTINUOUS
  2
_DOTSMALL
 10
202.61300951949141
 20
306.42584761861229
 30
0.0
 41
2.3199999999999918
 42
2.3199999999999918
 43
2.3199999999999981
 50
270.0
  0
TEXT
  5
16FF2
  8
SUNPO
  6
CONTINUOUS
 10
201.61300951949141
 20
317.61334761861229
 30
0.0
 40
2.5
  1
32.5
 50
90.0
 41
1.3500000000000001
  7
MX_DIMTXSTY_5
  0
INSERT
  5
16FF3
  8
SUNPO
  6
CONTINUOUS
  2
_CLOSED
 10
212.61300951949141
 20
306.42584761861229
 30
0.0
 41
7.5
 42
7.5
 43
7.5
 50
270.0
  0
INSERT
  5
16FF4
  8
SUNPO
  6
CONTINUOUS
  2
_DOTSMALL
 10
212.61300951949141
 20
306.42584761861229
 30
0.0
 41
2.3199999999999918
 42
2.3199999999999918
 43
2.3199999999999981
 50
90.0
  0
TEXT
  5
16FF5
  8
SUNPO
  6
CONTINUOUS
 10
110.029676186158
 20
474.92584761861229
 30
0.0
 40
2.5
  1
55
  7
MX_NOTE_STANDARD
  0
LINE
  5
16FF6
  8
SUNPO
  6
CONTINUOUS
 10
84.613009519491456
 20
473.92584761861229
 30
0.0
 11
139.61300951949141
 21
473.92584761861229
 31
0.0
  0
LINE
  5
16FF7
  8
SUNPO
  6
CONTINUOUS
 10
138.61300951949141
 20
468.92584761861241
 30
0.0
 11
64.613009519491499
 21
468.92584761861241
 31
0.0
  0
LINE
  5
16FF8
  8
SUNPO
  6
CONTINUOUS
 10
138.11300951949141
 20
458.92584761861229
 30
0.0
 11
64.613009519491499
 21
458.92584761861229
 31
0.0
  0
LINE
  5
16FF9
  8
SUNPO
  6
CONTINUOUS
 10
159.61300951949141
 20
352.92584761861229
 30
0.0
 11
84.613009519491456
 21
352.92584761861229
 31
0.0
  0
INSERT
  5
16FFA
  8
SUNPO
  6
CONTINUOUS
  2
_DOTSMALL
 10
112.6130095194914
 20
362.92584761861229
 30
0.0
 41
2.3199999999999918
 42
2.3199999999999918
 43
2.3199999999999981
  0
LINE
  5
16FFB
  8
SUNPO
  6
CONTINUOUS
 10
112.6130095194914
 20
362.92584761861229
 30
0.0
 11
94.613009519491442
 21
362.92584761861229
 31
0.0
  0
INSERT
  5
16FFC
  8
SUNPO
  6
CONTINUOUS
  2
_DOTSMALL
 10
112.6130095194914
 20
362.92584761861229
 30
0.0
 41
2.3199999999999918
 42
2.3199999999999918
 43
2.3199999999999981
 50
180.0
  0
LINE
  5
16FFD
  8
SUNPO
  6
CONTINUOUS
 10
184.61300951949141
 20
342.92584761861229
 30
0.0
 11
84.613009519491456
 21
342.92584761861229
 31
0.0
  0
LINE
  5
16FFE
  8
DANMEN
  6
CONTINUOUS
 10
112.6130095194914
 20
412.21584761861237
 30
0.0
 11
87.063009519491445
 21
409.66084761861248
 31
0.0
  0
LINE
  5
16FFF
  8
DANMEN
  6
CONTINUOUS
 10
112.6130095194914
 20
414.22584761861248
 30
0.0
 11
85.063009519491473
 21
411.47084761861231
 31
0.0
  0
LINE
  5
17000
  8
DANMEN
  6
CONTINUOUS
 10
139.61300951949141
 20
457.26884761861231
 30
0.0
 11
109.0680095194914
 21
454.4918476186125
 31
0.0
  0
LINE
  5
17001
  8
DANMEN
  6
CONTINUOUS
 10
139.61300951949141
 20
458.92584761861229
 30
0.0
 11
85.068009519491483
 21
453.96684761861252
 31
0.0
  0
LINE
  5
17002
  8
DANMEN
  6
CONTINUOUS
 10
86.263009519491447
 20
431.42584761861241
 30
0.0
 11
123.96300951949139
 21
431.42584761861241
 31
0.0
  0
LINE
  5
17003
  8
DANMEN
  6
CONTINUOUS
 10
111.9130095194914
 20
433.07584761861227
 30
0.0
 11
127.3130095194914
 21
433.07584761861227
 31
0.0
  0
LINE
  5
17004
  8
DANMEN
  6
CONTINUOUS
 10
112.6130095194914
 20
384.57284761861229
 30
0.0
 11
109.7600095194914
 21
387.42584761861229
 31
0.0
  0
LINE
  5
17005
  8
DANMEN
  6
CONTINUOUS
 10
112.6130095194914
 20
381.74484761861231
 30
0.0
 11
106.9320095194913
 21
387.42584761861229
 31
0.0
  0
LINE
  5
17006
  8
DANMEN
  6
CONTINUOUS
 10
107.5840095194914
 20
380.5878476186125
 30
0.0
 11
112.6130095194914
 21
385.6168476186125
 31
0.0
  0
LINE
  5
17007
  8
DANMEN
  6
CONTINUOUS
 10
110.97800951949139
 20
381.1538476186123
 30
0.0
 11
112.6130095194914
 21
382.78784761861232
 31
0.0
  0
LINE
  5
17008
  8
DANMEN
  6
CONTINUOUS
 10
106.6130095194913
 20
380.42584761861229
 30
0.0
 11
112.6130095194914
 21
381.42584761861229
 31
0.0
  0
LINE
  5
17009
  8
DANMEN
  6
CONTINUOUS
 10
112.6130095194914
 20
387.42584761861229
 30
0.0
 11
106.6130095194913
 21
387.42584761861229
 31
0.0
  0
LINE
  5
1700A
  8
DANMEN
  6
CONTINUOUS
 10
106.6130095194913
 20
393.92584761861229
 30
0.0
 11
112.6130095194914
 21
393.92584761861229
 31
0.0
  0
LINE
  5
1700B
  8
SUNPO
  6
CONTINUOUS
 10
64.613009519491499
 20
418.92584761861241
 30
0.0
 11
64.613009519491499
 21
453.92584761861229
 31
0.0
  0
LINE
  5
1700C
  8
DANMEN
  6
CONTINUOUS
 10
84.613009519491456
 20
419.42584761861229
 30
0.0
 11
84.613009519491456
 21
453.46884761861247
 31
0.0
  0
LINE
  5
1700D
  8
DANMEN
  6
CONTINUOUS
 10
86.263009519491447
 20
428.92584761861229
 30
0.0
 11
86.263009519491447
 21
431.42584761861241
 31
0.0
  0
TEXT
  5
1700E
  8
SUNPO
  6
CONTINUOUS
 10
73.61300951949147
 20
384.67584761861229
 30
0.0
 40
2.5
  1
10
 50
90.0
 41
1.1999999999999991
  7
MX_DIMTXSTY_6
  0
LINE
  5
1700F
  8
SUNPO
  6
CONTINUOUS
 10
74.61300951949147
 20
381.42584761861229
 30
0.0
 11
74.61300951949147
 21
391.42584761861229
 31
0.0
  0
LINE
  5
17010
  8
SUNPO
  6
CONTINUOUS
 10
64.61300951949147
 20
381.42584761861229
 30
0.0
 11
64.613009519491499
 21
411.42584761861229
 31
0.0
  0
LINE
  5
17011
  8
DANMEN
  6
CONTINUOUS
 10
93.113009519491484
 20
383.42584761861252
 30
0.0
 11
93.113009519491484
 21
394.62584761861228
 31
0.0
  0
LINE
  5
17012
  8
DANMEN
  6
CONTINUOUS
 10
94.613009519491442
 20
381.92584761861229
 30
0.0
 11
94.613009519491442
 21
393.92584761861229
 31
0.0
  0
LINE
  5
17013
  8
DANMEN
  6
CONTINUOUS
 10
86.613009519491456
 20
383.42584761861252
 30
0.0
 11
86.613009519491456
 21
409.16384761861229
 31
0.0
  0
LINE
  5
17014
  8
DANMEN
  6
CONTINUOUS
 10
84.613009519491456
 20
381.92584761861229
 30
0.0
 11
84.613009519491456
 21
410.9738476186123
 31
0.0
  0
LINE
  5
17015
  8
DANMEN
  6
CONTINUOUS
 10
100.6130095194913
 20
382.43084761861229
 30
0.0
 11
95.618009519491423
 21
387.42584761861229
 31
0.0
  0
LINE
  5
17016
  8
DANMEN
  6
CONTINUOUS
 10
99.625009519491485
 20
380.59084761861232
 30
0.0
 11
94.613009519491442
 21
385.60284761861249
 31
0.0
  0
LINE
  5
17017
  8
DANMEN
  6
CONTINUOUS
 10
94.613009519491442
 20
384.5868476186123
 30
0.0
 11
97.452009519491483
 21
387.42584761861229
 31
0.0
  0
LINE
  5
17018
  8
DANMEN
  6
CONTINUOUS
 10
94.613009519491442
 20
381.75884761861238
 30
0.0
 11
100.2800095194914
 21
387.42584761861229
 31
0.0
  0
LINE
  5
17019
  8
DANMEN
  6
CONTINUOUS
 10
96.752009519491494
 20
381.0698476186123
 30
0.0
 11
100.6130095194913
 21
384.93084761861229
 31
0.0
  0
LINE
  5
1701A
  8
DANMEN
  6
CONTINUOUS
 10
110.4620095194914
 20
381.06684761861231
 30
0.0
 11
106.6130095194913
 21
384.9158476186123
 31
0.0
  0
LINE
  5
1701B
  8
DANMEN
  6
CONTINUOUS
 10
106.6130095194913
 20
382.4448476186123
 30
0.0
 11
111.59400951949139
 21
387.42584761861229
 31
0.0
  0
LINE
  5
1701C
  8
DANMEN
  6
CONTINUOUS
 10
100.6130095194913
 20
358.92584761861229
 30
0.0
 11
100.6130095194913
 21
391.42584761861229
 31
0.0
  0
LINE
  5
1701D
  8
DANMEN
  6
CONTINUOUS
 10
106.6130095194913
 20
358.92584761861229
 30
0.0
 11
106.6130095194913
 21
391.42584761861229
 31
0.0
  0
LINE
  5
1701E
  8
DANMEN
  6
CONTINUOUS
 10
101.6130095194913
 20
358.92584761861229
 30
0.0
 11
101.6130095194913
 21
391.42584761861229
 31
0.0
  0
LINE
  5
1701F
  8
DANMEN
  6
CONTINUOUS
 10
105.6130095194913
 20
358.92584761861229
 30
0.0
 11
105.6130095194913
 21
391.42584761861229
 31
0.0
  0
LINE
  5
17020
  8
SUNPO
  6
CONTINUOUS
 10
83.61300951949147
 20
381.42584761861229
 30
0.0
 11
74.61300951949147
 21
381.42584761861229
 31
0.0
  0
LINE
  5
17021
  8
SUNPO
  6
CONTINUOUS
 10
83.61300951949147
 20
381.42584761861229
 30
0.0
 11
64.61300951949147
 21
381.42584761861229
 31
0.0
  0
INSERT
  5
17022
  8
SUNPO
  6
CONTINUOUS
  2
_DOTSMALL
 10
64.61300951949147
 20
381.42584761861229
 30
0.0
 41
2.3199999999999918
 42
2.3199999999999918
 43
2.3199999999999981
 50
270.0
  0
INSERT
  5
17023
  8
SUNPO
  6
CONTINUOUS
  2
_DOTSMALL
 10
74.61300951949147
 20
381.42584761861229
 30
0.0
 41
2.3199999999999918
 42
2.3199999999999918
 43
2.3199999999999981
 50
270.0
  0
LINE
  5
17024
  8
DANMEN
  6
CONTINUOUS
 10
94.613009519491442
 20
358.92584761861229
 30
0.0
 11
94.613009519491442
 21
381.42584761861229
 31
0.0
  0
LINE
  5
17025
  8
DANMEN
  6
CONTINUOUS
 10
84.613009519491456
 20
358.92584761861229
 30
0.0
 11
84.613009519491456
 21
381.42584761861229
 31
0.0
  0
LINE
  5
17026
  8
DANMEN
  6
CONTINUOUS
 10
92.613009519491484
 20
358.92584761861229
 30
0.0
 11
92.613009519491484
 21
381.42584761861229
 31
0.0
  0
INSERT
  5
17027
  8
SUNPO
  6
CONTINUOUS
  2
_DOTSMALL
 10
84.613009519491456
 20
342.92584761861229
 30
0.0
 41
2.3199999999999918
 42
2.3199999999999918
 43
2.3199999999999981
 50
180.0
  0
INSERT
  5
17028
  8
SUNPO
  6
CONTINUOUS
  2
_DOTSMALL
 10
84.613009519491456
 20
352.92584761861229
 30
0.0
 41
2.3199999999999918
 42
2.3199999999999918
 43
2.3199999999999981
 50
180.0
  0
LINE
  5
17029
  8
DANMEN
  6
CONTINUOUS
 10
96.231009519491437
 20
381.15584761861231
 30
0.0
 11
94.613009519491442
 21
382.77384761861231
 31
0.0
  0
LINE
  5
1702A
  8
DANMEN
  6
CONTINUOUS
 10
100.6130095194913
 20
380.42584761861229
 30
0.0
 11
94.613009519491442
 21
381.42584761861229
 31
0.0
  0
LINE
  5
1702B
  8
SUNPO
  6
CONTINUOUS
 10
92.613009519491484
 20
372.92584761861229
 30
0.0
 11
86.62634285282482
 21
372.92584761861229
 31
0.0
  0
TEXT
  5
1702C
  8
SUNPO
  6
CONTINUOUS
 10
87.863009519491456
 20
363.92584761861229
 30
0.0
 40
2.5
  1
10
 41
1.1999999999999991
  7
MX_DIMTXSTY_6
  0
LINE
  5
1702D
  8
SUNPO
  6
CONTINUOUS
 10
84.613009519491456
 20
362.92584761861229
 30
0.0
 11
94.613009519491442
 21
362.92584761861229
 31
0.0
  0
INSERT
  5
1702E
  8
SUNPO
  6
CONTINUOUS
  2
_DOTSMALL
 10
84.613009519491456
 20
362.92584761861229
 30
0.0
 41
2.3199999999999918
 42
2.3199999999999918
 43
2.3199999999999981
 50
180.0
  0
INSERT
  5
1702F
  8
SUNPO
  6
CONTINUOUS
  2
_DOTSMALL
 10
94.613009519491442
 20
362.92584761861229
 30
0.0
 41
2.3199999999999918
 42
2.3199999999999918
 43
2.3199999999999981
 50
180.0
  0
INSERT
  5
17030
  8
SUNPO
  6
CONTINUOUS
  2
_DOTSMALL
 10
94.613009519491442
 20
362.92584761861229
 30
0.0
 41
2.3199999999999918
 42
2.3199999999999918
 43
2.3199999999999981
  0
INSERT
  5
17031
  8
SUNPO
  6
CONTINUOUS
  2
_DOTSMALL
 10
92.613009519491484
 20
372.92584761861229
 30
0.0
 41
2.3199999999999918
 42
2.3199999999999918
 43
2.3199999999999981
 50
180.0
  0
INSERT
  5
17032
  8
SUNPO
  6
CONTINUOUS
  2
_DOTSMALL
 10
94.613009519491442
 20
372.92584761861229
 30
0.0
 41
2.3199999999999918
 42
2.3199999999999918
 43
2.3199999999999981
  0
LINE
  5
17033
  8
SUNPO
  6
CONTINUOUS
 10
94.613009519491442
 20
372.92584761861229
 30
0.0
 11
92.613009519491484
 21
372.92584761861229
 31
0.0
  0
TEXT
  5
17034
  8
SUNPO
  6
CONTINUOUS
 10
87.626342852824806
 20
373.92584761861229
 30
0.0
 40
2.5
  1
2
  7
MX_NOTE_STANDARD
  0
LINE
  5
17035
  8
DANMEN
  6
CONTINUOUS
 10
86.613009519491456
 20
383.42584761861252
 30
0.0
 11
93.113009519491484
 21
383.42584761861252
 31
0.0
  0
LINE
  5
17036
  8
DANMEN
  6
CONTINUOUS
 10
85.11300951949147
 20
381.42584761861229
 30
0.0
 11
94.113009519491484
 21
381.42584761861229
 31
0.0
  0
ARC
  5
17037
  8
DANMEN
  6
CONTINUOUS
 10
85.11300951949147
 20
381.92584761861229
 30
0.0
 40
0.5
 50
180.0
 51
270.0
  0
ARC
  5
17038
  8
DANMEN
  6
CONTINUOUS
 10
94.113009519491484
 20
381.92584761861229
 30
0.0
 40
0.5
 50
270.0
 51
0.0
  0
TEXT
  5
17039
  8
SUNPO
  6
CONTINUOUS
 10
101.3630095194913
 20
363.92584761861229
 30
0.0
 40
2.5
  1
18
 41
1.3500000000000001
  7
MX_DIMTXSTY_5
  0
LINE
  5
1703A
  8
DANMEN
  6
CONTINUOUS
 10
99.176009519491487
 20
380.6648476186125
 30
0.0
 11
100.6130095194913
 21
382.10184761861228
 31
0.0
  0
LINE
  5
1703B
  8
DANMEN
  6
CONTINUOUS
 10
108.03700951949141
 20
380.66284761861232
 30
0.0
 11
106.6130095194913
 21
382.0878476186125
 31
0.0
  0
LINE
  5
1703C
  8
SUNPO
  6
CONTINUOUS
 10
83.113009519491484
 20
418.92584761861241
 30
0.0
 11
64.613009519491499
 21
418.92584761861241
 31
0.0
  0
LINE
  5
1703D
  8
SUNPO
  6
CONTINUOUS
 10
83.113009519491484
 20
411.42584761861229
 30
0.0
 11
64.613009519491499
 21
411.42584761861229
 31
0.0
  0
LINE
  5
1703E
  8
SUNPO
  6
CONTINUOUS
 10
99.113009519491484
 20
391.42584761861229
 30
0.0
 11
74.61300951949147
 21
391.42584761861229
 31
0.0
  0
LINE
  5
1703F
  8
SUNPO
  6
CONTINUOUS
 10
83.113009519491484
 20
411.42584761861229
 30
0.0
 11
64.613009519491499
 21
411.42584761861229
 31
0.0
  0
LINE
  5
17040
  8
SUNPO
  6
CONTINUOUS
 10
83.61300951949147
 20
418.92584761861241
 30
0.0
 11
64.613009519491499
 21
418.92584761861241
 31
0.0
  0
TEXT
  5
17041
  8
SUNPO
  6
CONTINUOUS
 10
63.61300951949147
 20
393.61334761861229
 30
0.0
 40
2.5
  1
30
 50
90.0
 41
1.5
  7
MX_DIMTXSTY_2
  0
INSERT
  5
17042
  8
SUNPO
  6
CONTINUOUS
  2
_DOTSMALL
 10
74.61300951949147
 20
391.42584761861229
 30
0.0
 41
2.3199999999999918
 42
2.3199999999999918
 43
2.3199999999999981
 50
90.0
  0
TEXT
  5
17043
  8
SUNPO
  6
CONTINUOUS
 10
63.61300951949147
 20
413.05084761861252
 30
0.0
 40
2.5
  1
7.5
 50
90.0
 41
0.85
  7
MX_DIMTXSTY_7
  0
LINE
  5
17044
  8
SUNPO
  6
CONTINUOUS
 10
64.613009519491499
 20
411.42584761861229
 30
0.0
 11
64.613009519491499
 21
418.92584761861241
 31
0.0
  0
INSERT
  5
17045
  8
SUNPO
  6
CONTINUOUS
  2
_DOTSMALL
 10
64.613009519491499
 20
411.42584761861229
 30
0.0
 41
2.3199999999999918
 42
2.3199999999999918
 43
2.3199999999999981
 50
270.0
  0
INSERT
  5
17046
  8
SUNPO
  6
CONTINUOUS
  2
_DOTSMALL
 10
64.613009519491499
 20
411.42584761861229
 30
0.0
 41
2.3199999999999918
 42
2.3199999999999918
 43
2.3199999999999981
 50
90.0
  0
INSERT
  5
17047
  8
SUNPO
  6
CONTINUOUS
  2
_DOTSMALL
 10
64.613009519491499
 20
418.92584761861241
 30
0.0
 41
2.3199999999999918
 42
2.3199999999999918
 43
2.3199999999999981
 50
90.0
  0
INSERT
  5
17048
  8
SUNPO
  6
CONTINUOUS
  2
_DOTSMALL
 10
64.613009519491499
 20
418.92584761861241
 30
0.0
 41
2.3199999999999918
 42
2.3199999999999918
 43
2.3199999999999981
 50
270.0
  0
ARC
  5
17049
  8
DANMEN
  6
CONTINUOUS
 10
95.613009519491484
 20
394.62584761861228
 30
0.0
 40
0.5
 50
0.0
 51
90.0
  0
LINE
  5
1704A
  8
DANMEN
  6
CONTINUOUS
 10
94.613009519491442
 20
393.92584761861229
 30
0.0
 11
96.113009519491484
 21
393.92584761861229
 31
0.0
  0
LINE
  5
1704B
  8
DANMEN
  6
CONTINUOUS
 10
94.613009519491442
 20
387.42584761861229
 30
0.0
 11
100.6130095194913
 21
387.42584761861229
 31
0.0
  0
LINE
  5
1704C
  8
DANMEN
  6
CONTINUOUS
 10
94.613009519491442
 20
387.4158476186123
 30
0.0
 11
94.623009519491447
 21
387.42584761861229
 31
0.0
  0
ARC
  5
1704D
  8
DANMEN
  6
CONTINUOUS
 10
93.613009519491484
 20
394.62584761861228
 30
0.0
 40
0.5
 50
90.0
 51
180.0
  0
LINE
  5
1704E
  8
DANMEN
  6
CONTINUOUS
 10
93.613009519491484
 20
395.12584761861228
 30
0.0
 11
95.613009519491484
 21
395.12584761861228
 31
0.0
  0
LINE
  5
1704F
  8
DANMEN
  6
CONTINUOUS
 10
100.6130095194913
 20
391.42584761861229
 30
0.0
 11
106.6130095194913
 21
391.42584761861229
 31
0.0
  0
LINE
  5
17050
  8
DANMEN
  6
CONTINUOUS
 10
100.6130095194913
 20
385.25884761861232
 30
0.0
 11
98.446009519491454
 21
387.42584761861229
 31
0.0
  0
LINE
  5
17051
  8
DANMEN
  6
CONTINUOUS
 10
100.6130095194913
 20
393.92584761861229
 30
0.0
 11
96.113009519491484
 21
393.92584761861229
 31
0.0
  0
LINE
  5
17052
  8
DANMEN
  6
CONTINUOUS
 10
96.113009519491484
 20
393.92584761861229
 30
0.0
 11
96.113009519491484
 21
394.62584761861228
 31
0.0
  0
LINE
  5
17053
  8
DANMEN
  6
CONTINUOUS
 10
100.6130095194913
 20
391.42584761861229
 30
0.0
 11
100.6130095194913
 21
393.92584761861229
 31
0.0
  0
LINE
  5
17054
  8
DANMEN
  6
CONTINUOUS
 10
106.6130095194913
 20
385.27384761861231
 30
0.0
 11
108.7650095194913
 21
387.42584761861229
 31
0.0
  0
LINE
  5
17055
  8
DANMEN
  6
CONTINUOUS
 10
106.6130095194913
 20
391.42584761861229
 30
0.0
 11
106.6130095194913
 21
393.92584761861229
 31
0.0
  0
LINE
  5
17056
  8
DANMEN
  6
CONTINUOUS
 10
90.913009519491496
 20
424.26184761861231
 30
0.0
 11
90.913009519491496
 21
413.82584761861227
 31
0.0
  0
LINE
  5
17057
  8
DANMEN
  6
CONTINUOUS
 10
89.413009519491482
 20
421.92584761861252
 30
0.0
 11
89.413009519491482
 21
418.42584761861252
 31
0.0
  0
LINE
  5
17058
  8
DANMEN
  6
CONTINUOUS
 10
89.413009519491482
 20
419.42584761861229
 30
0.0
 11
89.413009519491482
 21
421.22584761861231
 31
0.0
  0
LINE
  5
17059
  8
DANMEN
  6
CONTINUOUS
 10
85.11300951949147
 20
418.92584761861241
 30
0.0
 11
88.913009519491482
 21
418.92584761861241
 31
0.0
  0
LINE
  5
1705A
  8
DANMEN
  6
CONTINUOUS
 10
84.613009519491456
 20
418.92584761861241
 30
0.0
 11
84.613009519491456
 21
411.42584761861229
 31
0.0
  0
ARC
  5
1705B
  8
DANMEN
  6
CONTINUOUS
 10
85.11300951949147
 20
410.9738476186123
 30
0.0
 40
0.5
 50
95.710999999999942
 51
180.0
  0
ARC
  5
1705C
  8
DANMEN
  6
CONTINUOUS
 10
87.113009519491442
 20
409.16384761861229
 30
0.0
 40
0.5
 50
95.710999999999942
 51
180.0
  0
ARC
  5
1705D
  8
DANMEN
  6
CONTINUOUS
 10
85.11300951949147
 20
419.42584761861229
 30
0.0
 40
0.5
 50
180.0
 51
270.0
  0
LINE
  5
1705E
  8
DANMEN
  6
CONTINUOUS
 10
90.113009519491484
 20
417.73584761861252
 30
0.0
 11
90.113009519491484
 21
413.82584761861227
 31
0.0
  0
ARC
  5
1705F
  8
DANMEN
  6
CONTINUOUS
 10
90.513009519491476
 20
413.82584761861227
 30
0.0
 40
0.4
 50
180.0
 51
0.0
  0
LINE
  5
17060
  8
DANMEN
  6
CONTINUOUS
 10
89.413009519491482
 20
418.42584761861252
 30
0.0
 11
90.113009519491484
 21
417.73584761861252
 31
0.0
  0
ARC
  5
17061
  8
DANMEN
  6
CONTINUOUS
 10
88.913009519491482
 20
419.42584761861229
 30
0.0
 40
0.5
 50
270.0
 51
0.0
  0
ARC
  5
17062
  8
DANMEN
  6
CONTINUOUS
 10
87.813009519491459
 20
421.34984761861227
 30
0.0
 40
0.3
 50
220.3289999999995
 51
0.0
  0
ARC
  5
17063
  8
DANMEN
  6
CONTINUOUS
 10
87.813009519491459
 20
426.49984761861231
 30
0.0
 40
0.3
 50
0.0
 51
139.6710000000003
  0
LINE
  5
17064
  8
DANMEN
  6
CONTINUOUS
 10
86.263009519491447
 20
428.92584761861229
 30
0.0
 11
88.913009519491482
 21
428.92584761861229
 31
0.0
  0
LINE
  5
17065
  8
DANMEN
  6
CONTINUOUS
 10
86.263009519491447
 20
427.62584761861228
 30
0.0
 11
88.413009519491496
 21
427.62584761861228
 31
0.0
  0
LINE
  5
17066
  8
DANMEN
  6
CONTINUOUS
 10
86.263009519491447
 20
420.22584761861231
 30
0.0
 11
88.413009519491496
 21
420.22584761861231
 31
0.0
  0
LINE
  5
17067
  8
DANMEN
  6
CONTINUOUS
 10
86.913009519491482
 20
425.17584761861241
 30
0.0
 11
87.585009519491479
 21
426.6958476186125
 31
0.0
  0
LINE
  5
17068
  8
DANMEN
  6
CONTINUOUS
 10
86.263009519491447
 20
420.22584761861231
 30
0.0
 11
86.263009519491447
 21
427.62584761861228
 31
0.0
  0
LINE
  5
17069
  8
DANMEN
  6
CONTINUOUS
 10
86.913009519491482
 20
422.67584761861229
 30
0.0
 11
87.585009519491479
 21
421.15584761861248
 31
0.0
  0
LINE
  5
1706A
  8
DANMEN
  6
CONTINUOUS
 10
86.913009519491482
 20
425.17584761861241
 30
0.0
 11
86.913009519491482
 21
422.67584761861229
 31
0.0
  0
LINE
  5
1706B
  8
DANMEN
  6
CONTINUOUS
 10
90.913009519491496
 20
428.42584761861229
 30
0.0
 11
90.913009519491496
 21
420.09784761861249
 31
0.0
  0
CIRCLE
  5
1706C
  8
DANMEN
  6
CONTINUOUS
 10
88.739009519491461
 20
423.92584761861229
 30
0.0
 40
0.626
  0
LINE
  5
1706D
  8
DANMEN
  6
CONTINUOUS
 10
88.113009519491484
 20
421.92584761861252
 30
0.0
 11
89.413009519491482
 21
421.92584761861252
 31
0.0
  0
LINE
  5
1706E
  8
DANMEN
  6
CONTINUOUS
 10
88.113009519491484
 20
421.92584761861252
 30
0.0
 11
88.113009519491484
 21
421.34984761861227
 31
0.0
  0
LINE
  5
1706F
  8
DANMEN
  6
CONTINUOUS
 10
88.413009519491496
 20
420.22584761861231
 30
0.0
 11
88.413009519491496
 21
421.72584761861231
 31
0.0
  0
LINE
  5
17070
  8
DANMEN
  6
CONTINUOUS
 10
88.413009519491496
 20
421.72584761861231
 30
0.0
 11
88.913009519491482
 21
421.72584761861231
 31
0.0
  0
ARC
  5
17071
  8
DANMEN
  6
CONTINUOUS
 10
88.913009519491482
 20
421.22584761861231
 30
0.0
 40
0.5
 50
0.0
 51
90.0
  0
ARC
  5
17072
  8
DANMEN
  6
CONTINUOUS
 10
90.413009519491482
 20
428.42584761861229
 30
0.0
 40
0.5
 50
0.0
 51
90.0
  0
LINE
  5
17073
  8
DANMEN
  6
CONTINUOUS
 10
89.413009519491482
 20
428.92584761861229
 30
0.0
 11
90.413009519491482
 21
428.92584761861229
 31
0.0
  0
LINE
  5
17074
  8
DANMEN
  6
CONTINUOUS
 10
89.413009519491482
 20
428.92584761861229
 30
0.0
 11
89.413009519491482
 21
425.92584761861229
 31
0.0
  0
LINE
  5
17075
  8
DANMEN
  6
CONTINUOUS
 10
88.113009519491484
 20
425.92584761861229
 30
0.0
 11
89.413009519491482
 21
425.92584761861229
 31
0.0
  0
LINE
  5
17076
  8
DANMEN
  6
CONTINUOUS
 10
88.113009519491484
 20
426.49984761861231
 30
0.0
 11
88.113009519491484
 21
425.92584761861229
 31
0.0
  0
LINE
  5
17077
  8
DANMEN
  6
CONTINUOUS
 10
88.413009519491496
 20
426.12584761861228
 30
0.0
 11
88.913009519491482
 21
426.12584761861228
 31
0.0
  0
ARC
  5
17078
  8
DANMEN
  6
CONTINUOUS
 10
88.913009519491482
 20
428.42584761861229
 30
0.0
 40
0.5
 50
0.0
 51
90.0
  0
LINE
  5
17079
  8
DANMEN
  6
CONTINUOUS
 10
88.413009519491496
 20
426.12584761861228
 30
0.0
 11
88.413009519491496
 21
427.62584761861228
 31
0.0
  0
LINE
  5
1707A
  8
DANMEN
  6
CONTINUOUS
 10
89.413009519491482
 20
426.62584761861228
 30
0.0
 11
89.413009519491482
 21
428.42584761861229
 31
0.0
  0
ARC
  5
1707B
  8
DANMEN
  6
CONTINUOUS
 10
88.913009519491482
 20
426.62584761861228
 30
0.0
 40
0.5
 50
270.0
 51
0.0
  0
LINE
  5
1707C
  8
SUNPO
  6
CONTINUOUS
 10
83.113009519491484
 20
453.92584761861229
 30
0.0
 11
64.613009519491499
 21
453.92584761861229
 31
0.0
  0
LINE
  5
1707D
  8
SUNPO
  6
CONTINUOUS
 10
64.613009519491499
 20
453.92584761861229
 30
0.0
 11
64.613009519491499
 21
458.92584761861229
 31
0.0
  0
TEXT
  5
1707E
  8
SUNPO
  6
CONTINUOUS
 10
63.61300951949147
 20
434.34251428527909
 30
0.0
 40
2.5
  1
35
 50
90.0
  7
MX_NOTE_STANDARD
  0
INSERT
  5
1707F
  8
SUNPO
  6
CONTINUOUS
  2
_DOTSMALL
 10
64.613009519491499
 20
453.92584761861229
 30
0.0
 41
2.3199999999999918
 42
2.3199999999999918
 43
2.3199999999999981
 50
270.0
  0
INSERT
  5
17080
  8
SUNPO
  6
CONTINUOUS
  2
_DOTSMALL
 10
64.613009519491499
 20
453.92584761861229
 30
0.0
 41
2.3199999999999918
 42
2.3199999999999918
 43
2.3199999999999981
 50
90.0
  0
TEXT
  5
17081
  8
SUNPO
  6
CONTINUOUS
 10
63.61300951949147
 20
455.59251428527921
 30
0.0
 40
2.5
  1
5
 50
90.0
  7
MX_NOTE_STANDARD
  0
TEXT
  5
17082
  8
SUNPO
  6
CONTINUOUS
 10
63.61300951949147
 20
462.17584761861252
 30
0.0
 40
2.5
  1
10
 50
90.0
 41
1.1999999999999991
  7
MX_DIMTXSTY_6
  0
LINE
  5
17083
  8
SUNPO
  6
CONTINUOUS
 10
64.613009519491499
 20
458.92584761861229
 30
0.0
 11
64.613009519491499
 21
468.92584761861241
 31
0.0
  0
INSERT
  5
17084
  8
SUNPO
  6
CONTINUOUS
  2
_DOTSMALL
 10
64.613009519491499
 20
458.92584761861229
 30
0.0
 41
2.3199999999999918
 42
2.3199999999999918
 43
2.3199999999999981
 50
90.0
  0
INSERT
  5
17085
  8
SUNPO
  6
CONTINUOUS
  2
_DOTSMALL
 10
64.613009519491499
 20
458.92584761861229
 30
0.0
 41
2.3199999999999918
 42
2.3199999999999918
 43
2.3199999999999981
 50
270.0
  0
INSERT
  5
17086
  8
SUNPO
  6
CONTINUOUS
  2
_DOTSMALL
 10
64.613009519491499
 20
468.92584761861241
 30
0.0
 41
2.3199999999999918
 42
2.3199999999999918
 43
2.3199999999999981
 50
90.0
  0
ARC
  5
17087
  8
DANMEN
  6
CONTINUOUS
 10
109.1130095194914
 20
453.99384761861228
 30
0.0
 40
0.5
 50
95.194000000000386
 51
180.0
  0
LINE
  5
17088
  8
DANMEN
  6
CONTINUOUS
 10
86.263009519491447
 20
433.07584761861227
 30
0.0
 11
103.3130095194914
 21
433.07584761861227
 31
0.0
  0
LINE
  5
17089
  8
DANMEN
  6
CONTINUOUS
 10
106.0680095194914
 20
454.21984761861239
 30
0.0
 11
86.263009519491447
 21
452.41884761861229
 31
0.0
  0
LINE
  5
1708A
  8
DANMEN
  6
CONTINUOUS
 10
86.263009519491447
 20
433.07584761861227
 30
0.0
 11
86.263009519491447
 21
452.41884761861229
 31
0.0
  0
ARC
  5
1708B
  8
DANMEN
  6
CONTINUOUS
 10
85.11300951949147
 20
453.46884761861247
 30
0.0
 40
0.5
 50
95.194000000000386
 51
180.0
  0
ARC
  5
1708C
  8
DANMEN
  6
CONTINUOUS
 10
106.3130095194914
 20
435.95584761861238
 30
0.0
 40
2.0
 50
128.29300000000049
 51
180.0
  0
ARC
  5
1708D
  8
DANMEN
  6
CONTINUOUS
 10
103.3130095194914
 20
434.07584761861227
 30
0.0
 40
1.0
 50
270.0
 51
0.0
  0
LINE
  5
1708E
  8
DANMEN
  6
CONTINUOUS
 10
108.71300951949139
 20
437.22584761861231
 30
0.0
 11
108.71300951949139
 21
436.96284761861227
 31
0.0
  0
LINE
  5
1708F
  8
DANMEN
  6
CONTINUOUS
 10
106.5130095194914
 20
437.22584761861231
 30
0.0
 11
106.5130095194914
 21
436.96284761861227
 31
0.0
  0
ARC
  5
17090
  8
DANMEN
  6
CONTINUOUS
 10
108.9130095194914
 20
435.95584761861238
 30
0.0
 40
2.0
 50
0.0
 51
51.706999999999432
  0
LINE
  5
17091
  8
DANMEN
  6
CONTINUOUS
 10
108.4130095194914
 20
433.62584761861228
 30
0.0
 11
106.8130095194913
 21
433.62584761861228
 31
0.0
  0
LINE
  5
17092
  8
DANMEN
  6
CONTINUOUS
 10
104.3130095194914
 20
435.95584761861238
 30
0.0
 11
104.3130095194914
 21
434.07584761861227
 31
0.0
  0
LINE
  5
17093
  8
DANMEN
  6
CONTINUOUS
 10
105.8130095194913
 20
435.87184761861232
 30
0.0
 11
105.8130095194913
 21
434.62584761861228
 31
0.0
  0
ARC
  5
17094
  8
DANMEN
  6
CONTINUOUS
 10
106.3130095194914
 20
436.96284761861227
 30
0.0
 40
0.2
 50
294.6239999999994
 51
0.0
  0
ARC
  5
17095
  8
DANMEN
  6
CONTINUOUS
 10
106.8130095194913
 20
435.87184761861232
 30
0.0
 40
1.0
 50
114.6239999999994
 51
180.0
  0
ARC
  5
17096
  8
DANMEN
  6
CONTINUOUS
 10
106.8130095194913
 20
434.62584761861228
 30
0.0
 40
1.0
 50
180.0
 51
270.0
  0
LINE
  5
17097
  8
DANMEN
  6
CONTINUOUS
 10
110.9130095194914
 20
435.95584761861238
 30
0.0
 11
110.9130095194914
 21
434.07584761861227
 31
0.0
  0
LINE
  5
17098
  8
DANMEN
  6
CONTINUOUS
 10
109.4130095194914
 20
435.87184761861232
 30
0.0
 11
109.4130095194914
 21
434.62584761861228
 31
0.0
  0
ARC
  5
17099
  8
DANMEN
  6
CONTINUOUS
 10
108.4130095194914
 20
435.87184761861232
 30
0.0
 40
1.0
 50
0.0
 51
65.376000000000531
  0
ARC
  5
1709A
  8
DANMEN
  6
CONTINUOUS
 10
108.9130095194914
 20
436.96284761861227
 30
0.0
 40
0.2
 50
180.0
 51
245.3760000000004
  0
ARC
  5
1709B
  8
DANMEN
  6
CONTINUOUS
 10
108.4130095194914
 20
434.62584761861228
 30
0.0
 40
1.0
 50
270.0
 51
0.0
  0
ARC
  5
1709C
  8
DANMEN
  6
CONTINUOUS
 10
111.9130095194914
 20
434.07584761861227
 30
0.0
 40
1.0
 50
180.0
 51
270.0
  0
LINE
  5
1709D
  8
DANMEN
  6
CONTINUOUS
 10
105.0740095194914
 20
437.52584761861232
 30
0.0
 11
106.21300951949139
 21
437.52584761861232
 31
0.0
  0
ARC
  5
1709E
  8
DANMEN
  6
CONTINUOUS
 10
106.21300951949139
 20
437.22584761861231
 30
0.0
 40
0.3
 50
0.0
 51
90.0
  0
LINE
  5
1709F
  8
DANMEN
  6
CONTINUOUS
 10
110.1520095194914
 20
437.52584761861232
 30
0.0
 11
109.01300951949131
 21
437.52584761861232
 31
0.0
  0
ARC
  5
170A0
  8
DANMEN
  6
CONTINUOUS
 10
109.01300951949131
 20
437.22584761861231
 30
0.0
 40
0.3
 50
90.0
 51
180.0
  0
ARC
  5
170A1
  8
DANMEN
  6
CONTINUOUS
 10
106.3130095194914
 20
448.89584761861249
 30
0.0
 40
2.0
 50
180.0
 51
258.46300000000002
  0
ARC
  5
170A2
  8
DANMEN
  6
CONTINUOUS
 10
106.8130095194913
 20
450.22584761861231
 30
0.0
 40
2.5
 50
103.4930000000009
 51
180.0
  0
ARC
  5
170A3
  8
DANMEN
  6
CONTINUOUS
 10
108.4130095194914
 20
448.97984761861233
 30
0.0
 40
1.0
 50
294.6239999999994
 51
0.0
  0
ARC
  5
170A4
  8
DANMEN
  6
CONTINUOUS
 10
108.9130095194914
 20
448.89584761861249
 30
0.0
 40
2.0
 50
281.53699999999992
 51
0.0
  0
ARC
  5
170A5
  8
DANMEN
  6
CONTINUOUS
 10
106.8130095194913
 20
448.97984761861233
 30
0.0
 40
1.0
 50
180.0
 51
245.3760000000004
  0
ARC
  5
170A6
  8
DANMEN
  6
CONTINUOUS
 10
106.01300951949131
 20
447.42584761861252
 30
0.0
 40
0.5
 50
258.46300000000002
 51
0.0
  0
ARC
  5
170A7
  8
DANMEN
  6
CONTINUOUS
 10
106.3130095194914
 20
447.88884761861232
 30
0.0
 40
0.2
 50
0.0
 51
65.376000000000531
  0
LINE
  5
170A8
  8
DANMEN
  6
CONTINUOUS
 10
106.5130095194914
 20
447.42584761861252
 30
0.0
 11
106.5130095194914
 21
447.88884761861232
 31
0.0
  0
LINE
  5
170A9
  8
DANMEN
  6
CONTINUOUS
 10
108.71300951949139
 20
447.42584761861252
 30
0.0
 11
108.71300951949139
 21
447.88884761861232
 31
0.0
  0
ARC
  5
170AA
  8
DANMEN
  6
CONTINUOUS
 10
108.9130095194914
 20
447.88884761861232
 30
0.0
 40
0.2
 50
114.6239999999994
 51
180.0
  0
ARC
  5
170AB
  8
DANMEN
  6
CONTINUOUS
 10
109.21300951949139
 20
447.42584761861252
 30
0.0
 40
0.5
 50
180.0
 51
281.53699999999992
  0
LINE
  5
170AC
  8
DANMEN
  6
CONTINUOUS
 10
106.8130095194913
 20
451.22584761861248
 30
0.0
 11
108.4130095194914
 21
451.22584761861248
 31
0.0
  0
ARC
  5
170AD
  8
DANMEN
  6
CONTINUOUS
 10
106.1130095194914
 20
453.14284761861239
 30
0.0
 40
0.5
 50
283.4930000000009
 51
0.0
  0
ARC
  5
170AE
  8
DANMEN
  6
CONTINUOUS
 10
106.8130095194913
 20
450.22584761861231
 30
0.0
 40
1.0
 50
90.0
 51
180.0
  0
LINE
  5
170AF
  8
DANMEN
  6
CONTINUOUS
 10
104.3130095194914
 20
448.89584761861249
 30
0.0
 11
104.3130095194914
 21
450.22584761861231
 31
0.0
  0
LINE
  5
170B0
  8
DANMEN
  6
CONTINUOUS
 10
105.8130095194913
 20
448.97984761861233
 30
0.0
 11
105.8130095194913
 21
450.22584761861231
 31
0.0
  0
LINE
  5
170B1
  8
DANMEN
  6
CONTINUOUS
 10
106.6130095194913
 20
453.72184761861229
 30
0.0
 11
106.6130095194913
 21
453.14284761861239
 31
0.0
  0
ARC
  5
170B2
  8
DANMEN
  6
CONTINUOUS
 10
106.1130095194914
 20
453.72184761861229
 30
0.0
 40
0.5
 50
0.0
 51
95.194000000000386
  0
ARC
  5
170B3
  8
DANMEN
  6
CONTINUOUS
 10
109.1130095194914
 20
453.14284761861239
 30
0.0
 40
0.5
 50
180.0
 51
256.5069999999991
  0
LINE
  5
170B4
  8
DANMEN
  6
CONTINUOUS
 10
110.9130095194914
 20
448.89584761861249
 30
0.0
 11
110.9130095194914
 21
450.22584761861231
 31
0.0
  0
LINE
  5
170B5
  8
DANMEN
  6
CONTINUOUS
 10
109.4130095194914
 20
448.97984761861233
 30
0.0
 11
109.4130095194914
 21
450.22584761861231
 31
0.0
  0
ARC
  5
170B6
  8
DANMEN
  6
CONTINUOUS
 10
108.4130095194914
 20
450.22584761861231
 30
0.0
 40
1.0
 50
0.0
 51
90.0
  0
ARC
  5
170B7
  8
DANMEN
  6
CONTINUOUS
 10
108.4130095194914
 20
450.22584761861231
 30
0.0
 40
2.5
 50
0.0
 51
76.506999999999067
  0
LINE
  5
170B8
  8
DANMEN
  6
CONTINUOUS
 10
108.6130095194913
 20
453.99384761861228
 30
0.0
 11
108.6130095194913
 21
453.14284761861239
 31
0.0
  0
LINE
  5
170B9
  8
SUNPO
  6
CONTINUOUS
 10
84.613009519491456
 20
454.96884761861241
 30
0.0
 11
84.613009519491456
 21
473.92584761861229
 31
0.0
  0
INSERT
  5
170BA
  8
SUNPO
  6
CONTINUOUS
  2
_DOTSMALL
 10
84.613009519491456
 20
473.92584761861229
 30
0.0
 41
2.3199999999999918
 42
2.3199999999999918
 43
2.3199999999999981
 50
180.0
  0
LINE
  5
170BB
  8
SUNPO
  6
CONTINUOUS
 10
212.61300951949141
 20
458.92584761861229
 30
0.0
 11
212.61300951949141
 21
418.92584761861241
 31
0.0
  0
LINE
  5
170BC
  8
DANMEN
  6
CONTINUOUS
 10
123.96300951949139
 20
420.42584761861229
 30
0.0
 11
123.96300951949139
 21
431.42584761861241
 31
0.0
  0
LINE
  5
170BD
  8
DANMEN
  6
CONTINUOUS
 10
125.6130095194913
 20
410.92584761861229
 30
0.0
 11
125.6130095194913
 21
431.42584761861241
 31
0.0
  0
LINE
  5
170BE
  8
DANMEN
  6
CONTINUOUS
 10
182.96300951949141
 20
420.57584761861227
 30
0.0
 11
182.96300951949141
 21
431.42584761861241
 31
0.0
  0
LINE
  5
170BF
  8
DANMEN
  6
CONTINUOUS
 10
184.61300951949141
 20
419.42584761861229
 30
0.0
 11
184.61300951949141
 21
458.42584761861229
 31
0.0
  0
LINE
  5
170C0
  8
DANMEN
  6
CONTINUOUS
 10
163.61300951949141
 20
391.42584761861229
 30
0.0
 11
163.61300951949141
 21
431.42584761861241
 31
0.0
  0
LINE
  5
170C1
  8
SUNPO
  6
CONTINUOUS
 10
161.11300951949141
 20
338.92584761861229
 30
0.0
 11
202.61300951949141
 21
338.92584761861229
 31
0.0
  0
LINE
  5
170C2
  8
SUNPO
  6
CONTINUOUS
 10
182.61300951949141
 20
372.92584761861229
 30
0.0
 11
163.61300951949141
 21
372.92584761861229
 31
0.0
  0
LINE
  5
170C3
  8
SUNPO
  6
CONTINUOUS
 10
184.61300951949141
 20
352.92584761861229
 30
0.0
 11
159.61300951949141
 21
352.92584761861229
 31
0.0
  0
LINE
  5
170C4
  8
SUNPO
  6
CONTINUOUS
 10
163.61300951949141
 20
362.92584761861229
 30
0.0
 11
184.61300951949141
 21
362.92584761861229
 31
0.0
  0
LINE
  5
170C5
  8
DANMEN
  6
CONTINUOUS
 10
175.8130095194914
 20
383.07584761861227
 30
0.0
 11
180.96300951949141
 21
383.07584761861227
 31
0.0
  0
LINE
  5
170C6
  8
DANMEN
  6
CONTINUOUS
 10
164.11300951949141
 20
381.42584761861229
 30
0.0
 11
182.11300951949141
 21
381.42584761861229
 31
0.0
  0
LINE
  5
170C7
  8
DANMEN
  6
CONTINUOUS
 10
112.6130095194914
 20
381.92584761861229
 30
0.0
 11
112.6130095194914
 21
412.21584761861237
 31
0.0
  0
LINE
  5
170C8
  8
DANMEN
  6
CONTINUOUS
 10
159.61300951949141
 20
381.92584761861229
 30
0.0
 11
159.61300951949141
 21
407.42584761861229
 31
0.0
  0
LINE
  5
170C9
  8
DANMEN
  6
CONTINUOUS
 10
114.6130095194914
 20
383.42584761861252
 30
0.0
 11
114.6130095194914
 21
400.92584761861229
 31
0.0
  0
LINE
  5
170CA
  8
DANMEN
  6
CONTINUOUS
 10
167.61300951949141
 20
384.92584761861229
 30
0.0
 11
165.48700951949141
 21
383.70884761861231
 31
0.0
  0
LINE
  5
170CB
  8
DANMEN
  6
CONTINUOUS
 10
162.61300951949141
 20
390.42584761861229
 30
0.0
 11
162.61300951949141
 21
382.42584761861229
 31
0.0
  0
LINE
  5
170CC
  8
DANMEN
  6
CONTINUOUS
 10
159.61800951949141
 20
389.80184761861233
 30
0.0
 11
159.61800951949141
 21
383.04984761861249
 31
0.0
  0
LINE
  5
170CD
  8
DANMEN
  6
CONTINUOUS
 10
161.1160095194914
 20
383.45784761861228
 30
0.0
 11
161.1160095194914
 21
389.39384761861248
 31
0.0
  0
LINE
  5
170CE
  8
DANMEN
  6
CONTINUOUS
 10
167.96300951949141
 20
383.07584761861227
 30
0.0
 11
167.96300951949141
 21
390.12584761861228
 31
0.0
  0
ARC
  5
170CF
  8
DANMEN
  6
CONTINUOUS
 10
170.8130095194914
 20
385.12584761861228
 30
0.0
 40
1.0
 50
180.0
 51
270.0
  0
ARC
  5
170D0
  8
DANMEN
  6
CONTINUOUS
 10
172.3130095194914
 20
385.12584761861228
 30
0.0
 40
1.0
 50
270.0
 51
0.0
  0
LINE
  5
170D1
  8
DANMEN
  6
CONTINUOUS
 10
174.8130095194914
 20
385.7598476186123
 30
0.0
 11
174.8130095194914
 21
384.07584761861239
 31
0.0
  0
LINE
  5
170D2
  8
DANMEN
  6
CONTINUOUS
 10
151.51300951949139
 20
385.51484761861229
 30
0.0
 11
151.51300951949139
 21
384.42584761861229
 31
0.0
  0
LINE
  5
170D3
  8
DANMEN
  6
CONTINUOUS
 10
153.3130095194914
 20
385.51484761861229
 30
0.0
 11
153.3130095194914
 21
384.42584761861229
 31
0.0
  0
LINE
  5
170D4
  8
DANMEN
  6
CONTINUOUS
 10
157.61300951949141
 20
386.72584761861231
 30
0.0
 11
157.61300951949141
 21
384.42584761861229
 31
0.0
  0
LINE
  5
170D5
  8
SUNPO
  6
CONTINUOUS
 10
159.61300951949141
 20
362.92584761861229
 30
0.0
 11
112.6130095194914
 21
362.92584761861229
 31
0.0
  0
LINE
  5
170D6
  8
DANMEN
  6
CONTINUOUS
 10
114.6130095194914
 20
383.42584761861252
 30
0.0
 11
150.51300951949139
 21
383.42584761861252
 31
0.0
  0
LINE
  5
170D7
  8
DANMEN
  6
CONTINUOUS
 10
113.1130095194913
 20
381.42584761861229
 30
0.0
 11
159.11300951949141
 21
381.42584761861229
 31
0.0
  0
LINE
  5
170D8
  8
DANMEN
  6
CONTINUOUS
 10
112.6130095194914
 20
358.92584761861229
 30
0.0
 11
112.6130095194914
 21
381.42584761861229
 31
0.0
  0
TEXT
  5
170D9
  8
SUNPO
  6
CONTINUOUS
 10
120.029676186158
 20
353.92584761861229
 30
0.0
 40
2.5
  1
75
  7
MX_NOTE_STANDARD
  0
TEXT
  5
170DA
  8
SUNPO
  6
CONTINUOUS
 10
132.48800951949141
 20
343.92584761861229
 30
0.0
 40
2.5
  1
100
 41
0.85
  7
MX_DIMTXSTY_7
  0
ARC
  5
170DB
  8
DANMEN
  6
CONTINUOUS
 10
113.1130095194913
 20
381.92584761861229
 30
0.0
 40
0.5
 50
180.0
 51
270.0
  0
TEXT
  5
170DC
  8
SUNPO
  6
CONTINUOUS
 10
134.0296761861581
 20
363.92584761861229
 30
0.0
 40
2.5
  1
47
  7
MX_NOTE_STANDARD
  0
LINE
  5
170DD
  8
DANMEN
  6
CONTINUOUS
 10
159.61300951949141
 20
358.92584761861229
 30
0.0
 11
159.61300951949141
 21
381.42584761861229
 31
0.0
  0
LINE
  5
170DE
  8
DANMEN
  6
CONTINUOUS
 10
163.61300951949141
 20
358.92584761861229
 30
0.0
 11
163.61300951949141
 21
381.42584761861229
 31
0.0
  0
LINE
  5
170DF
  8
DANMEN
  6
CONTINUOUS
 10
159.61300951949141
 20
338.92584761861229
 30
0.0
 11
159.61300951949141
 21
353.92584761861229
 31
0.0
  0
LINE
  5
170E0
  8
SUNPO
  6
CONTINUOUS
 10
156.61300951949141
 20
338.92584761861229
 30
0.0
 11
147.11300951949141
 21
338.92584761861229
 31
0.0
  0
INSERT
  5
170E1
  8
SUNPO
  6
CONTINUOUS
  2
_DOTSMALL
 10
147.11300951949141
 20
338.92584761861229
 30
0.0
 41
2.3199999999999918
 42
2.3199999999999918
 43
2.3199999999999981
 50
90.0
  0
LINE
  5
170E2
  8
DANMEN
  6
CONTINUOUS
 10
158.11300951949141
 20
338.92584761861229
 30
0.0
 11
159.11300951949141
 21
338.92584761861229
 31
0.0
  0
INSERT
  5
170E3
  8
SUNPO
  6
CONTINUOUS
  2
_DOTSMALL
 10
159.61300951949141
 20
352.92584761861229
 30
0.0
 41
2.3199999999999918
 42
2.3199999999999918
 43
2.3199999999999981
  0
INSERT
  5
170E4
  8
SUNPO
  6
CONTINUOUS
  2
_DOTSMALL
 10
159.61300951949141
 20
352.92584761861229
 30
0.0
 41
2.3199999999999918
 42
2.3199999999999918
 43
2.3199999999999981
 50
180.0
  0
TEXT
  5
170E5
  8
SUNPO
  6
CONTINUOUS
 10
170.02967618615801
 20
353.92584761861229
 30
0.0
 40
2.5
  1
25
  7
MX_NOTE_STANDARD
  0
TEXT
  5
170E6
  8
SUNPO
  6
CONTINUOUS
 10
160.77967618615801
 20
363.92584761861229
 30
0.0
 40
2.5
  1
4
  7
MX_NOTE_STANDARD
  0
LINE
  5
170E7
  8
SUNPO
  6
CONTINUOUS
 10
159.61300951949141
 20
362.92584761861229
 30
0.0
 11
163.61300951949141
 21
362.92584761861229
 31
0.0
  0
ARC
  5
170E8
  8
DANMEN
  6
CONTINUOUS
 10
161.41600951949141
 20
383.45784761861228
 30
0.0
 40
0.3
 50
180.0
 51
304.84899999999942
  0
ARC
  5
170E9
  8
DANMEN
  6
CONTINUOUS
 10
161.16200951949139
 20
382.9628476186125
 30
0.0
 40
1.5469999999999979
 50
176.75499999999931
 51
339.6980000000006
  0
INSERT
  5
170EA
  8
SUNPO
  6
CONTINUOUS
  2
_DOTSMALL
 10
159.61300951949141
 20
362.92584761861229
 30
0.0
 41
2.3199999999999918
 42
2.3199999999999918
 43
2.3199999999999981
  0
INSERT
  5
170EB
  8
SUNPO
  6
CONTINUOUS
  2
_DOTSMALL
 10
159.61300951949141
 20
362.92584761861229
 30
0.0
 41
2.3199999999999918
 42
2.3199999999999918
 43
2.3199999999999981
 50
180.0
  0
ARC
  5
170EC
  8
DANMEN
  6
CONTINUOUS
 10
154.3130095194914
 20
384.42584761861229
 30
0.0
 40
1.0
 50
180.0
 51
270.0
  0
ARC
  5
170ED
  8
DANMEN
  6
CONTINUOUS
 10
150.51300951949139
 20
384.42584761861229
 30
0.0
 40
1.0
 50
270.0
 51
0.0
  0
ARC
  5
170EE
  8
DANMEN
  6
CONTINUOUS
 10
156.61300951949141
 20
384.42584761861229
 30
0.0
 40
1.0
 50
270.0
 51
0.0
  0
LINE
  5
170EF
  8
DANMEN
  6
CONTINUOUS
 10
156.61300951949141
 20
383.42584761861252
 30
0.0
 11
154.3130095194914
 21
383.42584761861252
 31
0.0
  0
ARC
  5
170F0
  8
DANMEN
  6
CONTINUOUS
 10
159.11300951949141
 20
381.92584761861229
 30
0.0
 40
0.5
 50
270.0
 51
0.0
  0
INSERT
  5
170F1
  8
SUNPO
  6
CONTINUOUS
  2
_DOTSMALL
 10
163.61300951949141
 20
362.92584761861229
 30
0.0
 41
2.3199999999999918
 42
2.3199999999999918
 43
2.3199999999999981
  0
INSERT
  5
170F2
  8
SUNPO
  6
CONTINUOUS
  2
_DOTSMALL
 10
163.61300951949141
 20
362.92584761861229
 30
0.0
 41
2.3199999999999918
 42
2.3199999999999918
 43
2.3199999999999981
 50
180.0
  0
INSERT
  5
170F3
  8
SUNPO
  6
CONTINUOUS
  2
_DOTSMALL
 10
163.61300951949141
 20
372.92584761861229
 30
0.0
 41
2.3199999999999918
 42
2.3199999999999918
 43
2.3199999999999981
 50
180.0
  0
TEXT
  5
170F4
  8
SUNPO
  6
CONTINUOUS
 10
171.86300951949141
 20
363.92584761861229
 30
0.0
 40
2.5
  1
21
 41
1.3500000000000001
  7
MX_DIMTXSTY_5
  0
LINE
  5
170F5
  8
DANMEN
  6
CONTINUOUS
 10
164.61300951949141
 20
383.07584761861227
 30
0.0
 11
167.96300951949141
 21
383.07584761861227
 31
0.0
  0
LINE
  5
170F6
  8
DANMEN
  6
CONTINUOUS
 10
163.61300951949141
 20
384.42584761861229
 30
0.0
 11
165.36300951949141
 21
384.42584761861229
 31
0.0
  0
LINE
  5
170F7
  8
DANMEN
  6
CONTINUOUS
 10
162.61300951949141
 20
382.42584761861229
 30
0.0
 11
163.61300951949141
 21
382.42584761861229
 31
0.0
  0
LINE
  5
170F8
  8
DANMEN
  6
CONTINUOUS
 10
165.36300951949141
 20
384.42584761861229
 30
0.0
 11
165.14600951949151
 21
384.05084761861229
 31
0.0
  0
ARC
  5
170F9
  8
DANMEN
  6
CONTINUOUS
 10
165.36300951949141
 20
383.92584761861229
 30
0.0
 40
0.25
 50
149.9999999999998
 51
299.78999999999962
  0
LINE
  5
170FA
  8
DANMEN
  6
CONTINUOUS
 10
163.61300951949141
 20
384.42584761861229
 30
0.0
 11
163.61300951949141
 21
382.42584761861229
 31
0.0
  0
LINE
  5
170FB
  8
DANMEN
  6
CONTINUOUS
 10
162.61300951949141
 20
383.92584761861229
 30
0.0
 11
161.5870095194914
 21
383.2118476186123
 31
0.0
  0
LINE
  5
170FC
  8
DANMEN
  6
CONTINUOUS
 10
163.61300951949141
 20
381.92584761861229
 30
0.0
 11
163.61300951949141
 21
383.92584761861229
 31
0.0
  0
LINE
  5
170FD
  8
DANMEN
  6
CONTINUOUS
 10
164.11300951949141
 20
384.42584761861229
 30
0.0
 11
164.61300951949141
 21
384.42584761861229
 31
0.0
  0
LINE
  5
170FE
  8
DANMEN
  6
CONTINUOUS
 10
164.61300951949141
 20
383.07584761861227
 30
0.0
 11
164.61300951949141
 21
384.42584761861229
 31
0.0
  0
ARC
  5
170FF
  8
DANMEN
  6
CONTINUOUS
 10
164.11300951949141
 20
381.92584761861229
 30
0.0
 40
0.5
 50
180.0
 51
270.0
  0
ARC
  5
17100
  8
DANMEN
  6
CONTINUOUS
 10
164.11300951949141
 20
383.92584761861229
 30
0.0
 40
0.5
 50
90.0
 51
180.0
  0
TEXT
  5
17101
  8
SUNPO
  6
CONTINUOUS
 10
170.86300951949141
 20
373.92584761861229
 30
0.0
 40
2.5
  1
19
 41
1.3500000000000001
  7
MX_DIMTXSTY_5
  0
LINE
  5
17102
  8
DANMEN
  6
CONTINUOUS
 10
170.8130095194914
 20
384.12584761861228
 30
0.0
 11
172.3130095194914
 21
384.12584761861228
 31
0.0
  0
ARC
  5
17103
  8
DANMEN
  6
CONTINUOUS
 10
175.8130095194914
 20
384.07584761861239
 30
0.0
 40
1.0
 50
180.0
 51
270.0
  0
LINE
  5
17104
  8
DANMEN
  6
CONTINUOUS
 10
114.6130095194914
 20
402.92584761861229
 30
0.0
 11
157.61300951949141
 21
402.92584761861229
 31
0.0
  0
LINE
  5
17105
  8
DANMEN
  6
CONTINUOUS
 10
131.71300951949141
 20
400.92584761861229
 30
0.0
 11
157.61300951949141
 21
400.92584761861229
 31
0.0
  0
LINE
  5
17106
  8
DANMEN
  6
CONTINUOUS
 10
129.61300951949141
 20
407.92584761861229
 30
0.0
 11
157.61300951949141
 21
407.92584761861229
 31
0.0
  0
LINE
  5
17107
  8
DANMEN
  6
CONTINUOUS
 10
114.6130095194914
 20
402.92584761861229
 30
0.0
 11
114.6130095194914
 21
416.92584761861229
 31
0.0
  0
LINE
  5
17108
  8
DANMEN
  6
CONTINUOUS
 10
125.6130095194913
 20
402.92584761861229
 30
0.0
 11
125.6130095194913
 21
410.42584761861229
 31
0.0
  0
LINE
  5
17109
  8
DANMEN
  6
CONTINUOUS
 10
118.6130095194914
 20
402.92584761861229
 30
0.0
 11
118.6130095194914
 21
410.42584761861229
 31
0.0
  0
ARC
  5
1710A
  8
DANMEN
  6
CONTINUOUS
 10
128.41300951949131
 20
395.12584761861228
 30
0.0
 40
2.299999999999998
 50
270.0
 51
0.0
  0
ARC
  5
1710B
  8
DANMEN
  6
CONTINUOUS
 10
127.9130095194914
 20
395.32584761861227
 30
0.0
 40
1.0
 50
279.59399999999988
 51
0.0
  0
ARC
  5
1710C
  8
DANMEN
  6
CONTINUOUS
 10
127.9130095194914
 20
397.22584761861231
 30
0.0
 40
1.0
 50
0.0
 51
90.0
  0
ARC
  5
1710D
  8
DANMEN
  6
CONTINUOUS
 10
124.6130095194913
 20
407.92284761861231
 30
0.0
 40
5.0
 50
270.0
 51
0.0
  0
LINE
  5
1710E
  8
DANMEN
  6
CONTINUOUS
 10
122.5130095194914
 20
395.12584761861228
 30
0.0
 11
122.5130095194914
 21
399.92584761861229
 31
0.0
  0
LINE
  5
1710F
  8
DANMEN
  6
CONTINUOUS
 10
124.3130095194914
 20
395.32584761861227
 30
0.0
 11
124.3130095194914
 21
397.22584761861231
 31
0.0
  0
LINE
  5
17110
  8
DANMEN
  6
CONTINUOUS
 10
112.6130095194914
 20
387.40184761861229
 30
0.0
 11
112.5890095194914
 21
387.42584761861229
 31
0.0
  0
ARC
  5
17111
  8
DANMEN
  6
CONTINUOUS
 10
124.8130095194914
 20
395.12584761861228
 30
0.0
 40
2.299999999999998
 50
180.0
 51
270.0
  0
ARC
  5
17112
  8
DANMEN
  6
CONTINUOUS
 10
125.3130095194914
 20
395.32584761861227
 30
0.0
 40
1.0
 50
180.0
 51
260.40599999999989
  0
ARC
  5
17113
  8
DANMEN
  6
CONTINUOUS
 10
124.8130095194914
 20
393.32584761861227
 30
0.0
 40
0.5
 50
270.0
 51
0.0
  0
ARC
  5
17114
  8
DANMEN
  6
CONTINUOUS
 10
128.41300951949131
 20
393.32584761861227
 30
0.0
 40
0.5
 50
180.0
 51
270.0
  0
ARC
  5
17115
  8
DANMEN
  6
CONTINUOUS
 10
128.11300951949141
 20
394.14284761861228
 30
0.0
 40
0.2
 50
99.594000000000037
 51
180.0
  0
ARC
  5
17116
  8
DANMEN
  6
CONTINUOUS
 10
125.1130095194914
 20
394.14284761861228
 30
0.0
 40
0.2
 50
0.0
 51
80.405999999999949
  0
LINE
  5
17117
  8
DANMEN
  6
CONTINUOUS
 10
127.9130095194914
 20
393.32584761861227
 30
0.0
 11
127.9130095194914
 21
394.14284761861228
 31
0.0
  0
LINE
  5
17118
  8
DANMEN
  6
CONTINUOUS
 10
125.3130095194914
 20
393.32584761861227
 30
0.0
 11
125.3130095194914
 21
394.14284761861228
 31
0.0
  0
LINE
  5
17119
  8
DANMEN
  6
CONTINUOUS
 10
114.6130095194914
 20
400.92584761861229
 30
0.0
 11
121.51300951949131
 21
400.92584761861229
 31
0.0
  0
ARC
  5
1711A
  8
DANMEN
  6
CONTINUOUS
 10
125.3130095194914
 20
397.22584761861231
 30
0.0
 40
1.0
 50
90.0
 51
180.0
  0
ARC
  5
1711B
  8
DANMEN
  6
CONTINUOUS
 10
121.51300951949131
 20
399.92584761861229
 30
0.0
 40
1.0
 50
0.0
 51
90.0
  0
LINE
  5
1711C
  8
DANMEN
  6
CONTINUOUS
 10
125.3130095194914
 20
398.22584761861248
 30
0.0
 11
127.9130095194914
 21
398.22584761861248
 31
0.0
  0
LINE
  5
1711D
  8
DANMEN
  6
CONTINUOUS
 10
130.71300951949141
 20
395.12584761861228
 30
0.0
 11
130.71300951949141
 21
396.92584761861229
 31
0.0
  0
LINE
  5
1711E
  8
DANMEN
  6
CONTINUOUS
 10
128.9130095194914
 20
395.32584761861227
 30
0.0
 11
128.9130095194914
 21
397.22584761861231
 31
0.0
  0
LINE
  5
1711F
  8
DANMEN
  6
CONTINUOUS
 10
130.71300951949141
 20
396.92584761861229
 30
0.0
 11
133.21300951949141
 21
396.92584761861229
 31
0.0
  0
LINE
  5
17120
  8
DANMEN
  6
CONTINUOUS
 10
130.71300951949141
 20
398.42584761861229
 30
0.0
 11
133.71300951949141
 21
398.42584761861229
 31
0.0
  0
LINE
  5
17121
  8
DANMEN
  6
CONTINUOUS
 10
130.71300951949141
 20
398.42584761861229
 30
0.0
 11
130.71300951949141
 21
399.92584761861229
 31
0.0
  0
ARC
  5
17122
  8
DANMEN
  6
CONTINUOUS
 10
131.71300951949141
 20
399.92584761861229
 30
0.0
 40
1.0
 50
90.0
 51
180.0
  0
ARC
  5
17123
  8
DANMEN
  6
CONTINUOUS
 10
133.21300951949141
 20
397.42584761861229
 30
0.0
 40
0.5
 50
270.0
 51
0.0
  0
LINE
  5
17124
  8
DANMEN
  6
CONTINUOUS
 10
133.71300951949141
 20
397.42584761861229
 30
0.0
 11
133.71300951949141
 21
398.42584761861229
 31
0.0
  0
LINE
  5
17125
  8
DANMEN
  6
CONTINUOUS
 10
118.6130095194914
 20
419.92584761861229
 30
0.0
 11
118.6130095194914
 21
417.92584761861252
 31
0.0
  0
ARC
  5
17126
  8
DANMEN
  6
CONTINUOUS
 10
120.4130095194914
 20
412.97584761861248
 30
0.0
 40
0.3
 50
180.0
 51
309.911
  0
ARC
  5
17127
  8
DANMEN
  6
CONTINUOUS
 10
120.4130095194914
 20
417.87584761861228
 30
0.0
 40
0.3
 50
50.088999999999892
 51
180.0
  0
LINE
  5
17128
  8
DANMEN
  6
CONTINUOUS
 10
118.9130095194914
 20
414.67584761861229
 30
0.0
 11
121.4130095194914
 21
414.67584761861229
 31
0.0
  0
LINE
  5
17129
  8
DANMEN
  6
CONTINUOUS
 10
121.4130095194914
 20
416.17584761861252
 30
0.0
 11
118.9130095194914
 21
416.17584761861252
 31
0.0
  0
LINE
  5
1712A
  8
DANMEN
  6
CONTINUOUS
 10
119.1130095194913
 20
410.42584761861229
 30
0.0
 11
125.1130095194914
 21
410.42584761861229
 31
0.0
  0
LINE
  5
1712B
  8
DANMEN
  6
CONTINUOUS
 10
119.6130095194914
 20
411.72584761861231
 30
0.0
 11
123.96300951949139
 21
411.72584761861231
 31
0.0
  0
LINE
  5
1712C
  8
DANMEN
  6
CONTINUOUS
 10
119.6130095194914
 20
419.12584761861228
 30
0.0
 11
123.96300951949139
 21
419.12584761861228
 31
0.0
  0
LINE
  5
1712D
  8
DANMEN
  6
CONTINUOUS
 10
115.47500951949139
 20
411.94684761861231
 30
0.0
 11
113.6260095194913
 21
417.92384761861229
 31
0.0
  0
LINE
  5
1712E
  8
DANMEN
  6
CONTINUOUS
 10
116.1430095194914
 20
412.83784761861227
 30
0.0
 11
114.40000951949141
 21
418.12784761861252
 31
0.0
  0
LINE
  5
1712F
  8
DANMEN
  6
CONTINUOUS
 10
117.3130095194913
 20
419.42584761861229
 30
0.0
 11
117.3130095194913
 21
413.02584761861232
 31
0.0
  0
LINE
  5
17130
  8
DANMEN
  6
CONTINUOUS
 10
116.1520095194914
 20
411.42584761861229
 30
0.0
 11
118.6130095194914
 21
411.42584761861229
 31
0.0
  0
ARC
  5
17131
  8
DANMEN
  6
CONTINUOUS
 10
116.71300951949139
 20
413.02584761861232
 30
0.0
 40
0.6
 50
198.24100000000001
 51
0.0
  0
ARC
  5
17132
  8
DANMEN
  6
CONTINUOUS
 10
116.1520095194914
 20
412.12584761861228
 30
0.0
 40
0.7
 50
194.84099999999981
 51
270.0
  0
LINE
  5
17133
  8
DANMEN
  6
CONTINUOUS
 10
120.1130095194913
 20
412.97584761861248
 30
0.0
 11
120.1130095194913
 21
413.37584761861228
 31
0.0
  0
ARC
  5
17134
  8
DANMEN
  6
CONTINUOUS
 10
119.8130095194914
 20
413.37584761861228
 30
0.0
 40
0.3
 50
0.0
 51
90.0
  0
LINE
  5
17135
  8
DANMEN
  6
CONTINUOUS
 10
119.8130095194914
 20
413.67584761861229
 30
0.0
 11
118.6130095194914
 21
413.67584761861229
 31
0.0
  0
LINE
  5
17136
  8
DANMEN
  6
CONTINUOUS
 10
118.6130095194914
 20
411.42584761861229
 30
0.0
 11
118.6130095194914
 21
413.67584761861229
 31
0.0
  0
LINE
  5
17137
  8
DANMEN
  6
CONTINUOUS
 10
119.6130095194914
 20
411.72584761861231
 30
0.0
 11
119.6130095194914
 21
413.42584761861229
 31
0.0
  0
LINE
  5
17138
  8
DANMEN
  6
CONTINUOUS
 10
118.6130095194914
 20
410.92584761861229
 30
0.0
 11
118.6130095194914
 21
412.92584761861229
 31
0.0
  0
ARC
  5
17139
  8
DANMEN
  6
CONTINUOUS
 10
119.1130095194913
 20
410.92584761861229
 30
0.0
 40
0.5
 50
180.0
 51
270.0
  0
LINE
  5
1713A
  8
DANMEN
  6
CONTINUOUS
 10
119.1130095194913
 20
413.42584761861229
 30
0.0
 11
119.6130095194914
 21
413.42584761861229
 31
0.0
  0
ARC
  5
1713B
  8
DANMEN
  6
CONTINUOUS
 10
119.1130095194913
 20
412.92584761861229
 30
0.0
 40
0.5
 50
90.0
 51
180.0
  0
ARC
  5
1713C
  8
DANMEN
  6
CONTINUOUS
 10
114.1130095194913
 20
416.92584761861229
 30
0.0
 40
0.5
 50
0.0
 51
90.0
  0
ARC
  5
1713D
  8
DANMEN
  6
CONTINUOUS
 10
113.1130095194913
 20
416.92584761861229
 30
0.0
 40
0.5
 50
90.0
 51
180.0
  0
LINE
  5
1713E
  8
DANMEN
  6
CONTINUOUS
 10
112.6130095194914
 20
414.22584761861248
 30
0.0
 11
112.6130095194914
 21
416.92584761861229
 31
0.0
  0
LINE
  5
1713F
  8
DANMEN
  6
CONTINUOUS
 10
113.1130095194913
 20
417.42584761861229
 30
0.0
 11
114.1130095194913
 21
417.42584761861229
 31
0.0
  0
ARC
  5
17140
  8
DANMEN
  6
CONTINUOUS
 10
114.0130095194914
 20
418.02584761861232
 30
0.0
 40
0.4
 50
14.840999999999831
 51
194.84099999999981
  0
LINE
  5
17141
  8
DANMEN
  6
CONTINUOUS
 10
117.3130095194913
 20
419.42584761861229
 30
0.0
 11
118.6130095194914
 21
419.42584761861229
 31
0.0
  0
LINE
  5
17142
  8
DANMEN
  6
CONTINUOUS
 10
118.6130095194914
 20
417.17584761861229
 30
0.0
 11
118.6130095194914
 21
419.42584761861229
 31
0.0
  0
LINE
  5
17143
  8
DANMEN
  6
CONTINUOUS
 10
119.8130095194914
 20
417.17584761861229
 30
0.0
 11
118.6130095194914
 21
417.17584761861229
 31
0.0
  0
ARC
  5
17144
  8
DANMEN
  6
CONTINUOUS
 10
119.8130095194914
 20
417.47584761861242
 30
0.0
 40
0.3
 50
270.0
 51
0.0
  0
LINE
  5
17145
  8
DANMEN
  6
CONTINUOUS
 10
120.1130095194913
 20
417.47584761861242
 30
0.0
 11
120.1130095194913
 21
417.87584761861228
 31
0.0
  0
ARC
  5
17146
  8
DANMEN
  6
CONTINUOUS
 10
118.9130095194914
 20
414.97584761861231
 30
0.0
 40
0.3
 50
180.0
 51
270.0
  0
LINE
  5
17147
  8
DANMEN
  6
CONTINUOUS
 10
118.6130095194914
 20
414.97584761861231
 30
0.0
 11
118.6130095194914
 21
415.87584761861228
 31
0.0
  0
ARC
  5
17148
  8
DANMEN
  6
CONTINUOUS
 10
118.9130095194914
 20
415.87584761861228
 30
0.0
 40
0.3
 50
90.0
 51
180.0
  0
ARC
  5
17149
  8
DANMEN
  6
CONTINUOUS
 10
119.1130095194913
 20
417.92584761861252
 30
0.0
 40
0.5
 50
180.0
 51
270.0
  0
LINE
  5
1714A
  8
DANMEN
  6
CONTINUOUS
 10
119.1130095194913
 20
417.42584761861229
 30
0.0
 11
119.6130095194914
 21
417.42584761861229
 31
0.0
  0
LINE
  5
1714B
  8
DANMEN
  6
CONTINUOUS
 10
119.6130095194914
 20
419.12584761861228
 30
0.0
 11
119.6130095194914
 21
417.42584761861229
 31
0.0
  0
LINE
  5
1714C
  8
DANMEN
  6
CONTINUOUS
 10
122.9130095194914
 20
414.17584761861229
 30
0.0
 11
120.6050095194914
 21
412.74584761861252
 31
0.0
  0
LINE
  5
1714D
  8
DANMEN
  6
CONTINUOUS
 10
123.96300951949139
 20
411.72584761861231
 30
0.0
 11
123.96300951949139
 21
419.12584761861228
 31
0.0
  0
ARC
  5
1714E
  8
DANMEN
  6
CONTINUOUS
 10
125.1130095194914
 20
410.92584761861229
 30
0.0
 40
0.5
 50
270.0
 51
0.0
  0
LINE
  5
1714F
  8
DANMEN
  6
CONTINUOUS
 10
122.9130095194914
 20
414.17584761861229
 30
0.0
 11
122.9130095194914
 21
416.67584761861229
 31
0.0
  0
LINE
  5
17150
  8
DANMEN
  6
CONTINUOUS
 10
122.9130095194914
 20
416.67584761861229
 30
0.0
 11
120.6050095194914
 21
418.1058476186123
 31
0.0
  0
LINE
  5
17151
  8
DANMEN
  6
CONTINUOUS
 10
121.71300951949129
 20
414.97584761861231
 30
0.0
 11
121.71300951949129
 21
415.87584761861228
 31
0.0
  0
ARC
  5
17152
  8
DANMEN
  6
CONTINUOUS
 10
121.4130095194914
 20
414.97584761861231
 30
0.0
 40
0.3
 50
270.0
 51
0.0
  0
ARC
  5
17153
  8
DANMEN
  6
CONTINUOUS
 10
121.4130095194914
 20
415.87584761861228
 30
0.0
 40
0.3
 50
0.0
 51
90.0
  0
LINE
  5
17154
  8
DANMEN
  6
CONTINUOUS
 10
122.9130095194914
 20
414.20284761861251
 30
0.0
 11
122.8420095194914
 21
414.13184761861248
 31
0.0
  0
LINE
  5
17155
  8
DANMEN
  6
CONTINUOUS
 10
119.1130095194913
 20
420.42584761861229
 30
0.0
 11
123.96300951949139
 21
420.42584761861229
 31
0.0
  0
ARC
  5
17156
  8
DANMEN
  6
CONTINUOUS
 10
119.1130095194913
 20
419.92584761861229
 30
0.0
 40
0.5
 50
90.0
 51
180.0
  0
ARC
  5
17157
  8
DANMEN
  6
CONTINUOUS
 10
161.41600951949141
 20
389.39384761861248
 30
0.0
 40
0.3
 50
55.151000000000458
 51
180.0
  0
ARC
  5
17158
  8
DANMEN
  6
CONTINUOUS
 10
161.16200951949139
 20
389.88884761861232
 30
0.0
 40
1.5469999999999979
 50
20.301999999999421
 51
183.2449999999989
  0
LINE
  5
17159
  8
DANMEN
  6
CONTINUOUS
 10
157.61300951949141
 20
390.52584761861249
 30
0.0
 11
157.61300951949141
 21
396.92584761861229
 31
0.0
  0
ARC
  5
1715A
  8
DANMEN
  6
CONTINUOUS
 10
152.41300951949131
 20
385.51484761861229
 30
0.0
 40
0.9
 50
0.0
 51
180.0
  0
ARC
  5
1715B
  8
DANMEN
  6
CONTINUOUS
 10
156.61300951949141
 20
390.52584761861249
 30
0.0
 40
1.0
 50
270.0
 51
0.0
  0
ARC
  5
1715C
  8
DANMEN
  6
CONTINUOUS
 10
156.61300951949141
 20
386.72584761861231
 30
0.0
 40
1.0
 50
0.0
 51
90.0
  0
ARC
  5
1715D
  8
DANMEN
  6
CONTINUOUS
 10
155.52400951949139
 20
388.62584761861228
 30
0.0
 40
0.9
 50
90.0
 51
270.0
  0
LINE
  5
1715E
  8
DANMEN
  6
CONTINUOUS
 10
156.61300951949141
 20
389.52584761861232
 30
0.0
 11
155.52400951949139
 21
389.52584761861232
 31
0.0
  0
LINE
  5
1715F
  8
DANMEN
  6
CONTINUOUS
 10
156.61300951949141
 20
387.72584761861231
 30
0.0
 11
155.52400951949139
 21
387.72584761861231
 31
0.0
  0
LINE
  5
17160
  8
DANMEN
  6
CONTINUOUS
 10
155.61300951949141
 20
398.42584761861229
 30
0.0
 11
157.61300951949141
 21
398.42584761861229
 31
0.0
  0
LINE
  5
17161
  8
DANMEN
  6
CONTINUOUS
 10
156.11300951949141
 20
396.92584761861229
 30
0.0
 11
157.61300951949141
 21
396.92584761861229
 31
0.0
  0
ARC
  5
17162
  8
DANMEN
  6
CONTINUOUS
 10
156.11300951949141
 20
397.42584761861229
 30
0.0
 40
0.5
 50
180.0
 51
270.0
  0
LINE
  5
17163
  8
DANMEN
  6
CONTINUOUS
 10
155.61300951949141
 20
397.42584761861229
 30
0.0
 11
155.61300951949141
 21
398.42584761861229
 31
0.0
  0
LINE
  5
17164
  8
DANMEN
  6
CONTINUOUS
 10
157.61300951949141
 20
398.42584761861229
 30
0.0
 11
157.61300951949141
 21
400.92584761861229
 31
0.0
  0
LINE
  5
17165
  8
DANMEN
  6
CONTINUOUS
 10
157.61300951949141
 20
402.92584761861229
 30
0.0
 11
157.61300951949141
 21
407.42584761861229
 31
0.0
  0
ARC
  5
17166
  8
DANMEN
  6
CONTINUOUS
 10
158.11300951949141
 20
407.42584761861229
 30
0.0
 40
0.5
 50
90.0
 51
180.0
  0
ARC
  5
17167
  8
DANMEN
  6
CONTINUOUS
 10
159.11300951949141
 20
407.42584761861229
 30
0.0
 40
0.5
 50
0.0
 51
90.0
  0
LINE
  5
17168
  8
DANMEN
  6
CONTINUOUS
 10
158.11300951949141
 20
407.92584761861229
 30
0.0
 11
159.11300951949141
 21
407.92584761861229
 31
0.0
  0
ARC
  5
17169
  8
DANMEN
  6
CONTINUOUS
 10
170.8130095194914
 20
386.62584761861228
 30
0.0
 40
1.0
 50
90.0
 51
180.0
  0
ARC
  5
1716A
  8
DANMEN
  6
CONTINUOUS
 10
170.61300951949141
 20
390.12584761861228
 30
0.0
 40
1.0
 50
180.0
 51
270.0
  0
LINE
  5
1716B
  8
DANMEN
  6
CONTINUOUS
 10
169.61300951949141
 20
390.12584761861228
 30
0.0
 11
169.61300951949141
 21
390.92584761861229
 31
0.0
  0
LINE
  5
1716C
  8
DANMEN
  6
CONTINUOUS
 10
163.61300951949141
 20
388.92584761861229
 30
0.0
 11
163.61300951949141
 21
390.92584761861229
 31
0.0
  0
LINE
  5
1716D
  8
DANMEN
  6
CONTINUOUS
 10
164.51300951949139
 20
385.52584761861237
 30
0.0
 11
165.71300951949141
 21
385.52584761861237
 31
0.0
  0
LINE
  5
1716E
  8
DANMEN
  6
CONTINUOUS
 10
164.51300951949139
 20
387.32584761861227
 30
0.0
 11
165.71300951949141
 21
387.32584761861227
 31
0.0
  0
LINE
  5
1716F
  8
DANMEN
  6
CONTINUOUS
 10
167.61300951949141
 20
387.92584761861229
 30
0.0
 11
165.48700951949141
 21
389.14284761861239
 31
0.0
  0
LINE
  5
17170
  8
DANMEN
  6
CONTINUOUS
 10
164.61300951949141
 20
390.12584761861228
 30
0.0
 11
167.96300951949141
 21
390.12584761861228
 31
0.0
  0
LINE
  5
17171
  8
DANMEN
  6
CONTINUOUS
 10
163.61300951949141
 20
388.42584761861229
 30
0.0
 11
165.36300951949141
 21
388.42584761861229
 31
0.0
  0
ARC
  5
17172
  8
DANMEN
  6
CONTINUOUS
 10
164.51300951949139
 20
386.42584761861229
 30
0.0
 40
0.9
 50
90.0
 51
270.0
  0
LINE
  5
17173
  8
DANMEN
  6
CONTINUOUS
 10
165.36300951949141
 20
388.42584761861229
 30
0.0
 11
165.14600951949151
 21
388.80084761861229
 31
0.0
  0
LINE
  5
17174
  8
DANMEN
  6
CONTINUOUS
 10
162.61300951949141
 20
390.42584761861229
 30
0.0
 11
163.61300951949141
 21
390.42584761861229
 31
0.0
  0
ARC
  5
17175
  8
DANMEN
  6
CONTINUOUS
 10
165.36300951949141
 20
388.92584761861229
 30
0.0
 40
0.25
 50
60.210000000000342
 51
209.9999999999996
  0
LINE
  5
17176
  8
DANMEN
  6
CONTINUOUS
 10
163.61300951949141
 20
388.42584761861229
 30
0.0
 11
163.61300951949141
 21
390.42584761861229
 31
0.0
  0
LINE
  5
17177
  8
DANMEN
  6
CONTINUOUS
 10
161.5870095194914
 20
389.63984761861229
 30
0.0
 11
162.61300951949141
 21
388.92584761861229
 31
0.0
  0
LINE
  5
17178
  8
DANMEN
  6
CONTINUOUS
 10
164.11300951949141
 20
388.42584761861229
 30
0.0
 11
164.61300951949141
 21
388.42584761861229
 31
0.0
  0
LINE
  5
17179
  8
DANMEN
  6
CONTINUOUS
 10
164.61300951949141
 20
388.42584761861229
 30
0.0
 11
164.61300951949141
 21
390.12584761861228
 31
0.0
  0
ARC
  5
1717A
  8
DANMEN
  6
CONTINUOUS
 10
164.11300951949141
 20
388.92584761861229
 30
0.0
 40
0.5
 50
180.0
 51
270.0
  0
LINE
  5
1717B
  8
DANMEN
  6
CONTINUOUS
 10
167.61300951949141
 20
387.92584761861229
 30
0.0
 11
167.61300951949141
 21
384.92584761861229
 31
0.0
  0
ARC
  5
1717C
  8
DANMEN
  6
CONTINUOUS
 10
165.71300951949141
 20
386.42584761861229
 30
0.0
 40
0.9
 50
270.0
 51
90.0
  0
LINE
  5
1717D
  8
DANMEN
  6
CONTINUOUS
 10
164.11300951949141
 20
391.42584761861229
 30
0.0
 11
169.11300951949141
 21
391.42584761861229
 31
0.0
  0
ARC
  5
1717E
  8
DANMEN
  6
CONTINUOUS
 10
164.11300951949141
 20
390.92584761861229
 30
0.0
 40
0.5
 50
90.0
 51
180.0
  0
ARC
  5
1717F
  8
DANMEN
  6
CONTINUOUS
 10
169.11300951949141
 20
390.92584761861229
 30
0.0
 40
0.5
 50
0.0
 51
90.0
  0
ARC
  5
17180
  8
DANMEN
  6
CONTINUOUS
 10
174.0630095194914
 20
385.7598476186123
 30
0.0
 40
0.75
 50
0.0
 51
180.0
  0
ARC
  5
17181
  8
DANMEN
  6
CONTINUOUS
 10
171.44700951949139
 20
388.37584761861228
 30
0.0
 40
0.75
 50
270.0
 51
90.0
  0
LINE
  5
17182
  8
DANMEN
  6
CONTINUOUS
 10
169.8130095194914
 20
386.62584761861228
 30
0.0
 11
169.8130095194914
 21
385.12584761861228
 31
0.0
  0
LINE
  5
17183
  8
DANMEN
  6
CONTINUOUS
 10
173.3130095194914
 20
385.7598476186123
 30
0.0
 11
173.3130095194914
 21
385.12584761861228
 31
0.0
  0
LINE
  5
17184
  8
DANMEN
  6
CONTINUOUS
 10
170.8130095194914
 20
387.62584761861228
 30
0.0
 11
171.44700951949139
 21
387.62584761861228
 31
0.0
  0
LINE
  5
17185
  8
DANMEN
  6
CONTINUOUS
 10
170.61300951949141
 20
389.12584761861228
 30
0.0
 11
171.44700951949139
 21
389.12584761861228
 31
0.0
  0
LINE
  5
17186
  8
SUNPO
  6
CONTINUOUS
 10
202.61300951949141
 20
418.92584761861241
 30
0.0
 11
202.61300951949141
 21
381.42584761861229
 31
0.0
  0
LINE
  5
17187
  8
DANMEN
  6
CONTINUOUS
 10
180.96300951949141
 20
383.07584761861227
 30
0.0
 11
180.96300951949141
 21
420.07584761861227
 31
0.0
  0
LINE
  5
17188
  8
DANMEN
  6
CONTINUOUS
 10
182.61300951949141
 20
381.92584761861229
 30
0.0
 11
182.61300951949141
 21
418.92584761861241
 31
0.0
  0
LINE
  5
17189
  8
DANMEN
  6
CONTINUOUS
 10
184.61300951949141
 20
358.92584761861229
 30
0.0
 11
184.61300951949141
 21
418.92584761861241
 31
0.0
  0
LINE
  5
1718A
  8
SUNPO
  6
CONTINUOUS
 10
205.7950095194914
 20
354.08484761861229
 30
0.0
 11
211.7950095194914
 21
354.08484761861229
 31
0.0
  0
LINE
  5
1718B
  8
SUNPO
  6
CONTINUOUS
 10
205.7950095194914
 20
355.36984761861243
 30
0.0
 11
211.7950095194914
 21
355.36984761861243
 31
0.0
  0
LINE
  5
1718C
  8
SUNPO
  6
CONTINUOUS
 10
205.7950095194914
 20
359.22684761861228
 30
0.0
 11
211.7950095194914
 21
359.22684761861228
 31
0.0
  0
TEXT
  5
1718D
  8
SUNPO
  6
CONTINUOUS
 10
211.61300951949141
 20
359.42584761861229
 30
0.0
 40
5.0
  1
＝
 50
90.0
 41
1.3
  7
MX_DIMTXSTY_4
  0
LINE
  5
1718E
  8
DANMEN
  6
CONTINUOUS
 10
182.11300951949141
 20
358.92584761861229
 30
0.0
 11
182.11300951949141
 21
381.42584761861229
 31
0.0
  0
INSERT
  5
1718F
  8
SUNPO
  6
CONTINUOUS
  2
_DOTSMALL
 10
184.61300951949141
 20
342.92584761861229
 30
0.0
 41
2.3199999999999918
 42
2.3199999999999918
 43
2.3199999999999981
  0
INSERT
  5
17190
  8
SUNPO
  6
CONTINUOUS
  2
_DOTSMALL
 10
184.61300951949141
 20
352.92584761861229
 30
0.0
 41
2.3199999999999918
 42
2.3199999999999918
 43
2.3199999999999981
  0
INSERT
  5
17191
  8
SUNPO
  6
CONTINUOUS
  2
_DOTSMALL
 10
202.61300951949141
 20
338.92584761861229
 30
0.0
 41
2.3199999999999918
 42
2.3199999999999918
 43
2.3199999999999981
 50
90.0
  0
LINE
  5
17192
  8
SUNPO
  6
CONTINUOUS
 10
205.7950095194914
 20
353.22684761861228
 30
0.0
 11
205.7950095194914
 21
356.22684761861228
 31
0.0
  0
LINE
  5
17193
  8
SUNPO
  6
CONTINUOUS
 10
208.7950095194914
 20
355.36984761861243
 30
0.0
 11
208.7950095194914
 21
359.22684761861228
 31
0.0
  0
LINE
  5
17194
  8
SUNPO
  6
CONTINUOUS
 10
205.7950095194914
 20
358.36984761861243
 30
0.0
 11
205.7950095194914
 21
360.08484761861229
 31
0.0
  0
LINE
  5
17195
  8
SUNPO
  6
CONTINUOUS
 10
183.61300951949141
 20
381.42584761861229
 30
0.0
 11
202.61300951949141
 21
381.42584761861229
 31
0.0
  0
LINE
  5
17196
  8
SUNPO
  6
CONTINUOUS
 10
182.61300951949141
 20
380.42584761861229
 30
0.0
 11
182.61300951949141
 21
372.92584761861229
 31
0.0
  0
LINE
  5
17197
  8
SUNPO
  6
CONTINUOUS
 10
182.61300951949141
 20
380.42584761861229
 30
0.0
 11
182.61300951949141
 21
372.92584761861229
 31
0.0
  0
LINE
  5
17198
  8
SUNPO
  6
CONTINUOUS
 10
184.61300951949141
 20
372.92584761861229
 30
0.0
 11
190.59967618615801
 21
372.92584761861229
 31
0.0
  0
INSERT
  5
17199
  8
SUNPO
  6
CONTINUOUS
  2
_DOTSMALL
 10
184.61300951949141
 20
362.92584761861229
 30
0.0
 41
2.3199999999999918
 42
2.3199999999999918
 43
2.3199999999999981
  0
INSERT
  5
1719A
  8
SUNPO
  6
CONTINUOUS
  2
_DOTSMALL
 10
184.61300951949141
 20
372.92584761861229
 30
0.0
 41
2.3199999999999918
 42
2.3199999999999918
 43
2.3199999999999981
  0
INSERT
  5
1719B
  8
SUNPO
  6
CONTINUOUS
  2
_DOTSMALL
 10
182.61300951949141
 20
372.92584761861229
 30
0.0
 41
2.3199999999999918
 42
2.3199999999999918
 43
2.3199999999999981
 50
180.0
  0
LINE
  5
1719C
  8
SUNPO
  6
CONTINUOUS
 10
182.61300951949141
 20
372.92584761861229
 30
0.0
 11
184.61300951949141
 21
372.92584761861229
 31
0.0
  0
INSERT
  5
1719D
  8
SUNPO
  6
CONTINUOUS
  2
_DOTSMALL
 10
182.61300951949141
 20
372.92584761861229
 30
0.0
 41
2.3199999999999918
 42
2.3199999999999918
 43
2.3199999999999981
  0
ARC
  5
1719E
  8
DANMEN
  6
CONTINUOUS
 10
182.11300951949141
 20
381.92584761861229
 30
0.0
 40
0.5
 50
270.0
 51
0.0
  0
TEXT
  5
1719F
  8
SUNPO
  6
CONTINUOUS
 10
187.93300951949141
 20
373.92584761861229
 30
0.0
 40
2.5
  1
2
  7
MX_NOTE_STANDARD
  0
INSERT
  5
171A0
  8
SUNPO
  6
CONTINUOUS
  2
_DOTSMALL
 10
202.61300951949141
 20
381.42584761861229
 30
0.0
 41
2.3199999999999918
 42
2.3199999999999918
 43
2.3199999999999981
 50
270.0
  0
LINE
  5
171A1
  8
SUNPO
  6
CONTINUOUS
 10
211.7950095194914
 20
353.22684761861228
 30
0.0
 11
211.7950095194914
 21
356.22684761861228
 31
0.0
  0
LINE
  5
171A2
  8
SUNPO
  6
CONTINUOUS
 10
211.7950095194914
 20
358.36984761861243
 30
0.0
 11
211.7950095194914
 21
360.08484761861229
 31
0.0
  0
LINE
  5
171A3
  8
SUNPO
  6
CONTINUOUS
 10
185.61300951949141
 20
418.92584761861241
 30
0.0
 11
212.61300951949141
 21
418.92584761861241
 31
0.0
  0
TEXT
  5
171A4
  8
SUNPO
  6
CONTINUOUS
 10
201.61300951949141
 20
395.11334761861229
 30
0.0
 40
2.5
  1
37.5
 50
90.0
 41
1.3500000000000001
  7
MX_DIMTXSTY_5
  0
LINE
  5
171A5
  8
DANMEN
  6
CONTINUOUS
 10
182.61300951949141
 20
418.92584761861241
 30
0.0
 11
184.11300951949141
 21
418.92584761861241
 31
0.0
  0
ARC
  5
171A6
  8
DANMEN
  6
CONTINUOUS
 10
184.11300951949141
 20
419.42584761861229
 30
0.0
 40
0.5
 50
270.0
 51
0.0
  0
LINE
  5
171A7
  8
DANMEN
  6
CONTINUOUS
 10
181.46300951949141
 20
420.57584761861227
 30
0.0
 11
182.96300951949141
 21
420.57584761861227
 31
0.0
  0
ARC
  5
171A8
  8
DANMEN
  6
CONTINUOUS
 10
181.46300951949141
 20
420.07584761861227
 30
0.0
 40
0.5
 50
90.0
 51
180.0
  0
INSERT
  5
171A9
  8
SUNPO
  6
CONTINUOUS
  2
_DOTSMALL
 10
202.61300951949141
 20
418.92584761861241
 30
0.0
 41
2.3199999999999918
 42
2.3199999999999918
 43
2.3199999999999981
 50
90.0
  0
INSERT
  5
171AA
  8
SUNPO
  6
CONTINUOUS
  2
_CLOSED
 10
212.61300951949141
 20
418.92584761861241
 30
0.0
 41
7.5
 42
7.5
 43
7.5
 50
90.0
  0
INSERT
  5
171AB
  8
SUNPO
  6
CONTINUOUS
  2
_DOTSMALL
 10
212.61300951949141
 20
418.92584761861241
 30
0.0
 41
2.3199999999999918
 42
2.3199999999999918
 43
2.3199999999999981
 50
270.0
  0
LINE
  5
171AC
  8
SUNPO
  6
CONTINUOUS
 10
139.61300951949141
 20
473.92584761861229
 30
0.0
 11
184.61300951949141
 21
473.92584761861229
 31
0.0
  0
LINE
  5
171AD
  8
DANMEN
  6
CONTINUOUS
 10
141.26300951949139
 20
450.77584761861249
 30
0.0
 11
182.96300951949141
 21
450.77584761861249
 31
0.0
  0
LINE
  5
171AE
  8
DANMEN
  6
CONTINUOUS
 10
141.26300951949139
 20
452.42584761861229
 30
0.0
 11
182.96300951949141
 21
452.42584761861229
 31
0.0
  0
LINE
  5
171AF
  8
DANMEN
  6
CONTINUOUS
 10
125.6130095194913
 20
431.42584761861241
 30
0.0
 11
182.96300951949141
 21
431.42584761861241
 31
0.0
  0
LINE
  5
171B0
  8
DANMEN
  6
CONTINUOUS
 10
176.61300951949141
 20
457.27584761861232
 30
0.0
 11
182.96300951949141
 21
457.27584761861232
 31
0.0
  0
LINE
  5
171B1
  8
DANMEN
  6
CONTINUOUS
 10
176.61300951949141
 20
458.92584761861229
 30
0.0
 11
184.11300951949141
 21
458.92584761861229
 31
0.0
  0
LINE
  5
171B2
  8
DANMEN
  6
CONTINUOUS
 10
175.9130095194914
 20
433.07584761861227
 30
0.0
 11
182.96300951949141
 21
433.07584761861227
 31
0.0
  0
LINE
  5
171B3
  8
DANMEN
  6
CONTINUOUS
 10
141.11300951949141
 20
468.92584761861241
 30
0.0
 11
184.61300951949141
 21
468.92584761861241
 31
0.0
  0
LINE
  5
171B4
  8
DANMEN
  6
CONTINUOUS
 10
141.26300951949139
 20
433.07584761861227
 30
0.0
 11
148.61300951949141
 21
433.07584761861227
 31
0.0
  0
LINE
  5
171B5
  8
DANMEN
  6
CONTINUOUS
 10
141.26300951949139
 20
457.27584761861232
 30
0.0
 11
141.26300951949139
 21
452.42584761861229
 31
0.0
  0
LINE
  5
171B6
  8
DANMEN
  6
CONTINUOUS
 10
139.61300951949141
 20
457.26884761861231
 30
0.0
 11
139.61300951949141
 21
433.07584761861227
 31
0.0
  0
ARC
  5
171B7
  8
DANMEN
  6
CONTINUOUS
 10
130.3130095194914
 20
436.95584761861232
 30
0.0
 40
2.0
 50
128.29300000000049
 51
180.0
  0
LINE
  5
171B8
  8
DANMEN
  6
CONTINUOUS
 10
128.3130095194914
 20
436.95584761861232
 30
0.0
 11
128.3130095194914
 21
434.07584761861227
 31
0.0
  0
ARC
  5
171B9
  8
DANMEN
  6
CONTINUOUS
 10
127.3130095194914
 20
434.07584761861227
 30
0.0
 40
1.0
 50
270.0
 51
0.0
  0
LINE
  5
171BA
  8
DANMEN
  6
CONTINUOUS
 10
141.26300951949139
 20
450.77584761861249
 30
0.0
 11
141.26300951949139
 21
433.07584761861227
 31
0.0
  0
LINE
  5
171BB
  8
DANMEN
  6
CONTINUOUS
 10
135.91300951949131
 20
433.07584761861227
 30
0.0
 11
139.61300951949141
 21
433.07584761861227
 31
0.0
  0
ARC
  5
171BC
  8
DANMEN
  6
CONTINUOUS
 10
132.9130095194914
 20
436.95584761861232
 30
0.0
 40
2.0
 50
0.0
 51
51.706999999999432
  0
ARC
  5
171BD
  8
DANMEN
  6
CONTINUOUS
 10
130.81300951949129
 20
436.87184761861232
 30
0.0
 40
1.0
 50
114.6239999999994
 51
180.0
  0
ARC
  5
171BE
  8
DANMEN
  6
CONTINUOUS
 10
132.41300951949131
 20
436.87184761861232
 30
0.0
 40
1.0
 50
0.0
 51
65.376000000000531
  0
ARC
  5
171BF
  8
DANMEN
  6
CONTINUOUS
 10
132.41300951949131
 20
435.62584761861228
 30
0.0
 40
1.0
 50
270.0
 51
0.0
  0
LINE
  5
171C0
  8
DANMEN
  6
CONTINUOUS
 10
129.81300951949129
 20
436.87184761861232
 30
0.0
 11
129.81300951949129
 21
435.62584761861228
 31
0.0
  0
ARC
  5
171C1
  8
DANMEN
  6
CONTINUOUS
 10
130.81300951949129
 20
435.62584761861228
 30
0.0
 40
1.0
 50
180.0
 51
270.0
  0
LINE
  5
171C2
  8
DANMEN
  6
CONTINUOUS
 10
132.41300951949131
 20
434.62584761861228
 30
0.0
 11
130.81300951949129
 21
434.62584761861228
 31
0.0
  0
LINE
  5
171C3
  8
DANMEN
  6
CONTINUOUS
 10
133.41300951949131
 20
436.87184761861232
 30
0.0
 11
133.41300951949131
 21
435.62584761861228
 31
0.0
  0
LINE
  5
171C4
  8
DANMEN
  6
CONTINUOUS
 10
134.91300951949131
 20
436.95584761861232
 30
0.0
 11
134.91300951949131
 21
434.07584761861227
 31
0.0
  0
ARC
  5
171C5
  8
DANMEN
  6
CONTINUOUS
 10
135.91300951949131
 20
434.07584761861227
 30
0.0
 40
1.0
 50
180.0
 51
270.0
  0
ARC
  5
171C6
  8
DANMEN
  6
CONTINUOUS
 10
133.01300951949139
 20
438.22584761861231
 30
0.0
 40
0.3
 50
90.0
 51
180.0
  0
LINE
  5
171C7
  8
DANMEN
  6
CONTINUOUS
 10
130.51300951949139
 20
438.22584761861231
 30
0.0
 11
130.51300951949139
 21
437.9628476186125
 31
0.0
  0
ARC
  5
171C8
  8
DANMEN
  6
CONTINUOUS
 10
130.3130095194914
 20
437.9628476186125
 30
0.0
 40
0.2
 50
294.6239999999994
 51
0.0
  0
ARC
  5
171C9
  8
DANMEN
  6
CONTINUOUS
 10
132.9130095194914
 20
437.9628476186125
 30
0.0
 40
0.2
 50
180.0
 51
245.3760000000004
  0
LINE
  5
171CA
  8
DANMEN
  6
CONTINUOUS
 10
132.71300951949141
 20
438.22584761861231
 30
0.0
 11
132.71300951949141
 21
437.9628476186125
 31
0.0
  0
ARC
  5
171CB
  8
DANMEN
  6
CONTINUOUS
 10
130.21300951949141
 20
438.22584761861231
 30
0.0
 40
0.3
 50
0.0
 51
90.0
  0
LINE
  5
171CC
  8
DANMEN
  6
CONTINUOUS
 10
129.07400951949131
 20
438.52584761861232
 30
0.0
 11
130.21300951949141
 21
438.52584761861232
 31
0.0
  0
LINE
  5
171CD
  8
DANMEN
  6
CONTINUOUS
 10
134.15200951949129
 20
438.52584761861232
 30
0.0
 11
133.01300951949139
 21
438.52584761861232
 31
0.0
  0
LINE
  5
171CE
  8
DANMEN
  6
CONTINUOUS
 10
141.26300951949139
 20
468.42584761861252
 30
0.0
 11
141.26300951949139
 21
458.92584761861229
 31
0.0
  0
LINE
  5
171CF
  8
DANMEN
  6
CONTINUOUS
 10
139.61300951949141
 20
468.42584761861252
 30
0.0
 11
139.61300951949141
 21
458.92584761861229
 31
0.0
  0
LINE
  5
171D0
  8
DANMEN
  6
CONTINUOUS
 10
144.11300951949141
 20
458.42584761861229
 30
0.0
 11
144.11300951949141
 21
457.77584761861249
 31
0.0
  0
LINE
  5
171D1
  8
DANMEN
  6
CONTINUOUS
 10
141.26300951949139
 20
457.27584761861232
 30
0.0
 11
143.61300951949141
 21
457.27584761861232
 31
0.0
  0
LINE
  5
171D2
  8
DANMEN
  6
CONTINUOUS
 10
141.26300951949139
 20
458.92584761861229
 30
0.0
 11
143.61300951949141
 21
458.92584761861229
 31
0.0
  0
ARC
  5
171D3
  8
DANMEN
  6
CONTINUOUS
 10
143.61300951949141
 20
458.42584761861229
 30
0.0
 40
0.5
 50
0.0
 51
90.0
  0
ARC
  5
171D4
  8
DANMEN
  6
CONTINUOUS
 10
143.61300951949141
 20
457.77584761861249
 30
0.0
 40
0.5
 50
270.0
 51
0.0
  0
LINE
  5
171D5
  8
SUNPO
  6
CONTINUOUS
 10
139.61300951949141
 20
469.92584761861229
 30
0.0
 11
139.61300951949141
 21
473.92584761861229
 31
0.0
  0
LINE
  5
171D6
  8
SUNPO
  6
CONTINUOUS
 10
139.61300951949141
 20
469.92584761861229
 30
0.0
 11
139.61300951949141
 21
473.92584761861229
 31
0.0
  0
ARC
  5
171D7
  8
DANMEN
  6
CONTINUOUS
 10
140.76300951949139
 20
468.42584761861252
 30
0.0
 40
0.5
 50
0.0
 51
90.0
  0
LINE
  5
171D8
  8
DANMEN
  6
CONTINUOUS
 10
140.11300951949141
 20
468.92584761861241
 30
0.0
 11
140.76300951949139
 21
468.92584761861241
 31
0.0
  0
ARC
  5
171D9
  8
DANMEN
  6
CONTINUOUS
 10
140.11300951949141
 20
468.42584761861252
 30
0.0
 40
0.5
 50
90.0
 51
180.0
  0
INSERT
  5
171DA
  8
SUNPO
  6
CONTINUOUS
  2
_DOTSMALL
 10
139.61300951949141
 20
473.92584761861229
 30
0.0
 41
2.3199999999999918
 42
2.3199999999999918
 43
2.3199999999999981
  0
INSERT
  5
171DB
  8
SUNPO
  6
CONTINUOUS
  2
_DOTSMALL
 10
139.61300951949141
 20
473.92584761861229
 30
0.0
 41
2.3199999999999918
 42
2.3199999999999918
 43
2.3199999999999981
 50
180.0
  0
LINE
  5
171DC
  8
DANMEN
  6
CONTINUOUS
 10
160.61300951949141
 20
433.07584761861227
 30
0.0
 11
167.31300951949129
 21
433.07584761861227
 31
0.0
  0
LINE
  5
171DD
  8
DANMEN
  6
CONTINUOUS
 10
149.61300951949141
 20
434.42584761861252
 30
0.0
 11
159.61300951949141
 21
434.42584761861252
 31
0.0
  0
ARC
  5
171DE
  8
DANMEN
  6
CONTINUOUS
 10
148.61300951949141
 20
434.07584761861227
 30
0.0
 40
1.0
 50
270.0
 51
0.0
  0
LINE
  5
171DF
  8
DANMEN
  6
CONTINUOUS
 10
149.61300951949141
 20
434.07584761861227
 30
0.0
 11
149.61300951949141
 21
434.42584761861252
 31
0.0
  0
LINE
  5
171E0
  8
DANMEN
  6
CONTINUOUS
 10
159.61300951949141
 20
434.07584761861227
 30
0.0
 11
159.61300951949141
 21
434.42584761861252
 31
0.0
  0
ARC
  5
171E1
  8
DANMEN
  6
CONTINUOUS
 10
160.61300951949141
 20
434.07584761861227
 30
0.0
 40
1.0
 50
180.0
 51
270.0
  0
ARC
  5
171E2
  8
DANMEN
  6
CONTINUOUS
 10
170.8130095194914
 20
434.62584761861228
 30
0.0
 40
1.0
 50
180.0
 51
270.0
  0
LINE
  5
171E3
  8
DANMEN
  6
CONTINUOUS
 10
169.0740095194914
 20
437.52584761861232
 30
0.0
 11
170.21300951949141
 21
437.52584761861232
 31
0.0
  0
ARC
  5
171E4
  8
DANMEN
  6
CONTINUOUS
 10
170.8130095194914
 20
435.87184761861232
 30
0.0
 40
1.0
 50
114.6239999999994
 51
180.0
  0
ARC
  5
171E5
  8
DANMEN
  6
CONTINUOUS
 10
170.31300951949129
 20
435.95584761861238
 30
0.0
 40
2.0
 50
128.29300000000049
 51
180.0
  0
LINE
  5
171E6
  8
DANMEN
  6
CONTINUOUS
 10
168.31300951949129
 20
435.95584761861238
 30
0.0
 11
168.31300951949129
 21
434.07584761861227
 31
0.0
  0
ARC
  5
171E7
  8
DANMEN
  6
CONTINUOUS
 10
167.31300951949129
 20
434.07584761861227
 30
0.0
 40
1.0
 50
270.0
 51
0.0
  0
LINE
  5
171E8
  8
DANMEN
  6
CONTINUOUS
 10
172.71300951949141
 20
437.22584761861231
 30
0.0
 11
172.71300951949141
 21
436.96284761861227
 31
0.0
  0
ARC
  5
171E9
  8
DANMEN
  6
CONTINUOUS
 10
172.9130095194914
 20
435.95584761861238
 30
0.0
 40
2.0
 50
0.0
 51
51.706999999999432
  0
LINE
  5
171EA
  8
DANMEN
  6
CONTINUOUS
 10
170.51300951949139
 20
437.22584761861231
 30
0.0
 11
170.51300951949139
 21
436.96284761861227
 31
0.0
  0
LINE
  5
171EB
  8
DANMEN
  6
CONTINUOUS
 10
173.4130095194914
 20
435.87184761861232
 30
0.0
 11
173.4130095194914
 21
434.62584761861228
 31
0.0
  0
ARC
  5
171EC
  8
DANMEN
  6
CONTINUOUS
 10
172.4130095194914
 20
435.87184761861232
 30
0.0
 40
1.0
 50
0.0
 51
65.376000000000531
  0
ARC
  5
171ED
  8
DANMEN
  6
CONTINUOUS
 10
172.9130095194914
 20
436.96284761861227
 30
0.0
 40
0.2
 50
180.0
 51
245.3760000000004
  0
ARC
  5
171EE
  8
DANMEN
  6
CONTINUOUS
 10
172.4130095194914
 20
434.62584761861228
 30
0.0
 40
1.0
 50
270.0
 51
0.0
  0
LINE
  5
171EF
  8
DANMEN
  6
CONTINUOUS
 10
172.4130095194914
 20
433.62584761861228
 30
0.0
 11
170.8130095194914
 21
433.62584761861228
 31
0.0
  0
ARC
  5
171F0
  8
DANMEN
  6
CONTINUOUS
 10
170.31300951949129
 20
436.96284761861227
 30
0.0
 40
0.2
 50
294.6239999999994
 51
0.0
  0
LINE
  5
171F1
  8
DANMEN
  6
CONTINUOUS
 10
169.8130095194914
 20
435.87184761861232
 30
0.0
 11
169.8130095194914
 21
434.62584761861228
 31
0.0
  0
LINE
  5
171F2
  8
DANMEN
  6
CONTINUOUS
 10
174.9130095194914
 20
435.95584761861238
 30
0.0
 11
174.9130095194914
 21
434.07584761861227
 31
0.0
  0
ARC
  5
171F3
  8
DANMEN
  6
CONTINUOUS
 10
175.9130095194914
 20
434.07584761861227
 30
0.0
 40
1.0
 50
180.0
 51
270.0
  0
LINE
  5
171F4
  8
DANMEN
  6
CONTINUOUS
 10
174.1520095194914
 20
437.52584761861232
 30
0.0
 11
173.01300951949139
 21
437.52584761861232
 31
0.0
  0
ARC
  5
171F5
  8
DANMEN
  6
CONTINUOUS
 10
173.01300951949139
 20
437.22584761861231
 30
0.0
 40
0.3
 50
90.0
 51
180.0
  0
ARC
  5
171F6
  8
DANMEN
  6
CONTINUOUS
 10
170.21300951949141
 20
437.22584761861231
 30
0.0
 40
0.3
 50
0.0
 51
90.0
  0
TEXT
  5
171F7
  8
SUNPO
  6
CONTINUOUS
 10
160.0296761861581
 20
474.92584761861229
 30
0.0
 40
2.5
  1
45
  7
MX_NOTE_STANDARD
  0
LINE
  5
171F8
  8
DANMEN
  6
CONTINUOUS
 10
176.11300951949141
 20
457.77584761861249
 30
0.0
 11
176.11300951949141
 21
458.42584761861229
 31
0.0
  0
ARC
  5
171F9
  8
DANMEN
  6
CONTINUOUS
 10
176.61300951949141
 20
458.42584761861229
 30
0.0
 40
0.5
 50
90.0
 51
180.0
  0
ARC
  5
171FA
  8
DANMEN
  6
CONTINUOUS
 10
176.61300951949141
 20
457.77584761861249
 30
0.0
 40
0.5
 50
180.0
 51
270.0
  0
TEXT
  5
171FB
  8
SUNPO
  6
CONTINUOUS
 10
211.61300951949141
 20
462.17584761861252
 30
0.0
 40
2.5
  1
10
 50
90.0
 41
1.1999999999999991
  7
MX_DIMTXSTY_6
  0
LINE
  5
171FC
  8
SUNPO
  6
CONTINUOUS
 10
185.61300951949141
 20
458.92584761861229
 30
0.0
 11
212.61300951949141
 21
458.92584761861229
 31
0.0
  0
LINE
  5
171FD
  8
SUNPO
  6
CONTINUOUS
 10
186.11300951949141
 20
468.92584761861241
 30
0.0
 11
212.61300951949141
 21
468.92584761861241
 31
0.0
  0
TEXT
  5
171FE
  8
SUNPO
  6
CONTINUOUS
 10
211.61300951949141
 20
436.11334761861241
 30
0.0
 40
2.5
  1
40
 50
90.0
 41
1.5
  7
MX_DIMTXSTY_2
  0
LINE
  5
171FF
  8
SUNPO
  6
CONTINUOUS
 10
185.61300951949141
 20
458.92584761861229
 30
0.0
 11
212.61300951949141
 21
458.92584761861229
 31
0.0
  0
LINE
  5
17200
  8
DANMEN
  6
CONTINUOUS
 10
182.96300951949141
 20
452.42584761861229
 30
0.0
 11
182.96300951949141
 21
457.27584761861232
 31
0.0
  0
LINE
  5
17201
  8
DANMEN
  6
CONTINUOUS
 10
182.96300951949141
 20
433.07584761861227
 30
0.0
 11
182.96300951949141
 21
450.77584761861249
 31
0.0
  0
LINE
  5
17202
  8
DANMEN
  6
CONTINUOUS
 10
184.61300951949141
 20
458.92584761861229
 30
0.0
 11
184.61300951949141
 21
468.92584761861241
 31
0.0
  0
ARC
  5
17203
  8
DANMEN
  6
CONTINUOUS
 10
184.11300951949141
 20
458.42584761861229
 30
0.0
 40
0.5
 50
0.0
 51
90.0
  0
LINE
  5
17204
  8
SUNPO
  6
CONTINUOUS
 10
184.61300951949141
 20
470.42584761861229
 30
0.0
 11
184.61300951949141
 21
473.92584761861229
 31
0.0
  0
INSERT
  5
17205
  8
SUNPO
  6
CONTINUOUS
  2
_DOTSMALL
 10
184.61300951949141
 20
473.92584761861229
 30
0.0
 41
2.3199999999999918
 42
2.3199999999999918
 43
2.3199999999999981
  0
LINE
  5
17206
  8
SUNPO
  6
CONTINUOUS
 10
212.61300951949141
 20
468.92584761861241
 30
0.0
 11
212.61300951949141
 21
458.92584761861229
 31
0.0
  0
INSERT
  5
17207
  8
SUNPO
  6
CONTINUOUS
  2
_DOTSMALL
 10
212.61300951949141
 20
458.92584761861229
 30
0.0
 41
2.3199999999999918
 42
2.3199999999999918
 43
2.3199999999999981
 50
270.0
  0
INSERT
  5
17208
  8
SUNPO
  6
CONTINUOUS
  2
_DOTSMALL
 10
212.61300951949141
 20
458.92584761861229
 30
0.0
 41
2.3199999999999918
 42
2.3199999999999918
 43
2.3199999999999981
 50
90.0
  0
INSERT
  5
17209
  8
SUNPO
  6
CONTINUOUS
  2
_DOTSMALL
 10
212.61300951949141
 20
468.92584761861241
 30
0.0
 41
2.3199999999999918
 42
2.3199999999999918
 43
2.3199999999999981
 50
90.0
  0
LINE
  5
1720A
  8
SUNPO
  6
CONTINUOUS
 10
270.11300951949141
 20
327.92584761861229
 30
0.0
 11
270.11300951949141
 21
374.92584761861229
 31
0.0
  0
LINE
  5
1720B
  8
SUNPO
  6
CONTINUOUS
 10
250.11300951949141
 20
402.92584761861229
 30
0.0
 11
250.11300951949141
 21
302.92584761861229
 31
0.0
  0
LINE
  5
1720C
  8
SUNPO
  6
CONTINUOUS
 10
250.11300951949141
 20
402.92584761861229
 30
0.0
 11
250.11300951949141
 21
302.92584761861229
 31
0.0
  0
LINE
  5
1720D
  8
SUNPO
  6
CONTINUOUS
 10
260.11300951949141
 20
402.92584761861229
 30
0.0
 11
260.11300951949141
 21
327.92584761861229
 31
0.0
  0
LINE
  5
1720E
  8
DANMEN
  6
CONTINUOUS
 10
300.11300951949141
 20
372.92584761861229
 30
0.0
 11
300.11300951949141
 21
328.42584761861229
 31
0.0
  0
LINE
  5
1720F
  8
DANMEN
  6
CONTINUOUS
 10
287.61300951949141
 20
374.42584761861229
 30
0.0
 11
287.61300951949141
 21
328.42584761861229
 31
0.0
  0
LINE
  5
17210
  8
DANMEN
  6
CONTINUOUS
 10
289.61300951949141
 20
372.92584761861229
 30
0.0
 11
289.61300951949141
 21
329.92584761861229
 31
0.0
  0
LINE
  5
17211
  8
DANMEN
  6
CONTINUOUS
 10
298.1130095194913
 20
372.92584761861229
 30
0.0
 11
298.1130095194913
 21
329.92584761861229
 31
0.0
  0
LINE
  5
17212
  8
DANMEN
  6
CONTINUOUS
 10
344.1130095194913
 20
353.92584761861229
 30
0.0
 11
344.1130095194913
 21
325.92584761861229
 31
0.0
  0
LINE
  5
17213
  8
DANMEN
  6
CONTINUOUS
 10
331.11300951949141
 20
353.92584761861229
 30
0.0
 11
331.11300951949141
 21
325.92584761861229
 31
0.0
  0
LINE
  5
17214
  8
DANMEN
  6
CONTINUOUS
 10
346.1130095194913
 20
361.92584761861229
 30
0.0
 11
346.1130095194913
 21
324.42584761861229
 31
0.0
  0
LINE
  5
17215
  8
DANMEN
  6
CONTINUOUS
 10
329.11300951949141
 20
361.92584761861229
 30
0.0
 11
329.11300951949141
 21
324.42584761861229
 31
0.0
  0
LINE
  5
17216
  8
DANMEN
  6
CONTINUOUS
 10
375.1130095194913
 20
372.92584761861229
 30
0.0
 11
375.1130095194913
 21
328.42584761861229
 31
0.0
  0
LINE
  5
17217
  8
DANMEN
  6
CONTINUOUS
 10
387.6130095194913
 20
374.42584761861229
 30
0.0
 11
387.6130095194913
 21
328.42584761861229
 31
0.0
  0
LINE
  5
17218
  8
DANMEN
  6
CONTINUOUS
 10
385.6130095194913
 20
372.92584761861229
 30
0.0
 11
385.6130095194913
 21
329.92584761861229
 31
0.0
  0
LINE
  5
17219
  8
DANMEN
  6
CONTINUOUS
 10
377.1130095194913
 20
372.92584761861229
 30
0.0
 11
377.1130095194913
 21
329.92584761861229
 31
0.0
  0
LINE
  5
1721A
  8
SUNPO
  6
CONTINUOUS
 10
387.6130095194913
 20
287.92584761861229
 30
0.0
 11
287.61300951949141
 21
287.92584761861229
 31
0.0
  0
LINE
  5
1721B
  8
DANMEN
  6
CONTINUOUS
 10
385.6130095194913
 20
307.42584761861229
 30
0.0
 11
341.61300951949141
 21
307.42584761861229
 31
0.0
  0
LINE
  5
1721C
  8
DANMEN
  6
CONTINUOUS
 10
387.1130095194913
 20
305.42584761861229
 30
0.0
 11
288.11300951949141
 21
305.42584761861229
 31
0.0
  0
LINE
  5
1721D
  8
DANMEN
  6
CONTINUOUS
 10
377.6130095194913
 20
323.92584761861229
 30
0.0
 11
343.6130095194913
 21
323.92584761861229
 31
0.0
  0
LINE
  5
1721E
  8
DANMEN
  6
CONTINUOUS
 10
289.61300951949141
 20
307.42584761861229
 30
0.0
 11
333.6130095194913
 21
307.42584761861229
 31
0.0
  0
LINE
  5
1721F
  8
DANMEN
  6
CONTINUOUS
 10
297.61300951949141
 20
323.92584761861229
 30
0.0
 11
331.61300951949141
 21
323.92584761861229
 31
0.0
  0
LINE
  5
17220
  8
SUNPO
  6
CONTINUOUS
 10
287.61300951949141
 20
304.42584761861229
 30
0.0
 11
287.61300951949141
 21
287.92584761861229
 31
0.0
  0
LINE
  5
17221
  8
SUNPO
  6
CONTINUOUS
 10
247.04300951949139
 20
275.42584761861229
 30
0.0
 11
247.04300951949139
 21
280.42584761861241
 31
0.0
  0
INSERT
  5
17222
  8
SUNPO
  6
CONTINUOUS
  2
_DOTSMALL
 10
287.61300951949141
 20
287.92584761861229
 30
0.0
 41
2.3199999999999918
 42
2.3199999999999918
 43
2.3199999999999981
 50
180.0
  0
TEXT
  5
17223
  8
SUNPO
  6
CONTINUOUS
 10
259.11300951949141
 20
313.34251428527898
 30
0.0
 40
2.5
  1
25
 50
90.0
  7
MX_NOTE_STANDARD
  0
LINE
  5
17224
  8
SUNPO
  6
CONTINUOUS
 10
260.11300951949141
 20
327.92584761861229
 30
0.0
 11
260.11300951949141
 21
302.92584761861229
 31
0.0
  0
TEXT
  5
17225
  8
SUNPO
  6
CONTINUOUS
 10
269.1130095194913
 20
311.17584761861229
 30
0.0
 40
2.5
  1
21
 50
90.0
 41
1.3500000000000001
  7
MX_DIMTXSTY_5
  0
LINE
  5
17226
  8
SUNPO
  6
CONTINUOUS
 10
270.11300951949141
 20
323.92584761861229
 30
0.0
 11
270.11300951949141
 21
302.92584761861229
 31
0.0
  0
INSERT
  5
17227
  8
SUNPO
  6
CONTINUOUS
  2
_DOTSMALL
 10
260.11300951949141
 20
302.92584761861229
 30
0.0
 41
2.3199999999999918
 42
2.3199999999999918
 43
2.3199999999999981
 50
270.0
  0
INSERT
  5
17228
  8
SUNPO
  6
CONTINUOUS
  2
_DOTSMALL
 10
250.11300951949141
 20
302.92584761861229
 30
0.0
 41
2.3199999999999918
 42
2.3199999999999918
 43
2.3199999999999981
 50
270.0
  0
INSERT
  5
17229
  8
SUNPO
  6
CONTINUOUS
  2
_DOTSMALL
 10
250.11300951949141
 20
302.92584761861229
 30
0.0
 41
2.3199999999999918
 42
2.3199999999999918
 43
2.3199999999999981
 50
270.0
  0
INSERT
  5
1722A
  8
SUNPO
  6
CONTINUOUS
  2
_DOTSMALL
 10
270.11300951949141
 20
302.92584761861229
 30
0.0
 41
2.3199999999999918
 42
2.3199999999999918
 43
2.3199999999999981
 50
270.0
  0
INSERT
  5
1722B
  8
SUNPO
  6
CONTINUOUS
  2
_DOTSMALL
 10
260.11300951949141
 20
327.92584761861229
 30
0.0
 41
2.3199999999999918
 42
2.3199999999999918
 43
2.3199999999999981
 50
90.0
  0
INSERT
  5
1722C
  8
SUNPO
  6
CONTINUOUS
  2
_DOTSMALL
 10
260.11300951949141
 20
327.92584761861229
 30
0.0
 41
2.3199999999999918
 42
2.3199999999999918
 43
2.3199999999999981
 50
270.0
  0
LINE
  5
1722D
  8
SUNPO
  6
CONTINUOUS
 10
270.11300951949141
 20
327.92584761861229
 30
0.0
 11
270.11300951949141
 21
323.92584761861229
 31
0.0
  0
TEXT
  5
1722E
  8
SUNPO
  6
CONTINUOUS
 10
269.1130095194913
 20
325.09251428527898
 30
0.0
 40
2.5
  1
4
 50
90.0
  7
MX_NOTE_STANDARD
  0
INSERT
  5
1722F
  8
SUNPO
  6
CONTINUOUS
  2
_DOTSMALL
 10
270.11300951949141
 20
323.92584761861229
 30
0.0
 41
2.3199999999999918
 42
2.3199999999999918
 43
2.3199999999999981
 50
270.0
  0
INSERT
  5
17230
  8
SUNPO
  6
CONTINUOUS
  2
_DOTSMALL
 10
270.11300951949141
 20
323.92584761861229
 30
0.0
 41
2.3199999999999918
 42
2.3199999999999918
 43
2.3199999999999981
 50
90.0
  0
INSERT
  5
17231
  8
SUNPO
  6
CONTINUOUS
  2
_DOTSMALL
 10
270.11300951949141
 20
327.92584761861229
 30
0.0
 41
2.3199999999999918
 42
2.3199999999999918
 43
2.3199999999999981
 50
270.0
  0
INSERT
  5
17232
  8
SUNPO
  6
CONTINUOUS
  2
_DOTSMALL
 10
270.11300951949141
 20
327.92584761861229
 30
0.0
 41
2.3199999999999918
 42
2.3199999999999918
 43
2.3199999999999981
 50
90.0
  0
TEXT
  5
17233
  8
SUNPO
  6
CONTINUOUS
 10
279.11300951949141
 20
310.67584761861229
 30
0.0
 40
2.5
  1
18.5
 50
90.0
 41
1.1999999999999991
  7
MX_DIMTXSTY_6
  0
LINE
  5
17234
  8
SUNPO
  6
CONTINUOUS
 10
280.11300951949141
 20
305.42584761861229
 30
0.0
 11
280.11300951949141
 21
323.92584761861229
 31
0.0
  0
LINE
  5
17235
  8
DANMEN
  6
CONTINUOUS
 10
289.61300951949141
 20
316.42584761861229
 30
0.0
 11
289.61300951949141
 21
307.42584761861229
 31
0.0
  0
LINE
  5
17236
  8
DANMEN
  6
CONTINUOUS
 10
287.61300951949141
 20
323.42584761861229
 30
0.0
 11
287.61300951949141
 21
305.92584761861229
 31
0.0
  0
LINE
  5
17237
  8
SUNPO
  6
CONTINUOUS
 10
280.11300951949141
 20
305.42584761861229
 30
0.0
 11
280.11300951949141
 21
302.92584761861229
 31
0.0
  0
TEXT
  5
17238
  8
SUNPO
  6
CONTINUOUS
 10
279.11300951949141
 20
294.2308476186123
 30
0.0
 40
2.5
  1
2.5
 50
90.0
 41
0.85
  7
MX_DIMTXSTY_7
  0
LINE
  5
17239
  8
SUNPO
  6
CONTINUOUS
 10
280.11300951949141
 20
302.92584761861229
 30
0.0
 11
280.11300951949141
 21
292.1058476186123
 31
0.0
  0
INSERT
  5
1723A
  8
SUNPO
  6
CONTINUOUS
  2
_DOTSMALL
 10
280.11300951949141
 20
302.92584761861229
 30
0.0
 41
2.3199999999999918
 42
2.3199999999999918
 43
2.3199999999999981
 50
270.0
  0
LINE
  5
1723B
  8
SUNPO
  6
CONTINUOUS
 10
286.61300951949141
 20
305.42584761861229
 30
0.0
 11
280.11300951949141
 21
305.42584761861229
 31
0.0
  0
LINE
  5
1723C
  8
SUNPO
  6
CONTINUOUS
 10
286.61300951949141
 20
305.42584761861229
 30
0.0
 11
280.11300951949141
 21
305.42584761861229
 31
0.0
  0
INSERT
  5
1723D
  8
SUNPO
  6
CONTINUOUS
  2
_DOTSMALL
 10
280.11300951949141
 20
305.42584761861229
 30
0.0
 41
2.3199999999999918
 42
2.3199999999999918
 43
2.3199999999999981
 50
270.0
  0
INSERT
  5
1723E
  8
SUNPO
  6
CONTINUOUS
  2
_DOTSMALL
 10
280.11300951949141
 20
305.42584761861229
 30
0.0
 41
2.3199999999999918
 42
2.3199999999999918
 43
2.3199999999999981
 50
90.0
  0
ARC
  5
1723F
  8
DANMEN
  6
CONTINUOUS
 10
288.11300951949141
 20
305.92584761861229
 30
0.0
 40
0.5
 50
180.0
 51
270.0
  0
LINE
  5
17240
  8
DANMEN
  6
CONTINUOUS
 10
294.11300951949141
 20
319.92584761861229
 30
0.0
 11
291.11300951949141
 21
319.92584761861229
 31
0.0
  0
ARC
  5
17241
  8
DANMEN
  6
CONTINUOUS
 10
292.61300951949141
 20
323.02584761861232
 30
0.0
 40
0.9
 50
0.0
 51
180.0
  0
ARC
  5
17242
  8
DANMEN
  6
CONTINUOUS
 10
292.61300951949141
 20
321.82584761861227
 30
0.0
 40
0.9
 50
180.0
 51
0.0
  0
LINE
  5
17243
  8
DANMEN
  6
CONTINUOUS
 10
296.61300951949141
 20
324.92584761861229
 30
0.0
 11
288.61300951949141
 21
324.92584761861229
 31
0.0
  0
LINE
  5
17244
  8
DANMEN
  6
CONTINUOUS
 10
295.98900951949128
 20
327.9208476186123
 30
0.0
 11
289.23700951949149
 21
327.9208476186123
 31
0.0
  0
LINE
  5
17245
  8
DANMEN
  6
CONTINUOUS
 10
289.64500951949151
 20
326.42284761861231
 30
0.0
 11
295.58100951949149
 21
326.42284761861231
 31
0.0
  0
LINE
  5
17246
  8
DANMEN
  6
CONTINUOUS
 10
288.11300951949141
 20
327.92584761861229
 30
0.0
 11
299.61300951949141
 21
327.92584761861229
 31
0.0
  0
LINE
  5
17247
  8
DANMEN
  6
CONTINUOUS
 10
289.61300951949141
 20
329.92584761861229
 30
0.0
 11
294.11300951949141
 21
329.92584761861229
 31
0.0
  0
LINE
  5
17248
  8
DANMEN
  6
CONTINUOUS
 10
289.61300951949141
 20
318.92584761861229
 30
0.0
 11
295.61300951949141
 21
318.92584761861229
 31
0.0
  0
LINE
  5
17249
  8
DANMEN
  6
CONTINUOUS
 10
290.11300951949141
 20
316.92584761861229
 30
0.0
 11
297.11300951949141
 21
316.92584761861229
 31
0.0
  0
ARC
  5
1724A
  8
DANMEN
  6
CONTINUOUS
 10
289.1500095194915
 20
326.37684761861232
 30
0.0
 40
1.5469999999999979
 50
86.754999999999328
 51
249.69800000000049
  0
INSERT
  5
1724B
  8
SUNPO
  6
CONTINUOUS
  2
_DOTSMALL
 10
280.11300951949141
 20
323.92584761861229
 30
0.0
 41
2.3199999999999918
 42
2.3199999999999918
 43
2.3199999999999981
 50
90.0
  0
LINE
  5
1724C
  8
DANMEN
  6
CONTINUOUS
 10
291.11300951949141
 20
319.92584761861229
 30
0.0
 11
289.89600951949132
 21
322.05184761861238
 31
0.0
  0
LINE
  5
1724D
  8
DANMEN
  6
CONTINUOUS
 10
289.61300951949141
 20
322.92584761861229
 30
0.0
 11
289.61300951949141
 21
318.92584761861229
 31
0.0
  0
ARC
  5
1724E
  8
DANMEN
  6
CONTINUOUS
 10
290.11300951949141
 20
316.42584761861229
 30
0.0
 40
0.5
 50
90.0
 51
180.0
  0
LINE
  5
1724F
  8
DANMEN
  6
CONTINUOUS
 10
290.61300951949141
 20
323.92584761861229
 30
0.0
 11
288.61300951949141
 21
323.92584761861229
 31
0.0
  0
LINE
  5
17250
  8
DANMEN
  6
CONTINUOUS
 10
288.11300951949141
 20
323.92584761861229
 30
0.0
 11
290.11300951949141
 21
323.92584761861229
 31
0.0
  0
LINE
  5
17251
  8
DANMEN
  6
CONTINUOUS
 10
288.61300951949141
 20
324.92584761861229
 30
0.0
 11
288.61300951949141
 21
323.92584761861229
 31
0.0
  0
ARC
  5
17252
  8
DANMEN
  6
CONTINUOUS
 10
288.11300951949141
 20
323.42584761861229
 30
0.0
 40
0.5
 50
90.0
 51
180.0
  0
LINE
  5
17253
  8
DANMEN
  6
CONTINUOUS
 10
290.61300951949141
 20
323.92584761861229
 30
0.0
 11
290.61300951949141
 21
322.17584761861229
 31
0.0
  0
LINE
  5
17254
  8
DANMEN
  6
CONTINUOUS
 10
291.71300951949132
 20
323.02584761861232
 30
0.0
 11
291.71300951949132
 21
321.82584761861227
 31
0.0
  0
LINE
  5
17255
  8
DANMEN
  6
CONTINUOUS
 10
290.61300951949141
 20
322.17584761861229
 30
0.0
 11
290.23800951949141
 21
322.39284761861239
 31
0.0
  0
ARC
  5
17256
  8
DANMEN
  6
CONTINUOUS
 10
290.11300951949141
 20
322.17584761861229
 30
0.0
 40
0.25
 50
60.000000000000277
 51
209.78999999999959
  0
ARC
  5
17257
  8
DANMEN
  6
CONTINUOUS
 10
289.64500951949151
 20
326.1228476186123
 30
0.0
 40
0.3
 50
90.0
 51
214.8490000000007
  0
LINE
  5
17258
  8
DANMEN
  6
CONTINUOUS
 10
290.11300951949141
 20
324.92584761861229
 30
0.0
 11
289.39900951949141
 21
325.95184761861231
 31
0.0
  0
ARC
  5
17259
  8
DANMEN
  6
CONTINUOUS
 10
290.11300951949141
 20
323.42584761861229
 30
0.0
 40
0.5
 50
0.0
 51
90.0
  0
LINE
  5
1725A
  8
DANMEN
  6
CONTINUOUS
 10
290.61300951949141
 20
323.42584761861229
 30
0.0
 11
290.61300951949141
 21
322.92584761861229
 31
0.0
  0
LINE
  5
1725B
  8
DANMEN
  6
CONTINUOUS
 10
289.61300951949141
 20
322.92584761861229
 30
0.0
 11
290.61300951949141
 21
322.92584761861229
 31
0.0
  0
ARC
  5
1725C
  8
DANMEN
  6
CONTINUOUS
 10
288.11300951949141
 20
328.42584761861229
 30
0.0
 40
0.5
 50
180.0
 51
270.0
  0
ARC
  5
1725D
  8
DANMEN
  6
CONTINUOUS
 10
296.07600951949132
 20
326.37684761861232
 30
0.0
 40
1.5469999999999979
 50
290.3019999999994
 51
93.245000000000644
  0
LINE
  5
1725E
  8
DANMEN
  6
CONTINUOUS
 10
294.11300951949141
 20
319.92584761861229
 30
0.0
 11
295.3300095194914
 21
322.05184761861238
 31
0.0
  0
LINE
  5
1725F
  8
DANMEN
  6
CONTINUOUS
 10
295.61300951949141
 20
322.92584761861229
 30
0.0
 11
295.61300951949141
 21
318.92584761861229
 31
0.0
  0
LINE
  5
17260
  8
DANMEN
  6
CONTINUOUS
 10
297.61300951949141
 20
323.42584761861229
 30
0.0
 11
297.61300951949141
 21
317.42584761861229
 31
0.0
  0
ARC
  5
17261
  8
DANMEN
  6
CONTINUOUS
 10
297.11300951949141
 20
317.42584761861229
 30
0.0
 40
0.5
 50
270.0
 51
0.0
  0
LINE
  5
17262
  8
DANMEN
  6
CONTINUOUS
 10
295.11300951949141
 20
323.92584761861229
 30
0.0
 11
297.11300951949141
 21
323.92584761861229
 31
0.0
  0
LINE
  5
17263
  8
DANMEN
  6
CONTINUOUS
 10
293.51300951949128
 20
323.02584761861232
 30
0.0
 11
293.51300951949128
 21
321.82584761861227
 31
0.0
  0
LINE
  5
17264
  8
DANMEN
  6
CONTINUOUS
 10
294.61300951949141
 20
323.92584761861229
 30
0.0
 11
294.61300951949141
 21
322.17584761861229
 31
0.0
  0
LINE
  5
17265
  8
DANMEN
  6
CONTINUOUS
 10
294.61300951949141
 20
322.17584761861229
 30
0.0
 11
294.9880095194913
 21
322.39284761861239
 31
0.0
  0
LINE
  5
17266
  8
DANMEN
  6
CONTINUOUS
 10
296.61300951949141
 20
324.92584761861229
 30
0.0
 11
296.61300951949141
 21
323.92584761861229
 31
0.0
  0
ARC
  5
17267
  8
DANMEN
  6
CONTINUOUS
 10
295.11300951949141
 20
322.17584761861229
 30
0.0
 40
0.25
 50
330.2099999999989
 51
119.9999999999997
  0
ARC
  5
17268
  8
DANMEN
  6
CONTINUOUS
 10
295.58100951949149
 20
326.1228476186123
 30
0.0
 40
0.3
 50
325.1509999999991
 51
90.0
  0
LINE
  5
17269
  8
DANMEN
  6
CONTINUOUS
 10
294.61300951949141
 20
323.92584761861229
 30
0.0
 11
296.61300951949141
 21
323.92584761861229
 31
0.0
  0
LINE
  5
1726A
  8
DANMEN
  6
CONTINUOUS
 10
295.82700951949141
 20
325.95184761861231
 30
0.0
 11
295.11300951949141
 21
324.92584761861229
 31
0.0
  0
ARC
  5
1726B
  8
DANMEN
  6
CONTINUOUS
 10
295.11300951949141
 20
323.42584761861229
 30
0.0
 40
0.5
 50
90.0
 51
180.0
  0
LINE
  5
1726C
  8
DANMEN
  6
CONTINUOUS
 10
294.61300951949141
 20
322.92584761861229
 30
0.0
 11
295.61300951949141
 21
322.92584761861229
 31
0.0
  0
LINE
  5
1726D
  8
DANMEN
  6
CONTINUOUS
 10
294.61300951949141
 20
323.42584761861229
 30
0.0
 11
294.61300951949141
 21
322.92584761861229
 31
0.0
  0
ARC
  5
1726E
  8
DANMEN
  6
CONTINUOUS
 10
297.11300951949141
 20
323.42584761861229
 30
0.0
 40
0.5
 50
0.0
 51
90.0
  0
LINE
  5
1726F
  8
DANMEN
  6
CONTINUOUS
 10
295.61300951949141
 20
329.92584761861229
 30
0.0
 11
298.1130095194913
 21
329.92584761861229
 31
0.0
  0
LINE
  5
17270
  8
DANMEN
  6
CONTINUOUS
 10
295.61300951949141
 20
329.92584761861229
 30
0.0
 11
295.61300951949141
 21
331.42584761861229
 31
0.0
  0
LINE
  5
17271
  8
DANMEN
  6
CONTINUOUS
 10
294.11300951949141
 20
329.92584761861229
 30
0.0
 11
294.11300951949141
 21
331.42584761861229
 31
0.0
  0
LINE
  5
17272
  8
DANMEN
  6
CONTINUOUS
 10
295.11300951949141
 20
331.92584761861229
 30
0.0
 11
294.61300951949141
 21
331.92584761861229
 31
0.0
  0
ARC
  5
17273
  8
DANMEN
  6
CONTINUOUS
 10
295.11300951949141
 20
331.42584761861229
 30
0.0
 40
0.5
 50
0.0
 51
90.0
  0
ARC
  5
17274
  8
DANMEN
  6
CONTINUOUS
 10
294.61300951949141
 20
331.42584761861229
 30
0.0
 40
0.5
 50
90.0
 51
180.0
  0
ARC
  5
17275
  8
DANMEN
  6
CONTINUOUS
 10
299.61300951949141
 20
328.42584761861229
 30
0.0
 40
0.5
 50
270.0
 51
0.0
  0
LINE
  5
17276
  8
SUNPO
  6
CONTINUOUS
 10
333.94600951949138
 20
284.6348476186123
 30
0.0
 11
333.94600951949138
 21
278.63484761861241
 31
0.0
  0
LINE
  5
17277
  8
SUNPO
  6
CONTINUOUS
 10
331.85600951949141
 20
284.6348476186123
 30
0.0
 11
333.94600951949138
 21
278.63484761861241
 31
0.0
  0
LINE
  5
17278
  8
SUNPO
  6
CONTINUOUS
 10
330.12600951949128
 20
284.6348476186123
 30
0.0
 11
332.21600951949142
 21
278.63484761861241
 31
0.0
  0
LINE
  5
17279
  8
SUNPO
  6
CONTINUOUS
 10
330.12600951949128
 20
284.6348476186123
 30
0.0
 11
330.12600951949128
 21
278.63484761861241
 31
0.0
  0
LINE
  5
1727A
  8
SUNPO
  6
CONTINUOUS
 10
328.03600951949147
 20
284.6348476186123
 30
0.0
 11
330.12600951949128
 21
278.63484761861241
 31
0.0
  0
LINE
  5
1727B
  8
SUNPO
  6
CONTINUOUS
 10
326.3060095194914
 20
284.6348476186123
 30
0.0
 11
328.39600951949149
 21
278.63484761861241
 31
0.0
  0
LINE
  5
1727C
  8
SUNPO
  6
CONTINUOUS
 10
331.58100951949132
 20
278.63484761861241
 30
0.0
 11
334.58100951949132
 21
278.63484761861241
 31
0.0
  0
LINE
  5
1727D
  8
SUNPO
  6
CONTINUOUS
 10
327.76100951949149
 20
278.63484761861241
 30
0.0
 11
330.76100951949149
 21
278.63484761861241
 31
0.0
  0
LINE
  5
1727E
  8
SUNPO
  6
CONTINUOUS
 10
333.31200951949143
 20
284.6348476186123
 30
0.0
 11
334.58100951949132
 21
284.6348476186123
 31
0.0
  0
LINE
  5
1727F
  8
SUNPO
  6
CONTINUOUS
 10
329.49100951949129
 20
284.6348476186123
 30
0.0
 11
332.4910095194914
 21
284.6348476186123
 31
0.0
  0
LINE
  5
17280
  8
SUNPO
  6
CONTINUOUS
 10
325.67100951949141
 20
284.6348476186123
 30
0.0
 11
328.67100951949129
 21
284.6348476186123
 31
0.0
  0
TEXT
  5
17281
  8
SUNPO
  6
CONTINUOUS
 10
334.36300951949141
 20
278.92584761861241
 30
0.0
 40
5.0
  1
＝
 41
1.3
  7
MX_DIMTXSTY_4
  0
TEXT
  5
17282
  8
SUNPO
  6
CONTINUOUS
 10
335.48800951949141
 20
288.92584761861229
 30
0.0
 40
2.5
  1
100
 41
0.85
  7
MX_DIMTXSTY_7
  0
LINE
  5
17283
  8
DANMEN
  6
CONTINUOUS
 10
345.6130095194913
 20
323.92584761861229
 30
0.0
 11
338.61300951949141
 21
323.92584761861229
 31
0.0
  0
LINE
  5
17284
  8
DANMEN
  6
CONTINUOUS
 10
344.1130095194913
 20
325.92584761861229
 30
0.0
 11
341.61300951949141
 21
325.92584761861229
 31
0.0
  0
LINE
  5
17285
  8
DANMEN
  6
CONTINUOUS
 10
338.61300951949141
 20
323.92584761861229
 30
0.0
 11
338.61300951949141
 21
310.42584761861229
 31
0.0
  0
LINE
  5
17286
  8
DANMEN
  6
CONTINUOUS
 10
336.61300951949141
 20
323.92584761861229
 30
0.0
 11
336.61300951949141
 21
310.42584761861229
 31
0.0
  0
ARC
  5
17287
  8
DANMEN
  6
CONTINUOUS
 10
333.6130095194913
 20
310.42584761861229
 30
0.0
 40
3.0
 50
270.0
 51
0.0
  0
ARC
  5
17288
  8
DANMEN
  6
CONTINUOUS
 10
341.61300951949141
 20
310.42584761861229
 30
0.0
 40
3.0
 50
180.0
 51
270.0
  0
LINE
  5
17289
  8
DANMEN
  6
CONTINUOUS
 10
341.61300951949141
 20
327.42584761861229
 30
0.0
 11
341.61300951949141
 21
325.92584761861229
 31
0.0
  0
LINE
  5
1728A
  8
DANMEN
  6
CONTINUOUS
 10
340.11300951949141
 20
327.42584761861229
 30
0.0
 11
340.11300951949141
 21
325.92584761861229
 31
0.0
  0
LINE
  5
1728B
  8
DANMEN
  6
CONTINUOUS
 10
333.6130095194913
 20
327.42584761861229
 30
0.0
 11
333.6130095194913
 21
325.92584761861229
 31
0.0
  0
LINE
  5
1728C
  8
DANMEN
  6
CONTINUOUS
 10
335.11300951949141
 20
327.42584761861229
 30
0.0
 11
335.11300951949141
 21
325.92584761861229
 31
0.0
  0
LINE
  5
1728D
  8
DANMEN
  6
CONTINUOUS
 10
329.61300951949141
 20
323.92584761861229
 30
0.0
 11
336.61300951949141
 21
323.92584761861229
 31
0.0
  0
ARC
  5
1728E
  8
DANMEN
  6
CONTINUOUS
 10
329.61300951949141
 20
324.42584761861229
 30
0.0
 40
0.5
 50
180.0
 51
270.0
  0
LINE
  5
1728F
  8
DANMEN
  6
CONTINUOUS
 10
329.14900951949141
 20
323.65784761861238
 30
0.0
 11
329.14900951949141
 21
323.92584761861229
 31
0.0
  0
LINE
  5
17290
  8
DANMEN
  6
CONTINUOUS
 10
333.6130095194913
 20
325.92584761861229
 30
0.0
 11
331.11300951949141
 21
325.92584761861229
 31
0.0
  0
LINE
  5
17291
  8
DANMEN
  6
CONTINUOUS
 10
340.11300951949141
 20
325.92584761861229
 30
0.0
 11
335.11300951949141
 21
325.92584761861229
 31
0.0
  0
ARC
  5
17292
  8
DANMEN
  6
CONTINUOUS
 10
334.11300951949141
 20
327.42584761861229
 30
0.0
 40
0.5
 50
90.0
 51
180.0
  0
ARC
  5
17293
  8
DANMEN
  6
CONTINUOUS
 10
334.61300951949141
 20
327.42584761861229
 30
0.0
 40
0.5
 50
0.0
 51
90.0
  0
LINE
  5
17294
  8
DANMEN
  6
CONTINUOUS
 10
334.11300951949141
 20
327.92584761861229
 30
0.0
 11
334.61300951949141
 21
327.92584761861229
 31
0.0
  0
LINE
  5
17295
  8
DANMEN
  6
CONTINUOUS
 10
341.11300951949141
 20
327.92584761861229
 30
0.0
 11
340.61300951949141
 21
327.92584761861229
 31
0.0
  0
ARC
  5
17296
  8
DANMEN
  6
CONTINUOUS
 10
340.61300951949141
 20
327.42584761861229
 30
0.0
 40
0.5
 50
90.0
 51
180.0
  0
ARC
  5
17297
  8
DANMEN
  6
CONTINUOUS
 10
341.11300951949141
 20
327.42584761861229
 30
0.0
 40
0.5
 50
0.0
 51
90.0
  0
ARC
  5
17298
  8
DANMEN
  6
CONTINUOUS
 10
345.6130095194913
 20
324.42584761861229
 30
0.0
 40
0.5
 50
270.0
 51
0.0
  0
LINE
  5
17299
  8
DANMEN
  6
CONTINUOUS
 10
346.0770095194913
 20
323.65784761861238
 30
0.0
 11
346.0770095194913
 21
323.92584761861229
 31
0.0
  0
LINE
  5
1729A
  8
SUNPO
  6
CONTINUOUS
 10
387.6130095194913
 20
304.42584761861229
 30
0.0
 11
387.6130095194913
 21
287.92584761861229
 31
0.0
  0
LINE
  5
1729B
  8
SUNPO
  6
CONTINUOUS
 10
435.1130095194913
 20
313.3378476186125
 30
0.0
 11
435.1130095194913
 21
277.92584761861241
 31
0.0
  0
INSERT
  5
1729C
  8
SUNPO
  6
CONTINUOUS
  2
_DOTSMALL
 10
387.6130095194913
 20
287.92584761861229
 30
0.0
 41
2.3199999999999918
 42
2.3199999999999918
 43
2.3199999999999981
  0
LINE
  5
1729D
  8
SUNPO
  6
CONTINUOUS
 10
428.18300951949129
 20
280.42584761861241
 30
0.0
 11
432.51300951949128
 21
277.92584761861241
 31
0.0
  0
LINE
  5
1729E
  8
SUNPO
  6
CONTINUOUS
 10
428.18300951949129
 20
275.42584761861229
 30
0.0
 11
428.18300951949129
 21
280.42584761861241
 31
0.0
  0
LINE
  5
1729F
  8
SUNPO
  6
CONTINUOUS
 10
432.51300951949128
 20
277.92584761861241
 30
0.0
 11
428.18300951949129
 21
275.42584761861229
 31
0.0
  0
INSERT
  5
172A0
  8
SUNPO
  6
CONTINUOUS
  2
_CLOSED
 10
435.1130095194913
 20
277.92584761861241
 30
0.0
 41
3.0
 42
3.0
 43
3.0
  0
LINE
  5
172A1
  8
DANMEN
  6
CONTINUOUS
 10
385.1130095194913
 20
327.92584761861229
 30
0.0
 11
435.1130095194913
 21
327.92584761861229
 31
0.0
  0
LINE
  5
172A2
  8
DANMEN
  6
CONTINUOUS
 10
435.1130095194913
 20
329.92584761861229
 30
0.0
 11
387.6130095194913
 21
329.92584761861229
 31
0.0
  0
LINE
  5
172A3
  8
DANMEN
  6
CONTINUOUS
 10
435.1130095194913
 20
323.92584761861229
 30
0.0
 11
385.1130095194913
 21
323.92584761861229
 31
0.0
  0
LINE
  5
172A4
  8
DANMEN
  6
CONTINUOUS
 10
387.6130095194913
 20
323.42584761861229
 30
0.0
 11
387.6130095194913
 21
305.92584761861229
 31
0.0
  0
LINE
  5
172A5
  8
DANMEN
  6
CONTINUOUS
 10
385.6130095194913
 20
316.42584761861229
 30
0.0
 11
385.6130095194913
 21
307.42584761861229
 31
0.0
  0
ARC
  5
172A6
  8
DANMEN
  6
CONTINUOUS
 10
387.1130095194913
 20
305.92584761861229
 30
0.0
 40
0.5
 50
270.0
 51
0.0
  0
ARC
  5
172A7
  8
DANMEN
  6
CONTINUOUS
 10
386.07600951949132
 20
326.37684761861232
 30
0.0
 40
1.5469999999999979
 50
290.3019999999994
 51
93.245000000000644
  0
ARC
  5
172A8
  8
DANMEN
  6
CONTINUOUS
 10
379.1500095194915
 20
326.37684761861232
 30
0.0
 40
1.5469999999999979
 50
86.754999999999328
 51
249.69800000000049
  0
LINE
  5
172A9
  8
DANMEN
  6
CONTINUOUS
 10
381.11300951949153
 20
319.92584761861229
 30
0.0
 11
384.1130095194913
 21
319.92584761861229
 31
0.0
  0
ARC
  5
172AA
  8
DANMEN
  6
CONTINUOUS
 10
382.6130095194913
 20
323.02584761861232
 30
0.0
 40
0.9
 50
0.0
 51
180.0
  0
ARC
  5
172AB
  8
DANMEN
  6
CONTINUOUS
 10
382.6130095194913
 20
321.82584761861227
 30
0.0
 40
0.9
 50
180.0
 51
0.0
  0
LINE
  5
172AC
  8
DANMEN
  6
CONTINUOUS
 10
378.6130095194913
 20
324.92584761861229
 30
0.0
 11
386.6130095194913
 21
324.92584761861229
 31
0.0
  0
LINE
  5
172AD
  8
DANMEN
  6
CONTINUOUS
 10
385.58100951949132
 20
326.42284761861231
 30
0.0
 11
379.64500951949151
 21
326.42284761861231
 31
0.0
  0
LINE
  5
172AE
  8
DANMEN
  6
CONTINUOUS
 10
385.1130095194913
 20
316.92584761861229
 30
0.0
 11
378.1130095194913
 21
316.92584761861229
 31
0.0
  0
LINE
  5
172AF
  8
DANMEN
  6
CONTINUOUS
 10
385.6130095194913
 20
318.92584761861229
 30
0.0
 11
379.6130095194913
 21
318.92584761861229
 31
0.0
  0
LINE
  5
172B0
  8
DANMEN
  6
CONTINUOUS
 10
381.11300951949153
 20
319.92584761861229
 30
0.0
 11
379.89600951949132
 21
322.05184761861238
 31
0.0
  0
LINE
  5
172B1
  8
DANMEN
  6
CONTINUOUS
 10
377.6130095194913
 20
323.42584761861229
 30
0.0
 11
377.6130095194913
 21
317.42584761861229
 31
0.0
  0
LINE
  5
172B2
  8
DANMEN
  6
CONTINUOUS
 10
379.6130095194913
 20
322.92584761861229
 30
0.0
 11
379.6130095194913
 21
318.92584761861229
 31
0.0
  0
ARC
  5
172B3
  8
DANMEN
  6
CONTINUOUS
 10
378.1130095194913
 20
317.42584761861229
 30
0.0
 40
0.5
 50
180.0
 51
270.0
  0
LINE
  5
172B4
  8
DANMEN
  6
CONTINUOUS
 10
380.6130095194913
 20
323.92584761861229
 30
0.0
 11
378.6130095194913
 21
323.92584761861229
 31
0.0
  0
LINE
  5
172B5
  8
DANMEN
  6
CONTINUOUS
 10
380.1130095194913
 20
323.92584761861229
 30
0.0
 11
378.1130095194913
 21
323.92584761861229
 31
0.0
  0
LINE
  5
172B6
  8
DANMEN
  6
CONTINUOUS
 10
378.6130095194913
 20
324.92584761861229
 30
0.0
 11
378.6130095194913
 21
323.92584761861229
 31
0.0
  0
ARC
  5
172B7
  8
DANMEN
  6
CONTINUOUS
 10
378.1130095194913
 20
323.42584761861229
 30
0.0
 40
0.5
 50
90.0
 51
180.0
  0
LINE
  5
172B8
  8
DANMEN
  6
CONTINUOUS
 10
381.71300951949138
 20
323.02584761861232
 30
0.0
 11
381.71300951949138
 21
321.82584761861227
 31
0.0
  0
LINE
  5
172B9
  8
DANMEN
  6
CONTINUOUS
 10
380.6130095194913
 20
323.92584761861229
 30
0.0
 11
380.6130095194913
 21
322.17584761861229
 31
0.0
  0
LINE
  5
172BA
  8
DANMEN
  6
CONTINUOUS
 10
380.6130095194913
 20
322.17584761861229
 30
0.0
 11
380.2380095194913
 21
322.39284761861239
 31
0.0
  0
ARC
  5
172BB
  8
DANMEN
  6
CONTINUOUS
 10
380.1130095194913
 20
322.17584761861229
 30
0.0
 40
0.25
 50
60.000000000000277
 51
209.7900000000009
  0
ARC
  5
172BC
  8
DANMEN
  6
CONTINUOUS
 10
379.64500951949151
 20
326.1228476186123
 30
0.0
 40
0.3
 50
90.0
 51
214.8490000000007
  0
LINE
  5
172BD
  8
DANMEN
  6
CONTINUOUS
 10
379.3990095194913
 20
325.95184761861231
 30
0.0
 11
380.1130095194913
 21
324.92584761861229
 31
0.0
  0
LINE
  5
172BE
  8
DANMEN
  6
CONTINUOUS
 10
380.6130095194913
 20
323.42584761861229
 30
0.0
 11
380.6130095194913
 21
322.92584761861229
 31
0.0
  0
LINE
  5
172BF
  8
DANMEN
  6
CONTINUOUS
 10
380.6130095194913
 20
322.92584761861229
 30
0.0
 11
379.6130095194913
 21
322.92584761861229
 31
0.0
  0
ARC
  5
172C0
  8
DANMEN
  6
CONTINUOUS
 10
380.1130095194913
 20
323.42584761861229
 30
0.0
 40
0.5
 50
0.0
 51
90.0
  0
LINE
  5
172C1
  8
DANMEN
  6
CONTINUOUS
 10
384.1130095194913
 20
319.92584761861229
 30
0.0
 11
385.33000951949128
 21
322.05184761861238
 31
0.0
  0
LINE
  5
172C2
  8
DANMEN
  6
CONTINUOUS
 10
385.6130095194913
 20
322.92584761861229
 30
0.0
 11
385.6130095194913
 21
318.92584761861229
 31
0.0
  0
ARC
  5
172C3
  8
DANMEN
  6
CONTINUOUS
 10
385.1130095194913
 20
316.42584761861229
 30
0.0
 40
0.5
 50
0.0
 51
90.0
  0
ARC
  5
172C4
  8
DANMEN
  6
CONTINUOUS
 10
387.1130095194913
 20
323.42584761861229
 30
0.0
 40
0.5
 50
0.0
 51
90.0
  0
LINE
  5
172C5
  8
DANMEN
  6
CONTINUOUS
 10
384.6130095194913
 20
323.92584761861229
 30
0.0
 11
384.6130095194913
 21
322.17584761861229
 31
0.0
  0
LINE
  5
172C6
  8
DANMEN
  6
CONTINUOUS
 10
383.51300951949128
 20
323.02584761861232
 30
0.0
 11
383.51300951949128
 21
321.82584761861227
 31
0.0
  0
LINE
  5
172C7
  8
DANMEN
  6
CONTINUOUS
 10
386.6130095194913
 20
324.92584761861229
 30
0.0
 11
386.6130095194913
 21
323.92584761861229
 31
0.0
  0
LINE
  5
172C8
  8
DANMEN
  6
CONTINUOUS
 10
384.6130095194913
 20
322.17584761861229
 30
0.0
 11
384.9880095194913
 21
322.39284761861239
 31
0.0
  0
ARC
  5
172C9
  8
DANMEN
  6
CONTINUOUS
 10
385.1130095194913
 20
322.17584761861229
 30
0.0
 40
0.25
 50
330.2099999999989
 51
119.9999999999997
  0
LINE
  5
172CA
  8
DANMEN
  6
CONTINUOUS
 10
384.6130095194913
 20
323.92584761861229
 30
0.0
 11
386.6130095194913
 21
323.92584761861229
 31
0.0
  0
ARC
  5
172CB
  8
DANMEN
  6
CONTINUOUS
 10
385.58100951949132
 20
326.1228476186123
 30
0.0
 40
0.3
 50
325.1509999999991
 51
90.0
  0
LINE
  5
172CC
  8
DANMEN
  6
CONTINUOUS
 10
385.1130095194913
 20
324.92584761861229
 30
0.0
 11
385.8270095194913
 21
325.95184761861231
 31
0.0
  0
LINE
  5
172CD
  8
DANMEN
  6
CONTINUOUS
 10
387.1130095194913
 20
323.92584761861229
 30
0.0
 11
385.1130095194913
 21
323.92584761861229
 31
0.0
  0
LINE
  5
172CE
  8
DANMEN
  6
CONTINUOUS
 10
385.6130095194913
 20
322.92584761861229
 30
0.0
 11
384.6130095194913
 21
322.92584761861229
 31
0.0
  0
LINE
  5
172CF
  8
DANMEN
  6
CONTINUOUS
 10
384.6130095194913
 20
323.42584761861229
 30
0.0
 11
384.6130095194913
 21
322.92584761861229
 31
0.0
  0
ARC
  5
172D0
  8
DANMEN
  6
CONTINUOUS
 10
385.1130095194913
 20
323.42584761861229
 30
0.0
 40
0.5
 50
90.0
 51
180.0
  0
LINE
  5
172D1
  8
DANMEN
  6
CONTINUOUS
 10
379.23700951949138
 20
327.9208476186123
 30
0.0
 11
385.98900951949128
 21
327.9208476186123
 31
0.0
  0
LINE
  5
172D2
  8
DANMEN
  6
CONTINUOUS
 10
387.1130095194913
 20
327.92584761861229
 30
0.0
 11
375.6130095194913
 21
327.92584761861229
 31
0.0
  0
LINE
  5
172D3
  8
DANMEN
  6
CONTINUOUS
 10
385.6130095194913
 20
329.92584761861229
 30
0.0
 11
381.11300951949153
 21
329.92584761861229
 31
0.0
  0
LINE
  5
172D4
  8
DANMEN
  6
CONTINUOUS
 10
379.6130095194913
 20
329.92584761861229
 30
0.0
 11
377.1130095194913
 21
329.92584761861229
 31
0.0
  0
ARC
  5
172D5
  8
DANMEN
  6
CONTINUOUS
 10
375.6130095194913
 20
328.42584761861229
 30
0.0
 40
0.5
 50
180.0
 51
270.0
  0
LINE
  5
172D6
  8
DANMEN
  6
CONTINUOUS
 10
379.6130095194913
 20
329.92584761861229
 30
0.0
 11
379.6130095194913
 21
331.42584761861229
 31
0.0
  0
LINE
  5
172D7
  8
DANMEN
  6
CONTINUOUS
 10
381.11300951949153
 20
329.92584761861229
 30
0.0
 11
381.11300951949153
 21
331.42584761861229
 31
0.0
  0
LINE
  5
172D8
  8
DANMEN
  6
CONTINUOUS
 10
380.1130095194913
 20
331.92584761861229
 30
0.0
 11
380.6130095194913
 21
331.92584761861229
 31
0.0
  0
ARC
  5
172D9
  8
DANMEN
  6
CONTINUOUS
 10
380.1130095194913
 20
331.42584761861229
 30
0.0
 40
0.5
 50
90.0
 51
180.0
  0
ARC
  5
172DA
  8
DANMEN
  6
CONTINUOUS
 10
380.6130095194913
 20
331.42584761861229
 30
0.0
 40
0.5
 50
0.0
 51
90.0
  0
ARC
  5
172DB
  8
DANMEN
  6
CONTINUOUS
 10
387.1130095194913
 20
328.42584761861229
 30
0.0
 40
0.5
 50
270.0
 51
0.0
  0
LINE
  5
172DC
  8
DANMEN
  6
CONTINUOUS
 10
349.1130095194913
 20
374.92584761861229
 30
0.0
 11
387.1130095194913
 21
374.92584761861229
 31
0.0
  0
LINE
  5
172DD
  8
DANMEN
  6
CONTINUOUS
 10
375.1130095194913
 20
372.92584761861229
 30
0.0
 11
343.11300951949141
 21
372.92584761861229
 31
0.0
  0
LINE
  5
172DE
  8
DANMEN
  6
CONTINUOUS
 10
435.1130095194913
 20
385.92584761861229
 30
0.0
 11
352.6130095194913
 21
385.92584761861229
 31
0.0
  0
LINE
  5
172DF
  8
DANMEN
  6
CONTINUOUS
 10
435.1130095194913
 20
381.92584761861229
 30
0.0
 11
352.6130095194913
 21
381.92584761861229
 31
0.0
  0
LINE
  5
172E0
  8
DANMEN
  6
CONTINUOUS
 10
435.1130095194913
 20
386.92584761861229
 30
0.0
 11
352.6130095194913
 21
386.92584761861229
 31
0.0
  0
LINE
  5
172E1
  8
DANMEN
  6
CONTINUOUS
 10
435.1130095194913
 20
380.92584761861229
 30
0.0
 11
352.6130095194913
 21
380.92584761861229
 31
0.0
  0
LINE
  5
172E2
  8
DANMEN
  6
CONTINUOUS
 10
435.1130095194913
 20
402.92584761861229
 30
0.0
 11
337.61300951949141
 21
402.92584761861229
 31
0.0
  0
LINE
  5
172E3
  8
DANMEN
  6
CONTINUOUS
 10
435.1130095194913
 20
392.92584761861229
 30
0.0
 11
362.6130095194913
 21
392.92584761861229
 31
0.0
  0
LINE
  5
172E4
  8
DANMEN
  6
CONTINUOUS
 10
375.1130095194913
 20
368.92584761861229
 30
0.0
 11
355.6130095194913
 21
368.92584761861229
 31
0.0
  0
LINE
  5
172E5
  8
SUNPO
  6
CONTINUOUS
 10
362.6130095194913
 20
395.92584761861252
 30
0.0
 11
362.6130095194913
 21
432.92584761861229
 31
0.0
  0
LINE
  5
172E6
  8
SUNPO
  6
CONTINUOUS
 10
312.61300951949141
 20
395.92584761861252
 30
0.0
 11
312.61300951949141
 21
432.92584761861229
 31
0.0
  0
LINE
  5
172E7
  8
SUNPO
  6
CONTINUOUS
 10
311.61300951949141
 20
394.92584761861229
 30
0.0
 11
280.11300951949141
 21
394.92584761861229
 31
0.0
  0
LINE
  5
172E8
  8
DANMEN
  6
CONTINUOUS
 10
326.11300951949141
 20
374.92584761861229
 30
0.0
 11
288.11300951949141
 21
374.92584761861229
 31
0.0
  0
LINE
  5
172E9
  8
DANMEN
  6
CONTINUOUS
 10
300.11300951949141
 20
372.92584761861229
 30
0.0
 11
332.11300951949141
 21
372.92584761861229
 31
0.0
  0
LINE
  5
172EA
  8
DANMEN
  6
CONTINUOUS
 10
300.11300951949141
 20
368.92584761861229
 30
0.0
 11
319.61300951949141
 21
368.92584761861229
 31
0.0
  0
TEXT
  5
172EB
  8
SUNPO
  6
CONTINUOUS
 10
269.1130095194913
 20
381.67584761861229
 30
0.0
 40
2.5
  1
18
 50
90.0
 41
1.3500000000000001
  7
MX_DIMTXSTY_5
  0
LINE
  5
172EC
  8
SUNPO
  6
CONTINUOUS
 10
270.11300951949141
 20
374.92584761861229
 30
0.0
 11
270.11300951949141
 21
392.92584761861229
 31
0.0
  0
TEXT
  5
172ED
  8
SUNPO
  6
CONTINUOUS
 10
249.11300951949141
 20
350.80084761861229
 30
0.0
 40
2.5
  1
100
 50
90.0
 41
0.85
  7
MX_DIMTXSTY_7
  0
TEXT
  5
172EE
  8
SUNPO
  6
CONTINUOUS
 10
249.11300951949141
 20
350.80084761861229
 30
0.0
 40
2.5
  1
100
 50
90.0
 41
0.85
  7
MX_DIMTXSTY_7
  0
TEXT
  5
172EF
  8
SUNPO
  6
CONTINUOUS
 10
269.1130095194913
 20
349.34251428527909
 30
0.0
 40
2.5
  1
47
 50
90.0
  7
MX_NOTE_STANDARD
  0
TEXT
  5
172F0
  8
SUNPO
  6
CONTINUOUS
 10
259.11300951949141
 20
363.34251428527909
 30
0.0
 40
2.5
  1
75
 50
90.0
  7
MX_NOTE_STANDARD
  0
INSERT
  5
172F1
  8
SUNPO
  6
CONTINUOUS
  2
_DOTSMALL
 10
270.11300951949141
 20
374.92584761861229
 30
0.0
 41
2.3199999999999918
 42
2.3199999999999918
 43
2.3199999999999981
 50
270.0
  0
INSERT
  5
172F2
  8
SUNPO
  6
CONTINUOUS
  2
_DOTSMALL
 10
270.11300951949141
 20
374.92584761861229
 30
0.0
 41
2.3199999999999918
 42
2.3199999999999918
 43
2.3199999999999981
 50
90.0
  0
LINE
  5
172F3
  8
DANMEN
  6
CONTINUOUS
 10
293.61300951949153
 20
378.93584761861229
 30
0.0
 11
291.6230095194914
 21
380.92584761861229
 31
0.0
  0
LINE
  5
172F4
  8
DANMEN
  6
CONTINUOUS
 10
293.61300951949153
 20
376.10684761861239
 30
0.0
 11
288.79400951949151
 21
380.92584761861229
 31
0.0
  0
LINE
  5
172F5
  8
DANMEN
  6
CONTINUOUS
 10
288.59800951949148
 20
374.92584761861229
 30
0.0
 11
293.61300951949153
 21
379.94084761861228
 31
0.0
  0
LINE
  5
172F6
  8
DANMEN
  6
CONTINUOUS
 10
291.42700951949132
 20
374.92584761861229
 30
0.0
 11
293.61300951949153
 21
377.1118476186125
 31
0.0
  0
LINE
  5
172F7
  8
DANMEN
  6
CONTINUOUS
 10
289.61300951949141
 20
372.92584761861229
 30
0.0
 11
294.11300951949141
 21
372.92584761861229
 31
0.0
  0
LINE
  5
172F8
  8
DANMEN
  6
CONTINUOUS
 10
291.96600951949148
 20
374.92584761861229
 30
0.0
 11
286.74200951949149
 21
380.14884761861231
 31
0.0
  0
LINE
  5
172F9
  8
DANMEN
  6
CONTINUOUS
 10
286.94600951949133
 20
378.92984761861231
 30
0.0
 11
288.94100951949127
 21
380.92584761861229
 31
0.0
  0
LINE
  5
172FA
  8
DANMEN
  6
CONTINUOUS
 10
287.35000951949132
 20
376.50584761861239
 30
0.0
 11
291.7700095194914
 21
380.92584761861229
 31
0.0
  0
LINE
  5
172FB
  8
DANMEN
  6
CONTINUOUS
 10
287.61300951949141
 20
374.92584761861229
 30
0.0
 11
286.61300951949141
 21
380.92584761861229
 31
0.0
  0
LINE
  5
172FC
  8
DANMEN
  6
CONTINUOUS
 10
289.13700951949141
 20
374.92584761861229
 30
0.0
 11
287.30800951949141
 21
376.7548476186123
 31
0.0
  0
ARC
  5
172FD
  8
DANMEN
  6
CONTINUOUS
 10
288.11300951949141
 20
374.42584761861229
 30
0.0
 40
0.5
 50
90.0
 51
180.0
  0
LINE
  5
172FE
  8
DANMEN
  6
CONTINUOUS
 10
295.61300951949141
 20
372.92584761861229
 30
0.0
 11
298.1130095194913
 21
372.92584761861229
 31
0.0
  0
ARC
  5
172FF
  8
DANMEN
  6
CONTINUOUS
 10
294.61300951949141
 20
371.42584761861229
 30
0.0
 40
0.5
 50
180.0
 51
270.0
  0
ARC
  5
17300
  8
DANMEN
  6
CONTINUOUS
 10
295.11300951949141
 20
371.42584761861229
 30
0.0
 40
0.5
 50
270.0
 51
0.0
  0
LINE
  5
17301
  8
DANMEN
  6
CONTINUOUS
 10
295.11300951949141
 20
370.92584761861229
 30
0.0
 11
294.61300951949141
 21
370.92584761861229
 31
0.0
  0
LINE
  5
17302
  8
DANMEN
  6
CONTINUOUS
 10
295.61300951949141
 20
372.92584761861229
 30
0.0
 11
295.61300951949141
 21
371.42584761861229
 31
0.0
  0
LINE
  5
17303
  8
DANMEN
  6
CONTINUOUS
 10
294.11300951949141
 20
372.92584761861229
 30
0.0
 11
294.11300951949141
 21
371.42584761861229
 31
0.0
  0
LINE
  5
17304
  8
DANMEN
  6
CONTINUOUS
 10
293.61300951949153
 20
380.92584761861229
 30
0.0
 11
293.61300951949153
 21
374.92584761861229
 31
0.0
  0
INSERT
  5
17305
  8
SUNPO
  6
CONTINUOUS
  2
_DOTSMALL
 10
260.11300951949141
 20
402.92584761861229
 30
0.0
 41
2.3199999999999918
 42
2.3199999999999918
 43
2.3199999999999981
 50
90.0
  0
INSERT
  5
17306
  8
SUNPO
  6
CONTINUOUS
  2
_DOTSMALL
 10
250.11300951949141
 20
402.92584761861229
 30
0.0
 41
2.3199999999999918
 42
2.3199999999999918
 43
2.3199999999999981
 50
90.0
  0
INSERT
  5
17307
  8
SUNPO
  6
CONTINUOUS
  2
_DOTSMALL
 10
250.11300951949141
 20
402.92584761861229
 30
0.0
 41
2.3199999999999918
 42
2.3199999999999918
 43
2.3199999999999981
 50
90.0
  0
TEXT
  5
17308
  8
SUNPO
  6
CONTINUOUS
 10
269.1130095194913
 20
396.17584761861229
 30
0.0
 40
2.5
  1
10
 50
90.0
 41
1.1999999999999991
  7
MX_DIMTXSTY_6
  0
LINE
  5
17309
  8
SUNPO
  6
CONTINUOUS
 10
270.11300951949141
 20
402.92584761861229
 30
0.0
 11
270.11300951949141
 21
392.92584761861229
 31
0.0
  0
INSERT
  5
1730A
  8
SUNPO
  6
CONTINUOUS
  2
_DOTSMALL
 10
270.11300951949141
 20
392.92584761861229
 30
0.0
 41
2.3199999999999918
 42
2.3199999999999918
 43
2.3199999999999981
 50
90.0
  0
INSERT
  5
1730B
  8
SUNPO
  6
CONTINUOUS
  2
_DOTSMALL
 10
270.11300951949141
 20
392.92584761861229
 30
0.0
 41
2.3199999999999918
 42
2.3199999999999918
 43
2.3199999999999981
 50
270.0
  0
INSERT
  5
1730C
  8
SUNPO
  6
CONTINUOUS
  2
_DOTSMALL
 10
270.11300951949141
 20
402.92584761861229
 30
0.0
 41
2.3199999999999918
 42
2.3199999999999918
 43
2.3199999999999981
 50
90.0
  0
LINE
  5
1730D
  8
SUNPO
  6
CONTINUOUS
 10
280.11300951949141
 20
394.92584761861229
 30
0.0
 11
280.11300951949141
 21
400.91251428527909
 31
0.0
  0
INSERT
  5
1730E
  8
SUNPO
  6
CONTINUOUS
  2
_DOTSMALL
 10
280.11300951949141
 20
394.92584761861229
 30
0.0
 41
2.3199999999999918
 42
2.3199999999999918
 43
2.3199999999999981
 50
90.0
  0
INSERT
  5
1730F
  8
SUNPO
  6
CONTINUOUS
  2
_DOTSMALL
 10
280.11300951949141
 20
392.92584761861229
 30
0.0
 41
2.3199999999999918
 42
2.3199999999999918
 43
2.3199999999999981
 50
270.0
  0
LINE
  5
17310
  8
SUNPO
  6
CONTINUOUS
 10
280.11300951949141
 20
392.92584761861229
 30
0.0
 11
280.11300951949141
 21
394.92584761861229
 31
0.0
  0
TEXT
  5
17311
  8
SUNPO
  6
CONTINUOUS
 10
279.11300951949141
 20
398.24584761861229
 30
0.0
 40
2.5
  1
2
 50
90.0
  7
MX_NOTE_STANDARD
  0
LINE
  5
17312
  8
DANMEN
  6
CONTINUOUS
 10
345.1130095194913
 20
381.92584761861229
 30
0.0
 11
345.1130095194913
 21
386.92584761861229
 31
0.0
  0
LINE
  5
17313
  8
DANMEN
  6
CONTINUOUS
 10
346.6130095194913
 20
382.42584761861229
 30
0.0
 11
346.6130095194913
 21
386.92584761861229
 31
0.0
  0
LINE
  5
17314
  8
DANMEN
  6
CONTINUOUS
 10
330.11300951949141
 20
381.92584761861229
 30
0.0
 11
330.11300951949141
 21
386.92584761861229
 31
0.0
  0
LINE
  5
17315
  8
DANMEN
  6
CONTINUOUS
 10
328.61300951949141
 20
382.42584761861229
 30
0.0
 11
328.61300951949141
 21
386.92584761861229
 31
0.0
  0
LINE
  5
17316
  8
DANMEN
  6
CONTINUOUS
 10
330.61300951949141
 20
374.92584761861229
 30
0.0
 11
330.61300951949141
 21
389.42584761861229
 31
0.0
  0
LINE
  5
17317
  8
DANMEN
  6
CONTINUOUS
 10
332.61300951949141
 20
373.42584761861229
 30
0.0
 11
332.61300951949141
 21
390.42584761861229
 31
0.0
  0
LINE
  5
17318
  8
DANMEN
  6
CONTINUOUS
 10
344.6130095194913
 20
374.92584761861229
 30
0.0
 11
344.6130095194913
 21
389.42584761861229
 31
0.0
  0
LINE
  5
17319
  8
DANMEN
  6
CONTINUOUS
 10
342.61300951949141
 20
373.42584761861229
 30
0.0
 11
342.61300951949141
 21
390.42584761861229
 31
0.0
  0
LINE
  5
1731A
  8
DANMEN
  6
CONTINUOUS
 10
352.6130095194913
 20
380.92584761861229
 30
0.0
 11
352.6130095194913
 21
386.92584761861229
 31
0.0
  0
LINE
  5
1731B
  8
DANMEN
  6
CONTINUOUS
 10
322.61300951949141
 20
380.92584761861229
 30
0.0
 11
322.61300951949141
 21
386.92584761861229
 31
0.0
  0
LINE
  5
1731C
  8
DANMEN
  6
CONTINUOUS
 10
344.1130095194913
 20
353.92584761861229
 30
0.0
 11
341.61300951949141
 21
353.92584761861229
 31
0.0
  0
LINE
  5
1731D
  8
DANMEN
  6
CONTINUOUS
 10
344.1130095194913
 20
355.42584761861229
 30
0.0
 11
340.61300951949141
 21
355.42584761861229
 31
0.0
  0
LINE
  5
1731E
  8
DANMEN
  6
CONTINUOUS
 10
350.6130095194913
 20
368.92584761861229
 30
0.0
 11
324.61300951949141
 21
368.92584761861229
 31
0.0
  0
LINE
  5
1731F
  8
DANMEN
  6
CONTINUOUS
 10
348.1130095194913
 20
366.92584761861229
 30
0.0
 11
327.11300951949141
 21
366.92584761861229
 31
0.0
  0
LINE
  5
17320
  8
DANMEN
  6
CONTINUOUS
 10
331.11300951949141
 20
363.42584761861229
 30
0.0
 11
331.11300951949141
 21
355.42584761861229
 31
0.0
  0
LINE
  5
17321
  8
DANMEN
  6
CONTINUOUS
 10
331.11300951949141
 20
355.42584761861229
 30
0.0
 11
334.61300951949141
 21
355.42584761861229
 31
0.0
  0
ARC
  5
17322
  8
DANMEN
  6
CONTINUOUS
 10
334.11300951949141
 20
352.42584761861229
 30
0.0
 40
0.5
 50
180.0
 51
270.0
  0
LINE
  5
17323
  8
DANMEN
  6
CONTINUOUS
 10
331.11300951949141
 20
353.92584761861229
 30
0.0
 11
333.6130095194913
 21
353.92584761861229
 31
0.0
  0
LINE
  5
17324
  8
DANMEN
  6
CONTINUOUS
 10
333.6130095194913
 20
352.42584761861229
 30
0.0
 11
333.6130095194913
 21
353.92584761861229
 31
0.0
  0
ARC
  5
17325
  8
DANMEN
  6
CONTINUOUS
 10
334.61300951949141
 20
354.92584761861229
 30
0.0
 40
0.5
 50
0.0
 51
90.0
  0
ARC
  5
17326
  8
DANMEN
  6
CONTINUOUS
 10
334.61300951949141
 20
352.42584761861229
 30
0.0
 40
0.5
 50
270.0
 51
0.0
  0
LINE
  5
17327
  8
DANMEN
  6
CONTINUOUS
 10
334.11300951949141
 20
351.92584761861229
 30
0.0
 11
334.61300951949141
 21
351.92584761861229
 31
0.0
  0
LINE
  5
17328
  8
DANMEN
  6
CONTINUOUS
 10
335.11300951949141
 20
352.42584761861229
 30
0.0
 11
335.11300951949141
 21
354.92584761861229
 31
0.0
  0
LINE
  5
17329
  8
DANMEN
  6
CONTINUOUS
 10
341.61300951949141
 20
352.42584761861229
 30
0.0
 11
341.61300951949141
 21
353.92584761861229
 31
0.0
  0
LINE
  5
1732A
  8
DANMEN
  6
CONTINUOUS
 10
340.11300951949141
 20
352.42584761861229
 30
0.0
 11
340.11300951949141
 21
354.92584761861229
 31
0.0
  0
LINE
  5
1732B
  8
DANMEN
  6
CONTINUOUS
 10
341.11300951949141
 20
351.92584761861229
 30
0.0
 11
340.61300951949141
 21
351.92584761861229
 31
0.0
  0
ARC
  5
1732C
  8
DANMEN
  6
CONTINUOUS
 10
341.11300951949141
 20
352.42584761861229
 30
0.0
 40
0.5
 50
270.0
 51
0.0
  0
ARC
  5
1732D
  8
DANMEN
  6
CONTINUOUS
 10
340.61300951949141
 20
352.42584761861229
 30
0.0
 40
0.5
 50
180.0
 51
270.0
  0
ARC
  5
1732E
  8
DANMEN
  6
CONTINUOUS
 10
340.61300951949141
 20
354.92584761861229
 30
0.0
 40
0.5
 50
90.0
 51
180.0
  0
LINE
  5
1732F
  8
DANMEN
  6
CONTINUOUS
 10
326.11300951949141
 20
370.22584761861231
 30
0.0
 11
319.71300951949149
 21
370.22584761861231
 31
0.0
  0
LINE
  5
17330
  8
DANMEN
  6
CONTINUOUS
 10
323.86300951949141
 20
368.92584761861229
 30
0.0
 11
326.11300951949141
 21
368.92584761861229
 31
0.0
  0
LINE
  5
17331
  8
DANMEN
  6
CONTINUOUS
 10
317.61300951949141
 20
361.92584761861229
 30
0.0
 11
329.11300951949141
 21
361.92584761861229
 31
0.0
  0
LINE
  5
17332
  8
DANMEN
  6
CONTINUOUS
 10
322.61300951949141
 20
380.92584761861229
 30
0.0
 11
326.11300951949141
 21
380.92584761861229
 31
0.0
  0
LINE
  5
17333
  8
DANMEN
  6
CONTINUOUS
 10
318.63400951949149
 20
372.06384761861227
 30
0.0
 11
324.6110095194914
 21
373.91284761861232
 31
0.0
  0
ARC
  5
17334
  8
DANMEN
  6
CONTINUOUS
 10
324.71300951949138
 20
373.52584761861249
 30
0.0
 40
0.4
 50
284.84099999999972
 51
104.8409999999998
  0
ARC
  5
17335
  8
DANMEN
  6
CONTINUOUS
 10
317.61300951949141
 20
368.42584761861229
 30
0.0
 40
0.5
 50
90.0
 51
180.0
  0
ARC
  5
17336
  8
DANMEN
  6
CONTINUOUS
 10
317.61300951949141
 20
362.42584761861229
 30
0.0
 40
0.5
 50
180.0
 51
270.0
  0
LINE
  5
17337
  8
DANMEN
  6
CONTINUOUS
 10
317.11300951949141
 20
368.42584761861229
 30
0.0
 11
317.11300951949141
 21
362.42584761861229
 31
0.0
  0
ARC
  5
17338
  8
DANMEN
  6
CONTINUOUS
 10
324.16300951949142
 20
367.72584761861231
 30
0.0
 40
0.3
 50
180.0
 51
270.0
  0
ARC
  5
17339
  8
DANMEN
  6
CONTINUOUS
 10
324.56300951949129
 20
367.12584761861228
 30
0.0
 40
0.3
 50
320.08899999999983
 51
90.0
  0
LINE
  5
1733A
  8
DANMEN
  6
CONTINUOUS
 10
321.36300951949141
 20
368.62584761861228
 30
0.0
 11
321.36300951949141
 21
366.12584761861228
 31
0.0
  0
LINE
  5
1733B
  8
DANMEN
  6
CONTINUOUS
 10
322.86300951949141
 20
366.12584761861228
 30
0.0
 11
322.86300951949141
 21
368.62584761861228
 31
0.0
  0
LINE
  5
1733C
  8
DANMEN
  6
CONTINUOUS
 10
325.11300951949141
 20
367.92584761861229
 30
0.0
 11
325.11300951949141
 21
363.92584761861229
 31
0.0
  0
LINE
  5
1733D
  8
DANMEN
  6
CONTINUOUS
 10
319.11300951949141
 20
367.92584761861229
 30
0.0
 11
319.11300951949141
 21
363.92584761861229
 31
0.0
  0
ARC
  5
1733E
  8
DANMEN
  6
CONTINUOUS
 10
319.66300951949142
 20
367.12584761861228
 30
0.0
 40
0.3
 50
90.0
 51
219.91100000000009
  0
ARC
  5
1733F
  8
DANMEN
  6
CONTINUOUS
 10
320.0630095194914
 20
367.72584761861231
 30
0.0
 40
0.3
 50
270.0
 51
0.0
  0
ARC
  5
17340
  8
DANMEN
  6
CONTINUOUS
 10
321.66300951949142
 20
366.12584761861228
 30
0.0
 40
0.3
 50
180.0
 51
270.0
  0
LINE
  5
17341
  8
DANMEN
  6
CONTINUOUS
 10
319.11300951949141
 20
363.92584761861229
 30
0.0
 11
325.11300951949141
 21
363.92584761861229
 31
0.0
  0
LINE
  5
17342
  8
DANMEN
  6
CONTINUOUS
 10
320.86300951949141
 20
364.62584761861228
 30
0.0
 11
323.36300951949141
 21
364.62584761861228
 31
0.0
  0
LINE
  5
17343
  8
DANMEN
  6
CONTINUOUS
 10
320.8900095194914
 20
364.62584761861228
 30
0.0
 11
320.81900951949149
 21
364.69684761861231
 31
0.0
  0
LINE
  5
17344
  8
DANMEN
  6
CONTINUOUS
 10
320.86300951949141
 20
364.62584761861228
 30
0.0
 11
319.43300951949141
 21
366.93384761861239
 31
0.0
  0
LINE
  5
17345
  8
DANMEN
  6
CONTINUOUS
 10
319.66300951949142
 20
367.42584761861229
 30
0.0
 11
320.0630095194914
 21
367.42584761861229
 31
0.0
  0
LINE
  5
17346
  8
DANMEN
  6
CONTINUOUS
 10
324.16300951949142
 20
367.42584761861229
 30
0.0
 11
324.56300951949129
 21
367.42584761861229
 31
0.0
  0
LINE
  5
17347
  8
DANMEN
  6
CONTINUOUS
 10
323.36300951949141
 20
364.62584761861228
 30
0.0
 11
324.79300951949142
 21
366.93384761861239
 31
0.0
  0
LINE
  5
17348
  8
DANMEN
  6
CONTINUOUS
 10
321.66300951949142
 20
365.82584761861227
 30
0.0
 11
322.56300951949129
 21
365.82584761861227
 31
0.0
  0
ARC
  5
17349
  8
DANMEN
  6
CONTINUOUS
 10
322.56300951949129
 20
366.12584761861228
 30
0.0
 40
0.3
 50
270.0
 51
0.0
  0
LINE
  5
1734A
  8
DANMEN
  6
CONTINUOUS
 10
319.5250095194915
 20
371.39584761861249
 30
0.0
 11
324.81500951949141
 21
373.13884761861232
 31
0.0
  0
ARC
  5
1734B
  8
DANMEN
  6
CONTINUOUS
 10
321.66300951949142
 20
368.62584761861228
 30
0.0
 40
0.3
 50
90.0
 51
180.0
  0
LINE
  5
1734C
  8
DANMEN
  6
CONTINUOUS
 10
318.11300951949141
 20
368.92584761861229
 30
0.0
 11
320.36300951949141
 21
368.92584761861229
 31
0.0
  0
LINE
  5
1734D
  8
DANMEN
  6
CONTINUOUS
 10
318.11300951949141
 20
371.38684761861231
 30
0.0
 11
318.11300951949141
 21
368.92584761861229
 31
0.0
  0
ARC
  5
1734E
  8
DANMEN
  6
CONTINUOUS
 10
318.8130095194914
 20
371.38684761861231
 30
0.0
 40
0.7
 50
104.8409999999998
 51
180.0
  0
ARC
  5
1734F
  8
DANMEN
  6
CONTINUOUS
 10
319.71300951949149
 20
370.82584761861239
 30
0.0
 40
0.6
 50
108.241
 51
270.0
  0
ARC
  5
17350
  8
DANMEN
  6
CONTINUOUS
 10
319.61300951949141
 20
368.42584761861229
 30
0.0
 40
0.5
 50
0.0
 51
90.0
  0
LINE
  5
17351
  8
DANMEN
  6
CONTINUOUS
 10
320.11300951949141
 20
368.42584761861229
 30
0.0
 11
320.11300951949141
 21
367.92584761861229
 31
0.0
  0
LINE
  5
17352
  8
DANMEN
  6
CONTINUOUS
 10
319.11300951949141
 20
367.92584761861229
 30
0.0
 11
320.11300951949141
 21
367.92584761861229
 31
0.0
  0
LINE
  5
17353
  8
DANMEN
  6
CONTINUOUS
 10
317.61300951949141
 20
368.92584761861229
 30
0.0
 11
319.61300951949141
 21
368.92584761861229
 31
0.0
  0
LINE
  5
17354
  8
DANMEN
  6
CONTINUOUS
 10
320.36300951949141
 20
367.72584761861231
 30
0.0
 11
320.36300951949141
 21
368.92584761861229
 31
0.0
  0
LINE
  5
17355
  8
DANMEN
  6
CONTINUOUS
 10
323.86300951949141
 20
367.72584761861231
 30
0.0
 11
323.86300951949141
 21
368.92584761861229
 31
0.0
  0
LINE
  5
17356
  8
DANMEN
  6
CONTINUOUS
 10
321.66300951949142
 20
368.92584761861229
 30
0.0
 11
322.56300951949129
 21
368.92584761861229
 31
0.0
  0
ARC
  5
17357
  8
DANMEN
  6
CONTINUOUS
 10
322.56300951949129
 20
368.62584761861228
 30
0.0
 40
0.3
 50
0.0
 51
90.0
  0
ARC
  5
17358
  8
DANMEN
  6
CONTINUOUS
 10
324.61300951949141
 20
368.42584761861229
 30
0.0
 40
0.5
 50
90.0
 51
180.0
  0
LINE
  5
17359
  8
DANMEN
  6
CONTINUOUS
 10
324.11300951949141
 20
367.92584761861229
 30
0.0
 11
325.11300951949141
 21
367.92584761861229
 31
0.0
  0
LINE
  5
1735A
  8
DANMEN
  6
CONTINUOUS
 10
324.11300951949141
 20
368.42584761861229
 30
0.0
 11
324.11300951949141
 21
367.92584761861229
 31
0.0
  0
ARC
  5
1735B
  8
DANMEN
  6
CONTINUOUS
 10
332.11300951949141
 20
373.42584761861229
 30
0.0
 40
0.5
 50
270.0
 51
0.0
  0
LINE
  5
1735C
  8
DANMEN
  6
CONTINUOUS
 10
327.11300951949141
 20
363.92584761861229
 30
0.0
 11
330.61300951949141
 21
363.92584761861229
 31
0.0
  0
LINE
  5
1735D
  8
DANMEN
  6
CONTINUOUS
 10
327.11300951949141
 20
366.92584761861229
 30
0.0
 11
327.11300951949141
 21
363.92584761861229
 31
0.0
  0
ARC
  5
1735E
  8
DANMEN
  6
CONTINUOUS
 10
330.61300951949141
 20
363.42584761861229
 30
0.0
 40
0.5
 50
0.0
 51
90.0
  0
LINE
  5
1735F
  8
DANMEN
  6
CONTINUOUS
 10
326.11300951949141
 20
370.22584761861231
 30
0.0
 11
326.11300951949141
 21
368.92584761861229
 31
0.0
  0
LINE
  5
17360
  8
DANMEN
  6
CONTINUOUS
 10
327.41300951949148
 20
377.42584761861229
 30
0.0
 11
327.41300951949148
 21
381.5928476186125
 31
0.0
  0
LINE
  5
17361
  8
DANMEN
  6
CONTINUOUS
 10
328.72000951949138
 20
377.28184761861229
 30
0.0
 11
330.11300951949141
 21
381.92584761861229
 31
0.0
  0
LINE
  5
17362
  8
DANMEN
  6
CONTINUOUS
 10
326.11300951949141
 20
380.92584761861229
 30
0.0
 11
326.11300951949141
 21
378.42584761861229
 31
0.0
  0
LINE
  5
17363
  8
DANMEN
  6
CONTINUOUS
 10
330.61300951949141
 20
374.92584761861229
 30
0.0
 11
327.61300951949141
 21
374.92584761861229
 31
0.0
  0
LINE
  5
17364
  8
DANMEN
  6
CONTINUOUS
 10
328.2410095194914
 20
376.92584761861229
 30
0.0
 11
327.91300951949142
 21
376.92584761861229
 31
0.0
  0
ARC
  5
17365
  8
DANMEN
  6
CONTINUOUS
 10
327.91300951949142
 20
377.42584761861229
 30
0.0
 40
0.5
 50
180.0
 51
270.0
  0
ARC
  5
17366
  8
DANMEN
  6
CONTINUOUS
 10
328.2410095194914
 20
377.42584761861229
 30
0.0
 40
0.5
 50
270.0
 51
343.30100000000027
  0
LINE
  5
17367
  8
DANMEN
  6
CONTINUOUS
 10
326.11300951949141
 20
374.92584761861229
 30
0.0
 11
326.11300951949141
 21
378.42584761861229
 31
0.0
  0
LINE
  5
17368
  8
DANMEN
  6
CONTINUOUS
 10
327.61300951949141
 20
374.92584761861229
 30
0.0
 11
327.61300951949141
 21
378.42584761861229
 31
0.0
  0
LINE
  5
17369
  8
DANMEN
  6
CONTINUOUS
 10
326.61300951949141
 20
378.92584761861229
 30
0.0
 11
327.11300951949141
 21
378.92584761861229
 31
0.0
  0
ARC
  5
1736A
  8
DANMEN
  6
CONTINUOUS
 10
326.61300951949141
 20
378.42584761861229
 30
0.0
 40
0.5
 50
90.0
 51
180.0
  0
ARC
  5
1736B
  8
DANMEN
  6
CONTINUOUS
 10
327.11300951949141
 20
378.42584761861229
 30
0.0
 40
0.5
 50
0.0
 51
90.0
  0
LINE
  5
1736C
  8
DANMEN
  6
CONTINUOUS
 10
328.61300951949141
 20
382.42584761861229
 30
0.0
 11
327.72100951949142
 21
382.05384761861228
 31
0.0
  0
ARC
  5
1736D
  8
DANMEN
  6
CONTINUOUS
 10
327.91300951949142
 20
381.5928476186125
 30
0.0
 40
0.5
 50
112.6200000000003
 51
180.0
  0
LINE
  5
1736E
  8
DANMEN
  6
CONTINUOUS
 10
344.1130095194913
 20
363.42584761861229
 30
0.0
 11
344.1130095194913
 21
355.42584761861229
 31
0.0
  0
ARC
  5
1736F
  8
DANMEN
  6
CONTINUOUS
 10
343.11300951949141
 20
373.42584761861229
 30
0.0
 40
0.5
 50
180.0
 51
270.0
  0
LINE
  5
17370
  8
DANMEN
  6
CONTINUOUS
 10
356.59200951949128
 20
372.06384761861227
 30
0.0
 11
350.61500951949142
 21
373.91284761861232
 31
0.0
  0
ARC
  5
17371
  8
DANMEN
  6
CONTINUOUS
 10
350.51300951949128
 20
373.52584761861249
 30
0.0
 40
0.4
 50
75.159000000000191
 51
255.15899999999999
  0
LINE
  5
17372
  8
DANMEN
  6
CONTINUOUS
 10
357.6130095194913
 20
361.92584761861229
 30
0.0
 11
346.1130095194913
 21
361.92584761861229
 31
0.0
  0
LINE
  5
17373
  8
DANMEN
  6
CONTINUOUS
 10
356.1130095194913
 20
363.92584761861229
 30
0.0
 11
350.1130095194913
 21
363.92584761861229
 31
0.0
  0
LINE
  5
17374
  8
DANMEN
  6
CONTINUOUS
 10
351.1130095194913
 20
367.92584761861229
 30
0.0
 11
350.1130095194913
 21
367.92584761861229
 31
0.0
  0
LINE
  5
17375
  8
DANMEN
  6
CONTINUOUS
 10
349.1130095194913
 20
370.22584761861231
 30
0.0
 11
355.51300951949128
 21
370.22584761861231
 31
0.0
  0
LINE
  5
17376
  8
DANMEN
  6
CONTINUOUS
 10
351.3630095194913
 20
368.92584761861229
 30
0.0
 11
349.1130095194913
 21
368.92584761861229
 31
0.0
  0
LINE
  5
17377
  8
DANMEN
  6
CONTINUOUS
 10
350.1130095194913
 20
367.92584761861229
 30
0.0
 11
350.1130095194913
 21
363.92584761861229
 31
0.0
  0
LINE
  5
17378
  8
DANMEN
  6
CONTINUOUS
 10
348.1130095194913
 20
363.92584761861229
 30
0.0
 11
344.6130095194913
 21
363.92584761861229
 31
0.0
  0
ARC
  5
17379
  8
DANMEN
  6
CONTINUOUS
 10
344.6130095194913
 20
363.42584761861229
 30
0.0
 40
0.5
 50
90.0
 51
180.0
  0
LINE
  5
1737A
  8
DANMEN
  6
CONTINUOUS
 10
348.1130095194913
 20
366.92584761861229
 30
0.0
 11
348.1130095194913
 21
363.92584761861229
 31
0.0
  0
LINE
  5
1737B
  8
DANMEN
  6
CONTINUOUS
 10
349.1130095194913
 20
370.22584761861231
 30
0.0
 11
349.1130095194913
 21
368.92584761861229
 31
0.0
  0
LINE
  5
1737C
  8
DANMEN
  6
CONTINUOUS
 10
358.1130095194913
 20
368.42584761861229
 30
0.0
 11
358.1130095194913
 21
362.42584761861229
 31
0.0
  0
LINE
  5
1737D
  8
DANMEN
  6
CONTINUOUS
 10
356.1130095194913
 20
367.92584761861229
 30
0.0
 11
356.1130095194913
 21
363.92584761861229
 31
0.0
  0
ARC
  5
1737E
  8
DANMEN
  6
CONTINUOUS
 10
355.56300951949129
 20
367.12584761861228
 30
0.0
 40
0.3
 50
320.08899999999983
 51
90.0
  0
ARC
  5
1737F
  8
DANMEN
  6
CONTINUOUS
 10
355.16300951949142
 20
367.72584761861231
 30
0.0
 40
0.3
 50
180.0
 51
270.0
  0
ARC
  5
17380
  8
DANMEN
  6
CONTINUOUS
 10
351.06300951949129
 20
367.72584761861231
 30
0.0
 40
0.3
 50
270.0
 51
0.0
  0
ARC
  5
17381
  8
DANMEN
  6
CONTINUOUS
 10
350.66300951949142
 20
367.12584761861228
 30
0.0
 40
0.3
 50
90.0
 51
219.91100000000009
  0
LINE
  5
17382
  8
DANMEN
  6
CONTINUOUS
 10
353.8630095194913
 20
368.62584761861228
 30
0.0
 11
353.8630095194913
 21
366.12584761861228
 31
0.0
  0
LINE
  5
17383
  8
DANMEN
  6
CONTINUOUS
 10
352.3630095194913
 20
366.12584761861228
 30
0.0
 11
352.3630095194913
 21
368.62584761861228
 31
0.0
  0
LINE
  5
17384
  8
DANMEN
  6
CONTINUOUS
 10
354.3630095194913
 20
364.62584761861228
 30
0.0
 11
351.8630095194913
 21
364.62584761861228
 31
0.0
  0
LINE
  5
17385
  8
DANMEN
  6
CONTINUOUS
 10
354.33600951949143
 20
364.62584761861228
 30
0.0
 11
354.40700951949128
 21
364.69684761861231
 31
0.0
  0
LINE
  5
17386
  8
DANMEN
  6
CONTINUOUS
 10
351.06300951949129
 20
367.42584761861229
 30
0.0
 11
350.66300951949142
 21
367.42584761861229
 31
0.0
  0
LINE
  5
17387
  8
DANMEN
  6
CONTINUOUS
 10
351.8630095194913
 20
364.62584761861228
 30
0.0
 11
350.43300951949129
 21
366.93384761861239
 31
0.0
  0
LINE
  5
17388
  8
DANMEN
  6
CONTINUOUS
 10
353.56300951949129
 20
365.82584761861227
 30
0.0
 11
352.66300951949142
 21
365.82584761861227
 31
0.0
  0
ARC
  5
17389
  8
DANMEN
  6
CONTINUOUS
 10
353.56300951949129
 20
366.12584761861228
 30
0.0
 40
0.3
 50
270.0
 51
0.0
  0
ARC
  5
1738A
  8
DANMEN
  6
CONTINUOUS
 10
352.66300951949142
 20
366.12584761861228
 30
0.0
 40
0.3
 50
180.0
 51
270.0
  0
ARC
  5
1738B
  8
DANMEN
  6
CONTINUOUS
 10
357.6130095194913
 20
362.42584761861229
 30
0.0
 40
0.5
 50
270.0
 51
0.0
  0
LINE
  5
1738C
  8
DANMEN
  6
CONTINUOUS
 10
354.3630095194913
 20
364.62584761861228
 30
0.0
 11
355.79300951949142
 21
366.93384761861239
 31
0.0
  0
LINE
  5
1738D
  8
DANMEN
  6
CONTINUOUS
 10
355.56300951949129
 20
367.42584761861229
 30
0.0
 11
355.16300951949142
 21
367.42584761861229
 31
0.0
  0
LINE
  5
1738E
  8
DANMEN
  6
CONTINUOUS
 10
355.70100951949149
 20
371.39584761861249
 30
0.0
 11
350.41100951949142
 21
373.13884761861232
 31
0.0
  0
LINE
  5
1738F
  8
DANMEN
  6
CONTINUOUS
 10
351.1130095194913
 20
368.42584761861229
 30
0.0
 11
351.1130095194913
 21
367.92584761861229
 31
0.0
  0
ARC
  5
17390
  8
DANMEN
  6
CONTINUOUS
 10
350.6130095194913
 20
368.42584761861229
 30
0.0
 40
0.5
 50
0.0
 51
90.0
  0
LINE
  5
17391
  8
DANMEN
  6
CONTINUOUS
 10
351.3630095194913
 20
367.72584761861231
 30
0.0
 11
351.3630095194913
 21
368.92584761861229
 31
0.0
  0
ARC
  5
17392
  8
DANMEN
  6
CONTINUOUS
 10
353.56300951949129
 20
368.62584761861228
 30
0.0
 40
0.3
 50
0.0
 51
90.0
  0
LINE
  5
17393
  8
DANMEN
  6
CONTINUOUS
 10
353.56300951949129
 20
368.92584761861229
 30
0.0
 11
352.66300951949142
 21
368.92584761861229
 31
0.0
  0
ARC
  5
17394
  8
DANMEN
  6
CONTINUOUS
 10
352.66300951949142
 20
368.62584761861228
 30
0.0
 40
0.3
 50
90.0
 51
180.0
  0
LINE
  5
17395
  8
DANMEN
  6
CONTINUOUS
 10
357.6130095194913
 20
368.92584761861229
 30
0.0
 11
355.6130095194913
 21
368.92584761861229
 31
0.0
  0
LINE
  5
17396
  8
DANMEN
  6
CONTINUOUS
 10
356.1130095194913
 20
367.92584761861229
 30
0.0
 11
355.1130095194913
 21
367.92584761861229
 31
0.0
  0
ARC
  5
17397
  8
DANMEN
  6
CONTINUOUS
 10
357.6130095194913
 20
368.42584761861229
 30
0.0
 40
0.5
 50
0.0
 51
90.0
  0
LINE
  5
17398
  8
DANMEN
  6
CONTINUOUS
 10
355.1130095194913
 20
368.42584761861229
 30
0.0
 11
355.1130095194913
 21
367.92584761861229
 31
0.0
  0
ARC
  5
17399
  8
DANMEN
  6
CONTINUOUS
 10
355.6130095194913
 20
368.42584761861229
 30
0.0
 40
0.5
 50
90.0
 51
180.0
  0
LINE
  5
1739A
  8
DANMEN
  6
CONTINUOUS
 10
354.8630095194913
 20
367.72584761861231
 30
0.0
 11
354.8630095194913
 21
368.92584761861229
 31
0.0
  0
LINE
  5
1739B
  8
DANMEN
  6
CONTINUOUS
 10
357.1130095194913
 20
368.92584761861229
 30
0.0
 11
354.8630095194913
 21
368.92584761861229
 31
0.0
  0
LINE
  5
1739C
  8
DANMEN
  6
CONTINUOUS
 10
357.1130095194913
 20
371.38684761861231
 30
0.0
 11
357.1130095194913
 21
368.92584761861229
 31
0.0
  0
ARC
  5
1739D
  8
DANMEN
  6
CONTINUOUS
 10
356.41300951949148
 20
371.38684761861231
 30
0.0
 40
0.7
 50
0.0
 51
75.159000000000191
  0
ARC
  5
1739E
  8
DANMEN
  6
CONTINUOUS
 10
355.51300951949128
 20
370.82584761861239
 30
0.0
 40
0.6
 50
270.0
 51
71.758999999999929
  0
LINE
  5
1739F
  8
DANMEN
  6
CONTINUOUS
 10
352.6130095194913
 20
380.92584761861229
 30
0.0
 11
349.1130095194913
 21
380.92584761861229
 31
0.0
  0
LINE
  5
173A0
  8
DANMEN
  6
CONTINUOUS
 10
347.81300951949129
 20
377.42584761861229
 30
0.0
 11
347.81300951949129
 21
381.5928476186125
 31
0.0
  0
LINE
  5
173A1
  8
DANMEN
  6
CONTINUOUS
 10
346.50600951949127
 20
377.28184761861229
 30
0.0
 11
345.1130095194913
 21
381.92584761861229
 31
0.0
  0
LINE
  5
173A2
  8
DANMEN
  6
CONTINUOUS
 10
349.1130095194913
 20
380.92584761861229
 30
0.0
 11
349.1130095194913
 21
378.42584761861229
 31
0.0
  0
LINE
  5
173A3
  8
DANMEN
  6
CONTINUOUS
 10
344.6130095194913
 20
374.92584761861229
 30
0.0
 11
347.6130095194913
 21
374.92584761861229
 31
0.0
  0
LINE
  5
173A4
  8
DANMEN
  6
CONTINUOUS
 10
346.98500951949143
 20
376.92584761861229
 30
0.0
 11
347.31300951949129
 21
376.92584761861229
 31
0.0
  0
ARC
  5
173A5
  8
DANMEN
  6
CONTINUOUS
 10
347.31300951949129
 20
377.42584761861229
 30
0.0
 40
0.5
 50
270.0
 51
0.0
  0
ARC
  5
173A6
  8
DANMEN
  6
CONTINUOUS
 10
346.98500951949143
 20
377.42584761861229
 30
0.0
 40
0.5
 50
196.69899999999981
 51
270.0
  0
LINE
  5
173A7
  8
DANMEN
  6
CONTINUOUS
 10
349.1130095194913
 20
374.92584761861229
 30
0.0
 11
349.1130095194913
 21
378.42584761861229
 31
0.0
  0
LINE
  5
173A8
  8
DANMEN
  6
CONTINUOUS
 10
347.6130095194913
 20
374.92584761861229
 30
0.0
 11
347.6130095194913
 21
378.42584761861229
 31
0.0
  0
LINE
  5
173A9
  8
DANMEN
  6
CONTINUOUS
 10
348.6130095194913
 20
378.92584761861229
 30
0.0
 11
348.1130095194913
 21
378.92584761861229
 31
0.0
  0
ARC
  5
173AA
  8
DANMEN
  6
CONTINUOUS
 10
348.6130095194913
 20
378.42584761861229
 30
0.0
 40
0.5
 50
0.0
 51
90.0
  0
ARC
  5
173AB
  8
DANMEN
  6
CONTINUOUS
 10
348.1130095194913
 20
378.42584761861229
 30
0.0
 40
0.5
 50
90.0
 51
180.0
  0
LINE
  5
173AC
  8
DANMEN
  6
CONTINUOUS
 10
346.6130095194913
 20
382.42584761861229
 30
0.0
 11
347.5050095194913
 21
382.05384761861228
 31
0.0
  0
ARC
  5
173AD
  8
DANMEN
  6
CONTINUOUS
 10
347.31300951949129
 20
381.5928476186125
 30
0.0
 40
0.5
 50
0.0
 51
67.379999999999612
  0
LINE
  5
173AE
  8
SUNPO
  6
CONTINUOUS
 10
332.61300951949141
 20
422.92584761861229
 30
0.0
 11
342.61300951949141
 21
422.92584761861229
 31
0.0
  0
LINE
  5
173AF
  8
SUNPO
  6
CONTINUOUS
 10
322.61300951949141
 20
388.42584761861229
 30
0.0
 11
322.61300951949141
 21
412.92584761861229
 31
0.0
  0
LINE
  5
173B0
  8
SUNPO
  6
CONTINUOUS
 10
312.61300951949141
 20
395.92584761861252
 30
0.0
 11
312.61300951949141
 21
412.92584761861229
 31
0.0
  0
LINE
  5
173B1
  8
SUNPO
  6
CONTINUOUS
 10
332.61300951949141
 20
404.42584761861229
 30
0.0
 11
332.61300951949141
 21
422.92584761861229
 31
0.0
  0
LINE
  5
173B2
  8
DANMEN
  6
CONTINUOUS
 10
326.11300951949141
 20
392.92584761861229
 30
0.0
 11
313.11300951949141
 21
392.92584761861229
 31
0.0
  0
LINE
  5
173B3
  8
DANMEN
  6
CONTINUOUS
 10
332.11300951949141
 20
394.92584761861229
 30
0.0
 11
313.11300951949141
 21
394.92584761861229
 31
0.0
  0
LINE
  5
173B4
  8
DANMEN
  6
CONTINUOUS
 10
322.61300951949141
 20
386.92584761861229
 30
0.0
 11
326.11300951949141
 21
386.92584761861229
 31
0.0
  0
LINE
  5
173B5
  8
DANMEN
  6
CONTINUOUS
 10
318.61300951949141
 20
390.70484761861229
 30
0.0
 11
316.39200951949141
 21
392.92584761861229
 31
0.0
  0
LINE
  5
173B6
  8
DANMEN
  6
CONTINUOUS
 10
318.61300951949141
 20
387.87684761861232
 30
0.0
 11
313.56400951949149
 21
392.92584761861229
 31
0.0
  0
LINE
  5
173B7
  8
DANMEN
  6
CONTINUOUS
 10
311.91200951949128
 20
386.92584761861229
 30
0.0
 11
317.91200951949128
 21
392.92584761861229
 31
0.0
  0
LINE
  5
173B8
  8
DANMEN
  6
CONTINUOUS
 10
314.74000951949142
 20
386.92584761861229
 30
0.0
 11
318.61300951949141
 21
390.79884761861229
 31
0.0
  0
LINE
  5
173B9
  8
DANMEN
  6
CONTINUOUS
 10
311.61300951949141
 20
386.92584761861229
 30
0.0
 11
312.61300951949141
 21
392.92584761861229
 31
0.0
  0
LINE
  5
173BA
  8
DANMEN
  6
CONTINUOUS
 10
316.73500951949143
 20
386.92584761861229
 30
0.0
 11
312.34500951949133
 21
391.31684761861231
 31
0.0
  0
LINE
  5
173BB
  8
DANMEN
  6
CONTINUOUS
 10
312.11900951949139
 20
389.96084761861238
 30
0.0
 11
315.08400951949142
 21
392.92584761861229
 31
0.0
  0
LINE
  5
173BC
  8
DANMEN
  6
CONTINUOUS
 10
313.90700951949128
 20
386.92584761861229
 30
0.0
 11
311.94100951949127
 21
388.8918476186123
 31
0.0
  0
LINE
  5
173BD
  8
DANMEN
  6
CONTINUOUS
 10
312.61300951949141
 20
393.42584761861229
 30
0.0
 11
312.61300951949141
 21
394.42584761861229
 31
0.0
  0
ARC
  5
173BE
  8
DANMEN
  6
CONTINUOUS
 10
313.11300951949141
 20
394.42584761861229
 30
0.0
 40
0.5
 50
90.0
 51
180.0
  0
ARC
  5
173BF
  8
DANMEN
  6
CONTINUOUS
 10
313.11300951949141
 20
393.42584761861229
 30
0.0
 40
0.5
 50
180.0
 51
270.0
  0
LINE
  5
173C0
  8
DANMEN
  6
CONTINUOUS
 10
318.61300951949141
 20
392.92584761861229
 30
0.0
 11
318.61300951949141
 21
386.92584761861229
 31
0.0
  0
LINE
  5
173C1
  8
DANMEN
  6
CONTINUOUS
 10
317.56900951949132
 20
386.92584761861229
 30
0.0
 11
318.61300951949141
 21
387.96984761861239
 31
0.0
  0
LINE
  5
173C2
  8
DANMEN
  6
CONTINUOUS
 10
332.61300951949141
 20
390.92584761861229
 30
0.0
 11
332.61300951949141
 21
402.92584761861229
 31
0.0
  0
LINE
  5
173C3
  8
DANMEN
  6
CONTINUOUS
 10
328.11300951949141
 20
389.92584761861229
 30
0.0
 11
328.11300951949141
 21
393.42584761861229
 31
0.0
  0
LINE
  5
173C4
  8
DANMEN
  6
CONTINUOUS
 10
326.11300951949141
 20
387.92584761861229
 30
0.0
 11
326.11300951949141
 21
392.92584761861229
 31
0.0
  0
ARC
  5
173C5
  8
DANMEN
  6
CONTINUOUS
 10
328.61300951949141
 20
390.42584761861229
 30
0.0
 40
0.5
 50
90.0
 51
180.0
  0
ARC
  5
173C6
  8
DANMEN
  6
CONTINUOUS
 10
332.11300951949141
 20
390.42584761861229
 30
0.0
 40
0.5
 50
0.0
 51
90.0
  0
LINE
  5
173C7
  8
DANMEN
  6
CONTINUOUS
 10
329.61300951949141
 20
389.02584761861232
 30
0.0
 11
330.11300951949141
 21
386.92584761861229
 31
0.0
  0
LINE
  5
173C8
  8
DANMEN
  6
CONTINUOUS
 10
328.11300951949141
 20
388.42584761861229
 30
0.0
 11
330.61300951949141
 21
389.42584761861229
 31
0.0
  0
LINE
  5
173C9
  8
DANMEN
  6
CONTINUOUS
 10
328.61300951949141
 20
386.92584761861229
 30
0.0
 11
327.11300951949141
 21
386.92584761861229
 31
0.0
  0
LINE
  5
173CA
  8
DANMEN
  6
CONTINUOUS
 10
328.11300951949141
 20
388.42584761861229
 30
0.0
 11
327.61300951949141
 21
388.42584761861229
 31
0.0
  0
LINE
  5
173CB
  8
DANMEN
  6
CONTINUOUS
 10
327.61300951949141
 20
388.42584761861229
 30
0.0
 11
327.61300951949141
 21
389.92584761861229
 31
0.0
  0
ARC
  5
173CC
  8
DANMEN
  6
CONTINUOUS
 10
327.11300951949141
 20
387.92584761861229
 30
0.0
 40
1.0
 50
180.0
 51
270.0
  0
LINE
  5
173CD
  8
DANMEN
  6
CONTINUOUS
 10
328.11300951949141
 20
389.92584761861229
 30
0.0
 11
327.61300951949141
 21
389.92584761861229
 31
0.0
  0
LINE
  5
173CE
  8
DANMEN
  6
CONTINUOUS
 10
329.61300951949141
 20
389.02584761861232
 30
0.0
 11
328.11300951949141
 21
388.42584761861229
 31
0.0
  0
LINE
  5
173CF
  8
DANMEN
  6
CONTINUOUS
 10
328.11300951949141
 20
388.42584761861229
 30
0.0
 11
328.11300951949141
 21
390.42584761861229
 31
0.0
  0
LINE
  5
173D0
  8
DANMEN
  6
CONTINUOUS
 10
326.11300951949141
 20
386.92584761861229
 30
0.0
 11
326.11300951949141
 21
387.92584761861229
 31
0.0
  0
LINE
  5
173D1
  8
DANMEN
  6
CONTINUOUS
 10
332.11300951949141
 20
393.42584761861229
 30
0.0
 11
328.11300951949141
 21
393.42584761861229
 31
0.0
  0
LINE
  5
173D2
  8
DANMEN
  6
CONTINUOUS
 10
328.61300951949141
 20
390.92584761861229
 30
0.0
 11
332.11300951949141
 21
390.92584761861229
 31
0.0
  0
LINE
  5
173D3
  8
DANMEN
  6
CONTINUOUS
 10
332.61300951949141
 20
393.92584761861229
 30
0.0
 11
332.61300951949141
 21
394.42584761861229
 31
0.0
  0
ARC
  5
173D4
  8
DANMEN
  6
CONTINUOUS
 10
332.11300951949141
 20
393.92584761861229
 30
0.0
 40
0.5
 50
270.0
 51
0.0
  0
ARC
  5
173D5
  8
DANMEN
  6
CONTINUOUS
 10
332.11300951949141
 20
394.42584761861229
 30
0.0
 40
0.5
 50
0.0
 51
90.0
  0
LINE
  5
173D6
  8
SUNPO
  6
CONTINUOUS
 10
312.61300951949141
 20
422.92584761861229
 30
0.0
 11
332.61300951949141
 21
422.92584761861229
 31
0.0
  0
TEXT
  5
173D7
  8
SUNPO
  6
CONTINUOUS
 10
315.86300951949141
 20
413.92584761861252
 30
0.0
 40
2.5
  1
10
 41
1.1999999999999991
  7
MX_DIMTXSTY_6
  0
LINE
  5
173D8
  8
SUNPO
  6
CONTINUOUS
 10
312.61300951949141
 20
412.92584761861229
 30
0.0
 11
322.61300951949141
 21
412.92584761861229
 31
0.0
  0
INSERT
  5
173D9
  8
SUNPO
  6
CONTINUOUS
  2
_DOTSMALL
 10
312.61300951949141
 20
412.92584761861229
 30
0.0
 41
2.3199999999999918
 42
2.3199999999999918
 43
2.3199999999999981
 50
180.0
  0
INSERT
  5
173DA
  8
SUNPO
  6
CONTINUOUS
  2
_DOTSMALL
 10
322.61300951949141
 20
412.92584761861229
 30
0.0
 41
2.3199999999999918
 42
2.3199999999999918
 43
2.3199999999999981
  0
INSERT
  5
173DB
  8
SUNPO
  6
CONTINUOUS
  2
_DOTSMALL
 10
312.61300951949141
 20
422.92584761861229
 30
0.0
 41
2.3199999999999918
 42
2.3199999999999918
 43
2.3199999999999981
 50
180.0
  0
TEXT
  5
173DC
  8
SUNPO
  6
CONTINUOUS
 10
319.80050951949141
 20
423.92584761861229
 30
0.0
 40
2.5
  1
20
 41
1.5
  7
MX_DIMTXSTY_2
  0
INSERT
  5
173DD
  8
SUNPO
  6
CONTINUOUS
  2
_DOTSMALL
 10
332.61300951949141
 20
422.92584761861229
 30
0.0
 41
2.3199999999999918
 42
2.3199999999999918
 43
2.3199999999999981
  0
INSERT
  5
173DE
  8
SUNPO
  6
CONTINUOUS
  2
_DOTSMALL
 10
332.61300951949141
 20
422.92584761861229
 30
0.0
 41
2.3199999999999918
 42
2.3199999999999918
 43
2.3199999999999981
 50
180.0
  0
TEXT
  5
173DF
  8
SUNPO
  6
CONTINUOUS
 10
335.86300951949141
 20
423.92584761861229
 30
0.0
 40
2.5
  1
10
 41
1.1999999999999991
  7
MX_DIMTXSTY_6
  0
LINE
  5
173E0
  8
SUNPO
  6
CONTINUOUS
 10
342.61300951949141
 20
404.42584761861229
 30
0.0
 11
342.61300951949141
 21
422.92584761861229
 31
0.0
  0
LINE
  5
173E1
  8
SUNPO
  6
CONTINUOUS
 10
362.6130095194913
 20
395.92584761861252
 30
0.0
 11
362.6130095194913
 21
412.92584761861229
 31
0.0
  0
LINE
  5
173E2
  8
SUNPO
  6
CONTINUOUS
 10
352.6130095194913
 20
388.42584761861229
 30
0.0
 11
352.6130095194913
 21
412.92584761861229
 31
0.0
  0
LINE
  5
173E3
  8
SUNPO
  6
CONTINUOUS
 10
342.61300951949141
 20
404.42584761861229
 30
0.0
 11
342.61300951949141
 21
422.92584761861229
 31
0.0
  0
LINE
  5
173E4
  8
DANMEN
  6
CONTINUOUS
 10
349.1130095194913
 20
392.92584761861229
 30
0.0
 11
362.1130095194913
 21
392.92584761861229
 31
0.0
  0
LINE
  5
173E5
  8
DANMEN
  6
CONTINUOUS
 10
343.11300951949141
 20
394.92584761861229
 30
0.0
 11
362.1130095194913
 21
394.92584761861229
 31
0.0
  0
LINE
  5
173E6
  8
DANMEN
  6
CONTINUOUS
 10
361.99000951949131
 20
386.92584761861229
 30
0.0
 11
356.6130095194913
 21
392.3028476186123
 31
0.0
  0
LINE
  5
173E7
  8
DANMEN
  6
CONTINUOUS
 10
359.16200951949128
 20
386.92584761861229
 30
0.0
 11
356.6130095194913
 21
389.47484761861227
 31
0.0
  0
LINE
  5
173E8
  8
DANMEN
  6
CONTINUOUS
 10
356.6130095194913
 20
389.20084761861227
 30
0.0
 11
360.33800951949138
 21
392.92584761861229
 31
0.0
  0
LINE
  5
173E9
  8
DANMEN
  6
CONTINUOUS
 10
357.16700951949127
 20
386.92584761861229
 30
0.0
 11
362.69200951949131
 21
392.45084761861227
 31
0.0
  0
LINE
  5
173EA
  8
DANMEN
  6
CONTINUOUS
 10
342.61300951949141
 20
390.92584761861229
 30
0.0
 11
342.61300951949141
 21
402.92584761861229
 31
0.0
  0
LINE
  5
173EB
  8
DANMEN
  6
CONTINUOUS
 10
352.6130095194913
 20
386.92584761861229
 30
0.0
 11
349.1130095194913
 21
386.92584761861229
 31
0.0
  0
LINE
  5
173EC
  8
DANMEN
  6
CONTINUOUS
 10
347.1130095194913
 20
389.92584761861229
 30
0.0
 11
347.1130095194913
 21
393.42584761861229
 31
0.0
  0
LINE
  5
173ED
  8
DANMEN
  6
CONTINUOUS
 10
349.1130095194913
 20
387.92584761861229
 30
0.0
 11
349.1130095194913
 21
392.92584761861229
 31
0.0
  0
ARC
  5
173EE
  8
DANMEN
  6
CONTINUOUS
 10
346.6130095194913
 20
390.42584761861229
 30
0.0
 40
0.5
 50
0.0
 51
90.0
  0
ARC
  5
173EF
  8
DANMEN
  6
CONTINUOUS
 10
343.11300951949141
 20
390.42584761861229
 30
0.0
 40
0.5
 50
90.0
 51
180.0
  0
LINE
  5
173F0
  8
DANMEN
  6
CONTINUOUS
 10
345.6130095194913
 20
389.02584761861232
 30
0.0
 11
347.1130095194913
 21
388.42584761861229
 31
0.0
  0
LINE
  5
173F1
  8
DANMEN
  6
CONTINUOUS
 10
347.1130095194913
 20
388.42584761861229
 30
0.0
 11
344.6130095194913
 21
389.42584761861229
 31
0.0
  0
LINE
  5
173F2
  8
DANMEN
  6
CONTINUOUS
 10
345.6130095194913
 20
389.02584761861232
 30
0.0
 11
345.1130095194913
 21
386.92584761861229
 31
0.0
  0
LINE
  5
173F3
  8
DANMEN
  6
CONTINUOUS
 10
346.6130095194913
 20
386.92584761861229
 30
0.0
 11
348.1130095194913
 21
386.92584761861229
 31
0.0
  0
LINE
  5
173F4
  8
DANMEN
  6
CONTINUOUS
 10
347.1130095194913
 20
388.42584761861229
 30
0.0
 11
347.6130095194913
 21
388.42584761861229
 31
0.0
  0
LINE
  5
173F5
  8
DANMEN
  6
CONTINUOUS
 10
347.6130095194913
 20
388.42584761861229
 30
0.0
 11
347.6130095194913
 21
389.92584761861229
 31
0.0
  0
ARC
  5
173F6
  8
DANMEN
  6
CONTINUOUS
 10
348.1130095194913
 20
387.92584761861229
 30
0.0
 40
1.0
 50
270.0
 51
0.0
  0
LINE
  5
173F7
  8
DANMEN
  6
CONTINUOUS
 10
347.1130095194913
 20
389.92584761861229
 30
0.0
 11
347.6130095194913
 21
389.92584761861229
 31
0.0
  0
LINE
  5
173F8
  8
DANMEN
  6
CONTINUOUS
 10
347.1130095194913
 20
388.42584761861229
 30
0.0
 11
347.1130095194913
 21
390.42584761861229
 31
0.0
  0
LINE
  5
173F9
  8
DANMEN
  6
CONTINUOUS
 10
349.1130095194913
 20
386.92584761861229
 30
0.0
 11
349.1130095194913
 21
387.92584761861229
 31
0.0
  0
LINE
  5
173FA
  8
DANMEN
  6
CONTINUOUS
 10
343.11300951949141
 20
393.42584761861229
 30
0.0
 11
347.1130095194913
 21
393.42584761861229
 31
0.0
  0
LINE
  5
173FB
  8
DANMEN
  6
CONTINUOUS
 10
346.6130095194913
 20
390.92584761861229
 30
0.0
 11
343.11300951949141
 21
390.92584761861229
 31
0.0
  0
LINE
  5
173FC
  8
DANMEN
  6
CONTINUOUS
 10
342.61300951949141
 20
393.92584761861229
 30
0.0
 11
342.61300951949141
 21
394.42584761861229
 31
0.0
  0
ARC
  5
173FD
  8
DANMEN
  6
CONTINUOUS
 10
343.11300951949141
 20
393.92584761861229
 30
0.0
 40
0.5
 50
180.0
 51
270.0
  0
ARC
  5
173FE
  8
DANMEN
  6
CONTINUOUS
 10
343.11300951949141
 20
394.42584761861229
 30
0.0
 40
0.5
 50
90.0
 51
180.0
  0
LINE
  5
173FF
  8
DANMEN
  6
CONTINUOUS
 10
356.6130095194913
 20
392.92584761861229
 30
0.0
 11
356.6130095194913
 21
386.92584761861229
 31
0.0
  0
LINE
  5
17400
  8
DANMEN
  6
CONTINUOUS
 10
356.6130095194913
 20
392.0288476186123
 30
0.0
 11
357.51000951949129
 21
392.92584761861229
 31
0.0
  0
LINE
  5
17401
  8
DANMEN
  6
CONTINUOUS
 10
363.6130095194913
 20
386.92584761861229
 30
0.0
 11
362.6130095194913
 21
392.92584761861229
 31
0.0
  0
LINE
  5
17402
  8
DANMEN
  6
CONTINUOUS
 10
363.37200951949131
 20
388.3728476186123
 30
0.0
 11
358.81900951949149
 21
392.92584761861229
 31
0.0
  0
LINE
  5
17403
  8
DANMEN
  6
CONTINUOUS
 10
359.99500951949142
 20
386.92584761861229
 30
0.0
 11
363.09600951949142
 21
390.02684761861229
 31
0.0
  0
LINE
  5
17404
  8
DANMEN
  6
CONTINUOUS
 10
362.82400951949131
 20
386.92584761861229
 30
0.0
 11
363.5000095194913
 21
387.60284761861249
 31
0.0
  0
ARC
  5
17405
  8
DANMEN
  6
CONTINUOUS
 10
362.1130095194913
 20
394.42584761861229
 30
0.0
 40
0.5
 50
0.0
 51
90.0
  0
ARC
  5
17406
  8
DANMEN
  6
CONTINUOUS
 10
362.1130095194913
 20
393.42584761861229
 30
0.0
 40
0.5
 50
270.0
 51
0.0
  0
LINE
  5
17407
  8
DANMEN
  6
CONTINUOUS
 10
362.80600951949128
 20
391.7668476186123
 30
0.0
 11
361.64700951949129
 21
392.92584761861229
 31
0.0
  0
LINE
  5
17408
  8
DANMEN
  6
CONTINUOUS
 10
362.6130095194913
 20
393.42584761861229
 30
0.0
 11
362.6130095194913
 21
394.42584761861229
 31
0.0
  0
LINE
  5
17409
  8
SUNPO
  6
CONTINUOUS
 10
342.61300951949141
 20
422.92584761861229
 30
0.0
 11
362.6130095194913
 21
422.92584761861229
 31
0.0
  0
TEXT
  5
1740A
  8
SUNPO
  6
CONTINUOUS
 10
355.8630095194913
 20
413.92584761861252
 30
0.0
 40
2.5
  1
10
 41
1.1999999999999991
  7
MX_DIMTXSTY_6
  0
LINE
  5
1740B
  8
SUNPO
  6
CONTINUOUS
 10
352.6130095194913
 20
412.92584761861229
 30
0.0
 11
362.6130095194913
 21
412.92584761861229
 31
0.0
  0
INSERT
  5
1740C
  8
SUNPO
  6
CONTINUOUS
  2
_DOTSMALL
 10
352.6130095194913
 20
412.92584761861229
 30
0.0
 41
2.3199999999999918
 42
2.3199999999999918
 43
2.3199999999999981
 50
180.0
  0
INSERT
  5
1740D
  8
SUNPO
  6
CONTINUOUS
  2
_DOTSMALL
 10
342.61300951949141
 20
422.92584761861229
 30
0.0
 41
2.3199999999999918
 42
2.3199999999999918
 43
2.3199999999999981
 50
180.0
  0
INSERT
  5
1740E
  8
SUNPO
  6
CONTINUOUS
  2
_DOTSMALL
 10
342.61300951949141
 20
422.92584761861229
 30
0.0
 41
2.3199999999999918
 42
2.3199999999999918
 43
2.3199999999999981
  0
TEXT
  5
1740F
  8
SUNPO
  6
CONTINUOUS
 10
349.8005095194913
 20
423.92584761861229
 30
0.0
 40
2.5
  1
20
 41
1.5
  7
MX_DIMTXSTY_2
  0
INSERT
  5
17410
  8
SUNPO
  6
CONTINUOUS
  2
_DOTSMALL
 10
362.6130095194913
 20
412.92584761861229
 30
0.0
 41
2.3199999999999918
 42
2.3199999999999918
 43
2.3199999999999981
  0
INSERT
  5
17411
  8
SUNPO
  6
CONTINUOUS
  2
_DOTSMALL
 10
362.6130095194913
 20
422.92584761861229
 30
0.0
 41
2.3199999999999918
 42
2.3199999999999918
 43
2.3199999999999981
  0
LINE
  5
17412
  8
SUNPO
  6
CONTINUOUS
 10
312.61300951949141
 20
432.92584761861229
 30
0.0
 11
362.6130095194913
 21
432.92584761861229
 31
0.0
  0
INSERT
  5
17413
  8
SUNPO
  6
CONTINUOUS
  2
_DOTSMALL
 10
312.61300951949141
 20
432.92584761861229
 30
0.0
 41
2.3199999999999918
 42
2.3199999999999918
 43
2.3199999999999981
 50
180.0
  0
TEXT
  5
17414
  8
SUNPO
  6
CONTINUOUS
 10
334.80050951949141
 20
433.92584761861229
 30
0.0
 40
2.5
  1
50
 41
1.5
  7
MX_DIMTXSTY_2
  0
INSERT
  5
17415
  8
SUNPO
  6
CONTINUOUS
  2
_DOTSMALL
 10
362.6130095194913
 20
432.92584761861229
 30
0.0
 41
2.3199999999999918
 42
2.3199999999999918
 43
2.3199999999999981
  0
LINE
  5
17416
  8
DANMEN
  6
CONTINUOUS
 10
385.1130095194913
 20
374.92584761861229
 30
0.0
 11
435.1130095194913
 21
374.92584761861229
 31
0.0
  0
LINE
  5
17417
  8
DANMEN
  6
CONTINUOUS
 10
385.6130095194913
 20
372.92584761861229
 30
0.0
 11
381.11300951949153
 21
372.92584761861229
 31
0.0
  0
LINE
  5
17418
  8
DANMEN
  6
CONTINUOUS
 10
379.6130095194913
 20
372.92584761861229
 30
0.0
 11
377.1130095194913
 21
372.92584761861229
 31
0.0
  0
ARC
  5
17419
  8
DANMEN
  6
CONTINUOUS
 10
380.6130095194913
 20
371.42584761861229
 30
0.0
 40
0.5
 50
270.0
 51
0.0
  0
ARC
  5
1741A
  8
DANMEN
  6
CONTINUOUS
 10
380.1130095194913
 20
371.42584761861229
 30
0.0
 40
0.5
 50
180.0
 51
270.0
  0
LINE
  5
1741B
  8
DANMEN
  6
CONTINUOUS
 10
380.1130095194913
 20
370.92584761861229
 30
0.0
 11
380.6130095194913
 21
370.92584761861229
 31
0.0
  0
LINE
  5
1741C
  8
DANMEN
  6
CONTINUOUS
 10
379.6130095194913
 20
372.92584761861229
 30
0.0
 11
379.6130095194913
 21
371.42584761861229
 31
0.0
  0
LINE
  5
1741D
  8
DANMEN
  6
CONTINUOUS
 10
381.11300951949153
 20
372.92584761861229
 30
0.0
 11
381.11300951949153
 21
371.42584761861229
 31
0.0
  0
LINE
  5
1741E
  8
DANMEN
  6
CONTINUOUS
 10
387.68700951949131
 20
375.37084761861229
 30
0.0
 11
382.13200951949131
 21
380.92584761861229
 31
0.0
  0
LINE
  5
1741F
  8
DANMEN
  6
CONTINUOUS
 10
385.3040095194915
 20
374.92584761861229
 30
0.0
 11
381.6130095194913
 21
378.6168476186125
 31
0.0
  0
LINE
  5
17420
  8
DANMEN
  6
CONTINUOUS
 10
381.6130095194913
 20
377.43084761861229
 30
0.0
 11
385.1080095194913
 21
380.92584761861229
 31
0.0
  0
LINE
  5
17421
  8
DANMEN
  6
CONTINUOUS
 10
381.93600951949128
 20
374.92584761861229
 30
0.0
 11
387.93600951949128
 21
380.92584761861229
 31
0.0
  0
LINE
  5
17422
  8
DANMEN
  6
CONTINUOUS
 10
381.6130095194913
 20
380.92584761861229
 30
0.0
 11
381.6130095194913
 21
374.92584761861229
 31
0.0
  0
LINE
  5
17423
  8
DANMEN
  6
CONTINUOUS
 10
382.47500951949132
 20
374.92584761861229
 30
0.0
 11
381.6130095194913
 21
375.78784761861232
 31
0.0
  0
LINE
  5
17424
  8
DANMEN
  6
CONTINUOUS
 10
381.6130095194913
 20
380.25884761861232
 30
0.0
 11
382.2800095194915
 21
380.92584761861229
 31
0.0
  0
LINE
  5
17425
  8
DANMEN
  6
CONTINUOUS
 10
387.6130095194913
 20
374.92584761861229
 30
0.0
 11
388.6130095194913
 21
380.92584761861229
 31
0.0
  0
LINE
  5
17426
  8
DANMEN
  6
CONTINUOUS
 10
388.09100951949131
 20
377.7958476186123
 30
0.0
 11
384.96100951949131
 21
380.92584761861229
 31
0.0
  0
ARC
  5
17427
  8
DANMEN
  6
CONTINUOUS
 10
387.1130095194913
 20
374.42584761861229
 30
0.0
 40
0.5
 50
0.0
 51
90.0
  0
LINE
  5
17428
  8
DANMEN
  6
CONTINUOUS
 10
384.76500951949151
 20
374.92584761861229
 30
0.0
 11
388.18300951949129
 21
378.3438476186123
 31
0.0
  0
LINE
  5
17429
  8
DANMEN
  6
CONTINUOUS
 10
387.59300951949137
 20
374.92584761861229
 30
0.0
 11
387.61700951949138
 21
374.9498476186123
 31
0.0
  0
LINE
  5
1742A
  8
DANMEN
  6
CONTINUOUS
 10
388.4950095194913
 20
380.21984761861239
 30
0.0
 11
387.78900951949151
 21
380.92584761861229
 31
0.0
  0
ENDSEC
  0
EOF
