  0
SECTION
  2
HEADER
  9
$ACADVER
  1
AC1009
  9
$INSBASE
 10
0.0
 20
0.0
 30
0.0
  9
$EXTMIN
 10
5.0
 20
205.0
 30
0.0
  9
$EXTMAX
 10
500.0
 20
505.0
 30
0.0
  9
$LIMMIN
 10
-210.0
 20
-148.5
  9
$LIMMAX
 10
210.0
 20
148.5
  9
$ORTHOMODE
 70
     1
  9
$REGENMODE
 70
     1
  9
$FILLMODE
 70
     1
  9
$QTEXTMODE
 70
     0
  9
$MIRRTEXT
 70
     1
  9
$DRAGMODE
 70
     2
  9
$LTSCALE
 40
0.5
  9
$OSMODE
 70
  3071
  9
$ATTMODE
 70
     1
  9
$TEXTSIZE
 40
0.2
  9
$TRACEWID
 40
0.05
  9
$TEXTSTYLE
  7
STANDARD
  9
$CLAYER
  8
0
  9
$CELTYPE
  6
CONTINUOUS
  9
$CECOLOR
 62
   256
  9
$DIMSCALE
 40
1.0
  9
$DIMASZ
 40
2.3199999999999981
  9
$DIMEXO
 40
1.5
  9
$DIMDLI
 40
3.75
  9
$DIMRND
 40
0.0
  9
$DIMDLE
 40
0.0
  9
$DIMEXE
 40
0.0
  9
$DIMTP
 40
0.0
  9
$DIMTM
 40
0.0
  9
$DIMTXT
 40
2.5
  9
$DIMCEN
 40
2.5
  9
$DIMTSZ
 40
0.0
  9
$DIMTOL
 70
     0
  9
$DIMLIM
 70
     0
  9
$DIMTIH
 70
     0
  9
$DIMTOH
 70
     0
  9
$DIMSE1
 70
     1
  9
$DIMSE2
 70
     1
  9
$DIMTAD
 70
     1
  9
$DIMZIN
 70
     0
  9
$DIMBLK
  1

  9
$DIMASO
 70
     1
  9
$DIMSHO
 70
     1
  9
$DIMPOST
  1

  9
$DIMAPOST
  1

  9
$DIMALT
 70
     0
  9
$DIMALTD
 70
     4
  9
$DIMALTF
 40
0.0394
  9
$DIMLFAC
 40
1.0
  9
$DIMTOFL
 70
     1
  9
$DIMTVP
 40
0.0
  9
$DIMTIX
 70
     0
  9
$DIMSOXD
 70
     0
  9
$DIMSAH
 70
     1
  9
$DIMBLK1
  1

  9
$DIMBLK2
  1

  9
$DIMSTYLE
  2
MXDIMSTYLE
  9
$DIMCLRD
 70
     0
  9
$DIMCLRE
 70
     0
  9
$DIMCLRT
 70
     0
  9
$DIMTFAC
 40
1.0
  9
$DIMGAP
 40
1.0
  9
$LUNITS
 70
     2
  9
$LUPREC
 70
     4
  9
$SKETCHINC
 40
0.1
  9
$FILLETRAD
 40
0.0
  9
$AUNITS
 70
     0
  9
$AUPREC
 70
     0
  9
$MENU
  1
acad
  9
$ELEVATION
 40
0.0
  9
$PELEVATION
 40
0.0
  9
$THICKNESS
 40
0.0
  9
$LIMCHECK
 70
     0
  9
$BLIPMODE
 70
     0
  9
$CHAMFERA
 40
0.0
  9
$CHAMFERB
 40
0.0
  9
$SKPOLY
 70
     0
  9
$TDCREATE
 40
2452200.7321329978
  9
$TDUPDATE
 40
2454217.5685627311
  9
$TDINDWG
 40
0.0504633102
  9
$TDUSRTIMER
 40
0.050458912
  9
$USRTIMER
 70
     1
  9
$ANGBASE
 50
0.0
  9
$ANGDIR
 70
     0
  9
$PDMODE
 70
     3
  9
$PDSIZE
 40
-100.0
  9
$PLINEWID
 40
0.0
  9
$COORDS
 70
     2
  9
$SPLFRAME
 70
     0
  9
$SPLINETYPE
 70
     6
  9
$SPLINESEGS
 70
     8
  9
$ATTDIA
 70
     0
  9
$ATTREQ
 70
     1
  9
$HANDLING
 70
 22529
  9
$HANDSEED
  5
15797
  9
$SURFTAB1
 70
     6
  9
$SURFTAB2
 70
     6
  9
$SURFTYPE
 70
     6
  9
$SURFU
 70
     6
  9
$SURFV
 70
     6
  9
$UCSNAME
  2

  9
$UCSORG
 10
0.0
 20
0.0
 30
0.0
  9
$UCSXDIR
 10
1.0
 20
0.0
 30
0.0
  9
$UCSYDIR
 10
0.0
 20
1.0
 30
0.0
  9
$PUCSNAME
  2

  9
$PUCSORG
 10
0.0
 20
0.0
 30
0.0
  9
$PUCSXDIR
 10
1.0
 20
0.0
 30
0.0
  9
$PUCSYDIR
 10
0.0
 20
1.0
 30
0.0
  9
$USERI1
 70
     0
  9
$USERI2
 70
     0
  9
$USERI3
 70
     0
  9
$USERI4
 70
     0
  9
$USERI5
 70
     0
  9
$USERR1
 40
0.0
  9
$USERR2
 40
0.0
  9
$USERR3
 40
0.0
  9
$USERR4
 40
0.0
  9
$USERR5
 40
0.0
  9
$WORLDVIEW
 70
     1
  9
$SHADEDGE
 70
     3
  9
$SHADEDIF
 70
    70
  9
$TILEMODE
 70
     1
  9
$MAXACTVP
 70
    16
  9
$PLIMCHECK
 70
     0
  9
$PEXTMIN
 10
1.0000000000000000E+020
 20
1.0000000000000000E+020
 30
1.0000000000000000E+020
  9
$PEXTMAX
 10
-1.0000000000000000E+020
 20
-1.0000000000000000E+020
 30
-1.0000000000000000E+020
  9
$PLIMMIN
 10
0.0
 20
0.0
  9
$PLIMMAX
 10
12.0
 20
9.0
  9
$UNITMODE
 70
     0
  9
$VISRETAIN
 70
     0
  9
$PLINEGEN
 70
     1
  9
$PSLTSCALE
 70
     0
  0
ENDSEC
  0
SECTION
  2
TABLES
  0
TABLE
  2
VPORT
 70
     2
  0
VPORT
  2
*ACTIVE
 70
     0
 10
0.0
 20
0.0
 11
1.0
 21
1.0
 12
259.21448255708708
 22
368.52449384819488
 13
0.0
 23
0.0
 14
1.0
 24
1.0
 15
0.0
 25
0.0
 16
0.0
 26
0.0
 36
1.0
 17
0.0
 27
0.0
 37
0.0
 40
376.90540012309259
 41
1.4837545126353779
 42
50.0
 43
0.0
 44
0.0
 50
0.0
 51
0.0
 71
     0
 72
   100
 73
     1
 74
     0
 75
     0
 76
     0
 77
     0
 78
     0
  0
ENDTAB
  0
TABLE
  2
LTYPE
 70
     3
  0
LTYPE
  2
CONTINUOUS
 70
     0
  3
Solid line
 72
    65
 73
     0
 40
0.0
  0
LTYPE
  2
DASHED
 70
     0
  3
Dashed __ __ __ __ __ __ __ __ __ __ __ __ __ _
 72
    65
 73
     2
 40
19.050000000000001
 49
12.699999999999999
 49
-6.349999999999997
  0
LTYPE
  2
CENTER
 70
     0
  3
Center ____ _ ____ _ ____ _ ____ _ ____ _ ____
 72
    65
 73
     4
 40
50.799999999999997
 49
31.75
 49
-6.349999999999997
 49
6.349999999999997
 49
-6.349999999999997
  0
ENDTAB
  0
TABLE
  2
LAYER
 70
     4
  0
LAYER
  2
0
 70
     0
 62
     7
  6
CONTINUOUS
  0
LAYER
  2
SUNPO
 70
     0
 62
     1
  6
CONTINUOUS
  0
LAYER
  2
DANMEN
 70
     0
 62
     7
  6
CONTINUOUS
  0
LAYER
  2
WAKU
 70
     0
 62
     3
  6
CONTINUOUS
  0
ENDTAB
  0
TABLE
  2
STYLE
 70
     9
  0
STYLE
  2
STANDARD
 70
     0
 40
0.2
 41
1.0
 50
0.0
 71
     0
 42
0.2
  3
txt.shx
  4
bigfont.shx
  0
STYLE
  2
MX_NOTE_STANDARD
 70
     0
 40
2.5
 41
1.0
 50
0.0
 71
     0
 42
2.5
  3
txt.shx
  4
extfont.shx
  0
STYLE
  2
MX_DIMTXSTY_2
 70
     0
 40
0.0
 41
1.5
 50
0.0
 71
     0
 42
2.5
  3
txt.shx
  4
extfont.shx
  0
STYLE
  2
MX_DIMTXSTY_3
 70
     0
 40
0.0
 41
1.1000000000000001
 50
0.0
 71
     0
 42
2.5
  3
txt.shx
  4
extfont.shx
  0
STYLE
  2
MX_DIMTXSTY_4
 70
     0
 40
0.0
 41
1.3
 50
0.0
 71
     0
 42
2.5
  3
txt.shx
  4
extfont.shx
  0
STYLE
  2
MX_DIMTXSTY_5
 70
     0
 40
0.0
 41
1.3500000000000001
 50
0.0
 71
     0
 42
2.5
  3
txt.shx
  4
extfont.shx
  0
STYLE
  2
MX_DIMTXSTY_6
 70
     0
 40
0.0
 41
1.1999999999999991
 50
0.0
 71
     0
 42
2.5
  3
txt.shx
  4
extfont.shx
  0
STYLE
  2
MX_DIMTXSTY_7
 70
     0
 40
0.0
 41
0.85
 50
0.0
 71
     0
 42
2.5
  3
txt.shx
  4
extfont.shx
  0
STYLE
  2
MX_DIMTXSTY_8
 70
     0
 40
0.0
 41
1.399999999999999
 50
0.0
 71
     0
 42
2.5
  3
txt.shx
  4
extfont.shx
  0
ENDTAB
  0
TABLE
  2
VIEW
 70
     0
  0
ENDTAB
  0
TABLE
  2
UCS
 70
     0
  0
ENDTAB
  0
TABLE
  2
APPID
 70
     1
  0
APPID
  2
ACAD
 70
     0
  0
ENDTAB
  0
TABLE
  2
DIMSTYLE
 70
     1
  0
DIMSTYLE
  2
MXDIMSTYLE
 70
     0
  3

  4

  5

  6

  7

 40
1.0
 41
2.5
 42
1.5
 43
3.75
 44
0.0
 45
0.0
 46
0.0
 47
0.0
 48
0.0
140
2.5
141
2.5
142
0.0
143
0.0394
144
1.0
145
0.0
146
1.0
147
1.0
 71
     0
 72
     0
 73
     0
 74
     0
 75
     0
 76
     0
 77
     1
 78
     8
170
     0
171
     4
172
     1
173
     0
174
     0
175
     0
176
     0
177
     0
178
     0
  0
ENDTAB
  0
ENDSEC
  0
SECTION
  2
BLOCKS
  0
BLOCK
  8
0
  2
$MODEL_SPACE
 70
     0
 10
0.0
 20
0.0
 30
0.0
  3
$MODEL_SPACE
  1

  0
ENDBLK
  5
14F29
  8
0
  0
BLOCK
 67
     1
  8
0
  2
$PAPER_SPACE
 70
     0
 10
0.0
 20
0.0
 30
0.0
  3
$PAPER_SPACE
  1

  0
ENDBLK
  5
14F25
 67
     1
  8
0
  0
BLOCK
  8
0
  2
*U2
 70
     1
 10
0.0
 20
0.0
 30
0.0
  3
*U2
  1

  0
SOLID
  5
14F45
  8
WAKU
  6
CONTINUOUS
 10
371.30514199999988
 20
283.60529100000002
 30
0.0
 11
370.49978199999993
 21
283.53036100000003
 31
0.0
 12
370.87498699999992
 22
283.52044899999993
 32
0.0
 13
370.87498699999992
 23
283.52044899999993
 33
0.0
  0
SOLID
  5
14F46
  8
WAKU
  6
CONTINUOUS
 10
370.193309
 20
283.63466399999999
 30
0.0
 11
370.49978199999993
 21
283.53036100000003
 31
0.0
 12
371.30514199999988
 22
283.60529100000002
 32
0.0
 13
371.30514199999988
 23
283.60529100000002
 33
0.0
  0
SOLID
  5
14F47
  8
WAKU
  6
CONTINUOUS
 10
371.77444800000001
 20
283.78177299999987
 30
0.0
 11
370.193309
 21
283.63466399999999
 31
0.0
 12
371.30514199999988
 22
283.60529100000002
 32
0.0
 13
371.30514199999988
 23
283.60529100000002
 33
0.0
  0
SOLID
  5
14F48
  8
WAKU
  6
CONTINUOUS
 10
369.96682399999992
 20
283.82952599999982
 30
0.0
 11
370.193309
 21
283.63466399999999
 31
0.0
 12
371.77444800000001
 22
283.78177299999987
 32
0.0
 13
371.77444800000001
 23
283.78177299999987
 33
0.0
  0
SOLID
  5
14F49
  8
WAKU
  6
CONTINUOUS
 10
370.59417699999989
 20
283.90949799999999
 30
0.0
 11
369.96682399999992
 21
283.82952599999982
 31
0.0
 12
371.77444800000001
 22
283.78177299999987
 32
0.0
 13
371.77444800000001
 23
283.78177299999987
 33
0.0
  0
SOLID
  5
14F4A
  8
WAKU
  6
CONTINUOUS
 10
370.90129400000001
 20
283.91486300000003
 30
0.0
 11
370.59417699999989
 21
283.90949799999999
 31
0.0
 12
371.77444800000001
 22
283.78177299999987
 32
0.0
 13
371.77444800000001
 23
283.78177299999987
 33
0.0
  0
SOLID
  5
14F4B
  8
WAKU
  6
CONTINUOUS
 10
370.39292699999987
 20
283.968568
 30
0.0
 11
369.96682399999992
 21
283.82952599999982
 31
0.0
 12
370.59417699999989
 22
283.90949799999999
 32
0.0
 13
370.59417699999989
 23
283.90949799999999
 33
0.0
  0
SOLID
  5
14F4C
  8
WAKU
  6
CONTINUOUS
 10
371.2969839999991
 20
284.01036800000003
 30
0.0
 11
370.90129400000001
 21
283.91486300000003
 31
0.0
 12
371.77444800000001
 22
283.78177299999987
 32
0.0
 13
371.77444800000001
 23
283.78177299999987
 33
0.0
  0
SOLID
  5
14F4D
  8
WAKU
  6
CONTINUOUS
 10
372.26566600000001
 20
284.04341099999982
 30
0.0
 11
371.2969839999991
 21
284.01036800000003
 31
0.0
 12
371.77444800000001
 22
283.78177299999987
 32
0.0
 13
371.77444800000001
 23
283.78177299999987
 33
0.0
  0
SOLID
  5
14F4E
  8
WAKU
  6
CONTINUOUS
 10
370.27517699999993
 20
284.06647599999991
 30
0.0
 11
369.96682399999992
 21
283.82952599999982
 31
0.0
 12
370.39292699999987
 22
283.968568
 32
0.0
 13
370.39292699999987
 23
283.968568
 33
0.0
  0
SOLID
  5
14F4F
  8
WAKU
  6
CONTINUOUS
 10
369.82864599999988
 20
284.10779100000002
 30
0.0
 11
369.96682399999992
 21
283.82952599999982
 31
0.0
 12
370.27517699999993
 22
284.06647599999991
 32
0.0
 13
370.27517699999993
 23
284.06647599999991
 33
0.0
  0
SOLID
  5
14F50
  8
WAKU
  6
CONTINUOUS
 10
370.70945799999993
 20
284.14239700000002
 30
0.0
 11
369.82864599999988
 21
284.10779100000002
 31
0.0
 12
370.27517699999993
 22
284.06647599999991
 32
0.0
 13
370.27517699999993
 23
284.06647599999991
 33
0.0
  0
SOLID
  5
14F51
  8
WAKU
  6
CONTINUOUS
 10
371.75188199999991
 20
284.20279799999992
 30
0.0
 11
371.2969839999991
 21
284.01036800000003
 31
0.0
 12
372.26566600000001
 22
284.04341099999982
 32
0.0
 13
372.26566600000001
 23
284.04341099999982
 33
0.0
  0
SOLID
  5
14F52
  8
WAKU
  6
CONTINUOUS
 10
369.55038100000002
 20
284.245969
 30
0.0
 11
369.82864599999988
 21
284.10779100000002
 31
0.0
 12
370.70945799999993
 22
284.14239700000002
 32
0.0
 13
370.70945799999993
 23
284.14239700000002
 33
0.0
  0
SOLID
  5
14F53
  8
WAKU
  6
CONTINUOUS
 10
371.18642799999992
 20
284.31462499999992
 30
0.0
 11
369.55038100000002
 21
284.245969
 31
0.0
 12
370.70945799999993
 22
284.14239700000002
 32
0.0
 13
370.70945799999993
 23
284.14239700000002
 33
0.0
  0
SOLID
  5
14F54
  8
WAKU
  6
CONTINUOUS
 10
372.76075600000001
 20
284.38059500000008
 30
0.0
 11
371.75188199999991
 21
284.20279799999992
 31
0.0
 12
372.26566600000001
 22
284.04341099999982
 32
0.0
 13
372.26566600000001
 23
284.04341099999982
 33
0.0
  0
SOLID
  5
14F55
  8
WAKU
  6
CONTINUOUS
 10
370.172911
 20
284.45185600000002
 30
0.0
 11
369.55038100000002
 21
284.245969
 31
0.0
 12
371.18642799999992
 22
284.31462499999992
 32
0.0
 13
371.18642799999992
 23
284.31462499999992
 33
0.0
  0
SOLID
  5
14F56
  8
WAKU
  6
CONTINUOUS
 10
369.35551800000002
 20
284.47245400000008
 30
0.0
 11
369.55038100000002
 21
284.245969
 31
0.0
 12
370.172911
 22
284.45185600000002
 32
0.0
 13
370.172911
 23
284.45185600000002
 33
0.0
  0
SOLID
  5
14F57
  8
WAKU
  6
CONTINUOUS
 10
372.23749700000002
 20
284.48611699999992
 30
0.0
 11
371.75188199999991
 21
284.20279799999992
 31
0.0
 12
372.76075600000001
 22
284.38059500000008
 32
0.0
 13
372.76075600000001
 23
284.38059500000008
 33
0.0
  0
SOLID
  5
14F58
  8
WAKU
  6
CONTINUOUS
 10
370.68139500000001
 20
284.53919500000001
 30
0.0
 11
370.172911
 21
284.45185600000002
 31
0.0
 12
371.18642799999992
 22
284.31462499999992
 32
0.0
 13
371.18642799999992
 23
284.31462499999992
 33
0.0
  0
SOLID
  5
14F59
  8
WAKU
  6
CONTINUOUS
 10
369.787305
 20
284.55393500000002
 30
0.0
 11
369.35551800000002
 21
284.47245400000008
 31
0.0
 12
370.172911
 22
284.45185600000002
 32
0.0
 13
370.172911
 23
284.45185600000002
 33
0.0
  0
SOLID
  5
14F5A
  8
WAKU
  6
CONTINUOUS
 10
371.68776999999989
 20
284.57654500000001
 30
0.0
 11
370.68139500000001
 21
284.53919500000001
 31
0.0
 12
371.18642799999992
 22
284.31462499999992
 32
0.0
 13
371.18642799999992
 23
284.31462499999992
 33
0.0
  0
SOLID
  5
14F5B
  8
WAKU
  6
CONTINUOUS
 10
369.68915499999991
 20
284.67243500000001
 30
0.0
 11
369.35551800000002
 21
284.47245400000008
 31
0.0
 12
369.787305
 22
284.55393500000002
 32
0.0
 13
369.787305
 23
284.55393500000002
 33
0.0
  0
SOLID
  5
14F5C
  8
WAKU
  6
CONTINUOUS
 10
369.251215
 20
284.77892800000001
 30
0.0
 11
369.35551800000002
 21
284.47245400000008
 31
0.0
 12
369.68915499999991
 22
284.67243500000001
 32
0.0
 13
369.68915499999991
 23
284.67243500000001
 33
0.0
  0
SOLID
  5
14F5D
  8
WAKU
  6
CONTINUOUS
 10
373.24153200000001
 20
284.78094099999993
 30
0.0
 11
372.23749700000002
 21
284.48611699999992
 31
0.0
 12
372.76075600000001
 22
284.38059500000008
 32
0.0
 13
372.76075600000001
 23
284.38059500000008
 33
0.0
  0
SOLID
  5
14F5E
  8
WAKU
  6
CONTINUOUS
 10
371.31226299999992
 20
284.81033199999962
 30
0.0
 11
370.68139500000001
 21
284.53919500000001
 31
0.0
 12
371.68776999999989
 22
284.57654500000001
 32
0.0
 13
371.68776999999989
 23
284.57654500000001
 33
0.0
  0
SOLID
  5
14F5F
  8
WAKU
  6
CONTINUOUS
 10
369.63035799999989
 20
284.873087
 30
0.0
 11
369.251215
 21
284.77892800000001
 31
0.0
 12
369.68915499999991
 22
284.67243500000001
 32
0.0
 13
369.68915499999991
 23
284.67243500000001
 33
0.0
  0
SOLID
  5
14F60
  8
WAKU
  6
CONTINUOUS
 10
372.194232
 20
284.91809899999993
 30
0.0
 11
371.31226299999992
 21
284.81033199999962
 31
0.0
 12
371.68776999999989
 22
284.57654500000001
 32
0.0
 13
371.68776999999989
 23
284.57654500000001
 33
0.0
  0
SOLID
  5
14F61
  8
WAKU
  6
CONTINUOUS
 10
370.26016800000002
 20
284.959969
 30
0.0
 11
369.787305
 21
284.55393500000002
 31
0.0
 12
370.172911
 22
284.45185600000002
 32
0.0
 13
370.172911
 23
284.45185600000002
 33
0.0
  0
SOLID
  5
14F62
  8
WAKU
  6
CONTINUOUS
 10
369.86313899999999
 20
284.98818899999992
 30
0.0
 11
369.787305
 21
284.55393500000002
 31
0.0
 12
370.26016800000002
 22
284.959969
 32
0.0
 13
370.26016800000002
 23
284.959969
 33
0.0
  0
SOLID
  5
14F63
  8
WAKU
  6
CONTINUOUS
 10
398.19400599999989
 20
285.115385
 30
0.0
 11
397.60605499999991
 21
283.49999999999989
 31
0.0
 12
401.913747
 22
283.49999999999989
 32
0.0
 13
401.913747
 23
283.49999999999989
 33
0.0
  0
SOLID
  5
14F64
  8
WAKU
  6
CONTINUOUS
 10
401.913747
 20
283.49999999999989
 30
0.0
 11
401.42477599999989
 21
285.115385
 31
0.0
 12
398.19400599999989
 22
285.115385
 32
0.0
 13
398.19400599999989
 23
285.115385
 33
0.0
  0
SOLID
  5
14F65
  8
WAKU
  6
CONTINUOUS
 10
369.24130299999962
 20
285.15413199999989
 30
0.0
 11
369.251215
 21
284.77892800000001
 31
0.0
 12
369.63035799999989
 22
284.873087
 32
0.0
 13
369.63035799999989
 23
284.873087
 33
0.0
  0
SOLID
  5
14F66
  8
WAKU
  6
CONTINUOUS
 10
369.635696
 20
285.18040400000001
 30
0.0
 11
369.24130299999962
 21
285.15413199999989
 31
0.0
 12
369.63035799999989
 22
284.873087
 32
0.0
 13
369.63035799999989
 23
284.873087
 33
0.0
  0
SOLID
  5
14F67
  8
WAKU
  6
CONTINUOUS
 10
373.69033499999989
 20
285.22974399999998
 30
0.0
 11
372.23749700000002
 21
284.48611699999992
 31
0.0
 12
373.24153200000001
 22
284.78094099999993
 32
0.0
 13
373.24153200000001
 23
284.78094099999993
 33
0.0
  0
SOLID
  5
14F68
  8
WAKU
  6
CONTINUOUS
 10
371.98993999999999
 20
285.25143100000003
 30
0.0
 11
371.31226299999992
 21
284.81033199999962
 31
0.0
 12
372.194232
 22
284.91809899999993
 32
0.0
 13
372.194232
 23
284.91809899999993
 33
0.0
  0
SOLID
  5
14F69
  8
WAKU
  6
CONTINUOUS
 10
373.195965
 20
285.2752319999999
 30
0.0
 11
372.23749700000002
 21
284.48611699999992
 31
0.0
 12
373.69033499999989
 22
285.22974399999998
 32
0.0
 13
373.69033499999989
 23
285.22974399999998
 33
0.0
  0
SOLID
  5
14F6A
  8
WAKU
  6
CONTINUOUS
 10
372.68636299999991
 20
285.32617099999982
 30
0.0
 11
371.98993999999999
 21
285.25143100000003
 31
0.0
 12
372.194232
 22
284.91809899999993
 32
0.0
 13
372.194232
 23
284.91809899999993
 33
0.0
  0
SOLID
  5
14F6B
  8
WAKU
  6
CONTINUOUS
 10
370.03529300000002
 20
285.46515399999993
 30
0.0
 11
369.86313899999999
 21
284.98818899999992
 31
0.0
 12
370.26016800000002
 22
284.959969
 32
0.0
 13
370.26016800000002
 23
284.959969
 33
0.0
  0
SOLID
  5
14F6C
  8
WAKU
  6
CONTINUOUS
 10
369.73149000000001
 20
285.57602099999991
 30
0.0
 11
369.24130299999962
 21
285.15413199999989
 31
0.0
 12
369.635696
 22
285.18040400000001
 32
0.0
 13
369.635696
 23
285.18040400000001
 33
0.0
  0
SOLID
  5
14F6D
  8
WAKU
  6
CONTINUOUS
 10
369.32614599999988
 20
285.58428700000002
 30
0.0
 11
369.24130299999962
 21
285.15413199999989
 31
0.0
 12
369.73149000000001
 22
285.57602099999991
 32
0.0
 13
369.73149000000001
 23
285.57602099999991
 33
0.0
  0
SOLID
  5
14F6E
  8
WAKU
  6
CONTINUOUS
 10
370.53071199999999
 20
285.59087499999993
 30
0.0
 11
370.03529300000002
 21
285.46515399999993
 31
0.0
 12
370.26016800000002
 22
284.959969
 32
0.0
 13
370.26016800000002
 23
284.959969
 33
0.0
  0
SOLID
  5
14F6F
  8
WAKU
  6
CONTINUOUS
 10
388.45220799999993
 20
283.49999999999989
 30
0.0
 11
389.23614399999991
 21
285.65384599999987
 31
0.0
 12
383.85152900000003
 22
285.65384599999987
 32
0.0
 13
383.85152900000003
 23
285.65384599999987
 33
0.0
  0
SOLID
  5
14F70
  8
WAKU
  6
CONTINUOUS
 10
383.85152900000003
 20
285.65384599999987
 30
0.0
 11
383.06759299999987
 21
283.49999999999989
 31
0.0
 12
388.45220799999993
 22
283.49999999999989
 32
0.0
 13
388.45220799999993
 23
283.49999999999989
 33
0.0
  0
SOLID
  5
14F71
  8
WAKU
  6
CONTINUOUS
 10
391.17460599999998
 20
285.65384599999987
 30
0.0
 11
390.39067
 21
283.49999999999989
 31
0.0
 12
395.45220799999993
 22
283.49999999999989
 32
0.0
 13
395.45220799999993
 23
283.49999999999989
 33
0.0
  0
SOLID
  5
14F72
  8
WAKU
  6
CONTINUOUS
 10
395.45220799999993
 20
283.49999999999989
 30
0.0
 11
395.159221
 21
285.65384599999987
 31
0.0
 12
391.17460599999998
 22
285.65384599999987
 32
0.0
 13
391.17460599999998
 23
285.65384599999987
 33
0.0
  0
SOLID
  5
14F73
  8
WAKU
  6
CONTINUOUS
 10
404.85152900000003
 20
285.65384599999987
 30
0.0
 11
404.06759299999987
 21
283.49999999999989
 31
0.0
 12
409.45220799999993
 22
283.49999999999989
 32
0.0
 13
409.45220799999993
 23
283.49999999999989
 33
0.0
  0
SOLID
  5
14F74
  8
WAKU
  6
CONTINUOUS
 10
409.45220799999993
 20
283.49999999999989
 30
0.0
 11
409.15922099999989
 21
285.65384599999987
 31
0.0
 12
404.85152900000003
 22
285.65384599999987
 32
0.0
 13
404.85152900000003
 23
285.65384599999987
 33
0.0
  0
SOLID
  5
14F75
  8
WAKU
  6
CONTINUOUS
 10
374.09068100000002
 20
285.71051999999992
 30
0.0
 11
373.195965
 21
285.2752319999999
 31
0.0
 12
373.69033499999989
 22
285.22974399999998
 32
0.0
 13
373.69033499999989
 23
285.22974399999998
 33
0.0
  0
SOLID
  5
14F76
  8
WAKU
  6
CONTINUOUS
 10
373.14526599999988
 20
285.78508900000003
 30
0.0
 11
371.98993999999999
 21
285.25143100000003
 31
0.0
 12
372.68636299999991
 22
285.32617099999982
 32
0.0
 13
372.68636299999991
 23
285.32617099999982
 33
0.0
  0
SOLID
  5
14F77
  8
WAKU
  6
CONTINUOUS
 10
372.64629600000001
 20
285.82550600000002
 30
0.0
 11
371.98993999999999
 21
285.25143100000003
 31
0.0
 12
373.14526599999988
 22
285.78508900000003
 32
0.0
 13
373.14526599999988
 23
285.78508900000003
 33
0.0
  0
SOLID
  5
14F78
  8
WAKU
  6
CONTINUOUS
 10
370.29715599999992
 20
285.96650899999992
 30
0.0
 11
370.03529300000002
 21
285.46515399999993
 31
0.0
 12
370.53071199999999
 22
285.59087499999993
 32
0.0
 13
370.53071199999999
 23
285.59087499999993
 33
0.0
  0
SOLID
  5
14F79
  8
WAKU
  6
CONTINUOUS
 10
369.923519
 20
286.03102799999982
 30
0.0
 11
369.32614599999988
 21
285.58428700000002
 31
0.0
 12
369.73149000000001
 22
285.57602099999991
 32
0.0
 13
369.73149000000001
 23
285.57602099999991
 33
0.0
  0
SOLID
  5
14F7A
  8
WAKU
  6
CONTINUOUS
 10
369.50262700000002
 20
286.05359299999992
 30
0.0
 11
369.32614599999988
 21
285.58428700000002
 31
0.0
 12
369.923519
 22
286.03102799999982
 32
0.0
 13
369.923519
 23
286.03102799999982
 33
0.0
  0
SOLID
  5
14F7B
  8
WAKU
  6
CONTINUOUS
 10
379.39714500000002
 20
286.13846199999989
 30
0.0
 11
378.436824
 21
283.49999999999989
 31
0.0
 12
379.51374700000002
 22
283.49999999999989
 32
0.0
 13
379.51374700000002
 23
283.49999999999989
 33
0.0
  0
SOLID
  5
14F7C
  8
WAKU
  6
CONTINUOUS
 10
380.49366700000002
 20
286.19230800000003
 30
0.0
 11
379.39714500000002
 21
286.13846199999989
 31
0.0
 12
379.51374700000002
 22
283.49999999999989
 32
0.0
 13
379.51374700000002
 23
283.49999999999989
 33
0.0
  0
SOLID
  5
14F7D
  8
WAKU
  6
CONTINUOUS
 10
382.75520499999988
 20
286.19230800000003
 30
0.0
 11
380.49366700000002
 21
286.19230800000003
 31
0.0
 12
381.775285
 22
283.49999999999989
 32
0.0
 13
381.775285
 23
283.49999999999989
 33
0.0
  0
SOLID
  5
14F7E
  8
WAKU
  6
CONTINUOUS
 10
377.15520499999991
 20
286.19230800000003
 30
0.0
 11
380.49366700000002
 21
286.19230800000003
 31
0.0
 12
382.75520499999988
 22
286.19230800000003
 32
0.0
 13
382.75520499999988
 23
286.19230800000003
 33
0.0
  0
SOLID
  5
14F7F
  8
WAKU
  6
CONTINUOUS
 10
377.15520499999991
 20
286.19230800000003
 30
0.0
 11
379.39714500000002
 21
286.13846199999989
 31
0.0
 12
380.49366700000002
 22
286.19230800000003
 32
0.0
 13
380.49366700000002
 23
286.19230800000003
 33
0.0
  0
SOLID
  5
14F80
  8
WAKU
  6
CONTINUOUS
 10
377.15520499999991
 20
286.19230800000003
 30
0.0
 11
376.17528499999992
 21
283.49999999999989
 31
0.0
 12
379.39714500000002
 22
286.13846199999989
 32
0.0
 13
379.39714500000002
 23
286.13846199999989
 33
0.0
  0
SOLID
  5
14F81
  8
WAKU
  6
CONTINUOUS
 10
374.427865
 20
286.20560899999992
 30
0.0
 11
373.195965
 21
285.2752319999999
 31
0.0
 12
374.09068100000002
 22
285.71051999999992
 32
0.0
 13
374.09068100000002
 23
285.71051999999992
 33
0.0
  0
SOLID
  5
14F82
  8
WAKU
  6
CONTINUOUS
 10
373.98505
 20
286.23371800000001
 30
0.0
 11
373.195965
 21
285.2752319999999
 31
0.0
 12
374.427865
 22
286.20560899999992
 32
0.0
 13
374.427865
 23
286.20560899999992
 33
0.0
  0
SOLID
  5
14F83
  8
WAKU
  6
CONTINUOUS
 10
370.97189600000002
 20
286.26847099999992
 30
0.0
 11
370.29715599999992
 21
285.96650899999992
 31
0.0
 12
370.53071199999999
 22
285.59087499999993
 32
0.0
 13
370.53071199999999
 23
285.59087499999993
 33
0.0
  0
SOLID
  5
14F84
  8
WAKU
  6
CONTINUOUS
 10
373.553316
 20
286.27722899999992
 30
0.0
 11
372.64629600000001
 21
285.82550600000002
 31
0.0
 12
373.14526599999988
 22
285.78508900000003
 32
0.0
 13
373.14526599999988
 23
285.78508900000003
 33
0.0
  0
SOLID
  5
14F85
  8
WAKU
  6
CONTINUOUS
 10
370.63867099999987
 20
286.47300000000001
 30
0.0
 11
370.29715599999992
 21
285.96650899999992
 31
0.0
 12
370.97189600000002
 22
286.26847099999992
 32
0.0
 13
370.97189600000002
 23
286.26847099999992
 33
0.0
  0
SOLID
  5
14F86
  8
WAKU
  6
CONTINUOUS
 10
373.22023799999988
 20
286.48191999999989
 30
0.0
 11
372.64629600000001
 21
285.82550600000002
 31
0.0
 12
373.553316
 22
286.27722899999992
 32
0.0
 13
373.553316
 23
286.27722899999992
 33
0.0
  0
SOLID
  5
14F87
  8
WAKU
  6
CONTINUOUS
 10
370.20703500000002
 20
286.51657
 30
0.0
 11
369.50262700000002
 21
286.05359299999992
 31
0.0
 12
369.923519
 22
286.03102799999982
 32
0.0
 13
369.923519
 23
286.03102799999982
 33
0.0
  0
SOLID
  5
14F88
  8
WAKU
  6
CONTINUOUS
 10
369.76426499999991
 20
286.54481199999992
 30
0.0
 11
369.50262700000002
 21
286.05359299999992
 31
0.0
 12
370.20703500000002
 22
286.51657
 32
0.0
 13
370.20703500000002
 23
286.51657
 33
0.0
  0
SOLID
  5
14F89
  8
WAKU
  6
CONTINUOUS
 10
374.689503
 20
286.69682799999998
 30
0.0
 11
373.98505
 21
286.23371800000001
 31
0.0
 12
374.427865
 22
286.20560899999992
 32
0.0
 13
374.427865
 23
286.20560899999992
 33
0.0
  0
SOLID
  5
14F8A
  8
WAKU
  6
CONTINUOUS
 10
374.268507
 20
286.71927799999992
 30
0.0
 11
373.98505
 21
286.23371800000001
 31
0.0
 12
374.689503
 22
286.69682799999998
 32
0.0
 13
374.689503
 23
286.69682799999998
 33
0.0
  0
SOLID
  5
14F8B
  8
WAKU
  6
CONTINUOUS
 10
373.89484299999992
 20
286.78369300000008
 30
0.0
 11
373.22023799999988
 21
286.48191999999989
 31
0.0
 12
373.553316
 22
286.27722899999992
 32
0.0
 13
373.553316
 23
286.27722899999992
 33
0.0
  0
SOLID
  5
14F8C
  8
WAKU
  6
CONTINUOUS
 10
371.54582699999992
 20
286.92489299999988
 30
0.0
 11
370.63867099999987
 21
286.47300000000001
 31
0.0
 12
370.97189600000002
 22
286.26847099999992
 32
0.0
 13
370.97189600000002
 23
286.26847099999992
 33
0.0
  0
SOLID
  5
14F8D
  8
WAKU
  6
CONTINUOUS
 10
371.04671999999999
 20
286.96517399999999
 30
0.0
 11
370.63867099999987
 21
286.47300000000001
 31
0.0
 12
371.54582699999992
 22
286.92489299999988
 32
0.0
 13
371.54582699999992
 23
286.92489299999988
 33
0.0
  0
SOLID
  5
14F8E
  8
WAKU
  6
CONTINUOUS
 10
370.10144899999989
 20
287.03990099999982
 30
0.0
 11
369.76426499999991
 21
286.54481199999992
 31
0.0
 12
370.20703500000002
 22
286.51657
 32
0.0
 13
370.20703500000002
 23
286.51657
 33
0.0
  0
SOLID
  5
14F8F
  8
WAKU
  6
CONTINUOUS
 10
373.66135299999991
 20
287.15953400000001
 30
0.0
 11
373.22023799999988
 21
286.48191999999989
 31
0.0
 12
373.89484299999992
 22
286.78369300000008
 32
0.0
 13
373.89484299999992
 23
286.78369300000008
 33
0.0
  0
SOLID
  5
14F90
  8
WAKU
  6
CONTINUOUS
 10
374.86598399999991
 20
287.166134
 30
0.0
 11
374.268507
 21
286.71927799999992
 31
0.0
 12
374.689503
 22
286.69682799999998
 32
0.0
 13
374.689503
 23
286.69682799999998
 33
0.0
  0
SOLID
  5
14F91
  8
WAKU
  6
CONTINUOUS
 10
374.46071000000001
 20
287.17424799999992
 30
0.0
 11
374.268507
 21
286.71927799999992
 31
0.0
 12
374.86598399999991
 22
287.166134
 32
0.0
 13
374.86598399999991
 23
287.166134
 33
0.0
  0
SOLID
  5
14F92
  8
WAKU
  6
CONTINUOUS
 10
374.15673199999992
 20
287.28502999999989
 30
0.0
 11
373.66135299999991
 21
287.15953400000001
 31
0.0
 12
373.89484299999992
 22
286.78369300000008
 32
0.0
 13
373.89484299999992
 23
286.78369300000008
 33
0.0
  0
SOLID
  5
14F93
  8
WAKU
  6
CONTINUOUS
 10
371.50563199999988
 20
287.424128
 30
0.0
 11
371.04671999999999
 21
286.96517399999999
 31
0.0
 12
371.54582699999992
 22
286.92489299999988
 32
0.0
 13
371.54582699999992
 23
286.92489299999988
 33
0.0
  0
SOLID
  5
14F94
  8
WAKU
  6
CONTINUOUS
 10
370.99609800000002
 20
287.47510799999992
 30
0.0
 11
370.10144899999989
 21
287.03990099999982
 31
0.0
 12
370.20703500000002
 22
286.51657
 32
0.0
 13
370.20703500000002
 23
286.51657
 33
0.0
  0
SOLID
  5
14F95
  8
WAKU
  6
CONTINUOUS
 10
372.202181
 20
287.49899099999999
 30
0.0
 11
371.50563199999988
 21
287.424128
 31
0.0
 12
371.54582699999992
 22
286.92489299999988
 32
0.0
 13
371.54582699999992
 23
286.92489299999988
 33
0.0
  0
SOLID
  5
14F96
  8
WAKU
  6
CONTINUOUS
 10
370.50179500000002
 20
287.52067699999992
 30
0.0
 11
370.10144899999989
 21
287.03990099999982
 31
0.0
 12
370.99609800000002
 22
287.47510799999992
 32
0.0
 13
370.99609800000002
 23
287.47510799999992
 33
0.0
  0
SOLID
  5
14F97
  8
WAKU
  6
CONTINUOUS
 10
374.55636099999998
 20
287.56986399999988
 30
0.0
 11
374.46071000000001
 21
287.17424799999992
 31
0.0
 12
374.86598399999991
 22
287.166134
 32
0.0
 13
374.86598399999991
 23
287.166134
 33
0.0
  0
SOLID
  5
14F98
  8
WAKU
  6
CONTINUOUS
 10
393.17245600000001
 20
287.592308
 30
0.0
 11
391.70356499999991
 21
286.51538499999998
 31
0.0
 12
392.78048799999999
 22
286.51538499999998
 32
0.0
 13
392.78048799999999
 23
286.51538499999998
 33
0.0
  0
SOLID
  5
14F99
  8
WAKU
  6
CONTINUOUS
 10
395.86476299999993
 20
287.592308
 30
0.0
 11
395.159221
 21
285.65384599999987
 31
0.0
 12
395.45220799999993
 22
283.49999999999989
 32
0.0
 13
395.45220799999993
 23
283.49999999999989
 33
0.0
  0
SOLID
  5
14F9A
  8
WAKU
  6
CONTINUOUS
 10
396.941687
 20
287.592308
 30
0.0
 11
393.17245600000001
 21
287.592308
 31
0.0
 12
395.86476299999993
 22
287.592308
 32
0.0
 13
395.86476299999993
 23
287.592308
 33
0.0
  0
SOLID
  5
14F9B
  8
WAKU
  6
CONTINUOUS
 10
396.941687
 20
287.592308
 30
0.0
 11
395.86476299999993
 21
287.592308
 31
0.0
 12
395.45220799999993
 22
283.49999999999989
 32
0.0
 13
395.45220799999993
 23
283.49999999999989
 33
0.0
  0
SOLID
  5
14F9C
  8
WAKU
  6
CONTINUOUS
 10
392.09553299999988
 20
287.592308
 30
0.0
 11
396.941687
 21
287.592308
 31
0.0
 12
397.74937899999998
 22
287.592308
 32
0.0
 13
397.74937899999998
 23
287.592308
 33
0.0
  0
SOLID
  5
14F9D
  8
WAKU
  6
CONTINUOUS
 10
392.09553299999988
 20
287.592308
 30
0.0
 11
393.17245600000001
 21
287.592308
 31
0.0
 12
396.941687
 22
287.592308
 32
0.0
 13
396.941687
 23
287.592308
 33
0.0
  0
SOLID
  5
14F9E
  8
WAKU
  6
CONTINUOUS
 10
392.09553299999988
 20
287.592308
 30
0.0
 11
391.70356499999991
 21
286.51538499999998
 31
0.0
 12
393.17245600000001
 22
287.592308
 32
0.0
 13
393.17245600000001
 23
287.592308
 33
0.0
  0
SOLID
  5
14F9F
  8
WAKU
  6
CONTINUOUS
 10
374.950827
 20
287.59628900000001
 30
0.0
 11
374.55636099999998
 21
287.56986399999988
 31
0.0
 12
374.86598399999991
 22
287.166134
 32
0.0
 13
374.86598399999991
 23
287.166134
 33
0.0
  0
SOLID
  5
14FA0
  8
WAKU
  6
CONTINUOUS
 10
374.32892500000003
 20
287.76198699999992
 30
0.0
 11
373.66135299999991
 21
287.15953400000001
 31
0.0
 12
374.15673199999992
 22
287.28502999999989
 32
0.0
 13
374.15673199999992
 23
287.28502999999989
 33
0.0
  0
SOLID
  5
14FA1
  8
WAKU
  6
CONTINUOUS
 10
373.93207100000001
 20
287.79040199999992
 30
0.0
 11
373.66135299999991
 21
287.15953400000001
 31
0.0
 12
374.32892500000003
 22
287.76198699999992
 32
0.0
 13
374.32892500000003
 23
287.76198699999992
 33
0.0
  0
SOLID
  5
14FA2
  8
WAKU
  6
CONTINUOUS
 10
371.99778300000003
 20
287.83223500000003
 30
0.0
 11
371.50563199999988
 21
287.424128
 31
0.0
 12
372.202181
 22
287.49899099999999
 32
0.0
 13
372.202181
 23
287.49899099999999
 33
0.0
  0
SOLID
  5
14FA3
  8
WAKU
  6
CONTINUOUS
 10
374.561802
 20
287.87725299999983
 30
0.0
 11
374.55636099999998
 21
287.56986399999988
 31
0.0
 12
374.950827
 22
287.59628900000001
 32
0.0
 13
374.950827
 23
287.59628900000001
 33
0.0
  0
SOLID
  5
14FA4
  8
WAKU
  6
CONTINUOUS
 10
372.87987799999991
 20
287.94005699999991
 30
0.0
 11
371.99778300000003
 21
287.83223500000003
 31
0.0
 12
372.202181
 22
287.49899099999999
 32
0.0
 13
372.202181
 23
287.49899099999999
 33
0.0
  0
SOLID
  5
14FA5
  8
WAKU
  6
CONTINUOUS
 10
370.95059900000001
 20
287.96947999999992
 30
0.0
 11
370.50179500000002
 21
287.52067699999992
 31
0.0
 12
370.99609800000002
 22
287.47510799999992
 32
0.0
 13
370.99609800000002
 23
287.47510799999992
 33
0.0
  0
SOLID
  5
14FA6
  8
WAKU
  6
CONTINUOUS
 10
374.94091500000002
 20
287.97149300000001
 30
0.0
 11
374.561802
 21
287.87725299999983
 31
0.0
 12
374.950827
 22
287.59628900000001
 32
0.0
 13
374.950827
 23
287.59628900000001
 33
0.0
  0
SOLID
  5
14FA7
  8
WAKU
  6
CONTINUOUS
 10
374.502951
 20
288.07791800000001
 30
0.0
 11
374.561802
 21
287.87725299999983
 31
0.0
 12
374.94091500000002
 22
287.97149300000001
 32
0.0
 13
374.94091500000002
 23
287.97149300000001
 33
0.0
  0
SOLID
  5
14FA8
  8
WAKU
  6
CONTINUOUS
 10
408.51346299999989
 20
286.83846199999999
 30
0.0
 11
408.98382400000003
 21
288.13076899999982
 31
0.0
 12
405.75305500000002
 22
288.13076899999982
 32
0.0
 13
405.75305500000002
 23
288.13076899999982
 33
0.0
  0
SOLID
  5
14FA9
  8
WAKU
  6
CONTINUOUS
 10
405.75305500000002
 20
288.13076899999982
 30
0.0
 11
405.28269399999999
 21
286.83846199999999
 31
0.0
 12
408.51346299999989
 22
286.83846199999999
 32
0.0
 13
408.51346299999989
 23
286.83846199999999
 33
0.0
  0
SOLID
  5
14FAA
  8
WAKU
  6
CONTINUOUS
 10
372.50426900000002
 20
288.17382099999992
 30
0.0
 11
371.99778300000003
 21
287.83223500000003
 31
0.0
 12
372.87987799999991
 22
287.94005699999991
 32
0.0
 13
372.87987799999991
 23
287.94005699999991
 33
0.0
  0
SOLID
  5
14FAB
  8
WAKU
  6
CONTINUOUS
 10
374.40481
 20
288.19624900000002
 30
0.0
 11
373.93207100000001
 21
287.79040199999992
 31
0.0
 12
374.32892500000003
 22
287.76198699999992
 32
0.0
 13
374.32892500000003
 23
287.76198699999992
 33
0.0
  0
SOLID
  5
14FAC
  8
WAKU
  6
CONTINUOUS
 10
374.40481
 20
288.19624900000002
 30
0.0
 11
374.502951
 21
288.07791800000001
 31
0.0
 12
374.94091500000002
 22
287.97149300000001
 32
0.0
 13
374.94091500000002
 23
287.97149300000001
 33
0.0
  0
SOLID
  5
14FAD
  8
WAKU
  6
CONTINUOUS
 10
373.510738
 20
288.21123999999998
 30
0.0
 11
372.50426900000002
 21
288.17382099999992
 31
0.0
 12
372.87987799999991
 22
287.94005699999991
 32
0.0
 13
372.87987799999991
 23
287.94005699999991
 33
0.0
  0
SOLID
  5
14FAE
  8
WAKU
  6
CONTINUOUS
 10
371.954587
 20
288.26428399999992
 30
0.0
 11
370.95059900000001
 21
287.96947999999992
 31
0.0
 12
370.99609800000002
 22
287.47510799999992
 32
0.0
 13
370.99609800000002
 23
287.47510799999992
 33
0.0
  0
SOLID
  5
14FAF
  8
WAKU
  6
CONTINUOUS
 10
374.836612
 20
288.27796699999999
 30
0.0
 11
374.40481
 21
288.19624900000002
 31
0.0
 12
374.94091500000002
 22
287.97149300000001
 32
0.0
 13
374.94091500000002
 23
287.97149300000001
 33
0.0
  0
SOLID
  5
14FB0
  8
WAKU
  6
CONTINUOUS
 10
374.01922899999988
 20
288.29856899999982
 30
0.0
 11
372.50426900000002
 21
288.17382099999992
 31
0.0
 12
373.510738
 22
288.21123999999998
 32
0.0
 13
373.510738
 23
288.21123999999998
 33
0.0
  0
SOLID
  5
14FB1
  8
WAKU
  6
CONTINUOUS
 10
374.01922899999988
 20
288.29856899999982
 30
0.0
 11
374.40481
 21
288.19624900000002
 31
0.0
 12
374.836612
 22
288.27796699999999
 32
0.0
 13
374.836612
 23
288.27796699999999
 33
0.0
  0
SOLID
  5
14FB2
  8
WAKU
  6
CONTINUOUS
 10
374.01922899999988
 20
288.29856899999982
 30
0.0
 11
373.93207100000001
 21
287.79040199999992
 31
0.0
 12
374.40481
 22
288.19624900000002
 32
0.0
 13
374.40481
 23
288.19624900000002
 33
0.0
  0
SOLID
  5
14FB3
  8
WAKU
  6
CONTINUOUS
 10
371.43137400000001
 20
288.36982599999999
 30
0.0
 11
370.95059900000001
 21
287.96947999999992
 31
0.0
 12
371.954587
 22
288.26428399999992
 32
0.0
 13
371.954587
 23
288.26428399999992
 33
0.0
  0
SOLID
  5
14FB4
  8
WAKU
  6
CONTINUOUS
 10
373.00563899999992
 20
288.43576799999988
 30
0.0
 11
372.50426900000002
 21
288.17382099999992
 31
0.0
 12
374.01922899999988
 22
288.29856899999982
 32
0.0
 13
374.01922899999988
 23
288.29856899999982
 33
0.0
  0
SOLID
  5
14FB5
  8
WAKU
  6
CONTINUOUS
 10
374.641749
 20
288.50445200000001
 30
0.0
 11
373.00563899999992
 21
288.43576799999988
 31
0.0
 12
374.01922899999988
 22
288.29856899999982
 32
0.0
 13
374.01922899999988
 23
288.29856899999982
 33
0.0
  0
SOLID
  5
14FB6
  8
WAKU
  6
CONTINUOUS
 10
374.641749
 20
288.50445200000001
 30
0.0
 11
374.01922899999988
 21
288.29856899999982
 31
0.0
 12
374.836612
 22
288.27796699999999
 32
0.0
 13
374.836612
 23
288.27796699999999
 33
0.0
  0
SOLID
  5
14FB7
  8
WAKU
  6
CONTINUOUS
 10
372.44023499999992
 20
288.54758500000003
 30
0.0
 11
371.43137400000001
 21
288.36982599999999
 31
0.0
 12
371.954587
 22
288.26428399999992
 32
0.0
 13
371.954587
 23
288.26428399999992
 33
0.0
  0
SOLID
  5
14FB8
  8
WAKU
  6
CONTINUOUS
 10
373.48263600000001
 20
288.60801400000003
 30
0.0
 11
373.00563899999992
 21
288.43576799999988
 31
0.0
 12
374.641749
 22
288.50445200000001
 32
0.0
 13
374.641749
 23
288.50445200000001
 33
0.0
  0
SOLID
  5
14FB9
  8
WAKU
  6
CONTINUOUS
 10
374.36348399999991
 20
288.64263
 30
0.0
 11
373.48263600000001
 21
288.60801400000003
 31
0.0
 12
374.641749
 22
288.50445200000001
 32
0.0
 13
374.641749
 23
288.50445200000001
 33
0.0
  0
SOLID
  5
14FBA
  8
WAKU
  6
CONTINUOUS
 10
373.91694100000001
 20
288.683944
 30
0.0
 11
373.48263600000001
 21
288.60801400000003
 31
0.0
 12
374.36348399999991
 22
288.64263
 32
0.0
 13
374.36348399999991
 23
288.64263
 33
0.0
  0
SOLID
  5
14FBB
  8
WAKU
  6
CONTINUOUS
 10
371.92646400000001
 20
288.70701000000003
 30
0.0
 11
371.43137400000001
 21
288.36982599999999
 31
0.0
 12
372.44023499999992
 22
288.54758500000003
 32
0.0
 13
372.44023499999992
 23
288.54758500000003
 33
0.0
  0
SOLID
  5
14FBC
  8
WAKU
  6
CONTINUOUS
 10
372.89513999999991
 20
288.74006500000002
 30
0.0
 11
371.92646400000001
 21
288.70701000000003
 31
0.0
 12
372.44023499999992
 22
288.54758500000003
 32
0.0
 13
372.44023499999992
 23
288.54758500000003
 33
0.0
  0
SOLID
  5
14FBD
  8
WAKU
  6
CONTINUOUS
 10
381.52485099999961
 20
288.7769229999999
 30
0.0
 11
377.15520499999991
 21
286.19230800000003
 31
0.0
 12
382.75520499999988
 22
286.19230800000003
 32
0.0
 13
382.75520499999988
 23
286.19230800000003
 33
0.0
  0
SOLID
  5
14FBE
  8
WAKU
  6
CONTINUOUS
 10
380.31131299999993
 20
288.7769229999999
 30
0.0
 11
381.52485099999961
 21
288.7769229999999
 31
0.0
 12
383.69592799999992
 22
288.7769229999999
 32
0.0
 13
383.69592799999992
 23
288.7769229999999
 33
0.0
  0
SOLID
  5
14FBF
  8
WAKU
  6
CONTINUOUS
 10
380.31131299999993
 20
288.7769229999999
 30
0.0
 11
377.15520499999991
 21
286.19230800000003
 31
0.0
 12
381.52485099999961
 22
288.7769229999999
 32
0.0
 13
381.52485099999961
 23
288.7769229999999
 33
0.0
  0
SOLID
  5
14FC0
  8
WAKU
  6
CONTINUOUS
 10
373.799148
 20
288.78192899999988
 30
0.0
 11
373.91694100000001
 21
288.683944
 31
0.0
 12
374.36348399999991
 22
288.64263
 32
0.0
 13
374.36348399999991
 23
288.64263
 33
0.0
  0
SOLID
  5
14FC1
  8
WAKU
  6
CONTINUOUS
 10
373.29085699999962
 20
288.83558099999982
 30
0.0
 11
371.92646400000001
 21
288.70701000000003
 31
0.0
 12
372.89513999999991
 22
288.74006500000002
 32
0.0
 13
372.89513999999991
 23
288.74006500000002
 33
0.0
  0
SOLID
  5
14FC2
  8
WAKU
  6
CONTINUOUS
 10
373.59799600000002
 20
288.84090200000003
 30
0.0
 11
373.799148
 21
288.78192899999988
 31
0.0
 12
374.36348399999991
 22
288.64263
 32
0.0
 13
374.36348399999991
 23
288.64263
 33
0.0
  0
SOLID
  5
14FC3
  8
WAKU
  6
CONTINUOUS
 10
401.25888099999992
 20
286.73076900000001
 30
0.0
 11
402.04281700000001
 21
288.884615
 31
0.0
 12
400.96589399999988
 22
288.884615
 32
0.0
 13
400.96589399999988
 23
288.884615
 33
0.0
  0
SOLID
  5
14FC4
  8
WAKU
  6
CONTINUOUS
 10
400.96589399999988
 20
288.884615
 30
0.0
 11
400.18195800000001
 21
286.73076900000001
 31
0.0
 12
401.25888099999992
 22
286.73076900000001
 32
0.0
 13
401.25888099999992
 23
286.73076900000001
 33
0.0
  0
SOLID
  5
14FC5
  8
WAKU
  6
CONTINUOUS
 10
401.42477599999989
 20
285.115385
 30
0.0
 11
403.87358699999999
 21
288.884615
 31
0.0
 12
402.7966629999998
 22
288.884615
 32
0.0
 13
402.7966629999998
 23
288.884615
 33
0.0
  0
SOLID
  5
14FC6
  8
WAKU
  6
CONTINUOUS
 10
403.87358699999999
 20
288.884615
 30
0.0
 11
401.42477599999989
 21
285.115385
 31
0.0
 12
401.913747
 22
283.49999999999989
 32
0.0
 13
401.913747
 23
283.49999999999989
 33
0.0
  0
SOLID
  5
14FC7
  8
WAKU
  6
CONTINUOUS
 10
399.858881
 20
286.73076900000001
 30
0.0
 11
400.64281699999992
 21
288.884615
 31
0.0
 12
399.56589400000001
 22
288.884615
 32
0.0
 13
399.56589400000001
 23
288.884615
 33
0.0
  0
SOLID
  5
14FC8
  8
WAKU
  6
CONTINUOUS
 10
399.56589400000001
 20
288.884615
 30
0.0
 11
398.78195799999997
 21
286.73076900000001
 31
0.0
 12
399.858881
 22
286.73076900000001
 32
0.0
 13
399.858881
 23
286.73076900000001
 33
0.0
  0
SOLID
  5
14FC9
  8
WAKU
  6
CONTINUOUS
 10
374.22530599999988
 20
288.92089499999997
 30
0.0
 11
373.59799600000002
 21
288.84090200000003
 31
0.0
 12
374.36348399999991
 22
288.64263
 32
0.0
 13
374.36348399999991
 23
288.64263
 33
0.0
  0
SOLID
  5
14FCA
  8
WAKU
  6
CONTINUOUS
 10
372.41768300000001
 20
288.96864799999992
 30
0.0
 11
373.59799600000002
 21
288.84090200000003
 31
0.0
 12
374.22530599999988
 22
288.92089499999997
 32
0.0
 13
374.22530599999988
 23
288.92089499999997
 33
0.0
  0
SOLID
  5
14FCB
  8
WAKU
  6
CONTINUOUS
 10
372.41768300000001
 20
288.96864799999992
 30
0.0
 11
373.29085699999962
 21
288.83558099999982
 31
0.0
 12
373.59799600000002
 22
288.84090200000003
 32
0.0
 13
373.59799600000002
 23
288.84090200000003
 33
0.0
  0
SOLID
  5
14FCC
  8
WAKU
  6
CONTINUOUS
 10
372.41768300000001
 20
288.96864799999992
 30
0.0
 11
371.92646400000001
 21
288.70701000000003
 31
0.0
 12
373.29085699999962
 22
288.83558099999982
 32
0.0
 13
373.29085699999962
 23
288.83558099999982
 33
0.0
  0
SOLID
  5
14FCD
  8
WAKU
  6
CONTINUOUS
 10
373.99882100000002
 20
289.11575699999992
 30
0.0
 11
372.41768300000001
 21
288.96864799999992
 31
0.0
 12
374.22530599999988
 22
288.92089499999997
 32
0.0
 13
374.22530599999988
 23
288.92089499999997
 33
0.0
  0
SOLID
  5
14FCE
  8
WAKU
  6
CONTINUOUS
 10
372.88698799999992
 20
289.145129
 30
0.0
 11
372.41768300000001
 21
288.96864799999992
 31
0.0
 12
373.99882100000002
 22
289.11575699999992
 32
0.0
 13
373.99882100000002
 23
289.11575699999992
 33
0.0
  0
SOLID
  5
14FCF
  8
WAKU
  6
CONTINUOUS
 10
398.33733100000001
 20
289.20769200000001
 30
0.0
 11
391.28784000000002
 21
287.592308
 31
0.0
 12
392.09553299999988
 22
287.592308
 32
0.0
 13
392.09553299999988
 23
287.592308
 33
0.0
  0
SOLID
  5
14FD0
  8
WAKU
  6
CONTINUOUS
 10
398.33733100000001
 20
289.20769200000001
 30
0.0
 11
392.09553299999988
 21
287.592308
 31
0.0
 12
397.74937899999998
 22
287.592308
 32
0.0
 13
397.74937899999998
 23
287.592308
 33
0.0
  0
SOLID
  5
14FD1
  8
WAKU
  6
CONTINUOUS
 10
391.28784000000002
 20
287.592308
 30
0.0
 11
398.33733100000001
 21
289.20769200000001
 31
0.0
 12
397.52963799999992
 22
289.20769200000001
 32
0.0
 13
397.52963799999992
 23
289.20769200000001
 33
0.0
  0
SOLID
  5
14FD2
  8
WAKU
  6
CONTINUOUS
 10
391.87579199999999
 20
289.20769200000001
 30
0.0
 11
391.28784000000002
 21
287.592308
 31
0.0
 12
397.52963799999992
 22
289.20769200000001
 32
0.0
 13
397.52963799999992
 23
289.20769200000001
 33
0.0
  0
SOLID
  5
14FD3
  8
WAKU
  6
CONTINUOUS
 10
397.52963799999992
 20
289.20769200000001
 30
0.0
 11
392.68348500000002
 21
289.20769200000001
 31
0.0
 12
391.87579199999999
 22
289.20769200000001
 32
0.0
 13
391.87579199999999
 23
289.20769200000001
 33
0.0
  0
SOLID
  5
14FD4
  8
WAKU
  6
CONTINUOUS
 10
393.76040799999993
 20
289.20769200000001
 30
0.0
 11
392.68348500000002
 21
289.20769200000001
 31
0.0
 12
397.52963799999992
 22
289.20769200000001
 32
0.0
 13
397.52963799999992
 23
289.20769200000001
 33
0.0
  0
SOLID
  5
14FD5
  8
WAKU
  6
CONTINUOUS
 10
397.52963799999992
 20
289.20769200000001
 30
0.0
 11
396.45271500000001
 21
289.20769200000001
 31
0.0
 12
393.76040799999993
 22
289.20769200000001
 32
0.0
 13
393.76040799999993
 23
289.20769200000001
 33
0.0
  0
SOLID
  5
14FD6
  8
WAKU
  6
CONTINUOUS
 10
373.69234799999992
 20
289.22005999999982
 30
0.0
 11
372.88698799999992
 21
289.145129
 31
0.0
 12
373.99882100000002
 22
289.11575699999992
 32
0.0
 13
373.99882100000002
 23
289.11575699999992
 33
0.0
  0
SOLID
  5
14FD7
  8
WAKU
  6
CONTINUOUS
 10
373.31714299999999
 20
289.22997199999998
 30
0.0
 11
372.88698799999992
 21
289.145129
 31
0.0
 12
373.69234799999992
 22
289.22005999999982
 32
0.0
 13
373.69234799999992
 23
289.22005999999982
 33
0.0
  0
SOLID
  5
14FD8
  8
WAKU
  6
CONTINUOUS
 10
367.97127599999999
 20
286.22222199999982
 30
0.0
 11
372.24905299999989
 21
290.5
 31
0.0
 12
367.97127599999999
 22
290.5
 32
0.0
 13
367.97127599999999
 23
290.5
 33
0.0
  0
SOLID
  5
14FD9
  8
WAKU
  6
CONTINUOUS
 10
409.21900499999998
 20
288.7769229999999
 30
0.0
 11
409.84615400000001
 21
290.5
 31
0.0
 12
406.615385
 22
290.5
 32
0.0
 13
406.615385
 23
290.5
 33
0.0
  0
SOLID
  5
14FDA
  8
WAKU
  6
CONTINUOUS
 10
406.615385
 20
290.5
 30
0.0
 11
405.98823599999992
 21
288.7769229999999
 31
0.0
 12
409.21900499999998
 22
288.7769229999999
 32
0.0
 13
409.21900499999998
 23
288.7769229999999
 33
0.0
  0
SOLID
  5
14FDB
  8
WAKU
  6
CONTINUOUS
 10
409.15922099999989
 20
285.65384599999987
 30
0.0
 11
412.0
 21
290.5
 31
0.0
 12
410.92307699999992
 22
290.5
 32
0.0
 13
410.92307699999992
 23
290.5
 33
0.0
  0
SOLID
  5
14FDC
  8
WAKU
  6
CONTINUOUS
 10
412.0
 20
290.5
 30
0.0
 11
409.15922099999989
 21
285.65384599999987
 31
0.0
 12
409.45220799999993
 22
283.49999999999989
 32
0.0
 13
409.45220799999993
 23
283.49999999999989
 33
0.0
  0
SOLID
  5
14FDD
  8
WAKU
  6
CONTINUOUS
 10
378.09592799999979
 20
288.7769229999999
 30
0.0
 11
384.32307700000001
 21
290.5
 31
0.0
 12
378.72307699999988
 22
290.5
 32
0.0
 13
378.72307699999988
 23
290.5
 33
0.0
  0
SOLID
  5
14FDE
  8
WAKU
  6
CONTINUOUS
 10
384.32307700000001
 20
290.5
 30
0.0
 11
378.09592799999979
 21
288.7769229999999
 31
0.0
 12
380.31131299999993
 22
288.7769229999999
 32
0.0
 13
380.31131299999993
 23
288.7769229999999
 33
0.0
  0
SOLID
  5
14FDF
  8
WAKU
  6
CONTINUOUS
 10
384.32307700000001
 20
290.5
 30
0.0
 11
380.31131299999993
 21
288.7769229999999
 31
0.0
 12
383.69592799999992
 22
288.7769229999999
 32
0.0
 13
383.69592799999992
 23
288.7769229999999
 33
0.0
  0
SOLID
  5
14FE0
  8
WAKU
  6
CONTINUOUS
 10
390.37285099999991
 20
288.7769229999999
 30
0.0
 11
391.0
 21
290.5
 31
0.0
 12
385.615385
 22
290.5
 32
0.0
 13
385.615385
 23
290.5
 33
0.0
  0
SOLID
  5
14FE1
  8
WAKU
  6
CONTINUOUS
 10
385.615385
 20
290.5
 30
0.0
 11
384.98823599999992
 21
288.7769229999999
 31
0.0
 12
390.37285099999991
 22
288.7769229999999
 32
0.0
 13
390.37285099999991
 23
288.7769229999999
 33
0.0
  0
SOLID
  5
14FE2
  8
WAKU
  6
CONTINUOUS
 10
393.76040799999993
 20
289.20769200000001
 30
0.0
 11
394.23076900000001
 21
290.5
 31
0.0
 12
393.15384599999999
 22
290.5
 32
0.0
 13
393.15384599999999
 23
290.5
 33
0.0
  0
SOLID
  5
14FE3
  8
WAKU
  6
CONTINUOUS
 10
393.15384599999999
 20
290.5
 30
0.0
 11
392.68348500000002
 21
289.20769200000001
 31
0.0
 12
393.76040799999993
 22
289.20769200000001
 32
0.0
 13
393.76040799999993
 23
289.20769200000001
 33
0.0
  0
SOLID
  5
14FE4
  8
WAKU
  6
CONTINUOUS
 10
396.45271500000001
 20
289.20769200000001
 30
0.0
 11
398.0
 21
290.5
 31
0.0
 12
396.92307699999992
 22
290.5
 32
0.0
 13
396.92307699999992
 23
290.5
 33
0.0
  0
SOLID
  5
14FE5
  8
WAKU
  6
CONTINUOUS
 10
398.0
 20
290.5
 30
0.0
 11
396.45271500000001
 21
289.20769200000001
 31
0.0
 12
397.52963799999992
 22
289.20769200000001
 32
0.0
 13
397.52963799999992
 23
289.20769200000001
 33
0.0
  0
ENDBLK
  5
14FE6
  8
0
  0
BLOCK
  8
0
  6
BYBLOCK
 62
     0
  2
_DOTSMALL
 70
     2
 10
0.0
 20
0.0
 30
0.0
  3
_DOTSMALL
  1

  0
POLYLINE
  5
14FE9
  8
0
  6
BYBLOCK
 62
     0
 66
     1
 10
0.0
 20
0.0
 30
0.0
 70
     1
 40
0.5
 41
0.5
  0
VERTEX
  5
15794
  8
0
  6
BYBLOCK
 62
     0
 10
-0.0625
 20
0.0
 30
0.0
 42
1.0
  0
VERTEX
  5
15795
  8
0
  6
BYBLOCK
 62
     0
 10
0.0625
 20
0.0
 30
0.0
 42
1.0
  0
SEQEND
  5
15796
  8
0
  6
BYBLOCK
 62
     0
  0
ENDBLK
  5
14FED
  8
0
  6
BYBLOCK
 62
     0
  0
BLOCK
  8
0
  2
*X4
 70
     1
 10
0.0
 20
0.0
 30
0.0
  3
*X4
  1

  0
LINE
  5
14FF0
  8
0
  6
CONTINUOUS
 62
     0
 10
-47.083227969321072
 20
-32.417034999999991
 30
0.0
 11
-48.447189000000002
 21
-33.780996030678928
 31
0.0
  0
LINE
  5
14FF1
  8
0
  6
CONTINUOUS
 62
     0
 10
-44.961907625761427
 20
-32.417034999999991
 30
0.0
 11
-48.447189000000002
 21
-35.902316374238559
 31
0.0
  0
LINE
  5
14FF2
  8
0
  6
CONTINUOUS
 62
     0
 10
-42.840587282201767
 20
-32.417034999999991
 30
0.0
 11
-48.447189000000002
 21
-38.023636717798212
 31
0.0
  0
LINE
  5
14FF3
  8
0
  6
CONTINUOUS
 62
     0
 10
-41.447188999999987
 20
-33.14495706135785
 30
0.0
 11
-48.447189000000002
 21
-40.14495706135785
 31
0.0
  0
LINE
  5
14FF4
  8
0
  6
CONTINUOUS
 62
     0
 10
-41.447188999999987
 20
-35.266277404917503
 30
0.0
 11
-46.313441939786287
 21
-40.132530344703802
 31
0.0
  0
LINE
  5
14FF5
  8
0
  6
CONTINUOUS
 62
     0
 10
-41.447188999999987
 20
-37.387597748477127
 30
0.0
 11
-43.865764919679741
 21
-39.806173668156902
 31
0.0
  0
LINE
  5
14FF6
  8
0
  6
CONTINUOUS
 62
     0
 10
-41.251803261734722
 20
-39.3135323537715
 30
0.0
 11
-41.418087899573209
 21
-39.479816991610001
 31
0.0
  0
LINE
  5
14FF7
  8
0
  6
CONTINUOUS
 62
     0
 10
-48.447189000000002
 20
-38.689112938642147
 30
0.0
 11
-46.922556397481777
 21
-40.21374554116035
 31
0.0
  0
LINE
  5
14FF8
  8
0
  6
CONTINUOUS
 62
     0
 10
-48.447189000000002
 20
-36.567792595082487
 30
0.0
 11
-45.050802978091319
 21
-39.964178616991127
 31
0.0
  0
LINE
  5
14FF9
  8
0
  6
CONTINUOUS
 62
     0
 10
-48.447189000000002
 20
-34.446472251522849
 30
0.0
 11
-43.179049558700839
 21
-39.714611692822011
 31
0.0
  0
LINE
  5
14FFA
  8
0
  6
CONTINUOUS
 62
     0
 10
-48.355305907963221
 20
-32.417034999999991
 30
0.0
 11
-41.307296139310381
 21
-39.465044768652831
 31
0.0
  0
LINE
  5
14FFB
  8
0
  6
CONTINUOUS
 62
     0
 10
-46.233985564403568
 20
-32.417034999999991
 30
0.0
 11
-41.447188999999987
 21
-37.203831564403572
 31
0.0
  0
LINE
  5
14FFC
  8
0
  6
CONTINUOUS
 62
     0
 10
-44.112665220843922
 20
-32.417034999999991
 30
0.0
 11
-41.447188999999987
 21
-35.082511220843926
 31
0.0
  0
LINE
  5
14FFD
  8
0
  6
CONTINUOUS
 62
     0
 10
-41.991344877284277
 20
-32.417034999999991
 30
0.0
 11
-41.447188999999987
 21
-32.961190877284281
 31
0.0
  0
ENDBLK
  5
14FFE
  8
0
  0
BLOCK
  8
0
  2
*X5
 70
     1
 10
0.0
 20
0.0
 30
0.0
  3
*X5
  1

  0
LINE
  5
15001
  8
0
  6
CONTINUOUS
 62
     0
 10
-78.903033122715684
 20
-32.417034999999991
 30
0.0
 11
-79.447189000000023
 21
-32.961190877284281
 31
0.0
  0
LINE
  5
15002
  8
0
  6
CONTINUOUS
 62
     0
 10
-76.781712779156081
 20
-32.417034999999991
 30
0.0
 11
-79.447189000000023
 21
-35.082511220843912
 31
0.0
  0
LINE
  5
15003
  8
0
  6
CONTINUOUS
 62
     0
 10
-74.660392435596421
 20
-32.417034999999991
 30
0.0
 11
-79.447189000000023
 21
-37.203831564403572
 31
0.0
  0
LINE
  5
15004
  8
0
  6
CONTINUOUS
 62
     0
 10
-72.539072092036804
 20
-32.417034999999991
 30
0.0
 11
-79.587081860689622
 21
-39.465044768652838
 31
0.0
  0
LINE
  5
15005
  8
0
  6
CONTINUOUS
 62
     0
 10
-72.447189000000023
 20
-34.446472251522863
 30
0.0
 11
-77.715328441299178
 21
-39.714611692822018
 31
0.0
  0
LINE
  5
15006
  8
0
  6
CONTINUOUS
 62
     0
 10
-72.447189000000023
 20
-36.567792595082508
 30
0.0
 11
-75.843575021908677
 21
-39.964178616991127
 31
0.0
  0
LINE
  5
15007
  8
0
  6
CONTINUOUS
 62
     0
 10
-72.447189000000023
 20
-38.689112938642147
 30
0.0
 11
-73.971821602518219
 21
-40.21374554116035
 31
0.0
  0
LINE
  5
15008
  8
0
  6
CONTINUOUS
 62
     0
 10
-79.642574738265267
 20
-39.3135323537715
 30
0.0
 11
-79.476290100426752
 21
-39.479816991610008
 31
0.0
  0
LINE
  5
15009
  8
0
  6
CONTINUOUS
 62
     0
 10
-79.447189000000023
 20
-37.387597748477113
 30
0.0
 11
-77.028613080320213
 21
-39.806173668156909
 31
0.0
  0
LINE
  5
1500A
  8
0
  6
CONTINUOUS
 62
     0
 10
-79.447189000000023
 20
-35.26627740491746
 30
0.0
 11
-74.580936060213617
 21
-40.132530344703802
 31
0.0
  0
LINE
  5
1500B
  8
0
  6
CONTINUOUS
 62
     0
 10
-79.447189000000023
 20
-33.144957061357829
 30
0.0
 11
-72.447189000000023
 21
-40.144957061357843
 31
0.0
  0
LINE
  5
1500C
  8
0
  6
CONTINUOUS
 62
     0
 10
-78.053790717798094
 20
-32.417034999999991
 30
0.0
 11
-72.447189000000023
 21
-38.023636717798169
 31
0.0
  0
LINE
  5
1500D
  8
0
  6
CONTINUOUS
 62
     0
 10
-75.932470374238562
 20
-32.417034999999991
 30
0.0
 11
-72.447189000000023
 21
-35.902316374238559
 31
0.0
  0
LINE
  5
1500E
  8
0
  6
CONTINUOUS
 62
     0
 10
-73.811150030678903
 20
-32.417034999999991
 30
0.0
 11
-72.447189000000023
 21
-33.780996030678907
 31
0.0
  0
ENDBLK
  5
1500F
  8
0
  0
BLOCK
  8
0
  2
*X6
 70
     1
 10
0.0
 20
0.0
 30
0.0
  3
*X6
  1

  0
LINE
  5
15012
  8
0
  6
CONTINUOUS
 62
     0
 10
-73.811150030678945
 20
33.582965000000002
 30
0.0
 11
-72.447189000000023
 21
34.94692603067891
 31
0.0
  0
LINE
  5
15013
  8
0
  6
CONTINUOUS
 62
     0
 10
-75.932470374238562
 20
33.582965000000009
 30
0.0
 11
-72.447189000000023
 21
37.068246374238562
 31
0.0
  0
LINE
  5
15014
  8
0
  6
CONTINUOUS
 62
     0
 10
-78.053790717798208
 20
33.582965000000009
 30
0.0
 11
-72.447189000000023
 21
39.189566717798201
 31
0.0
  0
LINE
  5
15015
  8
0
  6
CONTINUOUS
 62
     0
 10
-79.447189000000023
 20
34.310887061357853
 30
0.0
 11
-72.447189000000023
 21
41.310887061357811
 31
0.0
  0
LINE
  5
15016
  8
0
  6
CONTINUOUS
 62
     0
 10
-79.447189000000023
 20
36.432207404917492
 30
0.0
 11
-74.580936060213617
 21
41.298460344703813
 31
0.0
  0
LINE
  5
15017
  8
0
  6
CONTINUOUS
 62
     0
 10
-79.447189000000023
 20
38.55352774847713
 30
0.0
 11
-77.028613080320241
 21
40.972103668156898
 31
0.0
  0
LINE
  5
15018
  8
0
  6
CONTINUOUS
 62
     0
 10
-79.642574738265267
 20
40.47946235377151
 30
0.0
 11
-79.476290100426752
 21
40.645746991609983
 31
0.0
  0
LINE
  5
15019
  8
0
  6
CONTINUOUS
 62
     0
 10
-72.447189000000023
 20
39.85504293864215
 30
0.0
 11
-73.971821602518219
 21
41.379675541160367
 31
0.0
  0
LINE
  5
1501A
  8
0
  6
CONTINUOUS
 62
     0
 10
-72.447189000000023
 20
37.73372259508249
 30
0.0
 11
-75.843575021908677
 21
41.130108616991187
 31
0.0
  0
LINE
  5
1501B
  8
0
  6
CONTINUOUS
 62
     0
 10
-72.447189000000023
 20
35.612402251522852
 30
0.0
 11
-77.715328441299135
 21
40.880541692822007
 31
0.0
  0
LINE
  5
1501C
  8
0
  6
CONTINUOUS
 62
     0
 10
-72.539072092036804
 20
33.582965000000002
 30
0.0
 11
-79.587081860689622
 21
40.630974768652841
 31
0.0
  0
LINE
  5
1501D
  8
0
  6
CONTINUOUS
 62
     0
 10
-74.660392435596435
 20
33.58296499999998
 30
0.0
 11
-79.447189000000023
 21
38.369761564403589
 31
0.0
  0
LINE
  5
1501E
  8
0
  6
CONTINUOUS
 62
     0
 10
-76.781712779156067
 20
33.582965000000002
 30
0.0
 11
-79.447189000000023
 21
36.24844122084393
 31
0.0
  0
LINE
  5
1501F
  8
0
  6
CONTINUOUS
 62
     0
 10
-78.903033122715684
 20
33.582965000000002
 30
0.0
 11
-79.447189000000023
 21
34.127120877284291
 31
0.0
  0
ENDBLK
  5
15020
  8
0
  0
BLOCK
  8
0
  2
*X7
 70
     1
 10
0.0
 20
0.0
 30
0.0
  3
*X7
  1

  0
LINE
  5
15023
  8
0
  6
CONTINUOUS
 62
     0
 10
-41.991344877284277
 20
33.582965000000002
 30
0.0
 11
-41.447188999999987
 21
34.127120877284277
 31
0.0
  0
LINE
  5
15024
  8
0
  6
CONTINUOUS
 62
     0
 10
-44.112665220843922
 20
33.582965000000009
 30
0.0
 11
-41.447188999999987
 21
36.24844122084393
 31
0.0
  0
LINE
  5
15025
  8
0
  6
CONTINUOUS
 62
     0
 10
-46.233985564403547
 20
33.582965000000009
 30
0.0
 11
-41.447188999999987
 21
38.369761564403568
 31
0.0
  0
LINE
  5
15026
  8
0
  6
CONTINUOUS
 62
     0
 10
-48.355305907963199
 20
33.582965000000009
 30
0.0
 11
-41.307296139310381
 21
40.630974768652841
 31
0.0
  0
LINE
  5
15027
  8
0
  6
CONTINUOUS
 62
     0
 10
-48.447189000000002
 20
35.612402251522852
 30
0.0
 11
-43.179049558700839
 21
40.880541692822021
 31
0.0
  0
LINE
  5
15028
  8
0
  6
CONTINUOUS
 62
     0
 10
-48.447189000000002
 20
37.73372259508249
 30
0.0
 11
-45.050802978091319
 21
41.130108616991187
 31
0.0
  0
LINE
  5
15029
  8
0
  6
CONTINUOUS
 62
     0
 10
-48.447189000000002
 20
39.85504293864215
 30
0.0
 11
-46.922556397481777
 21
41.379675541160367
 31
0.0
  0
LINE
  5
1502A
  8
0
  6
CONTINUOUS
 62
     0
 10
-41.251803261734729
 20
40.47946235377151
 30
0.0
 11
-41.418087899573209
 21
40.645746991609983
 31
0.0
  0
LINE
  5
1502B
  8
0
  6
CONTINUOUS
 62
     0
 10
-41.447188999999987
 20
38.55352774847713
 30
0.0
 11
-43.865764919679783
 21
40.972103668156898
 31
0.0
  0
LINE
  5
1502C
  8
0
  6
CONTINUOUS
 62
     0
 10
-41.447188999999987
 20
36.432207404917492
 30
0.0
 11
-46.313441939786287
 21
41.298460344703813
 31
0.0
  0
LINE
  5
1502D
  8
0
  6
CONTINUOUS
 62
     0
 10
-41.447188999999987
 20
34.310887061357853
 30
0.0
 11
-48.447189000000002
 21
41.310887061357853
 31
0.0
  0
LINE
  5
1502E
  8
0
  6
CONTINUOUS
 62
     0
 10
-42.840587282201803
 20
33.582965000000009
 30
0.0
 11
-48.447189000000002
 21
39.189566717798201
 31
0.0
  0
LINE
  5
1502F
  8
0
  6
CONTINUOUS
 62
     0
 10
-44.961907625761427
 20
33.582965000000002
 30
0.0
 11
-48.447189000000002
 21
37.068246374238562
 31
0.0
  0
LINE
  5
15030
  8
0
  6
CONTINUOUS
 62
     0
 10
-47.083227969321072
 20
33.582965000000002
 30
0.0
 11
-48.447189000000002
 21
34.946926030678917
 31
0.0
  0
ENDBLK
  5
15031
  8
0
  0
BLOCK
  8
0
  2
*X8
 70
     1
 10
0.0
 20
0.0
 30
0.0
  3
*X8
  1

  0
LINE
  5
15034
  8
0
  6
CONTINUOUS
 62
     0
 10
-135.8111410306789
 20
33.582962000000002
 30
0.0
 11
-134.44717999999921
 21
34.946923030678931
 31
0.0
  0
LINE
  5
15035
  8
0
  6
CONTINUOUS
 62
     0
 10
-137.9324613742385
 20
33.582962000000009
 30
0.0
 11
-134.44717999999921
 21
37.068243374238563
 31
0.0
  0
LINE
  5
15036
  8
0
  6
CONTINUOUS
 62
     0
 10
-140.0537817177981
 20
33.582962000000002
 30
0.0
 11
-134.44717999999921
 21
39.189563717798201
 31
0.0
  0
LINE
  5
15037
  8
0
  6
CONTINUOUS
 62
     0
 10
-141.44718
 20
34.310884061357847
 30
0.0
 11
-134.44717999999921
 21
41.310884061357847
 31
0.0
  0
LINE
  5
15038
  8
0
  6
CONTINUOUS
 62
     0
 10
-141.44718
 20
36.432204404917492
 30
0.0
 11
-136.58092706021341
 21
41.298457344703813
 31
0.0
  0
LINE
  5
15039
  8
0
  6
CONTINUOUS
 62
     0
 10
-141.44718
 20
38.55352474847713
 30
0.0
 11
-139.02860408032021
 21
40.972100668156898
 31
0.0
  0
LINE
  5
1503A
  8
0
  6
CONTINUOUS
 62
     0
 10
-141.64256573826501
 20
40.47945935377151
 30
0.0
 11
-141.4762811004266
 21
40.645743991609983
 31
0.0
  0
LINE
  5
1503B
  8
0
  6
CONTINUOUS
 62
     0
 10
-134.44717999999921
 20
39.85503993864215
 30
0.0
 11
-135.97181260251801
 21
41.37967254116036
 31
0.0
  0
LINE
  5
1503C
  8
0
  6
CONTINUOUS
 62
     0
 10
-134.44717999999921
 20
37.733719595082491
 30
0.0
 11
-137.8435660219084
 21
41.130105616991187
 31
0.0
  0
LINE
  5
1503D
  8
0
  6
CONTINUOUS
 62
     0
 10
-134.44717999999921
 20
35.612399251522852
 30
0.0
 11
-139.7153194412991
 21
40.880538692822007
 31
0.0
  0
LINE
  5
1503E
  8
0
  6
CONTINUOUS
 62
     0
 10
-134.53906309203671
 20
33.582962000000009
 30
0.0
 11
-141.5870728606896
 21
40.630971768652827
 31
0.0
  0
LINE
  5
1503F
  8
0
  6
CONTINUOUS
 62
     0
 10
-136.6603834355964
 20
33.582962000000002
 30
0.0
 11
-141.44718
 21
38.36975856440359
 31
0.0
  0
LINE
  5
15040
  8
0
  6
CONTINUOUS
 62
     0
 10
-138.78170377915561
 20
33.582961999999981
 30
0.0
 11
-141.44718
 21
36.24843822084393
 31
0.0
  0
LINE
  5
15041
  8
0
  6
CONTINUOUS
 62
     0
 10
-140.90302412271541
 20
33.582962000000002
 30
0.0
 11
-141.44718
 21
34.127117877284292
 31
0.0
  0
ENDBLK
  5
15042
  8
0
  0
BLOCK
  8
0
  2
*X9
 70
     1
 10
0.0
 20
0.0
 30
0.0
  3
*X9
  1

  0
LINE
  5
15045
  8
0
  6
CONTINUOUS
 62
     0
 10
-103.9913358772839
 20
33.582962000000002
 30
0.0
 11
-103.4471799999999
 21
34.127117877284277
 31
0.0
  0
LINE
  5
15046
  8
0
  6
CONTINUOUS
 62
     0
 10
-106.1126562208439
 20
33.582962000000009
 30
0.0
 11
-103.4471799999999
 21
36.24843822084393
 31
0.0
  0
LINE
  5
15047
  8
0
  6
CONTINUOUS
 62
     0
 10
-108.23397656440351
 20
33.582962000000009
 30
0.0
 11
-103.4471799999999
 21
38.369758564403568
 31
0.0
  0
LINE
  5
15048
  8
0
  6
CONTINUOUS
 62
     0
 10
-110.35529690796299
 20
33.582962000000009
 30
0.0
 11
-103.3072871393102
 21
40.630971768652827
 31
0.0
  0
LINE
  5
15049
  8
0
  6
CONTINUOUS
 62
     0
 10
-110.44718
 20
35.612399251522852
 30
0.0
 11
-105.17904055870071
 21
40.880538692822
 31
0.0
  0
LINE
  5
1504A
  8
0
  6
CONTINUOUS
 62
     0
 10
-110.44718
 20
37.733719595082491
 30
0.0
 11
-107.05079397809131
 21
41.130105616991187
 31
0.0
  0
LINE
  5
1504B
  8
0
  6
CONTINUOUS
 62
     0
 10
-110.44718
 20
39.85503993864215
 30
0.0
 11
-108.92254739748169
 21
41.379672541160367
 31
0.0
  0
LINE
  5
1504C
  8
0
  6
CONTINUOUS
 62
     0
 10
-103.2517942617346
 20
40.47945935377151
 30
0.0
 11
-103.4180788995732
 21
40.645743991609983
 31
0.0
  0
LINE
  5
1504D
  8
0
  6
CONTINUOUS
 62
     0
 10
-103.4471799999999
 20
38.55352474847713
 30
0.0
 11
-105.8657559196797
 21
40.972100668156898
 31
0.0
  0
LINE
  5
1504E
  8
0
  6
CONTINUOUS
 62
     0
 10
-103.4471799999999
 20
36.432204404917492
 30
0.0
 11
-108.3134329397863
 21
41.298457344703799
 31
0.0
  0
LINE
  5
1504F
  8
0
  6
CONTINUOUS
 62
     0
 10
-103.4471799999999
 20
34.310884061357868
 30
0.0
 11
-110.44718
 21
41.310884061357847
 31
0.0
  0
LINE
  5
15050
  8
0
  6
CONTINUOUS
 62
     0
 10
-104.8405782822017
 20
33.582961999999981
 30
0.0
 11
-110.44718
 21
39.189563717798201
 31
0.0
  0
LINE
  5
15051
  8
0
  6
CONTINUOUS
 62
     0
 10
-106.96189862576141
 20
33.582961999999981
 30
0.0
 11
-110.44718
 21
37.068243374238563
 31
0.0
  0
LINE
  5
15052
  8
0
  6
CONTINUOUS
 62
     0
 10
-109.083218969321
 20
33.582961999999981
 30
0.0
 11
-110.44718
 21
34.946923030678931
 31
0.0
  0
ENDBLK
  5
15053
  8
0
  0
BLOCK
  8
0
  2
*X10
 70
     1
 10
0.0
 20
0.0
 30
0.0
  3
*X10
  1

  0
LINE
  5
15056
  8
0
  6
CONTINUOUS
 62
     0
 10
-109.083218969321
 20
-32.417037999999991
 30
0.0
 11
-110.44718
 21
-33.780999030678927
 31
0.0
  0
LINE
  5
15057
  8
0
  6
CONTINUOUS
 62
     0
 10
-106.96189862576141
 20
-32.417037999999991
 30
0.0
 11
-110.44718
 21
-35.902319374238559
 31
0.0
  0
LINE
  5
15058
  8
0
  6
CONTINUOUS
 62
     0
 10
-104.8405782822017
 20
-32.417037999999991
 30
0.0
 11
-110.44718
 21
-38.023639717798197
 31
0.0
  0
LINE
  5
15059
  8
0
  6
CONTINUOUS
 62
     0
 10
-103.4471799999999
 20
-33.14496006135785
 30
0.0
 11
-110.44718
 21
-40.14496006135785
 31
0.0
  0
LINE
  5
1505A
  8
0
  6
CONTINUOUS
 62
     0
 10
-103.4471799999999
 20
-35.266280404917488
 30
0.0
 11
-108.3134329397863
 21
-40.132533344703802
 31
0.0
  0
LINE
  5
1505B
  8
0
  6
CONTINUOUS
 62
     0
 10
-103.4471799999999
 20
-37.387600748477134
 30
0.0
 11
-105.8657559196797
 21
-39.806176668156908
 31
0.0
  0
LINE
  5
1505C
  8
0
  6
CONTINUOUS
 62
     0
 10
-103.2517942617346
 20
-39.313535353771492
 30
0.0
 11
-103.4180788995732
 21
-39.479819991610007
 31
0.0
  0
LINE
  5
1505D
  8
0
  6
CONTINUOUS
 62
     0
 10
-110.44718
 20
-38.689115938642111
 30
0.0
 11
-108.92254739748169
 21
-40.213748541160371
 31
0.0
  0
LINE
  5
1505E
  8
0
  6
CONTINUOUS
 62
     0
 10
-110.44718
 20
-36.567795595082487
 30
0.0
 11
-107.05079397809131
 21
-39.964181616991198
 31
0.0
  0
LINE
  5
1505F
  8
0
  6
CONTINUOUS
 62
     0
 10
-110.44718
 20
-34.446475251522848
 30
0.0
 11
-105.17904055870071
 21
-39.714614692822018
 31
0.0
  0
LINE
  5
15060
  8
0
  6
CONTINUOUS
 62
     0
 10
-110.35529690796299
 20
-32.417037999999991
 30
0.0
 11
-103.3072871393102
 21
-39.465047768652838
 31
0.0
  0
LINE
  5
15061
  8
0
  6
CONTINUOUS
 62
     0
 10
-108.23397656440351
 20
-32.417037999999991
 30
0.0
 11
-103.4471799999999
 21
-37.203834564403557
 31
0.0
  0
LINE
  5
15062
  8
0
  6
CONTINUOUS
 62
     0
 10
-106.1126562208439
 20
-32.417038000000012
 30
0.0
 11
-103.4471799999999
 21
-35.082514220843912
 31
0.0
  0
LINE
  5
15063
  8
0
  6
CONTINUOUS
 62
     0
 10
-103.9913358772839
 20
-32.417037999999991
 30
0.0
 11
-103.4471799999999
 21
-32.961193877284281
 31
0.0
  0
ENDBLK
  5
15064
  8
0
  0
BLOCK
  8
0
  2
*X11
 70
     1
 10
0.0
 20
0.0
 30
0.0
  3
*X11
  1

  0
LINE
  5
15067
  8
0
  6
CONTINUOUS
 62
     0
 10
-140.90302412271541
 20
-32.417037999999991
 30
0.0
 11
-141.44718
 21
-32.961193877284281
 31
0.0
  0
LINE
  5
15068
  8
0
  6
CONTINUOUS
 62
     0
 10
-138.78170377915561
 20
-32.417037999999991
 30
0.0
 11
-141.44718
 21
-35.082514220843912
 31
0.0
  0
LINE
  5
15069
  8
0
  6
CONTINUOUS
 62
     0
 10
-136.6603834355964
 20
-32.417037999999991
 30
0.0
 11
-141.44718
 21
-37.203834564403572
 31
0.0
  0
LINE
  5
1506A
  8
0
  6
CONTINUOUS
 62
     0
 10
-134.5390630920368
 20
-32.417037999999991
 30
0.0
 11
-141.5870728606896
 21
-39.465047768652838
 31
0.0
  0
LINE
  5
1506B
  8
0
  6
CONTINUOUS
 62
     0
 10
-134.44717999999921
 20
-34.446475251522848
 30
0.0
 11
-139.7153194412991
 21
-39.714614692822011
 31
0.0
  0
LINE
  5
1506C
  8
0
  6
CONTINUOUS
 62
     0
 10
-134.44717999999921
 20
-36.567795595082472
 30
0.0
 11
-137.8435660219084
 21
-39.964181616991183
 31
0.0
  0
LINE
  5
1506D
  8
0
  6
CONTINUOUS
 62
     0
 10
-134.44717999999921
 20
-38.689115938642132
 30
0.0
 11
-135.97181260251801
 21
-40.213748541160371
 31
0.0
  0
LINE
  5
1506E
  8
0
  6
CONTINUOUS
 62
     0
 10
-141.64256573826501
 20
-39.313535353771492
 30
0.0
 11
-141.4762811004266
 21
-39.479819991610043
 31
0.0
  0
LINE
  5
1506F
  8
0
  6
CONTINUOUS
 62
     0
 10
-141.44718
 20
-37.387600748477112
 30
0.0
 11
-139.02860408032021
 21
-39.806176668156922
 31
0.0
  0
LINE
  5
15070
  8
0
  6
CONTINUOUS
 62
     0
 10
-141.44718
 20
-35.266280404917481
 30
0.0
 11
-136.58092706021341
 21
-40.132533344703802
 31
0.0
  0
LINE
  5
15071
  8
0
  6
CONTINUOUS
 62
     0
 10
-141.44718
 20
-33.14496006135785
 30
0.0
 11
-134.44717999999921
 21
-40.14496006135785
 31
0.0
  0
LINE
  5
15072
  8
0
  6
CONTINUOUS
 62
     0
 10
-140.0537817177981
 20
-32.417037999999991
 30
0.0
 11
-134.44717999999921
 21
-38.023639717798197
 31
0.0
  0
LINE
  5
15073
  8
0
  6
CONTINUOUS
 62
     0
 10
-137.9324613742385
 20
-32.417037999999991
 30
0.0
 11
-134.44717999999921
 21
-35.902319374238559
 31
0.0
  0
LINE
  5
15074
  8
0
  6
CONTINUOUS
 62
     0
 10
-135.8111410306789
 20
-32.417038000000012
 30
0.0
 11
-134.44717999999921
 21
-33.780999030678913
 31
0.0
  0
ENDBLK
  5
15075
  8
0
  0
BLOCK
  8
0
 62
     0
  2
_CLOSED
 70
     2
 10
0.0
 20
0.0
 30
0.0
  3
_CLOSED
  1

  0
LINE
  5
15078
  8
0
  6
BYBLOCK
 62
     0
 10
-1.0
 20
0.167
 30
0.0
 11
0.0
 21
0.0
 31
0.0
  0
LINE
  5
15079
  8
0
  6
BYBLOCK
 62
     0
 10
0.0
 20
0.0
 30
0.0
 11
-1.0
 21
-0.167
 31
0.0
  0
LINE
  5
1507A
  8
0
  6
BYBLOCK
 62
     0
 10
-1.0
 20
0.167
 30
0.0
 11
-1.0
 21
-0.167
 31
0.0
  0
LINE
  5
1507B
  8
0
  6
BYBLOCK
 62
     0
 10
0.0
 20
0.0
 30
0.0
 11
-1.0
 21
0.0
 31
0.0
  0
ENDBLK
  5
1507C
  8
0
 62
     0
  0
ENDSEC
  0
SECTION
  2
ENTITIES
  0
LINE
  5
1507D
  8
WAKU
 10
500.0
 20
505.0
 30
0.0
 11
500.0
 21
205.0
 31
0.0
  0
LINE
  5
1507E
  8
WAKU
 10
5.0
 20
505.0
 30
0.0
 11
5.0
 21
205.0
 31
0.0
  0
LINE
  5
1507F
  8
WAKU
 10
5.0
 20
205.0
 30
0.0
 11
500.0
 21
205.0
 31
0.0
  0
TEXT
  5
15080
  8
WAKU
 10
34.469413000000003
 20
497.67056799999989
 30
0.0
 40
5.0
  1
断面詳細図（単窓）                                                   　　　　　　　　　　　　　　swin70i-sube-z001.dxf
 41
0.9769999999999999
  0
LINE
  5
15081
  8
WAKU
 10
5.0
 20
495.0
 30
0.0
 11
500.0
 21
495.0
 31
0.0
  0
TEXT
  5
15082
  8
WAKU
 10
10.048814999999991
 20
498.43971699999997
 30
0.0
 40
3.0
  1
ウインブレス
  0
LINE
  5
15083
  8
WAKU
  6
CONTINUOUS
 10
474.42887799250781
 20
502.20769199999989
 30
0.0
 11
477.12118499250772
 21
502.20769199999989
 31
0.0
  0
LINE
  5
15084
  8
WAKU
  6
CONTINUOUS
 10
473.84092599250761
 20
500.592308
 30
0.0
 11
476.53323299250792
 21
500.592308
 31
0.0
  0
LINE
  5
15085
  8
WAKU
  6
CONTINUOUS
 10
471.05913999250771
 20
496.49999999999989
 30
0.0
 11
476.12067799250792
 21
496.49999999999989
 31
0.0
  0
LINE
  5
15086
  8
WAKU
  6
CONTINUOUS
 10
475.82769099250771
 20
498.65384599999999
 30
0.0
 11
476.53323299250792
 21
500.592308
 31
0.0
  0
LINE
  5
15087
  8
WAKU
  6
CONTINUOUS
 10
448.63974599250753
 20
503.5
 30
0.0
 11
452.91752299250788
 21
503.5
 31
0.0
  0
LINE
  5
15088
  8
WAKU
  6
CONTINUOUS
 10
448.63974599250753
 20
499.22222199999999
 30
0.0
 11
452.91752299250788
 21
503.5
 31
0.0
  0
LINE
  5
15089
  8
WAKU
  6
CONTINUOUS
 10
448.63974599250753
 20
503.5
 30
0.0
 11
448.63974599250753
 21
499.22222199999999
 31
0.0
  0
LINE
  5
1508A
  8
WAKU
  6
CONTINUOUS
 10
462.19332099250789
 20
501.77692299999978
 30
0.0
 11
464.36439799250741
 21
501.77692299999978
 31
0.0
  0
LINE
  5
1508B
  8
WAKU
  6
CONTINUOUS
 10
459.3915469925077
 20
503.5
 30
0.0
 11
464.99154699250789
 21
503.5
 31
0.0
  0
LINE
  5
1508C
  8
WAKU
  6
CONTINUOUS
 10
460.97978299250792
 20
501.77692299999978
 30
0.0
 11
457.82367499250779
 21
499.19230800000003
 31
0.0
  0
LINE
  5
1508D
  8
WAKU
  6
CONTINUOUS
 10
462.19332099250789
 20
501.77692299999978
 30
0.0
 11
463.4236749925077
 21
499.19230800000003
 31
0.0
  0
LINE
  5
1508E
  8
WAKU
  6
CONTINUOUS
 10
456.84375499250717
 20
496.49999999999989
 30
0.0
 11
457.82367499250779
 21
499.19230800000003
 31
0.0
  0
LINE
  5
1508F
  8
WAKU
  6
CONTINUOUS
 10
460.06561499250779
 20
499.13846199999989
 30
0.0
 11
456.84375499250717
 21
496.49999999999989
 31
0.0
  0
LINE
  5
15090
  8
WAKU
  6
CONTINUOUS
 10
462.44375499250771
 20
496.49999999999989
 30
0.0
 11
463.4236749925077
 21
499.19230800000003
 31
0.0
  0
LINE
  5
15091
  8
WAKU
  6
CONTINUOUS
 10
461.16213699250773
 20
499.19230800000003
 30
0.0
 11
462.44375499250771
 21
496.49999999999989
 31
0.0
  0
LINE
  5
15092
  8
WAKU
  6
CONTINUOUS
 10
460.18221699250768
 20
496.49999999999989
 30
0.0
 11
461.16213699250773
 21
499.19230800000003
 31
0.0
  0
LINE
  5
15093
  8
WAKU
  6
CONTINUOUS
 10
459.1052939925076
 20
496.49999999999989
 30
0.0
 11
460.18221699250768
 21
496.49999999999989
 31
0.0
  0
LINE
  5
15094
  8
WAKU
  6
CONTINUOUS
 10
459.1052939925076
 20
496.49999999999989
 30
0.0
 11
460.06561499250779
 21
499.13846199999989
 31
0.0
  0
LINE
  5
15095
  8
WAKU
  6
CONTINUOUS
 10
458.76439799250761
 20
501.77692299999978
 30
0.0
 11
460.97978299250792
 21
501.77692299999978
 31
0.0
  0
LINE
  5
15096
  8
WAKU
  6
CONTINUOUS
 10
459.3915469925077
 20
503.5
 30
0.0
 11
458.76439799250761
 21
501.77692299999978
 31
0.0
  0
LINE
  5
15097
  8
WAKU
  6
CONTINUOUS
 10
473.44895799250759
 20
499.51538499999998
 30
0.0
 11
473.84092599250761
 21
500.592308
 31
0.0
  0
LINE
  5
15098
  8
WAKU
  6
CONTINUOUS
 10
472.37203499250791
 20
499.51538499999998
 30
0.0
 11
472.76400299250793
 21
500.592308
 31
0.0
  0
LINE
  5
15099
  8
WAKU
  6
CONTINUOUS
 10
469.12067799250792
 20
496.49999999999989
 30
0.0
 11
469.90461399250762
 21
498.65384599999999
 31
0.0
  0
LINE
  5
1509A
  8
WAKU
  6
CONTINUOUS
 10
464.51999899250791
 20
498.65384599999999
 30
0.0
 11
469.90461399250762
 21
498.65384599999999
 31
0.0
  0
LINE
  5
1509B
  8
WAKU
  6
CONTINUOUS
 10
463.73606299250758
 20
496.49999999999989
 30
0.0
 11
464.51999899250791
 21
498.65384599999999
 31
0.0
  0
LINE
  5
1509C
  8
WAKU
  6
CONTINUOUS
 10
463.73606299250758
 20
496.49999999999989
 30
0.0
 11
469.12067799250792
 21
496.49999999999989
 31
0.0
  0
LINE
  5
1509D
  8
WAKU
  6
CONTINUOUS
 10
471.84307599250769
 20
498.65384599999999
 30
0.0
 11
475.82769099250771
 21
498.65384599999999
 31
0.0
  0
LINE
  5
1509E
  8
WAKU
  6
CONTINUOUS
 10
472.37203499250791
 20
499.51538499999998
 30
0.0
 11
473.44895799250759
 21
499.51538499999998
 31
0.0
  0
LINE
  5
1509F
  8
WAKU
  6
CONTINUOUS
 10
471.05913999250771
 20
496.49999999999989
 30
0.0
 11
471.84307599250769
 21
498.65384599999999
 31
0.0
  0
LINE
  5
150A0
  8
WAKU
  6
CONTINUOUS
 10
465.65670599250791
 20
501.77692299999978
 30
0.0
 11
471.04132099250768
 21
501.77692299999978
 31
0.0
  0
LINE
  5
150A1
  8
WAKU
  6
CONTINUOUS
 10
466.2838549925076
 20
503.5
 30
0.0
 11
471.6684699925076
 21
503.5
 31
0.0
  0
LINE
  5
150A2
  8
WAKU
  6
CONTINUOUS
 10
465.65670599250791
 20
501.77692299999978
 30
0.0
 11
466.2838549925076
 21
503.5
 31
0.0
  0
LINE
  5
150A3
  8
WAKU
  6
CONTINUOUS
 10
464.99154699250789
 20
503.5
 30
0.0
 11
464.36439799250741
 21
501.77692299999978
 31
0.0
  0
LINE
  5
150A4
  8
WAKU
  6
CONTINUOUS
 10
473.82231599250792
 20
503.5
 30
0.0
 11
474.89923899250789
 21
503.5
 31
0.0
  0
LINE
  5
150A5
  8
WAKU
  6
CONTINUOUS
 10
474.42887799250781
 20
502.20769199999989
 30
0.0
 11
474.89923899250789
 21
503.5
 31
0.0
  0
LINE
  5
150A6
  8
WAKU
  6
CONTINUOUS
 10
472.54426199250793
 20
502.20769199999989
 30
0.0
 11
473.35195499250779
 21
502.20769199999989
 31
0.0
  0
LINE
  5
150A7
  8
WAKU
  6
CONTINUOUS
 10
471.95630999250773
 20
500.592308
 30
0.0
 11
472.76400299250793
 21
500.592308
 31
0.0
  0
LINE
  5
150A8
  8
WAKU
  6
CONTINUOUS
 10
471.95630999250773
 20
500.592308
 30
0.0
 11
472.54426199250793
 21
502.20769199999989
 31
0.0
  0
LINE
  5
150A9
  8
WAKU
  6
CONTINUOUS
 10
473.35195499250779
 20
502.20769199999989
 30
0.0
 11
473.82231599250792
 21
503.5
 31
0.0
  0
LINE
  5
150AA
  8
WAKU
  6
CONTINUOUS
 10
471.04132099250768
 20
501.77692299999978
 30
0.0
 11
471.6684699925076
 21
503.5
 31
0.0
  0
LINE
  5
150AB
  8
WAKU
  6
CONTINUOUS
 10
486.42152499250773
 20
501.13076899999987
 30
0.0
 11
489.65229399250791
 21
501.13076899999987
 31
0.0
  0
LINE
  5
150AC
  8
WAKU
  6
CONTINUOUS
 10
485.95116399250759
 20
499.83846199999999
 30
0.0
 11
489.18193299250788
 21
499.83846199999999
 31
0.0
  0
LINE
  5
150AD
  8
WAKU
  6
CONTINUOUS
 10
490.12067799250792
 20
496.49999999999989
 30
0.0
 11
484.73606299250758
 21
496.49999999999989
 31
0.0
  0
LINE
  5
150AE
  8
WAKU
  6
CONTINUOUS
 10
485.51999899250791
 20
498.65384599999999
 30
0.0
 11
489.82769099250788
 21
498.65384599999999
 31
0.0
  0
LINE
  5
150AF
  8
WAKU
  6
CONTINUOUS
 10
486.6567059925078
 20
501.77692299999978
 30
0.0
 11
489.88747499250752
 21
501.77692299999978
 31
0.0
  0
LINE
  5
150B0
  8
WAKU
  6
CONTINUOUS
 10
487.2838549925076
 20
503.5
 30
0.0
 11
490.51462399250772
 21
503.5
 31
0.0
  0
LINE
  5
150B1
  8
WAKU
  6
CONTINUOUS
 10
479.45042799250791
 20
499.73076900000001
 30
0.0
 11
480.23436399250761
 21
501.884615
 31
0.0
  0
LINE
  5
150B2
  8
WAKU
  6
CONTINUOUS
 10
480.85042799250772
 20
499.73076900000001
 30
0.0
 11
481.63436399250782
 21
501.884615
 31
0.0
  0
LINE
  5
150B3
  8
WAKU
  6
CONTINUOUS
 10
480.52735099250759
 20
499.73076900000001
 30
0.0
 11
481.3112869925078
 21
501.884615
 31
0.0
  0
LINE
  5
150B4
  8
WAKU
  6
CONTINUOUS
 10
481.92735099250768
 20
499.73076900000001
 30
0.0
 11
482.71128699250801
 21
501.884615
 31
0.0
  0
LINE
  5
150B5
  8
WAKU
  6
CONTINUOUS
 10
482.58221699250771
 20
496.49999999999989
 30
0.0
 11
484.54205699250792
 21
501.884615
 31
0.0
  0
LINE
  5
150B6
  8
WAKU
  6
CONTINUOUS
 10
482.09324599250772
 20
498.11538499999989
 30
0.0
 11
483.46513299250768
 21
501.884615
 31
0.0
  0
LINE
  5
150B7
  8
WAKU
  6
CONTINUOUS
 10
476.12067799250792
 20
496.49999999999989
 30
0.0
 11
477.61015699250788
 21
500.592308
 31
0.0
  0
LINE
  5
150B8
  8
WAKU
  6
CONTINUOUS
 10
478.27452499250768
 20
496.49999999999989
 30
0.0
 11
482.58221699250771
 21
496.49999999999989
 31
0.0
  0
LINE
  5
150B9
  8
WAKU
  6
CONTINUOUS
 10
479.45042799250791
 20
499.73076900000001
 30
0.0
 11
480.52735099250759
 21
499.73076900000001
 31
0.0
  0
LINE
  5
150BA
  8
WAKU
  6
CONTINUOUS
 10
478.86247599250771
 20
498.11538499999989
 30
0.0
 11
482.09324599250772
 21
498.11538499999989
 31
0.0
  0
LINE
  5
150BB
  8
WAKU
  6
CONTINUOUS
 10
478.27452499250768
 20
496.49999999999989
 30
0.0
 11
478.86247599250771
 21
498.11538499999989
 31
0.0
  0
LINE
  5
150BC
  8
WAKU
  6
CONTINUOUS
 10
480.85042799250772
 20
499.73076900000001
 30
0.0
 11
481.92735099250768
 21
499.73076900000001
 31
0.0
  0
LINE
  5
150BD
  8
WAKU
  6
CONTINUOUS
 10
484.73606299250758
 20
496.49999999999989
 30
0.0
 11
485.51999899250791
 21
498.65384599999999
 31
0.0
  0
LINE
  5
150BE
  8
WAKU
  6
CONTINUOUS
 10
481.63436399250782
 20
501.884615
 30
0.0
 11
482.71128699250801
 21
501.884615
 31
0.0
  0
LINE
  5
150BF
  8
WAKU
  6
CONTINUOUS
 10
477.59154699250757
 20
503.5
 30
0.0
 11
478.66846999250782
 21
503.5
 31
0.0
  0
LINE
  5
150C0
  8
WAKU
  6
CONTINUOUS
 10
478.19810799250769
 20
502.20769199999989
 30
0.0
 11
478.66846999250782
 21
503.5
 31
0.0
  0
LINE
  5
150C1
  8
WAKU
  6
CONTINUOUS
 10
478.19810799250769
 20
502.20769199999989
 30
0.0
 11
479.0058009925076
 21
502.20769199999989
 31
0.0
  0
LINE
  5
150C2
  8
WAKU
  6
CONTINUOUS
 10
477.61015699250788
 20
500.592308
 30
0.0
 11
478.41784899250769
 21
500.592308
 31
0.0
  0
LINE
  5
150C3
  8
WAKU
  6
CONTINUOUS
 10
478.41784899250769
 20
500.592308
 30
0.0
 11
479.0058009925076
 21
502.20769199999989
 31
0.0
  0
LINE
  5
150C4
  8
WAKU
  6
CONTINUOUS
 10
480.23436399250761
 20
501.884615
 30
0.0
 11
481.3112869925078
 21
501.884615
 31
0.0
  0
LINE
  5
150C5
  8
WAKU
  6
CONTINUOUS
 10
477.12118499250772
 20
502.20769199999989
 30
0.0
 11
477.59154699250757
 21
503.5
 31
0.0
  0
LINE
  5
150C6
  8
WAKU
  6
CONTINUOUS
 10
487.2838549925076
 20
503.5
 30
0.0
 11
486.6567059925078
 21
501.77692299999978
 31
0.0
  0
LINE
  5
150C7
  8
WAKU
  6
CONTINUOUS
 10
486.42152499250773
 20
501.13076899999987
 30
0.0
 11
485.95116399250759
 21
499.83846199999999
 31
0.0
  0
LINE
  5
150C8
  8
WAKU
  6
CONTINUOUS
 10
483.46513299250768
 20
501.884615
 30
0.0
 11
484.54205699250792
 21
501.884615
 31
0.0
  0
LINE
  5
150C9
  8
WAKU
  6
CONTINUOUS
 10
489.82769099250788
 20
498.65384599999999
 30
0.0
 11
491.59154699250757
 21
503.5
 31
0.0
  0
LINE
  5
150CA
  8
WAKU
  6
CONTINUOUS
 10
490.12067799250792
 20
496.49999999999989
 30
0.0
 11
492.6684699925076
 21
503.5
 31
0.0
  0
LINE
  5
150CB
  8
WAKU
  6
CONTINUOUS
 10
489.88747499250752
 20
501.77692299999978
 30
0.0
 11
490.51462399250772
 21
503.5
 31
0.0
  0
LINE
  5
150CC
  8
WAKU
  6
CONTINUOUS
 10
491.59154699250757
 20
503.5
 30
0.0
 11
492.6684699925076
 21
503.5
 31
0.0
  0
LINE
  5
150CD
  8
WAKU
  6
CONTINUOUS
 10
489.18193299250788
 20
499.83846199999999
 30
0.0
 11
489.65229399250791
 21
501.13076899999987
 31
0.0
  0
LINE
  5
150CE
  8
WAKU
  6
CONTINUOUS
 10
450.49711599250787
 20
497.10779099999991
 30
0.0
 11
450.63529399250763
 21
496.82952599999987
 31
0.0
  0
LINE
  5
150CF
  8
WAKU
  6
CONTINUOUS
 10
450.63529399250763
 20
496.82952599999987
 30
0.0
 11
450.86177899250788
 21
496.63466399999999
 31
0.0
  0
LINE
  5
150D0
  8
WAKU
  6
CONTINUOUS
 10
450.86177899250788
 20
496.63466399999999
 30
0.0
 11
451.16825199250781
 21
496.53036100000003
 31
0.0
  0
LINE
  5
150D1
  8
WAKU
  6
CONTINUOUS
 10
451.16825199250781
 20
496.53036100000003
 30
0.0
 11
451.54345699250791
 21
496.52044899999993
 31
0.0
  0
LINE
  5
150D2
  8
WAKU
  6
CONTINUOUS
 10
451.54345699250791
 20
496.52044899999993
 30
0.0
 11
451.97361199250793
 21
496.60529100000002
 31
0.0
  0
LINE
  5
150D3
  8
WAKU
  6
CONTINUOUS
 10
451.97361199250793
 20
496.60529100000002
 30
0.0
 11
452.44291799250709
 21
496.78177299999999
 31
0.0
  0
LINE
  5
150D4
  8
WAKU
  6
CONTINUOUS
 10
452.44291799250709
 20
496.78177299999999
 30
0.0
 11
452.93413599250761
 21
497.04341099999999
 31
0.0
  0
LINE
  5
150D5
  8
WAKU
  6
CONTINUOUS
 10
452.93413599250761
 20
497.04341099999999
 30
0.0
 11
453.42922599250772
 21
497.38059500000003
 31
0.0
  0
LINE
  5
150D6
  8
WAKU
  6
CONTINUOUS
 10
453.42922599250772
 20
497.38059500000003
 30
0.0
 11
453.91000199250709
 21
497.78094099999981
 31
0.0
  0
LINE
  5
150D7
  8
WAKU
  6
CONTINUOUS
 10
453.91000199250709
 20
497.78094099999981
 30
0.0
 11
454.35880499250709
 21
498.22974399999993
 31
0.0
  0
LINE
  5
150D8
  8
WAKU
  6
CONTINUOUS
 10
454.35880499250709
 20
498.22974399999993
 30
0.0
 11
454.75915099250761
 21
498.71051999999997
 31
0.0
  0
LINE
  5
150D9
  8
WAKU
  6
CONTINUOUS
 10
454.75915099250761
 20
498.71051999999997
 30
0.0
 11
455.09633499250759
 21
499.20560899999998
 31
0.0
  0
LINE
  5
150DA
  8
WAKU
  6
CONTINUOUS
 10
455.09633499250759
 20
499.20560899999998
 30
0.0
 11
455.3579729925076
 21
499.69682799999993
 31
0.0
  0
LINE
  5
150DB
  8
WAKU
  6
CONTINUOUS
 10
455.3579729925076
 20
499.69682799999993
 30
0.0
 11
455.53445399250791
 21
500.166134
 31
0.0
  0
LINE
  5
150DC
  8
WAKU
  6
CONTINUOUS
 10
455.53445399250791
 20
500.166134
 30
0.0
 11
455.61929699250788
 21
500.59628899999979
 31
0.0
  0
LINE
  5
150DD
  8
WAKU
  6
CONTINUOUS
 10
455.61929699250788
 20
500.59628899999979
 30
0.0
 11
455.60938499250773
 21
500.97149299999938
 31
0.0
  0
LINE
  5
150DE
  8
WAKU
  6
CONTINUOUS
 10
455.60938499250773
 20
500.97149299999938
 30
0.0
 11
455.50508199250771
 21
501.27796699999988
 31
0.0
  0
LINE
  5
150DF
  8
WAKU
  6
CONTINUOUS
 10
455.50508199250771
 20
501.27796699999988
 30
0.0
 11
455.31021899250788
 21
501.50445200000001
 31
0.0
  0
LINE
  5
150E0
  8
WAKU
  6
CONTINUOUS
 10
455.31021899250788
 20
501.50445200000001
 30
0.0
 11
455.03195399250762
 21
501.64263
 31
0.0
  0
LINE
  5
150E1
  8
WAKU
  6
CONTINUOUS
 10
454.58541099250778
 20
501.683944
 30
0.0
 11
454.15110599250778
 21
501.6080139999998
 31
0.0
  0
LINE
  5
150E2
  8
WAKU
  6
CONTINUOUS
 10
454.15110599250778
 20
501.6080139999998
 30
0.0
 11
453.67410899250791
 21
501.43576799999988
 31
0.0
  0
LINE
  5
150E3
  8
WAKU
  6
CONTINUOUS
 10
453.67410899250791
 20
501.43576799999988
 30
0.0
 11
453.17273899250779
 21
501.1738209999998
 31
0.0
  0
LINE
  5
150E4
  8
WAKU
  6
CONTINUOUS
 10
453.17273899250779
 20
501.1738209999998
 30
0.0
 11
452.66625299250779
 21
500.83223499999991
 31
0.0
  0
LINE
  5
150E5
  8
WAKU
  6
CONTINUOUS
 10
452.66625299250779
 20
500.83223499999991
 30
0.0
 11
452.17410199250742
 21
500.424128
 31
0.0
  0
LINE
  5
150E6
  8
WAKU
  6
CONTINUOUS
 10
452.17410199250742
 20
500.424128
 30
0.0
 11
451.71518999250799
 21
499.96517399999999
 31
0.0
  0
LINE
  5
150E7
  8
WAKU
  6
CONTINUOUS
 10
451.71518999250799
 20
499.96517399999999
 30
0.0
 11
451.30714099250793
 21
499.47300000000001
 31
0.0
  0
LINE
  5
150E8
  8
WAKU
  6
CONTINUOUS
 10
451.30714099250793
 20
499.47300000000001
 30
0.0
 11
450.9656259925078
 21
498.96650899999992
 31
0.0
  0
LINE
  5
150E9
  8
WAKU
  6
CONTINUOUS
 10
450.9656259925078
 20
498.96650899999992
 30
0.0
 11
450.70376299250768
 21
498.46515399999993
 31
0.0
  0
LINE
  5
150EA
  8
WAKU
  6
CONTINUOUS
 10
450.70376299250768
 20
498.46515399999993
 30
0.0
 11
450.53160899250759
 21
497.98818899999992
 31
0.0
  0
LINE
  5
150EB
  8
WAKU
  6
CONTINUOUS
 10
450.53160899250759
 20
497.98818899999992
 30
0.0
 11
450.4557749925076
 21
497.55393500000002
 31
0.0
  0
LINE
  5
150EC
  8
WAKU
  6
CONTINUOUS
 10
450.84138099250782
 20
497.45185599999991
 30
0.0
 11
451.34986499250812
 21
497.53919500000001
 31
0.0
  0
LINE
  5
150ED
  8
WAKU
  6
CONTINUOUS
 10
451.34986499250812
 20
497.53919500000001
 30
0.0
 11
451.98073299250791
 21
497.81033200000002
 31
0.0
  0
LINE
  5
150EE
  8
WAKU
  6
CONTINUOUS
 10
451.98073299250791
 20
497.81033200000002
 30
0.0
 11
452.65840999250798
 21
498.25143100000003
 31
0.0
  0
LINE
  5
150EF
  8
WAKU
  6
CONTINUOUS
 10
452.65840999250798
 20
498.25143100000003
 30
0.0
 11
453.31476599250749
 21
498.82550599999979
 31
0.0
  0
LINE
  5
150F0
  8
WAKU
  6
CONTINUOUS
 10
453.31476599250749
 20
498.82550599999979
 30
0.0
 11
453.88870799250742
 21
499.48192
 31
0.0
  0
LINE
  5
150F1
  8
WAKU
  6
CONTINUOUS
 10
453.88870799250742
 20
499.48192
 30
0.0
 11
454.32982299250767
 21
500.15953400000001
 31
0.0
  0
LINE
  5
150F2
  8
WAKU
  6
CONTINUOUS
 10
454.32982299250767
 20
500.15953400000001
 30
0.0
 11
454.60054099250772
 21
500.7904019999998
 31
0.0
  0
LINE
  5
150F3
  8
WAKU
  6
CONTINUOUS
 10
454.60054099250772
 20
500.7904019999998
 30
0.0
 11
454.68769899250742
 21
501.29856899999987
 31
0.0
  0
LINE
  5
150F4
  8
WAKU
  6
CONTINUOUS
 10
454.58541099250778
 20
501.683944
 30
0.0
 11
454.467617992508
 21
501.78192899999999
 31
0.0
  0
LINE
  5
150F5
  8
WAKU
  6
CONTINUOUS
 10
454.467617992508
 20
501.78192899999999
 30
0.0
 11
454.26646599250779
 21
501.84090199999991
 31
0.0
  0
LINE
  5
150F6
  8
WAKU
  6
CONTINUOUS
 10
454.26646599250779
 20
501.84090199999991
 30
0.0
 11
453.95932699250761
 21
501.83558099999988
 31
0.0
  0
LINE
  5
150F7
  8
WAKU
  6
CONTINUOUS
 10
453.95932699250761
 20
501.83558099999988
 30
0.0
 11
453.56360999250779
 21
501.74006499999979
 31
0.0
  0
LINE
  5
150F8
  8
WAKU
  6
CONTINUOUS
 10
453.56360999250779
 20
501.74006499999979
 30
0.0
 11
453.10870499250751
 21
501.54758499999991
 31
0.0
  0
LINE
  5
150F9
  8
WAKU
  6
CONTINUOUS
 10
453.10870499250751
 20
501.54758499999991
 30
0.0
 11
452.6230569925076
 21
501.2642839999998
 31
0.0
  0
LINE
  5
150FA
  8
WAKU
  6
CONTINUOUS
 10
452.6230569925076
 20
501.2642839999998
 30
0.0
 11
451.66456799250813
 21
500.47510799999998
 31
0.0
  0
LINE
  5
150FB
  8
WAKU
  6
CONTINUOUS
 10
451.66456799250813
 20
500.47510799999998
 30
0.0
 11
450.8755049925075
 21
499.51657
 31
0.0
  0
LINE
  5
150FC
  8
WAKU
  6
CONTINUOUS
 10
450.8755049925075
 20
499.51657
 30
0.0
 11
450.59198899250788
 21
499.03102799999999
 31
0.0
  0
LINE
  5
150FD
  8
WAKU
  6
CONTINUOUS
 10
450.59198899250788
 20
499.03102799999999
 30
0.0
 11
450.39995999250772
 21
498.57602099999991
 31
0.0
  0
LINE
  5
150FE
  8
WAKU
  6
CONTINUOUS
 10
450.39995999250772
 20
498.57602099999991
 30
0.0
 11
450.30416599250799
 21
498.18040400000001
 31
0.0
  0
LINE
  5
150FF
  8
WAKU
  6
CONTINUOUS
 10
450.30416599250799
 20
498.18040400000001
 30
0.0
 11
450.29882799250743
 21
497.87308699999988
 31
0.0
  0
LINE
  5
15100
  8
WAKU
  6
CONTINUOUS
 10
450.29882799250743
 20
497.87308699999988
 30
0.0
 11
450.35762499250791
 21
497.67243499999989
 31
0.0
  0
LINE
  5
15101
  8
WAKU
  6
CONTINUOUS
 10
450.35762499250791
 20
497.67243499999989
 30
0.0
 11
450.4557749925076
 21
497.55393500000002
 31
0.0
  0
LINE
  5
15102
  8
WAKU
  6
CONTINUOUS
 10
450.94364699250781
 20
497.06647600000002
 30
0.0
 11
451.06139699250792
 21
496.96856799999989
 31
0.0
  0
LINE
  5
15103
  8
WAKU
  6
CONTINUOUS
 10
451.06139699250792
 20
496.96856799999989
 30
0.0
 11
451.26264699250771
 21
496.90949799999999
 31
0.0
  0
LINE
  5
15104
  8
WAKU
  6
CONTINUOUS
 10
451.26264699250771
 20
496.90949799999999
 30
0.0
 11
451.56976399250772
 21
496.91486299999991
 31
0.0
  0
LINE
  5
15105
  8
WAKU
  6
CONTINUOUS
 10
451.56976399250772
 20
496.91486299999991
 30
0.0
 11
451.96545399250778
 21
497.01036800000003
 31
0.0
  0
LINE
  5
15106
  8
WAKU
  6
CONTINUOUS
 10
451.96545399250778
 20
497.01036800000003
 30
0.0
 11
452.42035199250779
 21
497.20279799999997
 31
0.0
  0
LINE
  5
15107
  8
WAKU
  6
CONTINUOUS
 10
452.42035199250779
 20
497.20279799999997
 30
0.0
 11
452.90596699250779
 21
497.48611699999992
 31
0.0
  0
LINE
  5
15108
  8
WAKU
  6
CONTINUOUS
 10
452.90596699250779
 20
497.48611699999992
 30
0.0
 11
453.86443499250743
 21
498.27523200000002
 31
0.0
  0
LINE
  5
15109
  8
WAKU
  6
CONTINUOUS
 10
453.86443499250743
 20
498.27523200000002
 30
0.0
 11
454.6535199925076
 21
499.23371799999978
 31
0.0
  0
LINE
  5
1510A
  8
WAKU
  6
CONTINUOUS
 10
454.6535199925076
 20
499.23371799999978
 30
0.0
 11
454.93697699250743
 21
499.7192779999998
 31
0.0
  0
LINE
  5
1510B
  8
WAKU
  6
CONTINUOUS
 10
454.93697699250743
 20
499.7192779999998
 30
0.0
 11
455.12917999250777
 21
500.17424799999981
 31
0.0
  0
LINE
  5
1510C
  8
WAKU
  6
CONTINUOUS
 10
455.12917999250777
 20
500.17424799999981
 30
0.0
 11
455.22483099250792
 21
500.56986399999988
 31
0.0
  0
LINE
  5
1510D
  8
WAKU
  6
CONTINUOUS
 10
455.22483099250792
 20
500.56986399999988
 30
0.0
 11
455.2302719925076
 21
500.877253
 31
0.0
  0
LINE
  5
1510E
  8
WAKU
  6
CONTINUOUS
 10
455.2302719925076
 20
500.877253
 30
0.0
 11
455.17142099250788
 21
501.07791799999978
 31
0.0
  0
LINE
  5
1510F
  8
WAKU
  6
CONTINUOUS
 10
455.17142099250788
 20
501.07791799999978
 30
0.0
 11
455.07327999250788
 21
501.19624900000002
 31
0.0
  0
LINE
  5
15110
  8
WAKU
  6
CONTINUOUS
 10
454.68769899250742
 20
501.29856899999987
 30
0.0
 11
454.17920799250783
 21
501.21123999999992
 31
0.0
  0
LINE
  5
15111
  8
WAKU
  6
CONTINUOUS
 10
454.17920799250783
 20
501.21123999999992
 30
0.0
 11
453.54834799250813
 21
500.94005700000002
 31
0.0
  0
LINE
  5
15112
  8
WAKU
  6
CONTINUOUS
 10
453.54834799250813
 20
500.94005700000002
 30
0.0
 11
452.87065099250742
 21
500.49899099999988
 31
0.0
  0
LINE
  5
15113
  8
WAKU
  6
CONTINUOUS
 10
452.87065099250742
 20
500.49899099999988
 30
0.0
 11
452.21429699250751
 21
499.924893
 31
0.0
  0
LINE
  5
15114
  8
WAKU
  6
CONTINUOUS
 10
452.21429699250751
 20
499.924893
 30
0.0
 11
451.64036599250772
 21
499.26847099999981
 31
0.0
  0
LINE
  5
15115
  8
WAKU
  6
CONTINUOUS
 10
451.64036599250772
 20
499.26847099999981
 30
0.0
 11
451.19918199250782
 21
498.59087499999998
 31
0.0
  0
LINE
  5
15116
  8
WAKU
  6
CONTINUOUS
 10
451.19918199250782
 20
498.59087499999998
 30
0.0
 11
450.92863799250779
 21
497.959969
 31
0.0
  0
LINE
  5
15117
  8
WAKU
  6
CONTINUOUS
 10
450.92863799250779
 20
497.959969
 30
0.0
 11
450.84138099250782
 21
497.45185599999991
 31
0.0
  0
LINE
  5
15118
  8
WAKU
  6
CONTINUOUS
 10
450.94364699250781
 20
497.06647600000002
 30
0.0
 11
451.37792799250792
 21
497.14239700000002
 31
0.0
  0
LINE
  5
15119
  8
WAKU
  6
CONTINUOUS
 10
451.37792799250792
 20
497.14239700000002
 30
0.0
 11
451.85489799250757
 21
497.31462499999998
 31
0.0
  0
LINE
  5
1511A
  8
WAKU
  6
CONTINUOUS
 10
451.85489799250757
 20
497.31462499999998
 30
0.0
 11
452.35623999250743
 21
497.57654499999978
 31
0.0
  0
LINE
  5
1511B
  8
WAKU
  6
CONTINUOUS
 10
452.35623999250743
 20
497.57654499999978
 30
0.0
 11
452.86270199250799
 21
497.91809899999993
 31
0.0
  0
LINE
  5
1511C
  8
WAKU
  6
CONTINUOUS
 10
452.86270199250799
 20
497.91809899999993
 30
0.0
 11
453.3548329925078
 21
498.32617099999987
 31
0.0
  0
LINE
  5
1511D
  8
WAKU
  6
CONTINUOUS
 10
453.3548329925078
 20
498.32617099999987
 30
0.0
 11
453.81373599250742
 21
498.7850889999998
 31
0.0
  0
LINE
  5
1511E
  8
WAKU
  6
CONTINUOUS
 10
453.81373599250742
 20
498.7850889999998
 30
0.0
 11
454.22178599250759
 21
499.27722899999992
 31
0.0
  0
LINE
  5
1511F
  8
WAKU
  6
CONTINUOUS
 10
454.22178599250759
 20
499.27722899999992
 30
0.0
 11
454.56331299250769
 21
499.78369300000003
 31
0.0
  0
LINE
  5
15120
  8
WAKU
  6
CONTINUOUS
 10
454.56331299250769
 20
499.78369300000003
 30
0.0
 11
454.82520199250791
 21
500.28503000000001
 31
0.0
  0
LINE
  5
15121
  8
WAKU
  6
CONTINUOUS
 10
454.82520199250791
 20
500.28503000000001
 30
0.0
 11
454.99739499250791
 21
500.76198699999998
 31
0.0
  0
LINE
  5
15122
  8
WAKU
  6
CONTINUOUS
 10
454.99739499250791
 20
500.76198699999998
 30
0.0
 11
455.07327999250788
 21
501.19624900000002
 31
0.0
  0
LINE
  5
15123
  8
WAKU
  6
CONTINUOUS
 10
455.03195399250762
 20
501.64263
 30
0.0
 11
454.8937759925077
 21
501.92089499999992
 31
0.0
  0
LINE
  5
15124
  8
WAKU
  6
CONTINUOUS
 10
454.8937759925077
 20
501.92089499999992
 30
0.0
 11
454.66729099250767
 21
502.1157569999998
 31
0.0
  0
LINE
  5
15125
  8
WAKU
  6
CONTINUOUS
 10
454.66729099250767
 20
502.1157569999998
 30
0.0
 11
454.36081799250792
 21
502.22005999999988
 31
0.0
  0
LINE
  5
15126
  8
WAKU
  6
CONTINUOUS
 10
454.36081799250792
 20
502.22005999999988
 30
0.0
 11
453.9856129925077
 21
502.22997199999992
 31
0.0
  0
LINE
  5
15127
  8
WAKU
  6
CONTINUOUS
 10
453.9856129925077
 20
502.22997199999992
 30
0.0
 11
453.55545799250763
 21
502.14512899999988
 31
0.0
  0
LINE
  5
15128
  8
WAKU
  6
CONTINUOUS
 10
453.55545799250763
 20
502.14512899999988
 30
0.0
 11
453.08615299250761
 21
501.9686479999998
 31
0.0
  0
LINE
  5
15129
  8
WAKU
  6
CONTINUOUS
 10
453.08615299250761
 20
501.9686479999998
 30
0.0
 11
452.59493399250778
 21
501.7070099999998
 31
0.0
  0
LINE
  5
1512A
  8
WAKU
  6
CONTINUOUS
 10
452.59493399250778
 20
501.7070099999998
 30
0.0
 11
452.09984399250789
 21
501.36982599999988
 31
0.0
  0
LINE
  5
1512B
  8
WAKU
  6
CONTINUOUS
 10
452.09984399250789
 20
501.36982599999988
 30
0.0
 11
451.61906899250761
 21
500.96947999999998
 31
0.0
  0
LINE
  5
1512C
  8
WAKU
  6
CONTINUOUS
 10
451.61906899250761
 20
500.96947999999998
 30
0.0
 11
451.17026499250761
 21
500.52067699999998
 31
0.0
  0
LINE
  5
1512D
  8
WAKU
  6
CONTINUOUS
 10
451.17026499250761
 20
500.52067699999998
 30
0.0
 11
450.76991899250743
 21
500.03990099999987
 31
0.0
  0
LINE
  5
1512E
  8
WAKU
  6
CONTINUOUS
 10
450.76991899250743
 20
500.03990099999987
 30
0.0
 11
450.43273499250779
 21
499.54481199999981
 31
0.0
  0
LINE
  5
1512F
  8
WAKU
  6
CONTINUOUS
 10
450.43273499250779
 20
499.54481199999981
 30
0.0
 11
450.17109699250773
 21
499.05359299999998
 31
0.0
  0
LINE
  5
15130
  8
WAKU
  6
CONTINUOUS
 10
450.17109699250773
 20
499.05359299999998
 30
0.0
 11
449.99461599250782
 21
498.58428699999979
 31
0.0
  0
LINE
  5
15131
  8
WAKU
  6
CONTINUOUS
 10
449.99461599250782
 20
498.58428699999979
 30
0.0
 11
449.90977299250773
 21
498.15413199999989
 31
0.0
  0
LINE
  5
15132
  8
WAKU
  6
CONTINUOUS
 10
449.90977299250773
 20
498.15413199999989
 30
0.0
 11
449.91968499250788
 21
497.77892800000001
 31
0.0
  0
LINE
  5
15133
  8
WAKU
  6
CONTINUOUS
 10
449.91968499250788
 20
497.77892800000001
 30
0.0
 11
450.02398799250778
 21
497.47245400000003
 31
0.0
  0
LINE
  5
15134
  8
WAKU
  6
CONTINUOUS
 10
450.02398799250778
 20
497.47245400000003
 30
0.0
 11
450.21885099250773
 21
497.245969
 31
0.0
  0
LINE
  5
15135
  8
WAKU
  6
CONTINUOUS
 10
450.21885099250773
 20
497.245969
 30
0.0
 11
450.49711599250787
 21
497.10779099999991
 31
0.0
  0
INSERT
  5
15136
  8
WAKU
  6
CONTINUOUS
  2
*U2
 10
80.66846999250788
 20
213.0
 30
0.0
1001
ACAD
1002
{
1000
R14_HATCH_DATA
1000
D6F
1011
81.66846999250788
1021
1.5191925161913191E+093
1031
0.0
1021
213.0
1031
0.0
1011
80.66846999250788
1021
1.5191925161913191E+093
1031
0.0
1021
214.0
1031
0.0
1011
80.66846999250788
1021
1.5191925161913191E+093
1031
0.0
1021
213.0
1031
1.0
1040
0.0
1010
0.0
1020
0.0
1030
1.0
1000
SOLID
1070
     1
1070
     1
1071
       15
1071
        7
1070
     0
1070
     1
1071
        3
1040
372.24905299999989
1040
290.5
1040
367.97127599999999
1040
290.5
1040
367.97127599999999
1040
286.22222199999982
1071
        3
1005
CC0
1005
CC2
1005
CC1
1071
        7
1070
     0
1070
     1
1071
       38
1040
373.99882100000002
1040
289.11575699999992
1040
373.69234799999992
1040
289.22005999999982
1040
373.31714299999999
1040
289.22997199999998
1040
372.88698799999992
1040
289.145129
1040
372.41768300000001
1040
288.96864799999992
1040
371.92646400000001
1040
288.70701000000003
1040
371.43137400000001
1040
288.36982599999999
1040
370.95059900000001
1040
287.96947999999992
1040
370.50179500000002
1040
287.52067699999992
1040
370.10144899999989
1040
287.03990099999982
1040
369.76426499999991
1040
286.54481199999992
1040
369.50262700000002
1040
286.05359299999992
1040
369.32614599999988
1040
285.58428700000002
1040
369.24130299999962
1040
285.15413199999989
1040
369.251215
1040
284.77892800000001
1040
369.35551800000002
1040
284.47245400000008
1040
369.55038100000002
1040
284.245969
1040
369.82864599999988
1040
284.10779100000002
1040
369.96682399999992
1040
283.82952599999982
1040
370.193309
1040
283.63466399999999
1040
370.49978199999993
1040
283.53036100000003
1040
370.87498699999992
1040
283.52044899999993
1040
371.30514199999988
1040
283.60529100000002
1040
371.77444800000001
1040
283.78177299999987
1040
372.26566600000001
1040
284.04341099999982
1040
372.76075600000001
1040
284.38059500000008
1040
373.24153200000001
1040
284.78094099999993
1040
373.69033499999989
1040
285.22974399999998
1040
374.09068100000002
1040
285.71051999999992
1040
374.427865
1040
286.20560899999992
1040
374.689503
1040
286.69682799999998
1040
374.86598399999991
1040
287.166134
1040
374.950827
1040
287.59628900000001
1040
374.94091500000002
1040
287.97149300000001
1040
374.836612
1040
288.27796699999999
1040
374.641749
1040
288.50445200000001
1040
374.36348399999991
1040
288.64263
1040
374.22530599999988
1040
288.92089499999997
1071
       38
1005
D5D
1005
D5E
1005
D5F
1005
D60
1005
D61
1005
D62
1005
D63
1005
D64
1005
D65
1005
D66
1005
D67
1005
D68
1005
D69
1005
D6A
1005
D6B
1005
D6C
1005
D6D
1005
D6E
1005
D07
1005
D08
1005
D09
1005
D0A
1005
D0B
1005
D0C
1005
D0D
1005
D0E
1005
D0F
1005
D10
1005
D11
1005
D12
1005
D13
1005
D14
1005
D15
1005
D16
1005
D17
1005
D18
1005
D19
1005
D5C
1071
       22
1070
     0
1070
     1
1071
       25
1040
373.799148
1040
288.78192899999988
1040
373.91694100000001
1040
288.683944
1040
373.48263600000001
1040
288.60801400000003
1040
373.00563899999992
1040
288.43576799999988
1040
372.50426900000002
1040
288.17382099999992
1040
371.99778300000003
1040
287.83223500000003
1040
371.50563199999988
1040
287.424128
1040
371.04671999999999
1040
286.96517399999999
1040
370.63867099999987
1040
286.47300000000001
1040
370.29715599999992
1040
285.96650899999992
1040
370.03529300000002
1040
285.46515399999993
1040
369.86313899999999
1040
284.98818899999992
1040
369.787305
1040
284.55393500000002
1040
369.68915499999991
1040
284.67243500000001
1040
369.63035799999989
1040
284.873087
1040
369.635696
1040
285.18040400000001
1040
369.73149000000001
1040
285.57602099999991
1040
369.923519
1040
286.03102799999982
1040
370.20703500000002
1040
286.51657
1040
370.99609800000002
1040
287.47510799999992
1040
371.954587
1040
288.26428399999992
1040
372.44023499999992
1040
288.54758500000003
1040
372.89513999999991
1040
288.74006500000002
1040
373.29085699999962
1040
288.83558099999982
1040
373.59799600000002
1040
288.84090200000003
1071
       25
1005
D2D
1005
D1A
1005
D1B
1005
D1C
1005
D1D
1005
D1E
1005
D1F
1005
D20
1005
D21
1005
D22
1005
D23
1005
D24
1005
D3A
1005
D39
1005
D38
1005
D37
1005
D36
1005
D35
1005
D34
1005
D33
1005
D32
1005
D31
1005
D30
1005
D2F
1005
D2E
1071
       22
1070
     0
1070
     1
1071
       16
1040
374.01922899999988
1040
288.29856899999982
1040
373.93207100000001
1040
287.79040199999992
1040
373.66135299999991
1040
287.15953400000001
1040
373.22023799999988
1040
286.48191999999989
1040
372.64629600000001
1040
285.82550600000002
1040
371.98993999999999
1040
285.25143100000003
1040
371.31226299999992
1040
284.81033199999962
1040
370.68139500000001
1040
284.53919500000001
1040
370.172911
1040
284.45185600000002
1040
370.26016800000002
1040
284.959969
1040
370.53071199999999
1040
285.59087499999993
1040
370.97189600000002
1040
286.26847099999992
1040
371.54582699999992
1040
286.92489299999988
1040
372.202181
1040
287.49899099999999
1040
372.87987799999991
1040
287.94005699999991
1040
373.510738
1040
288.21123999999998
1071
       16
1005
D2C
1005
D2B
1005
D2A
1005
D29
1005
D28
1005
D27
1005
D26
1005
D25
1005
D50
1005
D4F
1005
D4E
1005
D4D
1005
D4C
1005
D4B
1005
D4A
1005
D49
1071
       22
1070
     0
1070
     1
1071
       25
1040
374.40481
1040
288.19624900000002
1040
374.502951
1040
288.07791800000001
1040
374.561802
1040
287.87725299999983
1040
374.55636099999998
1040
287.56986399999988
1040
374.46071000000001
1040
287.17424799999992
1040
374.268507
1040
286.71927799999992
1040
373.98505
1040
286.23371800000001
1040
373.195965
1040
285.2752319999999
1040
372.23749700000002
1040
284.48611699999992
1040
371.75188199999991
1040
284.20279799999992
1040
371.2969839999991
1040
284.01036800000003
1040
370.90129400000001
1040
283.91486300000003
1040
370.59417699999989
1040
283.90949799999999
1040
370.39292699999987
1040
283.968568
1040
370.27517699999993
1040
284.06647599999991
1040
370.70945799999993
1040
284.14239700000002
1040
371.18642799999992
1040
284.31462499999992
1040
371.68776999999989
1040
284.57654500000001
1040
372.194232
1040
284.91809899999993
1040
372.68636299999991
1040
285.32617099999982
1040
373.14526599999988
1040
285.78508900000003
1040
373.553316
1040
286.27722899999992
1040
373.89484299999992
1040
286.78369300000008
1040
374.15673199999992
1040
287.28502999999989
1040
374.32892500000003
1040
287.76198699999992
1071
       25
1005
D48
1005
D47
1005
D46
1005
D45
1005
D44
1005
D43
1005
D42
1005
D41
1005
D40
1005
D3F
1005
D3E
1005
D3D
1005
D3C
1005
D3B
1005
D51
1005
D52
1005
D53
1005
D54
1005
D55
1005
D56
1005
D57
1005
D58
1005
D59
1005
D5A
1005
D5B
1071
        7
1070
     0
1070
     1
1071
       14
1040
378.72307699999988
1040
290.5
1040
378.09592799999979
1040
288.7769229999999
1040
380.31131299999993
1040
288.7769229999999
1040
377.15520499999991
1040
286.19230800000003
1040
376.17528499999992
1040
283.49999999999989
1040
379.39714500000002
1040
286.13846199999989
1040
378.436824
1040
283.49999999999989
1040
379.51374700000002
1040
283.49999999999989
1040
380.49366700000002
1040
286.19230800000003
1040
381.775285
1040
283.49999999999989
1040
382.75520499999988
1040
286.19230800000003
1040
381.52485099999961
1040
288.7769229999999
1040
383.69592799999992
1040
288.7769229999999
1040
384.32307700000001
1040
290.5
1071
       14
1005
CC4
1005
CCF
1005
CCE
1005
CC5
1005
CC7
1005
CC8
1005
CCD
1005
CCC
1005
CCB
1005
CCA
1005
CC9
1005
CC6
1005
CC3
1005
CDC
1071
        7
1070
     0
1070
     1
1071
        4
1040
385.615385
1040
290.5
1040
384.98823599999992
1040
288.7769229999999
1040
390.37285099999991
1040
288.7769229999999
1040
391.0
1040
290.5
1071
        4
1005
CDA
1005
CDB
1005
CD9
1005
CE3
1071
        7
1070
     0
1070
     1
1071
        4
1040
388.45220799999993
1040
283.49999999999989
1040
389.23614399999991
1040
285.65384599999987
1040
383.85152900000003
1040
285.65384599999987
1040
383.06759299999987
1040
283.49999999999989
1071
        4
1005
CD3
1005
CD4
1005
CD5
1005
CD2
1071
        7
1070
     0
1070
     1
1071
       22
1040
395.45220799999993
1040
283.49999999999989
1040
396.941687
1040
287.592308
1040
397.74937899999998
1040
287.592308
1040
398.33733100000001
1040
289.20769200000001
1040
397.52963799999992
1040
289.20769200000001
1040
398.0
1040
290.5
1040
396.92307699999992
1040
290.5
1040
396.45271500000001
1040
289.20769200000001
1040
393.76040799999993
1040
289.20769200000001
1040
394.23076900000001
1040
290.5
1040
393.15384599999999
1040
290.5
1040
392.68348500000002
1040
289.20769200000001
1040
391.87579199999999
1040
289.20769200000001
1040
391.28784000000002
1040
287.592308
1040
392.09553299999988
1040
287.592308
1040
391.70356499999991
1040
286.51538499999998
1040
392.78048799999999
1040
286.51538499999998
1040
393.17245600000001
1040
287.592308
1040
395.86476299999993
1040
287.592308
1040
395.159221
1040
285.65384599999987
1040
391.17460599999998
1040
285.65384599999987
1040
390.39067
1040
283.49999999999989
1071
       22
1005
CFB
1005
CFC
1005
CFA
1005
CF9
1005
CF8
1005
CFE
1005
CBC
1005
CDE
1005
CDD
1005
CE2
1005
CDF
1005
CE1
1005
CE0
1005
CD1
1005
CD7
1005
CD0
1005
CBD
1005
CBF
1005
CD6
1005
CD8
1005
CBE
1005
CF0
1071
        7
1070
     0
1070
     1
1071
        6
1040
398.19400599999989
1040
285.115385
1040
397.60605499999991
1040
283.49999999999989
1040
401.913747
1040
283.49999999999989
1040
403.87358699999999
1040
288.884615
1040
402.7966629999998
1040
288.884615
1040
401.42477599999989
1040
285.115385
1071
        6
1005
D01
1005
CEF
1005
CF3
1005
CF4
1005
CF1
1005
CEE
1071
       23
1070
     0
1070
     1
1071
        4
1040
402.04281700000001
1040
288.884615
1040
400.96589399999988
1040
288.884615
1040
400.18195800000001
1040
286.73076900000001
1040
401.25888099999992
1040
286.73076900000001
1071
        4
1005
CF7
1005
CEB
1005
CF5
1005
CED
1071
       23
1070
     0
1070
     1
1071
        4
1040
400.64281699999992
1040
288.884615
1040
399.56589400000001
1040
288.884615
1040
398.78195799999997
1040
286.73076900000001
1040
399.858881
1040
286.73076900000001
1071
        4
1005
CFD
1005
CEA
1005
CF2
1005
CEC
1071
       23
1070
     0
1070
     1
1071
        4
1040
406.615385
1040
290.5
1040
405.98823599999992
1040
288.7769229999999
1040
409.21900499999998
1040
288.7769229999999
1040
409.84615400000001
1040
290.5
1071
        4
1005
CE9
1005
CFF
1005
CE8
1005
D04
1071
       23
1070
     0
1070
     1
1071
        4
1040
405.75305500000002
1040
288.13076899999982
1040
405.28269399999999
1040
286.83846199999999
1040
408.51346299999989
1040
286.83846199999999
1040
408.98382400000003
1040
288.13076899999982
1071
        4
1005
CE4
1005
D00
1005
CE5
1005
D06
1071
        7
1070
     0
1070
     1
1071
        6
1040
409.45220799999993
1040
283.49999999999989
1040
412.0
1040
290.5
1040
410.92307699999992
1040
290.5
1040
409.15922099999989
1040
285.65384599999987
1040
404.85152900000003
1040
285.65384599999987
1040
404.06759299999987
1040
283.49999999999989
1071
        6
1005
D05
1005
D02
1005
CE7
1005
CF6
1005
CE6
1005
D03
1070
     0
1070
     1
1040
0.054099
1071
       15
1040
371.24837300000002
1040
289.88140899999991
1040
0.0
1040
373.90111799999988
1040
288.90763299999992
1040
0.0
1040
373.90111799999988
1040
288.90763299999992
1040
0.0
1040
373.90111799999988
1040
288.90763299999992
1040
0.0
1040
373.90111799999988
1040
288.90763299999992
1040
0.0
1040
380.34350000000001
1040
289.82731000000001
1040
0.0
1040
388.24759699999993
1040
289.66501399999993
1040
0.0
1040
386.51519200000001
1040
284.14694900000001
1040
0.0
1040
392.57860899999991
1040
284.25514599999991
1040
0.0
1040
400.53684500000003
1040
284.30924499999992
1040
0.0
1040
401.02408299999979
1040
287.55516599999982
1040
0.0
1040
399.72478000000001
1040
287.60926399999988
1040
0.0
1040
407.35818899999981
1040
289.98960599999992
1040
0.0
1040
407.141639
1040
287.50106699999992
1040
0.0
1040
407.19577600000002
1040
284.471541
1040
0.0
1002
}
  0
LINE
  5
15137
  8
WAKU
 10
5.0
 20
505.0
 30
0.0
 11
500.0
 21
505.0
 31
0.0
  0
LINE
  5
15138
  8
DANMEN
  6
CONTINUOUS
 10
245.2240556658717
 20
299.47709298101961
 30
0.0
 11
221.22405566587159
 21
299.47709298101961
 31
0.0
  0
LINE
  5
15139
  8
DANMEN
  6
CONTINUOUS
 10
245.2240556658717
 20
399.47709298101961
 30
0.0
 11
216.2240556658717
 21
399.47709298101961
 31
0.0
  0
LINE
  5
1513A
  8
DANMEN
  6
CONTINUOUS
 10
217.37405566587171
 20
397.82709298101952
 30
0.0
 11
244.0740556658719
 21
397.82709298101952
 31
0.0
  0
LINE
  5
1513B
  8
DANMEN
  6
CONTINUOUS
 10
217.37405566587171
 20
344.47709298101961
 30
0.0
 11
244.0740556658719
 21
344.47709298101961
 31
0.0
  0
TEXT
  5
1513C
  8
SUNPO
  6
CONTINUOUS
 10
228.6615556658717
 20
420.47709298101938
 30
0.0
 40
2.5
  1
30
 41
1.1000000000000001
  7
MX_DIMTXSTY_3
  0
LINE
  5
1513D
  8
SUNPO
  6
CONTINUOUS
 10
215.7240556658717
 20
419.47709298101961
 30
0.0
 11
245.72405566587159
 21
419.47709298101961
 31
0.0
  0
LINE
  5
1513E
  8
SUNPO
  6
CONTINUOUS
 10
245.72405566587159
 20
269.47709298101961
 30
0.0
 11
220.72405566587159
 21
269.47709298101961
 31
0.0
  0
LINE
  5
1513F
  8
DANMEN
  6
CONTINUOUS
 10
228.7240556658717
 20
342.82709298101958
 30
0.0
 11
228.7240556658717
 21
301.12709298101959
 31
0.0
  0
ARC
  5
15140
  8
DANMEN
  6
CONTINUOUS
 10
139.2240556658719
 20
334.97709298101961
 30
0.0
 40
0.5
 50
90.0
 51
180.0
  0
ARC
  5
15141
  8
DANMEN
  6
CONTINUOUS
 10
140.2240556658719
 20
334.97709298101961
 30
0.0
 40
0.5
 50
0.0
 51
90.0
  0
LINE
  5
15142
  8
DANMEN
  6
CONTINUOUS
 10
73.724055665871902
 20
297.97709298101961
 30
0.0
 11
73.724055665871902
 21
350.47709298101961
 31
0.0
  0
LINE
  5
15143
  8
DANMEN
  6
CONTINUOUS
 10
144.72405566587179
 20
302.97709298101961
 30
0.0
 11
144.72405566587179
 21
350.47709298101961
 31
0.0
  0
LINE
  5
15144
  8
DANMEN
  6
CONTINUOUS
 10
86.724055665871902
 20
287.47709298101961
 30
0.0
 11
86.724055665871902
 21
350.47709298101961
 31
0.0
  0
LINE
  5
15145
  8
DANMEN
  6
CONTINUOUS
 10
82.724055665871902
 20
287.47709298101961
 30
0.0
 11
82.724055665871902
 21
350.47709298101961
 31
0.0
  0
LINE
  5
15146
  8
DANMEN
  6
CONTINUOUS
 10
87.724055665871902
 20
287.47709298101961
 30
0.0
 11
87.724055665871902
 21
350.47709298101961
 31
0.0
  0
LINE
  5
15147
  8
DANMEN
  6
CONTINUOUS
 10
81.724055665871902
 20
287.47709298101961
 30
0.0
 11
81.724055665871902
 21
350.47709298101961
 31
0.0
  0
LINE
  5
15148
  8
DANMEN
  6
CONTINUOUS
 10
165.72405566587179
 20
302.97709298101961
 30
0.0
 11
165.72405566587179
 21
350.47709298101961
 31
0.0
  0
LINE
  5
15149
  8
DANMEN
  6
CONTINUOUS
 10
65.724055665871902
 20
296.9770929810195
 30
0.0
 11
65.724055665871902
 21
350.47709298101961
 31
0.0
  0
LINE
  5
1514A
  8
DANMEN
  6
CONTINUOUS
 10
75.724055665871902
 20
297.97709298101961
 30
0.0
 11
75.724055665871902
 21
350.47709298101961
 31
0.0
  0
LINE
  5
1514B
  8
DANMEN
  6
CONTINUOUS
 10
93.724055665871902
 20
330.47709298101961
 30
0.0
 11
93.724055665871902
 21
350.47709298101961
 31
0.0
  0
LINE
  5
1514C
  8
DANMEN
  6
CONTINUOUS
 10
163.2240556658719
 20
302.97709298101961
 30
0.0
 11
163.2240556658719
 21
350.47709298101961
 31
0.0
  0
LINE
  5
1514D
  8
SUNPO
  6
CONTINUOUS
 10
125.3640556658716
 20
330.47709298101961
 30
0.0
 11
125.3640556658716
 21
335.47709298101961
 31
0.0
  0
LINE
  5
1514E
  8
SUNPO
  6
CONTINUOUS
 10
193.72405566587159
 20
407.97709298101938
 30
0.0
 11
193.72405566587159
 21
310.47709298101961
 31
0.0
  0
LINE
  5
1514F
  8
SUNPO
  6
CONTINUOUS
 10
183.7240556658717
 20
335.47709298101961
 30
0.0
 11
183.7240556658717
 21
302.97709298101961
 31
0.0
  0
LINE
  5
15150
  8
SUNPO
  6
CONTINUOUS
 10
206.22405566587159
 20
341.82709298101958
 30
0.0
 11
206.22405566587159
 21
269.47709298101961
 31
0.0
  0
LINE
  5
15151
  8
SUNPO
  6
CONTINUOUS
 10
202.22405566587159
 20
299.47709298101961
 30
0.0
 11
202.22405566587159
 21
344.47709298101961
 31
0.0
  0
LINE
  5
15152
  8
DANMEN
  6
CONTINUOUS
 10
99.72405566587193
 20
257.82509298101951
 30
0.0
 11
92.98005566587193
 21
257.5280929810196
 31
0.0
  0
LINE
  5
15153
  8
DANMEN
  6
CONTINUOUS
 10
99.72405566587193
 20
259.4770929810195
 30
0.0
 11
66.20205566587191
 21
257.99809298101951
 31
0.0
  0
ARC
  5
15154
  8
DANMEN
  6
CONTINUOUS
 10
100.2240556658719
 20
307.12709298101959
 30
0.0
 40
2.0
 50
180.0
 51
270.0
  0
ARC
  5
15155
  8
DANMEN
  6
CONTINUOUS
 10
100.2240556658719
 20
311.32709298101958
 30
0.0
 40
2.0
 50
90.0
 51
180.0
  0
LINE
  5
15156
  8
DANMEN
  6
CONTINUOUS
 10
94.224055665871902
 20
330.47709298101961
 30
0.0
 11
135.7240556658719
 21
330.47709298101961
 31
0.0
  0
LINE
  5
15157
  8
DANMEN
  6
CONTINUOUS
 10
95.724055665871916
 20
328.47709298101961
 30
0.0
 11
105.8240556658718
 21
328.47709298101961
 31
0.0
  0
LINE
  5
15158
  8
DANMEN
  6
CONTINUOUS
 10
95.724055665871916
 20
289.97709298101961
 30
0.0
 11
105.8240556658718
 21
289.97709298101961
 31
0.0
  0
LINE
  5
15159
  8
DANMEN
  6
CONTINUOUS
 10
95.724055665871916
 20
287.97709298101961
 30
0.0
 11
140.2240556658719
 21
287.97709298101961
 31
0.0
  0
LINE
  5
1515A
  8
DANMEN
  6
CONTINUOUS
 10
66.224055665871902
 20
242.9770929810195
 30
0.0
 11
120.7240556658716
 21
242.9770929810195
 31
0.0
  0
LINE
  5
1515B
  8
DANMEN
  6
CONTINUOUS
 10
67.374055665871907
 20
244.62709298101959
 30
0.0
 11
99.72405566587193
 21
244.62709298101959
 31
0.0
  0
LINE
  5
1515C
  8
SUNPO
  6
CONTINUOUS
 10
120.7240556658716
 20
227.97709298101961
 30
0.0
 11
65.724055665871902
 21
227.97709298101961
 31
0.0
  0
LINE
  5
1515D
  8
SUNPO
  6
CONTINUOUS
 10
119.2240556658719
 20
232.9770929810195
 30
0.0
 11
50.724055665871852
 21
232.9770929810195
 31
0.0
  0
LINE
  5
1515E
  8
SUNPO
  6
CONTINUOUS
 10
50.724055665871852
 20
232.9770929810195
 30
0.0
 11
50.724055665871852
 21
242.9770929810195
 31
0.0
  0
TEXT
  5
1515F
  8
SUNPO
  6
CONTINUOUS
 10
49.72405566587188
 20
236.0083429810195
 30
0.0
 40
2.5
  1
10
 50
90.0
 41
1.3500000000000001
  7
MX_DIMTXSTY_5
  0
LINE
  5
15160
  8
SUNPO
  6
CONTINUOUS
 10
65.724055665871902
 20
241.9770929810195
 30
0.0
 11
65.724055665871902
 21
227.97709298101961
 31
0.0
  0
INSERT
  5
15161
  8
SUNPO
  6
CONTINUOUS
  2
_DOTSMALL
 10
65.724055665871902
 20
227.97709298101961
 30
0.0
 41
2.3199999999999901
 42
2.3199999999999901
 43
2.3199999999999981
 50
180.0
  0
INSERT
  5
15162
  8
SUNPO
  6
CONTINUOUS
  2
_DOTSMALL
 10
50.724055665871852
 20
232.9770929810195
 30
0.0
 41
2.3199999999999901
 42
2.3199999999999901
 43
2.3199999999999981
 50
270.0
  0
TEXT
  5
15163
  8
SUNPO
  6
CONTINUOUS
 10
91.140722332538573
 20
228.9770929810195
 30
0.0
 40
2.5
  1
55
  7
MX_NOTE_STANDARD
  0
LINE
  5
15164
  8
DANMEN
  6
CONTINUOUS
 10
93.724055665871902
 20
280.47709298101961
 30
0.0
 11
93.724055665871902
 21
329.97709298101961
 31
0.0
  0
LINE
  5
15165
  8
DANMEN
  6
CONTINUOUS
 10
67.724055665871902
 20
280.47709298101961
 30
0.0
 11
67.724055665871902
 21
295.16709298101949
 31
0.0
  0
LINE
  5
15166
  8
DANMEN
  6
CONTINUOUS
 10
74.224055665871902
 20
288.47709298101961
 30
0.0
 11
74.224055665871902
 21
295.81709298101958
 31
0.0
  0
LINE
  5
15167
  8
DANMEN
  6
CONTINUOUS
 10
75.724055665871902
 20
288.47709298101961
 30
0.0
 11
75.724055665871902
 21
297.42509298101959
 31
0.0
  0
LINE
  5
15168
  8
DANMEN
  6
CONTINUOUS
 10
65.724055665871902
 20
267.47709298101961
 30
0.0
 11
65.724055665871902
 21
296.52509298101961
 31
0.0
  0
TEXT
  5
15169
  8
SUNPO
  6
CONTINUOUS
 10
59.72405566587188
 20
287.82309298101961
 30
0.0
 40
2.5
  1
10.5
 50
90.0
 41
1.399999999999999
  7
MX_DIMTXSTY_8
  0
LINE
  5
1516A
  8
SUNPO
  6
CONTINUOUS
 10
60.724055665871887
 20
287.47709298101961
 30
0.0
 11
60.724055665871887
 21
297.97709298101961
 31
0.0
  0
LINE
  5
1516B
  8
SUNPO
  6
CONTINUOUS
 10
50.724055665871852
 20
266.97709298101961
 30
0.0
 11
50.724055665871887
 21
296.9770929810195
 31
0.0
  0
ARC
  5
1516C
  8
DANMEN
  6
CONTINUOUS
 10
66.224055665871902
 20
257.4990929810196
 30
0.0
 40
0.5
 50
92.526000000000664
 51
180.0
  0
ARC
  5
1516D
  8
DANMEN
  6
CONTINUOUS
 10
66.224055665871902
 20
267.47709298101961
 30
0.0
 40
0.5
 50
180.0
 51
270.0
  0
ARC
  5
1516E
  8
DANMEN
  6
CONTINUOUS
 10
66.224055665871902
 20
243.4770929810195
 30
0.0
 40
0.5
 50
180.0
 51
270.0
  0
LINE
  5
1516F
  8
SUNPO
  6
CONTINUOUS
 10
78.224055665871902
 20
287.47709298101961
 30
0.0
 11
60.724055665871887
 21
287.47709298101961
 31
0.0
  0
LINE
  5
15170
  8
SUNPO
  6
CONTINUOUS
 10
98.224055665871916
 20
259.4770929810195
 30
0.0
 11
60.724055665871852
 21
259.4770929810195
 31
0.0
  0
LINE
  5
15171
  8
DANMEN
  6
CONTINUOUS
 10
65.724055665871902
 20
266.97709298101961
 30
0.0
 11
65.724055665871902
 21
257.97709298101961
 31
0.0
  0
LINE
  5
15172
  8
SUNPO
  6
CONTINUOUS
 10
50.724055665871852
 20
257.97709298101961
 30
0.0
 11
50.724055665871852
 21
266.97709298101961
 31
0.0
  0
TEXT
  5
15173
  8
SUNPO
  6
CONTINUOUS
 10
49.72405566587188
 20
248.4770929810195
 30
0.0
 40
2.5
  1
15
 50
90.0
 41
1.1999999999999991
  7
MX_DIMTXSTY_6
  0
TEXT
  5
15174
  8
SUNPO
  6
CONTINUOUS
 10
49.72405566587188
 20
261.64375964768618
 30
0.0
 40
2.5
  1
9
 50
90.0
  7
MX_NOTE_STANDARD
  0
LINE
  5
15175
  8
DANMEN
  6
CONTINUOUS
 10
65.724055665871902
 20
257.4990929810196
 30
0.0
 11
65.724055665871902
 21
243.4770929810195
 31
0.0
  0
LINE
  5
15176
  8
SUNPO
  6
CONTINUOUS
 10
50.724055665871852
 20
242.9770929810195
 30
0.0
 11
50.724055665871852
 21
257.97709298101961
 31
0.0
  0
LINE
  5
15177
  8
SUNPO
  6
CONTINUOUS
 10
60.724055665871852
 20
257.97709298101961
 30
0.0
 11
60.724055665871852
 21
245.08709298101959
 31
0.0
  0
LINE
  5
15178
  8
SUNPO
  6
CONTINUOUS
 10
64.724055665871902
 20
242.9770929810195
 30
0.0
 11
50.724055665871852
 21
242.9770929810195
 31
0.0
  0
LINE
  5
15179
  8
SUNPO
  6
CONTINUOUS
 10
64.724055665871902
 20
242.9770929810195
 30
0.0
 11
50.724055665871852
 21
242.9770929810195
 31
0.0
  0
TEXT
  5
1517A
  8
SUNPO
  6
CONTINUOUS
 10
59.72405566587188
 20
246.0870929810194
 30
0.0
 40
2.5
  1
1.5
 50
90.0
 41
1.5
  7
MX_DIMTXSTY_2
  0
INSERT
  5
1517B
  8
SUNPO
  6
CONTINUOUS
  2
_DOTSMALL
 10
50.724055665871852
 20
242.9770929810195
 30
0.0
 41
2.3199999999999901
 42
2.3199999999999901
 43
2.3199999999999981
 50
270.0
  0
INSERT
  5
1517C
  8
SUNPO
  6
CONTINUOUS
  2
_DOTSMALL
 10
50.724055665871852
 20
242.9770929810195
 30
0.0
 41
2.3199999999999901
 42
2.3199999999999901
 43
2.3199999999999981
 50
90.0
  0
LINE
  5
1517D
  8
SUNPO
  6
CONTINUOUS
 10
64.224055665871902
 20
257.97709298101961
 30
0.0
 11
50.724055665871852
 21
257.97709298101961
 31
0.0
  0
LINE
  5
1517E
  8
SUNPO
  6
CONTINUOUS
 10
64.224055665871902
 20
257.97709298101961
 30
0.0
 11
50.724055665871852
 21
257.97709298101961
 31
0.0
  0
INSERT
  5
1517F
  8
SUNPO
  6
CONTINUOUS
  2
_DOTSMALL
 10
50.724055665871852
 20
257.97709298101961
 30
0.0
 41
2.3199999999999901
 42
2.3199999999999901
 43
2.3199999999999981
 50
270.0
  0
INSERT
  5
15180
  8
SUNPO
  6
CONTINUOUS
  2
_DOTSMALL
 10
50.724055665871852
 20
257.97709298101961
 30
0.0
 41
2.3199999999999901
 42
2.3199999999999901
 43
2.3199999999999981
 50
90.0
  0
INSERT
  5
15181
  8
SUNPO
  6
CONTINUOUS
  2
_DOTSMALL
 10
60.724055665871852
 20
259.4770929810195
 30
0.0
 41
2.3199999999999901
 42
2.3199999999999901
 43
2.3199999999999981
 50
270.0
  0
LINE
  5
15182
  8
SUNPO
  6
CONTINUOUS
 10
60.724055665871852
 20
259.4770929810195
 30
0.0
 11
60.724055665871852
 21
261.7970929810196
 31
0.0
  0
INSERT
  5
15183
  8
SUNPO
  6
CONTINUOUS
  2
_DOTSMALL
 10
60.724055665871852
 20
257.97709298101961
 30
0.0
 41
2.3199999999999901
 42
2.3199999999999901
 43
2.3199999999999981
 50
90.0
  0
LINE
  5
15184
  8
SUNPO
  6
CONTINUOUS
 10
60.724055665871852
 20
259.4770929810195
 30
0.0
 11
60.724055665871852
 21
257.97709298101961
 31
0.0
  0
TEXT
  5
15185
  8
SUNPO
  6
CONTINUOUS
 10
49.72405566587188
 20
279.91459298101961
 30
0.0
 40
2.5
  1
30
 50
90.0
 41
1.1000000000000001
  7
MX_DIMTXSTY_3
  0
LINE
  5
15186
  8
SUNPO
  6
CONTINUOUS
 10
64.724055665871902
 20
266.97709298101961
 30
0.0
 11
50.724055665871852
 21
266.97709298101961
 31
0.0
  0
LINE
  5
15187
  8
SUNPO
  6
CONTINUOUS
 10
64.724055665871902
 20
266.97709298101961
 30
0.0
 11
50.724055665871852
 21
266.97709298101961
 31
0.0
  0
INSERT
  5
15188
  8
SUNPO
  6
CONTINUOUS
  2
_DOTSMALL
 10
50.724055665871852
 20
266.97709298101961
 30
0.0
 41
2.3199999999999901
 42
2.3199999999999901
 43
2.3199999999999981
 50
90.0
  0
INSERT
  5
15189
  8
SUNPO
  6
CONTINUOUS
  2
_DOTSMALL
 10
50.724055665871852
 20
266.97709298101961
 30
0.0
 41
2.3199999999999901
 42
2.3199999999999901
 43
2.3199999999999981
 50
270.0
  0
INSERT
  5
1518A
  8
SUNPO
  6
CONTINUOUS
  2
_DOTSMALL
 10
60.724055665871887
 20
287.47709298101961
 30
0.0
 41
2.3199999999999901
 42
2.3199999999999901
 43
2.3199999999999981
 50
270.0
  0
LINE
  5
1518B
  8
DANMEN
  6
CONTINUOUS
 10
84.380055665871907
 20
257.1480929810196
 30
0.0
 11
67.374055665871907
 21
256.3980929810192
 31
0.0
  0
LINE
  5
1518C
  8
DANMEN
  6
CONTINUOUS
 10
67.374055665871907
 20
256.3980929810192
 30
0.0
 11
67.374055665871907
 21
244.62709298101959
 31
0.0
  0
ARC
  5
1518D
  8
DANMEN
  6
CONTINUOUS
 10
87.924055665871904
 20
254.5310929810195
 30
0.0
 40
1.0
 50
180.0
 51
245.3760000000004
  0
ARC
  5
1518E
  8
DANMEN
  6
CONTINUOUS
 10
89.524055665871913
 20
254.5310929810195
 30
0.0
 40
1.0
 50
294.6239999999994
 51
0.0
  0
ARC
  5
1518F
  8
DANMEN
  6
CONTINUOUS
 10
87.42405566587189
 20
254.44709298101941
 30
0.0
 40
2.0
 50
180.0
 51
231.7069999999994
  0
ARC
  5
15190
  8
DANMEN
  6
CONTINUOUS
 10
90.024055665871899
 20
254.44709298101941
 30
0.0
 40
2.0
 50
308.29300000000052
 51
0.0
  0
LINE
  5
15191
  8
DANMEN
  6
CONTINUOUS
 10
91.263055665871875
 20
252.87709298101959
 30
0.0
 11
90.124055665871865
 21
252.87709298101959
 31
0.0
  0
LINE
  5
15192
  8
DANMEN
  6
CONTINUOUS
 10
86.1850556658719
 20
252.87709298101959
 30
0.0
 11
87.324055665871867
 21
252.87709298101959
 31
0.0
  0
ARC
  5
15193
  8
DANMEN
  6
CONTINUOUS
 10
87.324055665871867
 20
253.1770929810196
 30
0.0
 40
0.3
 50
270.0
 51
0.0
  0
ARC
  5
15194
  8
DANMEN
  6
CONTINUOUS
 10
90.124055665871865
 20
253.1770929810196
 30
0.0
 40
0.3
 50
180.0
 51
270.0
  0
LINE
  5
15195
  8
DANMEN
  6
CONTINUOUS
 10
87.624055665871879
 20
253.1770929810196
 30
0.0
 11
87.624055665871879
 21
253.4400929810196
 31
0.0
  0
ARC
  5
15196
  8
DANMEN
  6
CONTINUOUS
 10
87.42405566587189
 20
253.4400929810196
 30
0.0
 40
0.2
 50
0.0
 51
65.376000000000531
  0
ARC
  5
15197
  8
DANMEN
  6
CONTINUOUS
 10
90.024055665871899
 20
253.4400929810196
 30
0.0
 40
0.2
 50
114.6239999999994
 51
180.0
  0
LINE
  5
15198
  8
DANMEN
  6
CONTINUOUS
 10
89.824055665871867
 20
253.1770929810196
 30
0.0
 11
89.824055665871867
 21
253.4400929810196
 31
0.0
  0
LINE
  5
15199
  8
DANMEN
  6
CONTINUOUS
 10
85.424055665871904
 20
254.44709298101941
 30
0.0
 11
85.424055665871904
 21
256.14909298101952
 31
0.0
  0
ARC
  5
1519A
  8
DANMEN
  6
CONTINUOUS
 10
84.424055665871876
 20
256.14909298101952
 30
0.0
 40
1.0
 50
0.0
 51
92.526000000000664
  0
LINE
  5
1519B
  8
DANMEN
  6
CONTINUOUS
 10
90.524055665871927
 20
254.5310929810195
 30
0.0
 11
90.524055665871927
 21
255.77709298101959
 31
0.0
  0
LINE
  5
1519C
  8
DANMEN
  6
CONTINUOUS
 10
86.924055665871862
 20
254.5310929810195
 30
0.0
 11
86.924055665871862
 21
255.77709298101959
 31
0.0
  0
LINE
  5
1519D
  8
DANMEN
  6
CONTINUOUS
 10
87.924055665871904
 20
256.77709298101928
 30
0.0
 11
89.524055665871913
 21
256.77709298101928
 31
0.0
  0
ARC
  5
1519E
  8
DANMEN
  6
CONTINUOUS
 10
89.524055665871913
 20
255.77709298101959
 30
0.0
 40
1.0
 50
0.0
 51
90.0
  0
ARC
  5
1519F
  8
DANMEN
  6
CONTINUOUS
 10
87.924055665871904
 20
255.77709298101959
 30
0.0
 40
1.0
 50
90.0
 51
180.0
  0
LINE
  5
151A0
  8
DANMEN
  6
CONTINUOUS
 10
92.024055665871927
 20
254.44709298101941
 30
0.0
 11
92.024055665871927
 21
256.52909298101952
 31
0.0
  0
ARC
  5
151A1
  8
DANMEN
  6
CONTINUOUS
 10
93.024055665871927
 20
256.52909298101952
 30
0.0
 40
1.0
 50
92.526000000000664
 51
180.0
  0
LINE
  5
151A2
  8
DANMEN
  6
CONTINUOUS
 10
67.724055665871902
 20
280.47709298101961
 30
0.0
 11
93.724055665871902
 21
280.47709298101961
 31
0.0
  0
LINE
  5
151A3
  8
DANMEN
  6
CONTINUOUS
 10
67.724055665871902
 20
278.47709298101961
 30
0.0
 11
93.724055665871902
 21
278.47709298101961
 31
0.0
  0
LINE
  5
151A4
  8
DANMEN
  6
CONTINUOUS
 10
79.724055665871902
 20
287.47709298101961
 30
0.0
 11
89.724055665871873
 21
287.47709298101961
 31
0.0
  0
LINE
  5
151A5
  8
DANMEN
  6
CONTINUOUS
 10
79.724055665871902
 20
280.47709298101961
 30
0.0
 11
89.724055665871873
 21
280.47709298101961
 31
0.0
  0
LINE
  5
151A6
  8
DANMEN
  6
CONTINUOUS
 10
79.724055665871902
 20
287.47709298101961
 30
0.0
 11
89.724055665871873
 21
280.47709298101961
 31
0.0
  0
LINE
  5
151A7
  8
DANMEN
  6
CONTINUOUS
 10
67.724055665871902
 20
268.97709298101961
 30
0.0
 11
67.724055665871902
 21
278.47709298101961
 31
0.0
  0
ARC
  5
151A8
  8
DANMEN
  6
CONTINUOUS
 10
70.224055665871902
 20
267.47709298101961
 30
0.0
 40
0.5
 50
270.0
 51
0.0
  0
ARC
  5
151A9
  8
DANMEN
  6
CONTINUOUS
 10
70.224055665871902
 20
268.47709298101961
 30
0.0
 40
0.5
 50
0.0
 51
90.0
  0
LINE
  5
151AA
  8
DANMEN
  6
CONTINUOUS
 10
67.724055665871902
 20
268.97709298101961
 30
0.0
 11
70.224055665871902
 21
268.97709298101961
 31
0.0
  0
LINE
  5
151AB
  8
DANMEN
  6
CONTINUOUS
 10
66.224055665871902
 20
266.97709298101961
 30
0.0
 11
70.224055665871902
 21
266.97709298101961
 31
0.0
  0
LINE
  5
151AC
  8
DANMEN
  6
CONTINUOUS
 10
70.724055665871902
 20
267.47709298101961
 30
0.0
 11
70.724055665871902
 21
268.47709298101961
 31
0.0
  0
ARC
  5
151AD
  8
DANMEN
  6
CONTINUOUS
 10
74.724055665871902
 20
288.47709298101961
 30
0.0
 40
0.5
 50
180.0
 51
270.0
  0
LINE
  5
151AE
  8
DANMEN
  6
CONTINUOUS
 10
79.724055665871902
 20
287.47709298101961
 30
0.0
 11
79.724055665871902
 21
280.47709298101961
 31
0.0
  0
LINE
  5
151AF
  8
DANMEN
  6
CONTINUOUS
 10
79.724055665871902
 20
287.47709298101961
 30
0.0
 11
75.724055665871902
 21
287.47709298101961
 31
0.0
  0
ARC
  5
151B0
  8
DANMEN
  6
CONTINUOUS
 10
75.224055665871902
 20
288.47709298101961
 30
0.0
 40
0.5
 50
270.0
 51
0.0
  0
LINE
  5
151B1
  8
DANMEN
  6
CONTINUOUS
 10
74.724055665871902
 20
287.97709298101961
 30
0.0
 11
75.224055665871902
 21
287.97709298101961
 31
0.0
  0
LINE
  5
151B2
  8
DANMEN
  6
CONTINUOUS
 10
75.724055665871902
 20
287.47709298101961
 30
0.0
 11
75.724055665871902
 21
287.97709298101961
 31
0.0
  0
LINE
  5
151B3
  8
DANMEN
  6
CONTINUOUS
 10
95.724055665871916
 20
267.47709298101961
 30
0.0
 11
95.724055665871916
 21
287.97709298101961
 31
0.0
  0
LINE
  5
151B4
  8
DANMEN
  6
CONTINUOUS
 10
93.724055665871902
 20
268.97709298101961
 30
0.0
 11
93.724055665871902
 21
278.47709298101961
 31
0.0
  0
LINE
  5
151B5
  8
DANMEN
  6
CONTINUOUS
 10
92.224055665871873
 20
266.97709298101961
 30
0.0
 11
95.224055665871902
 21
266.97709298101961
 31
0.0
  0
ARC
  5
151B6
  8
DANMEN
  6
CONTINUOUS
 10
92.224055665871873
 20
268.47709298101961
 30
0.0
 40
0.5
 50
90.0
 51
180.0
  0
ARC
  5
151B7
  8
DANMEN
  6
CONTINUOUS
 10
92.224055665871873
 20
267.47709298101961
 30
0.0
 40
0.5
 50
180.0
 51
270.0
  0
LINE
  5
151B8
  8
DANMEN
  6
CONTINUOUS
 10
92.224055665871873
 20
268.97709298101961
 30
0.0
 11
93.724055665871902
 21
268.97709298101961
 31
0.0
  0
LINE
  5
151B9
  8
DANMEN
  6
CONTINUOUS
 10
91.724055665871902
 20
267.47709298101961
 30
0.0
 11
91.724055665871902
 21
268.47709298101961
 31
0.0
  0
ARC
  5
151BA
  8
DANMEN
  6
CONTINUOUS
 10
95.224055665871902
 20
267.47709298101961
 30
0.0
 40
0.5
 50
270.0
 51
0.0
  0
LINE
  5
151BB
  8
DANMEN
  6
CONTINUOUS
 10
89.724055665871873
 20
287.47709298101961
 30
0.0
 11
93.724055665871902
 21
287.47709298101961
 31
0.0
  0
LINE
  5
151BC
  8
DANMEN
  6
CONTINUOUS
 10
89.724055665871873
 20
287.47709298101961
 30
0.0
 11
89.724055665871873
 21
280.47709298101961
 31
0.0
  0
ARC
  5
151BD
  8
DANMEN
  6
CONTINUOUS
 10
66.224055665871902
 20
296.52509298101961
 30
0.0
 40
0.5
 50
95.710999999999942
 51
180.0
  0
LINE
  5
151BE
  8
SUNPO
  6
CONTINUOUS
 10
72.224055665871902
 20
297.97709298101961
 30
0.0
 11
60.724055665871887
 21
297.97709298101961
 31
0.0
  0
LINE
  5
151BF
  8
SUNPO
  6
CONTINUOUS
 10
72.224055665871902
 20
297.97709298101961
 30
0.0
 11
50.724055665871887
 21
297.97709298101961
 31
0.0
  0
TEXT
  5
151C0
  8
SUNPO
  6
CONTINUOUS
 10
49.72405566587188
 20
296.85209298101961
 30
0.0
 40
2.5
  1
1
 50
90.0
 41
1.5
  7
MX_DIMTXSTY_2
  0
LINE
  5
151C1
  8
SUNPO
  6
CONTINUOUS
 10
50.724055665871887
 20
297.97709298101961
 30
0.0
 11
50.724055665871887
 21
300.2970929810196
 31
0.0
  0
LINE
  5
151C2
  8
SUNPO
  6
CONTINUOUS
 10
64.224055665871902
 20
296.9770929810195
 30
0.0
 11
50.724055665871887
 21
296.9770929810195
 31
0.0
  0
INSERT
  5
151C3
  8
SUNPO
  6
CONTINUOUS
  2
_DOTSMALL
 10
50.724055665871887
 20
297.97709298101961
 30
0.0
 41
2.3199999999999901
 42
2.3199999999999901
 43
2.3199999999999981
 50
270.0
  0
INSERT
  5
151C4
  8
SUNPO
  6
CONTINUOUS
  2
_DOTSMALL
 10
50.724055665871887
 20
296.9770929810195
 30
0.0
 41
2.3199999999999901
 42
2.3199999999999901
 43
2.3199999999999981
 50
90.0
  0
LINE
  5
151C5
  8
SUNPO
  6
CONTINUOUS
 10
50.724055665871887
 20
296.9770929810195
 30
0.0
 11
50.724055665871887
 21
297.97709298101961
 31
0.0
  0
LINE
  5
151C6
  8
SUNPO
  6
CONTINUOUS
 10
50.724055665871887
 20
296.9770929810195
 30
0.0
 11
50.724055665871887
 21
294.65709298101962
 31
0.0
  0
INSERT
  5
151C7
  8
SUNPO
  6
CONTINUOUS
  2
_DOTSMALL
 10
50.724055665871887
 20
296.9770929810195
 30
0.0
 41
2.3199999999999901
 42
2.3199999999999901
 43
2.3199999999999981
 50
90.0
  0
INSERT
  5
151C8
  8
SUNPO
  6
CONTINUOUS
  2
_DOTSMALL
 10
60.724055665871887
 20
297.97709298101961
 30
0.0
 41
2.3199999999999901
 42
2.3199999999999901
 43
2.3199999999999981
 50
90.0
  0
ARC
  5
151C9
  8
DANMEN
  6
CONTINUOUS
 10
97.724055665871902
 20
312.22709298101961
 30
0.0
 40
2.0
 50
180.0
 51
270.0
  0
LINE
  5
151CA
  8
DANMEN
  6
CONTINUOUS
 10
66.17405566587189
 20
297.02209298101963
 30
0.0
 11
75.17405566587189
 21
297.9220929810196
 31
0.0
  0
LINE
  5
151CB
  8
DANMEN
  6
CONTINUOUS
 10
75.724055665871902
 20
297.97709298101961
 30
0.0
 11
73.724055665871902
 21
297.97709298101961
 31
0.0
  0
LINE
  5
151CC
  8
DANMEN
  6
CONTINUOUS
 10
67.724055665871902
 20
295.16709298101949
 30
0.0
 11
74.224055665871902
 21
295.81709298101958
 31
0.0
  0
LINE
  5
151CD
  8
DANMEN
  6
CONTINUOUS
 10
81.724055665871902
 20
293.97209298101961
 30
0.0
 11
77.434055665871924
 21
298.26209298101952
 31
0.0
  0
LINE
  5
151CE
  8
DANMEN
  6
CONTINUOUS
 10
80.891055665871903
 20
291.97709298101961
 30
0.0
 11
75.724055665871902
 21
297.14409298101958
 31
0.0
  0
LINE
  5
151CF
  8
DANMEN
  6
CONTINUOUS
 10
75.724055665871902
 20
293.61409298101961
 30
0.0
 11
80.959055665871873
 21
298.8500929810196
 31
0.0
  0
LINE
  5
151D0
  8
DANMEN
  6
CONTINUOUS
 10
76.915055665871904
 20
291.97709298101961
 30
0.0
 11
81.724055665871902
 21
296.78609298101952
 31
0.0
  0
LINE
  5
151D1
  8
DANMEN
  6
CONTINUOUS
 10
75.724055665871902
 20
291.97709298101961
 30
0.0
 11
81.724055665871902
 21
291.97709298101961
 31
0.0
  0
LINE
  5
151D2
  8
DANMEN
  6
CONTINUOUS
 10
78.0630556658719
 20
291.97709298101961
 30
0.0
 11
75.724055665871902
 21
294.31609298101961
 31
0.0
  0
LINE
  5
151D3
  8
DANMEN
  6
CONTINUOUS
 10
79.744055665871912
 20
291.97709298101961
 30
0.0
 11
81.724055665871902
 21
293.95709298101963
 31
0.0
  0
LINE
  5
151D4
  8
DANMEN
  6
CONTINUOUS
 10
81.724055665871902
 20
298.9770929810195
 30
0.0
 11
75.724055665871902
 21
297.97709298101961
 31
0.0
  0
ARC
  5
151D5
  8
DANMEN
  6
CONTINUOUS
 10
75.224055665871902
 20
297.42509298101959
 30
0.0
 40
0.5
 50
0.0
 51
95.710999999999942
  0
LINE
  5
151D6
  8
DANMEN
  6
CONTINUOUS
 10
75.724055665871902
 20
296.44309298101962
 30
0.0
 11
77.56505566587191
 21
298.28409298101963
 31
0.0
  0
LINE
  5
151D7
  8
DANMEN
  6
CONTINUOUS
 10
81.724055665871902
 20
296.80109298101962
 30
0.0
 11
79.859055665871892
 21
298.66609298101952
 31
0.0
  0
LINE
  5
151D8
  8
DANMEN
  6
CONTINUOUS
 10
95.724055665871916
 20
289.97709298101961
 30
0.0
 11
95.724055665871916
 21
306.22709298101961
 31
0.0
  0
ARC
  5
151D9
  8
DANMEN
  6
CONTINUOUS
 10
97.724055665871902
 20
307.72709298101961
 30
0.0
 40
0.5
 50
0.0
 51
90.0
  0
ARC
  5
151DA
  8
DANMEN
  6
CONTINUOUS
 10
97.724055665871902
 20
310.72709298101961
 30
0.0
 40
0.5
 50
270.0
 51
0.0
  0
LINE
  5
151DB
  8
DANMEN
  6
CONTINUOUS
 10
98.224055665871916
 20
310.72709298101961
 30
0.0
 11
98.224055665871916
 21
311.32709298101958
 31
0.0
  0
LINE
  5
151DC
  8
DANMEN
  6
CONTINUOUS
 10
98.224055665871916
 20
307.12709298101959
 30
0.0
 11
98.224055665871916
 21
307.72709298101961
 31
0.0
  0
ARC
  5
151DD
  8
DANMEN
  6
CONTINUOUS
 10
97.724055665871902
 20
306.22709298101961
 30
0.0
 40
2.0
 50
90.0
 51
180.0
  0
LINE
  5
151DE
  8
DANMEN
  6
CONTINUOUS
 10
95.724055665871916
 20
312.22709298101961
 30
0.0
 11
95.724055665871916
 21
328.47709298101961
 31
0.0
  0
LINE
  5
151DF
  8
DANMEN
  6
CONTINUOUS
 10
93.724055665871902
 20
327.22709298101961
 30
0.0
 11
89.824055665871867
 21
331.12709298101947
 31
0.0
  0
LINE
  5
151E0
  8
DANMEN
  6
CONTINUOUS
 10
93.64605566587187
 20
324.47709298101961
 30
0.0
 11
87.724055665871902
 21
330.39909298101958
 31
0.0
  0
LINE
  5
151E1
  8
DANMEN
  6
CONTINUOUS
 10
90.817055665871877
 20
324.47709298101961
 30
0.0
 11
87.724055665871902
 21
327.57009298101963
 31
0.0
  0
LINE
  5
151E2
  8
DANMEN
  6
CONTINUOUS
 10
87.724055665871902
 20
325.41309298101959
 30
0.0
 11
92.922055665871866
 21
330.61109298101962
 31
0.0
  0
LINE
  5
151E3
  8
DANMEN
  6
CONTINUOUS
 10
89.616055665871855
 20
324.47709298101961
 30
0.0
 11
93.724055665871902
 21
328.58509298101961
 31
0.0
  0
LINE
  5
151E4
  8
DANMEN
  6
CONTINUOUS
 10
87.724055665871902
 20
324.47709298101961
 30
0.0
 11
93.724055665871902
 21
324.47709298101961
 31
0.0
  0
LINE
  5
151E5
  8
DANMEN
  6
CONTINUOUS
 10
93.724055665871902
 20
330.47709298101961
 30
0.0
 11
87.724055665871902
 21
331.47709298101961
 31
0.0
  0
LINE
  5
151E6
  8
DANMEN
  6
CONTINUOUS
 10
87.724055665871902
 20
328.2420929810196
 30
0.0
 11
90.497055665871869
 21
331.01509298101962
 31
0.0
  0
LINE
  5
151E7
  8
DANMEN
  6
CONTINUOUS
 10
87.989055665871874
 20
324.47709298101961
 30
0.0
 11
87.724055665871902
 21
324.74209298101948
 31
0.0
  0
LINE
  5
151E8
  8
DANMEN
  6
CONTINUOUS
 10
87.724055665871902
 20
331.07009298101963
 30
0.0
 11
88.073055665871891
 21
331.41909298101962
 31
0.0
  0
LINE
  5
151E9
  8
DANMEN
  6
CONTINUOUS
 10
92.445055665871905
 20
324.47709298101961
 30
0.0
 11
93.724055665871902
 21
325.75609298101961
 31
0.0
  0
ARC
  5
151EA
  8
DANMEN
  6
CONTINUOUS
 10
94.224055665871902
 20
329.97709298101961
 30
0.0
 40
0.5
 50
90.0
 51
180.0
  0
LINE
  5
151EB
  8
DANMEN
  6
CONTINUOUS
 10
93.724055665871902
 20
330.05609298101962
 30
0.0
 11
93.218055665871901
 21
330.56109298101961
 31
0.0
  0
LINE
  5
151EC
  8
DANMEN
  6
CONTINUOUS
 10
120.7240556658716
 20
242.9770929810195
 30
0.0
 11
120.7240556658716
 21
233.4770929810195
 31
0.0
  0
LINE
  5
151ED
  8
DANMEN
  6
CONTINUOUS
 10
122.37405566587179
 20
233.4770929810195
 30
0.0
 11
122.37405566587179
 21
262.97709298101961
 31
0.0
  0
LINE
  5
151EE
  8
DANMEN
  6
CONTINUOUS
 10
165.72405566587179
 20
232.9770929810195
 30
0.0
 11
165.72405566587179
 21
262.97709298101961
 31
0.0
  0
LINE
  5
151EF
  8
SUNPO
  6
CONTINUOUS
 10
193.72405566587159
 20
262.97709298101961
 30
0.0
 11
193.72405566587159
 21
232.9770929810195
 31
0.0
  0
LINE
  5
151F0
  8
DANMEN
  6
CONTINUOUS
 10
122.2240556658719
 20
232.9770929810195
 30
0.0
 11
165.72405566587179
 21
232.9770929810195
 31
0.0
  0
LINE
  5
151F1
  8
SUNPO
  6
CONTINUOUS
 10
165.72405566587179
 20
227.97709298101961
 30
0.0
 11
120.7240556658716
 21
227.97709298101961
 31
0.0
  0
LINE
  5
151F2
  8
SUNPO
  6
CONTINUOUS
 10
120.7240556658716
 20
231.97709298101961
 30
0.0
 11
120.7240556658716
 21
227.97709298101961
 31
0.0
  0
INSERT
  5
151F3
  8
SUNPO
  6
CONTINUOUS
  2
_DOTSMALL
 10
120.7240556658716
 20
227.97709298101961
 30
0.0
 41
2.3199999999999901
 42
2.3199999999999901
 43
2.3199999999999981
 50
180.0
  0
INSERT
  5
151F4
  8
SUNPO
  6
CONTINUOUS
  2
_DOTSMALL
 10
120.7240556658716
 20
227.97709298101961
 30
0.0
 41
2.3199999999999901
 42
2.3199999999999901
 43
2.3199999999999981
  0
LINE
  5
151F5
  8
DANMEN
  6
CONTINUOUS
 10
121.2240556658719
 20
232.9770929810195
 30
0.0
 11
121.87405566587169
 21
232.9770929810195
 31
0.0
  0
ARC
  5
151F6
  8
DANMEN
  6
CONTINUOUS
 10
121.2240556658719
 20
233.4770929810195
 30
0.0
 40
0.5
 50
180.0
 51
270.0
  0
ARC
  5
151F7
  8
DANMEN
  6
CONTINUOUS
 10
121.87405566587169
 20
233.4770929810195
 30
0.0
 40
0.5
 50
270.0
 51
0.0
  0
TEXT
  5
151F8
  8
SUNPO
  6
CONTINUOUS
 10
141.1407223325385
 20
228.9770929810195
 30
0.0
 40
2.5
  1
45
  7
MX_NOTE_STANDARD
  0
LINE
  5
151F9
  8
SUNPO
  6
CONTINUOUS
 10
167.2240556658719
 20
232.9770929810195
 30
0.0
 11
193.72405566587159
 21
232.9770929810195
 31
0.0
  0
LINE
  5
151FA
  8
SUNPO
  6
CONTINUOUS
 10
165.72405566587179
 20
231.4770929810195
 30
0.0
 11
165.72405566587179
 21
227.97709298101961
 31
0.0
  0
INSERT
  5
151FB
  8
SUNPO
  6
CONTINUOUS
  2
_DOTSMALL
 10
165.72405566587179
 20
227.97709298101961
 30
0.0
 41
2.3199999999999901
 42
2.3199999999999901
 43
2.3199999999999981
  0
INSERT
  5
151FC
  8
SUNPO
  6
CONTINUOUS
  2
_DOTSMALL
 10
193.72405566587159
 20
232.9770929810195
 30
0.0
 41
2.3199999999999901
 42
2.3199999999999901
 43
2.3199999999999981
 50
270.0
  0
LINE
  5
151FD
  8
DANMEN
  6
CONTINUOUS
 10
145.2240556658719
 20
302.97709298101961
 30
0.0
 11
165.2240556658719
 21
302.97709298101961
 31
0.0
  0
LINE
  5
151FE
  8
DANMEN
  6
CONTINUOUS
 10
156.2240556658719
 20
262.97709298101961
 30
0.0
 11
165.2240556658719
 21
262.97709298101961
 31
0.0
  0
LINE
  5
151FF
  8
DANMEN
  6
CONTINUOUS
 10
140.7240556658715
 20
288.47709298101961
 30
0.0
 11
140.7240556658715
 21
334.97709298101961
 31
0.0
  0
LINE
  5
15200
  8
DANMEN
  6
CONTINUOUS
 10
149.72405566587179
 20
277.97709298101961
 30
0.0
 11
149.72405566587179
 21
292.97709298101961
 31
0.0
  0
LINE
  5
15201
  8
DANMEN
  6
CONTINUOUS
 10
151.37405566587191
 20
277.97709298101961
 30
0.0
 11
151.37405566587191
 21
294.27709298101962
 31
0.0
  0
LINE
  5
15202
  8
DANMEN
  6
CONTINUOUS
 10
164.0740556658719
 20
277.97709298101961
 30
0.0
 11
164.0740556658719
 21
301.32709298101958
 31
0.0
  0
LINE
  5
15203
  8
DANMEN
  6
CONTINUOUS
 10
100.2240556658719
 20
277.97709298101961
 30
0.0
 11
149.72405566587179
 21
277.97709298101961
 31
0.0
  0
ARC
  5
15204
  8
DANMEN
  6
CONTINUOUS
 10
131.4240556658718
 20
275.32709298101952
 30
0.0
 40
1.0
 50
0.0
 51
90.0
  0
LINE
  5
15205
  8
DANMEN
  6
CONTINUOUS
 10
101.3740556658715
 20
244.62709298101959
 30
0.0
 11
101.3740556658715
 21
276.32709298101952
 31
0.0
  0
LINE
  5
15206
  8
DANMEN
  6
CONTINUOUS
 10
120.7240556658716
 20
244.62709298101959
 30
0.0
 11
120.7240556658716
 21
276.32709298101952
 31
0.0
  0
LINE
  5
15207
  8
DANMEN
  6
CONTINUOUS
 10
122.37405566587179
 20
264.62709298101942
 30
0.0
 11
122.37405566587179
 21
276.32709298101952
 31
0.0
  0
LINE
  5
15208
  8
DANMEN
  6
CONTINUOUS
 10
99.72405566587193
 20
259.4770929810195
 30
0.0
 11
99.72405566587193
 21
277.47709298101961
 31
0.0
  0
LINE
  5
15209
  8
DANMEN
  6
CONTINUOUS
 10
101.3740556658715
 20
244.62709298101959
 30
0.0
 11
120.7240556658716
 21
244.62709298101959
 31
0.0
  0
LINE
  5
1520A
  8
DANMEN
  6
CONTINUOUS
 10
99.72405566587193
 20
244.62709298101959
 30
0.0
 11
99.72405566587193
 21
257.82509298101951
 31
0.0
  0
LINE
  5
1520B
  8
DANMEN
  6
CONTINUOUS
 10
122.37405566587179
 20
264.62709298101942
 30
0.0
 11
124.7240556658719
 21
264.62709298101942
 31
0.0
  0
LINE
  5
1520C
  8
DANMEN
  6
CONTINUOUS
 10
122.37405566587179
 20
262.97709298101961
 30
0.0
 11
124.7240556658719
 21
262.97709298101961
 31
0.0
  0
LINE
  5
1520D
  8
DANMEN
  6
CONTINUOUS
 10
125.2240556658719
 20
264.12709298101942
 30
0.0
 11
125.2240556658719
 21
263.47709298101961
 31
0.0
  0
ARC
  5
1520E
  8
DANMEN
  6
CONTINUOUS
 10
124.7240556658719
 20
263.47709298101961
 30
0.0
 40
0.5
 50
270.0
 51
0.0
  0
ARC
  5
1520F
  8
DANMEN
  6
CONTINUOUS
 10
124.7240556658719
 20
264.12709298101942
 30
0.0
 40
0.5
 50
0.0
 51
90.0
  0
ARC
  5
15210
  8
DANMEN
  6
CONTINUOUS
 10
114.0240556658719
 20
272.44709298101952
 30
0.0
 40
2.0
 50
308.29300000000052
 51
0.0
  0
LINE
  5
15211
  8
DANMEN
  6
CONTINUOUS
 10
101.3740556658715
 20
276.32709298101952
 30
0.0
 11
108.42405566587171
 21
276.32709298101952
 31
0.0
  0
ARC
  5
15212
  8
DANMEN
  6
CONTINUOUS
 10
114.12405566587179
 20
271.17709298101948
 30
0.0
 40
0.3
 50
180.0
 51
270.0
  0
ARC
  5
15213
  8
DANMEN
  6
CONTINUOUS
 10
111.3240556658718
 20
271.17709298101948
 30
0.0
 40
0.3
 50
270.0
 51
0.0
  0
ARC
  5
15214
  8
DANMEN
  6
CONTINUOUS
 10
111.4240556658719
 20
272.44709298101952
 30
0.0
 40
2.0
 50
180.0
 51
231.7069999999994
  0
LINE
  5
15215
  8
DANMEN
  6
CONTINUOUS
 10
110.1850556658719
 20
270.87709298101942
 30
0.0
 11
111.3240556658718
 21
270.87709298101942
 31
0.0
  0
LINE
  5
15216
  8
DANMEN
  6
CONTINUOUS
 10
115.2630556658716
 20
270.87709298101942
 30
0.0
 11
114.12405566587179
 21
270.87709298101942
 31
0.0
  0
ARC
  5
15217
  8
DANMEN
  6
CONTINUOUS
 10
111.9240556658719
 20
272.53109298101953
 30
0.0
 40
1.0
 50
180.0
 51
245.3760000000004
  0
ARC
  5
15218
  8
DANMEN
  6
CONTINUOUS
 10
111.9240556658719
 20
273.77709298101951
 30
0.0
 40
1.0
 50
90.0
 51
180.0
  0
LINE
  5
15219
  8
DANMEN
  6
CONTINUOUS
 10
109.4240556658719
 20
272.44709298101952
 30
0.0
 11
109.4240556658719
 21
275.32709298101952
 31
0.0
  0
LINE
  5
1521A
  8
DANMEN
  6
CONTINUOUS
 10
110.9240556658719
 20
272.53109298101953
 30
0.0
 11
110.9240556658719
 21
273.77709298101951
 31
0.0
  0
ARC
  5
1521B
  8
DANMEN
  6
CONTINUOUS
 10
108.42405566587171
 20
275.32709298101952
 30
0.0
 40
1.0
 50
0.0
 51
90.0
  0
LINE
  5
1521C
  8
DANMEN
  6
CONTINUOUS
 10
114.5240556658716
 20
272.53109298101953
 30
0.0
 11
114.5240556658716
 21
273.77709298101951
 31
0.0
  0
LINE
  5
1521D
  8
DANMEN
  6
CONTINUOUS
 10
113.8240556658719
 20
271.17709298101948
 30
0.0
 11
113.8240556658719
 21
271.44009298101952
 31
0.0
  0
ARC
  5
1521E
  8
DANMEN
  6
CONTINUOUS
 10
113.5240556658716
 20
272.53109298101953
 30
0.0
 40
1.0
 50
294.6239999999994
 51
0.0
  0
ARC
  5
1521F
  8
DANMEN
  6
CONTINUOUS
 10
114.0240556658719
 20
271.44009298101952
 30
0.0
 40
0.2
 50
114.6239999999994
 51
180.0
  0
ARC
  5
15220
  8
DANMEN
  6
CONTINUOUS
 10
111.4240556658719
 20
271.44009298101952
 30
0.0
 40
0.2
 50
0.0
 51
65.376000000000531
  0
LINE
  5
15221
  8
DANMEN
  6
CONTINUOUS
 10
111.62405566587169
 20
271.17709298101948
 30
0.0
 11
111.62405566587169
 21
271.44009298101952
 31
0.0
  0
LINE
  5
15222
  8
DANMEN
  6
CONTINUOUS
 10
113.5240556658716
 20
274.77709298101951
 30
0.0
 11
111.9240556658719
 21
274.77709298101951
 31
0.0
  0
ARC
  5
15223
  8
DANMEN
  6
CONTINUOUS
 10
113.5240556658716
 20
273.77709298101951
 30
0.0
 40
1.0
 50
0.0
 51
90.0
  0
LINE
  5
15224
  8
DANMEN
  6
CONTINUOUS
 10
106.7240556658719
 20
277.97709298101961
 30
0.0
 11
106.7240556658719
 21
287.97709298101961
 31
0.0
  0
LINE
  5
15225
  8
DANMEN
  6
CONTINUOUS
 10
99.72405566587193
 20
277.97709298101961
 30
0.0
 11
99.72405566587193
 21
287.97709298101961
 31
0.0
  0
ARC
  5
15226
  8
DANMEN
  6
CONTINUOUS
 10
100.2240556658719
 20
277.47709298101961
 30
0.0
 40
0.5
 50
90.0
 51
180.0
  0
LINE
  5
15227
  8
DANMEN
  6
CONTINUOUS
 10
122.37405566587179
 20
276.32709298101952
 30
0.0
 11
131.4240556658718
 21
276.32709298101952
 31
0.0
  0
LINE
  5
15228
  8
DANMEN
  6
CONTINUOUS
 10
117.0240556658719
 20
276.32709298101952
 30
0.0
 11
120.7240556658716
 21
276.32709298101952
 31
0.0
  0
LINE
  5
15229
  8
DANMEN
  6
CONTINUOUS
 10
116.0240556658719
 20
272.44709298101952
 30
0.0
 11
116.0240556658719
 21
275.32709298101952
 31
0.0
  0
ARC
  5
1522A
  8
DANMEN
  6
CONTINUOUS
 10
117.0240556658719
 20
275.32709298101952
 30
0.0
 40
1.0
 50
90.0
 51
180.0
  0
LINE
  5
1522B
  8
DANMEN
  6
CONTINUOUS
 10
164.0740556658719
 20
276.32709298101952
 30
0.0
 11
164.0740556658719
 21
264.62709298101942
 31
0.0
  0
LINE
  5
1522C
  8
DANMEN
  6
CONTINUOUS
 10
156.2240556658719
 20
264.62709298101942
 30
0.0
 11
164.0740556658719
 21
264.62709298101942
 31
0.0
  0
LINE
  5
1522D
  8
DANMEN
  6
CONTINUOUS
 10
155.7240556658719
 20
264.12709298101942
 30
0.0
 11
155.7240556658719
 21
263.47709298101961
 31
0.0
  0
ARC
  5
1522E
  8
DANMEN
  6
CONTINUOUS
 10
156.2240556658719
 20
263.47709298101961
 30
0.0
 40
0.5
 50
180.0
 51
270.0
  0
ARC
  5
1522F
  8
DANMEN
  6
CONTINUOUS
 10
156.2240556658719
 20
264.12709298101942
 30
0.0
 40
0.5
 50
90.0
 51
180.0
  0
LINE
  5
15230
  8
DANMEN
  6
CONTINUOUS
 10
140.02405566587191
 20
276.32709298101952
 30
0.0
 11
164.0740556658719
 21
276.32709298101952
 31
0.0
  0
ARC
  5
15231
  8
DANMEN
  6
CONTINUOUS
 10
140.02405566587191
 20
275.32709298101952
 30
0.0
 40
1.0
 50
90.0
 51
180.0
  0
ARC
  5
15232
  8
DANMEN
  6
CONTINUOUS
 10
134.4240556658718
 20
272.44709298101952
 30
0.0
 40
2.0
 50
180.0
 51
231.7069999999994
  0
ARC
  5
15233
  8
DANMEN
  6
CONTINUOUS
 10
137.02405566587191
 20
272.44709298101952
 30
0.0
 40
2.0
 50
308.29300000000052
 51
0.0
  0
ARC
  5
15234
  8
DANMEN
  6
CONTINUOUS
 10
134.32405566587161
 20
271.17709298101948
 30
0.0
 40
0.3
 50
270.0
 51
0.0
  0
ARC
  5
15235
  8
DANMEN
  6
CONTINUOUS
 10
137.12405566587191
 20
271.17709298101948
 30
0.0
 40
0.3
 50
180.0
 51
270.0
  0
LINE
  5
15236
  8
DANMEN
  6
CONTINUOUS
 10
133.1850556658716
 20
270.87709298101942
 30
0.0
 11
134.32405566587161
 21
270.87709298101942
 31
0.0
  0
LINE
  5
15237
  8
DANMEN
  6
CONTINUOUS
 10
138.2630556658718
 20
270.87709298101942
 30
0.0
 11
137.12405566587191
 21
270.87709298101942
 31
0.0
  0
LINE
  5
15238
  8
DANMEN
  6
CONTINUOUS
 10
136.52405566587191
 20
274.77709298101951
 30
0.0
 11
134.9240556658718
 21
274.77709298101951
 31
0.0
  0
ARC
  5
15239
  8
DANMEN
  6
CONTINUOUS
 10
134.9240556658718
 20
273.77709298101951
 30
0.0
 40
1.0
 50
90.0
 51
180.0
  0
LINE
  5
1523A
  8
DANMEN
  6
CONTINUOUS
 10
134.62405566587191
 20
271.17709298101948
 30
0.0
 11
134.62405566587191
 21
271.44009298101952
 31
0.0
  0
ARC
  5
1523B
  8
DANMEN
  6
CONTINUOUS
 10
134.9240556658718
 20
272.53109298101953
 30
0.0
 40
1.0
 50
180.0
 51
245.3760000000004
  0
ARC
  5
1523C
  8
DANMEN
  6
CONTINUOUS
 10
134.4240556658718
 20
271.44009298101952
 30
0.0
 40
0.2
 50
0.0
 51
65.376000000000531
  0
LINE
  5
1523D
  8
DANMEN
  6
CONTINUOUS
 10
133.92405566587149
 20
272.53109298101953
 30
0.0
 11
133.92405566587149
 21
273.77709298101951
 31
0.0
  0
LINE
  5
1523E
  8
DANMEN
  6
CONTINUOUS
 10
132.4240556658718
 20
272.44709298101952
 30
0.0
 11
132.4240556658718
 21
275.32709298101952
 31
0.0
  0
ARC
  5
1523F
  8
DANMEN
  6
CONTINUOUS
 10
136.52405566587191
 20
273.77709298101951
 30
0.0
 40
1.0
 50
0.0
 51
90.0
  0
ARC
  5
15240
  8
DANMEN
  6
CONTINUOUS
 10
137.02405566587191
 20
271.44009298101952
 30
0.0
 40
0.2
 50
114.6239999999994
 51
180.0
  0
ARC
  5
15241
  8
DANMEN
  6
CONTINUOUS
 10
136.52405566587191
 20
272.53109298101953
 30
0.0
 40
1.0
 50
294.6239999999994
 51
0.0
  0
LINE
  5
15242
  8
DANMEN
  6
CONTINUOUS
 10
136.8240556658719
 20
271.17709298101948
 30
0.0
 11
136.8240556658719
 21
271.44009298101952
 31
0.0
  0
LINE
  5
15243
  8
DANMEN
  6
CONTINUOUS
 10
137.52405566587191
 20
272.53109298101953
 30
0.0
 11
137.52405566587191
 21
273.77709298101951
 31
0.0
  0
LINE
  5
15244
  8
DANMEN
  6
CONTINUOUS
 10
139.02405566587191
 20
272.44709298101952
 30
0.0
 11
139.02405566587191
 21
275.32709298101952
 31
0.0
  0
ARC
  5
15245
  8
DANMEN
  6
CONTINUOUS
 10
140.2240556658719
 20
288.47709298101961
 30
0.0
 40
0.5
 50
270.0
 51
0.0
  0
LINE
  5
15246
  8
DANMEN
  6
CONTINUOUS
 10
151.37405566587191
 20
277.97709298101961
 30
0.0
 11
160.07405566587181
 21
277.97709298101961
 31
0.0
  0
ARC
  5
15247
  8
DANMEN
  6
CONTINUOUS
 10
160.5740556658719
 20
279.47709298101961
 30
0.0
 40
0.5
 50
90.0
 51
180.0
  0
LINE
  5
15248
  8
DANMEN
  6
CONTINUOUS
 10
160.07405566587181
 20
279.47709298101961
 30
0.0
 11
160.07405566587181
 21
277.97709298101961
 31
0.0
  0
LINE
  5
15249
  8
DANMEN
  6
CONTINUOUS
 10
161.07405566587181
 20
279.97709298101961
 30
0.0
 11
160.5740556658719
 21
279.97709298101961
 31
0.0
  0
LINE
  5
1524A
  8
DANMEN
  6
CONTINUOUS
 10
161.5740556658719
 20
279.47709298101961
 30
0.0
 11
161.5740556658719
 21
277.97709298101961
 31
0.0
  0
ARC
  5
1524B
  8
DANMEN
  6
CONTINUOUS
 10
161.07405566587181
 20
279.47709298101961
 30
0.0
 40
0.5
 50
0.0
 51
90.0
  0
LINE
  5
1524C
  8
DANMEN
  6
CONTINUOUS
 10
161.5740556658719
 20
277.97709298101961
 30
0.0
 11
164.0740556658719
 21
277.97709298101961
 31
0.0
  0
LINE
  5
1524D
  8
DANMEN
  6
CONTINUOUS
 10
130.92405566587161
 20
313.32709298101958
 30
0.0
 11
134.2240556658715
 21
313.32709298101958
 31
0.0
  0
LINE
  5
1524E
  8
DANMEN
  6
CONTINUOUS
 10
130.92405566587161
 20
305.12709298101959
 30
0.0
 11
134.2240556658715
 21
305.12709298101959
 31
0.0
  0
LINE
  5
1524F
  8
DANMEN
  6
CONTINUOUS
 10
131.12405566587191
 20
306.92709298101948
 30
0.0
 11
133.02405566587191
 21
306.92709298101948
 31
0.0
  0
LINE
  5
15250
  8
DANMEN
  6
CONTINUOUS
 10
131.12405566587191
 20
311.52709298101962
 30
0.0
 11
133.02405566587191
 21
311.52709298101962
 31
0.0
  0
LINE
  5
15251
  8
DANMEN
  6
CONTINUOUS
 10
128.62405566587191
 20
328.47709298101961
 30
0.0
 11
134.62405566587191
 21
328.47709298101961
 31
0.0
  0
LINE
  5
15252
  8
DANMEN
  6
CONTINUOUS
 10
128.62405566587191
 20
289.97709298101961
 30
0.0
 11
138.7240556658719
 21
289.97709298101961
 31
0.0
  0
ARC
  5
15253
  8
DANMEN
  6
CONTINUOUS
 10
130.92405566587161
 20
311.02709298101962
 30
0.0
 40
2.299999999999998
 50
90.0
 51
180.0
  0
ARC
  5
15254
  8
DANMEN
  6
CONTINUOUS
 10
103.5240556658719
 20
311.02709298101962
 30
0.0
 40
2.299999999999998
 50
0.0
 51
90.0
  0
LINE
  5
15255
  8
DANMEN
  6
CONTINUOUS
 10
107.7240556658719
 20
289.97709298101961
 30
0.0
 11
107.7240556658719
 21
327.97709298101961
 31
0.0
  0
LINE
  5
15256
  8
DANMEN
  6
CONTINUOUS
 10
126.7240556658719
 20
289.97709298101961
 30
0.0
 11
126.7240556658719
 21
327.97709298101961
 31
0.0
  0
LINE
  5
15257
  8
DANMEN
  6
CONTINUOUS
 10
107.3240556658719
 20
289.97709298101961
 30
0.0
 11
127.12405566587169
 21
289.97709298101961
 31
0.0
  0
LINE
  5
15258
  8
DANMEN
  6
CONTINUOUS
 10
126.7240556658719
 20
289.97709298101961
 30
0.0
 11
107.7240556658719
 21
289.97709298101961
 31
0.0
  0
ARC
  5
15259
  8
DANMEN
  6
CONTINUOUS
 10
106.8240556658718
 20
291.47709298101961
 30
0.0
 40
0.5
 50
0.0
 51
90.0
  0
ARC
  5
1525A
  8
DANMEN
  6
CONTINUOUS
 10
106.3240556658719
 20
291.47709298101961
 30
0.0
 40
0.5
 50
90.0
 51
180.0
  0
LINE
  5
1525B
  8
DANMEN
  6
CONTINUOUS
 10
105.8240556658718
 20
289.97709298101961
 30
0.0
 11
105.8240556658718
 21
291.47709298101961
 31
0.0
  0
LINE
  5
1525C
  8
DANMEN
  6
CONTINUOUS
 10
106.3240556658719
 20
291.97709298101961
 30
0.0
 11
106.8240556658718
 21
291.97709298101961
 31
0.0
  0
LINE
  5
1525D
  8
DANMEN
  6
CONTINUOUS
 10
107.3240556658719
 20
289.97709298101961
 30
0.0
 11
107.3240556658719
 21
291.47709298101961
 31
0.0
  0
ARC
  5
1525E
  8
DANMEN
  6
CONTINUOUS
 10
103.5240556658719
 20
307.4270929810196
 30
0.0
 40
2.299999999999998
 50
270.0
 51
0.0
  0
LINE
  5
1525F
  8
DANMEN
  6
CONTINUOUS
 10
103.5240556658719
 20
305.12709298101959
 30
0.0
 11
100.2240556658719
 21
305.12709298101959
 31
0.0
  0
LINE
  5
15260
  8
DANMEN
  6
CONTINUOUS
 10
103.3240556658719
 20
311.52709298101962
 30
0.0
 11
101.42405566587171
 21
311.52709298101962
 31
0.0
  0
LINE
  5
15261
  8
DANMEN
  6
CONTINUOUS
 10
103.3240556658719
 20
306.92709298101948
 30
0.0
 11
101.42405566587171
 21
306.92709298101948
 31
0.0
  0
ARC
  5
15262
  8
DANMEN
  6
CONTINUOUS
 10
101.42405566587171
 20
310.52709298101962
 30
0.0
 40
1.0
 50
90.0
 51
180.0
  0
ARC
  5
15263
  8
DANMEN
  6
CONTINUOUS
 10
101.42405566587171
 20
307.9270929810196
 30
0.0
 40
1.0
 50
180.0
 51
270.0
  0
LINE
  5
15264
  8
DANMEN
  6
CONTINUOUS
 10
100.4240556658718
 20
307.9270929810196
 30
0.0
 11
100.4240556658718
 21
310.52709298101962
 31
0.0
  0
ARC
  5
15265
  8
DANMEN
  6
CONTINUOUS
 10
105.3240556658719
 20
307.4270929810196
 30
0.0
 40
0.5
 50
0.0
 51
90.0
  0
ARC
  5
15266
  8
DANMEN
  6
CONTINUOUS
 10
105.3240556658719
 20
311.02709298101962
 30
0.0
 40
0.5
 50
270.0
 51
0.0
  0
ARC
  5
15267
  8
DANMEN
  6
CONTINUOUS
 10
104.5070556658719
 20
310.72709298101961
 30
0.0
 40
0.2
 50
189.59399999999999
 51
270.0
  0
ARC
  5
15268
  8
DANMEN
  6
CONTINUOUS
 10
104.5070556658719
 20
307.72709298101961
 30
0.0
 40
0.2
 50
90.0
 51
170.40599999999981
  0
ARC
  5
15269
  8
DANMEN
  6
CONTINUOUS
 10
103.3240556658719
 20
307.9270929810196
 30
0.0
 40
1.0
 50
270.0
 51
350.40599999999972
  0
ARC
  5
1526A
  8
DANMEN
  6
CONTINUOUS
 10
103.3240556658719
 20
310.52709298101962
 30
0.0
 40
1.0
 50
9.5940000000000403
 51
90.0
  0
LINE
  5
1526B
  8
DANMEN
  6
CONTINUOUS
 10
105.3240556658719
 20
310.52709298101962
 30
0.0
 11
104.5070556658719
 21
310.52709298101962
 31
0.0
  0
LINE
  5
1526C
  8
DANMEN
  6
CONTINUOUS
 10
105.3240556658719
 20
307.9270929810196
 30
0.0
 11
104.5070556658719
 21
307.9270929810196
 31
0.0
  0
LINE
  5
1526D
  8
DANMEN
  6
CONTINUOUS
 10
127.62405566587179
 20
291.97709298101961
 30
0.0
 11
128.12405566587191
 21
291.97709298101961
 31
0.0
  0
ARC
  5
1526E
  8
DANMEN
  6
CONTINUOUS
 10
127.62405566587179
 20
291.47709298101961
 30
0.0
 40
0.5
 50
90.0
 51
180.0
  0
LINE
  5
1526F
  8
DANMEN
  6
CONTINUOUS
 10
127.12405566587169
 20
289.97709298101961
 30
0.0
 11
127.12405566587169
 21
291.47709298101961
 31
0.0
  0
ARC
  5
15270
  8
DANMEN
  6
CONTINUOUS
 10
128.12405566587191
 20
291.47709298101961
 30
0.0
 40
0.5
 50
0.0
 51
90.0
  0
LINE
  5
15271
  8
DANMEN
  6
CONTINUOUS
 10
128.62405566587191
 20
289.97709298101961
 30
0.0
 11
128.62405566587191
 21
291.47709298101961
 31
0.0
  0
ARC
  5
15272
  8
DANMEN
  6
CONTINUOUS
 10
130.92405566587161
 20
307.4270929810196
 30
0.0
 40
2.299999999999998
 50
180.0
 51
270.0
  0
ARC
  5
15273
  8
DANMEN
  6
CONTINUOUS
 10
129.12405566587191
 20
311.02709298101962
 30
0.0
 40
0.5
 50
180.0
 51
270.0
  0
ARC
  5
15274
  8
DANMEN
  6
CONTINUOUS
 10
129.12405566587191
 20
307.4270929810196
 30
0.0
 40
0.5
 50
90.0
 51
180.0
  0
ARC
  5
15275
  8
DANMEN
  6
CONTINUOUS
 10
129.94105566587149
 20
307.72709298101961
 30
0.0
 40
0.2
 50
9.5940000000000403
 51
90.0
  0
ARC
  5
15276
  8
DANMEN
  6
CONTINUOUS
 10
129.94105566587149
 20
310.72709298101961
 30
0.0
 40
0.2
 50
270.0
 51
350.40599999999972
  0
ARC
  5
15277
  8
DANMEN
  6
CONTINUOUS
 10
131.12405566587191
 20
310.52709298101962
 30
0.0
 40
1.0
 50
90.0
 51
170.40599999999981
  0
ARC
  5
15278
  8
DANMEN
  6
CONTINUOUS
 10
131.12405566587191
 20
307.9270929810196
 30
0.0
 40
1.0
 50
189.59399999999999
 51
270.0
  0
LINE
  5
15279
  8
DANMEN
  6
CONTINUOUS
 10
129.12405566587191
 20
307.9270929810196
 30
0.0
 11
129.94105566587149
 21
307.9270929810196
 31
0.0
  0
LINE
  5
1527A
  8
DANMEN
  6
CONTINUOUS
 10
129.12405566587191
 20
310.52709298101962
 30
0.0
 11
129.94105566587149
 21
310.52709298101962
 31
0.0
  0
LINE
  5
1527B
  8
DANMEN
  6
CONTINUOUS
 10
107.3240556658719
 20
328.47709298101961
 30
0.0
 11
127.12405566587169
 21
328.47709298101961
 31
0.0
  0
LINE
  5
1527C
  8
DANMEN
  6
CONTINUOUS
 10
107.7240556658719
 20
327.97709298101961
 30
0.0
 11
126.7240556658719
 21
327.97709298101961
 31
0.0
  0
LINE
  5
1527D
  8
DANMEN
  6
CONTINUOUS
 10
103.5240556658719
 20
313.32709298101958
 30
0.0
 11
100.2240556658719
 21
313.32709298101958
 31
0.0
  0
ARC
  5
1527E
  8
DANMEN
  6
CONTINUOUS
 10
106.8240556658718
 20
326.97709298101961
 30
0.0
 40
0.5
 50
270.0
 51
0.0
  0
LINE
  5
1527F
  8
DANMEN
  6
CONTINUOUS
 10
106.3240556658719
 20
326.47709298101961
 30
0.0
 11
106.8240556658718
 21
326.47709298101961
 31
0.0
  0
LINE
  5
15280
  8
DANMEN
  6
CONTINUOUS
 10
105.8240556658718
 20
328.47709298101961
 30
0.0
 11
105.8240556658718
 21
326.97709298101961
 31
0.0
  0
ARC
  5
15281
  8
DANMEN
  6
CONTINUOUS
 10
106.3240556658719
 20
326.97709298101961
 30
0.0
 40
0.5
 50
180.0
 51
270.0
  0
LINE
  5
15282
  8
DANMEN
  6
CONTINUOUS
 10
107.3240556658719
 20
328.47709298101961
 30
0.0
 11
107.3240556658719
 21
326.97709298101961
 31
0.0
  0
TEXT
  5
15283
  8
SUNPO
  6
CONTINUOUS
 10
124.3640556658716
 20
332.14375964768618
 30
0.0
 40
2.5
  1
5
 50
90.0
  7
MX_NOTE_STANDARD
  0
LINE
  5
15284
  8
DANMEN
  6
CONTINUOUS
 10
127.62405566587179
 20
326.47709298101961
 30
0.0
 11
128.12405566587191
 21
326.47709298101961
 31
0.0
  0
LINE
  5
15285
  8
DANMEN
  6
CONTINUOUS
 10
127.12405566587169
 20
328.47709298101961
 30
0.0
 11
127.12405566587169
 21
326.97709298101961
 31
0.0
  0
ARC
  5
15286
  8
DANMEN
  6
CONTINUOUS
 10
127.62405566587179
 20
326.97709298101961
 30
0.0
 40
0.5
 50
180.0
 51
270.0
  0
LINE
  5
15287
  8
DANMEN
  6
CONTINUOUS
 10
128.62405566587191
 20
328.47709298101961
 30
0.0
 11
128.62405566587191
 21
326.97709298101961
 31
0.0
  0
ARC
  5
15288
  8
DANMEN
  6
CONTINUOUS
 10
128.12405566587191
 20
326.97709298101961
 30
0.0
 40
0.5
 50
270.0
 51
0.0
  0
INSERT
  5
15289
  8
SUNPO
  6
CONTINUOUS
  2
_DOTSMALL
 10
125.3640556658716
 20
330.47709298101961
 30
0.0
 41
2.3199999999999901
 42
2.3199999999999901
 43
2.3199999999999981
 50
270.0
  0
ARC
  5
1528A
  8
DANMEN
  6
CONTINUOUS
 10
134.2240556658715
 20
311.32709298101958
 30
0.0
 40
2.0
 50
0.0
 51
90.0
  0
ARC
  5
1528B
  8
DANMEN
  6
CONTINUOUS
 10
136.7240556658719
 20
312.22709298101961
 30
0.0
 40
2.0
 50
270.0
 51
0.0
  0
LINE
  5
1528C
  8
DANMEN
  6
CONTINUOUS
 10
145.72405566587179
 20
294.27709298101962
 30
0.0
 11
149.0740556658719
 21
294.27709298101962
 31
0.0
  0
LINE
  5
1528D
  8
DANMEN
  6
CONTINUOUS
 10
145.2240556658719
 20
292.97709298101961
 30
0.0
 11
149.72405566587179
 21
292.97709298101961
 31
0.0
  0
LINE
  5
1528E
  8
DANMEN
  6
CONTINUOUS
 10
148.7240556658719
 20
296.47709298101961
 30
0.0
 11
146.5980556658719
 21
295.26009298101962
 31
0.0
  0
LINE
  5
1528F
  8
DANMEN
  6
CONTINUOUS
 10
148.7240556658719
 20
299.47709298101961
 30
0.0
 11
146.5980556658719
 21
300.69409298101959
 31
0.0
  0
LINE
  5
15290
  8
DANMEN
  6
CONTINUOUS
 10
145.72405566587179
 20
301.32709298101958
 30
0.0
 11
149.0740556658719
 21
301.32709298101958
 31
0.0
  0
ARC
  5
15291
  8
DANMEN
  6
CONTINUOUS
 10
145.2240556658719
 20
300.47709298101961
 30
0.0
 40
0.5
 50
180.0
 51
270.0
  0
LINE
  5
15292
  8
DANMEN
  6
CONTINUOUS
 10
145.72405566587179
 20
299.97709298101961
 30
0.0
 11
145.72405566587179
 21
301.32709298101958
 31
0.0
  0
LINE
  5
15293
  8
DANMEN
  6
CONTINUOUS
 10
138.7240556658719
 20
289.97709298101961
 30
0.0
 11
138.7240556658719
 21
306.22709298101961
 31
0.0
  0
LINE
  5
15294
  8
DANMEN
  6
CONTINUOUS
 10
142.2270556658718
 20
295.00909298101948
 30
0.0
 11
142.2270556658718
 21
300.94509298101963
 31
0.0
  0
LINE
  5
15295
  8
DANMEN
  6
CONTINUOUS
 10
140.7290556658719
 20
301.35309298101947
 30
0.0
 11
140.7290556658719
 21
294.60109298101958
 31
0.0
  0
LINE
  5
15296
  8
DANMEN
  6
CONTINUOUS
 10
144.72405566587179
 20
299.97709298101961
 30
0.0
 11
144.72405566587179
 21
301.97709298101961
 31
0.0
  0
LINE
  5
15297
  8
DANMEN
  6
CONTINUOUS
 10
143.7240556658719
 20
301.97709298101961
 30
0.0
 11
143.7240556658719
 21
293.97709298101961
 31
0.0
  0
LINE
  5
15298
  8
DANMEN
  6
CONTINUOUS
 10
146.4740556658719
 20
299.97709298101961
 30
0.0
 11
146.2570556658718
 21
300.35209298101961
 31
0.0
  0
LINE
  5
15299
  8
DANMEN
  6
CONTINUOUS
 10
145.72405566587179
 20
294.27709298101962
 30
0.0
 11
145.72405566587179
 21
295.97709298101961
 31
0.0
  0
ARC
  5
1529A
  8
DANMEN
  6
CONTINUOUS
 10
142.27305566587191
 20
294.51409298101959
 30
0.0
 40
1.5469999999999959
 50
176.75499999999931
 51
339.6980000000006
  0
LINE
  5
1529B
  8
DANMEN
  6
CONTINUOUS
 10
144.72405566587179
 20
295.97709298101961
 30
0.0
 11
144.72405566587179
 21
293.97709298101961
 31
0.0
  0
LINE
  5
1529C
  8
DANMEN
  6
CONTINUOUS
 10
144.72405566587179
 20
293.47709298101961
 30
0.0
 11
144.72405566587179
 21
295.47709298101961
 31
0.0
  0
LINE
  5
1529D
  8
DANMEN
  6
CONTINUOUS
 10
143.7240556658719
 20
293.97709298101961
 30
0.0
 11
144.72405566587179
 21
293.97709298101961
 31
0.0
  0
ARC
  5
1529E
  8
DANMEN
  6
CONTINUOUS
 10
145.2240556658719
 20
293.47709298101961
 30
0.0
 40
0.5
 50
180.0
 51
270.0
  0
LINE
  5
1529F
  8
DANMEN
  6
CONTINUOUS
 10
143.7240556658719
 20
295.47709298101961
 30
0.0
 11
142.69805566587181
 21
294.76309298101961
 31
0.0
  0
ARC
  5
152A0
  8
DANMEN
  6
CONTINUOUS
 10
142.52705566587181
 20
295.00909298101948
 30
0.0
 40
0.3
 50
180.0
 51
304.84899999999982
  0
ARC
  5
152A1
  8
DANMEN
  6
CONTINUOUS
 10
145.2240556658719
 20
295.47709298101961
 30
0.0
 40
0.5
 50
90.0
 51
180.0
  0
LINE
  5
152A2
  8
DANMEN
  6
CONTINUOUS
 10
145.2240556658719
 20
295.97709298101961
 30
0.0
 11
145.72405566587179
 21
295.97709298101961
 31
0.0
  0
ARC
  5
152A3
  8
DANMEN
  6
CONTINUOUS
 10
146.82405566587181
 20
297.97709298101961
 30
0.0
 40
0.9
 50
270.0
 51
90.0
  0
ARC
  5
152A4
  8
DANMEN
  6
CONTINUOUS
 10
146.4740556658719
 20
295.47709298101961
 30
0.0
 40
0.25
 50
150.0
 51
299.78999999999962
  0
LINE
  5
152A5
  8
DANMEN
  6
CONTINUOUS
 10
146.4740556658719
 20
295.97709298101961
 30
0.0
 11
146.2570556658718
 21
295.6020929810195
 31
0.0
  0
ARC
  5
152A6
  8
DANMEN
  6
CONTINUOUS
 10
145.62405566587191
 20
297.97709298101961
 30
0.0
 40
0.9
 50
90.0
 51
270.0
  0
LINE
  5
152A7
  8
DANMEN
  6
CONTINUOUS
 10
144.72405566587179
 20
299.97709298101961
 30
0.0
 11
146.4740556658719
 21
299.97709298101961
 31
0.0
  0
LINE
  5
152A8
  8
DANMEN
  6
CONTINUOUS
 10
145.62405566587191
 20
298.87709298101959
 30
0.0
 11
146.82405566587181
 21
298.87709298101959
 31
0.0
  0
LINE
  5
152A9
  8
DANMEN
  6
CONTINUOUS
 10
145.62405566587191
 20
297.07709298101958
 30
0.0
 11
146.82405566587181
 21
297.07709298101958
 31
0.0
  0
LINE
  5
152AA
  8
DANMEN
  6
CONTINUOUS
 10
144.72405566587179
 20
295.97709298101961
 30
0.0
 11
146.4740556658719
 21
295.97709298101961
 31
0.0
  0
LINE
  5
152AB
  8
DANMEN
  6
CONTINUOUS
 10
145.2240556658719
 20
299.97709298101961
 30
0.0
 11
145.72405566587179
 21
299.97709298101961
 31
0.0
  0
ARC
  5
152AC
  8
DANMEN
  6
CONTINUOUS
 10
134.2240556658715
 20
307.12709298101959
 30
0.0
 40
2.0
 50
270.0
 51
0.0
  0
ARC
  5
152AD
  8
DANMEN
  6
CONTINUOUS
 10
133.02405566587191
 20
307.9270929810196
 30
0.0
 40
1.0
 50
270.0
 51
0.0
  0
ARC
  5
152AE
  8
DANMEN
  6
CONTINUOUS
 10
133.02405566587191
 20
310.52709298101962
 30
0.0
 40
1.0
 50
0.0
 51
90.0
  0
LINE
  5
152AF
  8
DANMEN
  6
CONTINUOUS
 10
134.02405566587191
 20
310.52709298101962
 30
0.0
 11
134.02405566587191
 21
307.9270929810196
 31
0.0
  0
ARC
  5
152B0
  8
DANMEN
  6
CONTINUOUS
 10
136.7240556658719
 20
307.72709298101961
 30
0.0
 40
0.5
 50
90.0
 51
180.0
  0
ARC
  5
152B1
  8
DANMEN
  6
CONTINUOUS
 10
136.7240556658719
 20
310.72709298101961
 30
0.0
 40
0.5
 50
180.0
 51
270.0
  0
LINE
  5
152B2
  8
DANMEN
  6
CONTINUOUS
 10
136.2240556658719
 20
307.72709298101961
 30
0.0
 11
136.2240556658719
 21
307.12709298101959
 31
0.0
  0
LINE
  5
152B3
  8
DANMEN
  6
CONTINUOUS
 10
136.2240556658719
 20
311.32709298101958
 30
0.0
 11
136.2240556658719
 21
310.72709298101961
 31
0.0
  0
ARC
  5
152B4
  8
DANMEN
  6
CONTINUOUS
 10
136.7240556658719
 20
306.22709298101961
 30
0.0
 40
2.0
 50
0.0
 51
90.0
  0
LINE
  5
152B5
  8
DANMEN
  6
CONTINUOUS
 10
143.7240556658719
 20
301.97709298101961
 30
0.0
 11
144.72405566587179
 21
301.97709298101961
 31
0.0
  0
LINE
  5
152B6
  8
DANMEN
  6
CONTINUOUS
 10
142.69805566587181
 20
301.19109298101961
 30
0.0
 11
143.7240556658719
 21
300.47709298101961
 31
0.0
  0
ARC
  5
152B7
  8
DANMEN
  6
CONTINUOUS
 10
142.27305566587191
 20
301.44009298101952
 30
0.0
 40
1.5469999999999959
 50
20.301999999999421
 51
183.2449999999989
  0
ARC
  5
152B8
  8
DANMEN
  6
CONTINUOUS
 10
142.52705566587181
 20
300.94509298101963
 30
0.0
 40
0.3
 50
55.151000000000138
 51
180.0
  0
ARC
  5
152B9
  8
DANMEN
  6
CONTINUOUS
 10
145.2240556658719
 20
302.47709298101961
 30
0.0
 40
0.5
 50
90.0
 51
180.0
  0
LINE
  5
152BA
  8
DANMEN
  6
CONTINUOUS
 10
144.72405566587179
 20
300.47709298101961
 30
0.0
 11
144.72405566587179
 21
302.47709298101961
 31
0.0
  0
ARC
  5
152BB
  8
DANMEN
  6
CONTINUOUS
 10
146.4740556658719
 20
300.47709298101961
 30
0.0
 40
0.25
 50
60.209999999999987
 51
209.9999999999996
  0
LINE
  5
152BC
  8
DANMEN
  6
CONTINUOUS
 10
149.0740556658719
 20
294.27709298101962
 30
0.0
 11
149.0740556658719
 21
301.32709298101958
 31
0.0
  0
LINE
  5
152BD
  8
DANMEN
  6
CONTINUOUS
 10
155.9240556658718
 20
298.64309298101961
 30
0.0
 11
155.9240556658718
 21
300.32709298101958
 31
0.0
  0
ARC
  5
152BE
  8
DANMEN
  6
CONTINUOUS
 10
151.9240556658718
 20
299.27709298101962
 30
0.0
 40
1.0
 50
90.0
 51
180.0
  0
ARC
  5
152BF
  8
DANMEN
  6
CONTINUOUS
 10
153.4240556658718
 20
299.27709298101962
 30
0.0
 40
1.0
 50
0.0
 51
90.0
  0
LINE
  5
152C0
  8
DANMEN
  6
CONTINUOUS
 10
161.5740556658719
 20
299.82709298101958
 30
0.0
 11
161.5740556658719
 21
301.32709298101958
 31
0.0
  0
LINE
  5
152C1
  8
DANMEN
  6
CONTINUOUS
 10
160.07405566587181
 20
299.82709298101958
 30
0.0
 11
160.07405566587181
 21
301.32709298101958
 31
0.0
  0
ARC
  5
152C2
  8
DANMEN
  6
CONTINUOUS
 10
152.37405566587191
 20
294.27709298101962
 30
0.0
 40
1.0
 50
90.0
 51
180.0
  0
LINE
  5
152C3
  8
DANMEN
  6
CONTINUOUS
 10
151.9240556658718
 20
296.77709298101962
 30
0.0
 11
152.5580556658719
 21
296.77709298101962
 31
0.0
  0
LINE
  5
152C4
  8
DANMEN
  6
CONTINUOUS
 10
148.7240556658719
 20
299.47709298101961
 30
0.0
 11
148.7240556658719
 21
296.47709298101961
 31
0.0
  0
LINE
  5
152C5
  8
DANMEN
  6
CONTINUOUS
 10
150.9240556658718
 20
297.77709298101962
 30
0.0
 11
150.9240556658718
 21
299.27709298101962
 31
0.0
  0
ARC
  5
152C6
  8
DANMEN
  6
CONTINUOUS
 10
151.9240556658718
 20
297.77709298101962
 30
0.0
 40
1.0
 50
180.0
 51
270.0
  0
LINE
  5
152C7
  8
DANMEN
  6
CONTINUOUS
 10
154.4240556658718
 20
298.64309298101961
 30
0.0
 11
154.4240556658718
 21
299.27709298101962
 31
0.0
  0
LINE
  5
152C8
  8
DANMEN
  6
CONTINUOUS
 10
152.37405566587191
 20
295.27709298101962
 30
0.0
 11
152.5580556658719
 21
295.27709298101962
 31
0.0
  0
ARC
  5
152C9
  8
DANMEN
  6
CONTINUOUS
 10
155.1740556658718
 20
298.64309298101961
 30
0.0
 40
0.75
 50
180.0
 51
0.0
  0
ARC
  5
152CA
  8
DANMEN
  6
CONTINUOUS
 10
152.5580556658719
 20
296.02709298101962
 30
0.0
 40
0.75
 50
270.0
 51
90.0
  0
ARC
  5
152CB
  8
DANMEN
  6
CONTINUOUS
 10
160.5740556658719
 20
299.82709298101958
 30
0.0
 40
0.5
 50
180.0
 51
270.0
  0
ARC
  5
152CC
  8
DANMEN
  6
CONTINUOUS
 10
161.07405566587181
 20
299.82709298101958
 30
0.0
 40
0.5
 50
270.0
 51
0.0
  0
LINE
  5
152CD
  8
DANMEN
  6
CONTINUOUS
 10
161.07405566587181
 20
299.32709298101958
 30
0.0
 11
160.5740556658719
 21
299.32709298101958
 31
0.0
  0
ARC
  5
152CE
  8
DANMEN
  6
CONTINUOUS
 10
156.92405566587161
 20
300.32709298101958
 30
0.0
 40
1.0
 50
90.0
 51
180.0
  0
LINE
  5
152CF
  8
DANMEN
  6
CONTINUOUS
 10
151.9240556658718
 20
300.27709298101962
 30
0.0
 11
153.4240556658718
 21
300.27709298101962
 31
0.0
  0
LINE
  5
152D0
  8
DANMEN
  6
CONTINUOUS
 10
156.92405566587161
 20
301.32709298101958
 30
0.0
 11
160.07405566587181
 21
301.32709298101958
 31
0.0
  0
LINE
  5
152D1
  8
DANMEN
  6
CONTINUOUS
 10
161.5740556658719
 20
301.32709298101958
 30
0.0
 11
164.0740556658719
 21
301.32709298101958
 31
0.0
  0
LINE
  5
152D2
  8
DANMEN
  6
CONTINUOUS
 10
138.7240556658719
 20
312.22709298101961
 30
0.0
 11
138.7240556658719
 21
328.47709298101961
 31
0.0
  0
ARC
  5
152D3
  8
DANMEN
  6
CONTINUOUS
 10
135.62405566587191
 20
327.47709298101961
 30
0.0
 40
0.5
 50
270.0
 51
0.0
  0
ARC
  5
152D4
  8
DANMEN
  6
CONTINUOUS
 10
135.12405566587191
 20
327.47709298101961
 30
0.0
 40
0.5
 50
180.0
 51
270.0
  0
LINE
  5
152D5
  8
DANMEN
  6
CONTINUOUS
 10
134.62405566587191
 20
327.47709298101961
 30
0.0
 11
134.62405566587191
 21
328.47709298101961
 31
0.0
  0
LINE
  5
152D6
  8
DANMEN
  6
CONTINUOUS
 10
135.12405566587191
 20
326.97709298101961
 30
0.0
 11
135.62405566587191
 21
326.97709298101961
 31
0.0
  0
LINE
  5
152D7
  8
DANMEN
  6
CONTINUOUS
 10
136.12405566587191
 20
328.47709298101961
 30
0.0
 11
138.7240556658719
 21
328.47709298101961
 31
0.0
  0
LINE
  5
152D8
  8
DANMEN
  6
CONTINUOUS
 10
136.12405566587191
 20
327.47709298101961
 30
0.0
 11
136.12405566587191
 21
328.47709298101961
 31
0.0
  0
ARC
  5
152D9
  8
DANMEN
  6
CONTINUOUS
 10
135.7240556658719
 20
333.47709298101961
 30
0.0
 40
3.0
 50
270.0
 51
0.0
  0
LINE
  5
152DA
  8
DANMEN
  6
CONTINUOUS
 10
138.7240556658719
 20
333.47709298101961
 30
0.0
 11
138.7240556658719
 21
334.97709298101961
 31
0.0
  0
LINE
  5
152DB
  8
DANMEN
  6
CONTINUOUS
 10
165.72405566587179
 20
302.47709298101961
 30
0.0
 11
165.72405566587179
 21
263.47709298101961
 31
0.0
  0
LINE
  5
152DC
  8
SUNPO
  6
CONTINUOUS
 10
193.72405566587159
 20
302.97709298101961
 30
0.0
 11
193.72405566587159
 21
262.97709298101961
 31
0.0
  0
LINE
  5
152DD
  8
SUNPO
  6
CONTINUOUS
 10
220.72405566587159
 20
298.47709298101961
 30
0.0
 11
220.72405566587159
 21
269.47709298101961
 31
0.0
  0
LINE
  5
152DE
  8
SUNPO
  6
CONTINUOUS
 10
220.72405566587159
 20
298.47709298101961
 30
0.0
 11
220.72405566587159
 21
269.47709298101961
 31
0.0
  0
LINE
  5
152DF
  8
SUNPO
  6
CONTINUOUS
 10
166.72405566587179
 20
262.97709298101961
 30
0.0
 11
193.72405566587159
 21
262.97709298101961
 31
0.0
  0
LINE
  5
152E0
  8
SUNPO
  6
CONTINUOUS
 10
166.72405566587179
 20
262.97709298101961
 30
0.0
 11
193.72405566587159
 21
262.97709298101961
 31
0.0
  0
ARC
  5
152E1
  8
DANMEN
  6
CONTINUOUS
 10
165.2240556658719
 20
263.47709298101961
 30
0.0
 40
0.5
 50
270.0
 51
0.0
  0
TEXT
  5
152E2
  8
SUNPO
  6
CONTINUOUS
 10
192.7240556658715
 20
245.9145929810195
 30
0.0
 40
2.5
  1
30
 50
90.0
 41
1.1000000000000001
  7
MX_DIMTXSTY_3
  0
INSERT
  5
152E3
  8
SUNPO
  6
CONTINUOUS
  2
_DOTSMALL
 10
193.72405566587159
 20
262.97709298101961
 30
0.0
 41
2.3199999999999901
 42
2.3199999999999901
 43
2.3199999999999981
 50
90.0
  0
INSERT
  5
152E4
  8
SUNPO
  6
CONTINUOUS
  2
_DOTSMALL
 10
193.72405566587159
 20
262.97709298101961
 30
0.0
 41
2.3199999999999901
 42
2.3199999999999901
 43
2.3199999999999981
 50
270.0
  0
TEXT
  5
152E5
  8
SUNPO
  6
CONTINUOUS
 10
192.7240556658715
 20
280.9145929810195
 30
0.0
 40
2.5
  1
40
 50
90.0
 41
1.1000000000000001
  7
MX_DIMTXSTY_3
  0
TEXT
  5
152E6
  8
SUNPO
  6
CONTINUOUS
 10
208.9740556658717
 20
270.47709298101961
 30
0.0
 40
2.5
  1
14.5
 41
1.3500000000000001
  7
MX_DIMTXSTY_5
  0
LINE
  5
152E7
  8
SUNPO
  6
CONTINUOUS
 10
220.72405566587159
 20
269.47709298101961
 30
0.0
 11
206.22405566587159
 21
269.47709298101961
 31
0.0
  0
INSERT
  5
152E8
  8
SUNPO
  6
CONTINUOUS
  2
_DOTSMALL
 10
206.22405566587159
 20
269.47709298101961
 30
0.0
 41
2.3199999999999901
 42
2.3199999999999901
 43
2.3199999999999981
 50
180.0
  0
INSERT
  5
152E9
  8
SUNPO
  6
CONTINUOUS
  2
_DOTSMALL
 10
220.72405566587159
 20
269.47709298101961
 30
0.0
 41
2.3199999999999901
 42
2.3199999999999901
 43
2.3199999999999981
  0
INSERT
  5
152EA
  8
SUNPO
  6
CONTINUOUS
  2
_DOTSMALL
 10
220.72405566587159
 20
269.47709298101961
 30
0.0
 41
2.3199999999999901
 42
2.3199999999999901
 43
2.3199999999999981
 50
180.0
  0
LINE
  5
152EB
  8
SUNPO
  6
CONTINUOUS
 10
166.72405566587179
 20
302.97709298101961
 30
0.0
 11
183.7240556658717
 21
302.97709298101961
 31
0.0
  0
LINE
  5
152EC
  8
SUNPO
  6
CONTINUOUS
 10
166.72405566587179
 20
302.97709298101961
 30
0.0
 11
193.72405566587159
 21
302.97709298101961
 31
0.0
  0
LINE
  5
152ED
  8
SUNPO
  6
CONTINUOUS
 10
166.72405566587179
 20
302.97709298101961
 30
0.0
 11
193.72405566587159
 21
302.97709298101961
 31
0.0
  0
ARC
  5
152EE
  8
DANMEN
  6
CONTINUOUS
 10
165.2240556658719
 20
302.47709298101961
 30
0.0
 40
0.5
 50
0.0
 51
90.0
  0
INSERT
  5
152EF
  8
SUNPO
  6
CONTINUOUS
  2
_DOTSMALL
 10
183.7240556658717
 20
302.97709298101961
 30
0.0
 41
2.3199999999999901
 42
2.3199999999999901
 43
2.3199999999999981
 50
270.0
  0
INSERT
  5
152F0
  8
SUNPO
  6
CONTINUOUS
  2
_CLOSED
 10
193.72405566587159
 20
302.97709298101961
 30
0.0
 41
7.5
 42
7.5
 43
7.5
 50
270.0
  0
INSERT
  5
152F1
  8
SUNPO
  6
CONTINUOUS
  2
_DOTSMALL
 10
193.72405566587159
 20
302.97709298101961
 30
0.0
 41
2.3199999999999901
 42
2.3199999999999901
 43
2.3199999999999981
 50
90.0
  0
TEXT
  5
152F2
  8
SUNPO
  6
CONTINUOUS
 10
182.7240556658717
 20
314.72709298101961
 30
0.0
 40
2.5
  1
32.5
 50
90.0
 41
1.1999999999999991
  7
MX_DIMTXSTY_6
  0
LINE
  5
152F3
  8
SUNPO
  6
CONTINUOUS
 10
219.7240556658717
 20
299.47709298101961
 30
0.0
 11
202.22405566587159
 21
299.47709298101961
 31
0.0
  0
INSERT
  5
152F4
  8
SUNPO
  6
CONTINUOUS
  2
_DOTSMALL
 10
202.22405566587159
 20
299.47709298101961
 30
0.0
 41
2.3199999999999901
 42
2.3199999999999901
 43
2.3199999999999981
 50
270.0
  0
LINE
  5
152F5
  8
DANMEN
  6
CONTINUOUS
 10
220.72405566587159
 20
307.4770929810195
 30
0.0
 11
220.72405566587159
 21
299.97709298101961
 31
0.0
  0
ARC
  5
152F6
  8
DANMEN
  6
CONTINUOUS
 10
221.22405566587159
 20
299.97709298101961
 30
0.0
 40
0.5
 50
180.0
 51
270.0
  0
ARC
  5
152F7
  8
DANMEN
  6
CONTINUOUS
 10
221.87405566587191
 20
307.4770929810195
 30
0.0
 40
0.5
 50
0.0
 51
90.0
  0
LINE
  5
152F8
  8
DANMEN
  6
CONTINUOUS
 10
221.87405566587191
 20
307.97709298101961
 30
0.0
 11
221.22405566587159
 21
307.97709298101961
 31
0.0
  0
ARC
  5
152F9
  8
DANMEN
  6
CONTINUOUS
 10
221.22405566587159
 20
307.4770929810195
 30
0.0
 40
0.5
 50
90.0
 51
180.0
  0
LINE
  5
152FA
  8
DANMEN
  6
CONTINUOUS
 10
222.37405566587171
 20
307.4770929810195
 30
0.0
 11
222.37405566587171
 21
301.12709298101959
 31
0.0
  0
LINE
  5
152FB
  8
DANMEN
  6
CONTINUOUS
 10
228.7240556658717
 20
301.12709298101959
 30
0.0
 11
222.37405566587171
 21
301.12709298101959
 31
0.0
  0
TEXT
  5
152FC
  8
SUNPO
  6
CONTINUOUS
 10
201.2240556658717
 20
319.89375964768618
 30
0.0
 40
2.5
  1
45
 50
90.0
  7
MX_NOTE_STANDARD
  0
LINE
  5
152FD
  8
DANMEN
  6
CONTINUOUS
 10
95.724055665871916
 20
397.47709298101961
 30
0.0
 11
102.62405566587179
 21
397.47709298101961
 31
0.0
  0
LINE
  5
152FE
  8
DANMEN
  6
CONTINUOUS
 10
95.724055665871916
 20
399.47709298101961
 30
0.0
 11
138.7240556658719
 21
399.47709298101961
 31
0.0
  0
LINE
  5
152FF
  8
DANMEN
  6
CONTINUOUS
 10
95.724055665871916
 20
379.97709298101961
 30
0.0
 11
131.62405566587191
 21
379.97709298101961
 31
0.0
  0
LINE
  5
15300
  8
DANMEN
  6
CONTINUOUS
 10
94.224055665871902
 20
377.97709298101961
 30
0.0
 11
140.2240556658719
 21
377.97709298101961
 31
0.0
  0
LINE
  5
15301
  8
DANMEN
  6
CONTINUOUS
 10
98.424055665871876
 20
415.9770929810195
 30
0.0
 11
99.72405566587193
 21
415.9770929810195
 31
0.0
  0
LINE
  5
15302
  8
DANMEN
  6
CONTINUOUS
 10
97.263055665871875
 20
407.97709298101938
 30
0.0
 11
99.72405566587193
 21
407.97709298101938
 31
0.0
  0
LINE
  5
15303
  8
DANMEN
  6
CONTINUOUS
 10
93.024055665871927
 20
429.6270929810193
 30
0.0
 11
108.42405566587171
 21
429.6270929810193
 31
0.0
  0
LINE
  5
15304
  8
DANMEN
  6
CONTINUOUS
 10
67.374055665871907
 20
427.97709298101961
 30
0.0
 11
105.0740556658718
 21
427.97709298101961
 31
0.0
  0
LINE
  5
15305
  8
DANMEN
  6
CONTINUOUS
 10
120.7240556658716
 20
455.47709298101961
 30
0.0
 11
66.179055665871928
 21
450.51809298101961
 31
0.0
  0
LINE
  5
15306
  8
DANMEN
  6
CONTINUOUS
 10
120.7240556658716
 20
453.82009298101929
 30
0.0
 11
90.179055665871843
 21
451.04309298101958
 31
0.0
  0
LINE
  5
15307
  8
SUNPO
  6
CONTINUOUS
 10
140.7240556658715
 20
358.47709298101961
 30
0.0
 11
93.724055665871902
 21
358.47709298101961
 31
0.0
  0
LINE
  5
15308
  8
SUNPO
  6
CONTINUOUS
 10
165.72405566587179
 20
338.47709298101961
 30
0.0
 11
65.724055665871902
 21
338.47709298101961
 31
0.0
  0
LINE
  5
15309
  8
SUNPO
  6
CONTINUOUS
 10
65.724055665871902
 20
348.47709298101961
 30
0.0
 11
140.7240556658715
 21
348.47709298101961
 31
0.0
  0
LINE
  5
1530A
  8
SUNPO
  6
CONTINUOUS
 10
65.724055665871902
 20
470.47709298101938
 30
0.0
 11
120.7240556658716
 21
470.47709298101938
 31
0.0
  0
LINE
  5
1530B
  8
SUNPO
  6
CONTINUOUS
 10
119.7240556658716
 20
465.47709298101961
 30
0.0
 11
50.724055665871923
 21
465.47709298101961
 31
0.0
  0
LINE
  5
1530C
  8
SUNPO
  6
CONTINUOUS
 10
119.2240556658719
 20
455.47709298101961
 30
0.0
 11
50.724055665871923
 21
455.47709298101961
 31
0.0
  0
LINE
  5
1530D
  8
DANMEN
  6
CONTINUOUS
 10
67.374055665871907
 20
425.47709298101961
 30
0.0
 11
67.374055665871907
 21
427.97709298101961
 31
0.0
  0
LINE
  5
1530E
  8
DANMEN
  6
CONTINUOUS
 10
65.724055665871902
 20
415.9770929810195
 30
0.0
 11
65.724055665871902
 21
450.02009298101962
 31
0.0
  0
LINE
  5
1530F
  8
SUNPO
  6
CONTINUOUS
 10
50.724055665871923
 20
415.47709298101961
 30
0.0
 11
50.724055665871923
 21
450.47709298101961
 31
0.0
  0
LINE
  5
15310
  8
DANMEN
  6
CONTINUOUS
 10
74.224055665871902
 20
379.97709298101961
 30
0.0
 11
74.224055665871902
 21
391.1770929810196
 31
0.0
  0
LINE
  5
15311
  8
DANMEN
  6
CONTINUOUS
 10
75.724055665871902
 20
378.47709298101961
 30
0.0
 11
75.724055665871902
 21
390.47709298101961
 31
0.0
  0
LINE
  5
15312
  8
DANMEN
  6
CONTINUOUS
 10
67.724055665871902
 20
379.97709298101961
 30
0.0
 11
67.724055665871902
 21
405.7150929810195
 31
0.0
  0
LINE
  5
15313
  8
DANMEN
  6
CONTINUOUS
 10
93.724055665871902
 20
378.47709298101961
 30
0.0
 11
93.724055665871902
 21
408.76709298101957
 31
0.0
  0
LINE
  5
15314
  8
DANMEN
  6
CONTINUOUS
 10
95.724055665871916
 20
379.97709298101961
 30
0.0
 11
95.724055665871916
 21
397.47709298101961
 31
0.0
  0
LINE
  5
15315
  8
DANMEN
  6
CONTINUOUS
 10
65.724055665871902
 20
378.47709298101961
 30
0.0
 11
65.724055665871902
 21
407.52509298101961
 31
0.0
  0
LINE
  5
15316
  8
DANMEN
  6
CONTINUOUS
 10
81.724055665871902
 20
378.82509298101951
 30
0.0
 11
76.572055665871872
 21
383.97709298101961
 31
0.0
  0
LINE
  5
15317
  8
DANMEN
  6
CONTINUOUS
 10
80.548055665871871
 20
377.17309298101952
 30
0.0
 11
75.724055665871902
 21
381.99709298101959
 31
0.0
  0
LINE
  5
15318
  8
DANMEN
  6
CONTINUOUS
 10
75.724055665871902
 20
381.29509298101931
 30
0.0
 11
78.406055665871904
 21
383.97709298101961
 31
0.0
  0
LINE
  5
15319
  8
DANMEN
  6
CONTINUOUS
 10
75.724055665871902
 20
378.46709298101962
 30
0.0
 11
81.234055665871892
 21
383.97709298101961
 31
0.0
  0
LINE
  5
1531A
  8
DANMEN
  6
CONTINUOUS
 10
77.728055665871892
 20
377.64309298101961
 30
0.0
 11
81.724055665871902
 21
381.6380929810195
 31
0.0
  0
LINE
  5
1531B
  8
DANMEN
  6
CONTINUOUS
 10
93.724055665871902
 20
380.9670929810195
 30
0.0
 11
90.714055665871925
 21
383.97709298101961
 31
0.0
  0
LINE
  5
1531C
  8
DANMEN
  6
CONTINUOUS
 10
93.724055665871902
 20
378.1390929810193
 30
0.0
 11
87.886055665871908
 21
383.97709298101961
 31
0.0
  0
LINE
  5
1531D
  8
DANMEN
  6
CONTINUOUS
 10
87.724055665871902
 20
379.1530929810196
 30
0.0
 11
92.548055665871871
 21
383.97709298101961
 31
0.0
  0
LINE
  5
1531E
  8
DANMEN
  6
CONTINUOUS
 10
88.507055665871889
 20
377.1070929810196
 30
0.0
 11
93.724055665871902
 21
382.32509298101951
 31
0.0
  0
LINE
  5
1531F
  8
DANMEN
  6
CONTINUOUS
 10
86.724055665871902
 20
355.47709298101961
 30
0.0
 11
86.724055665871902
 21
387.97709298101961
 31
0.0
  0
LINE
  5
15320
  8
DANMEN
  6
CONTINUOUS
 10
82.724055665871902
 20
355.47709298101961
 30
0.0
 11
82.724055665871902
 21
387.97709298101961
 31
0.0
  0
LINE
  5
15321
  8
DANMEN
  6
CONTINUOUS
 10
87.724055665871902
 20
355.47709298101961
 30
0.0
 11
87.724055665871902
 21
387.97709298101961
 31
0.0
  0
LINE
  5
15322
  8
DANMEN
  6
CONTINUOUS
 10
81.724055665871902
 20
355.47709298101961
 30
0.0
 11
81.724055665871902
 21
387.97709298101961
 31
0.0
  0
TEXT
  5
15323
  8
SUNPO
  6
CONTINUOUS
 10
59.72405566587188
 20
381.0083429810195
 30
0.0
 40
2.5
  1
10
 50
90.0
 41
1.3500000000000001
  7
MX_DIMTXSTY_5
  0
LINE
  5
15324
  8
SUNPO
  6
CONTINUOUS
 10
60.724055665871887
 20
377.97709298101961
 30
0.0
 11
60.724055665871887
 21
387.97709298101961
 31
0.0
  0
LINE
  5
15325
  8
SUNPO
  6
CONTINUOUS
 10
50.724055665871887
 20
377.97709298101961
 30
0.0
 11
50.724055665871923
 21
407.97709298101938
 31
0.0
  0
ARC
  5
15326
  8
DANMEN
  6
CONTINUOUS
 10
66.224055665871902
 20
378.47709298101961
 30
0.0
 40
0.5
 50
180.0
 51
270.0
  0
LINE
  5
15327
  8
SUNPO
  6
CONTINUOUS
 10
65.724055665871902
 20
358.47709298101961
 30
0.0
 11
75.724055665871902
 21
358.47709298101961
 31
0.0
  0
LINE
  5
15328
  8
DANMEN
  6
CONTINUOUS
 10
65.724055665871902
 20
355.47709298101961
 30
0.0
 11
65.724055665871902
 21
377.97709298101961
 31
0.0
  0
INSERT
  5
15329
  8
SUNPO
  6
CONTINUOUS
  2
_DOTSMALL
 10
65.724055665871902
 20
338.47709298101961
 30
0.0
 41
2.3199999999999901
 42
2.3199999999999901
 43
2.3199999999999981
 50
180.0
  0
LINE
  5
1532A
  8
DANMEN
  6
CONTINUOUS
 10
65.724055665871902
 20
348.47709298101961
 30
0.0
 11
65.724055665871902
 21
348.47709298101961
 31
0.0
  0
INSERT
  5
1532B
  8
SUNPO
  6
CONTINUOUS
  2
_DOTSMALL
 10
65.724055665871902
 20
348.47709298101961
 30
0.0
 41
2.3199999999999901
 42
2.3199999999999901
 43
2.3199999999999981
 50
180.0
  0
INSERT
  5
1532C
  8
SUNPO
  6
CONTINUOUS
  2
_DOTSMALL
 10
65.724055665871902
 20
358.47709298101961
 30
0.0
 41
2.3199999999999901
 42
2.3199999999999901
 43
2.3199999999999981
 50
180.0
  0
LINE
  5
1532D
  8
SUNPO
  6
CONTINUOUS
 10
64.724055665871902
 20
377.97709298101961
 30
0.0
 11
50.724055665871887
 21
377.97709298101961
 31
0.0
  0
INSERT
  5
1532E
  8
SUNPO
  6
CONTINUOUS
  2
_DOTSMALL
 10
50.724055665871887
 20
377.97709298101961
 30
0.0
 41
2.3199999999999901
 42
2.3199999999999901
 43
2.3199999999999981
 50
270.0
  0
LINE
  5
1532F
  8
SUNPO
  6
CONTINUOUS
 10
64.724055665871902
 20
377.97709298101961
 30
0.0
 11
60.724055665871887
 21
377.97709298101961
 31
0.0
  0
INSERT
  5
15330
  8
SUNPO
  6
CONTINUOUS
  2
_DOTSMALL
 10
60.724055665871887
 20
377.97709298101961
 30
0.0
 41
2.3199999999999901
 42
2.3199999999999901
 43
2.3199999999999981
 50
270.0
  0
LINE
  5
15331
  8
DANMEN
  6
CONTINUOUS
 10
75.724055665871902
 20
355.47709298101961
 30
0.0
 11
75.724055665871902
 21
377.97709298101961
 31
0.0
  0
LINE
  5
15332
  8
DANMEN
  6
CONTINUOUS
 10
93.724055665871902
 20
355.47709298101961
 30
0.0
 11
93.724055665871902
 21
377.97709298101961
 31
0.0
  0
LINE
  5
15333
  8
DANMEN
  6
CONTINUOUS
 10
73.724055665871902
 20
355.47709298101961
 30
0.0
 11
73.724055665871902
 21
377.97709298101961
 31
0.0
  0
LINE
  5
15334
  8
SUNPO
  6
CONTINUOUS
 10
93.724055665871902
 20
358.47709298101961
 30
0.0
 11
75.724055665871902
 21
358.47709298101961
 31
0.0
  0
TEXT
  5
15335
  8
SUNPO
  6
CONTINUOUS
 10
70.744722332538572
 20
369.47709298101961
 30
0.0
 40
2.5
  1
2
  7
MX_NOTE_STANDARD
  0
LINE
  5
15336
  8
SUNPO
  6
CONTINUOUS
 10
75.724055665871902
 20
368.47709298101961
 30
0.0
 11
73.724055665871902
 21
368.47709298101961
 31
0.0
  0
TEXT
  5
15337
  8
SUNPO
  6
CONTINUOUS
 10
68.755305665871902
 20
359.4770929810195
 30
0.0
 40
2.5
  1
10
 41
1.3500000000000001
  7
MX_DIMTXSTY_5
  0
INSERT
  5
15338
  8
SUNPO
  6
CONTINUOUS
  2
_DOTSMALL
 10
73.724055665871902
 20
368.47709298101961
 30
0.0
 41
2.3199999999999901
 42
2.3199999999999901
 43
2.3199999999999981
 50
180.0
  0
LINE
  5
15339
  8
SUNPO
  6
CONTINUOUS
 10
73.724055665871902
 20
368.47709298101961
 30
0.0
 11
70.328055665871887
 21
368.47709298101961
 31
0.0
  0
INSERT
  5
1533A
  8
SUNPO
  6
CONTINUOUS
  2
_DOTSMALL
 10
75.724055665871902
 20
358.47709298101961
 30
0.0
 41
2.3199999999999901
 42
2.3199999999999901
 43
2.3199999999999981
  0
INSERT
  5
1533B
  8
SUNPO
  6
CONTINUOUS
  2
_DOTSMALL
 10
75.724055665871902
 20
368.47709298101961
 30
0.0
 41
2.3199999999999901
 42
2.3199999999999901
 43
2.3199999999999981
  0
LINE
  5
1533C
  8
DANMEN
  6
CONTINUOUS
 10
66.224055665871902
 20
377.97709298101961
 30
0.0
 11
75.224055665871902
 21
377.97709298101961
 31
0.0
  0
LINE
  5
1533D
  8
DANMEN
  6
CONTINUOUS
 10
67.724055665871902
 20
379.97709298101961
 30
0.0
 11
74.224055665871902
 21
379.97709298101961
 31
0.0
  0
LINE
  5
1533E
  8
DANMEN
  6
CONTINUOUS
 10
81.724055665871902
 20
376.97709298101961
 30
0.0
 11
75.724055665871902
 21
377.97709298101961
 31
0.0
  0
ARC
  5
1533F
  8
DANMEN
  6
CONTINUOUS
 10
75.224055665871902
 20
378.47709298101961
 30
0.0
 40
0.5
 50
270.0
 51
0.0
  0
LINE
  5
15340
  8
DANMEN
  6
CONTINUOUS
 10
77.154055665871908
 20
377.7390929810195
 30
0.0
 11
75.724055665871902
 21
379.16809298101953
 31
0.0
  0
LINE
  5
15341
  8
DANMEN
  6
CONTINUOUS
 10
80.153055665871904
 20
377.23909298101961
 30
0.0
 11
81.724055665871902
 21
378.81009298101952
 31
0.0
  0
TEXT
  5
15342
  8
SUNPO
  6
CONTINUOUS
 10
82.724055665871902
 20
359.4770929810195
 30
0.0
 40
2.5
  1
18
 41
1.1999999999999991
  7
MX_DIMTXSTY_6
  0
INSERT
  5
15343
  8
SUNPO
  6
CONTINUOUS
  2
_DOTSMALL
 10
93.724055665871902
 20
358.47709298101961
 30
0.0
 41
2.3199999999999901
 42
2.3199999999999901
 43
2.3199999999999981
 50
180.0
  0
LINE
  5
15344
  8
DANMEN
  6
CONTINUOUS
 10
91.4380556658719
 20
377.59609298101952
 30
0.0
 11
87.724055665871902
 21
381.31009298101952
 31
0.0
  0
LINE
  5
15345
  8
DANMEN
  6
CONTINUOUS
 10
87.724055665871902
 20
376.97709298101961
 30
0.0
 11
93.724055665871902
 21
377.97709298101961
 31
0.0
  0
LINE
  5
15346
  8
DANMEN
  6
CONTINUOUS
 10
89.014055665871894
 20
377.19209298101958
 30
0.0
 11
87.724055665871902
 21
378.4820929810196
 31
0.0
  0
ARC
  5
15347
  8
DANMEN
  6
CONTINUOUS
 10
94.224055665871902
 20
378.47709298101961
 30
0.0
 40
0.5
 50
180.0
 51
270.0
  0
LINE
  5
15348
  8
DANMEN
  6
CONTINUOUS
 10
91.901055665871922
 20
377.67309298101952
 30
0.0
 11
93.724055665871902
 21
379.49609298101961
 31
0.0
  0
ARC
  5
15349
  8
DANMEN
  6
CONTINUOUS
 10
66.224055665871902
 20
407.52509298101961
 30
0.0
 40
0.5
 50
95.710999999999942
 51
180.0
  0
ARC
  5
1534A
  8
DANMEN
  6
CONTINUOUS
 10
66.224055665871902
 20
415.9770929810195
 30
0.0
 40
0.5
 50
180.0
 51
270.0
  0
LINE
  5
1534B
  8
SUNPO
  6
CONTINUOUS
 10
80.224055665871902
 20
387.97709298101961
 30
0.0
 11
60.724055665871887
 21
387.97709298101961
 31
0.0
  0
TEXT
  5
1534C
  8
SUNPO
  6
CONTINUOUS
 10
49.72405566587188
 20
390.9145929810195
 30
0.0
 40
2.5
  1
30
 50
90.0
 41
1.1000000000000001
  7
MX_DIMTXSTY_3
  0
INSERT
  5
1534D
  8
SUNPO
  6
CONTINUOUS
  2
_DOTSMALL
 10
60.724055665871887
 20
387.97709298101961
 30
0.0
 41
2.3199999999999901
 42
2.3199999999999901
 43
2.3199999999999981
 50
90.0
  0
TEXT
  5
1534E
  8
SUNPO
  6
CONTINUOUS
 10
49.72405566587188
 20
408.47709298101933
 30
0.0
 40
2.5
  1
7.5
 50
90.0
 41
1.3
  7
MX_DIMTXSTY_4
  0
LINE
  5
1534F
  8
SUNPO
  6
CONTINUOUS
 10
64.224055665871902
 20
407.97709298101938
 30
0.0
 11
50.724055665871923
 21
407.97709298101938
 31
0.0
  0
LINE
  5
15350
  8
SUNPO
  6
CONTINUOUS
 10
64.224055665871902
 20
415.47709298101961
 30
0.0
 11
50.724055665871923
 21
415.47709298101961
 31
0.0
  0
LINE
  5
15351
  8
SUNPO
  6
CONTINUOUS
 10
64.224055665871902
 20
407.97709298101938
 30
0.0
 11
50.724055665871923
 21
407.97709298101938
 31
0.0
  0
LINE
  5
15352
  8
SUNPO
  6
CONTINUOUS
 10
64.724055665871902
 20
415.47709298101961
 30
0.0
 11
50.724055665871923
 21
415.47709298101961
 31
0.0
  0
LINE
  5
15353
  8
SUNPO
  6
CONTINUOUS
 10
50.724055665871923
 20
407.97709298101938
 30
0.0
 11
50.724055665871923
 21
415.47709298101961
 31
0.0
  0
INSERT
  5
15354
  8
SUNPO
  6
CONTINUOUS
  2
_DOTSMALL
 10
50.724055665871923
 20
407.97709298101938
 30
0.0
 41
2.3199999999999901
 42
2.3199999999999901
 43
2.3199999999999981
 50
90.0
  0
INSERT
  5
15355
  8
SUNPO
  6
CONTINUOUS
  2
_DOTSMALL
 10
50.724055665871923
 20
407.97709298101938
 30
0.0
 41
2.3199999999999901
 42
2.3199999999999901
 43
2.3199999999999981
 50
270.0
  0
INSERT
  5
15356
  8
SUNPO
  6
CONTINUOUS
  2
_DOTSMALL
 10
50.724055665871923
 20
415.47709298101961
 30
0.0
 41
2.3199999999999901
 42
2.3199999999999901
 43
2.3199999999999981
 50
90.0
  0
INSERT
  5
15357
  8
SUNPO
  6
CONTINUOUS
  2
_DOTSMALL
 10
50.724055665871923
 20
415.47709298101961
 30
0.0
 41
2.3199999999999901
 42
2.3199999999999901
 43
2.3199999999999981
 50
270.0
  0
LINE
  5
15358
  8
DANMEN
  6
CONTINUOUS
 10
65.724055665871902
 20
415.47709298101961
 30
0.0
 11
65.724055665871902
 21
407.97709298101938
 31
0.0
  0
LINE
  5
15359
  8
DANMEN
  6
CONTINUOUS
 10
95.724055665871916
 20
399.47709298101961
 30
0.0
 11
95.724055665871916
 21
413.47709298101961
 31
0.0
  0
LINE
  5
1535A
  8
DANMEN
  6
CONTINUOUS
 10
81.724055665871902
 20
387.97709298101961
 30
0.0
 11
87.724055665871902
 21
387.97709298101961
 31
0.0
  0
ARC
  5
1535B
  8
DANMEN
  6
CONTINUOUS
 10
74.724055665871902
 20
391.1770929810196
 30
0.0
 40
0.5
 50
90.0
 51
180.0
  0
LINE
  5
1535C
  8
DANMEN
  6
CONTINUOUS
 10
75.724055665871902
 20
383.97709298101961
 30
0.0
 11
81.724055665871902
 21
383.97709298101961
 31
0.0
  0
LINE
  5
1535D
  8
DANMEN
  6
CONTINUOUS
 10
81.724055665871902
 20
381.65409298101952
 30
0.0
 11
79.401055665871922
 21
383.97709298101961
 31
0.0
  0
LINE
  5
1535E
  8
DANMEN
  6
CONTINUOUS
 10
81.724055665871902
 20
390.47709298101961
 30
0.0
 11
77.224055665871902
 21
390.47709298101961
 31
0.0
  0
ARC
  5
1535F
  8
DANMEN
  6
CONTINUOUS
 10
76.724055665871902
 20
391.1770929810196
 30
0.0
 40
0.5
 50
0.0
 51
90.0
  0
LINE
  5
15360
  8
DANMEN
  6
CONTINUOUS
 10
74.724055665871902
 20
391.6770929810196
 30
0.0
 11
76.724055665871902
 21
391.6770929810196
 31
0.0
  0
LINE
  5
15361
  8
DANMEN
  6
CONTINUOUS
 10
75.724055665871902
 20
390.47709298101961
 30
0.0
 11
77.224055665871902
 21
390.47709298101961
 31
0.0
  0
LINE
  5
15362
  8
DANMEN
  6
CONTINUOUS
 10
77.224055665871902
 20
390.47709298101961
 30
0.0
 11
77.224055665871902
 21
391.1770929810196
 31
0.0
  0
LINE
  5
15363
  8
DANMEN
  6
CONTINUOUS
 10
81.724055665871902
 20
387.97709298101961
 30
0.0
 11
81.724055665871902
 21
390.47709298101961
 31
0.0
  0
LINE
  5
15364
  8
DANMEN
  6
CONTINUOUS
 10
93.724055665871902
 20
383.97709298101961
 30
0.0
 11
87.724055665871902
 21
383.97709298101961
 31
0.0
  0
LINE
  5
15365
  8
DANMEN
  6
CONTINUOUS
 10
87.724055665871902
 20
390.47709298101961
 30
0.0
 11
93.724055665871902
 21
390.47709298101961
 31
0.0
  0
LINE
  5
15366
  8
DANMEN
  6
CONTINUOUS
 10
87.724055665871902
 20
381.98209298101921
 30
0.0
 11
89.719055665871906
 21
383.97709298101961
 31
0.0
  0
LINE
  5
15367
  8
DANMEN
  6
CONTINUOUS
 10
87.724055665871902
 20
387.97709298101961
 30
0.0
 11
87.724055665871902
 21
390.47709298101961
 31
0.0
  0
LINE
  5
15368
  8
DANMEN
  6
CONTINUOUS
 10
93.724055665871902
 20
383.79609298101951
 30
0.0
 11
93.543055665871861
 21
383.97709298101961
 31
0.0
  0
LINE
  5
15369
  8
DANMEN
  6
CONTINUOUS
 10
93.724055665871902
 20
408.76709298101957
 30
0.0
 11
68.17405566587189
 21
406.21209298101962
 31
0.0
  0
LINE
  5
1536A
  8
DANMEN
  6
CONTINUOUS
 10
93.724055665871902
 20
410.77709298101951
 30
0.0
 11
66.17405566587189
 21
408.02209298101928
 31
0.0
  0
LINE
  5
1536B
  8
DANMEN
  6
CONTINUOUS
 10
72.024055665871913
 20
420.81309298101928
 30
0.0
 11
72.024055665871913
 21
410.37709298101942
 31
0.0
  0
LINE
  5
1536C
  8
DANMEN
  6
CONTINUOUS
 10
70.524055665871913
 20
418.47709298101961
 30
0.0
 11
70.524055665871913
 21
414.97709298101961
 31
0.0
  0
LINE
  5
1536D
  8
DANMEN
  6
CONTINUOUS
 10
70.524055665871913
 20
415.9770929810195
 30
0.0
 11
70.524055665871913
 21
417.77709298101928
 31
0.0
  0
LINE
  5
1536E
  8
DANMEN
  6
CONTINUOUS
 10
71.224055665871902
 20
414.28709298101961
 30
0.0
 11
71.224055665871902
 21
410.37709298101942
 31
0.0
  0
ARC
  5
1536F
  8
DANMEN
  6
CONTINUOUS
 10
68.224055665871902
 20
405.7150929810195
 30
0.0
 40
0.5
 50
95.710999999999942
 51
180.0
  0
ARC
  5
15370
  8
DANMEN
  6
CONTINUOUS
 10
71.624055665871907
 20
410.37709298101942
 30
0.0
 40
0.4
 50
180.0
 51
0.0
  0
ARC
  5
15371
  8
DANMEN
  6
CONTINUOUS
 10
70.024055665871913
 20
415.9770929810195
 30
0.0
 40
0.5
 50
270.0
 51
0.0
  0
LINE
  5
15372
  8
DANMEN
  6
CONTINUOUS
 10
66.224055665871902
 20
415.47709298101961
 30
0.0
 11
70.024055665871913
 21
415.47709298101961
 31
0.0
  0
LINE
  5
15373
  8
DANMEN
  6
CONTINUOUS
 10
70.524055665871913
 20
414.97709298101961
 30
0.0
 11
71.224055665871902
 21
414.28709298101961
 31
0.0
  0
LINE
  5
15374
  8
DANMEN
  6
CONTINUOUS
 10
72.024055665871913
 20
424.97709298101933
 30
0.0
 11
72.024055665871913
 21
416.64909298101952
 31
0.0
  0
LINE
  5
15375
  8
DANMEN
  6
CONTINUOUS
 10
68.024055665871913
 20
421.72709298101961
 30
0.0
 11
68.69605566587191
 21
423.24709298101959
 31
0.0
  0
LINE
  5
15376
  8
DANMEN
  6
CONTINUOUS
 10
67.374055665871907
 20
416.77709298101951
 30
0.0
 11
67.374055665871907
 21
424.17709298101931
 31
0.0
  0
CIRCLE
  5
15377
  8
DANMEN
  6
CONTINUOUS
 10
69.850055665871906
 20
420.47709298101938
 30
0.0
 40
0.626
  0
LINE
  5
15378
  8
DANMEN
  6
CONTINUOUS
 10
69.224055665871902
 20
418.47709298101961
 30
0.0
 11
70.524055665871913
 21
418.47709298101961
 31
0.0
  0
ARC
  5
15379
  8
DANMEN
  6
CONTINUOUS
 10
70.024055665871913
 20
417.77709298101928
 30
0.0
 40
0.5
 50
0.0
 51
90.0
  0
LINE
  5
1537A
  8
DANMEN
  6
CONTINUOUS
 10
69.224055665871902
 20
418.47709298101961
 30
0.0
 11
69.224055665871902
 21
417.90109298101942
 31
0.0
  0
ARC
  5
1537B
  8
DANMEN
  6
CONTINUOUS
 10
68.924055665871919
 20
417.90109298101942
 30
0.0
 40
0.3
 50
220.32899999999981
 51
0.0
  0
LINE
  5
1537C
  8
DANMEN
  6
CONTINUOUS
 10
68.024055665871913
 20
419.22709298101961
 30
0.0
 11
68.69605566587191
 21
417.70709298101951
 31
0.0
  0
LINE
  5
1537D
  8
DANMEN
  6
CONTINUOUS
 10
68.024055665871913
 20
421.72709298101961
 30
0.0
 11
68.024055665871913
 21
419.22709298101961
 31
0.0
  0
LINE
  5
1537E
  8
DANMEN
  6
CONTINUOUS
 10
67.374055665871907
 20
416.77709298101951
 30
0.0
 11
69.524055665871913
 21
416.77709298101951
 31
0.0
  0
LINE
  5
1537F
  8
DANMEN
  6
CONTINUOUS
 10
69.524055665871913
 20
418.27709298101928
 30
0.0
 11
70.024055665871913
 21
418.27709298101928
 31
0.0
  0
LINE
  5
15380
  8
DANMEN
  6
CONTINUOUS
 10
69.524055665871913
 20
416.77709298101951
 30
0.0
 11
69.524055665871913
 21
418.27709298101928
 31
0.0
  0
LINE
  5
15381
  8
DANMEN
  6
CONTINUOUS
 10
69.224055665871902
 20
422.47709298101961
 30
0.0
 11
70.524055665871913
 21
422.47709298101961
 31
0.0
  0
ARC
  5
15382
  8
DANMEN
  6
CONTINUOUS
 10
70.024055665871913
 20
423.17709298101943
 30
0.0
 40
0.5
 50
270.0
 51
0.0
  0
ARC
  5
15383
  8
DANMEN
  6
CONTINUOUS
 10
70.024055665871913
 20
424.97709298101933
 30
0.0
 40
0.5
 50
0.0
 51
90.0
  0
LINE
  5
15384
  8
DANMEN
  6
CONTINUOUS
 10
69.224055665871902
 20
423.05109298101928
 30
0.0
 11
69.224055665871902
 21
422.47709298101961
 31
0.0
  0
ARC
  5
15385
  8
DANMEN
  6
CONTINUOUS
 10
68.924055665871919
 20
423.05109298101928
 30
0.0
 40
0.3
 50
0.0
 51
139.67100000000011
  0
LINE
  5
15386
  8
DANMEN
  6
CONTINUOUS
 10
69.524055665871913
 20
422.6770929810196
 30
0.0
 11
69.524055665871913
 21
424.17709298101931
 31
0.0
  0
LINE
  5
15387
  8
DANMEN
  6
CONTINUOUS
 10
67.374055665871907
 20
424.17709298101931
 30
0.0
 11
69.524055665871913
 21
424.17709298101931
 31
0.0
  0
LINE
  5
15388
  8
DANMEN
  6
CONTINUOUS
 10
67.374055665871907
 20
425.47709298101961
 30
0.0
 11
70.024055665871913
 21
425.47709298101961
 31
0.0
  0
LINE
  5
15389
  8
DANMEN
  6
CONTINUOUS
 10
69.524055665871913
 20
422.6770929810196
 30
0.0
 11
70.024055665871913
 21
422.6770929810196
 31
0.0
  0
ARC
  5
1538A
  8
DANMEN
  6
CONTINUOUS
 10
71.524055665871913
 20
424.97709298101933
 30
0.0
 40
0.5
 50
0.0
 51
90.0
  0
LINE
  5
1538B
  8
DANMEN
  6
CONTINUOUS
 10
70.524055665871913
 20
425.47709298101961
 30
0.0
 11
71.524055665871913
 21
425.47709298101961
 31
0.0
  0
LINE
  5
1538C
  8
DANMEN
  6
CONTINUOUS
 10
70.524055665871913
 20
425.47709298101961
 30
0.0
 11
70.524055665871913
 21
422.47709298101961
 31
0.0
  0
LINE
  5
1538D
  8
DANMEN
  6
CONTINUOUS
 10
70.524055665871913
 20
423.17709298101943
 30
0.0
 11
70.524055665871913
 21
424.97709298101933
 31
0.0
  0
LINE
  5
1538E
  8
DANMEN
  6
CONTINUOUS
 10
98.424055665871876
 20
415.9770929810195
 30
0.0
 11
98.424055665871876
 21
409.57709298101929
 31
0.0
  0
LINE
  5
1538F
  8
DANMEN
  6
CONTINUOUS
 10
97.254055665871931
 20
409.3890929810193
 30
0.0
 11
95.511055665871908
 21
414.67909298101961
 31
0.0
  0
LINE
  5
15390
  8
DANMEN
  6
CONTINUOUS
 10
96.586055665871925
 20
408.49809298101928
 30
0.0
 11
94.737055665871907
 21
414.4750929810196
 31
0.0
  0
ARC
  5
15391
  8
DANMEN
  6
CONTINUOUS
 10
97.824055665871853
 20
409.57709298101929
 30
0.0
 40
0.6
 50
198.2409999999999
 51
0.0
  0
ARC
  5
15392
  8
DANMEN
  6
CONTINUOUS
 10
97.263055665871875
 20
408.6770929810196
 30
0.0
 40
0.7
 50
194.84099999999981
 51
270.0
  0
LINE
  5
15393
  8
DANMEN
  6
CONTINUOUS
 10
94.224055665871902
 20
413.97709298101961
 30
0.0
 11
95.224055665871902
 21
413.97709298101961
 31
0.0
  0
ARC
  5
15394
  8
DANMEN
  6
CONTINUOUS
 10
95.124055665871865
 20
414.57709298101952
 30
0.0
 40
0.4
 50
14.840999999999831
 51
194.84099999999981
  0
ARC
  5
15395
  8
DANMEN
  6
CONTINUOUS
 10
94.224055665871902
 20
413.47709298101961
 30
0.0
 40
0.5
 50
90.0
 51
180.0
  0
LINE
  5
15396
  8
DANMEN
  6
CONTINUOUS
 10
93.724055665871902
 20
410.77709298101951
 30
0.0
 11
93.724055665871902
 21
413.47709298101961
 31
0.0
  0
ARC
  5
15397
  8
DANMEN
  6
CONTINUOUS
 10
95.224055665871902
 20
413.47709298101961
 30
0.0
 40
0.5
 50
0.0
 51
90.0
  0
ARC
  5
15398
  8
DANMEN
  6
CONTINUOUS
 10
66.224055665871902
 20
450.02009298101962
 30
0.0
 40
0.5
 50
95.194000000000386
 51
180.0
  0
LINE
  5
15399
  8
SUNPO
  6
CONTINUOUS
 10
50.724055665871923
 20
450.47709298101961
 30
0.0
 11
50.724055665871923
 21
455.47709298101961
 31
0.0
  0
TEXT
  5
1539A
  8
SUNPO
  6
CONTINUOUS
 10
49.72405566587188
 20
430.89375964768612
 30
0.0
 40
2.5
  1
35
 50
90.0
  7
MX_NOTE_STANDARD
  0
LINE
  5
1539B
  8
SUNPO
  6
CONTINUOUS
 10
64.224055665871902
 20
450.47709298101961
 30
0.0
 11
50.724055665871923
 21
450.47709298101961
 31
0.0
  0
INSERT
  5
1539C
  8
SUNPO
  6
CONTINUOUS
  2
_DOTSMALL
 10
50.724055665871923
 20
450.47709298101961
 30
0.0
 41
2.3199999999999901
 42
2.3199999999999901
 43
2.3199999999999981
 50
270.0
  0
INSERT
  5
1539D
  8
SUNPO
  6
CONTINUOUS
  2
_DOTSMALL
 10
50.724055665871923
 20
450.47709298101961
 30
0.0
 41
2.3199999999999901
 42
2.3199999999999901
 43
2.3199999999999981
 50
90.0
  0
TEXT
  5
1539E
  8
SUNPO
  6
CONTINUOUS
 10
49.72405566587188
 20
452.1437596476863
 30
0.0
 40
2.5
  1
5
 50
90.0
  7
MX_NOTE_STANDARD
  0
TEXT
  5
1539F
  8
SUNPO
  6
CONTINUOUS
 10
49.72405566587188
 20
458.50834298101961
 30
0.0
 40
2.5
  1
10
 50
90.0
 41
1.3500000000000001
  7
MX_DIMTXSTY_5
  0
LINE
  5
153A0
  8
SUNPO
  6
CONTINUOUS
 10
65.724055665871902
 20
451.52009298101962
 30
0.0
 11
65.724055665871902
 21
470.47709298101938
 31
0.0
  0
LINE
  5
153A1
  8
SUNPO
  6
CONTINUOUS
 10
50.724055665871923
 20
455.47709298101961
 30
0.0
 11
50.724055665871923
 21
465.47709298101961
 31
0.0
  0
INSERT
  5
153A2
  8
SUNPO
  6
CONTINUOUS
  2
_DOTSMALL
 10
50.724055665871923
 20
455.47709298101961
 30
0.0
 41
2.3199999999999901
 42
2.3199999999999901
 43
2.3199999999999981
 50
90.0
  0
INSERT
  5
153A3
  8
SUNPO
  6
CONTINUOUS
  2
_DOTSMALL
 10
50.724055665871923
 20
455.47709298101961
 30
0.0
 41
2.3199999999999901
 42
2.3199999999999901
 43
2.3199999999999981
 50
270.0
  0
INSERT
  5
153A4
  8
SUNPO
  6
CONTINUOUS
  2
_DOTSMALL
 10
50.724055665871923
 20
465.47709298101961
 30
0.0
 41
2.3199999999999901
 42
2.3199999999999901
 43
2.3199999999999981
 50
90.0
  0
INSERT
  5
153A5
  8
SUNPO
  6
CONTINUOUS
  2
_DOTSMALL
 10
65.724055665871902
 20
470.47709298101938
 30
0.0
 41
2.3199999999999901
 42
2.3199999999999901
 43
2.3199999999999981
 50
180.0
  0
ARC
  5
153A6
  8
DANMEN
  6
CONTINUOUS
 10
90.224055665871902
 20
450.54509298101931
 30
0.0
 40
0.5
 50
95.194000000000386
 51
180.0
  0
LINE
  5
153A7
  8
DANMEN
  6
CONTINUOUS
 10
87.179055665871871
 20
450.77109298101959
 30
0.0
 11
67.374055665871907
 21
448.97009298101938
 31
0.0
  0
LINE
  5
153A8
  8
DANMEN
  6
CONTINUOUS
 10
67.374055665871907
 20
429.6270929810193
 30
0.0
 11
84.424055665871876
 21
429.6270929810193
 31
0.0
  0
LINE
  5
153A9
  8
DANMEN
  6
CONTINUOUS
 10
67.374055665871907
 20
429.6270929810193
 30
0.0
 11
67.374055665871907
 21
448.97009298101938
 31
0.0
  0
LINE
  5
153AA
  8
DANMEN
  6
CONTINUOUS
 10
91.263055665871875
 20
434.07709298101952
 30
0.0
 11
90.124055665871865
 21
434.07709298101952
 31
0.0
  0
ARC
  5
153AB
  8
DANMEN
  6
CONTINUOUS
 10
87.42405566587189
 20
432.50709298101958
 30
0.0
 40
2.0
 50
128.29300000000049
 51
180.0
  0
LINE
  5
153AC
  8
DANMEN
  6
CONTINUOUS
 10
87.624055665871879
 20
433.77709298101928
 30
0.0
 11
87.624055665871879
 21
433.5140929810193
 31
0.0
  0
LINE
  5
153AD
  8
DANMEN
  6
CONTINUOUS
 10
89.824055665871867
 20
433.77709298101928
 30
0.0
 11
89.824055665871867
 21
433.5140929810193
 31
0.0
  0
ARC
  5
153AE
  8
DANMEN
  6
CONTINUOUS
 10
84.424055665871876
 20
430.62709298101919
 30
0.0
 40
1.0
 50
270.0
 51
0.0
  0
LINE
  5
153AF
  8
DANMEN
  6
CONTINUOUS
 10
85.424055665871904
 20
432.50709298101958
 30
0.0
 11
85.424055665871904
 21
430.62709298101919
 31
0.0
  0
ARC
  5
153B0
  8
DANMEN
  6
CONTINUOUS
 10
89.524055665871913
 20
431.1770929810196
 30
0.0
 40
1.0
 50
270.0
 51
0.0
  0
ARC
  5
153B1
  8
DANMEN
  6
CONTINUOUS
 10
87.924055665871904
 20
431.1770929810196
 30
0.0
 40
1.0
 50
180.0
 51
270.0
  0
LINE
  5
153B2
  8
DANMEN
  6
CONTINUOUS
 10
89.524055665871913
 20
430.1770929810196
 30
0.0
 11
87.924055665871904
 21
430.1770929810196
 31
0.0
  0
ARC
  5
153B3
  8
DANMEN
  6
CONTINUOUS
 10
87.924055665871904
 20
432.42309298101952
 30
0.0
 40
1.0
 50
114.6239999999994
 51
180.0
  0
ARC
  5
153B4
  8
DANMEN
  6
CONTINUOUS
 10
87.42405566587189
 20
433.5140929810193
 30
0.0
 40
0.2
 50
294.6239999999994
 51
0.0
  0
ARC
  5
153B5
  8
DANMEN
  6
CONTINUOUS
 10
90.024055665871899
 20
433.5140929810193
 30
0.0
 40
0.2
 50
180.0
 51
245.3760000000004
  0
ARC
  5
153B6
  8
DANMEN
  6
CONTINUOUS
 10
89.524055665871913
 20
432.42309298101952
 30
0.0
 40
1.0
 50
0.0
 51
65.376000000000531
  0
LINE
  5
153B7
  8
DANMEN
  6
CONTINUOUS
 10
90.524055665871927
 20
432.42309298101952
 30
0.0
 11
90.524055665871927
 21
431.1770929810196
 31
0.0
  0
LINE
  5
153B8
  8
DANMEN
  6
CONTINUOUS
 10
86.924055665871862
 20
432.42309298101952
 30
0.0
 11
86.924055665871862
 21
431.1770929810196
 31
0.0
  0
LINE
  5
153B9
  8
DANMEN
  6
CONTINUOUS
 10
86.1850556658719
 20
434.07709298101952
 30
0.0
 11
87.324055665871867
 21
434.07709298101952
 31
0.0
  0
ARC
  5
153BA
  8
DANMEN
  6
CONTINUOUS
 10
87.324055665871867
 20
433.77709298101928
 30
0.0
 40
0.3
 50
0.0
 51
90.0
  0
ARC
  5
153BB
  8
DANMEN
  6
CONTINUOUS
 10
90.124055665871865
 20
433.77709298101928
 30
0.0
 40
0.3
 50
90.0
 51
180.0
  0
ARC
  5
153BC
  8
DANMEN
  6
CONTINUOUS
 10
90.024055665871899
 20
432.50709298101958
 30
0.0
 40
2.0
 50
0.0
 51
51.706999999999432
  0
ARC
  5
153BD
  8
DANMEN
  6
CONTINUOUS
 10
93.024055665871927
 20
430.62709298101919
 30
0.0
 40
1.0
 50
180.0
 51
270.0
  0
LINE
  5
153BE
  8
DANMEN
  6
CONTINUOUS
 10
92.024055665871927
 20
432.50709298101958
 30
0.0
 11
92.024055665871927
 21
430.62709298101919
 31
0.0
  0
ARC
  5
153BF
  8
DANMEN
  6
CONTINUOUS
 10
89.524055665871913
 20
446.77709298101928
 30
0.0
 40
2.5
 50
0.0
 51
76.506999999999067
  0
ARC
  5
153C0
  8
DANMEN
  6
CONTINUOUS
 10
90.024055665871899
 20
445.44709298101952
 30
0.0
 40
2.0
 50
281.53699999999992
 51
0.0
  0
ARC
  5
153C1
  8
DANMEN
  6
CONTINUOUS
 10
87.924055665871904
 20
445.53109298101941
 30
0.0
 40
1.0
 50
180.0
 51
245.3760000000004
  0
ARC
  5
153C2
  8
DANMEN
  6
CONTINUOUS
 10
87.42405566587189
 20
445.44709298101952
 30
0.0
 40
2.0
 50
180.0
 51
258.46300000000002
  0
ARC
  5
153C3
  8
DANMEN
  6
CONTINUOUS
 10
89.524055665871913
 20
445.53109298101941
 30
0.0
 40
1.0
 50
294.6239999999994
 51
0.0
  0
LINE
  5
153C4
  8
DANMEN
  6
CONTINUOUS
 10
87.624055665871879
 20
443.97709298101961
 30
0.0
 11
87.624055665871879
 21
444.44009298101929
 31
0.0
  0
ARC
  5
153C5
  8
DANMEN
  6
CONTINUOUS
 10
87.42405566587189
 20
444.44009298101929
 30
0.0
 40
0.2
 50
0.0
 51
65.376000000000531
  0
ARC
  5
153C6
  8
DANMEN
  6
CONTINUOUS
 10
87.124055665871907
 20
443.97709298101961
 30
0.0
 40
0.5
 50
258.46300000000002
 51
0.0
  0
ARC
  5
153C7
  8
DANMEN
  6
CONTINUOUS
 10
90.324055665871853
 20
443.97709298101961
 30
0.0
 40
0.5
 50
180.0
 51
281.53699999999992
  0
ARC
  5
153C8
  8
DANMEN
  6
CONTINUOUS
 10
90.024055665871899
 20
444.44009298101929
 30
0.0
 40
0.2
 50
114.6239999999994
 51
180.0
  0
LINE
  5
153C9
  8
DANMEN
  6
CONTINUOUS
 10
89.824055665871867
 20
443.97709298101961
 30
0.0
 11
89.824055665871867
 21
444.44009298101929
 31
0.0
  0
ARC
  5
153CA
  8
DANMEN
  6
CONTINUOUS
 10
87.924055665871904
 20
446.77709298101928
 30
0.0
 40
2.5
 50
103.4930000000009
 51
180.0
  0
LINE
  5
153CB
  8
DANMEN
  6
CONTINUOUS
 10
85.424055665871904
 20
445.44709298101952
 30
0.0
 11
85.424055665871904
 21
446.77709298101928
 31
0.0
  0
ARC
  5
153CC
  8
DANMEN
  6
CONTINUOUS
 10
87.224055665871873
 20
450.2730929810196
 30
0.0
 40
0.5
 50
0.0
 51
95.194000000000386
  0
LINE
  5
153CD
  8
DANMEN
  6
CONTINUOUS
 10
89.724055665871873
 20
450.54509298101931
 30
0.0
 11
89.724055665871873
 21
449.69409298101959
 31
0.0
  0
LINE
  5
153CE
  8
DANMEN
  6
CONTINUOUS
 10
87.724055665871902
 20
450.2730929810196
 30
0.0
 11
87.724055665871902
 21
449.69409298101959
 31
0.0
  0
LINE
  5
153CF
  8
DANMEN
  6
CONTINUOUS
 10
87.924055665871904
 20
447.77709298101951
 30
0.0
 11
89.524055665871913
 21
447.77709298101951
 31
0.0
  0
LINE
  5
153D0
  8
DANMEN
  6
CONTINUOUS
 10
86.924055665871862
 20
445.53109298101941
 30
0.0
 11
86.924055665871862
 21
446.77709298101928
 31
0.0
  0
ARC
  5
153D1
  8
DANMEN
  6
CONTINUOUS
 10
89.524055665871913
 20
446.77709298101928
 30
0.0
 40
1.0
 50
0.0
 51
90.0
  0
ARC
  5
153D2
  8
DANMEN
  6
CONTINUOUS
 10
87.924055665871904
 20
446.77709298101928
 30
0.0
 40
1.0
 50
90.0
 51
180.0
  0
LINE
  5
153D3
  8
DANMEN
  6
CONTINUOUS
 10
90.524055665871927
 20
445.53109298101941
 30
0.0
 11
90.524055665871927
 21
446.77709298101928
 31
0.0
  0
ARC
  5
153D4
  8
DANMEN
  6
CONTINUOUS
 10
90.224055665871902
 20
449.69409298101959
 30
0.0
 40
0.5
 50
180.0
 51
256.5069999999991
  0
ARC
  5
153D5
  8
DANMEN
  6
CONTINUOUS
 10
87.224055665871873
 20
449.69409298101959
 30
0.0
 40
0.5
 50
283.4930000000009
 51
0.0
  0
LINE
  5
153D6
  8
DANMEN
  6
CONTINUOUS
 10
92.024055665871927
 20
445.44709298101952
 30
0.0
 11
92.024055665871927
 21
446.77709298101928
 31
0.0
  0
TEXT
  5
153D7
  8
SUNPO
  6
CONTINUOUS
 10
91.140722332538573
 20
471.47709298101961
 30
0.0
 40
2.5
  1
55
  7
MX_NOTE_STANDARD
  0
LINE
  5
153D8
  8
DANMEN
  6
CONTINUOUS
 10
165.72405566587179
 20
415.9770929810195
 30
0.0
 11
165.72405566587179
 21
454.97709298101961
 31
0.0
  0
LINE
  5
153D9
  8
DANMEN
  6
CONTINUOUS
 10
164.0740556658719
 20
417.1270929810193
 30
0.0
 11
164.0740556658719
 21
427.97709298101961
 31
0.0
  0
LINE
  5
153DA
  8
DANMEN
  6
CONTINUOUS
 10
106.7240556658719
 20
407.4770929810195
 30
0.0
 11
106.7240556658719
 21
427.97709298101961
 31
0.0
  0
LINE
  5
153DB
  8
DANMEN
  6
CONTINUOUS
 10
105.0740556658718
 20
416.97709298101961
 30
0.0
 11
105.0740556658718
 21
427.97709298101961
 31
0.0
  0
LINE
  5
153DC
  8
SUNPO
  6
CONTINUOUS
 10
193.72405566587159
 20
455.47709298101961
 30
0.0
 11
193.72405566587159
 21
415.47709298101961
 31
0.0
  0
LINE
  5
153DD
  8
DANMEN
  6
CONTINUOUS
 10
163.7240556658719
 20
415.47709298101961
 30
0.0
 11
165.2240556658719
 21
415.47709298101961
 31
0.0
  0
LINE
  5
153DE
  8
SUNPO
  6
CONTINUOUS
 10
165.72405566587179
 20
368.47709298101961
 30
0.0
 11
163.7240556658719
 21
368.47709298101961
 31
0.0
  0
LINE
  5
153DF
  8
SUNPO
  6
CONTINUOUS
 10
144.72405566587179
 20
358.47709298101961
 30
0.0
 11
165.72405566587179
 21
358.47709298101961
 31
0.0
  0
LINE
  5
153E0
  8
SUNPO
  6
CONTINUOUS
 10
165.72405566587179
 20
348.47709298101961
 30
0.0
 11
140.7240556658715
 21
348.47709298101961
 31
0.0
  0
LINE
  5
153E1
  8
SUNPO
  6
CONTINUOUS
 10
142.2240556658719
 20
335.47709298101961
 30
0.0
 11
183.7240556658717
 21
335.47709298101961
 31
0.0
  0
LINE
  5
153E2
  8
DANMEN
  6
CONTINUOUS
 10
132.62405566587191
 20
382.06609298101961
 30
0.0
 11
132.62405566587191
 21
380.97709298101961
 31
0.0
  0
LINE
  5
153E3
  8
DANMEN
  6
CONTINUOUS
 10
134.4240556658718
 20
382.06609298101961
 30
0.0
 11
134.4240556658718
 21
380.97709298101961
 31
0.0
  0
LINE
  5
153E4
  8
DANMEN
  6
CONTINUOUS
 10
138.7240556658719
 20
383.27709298101951
 30
0.0
 11
138.7240556658719
 21
380.97709298101961
 31
0.0
  0
LINE
  5
153E5
  8
DANMEN
  6
CONTINUOUS
 10
140.7240556658715
 20
378.47709298101961
 30
0.0
 11
140.7240556658715
 21
403.97709298101938
 31
0.0
  0
LINE
  5
153E6
  8
DANMEN
  6
CONTINUOUS
 10
142.2270556658718
 20
380.00909298101931
 30
0.0
 11
142.2270556658718
 21
385.94509298101951
 31
0.0
  0
LINE
  5
153E7
  8
DANMEN
  6
CONTINUOUS
 10
140.7290556658719
 20
386.3530929810193
 30
0.0
 11
140.7290556658719
 21
379.60109298101952
 31
0.0
  0
LINE
  5
153E8
  8
DANMEN
  6
CONTINUOUS
 10
143.7240556658719
 20
386.97709298101961
 30
0.0
 11
143.7240556658719
 21
378.97709298101961
 31
0.0
  0
LINE
  5
153E9
  8
DANMEN
  6
CONTINUOUS
 10
148.7240556658719
 20
381.47709298101961
 30
0.0
 11
146.5980556658719
 21
380.26009298101951
 31
0.0
  0
LINE
  5
153EA
  8
DANMEN
  6
CONTINUOUS
 10
155.9240556658718
 20
382.31109298101961
 30
0.0
 11
155.9240556658718
 21
380.62709298101959
 31
0.0
  0
ARC
  5
153EB
  8
DANMEN
  6
CONTINUOUS
 10
153.4240556658718
 20
381.67709298101931
 30
0.0
 40
1.0
 50
270.0
 51
0.0
  0
ARC
  5
153EC
  8
DANMEN
  6
CONTINUOUS
 10
151.9240556658718
 20
381.67709298101931
 30
0.0
 40
1.0
 50
180.0
 51
270.0
  0
LINE
  5
153ED
  8
DANMEN
  6
CONTINUOUS
 10
163.7240556658719
 20
378.47709298101961
 30
0.0
 11
163.7240556658719
 21
415.47709298101961
 31
0.0
  0
LINE
  5
153EE
  8
DANMEN
  6
CONTINUOUS
 10
162.07405566587181
 20
379.6270929810193
 30
0.0
 11
162.07405566587181
 21
416.62709298101942
 31
0.0
  0
LINE
  5
153EF
  8
DANMEN
  6
CONTINUOUS
 10
149.0740556658719
 20
379.6270929810193
 30
0.0
 11
149.0740556658719
 21
386.6770929810196
 31
0.0
  0
ARC
  5
153F0
  8
DANMEN
  6
CONTINUOUS
 10
131.62405566587191
 20
380.97709298101961
 30
0.0
 40
1.0
 50
270.0
 51
0.0
  0
LINE
  5
153F1
  8
SUNPO
  6
CONTINUOUS
 10
137.2240556658719
 20
335.47709298101961
 30
0.0
 11
125.3640556658716
 21
335.47709298101961
 31
0.0
  0
TEXT
  5
153F2
  8
SUNPO
  6
CONTINUOUS
 10
112.4740556658716
 20
339.47709298101961
 30
0.0
 40
2.5
  1
100
 41
1.3
  7
MX_DIMTXSTY_4
  0
TEXT
  5
153F3
  8
SUNPO
  6
CONTINUOUS
 10
101.1407223325385
 20
349.47709298101961
 30
0.0
 40
2.5
  1
75
  7
MX_NOTE_STANDARD
  0
INSERT
  5
153F4
  8
SUNPO
  6
CONTINUOUS
  2
_DOTSMALL
 10
125.3640556658716
 20
335.47709298101961
 30
0.0
 41
2.3199999999999901
 42
2.3199999999999901
 43
2.3199999999999981
 50
90.0
  0
TEXT
  5
153F5
  8
SUNPO
  6
CONTINUOUS
 10
115.1407223325385
 20
359.4770929810195
 30
0.0
 40
2.5
  1
47
  7
MX_NOTE_STANDARD
  0
LINE
  5
153F6
  8
DANMEN
  6
CONTINUOUS
 10
144.72405566587179
 20
355.47709298101961
 30
0.0
 11
144.72405566587179
 21
377.97709298101961
 31
0.0
  0
LINE
  5
153F7
  8
DANMEN
  6
CONTINUOUS
 10
140.7240556658715
 20
355.47709298101961
 30
0.0
 11
140.7240556658715
 21
377.97709298101961
 31
0.0
  0
LINE
  5
153F8
  8
DANMEN
  6
CONTINUOUS
 10
163.2240556658719
 20
355.47709298101961
 30
0.0
 11
163.2240556658719
 21
377.97709298101961
 31
0.0
  0
LINE
  5
153F9
  8
DANMEN
  6
CONTINUOUS
 10
140.7240556658715
 20
335.47709298101961
 30
0.0
 11
140.7240556658715
 21
350.47709298101961
 31
0.0
  0
LINE
  5
153FA
  8
DANMEN
  6
CONTINUOUS
 10
139.2240556658719
 20
335.47709298101961
 30
0.0
 11
140.2240556658719
 21
335.47709298101961
 31
0.0
  0
LINE
  5
153FB
  8
DANMEN
  6
CONTINUOUS
 10
140.7240556658715
 20
348.47709298101961
 30
0.0
 11
140.7240556658715
 21
348.47709298101961
 31
0.0
  0
INSERT
  5
153FC
  8
SUNPO
  6
CONTINUOUS
  2
_DOTSMALL
 10
140.7240556658715
 20
348.47709298101961
 30
0.0
 41
2.3199999999999901
 42
2.3199999999999901
 43
2.3199999999999981
 50
180.0
  0
TEXT
  5
153FD
  8
SUNPO
  6
CONTINUOUS
 10
151.1407223325385
 20
349.47709298101961
 30
0.0
 40
2.5
  1
25
  7
MX_NOTE_STANDARD
  0
LINE
  5
153FE
  8
DANMEN
  6
CONTINUOUS
 10
145.2240556658719
 20
377.97709298101961
 30
0.0
 11
163.2240556658719
 21
377.97709298101961
 31
0.0
  0
LINE
  5
153FF
  8
DANMEN
  6
CONTINUOUS
 10
145.72405566587179
 20
379.6270929810193
 30
0.0
 11
149.0740556658719
 21
379.6270929810193
 31
0.0
  0
LINE
  5
15400
  8
SUNPO
  6
CONTINUOUS
 10
163.7240556658719
 20
368.47709298101961
 30
0.0
 11
144.72405566587179
 21
368.47709298101961
 31
0.0
  0
LINE
  5
15401
  8
SUNPO
  6
CONTINUOUS
 10
140.7240556658715
 20
358.47709298101961
 30
0.0
 11
144.72405566587179
 21
358.47709298101961
 31
0.0
  0
INSERT
  5
15402
  8
SUNPO
  6
CONTINUOUS
  2
_DOTSMALL
 10
140.7240556658715
 20
358.47709298101961
 30
0.0
 41
2.3199999999999901
 42
2.3199999999999901
 43
2.3199999999999981
  0
TEXT
  5
15403
  8
SUNPO
  6
CONTINUOUS
 10
141.89072233253839
 20
359.4770929810195
 30
0.0
 40
2.5
  1
4
  7
MX_NOTE_STANDARD
  0
INSERT
  5
15404
  8
SUNPO
  6
CONTINUOUS
  2
_DOTSMALL
 10
144.72405566587179
 20
358.47709298101961
 30
0.0
 41
2.3199999999999901
 42
2.3199999999999901
 43
2.3199999999999981
 50
180.0
  0
INSERT
  5
15405
  8
SUNPO
  6
CONTINUOUS
  2
_DOTSMALL
 10
144.72405566587179
 20
368.47709298101961
 30
0.0
 41
2.3199999999999901
 42
2.3199999999999901
 43
2.3199999999999981
 50
180.0
  0
LINE
  5
15406
  8
DANMEN
  6
CONTINUOUS
 10
137.7240556658719
 20
379.97709298101961
 30
0.0
 11
135.4240556658718
 21
379.97709298101961
 31
0.0
  0
ARC
  5
15407
  8
DANMEN
  6
CONTINUOUS
 10
135.4240556658718
 20
380.97709298101961
 30
0.0
 40
1.0
 50
180.0
 51
270.0
  0
ARC
  5
15408
  8
DANMEN
  6
CONTINUOUS
 10
137.7240556658719
 20
380.97709298101961
 30
0.0
 40
1.0
 50
270.0
 51
0.0
  0
LINE
  5
15409
  8
DANMEN
  6
CONTINUOUS
 10
143.7240556658719
 20
378.97709298101961
 30
0.0
 11
144.72405566587179
 21
378.97709298101961
 31
0.0
  0
ARC
  5
1540A
  8
DANMEN
  6
CONTINUOUS
 10
140.2240556658719
 20
378.47709298101961
 30
0.0
 40
0.5
 50
270.0
 51
0.0
  0
LINE
  5
1540B
  8
DANMEN
  6
CONTINUOUS
 10
143.7240556658719
 20
380.47709298101961
 30
0.0
 11
142.69805566587181
 21
379.76309298101961
 31
0.0
  0
ARC
  5
1540C
  8
DANMEN
  6
CONTINUOUS
 10
142.27305566587191
 20
379.5140929810193
 30
0.0
 40
1.5469999999999959
 50
176.75499999999931
 51
339.6980000000006
  0
ARC
  5
1540D
  8
DANMEN
  6
CONTINUOUS
 10
142.52705566587181
 20
380.00909298101931
 30
0.0
 40
0.3
 50
180.0
 51
304.84899999999982
  0
LINE
  5
1540E
  8
DANMEN
  6
CONTINUOUS
 10
144.72405566587179
 20
380.97709298101961
 30
0.0
 11
144.72405566587179
 21
378.97709298101961
 31
0.0
  0
ARC
  5
1540F
  8
DANMEN
  6
CONTINUOUS
 10
146.4740556658719
 20
380.47709298101961
 30
0.0
 40
0.25
 50
150.0
 51
299.78999999999962
  0
LINE
  5
15410
  8
DANMEN
  6
CONTINUOUS
 10
146.4740556658719
 20
380.97709298101961
 30
0.0
 11
146.2570556658718
 21
380.60209298101961
 31
0.0
  0
LINE
  5
15411
  8
DANMEN
  6
CONTINUOUS
 10
144.72405566587179
 20
380.97709298101961
 30
0.0
 11
146.4740556658719
 21
380.97709298101961
 31
0.0
  0
ARC
  5
15412
  8
DANMEN
  6
CONTINUOUS
 10
145.2240556658719
 20
380.47709298101961
 30
0.0
 40
0.5
 50
90.0
 51
180.0
  0
ARC
  5
15413
  8
DANMEN
  6
CONTINUOUS
 10
145.2240556658719
 20
378.47709298101961
 30
0.0
 40
0.5
 50
180.0
 51
270.0
  0
LINE
  5
15414
  8
DANMEN
  6
CONTINUOUS
 10
145.72405566587179
 20
379.6270929810193
 30
0.0
 11
145.72405566587179
 21
380.97709298101961
 31
0.0
  0
LINE
  5
15415
  8
DANMEN
  6
CONTINUOUS
 10
145.2240556658719
 20
380.97709298101961
 30
0.0
 11
145.72405566587179
 21
380.97709298101961
 31
0.0
  0
LINE
  5
15416
  8
DANMEN
  6
CONTINUOUS
 10
144.72405566587179
 20
378.47709298101961
 30
0.0
 11
144.72405566587179
 21
380.47709298101961
 31
0.0
  0
LINE
  5
15417
  8
SUNPO
  6
CONTINUOUS
 10
163.7240556658719
 20
376.97709298101961
 30
0.0
 11
163.7240556658719
 21
368.47709298101961
 31
0.0
  0
LINE
  5
15418
  8
SUNPO
  6
CONTINUOUS
 10
163.7240556658719
 20
376.97709298101961
 30
0.0
 11
163.7240556658719
 21
368.47709298101961
 31
0.0
  0
TEXT
  5
15419
  8
SUNPO
  6
CONTINUOUS
 10
152.2240556658719
 20
369.47709298101961
 30
0.0
 40
2.5
  1
19
 41
1.1999999999999991
  7
MX_DIMTXSTY_6
  0
TEXT
  5
1541A
  8
SUNPO
  6
CONTINUOUS
 10
153.22405566587179
 20
359.4770929810195
 30
0.0
 40
2.5
  1
21
 41
1.1999999999999991
  7
MX_DIMTXSTY_6
  0
INSERT
  5
1541B
  8
SUNPO
  6
CONTINUOUS
  2
_DOTSMALL
 10
163.7240556658719
 20
368.47709298101961
 30
0.0
 41
2.3199999999999901
 42
2.3199999999999901
 43
2.3199999999999981
 50
180.0
  0
INSERT
  5
1541C
  8
SUNPO
  6
CONTINUOUS
  2
_DOTSMALL
 10
163.7240556658719
 20
368.47709298101961
 30
0.0
 41
2.3199999999999901
 42
2.3199999999999901
 43
2.3199999999999981
  0
ARC
  5
1541D
  8
DANMEN
  6
CONTINUOUS
 10
156.92405566587161
 20
380.62709298101959
 30
0.0
 40
1.0
 50
180.0
 51
270.0
  0
LINE
  5
1541E
  8
DANMEN
  6
CONTINUOUS
 10
151.9240556658718
 20
380.6770929810196
 30
0.0
 11
153.4240556658718
 21
380.6770929810196
 31
0.0
  0
LINE
  5
1541F
  8
DANMEN
  6
CONTINUOUS
 10
156.92405566587161
 20
379.6270929810193
 30
0.0
 11
162.07405566587181
 21
379.6270929810193
 31
0.0
  0
ARC
  5
15420
  8
DANMEN
  6
CONTINUOUS
 10
163.2240556658719
 20
378.47709298101961
 30
0.0
 40
0.5
 50
270.0
 51
0.0
  0
LINE
  5
15421
  8
DANMEN
  6
CONTINUOUS
 10
112.8240556658719
 20
397.47709298101961
 30
0.0
 11
138.7240556658719
 21
397.47709298101961
 31
0.0
  0
LINE
  5
15422
  8
DANMEN
  6
CONTINUOUS
 10
110.7240556658719
 20
404.47709298101961
 30
0.0
 11
138.7240556658719
 21
404.47709298101961
 31
0.0
  0
LINE
  5
15423
  8
DANMEN
  6
CONTINUOUS
 10
99.72405566587193
 20
399.47709298101961
 30
0.0
 11
99.72405566587193
 21
406.97709298101961
 31
0.0
  0
LINE
  5
15424
  8
DANMEN
  6
CONTINUOUS
 10
106.7240556658719
 20
399.47709298101961
 30
0.0
 11
106.7240556658719
 21
406.97709298101961
 31
0.0
  0
LINE
  5
15425
  8
DANMEN
  6
CONTINUOUS
 10
103.62405566587179
 20
391.6770929810196
 30
0.0
 11
103.62405566587179
 21
396.47709298101961
 31
0.0
  0
LINE
  5
15426
  8
DANMEN
  6
CONTINUOUS
 10
111.8240556658719
 20
391.6770929810196
 30
0.0
 11
111.8240556658719
 21
393.47709298101961
 31
0.0
  0
LINE
  5
15427
  8
DANMEN
  6
CONTINUOUS
 10
110.0240556658719
 20
391.8770929810193
 30
0.0
 11
110.0240556658719
 21
393.77709298101951
 31
0.0
  0
LINE
  5
15428
  8
DANMEN
  6
CONTINUOUS
 10
105.42405566587171
 20
391.8770929810193
 30
0.0
 11
105.42405566587171
 21
393.77709298101951
 31
0.0
  0
ARC
  5
15429
  8
DANMEN
  6
CONTINUOUS
 10
105.9240556658719
 20
391.6770929810196
 30
0.0
 40
2.299999999999998
 50
180.0
 51
270.0
  0
ARC
  5
1542A
  8
DANMEN
  6
CONTINUOUS
 10
105.9240556658719
 20
389.8770929810193
 30
0.0
 40
0.5
 50
270.0
 51
0.0
  0
ARC
  5
1542B
  8
DANMEN
  6
CONTINUOUS
 10
106.2240556658716
 20
390.69409298101931
 30
0.0
 40
0.2
 50
0.0
 51
80.405999999999949
  0
ARC
  5
1542C
  8
DANMEN
  6
CONTINUOUS
 10
106.42405566587171
 20
391.8770929810193
 30
0.0
 40
1.0
 50
180.0
 51
260.40599999999989
  0
LINE
  5
1542D
  8
DANMEN
  6
CONTINUOUS
 10
106.42405566587171
 20
389.8770929810193
 30
0.0
 11
106.42405566587171
 21
390.69409298101931
 31
0.0
  0
ARC
  5
1542E
  8
DANMEN
  6
CONTINUOUS
 10
109.5240556658719
 20
391.6770929810196
 30
0.0
 40
2.299999999999998
 50
270.0
 51
0.0
  0
ARC
  5
1542F
  8
DANMEN
  6
CONTINUOUS
 10
109.5240556658719
 20
389.8770929810193
 30
0.0
 40
0.5
 50
180.0
 51
270.0
  0
ARC
  5
15430
  8
DANMEN
  6
CONTINUOUS
 10
109.2240556658716
 20
390.69409298101931
 30
0.0
 40
0.2
 50
99.594000000000037
 51
180.0
  0
ARC
  5
15431
  8
DANMEN
  6
CONTINUOUS
 10
109.0240556658716
 20
391.8770929810193
 30
0.0
 40
1.0
 50
279.59399999999982
 51
0.0
  0
LINE
  5
15432
  8
DANMEN
  6
CONTINUOUS
 10
109.0240556658716
 20
389.8770929810193
 30
0.0
 11
109.0240556658716
 21
390.69409298101931
 31
0.0
  0
LINE
  5
15433
  8
DANMEN
  6
CONTINUOUS
 10
106.42405566587171
 20
394.77709298101951
 30
0.0
 11
109.0240556658716
 21
394.77709298101951
 31
0.0
  0
ARC
  5
15434
  8
DANMEN
  6
CONTINUOUS
 10
105.7240556658719
 20
404.47409298101951
 30
0.0
 40
5.0
 50
270.0
 51
0.0
  0
ARC
  5
15435
  8
DANMEN
  6
CONTINUOUS
 10
102.62405566587179
 20
396.47709298101961
 30
0.0
 40
1.0
 50
0.0
 51
90.0
  0
ARC
  5
15436
  8
DANMEN
  6
CONTINUOUS
 10
106.42405566587171
 20
393.77709298101951
 30
0.0
 40
1.0
 50
90.0
 51
180.0
  0
ARC
  5
15437
  8
DANMEN
  6
CONTINUOUS
 10
109.0240556658716
 20
393.77709298101951
 30
0.0
 40
1.0
 50
0.0
 51
90.0
  0
ARC
  5
15438
  8
DANMEN
  6
CONTINUOUS
 10
114.3240556658718
 20
393.97709298101961
 30
0.0
 40
0.5
 50
270.0
 51
0.0
  0
LINE
  5
15439
  8
DANMEN
  6
CONTINUOUS
 10
111.8240556658719
 20
394.97709298101961
 30
0.0
 11
111.8240556658719
 21
396.47709298101961
 31
0.0
  0
LINE
  5
1543A
  8
DANMEN
  6
CONTINUOUS
 10
111.8240556658719
 20
393.47709298101961
 30
0.0
 11
114.3240556658718
 21
393.47709298101961
 31
0.0
  0
LINE
  5
1543B
  8
DANMEN
  6
CONTINUOUS
 10
111.8240556658719
 20
394.97709298101961
 30
0.0
 11
114.8240556658719
 21
394.97709298101961
 31
0.0
  0
LINE
  5
1543C
  8
DANMEN
  6
CONTINUOUS
 10
114.8240556658719
 20
393.97709298101961
 30
0.0
 11
114.8240556658719
 21
394.97709298101961
 31
0.0
  0
ARC
  5
1543D
  8
DANMEN
  6
CONTINUOUS
 10
112.8240556658719
 20
396.47709298101961
 30
0.0
 40
1.0
 50
90.0
 51
180.0
  0
LINE
  5
1543E
  8
DANMEN
  6
CONTINUOUS
 10
99.72405566587193
 20
416.47709298101938
 30
0.0
 11
99.72405566587193
 21
414.47709298101961
 31
0.0
  0
LINE
  5
1543F
  8
DANMEN
  6
CONTINUOUS
 10
104.0240556658716
 20
410.72709298101961
 30
0.0
 11
101.71605566587171
 21
409.2970929810196
 31
0.0
  0
LINE
  5
15440
  8
DANMEN
  6
CONTINUOUS
 10
105.0740556658718
 20
408.27709298101951
 30
0.0
 11
105.0740556658718
 21
415.67709298101943
 31
0.0
  0
LINE
  5
15441
  8
DANMEN
  6
CONTINUOUS
 10
100.7240556658719
 20
408.27709298101951
 30
0.0
 11
105.0740556658718
 21
408.27709298101951
 31
0.0
  0
LINE
  5
15442
  8
DANMEN
  6
CONTINUOUS
 10
100.2240556658719
 20
406.97709298101961
 30
0.0
 11
106.2240556658716
 21
406.97709298101961
 31
0.0
  0
LINE
  5
15443
  8
DANMEN
  6
CONTINUOUS
 10
99.72405566587193
 20
407.97709298101938
 30
0.0
 11
99.72405566587193
 21
410.22709298101938
 31
0.0
  0
LINE
  5
15444
  8
DANMEN
  6
CONTINUOUS
 10
100.92405566587171
 20
410.22709298101938
 30
0.0
 11
99.72405566587193
 21
410.22709298101938
 31
0.0
  0
ARC
  5
15445
  8
DANMEN
  6
CONTINUOUS
 10
100.92405566587171
 20
409.92709298101931
 30
0.0
 40
0.3
 50
0.0
 51
90.0
  0
LINE
  5
15446
  8
DANMEN
  6
CONTINUOUS
 10
101.2240556658717
 20
409.52709298101962
 30
0.0
 11
101.2240556658717
 21
409.92709298101931
 31
0.0
  0
ARC
  5
15447
  8
DANMEN
  6
CONTINUOUS
 10
101.5240556658719
 20
409.52709298101962
 30
0.0
 40
0.3
 50
180.0
 51
309.911
  0
ARC
  5
15448
  8
DANMEN
  6
CONTINUOUS
 10
100.2240556658719
 20
409.47709298101961
 30
0.0
 40
0.5
 50
90.0
 51
180.0
  0
LINE
  5
15449
  8
DANMEN
  6
CONTINUOUS
 10
100.2240556658719
 20
409.97709298101961
 30
0.0
 11
100.7240556658719
 21
409.97709298101961
 31
0.0
  0
ARC
  5
1544A
  8
DANMEN
  6
CONTINUOUS
 10
100.2240556658719
 20
407.4770929810195
 30
0.0
 40
0.5
 50
180.0
 51
270.0
  0
LINE
  5
1544B
  8
DANMEN
  6
CONTINUOUS
 10
99.72405566587193
 20
407.4770929810195
 30
0.0
 11
99.72405566587193
 21
409.47709298101961
 31
0.0
  0
LINE
  5
1544C
  8
DANMEN
  6
CONTINUOUS
 10
100.7240556658719
 20
408.27709298101951
 30
0.0
 11
100.7240556658719
 21
409.97709298101961
 31
0.0
  0
ARC
  5
1544D
  8
DANMEN
  6
CONTINUOUS
 10
106.2240556658716
 20
407.4770929810195
 30
0.0
 40
0.5
 50
270.0
 51
0.0
  0
LINE
  5
1544E
  8
DANMEN
  6
CONTINUOUS
 10
104.0240556658716
 20
413.22709298101961
 30
0.0
 11
101.71605566587171
 21
414.65709298101962
 31
0.0
  0
LINE
  5
1544F
  8
DANMEN
  6
CONTINUOUS
 10
100.7240556658719
 20
415.67709298101943
 30
0.0
 11
105.0740556658718
 21
415.67709298101943
 31
0.0
  0
ARC
  5
15450
  8
DANMEN
  6
CONTINUOUS
 10
102.5240556658719
 20
412.4270929810196
 30
0.0
 40
0.3
 50
0.0
 51
90.0
  0
LINE
  5
15451
  8
DANMEN
  6
CONTINUOUS
 10
102.5240556658719
 20
412.72709298101961
 30
0.0
 11
100.0240556658719
 21
412.72709298101961
 31
0.0
  0
ARC
  5
15452
  8
DANMEN
  6
CONTINUOUS
 10
100.0240556658719
 20
412.4270929810196
 30
0.0
 40
0.3
 50
90.0
 51
180.0
  0
LINE
  5
15453
  8
DANMEN
  6
CONTINUOUS
 10
99.72405566587193
 20
411.52709298101928
 30
0.0
 11
99.72405566587193
 21
412.4270929810196
 31
0.0
  0
ARC
  5
15454
  8
DANMEN
  6
CONTINUOUS
 10
100.0240556658719
 20
411.52709298101928
 30
0.0
 40
0.3
 50
180.0
 51
270.0
  0
LINE
  5
15455
  8
DANMEN
  6
CONTINUOUS
 10
100.0240556658719
 20
411.22709298101961
 30
0.0
 11
102.5240556658719
 21
411.22709298101961
 31
0.0
  0
ARC
  5
15456
  8
DANMEN
  6
CONTINUOUS
 10
102.5240556658719
 20
411.52709298101928
 30
0.0
 40
0.3
 50
270.0
 51
0.0
  0
LINE
  5
15457
  8
DANMEN
  6
CONTINUOUS
 10
102.8240556658718
 20
411.52709298101928
 30
0.0
 11
102.8240556658718
 21
412.4270929810196
 31
0.0
  0
ARC
  5
15458
  8
DANMEN
  6
CONTINUOUS
 10
101.5240556658719
 20
414.4270929810192
 30
0.0
 40
0.3
 50
50.088999999999892
 51
180.0
  0
LINE
  5
15459
  8
DANMEN
  6
CONTINUOUS
 10
101.2240556658717
 20
414.02709298101962
 30
0.0
 11
101.2240556658717
 21
414.4270929810192
 31
0.0
  0
ARC
  5
1545A
  8
DANMEN
  6
CONTINUOUS
 10
100.92405566587171
 20
414.02709298101962
 30
0.0
 40
0.3
 50
270.0
 51
0.0
  0
LINE
  5
1545B
  8
DANMEN
  6
CONTINUOUS
 10
100.92405566587171
 20
413.7270929810195
 30
0.0
 11
99.72405566587193
 21
413.7270929810195
 31
0.0
  0
LINE
  5
1545C
  8
DANMEN
  6
CONTINUOUS
 10
99.72405566587193
 20
413.7270929810195
 30
0.0
 11
99.72405566587193
 21
415.9770929810195
 31
0.0
  0
LINE
  5
1545D
  8
DANMEN
  6
CONTINUOUS
 10
100.7240556658719
 20
415.67709298101943
 30
0.0
 11
100.7240556658719
 21
413.97709298101961
 31
0.0
  0
LINE
  5
1545E
  8
DANMEN
  6
CONTINUOUS
 10
100.2240556658719
 20
413.97709298101961
 30
0.0
 11
100.7240556658719
 21
413.97709298101961
 31
0.0
  0
ARC
  5
1545F
  8
DANMEN
  6
CONTINUOUS
 10
100.2240556658719
 20
414.47709298101961
 30
0.0
 40
0.5
 50
180.0
 51
270.0
  0
LINE
  5
15460
  8
DANMEN
  6
CONTINUOUS
 10
104.0240556658716
 20
410.7540929810196
 30
0.0
 11
103.9530556658716
 21
410.68309298101951
 31
0.0
  0
LINE
  5
15461
  8
DANMEN
  6
CONTINUOUS
 10
104.0240556658716
 20
410.72709298101961
 30
0.0
 11
104.0240556658716
 21
413.22709298101961
 31
0.0
  0
LINE
  5
15462
  8
DANMEN
  6
CONTINUOUS
 10
100.2240556658719
 20
416.97709298101961
 30
0.0
 11
105.0740556658718
 21
416.97709298101961
 31
0.0
  0
ARC
  5
15463
  8
DANMEN
  6
CONTINUOUS
 10
100.2240556658719
 20
416.47709298101938
 30
0.0
 40
0.5
 50
90.0
 51
180.0
  0
LINE
  5
15464
  8
DANMEN
  6
CONTINUOUS
 10
148.7240556658719
 20
384.4770929810195
 30
0.0
 11
146.5980556658719
 21
385.69409298101959
 31
0.0
  0
LINE
  5
15465
  8
DANMEN
  6
CONTINUOUS
 10
145.72405566587179
 20
386.6770929810196
 30
0.0
 11
149.0740556658719
 21
386.6770929810196
 31
0.0
  0
LINE
  5
15466
  8
DANMEN
  6
CONTINUOUS
 10
145.2240556658719
 20
387.97709298101961
 30
0.0
 11
150.2240556658719
 21
387.97709298101961
 31
0.0
  0
LINE
  5
15467
  8
DANMEN
  6
CONTINUOUS
 10
138.7240556658719
 20
387.07709298101952
 30
0.0
 11
138.7240556658719
 21
393.47709298101961
 31
0.0
  0
ARC
  5
15468
  8
DANMEN
  6
CONTINUOUS
 10
136.6350556658719
 20
385.1770929810196
 30
0.0
 40
0.9
 50
90.0
 51
270.0
  0
ARC
  5
15469
  8
DANMEN
  6
CONTINUOUS
 10
133.52405566587191
 20
382.06609298101961
 30
0.0
 40
0.9
 50
0.0
 51
180.0
  0
ARC
  5
1546A
  8
DANMEN
  6
CONTINUOUS
 10
137.7240556658719
 20
387.07709298101952
 30
0.0
 40
1.0
 50
270.0
 51
0.0
  0
ARC
  5
1546B
  8
DANMEN
  6
CONTINUOUS
 10
137.7240556658719
 20
383.27709298101951
 30
0.0
 40
1.0
 50
0.0
 51
90.0
  0
LINE
  5
1546C
  8
DANMEN
  6
CONTINUOUS
 10
137.7240556658719
 20
386.07709298101952
 30
0.0
 11
136.6350556658719
 21
386.07709298101952
 31
0.0
  0
LINE
  5
1546D
  8
DANMEN
  6
CONTINUOUS
 10
137.7240556658719
 20
384.27709298101951
 30
0.0
 11
136.6350556658719
 21
384.27709298101951
 31
0.0
  0
ARC
  5
1546E
  8
DANMEN
  6
CONTINUOUS
 10
142.27305566587191
 20
386.44009298101952
 30
0.0
 40
1.5469999999999959
 50
20.301999999999421
 51
183.2449999999989
  0
LINE
  5
1546F
  8
DANMEN
  6
CONTINUOUS
 10
144.72405566587179
 20
385.47709298101961
 30
0.0
 11
144.72405566587179
 21
387.47709298101961
 31
0.0
  0
LINE
  5
15470
  8
DANMEN
  6
CONTINUOUS
 10
143.7240556658719
 20
386.97709298101961
 30
0.0
 11
144.72405566587179
 21
386.97709298101961
 31
0.0
  0
LINE
  5
15471
  8
DANMEN
  6
CONTINUOUS
 10
142.69805566587181
 20
386.19109298101961
 30
0.0
 11
143.7240556658719
 21
385.47709298101961
 31
0.0
  0
ARC
  5
15472
  8
DANMEN
  6
CONTINUOUS
 10
142.52705566587181
 20
385.94509298101951
 30
0.0
 40
0.3
 50
55.151000000000138
 51
180.0
  0
LINE
  5
15473
  8
DANMEN
  6
CONTINUOUS
 10
144.72405566587179
 20
384.97709298101961
 30
0.0
 11
144.72405566587179
 21
386.97709298101961
 31
0.0
  0
ARC
  5
15474
  8
DANMEN
  6
CONTINUOUS
 10
146.4740556658719
 20
385.47709298101961
 30
0.0
 40
0.25
 50
60.209999999999987
 51
209.9999999999996
  0
ARC
  5
15475
  8
DANMEN
  6
CONTINUOUS
 10
146.82405566587181
 20
382.97709298101961
 30
0.0
 40
0.9
 50
270.0
 51
90.0
  0
LINE
  5
15476
  8
DANMEN
  6
CONTINUOUS
 10
146.4740556658719
 20
384.97709298101961
 30
0.0
 11
146.2570556658718
 21
385.35209298101961
 31
0.0
  0
ARC
  5
15477
  8
DANMEN
  6
CONTINUOUS
 10
145.62405566587191
 20
382.97709298101961
 30
0.0
 40
0.9
 50
90.0
 51
270.0
  0
LINE
  5
15478
  8
DANMEN
  6
CONTINUOUS
 10
144.72405566587179
 20
384.97709298101961
 30
0.0
 11
146.4740556658719
 21
384.97709298101961
 31
0.0
  0
LINE
  5
15479
  8
DANMEN
  6
CONTINUOUS
 10
145.62405566587191
 20
383.8770929810193
 30
0.0
 11
146.82405566587181
 21
383.8770929810193
 31
0.0
  0
LINE
  5
1547A
  8
DANMEN
  6
CONTINUOUS
 10
145.62405566587191
 20
382.07709298101958
 30
0.0
 11
146.82405566587181
 21
382.07709298101958
 31
0.0
  0
ARC
  5
1547B
  8
DANMEN
  6
CONTINUOUS
 10
145.2240556658719
 20
385.47709298101961
 30
0.0
 40
0.5
 50
180.0
 51
270.0
  0
LINE
  5
1547C
  8
DANMEN
  6
CONTINUOUS
 10
145.72405566587179
 20
384.97709298101961
 30
0.0
 11
145.72405566587179
 21
386.6770929810196
 31
0.0
  0
LINE
  5
1547D
  8
DANMEN
  6
CONTINUOUS
 10
145.2240556658719
 20
384.97709298101961
 30
0.0
 11
145.72405566587179
 21
384.97709298101961
 31
0.0
  0
ARC
  5
1547E
  8
DANMEN
  6
CONTINUOUS
 10
145.2240556658719
 20
387.47709298101961
 30
0.0
 40
0.5
 50
90.0
 51
180.0
  0
LINE
  5
1547F
  8
DANMEN
  6
CONTINUOUS
 10
139.2240556658719
 20
404.47709298101961
 30
0.0
 11
140.2240556658719
 21
404.47709298101961
 31
0.0
  0
ARC
  5
15480
  8
DANMEN
  6
CONTINUOUS
 10
137.2240556658719
 20
393.97709298101961
 30
0.0
 40
0.5
 50
180.0
 51
270.0
  0
LINE
  5
15481
  8
DANMEN
  6
CONTINUOUS
 10
136.7240556658719
 20
393.97709298101961
 30
0.0
 11
136.7240556658719
 21
394.97709298101961
 31
0.0
  0
LINE
  5
15482
  8
DANMEN
  6
CONTINUOUS
 10
138.7240556658719
 20
394.97709298101961
 30
0.0
 11
138.7240556658719
 21
397.47709298101961
 31
0.0
  0
LINE
  5
15483
  8
DANMEN
  6
CONTINUOUS
 10
136.7240556658719
 20
394.97709298101961
 30
0.0
 11
138.7240556658719
 21
394.97709298101961
 31
0.0
  0
LINE
  5
15484
  8
DANMEN
  6
CONTINUOUS
 10
137.2240556658719
 20
393.47709298101961
 30
0.0
 11
138.7240556658719
 21
393.47709298101961
 31
0.0
  0
LINE
  5
15485
  8
DANMEN
  6
CONTINUOUS
 10
138.7240556658719
 20
399.47709298101961
 30
0.0
 11
138.7240556658719
 21
403.97709298101938
 31
0.0
  0
ARC
  5
15486
  8
DANMEN
  6
CONTINUOUS
 10
139.2240556658719
 20
403.97709298101938
 30
0.0
 40
0.5
 50
90.0
 51
180.0
  0
ARC
  5
15487
  8
DANMEN
  6
CONTINUOUS
 10
140.2240556658719
 20
403.97709298101938
 30
0.0
 40
0.5
 50
0.0
 51
90.0
  0
LINE
  5
15488
  8
DANMEN
  6
CONTINUOUS
 10
150.7240556658719
 20
386.6770929810196
 30
0.0
 11
150.7240556658719
 21
387.47709298101961
 31
0.0
  0
LINE
  5
15489
  8
DANMEN
  6
CONTINUOUS
 10
151.7240556658719
 20
385.67709298101931
 30
0.0
 11
152.5580556658719
 21
385.67709298101931
 31
0.0
  0
LINE
  5
1548A
  8
DANMEN
  6
CONTINUOUS
 10
151.9240556658718
 20
384.17709298101931
 30
0.0
 11
152.5580556658719
 21
384.17709298101931
 31
0.0
  0
LINE
  5
1548B
  8
DANMEN
  6
CONTINUOUS
 10
148.7240556658719
 20
384.4770929810195
 30
0.0
 11
148.7240556658719
 21
381.47709298101961
 31
0.0
  0
ARC
  5
1548C
  8
DANMEN
  6
CONTINUOUS
 10
151.7240556658719
 20
386.6770929810196
 30
0.0
 40
1.0
 50
180.0
 51
270.0
  0
ARC
  5
1548D
  8
DANMEN
  6
CONTINUOUS
 10
151.9240556658718
 20
383.17709298101931
 30
0.0
 40
1.0
 50
90.0
 51
180.0
  0
LINE
  5
1548E
  8
DANMEN
  6
CONTINUOUS
 10
150.9240556658718
 20
383.17709298101931
 30
0.0
 11
150.9240556658718
 21
381.67709298101931
 31
0.0
  0
LINE
  5
1548F
  8
DANMEN
  6
CONTINUOUS
 10
154.4240556658718
 20
382.31109298101961
 30
0.0
 11
154.4240556658718
 21
381.67709298101931
 31
0.0
  0
ARC
  5
15490
  8
DANMEN
  6
CONTINUOUS
 10
155.1740556658718
 20
382.31109298101961
 30
0.0
 40
0.75
 50
0.0
 51
180.0
  0
ARC
  5
15491
  8
DANMEN
  6
CONTINUOUS
 10
152.5580556658719
 20
384.9270929810196
 30
0.0
 40
0.75
 50
270.0
 51
90.0
  0
ARC
  5
15492
  8
DANMEN
  6
CONTINUOUS
 10
150.2240556658719
 20
387.47709298101961
 30
0.0
 40
0.5
 50
0.0
 51
90.0
  0
ARC
  5
15493
  8
DANMEN
  6
CONTINUOUS
 10
162.5740556658719
 20
416.62709298101942
 30
0.0
 40
0.5
 50
90.0
 51
180.0
  0
LINE
  5
15494
  8
DANMEN
  6
CONTINUOUS
 10
162.5740556658719
 20
417.1270929810193
 30
0.0
 11
164.0740556658719
 21
417.1270929810193
 31
0.0
  0
LINE
  5
15495
  8
DANMEN
  6
CONTINUOUS
 10
215.7240556658717
 20
398.9770929810195
 30
0.0
 11
215.7240556658717
 21
344.47709298101961
 31
0.0
  0
LINE
  5
15496
  8
DANMEN
  6
CONTINUOUS
 10
217.37405566587171
 20
397.82709298101952
 30
0.0
 11
217.37405566587171
 21
344.47709298101961
 31
0.0
  0
LINE
  5
15497
  8
DANMEN
  6
CONTINUOUS
 10
165.72405566587179
 20
355.47709298101961
 30
0.0
 11
165.72405566587179
 21
415.47709298101961
 31
0.0
  0
LINE
  5
15498
  8
SUNPO
  6
CONTINUOUS
 10
206.22405566587159
 20
345.47709298101961
 30
0.0
 11
206.22405566587159
 21
419.47709298101961
 31
0.0
  0
LINE
  5
15499
  8
SUNPO
  6
CONTINUOUS
 10
183.7240556658717
 20
415.47709298101961
 30
0.0
 11
183.7240556658717
 21
377.97709298101961
 31
0.0
  0
LINE
  5
1549A
  8
SUNPO
  6
CONTINUOUS
 10
202.22405566587159
 20
344.47709298101961
 30
0.0
 11
202.22405566587159
 21
399.47709298101961
 31
0.0
  0
TEXT
  5
1549B
  8
SUNPO
  6
CONTINUOUS
 10
192.7240556658715
 20
357.10209298101961
 30
0.0
 40
5.0
  1
＝
 50
90.0
 41
0.85
  7
MX_DIMTXSTY_7
  0
INSERT
  5
1549C
  8
SUNPO
  6
CONTINUOUS
  2
_DOTSMALL
 10
165.72405566587179
 20
338.47709298101961
 30
0.0
 41
2.3199999999999901
 42
2.3199999999999901
 43
2.3199999999999981
  0
INSERT
  5
1549D
  8
SUNPO
  6
CONTINUOUS
  2
_DOTSMALL
 10
165.72405566587179
 20
348.47709298101961
 30
0.0
 41
2.3199999999999901
 42
2.3199999999999901
 43
2.3199999999999981
  0
INSERT
  5
1549E
  8
SUNPO
  6
CONTINUOUS
  2
_DOTSMALL
 10
183.7240556658717
 20
335.47709298101961
 30
0.0
 41
2.3199999999999901
 42
2.3199999999999901
 43
2.3199999999999981
 50
90.0
  0
LINE
  5
1549F
  8
SUNPO
  6
CONTINUOUS
 10
186.9060556658718
 20
350.63609298101949
 30
0.0
 11
192.9060556658718
 21
350.63609298101949
 31
0.0
  0
LINE
  5
154A0
  8
SUNPO
  6
CONTINUOUS
 10
186.9060556658718
 20
351.92109298101951
 30
0.0
 11
192.9060556658718
 21
351.92109298101951
 31
0.0
  0
LINE
  5
154A1
  8
SUNPO
  6
CONTINUOUS
 10
186.9060556658718
 20
355.7780929810196
 30
0.0
 11
192.9060556658718
 21
355.7780929810196
 31
0.0
  0
LINE
  5
154A2
  8
SUNPO
  6
CONTINUOUS
 10
186.9060556658718
 20
349.7780929810196
 30
0.0
 11
186.9060556658718
 21
352.77809298101948
 31
0.0
  0
LINE
  5
154A3
  8
SUNPO
  6
CONTINUOUS
 10
186.9060556658718
 20
354.92109298101951
 30
0.0
 11
186.9060556658718
 21
356.63609298101949
 31
0.0
  0
LINE
  5
154A4
  8
SUNPO
  6
CONTINUOUS
 10
192.9060556658718
 20
349.7780929810196
 30
0.0
 11
192.9060556658718
 21
352.77809298101948
 31
0.0
  0
LINE
  5
154A5
  8
SUNPO
  6
CONTINUOUS
 10
189.90605566587149
 20
351.92109298101951
 30
0.0
 11
189.90605566587149
 21
355.7780929810196
 31
0.0
  0
LINE
  5
154A6
  8
SUNPO
  6
CONTINUOUS
 10
192.9060556658718
 20
354.92109298101951
 30
0.0
 11
192.9060556658718
 21
356.63609298101949
 31
0.0
  0
LINE
  5
154A7
  8
SUNPO
  6
CONTINUOUS
 10
164.7240556658719
 20
377.97709298101961
 30
0.0
 11
183.7240556658717
 21
377.97709298101961
 31
0.0
  0
TEXT
  5
154A8
  8
SUNPO
  6
CONTINUOUS
 10
167.5127223325382
 20
369.47709298101961
 30
0.0
 40
2.5
  1
2
  7
MX_NOTE_STANDARD
  0
INSERT
  5
154A9
  8
SUNPO
  6
CONTINUOUS
  2
_DOTSMALL
 10
165.72405566587179
 20
358.47709298101961
 30
0.0
 41
2.3199999999999901
 42
2.3199999999999901
 43
2.3199999999999981
  0
LINE
  5
154AA
  8
SUNPO
  6
CONTINUOUS
 10
169.5960556658718
 20
368.47709298101961
 30
0.0
 11
165.72405566587179
 21
368.47709298101961
 31
0.0
  0
INSERT
  5
154AB
  8
SUNPO
  6
CONTINUOUS
  2
_DOTSMALL
 10
165.72405566587179
 20
368.47709298101961
 30
0.0
 41
2.3199999999999901
 42
2.3199999999999901
 43
2.3199999999999981
  0
INSERT
  5
154AC
  8
SUNPO
  6
CONTINUOUS
  2
_DOTSMALL
 10
183.7240556658717
 20
377.97709298101961
 30
0.0
 41
2.3199999999999901
 42
2.3199999999999901
 43
2.3199999999999981
 50
270.0
  0
LINE
  5
154AD
  8
DANMEN
  6
CONTINUOUS
 10
206.72405566587159
 20
344.47709298101961
 30
0.0
 11
215.7240556658717
 21
344.47709298101961
 31
0.0
  0
LINE
  5
154AE
  8
DANMEN
  6
CONTINUOUS
 10
206.72405566587159
 20
342.82709298101958
 30
0.0
 11
220.72405566587159
 21
342.82709298101958
 31
0.0
  0
INSERT
  5
154AF
  8
SUNPO
  6
CONTINUOUS
  2
_DOTSMALL
 10
202.22405566587159
 20
344.47709298101961
 30
0.0
 41
2.3199999999999901
 42
2.3199999999999901
 43
2.3199999999999981
 50
90.0
  0
LINE
  5
154B0
  8
SUNPO
  6
CONTINUOUS
 10
205.2240556658717
 20
344.47709298101961
 30
0.0
 11
202.22405566587159
 21
344.47709298101961
 31
0.0
  0
INSERT
  5
154B1
  8
SUNPO
  6
CONTINUOUS
  2
_DOTSMALL
 10
202.22405566587159
 20
344.47709298101961
 30
0.0
 41
2.3199999999999901
 42
2.3199999999999901
 43
2.3199999999999981
 50
270.0
  0
LINE
  5
154B2
  8
SUNPO
  6
CONTINUOUS
 10
205.2240556658717
 20
344.47709298101961
 30
0.0
 11
202.22405566587159
 21
344.47709298101961
 31
0.0
  0
ARC
  5
154B3
  8
DANMEN
  6
CONTINUOUS
 10
206.72405566587159
 20
343.97709298101961
 30
0.0
 40
0.5
 50
90.0
 51
180.0
  0
ARC
  5
154B4
  8
DANMEN
  6
CONTINUOUS
 10
206.72405566587159
 20
343.32709298101958
 30
0.0
 40
0.5
 50
180.0
 51
270.0
  0
LINE
  5
154B5
  8
DANMEN
  6
CONTINUOUS
 10
206.22405566587159
 20
343.97709298101961
 30
0.0
 11
206.22405566587159
 21
343.32709298101958
 31
0.0
  0
ARC
  5
154B6
  8
DANMEN
  6
CONTINUOUS
 10
221.87405566587191
 20
340.47709298101961
 30
0.0
 40
0.5
 50
270.0
 51
0.0
  0
LINE
  5
154B7
  8
DANMEN
  6
CONTINUOUS
 10
220.72405566587159
 20
342.82709298101958
 30
0.0
 11
220.72405566587159
 21
340.47709298101961
 31
0.0
  0
ARC
  5
154B8
  8
DANMEN
  6
CONTINUOUS
 10
221.22405566587159
 20
340.47709298101961
 30
0.0
 40
0.5
 50
180.0
 51
270.0
  0
LINE
  5
154B9
  8
DANMEN
  6
CONTINUOUS
 10
221.22405566587159
 20
339.97709298101961
 30
0.0
 11
221.87405566587191
 21
339.97709298101961
 31
0.0
  0
LINE
  5
154BA
  8
DANMEN
  6
CONTINUOUS
 10
222.37405566587171
 20
342.82709298101958
 30
0.0
 11
222.37405566587171
 21
340.47709298101961
 31
0.0
  0
LINE
  5
154BB
  8
DANMEN
  6
CONTINUOUS
 10
222.37405566587171
 20
342.82709298101958
 30
0.0
 11
228.7240556658717
 21
342.82709298101958
 31
0.0
  0
TEXT
  5
154BC
  8
SUNPO
  6
CONTINUOUS
 10
201.2240556658717
 20
369.89375964768618
 30
0.0
 40
2.5
  1
55
 50
90.0
  7
MX_NOTE_STANDARD
  0
TEXT
  5
154BD
  8
SUNPO
  6
CONTINUOUS
 10
182.7240556658717
 20
392.22709298101961
 30
0.0
 40
2.5
  1
37.5
 50
90.0
 41
1.1999999999999991
  7
MX_DIMTXSTY_6
  0
LINE
  5
154BE
  8
SUNPO
  6
CONTINUOUS
 10
166.72405566587179
 20
415.47709298101961
 30
0.0
 11
193.72405566587159
 21
415.47709298101961
 31
0.0
  0
ARC
  5
154BF
  8
DANMEN
  6
CONTINUOUS
 10
165.2240556658719
 20
415.9770929810195
 30
0.0
 40
0.5
 50
270.0
 51
0.0
  0
INSERT
  5
154C0
  8
SUNPO
  6
CONTINUOUS
  2
_DOTSMALL
 10
183.7240556658717
 20
415.47709298101961
 30
0.0
 41
2.3199999999999901
 42
2.3199999999999901
 43
2.3199999999999981
 50
90.0
  0
INSERT
  5
154C1
  8
SUNPO
  6
CONTINUOUS
  2
_CLOSED
 10
193.72405566587159
 20
415.47709298101961
 30
0.0
 41
7.5
 42
7.5
 43
7.5
 50
90.0
  0
INSERT
  5
154C2
  8
SUNPO
  6
CONTINUOUS
  2
_DOTSMALL
 10
193.72405566587159
 20
415.47709298101961
 30
0.0
 41
2.3199999999999901
 42
2.3199999999999901
 43
2.3199999999999981
 50
270.0
  0
LINE
  5
154C3
  8
SUNPO
  6
CONTINUOUS
 10
215.7240556658717
 20
400.47709298101961
 30
0.0
 11
215.7240556658717
 21
419.47709298101961
 31
0.0
  0
LINE
  5
154C4
  8
SUNPO
  6
CONTINUOUS
 10
215.7240556658717
 20
400.47709298101961
 30
0.0
 11
215.7240556658717
 21
419.47709298101961
 31
0.0
  0
LINE
  5
154C5
  8
SUNPO
  6
CONTINUOUS
 10
214.72405566587159
 20
399.47709298101961
 30
0.0
 11
202.22405566587159
 21
399.47709298101961
 31
0.0
  0
INSERT
  5
154C6
  8
SUNPO
  6
CONTINUOUS
  2
_DOTSMALL
 10
202.22405566587159
 20
399.47709298101961
 30
0.0
 41
2.3199999999999901
 42
2.3199999999999901
 43
2.3199999999999981
 50
90.0
  0
ARC
  5
154C7
  8
DANMEN
  6
CONTINUOUS
 10
216.2240556658717
 20
398.9770929810195
 30
0.0
 40
0.5
 50
90.0
 51
180.0
  0
TEXT
  5
154C8
  8
SUNPO
  6
CONTINUOUS
 10
207.7240556658717
 20
420.47709298101938
 30
0.0
 40
2.5
  1
9.5
 41
1.3
  7
MX_DIMTXSTY_4
  0
LINE
  5
154C9
  8
SUNPO
  6
CONTINUOUS
 10
206.22405566587159
 20
419.47709298101961
 30
0.0
 11
215.7240556658717
 21
419.47709298101961
 31
0.0
  0
INSERT
  5
154CA
  8
SUNPO
  6
CONTINUOUS
  2
_DOTSMALL
 10
206.22405566587159
 20
419.47709298101961
 30
0.0
 41
2.3199999999999901
 42
2.3199999999999901
 43
2.3199999999999981
 50
180.0
  0
INSERT
  5
154CB
  8
SUNPO
  6
CONTINUOUS
  2
_DOTSMALL
 10
215.7240556658717
 20
419.47709298101961
 30
0.0
 41
2.3199999999999901
 42
2.3199999999999901
 43
2.3199999999999981
 50
180.0
  0
INSERT
  5
154CC
  8
SUNPO
  6
CONTINUOUS
  2
_DOTSMALL
 10
215.7240556658717
 20
419.47709298101961
 30
0.0
 41
2.3199999999999901
 42
2.3199999999999901
 43
2.3199999999999981
  0
LINE
  5
154CD
  8
DANMEN
  6
CONTINUOUS
 10
157.7240556658719
 20
455.47709298101961
 30
0.0
 11
165.2240556658719
 21
455.47709298101961
 31
0.0
  0
LINE
  5
154CE
  8
DANMEN
  6
CONTINUOUS
 10
122.2240556658719
 20
465.47709298101961
 30
0.0
 11
165.72405566587179
 21
465.47709298101961
 31
0.0
  0
LINE
  5
154CF
  8
SUNPO
  6
CONTINUOUS
 10
120.7240556658716
 20
470.47709298101938
 30
0.0
 11
165.72405566587179
 21
470.47709298101938
 31
0.0
  0
LINE
  5
154D0
  8
DANMEN
  6
CONTINUOUS
 10
106.7240556658719
 20
427.97709298101961
 30
0.0
 11
164.0740556658719
 21
427.97709298101961
 31
0.0
  0
LINE
  5
154D1
  8
DANMEN
  6
CONTINUOUS
 10
122.37405566587179
 20
448.9770929810195
 30
0.0
 11
164.0740556658719
 21
448.9770929810195
 31
0.0
  0
LINE
  5
154D2
  8
DANMEN
  6
CONTINUOUS
 10
122.37405566587179
 20
447.32709298101958
 30
0.0
 11
164.0740556658719
 21
447.32709298101958
 31
0.0
  0
LINE
  5
154D3
  8
DANMEN
  6
CONTINUOUS
 10
130.7240556658719
 20
430.97709298101961
 30
0.0
 11
140.7240556658715
 21
430.97709298101961
 31
0.0
  0
LINE
  5
154D4
  8
DANMEN
  6
CONTINUOUS
 10
120.7240556658716
 20
453.82009298101929
 30
0.0
 11
120.7240556658716
 21
429.6270929810193
 31
0.0
  0
LINE
  5
154D5
  8
DANMEN
  6
CONTINUOUS
 10
122.37405566587179
 20
453.82709298101929
 30
0.0
 11
122.37405566587179
 21
448.9770929810195
 31
0.0
  0
ARC
  5
154D6
  8
DANMEN
  6
CONTINUOUS
 10
114.0240556658719
 20
433.50709298101953
 30
0.0
 40
2.0
 50
0.0
 51
51.706999999999432
  0
ARC
  5
154D7
  8
DANMEN
  6
CONTINUOUS
 10
113.5240556658716
 20
433.42309298101952
 30
0.0
 40
1.0
 50
0.0
 51
65.376000000000531
  0
ARC
  5
154D8
  8
DANMEN
  6
CONTINUOUS
 10
111.9240556658719
 20
433.42309298101952
 30
0.0
 40
1.0
 50
114.6239999999994
 51
180.0
  0
ARC
  5
154D9
  8
DANMEN
  6
CONTINUOUS
 10
111.4240556658719
 20
433.50709298101953
 30
0.0
 40
2.0
 50
128.29300000000049
 51
180.0
  0
ARC
  5
154DA
  8
DANMEN
  6
CONTINUOUS
 10
111.9240556658719
 20
432.17709298101943
 30
0.0
 40
1.0
 50
180.0
 51
270.0
  0
ARC
  5
154DB
  8
DANMEN
  6
CONTINUOUS
 10
108.42405566587171
 20
430.62709298101919
 30
0.0
 40
1.0
 50
270.0
 51
0.0
  0
LINE
  5
154DC
  8
DANMEN
  6
CONTINUOUS
 10
109.4240556658719
 20
433.50709298101953
 30
0.0
 11
109.4240556658719
 21
430.62709298101919
 31
0.0
  0
LINE
  5
154DD
  8
DANMEN
  6
CONTINUOUS
 10
110.9240556658719
 20
433.42309298101952
 30
0.0
 11
110.9240556658719
 21
432.17709298101943
 31
0.0
  0
LINE
  5
154DE
  8
DANMEN
  6
CONTINUOUS
 10
113.5240556658716
 20
431.1770929810196
 30
0.0
 11
111.9240556658719
 21
431.1770929810196
 31
0.0
  0
ARC
  5
154DF
  8
DANMEN
  6
CONTINUOUS
 10
113.5240556658716
 20
432.17709298101943
 30
0.0
 40
1.0
 50
270.0
 51
0.0
  0
LINE
  5
154E0
  8
DANMEN
  6
CONTINUOUS
 10
114.5240556658716
 20
433.42309298101952
 30
0.0
 11
114.5240556658716
 21
432.17709298101943
 31
0.0
  0
LINE
  5
154E1
  8
DANMEN
  6
CONTINUOUS
 10
110.1850556658719
 20
435.07709298101929
 30
0.0
 11
111.3240556658718
 21
435.07709298101929
 31
0.0
  0
LINE
  5
154E2
  8
DANMEN
  6
CONTINUOUS
 10
115.2630556658716
 20
435.07709298101929
 30
0.0
 11
114.12405566587179
 21
435.07709298101929
 31
0.0
  0
ARC
  5
154E3
  8
DANMEN
  6
CONTINUOUS
 10
114.12405566587179
 20
434.77709298101928
 30
0.0
 40
0.3
 50
90.0
 51
180.0
  0
ARC
  5
154E4
  8
DANMEN
  6
CONTINUOUS
 10
111.3240556658718
 20
434.77709298101928
 30
0.0
 40
0.3
 50
0.0
 51
90.0
  0
LINE
  5
154E5
  8
DANMEN
  6
CONTINUOUS
 10
113.8240556658719
 20
434.77709298101928
 30
0.0
 11
113.8240556658719
 21
434.5140929810193
 31
0.0
  0
ARC
  5
154E6
  8
DANMEN
  6
CONTINUOUS
 10
114.0240556658719
 20
434.5140929810193
 30
0.0
 40
0.2
 50
180.0
 51
245.3760000000004
  0
ARC
  5
154E7
  8
DANMEN
  6
CONTINUOUS
 10
111.4240556658719
 20
434.5140929810193
 30
0.0
 40
0.2
 50
294.6239999999994
 51
0.0
  0
LINE
  5
154E8
  8
DANMEN
  6
CONTINUOUS
 10
111.62405566587169
 20
434.77709298101928
 30
0.0
 11
111.62405566587169
 21
434.5140929810193
 31
0.0
  0
LINE
  5
154E9
  8
DANMEN
  6
CONTINUOUS
 10
122.37405566587179
 20
447.32709298101958
 30
0.0
 11
122.37405566587179
 21
429.6270929810193
 31
0.0
  0
LINE
  5
154EA
  8
DANMEN
  6
CONTINUOUS
 10
122.37405566587179
 20
429.6270929810193
 30
0.0
 11
129.7240556658719
 21
429.6270929810193
 31
0.0
  0
LINE
  5
154EB
  8
DANMEN
  6
CONTINUOUS
 10
117.0240556658719
 20
429.6270929810193
 30
0.0
 11
120.7240556658716
 21
429.6270929810193
 31
0.0
  0
ARC
  5
154EC
  8
DANMEN
  6
CONTINUOUS
 10
117.0240556658719
 20
430.62709298101919
 30
0.0
 40
1.0
 50
180.0
 51
270.0
  0
LINE
  5
154ED
  8
DANMEN
  6
CONTINUOUS
 10
116.0240556658719
 20
433.50709298101953
 30
0.0
 11
116.0240556658719
 21
430.62709298101919
 31
0.0
  0
LINE
  5
154EE
  8
DANMEN
  6
CONTINUOUS
 10
130.7240556658719
 20
430.62709298101919
 30
0.0
 11
130.7240556658719
 21
430.97709298101961
 31
0.0
  0
ARC
  5
154EF
  8
DANMEN
  6
CONTINUOUS
 10
129.7240556658719
 20
430.62709298101919
 30
0.0
 40
1.0
 50
270.0
 51
0.0
  0
LINE
  5
154F0
  8
DANMEN
  6
CONTINUOUS
 10
120.7240556658716
 20
464.97709298101961
 30
0.0
 11
120.7240556658716
 21
455.47709298101961
 31
0.0
  0
LINE
  5
154F1
  8
DANMEN
  6
CONTINUOUS
 10
122.37405566587179
 20
464.97709298101961
 30
0.0
 11
122.37405566587179
 21
455.47709298101961
 31
0.0
  0
LINE
  5
154F2
  8
DANMEN
  6
CONTINUOUS
 10
122.37405566587179
 20
455.47709298101961
 30
0.0
 11
124.7240556658719
 21
455.47709298101961
 31
0.0
  0
LINE
  5
154F3
  8
DANMEN
  6
CONTINUOUS
 10
122.37405566587179
 20
453.82709298101929
 30
0.0
 11
124.7240556658719
 21
453.82709298101929
 31
0.0
  0
ARC
  5
154F4
  8
DANMEN
  6
CONTINUOUS
 10
124.7240556658719
 20
454.32709298101952
 30
0.0
 40
0.5
 50
270.0
 51
0.0
  0
ARC
  5
154F5
  8
DANMEN
  6
CONTINUOUS
 10
124.7240556658719
 20
454.97709298101961
 30
0.0
 40
0.5
 50
0.0
 51
90.0
  0
LINE
  5
154F6
  8
DANMEN
  6
CONTINUOUS
 10
125.2240556658719
 20
454.97709298101961
 30
0.0
 11
125.2240556658719
 21
454.32709298101952
 31
0.0
  0
LINE
  5
154F7
  8
SUNPO
  6
CONTINUOUS
 10
120.7240556658716
 20
466.47709298101938
 30
0.0
 11
120.7240556658716
 21
470.47709298101938
 31
0.0
  0
LINE
  5
154F8
  8
SUNPO
  6
CONTINUOUS
 10
120.7240556658716
 20
466.47709298101938
 30
0.0
 11
120.7240556658716
 21
470.47709298101938
 31
0.0
  0
ARC
  5
154F9
  8
DANMEN
  6
CONTINUOUS
 10
121.87405566587169
 20
464.97709298101961
 30
0.0
 40
0.5
 50
0.0
 51
90.0
  0
ARC
  5
154FA
  8
DANMEN
  6
CONTINUOUS
 10
121.2240556658719
 20
464.97709298101961
 30
0.0
 40
0.5
 50
90.0
 51
180.0
  0
LINE
  5
154FB
  8
DANMEN
  6
CONTINUOUS
 10
121.2240556658719
 20
465.47709298101961
 30
0.0
 11
121.87405566587169
 21
465.47709298101961
 31
0.0
  0
INSERT
  5
154FC
  8
SUNPO
  6
CONTINUOUS
  2
_DOTSMALL
 10
120.7240556658716
 20
470.47709298101938
 30
0.0
 41
2.3199999999999901
 42
2.3199999999999901
 43
2.3199999999999981
 50
180.0
  0
INSERT
  5
154FD
  8
SUNPO
  6
CONTINUOUS
  2
_DOTSMALL
 10
120.7240556658716
 20
470.47709298101938
 30
0.0
 41
2.3199999999999901
 42
2.3199999999999901
 43
2.3199999999999981
  0
LINE
  5
154FE
  8
DANMEN
  6
CONTINUOUS
 10
164.0740556658719
 20
448.9770929810195
 30
0.0
 11
164.0740556658719
 21
453.82709298101929
 31
0.0
  0
LINE
  5
154FF
  8
DANMEN
  6
CONTINUOUS
 10
141.72405566587179
 20
429.6270929810193
 30
0.0
 11
148.4240556658718
 21
429.6270929810193
 31
0.0
  0
ARC
  5
15500
  8
DANMEN
  6
CONTINUOUS
 10
141.72405566587179
 20
430.62709298101919
 30
0.0
 40
1.0
 50
180.0
 51
270.0
  0
LINE
  5
15501
  8
DANMEN
  6
CONTINUOUS
 10
140.7240556658715
 20
430.62709298101919
 30
0.0
 11
140.7240556658715
 21
430.97709298101961
 31
0.0
  0
LINE
  5
15502
  8
DANMEN
  6
CONTINUOUS
 10
164.0740556658719
 20
429.6270929810193
 30
0.0
 11
164.0740556658719
 21
447.32709298101958
 31
0.0
  0
ARC
  5
15503
  8
DANMEN
  6
CONTINUOUS
 10
157.02405566587191
 20
430.62709298101919
 30
0.0
 40
1.0
 50
180.0
 51
270.0
  0
ARC
  5
15504
  8
DANMEN
  6
CONTINUOUS
 10
151.4240556658718
 20
432.50709298101958
 30
0.0
 40
2.0
 50
128.29300000000049
 51
180.0
  0
LINE
  5
15505
  8
DANMEN
  6
CONTINUOUS
 10
151.62405566587191
 20
433.77709298101928
 30
0.0
 11
151.62405566587191
 21
433.5140929810193
 31
0.0
  0
ARC
  5
15506
  8
DANMEN
  6
CONTINUOUS
 10
154.02405566587191
 20
432.50709298101958
 30
0.0
 40
2.0
 50
0.0
 51
51.706999999999432
  0
LINE
  5
15507
  8
DANMEN
  6
CONTINUOUS
 10
153.82405566587181
 20
433.77709298101928
 30
0.0
 11
153.82405566587181
 21
433.5140929810193
 31
0.0
  0
LINE
  5
15508
  8
DANMEN
  6
CONTINUOUS
 10
153.52405566587191
 20
430.1770929810196
 30
0.0
 11
151.9240556658718
 21
430.1770929810196
 31
0.0
  0
ARC
  5
15509
  8
DANMEN
  6
CONTINUOUS
 10
148.4240556658718
 20
430.62709298101919
 30
0.0
 40
1.0
 50
270.0
 51
0.0
  0
LINE
  5
1550A
  8
DANMEN
  6
CONTINUOUS
 10
150.9240556658718
 20
432.42309298101952
 30
0.0
 11
150.9240556658718
 21
431.1770929810196
 31
0.0
  0
LINE
  5
1550B
  8
DANMEN
  6
CONTINUOUS
 10
149.42405566587161
 20
432.50709298101958
 30
0.0
 11
149.42405566587161
 21
430.62709298101919
 31
0.0
  0
ARC
  5
1550C
  8
DANMEN
  6
CONTINUOUS
 10
151.9240556658718
 20
432.42309298101952
 30
0.0
 40
1.0
 50
114.6239999999994
 51
180.0
  0
ARC
  5
1550D
  8
DANMEN
  6
CONTINUOUS
 10
151.4240556658718
 20
433.5140929810193
 30
0.0
 40
0.2
 50
294.6239999999994
 51
0.0
  0
ARC
  5
1550E
  8
DANMEN
  6
CONTINUOUS
 10
151.9240556658718
 20
431.1770929810196
 30
0.0
 40
1.0
 50
180.0
 51
270.0
  0
ARC
  5
1550F
  8
DANMEN
  6
CONTINUOUS
 10
153.52405566587191
 20
431.1770929810196
 30
0.0
 40
1.0
 50
270.0
 51
0.0
  0
ARC
  5
15510
  8
DANMEN
  6
CONTINUOUS
 10
154.02405566587191
 20
433.5140929810193
 30
0.0
 40
0.2
 50
180.0
 51
245.3760000000004
  0
ARC
  5
15511
  8
DANMEN
  6
CONTINUOUS
 10
153.52405566587191
 20
432.42309298101952
 30
0.0
 40
1.0
 50
0.0
 51
65.376000000000531
  0
LINE
  5
15512
  8
DANMEN
  6
CONTINUOUS
 10
154.52405566587191
 20
432.42309298101952
 30
0.0
 11
154.52405566587191
 21
431.1770929810196
 31
0.0
  0
LINE
  5
15513
  8
DANMEN
  6
CONTINUOUS
 10
156.02405566587191
 20
432.50709298101958
 30
0.0
 11
156.02405566587191
 21
430.62709298101919
 31
0.0
  0
ARC
  5
15514
  8
DANMEN
  6
CONTINUOUS
 10
151.32405566587181
 20
433.77709298101928
 30
0.0
 40
0.3
 50
0.0
 51
90.0
  0
LINE
  5
15515
  8
DANMEN
  6
CONTINUOUS
 10
150.1850556658718
 20
434.07709298101952
 30
0.0
 11
151.32405566587181
 21
434.07709298101952
 31
0.0
  0
ARC
  5
15516
  8
DANMEN
  6
CONTINUOUS
 10
154.12405566587191
 20
433.77709298101928
 30
0.0
 40
0.3
 50
90.0
 51
180.0
  0
LINE
  5
15517
  8
DANMEN
  6
CONTINUOUS
 10
155.2630556658716
 20
434.07709298101952
 30
0.0
 11
154.12405566587191
 21
434.07709298101952
 31
0.0
  0
LINE
  5
15518
  8
DANMEN
  6
CONTINUOUS
 10
157.02405566587191
 20
429.6270929810193
 30
0.0
 11
164.0740556658719
 21
429.6270929810193
 31
0.0
  0
TEXT
  5
15519
  8
SUNPO
  6
CONTINUOUS
 10
141.1407223325385
 20
471.47709298101961
 30
0.0
 40
2.5
  1
45
  7
MX_NOTE_STANDARD
  0
LINE
  5
1551A
  8
DANMEN
  6
CONTINUOUS
 10
157.7240556658719
 20
453.82709298101929
 30
0.0
 11
164.0740556658719
 21
453.82709298101929
 31
0.0
  0
ARC
  5
1551B
  8
DANMEN
  6
CONTINUOUS
 10
157.7240556658719
 20
454.32709298101952
 30
0.0
 40
0.5
 50
180.0
 51
270.0
  0
ARC
  5
1551C
  8
DANMEN
  6
CONTINUOUS
 10
157.7240556658719
 20
454.97709298101961
 30
0.0
 40
0.5
 50
90.0
 51
180.0
  0
LINE
  5
1551D
  8
DANMEN
  6
CONTINUOUS
 10
157.22405566587179
 20
454.32709298101952
 30
0.0
 11
157.22405566587179
 21
454.97709298101961
 31
0.0
  0
TEXT
  5
1551E
  8
SUNPO
  6
CONTINUOUS
 10
192.7240556658715
 20
433.41459298101961
 30
0.0
 40
2.5
  1
40
 50
90.0
 41
1.1000000000000001
  7
MX_DIMTXSTY_3
  0
LINE
  5
1551F
  8
SUNPO
  6
CONTINUOUS
 10
166.72405566587179
 20
455.47709298101961
 30
0.0
 11
193.72405566587159
 21
455.47709298101961
 31
0.0
  0
LINE
  5
15520
  8
SUNPO
  6
CONTINUOUS
 10
166.72405566587179
 20
455.47709298101961
 30
0.0
 11
193.72405566587159
 21
455.47709298101961
 31
0.0
  0
LINE
  5
15521
  8
SUNPO
  6
CONTINUOUS
 10
167.2240556658719
 20
465.47709298101961
 30
0.0
 11
193.72405566587159
 21
465.47709298101961
 31
0.0
  0
LINE
  5
15522
  8
DANMEN
  6
CONTINUOUS
 10
165.72405566587179
 20
455.47709298101961
 30
0.0
 11
165.72405566587179
 21
465.47709298101961
 31
0.0
  0
ARC
  5
15523
  8
DANMEN
  6
CONTINUOUS
 10
165.2240556658719
 20
454.97709298101961
 30
0.0
 40
0.5
 50
0.0
 51
90.0
  0
LINE
  5
15524
  8
SUNPO
  6
CONTINUOUS
 10
165.72405566587179
 20
466.97709298101961
 30
0.0
 11
165.72405566587179
 21
470.47709298101938
 31
0.0
  0
INSERT
  5
15525
  8
SUNPO
  6
CONTINUOUS
  2
_DOTSMALL
 10
165.72405566587179
 20
470.47709298101938
 30
0.0
 41
2.3199999999999901
 42
2.3199999999999901
 43
2.3199999999999981
  0
LINE
  5
15526
  8
SUNPO
  6
CONTINUOUS
 10
193.72405566587159
 20
465.47709298101961
 30
0.0
 11
193.72405566587159
 21
455.47709298101961
 31
0.0
  0
INSERT
  5
15527
  8
SUNPO
  6
CONTINUOUS
  2
_DOTSMALL
 10
193.72405566587159
 20
455.47709298101961
 30
0.0
 41
2.3199999999999901
 42
2.3199999999999901
 43
2.3199999999999981
 50
90.0
  0
INSERT
  5
15528
  8
SUNPO
  6
CONTINUOUS
  2
_DOTSMALL
 10
193.72405566587159
 20
455.47709298101961
 30
0.0
 41
2.3199999999999901
 42
2.3199999999999901
 43
2.3199999999999981
 50
270.0
  0
TEXT
  5
15529
  8
SUNPO
  6
CONTINUOUS
 10
192.7240556658715
 20
458.50834298101961
 30
0.0
 40
2.5
  1
10
 50
90.0
 41
1.3500000000000001
  7
MX_DIMTXSTY_5
  0
INSERT
  5
1552A
  8
SUNPO
  6
CONTINUOUS
  2
_DOTSMALL
 10
193.72405566587159
 20
465.47709298101961
 30
0.0
 41
2.3199999999999901
 42
2.3199999999999901
 43
2.3199999999999981
 50
90.0
  0
LINE
  5
1552B
  8
DANMEN
  6
CONTINUOUS
 10
351.22405566587162
 20
369.47709298101961
 30
0.0
 11
351.22405566587162
 21
324.97709298101961
 31
0.0
  0
LINE
  5
1552C
  8
DANMEN
  6
CONTINUOUS
 10
338.72405566587162
 20
370.97709298101961
 30
0.0
 11
338.72405566587162
 21
324.97709298101961
 31
0.0
  0
LINE
  5
1552D
  8
DANMEN
  6
CONTINUOUS
 10
340.72405566587162
 20
369.47709298101961
 30
0.0
 11
340.72405566587162
 21
326.47709298101961
 31
0.0
  0
LINE
  5
1552E
  8
DANMEN
  6
CONTINUOUS
 10
349.22405566587162
 20
369.47709298101961
 30
0.0
 11
349.22405566587162
 21
326.47709298101961
 31
0.0
  0
LINE
  5
1552F
  8
DANMEN
  6
CONTINUOUS
 10
245.72405566587159
 20
303.62709298101947
 30
0.0
 11
245.72405566587159
 21
358.47709298101961
 31
0.0
  0
LINE
  5
15530
  8
DANMEN
  6
CONTINUOUS
 10
230.37405566587191
 20
342.82709298101958
 30
0.0
 11
230.37405566587191
 21
301.12709298101959
 31
0.0
  0
LINE
  5
15531
  8
DANMEN
  6
CONTINUOUS
 10
244.0740556658719
 20
301.12709298101959
 30
0.0
 11
244.0740556658719
 21
342.82709298101958
 31
0.0
  0
LINE
  5
15532
  8
DANMEN
  6
CONTINUOUS
 10
388.7240556658719
 20
303.62709298101947
 30
0.0
 11
388.7240556658719
 21
358.47709298101961
 31
0.0
  0
LINE
  5
15533
  8
DANMEN
  6
CONTINUOUS
 10
404.07405566587192
 20
342.82709298101958
 30
0.0
 11
404.07405566587192
 21
301.12709298101959
 31
0.0
  0
LINE
  5
15534
  8
DANMEN
  6
CONTINUOUS
 10
390.37405566587182
 20
301.12709298101959
 30
0.0
 11
390.37405566587182
 21
342.82709298101958
 31
0.0
  0
LINE
  5
15535
  8
DANMEN
  6
CONTINUOUS
 10
405.7240556658719
 20
342.82709298101958
 30
0.0
 11
405.7240556658719
 21
301.12709298101959
 31
0.0
  0
LINE
  5
15536
  8
DANMEN
  6
CONTINUOUS
 10
283.2240556658719
 20
369.47709298101961
 30
0.0
 11
283.2240556658719
 21
324.97709298101961
 31
0.0
  0
LINE
  5
15537
  8
DANMEN
  6
CONTINUOUS
 10
295.7240556658719
 20
370.97709298101961
 30
0.0
 11
295.7240556658719
 21
324.97709298101961
 31
0.0
  0
LINE
  5
15538
  8
DANMEN
  6
CONTINUOUS
 10
293.7240556658719
 20
369.47709298101961
 30
0.0
 11
293.7240556658719
 21
326.47709298101961
 31
0.0
  0
LINE
  5
15539
  8
DANMEN
  6
CONTINUOUS
 10
285.2240556658719
 20
369.47709298101961
 30
0.0
 11
285.2240556658719
 21
326.47709298101961
 31
0.0
  0
LINE
  5
1553A
  8
SUNPO
  6
CONTINUOUS
 10
333.2240556658719
 20
299.47709298101961
 30
0.0
 11
333.2240556658719
 21
399.47709298101961
 31
0.0
  0
LINE
  5
1553B
  8
SUNPO
  6
CONTINUOUS
 10
313.2240556658719
 20
371.47709298101961
 30
0.0
 11
313.2240556658719
 21
324.47709298101961
 31
0.0
  0
LINE
  5
1553C
  8
SUNPO
  6
CONTINUOUS
 10
323.2240556658719
 20
399.47709298101961
 30
0.0
 11
323.2240556658719
 21
324.47709298101961
 31
0.0
  0
LINE
  5
1553D
  8
SUNPO
  6
CONTINUOUS
 10
428.22405566587167
 20
341.82709298101958
 30
0.0
 11
428.22405566587167
 21
269.47709298101961
 31
0.0
  0
LINE
  5
1553E
  8
DANMEN
  6
CONTINUOUS
 10
340.37405566587182
 20
303.62709298101947
 30
0.0
 11
388.7240556658719
 21
303.62709298101947
 31
0.0
  0
LINE
  5
1553F
  8
DANMEN
  6
CONTINUOUS
 10
339.2240556658719
 20
301.97709298101961
 30
0.0
 11
388.7240556658719
 21
301.97709298101961
 31
0.0
  0
LINE
  5
15540
  8
DANMEN
  6
CONTINUOUS
 10
388.7240556658719
 20
299.47709298101961
 30
0.0
 11
319.72405566587162
 21
299.47709298101961
 31
0.0
  0
LINE
  5
15541
  8
DANMEN
  6
CONTINUOUS
 10
388.7240556658719
 20
320.47709298101961
 30
0.0
 11
348.7240556658719
 21
320.47709298101961
 31
0.0
  0
LINE
  5
15542
  8
SUNPO
  6
CONTINUOUS
 10
381.2240556658719
 20
269.47709298101961
 30
0.0
 11
253.2240556658717
 21
269.47709298101961
 31
0.0
  0
LINE
  5
15543
  8
SUNPO
  6
CONTINUOUS
 10
388.7240556658719
 20
279.47709298101961
 30
0.0
 11
338.72405566587162
 21
279.47709298101961
 31
0.0
  0
ARC
  5
15544
  8
DANMEN
  6
CONTINUOUS
 10
294.1870556658717
 20
322.92809298101957
 30
0.0
 40
1.5469999999999959
 50
290.3019999999994
 51
93.245000000000644
  0
LINE
  5
15545
  8
DANMEN
  6
CONTINUOUS
 10
245.72405566587159
 20
299.47709298101961
 30
0.0
 11
314.7240556658719
 21
299.47709298101961
 31
0.0
  0
LINE
  5
15546
  8
DANMEN
  6
CONTINUOUS
 10
314.7240556658719
 20
326.47709298101961
 30
0.0
 11
295.7240556658719
 21
326.47709298101961
 31
0.0
  0
LINE
  5
15547
  8
DANMEN
  6
CONTINUOUS
 10
295.7240556658719
 20
320.47709298101961
 30
0.0
 11
314.7240556658719
 21
320.47709298101961
 31
0.0
  0
LINE
  5
15548
  8
DANMEN
  6
CONTINUOUS
 10
295.7240556658719
 20
324.47709298101961
 30
0.0
 11
314.7240556658719
 21
324.47709298101961
 31
0.0
  0
INSERT
  5
15549
  8
SUNPO
  6
CONTINUOUS
  2
_DOTSMALL
 10
295.7240556658719
 20
279.47709298101961
 30
0.0
 41
2.3199999999999901
 42
2.3199999999999901
 43
2.3199999999999981
  0
LINE
  5
1554A
  8
SUNPO
  6
CONTINUOUS
 10
245.72405566587159
 20
299.97709298101961
 30
0.0
 11
245.72405566587159
 21
279.47709298101961
 31
0.0
  0
LINE
  5
1554B
  8
SUNPO
  6
CONTINUOUS
 10
295.7240556658719
 20
312.97709298101961
 30
0.0
 11
295.7240556658719
 21
279.47709298101961
 31
0.0
  0
LINE
  5
1554C
  8
SUNPO
  6
CONTINUOUS
 10
245.72405566587159
 20
299.62709298101947
 30
0.0
 11
245.72405566587159
 21
269.47709298101961
 31
0.0
  0
LINE
  5
1554D
  8
SUNPO
  6
CONTINUOUS
 10
295.7240556658719
 20
279.47709298101961
 30
0.0
 11
245.72405566587159
 21
279.47709298101961
 31
0.0
  0
INSERT
  5
1554E
  8
SUNPO
  6
CONTINUOUS
  2
_CLOSED
 10
245.72405566587159
 20
269.47709298101961
 30
0.0
 41
7.5
 42
7.5
 43
7.5
 50
180.0
  0
TEXT
  5
1554F
  8
SUNPO
  6
CONTINUOUS
 10
231.1407223325385
 20
270.47709298101961
 30
0.0
 40
2.5
  1
25
  7
MX_NOTE_STANDARD
  0
INSERT
  5
15550
  8
SUNPO
  6
CONTINUOUS
  2
_DOTSMALL
 10
245.72405566587159
 20
269.47709298101961
 30
0.0
 41
2.3199999999999901
 42
2.3199999999999901
 43
2.3199999999999981
  0
INSERT
  5
15551
  8
SUNPO
  6
CONTINUOUS
  2
_DOTSMALL
 10
245.72405566587159
 20
279.47709298101961
 30
0.0
 41
2.3199999999999901
 42
2.3199999999999901
 43
2.3199999999999981
 50
180.0
  0
TEXT
  5
15552
  8
SUNPO
  6
CONTINUOUS
 10
268.6615556658715
 20
280.47709298101961
 30
0.0
 40
2.5
  1
50
 41
1.1000000000000001
  7
MX_DIMTXSTY_3
  0
LINE
  5
15553
  8
DANMEN
  6
CONTINUOUS
 10
294.07405566587192
 20
303.62709298101947
 30
0.0
 11
245.72405566587159
 21
303.62709298101947
 31
0.0
  0
LINE
  5
15554
  8
DANMEN
  6
CONTINUOUS
 10
295.22405566587162
 20
301.97709298101961
 30
0.0
 11
245.72405566587159
 21
301.97709298101961
 31
0.0
  0
LINE
  5
15555
  8
DANMEN
  6
CONTINUOUS
 10
245.72405566587159
 20
320.47709298101961
 30
0.0
 11
285.7240556658719
 21
320.47709298101961
 31
0.0
  0
LINE
  5
15556
  8
DANMEN
  6
CONTINUOUS
 10
245.72405566587159
 20
299.97709298101961
 30
0.0
 11
245.72405566587159
 21
301.97709298101961
 31
0.0
  0
ARC
  5
15557
  8
DANMEN
  6
CONTINUOUS
 10
245.2240556658717
 20
299.97709298101961
 30
0.0
 40
0.5
 50
270.0
 51
0.0
  0
LINE
  5
15558
  8
DANMEN
  6
CONTINUOUS
 10
240.07405566587181
 20
301.12709298101959
 30
0.0
 11
230.37405566587191
 21
301.12709298101959
 31
0.0
  0
LINE
  5
15559
  8
DANMEN
  6
CONTINUOUS
 10
244.0740556658719
 20
301.12709298101959
 30
0.0
 11
241.5740556658719
 21
301.12709298101959
 31
0.0
  0
ARC
  5
1555A
  8
DANMEN
  6
CONTINUOUS
 10
240.5740556658717
 20
302.62709298101947
 30
0.0
 40
0.5
 50
90.0
 51
180.0
  0
ARC
  5
1555B
  8
DANMEN
  6
CONTINUOUS
 10
241.0740556658719
 20
302.62709298101947
 30
0.0
 40
0.5
 50
0.0
 51
90.0
  0
LINE
  5
1555C
  8
DANMEN
  6
CONTINUOUS
 10
241.0740556658719
 20
303.12709298101959
 30
0.0
 11
240.5740556658717
 21
303.12709298101959
 31
0.0
  0
LINE
  5
1555D
  8
DANMEN
  6
CONTINUOUS
 10
240.07405566587181
 20
302.62709298101947
 30
0.0
 11
240.07405566587181
 21
301.12709298101959
 31
0.0
  0
LINE
  5
1555E
  8
DANMEN
  6
CONTINUOUS
 10
241.5740556658719
 20
302.62709298101947
 30
0.0
 11
241.5740556658719
 21
301.12709298101959
 31
0.0
  0
LINE
  5
1555F
  8
DANMEN
  6
CONTINUOUS
 10
294.07405566587192
 20
314.47709298101961
 30
0.0
 11
294.07405566587192
 21
303.62709298101947
 31
0.0
  0
LINE
  5
15560
  8
DANMEN
  6
CONTINUOUS
 10
295.7240556658719
 20
319.9770929810195
 30
0.0
 11
295.7240556658719
 21
302.47709298101961
 31
0.0
  0
ARC
  5
15561
  8
DANMEN
  6
CONTINUOUS
 10
295.22405566587162
 20
302.47709298101961
 30
0.0
 40
0.5
 50
270.0
 51
0.0
  0
ARC
  5
15562
  8
DANMEN
  6
CONTINUOUS
 10
287.26105566587188
 20
322.92809298101957
 30
0.0
 40
1.5469999999999959
 50
86.754999999999328
 51
249.69800000000049
  0
LINE
  5
15563
  8
DANMEN
  6
CONTINUOUS
 10
287.51005566587162
 20
322.50309298101962
 30
0.0
 11
288.22405566587162
 21
321.47709298101961
 31
0.0
  0
LINE
  5
15564
  8
DANMEN
  6
CONTINUOUS
 10
288.7240556658719
 20
320.47709298101961
 30
0.0
 11
286.72405566587162
 21
320.47709298101961
 31
0.0
  0
ARC
  5
15565
  8
DANMEN
  6
CONTINUOUS
 10
287.75605566587188
 20
322.67409298101961
 30
0.0
 40
0.3
 50
90.0
 51
214.84900000000059
  0
LINE
  5
15566
  8
DANMEN
  6
CONTINUOUS
 10
286.72405566587162
 20
321.47709298101961
 30
0.0
 11
294.72405566587162
 21
321.47709298101961
 31
0.0
  0
LINE
  5
15567
  8
DANMEN
  6
CONTINUOUS
 10
294.07405566587192
 20
314.47709298101961
 30
0.0
 11
286.2240556658719
 21
314.47709298101961
 31
0.0
  0
LINE
  5
15568
  8
DANMEN
  6
CONTINUOUS
 10
294.07405566587192
 20
316.12709298101947
 30
0.0
 11
287.02405566587191
 21
316.12709298101947
 31
0.0
  0
LINE
  5
15569
  8
DANMEN
  6
CONTINUOUS
 10
288.22405566587162
 20
320.47709298101961
 30
0.0
 11
286.2240556658719
 21
320.47709298101961
 31
0.0
  0
LINE
  5
1556A
  8
DANMEN
  6
CONTINUOUS
 10
288.7240556658719
 20
319.47709298101961
 30
0.0
 11
287.02405566587191
 21
319.47709298101961
 31
0.0
  0
LINE
  5
1556B
  8
DANMEN
  6
CONTINUOUS
 10
285.7240556658719
 20
319.9770929810195
 30
0.0
 11
285.7240556658719
 21
314.97709298101961
 31
0.0
  0
LINE
  5
1556C
  8
DANMEN
  6
CONTINUOUS
 10
287.02405566587191
 20
319.47709298101961
 30
0.0
 11
287.02405566587191
 21
316.12709298101947
 31
0.0
  0
ARC
  5
1556D
  8
DANMEN
  6
CONTINUOUS
 10
286.2240556658719
 20
314.97709298101961
 30
0.0
 40
0.5
 50
180.0
 51
270.0
  0
LINE
  5
1556E
  8
DANMEN
  6
CONTINUOUS
 10
286.72405566587162
 20
321.47709298101961
 30
0.0
 11
286.72405566587162
 21
320.47709298101961
 31
0.0
  0
ARC
  5
1556F
  8
DANMEN
  6
CONTINUOUS
 10
286.2240556658719
 20
319.9770929810195
 30
0.0
 40
0.5
 50
90.0
 51
180.0
  0
LINE
  5
15570
  8
DANMEN
  6
CONTINUOUS
 10
292.2240556658719
 20
316.47709298101961
 30
0.0
 11
293.44105566587172
 21
318.60309298101959
 31
0.0
  0
LINE
  5
15571
  8
DANMEN
  6
CONTINUOUS
 10
289.2240556658719
 20
316.47709298101961
 30
0.0
 11
288.00705566587192
 21
318.60309298101959
 31
0.0
  0
ARC
  5
15572
  8
DANMEN
  6
CONTINUOUS
 10
290.72405566587162
 20
318.37709298101947
 30
0.0
 40
0.9
 50
180.0
 51
0.0
  0
LINE
  5
15573
  8
DANMEN
  6
CONTINUOUS
 10
294.07405566587192
 20
319.47709298101961
 30
0.0
 11
294.07405566587192
 21
316.12709298101947
 31
0.0
  0
LINE
  5
15574
  8
DANMEN
  6
CONTINUOUS
 10
289.2240556658719
 20
316.47709298101961
 30
0.0
 11
292.2240556658719
 21
316.47709298101961
 31
0.0
  0
LINE
  5
15575
  8
DANMEN
  6
CONTINUOUS
 10
293.69205566587192
 20
322.97409298101962
 30
0.0
 11
287.75605566587188
 21
322.97409298101962
 31
0.0
  0
ARC
  5
15576
  8
DANMEN
  6
CONTINUOUS
 10
288.22405566587162
 20
318.72709298101961
 30
0.0
 40
0.25
 50
60.000000000000277
 51
209.79000000000079
  0
LINE
  5
15577
  8
DANMEN
  6
CONTINUOUS
 10
288.7240556658719
 20
318.72709298101961
 30
0.0
 11
288.3490556658719
 21
318.94409298101959
 31
0.0
  0
ARC
  5
15578
  8
DANMEN
  6
CONTINUOUS
 10
290.72405566587162
 20
319.57709298101958
 30
0.0
 40
0.9
 50
0.0
 51
180.0
  0
LINE
  5
15579
  8
DANMEN
  6
CONTINUOUS
 10
288.7240556658719
 20
320.47709298101961
 30
0.0
 11
288.7240556658719
 21
318.72709298101961
 31
0.0
  0
LINE
  5
1557A
  8
DANMEN
  6
CONTINUOUS
 10
289.82405566587192
 20
319.57709298101958
 30
0.0
 11
289.82405566587192
 21
318.37709298101947
 31
0.0
  0
LINE
  5
1557B
  8
DANMEN
  6
CONTINUOUS
 10
291.62405566587182
 20
319.57709298101958
 30
0.0
 11
291.62405566587182
 21
318.37709298101947
 31
0.0
  0
LINE
  5
1557C
  8
DANMEN
  6
CONTINUOUS
 10
288.7240556658719
 20
319.9770929810195
 30
0.0
 11
288.7240556658719
 21
319.47709298101961
 31
0.0
  0
ARC
  5
1557D
  8
DANMEN
  6
CONTINUOUS
 10
288.22405566587162
 20
319.9770929810195
 30
0.0
 40
0.5
 50
0.0
 51
90.0
  0
LINE
  5
1557E
  8
DANMEN
  6
CONTINUOUS
 10
293.22405566587162
 20
321.47709298101961
 30
0.0
 11
293.9380556658719
 21
322.50309298101962
 31
0.0
  0
ARC
  5
1557F
  8
DANMEN
  6
CONTINUOUS
 10
293.69205566587192
 20
322.67409298101961
 30
0.0
 40
0.3
 50
325.1509999999991
 51
90.0
  0
LINE
  5
15580
  8
DANMEN
  6
CONTINUOUS
 10
292.72405566587162
 20
320.47709298101961
 30
0.0
 11
294.72405566587162
 21
320.47709298101961
 31
0.0
  0
ARC
  5
15581
  8
DANMEN
  6
CONTINUOUS
 10
293.22405566587162
 20
318.72709298101961
 30
0.0
 40
0.25
 50
330.2099999999989
 51
119.9999999999997
  0
LINE
  5
15582
  8
DANMEN
  6
CONTINUOUS
 10
292.72405566587162
 20
318.72709298101961
 30
0.0
 11
293.0990556658719
 21
318.94409298101959
 31
0.0
  0
LINE
  5
15583
  8
DANMEN
  6
CONTINUOUS
 10
294.72405566587162
 20
321.47709298101961
 30
0.0
 11
294.72405566587162
 21
320.47709298101961
 31
0.0
  0
LINE
  5
15584
  8
DANMEN
  6
CONTINUOUS
 10
292.72405566587162
 20
320.47709298101961
 30
0.0
 11
292.72405566587162
 21
318.72709298101961
 31
0.0
  0
LINE
  5
15585
  8
DANMEN
  6
CONTINUOUS
 10
295.22405566587162
 20
320.47709298101961
 30
0.0
 11
293.22405566587162
 21
320.47709298101961
 31
0.0
  0
LINE
  5
15586
  8
DANMEN
  6
CONTINUOUS
 10
292.72405566587162
 20
319.9770929810195
 30
0.0
 11
292.72405566587162
 21
319.47709298101961
 31
0.0
  0
LINE
  5
15587
  8
DANMEN
  6
CONTINUOUS
 10
294.07405566587192
 20
319.47709298101961
 30
0.0
 11
292.72405566587162
 21
319.47709298101961
 31
0.0
  0
ARC
  5
15588
  8
DANMEN
  6
CONTINUOUS
 10
295.22405566587162
 20
319.9770929810195
 30
0.0
 40
0.5
 50
0.0
 51
90.0
  0
ARC
  5
15589
  8
DANMEN
  6
CONTINUOUS
 10
293.22405566587162
 20
319.9770929810195
 30
0.0
 40
0.5
 50
90.0
 51
180.0
  0
LINE
  5
1558A
  8
DANMEN
  6
CONTINUOUS
 10
287.34805566587193
 20
324.4720929810195
 30
0.0
 11
294.10005566587182
 21
324.4720929810195
 31
0.0
  0
LINE
  5
1558B
  8
DANMEN
  6
CONTINUOUS
 10
295.22405566587162
 20
324.47709298101961
 30
0.0
 11
283.7240556658719
 21
324.47709298101961
 31
0.0
  0
ARC
  5
1558C
  8
DANMEN
  6
CONTINUOUS
 10
288.22405566587162
 20
327.97709298101961
 30
0.0
 40
0.5
 50
90.0
 51
180.0
  0
LINE
  5
1558D
  8
DANMEN
  6
CONTINUOUS
 10
287.7240556658719
 20
326.47709298101961
 30
0.0
 11
285.2240556658719
 21
326.47709298101961
 31
0.0
  0
ARC
  5
1558E
  8
DANMEN
  6
CONTINUOUS
 10
283.7240556658719
 20
324.97709298101961
 30
0.0
 40
0.5
 50
180.0
 51
270.0
  0
LINE
  5
1558F
  8
DANMEN
  6
CONTINUOUS
 10
293.7240556658719
 20
326.47709298101961
 30
0.0
 11
289.2240556658719
 21
326.47709298101961
 31
0.0
  0
LINE
  5
15590
  8
DANMEN
  6
CONTINUOUS
 10
287.7240556658719
 20
326.47709298101961
 30
0.0
 11
287.7240556658719
 21
327.97709298101961
 31
0.0
  0
LINE
  5
15591
  8
DANMEN
  6
CONTINUOUS
 10
289.2240556658719
 20
326.47709298101961
 30
0.0
 11
289.2240556658719
 21
327.97709298101961
 31
0.0
  0
LINE
  5
15592
  8
DANMEN
  6
CONTINUOUS
 10
288.22405566587162
 20
328.47709298101961
 30
0.0
 11
288.7240556658719
 21
328.47709298101961
 31
0.0
  0
ARC
  5
15593
  8
DANMEN
  6
CONTINUOUS
 10
288.7240556658719
 20
327.97709298101961
 30
0.0
 40
0.5
 50
0.0
 51
90.0
  0
ARC
  5
15594
  8
DANMEN
  6
CONTINUOUS
 10
295.22405566587162
 20
324.97709298101961
 30
0.0
 40
0.5
 50
270.0
 51
0.0
  0
LINE
  5
15595
  8
SUNPO
  6
CONTINUOUS
 10
338.72405566587162
 20
312.97709298101961
 30
0.0
 11
338.72405566587162
 21
279.47709298101961
 31
0.0
  0
LINE
  5
15596
  8
SUNPO
  6
CONTINUOUS
 10
311.52405566587191
 20
276.4460929810196
 30
0.0
 11
313.61405566587172
 21
270.4460929810196
 31
0.0
  0
LINE
  5
15597
  8
SUNPO
  6
CONTINUOUS
 10
310.88905566587169
 20
276.4460929810196
 30
0.0
 11
313.88905566587181
 21
276.4460929810196
 31
0.0
  0
LINE
  5
15598
  8
SUNPO
  6
CONTINUOUS
 10
307.70405566587192
 20
276.4460929810196
 30
0.0
 11
309.79405566587189
 21
270.4460929810196
 31
0.0
  0
LINE
  5
15599
  8
SUNPO
  6
CONTINUOUS
 10
309.43405566587182
 20
276.4460929810196
 30
0.0
 11
311.52405566587191
 21
270.4460929810196
 31
0.0
  0
LINE
  5
1559A
  8
SUNPO
  6
CONTINUOUS
 10
311.52405566587191
 20
276.4460929810196
 30
0.0
 11
311.52405566587191
 21
270.4460929810196
 31
0.0
  0
LINE
  5
1559B
  8
SUNPO
  6
CONTINUOUS
 10
309.1590556658719
 20
270.4460929810196
 30
0.0
 11
312.15905566587162
 21
270.4460929810196
 31
0.0
  0
LINE
  5
1559C
  8
SUNPO
  6
CONTINUOUS
 10
307.06905566587182
 20
276.4460929810196
 30
0.0
 11
310.06905566587182
 21
276.4460929810196
 31
0.0
  0
TEXT
  5
1559D
  8
SUNPO
  6
CONTINUOUS
 10
317.36405566587172
 20
270.47709298101961
 30
0.0
 40
5.0
  1
＝
 41
0.85
  7
MX_DIMTXSTY_7
  0
LINE
  5
1559E
  8
SUNPO
  6
CONTINUOUS
 10
313.25405566587182
 20
276.4460929810196
 30
0.0
 11
315.34405566587162
 21
270.4460929810196
 31
0.0
  0
LINE
  5
1559F
  8
SUNPO
  6
CONTINUOUS
 10
315.34405566587162
 20
276.4460929810196
 30
0.0
 11
315.34405566587162
 21
270.4460929810196
 31
0.0
  0
LINE
  5
155A0
  8
SUNPO
  6
CONTINUOUS
 10
312.97905566587173
 20
270.4460929810196
 30
0.0
 11
315.9790556658719
 21
270.4460929810196
 31
0.0
  0
LINE
  5
155A1
  8
SUNPO
  6
CONTINUOUS
 10
314.71005566587189
 20
276.4460929810196
 30
0.0
 11
315.9790556658719
 21
276.4460929810196
 31
0.0
  0
INSERT
  5
155A2
  8
SUNPO
  6
CONTINUOUS
  2
_DOTSMALL
 10
338.72405566587162
 20
279.47709298101961
 30
0.0
 41
2.3199999999999901
 42
2.3199999999999901
 43
2.3199999999999981
 50
180.0
  0
LINE
  5
155A3
  8
DANMEN
  6
CONTINUOUS
 10
338.72405566587162
 20
320.47709298101961
 30
0.0
 11
319.72405566587162
 21
320.47709298101961
 31
0.0
  0
LINE
  5
155A4
  8
DANMEN
  6
CONTINUOUS
 10
319.72405566587162
 20
326.47709298101961
 30
0.0
 11
338.72405566587162
 21
326.47709298101961
 31
0.0
  0
LINE
  5
155A5
  8
DANMEN
  6
CONTINUOUS
 10
338.72405566587162
 20
324.47709298101961
 30
0.0
 11
319.72405566587162
 21
324.47709298101961
 31
0.0
  0
TEXT
  5
155A6
  8
SUNPO
  6
CONTINUOUS
 10
302.2240556658719
 20
306.72709298101961
 30
0.0
 40
2.5
  1
18.5
 50
90.0
 41
1.3500000000000001
  7
MX_DIMTXSTY_5
  0
LINE
  5
155A7
  8
SUNPO
  6
CONTINUOUS
 10
303.22405566587162
 20
320.47709298101961
 30
0.0
 11
303.22405566587162
 21
301.97709298101961
 31
0.0
  0
TEXT
  5
155A8
  8
SUNPO
  6
CONTINUOUS
 10
322.22405566587162
 20
309.89375964768601
 30
0.0
 40
2.5
  1
25
 50
90.0
  7
MX_NOTE_STANDARD
  0
LINE
  5
155A9
  8
SUNPO
  6
CONTINUOUS
 10
323.2240556658719
 20
324.47709298101961
 30
0.0
 11
323.2240556658719
 21
299.47709298101961
 31
0.0
  0
TEXT
  5
155AA
  8
SUNPO
  6
CONTINUOUS
 10
312.2240556658719
 20
307.97709298101961
 30
0.0
 40
2.5
  1
21
 50
90.0
 41
1.1999999999999991
  7
MX_DIMTXSTY_6
  0
LINE
  5
155AB
  8
SUNPO
  6
CONTINUOUS
 10
313.2240556658719
 20
299.47709298101961
 30
0.0
 11
313.2240556658719
 21
320.47709298101961
 31
0.0
  0
LINE
  5
155AC
  8
SUNPO
  6
CONTINUOUS
 10
303.22405566587162
 20
301.97709298101961
 30
0.0
 11
303.22405566587162
 21
299.47709298101961
 31
0.0
  0
TEXT
  5
155AD
  8
SUNPO
  6
CONTINUOUS
 10
302.2240556658719
 20
291.82409298101948
 30
0.0
 40
2.5
  1
2.5
 50
90.0
 41
1.3
  7
MX_DIMTXSTY_4
  0
LINE
  5
155AE
  8
SUNPO
  6
CONTINUOUS
 10
303.22405566587162
 20
299.47709298101961
 30
0.0
 11
303.22405566587162
 21
291.32409298101959
 31
0.0
  0
LINE
  5
155AF
  8
DANMEN
  6
CONTINUOUS
 10
303.22405566587162
 20
299.47709298101961
 30
0.0
 11
303.22405566587162
 21
299.47709298101961
 31
0.0
  0
INSERT
  5
155B0
  8
SUNPO
  6
CONTINUOUS
  2
_DOTSMALL
 10
303.22405566587162
 20
299.47709298101961
 30
0.0
 41
2.3199999999999901
 42
2.3199999999999901
 43
2.3199999999999981
 50
90.0
  0
LINE
  5
155B1
  8
SUNPO
  6
CONTINUOUS
 10
296.7240556658719
 20
301.97709298101961
 30
0.0
 11
303.22405566587162
 21
301.97709298101961
 31
0.0
  0
INSERT
  5
155B2
  8
SUNPO
  6
CONTINUOUS
  2
_DOTSMALL
 10
303.22405566587162
 20
301.97709298101961
 30
0.0
 41
2.3199999999999901
 42
2.3199999999999901
 43
2.3199999999999981
 50
270.0
  0
INSERT
  5
155B3
  8
SUNPO
  6
CONTINUOUS
  2
_DOTSMALL
 10
313.2240556658719
 20
299.47709298101961
 30
0.0
 41
2.3199999999999901
 42
2.3199999999999901
 43
2.3199999999999981
 50
270.0
  0
INSERT
  5
155B4
  8
SUNPO
  6
CONTINUOUS
  2
_DOTSMALL
 10
323.2240556658719
 20
299.47709298101961
 30
0.0
 41
2.3199999999999901
 42
2.3199999999999901
 43
2.3199999999999981
 50
270.0
  0
INSERT
  5
155B5
  8
SUNPO
  6
CONTINUOUS
  2
_DOTSMALL
 10
303.22405566587162
 20
320.47709298101961
 30
0.0
 41
2.3199999999999901
 42
2.3199999999999901
 43
2.3199999999999981
 50
90.0
  0
TEXT
  5
155B6
  8
SUNPO
  6
CONTINUOUS
 10
312.2240556658719
 20
321.6437596476863
 30
0.0
 40
2.5
  1
4
 50
90.0
  7
MX_NOTE_STANDARD
  0
LINE
  5
155B7
  8
SUNPO
  6
CONTINUOUS
 10
313.2240556658719
 20
324.47709298101961
 30
0.0
 11
313.2240556658719
 21
320.47709298101961
 31
0.0
  0
INSERT
  5
155B8
  8
SUNPO
  6
CONTINUOUS
  2
_DOTSMALL
 10
313.2240556658719
 20
320.47709298101961
 30
0.0
 41
2.3199999999999901
 42
2.3199999999999901
 43
2.3199999999999981
 50
90.0
  0
INSERT
  5
155B9
  8
SUNPO
  6
CONTINUOUS
  2
_DOTSMALL
 10
313.2240556658719
 20
324.47709298101961
 30
0.0
 41
2.3199999999999901
 42
2.3199999999999901
 43
2.3199999999999981
 50
270.0
  0
INSERT
  5
155BA
  8
SUNPO
  6
CONTINUOUS
  2
_DOTSMALL
 10
323.2240556658719
 20
324.47709298101961
 30
0.0
 41
2.3199999999999901
 42
2.3199999999999901
 43
2.3199999999999981
 50
90.0
  0
LINE
  5
155BB
  8
DANMEN
  6
CONTINUOUS
 10
340.37405566587182
 20
314.47709298101961
 30
0.0
 11
340.37405566587182
 21
303.62709298101947
 31
0.0
  0
LINE
  5
155BC
  8
DANMEN
  6
CONTINUOUS
 10
338.72405566587162
 20
319.9770929810195
 30
0.0
 11
338.72405566587162
 21
302.47709298101961
 31
0.0
  0
INSERT
  5
155BD
  8
SUNPO
  6
CONTINUOUS
  2
_DOTSMALL
 10
333.2240556658719
 20
299.47709298101961
 30
0.0
 41
2.3199999999999901
 42
2.3199999999999901
 43
2.3199999999999981
 50
270.0
  0
ARC
  5
155BE
  8
DANMEN
  6
CONTINUOUS
 10
339.2240556658719
 20
302.47709298101961
 30
0.0
 40
0.5
 50
180.0
 51
270.0
  0
LINE
  5
155BF
  8
DANMEN
  6
CONTINUOUS
 10
340.75605566587183
 20
322.97409298101962
 30
0.0
 11
346.69205566587198
 21
322.97409298101962
 31
0.0
  0
LINE
  5
155C0
  8
DANMEN
  6
CONTINUOUS
 10
347.10005566587182
 20
324.4720929810195
 30
0.0
 11
340.34805566587193
 21
324.4720929810195
 31
0.0
  0
LINE
  5
155C1
  8
DANMEN
  6
CONTINUOUS
 10
347.7240556658719
 20
321.47709298101961
 30
0.0
 11
339.7240556658719
 21
321.47709298101961
 31
0.0
  0
LINE
  5
155C2
  8
DANMEN
  6
CONTINUOUS
 10
345.22405566587162
 20
316.47709298101961
 30
0.0
 11
342.2240556658719
 21
316.47709298101961
 31
0.0
  0
LINE
  5
155C3
  8
DANMEN
  6
CONTINUOUS
 10
339.2240556658719
 20
324.47709298101961
 30
0.0
 11
350.7240556658719
 21
324.47709298101961
 31
0.0
  0
LINE
  5
155C4
  8
DANMEN
  6
CONTINUOUS
 10
340.72405566587162
 20
326.47709298101961
 30
0.0
 11
345.22405566587162
 21
326.47709298101961
 31
0.0
  0
LINE
  5
155C5
  8
DANMEN
  6
CONTINUOUS
 10
340.37405566587182
 20
314.47709298101961
 30
0.0
 11
348.2240556658719
 21
314.47709298101961
 31
0.0
  0
LINE
  5
155C6
  8
DANMEN
  6
CONTINUOUS
 10
340.37405566587182
 20
316.12709298101947
 30
0.0
 11
347.42405566587189
 21
316.12709298101947
 31
0.0
  0
ARC
  5
155C7
  8
DANMEN
  6
CONTINUOUS
 10
340.26105566587182
 20
322.92809298101957
 30
0.0
 40
1.5469999999999959
 50
86.754999999999328
 51
249.6979999999989
  0
LINE
  5
155C8
  8
DANMEN
  6
CONTINUOUS
 10
342.2240556658719
 20
316.47709298101961
 30
0.0
 11
341.00705566587192
 21
318.60309298101959
 31
0.0
  0
ARC
  5
155C9
  8
DANMEN
  6
CONTINUOUS
 10
343.7240556658719
 20
318.37709298101947
 30
0.0
 40
0.9
 50
180.0
 51
0.0
  0
LINE
  5
155CA
  8
DANMEN
  6
CONTINUOUS
 10
340.37405566587182
 20
319.47709298101961
 30
0.0
 11
340.37405566587182
 21
316.12709298101947
 31
0.0
  0
LINE
  5
155CB
  8
DANMEN
  6
CONTINUOUS
 10
341.2240556658719
 20
321.47709298101961
 30
0.0
 11
340.5100556658719
 21
322.50309298101962
 31
0.0
  0
LINE
  5
155CC
  8
DANMEN
  6
CONTINUOUS
 10
341.7240556658719
 20
320.47709298101961
 30
0.0
 11
339.7240556658719
 21
320.47709298101961
 31
0.0
  0
ARC
  5
155CD
  8
DANMEN
  6
CONTINUOUS
 10
341.2240556658719
 20
318.72709298101961
 30
0.0
 40
0.25
 50
60.000000000000277
 51
209.79000000000079
  0
LINE
  5
155CE
  8
DANMEN
  6
CONTINUOUS
 10
339.2240556658719
 20
320.47709298101961
 30
0.0
 11
341.2240556658719
 21
320.47709298101961
 31
0.0
  0
LINE
  5
155CF
  8
DANMEN
  6
CONTINUOUS
 10
340.37405566587182
 20
319.47709298101961
 30
0.0
 11
341.7240556658719
 21
319.47709298101961
 31
0.0
  0
ARC
  5
155D0
  8
DANMEN
  6
CONTINUOUS
 10
340.75605566587183
 20
322.67409298101961
 30
0.0
 40
0.3
 50
90.0
 51
214.84900000000059
  0
LINE
  5
155D1
  8
DANMEN
  6
CONTINUOUS
 10
339.7240556658719
 20
321.47709298101961
 30
0.0
 11
339.7240556658719
 21
320.47709298101961
 31
0.0
  0
ARC
  5
155D2
  8
DANMEN
  6
CONTINUOUS
 10
339.2240556658719
 20
319.9770929810195
 30
0.0
 40
0.5
 50
90.0
 51
180.0
  0
LINE
  5
155D3
  8
DANMEN
  6
CONTINUOUS
 10
341.7240556658719
 20
318.72709298101961
 30
0.0
 11
341.3490556658719
 21
318.94409298101959
 31
0.0
  0
ARC
  5
155D4
  8
DANMEN
  6
CONTINUOUS
 10
343.7240556658719
 20
319.57709298101958
 30
0.0
 40
0.9
 50
0.0
 51
180.0
  0
LINE
  5
155D5
  8
DANMEN
  6
CONTINUOUS
 10
344.62405566587182
 20
319.57709298101958
 30
0.0
 11
344.62405566587182
 21
318.37709298101947
 31
0.0
  0
LINE
  5
155D6
  8
DANMEN
  6
CONTINUOUS
 10
342.82405566587192
 20
319.57709298101958
 30
0.0
 11
342.82405566587192
 21
318.37709298101947
 31
0.0
  0
LINE
  5
155D7
  8
DANMEN
  6
CONTINUOUS
 10
341.7240556658719
 20
320.47709298101961
 30
0.0
 11
341.7240556658719
 21
318.72709298101961
 31
0.0
  0
LINE
  5
155D8
  8
DANMEN
  6
CONTINUOUS
 10
341.7240556658719
 20
319.9770929810195
 30
0.0
 11
341.7240556658719
 21
319.47709298101961
 31
0.0
  0
ARC
  5
155D9
  8
DANMEN
  6
CONTINUOUS
 10
341.2240556658719
 20
319.9770929810195
 30
0.0
 40
0.5
 50
0.0
 51
90.0
  0
ARC
  5
155DA
  8
DANMEN
  6
CONTINUOUS
 10
339.2240556658719
 20
324.97709298101961
 30
0.0
 40
0.5
 50
180.0
 51
270.0
  0
ARC
  5
155DB
  8
DANMEN
  6
CONTINUOUS
 10
347.18705566587198
 20
322.92809298101957
 30
0.0
 40
1.5469999999999959
 50
290.3019999999994
 51
93.245000000000644
  0
LINE
  5
155DC
  8
DANMEN
  6
CONTINUOUS
 10
345.22405566587162
 20
316.47709298101961
 30
0.0
 11
346.44105566587189
 21
318.60309298101959
 31
0.0
  0
LINE
  5
155DD
  8
DANMEN
  6
CONTINUOUS
 10
348.7240556658719
 20
319.9770929810195
 30
0.0
 11
348.7240556658719
 21
314.97709298101961
 31
0.0
  0
LINE
  5
155DE
  8
DANMEN
  6
CONTINUOUS
 10
347.42405566587189
 20
319.47709298101961
 30
0.0
 11
347.42405566587189
 21
316.12709298101947
 31
0.0
  0
ARC
  5
155DF
  8
DANMEN
  6
CONTINUOUS
 10
348.2240556658719
 20
314.97709298101961
 30
0.0
 40
0.5
 50
270.0
 51
0.0
  0
LINE
  5
155E0
  8
DANMEN
  6
CONTINUOUS
 10
346.9380556658719
 20
322.50309298101962
 30
0.0
 11
346.2240556658719
 21
321.47709298101961
 31
0.0
  0
LINE
  5
155E1
  8
DANMEN
  6
CONTINUOUS
 10
345.7240556658719
 20
320.47709298101961
 30
0.0
 11
347.7240556658719
 21
320.47709298101961
 31
0.0
  0
ARC
  5
155E2
  8
DANMEN
  6
CONTINUOUS
 10
346.69205566587198
 20
322.67409298101961
 30
0.0
 40
0.3
 50
325.1509999999991
 51
90.0
  0
ARC
  5
155E3
  8
DANMEN
  6
CONTINUOUS
 10
346.2240556658719
 20
318.72709298101961
 30
0.0
 40
0.25
 50
330.2099999999989
 51
119.9999999999997
  0
LINE
  5
155E4
  8
DANMEN
  6
CONTINUOUS
 10
347.7240556658719
 20
321.47709298101961
 30
0.0
 11
347.7240556658719
 21
320.47709298101961
 31
0.0
  0
LINE
  5
155E5
  8
DANMEN
  6
CONTINUOUS
 10
345.7240556658719
 20
318.72709298101961
 30
0.0
 11
346.09905566587162
 21
318.94409298101959
 31
0.0
  0
LINE
  5
155E6
  8
DANMEN
  6
CONTINUOUS
 10
345.7240556658719
 20
320.47709298101961
 30
0.0
 11
345.7240556658719
 21
318.72709298101961
 31
0.0
  0
LINE
  5
155E7
  8
DANMEN
  6
CONTINUOUS
 10
345.7240556658719
 20
319.9770929810195
 30
0.0
 11
345.7240556658719
 21
319.47709298101961
 31
0.0
  0
ARC
  5
155E8
  8
DANMEN
  6
CONTINUOUS
 10
348.2240556658719
 20
319.9770929810195
 30
0.0
 40
0.5
 50
0.0
 51
90.0
  0
LINE
  5
155E9
  8
DANMEN
  6
CONTINUOUS
 10
346.2240556658719
 20
320.47709298101961
 30
0.0
 11
348.2240556658719
 21
320.47709298101961
 31
0.0
  0
LINE
  5
155EA
  8
DANMEN
  6
CONTINUOUS
 10
345.7240556658719
 20
319.47709298101961
 30
0.0
 11
347.42405566587189
 21
319.47709298101961
 31
0.0
  0
ARC
  5
155EB
  8
DANMEN
  6
CONTINUOUS
 10
346.2240556658719
 20
319.9770929810195
 30
0.0
 40
0.5
 50
90.0
 51
180.0
  0
LINE
  5
155EC
  8
DANMEN
  6
CONTINUOUS
 10
346.72405566587162
 20
326.47709298101961
 30
0.0
 11
349.22405566587162
 21
326.47709298101961
 31
0.0
  0
LINE
  5
155ED
  8
DANMEN
  6
CONTINUOUS
 10
346.72405566587162
 20
326.47709298101961
 30
0.0
 11
346.72405566587162
 21
327.97709298101961
 31
0.0
  0
LINE
  5
155EE
  8
DANMEN
  6
CONTINUOUS
 10
345.22405566587162
 20
326.47709298101961
 30
0.0
 11
345.22405566587162
 21
327.97709298101961
 31
0.0
  0
LINE
  5
155EF
  8
DANMEN
  6
CONTINUOUS
 10
346.2240556658719
 20
328.47709298101961
 30
0.0
 11
345.7240556658719
 21
328.47709298101961
 31
0.0
  0
ARC
  5
155F0
  8
DANMEN
  6
CONTINUOUS
 10
346.2240556658719
 20
327.97709298101961
 30
0.0
 40
0.5
 50
0.0
 51
90.0
  0
ARC
  5
155F1
  8
DANMEN
  6
CONTINUOUS
 10
345.7240556658719
 20
327.97709298101961
 30
0.0
 40
0.5
 50
90.0
 51
180.0
  0
ARC
  5
155F2
  8
DANMEN
  6
CONTINUOUS
 10
350.7240556658719
 20
324.97709298101961
 30
0.0
 40
0.5
 50
270.0
 51
0.0
  0
LINE
  5
155F3
  8
SUNPO
  6
CONTINUOUS
 10
428.22405566587167
 20
269.47709298101961
 30
0.0
 11
413.7240556658719
 21
269.47709298101961
 31
0.0
  0
LINE
  5
155F4
  8
SUNPO
  6
CONTINUOUS
 10
388.7240556658719
 20
299.97709298101961
 30
0.0
 11
388.7240556658719
 21
279.47709298101961
 31
0.0
  0
LINE
  5
155F5
  8
SUNPO
  6
CONTINUOUS
 10
388.7240556658719
 20
299.62709298101947
 30
0.0
 11
388.7240556658719
 21
269.47709298101961
 31
0.0
  0
LINE
  5
155F6
  8
SUNPO
  6
CONTINUOUS
 10
413.7240556658719
 20
298.47709298101961
 30
0.0
 11
413.7240556658719
 21
269.47709298101961
 31
0.0
  0
LINE
  5
155F7
  8
SUNPO
  6
CONTINUOUS
 10
413.7240556658719
 20
298.47709298101961
 30
0.0
 11
413.7240556658719
 21
269.47709298101961
 31
0.0
  0
LINE
  5
155F8
  8
SUNPO
  6
CONTINUOUS
 10
413.7240556658719
 20
269.47709298101961
 30
0.0
 11
388.7240556658719
 21
269.47709298101961
 31
0.0
  0
TEXT
  5
155F9
  8
SUNPO
  6
CONTINUOUS
 10
361.6615556658719
 20
280.47709298101961
 30
0.0
 40
2.5
  1
50
 41
1.1000000000000001
  7
MX_DIMTXSTY_3
  0
INSERT
  5
155FA
  8
SUNPO
  6
CONTINUOUS
  2
_CLOSED
 10
388.7240556658719
 20
269.47709298101961
 30
0.0
 41
7.5
 42
7.5
 43
7.5
  0
INSERT
  5
155FB
  8
SUNPO
  6
CONTINUOUS
  2
_DOTSMALL
 10
388.7240556658719
 20
269.47709298101961
 30
0.0
 41
2.3199999999999901
 42
2.3199999999999901
 43
2.3199999999999981
 50
180.0
  0
INSERT
  5
155FC
  8
SUNPO
  6
CONTINUOUS
  2
_DOTSMALL
 10
388.7240556658719
 20
279.47709298101961
 30
0.0
 41
2.3199999999999901
 42
2.3199999999999901
 43
2.3199999999999981
  0
TEXT
  5
155FD
  8
SUNPO
  6
CONTINUOUS
 10
399.14072233253847
 20
270.47709298101961
 30
0.0
 40
2.5
  1
25
  7
MX_NOTE_STANDARD
  0
TEXT
  5
155FE
  8
SUNPO
  6
CONTINUOUS
 10
416.4740556658719
 20
270.47709298101961
 30
0.0
 40
2.5
  1
14.5
 41
1.3500000000000001
  7
MX_DIMTXSTY_5
  0
INSERT
  5
155FF
  8
SUNPO
  6
CONTINUOUS
  2
_DOTSMALL
 10
413.7240556658719
 20
269.47709298101961
 30
0.0
 41
2.3199999999999901
 42
2.3199999999999901
 43
2.3199999999999981
  0
INSERT
  5
15600
  8
SUNPO
  6
CONTINUOUS
  2
_DOTSMALL
 10
413.7240556658719
 20
269.47709298101961
 30
0.0
 41
2.3199999999999901
 42
2.3199999999999901
 43
2.3199999999999981
 50
180.0
  0
ARC
  5
15601
  8
DANMEN
  6
CONTINUOUS
 10
393.87405566587182
 20
302.62709298101947
 30
0.0
 40
0.5
 50
0.0
 51
90.0
  0
LINE
  5
15602
  8
DANMEN
  6
CONTINUOUS
 10
389.2240556658719
 20
299.47709298101961
 30
0.0
 11
413.2240556658719
 21
299.47709298101961
 31
0.0
  0
LINE
  5
15603
  8
DANMEN
  6
CONTINUOUS
 10
388.7240556658719
 20
299.97709298101961
 30
0.0
 11
388.7240556658719
 21
301.97709298101961
 31
0.0
  0
ARC
  5
15604
  8
DANMEN
  6
CONTINUOUS
 10
389.2240556658719
 20
299.97709298101961
 30
0.0
 40
0.5
 50
180.0
 51
270.0
  0
ARC
  5
15605
  8
DANMEN
  6
CONTINUOUS
 10
393.37405566587188
 20
302.62709298101947
 30
0.0
 40
0.5
 50
90.0
 51
180.0
  0
LINE
  5
15606
  8
DANMEN
  6
CONTINUOUS
 10
393.37405566587188
 20
303.12709298101959
 30
0.0
 11
393.87405566587182
 21
303.12709298101959
 31
0.0
  0
LINE
  5
15607
  8
DANMEN
  6
CONTINUOUS
 10
392.87405566587182
 20
302.62709298101947
 30
0.0
 11
392.87405566587182
 21
301.12709298101959
 31
0.0
  0
LINE
  5
15608
  8
DANMEN
  6
CONTINUOUS
 10
390.37405566587182
 20
301.12709298101959
 30
0.0
 11
392.87405566587182
 21
301.12709298101959
 31
0.0
  0
LINE
  5
15609
  8
DANMEN
  6
CONTINUOUS
 10
405.7240556658719
 20
301.12709298101959
 30
0.0
 11
412.07405566587192
 21
301.12709298101959
 31
0.0
  0
LINE
  5
1560A
  8
DANMEN
  6
CONTINUOUS
 10
394.37405566587182
 20
301.12709298101959
 30
0.0
 11
404.07405566587192
 21
301.12709298101959
 31
0.0
  0
LINE
  5
1560B
  8
DANMEN
  6
CONTINUOUS
 10
394.37405566587182
 20
302.62709298101947
 30
0.0
 11
394.37405566587182
 21
301.12709298101959
 31
0.0
  0
LINE
  5
1560C
  8
DANMEN
  6
CONTINUOUS
 10
413.7240556658719
 20
307.4770929810195
 30
0.0
 11
413.7240556658719
 21
299.97709298101961
 31
0.0
  0
ARC
  5
1560D
  8
DANMEN
  6
CONTINUOUS
 10
413.2240556658719
 20
299.97709298101961
 30
0.0
 40
0.5
 50
270.0
 51
0.0
  0
LINE
  5
1560E
  8
DANMEN
  6
CONTINUOUS
 10
412.07405566587192
 20
307.4770929810195
 30
0.0
 11
412.07405566587192
 21
301.12709298101959
 31
0.0
  0
LINE
  5
1560F
  8
DANMEN
  6
CONTINUOUS
 10
412.57405566587192
 20
307.97709298101961
 30
0.0
 11
413.2240556658719
 21
307.97709298101961
 31
0.0
  0
ARC
  5
15610
  8
DANMEN
  6
CONTINUOUS
 10
413.2240556658719
 20
307.4770929810195
 30
0.0
 40
0.5
 50
0.0
 51
90.0
  0
ARC
  5
15611
  8
DANMEN
  6
CONTINUOUS
 10
412.57405566587192
 20
307.4770929810195
 30
0.0
 40
0.5
 50
90.0
 51
180.0
  0
INSERT
  5
15612
  8
SUNPO
  6
CONTINUOUS
  2
_DOTSMALL
 10
428.22405566587167
 20
269.47709298101961
 30
0.0
 41
2.3199999999999901
 42
2.3199999999999901
 43
2.3199999999999981
  0
LINE
  5
15613
  8
DANMEN
  6
CONTINUOUS
 10
377.2240556658719
 20
371.47709298101961
 30
0.0
 11
339.2240556658719
 21
371.47709298101961
 31
0.0
  0
LINE
  5
15614
  8
DANMEN
  6
CONTINUOUS
 10
351.22405566587162
 20
369.47709298101961
 30
0.0
 11
383.2240556658719
 21
369.47709298101961
 31
0.0
  0
LINE
  5
15615
  8
DANMEN
  6
CONTINUOUS
 10
351.22405566587162
 20
365.47709298101961
 30
0.0
 11
376.7240556658719
 21
365.47709298101961
 31
0.0
  0
LINE
  5
15616
  8
DANMEN
  6
CONTINUOUS
 10
319.72405566587162
 20
389.47709298101961
 30
0.0
 11
363.72405566587162
 21
389.47709298101961
 31
0.0
  0
LINE
  5
15617
  8
DANMEN
  6
CONTINUOUS
 10
319.72405566587162
 20
377.47709298101961
 30
0.0
 11
373.7240556658719
 21
377.47709298101961
 31
0.0
  0
LINE
  5
15618
  8
DANMEN
  6
CONTINUOUS
 10
319.72405566587162
 20
378.47709298101961
 30
0.0
 11
373.7240556658719
 21
378.47709298101961
 31
0.0
  0
LINE
  5
15619
  8
DANMEN
  6
CONTINUOUS
 10
319.72405566587162
 20
382.4770929810195
 30
0.0
 11
373.7240556658719
 21
382.4770929810195
 31
0.0
  0
LINE
  5
1561A
  8
DANMEN
  6
CONTINUOUS
 10
319.72405566587162
 20
383.47709298101961
 30
0.0
 11
373.7240556658719
 21
383.47709298101961
 31
0.0
  0
LINE
  5
1561B
  8
DANMEN
  6
CONTINUOUS
 10
388.7240556658719
 20
399.47709298101961
 30
0.0
 11
319.72405566587162
 21
399.47709298101961
 31
0.0
  0
LINE
  5
1561C
  8
DANMEN
  6
CONTINUOUS
 10
292.18005566587192
 20
371.47709298101961
 30
0.0
 11
296.4330556658719
 21
375.73009298101931
 31
0.0
  0
LINE
  5
1561D
  8
DANMEN
  6
CONTINUOUS
 10
295.00805566587172
 20
371.47709298101961
 30
0.0
 11
295.86705566587182
 21
372.33609298101931
 31
0.0
  0
LINE
  5
1561E
  8
DANMEN
  6
CONTINUOUS
 10
296.50705566587192
 20
376.17409298101961
 30
0.0
 11
295.20405566587192
 21
377.47709298101961
 31
0.0
  0
LINE
  5
1561F
  8
DANMEN
  6
CONTINUOUS
 10
296.10305566587192
 20
373.75009298101952
 30
0.0
 11
292.37605566587172
 21
377.47709298101961
 31
0.0
  0
LINE
  5
15620
  8
DANMEN
  6
CONTINUOUS
 10
314.7240556658719
 20
383.47709298101961
 30
0.0
 11
260.7240556658719
 21
383.47709298101961
 31
0.0
  0
LINE
  5
15621
  8
DANMEN
  6
CONTINUOUS
 10
314.7240556658719
 20
382.4770929810195
 30
0.0
 11
260.7240556658719
 21
382.4770929810195
 31
0.0
  0
LINE
  5
15622
  8
DANMEN
  6
CONTINUOUS
 10
314.7240556658719
 20
378.47709298101961
 30
0.0
 11
260.7240556658719
 21
378.47709298101961
 31
0.0
  0
LINE
  5
15623
  8
DANMEN
  6
CONTINUOUS
 10
314.7240556658719
 20
377.47709298101961
 30
0.0
 11
260.7240556658719
 21
377.47709298101961
 31
0.0
  0
LINE
  5
15624
  8
DANMEN
  6
CONTINUOUS
 10
314.7240556658719
 20
389.47709298101961
 30
0.0
 11
270.7240556658719
 21
389.47709298101961
 31
0.0
  0
LINE
  5
15625
  8
DANMEN
  6
CONTINUOUS
 10
245.72405566587159
 20
399.47709298101961
 30
0.0
 11
314.7240556658719
 21
399.47709298101961
 31
0.0
  0
LINE
  5
15626
  8
DANMEN
  6
CONTINUOUS
 10
287.2240556658719
 20
371.47709298101961
 30
0.0
 11
314.7240556658719
 21
371.47709298101961
 31
0.0
  0
LINE
  5
15627
  8
DANMEN
  6
CONTINUOUS
 10
295.7240556658719
 20
371.47709298101961
 30
0.0
 11
296.7240556658719
 21
377.47709298101961
 31
0.0
  0
LINE
  5
15628
  8
SUNPO
  6
CONTINUOUS
 10
272.2240556658715
 20
391.47709298101961
 30
0.0
 11
303.22405566587162
 21
391.47709298101961
 31
0.0
  0
LINE
  5
15629
  8
DANMEN
  6
CONTINUOUS
 10
254.7240556658717
 20
378.97709298101961
 30
0.0
 11
254.7240556658717
 21
383.47709298101961
 31
0.0
  0
LINE
  5
1562A
  8
DANMEN
  6
CONTINUOUS
 10
253.2240556658717
 20
378.47709298101961
 30
0.0
 11
253.2240556658717
 21
383.47709298101961
 31
0.0
  0
LINE
  5
1562B
  8
DANMEN
  6
CONTINUOUS
 10
245.72405566587159
 20
360.12709298101947
 30
0.0
 11
245.72405566587159
 21
398.9770929810195
 31
0.0
  0
LINE
  5
1562C
  8
DANMEN
  6
CONTINUOUS
 10
244.0740556658719
 20
344.47709298101961
 30
0.0
 11
244.0740556658719
 21
397.82709298101952
 31
0.0
  0
LINE
  5
1562D
  8
DANMEN
  6
CONTINUOUS
 10
252.7240556658717
 20
371.47709298101961
 30
0.0
 11
252.7240556658717
 21
385.97709298101961
 31
0.0
  0
LINE
  5
1562E
  8
DANMEN
  6
CONTINUOUS
 10
250.7240556658717
 20
369.9770929810195
 30
0.0
 11
250.7240556658717
 21
386.97709298101961
 31
0.0
  0
LINE
  5
1562F
  8
DANMEN
  6
CONTINUOUS
 10
260.7240556658719
 20
377.47709298101961
 30
0.0
 11
260.7240556658719
 21
383.47709298101961
 31
0.0
  0
LINE
  5
15630
  8
DANMEN
  6
CONTINUOUS
 10
257.2240556658715
 20
371.47709298101961
 30
0.0
 11
295.22405566587162
 21
371.47709298101961
 31
0.0
  0
LINE
  5
15631
  8
DANMEN
  6
CONTINUOUS
 10
283.2240556658719
 20
369.47709298101961
 30
0.0
 11
251.2240556658717
 21
369.47709298101961
 31
0.0
  0
LINE
  5
15632
  8
DANMEN
  6
CONTINUOUS
 10
283.2240556658719
 20
365.47709298101961
 30
0.0
 11
257.7240556658715
 21
365.47709298101961
 31
0.0
  0
LINE
  5
15633
  8
DANMEN
  6
CONTINUOUS
 10
240.07405566587181
 20
342.82709298101958
 30
0.0
 11
230.37405566587191
 21
342.82709298101958
 31
0.0
  0
ARC
  5
15634
  8
DANMEN
  6
CONTINUOUS
 10
241.0740556658719
 20
341.32709298101958
 30
0.0
 40
0.5
 50
270.0
 51
0.0
  0
ARC
  5
15635
  8
DANMEN
  6
CONTINUOUS
 10
240.5740556658717
 20
341.32709298101958
 30
0.0
 40
0.5
 50
180.0
 51
270.0
  0
LINE
  5
15636
  8
DANMEN
  6
CONTINUOUS
 10
244.0740556658719
 20
342.82709298101958
 30
0.0
 11
241.5740556658719
 21
342.82709298101958
 31
0.0
  0
LINE
  5
15637
  8
DANMEN
  6
CONTINUOUS
 10
241.5740556658719
 20
341.32709298101958
 30
0.0
 11
241.5740556658719
 21
342.82709298101958
 31
0.0
  0
LINE
  5
15638
  8
DANMEN
  6
CONTINUOUS
 10
240.07405566587181
 20
341.32709298101958
 30
0.0
 11
240.07405566587181
 21
342.82709298101958
 31
0.0
  0
LINE
  5
15639
  8
DANMEN
  6
CONTINUOUS
 10
241.0740556658719
 20
340.82709298101958
 30
0.0
 11
240.5740556658717
 21
340.82709298101958
 31
0.0
  0
LINE
  5
1563A
  8
DANMEN
  6
CONTINUOUS
 10
247.7240556658717
 20
360.12709298101947
 30
0.0
 11
245.72405566587159
 21
360.12709298101947
 31
0.0
  0
LINE
  5
1563B
  8
DANMEN
  6
CONTINUOUS
 10
257.2240556658715
 20
358.47709298101961
 30
0.0
 11
245.72405566587159
 21
358.47709298101961
 31
0.0
  0
LINE
  5
1563C
  8
DANMEN
  6
CONTINUOUS
 10
247.7240556658717
 20
365.47709298101961
 30
0.0
 11
245.72405566587159
 21
365.47709298101961
 31
0.0
  0
ARC
  5
1563D
  8
DANMEN
  6
CONTINUOUS
 10
250.12405566587171
 20
370.07709298101952
 30
0.0
 40
0.4
 50
75.159000000000191
 51
255.15899999999999
  0
LINE
  5
1563E
  8
DANMEN
  6
CONTINUOUS
 10
256.20305566587172
 20
368.6150929810193
 30
0.0
 11
250.22605566587171
 21
370.46409298101952
 31
0.0
  0
ARC
  5
1563F
  8
DANMEN
  6
CONTINUOUS
 10
251.2240556658717
 20
369.9770929810195
 30
0.0
 40
0.5
 50
180.0
 51
270.0
  0
LINE
  5
15640
  8
DANMEN
  6
CONTINUOUS
 10
248.7240556658717
 20
366.77709298101951
 30
0.0
 11
255.12405566587171
 21
366.77709298101951
 31
0.0
  0
LINE
  5
15641
  8
DANMEN
  6
CONTINUOUS
 10
255.31205566587181
 20
367.94709298101952
 30
0.0
 11
250.0220556658717
 21
369.69009298101952
 31
0.0
  0
LINE
  5
15642
  8
DANMEN
  6
CONTINUOUS
 10
256.7240556658719
 20
365.47709298101961
 30
0.0
 11
254.47405566587159
 21
365.47709298101961
 31
0.0
  0
LINE
  5
15643
  8
DANMEN
  6
CONTINUOUS
 10
255.17405566587169
 20
363.97709298101961
 30
0.0
 11
254.77405566587171
 21
363.97709298101961
 31
0.0
  0
LINE
  5
15644
  8
DANMEN
  6
CONTINUOUS
 10
253.9740556658717
 20
361.17709298101931
 30
0.0
 11
255.4040556658716
 21
363.48509298101959
 31
0.0
  0
LINE
  5
15645
  8
DANMEN
  6
CONTINUOUS
 10
256.42405566587172
 20
360.12709298101947
 30
0.0
 11
249.0240556658718
 21
360.12709298101947
 31
0.0
  0
LINE
  5
15646
  8
DANMEN
  6
CONTINUOUS
 10
256.42405566587172
 20
364.47709298101961
 30
0.0
 11
254.7240556658717
 21
364.47709298101961
 31
0.0
  0
ARC
  5
15647
  8
DANMEN
  6
CONTINUOUS
 10
255.2240556658717
 20
364.97709298101961
 30
0.0
 40
0.5
 50
90.0
 51
180.0
  0
LINE
  5
15648
  8
DANMEN
  6
CONTINUOUS
 10
251.97405566587159
 20
362.67709298101931
 30
0.0
 11
251.97405566587159
 21
365.17709298101931
 31
0.0
  0
LINE
  5
15649
  8
DANMEN
  6
CONTINUOUS
 10
253.4740556658717
 20
365.17709298101931
 30
0.0
 11
253.4740556658717
 21
362.67709298101931
 31
0.0
  0
ARC
  5
1564A
  8
DANMEN
  6
CONTINUOUS
 10
250.27405566587171
 20
363.6770929810196
 30
0.0
 40
0.3
 50
90.0
 51
219.91100000000031
  0
ARC
  5
1564B
  8
DANMEN
  6
CONTINUOUS
 10
250.67405566587169
 20
364.27709298101951
 30
0.0
 40
0.3
 50
270.0
 51
0.0
  0
ARC
  5
1564C
  8
DANMEN
  6
CONTINUOUS
 10
254.77405566587171
 20
364.27709298101951
 30
0.0
 40
0.3
 50
180.0
 51
270.0
  0
LINE
  5
1564D
  8
DANMEN
  6
CONTINUOUS
 10
247.7240556658717
 20
364.97709298101961
 30
0.0
 11
247.7240556658717
 21
360.12709298101947
 31
0.0
  0
LINE
  5
1564E
  8
DANMEN
  6
CONTINUOUS
 10
249.0240556658718
 20
364.47709298101961
 30
0.0
 11
249.0240556658718
 21
360.12709298101947
 31
0.0
  0
LINE
  5
1564F
  8
DANMEN
  6
CONTINUOUS
 10
251.4740556658717
 20
361.17709298101931
 30
0.0
 11
250.04405566587181
 21
363.48509298101959
 31
0.0
  0
LINE
  5
15650
  8
DANMEN
  6
CONTINUOUS
 10
250.67405566587169
 20
363.97709298101961
 30
0.0
 11
250.27405566587171
 21
363.97709298101961
 31
0.0
  0
LINE
  5
15651
  8
DANMEN
  6
CONTINUOUS
 10
253.94705566587169
 20
361.17709298101931
 30
0.0
 11
254.01805566587191
 21
361.24809298101951
 31
0.0
  0
ARC
  5
15652
  8
DANMEN
  6
CONTINUOUS
 10
252.27405566587171
 20
362.67709298101931
 30
0.0
 40
0.3
 50
180.0
 51
270.0
  0
ARC
  5
15653
  8
DANMEN
  6
CONTINUOUS
 10
253.17405566587169
 20
362.67709298101931
 30
0.0
 40
0.3
 50
270.0
 51
0.0
  0
LINE
  5
15654
  8
DANMEN
  6
CONTINUOUS
 10
253.17405566587169
 20
362.3770929810193
 30
0.0
 11
252.27405566587171
 21
362.3770929810193
 31
0.0
  0
LINE
  5
15655
  8
DANMEN
  6
CONTINUOUS
 10
253.9740556658717
 20
361.17709298101931
 30
0.0
 11
251.4740556658717
 21
361.17709298101931
 31
0.0
  0
LINE
  5
15656
  8
DANMEN
  6
CONTINUOUS
 10
250.9740556658717
 20
365.47709298101961
 30
0.0
 11
248.7240556658717
 21
365.47709298101961
 31
0.0
  0
ARC
  5
15657
  8
DANMEN
  6
CONTINUOUS
 10
250.22405566587159
 20
364.97709298101961
 30
0.0
 40
0.5
 50
0.0
 51
90.0
  0
LINE
  5
15658
  8
DANMEN
  6
CONTINUOUS
 10
248.7240556658717
 20
366.77709298101951
 30
0.0
 11
248.7240556658717
 21
365.47709298101961
 31
0.0
  0
LINE
  5
15659
  8
DANMEN
  6
CONTINUOUS
 10
250.7240556658717
 20
364.97709298101961
 30
0.0
 11
250.7240556658717
 21
364.47709298101961
 31
0.0
  0
LINE
  5
1565A
  8
DANMEN
  6
CONTINUOUS
 10
250.22405566587159
 20
365.47709298101961
 30
0.0
 11
248.22405566587159
 21
365.47709298101961
 31
0.0
  0
LINE
  5
1565B
  8
DANMEN
  6
CONTINUOUS
 10
250.7240556658717
 20
364.47709298101961
 30
0.0
 11
249.0240556658718
 21
364.47709298101961
 31
0.0
  0
ARC
  5
1565C
  8
DANMEN
  6
CONTINUOUS
 10
248.22405566587159
 20
364.97709298101961
 30
0.0
 40
0.5
 50
90.0
 51
180.0
  0
ARC
  5
1565D
  8
DANMEN
  6
CONTINUOUS
 10
252.27405566587171
 20
365.17709298101931
 30
0.0
 40
0.3
 50
90.0
 51
180.0
  0
LINE
  5
1565E
  8
DANMEN
  6
CONTINUOUS
 10
253.17405566587169
 20
365.47709298101961
 30
0.0
 11
252.27405566587171
 21
365.47709298101961
 31
0.0
  0
ARC
  5
1565F
  8
DANMEN
  6
CONTINUOUS
 10
253.17405566587169
 20
365.17709298101931
 30
0.0
 40
0.3
 50
0.0
 51
90.0
  0
LINE
  5
15660
  8
DANMEN
  6
CONTINUOUS
 10
250.9740556658717
 20
364.27709298101951
 30
0.0
 11
250.9740556658717
 21
365.47709298101961
 31
0.0
  0
LINE
  5
15661
  8
DANMEN
  6
CONTINUOUS
 10
254.47405566587159
 20
364.27709298101951
 30
0.0
 11
254.47405566587159
 21
365.47709298101961
 31
0.0
  0
LINE
  5
15662
  8
DANMEN
  6
CONTINUOUS
 10
254.7240556658717
 20
364.97709298101961
 30
0.0
 11
254.7240556658717
 21
364.47709298101961
 31
0.0
  0
ARC
  5
15663
  8
DANMEN
  6
CONTINUOUS
 10
255.17405566587169
 20
363.6770929810196
 30
0.0
 40
0.3
 50
320.08899999999983
 51
90.0
  0
LINE
  5
15664
  8
DANMEN
  6
CONTINUOUS
 10
257.7240556658715
 20
364.97709298101961
 30
0.0
 11
257.7240556658715
 21
358.97709298101961
 31
0.0
  0
LINE
  5
15665
  8
DANMEN
  6
CONTINUOUS
 10
256.42405566587172
 20
364.47709298101961
 30
0.0
 11
256.42405566587172
 21
360.12709298101947
 31
0.0
  0
ARC
  5
15666
  8
DANMEN
  6
CONTINUOUS
 10
257.2240556658715
 20
358.97709298101961
 30
0.0
 40
0.5
 50
270.0
 51
0.0
  0
ARC
  5
15667
  8
DANMEN
  6
CONTINUOUS
 10
255.12405566587171
 20
367.37709298101959
 30
0.0
 40
0.6
 50
270.0
 51
71.758999999999929
  0
ARC
  5
15668
  8
DANMEN
  6
CONTINUOUS
 10
256.0240556658718
 20
367.93809298101951
 30
0.0
 40
0.7
 50
0.0
 51
75.159000000000191
  0
LINE
  5
15669
  8
DANMEN
  6
CONTINUOUS
 10
256.7240556658719
 20
367.93809298101951
 30
0.0
 11
256.7240556658719
 21
365.47709298101961
 31
0.0
  0
LINE
  5
1566A
  8
DANMEN
  6
CONTINUOUS
 10
257.2240556658715
 20
365.47709298101961
 30
0.0
 11
255.2240556658717
 21
365.47709298101961
 31
0.0
  0
ARC
  5
1566B
  8
DANMEN
  6
CONTINUOUS
 10
257.2240556658715
 20
364.97709298101961
 30
0.0
 40
0.5
 50
0.0
 51
90.0
  0
LINE
  5
1566C
  8
DANMEN
  6
CONTINUOUS
 10
254.7240556658717
 20
378.97709298101961
 30
0.0
 11
255.6160556658717
 21
378.60509298101931
 31
0.0
  0
ARC
  5
1566D
  8
DANMEN
  6
CONTINUOUS
 10
255.09605566587189
 20
373.9770929810195
 30
0.0
 40
0.5
 50
196.69899999999981
 51
270.0
  0
LINE
  5
1566E
  8
DANMEN
  6
CONTINUOUS
 10
252.7240556658717
 20
371.47709298101961
 30
0.0
 11
255.7240556658717
 21
371.47709298101961
 31
0.0
  0
LINE
  5
1566F
  8
DANMEN
  6
CONTINUOUS
 10
254.61705566587159
 20
373.8330929810196
 30
0.0
 11
253.2240556658717
 21
378.47709298101961
 31
0.0
  0
LINE
  5
15670
  8
DANMEN
  6
CONTINUOUS
 10
255.92405566587189
 20
373.9770929810195
 30
0.0
 11
255.92405566587189
 21
378.14409298101953
 31
0.0
  0
LINE
  5
15671
  8
DANMEN
  6
CONTINUOUS
 10
257.2240556658715
 20
377.47709298101961
 30
0.0
 11
257.2240556658715
 21
375.47709298101961
 31
0.0
  0
ARC
  5
15672
  8
DANMEN
  6
CONTINUOUS
 10
255.4240556658718
 20
373.9770929810195
 30
0.0
 40
0.5
 50
270.0
 51
0.0
  0
LINE
  5
15673
  8
DANMEN
  6
CONTINUOUS
 10
255.09605566587189
 20
373.47709298101961
 30
0.0
 11
255.4240556658718
 21
373.47709298101961
 31
0.0
  0
LINE
  5
15674
  8
DANMEN
  6
CONTINUOUS
 10
257.2240556658715
 20
371.47709298101961
 30
0.0
 11
257.2240556658715
 21
374.97709298101961
 31
0.0
  0
LINE
  5
15675
  8
DANMEN
  6
CONTINUOUS
 10
255.7240556658717
 20
371.47709298101961
 30
0.0
 11
255.7240556658717
 21
374.97709298101961
 31
0.0
  0
LINE
  5
15676
  8
DANMEN
  6
CONTINUOUS
 10
256.7240556658719
 20
375.47709298101961
 30
0.0
 11
256.2240556658719
 21
375.47709298101961
 31
0.0
  0
ARC
  5
15677
  8
DANMEN
  6
CONTINUOUS
 10
256.7240556658719
 20
374.97709298101961
 30
0.0
 40
0.5
 50
0.0
 51
90.0
  0
ARC
  5
15678
  8
DANMEN
  6
CONTINUOUS
 10
256.2240556658719
 20
374.97709298101961
 30
0.0
 40
0.5
 50
90.0
 51
180.0
  0
LINE
  5
15679
  8
DANMEN
  6
CONTINUOUS
 10
260.7240556658719
 20
377.47709298101961
 30
0.0
 11
257.2240556658715
 21
377.47709298101961
 31
0.0
  0
ARC
  5
1567A
  8
DANMEN
  6
CONTINUOUS
 10
255.4240556658718
 20
378.14409298101953
 30
0.0
 40
0.5
 50
0.0
 51
67.379999999999612
  0
ARC
  5
1567B
  8
DANMEN
  6
CONTINUOUS
 10
288.22405566587162
 20
367.97709298101961
 30
0.0
 40
0.5
 50
180.0
 51
270.0
  0
LINE
  5
1567C
  8
DANMEN
  6
CONTINUOUS
 10
287.7240556658719
 20
369.47709298101961
 30
0.0
 11
285.2240556658719
 21
369.47709298101961
 31
0.0
  0
LINE
  5
1567D
  8
DANMEN
  6
CONTINUOUS
 10
293.7240556658719
 20
369.47709298101961
 30
0.0
 11
289.2240556658719
 21
369.47709298101961
 31
0.0
  0
ARC
  5
1567E
  8
DANMEN
  6
CONTINUOUS
 10
288.7240556658719
 20
367.97709298101961
 30
0.0
 40
0.5
 50
270.0
 51
0.0
  0
LINE
  5
1567F
  8
DANMEN
  6
CONTINUOUS
 10
288.22405566587162
 20
367.47709298101961
 30
0.0
 11
288.7240556658719
 21
367.47709298101961
 31
0.0
  0
LINE
  5
15680
  8
DANMEN
  6
CONTINUOUS
 10
287.7240556658719
 20
369.47709298101961
 30
0.0
 11
287.7240556658719
 21
367.97709298101961
 31
0.0
  0
LINE
  5
15681
  8
DANMEN
  6
CONTINUOUS
 10
289.2240556658719
 20
369.47709298101961
 30
0.0
 11
289.2240556658719
 21
367.97709298101961
 31
0.0
  0
LINE
  5
15682
  8
DANMEN
  6
CONTINUOUS
 10
295.54705566587182
 20
371.47709298101961
 30
0.0
 11
289.7240556658719
 21
377.30009298101959
 31
0.0
  0
LINE
  5
15683
  8
DANMEN
  6
CONTINUOUS
 10
289.7240556658719
 20
374.67809298101952
 30
0.0
 11
292.52305566587182
 21
377.47709298101961
 31
0.0
  0
LINE
  5
15684
  8
DANMEN
  6
CONTINUOUS
 10
289.7240556658719
 20
371.8500929810196
 30
0.0
 11
295.35105566587191
 21
377.47709298101961
 31
0.0
  0
LINE
  5
15685
  8
DANMEN
  6
CONTINUOUS
 10
289.7240556658719
 20
377.47709298101961
 30
0.0
 11
289.7240556658719
 21
371.47709298101961
 31
0.0
  0
LINE
  5
15686
  8
DANMEN
  6
CONTINUOUS
 10
292.71905566587162
 20
371.47709298101961
 30
0.0
 11
289.7240556658719
 21
374.4720929810195
 31
0.0
  0
LINE
  5
15687
  8
DANMEN
  6
CONTINUOUS
 10
289.89105566587182
 20
371.47709298101961
 30
0.0
 11
289.7240556658719
 21
371.64409298101953
 31
0.0
  0
ARC
  5
15688
  8
DANMEN
  6
CONTINUOUS
 10
295.22405566587162
 20
370.97709298101961
 30
0.0
 40
0.5
 50
0.0
 51
90.0
  0
LINE
  5
15689
  8
DANMEN
  6
CONTINUOUS
 10
251.2240556658717
 20
391.47709298101961
 30
0.0
 11
270.2240556658715
 21
391.47709298101961
 31
0.0
  0
LINE
  5
1568A
  8
DANMEN
  6
CONTINUOUS
 10
257.2240556658715
 20
389.47709298101961
 30
0.0
 11
270.2240556658715
 21
389.47709298101961
 31
0.0
  0
LINE
  5
1568B
  8
SUNPO
  6
CONTINUOUS
 10
260.7240556658719
 20
409.47709298101961
 30
0.0
 11
270.7240556658719
 21
409.47709298101961
 31
0.0
  0
LINE
  5
1568C
  8
SUNPO
  6
CONTINUOUS
 10
250.7240556658717
 20
419.47709298101961
 30
0.0
 11
270.7240556658719
 21
419.47709298101961
 31
0.0
  0
LINE
  5
1568D
  8
SUNPO
  6
CONTINUOUS
 10
260.7240556658719
 20
384.97709298101961
 30
0.0
 11
260.7240556658719
 21
409.47709298101961
 31
0.0
  0
LINE
  5
1568E
  8
SUNPO
  6
CONTINUOUS
 10
250.7240556658717
 20
400.97709298101961
 30
0.0
 11
250.7240556658717
 21
419.47709298101961
 31
0.0
  0
LINE
  5
1568F
  8
SUNPO
  6
CONTINUOUS
 10
245.72405566587159
 20
400.47709298101961
 30
0.0
 11
245.72405566587159
 21
419.47709298101961
 31
0.0
  0
LINE
  5
15690
  8
SUNPO
  6
CONTINUOUS
 10
250.7240556658717
 20
400.97709298101961
 30
0.0
 11
250.7240556658717
 21
419.47709298101961
 31
0.0
  0
LINE
  5
15691
  8
SUNPO
  6
CONTINUOUS
 10
245.72405566587159
 20
400.47709298101961
 30
0.0
 11
245.72405566587159
 21
419.47709298101961
 31
0.0
  0
ARC
  5
15692
  8
DANMEN
  6
CONTINUOUS
 10
245.2240556658717
 20
398.9770929810195
 30
0.0
 40
0.5
 50
0.0
 51
90.0
  0
LINE
  5
15693
  8
DANMEN
  6
CONTINUOUS
 10
250.7240556658717
 20
387.47709298101961
 30
0.0
 11
250.7240556658717
 21
399.47709298101961
 31
0.0
  0
LINE
  5
15694
  8
DANMEN
  6
CONTINUOUS
 10
253.7240556658717
 20
385.57709298101952
 30
0.0
 11
255.2240556658717
 21
384.97709298101961
 31
0.0
  0
LINE
  5
15695
  8
DANMEN
  6
CONTINUOUS
 10
251.2240556658717
 20
389.97709298101961
 30
0.0
 11
255.2240556658717
 21
389.97709298101961
 31
0.0
  0
LINE
  5
15696
  8
DANMEN
  6
CONTINUOUS
 10
254.7240556658717
 20
383.47709298101961
 30
0.0
 11
256.2240556658719
 21
383.47709298101961
 31
0.0
  0
ARC
  5
15697
  8
DANMEN
  6
CONTINUOUS
 10
254.7240556658717
 20
386.97709298101961
 30
0.0
 40
0.5
 50
0.0
 51
90.0
  0
LINE
  5
15698
  8
DANMEN
  6
CONTINUOUS
 10
255.2240556658717
 20
384.97709298101961
 30
0.0
 11
252.7240556658717
 21
385.97709298101961
 31
0.0
  0
ARC
  5
15699
  8
DANMEN
  6
CONTINUOUS
 10
251.2240556658717
 20
386.97709298101961
 30
0.0
 40
0.5
 50
90.0
 51
180.0
  0
LINE
  5
1569A
  8
DANMEN
  6
CONTINUOUS
 10
253.7240556658717
 20
385.57709298101952
 30
0.0
 11
253.2240556658717
 21
383.47709298101961
 31
0.0
  0
ARC
  5
1569B
  8
DANMEN
  6
CONTINUOUS
 10
251.2240556658717
 20
390.97709298101961
 30
0.0
 40
0.5
 50
90.0
 51
180.0
  0
ARC
  5
1569C
  8
DANMEN
  6
CONTINUOUS
 10
251.2240556658717
 20
390.47709298101961
 30
0.0
 40
0.5
 50
180.0
 51
270.0
  0
LINE
  5
1569D
  8
DANMEN
  6
CONTINUOUS
 10
250.7240556658717
 20
390.47709298101961
 30
0.0
 11
250.7240556658717
 21
390.97709298101961
 31
0.0
  0
LINE
  5
1569E
  8
DANMEN
  6
CONTINUOUS
 10
254.7240556658717
 20
387.47709298101961
 30
0.0
 11
251.2240556658717
 21
387.47709298101961
 31
0.0
  0
LINE
  5
1569F
  8
DANMEN
  6
CONTINUOUS
 10
257.2240556658715
 20
384.4770929810195
 30
0.0
 11
257.2240556658715
 21
389.47709298101961
 31
0.0
  0
LINE
  5
156A0
  8
DANMEN
  6
CONTINUOUS
 10
255.2240556658717
 20
386.4770929810195
 30
0.0
 11
255.2240556658717
 21
389.97709298101961
 31
0.0
  0
LINE
  5
156A1
  8
DANMEN
  6
CONTINUOUS
 10
260.7240556658719
 20
383.47709298101961
 30
0.0
 11
257.2240556658715
 21
383.47709298101961
 31
0.0
  0
LINE
  5
156A2
  8
DANMEN
  6
CONTINUOUS
 10
255.2240556658717
 20
386.4770929810195
 30
0.0
 11
255.7240556658717
 21
386.4770929810195
 31
0.0
  0
ARC
  5
156A3
  8
DANMEN
  6
CONTINUOUS
 10
256.2240556658719
 20
384.4770929810195
 30
0.0
 40
1.0
 50
270.0
 51
0.0
  0
LINE
  5
156A4
  8
DANMEN
  6
CONTINUOUS
 10
255.7240556658717
 20
384.97709298101961
 30
0.0
 11
255.7240556658717
 21
386.4770929810195
 31
0.0
  0
LINE
  5
156A5
  8
DANMEN
  6
CONTINUOUS
 10
255.2240556658717
 20
384.97709298101961
 30
0.0
 11
255.7240556658717
 21
384.97709298101961
 31
0.0
  0
LINE
  5
156A6
  8
DANMEN
  6
CONTINUOUS
 10
255.2240556658717
 20
384.97709298101961
 30
0.0
 11
255.2240556658717
 21
386.97709298101961
 31
0.0
  0
LINE
  5
156A7
  8
DANMEN
  6
CONTINUOUS
 10
257.2240556658715
 20
383.47709298101961
 30
0.0
 11
257.2240556658715
 21
384.4770929810195
 31
0.0
  0
LINE
  5
156A8
  8
SUNPO
  6
CONTINUOUS
 10
245.72405566587159
 20
419.47709298101961
 30
0.0
 11
250.7240556658717
 21
419.47709298101961
 31
0.0
  0
INSERT
  5
156A9
  8
SUNPO
  6
CONTINUOUS
  2
_DOTSMALL
 10
245.72405566587159
 20
419.47709298101961
 30
0.0
 41
2.3199999999999901
 42
2.3199999999999901
 43
2.3199999999999981
  0
INSERT
  5
156AA
  8
SUNPO
  6
CONTINUOUS
  2
_DOTSMALL
 10
245.72405566587159
 20
419.47709298101961
 30
0.0
 41
2.3199999999999901
 42
2.3199999999999901
 43
2.3199999999999981
 50
180.0
  0
INSERT
  5
156AB
  8
SUNPO
  6
CONTINUOUS
  2
_DOTSMALL
 10
260.7240556658719
 20
409.47709298101961
 30
0.0
 41
2.3199999999999901
 42
2.3199999999999901
 43
2.3199999999999981
 50
180.0
  0
TEXT
  5
156AC
  8
SUNPO
  6
CONTINUOUS
 10
247.39072233253839
 20
420.47709298101938
 30
0.0
 40
2.5
  1
5
  7
MX_NOTE_STANDARD
  0
INSERT
  5
156AD
  8
SUNPO
  6
CONTINUOUS
  2
_DOTSMALL
 10
250.7240556658717
 20
419.47709298101961
 30
0.0
 41
2.3199999999999901
 42
2.3199999999999901
 43
2.3199999999999981
 50
180.0
  0
INSERT
  5
156AE
  8
SUNPO
  6
CONTINUOUS
  2
_DOTSMALL
 10
250.7240556658717
 20
419.47709298101961
 30
0.0
 41
2.3199999999999901
 42
2.3199999999999901
 43
2.3199999999999981
  0
TEXT
  5
156AF
  8
SUNPO
  6
CONTINUOUS
 10
258.6615556658719
 20
420.47709298101938
 30
0.0
 40
2.5
  1
20
 41
1.1000000000000001
  7
MX_DIMTXSTY_3
  0
LINE
  5
156B0
  8
SUNPO
  6
CONTINUOUS
 10
270.7240556658719
 20
392.4770929810195
 30
0.0
 11
270.7240556658719
 21
419.47709298101961
 31
0.0
  0
LINE
  5
156B1
  8
DANMEN
  6
CONTINUOUS
 10
271.62205566587193
 20
384.08909298101952
 30
0.0
 11
266.23405566587189
 21
389.47709298101961
 31
0.0
  0
LINE
  5
156B2
  8
DANMEN
  6
CONTINUOUS
 10
270.23905566587172
 20
383.47709298101961
 30
0.0
 11
271.51205566587191
 21
384.75009298101952
 31
0.0
  0
LINE
  5
156B3
  8
DANMEN
  6
CONTINUOUS
 10
271.7240556658715
 20
383.47709298101961
 30
0.0
 11
270.7240556658719
 21
389.47709298101961
 31
0.0
  0
LINE
  5
156B4
  8
DANMEN
  6
CONTINUOUS
 10
269.40505566587183
 20
383.47709298101961
 30
0.0
 11
264.7240556658719
 21
388.15809298101959
 31
0.0
  0
LINE
  5
156B5
  8
DANMEN
  6
CONTINUOUS
 10
264.7240556658719
 20
386.44809298101961
 30
0.0
 11
267.7530556658719
 21
389.47709298101961
 31
0.0
  0
LINE
  5
156B6
  8
DANMEN
  6
CONTINUOUS
 10
264.7240556658719
 20
383.61909298101961
 30
0.0
 11
270.58205566587191
 21
389.47709298101961
 31
0.0
  0
LINE
  5
156B7
  8
DANMEN
  6
CONTINUOUS
 10
264.7240556658719
 20
389.47709298101961
 30
0.0
 11
264.7240556658719
 21
383.47709298101961
 31
0.0
  0
LINE
  5
156B8
  8
DANMEN
  6
CONTINUOUS
 10
266.57705566587191
 20
383.47709298101961
 30
0.0
 11
264.7240556658719
 21
385.33009298101962
 31
0.0
  0
LINE
  5
156B9
  8
DANMEN
  6
CONTINUOUS
 10
267.41005566587182
 20
383.47709298101961
 30
0.0
 11
271.1080556658718
 21
387.17409298101961
 31
0.0
  0
LINE
  5
156BA
  8
DANMEN
  6
CONTINUOUS
 10
264.7240556658719
 20
389.2760929810193
 30
0.0
 11
264.92505566587181
 21
389.47709298101961
 31
0.0
  0
LINE
  5
156BB
  8
DANMEN
  6
CONTINUOUS
 10
271.0560556658719
 20
387.48309298101952
 30
0.0
 11
269.06205566587181
 21
389.47709298101961
 31
0.0
  0
ARC
  5
156BC
  8
DANMEN
  6
CONTINUOUS
 10
270.2240556658715
 20
389.97709298101961
 30
0.0
 40
0.5
 50
270.0
 51
0.0
  0
ARC
  5
156BD
  8
DANMEN
  6
CONTINUOUS
 10
270.2240556658715
 20
390.97709298101961
 30
0.0
 40
0.5
 50
0.0
 51
90.0
  0
LINE
  5
156BE
  8
DANMEN
  6
CONTINUOUS
 10
270.7240556658719
 20
389.97709298101961
 30
0.0
 11
270.7240556658719
 21
390.97709298101961
 31
0.0
  0
INSERT
  5
156BF
  8
SUNPO
  6
CONTINUOUS
  2
_DOTSMALL
 10
270.7240556658719
 20
409.47709298101961
 30
0.0
 41
2.3199999999999901
 42
2.3199999999999901
 43
2.3199999999999981
  0
TEXT
  5
156C0
  8
SUNPO
  6
CONTINUOUS
 10
263.7553056658719
 20
410.47709298101961
 30
0.0
 40
2.5
  1
10
 41
1.3500000000000001
  7
MX_DIMTXSTY_5
  0
INSERT
  5
156C1
  8
SUNPO
  6
CONTINUOUS
  2
_DOTSMALL
 10
270.7240556658719
 20
419.47709298101961
 30
0.0
 41
2.3199999999999901
 42
2.3199999999999901
 43
2.3199999999999981
  0
TEXT
  5
156C2
  8
SUNPO
  6
CONTINUOUS
 10
312.2240556658719
 20
378.47709298101961
 30
0.0
 40
2.5
  1
18
 50
90.0
 41
1.1999999999999991
  7
MX_DIMTXSTY_6
  0
LINE
  5
156C3
  8
SUNPO
  6
CONTINUOUS
 10
313.2240556658719
 20
371.47709298101961
 30
0.0
 11
313.2240556658719
 21
389.47709298101961
 31
0.0
  0
LINE
  5
156C4
  8
DANMEN
  6
CONTINUOUS
 10
347.22405566587162
 20
371.47709298101961
 30
0.0
 11
319.72405566587162
 21
371.47709298101961
 31
0.0
  0
TEXT
  5
156C5
  8
SUNPO
  6
CONTINUOUS
 10
312.2240556658719
 20
345.8937596476863
 30
0.0
 40
2.5
  1
47
 50
90.0
  7
MX_NOTE_STANDARD
  0
TEXT
  5
156C6
  8
SUNPO
  6
CONTINUOUS
 10
322.22405566587162
 20
359.89375964768601
 30
0.0
 40
2.5
  1
75
 50
90.0
  7
MX_NOTE_STANDARD
  0
INSERT
  5
156C7
  8
SUNPO
  6
CONTINUOUS
  2
_DOTSMALL
 10
313.2240556658719
 20
371.47709298101961
 30
0.0
 41
2.3199999999999901
 42
2.3199999999999901
 43
2.3199999999999981
 50
90.0
  0
TEXT
  5
156C8
  8
SUNPO
  6
CONTINUOUS
 10
332.22405566587162
 20
346.22709298101961
 30
0.0
 40
2.5
  1
100
 50
90.0
 41
1.3
  7
MX_DIMTXSTY_4
  0
LINE
  5
156C9
  8
DANMEN
  6
CONTINUOUS
 10
340.72405566587162
 20
369.47709298101961
 30
0.0
 11
345.22405566587162
 21
369.47709298101961
 31
0.0
  0
LINE
  5
156CA
  8
DANMEN
  6
CONTINUOUS
 10
344.72405566587162
 20
373.21209298101951
 30
0.0
 11
340.45905566587192
 21
377.47709298101961
 31
0.0
  0
LINE
  5
156CB
  8
DANMEN
  6
CONTINUOUS
 10
343.63105566587183
 20
371.47709298101961
 30
0.0
 11
337.74305566587191
 21
377.3650929810193
 31
0.0
  0
LINE
  5
156CC
  8
DANMEN
  6
CONTINUOUS
 10
338.13605566587188
 20
375.00609298101961
 30
0.0
 11
340.60605566587191
 21
377.47709298101961
 31
0.0
  0
LINE
  5
156CD
  8
DANMEN
  6
CONTINUOUS
 10
338.54005566587182
 20
372.58209298101951
 30
0.0
 11
343.43505566587191
 21
377.47709298101961
 31
0.0
  0
LINE
  5
156CE
  8
DANMEN
  6
CONTINUOUS
 10
340.26305566587172
 20
371.47709298101961
 30
0.0
 11
344.72405566587162
 21
375.93809298101951
 31
0.0
  0
LINE
  5
156CF
  8
DANMEN
  6
CONTINUOUS
 10
338.72405566587162
 20
371.47709298101961
 30
0.0
 11
337.7240556658719
 21
377.47709298101961
 31
0.0
  0
LINE
  5
156D0
  8
DANMEN
  6
CONTINUOUS
 10
344.72405566587162
 20
377.47709298101961
 30
0.0
 11
344.72405566587162
 21
371.47709298101961
 31
0.0
  0
ARC
  5
156D1
  8
DANMEN
  6
CONTINUOUS
 10
339.2240556658719
 20
370.97709298101961
 30
0.0
 40
0.5
 50
90.0
 51
180.0
  0
LINE
  5
156D2
  8
DANMEN
  6
CONTINUOUS
 10
340.80205566587182
 20
371.47709298101961
 30
0.0
 11
338.3080556658719
 21
373.97109298101958
 31
0.0
  0
LINE
  5
156D3
  8
DANMEN
  6
CONTINUOUS
 10
343.0920556658719
 20
371.47709298101961
 30
0.0
 11
344.72405566587162
 21
373.10909298101961
 31
0.0
  0
LINE
  5
156D4
  8
DANMEN
  6
CONTINUOUS
 10
337.73205566587183
 20
377.43109298101962
 30
0.0
 11
337.77805566587182
 21
377.47709298101961
 31
0.0
  0
LINE
  5
156D5
  8
DANMEN
  6
CONTINUOUS
 10
344.72405566587162
 20
376.0400929810196
 30
0.0
 11
343.28705566587172
 21
377.47709298101961
 31
0.0
  0
LINE
  5
156D6
  8
DANMEN
  6
CONTINUOUS
 10
346.72405566587162
 20
369.47709298101961
 30
0.0
 11
349.22405566587162
 21
369.47709298101961
 31
0.0
  0
ARC
  5
156D7
  8
DANMEN
  6
CONTINUOUS
 10
345.7240556658719
 20
367.97709298101961
 30
0.0
 40
0.5
 50
180.0
 51
270.0
  0
ARC
  5
156D8
  8
DANMEN
  6
CONTINUOUS
 10
346.2240556658719
 20
367.97709298101961
 30
0.0
 40
0.5
 50
270.0
 51
0.0
  0
LINE
  5
156D9
  8
DANMEN
  6
CONTINUOUS
 10
346.2240556658719
 20
367.47709298101961
 30
0.0
 11
345.7240556658719
 21
367.47709298101961
 31
0.0
  0
LINE
  5
156DA
  8
DANMEN
  6
CONTINUOUS
 10
346.72405566587162
 20
369.47709298101961
 30
0.0
 11
346.72405566587162
 21
367.97709298101961
 31
0.0
  0
LINE
  5
156DB
  8
DANMEN
  6
CONTINUOUS
 10
345.22405566587162
 20
369.47709298101961
 30
0.0
 11
345.22405566587162
 21
367.97709298101961
 31
0.0
  0
TEXT
  5
156DC
  8
SUNPO
  6
CONTINUOUS
 10
312.2240556658719
 20
392.50834298101961
 30
0.0
 40
2.5
  1
10
 50
90.0
 41
1.3500000000000001
  7
MX_DIMTXSTY_5
  0
TEXT
  5
156DD
  8
SUNPO
  6
CONTINUOUS
 10
302.2240556658719
 20
392.81475964768629
 30
0.0
 40
2.5
  1
2
 50
90.0
  7
MX_NOTE_STANDARD
  0
LINE
  5
156DE
  8
SUNPO
  6
CONTINUOUS
 10
303.22405566587162
 20
394.8980929810196
 30
0.0
 11
303.22405566587162
 21
391.47709298101961
 31
0.0
  0
INSERT
  5
156DF
  8
SUNPO
  6
CONTINUOUS
  2
_DOTSMALL
 10
303.22405566587162
 20
389.47709298101961
 30
0.0
 41
2.3199999999999901
 42
2.3199999999999901
 43
2.3199999999999981
 50
270.0
  0
INSERT
  5
156E0
  8
SUNPO
  6
CONTINUOUS
  2
_DOTSMALL
 10
303.22405566587162
 20
391.47709298101961
 30
0.0
 41
2.3199999999999901
 42
2.3199999999999901
 43
2.3199999999999981
 50
90.0
  0
LINE
  5
156E1
  8
SUNPO
  6
CONTINUOUS
 10
303.22405566587162
 20
391.47709298101961
 30
0.0
 11
303.22405566587162
 21
389.47709298101961
 31
0.0
  0
LINE
  5
156E2
  8
SUNPO
  6
CONTINUOUS
 10
313.2240556658719
 20
389.47709298101961
 30
0.0
 11
313.2240556658719
 21
399.47709298101961
 31
0.0
  0
INSERT
  5
156E3
  8
SUNPO
  6
CONTINUOUS
  2
_DOTSMALL
 10
313.2240556658719
 20
389.47709298101961
 30
0.0
 41
2.3199999999999901
 42
2.3199999999999901
 43
2.3199999999999981
 50
90.0
  0
INSERT
  5
156E4
  8
SUNPO
  6
CONTINUOUS
  2
_DOTSMALL
 10
313.2240556658719
 20
389.47709298101961
 30
0.0
 41
2.3199999999999901
 42
2.3199999999999901
 43
2.3199999999999981
 50
270.0
  0
INSERT
  5
156E5
  8
SUNPO
  6
CONTINUOUS
  2
_DOTSMALL
 10
313.2240556658719
 20
399.47709298101961
 30
0.0
 41
2.3199999999999901
 42
2.3199999999999901
 43
2.3199999999999981
 50
90.0
  0
INSERT
  5
156E6
  8
SUNPO
  6
CONTINUOUS
  2
_DOTSMALL
 10
323.2240556658719
 20
399.47709298101961
 30
0.0
 41
2.3199999999999901
 42
2.3199999999999901
 43
2.3199999999999981
 50
90.0
  0
INSERT
  5
156E7
  8
SUNPO
  6
CONTINUOUS
  2
_DOTSMALL
 10
333.2240556658719
 20
399.47709298101961
 30
0.0
 41
2.3199999999999901
 42
2.3199999999999901
 43
2.3199999999999981
 50
90.0
  0
LINE
  5
156E8
  8
DANMEN
  6
CONTINUOUS
 10
427.7240556658719
 20
344.47709298101961
 30
0.0
 11
418.7240556658719
 21
344.47709298101961
 31
0.0
  0
LINE
  5
156E9
  8
DANMEN
  6
CONTINUOUS
 10
427.7240556658719
 20
342.82709298101958
 30
0.0
 11
413.7240556658719
 21
342.82709298101958
 31
0.0
  0
LINE
  5
156EA
  8
SUNPO
  6
CONTINUOUS
 10
418.7240556658719
 20
419.47709298101961
 30
0.0
 11
428.22405566587167
 21
419.47709298101961
 31
0.0
  0
LINE
  5
156EB
  8
DANMEN
  6
CONTINUOUS
 10
379.7240556658719
 20
378.97709298101961
 30
0.0
 11
379.7240556658719
 21
383.47709298101961
 31
0.0
  0
LINE
  5
156EC
  8
DANMEN
  6
CONTINUOUS
 10
381.2240556658719
 20
378.47709298101961
 30
0.0
 11
381.2240556658719
 21
383.47709298101961
 31
0.0
  0
LINE
  5
156ED
  8
DANMEN
  6
CONTINUOUS
 10
381.7240556658719
 20
371.47709298101961
 30
0.0
 11
381.7240556658719
 21
385.97709298101961
 31
0.0
  0
LINE
  5
156EE
  8
DANMEN
  6
CONTINUOUS
 10
383.7240556658719
 20
369.9770929810195
 30
0.0
 11
383.7240556658719
 21
386.97709298101961
 31
0.0
  0
LINE
  5
156EF
  8
DANMEN
  6
CONTINUOUS
 10
388.7240556658719
 20
360.12709298101947
 30
0.0
 11
388.7240556658719
 21
398.9770929810195
 31
0.0
  0
LINE
  5
156F0
  8
DANMEN
  6
CONTINUOUS
 10
390.37405566587182
 20
344.47709298101961
 30
0.0
 11
390.37405566587182
 21
397.82709298101952
 31
0.0
  0
LINE
  5
156F1
  8
DANMEN
  6
CONTINUOUS
 10
418.7240556658719
 20
398.9770929810195
 30
0.0
 11
418.7240556658719
 21
344.47709298101961
 31
0.0
  0
LINE
  5
156F2
  8
DANMEN
  6
CONTINUOUS
 10
417.07405566587192
 20
397.82709298101952
 30
0.0
 11
417.07405566587192
 21
344.47709298101961
 31
0.0
  0
LINE
  5
156F3
  8
DANMEN
  6
CONTINUOUS
 10
373.7240556658719
 20
377.47709298101961
 30
0.0
 11
373.7240556658719
 21
383.47709298101961
 31
0.0
  0
ARC
  5
156F4
  8
DANMEN
  6
CONTINUOUS
 10
393.87405566587182
 20
341.32709298101958
 30
0.0
 40
0.5
 50
270.0
 51
0.0
  0
LINE
  5
156F5
  8
DANMEN
  6
CONTINUOUS
 10
417.07405566587192
 20
344.47709298101961
 30
0.0
 11
390.37405566587182
 21
344.47709298101961
 31
0.0
  0
ARC
  5
156F6
  8
DANMEN
  6
CONTINUOUS
 10
393.37405566587188
 20
341.32709298101958
 30
0.0
 40
0.5
 50
180.0
 51
270.0
  0
LINE
  5
156F7
  8
DANMEN
  6
CONTINUOUS
 10
392.87405566587182
 20
341.32709298101958
 30
0.0
 11
392.87405566587182
 21
342.82709298101958
 31
0.0
  0
LINE
  5
156F8
  8
DANMEN
  6
CONTINUOUS
 10
393.37405566587188
 20
340.82709298101958
 30
0.0
 11
393.87405566587182
 21
340.82709298101958
 31
0.0
  0
LINE
  5
156F9
  8
DANMEN
  6
CONTINUOUS
 10
390.37405566587182
 20
342.82709298101958
 30
0.0
 11
392.87405566587182
 21
342.82709298101958
 31
0.0
  0
ARC
  5
156FA
  8
DANMEN
  6
CONTINUOUS
 10
378.42405566587189
 20
367.93809298101951
 30
0.0
 40
0.7
 50
104.8409999999998
 51
180.0
  0
LINE
  5
156FB
  8
DANMEN
  6
CONTINUOUS
 10
377.7240556658719
 20
365.47709298101961
 30
0.0
 11
379.9740556658719
 21
365.47709298101961
 31
0.0
  0
LINE
  5
156FC
  8
DANMEN
  6
CONTINUOUS
 10
377.7240556658719
 20
375.47709298101961
 30
0.0
 11
378.22405566587162
 21
375.47709298101961
 31
0.0
  0
LINE
  5
156FD
  8
DANMEN
  6
CONTINUOUS
 10
377.2240556658719
 20
365.47709298101961
 30
0.0
 11
379.2240556658719
 21
365.47709298101961
 31
0.0
  0
LINE
  5
156FE
  8
DANMEN
  6
CONTINUOUS
 10
377.2240556658719
 20
358.47709298101961
 30
0.0
 11
388.7240556658719
 21
358.47709298101961
 31
0.0
  0
LINE
  5
156FF
  8
DANMEN
  6
CONTINUOUS
 10
376.7240556658719
 20
364.97709298101961
 30
0.0
 11
376.7240556658719
 21
358.97709298101961
 31
0.0
  0
ARC
  5
15700
  8
DANMEN
  6
CONTINUOUS
 10
377.2240556658719
 20
358.97709298101961
 30
0.0
 40
0.5
 50
180.0
 51
270.0
  0
LINE
  5
15701
  8
DANMEN
  6
CONTINUOUS
 10
377.7240556658719
 20
367.93809298101951
 30
0.0
 11
377.7240556658719
 21
365.47709298101961
 31
0.0
  0
ARC
  5
15702
  8
DANMEN
  6
CONTINUOUS
 10
377.2240556658719
 20
364.97709298101961
 30
0.0
 40
0.5
 50
90.0
 51
180.0
  0
LINE
  5
15703
  8
DANMEN
  6
CONTINUOUS
 10
377.2240556658719
 20
377.47709298101961
 30
0.0
 11
377.2240556658719
 21
375.47709298101961
 31
0.0
  0
LINE
  5
15704
  8
DANMEN
  6
CONTINUOUS
 10
377.2240556658719
 20
371.47709298101961
 30
0.0
 11
377.2240556658719
 21
374.97709298101961
 31
0.0
  0
ARC
  5
15705
  8
DANMEN
  6
CONTINUOUS
 10
377.7240556658719
 20
374.97709298101961
 30
0.0
 40
0.5
 50
90.0
 51
180.0
  0
LINE
  5
15706
  8
DANMEN
  6
CONTINUOUS
 10
373.7240556658719
 20
377.47709298101961
 30
0.0
 11
377.2240556658719
 21
377.47709298101961
 31
0.0
  0
ARC
  5
15707
  8
DANMEN
  6
CONTINUOUS
 10
384.32405566587192
 20
370.07709298101952
 30
0.0
 40
0.4
 50
284.84099999999961
 51
104.8409999999998
  0
LINE
  5
15708
  8
DANMEN
  6
CONTINUOUS
 10
378.24505566587192
 20
368.6150929810193
 30
0.0
 11
384.22205566587161
 21
370.46409298101952
 31
0.0
  0
ARC
  5
15709
  8
DANMEN
  6
CONTINUOUS
 10
383.2240556658719
 20
369.9770929810195
 30
0.0
 40
0.5
 50
270.0
 51
0.0
  0
LINE
  5
1570A
  8
DANMEN
  6
CONTINUOUS
 10
384.2240556658719
 20
365.47709298101961
 30
0.0
 11
386.2240556658719
 21
365.47709298101961
 31
0.0
  0
LINE
  5
1570B
  8
DANMEN
  6
CONTINUOUS
 10
382.4740556658719
 20
362.67709298101931
 30
0.0
 11
382.4740556658719
 21
365.17709298101931
 31
0.0
  0
LINE
  5
1570C
  8
DANMEN
  6
CONTINUOUS
 10
380.9740556658719
 20
365.17709298101931
 30
0.0
 11
380.9740556658719
 21
362.67709298101931
 31
0.0
  0
ARC
  5
1570D
  8
DANMEN
  6
CONTINUOUS
 10
384.17405566587161
 20
363.6770929810196
 30
0.0
 40
0.3
 50
320.08899999999983
 51
90.0
  0
ARC
  5
1570E
  8
DANMEN
  6
CONTINUOUS
 10
383.77405566587191
 20
364.27709298101951
 30
0.0
 40
0.3
 50
180.0
 51
270.0
  0
ARC
  5
1570F
  8
DANMEN
  6
CONTINUOUS
 10
379.67405566587161
 20
364.27709298101951
 30
0.0
 40
0.3
 50
270.0
 51
0.0
  0
ARC
  5
15710
  8
DANMEN
  6
CONTINUOUS
 10
379.27405566587191
 20
363.6770929810196
 30
0.0
 40
0.3
 50
90.0
 51
219.91100000000031
  0
LINE
  5
15711
  8
DANMEN
  6
CONTINUOUS
 10
378.02405566587191
 20
364.47709298101961
 30
0.0
 11
378.02405566587191
 21
360.12709298101947
 31
0.0
  0
LINE
  5
15712
  8
DANMEN
  6
CONTINUOUS
 10
385.42405566587189
 20
364.47709298101961
 30
0.0
 11
385.42405566587189
 21
360.12709298101947
 31
0.0
  0
LINE
  5
15713
  8
DANMEN
  6
CONTINUOUS
 10
381.27405566587191
 20
362.3770929810193
 30
0.0
 11
382.17405566587161
 21
362.3770929810193
 31
0.0
  0
LINE
  5
15714
  8
DANMEN
  6
CONTINUOUS
 10
380.47405566587162
 20
361.17709298101931
 30
0.0
 11
382.9740556658719
 21
361.17709298101931
 31
0.0
  0
LINE
  5
15715
  8
DANMEN
  6
CONTINUOUS
 10
378.02405566587191
 20
360.12709298101947
 30
0.0
 11
385.42405566587189
 21
360.12709298101947
 31
0.0
  0
LINE
  5
15716
  8
DANMEN
  6
CONTINUOUS
 10
380.5010556658716
 20
361.17709298101931
 30
0.0
 11
380.43005566587198
 21
361.24809298101951
 31
0.0
  0
ARC
  5
15717
  8
DANMEN
  6
CONTINUOUS
 10
381.27405566587191
 20
362.67709298101931
 30
0.0
 40
0.3
 50
180.0
 51
270.0
  0
LINE
  5
15718
  8
DANMEN
  6
CONTINUOUS
 10
379.27405566587191
 20
363.97709298101961
 30
0.0
 11
379.67405566587161
 21
363.97709298101961
 31
0.0
  0
LINE
  5
15719
  8
DANMEN
  6
CONTINUOUS
 10
380.47405566587162
 20
361.17709298101931
 30
0.0
 11
379.04405566587161
 21
363.48509298101959
 31
0.0
  0
ARC
  5
1571A
  8
DANMEN
  6
CONTINUOUS
 10
382.17405566587161
 20
362.67709298101931
 30
0.0
 40
0.3
 50
270.0
 51
0.0
  0
LINE
  5
1571B
  8
DANMEN
  6
CONTINUOUS
 10
382.9740556658719
 20
361.17709298101931
 30
0.0
 11
384.40405566587191
 21
363.48509298101959
 31
0.0
  0
LINE
  5
1571C
  8
DANMEN
  6
CONTINUOUS
 10
383.77405566587191
 20
363.97709298101961
 30
0.0
 11
384.17405566587161
 21
363.97709298101961
 31
0.0
  0
LINE
  5
1571D
  8
DANMEN
  6
CONTINUOUS
 10
381.27405566587191
 20
365.47709298101961
 30
0.0
 11
382.17405566587161
 21
365.47709298101961
 31
0.0
  0
LINE
  5
1571E
  8
DANMEN
  6
CONTINUOUS
 10
385.7240556658719
 20
366.77709298101951
 30
0.0
 11
379.32405566587192
 21
366.77709298101951
 31
0.0
  0
LINE
  5
1571F
  8
DANMEN
  6
CONTINUOUS
 10
379.13605566587188
 20
367.94709298101952
 30
0.0
 11
384.42605566587162
 21
369.69009298101952
 31
0.0
  0
ARC
  5
15720
  8
DANMEN
  6
CONTINUOUS
 10
381.27405566587191
 20
365.17709298101931
 30
0.0
 40
0.3
 50
90.0
 51
180.0
  0
ARC
  5
15721
  8
DANMEN
  6
CONTINUOUS
 10
379.32405566587192
 20
367.37709298101959
 30
0.0
 40
0.6
 50
108.241
 51
270.0
  0
LINE
  5
15722
  8
DANMEN
  6
CONTINUOUS
 10
379.9740556658719
 20
364.27709298101951
 30
0.0
 11
379.9740556658719
 21
365.47709298101961
 31
0.0
  0
LINE
  5
15723
  8
DANMEN
  6
CONTINUOUS
 10
379.7240556658719
 20
364.97709298101961
 30
0.0
 11
379.7240556658719
 21
364.47709298101961
 31
0.0
  0
LINE
  5
15724
  8
DANMEN
  6
CONTINUOUS
 10
378.02405566587191
 20
364.47709298101961
 30
0.0
 11
379.7240556658719
 21
364.47709298101961
 31
0.0
  0
ARC
  5
15725
  8
DANMEN
  6
CONTINUOUS
 10
379.2240556658719
 20
364.97709298101961
 30
0.0
 40
0.5
 50
0.0
 51
90.0
  0
ARC
  5
15726
  8
DANMEN
  6
CONTINUOUS
 10
382.17405566587161
 20
365.17709298101931
 30
0.0
 40
0.3
 50
0.0
 51
90.0
  0
LINE
  5
15727
  8
DANMEN
  6
CONTINUOUS
 10
383.4740556658719
 20
364.27709298101951
 30
0.0
 11
383.4740556658719
 21
365.47709298101961
 31
0.0
  0
LINE
  5
15728
  8
DANMEN
  6
CONTINUOUS
 10
383.4740556658719
 20
365.47709298101961
 30
0.0
 11
385.7240556658719
 21
365.47709298101961
 31
0.0
  0
LINE
  5
15729
  8
DANMEN
  6
CONTINUOUS
 10
385.7240556658719
 20
366.77709298101951
 30
0.0
 11
385.7240556658719
 21
365.47709298101961
 31
0.0
  0
LINE
  5
1572A
  8
DANMEN
  6
CONTINUOUS
 10
383.7240556658719
 20
364.97709298101961
 30
0.0
 11
383.7240556658719
 21
364.47709298101961
 31
0.0
  0
LINE
  5
1572B
  8
DANMEN
  6
CONTINUOUS
 10
383.7240556658719
 20
364.47709298101961
 30
0.0
 11
385.42405566587189
 21
364.47709298101961
 31
0.0
  0
ARC
  5
1572C
  8
DANMEN
  6
CONTINUOUS
 10
384.2240556658719
 20
364.97709298101961
 30
0.0
 40
0.5
 50
90.0
 51
180.0
  0
LINE
  5
1572D
  8
DANMEN
  6
CONTINUOUS
 10
386.72405566587162
 20
364.97709298101961
 30
0.0
 11
386.72405566587162
 21
360.12709298101947
 31
0.0
  0
LINE
  5
1572E
  8
DANMEN
  6
CONTINUOUS
 10
386.72405566587162
 20
360.12709298101947
 30
0.0
 11
388.7240556658719
 21
360.12709298101947
 31
0.0
  0
ARC
  5
1572F
  8
DANMEN
  6
CONTINUOUS
 10
386.2240556658719
 20
364.97709298101961
 30
0.0
 40
0.5
 50
0.0
 51
90.0
  0
LINE
  5
15730
  8
DANMEN
  6
CONTINUOUS
 10
386.72405566587162
 20
365.47709298101961
 30
0.0
 11
388.7240556658719
 21
365.47709298101961
 31
0.0
  0
LINE
  5
15731
  8
DANMEN
  6
CONTINUOUS
 10
379.83105566587182
 20
373.8330929810196
 30
0.0
 11
381.2240556658719
 21
378.47709298101961
 31
0.0
  0
LINE
  5
15732
  8
DANMEN
  6
CONTINUOUS
 10
378.52405566587191
 20
373.9770929810195
 30
0.0
 11
378.52405566587191
 21
378.14409298101953
 31
0.0
  0
ARC
  5
15733
  8
DANMEN
  6
CONTINUOUS
 10
379.35205566587189
 20
373.9770929810195
 30
0.0
 40
0.5
 50
270.0
 51
343.30100000000027
  0
ARC
  5
15734
  8
DANMEN
  6
CONTINUOUS
 10
379.02405566587191
 20
373.9770929810195
 30
0.0
 40
0.5
 50
180.0
 51
270.0
  0
LINE
  5
15735
  8
DANMEN
  6
CONTINUOUS
 10
379.35205566587189
 20
373.47709298101961
 30
0.0
 11
379.02405566587191
 21
373.47709298101961
 31
0.0
  0
LINE
  5
15736
  8
DANMEN
  6
CONTINUOUS
 10
378.7240556658719
 20
371.47709298101961
 30
0.0
 11
378.7240556658719
 21
374.97709298101961
 31
0.0
  0
ARC
  5
15737
  8
DANMEN
  6
CONTINUOUS
 10
378.22405566587162
 20
374.97709298101961
 30
0.0
 40
0.5
 50
0.0
 51
90.0
  0
LINE
  5
15738
  8
DANMEN
  6
CONTINUOUS
 10
381.7240556658719
 20
371.47709298101961
 30
0.0
 11
378.7240556658719
 21
371.47709298101961
 31
0.0
  0
ARC
  5
15739
  8
DANMEN
  6
CONTINUOUS
 10
379.02405566587191
 20
378.14409298101953
 30
0.0
 40
0.5
 50
112.6200000000003
 51
180.0
  0
LINE
  5
1573A
  8
DANMEN
  6
CONTINUOUS
 10
379.7240556658719
 20
378.97709298101961
 30
0.0
 11
378.83205566587191
 21
378.60509298101931
 31
0.0
  0
LINE
  5
1573B
  8
DANMEN
  6
CONTINUOUS
 10
412.07405566587192
 20
342.82709298101958
 30
0.0
 11
405.7240556658719
 21
342.82709298101958
 31
0.0
  0
LINE
  5
1573C
  8
DANMEN
  6
CONTINUOUS
 10
394.37405566587182
 20
342.82709298101958
 30
0.0
 11
404.07405566587192
 21
342.82709298101958
 31
0.0
  0
LINE
  5
1573D
  8
DANMEN
  6
CONTINUOUS
 10
394.37405566587182
 20
341.32709298101958
 30
0.0
 11
394.37405566587182
 21
342.82709298101958
 31
0.0
  0
LINE
  5
1573E
  8
DANMEN
  6
CONTINUOUS
 10
412.07405566587192
 20
342.82709298101958
 30
0.0
 11
412.07405566587192
 21
340.47709298101961
 31
0.0
  0
LINE
  5
1573F
  8
DANMEN
  6
CONTINUOUS
 10
413.7240556658719
 20
342.82709298101958
 30
0.0
 11
413.7240556658719
 21
340.47709298101961
 31
0.0
  0
ARC
  5
15740
  8
DANMEN
  6
CONTINUOUS
 10
412.57405566587192
 20
340.47709298101961
 30
0.0
 40
0.5
 50
180.0
 51
270.0
  0
ARC
  5
15741
  8
DANMEN
  6
CONTINUOUS
 10
413.2240556658719
 20
340.47709298101961
 30
0.0
 40
0.5
 50
270.0
 51
0.0
  0
LINE
  5
15742
  8
DANMEN
  6
CONTINUOUS
 10
413.2240556658719
 20
339.97709298101961
 30
0.0
 11
412.57405566587192
 21
339.97709298101961
 31
0.0
  0
LINE
  5
15743
  8
DANMEN
  6
CONTINUOUS
 10
389.2240556658719
 20
399.47709298101961
 30
0.0
 11
418.2240556658719
 21
399.47709298101961
 31
0.0
  0
LINE
  5
15744
  8
DANMEN
  6
CONTINUOUS
 10
417.07405566587192
 20
397.82709298101952
 30
0.0
 11
390.37405566587182
 21
397.82709298101952
 31
0.0
  0
LINE
  5
15745
  8
SUNPO
  6
CONTINUOUS
 10
388.7240556658719
 20
419.47709298101961
 30
0.0
 11
418.7240556658719
 21
419.47709298101961
 31
0.0
  0
LINE
  5
15746
  8
SUNPO
  6
CONTINUOUS
 10
373.7240556658719
 20
384.97709298101961
 30
0.0
 11
373.7240556658719
 21
409.47709298101961
 31
0.0
  0
LINE
  5
15747
  8
SUNPO
  6
CONTINUOUS
 10
383.7240556658719
 20
400.97709298101961
 30
0.0
 11
383.7240556658719
 21
419.47709298101961
 31
0.0
  0
LINE
  5
15748
  8
SUNPO
  6
CONTINUOUS
 10
363.72405566587162
 20
392.4770929810195
 30
0.0
 11
363.72405566587162
 21
419.47709298101961
 31
0.0
  0
LINE
  5
15749
  8
SUNPO
  6
CONTINUOUS
 10
388.7240556658719
 20
400.47709298101961
 30
0.0
 11
388.7240556658719
 21
419.47709298101961
 31
0.0
  0
LINE
  5
1574A
  8
SUNPO
  6
CONTINUOUS
 10
388.7240556658719
 20
400.47709298101961
 30
0.0
 11
388.7240556658719
 21
419.47709298101961
 31
0.0
  0
LINE
  5
1574B
  8
SUNPO
  6
CONTINUOUS
 10
383.7240556658719
 20
400.97709298101961
 30
0.0
 11
383.7240556658719
 21
419.47709298101961
 31
0.0
  0
LINE
  5
1574C
  8
DANMEN
  6
CONTINUOUS
 10
383.2240556658719
 20
391.47709298101961
 30
0.0
 11
364.2240556658719
 21
391.47709298101961
 31
0.0
  0
ARC
  5
1574D
  8
DANMEN
  6
CONTINUOUS
 10
378.22405566587162
 20
384.4770929810195
 30
0.0
 40
1.0
 50
180.0
 51
270.0
  0
LINE
  5
1574E
  8
DANMEN
  6
CONTINUOUS
 10
377.2240556658719
 20
389.47709298101961
 30
0.0
 11
364.2240556658719
 21
389.47709298101961
 31
0.0
  0
LINE
  5
1574F
  8
DANMEN
  6
CONTINUOUS
 10
369.72405566587162
 20
387.81009298101952
 30
0.0
 11
368.05705566587181
 21
389.47709298101961
 31
0.0
  0
LINE
  5
15750
  8
DANMEN
  6
CONTINUOUS
 10
369.72405566587162
 20
384.9820929810196
 30
0.0
 11
365.22905566587161
 21
389.47709298101961
 31
0.0
  0
LINE
  5
15751
  8
DANMEN
  6
CONTINUOUS
 10
366.40505566587188
 20
383.47709298101961
 30
0.0
 11
369.72405566587162
 21
386.79609298101951
 31
0.0
  0
LINE
  5
15752
  8
DANMEN
  6
CONTINUOUS
 10
369.23405566587161
 20
383.47709298101961
 30
0.0
 11
369.72405566587162
 21
383.96709298101962
 31
0.0
  0
LINE
  5
15753
  8
DANMEN
  6
CONTINUOUS
 10
368.40005566587189
 20
383.47709298101961
 30
0.0
 11
363.53505566587188
 21
388.34209298101962
 31
0.0
  0
LINE
  5
15754
  8
DANMEN
  6
CONTINUOUS
 10
363.11905566587183
 20
385.84809298101959
 30
0.0
 11
366.74805566587162
 21
389.47709298101961
 31
0.0
  0
LINE
  5
15755
  8
DANMEN
  6
CONTINUOUS
 10
363.5770556658718
 20
383.47709298101961
 30
0.0
 11
369.5770556658718
 21
389.47709298101961
 31
0.0
  0
LINE
  5
15756
  8
DANMEN
  6
CONTINUOUS
 10
362.7240556658719
 20
383.47709298101961
 30
0.0
 11
363.72405566587162
 21
389.47709298101961
 31
0.0
  0
LINE
  5
15757
  8
DANMEN
  6
CONTINUOUS
 10
365.57205566587157
 20
383.47709298101961
 30
0.0
 11
363.13105566587188
 21
385.91809298101953
 31
0.0
  0
LINE
  5
15758
  8
DANMEN
  6
CONTINUOUS
 10
362.74305566587191
 20
383.47709298101961
 30
0.0
 11
362.7270556658716
 21
383.49409298101961
 31
0.0
  0
ARC
  5
15759
  8
DANMEN
  6
CONTINUOUS
 10
364.2240556658719
 20
389.97709298101961
 30
0.0
 40
0.5
 50
180.0
 51
270.0
  0
ARC
  5
1575A
  8
DANMEN
  6
CONTINUOUS
 10
364.2240556658719
 20
390.97709298101961
 30
0.0
 40
0.5
 50
90.0
 51
180.0
  0
LINE
  5
1575B
  8
DANMEN
  6
CONTINUOUS
 10
363.72405566587162
 20
389.97709298101961
 30
0.0
 11
363.72405566587162
 21
390.97709298101961
 31
0.0
  0
LINE
  5
1575C
  8
DANMEN
  6
CONTINUOUS
 10
363.68505566587191
 20
389.2420929810196
 30
0.0
 11
363.92005566587193
 21
389.47709298101961
 31
0.0
  0
LINE
  5
1575D
  8
DANMEN
  6
CONTINUOUS
 10
377.2240556658719
 20
384.4770929810195
 30
0.0
 11
377.2240556658719
 21
389.47709298101961
 31
0.0
  0
LINE
  5
1575E
  8
DANMEN
  6
CONTINUOUS
 10
369.72405566587162
 20
389.47709298101961
 30
0.0
 11
369.72405566587162
 21
383.47709298101961
 31
0.0
  0
LINE
  5
1575F
  8
DANMEN
  6
CONTINUOUS
 10
373.7240556658719
 20
383.47709298101961
 30
0.0
 11
377.2240556658719
 21
383.47709298101961
 31
0.0
  0
LINE
  5
15760
  8
DANMEN
  6
CONTINUOUS
 10
377.2240556658719
 20
383.47709298101961
 30
0.0
 11
377.2240556658719
 21
384.4770929810195
 31
0.0
  0
LINE
  5
15761
  8
DANMEN
  6
CONTINUOUS
 10
383.7240556658719
 20
387.47709298101961
 30
0.0
 11
383.7240556658719
 21
399.47709298101961
 31
0.0
  0
LINE
  5
15762
  8
DANMEN
  6
CONTINUOUS
 10
379.2240556658719
 20
386.4770929810195
 30
0.0
 11
379.2240556658719
 21
389.97709298101961
 31
0.0
  0
ARC
  5
15763
  8
DANMEN
  6
CONTINUOUS
 10
379.7240556658719
 20
386.97709298101961
 30
0.0
 40
0.5
 50
90.0
 51
180.0
  0
ARC
  5
15764
  8
DANMEN
  6
CONTINUOUS
 10
383.2240556658719
 20
386.97709298101961
 30
0.0
 40
0.5
 50
0.0
 51
90.0
  0
LINE
  5
15765
  8
DANMEN
  6
CONTINUOUS
 10
380.7240556658719
 20
385.57709298101952
 30
0.0
 11
379.2240556658719
 21
384.97709298101961
 31
0.0
  0
LINE
  5
15766
  8
DANMEN
  6
CONTINUOUS
 10
379.2240556658719
 20
386.4770929810195
 30
0.0
 11
378.7240556658719
 21
386.4770929810195
 31
0.0
  0
LINE
  5
15767
  8
DANMEN
  6
CONTINUOUS
 10
380.7240556658719
 20
385.57709298101952
 30
0.0
 11
381.2240556658719
 21
383.47709298101961
 31
0.0
  0
LINE
  5
15768
  8
DANMEN
  6
CONTINUOUS
 10
378.7240556658719
 20
384.97709298101961
 30
0.0
 11
378.7240556658719
 21
386.4770929810195
 31
0.0
  0
LINE
  5
15769
  8
DANMEN
  6
CONTINUOUS
 10
379.2240556658719
 20
384.97709298101961
 30
0.0
 11
378.7240556658719
 21
384.97709298101961
 31
0.0
  0
LINE
  5
1576A
  8
DANMEN
  6
CONTINUOUS
 10
379.7240556658719
 20
383.47709298101961
 30
0.0
 11
378.22405566587162
 21
383.47709298101961
 31
0.0
  0
LINE
  5
1576B
  8
DANMEN
  6
CONTINUOUS
 10
379.2240556658719
 20
384.97709298101961
 30
0.0
 11
379.2240556658719
 21
386.97709298101961
 31
0.0
  0
LINE
  5
1576C
  8
DANMEN
  6
CONTINUOUS
 10
379.2240556658719
 20
384.97709298101961
 30
0.0
 11
381.7240556658719
 21
385.97709298101961
 31
0.0
  0
LINE
  5
1576D
  8
DANMEN
  6
CONTINUOUS
 10
383.2240556658719
 20
389.97709298101961
 30
0.0
 11
379.2240556658719
 21
389.97709298101961
 31
0.0
  0
LINE
  5
1576E
  8
DANMEN
  6
CONTINUOUS
 10
379.7240556658719
 20
387.47709298101961
 30
0.0
 11
383.2240556658719
 21
387.47709298101961
 31
0.0
  0
ARC
  5
1576F
  8
DANMEN
  6
CONTINUOUS
 10
383.2240556658719
 20
390.97709298101961
 30
0.0
 40
0.5
 50
0.0
 51
90.0
  0
ARC
  5
15770
  8
DANMEN
  6
CONTINUOUS
 10
383.2240556658719
 20
390.47709298101961
 30
0.0
 40
0.5
 50
270.0
 51
0.0
  0
LINE
  5
15771
  8
DANMEN
  6
CONTINUOUS
 10
383.7240556658719
 20
390.47709298101961
 30
0.0
 11
383.7240556658719
 21
390.97709298101961
 31
0.0
  0
ARC
  5
15772
  8
DANMEN
  6
CONTINUOUS
 10
389.2240556658719
 20
398.9770929810195
 30
0.0
 40
0.5
 50
90.0
 51
180.0
  0
LINE
  5
15773
  8
SUNPO
  6
CONTINUOUS
 10
363.72405566587162
 20
419.47709298101961
 30
0.0
 11
383.7240556658719
 21
419.47709298101961
 31
0.0
  0
TEXT
  5
15774
  8
SUNPO
  6
CONTINUOUS
 10
366.75530566587162
 20
410.47709298101961
 30
0.0
 40
2.5
  1
10
 41
1.3500000000000001
  7
MX_DIMTXSTY_5
  0
LINE
  5
15775
  8
SUNPO
  6
CONTINUOUS
 10
363.72405566587162
 20
409.47709298101961
 30
0.0
 11
373.7240556658719
 21
409.47709298101961
 31
0.0
  0
INSERT
  5
15776
  8
SUNPO
  6
CONTINUOUS
  2
_DOTSMALL
 10
363.72405566587162
 20
409.47709298101961
 30
0.0
 41
2.3199999999999901
 42
2.3199999999999901
 43
2.3199999999999981
 50
180.0
  0
INSERT
  5
15777
  8
SUNPO
  6
CONTINUOUS
  2
_DOTSMALL
 10
373.7240556658719
 20
409.47709298101961
 30
0.0
 41
2.3199999999999901
 42
2.3199999999999901
 43
2.3199999999999981
  0
INSERT
  5
15778
  8
SUNPO
  6
CONTINUOUS
  2
_DOTSMALL
 10
363.72405566587162
 20
419.47709298101961
 30
0.0
 41
2.3199999999999901
 42
2.3199999999999901
 43
2.3199999999999981
 50
180.0
  0
TEXT
  5
15779
  8
SUNPO
  6
CONTINUOUS
 10
371.6615556658719
 20
420.47709298101938
 30
0.0
 40
2.5
  1
20
 41
1.1000000000000001
  7
MX_DIMTXSTY_3
  0
TEXT
  5
1577A
  8
SUNPO
  6
CONTINUOUS
 10
385.39072233253847
 20
420.47709298101938
 30
0.0
 40
2.5
  1
5
  7
MX_NOTE_STANDARD
  0
LINE
  5
1577B
  8
SUNPO
  6
CONTINUOUS
 10
383.7240556658719
 20
419.47709298101961
 30
0.0
 11
388.7240556658719
 21
419.47709298101961
 31
0.0
  0
INSERT
  5
1577C
  8
SUNPO
  6
CONTINUOUS
  2
_DOTSMALL
 10
383.7240556658719
 20
419.47709298101961
 30
0.0
 41
2.3199999999999901
 42
2.3199999999999901
 43
2.3199999999999981
  0
INSERT
  5
1577D
  8
SUNPO
  6
CONTINUOUS
  2
_DOTSMALL
 10
383.7240556658719
 20
419.47709298101961
 30
0.0
 41
2.3199999999999901
 42
2.3199999999999901
 43
2.3199999999999981
 50
180.0
  0
INSERT
  5
1577E
  8
SUNPO
  6
CONTINUOUS
  2
_DOTSMALL
 10
388.7240556658719
 20
419.47709298101961
 30
0.0
 41
2.3199999999999901
 42
2.3199999999999901
 43
2.3199999999999981
 50
180.0
  0
INSERT
  5
1577F
  8
SUNPO
  6
CONTINUOUS
  2
_DOTSMALL
 10
388.7240556658719
 20
419.47709298101961
 30
0.0
 41
2.3199999999999901
 42
2.3199999999999901
 43
2.3199999999999981
  0
LINE
  5
15780
  8
SUNPO
  6
CONTINUOUS
 10
418.7240556658719
 20
400.47709298101961
 30
0.0
 11
418.7240556658719
 21
419.47709298101961
 31
0.0
  0
LINE
  5
15781
  8
SUNPO
  6
CONTINUOUS
 10
418.7240556658719
 20
400.47709298101961
 30
0.0
 11
418.7240556658719
 21
419.47709298101961
 31
0.0
  0
ARC
  5
15782
  8
DANMEN
  6
CONTINUOUS
 10
418.2240556658719
 20
398.9770929810195
 30
0.0
 40
0.5
 50
0.0
 51
90.0
  0
TEXT
  5
15783
  8
SUNPO
  6
CONTINUOUS
 10
401.66155566587167
 20
420.47709298101938
 30
0.0
 40
2.5
  1
30
 41
1.1000000000000001
  7
MX_DIMTXSTY_3
  0
INSERT
  5
15784
  8
SUNPO
  6
CONTINUOUS
  2
_DOTSMALL
 10
418.7240556658719
 20
419.47709298101961
 30
0.0
 41
2.3199999999999901
 42
2.3199999999999901
 43
2.3199999999999981
  0
INSERT
  5
15785
  8
SUNPO
  6
CONTINUOUS
  2
_DOTSMALL
 10
418.7240556658719
 20
419.47709298101961
 30
0.0
 41
2.3199999999999901
 42
2.3199999999999901
 43
2.3199999999999981
 50
180.0
  0
TEXT
  5
15786
  8
SUNPO
  6
CONTINUOUS
 10
420.22405566587167
 20
420.47709298101938
 30
0.0
 40
2.5
  1
9.5
 41
1.3
  7
MX_DIMTXSTY_4
  0
LINE
  5
15787
  8
SUNPO
  6
CONTINUOUS
 10
428.22405566587167
 20
345.47709298101961
 30
0.0
 11
428.22405566587167
 21
419.47709298101961
 31
0.0
  0
ARC
  5
15788
  8
DANMEN
  6
CONTINUOUS
 10
427.7240556658719
 20
343.97709298101961
 30
0.0
 40
0.5
 50
0.0
 51
90.0
  0
ARC
  5
15789
  8
DANMEN
  6
CONTINUOUS
 10
427.7240556658719
 20
343.32709298101958
 30
0.0
 40
0.5
 50
270.0
 51
0.0
  0
LINE
  5
1578A
  8
DANMEN
  6
CONTINUOUS
 10
428.22405566587167
 20
343.97709298101961
 30
0.0
 11
428.22405566587167
 21
343.32709298101958
 31
0.0
  0
INSERT
  5
1578B
  8
SUNPO
  6
CONTINUOUS
  2
_DOTSMALL
 10
428.22405566587167
 20
419.47709298101961
 30
0.0
 41
2.3199999999999901
 42
2.3199999999999901
 43
2.3199999999999981
  0
ENDSEC
  0
EOF
