  0
SECTION
  2
HEADER
  9
$ACADVER
  1
AC1009
  9
$INSBASE
 10
0.0
 20
0.0
 30
0.0
  9
$EXTMIN
 10
4.986803
 20
4.971933
 30
-0.001526
  9
$EXTMAX
 10
415.019075
 20
292.013444
 30
0.0
  9
$LIMMIN
 10
-210.0
 20
-148.5
  9
$LIMMAX
 10
210.0
 20
148.5
  9
$ORTHOMODE
 70
     1
  9
$REGENMODE
 70
     1
  9
$FILLMODE
 70
     1
  9
$QTEXTMODE
 70
     0
  9
$MIRRTEXT
 70
     1
  9
$DRAGMODE
 70
     2
  9
$LTSCALE
 40
0.5
  9
$OSMODE
 70
   239
  9
$ATTMODE
 70
     1
  9
$TEXTSIZE
 40
0.2
  9
$TRACEWID
 40
0.05
  9
$TEXTSTYLE
  7
MX_NOTE_STANDARD
  9
$CLAYER
  8
0
  9
$CELTYPE
  6
CONTINUOUS
  9
$CECOLOR
 62
   256
  9
$DIMSCALE
 40
1.0
  9
$DIMASZ
 40
2.5
  9
$DIMEXO
 40
1.5
  9
$DIMDLI
 40
3.75
  9
$DIMRND
 40
0.0
  9
$DIMDLE
 40
0.0
  9
$DIMEXE
 40
0.0
  9
$DIMTP
 40
0.0
  9
$DIMTM
 40
0.0
  9
$DIMTXT
 40
2.5
  9
$DIMCEN
 40
2.5
  9
$DIMTSZ
 40
0.0
  9
$DIMTOL
 70
     0
  9
$DIMLIM
 70
     0
  9
$DIMTIH
 70
     0
  9
$DIMTOH
 70
     0
  9
$DIMSE1
 70
     0
  9
$DIMSE2
 70
     0
  9
$DIMTAD
 70
     1
  9
$DIMZIN
 70
     8
  9
$DIMBLK
  1

  9
$DIMASO
 70
     1
  9
$DIMSHO
 70
     1
  9
$DIMPOST
  1

  9
$DIMAPOST
  1

  9
$DIMALT
 70
     0
  9
$DIMALTD
 70
     4
  9
$DIMALTF
 40
0.0394
  9
$DIMLFAC
 40
1.0
  9
$DIMTOFL
 70
     1
  9
$DIMTVP
 40
0.0
  9
$DIMTIX
 70
     0
  9
$DIMSOXD
 70
     0
  9
$DIMSAH
 70
     0
  9
$DIMBLK1
  1

  9
$DIMBLK2
  1

  9
$DIMSTYLE
  2
MXDIMSTYLE
  9
$DIMCLRD
 70
     0
  9
$DIMCLRE
 70
     0
  9
$DIMCLRT
 70
     0
  9
$DIMTFAC
 40
1.0
  9
$DIMGAP
 40
1.0
  9
$LUNITS
 70
     2
  9
$LUPREC
 70
     4
  9
$SKETCHINC
 40
0.1
  9
$FILLETRAD
 40
0.0
  9
$AUNITS
 70
     0
  9
$AUPREC
 70
     0
  9
$MENU
  1
acad
  9
$ELEVATION
 40
0.0
  9
$PELEVATION
 40
0.0
  9
$THICKNESS
 40
0.0
  9
$LIMCHECK
 70
     0
  9
$BLIPMODE
 70
     0
  9
$CHAMFERA
 40
0.0
  9
$CHAMFERB
 40
0.0
  9
$SKPOLY
 70
     0
  9
$TDCREATE
 40
2452006.37162
  9
$TDUPDATE
 40
2452137.9024
  9
$TDINDWG
 40
0.084163
  9
$TDUSRTIMER
 40
0.084162
  9
$USRTIMER
 70
     1
  9
$ANGBASE
 50
0.0
  9
$ANGDIR
 70
     0
  9
$PDMODE
 70
     3
  9
$PDSIZE
 40
-100.0
  9
$PLINEWID
 40
0.0
  9
$COORDS
 70
     0
  9
$SPLFRAME
 70
     0
  9
$SPLINETYPE
 70
     6
  9
$SPLINESEGS
 70
     8
  9
$ATTDIA
 70
     0
  9
$ATTREQ
 70
     1
  9
$HANDLING
 70
     1
  9
$HANDSEED
  5
1D388
  9
$SURFTAB1
 70
     6
  9
$SURFTAB2
 70
     6
  9
$SURFTYPE
 70
     6
  9
$SURFU
 70
     6
  9
$SURFV
 70
     6
  9
$UCSNAME
  2

  9
$UCSORG
 10
0.0
 20
0.0
 30
0.0
  9
$UCSXDIR
 10
1.0
 20
0.0
 30
0.0
  9
$UCSYDIR
 10
0.0
 20
1.0
 30
0.0
  9
$PUCSNAME
  2

  9
$PUCSORG
 10
0.0
 20
0.0
 30
0.0
  9
$PUCSXDIR
 10
1.0
 20
0.0
 30
0.0
  9
$PUCSYDIR
 10
0.0
 20
1.0
 30
0.0
  9
$USERI1
 70
     0
  9
$USERI2
 70
     0
  9
$USERI3
 70
     0
  9
$USERI4
 70
     0
  9
$USERI5
 70
     0
  9
$USERR1
 40
0.0
  9
$USERR2
 40
0.0
  9
$USERR3
 40
0.0
  9
$USERR4
 40
0.0
  9
$USERR5
 40
0.0
  9
$WORLDVIEW
 70
     1
  9
$SHADEDGE
 70
     3
  9
$SHADEDIF
 70
    70
  9
$TILEMODE
 70
     1
  9
$MAXACTVP
 70
    16
  9
$PLIMCHECK
 70
     0
  9
$PEXTMIN
 10
1.000000E+020
 20
1.000000E+020
 30
1.000000E+020
  9
$PEXTMAX
 10
-1.000000E+020
 20
-1.000000E+020
 30
-1.000000E+020
  9
$PLIMMIN
 10
0.0
 20
0.0
  9
$PLIMMAX
 10
12.0
 20
9.0
  9
$UNITMODE
 70
     0
  9
$VISRETAIN
 70
     0
  9
$PLINEGEN
 70
     1
  9
$PSLTSCALE
 70
     0
  0
ENDSEC
  0
SECTION
  2
TABLES
  0
TABLE
  2
VPORT
 70
     2
  0
VPORT
  2
*ACTIVE
 70
     0
 10
0.0
 20
0.0
 11
1.0
 21
1.0
 12
210.002939
 22
148.492688
 13
0.0
 23
0.0
 14
1.0
 24
1.0
 15
0.0
 25
0.0
 16
0.0
 26
0.0
 36
1.0
 17
0.0
 27
0.0
 37
0.0
 40
290.242718
 41
1.867784
 42
50.0
 43
0.0
 44
0.0
 50
0.0
 51
0.0
 71
     0
 72
   100
 73
     1
 74
     0
 75
     0
 76
     0
 77
     0
 78
     0
  0
ENDTAB
  0
TABLE
  2
LTYPE
 70
     4
  0
LTYPE
  2
CONTINUOUS
 70
     0
  3
Solid line
 72
    65
 73
     0
 40
0.0
  0
LTYPE
  2
DASHED
 70
     0
  3
Dashed __ __ __ __ __ __ __ __ __ __ __ __ __ _
 72
    65
 73
     2
 40
19.05
 49
12.7
 49
-6.35
  0
LTYPE
  2
CENTER
 70
     0
  3
Center ____ _ ____ _ ____ _ ____ _ ____ _ ____
 72
    65
 73
     4
 40
50.8
 49
31.75
 49
-6.35
 49
6.35
 49
-6.35
  0
LTYPE
  2
PHANTOM
 70
     0
  3
Phantom ______  __  __  ______  __  __  ______
 72
    65
 73
     6
 40
63.5
 49
31.75
 49
-6.35
 49
6.35
 49
-6.35
 49
6.35
 49
-6.35
  0
ENDTAB
  0
TABLE
  2
LAYER
 70
     4
  0
LAYER
  2
0
 70
     0
 62
     7
  6
CONTINUOUS
  0
LAYER
  2
SUNPO
 70
     0
 62
     1
  6
CONTINUOUS
  0
LAYER
  2
DANMEN
 70
     0
 62
     7
  6
CONTINUOUS
  0
LAYER
  2
WAKU
 70
     0
 62
     3
  6
CONTINUOUS
  0
ENDTAB
  0
TABLE
  2
STYLE
 70
     2
  0
STYLE
  2
STANDARD
 70
     0
 40
0.0
 41
1.0
 50
0.0
 71
     0
 42
0.2
  3
txt.shx
  4
extfont.shx
  0
STYLE
  2
MX_NOTE_STANDARD
 70
     0
 40
2.5
 41
1.0
 50
0.0
 71
     0
 42
2.5
  3
txt.shx
  4
extfont.shx
  0
ENDTAB
  0
TABLE
  2
VIEW
 70
     0
  0
ENDTAB
  0
TABLE
  2
UCS
 70
     0
  0
ENDTAB
  0
TABLE
  2
APPID
 70
     1
  0
APPID
  2
ACAD
 70
     0
  0
ENDTAB
  0
TABLE
  2
DIMSTYLE
 70
     1
  0
DIMSTYLE
  2
MXDIMSTYLE
 70
     0
  3

  4

  5

  6

  7

 40
1.0
 41
2.5
 42
1.5
 43
3.75
 44
0.0
 45
0.0
 46
0.0
 47
0.0
 48
0.0
140
2.5
141
2.5
142
0.0
143
0.0394
144
1.0
145
0.0
146
1.0
147
1.0
 71
     0
 72
     0
 73
     0
 74
     0
 75
     0
 76
     0
 77
     1
 78
     8
170
     0
171
     4
172
     1
173
     0
174
     0
175
     0
176
     0
177
     0
178
     0
  0
ENDTAB
  0
ENDSEC
  0
SECTION
  2
BLOCKS
  0
BLOCK
  8
0
  2
$MODEL_SPACE
 70
     0
 10
0.0
 20
0.0
 30
0.0
  3
$MODEL_SPACE
  1

  0
ENDBLK
  5
1D37B
  8
0
  0
BLOCK
 67
     1
  8
0
  2
$PAPER_SPACE
 70
     0
 10
0.0
 20
0.0
 30
0.0
  3
$PAPER_SPACE
  1

  0
ENDBLK
  5
1D379
 67
     1
  8
0
  0
BLOCK
  8
0
  2
*U0
 70
     1
 10
0.0
 20
0.0
 30
0.0
  3
*U0
  1

  0
SOLID
  5
DA5C
  8
WAKU
  6
CONTINUOUS
 10
371.305142
 20
283.605291
 30
0.0
 11
370.499782
 21
283.530361
 31
0.0
 12
370.874987
 22
283.520449
 32
0.0
 13
370.874987
 23
283.520449
 33
0.0
  0
SOLID
  5
DA5D
  8
WAKU
  6
CONTINUOUS
 10
370.193309
 20
283.634664
 30
0.0
 11
370.499782
 21
283.530361
 31
0.0
 12
371.305142
 22
283.605291
 32
0.0
 13
371.305142
 23
283.605291
 33
0.0
  0
SOLID
  5
DA5E
  8
WAKU
  6
CONTINUOUS
 10
371.774448
 20
283.781773
 30
0.0
 11
370.193309
 21
283.634664
 31
0.0
 12
371.305142
 22
283.605291
 32
0.0
 13
371.305142
 23
283.605291
 33
0.0
  0
SOLID
  5
DA5F
  8
WAKU
  6
CONTINUOUS
 10
369.966824
 20
283.829526
 30
0.0
 11
370.193309
 21
283.634664
 31
0.0
 12
371.774448
 22
283.781773
 32
0.0
 13
371.774448
 23
283.781773
 33
0.0
  0
SOLID
  5
DA60
  8
WAKU
  6
CONTINUOUS
 10
370.594177
 20
283.909498
 30
0.0
 11
369.966824
 21
283.829526
 31
0.0
 12
371.774448
 22
283.781773
 32
0.0
 13
371.774448
 23
283.781773
 33
0.0
  0
SOLID
  5
DA61
  8
WAKU
  6
CONTINUOUS
 10
370.901294
 20
283.914863
 30
0.0
 11
370.594177
 21
283.909498
 31
0.0
 12
371.774448
 22
283.781773
 32
0.0
 13
371.774448
 23
283.781773
 33
0.0
  0
SOLID
  5
DA62
  8
WAKU
  6
CONTINUOUS
 10
370.392927
 20
283.968568
 30
0.0
 11
369.966824
 21
283.829526
 31
0.0
 12
370.594177
 22
283.909498
 32
0.0
 13
370.594177
 23
283.909498
 33
0.0
  0
SOLID
  5
DA63
  8
WAKU
  6
CONTINUOUS
 10
371.296984
 20
284.010368
 30
0.0
 11
370.901294
 21
283.914863
 31
0.0
 12
371.774448
 22
283.781773
 32
0.0
 13
371.774448
 23
283.781773
 33
0.0
  0
SOLID
  5
DA64
  8
WAKU
  6
CONTINUOUS
 10
372.265666
 20
284.043411
 30
0.0
 11
371.296984
 21
284.010368
 31
0.0
 12
371.774448
 22
283.781773
 32
0.0
 13
371.774448
 23
283.781773
 33
0.0
  0
SOLID
  5
DA65
  8
WAKU
  6
CONTINUOUS
 10
370.275177
 20
284.066476
 30
0.0
 11
369.966824
 21
283.829526
 31
0.0
 12
370.392927
 22
283.968568
 32
0.0
 13
370.392927
 23
283.968568
 33
0.0
  0
SOLID
  5
DA66
  8
WAKU
  6
CONTINUOUS
 10
369.828646
 20
284.107791
 30
0.0
 11
369.966824
 21
283.829526
 31
0.0
 12
370.275177
 22
284.066476
 32
0.0
 13
370.275177
 23
284.066476
 33
0.0
  0
SOLID
  5
DA67
  8
WAKU
  6
CONTINUOUS
 10
370.709458
 20
284.142397
 30
0.0
 11
369.828646
 21
284.107791
 31
0.0
 12
370.275177
 22
284.066476
 32
0.0
 13
370.275177
 23
284.066476
 33
0.0
  0
SOLID
  5
DA68
  8
WAKU
  6
CONTINUOUS
 10
371.751882
 20
284.202798
 30
0.0
 11
371.296984
 21
284.010368
 31
0.0
 12
372.265666
 22
284.043411
 32
0.0
 13
372.265666
 23
284.043411
 33
0.0
  0
SOLID
  5
DA69
  8
WAKU
  6
CONTINUOUS
 10
369.550381
 20
284.245969
 30
0.0
 11
369.828646
 21
284.107791
 31
0.0
 12
370.709458
 22
284.142397
 32
0.0
 13
370.709458
 23
284.142397
 33
0.0
  0
SOLID
  5
DA6A
  8
WAKU
  6
CONTINUOUS
 10
371.186428
 20
284.314625
 30
0.0
 11
369.550381
 21
284.245969
 31
0.0
 12
370.709458
 22
284.142397
 32
0.0
 13
370.709458
 23
284.142397
 33
0.0
  0
SOLID
  5
DA6B
  8
WAKU
  6
CONTINUOUS
 10
372.760756
 20
284.380595
 30
0.0
 11
371.751882
 21
284.202798
 31
0.0
 12
372.265666
 22
284.043411
 32
0.0
 13
372.265666
 23
284.043411
 33
0.0
  0
SOLID
  5
DA6C
  8
WAKU
  6
CONTINUOUS
 10
370.172911
 20
284.451856
 30
0.0
 11
369.550381
 21
284.245969
 31
0.0
 12
371.186428
 22
284.314625
 32
0.0
 13
371.186428
 23
284.314625
 33
0.0
  0
SOLID
  5
DA6D
  8
WAKU
  6
CONTINUOUS
 10
369.355518
 20
284.472454
 30
0.0
 11
369.550381
 21
284.245969
 31
0.0
 12
370.172911
 22
284.451856
 32
0.0
 13
370.172911
 23
284.451856
 33
0.0
  0
SOLID
  5
DA6E
  8
WAKU
  6
CONTINUOUS
 10
372.237497
 20
284.486117
 30
0.0
 11
371.751882
 21
284.202798
 31
0.0
 12
372.760756
 22
284.380595
 32
0.0
 13
372.760756
 23
284.380595
 33
0.0
  0
SOLID
  5
DA6F
  8
WAKU
  6
CONTINUOUS
 10
370.681395
 20
284.539195
 30
0.0
 11
370.172911
 21
284.451856
 31
0.0
 12
371.186428
 22
284.314625
 32
0.0
 13
371.186428
 23
284.314625
 33
0.0
  0
SOLID
  5
DA70
  8
WAKU
  6
CONTINUOUS
 10
369.787305
 20
284.553935
 30
0.0
 11
369.355518
 21
284.472454
 31
0.0
 12
370.172911
 22
284.451856
 32
0.0
 13
370.172911
 23
284.451856
 33
0.0
  0
SOLID
  5
DA71
  8
WAKU
  6
CONTINUOUS
 10
371.68777
 20
284.576545
 30
0.0
 11
370.681395
 21
284.539195
 31
0.0
 12
371.186428
 22
284.314625
 32
0.0
 13
371.186428
 23
284.314625
 33
0.0
  0
SOLID
  5
DA72
  8
WAKU
  6
CONTINUOUS
 10
369.689155
 20
284.672435
 30
0.0
 11
369.355518
 21
284.472454
 31
0.0
 12
369.787305
 22
284.553935
 32
0.0
 13
369.787305
 23
284.553935
 33
0.0
  0
SOLID
  5
DA73
  8
WAKU
  6
CONTINUOUS
 10
369.251215
 20
284.778928
 30
0.0
 11
369.355518
 21
284.472454
 31
0.0
 12
369.689155
 22
284.672435
 32
0.0
 13
369.689155
 23
284.672435
 33
0.0
  0
SOLID
  5
DA74
  8
WAKU
  6
CONTINUOUS
 10
373.241532
 20
284.780941
 30
0.0
 11
372.237497
 21
284.486117
 31
0.0
 12
372.760756
 22
284.380595
 32
0.0
 13
372.760756
 23
284.380595
 33
0.0
  0
SOLID
  5
DA75
  8
WAKU
  6
CONTINUOUS
 10
371.312263
 20
284.810332
 30
0.0
 11
370.681395
 21
284.539195
 31
0.0
 12
371.68777
 22
284.576545
 32
0.0
 13
371.68777
 23
284.576545
 33
0.0
  0
SOLID
  5
DA76
  8
WAKU
  6
CONTINUOUS
 10
369.630358
 20
284.873087
 30
0.0
 11
369.251215
 21
284.778928
 31
0.0
 12
369.689155
 22
284.672435
 32
0.0
 13
369.689155
 23
284.672435
 33
0.0
  0
SOLID
  5
DA77
  8
WAKU
  6
CONTINUOUS
 10
372.194232
 20
284.918099
 30
0.0
 11
371.312263
 21
284.810332
 31
0.0
 12
371.68777
 22
284.576545
 32
0.0
 13
371.68777
 23
284.576545
 33
0.0
  0
SOLID
  5
DA78
  8
WAKU
  6
CONTINUOUS
 10
370.260168
 20
284.959969
 30
0.0
 11
369.787305
 21
284.553935
 31
0.0
 12
370.172911
 22
284.451856
 32
0.0
 13
370.172911
 23
284.451856
 33
0.0
  0
SOLID
  5
DA79
  8
WAKU
  6
CONTINUOUS
 10
369.863139
 20
284.988189
 30
0.0
 11
369.787305
 21
284.553935
 31
0.0
 12
370.260168
 22
284.959969
 32
0.0
 13
370.260168
 23
284.959969
 33
0.0
  0
SOLID
  5
DA7A
  8
WAKU
  6
CONTINUOUS
 10
398.194006
 20
285.115385
 30
0.0
 11
397.606055
 21
283.5
 31
0.0
 12
401.913747
 22
283.5
 32
0.0
 13
401.913747
 23
283.5
 33
0.0
  0
SOLID
  5
DA7B
  8
WAKU
  6
CONTINUOUS
 10
401.913747
 20
283.5
 30
0.0
 11
401.424776
 21
285.115385
 31
0.0
 12
398.194006
 22
285.115385
 32
0.0
 13
398.194006
 23
285.115385
 33
0.0
  0
SOLID
  5
DA7C
  8
WAKU
  6
CONTINUOUS
 10
369.241303
 20
285.154132
 30
0.0
 11
369.251215
 21
284.778928
 31
0.0
 12
369.630358
 22
284.873087
 32
0.0
 13
369.630358
 23
284.873087
 33
0.0
  0
SOLID
  5
DA7D
  8
WAKU
  6
CONTINUOUS
 10
369.635696
 20
285.180404
 30
0.0
 11
369.241303
 21
285.154132
 31
0.0
 12
369.630358
 22
284.873087
 32
0.0
 13
369.630358
 23
284.873087
 33
0.0
  0
SOLID
  5
DA7E
  8
WAKU
  6
CONTINUOUS
 10
373.690335
 20
285.229744
 30
0.0
 11
372.237497
 21
284.486117
 31
0.0
 12
373.241532
 22
284.780941
 32
0.0
 13
373.241532
 23
284.780941
 33
0.0
  0
SOLID
  5
DA7F
  8
WAKU
  6
CONTINUOUS
 10
371.98994
 20
285.251431
 30
0.0
 11
371.312263
 21
284.810332
 31
0.0
 12
372.194232
 22
284.918099
 32
0.0
 13
372.194232
 23
284.918099
 33
0.0
  0
SOLID
  5
DA80
  8
WAKU
  6
CONTINUOUS
 10
373.195965
 20
285.275232
 30
0.0
 11
372.237497
 21
284.486117
 31
0.0
 12
373.690335
 22
285.229744
 32
0.0
 13
373.690335
 23
285.229744
 33
0.0
  0
SOLID
  5
DA81
  8
WAKU
  6
CONTINUOUS
 10
372.686363
 20
285.326171
 30
0.0
 11
371.98994
 21
285.251431
 31
0.0
 12
372.194232
 22
284.918099
 32
0.0
 13
372.194232
 23
284.918099
 33
0.0
  0
SOLID
  5
DA82
  8
WAKU
  6
CONTINUOUS
 10
370.035293
 20
285.465154
 30
0.0
 11
369.863139
 21
284.988189
 31
0.0
 12
370.260168
 22
284.959969
 32
0.0
 13
370.260168
 23
284.959969
 33
0.0
  0
SOLID
  5
DA83
  8
WAKU
  6
CONTINUOUS
 10
369.73149
 20
285.576021
 30
0.0
 11
369.241303
 21
285.154132
 31
0.0
 12
369.635696
 22
285.180404
 32
0.0
 13
369.635696
 23
285.180404
 33
0.0
  0
SOLID
  5
DA84
  8
WAKU
  6
CONTINUOUS
 10
369.326146
 20
285.584287
 30
0.0
 11
369.241303
 21
285.154132
 31
0.0
 12
369.73149
 22
285.576021
 32
0.0
 13
369.73149
 23
285.576021
 33
0.0
  0
SOLID
  5
DA85
  8
WAKU
  6
CONTINUOUS
 10
370.530712
 20
285.590875
 30
0.0
 11
370.035293
 21
285.465154
 31
0.0
 12
370.260168
 22
284.959969
 32
0.0
 13
370.260168
 23
284.959969
 33
0.0
  0
SOLID
  5
DA86
  8
WAKU
  6
CONTINUOUS
 10
389.236144
 20
285.653846
 30
0.0
 11
383.067593
 21
283.5
 31
0.0
 12
388.452208
 22
283.5
 32
0.0
 13
388.452208
 23
283.5
 33
0.0
  0
SOLID
  5
DA87
  8
WAKU
  6
CONTINUOUS
 10
383.851529
 20
285.653846
 30
0.0
 11
383.067593
 21
283.5
 31
0.0
 12
389.236144
 22
285.653846
 32
0.0
 13
389.236144
 23
285.653846
 33
0.0
  0
SOLID
  5
DA88
  8
WAKU
  6
CONTINUOUS
 10
404.851529
 20
285.653846
 30
0.0
 11
404.067593
 21
283.5
 31
0.0
 12
409.452208
 22
283.5
 32
0.0
 13
409.452208
 23
283.5
 33
0.0
  0
SOLID
  5
DA89
  8
WAKU
  6
CONTINUOUS
 10
409.452208
 20
283.5
 30
0.0
 11
409.159221
 21
285.653846
 31
0.0
 12
404.851529
 22
285.653846
 32
0.0
 13
404.851529
 23
285.653846
 33
0.0
  0
SOLID
  5
DA8A
  8
WAKU
  6
CONTINUOUS
 10
391.174606
 20
285.653846
 30
0.0
 11
390.39067
 21
283.5
 31
0.0
 12
395.452208
 22
283.5
 32
0.0
 13
395.452208
 23
283.5
 33
0.0
  0
SOLID
  5
DA8B
  8
WAKU
  6
CONTINUOUS
 10
395.452208
 20
283.5
 30
0.0
 11
395.159221
 21
285.653846
 31
0.0
 12
391.174606
 22
285.653846
 32
0.0
 13
391.174606
 23
285.653846
 33
0.0
  0
SOLID
  5
DA8C
  8
WAKU
  6
CONTINUOUS
 10
374.090681
 20
285.71052
 30
0.0
 11
373.195965
 21
285.275232
 31
0.0
 12
373.690335
 22
285.229744
 32
0.0
 13
373.690335
 23
285.229744
 33
0.0
  0
SOLID
  5
DA8D
  8
WAKU
  6
CONTINUOUS
 10
373.145266
 20
285.785089
 30
0.0
 11
371.98994
 21
285.251431
 31
0.0
 12
372.686363
 22
285.326171
 32
0.0
 13
372.686363
 23
285.326171
 33
0.0
  0
SOLID
  5
DA8E
  8
WAKU
  6
CONTINUOUS
 10
372.646296
 20
285.825506
 30
0.0
 11
371.98994
 21
285.251431
 31
0.0
 12
373.145266
 22
285.785089
 32
0.0
 13
373.145266
 23
285.785089
 33
0.0
  0
SOLID
  5
DA8F
  8
WAKU
  6
CONTINUOUS
 10
370.297156
 20
285.966509
 30
0.0
 11
370.035293
 21
285.465154
 31
0.0
 12
370.530712
 22
285.590875
 32
0.0
 13
370.530712
 23
285.590875
 33
0.0
  0
SOLID
  5
DA90
  8
WAKU
  6
CONTINUOUS
 10
369.923519
 20
286.031028
 30
0.0
 11
369.326146
 21
285.584287
 31
0.0
 12
369.73149
 22
285.576021
 32
0.0
 13
369.73149
 23
285.576021
 33
0.0
  0
SOLID
  5
DA91
  8
WAKU
  6
CONTINUOUS
 10
369.502627
 20
286.053593
 30
0.0
 11
369.326146
 21
285.584287
 31
0.0
 12
369.923519
 22
286.031028
 32
0.0
 13
369.923519
 23
286.031028
 33
0.0
  0
SOLID
  5
DA92
  8
WAKU
  6
CONTINUOUS
 10
379.397145
 20
286.138462
 30
0.0
 11
378.436824
 21
283.5
 31
0.0
 12
379.513747
 22
283.5
 32
0.0
 13
379.513747
 23
283.5
 33
0.0
  0
SOLID
  5
DA93
  8
WAKU
  6
CONTINUOUS
 10
377.155205
 20
286.192308
 30
0.0
 11
376.175285
 21
283.5
 31
0.0
 12
379.397145
 22
286.138462
 32
0.0
 13
379.397145
 23
286.138462
 33
0.0
  0
SOLID
  5
DA94
  8
WAKU
  6
CONTINUOUS
 10
380.493667
 20
286.192308
 30
0.0
 11
377.155205
 21
286.192308
 31
0.0
 12
379.397145
 22
286.138462
 32
0.0
 13
379.397145
 23
286.138462
 33
0.0
  0
SOLID
  5
DA95
  8
WAKU
  6
CONTINUOUS
 10
380.493667
 20
286.192308
 30
0.0
 11
379.397145
 21
286.138462
 31
0.0
 12
379.513747
 22
283.5
 32
0.0
 13
379.513747
 23
283.5
 33
0.0
  0
SOLID
  5
DA96
  8
WAKU
  6
CONTINUOUS
 10
380.493667
 20
286.192308
 30
0.0
 11
381.775285
 21
283.5
 31
0.0
 12
382.755205
 22
286.192308
 32
0.0
 13
382.755205
 23
286.192308
 33
0.0
  0
SOLID
  5
DA97
  8
WAKU
  6
CONTINUOUS
 10
374.427865
 20
286.205609
 30
0.0
 11
373.195965
 21
285.275232
 31
0.0
 12
374.090681
 22
285.71052
 32
0.0
 13
374.090681
 23
285.71052
 33
0.0
  0
SOLID
  5
DA98
  8
WAKU
  6
CONTINUOUS
 10
373.98505
 20
286.233718
 30
0.0
 11
373.195965
 21
285.275232
 31
0.0
 12
374.427865
 22
286.205609
 32
0.0
 13
374.427865
 23
286.205609
 33
0.0
  0
SOLID
  5
DA99
  8
WAKU
  6
CONTINUOUS
 10
370.971896
 20
286.268471
 30
0.0
 11
370.297156
 21
285.966509
 31
0.0
 12
370.530712
 22
285.590875
 32
0.0
 13
370.530712
 23
285.590875
 33
0.0
  0
SOLID
  5
DA9A
  8
WAKU
  6
CONTINUOUS
 10
373.553316
 20
286.277229
 30
0.0
 11
372.646296
 21
285.825506
 31
0.0
 12
373.145266
 22
285.785089
 32
0.0
 13
373.145266
 23
285.785089
 33
0.0
  0
SOLID
  5
DA9B
  8
WAKU
  6
CONTINUOUS
 10
370.638671
 20
286.473
 30
0.0
 11
370.297156
 21
285.966509
 31
0.0
 12
370.971896
 22
286.268471
 32
0.0
 13
370.971896
 23
286.268471
 33
0.0
  0
SOLID
  5
DA9C
  8
WAKU
  6
CONTINUOUS
 10
373.220238
 20
286.48192
 30
0.0
 11
372.646296
 21
285.825506
 31
0.0
 12
373.553316
 22
286.277229
 32
0.0
 13
373.553316
 23
286.277229
 33
0.0
  0
SOLID
  5
DA9D
  8
WAKU
  6
CONTINUOUS
 10
370.207035
 20
286.51657
 30
0.0
 11
369.502627
 21
286.053593
 31
0.0
 12
369.923519
 22
286.031028
 32
0.0
 13
369.923519
 23
286.031028
 33
0.0
  0
SOLID
  5
DA9E
  8
WAKU
  6
CONTINUOUS
 10
369.764265
 20
286.544812
 30
0.0
 11
369.502627
 21
286.053593
 31
0.0
 12
370.207035
 22
286.51657
 32
0.0
 13
370.207035
 23
286.51657
 33
0.0
  0
SOLID
  5
DA9F
  8
WAKU
  6
CONTINUOUS
 10
374.689503
 20
286.696828
 30
0.0
 11
373.98505
 21
286.233718
 31
0.0
 12
374.427865
 22
286.205609
 32
0.0
 13
374.427865
 23
286.205609
 33
0.0
  0
SOLID
  5
DAA0
  8
WAKU
  6
CONTINUOUS
 10
374.268507
 20
286.719278
 30
0.0
 11
373.98505
 21
286.233718
 31
0.0
 12
374.689503
 22
286.696828
 32
0.0
 13
374.689503
 23
286.696828
 33
0.0
  0
SOLID
  5
DAA1
  8
WAKU
  6
CONTINUOUS
 10
373.894843
 20
286.783693
 30
0.0
 11
373.220238
 21
286.48192
 31
0.0
 12
373.553316
 22
286.277229
 32
0.0
 13
373.553316
 23
286.277229
 33
0.0
  0
SOLID
  5
DAA2
  8
WAKU
  6
CONTINUOUS
 10
371.545827
 20
286.924893
 30
0.0
 11
370.638671
 21
286.473
 31
0.0
 12
370.971896
 22
286.268471
 32
0.0
 13
370.971896
 23
286.268471
 33
0.0
  0
SOLID
  5
DAA3
  8
WAKU
  6
CONTINUOUS
 10
371.04672
 20
286.965174
 30
0.0
 11
370.638671
 21
286.473
 31
0.0
 12
371.545827
 22
286.924893
 32
0.0
 13
371.545827
 23
286.924893
 33
0.0
  0
SOLID
  5
DAA4
  8
WAKU
  6
CONTINUOUS
 10
370.101449
 20
287.039901
 30
0.0
 11
369.764265
 21
286.544812
 31
0.0
 12
370.207035
 22
286.51657
 32
0.0
 13
370.207035
 23
286.51657
 33
0.0
  0
SOLID
  5
DAA5
  8
WAKU
  6
CONTINUOUS
 10
373.661353
 20
287.159534
 30
0.0
 11
373.220238
 21
286.48192
 31
0.0
 12
373.894843
 22
286.783693
 32
0.0
 13
373.894843
 23
286.783693
 33
0.0
  0
SOLID
  5
DAA6
  8
WAKU
  6
CONTINUOUS
 10
374.865984
 20
287.166134
 30
0.0
 11
374.268507
 21
286.719278
 31
0.0
 12
374.689503
 22
286.696828
 32
0.0
 13
374.689503
 23
286.696828
 33
0.0
  0
SOLID
  5
DAA7
  8
WAKU
  6
CONTINUOUS
 10
374.46071
 20
287.174248
 30
0.0
 11
374.268507
 21
286.719278
 31
0.0
 12
374.865984
 22
287.166134
 32
0.0
 13
374.865984
 23
287.166134
 33
0.0
  0
SOLID
  5
DAA8
  8
WAKU
  6
CONTINUOUS
 10
374.156732
 20
287.28503
 30
0.0
 11
373.661353
 21
287.159534
 31
0.0
 12
373.894843
 22
286.783693
 32
0.0
 13
373.894843
 23
286.783693
 33
0.0
  0
SOLID
  5
DAA9
  8
WAKU
  6
CONTINUOUS
 10
371.505632
 20
287.424128
 30
0.0
 11
371.04672
 21
286.965174
 31
0.0
 12
371.545827
 22
286.924893
 32
0.0
 13
371.545827
 23
286.924893
 33
0.0
  0
SOLID
  5
DAAA
  8
WAKU
  6
CONTINUOUS
 10
370.996098
 20
287.475108
 30
0.0
 11
370.101449
 21
287.039901
 31
0.0
 12
370.207035
 22
286.51657
 32
0.0
 13
370.207035
 23
286.51657
 33
0.0
  0
SOLID
  5
DAAB
  8
WAKU
  6
CONTINUOUS
 10
372.202181
 20
287.498991
 30
0.0
 11
371.505632
 21
287.424128
 31
0.0
 12
371.545827
 22
286.924893
 32
0.0
 13
371.545827
 23
286.924893
 33
0.0
  0
SOLID
  5
DAAC
  8
WAKU
  6
CONTINUOUS
 10
370.501795
 20
287.520677
 30
0.0
 11
370.101449
 21
287.039901
 31
0.0
 12
370.996098
 22
287.475108
 32
0.0
 13
370.996098
 23
287.475108
 33
0.0
  0
SOLID
  5
DAAD
  8
WAKU
  6
CONTINUOUS
 10
374.556361
 20
287.569864
 30
0.0
 11
374.46071
 21
287.174248
 31
0.0
 12
374.865984
 22
287.166134
 32
0.0
 13
374.865984
 23
287.166134
 33
0.0
  0
SOLID
  5
DAAE
  8
WAKU
  6
CONTINUOUS
 10
395.864763
 20
287.592308
 30
0.0
 11
395.159221
 21
285.653846
 31
0.0
 12
395.452208
 22
283.5
 32
0.0
 13
395.452208
 23
283.5
 33
0.0
  0
SOLID
  5
DAAF
  8
WAKU
  6
CONTINUOUS
 10
393.172456
 20
287.592308
 30
0.0
 11
391.703565
 21
286.515385
 31
0.0
 12
392.780488
 22
286.515385
 32
0.0
 13
392.780488
 23
286.515385
 33
0.0
  0
SOLID
  5
DAB0
  8
WAKU
  6
CONTINUOUS
 10
392.095533
 20
287.592308
 30
0.0
 11
391.703565
 21
286.515385
 31
0.0
 12
393.172456
 22
287.592308
 32
0.0
 13
393.172456
 23
287.592308
 33
0.0
  0
SOLID
  5
DAB1
  8
WAKU
  6
CONTINUOUS
 10
391.28784
 20
287.592308
 30
0.0
 11
392.095533
 21
287.592308
 31
0.0
 12
393.172456
 22
287.592308
 32
0.0
 13
393.172456
 23
287.592308
 33
0.0
  0
SOLID
  5
DAB2
  8
WAKU
  6
CONTINUOUS
 10
391.28784
 20
287.592308
 30
0.0
 11
393.172456
 21
287.592308
 31
0.0
 12
395.864763
 22
287.592308
 32
0.0
 13
395.864763
 23
287.592308
 33
0.0
  0
SOLID
  5
DAB3
  8
WAKU
  6
CONTINUOUS
 10
396.941687
 20
287.592308
 30
0.0
 11
391.28784
 21
287.592308
 31
0.0
 12
395.864763
 22
287.592308
 32
0.0
 13
395.864763
 23
287.592308
 33
0.0
  0
SOLID
  5
DAB4
  8
WAKU
  6
CONTINUOUS
 10
396.941687
 20
287.592308
 30
0.0
 11
395.864763
 21
287.592308
 31
0.0
 12
395.452208
 22
283.5
 32
0.0
 13
395.452208
 23
283.5
 33
0.0
  0
SOLID
  5
DAB5
  8
WAKU
  6
CONTINUOUS
 10
374.950827
 20
287.596289
 30
0.0
 11
374.556361
 21
287.569864
 31
0.0
 12
374.865984
 22
287.166134
 32
0.0
 13
374.865984
 23
287.166134
 33
0.0
  0
SOLID
  5
DAB6
  8
WAKU
  6
CONTINUOUS
 10
374.328925
 20
287.761987
 30
0.0
 11
373.661353
 21
287.159534
 31
0.0
 12
374.156732
 22
287.28503
 32
0.0
 13
374.156732
 23
287.28503
 33
0.0
  0
SOLID
  5
DAB7
  8
WAKU
  6
CONTINUOUS
 10
373.932071
 20
287.790402
 30
0.0
 11
373.661353
 21
287.159534
 31
0.0
 12
374.328925
 22
287.761987
 32
0.0
 13
374.328925
 23
287.761987
 33
0.0
  0
SOLID
  5
DAB8
  8
WAKU
  6
CONTINUOUS
 10
371.997783
 20
287.832235
 30
0.0
 11
371.505632
 21
287.424128
 31
0.0
 12
372.202181
 22
287.498991
 32
0.0
 13
372.202181
 23
287.498991
 33
0.0
  0
SOLID
  5
DAB9
  8
WAKU
  6
CONTINUOUS
 10
374.561802
 20
287.877253
 30
0.0
 11
374.556361
 21
287.569864
 31
0.0
 12
374.950827
 22
287.596289
 32
0.0
 13
374.950827
 23
287.596289
 33
0.0
  0
SOLID
  5
DABA
  8
WAKU
  6
CONTINUOUS
 10
372.879878
 20
287.940057
 30
0.0
 11
371.997783
 21
287.832235
 31
0.0
 12
372.202181
 22
287.498991
 32
0.0
 13
372.202181
 23
287.498991
 33
0.0
  0
SOLID
  5
DABB
  8
WAKU
  6
CONTINUOUS
 10
370.950599
 20
287.96948
 30
0.0
 11
370.501795
 21
287.520677
 31
0.0
 12
370.996098
 22
287.475108
 32
0.0
 13
370.996098
 23
287.475108
 33
0.0
  0
SOLID
  5
DABC
  8
WAKU
  6
CONTINUOUS
 10
374.940915
 20
287.971493
 30
0.0
 11
374.561802
 21
287.877253
 31
0.0
 12
374.950827
 22
287.596289
 32
0.0
 13
374.950827
 23
287.596289
 33
0.0
  0
SOLID
  5
DABD
  8
WAKU
  6
CONTINUOUS
 10
374.502951
 20
288.077918
 30
0.0
 11
374.561802
 21
287.877253
 31
0.0
 12
374.940915
 22
287.971493
 32
0.0
 13
374.940915
 23
287.971493
 33
0.0
  0
SOLID
  5
DABE
  8
WAKU
  6
CONTINUOUS
 10
405.753055
 20
288.130769
 30
0.0
 11
405.282694
 21
286.838462
 31
0.0
 12
408.513463
 22
286.838462
 32
0.0
 13
408.513463
 23
286.838462
 33
0.0
  0
SOLID
  5
DABF
  8
WAKU
  6
CONTINUOUS
 10
408.983824
 20
288.130769
 30
0.0
 11
405.753055
 21
288.130769
 31
0.0
 12
408.513463
 22
286.838462
 32
0.0
 13
408.513463
 23
286.838462
 33
0.0
  0
SOLID
  5
DAC0
  8
WAKU
  6
CONTINUOUS
 10
372.504269
 20
288.173821
 30
0.0
 11
371.997783
 21
287.832235
 31
0.0
 12
372.879878
 22
287.940057
 32
0.0
 13
372.879878
 23
287.940057
 33
0.0
  0
SOLID
  5
DAC1
  8
WAKU
  6
CONTINUOUS
 10
374.40481
 20
288.196249
 30
0.0
 11
373.932071
 21
287.790402
 31
0.0
 12
374.328925
 22
287.761987
 32
0.0
 13
374.328925
 23
287.761987
 33
0.0
  0
SOLID
  5
DAC2
  8
WAKU
  6
CONTINUOUS
 10
374.40481
 20
288.196249
 30
0.0
 11
374.502951
 21
288.077918
 31
0.0
 12
374.940915
 22
287.971493
 32
0.0
 13
374.940915
 23
287.971493
 33
0.0
  0
SOLID
  5
DAC3
  8
WAKU
  6
CONTINUOUS
 10
373.510738
 20
288.21124
 30
0.0
 11
372.504269
 21
288.173821
 31
0.0
 12
372.879878
 22
287.940057
 32
0.0
 13
372.879878
 23
287.940057
 33
0.0
  0
SOLID
  5
DAC4
  8
WAKU
  6
CONTINUOUS
 10
371.954587
 20
288.264284
 30
0.0
 11
370.950599
 21
287.96948
 31
0.0
 12
370.996098
 22
287.475108
 32
0.0
 13
370.996098
 23
287.475108
 33
0.0
  0
SOLID
  5
DAC5
  8
WAKU
  6
CONTINUOUS
 10
374.836612
 20
288.277967
 30
0.0
 11
374.40481
 21
288.196249
 31
0.0
 12
374.940915
 22
287.971493
 32
0.0
 13
374.940915
 23
287.971493
 33
0.0
  0
SOLID
  5
DAC6
  8
WAKU
  6
CONTINUOUS
 10
374.019229
 20
288.298569
 30
0.0
 11
372.504269
 21
288.173821
 31
0.0
 12
373.510738
 22
288.21124
 32
0.0
 13
373.510738
 23
288.21124
 33
0.0
  0
SOLID
  5
DAC7
  8
WAKU
  6
CONTINUOUS
 10
374.019229
 20
288.298569
 30
0.0
 11
374.40481
 21
288.196249
 31
0.0
 12
374.836612
 22
288.277967
 32
0.0
 13
374.836612
 23
288.277967
 33
0.0
  0
SOLID
  5
DAC8
  8
WAKU
  6
CONTINUOUS
 10
374.019229
 20
288.298569
 30
0.0
 11
373.932071
 21
287.790402
 31
0.0
 12
374.40481
 22
288.196249
 32
0.0
 13
374.40481
 23
288.196249
 33
0.0
  0
SOLID
  5
DAC9
  8
WAKU
  6
CONTINUOUS
 10
371.431374
 20
288.369826
 30
0.0
 11
370.950599
 21
287.96948
 31
0.0
 12
371.954587
 22
288.264284
 32
0.0
 13
371.954587
 23
288.264284
 33
0.0
  0
SOLID
  5
DACA
  8
WAKU
  6
CONTINUOUS
 10
373.005639
 20
288.435768
 30
0.0
 11
372.504269
 21
288.173821
 31
0.0
 12
374.019229
 22
288.298569
 32
0.0
 13
374.019229
 23
288.298569
 33
0.0
  0
SOLID
  5
DACB
  8
WAKU
  6
CONTINUOUS
 10
374.641749
 20
288.504452
 30
0.0
 11
373.005639
 21
288.435768
 31
0.0
 12
374.019229
 22
288.298569
 32
0.0
 13
374.019229
 23
288.298569
 33
0.0
  0
SOLID
  5
DACC
  8
WAKU
  6
CONTINUOUS
 10
374.641749
 20
288.504452
 30
0.0
 11
374.019229
 21
288.298569
 31
0.0
 12
374.836612
 22
288.277967
 32
0.0
 13
374.836612
 23
288.277967
 33
0.0
  0
SOLID
  5
DACD
  8
WAKU
  6
CONTINUOUS
 10
372.440235
 20
288.547585
 30
0.0
 11
371.431374
 21
288.369826
 31
0.0
 12
371.954587
 22
288.264284
 32
0.0
 13
371.954587
 23
288.264284
 33
0.0
  0
SOLID
  5
DACE
  8
WAKU
  6
CONTINUOUS
 10
373.482636
 20
288.608014
 30
0.0
 11
373.005639
 21
288.435768
 31
0.0
 12
374.641749
 22
288.504452
 32
0.0
 13
374.641749
 23
288.504452
 33
0.0
  0
SOLID
  5
DACF
  8
WAKU
  6
CONTINUOUS
 10
374.363484
 20
288.64263
 30
0.0
 11
373.482636
 21
288.608014
 31
0.0
 12
374.641749
 22
288.504452
 32
0.0
 13
374.641749
 23
288.504452
 33
0.0
  0
SOLID
  5
DAD0
  8
WAKU
  6
CONTINUOUS
 10
373.916941
 20
288.683944
 30
0.0
 11
373.482636
 21
288.608014
 31
0.0
 12
374.363484
 22
288.64263
 32
0.0
 13
374.363484
 23
288.64263
 33
0.0
  0
SOLID
  5
DAD1
  8
WAKU
  6
CONTINUOUS
 10
371.926464
 20
288.70701
 30
0.0
 11
371.431374
 21
288.369826
 31
0.0
 12
372.440235
 22
288.547585
 32
0.0
 13
372.440235
 23
288.547585
 33
0.0
  0
SOLID
  5
DAD2
  8
WAKU
  6
CONTINUOUS
 10
372.89514
 20
288.740065
 30
0.0
 11
371.926464
 21
288.70701
 31
0.0
 12
372.440235
 22
288.547585
 32
0.0
 13
372.440235
 23
288.547585
 33
0.0
  0
SOLID
  5
DAD3
  8
WAKU
  6
CONTINUOUS
 10
380.311313
 20
288.776923
 30
0.0
 11
377.155205
 21
286.192308
 31
0.0
 12
380.493667
 22
286.192308
 32
0.0
 13
380.493667
 23
286.192308
 33
0.0
  0
SOLID
  5
DAD4
  8
WAKU
  6
CONTINUOUS
 10
381.524851
 20
288.776923
 30
0.0
 11
378.095928
 21
288.776923
 31
0.0
 12
380.311313
 22
288.776923
 32
0.0
 13
380.311313
 23
288.776923
 33
0.0
  0
SOLID
  5
DAD5
  8
WAKU
  6
CONTINUOUS
 10
381.524851
 20
288.776923
 30
0.0
 11
380.311313
 21
288.776923
 31
0.0
 12
380.493667
 22
286.192308
 32
0.0
 13
380.493667
 23
286.192308
 33
0.0
  0
SOLID
  5
DAD6
  8
WAKU
  6
CONTINUOUS
 10
381.524851
 20
288.776923
 30
0.0
 11
380.493667
 21
286.192308
 31
0.0
 12
382.755205
 22
286.192308
 32
0.0
 13
382.755205
 23
286.192308
 33
0.0
  0
SOLID
  5
DAD7
  8
WAKU
  6
CONTINUOUS
 10
373.799148
 20
288.781929
 30
0.0
 11
373.916941
 21
288.683944
 31
0.0
 12
374.363484
 22
288.64263
 32
0.0
 13
374.363484
 23
288.64263
 33
0.0
  0
SOLID
  5
DAD8
  8
WAKU
  6
CONTINUOUS
 10
373.290857
 20
288.835581
 30
0.0
 11
371.926464
 21
288.70701
 31
0.0
 12
372.89514
 22
288.740065
 32
0.0
 13
372.89514
 23
288.740065
 33
0.0
  0
SOLID
  5
DAD9
  8
WAKU
  6
CONTINUOUS
 10
373.597996
 20
288.840902
 30
0.0
 11
373.799148
 21
288.781929
 31
0.0
 12
374.363484
 22
288.64263
 32
0.0
 13
374.363484
 23
288.64263
 33
0.0
  0
SOLID
  5
DADA
  8
WAKU
  6
CONTINUOUS
 10
402.042817
 20
288.884615
 30
0.0
 11
400.181958
 21
286.730769
 31
0.0
 12
401.258881
 22
286.730769
 32
0.0
 13
401.258881
 23
286.730769
 33
0.0
  0
SOLID
  5
DADB
  8
WAKU
  6
CONTINUOUS
 10
402.796663
 20
288.884615
 30
0.0
 11
401.424776
 21
285.115385
 31
0.0
 12
401.913747
 22
283.5
 32
0.0
 13
401.913747
 23
283.5
 33
0.0
  0
SOLID
  5
DADC
  8
WAKU
  6
CONTINUOUS
 10
403.873587
 20
288.884615
 30
0.0
 11
402.796663
 21
288.884615
 31
0.0
 12
401.913747
 22
283.5
 32
0.0
 13
401.913747
 23
283.5
 33
0.0
  0
SOLID
  5
DADD
  8
WAKU
  6
CONTINUOUS
 10
400.965894
 20
288.884615
 30
0.0
 11
400.181958
 21
286.730769
 31
0.0
 12
402.042817
 22
288.884615
 32
0.0
 13
402.042817
 23
288.884615
 33
0.0
  0
SOLID
  5
DADE
  8
WAKU
  6
CONTINUOUS
 10
399.858881
 20
286.730769
 30
0.0
 11
400.642817
 21
288.884615
 31
0.0
 12
399.565894
 22
288.884615
 32
0.0
 13
399.565894
 23
288.884615
 33
0.0
  0
SOLID
  5
DADF
  8
WAKU
  6
CONTINUOUS
 10
399.565894
 20
288.884615
 30
0.0
 11
398.781958
 21
286.730769
 31
0.0
 12
399.858881
 22
286.730769
 32
0.0
 13
399.858881
 23
286.730769
 33
0.0
  0
SOLID
  5
DAE0
  8
WAKU
  6
CONTINUOUS
 10
374.225306
 20
288.920895
 30
0.0
 11
373.597996
 21
288.840902
 31
0.0
 12
374.363484
 22
288.64263
 32
0.0
 13
374.363484
 23
288.64263
 33
0.0
  0
SOLID
  5
DAE1
  8
WAKU
  6
CONTINUOUS
 10
372.417683
 20
288.968648
 30
0.0
 11
373.597996
 21
288.840902
 31
0.0
 12
374.225306
 22
288.920895
 32
0.0
 13
374.225306
 23
288.920895
 33
0.0
  0
SOLID
  5
DAE2
  8
WAKU
  6
CONTINUOUS
 10
372.417683
 20
288.968648
 30
0.0
 11
373.290857
 21
288.835581
 31
0.0
 12
373.597996
 22
288.840902
 32
0.0
 13
373.597996
 23
288.840902
 33
0.0
  0
SOLID
  5
DAE3
  8
WAKU
  6
CONTINUOUS
 10
372.417683
 20
288.968648
 30
0.0
 11
371.926464
 21
288.70701
 31
0.0
 12
373.290857
 22
288.835581
 32
0.0
 13
373.290857
 23
288.835581
 33
0.0
  0
SOLID
  5
DAE4
  8
WAKU
  6
CONTINUOUS
 10
373.998821
 20
289.115757
 30
0.0
 11
372.417683
 21
288.968648
 31
0.0
 12
374.225306
 22
288.920895
 32
0.0
 13
374.225306
 23
288.920895
 33
0.0
  0
SOLID
  5
DAE5
  8
WAKU
  6
CONTINUOUS
 10
372.886988
 20
289.145129
 30
0.0
 11
372.417683
 21
288.968648
 31
0.0
 12
373.998821
 22
289.115757
 32
0.0
 13
373.998821
 23
289.115757
 33
0.0
  0
SOLID
  5
DAE6
  8
WAKU
  6
CONTINUOUS
 10
396.941687
 20
287.592308
 30
0.0
 11
396.452715
 21
289.207692
 31
0.0
 12
393.760408
 22
289.207692
 32
0.0
 13
393.760408
 23
289.207692
 33
0.0
  0
SOLID
  5
DAE7
  8
WAKU
  6
CONTINUOUS
 10
396.452715
 20
289.207692
 30
0.0
 11
396.941687
 21
287.592308
 31
0.0
 12
397.749379
 22
287.592308
 32
0.0
 13
397.749379
 23
287.592308
 33
0.0
  0
SOLID
  5
DAE8
  8
WAKU
  6
CONTINUOUS
 10
393.760408
 20
289.207692
 30
0.0
 11
391.28784
 21
287.592308
 31
0.0
 12
396.941687
 22
287.592308
 32
0.0
 13
396.941687
 23
287.592308
 33
0.0
  0
SOLID
  5
DAE9
  8
WAKU
  6
CONTINUOUS
 10
398.337331
 20
289.207692
 30
0.0
 11
396.452715
 21
289.207692
 31
0.0
 12
397.749379
 22
287.592308
 32
0.0
 13
397.749379
 23
287.592308
 33
0.0
  0
SOLID
  5
DAEA
  8
WAKU
  6
CONTINUOUS
 10
391.875792
 20
289.207692
 30
0.0
 11
391.28784
 21
287.592308
 31
0.0
 12
393.760408
 22
289.207692
 32
0.0
 13
393.760408
 23
289.207692
 33
0.0
  0
SOLID
  5
DAEB
  8
WAKU
  6
CONTINUOUS
 10
393.760408
 20
289.207692
 30
0.0
 11
392.683485
 21
289.207692
 31
0.0
 12
391.875792
 22
289.207692
 32
0.0
 13
391.875792
 23
289.207692
 33
0.0
  0
SOLID
  5
DAEC
  8
WAKU
  6
CONTINUOUS
 10
397.529638
 20
289.207692
 30
0.0
 11
396.452715
 21
289.207692
 31
0.0
 12
398.337331
 22
289.207692
 32
0.0
 13
398.337331
 23
289.207692
 33
0.0
  0
SOLID
  5
DAED
  8
WAKU
  6
CONTINUOUS
 10
373.692348
 20
289.22006
 30
0.0
 11
372.886988
 21
289.145129
 31
0.0
 12
373.998821
 22
289.115757
 32
0.0
 13
373.998821
 23
289.115757
 33
0.0
  0
SOLID
  5
DAEE
  8
WAKU
  6
CONTINUOUS
 10
373.317143
 20
289.229972
 30
0.0
 11
372.886988
 21
289.145129
 31
0.0
 12
373.692348
 22
289.22006
 32
0.0
 13
373.692348
 23
289.22006
 33
0.0
  0
SOLID
  5
DAEF
  8
WAKU
  6
CONTINUOUS
 10
378.723077
 20
290.5
 30
0.0
 11
381.524851
 21
288.776923
 31
0.0
 12
383.695928
 22
288.776923
 32
0.0
 13
383.695928
 23
288.776923
 33
0.0
  0
SOLID
  5
DAF0
  8
WAKU
  6
CONTINUOUS
 10
378.723077
 20
290.5
 30
0.0
 11
378.095928
 21
288.776923
 31
0.0
 12
381.524851
 22
288.776923
 32
0.0
 13
381.524851
 23
288.776923
 33
0.0
  0
SOLID
  5
DAF1
  8
WAKU
  6
CONTINUOUS
 10
372.249053
 20
290.5
 30
0.0
 11
367.971276
 21
290.5
 31
0.0
 12
367.971276
 22
286.222222
 32
0.0
 13
367.971276
 23
286.222222
 33
0.0
  0
SOLID
  5
DAF2
  8
WAKU
  6
CONTINUOUS
 10
409.219005
 20
288.776923
 30
0.0
 11
409.846154
 21
290.5
 31
0.0
 12
406.615385
 22
290.5
 32
0.0
 13
406.615385
 23
290.5
 33
0.0
  0
SOLID
  5
DAF3
  8
WAKU
  6
CONTINUOUS
 10
406.615385
 20
290.5
 30
0.0
 11
405.988236
 21
288.776923
 31
0.0
 12
409.219005
 22
288.776923
 32
0.0
 13
409.219005
 23
288.776923
 33
0.0
  0
SOLID
  5
DAF4
  8
WAKU
  6
CONTINUOUS
 10
392.683485
 20
289.207692
 30
0.0
 11
394.230769
 21
290.5
 31
0.0
 12
393.153846
 22
290.5
 32
0.0
 13
393.153846
 23
290.5
 33
0.0
  0
SOLID
  5
DAF5
  8
WAKU
  6
CONTINUOUS
 10
394.230769
 20
290.5
 30
0.0
 11
392.683485
 21
289.207692
 31
0.0
 12
393.760408
 22
289.207692
 32
0.0
 13
393.760408
 23
289.207692
 33
0.0
  0
SOLID
  5
DAF6
  8
WAKU
  6
CONTINUOUS
 10
409.159221
 20
285.653846
 30
0.0
 11
412.0
 21
290.5
 31
0.0
 12
410.923077
 22
290.5
 32
0.0
 13
410.923077
 23
290.5
 33
0.0
  0
SOLID
  5
DAF7
  8
WAKU
  6
CONTINUOUS
 10
412.0
 20
290.5
 30
0.0
 11
409.159221
 21
285.653846
 31
0.0
 12
409.452208
 22
283.5
 32
0.0
 13
409.452208
 23
283.5
 33
0.0
  0
SOLID
  5
DAF8
  8
WAKU
  6
CONTINUOUS
 10
384.323077
 20
290.5
 30
0.0
 11
378.723077
 21
290.5
 31
0.0
 12
383.695928
 22
288.776923
 32
0.0
 13
383.695928
 23
288.776923
 33
0.0
  0
SOLID
  5
DAF9
  8
WAKU
  6
CONTINUOUS
 10
385.615385
 20
290.5
 30
0.0
 11
384.988236
 21
288.776923
 31
0.0
 12
390.372851
 22
288.776923
 32
0.0
 13
390.372851
 23
288.776923
 33
0.0
  0
SOLID
  5
DAFA
  8
WAKU
  6
CONTINUOUS
 10
396.923077
 20
290.5
 30
0.0
 11
396.452715
 21
289.207692
 31
0.0
 12
397.529638
 22
289.207692
 32
0.0
 13
397.529638
 23
289.207692
 33
0.0
  0
SOLID
  5
DAFB
  8
WAKU
  6
CONTINUOUS
 10
391.0
 20
290.5
 30
0.0
 11
385.615385
 21
290.5
 31
0.0
 12
390.372851
 22
288.776923
 32
0.0
 13
390.372851
 23
288.776923
 33
0.0
  0
SOLID
  5
DAFC
  8
WAKU
  6
CONTINUOUS
 10
398.0
 20
290.5
 30
0.0
 11
396.923077
 21
290.5
 31
0.0
 12
397.529638
 22
289.207692
 32
0.0
 13
397.529638
 23
289.207692
 33
0.0
  0
ENDBLK
  5
DAFD
  8
0
  0
ENDSEC
  0
SECTION
  2
ENTITIES
  0
LINE
  5
DB05
  8
WAKU
 10
415.0
 20
292.0
 30
0.0
 11
415.0
 21
5.0
 31
0.0
  0
LINE
  5
DB06
  8
WAKU
 10
5.0
 20
292.0
 30
0.0
 11
5.0
 21
5.0
 31
0.0
  0
LINE
  5
DB07
  8
WAKU
 10
5.0
 20
5.0
 30
0.0
 11
415.0
 21
5.0
 31
0.0
  0
LINE
  5
DB08
  8
WAKU
 10
5.0
 20
292.0
 30
0.0
 11
415.0
 21
292.0
 31
0.0
  0
LINE
  5
DB09
  8
WAKU
 10
5.0
 20
282.0
 30
0.0
 11
415.0
 21
282.0
 31
0.0
  0
LINE
  5
DB0A
  8
WAKU
  6
CONTINUOUS
 10
393.760408
 20
289.207692
 30
0.0
 11
396.452715
 21
289.207692
 31
0.0
  0
LINE
  5
DB0B
  8
WAKU
  6
CONTINUOUS
 10
393.172456
 20
287.592308
 30
0.0
 11
395.864763
 21
287.592308
 31
0.0
  0
LINE
  5
DB0C
  8
WAKU
  6
CONTINUOUS
 10
390.39067
 20
283.5
 30
0.0
 11
395.452208
 21
283.5
 31
0.0
  0
LINE
  5
DB0D
  8
WAKU
  6
CONTINUOUS
 10
395.159221
 20
285.653846
 30
0.0
 11
395.864763
 21
287.592308
 31
0.0
  0
LINE
  5
DB0E
  8
WAKU
  6
CONTINUOUS
 10
367.971276
 20
290.5
 30
0.0
 11
372.249053
 21
290.5
 31
0.0
  0
LINE
  5
DB0F
  8
WAKU
  6
CONTINUOUS
 10
367.971276
 20
286.222222
 30
0.0
 11
372.249053
 21
290.5
 31
0.0
  0
LINE
  5
DB10
  8
WAKU
  6
CONTINUOUS
 10
367.971276
 20
290.5
 30
0.0
 11
367.971276
 21
286.222222
 31
0.0
  0
LINE
  5
DB11
  8
WAKU
  6
CONTINUOUS
 10
381.524851
 20
288.776923
 30
0.0
 11
383.695928
 21
288.776923
 31
0.0
  0
LINE
  5
DB12
  8
WAKU
  6
CONTINUOUS
 10
378.723077
 20
290.5
 30
0.0
 11
384.323077
 21
290.5
 31
0.0
  0
LINE
  5
DB13
  8
WAKU
  6
CONTINUOUS
 10
380.311313
 20
288.776923
 30
0.0
 11
377.155205
 21
286.192308
 31
0.0
  0
LINE
  5
DB14
  8
WAKU
  6
CONTINUOUS
 10
381.524851
 20
288.776923
 30
0.0
 11
382.755205
 21
286.192308
 31
0.0
  0
LINE
  5
DB15
  8
WAKU
  6
CONTINUOUS
 10
376.175285
 20
283.5
 30
0.0
 11
377.155205
 21
286.192308
 31
0.0
  0
LINE
  5
DB16
  8
WAKU
  6
CONTINUOUS
 10
379.397145
 20
286.138462
 30
0.0
 11
376.175285
 21
283.5
 31
0.0
  0
LINE
  5
DB17
  8
WAKU
  6
CONTINUOUS
 10
381.775285
 20
283.5
 30
0.0
 11
382.755205
 21
286.192308
 31
0.0
  0
LINE
  5
DB18
  8
WAKU
  6
CONTINUOUS
 10
380.493667
 20
286.192308
 30
0.0
 11
381.775285
 21
283.5
 31
0.0
  0
LINE
  5
DB19
  8
WAKU
  6
CONTINUOUS
 10
379.513747
 20
283.5
 30
0.0
 11
380.493667
 21
286.192308
 31
0.0
  0
LINE
  5
DB1A
  8
WAKU
  6
CONTINUOUS
 10
378.436824
 20
283.5
 30
0.0
 11
379.513747
 21
283.5
 31
0.0
  0
LINE
  5
DB1B
  8
WAKU
  6
CONTINUOUS
 10
378.436824
 20
283.5
 30
0.0
 11
379.397145
 21
286.138462
 31
0.0
  0
LINE
  5
DB1C
  8
WAKU
  6
CONTINUOUS
 10
378.095928
 20
288.776923
 30
0.0
 11
380.311313
 21
288.776923
 31
0.0
  0
LINE
  5
DB1D
  8
WAKU
  6
CONTINUOUS
 10
378.723077
 20
290.5
 30
0.0
 11
378.095928
 21
288.776923
 31
0.0
  0
LINE
  5
DB1E
  8
WAKU
  6
CONTINUOUS
 10
392.780488
 20
286.515385
 30
0.0
 11
393.172456
 21
287.592308
 31
0.0
  0
LINE
  5
DB1F
  8
WAKU
  6
CONTINUOUS
 10
391.703565
 20
286.515385
 30
0.0
 11
392.095533
 21
287.592308
 31
0.0
  0
LINE
  5
DB20
  8
WAKU
  6
CONTINUOUS
 10
388.452208
 20
283.5
 30
0.0
 11
389.236144
 21
285.653846
 31
0.0
  0
LINE
  5
DB21
  8
WAKU
  6
CONTINUOUS
 10
383.851529
 20
285.653846
 30
0.0
 11
389.236144
 21
285.653846
 31
0.0
  0
LINE
  5
DB22
  8
WAKU
  6
CONTINUOUS
 10
383.067593
 20
283.5
 30
0.0
 11
383.851529
 21
285.653846
 31
0.0
  0
LINE
  5
DB23
  8
WAKU
  6
CONTINUOUS
 10
383.067593
 20
283.5
 30
0.0
 11
388.452208
 21
283.5
 31
0.0
  0
LINE
  5
DB24
  8
WAKU
  6
CONTINUOUS
 10
391.174606
 20
285.653846
 30
0.0
 11
395.159221
 21
285.653846
 31
0.0
  0
LINE
  5
DB25
  8
WAKU
  6
CONTINUOUS
 10
391.703565
 20
286.515385
 30
0.0
 11
392.780488
 21
286.515385
 31
0.0
  0
LINE
  5
DB26
  8
WAKU
  6
CONTINUOUS
 10
390.39067
 20
283.5
 30
0.0
 11
391.174606
 21
285.653846
 31
0.0
  0
LINE
  5
DB27
  8
WAKU
  6
CONTINUOUS
 10
384.988236
 20
288.776923
 30
0.0
 11
390.372851
 21
288.776923
 31
0.0
  0
LINE
  5
DB28
  8
WAKU
  6
CONTINUOUS
 10
385.615385
 20
290.5
 30
0.0
 11
391.0
 21
290.5
 31
0.0
  0
LINE
  5
DB29
  8
WAKU
  6
CONTINUOUS
 10
384.988236
 20
288.776923
 30
0.0
 11
385.615385
 21
290.5
 31
0.0
  0
LINE
  5
DB2A
  8
WAKU
  6
CONTINUOUS
 10
384.323077
 20
290.5
 30
0.0
 11
383.695928
 21
288.776923
 31
0.0
  0
LINE
  5
DB2B
  8
WAKU
  6
CONTINUOUS
 10
393.153846
 20
290.5
 30
0.0
 11
394.230769
 21
290.5
 31
0.0
  0
LINE
  5
DB2C
  8
WAKU
  6
CONTINUOUS
 10
393.760408
 20
289.207692
 30
0.0
 11
394.230769
 21
290.5
 31
0.0
  0
LINE
  5
DB2D
  8
WAKU
  6
CONTINUOUS
 10
391.875792
 20
289.207692
 30
0.0
 11
392.683485
 21
289.207692
 31
0.0
  0
LINE
  5
DB2E
  8
WAKU
  6
CONTINUOUS
 10
391.28784
 20
287.592308
 30
0.0
 11
392.095533
 21
287.592308
 31
0.0
  0
LINE
  5
DB2F
  8
WAKU
  6
CONTINUOUS
 10
391.28784
 20
287.592308
 30
0.0
 11
391.875792
 21
289.207692
 31
0.0
  0
LINE
  5
DB30
  8
WAKU
  6
CONTINUOUS
 10
392.683485
 20
289.207692
 30
0.0
 11
393.153846
 21
290.5
 31
0.0
  0
LINE
  5
DB31
  8
WAKU
  6
CONTINUOUS
 10
390.372851
 20
288.776923
 30
0.0
 11
391.0
 21
290.5
 31
0.0
  0
LINE
  5
DB32
  8
WAKU
  6
CONTINUOUS
 10
405.753055
 20
288.130769
 30
0.0
 11
408.983824
 21
288.130769
 31
0.0
  0
LINE
  5
DB33
  8
WAKU
  6
CONTINUOUS
 10
405.282694
 20
286.838462
 30
0.0
 11
408.513463
 21
286.838462
 31
0.0
  0
LINE
  5
DB34
  8
WAKU
  6
CONTINUOUS
 10
409.452208
 20
283.5
 30
0.0
 11
404.067593
 21
283.5
 31
0.0
  0
LINE
  5
DB35
  8
WAKU
  6
CONTINUOUS
 10
404.851529
 20
285.653846
 30
0.0
 11
409.159221
 21
285.653846
 31
0.0
  0
LINE
  5
DB36
  8
WAKU
  6
CONTINUOUS
 10
405.988236
 20
288.776923
 30
0.0
 11
409.219005
 21
288.776923
 31
0.0
  0
LINE
  5
DB37
  8
WAKU
  6
CONTINUOUS
 10
406.615385
 20
290.5
 30
0.0
 11
409.846154
 21
290.5
 31
0.0
  0
LINE
  5
DB38
  8
WAKU
  6
CONTINUOUS
 10
398.781958
 20
286.730769
 30
0.0
 11
399.565894
 21
288.884615
 31
0.0
  0
LINE
  5
DB39
  8
WAKU
  6
CONTINUOUS
 10
400.181958
 20
286.730769
 30
0.0
 11
400.965894
 21
288.884615
 31
0.0
  0
LINE
  5
DB3A
  8
WAKU
  6
CONTINUOUS
 10
399.858881
 20
286.730769
 30
0.0
 11
400.642817
 21
288.884615
 31
0.0
  0
LINE
  5
DB3B
  8
WAKU
  6
CONTINUOUS
 10
401.258881
 20
286.730769
 30
0.0
 11
402.042817
 21
288.884615
 31
0.0
  0
LINE
  5
DB3C
  8
WAKU
  6
CONTINUOUS
 10
401.913747
 20
283.5
 30
0.0
 11
403.873587
 21
288.884615
 31
0.0
  0
LINE
  5
DB3D
  8
WAKU
  6
CONTINUOUS
 10
401.424776
 20
285.115385
 30
0.0
 11
402.796663
 21
288.884615
 31
0.0
  0
LINE
  5
DB3E
  8
WAKU
  6
CONTINUOUS
 10
395.452208
 20
283.5
 30
0.0
 11
396.941687
 21
287.592308
 31
0.0
  0
LINE
  5
DB3F
  8
WAKU
  6
CONTINUOUS
 10
397.606055
 20
283.5
 30
0.0
 11
401.913747
 21
283.5
 31
0.0
  0
LINE
  5
DB40
  8
WAKU
  6
CONTINUOUS
 10
398.781958
 20
286.730769
 30
0.0
 11
399.858881
 21
286.730769
 31
0.0
  0
LINE
  5
DB41
  8
WAKU
  6
CONTINUOUS
 10
398.194006
 20
285.115385
 30
0.0
 11
401.424776
 21
285.115385
 31
0.0
  0
LINE
  5
DB42
  8
WAKU
  6
CONTINUOUS
 10
397.606055
 20
283.5
 30
0.0
 11
398.194006
 21
285.115385
 31
0.0
  0
LINE
  5
DB43
  8
WAKU
  6
CONTINUOUS
 10
400.181958
 20
286.730769
 30
0.0
 11
401.258881
 21
286.730769
 31
0.0
  0
LINE
  5
DB44
  8
WAKU
  6
CONTINUOUS
 10
404.067593
 20
283.5
 30
0.0
 11
404.851529
 21
285.653846
 31
0.0
  0
LINE
  5
DB45
  8
WAKU
  6
CONTINUOUS
 10
400.965894
 20
288.884615
 30
0.0
 11
402.042817
 21
288.884615
 31
0.0
  0
LINE
  5
DB46
  8
WAKU
  6
CONTINUOUS
 10
396.923077
 20
290.5
 30
0.0
 11
398.0
 21
290.5
 31
0.0
  0
LINE
  5
DB47
  8
WAKU
  6
CONTINUOUS
 10
397.529638
 20
289.207692
 30
0.0
 11
398.0
 21
290.5
 31
0.0
  0
LINE
  5
DB48
  8
WAKU
  6
CONTINUOUS
 10
397.529638
 20
289.207692
 30
0.0
 11
398.337331
 21
289.207692
 31
0.0
  0
LINE
  5
DB49
  8
WAKU
  6
CONTINUOUS
 10
396.941687
 20
287.592308
 30
0.0
 11
397.749379
 21
287.592308
 31
0.0
  0
LINE
  5
DB4A
  8
WAKU
  6
CONTINUOUS
 10
397.749379
 20
287.592308
 30
0.0
 11
398.337331
 21
289.207692
 31
0.0
  0
LINE
  5
DB4B
  8
WAKU
  6
CONTINUOUS
 10
399.565894
 20
288.884615
 30
0.0
 11
400.642817
 21
288.884615
 31
0.0
  0
LINE
  5
DB4C
  8
WAKU
  6
CONTINUOUS
 10
396.452715
 20
289.207692
 30
0.0
 11
396.923077
 21
290.5
 31
0.0
  0
LINE
  5
DB4D
  8
WAKU
  6
CONTINUOUS
 10
406.615385
 20
290.5
 30
0.0
 11
405.988236
 21
288.776923
 31
0.0
  0
LINE
  5
DB4E
  8
WAKU
  6
CONTINUOUS
 10
405.753055
 20
288.130769
 30
0.0
 11
405.282694
 21
286.838462
 31
0.0
  0
LINE
  5
DB4F
  8
WAKU
  6
CONTINUOUS
 10
402.796663
 20
288.884615
 30
0.0
 11
403.873587
 21
288.884615
 31
0.0
  0
LINE
  5
DB50
  8
WAKU
  6
CONTINUOUS
 10
409.159221
 20
285.653846
 30
0.0
 11
410.923077
 21
290.5
 31
0.0
  0
LINE
  5
DB51
  8
WAKU
  6
CONTINUOUS
 10
409.452208
 20
283.5
 30
0.0
 11
412.0
 21
290.5
 31
0.0
  0
LINE
  5
DB52
  8
WAKU
  6
CONTINUOUS
 10
409.219005
 20
288.776923
 30
0.0
 11
409.846154
 21
290.5
 31
0.0
  0
LINE
  5
DB53
  8
WAKU
  6
CONTINUOUS
 10
410.923077
 20
290.5
 30
0.0
 11
412.0
 21
290.5
 31
0.0
  0
LINE
  5
DB54
  8
WAKU
  6
CONTINUOUS
 10
408.513463
 20
286.838462
 30
0.0
 11
408.983824
 21
288.130769
 31
0.0
  0
LINE
  5
DB55
  8
WAKU
  6
CONTINUOUS
 10
369.828646
 20
284.107791
 30
0.0
 11
369.966824
 21
283.829526
 31
0.0
  0
LINE
  5
DB56
  8
WAKU
  6
CONTINUOUS
 10
369.966824
 20
283.829526
 30
0.0
 11
370.193309
 21
283.634664
 31
0.0
  0
LINE
  5
DB57
  8
WAKU
  6
CONTINUOUS
 10
370.193309
 20
283.634664
 30
0.0
 11
370.499782
 21
283.530361
 31
0.0
  0
LINE
  5
DB58
  8
WAKU
  6
CONTINUOUS
 10
370.499782
 20
283.530361
 30
0.0
 11
370.874987
 21
283.520449
 31
0.0
  0
LINE
  5
DB59
  8
WAKU
  6
CONTINUOUS
 10
370.874987
 20
283.520449
 30
0.0
 11
371.305142
 21
283.605291
 31
0.0
  0
LINE
  5
DB5A
  8
WAKU
  6
CONTINUOUS
 10
371.305142
 20
283.605291
 30
0.0
 11
371.774448
 21
283.781773
 31
0.0
  0
LINE
  5
DB5B
  8
WAKU
  6
CONTINUOUS
 10
371.774448
 20
283.781773
 30
0.0
 11
372.265666
 21
284.043411
 31
0.0
  0
LINE
  5
DB5C
  8
WAKU
  6
CONTINUOUS
 10
372.265666
 20
284.043411
 30
0.0
 11
372.760756
 21
284.380595
 31
0.0
  0
LINE
  5
DB5D
  8
WAKU
  6
CONTINUOUS
 10
372.760756
 20
284.380595
 30
0.0
 11
373.241532
 21
284.780941
 31
0.0
  0
LINE
  5
DB5E
  8
WAKU
  6
CONTINUOUS
 10
373.241532
 20
284.780941
 30
0.0
 11
373.690335
 21
285.229744
 31
0.0
  0
LINE
  5
DB5F
  8
WAKU
  6
CONTINUOUS
 10
373.690335
 20
285.229744
 30
0.0
 11
374.090681
 21
285.71052
 31
0.0
  0
LINE
  5
DB60
  8
WAKU
  6
CONTINUOUS
 10
374.090681
 20
285.71052
 30
0.0
 11
374.427865
 21
286.205609
 31
0.0
  0
LINE
  5
DB61
  8
WAKU
  6
CONTINUOUS
 10
374.427865
 20
286.205609
 30
0.0
 11
374.689503
 21
286.696828
 31
0.0
  0
LINE
  5
DB62
  8
WAKU
  6
CONTINUOUS
 10
374.689503
 20
286.696828
 30
0.0
 11
374.865984
 21
287.166134
 31
0.0
  0
LINE
  5
DB63
  8
WAKU
  6
CONTINUOUS
 10
374.865984
 20
287.166134
 30
0.0
 11
374.950827
 21
287.596289
 31
0.0
  0
LINE
  5
DB64
  8
WAKU
  6
CONTINUOUS
 10
374.950827
 20
287.596289
 30
0.0
 11
374.940915
 21
287.971493
 31
0.0
  0
LINE
  5
DB65
  8
WAKU
  6
CONTINUOUS
 10
374.940915
 20
287.971493
 30
0.0
 11
374.836612
 21
288.277967
 31
0.0
  0
LINE
  5
DB66
  8
WAKU
  6
CONTINUOUS
 10
374.836612
 20
288.277967
 30
0.0
 11
374.641749
 21
288.504452
 31
0.0
  0
LINE
  5
DB67
  8
WAKU
  6
CONTINUOUS
 10
374.641749
 20
288.504452
 30
0.0
 11
374.363484
 21
288.64263
 31
0.0
  0
LINE
  5
DB68
  8
WAKU
  6
CONTINUOUS
 10
373.916941
 20
288.683944
 30
0.0
 11
373.482636
 21
288.608014
 31
0.0
  0
LINE
  5
DB69
  8
WAKU
  6
CONTINUOUS
 10
373.482636
 20
288.608014
 30
0.0
 11
373.005639
 21
288.435768
 31
0.0
  0
LINE
  5
DB6A
  8
WAKU
  6
CONTINUOUS
 10
373.005639
 20
288.435768
 30
0.0
 11
372.504269
 21
288.173821
 31
0.0
  0
LINE
  5
DB6B
  8
WAKU
  6
CONTINUOUS
 10
372.504269
 20
288.173821
 30
0.0
 11
371.997783
 21
287.832235
 31
0.0
  0
LINE
  5
DB6C
  8
WAKU
  6
CONTINUOUS
 10
371.997783
 20
287.832235
 30
0.0
 11
371.505632
 21
287.424128
 31
0.0
  0
LINE
  5
DB6D
  8
WAKU
  6
CONTINUOUS
 10
371.505632
 20
287.424128
 30
0.0
 11
371.04672
 21
286.965174
 31
0.0
  0
LINE
  5
DB6E
  8
WAKU
  6
CONTINUOUS
 10
371.04672
 20
286.965174
 30
0.0
 11
370.638671
 21
286.473
 31
0.0
  0
LINE
  5
DB6F
  8
WAKU
  6
CONTINUOUS
 10
370.638671
 20
286.473
 30
0.0
 11
370.297156
 21
285.966509
 31
0.0
  0
LINE
  5
DB70
  8
WAKU
  6
CONTINUOUS
 10
370.297156
 20
285.966509
 30
0.0
 11
370.035293
 21
285.465154
 31
0.0
  0
LINE
  5
DB71
  8
WAKU
  6
CONTINUOUS
 10
370.035293
 20
285.465154
 30
0.0
 11
369.863139
 21
284.988189
 31
0.0
  0
LINE
  5
DB72
  8
WAKU
  6
CONTINUOUS
 10
369.863139
 20
284.988189
 30
0.0
 11
369.787305
 21
284.553935
 31
0.0
  0
LINE
  5
DB73
  8
WAKU
  6
CONTINUOUS
 10
370.172911
 20
284.451856
 30
0.0
 11
370.681395
 21
284.539195
 31
0.0
  0
LINE
  5
DB74
  8
WAKU
  6
CONTINUOUS
 10
370.681395
 20
284.539195
 30
0.0
 11
371.312263
 21
284.810332
 31
0.0
  0
LINE
  5
DB75
  8
WAKU
  6
CONTINUOUS
 10
371.312263
 20
284.810332
 30
0.0
 11
371.98994
 21
285.251431
 31
0.0
  0
LINE
  5
DB76
  8
WAKU
  6
CONTINUOUS
 10
371.98994
 20
285.251431
 30
0.0
 11
372.646296
 21
285.825506
 31
0.0
  0
LINE
  5
DB77
  8
WAKU
  6
CONTINUOUS
 10
372.646296
 20
285.825506
 30
0.0
 11
373.220238
 21
286.48192
 31
0.0
  0
LINE
  5
DB78
  8
WAKU
  6
CONTINUOUS
 10
373.220238
 20
286.48192
 30
0.0
 11
373.661353
 21
287.159534
 31
0.0
  0
LINE
  5
DB79
  8
WAKU
  6
CONTINUOUS
 10
373.661353
 20
287.159534
 30
0.0
 11
373.932071
 21
287.790402
 31
0.0
  0
LINE
  5
DB7A
  8
WAKU
  6
CONTINUOUS
 10
373.932071
 20
287.790402
 30
0.0
 11
374.019229
 21
288.298569
 31
0.0
  0
LINE
  5
DB7B
  8
WAKU
  6
CONTINUOUS
 10
373.916941
 20
288.683944
 30
0.0
 11
373.799148
 21
288.781929
 31
0.0
  0
LINE
  5
DB7C
  8
WAKU
  6
CONTINUOUS
 10
373.799148
 20
288.781929
 30
0.0
 11
373.597996
 21
288.840902
 31
0.0
  0
LINE
  5
DB7D
  8
WAKU
  6
CONTINUOUS
 10
373.597996
 20
288.840902
 30
0.0
 11
373.290857
 21
288.835581
 31
0.0
  0
LINE
  5
DB7E
  8
WAKU
  6
CONTINUOUS
 10
373.290857
 20
288.835581
 30
0.0
 11
372.89514
 21
288.740065
 31
0.0
  0
LINE
  5
DB7F
  8
WAKU
  6
CONTINUOUS
 10
372.89514
 20
288.740065
 30
0.0
 11
372.440235
 21
288.547585
 31
0.0
  0
LINE
  5
DB80
  8
WAKU
  6
CONTINUOUS
 10
372.440235
 20
288.547585
 30
0.0
 11
371.954587
 21
288.264284
 31
0.0
  0
LINE
  5
DB81
  8
WAKU
  6
CONTINUOUS
 10
371.954587
 20
288.264284
 30
0.0
 11
370.996098
 21
287.475108
 31
0.0
  0
LINE
  5
DB82
  8
WAKU
  6
CONTINUOUS
 10
370.996098
 20
287.475108
 30
0.0
 11
370.207035
 21
286.51657
 31
0.0
  0
LINE
  5
DB83
  8
WAKU
  6
CONTINUOUS
 10
370.207035
 20
286.51657
 30
0.0
 11
369.923519
 21
286.031028
 31
0.0
  0
LINE
  5
DB84
  8
WAKU
  6
CONTINUOUS
 10
369.923519
 20
286.031028
 30
0.0
 11
369.73149
 21
285.576021
 31
0.0
  0
LINE
  5
DB85
  8
WAKU
  6
CONTINUOUS
 10
369.73149
 20
285.576021
 30
0.0
 11
369.635696
 21
285.180404
 31
0.0
  0
LINE
  5
DB86
  8
WAKU
  6
CONTINUOUS
 10
369.635696
 20
285.180404
 30
0.0
 11
369.630358
 21
284.873087
 31
0.0
  0
LINE
  5
DB87
  8
WAKU
  6
CONTINUOUS
 10
369.630358
 20
284.873087
 30
0.0
 11
369.689155
 21
284.672435
 31
0.0
  0
LINE
  5
DB88
  8
WAKU
  6
CONTINUOUS
 10
369.689155
 20
284.672435
 30
0.0
 11
369.787305
 21
284.553935
 31
0.0
  0
LINE
  5
DB89
  8
WAKU
  6
CONTINUOUS
 10
370.275177
 20
284.066476
 30
0.0
 11
370.392927
 21
283.968568
 31
0.0
  0
LINE
  5
DB8A
  8
WAKU
  6
CONTINUOUS
 10
370.392927
 20
283.968568
 30
0.0
 11
370.594177
 21
283.909498
 31
0.0
  0
LINE
  5
DB8B
  8
WAKU
  6
CONTINUOUS
 10
370.594177
 20
283.909498
 30
0.0
 11
370.901294
 21
283.914863
 31
0.0
  0
LINE
  5
DB8C
  8
WAKU
  6
CONTINUOUS
 10
370.901294
 20
283.914863
 30
0.0
 11
371.296984
 21
284.010368
 31
0.0
  0
LINE
  5
DB8D
  8
WAKU
  6
CONTINUOUS
 10
371.296984
 20
284.010368
 30
0.0
 11
371.751882
 21
284.202798
 31
0.0
  0
LINE
  5
DB8E
  8
WAKU
  6
CONTINUOUS
 10
371.751882
 20
284.202798
 30
0.0
 11
372.237497
 21
284.486117
 31
0.0
  0
LINE
  5
DB8F
  8
WAKU
  6
CONTINUOUS
 10
372.237497
 20
284.486117
 30
0.0
 11
373.195965
 21
285.275232
 31
0.0
  0
LINE
  5
DB90
  8
WAKU
  6
CONTINUOUS
 10
373.195965
 20
285.275232
 30
0.0
 11
373.98505
 21
286.233718
 31
0.0
  0
LINE
  5
DB91
  8
WAKU
  6
CONTINUOUS
 10
373.98505
 20
286.233718
 30
0.0
 11
374.268507
 21
286.719278
 31
0.0
  0
LINE
  5
DB92
  8
WAKU
  6
CONTINUOUS
 10
374.268507
 20
286.719278
 30
0.0
 11
374.46071
 21
287.174248
 31
0.0
  0
LINE
  5
DB93
  8
WAKU
  6
CONTINUOUS
 10
374.46071
 20
287.174248
 30
0.0
 11
374.556361
 21
287.569864
 31
0.0
  0
LINE
  5
DB94
  8
WAKU
  6
CONTINUOUS
 10
374.556361
 20
287.569864
 30
0.0
 11
374.561802
 21
287.877253
 31
0.0
  0
LINE
  5
DB95
  8
WAKU
  6
CONTINUOUS
 10
374.561802
 20
287.877253
 30
0.0
 11
374.502951
 21
288.077918
 31
0.0
  0
LINE
  5
DB96
  8
WAKU
  6
CONTINUOUS
 10
374.502951
 20
288.077918
 30
0.0
 11
374.40481
 21
288.196249
 31
0.0
  0
LINE
  5
DB97
  8
WAKU
  6
CONTINUOUS
 10
374.019229
 20
288.298569
 30
0.0
 11
373.510738
 21
288.21124
 31
0.0
  0
LINE
  5
DB98
  8
WAKU
  6
CONTINUOUS
 10
373.510738
 20
288.21124
 30
0.0
 11
372.879878
 21
287.940057
 31
0.0
  0
LINE
  5
DB99
  8
WAKU
  6
CONTINUOUS
 10
372.879878
 20
287.940057
 30
0.0
 11
372.202181
 21
287.498991
 31
0.0
  0
LINE
  5
DB9A
  8
WAKU
  6
CONTINUOUS
 10
372.202181
 20
287.498991
 30
0.0
 11
371.545827
 21
286.924893
 31
0.0
  0
LINE
  5
DB9B
  8
WAKU
  6
CONTINUOUS
 10
371.545827
 20
286.924893
 30
0.0
 11
370.971896
 21
286.268471
 31
0.0
  0
LINE
  5
DB9C
  8
WAKU
  6
CONTINUOUS
 10
370.971896
 20
286.268471
 30
0.0
 11
370.530712
 21
285.590875
 31
0.0
  0
LINE
  5
DB9D
  8
WAKU
  6
CONTINUOUS
 10
370.530712
 20
285.590875
 30
0.0
 11
370.260168
 21
284.959969
 31
0.0
  0
LINE
  5
DB9E
  8
WAKU
  6
CONTINUOUS
 10
370.260168
 20
284.959969
 30
0.0
 11
370.172911
 21
284.451856
 31
0.0
  0
LINE
  5
DB9F
  8
WAKU
  6
CONTINUOUS
 10
370.275177
 20
284.066476
 30
0.0
 11
370.709458
 21
284.142397
 31
0.0
  0
LINE
  5
DBA0
  8
WAKU
  6
CONTINUOUS
 10
370.709458
 20
284.142397
 30
0.0
 11
371.186428
 21
284.314625
 31
0.0
  0
LINE
  5
DBA1
  8
WAKU
  6
CONTINUOUS
 10
371.186428
 20
284.314625
 30
0.0
 11
371.68777
 21
284.576545
 31
0.0
  0
LINE
  5
DBA2
  8
WAKU
  6
CONTINUOUS
 10
371.68777
 20
284.576545
 30
0.0
 11
372.194232
 21
284.918099
 31
0.0
  0
LINE
  5
DBA3
  8
WAKU
  6
CONTINUOUS
 10
372.194232
 20
284.918099
 30
0.0
 11
372.686363
 21
285.326171
 31
0.0
  0
LINE
  5
DBA4
  8
WAKU
  6
CONTINUOUS
 10
372.686363
 20
285.326171
 30
0.0
 11
373.145266
 21
285.785089
 31
0.0
  0
LINE
  5
DBA5
  8
WAKU
  6
CONTINUOUS
 10
373.145266
 20
285.785089
 30
0.0
 11
373.553316
 21
286.277229
 31
0.0
  0
LINE
  5
DBA6
  8
WAKU
  6
CONTINUOUS
 10
373.553316
 20
286.277229
 30
0.0
 11
373.894843
 21
286.783693
 31
0.0
  0
LINE
  5
DBA7
  8
WAKU
  6
CONTINUOUS
 10
373.894843
 20
286.783693
 30
0.0
 11
374.156732
 21
287.28503
 31
0.0
  0
LINE
  5
DBA8
  8
WAKU
  6
CONTINUOUS
 10
374.156732
 20
287.28503
 30
0.0
 11
374.328925
 21
287.761987
 31
0.0
  0
LINE
  5
DBA9
  8
WAKU
  6
CONTINUOUS
 10
374.328925
 20
287.761987
 30
0.0
 11
374.40481
 21
288.196249
 31
0.0
  0
LINE
  5
DBAA
  8
WAKU
  6
CONTINUOUS
 10
374.363484
 20
288.64263
 30
0.0
 11
374.225306
 21
288.920895
 31
0.0
  0
LINE
  5
DBAB
  8
WAKU
  6
CONTINUOUS
 10
374.225306
 20
288.920895
 30
0.0
 11
373.998821
 21
289.115757
 31
0.0
  0
LINE
  5
DBAC
  8
WAKU
  6
CONTINUOUS
 10
373.998821
 20
289.115757
 30
0.0
 11
373.692348
 21
289.22006
 31
0.0
  0
LINE
  5
DBAD
  8
WAKU
  6
CONTINUOUS
 10
373.692348
 20
289.22006
 30
0.0
 11
373.317143
 21
289.229972
 31
0.0
  0
LINE
  5
DBAE
  8
WAKU
  6
CONTINUOUS
 10
373.317143
 20
289.229972
 30
0.0
 11
372.886988
 21
289.145129
 31
0.0
  0
LINE
  5
DBAF
  8
WAKU
  6
CONTINUOUS
 10
372.886988
 20
289.145129
 30
0.0
 11
372.417683
 21
288.968648
 31
0.0
  0
LINE
  5
DBB0
  8
WAKU
  6
CONTINUOUS
 10
372.417683
 20
288.968648
 30
0.0
 11
371.926464
 21
288.70701
 31
0.0
  0
LINE
  5
DBB1
  8
WAKU
  6
CONTINUOUS
 10
371.926464
 20
288.70701
 30
0.0
 11
371.431374
 21
288.369826
 31
0.0
  0
LINE
  5
DBB2
  8
WAKU
  6
CONTINUOUS
 10
371.431374
 20
288.369826
 30
0.0
 11
370.950599
 21
287.96948
 31
0.0
  0
LINE
  5
DBB3
  8
WAKU
  6
CONTINUOUS
 10
370.950599
 20
287.96948
 30
0.0
 11
370.501795
 21
287.520677
 31
0.0
  0
LINE
  5
DBB4
  8
WAKU
  6
CONTINUOUS
 10
370.501795
 20
287.520677
 30
0.0
 11
370.101449
 21
287.039901
 31
0.0
  0
LINE
  5
DBB5
  8
WAKU
  6
CONTINUOUS
 10
370.101449
 20
287.039901
 30
0.0
 11
369.764265
 21
286.544812
 31
0.0
  0
LINE
  5
DBB6
  8
WAKU
  6
CONTINUOUS
 10
369.764265
 20
286.544812
 30
0.0
 11
369.502627
 21
286.053593
 31
0.0
  0
LINE
  5
DBB7
  8
WAKU
  6
CONTINUOUS
 10
369.502627
 20
286.053593
 30
0.0
 11
369.326146
 21
285.584287
 31
0.0
  0
LINE
  5
DBB8
  8
WAKU
  6
CONTINUOUS
 10
369.326146
 20
285.584287
 30
0.0
 11
369.241303
 21
285.154132
 31
0.0
  0
LINE
  5
DBB9
  8
WAKU
  6
CONTINUOUS
 10
369.241303
 20
285.154132
 30
0.0
 11
369.251215
 21
284.778928
 31
0.0
  0
LINE
  5
DBBA
  8
WAKU
  6
CONTINUOUS
 10
369.251215
 20
284.778928
 30
0.0
 11
369.355518
 21
284.472454
 31
0.0
  0
LINE
  5
DBBB
  8
WAKU
  6
CONTINUOUS
 10
369.355518
 20
284.472454
 30
0.0
 11
369.550381
 21
284.245969
 31
0.0
  0
LINE
  5
DBBC
  8
WAKU
  6
CONTINUOUS
 10
369.550381
 20
284.245969
 30
0.0
 11
369.828646
 21
284.107791
 31
0.0
  0
INSERT
  5
DBBD
  8
WAKU
  6
CONTINUOUS
  2
*U0
 10
0.0
 20
0.0
 30
0.0
  0
TEXT
  5
10375
  8
WAKU
 10
10.0
 20
285.5
 30
0.0
 40
3.0
  1
FNS-70AT
 41
0.868
 11
10.0
 21
287.0
 31
0.0
 73
     2
  0
TEXT
  5
185DB
  8
WAKU
 10
35.0
 20
284.5
 30
0.0
 40
5.0
  1
外動片引き断面詳細図(SCﾀｲプ)　防火戸　非防火戸
 11
35.0
 21
287.0
 31
0.0
 73
     2
  0
LINE
  5
1B66E
  8
SUNPO
  6
CONTINUOUS
 10
402.0
 20
76.5
 30
0.0
 11
402.0
 21
20.0
 31
0.0
  0
LINE
  5
1C5CB
  8
DANMEN
  6
PHANTOM
 10
226.5
 20
209.000003
 30
0.0
 11
201.5
 21
209.000003
 31
0.0
  0
LINE
  5
1C5CC
  8
DANMEN
  6
CONTINUOUS
 10
189.95
 20
210.95
 30
0.0
 11
227.05
 21
210.95
 31
0.0
  0
LINE
  5
1C5CD
  8
DANMEN
  6
CONTINUOUS
 10
189.949997
 20
231.05
 30
0.0
 11
227.050003
 21
231.05
 31
0.0
  0
LINE
  5
1C5CE
  8
DANMEN
  6
CONTINUOUS
 10
185.037291
 20
233.0
 30
0.0
 11
227.0
 21
233.0
 31
0.0
  0
LINE
  5
1C5CF
  8
DANMEN
  6
CONTINUOUS
 10
185.037291
 20
209.0
 30
0.0
 11
249.0
 21
209.0
 31
0.0
  0
LINE
  5
1C5D0
  8
DANMEN
  6
DASHED
 10
202.499994
 20
121.8
 30
0.0
 11
193.499994
 21
121.8
 31
0.0
  0
LINE
  5
1C5D1
  8
DANMEN
  6
CONTINUOUS
 10
202.499994
 20
132.400001
 30
0.0
 11
193.499994
 21
132.400001
 31
0.0
  0
LINE
  5
1C5D2
  8
DANMEN
  6
CONTINUOUS
 10
205.35
 20
121.3
 30
0.0
 11
190.649988
 21
121.3
 31
0.0
  0
LINE
  5
1C5D3
  8
DANMEN
  6
CONTINUOUS
 10
207.999994
 20
121.6
 30
0.0
 11
187.999994
 21
121.6
 31
0.0
  0
LINE
  5
1C5D4
  8
DANMEN
  6
CONTINUOUS
 10
207.999994
 20
122.0
 30
0.0
 11
187.999994
 21
122.0
 31
0.0
  0
LINE
  5
1C5D5
  8
DANMEN
  6
DASHED
 10
202.499994
 20
131.3
 30
0.0
 11
193.499994
 21
131.3
 31
0.0
  0
LINE
  5
1C5D6
  8
DANMEN
  6
CONTINUOUS
 10
185.037288
 20
122.0
 30
0.0
 11
230.999997
 21
122.0
 31
0.0
  0
LINE
  5
1C5D7
  8
DANMEN
  6
CONTINUOUS
 10
185.037288
 20
146.0
 30
0.0
 11
208.999997
 21
146.0
 31
0.0
  0
LINE
  5
1C5D8
  8
DANMEN
  6
CONTINUOUS
 10
189.949994
 20
144.05
 30
0.0
 11
209.05
 21
144.05
 31
0.0
  0
LINE
  5
1C5D9
  8
DANMEN
  6
CONTINUOUS
 10
189.949997
 20
123.95
 30
0.0
 11
209.049997
 21
123.95
 31
0.0
  0
LINE
  5
1C5DA
  8
DANMEN
  6
CONTINUOUS
 10
185.0
 20
119.0
 30
0.0
 11
240.25
 21
119.0
 31
0.0
  0
LINE
  5
1C5DB
  8
DANMEN
  6
CONTINUOUS
 10
172.0
 20
87.0
 30
0.0
 11
240.25
 21
87.0
 31
0.0
  0
LINE
  5
1C5DC
  8
DANMEN
  6
CONTINUOUS
 10
186.5
 20
153.0
 30
0.0
 11
206.999997
 21
153.0
 31
0.0
  0
LINE
  5
1C5DD
  8
DANMEN
  6
CONTINUOUS
 10
185.0
 20
83.0
 30
0.0
 11
240.25
 21
83.0
 31
0.0
  0
LINE
  5
1C5DE
  8
DANMEN
  6
CONTINUOUS
 10
184.5
 20
206.0
 30
0.0
 11
255.0
 21
206.0
 31
0.0
  0
LINE
  5
1C5DF
  8
DANMEN
  6
CONTINUOUS
 10
207.0
 20
240.0
 30
0.0
 11
186.5
 21
240.0
 31
0.0
  0
LINE
  5
1C5E0
  8
DANMEN
  6
CONTINUOUS
 10
172.0
 20
174.0
 30
0.0
 11
255.0
 21
174.0
 31
0.0
  0
LINE
  5
1C5E1
  8
DANMEN
  6
CONTINUOUS
 10
186.5
 20
170.0
 30
0.0
 11
255.0
 21
170.0
 31
0.0
  0
LINE
  5
1C5E2
  8
DANMEN
  6
CONTINUOUS
 10
173.51044
 20
125.502283
 30
0.0
 11
176.270495
 21
119.0
 31
0.0
  0
LINE
  5
1C5E3
  8
DANMEN
  6
CONTINUOUS
 10
174.025813
 20
126.335584
 30
0.0
 11
176.800004
 21
119.8
 31
0.0
  0
ARC
  5
1C5E4
  8
DANMEN
  6
CONTINUOUS
 10
112.0
 20
123.499998
 30
0.0
 40
0.5
 50
0.000018
 51
179.999982
  0
LINE
  5
1C5E5
  8
DANMEN
  6
CONTINUOUS
 10
82.65
 20
128.999998
 30
0.0
 11
82.65
 21
111.999998
 31
0.0
  0
LINE
  5
1C5E6
  8
DANMEN
  6
CONTINUOUS
 10
115.15
 20
132.350001
 30
0.0
 11
115.15
 21
122.499998
 31
0.0
  0
LINE
  5
1C5E7
  8
DANMEN
  6
CONTINUOUS
 10
116.8
 20
133.499998
 30
0.0
 11
116.8
 21
113.499998
 31
0.0
  0
LINE
  5
1C5E8
  8
DANMEN
  6
CONTINUOUS
 10
81.0
 20
133.499998
 30
0.0
 11
81.0
 21
92.499995
 31
0.0
  0
LINE
  5
1C5E9
  8
DANMEN
  6
CONTINUOUS
 10
39.149994
 20
137.0
 30
0.0
 11
39.149994
 21
110.949997
 31
0.0
  0
LINE
  5
1C5EA
  8
DANMEN
  6
CONTINUOUS
 10
68.850006
 20
142.050003
 30
0.0
 11
68.850006
 21
111.0
 31
0.0
  0
LINE
  5
1C5EB
  8
DANMEN
  6
CONTINUOUS
 10
70.800003
 20
165.5
 30
0.0
 11
70.800003
 21
81.0
 31
0.0
  0
LINE
  5
1C5EC
  8
DANMEN
  6
CONTINUOUS
 10
37.199997
 20
165.5
 30
0.0
 11
37.199997
 21
110.5
 31
0.0
  0
LINE
  5
1C5ED
  8
DANMEN
  6
CONTINUOUS
 10
172.0
 20
131.5
 30
0.0
 11
172.0
 21
116.6
 31
0.0
  0
LINE
  5
1C5EE
  8
DANMEN
  6
CONTINUOUS
 10
170.350006
 20
151.350006
 30
0.0
 11
170.350006
 21
84.649994
 31
0.0
  0
ARC
  5
1C5EF
  8
DANMEN
  6
CONTINUOUS
 10
196.749994
 20
124.3
 30
0.0
 40
2.0
 50
186.777369
 51
270.0
  0
ARC
  5
1C5F0
  8
DANMEN
  6
CONTINUOUS
 10
199.249994
 20
124.3
 30
0.0
 40
2.0
 50
270.0
 51
353.222631
  0
LINE
  5
1C5F1
  8
DANMEN
  6
CONTINUOUS
 10
193.499994
 20
132.400001
 30
0.0
 11
193.499994
 21
122.0
 31
0.0
  0
LINE
  5
1C5F2
  8
DANMEN
  6
CENTER
 10
197.999994
 20
134.900001
 30
0.0
 11
197.999994
 21
119.3
 31
0.0
  0
LINE
  5
1C5F3
  8
DANMEN
  6
CONTINUOUS
 10
190.249994
 20
128.941409
 30
0.0
 11
190.249994
 21
122.0
 31
0.0
  0
ARC
  5
1C5F4
  8
DANMEN
  6
CONTINUOUS
 10
175.999997
 20
124.361187
 30
0.0
 40
1.0
 50
180.0
 51
261.469234
  0
LINE
  5
1C5F5
  8
DANMEN
  6
CONTINUOUS
 10
73.0
 20
170.0
 30
0.0
 11
73.0
 21
80.5
 31
0.0
  0
LINE
  5
1C5F6
  8
DANMEN
  6
CONTINUOUS
 10
35.0
 20
170.0
 30
0.0
 11
35.0
 21
110.5
 31
0.0
  0
LINE
  5
1C5F7
  8
DANMEN
  6
CONTINUOUS
 10
119.0
 20
170.0
 30
0.0
 11
119.0
 21
113.500003
 31
0.0
  0
LINE
  5
1C5F8
  8
DANMEN
  6
CONTINUOUS
 10
75.5
 20
170.0
 30
0.0
 11
75.5
 21
92.0
 31
0.0
  0
LINE
  5
1C5F9
  8
DANMEN
  6
DASHED
 10
78.5
 20
170.0
 30
0.0
 11
78.5
 21
92.0
 31
0.0
  0
LINE
  5
1C5FA
  8
DANMEN
  6
CONTINUOUS
 10
103.15
 20
119.000001
 30
0.0
 11
103.15
 21
170.0
 31
0.0
  0
LINE
  5
1C5FB
  8
DANMEN
  6
CONTINUOUS
 10
98.15
 20
119.000001
 30
0.0
 11
98.15
 21
170.0
 31
0.0
  0
LINE
  5
1C5FC
  8
DANMEN
  6
CONTINUOUS
 10
91.85
 20
119.000001
 30
0.0
 11
91.85
 21
170.0
 31
0.0
  0
LINE
  5
1C5FD
  8
DANMEN
  6
CONTINUOUS
 10
96.85
 20
119.000001
 30
0.0
 11
96.85
 21
170.0
 31
0.0
  0
LINE
  5
1C5FE
  8
DANMEN
  6
CONTINUOUS
 10
103.65
 20
119.000001
 30
0.0
 11
103.65
 21
170.0
 31
0.0
  0
LINE
  5
1C5FF
  8
DANMEN
  6
CONTINUOUS
 10
91.35
 20
119.000001
 30
0.0
 11
91.35
 21
170.0
 31
0.0
  0
LINE
  5
1C600
  8
DANMEN
  6
CONTINUOUS
 10
97.65
 20
119.000001
 30
0.0
 11
97.65
 21
170.0
 31
0.0
  0
LINE
  5
1C601
  8
DANMEN
  6
CONTINUOUS
 10
97.35
 20
119.000001
 30
0.0
 11
97.35
 21
170.0
 31
0.0
  0
LINE
  5
1C602
  8
DANMEN
  6
CONTINUOUS
 10
93.5
 20
57.803636
 30
0.0
 11
68.5
 21
47.0
 31
0.0
  0
LINE
  5
1C603
  8
DANMEN
  6
CONTINUOUS
 10
94.563803
 20
56.474726
 30
0.0
 11
69.054612
 21
45.43964
 31
0.0
  0
LINE
  5
1C605
  8
DANMEN
  6
CONTINUOUS
 10
71.050003
 20
69.000004
 30
0.0
 11
68.850006
 21
69.000003
 31
0.0
  0
LINE
  5
1C606
  8
DANMEN
  6
CONTINUOUS
 10
69.850006
 20
79.050003
 30
0.0
 11
71.050003
 21
79.050003
 31
0.0
  0
LINE
  5
1C607
  8
DANMEN
  6
CONTINUOUS
 10
65.0
 20
52.0
 30
0.0
 11
73.0
 21
52.0
 31
0.0
  0
LINE
  5
1C608
  8
DANMEN
  6
CONTINUOUS
 10
55.5
 20
32.0
 30
0.0
 11
112.0
 21
32.0
 31
0.0
  0
LINE
  5
1C609
  8
DANMEN
  6
CONTINUOUS
 10
55.5
 20
32.649994
 30
0.0
 11
55.5
 21
23.5
 31
0.0
  0
LINE
  5
1C60A
  8
DANMEN
  6
CONTINUOUS
 10
54.0
 20
32.0
 30
0.0
 11
54.0
 21
23.5
 31
0.0
  0
ARC
  5
1C60B
  8
DANMEN
  6
CONTINUOUS
 10
54.5
 20
23.5
 30
0.0
 40
0.5
 50
180.000019
 51
270.000001
  0
ARC
  5
1C60C
  8
DANMEN
  6
CONTINUOUS
 10
55.0
 20
23.5
 30
0.0
 40
0.5
 50
270.000018
 51
0.0
  0
LINE
  5
1C60D
  8
DANMEN
  6
CONTINUOUS
 10
54.5
 20
23.0
 30
0.0
 11
55.0
 21
23.0
 31
0.0
  0
LINE
  5
1C60E
  8
DANMEN
  6
CONTINUOUS
 10
63.0
 20
56.0
 30
0.0
 11
63.0
 21
101.000008
 31
0.0
  0
LINE
  5
1C60F
  8
DANMEN
  6
CONTINUOUS
 10
59.0
 20
56.0
 30
0.0
 11
59.0
 21
101.000008
 31
0.0
  0
LINE
  5
1C610
  8
DANMEN
  6
CONTINUOUS
 10
56.799999
 20
101.000008
 30
0.0
 11
56.799999
 21
56.0
 31
0.0
  0
LINE
  5
1C611
  8
DANMEN
  6
CONTINUOUS
 10
65.200001
 20
101.000008
 30
0.0
 11
65.200001
 21
56.0
 31
0.0
  0
LINE
  5
1C612
  8
DANMEN
  6
CONTINUOUS
 10
56.600002
 20
69.500004
 30
0.0
 11
56.600002
 21
87.500004
 31
0.0
  0
LINE
  5
1C613
  8
DANMEN
  6
CONTINUOUS
 10
65.399998
 20
87.500004
 30
0.0
 11
65.399998
 21
69.500004
 31
0.0
  0
LINE
  5
1C614
  8
DANMEN
  6
CONTINUOUS
 10
49.011315
 20
51.945203
 30
0.0
 11
49.0
 21
109.0
 31
0.0
  0
LINE
  5
1C615
  8
DANMEN
  6
CONTINUOUS
 10
47.501954
 20
109.0
 30
0.0
 11
47.964828
 21
51.464565
 31
0.0
  0
LINE
  5
1C616
  8
DANMEN
  6
CONTINUOUS
 10
48.711313
 20
51.958301
 30
0.0
 11
48.699999
 21
109.006521
 31
0.0
  0
LINE
  5
1C617
  8
DANMEN
  6
CONTINUOUS
 10
51.199997
 20
109.0
 30
0.0
 11
51.199997
 21
52.5
 31
0.0
  0
LINE
  5
1C618
  8
DANMEN
  6
CONTINUOUS
 10
53.149994
 20
104.0
 30
0.0
 11
53.149994
 21
68.0
 31
0.0
  0
LINE
  5
1C619
  8
DANMEN
  6
CONTINUOUS
 10
43.649994
 20
109.0
 30
0.0
 11
43.649994
 21
34.0
 31
0.0
  0
LINE
  5
1C61A
  8
DANMEN
  6
CONTINUOUS
 10
42.0
 20
109.0
 30
0.0
 11
42.0
 21
35.641644
 31
0.0
  0
ARC
  5
1C61B
  8
DANMEN
  6
CONTINUOUS
 10
51.596175
 20
53.834251
 30
0.0
 40
0.5
 50
357.5
 51
177.5
  0
LINE
  5
1C61C
  8
DANMEN
  6
CONTINUOUS
 10
60.850006
 20
54.847046
 30
0.0
 11
60.850006
 21
47.0
 31
0.0
  0
LINE
  5
1C61D
  8
DANMEN
  6
CONTINUOUS
 10
62.5
 20
58.29129
 30
0.0
 11
62.5
 21
47.0
 31
0.0
  0
LINE
  5
1C61E
  8
DANMEN
  6
CONTINUOUS
 10
53.149994
 20
66.999999
 30
0.0
 11
53.149994
 21
52.5
 31
0.0
  0
LINE
  5
1C61F
  8
DANMEN
  6
CONTINUOUS
 10
65.0
 20
58.0
 30
0.0
 11
65.0
 21
52.0
 31
0.0
  0
LINE
  5
1C620
  8
DANMEN
  6
CONTINUOUS
 10
57.0
 20
58.0
 30
0.0
 11
57.0
 21
52.0
 31
0.0
  0
ARC
  5
1C621
  8
DANMEN
  6
CONTINUOUS
 10
55.00999
 20
45.0
 30
0.0
 40
2.0
 50
90.0
 51
118.610582
  0
LINE
  5
1C622
  8
DANMEN
  6
CONTINUOUS
 10
54.920742
 20
45.35
 30
0.0
 11
50.649994
 21
43.020489
 31
0.0
  0
LINE
  5
1C623
  8
DANMEN
  6
CONTINUOUS
 10
50.649994
 20
33.649994
 30
0.0
 11
54.5
 21
33.649994
 31
0.0
  0
LINE
  5
1C624
  8
DANMEN
  6
CONTINUOUS
 10
52.949997
 20
52.0
 30
0.0
 11
57.0
 21
52.0
 31
0.0
  0
LINE
  5
1C625
  8
DANMEN
  6
CONTINUOUS
 10
50.649994
 20
43.020489
 30
0.0
 11
50.649994
 21
33.649994
 31
0.0
  0
LINE
  5
1C626
  8
DANMEN
  6
CONTINUOUS
 10
49.0
 20
43.406353
 30
0.0
 11
49.0
 21
34.0
 31
0.0
  0
LINE
  5
1C627
  8
DANMEN
  6
CONTINUOUS
 10
42.800003
 20
32.9
 30
0.0
 11
49.0
 21
32.9
 31
0.0
  0
LINE
  5
1C628
  8
DANMEN
  6
CONTINUOUS
 10
43.1
 20
34.0
 30
0.0
 11
49.0
 21
34.0
 31
0.0
  0
LINE
  5
1C629
  8
DANMEN
  6
CONTINUOUS
 10
42.402221
 20
32.0
 30
0.0
 11
49.5
 21
32.0
 31
0.0
  0
LINE
  5
1C62A
  8
DANMEN
  6
CONTINUOUS
 10
40.199997
 20
41.399994
 30
0.0
 11
40.199997
 21
36.429842
 31
0.0
  0
LINE
  5
1C62B
  8
DANMEN
  6
CONTINUOUS
 10
39.0
 20
41.399994
 30
0.0
 11
39.0
 21
36.10902
 31
0.0
  0
LINE
  5
1C62C
  8
DANMEN
  6
CONTINUOUS
 10
40.199997
 20
36.429842
 30
0.0
 11
42.823607
 21
35.118037
 31
0.0
  0
ARC
  5
1C62D
  8
DANMEN
  6
CONTINUOUS
 10
42.399994
 20
32.399994
 30
0.0
 40
0.4
 50
180.000019
 51
359.999983
  0
LINE
  5
1C62E
  8
DANMEN
  6
CONTINUOUS
 10
39.276393
 20
35.661806
 30
0.0
 11
42.0
 21
34.300003
 31
0.0
  0
ARC
  5
1C62F
  8
DANMEN
  6
CONTINUOUS
 10
39.5
 20
36.10902
 30
0.0
 40
0.5
 50
180.0
 51
243.434949
  0
LINE
  5
1C630
  8
DANMEN
  6
CONTINUOUS
 10
42.0
 20
34.300003
 30
0.0
 11
42.0
 21
32.399994
 31
0.0
  0
ARC
  5
1C631
  8
DANMEN
  6
CONTINUOUS
 10
42.6
 20
34.670823
 30
0.0
 40
0.5
 50
0.0
 51
63.434949
  0
LINE
  5
1C632
  8
DANMEN
  6
CONTINUOUS
 10
43.1
 20
34.670823
 30
0.0
 11
43.1
 21
34.0
 31
0.0
  0
LINE
  5
1C633
  8
DANMEN
  6
CONTINUOUS
 10
42.800003
 20
32.9
 30
0.0
 11
42.800003
 21
32.399994
 31
0.0
  0
ARC
  5
1C634
  8
DANMEN
  6
CONTINUOUS
 10
39.600006
 20
41.399994
 30
0.0
 40
0.6
 50
0.0
 51
180.000019
  0
LINE
  5
1C635
  8
DANMEN
  6
CONTINUOUS
 10
49.5
 20
32.0
 30
0.0
 11
54.0
 21
32.0
 31
0.0
  0
LINE
  5
1C636
  8
DANMEN
  6
CONTINUOUS
 10
49.0
 20
32.9
 30
0.0
 11
49.0
 21
32.5
 31
0.0
  0
ARC
  5
1C637
  8
DANMEN
  6
CONTINUOUS
 10
49.5
 20
32.5
 30
0.0
 40
0.5
 50
180.000019
 51
270.000001
  0
LINE
  5
1C639
  8
DANMEN
  6
CONTINUOUS
 10
54.052282
 20
46.755789
 30
0.0
 11
49.521146
 21
44.284248
 31
0.0
  0
ARC
  5
1C63A
  8
DANMEN
  6
CONTINUOUS
 10
50.0
 20
43.406353
 30
0.0
 40
1.0
 50
118.610582
 51
180.0
  0
LINE
  5
1C63B
  8
DANMEN
  6
CONTINUOUS
 10
51.465316
 20
50.837106
 30
0.0
 11
48.443002
 21
50.969063
 31
0.0
  0
LINE
  5
1C63C
  8
DANMEN
  6
CONTINUOUS
 10
52.00846
 20
51.814345
 30
0.0
 11
48.711313
 21
51.958301
 31
0.0
  0
ARC
  5
1C641
  8
DANMEN
  6
CONTINUOUS
 10
48.464812
 20
51.468587
 30
0.0
 40
0.5
 50
180.460936
 51
267.5
  0
LINE
  5
1C644
  8
DANMEN
  6
CONTINUOUS
 10
51.09665
 20
53.856061
 30
0.0
 11
51.009412
 21
51.857964
 31
0.0
  0
LINE
  5
1C646
  8
DANMEN
  6
CONTINUOUS
 10
52.095699
 20
53.812441
 30
0.0
 11
51.98665
 21
51.314821
 31
0.0
  0
ARC
  5
1C647
  8
DANMEN
  6
CONTINUOUS
 10
51.487126
 20
51.33663
 30
0.0
 40
0.5
 50
267.5
 51
357.5
  0
LINE
  5
1C649
  8
DANMEN
  6
CONTINUOUS
 10
51.053031
 20
52.857012
 30
0.0
 11
52.052079
 21
52.813393
 31
0.0
  0
ARC
  5
1C64C
  8
DANMEN
  6
CONTINUOUS
 10
51.699997
 20
52.5
 30
0.0
 40
0.5
 50
180.000019
 51
270.000001
  0
ARC
  5
1C64E
  8
DANMEN
  6
CONTINUOUS
 10
52.649994
 20
52.5
 30
0.0
 40
0.5
 50
270.000018
 51
0.0
  0
LINE
  5
1C650
  8
DANMEN
  6
CONTINUOUS
 10
51.699997
 20
52.0
 30
0.0
 11
52.649994
 21
52.0
 31
0.0
  0
LINE
  5
1C651
  8
DANMEN
  6
CONTINUOUS
 10
50.419296
 20
52.0
 30
0.0
 11
52.0
 21
52.0
 31
0.0
  0
ARC
  5
1C652
  8
DANMEN
  6
CONTINUOUS
 10
69.66828
 20
41.848903
 30
0.0
 40
0.5
 50
23.49856
 51
113.49856
  0
LINE
  5
1C653
  8
DANMEN
  6
CONTINUOUS
 10
66.3
 20
42.448185
 30
0.0
 11
66.855268
 21
41.171069
 31
0.0
  0
LINE
  5
1C654
  8
DANMEN
  6
CONTINUOUS
 10
69.468917
 20
42.307438
 30
0.0
 11
66.855268
 21
41.171069
 31
0.0
  0
ARC
  5
1C655
  8
DANMEN
  6
CONTINUOUS
 10
63.8
 20
43.053939
 30
0.0
 40
1.0
 50
294.624318
 51
0.0
  0
ARC
  5
1C656
  8
DANMEN
  6
CONTINUOUS
 10
61.7
 20
42.969694
 30
0.0
 40
2.0
 50
180.0
 51
231.706523
  0
ARC
  5
1C657
  8
DANMEN
  6
CONTINUOUS
 10
62.2
 20
43.053939
 30
0.0
 40
1.0
 50
180.0
 51
245.375682
  0
ARC
  5
1C658
  8
DANMEN
  6
CONTINUOUS
 10
54.5
 20
32.649994
 30
0.0
 40
1.0
 50
0.0
 51
89.999982
  0
ARC
  5
1C659
  8
DANMEN
  6
CONTINUOUS
 10
61.7
 20
41.963068
 30
0.0
 40
0.2
 50
0.0
 51
65.375682
  0
LINE
  5
1C65A
  8
DANMEN
  6
CONTINUOUS
 10
61.9
 20
41.7
 30
0.0
 11
61.9
 21
41.963068
 31
0.0
  0
LINE
  5
1C65B
  8
DANMEN
  6
CONTINUOUS
 10
60.460621
 20
41.4
 30
0.0
 11
61.6
 21
41.4
 31
0.0
  0
ARC
  5
1C65C
  8
DANMEN
  6
CONTINUOUS
 10
61.6
 20
41.7
 30
0.0
 40
0.3
 50
270.0
 51
0.0
  0
ARC
  5
1C65D
  8
DANMEN
  6
CONTINUOUS
 10
66.518344
 20
40.315802
 30
0.0
 40
1.0
 50
203.49856
 51
293.49856
  0
LINE
  5
1C65E
  8
DANMEN
  6
CONTINUOUS
 10
64.956524
 20
41.4
 30
0.0
 11
65.601274
 21
39.917076
 31
0.0
  0
LINE
  5
1C65F
  8
DANMEN
  6
CONTINUOUS
 10
64.1
 20
41.7
 30
0.0
 11
64.1
 21
41.963068
 31
0.0
  0
ARC
  5
1C660
  8
DANMEN
  6
CONTINUOUS
 10
64.3
 20
41.963068
 30
0.0
 40
0.2
 50
114.624318
 51
180.0
  0
LINE
  5
1C661
  8
DANMEN
  6
CONTINUOUS
 10
64.4
 20
41.4
 30
0.0
 11
64.956524
 21
41.4
 31
0.0
  0
ARC
  5
1C662
  8
DANMEN
  6
CONTINUOUS
 10
64.4
 20
41.7
 30
0.0
 40
0.3
 50
180.0
 51
270.0
  0
ARC
  5
1C663
  8
DANMEN
  6
CONTINUOUS
 10
69.927452
 20
41.252808
 30
0.0
 40
0.5
 50
293.49856
 51
23.49856
  0
LINE
  5
1C664
  8
DANMEN
  6
CONTINUOUS
 10
70.126816
 20
42.048266
 30
0.0
 11
70.385987
 21
41.452171
 31
0.0
  0
LINE
  5
1C665
  8
DANMEN
  6
CONTINUOUS
 10
70.126815
 20
40.794273
 30
0.0
 11
66.91707
 21
39.398732
 31
0.0
  0
LINE
  5
1C666
  8
DANMEN
  6
CONTINUOUS
 10
62.2
 20
45.3
 30
0.0
 11
63.8
 21
45.3
 31
0.0
  0
LINE
  5
1C667
  8
DANMEN
  6
CONTINUOUS
 10
62.5
 20
47.0
 30
0.0
 11
68.5
 21
47.0
 31
0.0
  0
LINE
  5
1C668
  8
DANMEN
  6
CONTINUOUS
 10
54.920742
 20
45.35
 30
0.0
 11
58.7
 21
45.35
 31
0.0
  0
LINE
  5
1C669
  8
DANMEN
  6
CONTINUOUS
 10
55.00999
 20
47.0
 30
0.0
 11
60.850006
 21
47.0
 31
0.0
  0
ARC
  5
1C66A
  8
DANMEN
  6
CONTINUOUS
 10
58.7
 20
44.35
 30
0.0
 40
1.0
 50
0.0
 51
90.0
  0
ARC
  5
1C66B
  8
DANMEN
  6
CONTINUOUS
 10
62.2
 20
44.3
 30
0.0
 40
1.0
 50
90.0
 51
180.0
  0
LINE
  5
1C66C
  8
DANMEN
  6
CONTINUOUS
 10
59.7
 20
42.969694
 30
0.0
 11
59.7
 21
44.35
 31
0.0
  0
LINE
  5
1C66D
  8
DANMEN
  6
CONTINUOUS
 10
61.2
 20
43.053939
 30
0.0
 11
61.2
 21
44.3
 31
0.0
  0
LINE
  5
1C66E
  8
DANMEN
  6
CONTINUOUS
 10
66.3
 20
45.350006
 30
0.0
 11
68.640809
 21
45.350006
 31
0.0
  0
LINE
  5
1C66F
  8
DANMEN
  6
CONTINUOUS
 10
66.3
 20
42.448185
 30
0.0
 11
66.3
 21
45.350006
 31
0.0
  0
LINE
  5
1C670
  8
DANMEN
  6
CONTINUOUS
 10
64.8
 20
43.053939
 30
0.0
 11
64.8
 21
44.3
 31
0.0
  0
ARC
  5
1C671
  8
DANMEN
  6
CONTINUOUS
 10
63.8
 20
44.3
 30
0.0
 40
1.0
 50
0.0
 51
90.0
  0
ARC
  5
1C672
  8
DANMEN
  6
CONTINUOUS
 10
68.640809
 20
46.350006
 30
0.0
 40
1.0
 50
270.0
 51
294.443955
  0
LINE
  5
1C673
  8
DANMEN
  6
CONTINUOUS
 10
68.850006
 20
68.000003
 30
0.0
 11
53.149989
 21
67.999999
 31
0.0
  0
LINE
  5
1C674
  8
DANMEN
  6
CONTINUOUS
 10
56.149989
 20
66.999999
 30
0.0
 11
54.149994
 21
66.999999
 31
0.0
  0
LINE
  5
1C678
  8
DANMEN
  6
CONTINUOUS
 10
53.149994
 20
66.999999
 30
0.0
 11
53.649994
 21
67.499999
 31
0.0
  0
LINE
  5
1C679
  8
DANMEN
  6
CONTINUOUS
 10
54.149994
 20
66.999999
 30
0.0
 11
53.649994
 21
67.499999
 31
0.0
  0
ARC
  5
1C680
  8
DANMEN
  6
CONTINUOUS
 10
61.0
 20
56.0
 30
0.0
 40
3.0
 50
53.130102
 51
126.869903
  0
ARC
  5
1C681
  8
DANMEN
  6
CONTINUOUS
 10
62.0
 20
58.29129
 30
0.0
 40
0.5
 50
0.000279
 51
66.42195
  0
ARC
  5
1C682
  8
DANMEN
  6
CONTINUOUS
 10
61.0
 20
58.0
 30
0.0
 40
4.0
 50
0.0
 51
180.000019
  0
LINE
  5
1C683
  8
DANMEN
  6
CONTINUOUS
 10
56.799999
 20
56.0
 30
0.0
 11
59.0
 21
56.0
 31
0.0
  0
ARC
  5
1C685
  8
DANMEN
  6
CONTINUOUS
 10
59.5
 20
58.0
 30
0.0
 40
0.5
 50
126.869907
 51
180.000009
  0
ARC
  5
1C686
  8
DANMEN
  6
CONTINUOUS
 10
60.0
 20
57.152954
 30
0.0
 40
0.5
 50
180.000309
 51
214.019733
  0
ARC
  5
1C687
  8
DANMEN
  6
CONTINUOUS
 10
60.350006
 20
54.847046
 30
0.0
 40
0.5
 50
0.000664
 51
34.020021
  0
LINE
  5
1C688
  8
DANMEN
  6
CONTINUOUS
 10
60.764431
 20
55.126784
 30
0.0
 11
59.585579
 21
56.873223
 31
0.0
  0
ARC
  5
1C689
  8
DANMEN
  6
CONTINUOUS
 10
60.0
 20
58.29129
 30
0.0
 40
0.5
 50
113.578068
 51
179.999745
  0
ARC
  5
1C68A
  8
DANMEN
  6
CONTINUOUS
 10
61.0
 20
56.0
 30
0.0
 40
3.0
 50
66.421841
 51
113.578178
  0
LINE
  5
1C68B
  8
DANMEN
  6
CONTINUOUS
 10
59.5
 20
58.29129
 30
0.0
 11
59.5
 21
57.152954
 31
0.0
  0
LINE
  5
1C68C
  8
DANMEN
  6
CONTINUOUS
 10
65.200001
 20
56.0
 30
0.0
 11
63.0
 21
56.0
 31
0.0
  0
ARC
  5
1C68D
  8
DANMEN
  6
CONTINUOUS
 10
62.5
 20
58.0
 30
0.0
 40
0.5
 50
359.999997
 51
53.130102
  0
LINE
  5
1C691
  8
DANMEN
  6
CONTINUOUS
 10
65.850001
 20
66.050006
 30
0.0
 11
56.149988
 21
66.050002
 31
0.0
  0
LINE
  5
1C692
  8
DANMEN
  6
CONTINUOUS
 10
56.600001
 20
69.500003
 30
0.0
 11
56.799998
 21
69.300005
 31
0.0
  0
LINE
  5
1C695
  8
DANMEN
  6
CONTINUOUS
 10
56.149994
 20
67.0
 30
0.0
 11
56.149994
 21
66.050003
 31
0.0
  0
LINE
  5
1C696
  8
DANMEN
  6
CONTINUOUS
 10
67.850006
 20
67.000003
 30
0.0
 11
65.850001
 21
67.000002
 31
0.0
  0
LINE
  5
1C697
  8
DANMEN
  6
CONTINUOUS
 10
65.399994
 20
69.500002
 30
0.0
 11
65.199998
 21
69.300006
 31
0.0
  0
LINE
  5
1C69A
  8
DANMEN
  6
CONTINUOUS
 10
65.850006
 20
67.0
 30
0.0
 11
65.850006
 21
66.050003
 31
0.0
  0
LINE
  5
1C69B
  8
DANMEN
  6
CONTINUOUS
 10
68.350006
 20
67.500003
 30
0.0
 11
67.850006
 21
67.000003
 31
0.0
  0
LINE
  5
1C69C
  8
DANMEN
  6
CONTINUOUS
 10
68.850006
 20
67.000003
 30
0.0
 11
68.350006
 21
67.500003
 31
0.0
  0
LINE
  5
1C6A3
  8
DANMEN
  6
CONTINUOUS
 10
68.850006
 20
69.000003
 30
0.0
 11
68.850006
 21
68.0
 31
0.0
  0
LINE
  5
1C6A4
  8
DANMEN
  6
CONTINUOUS
 10
49.0
 20
110.5
 30
0.0
 11
35.000005
 21
110.5
 31
0.0
  0
LINE
  5
1C6A5
  8
DANMEN
  6
CONTINUOUS
 10
48.7
 20
109.0
 30
0.0
 11
36.000005
 21
109.0
 31
0.0
  0
LINE
  5
1C6A6
  8
DANMEN
  6
CONTINUOUS
 10
36.0
 20
109.0
 30
0.0
 11
51.199997
 21
109.0
 31
0.0
  0
LINE
  5
1C6A7
  8
DANMEN
  6
CONTINUOUS
 10
35.000005
 20
110.5
 30
0.0
 11
35.000005
 21
110.0
 31
0.0
  0
ARC
  5
1C6A9
  8
DANMEN
  6
CONTINUOUS
 10
36.000005
 20
110.0
 30
0.0
 40
1.0
 50
180.0
 51
270.0
  0
ARC
  5
1C6AC
  8
DANMEN
  6
CONTINUOUS
 10
36.0
 20
110.0
 30
0.0
 40
1.0
 50
180.0
 51
270.0
  0
LINE
  5
1C6AF
  8
DANMEN
  6
CONTINUOUS
 10
35.0
 20
110.5
 30
0.0
 11
37.199997
 21
110.5
 31
0.0
  0
LINE
  5
1C6B0
  8
DANMEN
  6
CONTINUOUS
 10
35.0
 20
110.5
 30
0.0
 11
35.0
 21
110.0
 31
0.0
  0
LINE
  5
1C6B1
  8
DANMEN
  6
CONTINUOUS
 10
68.850006
 20
104.0
 30
0.0
 11
68.850006
 21
80.050003
 31
0.0
  0
LINE
  5
1C6B2
  8
DANMEN
  6
CONTINUOUS
 10
56.600001
 20
87.500005
 30
0.0
 11
56.799998
 21
87.700002
 31
0.0
  0
ARC
  5
1C6B3
  8
DANMEN
  6
CONTINUOUS
 10
69.850006
 20
80.050003
 30
0.0
 40
1.0
 50
180.000019
 51
270.000001
  0
LINE
  5
1C6B5
  8
DANMEN
  6
CONTINUOUS
 10
65.399994
 20
87.500006
 30
0.0
 11
65.199998
 21
87.700002
 31
0.0
  0
ARC
  5
1C6B6
  8
DANMEN
  6
CONTINUOUS
 10
61.0
 20
101.000008
 30
0.0
 40
3.0
 50
233.130097
 51
306.869898
  0
ARC
  5
1C6B7
  8
DANMEN
  6
CONTINUOUS
 10
59.5
 20
99.000008
 30
0.0
 40
0.5
 50
179.999991
 51
233.130093
  0
ARC
  5
1C6B8
  8
DANMEN
  6
CONTINUOUS
 10
62.5
 20
99.000008
 30
0.0
 40
0.5
 50
306.869898
 51
0.000003
  0
LINE
  5
1C6B9
  8
DANMEN
  6
CONTINUOUS
 10
53.149994
 20
105.199997
 30
0.0
 11
57.699997
 21
105.199997
 31
0.0
  0
LINE
  5
1C6BA
  8
DANMEN
  6
CONTINUOUS
 10
53.149994
 20
104.0
 30
0.0
 11
59.199997
 21
104.0
 31
0.0
  0
LINE
  5
1C6BB
  8
DANMEN
  6
CONTINUOUS
 10
39.149994
 20
110.949997
 30
0.0
 11
52.149994
 21
110.949997
 31
0.0
  0
LINE
  5
1C6BD
  8
DANMEN
  6
CONTINUOUS
 10
53.149994
 20
109.949997
 30
0.0
 11
53.149994
 21
105.199997
 31
0.0
  0
LINE
  5
1C6C0
  8
DANMEN
  6
CONTINUOUS
 10
49.0
 20
110.5
 30
0.0
 11
49.0
 21
109.0
 31
0.0
  0
LINE
  5
1C6C2
  8
DANMEN
  6
CONTINUOUS
 10
48.7
 20
110.5
 30
0.0
 11
48.7
 21
108.993429
 31
0.0
  0
ARC
  5
1C6C6
  8
DANMEN
  6
CONTINUOUS
 10
52.149994
 20
109.949997
 30
0.0
 40
1.0
 50
0.0
 51
89.999982
  0
ARC
  5
1C6C9
  8
DANMEN
  6
CONTINUOUS
 10
61.7
 20
108.3
 30
0.0
 40
1.0
 50
0.0
 51
90.0
  0
LINE
  5
1C6CA
  8
DANMEN
  6
CONTINUOUS
 10
60.199997
 20
111.0
 30
0.0
 11
68.850006
 21
111.0
 31
0.0
  0
ARC
  5
1C6CB
  8
DANMEN
  6
CONTINUOUS
 10
60.2
 20
106.8
 30
0.0
 40
1.0
 50
180.0
 51
270.0
  0
LINE
  5
1C6CC
  8
DANMEN
  6
CONTINUOUS
 10
57.699997
 20
108.5
 30
0.0
 11
57.699997
 21
105.199997
 31
0.0
  0
LINE
  5
1C6CD
  8
DANMEN
  6
CONTINUOUS
 10
56.799999
 20
101.000008
 30
0.0
 11
59.0
 21
101.000008
 31
0.0
  0
LINE
  5
1C6D0
  8
DANMEN
  6
CONTINUOUS
 10
60.2
 20
105.8
 30
0.0
 11
60.833705
 21
105.8
 31
0.0
  0
LINE
  5
1C6D1
  8
DANMEN
  6
CONTINUOUS
 10
59.199997
 20
104.3
 30
0.0
 11
60.833705
 21
104.3
 31
0.0
  0
ARC
  5
1C6D2
  8
DANMEN
  6
CONTINUOUS
 10
60.833705
 20
105.05
 30
0.0
 40
0.75
 50
270.0
 51
90.0
  0
LINE
  5
1C6D4
  8
DANMEN
  6
CONTINUOUS
 10
59.199997
 20
104.300003
 30
0.0
 11
59.199997
 21
104.0
 31
0.0
  0
ARC
  5
1C6D5
  8
DANMEN
  6
CONTINUOUS
 10
60.199997
 20
108.5
 30
0.0
 40
2.5
 50
89.999982
 51
180.000019
  0
LINE
  5
1C6D8
  8
DANMEN
  6
CONTINUOUS
 10
60.2
 20
109.3
 30
0.0
 11
61.7
 21
109.3
 31
0.0
  0
LINE
  5
1C6D9
  8
DANMEN
  6
CONTINUOUS
 10
59.2
 20
106.8
 30
0.0
 11
59.2
 21
108.3
 31
0.0
  0
ARC
  5
1C6DA
  8
DANMEN
  6
CONTINUOUS
 10
60.2
 20
108.3
 30
0.0
 40
1.0
 50
90.0
 51
180.0
  0
LINE
  5
1C6DC
  8
DANMEN
  6
CONTINUOUS
 10
68.850006
 20
109.350006
 30
0.0
 11
68.850006
 21
105.199997
 31
0.0
  0
ARC
  5
1C6DD
  8
DANMEN
  6
CONTINUOUS
 10
66.800003
 20
104.699997
 30
0.0
 40
0.5
 50
89.999982
 51
180.000019
  0
LINE
  5
1C6DE
  8
DANMEN
  6
CONTINUOUS
 10
66.300003
 20
104.0
 30
0.0
 11
68.850006
 21
104.0
 31
0.0
  0
LINE
  5
1C6DF
  8
DANMEN
  6
CONTINUOUS
 10
65.200001
 20
101.000008
 30
0.0
 11
63.0
 21
101.000008
 31
0.0
  0
LINE
  5
1C6E2
  8
DANMEN
  6
CONTINUOUS
 10
66.300003
 20
104.699997
 30
0.0
 11
66.300003
 21
104.0
 31
0.0
  0
LINE
  5
1C6E5
  8
DANMEN
  6
CONTINUOUS
 10
66.800003
 20
105.199997
 30
0.0
 11
68.850006
 21
105.199997
 31
0.0
  0
LINE
  5
1C6E6
  8
DANMEN
  6
CONTINUOUS
 10
65.199997
 20
109.350006
 30
0.0
 11
68.850006
 21
109.350006
 31
0.0
  0
ARC
  5
1C6E8
  8
DANMEN
  6
CONTINUOUS
 10
65.2
 20
108.350006
 30
0.0
 40
1.0
 50
90.0
 51
180.0
  0
LINE
  5
1C6EA
  8
DANMEN
  6
CONTINUOUS
 10
62.7
 20
107.666295
 30
0.0
 11
62.7
 21
108.3
 31
0.0
  0
LINE
  5
1C6EB
  8
DANMEN
  6
CONTINUOUS
 10
64.2
 20
107.666295
 30
0.0
 11
64.2
 21
108.350006
 31
0.0
  0
ARC
  5
1C6EC
  8
DANMEN
  6
CONTINUOUS
 10
63.45
 20
107.666295
 30
0.0
 40
0.75
 50
180.0
 51
0.0
  0
LINE
  5
1C6EE
  8
DANMEN
  6
CONTINUOUS
 10
82.8
 20
89.0
 30
0.0
 11
82.8
 21
72.0
 31
0.0
  0
LINE
  5
1C6EF
  8
DANMEN
  6
CONTINUOUS
 10
81.0
 20
91.5
 30
0.0
 11
81.0
 21
75.0
 31
0.0
  0
LINE
  5
1C6F0
  8
DANMEN
  6
CONTINUOUS
 10
110.35
 20
85.2
 30
0.0
 11
110.35
 21
74.0
 31
0.0
  0
LINE
  5
1C6F1
  8
DANMEN
  6
CONTINUOUS
 10
112.0
 20
91.5
 30
0.0
 11
112.0
 21
57.5
 31
0.0
  0
LINE
  5
1C6F2
  8
DANMEN
  6
CONTINUOUS
 10
71.050003
 20
79.050003
 30
0.0
 11
71.050003
 21
69.000004
 31
0.0
  0
LINE
  5
1C6F3
  8
DANMEN
  6
CONTINUOUS
 10
73.0
 20
80.5
 30
0.0
 11
73.0
 21
67.500005
 31
0.0
  0
LINE
  5
1C6F4
  8
DANMEN
  6
CONTINUOUS
 10
73.0
 20
92.0
 30
0.0
 11
81.0
 21
75.0
 31
0.0
  0
LINE
  5
1C6F5
  8
DANMEN
  6
CONTINUOUS
 10
81.0
 20
92.0
 30
0.0
 11
73.0
 21
75.0
 31
0.0
  0
LINE
  5
1C6F6
  8
DANMEN
  6
CONTINUOUS
 10
99.05
 20
74.0
 30
0.0
 11
110.35
 21
74.0
 31
0.0
  0
LINE
  5
1C6F7
  8
DANMEN
  6
CONTINUOUS
 10
100.2
 20
72.35
 30
0.0
 11
110.350006
 21
72.35
 31
0.0
  0
LINE
  5
1C6F8
  8
DANMEN
  6
CONTINUOUS
 10
73.0
 20
67.500005
 30
0.0
 11
73.0
 21
52.0
 31
0.0
  0
LINE
  5
1C6F9
  8
DANMEN
  6
CONTINUOUS
 10
82.5
 20
70.2
 30
0.0
 11
93.5
 21
70.2
 31
0.0
  0
LINE
  5
1C6FA
  8
DANMEN
  6
CONTINUOUS
 10
82.8
 20
72.0
 30
0.0
 11
98.55
 21
72.0
 31
0.0
  0
LINE
  5
1C6FB
  8
DANMEN
  6
CONTINUOUS
 10
76.5
 20
75.0
 30
0.0
 11
81.0
 21
75.0
 31
0.0
  0
LINE
  5
1C6FC
  8
DANMEN
  6
CONTINUOUS
 10
76.5
 20
67.0
 30
0.0
 11
79.000003
 21
67.0
 31
0.0
  0
LINE
  5
1C6FD
  8
DANMEN
  6
CONTINUOUS
 10
73.000003
 20
75.0
 30
0.0
 11
81.000003
 21
75.0
 31
0.0
  0
LINE
  5
1C6FE
  8
DANMEN
  6
CONTINUOUS
 10
75.200003
 20
67.3
 30
0.0
 11
75.200003
 21
74.4
 31
0.0
  0
LINE
  5
1C6FF
  8
DANMEN
  6
CONTINUOUS
 10
77.200003
 20
70.0
 30
0.0
 11
77.200003
 21
71.7
 31
0.0
  0
LINE
  5
1C700
  8
DANMEN
  6
CONTINUOUS
 10
73.000003
 20
70.394291
 30
0.0
 11
73.000003
 21
71.305709
 31
0.0
  0
LINE
  5
1C701
  8
DANMEN
  6
CONTINUOUS
 10
73.600003
 20
71.217127
 30
0.0
 11
74.582437
 21
74.4
 31
0.0
  0
LINE
  5
1C702
  8
DANMEN
  6
CONTINUOUS
 10
78.500003
 20
74.0
 30
0.0
 11
78.500003
 21
67.8
 31
0.0
  0
LINE
  5
1C703
  8
DANMEN
  6
CONTINUOUS
 10
74.327481
 20
66.7
 30
0.0
 11
76.000003
 21
66.7
 31
0.0
  0
LINE
  5
1C704
  8
DANMEN
  6
CONTINUOUS
 10
74.582437
 20
67.3
 30
0.0
 11
75.200003
 21
67.3
 31
0.0
  0
LINE
  5
1C706
  8
DANMEN
  6
CONTINUOUS
 10
74.146181
 20
66.815559
 30
0.0
 11
73.018703
 21
70.30985
 31
0.0
  0
ARC
  5
1C707
  8
DANMEN
  6
CONTINUOUS
 10
74.327481
 20
66.9
 30
0.0
 40
0.2
 50
204.97391
 51
270.0
  0
ARC
  5
1C709
  8
DANMEN
  6
CONTINUOUS
 10
73.200003
 20
70.394291
 30
0.0
 40
0.2
 50
180.0
 51
204.97391
  0
LINE
  5
1C70B
  8
DANMEN
  6
CONTINUOUS
 10
74.582437
 20
67.3
 30
0.0
 11
73.600003
 21
70.482874
 31
0.0
  0
LINE
  5
1C70C
  8
DANMEN
  6
CONTINUOUS
 10
73.600003
 20
70.482874
 30
0.0
 11
73.600003
 21
71.217127
 31
0.0
  0
ARC
  5
1C712
  8
DANMEN
  6
CONTINUOUS
 10
72.5
 20
67.500005
 30
0.0
 40
0.5
 50
270.0
 51
0.0
  0
LINE
  5
1C714
  8
DANMEN
  6
CONTINUOUS
 10
78.000003
 20
68.2
 30
0.0
 11
78.000003
 21
69.2
 31
0.0
  0
LINE
  5
1C715
  8
DANMEN
  6
CONTINUOUS
 10
77.200003
 20
68.0
 30
0.0
 11
77.800003
 21
68.0
 31
0.0
  0
LINE
  5
1C716
  8
DANMEN
  6
CONTINUOUS
 10
77.000003
 20
68.2
 30
0.0
 11
77.000003
 21
69.2
 31
0.0
  0
ARC
  5
1C718
  8
DANMEN
  6
CONTINUOUS
 10
77.800003
 20
68.2
 30
0.0
 40
0.2
 50
270.000018
 51
0.0
  0
ARC
  5
1C71A
  8
DANMEN
  6
CONTINUOUS
 10
77.200003
 20
68.2
 30
0.0
 40
0.2
 50
179.999981
 51
270.000018
  0
LINE
  5
1C71D
  8
DANMEN
  6
CONTINUOUS
 10
78.000003
 20
69.2
 30
0.0
 11
77.200003
 21
70.0
 31
0.0
  0
LINE
  5
1C71E
  8
DANMEN
  6
CONTINUOUS
 10
76.000003
 20
69.2
 30
0.0
 11
77.000003
 21
69.2
 31
0.0
  0
LINE
  5
1C720
  8
DANMEN
  6
CONTINUOUS
 10
76.000003
 20
66.7
 30
0.0
 11
76.000003
 21
69.2
 31
0.0
  0
LINE
  5
1C728
  8
DANMEN
  6
CONTINUOUS
 10
76.800003
 20
67.8
 30
0.0
 11
78.5
 21
67.8
 31
0.0
  0
LINE
  5
1C729
  8
DANMEN
  6
CONTINUOUS
 10
76.5
 20
69.199997
 30
0.0
 11
76.800003
 21
69.199997
 31
0.0
  0
ARC
  5
1C72A
  8
DANMEN
  6
CONTINUOUS
 10
76.5
 20
68.699997
 30
0.0
 40
0.5
 50
89.999982
 51
180.000019
  0
ARC
  5
1C72B
  8
DANMEN
  6
CONTINUOUS
 10
76.5
 20
67.5
 30
0.0
 40
0.5
 50
180.000019
 51
270.000001
  0
LINE
  5
1C72C
  8
DANMEN
  6
CONTINUOUS
 10
76.800003
 20
69.199997
 30
0.0
 11
76.800003
 21
67.8
 31
0.0
  0
LINE
  5
1C72D
  8
DANMEN
  6
CONTINUOUS
 10
76.0
 20
68.699997
 30
0.0
 11
76.0
 21
67.5
 31
0.0
  0
LINE
  5
1C72E
  8
DANMEN
  6
CONTINUOUS
 10
74.327481
 20
75.0
 30
0.0
 11
76.000003
 21
75.0
 31
0.0
  0
LINE
  5
1C72F
  8
DANMEN
  6
CONTINUOUS
 10
74.582437
 20
74.4
 30
0.0
 11
75.200003
 21
74.4
 31
0.0
  0
LINE
  5
1C730
  8
DANMEN
  6
CONTINUOUS
 10
73.018703
 20
71.39015
 30
0.0
 11
74.146181
 21
74.884441
 31
0.0
  0
ARC
  5
1C731
  8
DANMEN
  6
CONTINUOUS
 10
74.327481
 20
74.8
 30
0.0
 40
0.2
 50
90.0
 51
155.02609
  0
ARC
  5
1C733
  8
DANMEN
  6
CONTINUOUS
 10
73.200003
 20
71.305709
 30
0.0
 40
0.2
 50
155.02609
 51
180.0
  0
LINE
  5
1C736
  8
DANMEN
  6
CONTINUOUS
 10
77.200003
 20
73.7
 30
0.0
 11
77.800003
 21
73.7
 31
0.0
  0
LINE
  5
1C737
  8
DANMEN
  6
CONTINUOUS
 10
76.000003
 20
72.5
 30
0.0
 11
76.000003
 21
75.0
 31
0.0
  0
ARC
  5
1C739
  8
DANMEN
  6
CONTINUOUS
 10
77.800003
 20
73.5
 30
0.0
 40
0.2
 50
0.0
 51
89.999982
  0
ARC
  5
1C73B
  8
DANMEN
  6
CONTINUOUS
 10
77.200003
 20
73.5
 30
0.0
 40
0.2
 50
89.999999
 51
179.999981
  0
LINE
  5
1C73C
  8
DANMEN
  6
CONTINUOUS
 10
78.000003
 20
72.5
 30
0.0
 11
78.000003
 21
73.5
 31
0.0
  0
LINE
  5
1C73E
  8
DANMEN
  6
CONTINUOUS
 10
77.200003
 20
71.7
 30
0.0
 11
78.000003
 21
72.5
 31
0.0
  0
LINE
  5
1C73F
  8
DANMEN
  6
CONTINUOUS
 10
77.000003
 20
72.5
 30
0.0
 11
77.000003
 21
73.5
 31
0.0
  0
LINE
  5
1C740
  8
DANMEN
  6
CONTINUOUS
 10
76.000003
 20
72.5
 30
0.0
 11
77.000003
 21
72.5
 31
0.0
  0
ARC
  5
1C746
  8
DANMEN
  6
CONTINUOUS
 10
76.5
 20
74.5
 30
0.0
 40
0.5
 50
89.999982
 51
180.000019
  0
LINE
  5
1C747
  8
DANMEN
  6
CONTINUOUS
 10
76.800003
 20
74.0
 30
0.0
 11
78.5
 21
74.0
 31
0.0
  0
ARC
  5
1C748
  8
DANMEN
  6
CONTINUOUS
 10
76.5
 20
73.300003
 30
0.0
 40
0.5
 50
180.000019
 51
270.000001
  0
LINE
  5
1C749
  8
DANMEN
  6
CONTINUOUS
 10
76.800003
 20
74.0
 30
0.0
 11
76.800003
 21
72.800003
 31
0.0
  0
LINE
  5
1C74A
  8
DANMEN
  6
CONTINUOUS
 10
76.5
 20
72.800003
 30
0.0
 11
76.800003
 21
72.800003
 31
0.0
  0
LINE
  5
1C74B
  8
DANMEN
  6
CONTINUOUS
 10
76.0
 20
74.5
 30
0.0
 11
76.0
 21
73.300003
 31
0.0
  0
LINE
  5
1C74C
  8
DANMEN
  6
CONTINUOUS
 10
79.5
 20
73.35
 30
0.0
 11
79.5
 21
67.5
 31
0.0
  0
ARC
  5
1C74D
  8
DANMEN
  6
CONTINUOUS
 10
82.5
 20
71.7
 30
0.0
 40
1.5
 50
180.0
 51
270.0
  0
ARC
  5
1C74E
  8
DANMEN
  6
CONTINUOUS
 10
79.0
 20
67.5
 30
0.0
 40
0.5
 50
270.000018
 51
0.0
  0
LINE
  5
1C74F
  8
DANMEN
  6
CONTINUOUS
 10
81.0
 20
71.7
 30
0.0
 11
81.0
 21
73.35
 31
0.0
  0
LINE
  5
1C750
  8
DANMEN
  6
CONTINUOUS
 10
79.5
 20
73.35
 30
0.0
 11
81.0
 21
73.35
 31
0.0
  0
ARC
  5
1C751
  8
DANMEN
  6
CONTINUOUS
 10
96.15
 20
64.3
 30
0.0
 40
1.0
 50
90.0
 51
180.0
  0
ARC
  5
1C752
  8
DANMEN
  6
CONTINUOUS
 10
96.833705
 20
66.05
 30
0.0
 40
0.75
 50
270.0
 51
90.0
  0
LINE
  5
1C753
  8
DANMEN
  6
CONTINUOUS
 10
93.5
 20
70.2
 30
0.0
 11
93.5
 21
58.003636
 31
0.0
  0
LINE
  5
1C754
  8
DANMEN
  6
CONTINUOUS
 10
95.15
 20
64.3
 30
0.0
 11
95.15
 21
57.385093
 31
0.0
  0
ARC
  5
1C755
  8
DANMEN
  6
CONTINUOUS
 10
94.15
 20
57.385093
 30
0.0
 40
1.0
 50
294.443955
 51
0.0
  0
LINE
  5
1C756
  8
DANMEN
  6
CONTINUOUS
 10
96.15
 20
65.3
 30
0.0
 11
96.833705
 21
65.3
 31
0.0
  0
ARC
  5
1C757
  8
DANMEN
  6
CONTINUOUS
 10
96.2
 20
67.8
 30
0.0
 40
1.0
 50
180.0
 51
270.0
  0
ARC
  5
1C758
  8
DANMEN
  6
CONTINUOUS
 10
96.2
 20
69.3
 30
0.0
 40
1.0
 50
90.0
 51
180.0
  0
LINE
  5
1C759
  8
DANMEN
  6
CONTINUOUS
 10
95.2
 20
67.8
 30
0.0
 11
95.2
 21
69.3
 31
0.0
  0
LINE
  5
1C75A
  8
DANMEN
  6
CONTINUOUS
 10
100.2
 20
68.666295
 30
0.0
 11
100.2
 21
72.35
 31
0.0
  0
ARC
  5
1C75B
  8
DANMEN
  6
CONTINUOUS
 10
99.45
 20
68.666295
 30
0.0
 40
0.75
 50
180.0
 51
0.0
  0
ARC
  5
1C75C
  8
DANMEN
  6
CONTINUOUS
 10
97.7
 20
69.3
 30
0.0
 40
1.0
 50
0.0
 51
90.0
  0
LINE
  5
1C75D
  8
DANMEN
  6
CONTINUOUS
 10
96.2
 20
66.8
 30
0.0
 11
96.833705
 21
66.8
 31
0.0
  0
LINE
  5
1C75E
  8
DANMEN
  6
CONTINUOUS
 10
98.7
 20
68.666295
 30
0.0
 11
98.7
 21
69.3
 31
0.0
  0
LINE
  5
1C75F
  8
DANMEN
  6
CONTINUOUS
 10
96.2
 20
70.3
 30
0.0
 11
97.7
 21
70.3
 31
0.0
  0
ARC
  5
1C760
  8
DANMEN
  6
CONTINUOUS
 10
99.05
 20
73.5
 30
0.0
 40
0.5
 50
90.0
 51
180.0
  0
LINE
  5
1C761
  8
DANMEN
  6
CONTINUOUS
 10
98.55
 20
72.0
 30
0.0
 11
98.55
 21
73.5
 31
0.0
  0
LINE
  5
1C762
  8
DANMEN
  6
CONTINUOUS
 10
112.0
 20
57.5
 30
0.0
 11
112.0
 21
32.0
 31
0.0
  0
LINE
  5
1C763
  8
DANMEN
  6
CONTINUOUS
 10
110.350006
 20
72.35
 30
0.0
 11
110.350006
 21
60.08182
 31
0.0
  0
ARC
  5
1C764
  8
DANMEN
  6
CONTINUOUS
 10
111.5
 20
57.5
 30
0.0
 40
0.5
 50
270.0
 51
0.0
  0
LINE
  5
1C765
  8
DANMEN
  6
CONTINUOUS
 10
110.350006
 20
60.08182
 30
0.0
 11
107.215287
 21
58.718899
 31
0.0
  0
ARC
  5
1C766
  8
DANMEN
  6
CONTINUOUS
 10
107.673822
 20
57.664268
 30
0.0
 40
0.5
 50
203.49856
 51
293.49856
  0
ARC
  5
1C767
  8
DANMEN
  6
CONTINUOUS
 10
107.41465
 20
58.260364
 30
0.0
 40
0.5
 50
113.49856
 51
203.49856
  0
LINE
  5
1C768
  8
DANMEN
  6
CONTINUOUS
 10
107.215287
 20
57.464905
 30
0.0
 11
106.956115
 21
58.061001
 31
0.0
  0
ARC
  5
1C76B
  8
DANMEN
  6
CONTINUOUS
 10
110.4
 20
57.759133
 30
0.0
 40
0.5
 50
0.0
 51
113.49856
  0
LINE
  5
1C76C
  8
DANMEN
  6
CONTINUOUS
 10
110.200637
 20
58.217668
 30
0.0
 11
107.873185
 21
57.205733
 31
0.0
  0
LINE
  5
1C76D
  8
DANMEN
  6
CONTINUOUS
 10
110.9
 20
57.759133
 30
0.0
 11
110.9
 21
57.0
 31
0.0
  0
LINE
  5
1C76E
  8
DANMEN
  6
CONTINUOUS
 10
110.9
 20
57.0
 30
0.0
 11
111.5
 21
57.0
 31
0.0
  0
LINE
  5
1C770
  8
DANMEN
  6
CONTINUOUS
 10
85.4
 20
112.000001
 30
0.0
 11
108.4
 21
112.000001
 31
0.0
  0
LINE
  5
1C771
  8
DANMEN
  6
CONTINUOUS
 10
85.4
 20
119.000001
 30
0.0
 11
108.4
 21
119.000001
 31
0.0
  0
LINE
  5
1C772
  8
DANMEN
  6
CONTINUOUS
 10
85.4
 20
112.000002
 30
0.0
 11
108.400001
 21
119.000001
 31
0.0
  0
LINE
  5
1C773
  8
DANMEN
  6
CONTINUOUS
 10
101.0
 20
87.0
 30
0.0
 11
110.35
 21
87.0
 31
0.0
  0
LINE
  5
1C774
  8
DANMEN
  6
CONTINUOUS
 10
99.0
 20
85.2
 30
0.0
 11
110.35
 21
85.2
 31
0.0
  0
LINE
  5
1C775
  8
DANMEN
  6
CONTINUOUS
 10
82.65
 20
111.999998
 30
0.0
 11
108.55
 21
111.999998
 31
0.0
  0
LINE
  5
1C776
  8
DANMEN
  6
CONTINUOUS
 10
107.584676
 20
110.349998
 30
0.0
 11
95.299997
 21
110.349998
 31
0.0
  0
LINE
  5
1C777
  8
DANMEN
  6
CONTINUOUS
 10
110.2
 20
109.999998
 30
0.0
 11
102.0
 21
96.65
 31
0.0
  0
LINE
  5
1C778
  8
DANMEN
  6
CONTINUOUS
 10
108.010724
 20
109.588305
 30
0.0
 11
100.063599
 21
96.65
 31
0.0
  0
LINE
  5
1C779
  8
DANMEN
  6
CONTINUOUS
 10
82.65
 20
110.349998
 30
0.0
 11
82.65
 21
93.649995
 31
0.0
  0
LINE
  5
1C77A
  8
DANMEN
  6
DASHED
 10
97.0
 20
92.0
 30
0.0
 11
85.0
 21
92.0
 31
0.0
  0
LINE
  5
1C77B
  8
DANMEN
  6
DASHED
 10
101.0
 20
93.199997
 30
0.0
 11
76.5
 21
93.199997
 31
0.0
  0
LINE
  5
1C77C
  8
DANMEN
  6
DASHED
 10
84.5
 20
87.399997
 30
0.0
 11
84.5
 21
91.5
 31
0.0
  0
ARC
  5
1C77D
  8
DANMEN
  6
DASHED
 10
83.299999
 20
88.500028
 30
0.0
 40
0.3
 50
124.343976
 51
202.988532
  0
LINE
  5
1C77E
  8
DANMEN
  6
CONTINUOUS
 10
85.0
 20
92.649989
 30
0.0
 11
85.0
 21
82.499991
 31
0.0
  0
LINE
  5
1C77F
  8
DANMEN
  6
CONTINUOUS
 10
83.5
 20
82.999991
 30
0.0
 11
83.5
 21
91.999995
 31
0.0
  0
ARC
  5
1C780
  8
DANMEN
  6
CONTINUOUS
 10
72.5
 20
80.5
 30
0.0
 40
0.5
 50
0.0
 51
89.999982
  0
LINE
  5
1C784
  8
DANMEN
  6
CONTINUOUS
 10
70.800003
 20
81.0
 30
0.0
 11
72.5
 21
81.0
 31
0.0
  0
ARC
  5
1C786
  8
DANMEN
  6
CONTINUOUS
 10
84.0
 20
82.999991
 30
0.0
 40
0.5
 50
180.0
 51
270.0
  0
LINE
  5
1C787
  8
DANMEN
  6
CONTINUOUS
 10
85.0
 20
82.499991
 30
0.0
 11
84.0
 21
82.499991
 31
0.0
  0
LINE
  5
1C788
  8
DANMEN
  6
DASHED
 10
83.023824
 20
88.382864
 30
0.0
 11
84.423825
 21
85.082833
 31
0.0
  0
LINE
  5
1C78A
  8
DANMEN
  6
DASHED
 10
84.5
 20
87.399997
 30
0.0
 11
84.992312
 21
85.26748
 31
0.0
  0
ARC
  5
1C78B
  8
DANMEN
  6
DASHED
 10
84.7
 20
85.199997
 30
0.0
 40
0.3
 50
202.988532
 51
12.999521
  0
LINE
  5
1C790
  8
DANMEN
  6
DASHED
 10
83.5
 20
92.0
 30
0.0
 11
77.714146
 21
92.0
 31
0.0
  0
LINE
  5
1C791
  8
DANMEN
  6
CONTINUOUS
 10
73.0
 20
92.0
 30
0.0
 11
81.0
 21
92.0
 31
0.0
  0
ARC
  5
1C792
  8
DANMEN
  6
DASHED
 10
77.714146
 20
91.0
 30
0.0
 40
1.0
 50
89.999982
 51
135.573244
  0
LINE
  5
1C793
  8
DANMEN
  6
DASHED
 10
77.0
 20
91.699997
 30
0.0
 11
76.5
 21
91.699997
 31
0.0
  0
LINE
  5
1C794
  8
DANMEN
  6
DASHED
 10
76.0
 20
92.699997
 30
0.0
 11
76.0
 21
92.199997
 31
0.0
  0
ARC
  5
1C795
  8
DANMEN
  6
DASHED
 10
76.5
 20
92.699997
 30
0.0
 40
0.5
 50
90.0
 51
180.0
  0
ARC
  5
1C796
  8
DANMEN
  6
DASHED
 10
76.5
 20
92.199997
 30
0.0
 40
0.5
 50
180.0
 51
270.0
  0
LINE
  5
1C79B
  8
DANMEN
  6
CONTINUOUS
 10
82.8
 20
89.0
 30
0.0
 11
83.5
 21
89.0
 31
0.0
  0
ARC
  5
1C79C
  8
DANMEN
  6
CONTINUOUS
 10
83.0
 20
91.5
 30
0.0
 40
0.5
 50
0.0
 51
90.0
  0
LINE
  5
1C79D
  8
DANMEN
  6
CONTINUOUS
 10
82.65
 20
93.649995
 30
0.0
 11
84.0
 21
93.649995
 31
0.0
  0
LINE
  5
1C79E
  8
DANMEN
  6
CONTINUOUS
 10
81.5
 20
91.999995
 30
0.0
 11
83.5
 21
91.999995
 31
0.0
  0
ARC
  5
1C79F
  8
DANMEN
  6
CONTINUOUS
 10
81.5
 20
91.5
 30
0.0
 40
0.5
 50
90.0
 51
180.0
  0
LINE
  5
1C7A0
  8
DANMEN
  6
CONTINUOUS
 10
81.5
 20
92.0
 30
0.0
 11
83.0
 21
92.0
 31
0.0
  0
ARC
  5
1C7A1
  8
DANMEN
  6
CONTINUOUS
 10
81.5
 20
92.499995
 30
0.0
 40
0.5
 50
180.0
 51
270.0
  0
ARC
  5
1C7A3
  8
DANMEN
  6
DASHED
 10
85.0
 20
91.5
 30
0.0
 40
0.5
 50
90.0
 51
180.0
  0
LINE
  5
1C7A4
  8
DANMEN
  6
DASHED
 10
83.5
 20
92.0
 30
0.0
 11
83.5
 21
89.000035
 31
0.0
  0
LINE
  5
1C7A5
  8
DANMEN
  6
DASHED
 10
83.5
 20
89.000035
 30
0.0
 11
83.130743
 21
88.747729
 31
0.0
  0
LINE
  5
1C7A8
  8
DANMEN
  6
CONTINUOUS
 10
83.5
 20
91.5
 30
0.0
 11
83.5
 21
89.0
 31
0.0
  0
ARC
  5
1C7AA
  8
DANMEN
  6
CONTINUOUS
 10
84.0
 20
92.649995
 30
0.0
 40
1.0
 50
0.0
 51
90.0
  0
LINE
  5
1C7AB
  8
DANMEN
  6
DASHED
 10
98.5
 20
92.0
 30
0.0
 11
98.5
 21
85.500035
 31
0.0
  0
LINE
  5
1C7AC
  8
DANMEN
  6
DASHED
 10
97.5
 20
83.899997
 30
0.0
 11
97.5
 21
91.5
 31
0.0
  0
LINE
  5
1C7AD
  8
DANMEN
  6
CONTINUOUS
 10
99.35
 20
86.2
 30
0.0
 11
99.35
 21
89.0
 31
0.0
  0
LINE
  5
1C7AE
  8
DANMEN
  6
CONTINUOUS
 10
101.0
 20
91.0
 30
0.0
 11
101.0
 21
87.0
 31
0.0
  0
LINE
  5
1C7AF
  8
DANMEN
  6
CONTINUOUS
 10
96.8
 20
89.85
 30
0.0
 11
96.8
 21
82.499994
 31
0.0
  0
LINE
  5
1C7B0
  8
DANMEN
  6
CONTINUOUS
 10
98.3
 20
90.5
 30
0.0
 11
98.3
 21
82.999994
 31
0.0
  0
LINE
  5
1C7B1
  8
DANMEN
  6
DASHED
 10
98.976176
 20
84.882864
 30
0.0
 11
97.576175
 21
81.582833
 31
0.0
  0
LINE
  5
1C7B2
  8
DANMEN
  6
DASHED
 10
97.5
 20
83.899997
 30
0.0
 11
97.007688
 21
81.76748
 31
0.0
  0
ARC
  5
1C7B3
  8
DANMEN
  6
CONTINUOUS
 10
97.8
 20
82.999994
 30
0.0
 40
0.5
 50
270.0
 51
0.0
  0
ARC
  5
1C7B4
  8
DANMEN
  6
DASHED
 10
97.3
 20
81.699997
 30
0.0
 40
0.3
 50
167.000479
 51
337.011468
  0
LINE
  5
1C7B7
  8
DANMEN
  6
CONTINUOUS
 10
97.8
 20
82.499994
 30
0.0
 11
96.8
 21
82.499994
 31
0.0
  0
ARC
  5
1C7B9
  8
DANMEN
  6
DASHED
 10
98.700001
 20
85.000028
 30
0.0
 40
0.3
 50
337.011468
 51
55.656024
  0
LINE
  5
1C7BA
  8
DANMEN
  6
DASHED
 10
98.5
 20
85.500035
 30
0.0
 11
98.869257
 21
85.247729
 31
0.0
  0
ARC
  5
1C7BE
  8
DANMEN
  6
CONTINUOUS
 10
99.0
 20
85.7
 30
0.0
 40
0.5
 50
90.0
 51
270.0
  0
LINE
  5
1C7BF
  8
DANMEN
  6
CONTINUOUS
 10
99.0
 20
86.2
 30
0.0
 11
99.35
 21
86.2
 31
0.0
  0
ARC
  5
1C7C0
  8
DANMEN
  6
CONTINUOUS
 10
95.7
 20
96.149999
 30
0.0
 40
0.5
 50
90.0
 51
180.0
  0
ARC
  5
1C7C1
  8
DANMEN
  6
CONTINUOUS
 10
95.7
 20
90.35
 30
0.0
 40
0.5
 50
180.0
 51
270.0
  0
LINE
  5
1C7C2
  8
DANMEN
  6
CONTINUOUS
 10
95.2
 20
96.149999
 30
0.0
 11
95.2
 21
90.35
 31
0.0
  0
CIRCLE
  5
1C7C5
  8
DANMEN
  6
CONTINUOUS
 10
98.825
 20
93.0
 30
0.0
 40
2.0
  0
LINE
  5
1C7C6
  8
DANMEN
  6
CONTINUOUS
 10
102.0
 20
92.0
 30
0.0
 11
102.0
 21
96.65
 31
0.0
  0
LINE
  5
1C7C7
  8
DANMEN
  6
CONTINUOUS
 10
96.85
 20
95.0
 30
0.0
 11
96.85
 21
91.5
 31
0.0
  0
LINE
  5
1C7C8
  8
DANMEN
  6
CONTINUOUS
 10
100.8
 20
92.499999
 30
0.0
 11
100.8
 21
95.0
 31
0.0
  0
LINE
  5
1C7C9
  8
DANMEN
  6
DASHED
 10
98.5
 20
92.0
 30
0.0
 11
101.5
 21
92.0
 31
0.0
  0
LINE
  5
1C7CA
  8
DANMEN
  6
CONTINUOUS
 10
99.0
 20
92.0
 30
0.0
 11
102.0
 21
92.0
 31
0.0
  0
CIRCLE
  5
1C7CC
  8
DANMEN
  6
CONTINUOUS
 10
98.413199
 20
93.823908
 30
0.0
 40
0.1
  0
CIRCLE
  5
1C7CD
  8
DANMEN
  6
CONTINUOUS
 10
97.288908
 20
93.137318
 30
0.0
 40
0.1
  0
CIRCLE
  5
1C7CE
  8
DANMEN
  6
CONTINUOUS
 10
97.632203
 20
94.167203
 30
0.0
 40
0.1
  0
CIRCLE
  5
1C7CF
  8
DANMEN
  6
CONTINUOUS
 10
98.052739
 20
92.630958
 30
0.0
 40
0.1
  0
CIRCLE
  5
1C7D0
  8
DANMEN
  6
CONTINUOUS
 10
99.357261
 20
92.605211
 30
0.0
 40
0.1
  0
CIRCLE
  5
1C7D1
  8
DANMEN
  6
CONTINUOUS
 10
98.722165
 20
91.944368
 30
0.0
 40
0.1
  0
CIRCLE
  5
1C7D2
  8
DANMEN
  6
CONTINUOUS
 10
97.503467
 20
91.944368
 30
0.0
 40
0.1
  0
CIRCLE
  5
1C7D3
  8
DANMEN
  6
CONTINUOUS
 10
98.353123
 20
91.386513
 30
0.0
 40
0.1
  0
CIRCLE
  5
1C7D4
  8
DANMEN
  6
CONTINUOUS
 10
99.048295
 20
93.223142
 30
0.0
 40
0.1
  0
ARC
  5
1C7D5
  8
DANMEN
  6
DASHED
 10
97.0
 20
91.5
 30
0.0
 40
0.5
 50
0.0
 51
90.0
  0
ARC
  5
1C7D8
  8
DANMEN
  6
CONTINUOUS
 10
99.0
 20
91.5
 30
0.0
 40
0.5
 50
89.999981
 51
180.000037
  0
LINE
  5
1C7D9
  8
DANMEN
  6
CONTINUOUS
 10
98.5
 20
91.5
 30
0.0
 11
98.5
 21
89.0
 31
0.0
  0
LINE
  5
1C7DA
  8
DANMEN
  6
CONTINUOUS
 10
99.35
 20
89.0
 30
0.0
 11
98.5
 21
89.0
 31
0.0
  0
ARC
  5
1C7DC
  8
DANMEN
  6
CONTINUOUS
 10
97.3
 20
90.5
 30
0.0
 40
1.0
 50
0.0
 51
90.0
  0
LINE
  5
1C7DD
  8
DANMEN
  6
CONTINUOUS
 10
95.7
 20
89.85
 30
0.0
 11
96.8
 21
89.85
 31
0.0
  0
LINE
  5
1C7DE
  8
DANMEN
  6
CONTINUOUS
 10
96.85
 20
91.5
 30
0.0
 11
97.3
 21
91.5
 31
0.0
  0
CIRCLE
  5
1C7DF
  8
DANMEN
  6
CONTINUOUS
 10
99.597567
 20
94.167203
 30
0.0
 40
0.1
  0
CIRCLE
  5
1C7E0
  8
DANMEN
  6
CONTINUOUS
 10
99.597567
 20
94.167203
 30
0.0
 40
0.1
  0
CIRCLE
  5
1C7E1
  8
DANMEN
  6
CONTINUOUS
 10
99.597567
 20
94.167203
 30
0.0
 40
0.1
  0
CIRCLE
  5
1C7E2
  8
DANMEN
  6
CONTINUOUS
 10
100.198333
 20
93.274636
 30
0.0
 40
0.1
  0
CIRCLE
  5
1C7E3
  8
DANMEN
  6
CONTINUOUS
 10
100.266992
 20
92.176092
 30
0.0
 40
0.1
  0
CIRCLE
  5
1C7E4
  8
DANMEN
  6
CONTINUOUS
 10
99.606149
 20
91.532414
 30
0.0
 40
0.1
  0
ARC
  5
1C7E5
  8
DANMEN
  6
DASHED
 10
101.0
 20
92.699997
 30
0.0
 40
0.5
 50
0.0
 51
89.999982
  0
LINE
  5
1C7E6
  8
DANMEN
  6
DASHED
 10
101.5
 20
92.0
 30
0.0
 11
101.5
 21
92.699997
 31
0.0
  0
LINE
  5
1C7E9
  8
DANMEN
  6
CONTINUOUS
 10
102.0
 20
92.0
 30
0.0
 11
102.0
 21
91.5
 31
0.0
  0
ARC
  5
1C7EA
  8
DANMEN
  6
CONTINUOUS
 10
101.5
 20
91.5
 30
0.0
 40
0.5
 50
270.0
 51
0.0
  0
LINE
  5
1C7EB
  8
DANMEN
  6
CONTINUOUS
 10
101.5
 20
91.0
 30
0.0
 11
101.0
 21
91.0
 31
0.0
  0
ARC
  5
1C7EC
  8
DANMEN
  6
CONTINUOUS
 10
101.3
 20
92.5
 30
0.0
 40
0.5
 50
180.0
 51
270.0
  0
LINE
  5
1C7ED
  8
DANMEN
  6
CONTINUOUS
 10
102.0
 20
92.0
 30
0.0
 11
101.3
 21
92.0
 31
0.0
  0
LINE
  5
1C7EE
  8
DANMEN
  6
CONTINUOUS
 10
96.85
 20
95.0
 30
0.0
 11
100.8
 21
95.0
 31
0.0
  0
LINE
  5
1C7EF
  8
DANMEN
  6
CONTINUOUS
 10
100.063599
 20
96.65
 30
0.0
 11
95.7
 21
96.649999
 31
0.0
  0
CIRCLE
  5
1C7F0
  8
DANMEN
  6
CONTINUOUS
 10
98.799406
 20
94.596322
 30
0.0
 40
0.1
  0
ARC
  5
1C7F2
  8
DANMEN
  6
CONTINUOUS
 10
86.699993
 20
109.349998
 30
0.0
 40
1.0
 50
0.0
 51
90.0
  0
LINE
  5
1C7F3
  8
DANMEN
  6
CONTINUOUS
 10
86.699993
 20
110.349998
 30
0.0
 11
82.65
 21
110.349998
 31
0.0
  0
LINE
  5
1C7F4
  8
DANMEN
  6
CONTINUOUS
 10
85.4
 20
119.000001
 30
0.0
 11
85.4
 21
112.000001
 31
0.0
  0
LINE
  5
1C7F7
  8
DANMEN
  6
CONTINUOUS
 10
90.199997
 20
110.399994
 30
0.0
 11
91.799997
 21
110.399995
 31
0.0
  0
ARC
  5
1C7F8
  8
DANMEN
  6
CONTINUOUS
 10
90.199993
 20
109.399995
 30
0.0
 40
1.0
 50
89.999974
 51
179.999974
  0
ARC
  5
1C7F9
  8
DANMEN
  6
CONTINUOUS
 10
89.699993
 20
108.069689
 30
0.0
 40
2.0
 50
179.999974
 51
231.706497
  0
LINE
  5
1C7FA
  8
DANMEN
  6
CONTINUOUS
 10
89.199993
 20
108.153935
 30
0.0
 11
89.199993
 21
109.399996
 31
0.0
  0
ARC
  5
1C7FB
  8
DANMEN
  6
CONTINUOUS
 10
89.599992
 20
106.799995
 30
0.0
 40
0.3
 50
269.999974
 51
359.999974
  0
LINE
  5
1C7FC
  8
DANMEN
  6
CONTINUOUS
 10
89.599992
 20
106.499995
 30
0.0
 11
88.460613
 21
106.499996
 31
0.0
  0
ARC
  5
1C7FD
  8
DANMEN
  6
CONTINUOUS
 10
89.699992
 20
107.063063
 30
0.0
 40
0.2
 50
359.999974
 51
65.375656
  0
ARC
  5
1C7FE
  8
DANMEN
  6
CONTINUOUS
 10
90.199993
 20
108.153934
 30
0.0
 40
1.0
 50
179.999974
 51
245.375656
  0
LINE
  5
1C7FF
  8
DANMEN
  6
CONTINUOUS
 10
89.899992
 20
106.799995
 30
0.0
 11
89.899992
 21
107.063063
 31
0.0
  0
LINE
  5
1C800
  8
DANMEN
  6
CONTINUOUS
 10
87.699993
 20
108.06969
 30
0.0
 11
87.699993
 21
109.349997
 31
0.0
  0
ARC
  5
1C801
  8
DANMEN
  6
CONTINUOUS
 10
95.299997
 20
109.349998
 30
0.0
 40
1.0
 50
90.0
 51
180.0
  0
LINE
  5
1C802
  8
DANMEN
  6
CONTINUOUS
 10
94.299998
 20
108.06969
 30
0.0
 11
94.299997
 21
109.349997
 31
0.0
  0
ARC
  5
1C803
  8
DANMEN
  6
CONTINUOUS
 10
91.799997
 20
109.399995
 30
0.0
 40
1.0
 50
0.000026
 51
90.000026
  0
LINE
  5
1C804
  8
DANMEN
  6
CONTINUOUS
 10
92.099998
 20
106.799995
 30
0.0
 11
92.099998
 21
107.063063
 31
0.0
  0
ARC
  5
1C805
  8
DANMEN
  6
CONTINUOUS
 10
91.799998
 20
108.153934
 30
0.0
 40
1.0
 50
294.624344
 51
0.000026
  0
ARC
  5
1C806
  8
DANMEN
  6
CONTINUOUS
 10
92.299998
 20
107.063063
 30
0.0
 40
0.2
 50
114.624344
 51
180.000026
  0
LINE
  5
1C807
  8
DANMEN
  6
CONTINUOUS
 10
92.399999
 20
106.499995
 30
0.0
 11
93.539378
 21
106.499996
 31
0.0
  0
ARC
  5
1C808
  8
DANMEN
  6
CONTINUOUS
 10
92.399998
 20
106.799995
 30
0.0
 40
0.3
 50
180.000026
 51
270.000026
  0
LINE
  5
1C809
  8
DANMEN
  6
CONTINUOUS
 10
92.799998
 20
108.153935
 30
0.0
 11
92.799997
 21
109.399996
 31
0.0
  0
ARC
  5
1C80A
  8
DANMEN
  6
CONTINUOUS
 10
92.299998
 20
108.069689
 30
0.0
 40
2.0
 50
308.293503
 51
0.000026
  0
LINE
  5
1C80C
  8
DANMEN
  6
CONTINUOUS
 10
110.463231
 20
92.019298
 30
0.0
 11
110.500009
 21
109.007745
 31
0.0
  0
LINE
  5
1C80D
  8
DANMEN
  6
CONTINUOUS
 10
111.700003
 20
109.259086
 30
0.0
 11
111.167188
 21
92.524983
 31
0.0
  0
LINE
  5
1C80E
  8
DANMEN
  6
CONTINUOUS
 10
110.163219
 20
92.003575
 30
0.0
 11
110.200003
 21
109.000003
 31
0.0
  0
LINE
  5
1C80F
  8
DANMEN
  6
CONTINUOUS
 10
112.0
 20
92.0
 30
0.0
 11
112.0
 21
109.000137
 31
0.0
  0
LINE
  5
1C810
  8
DANMEN
  6
CONTINUOUS
 10
110.2
 20
110.000003
 30
0.0
 11
110.2
 21
87.0
 31
0.0
  0
LINE
  5
1C811
  8
DANMEN
  6
CONTINUOUS
 10
110.35
 20
91.5
 30
0.0
 11
110.35
 21
87.0
 31
0.0
  0
ARC
  5
1C812
  8
DANMEN
  6
CONTINUOUS
 10
111.5
 20
91.5
 30
0.0
 40
0.5
 50
0.0
 51
90.0
  0
LINE
  5
1C814
  8
DANMEN
  6
CONTINUOUS
 10
110.163219
 20
92.003575
 30
0.0
 11
110.693389
 21
92.03136
 31
0.0
  0
ARC
  5
1C818
  8
DANMEN
  6
CONTINUOUS
 10
110.667221
 20
92.530675
 30
0.0
 40
0.5
 50
273.0
 51
359.347777
  0
ARC
  5
1C81B
  8
DANMEN
  6
CONTINUOUS
 10
110.85
 20
91.5
 30
0.0
 40
0.5
 50
90.0
 51
180.0
  0
LINE
  5
1C81C
  8
DANMEN
  6
CONTINUOUS
 10
110.85
 20
92.0
 30
0.0
 11
111.5
 21
92.0
 31
0.0
  0
LINE
  5
1C81D
  8
DANMEN
  6
CONTINUOUS
 10
110.3
 20
92.0
 30
0.0
 11
110.3
 21
93.52729
 31
0.0
  0
LINE
  5
1C81F
  8
DANMEN
  6
CONTINUOUS
 10
113.700003
 20
117.500003
 30
0.0
 11
130.200003
 21
117.500003
 31
0.0
  0
LINE
  5
1C820
  8
DANMEN
  6
CONTINUOUS
 10
130.200003
 20
110.153615
 30
0.0
 11
111.700003
 21
109.000003
 31
0.0
  0
LINE
  5
1C821
  8
DANMEN
  6
CONTINUOUS
 10
110.200003
 20
113.500003
 30
0.0
 11
110.200003
 21
109.000003
 31
0.0
  0
LINE
  5
1C822
  8
DANMEN
  6
CONTINUOUS
 10
110.500003
 20
113.500003
 30
0.0
 11
110.500003
 21
108.992034
 31
0.0
  0
LINE
  5
1C823
  8
DANMEN
  6
CONTINUOUS
 10
111.700003
 20
115.500003
 30
0.0
 11
111.700003
 21
109.000003
 31
0.0
  0
ARC
  5
1C824
  8
DANMEN
  6
CONTINUOUS
 10
118.499997
 20
112.499998
 30
0.0
 40
0.5
 50
270.0
 51
0.0
  0
LINE
  5
1C825
  8
DANMEN
  6
CONTINUOUS
 10
110.2
 20
111.999998
 30
0.0
 11
110.2
 21
109.999998
 31
0.0
  0
ARC
  5
1C826
  8
DANMEN
  6
CONTINUOUS
 10
107.584676
 20
109.849998
 30
0.0
 40
0.5
 50
328.440409
 51
90.0
  0
ARC
  5
1C82C
  8
DANMEN
  6
CONTINUOUS
 10
113.700003
 20
115.500003
 30
0.0
 40
2.0
 50
89.999982
 51
180.000019
  0
ARC
  5
1C82D
  8
DANMEN
  6
CONTINUOUS
 10
112.0
 20
120.499998
 30
0.0
 40
0.5
 50
179.999999
 51
0.000018
  0
LINE
  5
1C82E
  8
DANMEN
  6
CONTINUOUS
 10
109.05
 20
113.999998
 30
0.0
 11
115.15
 21
113.999998
 31
0.0
  0
LINE
  5
1C82F
  8
DANMEN
  6
CONTINUOUS
 10
110.2
 20
111.999998
 30
0.0
 11
118.499997
 21
111.999998
 31
0.0
  0
LINE
  5
1C830
  8
DANMEN
  6
CONTINUOUS
 10
108.4
 20
119.000001
 30
0.0
 11
108.4
 21
112.000001
 31
0.0
  0
LINE
  5
1C831
  8
DANMEN
  6
CONTINUOUS
 10
110.200003
 20
113.500003
 30
0.0
 11
111.700003
 21
113.500003
 31
0.0
  0
LINE
  5
1C836
  8
DANMEN
  6
CONTINUOUS
 10
108.55
 20
113.499998
 30
0.0
 11
108.55
 21
111.999998
 31
0.0
  0
ARC
  5
1C837
  8
DANMEN
  6
CONTINUOUS
 10
109.05
 20
113.499998
 30
0.0
 40
0.5
 50
90.0
 51
180.0
  0
LINE
  5
1C839
  8
DANMEN
  6
CONTINUOUS
 10
111.5
 20
120.499998
 30
0.0
 11
111.5
 21
123.499998
 31
0.0
  0
LINE
  5
1C83A
  8
DANMEN
  6
CONTINUOUS
 10
115.15
 20
121.499998
 30
0.0
 11
115.15
 21
113.999998
 31
0.0
  0
LINE
  5
1C83B
  8
DANMEN
  6
CONTINUOUS
 10
118.999997
 20
113.499998
 30
0.0
 11
118.999997
 21
112.499998
 31
0.0
  0
LINE
  5
1C83C
  8
DANMEN
  6
CONTINUOUS
 10
116.8
 20
113.499998
 30
0.0
 11
118.999997
 21
113.499998
 31
0.0
  0
LINE
  5
1C83D
  8
DANMEN
  6
CONTINUOUS
 10
112.5
 20
122.499998
 30
0.0
 11
112.5
 21
123.499998
 31
0.0
  0
LINE
  5
1C83E
  8
DANMEN
  6
CONTINUOUS
 10
112.5
 20
120.499998
 30
0.0
 11
112.5
 21
121.499998
 31
0.0
  0
LINE
  5
1C83F
  8
DANMEN
  6
CONTINUOUS
 10
115.150003
 20
121.499998
 30
0.0
 11
112.5
 21
121.499998
 31
0.0
  0
LINE
  5
1C840
  8
DANMEN
  6
CONTINUOUS
 10
115.150003
 20
122.499998
 30
0.0
 11
112.5
 21
122.499998
 31
0.0
  0
LINE
  5
1C841
  8
DANMEN
  6
CONTINUOUS
 10
162.5
 20
83.0
 30
0.0
 11
186.5
 21
83.0
 31
0.0
  0
LINE
  5
1C842
  8
DANMEN
  6
CONTINUOUS
 10
163.649994
 20
84.649994
 30
0.0
 11
170.350006
 21
84.649994
 31
0.0
  0
ARC
  5
1C843
  8
DANMEN
  6
CONTINUOUS
 10
162.5
 20
88.5
 30
0.0
 40
0.5
 50
89.999982
 51
180.000019
  0
ARC
  5
1C844
  8
DANMEN
  6
CONTINUOUS
 10
163.149994
 20
88.5
 30
0.0
 40
0.5
 50
359.999981
 51
89.999982
  0
ARC
  5
1C847
  8
DANMEN
  6
CONTINUOUS
 10
162.5
 20
83.5
 30
0.0
 40
0.5
 50
180.000036
 51
269.999963
  0
LINE
  5
1C848
  8
DANMEN
  6
CONTINUOUS
 10
163.649994
 20
88.5
 30
0.0
 11
163.649994
 21
84.649994
 31
0.0
  0
LINE
  5
1C849
  8
DANMEN
  6
CONTINUOUS
 10
162.0
 20
88.5
 30
0.0
 11
162.0
 21
83.5
 31
0.0
  0
LINE
  5
1C84C
  8
DANMEN
  6
CONTINUOUS
 10
162.5
 20
89.0
 30
0.0
 11
163.149994
 21
89.0
 31
0.0
  0
LINE
  5
1C84D
  8
DANMEN
  6
CONTINUOUS
 10
172.0
 20
115.5
 30
0.0
 11
172.0
 21
84.1
 31
0.0
  0
LINE
  5
1C84E
  8
DANMEN
  6
CONTINUOUS
 10
174.0
 20
84.649994
 30
0.0
 11
186.5
 21
84.649994
 31
0.0
  0
LINE
  5
1C84F
  8
DANMEN
  6
CONTINUOUS
 10
172.0
 20
84.1
 30
0.0
 11
174.0
 21
84.1
 31
0.0
  0
LINE
  5
1C853
  8
DANMEN
  6
CONTINUOUS
 10
174.0
 20
84.649994
 30
0.0
 11
174.0
 21
84.1
 31
0.0
  0
ARC
  5
1C857
  8
DANMEN
  6
CONTINUOUS
 10
186.5
 20
83.5
 30
0.0
 40
0.5
 50
270.000018
 51
359.999981
  0
ARC
  5
1C858
  8
DANMEN
  6
CONTINUOUS
 10
186.5
 20
84.149994
 30
0.0
 40
0.5
 50
359.999981
 51
89.999982
  0
LINE
  5
1C859
  8
DANMEN
  6
CONTINUOUS
 10
187.0
 20
84.149994
 30
0.0
 11
187.0
 21
83.5
 31
0.0
  0
LINE
  5
1C85A
  8
DANMEN
  6
CONTINUOUS
 10
176.800004
 20
119.8
 30
0.0
 11
184.200004
 21
119.8
 31
0.0
  0
LINE
  5
1C85B
  8
DANMEN
  6
CONTINUOUS
 10
176.270495
 20
119.0
 30
0.0
 11
179.350004
 21
119.0
 31
0.0
  0
LINE
  5
1C85C
  8
DANMEN
  6
CONTINUOUS
 10
172.0
 20
115.5
 30
0.0
 11
184.5
 21
115.5
 31
0.0
  0
ARC
  5
1C85D
  8
DANMEN
  6
CONTINUOUS
 10
177.5
 20
118.5
 30
0.0
 40
0.5
 50
90.000037
 51
180.000019
  0
LINE
  5
1C85E
  8
DANMEN
  6
CONTINUOUS
 10
175.851656
 20
123.372251
 30
0.0
 11
184.963118
 21
122.005532
 31
0.0
  0
LINE
  5
1C85F
  8
DANMEN
  6
CONTINUOUS
 10
172.0
 20
119.0
 30
0.0
 11
177.5
 21
119.0
 31
0.0
  0
LINE
  5
1C860
  8
DANMEN
  6
CONTINUOUS
 10
177.0
 20
118.5
 30
0.0
 11
177.0
 21
116.6
 31
0.0
  0
LINE
  5
1C861
  8
DANMEN
  6
CONTINUOUS
 10
172.0
 20
116.6
 30
0.0
 11
177.0
 21
116.6
 31
0.0
  0
LINE
  5
1C86A
  8
DANMEN
  6
CONTINUOUS
 10
180.150004
 20
117.8
 30
0.0
 11
179.350004
 21
117.0
 31
0.0
  0
LINE
  5
1C86B
  8
DANMEN
  6
CONTINUOUS
 10
181.850003
 20
117.8
 30
0.0
 11
182.650003
 21
117.0
 31
0.0
  0
LINE
  5
1C86C
  8
DANMEN
  6
CONTINUOUS
 10
178.150003
 20
117.8
 30
0.0
 11
178.150003
 21
117.2
 31
0.0
  0
LINE
  5
1C86D
  8
DANMEN
  6
CONTINUOUS
 10
183.850004
 20
117.8
 30
0.0
 11
183.850004
 21
117.2
 31
0.0
  0
LINE
  5
1C86E
  8
DANMEN
  6
CONTINUOUS
 10
183.999998
 20
118.199997
 30
0.0
 11
183.999998
 21
116.6
 31
0.0
  0
LINE
  5
1C86F
  8
DANMEN
  6
CONTINUOUS
 10
185.0
 20
118.5
 30
0.0
 11
185.0
 21
116.0
 31
0.0
  0
LINE
  5
1C870
  8
DANMEN
  6
CONTINUOUS
 10
177.8
 20
118.199997
 30
0.0
 11
177.8
 21
116.6
 31
0.0
  0
LINE
  5
1C871
  8
DANMEN
  6
CONTINUOUS
 10
185.0
 20
115.5
 30
0.0
 11
185.0
 21
119.0
 31
0.0
  0
LINE
  5
1C872
  8
DANMEN
  6
CONTINUOUS
 10
177.8
 20
116.6
 30
0.0
 11
183.999998
 21
116.6
 31
0.0
  0
ARC
  5
1C874
  8
DANMEN
  6
CONTINUOUS
 10
178.350003
 20
117.2
 30
0.0
 40
0.2
 50
180.000019
 51
270.000001
  0
LINE
  5
1C878
  8
DANMEN
  6
CONTINUOUS
 10
178.350003
 20
117.0
 30
0.0
 11
179.350004
 21
117.0
 31
0.0
  0
ARC
  5
1C87B
  8
DANMEN
  6
CONTINUOUS
 10
183.650004
 20
117.2
 30
0.0
 40
0.2
 50
270.000018
 51
0.0
  0
LINE
  5
1C87E
  8
DANMEN
  6
CONTINUOUS
 10
182.650003
 20
117.0
 30
0.0
 11
183.650004
 21
117.0
 31
0.0
  0
ARC
  5
1C881
  8
DANMEN
  6
CONTINUOUS
 10
184.5
 20
116.0
 30
0.0
 40
0.5
 50
270.000018
 51
0.0
  0
LINE
  5
1C883
  8
DANMEN
  6
CONTINUOUS
 10
184.5
 20
115.5
 30
0.0
 11
185.0
 21
115.5
 31
0.0
  0
LINE
  5
1C884
  8
DANMEN
  6
CONTINUOUS
 10
180.150004
 20
117.8
 30
0.0
 11
181.850003
 21
117.8
 31
0.0
  0
LINE
  5
1C885
  8
DANMEN
  6
CONTINUOUS
 10
184.895163
 20
120.842413
 30
0.0
 11
180.246848
 21
122.722891
 31
0.0
  0
LINE
  5
1C886
  8
DANMEN
  6
CONTINUOUS
 10
183.878862
 20
120.390573
 30
0.0
 11
181.335668
 21
121.419423
 31
0.0
  0
LINE
  5
1C88A
  8
DANMEN
  6
CONTINUOUS
 10
179.350004
 20
119.0
 30
0.0
 11
179.350004
 21
118.0
 31
0.0
  0
ARC
  5
1C88B
  8
DANMEN
  6
CONTINUOUS
 10
178.350003
 20
117.8
 30
0.0
 40
0.2
 50
89.999982
 51
180.000019
  0
LINE
  5
1C88D
  8
DANMEN
  6
CONTINUOUS
 10
178.350003
 20
118.0
 30
0.0
 11
179.350004
 21
118.0
 31
0.0
  0
ARC
  5
1C88E
  8
DANMEN
  6
CONTINUOUS
 10
180.096838
 20
122.352085
 30
0.0
 40
0.4
 50
67.974191
 51
247.974191
  0
ARC
  5
1C890
  8
DANMEN
  6
CONTINUOUS
 10
179.312974
 20
119.949886
 30
0.0
 40
0.25
 50
131.738105
 51
311.738105
  0
LINE
  5
1C892
  8
DANMEN
  6
CONTINUOUS
 10
180.578995
 20
121.414414
 30
0.0
 11
179.146542
 21
120.136435
 31
0.0
  0
LINE
  5
1C893
  8
DANMEN
  6
CONTINUOUS
 10
181.335668
 20
121.419423
 30
0.0
 11
179.479406
 21
119.763337
 31
0.0
  0
LINE
  5
1C898
  8
DANMEN
  6
CONTINUOUS
 10
180.520855
 20
121.749056
 30
0.0
 11
179.946828
 21
121.981279
 31
0.0
  0
ARC
  5
1C899
  8
DANMEN
  6
CONTINUOUS
 10
180.44585
 20
121.563653
 30
0.0
 40
0.2
 50
311.738105
 51
67.974191
  0
ARC
  5
1C89F
  8
DANMEN
  6
CONTINUOUS
 10
178.699997
 20
118.5
 30
0.0
 40
0.5
 50
359.999981
 51
90.000037
  0
LINE
  5
1C8A0
  8
DANMEN
  6
CONTINUOUS
 10
177.8
 20
118.199997
 30
0.0
 11
179.199997
 21
118.199997
 31
0.0
  0
LINE
  5
1C8A1
  8
DANMEN
  6
CONTINUOUS
 10
179.200001
 20
118.499999
 30
0.0
 11
179.200003
 21
118.199996
 31
0.0
  0
LINE
  5
1C8A2
  8
DANMEN
  6
CONTINUOUS
 10
177.5
 20
119.0
 30
0.0
 11
178.699997
 21
119.0
 31
0.0
  0
LINE
  5
1C8A5
  8
DANMEN
  6
CONTINUOUS
 10
184.200004
 20
120.462453
 30
0.0
 11
184.200004
 21
119.8
 31
0.0
  0
LINE
  5
1C8A8
  8
DANMEN
  6
CONTINUOUS
 10
185.000004
 20
120.744506
 30
0.0
 11
185.000004
 21
119.0
 31
0.0
  0
LINE
  5
1C8AA
  8
DANMEN
  6
CONTINUOUS
 10
182.650003
 20
119.0
 30
0.0
 11
185.000004
 21
119.0
 31
0.0
  0
LINE
  5
1C8AC
  8
DANMEN
  6
CONTINUOUS
 10
182.650003
 20
119.0
 30
0.0
 11
182.650003
 21
118.0
 31
0.0
  0
LINE
  5
1C8AD
  8
DANMEN
  6
CONTINUOUS
 10
182.650003
 20
118.0
 30
0.0
 11
183.650004
 21
118.0
 31
0.0
  0
ARC
  5
1C8AE
  8
DANMEN
  6
CONTINUOUS
 10
183.650004
 20
117.8
 30
0.0
 40
0.2
 50
0.0
 51
89.999982
  0
ARC
  5
1C8B0
  8
DANMEN
  6
CONTINUOUS
 10
184.064265
 20
120.315568
 30
0.0
 40
0.2
 50
47.258366
 51
157.974191
  0
ARC
  5
1C8B3
  8
DANMEN
  6
CONTINUOUS
 10
184.820158
 20
120.65701
 30
0.0
 40
0.2
 50
25.943161
 51
67.974191
  0
ARC
  5
1C8B6
  8
DANMEN
  6
CONTINUOUS
 10
183.300003
 20
118.5
 30
0.0
 40
0.5
 50
90.0
 51
179.999149
  0
ARC
  5
1C8BA
  8
DANMEN
  6
CONTINUOUS
 10
184.5
 20
118.5
 30
0.0
 40
0.5
 50
359.999981
 51
90.000037
  0
LINE
  5
1C8BB
  8
DANMEN
  6
CONTINUOUS
 10
183.300003
 20
119.0
 30
0.0
 11
184.5
 21
119.0
 31
0.0
  0
LINE
  5
1C8BC
  8
DANMEN
  6
CONTINUOUS
 10
182.800003
 20
118.199997
 30
0.0
 11
184.0
 21
118.199997
 31
0.0
  0
LINE
  5
1C8BD
  8
DANMEN
  6
CONTINUOUS
 10
182.800003
 20
118.500017
 30
0.0
 11
182.799998
 21
118.199998
 31
0.0
  0
ARC
  5
1C8BE
  8
DANMEN
  6
CONTINUOUS
 10
185.037288
 20
122.5
 30
0.0
 40
0.5
 50
261.469234
 51
270.0
  0
LINE
  5
1C8C0
  8
DANMEN
  6
CONTINUOUS
 10
187.999997
 20
121.600001
 30
0.0
 11
190.650001
 21
121.3
 31
0.0
  0
LINE
  5
1C8C1
  8
DANMEN
  6
CONTINUOUS
 10
187.999994
 20
122.0
 30
0.0
 11
187.999994
 21
121.6
 31
0.0
  0
LINE
  5
1C8C4
  8
DANMEN
  6
DASHED
 10
193.499994
 20
122.0
 30
0.0
 11
193.499994
 21
121.8
 31
0.0
  0
LINE
  5
1C8C8
  8
DANMEN
  6
CONTINUOUS
 10
199.249994
 20
122.3
 30
0.0
 11
196.749994
 21
122.3
 31
0.0
  0
LINE
  5
1C8D4
  8
DANMEN
  6
CONTINUOUS
 10
71.05
 20
223.95
 30
0.0
 11
69.850006
 21
223.95
 31
0.0
  0
ARC
  5
1C8D5
  8
DANMEN
  6
CONTINUOUS
 10
70.300003
 20
176.5
 30
0.0
 40
0.5
 50
270.000018
 51
0.0
  0
LINE
  5
1C8D6
  8
DANMEN
  6
CONTINUOUS
 10
78.65
 20
254.600012
 30
0.0
 11
63.4
 21
254.600012
 31
0.0
  0
LINE
  5
1C8D7
  8
DANMEN
  6
CONTINUOUS
 10
78.0
 20
252.950012
 30
0.0
 11
65.5
 21
252.950012
 31
0.0
  0
ARC
  5
1C8D8
  8
DANMEN
  6
CONTINUOUS
 10
70.300003
 20
165.5
 30
0.0
 40
0.5
 50
0.0
 51
89.999982
  0
LINE
  5
1C8D9
  8
DANMEN
  6
CONTINUOUS
 10
47.5
 20
261.0
 30
0.0
 11
106.5
 21
261.0
 31
0.0
  0
LINE
  5
1C8DA
  8
DANMEN
  6
CONTINUOUS
 10
65.0
 20
234.0
 30
0.0
 11
73.0
 21
234.0
 31
0.0
  0
LINE
  5
1C8DB
  8
DANMEN
  6
CONTINUOUS
 10
48.676108
 20
234.062215
 30
0.0
 11
48.7
 21
196.0
 31
0.0
  0
LINE
  5
1C8DC
  8
DANMEN
  6
CONTINUOUS
 10
48.976095
 20
234.082141
 30
0.0
 11
49.0
 21
196.0
 31
0.0
  0
LINE
  5
1C8DD
  8
DANMEN
  6
CONTINUOUS
 10
47.504337
 20
196.0
 30
0.0
 11
47.907182
 21
234.550678
 31
0.0
  0
LINE
  5
1C8DE
  8
DANMEN
  6
CONTINUOUS
 10
51.199997
 20
233.5
 30
0.0
 11
51.199997
 21
196.0
 31
0.0
  0
LINE
  5
1C8DF
  8
DANMEN
  6
CONTINUOUS
 10
68.850006
 20
222.95
 30
0.0
 11
68.850006
 21
207.5
 31
0.0
  0
LINE
  5
1C8E0
  8
DANMEN
  6
CONTINUOUS
 10
53.149994
 20
233.5
 30
0.0
 11
53.149994
 21
207.5
 31
0.0
  0
LINE
  5
1C8E1
  8
DANMEN
  6
CONTINUOUS
 10
42.0
 20
226.5
 30
0.0
 11
42.0
 21
196.0
 31
0.0
  0
LINE
  5
1C8E2
  8
DANMEN
  6
CONTINUOUS
 10
43.649994
 20
226.5
 30
0.0
 11
43.649994
 21
196.0
 31
0.0
  0
LINE
  5
1C8E3
  8
DANMEN
  6
CONTINUOUS
 10
49.0
 20
234.0
 30
0.0
 11
49.0
 21
194.5
 31
0.0
  0
LINE
  5
1C8E4
  8
DANMEN
  6
CONTINUOUS
 10
57.0
 20
234.0
 30
0.0
 11
57.0
 21
215.0
 31
0.0
  0
LINE
  5
1C8E5
  8
DANMEN
  6
CONTINUOUS
 10
65.0
 20
234.0
 30
0.0
 11
65.0
 21
215.0
 31
0.0
  0
LINE
  5
1C8E6
  8
DANMEN
  6
CONTINUOUS
 10
39.5
 20
166.0
 30
0.0
 11
39.5
 21
170.0
 31
0.0
  0
LINE
  5
1C8E7
  8
DANMEN
  6
CONTINUOUS
 10
68.5
 20
170.0
 30
0.0
 11
68.5
 21
166.0
 31
0.0
  0
LINE
  5
1C8E8
  8
DANMEN
  6
CONTINUOUS
 10
59.65
 20
150.999998
 30
0.0
 11
59.65
 21
169.999998
 31
0.0
  0
LINE
  5
1C8E9
  8
DANMEN
  6
CONTINUOUS
 10
54.65
 20
150.999998
 30
0.0
 11
54.65
 21
169.999998
 31
0.0
  0
LINE
  5
1C8EA
  8
DANMEN
  6
CONTINUOUS
 10
48.35
 20
150.999998
 30
0.0
 11
48.35
 21
169.999998
 31
0.0
  0
LINE
  5
1C8EB
  8
DANMEN
  6
CONTINUOUS
 10
53.35
 20
150.999998
 30
0.0
 11
53.35
 21
169.999998
 31
0.0
  0
LINE
  5
1C8EC
  8
DANMEN
  6
CONTINUOUS
 10
60.15
 20
150.999998
 30
0.0
 11
60.15
 21
169.999998
 31
0.0
  0
LINE
  5
1C8ED
  8
DANMEN
  6
CONTINUOUS
 10
47.85
 20
150.999998
 30
0.0
 11
47.85
 21
169.999998
 31
0.0
  0
LINE
  5
1C8EE
  8
DANMEN
  6
CONTINUOUS
 10
54.15
 20
150.999998
 30
0.0
 11
54.15
 21
169.999998
 31
0.0
  0
LINE
  5
1C8EF
  8
DANMEN
  6
CONTINUOUS
 10
53.85
 20
150.999998
 30
0.0
 11
53.85
 21
169.999998
 31
0.0
  0
LINE
  5
1C8F0
  8
DANMEN
  6
CONTINUOUS
 10
39.5
 20
166.0
 30
0.0
 11
37.699997
 21
166.0
 31
0.0
  0
ARC
  5
1C8F2
  8
DANMEN
  6
CONTINUOUS
 10
37.699997
 20
165.5
 30
0.0
 40
0.5
 50
90.000018
 51
180.0
  0
LINE
  5
1C8F3
  8
DANMEN
  6
CONTINUOUS
 10
65.5
 20
150.999998
 30
0.0
 11
65.5
 21
143.999998
 31
0.0
  0
LINE
  5
1C8F4
  8
DANMEN
  6
CONTINUOUS
 10
42.5
 20
150.999998
 30
0.0
 11
42.5
 21
143.999998
 31
0.0
  0
LINE
  5
1C8F5
  8
DANMEN
  6
CONTINUOUS
 10
42.5
 20
143.999998
 30
0.0
 11
65.500001
 21
150.999998
 31
0.0
  0
LINE
  5
1C8F6
  8
DANMEN
  6
CONTINUOUS
 10
39.149994
 20
161.0
 30
0.0
 11
39.149994
 21
138.199997
 31
0.0
  0
LINE
  5
1C8F7
  8
DANMEN
  6
CONTINUOUS
 10
68.850006
 20
161.0
 30
0.0
 11
68.850006
 21
144.0
 31
0.0
  0
LINE
  5
1C8F8
  8
DANMEN
  6
CONTINUOUS
 10
42.5
 20
143.999998
 30
0.0
 11
65.5
 21
143.999998
 31
0.0
  0
LINE
  5
1C8F9
  8
DANMEN
  6
CONTINUOUS
 10
45.649994
 20
142.050003
 30
0.0
 11
68.850006
 21
142.050003
 31
0.0
  0
LINE
  5
1C8FA
  8
DANMEN
  6
CONTINUOUS
 10
44.699997
 20
144.0
 30
0.0
 11
68.850006
 21
144.0
 31
0.0
  0
LINE
  5
1C8FB
  8
DANMEN
  6
CONTINUOUS
 10
45.649994
 20
142.050003
 30
0.0
 11
45.649994
 21
138.0
 31
0.0
  0
LINE
  5
1C8FC
  8
DANMEN
  6
CONTINUOUS
 10
43.699997
 20
143.0
 30
0.0
 11
43.699997
 21
138.199997
 31
0.0
  0
LINE
  5
1C8FD
  8
DANMEN
  6
CONTINUOUS
 10
39.149994
 20
137.0
 30
0.0
 11
44.649994
 21
137.0
 31
0.0
  0
LINE
  5
1C8FE
  8
DANMEN
  6
CONTINUOUS
 10
39.149994
 20
138.199997
 30
0.0
 11
43.699997
 21
138.199997
 31
0.0
  0
ARC
  5
1C901
  8
DANMEN
  6
CONTINUOUS
 10
44.649994
 20
138.0
 30
0.0
 40
1.0
 50
270.000018
 51
0.0
  0
ARC
  5
1C905
  8
DANMEN
  6
CONTINUOUS
 10
44.699997
 20
143.0
 30
0.0
 40
1.0
 50
89.999982
 51
180.000019
  0
LINE
  5
1C90C
  8
DANMEN
  6
CONTINUOUS
 10
42.5
 20
150.999998
 30
0.0
 11
65.5
 21
150.999998
 31
0.0
  0
LINE
  5
1C90E
  8
DANMEN
  6
CONTINUOUS
 10
42.976996
 20
166.4164
 30
0.0
 11
46.393398
 21
162.999998
 31
0.0
  0
LINE
  5
1C90F
  8
DANMEN
  6
CONTINUOUS
 10
44.871438
 20
166.643279
 30
0.0
 11
47.850004
 21
163.664713
 31
0.0
  0
LINE
  5
1C910
  8
DANMEN
  6
CONTINUOUS
 10
46.333041
 20
166.818321
 30
0.0
 11
42.514719
 21
162.999998
 31
0.0
  0
LINE
  5
1C911
  8
DANMEN
  6
CONTINUOUS
 10
47.850004
 20
166.213963
 30
0.0
 11
44.636039
 21
162.999998
 31
0.0
  0
LINE
  5
1C912
  8
DANMEN
  6
CONTINUOUS
 10
47.85
 20
167.000001
 30
0.0
 11
39.499995
 21
166.000001
 31
0.0
  0
LINE
  5
1C913
  8
DANMEN
  6
CONTINUOUS
 10
40.0
 20
165.150756
 30
0.0
 11
42.150758
 21
162.999998
 31
0.0
  0
LINE
  5
1C914
  8
DANMEN
  6
CONTINUOUS
 10
41.082555
 20
166.189521
 30
0.0
 11
44.272078
 21
162.999998
 31
0.0
  0
LINE
  5
1C915
  8
DANMEN
  6
CONTINUOUS
 10
43.923107
 20
166.529707
 30
0.0
 11
40.393398
 21
162.999998
 31
0.0
  0
LINE
  5
1C916
  8
DANMEN
  6
CONTINUOUS
 10
40.0
 20
165.5
 30
0.0
 11
40.0
 21
161.0
 31
0.0
  0
LINE
  5
1C917
  8
DANMEN
  6
CONTINUOUS
 10
40.0
 20
163.029435
 30
0.0
 11
40.029437
 21
162.999998
 31
0.0
  0
LINE
  5
1C918
  8
DANMEN
  6
CONTINUOUS
 10
40.0
 20
161.0
 30
0.0
 11
39.149994
 21
161.0
 31
0.0
  0
LINE
  5
1C91B
  8
DANMEN
  6
CONTINUOUS
 10
41.513172
 20
166.241092
 30
0.0
 11
40.0
 21
164.72792
 31
0.0
  0
ARC
  5
1C91D
  8
DANMEN
  6
CONTINUOUS
 10
39.5
 20
165.5
 30
0.0
 40
0.5
 50
359.999981
 51
90.000018
  0
LINE
  5
1C91E
  8
DANMEN
  6
CONTINUOUS
 10
47.850004
 20
164.092643
 30
0.0
 11
46.757359
 21
162.999998
 31
0.0
  0
LINE
  5
1C91F
  8
DANMEN
  6
CONTINUOUS
 10
46.765879
 20
166.870158
 30
0.0
 11
47.850004
 21
165.786033
 31
0.0
  0
LINE
  5
1C924
  8
DANMEN
  6
CONTINUOUS
 10
60.150003
 20
166.213956
 30
0.0
 11
63.363961
 21
162.999998
 31
0.0
  0
LINE
  5
1C925
  8
DANMEN
  6
CONTINUOUS
 10
61.666958
 20
166.818321
 30
0.0
 11
65.485282
 21
162.999998
 31
0.0
  0
LINE
  5
1C926
  8
DANMEN
  6
CONTINUOUS
 10
63.128562
 20
166.643279
 30
0.0
 11
60.150003
 21
163.66472
 31
0.0
  0
LINE
  5
1C927
  8
DANMEN
  6
CONTINUOUS
 10
65.023004
 20
166.4164
 30
0.0
 11
61.606601
 21
162.999998
 31
0.0
  0
LINE
  5
1C928
  8
DANMEN
  6
CONTINUOUS
 10
60.15
 20
166.999993
 30
0.0
 11
68.499998
 21
165.999993
 31
0.0
  0
LINE
  5
1C929
  8
DANMEN
  6
CONTINUOUS
 10
60.150003
 20
164.092636
 30
0.0
 11
61.242641
 21
162.999998
 31
0.0
  0
LINE
  5
1C92A
  8
DANMEN
  6
CONTINUOUS
 10
61.234121
 20
166.870158
 30
0.0
 11
60.150003
 21
165.78604
 31
0.0
  0
LINE
  5
1C92B
  8
DANMEN
  6
CONTINUOUS
 10
64.076893
 20
166.529707
 30
0.0
 11
67.606602
 21
162.999998
 31
0.0
  0
LINE
  5
1C92C
  8
DANMEN
  6
CONTINUOUS
 10
66.917445
 20
166.189521
 30
0.0
 11
63.727922
 21
162.999998
 31
0.0
  0
LINE
  5
1C92D
  8
DANMEN
  6
CONTINUOUS
 10
68.0
 20
165.150756
 30
0.0
 11
65.849242
 21
162.999998
 31
0.0
  0
LINE
  5
1C92E
  8
DANMEN
  6
CONTINUOUS
 10
68.0
 20
165.5
 30
0.0
 11
68.0
 21
161.0
 31
0.0
  0
LINE
  5
1C92F
  8
DANMEN
  6
CONTINUOUS
 10
68.0
 20
163.029435
 30
0.0
 11
67.970563
 21
162.999998
 31
0.0
  0
LINE
  5
1C932
  8
DANMEN
  6
CONTINUOUS
 10
68.0
 20
161.0
 30
0.0
 11
68.850006
 21
161.0
 31
0.0
  0
LINE
  5
1C933
  8
DANMEN
  6
CONTINUOUS
 10
66.486828
 20
166.241092
 30
0.0
 11
68.0
 21
164.72792
 31
0.0
  0
ARC
  5
1C934
  8
DANMEN
  6
CONTINUOUS
 10
68.5
 20
165.5
 30
0.0
 40
0.5
 50
89.999982
 51
180.000019
  0
LINE
  5
1C936
  8
DANMEN
  6
CONTINUOUS
 10
68.5
 20
166.0
 30
0.0
 11
70.300003
 21
166.0
 31
0.0
  0
LINE
  5
1C937
  8
DANMEN
  6
CONTINUOUS
 10
48.7
 20
196.0
 30
0.0
 11
35.700005
 21
196.0
 31
0.0
  0
LINE
  5
1C938
  8
DANMEN
  6
CONTINUOUS
 10
49.0
 20
194.5
 30
0.0
 11
34.700005
 21
194.5
 31
0.0
  0
LINE
  5
1C939
  8
DANMEN
  6
CONTINUOUS
 10
37.699997
 20
176.0
 30
0.0
 11
39.5
 21
176.0
 31
0.0
  0
LINE
  5
1C93A
  8
DANMEN
  6
CONTINUOUS
 10
36.0
 20
196.0
 30
0.0
 11
51.199997
 21
196.0
 31
0.0
  0
LINE
  5
1C93B
  8
DANMEN
  6
CONTINUOUS
 10
37.199997
 20
194.5
 30
0.0
 11
37.199997
 21
176.5
 31
0.0
  0
LINE
  5
1C93C
  8
DANMEN
  6
CONTINUOUS
 10
35.0
 20
194.5
 30
0.0
 11
35.0
 21
172.0
 31
0.0
  0
ARC
  5
1C93F
  8
DANMEN
  6
CONTINUOUS
 10
37.699997
 20
176.5
 30
0.0
 40
0.5
 50
180.000019
 51
270.000001
  0
ARC
  5
1C941
  8
DANMEN
  6
CONTINUOUS
 10
35.700005
 20
195.0
 30
0.0
 40
1.0
 50
90.0
 51
180.0
  0
LINE
  5
1C943
  8
DANMEN
  6
CONTINUOUS
 10
34.700005
 20
194.5
 30
0.0
 11
34.700005
 21
195.0
 31
0.0
  0
LINE
  5
1C944
  8
DANMEN
  6
CONTINUOUS
 10
35.0
 20
195.0
 30
0.0
 11
35.0
 21
194.5
 31
0.0
  0
LINE
  5
1C945
  8
DANMEN
  6
CONTINUOUS
 10
35.0
 20
194.5
 30
0.0
 11
37.199997
 21
194.5
 31
0.0
  0
ARC
  5
1C949
  8
DANMEN
  6
CONTINUOUS
 10
36.0
 20
195.0
 30
0.0
 40
1.0
 50
89.999982
 51
180.000019
  0
LINE
  5
1C94A
  8
DANMEN
  6
CONTINUOUS
 10
39.149994
 20
194.050003
 30
0.0
 11
39.149994
 21
181.0
 31
0.0
  0
LINE
  5
1C94B
  8
DANMEN
  6
CONTINUOUS
 10
68.850006
 20
194.050003
 30
0.0
 11
68.850006
 21
181.0
 31
0.0
  0
LINE
  5
1C94C
  8
DANMEN
  6
CONTINUOUS
 10
47.85
 20
191.0
 30
0.0
 11
60.15
 21
191.0
 31
0.0
  0
LINE
  5
1C94D
  8
DANMEN
  6
CONTINUOUS
 10
48.35
 20
191.0
 30
0.0
 11
48.35
 21
172.0
 31
0.0
  0
LINE
  5
1C94E
  8
DANMEN
  6
CONTINUOUS
 10
53.35
 20
191.0
 30
0.0
 11
53.35
 21
172.0
 31
0.0
  0
LINE
  5
1C94F
  8
DANMEN
  6
CONTINUOUS
 10
47.85
 20
191.0
 30
0.0
 11
47.85
 21
172.0
 31
0.0
  0
LINE
  5
1C950
  8
DANMEN
  6
CONTINUOUS
 10
53.85
 20
191.0
 30
0.0
 11
53.85
 21
172.0
 31
0.0
  0
LINE
  5
1C951
  8
DANMEN
  6
CONTINUOUS
 10
54.15
 20
191.0
 30
0.0
 11
54.15
 21
172.0
 31
0.0
  0
LINE
  5
1C952
  8
DANMEN
  6
CONTINUOUS
 10
47.849997
 20
175.786042
 30
0.0
 11
44.636039
 21
179.0
 31
0.0
  0
LINE
  5
1C953
  8
DANMEN
  6
CONTINUOUS
 10
46.333042
 20
175.181677
 30
0.0
 11
42.514718
 21
179.0
 31
0.0
  0
LINE
  5
1C954
  8
DANMEN
  6
CONTINUOUS
 10
44.871438
 20
175.356719
 30
0.0
 11
47.849997
 21
178.335278
 31
0.0
  0
LINE
  5
1C955
  8
DANMEN
  6
CONTINUOUS
 10
42.976996
 20
175.583598
 30
0.0
 11
46.393399
 21
179.0
 31
0.0
  0
LINE
  5
1C956
  8
DANMEN
  6
CONTINUOUS
 10
47.85
 20
175.000005
 30
0.0
 11
39.500002
 21
176.000005
 31
0.0
  0
LINE
  5
1C957
  8
DANMEN
  6
CONTINUOUS
 10
43.923107
 20
175.470291
 30
0.0
 11
40.393398
 21
179.0
 31
0.0
  0
LINE
  5
1C958
  8
DANMEN
  6
CONTINUOUS
 10
39.5
 20
172.0
 30
0.0
 11
39.5
 21
175.940125
 31
0.0
  0
LINE
  5
1C959
  8
DANMEN
  6
CONTINUOUS
 10
41.082555
 20
175.810477
 30
0.0
 11
44.272078
 21
179.0
 31
0.0
  0
LINE
  5
1C95A
  8
DANMEN
  6
CONTINUOUS
 10
40.0
 20
176.849242
 30
0.0
 11
42.150758
 21
179.0
 31
0.0
  0
LINE
  5
1C95B
  8
DANMEN
  6
CONTINUOUS
 10
41.513172
 20
175.758906
 30
0.0
 11
40.0
 21
177.272078
 31
0.0
  0
LINE
  5
1C95C
  8
DANMEN
  6
CONTINUOUS
 10
40.0
 20
178.970563
 30
0.0
 11
40.029437
 21
179.0
 31
0.0
  0
LINE
  5
1C95E
  8
DANMEN
  6
CONTINUOUS
 10
40.0
 20
181.0
 30
0.0
 11
40.0
 21
176.5
 31
0.0
  0
LINE
  5
1C95F
  8
DANMEN
  6
CONTINUOUS
 10
39.149994
 20
181.0
 30
0.0
 11
40.0
 21
181.0
 31
0.0
  0
ARC
  5
1C962
  8
DANMEN
  6
CONTINUOUS
 10
39.5
 20
176.5
 30
0.0
 40
0.5
 50
270.000018
 51
0.0
  0
LINE
  5
1C963
  8
DANMEN
  6
CONTINUOUS
 10
46.765879
 20
175.12984
 30
0.0
 11
47.849997
 21
176.213958
 31
0.0
  0
LINE
  5
1C964
  8
DANMEN
  6
CONTINUOUS
 10
47.849997
 20
177.907362
 30
0.0
 11
46.757359
 21
179.0
 31
0.0
  0
LINE
  5
1C967
  8
DANMEN
  6
CONTINUOUS
 10
59.65
 20
191.0
 30
0.0
 11
59.65
 21
172.0
 31
0.0
  0
LINE
  5
1C968
  8
DANMEN
  6
CONTINUOUS
 10
54.65
 20
191.0
 30
0.0
 11
54.65
 21
172.0
 31
0.0
  0
LINE
  5
1C969
  8
DANMEN
  6
CONTINUOUS
 10
60.15
 20
191.0
 30
0.0
 11
60.15
 21
172.0
 31
0.0
  0
LINE
  5
1C96A
  8
DANMEN
  6
CONTINUOUS
 10
65.023004
 20
175.583598
 30
0.0
 11
61.606602
 21
179.0
 31
0.0
  0
LINE
  5
1C96B
  8
DANMEN
  6
CONTINUOUS
 10
63.128562
 20
175.356719
 30
0.0
 11
60.149996
 21
178.335286
 31
0.0
  0
LINE
  5
1C96C
  8
DANMEN
  6
CONTINUOUS
 10
61.666959
 20
175.181677
 30
0.0
 11
65.485281
 21
179.0
 31
0.0
  0
LINE
  5
1C96D
  8
DANMEN
  6
CONTINUOUS
 10
60.149996
 20
175.786035
 30
0.0
 11
63.363961
 21
179.0
 31
0.0
  0
LINE
  5
1C96E
  8
DANMEN
  6
CONTINUOUS
 10
60.15
 20
174.999997
 30
0.0
 11
68.500005
 21
175.999997
 31
0.0
  0
LINE
  5
1C96F
  8
DANMEN
  6
CONTINUOUS
 10
61.234121
 20
175.12984
 30
0.0
 11
60.149996
 21
176.213965
 31
0.0
  0
LINE
  5
1C970
  8
DANMEN
  6
CONTINUOUS
 10
60.149996
 20
177.907355
 30
0.0
 11
61.242641
 21
179.0
 31
0.0
  0
LINE
  5
1C972
  8
DANMEN
  6
CONTINUOUS
 10
64.076893
 20
175.470292
 30
0.0
 11
67.606602
 21
179.0
 31
0.0
  0
LINE
  5
1C973
  8
DANMEN
  6
CONTINUOUS
 10
68.5
 20
175.940117
 30
0.0
 11
68.5
 21
172.0
 31
0.0
  0
LINE
  5
1C974
  8
DANMEN
  6
CONTINUOUS
 10
68.0
 20
176.849242
 30
0.0
 11
65.849242
 21
179.0
 31
0.0
  0
LINE
  5
1C975
  8
DANMEN
  6
CONTINUOUS
 10
66.917445
 20
175.810477
 30
0.0
 11
63.727922
 21
179.0
 31
0.0
  0
LINE
  5
1C976
  8
DANMEN
  6
CONTINUOUS
 10
66.486828
 20
175.758906
 30
0.0
 11
68.0
 21
177.272078
 31
0.0
  0
LINE
  5
1C977
  8
DANMEN
  6
CONTINUOUS
 10
68.0
 20
178.970563
 30
0.0
 11
67.970563
 21
179.0
 31
0.0
  0
LINE
  5
1C978
  8
DANMEN
  6
CONTINUOUS
 10
68.0
 20
181.0
 30
0.0
 11
68.0
 21
176.5
 31
0.0
  0
LINE
  5
1C979
  8
DANMEN
  6
CONTINUOUS
 10
68.0
 20
181.0
 30
0.0
 11
68.850006
 21
181.0
 31
0.0
  0
LINE
  5
1C97A
  8
DANMEN
  6
CONTINUOUS
 10
68.5
 20
176.0
 30
0.0
 11
70.300003
 21
176.0
 31
0.0
  0
ARC
  5
1C97C
  8
DANMEN
  6
CONTINUOUS
 10
68.5
 20
176.5
 30
0.0
 40
0.5
 50
180.000019
 51
270.000001
  0
LINE
  5
1C97F
  8
DANMEN
  6
CONTINUOUS
 10
53.149994
 20
207.5
 30
0.0
 11
68.850006
 21
207.5
 31
0.0
  0
LINE
  5
1C980
  8
DANMEN
  6
CONTINUOUS
 10
39.149994
 20
194.050003
 30
0.0
 11
68.850006
 21
194.050003
 31
0.0
  0
LINE
  5
1C981
  8
DANMEN
  6
CONTINUOUS
 10
53.149994
 20
196.0
 30
0.0
 11
68.850006
 21
196.0
 31
0.0
  0
LINE
  5
1C982
  8
DANMEN
  6
CONTINUOUS
 10
53.149994
 20
205.550003
 30
0.0
 11
56.699997
 21
205.550003
 31
0.0
  0
LINE
  5
1C983
  8
DANMEN
  6
CONTINUOUS
 10
53.149994
 20
205.550003
 30
0.0
 11
53.149994
 21
196.0
 31
0.0
  0
LINE
  5
1C989
  8
DANMEN
  6
CONTINUOUS
 10
48.7
 20
194.5
 30
0.0
 11
48.7
 21
196.0
 31
0.0
  0
LINE
  5
1C98B
  8
DANMEN
  6
CONTINUOUS
 10
49.0
 20
194.5
 30
0.0
 11
49.0
 21
196.0
 31
0.0
  0
ARC
  5
1C990
  8
DANMEN
  6
CONTINUOUS
 10
65.3
 20
204.550003
 30
0.0
 40
1.0
 50
90.0
 51
180.0
  0
ARC
  5
1C991
  8
DANMEN
  6
CONTINUOUS
 10
56.7
 20
204.550003
 30
0.0
 40
1.0
 50
0.0
 51
90.0
  0
LINE
  5
1C992
  8
DANMEN
  6
CONTINUOUS
 10
59.2
 20
203.553939
 30
0.0
 11
59.2
 21
204.8
 31
0.0
  0
LINE
  5
1C993
  8
DANMEN
  6
CONTINUOUS
 10
62.8
 20
203.553939
 30
0.0
 11
62.8
 21
204.8
 31
0.0
  0
LINE
  5
1C994
  8
DANMEN
  6
CONTINUOUS
 10
68.850006
 20
205.550003
 30
0.0
 11
68.850006
 21
196.0
 31
0.0
  0
ARC
  5
1C995
  8
DANMEN
  6
CONTINUOUS
 10
61.8
 20
203.553939
 30
0.0
 40
1.0
 50
294.624318
 51
0.0
  0
LINE
  5
1C996
  8
DANMEN
  6
CONTINUOUS
 10
63.539379
 20
201.9
 30
0.0
 11
62.4
 21
201.9
 31
0.0
  0
ARC
  5
1C997
  8
DANMEN
  6
CONTINUOUS
 10
59.7
 20
203.469694
 30
0.0
 40
2.0
 50
180.0
 51
231.706523
  0
LINE
  5
1C998
  8
DANMEN
  6
CONTINUOUS
 10
57.7
 20
203.469694
 30
0.0
 11
57.7
 21
204.550003
 31
0.0
  0
LINE
  5
1C999
  8
DANMEN
  6
CONTINUOUS
 10
59.9
 20
202.2
 30
0.0
 11
59.9
 21
202.463068
 31
0.0
  0
ARC
  5
1C99A
  8
DANMEN
  6
CONTINUOUS
 10
60.2
 20
203.553939
 30
0.0
 40
1.0
 50
180.0
 51
245.375682
  0
ARC
  5
1C99B
  8
DANMEN
  6
CONTINUOUS
 10
59.7
 20
202.463068
 30
0.0
 40
0.2
 50
0.0
 51
65.375682
  0
ARC
  5
1C99C
  8
DANMEN
  6
CONTINUOUS
 10
62.3
 20
202.463068
 30
0.0
 40
0.2
 50
114.624318
 51
180.0
  0
LINE
  5
1C99D
  8
DANMEN
  6
CONTINUOUS
 10
62.1
 20
202.2
 30
0.0
 11
62.1
 21
202.463068
 31
0.0
  0
LINE
  5
1C9A0
  8
DANMEN
  6
CONTINUOUS
 10
59.6
 20
201.9
 30
0.0
 11
58.460621
 21
201.9
 31
0.0
  0
ARC
  5
1C9A1
  8
DANMEN
  6
CONTINUOUS
 10
59.6
 20
202.2
 30
0.0
 40
0.3
 50
270.0
 51
0.0
  0
ARC
  5
1C9A2
  8
DANMEN
  6
CONTINUOUS
 10
62.4
 20
202.2
 30
0.0
 40
0.3
 50
180.0
 51
270.0
  0
LINE
  5
1C9A6
  8
DANMEN
  6
CONTINUOUS
 10
64.3
 20
203.469694
 30
0.0
 11
64.3
 21
204.550003
 31
0.0
  0
ARC
  5
1C9A7
  8
DANMEN
  6
CONTINUOUS
 10
62.3
 20
203.469694
 30
0.0
 40
2.0
 50
308.293477
 51
0.0
  0
ARC
  5
1C9A8
  8
DANMEN
  6
CONTINUOUS
 10
61.8
 20
204.8
 30
0.0
 40
1.0
 50
0.0
 51
90.0
  0
ARC
  5
1C9A9
  8
DANMEN
  6
CONTINUOUS
 10
61.0
 20
215.0
 30
0.0
 40
4.0
 50
180.000019
 51
359.999983
  0
ARC
  5
1C9AB
  8
DANMEN
  6
CONTINUOUS
 10
60.2
 20
204.8
 30
0.0
 40
1.0
 50
90.0
 51
180.0
  0
LINE
  5
1C9AC
  8
DANMEN
  6
CONTINUOUS
 10
61.8
 20
205.8
 30
0.0
 11
60.2
 21
205.8
 31
0.0
  0
LINE
  5
1C9AD
  8
DANMEN
  6
CONTINUOUS
 10
65.300003
 20
205.550003
 30
0.0
 11
68.850006
 21
205.550003
 31
0.0
  0
LINE
  5
1C9B1
  8
DANMEN
  6
CONTINUOUS
 10
60.6
 20
249.0
 30
0.0
 11
60.6
 21
238.101833
 31
0.0
  0
LINE
  5
1C9B2
  8
DANMEN
  6
CONTINUOUS
 10
62.25
 20
249.0
 30
0.0
 11
62.25
 21
228.061553
 31
0.0
  0
LINE
  5
1C9B3
  8
DANMEN
  6
CONTINUOUS
 10
43.649994
 20
249.0
 30
0.0
 11
43.649994
 21
226.5
 31
0.0
  0
LINE
  5
1C9B4
  8
DANMEN
  6
CONTINUOUS
 10
42.0
 20
260.5
 30
0.0
 11
42.0
 21
226.5
 31
0.0
  0
LINE
  5
1C9B5
  8
DANMEN
  6
CONTINUOUS
 10
49.0
 20
234.0
 30
0.0
 11
57.0
 21
234.0
 31
0.0
  0
ARC
  5
1C9B6
  8
DANMEN
  6
CONTINUOUS
 10
42.5
 20
226.5
 30
0.0
 40
0.5
 50
180.000019
 51
270.000001
  0
ARC
  5
1C9B7
  8
DANMEN
  6
CONTINUOUS
 10
43.149994
 20
226.5
 30
0.0
 40
0.5
 50
270.000018
 51
0.0
  0
LINE
  5
1C9B8
  8
DANMEN
  6
CONTINUOUS
 10
42.5
 20
226.0
 30
0.0
 11
43.149994
 21
226.0
 31
0.0
  0
LINE
  5
1C9B9
  8
DANMEN
  6
CONTINUOUS
 10
52.102047
 20
232.285359
 30
0.0
 11
51.936363
 21
234.779863
 31
0.0
  0
LINE
  5
1C9BA
  8
DANMEN
  6
CONTINUOUS
 10
51.104246
 20
232.219085
 30
0.0
 11
50.971698
 21
234.214688
 31
0.0
  0
ARC
  5
1C9BB
  8
DANMEN
  6
CONTINUOUS
 10
52.649994
 20
233.5
 30
0.0
 40
0.5
 50
0.0
 51
90.0
  0
ARC
  5
1C9BC
  8
DANMEN
  6
CONTINUOUS
 10
51.699997
 20
233.5
 30
0.0
 40
0.5
 50
90.0
 51
180.0
  0
ARC
  5
1C9BD
  8
DANMEN
  6
CONTINUOUS
 10
51.603147
 20
232.252222
 30
0.0
 40
0.5
 50
183.8
 51
3.8
  0
LINE
  5
1C9C0
  8
DANMEN
  6
CONTINUOUS
 10
51.037972
 20
233.216887
 30
0.0
 11
52.035774
 21
233.283161
 31
0.0
  0
LINE
  5
1C9C4
  8
DANMEN
  6
CONTINUOUS
 10
51.9695
 20
234.280962
 30
0.0
 11
48.676108
 21
234.062215
 31
0.0
  0
LINE
  5
1C9C5
  8
DANMEN
  6
CONTINUOUS
 10
51.404325
 20
235.245627
 30
0.0
 11
48.374018
 21
235.044354
 31
0.0
  0
ARC
  5
1C9C9
  8
DANMEN
  6
CONTINUOUS
 10
48.407155
 20
234.545453
 30
0.0
 40
0.5
 50
93.8
 51
179.401295
  0
ARC
  5
1C9CC
  8
DANMEN
  6
CONTINUOUS
 10
51.437462
 20
234.746726
 30
0.0
 40
0.5
 50
3.8
 51
93.8
  0
LINE
  5
1C9D0
  8
DANMEN
  6
CONTINUOUS
 10
51.699997
 20
234.0
 30
0.0
 11
52.649994
 21
234.0
 31
0.0
  0
LINE
  5
1C9D1
  8
DANMEN
  6
CONTINUOUS
 10
60.155317
 20
226.378732
 30
0.0
 11
59.764929
 21
227.940285
 31
0.0
  0
LINE
  5
1C9D2
  8
DANMEN
  6
CONTINUOUS
 10
62.235071
 20
227.940285
 30
0.0
 11
61.844683
 21
226.378732
 31
0.0
  0
ARC
  5
1C9D3
  8
DANMEN
  6
CONTINUOUS
 10
61.359612
 20
226.5
 30
0.0
 40
0.5
 50
270.0
 51
345.963757
  0
ARC
  5
1C9D4
  8
DANMEN
  6
CONTINUOUS
 10
60.640388
 20
226.5
 30
0.0
 40
0.5
 50
194.036243
 51
270.0
  0
LINE
  5
1C9D5
  8
DANMEN
  6
CONTINUOUS
 10
60.640388
 20
226.0
 30
0.0
 11
61.359612
 21
226.0
 31
0.0
  0
ARC
  5
1C9D7
  8
DANMEN
  6
CONTINUOUS
 10
69.850006
 20
222.95
 30
0.0
 40
1.0
 50
90.0
 51
180.0
  0
LINE
  5
1C9D8
  8
DANMEN
  6
CONTINUOUS
 10
59.75
 20
235.898149
 30
0.0
 11
59.75
 21
228.061553
 31
0.0
  0
ARC
  5
1C9D9
  8
DANMEN
  6
CONTINUOUS
 10
61.75
 20
228.061553
 30
0.0
 40
0.5
 50
345.963757
 51
0.0
  0
ARC
  5
1C9DA
  8
DANMEN
  6
CONTINUOUS
 10
60.25
 20
228.061553
 30
0.0
 40
0.5
 50
180.0
 51
194.036243
  0
ARC
  5
1C9DB
  8
DANMEN
  6
CONTINUOUS
 10
60.25
 20
235.898149
 30
0.0
 40
0.5
 50
156.974508
 51
180.0
  0
ARC
  5
1C9DC
  8
DANMEN
  6
CONTINUOUS
 10
60.1
 20
238.101833
 30
0.0
 40
0.5
 50
336.974508
 51
0.0
  0
LINE
  5
1C9DD
  8
DANMEN
  6
CONTINUOUS
 10
60.560165
 20
237.906263
 30
0.0
 11
59.789835
 21
236.09372
 31
0.0
  0
LINE
  5
1C9DE
  8
DANMEN
  6
CONTINUOUS
 10
43.649994
 20
250.649994
 30
0.0
 11
57.699997
 21
250.649994
 31
0.0
  0
LINE
  5
1C9DF
  8
DANMEN
  6
CONTINUOUS
 10
43.649994
 20
249.0
 30
0.0
 11
60.6
 21
249.0
 31
0.0
  0
LINE
  5
1C9E0
  8
DANMEN
  6
CONTINUOUS
 10
43.649994
 20
259.350006
 30
0.0
 11
43.649994
 21
250.649994
 31
0.0
  0
LINE
  5
1C9E1
  8
DANMEN
  6
CONTINUOUS
 10
43.649994
 20
259.350006
 30
0.0
 11
47.5
 21
259.350006
 31
0.0
  0
LINE
  5
1C9E2
  8
DANMEN
  6
CONTINUOUS
 10
42.5
 20
261.0
 30
0.0
 11
47.5
 21
261.0
 31
0.0
  0
ARC
  5
1C9E3
  8
DANMEN
  6
CONTINUOUS
 10
42.5
 20
260.5
 30
0.0
 40
0.5
 50
89.999982
 51
180.000019
  0
ARC
  5
1C9E4
  8
DANMEN
  6
CONTINUOUS
 10
47.5
 20
260.5
 30
0.0
 40
0.5
 50
0.0
 51
89.999982
  0
ARC
  5
1C9E5
  8
DANMEN
  6
CONTINUOUS
 10
47.5
 20
259.850006
 30
0.0
 40
0.5
 50
270.000018
 51
0.0
  0
LINE
  5
1C9E6
  8
DANMEN
  6
CONTINUOUS
 10
48.0
 20
260.5
 30
0.0
 11
48.0
 21
259.850006
 31
0.0
  0
ARC
  5
1C9E7
  8
DANMEN
  6
CONTINUOUS
 10
57.7
 20
251.649994
 30
0.0
 40
1.0
 50
270.0
 51
0.0
  0
ARC
  5
1C9E8
  8
DANMEN
  6
CONTINUOUS
 10
62.8
 20
251.7
 30
0.0
 40
1.0
 50
270.0
 51
0.0
  0
ARC
  5
1C9E9
  8
DANMEN
  6
CONTINUOUS
 10
61.2
 20
251.7
 30
0.0
 40
1.0
 50
180.0
 51
270.0
  0
LINE
  5
1C9EA
  8
DANMEN
  6
CONTINUOUS
 10
65.5
 20
252.950012
 30
0.0
 11
65.5
 21
249.8
 31
0.0
  0
LINE
  5
1C9EB
  8
DANMEN
  6
CONTINUOUS
 10
62.8
 20
250.7
 30
0.0
 11
61.2
 21
250.7
 31
0.0
  0
LINE
  5
1C9EC
  8
DANMEN
  6
CONTINUOUS
 10
62.25
 20
249.0
 30
0.0
 11
66.5
 21
249.0
 31
0.0
  0
ARC
  5
1C9ED
  8
DANMEN
  6
CONTINUOUS
 10
66.5
 20
249.5
 30
0.0
 40
0.5
 50
270.000018
 51
0.0
  0
LINE
  5
1C9EE
  8
DANMEN
  6
CONTINUOUS
 10
65.5
 20
249.8
 30
0.0
 11
67.0
 21
249.8
 31
0.0
  0
LINE
  5
1C9EF
  8
DANMEN
  6
CONTINUOUS
 10
67.0
 20
249.8
 30
0.0
 11
67.0
 21
249.5
 31
0.0
  0
LINE
  5
1C9F1
  8
DANMEN
  6
CONTINUOUS
 10
60.9
 20
254.3
 30
0.0
 11
60.9
 21
254.036932
 31
0.0
  0
ARC
  5
1C9F2
  8
DANMEN
  6
CONTINUOUS
 10
61.2
 20
252.946061
 30
0.0
 40
1.0
 50
114.624318
 51
180.0
  0
ARC
  5
1C9F3
  8
DANMEN
  6
CONTINUOUS
 10
60.7
 20
254.036932
 30
0.0
 40
0.2
 50
294.624318
 51
0.0
  0
ARC
  5
1C9F4
  8
DANMEN
  6
CONTINUOUS
 10
60.7
 20
253.030306
 30
0.0
 40
2.0
 50
128.293477
 51
180.0
  0
LINE
  5
1C9F5
  8
DANMEN
  6
CONTINUOUS
 10
58.7
 20
253.030306
 30
0.0
 11
58.7
 21
251.649994
 31
0.0
  0
LINE
  5
1C9F6
  8
DANMEN
  6
CONTINUOUS
 10
60.2
 20
252.946061
 30
0.0
 11
60.2
 21
251.7
 31
0.0
  0
LINE
  5
1C9F7
  8
DANMEN
  6
CONTINUOUS
 10
60.6
 20
254.6
 30
0.0
 11
59.460621
 21
254.6
 31
0.0
  0
ARC
  5
1C9F8
  8
DANMEN
  6
CONTINUOUS
 10
60.6
 20
254.3
 30
0.0
 40
0.3
 50
0.0
 51
90.0
  0
ARC
  5
1C9F9
  8
DANMEN
  6
CONTINUOUS
 10
63.4
 20
254.300012
 30
0.0
 40
0.3
 50
90.0
 51
180.0
  0
ARC
  5
1C9FA
  8
DANMEN
  6
CONTINUOUS
 10
63.3
 20
254.036932
 30
0.0
 40
0.2
 50
180.0
 51
245.375682
  0
ARC
  5
1C9FB
  8
DANMEN
  6
CONTINUOUS
 10
62.8
 20
252.946061
 30
0.0
 40
1.0
 50
0.0
 51
65.375682
  0
LINE
  5
1C9FC
  8
DANMEN
  6
CONTINUOUS
 10
63.1
 20
254.300012
 30
0.0
 11
63.1
 21
254.036932
 31
0.0
  0
LINE
  5
1C9FD
  8
DANMEN
  6
CONTINUOUS
 10
63.8
 20
252.946061
 30
0.0
 11
63.8
 21
251.7
 31
0.0
  0
LINE
  5
1C9FE
  8
DANMEN
  6
CONTINUOUS
 10
172.000003
 20
218.5
 30
0.0
 11
172.000003
 21
203.6
 31
0.0
  0
LINE
  5
1C9FF
  8
DANMEN
  6
CONTINUOUS
 10
170.350009
 20
238.350006
 30
0.0
 11
170.350009
 21
171.649994
 31
0.0
  0
LINE
  5
1CA00
  8
DANMEN
  6
CONTINUOUS
 10
81.0
 20
207.999997
 30
0.0
 11
81.0
 21
225.5
 31
0.0
  0
LINE
  5
1CA01
  8
DANMEN
  6
CONTINUOUS
 10
110.2
 20
210.999997
 30
0.0
 11
110.2
 21
225.499997
 31
0.0
  0
LINE
  5
1CA02
  8
DANMEN
  6
CONTINUOUS
 10
110.11785
 20
225.995322
 30
0.0
 11
110.2
 21
213.999997
 31
0.0
  0
LINE
  5
1CA03
  8
DANMEN
  6
CONTINUOUS
 10
111.123338
 20
225.451912
 30
0.0
 11
111.687844
 21
214.000834
 31
0.0
  0
LINE
  5
1CA04
  8
DANMEN
  6
CONTINUOUS
 10
110.417964
 20
225.963778
 30
0.0
 11
110.500056
 21
213.984777
 31
0.0
  0
LINE
  5
1CA05
  8
DANMEN
  6
CONTINUOUS
 10
70.800003
 20
222.0
 30
0.0
 11
70.800003
 21
176.5
 31
0.0
  0
LINE
  5
1CA06
  8
DANMEN
  6
CONTINUOUS
 10
189.95
 20
231.05
 30
0.0
 11
189.95
 21
210.95
 31
0.0
  0
LINE
  5
1CA07
  8
DANMEN
  6
CONTINUOUS
 10
188.0
 20
230.9
 30
0.0
 11
188.0
 21
211.1
 31
0.0
  0
LINE
  5
1CA08
  8
DANMEN
  6
CONTINUOUS
 10
112.0
 20
211.149997
 30
0.0
 11
112.0
 21
226.0
 31
0.0
  0
LINE
  5
1CA09
  8
DANMEN
  6
DASHED
 10
78.5
 20
226.0
 30
0.0
 11
78.5
 21
172.0
 31
0.0
  0
LINE
  5
1CA0A
  8
DANMEN
  6
CONTINUOUS
 10
75.5
 20
226.0
 30
0.0
 11
75.5
 21
172.0
 31
0.0
  0
LINE
  5
1CA0B
  8
DANMEN
  6
CONTINUOUS
 10
73.0
 20
234.0
 30
0.0
 11
73.0
 21
172.0
 31
0.0
  0
LINE
  5
1CA0C
  8
DANMEN
  6
CONTINUOUS
 10
116.8
 20
170.0
 30
0.0
 11
116.8
 21
133.500001
 31
0.0
  0
LINE
  5
1CA0D
  8
DANMEN
  6
CONTINUOUS
 10
81.0
 20
169.5
 30
0.0
 11
81.0
 21
133.500001
 31
0.0
  0
LINE
  5
1CA0E
  8
DANMEN
  6
CONTINUOUS
 10
83.000034
 20
134.000009
 30
0.0
 11
83.000034
 21
169.8
 31
0.0
  0
LINE
  5
1CA0F
  8
DANMEN
  6
CONTINUOUS
 10
84.582555
 20
134.189525
 30
0.0
 11
87.772078
 21
131.000001
 31
0.0
  0
LINE
  5
1CA10
  8
DANMEN
  6
CONTINUOUS
 10
86.476996
 20
134.416403
 30
0.0
 11
89.893398
 21
131.000001
 31
0.0
  0
LINE
  5
1CA11
  8
DANMEN
  6
CONTINUOUS
 10
87.423107
 20
134.52971
 30
0.0
 11
83.893398
 21
131.000001
 31
0.0
  0
LINE
  5
1CA12
  8
DANMEN
  6
CONTINUOUS
 10
89.833042
 20
134.818324
 30
0.0
 11
86.014719
 21
131.000001
 31
0.0
  0
LINE
  5
1CA13
  8
DANMEN
  6
CONTINUOUS
 10
91.35
 20
135.000004
 30
0.0
 11
82.999995
 21
134.000004
 31
0.0
  0
LINE
  5
1CA14
  8
DANMEN
  6
CONTINUOUS
 10
83.5
 20
133.499998
 30
0.0
 11
83.5
 21
128.999998
 31
0.0
  0
LINE
  5
1CA15
  8
DANMEN
  6
CONTINUOUS
 10
82.65
 20
128.999998
 30
0.0
 11
83.5
 21
128.999998
 31
0.0
  0
ARC
  5
1CA16
  8
DANMEN
  6
CONTINUOUS
 10
83.0
 20
133.499998
 30
0.0
 40
0.5
 50
0.0
 51
90.0
  0
LINE
  5
1CA18
  8
DANMEN
  6
CONTINUOUS
 10
81.5
 20
133.999998
 30
0.0
 11
83.0
 21
133.999998
 31
0.0
  0
ARC
  5
1CA19
  8
DANMEN
  6
CONTINUOUS
 10
81.5
 20
133.499998
 30
0.0
 40
0.5
 50
90.0
 51
180.0
  0
LINE
  5
1CA1A
  8
DANMEN
  6
CONTINUOUS
 10
83.5
 20
131.029439
 30
0.0
 11
83.529437
 21
131.000001
 31
0.0
  0
LINE
  5
1CA1B
  8
DANMEN
  6
CONTINUOUS
 10
83.5
 20
133.150759
 30
0.0
 11
85.650758
 21
131.000001
 31
0.0
  0
LINE
  5
1CA1C
  8
DANMEN
  6
CONTINUOUS
 10
85.013172
 20
134.241095
 30
0.0
 11
83.5
 21
132.727924
 31
0.0
  0
LINE
  5
1CA1E
  8
DANMEN
  6
CONTINUOUS
 10
88.371438
 20
134.643282
 30
0.0
 11
91.350004
 21
131.664716
 31
0.0
  0
LINE
  5
1CA1F
  8
DANMEN
  6
CONTINUOUS
 10
90.265879
 20
134.870161
 30
0.0
 11
91.350004
 21
133.786036
 31
0.0
  0
LINE
  5
1CA20
  8
DANMEN
  6
CONTINUOUS
 10
91.350004
 20
134.213967
 30
0.0
 11
88.136039
 21
131.000001
 31
0.0
  0
LINE
  5
1CA21
  8
DANMEN
  6
CONTINUOUS
 10
91.350004
 20
132.092646
 30
0.0
 11
90.257359
 21
131.000001
 31
0.0
  0
LINE
  5
1CA25
  8
DANMEN
  6
CONTINUOUS
 10
111.999967
 20
169.8
 30
0.0
 11
111.999967
 21
134.000001
 31
0.0
  0
LINE
  5
1CA26
  8
DANMEN
  6
CONTINUOUS
 10
103.65
 20
134.999996
 30
0.0
 11
111.999998
 21
133.999997
 31
0.0
  0
LINE
  5
1CA27
  8
DANMEN
  6
CONTINUOUS
 10
111.999985
 20
128.999998
 30
0.0
 11
111.5
 21
128.999998
 31
0.0
  0
ARC
  5
1CA28
  8
DANMEN
  6
CONTINUOUS
 10
112.0
 20
133.499998
 30
0.0
 40
0.5
 50
90.000019
 51
180.000037
  0
LINE
  5
1CA29
  8
DANMEN
  6
CONTINUOUS
 10
111.5
 20
133.499998
 30
0.0
 11
111.5
 21
128.999998
 31
0.0
  0
LINE
  5
1CA2A
  8
DANMEN
  6
CONTINUOUS
 10
105.166958
 20
134.818325
 30
0.0
 11
108.985282
 21
131.000001
 31
0.0
  0
LINE
  5
1CA2B
  8
DANMEN
  6
CONTINUOUS
 10
107.576893
 20
134.52971
 30
0.0
 11
111.106602
 21
131.000001
 31
0.0
  0
LINE
  5
1CA2C
  8
DANMEN
  6
CONTINUOUS
 10
108.523004
 20
134.416404
 30
0.0
 11
105.106601
 21
131.000001
 31
0.0
  0
LINE
  5
1CA2D
  8
DANMEN
  6
CONTINUOUS
 10
110.417445
 20
134.189525
 30
0.0
 11
107.227922
 21
131.000001
 31
0.0
  0
LINE
  5
1CA2E
  8
DANMEN
  6
CONTINUOUS
 10
103.650003
 20
132.092639
 30
0.0
 11
104.742641
 21
131.000001
 31
0.0
  0
LINE
  5
1CA2F
  8
DANMEN
  6
CONTINUOUS
 10
103.650003
 20
134.21396
 30
0.0
 11
106.863961
 21
131.000001
 31
0.0
  0
LINE
  5
1CA30
  8
DANMEN
  6
CONTINUOUS
 10
104.734121
 20
134.870161
 30
0.0
 11
103.650003
 21
133.786043
 31
0.0
  0
LINE
  5
1CA31
  8
DANMEN
  6
CONTINUOUS
 10
106.628563
 20
134.643283
 30
0.0
 11
103.650003
 21
131.664723
 31
0.0
  0
LINE
  5
1CA32
  8
DANMEN
  6
CONTINUOUS
 10
109.986828
 20
134.241096
 30
0.0
 11
111.5
 21
132.727924
 31
0.0
  0
LINE
  5
1CA33
  8
DANMEN
  6
CONTINUOUS
 10
111.5
 20
133.150759
 30
0.0
 11
109.349242
 21
131.000001
 31
0.0
  0
LINE
  5
1CA34
  8
DANMEN
  6
CONTINUOUS
 10
111.5
 20
131.029439
 30
0.0
 11
111.470563
 21
131.000001
 31
0.0
  0
ARC
  5
1CA36
  8
DANMEN
  6
CONTINUOUS
 10
111.999985
 20
129.499998
 30
0.0
 40
0.5
 50
270.0
 51
0.0
  0
LINE
  5
1CA38
  8
DANMEN
  6
CONTINUOUS
 10
116.3
 20
133.999998
 30
0.0
 11
112.0
 21
133.999998
 31
0.0
  0
LINE
  5
1CA39
  8
DANMEN
  6
CONTINUOUS
 10
115.150003
 20
132.350001
 30
0.0
 11
112.499985
 21
132.350001
 31
0.0
  0
LINE
  5
1CA3A
  8
DANMEN
  6
CONTINUOUS
 10
112.499985
 20
132.350001
 30
0.0
 11
112.499985
 21
129.499998
 31
0.0
  0
ARC
  5
1CA3C
  8
DANMEN
  6
CONTINUOUS
 10
116.3
 20
133.499998
 30
0.0
 40
0.5
 50
0.0
 51
89.999982
  0
LINE
  5
1CA3D
  8
DANMEN
  6
CONTINUOUS
 10
87.700006
 20
215.499997
 30
0.0
 11
108.55
 21
215.499997
 31
0.0
  0
LINE
  5
1CA3E
  8
DANMEN
  6
CONTINUOUS
 10
91.35
 20
202.999997
 30
0.0
 11
103.65
 21
202.999997
 31
0.0
  0
LINE
  5
1CA3F
  8
DANMEN
  6
CONTINUOUS
 10
81.0
 20
188.500001
 30
0.0
 11
81.0
 21
207.999997
 31
0.0
  0
LINE
  5
1CA40
  8
DANMEN
  6
CONTINUOUS
 10
82.95
 20
193.0
 30
0.0
 11
82.95
 21
205.699997
 31
0.0
  0
LINE
  5
1CA41
  8
DANMEN
  6
CONTINUOUS
 10
91.85
 20
202.999997
 30
0.0
 11
91.85
 21
172.0
 31
0.0
  0
LINE
  5
1CA42
  8
DANMEN
  6
CONTINUOUS
 10
96.85
 20
202.999997
 30
0.0
 11
96.85
 21
172.0
 31
0.0
  0
LINE
  5
1CA43
  8
DANMEN
  6
CONTINUOUS
 10
103.15
 20
202.999997
 30
0.0
 11
103.15
 21
172.0
 31
0.0
  0
LINE
  5
1CA44
  8
DANMEN
  6
CONTINUOUS
 10
98.15
 20
202.999997
 30
0.0
 11
98.15
 21
172.0
 31
0.0
  0
LINE
  5
1CA45
  8
DANMEN
  6
CONTINUOUS
 10
91.35
 20
202.999997
 30
0.0
 11
91.35
 21
172.0
 31
0.0
  0
LINE
  5
1CA46
  8
DANMEN
  6
CONTINUOUS
 10
97.35
 20
202.999997
 30
0.0
 11
97.35
 21
172.0
 31
0.0
  0
LINE
  5
1CA47
  8
DANMEN
  6
CONTINUOUS
 10
97.65
 20
202.999997
 30
0.0
 11
97.65
 21
172.0
 31
0.0
  0
LINE
  5
1CA48
  8
DANMEN
  6
CONTINUOUS
 10
89.833042
 20
187.181673
 30
0.0
 11
86.014718
 21
190.999997
 31
0.0
  0
LINE
  5
1CA49
  8
DANMEN
  6
CONTINUOUS
 10
87.423107
 20
187.470288
 30
0.0
 11
83.893398
 21
190.999997
 31
0.0
  0
LINE
  5
1CA4A
  8
DANMEN
  6
CONTINUOUS
 10
86.476996
 20
187.583594
 30
0.0
 11
89.893399
 21
190.999997
 31
0.0
  0
LINE
  5
1CA4B
  8
DANMEN
  6
CONTINUOUS
 10
84.582555
 20
187.810473
 30
0.0
 11
87.772078
 21
190.999997
 31
0.0
  0
LINE
  5
1CA4C
  8
DANMEN
  6
CONTINUOUS
 10
91.35
 20
187.000002
 30
0.0
 11
83.000002
 21
188.000001
 31
0.0
  0
LINE
  5
1CA4D
  8
DANMEN
  6
CONTINUOUS
 10
81.0
 20
188.500001
 30
0.0
 11
81.0
 21
172.0
 31
0.0
  0
LINE
  5
1CA4E
  8
DANMEN
  6
CONTINUOUS
 10
83.000034
 20
172.0
 30
0.0
 11
83.000034
 21
187.999998
 31
0.0
  0
ARC
  5
1CA50
  8
DANMEN
  6
CONTINUOUS
 10
83.0
 20
188.5
 30
0.0
 40
0.5
 50
270.0
 51
0.0
  0
LINE
  5
1CA51
  8
DANMEN
  6
CONTINUOUS
 10
82.95
 20
193.0
 30
0.0
 11
83.5
 21
193.0
 31
0.0
  0
LINE
  5
1CA52
  8
DANMEN
  6
CONTINUOUS
 10
81.5
 20
188.0
 30
0.0
 11
83.0
 21
188.0
 31
0.0
  0
ARC
  5
1CA53
  8
DANMEN
  6
CONTINUOUS
 10
81.5
 20
188.5
 30
0.0
 40
0.5
 50
179.999872
 51
269.999909
  0
LINE
  5
1CA54
  8
DANMEN
  6
CONTINUOUS
 10
85.013172
 20
187.758902
 30
0.0
 11
83.5
 21
189.272074
 31
0.0
  0
LINE
  5
1CA55
  8
DANMEN
  6
CONTINUOUS
 10
83.5
 20
188.849239
 30
0.0
 11
85.650758
 21
190.999997
 31
0.0
  0
LINE
  5
1CA56
  8
DANMEN
  6
CONTINUOUS
 10
83.5
 20
190.970559
 30
0.0
 11
83.529437
 21
190.999997
 31
0.0
  0
LINE
  5
1CA57
  8
DANMEN
  6
CONTINUOUS
 10
83.5
 20
188.500001
 30
0.0
 11
83.5
 21
193.0
 31
0.0
  0
LINE
  5
1CA59
  8
DANMEN
  6
CONTINUOUS
 10
90.265879
 20
187.129837
 30
0.0
 11
91.349997
 21
188.213955
 31
0.0
  0
LINE
  5
1CA5A
  8
DANMEN
  6
CONTINUOUS
 10
91.349997
 20
189.907359
 30
0.0
 11
90.257359
 21
190.999997
 31
0.0
  0
LINE
  5
1CA5B
  8
DANMEN
  6
CONTINUOUS
 10
91.349997
 20
187.786038
 30
0.0
 11
88.136039
 21
190.999997
 31
0.0
  0
LINE
  5
1CA5C
  8
DANMEN
  6
CONTINUOUS
 10
88.371438
 20
187.356715
 30
0.0
 11
91.349997
 21
190.335275
 31
0.0
  0
ARC
  5
1CA5E
  8
DANMEN
  6
CONTINUOUS
 10
87.309908
 20
210.499997
 30
0.0
 40
0.5
 50
191.309932
 51
270.0
  0
ARC
  5
1CA5F
  8
DANMEN
  6
CONTINUOUS
 10
83.6
 20
210.289403
 30
0.0
 40
0.5
 50
143.491208
 51
180.0
  0
LINE
  5
1CA60
  8
DANMEN
  6
CONTINUOUS
 10
84.7
 20
206.699997
 30
0.0
 11
84.7
 21
210.598914
 31
0.0
  0
LINE
  5
1CA61
  8
DANMEN
  6
CONTINUOUS
 10
82.65
 20
209.999997
 30
0.0
 11
82.65
 21
215.999997
 31
0.0
  0
LINE
  5
1CA62
  8
DANMEN
  6
CONTINUOUS
 10
86.500006
 20
211.999997
 30
0.0
 11
86.819618
 21
210.401939
 31
0.0
  0
LINE
  5
1CA63
  8
DANMEN
  6
CONTINUOUS
 10
82.5
 20
207.699997
 30
0.0
 11
83.5
 21
207.699997
 31
0.0
  0
ARC
  5
1CA64
  8
DANMEN
  6
CONTINUOUS
 10
83.45
 20
205.699997
 30
0.0
 40
0.5
 50
90.0
 51
180.0
  0
LINE
  5
1CA65
  8
DANMEN
  6
CONTINUOUS
 10
83.2
 20
209.999997
 30
0.0
 11
82.65
 21
209.999997
 31
0.0
  0
ARC
  5
1CA66
  8
DANMEN
  6
CONTINUOUS
 10
82.707801
 20
208.499997
 30
0.0
 40
0.5
 50
270.0
 51
330.603827
  0
LINE
  5
1CA67
  8
DANMEN
  6
CONTINUOUS
 10
82.5
 20
207.699997
 30
0.0
 11
82.5
 21
207.999997
 31
0.0
  0
LINE
  5
1CA68
  8
DANMEN
  6
CONTINUOUS
 10
81.0
 20
207.999997
 30
0.0
 11
82.5
 21
207.999997
 31
0.0
  0
LINE
  5
1CA69
  8
DANMEN
  6
CONTINUOUS
 10
81.0
 20
207.999997
 30
0.0
 11
82.707801
 21
207.999997
 31
0.0
  0
ARC
  5
1CA6B
  8
DANMEN
  6
CONTINUOUS
 10
83.4
 20
210.265682
 30
0.0
 40
0.3
 50
180.0
 51
250.528779
  0
ARC
  5
1CA6D
  8
DANMEN
  6
CONTINUOUS
 10
83.2
 20
209.699997
 30
0.0
 40
0.3
 50
0.0
 51
70.528779
  0
LINE
  5
1CA6E
  8
DANMEN
  6
CONTINUOUS
 10
83.1
 20
210.265682
 30
0.0
 11
83.1
 21
210.289403
 31
0.0
  0
ARC
  5
1CA6F
  8
DANMEN
  6
CONTINUOUS
 10
84.2
 20
206.699997
 30
0.0
 40
0.5
 50
270.0
 51
0.0
  0
LINE
  5
1CA70
  8
DANMEN
  6
CONTINUOUS
 10
83.45
 20
206.199997
 30
0.0
 11
84.2
 21
206.199997
 31
0.0
  0
LINE
  5
1CA71
  8
DANMEN
  6
CONTINUOUS
 10
83.5
 20
207.699997
 30
0.0
 11
83.5
 21
209.699997
 31
0.0
  0
ARC
  5
1CA72
  8
DANMEN
  6
CONTINUOUS
 10
83.2
 20
209.699997
 30
0.0
 40
0.3
 50
0.0
 51
90.0
  0
LINE
  5
1CA73
  8
DANMEN
  6
CONTINUOUS
 10
83.5
 20
208.996242
 30
0.0
 11
83.143425
 21
208.254574
 31
0.0
  0
LINE
  5
1CA74
  8
DANMEN
  6
CONTINUOUS
 10
83.5
 20
209.699997
 30
0.0
 11
83.5
 21
208.996242
 31
0.0
  0
LINE
  5
1CA75
  8
DANMEN
  6
CONTINUOUS
 10
82.65
 20
215.999997
 30
0.0
 11
86.500006
 21
215.999997
 31
0.0
  0
ARC
  5
1CA76
  8
DANMEN
  6
CONTINUOUS
 10
85.099864
 20
214.757527
 30
0.0
 40
0.5
 50
180.0
 51
235.297378
  0
ARC
  5
1CA77
  8
DANMEN
  6
CONTINUOUS
 10
85.160578
 20
213.742386
 30
0.0
 40
0.3
 50
323.491208
 51
55.297378
  0
LINE
  5
1CA78
  8
DANMEN
  6
CONTINUOUS
 10
84.815206
 20
214.346468
 30
0.0
 11
85.331373
 21
213.989022
 31
0.0
  0
LINE
  5
1CA79
  8
DANMEN
  6
CONTINUOUS
 10
83.198117
 20
210.586876
 30
0.0
 11
85.401708
 21
213.563902
 31
0.0
  0
ARC
  5
1CA7A
  8
DANMEN
  6
CONTINUOUS
 10
85.099864
 20
215.000891
 30
0.0
 40
0.5
 50
90.0
 51
180.0
  0
ARC
  5
1CA7B
  8
DANMEN
  6
CONTINUOUS
 10
85.099734
 20
215.000891
 30
0.0
 40
0.5
 50
55.297378
 51
90.0
  0
LINE
  5
1CA7C
  8
DANMEN
  6
CONTINUOUS
 10
84.599864
 20
215.000891
 30
0.0
 11
84.599864
 21
214.757527
 31
0.0
  0
LINE
  5
1CA7D
  8
DANMEN
  6
CONTINUOUS
 10
85.099734
 20
215.500891
 30
0.0
 11
85.099864
 21
215.500891
 31
0.0
  0
LINE
  5
1CA7E
  8
DANMEN
  6
CONTINUOUS
 10
84.7
 20
210.598914
 30
0.0
 11
86.7
 21
213.300891
 31
0.0
  0
LINE
  5
1CA7F
  8
DANMEN
  6
CONTINUOUS
 10
85.384392
 20
215.41195
 30
0.0
 11
86.7
 21
214.500891
 31
0.0
  0
LINE
  5
1CA80
  8
DANMEN
  6
CONTINUOUS
 10
86.7
 20
213.300891
 30
0.0
 11
86.7
 21
214.500891
 31
0.0
  0
LINE
  5
1CA81
  8
DANMEN
  6
CONTINUOUS
 10
86.500006
 20
211.999997
 30
0.0
 11
86.500006
 21
215.999997
 31
0.0
  0
LINE
  5
1CA82
  8
DANMEN
  6
CONTINUOUS
 10
87.700006
 20
209.999997
 30
0.0
 11
87.700006
 21
215.499997
 31
0.0
  0
LINE
  5
1CA83
  8
DANMEN
  6
CONTINUOUS
 10
87.309908
 20
209.999997
 30
0.0
 11
87.700006
 21
209.999997
 31
0.0
  0
LINE
  5
1CA84
  8
DANMEN
  6
CONTINUOUS
 10
115.150003
 20
199.499997
 30
0.0
 11
115.150003
 21
189.649994
 31
0.0
  0
LINE
  5
1CA85
  8
DANMEN
  6
CONTINUOUS
 10
116.8
 20
209.499997
 30
0.0
 11
116.8
 21
188.499997
 31
0.0
  0
LINE
  5
1CA86
  8
DANMEN
  6
CONTINUOUS
 10
119.0
 20
209.499997
 30
0.0
 11
119.0
 21
172.0
 31
0.0
  0
LINE
  5
1CA87
  8
DANMEN
  6
CONTINUOUS
 10
103.65
 20
202.999997
 30
0.0
 11
103.65
 21
172.0
 31
0.0
  0
LINE
  5
1CA88
  8
DANMEN
  6
CONTINUOUS
 10
116.8
 20
209.499997
 30
0.0
 11
116.8
 21
172.0
 31
0.0
  0
LINE
  5
1CA89
  8
DANMEN
  6
CONTINUOUS
 10
111.999967
 20
187.999998
 30
0.0
 11
111.999967
 21
172.0
 31
0.0
  0
LINE
  5
1CA8A
  8
DANMEN
  6
CONTINUOUS
 10
103.65
 20
186.999994
 30
0.0
 11
112.000005
 21
187.999994
 31
0.0
  0
LINE
  5
1CA8B
  8
DANMEN
  6
CONTINUOUS
 10
111.999985
 20
192.999997
 30
0.0
 11
111.5
 21
192.999997
 31
0.0
  0
ARC
  5
1CA8C
  8
DANMEN
  6
CONTINUOUS
 10
112.0
 20
188.499997
 30
0.0
 40
0.5
 50
179.999963
 51
269.999981
  0
LINE
  5
1CA8D
  8
DANMEN
  6
CONTINUOUS
 10
104.734121
 20
187.129837
 30
0.0
 11
103.649996
 21
188.213962
 31
0.0
  0
LINE
  5
1CA8E
  8
DANMEN
  6
CONTINUOUS
 10
105.166959
 20
187.181674
 30
0.0
 11
108.985281
 21
190.999997
 31
0.0
  0
LINE
  5
1CA8F
  8
DANMEN
  6
CONTINUOUS
 10
110.417445
 20
187.810473
 30
0.0
 11
107.227922
 21
190.999997
 31
0.0
  0
LINE
  5
1CA90
  8
DANMEN
  6
CONTINUOUS
 10
108.523004
 20
187.583595
 30
0.0
 11
105.106602
 21
190.999997
 31
0.0
  0
LINE
  5
1CA91
  8
DANMEN
  6
CONTINUOUS
 10
107.576893
 20
187.470288
 30
0.0
 11
111.106602
 21
190.999997
 31
0.0
  0
LINE
  5
1CA92
  8
DANMEN
  6
CONTINUOUS
 10
106.628562
 20
187.356716
 30
0.0
 11
103.649996
 21
190.335282
 31
0.0
  0
LINE
  5
1CA93
  8
DANMEN
  6
CONTINUOUS
 10
103.649996
 20
187.786031
 30
0.0
 11
106.863961
 21
190.999997
 31
0.0
  0
LINE
  5
1CA94
  8
DANMEN
  6
CONTINUOUS
 10
103.649996
 20
189.907352
 30
0.0
 11
104.742641
 21
190.999997
 31
0.0
  0
LINE
  5
1CA96
  8
DANMEN
  6
CONTINUOUS
 10
111.5
 20
190.970559
 30
0.0
 11
111.470563
 21
190.999997
 31
0.0
  0
LINE
  5
1CA97
  8
DANMEN
  6
CONTINUOUS
 10
111.5
 20
188.849239
 30
0.0
 11
109.349242
 21
190.999997
 31
0.0
  0
LINE
  5
1CA98
  8
DANMEN
  6
CONTINUOUS
 10
109.986828
 20
187.758903
 30
0.0
 11
111.5
 21
189.272074
 31
0.0
  0
LINE
  5
1CA9A
  8
DANMEN
  6
CONTINUOUS
 10
111.5
 20
188.499997
 30
0.0
 11
111.5
 21
192.999997
 31
0.0
  0
LINE
  5
1CA9B
  8
DANMEN
  6
CONTINUOUS
 10
116.3
 20
187.999997
 30
0.0
 11
112.0
 21
187.999997
 31
0.0
  0
LINE
  5
1CA9C
  8
DANMEN
  6
CONTINUOUS
 10
115.150003
 20
189.649994
 30
0.0
 11
112.499985
 21
189.649994
 31
0.0
  0
LINE
  5
1CA9D
  8
DANMEN
  6
CONTINUOUS
 10
112.499985
 20
189.649994
 30
0.0
 11
112.499985
 21
192.499997
 31
0.0
  0
ARC
  5
1CA9E
  8
DANMEN
  6
CONTINUOUS
 10
111.999985
 20
192.499997
 30
0.0
 40
0.5
 50
0.0
 51
90.0
  0
ARC
  5
1CAA1
  8
DANMEN
  6
CONTINUOUS
 10
116.3
 20
188.499997
 30
0.0
 40
0.5
 50
270.0
 51
0.0
  0
LINE
  5
1CAA2
  8
DANMEN
  6
CONTINUOUS
 10
130.2
 20
212.578484
 30
0.0
 11
111.687844
 21
214.000834
 31
0.0
  0
LINE
  5
1CAA3
  8
DANMEN
  6
CONTINUOUS
 10
110.500003
 20
209.499997
 30
0.0
 11
130.2
 21
209.499997
 31
0.0
  0
LINE
  5
1CAA4
  8
DANMEN
  6
CONTINUOUS
 10
115.150003
 20
209.349997
 30
0.0
 11
115.150003
 21
200.499997
 31
0.0
  0
ARC
  5
1CAA5
  8
DANMEN
  6
CONTINUOUS
 10
112.0
 20
201.499997
 30
0.0
 40
0.5
 50
359.999982
 51
180.000001
  0
ARC
  5
1CAA6
  8
DANMEN
  6
CONTINUOUS
 10
112.0
 20
198.499997
 30
0.0
 40
0.5
 50
180.000018
 51
359.999982
  0
LINE
  5
1CAA7
  8
DANMEN
  6
CONTINUOUS
 10
111.5
 20
201.499997
 30
0.0
 11
111.5
 21
198.499997
 31
0.0
  0
LINE
  5
1CAA9
  8
DANMEN
  6
CONTINUOUS
 10
112.5
 20
199.499997
 30
0.0
 11
112.5
 21
198.499997
 31
0.0
  0
LINE
  5
1CAAA
  8
DANMEN
  6
CONTINUOUS
 10
115.150003
 20
200.499997
 30
0.0
 11
112.5
 21
200.499997
 31
0.0
  0
LINE
  5
1CAAB
  8
DANMEN
  6
CONTINUOUS
 10
115.150003
 20
199.499997
 30
0.0
 11
112.5
 21
199.499997
 31
0.0
  0
LINE
  5
1CAAC
  8
DANMEN
  6
CONTINUOUS
 10
112.5
 20
201.499997
 30
0.0
 11
112.5
 21
200.499997
 31
0.0
  0
LINE
  5
1CAAD
  8
DANMEN
  6
CONTINUOUS
 10
110.2
 20
210.999997
 30
0.0
 11
118.0
 21
210.999997
 31
0.0
  0
LINE
  5
1CAAE
  8
DANMEN
  6
CONTINUOUS
 10
109.05
 20
209.349997
 30
0.0
 11
115.150003
 21
209.349997
 31
0.0
  0
LINE
  5
1CAAF
  8
DANMEN
  6
CONTINUOUS
 10
108.55
 20
209.849997
 30
0.0
 11
108.55
 21
215.499997
 31
0.0
  0
LINE
  5
1CAB0
  8
DANMEN
  6
CONTINUOUS
 10
110.500003
 20
209.499997
 30
0.0
 11
110.500003
 21
214.016225
 31
0.0
  0
LINE
  5
1CAB1
  8
DANMEN
  6
CONTINUOUS
 10
110.2
 20
209.499997
 30
0.0
 11
110.2
 21
213.999997
 31
0.0
  0
ARC
  5
1CAB2
  8
DANMEN
  6
CONTINUOUS
 10
109.05
 20
209.849997
 30
0.0
 40
0.5
 50
180.0
 51
270.0
  0
ARC
  5
1CAB9
  8
DANMEN
  6
CONTINUOUS
 10
118.0
 20
209.999997
 30
0.0
 40
1.0
 50
0.0
 51
90.0
  0
LINE
  5
1CABA
  8
DANMEN
  6
CONTINUOUS
 10
119.0
 20
209.999997
 30
0.0
 11
119.0
 21
209.499997
 31
0.0
  0
LINE
  5
1CABB
  8
DANMEN
  6
CONTINUOUS
 10
116.8
 20
209.499997
 30
0.0
 11
119.0
 21
209.499997
 31
0.0
  0
ARC
  5
1CABC
  8
DANMEN
  6
CONTINUOUS
 10
186.500003
 20
170.5
 30
0.0
 40
0.5
 50
270.000018
 51
359.999981
  0
ARC
  5
1CABD
  8
DANMEN
  6
CONTINUOUS
 10
162.500003
 20
170.5
 30
0.0
 40
0.5
 50
180.000036
 51
269.999963
  0
LINE
  5
1CABE
  8
DANMEN
  6
CONTINUOUS
 10
163.649994
 20
151.350006
 30
0.0
 11
170.350006
 21
151.350006
 31
0.0
  0
LINE
  5
1CABF
  8
DANMEN
  6
CONTINUOUS
 10
162.5
 20
153.0
 30
0.0
 11
186.5
 21
153.0
 31
0.0
  0
ARC
  5
1CAC0
  8
DANMEN
  6
CONTINUOUS
 10
162.5
 20
152.5
 30
0.0
 40
0.5
 50
89.999982
 51
180.000019
  0
ARC
  5
1CAC4
  8
DANMEN
  6
CONTINUOUS
 10
163.149994
 20
147.5
 30
0.0
 40
0.5
 50
270.000018
 51
359.999981
  0
ARC
  5
1CAC5
  8
DANMEN
  6
CONTINUOUS
 10
162.5
 20
147.5
 30
0.0
 40
0.5
 50
180.000036
 51
269.999963
  0
LINE
  5
1CAC6
  8
DANMEN
  6
CONTINUOUS
 10
163.649994
 20
151.350006
 30
0.0
 11
163.649994
 21
147.5
 31
0.0
  0
LINE
  5
1CAC7
  8
DANMEN
  6
CONTINUOUS
 10
162.5
 20
147.0
 30
0.0
 11
163.149994
 21
147.0
 31
0.0
  0
LINE
  5
1CAC8
  8
DANMEN
  6
CONTINUOUS
 10
162.0
 20
152.5
 30
0.0
 11
162.0
 21
147.5
 31
0.0
  0
LINE
  5
1CACA
  8
DANMEN
  6
CONTINUOUS
 10
172.0
 20
151.9
 30
0.0
 11
172.0
 21
133.3
 31
0.0
  0
LINE
  5
1CACB
  8
DANMEN
  6
CONTINUOUS
 10
185.156621
 20
124.1
 30
0.0
 11
187.999997
 21
124.1
 31
0.0
  0
LINE
  5
1CACC
  8
DANMEN
  6
CONTINUOUS
 10
185.156621
 20
143.9
 30
0.0
 11
187.999997
 21
143.9
 31
0.0
  0
LINE
  5
1CACD
  8
DANMEN
  6
CONTINUOUS
 10
172.0
 20
135.5
 30
0.0
 11
188.0
 21
135.5
 31
0.0
  0
LINE
  5
1CACE
  8
DANMEN
  6
CONTINUOUS
 10
172.0
 20
140.5
 30
0.0
 11
188.0
 21
140.5
 31
0.0
  0
LINE
  5
1CACF
  8
DANMEN
  6
CONTINUOUS
 10
181.050996
 20
134.0
 30
0.0
 11
176.850995
 21
133.3
 31
0.0
  0
LINE
  5
1CAD0
  8
DANMEN
  6
CONTINUOUS
 10
182.164402
 20
132.360739
 30
0.0
 11
177.081604
 21
131.513606
 31
0.0
  0
LINE
  5
1CAD1
  8
DANMEN
  6
CONTINUOUS
 10
176.199997
 20
125.443494
 30
0.0
 11
185.156621
 21
124.1
 31
0.0
  0
ARC
  5
1CAD2
  8
DANMEN
  6
CONTINUOUS
 10
173.47351
 20
126.101146
 30
0.0
 40
0.6
 50
23.0
 51
273.528779
  0
LINE
  5
1CAD7
  8
DANMEN
  6
CONTINUOUS
 10
175.499997
 20
126.5
 30
0.0
 11
176.199994
 21
126.5
 31
0.0
  0
LINE
  5
1CAD8
  8
DANMEN
  6
CONTINUOUS
 10
174.999997
 20
126.0
 30
0.0
 11
174.999997
 21
124.361191
 31
0.0
  0
LINE
  5
1CAD9
  8
DANMEN
  6
CONTINUOUS
 10
176.199997
 20
126.5
 30
0.0
 11
176.199997
 21
125.443494
 31
0.0
  0
ARC
  5
1CADB
  8
DANMEN
  6
CONTINUOUS
 10
175.499997
 20
126.0
 30
0.0
 40
0.5
 50
90.0
 51
180.0
  0
LINE
  5
1CADE
  8
DANMEN
  6
CONTINUOUS
 10
172.0
 20
133.3
 30
0.0
 11
176.850995
 21
133.3
 31
0.0
  0
LINE
  5
1CADF
  8
DANMEN
  6
CONTINUOUS
 10
172.0
 20
131.5
 30
0.0
 11
176.917205
 21
131.5
 31
0.0
  0
ARC
  5
1CAE3
  8
DANMEN
  6
CONTINUOUS
 10
176.917205
 20
132.5
 30
0.0
 40
1.0
 50
270.000018
 51
279.462343
  0
LINE
  5
1CAE7
  8
DANMEN
  6
CONTINUOUS
 10
181.050996
 20
134.0
 30
0.0
 11
182.5
 21
134.0
 31
0.0
  0
ARC
  5
1CAE9
  8
DANMEN
  6
CONTINUOUS
 10
182.5
 20
133.5
 30
0.0
 40
0.5
 50
0.0
 51
89.999982
  0
ARC
  5
1CAEB
  8
DANMEN
  6
CONTINUOUS
 10
182.0
 20
133.347137
 30
0.0
 40
1.0
 50
279.462343
 51
0.000285
  0
LINE
  5
1CAEE
  8
DANMEN
  6
CONTINUOUS
 10
183.0
 20
133.5
 30
0.0
 11
183.0
 21
133.347137
 31
0.0
  0
LINE
  5
1CAEF
  8
DANMEN
  6
CONTINUOUS
 10
175.851656
 20
144.627749
 30
0.0
 11
184.963118
 21
145.994468
 31
0.0
  0
LINE
  5
1CAF0
  8
DANMEN
  6
CONTINUOUS
 10
176.199997
 20
142.556506
 30
0.0
 11
185.156621
 21
143.9
 31
0.0
  0
LINE
  5
1CAF1
  8
DANMEN
  6
CONTINUOUS
 10
172.0
 20
146.0
 30
0.0
 11
184.999936
 21
146.0
 31
0.0
  0
ARC
  5
1CAF4
  8
DANMEN
  6
CONTINUOUS
 10
175.999997
 20
143.638813
 30
0.0
 40
1.0
 50
98.530766
 51
180.0
  0
ARC
  5
1CAF6
  8
DANMEN
  6
CONTINUOUS
 10
175.499997
 20
142.0
 30
0.0
 40
0.5
 50
180.0
 51
270.0
  0
LINE
  5
1CAF8
  8
DANMEN
  6
CONTINUOUS
 10
176.199997
 20
141.5
 30
0.0
 11
176.199997
 21
142.556506
 31
0.0
  0
LINE
  5
1CAF9
  8
DANMEN
  6
CONTINUOUS
 10
174.999997
 20
142.0
 30
0.0
 11
174.999997
 21
143.638809
 31
0.0
  0
LINE
  5
1CAFA
  8
DANMEN
  6
CONTINUOUS
 10
175.499997
 20
141.5
 30
0.0
 11
176.199994
 21
141.5
 31
0.0
  0
ARC
  5
1CAFD
  8
DANMEN
  6
CONTINUOUS
 10
185.037288
 20
145.5
 30
0.0
 40
0.5
 50
90.0
 51
98.530766
  0
LINE
  5
1CAFF
  8
DANMEN
  6
CONTINUOUS
 10
187.999997
 20
143.9
 30
0.0
 11
187.999997
 21
124.1
 31
0.0
  0
LINE
  5
1CB00
  8
DANMEN
  6
CONTINUOUS
 10
189.949997
 20
144.05
 30
0.0
 11
189.949997
 21
123.95
 31
0.0
  0
LINE
  5
1CB01
  8
DANMEN
  6
CONTINUOUS
 10
190.337863
 20
129.153542
 30
0.0
 11
192.396454
 21
131.212133
 31
0.0
  0
ARC
  5
1CB03
  8
DANMEN
  6
CONTINUOUS
 10
190.549997
 20
128.941409
 30
0.0
 40
0.3
 50
135.000055
 51
180.000073
  0
ARC
  5
1CB07
  8
DANMEN
  6
CONTINUOUS
 10
192.608588
 20
131.0
 30
0.0
 40
0.3
 50
89.999927
 51
134.999946
  0
LINE
  5
1CB0A
  8
DANMEN
  6
CONTINUOUS
 10
193.499994
 20
131.3
 30
0.0
 11
192.608588
 21
131.3
 31
0.0
  0
LINE
  5
1CB0B
  8
DANMEN
  6
CONTINUOUS
 10
198.749994
 20
126.3
 30
0.0
 11
197.249994
 21
126.3
 31
0.0
  0
ARC
  5
1CB0E
  8
DANMEN
  6
CONTINUOUS
 10
197.249994
 20
123.8
 30
0.0
 40
2.5
 50
90.000036
 51
173.938799
  0
ARC
  5
1CB15
  8
DANMEN
  6
CONTINUOUS
 10
198.749994
 20
123.8
 30
0.0
 40
2.5
 50
6.061201
 51
90.000019
  0
LINE
  5
1CB1E
  8
DANMEN
  6
CONTINUOUS
 10
174.0
 20
151.350006
 30
0.0
 11
186.5
 21
151.350006
 31
0.0
  0
LINE
  5
1CB1F
  8
DANMEN
  6
CONTINUOUS
 10
172.0
 20
151.9
 30
0.0
 11
174.0
 21
151.9
 31
0.0
  0
LINE
  5
1CB23
  8
DANMEN
  6
CONTINUOUS
 10
174.0
 20
151.9
 30
0.0
 11
174.0
 21
151.350006
 31
0.0
  0
ARC
  5
1CB25
  8
DANMEN
  6
CONTINUOUS
 10
186.5
 20
152.5
 30
0.0
 40
0.5
 50
359.999981
 51
89.999982
  0
ARC
  5
1CB27
  8
DANMEN
  6
CONTINUOUS
 10
186.5
 20
151.850006
 30
0.0
 40
0.5
 50
270.000018
 51
359.999981
  0
LINE
  5
1CB28
  8
DANMEN
  6
CONTINUOUS
 10
187.0
 20
152.5
 30
0.0
 11
187.0
 21
151.850006
 31
0.0
  0
LINE
  5
1CB2B
  8
DANMEN
  6
CONTINUOUS
 10
162.500003
 20
170.0
 30
0.0
 11
186.500003
 21
170.0
 31
0.0
  0
LINE
  5
1CB2C
  8
DANMEN
  6
CONTINUOUS
 10
163.649997
 20
171.649994
 30
0.0
 11
170.350009
 21
171.649994
 31
0.0
  0
ARC
  5
1CB2D
  8
DANMEN
  6
CONTINUOUS
 10
162.500003
 20
175.5
 30
0.0
 40
0.5
 50
89.999982
 51
180.000019
  0
ARC
  5
1CB2E
  8
DANMEN
  6
CONTINUOUS
 10
163.149997
 20
175.5
 30
0.0
 40
0.5
 50
359.999981
 51
89.999982
  0
LINE
  5
1CB31
  8
DANMEN
  6
CONTINUOUS
 10
163.649997
 20
175.5
 30
0.0
 11
163.649997
 21
171.649994
 31
0.0
  0
LINE
  5
1CB32
  8
DANMEN
  6
CONTINUOUS
 10
162.000003
 20
175.5
 30
0.0
 11
162.000003
 21
170.5
 31
0.0
  0
LINE
  5
1CB35
  8
DANMEN
  6
CONTINUOUS
 10
162.500003
 20
176.0
 30
0.0
 11
163.149997
 21
176.0
 31
0.0
  0
LINE
  5
1CB36
  8
DANMEN
  6
CONTINUOUS
 10
172.000003
 20
202.5
 30
0.0
 11
172.000003
 21
171.1
 31
0.0
  0
LINE
  5
1CB37
  8
DANMEN
  6
PHANTOM
 10
201.5
 20
209.000003
 30
0.0
 11
201.5
 21
171.500003
 31
0.0
  0
LINE
  5
1CB38
  8
DANMEN
  6
CONTINUOUS
 10
174.000003
 20
171.649994
 30
0.0
 11
186.500003
 21
171.649994
 31
0.0
  0
LINE
  5
1CB39
  8
DANMEN
  6
CONTINUOUS
 10
172.000003
 20
171.1
 30
0.0
 11
174.000003
 21
171.1
 31
0.0
  0
LINE
  5
1CB3D
  8
DANMEN
  6
CONTINUOUS
 10
174.000003
 20
171.649994
 30
0.0
 11
174.000003
 21
171.1
 31
0.0
  0
ARC
  5
1CB41
  8
DANMEN
  6
CONTINUOUS
 10
186.500003
 20
171.149994
 30
0.0
 40
0.5
 50
359.999981
 51
89.999982
  0
LINE
  5
1CB42
  8
DANMEN
  6
CONTINUOUS
 10
187.000003
 20
171.149994
 30
0.0
 11
187.000003
 21
170.5
 31
0.0
  0
ARC
  5
1CB43
  8
DANMEN
  6
PHANTOM
 10
234.0
 20
171.500003
 30
0.0
 40
32.5
 50
180.0
 51
182.64536
  0
LINE
  5
1CB44
  8
DANMEN
  6
CONTINUOUS
 10
185.156624
 20
211.1
 30
0.0
 11
188.0
 21
211.1
 31
0.0
  0
LINE
  5
1CB45
  8
DANMEN
  6
CONTINUOUS
 10
180.150004
 20
204.8
 30
0.0
 11
179.350004
 21
204.0
 31
0.0
  0
LINE
  5
1CB46
  8
DANMEN
  6
CONTINUOUS
 10
181.850003
 20
204.8
 30
0.0
 11
182.650003
 21
204.0
 31
0.0
  0
LINE
  5
1CB47
  8
DANMEN
  6
CONTINUOUS
 10
178.150003
 20
204.8
 30
0.0
 11
178.150003
 21
204.2
 31
0.0
  0
LINE
  5
1CB48
  8
DANMEN
  6
CONTINUOUS
 10
183.850004
 20
204.8
 30
0.0
 11
183.850004
 21
204.2
 31
0.0
  0
LINE
  5
1CB49
  8
DANMEN
  6
CONTINUOUS
 10
184.000001
 20
205.199997
 30
0.0
 11
184.000001
 21
203.6
 31
0.0
  0
LINE
  5
1CB4A
  8
DANMEN
  6
CONTINUOUS
 10
177.000003
 20
205.5
 30
0.0
 11
177.000003
 21
203.6
 31
0.0
  0
LINE
  5
1CB4B
  8
DANMEN
  6
CONTINUOUS
 10
185.000003
 20
205.5
 30
0.0
 11
185.000003
 21
203.0
 31
0.0
  0
LINE
  5
1CB4C
  8
DANMEN
  6
CONTINUOUS
 10
177.800003
 20
205.199997
 30
0.0
 11
177.800003
 21
203.6
 31
0.0
  0
LINE
  5
1CB4D
  8
DANMEN
  6
CONTINUOUS
 10
172.000003
 20
202.5
 30
0.0
 11
184.500003
 21
202.5
 31
0.0
  0
LINE
  5
1CB4E
  8
DANMEN
  6
CONTINUOUS
 10
172.000003
 20
203.6
 30
0.0
 11
177.000003
 21
203.6
 31
0.0
  0
LINE
  5
1CB52
  8
DANMEN
  6
CONTINUOUS
 10
177.800003
 20
203.6
 30
0.0
 11
184.000001
 21
203.6
 31
0.0
  0
ARC
  5
1CB54
  8
DANMEN
  6
CONTINUOUS
 10
178.350003
 20
204.2
 30
0.0
 40
0.2
 50
180.000019
 51
270.000001
  0
LINE
  5
1CB58
  8
DANMEN
  6
CONTINUOUS
 10
178.350003
 20
204.0
 30
0.0
 11
179.350004
 21
204.0
 31
0.0
  0
ARC
  5
1CB5B
  8
DANMEN
  6
CONTINUOUS
 10
183.650004
 20
204.2
 30
0.0
 40
0.2
 50
270.000018
 51
0.0
  0
LINE
  5
1CB5E
  8
DANMEN
  6
CONTINUOUS
 10
182.650003
 20
204.0
 30
0.0
 11
183.650004
 21
204.0
 31
0.0
  0
ARC
  5
1CB61
  8
DANMEN
  6
CONTINUOUS
 10
184.500003
 20
203.0
 30
0.0
 40
0.5
 50
270.000018
 51
0.0
  0
LINE
  5
1CB63
  8
DANMEN
  6
CONTINUOUS
 10
176.800004
 20
206.8
 30
0.0
 11
184.200004
 21
206.8
 31
0.0
  0
LINE
  5
1CB64
  8
DANMEN
  6
CONTINUOUS
 10
176.270495
 20
206.0
 30
0.0
 11
179.350004
 21
206.0
 31
0.0
  0
ARC
  5
1CB65
  8
DANMEN
  6
CONTINUOUS
 10
177.500003
 20
205.5
 30
0.0
 40
0.5
 50
90.000037
 51
180.000019
  0
LINE
  5
1CB66
  8
DANMEN
  6
CONTINUOUS
 10
176.2
 20
212.443494
 30
0.0
 11
185.156624
 21
211.1
 31
0.0
  0
LINE
  5
1CB67
  8
DANMEN
  6
CONTINUOUS
 10
175.85166
 20
210.372251
 30
0.0
 11
184.963121
 21
209.005532
 31
0.0
  0
LINE
  5
1CB68
  8
DANMEN
  6
CONTINUOUS
 10
172.0
 20
206.0
 30
0.0
 11
177.5
 21
206.0
 31
0.0
  0
LINE
  5
1CB69
  8
DANMEN
  6
CONTINUOUS
 10
173.51044
 20
212.502283
 30
0.0
 11
176.270495
 21
206.0
 31
0.0
  0
LINE
  5
1CB6A
  8
DANMEN
  6
CONTINUOUS
 10
174.025813
 20
213.335584
 30
0.0
 11
176.800004
 21
206.8
 31
0.0
  0
ARC
  5
1CB6B
  8
DANMEN
  6
CONTINUOUS
 10
176.0
 20
211.361187
 30
0.0
 40
1.0
 50
180.0
 51
261.469234
  0
ARC
  5
1CB71
  8
DANMEN
  6
CONTINUOUS
 10
173.47351
 20
213.101146
 30
0.0
 40
0.6
 50
23.0
 51
273.528779
  0
ARC
  5
1CB79
  8
DANMEN
  6
CONTINUOUS
 10
175.5
 20
213.0
 30
0.0
 40
0.5
 50
90.0
 51
180.0
  0
LINE
  5
1CB7B
  8
DANMEN
  6
CONTINUOUS
 10
176.2
 20
213.5
 30
0.0
 11
176.2
 21
212.443494
 31
0.0
  0
LINE
  5
1CB7C
  8
DANMEN
  6
CONTINUOUS
 10
175.0
 20
213.0
 30
0.0
 11
175.0
 21
211.361191
 31
0.0
  0
LINE
  5
1CB7D
  8
DANMEN
  6
CONTINUOUS
 10
175.5
 20
213.5
 30
0.0
 11
176.199997
 21
213.5
 31
0.0
  0
LINE
  5
1CB7E
  8
DANMEN
  6
CONTINUOUS
 10
180.150004
 20
204.8
 30
0.0
 11
181.850003
 21
204.8
 31
0.0
  0
LINE
  5
1CB7F
  8
DANMEN
  6
CONTINUOUS
 10
184.895163
 20
207.842413
 30
0.0
 11
180.246848
 21
209.722891
 31
0.0
  0
LINE
  5
1CB80
  8
DANMEN
  6
CONTINUOUS
 10
183.878862
 20
207.390573
 30
0.0
 11
181.335668
 21
208.419423
 31
0.0
  0
LINE
  5
1CB84
  8
DANMEN
  6
CONTINUOUS
 10
179.350004
 20
206.0
 30
0.0
 11
179.350004
 21
205.0
 31
0.0
  0
ARC
  5
1CB85
  8
DANMEN
  6
CONTINUOUS
 10
178.350003
 20
204.8
 30
0.0
 40
0.2
 50
89.999982
 51
180.000019
  0
LINE
  5
1CB87
  8
DANMEN
  6
CONTINUOUS
 10
178.350003
 20
205.0
 30
0.0
 11
179.350004
 21
205.0
 31
0.0
  0
ARC
  5
1CB88
  8
DANMEN
  6
CONTINUOUS
 10
180.096838
 20
209.352085
 30
0.0
 40
0.4
 50
67.974191
 51
247.974191
  0
ARC
  5
1CB8A
  8
DANMEN
  6
CONTINUOUS
 10
179.312974
 20
206.949886
 30
0.0
 40
0.25
 50
131.738105
 51
311.738105
  0
LINE
  5
1CB8C
  8
DANMEN
  6
CONTINUOUS
 10
180.578995
 20
208.414414
 30
0.0
 11
179.146542
 21
207.136435
 31
0.0
  0
LINE
  5
1CB8D
  8
DANMEN
  6
CONTINUOUS
 10
181.335668
 20
208.419423
 30
0.0
 11
179.479406
 21
206.763337
 31
0.0
  0
LINE
  5
1CB92
  8
DANMEN
  6
CONTINUOUS
 10
180.520855
 20
208.749056
 30
0.0
 11
179.946828
 21
208.981279
 31
0.0
  0
ARC
  5
1CB93
  8
DANMEN
  6
CONTINUOUS
 10
180.44585
 20
208.563653
 30
0.0
 40
0.2
 50
311.738105
 51
67.974191
  0
ARC
  5
1CB99
  8
DANMEN
  6
CONTINUOUS
 10
178.7
 20
205.5
 30
0.0
 40
0.5
 50
359.999981
 51
90.000037
  0
LINE
  5
1CB9A
  8
DANMEN
  6
CONTINUOUS
 10
177.800003
 20
205.199997
 30
0.0
 11
179.2
 21
205.199997
 31
0.0
  0
LINE
  5
1CB9B
  8
DANMEN
  6
CONTINUOUS
 10
179.200004
 20
205.499999
 30
0.0
 11
179.200006
 21
205.199996
 31
0.0
  0
LINE
  5
1CB9C
  8
DANMEN
  6
CONTINUOUS
 10
177.500003
 20
206.0
 30
0.0
 11
178.7
 21
206.0
 31
0.0
  0
LINE
  5
1CB9F
  8
DANMEN
  6
CONTINUOUS
 10
184.200004
 20
207.462453
 30
0.0
 11
184.200004
 21
206.8
 31
0.0
  0
LINE
  5
1CBA2
  8
DANMEN
  6
CONTINUOUS
 10
185.000004
 20
207.744506
 30
0.0
 11
185.000004
 21
206.0
 31
0.0
  0
LINE
  5
1CBA4
  8
DANMEN
  6
CONTINUOUS
 10
182.650003
 20
206.0
 30
0.0
 11
185.000004
 21
206.0
 31
0.0
  0
LINE
  5
1CBA6
  8
DANMEN
  6
CONTINUOUS
 10
182.650003
 20
206.0
 30
0.0
 11
182.650003
 21
205.0
 31
0.0
  0
LINE
  5
1CBA7
  8
DANMEN
  6
CONTINUOUS
 10
182.650003
 20
205.0
 30
0.0
 11
183.650004
 21
205.0
 31
0.0
  0
ARC
  5
1CBA8
  8
DANMEN
  6
CONTINUOUS
 10
183.650004
 20
204.8
 30
0.0
 40
0.2
 50
0.0
 51
89.999982
  0
ARC
  5
1CBAA
  8
DANMEN
  6
CONTINUOUS
 10
184.064265
 20
207.315568
 30
0.0
 40
0.2
 50
47.258366
 51
157.974191
  0
ARC
  5
1CBAD
  8
DANMEN
  6
CONTINUOUS
 10
184.820158
 20
207.65701
 30
0.0
 40
0.2
 50
25.943161
 51
67.974191
  0
ARC
  5
1CBB0
  8
DANMEN
  6
CONTINUOUS
 10
183.300006
 20
205.5
 30
0.0
 40
0.5
 50
90.0
 51
179.999149
  0
ARC
  5
1CBB4
  8
DANMEN
  6
CONTINUOUS
 10
184.500003
 20
205.5
 30
0.0
 40
0.5
 50
359.999981
 51
90.000037
  0
LINE
  5
1CBB5
  8
DANMEN
  6
CONTINUOUS
 10
183.300006
 20
206.0
 30
0.0
 11
184.500003
 21
206.0
 31
0.0
  0
LINE
  5
1CBB6
  8
DANMEN
  6
CONTINUOUS
 10
182.800006
 20
205.199997
 30
0.0
 11
184.000003
 21
205.199997
 31
0.0
  0
LINE
  5
1CBB7
  8
DANMEN
  6
CONTINUOUS
 10
182.800006
 20
205.500017
 30
0.0
 11
182.800001
 21
205.199998
 31
0.0
  0
ARC
  5
1CBB9
  8
DANMEN
  6
CONTINUOUS
 10
185.037291
 20
209.5
 30
0.0
 40
0.5
 50
261.469234
 51
270.0
  0
LINE
  5
1CBBE
  8
DANMEN
  6
CONTINUOUS
 10
98.3
 20
225.999997
 30
0.0
 11
109.7
 21
225.999997
 31
0.0
  0
LINE
  5
1CBBF
  8
DANMEN
  6
CONTINUOUS
 10
97.8
 20
224.349997
 30
0.0
 11
108.55
 21
224.349997
 31
0.0
  0
LINE
  5
1CBC0
  8
DANMEN
  6
CONTINUOUS
 10
96.300002
 20
217.149997
 30
0.0
 11
108.55
 21
217.149997
 31
0.0
  0
LINE
  5
1CBC1
  8
DANMEN
  6
CONTINUOUS
 10
96.3
 20
250.65
 30
0.0
 11
110.350006
 21
250.65
 31
0.0
  0
LINE
  5
1CBC2
  8
DANMEN
  6
CONTINUOUS
 10
99.0
 20
226.0
 30
0.0
 11
111.5
 21
226.0
 31
0.0
  0
LINE
  5
1CBC3
  8
DANMEN
  6
CONTINUOUS
 10
99.5
 20
227.65
 30
0.0
 11
110.350006
 21
227.65
 31
0.0
  0
LINE
  5
1CBC4
  8
DANMEN
  6
CONTINUOUS
 10
82.65
 20
249.0
 30
0.0
 11
110.350006
 21
249.0
 31
0.0
  0
LINE
  5
1CBC5
  8
DANMEN
  6
CONTINUOUS
 10
81.0
 20
249.0
 30
0.0
 11
81.0
 21
234.0
 31
0.0
  0
LINE
  5
1CBC6
  8
DANMEN
  6
CONTINUOUS
 10
82.65
 20
249.0
 30
0.0
 11
82.65
 21
229.0
 31
0.0
  0
LINE
  5
1CBC7
  8
DANMEN
  6
DASHED
 10
85.0
 20
226.0
 30
0.0
 11
97.0
 21
226.0
 31
0.0
  0
LINE
  5
1CBC8
  8
DANMEN
  6
DASHED
 10
81.5
 20
224.800003
 30
0.0
 11
100.5
 21
224.800003
 31
0.0
  0
LINE
  5
1CBC9
  8
DANMEN
  6
CONTINUOUS
 10
82.65
 20
217.649997
 30
0.0
 11
87.700002
 21
217.649997
 31
0.0
  0
LINE
  5
1CBCA
  8
DANMEN
  6
CONTINUOUS
 10
75.200003
 20
233.7
 30
0.0
 11
75.200003
 21
226.6
 31
0.0
  0
LINE
  5
1CBCB
  8
DANMEN
  6
CONTINUOUS
 10
76.000003
 20
228.5
 30
0.0
 11
76.000003
 21
226.0
 31
0.0
  0
LINE
  5
1CBCC
  8
DANMEN
  6
CONTINUOUS
 10
78.000003
 20
228.5
 30
0.0
 11
78.000003
 21
227.5
 31
0.0
  0
LINE
  5
1CBCD
  8
DANMEN
  6
CONTINUOUS
 10
77.000003
 20
228.5
 30
0.0
 11
77.000003
 21
227.5
 31
0.0
  0
LINE
  5
1CBCE
  8
DANMEN
  6
CONTINUOUS
 10
73.018703
 20
229.60985
 30
0.0
 11
74.146181
 21
226.115559
 31
0.0
  0
LINE
  5
1CBCF
  8
DANMEN
  6
CONTINUOUS
 10
73.600003
 20
229.782873
 30
0.0
 11
74.582437
 21
226.6
 31
0.0
  0
LINE
  5
1CBD0
  8
DANMEN
  6
DASHED
 10
83.5
 20
226.0
 30
0.0
 11
83.5
 21
228.999972
 31
0.0
  0
LINE
  5
1CBD1
  8
DANMEN
  6
DASHED
 10
84.5
 20
230.600003
 30
0.0
 11
84.5
 21
226.5
 31
0.0
  0
LINE
  5
1CBD2
  8
DANMEN
  6
CONTINUOUS
 10
83.5
 20
226.000001
 30
0.0
 11
83.5
 21
236.0
 31
0.0
  0
LINE
  5
1CBD3
  8
DANMEN
  6
CONTINUOUS
 10
85.0
 20
225.349997
 30
0.0
 11
85.0
 21
236.5
 31
0.0
  0
LINE
  5
1CBD4
  8
DANMEN
  6
CONTINUOUS
 10
71.05
 20
233.5
 30
0.0
 11
71.05
 21
223.95
 31
0.0
  0
LINE
  5
1CBD5
  8
DANMEN
  6
CONTINUOUS
 10
73.0
 20
233.5
 30
0.0
 11
73.0
 21
222.5
 31
0.0
  0
LINE
  5
1CBD6
  8
DANMEN
  6
CONTINUOUS
 10
81.000003
 20
227.0
 30
0.0
 11
81.000003
 21
233.2
 31
0.0
  0
LINE
  5
1CBD7
  8
DANMEN
  6
CONTINUOUS
 10
76.800003
 20
227.0
 30
0.0
 11
76.800003
 21
228.199997
 31
0.0
  0
ARC
  5
1CBD8
  8
DANMEN
  6
CONTINUOUS
 10
76.5
 20
227.699997
 30
0.0
 40
0.5
 50
89.999999
 51
179.999981
  0
LINE
  5
1CBD9
  8
DANMEN
  6
CONTINUOUS
 10
83.5
 20
229.0
 30
0.0
 11
83.5
 21
226.5
 31
0.0
  0
LINE
  5
1CBDA
  8
DANMEN
  6
CONTINUOUS
 10
76.800003
 20
227.0
 30
0.0
 11
81.0
 21
227.0
 31
0.0
  0
LINE
  5
1CBDB
  8
DANMEN
  6
CONTINUOUS
 10
83.0
 20
226.0
 30
0.0
 11
76.5
 21
226.0
 31
0.0
  0
LINE
  5
1CBDC
  8
DANMEN
  6
CONTINUOUS
 10
73.000003
 20
226.0
 30
0.0
 11
81.000003
 21
226.0
 31
0.0
  0
ARC
  5
1CBDD
  8
DANMEN
  6
CONTINUOUS
 10
72.5
 20
222.5
 30
0.0
 40
0.5
 50
270.0
 51
0.0
  0
LINE
  5
1CBE0
  8
DANMEN
  6
CONTINUOUS
 10
72.5
 20
222.0
 30
0.0
 11
70.800003
 21
222.0
 31
0.0
  0
LINE
  5
1CBE1
  8
DANMEN
  6
CONTINUOUS
 10
74.327481
 20
226.0
 30
0.0
 11
76.000003
 21
226.0
 31
0.0
  0
LINE
  5
1CBE2
  8
DANMEN
  6
CONTINUOUS
 10
74.582437
 20
226.6
 30
0.0
 11
75.200003
 21
226.6
 31
0.0
  0
ARC
  5
1CBE3
  8
DANMEN
  6
CONTINUOUS
 10
74.327481
 20
226.2
 30
0.0
 40
0.2
 50
204.97391
 51
270.0
  0
LINE
  5
1CBE7
  8
DANMEN
  6
CONTINUOUS
 10
77.200003
 20
227.3
 30
0.0
 11
77.800003
 21
227.3
 31
0.0
  0
ARC
  5
1CBE9
  8
DANMEN
  6
CONTINUOUS
 10
77.800003
 20
227.5
 30
0.0
 40
0.2
 50
270.000018
 51
0.0
  0
ARC
  5
1CBEB
  8
DANMEN
  6
CONTINUOUS
 10
77.200003
 20
227.5
 30
0.0
 40
0.2
 50
180.000019
 51
270.000001
  0
LINE
  5
1CBF0
  8
DANMEN
  6
CONTINUOUS
 10
76.0
 20
226.5
 30
0.0
 11
76.0
 21
227.699997
 31
0.0
  0
ARC
  5
1CBF1
  8
DANMEN
  6
CONTINUOUS
 10
76.5
 20
226.5
 30
0.0
 40
0.5
 50
179.999981
 51
270.000018
  0
LINE
  5
1CBF2
  8
DANMEN
  6
CONTINUOUS
 10
82.65
 20
224.349997
 30
0.0
 11
82.65
 21
217.649997
 31
0.0
  0
LINE
  5
1CBF3
  8
DANMEN
  6
DASHED
 10
83.5
 20
226.0
 30
0.0
 11
81.0
 21
226.0
 31
0.0
  0
LINE
  5
1CBF4
  8
DANMEN
  6
CONTINUOUS
 10
82.65
 20
224.349997
 30
0.0
 11
84.0
 21
224.349997
 31
0.0
  0
LINE
  5
1CBF5
  8
DANMEN
  6
CONTINUOUS
 10
81.5
 20
226.0
 30
0.0
 11
83.5
 21
226.0
 31
0.0
  0
ARC
  5
1CBF6
  8
DANMEN
  6
CONTINUOUS
 10
83.0
 20
226.5
 30
0.0
 40
0.5
 50
270.0
 51
0.0
  0
ARC
  5
1CBF7
  8
DANMEN
  6
DASHED
 10
81.5
 20
225.300003
 30
0.0
 40
0.5
 50
180.0
 51
269.999982
  0
LINE
  5
1CBF8
  8
DANMEN
  6
DASHED
 10
81.0
 20
226.0
 30
0.0
 11
81.0
 21
225.300003
 31
0.0
  0
ARC
  5
1CBFB
  8
DANMEN
  6
CONTINUOUS
 10
81.5
 20
225.5
 30
0.0
 40
0.5
 50
90.0
 51
180.0
  0
ARC
  5
1CBFC
  8
DANMEN
  6
DASHED
 10
85.0
 20
226.5
 30
0.0
 40
0.5
 50
180.0
 51
270.0
  0
ARC
  5
1CBFF
  8
DANMEN
  6
CONTINUOUS
 10
84.0
 20
225.349997
 30
0.0
 40
1.0
 50
270.0
 51
0.0
  0
LINE
  5
1CC00
  8
DANMEN
  6
CONTINUOUS
 10
76.5
 20
234.0
 30
0.0
 11
81.0
 21
234.0
 31
0.0
  0
LINE
  5
1CC01
  8
DANMEN
  6
CONTINUOUS
 10
76.800003
 20
233.2
 30
0.0
 11
81.0
 21
233.2
 31
0.0
  0
LINE
  5
1CC02
  8
DANMEN
  6
CONTINUOUS
 10
76.000003
 20
234.3
 30
0.0
 11
76.000003
 21
231.8
 31
0.0
  0
LINE
  5
1CC03
  8
DANMEN
  6
CONTINUOUS
 10
74.146181
 20
234.184441
 30
0.0
 11
73.018703
 21
230.69015
 31
0.0
  0
ARC
  5
1CC04
  8
DANMEN
  6
CONTINUOUS
 10
71.55
 20
233.5
 30
0.0
 40
0.5
 50
90.0
 51
180.0
  0
ARC
  5
1CC05
  8
DANMEN
  6
CONTINUOUS
 10
72.5
 20
233.5
 30
0.0
 40
0.5
 50
0.0
 51
90.0
  0
ARC
  5
1CC06
  8
DANMEN
  6
CONTINUOUS
 10
76.5
 20
233.5
 30
0.0
 40
0.5
 50
89.999999
 51
179.999981
  0
LINE
  5
1CC07
  8
DANMEN
  6
CONTINUOUS
 10
74.582437
 20
233.7
 30
0.0
 11
75.200003
 21
233.7
 31
0.0
  0
LINE
  5
1CC09
  8
DANMEN
  6
CONTINUOUS
 10
73.000003
 20
230.605709
 30
0.0
 11
73.000003
 21
229.694291
 31
0.0
  0
ARC
  5
1CC0A
  8
DANMEN
  6
CONTINUOUS
 10
73.200003
 20
230.605709
 30
0.0
 40
0.2
 50
155.02609
 51
180.0
  0
ARC
  5
1CC0C
  8
DANMEN
  6
CONTINUOUS
 10
73.200003
 20
229.694291
 30
0.0
 40
0.2
 50
180.0
 51
204.97391
  0
LINE
  5
1CC0E
  8
DANMEN
  6
CONTINUOUS
 10
74.582437
 20
233.7
 30
0.0
 11
73.600003
 21
230.517126
 31
0.0
  0
LINE
  5
1CC0F
  8
DANMEN
  6
CONTINUOUS
 10
73.600003
 20
230.517126
 30
0.0
 11
73.600003
 21
229.782873
 31
0.0
  0
LINE
  5
1CC14
  8
DANMEN
  6
CONTINUOUS
 10
78.000003
 20
232.8
 30
0.0
 11
78.000003
 21
231.8
 31
0.0
  0
LINE
  5
1CC15
  8
DANMEN
  6
CONTINUOUS
 10
77.200003
 20
233.0
 30
0.0
 11
77.800003
 21
233.0
 31
0.0
  0
LINE
  5
1CC16
  8
DANMEN
  6
CONTINUOUS
 10
77.000003
 20
232.8
 30
0.0
 11
77.000003
 21
231.8
 31
0.0
  0
ARC
  5
1CC18
  8
DANMEN
  6
CONTINUOUS
 10
77.800003
 20
232.8
 30
0.0
 40
0.2
 50
0.0
 51
89.999982
  0
ARC
  5
1CC1A
  8
DANMEN
  6
CONTINUOUS
 10
77.200003
 20
232.8
 30
0.0
 40
0.2
 50
89.999982
 51
180.000019
  0
LINE
  5
1CC1E
  8
DANMEN
  6
CONTINUOUS
 10
78.000003
 20
231.8
 30
0.0
 11
77.200003
 21
231.0
 31
0.0
  0
LINE
  5
1CC1F
  8
DANMEN
  6
CONTINUOUS
 10
77.200003
 20
229.3
 30
0.0
 11
78.000003
 21
228.5
 31
0.0
  0
LINE
  5
1CC20
  8
DANMEN
  6
CONTINUOUS
 10
76.000003
 20
231.8
 30
0.0
 11
77.000003
 21
231.8
 31
0.0
  0
LINE
  5
1CC22
  8
DANMEN
  6
CONTINUOUS
 10
76.000003
 20
228.5
 30
0.0
 11
77.000003
 21
228.5
 31
0.0
  0
LINE
  5
1CC27
  8
DANMEN
  6
CONTINUOUS
 10
77.200003
 20
231.0
 30
0.0
 11
77.200003
 21
229.3
 31
0.0
  0
LINE
  5
1CC2D
  8
DANMEN
  6
CONTINUOUS
 10
76.5
 20
228.199997
 30
0.0
 11
76.800003
 21
228.199997
 31
0.0
  0
LINE
  5
1CC2E
  8
DANMEN
  6
CONTINUOUS
 10
76.0
 20
232.300003
 30
0.0
 11
76.0
 21
233.5
 31
0.0
  0
LINE
  5
1CC2F
  8
DANMEN
  6
CONTINUOUS
 10
76.800003
 20
231.800003
 30
0.0
 11
76.800003
 21
233.2
 31
0.0
  0
ARC
  5
1CC30
  8
DANMEN
  6
CONTINUOUS
 10
76.5
 20
232.300003
 30
0.0
 40
0.5
 50
179.999981
 51
270.000018
  0
LINE
  5
1CC31
  8
DANMEN
  6
CONTINUOUS
 10
76.5
 20
231.800003
 30
0.0
 11
76.800003
 21
231.800003
 31
0.0
  0
LINE
  5
1CC32
  8
DANMEN
  6
CONTINUOUS
 10
74.327481
 20
234.3
 30
0.0
 11
76.000003
 21
234.3
 31
0.0
  0
ARC
  5
1CC33
  8
DANMEN
  6
CONTINUOUS
 10
74.327481
 20
234.1
 30
0.0
 40
0.2
 50
90.0
 51
155.02609
  0
LINE
  5
1CC37
  8
DANMEN
  6
CONTINUOUS
 10
72.5
 20
234.0
 30
0.0
 11
71.55
 21
234.0
 31
0.0
  0
ARC
  5
1CC39
  8
DANMEN
  6
DASHED
 10
83.299999
 20
229.499972
 30
0.0
 40
0.3
 50
157.011468
 51
235.656024
  0
LINE
  5
1CC3A
  8
DANMEN
  6
DASHED
 10
83.023824
 20
229.617136
 30
0.0
 11
84.423825
 21
232.917167
 31
0.0
  0
LINE
  5
1CC3B
  8
DANMEN
  6
CONTINUOUS
 10
82.65
 20
229.0
 30
0.0
 11
83.5
 21
229.0
 31
0.0
  0
LINE
  5
1CC41
  8
DANMEN
  6
DASHED
 10
83.499991
 20
228.999972
 30
0.0
 11
83.130743
 21
229.252271
 31
0.0
  0
ARC
  5
1CC42
  8
DANMEN
  6
DASHED
 10
84.7
 20
232.800003
 30
0.0
 40
0.3
 50
347.000479
 51
157.011468
  0
LINE
  5
1CC43
  8
DANMEN
  6
DASHED
 10
84.5
 20
230.600003
 30
0.0
 11
84.992312
 21
232.73252
 31
0.0
  0
LINE
  5
1CC46
  8
DANMEN
  6
CONTINUOUS
 10
84.0
 20
236.5
 30
0.0
 11
85.0
 21
236.5
 31
0.0
  0
ARC
  5
1CC47
  8
DANMEN
  6
CONTINUOUS
 10
84.0
 20
236.0
 30
0.0
 40
0.5
 50
90.0
 51
180.0
  0
LINE
  5
1CC48
  8
DANMEN
  6
DASHED
 10
97.5
 20
230.600003
 30
0.0
 11
97.5
 21
226.5
 31
0.0
  0
LINE
  5
1CC49
  8
DANMEN
  6
DASHED
 10
98.5
 20
226.0
 30
0.0
 11
98.5
 21
228.999972
 31
0.0
  0
LINE
  5
1CC4A
  8
DANMEN
  6
CONTINUOUS
 10
98.3
 20
225.999997
 30
0.0
 11
98.3
 21
236.000003
 31
0.0
  0
LINE
  5
1CC4B
  8
DANMEN
  6
CONTINUOUS
 10
96.8
 20
225.349997
 30
0.0
 11
96.8
 21
236.500003
 31
0.0
  0
LINE
  5
1CC4C
  8
DANMEN
  6
CONTINUOUS
 10
99.206061
 20
228.642044
 30
0.0
 11
99.5
 21
227.65
 31
0.0
  0
LINE
  5
1CC4D
  8
DANMEN
  6
CONTINUOUS
 10
98.5
 20
229.0
 30
0.0
 11
98.5
 21
226.5
 31
0.0
  0
ARC
  5
1CC4E
  8
DANMEN
  6
CONTINUOUS
 10
96.300002
 20
218.149997
 30
0.0
 40
1.0
 50
180.0
 51
270.0
  0
ARC
  5
1CC4F
  8
DANMEN
  6
CONTINUOUS
 10
93.300002
 20
219.430304
 30
0.0
 40
2.0
 50
0.000026
 51
51.706549
  0
LINE
  5
1CC50
  8
DANMEN
  6
CONTINUOUS
 10
92.800003
 20
217.099997
 30
0.0
 11
91.200003
 21
217.099996
 31
0.0
  0
ARC
  5
1CC51
  8
DANMEN
  6
CONTINUOUS
 10
87.700002
 20
218.649997
 30
0.0
 40
1.0
 50
270.0
 51
0.0
  0
ARC
  5
1CC52
  8
DANMEN
  6
CONTINUOUS
 10
90.600001
 20
220.699996
 30
0.0
 40
0.3
 50
0.000026
 51
90.000026
  0
LINE
  5
1CC53
  8
DANMEN
  6
CONTINUOUS
 10
90.600001
 20
220.999996
 30
0.0
 11
89.460621
 21
220.999996
 31
0.0
  0
ARC
  5
1CC54
  8
DANMEN
  6
CONTINUOUS
 10
91.200002
 20
218.099996
 30
0.0
 40
1.0
 50
180.000026
 51
270.000026
  0
LINE
  5
1CC55
  8
DANMEN
  6
CONTINUOUS
 10
90.200002
 20
219.346057
 30
0.0
 11
90.200002
 21
218.099996
 31
0.0
  0
LINE
  5
1CC56
  8
DANMEN
  6
CONTINUOUS
 10
88.700002
 20
219.430301
 30
0.0
 11
88.700002
 21
218.649995
 31
0.0
  0
ARC
  5
1CC57
  8
DANMEN
  6
CONTINUOUS
 10
90.700002
 20
219.430302
 30
0.0
 40
2.0
 50
128.293503
 51
180.000026
  0
ARC
  5
1CC58
  8
DANMEN
  6
CONTINUOUS
 10
90.700001
 20
220.436928
 30
0.0
 40
0.2
 50
294.624344
 51
0.000026
  0
ARC
  5
1CC59
  8
DANMEN
  6
CONTINUOUS
 10
91.200002
 20
219.346057
 30
0.0
 40
1.0
 50
114.624344
 51
180.000026
  0
LINE
  5
1CC5A
  8
DANMEN
  6
CONTINUOUS
 10
90.900001
 20
220.699996
 30
0.0
 11
90.900001
 21
220.436928
 31
0.0
  0
LINE
  5
1CC5B
  8
DANMEN
  6
CONTINUOUS
 10
93.400001
 20
220.999996
 30
0.0
 11
94.53938
 21
220.999996
 31
0.0
  0
ARC
  5
1CC5C
  8
DANMEN
  6
CONTINUOUS
 10
93.400001
 20
220.699997
 30
0.0
 40
0.3
 50
90.000026
 51
180.000026
  0
LINE
  5
1CC5D
  8
DANMEN
  6
CONTINUOUS
 10
93.800002
 20
219.346058
 30
0.0
 11
93.800002
 21
218.099998
 31
0.0
  0
LINE
  5
1CC5E
  8
DANMEN
  6
CONTINUOUS
 10
95.300002
 20
219.430304
 30
0.0
 11
95.300002
 21
218.149998
 31
0.0
  0
ARC
  5
1CC5F
  8
DANMEN
  6
CONTINUOUS
 10
92.800002
 20
218.099997
 30
0.0
 40
1.0
 50
270.000026
 51
0.000026
  0
LINE
  5
1CC60
  8
DANMEN
  6
CONTINUOUS
 10
93.100001
 20
220.699997
 30
0.0
 11
93.100001
 21
220.436929
 31
0.0
  0
ARC
  5
1CC61
  8
DANMEN
  6
CONTINUOUS
 10
92.800002
 20
219.346058
 30
0.0
 40
1.0
 50
0.000026
 51
65.375708
  0
ARC
  5
1CC62
  8
DANMEN
  6
CONTINUOUS
 10
93.300001
 20
220.436929
 30
0.0
 40
0.2
 50
180.000026
 51
245.375708
  0
LINE
  5
1CC64
  8
DANMEN
  6
DASHED
 10
98.5
 20
226.0
 30
0.0
 11
101.0
 21
226.0
 31
0.0
  0
LINE
  5
1CC65
  8
DANMEN
  6
DASHED
 10
98.5
 20
226.0
 30
0.0
 11
101.0
 21
226.0
 31
0.0
  0
ARC
  5
1CC66
  8
DANMEN
  6
DASHED
 10
97.0
 20
226.5
 30
0.0
 40
0.5
 50
270.0
 51
0.0
  0
ARC
  5
1CC69
  8
DANMEN
  6
CONTINUOUS
 10
97.8
 20
225.349997
 30
0.0
 40
1.0
 50
180.0
 51
270.0
  0
ARC
  5
1CC6A
  8
DANMEN
  6
CONTINUOUS
 10
99.0
 20
226.5
 30
0.0
 40
0.5
 50
180.0
 51
270.0
  0
ARC
  5
1CC6C
  8
DANMEN
  6
DASHED
 10
100.5
 20
225.300003
 30
0.0
 40
0.5
 50
270.000018
 51
0.0
  0
LINE
  5
1CC6E
  8
DANMEN
  6
DASHED
 10
101.0
 20
226.0
 30
0.0
 11
101.0
 21
225.300003
 31
0.0
  0
LINE
  5
1CC73
  8
DANMEN
  6
DASHED
 10
97.5
 20
230.600003
 30
0.0
 11
97.007688
 21
232.73252
 31
0.0
  0
LINE
  5
1CC74
  8
DANMEN
  6
DASHED
 10
98.976176
 20
229.617136
 30
0.0
 11
97.576175
 21
232.917167
 31
0.0
  0
ARC
  5
1CC75
  8
DANMEN
  6
DASHED
 10
97.3
 20
232.800003
 30
0.0
 40
0.3
 50
22.988532
 51
192.999521
  0
LINE
  5
1CC76
  8
DANMEN
  6
DASHED
 10
98.500009
 20
228.999972
 30
0.0
 11
98.869257
 21
229.252271
 31
0.0
  0
ARC
  5
1CC77
  8
DANMEN
  6
DASHED
 10
98.700001
 20
229.499972
 30
0.0
 40
0.3
 50
304.343976
 51
22.988532
  0
ARC
  5
1CC7A
  8
DANMEN
  6
CONTINUOUS
 10
98.726662
 20
228.5
 30
0.0
 40
0.5
 50
16.504361
 51
90.0
  0
LINE
  5
1CC7B
  8
DANMEN
  6
CONTINUOUS
 10
98.726662
 20
229.0
 30
0.0
 11
98.5
 21
229.0
 31
0.0
  0
LINE
  5
1CC7D
  8
DANMEN
  6
CONTINUOUS
 10
96.8
 20
236.500003
 30
0.0
 11
97.8
 21
236.500003
 31
0.0
  0
ARC
  5
1CC7E
  8
DANMEN
  6
CONTINUOUS
 10
97.8
 20
236.000003
 30
0.0
 40
0.5
 50
0.0
 51
90.0
  0
LINE
  5
1CC7F
  8
DANMEN
  6
CONTINUOUS
 10
79.65
 20
250.65
 30
0.0
 11
87.7
 21
250.65
 31
0.0
  0
LINE
  5
1CC80
  8
DANMEN
  6
CONTINUOUS
 10
79.65
 20
253.600012
 30
0.0
 11
79.65
 21
250.65
 31
0.0
  0
LINE
  5
1CC81
  8
DANMEN
  6
CONTINUOUS
 10
78.0
 20
252.950012
 30
0.0
 11
78.0
 21
249.8
 31
0.0
  0
LINE
  5
1CC82
  8
DANMEN
  6
CONTINUOUS
 10
77.0
 20
249.0
 30
0.0
 11
81.0
 21
249.0
 31
0.0
  0
ARC
  5
1CC85
  8
DANMEN
  6
CONTINUOUS
 10
77.0
 20
249.5
 30
0.0
 40
0.5
 50
180.000019
 51
270.000001
  0
LINE
  5
1CC86
  8
DANMEN
  6
CONTINUOUS
 10
76.5
 20
249.8
 30
0.0
 11
76.5
 21
249.5
 31
0.0
  0
LINE
  5
1CC87
  8
DANMEN
  6
CONTINUOUS
 10
76.5
 20
249.8
 30
0.0
 11
78.0
 21
249.8
 31
0.0
  0
ARC
  5
1CC89
  8
DANMEN
  6
CONTINUOUS
 10
78.65
 20
253.600012
 30
0.0
 40
1.0
 50
0.0
 51
90.0
  0
ARC
  5
1CC8A
  8
DANMEN
  6
CONTINUOUS
 10
87.7
 20
251.65
 30
0.0
 40
1.0
 50
270.0
 51
0.0
  0
ARC
  5
1CC8B
  8
DANMEN
  6
CONTINUOUS
 10
96.3
 20
251.65
 30
0.0
 40
1.0
 50
180.0
 51
270.0
  0
ARC
  5
1CC8C
  8
DANMEN
  6
CONTINUOUS
 10
92.8
 20
251.7
 30
0.0
 40
1.0
 50
270.0
 51
0.0
  0
ARC
  5
1CC8D
  8
DANMEN
  6
CONTINUOUS
 10
91.2
 20
251.7
 30
0.0
 40
1.0
 50
180.0
 51
270.0
  0
LINE
  5
1CC8E
  8
DANMEN
  6
CONTINUOUS
 10
92.8
 20
250.7
 30
0.0
 11
91.2
 21
250.7
 31
0.0
  0
ARC
  5
1CC8F
  8
DANMEN
  6
CONTINUOUS
 10
93.3
 20
253.030306
 30
0.0
 40
2.0
 50
0.0
 51
51.706523
  0
ARC
  5
1CC90
  8
DANMEN
  6
CONTINUOUS
 10
90.7
 20
253.030306
 30
0.0
 40
2.0
 50
128.293195
 51
180.0
  0
LINE
  5
1CC91
  8
DANMEN
  6
CONTINUOUS
 10
88.7
 20
253.030306
 30
0.0
 11
88.7
 21
251.65
 31
0.0
  0
LINE
  5
1CC92
  8
DANMEN
  6
CONTINUOUS
 10
90.9
 20
254.036932
 30
0.0
 11
90.9
 21
254.3
 31
0.0
  0
ARC
  5
1CC93
  8
DANMEN
  6
CONTINUOUS
 10
91.2
 20
252.946061
 30
0.0
 40
1.0
 50
114.624318
 51
180.0
  0
ARC
  5
1CC94
  8
DANMEN
  6
CONTINUOUS
 10
90.7
 20
254.036932
 30
0.0
 40
0.2
 50
294.624318
 51
0.0
  0
LINE
  5
1CC95
  8
DANMEN
  6
CONTINUOUS
 10
90.2
 20
252.946061
 30
0.0
 11
90.2
 21
251.7
 31
0.0
  0
ARC
  5
1CC96
  8
DANMEN
  6
CONTINUOUS
 10
90.6
 20
254.3
 30
0.0
 40
0.3
 50
0.0
 51
90.0
  0
LINE
  5
1CC97
  8
DANMEN
  6
CONTINUOUS
 10
90.6
 20
254.600006
 30
0.0
 11
89.460628
 21
254.600006
 31
0.0
  0
ARC
  5
1CC98
  8
DANMEN
  6
CONTINUOUS
 10
93.3
 20
254.036932
 30
0.0
 40
0.2
 50
180.0
 51
245.375682
  0
ARC
  5
1CC99
  8
DANMEN
  6
CONTINUOUS
 10
92.8
 20
252.946061
 30
0.0
 40
1.0
 50
0.0
 51
65.375682
  0
LINE
  5
1CC9A
  8
DANMEN
  6
CONTINUOUS
 10
93.1
 20
254.036932
 30
0.0
 11
93.1
 21
254.3
 31
0.0
  0
LINE
  5
1CC9B
  8
DANMEN
  6
CONTINUOUS
 10
95.3
 20
253.030306
 30
0.0
 11
95.3
 21
251.65
 31
0.0
  0
LINE
  5
1CC9C
  8
DANMEN
  6
CONTINUOUS
 10
93.8
 20
252.946061
 30
0.0
 11
93.8
 21
251.7
 31
0.0
  0
LINE
  5
1CC9D
  8
DANMEN
  6
CONTINUOUS
 10
94.539379
 20
254.6
 30
0.0
 11
93.4
 21
254.6
 31
0.0
  0
ARC
  5
1CC9E
  8
DANMEN
  6
CONTINUOUS
 10
93.4
 20
254.3
 30
0.0
 40
0.3
 50
90.0
 51
180.0
  0
LINE
  5
1CC9F
  8
DANMEN
  6
CONTINUOUS
 10
110.350006
 20
249.0
 30
0.0
 11
110.350006
 21
227.65
 31
0.0
  0
LINE
  5
1CCA0
  8
DANMEN
  6
CONTINUOUS
 10
112.0
 20
260.5
 30
0.0
 11
112.0
 21
226.5
 31
0.0
  0
ARC
  5
1CCA1
  8
DANMEN
  6
CONTINUOUS
 10
111.5
 20
226.5
 30
0.0
 40
0.5
 50
270.000018
 51
0.0
  0
LINE
  5
1CCA2
  8
DANMEN
  6
CONTINUOUS
 10
108.55
 20
217.149997
 30
0.0
 11
108.55
 21
224.349997
 31
0.0
  0
ARC
  5
1CCA3
  8
DANMEN
  6
CONTINUOUS
 10
109.7
 20
225.499997
 30
0.0
 40
0.5
 50
0.0
 51
90.0
  0
ARC
  5
1CCA5
  8
DANMEN
  6
CONTINUOUS
 10
110.623494
 20
225.439422
 30
0.0
 40
0.5
 50
1.431408
 51
84.0
  0
LINE
  5
1CCAB
  8
DANMEN
  6
CONTINUOUS
 10
110.11785
 20
225.995322
 30
0.0
 11
110.675759
 21
225.936683
 31
0.0
  0
LINE
  5
1CCAD
  8
DANMEN
  6
CONTINUOUS
 10
110.350006
 20
259.350006
 30
0.0
 11
110.350006
 21
250.65
 31
0.0
  0
ARC
  5
1CCAE
  8
DANMEN
  6
CONTINUOUS
 10
111.5
 20
260.5
 30
0.0
 40
0.5
 50
0.0
 51
89.999982
  0
LINE
  5
1CCAF
  8
DANMEN
  6
CONTINUOUS
 10
106.5
 20
259.350006
 30
0.0
 11
110.350006
 21
259.350006
 31
0.0
  0
LINE
  5
1CCB0
  8
DANMEN
  6
CONTINUOUS
 10
106.5
 20
261.0
 30
0.0
 11
111.5
 21
261.0
 31
0.0
  0
ARC
  5
1CCB1
  8
DANMEN
  6
CONTINUOUS
 10
106.5
 20
259.850006
 30
0.0
 40
0.5
 50
180.000019
 51
270.000001
  0
ARC
  5
1CCB2
  8
DANMEN
  6
CONTINUOUS
 10
106.5
 20
260.5
 30
0.0
 40
0.5
 50
89.999982
 51
180.000019
  0
LINE
  5
1CCB3
  8
DANMEN
  6
CONTINUOUS
 10
106.0
 20
260.5
 30
0.0
 11
106.0
 21
259.850006
 31
0.0
  0
LINE
  5
1CCB5
  8
DANMEN
  6
CONTINUOUS
 10
163.649997
 20
238.350006
 30
0.0
 11
170.350009
 21
238.350006
 31
0.0
  0
LINE
  5
1CCB6
  8
DANMEN
  6
CONTINUOUS
 10
162.500003
 20
240.0
 30
0.0
 11
186.500003
 21
240.0
 31
0.0
  0
ARC
  5
1CCB7
  8
DANMEN
  6
CONTINUOUS
 10
162.500003
 20
239.5
 30
0.0
 40
0.5
 50
89.999982
 51
180.000019
  0
ARC
  5
1CCBB
  8
DANMEN
  6
CONTINUOUS
 10
163.149997
 20
234.5
 30
0.0
 40
0.5
 50
270.000018
 51
359.999981
  0
ARC
  5
1CCBC
  8
DANMEN
  6
CONTINUOUS
 10
162.500003
 20
234.5
 30
0.0
 40
0.5
 50
180.000036
 51
269.999963
  0
LINE
  5
1CCBD
  8
DANMEN
  6
CONTINUOUS
 10
163.649997
 20
238.350006
 30
0.0
 11
163.649997
 21
234.5
 31
0.0
  0
LINE
  5
1CCBE
  8
DANMEN
  6
CONTINUOUS
 10
162.500003
 20
234.0
 30
0.0
 11
163.149997
 21
234.0
 31
0.0
  0
LINE
  5
1CCBF
  8
DANMEN
  6
CONTINUOUS
 10
162.000003
 20
239.5
 30
0.0
 11
162.000003
 21
234.5
 31
0.0
  0
ARC
  5
1CCC1
  8
DANMEN
  6
CONTINUOUS
 10
186.500003
 20
239.5
 30
0.0
 40
0.5
 50
359.999981
 51
89.999982
  0
LINE
  5
1CCC2
  8
DANMEN
  6
CONTINUOUS
 10
174.000003
 20
238.350006
 30
0.0
 11
186.500003
 21
238.350006
 31
0.0
  0
LINE
  5
1CCC3
  8
DANMEN
  6
CONTINUOUS
 10
185.156624
 20
230.9
 30
0.0
 11
188.0
 21
230.9
 31
0.0
  0
LINE
  5
1CCC4
  8
DANMEN
  6
CONTINUOUS
 10
172.000003
 20
222.5
 30
0.0
 11
188.000003
 21
222.5
 31
0.0
  0
LINE
  5
1CCC5
  8
DANMEN
  6
CONTINUOUS
 10
172.000003
 20
227.5
 30
0.0
 11
188.000003
 21
227.5
 31
0.0
  0
LINE
  5
1CCC6
  8
DANMEN
  6
CONTINUOUS
 10
172.000003
 20
238.9
 30
0.0
 11
172.000003
 21
220.3
 31
0.0
  0
LINE
  5
1CCC7
  8
DANMEN
  6
CONTINUOUS
 10
181.050999
 20
221.0
 30
0.0
 11
176.850998
 21
220.3
 31
0.0
  0
LINE
  5
1CCC8
  8
DANMEN
  6
CONTINUOUS
 10
182.164405
 20
219.360739
 30
0.0
 11
177.081607
 21
218.513606
 31
0.0
  0
LINE
  5
1CCC9
  8
DANMEN
  6
CONTINUOUS
 10
172.000003
 20
220.3
 30
0.0
 11
176.850998
 21
220.3
 31
0.0
  0
LINE
  5
1CCCA
  8
DANMEN
  6
CONTINUOUS
 10
172.000003
 20
218.5
 30
0.0
 11
176.917208
 21
218.5
 31
0.0
  0
ARC
  5
1CCCE
  8
DANMEN
  6
CONTINUOUS
 10
176.917208
 20
219.5
 30
0.0
 40
1.0
 50
270.000018
 51
279.462343
  0
LINE
  5
1CCD1
  8
DANMEN
  6
CONTINUOUS
 10
181.050999
 20
221.0
 30
0.0
 11
182.500003
 21
221.0
 31
0.0
  0
ARC
  5
1CCD3
  8
DANMEN
  6
CONTINUOUS
 10
182.500003
 20
220.5
 30
0.0
 40
0.5
 50
0.0
 51
89.999982
  0
ARC
  5
1CCD5
  8
DANMEN
  6
CONTINUOUS
 10
182.000003
 20
220.347137
 30
0.0
 40
1.0
 50
279.462343
 51
0.000285
  0
LINE
  5
1CCD8
  8
DANMEN
  6
CONTINUOUS
 10
183.000003
 20
220.5
 30
0.0
 11
183.000003
 21
220.347137
 31
0.0
  0
LINE
  5
1CCD9
  8
DANMEN
  6
CONTINUOUS
 10
176.2
 20
229.556506
 30
0.0
 11
185.156624
 21
230.9
 31
0.0
  0
LINE
  5
1CCDA
  8
DANMEN
  6
CONTINUOUS
 10
175.85166
 20
231.627749
 30
0.0
 11
184.963121
 21
232.994468
 31
0.0
  0
LINE
  5
1CCDB
  8
DANMEN
  6
CONTINUOUS
 10
172.000003
 20
233.0
 30
0.0
 11
184.999939
 21
233.0
 31
0.0
  0
LINE
  5
1CCDD
  8
DANMEN
  6
CONTINUOUS
 10
175.5
 20
228.5
 30
0.0
 11
176.199997
 21
228.5
 31
0.0
  0
LINE
  5
1CCDE
  8
DANMEN
  6
CONTINUOUS
 10
175.0
 20
229.0
 30
0.0
 11
175.0
 21
230.638809
 31
0.0
  0
LINE
  5
1CCDF
  8
DANMEN
  6
CONTINUOUS
 10
176.2
 20
228.5
 30
0.0
 11
176.2
 21
229.556506
 31
0.0
  0
ARC
  5
1CCE1
  8
DANMEN
  6
CONTINUOUS
 10
175.5
 20
229.0
 30
0.0
 40
0.5
 50
180.0
 51
270.0
  0
ARC
  5
1CCE3
  8
DANMEN
  6
CONTINUOUS
 10
176.0
 20
230.638813
 30
0.0
 40
1.0
 50
98.530766
 51
180.0
  0
LINE
  5
1CCE7
  8
DANMEN
  6
CONTINUOUS
 10
172.000003
 20
238.9
 30
0.0
 11
174.000003
 21
238.9
 31
0.0
  0
LINE
  5
1CCEB
  8
DANMEN
  6
CONTINUOUS
 10
174.000003
 20
238.9
 30
0.0
 11
174.000003
 21
238.350006
 31
0.0
  0
ARC
  5
1CCEE
  8
DANMEN
  6
CONTINUOUS
 10
185.037291
 20
232.5
 30
0.0
 40
0.5
 50
90.0
 51
98.530766
  0
ARC
  5
1CCF3
  8
DANMEN
  6
CONTINUOUS
 10
186.500003
 20
238.850006
 30
0.0
 40
0.5
 50
270.000018
 51
359.999981
  0
LINE
  5
1CCF4
  8
DANMEN
  6
CONTINUOUS
 10
187.000003
 20
239.5
 30
0.0
 11
187.000003
 21
238.850006
 31
0.0
  0
TEXT
  5
1CCF7
  8
SUNPO
  6
CONTINUOUS
 10
135.221192
 20
120.91667
 30
0.0
 40
2.5
  1
22
 50
90.0
  7
MX_NOTE_STANDARD
  0
LINE
  5
1CCF8
  8
DANMEN
  6
CONTINUOUS
 10
392.0
 20
151.800003
 30
0.0
 11
392.0
 21
84.199997
 31
0.0
  0
LINE
  5
1CCF9
  8
DANMEN
  6
CONTINUOUS
 10
393.649994
 20
151.350006
 30
0.0
 11
393.649994
 21
84.649994
 31
0.0
  0
LINE
  5
1CCFA
  8
DANMEN
  6
CONTINUOUS
 10
254.499997
 20
126.5
 30
0.0
 11
254.499997
 21
123.0
 31
0.0
  0
LINE
  5
1CCFB
  8
DANMEN
  6
CONTINUOUS
 10
309.499997
 20
159.0
 30
0.0
 11
309.499997
 21
117.5
 31
0.0
  0
LINE
  5
1CCFC
  8
SUNPO
  6
CONTINUOUS
 10
324.468739
 20
160.0
 30
0.0
 11
324.468739
 21
122.0
 31
0.0
  0
LINE
  5
1CCFD
  8
SUNPO
  6
CONTINUOUS
 10
244.793737
 20
153.0
 30
0.0
 11
244.793737
 21
83.0
 31
0.0
  0
LINE
  5
1CCFE
  8
SUNPO
  6
CONTINUOUS
 10
21.0
 20
52.0
 30
0.0
 11
21.0
 21
166.0
 31
0.0
  0
LINE
  5
1CCFF
  8
SUNPO
  6
CONTINUOUS
 10
144.685645
 20
134.000003
 30
0.0
 11
144.685645
 21
92.0
 31
0.0
  0
LINE
  5
1CD00
  8
SUNPO
  6
CONTINUOUS
 10
136.221192
 20
134.000003
 30
0.0
 11
136.221192
 21
112.000003
 31
0.0
  0
LINE
  5
1CD01
  8
DANMEN
  6
CONTINUOUS
 10
202.499994
 20
132.400001
 30
0.0
 11
202.499994
 21
122.0
 31
0.0
  0
LINE
  5
1CD02
  8
DANMEN
  6
CONTINUOUS
 10
205.749994
 20
128.94142
 30
0.0
 11
205.749994
 21
122.0
 31
0.0
  0
LINE
  5
1CD03
  8
DANMEN
  6
CONTINUOUS
 10
231.999997
 20
123.0
 30
0.0
 11
231.999997
 21
126.5
 31
0.0
  0
LINE
  5
1CD04
  8
SUNPO
  6
CONTINUOUS
 10
156.0
 20
92.0
 30
0.0
 11
156.0
 21
147.0
 31
0.0
  0
LINE
  5
1CD05
  8
SUNPO
  6
CONTINUOUS
 10
297.0
 20
20.0
 30
0.0
 11
377.0
 21
20.0
 31
0.0
  0
LINE
  5
1CD06
  8
SUNPO
  6
CONTINUOUS
 10
309.5
 20
28.322886
 30
0.0
 11
377.0
 21
28.322886
 31
0.0
  0
LINE
  5
1CD07
  8
SUNPO
  6
CONTINUOUS
 10
57.0
 20
23.0
 30
0.0
 11
156.0
 21
23.0
 31
0.0
  0
LINE
  5
1CD09
  8
DANMEN
  6
CONTINUOUS
 10
323.9
 20
78.199997
 30
0.0
 11
346.5
 21
78.199997
 31
0.0
  0
LINE
  5
1CD0A
  8
DANMEN
  6
CONTINUOUS
 10
323.9
 20
76.0
 30
0.0
 11
346.5
 21
76.0
 31
0.0
  0
LINE
  5
1CD0B
  8
DANMEN
  6
CONTINUOUS
 10
323.75
 20
119.0
 30
0.0
 11
392.0
 21
119.0
 31
0.0
  0
LINE
  5
1CD0C
  8
DANMEN
  6
CONTINUOUS
 10
346.5
 20
114.0
 30
0.0
 11
323.9
 21
114.0
 31
0.0
  0
LINE
  5
1CD0D
  8
DANMEN
  6
CONTINUOUS
 10
323.9
 20
82.999997
 30
0.0
 11
347.0
 21
82.999997
 31
0.0
  0
LINE
  5
1CD0E
  8
DANMEN
  6
CONTINUOUS
 10
362.0
 20
103.15
 30
0.0
 11
323.75
 21
103.15
 31
0.0
  0
LINE
  5
1CD0F
  8
DANMEN
  6
CONTINUOUS
 10
362.0
 20
98.15
 30
0.0
 11
323.75
 21
98.15
 31
0.0
  0
LINE
  5
1CD10
  8
DANMEN
  6
CONTINUOUS
 10
362.0
 20
91.85
 30
0.0
 11
323.75
 21
91.85
 31
0.0
  0
LINE
  5
1CD11
  8
DANMEN
  6
CONTINUOUS
 10
362.0
 20
96.85
 30
0.0
 11
323.75
 21
96.85
 31
0.0
  0
LINE
  5
1CD12
  8
DANMEN
  6
CONTINUOUS
 10
362.0
 20
103.65
 30
0.0
 11
323.75
 21
103.65
 31
0.0
  0
LINE
  5
1CD13
  8
DANMEN
  6
CONTINUOUS
 10
362.0
 20
91.35
 30
0.0
 11
323.75
 21
91.35
 31
0.0
  0
LINE
  5
1CD14
  8
DANMEN
  6
CONTINUOUS
 10
362.0
 20
97.65
 30
0.0
 11
323.75
 21
97.65
 31
0.0
  0
LINE
  5
1CD15
  8
DANMEN
  6
CONTINUOUS
 10
362.0
 20
97.35
 30
0.0
 11
323.75
 21
97.35
 31
0.0
  0
LINE
  5
1CD16
  8
DANMEN
  6
CONTINUOUS
 10
347.0
 20
111.999966
 30
0.0
 11
323.9
 21
111.999966
 31
0.0
  0
LINE
  5
1CD17
  8
DANMEN
  6
CONTINUOUS
 10
268.05
 20
108.999994
 30
0.0
 11
267.55
 21
108.999994
 31
0.0
  0
LINE
  5
1CD18
  8
DANMEN
  6
CONTINUOUS
 10
268.05
 20
91.8
 30
0.0
 11
267.55
 21
91.8
 31
0.0
  0
LINE
  5
1CD19
  8
DANMEN
  6
CONTINUOUS
 10
279.0
 20
84.8
 30
0.0
 11
256.499994
 21
84.8
 31
0.0
  0
LINE
  5
1CD1A
  8
DANMEN
  6
CONTINUOUS
 10
307.499997
 20
38.0
 30
0.0
 11
256.499997
 21
38.0
 31
0.0
  0
ARC
  5
1CD1B
  8
DANMEN
  6
CONTINUOUS
 10
268.549997
 20
118.5
 30
0.0
 40
1.0
 50
89.999982
 51
180.000019
  0
LINE
  5
1CD1C
  8
DANMEN
  6
CONTINUOUS
 10
306.499997
 20
43.0
 30
0.0
 11
257.499997
 21
43.0
 31
0.0
  0
LINE
  5
1CD1D
  8
DANMEN
  6
CONTINUOUS
 10
255.499997
 20
122.0
 30
0.0
 11
282.999997
 21
122.0
 31
0.0
  0
LINE
  5
1CD1E
  8
DANMEN
  6
CONTINUOUS
 10
261.299998
 20
119.0
 30
0.0
 11
267.683975
 21
119.0
 31
0.0
  0
LINE
  5
1CD1F
  8
DANMEN
  6
CONTINUOUS
 10
254.499997
 20
40.0
 30
0.0
 11
254.499997
 21
118.5
 31
0.0
  0
LINE
  5
1CD20
  8
DANMEN
  6
CONTINUOUS
 10
256.499994
 20
84.8
 30
0.0
 11
257.499997
 21
53.0
 31
0.0
  0
ARC
  5
1CD21
  8
DANMEN
  6
CONTINUOUS
 10
256.499997
 20
40.0
 30
0.0
 40
2.0
 50
179.999981
 51
270.000018
  0
LINE
  5
1CD23
  8
DANMEN
  6
CONTINUOUS
 10
257.499997
 20
43.0
 30
0.0
 11
257.499997
 21
53.0
 31
0.0
  0
LINE
  5
1CD25
  8
DANMEN
  6
CONTINUOUS
 10
232.0
 20
122.0
 30
0.0
 11
240.25
 21
122.0
 31
0.0
  0
LINE
  5
1CD26
  8
DANMEN
  6
CONTINUOUS
 10
207.999993
 20
121.600002
 30
0.0
 11
205.349989
 21
121.300001
 31
0.0
  0
LINE
  5
1CD27
  8
DANMEN
  6
DASHED
 10
202.499994
 20
122.0
 30
0.0
 11
202.499994
 21
121.8
 31
0.0
  0
LINE
  5
1CD2B
  8
DANMEN
  6
CONTINUOUS
 10
207.999994
 20
122.0
 30
0.0
 11
207.999994
 21
121.6
 31
0.0
  0
ARC
  5
1CD2E
  8
DANMEN
  6
CONTINUOUS
 10
230.999997
 20
123.0
 30
0.0
 40
1.0
 50
270.0
 51
0.0
  0
LINE
  5
1CD30
  8
DANMEN
  6
CONTINUOUS
 10
256.449994
 20
86.75
 30
0.0
 11
256.449994
 21
111.050003
 31
0.0
  0
LINE
  5
1CD31
  8
DANMEN
  6
CONTINUOUS
 10
242.75
 20
87.0
 30
0.0
 11
254.499997
 21
87.0
 31
0.0
  0
LINE
  5
1CD32
  8
DANMEN
  6
CONTINUOUS
 10
242.75
 20
83.0
 30
0.0
 11
254.499997
 21
83.0
 31
0.0
  0
LINE
  5
1CD33
  8
DANMEN
  6
CONTINUOUS
 10
267.55
 20
86.75
 30
0.0
 11
267.55
 21
91.8
 31
0.0
  0
LINE
  5
1CD34
  8
DANMEN
  6
CONTINUOUS
 10
262.549997
 20
86.75
 30
0.0
 11
262.549997
 21
88.95
 31
0.0
  0
LINE
  5
1CD35
  8
DANMEN
  6
CONTINUOUS
 10
261.449997
 20
86.75
 30
0.0
 11
261.449997
 21
88.95
 31
0.0
  0
LINE
  5
1CD36
  8
DANMEN
  6
CONTINUOUS
 10
261.449997
 20
86.75
 30
0.0
 11
256.449994
 21
86.75
 31
0.0
  0
LINE
  5
1CD39
  8
DANMEN
  6
CONTINUOUS
 10
267.55
 20
86.75
 30
0.0
 11
262.549997
 21
86.75
 31
0.0
  0
LINE
  5
1CD3D
  8
DANMEN
  6
CONTINUOUS
 10
262.549997
 20
88.95
 30
0.0
 11
261.449997
 21
88.95
 31
0.0
  0
LINE
  5
1CD41
  8
DANMEN
  6
CONTINUOUS
 10
242.75
 20
122.0
 30
0.0
 11
254.499997
 21
122.0
 31
0.0
  0
LINE
  5
1CD42
  8
DANMEN
  6
CONTINUOUS
 10
244.793737
 20
119.0
 30
0.0
 11
256.351108
 21
119.0
 31
0.0
  0
LINE
  5
1CD43
  8
DANMEN
  6
CONTINUOUS
 10
267.55
 20
108.999994
 30
0.0
 11
267.55
 21
112.050003
 31
0.0
  0
LINE
  5
1CD44
  8
DANMEN
  6
CONTINUOUS
 10
256.149994
 20
111.050003
 30
0.0
 11
256.149994
 21
112.050003
 31
0.0
  0
LINE
  5
1CD45
  8
DANMEN
  6
CONTINUOUS
 10
256.449994
 20
111.050003
 30
0.0
 11
256.149994
 21
111.050003
 31
0.0
  0
LINE
  5
1CD47
  8
DANMEN
  6
CONTINUOUS
 10
257.089664
 20
118.3
 30
0.0
 11
260.299998
 21
118.3
 31
0.0
  0
LINE
  5
1CD48
  8
DANMEN
  6
CONTINUOUS
 10
259.345221
 20
121.8
 30
0.0
 11
260.299998
 21
121.8
 31
0.0
  0
LINE
  5
1CD49
  8
DANMEN
  6
CONTINUOUS
 10
259.345221
 20
122.8
 30
0.0
 11
260.699998
 21
122.8
 31
0.0
  0
LINE
  5
1CD4A
  8
DANMEN
  6
CONTINUOUS
 10
259.899998
 20
116.5
 30
0.0
 11
259.099998
 21
116.5
 31
0.0
  0
LINE
  5
1CD4B
  8
DANMEN
  6
CONTINUOUS
 10
260.099998
 20
115.5
 30
0.0
 11
259.099998
 21
115.5
 31
0.0
  0
LINE
  5
1CD4C
  8
DANMEN
  6
CONTINUOUS
 10
259.099998
 20
117.5
 30
0.0
 11
261.299998
 21
117.5
 31
0.0
  0
LINE
  5
1CD4D
  8
DANMEN
  6
CONTINUOUS
 10
267.55
 20
112.050003
 30
0.0
 11
256.149994
 21
112.050003
 31
0.0
  0
LINE
  5
1CD4E
  8
DANMEN
  6
CONTINUOUS
 10
260.249997
 20
114.0
 30
0.0
 11
255.699997
 21
114.0
 31
0.0
  0
ARC
  5
1CD4F
  8
DANMEN
  6
CONTINUOUS
 10
259.749997
 20
117.0
 30
0.0
 40
0.5
 50
89.999982
 51
180.000019
  0
LINE
  5
1CD50
  8
DANMEN
  6
CONTINUOUS
 10
260.249997
 20
116.699997
 30
0.0
 11
259.249997
 21
116.699997
 31
0.0
  0
LINE
  5
1CD51
  8
DANMEN
  6
CONTINUOUS
 10
257.540776
 20
119.0
 30
0.0
 11
260.299998
 21
119.0
 31
0.0
  0
LINE
  5
1CD52
  8
DANMEN
  6
CONTINUOUS
 10
255.899997
 20
117.5
 30
0.0
 11
255.899997
 21
118.3
 31
0.0
  0
LINE
  5
1CD53
  8
DANMEN
  6
CONTINUOUS
 10
255.699997
 20
117.5
 30
0.0
 11
255.699997
 21
118.5
 31
0.0
  0
LINE
  5
1CD55
  8
DANMEN
  6
CONTINUOUS
 10
256.899997
 20
117.5
 30
0.0
 11
256.899997
 21
116.5
 31
0.0
  0
LINE
  5
1CD56
  8
DANMEN
  6
CONTINUOUS
 10
256.099997
 20
116.5
 30
0.0
 11
256.899997
 21
116.5
 31
0.0
  0
LINE
  5
1CD57
  8
DANMEN
  6
CONTINUOUS
 10
255.899997
 20
116.3
 30
0.0
 11
255.899997
 21
115.5
 31
0.0
  0
ARC
  5
1CD58
  8
DANMEN
  6
CONTINUOUS
 10
256.099997
 20
116.3
 30
0.0
 40
0.2
 50
89.999982
 51
180.000019
  0
LINE
  5
1CD59
  8
DANMEN
  6
CONTINUOUS
 10
259.099998
 20
117.5
 30
0.0
 11
259.099998
 21
116.5
 31
0.0
  0
LINE
  5
1CD5A
  8
DANMEN
  6
CONTINUOUS
 10
255.899997
 20
117.5
 30
0.0
 11
256.899997
 21
117.5
 31
0.0
  0
LINE
  5
1CD61
  8
DANMEN
  6
CONTINUOUS
 10
257.399997
 20
116.0
 30
0.0
 11
258.599998
 21
116.0
 31
0.0
  0
LINE
  5
1CD63
  8
DANMEN
  6
CONTINUOUS
 10
256.899997
 20
115.5
 30
0.0
 11
255.899997
 21
115.5
 31
0.0
  0
LINE
  5
1CD68
  8
DANMEN
  6
CONTINUOUS
 10
259.099998
 20
115.5
 30
0.0
 11
258.599998
 21
116.0
 31
0.0
  0
LINE
  5
1CD69
  8
DANMEN
  6
CONTINUOUS
 10
257.399997
 20
116.0
 30
0.0
 11
256.899997
 21
115.5
 31
0.0
  0
LINE
  5
1CD74
  8
DANMEN
  6
CONTINUOUS
 10
255.699997
 20
114.0
 30
0.0
 11
255.699997
 21
116.699997
 31
0.0
  0
ARC
  5
1CD76
  8
DANMEN
  6
CONTINUOUS
 10
256.249997
 20
117.0
 30
0.0
 40
0.5
 50
360.0
 51
89.999982
  0
LINE
  5
1CD77
  8
DANMEN
  6
CONTINUOUS
 10
256.249997
 20
117.5
 30
0.0
 11
255.699997
 21
117.5
 31
0.0
  0
LINE
  5
1CD78
  8
DANMEN
  6
CONTINUOUS
 10
256.749997
 20
116.699997
 30
0.0
 11
255.699997
 21
116.699997
 31
0.0
  0
LINE
  5
1CD79
  8
DANMEN
  6
CONTINUOUS
 10
259.249997
 20
116.699997
 30
0.0
 11
259.249997
 21
117.0
 31
0.0
  0
LINE
  5
1CD7A
  8
DANMEN
  6
CONTINUOUS
 10
256.749997
 20
116.699997
 30
0.0
 11
256.749997
 21
117.0
 31
0.0
  0
ARC
  5
1CD7B
  8
DANMEN
  6
CONTINUOUS
 10
255.199997
 20
118.5
 30
0.0
 40
0.5
 50
0.0
 51
90.0
  0
ARC
  5
1CD7C
  8
DANMEN
  6
CONTINUOUS
 10
255.499997
 20
123.0
 30
0.0
 40
1.0
 50
180.0
 51
270.0
  0
LINE
  5
1CD7E
  8
DANMEN
  6
CONTINUOUS
 10
254.999997
 20
119.0
 30
0.0
 11
255.199997
 21
119.0
 31
0.0
  0
ARC
  5
1CD7F
  8
DANMEN
  6
CONTINUOUS
 10
254.999997
 20
118.5
 30
0.0
 40
0.5
 50
90.0
 51
180.0
  0
LINE
  5
1CD83
  8
DANMEN
  6
CONTINUOUS
 10
259.345221
 20
121.8
 30
0.0
 11
257.089664
 21
118.3
 31
0.0
  0
ARC
  5
1CD85
  8
DANMEN
  6
CONTINUOUS
 10
259.345221
 20
121.8
 30
0.0
 40
1.0
 50
90.0
 51
147.20046
  0
LINE
  5
1CD86
  8
DANMEN
  6
CONTINUOUS
 10
258.50465
 20
122.341701
 30
0.0
 11
255.899997
 21
118.3
 31
0.0
  0
LINE
  5
1CD8C
  8
DANMEN
  6
CONTINUOUS
 10
261.299998
 20
122.2
 30
0.0
 11
261.299998
 21
117.5
 31
0.0
  0
LINE
  5
1CD8D
  8
DANMEN
  6
CONTINUOUS
 10
267.55
 20
114.0
 30
0.0
 11
267.55
 21
118.5
 31
0.0
  0
LINE
  5
1CD8E
  8
DANMEN
  6
CONTINUOUS
 10
267.55
 20
114.0
 30
0.0
 11
261.249997
 21
114.0
 31
0.0
  0
LINE
  5
1CD90
  8
DANMEN
  6
CONTINUOUS
 10
260.099998
 20
116.3
 30
0.0
 11
260.099998
 21
115.5
 31
0.0
  0
ARC
  5
1CD91
  8
DANMEN
  6
CONTINUOUS
 10
259.899998
 20
116.3
 30
0.0
 40
0.2
 50
359.999981
 51
90.000037
  0
ARC
  5
1CD97
  8
DANMEN
  6
CONTINUOUS
 10
260.749997
 20
117.0
 30
0.0
 40
0.5
 50
360.0
 51
89.999982
  0
LINE
  5
1CD98
  8
DANMEN
  6
CONTINUOUS
 10
260.249997
 20
114.0
 30
0.0
 11
260.249997
 21
116.699997
 31
0.0
  0
LINE
  5
1CD99
  8
DANMEN
  6
CONTINUOUS
 10
261.249997
 20
114.0
 30
0.0
 11
261.249997
 21
117.0
 31
0.0
  0
LINE
  5
1CD9A
  8
DANMEN
  6
CONTINUOUS
 10
260.749997
 20
117.5
 30
0.0
 11
259.749997
 21
117.5
 31
0.0
  0
ARC
  5
1CD9F
  8
DANMEN
  6
CONTINUOUS
 10
260.699998
 20
122.2
 30
0.0
 40
0.6
 50
0.0
 51
90.0
  0
LINE
  5
1CDA1
  8
DANMEN
  6
CONTINUOUS
 10
260.299998
 20
121.8
 30
0.0
 11
260.299998
 21
118.3
 31
0.0
  0
LINE
  5
1CDA4
  8
DANMEN
  6
CONTINUOUS
 10
279.0
 20
77.0
 30
0.0
 11
279.0
 21
84.8
 31
0.0
  0
LINE
  5
1CDA5
  8
DANMEN
  6
CONTINUOUS
 10
309.499997
 20
40.0
 30
0.0
 11
309.499997
 21
83.0
 31
0.0
  0
LINE
  5
1CDA6
  8
DANMEN
  6
CONTINUOUS
 10
307.5
 20
76.0
 30
0.0
 11
280.0
 21
76.0
 31
0.0
  0
ARC
  5
1CDA8
  8
DANMEN
  6
CONTINUOUS
 10
280.0
 20
77.0
 30
0.0
 40
1.0
 50
179.999981
 51
270.000018
  0
LINE
  5
1CDAA
  8
DANMEN
  6
CONTINUOUS
 10
307.5
 20
76.0
 30
0.0
 11
306.499997
 21
53.0
 31
0.0
  0
ARC
  5
1CDAB
  8
DANMEN
  6
CONTINUOUS
 10
307.499997
 20
40.0
 30
0.0
 40
2.0
 50
270.000018
 51
0.0
  0
LINE
  5
1CDAD
  8
DANMEN
  6
CONTINUOUS
 10
306.499997
 20
43.0
 30
0.0
 11
306.499997
 21
53.0
 31
0.0
  0
LINE
  5
1CDAF
  8
DANMEN
  6
CONTINUOUS
 10
309.499997
 20
76.0
 30
0.0
 11
321.25
 21
76.0
 31
0.0
  0
LINE
  5
1CDB1
  8
DANMEN
  6
CONTINUOUS
 10
308.999993
 20
114.0
 30
0.0
 11
289.499997
 21
114.0
 31
0.0
  0
LINE
  5
1CDB2
  8
DANMEN
  6
CONTINUOUS
 10
304.499994
 20
112.05
 30
0.0
 11
291.799997
 21
112.05
 31
0.0
  0
LINE
  5
1CDB3
  8
DANMEN
  6
CONTINUOUS
 10
308.399997
 20
77.949997
 30
0.0
 11
281.499997
 21
77.949997
 31
0.0
  0
LINE
  5
1CDB4
  8
DANMEN
  6
CONTINUOUS
 10
307.55
 20
82.0
 30
0.0
 11
298.999997
 21
82.0
 31
0.0
  0
LINE
  5
1CDB5
  8
DANMEN
  6
CONTINUOUS
 10
304.499997
 20
83.0
 30
0.0
 11
299.499997
 21
83.0
 31
0.0
  0
LINE
  5
1CDB6
  8
DANMEN
  6
CONTINUOUS
 10
284.499997
 20
122.0
 30
0.0
 11
307.999997
 21
122.0
 31
0.0
  0
LINE
  5
1CDB7
  8
DANMEN
  6
CONTINUOUS
 10
284.499997
 20
119.0
 30
0.0
 11
307.999997
 21
119.0
 31
0.0
  0
LINE
  5
1CDB8
  8
DANMEN
  6
CONTINUOUS
 10
294.499996
 20
91.85
 30
0.0
 11
321.25
 21
91.85
 31
0.0
  0
LINE
  5
1CDB9
  8
DANMEN
  6
CONTINUOUS
 10
294.499996
 20
96.85
 30
0.0
 11
321.25
 21
96.85
 31
0.0
  0
LINE
  5
1CDBA
  8
DANMEN
  6
CONTINUOUS
 10
294.499996
 20
103.15
 30
0.0
 11
321.25
 21
103.15
 31
0.0
  0
LINE
  5
1CDBB
  8
DANMEN
  6
CONTINUOUS
 10
294.499996
 20
98.15
 30
0.0
 11
321.25
 21
98.15
 31
0.0
  0
LINE
  5
1CDBC
  8
DANMEN
  6
CONTINUOUS
 10
294.499996
 20
91.35
 30
0.0
 11
321.25
 21
91.35
 31
0.0
  0
LINE
  5
1CDBD
  8
DANMEN
  6
CONTINUOUS
 10
294.499996
 20
103.65
 30
0.0
 11
321.25
 21
103.65
 31
0.0
  0
LINE
  5
1CDBE
  8
DANMEN
  6
CONTINUOUS
 10
294.499996
 20
97.35
 30
0.0
 11
321.25
 21
97.35
 31
0.0
  0
LINE
  5
1CDBF
  8
DANMEN
  6
CONTINUOUS
 10
294.499996
 20
97.65
 30
0.0
 11
321.25
 21
97.65
 31
0.0
  0
LINE
  5
1CDC0
  8
DANMEN
  6
CONTINUOUS
 10
281.499997
 20
106.299994
 30
0.0
 11
281.499997
 21
88.299994
 31
0.0
  0
LINE
  5
1CDC1
  8
DANMEN
  6
CONTINUOUS
 10
294.499997
 20
106.299994
 30
0.0
 11
294.499997
 21
88.299994
 31
0.0
  0
LINE
  5
1CDC2
  8
DANMEN
  6
CONTINUOUS
 10
294.499997
 20
88.299994
 30
0.0
 11
281.499997
 21
106.299994
 31
0.0
  0
LINE
  5
1CDC3
  8
DANMEN
  6
CONTINUOUS
 10
278.999997
 20
86.75
 30
0.0
 11
278.999997
 21
112.050003
 31
0.0
  0
LINE
  5
1CDC4
  8
DANMEN
  6
CONTINUOUS
 10
281.499997
 20
77.949997
 30
0.0
 11
281.499997
 21
107.299994
 31
0.0
  0
LINE
  5
1CDC5
  8
DANMEN
  6
CONTINUOUS
 10
294.499997
 20
105.5
 30
0.0
 11
294.499997
 21
89.5
 31
0.0
  0
LINE
  5
1CDC6
  8
DANMEN
  6
CONTINUOUS
 10
281.499997
 20
88.299994
 30
0.0
 11
294.499997
 21
88.299994
 31
0.0
  0
LINE
  5
1CDC7
  8
DANMEN
  6
CONTINUOUS
 10
268.55
 20
86.75
 30
0.0
 11
268.55
 21
91.3
 31
0.0
  0
LINE
  5
1CDC8
  8
DANMEN
  6
CONTINUOUS
 10
279.0
 20
86.75
 30
0.0
 11
268.55
 21
86.75
 31
0.0
  0
ARC
  5
1CDCE
  8
DANMEN
  6
CONTINUOUS
 10
268.05
 20
91.3
 30
0.0
 40
0.5
 50
0.0
 51
89.999982
  0
LINE
  5
1CDCF
  8
DANMEN
  6
CONTINUOUS
 10
298.499997
 20
82.5
 30
0.0
 11
298.499997
 21
83.0
 31
0.0
  0
ARC
  5
1CDD0
  8
DANMEN
  6
CONTINUOUS
 10
298.999997
 20
82.5
 30
0.0
 40
0.5
 50
180.0
 51
270.0
  0
LINE
  5
1CDD2
  8
DANMEN
  6
CONTINUOUS
 10
299.499997
 20
83.0
 30
0.0
 11
299.499997
 21
83.5
 31
0.0
  0
LINE
  5
1CDD4
  8
DANMEN
  6
CONTINUOUS
 10
299.499997
 20
83.5
 30
0.0
 11
298.999997
 21
83.5
 31
0.0
  0
ARC
  5
1CDD6
  8
DANMEN
  6
CONTINUOUS
 10
298.999997
 20
83.0
 30
0.0
 40
0.5
 50
90.0
 51
180.0
  0
LINE
  5
1CDD8
  8
DANMEN
  6
CONTINUOUS
 10
281.499997
 20
106.299994
 30
0.0
 11
294.499997
 21
106.299994
 31
0.0
  0
LINE
  5
1CDD9
  8
DANMEN
  6
CONTINUOUS
 10
286.849202
 20
111.930331
 30
0.0
 11
283.790102
 21
109.568364
 31
0.0
  0
LINE
  5
1CDDA
  8
DANMEN
  6
CONTINUOUS
 10
284.240433
 20
108.4
 30
0.0
 11
282.999103
 21
108.4
 31
0.0
  0
LINE
  5
1CDDB
  8
DANMEN
  6
CONTINUOUS
 10
289.499997
 20
114.0
 30
0.0
 11
269.049997
 21
114.0
 31
0.0
  0
LINE
  5
1CDDC
  8
DANMEN
  6
CONTINUOUS
 10
287.499997
 20
112.05
 30
0.0
 11
281.499997
 21
112.05
 31
0.0
  0
LINE
  5
1CDDD
  8
DANMEN
  6
CONTINUOUS
 10
287.499997
 20
107.299994
 30
0.0
 11
281.499997
 21
107.299994
 31
0.0
  0
LINE
  5
1CDDE
  8
DANMEN
  6
CONTINUOUS
 10
285.499997
 20
108.499994
 30
0.0
 11
281.499997
 21
108.499994
 31
0.0
  0
ARC
  5
1CDDF
  8
DANMEN
  6
CONTINUOUS
 10
283.499997
 20
117.5
 30
0.0
 40
1.0
 50
270.000018
 51
0.0
  0
LINE
  5
1CDE0
  8
DANMEN
  6
CONTINUOUS
 10
281.499997
 20
108.499994
 30
0.0
 11
281.499997
 21
112.05
 31
0.0
  0
LINE
  5
1CDE1
  8
DANMEN
  6
CONTINUOUS
 10
268.55
 20
109.499994
 30
0.0
 11
268.55
 21
112.050003
 31
0.0
  0
ARC
  5
1CDE3
  8
DANMEN
  6
CONTINUOUS
 10
268.05
 20
109.499994
 30
0.0
 40
0.5
 50
270.0
 51
0.0
  0
ARC
  5
1CDE4
  8
DANMEN
  6
CONTINUOUS
 10
283.60676
 20
109.80582
 30
0.0
 40
0.3
 50
214.708049
 51
307.672157
  0
LINE
  5
1CDE5
  8
DANMEN
  6
CONTINUOUS
 10
283.36014
 20
109.635002
 30
0.0
 11
282.910135
 21
110.284698
 31
0.0
  0
LINE
  5
1CDE7
  8
DANMEN
  6
CONTINUOUS
 10
282.999103
 20
108.4
 30
0.0
 11
282.088071
 21
109.715302
 31
0.0
  0
ARC
  5
1CDEA
  8
DANMEN
  6
CONTINUOUS
 10
282.499103
 20
110.0
 30
0.0
 40
0.5
 50
34.708049
 51
214.708049
  0
LINE
  5
1CDEE
  8
DANMEN
  6
CONTINUOUS
 10
278.999997
 20
112.050003
 30
0.0
 11
268.55
 21
112.050003
 31
0.0
  0
LINE
  5
1CDEF
  8
DANMEN
  6
CONTINUOUS
 10
278.75
 20
119.5
 30
0.0
 11
268.549997
 21
119.5
 31
0.0
  0
LINE
  5
1CDF0
  8
DANMEN
  6
CONTINUOUS
 10
273.05
 20
117.2
 30
0.0
 11
278.835145
 21
118.912336
 31
0.0
  0
LINE
  5
1CDF1
  8
DANMEN
  6
CONTINUOUS
 10
273.299997
 20
116.5
 30
0.0
 11
283.499997
 21
116.5
 31
0.0
  0
LINE
  5
1CDF2
  8
DANMEN
  6
CONTINUOUS
 10
278.999997
 20
118.8
 30
0.0
 11
273.214852
 21
117.087664
 31
0.0
  0
LINE
  5
1CDF3
  8
DANMEN
  6
CONTINUOUS
 10
269.049997
 20
114.0
 30
0.0
 11
269.049997
 21
118.0
 31
0.0
  0
LINE
  5
1CDF4
  8
DANMEN
  6
CONTINUOUS
 10
272.55
 20
118.0
 30
0.0
 11
272.55
 21
117.2
 31
0.0
  0
LINE
  5
1CDF9
  8
DANMEN
  6
CONTINUOUS
 10
273.05
 20
117.2
 30
0.0
 11
272.55
 21
117.2
 31
0.0
  0
ARC
  5
1CDFC
  8
DANMEN
  6
CONTINUOUS
 10
273.299997
 20
116.8
 30
0.0
 40
0.3
 50
106.488148
 51
270.0
  0
LINE
  5
1CDFD
  8
DANMEN
  6
CONTINUOUS
 10
272.55
 20
118.0
 30
0.0
 11
269.049997
 21
118.0
 31
0.0
  0
LINE
  5
1CE04
  8
DANMEN
  6
CONTINUOUS
 10
279.499997
 20
118.0
 30
0.0
 11
282.999997
 21
118.0
 31
0.0
  0
ARC
  5
1CE08
  8
DANMEN
  6
CONTINUOUS
 10
278.75
 20
119.2
 30
0.0
 40
0.3
 50
286.488148
 51
90.0
  0
LINE
  5
1CE09
  8
DANMEN
  6
CONTINUOUS
 10
278.999997
 20
118.8
 30
0.0
 11
279.499997
 21
118.8
 31
0.0
  0
LINE
  5
1CE0B
  8
DANMEN
  6
CONTINUOUS
 10
279.499997
 20
118.0
 30
0.0
 11
279.499997
 21
118.8
 31
0.0
  0
LINE
  5
1CE11
  8
DANMEN
  6
CONTINUOUS
 10
282.999997
 20
122.0
 30
0.0
 11
282.999997
 21
118.0
 31
0.0
  0
ARC
  5
1CE12
  8
DANMEN
  6
CONTINUOUS
 10
287.100061
 20
111.497816
 30
0.0
 40
0.5
 50
26.118581
 51
120.113733
  0
LINE
  5
1CE13
  8
DANMEN
  6
CONTINUOUS
 10
289.799997
 20
112.05
 30
0.0
 11
289.799997
 21
111.55
 31
0.0
  0
ARC
  5
1CE14
  8
DANMEN
  6
CONTINUOUS
 10
291.799997
 20
111.55
 30
0.0
 40
0.5
 50
90.0
 51
180.0
  0
LINE
  5
1CE15
  8
DANMEN
  6
CONTINUOUS
 10
287.499997
 20
111.8
 30
0.0
 11
287.499997
 21
112.05
 31
0.0
  0
ARC
  5
1CE16
  8
DANMEN
  6
CONTINUOUS
 10
288.999997
 20
112.292199
 30
0.0
 40
0.5
 50
299.396173
 51
0.0
  0
LINE
  5
1CE17
  8
DANMEN
  6
CONTINUOUS
 10
290.799997
 20
110.35
 30
0.0
 11
286.765973
 21
110.35
 31
0.0
  0
LINE
  5
1CE18
  8
DANMEN
  6
CONTINUOUS
 10
289.799997
 20
111.55
 30
0.0
 11
287.818369
 21
111.55
 31
0.0
  0
LINE
  5
1CE19
  8
DANMEN
  6
CONTINUOUS
 10
287.799997
 20
111.5
 30
0.0
 11
288.503752
 21
111.5
 31
0.0
  0
LINE
  5
1CE1C
  8
DANMEN
  6
CONTINUOUS
 10
286.765973
 20
110.35
 30
0.0
 11
284.240433
 21
108.4
 31
0.0
  0
ARC
  5
1CE1E
  8
DANMEN
  6
CONTINUOUS
 10
287.818369
 20
111.85
 30
0.0
 40
0.3
 50
206.118581
 51
270.0
  0
LINE
  5
1CE20
  8
DANMEN
  6
CONTINUOUS
 10
285.499997
 20
108.499994
 30
0.0
 11
287.098055
 21
108.180382
 31
0.0
  0
ARC
  5
1CE24
  8
DANMEN
  6
CONTINUOUS
 10
287.799997
 20
111.8
 30
0.0
 40
0.3
 50
180.0
 51
270.0
  0
LINE
  5
1CE25
  8
DANMEN
  6
CONTINUOUS
 10
287.499997
 20
107.690092
 30
0.0
 11
287.499997
 21
107.299994
 31
0.0
  0
ARC
  5
1CE26
  8
DANMEN
  6
CONTINUOUS
 10
286.999997
 20
107.690092
 30
0.0
 40
0.5
 50
0.0
 51
78.690068
  0
ARC
  5
1CE2A
  8
DANMEN
  6
CONTINUOUS
 10
290.799997
 20
110.85
 30
0.0
 40
0.5
 50
270.0
 51
0.0
  0
LINE
  5
1CE2B
  8
DANMEN
  6
CONTINUOUS
 10
291.299997
 20
111.55
 30
0.0
 11
291.299997
 21
110.85
 31
0.0
  0
LINE
  5
1CE2F
  8
DANMEN
  6
CONTINUOUS
 10
288.503752
 20
111.5
 30
0.0
 11
289.24542
 21
111.856576
 31
0.0
  0
LINE
  5
1CE31
  8
DANMEN
  6
CONTINUOUS
 10
284.499997
 20
122.0
 30
0.0
 11
284.499997
 21
117.5
 31
0.0
  0
LINE
  5
1CE3B
  8
DANMEN
  6
CONTINUOUS
 10
289.799997
 20
112.05
 30
0.0
 11
289.499997
 21
112.05
 31
0.0
  0
LINE
  5
1CE3C
  8
DANMEN
  6
CONTINUOUS
 10
289.499997
 20
114.0
 30
0.0
 11
289.499997
 21
112.05
 31
0.0
  0
LINE
  5
1CE3E
  8
DANMEN
  6
CONTINUOUS
 10
289.499997
 20
114.0
 30
0.0
 11
289.499997
 21
112.292199
 31
0.0
  0
LINE
  5
1CE42
  8
DANMEN
  6
CONTINUOUS
 10
309.499997
 20
78.199997
 30
0.0
 11
321.25
 21
78.199997
 31
0.0
  0
LINE
  5
1CE43
  8
DANMEN
  6
CONTINUOUS
 10
309.499997
 20
82.999997
 30
0.0
 11
321.25
 21
82.999997
 31
0.0
  0
LINE
  5
1CE44
  8
DANMEN
  6
CONTINUOUS
 10
309.713954
 20
91.349997
 30
0.0
 11
306.499995
 21
88.136039
 31
0.0
  0
LINE
  5
1CE45
  8
DANMEN
  6
CONTINUOUS
 10
310.318319
 20
89.833042
 30
0.0
 11
306.499996
 21
86.014718
 31
0.0
  0
LINE
  5
1CE46
  8
DANMEN
  6
CONTINUOUS
 10
310.143277
 20
88.371438
 30
0.0
 11
307.164717
 21
91.349997
 31
0.0
  0
LINE
  5
1CE47
  8
DANMEN
  6
CONTINUOUS
 10
309.916398
 20
86.476996
 30
0.0
 11
306.499995
 21
89.893399
 31
0.0
  0
LINE
  5
1CE48
  8
DANMEN
  6
CONTINUOUS
 10
310.49999
 20
91.35
 30
0.0
 11
309.499991
 21
83.000002
 31
0.0
  0
LINE
  5
1CE49
  8
DANMEN
  6
CONTINUOUS
 10
310.029704
 20
87.423107
 30
0.0
 11
306.499996
 21
83.893398
 31
0.0
  0
LINE
  5
1CE4A
  8
DANMEN
  6
CONTINUOUS
 10
309.74109
 20
85.013172
 30
0.0
 11
308.227918
 21
83.5
 31
0.0
  0
LINE
  5
1CE4B
  8
DANMEN
  6
CONTINUOUS
 10
309.689519
 20
84.582555
 30
0.0
 11
306.499995
 21
87.772078
 31
0.0
  0
LINE
  5
1CE4C
  8
DANMEN
  6
CONTINUOUS
 10
308.650753
 20
83.5
 30
0.0
 11
306.499996
 21
85.650758
 31
0.0
  0
LINE
  5
1CE4D
  8
DANMEN
  6
CONTINUOUS
 10
308.999997
 20
83.5
 30
0.0
 11
304.499997
 21
83.5
 31
0.0
  0
LINE
  5
1CE4E
  8
DANMEN
  6
CONTINUOUS
 10
307.55
 20
79.949997
 30
0.0
 11
307.55
 21
82.0
 31
0.0
  0
LINE
  5
1CE4F
  8
DANMEN
  6
CONTINUOUS
 10
308.399997
 20
79.949997
 30
0.0
 11
307.55
 21
79.949997
 31
0.0
  0
LINE
  5
1CE52
  8
DANMEN
  6
CONTINUOUS
 10
308.399997
 20
77.949997
 30
0.0
 11
308.399997
 21
79.949997
 31
0.0
  0
LINE
  5
1CE56
  8
DANMEN
  6
CONTINUOUS
 10
304.499997
 20
83.0
 30
0.0
 11
304.499997
 21
83.5
 31
0.0
  0
LINE
  5
1CE58
  8
DANMEN
  6
CONTINUOUS
 10
306.529433
 20
83.5
 30
0.0
 11
306.499996
 21
83.529437
 31
0.0
  0
ARC
  5
1CE5A
  8
DANMEN
  6
CONTINUOUS
 10
308.999997
 20
83.0
 30
0.0
 40
0.5
 50
0.000019
 51
89.999982
  0
LINE
  5
1CE5B
  8
DANMEN
  6
CONTINUOUS
 10
307.592633
 20
91.349997
 30
0.0
 11
306.499995
 21
90.257359
 31
0.0
  0
LINE
  5
1CE5C
  8
DANMEN
  6
CONTINUOUS
 10
310.370156
 20
90.265879
 30
0.0
 11
309.286038
 21
91.349997
 31
0.0
  0
LINE
  5
1CE5E
  8
DANMEN
  6
CONTINUOUS
 10
309.499997
 20
119.0
 30
0.0
 11
321.25
 21
119.0
 31
0.0
  0
LINE
  5
1CE5F
  8
DANMEN
  6
CONTINUOUS
 10
309.499997
 20
114.0
 30
0.0
 11
321.25
 21
114.0
 31
0.0
  0
LINE
  5
1CE60
  8
DANMEN
  6
CONTINUOUS
 10
309.499997
 20
111.999966
 30
0.0
 11
321.25
 21
111.999966
 31
0.0
  0
LINE
  5
1CE61
  8
DANMEN
  6
CONTINUOUS
 10
310.499998
 20
103.65
 30
0.0
 11
309.499998
 21
112.000005
 31
0.0
  0
ARC
  5
1CE62
  8
DANMEN
  6
CONTINUOUS
 10
308.999994
 20
112.0
 30
0.0
 40
0.5
 50
270.0
 51
0.0
  0
LINE
  5
1CE63
  8
DANMEN
  6
CONTINUOUS
 10
304.499994
 20
112.05
 30
0.0
 11
304.499994
 21
111.5
 31
0.0
  0
LINE
  5
1CE64
  8
DANMEN
  6
CONTINUOUS
 10
308.650753
 20
111.5
 30
0.0
 11
306.499996
 21
109.349242
 31
0.0
  0
LINE
  5
1CE65
  8
DANMEN
  6
CONTINUOUS
 10
309.689519
 20
110.417445
 30
0.0
 11
306.499996
 21
107.227922
 31
0.0
  0
LINE
  5
1CE66
  8
DANMEN
  6
CONTINUOUS
 10
309.916398
 20
108.523004
 30
0.0
 11
306.499996
 21
105.106602
 31
0.0
  0
LINE
  5
1CE67
  8
DANMEN
  6
CONTINUOUS
 10
310.143277
 20
106.628562
 30
0.0
 11
307.16471
 21
103.649996
 31
0.0
  0
LINE
  5
1CE68
  8
DANMEN
  6
CONTINUOUS
 10
309.74109
 20
109.986828
 30
0.0
 11
308.227918
 21
111.5
 31
0.0
  0
LINE
  5
1CE69
  8
DANMEN
  6
CONTINUOUS
 10
310.029704
 20
107.576893
 30
0.0
 11
306.499996
 21
111.106602
 31
0.0
  0
LINE
  5
1CE6A
  8
DANMEN
  6
CONTINUOUS
 10
310.318319
 20
105.166959
 30
0.0
 11
306.499996
 21
108.985281
 31
0.0
  0
LINE
  5
1CE6B
  8
DANMEN
  6
CONTINUOUS
 10
309.713961
 20
103.649996
 30
0.0
 11
306.499996
 21
106.863961
 31
0.0
  0
LINE
  5
1CE6C
  8
DANMEN
  6
CONTINUOUS
 10
308.999993
 20
111.5
 30
0.0
 11
304.499994
 21
111.5
 31
0.0
  0
LINE
  5
1CE6D
  8
DANMEN
  6
CONTINUOUS
 10
307.592641
 20
103.649996
 30
0.0
 11
306.499996
 21
104.742641
 31
0.0
  0
LINE
  5
1CE6F
  8
DANMEN
  6
CONTINUOUS
 10
306.529433
 20
111.5
 30
0.0
 11
306.499996
 21
111.470563
 31
0.0
  0
LINE
  5
1CE70
  8
DANMEN
  6
CONTINUOUS
 10
310.370155
 20
104.734121
 30
0.0
 11
309.28603
 21
103.649996
 31
0.0
  0
ARC
  5
1CE73
  8
DANMEN
  6
CONTINUOUS
 10
308.499997
 20
117.5
 30
0.0
 40
1.0
 50
270.0
 51
0.0
  0
ARC
  5
1CE74
  8
DANMEN
  6
CONTINUOUS
 10
304.999997
 20
117.5
 30
0.0
 40
0.5
 50
90.0
 51
180.0
  0
ARC
  5
1CE75
  8
DANMEN
  6
CONTINUOUS
 10
304.999997
 20
117.0
 30
0.0
 40
0.5
 50
180.0
 51
270.0
  0
LINE
  5
1CE78
  8
DANMEN
  6
CONTINUOUS
 10
304.499997
 20
117.5
 30
0.0
 11
304.499997
 21
117.0
 31
0.0
  0
LINE
  5
1CE79
  8
DANMEN
  6
CONTINUOUS
 10
304.999997
 20
116.5
 30
0.0
 11
308.499997
 21
116.5
 31
0.0
  0
LINE
  5
1CE7C
  8
DANMEN
  6
CONTINUOUS
 10
304.999997
 20
118.0
 30
0.0
 11
307.999997
 21
118.0
 31
0.0
  0
LINE
  5
1CE7E
  8
DANMEN
  6
CONTINUOUS
 10
307.999997
 20
122.0
 30
0.0
 11
307.999997
 21
118.0
 31
0.0
  0
LINE
  5
1CE80
  8
DANMEN
  6
CONTINUOUS
 10
309.499994
 20
113.5
 30
0.0
 11
309.499994
 21
112.0
 31
0.0
  0
ARC
  5
1CE81
  8
DANMEN
  6
CONTINUOUS
 10
308.999994
 20
113.5
 30
0.0
 40
0.5
 50
0.000091
 51
90.000128
  0
LINE
  5
1CE83
  8
SUNPO
  6
CONTINUOUS
 10
21.0
 20
23.0
 30
0.0
 11
21.0
 21
32.0
 31
0.0
  0
LINE
  5
1CE84
  8
SUNPO
  6
CONTINUOUS
 10
52.5
 20
23.0
 30
0.0
 11
21.0
 21
23.0
 31
0.0
  0
ARC
  5
1CE85
  8
SUNPO
  6
BYBLOCK
 10
21.0
 20
23.0
 30
0.0
 40
0.145
 50
270.0
 51
90.0
  0
ARC
  5
1CE86
  8
SUNPO
  6
BYBLOCK
 10
21.0
 20
23.0
 30
0.0
 40
0.145
 50
90.0
 51
270.0
  0
TEXT
  5
1CE87
  8
SUNPO
  6
CONTINUOUS
 10
20.0
 20
26.666667
 30
0.0
 40
2.5
  1
9
 50
90.0
  7
MX_NOTE_STANDARD
  0
TEXT
  5
1CE88
  8
SUNPO
  6
CONTINUOUS
 10
46.333333
 20
16.0
 30
0.0
 40
2.5
  1
12
  7
MX_NOTE_STANDARD
  0
LINE
  5
1CE89
  8
SUNPO
  6
CONTINUOUS
 10
54.0
 20
15.0
 30
0.0
 11
42.0
 21
15.0
 31
0.0
  0
LINE
  5
1CE8A
  8
SUNPO
  6
CONTINUOUS
 10
42.0
 20
30.5
 30
0.0
 11
42.0
 21
15.0
 31
0.0
  0
ARC
  5
1CE8B
  8
SUNPO
  6
BYBLOCK
 10
42.0
 20
15.0
 30
0.0
 40
0.145
 50
180.0
 51
0.0
  0
ARC
  5
1CE8C
  8
SUNPO
  6
BYBLOCK
 10
42.0
 20
15.0
 30
0.0
 40
0.145
 50
0.0
 51
180.0
  0
LINE
  5
1CE8D
  8
SUNPO
  6
CONTINUOUS
 10
54.0
 20
21.5
 30
0.0
 11
54.0
 21
15.0
 31
0.0
  0
ARC
  5
1CE8E
  8
SUNPO
  6
BYBLOCK
 10
54.0
 20
15.0
 30
0.0
 40
0.145
 50
0.0
 51
180.0
  0
ARC
  5
1CE8F
  8
SUNPO
  6
BYBLOCK
 10
54.0
 20
15.0
 30
0.0
 40
0.145
 50
180.0
 51
0.0
  0
LINE
  5
1CE90
  8
DANMEN
  6
CONTINUOUS
 10
400.350006
 20
84.649994
 30
0.0
 11
393.649994
 21
84.649994
 31
0.0
  0
LINE
  5
1CE91
  8
DANMEN
  6
CONTINUOUS
 10
401.5
 20
83.0
 30
0.0
 11
377.5
 21
83.0
 31
0.0
  0
LINE
  5
1CE92
  8
DANMEN
  6
CONTINUOUS
 10
377.0
 20
76.999994
 30
0.0
 11
377.0
 21
84.8
 31
0.0
  0
LINE
  5
1CE93
  8
DANMEN
  6
CONTINUOUS
 10
347.0
 20
76.499994
 30
0.0
 11
347.0
 21
82.999997
 31
0.0
  0
LINE
  5
1CE94
  8
DANMEN
  6
CONTINUOUS
 10
376.0
 20
75.999994
 30
0.0
 11
347.5
 21
75.999994
 31
0.0
  0
ARC
  5
1CE95
  8
DANMEN
  6
CONTINUOUS
 10
347.5
 20
76.499994
 30
0.0
 40
0.5
 50
179.999999
 51
269.999981
  0
ARC
  5
1CE97
  8
DANMEN
  6
CONTINUOUS
 10
376.0
 20
76.999994
 30
0.0
 40
1.0
 50
270.0
 51
0.0
  0
LINE
  5
1CE9A
  8
DANMEN
  6
CONTINUOUS
 10
365.7
 20
110.3
 30
0.0
 11
369.598917
 21
110.3
 31
0.0
  0
LINE
  5
1CE9B
  8
DANMEN
  6
CONTINUOUS
 10
347.500004
 20
114.0
 30
0.0
 11
367.0
 21
114.0
 31
0.0
  0
LINE
  5
1CE9C
  8
DANMEN
  6
CONTINUOUS
 10
375.0
 20
77.649994
 30
0.0
 11
348.2
 21
77.649994
 31
0.0
  0
LINE
  5
1CE9D
  8
DANMEN
  6
CONTINUOUS
 10
362.0
 20
103.65
 30
0.0
 11
362.0
 21
91.35
 31
0.0
  0
LINE
  5
1CE9E
  8
DANMEN
  6
CONTINUOUS
 10
347.849242
 20
83.5
 30
0.0
 11
350.0
 21
85.650758
 31
0.0
  0
LINE
  5
1CE9F
  8
DANMEN
  6
CONTINUOUS
 10
346.810477
 20
84.582555
 30
0.0
 11
350.0
 21
87.772078
 31
0.0
  0
LINE
  5
1CEA0
  8
DANMEN
  6
CONTINUOUS
 10
346.583598
 20
86.476996
 30
0.0
 11
350.0
 21
89.893398
 31
0.0
  0
LINE
  5
1CEA1
  8
DANMEN
  6
CONTINUOUS
 10
346.470292
 20
87.423107
 30
0.0
 11
350.0
 21
83.893398
 31
0.0
  0
LINE
  5
1CEA2
  8
DANMEN
  6
CONTINUOUS
 10
346.181677
 20
89.833041
 30
0.0
 11
350.0
 21
86.014719
 31
0.0
  0
LINE
  5
1CEA3
  8
DANMEN
  6
CONTINUOUS
 10
346.786035
 20
91.350004
 30
0.0
 11
350.0
 21
88.136039
 31
0.0
  0
LINE
  5
1CEA4
  8
DANMEN
  6
CONTINUOUS
 10
348.907355
 20
91.350004
 30
0.0
 11
350.0
 21
90.257359
 31
0.0
  0
LINE
  5
1CEA5
  8
DANMEN
  6
CONTINUOUS
 10
347.500001
 20
83.499997
 30
0.0
 11
352.0
 21
83.499997
 31
0.0
  0
LINE
  5
1CEA6
  8
DANMEN
  6
CONTINUOUS
 10
348.65
 20
81.999997
 30
0.0
 11
357.5
 21
81.999997
 31
0.0
  0
LINE
  5
1CEA7
  8
DANMEN
  6
CONTINUOUS
 10
346.356719
 20
88.371438
 30
0.0
 11
349.335286
 21
91.350004
 31
0.0
  0
LINE
  5
1CEA8
  8
DANMEN
  6
CONTINUOUS
 10
345.999997
 20
91.35
 30
0.0
 11
346.999997
 21
82.999995
 31
0.0
  0
LINE
  5
1CEA9
  8
DANMEN
  6
CONTINUOUS
 10
348.65
 20
79.949991
 30
0.0
 11
348.2
 21
79.949991
 31
0.0
  0
LINE
  5
1CEAA
  8
DANMEN
  6
CONTINUOUS
 10
348.2
 20
77.649994
 30
0.0
 11
348.2
 21
79.949991
 31
0.0
  0
LINE
  5
1CEAB
  8
DANMEN
  6
CONTINUOUS
 10
348.65
 20
79.949991
 30
0.0
 11
348.65
 21
81.999997
 31
0.0
  0
LINE
  5
1CEAF
  8
DANMEN
  6
CONTINUOUS
 10
346.758906
 20
85.013172
 30
0.0
 11
348.272078
 21
83.5
 31
0.0
  0
ARC
  5
1CEB0
  8
DANMEN
  6
CONTINUOUS
 10
347.5
 20
82.999997
 30
0.0
 40
0.5
 50
90.0
 51
179.999982
  0
LINE
  5
1CEB2
  8
DANMEN
  6
CONTINUOUS
 10
346.12984
 20
90.265879
 30
0.0
 11
347.213965
 21
91.350004
 31
0.0
  0
ARC
  5
1CEB5
  8
DANMEN
  6
CONTINUOUS
 10
357.5
 20
82.499997
 30
0.0
 40
0.5
 50
270.0
 51
0.0
  0
ARC
  5
1CEB6
  8
DANMEN
  6
CONTINUOUS
 10
357.5
 20
82.999997
 30
0.0
 40
0.5
 50
0.0
 51
90.0
  0
LINE
  5
1CEB7
  8
DANMEN
  6
CONTINUOUS
 10
352.0
 20
82.999997
 30
0.0
 11
357.0
 21
82.999997
 31
0.0
  0
LINE
  5
1CEB8
  8
DANMEN
  6
CONTINUOUS
 10
349.970563
 20
83.5
 30
0.0
 11
350.0
 21
83.529437
 31
0.0
  0
LINE
  5
1CEBB
  8
DANMEN
  6
CONTINUOUS
 10
352.0
 20
82.999997
 30
0.0
 11
352.0
 21
83.499997
 31
0.0
  0
LINE
  5
1CEBD
  8
DANMEN
  6
CONTINUOUS
 10
357.0
 20
83.499997
 30
0.0
 11
357.5
 21
83.499997
 31
0.0
  0
LINE
  5
1CEBF
  8
DANMEN
  6
CONTINUOUS
 10
357.0
 20
82.999997
 30
0.0
 11
357.0
 21
83.499997
 31
0.0
  0
LINE
  5
1CEC0
  8
DANMEN
  6
CONTINUOUS
 10
358.0
 20
82.499997
 30
0.0
 11
358.0
 21
82.999997
 31
0.0
  0
LINE
  5
1CEC3
  8
DANMEN
  6
CONTINUOUS
 10
348.907362
 20
103.650003
 30
0.0
 11
350.0
 21
104.742641
 31
0.0
  0
LINE
  5
1CEC4
  8
DANMEN
  6
CONTINUOUS
 10
346.786042
 20
103.650003
 30
0.0
 11
350.0
 21
106.863961
 31
0.0
  0
LINE
  5
1CEC5
  8
DANMEN
  6
CONTINUOUS
 10
346.181677
 20
105.166958
 30
0.0
 11
350.0
 21
108.985282
 31
0.0
  0
LINE
  5
1CEC6
  8
DANMEN
  6
CONTINUOUS
 10
346.470291
 20
107.576893
 30
0.0
 11
350.0
 21
111.106602
 31
0.0
  0
LINE
  5
1CEC7
  8
DANMEN
  6
CONTINUOUS
 10
346.583598
 20
108.523004
 30
0.0
 11
350.0
 21
105.106601
 31
0.0
  0
LINE
  5
1CEC8
  8
DANMEN
  6
CONTINUOUS
 10
346.810477
 20
110.417445
 30
0.0
 11
350.0
 21
107.227922
 31
0.0
  0
LINE
  5
1CEC9
  8
DANMEN
  6
CONTINUOUS
 10
347.849242
 20
111.5
 30
0.0
 11
350.0
 21
109.349242
 31
0.0
  0
LINE
  5
1CECA
  8
DANMEN
  6
CONTINUOUS
 10
347.500004
 20
111.5
 30
0.0
 11
352.000003
 21
111.5
 31
0.0
  0
LINE
  5
1CECB
  8
DANMEN
  6
CONTINUOUS
 10
346.000005
 20
103.65
 30
0.0
 11
347.000005
 21
111.999998
 31
0.0
  0
ARC
  5
1CECC
  8
DANMEN
  6
CONTINUOUS
 10
347.500003
 20
112.0
 30
0.0
 40
0.5
 50
180.0
 51
270.0
  0
LINE
  5
1CECD
  8
DANMEN
  6
CONTINUOUS
 10
346.356719
 20
106.628562
 30
0.0
 11
349.335278
 21
103.650003
 31
0.0
  0
LINE
  5
1CECE
  8
DANMEN
  6
CONTINUOUS
 10
346.12984
 20
104.734121
 30
0.0
 11
347.213958
 21
103.650003
 31
0.0
  0
LINE
  5
1CECF
  8
DANMEN
  6
CONTINUOUS
 10
346.758906
 20
109.986828
 30
0.0
 11
348.272078
 21
111.5
 31
0.0
  0
LINE
  5
1CED1
  8
DANMEN
  6
CONTINUOUS
 10
347.000003
 20
113.5
 30
0.0
 11
347.000003
 21
112.0
 31
0.0
  0
ARC
  5
1CED2
  8
DANMEN
  6
CONTINUOUS
 10
347.500003
 20
113.5
 30
0.0
 40
0.5
 50
89.999872
 51
179.999909
  0
LINE
  5
1CED3
  8
DANMEN
  6
CONTINUOUS
 10
352.000003
 20
112.05
 30
0.0
 11
352.000003
 21
111.5
 31
0.0
  0
ARC
  5
1CED4
  8
DANMEN
  6
CONTINUOUS
 10
364.7
 20
111.55
 30
0.0
 40
0.5
 50
0.0
 51
90.0
  0
LINE
  5
1CED5
  8
DANMEN
  6
CONTINUOUS
 10
349.970563
 20
111.5
 30
0.0
 11
350.0
 21
111.470563
 31
0.0
  0
ARC
  5
1CED6
  8
DANMEN
  6
CONTINUOUS
 10
365.7
 20
110.8
 30
0.0
 40
0.5
 50
180.0
 51
270.0
  0
LINE
  5
1CED7
  8
DANMEN
  6
CONTINUOUS
 10
365.2
 20
111.55
 30
0.0
 11
365.2
 21
110.8
 31
0.0
  0
LINE
  5
1CED8
  8
DANMEN
  6
CONTINUOUS
 10
352.000003
 20
112.05
 30
0.0
 11
364.7
 21
112.05
 31
0.0
  0
LINE
  5
1CED9
  8
DANMEN
  6
CONTINUOUS
 10
374.999999
 20
106.9
 30
0.0
 11
375.000001
 21
99.9
 31
0.0
  0
LINE
  5
1CEDA
  8
DANMEN
  6
CONTINUOUS
 10
375.299999
 20
106.9
 30
0.0
 11
375.300001
 21
99.9
 31
0.0
  0
LINE
  5
1CEDB
  8
DANMEN
  6
CONTINUOUS
 10
375.300001
 20
99.9
 30
0.0
 11
377.027508
 21
101.627508
 31
0.0
  0
LINE
  5
1CEDC
  8
DANMEN
  6
CONTINUOUS
 10
375.0
 20
77.649994
 30
0.0
 11
375.0
 21
107.299994
 31
0.0
  0
LINE
  5
1CEDD
  8
DANMEN
  6
CONTINUOUS
 10
376.65
 20
99.494998
 30
0.0
 11
376.65
 21
112.35
 31
0.0
  0
LINE
  5
1CEDE
  8
DANMEN
  6
CONTINUOUS
 10
391.799989
 20
84.8
 30
0.0
 11
377.0
 21
84.8
 31
0.0
  0
LINE
  5
1CEDF
  8
DANMEN
  6
CONTINUOUS
 10
376.65
 20
97.844999
 30
0.0
 11
388.799989
 21
97.844999
 31
0.0
  0
LINE
  5
1CEE0
  8
DANMEN
  6
CONTINUOUS
 10
376.65
 20
99.494998
 30
0.0
 11
391.299989
 21
99.494998
 31
0.0
  0
LINE
  5
1CEE1
  8
DANMEN
  6
CONTINUOUS
 10
387.849979
 20
86.45
 30
0.0
 11
376.65
 21
86.45
 31
0.0
  0
LINE
  5
1CEE2
  8
DANMEN
  6
CONTINUOUS
 10
390.0
 20
84.649994
 30
0.0
 11
377.5
 21
84.649994
 31
0.0
  0
LINE
  5
1CEE3
  8
DANMEN
  6
CONTINUOUS
 10
376.65
 20
86.45
 30
0.0
 11
376.65
 21
97.844999
 31
0.0
  0
ARC
  5
1CEE7
  8
DANMEN
  6
CONTINUOUS
 10
377.5
 20
84.149994
 30
0.0
 40
0.5
 50
90.0
 51
180.0
  0
ARC
  5
1CEE9
  8
DANMEN
  6
CONTINUOUS
 10
377.5
 20
83.5
 30
0.0
 40
0.5
 50
179.999981
 51
269.999963
  0
LINE
  5
1CEEA
  8
DANMEN
  6
CONTINUOUS
 10
377.0
 20
83.5
 30
0.0
 11
377.0
 21
84.149994
 31
0.0
  0
LINE
  5
1CEED
  8
DANMEN
  6
CONTINUOUS
 10
375.000001
 20
99.9
 30
0.0
 11
375.300001
 21
99.9
 31
0.0
  0
LINE
  5
1CEF0
  8
DANMEN
  6
CONTINUOUS
 10
389.499989
 20
87.554246
 30
0.0
 11
392.0
 21
90.054257
 31
0.0
  0
LINE
  5
1CEF1
  8
DANMEN
  6
CONTINUOUS
 10
387.849979
 20
92.649997
 30
0.0
 11
387.849979
 21
86.45
 31
0.0
  0
LINE
  5
1CEF2
  8
DANMEN
  6
CONTINUOUS
 10
389.499989
 20
91.499998
 30
0.0
 11
389.499989
 21
86.299998
 31
0.0
  0
LINE
  5
1CEF3
  8
DANMEN
  6
CONTINUOUS
 10
389.659954
 20
86.299998
 30
0.0
 11
392.0
 21
88.640044
 31
0.0
  0
LINE
  5
1CEF4
  8
DANMEN
  6
CONTINUOUS
 10
389.499989
 20
86.299998
 30
0.0
 11
391.299989
 21
86.299998
 31
0.0
  0
LINE
  5
1CEF5
  8
DANMEN
  6
CONTINUOUS
 10
392.0
 20
84.199997
 30
0.0
 11
390.0
 21
84.199997
 31
0.0
  0
LINE
  5
1CEFA
  8
DANMEN
  6
CONTINUOUS
 10
390.0
 20
84.199997
 30
0.0
 11
390.0
 21
84.649994
 31
0.0
  0
LINE
  5
1CEFB
  8
DANMEN
  6
CONTINUOUS
 10
391.999857
 20
85.811473
 30
0.0
 11
392.0
 21
85.811616
 31
0.0
  0
LINE
  5
1CEFC
  8
DANMEN
  6
CONTINUOUS
 10
391.074168
 20
86.299998
 30
0.0
 11
392.0
 21
87.22583
 31
0.0
  0
LINE
  5
1CEFD
  8
DANMEN
  6
CONTINUOUS
 10
391.799989
 20
85.799998
 30
0.0
 11
391.799989
 21
84.8
 31
0.0
  0
ARC
  5
1CEFE
  8
DANMEN
  6
CONTINUOUS
 10
391.299989
 20
85.799998
 30
0.0
 40
0.5
 50
0.0
 51
89.999982
  0
LINE
  5
1CF02
  8
DANMEN
  6
CONTINUOUS
 10
389.499989
 20
88.968459
 30
0.0
 11
392.0
 21
91.468471
 31
0.0
  0
LINE
  5
1CF03
  8
DANMEN
  6
CONTINUOUS
 10
389.499989
 20
91.499998
 30
0.0
 11
391.299989
 21
91.499998
 31
0.0
  0
LINE
  5
1CF04
  8
DANMEN
  6
CONTINUOUS
 10
388.799989
 20
97.844999
 30
0.0
 11
388.799989
 21
93.149997
 31
0.0
  0
LINE
  5
1CF05
  8
DANMEN
  6
CONTINUOUS
 10
389.499989
 20
90.382673
 30
0.0
 11
390.617313
 21
91.499998
 31
0.0
  0
LINE
  5
1CF06
  8
DANMEN
  6
CONTINUOUS
 10
388.349979
 20
93.149997
 30
0.0
 11
388.799989
 21
93.149997
 31
0.0
  0
ARC
  5
1CF07
  8
DANMEN
  6
CONTINUOUS
 10
388.349979
 20
92.649997
 30
0.0
 40
0.5
 50
89.999982
 51
179.999964
  0
LINE
  5
1CF0C
  8
DANMEN
  6
CONTINUOUS
 10
391.299989
 20
95.197498
 30
0.0
 11
391.299989
 21
93.149997
 31
0.0
  0
LINE
  5
1CF0D
  8
DANMEN
  6
CONTINUOUS
 10
391.799989
 20
92.649997
 30
0.0
 11
391.799989
 21
91.999998
 31
0.0
  0
ARC
  5
1CF0F
  8
DANMEN
  6
CONTINUOUS
 10
391.299989
 20
91.999998
 30
0.0
 40
0.5
 50
270.0
 51
0.0
  0
ARC
  5
1CF11
  8
DANMEN
  6
CONTINUOUS
 10
391.299989
 20
92.649997
 30
0.0
 40
0.5
 50
0.0
 51
90.0
  0
LINE
  5
1CF13
  8
DANMEN
  6
CONTINUOUS
 10
391.299989
 20
97.844999
 30
0.0
 11
391.299989
 21
95.797498
 31
0.0
  0
LINE
  5
1CF14
  8
DANMEN
  6
CONTINUOUS
 10
391.799989
 20
98.994998
 30
0.0
 11
391.799989
 21
98.344999
 31
0.0
  0
ARC
  5
1CF15
  8
DANMEN
  6
CONTINUOUS
 10
391.299989
 20
98.994998
 30
0.0
 40
0.5
 50
0.0
 51
90.0
  0
ARC
  5
1CF16
  8
DANMEN
  6
CONTINUOUS
 10
391.299989
 20
98.344999
 30
0.0
 40
0.5
 50
270.0
 51
0.0
  0
LINE
  5
1CF1A
  8
DANMEN
  6
CONTINUOUS
 10
390.999989
 20
95.797498
 30
0.0
 11
390.999989
 21
95.197498
 31
0.0
  0
LINE
  5
1CF1B
  8
DANMEN
  6
CONTINUOUS
 10
390.999989
 20
95.797498
 30
0.0
 11
391.299989
 21
95.797498
 31
0.0
  0
LINE
  5
1CF1C
  8
DANMEN
  6
CONTINUOUS
 10
390.999989
 20
95.197498
 30
0.0
 11
391.299989
 21
95.197498
 31
0.0
  0
LINE
  5
1CF22
  8
DANMEN
  6
CENTER
 10
373.960146
 20
103.4
 30
0.0
 11
395.63855
 21
103.4
 31
0.0
  0
LINE
  5
1CF23
  8
DANMEN
  6
CONTINUOUS
 10
378.274976
 20
101.400002
 30
0.0
 11
394.999997
 21
101.400004
 31
0.0
  0
LINE
  5
1CF24
  8
DANMEN
  6
CONTINUOUS
 10
378.274975
 20
105.399999
 30
0.0
 11
394.999997
 21
105.4
 31
0.0
  0
LINE
  5
1CF25
  8
DANMEN
  6
CONTINUOUS
 10
378.274976
 20
101.779003
 30
0.0
 11
394.999996
 21
101.779005
 31
0.0
  0
LINE
  5
1CF26
  8
DANMEN
  6
CONTINUOUS
 10
378.274975
 20
105.020998
 30
0.0
 11
394.999996
 21
105.021
 31
0.0
  0
LINE
  5
1CF27
  8
DANMEN
  6
CONTINUOUS
 10
367.0
 20
114.0
 30
0.0
 11
391.999989
 21
114.0
 31
0.0
  0
LINE
  5
1CF28
  8
DANMEN
  6
CONTINUOUS
 10
376.65
 20
112.35
 30
0.0
 11
390.499989
 21
112.35
 31
0.0
  0
ARC
  5
1CF29
  8
DANMEN
  6
CONTINUOUS
 10
369.265685
 20
111.6
 30
0.0
 40
0.3
 50
90.0
 51
160.528779
  0
ARC
  5
1CF2A
  8
DANMEN
  6
CONTINUOUS
 10
369.289406
 20
111.4
 30
0.0
 40
0.5
 50
53.491208
 51
90.0
  0
LINE
  5
1CF2B
  8
DANMEN
  6
CONTINUOUS
 10
366.7
 20
112.5
 30
0.0
 11
366.7
 21
111.5
 31
0.0
  0
LINE
  5
1CF2C
  8
DANMEN
  6
CONTINUOUS
 10
375.0
 20
108.499994
 30
0.0
 11
375.0
 21
112.35
 31
0.0
  0
LINE
  5
1CF2D
  8
DANMEN
  6
CONTINUOUS
 10
369.0
 20
111.8
 30
0.0
 11
369.0
 21
112.35
 31
0.0
  0
ARC
  5
1CF2E
  8
DANMEN
  6
CONTINUOUS
 10
367.5
 20
112.292199
 30
0.0
 40
0.5
 50
180.0
 51
240.603827
  0
ARC
  5
1CF2F
  8
DANMEN
  6
CONTINUOUS
 10
374.000895
 20
109.900136
 30
0.0
 40
0.5
 50
0.0
 51
90.0
  0
LINE
  5
1CF30
  8
DANMEN
  6
CONTINUOUS
 10
374.411954
 20
109.615608
 30
0.0
 11
373.500895
 21
108.3
 31
0.0
  0
LINE
  5
1CF31
  8
DANMEN
  6
CONTINUOUS
 10
369.0
 20
107.299994
 30
0.0
 11
375.0
 21
107.299994
 31
0.0
  0
LINE
  5
1CF32
  8
DANMEN
  6
CONTINUOUS
 10
371.0
 20
108.499994
 30
0.0
 11
375.0
 21
108.499994
 31
0.0
  0
LINE
  5
1CF33
  8
DANMEN
  6
CONTINUOUS
 10
369.586879
 20
111.801883
 30
0.0
 11
372.563906
 21
109.598292
 31
0.0
  0
LINE
  5
1CF34
  8
DANMEN
  6
CONTINUOUS
 10
369.598917
 20
110.3
 30
0.0
 11
372.300895
 21
108.3
 31
0.0
  0
LINE
  5
1CF35
  8
DANMEN
  6
CONTINUOUS
 10
371.0
 20
108.499994
 30
0.0
 11
369.401942
 21
108.180382
 31
0.0
  0
ARC
  5
1CF37
  8
DANMEN
  6
CONTINUOUS
 10
368.7
 20
111.8
 30
0.0
 40
0.3
 50
270.0
 51
340.528779
  0
LINE
  5
1CF38
  8
DANMEN
  6
CONTINUOUS
 10
366.7
 20
111.5
 30
0.0
 11
368.7
 21
111.5
 31
0.0
  0
ARC
  5
1CF3C
  8
DANMEN
  6
CONTINUOUS
 10
368.7
 20
111.8
 30
0.0
 40
0.3
 50
270.0
 51
0.0
  0
LINE
  5
1CF3D
  8
DANMEN
  6
CONTINUOUS
 10
367.996245
 20
111.5
 30
0.0
 11
367.254577
 21
111.856576
 31
0.0
  0
LINE
  5
1CF3E
  8
DANMEN
  6
CONTINUOUS
 10
368.7
 20
111.5
 30
0.0
 11
367.996245
 21
111.5
 31
0.0
  0
LINE
  5
1CF40
  8
DANMEN
  6
CONTINUOUS
 10
369.0
 20
107.690092
 30
0.0
 11
369.0
 21
107.299994
 31
0.0
  0
ARC
  5
1CF41
  8
DANMEN
  6
CONTINUOUS
 10
369.5
 20
107.690092
 30
0.0
 40
0.5
 50
101.309932
 51
180.0
  0
ARC
  5
1CF44
  8
DANMEN
  6
CONTINUOUS
 10
373.75753
 20
109.900136
 30
0.0
 40
0.5
 50
90.0
 51
145.297378
  0
ARC
  5
1CF45
  8
DANMEN
  6
CONTINUOUS
 10
372.742389
 20
109.839422
 30
0.0
 40
0.3
 50
233.491208
 51
325.297378
  0
LINE
  5
1CF46
  8
DANMEN
  6
CONTINUOUS
 10
373.346471
 20
110.184794
 30
0.0
 11
372.989025
 21
109.668627
 31
0.0
  0
LINE
  5
1CF47
  8
DANMEN
  6
CONTINUOUS
 10
374.000895
 20
110.400136
 30
0.0
 11
373.75753
 21
110.400136
 31
0.0
  0
LINE
  5
1CF48
  8
DANMEN
  6
CONTINUOUS
 10
372.300895
 20
108.3
 30
0.0
 11
373.500895
 21
108.3
 31
0.0
  0
LINE
  5
1CF4A
  8
DANMEN
  6
CONTINUOUS
 10
375.299998
 20
106.9
 30
0.0
 11
377.027508
 21
105.172491
 31
0.0
  0
LINE
  5
1CF4C
  8
DANMEN
  6
CONTINUOUS
 10
378.274967
 20
105.020991
 30
0.0
 11
377.027505
 21
105.172489
 31
0.0
  0
LINE
  5
1CF4D
  8
DANMEN
  6
CONTINUOUS
 10
378.274967
 20
105.399986
 30
0.0
 11
377.027504
 21
105.172484
 31
0.0
  0
LINE
  5
1CF4E
  8
DANMEN
  6
CONTINUOUS
 10
378.274966
 20
101.400012
 30
0.0
 11
377.027505
 21
101.627513
 31
0.0
  0
LINE
  5
1CF4F
  8
DANMEN
  6
CONTINUOUS
 10
378.274966
 20
101.77901
 30
0.0
 11
377.027505
 21
101.62751
 31
0.0
  0
LINE
  5
1CF50
  8
DANMEN
  6
CONTINUOUS
 10
377.027513
 20
105.172498
 30
0.0
 11
377.027514
 21
101.627503
 31
0.0
  0
ARC
  5
1CF51
  8
DANMEN
  6
DASHED
 10
376.257402
 20
103.4
 30
0.0
 40
0.5
 50
332.000013
 51
28.000078
  0
LINE
  5
1CF52
  8
DANMEN
  6
DASHED
 10
376.214876
 20
102.255011
 30
0.0
 11
376.698867
 21
103.165266
 31
0.0
  0
LINE
  5
1CF53
  8
DANMEN
  6
DASHED
 10
376.214875
 20
104.544989
 30
0.0
 11
376.698866
 21
103.634736
 31
0.0
  0
LINE
  5
1CF54
  8
DANMEN
  6
DASHED
 10
375.0
 20
101.649295
 30
0.0
 11
376.214876
 21
102.25501
 31
0.0
  0
LINE
  5
1CF55
  8
DANMEN
  6
DASHED
 10
375.0
 20
105.150707
 30
0.0
 11
376.214875
 21
104.544993
 31
0.0
  0
LINE
  5
1CF56
  8
DANMEN
  6
CONTINUOUS
 10
378.274975
 20
105.399999
 30
0.0
 11
378.274976
 21
101.400003
 31
0.0
  0
LINE
  5
1CF58
  8
DANMEN
  6
CONTINUOUS
 10
374.999999
 20
106.9
 30
0.0
 11
375.299999
 21
106.9
 31
0.0
  0
ARC
  5
1CF59
  8
DANMEN
  6
CONTINUOUS
 10
374.000895
 20
109.900266
 30
0.0
 40
0.5
 50
325.297378
 51
0.0
  0
LINE
  5
1CF5A
  8
DANMEN
  6
CONTINUOUS
 10
374.500895
 20
109.900266
 30
0.0
 11
374.500895
 21
109.900136
 31
0.0
  0
LINE
  5
1CF5E
  8
DANMEN
  6
CONTINUOUS
 10
369.0
 20
112.35
 30
0.0
 11
375.0
 21
112.35
 31
0.0
  0
LINE
  5
1CF60
  8
DANMEN
  6
CONTINUOUS
 10
369.265685
 20
111.9
 30
0.0
 11
369.289406
 21
111.9
 31
0.0
  0
LINE
  5
1CF61
  8
DANMEN
  6
CONTINUOUS
 10
366.7
 20
112.5
 30
0.0
 11
367.0
 21
112.5
 31
0.0
  0
LINE
  5
1CF62
  8
DANMEN
  6
CONTINUOUS
 10
367.0
 20
114.0
 30
0.0
 11
367.0
 21
112.5
 31
0.0
  0
LINE
  5
1CF64
  8
DANMEN
  6
CONTINUOUS
 10
367.0
 20
114.0
 30
0.0
 11
367.0
 21
112.292199
 31
0.0
  0
LINE
  5
1CF69
  8
DANMEN
  6
CONTINUOUS
 10
391.999989
 20
111.499994
 30
0.0
 11
391.999989
 21
114.0
 31
0.0
  0
LINE
  5
1CF6A
  8
DANMEN
  6
CONTINUOUS
 10
390.499989
 20
110.999994
 30
0.0
 11
390.499989
 21
112.35
 31
0.0
  0
LINE
  5
1CF6B
  8
DANMEN
  6
CONTINUOUS
 10
390.499989
 20
110.999994
 30
0.0
 11
391.499989
 21
110.999994
 31
0.0
  0
LINE
  5
1CF6D
  8
DANMEN
  6
CONTINUOUS
 10
394.999998
 20
105.400001
 30
0.0
 11
395.0
 21
101.400005
 31
0.0
  0
ARC
  5
1CF6E
  8
DANMEN
  6
CONTINUOUS
 10
391.499989
 20
111.499994
 30
0.0
 40
0.5
 50
270.0
 51
0.0
  0
LINE
  5
1CF74
  8
SUNPO
  6
CONTINUOUS
 10
40.5
 20
59.0
 30
0.0
 11
28.0
 21
59.0
 31
0.0
  0
LINE
  5
1CF75
  8
SUNPO
  6
CONTINUOUS
 10
40.5
 20
44.0
 30
0.0
 11
28.0
 21
44.0
 31
0.0
  0
LINE
  5
1CF76
  8
SUNPO
  6
CONTINUOUS
 10
40.5
 20
32.0
 30
0.0
 11
21.0
 21
32.0
 31
0.0
  0
LINE
  5
1CF77
  8
SUNPO
  6
CONTINUOUS
 10
40.5
 20
52.0
 30
0.0
 11
21.0
 21
52.0
 31
0.0
  0
LINE
  5
1CF78
  8
SUNPO
  6
CONTINUOUS
 10
28.0
 20
52.0
 30
0.0
 11
28.0
 21
59.0
 31
0.0
  0
TEXT
  5
1CF79
  8
SUNPO
  6
CONTINUOUS
 10
20.0
 20
40.125
 30
0.0
 40
2.5
  1
20
 50
90.0
  7
MX_NOTE_STANDARD
  0
LINE
  5
1CF7A
  8
SUNPO
  6
CONTINUOUS
 10
28.0
 20
32.0
 30
0.0
 11
28.0
 21
44.0
 31
0.0
  0
LINE
  5
1CF7B
  8
SUNPO
  6
CONTINUOUS
 10
21.0
 20
32.0
 30
0.0
 11
21.0
 21
52.0
 31
0.0
  0
ARC
  5
1CF7C
  8
SUNPO
  6
BYBLOCK
 10
21.0
 20
32.0
 30
0.0
 40
0.145
 50
270.0
 51
90.0
  0
ARC
  5
1CF7D
  8
SUNPO
  6
BYBLOCK
 10
21.0
 20
32.0
 30
0.0
 40
0.145
 50
90.0
 51
270.0
  0
ARC
  5
1CF7E
  8
SUNPO
  6
BYBLOCK
 10
21.0
 20
32.0
 30
0.0
 40
0.145
 50
90.0
 51
270.0
  0
ARC
  5
1CF7F
  8
SUNPO
  6
BYBLOCK
 10
21.0
 20
32.0
 30
0.0
 40
0.145
 50
270.0
 51
90.0
  0
TEXT
  5
1CF80
  8
SUNPO
  6
CONTINUOUS
 10
27.0
 20
36.333333
 30
0.0
 40
2.5
  1
12
 50
90.0
  7
MX_NOTE_STANDARD
  0
ARC
  5
1CF81
  8
SUNPO
  6
BYBLOCK
 10
28.0
 20
32.0
 30
0.0
 40
0.145
 50
270.0
 51
90.0
  0
ARC
  5
1CF82
  8
SUNPO
  6
BYBLOCK
 10
28.0
 20
32.0
 30
0.0
 40
0.145
 50
90.0
 51
270.0
  0
ARC
  5
1CF83
  8
SUNPO
  6
BYBLOCK
 10
21.0
 20
52.0
 30
0.0
 40
0.145
 50
90.0
 51
270.0
  0
ARC
  5
1CF84
  8
SUNPO
  6
BYBLOCK
 10
21.0
 20
52.0
 30
0.0
 40
0.145
 50
270.0
 51
90.0
  0
ARC
  5
1CF85
  8
SUNPO
  6
BYBLOCK
 10
21.0
 20
52.0
 30
0.0
 40
0.145
 50
270.0
 51
90.0
  0
ARC
  5
1CF86
  8
SUNPO
  6
BYBLOCK
 10
21.0
 20
52.0
 30
0.0
 40
0.145
 50
90.0
 51
270.0
  0
TEXT
  5
1CF87
  8
SUNPO
  6
CONTINUOUS
 10
27.0
 20
47.166667
 30
0.0
 40
2.5
  1
8
 50
90.0
  7
MX_NOTE_STANDARD
  0
LINE
  5
1CF88
  8
SUNPO
  6
CONTINUOUS
 10
28.0
 20
44.0
 30
0.0
 11
28.0
 21
52.0
 31
0.0
  0
ARC
  5
1CF89
  8
SUNPO
  6
BYBLOCK
 10
28.0
 20
44.0
 30
0.0
 40
0.145
 50
270.0
 51
90.0
  0
ARC
  5
1CF8A
  8
SUNPO
  6
BYBLOCK
 10
28.0
 20
44.0
 30
0.0
 40
0.145
 50
90.0
 51
270.0
  0
ARC
  5
1CF8B
  8
SUNPO
  6
BYBLOCK
 10
28.0
 20
44.0
 30
0.0
 40
0.145
 50
90.0
 51
270.0
  0
ARC
  5
1CF8C
  8
SUNPO
  6
BYBLOCK
 10
28.0
 20
44.0
 30
0.0
 40
0.145
 50
270.0
 51
90.0
  0
ARC
  5
1CF8D
  8
SUNPO
  6
BYBLOCK
 10
28.0
 20
52.0
 30
0.0
 40
0.145
 50
270.0
 51
90.0
  0
ARC
  5
1CF8E
  8
SUNPO
  6
BYBLOCK
 10
28.0
 20
52.0
 30
0.0
 40
0.145
 50
90.0
 51
270.0
  0
ARC
  5
1CF8F
  8
SUNPO
  6
BYBLOCK
 10
28.0
 20
52.0
 30
0.0
 40
0.145
 50
90.0
 51
270.0
  0
ARC
  5
1CF90
  8
SUNPO
  6
BYBLOCK
 10
28.0
 20
52.0
 30
0.0
 40
0.145
 50
270.0
 51
90.0
  0
TEXT
  5
1CF91
  8
SUNPO
  6
CONTINUOUS
 10
27.0
 20
54.666667
 30
0.0
 40
2.5
  1
7
 50
90.0
  7
MX_NOTE_STANDARD
  0
ARC
  5
1CF92
  8
SUNPO
  6
BYBLOCK
 10
28.0
 20
59.0
 30
0.0
 40
0.145
 50
90.0
 51
270.0
  0
ARC
  5
1CF93
  8
SUNPO
  6
BYBLOCK
 10
28.0
 20
59.0
 30
0.0
 40
0.145
 50
270.0
 51
90.0
  0
ARC
  5
1CF94
  8
DANMEN
  6
CONTINUOUS
 10
400.850006
 20
88.5
 30
0.0
 40
0.5
 50
90.000037
 51
180.000019
  0
ARC
  5
1CF95
  8
DANMEN
  6
CONTINUOUS
 10
401.5
 20
88.5
 30
0.0
 40
0.5
 50
359.999981
 51
90.000037
  0
LINE
  5
1CF96
  8
DANMEN
  6
CONTINUOUS
 10
402.0
 20
88.5
 30
0.0
 11
402.0
 21
83.5
 31
0.0
  0
LINE
  5
1CF97
  8
DANMEN
  6
CONTINUOUS
 10
400.350006
 20
88.5
 30
0.0
 11
400.350006
 21
84.649994
 31
0.0
  0
ARC
  5
1CF98
  8
DANMEN
  6
CONTINUOUS
 10
401.5
 20
83.5
 30
0.0
 40
0.5
 50
270.000018
 51
359.999981
  0
LINE
  5
1CF9B
  8
DANMEN
  6
CONTINUOUS
 10
401.5
 20
89.0
 30
0.0
 11
400.850006
 21
89.0
 31
0.0
  0
TEXT
  5
1CF9E
  8
SUNPO
  6
CONTINUOUS
 10
20.0
 20
106.5
 30
0.0
 40
2.5
  1
114
 50
90.0
  7
MX_NOTE_STANDARD
  0
LINE
  5
1CF9F
  8
SUNPO
  6
CONTINUOUS
 10
187.0
 20
28.322886
 30
0.0
 11
196.111405
 21
31.639166
 31
0.0
  0
LINE
  5
1CFA0
  8
SUNPO
  6
CONTINUOUS
 10
232.0
 20
41.0
 30
0.0
 11
187.0
 21
41.0
 31
0.0
  0
LINE
  5
1CFA1
  8
SUNPO
  6
CONTINUOUS
 10
187.0
 20
20.0
 30
0.0
 11
267.0
 21
20.0
 31
0.0
  0
LINE
  5
1CFA2
  8
SUNPO
  6
CONTINUOUS
 10
254.5
 20
28.322886
 30
0.0
 11
187.0
 21
28.322886
 31
0.0
  0
LINE
  5
1CFA3
  8
SUNPO
  6
CONTINUOUS
 10
162.0
 20
81.5
 30
0.0
 11
162.0
 21
20.0
 31
0.0
  0
LINE
  5
1CFA4
  8
SUNPO
  6
CONTINUOUS
 10
187.0
 20
81.5
 30
0.0
 11
187.0
 21
20.0
 31
0.0
  0
LINE
  5
1CFA5
  8
SUNPO
  6
CONTINUOUS
 10
156.0
 20
32.0
 30
0.0
 11
156.0
 21
23.0
 31
0.0
  0
LINE
  5
1CFA6
  8
SUNPO
  6
CONTINUOUS
 10
187.0
 20
20.0
 30
0.0
 11
162.0
 21
20.0
 31
0.0
  0
TEXT
  5
1CFA7
  8
SUNPO
  6
CONTINUOUS
 10
155.0
 20
26.666667
 30
0.0
 40
2.5
  1
9
 50
90.0
  7
MX_NOTE_STANDARD
  0
ARC
  5
1CFA8
  8
SUNPO
  6
BYBLOCK
 10
156.0
 20
23.0
 30
0.0
 40
0.145
 50
270.0
 51
90.0
  0
ARC
  5
1CFA9
  8
SUNPO
  6
BYBLOCK
 10
156.0
 20
23.0
 30
0.0
 40
0.145
 50
90.0
 51
270.0
  0
ARC
  5
1CFAA
  8
SUNPO
  6
BYBLOCK
 10
162.0
 20
20.0
 30
0.0
 40
0.15625
 50
180.0
 51
0.0
  0
ARC
  5
1CFAB
  8
SUNPO
  6
BYBLOCK
 10
162.0
 20
20.0
 30
0.0
 40
0.15625
 50
0.0
 51
180.0
  0
TEXT
  5
1CFAC
  8
SUNPO
  6
CONTINUOUS
 10
172.416667
 20
21.0
 30
0.0
 40
2.5
  1
25
  7
MX_NOTE_STANDARD
  0
LINE
  5
1CFAD
  8
SUNPO
  6
CONTINUOUS
 10
192.0
 20
15.0
 30
0.0
 11
187.0
 21
20.0
 31
0.0
  0
LINE
  5
1CFAE
  8
SUNPO
  6
CONTINUOUS
 10
192.0
 20
25.0
 30
0.0
 11
192.0
 21
15.0
 31
0.0
  0
LINE
  5
1CFB0
  8
SUNPO
  6
CONTINUOUS
 10
187.0
 20
20.0
 30
0.0
 11
192.0
 21
25.0
 31
0.0
  0
LINE
  5
1CFB4
  8
SUNPO
  6
CONTINUOUS
 10
113.5
 20
32.0
 30
0.0
 11
156.0
 21
32.0
 31
0.0
  0
LINE
  5
1CFB5
  8
SUNPO
  6
CONTINUOUS
 10
113.499999
 20
57.0
 30
0.0
 11
144.685645
 21
57.0
 31
0.0
  0
LINE
  5
1CFB6
  8
SUNPO
  6
CONTINUOUS
 10
113.499999
 20
92.0
 30
0.0
 11
144.685645
 21
92.0
 31
0.0
  0
LINE
  5
1CFB7
  8
SUNPO
  6
CONTINUOUS
 10
113.499999
 20
57.0
 30
0.0
 11
144.685645
 21
57.0
 31
0.0
  0
LINE
  5
1CFB8
  8
SUNPO
  6
CONTINUOUS
 10
113.5
 20
92.0
 30
0.0
 11
136.221192
 21
92.0
 31
0.0
  0
LINE
  5
1CFB9
  8
SUNPO
  6
CONTINUOUS
 10
120.499996
 20
112.000003
 30
0.0
 11
136.221192
 21
112.000003
 31
0.0
  0
LINE
  5
1CFBA
  8
SUNPO
  6
CONTINUOUS
 10
120.499996
 20
112.000003
 30
0.0
 11
136.221192
 21
112.000003
 31
0.0
  0
LINE
  5
1CFBB
  8
SUNPO
  6
CONTINUOUS
 10
172.0
 20
81.5
 30
0.0
 11
172.0
 21
41.0
 31
0.0
  0
LINE
  5
1CFBC
  8
SUNPO
  6
CONTINUOUS
 10
156.0
 20
32.0
 30
0.0
 11
156.0
 21
92.0
 31
0.0
  0
LINE
  5
1CFBD
  8
SUNPO
  6
CONTINUOUS
 10
144.685645
 20
92.0
 30
0.0
 11
144.685645
 21
57.0
 31
0.0
  0
LINE
  5
1CFBE
  8
SUNPO
  6
CONTINUOUS
 10
172.0
 20
41.0
 30
0.0
 11
162.0
 21
41.0
 31
0.0
  0
LINE
  5
1CFBF
  8
SUNPO
  6
CONTINUOUS
 10
144.685645
 20
57.0
 30
0.0
 11
144.685645
 21
32.0
 31
0.0
  0
ARC
  5
1CFC0
  8
SUNPO
  6
BYBLOCK
 10
144.685645
 20
32.0
 30
0.0
 40
0.145
 50
270.0
 51
90.0
  0
ARC
  5
1CFC1
  8
SUNPO
  6
BYBLOCK
 10
144.685645
 20
32.0
 30
0.0
 40
0.145
 50
90.0
 51
270.0
  0
TEXT
  5
1CFC2
  8
SUNPO
  6
CONTINUOUS
 10
143.685645
 20
42.416667
 30
0.0
 40
2.5
  1
25
 50
90.0
  7
MX_NOTE_STANDARD
  0
ARC
  5
1CFC3
  8
SUNPO
  6
BYBLOCK
 10
156.0
 20
32.0
 30
0.0
 40
0.145
 50
270.0
 51
90.0
  0
ARC
  5
1CFC4
  8
SUNPO
  6
BYBLOCK
 10
156.0
 20
32.0
 30
0.0
 40
0.145
 50
90.0
 51
270.0
  0
ARC
  5
1CFC5
  8
SUNPO
  6
BYBLOCK
 10
156.0
 20
32.0
 30
0.0
 40
0.145
 50
90.0
 51
270.0
  0
ARC
  5
1CFC6
  8
SUNPO
  6
BYBLOCK
 10
156.0
 20
32.0
 30
0.0
 40
0.145
 50
270.0
 51
90.0
  0
ARC
  5
1CFC7
  8
SUNPO
  6
BYBLOCK
 10
162.0
 20
41.0
 30
0.0
 40
0.145
 50
180.0
 51
0.0
  0
ARC
  5
1CFC8
  8
SUNPO
  6
BYBLOCK
 10
162.0
 20
41.0
 30
0.0
 40
0.145
 50
0.0
 51
180.0
  0
ARC
  5
1CFC9
  8
SUNPO
  6
BYBLOCK
 10
144.685645
 20
57.0
 30
0.0
 40
0.145
 50
270.0
 51
90.0
  0
ARC
  5
1CFCA
  8
SUNPO
  6
BYBLOCK
 10
144.685645
 20
57.0
 30
0.0
 40
0.145
 50
90.0
 51
270.0
  0
ARC
  5
1CFCB
  8
SUNPO
  6
BYBLOCK
 10
144.685645
 20
57.0
 30
0.0
 40
0.145
 50
90.0
 51
270.0
  0
ARC
  5
1CFCC
  8
SUNPO
  6
BYBLOCK
 10
144.685645
 20
57.0
 30
0.0
 40
0.145
 50
270.0
 51
90.0
  0
TEXT
  5
1CFCD
  8
SUNPO
  6
CONTINUOUS
 10
143.685645
 20
72.416667
 30
0.0
 40
2.5
  1
35
 50
90.0
  7
MX_NOTE_STANDARD
  0
TEXT
  5
1CFCE
  8
SUNPO
  6
CONTINUOUS
 10
155.0
 20
60.125
 30
0.0
 40
2.5
  1
60
 50
90.0
  7
MX_NOTE_STANDARD
  0
TEXT
  5
1CFCF
  8
SUNPO
  6
CONTINUOUS
 10
177.833333
 20
42.0
 30
0.0
 40
2.5
  1
15
  7
MX_NOTE_STANDARD
  0
LINE
  5
1CFD0
  8
SUNPO
  6
CONTINUOUS
 10
187.0
 20
41.0
 30
0.0
 11
172.0
 21
41.0
 31
0.0
  0
TEXT
  5
1CFD1
  8
SUNPO
  6
CONTINUOUS
 10
165.541667
 20
42.0
 30
0.0
 40
2.5
  1
10
  7
MX_NOTE_STANDARD
  0
ARC
  5
1CFD2
  8
SUNPO
  6
BYBLOCK
 10
172.0
 20
41.0
 30
0.0
 40
0.145
 50
0.0
 51
180.0
  0
ARC
  5
1CFD3
  8
SUNPO
  6
BYBLOCK
 10
172.0
 20
41.0
 30
0.0
 40
0.145
 50
180.0
 51
0.0
  0
ARC
  5
1CFD4
  8
SUNPO
  6
BYBLOCK
 10
172.0
 20
41.0
 30
0.0
 40
0.145
 50
180.0
 51
0.0
  0
ARC
  5
1CFD5
  8
SUNPO
  6
BYBLOCK
 10
172.0
 20
41.0
 30
0.0
 40
0.145
 50
0.0
 51
180.0
  0
ARC
  5
1CFD6
  8
SUNPO
  6
BYBLOCK
 10
187.0
 20
41.0
 30
0.0
 40
0.145
 50
0.0
 51
180.0
  0
ARC
  5
1CFD7
  8
SUNPO
  6
BYBLOCK
 10
187.0
 20
41.0
 30
0.0
 40
0.145
 50
180.0
 51
0.0
  0
ARC
  5
1CFD8
  8
SUNPO
  6
BYBLOCK
 10
187.0
 20
41.0
 30
0.0
 40
0.145
 50
180.0
 51
0.0
  0
ARC
  5
1CFD9
  8
SUNPO
  6
BYBLOCK
 10
187.0
 20
41.0
 30
0.0
 40
0.145
 50
0.0
 51
180.0
  0
TEXT
  5
1CFDA
  8
SUNPO
  6
CONTINUOUS
 10
135.221192
 20
100.125001
 30
0.0
 40
2.5
  1
20
 50
90.0
  7
MX_NOTE_STANDARD
  0
LINE
  5
1CFDB
  8
SUNPO
  6
CONTINUOUS
 10
136.221192
 20
112.000003
 30
0.0
 11
136.221192
 21
92.0
 31
0.0
  0
LINE
  5
1CFDC
  8
SUNPO
  6
CONTINUOUS
 10
133.5
 20
92.0
 30
0.0
 11
156.0
 21
92.0
 31
0.0
  0
LINE
  5
1CFDD
  8
SUNPO
  6
CONTINUOUS
 10
137.721191
 20
92.0
 30
0.0
 11
144.685645
 21
92.0
 31
0.0
  0
ARC
  5
1CFDE
  8
SUNPO
  6
BYBLOCK
 10
136.221192
 20
92.0
 30
0.0
 40
0.145
 50
270.0
 51
90.0
  0
ARC
  5
1CFDF
  8
SUNPO
  6
BYBLOCK
 10
136.221192
 20
92.0
 30
0.0
 40
0.145
 50
90.0
 51
270.0
  0
ARC
  5
1CFE0
  8
SUNPO
  6
BYBLOCK
 10
144.685645
 20
92.0
 30
0.0
 40
0.145
 50
90.0
 51
270.0
  0
ARC
  5
1CFE1
  8
SUNPO
  6
BYBLOCK
 10
144.685645
 20
92.0
 30
0.0
 40
0.145
 50
270.0
 51
90.0
  0
ARC
  5
1CFE2
  8
SUNPO
  6
BYBLOCK
 10
144.685645
 20
92.0
 30
0.0
 40
0.145
 50
270.0
 51
90.0
  0
ARC
  5
1CFE3
  8
SUNPO
  6
BYBLOCK
 10
144.685645
 20
92.0
 30
0.0
 40
0.145
 50
90.0
 51
270.0
  0
LINE
  5
1CFE4
  8
SUNPO
  6
CONTINUOUS
 10
161.0
 20
97.0
 30
0.0
 11
151.0
 21
97.0
 31
0.0
  0
LINE
  5
1CFE5
  8
SUNPO
  6
CONTINUOUS
 10
151.0
 20
97.0
 30
0.0
 11
156.0
 21
92.0
 31
0.0
  0
LINE
  5
1CFE7
  8
SUNPO
  6
CONTINUOUS
 10
156.0
 20
92.0
 30
0.0
 11
161.0
 21
97.0
 31
0.0
  0
ARC
  5
1CFEA
  8
SUNPO
  6
BYBLOCK
 10
136.221192
 20
112.000003
 30
0.0
 40
0.145
 50
90.0
 51
270.0
  0
ARC
  5
1CFEB
  8
SUNPO
  6
BYBLOCK
 10
136.221192
 20
112.000003
 30
0.0
 40
0.145
 50
270.0
 51
90.0
  0
ARC
  5
1CFEC
  8
SUNPO
  6
BYBLOCK
 10
136.221192
 20
112.000003
 30
0.0
 40
0.145
 50
270.0
 51
90.0
  0
ARC
  5
1CFED
  8
SUNPO
  6
BYBLOCK
 10
136.221192
 20
112.000003
 30
0.0
 40
0.145
 50
90.0
 51
270.0
  0
TEXT
  5
1CFEE
  8
SUNPO
  6
CONTINUOUS
 10
143.685645
 20
110.916668
 30
0.0
 40
2.5
  1
42
 50
90.0
  7
MX_NOTE_STANDARD
  0
TEXT
  5
1CFEF
  8
SUNPO
  6
CONTINUOUS
 10
279.916664
 20
29.322886
 30
0.0
 40
2.5
  1
55
  7
MX_NOTE_STANDARD
  0
TEXT
  5
1CFF0
  8
SUNPO
  6
CONTINUOUS
 10
225.537473
 20
29.371288
 30
0.0
 40
2.0
  1
2
  7
MX_NOTE_STANDARD
  0
LINE
  5
1CFF2
  8
SUNPO
  6
CONTINUOUS
 10
318.611405
 20
31.639166
 30
0.0
 11
319.767949
 21
27.322886
 31
0.0
  0
LINE
  5
1CFF3
  8
SUNPO
  6
CONTINUOUS
 10
309.5
 20
28.322886
 30
0.0
 11
318.611405
 21
31.639166
 31
0.0
  0
LINE
  5
1CFF4
  8
SUNPO
  6
CONTINUOUS
 10
254.499997
 20
36.5
 30
0.0
 11
254.499997
 21
28.322886
 31
0.0
  0
LINE
  5
1CFF5
  8
SUNPO
  6
CONTINUOUS
 10
309.499997
 20
36.5
 30
0.0
 11
309.499997
 21
28.322886
 31
0.0
  0
LINE
  5
1CFF6
  8
SUNPO
  6
CONTINUOUS
 10
196.111405
 20
31.639166
 30
0.0
 11
197.267949
 21
27.322886
 31
0.0
  0
LINE
  5
1CFF7
  8
SUNPO
  6
CONTINUOUS
 10
309.499997
 20
28.322886
 30
0.0
 11
254.499997
 21
28.322886
 31
0.0
  0
LINE
  5
1CFF9
  8
SUNPO
  6
CONTINUOUS
 10
245.388595
 20
25.006605
 30
0.0
 11
244.232051
 21
29.322886
 31
0.0
  0
LINE
  5
1CFFB
  8
SUNPO
  6
CONTINUOUS
 10
254.5
 20
28.322886
 30
0.0
 11
245.388595
 21
25.006605
 31
0.0
  0
LINE
  5
1CFFE
  8
SUNPO
  6
CONTINUOUS
 10
278.186114
 20
16.5
 30
0.0
 11
274.144668
 21
23.499997
 31
0.0
  0
LINE
  5
1CFFF
  8
SUNPO
  6
CONTINUOUS
 10
279.186113
 20
16.5
 30
0.0
 11
274.708582
 21
16.5
 31
0.0
  0
LINE
  5
1D000
  8
SUNPO
  6
CONTINUOUS
 10
281.495514
 20
23.5
 30
0.0
 11
277.186113
 21
23.5
 31
0.0
  0
LINE
  5
1D001
  8
SUNPO
  6
CONTINUOUS
 10
275.876776
 20
16.500001
 30
0.0
 11
271.835331
 21
23.499997
 31
0.0
  0
LINE
  5
1D002
  8
SUNPO
  6
CONTINUOUS
 10
275.10634
 20
23.5
 30
0.0
 11
270.73099
 21
23.5
 31
0.0
  0
LINE
  5
1D003
  8
SUNPO
  6
CONTINUOUS
 10
284.536961
 20
23.5
 30
0.0
 11
284.536961
 21
16.500003
 31
0.0
  0
LINE
  5
1D004
  8
SUNPO
  6
CONTINUOUS
 10
284.536959
 20
16.500004
 30
0.0
 11
280.495515
 21
23.499997
 31
0.0
  0
LINE
  5
1D005
  8
SUNPO
  6
CONTINUOUS
 10
282.22756
 20
16.500001
 30
0.0
 11
278.186114
 21
23.499998
 31
0.0
  0
LINE
  5
1D006
  8
SUNPO
  6
CONTINUOUS
 10
278.186113
 20
23.5
 30
0.0
 11
278.186113
 21
16.500001
 31
0.0
  0
LINE
  5
1D007
  8
SUNPO
  6
CONTINUOUS
 10
285.11431
 20
16.5
 30
0.0
 11
281.536562
 21
16.5
 31
0.0
  0
LINE
  5
1D008
  8
SUNPO
  6
CONTINUOUS
 10
293.26901
 20
18.5
 30
0.0
 11
288.26901
 21
18.5
 31
0.0
  0
LINE
  5
1D00A
  8
SUNPO
  6
CONTINUOUS
 10
285.495805
 20
23.5
 30
0.0
 11
283.459285
 21
23.5
 31
0.0
  0
LINE
  5
1D00B
  8
SUNPO
  6
CONTINUOUS
 10
293.26901
 20
21.5
 30
0.0
 11
288.26901
 21
21.5
 31
0.0
  0
LINE
  5
1D00E
  8
SUNPO
  6
CONTINUOUS
 10
232.0
 20
81.5
 30
0.0
 11
232.0
 21
41.0
 31
0.0
  0
TEXT
  5
1D00F
  8
SUNPO
  6
CONTINUOUS
 10
207.416667
 20
42.0
 30
0.0
 40
2.5
  1
45
  7
MX_NOTE_STANDARD
  0
ARC
  5
1D011
  8
SUNPO
  6
BYBLOCK
 10
232.0
 20
41.0
 30
0.0
 40
0.145
 50
0.0
 51
180.0
  0
ARC
  5
1D012
  8
SUNPO
  6
BYBLOCK
 10
232.0
 20
41.0
 30
0.0
 40
0.145
 50
180.0
 51
0.0
  0
ARC
  5
1D013
  8
SUNPO
  6
BYBLOCK
 10
244.793737
 20
83.0
 30
0.0
 40
0.145
 50
270.0
 51
90.0
  0
ARC
  5
1D014
  8
SUNPO
  6
BYBLOCK
 10
244.793737
 20
83.0
 30
0.0
 40
0.145
 50
90.0
 51
270.0
  0
TEXT
  5
1D015
  8
SUNPO
  6
CONTINUOUS
 10
243.793737
 20
116.125
 30
0.0
 40
2.5
  1
70
 50
90.0
  7
MX_NOTE_STANDARD
  0
LINE
  5
1D016
  8
SUNPO
  6
CONTINUOUS
 10
324.468739
 20
76.0
 30
0.0
 11
324.468739
 21
114.0
 31
0.0
  0
LINE
  5
1D017
  8
SUNPO
  6
CONTINUOUS
 10
324.468739
 20
76.0
 30
0.0
 11
324.468739
 21
38.0
 31
0.0
  0
LINE
  5
1D018
  8
SUNPO
  6
CONTINUOUS
 10
308.999997
 20
38.0
 30
0.0
 11
324.468739
 21
38.0
 31
0.0
  0
ARC
  5
1D01A
  8
SUNPO
  6
BYBLOCK
 10
324.468739
 20
38.0
 30
0.0
 40
0.145
 50
270.0
 51
90.0
  0
ARC
  5
1D01B
  8
SUNPO
  6
BYBLOCK
 10
324.468739
 20
38.0
 30
0.0
 40
0.145
 50
90.0
 51
270.0
  0
TEXT
  5
1D01C
  8
SUNPO
  6
CONTINUOUS
 10
323.468739
 20
54.916667
 30
0.0
 40
2.5
  1
38
 50
90.0
  7
MX_NOTE_STANDARD
  0
ARC
  5
1D01D
  8
SUNPO
  6
BYBLOCK
 10
324.468739
 20
76.0
 30
0.0
 40
0.145
 50
90.0
 51
270.0
  0
ARC
  5
1D01E
  8
SUNPO
  6
BYBLOCK
 10
324.468739
 20
76.0
 30
0.0
 40
0.145
 50
270.0
 51
90.0
  0
ARC
  5
1D01F
  8
SUNPO
  6
BYBLOCK
 10
324.468739
 20
76.0
 30
0.0
 40
0.145
 50
270.0
 51
90.0
  0
ARC
  5
1D020
  8
SUNPO
  6
BYBLOCK
 10
324.468739
 20
76.0
 30
0.0
 40
0.145
 50
90.0
 51
270.0
  0
TEXT
  5
1D021
  8
SUNPO
  6
CONTINUOUS
 10
323.468739
 20
97.155268
 30
0.0
 40
2.5
  1
38
 50
90.0
  7
MX_NOTE_STANDARD
  0
LINE
  5
1D022
  8
SUNPO
  6
CONTINUOUS
 10
310.999998
 20
122.0
 30
0.0
 11
324.468739
 21
122.0
 31
0.0
  0
TEXT
  5
1D023
  8
SUNPO
  6
CONTINUOUS
 10
323.468739
 20
117.166667
 30
0.0
 40
2.5
  1
8
 50
90.0
  7
MX_NOTE_STANDARD
  0
LINE
  5
1D024
  8
SUNPO
  6
CONTINUOUS
 10
324.468739
 20
122.0
 30
0.0
 11
324.468739
 21
114.0
 31
0.0
  0
ARC
  5
1D025
  8
SUNPO
  6
BYBLOCK
 10
324.468739
 20
114.0
 30
0.0
 40
0.145
 50
270.0
 51
90.0
  0
ARC
  5
1D026
  8
SUNPO
  6
BYBLOCK
 10
324.468739
 20
114.0
 30
0.0
 40
0.145
 50
90.0
 51
270.0
  0
ARC
  5
1D027
  8
SUNPO
  6
BYBLOCK
 10
324.468739
 20
114.0
 30
0.0
 40
0.145
 50
90.0
 51
270.0
  0
ARC
  5
1D028
  8
SUNPO
  6
BYBLOCK
 10
324.468739
 20
114.0
 30
0.0
 40
0.145
 50
270.0
 51
90.0
  0
ARC
  5
1D029
  8
SUNPO
  6
BYBLOCK
 10
324.468739
 20
122.0
 30
0.0
 40
0.145
 50
90.0
 51
270.0
  0
ARC
  5
1D02A
  8
SUNPO
  6
BYBLOCK
 10
324.468739
 20
122.0
 30
0.0
 40
0.145
 50
270.0
 51
90.0
  0
ARC
  5
1D02B
  8
SUNPO
  6
BYBLOCK
 10
324.468739
 20
122.0
 30
0.0
 40
0.145
 50
270.0
 51
90.0
  0
ARC
  5
1D02C
  8
SUNPO
  6
BYBLOCK
 10
324.468739
 20
122.0
 30
0.0
 40
0.145
 50
90.0
 51
270.0
  0
TEXT
  5
1D02D
  8
SUNPO
  6
CONTINUOUS
 10
343.102796
 20
29.307041
 30
0.0
 40
2.0
  1
1
 41
1.5
  7
MX_NOTE_STANDARD
  0
LINE
  5
1D02E
  8
SUNPO
  6
CONTINUOUS
 10
377.0
 20
75.499992
 30
0.0
 11
377.0
 21
20.0
 31
0.0
  0
LINE
  5
1D031
  8
SUNPO
  6
CONTINUOUS
 10
402.0
 20
20.0
 30
0.0
 11
377.0
 21
20.0
 31
0.0
  0
LINE
  5
1D032
  8
SUNPO
  6
CONTINUOUS
 10
377.0
 20
20.0
 30
0.0
 11
372.0
 21
15.0
 31
0.0
  0
LINE
  5
1D033
  8
SUNPO
  6
CONTINUOUS
 10
372.0
 20
25.0
 30
0.0
 11
377.0
 21
20.0
 31
0.0
  0
LINE
  5
1D034
  8
SUNPO
  6
CONTINUOUS
 10
377.0
 20
28.322886
 30
0.0
 11
367.888595
 21
25.006605
 31
0.0
  0
LINE
  5
1D035
  8
SUNPO
  6
CONTINUOUS
 10
372.0
 20
15.0
 30
0.0
 11
372.0
 21
25.0
 31
0.0
  0
LINE
  5
1D038
  8
SUNPO
  6
CONTINUOUS
 10
367.888595
 20
25.006605
 30
0.0
 11
366.732051
 21
29.322886
 31
0.0
  0
TEXT
  5
1D03D
  8
SUNPO
  6
CONTINUOUS
 10
387.416667
 20
21.0
 30
0.0
 40
2.5
  1
25
  7
MX_NOTE_STANDARD
  0
ARC
  5
1D03E
  8
SUNPO
  6
BYBLOCK
 10
402.0
 20
20.0
 30
0.0
 40
0.145
 50
0.0
 51
180.0
  0
ARC
  5
1D03F
  8
SUNPO
  6
BYBLOCK
 10
402.0
 20
20.0
 30
0.0
 40
0.145
 50
180.0
 51
0.0
  0
LINE
  5
1D040
  8
SUNPO
  6
CONTINUOUS
 10
402.0
 20
41.0
 30
0.0
 11
392.0
 21
41.0
 31
0.0
  0
LINE
  5
1D041
  8
SUNPO
  6
CONTINUOUS
 10
392.0
 20
81.5
 30
0.0
 11
392.0
 21
41.0
 31
0.0
  0
LINE
  5
1D042
  8
SUNPO
  6
CONTINUOUS
 10
377.0
 20
41.0
 30
0.0
 11
347.0
 21
41.0
 31
0.0
  0
LINE
  5
1D043
  8
SUNPO
  6
CONTINUOUS
 10
347.0
 20
74.499992
 30
0.0
 11
347.0
 21
41.0
 31
0.0
  0
ARC
  5
1D044
  8
SUNPO
  6
BYBLOCK
 10
347.0
 20
41.0
 30
0.0
 40
0.145
 50
180.0
 51
0.0
  0
ARC
  5
1D045
  8
SUNPO
  6
BYBLOCK
 10
347.0
 20
41.0
 30
0.0
 40
0.145
 50
0.0
 51
180.0
  0
TEXT
  5
1D046
  8
SUNPO
  6
CONTINUOUS
 10
360.125
 20
42.0
 30
0.0
 40
2.5
  1
30
  7
MX_NOTE_STANDARD
  0
TEXT
  5
1D047
  8
SUNPO
  6
CONTINUOUS
 10
382.833333
 20
42.0
 30
0.0
 40
2.5
  1
15
  7
MX_NOTE_STANDARD
  0
LINE
  5
1D048
  8
SUNPO
  6
CONTINUOUS
 10
392.0
 20
41.0
 30
0.0
 11
377.0
 21
41.0
 31
0.0
  0
ARC
  5
1D049
  8
SUNPO
  6
BYBLOCK
 10
377.0
 20
41.0
 30
0.0
 40
0.145
 50
0.0
 51
180.0
  0
ARC
  5
1D04A
  8
SUNPO
  6
BYBLOCK
 10
377.0
 20
41.0
 30
0.0
 40
0.145
 50
180.0
 51
0.0
  0
ARC
  5
1D04B
  8
SUNPO
  6
BYBLOCK
 10
377.0
 20
41.0
 30
0.0
 40
0.145
 50
180.0
 51
0.0
  0
ARC
  5
1D04C
  8
SUNPO
  6
BYBLOCK
 10
377.0
 20
41.0
 30
0.0
 40
0.145
 50
0.0
 51
180.0
  0
ARC
  5
1D04D
  8
SUNPO
  6
BYBLOCK
 10
392.0
 20
41.0
 30
0.0
 40
0.145
 50
0.0
 51
180.0
  0
ARC
  5
1D04E
  8
SUNPO
  6
BYBLOCK
 10
392.0
 20
41.0
 30
0.0
 40
0.145
 50
180.0
 51
0.0
  0
ARC
  5
1D04F
  8
SUNPO
  6
BYBLOCK
 10
392.0
 20
41.0
 30
0.0
 40
0.145
 50
180.0
 51
0.0
  0
ARC
  5
1D050
  8
SUNPO
  6
BYBLOCK
 10
392.0
 20
41.0
 30
0.0
 40
0.145
 50
0.0
 51
180.0
  0
TEXT
  5
1D051
  8
SUNPO
  6
CONTINUOUS
 10
395.541667
 20
42.0
 30
0.0
 40
2.5
  1
10
  7
MX_NOTE_STANDARD
  0
ARC
  5
1D052
  8
SUNPO
  6
BYBLOCK
 10
402.0
 20
41.0
 30
0.0
 40
0.145
 50
0.0
 51
180.0
  0
ARC
  5
1D053
  8
SUNPO
  6
BYBLOCK
 10
402.0
 20
41.0
 30
0.0
 40
0.145
 50
180.0
 51
0.0
  0
LINE
  5
1D054
  8
SUNPO
  6
CONTINUOUS
 10
401.021299
 20
114.0
 30
0.0
 11
401.021299
 21
103.4
 31
0.0
  0
LINE
  5
1D055
  8
SUNPO
  6
CONTINUOUS
 10
397.13855
 20
103.4
 30
0.0
 11
401.021299
 21
103.4
 31
0.0
  0
TEXT
  5
1D056
  8
SUNPO
  6
CONTINUOUS
 10
400.021299
 20
105.575
 30
0.0
 40
2.5
  1
10.6
 50
90.0
  7
MX_NOTE_STANDARD
  0
ARC
  5
1D057
  8
SUNPO
  6
BYBLOCK
 10
401.021299
 20
103.4
 30
0.0
 40
0.145
 50
270.0
 51
90.0
  0
ARC
  5
1D058
  8
SUNPO
  6
BYBLOCK
 10
401.021299
 20
103.4
 30
0.0
 40
0.145
 50
90.0
 51
270.0
  0
LINE
  5
1D059
  8
SUNPO
  6
CONTINUOUS
 10
393.499989
 20
114.0
 30
0.0
 11
401.021299
 21
114.0
 31
0.0
  0
ARC
  5
1D05A
  8
SUNPO
  6
BYBLOCK
 10
401.021299
 20
114.0
 30
0.0
 40
0.145
 50
90.0
 51
270.0
  0
ARC
  5
1D05B
  8
SUNPO
  6
BYBLOCK
 10
401.021299
 20
114.0
 30
0.0
 40
0.145
 50
270.0
 51
90.0
  0
LINE
  5
1D05C
  8
SUNPO
  6
CONTINUOUS
 10
73.0
 20
168.5
 30
0.0
 11
35.0
 21
168.5
 31
0.0
  0
LINE
  5
1D05D
  8
SUNPO
  6
CONTINUOUS
 10
42.0
 20
182.428279
 30
0.0
 11
112.0
 21
182.428279
 31
0.0
  0
LINE
  5
1D05E
  8
DANMEN
  6
CONTINUOUS
 10
357.0
 20
151.800003
 30
0.0
 11
323.75
 21
151.800003
 31
0.0
  0
LINE
  5
1D05F
  8
DANMEN
  6
CONTINUOUS
 10
352.600006
 20
154.800003
 30
0.0
 11
323.75
 21
154.800003
 31
0.0
  0
LINE
  5
1D060
  8
DANMEN
  6
CONTINUOUS
 10
352.600006
 20
156.0
 30
0.0
 11
323.75
 21
156.0
 31
0.0
  0
LINE
  5
1D061
  8
DANMEN
  6
CONTINUOUS
 10
323.75
 20
132.5
 30
0.0
 11
392.0
 21
132.5
 31
0.0
  0
LINE
  5
1D062
  8
DANMEN
  6
CONTINUOUS
 10
323.75
 20
135.5
 30
0.0
 11
392.0
 21
135.5
 31
0.0
  0
LINE
  5
1D063
  8
DANMEN
  6
CONTINUOUS
 10
323.75
 20
146.0
 30
0.0
 11
392.0
 21
146.0
 31
0.0
  0
LINE
  5
1D064
  8
DANMEN
  6
CONTINUOUS
 10
325.23851
 20
140.5
 30
0.0
 11
392.0
 21
140.5
 31
0.0
  0
LINE
  5
1D065
  8
DANMEN
  6
CONTINUOUS
 10
250.529709
 20
217.923107
 30
0.0
 11
247.0
 21
214.393398
 31
0.0
  0
LINE
  5
1D066
  8
DANMEN
  6
CONTINUOUS
 10
250.189523
 20
215.082555
 30
0.0
 11
247.0
 21
218.272078
 31
0.0
  0
LINE
  5
1D067
  8
DANMEN
  6
CONTINUOUS
 10
250.999995
 20
221.85
 30
0.0
 11
249.999995
 21
213.500002
 31
0.0
  0
LINE
  5
1D068
  8
DANMEN
  6
CONTINUOUS
 10
227.05
 20
231.05
 30
0.0
 11
227.05
 21
210.949997
 31
0.0
  0
LINE
  5
1D069
  8
DANMEN
  6
CONTINUOUS
 10
229.0
 20
232.0
 30
0.0
 11
229.0
 21
210.949997
 31
0.0
  0
LINE
  5
1D06A
  8
DANMEN
  6
CONTINUOUS
 10
255.499997
 20
160.0
 30
0.0
 11
308.499997
 21
160.0
 31
0.0
  0
LINE
  5
1D06B
  8
DANMEN
  6
CONTINUOUS
 10
255.699997
 20
123.949997
 30
0.0
 11
274.499997
 21
123.949997
 31
0.0
  0
LINE
  5
1D06C
  8
DANMEN
  6
CONTINUOUS
 10
255.699997
 20
158.050003
 30
0.0
 11
274.499997
 21
158.050003
 31
0.0
  0
LINE
  5
1D06D
  8
DANMEN
  6
CONTINUOUS
 10
269.499997
 20
146.65
 30
0.0
 11
242.75
 21
146.65
 31
0.0
  0
LINE
  5
1D06E
  8
DANMEN
  6
CONTINUOUS
 10
269.499997
 20
141.65
 30
0.0
 11
242.75
 21
141.65
 31
0.0
  0
LINE
  5
1D06F
  8
DANMEN
  6
CONTINUOUS
 10
269.499997
 20
135.35
 30
0.0
 11
242.75
 21
135.35
 31
0.0
  0
LINE
  5
1D070
  8
DANMEN
  6
CONTINUOUS
 10
269.499997
 20
140.35
 30
0.0
 11
242.75
 21
140.35
 31
0.0
  0
LINE
  5
1D071
  8
DANMEN
  6
CONTINUOUS
 10
269.499997
 20
147.15
 30
0.0
 11
242.75
 21
147.15
 31
0.0
  0
LINE
  5
1D072
  8
DANMEN
  6
CONTINUOUS
 10
269.499997
 20
134.85
 30
0.0
 11
242.75
 21
134.85
 31
0.0
  0
LINE
  5
1D073
  8
DANMEN
  6
CONTINUOUS
 10
269.499997
 20
141.15
 30
0.0
 11
242.75
 21
141.15
 31
0.0
  0
LINE
  5
1D074
  8
DANMEN
  6
CONTINUOUS
 10
269.499997
 20
140.85
 30
0.0
 11
242.75
 21
140.85
 31
0.0
  0
LINE
  5
1D075
  8
DANMEN
  6
CONTINUOUS
 10
232.0
 20
124.2
 30
0.0
 11
240.25
 21
124.2
 31
0.0
  0
LINE
  5
1D076
  8
DANMEN
  6
CONTINUOUS
 10
232.0
 20
160.0
 30
0.0
 11
240.25
 21
160.0
 31
0.0
  0
LINE
  5
1D077
  8
DANMEN
  6
CONTINUOUS
 10
232.0
 20
157.800003
 30
0.0
 11
240.25
 21
157.800003
 31
0.0
  0
LINE
  5
1D078
  8
DANMEN
  6
CONTINUOUS
 10
240.25
 20
155.500003
 30
0.0
 11
232.0
 21
155.500003
 31
0.0
  0
LINE
  5
1D079
  8
DANMEN
  6
CONTINUOUS
 10
217.0
 20
135.35
 30
0.0
 11
240.25
 21
135.35
 31
0.0
  0
LINE
  5
1D07A
  8
DANMEN
  6
CONTINUOUS
 10
217.0
 20
140.35
 30
0.0
 11
240.25
 21
140.35
 31
0.0
  0
LINE
  5
1D07B
  8
DANMEN
  6
CONTINUOUS
 10
217.0
 20
146.65
 30
0.0
 11
240.25
 21
146.65
 31
0.0
  0
LINE
  5
1D07C
  8
DANMEN
  6
CONTINUOUS
 10
217.0
 20
141.65
 30
0.0
 11
240.25
 21
141.65
 31
0.0
  0
LINE
  5
1D07D
  8
DANMEN
  6
CONTINUOUS
 10
217.0
 20
134.85
 30
0.0
 11
240.25
 21
134.85
 31
0.0
  0
LINE
  5
1D07E
  8
DANMEN
  6
CONTINUOUS
 10
217.0
 20
147.15
 30
0.0
 11
240.25
 21
147.15
 31
0.0
  0
LINE
  5
1D07F
  8
DANMEN
  6
CONTINUOUS
 10
217.0
 20
140.85
 30
0.0
 11
240.25
 21
140.85
 31
0.0
  0
LINE
  5
1D080
  8
DANMEN
  6
CONTINUOUS
 10
217.0
 20
141.15
 30
0.0
 11
240.25
 21
141.15
 31
0.0
  0
LINE
  5
1D081
  8
DANMEN
  6
CONTINUOUS
 10
232.0
 20
126.499995
 30
0.0
 11
240.25
 21
126.499995
 31
0.0
  0
LINE
  5
1D082
  8
DANMEN
  6
CONTINUOUS
 10
210.999997
 20
158.050003
 30
0.0
 11
210.999997
 21
146.0
 31
0.0
  0
LINE
  5
1D083
  8
DANMEN
  6
CONTINUOUS
 10
208.999997
 20
159.0
 30
0.0
 11
208.999997
 21
146.0
 31
0.0
  0
LINE
  5
1D084
  8
DANMEN
  6
CONTINUOUS
 10
217.0
 20
147.15
 30
0.0
 11
217.0
 21
134.85
 31
0.0
  0
LINE
  5
1D085
  8
DANMEN
  6
CONTINUOUS
 10
210.999997
 20
123.95
 30
0.0
 11
230.799997
 21
123.95
 31
0.0
  0
LINE
  5
1D086
  8
DANMEN
  6
CONTINUOUS
 10
210.999997
 20
145.0
 30
0.0
 11
210.999997
 21
123.949997
 31
0.0
  0
LINE
  5
1D087
  8
DANMEN
  6
CONTINUOUS
 10
209.049997
 20
144.05
 30
0.0
 11
209.049997
 21
123.949997
 31
0.0
  0
LINE
  5
1D088
  8
DANMEN
  6
CONTINUOUS
 10
205.662125
 20
129.153551
 30
0.0
 11
203.603545
 21
131.212131
 31
0.0
  0
ARC
  5
1D089
  8
DANMEN
  6
CONTINUOUS
 10
205.449994
 20
128.94142
 30
0.0
 40
0.3
 50
359.999927
 51
44.999947
  0
LINE
  5
1D08C
  8
DANMEN
  6
CONTINUOUS
 10
203.391413
 20
131.3
 30
0.0
 11
202.499994
 21
131.3
 31
0.0
  0
ARC
  5
1D08D
  8
DANMEN
  6
CONTINUOUS
 10
203.391413
 20
131.0
 30
0.0
 40
0.3
 50
45.000056
 51
90.000091
  0
LINE
  5
1D092
  8
DANMEN
  6
CONTINUOUS
 10
210.999997
 20
146.0
 30
0.0
 11
212.499997
 21
146.0
 31
0.0
  0
LINE
  5
1D093
  8
DANMEN
  6
CONTINUOUS
 10
212.999997
 20
145.5
 30
0.0
 11
212.999997
 21
144.550003
 31
0.0
  0
LINE
  5
1D094
  8
DANMEN
  6
CONTINUOUS
 10
210.999997
 20
145.0
 30
0.0
 11
211.999997
 21
145.0
 31
0.0
  0
LINE
  5
1D095
  8
DANMEN
  6
CONTINUOUS
 10
211.999997
 20
145.0
 30
0.0
 11
211.999997
 21
144.050003
 31
0.0
  0
LINE
  5
1D097
  8
DANMEN
  6
CONTINUOUS
 10
211.999997
 20
144.05
 30
0.0
 11
212.499997
 21
144.05
 31
0.0
  0
ARC
  5
1D09A
  8
DANMEN
  6
CONTINUOUS
 10
212.499997
 20
145.5
 30
0.0
 40
0.5
 50
0.0
 51
90.0
  0
ARC
  5
1D09C
  8
DANMEN
  6
CONTINUOUS
 10
212.499997
 20
144.55
 30
0.0
 40
0.5
 50
270.0
 51
0.0
  0
LINE
  5
1D09F
  8
DANMEN
  6
CONTINUOUS
 10
232.529709
 20
130.923107
 30
0.0
 11
229.0
 21
127.393398
 31
0.0
  0
LINE
  5
1D0A0
  8
DANMEN
  6
CONTINUOUS
 10
232.189523
 20
128.082555
 30
0.0
 11
229.0
 21
131.272078
 31
0.0
  0
LINE
  5
1D0A1
  8
DANMEN
  6
CONTINUOUS
 10
232.999995
 20
134.85
 30
0.0
 11
231.999995
 21
126.500002
 31
0.0
  0
LINE
  5
1D0A2
  8
DANMEN
  6
CONTINUOUS
 10
231.150758
 20
127.0
 30
0.0
 11
229.0
 21
129.150758
 31
0.0
  0
LINE
  5
1D0A3
  8
DANMEN
  6
CONTINUOUS
 10
226.999997
 20
127.0
 30
0.0
 11
231.499997
 21
127.0
 31
0.0
  0
LINE
  5
1D0A4
  8
DANMEN
  6
CONTINUOUS
 10
227.499997
 20
126.0
 30
0.0
 11
230.8
 21
126.0
 31
0.0
  0
LINE
  5
1D0A5
  8
DANMEN
  6
CONTINUOUS
 10
229.029437
 20
127.0
 30
0.0
 11
229.0
 21
127.029437
 31
0.0
  0
LINE
  5
1D0A6
  8
DANMEN
  6
CONTINUOUS
 10
226.999997
 20
126.5
 30
0.0
 11
226.999997
 21
127.0
 31
0.0
  0
ARC
  5
1D0A8
  8
DANMEN
  6
CONTINUOUS
 10
227.499997
 20
126.5
 30
0.0
 40
0.5
 50
180.0
 51
270.0
  0
LINE
  5
1D0AA
  8
DANMEN
  6
CONTINUOUS
 10
232.241094
 20
128.513172
 30
0.0
 11
230.727922
 21
127.0
 31
0.0
  0
LINE
  5
1D0AB
  8
DANMEN
  6
CONTINUOUS
 10
230.799997
 20
123.95
 30
0.0
 11
230.799997
 21
126.0
 31
0.0
  0
ARC
  5
1D0AE
  8
DANMEN
  6
CONTINUOUS
 10
231.499997
 20
126.5
 30
0.0
 40
0.5
 50
0.0
 51
90.0
  0
LINE
  5
1D0B0
  8
DANMEN
  6
CONTINUOUS
 10
232.213958
 20
134.849997
 30
0.0
 11
229.0
 21
131.636039
 31
0.0
  0
LINE
  5
1D0B1
  8
DANMEN
  6
CONTINUOUS
 10
232.818323
 20
133.333042
 30
0.0
 11
229.0
 21
129.514718
 31
0.0
  0
LINE
  5
1D0B2
  8
DANMEN
  6
CONTINUOUS
 10
232.643281
 20
131.871438
 30
0.0
 11
229.664722
 21
134.849997
 31
0.0
  0
LINE
  5
1D0B3
  8
DANMEN
  6
CONTINUOUS
 10
232.416402
 20
129.976996
 30
0.0
 11
229.0
 21
133.393399
 31
0.0
  0
LINE
  5
1D0B4
  8
DANMEN
  6
CONTINUOUS
 10
230.092638
 20
134.849997
 30
0.0
 11
229.0
 21
133.757359
 31
0.0
  0
LINE
  5
1D0B5
  8
DANMEN
  6
CONTINUOUS
 10
232.87016
 20
133.765879
 30
0.0
 11
231.786042
 21
134.849997
 31
0.0
  0
LINE
  5
1D0B8
  8
DANMEN
  6
CONTINUOUS
 10
209.999997
 20
160.0
 30
0.0
 11
230.999997
 21
160.0
 31
0.0
  0
LINE
  5
1D0B9
  8
DANMEN
  6
CONTINUOUS
 10
210.999997
 20
158.05
 30
0.0
 11
230.799997
 21
158.05
 31
0.0
  0
LINE
  5
1D0BA
  8
DANMEN
  6
CONTINUOUS
 10
206.999997
 20
156.0
 30
0.0
 11
206.999997
 21
151.800003
 31
0.0
  0
LINE
  5
1D0BB
  8
DANMEN
  6
CONTINUOUS
 10
206.999997
 20
151.800003
 30
0.0
 11
208.999997
 21
151.800003
 31
0.0
  0
LINE
  5
1D0BC
  8
DANMEN
  6
CONTINUOUS
 10
206.999997
 20
156.0
 30
0.0
 11
208.999997
 21
156.0
 31
0.0
  0
LINE
  5
1D0BD
  8
DANMEN
  6
CONTINUOUS
 10
206.999997
 20
154.800003
 30
0.0
 11
208.999997
 21
154.800003
 31
0.0
  0
ARC
  5
1D0BF
  8
DANMEN
  6
CONTINUOUS
 10
209.999997
 20
159.0
 30
0.0
 40
1.0
 50
90.0
 51
180.0
  0
LINE
  5
1D0C2
  8
DANMEN
  6
CONTINUOUS
 10
231.999997
 20
159.0
 30
0.0
 11
231.999997
 21
155.5
 31
0.0
  0
LINE
  5
1D0C3
  8
DANMEN
  6
CONTINUOUS
 10
232.189523
 20
153.917445
 30
0.0
 11
229.0
 21
150.727922
 31
0.0
  0
LINE
  5
1D0C4
  8
DANMEN
  6
CONTINUOUS
 10
232.529708
 20
151.076893
 30
0.0
 11
229.0
 21
154.606602
 31
0.0
  0
LINE
  5
1D0C5
  8
DANMEN
  6
CONTINUOUS
 10
233.000003
 20
147.15
 30
0.0
 11
232.000003
 21
155.500005
 31
0.0
  0
LINE
  5
1D0C6
  8
DANMEN
  6
CONTINUOUS
 10
232.416402
 20
152.023004
 30
0.0
 11
229.0
 21
148.606602
 31
0.0
  0
LINE
  5
1D0C7
  8
DANMEN
  6
CONTINUOUS
 10
232.643281
 20
150.128562
 30
0.0
 11
229.664714
 21
147.149996
 31
0.0
  0
LINE
  5
1D0C8
  8
DANMEN
  6
CONTINUOUS
 10
232.818323
 20
148.666959
 30
0.0
 11
229.0
 21
152.485281
 31
0.0
  0
LINE
  5
1D0C9
  8
DANMEN
  6
CONTINUOUS
 10
232.213965
 20
147.149996
 30
0.0
 11
229.0
 21
150.363961
 31
0.0
  0
LINE
  5
1D0CA
  8
DANMEN
  6
CONTINUOUS
 10
230.092645
 20
147.149996
 30
0.0
 11
229.0
 21
148.242641
 31
0.0
  0
LINE
  5
1D0CB
  8
DANMEN
  6
CONTINUOUS
 10
232.87016
 20
148.234121
 30
0.0
 11
231.786035
 21
147.149996
 31
0.0
  0
LINE
  5
1D0CD
  8
DANMEN
  6
CONTINUOUS
 10
231.150758
 20
155.0
 30
0.0
 11
229.0
 21
152.849242
 31
0.0
  0
LINE
  5
1D0CE
  8
DANMEN
  6
CONTINUOUS
 10
226.999997
 20
155.0
 30
0.0
 11
231.499997
 21
155.0
 31
0.0
  0
LINE
  5
1D0CF
  8
DANMEN
  6
CONTINUOUS
 10
227.499997
 20
156.0
 30
0.0
 11
230.799997
 21
156.0
 31
0.0
  0
LINE
  5
1D0D0
  8
DANMEN
  6
CONTINUOUS
 10
229.029437
 20
155.0
 30
0.0
 11
229.0
 21
154.970563
 31
0.0
  0
LINE
  5
1D0D1
  8
DANMEN
  6
CONTINUOUS
 10
226.999997
 20
155.5
 30
0.0
 11
226.999997
 21
155.0
 31
0.0
  0
ARC
  5
1D0D3
  8
DANMEN
  6
CONTINUOUS
 10
227.499997
 20
155.5
 30
0.0
 40
0.5
 50
90.0
 51
180.0
  0
LINE
  5
1D0D5
  8
DANMEN
  6
CONTINUOUS
 10
232.241094
 20
153.486828
 30
0.0
 11
230.727922
 21
155.0
 31
0.0
  0
ARC
  5
1D0D6
  8
DANMEN
  6
CONTINUOUS
 10
231.499997
 20
155.5
 30
0.0
 40
0.5
 50
270.0
 51
0.0
  0
LINE
  5
1D0D8
  8
DANMEN
  6
CONTINUOUS
 10
230.799997
 20
158.05
 30
0.0
 11
230.799997
 21
156.0
 31
0.0
  0
ARC
  5
1D0DC
  8
DANMEN
  6
CONTINUOUS
 10
230.999997
 20
159.0
 30
0.0
 40
1.0
 50
0.0
 51
90.0
  0
LINE
  5
1D0DE
  8
DANMEN
  6
CONTINUOUS
 10
242.75
 20
124.2
 30
0.0
 11
254.499997
 21
124.2
 31
0.0
  0
LINE
  5
1D0DF
  8
DANMEN
  6
CONTINUOUS
 10
242.75
 20
126.499995
 30
0.0
 11
254.499997
 21
126.499995
 31
0.0
  0
LINE
  5
1D0E0
  8
DANMEN
  6
CONTINUOUS
 10
254.999997
 20
127.0
 30
0.0
 11
259.499997
 21
127.0
 31
0.0
  0
ARC
  5
1D0E1
  8
DANMEN
  6
CONTINUOUS
 10
258.999997
 20
126.5
 30
0.0
 40
0.5
 50
270.000018
 51
0.0
  0
LINE
  5
1D0E2
  8
DANMEN
  6
CONTINUOUS
 10
254.310474
 20
128.082555
 30
0.0
 11
257.499997
 21
131.272078
 31
0.0
  0
LINE
  5
1D0E3
  8
DANMEN
  6
CONTINUOUS
 10
253.970289
 20
130.923107
 30
0.0
 11
257.499997
 21
127.393398
 31
0.0
  0
LINE
  5
1D0E4
  8
DANMEN
  6
CONTINUOUS
 10
253.499994
 20
134.85
 30
0.0
 11
254.499995
 21
126.499995
 31
0.0
  0
LINE
  5
1D0E5
  8
DANMEN
  6
CONTINUOUS
 10
254.258903
 20
128.513172
 30
0.0
 11
255.772075
 21
127.0
 31
0.0
  0
ARC
  5
1D0E7
  8
DANMEN
  6
CONTINUOUS
 10
254.999997
 20
126.5
 30
0.0
 40
0.5
 50
90.0
 51
180.0
  0
LINE
  5
1D0E8
  8
DANMEN
  6
CONTINUOUS
 10
257.47056
 20
127.0
 30
0.0
 11
257.499997
 21
127.029437
 31
0.0
  0
LINE
  5
1D0E9
  8
DANMEN
  6
CONTINUOUS
 10
255.34924
 20
127.0
 30
0.0
 11
257.499997
 21
129.150758
 31
0.0
  0
LINE
  5
1D0EA
  8
DANMEN
  6
CONTINUOUS
 10
255.699997
 20
126.0
 30
0.0
 11
258.999997
 21
126.0
 31
0.0
  0
LINE
  5
1D0EB
  8
DANMEN
  6
CONTINUOUS
 10
255.699997
 20
126.0
 30
0.0
 11
255.699997
 21
123.949997
 31
0.0
  0
LINE
  5
1D0EE
  8
DANMEN
  6
CONTINUOUS
 10
254.083595
 20
129.976996
 30
0.0
 11
257.499997
 21
133.393398
 31
0.0
  0
LINE
  5
1D0EF
  8
DANMEN
  6
CONTINUOUS
 10
253.856716
 20
131.871438
 30
0.0
 11
256.835283
 21
134.850004
 31
0.0
  0
LINE
  5
1D0F0
  8
DANMEN
  6
CONTINUOUS
 10
253.681674
 20
133.333041
 30
0.0
 11
257.499997
 21
129.514719
 31
0.0
  0
LINE
  5
1D0F1
  8
DANMEN
  6
CONTINUOUS
 10
254.286032
 20
134.850004
 30
0.0
 11
257.499997
 21
131.636039
 31
0.0
  0
LINE
  5
1D0F2
  8
DANMEN
  6
CONTINUOUS
 10
253.629837
 20
133.765879
 30
0.0
 11
254.713962
 21
134.850004
 31
0.0
  0
LINE
  5
1D0F4
  8
DANMEN
  6
CONTINUOUS
 10
256.407352
 20
134.850004
 30
0.0
 11
257.499997
 21
133.757359
 31
0.0
  0
LINE
  5
1D0F5
  8
DANMEN
  6
CONTINUOUS
 10
259.499997
 20
127.0
 30
0.0
 11
259.499997
 21
126.5
 31
0.0
  0
LINE
  5
1D0FA
  8
DANMEN
  6
CONTINUOUS
 10
242.75
 20
157.800003
 30
0.0
 11
254.499997
 21
157.800003
 31
0.0
  0
LINE
  5
1D0FB
  8
DANMEN
  6
CONTINUOUS
 10
242.75
 20
160.0
 30
0.0
 11
254.999997
 21
160.0
 31
0.0
  0
LINE
  5
1D0FC
  8
DANMEN
  6
CONTINUOUS
 10
244.793737
 20
155.500003
 30
0.0
 11
254.499997
 21
155.500003
 31
0.0
  0
LINE
  5
1D0FD
  8
DANMEN
  6
CONTINUOUS
 10
254.499997
 20
159.0
 30
0.0
 11
254.499997
 21
155.5
 31
0.0
  0
LINE
  5
1D0FE
  8
DANMEN
  6
CONTINUOUS
 10
254.999997
 20
155.0
 30
0.0
 11
259.499997
 21
155.0
 31
0.0
  0
ARC
  5
1D0FF
  8
DANMEN
  6
CONTINUOUS
 10
258.999997
 20
155.5
 30
0.0
 40
0.5
 50
0.0
 51
89.999982
  0
LINE
  5
1D100
  8
DANMEN
  6
CONTINUOUS
 10
253.970288
 20
151.076893
 30
0.0
 11
257.499997
 21
154.606602
 31
0.0
  0
LINE
  5
1D101
  8
DANMEN
  6
CONTINUOUS
 10
254.310474
 20
153.917445
 30
0.0
 11
257.499997
 21
150.727922
 31
0.0
  0
LINE
  5
1D102
  8
DANMEN
  6
CONTINUOUS
 10
253.500002
 20
147.15
 30
0.0
 11
254.500002
 21
155.499998
 31
0.0
  0
LINE
  5
1D103
  8
DANMEN
  6
CONTINUOUS
 10
254.286039
 20
147.150003
 30
0.0
 11
257.499997
 21
150.363961
 31
0.0
  0
LINE
  5
1D104
  8
DANMEN
  6
CONTINUOUS
 10
253.681674
 20
148.666958
 30
0.0
 11
257.499997
 21
152.485282
 31
0.0
  0
LINE
  5
1D105
  8
DANMEN
  6
CONTINUOUS
 10
253.856716
 20
150.128562
 30
0.0
 11
256.835276
 21
147.150003
 31
0.0
  0
LINE
  5
1D106
  8
DANMEN
  6
CONTINUOUS
 10
254.083595
 20
152.023004
 30
0.0
 11
257.499998
 21
148.606601
 31
0.0
  0
LINE
  5
1D107
  8
DANMEN
  6
CONTINUOUS
 10
253.629837
 20
148.234121
 30
0.0
 11
254.713955
 21
147.150003
 31
0.0
  0
LINE
  5
1D108
  8
DANMEN
  6
CONTINUOUS
 10
256.407359
 20
147.150003
 30
0.0
 11
257.499998
 21
148.242641
 31
0.0
  0
LINE
  5
1D109
  8
DANMEN
  6
CONTINUOUS
 10
254.258903
 20
153.486828
 30
0.0
 11
255.772075
 21
155.0
 31
0.0
  0
ARC
  5
1D10B
  8
DANMEN
  6
CONTINUOUS
 10
254.999997
 20
155.5
 30
0.0
 40
0.5
 50
180.000019
 51
270.000001
  0
LINE
  5
1D10C
  8
DANMEN
  6
CONTINUOUS
 10
255.34924
 20
155.0
 30
0.0
 11
257.499997
 21
152.849242
 31
0.0
  0
LINE
  5
1D10D
  8
DANMEN
  6
CONTINUOUS
 10
257.47056
 20
155.0
 30
0.0
 11
257.499997
 21
154.970563
 31
0.0
  0
LINE
  5
1D10F
  8
DANMEN
  6
CONTINUOUS
 10
255.699997
 20
156.0
 30
0.0
 11
258.999997
 21
156.0
 31
0.0
  0
LINE
  5
1D110
  8
DANMEN
  6
CONTINUOUS
 10
255.699997
 20
158.050003
 30
0.0
 11
255.699997
 21
156.0
 31
0.0
  0
LINE
  5
1D112
  8
DANMEN
  6
CONTINUOUS
 10
259.499997
 20
155.5
 30
0.0
 11
259.499997
 21
155.0
 31
0.0
  0
ARC
  5
1D115
  8
DANMEN
  6
CONTINUOUS
 10
255.499997
 20
159.0
 30
0.0
 40
1.0
 50
90.0
 51
180.0
  0
LINE
  5
1D117
  8
DANMEN
  6
CONTINUOUS
 10
229.0
 20
210.95
 30
0.0
 11
248.8
 21
210.95
 31
0.0
  0
LINE
  5
1D118
  8
DANMEN
  6
PHANTOM
 10
226.5
 20
209.000003
 30
0.0
 11
226.5
 21
171.500003
 31
0.0
  0
ARC
  5
1D119
  8
DANMEN
  6
PHANTOM
 10
234.0
 20
171.500003
 30
0.0
 40
7.5
 50
180.0
 51
191.536959
  0
LINE
  5
1D11E
  8
DANMEN
  6
CONTINUOUS
 10
255.0
 20
213.999997
 30
0.0
 11
250.076917
 21
213.999997
 31
0.0
  0
LINE
  5
1D11F
  8
DANMEN
  6
CONTINUOUS
 10
249.0
 20
209.0
 30
0.0
 11
255.0
 21
209.0
 31
0.0
  0
LINE
  5
1D120
  8
DANMEN
  6
CONTINUOUS
 10
250.0
 20
211.2
 30
0.0
 11
255.0
 21
211.2
 31
0.0
  0
LINE
  5
1D121
  8
DANMEN
  6
CONTINUOUS
 10
250.0
 20
210.0
 30
0.0
 11
250.0
 21
213.5
 31
0.0
  0
ARC
  5
1D124
  8
DANMEN
  6
CONTINUOUS
 10
249.0
 20
210.0
 30
0.0
 40
1.0
 50
270.0
 51
0.0
  0
LINE
  5
1D125
  8
DANMEN
  6
CONTINUOUS
 10
249.150758
 20
214.0
 30
0.0
 11
247.0
 21
216.150758
 31
0.0
  0
LINE
  5
1D126
  8
DANMEN
  6
CONTINUOUS
 10
245.5
 20
213.0
 30
0.0
 11
248.800003
 21
213.0
 31
0.0
  0
LINE
  5
1D127
  8
DANMEN
  6
CONTINUOUS
 10
245.0
 20
214.0
 30
0.0
 11
249.5
 21
214.0
 31
0.0
  0
LINE
  5
1D128
  8
DANMEN
  6
CONTINUOUS
 10
247.029437
 20
214.0
 30
0.0
 11
247.0
 21
214.029437
 31
0.0
  0
ARC
  5
1D12A
  8
DANMEN
  6
CONTINUOUS
 10
245.5
 20
213.5
 30
0.0
 40
0.5
 50
180.0
 51
270.0
  0
LINE
  5
1D12C
  8
DANMEN
  6
CONTINUOUS
 10
245.0
 20
213.5
 30
0.0
 11
245.0
 21
214.0
 31
0.0
  0
LINE
  5
1D12D
  8
DANMEN
  6
CONTINUOUS
 10
250.241094
 20
215.513172
 30
0.0
 11
248.727922
 21
214.0
 31
0.0
  0
ARC
  5
1D12F
  8
DANMEN
  6
CONTINUOUS
 10
249.5
 20
213.5
 30
0.0
 40
0.5
 50
0.0
 51
90.0
  0
LINE
  5
1D132
  8
DANMEN
  6
CONTINUOUS
 10
248.8
 20
210.95
 30
0.0
 11
248.8
 21
213.0
 31
0.0
  0
LINE
  5
1D133
  8
DANMEN
  6
CONTINUOUS
 10
276.449994
 20
146.0
 30
0.0
 11
307.55
 21
146.0
 31
0.0
  0
LINE
  5
1D134
  8
DANMEN
  6
CONTINUOUS
 10
296.449994
 20
144.050003
 30
0.0
 11
302.55
 21
144.050003
 31
0.0
  0
LINE
  5
1D135
  8
DANMEN
  6
CONTINUOUS
 10
296.449994
 20
123.949997
 30
0.0
 11
307.55
 21
123.949997
 31
0.0
  0
LINE
  5
1D136
  8
DANMEN
  6
CONTINUOUS
 10
292.499997
 20
158.050003
 30
0.0
 11
307.55
 21
158.050003
 31
0.0
  0
LINE
  5
1D137
  8
DANMEN
  6
CONTINUOUS
 10
269.499997
 20
131.0
 30
0.0
 11
269.499997
 21
151.0
 31
0.0
  0
LINE
  5
1D138
  8
DANMEN
  6
CONTINUOUS
 10
274.499997
 20
146.0
 30
0.0
 11
274.499997
 21
151.0
 31
0.0
  0
LINE
  5
1D139
  8
DANMEN
  6
CONTINUOUS
 10
269.499997
 20
151.0
 30
0.0
 11
274.499997
 21
131.0
 31
0.0
  0
LINE
  5
1D13A
  8
DANMEN
  6
CONTINUOUS
 10
274.499997
 20
158.050003
 30
0.0
 11
274.499997
 21
146.0
 31
0.0
  0
LINE
  5
1D13B
  8
DANMEN
  6
CONTINUOUS
 10
276.449994
 20
158.050003
 30
0.0
 11
276.449994
 21
146.0
 31
0.0
  0
LINE
  5
1D13C
  8
DANMEN
  6
CONTINUOUS
 10
276.449994
 20
123.949997
 30
0.0
 11
295.449994
 21
123.949997
 31
0.0
  0
LINE
  5
1D13D
  8
DANMEN
  6
CONTINUOUS
 10
281.449994
 20
144.050003
 30
0.0
 11
295.449994
 21
144.050003
 31
0.0
  0
LINE
  5
1D13E
  8
DANMEN
  6
CONTINUOUS
 10
274.499997
 20
131.0
 30
0.0
 11
274.499997
 21
144.0
 31
0.0
  0
LINE
  5
1D13F
  8
DANMEN
  6
CONTINUOUS
 10
276.449994
 20
145.0
 30
0.0
 11
276.449994
 21
123.949997
 31
0.0
  0
LINE
  5
1D140
  8
DANMEN
  6
CONTINUOUS
 10
274.499997
 20
145.0
 30
0.0
 11
274.499997
 21
123.949997
 31
0.0
  0
LINE
  5
1D142
  8
DANMEN
  6
CONTINUOUS
 10
274.499997
 20
131.0
 30
0.0
 11
269.499997
 21
131.0
 31
0.0
  0
LINE
  5
1D147
  8
DANMEN
  6
CONTINUOUS
 10
274.499997
 20
146.0
 30
0.0
 11
271.999997
 21
146.0
 31
0.0
  0
LINE
  5
1D148
  8
DANMEN
  6
CONTINUOUS
 10
274.499997
 20
144.0
 30
0.0
 11
271.999997
 21
144.0
 31
0.0
  0
LINE
  5
1D149
  8
DANMEN
  6
CONTINUOUS
 10
271.999997
 20
144.0
 30
0.0
 11
271.999997
 21
146.0
 31
0.0
  0
LINE
  5
1D14E
  8
DANMEN
  6
CONTINUOUS
 10
272.499997
 20
145.5
 30
0.0
 11
272.499997
 21
144.550003
 31
0.0
  0
LINE
  5
1D14F
  8
DANMEN
  6
CONTINUOUS
 10
272.999997
 20
146.0
 30
0.0
 11
274.499997
 21
146.0
 31
0.0
  0
LINE
  5
1D150
  8
DANMEN
  6
CONTINUOUS
 10
272.999997
 20
144.050003
 30
0.0
 11
273.499997
 21
144.050003
 31
0.0
  0
LINE
  5
1D151
  8
DANMEN
  6
CONTINUOUS
 10
273.499997
 20
145.0
 30
0.0
 11
274.499997
 21
145.0
 31
0.0
  0
ARC
  5
1D155
  8
DANMEN
  6
CONTINUOUS
 10
272.999997
 20
145.5
 30
0.0
 40
0.5
 50
89.999982
 51
180.000019
  0
LINE
  5
1D156
  8
DANMEN
  6
CONTINUOUS
 10
273.499997
 20
145.0
 30
0.0
 11
273.499997
 21
144.050003
 31
0.0
  0
ARC
  5
1D158
  8
DANMEN
  6
CONTINUOUS
 10
272.999997
 20
144.550003
 30
0.0
 40
0.5
 50
180.000019
 51
270.000001
  0
LINE
  5
1D15B
  8
DANMEN
  6
CONTINUOUS
 10
276.449994
 20
145.0
 30
0.0
 11
281.449994
 21
145.0
 31
0.0
  0
LINE
  5
1D160
  8
DANMEN
  6
CONTINUOUS
 10
281.449994
 20
145.0
 30
0.0
 11
281.449994
 21
144.050003
 31
0.0
  0
LINE
  5
1D161
  8
DANMEN
  6
CONTINUOUS
 10
295.949994
 20
126.0
 30
0.0
 11
296.449994
 21
126.0
 31
0.0
  0
LINE
  5
1D162
  8
DANMEN
  6
CONTINUOUS
 10
295.449994
 20
125.5
 30
0.0
 11
295.449994
 21
123.949997
 31
0.0
  0
ARC
  5
1D165
  8
DANMEN
  6
CONTINUOUS
 10
295.949994
 20
125.5
 30
0.0
 40
0.5
 50
89.999982
 51
180.000019
  0
LINE
  5
1D166
  8
DANMEN
  6
CONTINUOUS
 10
296.449994
 20
126.0
 30
0.0
 11
296.449994
 21
123.949997
 31
0.0
  0
LINE
  5
1D169
  8
DANMEN
  6
CONTINUOUS
 10
295.949994
 20
142.0
 30
0.0
 11
296.449994
 21
142.0
 31
0.0
  0
LINE
  5
1D16A
  8
DANMEN
  6
CONTINUOUS
 10
295.449994
 20
144.050003
 30
0.0
 11
295.449994
 21
142.5
 31
0.0
  0
ARC
  5
1D16D
  8
DANMEN
  6
CONTINUOUS
 10
295.949994
 20
142.5
 30
0.0
 40
0.5
 50
180.000019
 51
270.000001
  0
LINE
  5
1D16E
  8
DANMEN
  6
CONTINUOUS
 10
296.449994
 20
144.050003
 30
0.0
 11
296.449994
 21
142.0
 31
0.0
  0
LINE
  5
1D171
  8
DANMEN
  6
CONTINUOUS
 10
276.449994
 20
158.050003
 30
0.0
 11
291.499997
 21
158.050003
 31
0.0
  0
LINE
  5
1D172
  8
DANMEN
  6
CONTINUOUS
 10
274.499997
 20
151.0
 30
0.0
 11
269.499997
 21
151.0
 31
0.0
  0
ARC
  5
1D177
  8
DANMEN
  6
CONTINUOUS
 10
291.999997
 20
157.0
 30
0.0
 40
0.5
 50
180.0
 51
0.0
  0
LINE
  5
1D179
  8
DANMEN
  6
CONTINUOUS
 10
291.499997
 20
158.050003
 30
0.0
 11
291.499997
 21
157.0
 31
0.0
  0
LINE
  5
1D17C
  8
DANMEN
  6
CONTINUOUS
 10
292.499997
 20
158.050003
 30
0.0
 11
292.499997
 21
157.0
 31
0.0
  0
LINE
  5
1D17E
  8
DANMEN
  6
CONTINUOUS
 10
307.55
 20
158.050003
 30
0.0
 11
307.55
 21
146.0
 31
0.0
  0
LINE
  5
1D17F
  8
DANMEN
  6
CONTINUOUS
 10
309.499997
 20
132.5
 30
0.0
 11
321.25
 21
132.5
 31
0.0
  0
LINE
  5
1D180
  8
DANMEN
  6
CONTINUOUS
 10
309.499997
 20
135.5
 30
0.0
 11
321.25
 21
135.5
 31
0.0
  0
LINE
  5
1D181
  8
DANMEN
  6
CONTINUOUS
 10
309.499997
 20
146.0
 30
0.0
 11
321.25
 21
146.0
 31
0.0
  0
LINE
  5
1D182
  8
DANMEN
  6
CONTINUOUS
 10
309.499997
 20
140.5
 30
0.0
 11
321.25
 21
140.5
 31
0.0
  0
LINE
  5
1D183
  8
DANMEN
  6
CONTINUOUS
 10
309.499997
 20
126.5
 30
0.0
 11
321.25
 21
126.5
 31
0.0
  0
LINE
  5
1D184
  8
DANMEN
  6
CONTINUOUS
 10
307.55
 20
145.0
 30
0.0
 11
307.55
 21
123.949997
 31
0.0
  0
LINE
  5
1D186
  8
DANMEN
  6
CONTINUOUS
 10
302.55
 20
145.0
 30
0.0
 11
307.55
 21
145.0
 31
0.0
  0
LINE
  5
1D189
  8
DANMEN
  6
CONTINUOUS
 10
302.55
 20
145.0
 30
0.0
 11
302.55
 21
144.050003
 31
0.0
  0
LINE
  5
1D18C
  8
DANMEN
  6
CONTINUOUS
 10
309.499997
 20
151.800003
 30
0.0
 11
321.25
 21
151.800003
 31
0.0
  0
LINE
  5
1D18D
  8
DANMEN
  6
CONTINUOUS
 10
309.499997
 20
154.800003
 30
0.0
 11
321.25
 21
154.800003
 31
0.0
  0
LINE
  5
1D18E
  8
DANMEN
  6
CONTINUOUS
 10
309.499997
 20
156.0
 30
0.0
 11
321.25
 21
156.0
 31
0.0
  0
ARC
  5
1D190
  8
DANMEN
  6
CONTINUOUS
 10
308.499997
 20
159.0
 30
0.0
 40
1.0
 50
0.0
 51
89.999982
  0
LINE
  5
1D193
  8
DANMEN
  6
CONTINUOUS
 10
229.0
 20
245.05
 30
0.0
 11
248.8
 21
245.05
 31
0.0
  0
LINE
  5
1D194
  8
DANMEN
  6
CONTINUOUS
 10
228.0
 20
247.0
 30
0.0
 11
249.0
 21
247.0
 31
0.0
  0
LINE
  5
1D195
  8
DANMEN
  6
CONTINUOUS
 10
227.0
 20
246.0
 30
0.0
 11
227.0
 21
233.0
 31
0.0
  0
LINE
  5
1D196
  8
DANMEN
  6
CONTINUOUS
 10
229.0
 20
245.050003
 30
0.0
 11
229.0
 21
233.0
 31
0.0
  0
LINE
  5
1D197
  8
DANMEN
  6
CONTINUOUS
 10
207.0
 20
243.0
 30
0.0
 11
207.0
 21
238.800003
 31
0.0
  0
LINE
  5
1D198
  8
DANMEN
  6
CONTINUOUS
 10
207.0
 20
238.800003
 30
0.0
 11
227.0
 21
238.800003
 31
0.0
  0
ARC
  5
1D199
  8
DANMEN
  6
CONTINUOUS
 10
230.5
 20
231.55
 30
0.0
 40
0.5
 50
270.0
 51
0.0
  0
ARC
  5
1D19A
  8
DANMEN
  6
CONTINUOUS
 10
230.5
 20
232.5
 30
0.0
 40
0.5
 50
0.0
 51
90.0
  0
LINE
  5
1D19E
  8
DANMEN
  6
CONTINUOUS
 10
230.0
 20
231.05
 30
0.0
 11
230.5
 21
231.05
 31
0.0
  0
LINE
  5
1D1A2
  8
DANMEN
  6
CONTINUOUS
 10
230.0
 20
232.0
 30
0.0
 11
230.0
 21
231.050003
 31
0.0
  0
LINE
  5
1D1A3
  8
DANMEN
  6
CONTINUOUS
 10
229.0
 20
232.0
 30
0.0
 11
230.0
 21
232.0
 31
0.0
  0
LINE
  5
1D1A4
  8
DANMEN
  6
CONTINUOUS
 10
229.0
 20
233.0
 30
0.0
 11
230.5
 21
233.0
 31
0.0
  0
LINE
  5
1D1A7
  8
DANMEN
  6
CONTINUOUS
 10
231.0
 20
232.5
 30
0.0
 11
231.0
 21
231.550003
 31
0.0
  0
LINE
  5
1D1A8
  8
DANMEN
  6
CONTINUOUS
 10
207.0
 20
241.800003
 30
0.0
 11
227.0
 21
241.800003
 31
0.0
  0
LINE
  5
1D1A9
  8
DANMEN
  6
CONTINUOUS
 10
207.0
 20
243.0
 30
0.0
 11
227.0
 21
243.0
 31
0.0
  0
ARC
  5
1D1AA
  8
DANMEN
  6
CONTINUOUS
 10
211.399994
 20
242.399994
 30
0.0
 40
0.6
 50
270.000018
 51
90.000037
  0
ARC
  5
1D1AE
  8
DANMEN
  6
CONTINUOUS
 10
228.0
 20
246.0
 30
0.0
 40
1.0
 50
90.0
 51
180.0
  0
LINE
  5
1D1AF
  8
DANMEN
  6
CONTINUOUS
 10
250.189523
 20
240.917445
 30
0.0
 11
247.0
 21
237.727922
 31
0.0
  0
LINE
  5
1D1B0
  8
DANMEN
  6
CONTINUOUS
 10
250.529708
 20
238.076893
 30
0.0
 11
247.0
 21
241.606602
 31
0.0
  0
LINE
  5
1D1B1
  8
DANMEN
  6
CONTINUOUS
 10
251.000003
 20
234.15
 30
0.0
 11
250.000003
 21
242.500005
 31
0.0
  0
LINE
  5
1D1B2
  8
DANMEN
  6
CONTINUOUS
 10
235.0
 20
222.35
 30
0.0
 11
255.0
 21
222.35
 31
0.0
  0
LINE
  5
1D1B3
  8
DANMEN
  6
CONTINUOUS
 10
235.0
 20
227.35
 30
0.0
 11
255.0
 21
227.35
 31
0.0
  0
LINE
  5
1D1B4
  8
DANMEN
  6
CONTINUOUS
 10
235.0
 20
233.65
 30
0.0
 11
255.0
 21
233.65
 31
0.0
  0
LINE
  5
1D1B5
  8
DANMEN
  6
CONTINUOUS
 10
235.0
 20
228.65
 30
0.0
 11
255.0
 21
228.65
 31
0.0
  0
LINE
  5
1D1B6
  8
DANMEN
  6
CONTINUOUS
 10
235.0
 20
221.85
 30
0.0
 11
255.0
 21
221.85
 31
0.0
  0
LINE
  5
1D1B7
  8
DANMEN
  6
CONTINUOUS
 10
235.0
 20
234.15
 30
0.0
 11
255.0
 21
234.15
 31
0.0
  0
LINE
  5
1D1B8
  8
DANMEN
  6
CONTINUOUS
 10
235.0
 20
227.85
 30
0.0
 11
255.0
 21
227.85
 31
0.0
  0
LINE
  5
1D1B9
  8
DANMEN
  6
CONTINUOUS
 10
235.0
 20
228.15
 30
0.0
 11
255.0
 21
228.15
 31
0.0
  0
LINE
  5
1D1BA
  8
DANMEN
  6
CONTINUOUS
 10
235.0
 20
234.15
 30
0.0
 11
235.0
 21
221.85
 31
0.0
  0
LINE
  5
1D1BB
  8
DANMEN
  6
CONTINUOUS
 10
248.092638
 20
221.849997
 30
0.0
 11
247.0
 21
220.757359
 31
0.0
  0
LINE
  5
1D1BC
  8
DANMEN
  6
CONTINUOUS
 10
250.213958
 20
221.849997
 30
0.0
 11
247.0
 21
218.636039
 31
0.0
  0
LINE
  5
1D1BD
  8
DANMEN
  6
CONTINUOUS
 10
250.818323
 20
220.333042
 30
0.0
 11
247.0
 21
216.514718
 31
0.0
  0
LINE
  5
1D1BE
  8
DANMEN
  6
CONTINUOUS
 10
250.416402
 20
216.976996
 30
0.0
 11
247.0
 21
220.393399
 31
0.0
  0
LINE
  5
1D1BF
  8
DANMEN
  6
CONTINUOUS
 10
250.87016
 20
220.765879
 30
0.0
 11
249.786042
 21
221.849997
 31
0.0
  0
LINE
  5
1D1C0
  8
DANMEN
  6
CONTINUOUS
 10
250.643281
 20
218.871438
 30
0.0
 11
247.664722
 21
221.849997
 31
0.0
  0
LINE
  5
1D1C3
  8
DANMEN
  6
CONTINUOUS
 10
250.416402
 20
239.023004
 30
0.0
 11
247.0
 21
235.606602
 31
0.0
  0
LINE
  5
1D1C4
  8
DANMEN
  6
CONTINUOUS
 10
250.818323
 20
235.666959
 30
0.0
 11
247.0
 21
239.485281
 31
0.0
  0
LINE
  5
1D1C5
  8
DANMEN
  6
CONTINUOUS
 10
250.213965
 20
234.149996
 30
0.0
 11
247.0
 21
237.363961
 31
0.0
  0
LINE
  5
1D1C6
  8
DANMEN
  6
CONTINUOUS
 10
248.092645
 20
234.149996
 30
0.0
 11
247.0
 21
235.242641
 31
0.0
  0
LINE
  5
1D1C7
  8
DANMEN
  6
CONTINUOUS
 10
250.643281
 20
237.128562
 30
0.0
 11
247.664714
 21
234.149996
 31
0.0
  0
LINE
  5
1D1C8
  8
DANMEN
  6
CONTINUOUS
 10
250.87016
 20
235.234121
 30
0.0
 11
249.786035
 21
234.149996
 31
0.0
  0
LINE
  5
1D1CA
  8
DANMEN
  6
CONTINUOUS
 10
255.0
 20
242.000003
 30
0.0
 11
250.076926
 21
242.000003
 31
0.0
  0
LINE
  5
1D1CB
  8
DANMEN
  6
CONTINUOUS
 10
250.0
 20
244.800003
 30
0.0
 11
255.0
 21
244.800003
 31
0.0
  0
LINE
  5
1D1CC
  8
DANMEN
  6
CONTINUOUS
 10
249.0
 20
247.0
 30
0.0
 11
255.0
 21
247.0
 31
0.0
  0
LINE
  5
1D1CD
  8
DANMEN
  6
CONTINUOUS
 10
250.0
 20
246.0
 30
0.0
 11
250.0
 21
242.5
 31
0.0
  0
LINE
  5
1D1CE
  8
DANMEN
  6
CONTINUOUS
 10
249.150758
 20
242.0
 30
0.0
 11
247.0
 21
239.849242
 31
0.0
  0
LINE
  5
1D1CF
  8
DANMEN
  6
CONTINUOUS
 10
245.5
 20
243.0
 30
0.0
 11
248.8
 21
243.0
 31
0.0
  0
LINE
  5
1D1D0
  8
DANMEN
  6
CONTINUOUS
 10
245.0
 20
242.0
 30
0.0
 11
249.5
 21
242.0
 31
0.0
  0
LINE
  5
1D1D1
  8
DANMEN
  6
CONTINUOUS
 10
247.029437
 20
242.0
 30
0.0
 11
247.0
 21
241.970563
 31
0.0
  0
ARC
  5
1D1D3
  8
DANMEN
  6
CONTINUOUS
 10
245.5
 20
242.5
 30
0.0
 40
0.5
 50
90.0
 51
180.0
  0
LINE
  5
1D1D5
  8
DANMEN
  6
CONTINUOUS
 10
245.0
 20
242.5
 30
0.0
 11
245.0
 21
242.0
 31
0.0
  0
LINE
  5
1D1D6
  8
DANMEN
  6
CONTINUOUS
 10
250.241094
 20
240.486828
 30
0.0
 11
248.727922
 21
242.0
 31
0.0
  0
LINE
  5
1D1D9
  8
DANMEN
  6
CONTINUOUS
 10
248.8
 20
245.05
 30
0.0
 11
248.8
 21
243.0
 31
0.0
  0
ARC
  5
1D1DB
  8
DANMEN
  6
CONTINUOUS
 10
249.5
 20
242.5
 30
0.0
 40
0.5
 50
270.0
 51
0.0
  0
ARC
  5
1D1DE
  8
DANMEN
  6
CONTINUOUS
 10
249.0
 20
246.0
 30
0.0
 40
1.0
 50
0.0
 51
90.0
  0
LINE
  5
1D1DF
  8
SUNPO
  6
CONTINUOUS
 10
21.0
 20
176.0
 30
0.0
 11
21.0
 21
226.0
 31
0.0
  0
LINE
  5
1D1E0
  8
DANMEN
  6
CONTINUOUS
 10
401.5
 20
153.0
 30
0.0
 11
377.5
 21
153.0
 31
0.0
  0
LINE
  5
1D1E1
  8
DANMEN
  6
CONTINUOUS
 10
400.350006
 20
151.350006
 30
0.0
 11
393.649994
 21
151.350006
 31
0.0
  0
LINE
  5
1D1E2
  8
DANMEN
  6
CONTINUOUS
 10
377.0
 20
153.0
 30
0.0
 11
357.0
 21
153.0
 31
0.0
  0
LINE
  5
1D1E3
  8
DANMEN
  6
CONTINUOUS
 10
357.0
 20
156.000003
 30
0.0
 11
357.0
 21
151.800003
 31
0.0
  0
LINE
  5
1D1E5
  8
DANMEN
  6
CONTINUOUS
 10
352.600006
 20
154.800003
 30
0.0
 11
357.0
 21
154.800003
 31
0.0
  0
LINE
  5
1D1E6
  8
DANMEN
  6
CONTINUOUS
 10
352.600006
 20
156.000003
 30
0.0
 11
357.0
 21
156.000003
 31
0.0
  0
ARC
  5
1D1EB
  8
DANMEN
  6
CONTINUOUS
 10
352.600006
 20
155.399994
 30
0.0
 40
0.6
 50
89.999963
 51
269.999982
  0
LINE
  5
1D1EC
  8
DANMEN
  6
CONTINUOUS
 10
390.0
 20
151.350006
 30
0.0
 11
377.5
 21
151.350006
 31
0.0
  0
ARC
  5
1D1ED
  8
DANMEN
  6
CONTINUOUS
 10
377.5
 20
152.5
 30
0.0
 40
0.5
 50
90.000037
 51
180.000019
  0
ARC
  5
1D1EE
  8
DANMEN
  6
CONTINUOUS
 10
377.5
 20
151.850006
 30
0.0
 40
0.5
 50
180.0
 51
270.0
  0
LINE
  5
1D1EF
  8
DANMEN
  6
CONTINUOUS
 10
377.0
 20
152.5
 30
0.0
 11
377.0
 21
151.850006
 31
0.0
  0
LINE
  5
1D1F1
  8
DANMEN
  6
CONTINUOUS
 10
392.0
 20
151.800003
 30
0.0
 11
390.0
 21
151.800003
 31
0.0
  0
LINE
  5
1D1F2
  8
DANMEN
  6
CONTINUOUS
 10
390.0
 20
151.800003
 30
0.0
 11
390.0
 21
151.350006
 31
0.0
  0
TEXT
  5
1D1F7
  8
SUNPO
  6
CONTINUOUS
 10
56.178385
 20
169.5
 30
0.0
 40
2.5
  1
38
  7
MX_NOTE_STANDARD
  0
LINE
  5
1D1F8
  8
SUNPO
  6
CONTINUOUS
 10
33.5
 20
166.0
 30
0.0
 11
21.0
 21
166.0
 31
0.0
  0
ARC
  5
1D1F9
  8
DANMEN
  6
CONTINUOUS
 10
401.5
 20
152.5
 30
0.0
 40
0.5
 50
0.0
 51
89.999982
  0
LINE
  5
1D1FA
  8
DANMEN
  6
CONTINUOUS
 10
402.0
 20
152.5
 30
0.0
 11
402.0
 21
147.5
 31
0.0
  0
LINE
  5
1D1FB
  8
DANMEN
  6
CONTINUOUS
 10
401.5
 20
147.0
 30
0.0
 11
400.850006
 21
147.0
 31
0.0
  0
LINE
  5
1D1FC
  8
DANMEN
  6
CONTINUOUS
 10
400.350006
 20
151.350006
 30
0.0
 11
400.350006
 21
147.5
 31
0.0
  0
ARC
  5
1D1FD
  8
DANMEN
  6
CONTINUOUS
 10
401.5
 20
147.5
 30
0.0
 40
0.5
 50
270.000018
 51
359.999981
  0
ARC
  5
1D1FE
  8
DANMEN
  6
CONTINUOUS
 10
400.850006
 20
147.5
 30
0.0
 40
0.5
 50
180.000019
 51
270.000001
  0
ARC
  5
1D203
  8
SUNPO
  6
BYBLOCK
 10
21.0
 20
166.0
 30
0.0
 40
0.145
 50
90.0
 51
270.0
  0
ARC
  5
1D204
  8
SUNPO
  6
BYBLOCK
 10
21.0
 20
166.0
 30
0.0
 40
0.145
 50
270.0
 51
90.0
  0
ARC
  5
1D205
  8
SUNPO
  6
BYBLOCK
 10
35.0
 20
168.5
 30
0.0
 40
0.145
 50
180.0
 51
0.0
  0
ARC
  5
1D206
  8
SUNPO
  6
BYBLOCK
 10
35.0
 20
168.5
 30
0.0
 40
0.145
 50
0.0
 51
180.0
  0
LINE
  5
1D207
  8
SUNPO
  6
CONTINUOUS
 10
35.0
 20
182.428279
 30
0.0
 11
29.013333
 21
182.428279
 31
0.0
  0
LINE
  5
1D208
  8
SUNPO
  6
CONTINUOUS
 10
33.5
 20
176.0
 30
0.0
 11
21.0
 21
176.0
 31
0.0
  0
ARC
  5
1D209
  8
SUNPO
  6
BYBLOCK
 10
21.0
 20
176.0
 30
0.0
 40
0.145
 50
270.0
 51
90.0
  0
ARC
  5
1D20A
  8
SUNPO
  6
BYBLOCK
 10
21.0
 20
176.0
 30
0.0
 40
0.145
 50
90.0
 51
270.0
  0
TEXT
  5
1D20B
  8
SUNPO
  6
CONTINUOUS
 10
30.013333
 20
183.428279
 30
0.0
 40
2.5
  1
7
  7
MX_NOTE_STANDARD
  0
TEXT
  5
1D20C
  8
SUNPO
  6
CONTINUOUS
 10
20.0
 20
199.125
 30
0.0
 40
2.5
  1
50
 50
90.0
  7
MX_NOTE_STANDARD
  0
LINE
  5
1D20D
  8
SUNPO
  6
CONTINUOUS
 10
42.0
 20
182.428279
 30
0.0
 11
35.0
 21
182.428279
 31
0.0
  0
ARC
  5
1D20E
  8
SUNPO
  6
BYBLOCK
 10
35.0
 20
182.428279
 30
0.0
 40
0.145
 50
180.0
 51
0.0
  0
ARC
  5
1D20F
  8
SUNPO
  6
BYBLOCK
 10
35.0
 20
182.428279
 30
0.0
 40
0.145
 50
0.0
 51
180.0
  0
LINE
  5
1D210
  8
SUNPO
  6
CONTINUOUS
 10
42.0
 20
192.550003
 30
0.0
 11
42.0
 21
182.428279
 31
0.0
  0
ARC
  5
1D211
  8
SUNPO
  6
BYBLOCK
 10
42.0
 20
182.428279
 30
0.0
 40
0.145
 50
0.0
 51
180.0
  0
ARC
  5
1D212
  8
SUNPO
  6
BYBLOCK
 10
42.0
 20
182.428279
 30
0.0
 40
0.145
 50
180.0
 51
0.0
  0
ARC
  5
1D213
  8
SUNPO
  6
BYBLOCK
 10
42.0
 20
182.428279
 30
0.0
 40
0.145
 50
180.0
 51
0.0
  0
ARC
  5
1D214
  8
SUNPO
  6
BYBLOCK
 10
42.0
 20
182.428279
 30
0.0
 40
0.145
 50
0.0
 51
180.0
  0
LINE
  5
1D215
  8
SUNPO
  6
CONTINUOUS
 10
40.5
 20
261.0
 30
0.0
 11
21.0
 21
261.0
 31
0.0
  0
LINE
  5
1D216
  8
SUNPO
  6
CONTINUOUS
 10
40.5
 20
226.0
 30
0.0
 11
21.0
 21
226.0
 31
0.0
  0
LINE
  5
1D217
  8
SUNPO
  6
CONTINUOUS
 10
21.0
 20
226.0
 30
0.0
 11
21.0
 21
261.0
 31
0.0
  0
ARC
  5
1D218
  8
SUNPO
  6
BYBLOCK
 10
21.0
 20
226.0
 30
0.0
 40
0.145
 50
270.0
 51
90.0
  0
ARC
  5
1D219
  8
SUNPO
  6
BYBLOCK
 10
21.0
 20
226.0
 30
0.0
 40
0.145
 50
90.0
 51
270.0
  0
ARC
  5
1D21A
  8
SUNPO
  6
BYBLOCK
 10
21.0
 20
226.0
 30
0.0
 40
0.145
 50
90.0
 51
270.0
  0
ARC
  5
1D21B
  8
SUNPO
  6
BYBLOCK
 10
21.0
 20
226.0
 30
0.0
 40
0.145
 50
270.0
 51
90.0
  0
TEXT
  5
1D21C
  8
SUNPO
  6
CONTINUOUS
 10
20.0
 20
241.416667
 30
0.0
 40
2.5
  1
35
 50
90.0
  7
MX_NOTE_STANDARD
  0
ARC
  5
1D21D
  8
SUNPO
  6
BYBLOCK
 10
21.0
 20
261.0
 30
0.0
 40
0.145
 50
90.0
 51
270.0
  0
ARC
  5
1D21E
  8
SUNPO
  6
BYBLOCK
 10
21.0
 20
261.0
 30
0.0
 40
0.145
 50
270.0
 51
90.0
  0
LINE
  5
1D21F
  8
SUNPO
  6
CONTINUOUS
 10
175.0
 20
250.751008
 30
0.0
 11
250.0
 21
250.751008
 31
0.0
  0
LINE
  5
1D220
  8
SUNPO
  6
CONTINUOUS
 10
175.0
 20
162.527474
 30
0.0
 11
232.0
 21
162.527474
 31
0.0
  0
LINE
  5
1D221
  8
SUNPO
  6
CONTINUOUS
 10
144.685645
 20
226.0
 30
0.0
 11
144.685645
 21
176.0
 31
0.0
  0
LINE
  5
1D222
  8
SUNPO
  6
CONTINUOUS
 10
136.221192
 20
226.0
 30
0.0
 11
136.221192
 21
187.999997
 31
0.0
  0
LINE
  5
1D223
  8
SUNPO
  6
CONTINUOUS
 10
156.0
 20
226.0
 30
0.0
 11
156.0
 21
171.0
 31
0.0
  0
LINE
  5
1D224
  8
SUNPO
  6
CONTINUOUS
 10
120.499999
 20
166.0
 30
0.0
 11
144.685645
 21
166.0
 31
0.0
  0
LINE
  5
1D225
  8
SUNPO
  6
CONTINUOUS
 10
120.499999
 20
176.0
 30
0.0
 11
144.685645
 21
176.0
 31
0.0
  0
LINE
  5
1D226
  8
SUNPO
  6
CONTINUOUS
 10
120.5
 20
187.999997
 30
0.0
 11
136.221192
 21
187.999997
 31
0.0
  0
LINE
  5
1D227
  8
SUNPO
  6
CONTINUOUS
 10
120.499999
 20
134.000003
 30
0.0
 11
144.685645
 21
134.000003
 31
0.0
  0
LINE
  5
1D228
  8
SUNPO
  6
CONTINUOUS
 10
120.5
 20
134.000003
 30
0.0
 11
136.221192
 21
134.000003
 31
0.0
  0
TEXT
  5
1D229
  8
SUNPO
  6
CONTINUOUS
 10
76.166667
 20
169.5
 30
0.0
 40
2.5
  1
8
  7
MX_NOTE_STANDARD
  0
TEXT
  5
1D22A
  8
SUNPO
  6
CONTINUOUS
 10
97.916667
 20
169.5
 30
0.0
 40
2.5
  1
38
  7
MX_NOTE_STANDARD
  0
LINE
  5
1D22B
  8
SUNPO
  6
CONTINUOUS
 10
119.0
 20
168.5
 30
0.0
 11
81.0
 21
168.5
 31
0.0
  0
ARC
  5
1D22C
  8
SUNPO
  6
BYBLOCK
 10
81.0
 20
168.5
 30
0.0
 40
0.145
 50
180.0
 51
0.0
  0
ARC
  5
1D22D
  8
SUNPO
  6
BYBLOCK
 10
81.0
 20
168.5
 30
0.0
 40
0.145
 50
0.0
 51
180.0
  0
ARC
  5
1D22E
  8
SUNPO
  6
BYBLOCK
 10
81.0
 20
168.5
 30
0.0
 40
0.145
 50
0.0
 51
180.0
  0
ARC
  5
1D22F
  8
SUNPO
  6
BYBLOCK
 10
81.0
 20
168.5
 30
0.0
 40
0.145
 50
180.0
 51
0.0
  0
LINE
  5
1D230
  8
SUNPO
  6
CONTINUOUS
 10
81.0
 20
168.5
 30
0.0
 11
73.0
 21
168.5
 31
0.0
  0
ARC
  5
1D231
  8
SUNPO
  6
BYBLOCK
 10
73.0
 20
168.5
 30
0.0
 40
0.145
 50
180.0
 51
0.0
  0
ARC
  5
1D232
  8
SUNPO
  6
BYBLOCK
 10
73.0
 20
168.5
 30
0.0
 40
0.145
 50
0.0
 51
180.0
  0
ARC
  5
1D233
  8
SUNPO
  6
BYBLOCK
 10
73.0
 20
168.5
 30
0.0
 40
0.145
 50
0.0
 51
180.0
  0
ARC
  5
1D234
  8
SUNPO
  6
BYBLOCK
 10
73.0
 20
168.5
 30
0.0
 40
0.145
 50
180.0
 51
0.0
  0
ARC
  5
1D235
  8
SUNPO
  6
BYBLOCK
 10
119.0
 20
168.5
 30
0.0
 40
0.145
 50
0.0
 51
180.0
  0
ARC
  5
1D236
  8
SUNPO
  6
BYBLOCK
 10
119.0
 20
168.5
 30
0.0
 40
0.145
 50
180.0
 51
0.0
  0
TEXT
  5
1D237
  8
SUNPO
  6
CONTINUOUS
 10
76.807449
 20
183.428279
 30
0.0
 40
2.5
  1
70
  7
MX_NOTE_STANDARD
  0
LINE
  5
1D238
  8
SUNPO
  6
CONTINUOUS
 10
112.0
 20
207.849997
 30
0.0
 11
112.0
 21
182.428279
 31
0.0
  0
LINE
  5
1D239
  8
SUNPO
  6
CONTINUOUS
 10
119.0
 20
182.428279
 30
0.0
 11
112.0
 21
182.428279
 31
0.0
  0
ARC
  5
1D23A
  8
SUNPO
  6
BYBLOCK
 10
112.0
 20
182.428279
 30
0.0
 40
0.145
 50
180.0
 51
0.0
  0
ARC
  5
1D23B
  8
SUNPO
  6
BYBLOCK
 10
112.0
 20
182.428279
 30
0.0
 40
0.145
 50
0.0
 51
180.0
  0
ARC
  5
1D23C
  8
SUNPO
  6
BYBLOCK
 10
112.0
 20
182.428279
 30
0.0
 40
0.145
 50
0.0
 51
180.0
  0
ARC
  5
1D23D
  8
SUNPO
  6
BYBLOCK
 10
112.0
 20
182.428279
 30
0.0
 40
0.145
 50
180.0
 51
0.0
  0
LINE
  5
1D23E
  8
SUNPO
  6
CONTINUOUS
 10
112.0
 20
186.0
 30
0.0
 11
112.0
 21
182.428279
 31
0.0
  0
LINE
  5
1D23F
  8
SUNPO
  6
CONTINUOUS
 10
119.0
 20
181.5
 30
0.0
 11
119.0
 21
182.428279
 31
0.0
  0
TEXT
  5
1D240
  8
SUNPO
  6
CONTINUOUS
 10
114.666667
 20
183.428279
 30
0.0
 40
2.5
  1
7
  7
MX_NOTE_STANDARD
  0
ARC
  5
1D241
  8
SUNPO
  6
BYBLOCK
 10
119.0
 20
182.428279
 30
0.0
 40
0.145
 50
0.0
 51
180.0
  0
ARC
  5
1D242
  8
SUNPO
  6
BYBLOCK
 10
119.0
 20
182.428279
 30
0.0
 40
0.145
 50
180.0
 51
0.0
  0
LINE
  5
1D243
  8
SUNPO
  6
CONTINUOUS
 10
144.685645
 20
166.0
 30
0.0
 11
144.685645
 21
134.000003
 31
0.0
  0
ARC
  5
1D244
  8
SUNPO
  6
BYBLOCK
 10
136.221192
 20
134.000003
 30
0.0
 40
0.145
 50
90.0
 51
270.0
  0
ARC
  5
1D245
  8
SUNPO
  6
BYBLOCK
 10
136.221192
 20
134.000003
 30
0.0
 40
0.145
 50
270.0
 51
90.0
  0
ARC
  5
1D246
  8
SUNPO
  6
BYBLOCK
 10
144.685645
 20
134.000003
 30
0.0
 40
0.145
 50
270.0
 51
90.0
  0
ARC
  5
1D247
  8
SUNPO
  6
BYBLOCK
 10
144.685645
 20
134.000003
 30
0.0
 40
0.145
 50
90.0
 51
270.0
  0
ARC
  5
1D248
  8
SUNPO
  6
BYBLOCK
 10
144.685645
 20
134.000003
 30
0.0
 40
0.145
 50
90.0
 51
270.0
  0
ARC
  5
1D249
  8
SUNPO
  6
BYBLOCK
 10
144.685645
 20
134.000003
 30
0.0
 40
0.145
 50
270.0
 51
90.0
  0
TEXT
  5
1D24A
  8
SUNPO
  6
CONTINUOUS
 10
143.685645
 20
147.916669
 30
0.0
 40
2.5
  1
32
 50
90.0
  7
MX_NOTE_STANDARD
  0
ARC
  5
1D24B
  8
SUNPO
  6
BYBLOCK
 10
144.685645
 20
166.0
 30
0.0
 40
0.145
 50
90.0
 51
270.0
  0
ARC
  5
1D24C
  8
SUNPO
  6
BYBLOCK
 10
144.685645
 20
166.0
 30
0.0
 40
0.145
 50
270.0
 51
90.0
  0
LINE
  5
1D24D
  8
SUNPO
  6
CONTINUOUS
 10
152.0
 20
161.653991
 30
0.0
 11
152.0
 21
157.920944
 31
0.0
  0
LINE
  5
1D24E
  8
SUNPO
  6
CONTINUOUS
 10
156.0
 20
159.641045
 30
0.0
 11
156.0
 21
154.141045
 31
0.0
  0
LINE
  5
1D24F
  8
SUNPO
  6
CONTINUOUS
 10
160.0
 20
161.653991
 30
0.0
 11
160.0
 21
157.920944
 31
0.0
  0
LINE
  5
1D250
  8
SUNPO
  6
CONTINUOUS
 10
152.0
 20
154.141045
 30
0.0
 11
160.0
 21
154.141045
 31
0.0
  0
LINE
  5
1D251
  8
SUNPO
  6
CONTINUOUS
 10
152.0
 20
152.141045
 30
0.0
 11
160.0
 21
152.141045
 31
0.0
  0
LINE
  5
1D252
  8
SUNPO
  6
CONTINUOUS
 10
152.0
 20
155.541039
 30
0.0
 11
152.0
 21
150.343696
 31
0.0
  0
LINE
  5
1D253
  8
SUNPO
  6
CONTINUOUS
 10
160.0
 20
155.541039
 30
0.0
 11
160.0
 21
150.343696
 31
0.0
  0
LINE
  5
1D254
  8
SUNPO
  6
CONTINUOUS
 10
152.0
 20
159.641045
 30
0.0
 11
160.0
 21
159.641045
 31
0.0
  0
LINE
  5
1D255
  8
SUNPO
  6
CONTINUOUS
 10
154.799927
 20
167.656304
 30
0.0
 11
154.799927
 21
162.867761
 31
0.0
  0
LINE
  5
1D256
  8
SUNPO
  6
CONTINUOUS
 10
157.199921
 20
167.656304
 30
0.0
 11
157.199921
 21
162.867761
 31
0.0
  0
LINE
  5
1D258
  8
SUNPO
  6
CONTINUOUS
 10
175.0
 20
154.5
 30
0.0
 11
175.0
 21
162.527474
 31
0.0
  0
LINE
  5
1D259
  8
SUNPO
  6
CONTINUOUS
 10
172.0
 20
154.5
 30
0.0
 11
172.0
 21
162.527474
 31
0.0
  0
TEXT
  5
1D25A
  8
SUNPO
  6
CONTINUOUS
 10
172.666667
 20
163.527474
 30
0.0
 40
2.5
  1
3
  7
MX_NOTE_STANDARD
  0
ARC
  5
1D25B
  8
SUNPO
  6
BYBLOCK
 10
172.0
 20
162.527474
 30
0.0
 40
0.145
 50
180.0
 51
0.0
  0
ARC
  5
1D25C
  8
SUNPO
  6
BYBLOCK
 10
172.0
 20
162.527474
 30
0.0
 40
0.145
 50
0.0
 51
180.0
  0
ARC
  5
1D25D
  8
SUNPO
  6
BYBLOCK
 10
175.0
 20
162.527474
 30
0.0
 40
0.145
 50
0.0
 51
180.0
  0
ARC
  5
1D25E
  8
SUNPO
  6
BYBLOCK
 10
175.0
 20
162.527474
 30
0.0
 40
0.145
 50
180.0
 51
0.0
  0
ARC
  5
1D25F
  8
SUNPO
  6
BYBLOCK
 10
175.0
 20
162.527474
 30
0.0
 40
0.145
 50
180.0
 51
0.0
  0
ARC
  5
1D260
  8
SUNPO
  6
BYBLOCK
 10
175.0
 20
162.527474
 30
0.0
 40
0.145
 50
0.0
 51
180.0
  0
LINE
  5
1D261
  8
SUNPO
  6
CONTINUOUS
 10
172.0
 20
162.527474
 30
0.0
 11
175.0
 21
162.527474
 31
0.0
  0
ARC
  5
1D262
  8
SUNPO
  6
BYBLOCK
 10
144.685645
 20
176.0
 30
0.0
 40
0.145
 50
270.0
 51
90.0
  0
ARC
  5
1D263
  8
SUNPO
  6
BYBLOCK
 10
144.685645
 20
176.0
 30
0.0
 40
0.145
 50
90.0
 51
270.0
  0
ARC
  5
1D264
  8
SUNPO
  6
BYBLOCK
 10
136.221192
 20
187.999997
 30
0.0
 40
0.145
 50
270.0
 51
90.0
  0
ARC
  5
1D265
  8
SUNPO
  6
BYBLOCK
 10
136.221192
 20
187.999997
 30
0.0
 40
0.145
 50
90.0
 51
270.0
  0
TEXT
  5
1D266
  8
SUNPO
  6
CONTINUOUS
 10
143.685645
 20
199.125
 30
0.0
 40
2.5
  1
50
 50
90.0
  7
MX_NOTE_STANDARD
  0
TEXT
  5
1D267
  8
SUNPO
  6
CONTINUOUS
 10
135.221192
 20
204.916665
 30
0.0
 40
2.5
  1
38
 50
90.0
  7
MX_NOTE_STANDARD
  0
LINE
  5
1D268
  8
SUNPO
  6
CONTINUOUS
 10
113.5
 20
226.0
 30
0.0
 11
156.0
 21
226.0
 31
0.0
  0
LINE
  5
1D269
  8
SUNPO
  6
CONTINUOUS
 10
113.5
 20
261.0
 30
0.0
 11
156.0
 21
261.0
 31
0.0
  0
LINE
  5
1D26A
  8
SUNPO
  6
CONTINUOUS
 10
156.0
 20
261.0
 30
0.0
 11
156.0
 21
226.0
 31
0.0
  0
ARC
  5
1D26B
  8
SUNPO
  6
BYBLOCK
 10
136.221192
 20
226.0
 30
0.0
 40
0.145
 50
90.0
 51
270.0
  0
ARC
  5
1D26C
  8
SUNPO
  6
BYBLOCK
 10
136.221192
 20
226.0
 30
0.0
 40
0.145
 50
270.0
 51
90.0
  0
ARC
  5
1D26D
  8
SUNPO
  6
BYBLOCK
 10
144.685645
 20
226.0
 30
0.0
 40
0.145
 50
90.0
 51
270.0
  0
ARC
  5
1D26E
  8
SUNPO
  6
BYBLOCK
 10
144.685645
 20
226.0
 30
0.0
 40
0.145
 50
270.0
 51
90.0
  0
LINE
  5
1D26F
  8
SUNPO
  6
CONTINUOUS
 10
161.0
 20
221.0
 30
0.0
 11
151.0
 21
221.0
 31
0.0
  0
LINE
  5
1D270
  8
SUNPO
  6
CONTINUOUS
 10
151.0
 20
221.0
 30
0.0
 11
156.0
 21
226.0
 31
0.0
  0
LINE
  5
1D272
  8
SUNPO
  6
CONTINUOUS
 10
156.0
 20
226.0
 30
0.0
 11
161.0
 21
221.0
 31
0.0
  0
TEXT
  5
1D275
  8
SUNPO
  6
CONTINUOUS
 10
155.0
 20
241.416667
 30
0.0
 40
2.5
  1
35
 50
90.0
  7
MX_NOTE_STANDARD
  0
ARC
  5
1D276
  8
SUNPO
  6
BYBLOCK
 10
156.0
 20
261.0
 30
0.0
 40
0.145
 50
90.0
 51
270.0
  0
ARC
  5
1D277
  8
SUNPO
  6
BYBLOCK
 10
156.0
 20
261.0
 30
0.0
 40
0.145
 50
270.0
 51
90.0
  0
LINE
  5
1D278
  8
SUNPO
  6
CONTINUOUS
 10
172.0
 20
241.5
 30
0.0
 11
172.0
 21
250.751008
 31
0.0
  0
LINE
  5
1D279
  8
SUNPO
  6
CONTINUOUS
 10
175.0
 20
241.5
 30
0.0
 11
175.0
 21
250.751008
 31
0.0
  0
ARC
  5
1D27A
  8
SUNPO
  6
BYBLOCK
 10
172.0
 20
250.751008
 30
0.0
 40
0.145
 50
180.0
 51
0.0
  0
ARC
  5
1D27B
  8
SUNPO
  6
BYBLOCK
 10
172.0
 20
250.751008
 30
0.0
 40
0.145
 50
0.0
 51
180.0
  0
ARC
  5
1D27C
  8
SUNPO
  6
BYBLOCK
 10
175.0
 20
250.751008
 30
0.0
 40
0.145
 50
0.0
 51
180.0
  0
ARC
  5
1D27D
  8
SUNPO
  6
BYBLOCK
 10
175.0
 20
250.751008
 30
0.0
 40
0.145
 50
180.0
 51
0.0
  0
ARC
  5
1D27E
  8
SUNPO
  6
BYBLOCK
 10
175.0
 20
250.751008
 30
0.0
 40
0.145
 50
180.0
 51
0.0
  0
ARC
  5
1D27F
  8
SUNPO
  6
BYBLOCK
 10
175.0
 20
250.751008
 30
0.0
 40
0.145
 50
0.0
 51
180.0
  0
LINE
  5
1D280
  8
SUNPO
  6
CONTINUOUS
 10
172.0
 20
250.751008
 30
0.0
 11
175.0
 21
250.751008
 31
0.0
  0
TEXT
  5
1D281
  8
SUNPO
  6
CONTINUOUS
 10
172.666667
 20
251.751008
 30
0.0
 40
2.5
  1
3
  7
MX_NOTE_STANDARD
  0
LINE
  5
1D282
  8
SUNPO
  6
CONTINUOUS
 10
212.499998
 20
153.0
 30
0.0
 11
244.793737
 21
153.0
 31
0.0
  0
TEXT
  5
1D283
  8
SUNPO
  6
CONTINUOUS
 10
201.416667
 20
163.527474
 30
0.0
 40
2.5
  1
57
  7
MX_NOTE_STANDARD
  0
LINE
  5
1D284
  8
SUNPO
  6
CONTINUOUS
 10
244.793737
 20
160.0
 30
0.0
 11
244.793737
 21
153.0
 31
0.0
  0
ARC
  5
1D285
  8
SUNPO
  6
BYBLOCK
 10
244.793737
 20
153.0
 30
0.0
 40
0.145
 50
270.0
 51
90.0
  0
ARC
  5
1D286
  8
SUNPO
  6
BYBLOCK
 10
244.793737
 20
153.0
 30
0.0
 40
0.145
 50
90.0
 51
270.0
  0
ARC
  5
1D287
  8
SUNPO
  6
BYBLOCK
 10
244.793737
 20
153.0
 30
0.0
 40
0.145
 50
90.0
 51
270.0
  0
ARC
  5
1D288
  8
SUNPO
  6
BYBLOCK
 10
244.793737
 20
153.0
 30
0.0
 40
0.145
 50
270.0
 51
90.0
  0
TEXT
  5
1D289
  8
SUNPO
  6
CONTINUOUS
 10
243.793737
 20
155.666667
 30
0.0
 40
2.5
  1
7
 50
90.0
  7
MX_NOTE_STANDARD
  0
ARC
  5
1D28A
  8
SUNPO
  6
BYBLOCK
 10
232.0
 20
162.527474
 30
0.0
 40
0.145
 50
0.0
 51
180.0
  0
ARC
  5
1D28B
  8
SUNPO
  6
BYBLOCK
 10
232.0
 20
162.527474
 30
0.0
 40
0.145
 50
180.0
 51
0.0
  0
LINE
  5
1D28C
  8
SUNPO
  6
CONTINUOUS
 10
232.0
 20
161.5
 30
0.0
 11
232.0
 21
162.527474
 31
0.0
  0
ARC
  5
1D28D
  8
SUNPO
  6
BYBLOCK
 10
244.793737
 20
160.0
 30
0.0
 40
0.145
 50
90.0
 51
270.0
  0
ARC
  5
1D28E
  8
SUNPO
  6
BYBLOCK
 10
244.793737
 20
160.0
 30
0.0
 40
0.145
 50
270.0
 51
90.0
  0
TEXT
  5
1D28F
  8
SUNPO
  6
CONTINUOUS
 10
323.468739
 20
138.916667
 30
0.0
 40
2.5
  1
38
 50
90.0
  7
MX_NOTE_STANDARD
  0
LINE
  5
1D290
  8
SUNPO
  6
CONTINUOUS
 10
310.999998
 20
160.0
 30
0.0
 11
324.468739
 21
160.0
 31
0.0
  0
ARC
  5
1D291
  8
SUNPO
  6
BYBLOCK
 10
324.468739
 20
160.0
 30
0.0
 40
0.145
 50
90.0
 51
270.0
  0
ARC
  5
1D292
  8
SUNPO
  6
BYBLOCK
 10
324.468739
 20
160.0
 30
0.0
 40
0.145
 50
270.0
 51
90.0
  0
TEXT
  5
1D293
  8
SUNPO
  6
CONTINUOUS
 10
210.416667
 20
251.751008
 30
0.0
 40
2.5
  1
75
  7
MX_NOTE_STANDARD
  0
ARC
  5
1D294
  8
SUNPO
  6
BYBLOCK
 10
250.0
 20
250.751008
 30
0.0
 40
0.145
 50
0.0
 51
180.0
  0
ARC
  5
1D295
  8
SUNPO
  6
BYBLOCK
 10
250.0
 20
250.751008
 30
0.0
 40
0.145
 50
180.0
 51
0.0
  0
LINE
  5
1D296
  8
SUNPO
  6
CONTINUOUS
 10
250.0
 20
248.5
 30
0.0
 11
250.0
 21
250.751008
 31
0.0
  0
LINE
  5
1D297
  8
SUNPO
  6
CONTINUOUS
 10
377.0
 20
162.527474
 30
0.0
 11
402.0
 21
162.527474
 31
0.0
  0
LINE
  5
1D298
  8
SUNPO
  6
CONTINUOUS
 10
347.0
 20
162.527474
 30
0.0
 11
367.0
 21
162.527474
 31
0.0
  0
LINE
  5
1D299
  8
SUNPO
  6
CONTINUOUS
 10
347.0
 20
157.5
 30
0.0
 11
347.0
 21
162.527474
 31
0.0
  0
ARC
  5
1D29A
  8
SUNPO
  6
BYBLOCK
 10
347.0
 20
162.527474
 30
0.0
 40
0.145
 50
180.0
 51
0.0
  0
ARC
  5
1D29B
  8
SUNPO
  6
BYBLOCK
 10
347.0
 20
162.527474
 30
0.0
 40
0.145
 50
0.0
 51
180.0
  0
TEXT
  5
1D29C
  8
SUNPO
  6
CONTINUOUS
 10
355.125
 20
163.527474
 30
0.0
 40
2.5
  1
20
  7
MX_NOTE_STANDARD
  0
LINE
  5
1D29D
  8
SUNPO
  6
CONTINUOUS
 10
367.0
 20
162.527474
 30
0.0
 11
377.0
 21
162.527474
 31
0.0
  0
LINE
  5
1D29E
  8
SUNPO
  6
CONTINUOUS
 10
367.0
 20
154.5
 30
0.0
 11
367.0
 21
162.527474
 31
0.0
  0
LINE
  5
1D29F
  8
SUNPO
  6
CONTINUOUS
 10
367.0
 20
154.5
 30
0.0
 11
367.0
 21
162.527474
 31
0.0
  0
ARC
  5
1D2A0
  8
SUNPO
  6
BYBLOCK
 10
367.0
 20
162.527474
 30
0.0
 40
0.145
 50
180.0
 51
0.0
  0
ARC
  5
1D2A1
  8
SUNPO
  6
BYBLOCK
 10
367.0
 20
162.527474
 30
0.0
 40
0.145
 50
0.0
 51
180.0
  0
ARC
  5
1D2A2
  8
SUNPO
  6
BYBLOCK
 10
367.0
 20
162.527474
 30
0.0
 40
0.145
 50
0.0
 51
180.0
  0
ARC
  5
1D2A3
  8
SUNPO
  6
BYBLOCK
 10
367.0
 20
162.527474
 30
0.0
 40
0.145
 50
180.0
 51
0.0
  0
TEXT
  5
1D2A4
  8
SUNPO
  6
CONTINUOUS
 10
370.541667
 20
163.527474
 30
0.0
 40
2.5
  1
10
  7
MX_NOTE_STANDARD
  0
LINE
  5
1D2A5
  8
SUNPO
  6
CONTINUOUS
 10
377.0
 20
154.5
 30
0.0
 11
377.0
 21
162.527474
 31
0.0
  0
LINE
  5
1D2A6
  8
SUNPO
  6
CONTINUOUS
 10
377.0
 20
154.5
 30
0.0
 11
377.0
 21
162.527474
 31
0.0
  0
ARC
  5
1D2A7
  8
SUNPO
  6
BYBLOCK
 10
377.0
 20
162.527474
 30
0.0
 40
0.145
 50
0.0
 51
180.0
  0
ARC
  5
1D2A8
  8
SUNPO
  6
BYBLOCK
 10
377.0
 20
162.527474
 30
0.0
 40
0.145
 50
180.0
 51
0.0
  0
ARC
  5
1D2A9
  8
SUNPO
  6
BYBLOCK
 10
377.0
 20
162.527474
 30
0.0
 40
0.145
 50
180.0
 51
0.0
  0
ARC
  5
1D2AA
  8
SUNPO
  6
BYBLOCK
 10
377.0
 20
162.527474
 30
0.0
 40
0.145
 50
0.0
 51
180.0
  0
TEXT
  5
1D2AB
  8
SUNPO
  6
CONTINUOUS
 10
387.416667
 20
163.527474
 30
0.0
 40
2.5
  1
25
  7
MX_NOTE_STANDARD
  0
LINE
  5
1D2AC
  8
SUNPO
  6
CONTINUOUS
 10
402.0
 20
154.5
 30
0.0
 11
402.0
 21
162.527474
 31
0.0
  0
ARC
  5
1D2AD
  8
SUNPO
  6
BYBLOCK
 10
402.0
 20
162.527474
 30
0.0
 40
0.145
 50
0.0
 51
180.0
  0
ARC
  5
1D2AE
  8
SUNPO
  6
BYBLOCK
 10
402.0
 20
162.527474
 30
0.0
 40
0.145
 50
180.0
 51
0.0
  0
LINE
  5
1D335
  8
SUNPO
  6
CONTINUOUS
 10
219.815372
 20
32.430155
 30
0.0
 11
220.728887
 21
33.052967
 31
0.0
210
0.0
220
0.0
230
-1.0
  0
LINE
  5
1D336
  8
SUNPO
  6
CONTINUOUS
 10
220.728887
 20
33.052967
 30
0.0
 11
221.199982
 21
33.091179
 31
0.0
210
0.0
220
0.0
230
-1.0
  0
LINE
  5
1D337
  8
SUNPO
  6
CONTINUOUS
 10
221.199982
 20
33.091179
 30
0.0
 11
221.0138
 21
32.578868
 31
0.0
210
0.0
220
0.0
230
-1.0
  0
LINE
  5
1D338
  8
SUNPO
  6
CONTINUOUS
 10
221.0138
 20
32.578868
 30
0.0
 11
220.120898
 21
30.599677
 31
0.0
210
0.0
220
0.0
230
-1.0
  0
LINE
  5
1D339
  8
SUNPO
  6
CONTINUOUS
 10
220.120898
 20
30.599677
 30
0.0
 11
220.417461
 21
29.620702
 31
0.0
210
0.0
220
0.0
230
-1.0
  0
LINE
  5
1D33A
  8
SUNPO
  6
CONTINUOUS
 10
220.417461
 20
29.620702
 30
0.0
 11
221.378871
 21
29.924854
 31
0.0
210
0.0
220
0.0
230
-1.0
  0
LINE
  5
1D33B
  8
SUNPO
  6
CONTINUOUS
 10
221.378871
 20
29.924854
 30
0.0
 11
221.86436
 21
31.042338
 31
0.0
210
0.0
220
0.0
230
-1.0
  0
LINE
  5
1D33C
  8
SUNPO
  6
CONTINUOUS
 10
221.86436
 20
31.042338
 30
0.0
 11
221.97692
 21
31.543679
 31
0.0
210
0.0
220
0.0
230
-1.0
  0
LINE
  5
1D33D
  8
SUNPO
  6
CONTINUOUS
 10
221.97692
 20
31.543679
 30
0.0
 11
221.849498
 21
31.018051
 31
0.0
210
0.0
220
0.0
230
-1.0
  0
LINE
  5
1D33E
  8
SUNPO
  6
CONTINUOUS
 10
221.849498
 20
31.018051
 30
0.0
 11
221.799705
 21
29.952675
 31
0.0
210
0.0
220
0.0
230
-1.0
  0
LINE
  5
1D33F
  8
SUNPO
  6
CONTINUOUS
 10
221.799705
 20
29.952675
 30
0.0
 11
222.635643
 21
29.371351
 31
0.0
210
0.0
220
0.0
230
-1.0
  0
LINE
  5
1D340
  8
SUNPO
  6
CONTINUOUS
 10
222.635643
 20
29.371351
 30
0.0
 11
223.508647
 21
29.987263
 31
0.0
210
0.0
220
0.0
230
-1.0
  0
LINE
  5
1D341
  8
SUNPO
  6
CONTINUOUS
 10
223.508647
 20
29.987263
 30
0.0
 11
223.951869
 21
30.976998
 31
0.0
210
0.0
220
0.0
230
-1.0
  0
LINE
  5
1D342
  8
SUNPO
  6
CONTINUOUS
 10
223.951869
 20
30.976998
 30
0.0
 11
223.836626
 21
33.133374
 31
0.0
210
0.0
220
0.0
230
-1.0
  0
LINE
  5
1D343
  8
SUNPO
  6
CONTINUOUS
 10
223.836626
 20
33.133374
 30
0.0
 11
225.974428
 21
32.896876
 31
0.0
210
0.0
220
0.0
230
-1.0
  0
LINE
  5
1D344
  8
SUNPO
  6
CONTINUOUS
 10
337.015372
 20
32.430155
 30
0.0
 11
337.928887
 21
33.052967
 31
0.0
210
0.0
220
0.0
230
-1.0
  0
LINE
  5
1D345
  8
SUNPO
  6
CONTINUOUS
 10
337.928887
 20
33.052967
 30
0.0
 11
338.399983
 21
33.091179
 31
0.0
210
0.0
220
0.0
230
-1.0
  0
LINE
  5
1D346
  8
SUNPO
  6
CONTINUOUS
 10
338.399983
 20
33.091179
 30
0.0
 11
338.2138
 21
32.578869
 31
0.0
210
0.0
220
0.0
230
-1.0
  0
LINE
  5
1D347
  8
SUNPO
  6
CONTINUOUS
 10
338.2138
 20
32.578869
 30
0.0
 11
337.320898
 21
30.599677
 31
0.0
210
0.0
220
0.0
230
-1.0
  0
LINE
  5
1D348
  8
SUNPO
  6
CONTINUOUS
 10
337.320898
 20
30.599677
 30
0.0
 11
337.617461
 21
29.620702
 31
0.0
210
0.0
220
0.0
230
-1.0
  0
LINE
  5
1D349
  8
SUNPO
  6
CONTINUOUS
 10
337.617461
 20
29.620702
 30
0.0
 11
338.578871
 21
29.924853
 31
0.0
210
0.0
220
0.0
230
-1.0
  0
LINE
  5
1D34A
  8
SUNPO
  6
CONTINUOUS
 10
338.578871
 20
29.924853
 30
0.0
 11
339.064361
 21
31.042337
 31
0.0
210
0.0
220
0.0
230
-1.0
  0
LINE
  5
1D34B
  8
SUNPO
  6
CONTINUOUS
 10
339.064361
 20
31.042337
 30
0.0
 11
339.176921
 21
31.543679
 31
0.0
210
0.0
220
0.0
230
-1.0
  0
LINE
  5
1D34C
  8
SUNPO
  6
CONTINUOUS
 10
339.176921
 20
31.543679
 30
0.0
 11
339.0495
 21
31.018052
 31
0.0
210
0.0
220
0.0
230
-1.0
  0
LINE
  5
1D34D
  8
SUNPO
  6
CONTINUOUS
 10
339.0495
 20
31.018052
 30
0.0
 11
338.999705
 21
29.952676
 31
0.0
210
0.0
220
0.0
230
-1.0
  0
LINE
  5
1D34E
  8
SUNPO
  6
CONTINUOUS
 10
338.999705
 20
29.952676
 30
0.0
 11
339.835643
 21
29.371351
 31
0.0
210
0.0
220
0.0
230
-1.0
  0
LINE
  5
1D34F
  8
SUNPO
  6
CONTINUOUS
 10
339.835643
 20
29.371351
 30
0.0
 11
340.708648
 21
29.987263
 31
0.0
210
0.0
220
0.0
230
-1.0
  0
LINE
  5
1D350
  8
SUNPO
  6
CONTINUOUS
 10
340.708648
 20
29.987263
 30
0.0
 11
341.15187
 21
30.976998
 31
0.0
210
0.0
220
0.0
230
-1.0
  0
LINE
  5
1D351
  8
SUNPO
  6
CONTINUOUS
 10
341.15187
 20
30.976998
 30
0.0
 11
341.036626
 21
33.133374
 31
0.0
210
0.0
220
0.0
230
-1.0
  0
LINE
  5
1D352
  8
SUNPO
  6
CONTINUOUS
 10
341.036626
 20
33.133374
 30
0.0
 11
343.174429
 21
32.896876
 31
0.0
210
0.0
220
0.0
230
-1.0
  0
LINE
  5
1D381
  8
DANMEN
  6
CONTINUOUS
 10
70.800003
 20
67.000005
 30
0.0
 11
70.800003
 21
52.5
 31
0.0
  0
LINE
  5
1D382
  8
DANMEN
  6
CONTINUOUS
 10
72.499995
 20
67.000005
 30
0.0
 11
70.800003
 21
67.000005
 31
0.0
  0
LINE
  5
1D383
  8
DANMEN
  6
CONTINUOUS
 10
68.850006
 20
66.999999
 30
0.0
 11
68.850006
 21
52.5
 31
0.0
  0
LINE
  5
1D384
  8
DANMEN
  6
CONTINUOUS
 10
70.300003
 20
52.0
 30
0.0
 11
69.350006
 21
52.0
 31
0.0
  0
ARC
  5
1D385
  8
DANMEN
  6
CONTINUOUS
 10
69.350006
 20
52.5
 30
0.0
 40
0.5
 50
180.0
 51
269.999982
  0
ARC
  5
1D386
  8
DANMEN
  6
CONTINUOUS
 10
70.300003
 20
52.5
 30
0.0
 40
0.5
 50
269.999999
 51
359.999981
  0
ENDSEC
  0
EOF
