  0
SECTION
  2
HEADER
  9
$ACADVER
  1
AC1009
  9
$INSBASE
 10
0.0
 20
0.0
 30
0.0
  9
$EXTMIN
 10
4.986803
 20
4.971933
 30
-0.001526
  9
$EXTMAX
 10
415.019075
 20
292.013444
 30
0.0
  9
$LIMMIN
 10
-210.0
 20
-148.5
  9
$LIMMAX
 10
210.0
 20
148.5
  9
$ORTHOMODE
 70
     1
  9
$REGENMODE
 70
     1
  9
$FILLMODE
 70
     1
  9
$QTEXTMODE
 70
     0
  9
$MIRRTEXT
 70
     1
  9
$DRAGMODE
 70
     2
  9
$LTSCALE
 40
0.5
  9
$OSMODE
 70
   239
  9
$ATTMODE
 70
     1
  9
$TEXTSIZE
 40
0.2
  9
$TRACEWID
 40
0.05
  9
$TEXTSTYLE
  7
MX_NOTE_STANDARD
  9
$CLAYER
  8
0
  9
$CELTYPE
  6
CONTINUOUS
  9
$CECOLOR
 62
   256
  9
$DIMSCALE
 40
1.0
  9
$DIMASZ
 40
2.5
  9
$DIMEXO
 40
1.5
  9
$DIMDLI
 40
3.75
  9
$DIMRND
 40
0.0
  9
$DIMDLE
 40
0.0
  9
$DIMEXE
 40
0.0
  9
$DIMTP
 40
0.0
  9
$DIMTM
 40
0.0
  9
$DIMTXT
 40
2.5
  9
$DIMCEN
 40
2.5
  9
$DIMTSZ
 40
0.0
  9
$DIMTOL
 70
     0
  9
$DIMLIM
 70
     0
  9
$DIMTIH
 70
     0
  9
$DIMTOH
 70
     0
  9
$DIMSE1
 70
     0
  9
$DIMSE2
 70
     0
  9
$DIMTAD
 70
     1
  9
$DIMZIN
 70
     8
  9
$DIMBLK
  1

  9
$DIMASO
 70
     1
  9
$DIMSHO
 70
     1
  9
$DIMPOST
  1

  9
$DIMAPOST
  1

  9
$DIMALT
 70
     0
  9
$DIMALTD
 70
     4
  9
$DIMALTF
 40
0.0394
  9
$DIMLFAC
 40
1.0
  9
$DIMTOFL
 70
     1
  9
$DIMTVP
 40
0.0
  9
$DIMTIX
 70
     0
  9
$DIMSOXD
 70
     0
  9
$DIMSAH
 70
     0
  9
$DIMBLK1
  1

  9
$DIMBLK2
  1

  9
$DIMSTYLE
  2
MXDIMSTYLE
  9
$DIMCLRD
 70
     0
  9
$DIMCLRE
 70
     0
  9
$DIMCLRT
 70
     0
  9
$DIMTFAC
 40
1.0
  9
$DIMGAP
 40
1.0
  9
$LUNITS
 70
     2
  9
$LUPREC
 70
     4
  9
$SKETCHINC
 40
0.1
  9
$FILLETRAD
 40
0.0
  9
$AUNITS
 70
     0
  9
$AUPREC
 70
     0
  9
$MENU
  1
acad
  9
$ELEVATION
 40
0.0
  9
$PELEVATION
 40
0.0
  9
$THICKNESS
 40
0.0
  9
$LIMCHECK
 70
     0
  9
$BLIPMODE
 70
     0
  9
$CHAMFERA
 40
0.0
  9
$CHAMFERB
 40
0.0
  9
$SKPOLY
 70
     0
  9
$TDCREATE
 40
2452006.37162
  9
$TDUPDATE
 40
2452137.899401
  9
$TDINDWG
 40
0.081164
  9
$TDUSRTIMER
 40
0.081163
  9
$USRTIMER
 70
     1
  9
$ANGBASE
 50
0.0
  9
$ANGDIR
 70
     0
  9
$PDMODE
 70
     3
  9
$PDSIZE
 40
-100.0
  9
$PLINEWID
 40
0.0
  9
$COORDS
 70
     0
  9
$SPLFRAME
 70
     0
  9
$SPLINETYPE
 70
     6
  9
$SPLINESEGS
 70
     8
  9
$ATTDIA
 70
     0
  9
$ATTREQ
 70
     1
  9
$HANDLING
 70
     1
  9
$HANDSEED
  5
1BE7F
  9
$SURFTAB1
 70
     6
  9
$SURFTAB2
 70
     6
  9
$SURFTYPE
 70
     6
  9
$SURFU
 70
     6
  9
$SURFV
 70
     6
  9
$UCSNAME
  2

  9
$UCSORG
 10
0.0
 20
0.0
 30
0.0
  9
$UCSXDIR
 10
1.0
 20
0.0
 30
0.0
  9
$UCSYDIR
 10
0.0
 20
1.0
 30
0.0
  9
$PUCSNAME
  2

  9
$PUCSORG
 10
0.0
 20
0.0
 30
0.0
  9
$PUCSXDIR
 10
1.0
 20
0.0
 30
0.0
  9
$PUCSYDIR
 10
0.0
 20
1.0
 30
0.0
  9
$USERI1
 70
     0
  9
$USERI2
 70
     0
  9
$USERI3
 70
     0
  9
$USERI4
 70
     0
  9
$USERI5
 70
     0
  9
$USERR1
 40
0.0
  9
$USERR2
 40
0.0
  9
$USERR3
 40
0.0
  9
$USERR4
 40
0.0
  9
$USERR5
 40
0.0
  9
$WORLDVIEW
 70
     1
  9
$SHADEDGE
 70
     3
  9
$SHADEDIF
 70
    70
  9
$TILEMODE
 70
     1
  9
$MAXACTVP
 70
    16
  9
$PLIMCHECK
 70
     0
  9
$PEXTMIN
 10
1.000000E+020
 20
1.000000E+020
 30
1.000000E+020
  9
$PEXTMAX
 10
-1.000000E+020
 20
-1.000000E+020
 30
-1.000000E+020
  9
$PLIMMIN
 10
0.0
 20
0.0
  9
$PLIMMAX
 10
12.0
 20
9.0
  9
$UNITMODE
 70
     0
  9
$VISRETAIN
 70
     0
  9
$PLINEGEN
 70
     1
  9
$PSLTSCALE
 70
     0
  0
ENDSEC
  0
SECTION
  2
TABLES
  0
TABLE
  2
VPORT
 70
     2
  0
VPORT
  2
*ACTIVE
 70
     0
 10
0.0
 20
0.0
 11
1.0
 21
1.0
 12
210.002939
 22
148.492688
 13
0.0
 23
0.0
 14
1.0
 24
1.0
 15
0.0
 25
0.0
 16
0.0
 26
0.0
 36
1.0
 17
0.0
 27
0.0
 37
0.0
 40
290.242718
 41
1.867784
 42
50.0
 43
0.0
 44
0.0
 50
0.0
 51
0.0
 71
     0
 72
   100
 73
     1
 74
     0
 75
     0
 76
     0
 77
     0
 78
     0
  0
ENDTAB
  0
TABLE
  2
LTYPE
 70
     3
  0
LTYPE
  2
CONTINUOUS
 70
     0
  3
Solid line
 72
    65
 73
     0
 40
0.0
  0
LTYPE
  2
DASHED
 70
     0
  3
Dashed __ __ __ __ __ __ __ __ __ __ __ __ __ _
 72
    65
 73
     2
 40
19.05
 49
12.7
 49
-6.35
  0
LTYPE
  2
CENTER
 70
     0
  3
Center ____ _ ____ _ ____ _ ____ _ ____ _ ____
 72
    65
 73
     4
 40
50.8
 49
31.75
 49
-6.35
 49
6.35
 49
-6.35
  0
ENDTAB
  0
TABLE
  2
LAYER
 70
     4
  0
LAYER
  2
0
 70
     0
 62
     7
  6
CONTINUOUS
  0
LAYER
  2
SUNPO
 70
     0
 62
     1
  6
CONTINUOUS
  0
LAYER
  2
DANMEN
 70
     0
 62
     7
  6
CONTINUOUS
  0
LAYER
  2
WAKU
 70
     0
 62
     3
  6
CONTINUOUS
  0
ENDTAB
  0
TABLE
  2
STYLE
 70
     2
  0
STYLE
  2
STANDARD
 70
     0
 40
0.0
 41
1.0
 50
0.0
 71
     0
 42
0.2
  3
txt.shx
  4
extfont.shx
  0
STYLE
  2
MX_NOTE_STANDARD
 70
     0
 40
2.5
 41
1.0
 50
0.0
 71
     0
 42
2.5
  3
txt.shx
  4
extfont.shx
  0
ENDTAB
  0
TABLE
  2
VIEW
 70
     0
  0
ENDTAB
  0
TABLE
  2
UCS
 70
     0
  0
ENDTAB
  0
TABLE
  2
APPID
 70
     1
  0
APPID
  2
ACAD
 70
     0
  0
ENDTAB
  0
TABLE
  2
DIMSTYLE
 70
     1
  0
DIMSTYLE
  2
MXDIMSTYLE
 70
     0
  3

  4

  5

  6

  7

 40
1.0
 41
2.5
 42
1.5
 43
3.75
 44
0.0
 45
0.0
 46
0.0
 47
0.0
 48
0.0
140
2.5
141
2.5
142
0.0
143
0.0394
144
1.0
145
0.0
146
1.0
147
1.0
 71
     0
 72
     0
 73
     0
 74
     0
 75
     0
 76
     0
 77
     1
 78
     8
170
     0
171
     4
172
     1
173
     0
174
     0
175
     0
176
     0
177
     0
178
     0
  0
ENDTAB
  0
ENDSEC
  0
SECTION
  2
BLOCKS
  0
BLOCK
  8
0
  2
$MODEL_SPACE
 70
     0
 10
0.0
 20
0.0
 30
0.0
  3
$MODEL_SPACE
  1

  0
ENDBLK
  5
1B8FD
  8
0
  0
BLOCK
 67
     1
  8
0
  2
$PAPER_SPACE
 70
     0
 10
0.0
 20
0.0
 30
0.0
  3
$PAPER_SPACE
  1

  0
ENDBLK
  5
1B8FB
 67
     1
  8
0
  0
BLOCK
  8
0
  2
*U0
 70
     1
 10
0.0
 20
0.0
 30
0.0
  3
*U0
  1

  0
SOLID
  5
DA5C
  8
WAKU
  6
CONTINUOUS
 10
371.305142
 20
283.605291
 30
0.0
 11
370.499782
 21
283.530361
 31
0.0
 12
370.874987
 22
283.520449
 32
0.0
 13
370.874987
 23
283.520449
 33
0.0
  0
SOLID
  5
DA5D
  8
WAKU
  6
CONTINUOUS
 10
370.193309
 20
283.634664
 30
0.0
 11
370.499782
 21
283.530361
 31
0.0
 12
371.305142
 22
283.605291
 32
0.0
 13
371.305142
 23
283.605291
 33
0.0
  0
SOLID
  5
DA5E
  8
WAKU
  6
CONTINUOUS
 10
371.774448
 20
283.781773
 30
0.0
 11
370.193309
 21
283.634664
 31
0.0
 12
371.305142
 22
283.605291
 32
0.0
 13
371.305142
 23
283.605291
 33
0.0
  0
SOLID
  5
DA5F
  8
WAKU
  6
CONTINUOUS
 10
369.966824
 20
283.829526
 30
0.0
 11
370.193309
 21
283.634664
 31
0.0
 12
371.774448
 22
283.781773
 32
0.0
 13
371.774448
 23
283.781773
 33
0.0
  0
SOLID
  5
DA60
  8
WAKU
  6
CONTINUOUS
 10
370.594177
 20
283.909498
 30
0.0
 11
369.966824
 21
283.829526
 31
0.0
 12
371.774448
 22
283.781773
 32
0.0
 13
371.774448
 23
283.781773
 33
0.0
  0
SOLID
  5
DA61
  8
WAKU
  6
CONTINUOUS
 10
370.901294
 20
283.914863
 30
0.0
 11
370.594177
 21
283.909498
 31
0.0
 12
371.774448
 22
283.781773
 32
0.0
 13
371.774448
 23
283.781773
 33
0.0
  0
SOLID
  5
DA62
  8
WAKU
  6
CONTINUOUS
 10
370.392927
 20
283.968568
 30
0.0
 11
369.966824
 21
283.829526
 31
0.0
 12
370.594177
 22
283.909498
 32
0.0
 13
370.594177
 23
283.909498
 33
0.0
  0
SOLID
  5
DA63
  8
WAKU
  6
CONTINUOUS
 10
371.296984
 20
284.010368
 30
0.0
 11
370.901294
 21
283.914863
 31
0.0
 12
371.774448
 22
283.781773
 32
0.0
 13
371.774448
 23
283.781773
 33
0.0
  0
SOLID
  5
DA64
  8
WAKU
  6
CONTINUOUS
 10
372.265666
 20
284.043411
 30
0.0
 11
371.296984
 21
284.010368
 31
0.0
 12
371.774448
 22
283.781773
 32
0.0
 13
371.774448
 23
283.781773
 33
0.0
  0
SOLID
  5
DA65
  8
WAKU
  6
CONTINUOUS
 10
370.275177
 20
284.066476
 30
0.0
 11
369.966824
 21
283.829526
 31
0.0
 12
370.392927
 22
283.968568
 32
0.0
 13
370.392927
 23
283.968568
 33
0.0
  0
SOLID
  5
DA66
  8
WAKU
  6
CONTINUOUS
 10
369.828646
 20
284.107791
 30
0.0
 11
369.966824
 21
283.829526
 31
0.0
 12
370.275177
 22
284.066476
 32
0.0
 13
370.275177
 23
284.066476
 33
0.0
  0
SOLID
  5
DA67
  8
WAKU
  6
CONTINUOUS
 10
370.709458
 20
284.142397
 30
0.0
 11
369.828646
 21
284.107791
 31
0.0
 12
370.275177
 22
284.066476
 32
0.0
 13
370.275177
 23
284.066476
 33
0.0
  0
SOLID
  5
DA68
  8
WAKU
  6
CONTINUOUS
 10
371.751882
 20
284.202798
 30
0.0
 11
371.296984
 21
284.010368
 31
0.0
 12
372.265666
 22
284.043411
 32
0.0
 13
372.265666
 23
284.043411
 33
0.0
  0
SOLID
  5
DA69
  8
WAKU
  6
CONTINUOUS
 10
369.550381
 20
284.245969
 30
0.0
 11
369.828646
 21
284.107791
 31
0.0
 12
370.709458
 22
284.142397
 32
0.0
 13
370.709458
 23
284.142397
 33
0.0
  0
SOLID
  5
DA6A
  8
WAKU
  6
CONTINUOUS
 10
371.186428
 20
284.314625
 30
0.0
 11
369.550381
 21
284.245969
 31
0.0
 12
370.709458
 22
284.142397
 32
0.0
 13
370.709458
 23
284.142397
 33
0.0
  0
SOLID
  5
DA6B
  8
WAKU
  6
CONTINUOUS
 10
372.760756
 20
284.380595
 30
0.0
 11
371.751882
 21
284.202798
 31
0.0
 12
372.265666
 22
284.043411
 32
0.0
 13
372.265666
 23
284.043411
 33
0.0
  0
SOLID
  5
DA6C
  8
WAKU
  6
CONTINUOUS
 10
370.172911
 20
284.451856
 30
0.0
 11
369.550381
 21
284.245969
 31
0.0
 12
371.186428
 22
284.314625
 32
0.0
 13
371.186428
 23
284.314625
 33
0.0
  0
SOLID
  5
DA6D
  8
WAKU
  6
CONTINUOUS
 10
369.355518
 20
284.472454
 30
0.0
 11
369.550381
 21
284.245969
 31
0.0
 12
370.172911
 22
284.451856
 32
0.0
 13
370.172911
 23
284.451856
 33
0.0
  0
SOLID
  5
DA6E
  8
WAKU
  6
CONTINUOUS
 10
372.237497
 20
284.486117
 30
0.0
 11
371.751882
 21
284.202798
 31
0.0
 12
372.760756
 22
284.380595
 32
0.0
 13
372.760756
 23
284.380595
 33
0.0
  0
SOLID
  5
DA6F
  8
WAKU
  6
CONTINUOUS
 10
370.681395
 20
284.539195
 30
0.0
 11
370.172911
 21
284.451856
 31
0.0
 12
371.186428
 22
284.314625
 32
0.0
 13
371.186428
 23
284.314625
 33
0.0
  0
SOLID
  5
DA70
  8
WAKU
  6
CONTINUOUS
 10
369.787305
 20
284.553935
 30
0.0
 11
369.355518
 21
284.472454
 31
0.0
 12
370.172911
 22
284.451856
 32
0.0
 13
370.172911
 23
284.451856
 33
0.0
  0
SOLID
  5
DA71
  8
WAKU
  6
CONTINUOUS
 10
371.68777
 20
284.576545
 30
0.0
 11
370.681395
 21
284.539195
 31
0.0
 12
371.186428
 22
284.314625
 32
0.0
 13
371.186428
 23
284.314625
 33
0.0
  0
SOLID
  5
DA72
  8
WAKU
  6
CONTINUOUS
 10
369.689155
 20
284.672435
 30
0.0
 11
369.355518
 21
284.472454
 31
0.0
 12
369.787305
 22
284.553935
 32
0.0
 13
369.787305
 23
284.553935
 33
0.0
  0
SOLID
  5
DA73
  8
WAKU
  6
CONTINUOUS
 10
369.251215
 20
284.778928
 30
0.0
 11
369.355518
 21
284.472454
 31
0.0
 12
369.689155
 22
284.672435
 32
0.0
 13
369.689155
 23
284.672435
 33
0.0
  0
SOLID
  5
DA74
  8
WAKU
  6
CONTINUOUS
 10
373.241532
 20
284.780941
 30
0.0
 11
372.237497
 21
284.486117
 31
0.0
 12
372.760756
 22
284.380595
 32
0.0
 13
372.760756
 23
284.380595
 33
0.0
  0
SOLID
  5
DA75
  8
WAKU
  6
CONTINUOUS
 10
371.312263
 20
284.810332
 30
0.0
 11
370.681395
 21
284.539195
 31
0.0
 12
371.68777
 22
284.576545
 32
0.0
 13
371.68777
 23
284.576545
 33
0.0
  0
SOLID
  5
DA76
  8
WAKU
  6
CONTINUOUS
 10
369.630358
 20
284.873087
 30
0.0
 11
369.251215
 21
284.778928
 31
0.0
 12
369.689155
 22
284.672435
 32
0.0
 13
369.689155
 23
284.672435
 33
0.0
  0
SOLID
  5
DA77
  8
WAKU
  6
CONTINUOUS
 10
372.194232
 20
284.918099
 30
0.0
 11
371.312263
 21
284.810332
 31
0.0
 12
371.68777
 22
284.576545
 32
0.0
 13
371.68777
 23
284.576545
 33
0.0
  0
SOLID
  5
DA78
  8
WAKU
  6
CONTINUOUS
 10
370.260168
 20
284.959969
 30
0.0
 11
369.787305
 21
284.553935
 31
0.0
 12
370.172911
 22
284.451856
 32
0.0
 13
370.172911
 23
284.451856
 33
0.0
  0
SOLID
  5
DA79
  8
WAKU
  6
CONTINUOUS
 10
369.863139
 20
284.988189
 30
0.0
 11
369.787305
 21
284.553935
 31
0.0
 12
370.260168
 22
284.959969
 32
0.0
 13
370.260168
 23
284.959969
 33
0.0
  0
SOLID
  5
DA7A
  8
WAKU
  6
CONTINUOUS
 10
398.194006
 20
285.115385
 30
0.0
 11
397.606055
 21
283.5
 31
0.0
 12
401.913747
 22
283.5
 32
0.0
 13
401.913747
 23
283.5
 33
0.0
  0
SOLID
  5
DA7B
  8
WAKU
  6
CONTINUOUS
 10
401.913747
 20
283.5
 30
0.0
 11
401.424776
 21
285.115385
 31
0.0
 12
398.194006
 22
285.115385
 32
0.0
 13
398.194006
 23
285.115385
 33
0.0
  0
SOLID
  5
DA7C
  8
WAKU
  6
CONTINUOUS
 10
369.241303
 20
285.154132
 30
0.0
 11
369.251215
 21
284.778928
 31
0.0
 12
369.630358
 22
284.873087
 32
0.0
 13
369.630358
 23
284.873087
 33
0.0
  0
SOLID
  5
DA7D
  8
WAKU
  6
CONTINUOUS
 10
369.635696
 20
285.180404
 30
0.0
 11
369.241303
 21
285.154132
 31
0.0
 12
369.630358
 22
284.873087
 32
0.0
 13
369.630358
 23
284.873087
 33
0.0
  0
SOLID
  5
DA7E
  8
WAKU
  6
CONTINUOUS
 10
373.690335
 20
285.229744
 30
0.0
 11
372.237497
 21
284.486117
 31
0.0
 12
373.241532
 22
284.780941
 32
0.0
 13
373.241532
 23
284.780941
 33
0.0
  0
SOLID
  5
DA7F
  8
WAKU
  6
CONTINUOUS
 10
371.98994
 20
285.251431
 30
0.0
 11
371.312263
 21
284.810332
 31
0.0
 12
372.194232
 22
284.918099
 32
0.0
 13
372.194232
 23
284.918099
 33
0.0
  0
SOLID
  5
DA80
  8
WAKU
  6
CONTINUOUS
 10
373.195965
 20
285.275232
 30
0.0
 11
372.237497
 21
284.486117
 31
0.0
 12
373.690335
 22
285.229744
 32
0.0
 13
373.690335
 23
285.229744
 33
0.0
  0
SOLID
  5
DA81
  8
WAKU
  6
CONTINUOUS
 10
372.686363
 20
285.326171
 30
0.0
 11
371.98994
 21
285.251431
 31
0.0
 12
372.194232
 22
284.918099
 32
0.0
 13
372.194232
 23
284.918099
 33
0.0
  0
SOLID
  5
DA82
  8
WAKU
  6
CONTINUOUS
 10
370.035293
 20
285.465154
 30
0.0
 11
369.863139
 21
284.988189
 31
0.0
 12
370.260168
 22
284.959969
 32
0.0
 13
370.260168
 23
284.959969
 33
0.0
  0
SOLID
  5
DA83
  8
WAKU
  6
CONTINUOUS
 10
369.73149
 20
285.576021
 30
0.0
 11
369.241303
 21
285.154132
 31
0.0
 12
369.635696
 22
285.180404
 32
0.0
 13
369.635696
 23
285.180404
 33
0.0
  0
SOLID
  5
DA84
  8
WAKU
  6
CONTINUOUS
 10
369.326146
 20
285.584287
 30
0.0
 11
369.241303
 21
285.154132
 31
0.0
 12
369.73149
 22
285.576021
 32
0.0
 13
369.73149
 23
285.576021
 33
0.0
  0
SOLID
  5
DA85
  8
WAKU
  6
CONTINUOUS
 10
370.530712
 20
285.590875
 30
0.0
 11
370.035293
 21
285.465154
 31
0.0
 12
370.260168
 22
284.959969
 32
0.0
 13
370.260168
 23
284.959969
 33
0.0
  0
SOLID
  5
DA86
  8
WAKU
  6
CONTINUOUS
 10
389.236144
 20
285.653846
 30
0.0
 11
383.067593
 21
283.5
 31
0.0
 12
388.452208
 22
283.5
 32
0.0
 13
388.452208
 23
283.5
 33
0.0
  0
SOLID
  5
DA87
  8
WAKU
  6
CONTINUOUS
 10
383.851529
 20
285.653846
 30
0.0
 11
383.067593
 21
283.5
 31
0.0
 12
389.236144
 22
285.653846
 32
0.0
 13
389.236144
 23
285.653846
 33
0.0
  0
SOLID
  5
DA88
  8
WAKU
  6
CONTINUOUS
 10
404.851529
 20
285.653846
 30
0.0
 11
404.067593
 21
283.5
 31
0.0
 12
409.452208
 22
283.5
 32
0.0
 13
409.452208
 23
283.5
 33
0.0
  0
SOLID
  5
DA89
  8
WAKU
  6
CONTINUOUS
 10
409.452208
 20
283.5
 30
0.0
 11
409.159221
 21
285.653846
 31
0.0
 12
404.851529
 22
285.653846
 32
0.0
 13
404.851529
 23
285.653846
 33
0.0
  0
SOLID
  5
DA8A
  8
WAKU
  6
CONTINUOUS
 10
391.174606
 20
285.653846
 30
0.0
 11
390.39067
 21
283.5
 31
0.0
 12
395.452208
 22
283.5
 32
0.0
 13
395.452208
 23
283.5
 33
0.0
  0
SOLID
  5
DA8B
  8
WAKU
  6
CONTINUOUS
 10
395.452208
 20
283.5
 30
0.0
 11
395.159221
 21
285.653846
 31
0.0
 12
391.174606
 22
285.653846
 32
0.0
 13
391.174606
 23
285.653846
 33
0.0
  0
SOLID
  5
DA8C
  8
WAKU
  6
CONTINUOUS
 10
374.090681
 20
285.71052
 30
0.0
 11
373.195965
 21
285.275232
 31
0.0
 12
373.690335
 22
285.229744
 32
0.0
 13
373.690335
 23
285.229744
 33
0.0
  0
SOLID
  5
DA8D
  8
WAKU
  6
CONTINUOUS
 10
373.145266
 20
285.785089
 30
0.0
 11
371.98994
 21
285.251431
 31
0.0
 12
372.686363
 22
285.326171
 32
0.0
 13
372.686363
 23
285.326171
 33
0.0
  0
SOLID
  5
DA8E
  8
WAKU
  6
CONTINUOUS
 10
372.646296
 20
285.825506
 30
0.0
 11
371.98994
 21
285.251431
 31
0.0
 12
373.145266
 22
285.785089
 32
0.0
 13
373.145266
 23
285.785089
 33
0.0
  0
SOLID
  5
DA8F
  8
WAKU
  6
CONTINUOUS
 10
370.297156
 20
285.966509
 30
0.0
 11
370.035293
 21
285.465154
 31
0.0
 12
370.530712
 22
285.590875
 32
0.0
 13
370.530712
 23
285.590875
 33
0.0
  0
SOLID
  5
DA90
  8
WAKU
  6
CONTINUOUS
 10
369.923519
 20
286.031028
 30
0.0
 11
369.326146
 21
285.584287
 31
0.0
 12
369.73149
 22
285.576021
 32
0.0
 13
369.73149
 23
285.576021
 33
0.0
  0
SOLID
  5
DA91
  8
WAKU
  6
CONTINUOUS
 10
369.502627
 20
286.053593
 30
0.0
 11
369.326146
 21
285.584287
 31
0.0
 12
369.923519
 22
286.031028
 32
0.0
 13
369.923519
 23
286.031028
 33
0.0
  0
SOLID
  5
DA92
  8
WAKU
  6
CONTINUOUS
 10
379.397145
 20
286.138462
 30
0.0
 11
378.436824
 21
283.5
 31
0.0
 12
379.513747
 22
283.5
 32
0.0
 13
379.513747
 23
283.5
 33
0.0
  0
SOLID
  5
DA93
  8
WAKU
  6
CONTINUOUS
 10
377.155205
 20
286.192308
 30
0.0
 11
376.175285
 21
283.5
 31
0.0
 12
379.397145
 22
286.138462
 32
0.0
 13
379.397145
 23
286.138462
 33
0.0
  0
SOLID
  5
DA94
  8
WAKU
  6
CONTINUOUS
 10
380.493667
 20
286.192308
 30
0.0
 11
377.155205
 21
286.192308
 31
0.0
 12
379.397145
 22
286.138462
 32
0.0
 13
379.397145
 23
286.138462
 33
0.0
  0
SOLID
  5
DA95
  8
WAKU
  6
CONTINUOUS
 10
380.493667
 20
286.192308
 30
0.0
 11
379.397145
 21
286.138462
 31
0.0
 12
379.513747
 22
283.5
 32
0.0
 13
379.513747
 23
283.5
 33
0.0
  0
SOLID
  5
DA96
  8
WAKU
  6
CONTINUOUS
 10
380.493667
 20
286.192308
 30
0.0
 11
381.775285
 21
283.5
 31
0.0
 12
382.755205
 22
286.192308
 32
0.0
 13
382.755205
 23
286.192308
 33
0.0
  0
SOLID
  5
DA97
  8
WAKU
  6
CONTINUOUS
 10
374.427865
 20
286.205609
 30
0.0
 11
373.195965
 21
285.275232
 31
0.0
 12
374.090681
 22
285.71052
 32
0.0
 13
374.090681
 23
285.71052
 33
0.0
  0
SOLID
  5
DA98
  8
WAKU
  6
CONTINUOUS
 10
373.98505
 20
286.233718
 30
0.0
 11
373.195965
 21
285.275232
 31
0.0
 12
374.427865
 22
286.205609
 32
0.0
 13
374.427865
 23
286.205609
 33
0.0
  0
SOLID
  5
DA99
  8
WAKU
  6
CONTINUOUS
 10
370.971896
 20
286.268471
 30
0.0
 11
370.297156
 21
285.966509
 31
0.0
 12
370.530712
 22
285.590875
 32
0.0
 13
370.530712
 23
285.590875
 33
0.0
  0
SOLID
  5
DA9A
  8
WAKU
  6
CONTINUOUS
 10
373.553316
 20
286.277229
 30
0.0
 11
372.646296
 21
285.825506
 31
0.0
 12
373.145266
 22
285.785089
 32
0.0
 13
373.145266
 23
285.785089
 33
0.0
  0
SOLID
  5
DA9B
  8
WAKU
  6
CONTINUOUS
 10
370.638671
 20
286.473
 30
0.0
 11
370.297156
 21
285.966509
 31
0.0
 12
370.971896
 22
286.268471
 32
0.0
 13
370.971896
 23
286.268471
 33
0.0
  0
SOLID
  5
DA9C
  8
WAKU
  6
CONTINUOUS
 10
373.220238
 20
286.48192
 30
0.0
 11
372.646296
 21
285.825506
 31
0.0
 12
373.553316
 22
286.277229
 32
0.0
 13
373.553316
 23
286.277229
 33
0.0
  0
SOLID
  5
DA9D
  8
WAKU
  6
CONTINUOUS
 10
370.207035
 20
286.51657
 30
0.0
 11
369.502627
 21
286.053593
 31
0.0
 12
369.923519
 22
286.031028
 32
0.0
 13
369.923519
 23
286.031028
 33
0.0
  0
SOLID
  5
DA9E
  8
WAKU
  6
CONTINUOUS
 10
369.764265
 20
286.544812
 30
0.0
 11
369.502627
 21
286.053593
 31
0.0
 12
370.207035
 22
286.51657
 32
0.0
 13
370.207035
 23
286.51657
 33
0.0
  0
SOLID
  5
DA9F
  8
WAKU
  6
CONTINUOUS
 10
374.689503
 20
286.696828
 30
0.0
 11
373.98505
 21
286.233718
 31
0.0
 12
374.427865
 22
286.205609
 32
0.0
 13
374.427865
 23
286.205609
 33
0.0
  0
SOLID
  5
DAA0
  8
WAKU
  6
CONTINUOUS
 10
374.268507
 20
286.719278
 30
0.0
 11
373.98505
 21
286.233718
 31
0.0
 12
374.689503
 22
286.696828
 32
0.0
 13
374.689503
 23
286.696828
 33
0.0
  0
SOLID
  5
DAA1
  8
WAKU
  6
CONTINUOUS
 10
373.894843
 20
286.783693
 30
0.0
 11
373.220238
 21
286.48192
 31
0.0
 12
373.553316
 22
286.277229
 32
0.0
 13
373.553316
 23
286.277229
 33
0.0
  0
SOLID
  5
DAA2
  8
WAKU
  6
CONTINUOUS
 10
371.545827
 20
286.924893
 30
0.0
 11
370.638671
 21
286.473
 31
0.0
 12
370.971896
 22
286.268471
 32
0.0
 13
370.971896
 23
286.268471
 33
0.0
  0
SOLID
  5
DAA3
  8
WAKU
  6
CONTINUOUS
 10
371.04672
 20
286.965174
 30
0.0
 11
370.638671
 21
286.473
 31
0.0
 12
371.545827
 22
286.924893
 32
0.0
 13
371.545827
 23
286.924893
 33
0.0
  0
SOLID
  5
DAA4
  8
WAKU
  6
CONTINUOUS
 10
370.101449
 20
287.039901
 30
0.0
 11
369.764265
 21
286.544812
 31
0.0
 12
370.207035
 22
286.51657
 32
0.0
 13
370.207035
 23
286.51657
 33
0.0
  0
SOLID
  5
DAA5
  8
WAKU
  6
CONTINUOUS
 10
373.661353
 20
287.159534
 30
0.0
 11
373.220238
 21
286.48192
 31
0.0
 12
373.894843
 22
286.783693
 32
0.0
 13
373.894843
 23
286.783693
 33
0.0
  0
SOLID
  5
DAA6
  8
WAKU
  6
CONTINUOUS
 10
374.865984
 20
287.166134
 30
0.0
 11
374.268507
 21
286.719278
 31
0.0
 12
374.689503
 22
286.696828
 32
0.0
 13
374.689503
 23
286.696828
 33
0.0
  0
SOLID
  5
DAA7
  8
WAKU
  6
CONTINUOUS
 10
374.46071
 20
287.174248
 30
0.0
 11
374.268507
 21
286.719278
 31
0.0
 12
374.865984
 22
287.166134
 32
0.0
 13
374.865984
 23
287.166134
 33
0.0
  0
SOLID
  5
DAA8
  8
WAKU
  6
CONTINUOUS
 10
374.156732
 20
287.28503
 30
0.0
 11
373.661353
 21
287.159534
 31
0.0
 12
373.894843
 22
286.783693
 32
0.0
 13
373.894843
 23
286.783693
 33
0.0
  0
SOLID
  5
DAA9
  8
WAKU
  6
CONTINUOUS
 10
371.505632
 20
287.424128
 30
0.0
 11
371.04672
 21
286.965174
 31
0.0
 12
371.545827
 22
286.924893
 32
0.0
 13
371.545827
 23
286.924893
 33
0.0
  0
SOLID
  5
DAAA
  8
WAKU
  6
CONTINUOUS
 10
370.996098
 20
287.475108
 30
0.0
 11
370.101449
 21
287.039901
 31
0.0
 12
370.207035
 22
286.51657
 32
0.0
 13
370.207035
 23
286.51657
 33
0.0
  0
SOLID
  5
DAAB
  8
WAKU
  6
CONTINUOUS
 10
372.202181
 20
287.498991
 30
0.0
 11
371.505632
 21
287.424128
 31
0.0
 12
371.545827
 22
286.924893
 32
0.0
 13
371.545827
 23
286.924893
 33
0.0
  0
SOLID
  5
DAAC
  8
WAKU
  6
CONTINUOUS
 10
370.501795
 20
287.520677
 30
0.0
 11
370.101449
 21
287.039901
 31
0.0
 12
370.996098
 22
287.475108
 32
0.0
 13
370.996098
 23
287.475108
 33
0.0
  0
SOLID
  5
DAAD
  8
WAKU
  6
CONTINUOUS
 10
374.556361
 20
287.569864
 30
0.0
 11
374.46071
 21
287.174248
 31
0.0
 12
374.865984
 22
287.166134
 32
0.0
 13
374.865984
 23
287.166134
 33
0.0
  0
SOLID
  5
DAAE
  8
WAKU
  6
CONTINUOUS
 10
395.864763
 20
287.592308
 30
0.0
 11
395.159221
 21
285.653846
 31
0.0
 12
395.452208
 22
283.5
 32
0.0
 13
395.452208
 23
283.5
 33
0.0
  0
SOLID
  5
DAAF
  8
WAKU
  6
CONTINUOUS
 10
393.172456
 20
287.592308
 30
0.0
 11
391.703565
 21
286.515385
 31
0.0
 12
392.780488
 22
286.515385
 32
0.0
 13
392.780488
 23
286.515385
 33
0.0
  0
SOLID
  5
DAB0
  8
WAKU
  6
CONTINUOUS
 10
392.095533
 20
287.592308
 30
0.0
 11
391.703565
 21
286.515385
 31
0.0
 12
393.172456
 22
287.592308
 32
0.0
 13
393.172456
 23
287.592308
 33
0.0
  0
SOLID
  5
DAB1
  8
WAKU
  6
CONTINUOUS
 10
391.28784
 20
287.592308
 30
0.0
 11
392.095533
 21
287.592308
 31
0.0
 12
393.172456
 22
287.592308
 32
0.0
 13
393.172456
 23
287.592308
 33
0.0
  0
SOLID
  5
DAB2
  8
WAKU
  6
CONTINUOUS
 10
391.28784
 20
287.592308
 30
0.0
 11
393.172456
 21
287.592308
 31
0.0
 12
395.864763
 22
287.592308
 32
0.0
 13
395.864763
 23
287.592308
 33
0.0
  0
SOLID
  5
DAB3
  8
WAKU
  6
CONTINUOUS
 10
396.941687
 20
287.592308
 30
0.0
 11
391.28784
 21
287.592308
 31
0.0
 12
395.864763
 22
287.592308
 32
0.0
 13
395.864763
 23
287.592308
 33
0.0
  0
SOLID
  5
DAB4
  8
WAKU
  6
CONTINUOUS
 10
396.941687
 20
287.592308
 30
0.0
 11
395.864763
 21
287.592308
 31
0.0
 12
395.452208
 22
283.5
 32
0.0
 13
395.452208
 23
283.5
 33
0.0
  0
SOLID
  5
DAB5
  8
WAKU
  6
CONTINUOUS
 10
374.950827
 20
287.596289
 30
0.0
 11
374.556361
 21
287.569864
 31
0.0
 12
374.865984
 22
287.166134
 32
0.0
 13
374.865984
 23
287.166134
 33
0.0
  0
SOLID
  5
DAB6
  8
WAKU
  6
CONTINUOUS
 10
374.328925
 20
287.761987
 30
0.0
 11
373.661353
 21
287.159534
 31
0.0
 12
374.156732
 22
287.28503
 32
0.0
 13
374.156732
 23
287.28503
 33
0.0
  0
SOLID
  5
DAB7
  8
WAKU
  6
CONTINUOUS
 10
373.932071
 20
287.790402
 30
0.0
 11
373.661353
 21
287.159534
 31
0.0
 12
374.328925
 22
287.761987
 32
0.0
 13
374.328925
 23
287.761987
 33
0.0
  0
SOLID
  5
DAB8
  8
WAKU
  6
CONTINUOUS
 10
371.997783
 20
287.832235
 30
0.0
 11
371.505632
 21
287.424128
 31
0.0
 12
372.202181
 22
287.498991
 32
0.0
 13
372.202181
 23
287.498991
 33
0.0
  0
SOLID
  5
DAB9
  8
WAKU
  6
CONTINUOUS
 10
374.561802
 20
287.877253
 30
0.0
 11
374.556361
 21
287.569864
 31
0.0
 12
374.950827
 22
287.596289
 32
0.0
 13
374.950827
 23
287.596289
 33
0.0
  0
SOLID
  5
DABA
  8
WAKU
  6
CONTINUOUS
 10
372.879878
 20
287.940057
 30
0.0
 11
371.997783
 21
287.832235
 31
0.0
 12
372.202181
 22
287.498991
 32
0.0
 13
372.202181
 23
287.498991
 33
0.0
  0
SOLID
  5
DABB
  8
WAKU
  6
CONTINUOUS
 10
370.950599
 20
287.96948
 30
0.0
 11
370.501795
 21
287.520677
 31
0.0
 12
370.996098
 22
287.475108
 32
0.0
 13
370.996098
 23
287.475108
 33
0.0
  0
SOLID
  5
DABC
  8
WAKU
  6
CONTINUOUS
 10
374.940915
 20
287.971493
 30
0.0
 11
374.561802
 21
287.877253
 31
0.0
 12
374.950827
 22
287.596289
 32
0.0
 13
374.950827
 23
287.596289
 33
0.0
  0
SOLID
  5
DABD
  8
WAKU
  6
CONTINUOUS
 10
374.502951
 20
288.077918
 30
0.0
 11
374.561802
 21
287.877253
 31
0.0
 12
374.940915
 22
287.971493
 32
0.0
 13
374.940915
 23
287.971493
 33
0.0
  0
SOLID
  5
DABE
  8
WAKU
  6
CONTINUOUS
 10
405.753055
 20
288.130769
 30
0.0
 11
405.282694
 21
286.838462
 31
0.0
 12
408.513463
 22
286.838462
 32
0.0
 13
408.513463
 23
286.838462
 33
0.0
  0
SOLID
  5
DABF
  8
WAKU
  6
CONTINUOUS
 10
408.983824
 20
288.130769
 30
0.0
 11
405.753055
 21
288.130769
 31
0.0
 12
408.513463
 22
286.838462
 32
0.0
 13
408.513463
 23
286.838462
 33
0.0
  0
SOLID
  5
DAC0
  8
WAKU
  6
CONTINUOUS
 10
372.504269
 20
288.173821
 30
0.0
 11
371.997783
 21
287.832235
 31
0.0
 12
372.879878
 22
287.940057
 32
0.0
 13
372.879878
 23
287.940057
 33
0.0
  0
SOLID
  5
DAC1
  8
WAKU
  6
CONTINUOUS
 10
374.40481
 20
288.196249
 30
0.0
 11
373.932071
 21
287.790402
 31
0.0
 12
374.328925
 22
287.761987
 32
0.0
 13
374.328925
 23
287.761987
 33
0.0
  0
SOLID
  5
DAC2
  8
WAKU
  6
CONTINUOUS
 10
374.40481
 20
288.196249
 30
0.0
 11
374.502951
 21
288.077918
 31
0.0
 12
374.940915
 22
287.971493
 32
0.0
 13
374.940915
 23
287.971493
 33
0.0
  0
SOLID
  5
DAC3
  8
WAKU
  6
CONTINUOUS
 10
373.510738
 20
288.21124
 30
0.0
 11
372.504269
 21
288.173821
 31
0.0
 12
372.879878
 22
287.940057
 32
0.0
 13
372.879878
 23
287.940057
 33
0.0
  0
SOLID
  5
DAC4
  8
WAKU
  6
CONTINUOUS
 10
371.954587
 20
288.264284
 30
0.0
 11
370.950599
 21
287.96948
 31
0.0
 12
370.996098
 22
287.475108
 32
0.0
 13
370.996098
 23
287.475108
 33
0.0
  0
SOLID
  5
DAC5
  8
WAKU
  6
CONTINUOUS
 10
374.836612
 20
288.277967
 30
0.0
 11
374.40481
 21
288.196249
 31
0.0
 12
374.940915
 22
287.971493
 32
0.0
 13
374.940915
 23
287.971493
 33
0.0
  0
SOLID
  5
DAC6
  8
WAKU
  6
CONTINUOUS
 10
374.019229
 20
288.298569
 30
0.0
 11
372.504269
 21
288.173821
 31
0.0
 12
373.510738
 22
288.21124
 32
0.0
 13
373.510738
 23
288.21124
 33
0.0
  0
SOLID
  5
DAC7
  8
WAKU
  6
CONTINUOUS
 10
374.019229
 20
288.298569
 30
0.0
 11
374.40481
 21
288.196249
 31
0.0
 12
374.836612
 22
288.277967
 32
0.0
 13
374.836612
 23
288.277967
 33
0.0
  0
SOLID
  5
DAC8
  8
WAKU
  6
CONTINUOUS
 10
374.019229
 20
288.298569
 30
0.0
 11
373.932071
 21
287.790402
 31
0.0
 12
374.40481
 22
288.196249
 32
0.0
 13
374.40481
 23
288.196249
 33
0.0
  0
SOLID
  5
DAC9
  8
WAKU
  6
CONTINUOUS
 10
371.431374
 20
288.369826
 30
0.0
 11
370.950599
 21
287.96948
 31
0.0
 12
371.954587
 22
288.264284
 32
0.0
 13
371.954587
 23
288.264284
 33
0.0
  0
SOLID
  5
DACA
  8
WAKU
  6
CONTINUOUS
 10
373.005639
 20
288.435768
 30
0.0
 11
372.504269
 21
288.173821
 31
0.0
 12
374.019229
 22
288.298569
 32
0.0
 13
374.019229
 23
288.298569
 33
0.0
  0
SOLID
  5
DACB
  8
WAKU
  6
CONTINUOUS
 10
374.641749
 20
288.504452
 30
0.0
 11
373.005639
 21
288.435768
 31
0.0
 12
374.019229
 22
288.298569
 32
0.0
 13
374.019229
 23
288.298569
 33
0.0
  0
SOLID
  5
DACC
  8
WAKU
  6
CONTINUOUS
 10
374.641749
 20
288.504452
 30
0.0
 11
374.019229
 21
288.298569
 31
0.0
 12
374.836612
 22
288.277967
 32
0.0
 13
374.836612
 23
288.277967
 33
0.0
  0
SOLID
  5
DACD
  8
WAKU
  6
CONTINUOUS
 10
372.440235
 20
288.547585
 30
0.0
 11
371.431374
 21
288.369826
 31
0.0
 12
371.954587
 22
288.264284
 32
0.0
 13
371.954587
 23
288.264284
 33
0.0
  0
SOLID
  5
DACE
  8
WAKU
  6
CONTINUOUS
 10
373.482636
 20
288.608014
 30
0.0
 11
373.005639
 21
288.435768
 31
0.0
 12
374.641749
 22
288.504452
 32
0.0
 13
374.641749
 23
288.504452
 33
0.0
  0
SOLID
  5
DACF
  8
WAKU
  6
CONTINUOUS
 10
374.363484
 20
288.64263
 30
0.0
 11
373.482636
 21
288.608014
 31
0.0
 12
374.641749
 22
288.504452
 32
0.0
 13
374.641749
 23
288.504452
 33
0.0
  0
SOLID
  5
DAD0
  8
WAKU
  6
CONTINUOUS
 10
373.916941
 20
288.683944
 30
0.0
 11
373.482636
 21
288.608014
 31
0.0
 12
374.363484
 22
288.64263
 32
0.0
 13
374.363484
 23
288.64263
 33
0.0
  0
SOLID
  5
DAD1
  8
WAKU
  6
CONTINUOUS
 10
371.926464
 20
288.70701
 30
0.0
 11
371.431374
 21
288.369826
 31
0.0
 12
372.440235
 22
288.547585
 32
0.0
 13
372.440235
 23
288.547585
 33
0.0
  0
SOLID
  5
DAD2
  8
WAKU
  6
CONTINUOUS
 10
372.89514
 20
288.740065
 30
0.0
 11
371.926464
 21
288.70701
 31
0.0
 12
372.440235
 22
288.547585
 32
0.0
 13
372.440235
 23
288.547585
 33
0.0
  0
SOLID
  5
DAD3
  8
WAKU
  6
CONTINUOUS
 10
380.311313
 20
288.776923
 30
0.0
 11
377.155205
 21
286.192308
 31
0.0
 12
380.493667
 22
286.192308
 32
0.0
 13
380.493667
 23
286.192308
 33
0.0
  0
SOLID
  5
DAD4
  8
WAKU
  6
CONTINUOUS
 10
381.524851
 20
288.776923
 30
0.0
 11
378.095928
 21
288.776923
 31
0.0
 12
380.311313
 22
288.776923
 32
0.0
 13
380.311313
 23
288.776923
 33
0.0
  0
SOLID
  5
DAD5
  8
WAKU
  6
CONTINUOUS
 10
381.524851
 20
288.776923
 30
0.0
 11
380.311313
 21
288.776923
 31
0.0
 12
380.493667
 22
286.192308
 32
0.0
 13
380.493667
 23
286.192308
 33
0.0
  0
SOLID
  5
DAD6
  8
WAKU
  6
CONTINUOUS
 10
381.524851
 20
288.776923
 30
0.0
 11
380.493667
 21
286.192308
 31
0.0
 12
382.755205
 22
286.192308
 32
0.0
 13
382.755205
 23
286.192308
 33
0.0
  0
SOLID
  5
DAD7
  8
WAKU
  6
CONTINUOUS
 10
373.799148
 20
288.781929
 30
0.0
 11
373.916941
 21
288.683944
 31
0.0
 12
374.363484
 22
288.64263
 32
0.0
 13
374.363484
 23
288.64263
 33
0.0
  0
SOLID
  5
DAD8
  8
WAKU
  6
CONTINUOUS
 10
373.290857
 20
288.835581
 30
0.0
 11
371.926464
 21
288.70701
 31
0.0
 12
372.89514
 22
288.740065
 32
0.0
 13
372.89514
 23
288.740065
 33
0.0
  0
SOLID
  5
DAD9
  8
WAKU
  6
CONTINUOUS
 10
373.597996
 20
288.840902
 30
0.0
 11
373.799148
 21
288.781929
 31
0.0
 12
374.363484
 22
288.64263
 32
0.0
 13
374.363484
 23
288.64263
 33
0.0
  0
SOLID
  5
DADA
  8
WAKU
  6
CONTINUOUS
 10
402.042817
 20
288.884615
 30
0.0
 11
400.181958
 21
286.730769
 31
0.0
 12
401.258881
 22
286.730769
 32
0.0
 13
401.258881
 23
286.730769
 33
0.0
  0
SOLID
  5
DADB
  8
WAKU
  6
CONTINUOUS
 10
402.796663
 20
288.884615
 30
0.0
 11
401.424776
 21
285.115385
 31
0.0
 12
401.913747
 22
283.5
 32
0.0
 13
401.913747
 23
283.5
 33
0.0
  0
SOLID
  5
DADC
  8
WAKU
  6
CONTINUOUS
 10
403.873587
 20
288.884615
 30
0.0
 11
402.796663
 21
288.884615
 31
0.0
 12
401.913747
 22
283.5
 32
0.0
 13
401.913747
 23
283.5
 33
0.0
  0
SOLID
  5
DADD
  8
WAKU
  6
CONTINUOUS
 10
400.965894
 20
288.884615
 30
0.0
 11
400.181958
 21
286.730769
 31
0.0
 12
402.042817
 22
288.884615
 32
0.0
 13
402.042817
 23
288.884615
 33
0.0
  0
SOLID
  5
DADE
  8
WAKU
  6
CONTINUOUS
 10
399.858881
 20
286.730769
 30
0.0
 11
400.642817
 21
288.884615
 31
0.0
 12
399.565894
 22
288.884615
 32
0.0
 13
399.565894
 23
288.884615
 33
0.0
  0
SOLID
  5
DADF
  8
WAKU
  6
CONTINUOUS
 10
399.565894
 20
288.884615
 30
0.0
 11
398.781958
 21
286.730769
 31
0.0
 12
399.858881
 22
286.730769
 32
0.0
 13
399.858881
 23
286.730769
 33
0.0
  0
SOLID
  5
DAE0
  8
WAKU
  6
CONTINUOUS
 10
374.225306
 20
288.920895
 30
0.0
 11
373.597996
 21
288.840902
 31
0.0
 12
374.363484
 22
288.64263
 32
0.0
 13
374.363484
 23
288.64263
 33
0.0
  0
SOLID
  5
DAE1
  8
WAKU
  6
CONTINUOUS
 10
372.417683
 20
288.968648
 30
0.0
 11
373.597996
 21
288.840902
 31
0.0
 12
374.225306
 22
288.920895
 32
0.0
 13
374.225306
 23
288.920895
 33
0.0
  0
SOLID
  5
DAE2
  8
WAKU
  6
CONTINUOUS
 10
372.417683
 20
288.968648
 30
0.0
 11
373.290857
 21
288.835581
 31
0.0
 12
373.597996
 22
288.840902
 32
0.0
 13
373.597996
 23
288.840902
 33
0.0
  0
SOLID
  5
DAE3
  8
WAKU
  6
CONTINUOUS
 10
372.417683
 20
288.968648
 30
0.0
 11
371.926464
 21
288.70701
 31
0.0
 12
373.290857
 22
288.835581
 32
0.0
 13
373.290857
 23
288.835581
 33
0.0
  0
SOLID
  5
DAE4
  8
WAKU
  6
CONTINUOUS
 10
373.998821
 20
289.115757
 30
0.0
 11
372.417683
 21
288.968648
 31
0.0
 12
374.225306
 22
288.920895
 32
0.0
 13
374.225306
 23
288.920895
 33
0.0
  0
SOLID
  5
DAE5
  8
WAKU
  6
CONTINUOUS
 10
372.886988
 20
289.145129
 30
0.0
 11
372.417683
 21
288.968648
 31
0.0
 12
373.998821
 22
289.115757
 32
0.0
 13
373.998821
 23
289.115757
 33
0.0
  0
SOLID
  5
DAE6
  8
WAKU
  6
CONTINUOUS
 10
396.941687
 20
287.592308
 30
0.0
 11
396.452715
 21
289.207692
 31
0.0
 12
393.760408
 22
289.207692
 32
0.0
 13
393.760408
 23
289.207692
 33
0.0
  0
SOLID
  5
DAE7
  8
WAKU
  6
CONTINUOUS
 10
396.452715
 20
289.207692
 30
0.0
 11
396.941687
 21
287.592308
 31
0.0
 12
397.749379
 22
287.592308
 32
0.0
 13
397.749379
 23
287.592308
 33
0.0
  0
SOLID
  5
DAE8
  8
WAKU
  6
CONTINUOUS
 10
393.760408
 20
289.207692
 30
0.0
 11
391.28784
 21
287.592308
 31
0.0
 12
396.941687
 22
287.592308
 32
0.0
 13
396.941687
 23
287.592308
 33
0.0
  0
SOLID
  5
DAE9
  8
WAKU
  6
CONTINUOUS
 10
398.337331
 20
289.207692
 30
0.0
 11
396.452715
 21
289.207692
 31
0.0
 12
397.749379
 22
287.592308
 32
0.0
 13
397.749379
 23
287.592308
 33
0.0
  0
SOLID
  5
DAEA
  8
WAKU
  6
CONTINUOUS
 10
391.875792
 20
289.207692
 30
0.0
 11
391.28784
 21
287.592308
 31
0.0
 12
393.760408
 22
289.207692
 32
0.0
 13
393.760408
 23
289.207692
 33
0.0
  0
SOLID
  5
DAEB
  8
WAKU
  6
CONTINUOUS
 10
393.760408
 20
289.207692
 30
0.0
 11
392.683485
 21
289.207692
 31
0.0
 12
391.875792
 22
289.207692
 32
0.0
 13
391.875792
 23
289.207692
 33
0.0
  0
SOLID
  5
DAEC
  8
WAKU
  6
CONTINUOUS
 10
397.529638
 20
289.207692
 30
0.0
 11
396.452715
 21
289.207692
 31
0.0
 12
398.337331
 22
289.207692
 32
0.0
 13
398.337331
 23
289.207692
 33
0.0
  0
SOLID
  5
DAED
  8
WAKU
  6
CONTINUOUS
 10
373.692348
 20
289.22006
 30
0.0
 11
372.886988
 21
289.145129
 31
0.0
 12
373.998821
 22
289.115757
 32
0.0
 13
373.998821
 23
289.115757
 33
0.0
  0
SOLID
  5
DAEE
  8
WAKU
  6
CONTINUOUS
 10
373.317143
 20
289.229972
 30
0.0
 11
372.886988
 21
289.145129
 31
0.0
 12
373.692348
 22
289.22006
 32
0.0
 13
373.692348
 23
289.22006
 33
0.0
  0
SOLID
  5
DAEF
  8
WAKU
  6
CONTINUOUS
 10
378.723077
 20
290.5
 30
0.0
 11
381.524851
 21
288.776923
 31
0.0
 12
383.695928
 22
288.776923
 32
0.0
 13
383.695928
 23
288.776923
 33
0.0
  0
SOLID
  5
DAF0
  8
WAKU
  6
CONTINUOUS
 10
378.723077
 20
290.5
 30
0.0
 11
378.095928
 21
288.776923
 31
0.0
 12
381.524851
 22
288.776923
 32
0.0
 13
381.524851
 23
288.776923
 33
0.0
  0
SOLID
  5
DAF1
  8
WAKU
  6
CONTINUOUS
 10
372.249053
 20
290.5
 30
0.0
 11
367.971276
 21
290.5
 31
0.0
 12
367.971276
 22
286.222222
 32
0.0
 13
367.971276
 23
286.222222
 33
0.0
  0
SOLID
  5
DAF2
  8
WAKU
  6
CONTINUOUS
 10
409.219005
 20
288.776923
 30
0.0
 11
409.846154
 21
290.5
 31
0.0
 12
406.615385
 22
290.5
 32
0.0
 13
406.615385
 23
290.5
 33
0.0
  0
SOLID
  5
DAF3
  8
WAKU
  6
CONTINUOUS
 10
406.615385
 20
290.5
 30
0.0
 11
405.988236
 21
288.776923
 31
0.0
 12
409.219005
 22
288.776923
 32
0.0
 13
409.219005
 23
288.776923
 33
0.0
  0
SOLID
  5
DAF4
  8
WAKU
  6
CONTINUOUS
 10
392.683485
 20
289.207692
 30
0.0
 11
394.230769
 21
290.5
 31
0.0
 12
393.153846
 22
290.5
 32
0.0
 13
393.153846
 23
290.5
 33
0.0
  0
SOLID
  5
DAF5
  8
WAKU
  6
CONTINUOUS
 10
394.230769
 20
290.5
 30
0.0
 11
392.683485
 21
289.207692
 31
0.0
 12
393.760408
 22
289.207692
 32
0.0
 13
393.760408
 23
289.207692
 33
0.0
  0
SOLID
  5
DAF6
  8
WAKU
  6
CONTINUOUS
 10
409.159221
 20
285.653846
 30
0.0
 11
412.0
 21
290.5
 31
0.0
 12
410.923077
 22
290.5
 32
0.0
 13
410.923077
 23
290.5
 33
0.0
  0
SOLID
  5
DAF7
  8
WAKU
  6
CONTINUOUS
 10
412.0
 20
290.5
 30
0.0
 11
409.159221
 21
285.653846
 31
0.0
 12
409.452208
 22
283.5
 32
0.0
 13
409.452208
 23
283.5
 33
0.0
  0
SOLID
  5
DAF8
  8
WAKU
  6
CONTINUOUS
 10
384.323077
 20
290.5
 30
0.0
 11
378.723077
 21
290.5
 31
0.0
 12
383.695928
 22
288.776923
 32
0.0
 13
383.695928
 23
288.776923
 33
0.0
  0
SOLID
  5
DAF9
  8
WAKU
  6
CONTINUOUS
 10
385.615385
 20
290.5
 30
0.0
 11
384.988236
 21
288.776923
 31
0.0
 12
390.372851
 22
288.776923
 32
0.0
 13
390.372851
 23
288.776923
 33
0.0
  0
SOLID
  5
DAFA
  8
WAKU
  6
CONTINUOUS
 10
396.923077
 20
290.5
 30
0.0
 11
396.452715
 21
289.207692
 31
0.0
 12
397.529638
 22
289.207692
 32
0.0
 13
397.529638
 23
289.207692
 33
0.0
  0
SOLID
  5
DAFB
  8
WAKU
  6
CONTINUOUS
 10
391.0
 20
290.5
 30
0.0
 11
385.615385
 21
290.5
 31
0.0
 12
390.372851
 22
288.776923
 32
0.0
 13
390.372851
 23
288.776923
 33
0.0
  0
SOLID
  5
DAFC
  8
WAKU
  6
CONTINUOUS
 10
398.0
 20
290.5
 30
0.0
 11
396.923077
 21
290.5
 31
0.0
 12
397.529638
 22
289.207692
 32
0.0
 13
397.529638
 23
289.207692
 33
0.0
  0
ENDBLK
  5
DAFD
  8
0
  0
ENDSEC
  0
SECTION
  2
ENTITIES
  0
LINE
  5
DB05
  8
WAKU
 10
415.0
 20
292.0
 30
0.0
 11
415.0
 21
5.0
 31
0.0
  0
LINE
  5
DB06
  8
WAKU
 10
5.0
 20
292.0
 30
0.0
 11
5.0
 21
5.0
 31
0.0
  0
LINE
  5
DB07
  8
WAKU
 10
5.0
 20
5.0
 30
0.0
 11
415.0
 21
5.0
 31
0.0
  0
LINE
  5
DB08
  8
WAKU
 10
5.0
 20
292.0
 30
0.0
 11
415.0
 21
292.0
 31
0.0
  0
LINE
  5
DB09
  8
WAKU
 10
5.0
 20
282.0
 30
0.0
 11
415.0
 21
282.0
 31
0.0
  0
LINE
  5
DB0A
  8
WAKU
  6
CONTINUOUS
 10
393.760408
 20
289.207692
 30
0.0
 11
396.452715
 21
289.207692
 31
0.0
  0
LINE
  5
DB0B
  8
WAKU
  6
CONTINUOUS
 10
393.172456
 20
287.592308
 30
0.0
 11
395.864763
 21
287.592308
 31
0.0
  0
LINE
  5
DB0C
  8
WAKU
  6
CONTINUOUS
 10
390.39067
 20
283.5
 30
0.0
 11
395.452208
 21
283.5
 31
0.0
  0
LINE
  5
DB0D
  8
WAKU
  6
CONTINUOUS
 10
395.159221
 20
285.653846
 30
0.0
 11
395.864763
 21
287.592308
 31
0.0
  0
LINE
  5
DB0E
  8
WAKU
  6
CONTINUOUS
 10
367.971276
 20
290.5
 30
0.0
 11
372.249053
 21
290.5
 31
0.0
  0
LINE
  5
DB0F
  8
WAKU
  6
CONTINUOUS
 10
367.971276
 20
286.222222
 30
0.0
 11
372.249053
 21
290.5
 31
0.0
  0
LINE
  5
DB10
  8
WAKU
  6
CONTINUOUS
 10
367.971276
 20
290.5
 30
0.0
 11
367.971276
 21
286.222222
 31
0.0
  0
LINE
  5
DB11
  8
WAKU
  6
CONTINUOUS
 10
381.524851
 20
288.776923
 30
0.0
 11
383.695928
 21
288.776923
 31
0.0
  0
LINE
  5
DB12
  8
WAKU
  6
CONTINUOUS
 10
378.723077
 20
290.5
 30
0.0
 11
384.323077
 21
290.5
 31
0.0
  0
LINE
  5
DB13
  8
WAKU
  6
CONTINUOUS
 10
380.311313
 20
288.776923
 30
0.0
 11
377.155205
 21
286.192308
 31
0.0
  0
LINE
  5
DB14
  8
WAKU
  6
CONTINUOUS
 10
381.524851
 20
288.776923
 30
0.0
 11
382.755205
 21
286.192308
 31
0.0
  0
LINE
  5
DB15
  8
WAKU
  6
CONTINUOUS
 10
376.175285
 20
283.5
 30
0.0
 11
377.155205
 21
286.192308
 31
0.0
  0
LINE
  5
DB16
  8
WAKU
  6
CONTINUOUS
 10
379.397145
 20
286.138462
 30
0.0
 11
376.175285
 21
283.5
 31
0.0
  0
LINE
  5
DB17
  8
WAKU
  6
CONTINUOUS
 10
381.775285
 20
283.5
 30
0.0
 11
382.755205
 21
286.192308
 31
0.0
  0
LINE
  5
DB18
  8
WAKU
  6
CONTINUOUS
 10
380.493667
 20
286.192308
 30
0.0
 11
381.775285
 21
283.5
 31
0.0
  0
LINE
  5
DB19
  8
WAKU
  6
CONTINUOUS
 10
379.513747
 20
283.5
 30
0.0
 11
380.493667
 21
286.192308
 31
0.0
  0
LINE
  5
DB1A
  8
WAKU
  6
CONTINUOUS
 10
378.436824
 20
283.5
 30
0.0
 11
379.513747
 21
283.5
 31
0.0
  0
LINE
  5
DB1B
  8
WAKU
  6
CONTINUOUS
 10
378.436824
 20
283.5
 30
0.0
 11
379.397145
 21
286.138462
 31
0.0
  0
LINE
  5
DB1C
  8
WAKU
  6
CONTINUOUS
 10
378.095928
 20
288.776923
 30
0.0
 11
380.311313
 21
288.776923
 31
0.0
  0
LINE
  5
DB1D
  8
WAKU
  6
CONTINUOUS
 10
378.723077
 20
290.5
 30
0.0
 11
378.095928
 21
288.776923
 31
0.0
  0
LINE
  5
DB1E
  8
WAKU
  6
CONTINUOUS
 10
392.780488
 20
286.515385
 30
0.0
 11
393.172456
 21
287.592308
 31
0.0
  0
LINE
  5
DB1F
  8
WAKU
  6
CONTINUOUS
 10
391.703565
 20
286.515385
 30
0.0
 11
392.095533
 21
287.592308
 31
0.0
  0
LINE
  5
DB20
  8
WAKU
  6
CONTINUOUS
 10
388.452208
 20
283.5
 30
0.0
 11
389.236144
 21
285.653846
 31
0.0
  0
LINE
  5
DB21
  8
WAKU
  6
CONTINUOUS
 10
383.851529
 20
285.653846
 30
0.0
 11
389.236144
 21
285.653846
 31
0.0
  0
LINE
  5
DB22
  8
WAKU
  6
CONTINUOUS
 10
383.067593
 20
283.5
 30
0.0
 11
383.851529
 21
285.653846
 31
0.0
  0
LINE
  5
DB23
  8
WAKU
  6
CONTINUOUS
 10
383.067593
 20
283.5
 30
0.0
 11
388.452208
 21
283.5
 31
0.0
  0
LINE
  5
DB24
  8
WAKU
  6
CONTINUOUS
 10
391.174606
 20
285.653846
 30
0.0
 11
395.159221
 21
285.653846
 31
0.0
  0
LINE
  5
DB25
  8
WAKU
  6
CONTINUOUS
 10
391.703565
 20
286.515385
 30
0.0
 11
392.780488
 21
286.515385
 31
0.0
  0
LINE
  5
DB26
  8
WAKU
  6
CONTINUOUS
 10
390.39067
 20
283.5
 30
0.0
 11
391.174606
 21
285.653846
 31
0.0
  0
LINE
  5
DB27
  8
WAKU
  6
CONTINUOUS
 10
384.988236
 20
288.776923
 30
0.0
 11
390.372851
 21
288.776923
 31
0.0
  0
LINE
  5
DB28
  8
WAKU
  6
CONTINUOUS
 10
385.615385
 20
290.5
 30
0.0
 11
391.0
 21
290.5
 31
0.0
  0
LINE
  5
DB29
  8
WAKU
  6
CONTINUOUS
 10
384.988236
 20
288.776923
 30
0.0
 11
385.615385
 21
290.5
 31
0.0
  0
LINE
  5
DB2A
  8
WAKU
  6
CONTINUOUS
 10
384.323077
 20
290.5
 30
0.0
 11
383.695928
 21
288.776923
 31
0.0
  0
LINE
  5
DB2B
  8
WAKU
  6
CONTINUOUS
 10
393.153846
 20
290.5
 30
0.0
 11
394.230769
 21
290.5
 31
0.0
  0
LINE
  5
DB2C
  8
WAKU
  6
CONTINUOUS
 10
393.760408
 20
289.207692
 30
0.0
 11
394.230769
 21
290.5
 31
0.0
  0
LINE
  5
DB2D
  8
WAKU
  6
CONTINUOUS
 10
391.875792
 20
289.207692
 30
0.0
 11
392.683485
 21
289.207692
 31
0.0
  0
LINE
  5
DB2E
  8
WAKU
  6
CONTINUOUS
 10
391.28784
 20
287.592308
 30
0.0
 11
392.095533
 21
287.592308
 31
0.0
  0
LINE
  5
DB2F
  8
WAKU
  6
CONTINUOUS
 10
391.28784
 20
287.592308
 30
0.0
 11
391.875792
 21
289.207692
 31
0.0
  0
LINE
  5
DB30
  8
WAKU
  6
CONTINUOUS
 10
392.683485
 20
289.207692
 30
0.0
 11
393.153846
 21
290.5
 31
0.0
  0
LINE
  5
DB31
  8
WAKU
  6
CONTINUOUS
 10
390.372851
 20
288.776923
 30
0.0
 11
391.0
 21
290.5
 31
0.0
  0
LINE
  5
DB32
  8
WAKU
  6
CONTINUOUS
 10
405.753055
 20
288.130769
 30
0.0
 11
408.983824
 21
288.130769
 31
0.0
  0
LINE
  5
DB33
  8
WAKU
  6
CONTINUOUS
 10
405.282694
 20
286.838462
 30
0.0
 11
408.513463
 21
286.838462
 31
0.0
  0
LINE
  5
DB34
  8
WAKU
  6
CONTINUOUS
 10
409.452208
 20
283.5
 30
0.0
 11
404.067593
 21
283.5
 31
0.0
  0
LINE
  5
DB35
  8
WAKU
  6
CONTINUOUS
 10
404.851529
 20
285.653846
 30
0.0
 11
409.159221
 21
285.653846
 31
0.0
  0
LINE
  5
DB36
  8
WAKU
  6
CONTINUOUS
 10
405.988236
 20
288.776923
 30
0.0
 11
409.219005
 21
288.776923
 31
0.0
  0
LINE
  5
DB37
  8
WAKU
  6
CONTINUOUS
 10
406.615385
 20
290.5
 30
0.0
 11
409.846154
 21
290.5
 31
0.0
  0
LINE
  5
DB38
  8
WAKU
  6
CONTINUOUS
 10
398.781958
 20
286.730769
 30
0.0
 11
399.565894
 21
288.884615
 31
0.0
  0
LINE
  5
DB39
  8
WAKU
  6
CONTINUOUS
 10
400.181958
 20
286.730769
 30
0.0
 11
400.965894
 21
288.884615
 31
0.0
  0
LINE
  5
DB3A
  8
WAKU
  6
CONTINUOUS
 10
399.858881
 20
286.730769
 30
0.0
 11
400.642817
 21
288.884615
 31
0.0
  0
LINE
  5
DB3B
  8
WAKU
  6
CONTINUOUS
 10
401.258881
 20
286.730769
 30
0.0
 11
402.042817
 21
288.884615
 31
0.0
  0
LINE
  5
DB3C
  8
WAKU
  6
CONTINUOUS
 10
401.913747
 20
283.5
 30
0.0
 11
403.873587
 21
288.884615
 31
0.0
  0
LINE
  5
DB3D
  8
WAKU
  6
CONTINUOUS
 10
401.424776
 20
285.115385
 30
0.0
 11
402.796663
 21
288.884615
 31
0.0
  0
LINE
  5
DB3E
  8
WAKU
  6
CONTINUOUS
 10
395.452208
 20
283.5
 30
0.0
 11
396.941687
 21
287.592308
 31
0.0
  0
LINE
  5
DB3F
  8
WAKU
  6
CONTINUOUS
 10
397.606055
 20
283.5
 30
0.0
 11
401.913747
 21
283.5
 31
0.0
  0
LINE
  5
DB40
  8
WAKU
  6
CONTINUOUS
 10
398.781958
 20
286.730769
 30
0.0
 11
399.858881
 21
286.730769
 31
0.0
  0
LINE
  5
DB41
  8
WAKU
  6
CONTINUOUS
 10
398.194006
 20
285.115385
 30
0.0
 11
401.424776
 21
285.115385
 31
0.0
  0
LINE
  5
DB42
  8
WAKU
  6
CONTINUOUS
 10
397.606055
 20
283.5
 30
0.0
 11
398.194006
 21
285.115385
 31
0.0
  0
LINE
  5
DB43
  8
WAKU
  6
CONTINUOUS
 10
400.181958
 20
286.730769
 30
0.0
 11
401.258881
 21
286.730769
 31
0.0
  0
LINE
  5
DB44
  8
WAKU
  6
CONTINUOUS
 10
404.067593
 20
283.5
 30
0.0
 11
404.851529
 21
285.653846
 31
0.0
  0
LINE
  5
DB45
  8
WAKU
  6
CONTINUOUS
 10
400.965894
 20
288.884615
 30
0.0
 11
402.042817
 21
288.884615
 31
0.0
  0
LINE
  5
DB46
  8
WAKU
  6
CONTINUOUS
 10
396.923077
 20
290.5
 30
0.0
 11
398.0
 21
290.5
 31
0.0
  0
LINE
  5
DB47
  8
WAKU
  6
CONTINUOUS
 10
397.529638
 20
289.207692
 30
0.0
 11
398.0
 21
290.5
 31
0.0
  0
LINE
  5
DB48
  8
WAKU
  6
CONTINUOUS
 10
397.529638
 20
289.207692
 30
0.0
 11
398.337331
 21
289.207692
 31
0.0
  0
LINE
  5
DB49
  8
WAKU
  6
CONTINUOUS
 10
396.941687
 20
287.592308
 30
0.0
 11
397.749379
 21
287.592308
 31
0.0
  0
LINE
  5
DB4A
  8
WAKU
  6
CONTINUOUS
 10
397.749379
 20
287.592308
 30
0.0
 11
398.337331
 21
289.207692
 31
0.0
  0
LINE
  5
DB4B
  8
WAKU
  6
CONTINUOUS
 10
399.565894
 20
288.884615
 30
0.0
 11
400.642817
 21
288.884615
 31
0.0
  0
LINE
  5
DB4C
  8
WAKU
  6
CONTINUOUS
 10
396.452715
 20
289.207692
 30
0.0
 11
396.923077
 21
290.5
 31
0.0
  0
LINE
  5
DB4D
  8
WAKU
  6
CONTINUOUS
 10
406.615385
 20
290.5
 30
0.0
 11
405.988236
 21
288.776923
 31
0.0
  0
LINE
  5
DB4E
  8
WAKU
  6
CONTINUOUS
 10
405.753055
 20
288.130769
 30
0.0
 11
405.282694
 21
286.838462
 31
0.0
  0
LINE
  5
DB4F
  8
WAKU
  6
CONTINUOUS
 10
402.796663
 20
288.884615
 30
0.0
 11
403.873587
 21
288.884615
 31
0.0
  0
LINE
  5
DB50
  8
WAKU
  6
CONTINUOUS
 10
409.159221
 20
285.653846
 30
0.0
 11
410.923077
 21
290.5
 31
0.0
  0
LINE
  5
DB51
  8
WAKU
  6
CONTINUOUS
 10
409.452208
 20
283.5
 30
0.0
 11
412.0
 21
290.5
 31
0.0
  0
LINE
  5
DB52
  8
WAKU
  6
CONTINUOUS
 10
409.219005
 20
288.776923
 30
0.0
 11
409.846154
 21
290.5
 31
0.0
  0
LINE
  5
DB53
  8
WAKU
  6
CONTINUOUS
 10
410.923077
 20
290.5
 30
0.0
 11
412.0
 21
290.5
 31
0.0
  0
LINE
  5
DB54
  8
WAKU
  6
CONTINUOUS
 10
408.513463
 20
286.838462
 30
0.0
 11
408.983824
 21
288.130769
 31
0.0
  0
LINE
  5
DB55
  8
WAKU
  6
CONTINUOUS
 10
369.828646
 20
284.107791
 30
0.0
 11
369.966824
 21
283.829526
 31
0.0
  0
LINE
  5
DB56
  8
WAKU
  6
CONTINUOUS
 10
369.966824
 20
283.829526
 30
0.0
 11
370.193309
 21
283.634664
 31
0.0
  0
LINE
  5
DB57
  8
WAKU
  6
CONTINUOUS
 10
370.193309
 20
283.634664
 30
0.0
 11
370.499782
 21
283.530361
 31
0.0
  0
LINE
  5
DB58
  8
WAKU
  6
CONTINUOUS
 10
370.499782
 20
283.530361
 30
0.0
 11
370.874987
 21
283.520449
 31
0.0
  0
LINE
  5
DB59
  8
WAKU
  6
CONTINUOUS
 10
370.874987
 20
283.520449
 30
0.0
 11
371.305142
 21
283.605291
 31
0.0
  0
LINE
  5
DB5A
  8
WAKU
  6
CONTINUOUS
 10
371.305142
 20
283.605291
 30
0.0
 11
371.774448
 21
283.781773
 31
0.0
  0
LINE
  5
DB5B
  8
WAKU
  6
CONTINUOUS
 10
371.774448
 20
283.781773
 30
0.0
 11
372.265666
 21
284.043411
 31
0.0
  0
LINE
  5
DB5C
  8
WAKU
  6
CONTINUOUS
 10
372.265666
 20
284.043411
 30
0.0
 11
372.760756
 21
284.380595
 31
0.0
  0
LINE
  5
DB5D
  8
WAKU
  6
CONTINUOUS
 10
372.760756
 20
284.380595
 30
0.0
 11
373.241532
 21
284.780941
 31
0.0
  0
LINE
  5
DB5E
  8
WAKU
  6
CONTINUOUS
 10
373.241532
 20
284.780941
 30
0.0
 11
373.690335
 21
285.229744
 31
0.0
  0
LINE
  5
DB5F
  8
WAKU
  6
CONTINUOUS
 10
373.690335
 20
285.229744
 30
0.0
 11
374.090681
 21
285.71052
 31
0.0
  0
LINE
  5
DB60
  8
WAKU
  6
CONTINUOUS
 10
374.090681
 20
285.71052
 30
0.0
 11
374.427865
 21
286.205609
 31
0.0
  0
LINE
  5
DB61
  8
WAKU
  6
CONTINUOUS
 10
374.427865
 20
286.205609
 30
0.0
 11
374.689503
 21
286.696828
 31
0.0
  0
LINE
  5
DB62
  8
WAKU
  6
CONTINUOUS
 10
374.689503
 20
286.696828
 30
0.0
 11
374.865984
 21
287.166134
 31
0.0
  0
LINE
  5
DB63
  8
WAKU
  6
CONTINUOUS
 10
374.865984
 20
287.166134
 30
0.0
 11
374.950827
 21
287.596289
 31
0.0
  0
LINE
  5
DB64
  8
WAKU
  6
CONTINUOUS
 10
374.950827
 20
287.596289
 30
0.0
 11
374.940915
 21
287.971493
 31
0.0
  0
LINE
  5
DB65
  8
WAKU
  6
CONTINUOUS
 10
374.940915
 20
287.971493
 30
0.0
 11
374.836612
 21
288.277967
 31
0.0
  0
LINE
  5
DB66
  8
WAKU
  6
CONTINUOUS
 10
374.836612
 20
288.277967
 30
0.0
 11
374.641749
 21
288.504452
 31
0.0
  0
LINE
  5
DB67
  8
WAKU
  6
CONTINUOUS
 10
374.641749
 20
288.504452
 30
0.0
 11
374.363484
 21
288.64263
 31
0.0
  0
LINE
  5
DB68
  8
WAKU
  6
CONTINUOUS
 10
373.916941
 20
288.683944
 30
0.0
 11
373.482636
 21
288.608014
 31
0.0
  0
LINE
  5
DB69
  8
WAKU
  6
CONTINUOUS
 10
373.482636
 20
288.608014
 30
0.0
 11
373.005639
 21
288.435768
 31
0.0
  0
LINE
  5
DB6A
  8
WAKU
  6
CONTINUOUS
 10
373.005639
 20
288.435768
 30
0.0
 11
372.504269
 21
288.173821
 31
0.0
  0
LINE
  5
DB6B
  8
WAKU
  6
CONTINUOUS
 10
372.504269
 20
288.173821
 30
0.0
 11
371.997783
 21
287.832235
 31
0.0
  0
LINE
  5
DB6C
  8
WAKU
  6
CONTINUOUS
 10
371.997783
 20
287.832235
 30
0.0
 11
371.505632
 21
287.424128
 31
0.0
  0
LINE
  5
DB6D
  8
WAKU
  6
CONTINUOUS
 10
371.505632
 20
287.424128
 30
0.0
 11
371.04672
 21
286.965174
 31
0.0
  0
LINE
  5
DB6E
  8
WAKU
  6
CONTINUOUS
 10
371.04672
 20
286.965174
 30
0.0
 11
370.638671
 21
286.473
 31
0.0
  0
LINE
  5
DB6F
  8
WAKU
  6
CONTINUOUS
 10
370.638671
 20
286.473
 30
0.0
 11
370.297156
 21
285.966509
 31
0.0
  0
LINE
  5
DB70
  8
WAKU
  6
CONTINUOUS
 10
370.297156
 20
285.966509
 30
0.0
 11
370.035293
 21
285.465154
 31
0.0
  0
LINE
  5
DB71
  8
WAKU
  6
CONTINUOUS
 10
370.035293
 20
285.465154
 30
0.0
 11
369.863139
 21
284.988189
 31
0.0
  0
LINE
  5
DB72
  8
WAKU
  6
CONTINUOUS
 10
369.863139
 20
284.988189
 30
0.0
 11
369.787305
 21
284.553935
 31
0.0
  0
LINE
  5
DB73
  8
WAKU
  6
CONTINUOUS
 10
370.172911
 20
284.451856
 30
0.0
 11
370.681395
 21
284.539195
 31
0.0
  0
LINE
  5
DB74
  8
WAKU
  6
CONTINUOUS
 10
370.681395
 20
284.539195
 30
0.0
 11
371.312263
 21
284.810332
 31
0.0
  0
LINE
  5
DB75
  8
WAKU
  6
CONTINUOUS
 10
371.312263
 20
284.810332
 30
0.0
 11
371.98994
 21
285.251431
 31
0.0
  0
LINE
  5
DB76
  8
WAKU
  6
CONTINUOUS
 10
371.98994
 20
285.251431
 30
0.0
 11
372.646296
 21
285.825506
 31
0.0
  0
LINE
  5
DB77
  8
WAKU
  6
CONTINUOUS
 10
372.646296
 20
285.825506
 30
0.0
 11
373.220238
 21
286.48192
 31
0.0
  0
LINE
  5
DB78
  8
WAKU
  6
CONTINUOUS
 10
373.220238
 20
286.48192
 30
0.0
 11
373.661353
 21
287.159534
 31
0.0
  0
LINE
  5
DB79
  8
WAKU
  6
CONTINUOUS
 10
373.661353
 20
287.159534
 30
0.0
 11
373.932071
 21
287.790402
 31
0.0
  0
LINE
  5
DB7A
  8
WAKU
  6
CONTINUOUS
 10
373.932071
 20
287.790402
 30
0.0
 11
374.019229
 21
288.298569
 31
0.0
  0
LINE
  5
DB7B
  8
WAKU
  6
CONTINUOUS
 10
373.916941
 20
288.683944
 30
0.0
 11
373.799148
 21
288.781929
 31
0.0
  0
LINE
  5
DB7C
  8
WAKU
  6
CONTINUOUS
 10
373.799148
 20
288.781929
 30
0.0
 11
373.597996
 21
288.840902
 31
0.0
  0
LINE
  5
DB7D
  8
WAKU
  6
CONTINUOUS
 10
373.597996
 20
288.840902
 30
0.0
 11
373.290857
 21
288.835581
 31
0.0
  0
LINE
  5
DB7E
  8
WAKU
  6
CONTINUOUS
 10
373.290857
 20
288.835581
 30
0.0
 11
372.89514
 21
288.740065
 31
0.0
  0
LINE
  5
DB7F
  8
WAKU
  6
CONTINUOUS
 10
372.89514
 20
288.740065
 30
0.0
 11
372.440235
 21
288.547585
 31
0.0
  0
LINE
  5
DB80
  8
WAKU
  6
CONTINUOUS
 10
372.440235
 20
288.547585
 30
0.0
 11
371.954587
 21
288.264284
 31
0.0
  0
LINE
  5
DB81
  8
WAKU
  6
CONTINUOUS
 10
371.954587
 20
288.264284
 30
0.0
 11
370.996098
 21
287.475108
 31
0.0
  0
LINE
  5
DB82
  8
WAKU
  6
CONTINUOUS
 10
370.996098
 20
287.475108
 30
0.0
 11
370.207035
 21
286.51657
 31
0.0
  0
LINE
  5
DB83
  8
WAKU
  6
CONTINUOUS
 10
370.207035
 20
286.51657
 30
0.0
 11
369.923519
 21
286.031028
 31
0.0
  0
LINE
  5
DB84
  8
WAKU
  6
CONTINUOUS
 10
369.923519
 20
286.031028
 30
0.0
 11
369.73149
 21
285.576021
 31
0.0
  0
LINE
  5
DB85
  8
WAKU
  6
CONTINUOUS
 10
369.73149
 20
285.576021
 30
0.0
 11
369.635696
 21
285.180404
 31
0.0
  0
LINE
  5
DB86
  8
WAKU
  6
CONTINUOUS
 10
369.635696
 20
285.180404
 30
0.0
 11
369.630358
 21
284.873087
 31
0.0
  0
LINE
  5
DB87
  8
WAKU
  6
CONTINUOUS
 10
369.630358
 20
284.873087
 30
0.0
 11
369.689155
 21
284.672435
 31
0.0
  0
LINE
  5
DB88
  8
WAKU
  6
CONTINUOUS
 10
369.689155
 20
284.672435
 30
0.0
 11
369.787305
 21
284.553935
 31
0.0
  0
LINE
  5
DB89
  8
WAKU
  6
CONTINUOUS
 10
370.275177
 20
284.066476
 30
0.0
 11
370.392927
 21
283.968568
 31
0.0
  0
LINE
  5
DB8A
  8
WAKU
  6
CONTINUOUS
 10
370.392927
 20
283.968568
 30
0.0
 11
370.594177
 21
283.909498
 31
0.0
  0
LINE
  5
DB8B
  8
WAKU
  6
CONTINUOUS
 10
370.594177
 20
283.909498
 30
0.0
 11
370.901294
 21
283.914863
 31
0.0
  0
LINE
  5
DB8C
  8
WAKU
  6
CONTINUOUS
 10
370.901294
 20
283.914863
 30
0.0
 11
371.296984
 21
284.010368
 31
0.0
  0
LINE
  5
DB8D
  8
WAKU
  6
CONTINUOUS
 10
371.296984
 20
284.010368
 30
0.0
 11
371.751882
 21
284.202798
 31
0.0
  0
LINE
  5
DB8E
  8
WAKU
  6
CONTINUOUS
 10
371.751882
 20
284.202798
 30
0.0
 11
372.237497
 21
284.486117
 31
0.0
  0
LINE
  5
DB8F
  8
WAKU
  6
CONTINUOUS
 10
372.237497
 20
284.486117
 30
0.0
 11
373.195965
 21
285.275232
 31
0.0
  0
LINE
  5
DB90
  8
WAKU
  6
CONTINUOUS
 10
373.195965
 20
285.275232
 30
0.0
 11
373.98505
 21
286.233718
 31
0.0
  0
LINE
  5
DB91
  8
WAKU
  6
CONTINUOUS
 10
373.98505
 20
286.233718
 30
0.0
 11
374.268507
 21
286.719278
 31
0.0
  0
LINE
  5
DB92
  8
WAKU
  6
CONTINUOUS
 10
374.268507
 20
286.719278
 30
0.0
 11
374.46071
 21
287.174248
 31
0.0
  0
LINE
  5
DB93
  8
WAKU
  6
CONTINUOUS
 10
374.46071
 20
287.174248
 30
0.0
 11
374.556361
 21
287.569864
 31
0.0
  0
LINE
  5
DB94
  8
WAKU
  6
CONTINUOUS
 10
374.556361
 20
287.569864
 30
0.0
 11
374.561802
 21
287.877253
 31
0.0
  0
LINE
  5
DB95
  8
WAKU
  6
CONTINUOUS
 10
374.561802
 20
287.877253
 30
0.0
 11
374.502951
 21
288.077918
 31
0.0
  0
LINE
  5
DB96
  8
WAKU
  6
CONTINUOUS
 10
374.502951
 20
288.077918
 30
0.0
 11
374.40481
 21
288.196249
 31
0.0
  0
LINE
  5
DB97
  8
WAKU
  6
CONTINUOUS
 10
374.019229
 20
288.298569
 30
0.0
 11
373.510738
 21
288.21124
 31
0.0
  0
LINE
  5
DB98
  8
WAKU
  6
CONTINUOUS
 10
373.510738
 20
288.21124
 30
0.0
 11
372.879878
 21
287.940057
 31
0.0
  0
LINE
  5
DB99
  8
WAKU
  6
CONTINUOUS
 10
372.879878
 20
287.940057
 30
0.0
 11
372.202181
 21
287.498991
 31
0.0
  0
LINE
  5
DB9A
  8
WAKU
  6
CONTINUOUS
 10
372.202181
 20
287.498991
 30
0.0
 11
371.545827
 21
286.924893
 31
0.0
  0
LINE
  5
DB9B
  8
WAKU
  6
CONTINUOUS
 10
371.545827
 20
286.924893
 30
0.0
 11
370.971896
 21
286.268471
 31
0.0
  0
LINE
  5
DB9C
  8
WAKU
  6
CONTINUOUS
 10
370.971896
 20
286.268471
 30
0.0
 11
370.530712
 21
285.590875
 31
0.0
  0
LINE
  5
DB9D
  8
WAKU
  6
CONTINUOUS
 10
370.530712
 20
285.590875
 30
0.0
 11
370.260168
 21
284.959969
 31
0.0
  0
LINE
  5
DB9E
  8
WAKU
  6
CONTINUOUS
 10
370.260168
 20
284.959969
 30
0.0
 11
370.172911
 21
284.451856
 31
0.0
  0
LINE
  5
DB9F
  8
WAKU
  6
CONTINUOUS
 10
370.275177
 20
284.066476
 30
0.0
 11
370.709458
 21
284.142397
 31
0.0
  0
LINE
  5
DBA0
  8
WAKU
  6
CONTINUOUS
 10
370.709458
 20
284.142397
 30
0.0
 11
371.186428
 21
284.314625
 31
0.0
  0
LINE
  5
DBA1
  8
WAKU
  6
CONTINUOUS
 10
371.186428
 20
284.314625
 30
0.0
 11
371.68777
 21
284.576545
 31
0.0
  0
LINE
  5
DBA2
  8
WAKU
  6
CONTINUOUS
 10
371.68777
 20
284.576545
 30
0.0
 11
372.194232
 21
284.918099
 31
0.0
  0
LINE
  5
DBA3
  8
WAKU
  6
CONTINUOUS
 10
372.194232
 20
284.918099
 30
0.0
 11
372.686363
 21
285.326171
 31
0.0
  0
LINE
  5
DBA4
  8
WAKU
  6
CONTINUOUS
 10
372.686363
 20
285.326171
 30
0.0
 11
373.145266
 21
285.785089
 31
0.0
  0
LINE
  5
DBA5
  8
WAKU
  6
CONTINUOUS
 10
373.145266
 20
285.785089
 30
0.0
 11
373.553316
 21
286.277229
 31
0.0
  0
LINE
  5
DBA6
  8
WAKU
  6
CONTINUOUS
 10
373.553316
 20
286.277229
 30
0.0
 11
373.894843
 21
286.783693
 31
0.0
  0
LINE
  5
DBA7
  8
WAKU
  6
CONTINUOUS
 10
373.894843
 20
286.783693
 30
0.0
 11
374.156732
 21
287.28503
 31
0.0
  0
LINE
  5
DBA8
  8
WAKU
  6
CONTINUOUS
 10
374.156732
 20
287.28503
 30
0.0
 11
374.328925
 21
287.761987
 31
0.0
  0
LINE
  5
DBA9
  8
WAKU
  6
CONTINUOUS
 10
374.328925
 20
287.761987
 30
0.0
 11
374.40481
 21
288.196249
 31
0.0
  0
LINE
  5
DBAA
  8
WAKU
  6
CONTINUOUS
 10
374.363484
 20
288.64263
 30
0.0
 11
374.225306
 21
288.920895
 31
0.0
  0
LINE
  5
DBAB
  8
WAKU
  6
CONTINUOUS
 10
374.225306
 20
288.920895
 30
0.0
 11
373.998821
 21
289.115757
 31
0.0
  0
LINE
  5
DBAC
  8
WAKU
  6
CONTINUOUS
 10
373.998821
 20
289.115757
 30
0.0
 11
373.692348
 21
289.22006
 31
0.0
  0
LINE
  5
DBAD
  8
WAKU
  6
CONTINUOUS
 10
373.692348
 20
289.22006
 30
0.0
 11
373.317143
 21
289.229972
 31
0.0
  0
LINE
  5
DBAE
  8
WAKU
  6
CONTINUOUS
 10
373.317143
 20
289.229972
 30
0.0
 11
372.886988
 21
289.145129
 31
0.0
  0
LINE
  5
DBAF
  8
WAKU
  6
CONTINUOUS
 10
372.886988
 20
289.145129
 30
0.0
 11
372.417683
 21
288.968648
 31
0.0
  0
LINE
  5
DBB0
  8
WAKU
  6
CONTINUOUS
 10
372.417683
 20
288.968648
 30
0.0
 11
371.926464
 21
288.70701
 31
0.0
  0
LINE
  5
DBB1
  8
WAKU
  6
CONTINUOUS
 10
371.926464
 20
288.70701
 30
0.0
 11
371.431374
 21
288.369826
 31
0.0
  0
LINE
  5
DBB2
  8
WAKU
  6
CONTINUOUS
 10
371.431374
 20
288.369826
 30
0.0
 11
370.950599
 21
287.96948
 31
0.0
  0
LINE
  5
DBB3
  8
WAKU
  6
CONTINUOUS
 10
370.950599
 20
287.96948
 30
0.0
 11
370.501795
 21
287.520677
 31
0.0
  0
LINE
  5
DBB4
  8
WAKU
  6
CONTINUOUS
 10
370.501795
 20
287.520677
 30
0.0
 11
370.101449
 21
287.039901
 31
0.0
  0
LINE
  5
DBB5
  8
WAKU
  6
CONTINUOUS
 10
370.101449
 20
287.039901
 30
0.0
 11
369.764265
 21
286.544812
 31
0.0
  0
LINE
  5
DBB6
  8
WAKU
  6
CONTINUOUS
 10
369.764265
 20
286.544812
 30
0.0
 11
369.502627
 21
286.053593
 31
0.0
  0
LINE
  5
DBB7
  8
WAKU
  6
CONTINUOUS
 10
369.502627
 20
286.053593
 30
0.0
 11
369.326146
 21
285.584287
 31
0.0
  0
LINE
  5
DBB8
  8
WAKU
  6
CONTINUOUS
 10
369.326146
 20
285.584287
 30
0.0
 11
369.241303
 21
285.154132
 31
0.0
  0
LINE
  5
DBB9
  8
WAKU
  6
CONTINUOUS
 10
369.241303
 20
285.154132
 30
0.0
 11
369.251215
 21
284.778928
 31
0.0
  0
LINE
  5
DBBA
  8
WAKU
  6
CONTINUOUS
 10
369.251215
 20
284.778928
 30
0.0
 11
369.355518
 21
284.472454
 31
0.0
  0
LINE
  5
DBBB
  8
WAKU
  6
CONTINUOUS
 10
369.355518
 20
284.472454
 30
0.0
 11
369.550381
 21
284.245969
 31
0.0
  0
LINE
  5
DBBC
  8
WAKU
  6
CONTINUOUS
 10
369.550381
 20
284.245969
 30
0.0
 11
369.828646
 21
284.107791
 31
0.0
  0
INSERT
  5
DBBD
  8
WAKU
  6
CONTINUOUS
  2
*U0
 10
0.0
 20
0.0
 30
0.0
  0
TEXT
  5
10375
  8
WAKU
 10
10.0
 20
285.5
 30
0.0
 40
3.0
  1
FNS-70AT
 41
0.868
 11
10.0
 21
287.0
 31
0.0
 73
     2
  0
TEXT
  5
185DB
  8
WAKU
 10
35.0
 20
284.5
 30
0.0
 40
5.0
  1
外動片引き断面詳細図(SBﾀｲプ)　防火戸　非防火戸
 11
35.0
 21
287.0
 31
0.0
 73
     2
  0
ARC
  5
1AD9F
  8
DANMEN
  6
CONTINUOUS
 10
203.0
 20
164.0
 30
0.0
 40
1.0
 50
90.0
 51
180.0
  0
LINE
  5
1ADA0
  8
DANMEN
  6
CONTINUOUS
 10
189.949997
 20
149.05
 30
0.0
 11
202.050003
 21
149.05
 31
0.0
  0
ARC
  5
1ADA1
  8
DANMEN
  6
CONTINUOUS
 10
202.538889
 20
127.5
 30
0.0
 40
0.5
 50
175.710803
 51
270.0
  0
LINE
  5
1ADA2
  8
DANMEN
  6
CONTINUOUS
 10
189.949997
 20
132.949997
 30
0.0
 11
202.050003
 21
132.949997
 31
0.0
  0
LINE
  5
1ADA3
  8
DANMEN
  6
CONTINUOUS
 10
189.699982
 20
131.0
 30
0.0
 11
202.299988
 21
131.0
 31
0.0
  0
LINE
  5
1ADA4
  8
DANMEN
  6
CONTINUOUS
 10
185.0
 20
124.0
 30
0.0
 11
240.25
 21
124.0
 31
0.0
  0
LINE
  5
1ADA5
  8
DANMEN
  6
CONTINUOUS
 10
172.0
 20
92.0
 30
0.0
 11
240.25
 21
92.0
 31
0.0
  0
LINE
  5
1ADA6
  8
DANMEN
  6
CONTINUOUS
 10
185.0
 20
88.0
 30
0.0
 11
240.25
 21
88.0
 31
0.0
  0
LINE
  5
1ADA7
  8
DANMEN
  6
CONTINUOUS
 10
173.51044
 20
130.502283
 30
0.0
 11
176.270495
 21
124.0
 31
0.0
  0
LINE
  5
1ADA8
  8
DANMEN
  6
CONTINUOUS
 10
185.000004
 20
125.744506
 30
0.0
 11
185.000004
 21
124.0
 31
0.0
  0
LINE
  5
1ADA9
  8
DANMEN
  6
CONTINUOUS
 10
37.199997
 20
166.5
 30
0.0
 11
37.199997
 21
111.5
 31
0.0
  0
LINE
  5
1ADAA
  8
DANMEN
  6
CONTINUOUS
 10
70.800003
 20
166.5
 30
0.0
 11
70.800003
 21
82.0
 31
0.0
  0
LINE
  5
1ADAB
  8
DANMEN
  6
CONTINUOUS
 10
68.850006
 20
143.050003
 30
0.0
 11
68.850006
 21
112.0
 31
0.0
  0
LINE
  5
1ADAC
  8
DANMEN
  6
CONTINUOUS
 10
39.149994
 20
138.0
 30
0.0
 11
39.149994
 21
111.949997
 31
0.0
  0
LINE
  5
1ADAD
  8
DANMEN
  6
CONTINUOUS
 10
81.0
 20
134.500003
 30
0.0
 11
81.0
 21
93.5
 31
0.0
  0
LINE
  5
1ADAE
  8
DANMEN
  6
CONTINUOUS
 10
116.8
 20
134.500003
 30
0.0
 11
116.8
 21
114.500003
 31
0.0
  0
LINE
  5
1ADAF
  8
DANMEN
  6
CONTINUOUS
 10
115.15
 20
133.350006
 30
0.0
 11
115.15
 21
123.500003
 31
0.0
  0
LINE
  5
1ADB0
  8
DANMEN
  6
CONTINUOUS
 10
82.65
 20
130.000003
 30
0.0
 11
82.65
 21
113.000003
 31
0.0
  0
LINE
  5
1ADB1
  8
DANMEN
  6
CONTINUOUS
 10
112.5
 20
123.500003
 30
0.0
 11
112.5
 21
124.500003
 31
0.0
  0
LINE
  5
1ADB2
  8
DANMEN
  6
CONTINUOUS
 10
111.5
 20
121.500003
 30
0.0
 11
111.5
 21
124.500003
 31
0.0
  0
LINE
  5
1ADB3
  8
DANMEN
  6
CONTINUOUS
 10
172.0
 20
136.5
 30
0.0
 11
172.0
 21
121.6
 31
0.0
  0
LINE
  5
1ADB4
  8
DANMEN
  6
CONTINUOUS
 10
170.350006
 20
156.350006
 30
0.0
 11
170.350006
 21
89.649994
 31
0.0
  0
LINE
  5
1ADB5
  8
DANMEN
  6
CONTINUOUS
 10
73.0
 20
171.0
 30
0.0
 11
73.0
 21
81.5
 31
0.0
  0
LINE
  5
1ADB6
  8
DANMEN
  6
CONTINUOUS
 10
35.0
 20
171.0
 30
0.0
 11
35.0
 21
111.5
 31
0.0
  0
LINE
  5
1ADB7
  8
DANMEN
  6
CONTINUOUS
 10
119.0
 20
171.0
 30
0.0
 11
119.0
 21
114.500003
 31
0.0
  0
LINE
  5
1ADB8
  8
DANMEN
  6
CONTINUOUS
 10
75.5
 20
171.0
 30
0.0
 11
75.5
 21
93.0
 31
0.0
  0
LINE
  5
1ADB9
  8
DANMEN
  6
DASHED
 10
78.5
 20
171.0
 30
0.0
 11
78.5
 21
93.0
 31
0.0
  0
LINE
  5
1ADBA
  8
DANMEN
  6
CONTINUOUS
 10
103.15
 20
120.000007
 30
0.0
 11
103.15
 21
171.000005
 31
0.0
  0
LINE
  5
1ADBB
  8
DANMEN
  6
CONTINUOUS
 10
98.15
 20
120.000007
 30
0.0
 11
98.15
 21
171.000005
 31
0.0
  0
LINE
  5
1ADBC
  8
DANMEN
  6
CONTINUOUS
 10
91.85
 20
120.000007
 30
0.0
 11
91.85
 21
171.000005
 31
0.0
  0
LINE
  5
1ADBD
  8
DANMEN
  6
CONTINUOUS
 10
96.85
 20
120.000007
 30
0.0
 11
96.85
 21
171.000005
 31
0.0
  0
LINE
  5
1ADBE
  8
DANMEN
  6
CONTINUOUS
 10
103.65
 20
120.000007
 30
0.0
 11
103.65
 21
171.000005
 31
0.0
  0
LINE
  5
1ADBF
  8
DANMEN
  6
CONTINUOUS
 10
91.35
 20
120.000007
 30
0.0
 11
91.35
 21
171.000005
 31
0.0
  0
LINE
  5
1ADC0
  8
DANMEN
  6
CONTINUOUS
 10
97.65
 20
120.000007
 30
0.0
 11
97.65
 21
171.000005
 31
0.0
  0
LINE
  5
1ADC1
  8
DANMEN
  6
CONTINUOUS
 10
97.35
 20
120.000007
 30
0.0
 11
97.35
 21
171.000005
 31
0.0
  0
LINE
  5
1ADC2
  8
DANMEN
  6
CONTINUOUS
 10
93.5
 20
58.803636
 30
0.0
 11
68.5
 21
48.0
 31
0.0
  0
LINE
  5
1ADC3
  8
DANMEN
  6
CONTINUOUS
 10
94.563803
 20
57.474726
 30
0.0
 11
69.054612
 21
46.43964
 31
0.0
  0
LINE
  5
1ADC4
  8
DANMEN
  6
CONTINUOUS
 10
69.850006
 20
80.050003
 30
0.0
 11
71.050003
 21
80.050003
 31
0.0
  0
LINE
  5
1ADC5
  8
DANMEN
  6
CONTINUOUS
 10
71.050003
 20
70.000004
 30
0.0
 11
68.850006
 21
70.000003
 31
0.0
  0
LINE
  5
1ADC7
  8
DANMEN
  6
CONTINUOUS
 10
65.0
 20
53.0
 30
0.0
 11
73.0
 21
53.0
 31
0.0
  0
LINE
  5
1ADC8
  8
DANMEN
  6
CONTINUOUS
 10
55.5
 20
33.0
 30
0.0
 11
112.0
 21
33.0
 31
0.0
  0
LINE
  5
1ADC9
  8
DANMEN
  6
CONTINUOUS
 10
55.5
 20
33.649994
 30
0.0
 11
55.5
 21
24.5
 31
0.0
  0
LINE
  5
1ADCA
  8
DANMEN
  6
CONTINUOUS
 10
54.0
 20
33.0
 30
0.0
 11
54.0
 21
24.5
 31
0.0
  0
ARC
  5
1ADCB
  8
DANMEN
  6
CONTINUOUS
 10
54.5
 20
24.5
 30
0.0
 40
0.5
 50
180.000019
 51
270.000001
  0
ARC
  5
1ADCC
  8
DANMEN
  6
CONTINUOUS
 10
55.0
 20
24.5
 30
0.0
 40
0.5
 50
270.000018
 51
0.0
  0
LINE
  5
1ADCD
  8
DANMEN
  6
CONTINUOUS
 10
54.5
 20
24.0
 30
0.0
 11
55.0
 21
24.0
 31
0.0
  0
LINE
  5
1ADCE
  8
DANMEN
  6
CONTINUOUS
 10
63.0
 20
57.0
 30
0.0
 11
63.0
 21
102.000008
 31
0.0
  0
LINE
  5
1ADCF
  8
DANMEN
  6
CONTINUOUS
 10
59.0
 20
57.0
 30
0.0
 11
59.0
 21
102.000008
 31
0.0
  0
LINE
  5
1ADD0
  8
DANMEN
  6
CONTINUOUS
 10
56.799999
 20
102.000008
 30
0.0
 11
56.799999
 21
57.0
 31
0.0
  0
LINE
  5
1ADD1
  8
DANMEN
  6
CONTINUOUS
 10
65.200001
 20
102.000008
 30
0.0
 11
65.200001
 21
57.0
 31
0.0
  0
LINE
  5
1ADD2
  8
DANMEN
  6
CONTINUOUS
 10
56.600002
 20
70.500004
 30
0.0
 11
56.600002
 21
88.500004
 31
0.0
  0
LINE
  5
1ADD3
  8
DANMEN
  6
CONTINUOUS
 10
65.399998
 20
88.500004
 30
0.0
 11
65.399998
 21
70.500004
 31
0.0
  0
LINE
  5
1ADD4
  8
DANMEN
  6
CONTINUOUS
 10
49.011315
 20
52.945203
 30
0.0
 11
49.0
 21
110.0
 31
0.0
  0
LINE
  5
1ADD5
  8
DANMEN
  6
CONTINUOUS
 10
47.501954
 20
110.0
 30
0.0
 11
47.964828
 21
52.464565
 31
0.0
  0
LINE
  5
1ADD6
  8
DANMEN
  6
CONTINUOUS
 10
48.711313
 20
52.958301
 30
0.0
 11
48.699999
 21
110.006521
 31
0.0
  0
LINE
  5
1ADD7
  8
DANMEN
  6
CONTINUOUS
 10
53.149994
 20
105.0
 30
0.0
 11
53.149994
 21
69.0
 31
0.0
  0
LINE
  5
1ADD8
  8
DANMEN
  6
CONTINUOUS
 10
51.199997
 20
110.0
 30
0.0
 11
51.199997
 21
53.5
 31
0.0
  0
LINE
  5
1ADD9
  8
DANMEN
  6
CONTINUOUS
 10
43.649994
 20
110.0
 30
0.0
 11
43.649994
 21
35.0
 31
0.0
  0
LINE
  5
1ADDA
  8
DANMEN
  6
CONTINUOUS
 10
42.0
 20
110.0
 30
0.0
 11
42.0
 21
36.641644
 31
0.0
  0
ARC
  5
1ADDB
  8
DANMEN
  6
CONTINUOUS
 10
51.596175
 20
54.834251
 30
0.0
 40
0.5
 50
357.5
 51
177.5
  0
LINE
  5
1ADDC
  8
DANMEN
  6
CONTINUOUS
 10
60.850006
 20
55.847046
 30
0.0
 11
60.850006
 21
48.0
 31
0.0
  0
LINE
  5
1ADDD
  8
DANMEN
  6
CONTINUOUS
 10
62.5
 20
59.29129
 30
0.0
 11
62.5
 21
48.0
 31
0.0
  0
LINE
  5
1ADDE
  8
DANMEN
  6
CONTINUOUS
 10
53.149994
 20
67.999999
 30
0.0
 11
53.149994
 21
53.5
 31
0.0
  0
LINE
  5
1ADDF
  8
DANMEN
  6
CONTINUOUS
 10
65.0
 20
59.0
 30
0.0
 11
65.0
 21
53.0
 31
0.0
  0
LINE
  5
1ADE0
  8
DANMEN
  6
CONTINUOUS
 10
57.0
 20
59.0
 30
0.0
 11
57.0
 21
53.0
 31
0.0
  0
ARC
  5
1ADE1
  8
DANMEN
  6
CONTINUOUS
 10
55.00999
 20
46.0
 30
0.0
 40
2.0
 50
90.0
 51
118.610582
  0
LINE
  5
1ADE2
  8
DANMEN
  6
CONTINUOUS
 10
54.920742
 20
46.35
 30
0.0
 11
50.649994
 21
44.020489
 31
0.0
  0
LINE
  5
1ADE3
  8
DANMEN
  6
CONTINUOUS
 10
50.649994
 20
34.649994
 30
0.0
 11
54.5
 21
34.649994
 31
0.0
  0
LINE
  5
1ADE4
  8
DANMEN
  6
CONTINUOUS
 10
52.949997
 20
53.0
 30
0.0
 11
57.0
 21
53.0
 31
0.0
  0
LINE
  5
1ADE5
  8
DANMEN
  6
CONTINUOUS
 10
50.649994
 20
44.020489
 30
0.0
 11
50.649994
 21
34.649994
 31
0.0
  0
LINE
  5
1ADE6
  8
DANMEN
  6
CONTINUOUS
 10
49.0
 20
44.406353
 30
0.0
 11
49.0
 21
35.0
 31
0.0
  0
LINE
  5
1ADE7
  8
DANMEN
  6
CONTINUOUS
 10
42.800003
 20
33.9
 30
0.0
 11
49.0
 21
33.9
 31
0.0
  0
LINE
  5
1ADE8
  8
DANMEN
  6
CONTINUOUS
 10
43.1
 20
35.0
 30
0.0
 11
49.0
 21
35.0
 31
0.0
  0
LINE
  5
1ADE9
  8
DANMEN
  6
CONTINUOUS
 10
42.402221
 20
33.0
 30
0.0
 11
49.5
 21
33.0
 31
0.0
  0
LINE
  5
1ADEA
  8
DANMEN
  6
CONTINUOUS
 10
40.199997
 20
42.399994
 30
0.0
 11
40.199997
 21
37.429842
 31
0.0
  0
LINE
  5
1ADEB
  8
DANMEN
  6
CONTINUOUS
 10
39.0
 20
42.399994
 30
0.0
 11
39.0
 21
37.10902
 31
0.0
  0
LINE
  5
1ADEC
  8
DANMEN
  6
CONTINUOUS
 10
40.199997
 20
37.429842
 30
0.0
 11
42.823607
 21
36.118037
 31
0.0
  0
ARC
  5
1ADED
  8
DANMEN
  6
CONTINUOUS
 10
42.399994
 20
33.399994
 30
0.0
 40
0.4
 50
180.000019
 51
359.999983
  0
LINE
  5
1ADEE
  8
DANMEN
  6
CONTINUOUS
 10
39.276393
 20
36.661806
 30
0.0
 11
42.0
 21
35.300003
 31
0.0
  0
ARC
  5
1ADEF
  8
DANMEN
  6
CONTINUOUS
 10
39.5
 20
37.10902
 30
0.0
 40
0.5
 50
180.0
 51
243.434949
  0
LINE
  5
1ADF0
  8
DANMEN
  6
CONTINUOUS
 10
42.0
 20
35.300003
 30
0.0
 11
42.0
 21
33.399994
 31
0.0
  0
ARC
  5
1ADF1
  8
DANMEN
  6
CONTINUOUS
 10
42.6
 20
35.670823
 30
0.0
 40
0.5
 50
0.0
 51
63.434949
  0
LINE
  5
1ADF2
  8
DANMEN
  6
CONTINUOUS
 10
43.1
 20
35.670823
 30
0.0
 11
43.1
 21
35.0
 31
0.0
  0
LINE
  5
1ADF3
  8
DANMEN
  6
CONTINUOUS
 10
42.800003
 20
33.9
 30
0.0
 11
42.800003
 21
33.399994
 31
0.0
  0
ARC
  5
1ADF4
  8
DANMEN
  6
CONTINUOUS
 10
39.600006
 20
42.399994
 30
0.0
 40
0.6
 50
0.0
 51
180.000019
  0
LINE
  5
1ADF5
  8
DANMEN
  6
CONTINUOUS
 10
49.5
 20
33.0
 30
0.0
 11
54.0
 21
33.0
 31
0.0
  0
LINE
  5
1ADF6
  8
DANMEN
  6
CONTINUOUS
 10
49.0
 20
33.9
 30
0.0
 11
49.0
 21
33.5
 31
0.0
  0
ARC
  5
1ADF7
  8
DANMEN
  6
CONTINUOUS
 10
49.5
 20
33.5
 30
0.0
 40
0.5
 50
180.000019
 51
270.000001
  0
LINE
  5
1ADF9
  8
DANMEN
  6
CONTINUOUS
 10
54.052282
 20
47.755789
 30
0.0
 11
49.521146
 21
45.284248
 31
0.0
  0
ARC
  5
1ADFA
  8
DANMEN
  6
CONTINUOUS
 10
50.0
 20
44.406353
 30
0.0
 40
1.0
 50
118.610582
 51
180.0
  0
LINE
  5
1ADFB
  8
DANMEN
  6
CONTINUOUS
 10
51.465316
 20
51.837106
 30
0.0
 11
48.443002
 21
51.969063
 31
0.0
  0
LINE
  5
1ADFC
  8
DANMEN
  6
CONTINUOUS
 10
52.00846
 20
52.814345
 30
0.0
 11
48.711313
 21
52.958301
 31
0.0
  0
ARC
  5
1AE01
  8
DANMEN
  6
CONTINUOUS
 10
48.464812
 20
52.468587
 30
0.0
 40
0.5
 50
180.460936
 51
267.5
  0
LINE
  5
1AE04
  8
DANMEN
  6
CONTINUOUS
 10
51.09665
 20
54.856061
 30
0.0
 11
51.009412
 21
52.857964
 31
0.0
  0
LINE
  5
1AE06
  8
DANMEN
  6
CONTINUOUS
 10
52.095699
 20
54.812441
 30
0.0
 11
51.98665
 21
52.314821
 31
0.0
  0
ARC
  5
1AE07
  8
DANMEN
  6
CONTINUOUS
 10
51.487126
 20
52.33663
 30
0.0
 40
0.5
 50
267.5
 51
357.5
  0
LINE
  5
1AE09
  8
DANMEN
  6
CONTINUOUS
 10
51.053031
 20
53.857012
 30
0.0
 11
52.052079
 21
53.813393
 31
0.0
  0
LINE
  5
1AE0C
  8
DANMEN
  6
CONTINUOUS
 10
51.699997
 20
53.0
 30
0.0
 11
52.649994
 21
53.0
 31
0.0
  0
ARC
  5
1AE0E
  8
DANMEN
  6
CONTINUOUS
 10
52.649994
 20
53.5
 30
0.0
 40
0.5
 50
270.000018
 51
0.0
  0
ARC
  5
1AE10
  8
DANMEN
  6
CONTINUOUS
 10
51.699997
 20
53.5
 30
0.0
 40
0.5
 50
180.000019
 51
270.000001
  0
LINE
  5
1AE11
  8
DANMEN
  6
CONTINUOUS
 10
50.419296
 20
53.0
 30
0.0
 11
52.0
 21
53.0
 31
0.0
  0
ARC
  5
1AE12
  8
DANMEN
  6
CONTINUOUS
 10
69.66828
 20
42.848903
 30
0.0
 40
0.5
 50
23.49856
 51
113.49856
  0
LINE
  5
1AE13
  8
DANMEN
  6
CONTINUOUS
 10
66.3
 20
43.448185
 30
0.0
 11
66.855268
 21
42.171069
 31
0.0
  0
LINE
  5
1AE14
  8
DANMEN
  6
CONTINUOUS
 10
69.468917
 20
43.307438
 30
0.0
 11
66.855268
 21
42.171069
 31
0.0
  0
ARC
  5
1AE15
  8
DANMEN
  6
CONTINUOUS
 10
63.8
 20
44.053939
 30
0.0
 40
1.0
 50
294.624318
 51
0.0
  0
ARC
  5
1AE16
  8
DANMEN
  6
CONTINUOUS
 10
61.7
 20
43.969694
 30
0.0
 40
2.0
 50
180.0
 51
231.706523
  0
ARC
  5
1AE17
  8
DANMEN
  6
CONTINUOUS
 10
62.2
 20
44.053939
 30
0.0
 40
1.0
 50
180.0
 51
245.375682
  0
ARC
  5
1AE18
  8
DANMEN
  6
CONTINUOUS
 10
54.5
 20
33.649994
 30
0.0
 40
1.0
 50
0.0
 51
89.999982
  0
ARC
  5
1AE19
  8
DANMEN
  6
CONTINUOUS
 10
61.7
 20
42.963068
 30
0.0
 40
0.2
 50
0.0
 51
65.375682
  0
LINE
  5
1AE1A
  8
DANMEN
  6
CONTINUOUS
 10
61.9
 20
42.7
 30
0.0
 11
61.9
 21
42.963068
 31
0.0
  0
LINE
  5
1AE1B
  8
DANMEN
  6
CONTINUOUS
 10
60.460621
 20
42.4
 30
0.0
 11
61.6
 21
42.4
 31
0.0
  0
ARC
  5
1AE1C
  8
DANMEN
  6
CONTINUOUS
 10
61.6
 20
42.7
 30
0.0
 40
0.3
 50
270.0
 51
0.0
  0
ARC
  5
1AE1D
  8
DANMEN
  6
CONTINUOUS
 10
66.518344
 20
41.315802
 30
0.0
 40
1.0
 50
203.49856
 51
293.49856
  0
LINE
  5
1AE1E
  8
DANMEN
  6
CONTINUOUS
 10
64.956524
 20
42.4
 30
0.0
 11
65.601274
 21
40.917076
 31
0.0
  0
LINE
  5
1AE1F
  8
DANMEN
  6
CONTINUOUS
 10
64.1
 20
42.7
 30
0.0
 11
64.1
 21
42.963068
 31
0.0
  0
ARC
  5
1AE20
  8
DANMEN
  6
CONTINUOUS
 10
64.3
 20
42.963068
 30
0.0
 40
0.2
 50
114.624318
 51
180.0
  0
LINE
  5
1AE21
  8
DANMEN
  6
CONTINUOUS
 10
64.4
 20
42.4
 30
0.0
 11
64.956524
 21
42.4
 31
0.0
  0
ARC
  5
1AE22
  8
DANMEN
  6
CONTINUOUS
 10
64.4
 20
42.7
 30
0.0
 40
0.3
 50
180.0
 51
270.0
  0
ARC
  5
1AE23
  8
DANMEN
  6
CONTINUOUS
 10
69.927452
 20
42.252808
 30
0.0
 40
0.5
 50
293.49856
 51
23.49856
  0
LINE
  5
1AE24
  8
DANMEN
  6
CONTINUOUS
 10
70.126816
 20
43.048266
 30
0.0
 11
70.385987
 21
42.452171
 31
0.0
  0
LINE
  5
1AE25
  8
DANMEN
  6
CONTINUOUS
 10
70.126815
 20
41.794273
 30
0.0
 11
66.91707
 21
40.398732
 31
0.0
  0
LINE
  5
1AE26
  8
DANMEN
  6
CONTINUOUS
 10
62.2
 20
46.3
 30
0.0
 11
63.8
 21
46.3
 31
0.0
  0
LINE
  5
1AE27
  8
DANMEN
  6
CONTINUOUS
 10
62.5
 20
48.0
 30
0.0
 11
68.5
 21
48.0
 31
0.0
  0
LINE
  5
1AE28
  8
DANMEN
  6
CONTINUOUS
 10
54.920742
 20
46.35
 30
0.0
 11
58.7
 21
46.35
 31
0.0
  0
LINE
  5
1AE29
  8
DANMEN
  6
CONTINUOUS
 10
55.00999
 20
48.0
 30
0.0
 11
60.850006
 21
48.0
 31
0.0
  0
ARC
  5
1AE2A
  8
DANMEN
  6
CONTINUOUS
 10
58.7
 20
45.35
 30
0.0
 40
1.0
 50
0.0
 51
90.0
  0
ARC
  5
1AE2B
  8
DANMEN
  6
CONTINUOUS
 10
62.2
 20
45.3
 30
0.0
 40
1.0
 50
90.0
 51
180.0
  0
LINE
  5
1AE2C
  8
DANMEN
  6
CONTINUOUS
 10
59.7
 20
43.969694
 30
0.0
 11
59.7
 21
45.35
 31
0.0
  0
LINE
  5
1AE2D
  8
DANMEN
  6
CONTINUOUS
 10
61.2
 20
44.053939
 30
0.0
 11
61.2
 21
45.3
 31
0.0
  0
LINE
  5
1AE2E
  8
DANMEN
  6
CONTINUOUS
 10
66.3
 20
46.350006
 30
0.0
 11
68.640809
 21
46.350006
 31
0.0
  0
LINE
  5
1AE2F
  8
DANMEN
  6
CONTINUOUS
 10
66.3
 20
43.448185
 30
0.0
 11
66.3
 21
46.350006
 31
0.0
  0
LINE
  5
1AE30
  8
DANMEN
  6
CONTINUOUS
 10
64.8
 20
44.053939
 30
0.0
 11
64.8
 21
45.3
 31
0.0
  0
ARC
  5
1AE31
  8
DANMEN
  6
CONTINUOUS
 10
63.8
 20
45.3
 30
0.0
 40
1.0
 50
0.0
 51
90.0
  0
ARC
  5
1AE32
  8
DANMEN
  6
CONTINUOUS
 10
68.640809
 20
47.350006
 30
0.0
 40
1.0
 50
270.0
 51
294.443955
  0
LINE
  5
1AE33
  8
DANMEN
  6
CONTINUOUS
 10
56.149989
 20
67.999999
 30
0.0
 11
54.149994
 21
67.999999
 31
0.0
  0
LINE
  5
1AE34
  8
DANMEN
  6
CONTINUOUS
 10
68.850006
 20
69.000003
 30
0.0
 11
53.149989
 21
68.999999
 31
0.0
  0
LINE
  5
1AE3C
  8
DANMEN
  6
CONTINUOUS
 10
54.149994
 20
67.999999
 30
0.0
 11
53.649994
 21
68.499999
 31
0.0
  0
LINE
  5
1AE3D
  8
DANMEN
  6
CONTINUOUS
 10
53.149994
 20
67.999999
 30
0.0
 11
53.649994
 21
68.499999
 31
0.0
  0
ARC
  5
1AE40
  8
DANMEN
  6
CONTINUOUS
 10
61.0
 20
57.0
 30
0.0
 40
3.0
 50
53.130102
 51
126.869903
  0
ARC
  5
1AE41
  8
DANMEN
  6
CONTINUOUS
 10
62.0
 20
59.29129
 30
0.0
 40
0.5
 50
0.000279
 51
66.42195
  0
ARC
  5
1AE42
  8
DANMEN
  6
CONTINUOUS
 10
61.0
 20
59.0
 30
0.0
 40
4.0
 50
0.0
 51
180.000019
  0
LINE
  5
1AE43
  8
DANMEN
  6
CONTINUOUS
 10
56.799999
 20
57.0
 30
0.0
 11
59.0
 21
57.0
 31
0.0
  0
ARC
  5
1AE45
  8
DANMEN
  6
CONTINUOUS
 10
59.5
 20
59.0
 30
0.0
 40
0.5
 50
126.869907
 51
180.000009
  0
ARC
  5
1AE46
  8
DANMEN
  6
CONTINUOUS
 10
60.0
 20
58.152954
 30
0.0
 40
0.5
 50
180.000309
 51
214.019733
  0
ARC
  5
1AE47
  8
DANMEN
  6
CONTINUOUS
 10
60.350006
 20
55.847046
 30
0.0
 40
0.5
 50
0.000664
 51
34.020021
  0
LINE
  5
1AE48
  8
DANMEN
  6
CONTINUOUS
 10
60.764431
 20
56.126784
 30
0.0
 11
59.585579
 21
57.873223
 31
0.0
  0
ARC
  5
1AE49
  8
DANMEN
  6
CONTINUOUS
 10
60.0
 20
59.29129
 30
0.0
 40
0.5
 50
113.578068
 51
179.999745
  0
ARC
  5
1AE4A
  8
DANMEN
  6
CONTINUOUS
 10
61.0
 20
57.0
 30
0.0
 40
3.0
 50
66.421841
 51
113.578178
  0
LINE
  5
1AE4B
  8
DANMEN
  6
CONTINUOUS
 10
59.5
 20
59.29129
 30
0.0
 11
59.5
 21
58.152954
 31
0.0
  0
LINE
  5
1AE4C
  8
DANMEN
  6
CONTINUOUS
 10
65.200001
 20
57.0
 30
0.0
 11
63.0
 21
57.0
 31
0.0
  0
ARC
  5
1AE4D
  8
DANMEN
  6
CONTINUOUS
 10
62.5
 20
59.0
 30
0.0
 40
0.5
 50
359.999997
 51
53.130102
  0
LINE
  5
1AE51
  8
DANMEN
  6
CONTINUOUS
 10
65.850001
 20
67.050006
 30
0.0
 11
56.149988
 21
67.050002
 31
0.0
  0
LINE
  5
1AE52
  8
DANMEN
  6
CONTINUOUS
 10
56.600001
 20
70.500003
 30
0.0
 11
56.799998
 21
70.300005
 31
0.0
  0
LINE
  5
1AE53
  8
DANMEN
  6
CONTINUOUS
 10
56.149994
 20
68.0
 30
0.0
 11
56.149994
 21
67.050003
 31
0.0
  0
LINE
  5
1AE56
  8
DANMEN
  6
CONTINUOUS
 10
67.850006
 20
68.000003
 30
0.0
 11
65.850001
 21
68.000002
 31
0.0
  0
LINE
  5
1AE57
  8
DANMEN
  6
CONTINUOUS
 10
65.399994
 20
70.500002
 30
0.0
 11
65.199998
 21
70.300006
 31
0.0
  0
LINE
  5
1AE58
  8
DANMEN
  6
CONTINUOUS
 10
65.850006
 20
68.0
 30
0.0
 11
65.850006
 21
67.050003
 31
0.0
  0
LINE
  5
1AE5B
  8
DANMEN
  6
CONTINUOUS
 10
68.850006
 20
70.000003
 30
0.0
 11
68.850006
 21
69.0
 31
0.0
  0
LINE
  5
1AE62
  8
DANMEN
  6
CONTINUOUS
 10
68.850006
 20
68.000003
 30
0.0
 11
68.350006
 21
68.500003
 31
0.0
  0
LINE
  5
1AE63
  8
DANMEN
  6
CONTINUOUS
 10
68.350006
 20
68.500003
 30
0.0
 11
67.850006
 21
68.000003
 31
0.0
  0
LINE
  5
1AE64
  8
DANMEN
  6
CONTINUOUS
 10
49.0
 20
111.5
 30
0.0
 11
35.000005
 21
111.5
 31
0.0
  0
LINE
  5
1AE65
  8
DANMEN
  6
CONTINUOUS
 10
48.7
 20
110.0
 30
0.0
 11
36.000005
 21
110.0
 31
0.0
  0
LINE
  5
1AE66
  8
DANMEN
  6
CONTINUOUS
 10
36.0
 20
110.0
 30
0.0
 11
51.199997
 21
110.0
 31
0.0
  0
LINE
  5
1AE67
  8
DANMEN
  6
CONTINUOUS
 10
35.000005
 20
111.5
 30
0.0
 11
35.000005
 21
111.0
 31
0.0
  0
ARC
  5
1AE69
  8
DANMEN
  6
CONTINUOUS
 10
36.000005
 20
111.0
 30
0.0
 40
1.0
 50
180.0
 51
270.0
  0
LINE
  5
1AE6B
  8
DANMEN
  6
CONTINUOUS
 10
35.0
 20
111.5
 30
0.0
 11
35.0
 21
111.0
 31
0.0
  0
LINE
  5
1AE6C
  8
DANMEN
  6
CONTINUOUS
 10
35.0
 20
111.5
 30
0.0
 11
37.199997
 21
111.5
 31
0.0
  0
ARC
  5
1AE6F
  8
DANMEN
  6
CONTINUOUS
 10
36.0
 20
111.0
 30
0.0
 40
1.0
 50
180.0
 51
270.0
  0
LINE
  5
1AE71
  8
DANMEN
  6
CONTINUOUS
 10
68.850006
 20
105.0
 30
0.0
 11
68.850006
 21
81.050003
 31
0.0
  0
LINE
  5
1AE72
  8
DANMEN
  6
CONTINUOUS
 10
56.600001
 20
88.500005
 30
0.0
 11
56.799998
 21
88.700002
 31
0.0
  0
ARC
  5
1AE74
  8
DANMEN
  6
CONTINUOUS
 10
69.850006
 20
81.050003
 30
0.0
 40
1.0
 50
180.000019
 51
270.000001
  0
LINE
  5
1AE75
  8
DANMEN
  6
CONTINUOUS
 10
65.399994
 20
88.500006
 30
0.0
 11
65.199998
 21
88.700002
 31
0.0
  0
ARC
  5
1AE76
  8
DANMEN
  6
CONTINUOUS
 10
61.0
 20
102.000008
 30
0.0
 40
3.0
 50
233.130097
 51
306.869898
  0
ARC
  5
1AE77
  8
DANMEN
  6
CONTINUOUS
 10
59.5
 20
100.000008
 30
0.0
 40
0.5
 50
179.999991
 51
233.130093
  0
ARC
  5
1AE78
  8
DANMEN
  6
CONTINUOUS
 10
62.5
 20
100.000008
 30
0.0
 40
0.5
 50
306.869898
 51
0.000003
  0
LINE
  5
1AE79
  8
DANMEN
  6
CONTINUOUS
 10
53.149994
 20
105.0
 30
0.0
 11
59.199997
 21
105.0
 31
0.0
  0
LINE
  5
1AE7A
  8
DANMEN
  6
CONTINUOUS
 10
53.149994
 20
106.199997
 30
0.0
 11
57.699997
 21
106.199997
 31
0.0
  0
LINE
  5
1AE7B
  8
DANMEN
  6
CONTINUOUS
 10
39.149994
 20
111.949997
 30
0.0
 11
52.149994
 21
111.949997
 31
0.0
  0
LINE
  5
1AE7D
  8
DANMEN
  6
CONTINUOUS
 10
53.149994
 20
110.949997
 30
0.0
 11
53.149994
 21
106.199997
 31
0.0
  0
LINE
  5
1AE80
  8
DANMEN
  6
CONTINUOUS
 10
49.0
 20
111.5
 30
0.0
 11
49.0
 21
110.0
 31
0.0
  0
LINE
  5
1AE82
  8
DANMEN
  6
CONTINUOUS
 10
48.7
 20
111.5
 30
0.0
 11
48.7
 21
109.993429
 31
0.0
  0
ARC
  5
1AE88
  8
DANMEN
  6
CONTINUOUS
 10
52.149994
 20
110.949997
 30
0.0
 40
1.0
 50
0.0
 51
89.999982
  0
LINE
  5
1AE89
  8
DANMEN
  6
CONTINUOUS
 10
60.199997
 20
112.0
 30
0.0
 11
68.850006
 21
112.0
 31
0.0
  0
ARC
  5
1AE8A
  8
DANMEN
  6
CONTINUOUS
 10
61.7
 20
109.3
 30
0.0
 40
1.0
 50
0.0
 51
90.0
  0
LINE
  5
1AE8B
  8
DANMEN
  6
CONTINUOUS
 10
57.699997
 20
109.5
 30
0.0
 11
57.699997
 21
106.199997
 31
0.0
  0
ARC
  5
1AE8C
  8
DANMEN
  6
CONTINUOUS
 10
60.2
 20
107.8
 30
0.0
 40
1.0
 50
180.0
 51
270.0
  0
LINE
  5
1AE8D
  8
DANMEN
  6
CONTINUOUS
 10
56.799999
 20
102.000008
 30
0.0
 11
59.0
 21
102.000008
 31
0.0
  0
LINE
  5
1AE8F
  8
DANMEN
  6
CONTINUOUS
 10
59.199997
 20
105.300003
 30
0.0
 11
59.199997
 21
105.0
 31
0.0
  0
ARC
  5
1AE91
  8
DANMEN
  6
CONTINUOUS
 10
60.833705
 20
106.05
 30
0.0
 40
0.75
 50
270.0
 51
90.0
  0
LINE
  5
1AE92
  8
DANMEN
  6
CONTINUOUS
 10
59.199997
 20
105.3
 30
0.0
 11
60.833705
 21
105.3
 31
0.0
  0
LINE
  5
1AE93
  8
DANMEN
  6
CONTINUOUS
 10
60.2
 20
106.8
 30
0.0
 11
60.833705
 21
106.8
 31
0.0
  0
ARC
  5
1AE95
  8
DANMEN
  6
CONTINUOUS
 10
60.199997
 20
109.5
 30
0.0
 40
2.5
 50
89.999982
 51
180.000019
  0
ARC
  5
1AE98
  8
DANMEN
  6
CONTINUOUS
 10
60.2
 20
109.3
 30
0.0
 40
1.0
 50
90.0
 51
180.0
  0
LINE
  5
1AE99
  8
DANMEN
  6
CONTINUOUS
 10
59.2
 20
107.8
 30
0.0
 11
59.2
 21
109.3
 31
0.0
  0
LINE
  5
1AE9A
  8
DANMEN
  6
CONTINUOUS
 10
60.2
 20
110.3
 30
0.0
 11
61.7
 21
110.3
 31
0.0
  0
LINE
  5
1AE9C
  8
DANMEN
  6
CONTINUOUS
 10
68.850006
 20
110.350006
 30
0.0
 11
68.850006
 21
106.199997
 31
0.0
  0
LINE
  5
1AE9D
  8
DANMEN
  6
CONTINUOUS
 10
66.300003
 20
105.0
 30
0.0
 11
68.850006
 21
105.0
 31
0.0
  0
ARC
  5
1AE9E
  8
DANMEN
  6
CONTINUOUS
 10
66.800003
 20
105.699997
 30
0.0
 40
0.5
 50
89.999982
 51
180.000019
  0
LINE
  5
1AE9F
  8
DANMEN
  6
CONTINUOUS
 10
65.200001
 20
102.000008
 30
0.0
 11
63.0
 21
102.000008
 31
0.0
  0
LINE
  5
1AEA0
  8
DANMEN
  6
CONTINUOUS
 10
66.300003
 20
105.699997
 30
0.0
 11
66.300003
 21
105.0
 31
0.0
  0
LINE
  5
1AEA3
  8
DANMEN
  6
CONTINUOUS
 10
66.800003
 20
106.199997
 30
0.0
 11
68.850006
 21
106.199997
 31
0.0
  0
LINE
  5
1AEA6
  8
DANMEN
  6
CONTINUOUS
 10
65.199997
 20
110.350006
 30
0.0
 11
68.850006
 21
110.350006
 31
0.0
  0
ARC
  5
1AEA7
  8
DANMEN
  6
CONTINUOUS
 10
63.45
 20
108.666295
 30
0.0
 40
0.75
 50
180.0
 51
0.0
  0
LINE
  5
1AEA8
  8
DANMEN
  6
CONTINUOUS
 10
64.2
 20
108.666295
 30
0.0
 11
64.2
 21
109.350006
 31
0.0
  0
LINE
  5
1AEA9
  8
DANMEN
  6
CONTINUOUS
 10
62.7
 20
108.666295
 30
0.0
 11
62.7
 21
109.3
 31
0.0
  0
ARC
  5
1AEAB
  8
DANMEN
  6
CONTINUOUS
 10
65.2
 20
109.350006
 30
0.0
 40
1.0
 50
90.0
 51
180.0
  0
LINE
  5
1AEAE
  8
DANMEN
  6
CONTINUOUS
 10
82.8
 20
90.0
 30
0.0
 11
82.8
 21
73.0
 31
0.0
  0
LINE
  5
1AEAF
  8
DANMEN
  6
CONTINUOUS
 10
81.0
 20
92.5
 30
0.0
 11
81.0
 21
76.0
 31
0.0
  0
LINE
  5
1AEB0
  8
DANMEN
  6
CONTINUOUS
 10
110.35
 20
86.2
 30
0.0
 11
110.35
 21
75.0
 31
0.0
  0
LINE
  5
1AEB1
  8
DANMEN
  6
CONTINUOUS
 10
112.0
 20
92.5
 30
0.0
 11
112.0
 21
58.5
 31
0.0
  0
LINE
  5
1AEB2
  8
DANMEN
  6
CONTINUOUS
 10
73.0
 20
81.5
 30
0.0
 11
73.0
 21
68.500005
 31
0.0
  0
LINE
  5
1AEB3
  8
DANMEN
  6
CONTINUOUS
 10
71.050003
 20
80.050003
 30
0.0
 11
71.050003
 21
70.000004
 31
0.0
  0
LINE
  5
1AEB4
  8
DANMEN
  6
CONTINUOUS
 10
73.0
 20
93.0
 30
0.0
 11
81.0
 21
76.000001
 31
0.0
  0
LINE
  5
1AEB5
  8
DANMEN
  6
CONTINUOUS
 10
73.0
 20
76.000001
 30
0.0
 11
81.0
 21
93.0
 31
0.0
  0
LINE
  5
1AEB6
  8
DANMEN
  6
CONTINUOUS
 10
99.05
 20
75.0
 30
0.0
 11
110.35
 21
75.0
 31
0.0
  0
LINE
  5
1AEB7
  8
DANMEN
  6
CONTINUOUS
 10
100.2
 20
73.35
 30
0.0
 11
110.350006
 21
73.35
 31
0.0
  0
LINE
  5
1AEB8
  8
DANMEN
  6
CONTINUOUS
 10
73.0
 20
68.500005
 30
0.0
 11
73.0
 21
53.0
 31
0.0
  0
LINE
  5
1AEB9
  8
DANMEN
  6
CONTINUOUS
 10
82.5
 20
71.2
 30
0.0
 11
93.5
 21
71.2
 31
0.0
  0
LINE
  5
1AEBA
  8
DANMEN
  6
CONTINUOUS
 10
82.8
 20
73.0
 30
0.0
 11
98.55
 21
73.0
 31
0.0
  0
LINE
  5
1AEBB
  8
DANMEN
  6
CONTINUOUS
 10
76.5
 20
76.0
 30
0.0
 11
81.0
 21
76.0
 31
0.0
  0
LINE
  5
1AEBC
  8
DANMEN
  6
CONTINUOUS
 10
76.5
 20
68.0
 30
0.0
 11
79.000003
 21
68.0
 31
0.0
  0
LINE
  5
1AEBD
  8
DANMEN
  6
CONTINUOUS
 10
73.0
 20
76.000001
 30
0.0
 11
81.0
 21
76.000001
 31
0.0
  0
LINE
  5
1AEBE
  8
DANMEN
  6
CONTINUOUS
 10
73.600003
 20
72.217127
 30
0.0
 11
74.582437
 21
75.4
 31
0.0
  0
LINE
  5
1AEBF
  8
DANMEN
  6
CONTINUOUS
 10
73.000003
 20
71.394291
 30
0.0
 11
73.000003
 21
72.305709
 31
0.0
  0
LINE
  5
1AEC0
  8
DANMEN
  6
CONTINUOUS
 10
77.200003
 20
71.0
 30
0.0
 11
77.200003
 21
72.7
 31
0.0
  0
LINE
  5
1AEC1
  8
DANMEN
  6
CONTINUOUS
 10
75.200003
 20
68.3
 30
0.0
 11
75.200003
 21
75.4
 31
0.0
  0
LINE
  5
1AEC2
  8
DANMEN
  6
CONTINUOUS
 10
78.500003
 20
75.0
 30
0.0
 11
78.500003
 21
68.8
 31
0.0
  0
LINE
  5
1AEC3
  8
DANMEN
  6
CONTINUOUS
 10
74.582437
 20
68.3
 30
0.0
 11
75.200003
 21
68.3
 31
0.0
  0
LINE
  5
1AEC4
  8
DANMEN
  6
CONTINUOUS
 10
74.327481
 20
67.7
 30
0.0
 11
76.000003
 21
67.7
 31
0.0
  0
LINE
  5
1AEC8
  8
DANMEN
  6
CONTINUOUS
 10
73.600003
 20
71.482874
 30
0.0
 11
73.600003
 21
72.217127
 31
0.0
  0
LINE
  5
1AEC9
  8
DANMEN
  6
CONTINUOUS
 10
74.582437
 20
68.3
 30
0.0
 11
73.600003
 21
71.482874
 31
0.0
  0
ARC
  5
1AECB
  8
DANMEN
  6
CONTINUOUS
 10
73.200003
 20
71.394291
 30
0.0
 40
0.2
 50
180.0
 51
204.97391
  0
ARC
  5
1AECD
  8
DANMEN
  6
CONTINUOUS
 10
74.327481
 20
67.9
 30
0.0
 40
0.2
 50
204.97391
 51
270.0
  0
LINE
  5
1AECE
  8
DANMEN
  6
CONTINUOUS
 10
74.146181
 20
67.815559
 30
0.0
 11
73.018703
 21
71.30985
 31
0.0
  0
ARC
  5
1AED0
  8
DANMEN
  6
CONTINUOUS
 10
72.5
 20
68.500005
 30
0.0
 40
0.5
 50
270.0
 51
0.0
  0
LINE
  5
1AEDA
  8
DANMEN
  6
CONTINUOUS
 10
76.000003
 20
67.7
 30
0.0
 11
76.000003
 21
70.2
 31
0.0
  0
LINE
  5
1AEDC
  8
DANMEN
  6
CONTINUOUS
 10
76.000003
 20
70.2
 30
0.0
 11
77.000003
 21
70.2
 31
0.0
  0
LINE
  5
1AEDD
  8
DANMEN
  6
CONTINUOUS
 10
78.000003
 20
70.2
 30
0.0
 11
77.200003
 21
71.0
 31
0.0
  0
ARC
  5
1AEE0
  8
DANMEN
  6
CONTINUOUS
 10
77.200003
 20
69.2
 30
0.0
 40
0.2
 50
179.999981
 51
270.000018
  0
ARC
  5
1AEE2
  8
DANMEN
  6
CONTINUOUS
 10
77.800003
 20
69.2
 30
0.0
 40
0.2
 50
270.000018
 51
0.0
  0
LINE
  5
1AEE4
  8
DANMEN
  6
CONTINUOUS
 10
77.000003
 20
69.2
 30
0.0
 11
77.000003
 21
70.2
 31
0.0
  0
LINE
  5
1AEE5
  8
DANMEN
  6
CONTINUOUS
 10
77.200003
 20
69.0
 30
0.0
 11
77.800003
 21
69.0
 31
0.0
  0
LINE
  5
1AEE6
  8
DANMEN
  6
CONTINUOUS
 10
78.000003
 20
69.2
 30
0.0
 11
78.000003
 21
70.2
 31
0.0
  0
LINE
  5
1AEE8
  8
DANMEN
  6
CONTINUOUS
 10
76.800003
 20
68.8
 30
0.0
 11
78.5
 21
68.8
 31
0.0
  0
LINE
  5
1AEE9
  8
DANMEN
  6
CONTINUOUS
 10
76.5
 20
70.199997
 30
0.0
 11
76.800003
 21
70.199997
 31
0.0
  0
ARC
  5
1AEEA
  8
DANMEN
  6
CONTINUOUS
 10
76.5
 20
69.699997
 30
0.0
 40
0.5
 50
89.999982
 51
180.000019
  0
ARC
  5
1AEEB
  8
DANMEN
  6
CONTINUOUS
 10
76.5
 20
68.5
 30
0.0
 40
0.5
 50
180.000019
 51
270.000001
  0
LINE
  5
1AEEC
  8
DANMEN
  6
CONTINUOUS
 10
76.800003
 20
70.199997
 30
0.0
 11
76.800003
 21
68.8
 31
0.0
  0
LINE
  5
1AEED
  8
DANMEN
  6
CONTINUOUS
 10
76.0
 20
69.699997
 30
0.0
 11
76.0
 21
68.5
 31
0.0
  0
LINE
  5
1AEEE
  8
DANMEN
  6
CONTINUOUS
 10
74.582437
 20
75.4
 30
0.0
 11
75.200003
 21
75.4
 31
0.0
  0
LINE
  5
1AEEF
  8
DANMEN
  6
CONTINUOUS
 10
74.327481
 20
76.0
 30
0.0
 11
76.000003
 21
76.0
 31
0.0
  0
ARC
  5
1AEF2
  8
DANMEN
  6
CONTINUOUS
 10
73.200003
 20
72.305709
 30
0.0
 40
0.2
 50
155.02609
 51
180.0
  0
ARC
  5
1AEF4
  8
DANMEN
  6
CONTINUOUS
 10
74.327481
 20
75.8
 30
0.0
 40
0.2
 50
90.0
 51
155.02609
  0
LINE
  5
1AEF5
  8
DANMEN
  6
CONTINUOUS
 10
73.018703
 20
72.39015
 30
0.0
 11
74.146181
 21
75.884441
 31
0.0
  0
LINE
  5
1AEFB
  8
DANMEN
  6
CONTINUOUS
 10
76.000003
 20
73.5
 30
0.0
 11
77.000003
 21
73.5
 31
0.0
  0
LINE
  5
1AEFC
  8
DANMEN
  6
CONTINUOUS
 10
77.000003
 20
73.5
 30
0.0
 11
77.000003
 21
74.5
 31
0.0
  0
LINE
  5
1AEFD
  8
DANMEN
  6
CONTINUOUS
 10
77.200003
 20
72.7
 30
0.0
 11
78.000003
 21
73.5
 31
0.0
  0
LINE
  5
1AEFF
  8
DANMEN
  6
CONTINUOUS
 10
78.000003
 20
73.5
 30
0.0
 11
78.000003
 21
74.5
 31
0.0
  0
ARC
  5
1AF00
  8
DANMEN
  6
CONTINUOUS
 10
77.200003
 20
74.5
 30
0.0
 40
0.2
 50
89.999999
 51
179.999981
  0
ARC
  5
1AF02
  8
DANMEN
  6
CONTINUOUS
 10
77.800003
 20
74.5
 30
0.0
 40
0.2
 50
0.0
 51
89.999982
  0
LINE
  5
1AF04
  8
DANMEN
  6
CONTINUOUS
 10
76.000003
 20
73.5
 30
0.0
 11
76.000003
 21
76.0
 31
0.0
  0
LINE
  5
1AF05
  8
DANMEN
  6
CONTINUOUS
 10
77.200003
 20
74.7
 30
0.0
 11
77.800003
 21
74.7
 31
0.0
  0
ARC
  5
1AF06
  8
DANMEN
  6
CONTINUOUS
 10
76.5
 20
75.5
 30
0.0
 40
0.5
 50
89.999982
 51
180.000019
  0
LINE
  5
1AF07
  8
DANMEN
  6
CONTINUOUS
 10
76.800003
 20
75.0
 30
0.0
 11
78.5
 21
75.0
 31
0.0
  0
ARC
  5
1AF08
  8
DANMEN
  6
CONTINUOUS
 10
76.5
 20
74.300003
 30
0.0
 40
0.5
 50
180.000019
 51
270.000001
  0
LINE
  5
1AF09
  8
DANMEN
  6
CONTINUOUS
 10
76.800003
 20
75.0
 30
0.0
 11
76.800003
 21
73.800003
 31
0.0
  0
LINE
  5
1AF0A
  8
DANMEN
  6
CONTINUOUS
 10
76.5
 20
73.800003
 30
0.0
 11
76.800003
 21
73.800003
 31
0.0
  0
LINE
  5
1AF0B
  8
DANMEN
  6
CONTINUOUS
 10
76.0
 20
75.5
 30
0.0
 11
76.0
 21
74.300003
 31
0.0
  0
LINE
  5
1AF0C
  8
DANMEN
  6
CONTINUOUS
 10
79.5
 20
74.35
 30
0.0
 11
79.5
 21
68.5
 31
0.0
  0
ARC
  5
1AF0D
  8
DANMEN
  6
CONTINUOUS
 10
82.5
 20
72.7
 30
0.0
 40
1.5
 50
180.0
 51
270.0
  0
ARC
  5
1AF0E
  8
DANMEN
  6
CONTINUOUS
 10
79.0
 20
68.5
 30
0.0
 40
0.5
 50
270.000018
 51
0.0
  0
LINE
  5
1AF0F
  8
DANMEN
  6
CONTINUOUS
 10
81.0
 20
72.7
 30
0.0
 11
81.0
 21
74.35
 31
0.0
  0
LINE
  5
1AF10
  8
DANMEN
  6
CONTINUOUS
 10
79.5
 20
74.35
 30
0.0
 11
81.0
 21
74.35
 31
0.0
  0
ARC
  5
1AF11
  8
DANMEN
  6
CONTINUOUS
 10
96.15
 20
65.3
 30
0.0
 40
1.0
 50
90.0
 51
180.0
  0
ARC
  5
1AF12
  8
DANMEN
  6
CONTINUOUS
 10
96.833705
 20
67.05
 30
0.0
 40
0.75
 50
270.0
 51
90.0
  0
LINE
  5
1AF13
  8
DANMEN
  6
CONTINUOUS
 10
93.5
 20
71.2
 30
0.0
 11
93.5
 21
59.003636
 31
0.0
  0
LINE
  5
1AF14
  8
DANMEN
  6
CONTINUOUS
 10
95.15
 20
65.3
 30
0.0
 11
95.15
 21
58.385093
 31
0.0
  0
ARC
  5
1AF15
  8
DANMEN
  6
CONTINUOUS
 10
94.15
 20
58.385093
 30
0.0
 40
1.0
 50
294.443955
 51
0.0
  0
LINE
  5
1AF16
  8
DANMEN
  6
CONTINUOUS
 10
96.15
 20
66.3
 30
0.0
 11
96.833705
 21
66.3
 31
0.0
  0
ARC
  5
1AF17
  8
DANMEN
  6
CONTINUOUS
 10
96.2
 20
68.8
 30
0.0
 40
1.0
 50
180.0
 51
270.0
  0
ARC
  5
1AF18
  8
DANMEN
  6
CONTINUOUS
 10
96.2
 20
70.3
 30
0.0
 40
1.0
 50
90.0
 51
180.0
  0
LINE
  5
1AF19
  8
DANMEN
  6
CONTINUOUS
 10
95.2
 20
68.8
 30
0.0
 11
95.2
 21
70.3
 31
0.0
  0
LINE
  5
1AF1A
  8
DANMEN
  6
CONTINUOUS
 10
100.2
 20
69.666295
 30
0.0
 11
100.2
 21
73.35
 31
0.0
  0
ARC
  5
1AF1B
  8
DANMEN
  6
CONTINUOUS
 10
99.45
 20
69.666295
 30
0.0
 40
0.75
 50
180.0
 51
0.0
  0
ARC
  5
1AF1C
  8
DANMEN
  6
CONTINUOUS
 10
97.7
 20
70.3
 30
0.0
 40
1.0
 50
0.0
 51
90.0
  0
LINE
  5
1AF1D
  8
DANMEN
  6
CONTINUOUS
 10
96.2
 20
67.8
 30
0.0
 11
96.833705
 21
67.8
 31
0.0
  0
LINE
  5
1AF1E
  8
DANMEN
  6
CONTINUOUS
 10
98.7
 20
69.666295
 30
0.0
 11
98.7
 21
70.3
 31
0.0
  0
LINE
  5
1AF1F
  8
DANMEN
  6
CONTINUOUS
 10
96.2
 20
71.3
 30
0.0
 11
97.7
 21
71.3
 31
0.0
  0
ARC
  5
1AF20
  8
DANMEN
  6
CONTINUOUS
 10
99.05
 20
74.5
 30
0.0
 40
0.5
 50
90.0
 51
180.0
  0
LINE
  5
1AF21
  8
DANMEN
  6
CONTINUOUS
 10
98.55
 20
73.0
 30
0.0
 11
98.55
 21
74.5
 31
0.0
  0
LINE
  5
1AF22
  8
DANMEN
  6
CONTINUOUS
 10
112.0
 20
58.5
 30
0.0
 11
112.0
 21
33.0
 31
0.0
  0
LINE
  5
1AF23
  8
DANMEN
  6
CONTINUOUS
 10
110.350006
 20
73.35
 30
0.0
 11
110.350006
 21
61.08182
 31
0.0
  0
ARC
  5
1AF24
  8
DANMEN
  6
CONTINUOUS
 10
111.5
 20
58.5
 30
0.0
 40
0.5
 50
270.0
 51
0.0
  0
LINE
  5
1AF25
  8
DANMEN
  6
CONTINUOUS
 10
110.350006
 20
61.08182
 30
0.0
 11
107.215287
 21
59.718899
 31
0.0
  0
ARC
  5
1AF26
  8
DANMEN
  6
CONTINUOUS
 10
107.673822
 20
58.664268
 30
0.0
 40
0.5
 50
203.49856
 51
293.49856
  0
ARC
  5
1AF27
  8
DANMEN
  6
CONTINUOUS
 10
107.41465
 20
59.260364
 30
0.0
 40
0.5
 50
113.49856
 51
203.49856
  0
LINE
  5
1AF28
  8
DANMEN
  6
CONTINUOUS
 10
107.215287
 20
58.464905
 30
0.0
 11
106.956115
 21
59.061001
 31
0.0
  0
ARC
  5
1AF2B
  8
DANMEN
  6
CONTINUOUS
 10
110.4
 20
58.759133
 30
0.0
 40
0.5
 50
0.0
 51
113.49856
  0
LINE
  5
1AF2C
  8
DANMEN
  6
CONTINUOUS
 10
110.200637
 20
59.217668
 30
0.0
 11
107.873185
 21
58.205733
 31
0.0
  0
LINE
  5
1AF2D
  8
DANMEN
  6
CONTINUOUS
 10
110.9
 20
58.759133
 30
0.0
 11
110.9
 21
58.0
 31
0.0
  0
LINE
  5
1AF2E
  8
DANMEN
  6
CONTINUOUS
 10
110.9
 20
58.0
 30
0.0
 11
111.5
 21
58.0
 31
0.0
  0
LINE
  5
1AF30
  8
DANMEN
  6
CONTINUOUS
 10
85.4
 20
113.000007
 30
0.0
 11
108.400001
 21
120.000006
 31
0.0
  0
LINE
  5
1AF31
  8
DANMEN
  6
CONTINUOUS
 10
85.4
 20
120.000007
 30
0.0
 11
108.4
 21
120.000007
 31
0.0
  0
LINE
  5
1AF32
  8
DANMEN
  6
CONTINUOUS
 10
85.4
 20
113.000007
 30
0.0
 11
108.4
 21
113.000007
 31
0.0
  0
LINE
  5
1AF33
  8
DANMEN
  6
CONTINUOUS
 10
101.0
 20
88.0
 30
0.0
 11
110.35
 21
88.0
 31
0.0
  0
LINE
  5
1AF34
  8
DANMEN
  6
CONTINUOUS
 10
99.0
 20
86.2
 30
0.0
 11
110.35
 21
86.2
 31
0.0
  0
LINE
  5
1AF35
  8
DANMEN
  6
CONTINUOUS
 10
110.2
 20
111.000003
 30
0.0
 11
102.0
 21
97.650005
 31
0.0
  0
LINE
  5
1AF36
  8
DANMEN
  6
CONTINUOUS
 10
107.584676
 20
111.350003
 30
0.0
 11
95.299997
 21
111.350003
 31
0.0
  0
LINE
  5
1AF37
  8
DANMEN
  6
CONTINUOUS
 10
82.65
 20
113.000003
 30
0.0
 11
108.55
 21
113.000003
 31
0.0
  0
LINE
  5
1AF38
  8
DANMEN
  6
CONTINUOUS
 10
108.010724
 20
110.588311
 30
0.0
 11
100.063599
 21
97.650005
 31
0.0
  0
LINE
  5
1AF39
  8
DANMEN
  6
CONTINUOUS
 10
82.65
 20
111.350003
 30
0.0
 11
82.65
 21
94.65
 31
0.0
  0
LINE
  5
1AF3A
  8
DANMEN
  6
DASHED
 10
101.0
 20
94.199997
 30
0.0
 11
76.5
 21
94.199997
 31
0.0
  0
LINE
  5
1AF3B
  8
DANMEN
  6
DASHED
 10
97.0
 20
93.0
 30
0.0
 11
85.0
 21
93.0
 31
0.0
  0
ARC
  5
1AF3C
  8
DANMEN
  6
DASHED
 10
83.299999
 20
89.500028
 30
0.0
 40
0.3
 50
124.343976
 51
202.988532
  0
LINE
  5
1AF3D
  8
DANMEN
  6
DASHED
 10
84.5
 20
88.399997
 30
0.0
 11
84.5
 21
92.5
 31
0.0
  0
LINE
  5
1AF3E
  8
DANMEN
  6
CONTINUOUS
 10
83.5
 20
83.999996
 30
0.0
 11
83.5
 21
93.0
 31
0.0
  0
LINE
  5
1AF3F
  8
DANMEN
  6
CONTINUOUS
 10
85.0
 20
93.649995
 30
0.0
 11
85.0
 21
83.499997
 31
0.0
  0
LINE
  5
1AF40
  8
DANMEN
  6
CONTINUOUS
 10
70.800003
 20
82.0
 30
0.0
 11
72.5
 21
82.0
 31
0.0
  0
ARC
  5
1AF44
  8
DANMEN
  6
CONTINUOUS
 10
72.5
 20
81.5
 30
0.0
 40
0.5
 50
0.0
 51
89.999982
  0
ARC
  5
1AF46
  8
DANMEN
  6
CONTINUOUS
 10
84.0
 20
83.999996
 30
0.0
 40
0.5
 50
180.0
 51
270.0
  0
LINE
  5
1AF47
  8
DANMEN
  6
CONTINUOUS
 10
85.0
 20
83.499997
 30
0.0
 11
84.0
 21
83.499996
 31
0.0
  0
LINE
  5
1AF48
  8
DANMEN
  6
DASHED
 10
83.023824
 20
89.382864
 30
0.0
 11
84.423825
 21
86.082833
 31
0.0
  0
ARC
  5
1AF4E
  8
DANMEN
  6
DASHED
 10
84.7
 20
86.199997
 30
0.0
 40
0.3
 50
202.988532
 51
12.999521
  0
LINE
  5
1AF4F
  8
DANMEN
  6
DASHED
 10
84.5
 20
88.399997
 30
0.0
 11
84.992312
 21
86.26748
 31
0.0
  0
LINE
  5
1AF50
  8
DANMEN
  6
DASHED
 10
83.5
 20
93.0
 30
0.0
 11
77.714146
 21
93.0
 31
0.0
  0
LINE
  5
1AF51
  8
DANMEN
  6
CONTINUOUS
 10
73.0
 20
93.0
 30
0.0
 11
81.0
 21
93.0
 31
0.0
  0
ARC
  5
1AF56
  8
DANMEN
  6
DASHED
 10
76.5
 20
93.199997
 30
0.0
 40
0.5
 50
180.0
 51
270.0
  0
ARC
  5
1AF57
  8
DANMEN
  6
DASHED
 10
76.5
 20
93.699997
 30
0.0
 40
0.5
 50
90.0
 51
180.0
  0
LINE
  5
1AF58
  8
DANMEN
  6
DASHED
 10
76.0
 20
93.699997
 30
0.0
 11
76.0
 21
93.199997
 31
0.0
  0
LINE
  5
1AF59
  8
DANMEN
  6
DASHED
 10
77.0
 20
92.699997
 30
0.0
 11
76.5
 21
92.699997
 31
0.0
  0
ARC
  5
1AF5A
  8
DANMEN
  6
DASHED
 10
77.714146
 20
92.0
 30
0.0
 40
1.0
 50
89.999982
 51
135.573244
  0
LINE
  5
1AF5B
  8
DANMEN
  6
CONTINUOUS
 10
82.8
 20
90.0
 30
0.0
 11
83.5
 21
90.0
 31
0.0
  0
ARC
  5
1AF5C
  8
DANMEN
  6
CONTINUOUS
 10
83.0
 20
92.5
 30
0.0
 40
0.5
 50
0.0
 51
90.0
  0
LINE
  5
1AF5D
  8
DANMEN
  6
CONTINUOUS
 10
81.5
 20
93.0
 30
0.0
 11
83.5
 21
93.0
 31
0.0
  0
LINE
  5
1AF5E
  8
DANMEN
  6
CONTINUOUS
 10
82.65
 20
94.65
 30
0.0
 11
84.0
 21
94.65
 31
0.0
  0
ARC
  5
1AF5F
  8
DANMEN
  6
CONTINUOUS
 10
81.5
 20
92.5
 30
0.0
 40
0.5
 50
90.0
 51
180.0
  0
LINE
  5
1AF60
  8
DANMEN
  6
CONTINUOUS
 10
81.5
 20
93.0
 30
0.0
 11
83.0
 21
93.0
 31
0.0
  0
ARC
  5
1AF61
  8
DANMEN
  6
CONTINUOUS
 10
81.5
 20
93.5
 30
0.0
 40
0.5
 50
180.0
 51
270.0
  0
LINE
  5
1AF64
  8
DANMEN
  6
DASHED
 10
83.5
 20
90.000035
 30
0.0
 11
83.130743
 21
89.747729
 31
0.0
  0
LINE
  5
1AF65
  8
DANMEN
  6
DASHED
 10
83.5
 20
93.0
 30
0.0
 11
83.5
 21
90.000035
 31
0.0
  0
ARC
  5
1AF66
  8
DANMEN
  6
DASHED
 10
85.0
 20
92.5
 30
0.0
 40
0.5
 50
90.0
 51
180.0
  0
LINE
  5
1AF68
  8
DANMEN
  6
CONTINUOUS
 10
83.5
 20
92.5
 30
0.0
 11
83.5
 21
90.0
 31
0.0
  0
ARC
  5
1AF6A
  8
DANMEN
  6
CONTINUOUS
 10
84.0
 20
93.65
 30
0.0
 40
1.0
 50
0.0
 51
90.0
  0
LINE
  5
1AF6B
  8
DANMEN
  6
DASHED
 10
97.5
 20
84.899997
 30
0.0
 11
97.5
 21
92.5
 31
0.0
  0
LINE
  5
1AF6C
  8
DANMEN
  6
DASHED
 10
98.5
 20
93.0
 30
0.0
 11
98.5
 21
86.500035
 31
0.0
  0
LINE
  5
1AF6D
  8
DANMEN
  6
CONTINUOUS
 10
99.35
 20
87.2
 30
0.0
 11
99.35
 21
90.0
 31
0.0
  0
LINE
  5
1AF6E
  8
DANMEN
  6
CONTINUOUS
 10
101.0
 20
92.0
 30
0.0
 11
101.0
 21
88.0
 31
0.0
  0
LINE
  5
1AF6F
  8
DANMEN
  6
CONTINUOUS
 10
98.3
 20
91.500005
 30
0.0
 11
98.3
 21
83.999999
 31
0.0
  0
LINE
  5
1AF70
  8
DANMEN
  6
CONTINUOUS
 10
96.8
 20
90.850005
 30
0.0
 11
96.8
 21
83.499999
 31
0.0
  0
LINE
  5
1AF71
  8
DANMEN
  6
DASHED
 10
97.5
 20
84.899997
 30
0.0
 11
97.007688
 21
82.76748
 31
0.0
  0
LINE
  5
1AF72
  8
DANMEN
  6
DASHED
 10
98.976176
 20
85.882864
 30
0.0
 11
97.576175
 21
82.582833
 31
0.0
  0
ARC
  5
1AF73
  8
DANMEN
  6
CONTINUOUS
 10
97.8
 20
83.999999
 30
0.0
 40
0.5
 50
270.0
 51
0.0
  0
ARC
  5
1AF76
  8
DANMEN
  6
DASHED
 10
97.3
 20
82.699997
 30
0.0
 40
0.3
 50
167.000479
 51
337.011468
  0
LINE
  5
1AF77
  8
DANMEN
  6
CONTINUOUS
 10
97.8
 20
83.499999
 30
0.0
 11
96.8
 21
83.499999
 31
0.0
  0
LINE
  5
1AF7B
  8
DANMEN
  6
DASHED
 10
98.5
 20
86.500035
 30
0.0
 11
98.869257
 21
86.247729
 31
0.0
  0
ARC
  5
1AF7C
  8
DANMEN
  6
DASHED
 10
98.700001
 20
86.000028
 30
0.0
 40
0.3
 50
337.011468
 51
55.656024
  0
ARC
  5
1AF7E
  8
DANMEN
  6
CONTINUOUS
 10
99.0
 20
86.7
 30
0.0
 40
0.5
 50
90.0
 51
270.0
  0
LINE
  5
1AF7F
  8
DANMEN
  6
CONTINUOUS
 10
99.0
 20
87.2
 30
0.0
 11
99.35
 21
87.2
 31
0.0
  0
ARC
  5
1AF80
  8
DANMEN
  6
CONTINUOUS
 10
95.7
 20
91.350005
 30
0.0
 40
0.5
 50
180.0
 51
270.0
  0
ARC
  5
1AF81
  8
DANMEN
  6
CONTINUOUS
 10
95.7
 20
97.150004
 30
0.0
 40
0.5
 50
90.0
 51
180.0
  0
LINE
  5
1AF82
  8
DANMEN
  6
CONTINUOUS
 10
95.2
 20
97.150004
 30
0.0
 11
95.2
 21
91.350005
 31
0.0
  0
CIRCLE
  5
1AF85
  8
DANMEN
  6
CONTINUOUS
 10
98.825
 20
94.000005
 30
0.0
 40
2.0
  0
LINE
  5
1AF86
  8
DANMEN
  6
CONTINUOUS
 10
100.8
 20
93.500005
 30
0.0
 11
100.8
 21
96.000005
 31
0.0
  0
LINE
  5
1AF87
  8
DANMEN
  6
CONTINUOUS
 10
96.85
 20
96.000005
 30
0.0
 11
96.85
 21
92.500005
 31
0.0
  0
LINE
  5
1AF88
  8
DANMEN
  6
CONTINUOUS
 10
102.0
 20
93.000005
 30
0.0
 11
102.0
 21
97.650005
 31
0.0
  0
LINE
  5
1AF89
  8
DANMEN
  6
DASHED
 10
98.5
 20
93.0
 30
0.0
 11
101.5
 21
93.0
 31
0.0
  0
LINE
  5
1AF8A
  8
DANMEN
  6
CONTINUOUS
 10
99.0
 20
93.0
 30
0.0
 11
102.0
 21
93.0
 31
0.0
  0
CIRCLE
  5
1AF8C
  8
DANMEN
  6
CONTINUOUS
 10
98.413199
 20
94.823913
 30
0.0
 40
0.1
  0
CIRCLE
  5
1AF8D
  8
DANMEN
  6
CONTINUOUS
 10
97.288908
 20
94.137323
 30
0.0
 40
0.1
  0
CIRCLE
  5
1AF8E
  8
DANMEN
  6
CONTINUOUS
 10
97.632203
 20
95.167208
 30
0.0
 40
0.1
  0
CIRCLE
  5
1AF8F
  8
DANMEN
  6
CONTINUOUS
 10
98.052739
 20
93.630963
 30
0.0
 40
0.1
  0
CIRCLE
  5
1AF90
  8
DANMEN
  6
CONTINUOUS
 10
99.357261
 20
93.605216
 30
0.0
 40
0.1
  0
CIRCLE
  5
1AF91
  8
DANMEN
  6
CONTINUOUS
 10
98.722165
 20
92.944373
 30
0.0
 40
0.1
  0
CIRCLE
  5
1AF92
  8
DANMEN
  6
CONTINUOUS
 10
97.503467
 20
92.944373
 30
0.0
 40
0.1
  0
CIRCLE
  5
1AF93
  8
DANMEN
  6
CONTINUOUS
 10
98.353123
 20
92.386519
 30
0.0
 40
0.1
  0
CIRCLE
  5
1AF94
  8
DANMEN
  6
CONTINUOUS
 10
99.048295
 20
94.223147
 30
0.0
 40
0.1
  0
ARC
  5
1AF97
  8
DANMEN
  6
DASHED
 10
97.0
 20
92.5
 30
0.0
 40
0.5
 50
0.0
 51
90.0
  0
ARC
  5
1AF98
  8
DANMEN
  6
CONTINUOUS
 10
99.0
 20
92.5
 30
0.0
 40
0.5
 50
89.999981
 51
180.000037
  0
LINE
  5
1AF99
  8
DANMEN
  6
CONTINUOUS
 10
98.5
 20
92.5
 30
0.0
 11
98.5
 21
90.0
 31
0.0
  0
LINE
  5
1AF9A
  8
DANMEN
  6
CONTINUOUS
 10
99.35
 20
90.0
 30
0.0
 11
98.5
 21
90.0
 31
0.0
  0
LINE
  5
1AF9C
  8
DANMEN
  6
CONTINUOUS
 10
96.85
 20
92.500005
 30
0.0
 11
97.3
 21
92.500005
 31
0.0
  0
LINE
  5
1AF9D
  8
DANMEN
  6
CONTINUOUS
 10
95.7
 20
90.850005
 30
0.0
 11
96.8
 21
90.850005
 31
0.0
  0
ARC
  5
1AF9E
  8
DANMEN
  6
CONTINUOUS
 10
97.3
 20
91.500005
 30
0.0
 40
1.0
 50
0.0
 51
90.0
  0
CIRCLE
  5
1AF9F
  8
DANMEN
  6
CONTINUOUS
 10
99.597567
 20
95.167208
 30
0.0
 40
0.1
  0
CIRCLE
  5
1AFA0
  8
DANMEN
  6
CONTINUOUS
 10
99.597567
 20
95.167208
 30
0.0
 40
0.1
  0
CIRCLE
  5
1AFA1
  8
DANMEN
  6
CONTINUOUS
 10
99.597567
 20
95.167208
 30
0.0
 40
0.1
  0
CIRCLE
  5
1AFA2
  8
DANMEN
  6
CONTINUOUS
 10
100.198333
 20
94.274641
 30
0.0
 40
0.1
  0
CIRCLE
  5
1AFA3
  8
DANMEN
  6
CONTINUOUS
 10
100.266992
 20
93.176097
 30
0.0
 40
0.1
  0
CIRCLE
  5
1AFA4
  8
DANMEN
  6
CONTINUOUS
 10
99.606149
 20
92.532419
 30
0.0
 40
0.1
  0
LINE
  5
1AFA7
  8
DANMEN
  6
DASHED
 10
101.5
 20
93.0
 30
0.0
 11
101.5
 21
93.699997
 31
0.0
  0
ARC
  5
1AFA8
  8
DANMEN
  6
DASHED
 10
101.0
 20
93.699997
 30
0.0
 40
0.5
 50
0.0
 51
89.999982
  0
LINE
  5
1AFA9
  8
DANMEN
  6
CONTINUOUS
 10
102.0
 20
93.0
 30
0.0
 11
102.0
 21
92.5
 31
0.0
  0
ARC
  5
1AFAA
  8
DANMEN
  6
CONTINUOUS
 10
101.5
 20
92.5
 30
0.0
 40
0.5
 50
270.0
 51
0.0
  0
LINE
  5
1AFAB
  8
DANMEN
  6
CONTINUOUS
 10
101.5
 20
92.0
 30
0.0
 11
101.0
 21
92.0
 31
0.0
  0
LINE
  5
1AFAC
  8
DANMEN
  6
CONTINUOUS
 10
102.0
 20
93.000005
 30
0.0
 11
101.3
 21
93.000005
 31
0.0
  0
ARC
  5
1AFAD
  8
DANMEN
  6
CONTINUOUS
 10
101.3
 20
93.500005
 30
0.0
 40
0.5
 50
180.0
 51
270.0
  0
LINE
  5
1AFAE
  8
DANMEN
  6
CONTINUOUS
 10
100.063599
 20
97.650005
 30
0.0
 11
95.7
 21
97.650004
 31
0.0
  0
LINE
  5
1AFAF
  8
DANMEN
  6
CONTINUOUS
 10
96.85
 20
96.000005
 30
0.0
 11
100.8
 21
96.000005
 31
0.0
  0
CIRCLE
  5
1AFB0
  8
DANMEN
  6
CONTINUOUS
 10
98.799406
 20
95.596327
 30
0.0
 40
0.1
  0
ARC
  5
1AFB2
  8
DANMEN
  6
CONTINUOUS
 10
86.699993
 20
110.350003
 30
0.0
 40
1.0
 50
0.0
 51
90.0
  0
LINE
  5
1AFB3
  8
DANMEN
  6
CONTINUOUS
 10
86.699993
 20
111.350003
 30
0.0
 11
82.65
 21
111.350003
 31
0.0
  0
LINE
  5
1AFB4
  8
DANMEN
  6
CONTINUOUS
 10
85.4
 20
120.000007
 30
0.0
 11
85.4
 21
113.000007
 31
0.0
  0
LINE
  5
1AFB7
  8
DANMEN
  6
CONTINUOUS
 10
90.199997
 20
111.4
 30
0.0
 11
91.799997
 21
111.4
 31
0.0
  0
LINE
  5
1AFB8
  8
DANMEN
  6
CONTINUOUS
 10
87.699993
 20
109.069695
 30
0.0
 11
87.699993
 21
110.350003
 31
0.0
  0
LINE
  5
1AFB9
  8
DANMEN
  6
CONTINUOUS
 10
89.899992
 20
107.800001
 30
0.0
 11
89.899992
 21
108.063068
 31
0.0
  0
ARC
  5
1AFBA
  8
DANMEN
  6
CONTINUOUS
 10
90.199993
 20
109.15394
 30
0.0
 40
1.0
 50
179.999974
 51
245.375656
  0
ARC
  5
1AFBB
  8
DANMEN
  6
CONTINUOUS
 10
89.699992
 20
108.063069
 30
0.0
 40
0.2
 50
359.999974
 51
65.375656
  0
LINE
  5
1AFBC
  8
DANMEN
  6
CONTINUOUS
 10
89.599992
 20
107.500001
 30
0.0
 11
88.460613
 21
107.500001
 31
0.0
  0
ARC
  5
1AFBD
  8
DANMEN
  6
CONTINUOUS
 10
89.599992
 20
107.800001
 30
0.0
 40
0.3
 50
269.999974
 51
359.999974
  0
LINE
  5
1AFBE
  8
DANMEN
  6
CONTINUOUS
 10
89.199993
 20
109.15394
 30
0.0
 11
89.199993
 21
110.400001
 31
0.0
  0
ARC
  5
1AFBF
  8
DANMEN
  6
CONTINUOUS
 10
89.699993
 20
109.069694
 30
0.0
 40
2.0
 50
179.999974
 51
231.706497
  0
ARC
  5
1AFC0
  8
DANMEN
  6
CONTINUOUS
 10
90.199993
 20
110.4
 30
0.0
 40
1.0
 50
89.999974
 51
179.999974
  0
ARC
  5
1AFC1
  8
DANMEN
  6
CONTINUOUS
 10
92.299998
 20
109.069694
 30
0.0
 40
2.0
 50
308.293503
 51
0.000026
  0
LINE
  5
1AFC2
  8
DANMEN
  6
CONTINUOUS
 10
92.799998
 20
109.15394
 30
0.0
 11
92.799997
 21
110.400001
 31
0.0
  0
ARC
  5
1AFC3
  8
DANMEN
  6
CONTINUOUS
 10
92.399998
 20
107.800001
 30
0.0
 40
0.3
 50
180.000026
 51
270.000026
  0
LINE
  5
1AFC4
  8
DANMEN
  6
CONTINUOUS
 10
92.399999
 20
107.500001
 30
0.0
 11
93.539378
 21
107.500001
 31
0.0
  0
ARC
  5
1AFC5
  8
DANMEN
  6
CONTINUOUS
 10
92.299998
 20
108.063069
 30
0.0
 40
0.2
 50
114.624344
 51
180.000026
  0
ARC
  5
1AFC6
  8
DANMEN
  6
CONTINUOUS
 10
91.799998
 20
109.15394
 30
0.0
 40
1.0
 50
294.624344
 51
0.000026
  0
LINE
  5
1AFC7
  8
DANMEN
  6
CONTINUOUS
 10
92.099998
 20
107.800001
 30
0.0
 11
92.099998
 21
108.063068
 31
0.0
  0
ARC
  5
1AFC8
  8
DANMEN
  6
CONTINUOUS
 10
91.799997
 20
110.4
 30
0.0
 40
1.0
 50
0.000026
 51
90.000026
  0
LINE
  5
1AFC9
  8
DANMEN
  6
CONTINUOUS
 10
94.299998
 20
109.069695
 30
0.0
 11
94.299997
 21
110.350003
 31
0.0
  0
ARC
  5
1AFCA
  8
DANMEN
  6
CONTINUOUS
 10
95.299997
 20
110.350003
 30
0.0
 40
1.0
 50
90.0
 51
180.0
  0
LINE
  5
1AFCC
  8
DANMEN
  6
CONTINUOUS
 10
110.463231
 20
93.519298
 30
0.0
 11
110.500009
 21
109.007745
 31
0.0
  0
LINE
  5
1AFCD
  8
DANMEN
  6
CONTINUOUS
 10
111.700003
 20
109.259086
 30
0.0
 11
111.167188
 21
94.024983
 31
0.0
  0
LINE
  5
1AFCE
  8
DANMEN
  6
CONTINUOUS
 10
110.163219
 20
93.503575
 30
0.0
 11
110.200003
 21
109.000003
 31
0.0
  0
LINE
  5
1AFCF
  8
DANMEN
  6
CONTINUOUS
 10
112.0
 20
93.0
 30
0.0
 11
112.0
 21
110.000137
 31
0.0
  0
LINE
  5
1AFD0
  8
DANMEN
  6
CONTINUOUS
 10
110.2
 20
111.000003
 30
0.0
 11
110.2
 21
88.0
 31
0.0
  0
LINE
  5
1AFD1
  8
DANMEN
  6
CONTINUOUS
 10
110.35
 20
92.5
 30
0.0
 11
110.35
 21
88.0
 31
0.0
  0
ARC
  5
1AFD2
  8
DANMEN
  6
CONTINUOUS
 10
111.5
 20
92.5
 30
0.0
 40
0.5
 50
0.0
 51
90.0
  0
LINE
  5
1AFD4
  8
DANMEN
  6
CONTINUOUS
 10
110.163219
 20
93.503575
 30
0.0
 11
110.693389
 21
93.53136
 31
0.0
  0
ARC
  5
1AFD8
  8
DANMEN
  6
CONTINUOUS
 10
110.667221
 20
94.030675
 30
0.0
 40
0.5
 50
273.0
 51
359.347777
  0
ARC
  5
1AFDB
  8
DANMEN
  6
CONTINUOUS
 10
110.85
 20
92.5
 30
0.0
 40
0.5
 50
90.0
 51
180.0
  0
LINE
  5
1AFDC
  8
DANMEN
  6
CONTINUOUS
 10
110.85
 20
93.0
 30
0.0
 11
111.5
 21
93.0
 31
0.0
  0
LINE
  5
1AFDD
  8
DANMEN
  6
CONTINUOUS
 10
110.3
 20
93.0
 30
0.0
 11
110.3
 21
94.52729
 31
0.0
  0
LINE
  5
1AFDF
  8
DANMEN
  6
CONTINUOUS
 10
113.700003
 20
117.500003
 30
0.0
 11
130.200003
 21
117.500003
 31
0.0
  0
LINE
  5
1AFE0
  8
DANMEN
  6
CONTINUOUS
 10
130.200003
 20
110.153615
 30
0.0
 11
111.700003
 21
109.000003
 31
0.0
  0
LINE
  5
1AFE1
  8
DANMEN
  6
CONTINUOUS
 10
110.200003
 20
113.500003
 30
0.0
 11
110.200003
 21
109.000003
 31
0.0
  0
LINE
  5
1AFE2
  8
DANMEN
  6
CONTINUOUS
 10
110.500003
 20
113.500003
 30
0.0
 11
110.500003
 21
108.992034
 31
0.0
  0
LINE
  5
1AFE3
  8
DANMEN
  6
CONTINUOUS
 10
111.700003
 20
115.500003
 30
0.0
 11
111.700003
 21
109.000003
 31
0.0
  0
LINE
  5
1AFE4
  8
DANMEN
  6
CONTINUOUS
 10
110.2
 20
113.000003
 30
0.0
 11
110.2
 21
111.000003
 31
0.0
  0
ARC
  5
1AFE5
  8
DANMEN
  6
CONTINUOUS
 10
118.499997
 20
113.500003
 30
0.0
 40
0.5
 50
270.0
 51
0.0
  0
ARC
  5
1AFE6
  8
DANMEN
  6
CONTINUOUS
 10
107.584676
 20
110.850003
 30
0.0
 40
0.5
 50
328.440409
 51
90.0
  0
ARC
  5
1AFEC
  8
DANMEN
  6
CONTINUOUS
 10
113.700003
 20
115.500003
 30
0.0
 40
2.0
 50
89.999982
 51
180.000019
  0
LINE
  5
1AFED
  8
DANMEN
  6
CONTINUOUS
 10
110.2
 20
113.000003
 30
0.0
 11
118.499997
 21
113.000003
 31
0.0
  0
LINE
  5
1AFEE
  8
DANMEN
  6
CONTINUOUS
 10
109.05
 20
115.000003
 30
0.0
 11
115.15
 21
115.000003
 31
0.0
  0
ARC
  5
1AFEF
  8
DANMEN
  6
CONTINUOUS
 10
112.0
 20
121.500003
 30
0.0
 40
0.5
 50
179.999999
 51
0.000018
  0
LINE
  5
1AFF0
  8
DANMEN
  6
CONTINUOUS
 10
108.4
 20
120.000007
 30
0.0
 11
108.4
 21
113.000007
 31
0.0
  0
LINE
  5
1AFF1
  8
DANMEN
  6
CONTINUOUS
 10
110.200003
 20
113.500003
 30
0.0
 11
111.700003
 21
113.500003
 31
0.0
  0
ARC
  5
1AFF6
  8
DANMEN
  6
CONTINUOUS
 10
109.05
 20
114.500003
 30
0.0
 40
0.5
 50
90.0
 51
180.0
  0
LINE
  5
1AFF7
  8
DANMEN
  6
CONTINUOUS
 10
108.55
 20
114.500003
 30
0.0
 11
108.55
 21
113.000003
 31
0.0
  0
LINE
  5
1AFF9
  8
DANMEN
  6
CONTINUOUS
 10
115.15
 20
122.500003
 30
0.0
 11
115.15
 21
115.000003
 31
0.0
  0
LINE
  5
1AFFA
  8
DANMEN
  6
CONTINUOUS
 10
116.8
 20
114.500003
 30
0.0
 11
118.999997
 21
114.500003
 31
0.0
  0
LINE
  5
1AFFB
  8
DANMEN
  6
CONTINUOUS
 10
118.999997
 20
114.500003
 30
0.0
 11
118.999997
 21
113.500003
 31
0.0
  0
LINE
  5
1AFFC
  8
DANMEN
  6
CONTINUOUS
 10
115.150003
 20
123.500003
 30
0.0
 11
112.5
 21
123.500003
 31
0.0
  0
LINE
  5
1AFFD
  8
DANMEN
  6
CONTINUOUS
 10
115.150003
 20
122.500003
 30
0.0
 11
112.5
 21
122.500003
 31
0.0
  0
LINE
  5
1AFFE
  8
DANMEN
  6
CONTINUOUS
 10
112.5
 20
121.500003
 30
0.0
 11
112.5
 21
122.500003
 31
0.0
  0
LINE
  5
1AFFF
  8
DANMEN
  6
CONTINUOUS
 10
162.5
 20
88.0
 30
0.0
 11
186.5
 21
88.0
 31
0.0
  0
LINE
  5
1B000
  8
DANMEN
  6
CONTINUOUS
 10
163.649994
 20
89.649994
 30
0.0
 11
170.350006
 21
89.649994
 31
0.0
  0
LINE
  5
1B001
  8
DANMEN
  6
CONTINUOUS
 10
163.649994
 20
93.5
 30
0.0
 11
163.649994
 21
89.649994
 31
0.0
  0
LINE
  5
1B002
  8
DANMEN
  6
CONTINUOUS
 10
162.0
 20
93.5
 30
0.0
 11
162.0
 21
88.5
 31
0.0
  0
ARC
  5
1B005
  8
DANMEN
  6
CONTINUOUS
 10
162.5
 20
88.5
 30
0.0
 40
0.5
 50
180.000036
 51
269.999963
  0
ARC
  5
1B008
  8
DANMEN
  6
CONTINUOUS
 10
162.5
 20
93.5
 30
0.0
 40
0.5
 50
89.999982
 51
180.000019
  0
ARC
  5
1B009
  8
DANMEN
  6
CONTINUOUS
 10
163.149994
 20
93.5
 30
0.0
 40
0.5
 50
359.999981
 51
89.999982
  0
LINE
  5
1B00A
  8
DANMEN
  6
CONTINUOUS
 10
162.5
 20
94.0
 30
0.0
 11
163.149994
 21
94.0
 31
0.0
  0
LINE
  5
1B00B
  8
DANMEN
  6
CONTINUOUS
 10
172.0
 20
120.5
 30
0.0
 11
172.0
 21
89.1
 31
0.0
  0
LINE
  5
1B00C
  8
DANMEN
  6
CONTINUOUS
 10
174.0
 20
89.649994
 30
0.0
 11
186.5
 21
89.649994
 31
0.0
  0
LINE
  5
1B00D
  8
DANMEN
  6
CONTINUOUS
 10
172.0
 20
89.1
 30
0.0
 11
174.0
 21
89.1
 31
0.0
  0
LINE
  5
1B011
  8
DANMEN
  6
CONTINUOUS
 10
174.0
 20
89.649994
 30
0.0
 11
174.0
 21
89.1
 31
0.0
  0
ARC
  5
1B013
  8
DANMEN
  6
CONTINUOUS
 10
186.5
 20
89.149994
 30
0.0
 40
0.5
 50
359.999981
 51
89.999982
  0
ARC
  5
1B016
  8
DANMEN
  6
CONTINUOUS
 10
186.5
 20
88.5
 30
0.0
 40
0.5
 50
270.000018
 51
359.999981
  0
LINE
  5
1B017
  8
DANMEN
  6
CONTINUOUS
 10
187.0
 20
89.149994
 30
0.0
 11
187.0
 21
88.5
 31
0.0
  0
LINE
  5
1B018
  8
DANMEN
  6
CONTINUOUS
 10
176.270495
 20
124.0
 30
0.0
 11
179.350004
 21
124.0
 31
0.0
  0
LINE
  5
1B019
  8
DANMEN
  6
CONTINUOUS
 10
172.0
 20
120.5
 30
0.0
 11
184.5
 21
120.5
 31
0.0
  0
ARC
  5
1B01A
  8
DANMEN
  6
CONTINUOUS
 10
177.5
 20
123.5
 30
0.0
 40
0.5
 50
90.000037
 51
180.000019
  0
LINE
  5
1B01B
  8
DANMEN
  6
CONTINUOUS
 10
172.0
 20
124.0
 30
0.0
 11
177.5
 21
124.0
 31
0.0
  0
LINE
  5
1B01C
  8
DANMEN
  6
CONTINUOUS
 10
172.0
 20
121.6
 30
0.0
 11
177.0
 21
121.6
 31
0.0
  0
LINE
  5
1B021
  8
DANMEN
  6
CONTINUOUS
 10
177.0
 20
123.5
 30
0.0
 11
177.0
 21
121.6
 31
0.0
  0
LINE
  5
1B023
  8
DANMEN
  6
CONTINUOUS
 10
180.150004
 20
122.8
 30
0.0
 11
181.850003
 21
122.8
 31
0.0
  0
LINE
  5
1B024
  8
DANMEN
  6
CONTINUOUS
 10
177.8
 20
121.6
 30
0.0
 11
183.999998
 21
121.6
 31
0.0
  0
LINE
  5
1B025
  8
DANMEN
  6
CONTINUOUS
 10
178.350003
 20
123.0
 30
0.0
 11
179.350004
 21
123.0
 31
0.0
  0
LINE
  5
1B026
  8
DANMEN
  6
CONTINUOUS
 10
178.150003
 20
122.8
 30
0.0
 11
178.150003
 21
122.2
 31
0.0
  0
LINE
  5
1B027
  8
DANMEN
  6
CONTINUOUS
 10
178.350003
 20
122.0
 30
0.0
 11
179.350004
 21
122.0
 31
0.0
  0
LINE
  5
1B029
  8
DANMEN
  6
CONTINUOUS
 10
180.150004
 20
122.8
 30
0.0
 11
179.350004
 21
122.0
 31
0.0
  0
ARC
  5
1B02C
  8
DANMEN
  6
CONTINUOUS
 10
178.350003
 20
122.2
 30
0.0
 40
0.2
 50
180.000019
 51
270.000001
  0
ARC
  5
1B02E
  8
DANMEN
  6
CONTINUOUS
 10
178.350003
 20
122.8
 30
0.0
 40
0.2
 50
89.999982
 51
180.000019
  0
LINE
  5
1B02F
  8
DANMEN
  6
CONTINUOUS
 10
179.350004
 20
124.0
 30
0.0
 11
179.350004
 21
123.0
 31
0.0
  0
ARC
  5
1B036
  8
DANMEN
  6
CONTINUOUS
 10
178.699997
 20
123.5
 30
0.0
 40
0.5
 50
359.999981
 51
90.000037
  0
LINE
  5
1B037
  8
DANMEN
  6
CONTINUOUS
 10
177.8
 20
123.199997
 30
0.0
 11
179.199997
 21
123.199997
 31
0.0
  0
LINE
  5
1B038
  8
DANMEN
  6
CONTINUOUS
 10
179.200001
 20
123.499999
 30
0.0
 11
179.200003
 21
123.199996
 31
0.0
  0
LINE
  5
1B039
  8
DANMEN
  6
CONTINUOUS
 10
177.5
 20
124.0
 30
0.0
 11
178.699997
 21
124.0
 31
0.0
  0
LINE
  5
1B03A
  8
DANMEN
  6
CONTINUOUS
 10
177.8
 20
123.199997
 30
0.0
 11
177.8
 21
121.6
 31
0.0
  0
LINE
  5
1B03D
  8
DANMEN
  6
CONTINUOUS
 10
183.850004
 20
122.8
 30
0.0
 11
183.850004
 21
122.2
 31
0.0
  0
LINE
  5
1B03F
  8
DANMEN
  6
CONTINUOUS
 10
181.850003
 20
122.8
 30
0.0
 11
182.650003
 21
122.0
 31
0.0
  0
LINE
  5
1B040
  8
DANMEN
  6
CONTINUOUS
 10
182.650003
 20
122.0
 30
0.0
 11
183.650004
 21
122.0
 31
0.0
  0
ARC
  5
1B043
  8
DANMEN
  6
CONTINUOUS
 10
183.650004
 20
122.8
 30
0.0
 40
0.2
 50
0.0
 51
89.999982
  0
ARC
  5
1B045
  8
DANMEN
  6
CONTINUOUS
 10
183.650004
 20
122.2
 30
0.0
 40
0.2
 50
270.000018
 51
0.0
  0
LINE
  5
1B046
  8
DANMEN
  6
CONTINUOUS
 10
182.650003
 20
123.0
 30
0.0
 11
183.650004
 21
123.0
 31
0.0
  0
LINE
  5
1B047
  8
DANMEN
  6
CONTINUOUS
 10
182.650003
 20
124.0
 30
0.0
 11
182.650003
 21
123.0
 31
0.0
  0
LINE
  5
1B049
  8
DANMEN
  6
CONTINUOUS
 10
182.650003
 20
124.0
 30
0.0
 11
185.000004
 21
124.0
 31
0.0
  0
ARC
  5
1B04F
  8
DANMEN
  6
CONTINUOUS
 10
183.300003
 20
123.5
 30
0.0
 40
0.5
 50
90.0
 51
179.999149
  0
ARC
  5
1B054
  8
DANMEN
  6
CONTINUOUS
 10
184.5
 20
121.0
 30
0.0
 40
0.5
 50
270.000018
 51
0.0
  0
ARC
  5
1B055
  8
DANMEN
  6
CONTINUOUS
 10
184.5
 20
123.5
 30
0.0
 40
0.5
 50
359.999981
 51
90.000037
  0
LINE
  5
1B056
  8
DANMEN
  6
CONTINUOUS
 10
183.300003
 20
124.0
 30
0.0
 11
184.5
 21
124.0
 31
0.0
  0
LINE
  5
1B057
  8
DANMEN
  6
CONTINUOUS
 10
182.800003
 20
123.199997
 30
0.0
 11
184.0
 21
123.199997
 31
0.0
  0
LINE
  5
1B058
  8
DANMEN
  6
CONTINUOUS
 10
183.999998
 20
123.199997
 30
0.0
 11
183.999998
 21
121.6
 31
0.0
  0
LINE
  5
1B059
  8
DANMEN
  6
CONTINUOUS
 10
182.800003
 20
123.500017
 30
0.0
 11
182.799998
 21
123.199998
 31
0.0
  0
LINE
  5
1B05A
  8
DANMEN
  6
CONTINUOUS
 10
185.0
 20
123.5
 30
0.0
 11
185.0
 21
121.0
 31
0.0
  0
LINE
  5
1B05C
  8
DANMEN
  6
CONTINUOUS
 10
184.5
 20
120.5
 30
0.0
 11
185.0
 21
120.5
 31
0.0
  0
LINE
  5
1B05D
  8
DANMEN
  6
CONTINUOUS
 10
185.0
 20
120.5
 30
0.0
 11
185.0
 21
124.0
 31
0.0
  0
LINE
  5
1B05E
  8
DANMEN
  6
CONTINUOUS
 10
78.0
 20
253.950012
 30
0.0
 11
65.5
 21
253.950012
 31
0.0
  0
LINE
  5
1B05F
  8
DANMEN
  6
CONTINUOUS
 10
78.65
 20
255.600012
 30
0.0
 11
63.4
 21
255.600012
 31
0.0
  0
ARC
  5
1B060
  8
DANMEN
  6
CONTINUOUS
 10
70.300003
 20
177.5
 30
0.0
 40
0.5
 50
270.000018
 51
0.0
  0
LINE
  5
1B061
  8
DANMEN
  6
CONTINUOUS
 10
71.05
 20
224.95
 30
0.0
 11
69.850006
 21
224.95
 31
0.0
  0
ARC
  5
1B062
  8
DANMEN
  6
CONTINUOUS
 10
70.300003
 20
166.5
 30
0.0
 40
0.5
 50
0.0
 51
89.999982
  0
LINE
  5
1B063
  8
DANMEN
  6
CONTINUOUS
 10
47.5
 20
262.0
 30
0.0
 11
106.5
 21
262.0
 31
0.0
  0
LINE
  5
1B064
  8
DANMEN
  6
CONTINUOUS
 10
65.0
 20
235.0
 30
0.0
 11
73.0
 21
235.0
 31
0.0
  0
LINE
  5
1B065
  8
DANMEN
  6
CONTINUOUS
 10
47.504337
 20
197.0
 30
0.0
 11
47.907182
 21
235.550678
 31
0.0
  0
LINE
  5
1B066
  8
DANMEN
  6
CONTINUOUS
 10
48.976095
 20
235.082141
 30
0.0
 11
49.0
 21
197.0
 31
0.0
  0
LINE
  5
1B067
  8
DANMEN
  6
CONTINUOUS
 10
48.676108
 20
235.062215
 30
0.0
 11
48.7
 21
197.0
 31
0.0
  0
LINE
  5
1B068
  8
DANMEN
  6
CONTINUOUS
 10
53.149994
 20
234.5
 30
0.0
 11
53.149994
 21
208.5
 31
0.0
  0
LINE
  5
1B069
  8
DANMEN
  6
CONTINUOUS
 10
68.850006
 20
223.95
 30
0.0
 11
68.850006
 21
208.5
 31
0.0
  0
LINE
  5
1B06A
  8
DANMEN
  6
CONTINUOUS
 10
51.199997
 20
234.5
 30
0.0
 11
51.199997
 21
197.0
 31
0.0
  0
LINE
  5
1B06B
  8
DANMEN
  6
CONTINUOUS
 10
42.0
 20
227.5
 30
0.0
 11
42.0
 21
197.0
 31
0.0
  0
LINE
  5
1B06C
  8
DANMEN
  6
CONTINUOUS
 10
43.649994
 20
227.5
 30
0.0
 11
43.649994
 21
197.0
 31
0.0
  0
LINE
  5
1B06D
  8
DANMEN
  6
CONTINUOUS
 10
65.0
 20
235.0
 30
0.0
 11
65.0
 21
216.0
 31
0.0
  0
LINE
  5
1B06E
  8
DANMEN
  6
CONTINUOUS
 10
57.0
 20
235.0
 30
0.0
 11
57.0
 21
216.0
 31
0.0
  0
LINE
  5
1B06F
  8
DANMEN
  6
CONTINUOUS
 10
59.65
 20
152.000003
 30
0.0
 11
59.65
 21
171.000003
 31
0.0
  0
LINE
  5
1B070
  8
DANMEN
  6
CONTINUOUS
 10
54.65
 20
152.000003
 30
0.0
 11
54.65
 21
171.000003
 31
0.0
  0
LINE
  5
1B071
  8
DANMEN
  6
CONTINUOUS
 10
48.35
 20
152.000003
 30
0.0
 11
48.35
 21
171.000003
 31
0.0
  0
LINE
  5
1B072
  8
DANMEN
  6
CONTINUOUS
 10
53.35
 20
152.000003
 30
0.0
 11
53.35
 21
171.000003
 31
0.0
  0
LINE
  5
1B073
  8
DANMEN
  6
CONTINUOUS
 10
60.15
 20
152.000003
 30
0.0
 11
60.15
 21
171.000003
 31
0.0
  0
LINE
  5
1B074
  8
DANMEN
  6
CONTINUOUS
 10
47.85
 20
152.000003
 30
0.0
 11
47.85
 21
171.000003
 31
0.0
  0
LINE
  5
1B075
  8
DANMEN
  6
CONTINUOUS
 10
54.15
 20
152.000003
 30
0.0
 11
54.15
 21
171.000003
 31
0.0
  0
LINE
  5
1B076
  8
DANMEN
  6
CONTINUOUS
 10
53.85
 20
152.000003
 30
0.0
 11
53.85
 21
171.000003
 31
0.0
  0
LINE
  5
1B077
  8
DANMEN
  6
CONTINUOUS
 10
39.5
 20
167.0
 30
0.0
 11
39.5
 21
171.0
 31
0.0
  0
LINE
  5
1B078
  8
DANMEN
  6
CONTINUOUS
 10
68.5
 20
171.0
 30
0.0
 11
68.5
 21
167.0
 31
0.0
  0
LINE
  5
1B079
  8
DANMEN
  6
CONTINUOUS
 10
39.5
 20
167.0
 30
0.0
 11
37.699997
 21
167.0
 31
0.0
  0
ARC
  5
1B07A
  8
DANMEN
  6
CONTINUOUS
 10
37.699997
 20
166.5
 30
0.0
 40
0.5
 50
90.000018
 51
180.0
  0
LINE
  5
1B07C
  8
DANMEN
  6
CONTINUOUS
 10
42.5
 20
145.000004
 30
0.0
 11
65.500001
 21
152.000003
 31
0.0
  0
LINE
  5
1B07D
  8
DANMEN
  6
CONTINUOUS
 10
42.5
 20
152.000003
 30
0.0
 11
42.5
 21
145.000003
 31
0.0
  0
LINE
  5
1B07E
  8
DANMEN
  6
CONTINUOUS
 10
65.5
 20
152.000003
 30
0.0
 11
65.5
 21
145.000003
 31
0.0
  0
LINE
  5
1B07F
  8
DANMEN
  6
CONTINUOUS
 10
68.850006
 20
162.0
 30
0.0
 11
68.850006
 21
145.0
 31
0.0
  0
LINE
  5
1B080
  8
DANMEN
  6
CONTINUOUS
 10
39.149994
 20
162.0
 30
0.0
 11
39.149994
 21
139.199997
 31
0.0
  0
LINE
  5
1B081
  8
DANMEN
  6
CONTINUOUS
 10
42.5
 20
145.000003
 30
0.0
 11
65.5
 21
145.000003
 31
0.0
  0
LINE
  5
1B082
  8
DANMEN
  6
CONTINUOUS
 10
44.699997
 20
145.0
 30
0.0
 11
68.850006
 21
145.0
 31
0.0
  0
LINE
  5
1B083
  8
DANMEN
  6
CONTINUOUS
 10
45.649994
 20
143.050003
 30
0.0
 11
68.850006
 21
143.050003
 31
0.0
  0
LINE
  5
1B084
  8
DANMEN
  6
CONTINUOUS
 10
43.699997
 20
144.0
 30
0.0
 11
43.699997
 21
139.199997
 31
0.0
  0
LINE
  5
1B085
  8
DANMEN
  6
CONTINUOUS
 10
45.649994
 20
143.050003
 30
0.0
 11
45.649994
 21
139.0
 31
0.0
  0
LINE
  5
1B086
  8
DANMEN
  6
CONTINUOUS
 10
39.149994
 20
139.199997
 30
0.0
 11
43.699997
 21
139.199997
 31
0.0
  0
LINE
  5
1B087
  8
DANMEN
  6
CONTINUOUS
 10
39.149994
 20
138.0
 30
0.0
 11
44.649994
 21
138.0
 31
0.0
  0
ARC
  5
1B08C
  8
DANMEN
  6
CONTINUOUS
 10
44.649994
 20
139.0
 30
0.0
 40
1.0
 50
270.000018
 51
0.0
  0
ARC
  5
1B090
  8
DANMEN
  6
CONTINUOUS
 10
44.699997
 20
144.0
 30
0.0
 40
1.0
 50
89.999982
 51
180.000019
  0
LINE
  5
1B095
  8
DANMEN
  6
CONTINUOUS
 10
42.5
 20
152.000003
 30
0.0
 11
65.5
 21
152.000003
 31
0.0
  0
LINE
  5
1B097
  8
DANMEN
  6
CONTINUOUS
 10
47.85
 20
168.000006
 30
0.0
 11
39.499995
 21
167.000006
 31
0.0
  0
LINE
  5
1B098
  8
DANMEN
  6
CONTINUOUS
 10
42.976996
 20
167.416405
 30
0.0
 11
46.393398
 21
164.000003
 31
0.0
  0
LINE
  5
1B099
  8
DANMEN
  6
CONTINUOUS
 10
44.871438
 20
167.643284
 30
0.0
 11
47.850004
 21
164.664718
 31
0.0
  0
LINE
  5
1B09A
  8
DANMEN
  6
CONTINUOUS
 10
46.333041
 20
167.818326
 30
0.0
 11
42.514719
 21
164.000003
 31
0.0
  0
LINE
  5
1B09B
  8
DANMEN
  6
CONTINUOUS
 10
47.850004
 20
167.213969
 30
0.0
 11
44.636039
 21
164.000003
 31
0.0
  0
LINE
  5
1B09C
  8
DANMEN
  6
CONTINUOUS
 10
40.0
 20
166.5
 30
0.0
 11
40.0
 21
162.0
 31
0.0
  0
LINE
  5
1B09D
  8
DANMEN
  6
CONTINUOUS
 10
40.0
 20
166.150761
 30
0.0
 11
42.150758
 21
164.000003
 31
0.0
  0
LINE
  5
1B09E
  8
DANMEN
  6
CONTINUOUS
 10
41.082555
 20
167.189527
 30
0.0
 11
44.272078
 21
164.000003
 31
0.0
  0
LINE
  5
1B09F
  8
DANMEN
  6
CONTINUOUS
 10
43.923107
 20
167.529712
 30
0.0
 11
40.393398
 21
164.000003
 31
0.0
  0
LINE
  5
1B0A2
  8
DANMEN
  6
CONTINUOUS
 10
40.0
 20
162.0
 30
0.0
 11
39.149994
 21
162.0
 31
0.0
  0
LINE
  5
1B0A3
  8
DANMEN
  6
CONTINUOUS
 10
40.0
 20
164.029441
 30
0.0
 11
40.029437
 21
164.000003
 31
0.0
  0
ARC
  5
1B0A4
  8
DANMEN
  6
CONTINUOUS
 10
39.5
 20
166.5
 30
0.0
 40
0.5
 50
359.999981
 51
90.000018
  0
LINE
  5
1B0A6
  8
DANMEN
  6
CONTINUOUS
 10
41.513172
 20
167.241097
 30
0.0
 11
40.0
 21
165.727926
 31
0.0
  0
LINE
  5
1B0A7
  8
DANMEN
  6
CONTINUOUS
 10
47.850004
 20
165.092648
 30
0.0
 11
46.757359
 21
164.000003
 31
0.0
  0
LINE
  5
1B0A9
  8
DANMEN
  6
CONTINUOUS
 10
46.765879
 20
167.870163
 30
0.0
 11
47.850004
 21
166.786038
 31
0.0
  0
LINE
  5
1B0AD
  8
DANMEN
  6
CONTINUOUS
 10
60.15
 20
167.999998
 30
0.0
 11
68.499998
 21
166.999999
 31
0.0
  0
LINE
  5
1B0AE
  8
DANMEN
  6
CONTINUOUS
 10
60.150003
 20
167.213962
 30
0.0
 11
63.363961
 21
164.000003
 31
0.0
  0
LINE
  5
1B0AF
  8
DANMEN
  6
CONTINUOUS
 10
61.666958
 20
167.818327
 30
0.0
 11
65.485282
 21
164.000003
 31
0.0
  0
LINE
  5
1B0B0
  8
DANMEN
  6
CONTINUOUS
 10
63.128562
 20
167.643285
 30
0.0
 11
60.150003
 21
164.664725
 31
0.0
  0
LINE
  5
1B0B1
  8
DANMEN
  6
CONTINUOUS
 10
65.023004
 20
167.416406
 30
0.0
 11
61.606601
 21
164.000003
 31
0.0
  0
LINE
  5
1B0B2
  8
DANMEN
  6
CONTINUOUS
 10
60.150003
 20
165.092641
 30
0.0
 11
61.242641
 21
164.000003
 31
0.0
  0
LINE
  5
1B0B3
  8
DANMEN
  6
CONTINUOUS
 10
61.234121
 20
167.870163
 30
0.0
 11
60.150003
 21
166.786045
 31
0.0
  0
LINE
  5
1B0B4
  8
DANMEN
  6
CONTINUOUS
 10
68.0
 20
166.5
 30
0.0
 11
68.0
 21
162.0
 31
0.0
  0
LINE
  5
1B0B5
  8
DANMEN
  6
CONTINUOUS
 10
64.076893
 20
167.529712
 30
0.0
 11
67.606602
 21
164.000003
 31
0.0
  0
LINE
  5
1B0B6
  8
DANMEN
  6
CONTINUOUS
 10
66.917445
 20
167.189527
 30
0.0
 11
63.727922
 21
164.000003
 31
0.0
  0
LINE
  5
1B0B7
  8
DANMEN
  6
CONTINUOUS
 10
68.0
 20
166.150761
 30
0.0
 11
65.849242
 21
164.000003
 31
0.0
  0
LINE
  5
1B0B8
  8
DANMEN
  6
CONTINUOUS
 10
68.0
 20
162.0
 30
0.0
 11
68.850006
 21
162.0
 31
0.0
  0
LINE
  5
1B0BB
  8
DANMEN
  6
CONTINUOUS
 10
68.0
 20
164.029441
 30
0.0
 11
67.970563
 21
164.000003
 31
0.0
  0
LINE
  5
1B0BC
  8
DANMEN
  6
CONTINUOUS
 10
66.486828
 20
167.241098
 30
0.0
 11
68.0
 21
165.727926
 31
0.0
  0
LINE
  5
1B0BD
  8
DANMEN
  6
CONTINUOUS
 10
68.5
 20
167.0
 30
0.0
 11
70.300003
 21
167.0
 31
0.0
  0
ARC
  5
1B0BF
  8
DANMEN
  6
CONTINUOUS
 10
68.5
 20
166.5
 30
0.0
 40
0.5
 50
89.999982
 51
180.000019
  0
LINE
  5
1B0C0
  8
DANMEN
  6
CONTINUOUS
 10
49.0
 20
195.5
 30
0.0
 11
34.700005
 21
195.5
 31
0.0
  0
LINE
  5
1B0C1
  8
DANMEN
  6
CONTINUOUS
 10
48.7
 20
197.0
 30
0.0
 11
35.700005
 21
197.0
 31
0.0
  0
LINE
  5
1B0C2
  8
DANMEN
  6
CONTINUOUS
 10
36.0
 20
197.0
 30
0.0
 11
51.199997
 21
197.0
 31
0.0
  0
LINE
  5
1B0C3
  8
DANMEN
  6
CONTINUOUS
 10
37.699997
 20
177.0
 30
0.0
 11
39.5
 21
177.0
 31
0.0
  0
LINE
  5
1B0C4
  8
DANMEN
  6
CONTINUOUS
 10
37.199997
 20
195.5
 30
0.0
 11
37.199997
 21
177.5
 31
0.0
  0
LINE
  5
1B0C5
  8
DANMEN
  6
CONTINUOUS
 10
35.0
 20
195.5
 30
0.0
 11
35.0
 21
173.0
 31
0.0
  0
ARC
  5
1B0C6
  8
DANMEN
  6
CONTINUOUS
 10
37.699997
 20
177.5
 30
0.0
 40
0.5
 50
180.000019
 51
270.000001
  0
LINE
  5
1B0C9
  8
DANMEN
  6
CONTINUOUS
 10
34.700005
 20
195.5
 30
0.0
 11
34.700005
 21
196.0
 31
0.0
  0
ARC
  5
1B0CB
  8
DANMEN
  6
CONTINUOUS
 10
35.700005
 20
196.0
 30
0.0
 40
1.0
 50
90.0
 51
180.0
  0
ARC
  5
1B0CD
  8
DANMEN
  6
CONTINUOUS
 10
36.0
 20
196.0
 30
0.0
 40
1.0
 50
89.999982
 51
180.000019
  0
LINE
  5
1B0D1
  8
DANMEN
  6
CONTINUOUS
 10
35.0
 20
195.5
 30
0.0
 11
37.199997
 21
195.5
 31
0.0
  0
LINE
  5
1B0D2
  8
DANMEN
  6
CONTINUOUS
 10
35.0
 20
196.0
 30
0.0
 11
35.0
 21
195.5
 31
0.0
  0
LINE
  5
1B0D3
  8
DANMEN
  6
CONTINUOUS
 10
68.850006
 20
195.050003
 30
0.0
 11
68.850006
 21
182.0
 31
0.0
  0
LINE
  5
1B0D4
  8
DANMEN
  6
CONTINUOUS
 10
39.149994
 20
195.050003
 30
0.0
 11
39.149994
 21
182.0
 31
0.0
  0
LINE
  5
1B0D5
  8
DANMEN
  6
CONTINUOUS
 10
47.85
 20
192.0
 30
0.0
 11
60.15
 21
192.0
 31
0.0
  0
LINE
  5
1B0D6
  8
DANMEN
  6
CONTINUOUS
 10
48.35
 20
192.0
 30
0.0
 11
48.35
 21
173.0
 31
0.0
  0
LINE
  5
1B0D7
  8
DANMEN
  6
CONTINUOUS
 10
53.35
 20
192.0
 30
0.0
 11
53.35
 21
173.0
 31
0.0
  0
LINE
  5
1B0D8
  8
DANMEN
  6
CONTINUOUS
 10
47.85
 20
192.0
 30
0.0
 11
47.85
 21
173.0
 31
0.0
  0
LINE
  5
1B0D9
  8
DANMEN
  6
CONTINUOUS
 10
53.85
 20
192.0
 30
0.0
 11
53.85
 21
173.0
 31
0.0
  0
LINE
  5
1B0DA
  8
DANMEN
  6
CONTINUOUS
 10
54.15
 20
192.0
 30
0.0
 11
54.15
 21
173.0
 31
0.0
  0
LINE
  5
1B0DB
  8
DANMEN
  6
CONTINUOUS
 10
47.85
 20
176.000005
 30
0.0
 11
39.500002
 21
177.000005
 31
0.0
  0
LINE
  5
1B0DC
  8
DANMEN
  6
CONTINUOUS
 10
47.849997
 20
176.786042
 30
0.0
 11
44.636039
 21
180.0
 31
0.0
  0
LINE
  5
1B0DD
  8
DANMEN
  6
CONTINUOUS
 10
46.333042
 20
176.181677
 30
0.0
 11
42.514718
 21
180.0
 31
0.0
  0
LINE
  5
1B0DE
  8
DANMEN
  6
CONTINUOUS
 10
44.871438
 20
176.356719
 30
0.0
 11
47.849997
 21
179.335278
 31
0.0
  0
LINE
  5
1B0DF
  8
DANMEN
  6
CONTINUOUS
 10
42.976996
 20
176.583598
 30
0.0
 11
46.393399
 21
180.0
 31
0.0
  0
LINE
  5
1B0E0
  8
DANMEN
  6
CONTINUOUS
 10
43.923107
 20
176.470291
 30
0.0
 11
40.393398
 21
180.0
 31
0.0
  0
LINE
  5
1B0E1
  8
DANMEN
  6
CONTINUOUS
 10
39.5
 20
173.0
 30
0.0
 11
39.5
 21
176.940125
 31
0.0
  0
LINE
  5
1B0E2
  8
DANMEN
  6
CONTINUOUS
 10
41.082555
 20
176.810477
 30
0.0
 11
44.272078
 21
180.0
 31
0.0
  0
LINE
  5
1B0E3
  8
DANMEN
  6
CONTINUOUS
 10
40.0
 20
177.849242
 30
0.0
 11
42.150758
 21
180.0
 31
0.0
  0
ARC
  5
1B0E4
  8
DANMEN
  6
CONTINUOUS
 10
39.5
 20
177.5
 30
0.0
 40
0.5
 50
270.000018
 51
0.0
  0
LINE
  5
1B0E7
  8
DANMEN
  6
CONTINUOUS
 10
39.149994
 20
182.0
 30
0.0
 11
40.0
 21
182.0
 31
0.0
  0
LINE
  5
1B0E8
  8
DANMEN
  6
CONTINUOUS
 10
40.0
 20
182.0
 30
0.0
 11
40.0
 21
177.5
 31
0.0
  0
LINE
  5
1B0EA
  8
DANMEN
  6
CONTINUOUS
 10
41.513172
 20
176.758906
 30
0.0
 11
40.0
 21
178.272078
 31
0.0
  0
LINE
  5
1B0EB
  8
DANMEN
  6
CONTINUOUS
 10
40.0
 20
179.970563
 30
0.0
 11
40.029437
 21
180.0
 31
0.0
  0
LINE
  5
1B0EC
  8
DANMEN
  6
CONTINUOUS
 10
46.765879
 20
176.12984
 30
0.0
 11
47.849997
 21
177.213958
 31
0.0
  0
LINE
  5
1B0ED
  8
DANMEN
  6
CONTINUOUS
 10
47.849997
 20
178.907362
 30
0.0
 11
46.757359
 21
180.0
 31
0.0
  0
LINE
  5
1B0F0
  8
DANMEN
  6
CONTINUOUS
 10
59.65
 20
192.0
 30
0.0
 11
59.65
 21
173.0
 31
0.0
  0
LINE
  5
1B0F1
  8
DANMEN
  6
CONTINUOUS
 10
54.65
 20
192.0
 30
0.0
 11
54.65
 21
173.0
 31
0.0
  0
LINE
  5
1B0F2
  8
DANMEN
  6
CONTINUOUS
 10
60.15
 20
192.0
 30
0.0
 11
60.15
 21
173.0
 31
0.0
  0
LINE
  5
1B0F3
  8
DANMEN
  6
CONTINUOUS
 10
60.15
 20
175.999997
 30
0.0
 11
68.500005
 21
176.999997
 31
0.0
  0
LINE
  5
1B0F4
  8
DANMEN
  6
CONTINUOUS
 10
65.023004
 20
176.583598
 30
0.0
 11
61.606602
 21
180.0
 31
0.0
  0
LINE
  5
1B0F5
  8
DANMEN
  6
CONTINUOUS
 10
63.128562
 20
176.356719
 30
0.0
 11
60.149996
 21
179.335286
 31
0.0
  0
LINE
  5
1B0F6
  8
DANMEN
  6
CONTINUOUS
 10
61.666959
 20
176.181677
 30
0.0
 11
65.485281
 21
180.0
 31
0.0
  0
LINE
  5
1B0F7
  8
DANMEN
  6
CONTINUOUS
 10
60.149996
 20
176.786035
 30
0.0
 11
63.363961
 21
180.0
 31
0.0
  0
LINE
  5
1B0F8
  8
DANMEN
  6
CONTINUOUS
 10
61.234121
 20
176.12984
 30
0.0
 11
60.149996
 21
177.213965
 31
0.0
  0
LINE
  5
1B0FA
  8
DANMEN
  6
CONTINUOUS
 10
60.149996
 20
178.907355
 30
0.0
 11
61.242641
 21
180.0
 31
0.0
  0
LINE
  5
1B0FB
  8
DANMEN
  6
CONTINUOUS
 10
64.076893
 20
176.470292
 30
0.0
 11
67.606602
 21
180.0
 31
0.0
  0
LINE
  5
1B0FC
  8
DANMEN
  6
CONTINUOUS
 10
68.5
 20
176.940117
 30
0.0
 11
68.5
 21
173.0
 31
0.0
  0
LINE
  5
1B0FD
  8
DANMEN
  6
CONTINUOUS
 10
68.0
 20
177.849242
 30
0.0
 11
65.849242
 21
180.0
 31
0.0
  0
LINE
  5
1B0FE
  8
DANMEN
  6
CONTINUOUS
 10
66.917445
 20
176.810477
 30
0.0
 11
63.727922
 21
180.0
 31
0.0
  0
LINE
  5
1B0FF
  8
DANMEN
  6
CONTINUOUS
 10
66.486828
 20
176.758906
 30
0.0
 11
68.0
 21
178.272078
 31
0.0
  0
ARC
  5
1B102
  8
DANMEN
  6
CONTINUOUS
 10
68.5
 20
177.5
 30
0.0
 40
0.5
 50
180.000019
 51
270.000001
  0
LINE
  5
1B104
  8
DANMEN
  6
CONTINUOUS
 10
68.5
 20
177.0
 30
0.0
 11
70.300003
 21
177.0
 31
0.0
  0
LINE
  5
1B105
  8
DANMEN
  6
CONTINUOUS
 10
68.0
 20
182.0
 30
0.0
 11
68.850006
 21
182.0
 31
0.0
  0
LINE
  5
1B106
  8
DANMEN
  6
CONTINUOUS
 10
68.0
 20
182.0
 30
0.0
 11
68.0
 21
177.5
 31
0.0
  0
LINE
  5
1B107
  8
DANMEN
  6
CONTINUOUS
 10
68.0
 20
179.970563
 30
0.0
 11
67.970563
 21
180.0
 31
0.0
  0
LINE
  5
1B108
  8
DANMEN
  6
CONTINUOUS
 10
53.149994
 20
206.550003
 30
0.0
 11
56.699997
 21
206.550003
 31
0.0
  0
LINE
  5
1B109
  8
DANMEN
  6
CONTINUOUS
 10
53.149994
 20
197.0
 30
0.0
 11
68.850006
 21
197.0
 31
0.0
  0
LINE
  5
1B10A
  8
DANMEN
  6
CONTINUOUS
 10
39.149994
 20
195.050003
 30
0.0
 11
68.850006
 21
195.050003
 31
0.0
  0
LINE
  5
1B10B
  8
DANMEN
  6
CONTINUOUS
 10
53.149994
 20
208.5
 30
0.0
 11
68.850006
 21
208.5
 31
0.0
  0
LINE
  5
1B10C
  8
DANMEN
  6
CONTINUOUS
 10
53.149994
 20
206.550003
 30
0.0
 11
53.149994
 21
197.0
 31
0.0
  0
LINE
  5
1B10E
  8
DANMEN
  6
CONTINUOUS
 10
49.0
 20
195.5
 30
0.0
 11
49.0
 21
197.0
 31
0.0
  0
LINE
  5
1B110
  8
DANMEN
  6
CONTINUOUS
 10
48.7
 20
195.5
 30
0.0
 11
48.7
 21
197.0
 31
0.0
  0
LINE
  5
1B119
  8
DANMEN
  6
CONTINUOUS
 10
68.850006
 20
206.550003
 30
0.0
 11
68.850006
 21
197.0
 31
0.0
  0
LINE
  5
1B11A
  8
DANMEN
  6
CONTINUOUS
 10
62.8
 20
204.553939
 30
0.0
 11
62.8
 21
205.8
 31
0.0
  0
LINE
  5
1B11B
  8
DANMEN
  6
CONTINUOUS
 10
59.2
 20
204.553939
 30
0.0
 11
59.2
 21
205.8
 31
0.0
  0
ARC
  5
1B11C
  8
DANMEN
  6
CONTINUOUS
 10
56.7
 20
205.550003
 30
0.0
 40
1.0
 50
0.0
 51
90.0
  0
ARC
  5
1B11D
  8
DANMEN
  6
CONTINUOUS
 10
65.3
 20
205.550003
 30
0.0
 40
1.0
 50
90.0
 51
180.0
  0
LINE
  5
1B11E
  8
DANMEN
  6
CONTINUOUS
 10
63.539379
 20
202.9
 30
0.0
 11
62.4
 21
202.9
 31
0.0
  0
ARC
  5
1B11F
  8
DANMEN
  6
CONTINUOUS
 10
61.8
 20
204.553939
 30
0.0
 40
1.0
 50
294.624318
 51
0.0
  0
ARC
  5
1B120
  8
DANMEN
  6
CONTINUOUS
 10
59.7
 20
204.469694
 30
0.0
 40
2.0
 50
180.0
 51
231.706523
  0
LINE
  5
1B121
  8
DANMEN
  6
CONTINUOUS
 10
57.7
 20
204.469694
 30
0.0
 11
57.7
 21
205.550003
 31
0.0
  0
ARC
  5
1B123
  8
DANMEN
  6
CONTINUOUS
 10
62.4
 20
203.2
 30
0.0
 40
0.3
 50
180.0
 51
270.0
  0
ARC
  5
1B124
  8
DANMEN
  6
CONTINUOUS
 10
59.6
 20
203.2
 30
0.0
 40
0.3
 50
270.0
 51
0.0
  0
LINE
  5
1B125
  8
DANMEN
  6
CONTINUOUS
 10
59.6
 20
202.9
 30
0.0
 11
58.460621
 21
202.9
 31
0.0
  0
LINE
  5
1B128
  8
DANMEN
  6
CONTINUOUS
 10
62.1
 20
203.2
 30
0.0
 11
62.1
 21
203.463068
 31
0.0
  0
ARC
  5
1B129
  8
DANMEN
  6
CONTINUOUS
 10
62.3
 20
203.463068
 30
0.0
 40
0.2
 50
114.624318
 51
180.0
  0
ARC
  5
1B12A
  8
DANMEN
  6
CONTINUOUS
 10
59.7
 20
203.463068
 30
0.0
 40
0.2
 50
0.0
 51
65.375682
  0
ARC
  5
1B12B
  8
DANMEN
  6
CONTINUOUS
 10
60.2
 20
204.553939
 30
0.0
 40
1.0
 50
180.0
 51
245.375682
  0
LINE
  5
1B12C
  8
DANMEN
  6
CONTINUOUS
 10
59.9
 20
203.2
 30
0.0
 11
59.9
 21
203.463068
 31
0.0
  0
ARC
  5
1B12F
  8
DANMEN
  6
CONTINUOUS
 10
62.3
 20
204.469694
 30
0.0
 40
2.0
 50
308.293477
 51
0.0
  0
LINE
  5
1B130
  8
DANMEN
  6
CONTINUOUS
 10
64.3
 20
204.469694
 30
0.0
 11
64.3
 21
205.550003
 31
0.0
  0
ARC
  5
1B131
  8
DANMEN
  6
CONTINUOUS
 10
61.8
 20
205.8
 30
0.0
 40
1.0
 50
0.0
 51
90.0
  0
ARC
  5
1B132
  8
DANMEN
  6
CONTINUOUS
 10
61.0
 20
216.0
 30
0.0
 40
4.0
 50
180.000019
 51
359.999983
  0
LINE
  5
1B134
  8
DANMEN
  6
CONTINUOUS
 10
61.8
 20
206.8
 30
0.0
 11
60.2
 21
206.8
 31
0.0
  0
ARC
  5
1B135
  8
DANMEN
  6
CONTINUOUS
 10
60.2
 20
205.8
 30
0.0
 40
1.0
 50
90.0
 51
180.0
  0
LINE
  5
1B136
  8
DANMEN
  6
CONTINUOUS
 10
65.300003
 20
206.550003
 30
0.0
 11
68.850006
 21
206.550003
 31
0.0
  0
LINE
  5
1B13A
  8
DANMEN
  6
CONTINUOUS
 10
42.0
 20
261.5
 30
0.0
 11
42.0
 21
227.5
 31
0.0
  0
LINE
  5
1B13B
  8
DANMEN
  6
CONTINUOUS
 10
43.649994
 20
250.0
 30
0.0
 11
43.649994
 21
227.5
 31
0.0
  0
LINE
  5
1B13C
  8
DANMEN
  6
CONTINUOUS
 10
62.25
 20
250.0
 30
0.0
 11
62.25
 21
229.061553
 31
0.0
  0
LINE
  5
1B13D
  8
DANMEN
  6
CONTINUOUS
 10
60.6
 20
250.0
 30
0.0
 11
60.6
 21
239.101833
 31
0.0
  0
LINE
  5
1B13E
  8
DANMEN
  6
CONTINUOUS
 10
49.0
 20
235.0
 30
0.0
 11
57.0
 21
235.0
 31
0.0
  0
ARC
  5
1B13F
  8
DANMEN
  6
CONTINUOUS
 10
42.5
 20
227.5
 30
0.0
 40
0.5
 50
180.000019
 51
270.000001
  0
LINE
  5
1B140
  8
DANMEN
  6
CONTINUOUS
 10
42.5
 20
227.0
 30
0.0
 11
43.149994
 21
227.0
 31
0.0
  0
ARC
  5
1B141
  8
DANMEN
  6
CONTINUOUS
 10
43.149994
 20
227.5
 30
0.0
 40
0.5
 50
270.000018
 51
0.0
  0
LINE
  5
1B142
  8
DANMEN
  6
CONTINUOUS
 10
51.104246
 20
233.219085
 30
0.0
 11
50.971698
 21
235.214688
 31
0.0
  0
LINE
  5
1B143
  8
DANMEN
  6
CONTINUOUS
 10
52.102047
 20
233.285359
 30
0.0
 11
51.936363
 21
235.779863
 31
0.0
  0
ARC
  5
1B144
  8
DANMEN
  6
CONTINUOUS
 10
51.699997
 20
234.5
 30
0.0
 40
0.5
 50
90.0
 51
180.0
  0
ARC
  5
1B145
  8
DANMEN
  6
CONTINUOUS
 10
52.649994
 20
234.5
 30
0.0
 40
0.5
 50
0.0
 51
90.0
  0
LINE
  5
1B149
  8
DANMEN
  6
CONTINUOUS
 10
51.037972
 20
234.216887
 30
0.0
 11
52.035774
 21
234.283161
 31
0.0
  0
ARC
  5
1B14C
  8
DANMEN
  6
CONTINUOUS
 10
51.603147
 20
233.252222
 30
0.0
 40
0.5
 50
183.8
 51
3.8
  0
LINE
  5
1B14D
  8
DANMEN
  6
CONTINUOUS
 10
51.404325
 20
236.245627
 30
0.0
 11
48.374018
 21
236.044354
 31
0.0
  0
LINE
  5
1B14E
  8
DANMEN
  6
CONTINUOUS
 10
51.9695
 20
235.280962
 30
0.0
 11
48.676108
 21
235.062215
 31
0.0
  0
ARC
  5
1B150
  8
DANMEN
  6
CONTINUOUS
 10
48.407155
 20
235.545453
 30
0.0
 40
0.5
 50
93.8
 51
179.401295
  0
ARC
  5
1B155
  8
DANMEN
  6
CONTINUOUS
 10
51.437462
 20
235.746726
 30
0.0
 40
0.5
 50
3.8
 51
93.8
  0
LINE
  5
1B157
  8
DANMEN
  6
CONTINUOUS
 10
51.699997
 20
235.0
 30
0.0
 11
52.649994
 21
235.0
 31
0.0
  0
LINE
  5
1B15A
  8
DANMEN
  6
CONTINUOUS
 10
62.235071
 20
228.940285
 30
0.0
 11
61.844683
 21
227.378732
 31
0.0
  0
LINE
  5
1B15B
  8
DANMEN
  6
CONTINUOUS
 10
60.155317
 20
227.378732
 30
0.0
 11
59.764929
 21
228.940285
 31
0.0
  0
LINE
  5
1B15C
  8
DANMEN
  6
CONTINUOUS
 10
60.640388
 20
227.0
 30
0.0
 11
61.359612
 21
227.0
 31
0.0
  0
ARC
  5
1B15D
  8
DANMEN
  6
CONTINUOUS
 10
60.640388
 20
227.5
 30
0.0
 40
0.5
 50
194.036243
 51
270.0
  0
ARC
  5
1B15E
  8
DANMEN
  6
CONTINUOUS
 10
61.359612
 20
227.5
 30
0.0
 40
0.5
 50
270.0
 51
345.963757
  0
ARC
  5
1B15F
  8
DANMEN
  6
CONTINUOUS
 10
69.850006
 20
223.95
 30
0.0
 40
1.0
 50
90.0
 51
180.0
  0
LINE
  5
1B161
  8
DANMEN
  6
CONTINUOUS
 10
59.75
 20
236.898149
 30
0.0
 11
59.75
 21
229.061553
 31
0.0
  0
ARC
  5
1B162
  8
DANMEN
  6
CONTINUOUS
 10
60.25
 20
229.061553
 30
0.0
 40
0.5
 50
180.0
 51
194.036243
  0
ARC
  5
1B163
  8
DANMEN
  6
CONTINUOUS
 10
61.75
 20
229.061553
 30
0.0
 40
0.5
 50
345.963757
 51
0.0
  0
LINE
  5
1B164
  8
DANMEN
  6
CONTINUOUS
 10
60.560165
 20
238.906263
 30
0.0
 11
59.789835
 21
237.09372
 31
0.0
  0
ARC
  5
1B165
  8
DANMEN
  6
CONTINUOUS
 10
60.1
 20
239.101833
 30
0.0
 40
0.5
 50
336.974508
 51
0.0
  0
ARC
  5
1B166
  8
DANMEN
  6
CONTINUOUS
 10
60.25
 20
236.898149
 30
0.0
 40
0.5
 50
156.974508
 51
180.0
  0
LINE
  5
1B167
  8
DANMEN
  6
CONTINUOUS
 10
43.649994
 20
250.0
 30
0.0
 11
60.6
 21
250.0
 31
0.0
  0
LINE
  5
1B168
  8
DANMEN
  6
CONTINUOUS
 10
43.649994
 20
251.649994
 30
0.0
 11
57.699997
 21
251.649994
 31
0.0
  0
LINE
  5
1B169
  8
DANMEN
  6
CONTINUOUS
 10
43.649994
 20
260.350006
 30
0.0
 11
43.649994
 21
251.649994
 31
0.0
  0
LINE
  5
1B16A
  8
DANMEN
  6
CONTINUOUS
 10
42.5
 20
262.0
 30
0.0
 11
47.5
 21
262.0
 31
0.0
  0
LINE
  5
1B16B
  8
DANMEN
  6
CONTINUOUS
 10
43.649994
 20
260.350006
 30
0.0
 11
47.5
 21
260.350006
 31
0.0
  0
ARC
  5
1B16C
  8
DANMEN
  6
CONTINUOUS
 10
42.5
 20
261.5
 30
0.0
 40
0.5
 50
89.999982
 51
180.000019
  0
LINE
  5
1B16D
  8
DANMEN
  6
CONTINUOUS
 10
48.0
 20
261.5
 30
0.0
 11
48.0
 21
260.850006
 31
0.0
  0
ARC
  5
1B16E
  8
DANMEN
  6
CONTINUOUS
 10
47.5
 20
260.850006
 30
0.0
 40
0.5
 50
270.000018
 51
0.0
  0
ARC
  5
1B16F
  8
DANMEN
  6
CONTINUOUS
 10
47.5
 20
261.5
 30
0.0
 40
0.5
 50
0.0
 51
89.999982
  0
LINE
  5
1B170
  8
DANMEN
  6
CONTINUOUS
 10
65.5
 20
253.950012
 30
0.0
 11
65.5
 21
250.8
 31
0.0
  0
ARC
  5
1B171
  8
DANMEN
  6
CONTINUOUS
 10
61.2
 20
252.7
 30
0.0
 40
1.0
 50
180.0
 51
270.0
  0
ARC
  5
1B172
  8
DANMEN
  6
CONTINUOUS
 10
62.8
 20
252.7
 30
0.0
 40
1.0
 50
270.0
 51
0.0
  0
ARC
  5
1B173
  8
DANMEN
  6
CONTINUOUS
 10
57.7
 20
252.649994
 30
0.0
 40
1.0
 50
270.0
 51
0.0
  0
LINE
  5
1B174
  8
DANMEN
  6
CONTINUOUS
 10
62.25
 20
250.0
 30
0.0
 11
66.5
 21
250.0
 31
0.0
  0
LINE
  5
1B175
  8
DANMEN
  6
CONTINUOUS
 10
62.8
 20
251.7
 30
0.0
 11
61.2
 21
251.7
 31
0.0
  0
LINE
  5
1B176
  8
DANMEN
  6
CONTINUOUS
 10
65.5
 20
250.8
 30
0.0
 11
67.0
 21
250.8
 31
0.0
  0
ARC
  5
1B177
  8
DANMEN
  6
CONTINUOUS
 10
66.5
 20
250.5
 30
0.0
 40
0.5
 50
270.000018
 51
0.0
  0
LINE
  5
1B179
  8
DANMEN
  6
CONTINUOUS
 10
67.0
 20
250.8
 30
0.0
 11
67.0
 21
250.5
 31
0.0
  0
ARC
  5
1B17A
  8
DANMEN
  6
CONTINUOUS
 10
60.6
 20
255.3
 30
0.0
 40
0.3
 50
0.0
 51
90.0
  0
LINE
  5
1B17B
  8
DANMEN
  6
CONTINUOUS
 10
60.6
 20
255.6
 30
0.0
 11
59.460621
 21
255.6
 31
0.0
  0
LINE
  5
1B17C
  8
DANMEN
  6
CONTINUOUS
 10
60.2
 20
253.946061
 30
0.0
 11
60.2
 21
252.7
 31
0.0
  0
LINE
  5
1B17D
  8
DANMEN
  6
CONTINUOUS
 10
58.7
 20
254.030306
 30
0.0
 11
58.7
 21
252.649994
 31
0.0
  0
ARC
  5
1B17E
  8
DANMEN
  6
CONTINUOUS
 10
60.7
 20
254.030306
 30
0.0
 40
2.0
 50
128.293477
 51
180.0
  0
ARC
  5
1B17F
  8
DANMEN
  6
CONTINUOUS
 10
60.7
 20
255.036932
 30
0.0
 40
0.2
 50
294.624318
 51
0.0
  0
ARC
  5
1B180
  8
DANMEN
  6
CONTINUOUS
 10
61.2
 20
253.946061
 30
0.0
 40
1.0
 50
114.624318
 51
180.0
  0
LINE
  5
1B181
  8
DANMEN
  6
CONTINUOUS
 10
60.9
 20
255.3
 30
0.0
 11
60.9
 21
255.036932
 31
0.0
  0
LINE
  5
1B182
  8
DANMEN
  6
CONTINUOUS
 10
63.8
 20
253.946061
 30
0.0
 11
63.8
 21
252.7
 31
0.0
  0
LINE
  5
1B183
  8
DANMEN
  6
CONTINUOUS
 10
63.1
 20
255.300012
 30
0.0
 11
63.1
 21
255.036932
 31
0.0
  0
ARC
  5
1B184
  8
DANMEN
  6
CONTINUOUS
 10
62.8
 20
253.946061
 30
0.0
 40
1.0
 50
0.0
 51
65.375682
  0
ARC
  5
1B185
  8
DANMEN
  6
CONTINUOUS
 10
63.3
 20
255.036932
 30
0.0
 40
0.2
 50
180.0
 51
245.375682
  0
ARC
  5
1B186
  8
DANMEN
  6
CONTINUOUS
 10
63.4
 20
255.300012
 30
0.0
 40
0.3
 50
90.0
 51
180.0
  0
LINE
  5
1B187
  8
DANMEN
  6
CONTINUOUS
 10
110.11785
 20
226.995322
 30
0.0
 11
110.2
 21
214.999997
 31
0.0
  0
LINE
  5
1B188
  8
DANMEN
  6
CONTINUOUS
 10
111.123338
 20
226.451912
 30
0.0
 11
111.687844
 21
215.000834
 31
0.0
  0
LINE
  5
1B189
  8
DANMEN
  6
CONTINUOUS
 10
110.417964
 20
226.963778
 30
0.0
 11
110.500056
 21
214.984777
 31
0.0
  0
LINE
  5
1B18A
  8
DANMEN
  6
CONTINUOUS
 10
110.2
 20
211.999997
 30
0.0
 11
110.2
 21
226.499997
 31
0.0
  0
LINE
  5
1B18B
  8
DANMEN
  6
CONTINUOUS
 10
81.0
 20
208.999997
 30
0.0
 11
81.0
 21
226.5
 31
0.0
  0
LINE
  5
1B18C
  8
DANMEN
  6
CONTINUOUS
 10
70.800003
 20
223.0
 30
0.0
 11
70.800003
 21
177.5
 31
0.0
  0
LINE
  5
1B18D
  8
DANMEN
  6
CONTINUOUS
 10
112.0
 20
212.149997
 30
0.0
 11
112.0
 21
227.0
 31
0.0
  0
LINE
  5
1B18E
  8
DANMEN
  6
DASHED
 10
78.5
 20
227.0
 30
0.0
 11
78.5
 21
173.0
 31
0.0
  0
LINE
  5
1B18F
  8
DANMEN
  6
CONTINUOUS
 10
75.5
 20
227.0
 30
0.0
 11
75.5
 21
173.0
 31
0.0
  0
LINE
  5
1B190
  8
DANMEN
  6
CONTINUOUS
 10
73.0
 20
235.0
 30
0.0
 11
73.0
 21
173.0
 31
0.0
  0
LINE
  5
1B191
  8
DANMEN
  6
CONTINUOUS
 10
116.8
 20
171.0
 30
0.0
 11
116.8
 21
134.500001
 31
0.0
  0
LINE
  5
1B192
  8
DANMEN
  6
CONTINUOUS
 10
82.999995
 20
135.000003
 30
0.0
 11
82.999995
 21
171.0
 31
0.0
  0
LINE
  5
1B193
  8
DANMEN
  6
CONTINUOUS
 10
112.0
 20
171.0
 30
0.0
 11
112.0
 21
135.000003
 31
0.0
  0
LINE
  5
1B194
  8
DANMEN
  6
CONTINUOUS
 10
81.0
 20
170.5
 30
0.0
 11
81.0
 21
134.500001
 31
0.0
  0
LINE
  5
1B195
  8
DANMEN
  6
CONTINUOUS
 10
91.35
 20
136.000009
 30
0.0
 11
82.999995
 21
135.000009
 31
0.0
  0
LINE
  5
1B196
  8
DANMEN
  6
CONTINUOUS
 10
84.582555
 20
135.18953
 30
0.0
 11
87.772078
 21
132.000007
 31
0.0
  0
LINE
  5
1B197
  8
DANMEN
  6
CONTINUOUS
 10
86.476996
 20
135.416409
 30
0.0
 11
89.893398
 21
132.000007
 31
0.0
  0
LINE
  5
1B198
  8
DANMEN
  6
CONTINUOUS
 10
87.423107
 20
135.529715
 30
0.0
 11
83.893398
 21
132.000007
 31
0.0
  0
LINE
  5
1B199
  8
DANMEN
  6
CONTINUOUS
 10
89.833042
 20
135.81833
 30
0.0
 11
86.014719
 21
132.000007
 31
0.0
  0
LINE
  5
1B19A
  8
DANMEN
  6
CONTINUOUS
 10
83.5
 20
134.500003
 30
0.0
 11
83.5
 21
130.000003
 31
0.0
  0
LINE
  5
1B19B
  8
DANMEN
  6
CONTINUOUS
 10
82.65
 20
130.000003
 30
0.0
 11
83.5
 21
130.000003
 31
0.0
  0
ARC
  5
1B19C
  8
DANMEN
  6
CONTINUOUS
 10
83.0
 20
134.500003
 30
0.0
 40
0.5
 50
0.0
 51
90.0
  0
ARC
  5
1B19D
  8
DANMEN
  6
CONTINUOUS
 10
81.5
 20
134.500003
 30
0.0
 40
0.5
 50
90.0
 51
180.0
  0
LINE
  5
1B19E
  8
DANMEN
  6
CONTINUOUS
 10
81.5
 20
135.000003
 30
0.0
 11
83.0
 21
135.000003
 31
0.0
  0
LINE
  5
1B1A0
  8
DANMEN
  6
CONTINUOUS
 10
83.5
 20
132.029444
 30
0.0
 11
83.529437
 21
132.000007
 31
0.0
  0
LINE
  5
1B1A1
  8
DANMEN
  6
CONTINUOUS
 10
83.5
 20
134.150764
 30
0.0
 11
85.650758
 21
132.000007
 31
0.0
  0
LINE
  5
1B1A2
  8
DANMEN
  6
CONTINUOUS
 10
85.013172
 20
135.241101
 30
0.0
 11
83.5
 21
133.727929
 31
0.0
  0
LINE
  5
1B1A4
  8
DANMEN
  6
CONTINUOUS
 10
88.371438
 20
135.643288
 30
0.0
 11
91.350004
 21
132.664721
 31
0.0
  0
LINE
  5
1B1A5
  8
DANMEN
  6
CONTINUOUS
 10
90.265879
 20
135.870166
 30
0.0
 11
91.350004
 21
134.786042
 31
0.0
  0
LINE
  5
1B1A6
  8
DANMEN
  6
CONTINUOUS
 10
91.350004
 20
135.213972
 30
0.0
 11
88.136039
 21
132.000007
 31
0.0
  0
LINE
  5
1B1A7
  8
DANMEN
  6
CONTINUOUS
 10
91.350004
 20
133.092652
 30
0.0
 11
90.257359
 21
132.000007
 31
0.0
  0
LINE
  5
1B1AC
  8
DANMEN
  6
CONTINUOUS
 10
103.65
 20
136.000001
 30
0.0
 11
111.999998
 21
135.000002
 31
0.0
  0
ARC
  5
1B1AD
  8
DANMEN
  6
CONTINUOUS
 10
112.0
 20
124.500003
 30
0.0
 40
0.5
 50
0.000018
 51
179.999982
  0
ARC
  5
1B1AE
  8
DANMEN
  6
CONTINUOUS
 10
112.0
 20
134.500003
 30
0.0
 40
0.5
 50
90.000019
 51
180.000037
  0
LINE
  5
1B1AF
  8
DANMEN
  6
CONTINUOUS
 10
111.999985
 20
130.000003
 30
0.0
 11
111.5
 21
130.000003
 31
0.0
  0
LINE
  5
1B1B0
  8
DANMEN
  6
CONTINUOUS
 10
111.5
 20
134.500003
 30
0.0
 11
111.5
 21
130.000003
 31
0.0
  0
LINE
  5
1B1B1
  8
DANMEN
  6
CONTINUOUS
 10
105.166958
 20
135.81833
 30
0.0
 11
108.985282
 21
132.000007
 31
0.0
  0
LINE
  5
1B1B2
  8
DANMEN
  6
CONTINUOUS
 10
107.576893
 20
135.529715
 30
0.0
 11
111.106602
 21
132.000007
 31
0.0
  0
LINE
  5
1B1B3
  8
DANMEN
  6
CONTINUOUS
 10
108.523004
 20
135.416409
 30
0.0
 11
105.106601
 21
132.000006
 31
0.0
  0
LINE
  5
1B1B4
  8
DANMEN
  6
CONTINUOUS
 10
110.417445
 20
135.18953
 30
0.0
 11
107.227922
 21
132.000006
 31
0.0
  0
LINE
  5
1B1B5
  8
DANMEN
  6
CONTINUOUS
 10
103.650003
 20
133.092645
 30
0.0
 11
104.742641
 21
132.000006
 31
0.0
  0
LINE
  5
1B1B6
  8
DANMEN
  6
CONTINUOUS
 10
103.650003
 20
135.213965
 30
0.0
 11
106.863961
 21
132.000006
 31
0.0
  0
LINE
  5
1B1B7
  8
DANMEN
  6
CONTINUOUS
 10
104.734121
 20
135.870167
 30
0.0
 11
103.650003
 21
134.786049
 31
0.0
  0
LINE
  5
1B1B8
  8
DANMEN
  6
CONTINUOUS
 10
106.628563
 20
135.643288
 30
0.0
 11
103.650003
 21
132.664728
 31
0.0
  0
LINE
  5
1B1B9
  8
DANMEN
  6
CONTINUOUS
 10
109.986828
 20
135.241101
 30
0.0
 11
111.5
 21
133.727929
 31
0.0
  0
LINE
  5
1B1BA
  8
DANMEN
  6
CONTINUOUS
 10
111.5
 20
134.150764
 30
0.0
 11
109.349242
 21
132.000007
 31
0.0
  0
LINE
  5
1B1BB
  8
DANMEN
  6
CONTINUOUS
 10
111.5
 20
132.029444
 30
0.0
 11
111.470563
 21
132.000007
 31
0.0
  0
ARC
  5
1B1BD
  8
DANMEN
  6
CONTINUOUS
 10
111.999985
 20
130.500003
 30
0.0
 40
0.5
 50
270.0
 51
0.0
  0
LINE
  5
1B1BF
  8
DANMEN
  6
CONTINUOUS
 10
116.3
 20
135.000003
 30
0.0
 11
112.0
 21
135.000003
 31
0.0
  0
LINE
  5
1B1C0
  8
DANMEN
  6
CONTINUOUS
 10
115.150003
 20
133.350006
 30
0.0
 11
112.499985
 21
133.350006
 31
0.0
  0
LINE
  5
1B1C1
  8
DANMEN
  6
CONTINUOUS
 10
112.499985
 20
133.350006
 30
0.0
 11
112.499985
 21
130.500003
 31
0.0
  0
ARC
  5
1B1C2
  8
DANMEN
  6
CONTINUOUS
 10
116.3
 20
134.500003
 30
0.0
 40
0.5
 50
0.0
 51
89.999982
  0
LINE
  5
1B1C4
  8
DANMEN
  6
CONTINUOUS
 10
87.700006
 20
216.499997
 30
0.0
 11
108.55
 21
216.499997
 31
0.0
  0
LINE
  5
1B1C5
  8
DANMEN
  6
CONTINUOUS
 10
91.35
 20
203.999997
 30
0.0
 11
103.65
 21
203.999997
 31
0.0
  0
LINE
  5
1B1C6
  8
DANMEN
  6
CONTINUOUS
 10
81.0
 20
189.500001
 30
0.0
 11
81.0
 21
208.999997
 31
0.0
  0
LINE
  5
1B1C7
  8
DANMEN
  6
CONTINUOUS
 10
82.95
 20
194.0
 30
0.0
 11
82.95
 21
206.699997
 31
0.0
  0
LINE
  5
1B1C8
  8
DANMEN
  6
CONTINUOUS
 10
91.85
 20
203.999997
 30
0.0
 11
91.85
 21
173.0
 31
0.0
  0
LINE
  5
1B1C9
  8
DANMEN
  6
CONTINUOUS
 10
96.85
 20
203.999997
 30
0.0
 11
96.85
 21
173.0
 31
0.0
  0
LINE
  5
1B1CA
  8
DANMEN
  6
CONTINUOUS
 10
103.15
 20
203.999997
 30
0.0
 11
103.15
 21
173.0
 31
0.0
  0
LINE
  5
1B1CB
  8
DANMEN
  6
CONTINUOUS
 10
98.15
 20
203.999997
 30
0.0
 11
98.15
 21
173.0
 31
0.0
  0
LINE
  5
1B1CC
  8
DANMEN
  6
CONTINUOUS
 10
91.35
 20
203.999997
 30
0.0
 11
91.35
 21
173.0
 31
0.0
  0
LINE
  5
1B1CD
  8
DANMEN
  6
CONTINUOUS
 10
97.35
 20
203.999997
 30
0.0
 11
97.35
 21
173.0
 31
0.0
  0
LINE
  5
1B1CE
  8
DANMEN
  6
CONTINUOUS
 10
97.65
 20
203.999997
 30
0.0
 11
97.65
 21
173.0
 31
0.0
  0
LINE
  5
1B1CF
  8
DANMEN
  6
CONTINUOUS
 10
91.35
 20
188.000002
 30
0.0
 11
83.000002
 21
189.000001
 31
0.0
  0
LINE
  5
1B1D0
  8
DANMEN
  6
CONTINUOUS
 10
89.833042
 20
188.181673
 30
0.0
 11
86.014718
 21
191.999997
 31
0.0
  0
LINE
  5
1B1D1
  8
DANMEN
  6
CONTINUOUS
 10
87.423107
 20
188.470288
 30
0.0
 11
83.893398
 21
191.999997
 31
0.0
  0
LINE
  5
1B1D2
  8
DANMEN
  6
CONTINUOUS
 10
86.476996
 20
188.583594
 30
0.0
 11
89.893399
 21
191.999997
 31
0.0
  0
LINE
  5
1B1D3
  8
DANMEN
  6
CONTINUOUS
 10
84.582555
 20
188.810473
 30
0.0
 11
87.772078
 21
191.999997
 31
0.0
  0
LINE
  5
1B1D4
  8
DANMEN
  6
CONTINUOUS
 10
81.0
 20
189.500001
 30
0.0
 11
81.0
 21
173.0
 31
0.0
  0
LINE
  5
1B1D5
  8
DANMEN
  6
CONTINUOUS
 10
82.999995
 20
173.0
 30
0.0
 11
82.999995
 21
188.999998
 31
0.0
  0
ARC
  5
1B1D7
  8
DANMEN
  6
CONTINUOUS
 10
83.0
 20
189.5
 30
0.0
 40
0.5
 50
270.0
 51
0.0
  0
LINE
  5
1B1D8
  8
DANMEN
  6
CONTINUOUS
 10
82.95
 20
194.0
 30
0.0
 11
83.5
 21
194.0
 31
0.0
  0
LINE
  5
1B1D9
  8
DANMEN
  6
CONTINUOUS
 10
81.5
 20
189.0
 30
0.0
 11
83.0
 21
189.0
 31
0.0
  0
ARC
  5
1B1DA
  8
DANMEN
  6
CONTINUOUS
 10
81.5
 20
189.5
 30
0.0
 40
0.5
 50
179.999872
 51
269.999909
  0
LINE
  5
1B1DC
  8
DANMEN
  6
CONTINUOUS
 10
83.5
 20
189.500001
 30
0.0
 11
83.5
 21
194.0
 31
0.0
  0
LINE
  5
1B1DE
  8
DANMEN
  6
CONTINUOUS
 10
85.013172
 20
188.758902
 30
0.0
 11
83.5
 21
190.272074
 31
0.0
  0
LINE
  5
1B1DF
  8
DANMEN
  6
CONTINUOUS
 10
83.5
 20
189.849239
 30
0.0
 11
85.650758
 21
191.999997
 31
0.0
  0
LINE
  5
1B1E0
  8
DANMEN
  6
CONTINUOUS
 10
83.5
 20
191.970559
 30
0.0
 11
83.529437
 21
191.999997
 31
0.0
  0
LINE
  5
1B1E1
  8
DANMEN
  6
CONTINUOUS
 10
90.265879
 20
188.129837
 30
0.0
 11
91.349997
 21
189.213955
 31
0.0
  0
LINE
  5
1B1E2
  8
DANMEN
  6
CONTINUOUS
 10
91.349997
 20
190.907359
 30
0.0
 11
90.257359
 21
191.999997
 31
0.0
  0
LINE
  5
1B1E3
  8
DANMEN
  6
CONTINUOUS
 10
91.349997
 20
188.786038
 30
0.0
 11
88.136039
 21
191.999997
 31
0.0
  0
LINE
  5
1B1E4
  8
DANMEN
  6
CONTINUOUS
 10
88.371438
 20
188.356715
 30
0.0
 11
91.349997
 21
191.335275
 31
0.0
  0
ARC
  5
1B1E6
  8
DANMEN
  6
CONTINUOUS
 10
87.309908
 20
211.499997
 30
0.0
 40
0.5
 50
191.309932
 51
270.0
  0
ARC
  5
1B1E7
  8
DANMEN
  6
CONTINUOUS
 10
83.6
 20
211.289403
 30
0.0
 40
0.5
 50
143.491208
 51
180.0
  0
LINE
  5
1B1E8
  8
DANMEN
  6
CONTINUOUS
 10
84.7
 20
207.699997
 30
0.0
 11
84.7
 21
211.598914
 31
0.0
  0
LINE
  5
1B1E9
  8
DANMEN
  6
CONTINUOUS
 10
86.500006
 20
212.999997
 30
0.0
 11
86.819618
 21
211.401939
 31
0.0
  0
LINE
  5
1B1EA
  8
DANMEN
  6
CONTINUOUS
 10
82.65
 20
210.999997
 30
0.0
 11
82.65
 21
216.999997
 31
0.0
  0
LINE
  5
1B1EB
  8
DANMEN
  6
CONTINUOUS
 10
82.5
 20
208.699997
 30
0.0
 11
83.5
 21
208.699997
 31
0.0
  0
ARC
  5
1B1EC
  8
DANMEN
  6
CONTINUOUS
 10
83.45
 20
206.699997
 30
0.0
 40
0.5
 50
90.0
 51
180.0
  0
ARC
  5
1B1ED
  8
DANMEN
  6
CONTINUOUS
 10
82.707801
 20
209.499997
 30
0.0
 40
0.5
 50
270.0
 51
330.603827
  0
LINE
  5
1B1EE
  8
DANMEN
  6
CONTINUOUS
 10
83.2
 20
210.999997
 30
0.0
 11
82.65
 21
210.999997
 31
0.0
  0
LINE
  5
1B1EF
  8
DANMEN
  6
CONTINUOUS
 10
82.5
 20
208.699997
 30
0.0
 11
82.5
 21
208.999997
 31
0.0
  0
LINE
  5
1B1F0
  8
DANMEN
  6
CONTINUOUS
 10
81.0
 20
208.999997
 30
0.0
 11
82.5
 21
208.999997
 31
0.0
  0
LINE
  5
1B1F1
  8
DANMEN
  6
CONTINUOUS
 10
81.0
 20
208.999997
 30
0.0
 11
82.707801
 21
208.999997
 31
0.0
  0
ARC
  5
1B1F3
  8
DANMEN
  6
CONTINUOUS
 10
83.4
 20
211.265682
 30
0.0
 40
0.3
 50
180.0
 51
250.528779
  0
ARC
  5
1B1F5
  8
DANMEN
  6
CONTINUOUS
 10
83.2
 20
210.699997
 30
0.0
 40
0.3
 50
0.0
 51
70.528779
  0
LINE
  5
1B1F6
  8
DANMEN
  6
CONTINUOUS
 10
83.1
 20
211.265682
 30
0.0
 11
83.1
 21
211.289403
 31
0.0
  0
ARC
  5
1B1F7
  8
DANMEN
  6
CONTINUOUS
 10
84.2
 20
207.699997
 30
0.0
 40
0.5
 50
270.0
 51
0.0
  0
LINE
  5
1B1F8
  8
DANMEN
  6
CONTINUOUS
 10
83.45
 20
207.199997
 30
0.0
 11
84.2
 21
207.199997
 31
0.0
  0
LINE
  5
1B1F9
  8
DANMEN
  6
CONTINUOUS
 10
83.5
 20
208.699997
 30
0.0
 11
83.5
 21
210.699997
 31
0.0
  0
LINE
  5
1B1FA
  8
DANMEN
  6
CONTINUOUS
 10
83.5
 20
210.699997
 30
0.0
 11
83.5
 21
209.996242
 31
0.0
  0
LINE
  5
1B1FB
  8
DANMEN
  6
CONTINUOUS
 10
83.5
 20
209.996242
 30
0.0
 11
83.143425
 21
209.254574
 31
0.0
  0
ARC
  5
1B1FC
  8
DANMEN
  6
CONTINUOUS
 10
83.2
 20
210.699997
 30
0.0
 40
0.3
 50
0.0
 51
90.0
  0
LINE
  5
1B1FD
  8
DANMEN
  6
CONTINUOUS
 10
82.65
 20
216.999997
 30
0.0
 11
86.500006
 21
216.999997
 31
0.0
  0
ARC
  5
1B1FE
  8
DANMEN
  6
CONTINUOUS
 10
85.099864
 20
215.757527
 30
0.0
 40
0.5
 50
180.0
 51
235.297378
  0
ARC
  5
1B1FF
  8
DANMEN
  6
CONTINUOUS
 10
85.160578
 20
214.742386
 30
0.0
 40
0.3
 50
323.491208
 51
55.297378
  0
LINE
  5
1B200
  8
DANMEN
  6
CONTINUOUS
 10
84.815206
 20
215.346468
 30
0.0
 11
85.331373
 21
214.989022
 31
0.0
  0
LINE
  5
1B201
  8
DANMEN
  6
CONTINUOUS
 10
83.198117
 20
211.586876
 30
0.0
 11
85.401708
 21
214.563902
 31
0.0
  0
ARC
  5
1B202
  8
DANMEN
  6
CONTINUOUS
 10
85.099864
 20
216.000891
 30
0.0
 40
0.5
 50
90.0
 51
180.0
  0
ARC
  5
1B203
  8
DANMEN
  6
CONTINUOUS
 10
85.099734
 20
216.000891
 30
0.0
 40
0.5
 50
55.297378
 51
90.0
  0
LINE
  5
1B204
  8
DANMEN
  6
CONTINUOUS
 10
84.599864
 20
216.000891
 30
0.0
 11
84.599864
 21
215.757527
 31
0.0
  0
LINE
  5
1B205
  8
DANMEN
  6
CONTINUOUS
 10
85.099734
 20
216.500891
 30
0.0
 11
85.099864
 21
216.500891
 31
0.0
  0
LINE
  5
1B206
  8
DANMEN
  6
CONTINUOUS
 10
84.7
 20
211.598914
 30
0.0
 11
86.7
 21
214.300891
 31
0.0
  0
LINE
  5
1B207
  8
DANMEN
  6
CONTINUOUS
 10
85.384392
 20
216.41195
 30
0.0
 11
86.7
 21
215.500891
 31
0.0
  0
LINE
  5
1B208
  8
DANMEN
  6
CONTINUOUS
 10
86.7
 20
214.300891
 30
0.0
 11
86.7
 21
215.500891
 31
0.0
  0
LINE
  5
1B209
  8
DANMEN
  6
CONTINUOUS
 10
86.500006
 20
212.999997
 30
0.0
 11
86.500006
 21
216.999997
 31
0.0
  0
LINE
  5
1B20A
  8
DANMEN
  6
CONTINUOUS
 10
87.700006
 20
210.999997
 30
0.0
 11
87.700006
 21
216.499997
 31
0.0
  0
LINE
  5
1B20B
  8
DANMEN
  6
CONTINUOUS
 10
87.309908
 20
210.999997
 30
0.0
 11
87.700006
 21
210.999997
 31
0.0
  0
LINE
  5
1B20C
  8
DANMEN
  6
CONTINUOUS
 10
116.8
 20
210.499997
 30
0.0
 11
116.8
 21
189.499997
 31
0.0
  0
LINE
  5
1B20D
  8
DANMEN
  6
CONTINUOUS
 10
115.150003
 20
200.499997
 30
0.0
 11
115.150003
 21
190.649994
 31
0.0
  0
LINE
  5
1B20E
  8
DANMEN
  6
CONTINUOUS
 10
119.0
 20
210.499997
 30
0.0
 11
119.0
 21
173.0
 31
0.0
  0
LINE
  5
1B20F
  8
DANMEN
  6
CONTINUOUS
 10
117.0
 20
210.499997
 30
0.0
 11
117.0
 21
173.0
 31
0.0
  0
LINE
  5
1B210
  8
DANMEN
  6
CONTINUOUS
 10
103.65
 20
203.999997
 30
0.0
 11
103.65
 21
173.0
 31
0.0
  0
LINE
  5
1B211
  8
DANMEN
  6
CONTINUOUS
 10
112.0
 20
188.999998
 30
0.0
 11
112.0
 21
173.0
 31
0.0
  0
LINE
  5
1B212
  8
DANMEN
  6
CONTINUOUS
 10
103.65
 20
187.999994
 30
0.0
 11
112.000005
 21
188.999994
 31
0.0
  0
ARC
  5
1B213
  8
DANMEN
  6
CONTINUOUS
 10
112.0
 20
189.499997
 30
0.0
 40
0.5
 50
179.999963
 51
269.999981
  0
LINE
  5
1B214
  8
DANMEN
  6
CONTINUOUS
 10
111.999983
 20
193.999997
 30
0.0
 11
111.5
 21
193.999997
 31
0.0
  0
LINE
  5
1B215
  8
DANMEN
  6
CONTINUOUS
 10
104.734121
 20
188.129837
 30
0.0
 11
103.649996
 21
189.213962
 31
0.0
  0
LINE
  5
1B216
  8
DANMEN
  6
CONTINUOUS
 10
105.166959
 20
188.181674
 30
0.0
 11
108.985281
 21
191.999997
 31
0.0
  0
LINE
  5
1B217
  8
DANMEN
  6
CONTINUOUS
 10
110.417445
 20
188.810473
 30
0.0
 11
107.227922
 21
191.999997
 31
0.0
  0
LINE
  5
1B218
  8
DANMEN
  6
CONTINUOUS
 10
108.523004
 20
188.583595
 30
0.0
 11
105.106602
 21
191.999997
 31
0.0
  0
LINE
  5
1B219
  8
DANMEN
  6
CONTINUOUS
 10
107.576893
 20
188.470288
 30
0.0
 11
111.106602
 21
191.999997
 31
0.0
  0
LINE
  5
1B21B
  8
DANMEN
  6
CONTINUOUS
 10
106.628562
 20
188.356716
 30
0.0
 11
103.649996
 21
191.335282
 31
0.0
  0
LINE
  5
1B21C
  8
DANMEN
  6
CONTINUOUS
 10
103.649996
 20
188.786031
 30
0.0
 11
106.863961
 21
191.999997
 31
0.0
  0
LINE
  5
1B21D
  8
DANMEN
  6
CONTINUOUS
 10
103.649996
 20
190.907352
 30
0.0
 11
104.742641
 21
191.999997
 31
0.0
  0
LINE
  5
1B21E
  8
DANMEN
  6
CONTINUOUS
 10
111.5
 20
189.499997
 30
0.0
 11
111.5
 21
193.999997
 31
0.0
  0
LINE
  5
1B220
  8
DANMEN
  6
CONTINUOUS
 10
111.5
 20
191.970559
 30
0.0
 11
111.470563
 21
191.999997
 31
0.0
  0
LINE
  5
1B221
  8
DANMEN
  6
CONTINUOUS
 10
111.5
 20
189.849239
 30
0.0
 11
109.349242
 21
191.999997
 31
0.0
  0
LINE
  5
1B222
  8
DANMEN
  6
CONTINUOUS
 10
109.986828
 20
188.758903
 30
0.0
 11
111.5
 21
190.272074
 31
0.0
  0
LINE
  5
1B223
  8
DANMEN
  6
CONTINUOUS
 10
116.3
 20
188.999997
 30
0.0
 11
112.0
 21
188.999997
 31
0.0
  0
LINE
  5
1B224
  8
DANMEN
  6
CONTINUOUS
 10
115.150003
 20
190.649994
 30
0.0
 11
112.499985
 21
190.649994
 31
0.0
  0
LINE
  5
1B225
  8
DANMEN
  6
CONTINUOUS
 10
112.499983
 20
190.649968
 30
0.0
 11
112.499983
 21
193.499997
 31
0.0
  0
ARC
  5
1B226
  8
DANMEN
  6
CONTINUOUS
 10
111.999983
 20
193.499997
 30
0.0
 40
0.5
 50
0.0
 51
90.0
  0
ARC
  5
1B228
  8
DANMEN
  6
CONTINUOUS
 10
116.3
 20
189.499997
 30
0.0
 40
0.5
 50
270.0
 51
0.0
  0
LINE
  5
1B22A
  8
DANMEN
  6
CONTINUOUS
 10
130.2
 20
213.578484
 30
0.0
 11
111.687844
 21
215.000834
 31
0.0
  0
LINE
  5
1B22B
  8
DANMEN
  6
CONTINUOUS
 10
110.500003
 20
210.499997
 30
0.0
 11
130.2
 21
210.499997
 31
0.0
  0
LINE
  5
1B22C
  8
DANMEN
  6
CONTINUOUS
 10
115.150003
 20
210.349997
 30
0.0
 11
115.150003
 21
201.499997
 31
0.0
  0
ARC
  5
1B22D
  8
DANMEN
  6
CONTINUOUS
 10
112.0
 20
199.499997
 30
0.0
 40
0.5
 50
180.000018
 51
359.999982
  0
ARC
  5
1B22E
  8
DANMEN
  6
CONTINUOUS
 10
112.0
 20
202.499997
 30
0.0
 40
0.5
 50
359.999982
 51
180.000001
  0
LINE
  5
1B22F
  8
DANMEN
  6
CONTINUOUS
 10
111.5
 20
202.499997
 30
0.0
 11
111.5
 21
199.499997
 31
0.0
  0
LINE
  5
1B231
  8
DANMEN
  6
CONTINUOUS
 10
112.5
 20
200.499997
 30
0.0
 11
112.5
 21
199.499997
 31
0.0
  0
LINE
  5
1B232
  8
DANMEN
  6
CONTINUOUS
 10
112.5
 20
202.499997
 30
0.0
 11
112.5
 21
201.499997
 31
0.0
  0
LINE
  5
1B233
  8
DANMEN
  6
CONTINUOUS
 10
115.150003
 20
200.499997
 30
0.0
 11
112.5
 21
200.499997
 31
0.0
  0
LINE
  5
1B234
  8
DANMEN
  6
CONTINUOUS
 10
115.150003
 20
201.499997
 30
0.0
 11
112.5
 21
201.499997
 31
0.0
  0
LINE
  5
1B235
  8
DANMEN
  6
CONTINUOUS
 10
109.05
 20
210.349997
 30
0.0
 11
115.150003
 21
210.349997
 31
0.0
  0
LINE
  5
1B236
  8
DANMEN
  6
CONTINUOUS
 10
110.2
 20
211.999997
 30
0.0
 11
118.0
 21
211.999997
 31
0.0
  0
LINE
  5
1B237
  8
DANMEN
  6
CONTINUOUS
 10
110.500003
 20
210.499997
 30
0.0
 11
110.500003
 21
215.016225
 31
0.0
  0
LINE
  5
1B238
  8
DANMEN
  6
CONTINUOUS
 10
110.2
 20
210.499997
 30
0.0
 11
110.2
 21
214.999997
 31
0.0
  0
LINE
  5
1B239
  8
DANMEN
  6
CONTINUOUS
 10
108.55
 20
210.849997
 30
0.0
 11
108.55
 21
216.499997
 31
0.0
  0
ARC
  5
1B23C
  8
DANMEN
  6
CONTINUOUS
 10
109.05
 20
210.849997
 30
0.0
 40
0.5
 50
180.0
 51
270.0
  0
ARC
  5
1B241
  8
DANMEN
  6
CONTINUOUS
 10
118.0
 20
210.999997
 30
0.0
 40
1.0
 50
0.0
 51
90.0
  0
LINE
  5
1B242
  8
DANMEN
  6
CONTINUOUS
 10
116.8
 20
210.499997
 30
0.0
 11
119.0
 21
210.499997
 31
0.0
  0
LINE
  5
1B243
  8
DANMEN
  6
CONTINUOUS
 10
119.0
 20
210.999997
 30
0.0
 11
119.0
 21
210.499997
 31
0.0
  0
LINE
  5
1B244
  8
DANMEN
  6
CONTINUOUS
 10
163.649994
 20
156.350006
 30
0.0
 11
170.350006
 21
156.350006
 31
0.0
  0
LINE
  5
1B245
  8
DANMEN
  6
CONTINUOUS
 10
162.5
 20
158.0
 30
0.0
 11
186.5
 21
158.0
 31
0.0
  0
LINE
  5
1B246
  8
DANMEN
  6
CONTINUOUS
 10
163.649994
 20
156.350006
 30
0.0
 11
163.649994
 21
152.5
 31
0.0
  0
LINE
  5
1B247
  8
DANMEN
  6
CONTINUOUS
 10
162.0
 20
157.5
 30
0.0
 11
162.0
 21
152.5
 31
0.0
  0
ARC
  5
1B24A
  8
DANMEN
  6
CONTINUOUS
 10
163.149994
 20
152.5
 30
0.0
 40
0.5
 50
270.000018
 51
359.999981
  0
ARC
  5
1B24B
  8
DANMEN
  6
CONTINUOUS
 10
162.5
 20
152.5
 30
0.0
 40
0.5
 50
180.000036
 51
269.999963
  0
LINE
  5
1B24C
  8
DANMEN
  6
CONTINUOUS
 10
162.5
 20
152.0
 30
0.0
 11
163.149994
 21
152.0
 31
0.0
  0
ARC
  5
1B24E
  8
DANMEN
  6
CONTINUOUS
 10
162.5
 20
157.5
 30
0.0
 40
0.5
 50
89.999982
 51
180.000019
  0
LINE
  5
1B250
  8
DANMEN
  6
CONTINUOUS
 10
172.0
 20
156.9
 30
0.0
 11
172.0
 21
138.3
 31
0.0
  0
LINE
  5
1B251
  8
DANMEN
  6
CONTINUOUS
 10
175.0
 20
147.0
 30
0.0
 11
175.0
 21
148.638809
 31
0.0
  0
LINE
  5
1B252
  8
DANMEN
  6
CONTINUOUS
 10
189.949997
 20
149.05
 30
0.0
 11
189.949997
 21
132.949997
 31
0.0
  0
LINE
  5
1B253
  8
DANMEN
  6
CONTINUOUS
 10
188.0
 20
148.9
 30
0.0
 11
188.0
 21
129.1
 31
0.0
  0
LINE
  5
1B254
  8
DANMEN
  6
CONTINUOUS
 10
185.156624
 20
148.9
 30
0.0
 11
176.199997
 21
147.556506
 31
0.0
  0
LINE
  5
1B255
  8
DANMEN
  6
CONTINUOUS
 10
185.037291
 20
127.0
 30
0.0
 11
189.461075
 21
127.0
 31
0.0
  0
LINE
  5
1B256
  8
DANMEN
  6
CONTINUOUS
 10
185.156624
 20
129.1
 30
0.0
 11
188.0
 21
129.1
 31
0.0
  0
LINE
  5
1B257
  8
DANMEN
  6
CONTINUOUS
 10
172.0
 20
140.5
 30
0.0
 11
188.0
 21
140.5
 31
0.0
  0
LINE
  5
1B258
  8
DANMEN
  6
CONTINUOUS
 10
172.0
 20
145.5
 30
0.0
 11
188.0
 21
145.5
 31
0.0
  0
LINE
  5
1B259
  8
DANMEN
  6
CONTINUOUS
 10
176.800004
 20
124.8
 30
0.0
 11
184.200004
 21
124.8
 31
0.0
  0
LINE
  5
1B25A
  8
DANMEN
  6
CONTINUOUS
 10
184.963121
 20
127.005532
 30
0.0
 11
175.85166
 21
128.372251
 31
0.0
  0
LINE
  5
1B25B
  8
DANMEN
  6
CONTINUOUS
 10
185.156624
 20
129.1
 30
0.0
 11
176.199997
 21
130.443494
 31
0.0
  0
LINE
  5
1B25C
  8
DANMEN
  6
CONTINUOUS
 10
174.025813
 20
131.335584
 30
0.0
 11
176.800004
 21
124.8
 31
0.0
  0
LINE
  5
1B25D
  8
DANMEN
  6
CONTINUOUS
 10
175.0
 20
131.0
 30
0.0
 11
175.0
 21
129.361191
 31
0.0
  0
ARC
  5
1B260
  8
DANMEN
  6
CONTINUOUS
 10
176.0
 20
129.361187
 30
0.0
 40
1.0
 50
180.0
 51
261.469234
  0
ARC
  5
1B262
  8
DANMEN
  6
CONTINUOUS
 10
173.47351
 20
131.101146
 30
0.0
 40
0.6
 50
23.0
 51
273.528779
  0
LINE
  5
1B267
  8
DANMEN
  6
CONTINUOUS
 10
175.5
 20
131.5
 30
0.0
 11
176.199997
 21
131.5
 31
0.0
  0
ARC
  5
1B269
  8
DANMEN
  6
CONTINUOUS
 10
175.5
 20
131.0
 30
0.0
 40
0.5
 50
89.999999
 51
180.000036
  0
LINE
  5
1B26A
  8
DANMEN
  6
CONTINUOUS
 10
176.199997
 20
131.5
 30
0.0
 11
176.199997
 21
130.443489
 31
0.0
  0
LINE
  5
1B26D
  8
DANMEN
  6
CONTINUOUS
 10
183.878862
 20
125.390573
 30
0.0
 11
181.335668
 21
126.419423
 31
0.0
  0
LINE
  5
1B26E
  8
DANMEN
  6
CONTINUOUS
 10
184.895163
 20
125.842413
 30
0.0
 11
180.246848
 21
127.722891
 31
0.0
  0
ARC
  5
1B272
  8
DANMEN
  6
CONTINUOUS
 10
180.44585
 20
126.563653
 30
0.0
 40
0.2
 50
311.738105
 51
67.974191
  0
LINE
  5
1B273
  8
DANMEN
  6
CONTINUOUS
 10
180.520855
 20
126.749056
 30
0.0
 11
179.946828
 21
126.981279
 31
0.0
  0
LINE
  5
1B278
  8
DANMEN
  6
CONTINUOUS
 10
181.335668
 20
126.419423
 30
0.0
 11
179.479406
 21
124.763337
 31
0.0
  0
LINE
  5
1B279
  8
DANMEN
  6
CONTINUOUS
 10
180.578995
 20
126.414414
 30
0.0
 11
179.146542
 21
125.136435
 31
0.0
  0
ARC
  5
1B27B
  8
DANMEN
  6
CONTINUOUS
 10
179.312974
 20
124.949886
 30
0.0
 40
0.25
 50
131.738105
 51
311.738105
  0
ARC
  5
1B27D
  8
DANMEN
  6
CONTINUOUS
 10
180.096838
 20
127.352085
 30
0.0
 40
0.4
 50
67.974191
 51
247.974191
  0
ARC
  5
1B27F
  8
DANMEN
  6
CONTINUOUS
 10
184.820158
 20
125.65701
 30
0.0
 40
0.2
 50
25.943161
 51
67.974191
  0
ARC
  5
1B282
  8
DANMEN
  6
CONTINUOUS
 10
184.064265
 20
125.315568
 30
0.0
 40
0.2
 50
47.258366
 51
157.974191
  0
LINE
  5
1B283
  8
DANMEN
  6
CONTINUOUS
 10
184.200004
 20
125.462453
 30
0.0
 11
184.200004
 21
124.8
 31
0.0
  0
ARC
  5
1B286
  8
DANMEN
  6
CONTINUOUS
 10
185.037291
 20
127.5
 30
0.0
 40
0.5
 50
261.469234
 51
270.0
  0
LINE
  5
1B288
  8
DANMEN
  6
CONTINUOUS
 10
181.050996
 20
139.0
 30
0.0
 11
176.850995
 21
138.3
 31
0.0
  0
LINE
  5
1B289
  8
DANMEN
  6
CONTINUOUS
 10
182.164402
 20
137.360739
 30
0.0
 11
177.081604
 21
136.513606
 31
0.0
  0
LINE
  5
1B28A
  8
DANMEN
  6
CONTINUOUS
 10
172.0
 20
138.3
 30
0.0
 11
176.850995
 21
138.3
 31
0.0
  0
LINE
  5
1B28B
  8
DANMEN
  6
CONTINUOUS
 10
172.0
 20
136.5
 30
0.0
 11
176.917205
 21
136.5
 31
0.0
  0
ARC
  5
1B28F
  8
DANMEN
  6
CONTINUOUS
 10
176.917205
 20
137.5
 30
0.0
 40
1.0
 50
270.000018
 51
279.462343
  0
LINE
  5
1B293
  8
DANMEN
  6
CONTINUOUS
 10
176.199997
 20
146.5
 30
0.0
 11
176.199997
 21
147.556509
 31
0.0
  0
ARC
  5
1B294
  8
DANMEN
  6
CONTINUOUS
 10
175.5
 20
147.0
 30
0.0
 40
0.5
 50
179.999964
 51
270.000001
  0
LINE
  5
1B296
  8
DANMEN
  6
CONTINUOUS
 10
175.5
 20
146.5
 30
0.0
 11
176.199997
 21
146.5
 31
0.0
  0
LINE
  5
1B298
  8
DANMEN
  6
CONTINUOUS
 10
181.050996
 20
139.0
 30
0.0
 11
182.5
 21
139.0
 31
0.0
  0
ARC
  5
1B29A
  8
DANMEN
  6
CONTINUOUS
 10
182.5
 20
138.5
 30
0.0
 40
0.5
 50
0.0
 51
89.999982
  0
ARC
  5
1B29C
  8
DANMEN
  6
CONTINUOUS
 10
182.0
 20
138.347137
 30
0.0
 40
1.0
 50
279.462343
 51
0.000285
  0
LINE
  5
1B29F
  8
DANMEN
  6
CONTINUOUS
 10
183.0
 20
138.5
 30
0.0
 11
183.0
 21
138.347137
 31
0.0
  0
LINE
  5
1B2A0
  8
DANMEN
  6
CONTINUOUS
 10
189.699982
 20
131.0
 30
0.0
 11
189.95968
 21
127.537395
 31
0.0
  0
ARC
  5
1B2A1
  8
DANMEN
  6
CONTINUOUS
 10
189.46108
 20
127.5
 30
0.0
 40
0.5
 50
270.0
 51
4.289197
  0
LINE
  5
1B2AB
  8
DANMEN
  6
CONTINUOUS
 10
174.0
 20
156.350006
 30
0.0
 11
186.5
 21
156.350006
 31
0.0
  0
LINE
  5
1B2AC
  8
DANMEN
  6
CONTINUOUS
 10
185.037291
 20
151.0
 30
0.0
 11
202.0
 21
151.0
 31
0.0
  0
LINE
  5
1B2AD
  8
DANMEN
  6
CONTINUOUS
 10
185.156624
 20
148.9
 30
0.0
 11
188.0
 21
148.9
 31
0.0
  0
LINE
  5
1B2AE
  8
DANMEN
  6
CONTINUOUS
 10
184.963121
 20
150.994468
 30
0.0
 11
175.85166
 21
149.627749
 31
0.0
  0
LINE
  5
1B2AF
  8
DANMEN
  6
CONTINUOUS
 10
172.0
 20
151.0
 30
0.0
 11
184.999936
 21
151.0
 31
0.0
  0
ARC
  5
1B2B0
  8
DANMEN
  6
CONTINUOUS
 10
176.0
 20
148.638813
 30
0.0
 40
1.0
 50
98.530766
 51
180.0
  0
LINE
  5
1B2B2
  8
DANMEN
  6
CONTINUOUS
 10
172.0
 20
156.9
 30
0.0
 11
174.0
 21
156.9
 31
0.0
  0
LINE
  5
1B2B6
  8
DANMEN
  6
CONTINUOUS
 10
174.0
 20
156.9
 30
0.0
 11
174.0
 21
156.350006
 31
0.0
  0
ARC
  5
1B2B9
  8
DANMEN
  6
CONTINUOUS
 10
185.037291
 20
150.5
 30
0.0
 40
0.5
 50
90.0
 51
98.530766
  0
LINE
  5
1B2BB
  8
DANMEN
  6
CONTINUOUS
 10
202.0
 20
164.0
 30
0.0
 11
202.0
 21
151.0
 31
0.0
  0
LINE
  5
1B2BC
  8
DANMEN
  6
CONTINUOUS
 10
186.5
 20
158.0
 30
0.0
 11
202.0
 21
158.0
 31
0.0
  0
ARC
  5
1B2C2
  8
DANMEN
  6
CONTINUOUS
 10
186.5
 20
157.5
 30
0.0
 40
0.5
 50
359.999981
 51
89.999982
  0
ARC
  5
1B2C3
  8
DANMEN
  6
CONTINUOUS
 10
186.5
 20
156.850006
 30
0.0
 40
0.5
 50
270.000018
 51
359.999981
  0
LINE
  5
1B2C4
  8
DANMEN
  6
CONTINUOUS
 10
187.0
 20
157.5
 30
0.0
 11
187.0
 21
156.850006
 31
0.0
  0
LINE
  5
1B2C7
  8
DANMEN
  6
CONTINUOUS
 10
96.300002
 20
218.149997
 30
0.0
 11
108.55
 21
218.149997
 31
0.0
  0
LINE
  5
1B2C8
  8
DANMEN
  6
CONTINUOUS
 10
97.8
 20
225.349997
 30
0.0
 11
108.55
 21
225.349997
 31
0.0
  0
LINE
  5
1B2C9
  8
DANMEN
  6
CONTINUOUS
 10
98.3
 20
226.999997
 30
0.0
 11
109.7
 21
226.999997
 31
0.0
  0
LINE
  5
1B2CA
  8
DANMEN
  6
CONTINUOUS
 10
82.65
 20
250.0
 30
0.0
 11
110.350006
 21
250.0
 31
0.0
  0
LINE
  5
1B2CB
  8
DANMEN
  6
CONTINUOUS
 10
99.5
 20
228.65
 30
0.0
 11
110.350006
 21
228.65
 31
0.0
  0
LINE
  5
1B2CC
  8
DANMEN
  6
CONTINUOUS
 10
99.0
 20
227.0
 30
0.0
 11
111.5
 21
227.0
 31
0.0
  0
LINE
  5
1B2CD
  8
DANMEN
  6
CONTINUOUS
 10
96.3
 20
251.65
 30
0.0
 11
110.350006
 21
251.65
 31
0.0
  0
LINE
  5
1B2CE
  8
DANMEN
  6
CONTINUOUS
 10
82.65
 20
250.0
 30
0.0
 11
82.65
 21
230.0
 31
0.0
  0
LINE
  5
1B2CF
  8
DANMEN
  6
CONTINUOUS
 10
81.0
 20
250.0
 30
0.0
 11
81.0
 21
235.0
 31
0.0
  0
LINE
  5
1B2D0
  8
DANMEN
  6
DASHED
 10
81.5
 20
225.800003
 30
0.0
 11
100.5
 21
225.800003
 31
0.0
  0
LINE
  5
1B2D1
  8
DANMEN
  6
DASHED
 10
85.0
 20
227.0
 30
0.0
 11
97.0
 21
227.0
 31
0.0
  0
LINE
  5
1B2D2
  8
DANMEN
  6
CONTINUOUS
 10
82.65
 20
218.649997
 30
0.0
 11
87.700002
 21
218.649997
 31
0.0
  0
LINE
  5
1B2D3
  8
DANMEN
  6
CONTINUOUS
 10
73.600003
 20
230.782873
 30
0.0
 11
74.582437
 21
227.6
 31
0.0
  0
LINE
  5
1B2D4
  8
DANMEN
  6
CONTINUOUS
 10
73.018703
 20
230.60985
 30
0.0
 11
74.146181
 21
227.115559
 31
0.0
  0
LINE
  5
1B2D5
  8
DANMEN
  6
CONTINUOUS
 10
77.000003
 20
229.5
 30
0.0
 11
77.000003
 21
228.5
 31
0.0
  0
LINE
  5
1B2D6
  8
DANMEN
  6
CONTINUOUS
 10
78.000003
 20
229.5
 30
0.0
 11
78.000003
 21
228.5
 31
0.0
  0
LINE
  5
1B2D7
  8
DANMEN
  6
CONTINUOUS
 10
76.000003
 20
229.5
 30
0.0
 11
76.000003
 21
227.0
 31
0.0
  0
LINE
  5
1B2D8
  8
DANMEN
  6
CONTINUOUS
 10
75.200003
 20
234.7
 30
0.0
 11
75.200003
 21
227.6
 31
0.0
  0
LINE
  5
1B2D9
  8
DANMEN
  6
DASHED
 10
84.5
 20
231.600003
 30
0.0
 11
84.5
 21
227.5
 31
0.0
  0
LINE
  5
1B2DA
  8
DANMEN
  6
DASHED
 10
83.5
 20
227.0
 30
0.0
 11
83.5
 21
229.999972
 31
0.0
  0
LINE
  5
1B2DB
  8
DANMEN
  6
CONTINUOUS
 10
85.0
 20
226.349997
 30
0.0
 11
85.0
 21
237.5
 31
0.0
  0
LINE
  5
1B2DC
  8
DANMEN
  6
CONTINUOUS
 10
83.5
 20
227.000001
 30
0.0
 11
83.5
 21
237.0
 31
0.0
  0
LINE
  5
1B2DD
  8
DANMEN
  6
CONTINUOUS
 10
83.5
 20
230.0
 30
0.0
 11
83.5
 21
227.5
 31
0.0
  0
ARC
  5
1B2DE
  8
DANMEN
  6
CONTINUOUS
 10
76.5
 20
228.699997
 30
0.0
 40
0.5
 50
89.999999
 51
179.999981
  0
LINE
  5
1B2DF
  8
DANMEN
  6
CONTINUOUS
 10
76.800003
 20
228.0
 30
0.0
 11
76.800003
 21
229.199997
 31
0.0
  0
LINE
  5
1B2E0
  8
DANMEN
  6
CONTINUOUS
 10
81.000003
 20
228.0
 30
0.0
 11
81.000003
 21
234.2
 31
0.0
  0
LINE
  5
1B2E1
  8
DANMEN
  6
CONTINUOUS
 10
73.0
 20
234.5
 30
0.0
 11
73.0
 21
223.5
 31
0.0
  0
LINE
  5
1B2E2
  8
DANMEN
  6
CONTINUOUS
 10
71.05
 20
234.5
 30
0.0
 11
71.05
 21
224.95
 31
0.0
  0
LINE
  5
1B2E3
  8
DANMEN
  6
CONTINUOUS
 10
83.0
 20
227.0
 30
0.0
 11
76.5
 21
227.0
 31
0.0
  0
LINE
  5
1B2E4
  8
DANMEN
  6
CONTINUOUS
 10
76.800003
 20
228.0
 30
0.0
 11
81.0
 21
228.0
 31
0.0
  0
LINE
  5
1B2E5
  8
DANMEN
  6
CONTINUOUS
 10
73.000003
 20
227.0
 30
0.0
 11
81.000003
 21
227.0
 31
0.0
  0
ARC
  5
1B2E6
  8
DANMEN
  6
CONTINUOUS
 10
72.5
 20
223.5
 30
0.0
 40
0.5
 50
270.0
 51
0.0
  0
LINE
  5
1B2E7
  8
DANMEN
  6
CONTINUOUS
 10
72.5
 20
223.0
 30
0.0
 11
70.800003
 21
223.0
 31
0.0
  0
LINE
  5
1B2EA
  8
DANMEN
  6
CONTINUOUS
 10
74.582437
 20
227.6
 30
0.0
 11
75.200003
 21
227.6
 31
0.0
  0
LINE
  5
1B2EB
  8
DANMEN
  6
CONTINUOUS
 10
74.327481
 20
227.0
 30
0.0
 11
76.000003
 21
227.0
 31
0.0
  0
ARC
  5
1B2EE
  8
DANMEN
  6
CONTINUOUS
 10
74.327481
 20
227.2
 30
0.0
 40
0.2
 50
204.97391
 51
270.0
  0
ARC
  5
1B2F2
  8
DANMEN
  6
CONTINUOUS
 10
77.200003
 20
228.5
 30
0.0
 40
0.2
 50
180.000019
 51
270.000001
  0
ARC
  5
1B2F4
  8
DANMEN
  6
CONTINUOUS
 10
77.800003
 20
228.5
 30
0.0
 40
0.2
 50
270.000018
 51
0.0
  0
LINE
  5
1B2F6
  8
DANMEN
  6
CONTINUOUS
 10
77.200003
 20
228.3
 30
0.0
 11
77.800003
 21
228.3
 31
0.0
  0
ARC
  5
1B2F7
  8
DANMEN
  6
CONTINUOUS
 10
76.5
 20
227.5
 30
0.0
 40
0.5
 50
179.999981
 51
270.000018
  0
LINE
  5
1B2F8
  8
DANMEN
  6
CONTINUOUS
 10
76.0
 20
227.5
 30
0.0
 11
76.0
 21
228.699997
 31
0.0
  0
LINE
  5
1B2FB
  8
DANMEN
  6
CONTINUOUS
 10
82.65
 20
225.349997
 30
0.0
 11
82.65
 21
218.649997
 31
0.0
  0
LINE
  5
1B2FC
  8
DANMEN
  6
DASHED
 10
83.5
 20
227.0
 30
0.0
 11
81.0
 21
227.0
 31
0.0
  0
LINE
  5
1B2FD
  8
DANMEN
  6
CONTINUOUS
 10
81.5
 20
227.0
 30
0.0
 11
83.5
 21
227.0
 31
0.0
  0
LINE
  5
1B2FE
  8
DANMEN
  6
CONTINUOUS
 10
82.65
 20
225.349997
 30
0.0
 11
84.0
 21
225.349997
 31
0.0
  0
ARC
  5
1B2FF
  8
DANMEN
  6
CONTINUOUS
 10
83.0
 20
227.5
 30
0.0
 40
0.5
 50
270.0
 51
0.0
  0
LINE
  5
1B302
  8
DANMEN
  6
DASHED
 10
81.0
 20
227.0
 30
0.0
 11
81.0
 21
226.300003
 31
0.0
  0
ARC
  5
1B303
  8
DANMEN
  6
DASHED
 10
81.5
 20
226.300003
 30
0.0
 40
0.5
 50
180.0
 51
269.999982
  0
ARC
  5
1B304
  8
DANMEN
  6
CONTINUOUS
 10
81.5
 20
226.5
 30
0.0
 40
0.5
 50
90.0
 51
180.0
  0
ARC
  5
1B307
  8
DANMEN
  6
DASHED
 10
85.0
 20
227.5
 30
0.0
 40
0.5
 50
180.0
 51
270.0
  0
ARC
  5
1B308
  8
DANMEN
  6
CONTINUOUS
 10
84.0
 20
226.349997
 30
0.0
 40
1.0
 50
270.0
 51
0.0
  0
LINE
  5
1B309
  8
DANMEN
  6
CONTINUOUS
 10
76.800003
 20
234.2
 30
0.0
 11
81.0
 21
234.2
 31
0.0
  0
LINE
  5
1B30A
  8
DANMEN
  6
CONTINUOUS
 10
76.5
 20
235.0
 30
0.0
 11
81.0
 21
235.0
 31
0.0
  0
LINE
  5
1B30B
  8
DANMEN
  6
CONTINUOUS
 10
74.146181
 20
235.184441
 30
0.0
 11
73.018703
 21
231.69015
 31
0.0
  0
LINE
  5
1B30C
  8
DANMEN
  6
CONTINUOUS
 10
76.000003
 20
235.3
 30
0.0
 11
76.000003
 21
232.8
 31
0.0
  0
ARC
  5
1B30D
  8
DANMEN
  6
CONTINUOUS
 10
76.5
 20
234.5
 30
0.0
 40
0.5
 50
89.999999
 51
179.999981
  0
ARC
  5
1B30E
  8
DANMEN
  6
CONTINUOUS
 10
72.5
 20
234.5
 30
0.0
 40
0.5
 50
0.0
 51
90.0
  0
ARC
  5
1B30F
  8
DANMEN
  6
CONTINUOUS
 10
71.55
 20
234.5
 30
0.0
 40
0.5
 50
90.0
 51
180.0
  0
LINE
  5
1B310
  8
DANMEN
  6
CONTINUOUS
 10
74.582437
 20
234.7
 30
0.0
 11
75.200003
 21
234.7
 31
0.0
  0
LINE
  5
1B314
  8
DANMEN
  6
CONTINUOUS
 10
73.600003
 20
231.517126
 30
0.0
 11
73.600003
 21
230.782873
 31
0.0
  0
LINE
  5
1B315
  8
DANMEN
  6
CONTINUOUS
 10
74.582437
 20
234.7
 30
0.0
 11
73.600003
 21
231.517126
 31
0.0
  0
ARC
  5
1B317
  8
DANMEN
  6
CONTINUOUS
 10
73.200003
 20
230.694291
 30
0.0
 40
0.2
 50
180.0
 51
204.97391
  0
ARC
  5
1B319
  8
DANMEN
  6
CONTINUOUS
 10
73.200003
 20
231.605709
 30
0.0
 40
0.2
 50
155.02609
 51
180.0
  0
LINE
  5
1B31A
  8
DANMEN
  6
CONTINUOUS
 10
73.000003
 20
231.605709
 30
0.0
 11
73.000003
 21
230.694291
 31
0.0
  0
LINE
  5
1B321
  8
DANMEN
  6
CONTINUOUS
 10
77.200003
 20
232.0
 30
0.0
 11
77.200003
 21
230.3
 31
0.0
  0
LINE
  5
1B326
  8
DANMEN
  6
CONTINUOUS
 10
76.000003
 20
229.5
 30
0.0
 11
77.000003
 21
229.5
 31
0.0
  0
LINE
  5
1B328
  8
DANMEN
  6
CONTINUOUS
 10
76.000003
 20
232.8
 30
0.0
 11
77.000003
 21
232.8
 31
0.0
  0
LINE
  5
1B329
  8
DANMEN
  6
CONTINUOUS
 10
77.200003
 20
230.3
 30
0.0
 11
78.000003
 21
229.5
 31
0.0
  0
LINE
  5
1B32A
  8
DANMEN
  6
CONTINUOUS
 10
78.000003
 20
232.8
 30
0.0
 11
77.200003
 21
232.0
 31
0.0
  0
ARC
  5
1B32E
  8
DANMEN
  6
CONTINUOUS
 10
77.200003
 20
233.8
 30
0.0
 40
0.2
 50
89.999982
 51
180.000019
  0
ARC
  5
1B330
  8
DANMEN
  6
CONTINUOUS
 10
77.800003
 20
233.8
 30
0.0
 40
0.2
 50
0.0
 51
89.999982
  0
LINE
  5
1B332
  8
DANMEN
  6
CONTINUOUS
 10
77.000003
 20
233.8
 30
0.0
 11
77.000003
 21
232.8
 31
0.0
  0
LINE
  5
1B333
  8
DANMEN
  6
CONTINUOUS
 10
77.200003
 20
234.0
 30
0.0
 11
77.800003
 21
234.0
 31
0.0
  0
LINE
  5
1B334
  8
DANMEN
  6
CONTINUOUS
 10
78.000003
 20
233.8
 30
0.0
 11
78.000003
 21
232.8
 31
0.0
  0
LINE
  5
1B336
  8
DANMEN
  6
CONTINUOUS
 10
76.5
 20
232.800003
 30
0.0
 11
76.800003
 21
232.800003
 31
0.0
  0
ARC
  5
1B337
  8
DANMEN
  6
CONTINUOUS
 10
76.5
 20
233.300003
 30
0.0
 40
0.5
 50
179.999981
 51
270.000018
  0
LINE
  5
1B338
  8
DANMEN
  6
CONTINUOUS
 10
76.800003
 20
232.800003
 30
0.0
 11
76.800003
 21
234.2
 31
0.0
  0
LINE
  5
1B339
  8
DANMEN
  6
CONTINUOUS
 10
76.0
 20
233.300003
 30
0.0
 11
76.0
 21
234.5
 31
0.0
  0
LINE
  5
1B33A
  8
DANMEN
  6
CONTINUOUS
 10
76.5
 20
229.199997
 30
0.0
 11
76.800003
 21
229.199997
 31
0.0
  0
LINE
  5
1B33B
  8
DANMEN
  6
CONTINUOUS
 10
74.327481
 20
235.3
 30
0.0
 11
76.000003
 21
235.3
 31
0.0
  0
ARC
  5
1B33D
  8
DANMEN
  6
CONTINUOUS
 10
74.327481
 20
235.1
 30
0.0
 40
0.2
 50
90.0
 51
155.02609
  0
LINE
  5
1B33E
  8
DANMEN
  6
CONTINUOUS
 10
72.5
 20
235.0
 30
0.0
 11
71.55
 21
235.0
 31
0.0
  0
LINE
  5
1B342
  8
DANMEN
  6
DASHED
 10
83.023824
 20
230.617136
 30
0.0
 11
84.423825
 21
233.917167
 31
0.0
  0
ARC
  5
1B343
  8
DANMEN
  6
DASHED
 10
83.299999
 20
230.499972
 30
0.0
 40
0.3
 50
157.011468
 51
235.656024
  0
LINE
  5
1B344
  8
DANMEN
  6
CONTINUOUS
 10
82.65
 20
230.0
 30
0.0
 11
83.5
 21
230.0
 31
0.0
  0
LINE
  5
1B349
  8
DANMEN
  6
DASHED
 10
84.5
 20
231.600003
 30
0.0
 11
84.992312
 21
233.73252
 31
0.0
  0
ARC
  5
1B34A
  8
DANMEN
  6
DASHED
 10
84.7
 20
233.800003
 30
0.0
 40
0.3
 50
347.000479
 51
157.011468
  0
LINE
  5
1B34B
  8
DANMEN
  6
DASHED
 10
83.499991
 20
229.999972
 30
0.0
 11
83.130743
 21
230.252271
 31
0.0
  0
ARC
  5
1B34F
  8
DANMEN
  6
CONTINUOUS
 10
84.0
 20
237.0
 30
0.0
 40
0.5
 50
90.0
 51
180.0
  0
LINE
  5
1B350
  8
DANMEN
  6
CONTINUOUS
 10
84.0
 20
237.5
 30
0.0
 11
85.0
 21
237.5
 31
0.0
  0
LINE
  5
1B351
  8
DANMEN
  6
DASHED
 10
98.5
 20
227.0
 30
0.0
 11
98.5
 21
229.999972
 31
0.0
  0
LINE
  5
1B352
  8
DANMEN
  6
DASHED
 10
97.5
 20
231.600003
 30
0.0
 11
97.5
 21
227.5
 31
0.0
  0
LINE
  5
1B353
  8
DANMEN
  6
CONTINUOUS
 10
96.8
 20
226.349997
 30
0.0
 11
96.8
 21
237.500003
 31
0.0
  0
LINE
  5
1B354
  8
DANMEN
  6
CONTINUOUS
 10
98.3
 20
226.999997
 30
0.0
 11
98.3
 21
237.000003
 31
0.0
  0
LINE
  5
1B355
  8
DANMEN
  6
CONTINUOUS
 10
98.5
 20
230.0
 30
0.0
 11
98.5
 21
227.5
 31
0.0
  0
LINE
  5
1B356
  8
DANMEN
  6
CONTINUOUS
 10
99.206061
 20
229.642044
 30
0.0
 11
99.5
 21
228.65
 31
0.0
  0
ARC
  5
1B357
  8
DANMEN
  6
CONTINUOUS
 10
93.300002
 20
220.430304
 30
0.0
 40
2.0
 50
0.000026
 51
51.706549
  0
ARC
  5
1B358
  8
DANMEN
  6
CONTINUOUS
 10
96.300002
 20
219.149997
 30
0.0
 40
1.0
 50
180.0
 51
270.0
  0
LINE
  5
1B359
  8
DANMEN
  6
CONTINUOUS
 10
92.800003
 20
218.099997
 30
0.0
 11
91.200003
 21
218.099996
 31
0.0
  0
LINE
  5
1B35A
  8
DANMEN
  6
CONTINUOUS
 10
90.900001
 20
221.699996
 30
0.0
 11
90.900001
 21
221.436928
 31
0.0
  0
ARC
  5
1B35B
  8
DANMEN
  6
CONTINUOUS
 10
91.200002
 20
220.346057
 30
0.0
 40
1.0
 50
114.624344
 51
180.000026
  0
ARC
  5
1B35C
  8
DANMEN
  6
CONTINUOUS
 10
90.700001
 20
221.436928
 30
0.0
 40
0.2
 50
294.624344
 51
0.000026
  0
ARC
  5
1B35D
  8
DANMEN
  6
CONTINUOUS
 10
90.700002
 20
220.430302
 30
0.0
 40
2.0
 50
128.293503
 51
180.000026
  0
LINE
  5
1B35E
  8
DANMEN
  6
CONTINUOUS
 10
88.700002
 20
220.430301
 30
0.0
 11
88.700002
 21
219.649995
 31
0.0
  0
LINE
  5
1B35F
  8
DANMEN
  6
CONTINUOUS
 10
90.200002
 20
220.346057
 30
0.0
 11
90.200002
 21
219.099996
 31
0.0
  0
ARC
  5
1B360
  8
DANMEN
  6
CONTINUOUS
 10
91.200002
 20
219.099996
 30
0.0
 40
1.0
 50
180.000026
 51
270.000026
  0
LINE
  5
1B361
  8
DANMEN
  6
CONTINUOUS
 10
90.600001
 20
221.999996
 30
0.0
 11
89.460621
 21
221.999996
 31
0.0
  0
ARC
  5
1B362
  8
DANMEN
  6
CONTINUOUS
 10
90.600001
 20
221.699996
 30
0.0
 40
0.3
 50
0.000026
 51
90.000026
  0
ARC
  5
1B363
  8
DANMEN
  6
CONTINUOUS
 10
87.700002
 20
219.649997
 30
0.0
 40
1.0
 50
270.0
 51
0.0
  0
ARC
  5
1B364
  8
DANMEN
  6
CONTINUOUS
 10
93.300001
 20
221.436929
 30
0.0
 40
0.2
 50
180.000026
 51
245.375708
  0
ARC
  5
1B365
  8
DANMEN
  6
CONTINUOUS
 10
92.800002
 20
220.346058
 30
0.0
 40
1.0
 50
0.000026
 51
65.375708
  0
LINE
  5
1B366
  8
DANMEN
  6
CONTINUOUS
 10
93.100001
 20
221.699997
 30
0.0
 11
93.100001
 21
221.436929
 31
0.0
  0
ARC
  5
1B367
  8
DANMEN
  6
CONTINUOUS
 10
92.800002
 20
219.099997
 30
0.0
 40
1.0
 50
270.000026
 51
0.000026
  0
LINE
  5
1B368
  8
DANMEN
  6
CONTINUOUS
 10
95.300002
 20
220.430304
 30
0.0
 11
95.300002
 21
219.149998
 31
0.0
  0
LINE
  5
1B369
  8
DANMEN
  6
CONTINUOUS
 10
93.800002
 20
220.346058
 30
0.0
 11
93.800002
 21
219.099998
 31
0.0
  0
ARC
  5
1B36A
  8
DANMEN
  6
CONTINUOUS
 10
93.400001
 20
221.699997
 30
0.0
 40
0.3
 50
90.000026
 51
180.000026
  0
LINE
  5
1B36B
  8
DANMEN
  6
CONTINUOUS
 10
93.400001
 20
221.999996
 30
0.0
 11
94.53938
 21
221.999996
 31
0.0
  0
LINE
  5
1B36D
  8
DANMEN
  6
DASHED
 10
98.5
 20
227.0
 30
0.0
 11
101.0
 21
227.0
 31
0.0
  0
LINE
  5
1B36E
  8
DANMEN
  6
DASHED
 10
98.5
 20
227.0
 30
0.0
 11
101.0
 21
227.0
 31
0.0
  0
ARC
  5
1B371
  8
DANMEN
  6
DASHED
 10
97.0
 20
227.5
 30
0.0
 40
0.5
 50
270.0
 51
0.0
  0
ARC
  5
1B372
  8
DANMEN
  6
CONTINUOUS
 10
97.8
 20
226.349997
 30
0.0
 40
1.0
 50
180.0
 51
270.0
  0
ARC
  5
1B373
  8
DANMEN
  6
CONTINUOUS
 10
99.0
 20
227.5
 30
0.0
 40
0.5
 50
180.0
 51
270.0
  0
LINE
  5
1B374
  8
DANMEN
  6
DASHED
 10
101.0
 20
227.0
 30
0.0
 11
101.0
 21
226.300003
 31
0.0
  0
ARC
  5
1B376
  8
DANMEN
  6
DASHED
 10
100.5
 20
226.300003
 30
0.0
 40
0.5
 50
270.000018
 51
0.0
  0
ARC
  5
1B37A
  8
DANMEN
  6
DASHED
 10
98.700001
 20
230.499972
 30
0.0
 40
0.3
 50
304.343976
 51
22.988532
  0
LINE
  5
1B37B
  8
DANMEN
  6
DASHED
 10
98.500009
 20
229.999972
 30
0.0
 11
98.869257
 21
230.252271
 31
0.0
  0
ARC
  5
1B37C
  8
DANMEN
  6
DASHED
 10
97.3
 20
233.800003
 30
0.0
 40
0.3
 50
22.988532
 51
192.999521
  0
LINE
  5
1B37D
  8
DANMEN
  6
DASHED
 10
98.976176
 20
230.617136
 30
0.0
 11
97.576175
 21
233.917167
 31
0.0
  0
LINE
  5
1B37E
  8
DANMEN
  6
DASHED
 10
97.5
 20
231.600003
 30
0.0
 11
97.007688
 21
233.73252
 31
0.0
  0
LINE
  5
1B383
  8
DANMEN
  6
CONTINUOUS
 10
98.726662
 20
230.0
 30
0.0
 11
98.5
 21
230.0
 31
0.0
  0
ARC
  5
1B384
  8
DANMEN
  6
CONTINUOUS
 10
98.726662
 20
229.5
 30
0.0
 40
0.5
 50
16.504361
 51
90.0
  0
ARC
  5
1B386
  8
DANMEN
  6
CONTINUOUS
 10
97.8
 20
237.000003
 30
0.0
 40
0.5
 50
0.0
 51
90.0
  0
LINE
  5
1B387
  8
DANMEN
  6
CONTINUOUS
 10
96.8
 20
237.500003
 30
0.0
 11
97.8
 21
237.500003
 31
0.0
  0
LINE
  5
1B388
  8
DANMEN
  6
CONTINUOUS
 10
79.65
 20
251.65
 30
0.0
 11
87.7
 21
251.65
 31
0.0
  0
LINE
  5
1B389
  8
DANMEN
  6
CONTINUOUS
 10
78.0
 20
253.950012
 30
0.0
 11
78.0
 21
250.8
 31
0.0
  0
LINE
  5
1B38A
  8
DANMEN
  6
CONTINUOUS
 10
79.65
 20
254.600012
 30
0.0
 11
79.65
 21
251.65
 31
0.0
  0
LINE
  5
1B38B
  8
DANMEN
  6
CONTINUOUS
 10
77.0
 20
250.0
 30
0.0
 11
81.0
 21
250.0
 31
0.0
  0
LINE
  5
1B38F
  8
DANMEN
  6
CONTINUOUS
 10
76.5
 20
250.8
 30
0.0
 11
78.0
 21
250.8
 31
0.0
  0
LINE
  5
1B390
  8
DANMEN
  6
CONTINUOUS
 10
76.5
 20
250.8
 30
0.0
 11
76.5
 21
250.5
 31
0.0
  0
ARC
  5
1B391
  8
DANMEN
  6
CONTINUOUS
 10
77.0
 20
250.5
 30
0.0
 40
0.5
 50
180.000019
 51
270.000001
  0
ARC
  5
1B392
  8
DANMEN
  6
CONTINUOUS
 10
78.65
 20
254.600012
 30
0.0
 40
1.0
 50
0.0
 51
90.0
  0
ARC
  5
1B393
  8
DANMEN
  6
CONTINUOUS
 10
91.2
 20
252.7
 30
0.0
 40
1.0
 50
180.0
 51
270.0
  0
ARC
  5
1B394
  8
DANMEN
  6
CONTINUOUS
 10
92.8
 20
252.7
 30
0.0
 40
1.0
 50
270.0
 51
0.0
  0
ARC
  5
1B395
  8
DANMEN
  6
CONTINUOUS
 10
96.3
 20
252.65
 30
0.0
 40
1.0
 50
180.0
 51
270.0
  0
ARC
  5
1B396
  8
DANMEN
  6
CONTINUOUS
 10
87.7
 20
252.65
 30
0.0
 40
1.0
 50
270.0
 51
0.0
  0
LINE
  5
1B397
  8
DANMEN
  6
CONTINUOUS
 10
92.8
 20
251.7
 30
0.0
 11
91.2
 21
251.7
 31
0.0
  0
ARC
  5
1B398
  8
DANMEN
  6
CONTINUOUS
 10
93.3
 20
254.030306
 30
0.0
 40
2.0
 50
0.0
 51
51.706523
  0
LINE
  5
1B399
  8
DANMEN
  6
CONTINUOUS
 10
90.6
 20
255.600006
 30
0.0
 11
89.460628
 21
255.600006
 31
0.0
  0
ARC
  5
1B39A
  8
DANMEN
  6
CONTINUOUS
 10
90.6
 20
255.3
 30
0.0
 40
0.3
 50
0.0
 51
90.0
  0
LINE
  5
1B39B
  8
DANMEN
  6
CONTINUOUS
 10
90.2
 20
253.946061
 30
0.0
 11
90.2
 21
252.7
 31
0.0
  0
ARC
  5
1B39C
  8
DANMEN
  6
CONTINUOUS
 10
90.7
 20
255.036932
 30
0.0
 40
0.2
 50
294.624318
 51
0.0
  0
ARC
  5
1B39D
  8
DANMEN
  6
CONTINUOUS
 10
91.2
 20
253.946061
 30
0.0
 40
1.0
 50
114.624318
 51
180.0
  0
LINE
  5
1B39E
  8
DANMEN
  6
CONTINUOUS
 10
90.9
 20
255.036932
 30
0.0
 11
90.9
 21
255.3
 31
0.0
  0
LINE
  5
1B39F
  8
DANMEN
  6
CONTINUOUS
 10
88.7
 20
254.030306
 30
0.0
 11
88.7
 21
252.65
 31
0.0
  0
ARC
  5
1B3A0
  8
DANMEN
  6
CONTINUOUS
 10
90.7
 20
254.030306
 30
0.0
 40
2.0
 50
128.293195
 51
180.0
  0
ARC
  5
1B3A1
  8
DANMEN
  6
CONTINUOUS
 10
93.4
 20
255.3
 30
0.0
 40
0.3
 50
90.0
 51
180.0
  0
LINE
  5
1B3A2
  8
DANMEN
  6
CONTINUOUS
 10
94.539379
 20
255.6
 30
0.0
 11
93.4
 21
255.6
 31
0.0
  0
LINE
  5
1B3A3
  8
DANMEN
  6
CONTINUOUS
 10
93.8
 20
253.946061
 30
0.0
 11
93.8
 21
252.7
 31
0.0
  0
LINE
  5
1B3A4
  8
DANMEN
  6
CONTINUOUS
 10
95.3
 20
254.030306
 30
0.0
 11
95.3
 21
252.65
 31
0.0
  0
LINE
  5
1B3A5
  8
DANMEN
  6
CONTINUOUS
 10
93.1
 20
255.036932
 30
0.0
 11
93.1
 21
255.3
 31
0.0
  0
ARC
  5
1B3A6
  8
DANMEN
  6
CONTINUOUS
 10
92.8
 20
253.946061
 30
0.0
 40
1.0
 50
0.0
 51
65.375682
  0
ARC
  5
1B3A7
  8
DANMEN
  6
CONTINUOUS
 10
93.3
 20
255.036932
 30
0.0
 40
0.2
 50
180.0
 51
245.375682
  0
LINE
  5
1B3A8
  8
DANMEN
  6
CONTINUOUS
 10
112.0
 20
261.5
 30
0.0
 11
112.0
 21
227.5
 31
0.0
  0
LINE
  5
1B3A9
  8
DANMEN
  6
CONTINUOUS
 10
110.350006
 20
250.0
 30
0.0
 11
110.350006
 21
228.65
 31
0.0
  0
ARC
  5
1B3AA
  8
DANMEN
  6
CONTINUOUS
 10
111.5
 20
227.5
 30
0.0
 40
0.5
 50
270.000018
 51
0.0
  0
LINE
  5
1B3AB
  8
DANMEN
  6
CONTINUOUS
 10
108.55
 20
218.149997
 30
0.0
 11
108.55
 21
225.349997
 31
0.0
  0
ARC
  5
1B3AD
  8
DANMEN
  6
CONTINUOUS
 10
110.623494
 20
226.439422
 30
0.0
 40
0.5
 50
1.431408
 51
84.0
  0
LINE
  5
1B3B3
  8
DANMEN
  6
CONTINUOUS
 10
110.11785
 20
226.995322
 30
0.0
 11
110.675759
 21
226.936683
 31
0.0
  0
ARC
  5
1B3B4
  8
DANMEN
  6
CONTINUOUS
 10
109.7
 20
226.499997
 30
0.0
 40
0.5
 50
0.0
 51
90.0
  0
LINE
  5
1B3B6
  8
DANMEN
  6
CONTINUOUS
 10
110.350006
 20
260.350006
 30
0.0
 11
110.350006
 21
251.65
 31
0.0
  0
ARC
  5
1B3B7
  8
DANMEN
  6
CONTINUOUS
 10
111.5
 20
261.5
 30
0.0
 40
0.5
 50
0.0
 51
89.999982
  0
LINE
  5
1B3B8
  8
DANMEN
  6
CONTINUOUS
 10
106.5
 20
262.0
 30
0.0
 11
111.5
 21
262.0
 31
0.0
  0
LINE
  5
1B3B9
  8
DANMEN
  6
CONTINUOUS
 10
106.5
 20
260.350006
 30
0.0
 11
110.350006
 21
260.350006
 31
0.0
  0
LINE
  5
1B3BA
  8
DANMEN
  6
CONTINUOUS
 10
106.0
 20
261.5
 30
0.0
 11
106.0
 21
260.850006
 31
0.0
  0
ARC
  5
1B3BB
  8
DANMEN
  6
CONTINUOUS
 10
106.5
 20
261.5
 30
0.0
 40
0.5
 50
89.999982
 51
180.000019
  0
ARC
  5
1B3BC
  8
DANMEN
  6
CONTINUOUS
 10
106.5
 20
260.850006
 30
0.0
 40
0.5
 50
180.000019
 51
270.000001
  0
LINE
  5
1B3BE
  8
DANMEN
  6
CONTINUOUS
 10
266.300001
 20
127.2
 30
0.0
 11
266.300001
 21
122.5
 31
0.0
  0
LINE
  5
1B3BF
  8
DANMEN
  6
CONTINUOUS
 10
265.300001
 20
126.8
 30
0.0
 11
265.300001
 21
123.3
 31
0.0
  0
LINE
  5
1B3C0
  8
DANMEN
  6
CONTINUOUS
 10
263.504653
 20
127.341701
 30
0.0
 11
260.9
 21
123.3
 31
0.0
  0
LINE
  5
1B3C1
  8
DANMEN
  6
CONTINUOUS
 10
264.345223
 20
126.8
 30
0.0
 11
262.089667
 21
123.3
 31
0.0
  0
ARC
  5
1B3C2
  8
DANMEN
  6
CONTINUOUS
 10
273.55
 20
123.5
 30
0.0
 40
1.0
 50
89.999982
 51
180.000019
  0
ARC
  5
1B3C3
  8
DANMEN
  6
CONTINUOUS
 10
283.750003
 20
124.2
 30
0.0
 40
0.3
 50
286.488148
 51
90.0
  0
LINE
  5
1B3C4
  8
DANMEN
  6
CONTINUOUS
 10
289.5
 20
127.0
 30
0.0
 11
289.5
 21
122.5
 31
0.0
  0
LINE
  5
1B3C5
  8
DANMEN
  6
CONTINUOUS
 10
288.0
 20
127.0
 30
0.0
 11
288.0
 21
123.0
 31
0.0
  0
LINE
  5
1B3C6
  8
DANMEN
  6
CONTINUOUS
 10
303.0
 20
127.0
 30
0.0
 11
303.0
 21
123.0
 31
0.0
  0
LINE
  5
1B3C7
  8
DANMEN
  6
CONTINUOUS
 10
304.5
 20
164.0
 30
0.0
 11
304.5
 21
122.5
 31
0.0
  0
LINE
  5
1B3C8
  8
SUNPO
  6
CONTINUOUS
 10
244.793737
 20
158.0
 30
0.0
 11
244.793737
 21
88.0
 31
0.0
  0
LINE
  5
1B3C9
  8
SUNPO
  6
CONTINUOUS
 10
324.468739
 20
127.0
 30
0.0
 11
324.468739
 21
119.0
 31
0.0
  0
LINE
  5
1B3CA
  8
SUNPO
  6
CONTINUOUS
 10
144.685645
 20
135.000003
 30
0.0
 11
144.685645
 21
93.0
 31
0.0
  0
LINE
  5
1B3CB
  8
SUNPO
  6
CONTINUOUS
 10
136.221192
 20
135.000003
 30
0.0
 11
136.221192
 21
113.000003
 31
0.0
  0
LINE
  5
1B3CC
  8
SUNPO
  6
CONTINUOUS
 10
21.0
 20
53.0
 30
0.0
 11
21.0
 21
167.0
 31
0.0
  0
TEXT
  5
1B3CD
  8
SUNPO
  6
CONTINUOUS
 10
135.221192
 20
121.91667
 30
0.0
 40
2.5
  1
22
 50
90.0
  7
MX_NOTE_STANDARD
  0
TEXT
  5
1B3CE
  8
SUNPO
  6
CONTINUOUS
 10
243.793737
 20
121.125
 30
0.0
 40
2.5
  1
70
 50
90.0
  7
MX_NOTE_STANDARD
  0
LINE
  5
1B3CF
  8
SUNPO
  6
CONTINUOUS
 10
156.0
 20
93.0
 30
0.0
 11
156.0
 21
148.0
 31
0.0
  0
LINE
  5
1B3D0
  8
DANMEN
  6
CONTINUOUS
 10
392.0
 20
156.800003
 30
0.0
 11
392.0
 21
89.199997
 31
0.0
  0
LINE
  5
1B3D1
  8
DANMEN
  6
CONTINUOUS
 10
393.649994
 20
156.350006
 30
0.0
 11
393.649994
 21
89.649994
 31
0.0
  0
LINE
  5
1B3D2
  8
SUNPO
  6
CONTINUOUS
 10
297.0
 20
30.0
 30
0.0
 11
377.0
 21
30.0
 31
0.0
  0
LINE
  5
1B3D3
  8
SUNPO
  6
CONTINUOUS
 10
304.5
 20
38.322886
 30
0.0
 11
377.0
 21
38.322886
 31
0.0
  0
LINE
  5
1B3D4
  8
SUNPO
  6
CONTINUOUS
 10
57.0
 20
24.0
 30
0.0
 11
156.0
 21
24.0
 31
0.0
  0
LINE
  5
1B3D6
  8
DANMEN
  6
CONTINUOUS
 10
323.9
 20
83.199997
 30
0.0
 11
347.0
 21
83.199997
 31
0.0
  0
LINE
  5
1B3D7
  8
DANMEN
  6
CONTINUOUS
 10
323.9
 20
81.0
 30
0.0
 11
347.5
 21
81.0
 31
0.0
  0
LINE
  5
1B3D8
  8
DANMEN
  6
CONTINUOUS
 10
323.75
 20
124.0
 30
0.0
 11
392.0
 21
124.0
 31
0.0
  0
LINE
  5
1B3D9
  8
DANMEN
  6
CONTINUOUS
 10
347.500004
 20
119.0
 30
0.0
 11
323.9
 21
119.0
 31
0.0
  0
LINE
  5
1B3DA
  8
DANMEN
  6
CONTINUOUS
 10
362.0
 20
108.15
 30
0.0
 11
323.75
 21
108.15
 31
0.0
  0
LINE
  5
1B3DB
  8
DANMEN
  6
CONTINUOUS
 10
362.0
 20
103.15
 30
0.0
 11
323.75
 21
103.15
 31
0.0
  0
LINE
  5
1B3DC
  8
DANMEN
  6
CONTINUOUS
 10
362.0
 20
96.85
 30
0.0
 11
323.75
 21
96.85
 31
0.0
  0
LINE
  5
1B3DD
  8
DANMEN
  6
CONTINUOUS
 10
362.0
 20
101.85
 30
0.0
 11
323.75
 21
101.85
 31
0.0
  0
LINE
  5
1B3DE
  8
DANMEN
  6
CONTINUOUS
 10
362.0
 20
108.65
 30
0.0
 11
323.75
 21
108.65
 31
0.0
  0
LINE
  5
1B3DF
  8
DANMEN
  6
CONTINUOUS
 10
362.0
 20
96.35
 30
0.0
 11
323.75
 21
96.35
 31
0.0
  0
LINE
  5
1B3E0
  8
DANMEN
  6
CONTINUOUS
 10
362.0
 20
102.65
 30
0.0
 11
323.75
 21
102.65
 31
0.0
  0
LINE
  5
1B3E1
  8
DANMEN
  6
CONTINUOUS
 10
362.0
 20
102.35
 30
0.0
 11
323.75
 21
102.35
 31
0.0
  0
LINE
  5
1B3E2
  8
DANMEN
  6
CONTINUOUS
 10
323.9
 20
87.999997
 30
0.0
 11
347.0
 21
87.999997
 31
0.0
  0
LINE
  5
1B3E3
  8
DANMEN
  6
CONTINUOUS
 10
347.0
 20
116.999966
 30
0.0
 11
323.9
 21
116.999966
 31
0.0
  0
LINE
  5
1B3E4
  8
DANMEN
  6
CONTINUOUS
 10
274.000003
 20
89.8
 30
0.0
 11
261.499997
 21
89.8
 31
0.0
  0
LINE
  5
1B3E5
  8
DANMEN
  6
CONTINUOUS
 10
302.0
 20
51.5
 30
0.0
 11
262.0
 21
51.5
 31
0.0
  0
LINE
  5
1B3E6
  8
DANMEN
  6
CONTINUOUS
 10
272.550003
 20
119.0
 30
0.0
 11
266.25
 21
119.0
 31
0.0
  0
LINE
  5
1B3E7
  8
DANMEN
  6
CONTINUOUS
 10
274.0
 20
117.050003
 30
0.0
 11
261.149997
 21
117.050003
 31
0.0
  0
LINE
  5
1B3E8
  8
DANMEN
  6
CONTINUOUS
 10
302.5
 20
48.0
 30
0.0
 11
261.5
 21
48.0
 31
0.0
  0
LINE
  5
1B3E9
  8
DANMEN
  6
CONTINUOUS
 10
274.0
 20
91.75
 30
0.0
 11
267.55
 21
91.75
 31
0.0
  0
LINE
  5
1B3EA
  8
DANMEN
  6
CONTINUOUS
 10
266.300001
 20
124.0
 30
0.0
 11
272.683978
 21
124.0
 31
0.0
  0
LINE
  5
1B3EB
  8
DANMEN
  6
CONTINUOUS
 10
262.0
 20
58.0
 30
0.0
 11
261.499997
 21
89.8
 31
0.0
  0
LINE
  5
1B3EC
  8
DANMEN
  6
CONTINUOUS
 10
259.5
 20
50.0
 30
0.0
 11
259.5
 21
123.5
 31
0.0
  0
LINE
  5
1B3ED
  8
DANMEN
  6
CONTINUOUS
 10
262.0
 20
58.0
 30
0.0
 11
262.0
 21
51.5
 31
0.0
  0
ARC
  5
1B3EE
  8
DANMEN
  6
CONTINUOUS
 10
261.5
 20
50.0
 30
0.0
 40
2.0
 50
179.999981
 51
270.000018
  0
LINE
  5
1B3F0
  8
DANMEN
  6
CONTINUOUS
 10
261.449997
 20
91.75
 30
0.0
 11
261.449997
 21
116.050003
 31
0.0
  0
LINE
  5
1B3F1
  8
DANMEN
  6
CONTINUOUS
 10
241.75
 20
92.0
 30
0.0
 11
259.5
 21
92.0
 31
0.0
  0
LINE
  5
1B3F2
  8
DANMEN
  6
CONTINUOUS
 10
241.75
 20
88.0
 30
0.0
 11
259.5
 21
88.0
 31
0.0
  0
LINE
  5
1B3F3
  8
DANMEN
  6
CONTINUOUS
 10
266.45
 20
91.75
 30
0.0
 11
261.449997
 21
91.75
 31
0.0
  0
LINE
  5
1B3F4
  8
DANMEN
  6
CONTINUOUS
 10
267.55
 20
93.95
 30
0.0
 11
266.45
 21
93.95
 31
0.0
  0
LINE
  5
1B3F5
  8
DANMEN
  6
CONTINUOUS
 10
267.55
 20
91.75
 30
0.0
 11
267.55
 21
93.95
 31
0.0
  0
LINE
  5
1B3F6
  8
DANMEN
  6
CONTINUOUS
 10
266.45
 20
91.75
 30
0.0
 11
266.45
 21
93.95
 31
0.0
  0
LINE
  5
1B3F7
  8
DANMEN
  6
CONTINUOUS
 10
244.793737
 20
124.0
 30
0.0
 11
261.351111
 21
124.0
 31
0.0
  0
ARC
  5
1B3F8
  8
DANMEN
  6
CONTINUOUS
 10
260.0
 20
123.5
 30
0.0
 40
0.5
 50
90.0
 51
180.0
  0
LINE
  5
1B3F9
  8
DANMEN
  6
CONTINUOUS
 10
261.149997
 20
116.050003
 30
0.0
 11
261.149997
 21
117.050003
 31
0.0
  0
LINE
  5
1B3FA
  8
DANMEN
  6
CONTINUOUS
 10
261.449997
 20
116.050003
 30
0.0
 11
261.149997
 21
116.050003
 31
0.0
  0
LINE
  5
1B3FB
  8
DANMEN
  6
CONTINUOUS
 10
262.4
 20
121.0
 30
0.0
 11
263.6
 21
121.0
 31
0.0
  0
LINE
  5
1B3FC
  8
DANMEN
  6
CONTINUOUS
 10
262.089667
 20
123.3
 30
0.0
 11
265.300001
 21
123.3
 31
0.0
  0
LINE
  5
1B3FD
  8
DANMEN
  6
CONTINUOUS
 10
265.25
 20
119.0
 30
0.0
 11
260.7
 21
119.0
 31
0.0
  0
LINE
  5
1B3FE
  8
DANMEN
  6
CONTINUOUS
 10
262.540778
 20
124.0
 30
0.0
 11
265.300001
 21
124.0
 31
0.0
  0
LINE
  5
1B401
  8
DANMEN
  6
CONTINUOUS
 10
262.4
 20
121.0
 30
0.0
 11
261.9
 21
120.5
 31
0.0
  0
LINE
  5
1B404
  8
DANMEN
  6
CONTINUOUS
 10
261.9
 20
120.5
 30
0.0
 11
260.9
 21
120.5
 31
0.0
  0
LINE
  5
1B407
  8
DANMEN
  6
CONTINUOUS
 10
260.9
 20
122.5
 30
0.0
 11
260.9
 21
123.3
 31
0.0
  0
LINE
  5
1B40B
  8
DANMEN
  6
CONTINUOUS
 10
260.9
 20
122.5
 30
0.0
 11
261.9
 21
122.5
 31
0.0
  0
ARC
  5
1B40C
  8
DANMEN
  6
CONTINUOUS
 10
261.099999
 20
121.3
 30
0.0
 40
0.2
 50
89.999982
 51
180.000019
  0
LINE
  5
1B40D
  8
DANMEN
  6
CONTINUOUS
 10
260.9
 20
121.3
 30
0.0
 11
260.9
 21
120.5
 31
0.0
  0
LINE
  5
1B40E
  8
DANMEN
  6
CONTINUOUS
 10
261.099999
 20
121.5
 30
0.0
 11
261.9
 21
121.5
 31
0.0
  0
LINE
  5
1B40F
  8
DANMEN
  6
CONTINUOUS
 10
261.9
 20
122.5
 30
0.0
 11
261.9
 21
121.5
 31
0.0
  0
ARC
  5
1B411
  8
DANMEN
  6
CONTINUOUS
 10
260.2
 20
123.5
 30
0.0
 40
0.5
 50
0.0
 51
90.0
  0
LINE
  5
1B412
  8
DANMEN
  6
CONTINUOUS
 10
260.7
 20
122.5
 30
0.0
 11
260.7
 21
123.5
 31
0.0
  0
LINE
  5
1B413
  8
DANMEN
  6
CONTINUOUS
 10
260.7
 20
119.0
 30
0.0
 11
260.7
 21
121.699997
 31
0.0
  0
ARC
  5
1B414
  8
DANMEN
  6
CONTINUOUS
 10
261.25
 20
122.0
 30
0.0
 40
0.5
 50
360.0
 51
89.999982
  0
LINE
  5
1B415
  8
DANMEN
  6
CONTINUOUS
 10
261.25
 20
122.5
 30
0.0
 11
260.7
 21
122.5
 31
0.0
  0
LINE
  5
1B416
  8
DANMEN
  6
CONTINUOUS
 10
261.75
 20
121.699997
 30
0.0
 11
260.7
 21
121.699997
 31
0.0
  0
LINE
  5
1B417
  8
DANMEN
  6
CONTINUOUS
 10
261.75
 20
121.699997
 30
0.0
 11
261.75
 21
122.0
 31
0.0
  0
LINE
  5
1B418
  8
DANMEN
  6
CONTINUOUS
 10
260.0
 20
124.0
 30
0.0
 11
260.2
 21
124.0
 31
0.0
  0
LINE
  5
1B41B
  8
DANMEN
  6
CONTINUOUS
 10
264.1
 20
122.5
 30
0.0
 11
266.300001
 21
122.5
 31
0.0
  0
LINE
  5
1B41C
  8
DANMEN
  6
CONTINUOUS
 10
264.1
 20
120.5
 30
0.0
 11
263.6
 21
121.0
 31
0.0
  0
LINE
  5
1B420
  8
DANMEN
  6
CONTINUOUS
 10
265.1
 20
120.5
 30
0.0
 11
264.1
 21
120.5
 31
0.0
  0
ARC
  5
1B424
  8
DANMEN
  6
CONTINUOUS
 10
264.900001
 20
121.3
 30
0.0
 40
0.2
 50
359.999981
 51
90.000037
  0
LINE
  5
1B425
  8
DANMEN
  6
CONTINUOUS
 10
265.1
 20
121.3
 30
0.0
 11
265.1
 21
120.5
 31
0.0
  0
LINE
  5
1B426
  8
DANMEN
  6
CONTINUOUS
 10
264.900001
 20
121.5
 30
0.0
 11
264.1
 21
121.5
 31
0.0
  0
LINE
  5
1B427
  8
DANMEN
  6
CONTINUOUS
 10
264.1
 20
122.5
 30
0.0
 11
264.1
 21
121.5
 31
0.0
  0
ARC
  5
1B429
  8
DANMEN
  6
CONTINUOUS
 10
265.75
 20
122.0
 30
0.0
 40
0.5
 50
360.0
 51
89.999982
  0
ARC
  5
1B42A
  8
DANMEN
  6
CONTINUOUS
 10
264.75
 20
122.0
 30
0.0
 40
0.5
 50
89.999982
 51
180.000019
  0
LINE
  5
1B42B
  8
DANMEN
  6
CONTINUOUS
 10
265.25
 20
119.0
 30
0.0
 11
265.25
 21
121.699997
 31
0.0
  0
LINE
  5
1B42C
  8
DANMEN
  6
CONTINUOUS
 10
265.25
 20
121.699997
 30
0.0
 11
264.25
 21
121.699997
 31
0.0
  0
LINE
  5
1B42D
  8
DANMEN
  6
CONTINUOUS
 10
264.25
 20
121.699997
 30
0.0
 11
264.25
 21
122.0
 31
0.0
  0
LINE
  5
1B42E
  8
DANMEN
  6
CONTINUOUS
 10
266.25
 20
119.0
 30
0.0
 11
266.25
 21
122.0
 31
0.0
  0
LINE
  5
1B42F
  8
DANMEN
  6
CONTINUOUS
 10
265.75
 20
122.5
 30
0.0
 11
264.75
 21
122.5
 31
0.0
  0
LINE
  5
1B430
  8
DANMEN
  6
CONTINUOUS
 10
302.500003
 20
81.0
 30
0.0
 11
302.0
 21
58.0
 31
0.0
  0
LINE
  5
1B431
  8
DANMEN
  6
CONTINUOUS
 10
304.5
 20
50.0
 30
0.0
 11
304.5
 21
88.0
 31
0.0
  0
LINE
  5
1B433
  8
DANMEN
  6
CONTINUOUS
 10
302.0
 20
51.5
 30
0.0
 11
302.0
 21
58.0
 31
0.0
  0
ARC
  5
1B434
  8
DANMEN
  6
CONTINUOUS
 10
302.5
 20
50.0
 30
0.0
 40
2.0
 50
270.000018
 51
0.0
  0
LINE
  5
1B436
  8
DANMEN
  6
CONTINUOUS
 10
303.999996
 20
116.5
 30
0.0
 11
299.499997
 21
116.5
 31
0.0
  0
LINE
  5
1B437
  8
DANMEN
  6
CONTINUOUS
 10
303.999996
 20
119.0
 30
0.0
 11
284.5
 21
119.0
 31
0.0
  0
LINE
  5
1B438
  8
DANMEN
  6
CONTINUOUS
 10
302.500003
 20
81.0
 30
0.0
 11
275.000003
 21
81.0
 31
0.0
  0
LINE
  5
1B439
  8
DANMEN
  6
CONTINUOUS
 10
302.550003
 20
87.0
 30
0.0
 11
294.0
 21
87.0
 31
0.0
  0
LINE
  5
1B43A
  8
DANMEN
  6
CONTINUOUS
 10
304.0
 20
88.5
 30
0.0
 11
299.5
 21
88.5
 31
0.0
  0
LINE
  5
1B43B
  8
DANMEN
  6
CONTINUOUS
 10
303.3
 20
82.949997
 30
0.0
 11
276.5
 21
82.949997
 31
0.0
  0
LINE
  5
1B43C
  8
DANMEN
  6
CONTINUOUS
 10
300.0
 20
123.0
 30
0.0
 11
303.0
 21
123.0
 31
0.0
  0
LINE
  5
1B43D
  8
DANMEN
  6
CONTINUOUS
 10
300.0
 20
121.5
 30
0.0
 11
303.5
 21
121.5
 31
0.0
  0
LINE
  5
1B43E
  8
DANMEN
  6
CONTINUOUS
 10
289.499997
 20
124.0
 30
0.0
 11
303.3
 21
124.0
 31
0.0
  0
LINE
  5
1B43F
  8
DANMEN
  6
CONTINUOUS
 10
289.499999
 20
96.85
 30
0.0
 11
322.25
 21
96.85
 31
0.0
  0
LINE
  5
1B440
  8
DANMEN
  6
CONTINUOUS
 10
289.499999
 20
101.85
 30
0.0
 11
320.343739
 21
101.85
 31
0.0
  0
LINE
  5
1B441
  8
DANMEN
  6
CONTINUOUS
 10
289.499999
 20
108.15
 30
0.0
 11
322.25
 21
108.15
 31
0.0
  0
LINE
  5
1B442
  8
DANMEN
  6
CONTINUOUS
 10
289.499999
 20
103.15
 30
0.0
 11
320.343739
 21
103.15
 31
0.0
  0
LINE
  5
1B443
  8
DANMEN
  6
CONTINUOUS
 10
289.499999
 20
96.35
 30
0.0
 11
322.25
 21
96.35
 31
0.0
  0
LINE
  5
1B444
  8
DANMEN
  6
CONTINUOUS
 10
289.499999
 20
108.65
 30
0.0
 11
322.25
 21
108.65
 31
0.0
  0
LINE
  5
1B445
  8
DANMEN
  6
CONTINUOUS
 10
289.499999
 20
102.35
 30
0.0
 11
320.343739
 21
102.35
 31
0.0
  0
LINE
  5
1B446
  8
DANMEN
  6
CONTINUOUS
 10
289.499999
 20
102.65
 30
0.0
 11
320.343739
 21
102.65
 31
0.0
  0
LINE
  5
1B447
  8
DANMEN
  6
CONTINUOUS
 10
289.5
 20
93.299994
 30
0.0
 11
276.5
 21
111.299994
 31
0.0
  0
LINE
  5
1B448
  8
DANMEN
  6
CONTINUOUS
 10
289.5
 20
111.299994
 30
0.0
 11
289.5
 21
93.299994
 31
0.0
  0
LINE
  5
1B449
  8
DANMEN
  6
CONTINUOUS
 10
276.5
 20
111.299994
 30
0.0
 11
276.5
 21
93.299994
 31
0.0
  0
LINE
  5
1B44A
  8
DANMEN
  6
CONTINUOUS
 10
274.0
 20
96.8
 30
0.0
 11
274.0
 21
113.999994
 31
0.0
  0
LINE
  5
1B44B
  8
DANMEN
  6
CONTINUOUS
 10
276.5
 20
82.949997
 30
0.0
 11
276.5
 21
112.299994
 31
0.0
  0
LINE
  5
1B44C
  8
DANMEN
  6
CONTINUOUS
 10
289.5
 20
110.5
 30
0.0
 11
289.5
 21
94.5
 31
0.0
  0
LINE
  5
1B44D
  8
DANMEN
  6
CONTINUOUS
 10
276.5
 20
93.299994
 30
0.0
 11
289.5
 21
93.299994
 31
0.0
  0
LINE
  5
1B44E
  8
DANMEN
  6
CONTINUOUS
 10
274.000003
 20
82.0
 30
0.0
 11
274.000003
 21
89.8
 31
0.0
  0
ARC
  5
1B44F
  8
DANMEN
  6
CONTINUOUS
 10
275.000003
 20
82.0
 30
0.0
 40
1.0
 50
179.999981
 51
270.000018
  0
LINE
  5
1B450
  8
DANMEN
  6
CONTINUOUS
 10
272.550003
 20
95.3
 30
0.0
 11
272.550003
 21
96.8
 31
0.0
  0
LINE
  5
1B451
  8
DANMEN
  6
CONTINUOUS
 10
274.0
 20
95.3
 30
0.0
 11
272.550003
 21
95.3
 31
0.0
  0
LINE
  5
1B452
  8
DANMEN
  6
CONTINUOUS
 10
274.0
 20
91.75
 30
0.0
 11
274.0
 21
95.3
 31
0.0
  0
LINE
  5
1B453
  8
DANMEN
  6
CONTINUOUS
 10
274.0
 20
96.8
 30
0.0
 11
272.550003
 21
96.8
 31
0.0
  0
LINE
  5
1B454
  8
DANMEN
  6
CONTINUOUS
 10
299.5
 20
88.0
 30
0.0
 11
294.5
 21
88.0
 31
0.0
  0
LINE
  5
1B455
  8
DANMEN
  6
CONTINUOUS
 10
293.5
 20
87.5
 30
0.0
 11
293.5
 21
88.0
 31
0.0
  0
LINE
  5
1B456
  8
DANMEN
  6
CONTINUOUS
 10
294.5
 20
88.0
 30
0.0
 11
294.5
 21
88.5
 31
0.0
  0
ARC
  5
1B457
  8
DANMEN
  6
CONTINUOUS
 10
294.0
 20
87.5
 30
0.0
 40
0.5
 50
180.0
 51
270.0
  0
LINE
  5
1B458
  8
DANMEN
  6
CONTINUOUS
 10
294.5
 20
88.5
 30
0.0
 11
294.0
 21
88.5
 31
0.0
  0
ARC
  5
1B459
  8
DANMEN
  6
CONTINUOUS
 10
294.0
 20
88.0
 30
0.0
 40
0.5
 50
90.0
 51
180.0
  0
LINE
  5
1B45A
  8
DANMEN
  6
CONTINUOUS
 10
299.5
 20
88.0
 30
0.0
 11
299.5
 21
88.5
 31
0.0
  0
LINE
  5
1B45B
  8
DANMEN
  6
CONTINUOUS
 10
276.5
 20
111.299994
 30
0.0
 11
289.5
 21
111.299994
 31
0.0
  0
LINE
  5
1B45C
  8
DANMEN
  6
CONTINUOUS
 10
285.8
 20
115.3
 30
0.0
 11
281.901083
 21
115.3
 31
0.0
  0
LINE
  5
1B45D
  8
DANMEN
  6
CONTINUOUS
 10
284.8
 20
116.5
 30
0.0
 11
282.8
 21
116.5
 31
0.0
  0
LINE
  5
1B45E
  8
DANMEN
  6
CONTINUOUS
 10
284.5
 20
119.0
 30
0.0
 11
274.05
 21
119.0
 31
0.0
  0
LINE
  5
1B45F
  8
DANMEN
  6
CONTINUOUS
 10
283.503755
 20
116.5
 30
0.0
 11
284.245423
 21
116.856576
 31
0.0
  0
LINE
  5
1B460
  8
DANMEN
  6
CONTINUOUS
 10
278.3
 20
121.5
 30
0.0
 11
288.5
 21
121.5
 31
0.0
  0
LINE
  5
1B461
  8
DANMEN
  6
CONTINUOUS
 10
284.0
 20
123.8
 30
0.0
 11
284.5
 21
123.8
 31
0.0
  0
ARC
  5
1B462
  8
DANMEN
  6
CONTINUOUS
 10
282.0
 20
112.690092
 30
0.0
 40
0.5
 50
0.0
 51
78.690068
  0
LINE
  5
1B463
  8
DANMEN
  6
CONTINUOUS
 10
282.5
 20
112.299994
 30
0.0
 11
276.5
 21
112.299994
 31
0.0
  0
LINE
  5
1B464
  8
DANMEN
  6
CONTINUOUS
 10
282.5
 20
112.690092
 30
0.0
 11
282.5
 21
112.299994
 31
0.0
  0
LINE
  5
1B465
  8
DANMEN
  6
CONTINUOUS
 10
277.550003
 20
123.0
 30
0.0
 11
274.05
 21
123.0
 31
0.0
  0
LINE
  5
1B466
  8
DANMEN
  6
CONTINUOUS
 10
283.750003
 20
124.5
 30
0.0
 11
273.55
 21
124.5
 31
0.0
  0
LINE
  5
1B467
  8
DANMEN
  6
CONTINUOUS
 10
274.0
 20
115.499994
 30
0.0
 11
272.550003
 21
115.499994
 31
0.0
  0
LINE
  5
1B468
  8
DANMEN
  6
CONTINUOUS
 10
274.0
 20
115.499994
 30
0.0
 11
274.0
 21
117.050003
 31
0.0
  0
LINE
  5
1B469
  8
DANMEN
  6
CONTINUOUS
 10
274.0
 20
113.999994
 30
0.0
 11
272.550003
 21
113.999994
 31
0.0
  0
LINE
  5
1B46A
  8
DANMEN
  6
CONTINUOUS
 10
272.550003
 20
113.999994
 30
0.0
 11
272.550003
 21
115.499994
 31
0.0
  0
LINE
  5
1B46B
  8
DANMEN
  6
CONTINUOUS
 10
272.550003
 20
119.0
 30
0.0
 11
272.550003
 21
123.5
 31
0.0
  0
LINE
  5
1B46C
  8
DANMEN
  6
CONTINUOUS
 10
274.05
 20
119.0
 30
0.0
 11
274.05
 21
123.0
 31
0.0
  0
LINE
  5
1B46D
  8
DANMEN
  6
CONTINUOUS
 10
281.913121
 20
116.801883
 30
0.0
 11
278.936094
 21
114.598292
 31
0.0
  0
LINE
  5
1B46E
  8
DANMEN
  6
CONTINUOUS
 10
281.901083
 20
115.3
 30
0.0
 11
279.199105
 21
113.3
 31
0.0
  0
LINE
  5
1B46F
  8
DANMEN
  6
CONTINUOUS
 10
282.5
 20
117.05
 30
0.0
 11
276.5
 21
117.05
 31
0.0
  0
LINE
  5
1B470
  8
DANMEN
  6
CONTINUOUS
 10
280.5
 20
113.499994
 30
0.0
 11
276.5
 21
113.499994
 31
0.0
  0
ARC
  5
1B471
  8
DANMEN
  6
CONTINUOUS
 10
277.74247
 20
114.900136
 30
0.0
 40
0.5
 50
34.702622
 51
90.0
  0
ARC
  5
1B472
  8
DANMEN
  6
CONTINUOUS
 10
278.757611
 20
114.839422
 30
0.0
 40
0.3
 50
214.702622
 51
306.508792
  0
LINE
  5
1B473
  8
DANMEN
  6
CONTINUOUS
 10
278.153529
 20
115.184794
 30
0.0
 11
278.510975
 21
114.668627
 31
0.0
  0
ARC
  5
1B474
  8
DANMEN
  6
CONTINUOUS
 10
277.499105
 20
114.900136
 30
0.0
 40
0.5
 50
90.0
 51
180.0
  0
ARC
  5
1B475
  8
DANMEN
  6
CONTINUOUS
 10
277.499105
 20
114.900266
 30
0.0
 40
0.5
 50
180.0
 51
214.702622
  0
LINE
  5
1B476
  8
DANMEN
  6
CONTINUOUS
 10
277.499105
 20
115.400136
 30
0.0
 11
277.74247
 21
115.400136
 31
0.0
  0
LINE
  5
1B477
  8
DANMEN
  6
CONTINUOUS
 10
276.999105
 20
114.900266
 30
0.0
 11
276.999105
 21
114.900136
 31
0.0
  0
LINE
  5
1B478
  8
DANMEN
  6
CONTINUOUS
 10
277.088046
 20
114.615608
 30
0.0
 11
277.999105
 21
113.3
 31
0.0
  0
LINE
  5
1B479
  8
DANMEN
  6
CONTINUOUS
 10
279.199105
 20
113.3
 30
0.0
 11
277.999105
 21
113.3
 31
0.0
  0
LINE
  5
1B47A
  8
DANMEN
  6
CONTINUOUS
 10
276.5
 20
113.499994
 30
0.0
 11
276.5
 21
117.05
 31
0.0
  0
ARC
  5
1B47C
  8
DANMEN
  6
CONTINUOUS
 10
282.234315
 20
116.6
 30
0.0
 40
0.3
 50
19.471221
 51
90.0
  0
ARC
  5
1B47E
  8
DANMEN
  6
CONTINUOUS
 10
282.8
 20
116.8
 30
0.0
 40
0.3
 50
199.471221
 51
270.0
  0
ARC
  5
1B47F
  8
DANMEN
  6
CONTINUOUS
 10
282.210594
 20
116.4
 30
0.0
 40
0.5
 50
90.0
 51
126.508792
  0
LINE
  5
1B480
  8
DANMEN
  6
CONTINUOUS
 10
282.234315
 20
116.9
 30
0.0
 11
282.210594
 21
116.9
 31
0.0
  0
LINE
  5
1B481
  8
DANMEN
  6
CONTINUOUS
 10
280.5
 20
113.499994
 30
0.0
 11
282.098058
 21
113.180382
 31
0.0
  0
ARC
  5
1B482
  8
DANMEN
  6
CONTINUOUS
 10
282.8
 20
116.8
 30
0.0
 40
0.3
 50
180.0
 51
270.0
  0
LINE
  5
1B483
  8
DANMEN
  6
CONTINUOUS
 10
282.5
 20
116.8
 30
0.0
 11
282.5
 21
117.05
 31
0.0
  0
LINE
  5
1B484
  8
DANMEN
  6
CONTINUOUS
 10
282.8
 20
116.5
 30
0.0
 11
283.503755
 21
116.5
 31
0.0
  0
LINE
  5
1B485
  8
DANMEN
  6
CONTINUOUS
 10
278.050003
 20
122.2
 30
0.0
 11
283.835148
 21
123.912336
 31
0.0
  0
LINE
  5
1B486
  8
DANMEN
  6
CONTINUOUS
 10
284.0
 20
123.8
 30
0.0
 11
278.214855
 21
122.087664
 31
0.0
  0
LINE
  5
1B487
  8
DANMEN
  6
CONTINUOUS
 10
277.550003
 20
123.0
 30
0.0
 11
277.550003
 21
122.2
 31
0.0
  0
LINE
  5
1B488
  8
DANMEN
  6
CONTINUOUS
 10
278.050003
 20
122.2
 30
0.0
 11
277.550003
 21
122.2
 31
0.0
  0
ARC
  5
1B48B
  8
DANMEN
  6
CONTINUOUS
 10
278.3
 20
121.8
 30
0.0
 40
0.3
 50
106.488148
 51
270.0
  0
LINE
  5
1B48D
  8
DANMEN
  6
CONTINUOUS
 10
299.499997
 20
117.05
 30
0.0
 11
286.8
 21
117.05
 31
0.0
  0
LINE
  5
1B48E
  8
DANMEN
  6
CONTINUOUS
 10
284.5
 20
119.0
 30
0.0
 11
284.5
 21
117.5
 31
0.0
  0
LINE
  5
1B48F
  8
DANMEN
  6
CONTINUOUS
 10
284.5
 20
119.0
 30
0.0
 11
284.5
 21
117.292199
 31
0.0
  0
ARC
  5
1B490
  8
DANMEN
  6
CONTINUOUS
 10
285.8
 20
115.8
 30
0.0
 40
0.5
 50
270.0
 51
0.0
  0
LINE
  5
1B491
  8
DANMEN
  6
CONTINUOUS
 10
284.8
 20
117.5
 30
0.0
 11
284.5
 21
117.5
 31
0.0
  0
LINE
  5
1B492
  8
DANMEN
  6
CONTINUOUS
 10
284.8
 20
117.5
 30
0.0
 11
284.8
 21
116.5
 31
0.0
  0
LINE
  5
1B493
  8
DANMEN
  6
CONTINUOUS
 10
286.3
 20
116.55
 30
0.0
 11
286.3
 21
115.8
 31
0.0
  0
ARC
  5
1B494
  8
DANMEN
  6
CONTINUOUS
 10
286.8
 20
116.55
 30
0.0
 40
0.5
 50
90.0
 51
180.0
  0
ARC
  5
1B495
  8
DANMEN
  6
CONTINUOUS
 10
284.0
 20
117.292199
 30
0.0
 40
0.5
 50
299.396173
 51
0.0
  0
LINE
  5
1B497
  8
DANMEN
  6
CONTINUOUS
 10
284.5
 20
123.0
 30
0.0
 11
284.5
 21
123.8
 31
0.0
  0
LINE
  5
1B49A
  8
DANMEN
  6
CONTINUOUS
 10
284.5
 20
123.0
 30
0.0
 11
288.0
 21
123.0
 31
0.0
  0
LINE
  5
1B49C
  8
DANMEN
  6
CONTINUOUS
 10
284.5
 20
124.0
 30
0.0
 11
287.999997
 21
124.0
 31
0.0
  0
ARC
  5
1B49E
  8
DANMEN
  6
CONTINUOUS
 10
288.5
 20
122.5
 30
0.0
 40
1.0
 50
270.000018
 51
0.0
  0
LINE
  5
1B4A1
  8
DANMEN
  6
CONTINUOUS
 10
299.499997
 20
117.05
 30
0.0
 11
299.499997
 21
116.5
 31
0.0
  0
ARC
  5
1B4A3
  8
DANMEN
  6
CONTINUOUS
 10
300.0
 20
122.5
 30
0.0
 40
0.5
 50
90.0
 51
180.0
  0
ARC
  5
1B4A5
  8
DANMEN
  6
CONTINUOUS
 10
300.0
 20
122.0
 30
0.0
 40
0.5
 50
180.0
 51
270.0
  0
LINE
  5
1B4A6
  8
DANMEN
  6
CONTINUOUS
 10
299.5
 20
122.5
 30
0.0
 11
299.5
 21
122.0
 31
0.0
  0
LINE
  5
1B4A7
  8
DANMEN
  6
CONTINUOUS
 10
304.5
 20
83.199997
 30
0.0
 11
322.25
 21
83.199997
 31
0.0
  0
LINE
  5
1B4A8
  8
DANMEN
  6
CONTINUOUS
 10
304.5
 20
81.0
 30
0.0
 11
322.25
 21
81.0
 31
0.0
  0
LINE
  5
1B4A9
  8
DANMEN
  6
CONTINUOUS
 10
304.5
 20
87.999997
 30
0.0
 11
322.25
 21
87.999997
 31
0.0
  0
LINE
  5
1B4AA
  8
DANMEN
  6
CONTINUOUS
 10
305.499993
 20
96.35
 30
0.0
 11
304.499994
 21
88.000002
 31
0.0
  0
LINE
  5
1B4AB
  8
DANMEN
  6
CONTINUOUS
 10
305.029707
 20
92.423107
 30
0.0
 11
301.499999
 21
88.893398
 31
0.0
  0
LINE
  5
1B4AC
  8
DANMEN
  6
CONTINUOUS
 10
304.741093
 20
90.013172
 30
0.0
 11
303.227921
 21
88.5
 31
0.0
  0
LINE
  5
1B4AD
  8
DANMEN
  6
CONTINUOUS
 10
304.689522
 20
89.582555
 30
0.0
 11
301.499998
 21
92.772078
 31
0.0
  0
LINE
  5
1B4AE
  8
DANMEN
  6
CONTINUOUS
 10
303.650756
 20
88.5
 30
0.0
 11
301.499998
 21
90.650758
 31
0.0
  0
LINE
  5
1B4AF
  8
DANMEN
  6
CONTINUOUS
 10
303.3
 20
82.949997
 30
0.0
 11
303.3
 21
84.949997
 31
0.0
  0
ARC
  5
1B4B0
  8
DANMEN
  6
CONTINUOUS
 10
304.0
 20
88.0
 30
0.0
 40
0.5
 50
0.000019
 51
89.999982
  0
LINE
  5
1B4B1
  8
DANMEN
  6
CONTINUOUS
 10
302.550003
 20
84.949997
 30
0.0
 11
302.550003
 21
87.0
 31
0.0
  0
LINE
  5
1B4B2
  8
DANMEN
  6
CONTINUOUS
 10
303.3
 20
84.949997
 30
0.0
 11
302.550003
 21
84.949997
 31
0.0
  0
LINE
  5
1B4B3
  8
DANMEN
  6
CONTINUOUS
 10
301.529436
 20
88.5
 30
0.0
 11
301.499999
 21
88.529437
 31
0.0
  0
LINE
  5
1B4B4
  8
DANMEN
  6
CONTINUOUS
 10
302.592636
 20
96.349997
 30
0.0
 11
301.499998
 21
95.257359
 31
0.0
  0
LINE
  5
1B4B5
  8
DANMEN
  6
CONTINUOUS
 10
304.713957
 20
96.349997
 30
0.0
 11
301.499998
 21
93.136039
 31
0.0
  0
LINE
  5
1B4B6
  8
DANMEN
  6
CONTINUOUS
 10
305.370159
 20
95.265879
 30
0.0
 11
304.28604
 21
96.349997
 31
0.0
  0
LINE
  5
1B4B7
  8
DANMEN
  6
CONTINUOUS
 10
305.14328
 20
93.371438
 30
0.0
 11
302.16472
 21
96.349997
 31
0.0
  0
LINE
  5
1B4B8
  8
DANMEN
  6
CONTINUOUS
 10
305.318322
 20
94.833042
 30
0.0
 11
301.499998
 21
91.014719
 31
0.0
  0
LINE
  5
1B4B9
  8
DANMEN
  6
CONTINUOUS
 10
304.916401
 20
91.476996
 30
0.0
 11
301.499998
 21
94.893399
 31
0.0
  0
LINE
  5
1B4BA
  8
DANMEN
  6
CONTINUOUS
 10
304.5
 20
124.0
 30
0.0
 11
322.25
 21
124.0
 31
0.0
  0
LINE
  5
1B4BB
  8
DANMEN
  6
CONTINUOUS
 10
304.5
 20
119.0
 30
0.0
 11
322.25
 21
119.0
 31
0.0
  0
LINE
  5
1B4BC
  8
DANMEN
  6
CONTINUOUS
 10
304.5
 20
116.999966
 30
0.0
 11
322.25
 21
116.999966
 31
0.0
  0
LINE
  5
1B4BD
  8
DANMEN
  6
CONTINUOUS
 10
305.500001
 20
108.65
 30
0.0
 11
304.500001
 21
117.000005
 31
0.0
  0
LINE
  5
1B4BE
  8
DANMEN
  6
CONTINUOUS
 10
304.689522
 20
115.417445
 30
0.0
 11
301.499999
 21
112.227922
 31
0.0
  0
LINE
  5
1B4BF
  8
DANMEN
  6
CONTINUOUS
 10
304.916401
 20
113.523004
 30
0.0
 11
301.499999
 21
110.106602
 31
0.0
  0
LINE
  5
1B4C0
  8
DANMEN
  6
CONTINUOUS
 10
305.029707
 20
112.576893
 30
0.0
 11
301.499999
 21
116.106602
 31
0.0
  0
LINE
  5
1B4C1
  8
DANMEN
  6
CONTINUOUS
 10
305.318321
 20
110.166959
 30
0.0
 11
301.499999
 21
113.985281
 31
0.0
  0
LINE
  5
1B4C3
  8
DANMEN
  6
CONTINUOUS
 10
305.143279
 20
111.628562
 30
0.0
 11
302.164713
 21
108.649996
 31
0.0
  0
LINE
  5
1B4C4
  8
DANMEN
  6
CONTINUOUS
 10
305.370158
 20
109.734121
 30
0.0
 11
304.286033
 21
108.649996
 31
0.0
  0
LINE
  5
1B4C5
  8
DANMEN
  6
CONTINUOUS
 10
304.713964
 20
108.649996
 30
0.0
 11
301.499999
 21
111.863961
 31
0.0
  0
LINE
  5
1B4C7
  8
DANMEN
  6
CONTINUOUS
 10
302.592643
 20
108.649996
 30
0.0
 11
301.499999
 21
109.742641
 31
0.0
  0
ARC
  5
1B4C8
  8
DANMEN
  6
CONTINUOUS
 10
303.999997
 20
118.5
 30
0.0
 40
0.5
 50
0.000091
 51
90.000128
  0
ARC
  5
1B4C9
  8
DANMEN
  6
CONTINUOUS
 10
303.999997
 20
117.0
 30
0.0
 40
0.5
 50
270.0
 51
0.0
  0
LINE
  5
1B4CA
  8
DANMEN
  6
CONTINUOUS
 10
304.741093
 20
114.986828
 30
0.0
 11
303.227921
 21
116.5
 31
0.0
  0
LINE
  5
1B4CB
  8
DANMEN
  6
CONTINUOUS
 10
304.499997
 20
118.5
 30
0.0
 11
304.499997
 21
117.0
 31
0.0
  0
LINE
  5
1B4CD
  8
DANMEN
  6
CONTINUOUS
 10
301.529436
 20
116.5
 30
0.0
 11
301.499999
 21
116.470563
 31
0.0
  0
LINE
  5
1B4CE
  8
DANMEN
  6
CONTINUOUS
 10
303.650756
 20
116.5
 30
0.0
 11
301.499999
 21
114.349242
 31
0.0
  0
ARC
  5
1B4CF
  8
DANMEN
  6
CONTINUOUS
 10
303.5
 20
122.5
 30
0.0
 40
1.0
 50
270.0
 51
0.0
  0
LINE
  5
1B4D3
  8
SUNPO
  6
CONTINUOUS
 10
21.0
 20
24.0
 30
0.0
 11
21.0
 21
33.0
 31
0.0
  0
LINE
  5
1B4D4
  8
SUNPO
  6
CONTINUOUS
 10
52.5
 20
24.0
 30
0.0
 11
21.0
 21
24.0
 31
0.0
  0
ARC
  5
1B4D5
  8
SUNPO
  6
BYBLOCK
 10
21.0
 20
24.0
 30
0.0
 40
0.145
 50
270.0
 51
90.0
  0
ARC
  5
1B4D6
  8
SUNPO
  6
BYBLOCK
 10
21.0
 20
24.0
 30
0.0
 40
0.145
 50
90.0
 51
270.0
  0
TEXT
  5
1B4D7
  8
SUNPO
  6
CONTINUOUS
 10
20.0
 20
27.666667
 30
0.0
 40
2.5
  1
9
 50
90.0
  7
MX_NOTE_STANDARD
  0
LINE
  5
1B4D8
  8
SUNPO
  6
CONTINUOUS
 10
54.0
 20
16.0
 30
0.0
 11
42.0
 21
16.0
 31
0.0
  0
TEXT
  5
1B4D9
  8
SUNPO
  6
CONTINUOUS
 10
46.333333
 20
17.0
 30
0.0
 40
2.5
  1
12
  7
MX_NOTE_STANDARD
  0
LINE
  5
1B4DA
  8
SUNPO
  6
CONTINUOUS
 10
42.0
 20
31.5
 30
0.0
 11
42.0
 21
16.0
 31
0.0
  0
ARC
  5
1B4DB
  8
SUNPO
  6
BYBLOCK
 10
42.0
 20
16.0
 30
0.0
 40
0.145
 50
180.0
 51
0.0
  0
ARC
  5
1B4DC
  8
SUNPO
  6
BYBLOCK
 10
42.0
 20
16.0
 30
0.0
 40
0.145
 50
0.0
 51
180.0
  0
LINE
  5
1B4DD
  8
SUNPO
  6
CONTINUOUS
 10
54.0
 20
22.5
 30
0.0
 11
54.0
 21
16.0
 31
0.0
  0
ARC
  5
1B4DE
  8
SUNPO
  6
BYBLOCK
 10
54.0
 20
16.0
 30
0.0
 40
0.145
 50
0.0
 51
180.0
  0
ARC
  5
1B4DF
  8
SUNPO
  6
BYBLOCK
 10
54.0
 20
16.0
 30
0.0
 40
0.145
 50
180.0
 51
0.0
  0
LINE
  5
1B4E0
  8
DANMEN
  6
CONTINUOUS
 10
400.350006
 20
89.649994
 30
0.0
 11
393.649994
 21
89.649994
 31
0.0
  0
LINE
  5
1B4E1
  8
DANMEN
  6
CONTINUOUS
 10
401.5
 20
88.0
 30
0.0
 11
377.5
 21
88.0
 31
0.0
  0
LINE
  5
1B4E2
  8
DANMEN
  6
CONTINUOUS
 10
375.0
 20
82.649994
 30
0.0
 11
348.2
 21
82.649994
 31
0.0
  0
LINE
  5
1B4E3
  8
DANMEN
  6
CONTINUOUS
 10
376.0
 20
80.999994
 30
0.0
 11
347.5
 21
80.999994
 31
0.0
  0
LINE
  5
1B4E4
  8
DANMEN
  6
CONTINUOUS
 10
365.7
 20
115.3
 30
0.0
 11
369.598917
 21
115.3
 31
0.0
  0
LINE
  5
1B4E5
  8
DANMEN
  6
CONTINUOUS
 10
347.500004
 20
119.0
 30
0.0
 11
367.0
 21
119.0
 31
0.0
  0
LINE
  5
1B4E6
  8
DANMEN
  6
CONTINUOUS
 10
362.0
 20
108.65
 30
0.0
 11
362.0
 21
96.35
 31
0.0
  0
LINE
  5
1B4E7
  8
DANMEN
  6
CONTINUOUS
 10
348.65
 20
86.999997
 30
0.0
 11
357.5
 21
86.999997
 31
0.0
  0
LINE
  5
1B4E8
  8
DANMEN
  6
CONTINUOUS
 10
347.500001
 20
88.499997
 30
0.0
 11
352.0
 21
88.499997
 31
0.0
  0
LINE
  5
1B4E9
  8
DANMEN
  6
CONTINUOUS
 10
347.849242
 20
88.5
 30
0.0
 11
350.0
 21
90.650758
 31
0.0
  0
LINE
  5
1B4EA
  8
DANMEN
  6
CONTINUOUS
 10
346.810477
 20
89.582555
 30
0.0
 11
350.0
 21
92.772078
 31
0.0
  0
LINE
  5
1B4EB
  8
DANMEN
  6
CONTINUOUS
 10
346.583598
 20
91.476996
 30
0.0
 11
350.0
 21
94.893398
 31
0.0
  0
LINE
  5
1B4EC
  8
DANMEN
  6
CONTINUOUS
 10
346.470292
 20
92.423107
 30
0.0
 11
350.0
 21
88.893398
 31
0.0
  0
LINE
  5
1B4ED
  8
DANMEN
  6
CONTINUOUS
 10
346.181677
 20
94.833041
 30
0.0
 11
350.0
 21
91.014719
 31
0.0
  0
LINE
  5
1B4EE
  8
DANMEN
  6
CONTINUOUS
 10
346.786035
 20
96.350004
 30
0.0
 11
350.0
 21
93.136039
 31
0.0
  0
LINE
  5
1B4EF
  8
DANMEN
  6
CONTINUOUS
 10
348.907355
 20
96.350004
 30
0.0
 11
350.0
 21
95.257359
 31
0.0
  0
LINE
  5
1B4F0
  8
DANMEN
  6
CONTINUOUS
 10
345.999997
 20
96.35
 30
0.0
 11
346.999997
 21
87.999995
 31
0.0
  0
LINE
  5
1B4F1
  8
DANMEN
  6
CONTINUOUS
 10
346.758906
 20
90.013172
 30
0.0
 11
348.272078
 21
88.5
 31
0.0
  0
LINE
  5
1B4F2
  8
DANMEN
  6
CONTINUOUS
 10
348.2
 20
82.649994
 30
0.0
 11
348.2
 21
84.949991
 31
0.0
  0
LINE
  5
1B4F3
  8
DANMEN
  6
CONTINUOUS
 10
347.0
 20
81.499994
 30
0.0
 11
347.0
 21
87.999997
 31
0.0
  0
ARC
  5
1B4F6
  8
DANMEN
  6
CONTINUOUS
 10
347.5
 20
81.499994
 30
0.0
 40
0.5
 50
179.999999
 51
269.999981
  0
LINE
  5
1B4FA
  8
DANMEN
  6
CONTINUOUS
 10
348.65
 20
84.949991
 30
0.0
 11
348.65
 21
86.999997
 31
0.0
  0
LINE
  5
1B4FB
  8
DANMEN
  6
CONTINUOUS
 10
348.65
 20
84.949991
 30
0.0
 11
348.2
 21
84.949991
 31
0.0
  0
ARC
  5
1B4FC
  8
DANMEN
  6
CONTINUOUS
 10
347.5
 20
87.999997
 30
0.0
 40
0.5
 50
90.0
 51
179.999982
  0
LINE
  5
1B4FD
  8
DANMEN
  6
CONTINUOUS
 10
346.356719
 20
93.371438
 30
0.0
 11
349.335286
 21
96.350004
 31
0.0
  0
LINE
  5
1B4FE
  8
DANMEN
  6
CONTINUOUS
 10
346.12984
 20
95.265879
 30
0.0
 11
347.213965
 21
96.350004
 31
0.0
  0
ARC
  5
1B500
  8
DANMEN
  6
CONTINUOUS
 10
357.5
 20
87.999997
 30
0.0
 40
0.5
 50
0.0
 51
90.0
  0
ARC
  5
1B501
  8
DANMEN
  6
CONTINUOUS
 10
357.5
 20
87.499997
 30
0.0
 40
0.5
 50
270.0
 51
0.0
  0
LINE
  5
1B502
  8
DANMEN
  6
CONTINUOUS
 10
352.0
 20
87.999997
 30
0.0
 11
357.0
 21
87.999997
 31
0.0
  0
LINE
  5
1B503
  8
DANMEN
  6
CONTINUOUS
 10
352.0
 20
87.999997
 30
0.0
 11
352.0
 21
88.499997
 31
0.0
  0
LINE
  5
1B506
  8
DANMEN
  6
CONTINUOUS
 10
349.970563
 20
88.5
 30
0.0
 11
350.0
 21
88.529437
 31
0.0
  0
LINE
  5
1B507
  8
DANMEN
  6
CONTINUOUS
 10
357.0
 20
87.999997
 30
0.0
 11
357.0
 21
88.499997
 31
0.0
  0
LINE
  5
1B509
  8
DANMEN
  6
CONTINUOUS
 10
357.0
 20
88.499997
 30
0.0
 11
357.5
 21
88.499997
 31
0.0
  0
LINE
  5
1B50C
  8
DANMEN
  6
CONTINUOUS
 10
358.0
 20
87.499997
 30
0.0
 11
358.0
 21
87.999997
 31
0.0
  0
LINE
  5
1B50E
  8
DANMEN
  6
CONTINUOUS
 10
347.500004
 20
116.5
 30
0.0
 11
352.000003
 21
116.5
 31
0.0
  0
LINE
  5
1B50F
  8
DANMEN
  6
CONTINUOUS
 10
348.907362
 20
108.650003
 30
0.0
 11
350.0
 21
109.742641
 31
0.0
  0
LINE
  5
1B510
  8
DANMEN
  6
CONTINUOUS
 10
346.786042
 20
108.650003
 30
0.0
 11
350.0
 21
111.863961
 31
0.0
  0
LINE
  5
1B511
  8
DANMEN
  6
CONTINUOUS
 10
346.181677
 20
110.166958
 30
0.0
 11
350.0
 21
113.985282
 31
0.0
  0
LINE
  5
1B512
  8
DANMEN
  6
CONTINUOUS
 10
346.470291
 20
112.576893
 30
0.0
 11
350.0
 21
116.106602
 31
0.0
  0
LINE
  5
1B513
  8
DANMEN
  6
CONTINUOUS
 10
346.583598
 20
113.523004
 30
0.0
 11
350.0
 21
110.106601
 31
0.0
  0
LINE
  5
1B514
  8
DANMEN
  6
CONTINUOUS
 10
346.810477
 20
115.417445
 30
0.0
 11
350.0
 21
112.227922
 31
0.0
  0
LINE
  5
1B515
  8
DANMEN
  6
CONTINUOUS
 10
347.849242
 20
116.5
 30
0.0
 11
350.0
 21
114.349242
 31
0.0
  0
LINE
  5
1B516
  8
DANMEN
  6
CONTINUOUS
 10
346.000005
 20
108.65
 30
0.0
 11
347.000005
 21
116.999998
 31
0.0
  0
LINE
  5
1B518
  8
DANMEN
  6
CONTINUOUS
 10
346.12984
 20
109.734121
 30
0.0
 11
347.213958
 21
108.650003
 31
0.0
  0
LINE
  5
1B519
  8
DANMEN
  6
CONTINUOUS
 10
346.356719
 20
111.628562
 30
0.0
 11
349.335278
 21
108.650003
 31
0.0
  0
ARC
  5
1B51A
  8
DANMEN
  6
CONTINUOUS
 10
347.500003
 20
118.5
 30
0.0
 40
0.5
 50
89.999872
 51
179.999909
  0
ARC
  5
1B51B
  8
DANMEN
  6
CONTINUOUS
 10
347.500003
 20
117.0
 30
0.0
 40
0.5
 50
180.0
 51
270.0
  0
LINE
  5
1B51C
  8
DANMEN
  6
CONTINUOUS
 10
347.000003
 20
118.5
 30
0.0
 11
347.000003
 21
117.0
 31
0.0
  0
LINE
  5
1B51E
  8
DANMEN
  6
CONTINUOUS
 10
346.758906
 20
114.986828
 30
0.0
 11
348.272078
 21
116.5
 31
0.0
  0
LINE
  5
1B520
  8
DANMEN
  6
CONTINUOUS
 10
352.000003
 20
117.05
 30
0.0
 11
364.7
 21
117.05
 31
0.0
  0
LINE
  5
1B521
  8
DANMEN
  6
CONTINUOUS
 10
352.000003
 20
117.05
 30
0.0
 11
352.000003
 21
116.5
 31
0.0
  0
LINE
  5
1B522
  8
DANMEN
  6
CONTINUOUS
 10
349.970563
 20
116.5
 30
0.0
 11
350.0
 21
116.470563
 31
0.0
  0
ARC
  5
1B523
  8
DANMEN
  6
CONTINUOUS
 10
365.7
 20
115.8
 30
0.0
 40
0.5
 50
180.0
 51
270.0
  0
LINE
  5
1B524
  8
DANMEN
  6
CONTINUOUS
 10
365.2
 20
116.55
 30
0.0
 11
365.2
 21
115.8
 31
0.0
  0
ARC
  5
1B525
  8
DANMEN
  6
CONTINUOUS
 10
364.7
 20
116.55
 30
0.0
 40
0.5
 50
0.0
 51
90.0
  0
LINE
  5
1B526
  8
DANMEN
  6
CONTINUOUS
 10
375.0
 20
82.649994
 30
0.0
 11
375.0
 21
112.299994
 31
0.0
  0
LINE
  5
1B527
  8
DANMEN
  6
CONTINUOUS
 10
376.65
 20
91.45
 30
0.0
 11
376.65
 21
102.844999
 31
0.0
  0
LINE
  5
1B528
  8
DANMEN
  6
CONTINUOUS
 10
391.299989
 20
102.844999
 30
0.0
 11
391.299989
 21
100.797498
 31
0.0
  0
LINE
  5
1B529
  8
DANMEN
  6
CONTINUOUS
 10
388.799989
 20
102.844999
 30
0.0
 11
388.799989
 21
98.149997
 31
0.0
  0
LINE
  5
1B52A
  8
DANMEN
  6
CONTINUOUS
 10
387.849979
 20
91.45
 30
0.0
 11
376.65
 21
91.45
 31
0.0
  0
LINE
  5
1B52B
  8
DANMEN
  6
CONTINUOUS
 10
391.799989
 20
89.8
 30
0.0
 11
377.0
 21
89.8
 31
0.0
  0
LINE
  5
1B52C
  8
DANMEN
  6
CONTINUOUS
 10
390.0
 20
89.649994
 30
0.0
 11
377.5
 21
89.649994
 31
0.0
  0
LINE
  5
1B52D
  8
DANMEN
  6
CONTINUOUS
 10
377.0
 20
81.999994
 30
0.0
 11
377.0
 21
89.8
 31
0.0
  0
ARC
  5
1B52E
  8
DANMEN
  6
CONTINUOUS
 10
377.5
 20
89.149994
 30
0.0
 40
0.5
 50
90.0
 51
180.0
  0
ARC
  5
1B532
  8
DANMEN
  6
CONTINUOUS
 10
376.0
 20
81.999994
 30
0.0
 40
1.0
 50
270.0
 51
0.0
  0
ARC
  5
1B533
  8
DANMEN
  6
CONTINUOUS
 10
377.5
 20
88.5
 30
0.0
 40
0.5
 50
179.999981
 51
269.999963
  0
LINE
  5
1B534
  8
DANMEN
  6
CONTINUOUS
 10
377.0
 20
88.5
 30
0.0
 11
377.0
 21
89.149994
 31
0.0
  0
LINE
  5
1B537
  8
DANMEN
  6
CONTINUOUS
 10
392.0
 20
89.199997
 30
0.0
 11
390.0
 21
89.199997
 31
0.0
  0
LINE
  5
1B538
  8
DANMEN
  6
CONTINUOUS
 10
390.0
 20
89.199997
 30
0.0
 11
390.0
 21
89.649994
 31
0.0
  0
LINE
  5
1B539
  8
DANMEN
  6
CONTINUOUS
 10
389.499989
 20
91.382673
 30
0.0
 11
392.0
 21
93.882684
 31
0.0
  0
LINE
  5
1B53A
  8
DANMEN
  6
CONTINUOUS
 10
389.499989
 20
92.796886
 30
0.0
 11
392.0
 21
95.296898
 31
0.0
  0
LINE
  5
1B53B
  8
DANMEN
  6
CONTINUOUS
 10
389.499989
 20
94.2111
 30
0.0
 11
391.788886
 21
96.499998
 31
0.0
  0
LINE
  5
1B53C
  8
DANMEN
  6
CONTINUOUS
 10
389.499989
 20
96.499998
 30
0.0
 11
391.299989
 21
96.499998
 31
0.0
  0
LINE
  5
1B53D
  8
DANMEN
  6
CONTINUOUS
 10
389.499989
 20
91.299998
 30
0.0
 11
391.299989
 21
91.299998
 31
0.0
  0
LINE
  5
1B53E
  8
DANMEN
  6
CONTINUOUS
 10
389.499989
 20
96.499998
 30
0.0
 11
389.499989
 21
91.299998
 31
0.0
  0
LINE
  5
1B53F
  8
DANMEN
  6
CONTINUOUS
 10
387.849979
 20
97.649997
 30
0.0
 11
387.849979
 21
91.45
 31
0.0
  0
LINE
  5
1B542
  8
DANMEN
  6
CONTINUOUS
 10
389.499989
 20
95.625314
 30
0.0
 11
390.374673
 21
96.499998
 31
0.0
  0
ARC
  5
1B546
  8
DANMEN
  6
CONTINUOUS
 10
388.349979
 20
97.649997
 30
0.0
 40
0.5
 50
89.999982
 51
179.999964
  0
LINE
  5
1B547
  8
DANMEN
  6
CONTINUOUS
 10
388.349979
 20
98.149997
 30
0.0
 11
388.799989
 21
98.149997
 31
0.0
  0
LINE
  5
1B548
  8
DANMEN
  6
CONTINUOUS
 10
391.954378
 20
91.008636
 30
0.0
 11
392.0
 21
91.054257
 31
0.0
  0
LINE
  5
1B549
  8
DANMEN
  6
CONTINUOUS
 10
390.831527
 20
91.299998
 30
0.0
 11
392.0
 21
92.468471
 31
0.0
  0
ARC
  5
1B54C
  8
DANMEN
  6
CONTINUOUS
 10
391.299989
 20
90.799998
 30
0.0
 40
0.5
 50
0.0
 51
89.999982
  0
LINE
  5
1B54D
  8
DANMEN
  6
CONTINUOUS
 10
391.799989
 20
90.799998
 30
0.0
 11
391.799989
 21
89.8
 31
0.0
  0
LINE
  5
1B553
  8
DANMEN
  6
CONTINUOUS
 10
391.299989
 20
100.197498
 30
0.0
 11
391.299989
 21
98.149997
 31
0.0
  0
LINE
  5
1B554
  8
DANMEN
  6
CONTINUOUS
 10
390.999989
 20
100.197498
 30
0.0
 11
391.299989
 21
100.197498
 31
0.0
  0
LINE
  5
1B555
  8
DANMEN
  6
CONTINUOUS
 10
390.999989
 20
100.797498
 30
0.0
 11
391.299989
 21
100.797498
 31
0.0
  0
LINE
  5
1B556
  8
DANMEN
  6
CONTINUOUS
 10
390.999989
 20
100.797498
 30
0.0
 11
390.999989
 21
100.197498
 31
0.0
  0
ARC
  5
1B558
  8
DANMEN
  6
CONTINUOUS
 10
391.299989
 20
97.649997
 30
0.0
 40
0.5
 50
0.0
 51
90.0
  0
ARC
  5
1B55A
  8
DANMEN
  6
CONTINUOUS
 10
391.299989
 20
96.999998
 30
0.0
 40
0.5
 50
270.0
 51
0.0
  0
LINE
  5
1B55C
  8
DANMEN
  6
CONTINUOUS
 10
391.799989
 20
97.649997
 30
0.0
 11
391.799989
 21
96.999998
 31
0.0
  0
LINE
  5
1B55D
  8
DANMEN
  6
CENTER
 10
373.960146
 20
108.4
 30
0.0
 11
395.63855
 21
108.4
 31
0.0
  0
LINE
  5
1B55E
  8
DANMEN
  6
CONTINUOUS
 10
378.274976
 20
106.400002
 30
0.0
 11
394.999997
 21
106.400004
 31
0.0
  0
LINE
  5
1B55F
  8
DANMEN
  6
CONTINUOUS
 10
378.274975
 20
110.399999
 30
0.0
 11
394.999997
 21
110.4
 31
0.0
  0
LINE
  5
1B560
  8
DANMEN
  6
CONTINUOUS
 10
378.274976
 20
106.779003
 30
0.0
 11
394.999996
 21
106.779005
 31
0.0
  0
LINE
  5
1B561
  8
DANMEN
  6
CONTINUOUS
 10
378.274975
 20
110.020998
 30
0.0
 11
394.999996
 21
110.021
 31
0.0
  0
LINE
  5
1B562
  8
DANMEN
  6
CONTINUOUS
 10
376.65
 20
117.35
 30
0.0
 11
390.499989
 21
117.35
 31
0.0
  0
LINE
  5
1B563
  8
DANMEN
  6
CONTINUOUS
 10
367.0
 20
119.0
 30
0.0
 11
391.999989
 21
119.0
 31
0.0
  0
LINE
  5
1B564
  8
DANMEN
  6
CONTINUOUS
 10
376.65
 20
104.494998
 30
0.0
 11
391.299989
 21
104.494998
 31
0.0
  0
LINE
  5
1B565
  8
DANMEN
  6
CONTINUOUS
 10
376.65
 20
102.844999
 30
0.0
 11
388.799989
 21
102.844999
 31
0.0
  0
ARC
  5
1B566
  8
DANMEN
  6
CONTINUOUS
 10
369.5
 20
112.690092
 30
0.0
 40
0.5
 50
101.309932
 51
180.0
  0
LINE
  5
1B567
  8
DANMEN
  6
CONTINUOUS
 10
376.65
 20
104.494998
 30
0.0
 11
376.65
 21
117.35
 31
0.0
  0
LINE
  5
1B568
  8
DANMEN
  6
CONTINUOUS
 10
369.0
 20
112.299994
 30
0.0
 11
375.0
 21
112.299994
 31
0.0
  0
LINE
  5
1B56A
  8
DANMEN
  6
CONTINUOUS
 10
369.0
 20
112.690092
 30
0.0
 11
369.0
 21
112.299994
 31
0.0
  0
LINE
  5
1B56C
  8
DANMEN
  6
CONTINUOUS
 10
374.999999
 20
111.9
 30
0.0
 11
375.000001
 21
104.9
 31
0.0
  0
LINE
  5
1B56D
  8
DANMEN
  6
CONTINUOUS
 10
375.299999
 20
111.9
 30
0.0
 11
375.300001
 21
104.9
 31
0.0
  0
LINE
  5
1B56E
  8
DANMEN
  6
CONTINUOUS
 10
377.027513
 20
110.172498
 30
0.0
 11
377.027514
 21
106.627503
 31
0.0
  0
LINE
  5
1B56F
  8
DANMEN
  6
DASHED
 10
375.0
 20
106.649295
 30
0.0
 11
376.214876
 21
107.25501
 31
0.0
  0
LINE
  5
1B570
  8
DANMEN
  6
CONTINUOUS
 10
378.274975
 20
110.399999
 30
0.0
 11
378.274976
 21
106.400003
 31
0.0
  0
LINE
  5
1B571
  8
DANMEN
  6
CONTINUOUS
 10
375.000001
 20
104.9
 30
0.0
 11
375.300001
 21
104.9
 31
0.0
  0
LINE
  5
1B572
  8
DANMEN
  6
CONTINUOUS
 10
378.274966
 20
106.400012
 30
0.0
 11
377.027505
 21
106.627513
 31
0.0
  0
LINE
  5
1B573
  8
DANMEN
  6
CONTINUOUS
 10
378.274966
 20
106.77901
 30
0.0
 11
377.027505
 21
106.62751
 31
0.0
  0
LINE
  5
1B574
  8
DANMEN
  6
CONTINUOUS
 10
375.300001
 20
104.9
 30
0.0
 11
377.027508
 21
106.627508
 31
0.0
  0
LINE
  5
1B579
  8
DANMEN
  6
CONTINUOUS
 10
374.999999
 20
111.9
 30
0.0
 11
375.299999
 21
111.9
 31
0.0
  0
LINE
  5
1B57A
  8
DANMEN
  6
CONTINUOUS
 10
378.274967
 20
110.020991
 30
0.0
 11
377.027505
 21
110.172489
 31
0.0
  0
LINE
  5
1B57B
  8
DANMEN
  6
CONTINUOUS
 10
378.274967
 20
110.399986
 30
0.0
 11
377.027504
 21
110.172484
 31
0.0
  0
LINE
  5
1B57C
  8
DANMEN
  6
CONTINUOUS
 10
375.299998
 20
111.9
 30
0.0
 11
377.027508
 21
110.172491
 31
0.0
  0
ARC
  5
1B57D
  8
DANMEN
  6
DASHED
 10
376.257402
 20
108.4
 30
0.0
 40
0.5
 50
332.000013
 51
28.000078
  0
LINE
  5
1B57E
  8
DANMEN
  6
DASHED
 10
376.214876
 20
107.255011
 30
0.0
 11
376.698867
 21
108.165266
 31
0.0
  0
LINE
  5
1B57F
  8
DANMEN
  6
DASHED
 10
376.214875
 20
109.544989
 30
0.0
 11
376.698866
 21
108.634736
 31
0.0
  0
LINE
  5
1B580
  8
DANMEN
  6
DASHED
 10
375.0
 20
110.150707
 30
0.0
 11
376.214875
 21
109.544993
 31
0.0
  0
LINE
  5
1B583
  8
DANMEN
  6
CONTINUOUS
 10
371.0
 20
113.499994
 30
0.0
 11
375.0
 21
113.499994
 31
0.0
  0
LINE
  5
1B584
  8
DANMEN
  6
CONTINUOUS
 10
369.0
 20
117.35
 30
0.0
 11
375.0
 21
117.35
 31
0.0
  0
ARC
  5
1B585
  8
DANMEN
  6
CONTINUOUS
 10
374.000895
 20
114.900136
 30
0.0
 40
0.5
 50
0.0
 51
90.0
  0
LINE
  5
1B586
  8
DANMEN
  6
CONTINUOUS
 10
374.411954
 20
114.615608
 30
0.0
 11
373.500895
 21
113.3
 31
0.0
  0
LINE
  5
1B587
  8
DANMEN
  6
CONTINUOUS
 10
367.0
 20
119.0
 30
0.0
 11
367.0
 21
117.292199
 31
0.0
  0
LINE
  5
1B588
  8
DANMEN
  6
CONTINUOUS
 10
367.0
 20
119.0
 30
0.0
 11
367.0
 21
117.5
 31
0.0
  0
LINE
  5
1B589
  8
DANMEN
  6
CONTINUOUS
 10
371.0
 20
113.499994
 30
0.0
 11
369.401942
 21
113.180382
 31
0.0
  0
LINE
  5
1B58A
  8
DANMEN
  6
CONTINUOUS
 10
369.586879
 20
116.801883
 30
0.0
 11
372.563906
 21
114.598292
 31
0.0
  0
LINE
  5
1B58B
  8
DANMEN
  6
CONTINUOUS
 10
369.598917
 20
115.3
 30
0.0
 11
372.300895
 21
113.3
 31
0.0
  0
LINE
  5
1B590
  8
DANMEN
  6
CONTINUOUS
 10
368.7
 20
116.5
 30
0.0
 11
367.996245
 21
116.5
 31
0.0
  0
ARC
  5
1B591
  8
DANMEN
  6
CONTINUOUS
 10
367.5
 20
117.292199
 30
0.0
 40
0.5
 50
180.0
 51
240.603827
  0
LINE
  5
1B592
  8
DANMEN
  6
CONTINUOUS
 10
367.996245
 20
116.5
 30
0.0
 11
367.254577
 21
116.856576
 31
0.0
  0
LINE
  5
1B593
  8
DANMEN
  6
CONTINUOUS
 10
369.0
 20
116.8
 30
0.0
 11
369.0
 21
117.35
 31
0.0
  0
ARC
  5
1B594
  8
DANMEN
  6
CONTINUOUS
 10
368.7
 20
116.8
 30
0.0
 40
0.3
 50
270.0
 51
0.0
  0
ARC
  5
1B598
  8
DANMEN
  6
CONTINUOUS
 10
369.265685
 20
116.6
 30
0.0
 40
0.3
 50
90.0
 51
160.528779
  0
ARC
  5
1B59A
  8
DANMEN
  6
CONTINUOUS
 10
368.7
 20
116.8
 30
0.0
 40
0.3
 50
270.0
 51
340.528779
  0
ARC
  5
1B59B
  8
DANMEN
  6
CONTINUOUS
 10
369.289406
 20
116.4
 30
0.0
 40
0.5
 50
53.491208
 51
90.0
  0
LINE
  5
1B59C
  8
DANMEN
  6
CONTINUOUS
 10
369.265685
 20
116.9
 30
0.0
 11
369.289406
 21
116.9
 31
0.0
  0
LINE
  5
1B59D
  8
DANMEN
  6
CONTINUOUS
 10
366.7
 20
117.5
 30
0.0
 11
367.0
 21
117.5
 31
0.0
  0
LINE
  5
1B59E
  8
DANMEN
  6
CONTINUOUS
 10
366.7
 20
117.5
 30
0.0
 11
366.7
 21
116.5
 31
0.0
  0
LINE
  5
1B59F
  8
DANMEN
  6
CONTINUOUS
 10
366.7
 20
116.5
 30
0.0
 11
368.7
 21
116.5
 31
0.0
  0
ARC
  5
1B5A1
  8
DANMEN
  6
CONTINUOUS
 10
373.75753
 20
114.900136
 30
0.0
 40
0.5
 50
90.0
 51
145.297378
  0
ARC
  5
1B5A2
  8
DANMEN
  6
CONTINUOUS
 10
372.742389
 20
114.839422
 30
0.0
 40
0.3
 50
233.491208
 51
325.297378
  0
LINE
  5
1B5A3
  8
DANMEN
  6
CONTINUOUS
 10
373.346471
 20
115.184794
 30
0.0
 11
372.989025
 21
114.668627
 31
0.0
  0
LINE
  5
1B5A4
  8
DANMEN
  6
CONTINUOUS
 10
374.000895
 20
115.400136
 30
0.0
 11
373.75753
 21
115.400136
 31
0.0
  0
LINE
  5
1B5A5
  8
DANMEN
  6
CONTINUOUS
 10
372.300895
 20
113.3
 30
0.0
 11
373.500895
 21
113.3
 31
0.0
  0
LINE
  5
1B5AA
  8
DANMEN
  6
CONTINUOUS
 10
375.0
 20
113.499994
 30
0.0
 11
375.0
 21
117.35
 31
0.0
  0
ARC
  5
1B5AB
  8
DANMEN
  6
CONTINUOUS
 10
374.000895
 20
114.900266
 30
0.0
 40
0.5
 50
325.297378
 51
0.0
  0
LINE
  5
1B5AC
  8
DANMEN
  6
CONTINUOUS
 10
374.500895
 20
114.900266
 30
0.0
 11
374.500895
 21
114.900136
 31
0.0
  0
LINE
  5
1B5AE
  8
DANMEN
  6
CONTINUOUS
 10
394.999998
 20
110.400001
 30
0.0
 11
395.0
 21
106.400005
 31
0.0
  0
ARC
  5
1B5B2
  8
DANMEN
  6
CONTINUOUS
 10
391.299989
 20
103.344999
 30
0.0
 40
0.5
 50
270.0
 51
0.0
  0
ARC
  5
1B5B3
  8
DANMEN
  6
CONTINUOUS
 10
391.299989
 20
103.994998
 30
0.0
 40
0.5
 50
0.0
 51
90.0
  0
LINE
  5
1B5B4
  8
DANMEN
  6
CONTINUOUS
 10
391.799989
 20
103.994998
 30
0.0
 11
391.799989
 21
103.344999
 31
0.0
  0
LINE
  5
1B5B5
  8
DANMEN
  6
CONTINUOUS
 10
390.499989
 20
115.999994
 30
0.0
 11
391.499989
 21
115.999994
 31
0.0
  0
LINE
  5
1B5B8
  8
DANMEN
  6
CONTINUOUS
 10
390.499989
 20
115.999994
 30
0.0
 11
390.499989
 21
117.35
 31
0.0
  0
LINE
  5
1B5B9
  8
DANMEN
  6
CONTINUOUS
 10
391.999989
 20
116.499994
 30
0.0
 11
391.999989
 21
119.0
 31
0.0
  0
ARC
  5
1B5BB
  8
DANMEN
  6
CONTINUOUS
 10
391.499989
 20
116.499994
 30
0.0
 40
0.5
 50
270.0
 51
0.0
  0
LINE
  5
1B5BE
  8
SUNPO
  6
CONTINUOUS
 10
40.5
 20
60.0
 30
0.0
 11
28.0
 21
60.0
 31
0.0
  0
LINE
  5
1B5BF
  8
SUNPO
  6
CONTINUOUS
 10
40.5
 20
45.0
 30
0.0
 11
28.0
 21
45.0
 31
0.0
  0
LINE
  5
1B5C0
  8
SUNPO
  6
CONTINUOUS
 10
40.5
 20
33.0
 30
0.0
 11
21.0
 21
33.0
 31
0.0
  0
LINE
  5
1B5C1
  8
SUNPO
  6
CONTINUOUS
 10
40.5
 20
53.0
 30
0.0
 11
21.0
 21
53.0
 31
0.0
  0
LINE
  5
1B5C2
  8
SUNPO
  6
CONTINUOUS
 10
28.0
 20
53.0
 30
0.0
 11
28.0
 21
60.0
 31
0.0
  0
LINE
  5
1B5C3
  8
SUNPO
  6
CONTINUOUS
 10
28.0
 20
33.0
 30
0.0
 11
28.0
 21
45.0
 31
0.0
  0
LINE
  5
1B5C4
  8
SUNPO
  6
CONTINUOUS
 10
21.0
 20
33.0
 30
0.0
 11
21.0
 21
53.0
 31
0.0
  0
TEXT
  5
1B5C5
  8
SUNPO
  6
CONTINUOUS
 10
20.0
 20
41.125
 30
0.0
 40
2.5
  1
20
 50
90.0
  7
MX_NOTE_STANDARD
  0
ARC
  5
1B5C6
  8
SUNPO
  6
BYBLOCK
 10
21.0
 20
33.0
 30
0.0
 40
0.145
 50
270.0
 51
90.0
  0
ARC
  5
1B5C7
  8
SUNPO
  6
BYBLOCK
 10
21.0
 20
33.0
 30
0.0
 40
0.145
 50
90.0
 51
270.0
  0
ARC
  5
1B5C8
  8
SUNPO
  6
BYBLOCK
 10
21.0
 20
33.0
 30
0.0
 40
0.145
 50
90.0
 51
270.0
  0
ARC
  5
1B5C9
  8
SUNPO
  6
BYBLOCK
 10
21.0
 20
33.0
 30
0.0
 40
0.145
 50
270.0
 51
90.0
  0
TEXT
  5
1B5CA
  8
SUNPO
  6
CONTINUOUS
 10
27.0
 20
37.333333
 30
0.0
 40
2.5
  1
12
 50
90.0
  7
MX_NOTE_STANDARD
  0
ARC
  5
1B5CB
  8
SUNPO
  6
BYBLOCK
 10
28.0
 20
33.0
 30
0.0
 40
0.145
 50
270.0
 51
90.0
  0
ARC
  5
1B5CC
  8
SUNPO
  6
BYBLOCK
 10
28.0
 20
33.0
 30
0.0
 40
0.145
 50
90.0
 51
270.0
  0
ARC
  5
1B5CD
  8
SUNPO
  6
BYBLOCK
 10
21.0
 20
53.0
 30
0.0
 40
0.145
 50
90.0
 51
270.0
  0
ARC
  5
1B5CE
  8
SUNPO
  6
BYBLOCK
 10
21.0
 20
53.0
 30
0.0
 40
0.145
 50
270.0
 51
90.0
  0
ARC
  5
1B5CF
  8
SUNPO
  6
BYBLOCK
 10
21.0
 20
53.0
 30
0.0
 40
0.145
 50
270.0
 51
90.0
  0
ARC
  5
1B5D0
  8
SUNPO
  6
BYBLOCK
 10
21.0
 20
53.0
 30
0.0
 40
0.145
 50
90.0
 51
270.0
  0
LINE
  5
1B5D1
  8
SUNPO
  6
CONTINUOUS
 10
28.0
 20
45.0
 30
0.0
 11
28.0
 21
53.0
 31
0.0
  0
TEXT
  5
1B5D2
  8
SUNPO
  6
CONTINUOUS
 10
27.0
 20
48.166667
 30
0.0
 40
2.5
  1
8
 50
90.0
  7
MX_NOTE_STANDARD
  0
ARC
  5
1B5D3
  8
SUNPO
  6
BYBLOCK
 10
28.0
 20
45.0
 30
0.0
 40
0.145
 50
270.0
 51
90.0
  0
ARC
  5
1B5D4
  8
SUNPO
  6
BYBLOCK
 10
28.0
 20
45.0
 30
0.0
 40
0.145
 50
90.0
 51
270.0
  0
ARC
  5
1B5D5
  8
SUNPO
  6
BYBLOCK
 10
28.0
 20
45.0
 30
0.0
 40
0.145
 50
90.0
 51
270.0
  0
ARC
  5
1B5D6
  8
SUNPO
  6
BYBLOCK
 10
28.0
 20
45.0
 30
0.0
 40
0.145
 50
270.0
 51
90.0
  0
ARC
  5
1B5D7
  8
SUNPO
  6
BYBLOCK
 10
28.0
 20
53.0
 30
0.0
 40
0.145
 50
270.0
 51
90.0
  0
ARC
  5
1B5D8
  8
SUNPO
  6
BYBLOCK
 10
28.0
 20
53.0
 30
0.0
 40
0.145
 50
90.0
 51
270.0
  0
ARC
  5
1B5D9
  8
SUNPO
  6
BYBLOCK
 10
28.0
 20
53.0
 30
0.0
 40
0.145
 50
90.0
 51
270.0
  0
ARC
  5
1B5DA
  8
SUNPO
  6
BYBLOCK
 10
28.0
 20
53.0
 30
0.0
 40
0.145
 50
270.0
 51
90.0
  0
TEXT
  5
1B5DB
  8
SUNPO
  6
CONTINUOUS
 10
27.0
 20
55.666667
 30
0.0
 40
2.5
  1
7
 50
90.0
  7
MX_NOTE_STANDARD
  0
ARC
  5
1B5DC
  8
SUNPO
  6
BYBLOCK
 10
28.0
 20
60.0
 30
0.0
 40
0.145
 50
90.0
 51
270.0
  0
ARC
  5
1B5DD
  8
SUNPO
  6
BYBLOCK
 10
28.0
 20
60.0
 30
0.0
 40
0.145
 50
270.0
 51
90.0
  0
LINE
  5
1B5DE
  8
DANMEN
  6
CONTINUOUS
 10
402.0
 20
93.5
 30
0.0
 11
402.0
 21
88.5
 31
0.0
  0
LINE
  5
1B5DF
  8
DANMEN
  6
CONTINUOUS
 10
400.350006
 20
93.5
 30
0.0
 11
400.350006
 21
89.649994
 31
0.0
  0
ARC
  5
1B5E0
  8
DANMEN
  6
CONTINUOUS
 10
401.5
 20
88.5
 30
0.0
 40
0.5
 50
270.000018
 51
359.999981
  0
LINE
  5
1B5E1
  8
DANMEN
  6
CONTINUOUS
 10
401.5
 20
94.0
 30
0.0
 11
400.850006
 21
94.0
 31
0.0
  0
ARC
  5
1B5E2
  8
DANMEN
  6
CONTINUOUS
 10
400.850006
 20
93.5
 30
0.0
 40
0.5
 50
90.000037
 51
180.000019
  0
ARC
  5
1B5E3
  8
DANMEN
  6
CONTINUOUS
 10
401.5
 20
93.5
 30
0.0
 40
0.5
 50
359.999981
 51
90.000037
  0
TEXT
  5
1B5E4
  8
SUNPO
  6
CONTINUOUS
 10
20.0
 20
107.5
 30
0.0
 40
2.5
  1
114
 50
90.0
  7
MX_NOTE_STANDARD
  0
LINE
  5
1B5E5
  8
SUNPO
  6
CONTINUOUS
 10
187.0
 20
38.322886
 30
0.0
 11
196.111405
 21
41.639166
 31
0.0
  0
LINE
  5
1B5E6
  8
SUNPO
  6
CONTINUOUS
 10
225.0
 20
46.0
 30
0.0
 11
187.0
 21
46.0
 31
0.0
  0
LINE
  5
1B5E7
  8
SUNPO
  6
CONTINUOUS
 10
187.0
 20
30.0
 30
0.0
 11
267.0
 21
30.0
 31
0.0
  0
LINE
  5
1B5E8
  8
SUNPO
  6
CONTINUOUS
 10
259.5
 20
38.322886
 30
0.0
 11
187.0
 21
38.322886
 31
0.0
  0
LINE
  5
1B5E9
  8
SUNPO
  6
CONTINUOUS
 10
156.0
 20
33.0
 30
0.0
 11
156.0
 21
24.0
 31
0.0
  0
TEXT
  5
1B5EA
  8
SUNPO
  6
CONTINUOUS
 10
172.416667
 20
31.0
 30
0.0
 40
2.5
  1
25
  7
MX_NOTE_STANDARD
  0
LINE
  5
1B5EB
  8
SUNPO
  6
CONTINUOUS
 10
162.0
 20
86.5
 30
0.0
 11
162.0
 21
30.0
 31
0.0
  0
LINE
  5
1B5EC
  8
SUNPO
  6
CONTINUOUS
 10
187.0
 20
86.5
 30
0.0
 11
187.0
 21
30.0
 31
0.0
  0
LINE
  5
1B5ED
  8
SUNPO
  6
CONTINUOUS
 10
187.0
 20
30.0
 30
0.0
 11
192.0
 21
35.0
 31
0.0
  0
LINE
  5
1B5EE
  8
SUNPO
  6
CONTINUOUS
 10
192.0
 20
35.0
 30
0.0
 11
192.0
 21
25.0
 31
0.0
  0
LINE
  5
1B5EF
  8
SUNPO
  6
CONTINUOUS
 10
187.0
 20
30.0
 30
0.0
 11
162.0
 21
30.0
 31
0.0
  0
TEXT
  5
1B5F0
  8
SUNPO
  6
CONTINUOUS
 10
155.0
 20
27.666667
 30
0.0
 40
2.5
  1
9
 50
90.0
  7
MX_NOTE_STANDARD
  0
ARC
  5
1B5F1
  8
SUNPO
  6
BYBLOCK
 10
156.0
 20
24.0
 30
0.0
 40
0.145
 50
270.0
 51
90.0
  0
ARC
  5
1B5F2
  8
SUNPO
  6
BYBLOCK
 10
156.0
 20
24.0
 30
0.0
 40
0.145
 50
90.0
 51
270.0
  0
ARC
  5
1B5F3
  8
SUNPO
  6
BYBLOCK
 10
162.0
 20
30.0
 30
0.0
 40
0.15625
 50
180.0
 51
0.0
  0
ARC
  5
1B5F4
  8
SUNPO
  6
BYBLOCK
 10
162.0
 20
30.0
 30
0.0
 40
0.15625
 50
0.0
 51
180.0
  0
LINE
  5
1B5F5
  8
SUNPO
  6
CONTINUOUS
 10
192.0
 20
25.0
 30
0.0
 11
187.0
 21
30.0
 31
0.0
  0
LINE
  5
1B5F8
  8
SUNPO
  6
CONTINUOUS
 10
120.499996
 20
113.000003
 30
0.0
 11
136.221192
 21
113.000003
 31
0.0
  0
LINE
  5
1B5F9
  8
SUNPO
  6
CONTINUOUS
 10
113.5
 20
33.0
 30
0.0
 11
156.0
 21
33.0
 31
0.0
  0
LINE
  5
1B5FA
  8
SUNPO
  6
CONTINUOUS
 10
113.499999
 20
58.0
 30
0.0
 11
144.685645
 21
58.0
 31
0.0
  0
LINE
  5
1B5FB
  8
SUNPO
  6
CONTINUOUS
 10
113.499999
 20
93.0
 30
0.0
 11
144.685645
 21
93.0
 31
0.0
  0
LINE
  5
1B5FC
  8
SUNPO
  6
CONTINUOUS
 10
113.499999
 20
58.0
 30
0.0
 11
144.685645
 21
58.0
 31
0.0
  0
LINE
  5
1B5FD
  8
SUNPO
  6
CONTINUOUS
 10
113.5
 20
93.0
 30
0.0
 11
136.221192
 21
93.0
 31
0.0
  0
LINE
  5
1B5FE
  8
SUNPO
  6
CONTINUOUS
 10
120.499996
 20
113.000003
 30
0.0
 11
136.221192
 21
113.000003
 31
0.0
  0
LINE
  5
1B5FF
  8
SUNPO
  6
CONTINUOUS
 10
172.0
 20
86.5
 30
0.0
 11
172.0
 21
46.0
 31
0.0
  0
LINE
  5
1B600
  8
SUNPO
  6
CONTINUOUS
 10
156.0
 20
33.0
 30
0.0
 11
156.0
 21
93.0
 31
0.0
  0
LINE
  5
1B601
  8
SUNPO
  6
CONTINUOUS
 10
144.685645
 20
93.0
 30
0.0
 11
144.685645
 21
58.0
 31
0.0
  0
LINE
  5
1B602
  8
SUNPO
  6
CONTINUOUS
 10
172.0
 20
46.0
 30
0.0
 11
162.0
 21
46.0
 31
0.0
  0
LINE
  5
1B603
  8
SUNPO
  6
CONTINUOUS
 10
144.685645
 20
58.0
 30
0.0
 11
144.685645
 21
33.0
 31
0.0
  0
ARC
  5
1B604
  8
SUNPO
  6
BYBLOCK
 10
144.685645
 20
33.0
 30
0.0
 40
0.145
 50
270.0
 51
90.0
  0
ARC
  5
1B605
  8
SUNPO
  6
BYBLOCK
 10
144.685645
 20
33.0
 30
0.0
 40
0.145
 50
90.0
 51
270.0
  0
TEXT
  5
1B606
  8
SUNPO
  6
CONTINUOUS
 10
143.685645
 20
43.416667
 30
0.0
 40
2.5
  1
25
 50
90.0
  7
MX_NOTE_STANDARD
  0
ARC
  5
1B607
  8
SUNPO
  6
BYBLOCK
 10
156.0
 20
33.0
 30
0.0
 40
0.145
 50
90.0
 51
270.0
  0
ARC
  5
1B608
  8
SUNPO
  6
BYBLOCK
 10
156.0
 20
33.0
 30
0.0
 40
0.145
 50
270.0
 51
90.0
  0
ARC
  5
1B609
  8
SUNPO
  6
BYBLOCK
 10
156.0
 20
33.0
 30
0.0
 40
0.145
 50
270.0
 51
90.0
  0
ARC
  5
1B60A
  8
SUNPO
  6
BYBLOCK
 10
156.0
 20
33.0
 30
0.0
 40
0.145
 50
90.0
 51
270.0
  0
ARC
  5
1B60B
  8
SUNPO
  6
BYBLOCK
 10
162.0
 20
46.0
 30
0.0
 40
0.145
 50
180.0
 51
0.0
  0
ARC
  5
1B60C
  8
SUNPO
  6
BYBLOCK
 10
162.0
 20
46.0
 30
0.0
 40
0.145
 50
0.0
 51
180.0
  0
ARC
  5
1B60D
  8
SUNPO
  6
BYBLOCK
 10
144.685645
 20
58.0
 30
0.0
 40
0.145
 50
270.0
 51
90.0
  0
ARC
  5
1B60E
  8
SUNPO
  6
BYBLOCK
 10
144.685645
 20
58.0
 30
0.0
 40
0.145
 50
90.0
 51
270.0
  0
ARC
  5
1B60F
  8
SUNPO
  6
BYBLOCK
 10
144.685645
 20
58.0
 30
0.0
 40
0.145
 50
90.0
 51
270.0
  0
ARC
  5
1B610
  8
SUNPO
  6
BYBLOCK
 10
144.685645
 20
58.0
 30
0.0
 40
0.145
 50
270.0
 51
90.0
  0
TEXT
  5
1B611
  8
SUNPO
  6
CONTINUOUS
 10
143.685645
 20
73.416667
 30
0.0
 40
2.5
  1
35
 50
90.0
  7
MX_NOTE_STANDARD
  0
TEXT
  5
1B612
  8
SUNPO
  6
CONTINUOUS
 10
155.0
 20
61.125
 30
0.0
 40
2.5
  1
60
 50
90.0
  7
MX_NOTE_STANDARD
  0
TEXT
  5
1B613
  8
SUNPO
  6
CONTINUOUS
 10
177.833333
 20
47.0
 30
0.0
 40
2.5
  1
15
  7
MX_NOTE_STANDARD
  0
LINE
  5
1B614
  8
SUNPO
  6
CONTINUOUS
 10
187.0
 20
46.0
 30
0.0
 11
172.0
 21
46.0
 31
0.0
  0
TEXT
  5
1B615
  8
SUNPO
  6
CONTINUOUS
 10
165.541667
 20
47.0
 30
0.0
 40
2.5
  1
10
  7
MX_NOTE_STANDARD
  0
ARC
  5
1B616
  8
SUNPO
  6
BYBLOCK
 10
172.0
 20
46.0
 30
0.0
 40
0.145
 50
0.0
 51
180.0
  0
ARC
  5
1B617
  8
SUNPO
  6
BYBLOCK
 10
172.0
 20
46.0
 30
0.0
 40
0.145
 50
180.0
 51
0.0
  0
ARC
  5
1B618
  8
SUNPO
  6
BYBLOCK
 10
172.0
 20
46.0
 30
0.0
 40
0.145
 50
180.0
 51
0.0
  0
ARC
  5
1B619
  8
SUNPO
  6
BYBLOCK
 10
172.0
 20
46.0
 30
0.0
 40
0.145
 50
0.0
 51
180.0
  0
ARC
  5
1B61C
  8
SUNPO
  6
BYBLOCK
 10
187.0
 20
46.0
 30
0.0
 40
0.145
 50
0.0
 51
180.0
  0
ARC
  5
1B61D
  8
SUNPO
  6
BYBLOCK
 10
187.0
 20
46.0
 30
0.0
 40
0.145
 50
180.0
 51
0.0
  0
ARC
  5
1B61E
  8
SUNPO
  6
BYBLOCK
 10
187.0
 20
46.0
 30
0.0
 40
0.145
 50
180.0
 51
0.0
  0
ARC
  5
1B61F
  8
SUNPO
  6
BYBLOCK
 10
187.0
 20
46.0
 30
0.0
 40
0.145
 50
0.0
 51
180.0
  0
TEXT
  5
1B620
  8
SUNPO
  6
CONTINUOUS
 10
135.221192
 20
101.125001
 30
0.0
 40
2.5
  1
20
 50
90.0
  7
MX_NOTE_STANDARD
  0
LINE
  5
1B621
  8
SUNPO
  6
CONTINUOUS
 10
136.221192
 20
113.000003
 30
0.0
 11
136.221192
 21
93.0
 31
0.0
  0
LINE
  5
1B622
  8
SUNPO
  6
CONTINUOUS
 10
133.5
 20
93.0
 30
0.0
 11
156.0
 21
93.0
 31
0.0
  0
LINE
  5
1B623
  8
SUNPO
  6
CONTINUOUS
 10
137.721191
 20
93.0
 30
0.0
 11
144.685645
 21
93.0
 31
0.0
  0
ARC
  5
1B624
  8
SUNPO
  6
BYBLOCK
 10
136.221192
 20
93.0
 30
0.0
 40
0.145
 50
270.0
 51
90.0
  0
ARC
  5
1B625
  8
SUNPO
  6
BYBLOCK
 10
136.221192
 20
93.0
 30
0.0
 40
0.145
 50
90.0
 51
270.0
  0
ARC
  5
1B626
  8
SUNPO
  6
BYBLOCK
 10
144.685645
 20
93.0
 30
0.0
 40
0.145
 50
270.0
 51
90.0
  0
ARC
  5
1B627
  8
SUNPO
  6
BYBLOCK
 10
144.685645
 20
93.0
 30
0.0
 40
0.145
 50
90.0
 51
270.0
  0
ARC
  5
1B628
  8
SUNPO
  6
BYBLOCK
 10
144.685645
 20
93.0
 30
0.0
 40
0.145
 50
90.0
 51
270.0
  0
ARC
  5
1B629
  8
SUNPO
  6
BYBLOCK
 10
144.685645
 20
93.0
 30
0.0
 40
0.145
 50
270.0
 51
90.0
  0
LINE
  5
1B62A
  8
SUNPO
  6
CONTINUOUS
 10
161.0
 20
98.0
 30
0.0
 11
151.0
 21
98.0
 31
0.0
  0
LINE
  5
1B62B
  8
SUNPO
  6
CONTINUOUS
 10
151.0
 20
98.0
 30
0.0
 11
156.0
 21
93.0
 31
0.0
  0
LINE
  5
1B62D
  8
SUNPO
  6
CONTINUOUS
 10
156.0
 20
93.0
 30
0.0
 11
161.0
 21
98.0
 31
0.0
  0
ARC
  5
1B630
  8
SUNPO
  6
BYBLOCK
 10
136.221192
 20
113.000003
 30
0.0
 40
0.145
 50
270.0
 51
90.0
  0
ARC
  5
1B631
  8
SUNPO
  6
BYBLOCK
 10
136.221192
 20
113.000003
 30
0.0
 40
0.145
 50
90.0
 51
270.0
  0
ARC
  5
1B632
  8
SUNPO
  6
BYBLOCK
 10
136.221192
 20
113.000003
 30
0.0
 40
0.145
 50
90.0
 51
270.0
  0
ARC
  5
1B633
  8
SUNPO
  6
BYBLOCK
 10
136.221192
 20
113.000003
 30
0.0
 40
0.145
 50
270.0
 51
90.0
  0
TEXT
  5
1B634
  8
SUNPO
  6
CONTINUOUS
 10
143.685645
 20
111.916668
 30
0.0
 40
2.5
  1
42
 50
90.0
  7
MX_NOTE_STANDARD
  0
LINE
  5
1B635
  8
SUNPO
  6
CONTINUOUS
 10
275.876776
 20
26.500001
 30
0.0
 11
271.835331
 21
33.499997
 31
0.0
  0
LINE
  5
1B636
  8
SUNPO
  6
CONTINUOUS
 10
278.186114
 20
26.5
 30
0.0
 11
274.144668
 21
33.499997
 31
0.0
  0
LINE
  5
1B637
  8
SUNPO
  6
CONTINUOUS
 10
284.536961
 20
33.5
 30
0.0
 11
284.536961
 21
26.500003
 31
0.0
  0
LINE
  5
1B638
  8
SUNPO
  6
CONTINUOUS
 10
284.536959
 20
26.500004
 30
0.0
 11
280.495515
 21
33.499997
 31
0.0
  0
LINE
  5
1B639
  8
SUNPO
  6
CONTINUOUS
 10
282.22756
 20
26.500001
 30
0.0
 11
278.186114
 21
33.499998
 31
0.0
  0
LINE
  5
1B63A
  8
SUNPO
  6
CONTINUOUS
 10
278.186113
 20
33.5
 30
0.0
 11
278.186113
 21
26.500001
 31
0.0
  0
LINE
  5
1B63B
  8
SUNPO
  6
CONTINUOUS
 10
279.186113
 20
26.5
 30
0.0
 11
274.708582
 21
26.5
 31
0.0
  0
LINE
  5
1B63C
  8
SUNPO
  6
CONTINUOUS
 10
285.11431
 20
26.5
 30
0.0
 11
281.536562
 21
26.5
 31
0.0
  0
LINE
  5
1B63E
  8
SUNPO
  6
CONTINUOUS
 10
293.26901
 20
28.5
 30
0.0
 11
288.26901
 21
28.5
 31
0.0
  0
LINE
  5
1B63F
  8
SUNPO
  6
CONTINUOUS
 10
293.26901
 20
31.5
 30
0.0
 11
288.26901
 21
31.5
 31
0.0
  0
LINE
  5
1B640
  8
SUNPO
  6
CONTINUOUS
 10
304.5
 20
38.322886
 30
0.0
 11
259.5
 21
38.322886
 31
0.0
  0
LINE
  5
1B641
  8
SUNPO
  6
CONTINUOUS
 10
225.0
 20
86.5
 30
0.0
 11
225.0
 21
46.0
 31
0.0
  0
LINE
  5
1B642
  8
SUNPO
  6
CONTINUOUS
 10
196.111405
 20
41.639166
 30
0.0
 11
197.267949
 21
37.322886
 31
0.0
  0
TEXT
  5
1B645
  8
SUNPO
  6
CONTINUOUS
 10
203.916667
 20
47.0
 30
0.0
 40
2.5
  1
38
  7
MX_NOTE_STANDARD
  0
POLYLINE
  5
1B646
  8
SUNPO
  6
CONTINUOUS
 66
     1
 10
0.0
 20
0.0
 30
0.0
 70
   128
210
0.0
220
0.0
230
-1.0
  0
VERTEX
  5
1BE5C
  8
SUNPO
  6
CONTINUOUS
 10
-219.815372
 20
42.430155
 30
0.0
  0
VERTEX
  5
1BE5D
  8
SUNPO
  6
CONTINUOUS
 10
-220.728887
 20
43.052967
 30
0.0
  0
VERTEX
  5
1BE5E
  8
SUNPO
  6
CONTINUOUS
 10
-221.199982
 20
43.091179
 30
0.0
  0
VERTEX
  5
1BE5F
  8
SUNPO
  6
CONTINUOUS
 10
-221.0138
 20
42.578868
 30
0.0
  0
VERTEX
  5
1BE60
  8
SUNPO
  6
CONTINUOUS
 10
-220.120898
 20
40.599677
 30
0.0
  0
VERTEX
  5
1BE61
  8
SUNPO
  6
CONTINUOUS
 10
-220.417461
 20
39.620702
 30
0.0
  0
VERTEX
  5
1BE62
  8
SUNPO
  6
CONTINUOUS
 10
-221.378871
 20
39.924854
 30
0.0
  0
VERTEX
  5
1BE63
  8
SUNPO
  6
CONTINUOUS
 10
-221.86436
 20
41.042338
 30
0.0
  0
VERTEX
  5
1BE64
  8
SUNPO
  6
CONTINUOUS
 10
-221.97692
 20
41.543679
 30
0.0
  0
VERTEX
  5
1BE65
  8
SUNPO
  6
CONTINUOUS
 10
-221.849498
 20
41.018051
 30
0.0
  0
VERTEX
  5
1BE66
  8
SUNPO
  6
CONTINUOUS
 10
-221.799705
 20
39.952675
 30
0.0
  0
VERTEX
  5
1BE67
  8
SUNPO
  6
CONTINUOUS
 10
-222.635643
 20
39.371351
 30
0.0
  0
VERTEX
  5
1BE68
  8
SUNPO
  6
CONTINUOUS
 10
-223.508647
 20
39.987263
 30
0.0
  0
VERTEX
  5
1BE69
  8
SUNPO
  6
CONTINUOUS
 10
-223.951869
 20
40.976998
 30
0.0
  0
VERTEX
  5
1BE6A
  8
SUNPO
  6
CONTINUOUS
 10
-223.836626
 20
43.133374
 30
0.0
  0
VERTEX
  5
1BE6B
  8
SUNPO
  6
CONTINUOUS
 10
-225.974428
 20
42.896876
 30
0.0
  0
SEQEND
  5
1BE6C
  8
SUNPO
  6
CONTINUOUS
  0
TEXT
  5
1B647
  8
SUNPO
  6
CONTINUOUS
 10
225.537473
 20
39.371288
 30
0.0
 40
2.0
  1
2
  7
MX_NOTE_STANDARD
  0
ARC
  5
1B648
  8
SUNPO
  6
BYBLOCK
 10
225.0
 20
46.0
 30
0.0
 40
0.145
 50
0.0
 51
180.0
  0
ARC
  5
1B649
  8
SUNPO
  6
BYBLOCK
 10
225.0
 20
46.0
 30
0.0
 40
0.145
 50
180.0
 51
0.0
  0
LINE
  5
1B64A
  8
SUNPO
  6
CONTINUOUS
 10
259.5
 20
46.5
 30
0.0
 11
259.5
 21
38.322886
 31
0.0
  0
LINE
  5
1B64B
  8
SUNPO
  6
CONTINUOUS
 10
259.5
 20
38.322886
 30
0.0
 11
250.388595
 21
35.006605
 31
0.0
  0
LINE
  5
1B64C
  8
SUNPO
  6
CONTINUOUS
 10
250.388595
 20
35.006605
 30
0.0
 11
249.232051
 21
39.322886
 31
0.0
  0
ARC
  5
1B650
  8
SUNPO
  6
BYBLOCK
 10
244.793737
 20
88.0
 30
0.0
 40
0.145
 50
270.0
 51
90.0
  0
ARC
  5
1B651
  8
SUNPO
  6
BYBLOCK
 10
244.793737
 20
88.0
 30
0.0
 40
0.145
 50
90.0
 51
270.0
  0
LINE
  5
1B652
  8
SUNPO
  6
CONTINUOUS
 10
324.468739
 20
81.0
 30
0.0
 11
324.468739
 21
48.0
 31
0.0
  0
LINE
  5
1B653
  8
SUNPO
  6
CONTINUOUS
 10
281.495514
 20
33.5
 30
0.0
 11
277.186113
 21
33.5
 31
0.0
  0
LINE
  5
1B654
  8
SUNPO
  6
CONTINUOUS
 10
275.10634
 20
33.5
 30
0.0
 11
270.73099
 21
33.5
 31
0.0
  0
LINE
  5
1B655
  8
SUNPO
  6
CONTINUOUS
 10
285.495805
 20
33.5
 30
0.0
 11
283.459285
 21
33.5
 31
0.0
  0
TEXT
  5
1B656
  8
SUNPO
  6
CONTINUOUS
 10
279.916667
 20
39.322886
 30
0.0
 40
2.5
  1
45
  7
MX_NOTE_STANDARD
  0
LINE
  5
1B657
  8
SUNPO
  6
CONTINUOUS
 10
304.5
 20
38.322886
 30
0.0
 11
313.611405
 21
41.639166
 31
0.0
  0
LINE
  5
1B658
  8
SUNPO
  6
CONTINUOUS
 10
304.0
 20
48.0
 30
0.0
 11
324.468739
 21
48.0
 31
0.0
  0
LINE
  5
1B659
  8
SUNPO
  6
CONTINUOUS
 10
304.5
 20
46.5
 30
0.0
 11
304.5
 21
38.322886
 31
0.0
  0
LINE
  5
1B65B
  8
SUNPO
  6
CONTINUOUS
 10
313.611405
 20
41.639166
 30
0.0
 11
314.767949
 21
37.322886
 31
0.0
  0
ARC
  5
1B65E
  8
SUNPO
  6
BYBLOCK
 10
324.468739
 20
48.0
 30
0.0
 40
0.145
 50
270.0
 51
90.0
  0
ARC
  5
1B65F
  8
SUNPO
  6
BYBLOCK
 10
324.468739
 20
48.0
 30
0.0
 40
0.145
 50
90.0
 51
270.0
  0
TEXT
  5
1B660
  8
SUNPO
  6
CONTINUOUS
 10
323.468739
 20
58.756407
 30
0.0
 40
2.5
  1
33
 50
90.0
  7
MX_NOTE_STANDARD
  0
LINE
  5
1B661
  8
SUNPO
  6
CONTINUOUS
 10
324.468739
 20
81.0
 30
0.0
 11
324.468739
 21
119.0
 31
0.0
  0
ARC
  5
1B662
  8
SUNPO
  6
BYBLOCK
 10
324.468739
 20
81.0
 30
0.0
 40
0.145
 50
270.0
 51
90.0
  0
ARC
  5
1B663
  8
SUNPO
  6
BYBLOCK
 10
324.468739
 20
81.0
 30
0.0
 40
0.145
 50
90.0
 51
270.0
  0
ARC
  5
1B664
  8
SUNPO
  6
BYBLOCK
 10
324.468739
 20
81.0
 30
0.0
 40
0.145
 50
90.0
 51
270.0
  0
ARC
  5
1B665
  8
SUNPO
  6
BYBLOCK
 10
324.468739
 20
81.0
 30
0.0
 40
0.145
 50
270.0
 51
90.0
  0
TEXT
  5
1B666
  8
SUNPO
  6
CONTINUOUS
 10
323.468739
 20
102.155268
 30
0.0
 40
2.5
  1
38
 50
90.0
  7
MX_NOTE_STANDARD
  0
TEXT
  5
1B667
  8
SUNPO
  6
CONTINUOUS
 10
323.468739
 20
122.166667
 30
0.0
 40
2.5
  1
8
 50
90.0
  7
MX_NOTE_STANDARD
  0
ARC
  5
1B668
  8
SUNPO
  6
BYBLOCK
 10
324.468739
 20
119.0
 30
0.0
 40
0.145
 50
90.0
 51
270.0
  0
ARC
  5
1B669
  8
SUNPO
  6
BYBLOCK
 10
324.468739
 20
119.0
 30
0.0
 40
0.145
 50
270.0
 51
90.0
  0
ARC
  5
1B66A
  8
SUNPO
  6
BYBLOCK
 10
324.468739
 20
119.0
 30
0.0
 40
0.145
 50
270.0
 51
90.0
  0
ARC
  5
1B66B
  8
SUNPO
  6
BYBLOCK
 10
324.468739
 20
119.0
 30
0.0
 40
0.145
 50
90.0
 51
270.0
  0
TEXT
  5
1B66C
  8
SUNPO
  6
CONTINUOUS
 10
387.416667
 20
31.0
 30
0.0
 40
2.5
  1
25
  7
MX_NOTE_STANDARD
  0
LINE
  5
1B66D
  8
SUNPO
  6
CONTINUOUS
 10
377.0
 20
79.499992
 30
0.0
 11
377.0
 21
30.0
 31
0.0
  0
LINE
  5
1B66E
  8
SUNPO
  6
CONTINUOUS
 10
402.0
 20
86.5
 30
0.0
 11
402.0
 21
30.0
 31
0.0
  0
LINE
  5
1B66F
  8
SUNPO
  6
CONTINUOUS
 10
372.0
 20
35.0
 30
0.0
 11
377.0
 21
30.0
 31
0.0
  0
LINE
  5
1B670
  8
SUNPO
  6
CONTINUOUS
 10
372.0
 20
25.0
 30
0.0
 11
372.0
 21
35.0
 31
0.0
  0
LINE
  5
1B671
  8
SUNPO
  6
CONTINUOUS
 10
402.0
 20
30.0
 30
0.0
 11
377.0
 21
30.0
 31
0.0
  0
LINE
  5
1B672
  8
SUNPO
  6
CONTINUOUS
 10
377.0
 20
30.0
 30
0.0
 11
372.0
 21
25.0
 31
0.0
  0
ARC
  5
1B675
  8
SUNPO
  6
BYBLOCK
 10
402.0
 20
30.0
 30
0.0
 40
0.145
 50
0.0
 51
180.0
  0
ARC
  5
1B676
  8
SUNPO
  6
BYBLOCK
 10
402.0
 20
30.0
 30
0.0
 40
0.145
 50
180.0
 51
0.0
  0
LINE
  5
1B677
  8
SUNPO
  6
CONTINUOUS
 10
402.0
 20
46.0
 30
0.0
 11
392.0
 21
46.0
 31
0.0
  0
LINE
  5
1B678
  8
SUNPO
  6
CONTINUOUS
 10
392.0
 20
86.5
 30
0.0
 11
392.0
 21
46.0
 31
0.0
  0
LINE
  5
1B679
  8
SUNPO
  6
CONTINUOUS
 10
347.0
 20
79.499992
 30
0.0
 11
347.0
 21
46.0
 31
0.0
  0
LINE
  5
1B67A
  8
SUNPO
  6
CONTINUOUS
 10
377.0
 20
46.0
 30
0.0
 11
347.0
 21
46.0
 31
0.0
  0
TEXT
  5
1B67B
  8
SUNPO
  6
CONTINUOUS
 10
343.102796
 20
39.307041
 30
0.0
 40
2.0
  1
1
 41
1.5
  7
MX_NOTE_STANDARD
  0
POLYLINE
  5
1B67C
  8
SUNPO
  6
CONTINUOUS
 66
     1
 10
0.0
 20
0.0
 30
0.0
 70
   128
210
0.0
220
0.0
230
-1.0
  0
VERTEX
  5
1BE6D
  8
SUNPO
  6
CONTINUOUS
 10
-337.015372
 20
42.430155
 30
0.0
  0
VERTEX
  5
1BE6E
  8
SUNPO
  6
CONTINUOUS
 10
-337.928887
 20
43.052967
 30
0.0
  0
VERTEX
  5
1BE6F
  8
SUNPO
  6
CONTINUOUS
 10
-338.399983
 20
43.091179
 30
0.0
  0
VERTEX
  5
1BE70
  8
SUNPO
  6
CONTINUOUS
 10
-338.2138
 20
42.578869
 30
0.0
  0
VERTEX
  5
1BE71
  8
SUNPO
  6
CONTINUOUS
 10
-337.320898
 20
40.599677
 30
0.0
  0
VERTEX
  5
1BE72
  8
SUNPO
  6
CONTINUOUS
 10
-337.617461
 20
39.620702
 30
0.0
  0
VERTEX
  5
1BE73
  8
SUNPO
  6
CONTINUOUS
 10
-338.578871
 20
39.924853
 30
0.0
  0
VERTEX
  5
1BE74
  8
SUNPO
  6
CONTINUOUS
 10
-339.064361
 20
41.042337
 30
0.0
  0
VERTEX
  5
1BE75
  8
SUNPO
  6
CONTINUOUS
 10
-339.176921
 20
41.543679
 30
0.0
  0
VERTEX
  5
1BE76
  8
SUNPO
  6
CONTINUOUS
 10
-339.0495
 20
41.018052
 30
0.0
  0
VERTEX
  5
1BE77
  8
SUNPO
  6
CONTINUOUS
 10
-338.999705
 20
39.952676
 30
0.0
  0
VERTEX
  5
1BE78
  8
SUNPO
  6
CONTINUOUS
 10
-339.835643
 20
39.371351
 30
0.0
  0
VERTEX
  5
1BE79
  8
SUNPO
  6
CONTINUOUS
 10
-340.708648
 20
39.987263
 30
0.0
  0
VERTEX
  5
1BE7A
  8
SUNPO
  6
CONTINUOUS
 10
-341.15187
 20
40.976998
 30
0.0
  0
VERTEX
  5
1BE7B
  8
SUNPO
  6
CONTINUOUS
 10
-341.036626
 20
43.133374
 30
0.0
  0
VERTEX
  5
1BE7C
  8
SUNPO
  6
CONTINUOUS
 10
-343.174429
 20
42.896876
 30
0.0
  0
SEQEND
  5
1BE7D
  8
SUNPO
  6
CONTINUOUS
  0
ARC
  5
1B67D
  8
SUNPO
  6
BYBLOCK
 10
347.0
 20
46.0
 30
0.0
 40
0.145
 50
180.0
 51
0.0
  0
ARC
  5
1B67E
  8
SUNPO
  6
BYBLOCK
 10
347.0
 20
46.0
 30
0.0
 40
0.145
 50
0.0
 51
180.0
  0
LINE
  5
1B67F
  8
SUNPO
  6
CONTINUOUS
 10
377.0
 20
38.322886
 30
0.0
 11
367.888595
 21
35.006605
 31
0.0
  0
LINE
  5
1B680
  8
SUNPO
  6
CONTINUOUS
 10
367.888595
 20
35.006605
 30
0.0
 11
366.732051
 21
39.322886
 31
0.0
  0
TEXT
  5
1B684
  8
SUNPO
  6
CONTINUOUS
 10
360.125
 20
47.0
 30
0.0
 40
2.5
  1
30
  7
MX_NOTE_STANDARD
  0
TEXT
  5
1B686
  8
SUNPO
  6
CONTINUOUS
 10
382.833333
 20
47.0
 30
0.0
 40
2.5
  1
15
  7
MX_NOTE_STANDARD
  0
LINE
  5
1B687
  8
SUNPO
  6
CONTINUOUS
 10
392.0
 20
46.0
 30
0.0
 11
377.0
 21
46.0
 31
0.0
  0
ARC
  5
1B688
  8
SUNPO
  6
BYBLOCK
 10
377.0
 20
46.0
 30
0.0
 40
0.145
 50
180.0
 51
0.0
  0
ARC
  5
1B689
  8
SUNPO
  6
BYBLOCK
 10
377.0
 20
46.0
 30
0.0
 40
0.145
 50
0.0
 51
180.0
  0
ARC
  5
1B68A
  8
SUNPO
  6
BYBLOCK
 10
377.0
 20
46.0
 30
0.0
 40
0.145
 50
0.0
 51
180.0
  0
ARC
  5
1B68B
  8
SUNPO
  6
BYBLOCK
 10
377.0
 20
46.0
 30
0.0
 40
0.145
 50
180.0
 51
0.0
  0
ARC
  5
1B68C
  8
SUNPO
  6
BYBLOCK
 10
392.0
 20
46.0
 30
0.0
 40
0.145
 50
0.0
 51
180.0
  0
ARC
  5
1B68D
  8
SUNPO
  6
BYBLOCK
 10
392.0
 20
46.0
 30
0.0
 40
0.145
 50
180.0
 51
0.0
  0
ARC
  5
1B68E
  8
SUNPO
  6
BYBLOCK
 10
392.0
 20
46.0
 30
0.0
 40
0.145
 50
180.0
 51
0.0
  0
ARC
  5
1B68F
  8
SUNPO
  6
BYBLOCK
 10
392.0
 20
46.0
 30
0.0
 40
0.145
 50
0.0
 51
180.0
  0
TEXT
  5
1B690
  8
SUNPO
  6
CONTINUOUS
 10
395.541667
 20
47.0
 30
0.0
 40
2.5
  1
10
  7
MX_NOTE_STANDARD
  0
ARC
  5
1B691
  8
SUNPO
  6
BYBLOCK
 10
402.0
 20
46.0
 30
0.0
 40
0.145
 50
0.0
 51
180.0
  0
ARC
  5
1B692
  8
SUNPO
  6
BYBLOCK
 10
402.0
 20
46.0
 30
0.0
 40
0.145
 50
180.0
 51
0.0
  0
TEXT
  5
1B693
  8
SUNPO
  6
CONTINUOUS
 10
400.021299
 20
110.575
 30
0.0
 40
2.5
  1
10.6
 50
90.0
  7
MX_NOTE_STANDARD
  0
LINE
  5
1B694
  8
SUNPO
  6
CONTINUOUS
 10
401.021299
 20
119.0
 30
0.0
 11
401.021299
 21
108.4
 31
0.0
  0
LINE
  5
1B695
  8
SUNPO
  6
CONTINUOUS
 10
397.13855
 20
108.4
 30
0.0
 11
401.021299
 21
108.4
 31
0.0
  0
ARC
  5
1B696
  8
SUNPO
  6
BYBLOCK
 10
401.021299
 20
108.4
 30
0.0
 40
0.145
 50
270.0
 51
90.0
  0
ARC
  5
1B697
  8
SUNPO
  6
BYBLOCK
 10
401.021299
 20
108.4
 30
0.0
 40
0.145
 50
90.0
 51
270.0
  0
LINE
  5
1B698
  8
SUNPO
  6
CONTINUOUS
 10
393.499989
 20
119.0
 30
0.0
 11
401.021299
 21
119.0
 31
0.0
  0
ARC
  5
1B699
  8
SUNPO
  6
BYBLOCK
 10
401.021299
 20
119.0
 30
0.0
 40
0.145
 50
90.0
 51
270.0
  0
ARC
  5
1B69A
  8
SUNPO
  6
BYBLOCK
 10
401.021299
 20
119.0
 30
0.0
 40
0.145
 50
270.0
 51
90.0
  0
LINE
  5
1B69B
  8
SUNPO
  6
CONTINUOUS
 10
73.0
 20
169.500005
 30
0.0
 11
35.0
 21
169.500005
 31
0.0
  0
LINE
  5
1B69C
  8
SUNPO
  6
CONTINUOUS
 10
42.0
 20
183.428279
 30
0.0
 11
112.0
 21
183.428279
 31
0.0
  0
LINE
  5
1B69D
  8
DANMEN
  6
CONTINUOUS
 10
357.0
 20
156.800003
 30
0.0
 11
323.75
 21
156.800003
 31
0.0
  0
LINE
  5
1B69E
  8
DANMEN
  6
CONTINUOUS
 10
352.600006
 20
159.800003
 30
0.0
 11
323.75
 21
159.800003
 31
0.0
  0
LINE
  5
1B69F
  8
DANMEN
  6
CONTINUOUS
 10
352.600006
 20
161.0
 30
0.0
 11
323.75
 21
161.0
 31
0.0
  0
LINE
  5
1B6A0
  8
DANMEN
  6
CONTINUOUS
 10
323.75
 20
137.5
 30
0.0
 11
392.0
 21
137.5
 31
0.0
  0
LINE
  5
1B6A1
  8
DANMEN
  6
CONTINUOUS
 10
323.75
 20
140.5
 30
0.0
 11
392.0
 21
140.5
 31
0.0
  0
LINE
  5
1B6A2
  8
DANMEN
  6
CONTINUOUS
 10
323.75
 20
151.0
 30
0.0
 11
392.0
 21
151.0
 31
0.0
  0
LINE
  5
1B6A3
  8
DANMEN
  6
CONTINUOUS
 10
325.23851
 20
145.5
 30
0.0
 11
392.0
 21
145.5
 31
0.0
  0
LINE
  5
1B6A4
  8
DANMEN
  6
CONTINUOUS
 10
260.5
 20
165.0
 30
0.0
 11
303.5
 21
165.0
 31
0.0
  0
LINE
  5
1B6A5
  8
DANMEN
  6
CONTINUOUS
 10
260.5
 20
127.0
 30
0.0
 11
288.0
 21
127.0
 31
0.0
  0
LINE
  5
1B6A6
  8
DANMEN
  6
CONTINUOUS
 10
260.7
 20
128.949997
 30
0.0
 11
279.5
 21
128.949997
 31
0.0
  0
LINE
  5
1B6A7
  8
DANMEN
  6
CONTINUOUS
 10
260.7
 20
163.050003
 30
0.0
 11
279.5
 21
163.050003
 31
0.0
  0
LINE
  5
1B6A8
  8
DANMEN
  6
CONTINUOUS
 10
274.5
 20
151.65
 30
0.0
 11
241.75
 21
151.65
 31
0.0
  0
LINE
  5
1B6A9
  8
DANMEN
  6
CONTINUOUS
 10
274.5
 20
146.65
 30
0.0
 11
241.75
 21
146.65
 31
0.0
  0
LINE
  5
1B6AA
  8
DANMEN
  6
CONTINUOUS
 10
274.5
 20
140.35
 30
0.0
 11
241.75
 21
140.35
 31
0.0
  0
LINE
  5
1B6AB
  8
DANMEN
  6
CONTINUOUS
 10
274.5
 20
145.35
 30
0.0
 11
241.75
 21
145.35
 31
0.0
  0
LINE
  5
1B6AC
  8
DANMEN
  6
CONTINUOUS
 10
274.5
 20
152.15
 30
0.0
 11
241.75
 21
152.15
 31
0.0
  0
LINE
  5
1B6AD
  8
DANMEN
  6
CONTINUOUS
 10
274.5
 20
139.85
 30
0.0
 11
241.75
 21
139.85
 31
0.0
  0
LINE
  5
1B6AE
  8
DANMEN
  6
CONTINUOUS
 10
274.5
 20
146.15
 30
0.0
 11
241.75
 21
146.15
 31
0.0
  0
LINE
  5
1B6AF
  8
DANMEN
  6
CONTINUOUS
 10
274.5
 20
145.85
 30
0.0
 11
241.75
 21
145.85
 31
0.0
  0
LINE
  5
1B6B0
  8
DANMEN
  6
CONTINUOUS
 10
225.0
 20
127.0
 30
0.0
 11
240.25
 21
127.0
 31
0.0
  0
LINE
  5
1B6B1
  8
DANMEN
  6
CONTINUOUS
 10
225.0
 20
129.2
 30
0.0
 11
240.25
 21
129.2
 31
0.0
  0
LINE
  5
1B6B2
  8
DANMEN
  6
CONTINUOUS
 10
225.0
 20
165.0
 30
0.0
 11
240.25
 21
165.0
 31
0.0
  0
LINE
  5
1B6B3
  8
DANMEN
  6
CONTINUOUS
 10
225.0
 20
162.800003
 30
0.0
 11
240.25
 21
162.800003
 31
0.0
  0
LINE
  5
1B6B4
  8
DANMEN
  6
CONTINUOUS
 10
210.0
 20
146.15
 30
0.0
 11
240.25
 21
146.15
 31
0.0
  0
LINE
  5
1B6B5
  8
DANMEN
  6
CONTINUOUS
 10
210.0
 20
145.85
 30
0.0
 11
240.25
 21
145.85
 31
0.0
  0
LINE
  5
1B6B6
  8
DANMEN
  6
CONTINUOUS
 10
210.0
 20
152.15
 30
0.0
 11
240.25
 21
152.15
 31
0.0
  0
LINE
  5
1B6B7
  8
DANMEN
  6
CONTINUOUS
 10
210.0
 20
139.85
 30
0.0
 11
240.25
 21
139.85
 31
0.0
  0
LINE
  5
1B6B8
  8
DANMEN
  6
CONTINUOUS
 10
210.0
 20
146.65
 30
0.0
 11
240.25
 21
146.65
 31
0.0
  0
LINE
  5
1B6B9
  8
DANMEN
  6
CONTINUOUS
 10
210.0
 20
151.65
 30
0.0
 11
240.25
 21
151.65
 31
0.0
  0
LINE
  5
1B6BA
  8
DANMEN
  6
CONTINUOUS
 10
210.0
 20
145.35
 30
0.0
 11
240.25
 21
145.35
 31
0.0
  0
LINE
  5
1B6BB
  8
DANMEN
  6
CONTINUOUS
 10
210.0
 20
140.35
 30
0.0
 11
240.25
 21
140.35
 31
0.0
  0
LINE
  5
1B6BC
  8
DANMEN
  6
CONTINUOUS
 10
240.25
 20
160.500003
 30
0.0
 11
225.0
 21
160.500003
 31
0.0
  0
LINE
  5
1B6BD
  8
DANMEN
  6
CONTINUOUS
 10
225.0
 20
131.499995
 30
0.0
 11
240.25
 21
131.499995
 31
0.0
  0
LINE
  5
1B6BE
  8
DANMEN
  6
CONTINUOUS
 10
204.0
 20
150.0
 30
0.0
 11
204.0
 21
128.949997
 31
0.0
  0
LINE
  5
1B6BF
  8
DANMEN
  6
CONTINUOUS
 10
202.050003
 20
149.05
 30
0.0
 11
202.050003
 21
132.949997
 31
0.0
  0
LINE
  5
1B6C0
  8
DANMEN
  6
CONTINUOUS
 10
210.0
 20
152.15
 30
0.0
 11
210.0
 21
139.85
 31
0.0
  0
LINE
  5
1B6C1
  8
DANMEN
  6
CONTINUOUS
 10
202.538895
 20
127.0
 30
0.0
 11
224.0
 21
127.0
 31
0.0
  0
LINE
  5
1B6C2
  8
DANMEN
  6
CONTINUOUS
 10
204.0
 20
128.949997
 30
0.0
 11
223.800003
 21
128.949997
 31
0.0
  0
LINE
  5
1B6C3
  8
DANMEN
  6
CONTINUOUS
 10
202.04029
 20
127.537395
 30
0.0
 11
202.299988
 21
131.0
 31
0.0
  0
LINE
  5
1B6C8
  8
DANMEN
  6
CONTINUOUS
 10
225.818323
 20
138.333042
 30
0.0
 11
222.0
 21
134.514718
 31
0.0
  0
LINE
  5
1B6C9
  8
DANMEN
  6
CONTINUOUS
 10
225.416402
 20
134.976996
 30
0.0
 11
222.0
 21
138.393399
 31
0.0
  0
LINE
  5
1B6CA
  8
DANMEN
  6
CONTINUOUS
 10
225.189523
 20
133.082555
 30
0.0
 11
222.0
 21
136.272078
 31
0.0
  0
LINE
  5
1B6CB
  8
DANMEN
  6
CONTINUOUS
 10
225.999995
 20
139.85
 30
0.0
 11
224.999995
 21
131.500002
 31
0.0
  0
LINE
  5
1B6CC
  8
DANMEN
  6
CONTINUOUS
 10
223.800003
 20
128.949997
 30
0.0
 11
223.800003
 21
131.0
 31
0.0
  0
LINE
  5
1B6CD
  8
DANMEN
  6
CONTINUOUS
 10
225.0
 20
128.0
 30
0.0
 11
225.0
 21
131.5
 31
0.0
  0
ARC
  5
1B6CF
  8
DANMEN
  6
CONTINUOUS
 10
224.0
 20
128.0
 30
0.0
 40
1.0
 50
270.0
 51
0.0
  0
LINE
  5
1B6D1
  8
DANMEN
  6
CONTINUOUS
 10
225.529709
 20
135.923107
 30
0.0
 11
222.0
 21
132.393398
 31
0.0
  0
LINE
  5
1B6D2
  8
DANMEN
  6
CONTINUOUS
 10
224.150758
 20
132.0
 30
0.0
 11
222.0
 21
134.150758
 31
0.0
  0
LINE
  5
1B6D3
  8
DANMEN
  6
CONTINUOUS
 10
220.5
 20
131.0
 30
0.0
 11
223.800003
 21
131.0
 31
0.0
  0
LINE
  5
1B6D4
  8
DANMEN
  6
CONTINUOUS
 10
220.0
 20
132.0
 30
0.0
 11
224.5
 21
132.0
 31
0.0
  0
LINE
  5
1B6D5
  8
DANMEN
  6
CONTINUOUS
 10
222.029437
 20
132.0
 30
0.0
 11
222.0
 21
132.029437
 31
0.0
  0
ARC
  5
1B6D7
  8
DANMEN
  6
CONTINUOUS
 10
220.5
 20
131.5
 30
0.0
 40
0.5
 50
179.999964
 51
270.000001
  0
LINE
  5
1B6D9
  8
DANMEN
  6
CONTINUOUS
 10
220.0
 20
131.5
 30
0.0
 11
220.0
 21
132.0
 31
0.0
  0
LINE
  5
1B6DA
  8
DANMEN
  6
CONTINUOUS
 10
225.241094
 20
133.513172
 30
0.0
 11
223.727922
 21
132.0
 31
0.0
  0
ARC
  5
1B6DC
  8
DANMEN
  6
CONTINUOUS
 10
224.5
 20
131.5
 30
0.0
 40
0.5
 50
0.0
 51
89.999982
  0
LINE
  5
1B6DE
  8
DANMEN
  6
CONTINUOUS
 10
223.092638
 20
139.849997
 30
0.0
 11
222.0
 21
138.757359
 31
0.0
  0
LINE
  5
1B6DF
  8
DANMEN
  6
CONTINUOUS
 10
225.213958
 20
139.849997
 30
0.0
 11
222.0
 21
136.636039
 31
0.0
  0
LINE
  5
1B6E0
  8
DANMEN
  6
CONTINUOUS
 10
225.87016
 20
138.765879
 30
0.0
 11
224.786042
 21
139.849997
 31
0.0
  0
LINE
  5
1B6E1
  8
DANMEN
  6
CONTINUOUS
 10
225.643281
 20
136.871438
 30
0.0
 11
222.664722
 21
139.849997
 31
0.0
  0
LINE
  5
1B6E4
  8
DANMEN
  6
CONTINUOUS
 10
203.0
 20
165.0
 30
0.0
 11
224.0
 21
165.0
 31
0.0
  0
LINE
  5
1B6E5
  8
DANMEN
  6
CONTINUOUS
 10
204.0
 20
163.050003
 30
0.0
 11
223.800003
 21
163.050003
 31
0.0
  0
LINE
  5
1B6E6
  8
DANMEN
  6
CONTINUOUS
 10
204.0
 20
163.050003
 30
0.0
 11
204.0
 21
151.0
 31
0.0
  0
ARC
  5
1B6E7
  8
DANMEN
  6
CONTINUOUS
 10
205.5
 20
149.550003
 30
0.0
 40
0.5
 50
270.000018
 51
0.0
  0
ARC
  5
1B6E8
  8
DANMEN
  6
CONTINUOUS
 10
205.5
 20
150.5
 30
0.0
 40
0.5
 50
0.0
 51
89.999982
  0
LINE
  5
1B6ED
  8
DANMEN
  6
CONTINUOUS
 10
205.0
 20
150.0
 30
0.0
 11
205.0
 21
149.050003
 31
0.0
  0
LINE
  5
1B6F1
  8
DANMEN
  6
CONTINUOUS
 10
205.0
 20
149.050003
 30
0.0
 11
205.5
 21
149.050003
 31
0.0
  0
LINE
  5
1B6F2
  8
DANMEN
  6
CONTINUOUS
 10
204.0
 20
150.0
 30
0.0
 11
205.0
 21
150.0
 31
0.0
  0
LINE
  5
1B6F3
  8
DANMEN
  6
CONTINUOUS
 10
206.0
 20
150.5
 30
0.0
 11
206.0
 21
149.550003
 31
0.0
  0
LINE
  5
1B6F4
  8
DANMEN
  6
CONTINUOUS
 10
204.0
 20
151.0
 30
0.0
 11
205.5
 21
151.0
 31
0.0
  0
LINE
  5
1B6F6
  8
DANMEN
  6
CONTINUOUS
 10
224.150758
 20
160.0
 30
0.0
 11
222.0
 21
157.849242
 31
0.0
  0
LINE
  5
1B6F7
  8
DANMEN
  6
CONTINUOUS
 10
225.241094
 20
158.486828
 30
0.0
 11
223.727922
 21
160.0
 31
0.0
  0
LINE
  5
1B6F8
  8
DANMEN
  6
CONTINUOUS
 10
225.529708
 20
156.076893
 30
0.0
 11
222.0
 21
159.606602
 31
0.0
  0
LINE
  5
1B6F9
  8
DANMEN
  6
CONTINUOUS
 10
226.000003
 20
152.15
 30
0.0
 11
225.000003
 21
160.500005
 31
0.0
  0
LINE
  5
1B6FA
  8
DANMEN
  6
CONTINUOUS
 10
225.643281
 20
155.128562
 30
0.0
 11
222.664714
 21
152.149996
 31
0.0
  0
LINE
  5
1B6FB
  8
DANMEN
  6
CONTINUOUS
 10
225.213965
 20
152.149996
 30
0.0
 11
222.0
 21
155.363961
 31
0.0
  0
LINE
  5
1B6FC
  8
DANMEN
  6
CONTINUOUS
 10
223.092645
 20
152.149996
 30
0.0
 11
222.0
 21
153.242641
 31
0.0
  0
LINE
  5
1B6FD
  8
DANMEN
  6
CONTINUOUS
 10
225.87016
 20
153.234121
 30
0.0
 11
224.786035
 21
152.149996
 31
0.0
  0
LINE
  5
1B6FF
  8
DANMEN
  6
CONTINUOUS
 10
225.189523
 20
158.917445
 30
0.0
 11
222.0
 21
155.727922
 31
0.0
  0
LINE
  5
1B700
  8
DANMEN
  6
CONTINUOUS
 10
225.416402
 20
157.023004
 30
0.0
 11
222.0
 21
153.606602
 31
0.0
  0
LINE
  5
1B701
  8
DANMEN
  6
CONTINUOUS
 10
225.818323
 20
153.666959
 30
0.0
 11
222.0
 21
157.485281
 31
0.0
  0
ARC
  5
1B702
  8
DANMEN
  6
CONTINUOUS
 10
224.0
 20
164.0
 30
0.0
 40
1.0
 50
0.0
 51
90.0
  0
LINE
  5
1B703
  8
DANMEN
  6
CONTINUOUS
 10
220.0
 20
160.0
 30
0.0
 11
224.5
 21
160.0
 31
0.0
  0
LINE
  5
1B704
  8
DANMEN
  6
CONTINUOUS
 10
220.5
 20
161.0
 30
0.0
 11
223.800003
 21
161.0
 31
0.0
  0
LINE
  5
1B705
  8
DANMEN
  6
CONTINUOUS
 10
222.029437
 20
160.0
 30
0.0
 11
222.0
 21
159.970563
 31
0.0
  0
LINE
  5
1B706
  8
DANMEN
  6
CONTINUOUS
 10
220.0
 20
160.5
 30
0.0
 11
220.0
 21
160.0
 31
0.0
  0
ARC
  5
1B708
  8
DANMEN
  6
CONTINUOUS
 10
220.5
 20
160.5
 30
0.0
 40
0.5
 50
89.999999
 51
180.000036
  0
LINE
  5
1B70B
  8
DANMEN
  6
CONTINUOUS
 10
225.0
 20
164.0
 30
0.0
 11
225.0
 21
160.5
 31
0.0
  0
ARC
  5
1B70D
  8
DANMEN
  6
CONTINUOUS
 10
224.5
 20
160.5
 30
0.0
 40
0.5
 50
270.000018
 51
0.0
  0
LINE
  5
1B70E
  8
DANMEN
  6
CONTINUOUS
 10
223.800003
 20
163.050003
 30
0.0
 11
223.800003
 21
161.0
 31
0.0
  0
LINE
  5
1B711
  8
DANMEN
  6
CONTINUOUS
 10
241.75
 20
127.0
 30
0.0
 11
259.5
 21
127.0
 31
0.0
  0
LINE
  5
1B712
  8
DANMEN
  6
CONTINUOUS
 10
241.75
 20
129.2
 30
0.0
 11
259.5
 21
129.2
 31
0.0
  0
LINE
  5
1B713
  8
DANMEN
  6
CONTINUOUS
 10
241.75
 20
131.499995
 30
0.0
 11
259.5
 21
131.499995
 31
0.0
  0
LINE
  5
1B714
  8
DANMEN
  6
CONTINUOUS
 10
259.310477
 20
133.082555
 30
0.0
 11
262.5
 21
136.272078
 31
0.0
  0
LINE
  5
1B715
  8
DANMEN
  6
CONTINUOUS
 10
259.083598
 20
134.976996
 30
0.0
 11
262.5
 21
138.393398
 31
0.0
  0
LINE
  5
1B716
  8
DANMEN
  6
CONTINUOUS
 10
258.681677
 20
138.333041
 30
0.0
 11
262.5
 21
134.514719
 31
0.0
  0
LINE
  5
1B717
  8
DANMEN
  6
CONTINUOUS
 10
258.499997
 20
139.85
 30
0.0
 11
259.499997
 21
131.499995
 31
0.0
  0
ARC
  5
1B718
  8
DANMEN
  6
CONTINUOUS
 10
260.5
 20
128.0
 30
0.0
 40
1.0
 50
180.0
 51
270.0
  0
ARC
  5
1B719
  8
DANMEN
  6
CONTINUOUS
 10
260.0
 20
131.5
 30
0.0
 40
0.5
 50
89.999982
 51
180.000019
  0
LINE
  5
1B71A
  8
DANMEN
  6
CONTINUOUS
 10
259.258906
 20
133.513172
 30
0.0
 11
260.772078
 21
132.0
 31
0.0
  0
LINE
  5
1B71B
  8
DANMEN
  6
CONTINUOUS
 10
258.970292
 20
135.923107
 30
0.0
 11
262.5
 21
132.393398
 31
0.0
  0
LINE
  5
1B71C
  8
DANMEN
  6
CONTINUOUS
 10
259.5
 20
131.5
 30
0.0
 11
259.5
 21
128.0
 31
0.0
  0
LINE
  5
1B71D
  8
DANMEN
  6
CONTINUOUS
 10
260.7
 20
131.0
 30
0.0
 11
260.7
 21
128.949997
 31
0.0
  0
ARC
  5
1B71E
  8
DANMEN
  6
CONTINUOUS
 10
264.345223
 20
126.8
 30
0.0
 40
1.0
 50
90.0
 51
147.20046
  0
LINE
  5
1B721
  8
DANMEN
  6
CONTINUOUS
 10
264.345223
 20
127.8
 30
0.0
 11
265.700001
 21
127.8
 31
0.0
  0
LINE
  5
1B722
  8
DANMEN
  6
CONTINUOUS
 10
264.345223
 20
126.8
 30
0.0
 11
265.300001
 21
126.8
 31
0.0
  0
ARC
  5
1B727
  8
DANMEN
  6
CONTINUOUS
 10
265.700001
 20
127.2
 30
0.0
 40
0.6
 50
0.0
 51
90.0
  0
LINE
  5
1B72D
  8
DANMEN
  6
CONTINUOUS
 10
260.0
 20
132.0
 30
0.0
 11
264.5
 21
132.0
 31
0.0
  0
LINE
  5
1B72E
  8
DANMEN
  6
CONTINUOUS
 10
260.7
 20
131.0
 30
0.0
 11
264.0
 21
131.0
 31
0.0
  0
LINE
  5
1B731
  8
DANMEN
  6
CONTINUOUS
 10
262.470563
 20
132.0
 30
0.0
 11
262.5
 21
132.029437
 31
0.0
  0
LINE
  5
1B732
  8
DANMEN
  6
CONTINUOUS
 10
260.349242
 20
132.0
 30
0.0
 11
262.5
 21
134.150758
 31
0.0
  0
LINE
  5
1B733
  8
DANMEN
  6
CONTINUOUS
 10
264.5
 20
132.0
 30
0.0
 11
264.5
 21
131.5
 31
0.0
  0
ARC
  5
1B736
  8
DANMEN
  6
CONTINUOUS
 10
264.0
 20
131.5
 30
0.0
 40
0.5
 50
270.000018
 51
0.0
  0
LINE
  5
1B737
  8
DANMEN
  6
CONTINUOUS
 10
258.856719
 20
136.871438
 30
0.0
 11
261.835286
 21
139.850004
 31
0.0
  0
LINE
  5
1B738
  8
DANMEN
  6
CONTINUOUS
 10
258.62984
 20
138.765879
 30
0.0
 11
259.713965
 21
139.850004
 31
0.0
  0
LINE
  5
1B739
  8
DANMEN
  6
CONTINUOUS
 10
259.286035
 20
139.850004
 30
0.0
 11
262.5
 21
136.636039
 31
0.0
  0
LINE
  5
1B73A
  8
DANMEN
  6
CONTINUOUS
 10
261.407355
 20
139.850004
 30
0.0
 11
262.5
 21
138.757359
 31
0.0
  0
LINE
  5
1B73E
  8
DANMEN
  6
CONTINUOUS
 10
241.75
 20
162.800003
 30
0.0
 11
259.5
 21
162.800003
 31
0.0
  0
LINE
  5
1B73F
  8
DANMEN
  6
CONTINUOUS
 10
241.75
 20
165.0
 30
0.0
 11
260.0
 21
165.0
 31
0.0
  0
LINE
  5
1B740
  8
DANMEN
  6
CONTINUOUS
 10
244.793737
 20
160.500003
 30
0.0
 11
259.5
 21
160.500003
 31
0.0
  0
LINE
  5
1B741
  8
DANMEN
  6
CONTINUOUS
 10
258.970291
 20
156.076893
 30
0.0
 11
262.5
 21
159.606602
 31
0.0
  0
LINE
  5
1B742
  8
DANMEN
  6
CONTINUOUS
 10
259.258906
 20
158.486828
 30
0.0
 11
260.772078
 21
160.0
 31
0.0
  0
LINE
  5
1B743
  8
DANMEN
  6
CONTINUOUS
 10
260.349242
 20
160.0
 30
0.0
 11
262.5
 21
157.849242
 31
0.0
  0
LINE
  5
1B744
  8
DANMEN
  6
CONTINUOUS
 10
258.500005
 20
152.15
 30
0.0
 11
259.500005
 21
160.499998
 31
0.0
  0
LINE
  5
1B745
  8
DANMEN
  6
CONTINUOUS
 10
259.286042
 20
152.150003
 30
0.0
 11
262.5
 21
155.363961
 31
0.0
  0
LINE
  5
1B746
  8
DANMEN
  6
CONTINUOUS
 10
258.681677
 20
153.666958
 30
0.0
 11
262.5
 21
157.485282
 31
0.0
  0
LINE
  5
1B747
  8
DANMEN
  6
CONTINUOUS
 10
258.62984
 20
153.234121
 30
0.0
 11
259.713958
 21
152.150003
 31
0.0
  0
LINE
  5
1B748
  8
DANMEN
  6
CONTINUOUS
 10
258.856719
 20
155.128562
 30
0.0
 11
261.835278
 21
152.150003
 31
0.0
  0
LINE
  5
1B749
  8
DANMEN
  6
CONTINUOUS
 10
259.083598
 20
157.023004
 30
0.0
 11
262.5
 21
153.606601
 31
0.0
  0
LINE
  5
1B74A
  8
DANMEN
  6
CONTINUOUS
 10
259.310477
 20
158.917445
 30
0.0
 11
262.5
 21
155.727922
 31
0.0
  0
LINE
  5
1B74B
  8
DANMEN
  6
CONTINUOUS
 10
261.407362
 20
152.150003
 30
0.0
 11
262.5
 21
153.242641
 31
0.0
  0
ARC
  5
1B74C
  8
DANMEN
  6
CONTINUOUS
 10
260.5
 20
164.0
 30
0.0
 40
1.0
 50
90.0
 51
180.0
  0
ARC
  5
1B74D
  8
DANMEN
  6
CONTINUOUS
 10
260.0
 20
160.5
 30
0.0
 40
0.5
 50
180.000019
 51
270.000001
  0
LINE
  5
1B74E
  8
DANMEN
  6
CONTINUOUS
 10
260.0
 20
160.0
 30
0.0
 11
264.5
 21
160.0
 31
0.0
  0
LINE
  5
1B74F
  8
DANMEN
  6
CONTINUOUS
 10
260.7
 20
161.0
 30
0.0
 11
264.0
 21
161.0
 31
0.0
  0
LINE
  5
1B752
  8
DANMEN
  6
CONTINUOUS
 10
259.5
 20
164.0
 30
0.0
 11
259.5
 21
160.5
 31
0.0
  0
LINE
  5
1B754
  8
DANMEN
  6
CONTINUOUS
 10
260.7
 20
163.050003
 30
0.0
 11
260.7
 21
161.0
 31
0.0
  0
LINE
  5
1B756
  8
DANMEN
  6
CONTINUOUS
 10
262.470563
 20
160.0
 30
0.0
 11
262.5
 21
159.970563
 31
0.0
  0
LINE
  5
1B757
  8
DANMEN
  6
CONTINUOUS
 10
264.5
 20
160.5
 30
0.0
 11
264.5
 21
160.0
 31
0.0
  0
ARC
  5
1B75A
  8
DANMEN
  6
CONTINUOUS
 10
264.0
 20
160.5
 30
0.0
 40
0.5
 50
0.0
 51
89.999982
  0
LINE
  5
1B75B
  8
DANMEN
  6
CONTINUOUS
 10
289.5
 20
127.0
 30
0.0
 11
303.0
 21
127.0
 31
0.0
  0
LINE
  5
1B75C
  8
DANMEN
  6
CONTINUOUS
 10
297.550003
 20
150.0
 30
0.0
 11
302.550003
 21
150.0
 31
0.0
  0
LINE
  5
1B75D
  8
DANMEN
  6
CONTINUOUS
 10
281.449997
 20
151.0
 30
0.0
 11
302.550003
 21
151.0
 31
0.0
  0
LINE
  5
1B75E
  8
DANMEN
  6
CONTINUOUS
 10
291.449997
 20
128.949997
 30
0.0
 11
302.550003
 21
128.949997
 31
0.0
  0
LINE
  5
1B75F
  8
DANMEN
  6
CONTINUOUS
 10
292.5
 20
163.050003
 30
0.0
 11
302.550003
 21
163.050003
 31
0.0
  0
LINE
  5
1B760
  8
DANMEN
  6
CONTINUOUS
 10
281.449997
 20
150.0
 30
0.0
 11
281.449997
 21
128.949997
 31
0.0
  0
LINE
  5
1B761
  8
DANMEN
  6
CONTINUOUS
 10
279.5
 20
150.0
 30
0.0
 11
279.5
 21
128.949997
 31
0.0
  0
LINE
  5
1B762
  8
DANMEN
  6
CONTINUOUS
 10
291.449997
 20
149.050003
 30
0.0
 11
291.449997
 21
147.0
 31
0.0
  0
LINE
  5
1B763
  8
DANMEN
  6
CONTINUOUS
 10
290.449997
 20
149.050003
 30
0.0
 11
290.449997
 21
147.5
 31
0.0
  0
LINE
  5
1B764
  8
DANMEN
  6
CONTINUOUS
 10
274.5
 20
156.0
 30
0.0
 11
279.5
 21
136.0
 31
0.0
  0
LINE
  5
1B765
  8
DANMEN
  6
CONTINUOUS
 10
274.5
 20
136.0
 30
0.0
 11
274.5
 21
156.0
 31
0.0
  0
LINE
  5
1B766
  8
DANMEN
  6
CONTINUOUS
 10
279.5
 20
136.0
 30
0.0
 11
279.5
 21
149.0
 31
0.0
  0
LINE
  5
1B767
  8
DANMEN
  6
CONTINUOUS
 10
274.499998
 20
138.0
 30
0.0
 11
274.499998
 21
154.0
 31
0.0
  0
LINE
  5
1B768
  8
DANMEN
  6
CONTINUOUS
 10
281.449997
 20
128.949997
 30
0.0
 11
290.449997
 21
128.949997
 31
0.0
  0
LINE
  5
1B769
  8
DANMEN
  6
CONTINUOUS
 10
279.5
 20
136.0
 30
0.0
 11
274.5
 21
136.0
 31
0.0
  0
LINE
  5
1B76F
  8
DANMEN
  6
CONTINUOUS
 10
290.449997
 20
130.5
 30
0.0
 11
290.449997
 21
128.949997
 31
0.0
  0
LINE
  5
1B770
  8
DANMEN
  6
CONTINUOUS
 10
291.449997
 20
131.0
 30
0.0
 11
291.449997
 21
128.949997
 31
0.0
  0
LINE
  5
1B775
  8
DANMEN
  6
CONTINUOUS
 10
290.949997
 20
131.0
 30
0.0
 11
291.449997
 21
131.0
 31
0.0
  0
ARC
  5
1B778
  8
DANMEN
  6
CONTINUOUS
 10
290.949997
 20
130.5
 30
0.0
 40
0.5
 50
89.999982
 51
180.000019
  0
LINE
  5
1B779
  8
DANMEN
  6
CONTINUOUS
 10
290.949997
 20
147.0
 30
0.0
 11
291.449997
 21
147.0
 31
0.0
  0
ARC
  5
1B77C
  8
DANMEN
  6
CONTINUOUS
 10
290.949997
 20
147.5
 30
0.0
 40
0.5
 50
180.000019
 51
270.000001
  0
LINE
  5
1B77D
  8
DANMEN
  6
CONTINUOUS
 10
281.449997
 20
150.0
 30
0.0
 11
286.449997
 21
150.0
 31
0.0
  0
LINE
  5
1B77E
  8
DANMEN
  6
CONTINUOUS
 10
281.449997
 20
163.050003
 30
0.0
 11
291.5
 21
163.050003
 31
0.0
  0
LINE
  5
1B77F
  8
DANMEN
  6
CONTINUOUS
 10
279.5
 20
163.050003
 30
0.0
 11
279.5
 21
151.0
 31
0.0
  0
LINE
  5
1B780
  8
DANMEN
  6
CONTINUOUS
 10
281.449997
 20
163.050003
 30
0.0
 11
281.449997
 21
151.0
 31
0.0
  0
LINE
  5
1B781
  8
DANMEN
  6
CONTINUOUS
 10
279.5
 20
156.0
 30
0.0
 11
274.5
 21
156.0
 31
0.0
  0
LINE
  5
1B783
  8
DANMEN
  6
CONTINUOUS
 10
279.5
 20
151.0
 30
0.0
 11
279.5
 21
156.0
 31
0.0
  0
LINE
  5
1B784
  8
DANMEN
  6
CONTINUOUS
 10
277.5
 20
150.5
 30
0.0
 11
277.5
 21
149.550003
 31
0.0
  0
LINE
  5
1B785
  8
DANMEN
  6
CONTINUOUS
 10
278.0
 20
151.0
 30
0.0
 11
279.5
 21
151.0
 31
0.0
  0
LINE
  5
1B786
  8
DANMEN
  6
CONTINUOUS
 10
278.0
 20
149.050003
 30
0.0
 11
278.5
 21
149.050003
 31
0.0
  0
LINE
  5
1B787
  8
DANMEN
  6
CONTINUOUS
 10
278.5
 20
150.0
 30
0.0
 11
279.5
 21
150.0
 31
0.0
  0
ARC
  5
1B78B
  8
DANMEN
  6
CONTINUOUS
 10
278.0
 20
150.5
 30
0.0
 40
0.5
 50
89.999982
 51
180.000019
  0
LINE
  5
1B78C
  8
DANMEN
  6
CONTINUOUS
 10
278.5
 20
150.0
 30
0.0
 11
278.5
 21
149.050003
 31
0.0
  0
ARC
  5
1B78E
  8
DANMEN
  6
CONTINUOUS
 10
278.0
 20
149.550003
 30
0.0
 40
0.5
 50
180.000019
 51
270.000001
  0
LINE
  5
1B795
  8
DANMEN
  6
CONTINUOUS
 10
277.0
 20
149.0
 30
0.0
 11
277.0
 21
151.0
 31
0.0
  0
LINE
  5
1B796
  8
DANMEN
  6
CONTINUOUS
 10
279.5
 20
149.0
 30
0.0
 11
277.0
 21
149.0
 31
0.0
  0
LINE
  5
1B797
  8
DANMEN
  6
CONTINUOUS
 10
279.5
 20
151.0
 30
0.0
 11
277.0
 21
151.0
 31
0.0
  0
LINE
  5
1B79D
  8
DANMEN
  6
CONTINUOUS
 10
291.449997
 20
149.050003
 30
0.0
 11
297.550003
 21
149.050003
 31
0.0
  0
LINE
  5
1B79E
  8
DANMEN
  6
CONTINUOUS
 10
286.449997
 20
149.050003
 30
0.0
 11
290.449997
 21
149.050003
 31
0.0
  0
LINE
  5
1B7A1
  8
DANMEN
  6
CONTINUOUS
 10
286.449997
 20
150.0
 30
0.0
 11
286.449997
 21
149.050003
 31
0.0
  0
LINE
  5
1B7A6
  8
DANMEN
  6
CONTINUOUS
 10
297.550003
 20
150.0
 30
0.0
 11
297.550003
 21
149.050003
 31
0.0
  0
ARC
  5
1B7A7
  8
DANMEN
  6
CONTINUOUS
 10
292.0
 20
162.0
 30
0.0
 40
0.5
 50
180.0
 51
0.0
  0
LINE
  5
1B7A9
  8
DANMEN
  6
CONTINUOUS
 10
291.5
 20
163.050003
 30
0.0
 11
291.5
 21
162.0
 31
0.0
  0
LINE
  5
1B7AC
  8
DANMEN
  6
CONTINUOUS
 10
292.5
 20
163.050003
 30
0.0
 11
292.5
 21
162.0
 31
0.0
  0
LINE
  5
1B7AE
  8
DANMEN
  6
CONTINUOUS
 10
302.550003
 20
150.0
 30
0.0
 11
302.550003
 21
128.949997
 31
0.0
  0
LINE
  5
1B7AF
  8
DANMEN
  6
CONTINUOUS
 10
304.5
 20
137.5
 30
0.0
 11
322.25
 21
137.5
 31
0.0
  0
LINE
  5
1B7B0
  8
DANMEN
  6
CONTINUOUS
 10
304.5
 20
140.5
 30
0.0
 11
322.25
 21
140.5
 31
0.0
  0
LINE
  5
1B7B1
  8
DANMEN
  6
CONTINUOUS
 10
304.5
 20
145.5
 30
0.0
 11
320.115841
 21
145.5
 31
0.0
  0
LINE
  5
1B7B2
  8
DANMEN
  6
CONTINUOUS
 10
304.5
 20
131.5
 30
0.0
 11
322.25
 21
131.5
 31
0.0
  0
LINE
  5
1B7B5
  8
DANMEN
  6
CONTINUOUS
 10
304.5
 20
156.800003
 30
0.0
 11
322.25
 21
156.800003
 31
0.0
  0
LINE
  5
1B7B6
  8
DANMEN
  6
CONTINUOUS
 10
304.5
 20
159.800003
 30
0.0
 11
322.25
 21
159.800003
 31
0.0
  0
LINE
  5
1B7B7
  8
DANMEN
  6
CONTINUOUS
 10
304.5
 20
161.0
 30
0.0
 11
322.25
 21
161.0
 31
0.0
  0
LINE
  5
1B7B8
  8
DANMEN
  6
CONTINUOUS
 10
304.5
 20
151.0
 30
0.0
 11
322.25
 21
151.0
 31
0.0
  0
LINE
  5
1B7B9
  8
DANMEN
  6
CONTINUOUS
 10
302.550003
 20
163.050003
 30
0.0
 11
302.550003
 21
151.0
 31
0.0
  0
ARC
  5
1B7BC
  8
DANMEN
  6
CONTINUOUS
 10
303.5
 20
164.0
 30
0.0
 40
1.0
 50
0.0
 51
89.999982
  0
LINE
  5
1B7C0
  8
SUNPO
  6
CONTINUOUS
 10
21.0
 20
177.0
 30
0.0
 11
21.0
 21
227.0
 31
0.0
  0
LINE
  5
1B7C1
  8
DANMEN
  6
CONTINUOUS
 10
401.5
 20
158.0
 30
0.0
 11
377.5
 21
158.0
 31
0.0
  0
LINE
  5
1B7C2
  8
DANMEN
  6
CONTINUOUS
 10
400.350006
 20
156.350006
 30
0.0
 11
393.649994
 21
156.350006
 31
0.0
  0
LINE
  5
1B7C3
  8
DANMEN
  6
CONTINUOUS
 10
377.0
 20
158.0
 30
0.0
 11
357.0
 21
158.0
 31
0.0
  0
LINE
  5
1B7C4
  8
DANMEN
  6
CONTINUOUS
 10
357.0
 20
161.000003
 30
0.0
 11
357.0
 21
156.800003
 31
0.0
  0
LINE
  5
1B7C6
  8
DANMEN
  6
CONTINUOUS
 10
352.600006
 20
159.800003
 30
0.0
 11
357.0
 21
159.800003
 31
0.0
  0
LINE
  5
1B7C7
  8
DANMEN
  6
CONTINUOUS
 10
352.600006
 20
161.000003
 30
0.0
 11
357.0
 21
161.000003
 31
0.0
  0
ARC
  5
1B7CC
  8
DANMEN
  6
CONTINUOUS
 10
352.600006
 20
160.399994
 30
0.0
 40
0.6
 50
89.999963
 51
269.999982
  0
LINE
  5
1B7CD
  8
DANMEN
  6
CONTINUOUS
 10
390.0
 20
156.350006
 30
0.0
 11
377.5
 21
156.350006
 31
0.0
  0
ARC
  5
1B7CE
  8
DANMEN
  6
CONTINUOUS
 10
377.5
 20
156.850006
 30
0.0
 40
0.5
 50
180.0
 51
270.0
  0
LINE
  5
1B7CF
  8
DANMEN
  6
CONTINUOUS
 10
377.0
 20
157.5
 30
0.0
 11
377.0
 21
156.850006
 31
0.0
  0
ARC
  5
1B7D0
  8
DANMEN
  6
CONTINUOUS
 10
377.5
 20
157.5
 30
0.0
 40
0.5
 50
90.000037
 51
180.000019
  0
LINE
  5
1B7D1
  8
DANMEN
  6
CONTINUOUS
 10
392.0
 20
156.800003
 30
0.0
 11
390.0
 21
156.800003
 31
0.0
  0
LINE
  5
1B7D2
  8
DANMEN
  6
CONTINUOUS
 10
390.0
 20
156.800003
 30
0.0
 11
390.0
 21
156.350006
 31
0.0
  0
TEXT
  5
1B7D3
  8
SUNPO
  6
CONTINUOUS
 10
56.178385
 20
170.500005
 30
0.0
 40
2.5
  1
38
  7
MX_NOTE_STANDARD
  0
LINE
  5
1B7D4
  8
SUNPO
  6
CONTINUOUS
 10
33.5
 20
167.0
 30
0.0
 11
21.0
 21
167.0
 31
0.0
  0
LINE
  5
1B7D5
  8
DANMEN
  6
CONTINUOUS
 10
402.0
 20
157.5
 30
0.0
 11
402.0
 21
152.5
 31
0.0
  0
LINE
  5
1B7D6
  8
DANMEN
  6
CONTINUOUS
 10
400.350006
 20
156.350006
 30
0.0
 11
400.350006
 21
152.5
 31
0.0
  0
LINE
  5
1B7D7
  8
DANMEN
  6
CONTINUOUS
 10
401.5
 20
152.0
 30
0.0
 11
400.850006
 21
152.0
 31
0.0
  0
ARC
  5
1B7D8
  8
DANMEN
  6
CONTINUOUS
 10
401.5
 20
152.5
 30
0.0
 40
0.5
 50
270.000018
 51
359.999981
  0
ARC
  5
1B7D9
  8
DANMEN
  6
CONTINUOUS
 10
400.850006
 20
152.5
 30
0.0
 40
0.5
 50
180.000019
 51
270.000001
  0
ARC
  5
1B7DA
  8
DANMEN
  6
CONTINUOUS
 10
401.5
 20
157.5
 30
0.0
 40
0.5
 50
0.0
 51
89.999982
  0
ARC
  5
1B7DB
  8
SUNPO
  6
BYBLOCK
 10
21.0
 20
167.0
 30
0.0
 40
0.145
 50
90.0
 51
270.0
  0
ARC
  5
1B7DC
  8
SUNPO
  6
BYBLOCK
 10
21.0
 20
167.0
 30
0.0
 40
0.145
 50
270.0
 51
90.0
  0
ARC
  5
1B7DD
  8
SUNPO
  6
BYBLOCK
 10
35.0
 20
169.500005
 30
0.0
 40
0.145
 50
180.0
 51
0.0
  0
ARC
  5
1B7DE
  8
SUNPO
  6
BYBLOCK
 10
35.0
 20
169.500005
 30
0.0
 40
0.145
 50
0.0
 51
180.0
  0
LINE
  5
1B7DF
  8
SUNPO
  6
CONTINUOUS
 10
35.0
 20
183.428279
 30
0.0
 11
29.013333
 21
183.428279
 31
0.0
  0
LINE
  5
1B7E0
  8
SUNPO
  6
CONTINUOUS
 10
33.5
 20
177.0
 30
0.0
 11
21.0
 21
177.0
 31
0.0
  0
ARC
  5
1B7E1
  8
SUNPO
  6
BYBLOCK
 10
21.0
 20
177.0
 30
0.0
 40
0.145
 50
270.0
 51
90.0
  0
ARC
  5
1B7E2
  8
SUNPO
  6
BYBLOCK
 10
21.0
 20
177.0
 30
0.0
 40
0.145
 50
90.0
 51
270.0
  0
TEXT
  5
1B7E3
  8
SUNPO
  6
CONTINUOUS
 10
30.013333
 20
184.428279
 30
0.0
 40
2.5
  1
7
  7
MX_NOTE_STANDARD
  0
TEXT
  5
1B7E4
  8
SUNPO
  6
CONTINUOUS
 10
20.0
 20
200.125
 30
0.0
 40
2.5
  1
50
 50
90.0
  7
MX_NOTE_STANDARD
  0
LINE
  5
1B7E5
  8
SUNPO
  6
CONTINUOUS
 10
42.0
 20
183.428279
 30
0.0
 11
35.0
 21
183.428279
 31
0.0
  0
ARC
  5
1B7E6
  8
SUNPO
  6
BYBLOCK
 10
35.0
 20
183.428279
 30
0.0
 40
0.145
 50
180.0
 51
0.0
  0
ARC
  5
1B7E7
  8
SUNPO
  6
BYBLOCK
 10
35.0
 20
183.428279
 30
0.0
 40
0.145
 50
0.0
 51
180.0
  0
LINE
  5
1B7E8
  8
SUNPO
  6
CONTINUOUS
 10
42.0
 20
193.550003
 30
0.0
 11
42.0
 21
183.428279
 31
0.0
  0
ARC
  5
1B7E9
  8
SUNPO
  6
BYBLOCK
 10
42.0
 20
183.428279
 30
0.0
 40
0.145
 50
0.0
 51
180.0
  0
ARC
  5
1B7EA
  8
SUNPO
  6
BYBLOCK
 10
42.0
 20
183.428279
 30
0.0
 40
0.145
 50
180.0
 51
0.0
  0
ARC
  5
1B7EB
  8
SUNPO
  6
BYBLOCK
 10
42.0
 20
183.428279
 30
0.0
 40
0.145
 50
180.0
 51
0.0
  0
ARC
  5
1B7EC
  8
SUNPO
  6
BYBLOCK
 10
42.0
 20
183.428279
 30
0.0
 40
0.145
 50
0.0
 51
180.0
  0
LINE
  5
1B7ED
  8
SUNPO
  6
CONTINUOUS
 10
40.5
 20
262.0
 30
0.0
 11
21.0
 21
262.0
 31
0.0
  0
LINE
  5
1B7EE
  8
SUNPO
  6
CONTINUOUS
 10
40.5
 20
227.0
 30
0.0
 11
21.0
 21
227.0
 31
0.0
  0
LINE
  5
1B7EF
  8
SUNPO
  6
CONTINUOUS
 10
21.0
 20
227.0
 30
0.0
 11
21.0
 21
262.0
 31
0.0
  0
ARC
  5
1B7F0
  8
SUNPO
  6
BYBLOCK
 10
21.0
 20
227.0
 30
0.0
 40
0.145
 50
270.0
 51
90.0
  0
ARC
  5
1B7F1
  8
SUNPO
  6
BYBLOCK
 10
21.0
 20
227.0
 30
0.0
 40
0.145
 50
90.0
 51
270.0
  0
ARC
  5
1B7F2
  8
SUNPO
  6
BYBLOCK
 10
21.0
 20
227.0
 30
0.0
 40
0.145
 50
90.0
 51
270.0
  0
ARC
  5
1B7F3
  8
SUNPO
  6
BYBLOCK
 10
21.0
 20
227.0
 30
0.0
 40
0.145
 50
270.0
 51
90.0
  0
TEXT
  5
1B7F4
  8
SUNPO
  6
CONTINUOUS
 10
20.0
 20
242.416667
 30
0.0
 40
2.5
  1
35
 50
90.0
  7
MX_NOTE_STANDARD
  0
ARC
  5
1B7F5
  8
SUNPO
  6
BYBLOCK
 10
21.0
 20
262.0
 30
0.0
 40
0.145
 50
90.0
 51
270.0
  0
ARC
  5
1B7F6
  8
SUNPO
  6
BYBLOCK
 10
21.0
 20
262.0
 30
0.0
 40
0.145
 50
270.0
 51
90.0
  0
LINE
  5
1B7F7
  8
SUNPO
  6
CONTINUOUS
 10
175.0
 20
167.527474
 30
0.0
 11
225.0
 21
167.527474
 31
0.0
  0
LINE
  5
1B7F8
  8
SUNPO
  6
CONTINUOUS
 10
144.685645
 20
227.0
 30
0.0
 11
144.685645
 21
177.0
 31
0.0
  0
LINE
  5
1B7F9
  8
SUNPO
  6
CONTINUOUS
 10
136.221192
 20
227.0
 30
0.0
 11
136.221192
 21
188.999997
 31
0.0
  0
LINE
  5
1B7FA
  8
SUNPO
  6
CONTINUOUS
 10
156.0
 20
227.0
 30
0.0
 11
156.0
 21
172.0
 31
0.0
  0
LINE
  5
1B7FB
  8
SUNPO
  6
CONTINUOUS
 10
120.499999
 20
135.000003
 30
0.0
 11
144.685645
 21
135.000003
 31
0.0
  0
LINE
  5
1B7FC
  8
SUNPO
  6
CONTINUOUS
 10
120.5
 20
135.000003
 30
0.0
 11
136.221192
 21
135.000003
 31
0.0
  0
LINE
  5
1B7FD
  8
SUNPO
  6
CONTINUOUS
 10
120.499999
 20
167.0
 30
0.0
 11
144.685645
 21
167.0
 31
0.0
  0
LINE
  5
1B7FE
  8
SUNPO
  6
CONTINUOUS
 10
120.499999
 20
177.0
 30
0.0
 11
144.685645
 21
177.0
 31
0.0
  0
LINE
  5
1B7FF
  8
SUNPO
  6
CONTINUOUS
 10
120.5
 20
188.999997
 30
0.0
 11
136.221192
 21
188.999997
 31
0.0
  0
TEXT
  5
1B800
  8
SUNPO
  6
CONTINUOUS
 10
76.166667
 20
170.500005
 30
0.0
 40
2.5
  1
8
  7
MX_NOTE_STANDARD
  0
TEXT
  5
1B801
  8
SUNPO
  6
CONTINUOUS
 10
97.916667
 20
170.500005
 30
0.0
 40
2.5
  1
38
  7
MX_NOTE_STANDARD
  0
LINE
  5
1B802
  8
SUNPO
  6
CONTINUOUS
 10
119.0
 20
169.500005
 30
0.0
 11
81.0
 21
169.500005
 31
0.0
  0
ARC
  5
1B803
  8
SUNPO
  6
BYBLOCK
 10
81.0
 20
169.500005
 30
0.0
 40
0.145
 50
180.0
 51
0.0
  0
ARC
  5
1B804
  8
SUNPO
  6
BYBLOCK
 10
81.0
 20
169.500005
 30
0.0
 40
0.145
 50
0.0
 51
180.0
  0
ARC
  5
1B805
  8
SUNPO
  6
BYBLOCK
 10
81.0
 20
169.500005
 30
0.0
 40
0.145
 50
0.0
 51
180.0
  0
ARC
  5
1B806
  8
SUNPO
  6
BYBLOCK
 10
81.0
 20
169.500005
 30
0.0
 40
0.145
 50
180.0
 51
0.0
  0
LINE
  5
1B807
  8
SUNPO
  6
CONTINUOUS
 10
81.0
 20
169.500005
 30
0.0
 11
73.0
 21
169.500005
 31
0.0
  0
ARC
  5
1B808
  8
SUNPO
  6
BYBLOCK
 10
73.0
 20
169.500005
 30
0.0
 40
0.145
 50
180.0
 51
0.0
  0
ARC
  5
1B809
  8
SUNPO
  6
BYBLOCK
 10
73.0
 20
169.500005
 30
0.0
 40
0.145
 50
0.0
 51
180.0
  0
ARC
  5
1B80A
  8
SUNPO
  6
BYBLOCK
 10
73.0
 20
169.500005
 30
0.0
 40
0.145
 50
0.0
 51
180.0
  0
ARC
  5
1B80B
  8
SUNPO
  6
BYBLOCK
 10
73.0
 20
169.500005
 30
0.0
 40
0.145
 50
180.0
 51
0.0
  0
ARC
  5
1B80C
  8
SUNPO
  6
BYBLOCK
 10
119.0
 20
169.500005
 30
0.0
 40
0.145
 50
0.0
 51
180.0
  0
ARC
  5
1B80D
  8
SUNPO
  6
BYBLOCK
 10
119.0
 20
169.500005
 30
0.0
 40
0.145
 50
180.0
 51
0.0
  0
TEXT
  5
1B80E
  8
SUNPO
  6
CONTINUOUS
 10
76.807449
 20
184.428279
 30
0.0
 40
2.5
  1
70
  7
MX_NOTE_STANDARD
  0
LINE
  5
1B80F
  8
SUNPO
  6
CONTINUOUS
 10
112.0
 20
208.849997
 30
0.0
 11
112.0
 21
183.428279
 31
0.0
  0
LINE
  5
1B810
  8
SUNPO
  6
CONTINUOUS
 10
119.0
 20
183.428279
 30
0.0
 11
112.0
 21
183.428279
 31
0.0
  0
ARC
  5
1B811
  8
SUNPO
  6
BYBLOCK
 10
112.0
 20
183.428279
 30
0.0
 40
0.145
 50
180.0
 51
0.0
  0
ARC
  5
1B812
  8
SUNPO
  6
BYBLOCK
 10
112.0
 20
183.428279
 30
0.0
 40
0.145
 50
0.0
 51
180.0
  0
ARC
  5
1B813
  8
SUNPO
  6
BYBLOCK
 10
112.0
 20
183.428279
 30
0.0
 40
0.145
 50
0.0
 51
180.0
  0
ARC
  5
1B814
  8
SUNPO
  6
BYBLOCK
 10
112.0
 20
183.428279
 30
0.0
 40
0.145
 50
180.0
 51
0.0
  0
LINE
  5
1B815
  8
SUNPO
  6
CONTINUOUS
 10
112.0
 20
187.0
 30
0.0
 11
112.0
 21
183.428279
 31
0.0
  0
LINE
  5
1B816
  8
SUNPO
  6
CONTINUOUS
 10
119.0
 20
182.5
 30
0.0
 11
119.0
 21
183.428279
 31
0.0
  0
TEXT
  5
1B817
  8
SUNPO
  6
CONTINUOUS
 10
114.666667
 20
184.428279
 30
0.0
 40
2.5
  1
7
  7
MX_NOTE_STANDARD
  0
ARC
  5
1B818
  8
SUNPO
  6
BYBLOCK
 10
119.0
 20
183.428279
 30
0.0
 40
0.145
 50
0.0
 51
180.0
  0
ARC
  5
1B819
  8
SUNPO
  6
BYBLOCK
 10
119.0
 20
183.428279
 30
0.0
 40
0.145
 50
180.0
 51
0.0
  0
TEXT
  5
1B81A
  8
SUNPO
  6
CONTINUOUS
 10
172.666667
 20
168.527474
 30
0.0
 40
2.5
  1
3
  7
MX_NOTE_STANDARD
  0
LINE
  5
1B81B
  8
SUNPO
  6
CONTINUOUS
 10
144.685645
 20
167.0
 30
0.0
 11
144.685645
 21
135.000003
 31
0.0
  0
ARC
  5
1B81C
  8
SUNPO
  6
BYBLOCK
 10
136.221192
 20
135.000003
 30
0.0
 40
0.145
 50
90.0
 51
270.0
  0
ARC
  5
1B81D
  8
SUNPO
  6
BYBLOCK
 10
136.221192
 20
135.000003
 30
0.0
 40
0.145
 50
270.0
 51
90.0
  0
ARC
  5
1B81E
  8
SUNPO
  6
BYBLOCK
 10
144.685645
 20
135.000003
 30
0.0
 40
0.145
 50
90.0
 51
270.0
  0
ARC
  5
1B81F
  8
SUNPO
  6
BYBLOCK
 10
144.685645
 20
135.000003
 30
0.0
 40
0.145
 50
270.0
 51
90.0
  0
ARC
  5
1B820
  8
SUNPO
  6
BYBLOCK
 10
144.685645
 20
135.000003
 30
0.0
 40
0.145
 50
270.0
 51
90.0
  0
ARC
  5
1B821
  8
SUNPO
  6
BYBLOCK
 10
144.685645
 20
135.000003
 30
0.0
 40
0.145
 50
90.0
 51
270.0
  0
TEXT
  5
1B822
  8
SUNPO
  6
CONTINUOUS
 10
143.685645
 20
148.916669
 30
0.0
 40
2.5
  1
32
 50
90.0
  7
MX_NOTE_STANDARD
  0
ARC
  5
1B823
  8
SUNPO
  6
BYBLOCK
 10
144.685645
 20
167.0
 30
0.0
 40
0.145
 50
90.0
 51
270.0
  0
ARC
  5
1B824
  8
SUNPO
  6
BYBLOCK
 10
144.685645
 20
167.0
 30
0.0
 40
0.145
 50
270.0
 51
90.0
  0
LINE
  5
1B825
  8
SUNPO
  6
CONTINUOUS
 10
152.0
 20
162.653991
 30
0.0
 11
152.0
 21
158.920944
 31
0.0
  0
LINE
  5
1B826
  8
SUNPO
  6
CONTINUOUS
 10
156.0
 20
160.641045
 30
0.0
 11
156.0
 21
155.141045
 31
0.0
  0
LINE
  5
1B827
  8
SUNPO
  6
CONTINUOUS
 10
160.0
 20
162.653991
 30
0.0
 11
160.0
 21
158.920944
 31
0.0
  0
LINE
  5
1B828
  8
SUNPO
  6
CONTINUOUS
 10
152.0
 20
155.141045
 30
0.0
 11
160.0
 21
155.141045
 31
0.0
  0
LINE
  5
1B829
  8
SUNPO
  6
CONTINUOUS
 10
152.0
 20
153.141045
 30
0.0
 11
160.0
 21
153.141045
 31
0.0
  0
LINE
  5
1B82A
  8
SUNPO
  6
CONTINUOUS
 10
152.0
 20
156.541039
 30
0.0
 11
152.0
 21
151.343696
 31
0.0
  0
LINE
  5
1B82B
  8
SUNPO
  6
CONTINUOUS
 10
160.0
 20
156.541039
 30
0.0
 11
160.0
 21
151.343696
 31
0.0
  0
LINE
  5
1B82C
  8
SUNPO
  6
CONTINUOUS
 10
152.0
 20
160.641045
 30
0.0
 11
160.0
 21
160.641045
 31
0.0
  0
LINE
  5
1B82D
  8
SUNPO
  6
CONTINUOUS
 10
154.799927
 20
168.656304
 30
0.0
 11
154.799927
 21
163.867761
 31
0.0
  0
LINE
  5
1B82E
  8
SUNPO
  6
CONTINUOUS
 10
157.199921
 20
168.656304
 30
0.0
 11
157.199921
 21
163.867761
 31
0.0
  0
LINE
  5
1B830
  8
SUNPO
  6
CONTINUOUS
 10
175.0
 20
159.5
 30
0.0
 11
175.0
 21
167.527474
 31
0.0
  0
LINE
  5
1B831
  8
SUNPO
  6
CONTINUOUS
 10
172.0
 20
159.5
 30
0.0
 11
172.0
 21
167.527474
 31
0.0
  0
ARC
  5
1B832
  8
SUNPO
  6
BYBLOCK
 10
172.0
 20
167.527474
 30
0.0
 40
0.145
 50
180.0
 51
0.0
  0
ARC
  5
1B833
  8
SUNPO
  6
BYBLOCK
 10
172.0
 20
167.527474
 30
0.0
 40
0.145
 50
0.0
 51
180.0
  0
ARC
  5
1B834
  8
SUNPO
  6
BYBLOCK
 10
175.0
 20
167.527474
 30
0.0
 40
0.145
 50
0.0
 51
180.0
  0
ARC
  5
1B835
  8
SUNPO
  6
BYBLOCK
 10
175.0
 20
167.527474
 30
0.0
 40
0.145
 50
180.0
 51
0.0
  0
ARC
  5
1B836
  8
SUNPO
  6
BYBLOCK
 10
175.0
 20
167.527474
 30
0.0
 40
0.145
 50
180.0
 51
0.0
  0
ARC
  5
1B837
  8
SUNPO
  6
BYBLOCK
 10
175.0
 20
167.527474
 30
0.0
 40
0.145
 50
0.0
 51
180.0
  0
LINE
  5
1B838
  8
SUNPO
  6
CONTINUOUS
 10
172.0
 20
167.527474
 30
0.0
 11
175.0
 21
167.527474
 31
0.0
  0
ARC
  5
1B839
  8
SUNPO
  6
BYBLOCK
 10
144.685645
 20
177.0
 30
0.0
 40
0.145
 50
270.0
 51
90.0
  0
ARC
  5
1B83A
  8
SUNPO
  6
BYBLOCK
 10
144.685645
 20
177.0
 30
0.0
 40
0.145
 50
90.0
 51
270.0
  0
ARC
  5
1B83B
  8
SUNPO
  6
BYBLOCK
 10
136.221192
 20
188.999997
 30
0.0
 40
0.145
 50
270.0
 51
90.0
  0
ARC
  5
1B83C
  8
SUNPO
  6
BYBLOCK
 10
136.221192
 20
188.999997
 30
0.0
 40
0.145
 50
90.0
 51
270.0
  0
TEXT
  5
1B83D
  8
SUNPO
  6
CONTINUOUS
 10
143.685645
 20
200.125
 30
0.0
 40
2.5
  1
50
 50
90.0
  7
MX_NOTE_STANDARD
  0
TEXT
  5
1B83E
  8
SUNPO
  6
CONTINUOUS
 10
135.221192
 20
205.916665
 30
0.0
 40
2.5
  1
38
 50
90.0
  7
MX_NOTE_STANDARD
  0
LINE
  5
1B83F
  8
SUNPO
  6
CONTINUOUS
 10
113.5
 20
227.0
 30
0.0
 11
156.0
 21
227.0
 31
0.0
  0
LINE
  5
1B840
  8
SUNPO
  6
CONTINUOUS
 10
113.5
 20
262.0
 30
0.0
 11
156.0
 21
262.0
 31
0.0
  0
LINE
  5
1B841
  8
SUNPO
  6
CONTINUOUS
 10
156.0
 20
262.0
 30
0.0
 11
156.0
 21
227.0
 31
0.0
  0
ARC
  5
1B842
  8
SUNPO
  6
BYBLOCK
 10
136.221192
 20
227.0
 30
0.0
 40
0.145
 50
90.0
 51
270.0
  0
ARC
  5
1B843
  8
SUNPO
  6
BYBLOCK
 10
136.221192
 20
227.0
 30
0.0
 40
0.145
 50
270.0
 51
90.0
  0
ARC
  5
1B844
  8
SUNPO
  6
BYBLOCK
 10
144.685645
 20
227.0
 30
0.0
 40
0.145
 50
90.0
 51
270.0
  0
ARC
  5
1B845
  8
SUNPO
  6
BYBLOCK
 10
144.685645
 20
227.0
 30
0.0
 40
0.145
 50
270.0
 51
90.0
  0
LINE
  5
1B846
  8
SUNPO
  6
CONTINUOUS
 10
161.0
 20
222.0
 30
0.0
 11
151.0
 21
222.0
 31
0.0
  0
LINE
  5
1B847
  8
SUNPO
  6
CONTINUOUS
 10
151.0
 20
222.0
 30
0.0
 11
156.0
 21
227.0
 31
0.0
  0
LINE
  5
1B849
  8
SUNPO
  6
CONTINUOUS
 10
156.0
 20
227.0
 30
0.0
 11
161.0
 21
222.0
 31
0.0
  0
TEXT
  5
1B84C
  8
SUNPO
  6
CONTINUOUS
 10
155.0
 20
242.416667
 30
0.0
 40
2.5
  1
35
 50
90.0
  7
MX_NOTE_STANDARD
  0
ARC
  5
1B84D
  8
SUNPO
  6
BYBLOCK
 10
156.0
 20
262.0
 30
0.0
 40
0.145
 50
90.0
 51
270.0
  0
ARC
  5
1B84E
  8
SUNPO
  6
BYBLOCK
 10
156.0
 20
262.0
 30
0.0
 40
0.145
 50
270.0
 51
90.0
  0
TEXT
  5
1B84F
  8
SUNPO
  6
CONTINUOUS
 10
198.125
 20
168.527474
 30
0.0
 40
2.5
  1
50
  7
MX_NOTE_STANDARD
  0
LINE
  5
1B850
  8
SUNPO
  6
CONTINUOUS
 10
203.500001
 20
158.0
 30
0.0
 11
244.793737
 21
158.0
 31
0.0
  0
ARC
  5
1B851
  8
SUNPO
  6
BYBLOCK
 10
225.0
 20
167.527474
 30
0.0
 40
0.145
 50
0.0
 51
180.0
  0
ARC
  5
1B852
  8
SUNPO
  6
BYBLOCK
 10
225.0
 20
167.527474
 30
0.0
 40
0.145
 50
180.0
 51
0.0
  0
LINE
  5
1B853
  8
SUNPO
  6
CONTINUOUS
 10
225.0
 20
166.5
 30
0.0
 11
225.0
 21
167.527474
 31
0.0
  0
LINE
  5
1B854
  8
SUNPO
  6
CONTINUOUS
 10
244.793737
 20
165.0
 30
0.0
 11
244.793737
 21
158.0
 31
0.0
  0
ARC
  5
1B855
  8
SUNPO
  6
BYBLOCK
 10
244.793737
 20
158.0
 30
0.0
 40
0.145
 50
90.0
 51
270.0
  0
ARC
  5
1B856
  8
SUNPO
  6
BYBLOCK
 10
244.793737
 20
158.0
 30
0.0
 40
0.145
 50
270.0
 51
90.0
  0
ARC
  5
1B857
  8
SUNPO
  6
BYBLOCK
 10
244.793737
 20
158.0
 30
0.0
 40
0.145
 50
270.0
 51
90.0
  0
ARC
  5
1B858
  8
SUNPO
  6
BYBLOCK
 10
244.793737
 20
158.0
 30
0.0
 40
0.145
 50
90.0
 51
270.0
  0
ARC
  5
1B859
  8
SUNPO
  6
BYBLOCK
 10
244.793737
 20
165.0
 30
0.0
 40
0.145
 50
90.0
 51
270.0
  0
ARC
  5
1B85A
  8
SUNPO
  6
BYBLOCK
 10
244.793737
 20
165.0
 30
0.0
 40
0.145
 50
270.0
 51
90.0
  0
TEXT
  5
1B85B
  8
SUNPO
  6
CONTINUOUS
 10
243.793737
 20
160.666667
 30
0.0
 40
2.5
  1
7
 50
90.0
  7
MX_NOTE_STANDARD
  0
TEXT
  5
1B85C
  8
SUNPO
  6
CONTINUOUS
 10
323.468739
 20
143.916667
 30
0.0
 40
2.5
  1
38
 50
90.0
  7
MX_NOTE_STANDARD
  0
LINE
  5
1B85D
  8
SUNPO
  6
CONTINUOUS
 10
324.468739
 20
165.0
 30
0.0
 11
324.468739
 21
127.0
 31
0.0
  0
LINE
  5
1B85E
  8
SUNPO
  6
CONTINUOUS
 10
305.999997
 20
127.0
 30
0.0
 11
324.468739
 21
127.0
 31
0.0
  0
ARC
  5
1B85F
  8
SUNPO
  6
BYBLOCK
 10
324.468739
 20
127.0
 30
0.0
 40
0.145
 50
90.0
 51
270.0
  0
ARC
  5
1B860
  8
SUNPO
  6
BYBLOCK
 10
324.468739
 20
127.0
 30
0.0
 40
0.145
 50
270.0
 51
90.0
  0
ARC
  5
1B861
  8
SUNPO
  6
BYBLOCK
 10
324.468739
 20
127.0
 30
0.0
 40
0.145
 50
270.0
 51
90.0
  0
ARC
  5
1B862
  8
SUNPO
  6
BYBLOCK
 10
324.468739
 20
127.0
 30
0.0
 40
0.145
 50
90.0
 51
270.0
  0
LINE
  5
1B863
  8
SUNPO
  6
CONTINUOUS
 10
305.999997
 20
165.0
 30
0.0
 11
324.468739
 21
165.0
 31
0.0
  0
ARC
  5
1B864
  8
SUNPO
  6
BYBLOCK
 10
324.468739
 20
165.0
 30
0.0
 40
0.145
 50
90.0
 51
270.0
  0
ARC
  5
1B865
  8
SUNPO
  6
BYBLOCK
 10
324.468739
 20
165.0
 30
0.0
 40
0.145
 50
270.0
 51
90.0
  0
LINE
  5
1B866
  8
SUNPO
  6
CONTINUOUS
 10
377.0
 20
167.527474
 30
0.0
 11
402.0
 21
167.527474
 31
0.0
  0
TEXT
  5
1B867
  8
SUNPO
  6
CONTINUOUS
 10
387.416667
 20
168.527474
 30
0.0
 40
2.5
  1
25
  7
MX_NOTE_STANDARD
  0
TEXT
  5
1B868
  8
SUNPO
  6
CONTINUOUS
 10
355.125
 20
168.527474
 30
0.0
 40
2.5
  1
20
  7
MX_NOTE_STANDARD
  0
TEXT
  5
1B869
  8
SUNPO
  6
CONTINUOUS
 10
370.541667
 20
168.527474
 30
0.0
 40
2.5
  1
10
  7
MX_NOTE_STANDARD
  0
LINE
  5
1B86A
  8
SUNPO
  6
CONTINUOUS
 10
347.0
 20
167.527474
 30
0.0
 11
367.0
 21
167.527474
 31
0.0
  0
LINE
  5
1B86B
  8
SUNPO
  6
CONTINUOUS
 10
347.0
 20
162.5
 30
0.0
 11
347.0
 21
167.527474
 31
0.0
  0
ARC
  5
1B86C
  8
SUNPO
  6
BYBLOCK
 10
347.0
 20
167.527474
 30
0.0
 40
0.145
 50
180.0
 51
0.0
  0
ARC
  5
1B86D
  8
SUNPO
  6
BYBLOCK
 10
347.0
 20
167.527474
 30
0.0
 40
0.145
 50
0.0
 51
180.0
  0
LINE
  5
1B86E
  8
SUNPO
  6
CONTINUOUS
 10
367.0
 20
167.527474
 30
0.0
 11
377.0
 21
167.527474
 31
0.0
  0
LINE
  5
1B86F
  8
SUNPO
  6
CONTINUOUS
 10
367.0
 20
159.5
 30
0.0
 11
367.0
 21
167.527474
 31
0.0
  0
LINE
  5
1B870
  8
SUNPO
  6
CONTINUOUS
 10
367.0
 20
159.5
 30
0.0
 11
367.0
 21
167.527474
 31
0.0
  0
ARC
  5
1B871
  8
SUNPO
  6
BYBLOCK
 10
367.0
 20
167.527474
 30
0.0
 40
0.145
 50
180.0
 51
0.0
  0
ARC
  5
1B872
  8
SUNPO
  6
BYBLOCK
 10
367.0
 20
167.527474
 30
0.0
 40
0.145
 50
0.0
 51
180.0
  0
ARC
  5
1B873
  8
SUNPO
  6
BYBLOCK
 10
367.0
 20
167.527474
 30
0.0
 40
0.145
 50
0.0
 51
180.0
  0
ARC
  5
1B874
  8
SUNPO
  6
BYBLOCK
 10
367.0
 20
167.527474
 30
0.0
 40
0.145
 50
180.0
 51
0.0
  0
LINE
  5
1B875
  8
SUNPO
  6
CONTINUOUS
 10
377.0
 20
159.5
 30
0.0
 11
377.0
 21
167.527474
 31
0.0
  0
LINE
  5
1B876
  8
SUNPO
  6
CONTINUOUS
 10
377.0
 20
159.5
 30
0.0
 11
377.0
 21
167.527474
 31
0.0
  0
ARC
  5
1B877
  8
SUNPO
  6
BYBLOCK
 10
377.0
 20
167.527474
 30
0.0
 40
0.145
 50
0.0
 51
180.0
  0
ARC
  5
1B878
  8
SUNPO
  6
BYBLOCK
 10
377.0
 20
167.527474
 30
0.0
 40
0.145
 50
180.0
 51
0.0
  0
ARC
  5
1B879
  8
SUNPO
  6
BYBLOCK
 10
377.0
 20
167.527474
 30
0.0
 40
0.145
 50
180.0
 51
0.0
  0
ARC
  5
1B87A
  8
SUNPO
  6
BYBLOCK
 10
377.0
 20
167.527474
 30
0.0
 40
0.145
 50
0.0
 51
180.0
  0
LINE
  5
1B87B
  8
SUNPO
  6
CONTINUOUS
 10
402.0
 20
159.5
 30
0.0
 11
402.0
 21
167.527474
 31
0.0
  0
ARC
  5
1B87C
  8
SUNPO
  6
BYBLOCK
 10
402.0
 20
167.527474
 30
0.0
 40
0.145
 50
0.0
 51
180.0
  0
ARC
  5
1B87D
  8
SUNPO
  6
BYBLOCK
 10
402.0
 20
167.527474
 30
0.0
 40
0.145
 50
180.0
 51
0.0
  0
LINE
  5
1B951
  8
DANMEN
  6
CONTINUOUS
 10
72.499995
 20
68.000005
 30
0.0
 11
70.800003
 21
68.000005
 31
0.0
  0
LINE
  5
1B958
  8
DANMEN
  6
CONTINUOUS
 10
68.850006
 20
67.999999
 30
0.0
 11
68.850006
 21
53.5
 31
0.0
  0
LINE
  5
1B959
  8
DANMEN
  6
CONTINUOUS
 10
70.800003
 20
68.000005
 30
0.0
 11
70.800003
 21
53.5
 31
0.0
  0
ARC
  5
1B95A
  8
DANMEN
  6
CONTINUOUS
 10
70.300003
 20
53.5
 30
0.0
 40
0.5
 50
269.999999
 51
359.999981
  0
ARC
  5
1B95B
  8
DANMEN
  6
CONTINUOUS
 10
69.350006
 20
53.5
 30
0.0
 40
0.5
 50
180.0
 51
269.999982
  0
LINE
  5
1B95C
  8
DANMEN
  6
CONTINUOUS
 10
70.300003
 20
53.0
 30
0.0
 11
69.350006
 21
53.0
 31
0.0
  0
ENDSEC
  0
EOF
