  0
SECTION
  2
HEADER
  9
$ACADVER
  1
AC1009
  9
$INSBASE
 10
0.0
 20
0.0
 30
0.0
  9
$EXTMIN
 10
4.986803
 20
4.971933
 30
-0.001526
  9
$EXTMAX
 10
415.019075
 20
292.013444
 30
0.0
  9
$LIMMIN
 10
-210.0
 20
-148.5
  9
$LIMMAX
 10
210.0
 20
148.5
  9
$ORTHOMODE
 70
     0
  9
$REGENMODE
 70
     1
  9
$FILLMODE
 70
     1
  9
$QTEXTMODE
 70
     0
  9
$MIRRTEXT
 70
     1
  9
$DRAGMODE
 70
     2
  9
$LTSCALE
 40
0.5
  9
$OSMODE
 70
   239
  9
$ATTMODE
 70
     1
  9
$TEXTSIZE
 40
0.2
  9
$TRACEWID
 40
0.05
  9
$TEXTSTYLE
  7
MX_NOTE_STANDARD
  9
$CLAYER
  8
0
  9
$CELTYPE
  6
CONTINUOUS
  9
$CECOLOR
 62
   256
  9
$DIMSCALE
 40
1.0
  9
$DIMASZ
 40
2.5
  9
$DIMEXO
 40
1.5
  9
$DIMDLI
 40
3.75
  9
$DIMRND
 40
0.0
  9
$DIMDLE
 40
0.0
  9
$DIMEXE
 40
0.0
  9
$DIMTP
 40
0.0
  9
$DIMTM
 40
0.0
  9
$DIMTXT
 40
2.5
  9
$DIMCEN
 40
2.5
  9
$DIMTSZ
 40
0.0
  9
$DIMTOL
 70
     0
  9
$DIMLIM
 70
     0
  9
$DIMTIH
 70
     0
  9
$DIMTOH
 70
     0
  9
$DIMSE1
 70
     0
  9
$DIMSE2
 70
     0
  9
$DIMTAD
 70
     1
  9
$DIMZIN
 70
     8
  9
$DIMBLK
  1

  9
$DIMASO
 70
     1
  9
$DIMSHO
 70
     1
  9
$DIMPOST
  1

  9
$DIMAPOST
  1

  9
$DIMALT
 70
     0
  9
$DIMALTD
 70
     4
  9
$DIMALTF
 40
0.0394
  9
$DIMLFAC
 40
1.0
  9
$DIMTOFL
 70
     1
  9
$DIMTVP
 40
0.0
  9
$DIMTIX
 70
     0
  9
$DIMSOXD
 70
     0
  9
$DIMSAH
 70
     0
  9
$DIMBLK1
  1

  9
$DIMBLK2
  1

  9
$DIMSTYLE
  2
MXDIMSTYLE
  9
$DIMCLRD
 70
     0
  9
$DIMCLRE
 70
     0
  9
$DIMCLRT
 70
     0
  9
$DIMTFAC
 40
1.0
  9
$DIMGAP
 40
1.0
  9
$LUNITS
 70
     2
  9
$LUPREC
 70
     4
  9
$SKETCHINC
 40
0.1
  9
$FILLETRAD
 40
0.0
  9
$AUNITS
 70
     0
  9
$AUPREC
 70
     0
  9
$MENU
  1
acad
  9
$ELEVATION
 40
0.0
  9
$PELEVATION
 40
0.0
  9
$THICKNESS
 40
0.0
  9
$LIMCHECK
 70
     0
  9
$BLIPMODE
 70
     0
  9
$CHAMFERA
 40
0.0
  9
$CHAMFERB
 40
0.0
  9
$SKPOLY
 70
     0
  9
$TDCREATE
 40
2452006.37162
  9
$TDUPDATE
 40
2452137.897308
  9
$TDINDWG
 40
0.079071
  9
$TDUSRTIMER
 40
0.07907
  9
$USRTIMER
 70
     1
  9
$ANGBASE
 50
0.0
  9
$ANGDIR
 70
     0
  9
$PDMODE
 70
     3
  9
$PDSIZE
 40
-100.0
  9
$PLINEWID
 40
0.0
  9
$COORDS
 70
     0
  9
$SPLFRAME
 70
     0
  9
$SPLINETYPE
 70
     6
  9
$SPLINESEGS
 70
     8
  9
$ATTDIA
 70
     0
  9
$ATTREQ
 70
     1
  9
$HANDLING
 70
     1
  9
$HANDSEED
  5
1A859
  9
$SURFTAB1
 70
     6
  9
$SURFTAB2
 70
     6
  9
$SURFTYPE
 70
     6
  9
$SURFU
 70
     6
  9
$SURFV
 70
     6
  9
$UCSNAME
  2

  9
$UCSORG
 10
0.0
 20
0.0
 30
0.0
  9
$UCSXDIR
 10
1.0
 20
0.0
 30
0.0
  9
$UCSYDIR
 10
0.0
 20
1.0
 30
0.0
  9
$PUCSNAME
  2

  9
$PUCSORG
 10
0.0
 20
0.0
 30
0.0
  9
$PUCSXDIR
 10
1.0
 20
0.0
 30
0.0
  9
$PUCSYDIR
 10
0.0
 20
1.0
 30
0.0
  9
$USERI1
 70
     0
  9
$USERI2
 70
     0
  9
$USERI3
 70
     0
  9
$USERI4
 70
     0
  9
$USERI5
 70
     0
  9
$USERR1
 40
0.0
  9
$USERR2
 40
0.0
  9
$USERR3
 40
0.0
  9
$USERR4
 40
0.0
  9
$USERR5
 40
0.0
  9
$WORLDVIEW
 70
     1
  9
$SHADEDGE
 70
     3
  9
$SHADEDIF
 70
    70
  9
$TILEMODE
 70
     1
  9
$MAXACTVP
 70
    16
  9
$PLIMCHECK
 70
     0
  9
$PEXTMIN
 10
1.000000E+020
 20
1.000000E+020
 30
1.000000E+020
  9
$PEXTMAX
 10
-1.000000E+020
 20
-1.000000E+020
 30
-1.000000E+020
  9
$PLIMMIN
 10
0.0
 20
0.0
  9
$PLIMMAX
 10
12.0
 20
9.0
  9
$UNITMODE
 70
     0
  9
$VISRETAIN
 70
     0
  9
$PLINEGEN
 70
     1
  9
$PSLTSCALE
 70
     0
  0
ENDSEC
  0
SECTION
  2
TABLES
  0
TABLE
  2
VPORT
 70
     2
  0
VPORT
  2
*ACTIVE
 70
     0
 10
0.0
 20
0.0
 11
1.0
 21
1.0
 12
210.002939
 22
148.492688
 13
0.0
 23
0.0
 14
1.0
 24
1.0
 15
0.0
 25
0.0
 16
0.0
 26
0.0
 36
1.0
 17
0.0
 27
0.0
 37
0.0
 40
290.242718
 41
1.867784
 42
50.0
 43
0.0
 44
0.0
 50
0.0
 51
0.0
 71
     0
 72
   100
 73
     1
 74
     0
 75
     0
 76
     0
 77
     0
 78
     0
  0
ENDTAB
  0
TABLE
  2
LTYPE
 70
     3
  0
LTYPE
  2
CONTINUOUS
 70
     0
  3
Solid line
 72
    65
 73
     0
 40
0.0
  0
LTYPE
  2
DASHED
 70
     0
  3
Dashed __ __ __ __ __ __ __ __ __ __ __ __ __ _
 72
    65
 73
     2
 40
19.05
 49
12.7
 49
-6.35
  0
LTYPE
  2
CENTER
 70
     0
  3
Center ____ _ ____ _ ____ _ ____ _ ____ _ ____
 72
    65
 73
     4
 40
50.8
 49
31.75
 49
-6.35
 49
6.35
 49
-6.35
  0
ENDTAB
  0
TABLE
  2
LAYER
 70
     4
  0
LAYER
  2
0
 70
     0
 62
     7
  6
CONTINUOUS
  0
LAYER
  2
SUNPO
 70
     0
 62
     1
  6
CONTINUOUS
  0
LAYER
  2
DANMEN
 70
     0
 62
     7
  6
CONTINUOUS
  0
LAYER
  2
WAKU
 70
     0
 62
     3
  6
CONTINUOUS
  0
ENDTAB
  0
TABLE
  2
STYLE
 70
     2
  0
STYLE
  2
STANDARD
 70
     0
 40
0.0
 41
1.0
 50
0.0
 71
     0
 42
0.2
  3
txt.shx
  4
extfont.shx
  0
STYLE
  2
MX_NOTE_STANDARD
 70
     0
 40
2.5
 41
1.0
 50
0.0
 71
     0
 42
2.5
  3
txt.shx
  4
extfont.shx
  0
ENDTAB
  0
TABLE
  2
VIEW
 70
     0
  0
ENDTAB
  0
TABLE
  2
UCS
 70
     0
  0
ENDTAB
  0
TABLE
  2
APPID
 70
     1
  0
APPID
  2
ACAD
 70
     0
  0
ENDTAB
  0
TABLE
  2
DIMSTYLE
 70
     1
  0
DIMSTYLE
  2
MXDIMSTYLE
 70
     0
  3

  4

  5

  6

  7

 40
1.0
 41
2.5
 42
1.5
 43
3.75
 44
0.0
 45
0.0
 46
0.0
 47
0.0
 48
0.0
140
2.5
141
2.5
142
0.0
143
0.0394
144
1.0
145
0.0
146
1.0
147
1.0
 71
     0
 72
     0
 73
     0
 74
     0
 75
     0
 76
     0
 77
     1
 78
     8
170
     0
171
     4
172
     1
173
     0
174
     0
175
     0
176
     0
177
     0
178
     0
  0
ENDTAB
  0
ENDSEC
  0
SECTION
  2
BLOCKS
  0
BLOCK
  8
0
  2
$MODEL_SPACE
 70
     0
 10
0.0
 20
0.0
 30
0.0
  3
$MODEL_SPACE
  1

  0
ENDBLK
  5
1A2D7
  8
0
  0
BLOCK
 67
     1
  8
0
  2
$PAPER_SPACE
 70
     0
 10
0.0
 20
0.0
 30
0.0
  3
$PAPER_SPACE
  1

  0
ENDBLK
  5
1A2D5
 67
     1
  8
0
  0
BLOCK
  8
0
  2
*U0
 70
     1
 10
0.0
 20
0.0
 30
0.0
  3
*U0
  1

  0
SOLID
  5
DA5C
  8
WAKU
  6
CONTINUOUS
 10
371.305142
 20
283.605291
 30
0.0
 11
370.499782
 21
283.530361
 31
0.0
 12
370.874987
 22
283.520449
 32
0.0
 13
370.874987
 23
283.520449
 33
0.0
  0
SOLID
  5
DA5D
  8
WAKU
  6
CONTINUOUS
 10
370.193309
 20
283.634664
 30
0.0
 11
370.499782
 21
283.530361
 31
0.0
 12
371.305142
 22
283.605291
 32
0.0
 13
371.305142
 23
283.605291
 33
0.0
  0
SOLID
  5
DA5E
  8
WAKU
  6
CONTINUOUS
 10
371.774448
 20
283.781773
 30
0.0
 11
370.193309
 21
283.634664
 31
0.0
 12
371.305142
 22
283.605291
 32
0.0
 13
371.305142
 23
283.605291
 33
0.0
  0
SOLID
  5
DA5F
  8
WAKU
  6
CONTINUOUS
 10
369.966824
 20
283.829526
 30
0.0
 11
370.193309
 21
283.634664
 31
0.0
 12
371.774448
 22
283.781773
 32
0.0
 13
371.774448
 23
283.781773
 33
0.0
  0
SOLID
  5
DA60
  8
WAKU
  6
CONTINUOUS
 10
370.594177
 20
283.909498
 30
0.0
 11
369.966824
 21
283.829526
 31
0.0
 12
371.774448
 22
283.781773
 32
0.0
 13
371.774448
 23
283.781773
 33
0.0
  0
SOLID
  5
DA61
  8
WAKU
  6
CONTINUOUS
 10
370.901294
 20
283.914863
 30
0.0
 11
370.594177
 21
283.909498
 31
0.0
 12
371.774448
 22
283.781773
 32
0.0
 13
371.774448
 23
283.781773
 33
0.0
  0
SOLID
  5
DA62
  8
WAKU
  6
CONTINUOUS
 10
370.392927
 20
283.968568
 30
0.0
 11
369.966824
 21
283.829526
 31
0.0
 12
370.594177
 22
283.909498
 32
0.0
 13
370.594177
 23
283.909498
 33
0.0
  0
SOLID
  5
DA63
  8
WAKU
  6
CONTINUOUS
 10
371.296984
 20
284.010368
 30
0.0
 11
370.901294
 21
283.914863
 31
0.0
 12
371.774448
 22
283.781773
 32
0.0
 13
371.774448
 23
283.781773
 33
0.0
  0
SOLID
  5
DA64
  8
WAKU
  6
CONTINUOUS
 10
372.265666
 20
284.043411
 30
0.0
 11
371.296984
 21
284.010368
 31
0.0
 12
371.774448
 22
283.781773
 32
0.0
 13
371.774448
 23
283.781773
 33
0.0
  0
SOLID
  5
DA65
  8
WAKU
  6
CONTINUOUS
 10
370.275177
 20
284.066476
 30
0.0
 11
369.966824
 21
283.829526
 31
0.0
 12
370.392927
 22
283.968568
 32
0.0
 13
370.392927
 23
283.968568
 33
0.0
  0
SOLID
  5
DA66
  8
WAKU
  6
CONTINUOUS
 10
369.828646
 20
284.107791
 30
0.0
 11
369.966824
 21
283.829526
 31
0.0
 12
370.275177
 22
284.066476
 32
0.0
 13
370.275177
 23
284.066476
 33
0.0
  0
SOLID
  5
DA67
  8
WAKU
  6
CONTINUOUS
 10
370.709458
 20
284.142397
 30
0.0
 11
369.828646
 21
284.107791
 31
0.0
 12
370.275177
 22
284.066476
 32
0.0
 13
370.275177
 23
284.066476
 33
0.0
  0
SOLID
  5
DA68
  8
WAKU
  6
CONTINUOUS
 10
371.751882
 20
284.202798
 30
0.0
 11
371.296984
 21
284.010368
 31
0.0
 12
372.265666
 22
284.043411
 32
0.0
 13
372.265666
 23
284.043411
 33
0.0
  0
SOLID
  5
DA69
  8
WAKU
  6
CONTINUOUS
 10
369.550381
 20
284.245969
 30
0.0
 11
369.828646
 21
284.107791
 31
0.0
 12
370.709458
 22
284.142397
 32
0.0
 13
370.709458
 23
284.142397
 33
0.0
  0
SOLID
  5
DA6A
  8
WAKU
  6
CONTINUOUS
 10
371.186428
 20
284.314625
 30
0.0
 11
369.550381
 21
284.245969
 31
0.0
 12
370.709458
 22
284.142397
 32
0.0
 13
370.709458
 23
284.142397
 33
0.0
  0
SOLID
  5
DA6B
  8
WAKU
  6
CONTINUOUS
 10
372.760756
 20
284.380595
 30
0.0
 11
371.751882
 21
284.202798
 31
0.0
 12
372.265666
 22
284.043411
 32
0.0
 13
372.265666
 23
284.043411
 33
0.0
  0
SOLID
  5
DA6C
  8
WAKU
  6
CONTINUOUS
 10
370.172911
 20
284.451856
 30
0.0
 11
369.550381
 21
284.245969
 31
0.0
 12
371.186428
 22
284.314625
 32
0.0
 13
371.186428
 23
284.314625
 33
0.0
  0
SOLID
  5
DA6D
  8
WAKU
  6
CONTINUOUS
 10
369.355518
 20
284.472454
 30
0.0
 11
369.550381
 21
284.245969
 31
0.0
 12
370.172911
 22
284.451856
 32
0.0
 13
370.172911
 23
284.451856
 33
0.0
  0
SOLID
  5
DA6E
  8
WAKU
  6
CONTINUOUS
 10
372.237497
 20
284.486117
 30
0.0
 11
371.751882
 21
284.202798
 31
0.0
 12
372.760756
 22
284.380595
 32
0.0
 13
372.760756
 23
284.380595
 33
0.0
  0
SOLID
  5
DA6F
  8
WAKU
  6
CONTINUOUS
 10
370.681395
 20
284.539195
 30
0.0
 11
370.172911
 21
284.451856
 31
0.0
 12
371.186428
 22
284.314625
 32
0.0
 13
371.186428
 23
284.314625
 33
0.0
  0
SOLID
  5
DA70
  8
WAKU
  6
CONTINUOUS
 10
369.787305
 20
284.553935
 30
0.0
 11
369.355518
 21
284.472454
 31
0.0
 12
370.172911
 22
284.451856
 32
0.0
 13
370.172911
 23
284.451856
 33
0.0
  0
SOLID
  5
DA71
  8
WAKU
  6
CONTINUOUS
 10
371.68777
 20
284.576545
 30
0.0
 11
370.681395
 21
284.539195
 31
0.0
 12
371.186428
 22
284.314625
 32
0.0
 13
371.186428
 23
284.314625
 33
0.0
  0
SOLID
  5
DA72
  8
WAKU
  6
CONTINUOUS
 10
369.689155
 20
284.672435
 30
0.0
 11
369.355518
 21
284.472454
 31
0.0
 12
369.787305
 22
284.553935
 32
0.0
 13
369.787305
 23
284.553935
 33
0.0
  0
SOLID
  5
DA73
  8
WAKU
  6
CONTINUOUS
 10
369.251215
 20
284.778928
 30
0.0
 11
369.355518
 21
284.472454
 31
0.0
 12
369.689155
 22
284.672435
 32
0.0
 13
369.689155
 23
284.672435
 33
0.0
  0
SOLID
  5
DA74
  8
WAKU
  6
CONTINUOUS
 10
373.241532
 20
284.780941
 30
0.0
 11
372.237497
 21
284.486117
 31
0.0
 12
372.760756
 22
284.380595
 32
0.0
 13
372.760756
 23
284.380595
 33
0.0
  0
SOLID
  5
DA75
  8
WAKU
  6
CONTINUOUS
 10
371.312263
 20
284.810332
 30
0.0
 11
370.681395
 21
284.539195
 31
0.0
 12
371.68777
 22
284.576545
 32
0.0
 13
371.68777
 23
284.576545
 33
0.0
  0
SOLID
  5
DA76
  8
WAKU
  6
CONTINUOUS
 10
369.630358
 20
284.873087
 30
0.0
 11
369.251215
 21
284.778928
 31
0.0
 12
369.689155
 22
284.672435
 32
0.0
 13
369.689155
 23
284.672435
 33
0.0
  0
SOLID
  5
DA77
  8
WAKU
  6
CONTINUOUS
 10
372.194232
 20
284.918099
 30
0.0
 11
371.312263
 21
284.810332
 31
0.0
 12
371.68777
 22
284.576545
 32
0.0
 13
371.68777
 23
284.576545
 33
0.0
  0
SOLID
  5
DA78
  8
WAKU
  6
CONTINUOUS
 10
370.260168
 20
284.959969
 30
0.0
 11
369.787305
 21
284.553935
 31
0.0
 12
370.172911
 22
284.451856
 32
0.0
 13
370.172911
 23
284.451856
 33
0.0
  0
SOLID
  5
DA79
  8
WAKU
  6
CONTINUOUS
 10
369.863139
 20
284.988189
 30
0.0
 11
369.787305
 21
284.553935
 31
0.0
 12
370.260168
 22
284.959969
 32
0.0
 13
370.260168
 23
284.959969
 33
0.0
  0
SOLID
  5
DA7A
  8
WAKU
  6
CONTINUOUS
 10
398.194006
 20
285.115385
 30
0.0
 11
397.606055
 21
283.5
 31
0.0
 12
401.913747
 22
283.5
 32
0.0
 13
401.913747
 23
283.5
 33
0.0
  0
SOLID
  5
DA7B
  8
WAKU
  6
CONTINUOUS
 10
401.913747
 20
283.5
 30
0.0
 11
401.424776
 21
285.115385
 31
0.0
 12
398.194006
 22
285.115385
 32
0.0
 13
398.194006
 23
285.115385
 33
0.0
  0
SOLID
  5
DA7C
  8
WAKU
  6
CONTINUOUS
 10
369.241303
 20
285.154132
 30
0.0
 11
369.251215
 21
284.778928
 31
0.0
 12
369.630358
 22
284.873087
 32
0.0
 13
369.630358
 23
284.873087
 33
0.0
  0
SOLID
  5
DA7D
  8
WAKU
  6
CONTINUOUS
 10
369.635696
 20
285.180404
 30
0.0
 11
369.241303
 21
285.154132
 31
0.0
 12
369.630358
 22
284.873087
 32
0.0
 13
369.630358
 23
284.873087
 33
0.0
  0
SOLID
  5
DA7E
  8
WAKU
  6
CONTINUOUS
 10
373.690335
 20
285.229744
 30
0.0
 11
372.237497
 21
284.486117
 31
0.0
 12
373.241532
 22
284.780941
 32
0.0
 13
373.241532
 23
284.780941
 33
0.0
  0
SOLID
  5
DA7F
  8
WAKU
  6
CONTINUOUS
 10
371.98994
 20
285.251431
 30
0.0
 11
371.312263
 21
284.810332
 31
0.0
 12
372.194232
 22
284.918099
 32
0.0
 13
372.194232
 23
284.918099
 33
0.0
  0
SOLID
  5
DA80
  8
WAKU
  6
CONTINUOUS
 10
373.195965
 20
285.275232
 30
0.0
 11
372.237497
 21
284.486117
 31
0.0
 12
373.690335
 22
285.229744
 32
0.0
 13
373.690335
 23
285.229744
 33
0.0
  0
SOLID
  5
DA81
  8
WAKU
  6
CONTINUOUS
 10
372.686363
 20
285.326171
 30
0.0
 11
371.98994
 21
285.251431
 31
0.0
 12
372.194232
 22
284.918099
 32
0.0
 13
372.194232
 23
284.918099
 33
0.0
  0
SOLID
  5
DA82
  8
WAKU
  6
CONTINUOUS
 10
370.035293
 20
285.465154
 30
0.0
 11
369.863139
 21
284.988189
 31
0.0
 12
370.260168
 22
284.959969
 32
0.0
 13
370.260168
 23
284.959969
 33
0.0
  0
SOLID
  5
DA83
  8
WAKU
  6
CONTINUOUS
 10
369.73149
 20
285.576021
 30
0.0
 11
369.241303
 21
285.154132
 31
0.0
 12
369.635696
 22
285.180404
 32
0.0
 13
369.635696
 23
285.180404
 33
0.0
  0
SOLID
  5
DA84
  8
WAKU
  6
CONTINUOUS
 10
369.326146
 20
285.584287
 30
0.0
 11
369.241303
 21
285.154132
 31
0.0
 12
369.73149
 22
285.576021
 32
0.0
 13
369.73149
 23
285.576021
 33
0.0
  0
SOLID
  5
DA85
  8
WAKU
  6
CONTINUOUS
 10
370.530712
 20
285.590875
 30
0.0
 11
370.035293
 21
285.465154
 31
0.0
 12
370.260168
 22
284.959969
 32
0.0
 13
370.260168
 23
284.959969
 33
0.0
  0
SOLID
  5
DA86
  8
WAKU
  6
CONTINUOUS
 10
389.236144
 20
285.653846
 30
0.0
 11
383.067593
 21
283.5
 31
0.0
 12
388.452208
 22
283.5
 32
0.0
 13
388.452208
 23
283.5
 33
0.0
  0
SOLID
  5
DA87
  8
WAKU
  6
CONTINUOUS
 10
383.851529
 20
285.653846
 30
0.0
 11
383.067593
 21
283.5
 31
0.0
 12
389.236144
 22
285.653846
 32
0.0
 13
389.236144
 23
285.653846
 33
0.0
  0
SOLID
  5
DA88
  8
WAKU
  6
CONTINUOUS
 10
404.851529
 20
285.653846
 30
0.0
 11
404.067593
 21
283.5
 31
0.0
 12
409.452208
 22
283.5
 32
0.0
 13
409.452208
 23
283.5
 33
0.0
  0
SOLID
  5
DA89
  8
WAKU
  6
CONTINUOUS
 10
409.452208
 20
283.5
 30
0.0
 11
409.159221
 21
285.653846
 31
0.0
 12
404.851529
 22
285.653846
 32
0.0
 13
404.851529
 23
285.653846
 33
0.0
  0
SOLID
  5
DA8A
  8
WAKU
  6
CONTINUOUS
 10
391.174606
 20
285.653846
 30
0.0
 11
390.39067
 21
283.5
 31
0.0
 12
395.452208
 22
283.5
 32
0.0
 13
395.452208
 23
283.5
 33
0.0
  0
SOLID
  5
DA8B
  8
WAKU
  6
CONTINUOUS
 10
395.452208
 20
283.5
 30
0.0
 11
395.159221
 21
285.653846
 31
0.0
 12
391.174606
 22
285.653846
 32
0.0
 13
391.174606
 23
285.653846
 33
0.0
  0
SOLID
  5
DA8C
  8
WAKU
  6
CONTINUOUS
 10
374.090681
 20
285.71052
 30
0.0
 11
373.195965
 21
285.275232
 31
0.0
 12
373.690335
 22
285.229744
 32
0.0
 13
373.690335
 23
285.229744
 33
0.0
  0
SOLID
  5
DA8D
  8
WAKU
  6
CONTINUOUS
 10
373.145266
 20
285.785089
 30
0.0
 11
371.98994
 21
285.251431
 31
0.0
 12
372.686363
 22
285.326171
 32
0.0
 13
372.686363
 23
285.326171
 33
0.0
  0
SOLID
  5
DA8E
  8
WAKU
  6
CONTINUOUS
 10
372.646296
 20
285.825506
 30
0.0
 11
371.98994
 21
285.251431
 31
0.0
 12
373.145266
 22
285.785089
 32
0.0
 13
373.145266
 23
285.785089
 33
0.0
  0
SOLID
  5
DA8F
  8
WAKU
  6
CONTINUOUS
 10
370.297156
 20
285.966509
 30
0.0
 11
370.035293
 21
285.465154
 31
0.0
 12
370.530712
 22
285.590875
 32
0.0
 13
370.530712
 23
285.590875
 33
0.0
  0
SOLID
  5
DA90
  8
WAKU
  6
CONTINUOUS
 10
369.923519
 20
286.031028
 30
0.0
 11
369.326146
 21
285.584287
 31
0.0
 12
369.73149
 22
285.576021
 32
0.0
 13
369.73149
 23
285.576021
 33
0.0
  0
SOLID
  5
DA91
  8
WAKU
  6
CONTINUOUS
 10
369.502627
 20
286.053593
 30
0.0
 11
369.326146
 21
285.584287
 31
0.0
 12
369.923519
 22
286.031028
 32
0.0
 13
369.923519
 23
286.031028
 33
0.0
  0
SOLID
  5
DA92
  8
WAKU
  6
CONTINUOUS
 10
379.397145
 20
286.138462
 30
0.0
 11
378.436824
 21
283.5
 31
0.0
 12
379.513747
 22
283.5
 32
0.0
 13
379.513747
 23
283.5
 33
0.0
  0
SOLID
  5
DA93
  8
WAKU
  6
CONTINUOUS
 10
377.155205
 20
286.192308
 30
0.0
 11
376.175285
 21
283.5
 31
0.0
 12
379.397145
 22
286.138462
 32
0.0
 13
379.397145
 23
286.138462
 33
0.0
  0
SOLID
  5
DA94
  8
WAKU
  6
CONTINUOUS
 10
380.493667
 20
286.192308
 30
0.0
 11
377.155205
 21
286.192308
 31
0.0
 12
379.397145
 22
286.138462
 32
0.0
 13
379.397145
 23
286.138462
 33
0.0
  0
SOLID
  5
DA95
  8
WAKU
  6
CONTINUOUS
 10
380.493667
 20
286.192308
 30
0.0
 11
379.397145
 21
286.138462
 31
0.0
 12
379.513747
 22
283.5
 32
0.0
 13
379.513747
 23
283.5
 33
0.0
  0
SOLID
  5
DA96
  8
WAKU
  6
CONTINUOUS
 10
380.493667
 20
286.192308
 30
0.0
 11
381.775285
 21
283.5
 31
0.0
 12
382.755205
 22
286.192308
 32
0.0
 13
382.755205
 23
286.192308
 33
0.0
  0
SOLID
  5
DA97
  8
WAKU
  6
CONTINUOUS
 10
374.427865
 20
286.205609
 30
0.0
 11
373.195965
 21
285.275232
 31
0.0
 12
374.090681
 22
285.71052
 32
0.0
 13
374.090681
 23
285.71052
 33
0.0
  0
SOLID
  5
DA98
  8
WAKU
  6
CONTINUOUS
 10
373.98505
 20
286.233718
 30
0.0
 11
373.195965
 21
285.275232
 31
0.0
 12
374.427865
 22
286.205609
 32
0.0
 13
374.427865
 23
286.205609
 33
0.0
  0
SOLID
  5
DA99
  8
WAKU
  6
CONTINUOUS
 10
370.971896
 20
286.268471
 30
0.0
 11
370.297156
 21
285.966509
 31
0.0
 12
370.530712
 22
285.590875
 32
0.0
 13
370.530712
 23
285.590875
 33
0.0
  0
SOLID
  5
DA9A
  8
WAKU
  6
CONTINUOUS
 10
373.553316
 20
286.277229
 30
0.0
 11
372.646296
 21
285.825506
 31
0.0
 12
373.145266
 22
285.785089
 32
0.0
 13
373.145266
 23
285.785089
 33
0.0
  0
SOLID
  5
DA9B
  8
WAKU
  6
CONTINUOUS
 10
370.638671
 20
286.473
 30
0.0
 11
370.297156
 21
285.966509
 31
0.0
 12
370.971896
 22
286.268471
 32
0.0
 13
370.971896
 23
286.268471
 33
0.0
  0
SOLID
  5
DA9C
  8
WAKU
  6
CONTINUOUS
 10
373.220238
 20
286.48192
 30
0.0
 11
372.646296
 21
285.825506
 31
0.0
 12
373.553316
 22
286.277229
 32
0.0
 13
373.553316
 23
286.277229
 33
0.0
  0
SOLID
  5
DA9D
  8
WAKU
  6
CONTINUOUS
 10
370.207035
 20
286.51657
 30
0.0
 11
369.502627
 21
286.053593
 31
0.0
 12
369.923519
 22
286.031028
 32
0.0
 13
369.923519
 23
286.031028
 33
0.0
  0
SOLID
  5
DA9E
  8
WAKU
  6
CONTINUOUS
 10
369.764265
 20
286.544812
 30
0.0
 11
369.502627
 21
286.053593
 31
0.0
 12
370.207035
 22
286.51657
 32
0.0
 13
370.207035
 23
286.51657
 33
0.0
  0
SOLID
  5
DA9F
  8
WAKU
  6
CONTINUOUS
 10
374.689503
 20
286.696828
 30
0.0
 11
373.98505
 21
286.233718
 31
0.0
 12
374.427865
 22
286.205609
 32
0.0
 13
374.427865
 23
286.205609
 33
0.0
  0
SOLID
  5
DAA0
  8
WAKU
  6
CONTINUOUS
 10
374.268507
 20
286.719278
 30
0.0
 11
373.98505
 21
286.233718
 31
0.0
 12
374.689503
 22
286.696828
 32
0.0
 13
374.689503
 23
286.696828
 33
0.0
  0
SOLID
  5
DAA1
  8
WAKU
  6
CONTINUOUS
 10
373.894843
 20
286.783693
 30
0.0
 11
373.220238
 21
286.48192
 31
0.0
 12
373.553316
 22
286.277229
 32
0.0
 13
373.553316
 23
286.277229
 33
0.0
  0
SOLID
  5
DAA2
  8
WAKU
  6
CONTINUOUS
 10
371.545827
 20
286.924893
 30
0.0
 11
370.638671
 21
286.473
 31
0.0
 12
370.971896
 22
286.268471
 32
0.0
 13
370.971896
 23
286.268471
 33
0.0
  0
SOLID
  5
DAA3
  8
WAKU
  6
CONTINUOUS
 10
371.04672
 20
286.965174
 30
0.0
 11
370.638671
 21
286.473
 31
0.0
 12
371.545827
 22
286.924893
 32
0.0
 13
371.545827
 23
286.924893
 33
0.0
  0
SOLID
  5
DAA4
  8
WAKU
  6
CONTINUOUS
 10
370.101449
 20
287.039901
 30
0.0
 11
369.764265
 21
286.544812
 31
0.0
 12
370.207035
 22
286.51657
 32
0.0
 13
370.207035
 23
286.51657
 33
0.0
  0
SOLID
  5
DAA5
  8
WAKU
  6
CONTINUOUS
 10
373.661353
 20
287.159534
 30
0.0
 11
373.220238
 21
286.48192
 31
0.0
 12
373.894843
 22
286.783693
 32
0.0
 13
373.894843
 23
286.783693
 33
0.0
  0
SOLID
  5
DAA6
  8
WAKU
  6
CONTINUOUS
 10
374.865984
 20
287.166134
 30
0.0
 11
374.268507
 21
286.719278
 31
0.0
 12
374.689503
 22
286.696828
 32
0.0
 13
374.689503
 23
286.696828
 33
0.0
  0
SOLID
  5
DAA7
  8
WAKU
  6
CONTINUOUS
 10
374.46071
 20
287.174248
 30
0.0
 11
374.268507
 21
286.719278
 31
0.0
 12
374.865984
 22
287.166134
 32
0.0
 13
374.865984
 23
287.166134
 33
0.0
  0
SOLID
  5
DAA8
  8
WAKU
  6
CONTINUOUS
 10
374.156732
 20
287.28503
 30
0.0
 11
373.661353
 21
287.159534
 31
0.0
 12
373.894843
 22
286.783693
 32
0.0
 13
373.894843
 23
286.783693
 33
0.0
  0
SOLID
  5
DAA9
  8
WAKU
  6
CONTINUOUS
 10
371.505632
 20
287.424128
 30
0.0
 11
371.04672
 21
286.965174
 31
0.0
 12
371.545827
 22
286.924893
 32
0.0
 13
371.545827
 23
286.924893
 33
0.0
  0
SOLID
  5
DAAA
  8
WAKU
  6
CONTINUOUS
 10
370.996098
 20
287.475108
 30
0.0
 11
370.101449
 21
287.039901
 31
0.0
 12
370.207035
 22
286.51657
 32
0.0
 13
370.207035
 23
286.51657
 33
0.0
  0
SOLID
  5
DAAB
  8
WAKU
  6
CONTINUOUS
 10
372.202181
 20
287.498991
 30
0.0
 11
371.505632
 21
287.424128
 31
0.0
 12
371.545827
 22
286.924893
 32
0.0
 13
371.545827
 23
286.924893
 33
0.0
  0
SOLID
  5
DAAC
  8
WAKU
  6
CONTINUOUS
 10
370.501795
 20
287.520677
 30
0.0
 11
370.101449
 21
287.039901
 31
0.0
 12
370.996098
 22
287.475108
 32
0.0
 13
370.996098
 23
287.475108
 33
0.0
  0
SOLID
  5
DAAD
  8
WAKU
  6
CONTINUOUS
 10
374.556361
 20
287.569864
 30
0.0
 11
374.46071
 21
287.174248
 31
0.0
 12
374.865984
 22
287.166134
 32
0.0
 13
374.865984
 23
287.166134
 33
0.0
  0
SOLID
  5
DAAE
  8
WAKU
  6
CONTINUOUS
 10
395.864763
 20
287.592308
 30
0.0
 11
395.159221
 21
285.653846
 31
0.0
 12
395.452208
 22
283.5
 32
0.0
 13
395.452208
 23
283.5
 33
0.0
  0
SOLID
  5
DAAF
  8
WAKU
  6
CONTINUOUS
 10
393.172456
 20
287.592308
 30
0.0
 11
391.703565
 21
286.515385
 31
0.0
 12
392.780488
 22
286.515385
 32
0.0
 13
392.780488
 23
286.515385
 33
0.0
  0
SOLID
  5
DAB0
  8
WAKU
  6
CONTINUOUS
 10
392.095533
 20
287.592308
 30
0.0
 11
391.703565
 21
286.515385
 31
0.0
 12
393.172456
 22
287.592308
 32
0.0
 13
393.172456
 23
287.592308
 33
0.0
  0
SOLID
  5
DAB1
  8
WAKU
  6
CONTINUOUS
 10
391.28784
 20
287.592308
 30
0.0
 11
392.095533
 21
287.592308
 31
0.0
 12
393.172456
 22
287.592308
 32
0.0
 13
393.172456
 23
287.592308
 33
0.0
  0
SOLID
  5
DAB2
  8
WAKU
  6
CONTINUOUS
 10
391.28784
 20
287.592308
 30
0.0
 11
393.172456
 21
287.592308
 31
0.0
 12
395.864763
 22
287.592308
 32
0.0
 13
395.864763
 23
287.592308
 33
0.0
  0
SOLID
  5
DAB3
  8
WAKU
  6
CONTINUOUS
 10
396.941687
 20
287.592308
 30
0.0
 11
391.28784
 21
287.592308
 31
0.0
 12
395.864763
 22
287.592308
 32
0.0
 13
395.864763
 23
287.592308
 33
0.0
  0
SOLID
  5
DAB4
  8
WAKU
  6
CONTINUOUS
 10
396.941687
 20
287.592308
 30
0.0
 11
395.864763
 21
287.592308
 31
0.0
 12
395.452208
 22
283.5
 32
0.0
 13
395.452208
 23
283.5
 33
0.0
  0
SOLID
  5
DAB5
  8
WAKU
  6
CONTINUOUS
 10
374.950827
 20
287.596289
 30
0.0
 11
374.556361
 21
287.569864
 31
0.0
 12
374.865984
 22
287.166134
 32
0.0
 13
374.865984
 23
287.166134
 33
0.0
  0
SOLID
  5
DAB6
  8
WAKU
  6
CONTINUOUS
 10
374.328925
 20
287.761987
 30
0.0
 11
373.661353
 21
287.159534
 31
0.0
 12
374.156732
 22
287.28503
 32
0.0
 13
374.156732
 23
287.28503
 33
0.0
  0
SOLID
  5
DAB7
  8
WAKU
  6
CONTINUOUS
 10
373.932071
 20
287.790402
 30
0.0
 11
373.661353
 21
287.159534
 31
0.0
 12
374.328925
 22
287.761987
 32
0.0
 13
374.328925
 23
287.761987
 33
0.0
  0
SOLID
  5
DAB8
  8
WAKU
  6
CONTINUOUS
 10
371.997783
 20
287.832235
 30
0.0
 11
371.505632
 21
287.424128
 31
0.0
 12
372.202181
 22
287.498991
 32
0.0
 13
372.202181
 23
287.498991
 33
0.0
  0
SOLID
  5
DAB9
  8
WAKU
  6
CONTINUOUS
 10
374.561802
 20
287.877253
 30
0.0
 11
374.556361
 21
287.569864
 31
0.0
 12
374.950827
 22
287.596289
 32
0.0
 13
374.950827
 23
287.596289
 33
0.0
  0
SOLID
  5
DABA
  8
WAKU
  6
CONTINUOUS
 10
372.879878
 20
287.940057
 30
0.0
 11
371.997783
 21
287.832235
 31
0.0
 12
372.202181
 22
287.498991
 32
0.0
 13
372.202181
 23
287.498991
 33
0.0
  0
SOLID
  5
DABB
  8
WAKU
  6
CONTINUOUS
 10
370.950599
 20
287.96948
 30
0.0
 11
370.501795
 21
287.520677
 31
0.0
 12
370.996098
 22
287.475108
 32
0.0
 13
370.996098
 23
287.475108
 33
0.0
  0
SOLID
  5
DABC
  8
WAKU
  6
CONTINUOUS
 10
374.940915
 20
287.971493
 30
0.0
 11
374.561802
 21
287.877253
 31
0.0
 12
374.950827
 22
287.596289
 32
0.0
 13
374.950827
 23
287.596289
 33
0.0
  0
SOLID
  5
DABD
  8
WAKU
  6
CONTINUOUS
 10
374.502951
 20
288.077918
 30
0.0
 11
374.561802
 21
287.877253
 31
0.0
 12
374.940915
 22
287.971493
 32
0.0
 13
374.940915
 23
287.971493
 33
0.0
  0
SOLID
  5
DABE
  8
WAKU
  6
CONTINUOUS
 10
405.753055
 20
288.130769
 30
0.0
 11
405.282694
 21
286.838462
 31
0.0
 12
408.513463
 22
286.838462
 32
0.0
 13
408.513463
 23
286.838462
 33
0.0
  0
SOLID
  5
DABF
  8
WAKU
  6
CONTINUOUS
 10
408.983824
 20
288.130769
 30
0.0
 11
405.753055
 21
288.130769
 31
0.0
 12
408.513463
 22
286.838462
 32
0.0
 13
408.513463
 23
286.838462
 33
0.0
  0
SOLID
  5
DAC0
  8
WAKU
  6
CONTINUOUS
 10
372.504269
 20
288.173821
 30
0.0
 11
371.997783
 21
287.832235
 31
0.0
 12
372.879878
 22
287.940057
 32
0.0
 13
372.879878
 23
287.940057
 33
0.0
  0
SOLID
  5
DAC1
  8
WAKU
  6
CONTINUOUS
 10
374.40481
 20
288.196249
 30
0.0
 11
373.932071
 21
287.790402
 31
0.0
 12
374.328925
 22
287.761987
 32
0.0
 13
374.328925
 23
287.761987
 33
0.0
  0
SOLID
  5
DAC2
  8
WAKU
  6
CONTINUOUS
 10
374.40481
 20
288.196249
 30
0.0
 11
374.502951
 21
288.077918
 31
0.0
 12
374.940915
 22
287.971493
 32
0.0
 13
374.940915
 23
287.971493
 33
0.0
  0
SOLID
  5
DAC3
  8
WAKU
  6
CONTINUOUS
 10
373.510738
 20
288.21124
 30
0.0
 11
372.504269
 21
288.173821
 31
0.0
 12
372.879878
 22
287.940057
 32
0.0
 13
372.879878
 23
287.940057
 33
0.0
  0
SOLID
  5
DAC4
  8
WAKU
  6
CONTINUOUS
 10
371.954587
 20
288.264284
 30
0.0
 11
370.950599
 21
287.96948
 31
0.0
 12
370.996098
 22
287.475108
 32
0.0
 13
370.996098
 23
287.475108
 33
0.0
  0
SOLID
  5
DAC5
  8
WAKU
  6
CONTINUOUS
 10
374.836612
 20
288.277967
 30
0.0
 11
374.40481
 21
288.196249
 31
0.0
 12
374.940915
 22
287.971493
 32
0.0
 13
374.940915
 23
287.971493
 33
0.0
  0
SOLID
  5
DAC6
  8
WAKU
  6
CONTINUOUS
 10
374.019229
 20
288.298569
 30
0.0
 11
372.504269
 21
288.173821
 31
0.0
 12
373.510738
 22
288.21124
 32
0.0
 13
373.510738
 23
288.21124
 33
0.0
  0
SOLID
  5
DAC7
  8
WAKU
  6
CONTINUOUS
 10
374.019229
 20
288.298569
 30
0.0
 11
374.40481
 21
288.196249
 31
0.0
 12
374.836612
 22
288.277967
 32
0.0
 13
374.836612
 23
288.277967
 33
0.0
  0
SOLID
  5
DAC8
  8
WAKU
  6
CONTINUOUS
 10
374.019229
 20
288.298569
 30
0.0
 11
373.932071
 21
287.790402
 31
0.0
 12
374.40481
 22
288.196249
 32
0.0
 13
374.40481
 23
288.196249
 33
0.0
  0
SOLID
  5
DAC9
  8
WAKU
  6
CONTINUOUS
 10
371.431374
 20
288.369826
 30
0.0
 11
370.950599
 21
287.96948
 31
0.0
 12
371.954587
 22
288.264284
 32
0.0
 13
371.954587
 23
288.264284
 33
0.0
  0
SOLID
  5
DACA
  8
WAKU
  6
CONTINUOUS
 10
373.005639
 20
288.435768
 30
0.0
 11
372.504269
 21
288.173821
 31
0.0
 12
374.019229
 22
288.298569
 32
0.0
 13
374.019229
 23
288.298569
 33
0.0
  0
SOLID
  5
DACB
  8
WAKU
  6
CONTINUOUS
 10
374.641749
 20
288.504452
 30
0.0
 11
373.005639
 21
288.435768
 31
0.0
 12
374.019229
 22
288.298569
 32
0.0
 13
374.019229
 23
288.298569
 33
0.0
  0
SOLID
  5
DACC
  8
WAKU
  6
CONTINUOUS
 10
374.641749
 20
288.504452
 30
0.0
 11
374.019229
 21
288.298569
 31
0.0
 12
374.836612
 22
288.277967
 32
0.0
 13
374.836612
 23
288.277967
 33
0.0
  0
SOLID
  5
DACD
  8
WAKU
  6
CONTINUOUS
 10
372.440235
 20
288.547585
 30
0.0
 11
371.431374
 21
288.369826
 31
0.0
 12
371.954587
 22
288.264284
 32
0.0
 13
371.954587
 23
288.264284
 33
0.0
  0
SOLID
  5
DACE
  8
WAKU
  6
CONTINUOUS
 10
373.482636
 20
288.608014
 30
0.0
 11
373.005639
 21
288.435768
 31
0.0
 12
374.641749
 22
288.504452
 32
0.0
 13
374.641749
 23
288.504452
 33
0.0
  0
SOLID
  5
DACF
  8
WAKU
  6
CONTINUOUS
 10
374.363484
 20
288.64263
 30
0.0
 11
373.482636
 21
288.608014
 31
0.0
 12
374.641749
 22
288.504452
 32
0.0
 13
374.641749
 23
288.504452
 33
0.0
  0
SOLID
  5
DAD0
  8
WAKU
  6
CONTINUOUS
 10
373.916941
 20
288.683944
 30
0.0
 11
373.482636
 21
288.608014
 31
0.0
 12
374.363484
 22
288.64263
 32
0.0
 13
374.363484
 23
288.64263
 33
0.0
  0
SOLID
  5
DAD1
  8
WAKU
  6
CONTINUOUS
 10
371.926464
 20
288.70701
 30
0.0
 11
371.431374
 21
288.369826
 31
0.0
 12
372.440235
 22
288.547585
 32
0.0
 13
372.440235
 23
288.547585
 33
0.0
  0
SOLID
  5
DAD2
  8
WAKU
  6
CONTINUOUS
 10
372.89514
 20
288.740065
 30
0.0
 11
371.926464
 21
288.70701
 31
0.0
 12
372.440235
 22
288.547585
 32
0.0
 13
372.440235
 23
288.547585
 33
0.0
  0
SOLID
  5
DAD3
  8
WAKU
  6
CONTINUOUS
 10
380.311313
 20
288.776923
 30
0.0
 11
377.155205
 21
286.192308
 31
0.0
 12
380.493667
 22
286.192308
 32
0.0
 13
380.493667
 23
286.192308
 33
0.0
  0
SOLID
  5
DAD4
  8
WAKU
  6
CONTINUOUS
 10
381.524851
 20
288.776923
 30
0.0
 11
378.095928
 21
288.776923
 31
0.0
 12
380.311313
 22
288.776923
 32
0.0
 13
380.311313
 23
288.776923
 33
0.0
  0
SOLID
  5
DAD5
  8
WAKU
  6
CONTINUOUS
 10
381.524851
 20
288.776923
 30
0.0
 11
380.311313
 21
288.776923
 31
0.0
 12
380.493667
 22
286.192308
 32
0.0
 13
380.493667
 23
286.192308
 33
0.0
  0
SOLID
  5
DAD6
  8
WAKU
  6
CONTINUOUS
 10
381.524851
 20
288.776923
 30
0.0
 11
380.493667
 21
286.192308
 31
0.0
 12
382.755205
 22
286.192308
 32
0.0
 13
382.755205
 23
286.192308
 33
0.0
  0
SOLID
  5
DAD7
  8
WAKU
  6
CONTINUOUS
 10
373.799148
 20
288.781929
 30
0.0
 11
373.916941
 21
288.683944
 31
0.0
 12
374.363484
 22
288.64263
 32
0.0
 13
374.363484
 23
288.64263
 33
0.0
  0
SOLID
  5
DAD8
  8
WAKU
  6
CONTINUOUS
 10
373.290857
 20
288.835581
 30
0.0
 11
371.926464
 21
288.70701
 31
0.0
 12
372.89514
 22
288.740065
 32
0.0
 13
372.89514
 23
288.740065
 33
0.0
  0
SOLID
  5
DAD9
  8
WAKU
  6
CONTINUOUS
 10
373.597996
 20
288.840902
 30
0.0
 11
373.799148
 21
288.781929
 31
0.0
 12
374.363484
 22
288.64263
 32
0.0
 13
374.363484
 23
288.64263
 33
0.0
  0
SOLID
  5
DADA
  8
WAKU
  6
CONTINUOUS
 10
402.042817
 20
288.884615
 30
0.0
 11
400.181958
 21
286.730769
 31
0.0
 12
401.258881
 22
286.730769
 32
0.0
 13
401.258881
 23
286.730769
 33
0.0
  0
SOLID
  5
DADB
  8
WAKU
  6
CONTINUOUS
 10
402.796663
 20
288.884615
 30
0.0
 11
401.424776
 21
285.115385
 31
0.0
 12
401.913747
 22
283.5
 32
0.0
 13
401.913747
 23
283.5
 33
0.0
  0
SOLID
  5
DADC
  8
WAKU
  6
CONTINUOUS
 10
403.873587
 20
288.884615
 30
0.0
 11
402.796663
 21
288.884615
 31
0.0
 12
401.913747
 22
283.5
 32
0.0
 13
401.913747
 23
283.5
 33
0.0
  0
SOLID
  5
DADD
  8
WAKU
  6
CONTINUOUS
 10
400.965894
 20
288.884615
 30
0.0
 11
400.181958
 21
286.730769
 31
0.0
 12
402.042817
 22
288.884615
 32
0.0
 13
402.042817
 23
288.884615
 33
0.0
  0
SOLID
  5
DADE
  8
WAKU
  6
CONTINUOUS
 10
399.858881
 20
286.730769
 30
0.0
 11
400.642817
 21
288.884615
 31
0.0
 12
399.565894
 22
288.884615
 32
0.0
 13
399.565894
 23
288.884615
 33
0.0
  0
SOLID
  5
DADF
  8
WAKU
  6
CONTINUOUS
 10
399.565894
 20
288.884615
 30
0.0
 11
398.781958
 21
286.730769
 31
0.0
 12
399.858881
 22
286.730769
 32
0.0
 13
399.858881
 23
286.730769
 33
0.0
  0
SOLID
  5
DAE0
  8
WAKU
  6
CONTINUOUS
 10
374.225306
 20
288.920895
 30
0.0
 11
373.597996
 21
288.840902
 31
0.0
 12
374.363484
 22
288.64263
 32
0.0
 13
374.363484
 23
288.64263
 33
0.0
  0
SOLID
  5
DAE1
  8
WAKU
  6
CONTINUOUS
 10
372.417683
 20
288.968648
 30
0.0
 11
373.597996
 21
288.840902
 31
0.0
 12
374.225306
 22
288.920895
 32
0.0
 13
374.225306
 23
288.920895
 33
0.0
  0
SOLID
  5
DAE2
  8
WAKU
  6
CONTINUOUS
 10
372.417683
 20
288.968648
 30
0.0
 11
373.290857
 21
288.835581
 31
0.0
 12
373.597996
 22
288.840902
 32
0.0
 13
373.597996
 23
288.840902
 33
0.0
  0
SOLID
  5
DAE3
  8
WAKU
  6
CONTINUOUS
 10
372.417683
 20
288.968648
 30
0.0
 11
371.926464
 21
288.70701
 31
0.0
 12
373.290857
 22
288.835581
 32
0.0
 13
373.290857
 23
288.835581
 33
0.0
  0
SOLID
  5
DAE4
  8
WAKU
  6
CONTINUOUS
 10
373.998821
 20
289.115757
 30
0.0
 11
372.417683
 21
288.968648
 31
0.0
 12
374.225306
 22
288.920895
 32
0.0
 13
374.225306
 23
288.920895
 33
0.0
  0
SOLID
  5
DAE5
  8
WAKU
  6
CONTINUOUS
 10
372.886988
 20
289.145129
 30
0.0
 11
372.417683
 21
288.968648
 31
0.0
 12
373.998821
 22
289.115757
 32
0.0
 13
373.998821
 23
289.115757
 33
0.0
  0
SOLID
  5
DAE6
  8
WAKU
  6
CONTINUOUS
 10
396.941687
 20
287.592308
 30
0.0
 11
396.452715
 21
289.207692
 31
0.0
 12
393.760408
 22
289.207692
 32
0.0
 13
393.760408
 23
289.207692
 33
0.0
  0
SOLID
  5
DAE7
  8
WAKU
  6
CONTINUOUS
 10
396.452715
 20
289.207692
 30
0.0
 11
396.941687
 21
287.592308
 31
0.0
 12
397.749379
 22
287.592308
 32
0.0
 13
397.749379
 23
287.592308
 33
0.0
  0
SOLID
  5
DAE8
  8
WAKU
  6
CONTINUOUS
 10
393.760408
 20
289.207692
 30
0.0
 11
391.28784
 21
287.592308
 31
0.0
 12
396.941687
 22
287.592308
 32
0.0
 13
396.941687
 23
287.592308
 33
0.0
  0
SOLID
  5
DAE9
  8
WAKU
  6
CONTINUOUS
 10
398.337331
 20
289.207692
 30
0.0
 11
396.452715
 21
289.207692
 31
0.0
 12
397.749379
 22
287.592308
 32
0.0
 13
397.749379
 23
287.592308
 33
0.0
  0
SOLID
  5
DAEA
  8
WAKU
  6
CONTINUOUS
 10
391.875792
 20
289.207692
 30
0.0
 11
391.28784
 21
287.592308
 31
0.0
 12
393.760408
 22
289.207692
 32
0.0
 13
393.760408
 23
289.207692
 33
0.0
  0
SOLID
  5
DAEB
  8
WAKU
  6
CONTINUOUS
 10
393.760408
 20
289.207692
 30
0.0
 11
392.683485
 21
289.207692
 31
0.0
 12
391.875792
 22
289.207692
 32
0.0
 13
391.875792
 23
289.207692
 33
0.0
  0
SOLID
  5
DAEC
  8
WAKU
  6
CONTINUOUS
 10
397.529638
 20
289.207692
 30
0.0
 11
396.452715
 21
289.207692
 31
0.0
 12
398.337331
 22
289.207692
 32
0.0
 13
398.337331
 23
289.207692
 33
0.0
  0
SOLID
  5
DAED
  8
WAKU
  6
CONTINUOUS
 10
373.692348
 20
289.22006
 30
0.0
 11
372.886988
 21
289.145129
 31
0.0
 12
373.998821
 22
289.115757
 32
0.0
 13
373.998821
 23
289.115757
 33
0.0
  0
SOLID
  5
DAEE
  8
WAKU
  6
CONTINUOUS
 10
373.317143
 20
289.229972
 30
0.0
 11
372.886988
 21
289.145129
 31
0.0
 12
373.692348
 22
289.22006
 32
0.0
 13
373.692348
 23
289.22006
 33
0.0
  0
SOLID
  5
DAEF
  8
WAKU
  6
CONTINUOUS
 10
378.723077
 20
290.5
 30
0.0
 11
381.524851
 21
288.776923
 31
0.0
 12
383.695928
 22
288.776923
 32
0.0
 13
383.695928
 23
288.776923
 33
0.0
  0
SOLID
  5
DAF0
  8
WAKU
  6
CONTINUOUS
 10
378.723077
 20
290.5
 30
0.0
 11
378.095928
 21
288.776923
 31
0.0
 12
381.524851
 22
288.776923
 32
0.0
 13
381.524851
 23
288.776923
 33
0.0
  0
SOLID
  5
DAF1
  8
WAKU
  6
CONTINUOUS
 10
372.249053
 20
290.5
 30
0.0
 11
367.971276
 21
290.5
 31
0.0
 12
367.971276
 22
286.222222
 32
0.0
 13
367.971276
 23
286.222222
 33
0.0
  0
SOLID
  5
DAF2
  8
WAKU
  6
CONTINUOUS
 10
409.219005
 20
288.776923
 30
0.0
 11
409.846154
 21
290.5
 31
0.0
 12
406.615385
 22
290.5
 32
0.0
 13
406.615385
 23
290.5
 33
0.0
  0
SOLID
  5
DAF3
  8
WAKU
  6
CONTINUOUS
 10
406.615385
 20
290.5
 30
0.0
 11
405.988236
 21
288.776923
 31
0.0
 12
409.219005
 22
288.776923
 32
0.0
 13
409.219005
 23
288.776923
 33
0.0
  0
SOLID
  5
DAF4
  8
WAKU
  6
CONTINUOUS
 10
392.683485
 20
289.207692
 30
0.0
 11
394.230769
 21
290.5
 31
0.0
 12
393.153846
 22
290.5
 32
0.0
 13
393.153846
 23
290.5
 33
0.0
  0
SOLID
  5
DAF5
  8
WAKU
  6
CONTINUOUS
 10
394.230769
 20
290.5
 30
0.0
 11
392.683485
 21
289.207692
 31
0.0
 12
393.760408
 22
289.207692
 32
0.0
 13
393.760408
 23
289.207692
 33
0.0
  0
SOLID
  5
DAF6
  8
WAKU
  6
CONTINUOUS
 10
409.159221
 20
285.653846
 30
0.0
 11
412.0
 21
290.5
 31
0.0
 12
410.923077
 22
290.5
 32
0.0
 13
410.923077
 23
290.5
 33
0.0
  0
SOLID
  5
DAF7
  8
WAKU
  6
CONTINUOUS
 10
412.0
 20
290.5
 30
0.0
 11
409.159221
 21
285.653846
 31
0.0
 12
409.452208
 22
283.5
 32
0.0
 13
409.452208
 23
283.5
 33
0.0
  0
SOLID
  5
DAF8
  8
WAKU
  6
CONTINUOUS
 10
384.323077
 20
290.5
 30
0.0
 11
378.723077
 21
290.5
 31
0.0
 12
383.695928
 22
288.776923
 32
0.0
 13
383.695928
 23
288.776923
 33
0.0
  0
SOLID
  5
DAF9
  8
WAKU
  6
CONTINUOUS
 10
385.615385
 20
290.5
 30
0.0
 11
384.988236
 21
288.776923
 31
0.0
 12
390.372851
 22
288.776923
 32
0.0
 13
390.372851
 23
288.776923
 33
0.0
  0
SOLID
  5
DAFA
  8
WAKU
  6
CONTINUOUS
 10
396.923077
 20
290.5
 30
0.0
 11
396.452715
 21
289.207692
 31
0.0
 12
397.529638
 22
289.207692
 32
0.0
 13
397.529638
 23
289.207692
 33
0.0
  0
SOLID
  5
DAFB
  8
WAKU
  6
CONTINUOUS
 10
391.0
 20
290.5
 30
0.0
 11
385.615385
 21
290.5
 31
0.0
 12
390.372851
 22
288.776923
 32
0.0
 13
390.372851
 23
288.776923
 33
0.0
  0
SOLID
  5
DAFC
  8
WAKU
  6
CONTINUOUS
 10
398.0
 20
290.5
 30
0.0
 11
396.923077
 21
290.5
 31
0.0
 12
397.529638
 22
289.207692
 32
0.0
 13
397.529638
 23
289.207692
 33
0.0
  0
ENDBLK
  5
DAFD
  8
0
  0
ENDSEC
  0
SECTION
  2
ENTITIES
  0
LINE
  5
DB05
  8
WAKU
 10
415.0
 20
292.0
 30
0.0
 11
415.0
 21
5.0
 31
0.0
  0
LINE
  5
DB06
  8
WAKU
 10
5.0
 20
292.0
 30
0.0
 11
5.0
 21
5.0
 31
0.0
  0
LINE
  5
DB07
  8
WAKU
 10
5.0
 20
5.0
 30
0.0
 11
415.0
 21
5.0
 31
0.0
  0
LINE
  5
DB08
  8
WAKU
 10
5.0
 20
292.0
 30
0.0
 11
415.0
 21
292.0
 31
0.0
  0
LINE
  5
DB09
  8
WAKU
 10
5.0
 20
282.0
 30
0.0
 11
415.0
 21
282.0
 31
0.0
  0
LINE
  5
DB0A
  8
WAKU
  6
CONTINUOUS
 10
393.760408
 20
289.207692
 30
0.0
 11
396.452715
 21
289.207692
 31
0.0
  0
LINE
  5
DB0B
  8
WAKU
  6
CONTINUOUS
 10
393.172456
 20
287.592308
 30
0.0
 11
395.864763
 21
287.592308
 31
0.0
  0
LINE
  5
DB0C
  8
WAKU
  6
CONTINUOUS
 10
390.39067
 20
283.5
 30
0.0
 11
395.452208
 21
283.5
 31
0.0
  0
LINE
  5
DB0D
  8
WAKU
  6
CONTINUOUS
 10
395.159221
 20
285.653846
 30
0.0
 11
395.864763
 21
287.592308
 31
0.0
  0
LINE
  5
DB0E
  8
WAKU
  6
CONTINUOUS
 10
367.971276
 20
290.5
 30
0.0
 11
372.249053
 21
290.5
 31
0.0
  0
LINE
  5
DB0F
  8
WAKU
  6
CONTINUOUS
 10
367.971276
 20
286.222222
 30
0.0
 11
372.249053
 21
290.5
 31
0.0
  0
LINE
  5
DB10
  8
WAKU
  6
CONTINUOUS
 10
367.971276
 20
290.5
 30
0.0
 11
367.971276
 21
286.222222
 31
0.0
  0
LINE
  5
DB11
  8
WAKU
  6
CONTINUOUS
 10
381.524851
 20
288.776923
 30
0.0
 11
383.695928
 21
288.776923
 31
0.0
  0
LINE
  5
DB12
  8
WAKU
  6
CONTINUOUS
 10
378.723077
 20
290.5
 30
0.0
 11
384.323077
 21
290.5
 31
0.0
  0
LINE
  5
DB13
  8
WAKU
  6
CONTINUOUS
 10
380.311313
 20
288.776923
 30
0.0
 11
377.155205
 21
286.192308
 31
0.0
  0
LINE
  5
DB14
  8
WAKU
  6
CONTINUOUS
 10
381.524851
 20
288.776923
 30
0.0
 11
382.755205
 21
286.192308
 31
0.0
  0
LINE
  5
DB15
  8
WAKU
  6
CONTINUOUS
 10
376.175285
 20
283.5
 30
0.0
 11
377.155205
 21
286.192308
 31
0.0
  0
LINE
  5
DB16
  8
WAKU
  6
CONTINUOUS
 10
379.397145
 20
286.138462
 30
0.0
 11
376.175285
 21
283.5
 31
0.0
  0
LINE
  5
DB17
  8
WAKU
  6
CONTINUOUS
 10
381.775285
 20
283.5
 30
0.0
 11
382.755205
 21
286.192308
 31
0.0
  0
LINE
  5
DB18
  8
WAKU
  6
CONTINUOUS
 10
380.493667
 20
286.192308
 30
0.0
 11
381.775285
 21
283.5
 31
0.0
  0
LINE
  5
DB19
  8
WAKU
  6
CONTINUOUS
 10
379.513747
 20
283.5
 30
0.0
 11
380.493667
 21
286.192308
 31
0.0
  0
LINE
  5
DB1A
  8
WAKU
  6
CONTINUOUS
 10
378.436824
 20
283.5
 30
0.0
 11
379.513747
 21
283.5
 31
0.0
  0
LINE
  5
DB1B
  8
WAKU
  6
CONTINUOUS
 10
378.436824
 20
283.5
 30
0.0
 11
379.397145
 21
286.138462
 31
0.0
  0
LINE
  5
DB1C
  8
WAKU
  6
CONTINUOUS
 10
378.095928
 20
288.776923
 30
0.0
 11
380.311313
 21
288.776923
 31
0.0
  0
LINE
  5
DB1D
  8
WAKU
  6
CONTINUOUS
 10
378.723077
 20
290.5
 30
0.0
 11
378.095928
 21
288.776923
 31
0.0
  0
LINE
  5
DB1E
  8
WAKU
  6
CONTINUOUS
 10
392.780488
 20
286.515385
 30
0.0
 11
393.172456
 21
287.592308
 31
0.0
  0
LINE
  5
DB1F
  8
WAKU
  6
CONTINUOUS
 10
391.703565
 20
286.515385
 30
0.0
 11
392.095533
 21
287.592308
 31
0.0
  0
LINE
  5
DB20
  8
WAKU
  6
CONTINUOUS
 10
388.452208
 20
283.5
 30
0.0
 11
389.236144
 21
285.653846
 31
0.0
  0
LINE
  5
DB21
  8
WAKU
  6
CONTINUOUS
 10
383.851529
 20
285.653846
 30
0.0
 11
389.236144
 21
285.653846
 31
0.0
  0
LINE
  5
DB22
  8
WAKU
  6
CONTINUOUS
 10
383.067593
 20
283.5
 30
0.0
 11
383.851529
 21
285.653846
 31
0.0
  0
LINE
  5
DB23
  8
WAKU
  6
CONTINUOUS
 10
383.067593
 20
283.5
 30
0.0
 11
388.452208
 21
283.5
 31
0.0
  0
LINE
  5
DB24
  8
WAKU
  6
CONTINUOUS
 10
391.174606
 20
285.653846
 30
0.0
 11
395.159221
 21
285.653846
 31
0.0
  0
LINE
  5
DB25
  8
WAKU
  6
CONTINUOUS
 10
391.703565
 20
286.515385
 30
0.0
 11
392.780488
 21
286.515385
 31
0.0
  0
LINE
  5
DB26
  8
WAKU
  6
CONTINUOUS
 10
390.39067
 20
283.5
 30
0.0
 11
391.174606
 21
285.653846
 31
0.0
  0
LINE
  5
DB27
  8
WAKU
  6
CONTINUOUS
 10
384.988236
 20
288.776923
 30
0.0
 11
390.372851
 21
288.776923
 31
0.0
  0
LINE
  5
DB28
  8
WAKU
  6
CONTINUOUS
 10
385.615385
 20
290.5
 30
0.0
 11
391.0
 21
290.5
 31
0.0
  0
LINE
  5
DB29
  8
WAKU
  6
CONTINUOUS
 10
384.988236
 20
288.776923
 30
0.0
 11
385.615385
 21
290.5
 31
0.0
  0
LINE
  5
DB2A
  8
WAKU
  6
CONTINUOUS
 10
384.323077
 20
290.5
 30
0.0
 11
383.695928
 21
288.776923
 31
0.0
  0
LINE
  5
DB2B
  8
WAKU
  6
CONTINUOUS
 10
393.153846
 20
290.5
 30
0.0
 11
394.230769
 21
290.5
 31
0.0
  0
LINE
  5
DB2C
  8
WAKU
  6
CONTINUOUS
 10
393.760408
 20
289.207692
 30
0.0
 11
394.230769
 21
290.5
 31
0.0
  0
LINE
  5
DB2D
  8
WAKU
  6
CONTINUOUS
 10
391.875792
 20
289.207692
 30
0.0
 11
392.683485
 21
289.207692
 31
0.0
  0
LINE
  5
DB2E
  8
WAKU
  6
CONTINUOUS
 10
391.28784
 20
287.592308
 30
0.0
 11
392.095533
 21
287.592308
 31
0.0
  0
LINE
  5
DB2F
  8
WAKU
  6
CONTINUOUS
 10
391.28784
 20
287.592308
 30
0.0
 11
391.875792
 21
289.207692
 31
0.0
  0
LINE
  5
DB30
  8
WAKU
  6
CONTINUOUS
 10
392.683485
 20
289.207692
 30
0.0
 11
393.153846
 21
290.5
 31
0.0
  0
LINE
  5
DB31
  8
WAKU
  6
CONTINUOUS
 10
390.372851
 20
288.776923
 30
0.0
 11
391.0
 21
290.5
 31
0.0
  0
LINE
  5
DB32
  8
WAKU
  6
CONTINUOUS
 10
405.753055
 20
288.130769
 30
0.0
 11
408.983824
 21
288.130769
 31
0.0
  0
LINE
  5
DB33
  8
WAKU
  6
CONTINUOUS
 10
405.282694
 20
286.838462
 30
0.0
 11
408.513463
 21
286.838462
 31
0.0
  0
LINE
  5
DB34
  8
WAKU
  6
CONTINUOUS
 10
409.452208
 20
283.5
 30
0.0
 11
404.067593
 21
283.5
 31
0.0
  0
LINE
  5
DB35
  8
WAKU
  6
CONTINUOUS
 10
404.851529
 20
285.653846
 30
0.0
 11
409.159221
 21
285.653846
 31
0.0
  0
LINE
  5
DB36
  8
WAKU
  6
CONTINUOUS
 10
405.988236
 20
288.776923
 30
0.0
 11
409.219005
 21
288.776923
 31
0.0
  0
LINE
  5
DB37
  8
WAKU
  6
CONTINUOUS
 10
406.615385
 20
290.5
 30
0.0
 11
409.846154
 21
290.5
 31
0.0
  0
LINE
  5
DB38
  8
WAKU
  6
CONTINUOUS
 10
398.781958
 20
286.730769
 30
0.0
 11
399.565894
 21
288.884615
 31
0.0
  0
LINE
  5
DB39
  8
WAKU
  6
CONTINUOUS
 10
400.181958
 20
286.730769
 30
0.0
 11
400.965894
 21
288.884615
 31
0.0
  0
LINE
  5
DB3A
  8
WAKU
  6
CONTINUOUS
 10
399.858881
 20
286.730769
 30
0.0
 11
400.642817
 21
288.884615
 31
0.0
  0
LINE
  5
DB3B
  8
WAKU
  6
CONTINUOUS
 10
401.258881
 20
286.730769
 30
0.0
 11
402.042817
 21
288.884615
 31
0.0
  0
LINE
  5
DB3C
  8
WAKU
  6
CONTINUOUS
 10
401.913747
 20
283.5
 30
0.0
 11
403.873587
 21
288.884615
 31
0.0
  0
LINE
  5
DB3D
  8
WAKU
  6
CONTINUOUS
 10
401.424776
 20
285.115385
 30
0.0
 11
402.796663
 21
288.884615
 31
0.0
  0
LINE
  5
DB3E
  8
WAKU
  6
CONTINUOUS
 10
395.452208
 20
283.5
 30
0.0
 11
396.941687
 21
287.592308
 31
0.0
  0
LINE
  5
DB3F
  8
WAKU
  6
CONTINUOUS
 10
397.606055
 20
283.5
 30
0.0
 11
401.913747
 21
283.5
 31
0.0
  0
LINE
  5
DB40
  8
WAKU
  6
CONTINUOUS
 10
398.781958
 20
286.730769
 30
0.0
 11
399.858881
 21
286.730769
 31
0.0
  0
LINE
  5
DB41
  8
WAKU
  6
CONTINUOUS
 10
398.194006
 20
285.115385
 30
0.0
 11
401.424776
 21
285.115385
 31
0.0
  0
LINE
  5
DB42
  8
WAKU
  6
CONTINUOUS
 10
397.606055
 20
283.5
 30
0.0
 11
398.194006
 21
285.115385
 31
0.0
  0
LINE
  5
DB43
  8
WAKU
  6
CONTINUOUS
 10
400.181958
 20
286.730769
 30
0.0
 11
401.258881
 21
286.730769
 31
0.0
  0
LINE
  5
DB44
  8
WAKU
  6
CONTINUOUS
 10
404.067593
 20
283.5
 30
0.0
 11
404.851529
 21
285.653846
 31
0.0
  0
LINE
  5
DB45
  8
WAKU
  6
CONTINUOUS
 10
400.965894
 20
288.884615
 30
0.0
 11
402.042817
 21
288.884615
 31
0.0
  0
LINE
  5
DB46
  8
WAKU
  6
CONTINUOUS
 10
396.923077
 20
290.5
 30
0.0
 11
398.0
 21
290.5
 31
0.0
  0
LINE
  5
DB47
  8
WAKU
  6
CONTINUOUS
 10
397.529638
 20
289.207692
 30
0.0
 11
398.0
 21
290.5
 31
0.0
  0
LINE
  5
DB48
  8
WAKU
  6
CONTINUOUS
 10
397.529638
 20
289.207692
 30
0.0
 11
398.337331
 21
289.207692
 31
0.0
  0
LINE
  5
DB49
  8
WAKU
  6
CONTINUOUS
 10
396.941687
 20
287.592308
 30
0.0
 11
397.749379
 21
287.592308
 31
0.0
  0
LINE
  5
DB4A
  8
WAKU
  6
CONTINUOUS
 10
397.749379
 20
287.592308
 30
0.0
 11
398.337331
 21
289.207692
 31
0.0
  0
LINE
  5
DB4B
  8
WAKU
  6
CONTINUOUS
 10
399.565894
 20
288.884615
 30
0.0
 11
400.642817
 21
288.884615
 31
0.0
  0
LINE
  5
DB4C
  8
WAKU
  6
CONTINUOUS
 10
396.452715
 20
289.207692
 30
0.0
 11
396.923077
 21
290.5
 31
0.0
  0
LINE
  5
DB4D
  8
WAKU
  6
CONTINUOUS
 10
406.615385
 20
290.5
 30
0.0
 11
405.988236
 21
288.776923
 31
0.0
  0
LINE
  5
DB4E
  8
WAKU
  6
CONTINUOUS
 10
405.753055
 20
288.130769
 30
0.0
 11
405.282694
 21
286.838462
 31
0.0
  0
LINE
  5
DB4F
  8
WAKU
  6
CONTINUOUS
 10
402.796663
 20
288.884615
 30
0.0
 11
403.873587
 21
288.884615
 31
0.0
  0
LINE
  5
DB50
  8
WAKU
  6
CONTINUOUS
 10
409.159221
 20
285.653846
 30
0.0
 11
410.923077
 21
290.5
 31
0.0
  0
LINE
  5
DB51
  8
WAKU
  6
CONTINUOUS
 10
409.452208
 20
283.5
 30
0.0
 11
412.0
 21
290.5
 31
0.0
  0
LINE
  5
DB52
  8
WAKU
  6
CONTINUOUS
 10
409.219005
 20
288.776923
 30
0.0
 11
409.846154
 21
290.5
 31
0.0
  0
LINE
  5
DB53
  8
WAKU
  6
CONTINUOUS
 10
410.923077
 20
290.5
 30
0.0
 11
412.0
 21
290.5
 31
0.0
  0
LINE
  5
DB54
  8
WAKU
  6
CONTINUOUS
 10
408.513463
 20
286.838462
 30
0.0
 11
408.983824
 21
288.130769
 31
0.0
  0
LINE
  5
DB55
  8
WAKU
  6
CONTINUOUS
 10
369.828646
 20
284.107791
 30
0.0
 11
369.966824
 21
283.829526
 31
0.0
  0
LINE
  5
DB56
  8
WAKU
  6
CONTINUOUS
 10
369.966824
 20
283.829526
 30
0.0
 11
370.193309
 21
283.634664
 31
0.0
  0
LINE
  5
DB57
  8
WAKU
  6
CONTINUOUS
 10
370.193309
 20
283.634664
 30
0.0
 11
370.499782
 21
283.530361
 31
0.0
  0
LINE
  5
DB58
  8
WAKU
  6
CONTINUOUS
 10
370.499782
 20
283.530361
 30
0.0
 11
370.874987
 21
283.520449
 31
0.0
  0
LINE
  5
DB59
  8
WAKU
  6
CONTINUOUS
 10
370.874987
 20
283.520449
 30
0.0
 11
371.305142
 21
283.605291
 31
0.0
  0
LINE
  5
DB5A
  8
WAKU
  6
CONTINUOUS
 10
371.305142
 20
283.605291
 30
0.0
 11
371.774448
 21
283.781773
 31
0.0
  0
LINE
  5
DB5B
  8
WAKU
  6
CONTINUOUS
 10
371.774448
 20
283.781773
 30
0.0
 11
372.265666
 21
284.043411
 31
0.0
  0
LINE
  5
DB5C
  8
WAKU
  6
CONTINUOUS
 10
372.265666
 20
284.043411
 30
0.0
 11
372.760756
 21
284.380595
 31
0.0
  0
LINE
  5
DB5D
  8
WAKU
  6
CONTINUOUS
 10
372.760756
 20
284.380595
 30
0.0
 11
373.241532
 21
284.780941
 31
0.0
  0
LINE
  5
DB5E
  8
WAKU
  6
CONTINUOUS
 10
373.241532
 20
284.780941
 30
0.0
 11
373.690335
 21
285.229744
 31
0.0
  0
LINE
  5
DB5F
  8
WAKU
  6
CONTINUOUS
 10
373.690335
 20
285.229744
 30
0.0
 11
374.090681
 21
285.71052
 31
0.0
  0
LINE
  5
DB60
  8
WAKU
  6
CONTINUOUS
 10
374.090681
 20
285.71052
 30
0.0
 11
374.427865
 21
286.205609
 31
0.0
  0
LINE
  5
DB61
  8
WAKU
  6
CONTINUOUS
 10
374.427865
 20
286.205609
 30
0.0
 11
374.689503
 21
286.696828
 31
0.0
  0
LINE
  5
DB62
  8
WAKU
  6
CONTINUOUS
 10
374.689503
 20
286.696828
 30
0.0
 11
374.865984
 21
287.166134
 31
0.0
  0
LINE
  5
DB63
  8
WAKU
  6
CONTINUOUS
 10
374.865984
 20
287.166134
 30
0.0
 11
374.950827
 21
287.596289
 31
0.0
  0
LINE
  5
DB64
  8
WAKU
  6
CONTINUOUS
 10
374.950827
 20
287.596289
 30
0.0
 11
374.940915
 21
287.971493
 31
0.0
  0
LINE
  5
DB65
  8
WAKU
  6
CONTINUOUS
 10
374.940915
 20
287.971493
 30
0.0
 11
374.836612
 21
288.277967
 31
0.0
  0
LINE
  5
DB66
  8
WAKU
  6
CONTINUOUS
 10
374.836612
 20
288.277967
 30
0.0
 11
374.641749
 21
288.504452
 31
0.0
  0
LINE
  5
DB67
  8
WAKU
  6
CONTINUOUS
 10
374.641749
 20
288.504452
 30
0.0
 11
374.363484
 21
288.64263
 31
0.0
  0
LINE
  5
DB68
  8
WAKU
  6
CONTINUOUS
 10
373.916941
 20
288.683944
 30
0.0
 11
373.482636
 21
288.608014
 31
0.0
  0
LINE
  5
DB69
  8
WAKU
  6
CONTINUOUS
 10
373.482636
 20
288.608014
 30
0.0
 11
373.005639
 21
288.435768
 31
0.0
  0
LINE
  5
DB6A
  8
WAKU
  6
CONTINUOUS
 10
373.005639
 20
288.435768
 30
0.0
 11
372.504269
 21
288.173821
 31
0.0
  0
LINE
  5
DB6B
  8
WAKU
  6
CONTINUOUS
 10
372.504269
 20
288.173821
 30
0.0
 11
371.997783
 21
287.832235
 31
0.0
  0
LINE
  5
DB6C
  8
WAKU
  6
CONTINUOUS
 10
371.997783
 20
287.832235
 30
0.0
 11
371.505632
 21
287.424128
 31
0.0
  0
LINE
  5
DB6D
  8
WAKU
  6
CONTINUOUS
 10
371.505632
 20
287.424128
 30
0.0
 11
371.04672
 21
286.965174
 31
0.0
  0
LINE
  5
DB6E
  8
WAKU
  6
CONTINUOUS
 10
371.04672
 20
286.965174
 30
0.0
 11
370.638671
 21
286.473
 31
0.0
  0
LINE
  5
DB6F
  8
WAKU
  6
CONTINUOUS
 10
370.638671
 20
286.473
 30
0.0
 11
370.297156
 21
285.966509
 31
0.0
  0
LINE
  5
DB70
  8
WAKU
  6
CONTINUOUS
 10
370.297156
 20
285.966509
 30
0.0
 11
370.035293
 21
285.465154
 31
0.0
  0
LINE
  5
DB71
  8
WAKU
  6
CONTINUOUS
 10
370.035293
 20
285.465154
 30
0.0
 11
369.863139
 21
284.988189
 31
0.0
  0
LINE
  5
DB72
  8
WAKU
  6
CONTINUOUS
 10
369.863139
 20
284.988189
 30
0.0
 11
369.787305
 21
284.553935
 31
0.0
  0
LINE
  5
DB73
  8
WAKU
  6
CONTINUOUS
 10
370.172911
 20
284.451856
 30
0.0
 11
370.681395
 21
284.539195
 31
0.0
  0
LINE
  5
DB74
  8
WAKU
  6
CONTINUOUS
 10
370.681395
 20
284.539195
 30
0.0
 11
371.312263
 21
284.810332
 31
0.0
  0
LINE
  5
DB75
  8
WAKU
  6
CONTINUOUS
 10
371.312263
 20
284.810332
 30
0.0
 11
371.98994
 21
285.251431
 31
0.0
  0
LINE
  5
DB76
  8
WAKU
  6
CONTINUOUS
 10
371.98994
 20
285.251431
 30
0.0
 11
372.646296
 21
285.825506
 31
0.0
  0
LINE
  5
DB77
  8
WAKU
  6
CONTINUOUS
 10
372.646296
 20
285.825506
 30
0.0
 11
373.220238
 21
286.48192
 31
0.0
  0
LINE
  5
DB78
  8
WAKU
  6
CONTINUOUS
 10
373.220238
 20
286.48192
 30
0.0
 11
373.661353
 21
287.159534
 31
0.0
  0
LINE
  5
DB79
  8
WAKU
  6
CONTINUOUS
 10
373.661353
 20
287.159534
 30
0.0
 11
373.932071
 21
287.790402
 31
0.0
  0
LINE
  5
DB7A
  8
WAKU
  6
CONTINUOUS
 10
373.932071
 20
287.790402
 30
0.0
 11
374.019229
 21
288.298569
 31
0.0
  0
LINE
  5
DB7B
  8
WAKU
  6
CONTINUOUS
 10
373.916941
 20
288.683944
 30
0.0
 11
373.799148
 21
288.781929
 31
0.0
  0
LINE
  5
DB7C
  8
WAKU
  6
CONTINUOUS
 10
373.799148
 20
288.781929
 30
0.0
 11
373.597996
 21
288.840902
 31
0.0
  0
LINE
  5
DB7D
  8
WAKU
  6
CONTINUOUS
 10
373.597996
 20
288.840902
 30
0.0
 11
373.290857
 21
288.835581
 31
0.0
  0
LINE
  5
DB7E
  8
WAKU
  6
CONTINUOUS
 10
373.290857
 20
288.835581
 30
0.0
 11
372.89514
 21
288.740065
 31
0.0
  0
LINE
  5
DB7F
  8
WAKU
  6
CONTINUOUS
 10
372.89514
 20
288.740065
 30
0.0
 11
372.440235
 21
288.547585
 31
0.0
  0
LINE
  5
DB80
  8
WAKU
  6
CONTINUOUS
 10
372.440235
 20
288.547585
 30
0.0
 11
371.954587
 21
288.264284
 31
0.0
  0
LINE
  5
DB81
  8
WAKU
  6
CONTINUOUS
 10
371.954587
 20
288.264284
 30
0.0
 11
370.996098
 21
287.475108
 31
0.0
  0
LINE
  5
DB82
  8
WAKU
  6
CONTINUOUS
 10
370.996098
 20
287.475108
 30
0.0
 11
370.207035
 21
286.51657
 31
0.0
  0
LINE
  5
DB83
  8
WAKU
  6
CONTINUOUS
 10
370.207035
 20
286.51657
 30
0.0
 11
369.923519
 21
286.031028
 31
0.0
  0
LINE
  5
DB84
  8
WAKU
  6
CONTINUOUS
 10
369.923519
 20
286.031028
 30
0.0
 11
369.73149
 21
285.576021
 31
0.0
  0
LINE
  5
DB85
  8
WAKU
  6
CONTINUOUS
 10
369.73149
 20
285.576021
 30
0.0
 11
369.635696
 21
285.180404
 31
0.0
  0
LINE
  5
DB86
  8
WAKU
  6
CONTINUOUS
 10
369.635696
 20
285.180404
 30
0.0
 11
369.630358
 21
284.873087
 31
0.0
  0
LINE
  5
DB87
  8
WAKU
  6
CONTINUOUS
 10
369.630358
 20
284.873087
 30
0.0
 11
369.689155
 21
284.672435
 31
0.0
  0
LINE
  5
DB88
  8
WAKU
  6
CONTINUOUS
 10
369.689155
 20
284.672435
 30
0.0
 11
369.787305
 21
284.553935
 31
0.0
  0
LINE
  5
DB89
  8
WAKU
  6
CONTINUOUS
 10
370.275177
 20
284.066476
 30
0.0
 11
370.392927
 21
283.968568
 31
0.0
  0
LINE
  5
DB8A
  8
WAKU
  6
CONTINUOUS
 10
370.392927
 20
283.968568
 30
0.0
 11
370.594177
 21
283.909498
 31
0.0
  0
LINE
  5
DB8B
  8
WAKU
  6
CONTINUOUS
 10
370.594177
 20
283.909498
 30
0.0
 11
370.901294
 21
283.914863
 31
0.0
  0
LINE
  5
DB8C
  8
WAKU
  6
CONTINUOUS
 10
370.901294
 20
283.914863
 30
0.0
 11
371.296984
 21
284.010368
 31
0.0
  0
LINE
  5
DB8D
  8
WAKU
  6
CONTINUOUS
 10
371.296984
 20
284.010368
 30
0.0
 11
371.751882
 21
284.202798
 31
0.0
  0
LINE
  5
DB8E
  8
WAKU
  6
CONTINUOUS
 10
371.751882
 20
284.202798
 30
0.0
 11
372.237497
 21
284.486117
 31
0.0
  0
LINE
  5
DB8F
  8
WAKU
  6
CONTINUOUS
 10
372.237497
 20
284.486117
 30
0.0
 11
373.195965
 21
285.275232
 31
0.0
  0
LINE
  5
DB90
  8
WAKU
  6
CONTINUOUS
 10
373.195965
 20
285.275232
 30
0.0
 11
373.98505
 21
286.233718
 31
0.0
  0
LINE
  5
DB91
  8
WAKU
  6
CONTINUOUS
 10
373.98505
 20
286.233718
 30
0.0
 11
374.268507
 21
286.719278
 31
0.0
  0
LINE
  5
DB92
  8
WAKU
  6
CONTINUOUS
 10
374.268507
 20
286.719278
 30
0.0
 11
374.46071
 21
287.174248
 31
0.0
  0
LINE
  5
DB93
  8
WAKU
  6
CONTINUOUS
 10
374.46071
 20
287.174248
 30
0.0
 11
374.556361
 21
287.569864
 31
0.0
  0
LINE
  5
DB94
  8
WAKU
  6
CONTINUOUS
 10
374.556361
 20
287.569864
 30
0.0
 11
374.561802
 21
287.877253
 31
0.0
  0
LINE
  5
DB95
  8
WAKU
  6
CONTINUOUS
 10
374.561802
 20
287.877253
 30
0.0
 11
374.502951
 21
288.077918
 31
0.0
  0
LINE
  5
DB96
  8
WAKU
  6
CONTINUOUS
 10
374.502951
 20
288.077918
 30
0.0
 11
374.40481
 21
288.196249
 31
0.0
  0
LINE
  5
DB97
  8
WAKU
  6
CONTINUOUS
 10
374.019229
 20
288.298569
 30
0.0
 11
373.510738
 21
288.21124
 31
0.0
  0
LINE
  5
DB98
  8
WAKU
  6
CONTINUOUS
 10
373.510738
 20
288.21124
 30
0.0
 11
372.879878
 21
287.940057
 31
0.0
  0
LINE
  5
DB99
  8
WAKU
  6
CONTINUOUS
 10
372.879878
 20
287.940057
 30
0.0
 11
372.202181
 21
287.498991
 31
0.0
  0
LINE
  5
DB9A
  8
WAKU
  6
CONTINUOUS
 10
372.202181
 20
287.498991
 30
0.0
 11
371.545827
 21
286.924893
 31
0.0
  0
LINE
  5
DB9B
  8
WAKU
  6
CONTINUOUS
 10
371.545827
 20
286.924893
 30
0.0
 11
370.971896
 21
286.268471
 31
0.0
  0
LINE
  5
DB9C
  8
WAKU
  6
CONTINUOUS
 10
370.971896
 20
286.268471
 30
0.0
 11
370.530712
 21
285.590875
 31
0.0
  0
LINE
  5
DB9D
  8
WAKU
  6
CONTINUOUS
 10
370.530712
 20
285.590875
 30
0.0
 11
370.260168
 21
284.959969
 31
0.0
  0
LINE
  5
DB9E
  8
WAKU
  6
CONTINUOUS
 10
370.260168
 20
284.959969
 30
0.0
 11
370.172911
 21
284.451856
 31
0.0
  0
LINE
  5
DB9F
  8
WAKU
  6
CONTINUOUS
 10
370.275177
 20
284.066476
 30
0.0
 11
370.709458
 21
284.142397
 31
0.0
  0
LINE
  5
DBA0
  8
WAKU
  6
CONTINUOUS
 10
370.709458
 20
284.142397
 30
0.0
 11
371.186428
 21
284.314625
 31
0.0
  0
LINE
  5
DBA1
  8
WAKU
  6
CONTINUOUS
 10
371.186428
 20
284.314625
 30
0.0
 11
371.68777
 21
284.576545
 31
0.0
  0
LINE
  5
DBA2
  8
WAKU
  6
CONTINUOUS
 10
371.68777
 20
284.576545
 30
0.0
 11
372.194232
 21
284.918099
 31
0.0
  0
LINE
  5
DBA3
  8
WAKU
  6
CONTINUOUS
 10
372.194232
 20
284.918099
 30
0.0
 11
372.686363
 21
285.326171
 31
0.0
  0
LINE
  5
DBA4
  8
WAKU
  6
CONTINUOUS
 10
372.686363
 20
285.326171
 30
0.0
 11
373.145266
 21
285.785089
 31
0.0
  0
LINE
  5
DBA5
  8
WAKU
  6
CONTINUOUS
 10
373.145266
 20
285.785089
 30
0.0
 11
373.553316
 21
286.277229
 31
0.0
  0
LINE
  5
DBA6
  8
WAKU
  6
CONTINUOUS
 10
373.553316
 20
286.277229
 30
0.0
 11
373.894843
 21
286.783693
 31
0.0
  0
LINE
  5
DBA7
  8
WAKU
  6
CONTINUOUS
 10
373.894843
 20
286.783693
 30
0.0
 11
374.156732
 21
287.28503
 31
0.0
  0
LINE
  5
DBA8
  8
WAKU
  6
CONTINUOUS
 10
374.156732
 20
287.28503
 30
0.0
 11
374.328925
 21
287.761987
 31
0.0
  0
LINE
  5
DBA9
  8
WAKU
  6
CONTINUOUS
 10
374.328925
 20
287.761987
 30
0.0
 11
374.40481
 21
288.196249
 31
0.0
  0
LINE
  5
DBAA
  8
WAKU
  6
CONTINUOUS
 10
374.363484
 20
288.64263
 30
0.0
 11
374.225306
 21
288.920895
 31
0.0
  0
LINE
  5
DBAB
  8
WAKU
  6
CONTINUOUS
 10
374.225306
 20
288.920895
 30
0.0
 11
373.998821
 21
289.115757
 31
0.0
  0
LINE
  5
DBAC
  8
WAKU
  6
CONTINUOUS
 10
373.998821
 20
289.115757
 30
0.0
 11
373.692348
 21
289.22006
 31
0.0
  0
LINE
  5
DBAD
  8
WAKU
  6
CONTINUOUS
 10
373.692348
 20
289.22006
 30
0.0
 11
373.317143
 21
289.229972
 31
0.0
  0
LINE
  5
DBAE
  8
WAKU
  6
CONTINUOUS
 10
373.317143
 20
289.229972
 30
0.0
 11
372.886988
 21
289.145129
 31
0.0
  0
LINE
  5
DBAF
  8
WAKU
  6
CONTINUOUS
 10
372.886988
 20
289.145129
 30
0.0
 11
372.417683
 21
288.968648
 31
0.0
  0
LINE
  5
DBB0
  8
WAKU
  6
CONTINUOUS
 10
372.417683
 20
288.968648
 30
0.0
 11
371.926464
 21
288.70701
 31
0.0
  0
LINE
  5
DBB1
  8
WAKU
  6
CONTINUOUS
 10
371.926464
 20
288.70701
 30
0.0
 11
371.431374
 21
288.369826
 31
0.0
  0
LINE
  5
DBB2
  8
WAKU
  6
CONTINUOUS
 10
371.431374
 20
288.369826
 30
0.0
 11
370.950599
 21
287.96948
 31
0.0
  0
LINE
  5
DBB3
  8
WAKU
  6
CONTINUOUS
 10
370.950599
 20
287.96948
 30
0.0
 11
370.501795
 21
287.520677
 31
0.0
  0
LINE
  5
DBB4
  8
WAKU
  6
CONTINUOUS
 10
370.501795
 20
287.520677
 30
0.0
 11
370.101449
 21
287.039901
 31
0.0
  0
LINE
  5
DBB5
  8
WAKU
  6
CONTINUOUS
 10
370.101449
 20
287.039901
 30
0.0
 11
369.764265
 21
286.544812
 31
0.0
  0
LINE
  5
DBB6
  8
WAKU
  6
CONTINUOUS
 10
369.764265
 20
286.544812
 30
0.0
 11
369.502627
 21
286.053593
 31
0.0
  0
LINE
  5
DBB7
  8
WAKU
  6
CONTINUOUS
 10
369.502627
 20
286.053593
 30
0.0
 11
369.326146
 21
285.584287
 31
0.0
  0
LINE
  5
DBB8
  8
WAKU
  6
CONTINUOUS
 10
369.326146
 20
285.584287
 30
0.0
 11
369.241303
 21
285.154132
 31
0.0
  0
LINE
  5
DBB9
  8
WAKU
  6
CONTINUOUS
 10
369.241303
 20
285.154132
 30
0.0
 11
369.251215
 21
284.778928
 31
0.0
  0
LINE
  5
DBBA
  8
WAKU
  6
CONTINUOUS
 10
369.251215
 20
284.778928
 30
0.0
 11
369.355518
 21
284.472454
 31
0.0
  0
LINE
  5
DBBB
  8
WAKU
  6
CONTINUOUS
 10
369.355518
 20
284.472454
 30
0.0
 11
369.550381
 21
284.245969
 31
0.0
  0
LINE
  5
DBBC
  8
WAKU
  6
CONTINUOUS
 10
369.550381
 20
284.245969
 30
0.0
 11
369.828646
 21
284.107791
 31
0.0
  0
INSERT
  5
DBBD
  8
WAKU
  6
CONTINUOUS
  2
*U0
 10
0.0
 20
0.0
 30
0.0
  0
TEXT
  5
10375
  8
WAKU
 10
10.0
 20
285.5
 30
0.0
 40
3.0
  1
FNS-70AT
 41
0.868
 11
10.0
 21
287.0
 31
0.0
 73
     2
  0
TEXT
  5
185DB
  8
WAKU
 10
35.0
 20
284.5
 30
0.0
 40
5.0
  1
外動片引き断面詳細図(SAﾀｲプ)　防火戸　非防火戸
 11
35.0
 21
287.0
 31
0.0
 73
     2
  0
ARC
  5
1977E
  8
DANMEN
  6
CONTINUOUS
 10
203.0
 20
164.0
 30
0.0
 40
1.0
 50
90.0
 51
180.0
  0
LINE
  5
1977F
  8
DANMEN
  6
CONTINUOUS
 10
189.949997
 20
149.05
 30
0.0
 11
202.050003
 21
149.05
 31
0.0
  0
ARC
  5
19780
  8
DANMEN
  6
CONTINUOUS
 10
202.538889
 20
127.5
 30
0.0
 40
0.5
 50
175.710803
 51
270.0
  0
LINE
  5
19781
  8
DANMEN
  6
CONTINUOUS
 10
189.949997
 20
132.949997
 30
0.0
 11
202.050003
 21
132.949997
 31
0.0
  0
LINE
  5
19782
  8
DANMEN
  6
CONTINUOUS
 10
189.699982
 20
131.0
 30
0.0
 11
202.299988
 21
131.0
 31
0.0
  0
LINE
  5
19783
  8
DANMEN
  6
CONTINUOUS
 10
185.0
 20
124.0
 30
0.0
 11
240.25
 21
124.0
 31
0.0
  0
LINE
  5
19784
  8
DANMEN
  6
CONTINUOUS
 10
172.0
 20
92.0
 30
0.0
 11
240.25
 21
92.0
 31
0.0
  0
LINE
  5
19785
  8
DANMEN
  6
CONTINUOUS
 10
185.0
 20
88.0
 30
0.0
 11
240.25
 21
88.0
 31
0.0
  0
LINE
  5
19786
  8
DANMEN
  6
CONTINUOUS
 10
112.5
 20
123.500003
 30
0.0
 11
112.5
 21
124.500003
 31
0.0
  0
LINE
  5
19787
  8
DANMEN
  6
CONTINUOUS
 10
111.5
 20
121.500003
 30
0.0
 11
111.5
 21
124.500003
 31
0.0
  0
LINE
  5
19788
  8
DANMEN
  6
CONTINUOUS
 10
172.0
 20
136.5
 30
0.0
 11
172.0
 21
121.6
 31
0.0
  0
LINE
  5
19789
  8
DANMEN
  6
CONTINUOUS
 10
170.350006
 20
156.350006
 30
0.0
 11
170.350006
 21
89.649994
 31
0.0
  0
LINE
  5
1978A
  8
DANMEN
  6
CONTINUOUS
 10
73.0
 20
171.0
 30
0.0
 11
73.0
 21
81.5
 31
0.0
  0
LINE
  5
1978B
  8
DANMEN
  6
CONTINUOUS
 10
35.0
 20
171.0
 30
0.0
 11
35.0
 21
111.5
 31
0.0
  0
LINE
  5
1978C
  8
DANMEN
  6
CONTINUOUS
 10
119.0
 20
171.0
 30
0.0
 11
119.0
 21
114.500003
 31
0.0
  0
LINE
  5
1978D
  8
DANMEN
  6
CONTINUOUS
 10
75.5
 20
171.0
 30
0.0
 11
75.5
 21
93.0
 31
0.0
  0
LINE
  5
1978E
  8
DANMEN
  6
DASHED
 10
78.5
 20
171.0
 30
0.0
 11
78.5
 21
93.0
 31
0.0
  0
LINE
  5
1978F
  8
DANMEN
  6
CONTINUOUS
 10
103.15
 20
120.000007
 30
0.0
 11
103.15
 21
171.000005
 31
0.0
  0
LINE
  5
19790
  8
DANMEN
  6
CONTINUOUS
 10
98.15
 20
120.000007
 30
0.0
 11
98.15
 21
171.000005
 31
0.0
  0
LINE
  5
19791
  8
DANMEN
  6
CONTINUOUS
 10
91.85
 20
120.000007
 30
0.0
 11
91.85
 21
171.000005
 31
0.0
  0
LINE
  5
19792
  8
DANMEN
  6
CONTINUOUS
 10
96.85
 20
120.000007
 30
0.0
 11
96.85
 21
171.000005
 31
0.0
  0
LINE
  5
19793
  8
DANMEN
  6
CONTINUOUS
 10
103.65
 20
120.000007
 30
0.0
 11
103.65
 21
171.000005
 31
0.0
  0
LINE
  5
19794
  8
DANMEN
  6
CONTINUOUS
 10
91.35
 20
120.000007
 30
0.0
 11
91.35
 21
171.000005
 31
0.0
  0
LINE
  5
19795
  8
DANMEN
  6
CONTINUOUS
 10
97.65
 20
120.000007
 30
0.0
 11
97.65
 21
171.000005
 31
0.0
  0
LINE
  5
19796
  8
DANMEN
  6
CONTINUOUS
 10
97.35
 20
120.000007
 30
0.0
 11
97.35
 21
171.000005
 31
0.0
  0
LINE
  5
19797
  8
DANMEN
  6
CONTINUOUS
 10
173.51044
 20
130.502283
 30
0.0
 11
176.270495
 21
124.0
 31
0.0
  0
LINE
  5
19798
  8
DANMEN
  6
CONTINUOUS
 10
185.000004
 20
125.744506
 30
0.0
 11
185.000004
 21
124.0
 31
0.0
  0
LINE
  5
19799
  8
DANMEN
  6
CONTINUOUS
 10
37.199997
 20
166.5
 30
0.0
 11
37.199997
 21
111.5
 31
0.0
  0
LINE
  5
1979A
  8
DANMEN
  6
CONTINUOUS
 10
70.800003
 20
166.5
 30
0.0
 11
70.800003
 21
82.0
 31
0.0
  0
LINE
  5
1979B
  8
DANMEN
  6
CONTINUOUS
 10
68.850006
 20
143.050003
 30
0.0
 11
68.850006
 21
112.0
 31
0.0
  0
LINE
  5
1979C
  8
DANMEN
  6
CONTINUOUS
 10
39.149994
 20
138.0
 30
0.0
 11
39.149994
 21
111.949997
 31
0.0
  0
LINE
  5
1979D
  8
DANMEN
  6
CONTINUOUS
 10
81.0
 20
134.500003
 30
0.0
 11
81.0
 21
93.5
 31
0.0
  0
LINE
  5
1979E
  8
DANMEN
  6
CONTINUOUS
 10
116.8
 20
134.500003
 30
0.0
 11
116.8
 21
114.500003
 31
0.0
  0
LINE
  5
1979F
  8
DANMEN
  6
CONTINUOUS
 10
115.15
 20
133.350006
 30
0.0
 11
115.15
 21
123.500003
 31
0.0
  0
LINE
  5
197A0
  8
DANMEN
  6
CONTINUOUS
 10
82.65
 20
130.000003
 30
0.0
 11
82.65
 21
113.000003
 31
0.0
  0
LINE
  5
197A1
  8
DANMEN
  6
CONTINUOUS
 10
65.0
 20
53.0
 30
0.0
 11
73.0
 21
53.0
 31
0.0
  0
LINE
  5
197A2
  8
DANMEN
  6
CONTINUOUS
 10
55.5
 20
33.0
 30
0.0
 11
112.0
 21
33.0
 31
0.0
  0
LINE
  5
197A3
  8
DANMEN
  6
CONTINUOUS
 10
93.5
 20
58.803636
 30
0.0
 11
68.5
 21
48.0
 31
0.0
  0
LINE
  5
197A4
  8
DANMEN
  6
CONTINUOUS
 10
94.563803
 20
57.474726
 30
0.0
 11
69.054612
 21
46.43964
 31
0.0
  0
LINE
  5
197A5
  8
DANMEN
  6
CONTINUOUS
 10
69.850006
 20
80.050003
 30
0.0
 11
71.050003
 21
80.050003
 31
0.0
  0
LINE
  5
197A6
  8
DANMEN
  6
CONTINUOUS
 10
71.050003
 20
70.000004
 30
0.0
 11
68.850006
 21
70.000003
 31
0.0
  0
LINE
  5
197A8
  8
DANMEN
  6
CONTINUOUS
 10
55.5
 20
33.649994
 30
0.0
 11
55.5
 21
24.5
 31
0.0
  0
LINE
  5
197A9
  8
DANMEN
  6
CONTINUOUS
 10
54.0
 20
33.0
 30
0.0
 11
54.0
 21
24.5
 31
0.0
  0
ARC
  5
197AA
  8
DANMEN
  6
CONTINUOUS
 10
54.5
 20
24.5
 30
0.0
 40
0.5
 50
180.000019
 51
270.000001
  0
ARC
  5
197AB
  8
DANMEN
  6
CONTINUOUS
 10
55.0
 20
24.5
 30
0.0
 40
0.5
 50
270.000018
 51
0.0
  0
LINE
  5
197AC
  8
DANMEN
  6
CONTINUOUS
 10
54.5
 20
24.0
 30
0.0
 11
55.0
 21
24.0
 31
0.0
  0
LINE
  5
197AD
  8
DANMEN
  6
CONTINUOUS
 10
43.649994
 20
110.0
 30
0.0
 11
43.649994
 21
35.0
 31
0.0
  0
LINE
  5
197AE
  8
DANMEN
  6
CONTINUOUS
 10
42.0
 20
110.0
 30
0.0
 11
42.0
 21
36.641644
 31
0.0
  0
LINE
  5
197AF
  8
DANMEN
  6
CONTINUOUS
 10
63.0
 20
57.0
 30
0.0
 11
63.0
 21
102.000008
 31
0.0
  0
LINE
  5
197B0
  8
DANMEN
  6
CONTINUOUS
 10
59.0
 20
57.0
 30
0.0
 11
59.0
 21
102.000008
 31
0.0
  0
LINE
  5
197B1
  8
DANMEN
  6
CONTINUOUS
 10
56.799999
 20
102.000008
 30
0.0
 11
56.799999
 21
57.0
 31
0.0
  0
LINE
  5
197B2
  8
DANMEN
  6
CONTINUOUS
 10
65.200001
 20
102.000008
 30
0.0
 11
65.200001
 21
57.0
 31
0.0
  0
LINE
  5
197B3
  8
DANMEN
  6
CONTINUOUS
 10
56.600002
 20
70.500004
 30
0.0
 11
56.600002
 21
88.500004
 31
0.0
  0
LINE
  5
197B4
  8
DANMEN
  6
CONTINUOUS
 10
65.399998
 20
88.500004
 30
0.0
 11
65.399998
 21
70.500004
 31
0.0
  0
LINE
  5
197B5
  8
DANMEN
  6
CONTINUOUS
 10
49.011315
 20
52.945203
 30
0.0
 11
49.0
 21
110.0
 31
0.0
  0
LINE
  5
197B6
  8
DANMEN
  6
CONTINUOUS
 10
47.501954
 20
110.0
 30
0.0
 11
47.964828
 21
52.464565
 31
0.0
  0
LINE
  5
197B7
  8
DANMEN
  6
CONTINUOUS
 10
48.711313
 20
52.958301
 30
0.0
 11
48.699999
 21
110.006521
 31
0.0
  0
LINE
  5
197B8
  8
DANMEN
  6
CONTINUOUS
 10
53.149994
 20
105.0
 30
0.0
 11
53.149994
 21
69.0
 31
0.0
  0
LINE
  5
197B9
  8
DANMEN
  6
CONTINUOUS
 10
51.199997
 20
110.0
 30
0.0
 11
51.199997
 21
53.5
 31
0.0
  0
LINE
  5
197BA
  8
DANMEN
  6
CONTINUOUS
 10
65.0
 20
59.0
 30
0.0
 11
65.0
 21
53.0
 31
0.0
  0
LINE
  5
197BB
  8
DANMEN
  6
CONTINUOUS
 10
57.0
 20
59.0
 30
0.0
 11
57.0
 21
53.0
 31
0.0
  0
ARC
  5
197BC
  8
DANMEN
  6
CONTINUOUS
 10
51.596175
 20
54.834251
 30
0.0
 40
0.5
 50
357.5
 51
177.5
  0
LINE
  5
197BD
  8
DANMEN
  6
CONTINUOUS
 10
60.850006
 20
55.847046
 30
0.0
 11
60.850006
 21
48.0
 31
0.0
  0
LINE
  5
197BE
  8
DANMEN
  6
CONTINUOUS
 10
62.5
 20
59.29129
 30
0.0
 11
62.5
 21
48.0
 31
0.0
  0
LINE
  5
197BF
  8
DANMEN
  6
CONTINUOUS
 10
53.149994
 20
67.999999
 30
0.0
 11
53.149994
 21
53.5
 31
0.0
  0
LINE
  5
197C0
  8
DANMEN
  6
CONTINUOUS
 10
52.949997
 20
53.0
 30
0.0
 11
57.0
 21
53.0
 31
0.0
  0
ARC
  5
197C1
  8
DANMEN
  6
CONTINUOUS
 10
55.00999
 20
46.0
 30
0.0
 40
2.0
 50
90.0
 51
118.610582
  0
LINE
  5
197C2
  8
DANMEN
  6
CONTINUOUS
 10
54.920742
 20
46.35
 30
0.0
 11
50.649994
 21
44.020489
 31
0.0
  0
LINE
  5
197C3
  8
DANMEN
  6
CONTINUOUS
 10
50.649994
 20
34.649994
 30
0.0
 11
54.5
 21
34.649994
 31
0.0
  0
LINE
  5
197C4
  8
DANMEN
  6
CONTINUOUS
 10
50.649994
 20
44.020489
 30
0.0
 11
50.649994
 21
34.649994
 31
0.0
  0
LINE
  5
197C5
  8
DANMEN
  6
CONTINUOUS
 10
49.0
 20
44.406353
 30
0.0
 11
49.0
 21
35.0
 31
0.0
  0
LINE
  5
197C6
  8
DANMEN
  6
CONTINUOUS
 10
42.402221
 20
33.0
 30
0.0
 11
49.5
 21
33.0
 31
0.0
  0
LINE
  5
197C7
  8
DANMEN
  6
CONTINUOUS
 10
42.800003
 20
33.9
 30
0.0
 11
49.0
 21
33.9
 31
0.0
  0
LINE
  5
197C8
  8
DANMEN
  6
CONTINUOUS
 10
43.1
 20
35.0
 30
0.0
 11
49.0
 21
35.0
 31
0.0
  0
LINE
  5
197C9
  8
DANMEN
  6
CONTINUOUS
 10
40.199997
 20
42.399994
 30
0.0
 11
40.199997
 21
37.429842
 31
0.0
  0
LINE
  5
197CA
  8
DANMEN
  6
CONTINUOUS
 10
39.0
 20
42.399994
 30
0.0
 11
39.0
 21
37.10902
 31
0.0
  0
LINE
  5
197CB
  8
DANMEN
  6
CONTINUOUS
 10
40.199997
 20
37.429842
 30
0.0
 11
42.823607
 21
36.118037
 31
0.0
  0
ARC
  5
197CC
  8
DANMEN
  6
CONTINUOUS
 10
42.399994
 20
33.399994
 30
0.0
 40
0.4
 50
180.000019
 51
359.999983
  0
LINE
  5
197CD
  8
DANMEN
  6
CONTINUOUS
 10
39.276393
 20
36.661806
 30
0.0
 11
42.0
 21
35.300003
 31
0.0
  0
ARC
  5
197CE
  8
DANMEN
  6
CONTINUOUS
 10
39.5
 20
37.10902
 30
0.0
 40
0.5
 50
180.0
 51
243.434949
  0
LINE
  5
197CF
  8
DANMEN
  6
CONTINUOUS
 10
42.0
 20
35.300003
 30
0.0
 11
42.0
 21
33.399994
 31
0.0
  0
ARC
  5
197D0
  8
DANMEN
  6
CONTINUOUS
 10
42.6
 20
35.670823
 30
0.0
 40
0.5
 50
0.0
 51
63.434949
  0
LINE
  5
197D1
  8
DANMEN
  6
CONTINUOUS
 10
43.1
 20
35.670823
 30
0.0
 11
43.1
 21
35.0
 31
0.0
  0
LINE
  5
197D2
  8
DANMEN
  6
CONTINUOUS
 10
42.800003
 20
33.9
 30
0.0
 11
42.800003
 21
33.399994
 31
0.0
  0
ARC
  5
197D3
  8
DANMEN
  6
CONTINUOUS
 10
39.600006
 20
42.399994
 30
0.0
 40
0.6
 50
0.0
 51
180.000019
  0
LINE
  5
197D4
  8
DANMEN
  6
CONTINUOUS
 10
49.5
 20
33.0
 30
0.0
 11
54.0
 21
33.0
 31
0.0
  0
LINE
  5
197D5
  8
DANMEN
  6
CONTINUOUS
 10
49.0
 20
33.9
 30
0.0
 11
49.0
 21
33.5
 31
0.0
  0
ARC
  5
197D6
  8
DANMEN
  6
CONTINUOUS
 10
49.5
 20
33.5
 30
0.0
 40
0.5
 50
180.000019
 51
270.000001
  0
LINE
  5
197D8
  8
DANMEN
  6
CONTINUOUS
 10
54.052282
 20
47.755789
 30
0.0
 11
49.521146
 21
45.284248
 31
0.0
  0
ARC
  5
197D9
  8
DANMEN
  6
CONTINUOUS
 10
50.0
 20
44.406353
 30
0.0
 40
1.0
 50
118.610582
 51
180.0
  0
LINE
  5
197DA
  8
DANMEN
  6
CONTINUOUS
 10
51.465316
 20
51.837106
 30
0.0
 11
48.443002
 21
51.969063
 31
0.0
  0
LINE
  5
197DB
  8
DANMEN
  6
CONTINUOUS
 10
52.00846
 20
52.814345
 30
0.0
 11
48.711313
 21
52.958301
 31
0.0
  0
ARC
  5
197E0
  8
DANMEN
  6
CONTINUOUS
 10
48.464812
 20
52.468587
 30
0.0
 40
0.5
 50
180.460936
 51
267.5
  0
LINE
  5
197E3
  8
DANMEN
  6
CONTINUOUS
 10
50.419296
 20
53.0
 30
0.0
 11
52.0
 21
53.0
 31
0.0
  0
LINE
  5
197E4
  8
DANMEN
  6
CONTINUOUS
 10
51.09665
 20
54.856061
 30
0.0
 11
51.009412
 21
52.857964
 31
0.0
  0
LINE
  5
197E6
  8
DANMEN
  6
CONTINUOUS
 10
52.095699
 20
54.812441
 30
0.0
 11
51.98665
 21
52.314821
 31
0.0
  0
ARC
  5
197E7
  8
DANMEN
  6
CONTINUOUS
 10
51.487126
 20
52.33663
 30
0.0
 40
0.5
 50
267.5
 51
357.5
  0
LINE
  5
197E9
  8
DANMEN
  6
CONTINUOUS
 10
51.053031
 20
53.857012
 30
0.0
 11
52.052079
 21
53.813393
 31
0.0
  0
LINE
  5
197EC
  8
DANMEN
  6
CONTINUOUS
 10
51.699997
 20
53.0
 30
0.0
 11
52.649994
 21
53.0
 31
0.0
  0
ARC
  5
197EE
  8
DANMEN
  6
CONTINUOUS
 10
52.649994
 20
53.5
 30
0.0
 40
0.5
 50
270.000018
 51
0.0
  0
ARC
  5
197F0
  8
DANMEN
  6
CONTINUOUS
 10
51.699997
 20
53.5
 30
0.0
 40
0.5
 50
180.000019
 51
270.000001
  0
ARC
  5
197F1
  8
DANMEN
  6
CONTINUOUS
 10
69.66828
 20
42.848903
 30
0.0
 40
0.5
 50
23.49856
 51
113.49856
  0
LINE
  5
197F2
  8
DANMEN
  6
CONTINUOUS
 10
66.3
 20
43.448185
 30
0.0
 11
66.855268
 21
42.171069
 31
0.0
  0
LINE
  5
197F3
  8
DANMEN
  6
CONTINUOUS
 10
69.468917
 20
43.307438
 30
0.0
 11
66.855268
 21
42.171069
 31
0.0
  0
ARC
  5
197F4
  8
DANMEN
  6
CONTINUOUS
 10
63.8
 20
44.053939
 30
0.0
 40
1.0
 50
294.624318
 51
0.0
  0
ARC
  5
197F5
  8
DANMEN
  6
CONTINUOUS
 10
61.7
 20
43.969694
 30
0.0
 40
2.0
 50
180.0
 51
231.706523
  0
ARC
  5
197F6
  8
DANMEN
  6
CONTINUOUS
 10
62.2
 20
44.053939
 30
0.0
 40
1.0
 50
180.0
 51
245.375682
  0
ARC
  5
197F7
  8
DANMEN
  6
CONTINUOUS
 10
54.5
 20
33.649994
 30
0.0
 40
1.0
 50
0.0
 51
89.999982
  0
ARC
  5
197F8
  8
DANMEN
  6
CONTINUOUS
 10
61.7
 20
42.963068
 30
0.0
 40
0.2
 50
0.0
 51
65.375682
  0
LINE
  5
197F9
  8
DANMEN
  6
CONTINUOUS
 10
61.9
 20
42.7
 30
0.0
 11
61.9
 21
42.963068
 31
0.0
  0
LINE
  5
197FA
  8
DANMEN
  6
CONTINUOUS
 10
60.460621
 20
42.4
 30
0.0
 11
61.6
 21
42.4
 31
0.0
  0
ARC
  5
197FB
  8
DANMEN
  6
CONTINUOUS
 10
61.6
 20
42.7
 30
0.0
 40
0.3
 50
270.0
 51
0.0
  0
ARC
  5
197FC
  8
DANMEN
  6
CONTINUOUS
 10
66.518344
 20
41.315802
 30
0.0
 40
1.0
 50
203.49856
 51
293.49856
  0
LINE
  5
197FD
  8
DANMEN
  6
CONTINUOUS
 10
64.956524
 20
42.4
 30
0.0
 11
65.601274
 21
40.917076
 31
0.0
  0
LINE
  5
197FE
  8
DANMEN
  6
CONTINUOUS
 10
64.1
 20
42.7
 30
0.0
 11
64.1
 21
42.963068
 31
0.0
  0
ARC
  5
197FF
  8
DANMEN
  6
CONTINUOUS
 10
64.3
 20
42.963068
 30
0.0
 40
0.2
 50
114.624318
 51
180.0
  0
LINE
  5
19800
  8
DANMEN
  6
CONTINUOUS
 10
64.4
 20
42.4
 30
0.0
 11
64.956524
 21
42.4
 31
0.0
  0
ARC
  5
19801
  8
DANMEN
  6
CONTINUOUS
 10
64.4
 20
42.7
 30
0.0
 40
0.3
 50
180.0
 51
270.0
  0
ARC
  5
19802
  8
DANMEN
  6
CONTINUOUS
 10
69.927452
 20
42.252808
 30
0.0
 40
0.5
 50
293.49856
 51
23.49856
  0
LINE
  5
19803
  8
DANMEN
  6
CONTINUOUS
 10
70.126816
 20
43.048266
 30
0.0
 11
70.385987
 21
42.452171
 31
0.0
  0
LINE
  5
19804
  8
DANMEN
  6
CONTINUOUS
 10
70.126815
 20
41.794273
 30
0.0
 11
66.91707
 21
40.398732
 31
0.0
  0
LINE
  5
19805
  8
DANMEN
  6
CONTINUOUS
 10
62.2
 20
46.3
 30
0.0
 11
63.8
 21
46.3
 31
0.0
  0
LINE
  5
19806
  8
DANMEN
  6
CONTINUOUS
 10
62.5
 20
48.0
 30
0.0
 11
68.5
 21
48.0
 31
0.0
  0
LINE
  5
19807
  8
DANMEN
  6
CONTINUOUS
 10
54.920742
 20
46.35
 30
0.0
 11
58.7
 21
46.35
 31
0.0
  0
LINE
  5
19808
  8
DANMEN
  6
CONTINUOUS
 10
55.00999
 20
48.0
 30
0.0
 11
60.850006
 21
48.0
 31
0.0
  0
ARC
  5
19809
  8
DANMEN
  6
CONTINUOUS
 10
58.7
 20
45.35
 30
0.0
 40
1.0
 50
0.0
 51
90.0
  0
ARC
  5
1980A
  8
DANMEN
  6
CONTINUOUS
 10
62.2
 20
45.3
 30
0.0
 40
1.0
 50
90.0
 51
180.0
  0
LINE
  5
1980B
  8
DANMEN
  6
CONTINUOUS
 10
59.7
 20
43.969694
 30
0.0
 11
59.7
 21
45.35
 31
0.0
  0
LINE
  5
1980C
  8
DANMEN
  6
CONTINUOUS
 10
61.2
 20
44.053939
 30
0.0
 11
61.2
 21
45.3
 31
0.0
  0
LINE
  5
1980D
  8
DANMEN
  6
CONTINUOUS
 10
66.3
 20
46.350006
 30
0.0
 11
68.640809
 21
46.350006
 31
0.0
  0
LINE
  5
1980E
  8
DANMEN
  6
CONTINUOUS
 10
66.3
 20
43.448185
 30
0.0
 11
66.3
 21
46.350006
 31
0.0
  0
LINE
  5
1980F
  8
DANMEN
  6
CONTINUOUS
 10
64.8
 20
44.053939
 30
0.0
 11
64.8
 21
45.3
 31
0.0
  0
ARC
  5
19810
  8
DANMEN
  6
CONTINUOUS
 10
63.8
 20
45.3
 30
0.0
 40
1.0
 50
0.0
 51
90.0
  0
ARC
  5
19811
  8
DANMEN
  6
CONTINUOUS
 10
68.640809
 20
47.350006
 30
0.0
 40
1.0
 50
270.0
 51
294.443955
  0
LINE
  5
19812
  8
DANMEN
  6
CONTINUOUS
 10
56.149989
 20
67.999999
 30
0.0
 11
54.149994
 21
67.999999
 31
0.0
  0
LINE
  5
19813
  8
DANMEN
  6
CONTINUOUS
 10
68.850006
 20
69.000003
 30
0.0
 11
53.149989
 21
68.999999
 31
0.0
  0
LINE
  5
1981B
  8
DANMEN
  6
CONTINUOUS
 10
54.149994
 20
67.999999
 30
0.0
 11
53.649994
 21
68.499999
 31
0.0
  0
LINE
  5
1981C
  8
DANMEN
  6
CONTINUOUS
 10
53.149994
 20
67.999999
 30
0.0
 11
53.649994
 21
68.499999
 31
0.0
  0
ARC
  5
1981F
  8
DANMEN
  6
CONTINUOUS
 10
61.0
 20
59.0
 30
0.0
 40
4.0
 50
0.0
 51
180.000019
  0
ARC
  5
19820
  8
DANMEN
  6
CONTINUOUS
 10
61.0
 20
57.0
 30
0.0
 40
3.0
 50
53.130102
 51
126.869903
  0
ARC
  5
19821
  8
DANMEN
  6
CONTINUOUS
 10
62.0
 20
59.29129
 30
0.0
 40
0.5
 50
0.000279
 51
66.42195
  0
LINE
  5
19822
  8
DANMEN
  6
CONTINUOUS
 10
56.799999
 20
57.0
 30
0.0
 11
59.0
 21
57.0
 31
0.0
  0
ARC
  5
19824
  8
DANMEN
  6
CONTINUOUS
 10
59.5
 20
59.0
 30
0.0
 40
0.5
 50
126.869907
 51
180.000009
  0
ARC
  5
19825
  8
DANMEN
  6
CONTINUOUS
 10
60.0
 20
58.152954
 30
0.0
 40
0.5
 50
180.000309
 51
214.019733
  0
ARC
  5
19826
  8
DANMEN
  6
CONTINUOUS
 10
60.350006
 20
55.847046
 30
0.0
 40
0.5
 50
0.000664
 51
34.020021
  0
LINE
  5
19827
  8
DANMEN
  6
CONTINUOUS
 10
60.764431
 20
56.126784
 30
0.0
 11
59.585579
 21
57.873223
 31
0.0
  0
ARC
  5
19828
  8
DANMEN
  6
CONTINUOUS
 10
60.0
 20
59.29129
 30
0.0
 40
0.5
 50
113.578068
 51
179.999745
  0
ARC
  5
19829
  8
DANMEN
  6
CONTINUOUS
 10
61.0
 20
57.0
 30
0.0
 40
3.0
 50
66.421841
 51
113.578178
  0
LINE
  5
1982A
  8
DANMEN
  6
CONTINUOUS
 10
59.5
 20
59.29129
 30
0.0
 11
59.5
 21
58.152954
 31
0.0
  0
LINE
  5
1982B
  8
DANMEN
  6
CONTINUOUS
 10
65.200001
 20
57.0
 30
0.0
 11
63.0
 21
57.0
 31
0.0
  0
ARC
  5
1982C
  8
DANMEN
  6
CONTINUOUS
 10
62.5
 20
59.0
 30
0.0
 40
0.5
 50
359.999997
 51
53.130102
  0
LINE
  5
19830
  8
DANMEN
  6
CONTINUOUS
 10
65.850001
 20
67.050006
 30
0.0
 11
56.149988
 21
67.050002
 31
0.0
  0
LINE
  5
19831
  8
DANMEN
  6
CONTINUOUS
 10
56.600001
 20
70.500003
 30
0.0
 11
56.799998
 21
70.300005
 31
0.0
  0
LINE
  5
19832
  8
DANMEN
  6
CONTINUOUS
 10
56.149994
 20
68.0
 30
0.0
 11
56.149994
 21
67.050003
 31
0.0
  0
LINE
  5
19835
  8
DANMEN
  6
CONTINUOUS
 10
67.850006
 20
68.000003
 30
0.0
 11
65.850001
 21
68.000002
 31
0.0
  0
LINE
  5
19836
  8
DANMEN
  6
CONTINUOUS
 10
65.399994
 20
70.500002
 30
0.0
 11
65.199998
 21
70.300006
 31
0.0
  0
LINE
  5
19837
  8
DANMEN
  6
CONTINUOUS
 10
65.850006
 20
68.0
 30
0.0
 11
65.850006
 21
67.050003
 31
0.0
  0
LINE
  5
1983A
  8
DANMEN
  6
CONTINUOUS
 10
68.850006
 20
70.000003
 30
0.0
 11
68.850006
 21
69.0
 31
0.0
  0
LINE
  5
19841
  8
DANMEN
  6
CONTINUOUS
 10
68.850006
 20
68.000003
 30
0.0
 11
68.350006
 21
68.500003
 31
0.0
  0
LINE
  5
19842
  8
DANMEN
  6
CONTINUOUS
 10
68.350006
 20
68.500003
 30
0.0
 11
67.850006
 21
68.000003
 31
0.0
  0
LINE
  5
19843
  8
DANMEN
  6
CONTINUOUS
 10
49.0
 20
111.5
 30
0.0
 11
35.000005
 21
111.5
 31
0.0
  0
LINE
  5
19844
  8
DANMEN
  6
CONTINUOUS
 10
48.7
 20
110.0
 30
0.0
 11
36.000005
 21
110.0
 31
0.0
  0
LINE
  5
19845
  8
DANMEN
  6
CONTINUOUS
 10
36.0
 20
110.0
 30
0.0
 11
51.199997
 21
110.0
 31
0.0
  0
LINE
  5
19846
  8
DANMEN
  6
CONTINUOUS
 10
35.000005
 20
111.5
 30
0.0
 11
35.000005
 21
111.0
 31
0.0
  0
ARC
  5
19848
  8
DANMEN
  6
CONTINUOUS
 10
36.000005
 20
111.0
 30
0.0
 40
1.0
 50
180.0
 51
270.0
  0
LINE
  5
1984A
  8
DANMEN
  6
CONTINUOUS
 10
35.0
 20
111.5
 30
0.0
 11
35.0
 21
111.0
 31
0.0
  0
LINE
  5
1984B
  8
DANMEN
  6
CONTINUOUS
 10
35.0
 20
111.5
 30
0.0
 11
37.199997
 21
111.5
 31
0.0
  0
ARC
  5
1984E
  8
DANMEN
  6
CONTINUOUS
 10
36.0
 20
111.0
 30
0.0
 40
1.0
 50
180.0
 51
270.0
  0
LINE
  5
19850
  8
DANMEN
  6
CONTINUOUS
 10
68.850006
 20
105.0
 30
0.0
 11
68.850006
 21
81.050003
 31
0.0
  0
LINE
  5
19851
  8
DANMEN
  6
CONTINUOUS
 10
56.600001
 20
88.500005
 30
0.0
 11
56.799998
 21
88.700002
 31
0.0
  0
ARC
  5
19853
  8
DANMEN
  6
CONTINUOUS
 10
69.850006
 20
81.050003
 30
0.0
 40
1.0
 50
180.000019
 51
270.000001
  0
LINE
  5
19854
  8
DANMEN
  6
CONTINUOUS
 10
65.399994
 20
88.500006
 30
0.0
 11
65.199998
 21
88.700002
 31
0.0
  0
ARC
  5
19855
  8
DANMEN
  6
CONTINUOUS
 10
61.0
 20
102.000008
 30
0.0
 40
3.0
 50
233.130097
 51
306.869898
  0
ARC
  5
19856
  8
DANMEN
  6
CONTINUOUS
 10
59.5
 20
100.000008
 30
0.0
 40
0.5
 50
179.999991
 51
233.130093
  0
ARC
  5
19857
  8
DANMEN
  6
CONTINUOUS
 10
62.5
 20
100.000008
 30
0.0
 40
0.5
 50
306.869898
 51
0.000003
  0
LINE
  5
19858
  8
DANMEN
  6
CONTINUOUS
 10
53.149994
 20
105.0
 30
0.0
 11
59.199997
 21
105.0
 31
0.0
  0
LINE
  5
19859
  8
DANMEN
  6
CONTINUOUS
 10
53.149994
 20
106.199997
 30
0.0
 11
57.699997
 21
106.199997
 31
0.0
  0
LINE
  5
1985A
  8
DANMEN
  6
CONTINUOUS
 10
39.149994
 20
111.949997
 30
0.0
 11
52.149994
 21
111.949997
 31
0.0
  0
LINE
  5
1985C
  8
DANMEN
  6
CONTINUOUS
 10
53.149994
 20
110.949997
 30
0.0
 11
53.149994
 21
106.199997
 31
0.0
  0
LINE
  5
1985F
  8
DANMEN
  6
CONTINUOUS
 10
49.0
 20
111.5
 30
0.0
 11
49.0
 21
110.0
 31
0.0
  0
LINE
  5
19861
  8
DANMEN
  6
CONTINUOUS
 10
48.7
 20
111.5
 30
0.0
 11
48.7
 21
109.993429
 31
0.0
  0
ARC
  5
19867
  8
DANMEN
  6
CONTINUOUS
 10
52.149994
 20
110.949997
 30
0.0
 40
1.0
 50
0.0
 51
89.999982
  0
LINE
  5
19868
  8
DANMEN
  6
CONTINUOUS
 10
60.199997
 20
112.0
 30
0.0
 11
68.850006
 21
112.0
 31
0.0
  0
ARC
  5
19869
  8
DANMEN
  6
CONTINUOUS
 10
61.7
 20
109.3
 30
0.0
 40
1.0
 50
0.0
 51
90.0
  0
LINE
  5
1986A
  8
DANMEN
  6
CONTINUOUS
 10
57.699997
 20
109.5
 30
0.0
 11
57.699997
 21
106.199997
 31
0.0
  0
ARC
  5
1986B
  8
DANMEN
  6
CONTINUOUS
 10
60.2
 20
107.8
 30
0.0
 40
1.0
 50
180.0
 51
270.0
  0
LINE
  5
1986C
  8
DANMEN
  6
CONTINUOUS
 10
56.799999
 20
102.000008
 30
0.0
 11
59.0
 21
102.000008
 31
0.0
  0
LINE
  5
1986E
  8
DANMEN
  6
CONTINUOUS
 10
59.199997
 20
105.300003
 30
0.0
 11
59.199997
 21
105.0
 31
0.0
  0
ARC
  5
19870
  8
DANMEN
  6
CONTINUOUS
 10
60.833705
 20
106.05
 30
0.0
 40
0.75
 50
270.0
 51
90.0
  0
LINE
  5
19871
  8
DANMEN
  6
CONTINUOUS
 10
59.199997
 20
105.3
 30
0.0
 11
60.833705
 21
105.3
 31
0.0
  0
LINE
  5
19872
  8
DANMEN
  6
CONTINUOUS
 10
60.2
 20
106.8
 30
0.0
 11
60.833705
 21
106.8
 31
0.0
  0
ARC
  5
19874
  8
DANMEN
  6
CONTINUOUS
 10
60.199997
 20
109.5
 30
0.0
 40
2.5
 50
89.999982
 51
180.000019
  0
ARC
  5
19877
  8
DANMEN
  6
CONTINUOUS
 10
60.2
 20
109.3
 30
0.0
 40
1.0
 50
90.0
 51
180.0
  0
LINE
  5
19878
  8
DANMEN
  6
CONTINUOUS
 10
59.2
 20
107.8
 30
0.0
 11
59.2
 21
109.3
 31
0.0
  0
LINE
  5
19879
  8
DANMEN
  6
CONTINUOUS
 10
60.2
 20
110.3
 30
0.0
 11
61.7
 21
110.3
 31
0.0
  0
LINE
  5
1987B
  8
DANMEN
  6
CONTINUOUS
 10
68.850006
 20
110.350006
 30
0.0
 11
68.850006
 21
106.199997
 31
0.0
  0
LINE
  5
1987C
  8
DANMEN
  6
CONTINUOUS
 10
66.300003
 20
105.0
 30
0.0
 11
68.850006
 21
105.0
 31
0.0
  0
ARC
  5
1987D
  8
DANMEN
  6
CONTINUOUS
 10
66.800003
 20
105.699997
 30
0.0
 40
0.5
 50
89.999982
 51
180.000019
  0
LINE
  5
1987E
  8
DANMEN
  6
CONTINUOUS
 10
65.200001
 20
102.000008
 30
0.0
 11
63.0
 21
102.000008
 31
0.0
  0
LINE
  5
1987F
  8
DANMEN
  6
CONTINUOUS
 10
66.300003
 20
105.699997
 30
0.0
 11
66.300003
 21
105.0
 31
0.0
  0
LINE
  5
19882
  8
DANMEN
  6
CONTINUOUS
 10
66.800003
 20
106.199997
 30
0.0
 11
68.850006
 21
106.199997
 31
0.0
  0
LINE
  5
19885
  8
DANMEN
  6
CONTINUOUS
 10
65.199997
 20
110.350006
 30
0.0
 11
68.850006
 21
110.350006
 31
0.0
  0
ARC
  5
19886
  8
DANMEN
  6
CONTINUOUS
 10
63.45
 20
108.666295
 30
0.0
 40
0.75
 50
180.0
 51
0.0
  0
LINE
  5
19887
  8
DANMEN
  6
CONTINUOUS
 10
64.2
 20
108.666295
 30
0.0
 11
64.2
 21
109.350006
 31
0.0
  0
LINE
  5
19888
  8
DANMEN
  6
CONTINUOUS
 10
62.7
 20
108.666295
 30
0.0
 11
62.7
 21
109.3
 31
0.0
  0
ARC
  5
1988A
  8
DANMEN
  6
CONTINUOUS
 10
65.2
 20
109.350006
 30
0.0
 40
1.0
 50
90.0
 51
180.0
  0
LINE
  5
1988D
  8
DANMEN
  6
CONTINUOUS
 10
73.0
 20
93.0
 30
0.0
 11
81.0
 21
76.000001
 31
0.0
  0
LINE
  5
1988E
  8
DANMEN
  6
CONTINUOUS
 10
73.0
 20
76.000001
 30
0.0
 11
81.0
 21
93.0
 31
0.0
  0
LINE
  5
1988F
  8
DANMEN
  6
CONTINUOUS
 10
82.8
 20
90.0
 30
0.0
 11
82.8
 21
73.0
 31
0.0
  0
LINE
  5
19890
  8
DANMEN
  6
CONTINUOUS
 10
81.0
 20
92.5
 30
0.0
 11
81.0
 21
76.0
 31
0.0
  0
LINE
  5
19891
  8
DANMEN
  6
CONTINUOUS
 10
110.35
 20
86.2
 30
0.0
 11
110.35
 21
75.0
 31
0.0
  0
LINE
  5
19892
  8
DANMEN
  6
CONTINUOUS
 10
112.0
 20
92.5
 30
0.0
 11
112.0
 21
58.5
 31
0.0
  0
LINE
  5
19893
  8
DANMEN
  6
CONTINUOUS
 10
73.0
 20
81.5
 30
0.0
 11
73.0
 21
68.500005
 31
0.0
  0
LINE
  5
19894
  8
DANMEN
  6
CONTINUOUS
 10
71.050003
 20
80.050003
 30
0.0
 11
71.050003
 21
70.000004
 31
0.0
  0
LINE
  5
19895
  8
DANMEN
  6
CONTINUOUS
 10
99.05
 20
75.0
 30
0.0
 11
110.35
 21
75.0
 31
0.0
  0
LINE
  5
19896
  8
DANMEN
  6
CONTINUOUS
 10
100.2
 20
73.35
 30
0.0
 11
110.350006
 21
73.35
 31
0.0
  0
LINE
  5
19897
  8
DANMEN
  6
CONTINUOUS
 10
73.0
 20
68.500005
 30
0.0
 11
73.0
 21
53.0
 31
0.0
  0
LINE
  5
19898
  8
DANMEN
  6
CONTINUOUS
 10
82.5
 20
71.2
 30
0.0
 11
93.5
 21
71.2
 31
0.0
  0
LINE
  5
19899
  8
DANMEN
  6
CONTINUOUS
 10
82.8
 20
73.0
 30
0.0
 11
98.55
 21
73.0
 31
0.0
  0
LINE
  5
1989A
  8
DANMEN
  6
CONTINUOUS
 10
73.0
 20
76.000001
 30
0.0
 11
81.0
 21
76.000001
 31
0.0
  0
LINE
  5
1989B
  8
DANMEN
  6
CONTINUOUS
 10
76.5
 20
76.0
 30
0.0
 11
81.0
 21
76.0
 31
0.0
  0
LINE
  5
1989C
  8
DANMEN
  6
CONTINUOUS
 10
76.5
 20
68.0
 30
0.0
 11
79.000003
 21
68.0
 31
0.0
  0
LINE
  5
1989D
  8
DANMEN
  6
CONTINUOUS
 10
73.600003
 20
72.217127
 30
0.0
 11
74.582437
 21
75.4
 31
0.0
  0
LINE
  5
1989E
  8
DANMEN
  6
CONTINUOUS
 10
73.000003
 20
71.394291
 30
0.0
 11
73.000003
 21
72.305709
 31
0.0
  0
LINE
  5
1989F
  8
DANMEN
  6
CONTINUOUS
 10
77.200003
 20
71.0
 30
0.0
 11
77.200003
 21
72.7
 31
0.0
  0
LINE
  5
198A0
  8
DANMEN
  6
CONTINUOUS
 10
75.200003
 20
68.3
 30
0.0
 11
75.200003
 21
75.4
 31
0.0
  0
LINE
  5
198A1
  8
DANMEN
  6
CONTINUOUS
 10
78.500003
 20
75.0
 30
0.0
 11
78.500003
 21
68.8
 31
0.0
  0
LINE
  5
198A2
  8
DANMEN
  6
CONTINUOUS
 10
74.582437
 20
68.3
 30
0.0
 11
75.200003
 21
68.3
 31
0.0
  0
LINE
  5
198A3
  8
DANMEN
  6
CONTINUOUS
 10
74.327481
 20
67.7
 30
0.0
 11
76.000003
 21
67.7
 31
0.0
  0
LINE
  5
198A7
  8
DANMEN
  6
CONTINUOUS
 10
73.600003
 20
71.482874
 30
0.0
 11
73.600003
 21
72.217127
 31
0.0
  0
LINE
  5
198A8
  8
DANMEN
  6
CONTINUOUS
 10
74.582437
 20
68.3
 30
0.0
 11
73.600003
 21
71.482874
 31
0.0
  0
ARC
  5
198AA
  8
DANMEN
  6
CONTINUOUS
 10
73.200003
 20
71.394291
 30
0.0
 40
0.2
 50
180.0
 51
204.97391
  0
ARC
  5
198AC
  8
DANMEN
  6
CONTINUOUS
 10
74.327481
 20
67.9
 30
0.0
 40
0.2
 50
204.97391
 51
270.0
  0
LINE
  5
198AD
  8
DANMEN
  6
CONTINUOUS
 10
74.146181
 20
67.815559
 30
0.0
 11
73.018703
 21
71.30985
 31
0.0
  0
ARC
  5
198AF
  8
DANMEN
  6
CONTINUOUS
 10
72.5
 20
68.500005
 30
0.0
 40
0.5
 50
270.0
 51
0.0
  0
LINE
  5
198B9
  8
DANMEN
  6
CONTINUOUS
 10
76.000003
 20
67.7
 30
0.0
 11
76.000003
 21
70.2
 31
0.0
  0
LINE
  5
198BB
  8
DANMEN
  6
CONTINUOUS
 10
76.000003
 20
70.2
 30
0.0
 11
77.000003
 21
70.2
 31
0.0
  0
LINE
  5
198BC
  8
DANMEN
  6
CONTINUOUS
 10
78.000003
 20
70.2
 30
0.0
 11
77.200003
 21
71.0
 31
0.0
  0
ARC
  5
198BF
  8
DANMEN
  6
CONTINUOUS
 10
77.200003
 20
69.2
 30
0.0
 40
0.2
 50
179.999981
 51
270.000018
  0
ARC
  5
198C1
  8
DANMEN
  6
CONTINUOUS
 10
77.800003
 20
69.2
 30
0.0
 40
0.2
 50
270.000018
 51
0.0
  0
LINE
  5
198C3
  8
DANMEN
  6
CONTINUOUS
 10
77.000003
 20
69.2
 30
0.0
 11
77.000003
 21
70.2
 31
0.0
  0
LINE
  5
198C4
  8
DANMEN
  6
CONTINUOUS
 10
77.200003
 20
69.0
 30
0.0
 11
77.800003
 21
69.0
 31
0.0
  0
LINE
  5
198C5
  8
DANMEN
  6
CONTINUOUS
 10
78.000003
 20
69.2
 30
0.0
 11
78.000003
 21
70.2
 31
0.0
  0
LINE
  5
198C7
  8
DANMEN
  6
CONTINUOUS
 10
76.800003
 20
68.8
 30
0.0
 11
78.5
 21
68.8
 31
0.0
  0
LINE
  5
198C8
  8
DANMEN
  6
CONTINUOUS
 10
76.5
 20
70.199997
 30
0.0
 11
76.800003
 21
70.199997
 31
0.0
  0
ARC
  5
198C9
  8
DANMEN
  6
CONTINUOUS
 10
76.5
 20
69.699997
 30
0.0
 40
0.5
 50
89.999982
 51
180.000019
  0
ARC
  5
198CA
  8
DANMEN
  6
CONTINUOUS
 10
76.5
 20
68.5
 30
0.0
 40
0.5
 50
180.000019
 51
270.000001
  0
LINE
  5
198CB
  8
DANMEN
  6
CONTINUOUS
 10
76.800003
 20
70.199997
 30
0.0
 11
76.800003
 21
68.8
 31
0.0
  0
LINE
  5
198CC
  8
DANMEN
  6
CONTINUOUS
 10
76.0
 20
69.699997
 30
0.0
 11
76.0
 21
68.5
 31
0.0
  0
LINE
  5
198CD
  8
DANMEN
  6
CONTINUOUS
 10
74.582437
 20
75.4
 30
0.0
 11
75.200003
 21
75.4
 31
0.0
  0
LINE
  5
198CE
  8
DANMEN
  6
CONTINUOUS
 10
74.327481
 20
76.0
 30
0.0
 11
76.000003
 21
76.0
 31
0.0
  0
ARC
  5
198D1
  8
DANMEN
  6
CONTINUOUS
 10
73.200003
 20
72.305709
 30
0.0
 40
0.2
 50
155.02609
 51
180.0
  0
ARC
  5
198D3
  8
DANMEN
  6
CONTINUOUS
 10
74.327481
 20
75.8
 30
0.0
 40
0.2
 50
90.0
 51
155.02609
  0
LINE
  5
198D4
  8
DANMEN
  6
CONTINUOUS
 10
73.018703
 20
72.39015
 30
0.0
 11
74.146181
 21
75.884441
 31
0.0
  0
LINE
  5
198DA
  8
DANMEN
  6
CONTINUOUS
 10
76.000003
 20
73.5
 30
0.0
 11
77.000003
 21
73.5
 31
0.0
  0
LINE
  5
198DB
  8
DANMEN
  6
CONTINUOUS
 10
77.000003
 20
73.5
 30
0.0
 11
77.000003
 21
74.5
 31
0.0
  0
LINE
  5
198DC
  8
DANMEN
  6
CONTINUOUS
 10
77.200003
 20
72.7
 30
0.0
 11
78.000003
 21
73.5
 31
0.0
  0
LINE
  5
198DE
  8
DANMEN
  6
CONTINUOUS
 10
78.000003
 20
73.5
 30
0.0
 11
78.000003
 21
74.5
 31
0.0
  0
ARC
  5
198DF
  8
DANMEN
  6
CONTINUOUS
 10
77.200003
 20
74.5
 30
0.0
 40
0.2
 50
89.999999
 51
179.999981
  0
ARC
  5
198E1
  8
DANMEN
  6
CONTINUOUS
 10
77.800003
 20
74.5
 30
0.0
 40
0.2
 50
0.0
 51
89.999982
  0
LINE
  5
198E3
  8
DANMEN
  6
CONTINUOUS
 10
76.000003
 20
73.5
 30
0.0
 11
76.000003
 21
76.0
 31
0.0
  0
LINE
  5
198E4
  8
DANMEN
  6
CONTINUOUS
 10
77.200003
 20
74.7
 30
0.0
 11
77.800003
 21
74.7
 31
0.0
  0
ARC
  5
198E5
  8
DANMEN
  6
CONTINUOUS
 10
76.5
 20
75.5
 30
0.0
 40
0.5
 50
89.999982
 51
180.000019
  0
LINE
  5
198E6
  8
DANMEN
  6
CONTINUOUS
 10
76.800003
 20
75.0
 30
0.0
 11
78.5
 21
75.0
 31
0.0
  0
ARC
  5
198E7
  8
DANMEN
  6
CONTINUOUS
 10
76.5
 20
74.300003
 30
0.0
 40
0.5
 50
180.000019
 51
270.000001
  0
LINE
  5
198E8
  8
DANMEN
  6
CONTINUOUS
 10
76.800003
 20
75.0
 30
0.0
 11
76.800003
 21
73.800003
 31
0.0
  0
LINE
  5
198E9
  8
DANMEN
  6
CONTINUOUS
 10
76.5
 20
73.800003
 30
0.0
 11
76.800003
 21
73.800003
 31
0.0
  0
LINE
  5
198EA
  8
DANMEN
  6
CONTINUOUS
 10
76.0
 20
75.5
 30
0.0
 11
76.0
 21
74.300003
 31
0.0
  0
LINE
  5
198EB
  8
DANMEN
  6
CONTINUOUS
 10
79.5
 20
74.35
 30
0.0
 11
79.5
 21
68.5
 31
0.0
  0
ARC
  5
198EC
  8
DANMEN
  6
CONTINUOUS
 10
82.5
 20
72.7
 30
0.0
 40
1.5
 50
180.0
 51
270.0
  0
ARC
  5
198ED
  8
DANMEN
  6
CONTINUOUS
 10
79.0
 20
68.5
 30
0.0
 40
0.5
 50
270.000018
 51
0.0
  0
LINE
  5
198EE
  8
DANMEN
  6
CONTINUOUS
 10
81.0
 20
72.7
 30
0.0
 11
81.0
 21
74.35
 31
0.0
  0
LINE
  5
198EF
  8
DANMEN
  6
CONTINUOUS
 10
79.5
 20
74.35
 30
0.0
 11
81.0
 21
74.35
 31
0.0
  0
ARC
  5
198F0
  8
DANMEN
  6
CONTINUOUS
 10
96.15
 20
65.3
 30
0.0
 40
1.0
 50
90.0
 51
180.0
  0
ARC
  5
198F1
  8
DANMEN
  6
CONTINUOUS
 10
96.833705
 20
67.05
 30
0.0
 40
0.75
 50
270.0
 51
90.0
  0
LINE
  5
198F2
  8
DANMEN
  6
CONTINUOUS
 10
93.5
 20
71.2
 30
0.0
 11
93.5
 21
59.003636
 31
0.0
  0
LINE
  5
198F3
  8
DANMEN
  6
CONTINUOUS
 10
95.15
 20
65.3
 30
0.0
 11
95.15
 21
58.385093
 31
0.0
  0
ARC
  5
198F4
  8
DANMEN
  6
CONTINUOUS
 10
94.15
 20
58.385093
 30
0.0
 40
1.0
 50
294.443955
 51
0.0
  0
LINE
  5
198F5
  8
DANMEN
  6
CONTINUOUS
 10
96.15
 20
66.3
 30
0.0
 11
96.833705
 21
66.3
 31
0.0
  0
ARC
  5
198F6
  8
DANMEN
  6
CONTINUOUS
 10
96.2
 20
68.8
 30
0.0
 40
1.0
 50
180.0
 51
270.0
  0
ARC
  5
198F7
  8
DANMEN
  6
CONTINUOUS
 10
96.2
 20
70.3
 30
0.0
 40
1.0
 50
90.0
 51
180.0
  0
LINE
  5
198F8
  8
DANMEN
  6
CONTINUOUS
 10
95.2
 20
68.8
 30
0.0
 11
95.2
 21
70.3
 31
0.0
  0
LINE
  5
198F9
  8
DANMEN
  6
CONTINUOUS
 10
100.2
 20
69.666295
 30
0.0
 11
100.2
 21
73.35
 31
0.0
  0
ARC
  5
198FA
  8
DANMEN
  6
CONTINUOUS
 10
99.45
 20
69.666295
 30
0.0
 40
0.75
 50
180.0
 51
0.0
  0
ARC
  5
198FB
  8
DANMEN
  6
CONTINUOUS
 10
97.7
 20
70.3
 30
0.0
 40
1.0
 50
0.0
 51
90.0
  0
LINE
  5
198FC
  8
DANMEN
  6
CONTINUOUS
 10
96.2
 20
67.8
 30
0.0
 11
96.833705
 21
67.8
 31
0.0
  0
LINE
  5
198FD
  8
DANMEN
  6
CONTINUOUS
 10
98.7
 20
69.666295
 30
0.0
 11
98.7
 21
70.3
 31
0.0
  0
LINE
  5
198FE
  8
DANMEN
  6
CONTINUOUS
 10
96.2
 20
71.3
 30
0.0
 11
97.7
 21
71.3
 31
0.0
  0
ARC
  5
198FF
  8
DANMEN
  6
CONTINUOUS
 10
99.05
 20
74.5
 30
0.0
 40
0.5
 50
90.0
 51
180.0
  0
LINE
  5
19900
  8
DANMEN
  6
CONTINUOUS
 10
98.55
 20
73.0
 30
0.0
 11
98.55
 21
74.5
 31
0.0
  0
LINE
  5
19901
  8
DANMEN
  6
CONTINUOUS
 10
112.0
 20
58.5
 30
0.0
 11
112.0
 21
33.0
 31
0.0
  0
LINE
  5
19902
  8
DANMEN
  6
CONTINUOUS
 10
110.350006
 20
73.35
 30
0.0
 11
110.350006
 21
61.08182
 31
0.0
  0
ARC
  5
19903
  8
DANMEN
  6
CONTINUOUS
 10
111.5
 20
58.5
 30
0.0
 40
0.5
 50
270.0
 51
0.0
  0
LINE
  5
19904
  8
DANMEN
  6
CONTINUOUS
 10
110.350006
 20
61.08182
 30
0.0
 11
107.215287
 21
59.718899
 31
0.0
  0
ARC
  5
19905
  8
DANMEN
  6
CONTINUOUS
 10
107.673822
 20
58.664268
 30
0.0
 40
0.5
 50
203.49856
 51
293.49856
  0
ARC
  5
19906
  8
DANMEN
  6
CONTINUOUS
 10
107.41465
 20
59.260364
 30
0.0
 40
0.5
 50
113.49856
 51
203.49856
  0
LINE
  5
19907
  8
DANMEN
  6
CONTINUOUS
 10
107.215287
 20
58.464905
 30
0.0
 11
106.956115
 21
59.061001
 31
0.0
  0
ARC
  5
1990A
  8
DANMEN
  6
CONTINUOUS
 10
110.4
 20
58.759133
 30
0.0
 40
0.5
 50
0.0
 51
113.49856
  0
LINE
  5
1990B
  8
DANMEN
  6
CONTINUOUS
 10
110.200637
 20
59.217668
 30
0.0
 11
107.873185
 21
58.205733
 31
0.0
  0
LINE
  5
1990C
  8
DANMEN
  6
CONTINUOUS
 10
110.9
 20
58.759133
 30
0.0
 11
110.9
 21
58.0
 31
0.0
  0
LINE
  5
1990D
  8
DANMEN
  6
CONTINUOUS
 10
110.9
 20
58.0
 30
0.0
 11
111.5
 21
58.0
 31
0.0
  0
LINE
  5
1990F
  8
DANMEN
  6
CONTINUOUS
 10
108.010724
 20
110.588311
 30
0.0
 11
100.063599
 21
97.650005
 31
0.0
  0
LINE
  5
19910
  8
DANMEN
  6
CONTINUOUS
 10
85.4
 20
113.000007
 30
0.0
 11
108.400001
 21
120.000006
 31
0.0
  0
LINE
  5
19911
  8
DANMEN
  6
CONTINUOUS
 10
85.4
 20
120.000007
 30
0.0
 11
108.4
 21
120.000007
 31
0.0
  0
LINE
  5
19912
  8
DANMEN
  6
CONTINUOUS
 10
85.4
 20
113.000007
 30
0.0
 11
108.4
 21
113.000007
 31
0.0
  0
LINE
  5
19913
  8
DANMEN
  6
CONTINUOUS
 10
101.0
 20
88.0
 30
0.0
 11
110.35
 21
88.0
 31
0.0
  0
LINE
  5
19914
  8
DANMEN
  6
CONTINUOUS
 10
99.0
 20
86.2
 30
0.0
 11
110.35
 21
86.2
 31
0.0
  0
LINE
  5
19915
  8
DANMEN
  6
CONTINUOUS
 10
110.2
 20
111.000003
 30
0.0
 11
102.0
 21
97.650005
 31
0.0
  0
LINE
  5
19916
  8
DANMEN
  6
CONTINUOUS
 10
107.584676
 20
111.350003
 30
0.0
 11
95.299997
 21
111.350003
 31
0.0
  0
LINE
  5
19917
  8
DANMEN
  6
CONTINUOUS
 10
82.65
 20
113.000003
 30
0.0
 11
108.55
 21
113.000003
 31
0.0
  0
LINE
  5
19918
  8
DANMEN
  6
CONTINUOUS
 10
82.65
 20
111.350003
 30
0.0
 11
82.65
 21
94.65
 31
0.0
  0
LINE
  5
19919
  8
DANMEN
  6
DASHED
 10
101.0
 20
94.199997
 30
0.0
 11
76.5
 21
94.199997
 31
0.0
  0
LINE
  5
1991A
  8
DANMEN
  6
DASHED
 10
97.0
 20
93.0
 30
0.0
 11
85.0
 21
93.0
 31
0.0
  0
ARC
  5
1991B
  8
DANMEN
  6
DASHED
 10
83.299999
 20
89.500028
 30
0.0
 40
0.3
 50
124.343976
 51
202.988532
  0
LINE
  5
1991C
  8
DANMEN
  6
DASHED
 10
84.5
 20
88.399997
 30
0.0
 11
84.5
 21
92.5
 31
0.0
  0
LINE
  5
1991D
  8
DANMEN
  6
CONTINUOUS
 10
83.5
 20
83.999996
 30
0.0
 11
83.5
 21
93.0
 31
0.0
  0
LINE
  5
1991E
  8
DANMEN
  6
CONTINUOUS
 10
85.0
 20
93.649995
 30
0.0
 11
85.0
 21
83.499997
 31
0.0
  0
LINE
  5
1991F
  8
DANMEN
  6
CONTINUOUS
 10
70.800003
 20
82.0
 30
0.0
 11
72.5
 21
82.0
 31
0.0
  0
ARC
  5
19923
  8
DANMEN
  6
CONTINUOUS
 10
72.5
 20
81.5
 30
0.0
 40
0.5
 50
0.0
 51
89.999982
  0
ARC
  5
19925
  8
DANMEN
  6
CONTINUOUS
 10
84.0
 20
83.999996
 30
0.0
 40
0.5
 50
180.0
 51
270.0
  0
LINE
  5
19926
  8
DANMEN
  6
CONTINUOUS
 10
85.0
 20
83.499997
 30
0.0
 11
84.0
 21
83.499996
 31
0.0
  0
LINE
  5
19927
  8
DANMEN
  6
DASHED
 10
83.023824
 20
89.382864
 30
0.0
 11
84.423825
 21
86.082833
 31
0.0
  0
ARC
  5
1992D
  8
DANMEN
  6
DASHED
 10
84.7
 20
86.199997
 30
0.0
 40
0.3
 50
202.988532
 51
12.999521
  0
LINE
  5
1992E
  8
DANMEN
  6
DASHED
 10
84.5
 20
88.399997
 30
0.0
 11
84.992312
 21
86.26748
 31
0.0
  0
LINE
  5
1992F
  8
DANMEN
  6
CONTINUOUS
 10
73.0
 20
93.0
 30
0.0
 11
81.0
 21
93.0
 31
0.0
  0
LINE
  5
19930
  8
DANMEN
  6
DASHED
 10
83.5
 20
93.0
 30
0.0
 11
77.714146
 21
93.0
 31
0.0
  0
ARC
  5
19935
  8
DANMEN
  6
DASHED
 10
76.5
 20
93.199997
 30
0.0
 40
0.5
 50
180.0
 51
270.0
  0
ARC
  5
19936
  8
DANMEN
  6
DASHED
 10
76.5
 20
93.699997
 30
0.0
 40
0.5
 50
90.0
 51
180.0
  0
LINE
  5
19937
  8
DANMEN
  6
DASHED
 10
76.0
 20
93.699997
 30
0.0
 11
76.0
 21
93.199997
 31
0.0
  0
LINE
  5
19938
  8
DANMEN
  6
DASHED
 10
77.0
 20
92.699997
 30
0.0
 11
76.5
 21
92.699997
 31
0.0
  0
ARC
  5
19939
  8
DANMEN
  6
DASHED
 10
77.714146
 20
92.0
 30
0.0
 40
1.0
 50
89.999982
 51
135.573244
  0
LINE
  5
1993A
  8
DANMEN
  6
CONTINUOUS
 10
82.8
 20
90.0
 30
0.0
 11
83.5
 21
90.0
 31
0.0
  0
ARC
  5
1993B
  8
DANMEN
  6
CONTINUOUS
 10
83.0
 20
92.5
 30
0.0
 40
0.5
 50
0.0
 51
90.0
  0
LINE
  5
1993C
  8
DANMEN
  6
CONTINUOUS
 10
81.5
 20
93.0
 30
0.0
 11
83.5
 21
93.0
 31
0.0
  0
LINE
  5
1993D
  8
DANMEN
  6
CONTINUOUS
 10
82.65
 20
94.65
 30
0.0
 11
84.0
 21
94.65
 31
0.0
  0
ARC
  5
1993E
  8
DANMEN
  6
CONTINUOUS
 10
81.5
 20
92.5
 30
0.0
 40
0.5
 50
90.0
 51
180.0
  0
LINE
  5
1993F
  8
DANMEN
  6
CONTINUOUS
 10
81.5
 20
93.0
 30
0.0
 11
83.0
 21
93.0
 31
0.0
  0
ARC
  5
19940
  8
DANMEN
  6
CONTINUOUS
 10
81.5
 20
93.5
 30
0.0
 40
0.5
 50
180.0
 51
270.0
  0
LINE
  5
19943
  8
DANMEN
  6
DASHED
 10
83.5
 20
90.000035
 30
0.0
 11
83.130743
 21
89.747729
 31
0.0
  0
LINE
  5
19944
  8
DANMEN
  6
DASHED
 10
83.5
 20
93.0
 30
0.0
 11
83.5
 21
90.000035
 31
0.0
  0
ARC
  5
19945
  8
DANMEN
  6
DASHED
 10
85.0
 20
92.5
 30
0.0
 40
0.5
 50
90.0
 51
180.0
  0
LINE
  5
19947
  8
DANMEN
  6
CONTINUOUS
 10
83.5
 20
92.5
 30
0.0
 11
83.5
 21
90.0
 31
0.0
  0
ARC
  5
19949
  8
DANMEN
  6
CONTINUOUS
 10
84.0
 20
93.65
 30
0.0
 40
1.0
 50
0.0
 51
90.0
  0
LINE
  5
1994A
  8
DANMEN
  6
DASHED
 10
97.5
 20
84.899997
 30
0.0
 11
97.5
 21
92.5
 31
0.0
  0
LINE
  5
1994B
  8
DANMEN
  6
DASHED
 10
98.5
 20
93.0
 30
0.0
 11
98.5
 21
86.500035
 31
0.0
  0
LINE
  5
1994C
  8
DANMEN
  6
CONTINUOUS
 10
99.35
 20
87.2
 30
0.0
 11
99.35
 21
90.0
 31
0.0
  0
LINE
  5
1994D
  8
DANMEN
  6
CONTINUOUS
 10
101.0
 20
92.0
 30
0.0
 11
101.0
 21
88.0
 31
0.0
  0
LINE
  5
1994E
  8
DANMEN
  6
CONTINUOUS
 10
98.3
 20
91.500005
 30
0.0
 11
98.3
 21
83.999999
 31
0.0
  0
LINE
  5
1994F
  8
DANMEN
  6
CONTINUOUS
 10
96.8
 20
90.850005
 30
0.0
 11
96.8
 21
83.499999
 31
0.0
  0
LINE
  5
19950
  8
DANMEN
  6
DASHED
 10
97.5
 20
84.899997
 30
0.0
 11
97.007688
 21
82.76748
 31
0.0
  0
LINE
  5
19951
  8
DANMEN
  6
DASHED
 10
98.976176
 20
85.882864
 30
0.0
 11
97.576175
 21
82.582833
 31
0.0
  0
ARC
  5
19952
  8
DANMEN
  6
CONTINUOUS
 10
97.8
 20
83.999999
 30
0.0
 40
0.5
 50
270.0
 51
0.0
  0
ARC
  5
19955
  8
DANMEN
  6
DASHED
 10
97.3
 20
82.699997
 30
0.0
 40
0.3
 50
167.000479
 51
337.011468
  0
LINE
  5
19956
  8
DANMEN
  6
CONTINUOUS
 10
97.8
 20
83.499999
 30
0.0
 11
96.8
 21
83.499999
 31
0.0
  0
LINE
  5
1995A
  8
DANMEN
  6
DASHED
 10
98.5
 20
86.500035
 30
0.0
 11
98.869257
 21
86.247729
 31
0.0
  0
ARC
  5
1995B
  8
DANMEN
  6
DASHED
 10
98.700001
 20
86.000028
 30
0.0
 40
0.3
 50
337.011468
 51
55.656024
  0
ARC
  5
1995D
  8
DANMEN
  6
CONTINUOUS
 10
99.0
 20
86.7
 30
0.0
 40
0.5
 50
90.0
 51
270.0
  0
LINE
  5
1995E
  8
DANMEN
  6
CONTINUOUS
 10
99.0
 20
87.2
 30
0.0
 11
99.35
 21
87.2
 31
0.0
  0
ARC
  5
1995F
  8
DANMEN
  6
CONTINUOUS
 10
95.7
 20
91.350005
 30
0.0
 40
0.5
 50
180.0
 51
270.0
  0
ARC
  5
19960
  8
DANMEN
  6
CONTINUOUS
 10
95.7
 20
97.150004
 30
0.0
 40
0.5
 50
90.0
 51
180.0
  0
LINE
  5
19961
  8
DANMEN
  6
CONTINUOUS
 10
95.2
 20
97.150004
 30
0.0
 11
95.2
 21
91.350005
 31
0.0
  0
CIRCLE
  5
19964
  8
DANMEN
  6
CONTINUOUS
 10
98.825
 20
94.000005
 30
0.0
 40
2.0
  0
LINE
  5
19965
  8
DANMEN
  6
CONTINUOUS
 10
100.8
 20
93.500005
 30
0.0
 11
100.8
 21
96.000005
 31
0.0
  0
LINE
  5
19966
  8
DANMEN
  6
CONTINUOUS
 10
96.85
 20
96.000005
 30
0.0
 11
96.85
 21
92.500005
 31
0.0
  0
LINE
  5
19967
  8
DANMEN
  6
CONTINUOUS
 10
102.0
 20
93.000005
 30
0.0
 11
102.0
 21
97.650005
 31
0.0
  0
LINE
  5
19968
  8
DANMEN
  6
DASHED
 10
98.5
 20
93.0
 30
0.0
 11
101.5
 21
93.0
 31
0.0
  0
LINE
  5
19969
  8
DANMEN
  6
CONTINUOUS
 10
99.0
 20
93.0
 30
0.0
 11
102.0
 21
93.0
 31
0.0
  0
CIRCLE
  5
1996B
  8
DANMEN
  6
CONTINUOUS
 10
98.413199
 20
94.823913
 30
0.0
 40
0.1
  0
CIRCLE
  5
1996C
  8
DANMEN
  6
CONTINUOUS
 10
97.288908
 20
94.137323
 30
0.0
 40
0.1
  0
CIRCLE
  5
1996D
  8
DANMEN
  6
CONTINUOUS
 10
97.632203
 20
95.167208
 30
0.0
 40
0.1
  0
CIRCLE
  5
1996E
  8
DANMEN
  6
CONTINUOUS
 10
98.052739
 20
93.630963
 30
0.0
 40
0.1
  0
CIRCLE
  5
1996F
  8
DANMEN
  6
CONTINUOUS
 10
99.357261
 20
93.605216
 30
0.0
 40
0.1
  0
CIRCLE
  5
19970
  8
DANMEN
  6
CONTINUOUS
 10
98.722165
 20
92.944373
 30
0.0
 40
0.1
  0
CIRCLE
  5
19971
  8
DANMEN
  6
CONTINUOUS
 10
97.503467
 20
92.944373
 30
0.0
 40
0.1
  0
CIRCLE
  5
19972
  8
DANMEN
  6
CONTINUOUS
 10
98.353123
 20
92.386519
 30
0.0
 40
0.1
  0
CIRCLE
  5
19973
  8
DANMEN
  6
CONTINUOUS
 10
99.048295
 20
94.223147
 30
0.0
 40
0.1
  0
ARC
  5
19976
  8
DANMEN
  6
DASHED
 10
97.0
 20
92.5
 30
0.0
 40
0.5
 50
0.0
 51
90.0
  0
ARC
  5
19977
  8
DANMEN
  6
CONTINUOUS
 10
99.0
 20
92.5
 30
0.0
 40
0.5
 50
89.999981
 51
180.000037
  0
LINE
  5
19978
  8
DANMEN
  6
CONTINUOUS
 10
98.5
 20
92.5
 30
0.0
 11
98.5
 21
90.0
 31
0.0
  0
LINE
  5
19979
  8
DANMEN
  6
CONTINUOUS
 10
99.35
 20
90.0
 30
0.0
 11
98.5
 21
90.0
 31
0.0
  0
LINE
  5
1997B
  8
DANMEN
  6
CONTINUOUS
 10
96.85
 20
92.500005
 30
0.0
 11
97.3
 21
92.500005
 31
0.0
  0
LINE
  5
1997C
  8
DANMEN
  6
CONTINUOUS
 10
95.7
 20
90.850005
 30
0.0
 11
96.8
 21
90.850005
 31
0.0
  0
ARC
  5
1997D
  8
DANMEN
  6
CONTINUOUS
 10
97.3
 20
91.500005
 30
0.0
 40
1.0
 50
0.0
 51
90.0
  0
CIRCLE
  5
1997E
  8
DANMEN
  6
CONTINUOUS
 10
99.597567
 20
95.167208
 30
0.0
 40
0.1
  0
CIRCLE
  5
1997F
  8
DANMEN
  6
CONTINUOUS
 10
99.597567
 20
95.167208
 30
0.0
 40
0.1
  0
CIRCLE
  5
19980
  8
DANMEN
  6
CONTINUOUS
 10
99.597567
 20
95.167208
 30
0.0
 40
0.1
  0
CIRCLE
  5
19981
  8
DANMEN
  6
CONTINUOUS
 10
100.198333
 20
94.274641
 30
0.0
 40
0.1
  0
CIRCLE
  5
19982
  8
DANMEN
  6
CONTINUOUS
 10
100.266992
 20
93.176097
 30
0.0
 40
0.1
  0
CIRCLE
  5
19983
  8
DANMEN
  6
CONTINUOUS
 10
99.606149
 20
92.532419
 30
0.0
 40
0.1
  0
LINE
  5
19986
  8
DANMEN
  6
DASHED
 10
101.5
 20
93.0
 30
0.0
 11
101.5
 21
93.699997
 31
0.0
  0
ARC
  5
19987
  8
DANMEN
  6
DASHED
 10
101.0
 20
93.699997
 30
0.0
 40
0.5
 50
0.0
 51
89.999982
  0
LINE
  5
19988
  8
DANMEN
  6
CONTINUOUS
 10
102.0
 20
93.0
 30
0.0
 11
102.0
 21
92.5
 31
0.0
  0
ARC
  5
19989
  8
DANMEN
  6
CONTINUOUS
 10
101.5
 20
92.5
 30
0.0
 40
0.5
 50
270.0
 51
0.0
  0
LINE
  5
1998A
  8
DANMEN
  6
CONTINUOUS
 10
101.5
 20
92.0
 30
0.0
 11
101.0
 21
92.0
 31
0.0
  0
LINE
  5
1998B
  8
DANMEN
  6
CONTINUOUS
 10
102.0
 20
93.000005
 30
0.0
 11
101.3
 21
93.000005
 31
0.0
  0
ARC
  5
1998C
  8
DANMEN
  6
CONTINUOUS
 10
101.3
 20
93.500005
 30
0.0
 40
0.5
 50
180.0
 51
270.0
  0
LINE
  5
1998D
  8
DANMEN
  6
CONTINUOUS
 10
100.063599
 20
97.650005
 30
0.0
 11
95.7
 21
97.650004
 31
0.0
  0
LINE
  5
1998E
  8
DANMEN
  6
CONTINUOUS
 10
96.85
 20
96.000005
 30
0.0
 11
100.8
 21
96.000005
 31
0.0
  0
CIRCLE
  5
1998F
  8
DANMEN
  6
CONTINUOUS
 10
98.799406
 20
95.596327
 30
0.0
 40
0.1
  0
ARC
  5
19991
  8
DANMEN
  6
CONTINUOUS
 10
86.699993
 20
110.350003
 30
0.0
 40
1.0
 50
0.0
 51
90.0
  0
LINE
  5
19992
  8
DANMEN
  6
CONTINUOUS
 10
86.699993
 20
111.350003
 30
0.0
 11
82.65
 21
111.350003
 31
0.0
  0
LINE
  5
19993
  8
DANMEN
  6
CONTINUOUS
 10
85.4
 20
120.000007
 30
0.0
 11
85.4
 21
113.000007
 31
0.0
  0
LINE
  5
19996
  8
DANMEN
  6
CONTINUOUS
 10
90.199997
 20
111.4
 30
0.0
 11
91.799997
 21
111.4
 31
0.0
  0
LINE
  5
19997
  8
DANMEN
  6
CONTINUOUS
 10
87.699993
 20
109.069695
 30
0.0
 11
87.699993
 21
110.350003
 31
0.0
  0
LINE
  5
19998
  8
DANMEN
  6
CONTINUOUS
 10
89.899992
 20
107.800001
 30
0.0
 11
89.899992
 21
108.063068
 31
0.0
  0
ARC
  5
19999
  8
DANMEN
  6
CONTINUOUS
 10
90.199993
 20
109.15394
 30
0.0
 40
1.0
 50
179.999974
 51
245.375656
  0
ARC
  5
1999A
  8
DANMEN
  6
CONTINUOUS
 10
89.699992
 20
108.063069
 30
0.0
 40
0.2
 50
359.999974
 51
65.375656
  0
LINE
  5
1999B
  8
DANMEN
  6
CONTINUOUS
 10
89.599992
 20
107.500001
 30
0.0
 11
88.460613
 21
107.500001
 31
0.0
  0
ARC
  5
1999C
  8
DANMEN
  6
CONTINUOUS
 10
89.599992
 20
107.800001
 30
0.0
 40
0.3
 50
269.999974
 51
359.999974
  0
LINE
  5
1999D
  8
DANMEN
  6
CONTINUOUS
 10
89.199993
 20
109.15394
 30
0.0
 11
89.199993
 21
110.400001
 31
0.0
  0
ARC
  5
1999E
  8
DANMEN
  6
CONTINUOUS
 10
89.699993
 20
109.069694
 30
0.0
 40
2.0
 50
179.999974
 51
231.706497
  0
ARC
  5
1999F
  8
DANMEN
  6
CONTINUOUS
 10
90.199993
 20
110.4
 30
0.0
 40
1.0
 50
89.999974
 51
179.999974
  0
ARC
  5
199A0
  8
DANMEN
  6
CONTINUOUS
 10
92.299998
 20
109.069694
 30
0.0
 40
2.0
 50
308.293503
 51
0.000026
  0
LINE
  5
199A1
  8
DANMEN
  6
CONTINUOUS
 10
92.799998
 20
109.15394
 30
0.0
 11
92.799997
 21
110.400001
 31
0.0
  0
ARC
  5
199A2
  8
DANMEN
  6
CONTINUOUS
 10
92.399998
 20
107.800001
 30
0.0
 40
0.3
 50
180.000026
 51
270.000026
  0
LINE
  5
199A3
  8
DANMEN
  6
CONTINUOUS
 10
92.399999
 20
107.500001
 30
0.0
 11
93.539378
 21
107.500001
 31
0.0
  0
ARC
  5
199A4
  8
DANMEN
  6
CONTINUOUS
 10
92.299998
 20
108.063069
 30
0.0
 40
0.2
 50
114.624344
 51
180.000026
  0
ARC
  5
199A5
  8
DANMEN
  6
CONTINUOUS
 10
91.799998
 20
109.15394
 30
0.0
 40
1.0
 50
294.624344
 51
0.000026
  0
LINE
  5
199A6
  8
DANMEN
  6
CONTINUOUS
 10
92.099998
 20
107.800001
 30
0.0
 11
92.099998
 21
108.063068
 31
0.0
  0
ARC
  5
199A7
  8
DANMEN
  6
CONTINUOUS
 10
91.799997
 20
110.4
 30
0.0
 40
1.0
 50
0.000026
 51
90.000026
  0
LINE
  5
199A8
  8
DANMEN
  6
CONTINUOUS
 10
94.299998
 20
109.069695
 30
0.0
 11
94.299997
 21
110.350003
 31
0.0
  0
ARC
  5
199A9
  8
DANMEN
  6
CONTINUOUS
 10
95.299997
 20
110.350003
 30
0.0
 40
1.0
 50
90.0
 51
180.0
  0
LINE
  5
199AB
  8
DANMEN
  6
CONTINUOUS
 10
112.0
 20
93.0
 30
0.0
 11
112.0
 21
110.000137
 31
0.0
  0
LINE
  5
199AC
  8
DANMEN
  6
CONTINUOUS
 10
110.2
 20
111.000003
 30
0.0
 11
110.2
 21
88.0
 31
0.0
  0
LINE
  5
199AD
  8
DANMEN
  6
CONTINUOUS
 10
110.463231
 20
93.519298
 30
0.0
 11
110.500009
 21
109.007745
 31
0.0
  0
LINE
  5
199AE
  8
DANMEN
  6
CONTINUOUS
 10
111.700003
 20
109.259086
 30
0.0
 11
111.167188
 21
94.024983
 31
0.0
  0
LINE
  5
199AF
  8
DANMEN
  6
CONTINUOUS
 10
110.163219
 20
93.503575
 30
0.0
 11
110.200003
 21
109.000003
 31
0.0
  0
LINE
  5
199B0
  8
DANMEN
  6
CONTINUOUS
 10
110.35
 20
92.5
 30
0.0
 11
110.35
 21
88.0
 31
0.0
  0
ARC
  5
199B1
  8
DANMEN
  6
CONTINUOUS
 10
111.5
 20
92.5
 30
0.0
 40
0.5
 50
0.0
 51
90.0
  0
LINE
  5
199B2
  8
DANMEN
  6
CONTINUOUS
 10
110.3
 20
93.0
 30
0.0
 11
110.3
 21
94.52729
 31
0.0
  0
LINE
  5
199B4
  8
DANMEN
  6
CONTINUOUS
 10
110.163219
 20
93.503575
 30
0.0
 11
110.693389
 21
93.53136
 31
0.0
  0
ARC
  5
199B8
  8
DANMEN
  6
CONTINUOUS
 10
110.667221
 20
94.030675
 30
0.0
 40
0.5
 50
273.0
 51
359.347777
  0
ARC
  5
199BB
  8
DANMEN
  6
CONTINUOUS
 10
110.85
 20
92.5
 30
0.0
 40
0.5
 50
90.0
 51
180.0
  0
LINE
  5
199BC
  8
DANMEN
  6
CONTINUOUS
 10
110.85
 20
93.0
 30
0.0
 11
111.5
 21
93.0
 31
0.0
  0
LINE
  5
199BE
  8
DANMEN
  6
CONTINUOUS
 10
113.700003
 20
117.500003
 30
0.0
 11
130.200003
 21
117.500003
 31
0.0
  0
LINE
  5
199BF
  8
DANMEN
  6
CONTINUOUS
 10
130.200003
 20
110.153615
 30
0.0
 11
111.700003
 21
109.000003
 31
0.0
  0
LINE
  5
199C0
  8
DANMEN
  6
CONTINUOUS
 10
110.200003
 20
113.500003
 30
0.0
 11
110.200003
 21
109.000003
 31
0.0
  0
LINE
  5
199C1
  8
DANMEN
  6
CONTINUOUS
 10
110.500003
 20
113.500003
 30
0.0
 11
110.500003
 21
108.992034
 31
0.0
  0
LINE
  5
199C2
  8
DANMEN
  6
CONTINUOUS
 10
111.700003
 20
115.500003
 30
0.0
 11
111.700003
 21
109.000003
 31
0.0
  0
LINE
  5
199C3
  8
DANMEN
  6
CONTINUOUS
 10
110.2
 20
113.000003
 30
0.0
 11
110.2
 21
111.000003
 31
0.0
  0
ARC
  5
199C4
  8
DANMEN
  6
CONTINUOUS
 10
118.499997
 20
113.500003
 30
0.0
 40
0.5
 50
270.0
 51
0.0
  0
ARC
  5
199C5
  8
DANMEN
  6
CONTINUOUS
 10
107.584676
 20
110.850003
 30
0.0
 40
0.5
 50
328.440409
 51
90.0
  0
ARC
  5
199CB
  8
DANMEN
  6
CONTINUOUS
 10
113.700003
 20
115.500003
 30
0.0
 40
2.0
 50
89.999982
 51
180.000019
  0
LINE
  5
199CC
  8
DANMEN
  6
CONTINUOUS
 10
110.2
 20
113.000003
 30
0.0
 11
118.499997
 21
113.000003
 31
0.0
  0
LINE
  5
199CD
  8
DANMEN
  6
CONTINUOUS
 10
109.05
 20
115.000003
 30
0.0
 11
115.15
 21
115.000003
 31
0.0
  0
ARC
  5
199CE
  8
DANMEN
  6
CONTINUOUS
 10
112.0
 20
121.500003
 30
0.0
 40
0.5
 50
179.999999
 51
0.000018
  0
LINE
  5
199CF
  8
DANMEN
  6
CONTINUOUS
 10
108.4
 20
120.000007
 30
0.0
 11
108.4
 21
113.000007
 31
0.0
  0
LINE
  5
199D0
  8
DANMEN
  6
CONTINUOUS
 10
110.200003
 20
113.500003
 30
0.0
 11
111.700003
 21
113.500003
 31
0.0
  0
ARC
  5
199D5
  8
DANMEN
  6
CONTINUOUS
 10
109.05
 20
114.500003
 30
0.0
 40
0.5
 50
90.0
 51
180.0
  0
LINE
  5
199D6
  8
DANMEN
  6
CONTINUOUS
 10
108.55
 20
114.500003
 30
0.0
 11
108.55
 21
113.000003
 31
0.0
  0
LINE
  5
199D8
  8
DANMEN
  6
CONTINUOUS
 10
115.15
 20
122.500003
 30
0.0
 11
115.15
 21
115.000003
 31
0.0
  0
LINE
  5
199D9
  8
DANMEN
  6
CONTINUOUS
 10
116.8
 20
114.500003
 30
0.0
 11
118.999997
 21
114.500003
 31
0.0
  0
LINE
  5
199DA
  8
DANMEN
  6
CONTINUOUS
 10
118.999997
 20
114.500003
 30
0.0
 11
118.999997
 21
113.500003
 31
0.0
  0
LINE
  5
199DB
  8
DANMEN
  6
CONTINUOUS
 10
115.150003
 20
123.500003
 30
0.0
 11
112.5
 21
123.500003
 31
0.0
  0
LINE
  5
199DC
  8
DANMEN
  6
CONTINUOUS
 10
115.150003
 20
122.500003
 30
0.0
 11
112.5
 21
122.500003
 31
0.0
  0
LINE
  5
199DD
  8
DANMEN
  6
CONTINUOUS
 10
112.5
 20
121.500003
 30
0.0
 11
112.5
 21
122.500003
 31
0.0
  0
LINE
  5
199DE
  8
DANMEN
  6
CONTINUOUS
 10
162.5
 20
88.0
 30
0.0
 11
186.5
 21
88.0
 31
0.0
  0
LINE
  5
199DF
  8
DANMEN
  6
CONTINUOUS
 10
163.649994
 20
89.649994
 30
0.0
 11
170.350006
 21
89.649994
 31
0.0
  0
LINE
  5
199E0
  8
DANMEN
  6
CONTINUOUS
 10
163.649994
 20
93.5
 30
0.0
 11
163.649994
 21
89.649994
 31
0.0
  0
LINE
  5
199E1
  8
DANMEN
  6
CONTINUOUS
 10
162.0
 20
93.5
 30
0.0
 11
162.0
 21
88.5
 31
0.0
  0
ARC
  5
199E4
  8
DANMEN
  6
CONTINUOUS
 10
162.5
 20
88.5
 30
0.0
 40
0.5
 50
180.000036
 51
269.999963
  0
ARC
  5
199E7
  8
DANMEN
  6
CONTINUOUS
 10
162.5
 20
93.5
 30
0.0
 40
0.5
 50
89.999982
 51
180.000019
  0
ARC
  5
199E8
  8
DANMEN
  6
CONTINUOUS
 10
163.149994
 20
93.5
 30
0.0
 40
0.5
 50
359.999981
 51
89.999982
  0
LINE
  5
199E9
  8
DANMEN
  6
CONTINUOUS
 10
162.5
 20
94.0
 30
0.0
 11
163.149994
 21
94.0
 31
0.0
  0
LINE
  5
199EA
  8
DANMEN
  6
CONTINUOUS
 10
172.0
 20
120.5
 30
0.0
 11
172.0
 21
89.1
 31
0.0
  0
LINE
  5
199EB
  8
DANMEN
  6
CONTINUOUS
 10
174.0
 20
89.649994
 30
0.0
 11
186.5
 21
89.649994
 31
0.0
  0
LINE
  5
199EC
  8
DANMEN
  6
CONTINUOUS
 10
172.0
 20
89.1
 30
0.0
 11
174.0
 21
89.1
 31
0.0
  0
LINE
  5
199F0
  8
DANMEN
  6
CONTINUOUS
 10
174.0
 20
89.649994
 30
0.0
 11
174.0
 21
89.1
 31
0.0
  0
ARC
  5
199F2
  8
DANMEN
  6
CONTINUOUS
 10
186.5
 20
89.149994
 30
0.0
 40
0.5
 50
359.999981
 51
89.999982
  0
ARC
  5
199F5
  8
DANMEN
  6
CONTINUOUS
 10
186.5
 20
88.5
 30
0.0
 40
0.5
 50
270.000018
 51
359.999981
  0
LINE
  5
199F6
  8
DANMEN
  6
CONTINUOUS
 10
187.0
 20
89.149994
 30
0.0
 11
187.0
 21
88.5
 31
0.0
  0
LINE
  5
199F7
  8
DANMEN
  6
CONTINUOUS
 10
172.0
 20
120.5
 30
0.0
 11
184.5
 21
120.5
 31
0.0
  0
ARC
  5
199F8
  8
DANMEN
  6
CONTINUOUS
 10
177.5
 20
123.5
 30
0.0
 40
0.5
 50
90.000037
 51
180.000019
  0
LINE
  5
199F9
  8
DANMEN
  6
CONTINUOUS
 10
172.0
 20
124.0
 30
0.0
 11
177.5
 21
124.0
 31
0.0
  0
LINE
  5
199FA
  8
DANMEN
  6
CONTINUOUS
 10
176.270495
 20
124.0
 30
0.0
 11
179.350004
 21
124.0
 31
0.0
  0
LINE
  5
199FB
  8
DANMEN
  6
CONTINUOUS
 10
172.0
 20
121.6
 30
0.0
 11
177.0
 21
121.6
 31
0.0
  0
LINE
  5
199FF
  8
DANMEN
  6
CONTINUOUS
 10
177.0
 20
123.5
 30
0.0
 11
177.0
 21
121.6
 31
0.0
  0
LINE
  5
19A02
  8
DANMEN
  6
CONTINUOUS
 10
177.8
 20
121.6
 30
0.0
 11
183.999998
 21
121.6
 31
0.0
  0
LINE
  5
19A03
  8
DANMEN
  6
CONTINUOUS
 10
180.150004
 20
122.8
 30
0.0
 11
181.850003
 21
122.8
 31
0.0
  0
ARC
  5
19A06
  8
DANMEN
  6
CONTINUOUS
 10
178.699997
 20
123.5
 30
0.0
 40
0.5
 50
359.999981
 51
90.000037
  0
LINE
  5
19A07
  8
DANMEN
  6
CONTINUOUS
 10
177.8
 20
123.199997
 30
0.0
 11
179.199997
 21
123.199997
 31
0.0
  0
LINE
  5
19A08
  8
DANMEN
  6
CONTINUOUS
 10
179.200001
 20
123.499999
 30
0.0
 11
179.200003
 21
123.199996
 31
0.0
  0
LINE
  5
19A09
  8
DANMEN
  6
CONTINUOUS
 10
177.5
 20
124.0
 30
0.0
 11
178.699997
 21
124.0
 31
0.0
  0
LINE
  5
19A0A
  8
DANMEN
  6
CONTINUOUS
 10
177.8
 20
123.199997
 30
0.0
 11
177.8
 21
121.6
 31
0.0
  0
LINE
  5
19A0D
  8
DANMEN
  6
CONTINUOUS
 10
178.350003
 20
123.0
 30
0.0
 11
179.350004
 21
123.0
 31
0.0
  0
LINE
  5
19A0E
  8
DANMEN
  6
CONTINUOUS
 10
178.150003
 20
122.8
 30
0.0
 11
178.150003
 21
122.2
 31
0.0
  0
LINE
  5
19A0F
  8
DANMEN
  6
CONTINUOUS
 10
178.350003
 20
122.0
 30
0.0
 11
179.350004
 21
122.0
 31
0.0
  0
LINE
  5
19A11
  8
DANMEN
  6
CONTINUOUS
 10
180.150004
 20
122.8
 30
0.0
 11
179.350004
 21
122.0
 31
0.0
  0
ARC
  5
19A14
  8
DANMEN
  6
CONTINUOUS
 10
178.350003
 20
122.2
 30
0.0
 40
0.2
 50
180.000019
 51
270.000001
  0
ARC
  5
19A16
  8
DANMEN
  6
CONTINUOUS
 10
178.350003
 20
122.8
 30
0.0
 40
0.2
 50
89.999982
 51
180.000019
  0
LINE
  5
19A17
  8
DANMEN
  6
CONTINUOUS
 10
179.350004
 20
124.0
 30
0.0
 11
179.350004
 21
123.0
 31
0.0
  0
ARC
  5
19A1D
  8
DANMEN
  6
CONTINUOUS
 10
183.300003
 20
123.5
 30
0.0
 40
0.5
 50
90.0
 51
179.999149
  0
ARC
  5
19A22
  8
DANMEN
  6
CONTINUOUS
 10
184.5
 20
121.0
 30
0.0
 40
0.5
 50
270.000018
 51
0.0
  0
ARC
  5
19A23
  8
DANMEN
  6
CONTINUOUS
 10
184.5
 20
123.5
 30
0.0
 40
0.5
 50
359.999981
 51
90.000037
  0
LINE
  5
19A24
  8
DANMEN
  6
CONTINUOUS
 10
183.300003
 20
124.0
 30
0.0
 11
184.5
 21
124.0
 31
0.0
  0
LINE
  5
19A25
  8
DANMEN
  6
CONTINUOUS
 10
182.800003
 20
123.199997
 30
0.0
 11
184.0
 21
123.199997
 31
0.0
  0
LINE
  5
19A26
  8
DANMEN
  6
CONTINUOUS
 10
183.999998
 20
123.199997
 30
0.0
 11
183.999998
 21
121.6
 31
0.0
  0
LINE
  5
19A27
  8
DANMEN
  6
CONTINUOUS
 10
182.800003
 20
123.500017
 30
0.0
 11
182.799998
 21
123.199998
 31
0.0
  0
LINE
  5
19A28
  8
DANMEN
  6
CONTINUOUS
 10
185.0
 20
123.5
 30
0.0
 11
185.0
 21
121.0
 31
0.0
  0
LINE
  5
19A2A
  8
DANMEN
  6
CONTINUOUS
 10
184.5
 20
120.5
 30
0.0
 11
185.0
 21
120.5
 31
0.0
  0
LINE
  5
19A2B
  8
DANMEN
  6
CONTINUOUS
 10
185.0
 20
120.5
 30
0.0
 11
185.0
 21
124.0
 31
0.0
  0
LINE
  5
19A2C
  8
DANMEN
  6
CONTINUOUS
 10
183.850004
 20
122.8
 30
0.0
 11
183.850004
 21
122.2
 31
0.0
  0
LINE
  5
19A2E
  8
DANMEN
  6
CONTINUOUS
 10
181.850003
 20
122.8
 30
0.0
 11
182.650003
 21
122.0
 31
0.0
  0
LINE
  5
19A2F
  8
DANMEN
  6
CONTINUOUS
 10
182.650003
 20
122.0
 30
0.0
 11
183.650004
 21
122.0
 31
0.0
  0
ARC
  5
19A32
  8
DANMEN
  6
CONTINUOUS
 10
183.650004
 20
122.8
 30
0.0
 40
0.2
 50
0.0
 51
89.999982
  0
ARC
  5
19A34
  8
DANMEN
  6
CONTINUOUS
 10
183.650004
 20
122.2
 30
0.0
 40
0.2
 50
270.000018
 51
0.0
  0
LINE
  5
19A35
  8
DANMEN
  6
CONTINUOUS
 10
182.650003
 20
123.0
 30
0.0
 11
183.650004
 21
123.0
 31
0.0
  0
LINE
  5
19A36
  8
DANMEN
  6
CONTINUOUS
 10
182.650003
 20
124.0
 30
0.0
 11
182.650003
 21
123.0
 31
0.0
  0
LINE
  5
19A38
  8
DANMEN
  6
CONTINUOUS
 10
182.650003
 20
124.0
 30
0.0
 11
185.000004
 21
124.0
 31
0.0
  0
LINE
  5
19A3D
  8
DANMEN
  6
CONTINUOUS
 10
47.5
 20
262.0
 30
0.0
 11
106.5
 21
262.0
 31
0.0
  0
LINE
  5
19A3E
  8
DANMEN
  6
CONTINUOUS
 10
65.0
 20
235.0
 30
0.0
 11
73.0
 21
235.0
 31
0.0
  0
LINE
  5
19A3F
  8
DANMEN
  6
CONTINUOUS
 10
78.0
 20
253.950012
 30
0.0
 11
65.5
 21
253.950012
 31
0.0
  0
LINE
  5
19A40
  8
DANMEN
  6
CONTINUOUS
 10
78.65
 20
255.600012
 30
0.0
 11
63.4
 21
255.600012
 31
0.0
  0
ARC
  5
19A41
  8
DANMEN
  6
CONTINUOUS
 10
70.300003
 20
177.5
 30
0.0
 40
0.5
 50
270.000018
 51
0.0
  0
LINE
  5
19A42
  8
DANMEN
  6
CONTINUOUS
 10
71.05
 20
224.95
 30
0.0
 11
69.850006
 21
224.95
 31
0.0
  0
ARC
  5
19A43
  8
DANMEN
  6
CONTINUOUS
 10
70.300003
 20
166.5
 30
0.0
 40
0.5
 50
0.0
 51
89.999982
  0
LINE
  5
19A44
  8
DANMEN
  6
CONTINUOUS
 10
42.0
 20
227.5
 30
0.0
 11
42.0
 21
197.0
 31
0.0
  0
LINE
  5
19A45
  8
DANMEN
  6
CONTINUOUS
 10
43.649994
 20
227.5
 30
0.0
 11
43.649994
 21
197.0
 31
0.0
  0
LINE
  5
19A46
  8
DANMEN
  6
CONTINUOUS
 10
65.0
 20
235.0
 30
0.0
 11
65.0
 21
216.0
 31
0.0
  0
LINE
  5
19A47
  8
DANMEN
  6
CONTINUOUS
 10
57.0
 20
235.0
 30
0.0
 11
57.0
 21
216.0
 31
0.0
  0
LINE
  5
19A48
  8
DANMEN
  6
CONTINUOUS
 10
47.504337
 20
197.0
 30
0.0
 11
47.907182
 21
235.550678
 31
0.0
  0
LINE
  5
19A49
  8
DANMEN
  6
CONTINUOUS
 10
48.976095
 20
235.082141
 30
0.0
 11
49.0
 21
197.0
 31
0.0
  0
LINE
  5
19A4A
  8
DANMEN
  6
CONTINUOUS
 10
48.676108
 20
235.062215
 30
0.0
 11
48.7
 21
197.0
 31
0.0
  0
LINE
  5
19A4B
  8
DANMEN
  6
CONTINUOUS
 10
53.149994
 20
234.5
 30
0.0
 11
53.149994
 21
208.5
 31
0.0
  0
LINE
  5
19A4C
  8
DANMEN
  6
CONTINUOUS
 10
68.850006
 20
223.95
 30
0.0
 11
68.850006
 21
208.5
 31
0.0
  0
LINE
  5
19A4D
  8
DANMEN
  6
CONTINUOUS
 10
51.199997
 20
234.5
 30
0.0
 11
51.199997
 21
197.0
 31
0.0
  0
LINE
  5
19A4E
  8
DANMEN
  6
CONTINUOUS
 10
59.65
 20
152.000003
 30
0.0
 11
59.65
 21
171.000003
 31
0.0
  0
LINE
  5
19A4F
  8
DANMEN
  6
CONTINUOUS
 10
54.65
 20
152.000003
 30
0.0
 11
54.65
 21
171.000003
 31
0.0
  0
LINE
  5
19A50
  8
DANMEN
  6
CONTINUOUS
 10
48.35
 20
152.000003
 30
0.0
 11
48.35
 21
171.000003
 31
0.0
  0
LINE
  5
19A51
  8
DANMEN
  6
CONTINUOUS
 10
53.35
 20
152.000003
 30
0.0
 11
53.35
 21
171.000003
 31
0.0
  0
LINE
  5
19A52
  8
DANMEN
  6
CONTINUOUS
 10
60.15
 20
152.000003
 30
0.0
 11
60.15
 21
171.000003
 31
0.0
  0
LINE
  5
19A53
  8
DANMEN
  6
CONTINUOUS
 10
47.85
 20
152.000003
 30
0.0
 11
47.85
 21
171.000003
 31
0.0
  0
LINE
  5
19A54
  8
DANMEN
  6
CONTINUOUS
 10
54.15
 20
152.000003
 30
0.0
 11
54.15
 21
171.000003
 31
0.0
  0
LINE
  5
19A55
  8
DANMEN
  6
CONTINUOUS
 10
53.85
 20
152.000003
 30
0.0
 11
53.85
 21
171.000003
 31
0.0
  0
LINE
  5
19A56
  8
DANMEN
  6
CONTINUOUS
 10
39.5
 20
167.0
 30
0.0
 11
39.5
 21
171.0
 31
0.0
  0
LINE
  5
19A57
  8
DANMEN
  6
CONTINUOUS
 10
68.5
 20
171.0
 30
0.0
 11
68.5
 21
167.0
 31
0.0
  0
LINE
  5
19A58
  8
DANMEN
  6
CONTINUOUS
 10
39.5
 20
167.0
 30
0.0
 11
37.699997
 21
167.0
 31
0.0
  0
ARC
  5
19A59
  8
DANMEN
  6
CONTINUOUS
 10
37.699997
 20
166.5
 30
0.0
 40
0.5
 50
90.000018
 51
180.0
  0
LINE
  5
19A5B
  8
DANMEN
  6
CONTINUOUS
 10
42.5
 20
145.000004
 30
0.0
 11
65.500001
 21
152.000003
 31
0.0
  0
LINE
  5
19A5C
  8
DANMEN
  6
CONTINUOUS
 10
42.5
 20
152.000003
 30
0.0
 11
42.5
 21
145.000003
 31
0.0
  0
LINE
  5
19A5D
  8
DANMEN
  6
CONTINUOUS
 10
65.5
 20
152.000003
 30
0.0
 11
65.5
 21
145.000003
 31
0.0
  0
LINE
  5
19A5E
  8
DANMEN
  6
CONTINUOUS
 10
68.850006
 20
162.0
 30
0.0
 11
68.850006
 21
145.0
 31
0.0
  0
LINE
  5
19A5F
  8
DANMEN
  6
CONTINUOUS
 10
39.149994
 20
162.0
 30
0.0
 11
39.149994
 21
139.199997
 31
0.0
  0
LINE
  5
19A60
  8
DANMEN
  6
CONTINUOUS
 10
42.5
 20
145.000003
 30
0.0
 11
65.5
 21
145.000003
 31
0.0
  0
LINE
  5
19A61
  8
DANMEN
  6
CONTINUOUS
 10
44.699997
 20
145.0
 30
0.0
 11
68.850006
 21
145.0
 31
0.0
  0
LINE
  5
19A62
  8
DANMEN
  6
CONTINUOUS
 10
45.649994
 20
143.050003
 30
0.0
 11
68.850006
 21
143.050003
 31
0.0
  0
LINE
  5
19A63
  8
DANMEN
  6
CONTINUOUS
 10
43.699997
 20
144.0
 30
0.0
 11
43.699997
 21
139.199997
 31
0.0
  0
LINE
  5
19A64
  8
DANMEN
  6
CONTINUOUS
 10
45.649994
 20
143.050003
 30
0.0
 11
45.649994
 21
139.0
 31
0.0
  0
LINE
  5
19A65
  8
DANMEN
  6
CONTINUOUS
 10
39.149994
 20
139.199997
 30
0.0
 11
43.699997
 21
139.199997
 31
0.0
  0
LINE
  5
19A66
  8
DANMEN
  6
CONTINUOUS
 10
39.149994
 20
138.0
 30
0.0
 11
44.649994
 21
138.0
 31
0.0
  0
ARC
  5
19A6B
  8
DANMEN
  6
CONTINUOUS
 10
44.649994
 20
139.0
 30
0.0
 40
1.0
 50
270.000018
 51
0.0
  0
ARC
  5
19A6F
  8
DANMEN
  6
CONTINUOUS
 10
44.699997
 20
144.0
 30
0.0
 40
1.0
 50
89.999982
 51
180.000019
  0
LINE
  5
19A74
  8
DANMEN
  6
CONTINUOUS
 10
42.5
 20
152.000003
 30
0.0
 11
65.5
 21
152.000003
 31
0.0
  0
LINE
  5
19A76
  8
DANMEN
  6
CONTINUOUS
 10
47.85
 20
168.000006
 30
0.0
 11
39.499995
 21
167.000006
 31
0.0
  0
LINE
  5
19A77
  8
DANMEN
  6
CONTINUOUS
 10
42.976996
 20
167.416405
 30
0.0
 11
46.393398
 21
164.000003
 31
0.0
  0
LINE
  5
19A78
  8
DANMEN
  6
CONTINUOUS
 10
44.871438
 20
167.643284
 30
0.0
 11
47.850004
 21
164.664718
 31
0.0
  0
LINE
  5
19A79
  8
DANMEN
  6
CONTINUOUS
 10
46.333041
 20
167.818326
 30
0.0
 11
42.514719
 21
164.000003
 31
0.0
  0
LINE
  5
19A7A
  8
DANMEN
  6
CONTINUOUS
 10
47.850004
 20
167.213969
 30
0.0
 11
44.636039
 21
164.000003
 31
0.0
  0
LINE
  5
19A7B
  8
DANMEN
  6
CONTINUOUS
 10
40.0
 20
166.5
 30
0.0
 11
40.0
 21
162.0
 31
0.0
  0
LINE
  5
19A7C
  8
DANMEN
  6
CONTINUOUS
 10
40.0
 20
166.150761
 30
0.0
 11
42.150758
 21
164.000003
 31
0.0
  0
LINE
  5
19A7D
  8
DANMEN
  6
CONTINUOUS
 10
41.082555
 20
167.189527
 30
0.0
 11
44.272078
 21
164.000003
 31
0.0
  0
LINE
  5
19A7E
  8
DANMEN
  6
CONTINUOUS
 10
43.923107
 20
167.529712
 30
0.0
 11
40.393398
 21
164.000003
 31
0.0
  0
LINE
  5
19A81
  8
DANMEN
  6
CONTINUOUS
 10
40.0
 20
162.0
 30
0.0
 11
39.149994
 21
162.0
 31
0.0
  0
LINE
  5
19A82
  8
DANMEN
  6
CONTINUOUS
 10
40.0
 20
164.029441
 30
0.0
 11
40.029437
 21
164.000003
 31
0.0
  0
ARC
  5
19A83
  8
DANMEN
  6
CONTINUOUS
 10
39.5
 20
166.5
 30
0.0
 40
0.5
 50
359.999981
 51
90.000018
  0
LINE
  5
19A85
  8
DANMEN
  6
CONTINUOUS
 10
41.513172
 20
167.241097
 30
0.0
 11
40.0
 21
165.727926
 31
0.0
  0
LINE
  5
19A86
  8
DANMEN
  6
CONTINUOUS
 10
47.850004
 20
165.092648
 30
0.0
 11
46.757359
 21
164.000003
 31
0.0
  0
LINE
  5
19A88
  8
DANMEN
  6
CONTINUOUS
 10
46.765879
 20
167.870163
 30
0.0
 11
47.850004
 21
166.786038
 31
0.0
  0
LINE
  5
19A8C
  8
DANMEN
  6
CONTINUOUS
 10
60.15
 20
167.999998
 30
0.0
 11
68.499998
 21
166.999999
 31
0.0
  0
LINE
  5
19A8D
  8
DANMEN
  6
CONTINUOUS
 10
60.150003
 20
167.213962
 30
0.0
 11
63.363961
 21
164.000003
 31
0.0
  0
LINE
  5
19A8E
  8
DANMEN
  6
CONTINUOUS
 10
61.666958
 20
167.818327
 30
0.0
 11
65.485282
 21
164.000003
 31
0.0
  0
LINE
  5
19A8F
  8
DANMEN
  6
CONTINUOUS
 10
63.128562
 20
167.643285
 30
0.0
 11
60.150003
 21
164.664725
 31
0.0
  0
LINE
  5
19A90
  8
DANMEN
  6
CONTINUOUS
 10
65.023004
 20
167.416406
 30
0.0
 11
61.606601
 21
164.000003
 31
0.0
  0
LINE
  5
19A91
  8
DANMEN
  6
CONTINUOUS
 10
60.150003
 20
165.092641
 30
0.0
 11
61.242641
 21
164.000003
 31
0.0
  0
LINE
  5
19A92
  8
DANMEN
  6
CONTINUOUS
 10
61.234121
 20
167.870163
 30
0.0
 11
60.150003
 21
166.786045
 31
0.0
  0
LINE
  5
19A93
  8
DANMEN
  6
CONTINUOUS
 10
68.0
 20
166.5
 30
0.0
 11
68.0
 21
162.0
 31
0.0
  0
LINE
  5
19A94
  8
DANMEN
  6
CONTINUOUS
 10
64.076893
 20
167.529712
 30
0.0
 11
67.606602
 21
164.000003
 31
0.0
  0
LINE
  5
19A95
  8
DANMEN
  6
CONTINUOUS
 10
66.917445
 20
167.189527
 30
0.0
 11
63.727922
 21
164.000003
 31
0.0
  0
LINE
  5
19A96
  8
DANMEN
  6
CONTINUOUS
 10
68.0
 20
166.150761
 30
0.0
 11
65.849242
 21
164.000003
 31
0.0
  0
LINE
  5
19A97
  8
DANMEN
  6
CONTINUOUS
 10
68.0
 20
162.0
 30
0.0
 11
68.850006
 21
162.0
 31
0.0
  0
LINE
  5
19A9A
  8
DANMEN
  6
CONTINUOUS
 10
68.0
 20
164.029441
 30
0.0
 11
67.970563
 21
164.000003
 31
0.0
  0
LINE
  5
19A9B
  8
DANMEN
  6
CONTINUOUS
 10
66.486828
 20
167.241098
 30
0.0
 11
68.0
 21
165.727926
 31
0.0
  0
LINE
  5
19A9C
  8
DANMEN
  6
CONTINUOUS
 10
68.5
 20
167.0
 30
0.0
 11
70.300003
 21
167.0
 31
0.0
  0
ARC
  5
19A9E
  8
DANMEN
  6
CONTINUOUS
 10
68.5
 20
166.5
 30
0.0
 40
0.5
 50
89.999982
 51
180.000019
  0
LINE
  5
19A9F
  8
DANMEN
  6
CONTINUOUS
 10
49.0
 20
195.5
 30
0.0
 11
34.700005
 21
195.5
 31
0.0
  0
LINE
  5
19AA0
  8
DANMEN
  6
CONTINUOUS
 10
48.7
 20
197.0
 30
0.0
 11
35.700005
 21
197.0
 31
0.0
  0
LINE
  5
19AA1
  8
DANMEN
  6
CONTINUOUS
 10
36.0
 20
197.0
 30
0.0
 11
51.199997
 21
197.0
 31
0.0
  0
LINE
  5
19AA2
  8
DANMEN
  6
CONTINUOUS
 10
37.699997
 20
177.0
 30
0.0
 11
39.5
 21
177.0
 31
0.0
  0
LINE
  5
19AA3
  8
DANMEN
  6
CONTINUOUS
 10
35.0
 20
195.5
 30
0.0
 11
35.0
 21
173.0
 31
0.0
  0
LINE
  5
19AA4
  8
DANMEN
  6
CONTINUOUS
 10
37.199997
 20
195.5
 30
0.0
 11
37.199997
 21
177.5
 31
0.0
  0
ARC
  5
19AA5
  8
DANMEN
  6
CONTINUOUS
 10
37.699997
 20
177.5
 30
0.0
 40
0.5
 50
180.000019
 51
270.000001
  0
LINE
  5
19AA8
  8
DANMEN
  6
CONTINUOUS
 10
34.700005
 20
195.5
 30
0.0
 11
34.700005
 21
196.0
 31
0.0
  0
ARC
  5
19AAA
  8
DANMEN
  6
CONTINUOUS
 10
35.700005
 20
196.0
 30
0.0
 40
1.0
 50
90.0
 51
180.0
  0
ARC
  5
19AAC
  8
DANMEN
  6
CONTINUOUS
 10
36.0
 20
196.0
 30
0.0
 40
1.0
 50
89.999982
 51
180.000019
  0
LINE
  5
19AB0
  8
DANMEN
  6
CONTINUOUS
 10
35.0
 20
195.5
 30
0.0
 11
37.199997
 21
195.5
 31
0.0
  0
LINE
  5
19AB1
  8
DANMEN
  6
CONTINUOUS
 10
35.0
 20
196.0
 30
0.0
 11
35.0
 21
195.5
 31
0.0
  0
LINE
  5
19AB2
  8
DANMEN
  6
CONTINUOUS
 10
68.850006
 20
195.050003
 30
0.0
 11
68.850006
 21
182.0
 31
0.0
  0
LINE
  5
19AB3
  8
DANMEN
  6
CONTINUOUS
 10
39.149994
 20
195.050003
 30
0.0
 11
39.149994
 21
182.0
 31
0.0
  0
LINE
  5
19AB4
  8
DANMEN
  6
CONTINUOUS
 10
47.85
 20
192.0
 30
0.0
 11
60.15
 21
192.0
 31
0.0
  0
LINE
  5
19AB5
  8
DANMEN
  6
CONTINUOUS
 10
48.35
 20
192.0
 30
0.0
 11
48.35
 21
173.0
 31
0.0
  0
LINE
  5
19AB6
  8
DANMEN
  6
CONTINUOUS
 10
53.35
 20
192.0
 30
0.0
 11
53.35
 21
173.0
 31
0.0
  0
LINE
  5
19AB7
  8
DANMEN
  6
CONTINUOUS
 10
47.85
 20
192.0
 30
0.0
 11
47.85
 21
173.0
 31
0.0
  0
LINE
  5
19AB8
  8
DANMEN
  6
CONTINUOUS
 10
53.85
 20
192.0
 30
0.0
 11
53.85
 21
173.0
 31
0.0
  0
LINE
  5
19AB9
  8
DANMEN
  6
CONTINUOUS
 10
54.15
 20
192.0
 30
0.0
 11
54.15
 21
173.0
 31
0.0
  0
LINE
  5
19ABA
  8
DANMEN
  6
CONTINUOUS
 10
47.85
 20
176.000005
 30
0.0
 11
39.500002
 21
177.000005
 31
0.0
  0
LINE
  5
19ABB
  8
DANMEN
  6
CONTINUOUS
 10
47.849997
 20
176.786042
 30
0.0
 11
44.636039
 21
180.0
 31
0.0
  0
LINE
  5
19ABC
  8
DANMEN
  6
CONTINUOUS
 10
46.333042
 20
176.181677
 30
0.0
 11
42.514718
 21
180.0
 31
0.0
  0
LINE
  5
19ABD
  8
DANMEN
  6
CONTINUOUS
 10
44.871438
 20
176.356719
 30
0.0
 11
47.849997
 21
179.335278
 31
0.0
  0
LINE
  5
19ABE
  8
DANMEN
  6
CONTINUOUS
 10
42.976996
 20
176.583598
 30
0.0
 11
46.393399
 21
180.0
 31
0.0
  0
LINE
  5
19ABF
  8
DANMEN
  6
CONTINUOUS
 10
39.5
 20
173.0
 30
0.0
 11
39.5
 21
176.940125
 31
0.0
  0
LINE
  5
19AC0
  8
DANMEN
  6
CONTINUOUS
 10
43.923107
 20
176.470291
 30
0.0
 11
40.393398
 21
180.0
 31
0.0
  0
LINE
  5
19AC1
  8
DANMEN
  6
CONTINUOUS
 10
41.082555
 20
176.810477
 30
0.0
 11
44.272078
 21
180.0
 31
0.0
  0
LINE
  5
19AC2
  8
DANMEN
  6
CONTINUOUS
 10
40.0
 20
177.849242
 30
0.0
 11
42.150758
 21
180.0
 31
0.0
  0
ARC
  5
19AC3
  8
DANMEN
  6
CONTINUOUS
 10
39.5
 20
177.5
 30
0.0
 40
0.5
 50
270.000018
 51
0.0
  0
LINE
  5
19AC6
  8
DANMEN
  6
CONTINUOUS
 10
39.149994
 20
182.0
 30
0.0
 11
40.0
 21
182.0
 31
0.0
  0
LINE
  5
19AC7
  8
DANMEN
  6
CONTINUOUS
 10
40.0
 20
182.0
 30
0.0
 11
40.0
 21
177.5
 31
0.0
  0
LINE
  5
19AC9
  8
DANMEN
  6
CONTINUOUS
 10
41.513172
 20
176.758906
 30
0.0
 11
40.0
 21
178.272078
 31
0.0
  0
LINE
  5
19ACA
  8
DANMEN
  6
CONTINUOUS
 10
40.0
 20
179.970563
 30
0.0
 11
40.029437
 21
180.0
 31
0.0
  0
LINE
  5
19ACB
  8
DANMEN
  6
CONTINUOUS
 10
46.765879
 20
176.12984
 30
0.0
 11
47.849997
 21
177.213958
 31
0.0
  0
LINE
  5
19ACC
  8
DANMEN
  6
CONTINUOUS
 10
47.849997
 20
178.907362
 30
0.0
 11
46.757359
 21
180.0
 31
0.0
  0
LINE
  5
19ACF
  8
DANMEN
  6
CONTINUOUS
 10
59.65
 20
192.0
 30
0.0
 11
59.65
 21
173.0
 31
0.0
  0
LINE
  5
19AD0
  8
DANMEN
  6
CONTINUOUS
 10
54.65
 20
192.0
 30
0.0
 11
54.65
 21
173.0
 31
0.0
  0
LINE
  5
19AD1
  8
DANMEN
  6
CONTINUOUS
 10
60.15
 20
192.0
 30
0.0
 11
60.15
 21
173.0
 31
0.0
  0
LINE
  5
19AD2
  8
DANMEN
  6
CONTINUOUS
 10
60.15
 20
175.999997
 30
0.0
 11
68.500005
 21
176.999997
 31
0.0
  0
LINE
  5
19AD3
  8
DANMEN
  6
CONTINUOUS
 10
65.023004
 20
176.583598
 30
0.0
 11
61.606602
 21
180.0
 31
0.0
  0
LINE
  5
19AD4
  8
DANMEN
  6
CONTINUOUS
 10
63.128562
 20
176.356719
 30
0.0
 11
60.149996
 21
179.335286
 31
0.0
  0
LINE
  5
19AD5
  8
DANMEN
  6
CONTINUOUS
 10
61.666959
 20
176.181677
 30
0.0
 11
65.485281
 21
180.0
 31
0.0
  0
LINE
  5
19AD6
  8
DANMEN
  6
CONTINUOUS
 10
60.149996
 20
176.786035
 30
0.0
 11
63.363961
 21
180.0
 31
0.0
  0
LINE
  5
19AD7
  8
DANMEN
  6
CONTINUOUS
 10
61.234121
 20
176.12984
 30
0.0
 11
60.149996
 21
177.213965
 31
0.0
  0
LINE
  5
19AD9
  8
DANMEN
  6
CONTINUOUS
 10
60.149996
 20
178.907355
 30
0.0
 11
61.242641
 21
180.0
 31
0.0
  0
LINE
  5
19ADA
  8
DANMEN
  6
CONTINUOUS
 10
68.5
 20
176.940117
 30
0.0
 11
68.5
 21
173.0
 31
0.0
  0
LINE
  5
19ADB
  8
DANMEN
  6
CONTINUOUS
 10
64.076893
 20
176.470292
 30
0.0
 11
67.606602
 21
180.0
 31
0.0
  0
LINE
  5
19ADC
  8
DANMEN
  6
CONTINUOUS
 10
68.0
 20
177.849242
 30
0.0
 11
65.849242
 21
180.0
 31
0.0
  0
LINE
  5
19ADD
  8
DANMEN
  6
CONTINUOUS
 10
66.917445
 20
176.810477
 30
0.0
 11
63.727922
 21
180.0
 31
0.0
  0
LINE
  5
19ADE
  8
DANMEN
  6
CONTINUOUS
 10
66.486828
 20
176.758906
 30
0.0
 11
68.0
 21
178.272078
 31
0.0
  0
ARC
  5
19AE1
  8
DANMEN
  6
CONTINUOUS
 10
68.5
 20
177.5
 30
0.0
 40
0.5
 50
180.000019
 51
270.000001
  0
LINE
  5
19AE3
  8
DANMEN
  6
CONTINUOUS
 10
68.5
 20
177.0
 30
0.0
 11
70.300003
 21
177.0
 31
0.0
  0
LINE
  5
19AE4
  8
DANMEN
  6
CONTINUOUS
 10
68.0
 20
182.0
 30
0.0
 11
68.850006
 21
182.0
 31
0.0
  0
LINE
  5
19AE5
  8
DANMEN
  6
CONTINUOUS
 10
68.0
 20
182.0
 30
0.0
 11
68.0
 21
177.5
 31
0.0
  0
LINE
  5
19AE6
  8
DANMEN
  6
CONTINUOUS
 10
68.0
 20
179.970563
 30
0.0
 11
67.970563
 21
180.0
 31
0.0
  0
LINE
  5
19AE7
  8
DANMEN
  6
CONTINUOUS
 10
53.149994
 20
206.550003
 30
0.0
 11
56.699997
 21
206.550003
 31
0.0
  0
LINE
  5
19AE8
  8
DANMEN
  6
CONTINUOUS
 10
53.149994
 20
197.0
 30
0.0
 11
68.850006
 21
197.0
 31
0.0
  0
LINE
  5
19AE9
  8
DANMEN
  6
CONTINUOUS
 10
39.149994
 20
195.050003
 30
0.0
 11
68.850006
 21
195.050003
 31
0.0
  0
LINE
  5
19AEA
  8
DANMEN
  6
CONTINUOUS
 10
53.149994
 20
208.5
 30
0.0
 11
68.850006
 21
208.5
 31
0.0
  0
LINE
  5
19AEB
  8
DANMEN
  6
CONTINUOUS
 10
53.149994
 20
206.550003
 30
0.0
 11
53.149994
 21
197.0
 31
0.0
  0
LINE
  5
19AED
  8
DANMEN
  6
CONTINUOUS
 10
49.0
 20
195.5
 30
0.0
 11
49.0
 21
197.0
 31
0.0
  0
LINE
  5
19AEF
  8
DANMEN
  6
CONTINUOUS
 10
48.7
 20
195.5
 30
0.0
 11
48.7
 21
197.0
 31
0.0
  0
LINE
  5
19AF8
  8
DANMEN
  6
CONTINUOUS
 10
68.850006
 20
206.550003
 30
0.0
 11
68.850006
 21
197.0
 31
0.0
  0
LINE
  5
19AF9
  8
DANMEN
  6
CONTINUOUS
 10
62.8
 20
204.553939
 30
0.0
 11
62.8
 21
205.8
 31
0.0
  0
LINE
  5
19AFA
  8
DANMEN
  6
CONTINUOUS
 10
59.2
 20
204.553939
 30
0.0
 11
59.2
 21
205.8
 31
0.0
  0
ARC
  5
19AFB
  8
DANMEN
  6
CONTINUOUS
 10
56.7
 20
205.550003
 30
0.0
 40
1.0
 50
0.0
 51
90.0
  0
ARC
  5
19AFC
  8
DANMEN
  6
CONTINUOUS
 10
65.3
 20
205.550003
 30
0.0
 40
1.0
 50
90.0
 51
180.0
  0
LINE
  5
19AFD
  8
DANMEN
  6
CONTINUOUS
 10
63.539379
 20
202.9
 30
0.0
 11
62.4
 21
202.9
 31
0.0
  0
ARC
  5
19AFE
  8
DANMEN
  6
CONTINUOUS
 10
61.8
 20
204.553939
 30
0.0
 40
1.0
 50
294.624318
 51
0.0
  0
ARC
  5
19AFF
  8
DANMEN
  6
CONTINUOUS
 10
59.7
 20
204.469694
 30
0.0
 40
2.0
 50
180.0
 51
231.706523
  0
LINE
  5
19B00
  8
DANMEN
  6
CONTINUOUS
 10
57.7
 20
204.469694
 30
0.0
 11
57.7
 21
205.550003
 31
0.0
  0
ARC
  5
19B02
  8
DANMEN
  6
CONTINUOUS
 10
62.4
 20
203.2
 30
0.0
 40
0.3
 50
180.0
 51
270.0
  0
ARC
  5
19B03
  8
DANMEN
  6
CONTINUOUS
 10
59.6
 20
203.2
 30
0.0
 40
0.3
 50
270.0
 51
0.0
  0
LINE
  5
19B04
  8
DANMEN
  6
CONTINUOUS
 10
59.6
 20
202.9
 30
0.0
 11
58.460621
 21
202.9
 31
0.0
  0
LINE
  5
19B07
  8
DANMEN
  6
CONTINUOUS
 10
62.1
 20
203.2
 30
0.0
 11
62.1
 21
203.463068
 31
0.0
  0
ARC
  5
19B08
  8
DANMEN
  6
CONTINUOUS
 10
62.3
 20
203.463068
 30
0.0
 40
0.2
 50
114.624318
 51
180.0
  0
ARC
  5
19B09
  8
DANMEN
  6
CONTINUOUS
 10
59.7
 20
203.463068
 30
0.0
 40
0.2
 50
0.0
 51
65.375682
  0
ARC
  5
19B0A
  8
DANMEN
  6
CONTINUOUS
 10
60.2
 20
204.553939
 30
0.0
 40
1.0
 50
180.0
 51
245.375682
  0
LINE
  5
19B0B
  8
DANMEN
  6
CONTINUOUS
 10
59.9
 20
203.2
 30
0.0
 11
59.9
 21
203.463068
 31
0.0
  0
ARC
  5
19B0E
  8
DANMEN
  6
CONTINUOUS
 10
62.3
 20
204.469694
 30
0.0
 40
2.0
 50
308.293477
 51
0.0
  0
LINE
  5
19B0F
  8
DANMEN
  6
CONTINUOUS
 10
64.3
 20
204.469694
 30
0.0
 11
64.3
 21
205.550003
 31
0.0
  0
ARC
  5
19B10
  8
DANMEN
  6
CONTINUOUS
 10
61.0
 20
216.0
 30
0.0
 40
4.0
 50
180.000019
 51
359.999983
  0
ARC
  5
19B11
  8
DANMEN
  6
CONTINUOUS
 10
61.8
 20
205.8
 30
0.0
 40
1.0
 50
0.0
 51
90.0
  0
LINE
  5
19B13
  8
DANMEN
  6
CONTINUOUS
 10
61.8
 20
206.8
 30
0.0
 11
60.2
 21
206.8
 31
0.0
  0
ARC
  5
19B14
  8
DANMEN
  6
CONTINUOUS
 10
60.2
 20
205.8
 30
0.0
 40
1.0
 50
90.0
 51
180.0
  0
LINE
  5
19B15
  8
DANMEN
  6
CONTINUOUS
 10
65.300003
 20
206.550003
 30
0.0
 11
68.850006
 21
206.550003
 31
0.0
  0
LINE
  5
19B19
  8
DANMEN
  6
CONTINUOUS
 10
42.0
 20
261.5
 30
0.0
 11
42.0
 21
227.5
 31
0.0
  0
LINE
  5
19B1A
  8
DANMEN
  6
CONTINUOUS
 10
43.649994
 20
250.0
 30
0.0
 11
43.649994
 21
227.5
 31
0.0
  0
LINE
  5
19B1B
  8
DANMEN
  6
CONTINUOUS
 10
62.25
 20
250.0
 30
0.0
 11
62.25
 21
229.061553
 31
0.0
  0
LINE
  5
19B1C
  8
DANMEN
  6
CONTINUOUS
 10
60.6
 20
250.0
 30
0.0
 11
60.6
 21
239.101833
 31
0.0
  0
LINE
  5
19B1D
  8
DANMEN
  6
CONTINUOUS
 10
49.0
 20
235.0
 30
0.0
 11
57.0
 21
235.0
 31
0.0
  0
ARC
  5
19B1E
  8
DANMEN
  6
CONTINUOUS
 10
42.5
 20
227.5
 30
0.0
 40
0.5
 50
180.000019
 51
270.000001
  0
LINE
  5
19B1F
  8
DANMEN
  6
CONTINUOUS
 10
42.5
 20
227.0
 30
0.0
 11
43.149994
 21
227.0
 31
0.0
  0
ARC
  5
19B20
  8
DANMEN
  6
CONTINUOUS
 10
43.149994
 20
227.5
 30
0.0
 40
0.5
 50
270.000018
 51
0.0
  0
LINE
  5
19B21
  8
DANMEN
  6
CONTINUOUS
 10
51.104246
 20
233.219085
 30
0.0
 11
50.971698
 21
235.214688
 31
0.0
  0
LINE
  5
19B22
  8
DANMEN
  6
CONTINUOUS
 10
52.102047
 20
233.285359
 30
0.0
 11
51.936363
 21
235.779863
 31
0.0
  0
ARC
  5
19B23
  8
DANMEN
  6
CONTINUOUS
 10
51.699997
 20
234.5
 30
0.0
 40
0.5
 50
90.0
 51
180.0
  0
ARC
  5
19B24
  8
DANMEN
  6
CONTINUOUS
 10
52.649994
 20
234.5
 30
0.0
 40
0.5
 50
0.0
 51
90.0
  0
LINE
  5
19B28
  8
DANMEN
  6
CONTINUOUS
 10
51.037972
 20
234.216887
 30
0.0
 11
52.035774
 21
234.283161
 31
0.0
  0
ARC
  5
19B2B
  8
DANMEN
  6
CONTINUOUS
 10
51.603147
 20
233.252222
 30
0.0
 40
0.5
 50
183.8
 51
3.8
  0
LINE
  5
19B2C
  8
DANMEN
  6
CONTINUOUS
 10
51.404325
 20
236.245627
 30
0.0
 11
48.374018
 21
236.044354
 31
0.0
  0
LINE
  5
19B2D
  8
DANMEN
  6
CONTINUOUS
 10
51.9695
 20
235.280962
 30
0.0
 11
48.676108
 21
235.062215
 31
0.0
  0
ARC
  5
19B2F
  8
DANMEN
  6
CONTINUOUS
 10
48.407155
 20
235.545453
 30
0.0
 40
0.5
 50
93.8
 51
179.401295
  0
ARC
  5
19B34
  8
DANMEN
  6
CONTINUOUS
 10
51.437462
 20
235.746726
 30
0.0
 40
0.5
 50
3.8
 51
93.8
  0
LINE
  5
19B36
  8
DANMEN
  6
CONTINUOUS
 10
51.699997
 20
235.0
 30
0.0
 11
52.649994
 21
235.0
 31
0.0
  0
LINE
  5
19B39
  8
DANMEN
  6
CONTINUOUS
 10
62.235071
 20
228.940285
 30
0.0
 11
61.844683
 21
227.378732
 31
0.0
  0
LINE
  5
19B3A
  8
DANMEN
  6
CONTINUOUS
 10
60.155317
 20
227.378732
 30
0.0
 11
59.764929
 21
228.940285
 31
0.0
  0
LINE
  5
19B3B
  8
DANMEN
  6
CONTINUOUS
 10
60.640388
 20
227.0
 30
0.0
 11
61.359612
 21
227.0
 31
0.0
  0
ARC
  5
19B3C
  8
DANMEN
  6
CONTINUOUS
 10
60.640388
 20
227.5
 30
0.0
 40
0.5
 50
194.036243
 51
270.0
  0
ARC
  5
19B3D
  8
DANMEN
  6
CONTINUOUS
 10
61.359612
 20
227.5
 30
0.0
 40
0.5
 50
270.0
 51
345.963757
  0
ARC
  5
19B3E
  8
DANMEN
  6
CONTINUOUS
 10
69.850006
 20
223.95
 30
0.0
 40
1.0
 50
90.0
 51
180.0
  0
LINE
  5
19B40
  8
DANMEN
  6
CONTINUOUS
 10
59.75
 20
236.898149
 30
0.0
 11
59.75
 21
229.061553
 31
0.0
  0
ARC
  5
19B41
  8
DANMEN
  6
CONTINUOUS
 10
60.25
 20
229.061553
 30
0.0
 40
0.5
 50
180.0
 51
194.036243
  0
ARC
  5
19B42
  8
DANMEN
  6
CONTINUOUS
 10
61.75
 20
229.061553
 30
0.0
 40
0.5
 50
345.963757
 51
0.0
  0
LINE
  5
19B43
  8
DANMEN
  6
CONTINUOUS
 10
60.560165
 20
238.906263
 30
0.0
 11
59.789835
 21
237.09372
 31
0.0
  0
ARC
  5
19B44
  8
DANMEN
  6
CONTINUOUS
 10
60.1
 20
239.101833
 30
0.0
 40
0.5
 50
336.974508
 51
0.0
  0
ARC
  5
19B45
  8
DANMEN
  6
CONTINUOUS
 10
60.25
 20
236.898149
 30
0.0
 40
0.5
 50
156.974508
 51
180.0
  0
LINE
  5
19B46
  8
DANMEN
  6
CONTINUOUS
 10
43.649994
 20
250.0
 30
0.0
 11
60.6
 21
250.0
 31
0.0
  0
LINE
  5
19B47
  8
DANMEN
  6
CONTINUOUS
 10
43.649994
 20
251.649994
 30
0.0
 11
57.699997
 21
251.649994
 31
0.0
  0
LINE
  5
19B48
  8
DANMEN
  6
CONTINUOUS
 10
43.649994
 20
260.350006
 30
0.0
 11
43.649994
 21
251.649994
 31
0.0
  0
LINE
  5
19B49
  8
DANMEN
  6
CONTINUOUS
 10
42.5
 20
262.0
 30
0.0
 11
47.5
 21
262.0
 31
0.0
  0
LINE
  5
19B4A
  8
DANMEN
  6
CONTINUOUS
 10
43.649994
 20
260.350006
 30
0.0
 11
47.5
 21
260.350006
 31
0.0
  0
ARC
  5
19B4B
  8
DANMEN
  6
CONTINUOUS
 10
42.5
 20
261.5
 30
0.0
 40
0.5
 50
89.999982
 51
180.000019
  0
LINE
  5
19B4C
  8
DANMEN
  6
CONTINUOUS
 10
48.0
 20
261.5
 30
0.0
 11
48.0
 21
260.850006
 31
0.0
  0
ARC
  5
19B4D
  8
DANMEN
  6
CONTINUOUS
 10
47.5
 20
260.850006
 30
0.0
 40
0.5
 50
270.000018
 51
0.0
  0
ARC
  5
19B4E
  8
DANMEN
  6
CONTINUOUS
 10
47.5
 20
261.5
 30
0.0
 40
0.5
 50
0.0
 51
89.999982
  0
LINE
  5
19B4F
  8
DANMEN
  6
CONTINUOUS
 10
65.5
 20
253.950012
 30
0.0
 11
65.5
 21
250.8
 31
0.0
  0
ARC
  5
19B50
  8
DANMEN
  6
CONTINUOUS
 10
61.2
 20
252.7
 30
0.0
 40
1.0
 50
180.0
 51
270.0
  0
ARC
  5
19B51
  8
DANMEN
  6
CONTINUOUS
 10
62.8
 20
252.7
 30
0.0
 40
1.0
 50
270.0
 51
0.0
  0
ARC
  5
19B52
  8
DANMEN
  6
CONTINUOUS
 10
57.7
 20
252.649994
 30
0.0
 40
1.0
 50
270.0
 51
0.0
  0
LINE
  5
19B53
  8
DANMEN
  6
CONTINUOUS
 10
62.25
 20
250.0
 30
0.0
 11
66.5
 21
250.0
 31
0.0
  0
LINE
  5
19B54
  8
DANMEN
  6
CONTINUOUS
 10
62.8
 20
251.7
 30
0.0
 11
61.2
 21
251.7
 31
0.0
  0
LINE
  5
19B55
  8
DANMEN
  6
CONTINUOUS
 10
65.5
 20
250.8
 30
0.0
 11
67.0
 21
250.8
 31
0.0
  0
ARC
  5
19B56
  8
DANMEN
  6
CONTINUOUS
 10
66.5
 20
250.5
 30
0.0
 40
0.5
 50
270.000018
 51
0.0
  0
LINE
  5
19B58
  8
DANMEN
  6
CONTINUOUS
 10
67.0
 20
250.8
 30
0.0
 11
67.0
 21
250.5
 31
0.0
  0
ARC
  5
19B59
  8
DANMEN
  6
CONTINUOUS
 10
60.6
 20
255.3
 30
0.0
 40
0.3
 50
0.0
 51
90.0
  0
LINE
  5
19B5A
  8
DANMEN
  6
CONTINUOUS
 10
60.6
 20
255.6
 30
0.0
 11
59.460621
 21
255.6
 31
0.0
  0
LINE
  5
19B5B
  8
DANMEN
  6
CONTINUOUS
 10
60.2
 20
253.946061
 30
0.0
 11
60.2
 21
252.7
 31
0.0
  0
LINE
  5
19B5C
  8
DANMEN
  6
CONTINUOUS
 10
58.7
 20
254.030306
 30
0.0
 11
58.7
 21
252.649994
 31
0.0
  0
ARC
  5
19B5D
  8
DANMEN
  6
CONTINUOUS
 10
60.7
 20
254.030306
 30
0.0
 40
2.0
 50
128.293477
 51
180.0
  0
ARC
  5
19B5E
  8
DANMEN
  6
CONTINUOUS
 10
60.7
 20
255.036932
 30
0.0
 40
0.2
 50
294.624318
 51
0.0
  0
ARC
  5
19B5F
  8
DANMEN
  6
CONTINUOUS
 10
61.2
 20
253.946061
 30
0.0
 40
1.0
 50
114.624318
 51
180.0
  0
LINE
  5
19B60
  8
DANMEN
  6
CONTINUOUS
 10
60.9
 20
255.3
 30
0.0
 11
60.9
 21
255.036932
 31
0.0
  0
LINE
  5
19B61
  8
DANMEN
  6
CONTINUOUS
 10
63.8
 20
253.946061
 30
0.0
 11
63.8
 21
252.7
 31
0.0
  0
LINE
  5
19B62
  8
DANMEN
  6
CONTINUOUS
 10
63.1
 20
255.300012
 30
0.0
 11
63.1
 21
255.036932
 31
0.0
  0
ARC
  5
19B63
  8
DANMEN
  6
CONTINUOUS
 10
62.8
 20
253.946061
 30
0.0
 40
1.0
 50
0.0
 51
65.375682
  0
ARC
  5
19B64
  8
DANMEN
  6
CONTINUOUS
 10
63.3
 20
255.036932
 30
0.0
 40
0.2
 50
180.0
 51
245.375682
  0
ARC
  5
19B65
  8
DANMEN
  6
CONTINUOUS
 10
63.4
 20
255.300012
 30
0.0
 40
0.3
 50
90.0
 51
180.0
  0
LINE
  5
19B66
  8
DANMEN
  6
CONTINUOUS
 10
112.0
 20
212.149997
 30
0.0
 11
112.0
 21
227.0
 31
0.0
  0
LINE
  5
19B67
  8
DANMEN
  6
DASHED
 10
78.5
 20
227.0
 30
0.0
 11
78.5
 21
173.0
 31
0.0
  0
LINE
  5
19B68
  8
DANMEN
  6
CONTINUOUS
 10
75.5
 20
227.0
 30
0.0
 11
75.5
 21
173.0
 31
0.0
  0
LINE
  5
19B69
  8
DANMEN
  6
CONTINUOUS
 10
73.0
 20
235.0
 30
0.0
 11
73.0
 21
173.0
 31
0.0
  0
LINE
  5
19B6A
  8
DANMEN
  6
CONTINUOUS
 10
110.11785
 20
226.995322
 30
0.0
 11
110.2
 21
214.999997
 31
0.0
  0
LINE
  5
19B6B
  8
DANMEN
  6
CONTINUOUS
 10
111.123338
 20
226.451912
 30
0.0
 11
111.687844
 21
215.000834
 31
0.0
  0
LINE
  5
19B6C
  8
DANMEN
  6
CONTINUOUS
 10
110.417964
 20
226.963778
 30
0.0
 11
110.500056
 21
214.984777
 31
0.0
  0
LINE
  5
19B6D
  8
DANMEN
  6
CONTINUOUS
 10
110.2
 20
211.999997
 30
0.0
 11
110.2
 21
226.499997
 31
0.0
  0
LINE
  5
19B6E
  8
DANMEN
  6
CONTINUOUS
 10
81.0
 20
208.999997
 30
0.0
 11
81.0
 21
226.5
 31
0.0
  0
LINE
  5
19B6F
  8
DANMEN
  6
CONTINUOUS
 10
70.800003
 20
223.0
 30
0.0
 11
70.800003
 21
177.5
 31
0.0
  0
LINE
  5
19B70
  8
DANMEN
  6
CONTINUOUS
 10
116.8
 20
171.0
 30
0.0
 11
116.8
 21
134.500001
 31
0.0
  0
LINE
  5
19B71
  8
DANMEN
  6
CONTINUOUS
 10
82.999995
 20
135.000003
 30
0.0
 11
82.999995
 21
171.0
 31
0.0
  0
LINE
  5
19B72
  8
DANMEN
  6
CONTINUOUS
 10
112.0
 20
171.0
 30
0.0
 11
112.0
 21
135.000003
 31
0.0
  0
LINE
  5
19B73
  8
DANMEN
  6
CONTINUOUS
 10
81.0
 20
170.5
 30
0.0
 11
81.0
 21
134.500001
 31
0.0
  0
LINE
  5
19B74
  8
DANMEN
  6
CONTINUOUS
 10
91.35
 20
136.000009
 30
0.0
 11
82.999995
 21
135.000009
 31
0.0
  0
LINE
  5
19B75
  8
DANMEN
  6
CONTINUOUS
 10
84.582555
 20
135.18953
 30
0.0
 11
87.772078
 21
132.000007
 31
0.0
  0
LINE
  5
19B76
  8
DANMEN
  6
CONTINUOUS
 10
86.476996
 20
135.416409
 30
0.0
 11
89.893398
 21
132.000007
 31
0.0
  0
LINE
  5
19B77
  8
DANMEN
  6
CONTINUOUS
 10
87.423107
 20
135.529715
 30
0.0
 11
83.893398
 21
132.000007
 31
0.0
  0
LINE
  5
19B78
  8
DANMEN
  6
CONTINUOUS
 10
89.833042
 20
135.81833
 30
0.0
 11
86.014719
 21
132.000007
 31
0.0
  0
LINE
  5
19B79
  8
DANMEN
  6
CONTINUOUS
 10
83.5
 20
134.500003
 30
0.0
 11
83.5
 21
130.000003
 31
0.0
  0
LINE
  5
19B7A
  8
DANMEN
  6
CONTINUOUS
 10
82.65
 20
130.000003
 30
0.0
 11
83.5
 21
130.000003
 31
0.0
  0
ARC
  5
19B7B
  8
DANMEN
  6
CONTINUOUS
 10
83.0
 20
134.500003
 30
0.0
 40
0.5
 50
0.0
 51
90.0
  0
ARC
  5
19B7D
  8
DANMEN
  6
CONTINUOUS
 10
81.5
 20
134.500003
 30
0.0
 40
0.5
 50
90.0
 51
180.0
  0
LINE
  5
19B7E
  8
DANMEN
  6
CONTINUOUS
 10
81.5
 20
135.000003
 30
0.0
 11
83.0
 21
135.000003
 31
0.0
  0
LINE
  5
19B80
  8
DANMEN
  6
CONTINUOUS
 10
83.5
 20
132.029444
 30
0.0
 11
83.529437
 21
132.000007
 31
0.0
  0
LINE
  5
19B81
  8
DANMEN
  6
CONTINUOUS
 10
83.5
 20
134.150764
 30
0.0
 11
85.650758
 21
132.000007
 31
0.0
  0
LINE
  5
19B82
  8
DANMEN
  6
CONTINUOUS
 10
85.013172
 20
135.241101
 30
0.0
 11
83.5
 21
133.727929
 31
0.0
  0
LINE
  5
19B83
  8
DANMEN
  6
CONTINUOUS
 10
88.371438
 20
135.643288
 30
0.0
 11
91.350004
 21
132.664721
 31
0.0
  0
LINE
  5
19B84
  8
DANMEN
  6
CONTINUOUS
 10
90.265879
 20
135.870166
 30
0.0
 11
91.350004
 21
134.786042
 31
0.0
  0
LINE
  5
19B85
  8
DANMEN
  6
CONTINUOUS
 10
91.350004
 20
135.213972
 30
0.0
 11
88.136039
 21
132.000007
 31
0.0
  0
LINE
  5
19B86
  8
DANMEN
  6
CONTINUOUS
 10
91.350004
 20
133.092652
 30
0.0
 11
90.257359
 21
132.000007
 31
0.0
  0
ARC
  5
19B8A
  8
DANMEN
  6
CONTINUOUS
 10
112.0
 20
134.500003
 30
0.0
 40
0.5
 50
90.000019
 51
180.000037
  0
LINE
  5
19B8B
  8
DANMEN
  6
CONTINUOUS
 10
111.999985
 20
130.000003
 30
0.0
 11
111.5
 21
130.000003
 31
0.0
  0
LINE
  5
19B8C
  8
DANMEN
  6
CONTINUOUS
 10
103.65
 20
136.000001
 30
0.0
 11
111.999998
 21
135.000002
 31
0.0
  0
ARC
  5
19B8D
  8
DANMEN
  6
CONTINUOUS
 10
112.0
 20
124.500003
 30
0.0
 40
0.5
 50
0.000018
 51
179.999982
  0
LINE
  5
19B8E
  8
DANMEN
  6
CONTINUOUS
 10
111.5
 20
134.500003
 30
0.0
 11
111.5
 21
130.000003
 31
0.0
  0
LINE
  5
19B8F
  8
DANMEN
  6
CONTINUOUS
 10
105.166958
 20
135.81833
 30
0.0
 11
108.985282
 21
132.000007
 31
0.0
  0
LINE
  5
19B90
  8
DANMEN
  6
CONTINUOUS
 10
107.576893
 20
135.529715
 30
0.0
 11
111.106602
 21
132.000007
 31
0.0
  0
LINE
  5
19B91
  8
DANMEN
  6
CONTINUOUS
 10
108.523004
 20
135.416409
 30
0.0
 11
105.106601
 21
132.000006
 31
0.0
  0
LINE
  5
19B92
  8
DANMEN
  6
CONTINUOUS
 10
110.417445
 20
135.18953
 30
0.0
 11
107.227922
 21
132.000006
 31
0.0
  0
LINE
  5
19B93
  8
DANMEN
  6
CONTINUOUS
 10
103.650003
 20
133.092645
 30
0.0
 11
104.742641
 21
132.000006
 31
0.0
  0
LINE
  5
19B94
  8
DANMEN
  6
CONTINUOUS
 10
103.650003
 20
135.213965
 30
0.0
 11
106.863961
 21
132.000006
 31
0.0
  0
LINE
  5
19B95
  8
DANMEN
  6
CONTINUOUS
 10
104.734121
 20
135.870167
 30
0.0
 11
103.650003
 21
134.786049
 31
0.0
  0
LINE
  5
19B96
  8
DANMEN
  6
CONTINUOUS
 10
106.628563
 20
135.643288
 30
0.0
 11
103.650003
 21
132.664728
 31
0.0
  0
LINE
  5
19B98
  8
DANMEN
  6
CONTINUOUS
 10
109.986828
 20
135.241101
 30
0.0
 11
111.5
 21
133.727929
 31
0.0
  0
LINE
  5
19B99
  8
DANMEN
  6
CONTINUOUS
 10
111.5
 20
134.150764
 30
0.0
 11
109.349242
 21
132.000007
 31
0.0
  0
LINE
  5
19B9A
  8
DANMEN
  6
CONTINUOUS
 10
111.5
 20
132.029444
 30
0.0
 11
111.470563
 21
132.000007
 31
0.0
  0
ARC
  5
19B9B
  8
DANMEN
  6
CONTINUOUS
 10
111.999985
 20
130.500003
 30
0.0
 40
0.5
 50
270.0
 51
0.0
  0
LINE
  5
19B9D
  8
DANMEN
  6
CONTINUOUS
 10
116.3
 20
135.000003
 30
0.0
 11
112.0
 21
135.000003
 31
0.0
  0
LINE
  5
19B9E
  8
DANMEN
  6
CONTINUOUS
 10
112.499985
 20
133.350006
 30
0.0
 11
112.499985
 21
130.500003
 31
0.0
  0
LINE
  5
19B9F
  8
DANMEN
  6
CONTINUOUS
 10
115.150003
 20
133.350006
 30
0.0
 11
112.499985
 21
133.350006
 31
0.0
  0
ARC
  5
19BA1
  8
DANMEN
  6
CONTINUOUS
 10
116.3
 20
134.500003
 30
0.0
 40
0.5
 50
0.0
 51
89.999982
  0
LINE
  5
19BA2
  8
DANMEN
  6
CONTINUOUS
 10
91.35
 20
203.999997
 30
0.0
 11
103.65
 21
203.999997
 31
0.0
  0
LINE
  5
19BA3
  8
DANMEN
  6
CONTINUOUS
 10
87.700006
 20
216.499997
 30
0.0
 11
108.55
 21
216.499997
 31
0.0
  0
LINE
  5
19BA4
  8
DANMEN
  6
CONTINUOUS
 10
91.85
 20
203.999997
 30
0.0
 11
91.85
 21
173.0
 31
0.0
  0
LINE
  5
19BA5
  8
DANMEN
  6
CONTINUOUS
 10
96.85
 20
203.999997
 30
0.0
 11
96.85
 21
173.0
 31
0.0
  0
LINE
  5
19BA6
  8
DANMEN
  6
CONTINUOUS
 10
103.15
 20
203.999997
 30
0.0
 11
103.15
 21
173.0
 31
0.0
  0
LINE
  5
19BA7
  8
DANMEN
  6
CONTINUOUS
 10
98.15
 20
203.999997
 30
0.0
 11
98.15
 21
173.0
 31
0.0
  0
LINE
  5
19BA8
  8
DANMEN
  6
CONTINUOUS
 10
91.35
 20
203.999997
 30
0.0
 11
91.35
 21
173.0
 31
0.0
  0
LINE
  5
19BA9
  8
DANMEN
  6
CONTINUOUS
 10
97.35
 20
203.999997
 30
0.0
 11
97.35
 21
173.0
 31
0.0
  0
LINE
  5
19BAA
  8
DANMEN
  6
CONTINUOUS
 10
97.65
 20
203.999997
 30
0.0
 11
97.65
 21
173.0
 31
0.0
  0
LINE
  5
19BAB
  8
DANMEN
  6
CONTINUOUS
 10
81.0
 20
189.500001
 30
0.0
 11
81.0
 21
208.999997
 31
0.0
  0
LINE
  5
19BAC
  8
DANMEN
  6
CONTINUOUS
 10
82.95
 20
194.0
 30
0.0
 11
82.95
 21
206.699997
 31
0.0
  0
LINE
  5
19BAD
  8
DANMEN
  6
CONTINUOUS
 10
91.35
 20
188.000002
 30
0.0
 11
83.000002
 21
189.000001
 31
0.0
  0
LINE
  5
19BAE
  8
DANMEN
  6
CONTINUOUS
 10
89.833042
 20
188.181673
 30
0.0
 11
86.014718
 21
191.999997
 31
0.0
  0
LINE
  5
19BAF
  8
DANMEN
  6
CONTINUOUS
 10
87.423107
 20
188.470288
 30
0.0
 11
83.893398
 21
191.999997
 31
0.0
  0
LINE
  5
19BB0
  8
DANMEN
  6
CONTINUOUS
 10
86.476996
 20
188.583594
 30
0.0
 11
89.893399
 21
191.999997
 31
0.0
  0
LINE
  5
19BB1
  8
DANMEN
  6
CONTINUOUS
 10
84.582555
 20
188.810473
 30
0.0
 11
87.772078
 21
191.999997
 31
0.0
  0
LINE
  5
19BB2
  8
DANMEN
  6
CONTINUOUS
 10
81.0
 20
189.500001
 30
0.0
 11
81.0
 21
173.0
 31
0.0
  0
LINE
  5
19BB3
  8
DANMEN
  6
CONTINUOUS
 10
82.999995
 20
173.0
 30
0.0
 11
82.999995
 21
188.999998
 31
0.0
  0
ARC
  5
19BB5
  8
DANMEN
  6
CONTINUOUS
 10
83.0
 20
189.5
 30
0.0
 40
0.5
 50
270.0
 51
0.0
  0
LINE
  5
19BB6
  8
DANMEN
  6
CONTINUOUS
 10
82.95
 20
194.0
 30
0.0
 11
83.5
 21
194.0
 31
0.0
  0
LINE
  5
19BB7
  8
DANMEN
  6
CONTINUOUS
 10
81.5
 20
189.0
 30
0.0
 11
83.0
 21
189.0
 31
0.0
  0
ARC
  5
19BB8
  8
DANMEN
  6
CONTINUOUS
 10
81.5
 20
189.5
 30
0.0
 40
0.5
 50
179.999872
 51
269.999909
  0
LINE
  5
19BBA
  8
DANMEN
  6
CONTINUOUS
 10
83.5
 20
189.500001
 30
0.0
 11
83.5
 21
194.0
 31
0.0
  0
LINE
  5
19BBC
  8
DANMEN
  6
CONTINUOUS
 10
85.013172
 20
188.758902
 30
0.0
 11
83.5
 21
190.272074
 31
0.0
  0
LINE
  5
19BBD
  8
DANMEN
  6
CONTINUOUS
 10
83.5
 20
189.849239
 30
0.0
 11
85.650758
 21
191.999997
 31
0.0
  0
LINE
  5
19BBE
  8
DANMEN
  6
CONTINUOUS
 10
83.5
 20
191.970559
 30
0.0
 11
83.529437
 21
191.999997
 31
0.0
  0
LINE
  5
19BBF
  8
DANMEN
  6
CONTINUOUS
 10
90.265879
 20
188.129837
 30
0.0
 11
91.349997
 21
189.213955
 31
0.0
  0
LINE
  5
19BC0
  8
DANMEN
  6
CONTINUOUS
 10
91.349997
 20
190.907359
 30
0.0
 11
90.257359
 21
191.999997
 31
0.0
  0
LINE
  5
19BC1
  8
DANMEN
  6
CONTINUOUS
 10
91.349997
 20
188.786038
 30
0.0
 11
88.136039
 21
191.999997
 31
0.0
  0
LINE
  5
19BC2
  8
DANMEN
  6
CONTINUOUS
 10
88.371438
 20
188.356715
 30
0.0
 11
91.349997
 21
191.335275
 31
0.0
  0
ARC
  5
19BC4
  8
DANMEN
  6
CONTINUOUS
 10
87.309908
 20
211.499997
 30
0.0
 40
0.5
 50
191.309932
 51
270.0
  0
ARC
  5
19BC5
  8
DANMEN
  6
CONTINUOUS
 10
83.6
 20
211.289403
 30
0.0
 40
0.5
 50
143.491208
 51
180.0
  0
LINE
  5
19BC6
  8
DANMEN
  6
CONTINUOUS
 10
84.7
 20
207.699997
 30
0.0
 11
84.7
 21
211.598914
 31
0.0
  0
LINE
  5
19BC7
  8
DANMEN
  6
CONTINUOUS
 10
86.500006
 20
212.999997
 30
0.0
 11
86.819618
 21
211.401939
 31
0.0
  0
LINE
  5
19BC8
  8
DANMEN
  6
CONTINUOUS
 10
82.65
 20
210.999997
 30
0.0
 11
82.65
 21
216.999997
 31
0.0
  0
LINE
  5
19BC9
  8
DANMEN
  6
CONTINUOUS
 10
82.5
 20
208.699997
 30
0.0
 11
83.5
 21
208.699997
 31
0.0
  0
ARC
  5
19BCA
  8
DANMEN
  6
CONTINUOUS
 10
83.45
 20
206.699997
 30
0.0
 40
0.5
 50
90.0
 51
180.0
  0
ARC
  5
19BCB
  8
DANMEN
  6
CONTINUOUS
 10
82.707801
 20
209.499997
 30
0.0
 40
0.5
 50
270.0
 51
330.603827
  0
LINE
  5
19BCC
  8
DANMEN
  6
CONTINUOUS
 10
83.2
 20
210.999997
 30
0.0
 11
82.65
 21
210.999997
 31
0.0
  0
LINE
  5
19BCD
  8
DANMEN
  6
CONTINUOUS
 10
82.5
 20
208.699997
 30
0.0
 11
82.5
 21
208.999997
 31
0.0
  0
LINE
  5
19BCE
  8
DANMEN
  6
CONTINUOUS
 10
81.0
 20
208.999997
 30
0.0
 11
82.5
 21
208.999997
 31
0.0
  0
LINE
  5
19BCF
  8
DANMEN
  6
CONTINUOUS
 10
81.0
 20
208.999997
 30
0.0
 11
82.707801
 21
208.999997
 31
0.0
  0
ARC
  5
19BD1
  8
DANMEN
  6
CONTINUOUS
 10
83.4
 20
211.265682
 30
0.0
 40
0.3
 50
180.0
 51
250.528779
  0
ARC
  5
19BD3
  8
DANMEN
  6
CONTINUOUS
 10
83.2
 20
210.699997
 30
0.0
 40
0.3
 50
0.0
 51
70.528779
  0
LINE
  5
19BD4
  8
DANMEN
  6
CONTINUOUS
 10
83.1
 20
211.265682
 30
0.0
 11
83.1
 21
211.289403
 31
0.0
  0
ARC
  5
19BD5
  8
DANMEN
  6
CONTINUOUS
 10
84.2
 20
207.699997
 30
0.0
 40
0.5
 50
270.0
 51
0.0
  0
LINE
  5
19BD6
  8
DANMEN
  6
CONTINUOUS
 10
83.45
 20
207.199997
 30
0.0
 11
84.2
 21
207.199997
 31
0.0
  0
LINE
  5
19BD7
  8
DANMEN
  6
CONTINUOUS
 10
83.5
 20
208.699997
 30
0.0
 11
83.5
 21
210.699997
 31
0.0
  0
LINE
  5
19BD8
  8
DANMEN
  6
CONTINUOUS
 10
83.5
 20
210.699997
 30
0.0
 11
83.5
 21
209.996242
 31
0.0
  0
LINE
  5
19BD9
  8
DANMEN
  6
CONTINUOUS
 10
83.5
 20
209.996242
 30
0.0
 11
83.143425
 21
209.254574
 31
0.0
  0
ARC
  5
19BDA
  8
DANMEN
  6
CONTINUOUS
 10
83.2
 20
210.699997
 30
0.0
 40
0.3
 50
0.0
 51
90.0
  0
LINE
  5
19BDB
  8
DANMEN
  6
CONTINUOUS
 10
82.65
 20
216.999997
 30
0.0
 11
86.500006
 21
216.999997
 31
0.0
  0
ARC
  5
19BDC
  8
DANMEN
  6
CONTINUOUS
 10
85.099864
 20
215.757527
 30
0.0
 40
0.5
 50
180.0
 51
235.297378
  0
ARC
  5
19BDD
  8
DANMEN
  6
CONTINUOUS
 10
85.160578
 20
214.742386
 30
0.0
 40
0.3
 50
323.491208
 51
55.297378
  0
LINE
  5
19BDE
  8
DANMEN
  6
CONTINUOUS
 10
84.815206
 20
215.346468
 30
0.0
 11
85.331373
 21
214.989022
 31
0.0
  0
LINE
  5
19BDF
  8
DANMEN
  6
CONTINUOUS
 10
83.198117
 20
211.586876
 30
0.0
 11
85.401708
 21
214.563902
 31
0.0
  0
ARC
  5
19BE0
  8
DANMEN
  6
CONTINUOUS
 10
85.099864
 20
216.000891
 30
0.0
 40
0.5
 50
90.0
 51
180.0
  0
ARC
  5
19BE1
  8
DANMEN
  6
CONTINUOUS
 10
85.099734
 20
216.000891
 30
0.0
 40
0.5
 50
55.297378
 51
90.0
  0
LINE
  5
19BE2
  8
DANMEN
  6
CONTINUOUS
 10
84.599864
 20
216.000891
 30
0.0
 11
84.599864
 21
215.757527
 31
0.0
  0
LINE
  5
19BE3
  8
DANMEN
  6
CONTINUOUS
 10
85.099734
 20
216.500891
 30
0.0
 11
85.099864
 21
216.500891
 31
0.0
  0
LINE
  5
19BE4
  8
DANMEN
  6
CONTINUOUS
 10
84.7
 20
211.598914
 30
0.0
 11
86.7
 21
214.300891
 31
0.0
  0
LINE
  5
19BE5
  8
DANMEN
  6
CONTINUOUS
 10
85.384392
 20
216.41195
 30
0.0
 11
86.7
 21
215.500891
 31
0.0
  0
LINE
  5
19BE6
  8
DANMEN
  6
CONTINUOUS
 10
86.7
 20
214.300891
 30
0.0
 11
86.7
 21
215.500891
 31
0.0
  0
LINE
  5
19BE7
  8
DANMEN
  6
CONTINUOUS
 10
86.500006
 20
212.999997
 30
0.0
 11
86.500006
 21
216.999997
 31
0.0
  0
LINE
  5
19BE8
  8
DANMEN
  6
CONTINUOUS
 10
87.700006
 20
210.999997
 30
0.0
 11
87.700006
 21
216.499997
 31
0.0
  0
LINE
  5
19BE9
  8
DANMEN
  6
CONTINUOUS
 10
87.309908
 20
210.999997
 30
0.0
 11
87.700006
 21
210.999997
 31
0.0
  0
LINE
  5
19BEA
  8
DANMEN
  6
CONTINUOUS
 10
119.0
 20
210.499997
 30
0.0
 11
119.0
 21
173.0
 31
0.0
  0
LINE
  5
19BEB
  8
DANMEN
  6
CONTINUOUS
 10
117.0
 20
210.499997
 30
0.0
 11
117.0
 21
173.0
 31
0.0
  0
LINE
  5
19BEC
  8
DANMEN
  6
CONTINUOUS
 10
103.65
 20
203.999997
 30
0.0
 11
103.65
 21
173.0
 31
0.0
  0
LINE
  5
19BED
  8
DANMEN
  6
CONTINUOUS
 10
116.8
 20
210.499997
 30
0.0
 11
116.8
 21
189.499997
 31
0.0
  0
LINE
  5
19BEE
  8
DANMEN
  6
CONTINUOUS
 10
115.150003
 20
200.499997
 30
0.0
 11
115.150003
 21
190.649994
 31
0.0
  0
LINE
  5
19BEF
  8
DANMEN
  6
CONTINUOUS
 10
112.0
 20
188.999998
 30
0.0
 11
112.0
 21
173.0
 31
0.0
  0
LINE
  5
19BF0
  8
DANMEN
  6
CONTINUOUS
 10
103.65
 20
187.999994
 30
0.0
 11
112.000005
 21
188.999994
 31
0.0
  0
ARC
  5
19BF1
  8
DANMEN
  6
CONTINUOUS
 10
112.0
 20
189.499997
 30
0.0
 40
0.5
 50
179.999963
 51
269.999981
  0
LINE
  5
19BF2
  8
DANMEN
  6
CONTINUOUS
 10
111.999983
 20
193.999997
 30
0.0
 11
111.5
 21
193.999997
 31
0.0
  0
LINE
  5
19BF3
  8
DANMEN
  6
CONTINUOUS
 10
104.734121
 20
188.129837
 30
0.0
 11
103.649996
 21
189.213962
 31
0.0
  0
LINE
  5
19BF4
  8
DANMEN
  6
CONTINUOUS
 10
105.166959
 20
188.181674
 30
0.0
 11
108.985281
 21
191.999997
 31
0.0
  0
LINE
  5
19BF5
  8
DANMEN
  6
CONTINUOUS
 10
110.417445
 20
188.810473
 30
0.0
 11
107.227922
 21
191.999997
 31
0.0
  0
LINE
  5
19BF6
  8
DANMEN
  6
CONTINUOUS
 10
108.523004
 20
188.583595
 30
0.0
 11
105.106602
 21
191.999997
 31
0.0
  0
LINE
  5
19BF7
  8
DANMEN
  6
CONTINUOUS
 10
107.576893
 20
188.470288
 30
0.0
 11
111.106602
 21
191.999997
 31
0.0
  0
LINE
  5
19BF9
  8
DANMEN
  6
CONTINUOUS
 10
106.628562
 20
188.356716
 30
0.0
 11
103.649996
 21
191.335282
 31
0.0
  0
LINE
  5
19BFA
  8
DANMEN
  6
CONTINUOUS
 10
103.649996
 20
188.786031
 30
0.0
 11
106.863961
 21
191.999997
 31
0.0
  0
LINE
  5
19BFB
  8
DANMEN
  6
CONTINUOUS
 10
103.649996
 20
190.907352
 30
0.0
 11
104.742641
 21
191.999997
 31
0.0
  0
LINE
  5
19BFC
  8
DANMEN
  6
CONTINUOUS
 10
111.5
 20
189.499997
 30
0.0
 11
111.5
 21
193.999997
 31
0.0
  0
LINE
  5
19BFE
  8
DANMEN
  6
CONTINUOUS
 10
111.5
 20
191.970559
 30
0.0
 11
111.470563
 21
191.999997
 31
0.0
  0
LINE
  5
19BFF
  8
DANMEN
  6
CONTINUOUS
 10
111.5
 20
189.849239
 30
0.0
 11
109.349242
 21
191.999997
 31
0.0
  0
LINE
  5
19C00
  8
DANMEN
  6
CONTINUOUS
 10
109.986828
 20
188.758903
 30
0.0
 11
111.5
 21
190.272074
 31
0.0
  0
LINE
  5
19C01
  8
DANMEN
  6
CONTINUOUS
 10
116.3
 20
188.999997
 30
0.0
 11
112.0
 21
188.999997
 31
0.0
  0
LINE
  5
19C02
  8
DANMEN
  6
CONTINUOUS
 10
115.150003
 20
190.649994
 30
0.0
 11
112.499985
 21
190.649994
 31
0.0
  0
LINE
  5
19C03
  8
DANMEN
  6
CONTINUOUS
 10
112.499983
 20
190.649968
 30
0.0
 11
112.499983
 21
193.499997
 31
0.0
  0
ARC
  5
19C04
  8
DANMEN
  6
CONTINUOUS
 10
111.999983
 20
193.499997
 30
0.0
 40
0.5
 50
0.0
 51
90.0
  0
ARC
  5
19C06
  8
DANMEN
  6
CONTINUOUS
 10
116.3
 20
189.499997
 30
0.0
 40
0.5
 50
270.0
 51
0.0
  0
LINE
  5
19C08
  8
DANMEN
  6
CONTINUOUS
 10
130.2
 20
213.578484
 30
0.0
 11
111.687844
 21
215.000834
 31
0.0
  0
LINE
  5
19C09
  8
DANMEN
  6
CONTINUOUS
 10
110.500003
 20
210.499997
 30
0.0
 11
130.2
 21
210.499997
 31
0.0
  0
LINE
  5
19C0A
  8
DANMEN
  6
CONTINUOUS
 10
115.150003
 20
210.349997
 30
0.0
 11
115.150003
 21
201.499997
 31
0.0
  0
ARC
  5
19C0B
  8
DANMEN
  6
CONTINUOUS
 10
112.0
 20
199.499997
 30
0.0
 40
0.5
 50
180.000018
 51
359.999982
  0
ARC
  5
19C0C
  8
DANMEN
  6
CONTINUOUS
 10
112.0
 20
202.499997
 30
0.0
 40
0.5
 50
359.999982
 51
180.000001
  0
LINE
  5
19C0D
  8
DANMEN
  6
CONTINUOUS
 10
111.5
 20
202.499997
 30
0.0
 11
111.5
 21
199.499997
 31
0.0
  0
LINE
  5
19C0F
  8
DANMEN
  6
CONTINUOUS
 10
112.5
 20
200.499997
 30
0.0
 11
112.5
 21
199.499997
 31
0.0
  0
LINE
  5
19C10
  8
DANMEN
  6
CONTINUOUS
 10
112.5
 20
202.499997
 30
0.0
 11
112.5
 21
201.499997
 31
0.0
  0
LINE
  5
19C11
  8
DANMEN
  6
CONTINUOUS
 10
115.150003
 20
200.499997
 30
0.0
 11
112.5
 21
200.499997
 31
0.0
  0
LINE
  5
19C12
  8
DANMEN
  6
CONTINUOUS
 10
115.150003
 20
201.499997
 30
0.0
 11
112.5
 21
201.499997
 31
0.0
  0
LINE
  5
19C13
  8
DANMEN
  6
CONTINUOUS
 10
109.05
 20
210.349997
 30
0.0
 11
115.150003
 21
210.349997
 31
0.0
  0
LINE
  5
19C14
  8
DANMEN
  6
CONTINUOUS
 10
110.2
 20
211.999997
 30
0.0
 11
118.0
 21
211.999997
 31
0.0
  0
LINE
  5
19C15
  8
DANMEN
  6
CONTINUOUS
 10
110.500003
 20
210.499997
 30
0.0
 11
110.500003
 21
215.016225
 31
0.0
  0
LINE
  5
19C16
  8
DANMEN
  6
CONTINUOUS
 10
110.2
 20
210.499997
 30
0.0
 11
110.2
 21
214.999997
 31
0.0
  0
LINE
  5
19C17
  8
DANMEN
  6
CONTINUOUS
 10
108.55
 20
210.849997
 30
0.0
 11
108.55
 21
216.499997
 31
0.0
  0
ARC
  5
19C1A
  8
DANMEN
  6
CONTINUOUS
 10
109.05
 20
210.849997
 30
0.0
 40
0.5
 50
180.0
 51
270.0
  0
ARC
  5
19C1F
  8
DANMEN
  6
CONTINUOUS
 10
118.0
 20
210.999997
 30
0.0
 40
1.0
 50
0.0
 51
90.0
  0
LINE
  5
19C20
  8
DANMEN
  6
CONTINUOUS
 10
116.8
 20
210.499997
 30
0.0
 11
119.0
 21
210.499997
 31
0.0
  0
LINE
  5
19C21
  8
DANMEN
  6
CONTINUOUS
 10
119.0
 20
210.999997
 30
0.0
 11
119.0
 21
210.499997
 31
0.0
  0
LINE
  5
19C22
  8
DANMEN
  6
CONTINUOUS
 10
163.649994
 20
156.350006
 30
0.0
 11
170.350006
 21
156.350006
 31
0.0
  0
LINE
  5
19C23
  8
DANMEN
  6
CONTINUOUS
 10
162.5
 20
158.0
 30
0.0
 11
186.5
 21
158.0
 31
0.0
  0
LINE
  5
19C24
  8
DANMEN
  6
CONTINUOUS
 10
163.649994
 20
156.350006
 30
0.0
 11
163.649994
 21
152.5
 31
0.0
  0
LINE
  5
19C25
  8
DANMEN
  6
CONTINUOUS
 10
162.0
 20
157.5
 30
0.0
 11
162.0
 21
152.5
 31
0.0
  0
ARC
  5
19C28
  8
DANMEN
  6
CONTINUOUS
 10
163.149994
 20
152.5
 30
0.0
 40
0.5
 50
270.000018
 51
359.999981
  0
ARC
  5
19C29
  8
DANMEN
  6
CONTINUOUS
 10
162.5
 20
152.5
 30
0.0
 40
0.5
 50
180.000036
 51
269.999963
  0
LINE
  5
19C2A
  8
DANMEN
  6
CONTINUOUS
 10
162.5
 20
152.0
 30
0.0
 11
163.149994
 21
152.0
 31
0.0
  0
ARC
  5
19C2C
  8
DANMEN
  6
CONTINUOUS
 10
162.5
 20
157.5
 30
0.0
 40
0.5
 50
89.999982
 51
180.000019
  0
LINE
  5
19C2E
  8
DANMEN
  6
CONTINUOUS
 10
172.0
 20
156.9
 30
0.0
 11
172.0
 21
138.3
 31
0.0
  0
LINE
  5
19C2F
  8
DANMEN
  6
CONTINUOUS
 10
175.0
 20
147.0
 30
0.0
 11
175.0
 21
148.638809
 31
0.0
  0
LINE
  5
19C30
  8
DANMEN
  6
CONTINUOUS
 10
189.949997
 20
149.05
 30
0.0
 11
189.949997
 21
132.949997
 31
0.0
  0
LINE
  5
19C31
  8
DANMEN
  6
CONTINUOUS
 10
188.0
 20
148.9
 30
0.0
 11
188.0
 21
129.1
 31
0.0
  0
LINE
  5
19C32
  8
DANMEN
  6
CONTINUOUS
 10
185.156624
 20
148.9
 30
0.0
 11
176.199997
 21
147.556506
 31
0.0
  0
LINE
  5
19C33
  8
DANMEN
  6
CONTINUOUS
 10
185.037291
 20
127.0
 30
0.0
 11
189.461075
 21
127.0
 31
0.0
  0
LINE
  5
19C34
  8
DANMEN
  6
CONTINUOUS
 10
185.156624
 20
129.1
 30
0.0
 11
188.0
 21
129.1
 31
0.0
  0
LINE
  5
19C35
  8
DANMEN
  6
CONTINUOUS
 10
172.0
 20
140.5
 30
0.0
 11
188.0
 21
140.5
 31
0.0
  0
LINE
  5
19C36
  8
DANMEN
  6
CONTINUOUS
 10
172.0
 20
145.5
 30
0.0
 11
188.0
 21
145.5
 31
0.0
  0
LINE
  5
19C37
  8
DANMEN
  6
CONTINUOUS
 10
184.963121
 20
127.005532
 30
0.0
 11
175.85166
 21
128.372251
 31
0.0
  0
LINE
  5
19C38
  8
DANMEN
  6
CONTINUOUS
 10
185.156624
 20
129.1
 30
0.0
 11
176.199997
 21
130.443494
 31
0.0
  0
LINE
  5
19C39
  8
DANMEN
  6
CONTINUOUS
 10
176.800004
 20
124.8
 30
0.0
 11
184.200004
 21
124.8
 31
0.0
  0
LINE
  5
19C3A
  8
DANMEN
  6
CONTINUOUS
 10
175.0
 20
131.0
 30
0.0
 11
175.0
 21
129.361191
 31
0.0
  0
LINE
  5
19C3B
  8
DANMEN
  6
CONTINUOUS
 10
174.025813
 20
131.335584
 30
0.0
 11
176.800004
 21
124.8
 31
0.0
  0
ARC
  5
19C3D
  8
DANMEN
  6
CONTINUOUS
 10
176.0
 20
129.361187
 30
0.0
 40
1.0
 50
180.0
 51
261.469234
  0
ARC
  5
19C40
  8
DANMEN
  6
CONTINUOUS
 10
173.47351
 20
131.101146
 30
0.0
 40
0.6
 50
23.0
 51
273.528779
  0
LINE
  5
19C44
  8
DANMEN
  6
CONTINUOUS
 10
175.5
 20
131.5
 30
0.0
 11
176.199997
 21
131.5
 31
0.0
  0
ARC
  5
19C46
  8
DANMEN
  6
CONTINUOUS
 10
175.5
 20
131.0
 30
0.0
 40
0.5
 50
89.999999
 51
180.000036
  0
LINE
  5
19C47
  8
DANMEN
  6
CONTINUOUS
 10
176.199997
 20
131.5
 30
0.0
 11
176.199997
 21
130.443489
 31
0.0
  0
LINE
  5
19C4B
  8
DANMEN
  6
CONTINUOUS
 10
183.878862
 20
125.390573
 30
0.0
 11
181.335668
 21
126.419423
 31
0.0
  0
LINE
  5
19C4C
  8
DANMEN
  6
CONTINUOUS
 10
184.895163
 20
125.842413
 30
0.0
 11
180.246848
 21
127.722891
 31
0.0
  0
ARC
  5
19C50
  8
DANMEN
  6
CONTINUOUS
 10
180.44585
 20
126.563653
 30
0.0
 40
0.2
 50
311.738105
 51
67.974191
  0
LINE
  5
19C51
  8
DANMEN
  6
CONTINUOUS
 10
180.520855
 20
126.749056
 30
0.0
 11
179.946828
 21
126.981279
 31
0.0
  0
LINE
  5
19C56
  8
DANMEN
  6
CONTINUOUS
 10
181.335668
 20
126.419423
 30
0.0
 11
179.479406
 21
124.763337
 31
0.0
  0
LINE
  5
19C57
  8
DANMEN
  6
CONTINUOUS
 10
180.578995
 20
126.414414
 30
0.0
 11
179.146542
 21
125.136435
 31
0.0
  0
ARC
  5
19C59
  8
DANMEN
  6
CONTINUOUS
 10
179.312974
 20
124.949886
 30
0.0
 40
0.25
 50
131.738105
 51
311.738105
  0
ARC
  5
19C5B
  8
DANMEN
  6
CONTINUOUS
 10
180.096838
 20
127.352085
 30
0.0
 40
0.4
 50
67.974191
 51
247.974191
  0
ARC
  5
19C5D
  8
DANMEN
  6
CONTINUOUS
 10
185.037291
 20
127.5
 30
0.0
 40
0.5
 50
261.469234
 51
270.0
  0
ARC
  5
19C60
  8
DANMEN
  6
CONTINUOUS
 10
184.820158
 20
125.65701
 30
0.0
 40
0.2
 50
25.943161
 51
67.974191
  0
ARC
  5
19C63
  8
DANMEN
  6
CONTINUOUS
 10
184.064265
 20
125.315568
 30
0.0
 40
0.2
 50
47.258366
 51
157.974191
  0
LINE
  5
19C64
  8
DANMEN
  6
CONTINUOUS
 10
184.200004
 20
125.462453
 30
0.0
 11
184.200004
 21
124.8
 31
0.0
  0
LINE
  5
19C66
  8
DANMEN
  6
CONTINUOUS
 10
181.050996
 20
139.0
 30
0.0
 11
176.850995
 21
138.3
 31
0.0
  0
LINE
  5
19C67
  8
DANMEN
  6
CONTINUOUS
 10
182.164402
 20
137.360739
 30
0.0
 11
177.081604
 21
136.513606
 31
0.0
  0
LINE
  5
19C68
  8
DANMEN
  6
CONTINUOUS
 10
172.0
 20
138.3
 30
0.0
 11
176.850995
 21
138.3
 31
0.0
  0
LINE
  5
19C69
  8
DANMEN
  6
CONTINUOUS
 10
172.0
 20
136.5
 30
0.0
 11
176.917205
 21
136.5
 31
0.0
  0
ARC
  5
19C6D
  8
DANMEN
  6
CONTINUOUS
 10
176.917205
 20
137.5
 30
0.0
 40
1.0
 50
270.000018
 51
279.462343
  0
LINE
  5
19C71
  8
DANMEN
  6
CONTINUOUS
 10
176.199997
 20
146.5
 30
0.0
 11
176.199997
 21
147.556509
 31
0.0
  0
ARC
  5
19C72
  8
DANMEN
  6
CONTINUOUS
 10
175.5
 20
147.0
 30
0.0
 40
0.5
 50
179.999964
 51
270.000001
  0
LINE
  5
19C74
  8
DANMEN
  6
CONTINUOUS
 10
175.5
 20
146.5
 30
0.0
 11
176.199997
 21
146.5
 31
0.0
  0
LINE
  5
19C76
  8
DANMEN
  6
CONTINUOUS
 10
181.050996
 20
139.0
 30
0.0
 11
182.5
 21
139.0
 31
0.0
  0
ARC
  5
19C78
  8
DANMEN
  6
CONTINUOUS
 10
182.5
 20
138.5
 30
0.0
 40
0.5
 50
0.0
 51
89.999982
  0
ARC
  5
19C7A
  8
DANMEN
  6
CONTINUOUS
 10
182.0
 20
138.347137
 30
0.0
 40
1.0
 50
279.462343
 51
0.000285
  0
LINE
  5
19C7D
  8
DANMEN
  6
CONTINUOUS
 10
183.0
 20
138.5
 30
0.0
 11
183.0
 21
138.347137
 31
0.0
  0
LINE
  5
19C7E
  8
DANMEN
  6
CONTINUOUS
 10
189.699982
 20
131.0
 30
0.0
 11
189.95968
 21
127.537395
 31
0.0
  0
ARC
  5
19C7F
  8
DANMEN
  6
CONTINUOUS
 10
189.46108
 20
127.5
 30
0.0
 40
0.5
 50
270.0
 51
4.289197
  0
LINE
  5
19C89
  8
DANMEN
  6
CONTINUOUS
 10
174.0
 20
156.350006
 30
0.0
 11
186.5
 21
156.350006
 31
0.0
  0
LINE
  5
19C8A
  8
DANMEN
  6
CONTINUOUS
 10
185.037291
 20
151.0
 30
0.0
 11
202.0
 21
151.0
 31
0.0
  0
LINE
  5
19C8B
  8
DANMEN
  6
CONTINUOUS
 10
185.156624
 20
148.9
 30
0.0
 11
188.0
 21
148.9
 31
0.0
  0
LINE
  5
19C8C
  8
DANMEN
  6
CONTINUOUS
 10
184.963121
 20
150.994468
 30
0.0
 11
175.85166
 21
149.627749
 31
0.0
  0
LINE
  5
19C8D
  8
DANMEN
  6
CONTINUOUS
 10
172.0
 20
151.0
 30
0.0
 11
184.999936
 21
151.0
 31
0.0
  0
ARC
  5
19C8E
  8
DANMEN
  6
CONTINUOUS
 10
176.0
 20
148.638813
 30
0.0
 40
1.0
 50
98.530766
 51
180.0
  0
LINE
  5
19C90
  8
DANMEN
  6
CONTINUOUS
 10
172.0
 20
156.9
 30
0.0
 11
174.0
 21
156.9
 31
0.0
  0
LINE
  5
19C94
  8
DANMEN
  6
CONTINUOUS
 10
174.0
 20
156.9
 30
0.0
 11
174.0
 21
156.350006
 31
0.0
  0
ARC
  5
19C97
  8
DANMEN
  6
CONTINUOUS
 10
185.037291
 20
150.5
 30
0.0
 40
0.5
 50
90.0
 51
98.530766
  0
LINE
  5
19C99
  8
DANMEN
  6
CONTINUOUS
 10
202.0
 20
164.0
 30
0.0
 11
202.0
 21
151.0
 31
0.0
  0
LINE
  5
19C9A
  8
DANMEN
  6
CONTINUOUS
 10
186.5
 20
158.0
 30
0.0
 11
202.0
 21
158.0
 31
0.0
  0
ARC
  5
19CA0
  8
DANMEN
  6
CONTINUOUS
 10
186.5
 20
157.5
 30
0.0
 40
0.5
 50
359.999981
 51
89.999982
  0
ARC
  5
19CA1
  8
DANMEN
  6
CONTINUOUS
 10
186.5
 20
156.850006
 30
0.0
 40
0.5
 50
270.000018
 51
359.999981
  0
LINE
  5
19CA2
  8
DANMEN
  6
CONTINUOUS
 10
187.0
 20
157.5
 30
0.0
 11
187.0
 21
156.850006
 31
0.0
  0
LINE
  5
19CA5
  8
DANMEN
  6
CONTINUOUS
 10
96.300002
 20
218.149997
 30
0.0
 11
108.55
 21
218.149997
 31
0.0
  0
LINE
  5
19CA6
  8
DANMEN
  6
CONTINUOUS
 10
97.8
 20
225.349997
 30
0.0
 11
108.55
 21
225.349997
 31
0.0
  0
LINE
  5
19CA7
  8
DANMEN
  6
CONTINUOUS
 10
98.3
 20
226.999997
 30
0.0
 11
109.7
 21
226.999997
 31
0.0
  0
LINE
  5
19CA8
  8
DANMEN
  6
CONTINUOUS
 10
82.65
 20
250.0
 30
0.0
 11
110.350006
 21
250.0
 31
0.0
  0
LINE
  5
19CA9
  8
DANMEN
  6
CONTINUOUS
 10
99.5
 20
228.65
 30
0.0
 11
110.350006
 21
228.65
 31
0.0
  0
LINE
  5
19CAA
  8
DANMEN
  6
CONTINUOUS
 10
99.0
 20
227.0
 30
0.0
 11
111.5
 21
227.0
 31
0.0
  0
LINE
  5
19CAB
  8
DANMEN
  6
CONTINUOUS
 10
96.3
 20
251.65
 30
0.0
 11
110.350006
 21
251.65
 31
0.0
  0
LINE
  5
19CAC
  8
DANMEN
  6
CONTINUOUS
 10
82.65
 20
250.0
 30
0.0
 11
82.65
 21
230.0
 31
0.0
  0
LINE
  5
19CAD
  8
DANMEN
  6
CONTINUOUS
 10
81.0
 20
250.0
 30
0.0
 11
81.0
 21
235.0
 31
0.0
  0
LINE
  5
19CAE
  8
DANMEN
  6
DASHED
 10
81.5
 20
225.800003
 30
0.0
 11
100.5
 21
225.800003
 31
0.0
  0
LINE
  5
19CAF
  8
DANMEN
  6
DASHED
 10
85.0
 20
227.0
 30
0.0
 11
97.0
 21
227.0
 31
0.0
  0
LINE
  5
19CB0
  8
DANMEN
  6
CONTINUOUS
 10
82.65
 20
218.649997
 30
0.0
 11
87.700002
 21
218.649997
 31
0.0
  0
LINE
  5
19CB1
  8
DANMEN
  6
CONTINUOUS
 10
73.600003
 20
230.782873
 30
0.0
 11
74.582437
 21
227.6
 31
0.0
  0
LINE
  5
19CB2
  8
DANMEN
  6
CONTINUOUS
 10
73.018703
 20
230.60985
 30
0.0
 11
74.146181
 21
227.115559
 31
0.0
  0
LINE
  5
19CB3
  8
DANMEN
  6
CONTINUOUS
 10
77.000003
 20
229.5
 30
0.0
 11
77.000003
 21
228.5
 31
0.0
  0
LINE
  5
19CB4
  8
DANMEN
  6
CONTINUOUS
 10
78.000003
 20
229.5
 30
0.0
 11
78.000003
 21
228.5
 31
0.0
  0
LINE
  5
19CB5
  8
DANMEN
  6
CONTINUOUS
 10
76.000003
 20
229.5
 30
0.0
 11
76.000003
 21
227.0
 31
0.0
  0
LINE
  5
19CB6
  8
DANMEN
  6
CONTINUOUS
 10
75.200003
 20
234.7
 30
0.0
 11
75.200003
 21
227.6
 31
0.0
  0
LINE
  5
19CB7
  8
DANMEN
  6
DASHED
 10
84.5
 20
231.600003
 30
0.0
 11
84.5
 21
227.5
 31
0.0
  0
LINE
  5
19CB8
  8
DANMEN
  6
DASHED
 10
83.5
 20
227.0
 30
0.0
 11
83.5
 21
229.999972
 31
0.0
  0
LINE
  5
19CB9
  8
DANMEN
  6
CONTINUOUS
 10
85.0
 20
226.349997
 30
0.0
 11
85.0
 21
237.5
 31
0.0
  0
LINE
  5
19CBA
  8
DANMEN
  6
CONTINUOUS
 10
83.5
 20
227.000001
 30
0.0
 11
83.5
 21
237.0
 31
0.0
  0
LINE
  5
19CBB
  8
DANMEN
  6
CONTINUOUS
 10
83.5
 20
230.0
 30
0.0
 11
83.5
 21
227.5
 31
0.0
  0
ARC
  5
19CBC
  8
DANMEN
  6
CONTINUOUS
 10
76.5
 20
228.699997
 30
0.0
 40
0.5
 50
89.999999
 51
179.999981
  0
LINE
  5
19CBD
  8
DANMEN
  6
CONTINUOUS
 10
76.800003
 20
228.0
 30
0.0
 11
76.800003
 21
229.199997
 31
0.0
  0
LINE
  5
19CBE
  8
DANMEN
  6
CONTINUOUS
 10
81.000003
 20
228.0
 30
0.0
 11
81.000003
 21
234.2
 31
0.0
  0
LINE
  5
19CBF
  8
DANMEN
  6
CONTINUOUS
 10
73.0
 20
234.5
 30
0.0
 11
73.0
 21
223.5
 31
0.0
  0
LINE
  5
19CC0
  8
DANMEN
  6
CONTINUOUS
 10
71.05
 20
234.5
 30
0.0
 11
71.05
 21
224.95
 31
0.0
  0
LINE
  5
19CC1
  8
DANMEN
  6
CONTINUOUS
 10
73.000003
 20
227.0
 30
0.0
 11
81.000003
 21
227.0
 31
0.0
  0
LINE
  5
19CC2
  8
DANMEN
  6
CONTINUOUS
 10
83.0
 20
227.0
 30
0.0
 11
76.5
 21
227.0
 31
0.0
  0
LINE
  5
19CC3
  8
DANMEN
  6
CONTINUOUS
 10
76.800003
 20
228.0
 30
0.0
 11
81.0
 21
228.0
 31
0.0
  0
ARC
  5
19CC4
  8
DANMEN
  6
CONTINUOUS
 10
72.5
 20
223.5
 30
0.0
 40
0.5
 50
270.0
 51
0.0
  0
LINE
  5
19CC5
  8
DANMEN
  6
CONTINUOUS
 10
72.5
 20
223.0
 30
0.0
 11
70.800003
 21
223.0
 31
0.0
  0
LINE
  5
19CC8
  8
DANMEN
  6
CONTINUOUS
 10
74.582437
 20
227.6
 30
0.0
 11
75.200003
 21
227.6
 31
0.0
  0
LINE
  5
19CC9
  8
DANMEN
  6
CONTINUOUS
 10
74.327481
 20
227.0
 30
0.0
 11
76.000003
 21
227.0
 31
0.0
  0
ARC
  5
19CCC
  8
DANMEN
  6
CONTINUOUS
 10
74.327481
 20
227.2
 30
0.0
 40
0.2
 50
204.97391
 51
270.0
  0
ARC
  5
19CD0
  8
DANMEN
  6
CONTINUOUS
 10
77.200003
 20
228.5
 30
0.0
 40
0.2
 50
180.000019
 51
270.000001
  0
ARC
  5
19CD2
  8
DANMEN
  6
CONTINUOUS
 10
77.800003
 20
228.5
 30
0.0
 40
0.2
 50
270.000018
 51
0.0
  0
LINE
  5
19CD4
  8
DANMEN
  6
CONTINUOUS
 10
77.200003
 20
228.3
 30
0.0
 11
77.800003
 21
228.3
 31
0.0
  0
ARC
  5
19CD5
  8
DANMEN
  6
CONTINUOUS
 10
76.5
 20
227.5
 30
0.0
 40
0.5
 50
179.999981
 51
270.000018
  0
LINE
  5
19CD6
  8
DANMEN
  6
CONTINUOUS
 10
76.0
 20
227.5
 30
0.0
 11
76.0
 21
228.699997
 31
0.0
  0
LINE
  5
19CD9
  8
DANMEN
  6
CONTINUOUS
 10
82.65
 20
225.349997
 30
0.0
 11
82.65
 21
218.649997
 31
0.0
  0
LINE
  5
19CDA
  8
DANMEN
  6
DASHED
 10
83.5
 20
227.0
 30
0.0
 11
81.0
 21
227.0
 31
0.0
  0
LINE
  5
19CDB
  8
DANMEN
  6
CONTINUOUS
 10
81.5
 20
227.0
 30
0.0
 11
83.5
 21
227.0
 31
0.0
  0
LINE
  5
19CDC
  8
DANMEN
  6
CONTINUOUS
 10
82.65
 20
225.349997
 30
0.0
 11
84.0
 21
225.349997
 31
0.0
  0
ARC
  5
19CDD
  8
DANMEN
  6
CONTINUOUS
 10
83.0
 20
227.5
 30
0.0
 40
0.5
 50
270.0
 51
0.0
  0
LINE
  5
19CE0
  8
DANMEN
  6
DASHED
 10
81.0
 20
227.0
 30
0.0
 11
81.0
 21
226.300003
 31
0.0
  0
ARC
  5
19CE1
  8
DANMEN
  6
DASHED
 10
81.5
 20
226.300003
 30
0.0
 40
0.5
 50
180.0
 51
269.999982
  0
ARC
  5
19CE2
  8
DANMEN
  6
CONTINUOUS
 10
81.5
 20
226.5
 30
0.0
 40
0.5
 50
90.0
 51
180.0
  0
ARC
  5
19CE5
  8
DANMEN
  6
DASHED
 10
85.0
 20
227.5
 30
0.0
 40
0.5
 50
180.0
 51
270.0
  0
ARC
  5
19CE6
  8
DANMEN
  6
CONTINUOUS
 10
84.0
 20
226.349997
 30
0.0
 40
1.0
 50
270.0
 51
0.0
  0
LINE
  5
19CE7
  8
DANMEN
  6
CONTINUOUS
 10
76.800003
 20
234.2
 30
0.0
 11
81.0
 21
234.2
 31
0.0
  0
LINE
  5
19CE8
  8
DANMEN
  6
CONTINUOUS
 10
76.5
 20
235.0
 30
0.0
 11
81.0
 21
235.0
 31
0.0
  0
LINE
  5
19CE9
  8
DANMEN
  6
CONTINUOUS
 10
74.146181
 20
235.184441
 30
0.0
 11
73.018703
 21
231.69015
 31
0.0
  0
LINE
  5
19CEA
  8
DANMEN
  6
CONTINUOUS
 10
76.000003
 20
235.3
 30
0.0
 11
76.000003
 21
232.8
 31
0.0
  0
ARC
  5
19CEB
  8
DANMEN
  6
CONTINUOUS
 10
76.5
 20
234.5
 30
0.0
 40
0.5
 50
89.999999
 51
179.999981
  0
ARC
  5
19CEC
  8
DANMEN
  6
CONTINUOUS
 10
72.5
 20
234.5
 30
0.0
 40
0.5
 50
0.0
 51
90.0
  0
ARC
  5
19CED
  8
DANMEN
  6
CONTINUOUS
 10
71.55
 20
234.5
 30
0.0
 40
0.5
 50
90.0
 51
180.0
  0
LINE
  5
19CEE
  8
DANMEN
  6
CONTINUOUS
 10
74.582437
 20
234.7
 30
0.0
 11
75.200003
 21
234.7
 31
0.0
  0
LINE
  5
19CF2
  8
DANMEN
  6
CONTINUOUS
 10
73.600003
 20
231.517126
 30
0.0
 11
73.600003
 21
230.782873
 31
0.0
  0
LINE
  5
19CF3
  8
DANMEN
  6
CONTINUOUS
 10
74.582437
 20
234.7
 30
0.0
 11
73.600003
 21
231.517126
 31
0.0
  0
ARC
  5
19CF5
  8
DANMEN
  6
CONTINUOUS
 10
73.200003
 20
230.694291
 30
0.0
 40
0.2
 50
180.0
 51
204.97391
  0
ARC
  5
19CF7
  8
DANMEN
  6
CONTINUOUS
 10
73.200003
 20
231.605709
 30
0.0
 40
0.2
 50
155.02609
 51
180.0
  0
LINE
  5
19CF8
  8
DANMEN
  6
CONTINUOUS
 10
73.000003
 20
231.605709
 30
0.0
 11
73.000003
 21
230.694291
 31
0.0
  0
LINE
  5
19CFF
  8
DANMEN
  6
CONTINUOUS
 10
77.200003
 20
232.0
 30
0.0
 11
77.200003
 21
230.3
 31
0.0
  0
LINE
  5
19D04
  8
DANMEN
  6
CONTINUOUS
 10
76.000003
 20
229.5
 30
0.0
 11
77.000003
 21
229.5
 31
0.0
  0
LINE
  5
19D06
  8
DANMEN
  6
CONTINUOUS
 10
76.000003
 20
232.8
 30
0.0
 11
77.000003
 21
232.8
 31
0.0
  0
LINE
  5
19D07
  8
DANMEN
  6
CONTINUOUS
 10
77.200003
 20
230.3
 30
0.0
 11
78.000003
 21
229.5
 31
0.0
  0
LINE
  5
19D08
  8
DANMEN
  6
CONTINUOUS
 10
78.000003
 20
232.8
 30
0.0
 11
77.200003
 21
232.0
 31
0.0
  0
ARC
  5
19D0C
  8
DANMEN
  6
CONTINUOUS
 10
77.200003
 20
233.8
 30
0.0
 40
0.2
 50
89.999982
 51
180.000019
  0
ARC
  5
19D0E
  8
DANMEN
  6
CONTINUOUS
 10
77.800003
 20
233.8
 30
0.0
 40
0.2
 50
0.0
 51
89.999982
  0
LINE
  5
19D10
  8
DANMEN
  6
CONTINUOUS
 10
77.000003
 20
233.8
 30
0.0
 11
77.000003
 21
232.8
 31
0.0
  0
LINE
  5
19D11
  8
DANMEN
  6
CONTINUOUS
 10
77.200003
 20
234.0
 30
0.0
 11
77.800003
 21
234.0
 31
0.0
  0
LINE
  5
19D12
  8
DANMEN
  6
CONTINUOUS
 10
78.000003
 20
233.8
 30
0.0
 11
78.000003
 21
232.8
 31
0.0
  0
LINE
  5
19D14
  8
DANMEN
  6
CONTINUOUS
 10
76.5
 20
232.800003
 30
0.0
 11
76.800003
 21
232.800003
 31
0.0
  0
ARC
  5
19D15
  8
DANMEN
  6
CONTINUOUS
 10
76.5
 20
233.300003
 30
0.0
 40
0.5
 50
179.999981
 51
270.000018
  0
LINE
  5
19D16
  8
DANMEN
  6
CONTINUOUS
 10
76.800003
 20
232.800003
 30
0.0
 11
76.800003
 21
234.2
 31
0.0
  0
LINE
  5
19D17
  8
DANMEN
  6
CONTINUOUS
 10
76.0
 20
233.300003
 30
0.0
 11
76.0
 21
234.5
 31
0.0
  0
LINE
  5
19D18
  8
DANMEN
  6
CONTINUOUS
 10
76.5
 20
229.199997
 30
0.0
 11
76.800003
 21
229.199997
 31
0.0
  0
LINE
  5
19D19
  8
DANMEN
  6
CONTINUOUS
 10
74.327481
 20
235.3
 30
0.0
 11
76.000003
 21
235.3
 31
0.0
  0
ARC
  5
19D1B
  8
DANMEN
  6
CONTINUOUS
 10
74.327481
 20
235.1
 30
0.0
 40
0.2
 50
90.0
 51
155.02609
  0
LINE
  5
19D1C
  8
DANMEN
  6
CONTINUOUS
 10
72.5
 20
235.0
 30
0.0
 11
71.55
 21
235.0
 31
0.0
  0
LINE
  5
19D20
  8
DANMEN
  6
DASHED
 10
83.023824
 20
230.617136
 30
0.0
 11
84.423825
 21
233.917167
 31
0.0
  0
ARC
  5
19D21
  8
DANMEN
  6
DASHED
 10
83.299999
 20
230.499972
 30
0.0
 40
0.3
 50
157.011468
 51
235.656024
  0
LINE
  5
19D22
  8
DANMEN
  6
CONTINUOUS
 10
82.65
 20
230.0
 30
0.0
 11
83.5
 21
230.0
 31
0.0
  0
LINE
  5
19D27
  8
DANMEN
  6
DASHED
 10
84.5
 20
231.600003
 30
0.0
 11
84.992312
 21
233.73252
 31
0.0
  0
ARC
  5
19D28
  8
DANMEN
  6
DASHED
 10
84.7
 20
233.800003
 30
0.0
 40
0.3
 50
347.000479
 51
157.011468
  0
LINE
  5
19D29
  8
DANMEN
  6
DASHED
 10
83.499991
 20
229.999972
 30
0.0
 11
83.130743
 21
230.252271
 31
0.0
  0
ARC
  5
19D2D
  8
DANMEN
  6
CONTINUOUS
 10
84.0
 20
237.0
 30
0.0
 40
0.5
 50
90.0
 51
180.0
  0
LINE
  5
19D2E
  8
DANMEN
  6
CONTINUOUS
 10
84.0
 20
237.5
 30
0.0
 11
85.0
 21
237.5
 31
0.0
  0
LINE
  5
19D2F
  8
DANMEN
  6
DASHED
 10
98.5
 20
227.0
 30
0.0
 11
98.5
 21
229.999972
 31
0.0
  0
LINE
  5
19D30
  8
DANMEN
  6
DASHED
 10
97.5
 20
231.600003
 30
0.0
 11
97.5
 21
227.5
 31
0.0
  0
LINE
  5
19D31
  8
DANMEN
  6
CONTINUOUS
 10
96.8
 20
226.349997
 30
0.0
 11
96.8
 21
237.500003
 31
0.0
  0
LINE
  5
19D32
  8
DANMEN
  6
CONTINUOUS
 10
98.3
 20
226.999997
 30
0.0
 11
98.3
 21
237.000003
 31
0.0
  0
LINE
  5
19D33
  8
DANMEN
  6
CONTINUOUS
 10
98.5
 20
230.0
 30
0.0
 11
98.5
 21
227.5
 31
0.0
  0
LINE
  5
19D34
  8
DANMEN
  6
CONTINUOUS
 10
99.206061
 20
229.642044
 30
0.0
 11
99.5
 21
228.65
 31
0.0
  0
ARC
  5
19D35
  8
DANMEN
  6
CONTINUOUS
 10
93.300002
 20
220.430304
 30
0.0
 40
2.0
 50
0.000026
 51
51.706549
  0
ARC
  5
19D36
  8
DANMEN
  6
CONTINUOUS
 10
96.300002
 20
219.149997
 30
0.0
 40
1.0
 50
180.0
 51
270.0
  0
LINE
  5
19D37
  8
DANMEN
  6
CONTINUOUS
 10
92.800003
 20
218.099997
 30
0.0
 11
91.200003
 21
218.099996
 31
0.0
  0
LINE
  5
19D38
  8
DANMEN
  6
CONTINUOUS
 10
90.900001
 20
221.699996
 30
0.0
 11
90.900001
 21
221.436928
 31
0.0
  0
ARC
  5
19D39
  8
DANMEN
  6
CONTINUOUS
 10
91.200002
 20
220.346057
 30
0.0
 40
1.0
 50
114.624344
 51
180.000026
  0
ARC
  5
19D3A
  8
DANMEN
  6
CONTINUOUS
 10
90.700001
 20
221.436928
 30
0.0
 40
0.2
 50
294.624344
 51
0.000026
  0
ARC
  5
19D3B
  8
DANMEN
  6
CONTINUOUS
 10
90.700002
 20
220.430302
 30
0.0
 40
2.0
 50
128.293503
 51
180.000026
  0
LINE
  5
19D3C
  8
DANMEN
  6
CONTINUOUS
 10
88.700002
 20
220.430301
 30
0.0
 11
88.700002
 21
219.649995
 31
0.0
  0
LINE
  5
19D3D
  8
DANMEN
  6
CONTINUOUS
 10
90.200002
 20
220.346057
 30
0.0
 11
90.200002
 21
219.099996
 31
0.0
  0
ARC
  5
19D3E
  8
DANMEN
  6
CONTINUOUS
 10
91.200002
 20
219.099996
 30
0.0
 40
1.0
 50
180.000026
 51
270.000026
  0
LINE
  5
19D3F
  8
DANMEN
  6
CONTINUOUS
 10
90.600001
 20
221.999996
 30
0.0
 11
89.460621
 21
221.999996
 31
0.0
  0
ARC
  5
19D40
  8
DANMEN
  6
CONTINUOUS
 10
90.600001
 20
221.699996
 30
0.0
 40
0.3
 50
0.000026
 51
90.000026
  0
ARC
  5
19D41
  8
DANMEN
  6
CONTINUOUS
 10
87.700002
 20
219.649997
 30
0.0
 40
1.0
 50
270.0
 51
0.0
  0
ARC
  5
19D42
  8
DANMEN
  6
CONTINUOUS
 10
93.300001
 20
221.436929
 30
0.0
 40
0.2
 50
180.000026
 51
245.375708
  0
ARC
  5
19D43
  8
DANMEN
  6
CONTINUOUS
 10
92.800002
 20
220.346058
 30
0.0
 40
1.0
 50
0.000026
 51
65.375708
  0
LINE
  5
19D44
  8
DANMEN
  6
CONTINUOUS
 10
93.100001
 20
221.699997
 30
0.0
 11
93.100001
 21
221.436929
 31
0.0
  0
ARC
  5
19D45
  8
DANMEN
  6
CONTINUOUS
 10
92.800002
 20
219.099997
 30
0.0
 40
1.0
 50
270.000026
 51
0.000026
  0
LINE
  5
19D46
  8
DANMEN
  6
CONTINUOUS
 10
95.300002
 20
220.430304
 30
0.0
 11
95.300002
 21
219.149998
 31
0.0
  0
LINE
  5
19D47
  8
DANMEN
  6
CONTINUOUS
 10
93.800002
 20
220.346058
 30
0.0
 11
93.800002
 21
219.099998
 31
0.0
  0
ARC
  5
19D48
  8
DANMEN
  6
CONTINUOUS
 10
93.400001
 20
221.699997
 30
0.0
 40
0.3
 50
90.000026
 51
180.000026
  0
LINE
  5
19D49
  8
DANMEN
  6
CONTINUOUS
 10
93.400001
 20
221.999996
 30
0.0
 11
94.53938
 21
221.999996
 31
0.0
  0
LINE
  5
19D4B
  8
DANMEN
  6
DASHED
 10
98.5
 20
227.0
 30
0.0
 11
101.0
 21
227.0
 31
0.0
  0
LINE
  5
19D4C
  8
DANMEN
  6
DASHED
 10
98.5
 20
227.0
 30
0.0
 11
101.0
 21
227.0
 31
0.0
  0
ARC
  5
19D4F
  8
DANMEN
  6
DASHED
 10
97.0
 20
227.5
 30
0.0
 40
0.5
 50
270.0
 51
0.0
  0
ARC
  5
19D50
  8
DANMEN
  6
CONTINUOUS
 10
97.8
 20
226.349997
 30
0.0
 40
1.0
 50
180.0
 51
270.0
  0
ARC
  5
19D51
  8
DANMEN
  6
CONTINUOUS
 10
99.0
 20
227.5
 30
0.0
 40
0.5
 50
180.0
 51
270.0
  0
LINE
  5
19D52
  8
DANMEN
  6
DASHED
 10
101.0
 20
227.0
 30
0.0
 11
101.0
 21
226.300003
 31
0.0
  0
ARC
  5
19D54
  8
DANMEN
  6
DASHED
 10
100.5
 20
226.300003
 30
0.0
 40
0.5
 50
270.000018
 51
0.0
  0
ARC
  5
19D58
  8
DANMEN
  6
DASHED
 10
98.700001
 20
230.499972
 30
0.0
 40
0.3
 50
304.343976
 51
22.988532
  0
LINE
  5
19D59
  8
DANMEN
  6
DASHED
 10
98.500009
 20
229.999972
 30
0.0
 11
98.869257
 21
230.252271
 31
0.0
  0
ARC
  5
19D5A
  8
DANMEN
  6
DASHED
 10
97.3
 20
233.800003
 30
0.0
 40
0.3
 50
22.988532
 51
192.999521
  0
LINE
  5
19D5B
  8
DANMEN
  6
DASHED
 10
98.976176
 20
230.617136
 30
0.0
 11
97.576175
 21
233.917167
 31
0.0
  0
LINE
  5
19D5C
  8
DANMEN
  6
DASHED
 10
97.5
 20
231.600003
 30
0.0
 11
97.007688
 21
233.73252
 31
0.0
  0
LINE
  5
19D61
  8
DANMEN
  6
CONTINUOUS
 10
98.726662
 20
230.0
 30
0.0
 11
98.5
 21
230.0
 31
0.0
  0
ARC
  5
19D62
  8
DANMEN
  6
CONTINUOUS
 10
98.726662
 20
229.5
 30
0.0
 40
0.5
 50
16.504361
 51
90.0
  0
ARC
  5
19D64
  8
DANMEN
  6
CONTINUOUS
 10
97.8
 20
237.000003
 30
0.0
 40
0.5
 50
0.0
 51
90.0
  0
LINE
  5
19D65
  8
DANMEN
  6
CONTINUOUS
 10
96.8
 20
237.500003
 30
0.0
 11
97.8
 21
237.500003
 31
0.0
  0
LINE
  5
19D66
  8
DANMEN
  6
CONTINUOUS
 10
79.65
 20
251.65
 30
0.0
 11
87.7
 21
251.65
 31
0.0
  0
LINE
  5
19D67
  8
DANMEN
  6
CONTINUOUS
 10
78.0
 20
253.950012
 30
0.0
 11
78.0
 21
250.8
 31
0.0
  0
LINE
  5
19D68
  8
DANMEN
  6
CONTINUOUS
 10
79.65
 20
254.600012
 30
0.0
 11
79.65
 21
251.65
 31
0.0
  0
LINE
  5
19D69
  8
DANMEN
  6
CONTINUOUS
 10
77.0
 20
250.0
 30
0.0
 11
81.0
 21
250.0
 31
0.0
  0
LINE
  5
19D6D
  8
DANMEN
  6
CONTINUOUS
 10
76.5
 20
250.8
 30
0.0
 11
78.0
 21
250.8
 31
0.0
  0
LINE
  5
19D6E
  8
DANMEN
  6
CONTINUOUS
 10
76.5
 20
250.8
 30
0.0
 11
76.5
 21
250.5
 31
0.0
  0
ARC
  5
19D6F
  8
DANMEN
  6
CONTINUOUS
 10
77.0
 20
250.5
 30
0.0
 40
0.5
 50
180.000019
 51
270.000001
  0
ARC
  5
19D70
  8
DANMEN
  6
CONTINUOUS
 10
78.65
 20
254.600012
 30
0.0
 40
1.0
 50
0.0
 51
90.0
  0
ARC
  5
19D71
  8
DANMEN
  6
CONTINUOUS
 10
91.2
 20
252.7
 30
0.0
 40
1.0
 50
180.0
 51
270.0
  0
ARC
  5
19D72
  8
DANMEN
  6
CONTINUOUS
 10
92.8
 20
252.7
 30
0.0
 40
1.0
 50
270.0
 51
0.0
  0
ARC
  5
19D73
  8
DANMEN
  6
CONTINUOUS
 10
96.3
 20
252.65
 30
0.0
 40
1.0
 50
180.0
 51
270.0
  0
ARC
  5
19D74
  8
DANMEN
  6
CONTINUOUS
 10
87.7
 20
252.65
 30
0.0
 40
1.0
 50
270.0
 51
0.0
  0
LINE
  5
19D75
  8
DANMEN
  6
CONTINUOUS
 10
92.8
 20
251.7
 30
0.0
 11
91.2
 21
251.7
 31
0.0
  0
ARC
  5
19D76
  8
DANMEN
  6
CONTINUOUS
 10
93.3
 20
254.030306
 30
0.0
 40
2.0
 50
0.0
 51
51.706523
  0
LINE
  5
19D77
  8
DANMEN
  6
CONTINUOUS
 10
90.6
 20
255.600006
 30
0.0
 11
89.460628
 21
255.600006
 31
0.0
  0
ARC
  5
19D78
  8
DANMEN
  6
CONTINUOUS
 10
90.6
 20
255.3
 30
0.0
 40
0.3
 50
0.0
 51
90.0
  0
LINE
  5
19D79
  8
DANMEN
  6
CONTINUOUS
 10
90.2
 20
253.946061
 30
0.0
 11
90.2
 21
252.7
 31
0.0
  0
ARC
  5
19D7A
  8
DANMEN
  6
CONTINUOUS
 10
90.7
 20
255.036932
 30
0.0
 40
0.2
 50
294.624318
 51
0.0
  0
ARC
  5
19D7B
  8
DANMEN
  6
CONTINUOUS
 10
91.2
 20
253.946061
 30
0.0
 40
1.0
 50
114.624318
 51
180.0
  0
LINE
  5
19D7C
  8
DANMEN
  6
CONTINUOUS
 10
90.9
 20
255.036932
 30
0.0
 11
90.9
 21
255.3
 31
0.0
  0
LINE
  5
19D7D
  8
DANMEN
  6
CONTINUOUS
 10
88.7
 20
254.030306
 30
0.0
 11
88.7
 21
252.65
 31
0.0
  0
ARC
  5
19D7E
  8
DANMEN
  6
CONTINUOUS
 10
90.7
 20
254.030306
 30
0.0
 40
2.0
 50
128.293195
 51
180.0
  0
ARC
  5
19D7F
  8
DANMEN
  6
CONTINUOUS
 10
93.4
 20
255.3
 30
0.0
 40
0.3
 50
90.0
 51
180.0
  0
LINE
  5
19D80
  8
DANMEN
  6
CONTINUOUS
 10
94.539379
 20
255.6
 30
0.0
 11
93.4
 21
255.6
 31
0.0
  0
LINE
  5
19D81
  8
DANMEN
  6
CONTINUOUS
 10
93.8
 20
253.946061
 30
0.0
 11
93.8
 21
252.7
 31
0.0
  0
LINE
  5
19D82
  8
DANMEN
  6
CONTINUOUS
 10
95.3
 20
254.030306
 30
0.0
 11
95.3
 21
252.65
 31
0.0
  0
LINE
  5
19D83
  8
DANMEN
  6
CONTINUOUS
 10
93.1
 20
255.036932
 30
0.0
 11
93.1
 21
255.3
 31
0.0
  0
ARC
  5
19D84
  8
DANMEN
  6
CONTINUOUS
 10
92.8
 20
253.946061
 30
0.0
 40
1.0
 50
0.0
 51
65.375682
  0
ARC
  5
19D85
  8
DANMEN
  6
CONTINUOUS
 10
93.3
 20
255.036932
 30
0.0
 40
0.2
 50
180.0
 51
245.375682
  0
LINE
  5
19D86
  8
DANMEN
  6
CONTINUOUS
 10
112.0
 20
261.5
 30
0.0
 11
112.0
 21
227.5
 31
0.0
  0
LINE
  5
19D87
  8
DANMEN
  6
CONTINUOUS
 10
110.350006
 20
250.0
 30
0.0
 11
110.350006
 21
228.65
 31
0.0
  0
ARC
  5
19D88
  8
DANMEN
  6
CONTINUOUS
 10
111.5
 20
227.5
 30
0.0
 40
0.5
 50
270.000018
 51
0.0
  0
LINE
  5
19D89
  8
DANMEN
  6
CONTINUOUS
 10
108.55
 20
218.149997
 30
0.0
 11
108.55
 21
225.349997
 31
0.0
  0
ARC
  5
19D8B
  8
DANMEN
  6
CONTINUOUS
 10
110.623494
 20
226.439422
 30
0.0
 40
0.5
 50
1.431408
 51
84.0
  0
LINE
  5
19D91
  8
DANMEN
  6
CONTINUOUS
 10
110.11785
 20
226.995322
 30
0.0
 11
110.675759
 21
226.936683
 31
0.0
  0
ARC
  5
19D92
  8
DANMEN
  6
CONTINUOUS
 10
109.7
 20
226.499997
 30
0.0
 40
0.5
 50
0.0
 51
90.0
  0
LINE
  5
19D94
  8
DANMEN
  6
CONTINUOUS
 10
110.350006
 20
260.350006
 30
0.0
 11
110.350006
 21
251.65
 31
0.0
  0
ARC
  5
19D95
  8
DANMEN
  6
CONTINUOUS
 10
111.5
 20
261.5
 30
0.0
 40
0.5
 50
0.0
 51
89.999982
  0
LINE
  5
19D96
  8
DANMEN
  6
CONTINUOUS
 10
106.5
 20
262.0
 30
0.0
 11
111.5
 21
262.0
 31
0.0
  0
LINE
  5
19D97
  8
DANMEN
  6
CONTINUOUS
 10
106.5
 20
260.350006
 30
0.0
 11
110.350006
 21
260.350006
 31
0.0
  0
LINE
  5
19D98
  8
DANMEN
  6
CONTINUOUS
 10
106.0
 20
261.5
 30
0.0
 11
106.0
 21
260.850006
 31
0.0
  0
ARC
  5
19D99
  8
DANMEN
  6
CONTINUOUS
 10
106.5
 20
261.5
 30
0.0
 40
0.5
 50
89.999982
 51
180.000019
  0
ARC
  5
19D9A
  8
DANMEN
  6
CONTINUOUS
 10
106.5
 20
260.850006
 30
0.0
 40
0.5
 50
180.000019
 51
270.000001
  0
LINE
  5
19D9C
  8
SUNPO
  6
CONTINUOUS
 10
156.0
 20
93.0
 30
0.0
 11
156.0
 21
148.0
 31
0.0
  0
LINE
  5
19D9D
  8
DANMEN
  6
CONTINUOUS
 10
392.0
 20
156.800003
 30
0.0
 11
392.0
 21
89.199997
 31
0.0
  0
LINE
  5
19D9E
  8
DANMEN
  6
CONTINUOUS
 10
393.649994
 20
156.350006
 30
0.0
 11
393.649994
 21
89.649994
 31
0.0
  0
ARC
  5
19D9F
  8
DANMEN
  6
CONTINUOUS
 10
283.750003
 20
124.2
 30
0.0
 40
0.3
 50
286.488148
 51
90.0
  0
ARC
  5
19DA0
  8
DANMEN
  6
CONTINUOUS
 10
273.55
 20
123.5
 30
0.0
 40
1.0
 50
89.999982
 51
180.000019
  0
LINE
  5
19DA1
  8
DANMEN
  6
CONTINUOUS
 10
266.300001
 20
127.2
 30
0.0
 11
266.300001
 21
122.5
 31
0.0
  0
LINE
  5
19DA2
  8
DANMEN
  6
CONTINUOUS
 10
265.300001
 20
126.8
 30
0.0
 11
265.300001
 21
123.3
 31
0.0
  0
LINE
  5
19DA3
  8
DANMEN
  6
CONTINUOUS
 10
263.504653
 20
127.341701
 30
0.0
 11
260.9
 21
123.3
 31
0.0
  0
LINE
  5
19DA4
  8
DANMEN
  6
CONTINUOUS
 10
264.345223
 20
126.8
 30
0.0
 11
262.089667
 21
123.3
 31
0.0
  0
LINE
  5
19DA5
  8
DANMEN
  6
CONTINUOUS
 10
289.5
 20
127.0
 30
0.0
 11
289.5
 21
122.5
 31
0.0
  0
LINE
  5
19DA6
  8
DANMEN
  6
CONTINUOUS
 10
288.0
 20
127.0
 30
0.0
 11
288.0
 21
123.0
 31
0.0
  0
LINE
  5
19DA7
  8
DANMEN
  6
CONTINUOUS
 10
303.0
 20
127.0
 30
0.0
 11
303.0
 21
123.0
 31
0.0
  0
LINE
  5
19DA8
  8
DANMEN
  6
CONTINUOUS
 10
304.5
 20
164.0
 30
0.0
 11
304.5
 21
122.5
 31
0.0
  0
LINE
  5
19DA9
  8
SUNPO
  6
CONTINUOUS
 10
244.793737
 20
158.0
 30
0.0
 11
244.793737
 21
88.0
 31
0.0
  0
LINE
  5
19DAA
  8
SUNPO
  6
CONTINUOUS
 10
324.468739
 20
127.0
 30
0.0
 11
324.468739
 21
119.0
 31
0.0
  0
LINE
  5
19DAB
  8
SUNPO
  6
CONTINUOUS
 10
144.685645
 20
135.000003
 30
0.0
 11
144.685645
 21
93.0
 31
0.0
  0
LINE
  5
19DAC
  8
SUNPO
  6
CONTINUOUS
 10
136.221192
 20
135.000003
 30
0.0
 11
136.221192
 21
113.000003
 31
0.0
  0
LINE
  5
19DAD
  8
SUNPO
  6
CONTINUOUS
 10
21.0
 20
53.0
 30
0.0
 11
21.0
 21
167.0
 31
0.0
  0
TEXT
  5
19DAE
  8
SUNPO
  6
CONTINUOUS
 10
135.221192
 20
121.91667
 30
0.0
 40
2.5
  1
22
 50
90.0
  7
MX_NOTE_STANDARD
  0
TEXT
  5
19DAF
  8
SUNPO
  6
CONTINUOUS
 10
243.793737
 20
121.125
 30
0.0
 40
2.5
  1
70
 50
90.0
  7
MX_NOTE_STANDARD
  0
LINE
  5
19DB0
  8
SUNPO
  6
CONTINUOUS
 10
297.0
 20
30.0
 30
0.0
 11
377.0
 21
30.0
 31
0.0
  0
LINE
  5
19DB1
  8
SUNPO
  6
CONTINUOUS
 10
304.5
 20
38.322886
 30
0.0
 11
377.0
 21
38.322886
 31
0.0
  0
LINE
  5
19DB2
  8
SUNPO
  6
CONTINUOUS
 10
57.0
 20
24.0
 30
0.0
 11
156.0
 21
24.0
 31
0.0
  0
LINE
  5
19DB3
  8
DANMEN
  6
CONTINUOUS
 10
323.9
 20
83.199997
 30
0.0
 11
347.0
 21
83.199997
 31
0.0
  0
LINE
  5
19DB4
  8
DANMEN
  6
CONTINUOUS
 10
323.9
 20
81.0
 30
0.0
 11
347.5
 21
81.0
 31
0.0
  0
LINE
  5
19DB5
  8
DANMEN
  6
CONTINUOUS
 10
323.75
 20
124.0
 30
0.0
 11
392.0
 21
124.0
 31
0.0
  0
LINE
  5
19DB6
  8
DANMEN
  6
CONTINUOUS
 10
347.500004
 20
119.0
 30
0.0
 11
323.9
 21
119.0
 31
0.0
  0
LINE
  5
19DB7
  8
DANMEN
  6
CONTINUOUS
 10
362.0
 20
108.15
 30
0.0
 11
323.75
 21
108.15
 31
0.0
  0
LINE
  5
19DB8
  8
DANMEN
  6
CONTINUOUS
 10
362.0
 20
103.15
 30
0.0
 11
323.75
 21
103.15
 31
0.0
  0
LINE
  5
19DB9
  8
DANMEN
  6
CONTINUOUS
 10
362.0
 20
96.85
 30
0.0
 11
323.75
 21
96.85
 31
0.0
  0
LINE
  5
19DBA
  8
DANMEN
  6
CONTINUOUS
 10
362.0
 20
101.85
 30
0.0
 11
323.75
 21
101.85
 31
0.0
  0
LINE
  5
19DBB
  8
DANMEN
  6
CONTINUOUS
 10
362.0
 20
108.65
 30
0.0
 11
323.75
 21
108.65
 31
0.0
  0
LINE
  5
19DBC
  8
DANMEN
  6
CONTINUOUS
 10
362.0
 20
96.35
 30
0.0
 11
323.75
 21
96.35
 31
0.0
  0
LINE
  5
19DBD
  8
DANMEN
  6
CONTINUOUS
 10
362.0
 20
102.65
 30
0.0
 11
323.75
 21
102.65
 31
0.0
  0
LINE
  5
19DBE
  8
DANMEN
  6
CONTINUOUS
 10
362.0
 20
102.35
 30
0.0
 11
323.75
 21
102.35
 31
0.0
  0
LINE
  5
19DBF
  8
DANMEN
  6
CONTINUOUS
 10
323.9
 20
87.999997
 30
0.0
 11
347.0
 21
87.999997
 31
0.0
  0
LINE
  5
19DC0
  8
DANMEN
  6
CONTINUOUS
 10
347.0
 20
116.999966
 30
0.0
 11
323.9
 21
116.999966
 31
0.0
  0
LINE
  5
19DC2
  8
DANMEN
  6
CONTINUOUS
 10
266.300001
 20
124.0
 30
0.0
 11
272.683978
 21
124.0
 31
0.0
  0
LINE
  5
19DC3
  8
DANMEN
  6
CONTINUOUS
 10
302.5
 20
63.0
 30
0.0
 11
261.5
 21
63.0
 31
0.0
  0
LINE
  5
19DC4
  8
DANMEN
  6
CONTINUOUS
 10
274.0
 20
91.75
 30
0.0
 11
267.55
 21
91.75
 31
0.0
  0
LINE
  5
19DC5
  8
DANMEN
  6
CONTINUOUS
 10
302.5
 20
60.0
 30
0.0
 11
261.5
 21
60.0
 31
0.0
  0
LINE
  5
19DC6
  8
DANMEN
  6
CONTINUOUS
 10
274.000003
 20
89.8
 30
0.0
 11
261.499997
 21
89.8
 31
0.0
  0
LINE
  5
19DC7
  8
DANMEN
  6
CONTINUOUS
 10
274.0
 20
117.050003
 30
0.0
 11
261.149997
 21
117.050003
 31
0.0
  0
LINE
  5
19DC8
  8
DANMEN
  6
CONTINUOUS
 10
272.550003
 20
119.0
 30
0.0
 11
266.25
 21
119.0
 31
0.0
  0
LINE
  5
19DC9
  8
DANMEN
  6
CONTINUOUS
 10
261.5
 20
63.0
 30
0.0
 11
261.5
 21
89.8
 31
0.0
  0
LINE
  5
19DCA
  8
DANMEN
  6
CONTINUOUS
 10
259.5
 20
62.0
 30
0.0
 11
259.5
 21
123.5
 31
0.0
  0
ARC
  5
19DCB
  8
DANMEN
  6
CONTINUOUS
 10
261.5
 20
62.0
 30
0.0
 40
2.0
 50
179.999981
 51
270.000018
  0
LINE
  5
19DCC
  8
DANMEN
  6
CONTINUOUS
 10
261.449997
 20
91.75
 30
0.0
 11
261.449997
 21
116.050003
 31
0.0
  0
LINE
  5
19DCD
  8
DANMEN
  6
CONTINUOUS
 10
241.75
 20
92.0
 30
0.0
 11
259.5
 21
92.0
 31
0.0
  0
LINE
  5
19DCE
  8
DANMEN
  6
CONTINUOUS
 10
241.75
 20
88.0
 30
0.0
 11
259.5
 21
88.0
 31
0.0
  0
LINE
  5
19DCF
  8
DANMEN
  6
CONTINUOUS
 10
266.45
 20
91.75
 30
0.0
 11
261.449997
 21
91.75
 31
0.0
  0
LINE
  5
19DD0
  8
DANMEN
  6
CONTINUOUS
 10
266.45
 20
91.75
 30
0.0
 11
266.45
 21
93.95
 31
0.0
  0
LINE
  5
19DD1
  8
DANMEN
  6
CONTINUOUS
 10
267.55
 20
91.75
 30
0.0
 11
267.55
 21
93.95
 31
0.0
  0
LINE
  5
19DD2
  8
DANMEN
  6
CONTINUOUS
 10
267.55
 20
93.95
 30
0.0
 11
266.45
 21
93.95
 31
0.0
  0
LINE
  5
19DD3
  8
DANMEN
  6
CONTINUOUS
 10
244.793737
 20
124.0
 30
0.0
 11
261.351111
 21
124.0
 31
0.0
  0
ARC
  5
19DD4
  8
DANMEN
  6
CONTINUOUS
 10
260.0
 20
123.5
 30
0.0
 40
0.5
 50
90.0
 51
180.0
  0
LINE
  5
19DD5
  8
DANMEN
  6
CONTINUOUS
 10
261.449997
 20
116.050003
 30
0.0
 11
261.149997
 21
116.050003
 31
0.0
  0
LINE
  5
19DD6
  8
DANMEN
  6
CONTINUOUS
 10
261.149997
 20
116.050003
 30
0.0
 11
261.149997
 21
117.050003
 31
0.0
  0
LINE
  5
19DD7
  8
DANMEN
  6
CONTINUOUS
 10
262.540778
 20
124.0
 30
0.0
 11
265.300001
 21
124.0
 31
0.0
  0
LINE
  5
19DD8
  8
DANMEN
  6
CONTINUOUS
 10
265.25
 20
119.0
 30
0.0
 11
260.7
 21
119.0
 31
0.0
  0
LINE
  5
19DD9
  8
DANMEN
  6
CONTINUOUS
 10
262.4
 20
121.0
 30
0.0
 11
263.6
 21
121.0
 31
0.0
  0
LINE
  5
19DDA
  8
DANMEN
  6
CONTINUOUS
 10
262.089667
 20
123.3
 30
0.0
 11
265.300001
 21
123.3
 31
0.0
  0
LINE
  5
19DDB
  8
DANMEN
  6
CONTINUOUS
 10
260.0
 20
124.0
 30
0.0
 11
260.2
 21
124.0
 31
0.0
  0
LINE
  5
19DDC
  8
DANMEN
  6
CONTINUOUS
 10
261.75
 20
121.699997
 30
0.0
 11
261.75
 21
122.0
 31
0.0
  0
LINE
  5
19DDD
  8
DANMEN
  6
CONTINUOUS
 10
261.75
 20
121.699997
 30
0.0
 11
260.7
 21
121.699997
 31
0.0
  0
LINE
  5
19DDE
  8
DANMEN
  6
CONTINUOUS
 10
261.25
 20
122.5
 30
0.0
 11
260.7
 21
122.5
 31
0.0
  0
ARC
  5
19DDF
  8
DANMEN
  6
CONTINUOUS
 10
261.25
 20
122.0
 30
0.0
 40
0.5
 50
360.0
 51
89.999982
  0
LINE
  5
19DE0
  8
DANMEN
  6
CONTINUOUS
 10
260.7
 20
119.0
 30
0.0
 11
260.7
 21
121.699997
 31
0.0
  0
LINE
  5
19DE1
  8
DANMEN
  6
CONTINUOUS
 10
260.7
 20
122.5
 30
0.0
 11
260.7
 21
123.5
 31
0.0
  0
ARC
  5
19DE2
  8
DANMEN
  6
CONTINUOUS
 10
260.2
 20
123.5
 30
0.0
 40
0.5
 50
0.0
 51
90.0
  0
LINE
  5
19DE5
  8
DANMEN
  6
CONTINUOUS
 10
262.4
 20
121.0
 30
0.0
 11
261.9
 21
120.5
 31
0.0
  0
LINE
  5
19DE8
  8
DANMEN
  6
CONTINUOUS
 10
261.9
 20
120.5
 30
0.0
 11
260.9
 21
120.5
 31
0.0
  0
LINE
  5
19DEB
  8
DANMEN
  6
CONTINUOUS
 10
260.9
 20
122.5
 30
0.0
 11
260.9
 21
123.3
 31
0.0
  0
LINE
  5
19DEF
  8
DANMEN
  6
CONTINUOUS
 10
260.9
 20
122.5
 30
0.0
 11
261.9
 21
122.5
 31
0.0
  0
ARC
  5
19DF0
  8
DANMEN
  6
CONTINUOUS
 10
261.099999
 20
121.3
 30
0.0
 40
0.2
 50
89.999982
 51
180.000019
  0
LINE
  5
19DF1
  8
DANMEN
  6
CONTINUOUS
 10
260.9
 20
121.3
 30
0.0
 11
260.9
 21
120.5
 31
0.0
  0
LINE
  5
19DF2
  8
DANMEN
  6
CONTINUOUS
 10
261.099999
 20
121.5
 30
0.0
 11
261.9
 21
121.5
 31
0.0
  0
LINE
  5
19DF3
  8
DANMEN
  6
CONTINUOUS
 10
261.9
 20
122.5
 30
0.0
 11
261.9
 21
121.5
 31
0.0
  0
LINE
  5
19DF6
  8
DANMEN
  6
CONTINUOUS
 10
265.75
 20
122.5
 30
0.0
 11
264.75
 21
122.5
 31
0.0
  0
LINE
  5
19DF7
  8
DANMEN
  6
CONTINUOUS
 10
266.25
 20
119.0
 30
0.0
 11
266.25
 21
122.0
 31
0.0
  0
LINE
  5
19DF8
  8
DANMEN
  6
CONTINUOUS
 10
264.25
 20
121.699997
 30
0.0
 11
264.25
 21
122.0
 31
0.0
  0
LINE
  5
19DF9
  8
DANMEN
  6
CONTINUOUS
 10
265.25
 20
121.699997
 30
0.0
 11
264.25
 21
121.699997
 31
0.0
  0
LINE
  5
19DFA
  8
DANMEN
  6
CONTINUOUS
 10
265.25
 20
119.0
 30
0.0
 11
265.25
 21
121.699997
 31
0.0
  0
ARC
  5
19DFB
  8
DANMEN
  6
CONTINUOUS
 10
264.75
 20
122.0
 30
0.0
 40
0.5
 50
89.999982
 51
180.000019
  0
ARC
  5
19DFC
  8
DANMEN
  6
CONTINUOUS
 10
265.75
 20
122.0
 30
0.0
 40
0.5
 50
360.0
 51
89.999982
  0
LINE
  5
19DFE
  8
DANMEN
  6
CONTINUOUS
 10
264.1
 20
122.5
 30
0.0
 11
266.300001
 21
122.5
 31
0.0
  0
LINE
  5
19DFF
  8
DANMEN
  6
CONTINUOUS
 10
264.1
 20
120.5
 30
0.0
 11
263.6
 21
121.0
 31
0.0
  0
LINE
  5
19E03
  8
DANMEN
  6
CONTINUOUS
 10
265.1
 20
120.5
 30
0.0
 11
264.1
 21
120.5
 31
0.0
  0
ARC
  5
19E07
  8
DANMEN
  6
CONTINUOUS
 10
264.900001
 20
121.3
 30
0.0
 40
0.2
 50
359.999981
 51
90.000037
  0
LINE
  5
19E08
  8
DANMEN
  6
CONTINUOUS
 10
265.1
 20
121.3
 30
0.0
 11
265.1
 21
120.5
 31
0.0
  0
LINE
  5
19E09
  8
DANMEN
  6
CONTINUOUS
 10
264.900001
 20
121.5
 30
0.0
 11
264.1
 21
121.5
 31
0.0
  0
LINE
  5
19E0A
  8
DANMEN
  6
CONTINUOUS
 10
264.1
 20
122.5
 30
0.0
 11
264.1
 21
121.5
 31
0.0
  0
LINE
  5
19E0C
  8
DANMEN
  6
CONTINUOUS
 10
302.5
 20
63.0
 30
0.0
 11
302.5
 21
81.0
 31
0.0
  0
LINE
  5
19E0D
  8
DANMEN
  6
CONTINUOUS
 10
304.5
 20
62.0
 30
0.0
 11
304.5
 21
88.0
 31
0.0
  0
ARC
  5
19E0E
  8
DANMEN
  6
CONTINUOUS
 10
302.5
 20
62.0
 30
0.0
 40
2.0
 50
270.000018
 51
0.0
  0
LINE
  5
19E0F
  8
DANMEN
  6
CONTINUOUS
 10
289.499997
 20
124.0
 30
0.0
 11
303.3
 21
124.0
 31
0.0
  0
LINE
  5
19E10
  8
DANMEN
  6
CONTINUOUS
 10
289.499999
 20
96.85
 30
0.0
 11
322.25
 21
96.85
 31
0.0
  0
LINE
  5
19E11
  8
DANMEN
  6
CONTINUOUS
 10
289.499999
 20
101.85
 30
0.0
 11
320.343739
 21
101.85
 31
0.0
  0
LINE
  5
19E12
  8
DANMEN
  6
CONTINUOUS
 10
289.499999
 20
108.15
 30
0.0
 11
322.25
 21
108.15
 31
0.0
  0
LINE
  5
19E13
  8
DANMEN
  6
CONTINUOUS
 10
289.499999
 20
103.15
 30
0.0
 11
320.343739
 21
103.15
 31
0.0
  0
LINE
  5
19E14
  8
DANMEN
  6
CONTINUOUS
 10
289.499999
 20
96.35
 30
0.0
 11
322.25
 21
96.35
 31
0.0
  0
LINE
  5
19E15
  8
DANMEN
  6
CONTINUOUS
 10
289.499999
 20
108.65
 30
0.0
 11
322.25
 21
108.65
 31
0.0
  0
LINE
  5
19E16
  8
DANMEN
  6
CONTINUOUS
 10
289.499999
 20
102.35
 30
0.0
 11
320.343739
 21
102.35
 31
0.0
  0
LINE
  5
19E17
  8
DANMEN
  6
CONTINUOUS
 10
289.499999
 20
102.65
 30
0.0
 11
320.343739
 21
102.65
 31
0.0
  0
LINE
  5
19E18
  8
DANMEN
  6
CONTINUOUS
 10
303.999996
 20
116.5
 30
0.0
 11
299.499997
 21
116.5
 31
0.0
  0
LINE
  5
19E19
  8
DANMEN
  6
CONTINUOUS
 10
303.999996
 20
119.0
 30
0.0
 11
284.5
 21
119.0
 31
0.0
  0
LINE
  5
19E1A
  8
DANMEN
  6
CONTINUOUS
 10
302.500003
 20
81.0
 30
0.0
 11
275.000003
 21
81.0
 31
0.0
  0
LINE
  5
19E1B
  8
DANMEN
  6
CONTINUOUS
 10
303.4
 20
82.949997
 30
0.0
 11
276.5
 21
82.949997
 31
0.0
  0
LINE
  5
19E1C
  8
DANMEN
  6
CONTINUOUS
 10
302.550003
 20
87.0
 30
0.0
 11
294.0
 21
87.0
 31
0.0
  0
LINE
  5
19E1D
  8
DANMEN
  6
CONTINUOUS
 10
303.999999
 20
88.5
 30
0.0
 11
299.5
 21
88.5
 31
0.0
  0
LINE
  5
19E1E
  8
DANMEN
  6
CONTINUOUS
 10
300.0
 20
123.0
 30
0.0
 11
303.0
 21
123.0
 31
0.0
  0
LINE
  5
19E1F
  8
DANMEN
  6
CONTINUOUS
 10
300.0
 20
121.5
 30
0.0
 11
303.5
 21
121.5
 31
0.0
  0
LINE
  5
19E20
  8
DANMEN
  6
CONTINUOUS
 10
289.5
 20
110.5
 30
0.0
 11
289.5
 21
94.5
 31
0.0
  0
LINE
  5
19E21
  8
DANMEN
  6
CONTINUOUS
 10
289.5
 20
93.299994
 30
0.0
 11
276.5
 21
111.299994
 31
0.0
  0
LINE
  5
19E22
  8
DANMEN
  6
CONTINUOUS
 10
289.5
 20
111.299994
 30
0.0
 11
289.5
 21
93.299994
 31
0.0
  0
LINE
  5
19E23
  8
DANMEN
  6
CONTINUOUS
 10
276.5
 20
111.299994
 30
0.0
 11
276.5
 21
93.299994
 31
0.0
  0
LINE
  5
19E24
  8
DANMEN
  6
CONTINUOUS
 10
276.5
 20
82.949997
 30
0.0
 11
276.5
 21
112.299994
 31
0.0
  0
LINE
  5
19E25
  8
DANMEN
  6
CONTINUOUS
 10
274.0
 20
96.8
 30
0.0
 11
274.0
 21
113.999994
 31
0.0
  0
LINE
  5
19E26
  8
DANMEN
  6
CONTINUOUS
 10
276.5
 20
93.299994
 30
0.0
 11
289.5
 21
93.299994
 31
0.0
  0
LINE
  5
19E27
  8
DANMEN
  6
CONTINUOUS
 10
274.000003
 20
82.0
 30
0.0
 11
274.000003
 21
89.8
 31
0.0
  0
ARC
  5
19E28
  8
DANMEN
  6
CONTINUOUS
 10
275.000003
 20
82.0
 30
0.0
 40
1.0
 50
179.999981
 51
270.000018
  0
LINE
  5
19E29
  8
DANMEN
  6
CONTINUOUS
 10
272.550003
 20
95.3
 30
0.0
 11
272.550003
 21
96.8
 31
0.0
  0
LINE
  5
19E2A
  8
DANMEN
  6
CONTINUOUS
 10
274.0
 20
91.75
 30
0.0
 11
274.0
 21
95.3
 31
0.0
  0
LINE
  5
19E2B
  8
DANMEN
  6
CONTINUOUS
 10
274.0
 20
95.3
 30
0.0
 11
272.550003
 21
95.3
 31
0.0
  0
LINE
  5
19E2C
  8
DANMEN
  6
CONTINUOUS
 10
274.0
 20
96.8
 30
0.0
 11
272.550003
 21
96.8
 31
0.0
  0
LINE
  5
19E2D
  8
DANMEN
  6
CONTINUOUS
 10
299.5
 20
88.0
 30
0.0
 11
294.5
 21
88.0
 31
0.0
  0
ARC
  5
19E2E
  8
DANMEN
  6
CONTINUOUS
 10
294.0
 20
87.5
 30
0.0
 40
0.5
 50
180.0
 51
270.0
  0
LINE
  5
19E2F
  8
DANMEN
  6
CONTINUOUS
 10
293.5
 20
87.5
 30
0.0
 11
293.5
 21
88.0
 31
0.0
  0
ARC
  5
19E30
  8
DANMEN
  6
CONTINUOUS
 10
294.0
 20
88.0
 30
0.0
 40
0.5
 50
90.0
 51
180.0
  0
LINE
  5
19E31
  8
DANMEN
  6
CONTINUOUS
 10
294.5
 20
88.5
 30
0.0
 11
294.0
 21
88.5
 31
0.0
  0
LINE
  5
19E32
  8
DANMEN
  6
CONTINUOUS
 10
294.5
 20
88.0
 30
0.0
 11
294.5
 21
88.5
 31
0.0
  0
LINE
  5
19E33
  8
DANMEN
  6
CONTINUOUS
 10
299.5
 20
88.0
 30
0.0
 11
299.5
 21
88.5
 31
0.0
  0
LINE
  5
19E34
  8
DANMEN
  6
CONTINUOUS
 10
276.5
 20
111.299994
 30
0.0
 11
289.5
 21
111.299994
 31
0.0
  0
LINE
  5
19E35
  8
DANMEN
  6
CONTINUOUS
 10
285.8
 20
115.3
 30
0.0
 11
281.901083
 21
115.3
 31
0.0
  0
LINE
  5
19E36
  8
DANMEN
  6
CONTINUOUS
 10
284.8
 20
116.5
 30
0.0
 11
282.8
 21
116.5
 31
0.0
  0
LINE
  5
19E37
  8
DANMEN
  6
CONTINUOUS
 10
283.503755
 20
116.5
 30
0.0
 11
284.245423
 21
116.856576
 31
0.0
  0
LINE
  5
19E38
  8
DANMEN
  6
CONTINUOUS
 10
284.5
 20
119.0
 30
0.0
 11
274.05
 21
119.0
 31
0.0
  0
LINE
  5
19E39
  8
DANMEN
  6
CONTINUOUS
 10
278.3
 20
121.5
 30
0.0
 11
288.5
 21
121.5
 31
0.0
  0
LINE
  5
19E3A
  8
DANMEN
  6
CONTINUOUS
 10
284.0
 20
123.8
 30
0.0
 11
284.5
 21
123.8
 31
0.0
  0
ARC
  5
19E3B
  8
DANMEN
  6
CONTINUOUS
 10
282.0
 20
112.690092
 30
0.0
 40
0.5
 50
0.0
 51
78.690068
  0
LINE
  5
19E3C
  8
DANMEN
  6
CONTINUOUS
 10
282.5
 20
112.299994
 30
0.0
 11
276.5
 21
112.299994
 31
0.0
  0
LINE
  5
19E3D
  8
DANMEN
  6
CONTINUOUS
 10
282.5
 20
112.690092
 30
0.0
 11
282.5
 21
112.299994
 31
0.0
  0
LINE
  5
19E3E
  8
DANMEN
  6
CONTINUOUS
 10
283.750003
 20
124.5
 30
0.0
 11
273.55
 21
124.5
 31
0.0
  0
LINE
  5
19E3F
  8
DANMEN
  6
CONTINUOUS
 10
277.550003
 20
123.0
 30
0.0
 11
274.05
 21
123.0
 31
0.0
  0
LINE
  5
19E40
  8
DANMEN
  6
CONTINUOUS
 10
272.550003
 20
113.999994
 30
0.0
 11
272.550003
 21
115.499994
 31
0.0
  0
LINE
  5
19E41
  8
DANMEN
  6
CONTINUOUS
 10
274.0
 20
113.999994
 30
0.0
 11
272.550003
 21
113.999994
 31
0.0
  0
LINE
  5
19E42
  8
DANMEN
  6
CONTINUOUS
 10
274.0
 20
115.499994
 30
0.0
 11
274.0
 21
117.050003
 31
0.0
  0
LINE
  5
19E43
  8
DANMEN
  6
CONTINUOUS
 10
274.0
 20
115.499994
 30
0.0
 11
272.550003
 21
115.499994
 31
0.0
  0
LINE
  5
19E44
  8
DANMEN
  6
CONTINUOUS
 10
274.05
 20
119.0
 30
0.0
 11
274.05
 21
123.0
 31
0.0
  0
LINE
  5
19E45
  8
DANMEN
  6
CONTINUOUS
 10
272.550003
 20
119.0
 30
0.0
 11
272.550003
 21
123.5
 31
0.0
  0
LINE
  5
19E46
  8
DANMEN
  6
CONTINUOUS
 10
281.913121
 20
116.801883
 30
0.0
 11
278.936094
 21
114.598292
 31
0.0
  0
LINE
  5
19E47
  8
DANMEN
  6
CONTINUOUS
 10
281.901083
 20
115.3
 30
0.0
 11
279.199105
 21
113.3
 31
0.0
  0
LINE
  5
19E48
  8
DANMEN
  6
CONTINUOUS
 10
280.5
 20
113.499994
 30
0.0
 11
276.5
 21
113.499994
 31
0.0
  0
LINE
  5
19E49
  8
DANMEN
  6
CONTINUOUS
 10
282.5
 20
117.05
 30
0.0
 11
276.5
 21
117.05
 31
0.0
  0
ARC
  5
19E4A
  8
DANMEN
  6
CONTINUOUS
 10
277.74247
 20
114.900136
 30
0.0
 40
0.5
 50
34.702622
 51
90.0
  0
ARC
  5
19E4B
  8
DANMEN
  6
CONTINUOUS
 10
278.757611
 20
114.839422
 30
0.0
 40
0.3
 50
214.702622
 51
306.508792
  0
LINE
  5
19E4C
  8
DANMEN
  6
CONTINUOUS
 10
278.153529
 20
115.184794
 30
0.0
 11
278.510975
 21
114.668627
 31
0.0
  0
ARC
  5
19E4D
  8
DANMEN
  6
CONTINUOUS
 10
277.499105
 20
114.900136
 30
0.0
 40
0.5
 50
90.0
 51
180.0
  0
ARC
  5
19E4E
  8
DANMEN
  6
CONTINUOUS
 10
277.499105
 20
114.900266
 30
0.0
 40
0.5
 50
180.0
 51
214.702622
  0
LINE
  5
19E4F
  8
DANMEN
  6
CONTINUOUS
 10
277.499105
 20
115.400136
 30
0.0
 11
277.74247
 21
115.400136
 31
0.0
  0
LINE
  5
19E50
  8
DANMEN
  6
CONTINUOUS
 10
276.999105
 20
114.900266
 30
0.0
 11
276.999105
 21
114.900136
 31
0.0
  0
LINE
  5
19E51
  8
DANMEN
  6
CONTINUOUS
 10
277.088046
 20
114.615608
 30
0.0
 11
277.999105
 21
113.3
 31
0.0
  0
LINE
  5
19E52
  8
DANMEN
  6
CONTINUOUS
 10
279.199105
 20
113.3
 30
0.0
 11
277.999105
 21
113.3
 31
0.0
  0
LINE
  5
19E53
  8
DANMEN
  6
CONTINUOUS
 10
276.5
 20
113.499994
 30
0.0
 11
276.5
 21
117.05
 31
0.0
  0
ARC
  5
19E55
  8
DANMEN
  6
CONTINUOUS
 10
282.234315
 20
116.6
 30
0.0
 40
0.3
 50
19.471221
 51
90.0
  0
ARC
  5
19E57
  8
DANMEN
  6
CONTINUOUS
 10
282.8
 20
116.8
 30
0.0
 40
0.3
 50
199.471221
 51
270.0
  0
ARC
  5
19E58
  8
DANMEN
  6
CONTINUOUS
 10
282.210594
 20
116.4
 30
0.0
 40
0.5
 50
90.0
 51
126.508792
  0
LINE
  5
19E59
  8
DANMEN
  6
CONTINUOUS
 10
282.234315
 20
116.9
 30
0.0
 11
282.210594
 21
116.9
 31
0.0
  0
LINE
  5
19E5A
  8
DANMEN
  6
CONTINUOUS
 10
282.8
 20
116.5
 30
0.0
 11
283.503755
 21
116.5
 31
0.0
  0
LINE
  5
19E5B
  8
DANMEN
  6
CONTINUOUS
 10
282.5
 20
116.8
 30
0.0
 11
282.5
 21
117.05
 31
0.0
  0
ARC
  5
19E5C
  8
DANMEN
  6
CONTINUOUS
 10
282.8
 20
116.8
 30
0.0
 40
0.3
 50
180.0
 51
270.0
  0
LINE
  5
19E5D
  8
DANMEN
  6
CONTINUOUS
 10
280.5
 20
113.499994
 30
0.0
 11
282.098058
 21
113.180382
 31
0.0
  0
LINE
  5
19E5E
  8
DANMEN
  6
CONTINUOUS
 10
278.050003
 20
122.2
 30
0.0
 11
283.835148
 21
123.912336
 31
0.0
  0
LINE
  5
19E5F
  8
DANMEN
  6
CONTINUOUS
 10
284.0
 20
123.8
 30
0.0
 11
278.214855
 21
122.087664
 31
0.0
  0
LINE
  5
19E60
  8
DANMEN
  6
CONTINUOUS
 10
278.050003
 20
122.2
 30
0.0
 11
277.550003
 21
122.2
 31
0.0
  0
LINE
  5
19E61
  8
DANMEN
  6
CONTINUOUS
 10
277.550003
 20
123.0
 30
0.0
 11
277.550003
 21
122.2
 31
0.0
  0
ARC
  5
19E64
  8
DANMEN
  6
CONTINUOUS
 10
278.3
 20
121.8
 30
0.0
 40
0.3
 50
106.488148
 51
270.0
  0
LINE
  5
19E66
  8
DANMEN
  6
CONTINUOUS
 10
299.499997
 20
117.05
 30
0.0
 11
286.8
 21
117.05
 31
0.0
  0
LINE
  5
19E67
  8
DANMEN
  6
CONTINUOUS
 10
284.5
 20
119.0
 30
0.0
 11
284.5
 21
117.5
 31
0.0
  0
LINE
  5
19E68
  8
DANMEN
  6
CONTINUOUS
 10
284.5
 20
119.0
 30
0.0
 11
284.5
 21
117.292199
 31
0.0
  0
ARC
  5
19E69
  8
DANMEN
  6
CONTINUOUS
 10
285.8
 20
115.8
 30
0.0
 40
0.5
 50
270.0
 51
0.0
  0
LINE
  5
19E6A
  8
DANMEN
  6
CONTINUOUS
 10
284.8
 20
117.5
 30
0.0
 11
284.5
 21
117.5
 31
0.0
  0
LINE
  5
19E6B
  8
DANMEN
  6
CONTINUOUS
 10
284.8
 20
117.5
 30
0.0
 11
284.8
 21
116.5
 31
0.0
  0
LINE
  5
19E6C
  8
DANMEN
  6
CONTINUOUS
 10
286.3
 20
116.55
 30
0.0
 11
286.3
 21
115.8
 31
0.0
  0
ARC
  5
19E6D
  8
DANMEN
  6
CONTINUOUS
 10
286.8
 20
116.55
 30
0.0
 40
0.5
 50
90.0
 51
180.0
  0
ARC
  5
19E6E
  8
DANMEN
  6
CONTINUOUS
 10
284.0
 20
117.292199
 30
0.0
 40
0.5
 50
299.396173
 51
0.0
  0
LINE
  5
19E6F
  8
DANMEN
  6
CONTINUOUS
 10
284.5
 20
124.0
 30
0.0
 11
287.999997
 21
124.0
 31
0.0
  0
LINE
  5
19E71
  8
DANMEN
  6
CONTINUOUS
 10
284.5
 20
123.0
 30
0.0
 11
284.5
 21
123.8
 31
0.0
  0
LINE
  5
19E74
  8
DANMEN
  6
CONTINUOUS
 10
284.5
 20
123.0
 30
0.0
 11
288.0
 21
123.0
 31
0.0
  0
ARC
  5
19E77
  8
DANMEN
  6
CONTINUOUS
 10
288.5
 20
122.5
 30
0.0
 40
1.0
 50
270.000018
 51
0.0
  0
LINE
  5
19E7A
  8
DANMEN
  6
CONTINUOUS
 10
299.499997
 20
117.05
 30
0.0
 11
299.499997
 21
116.5
 31
0.0
  0
ARC
  5
19E7C
  8
DANMEN
  6
CONTINUOUS
 10
300.0
 20
122.5
 30
0.0
 40
0.5
 50
90.0
 51
180.0
  0
ARC
  5
19E7E
  8
DANMEN
  6
CONTINUOUS
 10
300.0
 20
122.0
 30
0.0
 40
0.5
 50
180.0
 51
270.0
  0
LINE
  5
19E7F
  8
DANMEN
  6
CONTINUOUS
 10
299.5
 20
122.5
 30
0.0
 11
299.5
 21
122.0
 31
0.0
  0
LINE
  5
19E80
  8
DANMEN
  6
CONTINUOUS
 10
304.5
 20
83.199997
 30
0.0
 11
322.25
 21
83.199997
 31
0.0
  0
LINE
  5
19E81
  8
DANMEN
  6
CONTINUOUS
 10
304.5
 20
81.0
 30
0.0
 11
322.25
 21
81.0
 31
0.0
  0
LINE
  5
19E82
  8
DANMEN
  6
CONTINUOUS
 10
304.5
 20
87.999997
 30
0.0
 11
322.25
 21
87.999997
 31
0.0
  0
LINE
  5
19E83
  8
DANMEN
  6
CONTINUOUS
 10
305.499993
 20
96.35
 30
0.0
 11
304.499994
 21
88.000002
 31
0.0
  0
LINE
  5
19E84
  8
DANMEN
  6
CONTINUOUS
 10
305.029707
 20
92.423107
 30
0.0
 11
301.499999
 21
88.893398
 31
0.0
  0
LINE
  5
19E85
  8
DANMEN
  6
CONTINUOUS
 10
304.741093
 20
90.013172
 30
0.0
 11
303.227921
 21
88.5
 31
0.0
  0
LINE
  5
19E86
  8
DANMEN
  6
CONTINUOUS
 10
304.689522
 20
89.582555
 30
0.0
 11
301.499998
 21
92.772078
 31
0.0
  0
LINE
  5
19E87
  8
DANMEN
  6
CONTINUOUS
 10
303.650756
 20
88.5
 30
0.0
 11
301.499998
 21
90.650758
 31
0.0
  0
LINE
  5
19E88
  8
DANMEN
  6
CONTINUOUS
 10
303.4
 20
82.949997
 30
0.0
 11
303.4
 21
84.949997
 31
0.0
  0
ARC
  5
19E89
  8
DANMEN
  6
CONTINUOUS
 10
304.0
 20
88.0
 30
0.0
 40
0.5
 50
0.0
 51
90.0
  0
LINE
  5
19E8A
  8
DANMEN
  6
CONTINUOUS
 10
303.4
 20
84.949997
 30
0.0
 11
302.550003
 21
84.949997
 31
0.0
  0
LINE
  5
19E8B
  8
DANMEN
  6
CONTINUOUS
 10
302.550003
 20
84.949997
 30
0.0
 11
302.550003
 21
87.0
 31
0.0
  0
LINE
  5
19E8C
  8
DANMEN
  6
CONTINUOUS
 10
301.529436
 20
88.5
 30
0.0
 11
301.499999
 21
88.529437
 31
0.0
  0
LINE
  5
19E8D
  8
DANMEN
  6
CONTINUOUS
 10
302.592636
 20
96.349997
 30
0.0
 11
301.499998
 21
95.257359
 31
0.0
  0
LINE
  5
19E8E
  8
DANMEN
  6
CONTINUOUS
 10
304.713957
 20
96.349997
 30
0.0
 11
301.499998
 21
93.136039
 31
0.0
  0
LINE
  5
19E8F
  8
DANMEN
  6
CONTINUOUS
 10
305.370159
 20
95.265879
 30
0.0
 11
304.28604
 21
96.349997
 31
0.0
  0
LINE
  5
19E90
  8
DANMEN
  6
CONTINUOUS
 10
305.14328
 20
93.371438
 30
0.0
 11
302.16472
 21
96.349997
 31
0.0
  0
LINE
  5
19E91
  8
DANMEN
  6
CONTINUOUS
 10
305.318322
 20
94.833042
 30
0.0
 11
301.499998
 21
91.014719
 31
0.0
  0
LINE
  5
19E92
  8
DANMEN
  6
CONTINUOUS
 10
304.916401
 20
91.476996
 30
0.0
 11
301.499998
 21
94.893399
 31
0.0
  0
LINE
  5
19E93
  8
DANMEN
  6
CONTINUOUS
 10
304.5
 20
124.0
 30
0.0
 11
322.25
 21
124.0
 31
0.0
  0
LINE
  5
19E94
  8
DANMEN
  6
CONTINUOUS
 10
304.5
 20
119.0
 30
0.0
 11
322.25
 21
119.0
 31
0.0
  0
LINE
  5
19E95
  8
DANMEN
  6
CONTINUOUS
 10
304.5
 20
116.999966
 30
0.0
 11
322.25
 21
116.999966
 31
0.0
  0
LINE
  5
19E96
  8
DANMEN
  6
CONTINUOUS
 10
305.500001
 20
108.65
 30
0.0
 11
304.500001
 21
117.000005
 31
0.0
  0
LINE
  5
19E97
  8
DANMEN
  6
CONTINUOUS
 10
304.689522
 20
115.417445
 30
0.0
 11
301.499999
 21
112.227922
 31
0.0
  0
LINE
  5
19E98
  8
DANMEN
  6
CONTINUOUS
 10
304.916401
 20
113.523004
 30
0.0
 11
301.499999
 21
110.106602
 31
0.0
  0
LINE
  5
19E99
  8
DANMEN
  6
CONTINUOUS
 10
305.029707
 20
112.576893
 30
0.0
 11
301.499999
 21
116.106602
 31
0.0
  0
LINE
  5
19E9A
  8
DANMEN
  6
CONTINUOUS
 10
305.318321
 20
110.166959
 30
0.0
 11
301.499999
 21
113.985281
 31
0.0
  0
LINE
  5
19E9C
  8
DANMEN
  6
CONTINUOUS
 10
305.143279
 20
111.628562
 30
0.0
 11
302.164713
 21
108.649996
 31
0.0
  0
LINE
  5
19E9D
  8
DANMEN
  6
CONTINUOUS
 10
305.370158
 20
109.734121
 30
0.0
 11
304.286033
 21
108.649996
 31
0.0
  0
LINE
  5
19E9E
  8
DANMEN
  6
CONTINUOUS
 10
304.713964
 20
108.649996
 30
0.0
 11
301.499999
 21
111.863961
 31
0.0
  0
LINE
  5
19EA0
  8
DANMEN
  6
CONTINUOUS
 10
302.592643
 20
108.649996
 30
0.0
 11
301.499999
 21
109.742641
 31
0.0
  0
ARC
  5
19EA1
  8
DANMEN
  6
CONTINUOUS
 10
303.999997
 20
118.5
 30
0.0
 40
0.5
 50
0.000091
 51
90.000128
  0
ARC
  5
19EA2
  8
DANMEN
  6
CONTINUOUS
 10
303.999997
 20
117.0
 30
0.0
 40
0.5
 50
270.0
 51
0.0
  0
LINE
  5
19EA3
  8
DANMEN
  6
CONTINUOUS
 10
304.741093
 20
114.986828
 30
0.0
 11
303.227921
 21
116.5
 31
0.0
  0
LINE
  5
19EA4
  8
DANMEN
  6
CONTINUOUS
 10
304.499997
 20
118.5
 30
0.0
 11
304.499997
 21
117.0
 31
0.0
  0
LINE
  5
19EA6
  8
DANMEN
  6
CONTINUOUS
 10
301.529436
 20
116.5
 30
0.0
 11
301.499999
 21
116.470563
 31
0.0
  0
LINE
  5
19EA7
  8
DANMEN
  6
CONTINUOUS
 10
303.650756
 20
116.5
 30
0.0
 11
301.499999
 21
114.349242
 31
0.0
  0
ARC
  5
19EA8
  8
DANMEN
  6
CONTINUOUS
 10
303.5
 20
122.5
 30
0.0
 40
1.0
 50
270.0
 51
0.0
  0
LINE
  5
19EAC
  8
SUNPO
  6
CONTINUOUS
 10
21.0
 20
24.0
 30
0.0
 11
21.0
 21
33.0
 31
0.0
  0
LINE
  5
19EAD
  8
SUNPO
  6
CONTINUOUS
 10
52.5
 20
24.0
 30
0.0
 11
21.0
 21
24.0
 31
0.0
  0
ARC
  5
19EAE
  8
SUNPO
  6
BYBLOCK
 10
21.0
 20
24.0
 30
0.0
 40
0.145
 50
270.0
 51
90.0
  0
ARC
  5
19EAF
  8
SUNPO
  6
BYBLOCK
 10
21.0
 20
24.0
 30
0.0
 40
0.145
 50
90.0
 51
270.0
  0
TEXT
  5
19EB0
  8
SUNPO
  6
CONTINUOUS
 10
20.0
 20
27.666667
 30
0.0
 40
2.5
  1
9
 50
90.0
  7
MX_NOTE_STANDARD
  0
LINE
  5
19EB1
  8
SUNPO
  6
CONTINUOUS
 10
54.0
 20
16.0
 30
0.0
 11
42.0
 21
16.0
 31
0.0
  0
TEXT
  5
19EB2
  8
SUNPO
  6
CONTINUOUS
 10
46.333333
 20
17.0
 30
0.0
 40
2.5
  1
12
  7
MX_NOTE_STANDARD
  0
LINE
  5
19EB3
  8
SUNPO
  6
CONTINUOUS
 10
42.0
 20
31.5
 30
0.0
 11
42.0
 21
16.0
 31
0.0
  0
ARC
  5
19EB4
  8
SUNPO
  6
BYBLOCK
 10
42.0
 20
16.0
 30
0.0
 40
0.145
 50
180.0
 51
0.0
  0
ARC
  5
19EB5
  8
SUNPO
  6
BYBLOCK
 10
42.0
 20
16.0
 30
0.0
 40
0.145
 50
0.0
 51
180.0
  0
LINE
  5
19EB6
  8
SUNPO
  6
CONTINUOUS
 10
54.0
 20
22.5
 30
0.0
 11
54.0
 21
16.0
 31
0.0
  0
ARC
  5
19EB7
  8
SUNPO
  6
BYBLOCK
 10
54.0
 20
16.0
 30
0.0
 40
0.145
 50
0.0
 51
180.0
  0
ARC
  5
19EB8
  8
SUNPO
  6
BYBLOCK
 10
54.0
 20
16.0
 30
0.0
 40
0.145
 50
180.0
 51
0.0
  0
LINE
  5
19EB9
  8
DANMEN
  6
CONTINUOUS
 10
400.350006
 20
89.649994
 30
0.0
 11
393.649994
 21
89.649994
 31
0.0
  0
LINE
  5
19EBA
  8
DANMEN
  6
CONTINUOUS
 10
401.5
 20
88.0
 30
0.0
 11
377.5
 21
88.0
 31
0.0
  0
LINE
  5
19EBB
  8
DANMEN
  6
CONTINUOUS
 10
375.0
 20
82.649994
 30
0.0
 11
348.2
 21
82.649994
 31
0.0
  0
LINE
  5
19EBC
  8
DANMEN
  6
CONTINUOUS
 10
376.0
 20
80.999994
 30
0.0
 11
347.5
 21
80.999994
 31
0.0
  0
LINE
  5
19EBD
  8
DANMEN
  6
CONTINUOUS
 10
365.7
 20
115.3
 30
0.0
 11
369.598917
 21
115.3
 31
0.0
  0
LINE
  5
19EBE
  8
DANMEN
  6
CONTINUOUS
 10
347.500004
 20
119.0
 30
0.0
 11
367.0
 21
119.0
 31
0.0
  0
LINE
  5
19EBF
  8
DANMEN
  6
CONTINUOUS
 10
362.0
 20
108.65
 30
0.0
 11
362.0
 21
96.35
 31
0.0
  0
LINE
  5
19EC0
  8
DANMEN
  6
CONTINUOUS
 10
348.65
 20
86.999997
 30
0.0
 11
357.5
 21
86.999997
 31
0.0
  0
LINE
  5
19EC1
  8
DANMEN
  6
CONTINUOUS
 10
347.500001
 20
88.499997
 30
0.0
 11
352.0
 21
88.499997
 31
0.0
  0
LINE
  5
19EC2
  8
DANMEN
  6
CONTINUOUS
 10
347.849242
 20
88.5
 30
0.0
 11
350.0
 21
90.650758
 31
0.0
  0
LINE
  5
19EC3
  8
DANMEN
  6
CONTINUOUS
 10
346.810477
 20
89.582555
 30
0.0
 11
350.0
 21
92.772078
 31
0.0
  0
LINE
  5
19EC4
  8
DANMEN
  6
CONTINUOUS
 10
346.583598
 20
91.476996
 30
0.0
 11
350.0
 21
94.893398
 31
0.0
  0
LINE
  5
19EC5
  8
DANMEN
  6
CONTINUOUS
 10
346.470292
 20
92.423107
 30
0.0
 11
350.0
 21
88.893398
 31
0.0
  0
LINE
  5
19EC6
  8
DANMEN
  6
CONTINUOUS
 10
346.181677
 20
94.833041
 30
0.0
 11
350.0
 21
91.014719
 31
0.0
  0
LINE
  5
19EC7
  8
DANMEN
  6
CONTINUOUS
 10
346.786035
 20
96.350004
 30
0.0
 11
350.0
 21
93.136039
 31
0.0
  0
LINE
  5
19EC8
  8
DANMEN
  6
CONTINUOUS
 10
348.907355
 20
96.350004
 30
0.0
 11
350.0
 21
95.257359
 31
0.0
  0
LINE
  5
19EC9
  8
DANMEN
  6
CONTINUOUS
 10
345.999997
 20
96.35
 30
0.0
 11
346.999997
 21
87.999995
 31
0.0
  0
LINE
  5
19ECA
  8
DANMEN
  6
CONTINUOUS
 10
346.758906
 20
90.013172
 30
0.0
 11
348.272078
 21
88.5
 31
0.0
  0
LINE
  5
19ECB
  8
DANMEN
  6
CONTINUOUS
 10
348.2
 20
82.649994
 30
0.0
 11
348.2
 21
84.949991
 31
0.0
  0
LINE
  5
19ECC
  8
DANMEN
  6
CONTINUOUS
 10
347.0
 20
81.499994
 30
0.0
 11
347.0
 21
87.999997
 31
0.0
  0
ARC
  5
19ECF
  8
DANMEN
  6
CONTINUOUS
 10
347.5
 20
81.499994
 30
0.0
 40
0.5
 50
179.999999
 51
269.999981
  0
LINE
  5
19ED3
  8
DANMEN
  6
CONTINUOUS
 10
348.65
 20
84.949991
 30
0.0
 11
348.65
 21
86.999997
 31
0.0
  0
LINE
  5
19ED4
  8
DANMEN
  6
CONTINUOUS
 10
348.65
 20
84.949991
 30
0.0
 11
348.2
 21
84.949991
 31
0.0
  0
ARC
  5
19ED5
  8
DANMEN
  6
CONTINUOUS
 10
347.5
 20
87.999997
 30
0.0
 40
0.5
 50
90.0
 51
179.999982
  0
LINE
  5
19ED6
  8
DANMEN
  6
CONTINUOUS
 10
346.356719
 20
93.371438
 30
0.0
 11
349.335286
 21
96.350004
 31
0.0
  0
LINE
  5
19ED7
  8
DANMEN
  6
CONTINUOUS
 10
346.12984
 20
95.265879
 30
0.0
 11
347.213965
 21
96.350004
 31
0.0
  0
ARC
  5
19ED9
  8
DANMEN
  6
CONTINUOUS
 10
357.5
 20
87.999997
 30
0.0
 40
0.5
 50
0.0
 51
90.0
  0
ARC
  5
19EDA
  8
DANMEN
  6
CONTINUOUS
 10
357.5
 20
87.499997
 30
0.0
 40
0.5
 50
270.0
 51
0.0
  0
LINE
  5
19EDB
  8
DANMEN
  6
CONTINUOUS
 10
352.0
 20
87.999997
 30
0.0
 11
357.0
 21
87.999997
 31
0.0
  0
LINE
  5
19EDC
  8
DANMEN
  6
CONTINUOUS
 10
352.0
 20
87.999997
 30
0.0
 11
352.0
 21
88.499997
 31
0.0
  0
LINE
  5
19EDF
  8
DANMEN
  6
CONTINUOUS
 10
349.970563
 20
88.5
 30
0.0
 11
350.0
 21
88.529437
 31
0.0
  0
LINE
  5
19EE0
  8
DANMEN
  6
CONTINUOUS
 10
357.0
 20
87.999997
 30
0.0
 11
357.0
 21
88.499997
 31
0.0
  0
LINE
  5
19EE2
  8
DANMEN
  6
CONTINUOUS
 10
357.0
 20
88.499997
 30
0.0
 11
357.5
 21
88.499997
 31
0.0
  0
LINE
  5
19EE5
  8
DANMEN
  6
CONTINUOUS
 10
358.0
 20
87.499997
 30
0.0
 11
358.0
 21
87.999997
 31
0.0
  0
LINE
  5
19EE7
  8
DANMEN
  6
CONTINUOUS
 10
347.500004
 20
116.5
 30
0.0
 11
352.000003
 21
116.5
 31
0.0
  0
LINE
  5
19EE8
  8
DANMEN
  6
CONTINUOUS
 10
348.907362
 20
108.650003
 30
0.0
 11
350.0
 21
109.742641
 31
0.0
  0
LINE
  5
19EE9
  8
DANMEN
  6
CONTINUOUS
 10
346.786042
 20
108.650003
 30
0.0
 11
350.0
 21
111.863961
 31
0.0
  0
LINE
  5
19EEA
  8
DANMEN
  6
CONTINUOUS
 10
346.181677
 20
110.166958
 30
0.0
 11
350.0
 21
113.985282
 31
0.0
  0
LINE
  5
19EEB
  8
DANMEN
  6
CONTINUOUS
 10
346.470291
 20
112.576893
 30
0.0
 11
350.0
 21
116.106602
 31
0.0
  0
LINE
  5
19EEC
  8
DANMEN
  6
CONTINUOUS
 10
346.583598
 20
113.523004
 30
0.0
 11
350.0
 21
110.106601
 31
0.0
  0
LINE
  5
19EED
  8
DANMEN
  6
CONTINUOUS
 10
346.810477
 20
115.417445
 30
0.0
 11
350.0
 21
112.227922
 31
0.0
  0
LINE
  5
19EEE
  8
DANMEN
  6
CONTINUOUS
 10
347.849242
 20
116.5
 30
0.0
 11
350.0
 21
114.349242
 31
0.0
  0
LINE
  5
19EEF
  8
DANMEN
  6
CONTINUOUS
 10
346.000005
 20
108.65
 30
0.0
 11
347.000005
 21
116.999998
 31
0.0
  0
LINE
  5
19EF1
  8
DANMEN
  6
CONTINUOUS
 10
346.12984
 20
109.734121
 30
0.0
 11
347.213958
 21
108.650003
 31
0.0
  0
LINE
  5
19EF2
  8
DANMEN
  6
CONTINUOUS
 10
346.356719
 20
111.628562
 30
0.0
 11
349.335278
 21
108.650003
 31
0.0
  0
ARC
  5
19EF3
  8
DANMEN
  6
CONTINUOUS
 10
347.500003
 20
118.5
 30
0.0
 40
0.5
 50
89.999872
 51
179.999909
  0
ARC
  5
19EF4
  8
DANMEN
  6
CONTINUOUS
 10
347.500003
 20
117.0
 30
0.0
 40
0.5
 50
180.0
 51
270.0
  0
LINE
  5
19EF5
  8
DANMEN
  6
CONTINUOUS
 10
347.000003
 20
118.5
 30
0.0
 11
347.000003
 21
117.0
 31
0.0
  0
LINE
  5
19EF7
  8
DANMEN
  6
CONTINUOUS
 10
346.758906
 20
114.986828
 30
0.0
 11
348.272078
 21
116.5
 31
0.0
  0
LINE
  5
19EF9
  8
DANMEN
  6
CONTINUOUS
 10
352.000003
 20
117.05
 30
0.0
 11
364.7
 21
117.05
 31
0.0
  0
LINE
  5
19EFA
  8
DANMEN
  6
CONTINUOUS
 10
352.000003
 20
117.05
 30
0.0
 11
352.000003
 21
116.5
 31
0.0
  0
LINE
  5
19EFB
  8
DANMEN
  6
CONTINUOUS
 10
349.970563
 20
116.5
 30
0.0
 11
350.0
 21
116.470563
 31
0.0
  0
ARC
  5
19EFC
  8
DANMEN
  6
CONTINUOUS
 10
365.7
 20
115.8
 30
0.0
 40
0.5
 50
180.0
 51
270.0
  0
LINE
  5
19EFD
  8
DANMEN
  6
CONTINUOUS
 10
365.2
 20
116.55
 30
0.0
 11
365.2
 21
115.8
 31
0.0
  0
ARC
  5
19EFE
  8
DANMEN
  6
CONTINUOUS
 10
364.7
 20
116.55
 30
0.0
 40
0.5
 50
0.0
 51
90.0
  0
LINE
  5
19EFF
  8
DANMEN
  6
CONTINUOUS
 10
375.0
 20
82.649994
 30
0.0
 11
375.0
 21
112.299994
 31
0.0
  0
LINE
  5
19F00
  8
DANMEN
  6
CONTINUOUS
 10
376.65
 20
91.45
 30
0.0
 11
376.65
 21
102.844999
 31
0.0
  0
LINE
  5
19F01
  8
DANMEN
  6
CONTINUOUS
 10
391.299989
 20
102.844999
 30
0.0
 11
391.299989
 21
100.797498
 31
0.0
  0
LINE
  5
19F02
  8
DANMEN
  6
CONTINUOUS
 10
388.799989
 20
102.844999
 30
0.0
 11
388.799989
 21
98.149997
 31
0.0
  0
LINE
  5
19F03
  8
DANMEN
  6
CONTINUOUS
 10
390.0
 20
89.649994
 30
0.0
 11
377.5
 21
89.649994
 31
0.0
  0
LINE
  5
19F04
  8
DANMEN
  6
CONTINUOUS
 10
387.849979
 20
91.45
 30
0.0
 11
376.65
 21
91.45
 31
0.0
  0
LINE
  5
19F05
  8
DANMEN
  6
CONTINUOUS
 10
391.799989
 20
89.8
 30
0.0
 11
377.0
 21
89.8
 31
0.0
  0
ARC
  5
19F06
  8
DANMEN
  6
CONTINUOUS
 10
377.5
 20
89.149994
 30
0.0
 40
0.5
 50
90.0
 51
180.0
  0
LINE
  5
19F07
  8
DANMEN
  6
CONTINUOUS
 10
377.0
 20
81.999994
 30
0.0
 11
377.0
 21
89.8
 31
0.0
  0
ARC
  5
19F0B
  8
DANMEN
  6
CONTINUOUS
 10
376.0
 20
81.999994
 30
0.0
 40
1.0
 50
270.0
 51
0.0
  0
ARC
  5
19F0C
  8
DANMEN
  6
CONTINUOUS
 10
377.5
 20
88.5
 30
0.0
 40
0.5
 50
179.999981
 51
269.999963
  0
LINE
  5
19F0D
  8
DANMEN
  6
CONTINUOUS
 10
377.0
 20
88.5
 30
0.0
 11
377.0
 21
89.149994
 31
0.0
  0
LINE
  5
19F10
  8
DANMEN
  6
CONTINUOUS
 10
392.0
 20
89.199997
 30
0.0
 11
390.0
 21
89.199997
 31
0.0
  0
LINE
  5
19F11
  8
DANMEN
  6
CONTINUOUS
 10
390.0
 20
89.199997
 30
0.0
 11
390.0
 21
89.649994
 31
0.0
  0
LINE
  5
19F12
  8
DANMEN
  6
CONTINUOUS
 10
389.499989
 20
91.382673
 30
0.0
 11
392.0
 21
93.882684
 31
0.0
  0
LINE
  5
19F13
  8
DANMEN
  6
CONTINUOUS
 10
389.499989
 20
92.796886
 30
0.0
 11
392.0
 21
95.296898
 31
0.0
  0
LINE
  5
19F14
  8
DANMEN
  6
CONTINUOUS
 10
389.499989
 20
94.2111
 30
0.0
 11
391.788886
 21
96.499998
 31
0.0
  0
LINE
  5
19F15
  8
DANMEN
  6
CONTINUOUS
 10
389.499989
 20
96.499998
 30
0.0
 11
391.299989
 21
96.499998
 31
0.0
  0
LINE
  5
19F16
  8
DANMEN
  6
CONTINUOUS
 10
389.499989
 20
91.299998
 30
0.0
 11
391.299989
 21
91.299998
 31
0.0
  0
LINE
  5
19F17
  8
DANMEN
  6
CONTINUOUS
 10
389.499989
 20
96.499998
 30
0.0
 11
389.499989
 21
91.299998
 31
0.0
  0
LINE
  5
19F18
  8
DANMEN
  6
CONTINUOUS
 10
387.849979
 20
97.649997
 30
0.0
 11
387.849979
 21
91.45
 31
0.0
  0
LINE
  5
19F1B
  8
DANMEN
  6
CONTINUOUS
 10
389.499989
 20
95.625314
 30
0.0
 11
390.374673
 21
96.499998
 31
0.0
  0
ARC
  5
19F1F
  8
DANMEN
  6
CONTINUOUS
 10
388.349979
 20
97.649997
 30
0.0
 40
0.5
 50
89.999982
 51
179.999964
  0
LINE
  5
19F20
  8
DANMEN
  6
CONTINUOUS
 10
388.349979
 20
98.149997
 30
0.0
 11
388.799989
 21
98.149997
 31
0.0
  0
LINE
  5
19F21
  8
DANMEN
  6
CONTINUOUS
 10
391.954378
 20
91.008636
 30
0.0
 11
392.0
 21
91.054257
 31
0.0
  0
LINE
  5
19F22
  8
DANMEN
  6
CONTINUOUS
 10
390.831527
 20
91.299998
 30
0.0
 11
392.0
 21
92.468471
 31
0.0
  0
ARC
  5
19F25
  8
DANMEN
  6
CONTINUOUS
 10
391.299989
 20
90.799998
 30
0.0
 40
0.5
 50
0.0
 51
89.999982
  0
LINE
  5
19F26
  8
DANMEN
  6
CONTINUOUS
 10
391.799989
 20
90.799998
 30
0.0
 11
391.799989
 21
89.8
 31
0.0
  0
LINE
  5
19F2C
  8
DANMEN
  6
CONTINUOUS
 10
391.299989
 20
100.197498
 30
0.0
 11
391.299989
 21
98.149997
 31
0.0
  0
LINE
  5
19F2D
  8
DANMEN
  6
CONTINUOUS
 10
390.999989
 20
100.197498
 30
0.0
 11
391.299989
 21
100.197498
 31
0.0
  0
LINE
  5
19F2E
  8
DANMEN
  6
CONTINUOUS
 10
390.999989
 20
100.797498
 30
0.0
 11
391.299989
 21
100.797498
 31
0.0
  0
LINE
  5
19F2F
  8
DANMEN
  6
CONTINUOUS
 10
390.999989
 20
100.797498
 30
0.0
 11
390.999989
 21
100.197498
 31
0.0
  0
ARC
  5
19F31
  8
DANMEN
  6
CONTINUOUS
 10
391.299989
 20
97.649997
 30
0.0
 40
0.5
 50
0.0
 51
90.0
  0
ARC
  5
19F33
  8
DANMEN
  6
CONTINUOUS
 10
391.299989
 20
96.999998
 30
0.0
 40
0.5
 50
270.0
 51
0.0
  0
LINE
  5
19F35
  8
DANMEN
  6
CONTINUOUS
 10
391.799989
 20
97.649997
 30
0.0
 11
391.799989
 21
96.999998
 31
0.0
  0
LINE
  5
19F36
  8
DANMEN
  6
CENTER
 10
373.960146
 20
108.4
 30
0.0
 11
395.63855
 21
108.4
 31
0.0
  0
LINE
  5
19F37
  8
DANMEN
  6
CONTINUOUS
 10
378.274976
 20
106.400002
 30
0.0
 11
394.999997
 21
106.400004
 31
0.0
  0
LINE
  5
19F38
  8
DANMEN
  6
CONTINUOUS
 10
378.274975
 20
110.399999
 30
0.0
 11
394.999997
 21
110.4
 31
0.0
  0
LINE
  5
19F39
  8
DANMEN
  6
CONTINUOUS
 10
378.274976
 20
106.779003
 30
0.0
 11
394.999996
 21
106.779005
 31
0.0
  0
LINE
  5
19F3A
  8
DANMEN
  6
CONTINUOUS
 10
378.274975
 20
110.020998
 30
0.0
 11
394.999996
 21
110.021
 31
0.0
  0
LINE
  5
19F3B
  8
DANMEN
  6
CONTINUOUS
 10
376.65
 20
117.35
 30
0.0
 11
390.499989
 21
117.35
 31
0.0
  0
LINE
  5
19F3C
  8
DANMEN
  6
CONTINUOUS
 10
367.0
 20
119.0
 30
0.0
 11
391.999989
 21
119.0
 31
0.0
  0
LINE
  5
19F3D
  8
DANMEN
  6
CONTINUOUS
 10
376.65
 20
104.494998
 30
0.0
 11
391.299989
 21
104.494998
 31
0.0
  0
LINE
  5
19F3E
  8
DANMEN
  6
CONTINUOUS
 10
376.65
 20
102.844999
 30
0.0
 11
388.799989
 21
102.844999
 31
0.0
  0
ARC
  5
19F3F
  8
DANMEN
  6
CONTINUOUS
 10
369.5
 20
112.690092
 30
0.0
 40
0.5
 50
101.309932
 51
180.0
  0
LINE
  5
19F40
  8
DANMEN
  6
CONTINUOUS
 10
376.65
 20
104.494998
 30
0.0
 11
376.65
 21
117.35
 31
0.0
  0
LINE
  5
19F41
  8
DANMEN
  6
CONTINUOUS
 10
369.0
 20
112.299994
 30
0.0
 11
375.0
 21
112.299994
 31
0.0
  0
LINE
  5
19F43
  8
DANMEN
  6
CONTINUOUS
 10
369.0
 20
112.690092
 30
0.0
 11
369.0
 21
112.299994
 31
0.0
  0
LINE
  5
19F45
  8
DANMEN
  6
CONTINUOUS
 10
374.999999
 20
111.9
 30
0.0
 11
375.000001
 21
104.9
 31
0.0
  0
LINE
  5
19F46
  8
DANMEN
  6
CONTINUOUS
 10
375.299999
 20
111.9
 30
0.0
 11
375.300001
 21
104.9
 31
0.0
  0
LINE
  5
19F47
  8
DANMEN
  6
CONTINUOUS
 10
377.027513
 20
110.172498
 30
0.0
 11
377.027514
 21
106.627503
 31
0.0
  0
LINE
  5
19F48
  8
DANMEN
  6
DASHED
 10
375.0
 20
106.649295
 30
0.0
 11
376.214876
 21
107.25501
 31
0.0
  0
LINE
  5
19F49
  8
DANMEN
  6
CONTINUOUS
 10
378.274975
 20
110.399999
 30
0.0
 11
378.274976
 21
106.400003
 31
0.0
  0
LINE
  5
19F4A
  8
DANMEN
  6
CONTINUOUS
 10
375.000001
 20
104.9
 30
0.0
 11
375.300001
 21
104.9
 31
0.0
  0
LINE
  5
19F4B
  8
DANMEN
  6
CONTINUOUS
 10
378.274966
 20
106.400012
 30
0.0
 11
377.027505
 21
106.627513
 31
0.0
  0
LINE
  5
19F4C
  8
DANMEN
  6
CONTINUOUS
 10
378.274966
 20
106.77901
 30
0.0
 11
377.027505
 21
106.62751
 31
0.0
  0
LINE
  5
19F4D
  8
DANMEN
  6
CONTINUOUS
 10
375.300001
 20
104.9
 30
0.0
 11
377.027508
 21
106.627508
 31
0.0
  0
LINE
  5
19F52
  8
DANMEN
  6
CONTINUOUS
 10
374.999999
 20
111.9
 30
0.0
 11
375.299999
 21
111.9
 31
0.0
  0
LINE
  5
19F53
  8
DANMEN
  6
CONTINUOUS
 10
378.274967
 20
110.020991
 30
0.0
 11
377.027505
 21
110.172489
 31
0.0
  0
LINE
  5
19F54
  8
DANMEN
  6
CONTINUOUS
 10
378.274967
 20
110.399986
 30
0.0
 11
377.027504
 21
110.172484
 31
0.0
  0
LINE
  5
19F55
  8
DANMEN
  6
CONTINUOUS
 10
375.299998
 20
111.9
 30
0.0
 11
377.027508
 21
110.172491
 31
0.0
  0
ARC
  5
19F56
  8
DANMEN
  6
DASHED
 10
376.257402
 20
108.4
 30
0.0
 40
0.5
 50
332.000013
 51
28.000078
  0
LINE
  5
19F57
  8
DANMEN
  6
DASHED
 10
376.214876
 20
107.255011
 30
0.0
 11
376.698867
 21
108.165266
 31
0.0
  0
LINE
  5
19F58
  8
DANMEN
  6
DASHED
 10
376.214875
 20
109.544989
 30
0.0
 11
376.698866
 21
108.634736
 31
0.0
  0
LINE
  5
19F59
  8
DANMEN
  6
DASHED
 10
375.0
 20
110.150707
 30
0.0
 11
376.214875
 21
109.544993
 31
0.0
  0
LINE
  5
19F5C
  8
DANMEN
  6
CONTINUOUS
 10
371.0
 20
113.499994
 30
0.0
 11
375.0
 21
113.499994
 31
0.0
  0
LINE
  5
19F5D
  8
DANMEN
  6
CONTINUOUS
 10
369.0
 20
117.35
 30
0.0
 11
375.0
 21
117.35
 31
0.0
  0
ARC
  5
19F5E
  8
DANMEN
  6
CONTINUOUS
 10
374.000895
 20
114.900136
 30
0.0
 40
0.5
 50
0.0
 51
90.0
  0
LINE
  5
19F5F
  8
DANMEN
  6
CONTINUOUS
 10
374.411954
 20
114.615608
 30
0.0
 11
373.500895
 21
113.3
 31
0.0
  0
LINE
  5
19F60
  8
DANMEN
  6
CONTINUOUS
 10
367.0
 20
119.0
 30
0.0
 11
367.0
 21
117.292199
 31
0.0
  0
LINE
  5
19F61
  8
DANMEN
  6
CONTINUOUS
 10
367.0
 20
119.0
 30
0.0
 11
367.0
 21
117.5
 31
0.0
  0
LINE
  5
19F62
  8
DANMEN
  6
CONTINUOUS
 10
371.0
 20
113.499994
 30
0.0
 11
369.401942
 21
113.180382
 31
0.0
  0
LINE
  5
19F63
  8
DANMEN
  6
CONTINUOUS
 10
369.586879
 20
116.801883
 30
0.0
 11
372.563906
 21
114.598292
 31
0.0
  0
LINE
  5
19F64
  8
DANMEN
  6
CONTINUOUS
 10
369.598917
 20
115.3
 30
0.0
 11
372.300895
 21
113.3
 31
0.0
  0
LINE
  5
19F69
  8
DANMEN
  6
CONTINUOUS
 10
368.7
 20
116.5
 30
0.0
 11
367.996245
 21
116.5
 31
0.0
  0
ARC
  5
19F6A
  8
DANMEN
  6
CONTINUOUS
 10
367.5
 20
117.292199
 30
0.0
 40
0.5
 50
180.0
 51
240.603827
  0
LINE
  5
19F6B
  8
DANMEN
  6
CONTINUOUS
 10
367.996245
 20
116.5
 30
0.0
 11
367.254577
 21
116.856576
 31
0.0
  0
LINE
  5
19F6C
  8
DANMEN
  6
CONTINUOUS
 10
369.0
 20
116.8
 30
0.0
 11
369.0
 21
117.35
 31
0.0
  0
ARC
  5
19F6D
  8
DANMEN
  6
CONTINUOUS
 10
368.7
 20
116.8
 30
0.0
 40
0.3
 50
270.0
 51
0.0
  0
ARC
  5
19F71
  8
DANMEN
  6
CONTINUOUS
 10
369.265685
 20
116.6
 30
0.0
 40
0.3
 50
90.0
 51
160.528779
  0
ARC
  5
19F73
  8
DANMEN
  6
CONTINUOUS
 10
368.7
 20
116.8
 30
0.0
 40
0.3
 50
270.0
 51
340.528779
  0
ARC
  5
19F74
  8
DANMEN
  6
CONTINUOUS
 10
369.289406
 20
116.4
 30
0.0
 40
0.5
 50
53.491208
 51
90.0
  0
LINE
  5
19F75
  8
DANMEN
  6
CONTINUOUS
 10
369.265685
 20
116.9
 30
0.0
 11
369.289406
 21
116.9
 31
0.0
  0
LINE
  5
19F76
  8
DANMEN
  6
CONTINUOUS
 10
366.7
 20
117.5
 30
0.0
 11
367.0
 21
117.5
 31
0.0
  0
LINE
  5
19F77
  8
DANMEN
  6
CONTINUOUS
 10
366.7
 20
117.5
 30
0.0
 11
366.7
 21
116.5
 31
0.0
  0
LINE
  5
19F78
  8
DANMEN
  6
CONTINUOUS
 10
366.7
 20
116.5
 30
0.0
 11
368.7
 21
116.5
 31
0.0
  0
ARC
  5
19F7A
  8
DANMEN
  6
CONTINUOUS
 10
373.75753
 20
114.900136
 30
0.0
 40
0.5
 50
90.0
 51
145.297378
  0
ARC
  5
19F7B
  8
DANMEN
  6
CONTINUOUS
 10
372.742389
 20
114.839422
 30
0.0
 40
0.3
 50
233.491208
 51
325.297378
  0
LINE
  5
19F7C
  8
DANMEN
  6
CONTINUOUS
 10
373.346471
 20
115.184794
 30
0.0
 11
372.989025
 21
114.668627
 31
0.0
  0
LINE
  5
19F7D
  8
DANMEN
  6
CONTINUOUS
 10
374.000895
 20
115.400136
 30
0.0
 11
373.75753
 21
115.400136
 31
0.0
  0
LINE
  5
19F7E
  8
DANMEN
  6
CONTINUOUS
 10
372.300895
 20
113.3
 30
0.0
 11
373.500895
 21
113.3
 31
0.0
  0
LINE
  5
19F83
  8
DANMEN
  6
CONTINUOUS
 10
375.0
 20
113.499994
 30
0.0
 11
375.0
 21
117.35
 31
0.0
  0
ARC
  5
19F84
  8
DANMEN
  6
CONTINUOUS
 10
374.000895
 20
114.900266
 30
0.0
 40
0.5
 50
325.297378
 51
0.0
  0
LINE
  5
19F85
  8
DANMEN
  6
CONTINUOUS
 10
374.500895
 20
114.900266
 30
0.0
 11
374.500895
 21
114.900136
 31
0.0
  0
LINE
  5
19F87
  8
DANMEN
  6
CONTINUOUS
 10
394.999998
 20
110.400001
 30
0.0
 11
395.0
 21
106.400005
 31
0.0
  0
ARC
  5
19F8B
  8
DANMEN
  6
CONTINUOUS
 10
391.299989
 20
103.344999
 30
0.0
 40
0.5
 50
270.0
 51
0.0
  0
ARC
  5
19F8C
  8
DANMEN
  6
CONTINUOUS
 10
391.299989
 20
103.994998
 30
0.0
 40
0.5
 50
0.0
 51
90.0
  0
LINE
  5
19F8D
  8
DANMEN
  6
CONTINUOUS
 10
391.799989
 20
103.994998
 30
0.0
 11
391.799989
 21
103.344999
 31
0.0
  0
LINE
  5
19F8E
  8
DANMEN
  6
CONTINUOUS
 10
390.499989
 20
115.999994
 30
0.0
 11
391.499989
 21
115.999994
 31
0.0
  0
LINE
  5
19F91
  8
DANMEN
  6
CONTINUOUS
 10
390.499989
 20
115.999994
 30
0.0
 11
390.499989
 21
117.35
 31
0.0
  0
LINE
  5
19F92
  8
DANMEN
  6
CONTINUOUS
 10
391.999989
 20
116.499994
 30
0.0
 11
391.999989
 21
119.0
 31
0.0
  0
ARC
  5
19F94
  8
DANMEN
  6
CONTINUOUS
 10
391.499989
 20
116.499994
 30
0.0
 40
0.5
 50
270.0
 51
0.0
  0
LINE
  5
19F97
  8
SUNPO
  6
CONTINUOUS
 10
40.5
 20
60.0
 30
0.0
 11
28.0
 21
60.0
 31
0.0
  0
LINE
  5
19F98
  8
SUNPO
  6
CONTINUOUS
 10
40.5
 20
45.0
 30
0.0
 11
28.0
 21
45.0
 31
0.0
  0
LINE
  5
19F99
  8
SUNPO
  6
CONTINUOUS
 10
40.5
 20
33.0
 30
0.0
 11
21.0
 21
33.0
 31
0.0
  0
LINE
  5
19F9A
  8
SUNPO
  6
CONTINUOUS
 10
40.5
 20
53.0
 30
0.0
 11
21.0
 21
53.0
 31
0.0
  0
LINE
  5
19F9B
  8
SUNPO
  6
CONTINUOUS
 10
28.0
 20
53.0
 30
0.0
 11
28.0
 21
60.0
 31
0.0
  0
LINE
  5
19F9C
  8
SUNPO
  6
CONTINUOUS
 10
28.0
 20
33.0
 30
0.0
 11
28.0
 21
45.0
 31
0.0
  0
LINE
  5
19F9D
  8
SUNPO
  6
CONTINUOUS
 10
21.0
 20
33.0
 30
0.0
 11
21.0
 21
53.0
 31
0.0
  0
TEXT
  5
19F9E
  8
SUNPO
  6
CONTINUOUS
 10
20.0
 20
41.125
 30
0.0
 40
2.5
  1
20
 50
90.0
  7
MX_NOTE_STANDARD
  0
ARC
  5
19F9F
  8
SUNPO
  6
BYBLOCK
 10
21.0
 20
33.0
 30
0.0
 40
0.145
 50
270.0
 51
90.0
  0
ARC
  5
19FA0
  8
SUNPO
  6
BYBLOCK
 10
21.0
 20
33.0
 30
0.0
 40
0.145
 50
90.0
 51
270.0
  0
ARC
  5
19FA1
  8
SUNPO
  6
BYBLOCK
 10
21.0
 20
33.0
 30
0.0
 40
0.145
 50
90.0
 51
270.0
  0
ARC
  5
19FA2
  8
SUNPO
  6
BYBLOCK
 10
21.0
 20
33.0
 30
0.0
 40
0.145
 50
270.0
 51
90.0
  0
TEXT
  5
19FA3
  8
SUNPO
  6
CONTINUOUS
 10
27.0
 20
37.333333
 30
0.0
 40
2.5
  1
12
 50
90.0
  7
MX_NOTE_STANDARD
  0
ARC
  5
19FA4
  8
SUNPO
  6
BYBLOCK
 10
28.0
 20
33.0
 30
0.0
 40
0.145
 50
270.0
 51
90.0
  0
ARC
  5
19FA5
  8
SUNPO
  6
BYBLOCK
 10
28.0
 20
33.0
 30
0.0
 40
0.145
 50
90.0
 51
270.0
  0
ARC
  5
19FA6
  8
SUNPO
  6
BYBLOCK
 10
21.0
 20
53.0
 30
0.0
 40
0.145
 50
90.0
 51
270.0
  0
ARC
  5
19FA7
  8
SUNPO
  6
BYBLOCK
 10
21.0
 20
53.0
 30
0.0
 40
0.145
 50
270.0
 51
90.0
  0
ARC
  5
19FA8
  8
SUNPO
  6
BYBLOCK
 10
21.0
 20
53.0
 30
0.0
 40
0.145
 50
270.0
 51
90.0
  0
ARC
  5
19FA9
  8
SUNPO
  6
BYBLOCK
 10
21.0
 20
53.0
 30
0.0
 40
0.145
 50
90.0
 51
270.0
  0
LINE
  5
19FAA
  8
SUNPO
  6
CONTINUOUS
 10
28.0
 20
45.0
 30
0.0
 11
28.0
 21
53.0
 31
0.0
  0
TEXT
  5
19FAB
  8
SUNPO
  6
CONTINUOUS
 10
27.0
 20
48.166667
 30
0.0
 40
2.5
  1
8
 50
90.0
  7
MX_NOTE_STANDARD
  0
ARC
  5
19FAC
  8
SUNPO
  6
BYBLOCK
 10
28.0
 20
45.0
 30
0.0
 40
0.145
 50
270.0
 51
90.0
  0
ARC
  5
19FAD
  8
SUNPO
  6
BYBLOCK
 10
28.0
 20
45.0
 30
0.0
 40
0.145
 50
90.0
 51
270.0
  0
ARC
  5
19FAE
  8
SUNPO
  6
BYBLOCK
 10
28.0
 20
45.0
 30
0.0
 40
0.145
 50
90.0
 51
270.0
  0
ARC
  5
19FAF
  8
SUNPO
  6
BYBLOCK
 10
28.0
 20
45.0
 30
0.0
 40
0.145
 50
270.0
 51
90.0
  0
ARC
  5
19FB0
  8
SUNPO
  6
BYBLOCK
 10
28.0
 20
53.0
 30
0.0
 40
0.145
 50
270.0
 51
90.0
  0
ARC
  5
19FB1
  8
SUNPO
  6
BYBLOCK
 10
28.0
 20
53.0
 30
0.0
 40
0.145
 50
90.0
 51
270.0
  0
ARC
  5
19FB2
  8
SUNPO
  6
BYBLOCK
 10
28.0
 20
53.0
 30
0.0
 40
0.145
 50
90.0
 51
270.0
  0
ARC
  5
19FB3
  8
SUNPO
  6
BYBLOCK
 10
28.0
 20
53.0
 30
0.0
 40
0.145
 50
270.0
 51
90.0
  0
TEXT
  5
19FB4
  8
SUNPO
  6
CONTINUOUS
 10
27.0
 20
55.666667
 30
0.0
 40
2.5
  1
7
 50
90.0
  7
MX_NOTE_STANDARD
  0
ARC
  5
19FB5
  8
SUNPO
  6
BYBLOCK
 10
28.0
 20
60.0
 30
0.0
 40
0.145
 50
90.0
 51
270.0
  0
ARC
  5
19FB6
  8
SUNPO
  6
BYBLOCK
 10
28.0
 20
60.0
 30
0.0
 40
0.145
 50
270.0
 51
90.0
  0
LINE
  5
19FB7
  8
DANMEN
  6
CONTINUOUS
 10
402.0
 20
93.5
 30
0.0
 11
402.0
 21
88.5
 31
0.0
  0
LINE
  5
19FB8
  8
DANMEN
  6
CONTINUOUS
 10
400.350006
 20
93.5
 30
0.0
 11
400.350006
 21
89.649994
 31
0.0
  0
ARC
  5
19FB9
  8
DANMEN
  6
CONTINUOUS
 10
401.5
 20
88.5
 30
0.0
 40
0.5
 50
270.000018
 51
359.999981
  0
LINE
  5
19FBA
  8
DANMEN
  6
CONTINUOUS
 10
401.5
 20
94.0
 30
0.0
 11
400.850006
 21
94.0
 31
0.0
  0
ARC
  5
19FBB
  8
DANMEN
  6
CONTINUOUS
 10
400.850006
 20
93.5
 30
0.0
 40
0.5
 50
90.000037
 51
180.000019
  0
ARC
  5
19FBC
  8
DANMEN
  6
CONTINUOUS
 10
401.5
 20
93.5
 30
0.0
 40
0.5
 50
359.999981
 51
90.000037
  0
TEXT
  5
19FBD
  8
SUNPO
  6
CONTINUOUS
 10
20.0
 20
107.5
 30
0.0
 40
2.5
  1
114
 50
90.0
  7
MX_NOTE_STANDARD
  0
LINE
  5
19FBE
  8
SUNPO
  6
CONTINUOUS
 10
187.0
 20
30.0
 30
0.0
 11
267.0
 21
30.0
 31
0.0
  0
LINE
  5
19FBF
  8
SUNPO
  6
CONTINUOUS
 10
259.5
 20
38.322886
 30
0.0
 11
187.0
 21
38.322886
 31
0.0
  0
LINE
  5
19FC0
  8
SUNPO
  6
CONTINUOUS
 10
187.0
 20
38.322886
 30
0.0
 11
196.111405
 21
41.639166
 31
0.0
  0
LINE
  5
19FC1
  8
SUNPO
  6
CONTINUOUS
 10
225.0
 20
46.0
 30
0.0
 11
187.0
 21
46.0
 31
0.0
  0
LINE
  5
19FC2
  8
SUNPO
  6
CONTINUOUS
 10
156.0
 20
33.0
 30
0.0
 11
156.0
 21
24.0
 31
0.0
  0
TEXT
  5
19FC3
  8
SUNPO
  6
CONTINUOUS
 10
172.416667
 20
31.0
 30
0.0
 40
2.5
  1
25
  7
MX_NOTE_STANDARD
  0
LINE
  5
19FC4
  8
SUNPO
  6
CONTINUOUS
 10
162.0
 20
86.5
 30
0.0
 11
162.0
 21
30.0
 31
0.0
  0
LINE
  5
19FC5
  8
SUNPO
  6
CONTINUOUS
 10
187.0
 20
86.5
 30
0.0
 11
187.0
 21
30.0
 31
0.0
  0
LINE
  5
19FC6
  8
SUNPO
  6
CONTINUOUS
 10
187.0
 20
30.0
 30
0.0
 11
192.0
 21
35.0
 31
0.0
  0
LINE
  5
19FC7
  8
SUNPO
  6
CONTINUOUS
 10
192.0
 20
35.0
 30
0.0
 11
192.0
 21
25.0
 31
0.0
  0
LINE
  5
19FC8
  8
SUNPO
  6
CONTINUOUS
 10
187.0
 20
30.0
 30
0.0
 11
162.0
 21
30.0
 31
0.0
  0
TEXT
  5
19FC9
  8
SUNPO
  6
CONTINUOUS
 10
155.0
 20
27.666667
 30
0.0
 40
2.5
  1
9
 50
90.0
  7
MX_NOTE_STANDARD
  0
ARC
  5
19FCA
  8
SUNPO
  6
BYBLOCK
 10
156.0
 20
24.0
 30
0.0
 40
0.145
 50
270.0
 51
90.0
  0
ARC
  5
19FCB
  8
SUNPO
  6
BYBLOCK
 10
156.0
 20
24.0
 30
0.0
 40
0.145
 50
90.0
 51
270.0
  0
ARC
  5
19FCC
  8
SUNPO
  6
BYBLOCK
 10
162.0
 20
30.0
 30
0.0
 40
0.15625
 50
180.0
 51
0.0
  0
ARC
  5
19FCD
  8
SUNPO
  6
BYBLOCK
 10
162.0
 20
30.0
 30
0.0
 40
0.15625
 50
0.0
 51
180.0
  0
LINE
  5
19FCE
  8
SUNPO
  6
CONTINUOUS
 10
192.0
 20
25.0
 30
0.0
 11
187.0
 21
30.0
 31
0.0
  0
LINE
  5
19FD1
  8
SUNPO
  6
CONTINUOUS
 10
120.499996
 20
113.000003
 30
0.0
 11
136.221192
 21
113.000003
 31
0.0
  0
LINE
  5
19FD2
  8
SUNPO
  6
CONTINUOUS
 10
113.5
 20
33.0
 30
0.0
 11
156.0
 21
33.0
 31
0.0
  0
LINE
  5
19FD3
  8
SUNPO
  6
CONTINUOUS
 10
113.499999
 20
58.0
 30
0.0
 11
144.685645
 21
58.0
 31
0.0
  0
LINE
  5
19FD4
  8
SUNPO
  6
CONTINUOUS
 10
113.499999
 20
93.0
 30
0.0
 11
144.685645
 21
93.0
 31
0.0
  0
LINE
  5
19FD5
  8
SUNPO
  6
CONTINUOUS
 10
113.499999
 20
58.0
 30
0.0
 11
144.685645
 21
58.0
 31
0.0
  0
LINE
  5
19FD6
  8
SUNPO
  6
CONTINUOUS
 10
113.5
 20
93.0
 30
0.0
 11
136.221192
 21
93.0
 31
0.0
  0
LINE
  5
19FD7
  8
SUNPO
  6
CONTINUOUS
 10
120.499996
 20
113.000003
 30
0.0
 11
136.221192
 21
113.000003
 31
0.0
  0
LINE
  5
19FD8
  8
SUNPO
  6
CONTINUOUS
 10
172.0
 20
86.5
 30
0.0
 11
172.0
 21
46.0
 31
0.0
  0
LINE
  5
19FD9
  8
SUNPO
  6
CONTINUOUS
 10
156.0
 20
33.0
 30
0.0
 11
156.0
 21
93.0
 31
0.0
  0
LINE
  5
19FDA
  8
SUNPO
  6
CONTINUOUS
 10
144.685645
 20
93.0
 30
0.0
 11
144.685645
 21
58.0
 31
0.0
  0
LINE
  5
19FDB
  8
SUNPO
  6
CONTINUOUS
 10
172.0
 20
46.0
 30
0.0
 11
162.0
 21
46.0
 31
0.0
  0
LINE
  5
19FDC
  8
SUNPO
  6
CONTINUOUS
 10
144.685645
 20
58.0
 30
0.0
 11
144.685645
 21
33.0
 31
0.0
  0
ARC
  5
19FDD
  8
SUNPO
  6
BYBLOCK
 10
144.685645
 20
33.0
 30
0.0
 40
0.145
 50
270.0
 51
90.0
  0
ARC
  5
19FDE
  8
SUNPO
  6
BYBLOCK
 10
144.685645
 20
33.0
 30
0.0
 40
0.145
 50
90.0
 51
270.0
  0
TEXT
  5
19FDF
  8
SUNPO
  6
CONTINUOUS
 10
143.685645
 20
43.416667
 30
0.0
 40
2.5
  1
25
 50
90.0
  7
MX_NOTE_STANDARD
  0
ARC
  5
19FE0
  8
SUNPO
  6
BYBLOCK
 10
156.0
 20
33.0
 30
0.0
 40
0.145
 50
90.0
 51
270.0
  0
ARC
  5
19FE1
  8
SUNPO
  6
BYBLOCK
 10
156.0
 20
33.0
 30
0.0
 40
0.145
 50
270.0
 51
90.0
  0
ARC
  5
19FE2
  8
SUNPO
  6
BYBLOCK
 10
156.0
 20
33.0
 30
0.0
 40
0.145
 50
270.0
 51
90.0
  0
ARC
  5
19FE3
  8
SUNPO
  6
BYBLOCK
 10
156.0
 20
33.0
 30
0.0
 40
0.145
 50
90.0
 51
270.0
  0
ARC
  5
19FE4
  8
SUNPO
  6
BYBLOCK
 10
162.0
 20
46.0
 30
0.0
 40
0.145
 50
180.0
 51
0.0
  0
ARC
  5
19FE5
  8
SUNPO
  6
BYBLOCK
 10
162.0
 20
46.0
 30
0.0
 40
0.145
 50
0.0
 51
180.0
  0
ARC
  5
19FE6
  8
SUNPO
  6
BYBLOCK
 10
144.685645
 20
58.0
 30
0.0
 40
0.145
 50
270.0
 51
90.0
  0
ARC
  5
19FE7
  8
SUNPO
  6
BYBLOCK
 10
144.685645
 20
58.0
 30
0.0
 40
0.145
 50
90.0
 51
270.0
  0
ARC
  5
19FE8
  8
SUNPO
  6
BYBLOCK
 10
144.685645
 20
58.0
 30
0.0
 40
0.145
 50
90.0
 51
270.0
  0
ARC
  5
19FE9
  8
SUNPO
  6
BYBLOCK
 10
144.685645
 20
58.0
 30
0.0
 40
0.145
 50
270.0
 51
90.0
  0
TEXT
  5
19FEA
  8
SUNPO
  6
CONTINUOUS
 10
143.685645
 20
73.416667
 30
0.0
 40
2.5
  1
35
 50
90.0
  7
MX_NOTE_STANDARD
  0
TEXT
  5
19FEB
  8
SUNPO
  6
CONTINUOUS
 10
155.0
 20
61.125
 30
0.0
 40
2.5
  1
60
 50
90.0
  7
MX_NOTE_STANDARD
  0
TEXT
  5
19FEC
  8
SUNPO
  6
CONTINUOUS
 10
177.833333
 20
47.0
 30
0.0
 40
2.5
  1
15
  7
MX_NOTE_STANDARD
  0
LINE
  5
19FED
  8
SUNPO
  6
CONTINUOUS
 10
187.0
 20
46.0
 30
0.0
 11
172.0
 21
46.0
 31
0.0
  0
TEXT
  5
19FEE
  8
SUNPO
  6
CONTINUOUS
 10
165.541667
 20
47.0
 30
0.0
 40
2.5
  1
10
  7
MX_NOTE_STANDARD
  0
ARC
  5
19FEF
  8
SUNPO
  6
BYBLOCK
 10
172.0
 20
46.0
 30
0.0
 40
0.145
 50
0.0
 51
180.0
  0
ARC
  5
19FF0
  8
SUNPO
  6
BYBLOCK
 10
172.0
 20
46.0
 30
0.0
 40
0.145
 50
180.0
 51
0.0
  0
ARC
  5
19FF1
  8
SUNPO
  6
BYBLOCK
 10
172.0
 20
46.0
 30
0.0
 40
0.145
 50
180.0
 51
0.0
  0
ARC
  5
19FF2
  8
SUNPO
  6
BYBLOCK
 10
172.0
 20
46.0
 30
0.0
 40
0.145
 50
0.0
 51
180.0
  0
ARC
  5
19FF5
  8
SUNPO
  6
BYBLOCK
 10
187.0
 20
46.0
 30
0.0
 40
0.145
 50
0.0
 51
180.0
  0
ARC
  5
19FF6
  8
SUNPO
  6
BYBLOCK
 10
187.0
 20
46.0
 30
0.0
 40
0.145
 50
180.0
 51
0.0
  0
ARC
  5
19FF7
  8
SUNPO
  6
BYBLOCK
 10
187.0
 20
46.0
 30
0.0
 40
0.145
 50
180.0
 51
0.0
  0
ARC
  5
19FF8
  8
SUNPO
  6
BYBLOCK
 10
187.0
 20
46.0
 30
0.0
 40
0.145
 50
0.0
 51
180.0
  0
TEXT
  5
19FF9
  8
SUNPO
  6
CONTINUOUS
 10
135.221192
 20
101.125001
 30
0.0
 40
2.5
  1
20
 50
90.0
  7
MX_NOTE_STANDARD
  0
LINE
  5
19FFA
  8
SUNPO
  6
CONTINUOUS
 10
136.221192
 20
113.000003
 30
0.0
 11
136.221192
 21
93.0
 31
0.0
  0
LINE
  5
19FFB
  8
SUNPO
  6
CONTINUOUS
 10
133.5
 20
93.0
 30
0.0
 11
156.0
 21
93.0
 31
0.0
  0
LINE
  5
19FFC
  8
SUNPO
  6
CONTINUOUS
 10
137.721191
 20
93.0
 30
0.0
 11
144.685645
 21
93.0
 31
0.0
  0
ARC
  5
19FFD
  8
SUNPO
  6
BYBLOCK
 10
136.221192
 20
93.0
 30
0.0
 40
0.145
 50
270.0
 51
90.0
  0
ARC
  5
19FFE
  8
SUNPO
  6
BYBLOCK
 10
136.221192
 20
93.0
 30
0.0
 40
0.145
 50
90.0
 51
270.0
  0
ARC
  5
19FFF
  8
SUNPO
  6
BYBLOCK
 10
144.685645
 20
93.0
 30
0.0
 40
0.145
 50
270.0
 51
90.0
  0
ARC
  5
1A000
  8
SUNPO
  6
BYBLOCK
 10
144.685645
 20
93.0
 30
0.0
 40
0.145
 50
90.0
 51
270.0
  0
ARC
  5
1A001
  8
SUNPO
  6
BYBLOCK
 10
144.685645
 20
93.0
 30
0.0
 40
0.145
 50
90.0
 51
270.0
  0
ARC
  5
1A002
  8
SUNPO
  6
BYBLOCK
 10
144.685645
 20
93.0
 30
0.0
 40
0.145
 50
270.0
 51
90.0
  0
LINE
  5
1A003
  8
SUNPO
  6
CONTINUOUS
 10
161.0
 20
98.0
 30
0.0
 11
151.0
 21
98.0
 31
0.0
  0
LINE
  5
1A004
  8
SUNPO
  6
CONTINUOUS
 10
151.0
 20
98.0
 30
0.0
 11
156.0
 21
93.0
 31
0.0
  0
LINE
  5
1A006
  8
SUNPO
  6
CONTINUOUS
 10
156.0
 20
93.0
 30
0.0
 11
161.0
 21
98.0
 31
0.0
  0
ARC
  5
1A009
  8
SUNPO
  6
BYBLOCK
 10
136.221192
 20
113.000003
 30
0.0
 40
0.145
 50
270.0
 51
90.0
  0
ARC
  5
1A00A
  8
SUNPO
  6
BYBLOCK
 10
136.221192
 20
113.000003
 30
0.0
 40
0.145
 50
90.0
 51
270.0
  0
ARC
  5
1A00B
  8
SUNPO
  6
BYBLOCK
 10
136.221192
 20
113.000003
 30
0.0
 40
0.145
 50
90.0
 51
270.0
  0
ARC
  5
1A00C
  8
SUNPO
  6
BYBLOCK
 10
136.221192
 20
113.000003
 30
0.0
 40
0.145
 50
270.0
 51
90.0
  0
TEXT
  5
1A00D
  8
SUNPO
  6
CONTINUOUS
 10
143.685645
 20
111.916668
 30
0.0
 40
2.5
  1
42
 50
90.0
  7
MX_NOTE_STANDARD
  0
LINE
  5
1A00E
  8
SUNPO
  6
CONTINUOUS
 10
275.876776
 20
26.500001
 30
0.0
 11
271.835331
 21
33.499997
 31
0.0
  0
LINE
  5
1A00F
  8
SUNPO
  6
CONTINUOUS
 10
278.186114
 20
26.5
 30
0.0
 11
274.144668
 21
33.499997
 31
0.0
  0
LINE
  5
1A010
  8
SUNPO
  6
CONTINUOUS
 10
284.536961
 20
33.5
 30
0.0
 11
284.536961
 21
26.500003
 31
0.0
  0
LINE
  5
1A011
  8
SUNPO
  6
CONTINUOUS
 10
284.536959
 20
26.500004
 30
0.0
 11
280.495515
 21
33.499997
 31
0.0
  0
LINE
  5
1A012
  8
SUNPO
  6
CONTINUOUS
 10
282.22756
 20
26.500001
 30
0.0
 11
278.186114
 21
33.499998
 31
0.0
  0
LINE
  5
1A013
  8
SUNPO
  6
CONTINUOUS
 10
278.186113
 20
33.5
 30
0.0
 11
278.186113
 21
26.500001
 31
0.0
  0
LINE
  5
1A014
  8
SUNPO
  6
CONTINUOUS
 10
279.186113
 20
26.5
 30
0.0
 11
274.708582
 21
26.5
 31
0.0
  0
LINE
  5
1A015
  8
SUNPO
  6
CONTINUOUS
 10
285.11431
 20
26.5
 30
0.0
 11
281.536562
 21
26.5
 31
0.0
  0
LINE
  5
1A017
  8
SUNPO
  6
CONTINUOUS
 10
293.26901
 20
28.5
 30
0.0
 11
288.26901
 21
28.5
 31
0.0
  0
LINE
  5
1A018
  8
SUNPO
  6
CONTINUOUS
 10
293.26901
 20
31.5
 30
0.0
 11
288.26901
 21
31.5
 31
0.0
  0
LINE
  5
1A019
  8
SUNPO
  6
CONTINUOUS
 10
304.5
 20
38.322886
 30
0.0
 11
259.5
 21
38.322886
 31
0.0
  0
LINE
  5
1A01A
  8
SUNPO
  6
CONTINUOUS
 10
225.0
 20
86.5
 30
0.0
 11
225.0
 21
46.0
 31
0.0
  0
LINE
  5
1A01B
  8
SUNPO
  6
CONTINUOUS
 10
196.111405
 20
41.639166
 30
0.0
 11
197.267949
 21
37.322886
 31
0.0
  0
TEXT
  5
1A01E
  8
SUNPO
  6
CONTINUOUS
 10
203.916667
 20
47.0
 30
0.0
 40
2.5
  1
38
  7
MX_NOTE_STANDARD
  0
POLYLINE
  5
1A01F
  8
SUNPO
  6
CONTINUOUS
 66
     1
 10
0.0
 20
0.0
 30
0.0
 70
   128
210
0.0
220
0.0
230
-1.0
  0
VERTEX
  5
1A836
  8
SUNPO
  6
CONTINUOUS
 10
-219.815372
 20
42.430155
 30
0.0
  0
VERTEX
  5
1A837
  8
SUNPO
  6
CONTINUOUS
 10
-220.728887
 20
43.052967
 30
0.0
  0
VERTEX
  5
1A838
  8
SUNPO
  6
CONTINUOUS
 10
-221.199982
 20
43.091179
 30
0.0
  0
VERTEX
  5
1A839
  8
SUNPO
  6
CONTINUOUS
 10
-221.0138
 20
42.578868
 30
0.0
  0
VERTEX
  5
1A83A
  8
SUNPO
  6
CONTINUOUS
 10
-220.120898
 20
40.599677
 30
0.0
  0
VERTEX
  5
1A83B
  8
SUNPO
  6
CONTINUOUS
 10
-220.417461
 20
39.620702
 30
0.0
  0
VERTEX
  5
1A83C
  8
SUNPO
  6
CONTINUOUS
 10
-221.378871
 20
39.924854
 30
0.0
  0
VERTEX
  5
1A83D
  8
SUNPO
  6
CONTINUOUS
 10
-221.86436
 20
41.042338
 30
0.0
  0
VERTEX
  5
1A83E
  8
SUNPO
  6
CONTINUOUS
 10
-221.97692
 20
41.543679
 30
0.0
  0
VERTEX
  5
1A83F
  8
SUNPO
  6
CONTINUOUS
 10
-221.849498
 20
41.018051
 30
0.0
  0
VERTEX
  5
1A840
  8
SUNPO
  6
CONTINUOUS
 10
-221.799705
 20
39.952675
 30
0.0
  0
VERTEX
  5
1A841
  8
SUNPO
  6
CONTINUOUS
 10
-222.635643
 20
39.371351
 30
0.0
  0
VERTEX
  5
1A842
  8
SUNPO
  6
CONTINUOUS
 10
-223.508647
 20
39.987263
 30
0.0
  0
VERTEX
  5
1A843
  8
SUNPO
  6
CONTINUOUS
 10
-223.951869
 20
40.976998
 30
0.0
  0
VERTEX
  5
1A844
  8
SUNPO
  6
CONTINUOUS
 10
-223.836626
 20
43.133374
 30
0.0
  0
VERTEX
  5
1A845
  8
SUNPO
  6
CONTINUOUS
 10
-225.974428
 20
42.896876
 30
0.0
  0
SEQEND
  5
1A846
  8
SUNPO
  6
CONTINUOUS
  0
TEXT
  5
1A020
  8
SUNPO
  6
CONTINUOUS
 10
225.537473
 20
39.371288
 30
0.0
 40
2.0
  1
2
  7
MX_NOTE_STANDARD
  0
ARC
  5
1A021
  8
SUNPO
  6
BYBLOCK
 10
225.0
 20
46.0
 30
0.0
 40
0.145
 50
0.0
 51
180.0
  0
ARC
  5
1A022
  8
SUNPO
  6
BYBLOCK
 10
225.0
 20
46.0
 30
0.0
 40
0.145
 50
180.0
 51
0.0
  0
LINE
  5
1A023
  8
SUNPO
  6
CONTINUOUS
 10
259.5
 20
60.499998
 30
0.0
 11
259.5
 21
38.322886
 31
0.0
  0
LINE
  5
1A024
  8
SUNPO
  6
CONTINUOUS
 10
259.5
 20
38.322886
 30
0.0
 11
250.388595
 21
35.006605
 31
0.0
  0
LINE
  5
1A025
  8
SUNPO
  6
CONTINUOUS
 10
250.388595
 20
35.006605
 30
0.0
 11
249.232051
 21
39.322886
 31
0.0
  0
ARC
  5
1A029
  8
SUNPO
  6
BYBLOCK
 10
244.793737
 20
88.0
 30
0.0
 40
0.145
 50
270.0
 51
90.0
  0
ARC
  5
1A02A
  8
SUNPO
  6
BYBLOCK
 10
244.793737
 20
88.0
 30
0.0
 40
0.145
 50
90.0
 51
270.0
  0
LINE
  5
1A02B
  8
SUNPO
  6
CONTINUOUS
 10
324.468739
 20
81.0
 30
0.0
 11
324.468739
 21
60.0
 31
0.0
  0
LINE
  5
1A02C
  8
SUNPO
  6
CONTINUOUS
 10
281.495514
 20
33.5
 30
0.0
 11
277.186113
 21
33.5
 31
0.0
  0
LINE
  5
1A02D
  8
SUNPO
  6
CONTINUOUS
 10
275.10634
 20
33.5
 30
0.0
 11
270.73099
 21
33.5
 31
0.0
  0
LINE
  5
1A02E
  8
SUNPO
  6
CONTINUOUS
 10
285.495805
 20
33.5
 30
0.0
 11
283.459285
 21
33.5
 31
0.0
  0
TEXT
  5
1A02F
  8
SUNPO
  6
CONTINUOUS
 10
279.916667
 20
39.322886
 30
0.0
 40
2.5
  1
45
  7
MX_NOTE_STANDARD
  0
LINE
  5
1A030
  8
SUNPO
  6
CONTINUOUS
 10
304.5
 20
60.499998
 30
0.0
 11
304.5
 21
38.322886
 31
0.0
  0
LINE
  5
1A031
  8
SUNPO
  6
CONTINUOUS
 10
304.5
 20
38.322886
 30
0.0
 11
313.611405
 21
41.639166
 31
0.0
  0
LINE
  5
1A033
  8
SUNPO
  6
CONTINUOUS
 10
313.611405
 20
41.639166
 30
0.0
 11
314.767949
 21
37.322886
 31
0.0
  0
LINE
  5
1A036
  8
SUNPO
  6
CONTINUOUS
 10
304.0
 20
60.0
 30
0.0
 11
324.468739
 21
60.0
 31
0.0
  0
ARC
  5
1A037
  8
SUNPO
  6
BYBLOCK
 10
324.468739
 20
60.0
 30
0.0
 40
0.145
 50
270.0
 51
90.0
  0
ARC
  5
1A038
  8
SUNPO
  6
BYBLOCK
 10
324.468739
 20
60.0
 30
0.0
 40
0.145
 50
90.0
 51
270.0
  0
TEXT
  5
1A039
  8
SUNPO
  6
CONTINUOUS
 10
323.468739
 20
68.833333
 30
0.0
 40
2.5
  1
21
 50
90.0
  7
MX_NOTE_STANDARD
  0
LINE
  5
1A03A
  8
SUNPO
  6
CONTINUOUS
 10
324.468739
 20
81.0
 30
0.0
 11
324.468739
 21
119.0
 31
0.0
  0
LINE
  5
1A03B
  8
SUNPO
  6
CONTINUOUS
 10
316.999999
 20
81.0
 30
0.0
 11
324.468739
 21
81.0
 31
0.0
  0
ARC
  5
1A03C
  8
SUNPO
  6
BYBLOCK
 10
324.468739
 20
81.0
 30
0.0
 40
0.145
 50
270.0
 51
90.0
  0
ARC
  5
1A03D
  8
SUNPO
  6
BYBLOCK
 10
324.468739
 20
81.0
 30
0.0
 40
0.145
 50
90.0
 51
270.0
  0
ARC
  5
1A03E
  8
SUNPO
  6
BYBLOCK
 10
324.468739
 20
81.0
 30
0.0
 40
0.145
 50
90.0
 51
270.0
  0
ARC
  5
1A03F
  8
SUNPO
  6
BYBLOCK
 10
324.468739
 20
81.0
 30
0.0
 40
0.145
 50
270.0
 51
90.0
  0
TEXT
  5
1A040
  8
SUNPO
  6
CONTINUOUS
 10
323.468739
 20
102.155268
 30
0.0
 40
2.5
  1
38
 50
90.0
  7
MX_NOTE_STANDARD
  0
TEXT
  5
1A041
  8
SUNPO
  6
CONTINUOUS
 10
323.468739
 20
122.166667
 30
0.0
 40
2.5
  1
8
 50
90.0
  7
MX_NOTE_STANDARD
  0
ARC
  5
1A042
  8
SUNPO
  6
BYBLOCK
 10
324.468739
 20
119.0
 30
0.0
 40
0.145
 50
90.0
 51
270.0
  0
ARC
  5
1A043
  8
SUNPO
  6
BYBLOCK
 10
324.468739
 20
119.0
 30
0.0
 40
0.145
 50
270.0
 51
90.0
  0
ARC
  5
1A044
  8
SUNPO
  6
BYBLOCK
 10
324.468739
 20
119.0
 30
0.0
 40
0.145
 50
270.0
 51
90.0
  0
ARC
  5
1A045
  8
SUNPO
  6
BYBLOCK
 10
324.468739
 20
119.0
 30
0.0
 40
0.145
 50
90.0
 51
270.0
  0
TEXT
  5
1A046
  8
SUNPO
  6
CONTINUOUS
 10
387.416667
 20
31.0
 30
0.0
 40
2.5
  1
25
  7
MX_NOTE_STANDARD
  0
LINE
  5
1A047
  8
SUNPO
  6
CONTINUOUS
 10
377.0
 20
79.499992
 30
0.0
 11
377.0
 21
30.0
 31
0.0
  0
LINE
  5
1A048
  8
SUNPO
  6
CONTINUOUS
 10
402.0
 20
86.5
 30
0.0
 11
402.0
 21
30.0
 31
0.0
  0
LINE
  5
1A049
  8
SUNPO
  6
CONTINUOUS
 10
372.0
 20
35.0
 30
0.0
 11
377.0
 21
30.0
 31
0.0
  0
LINE
  5
1A04A
  8
SUNPO
  6
CONTINUOUS
 10
372.0
 20
25.0
 30
0.0
 11
372.0
 21
35.0
 31
0.0
  0
LINE
  5
1A04B
  8
SUNPO
  6
CONTINUOUS
 10
402.0
 20
30.0
 30
0.0
 11
377.0
 21
30.0
 31
0.0
  0
LINE
  5
1A04C
  8
SUNPO
  6
CONTINUOUS
 10
377.0
 20
30.0
 30
0.0
 11
372.0
 21
25.0
 31
0.0
  0
ARC
  5
1A04F
  8
SUNPO
  6
BYBLOCK
 10
402.0
 20
30.0
 30
0.0
 40
0.145
 50
0.0
 51
180.0
  0
ARC
  5
1A050
  8
SUNPO
  6
BYBLOCK
 10
402.0
 20
30.0
 30
0.0
 40
0.145
 50
180.0
 51
0.0
  0
LINE
  5
1A051
  8
SUNPO
  6
CONTINUOUS
 10
402.0
 20
46.0
 30
0.0
 11
392.0
 21
46.0
 31
0.0
  0
LINE
  5
1A052
  8
SUNPO
  6
CONTINUOUS
 10
392.0
 20
86.5
 30
0.0
 11
392.0
 21
46.0
 31
0.0
  0
LINE
  5
1A053
  8
SUNPO
  6
CONTINUOUS
 10
347.0
 20
79.499992
 30
0.0
 11
347.0
 21
46.0
 31
0.0
  0
LINE
  5
1A054
  8
SUNPO
  6
CONTINUOUS
 10
377.0
 20
46.0
 30
0.0
 11
347.0
 21
46.0
 31
0.0
  0
TEXT
  5
1A055
  8
SUNPO
  6
CONTINUOUS
 10
343.102796
 20
39.307041
 30
0.0
 40
2.0
  1
1
 41
1.5
  7
MX_NOTE_STANDARD
  0
POLYLINE
  5
1A056
  8
SUNPO
  6
CONTINUOUS
 66
     1
 10
0.0
 20
0.0
 30
0.0
 70
   128
210
0.0
220
0.0
230
-1.0
  0
VERTEX
  5
1A847
  8
SUNPO
  6
CONTINUOUS
 10
-337.015372
 20
42.430155
 30
0.0
  0
VERTEX
  5
1A848
  8
SUNPO
  6
CONTINUOUS
 10
-337.928887
 20
43.052967
 30
0.0
  0
VERTEX
  5
1A849
  8
SUNPO
  6
CONTINUOUS
 10
-338.399983
 20
43.091179
 30
0.0
  0
VERTEX
  5
1A84A
  8
SUNPO
  6
CONTINUOUS
 10
-338.2138
 20
42.578869
 30
0.0
  0
VERTEX
  5
1A84B
  8
SUNPO
  6
CONTINUOUS
 10
-337.320898
 20
40.599677
 30
0.0
  0
VERTEX
  5
1A84C
  8
SUNPO
  6
CONTINUOUS
 10
-337.617461
 20
39.620702
 30
0.0
  0
VERTEX
  5
1A84D
  8
SUNPO
  6
CONTINUOUS
 10
-338.578871
 20
39.924853
 30
0.0
  0
VERTEX
  5
1A84E
  8
SUNPO
  6
CONTINUOUS
 10
-339.064361
 20
41.042337
 30
0.0
  0
VERTEX
  5
1A84F
  8
SUNPO
  6
CONTINUOUS
 10
-339.176921
 20
41.543679
 30
0.0
  0
VERTEX
  5
1A850
  8
SUNPO
  6
CONTINUOUS
 10
-339.0495
 20
41.018052
 30
0.0
  0
VERTEX
  5
1A851
  8
SUNPO
  6
CONTINUOUS
 10
-338.999705
 20
39.952676
 30
0.0
  0
VERTEX
  5
1A852
  8
SUNPO
  6
CONTINUOUS
 10
-339.835643
 20
39.371351
 30
0.0
  0
VERTEX
  5
1A853
  8
SUNPO
  6
CONTINUOUS
 10
-340.708648
 20
39.987263
 30
0.0
  0
VERTEX
  5
1A854
  8
SUNPO
  6
CONTINUOUS
 10
-341.15187
 20
40.976998
 30
0.0
  0
VERTEX
  5
1A855
  8
SUNPO
  6
CONTINUOUS
 10
-341.036626
 20
43.133374
 30
0.0
  0
VERTEX
  5
1A856
  8
SUNPO
  6
CONTINUOUS
 10
-343.174429
 20
42.896876
 30
0.0
  0
SEQEND
  5
1A857
  8
SUNPO
  6
CONTINUOUS
  0
ARC
  5
1A057
  8
SUNPO
  6
BYBLOCK
 10
347.0
 20
46.0
 30
0.0
 40
0.145
 50
180.0
 51
0.0
  0
ARC
  5
1A058
  8
SUNPO
  6
BYBLOCK
 10
347.0
 20
46.0
 30
0.0
 40
0.145
 50
0.0
 51
180.0
  0
LINE
  5
1A059
  8
SUNPO
  6
CONTINUOUS
 10
377.0
 20
38.322886
 30
0.0
 11
367.888595
 21
35.006605
 31
0.0
  0
LINE
  5
1A05A
  8
SUNPO
  6
CONTINUOUS
 10
367.888595
 20
35.006605
 30
0.0
 11
366.732051
 21
39.322886
 31
0.0
  0
TEXT
  5
1A05E
  8
SUNPO
  6
CONTINUOUS
 10
360.125
 20
47.0
 30
0.0
 40
2.5
  1
30
  7
MX_NOTE_STANDARD
  0
TEXT
  5
1A060
  8
SUNPO
  6
CONTINUOUS
 10
382.833333
 20
47.0
 30
0.0
 40
2.5
  1
15
  7
MX_NOTE_STANDARD
  0
LINE
  5
1A061
  8
SUNPO
  6
CONTINUOUS
 10
392.0
 20
46.0
 30
0.0
 11
377.0
 21
46.0
 31
0.0
  0
ARC
  5
1A062
  8
SUNPO
  6
BYBLOCK
 10
377.0
 20
46.0
 30
0.0
 40
0.145
 50
180.0
 51
0.0
  0
ARC
  5
1A063
  8
SUNPO
  6
BYBLOCK
 10
377.0
 20
46.0
 30
0.0
 40
0.145
 50
0.0
 51
180.0
  0
ARC
  5
1A064
  8
SUNPO
  6
BYBLOCK
 10
377.0
 20
46.0
 30
0.0
 40
0.145
 50
0.0
 51
180.0
  0
ARC
  5
1A065
  8
SUNPO
  6
BYBLOCK
 10
377.0
 20
46.0
 30
0.0
 40
0.145
 50
180.0
 51
0.0
  0
ARC
  5
1A066
  8
SUNPO
  6
BYBLOCK
 10
392.0
 20
46.0
 30
0.0
 40
0.145
 50
0.0
 51
180.0
  0
ARC
  5
1A067
  8
SUNPO
  6
BYBLOCK
 10
392.0
 20
46.0
 30
0.0
 40
0.145
 50
180.0
 51
0.0
  0
ARC
  5
1A068
  8
SUNPO
  6
BYBLOCK
 10
392.0
 20
46.0
 30
0.0
 40
0.145
 50
180.0
 51
0.0
  0
ARC
  5
1A069
  8
SUNPO
  6
BYBLOCK
 10
392.0
 20
46.0
 30
0.0
 40
0.145
 50
0.0
 51
180.0
  0
TEXT
  5
1A06A
  8
SUNPO
  6
CONTINUOUS
 10
395.541667
 20
47.0
 30
0.0
 40
2.5
  1
10
  7
MX_NOTE_STANDARD
  0
ARC
  5
1A06B
  8
SUNPO
  6
BYBLOCK
 10
402.0
 20
46.0
 30
0.0
 40
0.145
 50
0.0
 51
180.0
  0
ARC
  5
1A06C
  8
SUNPO
  6
BYBLOCK
 10
402.0
 20
46.0
 30
0.0
 40
0.145
 50
180.0
 51
0.0
  0
TEXT
  5
1A06D
  8
SUNPO
  6
CONTINUOUS
 10
400.021299
 20
110.575
 30
0.0
 40
2.5
  1
10.6
 50
90.0
  7
MX_NOTE_STANDARD
  0
LINE
  5
1A06E
  8
SUNPO
  6
CONTINUOUS
 10
401.021299
 20
119.0
 30
0.0
 11
401.021299
 21
108.4
 31
0.0
  0
LINE
  5
1A06F
  8
SUNPO
  6
CONTINUOUS
 10
397.13855
 20
108.4
 30
0.0
 11
401.021299
 21
108.4
 31
0.0
  0
ARC
  5
1A070
  8
SUNPO
  6
BYBLOCK
 10
401.021299
 20
108.4
 30
0.0
 40
0.145
 50
270.0
 51
90.0
  0
ARC
  5
1A071
  8
SUNPO
  6
BYBLOCK
 10
401.021299
 20
108.4
 30
0.0
 40
0.145
 50
90.0
 51
270.0
  0
LINE
  5
1A072
  8
SUNPO
  6
CONTINUOUS
 10
393.499989
 20
119.0
 30
0.0
 11
401.021299
 21
119.0
 31
0.0
  0
ARC
  5
1A073
  8
SUNPO
  6
BYBLOCK
 10
401.021299
 20
119.0
 30
0.0
 40
0.145
 50
90.0
 51
270.0
  0
ARC
  5
1A074
  8
SUNPO
  6
BYBLOCK
 10
401.021299
 20
119.0
 30
0.0
 40
0.145
 50
270.0
 51
90.0
  0
LINE
  5
1A075
  8
SUNPO
  6
CONTINUOUS
 10
42.0
 20
183.428279
 30
0.0
 11
112.0
 21
183.428279
 31
0.0
  0
LINE
  5
1A076
  8
SUNPO
  6
CONTINUOUS
 10
73.0
 20
169.500005
 30
0.0
 11
35.0
 21
169.500005
 31
0.0
  0
LINE
  5
1A077
  8
DANMEN
  6
CONTINUOUS
 10
357.0
 20
156.800003
 30
0.0
 11
323.75
 21
156.800003
 31
0.0
  0
LINE
  5
1A078
  8
DANMEN
  6
CONTINUOUS
 10
352.600006
 20
159.800003
 30
0.0
 11
323.75
 21
159.800003
 31
0.0
  0
LINE
  5
1A079
  8
DANMEN
  6
CONTINUOUS
 10
352.600006
 20
161.0
 30
0.0
 11
323.75
 21
161.0
 31
0.0
  0
LINE
  5
1A07A
  8
DANMEN
  6
CONTINUOUS
 10
323.75
 20
137.5
 30
0.0
 11
392.0
 21
137.5
 31
0.0
  0
LINE
  5
1A07B
  8
DANMEN
  6
CONTINUOUS
 10
323.75
 20
140.5
 30
0.0
 11
392.0
 21
140.5
 31
0.0
  0
LINE
  5
1A07C
  8
DANMEN
  6
CONTINUOUS
 10
323.75
 20
151.0
 30
0.0
 11
392.0
 21
151.0
 31
0.0
  0
LINE
  5
1A07D
  8
DANMEN
  6
CONTINUOUS
 10
325.23851
 20
145.5
 30
0.0
 11
392.0
 21
145.5
 31
0.0
  0
LINE
  5
1A07E
  8
DANMEN
  6
CONTINUOUS
 10
274.5
 20
151.65
 30
0.0
 11
241.75
 21
151.65
 31
0.0
  0
LINE
  5
1A07F
  8
DANMEN
  6
CONTINUOUS
 10
274.5
 20
146.65
 30
0.0
 11
241.75
 21
146.65
 31
0.0
  0
LINE
  5
1A080
  8
DANMEN
  6
CONTINUOUS
 10
274.5
 20
140.35
 30
0.0
 11
241.75
 21
140.35
 31
0.0
  0
LINE
  5
1A081
  8
DANMEN
  6
CONTINUOUS
 10
274.5
 20
145.35
 30
0.0
 11
241.75
 21
145.35
 31
0.0
  0
LINE
  5
1A082
  8
DANMEN
  6
CONTINUOUS
 10
274.5
 20
152.15
 30
0.0
 11
241.75
 21
152.15
 31
0.0
  0
LINE
  5
1A083
  8
DANMEN
  6
CONTINUOUS
 10
274.5
 20
139.85
 30
0.0
 11
241.75
 21
139.85
 31
0.0
  0
LINE
  5
1A084
  8
DANMEN
  6
CONTINUOUS
 10
274.5
 20
146.15
 30
0.0
 11
241.75
 21
146.15
 31
0.0
  0
LINE
  5
1A085
  8
DANMEN
  6
CONTINUOUS
 10
274.5
 20
145.85
 30
0.0
 11
241.75
 21
145.85
 31
0.0
  0
LINE
  5
1A086
  8
DANMEN
  6
CONTINUOUS
 10
260.5
 20
165.0
 30
0.0
 11
303.5
 21
165.0
 31
0.0
  0
LINE
  5
1A087
  8
DANMEN
  6
CONTINUOUS
 10
260.5
 20
127.0
 30
0.0
 11
288.0
 21
127.0
 31
0.0
  0
LINE
  5
1A088
  8
DANMEN
  6
CONTINUOUS
 10
260.7
 20
128.949997
 30
0.0
 11
279.5
 21
128.949997
 31
0.0
  0
LINE
  5
1A089
  8
DANMEN
  6
CONTINUOUS
 10
260.7
 20
163.050003
 30
0.0
 11
279.5
 21
163.050003
 31
0.0
  0
LINE
  5
1A08A
  8
DANMEN
  6
CONTINUOUS
 10
225.0
 20
127.0
 30
0.0
 11
240.25
 21
127.0
 31
0.0
  0
LINE
  5
1A08B
  8
DANMEN
  6
CONTINUOUS
 10
225.0
 20
129.2
 30
0.0
 11
240.25
 21
129.2
 31
0.0
  0
LINE
  5
1A08C
  8
DANMEN
  6
CONTINUOUS
 10
225.0
 20
165.0
 30
0.0
 11
240.25
 21
165.0
 31
0.0
  0
LINE
  5
1A08D
  8
DANMEN
  6
CONTINUOUS
 10
225.0
 20
162.800003
 30
0.0
 11
240.25
 21
162.800003
 31
0.0
  0
LINE
  5
1A08E
  8
DANMEN
  6
CONTINUOUS
 10
210.0
 20
146.15
 30
0.0
 11
240.25
 21
146.15
 31
0.0
  0
LINE
  5
1A08F
  8
DANMEN
  6
CONTINUOUS
 10
210.0
 20
145.85
 30
0.0
 11
240.25
 21
145.85
 31
0.0
  0
LINE
  5
1A090
  8
DANMEN
  6
CONTINUOUS
 10
210.0
 20
152.15
 30
0.0
 11
240.25
 21
152.15
 31
0.0
  0
LINE
  5
1A091
  8
DANMEN
  6
CONTINUOUS
 10
210.0
 20
139.85
 30
0.0
 11
240.25
 21
139.85
 31
0.0
  0
LINE
  5
1A092
  8
DANMEN
  6
CONTINUOUS
 10
210.0
 20
146.65
 30
0.0
 11
240.25
 21
146.65
 31
0.0
  0
LINE
  5
1A093
  8
DANMEN
  6
CONTINUOUS
 10
210.0
 20
151.65
 30
0.0
 11
240.25
 21
151.65
 31
0.0
  0
LINE
  5
1A094
  8
DANMEN
  6
CONTINUOUS
 10
210.0
 20
145.35
 30
0.0
 11
240.25
 21
145.35
 31
0.0
  0
LINE
  5
1A095
  8
DANMEN
  6
CONTINUOUS
 10
210.0
 20
140.35
 30
0.0
 11
240.25
 21
140.35
 31
0.0
  0
LINE
  5
1A096
  8
DANMEN
  6
CONTINUOUS
 10
240.25
 20
160.500003
 30
0.0
 11
225.0
 21
160.500003
 31
0.0
  0
LINE
  5
1A097
  8
DANMEN
  6
CONTINUOUS
 10
225.0
 20
131.499995
 30
0.0
 11
240.25
 21
131.499995
 31
0.0
  0
LINE
  5
1A098
  8
DANMEN
  6
CONTINUOUS
 10
204.0
 20
150.0
 30
0.0
 11
204.0
 21
128.949997
 31
0.0
  0
LINE
  5
1A099
  8
DANMEN
  6
CONTINUOUS
 10
202.050003
 20
149.05
 30
0.0
 11
202.050003
 21
132.949997
 31
0.0
  0
LINE
  5
1A09A
  8
DANMEN
  6
CONTINUOUS
 10
210.0
 20
152.15
 30
0.0
 11
210.0
 21
139.85
 31
0.0
  0
LINE
  5
1A09B
  8
DANMEN
  6
CONTINUOUS
 10
202.538895
 20
127.0
 30
0.0
 11
224.0
 21
127.0
 31
0.0
  0
LINE
  5
1A09C
  8
DANMEN
  6
CONTINUOUS
 10
204.0
 20
128.949997
 30
0.0
 11
223.800003
 21
128.949997
 31
0.0
  0
LINE
  5
1A09D
  8
DANMEN
  6
CONTINUOUS
 10
202.04029
 20
127.537395
 30
0.0
 11
202.299988
 21
131.0
 31
0.0
  0
LINE
  5
1A0A2
  8
DANMEN
  6
CONTINUOUS
 10
225.818323
 20
138.333042
 30
0.0
 11
222.0
 21
134.514718
 31
0.0
  0
LINE
  5
1A0A3
  8
DANMEN
  6
CONTINUOUS
 10
225.416402
 20
134.976996
 30
0.0
 11
222.0
 21
138.393399
 31
0.0
  0
LINE
  5
1A0A4
  8
DANMEN
  6
CONTINUOUS
 10
225.189523
 20
133.082555
 30
0.0
 11
222.0
 21
136.272078
 31
0.0
  0
LINE
  5
1A0A5
  8
DANMEN
  6
CONTINUOUS
 10
225.999995
 20
139.85
 30
0.0
 11
224.999995
 21
131.500002
 31
0.0
  0
LINE
  5
1A0A6
  8
DANMEN
  6
CONTINUOUS
 10
223.800003
 20
128.949997
 30
0.0
 11
223.800003
 21
131.0
 31
0.0
  0
LINE
  5
1A0A7
  8
DANMEN
  6
CONTINUOUS
 10
225.0
 20
128.0
 30
0.0
 11
225.0
 21
131.5
 31
0.0
  0
ARC
  5
1A0A9
  8
DANMEN
  6
CONTINUOUS
 10
224.0
 20
128.0
 30
0.0
 40
1.0
 50
270.0
 51
0.0
  0
LINE
  5
1A0AB
  8
DANMEN
  6
CONTINUOUS
 10
220.5
 20
131.0
 30
0.0
 11
223.800003
 21
131.0
 31
0.0
  0
LINE
  5
1A0AC
  8
DANMEN
  6
CONTINUOUS
 10
220.0
 20
132.0
 30
0.0
 11
224.5
 21
132.0
 31
0.0
  0
LINE
  5
1A0AD
  8
DANMEN
  6
CONTINUOUS
 10
225.529709
 20
135.923107
 30
0.0
 11
222.0
 21
132.393398
 31
0.0
  0
LINE
  5
1A0AE
  8
DANMEN
  6
CONTINUOUS
 10
224.150758
 20
132.0
 30
0.0
 11
222.0
 21
134.150758
 31
0.0
  0
ARC
  5
1A0B0
  8
DANMEN
  6
CONTINUOUS
 10
220.5
 20
131.5
 30
0.0
 40
0.5
 50
179.999964
 51
270.000001
  0
LINE
  5
1A0B2
  8
DANMEN
  6
CONTINUOUS
 10
220.0
 20
131.5
 30
0.0
 11
220.0
 21
132.0
 31
0.0
  0
LINE
  5
1A0B3
  8
DANMEN
  6
CONTINUOUS
 10
222.029437
 20
132.0
 30
0.0
 11
222.0
 21
132.029437
 31
0.0
  0
ARC
  5
1A0B5
  8
DANMEN
  6
CONTINUOUS
 10
224.5
 20
131.5
 30
0.0
 40
0.5
 50
0.0
 51
89.999982
  0
LINE
  5
1A0B7
  8
DANMEN
  6
CONTINUOUS
 10
225.241094
 20
133.513172
 30
0.0
 11
223.727922
 21
132.0
 31
0.0
  0
LINE
  5
1A0B8
  8
DANMEN
  6
CONTINUOUS
 10
223.092638
 20
139.849997
 30
0.0
 11
222.0
 21
138.757359
 31
0.0
  0
LINE
  5
1A0B9
  8
DANMEN
  6
CONTINUOUS
 10
225.213958
 20
139.849997
 30
0.0
 11
222.0
 21
136.636039
 31
0.0
  0
LINE
  5
1A0BA
  8
DANMEN
  6
CONTINUOUS
 10
225.87016
 20
138.765879
 30
0.0
 11
224.786042
 21
139.849997
 31
0.0
  0
LINE
  5
1A0BB
  8
DANMEN
  6
CONTINUOUS
 10
225.643281
 20
136.871438
 30
0.0
 11
222.664722
 21
139.849997
 31
0.0
  0
LINE
  5
1A0BE
  8
DANMEN
  6
CONTINUOUS
 10
203.0
 20
165.0
 30
0.0
 11
224.0
 21
165.0
 31
0.0
  0
LINE
  5
1A0BF
  8
DANMEN
  6
CONTINUOUS
 10
204.0
 20
163.050003
 30
0.0
 11
223.800003
 21
163.050003
 31
0.0
  0
LINE
  5
1A0C0
  8
DANMEN
  6
CONTINUOUS
 10
204.0
 20
163.050003
 30
0.0
 11
204.0
 21
151.0
 31
0.0
  0
ARC
  5
1A0C1
  8
DANMEN
  6
CONTINUOUS
 10
205.5
 20
149.550003
 30
0.0
 40
0.5
 50
270.000018
 51
0.0
  0
ARC
  5
1A0C2
  8
DANMEN
  6
CONTINUOUS
 10
205.5
 20
150.5
 30
0.0
 40
0.5
 50
0.0
 51
89.999982
  0
LINE
  5
1A0C7
  8
DANMEN
  6
CONTINUOUS
 10
205.0
 20
150.0
 30
0.0
 11
205.0
 21
149.050003
 31
0.0
  0
LINE
  5
1A0CB
  8
DANMEN
  6
CONTINUOUS
 10
205.0
 20
149.050003
 30
0.0
 11
205.5
 21
149.050003
 31
0.0
  0
LINE
  5
1A0CC
  8
DANMEN
  6
CONTINUOUS
 10
204.0
 20
150.0
 30
0.0
 11
205.0
 21
150.0
 31
0.0
  0
LINE
  5
1A0CD
  8
DANMEN
  6
CONTINUOUS
 10
206.0
 20
150.5
 30
0.0
 11
206.0
 21
149.550003
 31
0.0
  0
LINE
  5
1A0CE
  8
DANMEN
  6
CONTINUOUS
 10
204.0
 20
151.0
 30
0.0
 11
205.5
 21
151.0
 31
0.0
  0
LINE
  5
1A0D0
  8
DANMEN
  6
CONTINUOUS
 10
224.150758
 20
160.0
 30
0.0
 11
222.0
 21
157.849242
 31
0.0
  0
LINE
  5
1A0D1
  8
DANMEN
  6
CONTINUOUS
 10
225.241094
 20
158.486828
 30
0.0
 11
223.727922
 21
160.0
 31
0.0
  0
LINE
  5
1A0D2
  8
DANMEN
  6
CONTINUOUS
 10
225.529708
 20
156.076893
 30
0.0
 11
222.0
 21
159.606602
 31
0.0
  0
LINE
  5
1A0D3
  8
DANMEN
  6
CONTINUOUS
 10
226.000003
 20
152.15
 30
0.0
 11
225.000003
 21
160.500005
 31
0.0
  0
LINE
  5
1A0D4
  8
DANMEN
  6
CONTINUOUS
 10
225.643281
 20
155.128562
 30
0.0
 11
222.664714
 21
152.149996
 31
0.0
  0
LINE
  5
1A0D5
  8
DANMEN
  6
CONTINUOUS
 10
225.213965
 20
152.149996
 30
0.0
 11
222.0
 21
155.363961
 31
0.0
  0
LINE
  5
1A0D6
  8
DANMEN
  6
CONTINUOUS
 10
223.092645
 20
152.149996
 30
0.0
 11
222.0
 21
153.242641
 31
0.0
  0
LINE
  5
1A0D7
  8
DANMEN
  6
CONTINUOUS
 10
225.87016
 20
153.234121
 30
0.0
 11
224.786035
 21
152.149996
 31
0.0
  0
LINE
  5
1A0D9
  8
DANMEN
  6
CONTINUOUS
 10
225.189523
 20
158.917445
 30
0.0
 11
222.0
 21
155.727922
 31
0.0
  0
LINE
  5
1A0DA
  8
DANMEN
  6
CONTINUOUS
 10
225.416402
 20
157.023004
 30
0.0
 11
222.0
 21
153.606602
 31
0.0
  0
LINE
  5
1A0DB
  8
DANMEN
  6
CONTINUOUS
 10
225.818323
 20
153.666959
 30
0.0
 11
222.0
 21
157.485281
 31
0.0
  0
ARC
  5
1A0DC
  8
DANMEN
  6
CONTINUOUS
 10
224.0
 20
164.0
 30
0.0
 40
1.0
 50
0.0
 51
90.0
  0
LINE
  5
1A0DD
  8
DANMEN
  6
CONTINUOUS
 10
220.0
 20
160.0
 30
0.0
 11
224.5
 21
160.0
 31
0.0
  0
LINE
  5
1A0DE
  8
DANMEN
  6
CONTINUOUS
 10
220.5
 20
161.0
 30
0.0
 11
223.800003
 21
161.0
 31
0.0
  0
LINE
  5
1A0DF
  8
DANMEN
  6
CONTINUOUS
 10
220.0
 20
160.5
 30
0.0
 11
220.0
 21
160.0
 31
0.0
  0
ARC
  5
1A0E1
  8
DANMEN
  6
CONTINUOUS
 10
220.5
 20
160.5
 30
0.0
 40
0.5
 50
89.999999
 51
180.000036
  0
LINE
  5
1A0E3
  8
DANMEN
  6
CONTINUOUS
 10
222.029437
 20
160.0
 30
0.0
 11
222.0
 21
159.970563
 31
0.0
  0
LINE
  5
1A0E5
  8
DANMEN
  6
CONTINUOUS
 10
225.0
 20
164.0
 30
0.0
 11
225.0
 21
160.5
 31
0.0
  0
ARC
  5
1A0E7
  8
DANMEN
  6
CONTINUOUS
 10
224.5
 20
160.5
 30
0.0
 40
0.5
 50
270.000018
 51
0.0
  0
LINE
  5
1A0E8
  8
DANMEN
  6
CONTINUOUS
 10
223.800003
 20
163.050003
 30
0.0
 11
223.800003
 21
161.0
 31
0.0
  0
LINE
  5
1A0EB
  8
DANMEN
  6
CONTINUOUS
 10
241.75
 20
127.0
 30
0.0
 11
259.5
 21
127.0
 31
0.0
  0
LINE
  5
1A0EC
  8
DANMEN
  6
CONTINUOUS
 10
241.75
 20
129.2
 30
0.0
 11
259.5
 21
129.2
 31
0.0
  0
LINE
  5
1A0ED
  8
DANMEN
  6
CONTINUOUS
 10
241.75
 20
131.499995
 30
0.0
 11
259.5
 21
131.499995
 31
0.0
  0
LINE
  5
1A0EE
  8
DANMEN
  6
CONTINUOUS
 10
259.310477
 20
133.082555
 30
0.0
 11
262.5
 21
136.272078
 31
0.0
  0
LINE
  5
1A0EF
  8
DANMEN
  6
CONTINUOUS
 10
259.083598
 20
134.976996
 30
0.0
 11
262.5
 21
138.393398
 31
0.0
  0
LINE
  5
1A0F0
  8
DANMEN
  6
CONTINUOUS
 10
258.681677
 20
138.333041
 30
0.0
 11
262.5
 21
134.514719
 31
0.0
  0
LINE
  5
1A0F1
  8
DANMEN
  6
CONTINUOUS
 10
258.499997
 20
139.85
 30
0.0
 11
259.499997
 21
131.499995
 31
0.0
  0
ARC
  5
1A0F2
  8
DANMEN
  6
CONTINUOUS
 10
260.5
 20
128.0
 30
0.0
 40
1.0
 50
180.0
 51
270.0
  0
ARC
  5
1A0F3
  8
DANMEN
  6
CONTINUOUS
 10
260.0
 20
131.5
 30
0.0
 40
0.5
 50
89.999982
 51
180.000019
  0
LINE
  5
1A0F4
  8
DANMEN
  6
CONTINUOUS
 10
259.258906
 20
133.513172
 30
0.0
 11
260.772078
 21
132.0
 31
0.0
  0
LINE
  5
1A0F5
  8
DANMEN
  6
CONTINUOUS
 10
258.970292
 20
135.923107
 30
0.0
 11
262.5
 21
132.393398
 31
0.0
  0
LINE
  5
1A0F6
  8
DANMEN
  6
CONTINUOUS
 10
259.5
 20
131.5
 30
0.0
 11
259.5
 21
128.0
 31
0.0
  0
LINE
  5
1A0F7
  8
DANMEN
  6
CONTINUOUS
 10
260.7
 20
131.0
 30
0.0
 11
260.7
 21
128.949997
 31
0.0
  0
ARC
  5
1A0F8
  8
DANMEN
  6
CONTINUOUS
 10
264.345223
 20
126.8
 30
0.0
 40
1.0
 50
90.0
 51
147.20046
  0
LINE
  5
1A0FB
  8
DANMEN
  6
CONTINUOUS
 10
264.345223
 20
127.8
 30
0.0
 11
265.700001
 21
127.8
 31
0.0
  0
LINE
  5
1A0FC
  8
DANMEN
  6
CONTINUOUS
 10
264.345223
 20
126.8
 30
0.0
 11
265.300001
 21
126.8
 31
0.0
  0
ARC
  5
1A101
  8
DANMEN
  6
CONTINUOUS
 10
265.700001
 20
127.2
 30
0.0
 40
0.6
 50
0.0
 51
90.0
  0
LINE
  5
1A107
  8
DANMEN
  6
CONTINUOUS
 10
260.0
 20
132.0
 30
0.0
 11
264.5
 21
132.0
 31
0.0
  0
LINE
  5
1A108
  8
DANMEN
  6
CONTINUOUS
 10
260.7
 20
131.0
 30
0.0
 11
264.0
 21
131.0
 31
0.0
  0
LINE
  5
1A10B
  8
DANMEN
  6
CONTINUOUS
 10
262.470563
 20
132.0
 30
0.0
 11
262.5
 21
132.029437
 31
0.0
  0
LINE
  5
1A10C
  8
DANMEN
  6
CONTINUOUS
 10
260.349242
 20
132.0
 30
0.0
 11
262.5
 21
134.150758
 31
0.0
  0
LINE
  5
1A10D
  8
DANMEN
  6
CONTINUOUS
 10
264.5
 20
132.0
 30
0.0
 11
264.5
 21
131.5
 31
0.0
  0
ARC
  5
1A110
  8
DANMEN
  6
CONTINUOUS
 10
264.0
 20
131.5
 30
0.0
 40
0.5
 50
270.000018
 51
0.0
  0
LINE
  5
1A111
  8
DANMEN
  6
CONTINUOUS
 10
258.856719
 20
136.871438
 30
0.0
 11
261.835286
 21
139.850004
 31
0.0
  0
LINE
  5
1A112
  8
DANMEN
  6
CONTINUOUS
 10
258.62984
 20
138.765879
 30
0.0
 11
259.713965
 21
139.850004
 31
0.0
  0
LINE
  5
1A113
  8
DANMEN
  6
CONTINUOUS
 10
259.286035
 20
139.850004
 30
0.0
 11
262.5
 21
136.636039
 31
0.0
  0
LINE
  5
1A114
  8
DANMEN
  6
CONTINUOUS
 10
261.407355
 20
139.850004
 30
0.0
 11
262.5
 21
138.757359
 31
0.0
  0
LINE
  5
1A118
  8
DANMEN
  6
CONTINUOUS
 10
241.75
 20
162.800003
 30
0.0
 11
259.5
 21
162.800003
 31
0.0
  0
LINE
  5
1A119
  8
DANMEN
  6
CONTINUOUS
 10
241.75
 20
165.0
 30
0.0
 11
260.0
 21
165.0
 31
0.0
  0
LINE
  5
1A11A
  8
DANMEN
  6
CONTINUOUS
 10
244.793737
 20
160.500003
 30
0.0
 11
259.5
 21
160.500003
 31
0.0
  0
LINE
  5
1A11B
  8
DANMEN
  6
CONTINUOUS
 10
258.970291
 20
156.076893
 30
0.0
 11
262.5
 21
159.606602
 31
0.0
  0
LINE
  5
1A11C
  8
DANMEN
  6
CONTINUOUS
 10
259.258906
 20
158.486828
 30
0.0
 11
260.772078
 21
160.0
 31
0.0
  0
LINE
  5
1A11D
  8
DANMEN
  6
CONTINUOUS
 10
260.349242
 20
160.0
 30
0.0
 11
262.5
 21
157.849242
 31
0.0
  0
LINE
  5
1A11E
  8
DANMEN
  6
CONTINUOUS
 10
258.500005
 20
152.15
 30
0.0
 11
259.500005
 21
160.499998
 31
0.0
  0
LINE
  5
1A11F
  8
DANMEN
  6
CONTINUOUS
 10
259.286042
 20
152.150003
 30
0.0
 11
262.5
 21
155.363961
 31
0.0
  0
LINE
  5
1A120
  8
DANMEN
  6
CONTINUOUS
 10
258.681677
 20
153.666958
 30
0.0
 11
262.5
 21
157.485282
 31
0.0
  0
LINE
  5
1A121
  8
DANMEN
  6
CONTINUOUS
 10
258.62984
 20
153.234121
 30
0.0
 11
259.713958
 21
152.150003
 31
0.0
  0
LINE
  5
1A122
  8
DANMEN
  6
CONTINUOUS
 10
258.856719
 20
155.128562
 30
0.0
 11
261.835278
 21
152.150003
 31
0.0
  0
LINE
  5
1A123
  8
DANMEN
  6
CONTINUOUS
 10
259.083598
 20
157.023004
 30
0.0
 11
262.5
 21
153.606601
 31
0.0
  0
LINE
  5
1A124
  8
DANMEN
  6
CONTINUOUS
 10
259.310477
 20
158.917445
 30
0.0
 11
262.5
 21
155.727922
 31
0.0
  0
LINE
  5
1A125
  8
DANMEN
  6
CONTINUOUS
 10
261.407362
 20
152.150003
 30
0.0
 11
262.5
 21
153.242641
 31
0.0
  0
ARC
  5
1A126
  8
DANMEN
  6
CONTINUOUS
 10
260.5
 20
164.0
 30
0.0
 40
1.0
 50
90.0
 51
180.0
  0
ARC
  5
1A127
  8
DANMEN
  6
CONTINUOUS
 10
260.0
 20
160.5
 30
0.0
 40
0.5
 50
180.000019
 51
270.000001
  0
LINE
  5
1A128
  8
DANMEN
  6
CONTINUOUS
 10
260.0
 20
160.0
 30
0.0
 11
264.5
 21
160.0
 31
0.0
  0
LINE
  5
1A129
  8
DANMEN
  6
CONTINUOUS
 10
260.7
 20
161.0
 30
0.0
 11
264.0
 21
161.0
 31
0.0
  0
LINE
  5
1A12C
  8
DANMEN
  6
CONTINUOUS
 10
259.5
 20
164.0
 30
0.0
 11
259.5
 21
160.5
 31
0.0
  0
LINE
  5
1A12E
  8
DANMEN
  6
CONTINUOUS
 10
260.7
 20
163.050003
 30
0.0
 11
260.7
 21
161.0
 31
0.0
  0
LINE
  5
1A130
  8
DANMEN
  6
CONTINUOUS
 10
262.470563
 20
160.0
 30
0.0
 11
262.5
 21
159.970563
 31
0.0
  0
LINE
  5
1A131
  8
DANMEN
  6
CONTINUOUS
 10
264.5
 20
160.5
 30
0.0
 11
264.5
 21
160.0
 31
0.0
  0
ARC
  5
1A134
  8
DANMEN
  6
CONTINUOUS
 10
264.0
 20
160.5
 30
0.0
 40
0.5
 50
0.0
 51
89.999982
  0
LINE
  5
1A135
  8
DANMEN
  6
CONTINUOUS
 10
289.5
 20
127.0
 30
0.0
 11
303.0
 21
127.0
 31
0.0
  0
LINE
  5
1A136
  8
DANMEN
  6
CONTINUOUS
 10
297.550003
 20
150.0
 30
0.0
 11
302.550003
 21
150.0
 31
0.0
  0
LINE
  5
1A137
  8
DANMEN
  6
CONTINUOUS
 10
281.449997
 20
151.0
 30
0.0
 11
302.550003
 21
151.0
 31
0.0
  0
LINE
  5
1A138
  8
DANMEN
  6
CONTINUOUS
 10
291.449997
 20
128.949997
 30
0.0
 11
302.550003
 21
128.949997
 31
0.0
  0
LINE
  5
1A139
  8
DANMEN
  6
CONTINUOUS
 10
292.5
 20
163.050003
 30
0.0
 11
302.550003
 21
163.050003
 31
0.0
  0
LINE
  5
1A13A
  8
DANMEN
  6
CONTINUOUS
 10
274.499998
 20
138.0
 30
0.0
 11
274.499998
 21
154.0
 31
0.0
  0
LINE
  5
1A13B
  8
DANMEN
  6
CONTINUOUS
 10
281.449997
 20
150.0
 30
0.0
 11
281.449997
 21
128.949997
 31
0.0
  0
LINE
  5
1A13C
  8
DANMEN
  6
CONTINUOUS
 10
279.5
 20
150.0
 30
0.0
 11
279.5
 21
128.949997
 31
0.0
  0
LINE
  5
1A13D
  8
DANMEN
  6
CONTINUOUS
 10
291.449997
 20
149.050003
 30
0.0
 11
291.449997
 21
147.0
 31
0.0
  0
LINE
  5
1A13E
  8
DANMEN
  6
CONTINUOUS
 10
290.449997
 20
149.050003
 30
0.0
 11
290.449997
 21
147.5
 31
0.0
  0
LINE
  5
1A13F
  8
DANMEN
  6
CONTINUOUS
 10
274.5
 20
156.0
 30
0.0
 11
279.5
 21
136.0
 31
0.0
  0
LINE
  5
1A140
  8
DANMEN
  6
CONTINUOUS
 10
274.5
 20
136.0
 30
0.0
 11
274.5
 21
156.0
 31
0.0
  0
LINE
  5
1A141
  8
DANMEN
  6
CONTINUOUS
 10
279.5
 20
136.0
 30
0.0
 11
279.5
 21
149.0
 31
0.0
  0
LINE
  5
1A142
  8
DANMEN
  6
CONTINUOUS
 10
281.449997
 20
128.949997
 30
0.0
 11
290.449997
 21
128.949997
 31
0.0
  0
LINE
  5
1A143
  8
DANMEN
  6
CONTINUOUS
 10
279.5
 20
136.0
 30
0.0
 11
274.5
 21
136.0
 31
0.0
  0
LINE
  5
1A149
  8
DANMEN
  6
CONTINUOUS
 10
290.449997
 20
130.5
 30
0.0
 11
290.449997
 21
128.949997
 31
0.0
  0
LINE
  5
1A14A
  8
DANMEN
  6
CONTINUOUS
 10
291.449997
 20
131.0
 30
0.0
 11
291.449997
 21
128.949997
 31
0.0
  0
LINE
  5
1A14F
  8
DANMEN
  6
CONTINUOUS
 10
290.949997
 20
131.0
 30
0.0
 11
291.449997
 21
131.0
 31
0.0
  0
ARC
  5
1A152
  8
DANMEN
  6
CONTINUOUS
 10
290.949997
 20
130.5
 30
0.0
 40
0.5
 50
89.999982
 51
180.000019
  0
LINE
  5
1A153
  8
DANMEN
  6
CONTINUOUS
 10
290.949997
 20
147.0
 30
0.0
 11
291.449997
 21
147.0
 31
0.0
  0
ARC
  5
1A156
  8
DANMEN
  6
CONTINUOUS
 10
290.949997
 20
147.5
 30
0.0
 40
0.5
 50
180.000019
 51
270.000001
  0
LINE
  5
1A157
  8
DANMEN
  6
CONTINUOUS
 10
281.449997
 20
150.0
 30
0.0
 11
286.449997
 21
150.0
 31
0.0
  0
LINE
  5
1A158
  8
DANMEN
  6
CONTINUOUS
 10
281.449997
 20
163.050003
 30
0.0
 11
291.5
 21
163.050003
 31
0.0
  0
LINE
  5
1A159
  8
DANMEN
  6
CONTINUOUS
 10
279.5
 20
163.050003
 30
0.0
 11
279.5
 21
151.0
 31
0.0
  0
LINE
  5
1A15A
  8
DANMEN
  6
CONTINUOUS
 10
281.449997
 20
163.050003
 30
0.0
 11
281.449997
 21
151.0
 31
0.0
  0
LINE
  5
1A15B
  8
DANMEN
  6
CONTINUOUS
 10
279.5
 20
156.0
 30
0.0
 11
274.5
 21
156.0
 31
0.0
  0
LINE
  5
1A15D
  8
DANMEN
  6
CONTINUOUS
 10
279.5
 20
151.0
 30
0.0
 11
279.5
 21
156.0
 31
0.0
  0
LINE
  5
1A15E
  8
DANMEN
  6
CONTINUOUS
 10
277.5
 20
150.5
 30
0.0
 11
277.5
 21
149.550003
 31
0.0
  0
LINE
  5
1A15F
  8
DANMEN
  6
CONTINUOUS
 10
278.0
 20
151.0
 30
0.0
 11
279.5
 21
151.0
 31
0.0
  0
LINE
  5
1A160
  8
DANMEN
  6
CONTINUOUS
 10
278.0
 20
149.050003
 30
0.0
 11
278.5
 21
149.050003
 31
0.0
  0
LINE
  5
1A161
  8
DANMEN
  6
CONTINUOUS
 10
278.5
 20
150.0
 30
0.0
 11
279.5
 21
150.0
 31
0.0
  0
ARC
  5
1A165
  8
DANMEN
  6
CONTINUOUS
 10
278.0
 20
150.5
 30
0.0
 40
0.5
 50
89.999982
 51
180.000019
  0
LINE
  5
1A166
  8
DANMEN
  6
CONTINUOUS
 10
278.5
 20
150.0
 30
0.0
 11
278.5
 21
149.050003
 31
0.0
  0
ARC
  5
1A168
  8
DANMEN
  6
CONTINUOUS
 10
278.0
 20
149.550003
 30
0.0
 40
0.5
 50
180.000019
 51
270.000001
  0
LINE
  5
1A16F
  8
DANMEN
  6
CONTINUOUS
 10
277.0
 20
149.0
 30
0.0
 11
277.0
 21
151.0
 31
0.0
  0
LINE
  5
1A170
  8
DANMEN
  6
CONTINUOUS
 10
279.5
 20
149.0
 30
0.0
 11
277.0
 21
149.0
 31
0.0
  0
LINE
  5
1A171
  8
DANMEN
  6
CONTINUOUS
 10
279.5
 20
151.0
 30
0.0
 11
277.0
 21
151.0
 31
0.0
  0
LINE
  5
1A177
  8
DANMEN
  6
CONTINUOUS
 10
291.449997
 20
149.050003
 30
0.0
 11
297.550003
 21
149.050003
 31
0.0
  0
LINE
  5
1A178
  8
DANMEN
  6
CONTINUOUS
 10
286.449997
 20
149.050003
 30
0.0
 11
290.449997
 21
149.050003
 31
0.0
  0
LINE
  5
1A17B
  8
DANMEN
  6
CONTINUOUS
 10
286.449997
 20
150.0
 30
0.0
 11
286.449997
 21
149.050003
 31
0.0
  0
LINE
  5
1A180
  8
DANMEN
  6
CONTINUOUS
 10
297.550003
 20
150.0
 30
0.0
 11
297.550003
 21
149.050003
 31
0.0
  0
ARC
  5
1A181
  8
DANMEN
  6
CONTINUOUS
 10
292.0
 20
162.0
 30
0.0
 40
0.5
 50
180.0
 51
0.0
  0
LINE
  5
1A183
  8
DANMEN
  6
CONTINUOUS
 10
291.5
 20
163.050003
 30
0.0
 11
291.5
 21
162.0
 31
0.0
  0
LINE
  5
1A186
  8
DANMEN
  6
CONTINUOUS
 10
292.5
 20
163.050003
 30
0.0
 11
292.5
 21
162.0
 31
0.0
  0
LINE
  5
1A188
  8
DANMEN
  6
CONTINUOUS
 10
302.550003
 20
150.0
 30
0.0
 11
302.550003
 21
128.949997
 31
0.0
  0
LINE
  5
1A189
  8
DANMEN
  6
CONTINUOUS
 10
304.5
 20
137.5
 30
0.0
 11
322.25
 21
137.5
 31
0.0
  0
LINE
  5
1A18A
  8
DANMEN
  6
CONTINUOUS
 10
304.5
 20
140.5
 30
0.0
 11
322.25
 21
140.5
 31
0.0
  0
LINE
  5
1A18B
  8
DANMEN
  6
CONTINUOUS
 10
304.5
 20
145.5
 30
0.0
 11
320.115841
 21
145.5
 31
0.0
  0
LINE
  5
1A18C
  8
DANMEN
  6
CONTINUOUS
 10
304.5
 20
131.5
 30
0.0
 11
322.25
 21
131.5
 31
0.0
  0
LINE
  5
1A18F
  8
DANMEN
  6
CONTINUOUS
 10
304.5
 20
156.800003
 30
0.0
 11
322.25
 21
156.800003
 31
0.0
  0
LINE
  5
1A190
  8
DANMEN
  6
CONTINUOUS
 10
304.5
 20
159.800003
 30
0.0
 11
322.25
 21
159.800003
 31
0.0
  0
LINE
  5
1A191
  8
DANMEN
  6
CONTINUOUS
 10
304.5
 20
161.0
 30
0.0
 11
322.25
 21
161.0
 31
0.0
  0
LINE
  5
1A192
  8
DANMEN
  6
CONTINUOUS
 10
304.5
 20
151.0
 30
0.0
 11
322.25
 21
151.0
 31
0.0
  0
LINE
  5
1A193
  8
DANMEN
  6
CONTINUOUS
 10
302.550003
 20
163.050003
 30
0.0
 11
302.550003
 21
151.0
 31
0.0
  0
ARC
  5
1A196
  8
DANMEN
  6
CONTINUOUS
 10
303.5
 20
164.0
 30
0.0
 40
1.0
 50
0.0
 51
89.999982
  0
LINE
  5
1A19A
  8
SUNPO
  6
CONTINUOUS
 10
21.0
 20
177.0
 30
0.0
 11
21.0
 21
227.0
 31
0.0
  0
LINE
  5
1A19B
  8
DANMEN
  6
CONTINUOUS
 10
401.5
 20
158.0
 30
0.0
 11
377.5
 21
158.0
 31
0.0
  0
LINE
  5
1A19C
  8
DANMEN
  6
CONTINUOUS
 10
400.350006
 20
156.350006
 30
0.0
 11
393.649994
 21
156.350006
 31
0.0
  0
LINE
  5
1A19D
  8
DANMEN
  6
CONTINUOUS
 10
377.0
 20
158.0
 30
0.0
 11
357.0
 21
158.0
 31
0.0
  0
LINE
  5
1A19E
  8
DANMEN
  6
CONTINUOUS
 10
357.0
 20
161.000003
 30
0.0
 11
357.0
 21
156.800003
 31
0.0
  0
LINE
  5
1A1A0
  8
DANMEN
  6
CONTINUOUS
 10
352.600006
 20
159.800003
 30
0.0
 11
357.0
 21
159.800003
 31
0.0
  0
LINE
  5
1A1A1
  8
DANMEN
  6
CONTINUOUS
 10
352.600006
 20
161.000003
 30
0.0
 11
357.0
 21
161.000003
 31
0.0
  0
ARC
  5
1A1A6
  8
DANMEN
  6
CONTINUOUS
 10
352.600006
 20
160.399994
 30
0.0
 40
0.6
 50
89.999963
 51
269.999982
  0
LINE
  5
1A1A7
  8
DANMEN
  6
CONTINUOUS
 10
390.0
 20
156.350006
 30
0.0
 11
377.5
 21
156.350006
 31
0.0
  0
ARC
  5
1A1A8
  8
DANMEN
  6
CONTINUOUS
 10
377.5
 20
156.850006
 30
0.0
 40
0.5
 50
180.0
 51
270.0
  0
LINE
  5
1A1A9
  8
DANMEN
  6
CONTINUOUS
 10
377.0
 20
157.5
 30
0.0
 11
377.0
 21
156.850006
 31
0.0
  0
ARC
  5
1A1AA
  8
DANMEN
  6
CONTINUOUS
 10
377.5
 20
157.5
 30
0.0
 40
0.5
 50
90.000037
 51
180.000019
  0
LINE
  5
1A1AB
  8
DANMEN
  6
CONTINUOUS
 10
392.0
 20
156.800003
 30
0.0
 11
390.0
 21
156.800003
 31
0.0
  0
LINE
  5
1A1AC
  8
DANMEN
  6
CONTINUOUS
 10
390.0
 20
156.800003
 30
0.0
 11
390.0
 21
156.350006
 31
0.0
  0
TEXT
  5
1A1AD
  8
SUNPO
  6
CONTINUOUS
 10
56.178385
 20
170.500005
 30
0.0
 40
2.5
  1
38
  7
MX_NOTE_STANDARD
  0
LINE
  5
1A1AE
  8
SUNPO
  6
CONTINUOUS
 10
33.5
 20
167.0
 30
0.0
 11
21.0
 21
167.0
 31
0.0
  0
LINE
  5
1A1AF
  8
DANMEN
  6
CONTINUOUS
 10
402.0
 20
157.5
 30
0.0
 11
402.0
 21
152.5
 31
0.0
  0
LINE
  5
1A1B0
  8
DANMEN
  6
CONTINUOUS
 10
400.350006
 20
156.350006
 30
0.0
 11
400.350006
 21
152.5
 31
0.0
  0
LINE
  5
1A1B1
  8
DANMEN
  6
CONTINUOUS
 10
401.5
 20
152.0
 30
0.0
 11
400.850006
 21
152.0
 31
0.0
  0
ARC
  5
1A1B2
  8
DANMEN
  6
CONTINUOUS
 10
401.5
 20
152.5
 30
0.0
 40
0.5
 50
270.000018
 51
359.999981
  0
ARC
  5
1A1B3
  8
DANMEN
  6
CONTINUOUS
 10
400.850006
 20
152.5
 30
0.0
 40
0.5
 50
180.000019
 51
270.000001
  0
ARC
  5
1A1B4
  8
DANMEN
  6
CONTINUOUS
 10
401.5
 20
157.5
 30
0.0
 40
0.5
 50
0.0
 51
89.999982
  0
ARC
  5
1A1B5
  8
SUNPO
  6
BYBLOCK
 10
21.0
 20
167.0
 30
0.0
 40
0.145
 50
90.0
 51
270.0
  0
ARC
  5
1A1B6
  8
SUNPO
  6
BYBLOCK
 10
21.0
 20
167.0
 30
0.0
 40
0.145
 50
270.0
 51
90.0
  0
ARC
  5
1A1B7
  8
SUNPO
  6
BYBLOCK
 10
35.0
 20
169.500005
 30
0.0
 40
0.145
 50
180.0
 51
0.0
  0
ARC
  5
1A1B8
  8
SUNPO
  6
BYBLOCK
 10
35.0
 20
169.500005
 30
0.0
 40
0.145
 50
0.0
 51
180.0
  0
LINE
  5
1A1B9
  8
SUNPO
  6
CONTINUOUS
 10
35.0
 20
183.428279
 30
0.0
 11
29.013333
 21
183.428279
 31
0.0
  0
LINE
  5
1A1BA
  8
SUNPO
  6
CONTINUOUS
 10
33.5
 20
177.0
 30
0.0
 11
21.0
 21
177.0
 31
0.0
  0
ARC
  5
1A1BB
  8
SUNPO
  6
BYBLOCK
 10
21.0
 20
177.0
 30
0.0
 40
0.145
 50
270.0
 51
90.0
  0
ARC
  5
1A1BC
  8
SUNPO
  6
BYBLOCK
 10
21.0
 20
177.0
 30
0.0
 40
0.145
 50
90.0
 51
270.0
  0
TEXT
  5
1A1BD
  8
SUNPO
  6
CONTINUOUS
 10
30.013333
 20
184.428279
 30
0.0
 40
2.5
  1
7
  7
MX_NOTE_STANDARD
  0
TEXT
  5
1A1BE
  8
SUNPO
  6
CONTINUOUS
 10
20.0
 20
200.125
 30
0.0
 40
2.5
  1
50
 50
90.0
  7
MX_NOTE_STANDARD
  0
LINE
  5
1A1BF
  8
SUNPO
  6
CONTINUOUS
 10
42.0
 20
183.428279
 30
0.0
 11
35.0
 21
183.428279
 31
0.0
  0
ARC
  5
1A1C0
  8
SUNPO
  6
BYBLOCK
 10
35.0
 20
183.428279
 30
0.0
 40
0.145
 50
180.0
 51
0.0
  0
ARC
  5
1A1C1
  8
SUNPO
  6
BYBLOCK
 10
35.0
 20
183.428279
 30
0.0
 40
0.145
 50
0.0
 51
180.0
  0
LINE
  5
1A1C2
  8
SUNPO
  6
CONTINUOUS
 10
42.0
 20
193.550003
 30
0.0
 11
42.0
 21
183.428279
 31
0.0
  0
ARC
  5
1A1C3
  8
SUNPO
  6
BYBLOCK
 10
42.0
 20
183.428279
 30
0.0
 40
0.145
 50
0.0
 51
180.0
  0
ARC
  5
1A1C4
  8
SUNPO
  6
BYBLOCK
 10
42.0
 20
183.428279
 30
0.0
 40
0.145
 50
180.0
 51
0.0
  0
ARC
  5
1A1C5
  8
SUNPO
  6
BYBLOCK
 10
42.0
 20
183.428279
 30
0.0
 40
0.145
 50
180.0
 51
0.0
  0
ARC
  5
1A1C6
  8
SUNPO
  6
BYBLOCK
 10
42.0
 20
183.428279
 30
0.0
 40
0.145
 50
0.0
 51
180.0
  0
LINE
  5
1A1C7
  8
SUNPO
  6
CONTINUOUS
 10
40.5
 20
262.0
 30
0.0
 11
21.0
 21
262.0
 31
0.0
  0
LINE
  5
1A1C8
  8
SUNPO
  6
CONTINUOUS
 10
40.5
 20
227.0
 30
0.0
 11
21.0
 21
227.0
 31
0.0
  0
LINE
  5
1A1C9
  8
SUNPO
  6
CONTINUOUS
 10
21.0
 20
227.0
 30
0.0
 11
21.0
 21
262.0
 31
0.0
  0
ARC
  5
1A1CA
  8
SUNPO
  6
BYBLOCK
 10
21.0
 20
227.0
 30
0.0
 40
0.145
 50
270.0
 51
90.0
  0
ARC
  5
1A1CB
  8
SUNPO
  6
BYBLOCK
 10
21.0
 20
227.0
 30
0.0
 40
0.145
 50
90.0
 51
270.0
  0
ARC
  5
1A1CC
  8
SUNPO
  6
BYBLOCK
 10
21.0
 20
227.0
 30
0.0
 40
0.145
 50
90.0
 51
270.0
  0
ARC
  5
1A1CD
  8
SUNPO
  6
BYBLOCK
 10
21.0
 20
227.0
 30
0.0
 40
0.145
 50
270.0
 51
90.0
  0
TEXT
  5
1A1CE
  8
SUNPO
  6
CONTINUOUS
 10
20.0
 20
242.416667
 30
0.0
 40
2.5
  1
35
 50
90.0
  7
MX_NOTE_STANDARD
  0
ARC
  5
1A1CF
  8
SUNPO
  6
BYBLOCK
 10
21.0
 20
262.0
 30
0.0
 40
0.145
 50
90.0
 51
270.0
  0
ARC
  5
1A1D0
  8
SUNPO
  6
BYBLOCK
 10
21.0
 20
262.0
 30
0.0
 40
0.145
 50
270.0
 51
90.0
  0
LINE
  5
1A1D1
  8
SUNPO
  6
CONTINUOUS
 10
175.0
 20
167.527474
 30
0.0
 11
225.0
 21
167.527474
 31
0.0
  0
LINE
  5
1A1D2
  8
SUNPO
  6
CONTINUOUS
 10
156.0
 20
227.0
 30
0.0
 11
156.0
 21
172.0
 31
0.0
  0
LINE
  5
1A1D3
  8
SUNPO
  6
CONTINUOUS
 10
136.221192
 20
227.0
 30
0.0
 11
136.221192
 21
188.999997
 31
0.0
  0
LINE
  5
1A1D4
  8
SUNPO
  6
CONTINUOUS
 10
144.685645
 20
227.0
 30
0.0
 11
144.685645
 21
177.0
 31
0.0
  0
LINE
  5
1A1D5
  8
SUNPO
  6
CONTINUOUS
 10
120.499999
 20
135.000003
 30
0.0
 11
144.685645
 21
135.000003
 31
0.0
  0
LINE
  5
1A1D6
  8
SUNPO
  6
CONTINUOUS
 10
120.5
 20
135.000003
 30
0.0
 11
136.221192
 21
135.000003
 31
0.0
  0
LINE
  5
1A1D7
  8
SUNPO
  6
CONTINUOUS
 10
120.499999
 20
167.0
 30
0.0
 11
144.685645
 21
167.0
 31
0.0
  0
LINE
  5
1A1D8
  8
SUNPO
  6
CONTINUOUS
 10
120.5
 20
188.999997
 30
0.0
 11
136.221192
 21
188.999997
 31
0.0
  0
LINE
  5
1A1D9
  8
SUNPO
  6
CONTINUOUS
 10
120.499999
 20
177.0
 30
0.0
 11
144.685645
 21
177.0
 31
0.0
  0
TEXT
  5
1A1DA
  8
SUNPO
  6
CONTINUOUS
 10
76.166667
 20
170.500005
 30
0.0
 40
2.5
  1
8
  7
MX_NOTE_STANDARD
  0
TEXT
  5
1A1DB
  8
SUNPO
  6
CONTINUOUS
 10
97.916667
 20
170.500005
 30
0.0
 40
2.5
  1
38
  7
MX_NOTE_STANDARD
  0
LINE
  5
1A1DC
  8
SUNPO
  6
CONTINUOUS
 10
119.0
 20
169.500005
 30
0.0
 11
81.0
 21
169.500005
 31
0.0
  0
ARC
  5
1A1DD
  8
SUNPO
  6
BYBLOCK
 10
81.0
 20
169.500005
 30
0.0
 40
0.145
 50
180.0
 51
0.0
  0
ARC
  5
1A1DE
  8
SUNPO
  6
BYBLOCK
 10
81.0
 20
169.500005
 30
0.0
 40
0.145
 50
0.0
 51
180.0
  0
ARC
  5
1A1DF
  8
SUNPO
  6
BYBLOCK
 10
81.0
 20
169.500005
 30
0.0
 40
0.145
 50
0.0
 51
180.0
  0
ARC
  5
1A1E0
  8
SUNPO
  6
BYBLOCK
 10
81.0
 20
169.500005
 30
0.0
 40
0.145
 50
180.0
 51
0.0
  0
LINE
  5
1A1E1
  8
SUNPO
  6
CONTINUOUS
 10
81.0
 20
169.500005
 30
0.0
 11
73.0
 21
169.500005
 31
0.0
  0
ARC
  5
1A1E2
  8
SUNPO
  6
BYBLOCK
 10
73.0
 20
169.500005
 30
0.0
 40
0.145
 50
180.0
 51
0.0
  0
ARC
  5
1A1E3
  8
SUNPO
  6
BYBLOCK
 10
73.0
 20
169.500005
 30
0.0
 40
0.145
 50
0.0
 51
180.0
  0
ARC
  5
1A1E4
  8
SUNPO
  6
BYBLOCK
 10
73.0
 20
169.500005
 30
0.0
 40
0.145
 50
0.0
 51
180.0
  0
ARC
  5
1A1E5
  8
SUNPO
  6
BYBLOCK
 10
73.0
 20
169.500005
 30
0.0
 40
0.145
 50
180.0
 51
0.0
  0
ARC
  5
1A1E6
  8
SUNPO
  6
BYBLOCK
 10
119.0
 20
169.500005
 30
0.0
 40
0.145
 50
0.0
 51
180.0
  0
ARC
  5
1A1E7
  8
SUNPO
  6
BYBLOCK
 10
119.0
 20
169.500005
 30
0.0
 40
0.145
 50
180.0
 51
0.0
  0
TEXT
  5
1A1E8
  8
SUNPO
  6
CONTINUOUS
 10
76.807449
 20
184.428279
 30
0.0
 40
2.5
  1
70
  7
MX_NOTE_STANDARD
  0
LINE
  5
1A1E9
  8
SUNPO
  6
CONTINUOUS
 10
112.0
 20
208.849997
 30
0.0
 11
112.0
 21
183.428279
 31
0.0
  0
LINE
  5
1A1EA
  8
SUNPO
  6
CONTINUOUS
 10
119.0
 20
183.428279
 30
0.0
 11
112.0
 21
183.428279
 31
0.0
  0
ARC
  5
1A1EB
  8
SUNPO
  6
BYBLOCK
 10
112.0
 20
183.428279
 30
0.0
 40
0.145
 50
180.0
 51
0.0
  0
ARC
  5
1A1EC
  8
SUNPO
  6
BYBLOCK
 10
112.0
 20
183.428279
 30
0.0
 40
0.145
 50
0.0
 51
180.0
  0
ARC
  5
1A1ED
  8
SUNPO
  6
BYBLOCK
 10
112.0
 20
183.428279
 30
0.0
 40
0.145
 50
0.0
 51
180.0
  0
ARC
  5
1A1EE
  8
SUNPO
  6
BYBLOCK
 10
112.0
 20
183.428279
 30
0.0
 40
0.145
 50
180.0
 51
0.0
  0
LINE
  5
1A1EF
  8
SUNPO
  6
CONTINUOUS
 10
112.0
 20
187.0
 30
0.0
 11
112.0
 21
183.428279
 31
0.0
  0
LINE
  5
1A1F0
  8
SUNPO
  6
CONTINUOUS
 10
119.0
 20
182.5
 30
0.0
 11
119.0
 21
183.428279
 31
0.0
  0
TEXT
  5
1A1F1
  8
SUNPO
  6
CONTINUOUS
 10
114.666667
 20
184.428279
 30
0.0
 40
2.5
  1
7
  7
MX_NOTE_STANDARD
  0
ARC
  5
1A1F2
  8
SUNPO
  6
BYBLOCK
 10
119.0
 20
183.428279
 30
0.0
 40
0.145
 50
0.0
 51
180.0
  0
ARC
  5
1A1F3
  8
SUNPO
  6
BYBLOCK
 10
119.0
 20
183.428279
 30
0.0
 40
0.145
 50
180.0
 51
0.0
  0
TEXT
  5
1A1F4
  8
SUNPO
  6
CONTINUOUS
 10
172.666667
 20
168.527474
 30
0.0
 40
2.5
  1
3
  7
MX_NOTE_STANDARD
  0
LINE
  5
1A1F5
  8
SUNPO
  6
CONTINUOUS
 10
144.685645
 20
167.0
 30
0.0
 11
144.685645
 21
135.000003
 31
0.0
  0
ARC
  5
1A1F6
  8
SUNPO
  6
BYBLOCK
 10
136.221192
 20
135.000003
 30
0.0
 40
0.145
 50
90.0
 51
270.0
  0
ARC
  5
1A1F7
  8
SUNPO
  6
BYBLOCK
 10
136.221192
 20
135.000003
 30
0.0
 40
0.145
 50
270.0
 51
90.0
  0
ARC
  5
1A1F8
  8
SUNPO
  6
BYBLOCK
 10
144.685645
 20
135.000003
 30
0.0
 40
0.145
 50
90.0
 51
270.0
  0
ARC
  5
1A1F9
  8
SUNPO
  6
BYBLOCK
 10
144.685645
 20
135.000003
 30
0.0
 40
0.145
 50
270.0
 51
90.0
  0
ARC
  5
1A1FA
  8
SUNPO
  6
BYBLOCK
 10
144.685645
 20
135.000003
 30
0.0
 40
0.145
 50
270.0
 51
90.0
  0
ARC
  5
1A1FB
  8
SUNPO
  6
BYBLOCK
 10
144.685645
 20
135.000003
 30
0.0
 40
0.145
 50
90.0
 51
270.0
  0
TEXT
  5
1A1FC
  8
SUNPO
  6
CONTINUOUS
 10
143.685645
 20
148.916669
 30
0.0
 40
2.5
  1
32
 50
90.0
  7
MX_NOTE_STANDARD
  0
ARC
  5
1A1FD
  8
SUNPO
  6
BYBLOCK
 10
144.685645
 20
167.0
 30
0.0
 40
0.145
 50
90.0
 51
270.0
  0
ARC
  5
1A1FE
  8
SUNPO
  6
BYBLOCK
 10
144.685645
 20
167.0
 30
0.0
 40
0.145
 50
270.0
 51
90.0
  0
LINE
  5
1A1FF
  8
SUNPO
  6
CONTINUOUS
 10
152.0
 20
162.653991
 30
0.0
 11
152.0
 21
158.920944
 31
0.0
  0
LINE
  5
1A200
  8
SUNPO
  6
CONTINUOUS
 10
156.0
 20
160.641045
 30
0.0
 11
156.0
 21
155.141045
 31
0.0
  0
LINE
  5
1A201
  8
SUNPO
  6
CONTINUOUS
 10
160.0
 20
162.653991
 30
0.0
 11
160.0
 21
158.920944
 31
0.0
  0
LINE
  5
1A202
  8
SUNPO
  6
CONTINUOUS
 10
152.0
 20
155.141045
 30
0.0
 11
160.0
 21
155.141045
 31
0.0
  0
LINE
  5
1A203
  8
SUNPO
  6
CONTINUOUS
 10
152.0
 20
153.141045
 30
0.0
 11
160.0
 21
153.141045
 31
0.0
  0
LINE
  5
1A204
  8
SUNPO
  6
CONTINUOUS
 10
152.0
 20
156.541039
 30
0.0
 11
152.0
 21
151.343696
 31
0.0
  0
LINE
  5
1A205
  8
SUNPO
  6
CONTINUOUS
 10
160.0
 20
156.541039
 30
0.0
 11
160.0
 21
151.343696
 31
0.0
  0
LINE
  5
1A206
  8
SUNPO
  6
CONTINUOUS
 10
152.0
 20
160.641045
 30
0.0
 11
160.0
 21
160.641045
 31
0.0
  0
LINE
  5
1A207
  8
SUNPO
  6
CONTINUOUS
 10
154.799927
 20
168.656304
 30
0.0
 11
154.799927
 21
163.867761
 31
0.0
  0
LINE
  5
1A208
  8
SUNPO
  6
CONTINUOUS
 10
157.199921
 20
168.656304
 30
0.0
 11
157.199921
 21
163.867761
 31
0.0
  0
LINE
  5
1A20A
  8
SUNPO
  6
CONTINUOUS
 10
175.0
 20
159.5
 30
0.0
 11
175.0
 21
167.527474
 31
0.0
  0
LINE
  5
1A20B
  8
SUNPO
  6
CONTINUOUS
 10
172.0
 20
159.5
 30
0.0
 11
172.0
 21
167.527474
 31
0.0
  0
ARC
  5
1A20C
  8
SUNPO
  6
BYBLOCK
 10
172.0
 20
167.527474
 30
0.0
 40
0.145
 50
180.0
 51
0.0
  0
ARC
  5
1A20D
  8
SUNPO
  6
BYBLOCK
 10
172.0
 20
167.527474
 30
0.0
 40
0.145
 50
0.0
 51
180.0
  0
ARC
  5
1A20E
  8
SUNPO
  6
BYBLOCK
 10
175.0
 20
167.527474
 30
0.0
 40
0.145
 50
0.0
 51
180.0
  0
ARC
  5
1A20F
  8
SUNPO
  6
BYBLOCK
 10
175.0
 20
167.527474
 30
0.0
 40
0.145
 50
180.0
 51
0.0
  0
ARC
  5
1A210
  8
SUNPO
  6
BYBLOCK
 10
175.0
 20
167.527474
 30
0.0
 40
0.145
 50
180.0
 51
0.0
  0
ARC
  5
1A211
  8
SUNPO
  6
BYBLOCK
 10
175.0
 20
167.527474
 30
0.0
 40
0.145
 50
0.0
 51
180.0
  0
LINE
  5
1A212
  8
SUNPO
  6
CONTINUOUS
 10
172.0
 20
167.527474
 30
0.0
 11
175.0
 21
167.527474
 31
0.0
  0
ARC
  5
1A213
  8
SUNPO
  6
BYBLOCK
 10
144.685645
 20
177.0
 30
0.0
 40
0.145
 50
270.0
 51
90.0
  0
ARC
  5
1A214
  8
SUNPO
  6
BYBLOCK
 10
144.685645
 20
177.0
 30
0.0
 40
0.145
 50
90.0
 51
270.0
  0
ARC
  5
1A215
  8
SUNPO
  6
BYBLOCK
 10
136.221192
 20
188.999997
 30
0.0
 40
0.145
 50
270.0
 51
90.0
  0
ARC
  5
1A216
  8
SUNPO
  6
BYBLOCK
 10
136.221192
 20
188.999997
 30
0.0
 40
0.145
 50
90.0
 51
270.0
  0
TEXT
  5
1A217
  8
SUNPO
  6
CONTINUOUS
 10
143.685645
 20
200.125
 30
0.0
 40
2.5
  1
50
 50
90.0
  7
MX_NOTE_STANDARD
  0
TEXT
  5
1A218
  8
SUNPO
  6
CONTINUOUS
 10
135.221192
 20
205.916665
 30
0.0
 40
2.5
  1
38
 50
90.0
  7
MX_NOTE_STANDARD
  0
LINE
  5
1A219
  8
SUNPO
  6
CONTINUOUS
 10
113.5
 20
227.0
 30
0.0
 11
156.0
 21
227.0
 31
0.0
  0
LINE
  5
1A21A
  8
SUNPO
  6
CONTINUOUS
 10
113.5
 20
262.0
 30
0.0
 11
156.0
 21
262.0
 31
0.0
  0
LINE
  5
1A21B
  8
SUNPO
  6
CONTINUOUS
 10
156.0
 20
262.0
 30
0.0
 11
156.0
 21
227.0
 31
0.0
  0
ARC
  5
1A21C
  8
SUNPO
  6
BYBLOCK
 10
136.221192
 20
227.0
 30
0.0
 40
0.145
 50
90.0
 51
270.0
  0
ARC
  5
1A21D
  8
SUNPO
  6
BYBLOCK
 10
136.221192
 20
227.0
 30
0.0
 40
0.145
 50
270.0
 51
90.0
  0
ARC
  5
1A21E
  8
SUNPO
  6
BYBLOCK
 10
144.685645
 20
227.0
 30
0.0
 40
0.145
 50
90.0
 51
270.0
  0
ARC
  5
1A21F
  8
SUNPO
  6
BYBLOCK
 10
144.685645
 20
227.0
 30
0.0
 40
0.145
 50
270.0
 51
90.0
  0
LINE
  5
1A220
  8
SUNPO
  6
CONTINUOUS
 10
161.0
 20
222.0
 30
0.0
 11
151.0
 21
222.0
 31
0.0
  0
LINE
  5
1A221
  8
SUNPO
  6
CONTINUOUS
 10
151.0
 20
222.0
 30
0.0
 11
156.0
 21
227.0
 31
0.0
  0
LINE
  5
1A223
  8
SUNPO
  6
CONTINUOUS
 10
156.0
 20
227.0
 30
0.0
 11
161.0
 21
222.0
 31
0.0
  0
TEXT
  5
1A226
  8
SUNPO
  6
CONTINUOUS
 10
155.0
 20
242.416667
 30
0.0
 40
2.5
  1
35
 50
90.0
  7
MX_NOTE_STANDARD
  0
ARC
  5
1A227
  8
SUNPO
  6
BYBLOCK
 10
156.0
 20
262.0
 30
0.0
 40
0.145
 50
90.0
 51
270.0
  0
ARC
  5
1A228
  8
SUNPO
  6
BYBLOCK
 10
156.0
 20
262.0
 30
0.0
 40
0.145
 50
270.0
 51
90.0
  0
TEXT
  5
1A229
  8
SUNPO
  6
CONTINUOUS
 10
198.125
 20
168.527474
 30
0.0
 40
2.5
  1
50
  7
MX_NOTE_STANDARD
  0
LINE
  5
1A22A
  8
SUNPO
  6
CONTINUOUS
 10
203.500001
 20
158.0
 30
0.0
 11
244.793737
 21
158.0
 31
0.0
  0
ARC
  5
1A22B
  8
SUNPO
  6
BYBLOCK
 10
225.0
 20
167.527474
 30
0.0
 40
0.145
 50
0.0
 51
180.0
  0
ARC
  5
1A22C
  8
SUNPO
  6
BYBLOCK
 10
225.0
 20
167.527474
 30
0.0
 40
0.145
 50
180.0
 51
0.0
  0
LINE
  5
1A22D
  8
SUNPO
  6
CONTINUOUS
 10
225.0
 20
166.5
 30
0.0
 11
225.0
 21
167.527474
 31
0.0
  0
LINE
  5
1A22E
  8
SUNPO
  6
CONTINUOUS
 10
244.793737
 20
165.0
 30
0.0
 11
244.793737
 21
158.0
 31
0.0
  0
ARC
  5
1A22F
  8
SUNPO
  6
BYBLOCK
 10
244.793737
 20
158.0
 30
0.0
 40
0.145
 50
90.0
 51
270.0
  0
ARC
  5
1A230
  8
SUNPO
  6
BYBLOCK
 10
244.793737
 20
158.0
 30
0.0
 40
0.145
 50
270.0
 51
90.0
  0
ARC
  5
1A231
  8
SUNPO
  6
BYBLOCK
 10
244.793737
 20
158.0
 30
0.0
 40
0.145
 50
270.0
 51
90.0
  0
ARC
  5
1A232
  8
SUNPO
  6
BYBLOCK
 10
244.793737
 20
158.0
 30
0.0
 40
0.145
 50
90.0
 51
270.0
  0
ARC
  5
1A233
  8
SUNPO
  6
BYBLOCK
 10
244.793737
 20
165.0
 30
0.0
 40
0.145
 50
90.0
 51
270.0
  0
ARC
  5
1A234
  8
SUNPO
  6
BYBLOCK
 10
244.793737
 20
165.0
 30
0.0
 40
0.145
 50
270.0
 51
90.0
  0
TEXT
  5
1A235
  8
SUNPO
  6
CONTINUOUS
 10
243.793737
 20
160.666667
 30
0.0
 40
2.5
  1
7
 50
90.0
  7
MX_NOTE_STANDARD
  0
TEXT
  5
1A236
  8
SUNPO
  6
CONTINUOUS
 10
323.468739
 20
143.916667
 30
0.0
 40
2.5
  1
38
 50
90.0
  7
MX_NOTE_STANDARD
  0
LINE
  5
1A237
  8
SUNPO
  6
CONTINUOUS
 10
324.468739
 20
165.0
 30
0.0
 11
324.468739
 21
127.0
 31
0.0
  0
LINE
  5
1A238
  8
SUNPO
  6
CONTINUOUS
 10
305.999997
 20
127.0
 30
0.0
 11
324.468739
 21
127.0
 31
0.0
  0
ARC
  5
1A239
  8
SUNPO
  6
BYBLOCK
 10
324.468739
 20
127.0
 30
0.0
 40
0.145
 50
90.0
 51
270.0
  0
ARC
  5
1A23A
  8
SUNPO
  6
BYBLOCK
 10
324.468739
 20
127.0
 30
0.0
 40
0.145
 50
270.0
 51
90.0
  0
ARC
  5
1A23B
  8
SUNPO
  6
BYBLOCK
 10
324.468739
 20
127.0
 30
0.0
 40
0.145
 50
270.0
 51
90.0
  0
ARC
  5
1A23C
  8
SUNPO
  6
BYBLOCK
 10
324.468739
 20
127.0
 30
0.0
 40
0.145
 50
90.0
 51
270.0
  0
LINE
  5
1A23D
  8
SUNPO
  6
CONTINUOUS
 10
305.999997
 20
165.0
 30
0.0
 11
324.468739
 21
165.0
 31
0.0
  0
ARC
  5
1A23E
  8
SUNPO
  6
BYBLOCK
 10
324.468739
 20
165.0
 30
0.0
 40
0.145
 50
90.0
 51
270.0
  0
ARC
  5
1A23F
  8
SUNPO
  6
BYBLOCK
 10
324.468739
 20
165.0
 30
0.0
 40
0.145
 50
270.0
 51
90.0
  0
LINE
  5
1A240
  8
SUNPO
  6
CONTINUOUS
 10
377.0
 20
167.527474
 30
0.0
 11
402.0
 21
167.527474
 31
0.0
  0
TEXT
  5
1A241
  8
SUNPO
  6
CONTINUOUS
 10
387.416667
 20
168.527474
 30
0.0
 40
2.5
  1
25
  7
MX_NOTE_STANDARD
  0
TEXT
  5
1A242
  8
SUNPO
  6
CONTINUOUS
 10
355.125
 20
168.527474
 30
0.0
 40
2.5
  1
20
  7
MX_NOTE_STANDARD
  0
TEXT
  5
1A243
  8
SUNPO
  6
CONTINUOUS
 10
370.541667
 20
168.527474
 30
0.0
 40
2.5
  1
10
  7
MX_NOTE_STANDARD
  0
LINE
  5
1A244
  8
SUNPO
  6
CONTINUOUS
 10
347.0
 20
167.527474
 30
0.0
 11
367.0
 21
167.527474
 31
0.0
  0
LINE
  5
1A245
  8
SUNPO
  6
CONTINUOUS
 10
347.0
 20
162.5
 30
0.0
 11
347.0
 21
167.527474
 31
0.0
  0
ARC
  5
1A246
  8
SUNPO
  6
BYBLOCK
 10
347.0
 20
167.527474
 30
0.0
 40
0.145
 50
180.0
 51
0.0
  0
ARC
  5
1A247
  8
SUNPO
  6
BYBLOCK
 10
347.0
 20
167.527474
 30
0.0
 40
0.145
 50
0.0
 51
180.0
  0
LINE
  5
1A248
  8
SUNPO
  6
CONTINUOUS
 10
367.0
 20
167.527474
 30
0.0
 11
377.0
 21
167.527474
 31
0.0
  0
LINE
  5
1A249
  8
SUNPO
  6
CONTINUOUS
 10
367.0
 20
159.5
 30
0.0
 11
367.0
 21
167.527474
 31
0.0
  0
LINE
  5
1A24A
  8
SUNPO
  6
CONTINUOUS
 10
367.0
 20
159.5
 30
0.0
 11
367.0
 21
167.527474
 31
0.0
  0
ARC
  5
1A24B
  8
SUNPO
  6
BYBLOCK
 10
367.0
 20
167.527474
 30
0.0
 40
0.145
 50
180.0
 51
0.0
  0
ARC
  5
1A24C
  8
SUNPO
  6
BYBLOCK
 10
367.0
 20
167.527474
 30
0.0
 40
0.145
 50
0.0
 51
180.0
  0
ARC
  5
1A24D
  8
SUNPO
  6
BYBLOCK
 10
367.0
 20
167.527474
 30
0.0
 40
0.145
 50
0.0
 51
180.0
  0
ARC
  5
1A24E
  8
SUNPO
  6
BYBLOCK
 10
367.0
 20
167.527474
 30
0.0
 40
0.145
 50
180.0
 51
0.0
  0
LINE
  5
1A24F
  8
SUNPO
  6
CONTINUOUS
 10
377.0
 20
159.5
 30
0.0
 11
377.0
 21
167.527474
 31
0.0
  0
LINE
  5
1A250
  8
SUNPO
  6
CONTINUOUS
 10
377.0
 20
159.5
 30
0.0
 11
377.0
 21
167.527474
 31
0.0
  0
ARC
  5
1A251
  8
SUNPO
  6
BYBLOCK
 10
377.0
 20
167.527474
 30
0.0
 40
0.145
 50
0.0
 51
180.0
  0
ARC
  5
1A252
  8
SUNPO
  6
BYBLOCK
 10
377.0
 20
167.527474
 30
0.0
 40
0.145
 50
180.0
 51
0.0
  0
ARC
  5
1A253
  8
SUNPO
  6
BYBLOCK
 10
377.0
 20
167.527474
 30
0.0
 40
0.145
 50
180.0
 51
0.0
  0
ARC
  5
1A254
  8
SUNPO
  6
BYBLOCK
 10
377.0
 20
167.527474
 30
0.0
 40
0.145
 50
0.0
 51
180.0
  0
LINE
  5
1A255
  8
SUNPO
  6
CONTINUOUS
 10
402.0
 20
159.5
 30
0.0
 11
402.0
 21
167.527474
 31
0.0
  0
ARC
  5
1A256
  8
SUNPO
  6
BYBLOCK
 10
402.0
 20
167.527474
 30
0.0
 40
0.145
 50
0.0
 51
180.0
  0
ARC
  5
1A257
  8
SUNPO
  6
BYBLOCK
 10
402.0
 20
167.527474
 30
0.0
 40
0.145
 50
180.0
 51
0.0
  0
LINE
  5
1A32B
  8
DANMEN
  6
CONTINUOUS
 10
72.499995
 20
68.000005
 30
0.0
 11
70.800003
 21
68.000005
 31
0.0
  0
LINE
  5
1A332
  8
DANMEN
  6
CONTINUOUS
 10
68.850006
 20
67.999999
 30
0.0
 11
68.850006
 21
53.5
 31
0.0
  0
LINE
  5
1A333
  8
DANMEN
  6
CONTINUOUS
 10
70.800003
 20
68.000005
 30
0.0
 11
70.800003
 21
53.5
 31
0.0
  0
ARC
  5
1A334
  8
DANMEN
  6
CONTINUOUS
 10
70.300003
 20
53.5
 30
0.0
 40
0.5
 50
269.999999
 51
359.999981
  0
ARC
  5
1A335
  8
DANMEN
  6
CONTINUOUS
 10
69.350006
 20
53.5
 30
0.0
 40
0.5
 50
180.0
 51
269.999982
  0
LINE
  5
1A336
  8
DANMEN
  6
CONTINUOUS
 10
70.300003
 20
53.0
 30
0.0
 11
69.350006
 21
53.0
 31
0.0
  0
ENDSEC
  0
EOF
