  0
SECTION
  2
HEADER
  9
$ACADVER
  1
AC1009
  9
$INSBASE
 10
0.0
 20
0.0
 30
0.0
  9
$EXTMIN
 10
4.986803
 20
4.971933
 30
-0.001526
  9
$EXTMAX
 10
415.019075
 20
292.013444
 30
0.0
  9
$LIMMIN
 10
-210.0
 20
-148.5
  9
$LIMMAX
 10
210.0
 20
148.5
  9
$ORTHOMODE
 70
     0
  9
$REGENMODE
 70
     1
  9
$FILLMODE
 70
     1
  9
$QTEXTMODE
 70
     0
  9
$MIRRTEXT
 70
     1
  9
$DRAGMODE
 70
     2
  9
$LTSCALE
 40
0.5
  9
$OSMODE
 70
   239
  9
$ATTMODE
 70
     1
  9
$TEXTSIZE
 40
0.2
  9
$TRACEWID
 40
0.05
  9
$TEXTSTYLE
  7
MX_NOTE_STANDARD
  9
$CLAYER
  8
0
  9
$CELTYPE
  6
CONTINUOUS
  9
$CECOLOR
 62
   256
  9
$DIMSCALE
 40
1.0
  9
$DIMASZ
 40
2.5
  9
$DIMEXO
 40
1.5
  9
$DIMDLI
 40
3.75
  9
$DIMRND
 40
0.0
  9
$DIMDLE
 40
0.0
  9
$DIMEXE
 40
0.0
  9
$DIMTP
 40
0.0
  9
$DIMTM
 40
0.0
  9
$DIMTXT
 40
2.5
  9
$DIMCEN
 40
2.5
  9
$DIMTSZ
 40
0.0
  9
$DIMTOL
 70
     0
  9
$DIMLIM
 70
     0
  9
$DIMTIH
 70
     0
  9
$DIMTOH
 70
     0
  9
$DIMSE1
 70
     0
  9
$DIMSE2
 70
     0
  9
$DIMTAD
 70
     1
  9
$DIMZIN
 70
     8
  9
$DIMBLK
  1

  9
$DIMASO
 70
     1
  9
$DIMSHO
 70
     1
  9
$DIMPOST
  1

  9
$DIMAPOST
  1

  9
$DIMALT
 70
     0
  9
$DIMALTD
 70
     4
  9
$DIMALTF
 40
0.0394
  9
$DIMLFAC
 40
1.0
  9
$DIMTOFL
 70
     1
  9
$DIMTVP
 40
0.0
  9
$DIMTIX
 70
     0
  9
$DIMSOXD
 70
     0
  9
$DIMSAH
 70
     0
  9
$DIMBLK1
  1

  9
$DIMBLK2
  1

  9
$DIMSTYLE
  2
MXDIMSTYLE
  9
$DIMCLRD
 70
     0
  9
$DIMCLRE
 70
     0
  9
$DIMCLRT
 70
     0
  9
$DIMTFAC
 40
1.0
  9
$DIMGAP
 40
1.0
  9
$LUNITS
 70
     2
  9
$LUPREC
 70
     4
  9
$SKETCHINC
 40
0.1
  9
$FILLETRAD
 40
0.0
  9
$AUNITS
 70
     0
  9
$AUPREC
 70
     0
  9
$MENU
  1
acad
  9
$ELEVATION
 40
0.0
  9
$PELEVATION
 40
0.0
  9
$THICKNESS
 40
0.0
  9
$LIMCHECK
 70
     0
  9
$BLIPMODE
 70
     0
  9
$CHAMFERA
 40
0.0
  9
$CHAMFERB
 40
0.0
  9
$SKPOLY
 70
     0
  9
$TDCREATE
 40
2452006.37162
  9
$TDUPDATE
 40
2452137.870442
  9
$TDINDWG
 40
0.083759
  9
$TDUSRTIMER
 40
0.083758
  9
$USRTIMER
 70
     1
  9
$ANGBASE
 50
0.0
  9
$ANGDIR
 70
     0
  9
$PDMODE
 70
     3
  9
$PDSIZE
 40
-100.0
  9
$PLINEWID
 40
0.0
  9
$COORDS
 70
     0
  9
$SPLFRAME
 70
     0
  9
$SPLINETYPE
 70
     6
  9
$SPLINESEGS
 70
     8
  9
$ATTDIA
 70
     0
  9
$ATTREQ
 70
     1
  9
$HANDLING
 70
     1
  9
$HANDSEED
  5
1CBF3
  9
$SURFTAB1
 70
     6
  9
$SURFTAB2
 70
     6
  9
$SURFTYPE
 70
     6
  9
$SURFU
 70
     6
  9
$SURFV
 70
     6
  9
$UCSNAME
  2

  9
$UCSORG
 10
0.0
 20
0.0
 30
0.0
  9
$UCSXDIR
 10
1.0
 20
0.0
 30
0.0
  9
$UCSYDIR
 10
0.0
 20
1.0
 30
0.0
  9
$PUCSNAME
  2

  9
$PUCSORG
 10
0.0
 20
0.0
 30
0.0
  9
$PUCSXDIR
 10
1.0
 20
0.0
 30
0.0
  9
$PUCSYDIR
 10
0.0
 20
1.0
 30
0.0
  9
$USERI1
 70
     0
  9
$USERI2
 70
     0
  9
$USERI3
 70
     0
  9
$USERI4
 70
     0
  9
$USERI5
 70
     0
  9
$USERR1
 40
0.0
  9
$USERR2
 40
0.0
  9
$USERR3
 40
0.0
  9
$USERR4
 40
0.0
  9
$USERR5
 40
0.0
  9
$WORLDVIEW
 70
     1
  9
$SHADEDGE
 70
     3
  9
$SHADEDIF
 70
    70
  9
$TILEMODE
 70
     1
  9
$MAXACTVP
 70
    16
  9
$PLIMCHECK
 70
     0
  9
$PEXTMIN
 10
1.000000E+020
 20
1.000000E+020
 30
1.000000E+020
  9
$PEXTMAX
 10
-1.000000E+020
 20
-1.000000E+020
 30
-1.000000E+020
  9
$PLIMMIN
 10
0.0
 20
0.0
  9
$PLIMMAX
 10
12.0
 20
9.0
  9
$UNITMODE
 70
     0
  9
$VISRETAIN
 70
     0
  9
$PLINEGEN
 70
     1
  9
$PSLTSCALE
 70
     0
  0
ENDSEC
  0
SECTION
  2
TABLES
  0
TABLE
  2
VPORT
 70
     2
  0
VPORT
  2
*ACTIVE
 70
     0
 10
0.0
 20
0.0
 11
1.0
 21
1.0
 12
210.002939
 22
148.492688
 13
0.0
 23
0.0
 14
1.0
 24
1.0
 15
0.0
 25
0.0
 16
0.0
 26
0.0
 36
1.0
 17
0.0
 27
0.0
 37
0.0
 40
290.242718
 41
1.867784
 42
50.0
 43
0.0
 44
0.0
 50
0.0
 51
0.0
 71
     0
 72
   100
 73
     1
 74
     0
 75
     0
 76
     0
 77
     0
 78
     0
  0
ENDTAB
  0
TABLE
  2
LTYPE
 70
     4
  0
LTYPE
  2
CONTINUOUS
 70
     0
  3
Solid line
 72
    65
 73
     0
 40
0.0
  0
LTYPE
  2
DASHED
 70
     0
  3
Dashed __ __ __ __ __ __ __ __ __ __ __ __ __ _
 72
    65
 73
     2
 40
19.05
 49
12.7
 49
-6.35
  0
LTYPE
  2
CENTER
 70
     0
  3
Center ____ _ ____ _ ____ _ ____ _ ____ _ ____
 72
    65
 73
     4
 40
50.8
 49
31.75
 49
-6.35
 49
6.35
 49
-6.35
  0
LTYPE
  2
PHANTOM
 70
     0
  3
Phantom ______  __  __  ______  __  __  ______
 72
    65
 73
     6
 40
63.5
 49
31.75
 49
-6.35
 49
6.35
 49
-6.35
 49
6.35
 49
-6.35
  0
ENDTAB
  0
TABLE
  2
LAYER
 70
     4
  0
LAYER
  2
0
 70
     0
 62
     7
  6
CONTINUOUS
  0
LAYER
  2
SUNPO
 70
     0
 62
     1
  6
CONTINUOUS
  0
LAYER
  2
DANMEN
 70
     0
 62
     7
  6
CONTINUOUS
  0
LAYER
  2
WAKU
 70
     0
 62
     3
  6
CONTINUOUS
  0
ENDTAB
  0
TABLE
  2
STYLE
 70
     2
  0
STYLE
  2
STANDARD
 70
     0
 40
0.0
 41
1.0
 50
0.0
 71
     0
 42
0.2
  3
txt.shx
  4
extfont.shx
  0
STYLE
  2
MX_NOTE_STANDARD
 70
     0
 40
2.5
 41
1.0
 50
0.0
 71
     0
 42
2.5
  3
txt.shx
  4
extfont.shx
  0
ENDTAB
  0
TABLE
  2
VIEW
 70
     0
  0
ENDTAB
  0
TABLE
  2
UCS
 70
     0
  0
ENDTAB
  0
TABLE
  2
APPID
 70
     1
  0
APPID
  2
ACAD
 70
     0
  0
ENDTAB
  0
TABLE
  2
DIMSTYLE
 70
     1
  0
DIMSTYLE
  2
MXDIMSTYLE
 70
     0
  3

  4

  5

  6

  7

 40
1.0
 41
2.5
 42
1.5
 43
3.75
 44
0.0
 45
0.0
 46
0.0
 47
0.0
 48
0.0
140
2.5
141
2.5
142
0.0
143
0.0394
144
1.0
145
0.0
146
1.0
147
1.0
 71
     0
 72
     0
 73
     0
 74
     0
 75
     0
 76
     0
 77
     1
 78
     8
170
     0
171
     4
172
     1
173
     0
174
     0
175
     0
176
     0
177
     0
178
     0
  0
ENDTAB
  0
ENDSEC
  0
SECTION
  2
BLOCKS
  0
BLOCK
  8
0
  2
$MODEL_SPACE
 70
     0
 10
0.0
 20
0.0
 30
0.0
  3
$MODEL_SPACE
  1

  0
ENDBLK
  5
1C693
  8
0
  0
BLOCK
 67
     1
  8
0
  2
$PAPER_SPACE
 70
     0
 10
0.0
 20
0.0
 30
0.0
  3
$PAPER_SPACE
  1

  0
ENDBLK
  5
1C691
 67
     1
  8
0
  0
BLOCK
  8
0
  2
*U0
 70
     1
 10
0.0
 20
0.0
 30
0.0
  3
*U0
  1

  0
SOLID
  5
DA5C
  8
WAKU
  6
CONTINUOUS
 10
371.305142
 20
283.605291
 30
0.0
 11
370.499782
 21
283.530361
 31
0.0
 12
370.874987
 22
283.520449
 32
0.0
 13
370.874987
 23
283.520449
 33
0.0
  0
SOLID
  5
DA5D
  8
WAKU
  6
CONTINUOUS
 10
370.193309
 20
283.634664
 30
0.0
 11
370.499782
 21
283.530361
 31
0.0
 12
371.305142
 22
283.605291
 32
0.0
 13
371.305142
 23
283.605291
 33
0.0
  0
SOLID
  5
DA5E
  8
WAKU
  6
CONTINUOUS
 10
371.774448
 20
283.781773
 30
0.0
 11
370.193309
 21
283.634664
 31
0.0
 12
371.305142
 22
283.605291
 32
0.0
 13
371.305142
 23
283.605291
 33
0.0
  0
SOLID
  5
DA5F
  8
WAKU
  6
CONTINUOUS
 10
369.966824
 20
283.829526
 30
0.0
 11
370.193309
 21
283.634664
 31
0.0
 12
371.774448
 22
283.781773
 32
0.0
 13
371.774448
 23
283.781773
 33
0.0
  0
SOLID
  5
DA60
  8
WAKU
  6
CONTINUOUS
 10
370.594177
 20
283.909498
 30
0.0
 11
369.966824
 21
283.829526
 31
0.0
 12
371.774448
 22
283.781773
 32
0.0
 13
371.774448
 23
283.781773
 33
0.0
  0
SOLID
  5
DA61
  8
WAKU
  6
CONTINUOUS
 10
370.901294
 20
283.914863
 30
0.0
 11
370.594177
 21
283.909498
 31
0.0
 12
371.774448
 22
283.781773
 32
0.0
 13
371.774448
 23
283.781773
 33
0.0
  0
SOLID
  5
DA62
  8
WAKU
  6
CONTINUOUS
 10
370.392927
 20
283.968568
 30
0.0
 11
369.966824
 21
283.829526
 31
0.0
 12
370.594177
 22
283.909498
 32
0.0
 13
370.594177
 23
283.909498
 33
0.0
  0
SOLID
  5
DA63
  8
WAKU
  6
CONTINUOUS
 10
371.296984
 20
284.010368
 30
0.0
 11
370.901294
 21
283.914863
 31
0.0
 12
371.774448
 22
283.781773
 32
0.0
 13
371.774448
 23
283.781773
 33
0.0
  0
SOLID
  5
DA64
  8
WAKU
  6
CONTINUOUS
 10
372.265666
 20
284.043411
 30
0.0
 11
371.296984
 21
284.010368
 31
0.0
 12
371.774448
 22
283.781773
 32
0.0
 13
371.774448
 23
283.781773
 33
0.0
  0
SOLID
  5
DA65
  8
WAKU
  6
CONTINUOUS
 10
370.275177
 20
284.066476
 30
0.0
 11
369.966824
 21
283.829526
 31
0.0
 12
370.392927
 22
283.968568
 32
0.0
 13
370.392927
 23
283.968568
 33
0.0
  0
SOLID
  5
DA66
  8
WAKU
  6
CONTINUOUS
 10
369.828646
 20
284.107791
 30
0.0
 11
369.966824
 21
283.829526
 31
0.0
 12
370.275177
 22
284.066476
 32
0.0
 13
370.275177
 23
284.066476
 33
0.0
  0
SOLID
  5
DA67
  8
WAKU
  6
CONTINUOUS
 10
370.709458
 20
284.142397
 30
0.0
 11
369.828646
 21
284.107791
 31
0.0
 12
370.275177
 22
284.066476
 32
0.0
 13
370.275177
 23
284.066476
 33
0.0
  0
SOLID
  5
DA68
  8
WAKU
  6
CONTINUOUS
 10
371.751882
 20
284.202798
 30
0.0
 11
371.296984
 21
284.010368
 31
0.0
 12
372.265666
 22
284.043411
 32
0.0
 13
372.265666
 23
284.043411
 33
0.0
  0
SOLID
  5
DA69
  8
WAKU
  6
CONTINUOUS
 10
369.550381
 20
284.245969
 30
0.0
 11
369.828646
 21
284.107791
 31
0.0
 12
370.709458
 22
284.142397
 32
0.0
 13
370.709458
 23
284.142397
 33
0.0
  0
SOLID
  5
DA6A
  8
WAKU
  6
CONTINUOUS
 10
371.186428
 20
284.314625
 30
0.0
 11
369.550381
 21
284.245969
 31
0.0
 12
370.709458
 22
284.142397
 32
0.0
 13
370.709458
 23
284.142397
 33
0.0
  0
SOLID
  5
DA6B
  8
WAKU
  6
CONTINUOUS
 10
372.760756
 20
284.380595
 30
0.0
 11
371.751882
 21
284.202798
 31
0.0
 12
372.265666
 22
284.043411
 32
0.0
 13
372.265666
 23
284.043411
 33
0.0
  0
SOLID
  5
DA6C
  8
WAKU
  6
CONTINUOUS
 10
370.172911
 20
284.451856
 30
0.0
 11
369.550381
 21
284.245969
 31
0.0
 12
371.186428
 22
284.314625
 32
0.0
 13
371.186428
 23
284.314625
 33
0.0
  0
SOLID
  5
DA6D
  8
WAKU
  6
CONTINUOUS
 10
369.355518
 20
284.472454
 30
0.0
 11
369.550381
 21
284.245969
 31
0.0
 12
370.172911
 22
284.451856
 32
0.0
 13
370.172911
 23
284.451856
 33
0.0
  0
SOLID
  5
DA6E
  8
WAKU
  6
CONTINUOUS
 10
372.237497
 20
284.486117
 30
0.0
 11
371.751882
 21
284.202798
 31
0.0
 12
372.760756
 22
284.380595
 32
0.0
 13
372.760756
 23
284.380595
 33
0.0
  0
SOLID
  5
DA6F
  8
WAKU
  6
CONTINUOUS
 10
370.681395
 20
284.539195
 30
0.0
 11
370.172911
 21
284.451856
 31
0.0
 12
371.186428
 22
284.314625
 32
0.0
 13
371.186428
 23
284.314625
 33
0.0
  0
SOLID
  5
DA70
  8
WAKU
  6
CONTINUOUS
 10
369.787305
 20
284.553935
 30
0.0
 11
369.355518
 21
284.472454
 31
0.0
 12
370.172911
 22
284.451856
 32
0.0
 13
370.172911
 23
284.451856
 33
0.0
  0
SOLID
  5
DA71
  8
WAKU
  6
CONTINUOUS
 10
371.68777
 20
284.576545
 30
0.0
 11
370.681395
 21
284.539195
 31
0.0
 12
371.186428
 22
284.314625
 32
0.0
 13
371.186428
 23
284.314625
 33
0.0
  0
SOLID
  5
DA72
  8
WAKU
  6
CONTINUOUS
 10
369.689155
 20
284.672435
 30
0.0
 11
369.355518
 21
284.472454
 31
0.0
 12
369.787305
 22
284.553935
 32
0.0
 13
369.787305
 23
284.553935
 33
0.0
  0
SOLID
  5
DA73
  8
WAKU
  6
CONTINUOUS
 10
369.251215
 20
284.778928
 30
0.0
 11
369.355518
 21
284.472454
 31
0.0
 12
369.689155
 22
284.672435
 32
0.0
 13
369.689155
 23
284.672435
 33
0.0
  0
SOLID
  5
DA74
  8
WAKU
  6
CONTINUOUS
 10
373.241532
 20
284.780941
 30
0.0
 11
372.237497
 21
284.486117
 31
0.0
 12
372.760756
 22
284.380595
 32
0.0
 13
372.760756
 23
284.380595
 33
0.0
  0
SOLID
  5
DA75
  8
WAKU
  6
CONTINUOUS
 10
371.312263
 20
284.810332
 30
0.0
 11
370.681395
 21
284.539195
 31
0.0
 12
371.68777
 22
284.576545
 32
0.0
 13
371.68777
 23
284.576545
 33
0.0
  0
SOLID
  5
DA76
  8
WAKU
  6
CONTINUOUS
 10
369.630358
 20
284.873087
 30
0.0
 11
369.251215
 21
284.778928
 31
0.0
 12
369.689155
 22
284.672435
 32
0.0
 13
369.689155
 23
284.672435
 33
0.0
  0
SOLID
  5
DA77
  8
WAKU
  6
CONTINUOUS
 10
372.194232
 20
284.918099
 30
0.0
 11
371.312263
 21
284.810332
 31
0.0
 12
371.68777
 22
284.576545
 32
0.0
 13
371.68777
 23
284.576545
 33
0.0
  0
SOLID
  5
DA78
  8
WAKU
  6
CONTINUOUS
 10
370.260168
 20
284.959969
 30
0.0
 11
369.787305
 21
284.553935
 31
0.0
 12
370.172911
 22
284.451856
 32
0.0
 13
370.172911
 23
284.451856
 33
0.0
  0
SOLID
  5
DA79
  8
WAKU
  6
CONTINUOUS
 10
369.863139
 20
284.988189
 30
0.0
 11
369.787305
 21
284.553935
 31
0.0
 12
370.260168
 22
284.959969
 32
0.0
 13
370.260168
 23
284.959969
 33
0.0
  0
SOLID
  5
DA7A
  8
WAKU
  6
CONTINUOUS
 10
398.194006
 20
285.115385
 30
0.0
 11
397.606055
 21
283.5
 31
0.0
 12
401.913747
 22
283.5
 32
0.0
 13
401.913747
 23
283.5
 33
0.0
  0
SOLID
  5
DA7B
  8
WAKU
  6
CONTINUOUS
 10
401.913747
 20
283.5
 30
0.0
 11
401.424776
 21
285.115385
 31
0.0
 12
398.194006
 22
285.115385
 32
0.0
 13
398.194006
 23
285.115385
 33
0.0
  0
SOLID
  5
DA7C
  8
WAKU
  6
CONTINUOUS
 10
369.241303
 20
285.154132
 30
0.0
 11
369.251215
 21
284.778928
 31
0.0
 12
369.630358
 22
284.873087
 32
0.0
 13
369.630358
 23
284.873087
 33
0.0
  0
SOLID
  5
DA7D
  8
WAKU
  6
CONTINUOUS
 10
369.635696
 20
285.180404
 30
0.0
 11
369.241303
 21
285.154132
 31
0.0
 12
369.630358
 22
284.873087
 32
0.0
 13
369.630358
 23
284.873087
 33
0.0
  0
SOLID
  5
DA7E
  8
WAKU
  6
CONTINUOUS
 10
373.690335
 20
285.229744
 30
0.0
 11
372.237497
 21
284.486117
 31
0.0
 12
373.241532
 22
284.780941
 32
0.0
 13
373.241532
 23
284.780941
 33
0.0
  0
SOLID
  5
DA7F
  8
WAKU
  6
CONTINUOUS
 10
371.98994
 20
285.251431
 30
0.0
 11
371.312263
 21
284.810332
 31
0.0
 12
372.194232
 22
284.918099
 32
0.0
 13
372.194232
 23
284.918099
 33
0.0
  0
SOLID
  5
DA80
  8
WAKU
  6
CONTINUOUS
 10
373.195965
 20
285.275232
 30
0.0
 11
372.237497
 21
284.486117
 31
0.0
 12
373.690335
 22
285.229744
 32
0.0
 13
373.690335
 23
285.229744
 33
0.0
  0
SOLID
  5
DA81
  8
WAKU
  6
CONTINUOUS
 10
372.686363
 20
285.326171
 30
0.0
 11
371.98994
 21
285.251431
 31
0.0
 12
372.194232
 22
284.918099
 32
0.0
 13
372.194232
 23
284.918099
 33
0.0
  0
SOLID
  5
DA82
  8
WAKU
  6
CONTINUOUS
 10
370.035293
 20
285.465154
 30
0.0
 11
369.863139
 21
284.988189
 31
0.0
 12
370.260168
 22
284.959969
 32
0.0
 13
370.260168
 23
284.959969
 33
0.0
  0
SOLID
  5
DA83
  8
WAKU
  6
CONTINUOUS
 10
369.73149
 20
285.576021
 30
0.0
 11
369.241303
 21
285.154132
 31
0.0
 12
369.635696
 22
285.180404
 32
0.0
 13
369.635696
 23
285.180404
 33
0.0
  0
SOLID
  5
DA84
  8
WAKU
  6
CONTINUOUS
 10
369.326146
 20
285.584287
 30
0.0
 11
369.241303
 21
285.154132
 31
0.0
 12
369.73149
 22
285.576021
 32
0.0
 13
369.73149
 23
285.576021
 33
0.0
  0
SOLID
  5
DA85
  8
WAKU
  6
CONTINUOUS
 10
370.530712
 20
285.590875
 30
0.0
 11
370.035293
 21
285.465154
 31
0.0
 12
370.260168
 22
284.959969
 32
0.0
 13
370.260168
 23
284.959969
 33
0.0
  0
SOLID
  5
DA86
  8
WAKU
  6
CONTINUOUS
 10
389.236144
 20
285.653846
 30
0.0
 11
383.067593
 21
283.5
 31
0.0
 12
388.452208
 22
283.5
 32
0.0
 13
388.452208
 23
283.5
 33
0.0
  0
SOLID
  5
DA87
  8
WAKU
  6
CONTINUOUS
 10
383.851529
 20
285.653846
 30
0.0
 11
383.067593
 21
283.5
 31
0.0
 12
389.236144
 22
285.653846
 32
0.0
 13
389.236144
 23
285.653846
 33
0.0
  0
SOLID
  5
DA88
  8
WAKU
  6
CONTINUOUS
 10
404.851529
 20
285.653846
 30
0.0
 11
404.067593
 21
283.5
 31
0.0
 12
409.452208
 22
283.5
 32
0.0
 13
409.452208
 23
283.5
 33
0.0
  0
SOLID
  5
DA89
  8
WAKU
  6
CONTINUOUS
 10
409.452208
 20
283.5
 30
0.0
 11
409.159221
 21
285.653846
 31
0.0
 12
404.851529
 22
285.653846
 32
0.0
 13
404.851529
 23
285.653846
 33
0.0
  0
SOLID
  5
DA8A
  8
WAKU
  6
CONTINUOUS
 10
391.174606
 20
285.653846
 30
0.0
 11
390.39067
 21
283.5
 31
0.0
 12
395.452208
 22
283.5
 32
0.0
 13
395.452208
 23
283.5
 33
0.0
  0
SOLID
  5
DA8B
  8
WAKU
  6
CONTINUOUS
 10
395.452208
 20
283.5
 30
0.0
 11
395.159221
 21
285.653846
 31
0.0
 12
391.174606
 22
285.653846
 32
0.0
 13
391.174606
 23
285.653846
 33
0.0
  0
SOLID
  5
DA8C
  8
WAKU
  6
CONTINUOUS
 10
374.090681
 20
285.71052
 30
0.0
 11
373.195965
 21
285.275232
 31
0.0
 12
373.690335
 22
285.229744
 32
0.0
 13
373.690335
 23
285.229744
 33
0.0
  0
SOLID
  5
DA8D
  8
WAKU
  6
CONTINUOUS
 10
373.145266
 20
285.785089
 30
0.0
 11
371.98994
 21
285.251431
 31
0.0
 12
372.686363
 22
285.326171
 32
0.0
 13
372.686363
 23
285.326171
 33
0.0
  0
SOLID
  5
DA8E
  8
WAKU
  6
CONTINUOUS
 10
372.646296
 20
285.825506
 30
0.0
 11
371.98994
 21
285.251431
 31
0.0
 12
373.145266
 22
285.785089
 32
0.0
 13
373.145266
 23
285.785089
 33
0.0
  0
SOLID
  5
DA8F
  8
WAKU
  6
CONTINUOUS
 10
370.297156
 20
285.966509
 30
0.0
 11
370.035293
 21
285.465154
 31
0.0
 12
370.530712
 22
285.590875
 32
0.0
 13
370.530712
 23
285.590875
 33
0.0
  0
SOLID
  5
DA90
  8
WAKU
  6
CONTINUOUS
 10
369.923519
 20
286.031028
 30
0.0
 11
369.326146
 21
285.584287
 31
0.0
 12
369.73149
 22
285.576021
 32
0.0
 13
369.73149
 23
285.576021
 33
0.0
  0
SOLID
  5
DA91
  8
WAKU
  6
CONTINUOUS
 10
369.502627
 20
286.053593
 30
0.0
 11
369.326146
 21
285.584287
 31
0.0
 12
369.923519
 22
286.031028
 32
0.0
 13
369.923519
 23
286.031028
 33
0.0
  0
SOLID
  5
DA92
  8
WAKU
  6
CONTINUOUS
 10
379.397145
 20
286.138462
 30
0.0
 11
378.436824
 21
283.5
 31
0.0
 12
379.513747
 22
283.5
 32
0.0
 13
379.513747
 23
283.5
 33
0.0
  0
SOLID
  5
DA93
  8
WAKU
  6
CONTINUOUS
 10
377.155205
 20
286.192308
 30
0.0
 11
376.175285
 21
283.5
 31
0.0
 12
379.397145
 22
286.138462
 32
0.0
 13
379.397145
 23
286.138462
 33
0.0
  0
SOLID
  5
DA94
  8
WAKU
  6
CONTINUOUS
 10
380.493667
 20
286.192308
 30
0.0
 11
377.155205
 21
286.192308
 31
0.0
 12
379.397145
 22
286.138462
 32
0.0
 13
379.397145
 23
286.138462
 33
0.0
  0
SOLID
  5
DA95
  8
WAKU
  6
CONTINUOUS
 10
380.493667
 20
286.192308
 30
0.0
 11
379.397145
 21
286.138462
 31
0.0
 12
379.513747
 22
283.5
 32
0.0
 13
379.513747
 23
283.5
 33
0.0
  0
SOLID
  5
DA96
  8
WAKU
  6
CONTINUOUS
 10
380.493667
 20
286.192308
 30
0.0
 11
381.775285
 21
283.5
 31
0.0
 12
382.755205
 22
286.192308
 32
0.0
 13
382.755205
 23
286.192308
 33
0.0
  0
SOLID
  5
DA97
  8
WAKU
  6
CONTINUOUS
 10
374.427865
 20
286.205609
 30
0.0
 11
373.195965
 21
285.275232
 31
0.0
 12
374.090681
 22
285.71052
 32
0.0
 13
374.090681
 23
285.71052
 33
0.0
  0
SOLID
  5
DA98
  8
WAKU
  6
CONTINUOUS
 10
373.98505
 20
286.233718
 30
0.0
 11
373.195965
 21
285.275232
 31
0.0
 12
374.427865
 22
286.205609
 32
0.0
 13
374.427865
 23
286.205609
 33
0.0
  0
SOLID
  5
DA99
  8
WAKU
  6
CONTINUOUS
 10
370.971896
 20
286.268471
 30
0.0
 11
370.297156
 21
285.966509
 31
0.0
 12
370.530712
 22
285.590875
 32
0.0
 13
370.530712
 23
285.590875
 33
0.0
  0
SOLID
  5
DA9A
  8
WAKU
  6
CONTINUOUS
 10
373.553316
 20
286.277229
 30
0.0
 11
372.646296
 21
285.825506
 31
0.0
 12
373.145266
 22
285.785089
 32
0.0
 13
373.145266
 23
285.785089
 33
0.0
  0
SOLID
  5
DA9B
  8
WAKU
  6
CONTINUOUS
 10
370.638671
 20
286.473
 30
0.0
 11
370.297156
 21
285.966509
 31
0.0
 12
370.971896
 22
286.268471
 32
0.0
 13
370.971896
 23
286.268471
 33
0.0
  0
SOLID
  5
DA9C
  8
WAKU
  6
CONTINUOUS
 10
373.220238
 20
286.48192
 30
0.0
 11
372.646296
 21
285.825506
 31
0.0
 12
373.553316
 22
286.277229
 32
0.0
 13
373.553316
 23
286.277229
 33
0.0
  0
SOLID
  5
DA9D
  8
WAKU
  6
CONTINUOUS
 10
370.207035
 20
286.51657
 30
0.0
 11
369.502627
 21
286.053593
 31
0.0
 12
369.923519
 22
286.031028
 32
0.0
 13
369.923519
 23
286.031028
 33
0.0
  0
SOLID
  5
DA9E
  8
WAKU
  6
CONTINUOUS
 10
369.764265
 20
286.544812
 30
0.0
 11
369.502627
 21
286.053593
 31
0.0
 12
370.207035
 22
286.51657
 32
0.0
 13
370.207035
 23
286.51657
 33
0.0
  0
SOLID
  5
DA9F
  8
WAKU
  6
CONTINUOUS
 10
374.689503
 20
286.696828
 30
0.0
 11
373.98505
 21
286.233718
 31
0.0
 12
374.427865
 22
286.205609
 32
0.0
 13
374.427865
 23
286.205609
 33
0.0
  0
SOLID
  5
DAA0
  8
WAKU
  6
CONTINUOUS
 10
374.268507
 20
286.719278
 30
0.0
 11
373.98505
 21
286.233718
 31
0.0
 12
374.689503
 22
286.696828
 32
0.0
 13
374.689503
 23
286.696828
 33
0.0
  0
SOLID
  5
DAA1
  8
WAKU
  6
CONTINUOUS
 10
373.894843
 20
286.783693
 30
0.0
 11
373.220238
 21
286.48192
 31
0.0
 12
373.553316
 22
286.277229
 32
0.0
 13
373.553316
 23
286.277229
 33
0.0
  0
SOLID
  5
DAA2
  8
WAKU
  6
CONTINUOUS
 10
371.545827
 20
286.924893
 30
0.0
 11
370.638671
 21
286.473
 31
0.0
 12
370.971896
 22
286.268471
 32
0.0
 13
370.971896
 23
286.268471
 33
0.0
  0
SOLID
  5
DAA3
  8
WAKU
  6
CONTINUOUS
 10
371.04672
 20
286.965174
 30
0.0
 11
370.638671
 21
286.473
 31
0.0
 12
371.545827
 22
286.924893
 32
0.0
 13
371.545827
 23
286.924893
 33
0.0
  0
SOLID
  5
DAA4
  8
WAKU
  6
CONTINUOUS
 10
370.101449
 20
287.039901
 30
0.0
 11
369.764265
 21
286.544812
 31
0.0
 12
370.207035
 22
286.51657
 32
0.0
 13
370.207035
 23
286.51657
 33
0.0
  0
SOLID
  5
DAA5
  8
WAKU
  6
CONTINUOUS
 10
373.661353
 20
287.159534
 30
0.0
 11
373.220238
 21
286.48192
 31
0.0
 12
373.894843
 22
286.783693
 32
0.0
 13
373.894843
 23
286.783693
 33
0.0
  0
SOLID
  5
DAA6
  8
WAKU
  6
CONTINUOUS
 10
374.865984
 20
287.166134
 30
0.0
 11
374.268507
 21
286.719278
 31
0.0
 12
374.689503
 22
286.696828
 32
0.0
 13
374.689503
 23
286.696828
 33
0.0
  0
SOLID
  5
DAA7
  8
WAKU
  6
CONTINUOUS
 10
374.46071
 20
287.174248
 30
0.0
 11
374.268507
 21
286.719278
 31
0.0
 12
374.865984
 22
287.166134
 32
0.0
 13
374.865984
 23
287.166134
 33
0.0
  0
SOLID
  5
DAA8
  8
WAKU
  6
CONTINUOUS
 10
374.156732
 20
287.28503
 30
0.0
 11
373.661353
 21
287.159534
 31
0.0
 12
373.894843
 22
286.783693
 32
0.0
 13
373.894843
 23
286.783693
 33
0.0
  0
SOLID
  5
DAA9
  8
WAKU
  6
CONTINUOUS
 10
371.505632
 20
287.424128
 30
0.0
 11
371.04672
 21
286.965174
 31
0.0
 12
371.545827
 22
286.924893
 32
0.0
 13
371.545827
 23
286.924893
 33
0.0
  0
SOLID
  5
DAAA
  8
WAKU
  6
CONTINUOUS
 10
370.996098
 20
287.475108
 30
0.0
 11
370.101449
 21
287.039901
 31
0.0
 12
370.207035
 22
286.51657
 32
0.0
 13
370.207035
 23
286.51657
 33
0.0
  0
SOLID
  5
DAAB
  8
WAKU
  6
CONTINUOUS
 10
372.202181
 20
287.498991
 30
0.0
 11
371.505632
 21
287.424128
 31
0.0
 12
371.545827
 22
286.924893
 32
0.0
 13
371.545827
 23
286.924893
 33
0.0
  0
SOLID
  5
DAAC
  8
WAKU
  6
CONTINUOUS
 10
370.501795
 20
287.520677
 30
0.0
 11
370.101449
 21
287.039901
 31
0.0
 12
370.996098
 22
287.475108
 32
0.0
 13
370.996098
 23
287.475108
 33
0.0
  0
SOLID
  5
DAAD
  8
WAKU
  6
CONTINUOUS
 10
374.556361
 20
287.569864
 30
0.0
 11
374.46071
 21
287.174248
 31
0.0
 12
374.865984
 22
287.166134
 32
0.0
 13
374.865984
 23
287.166134
 33
0.0
  0
SOLID
  5
DAAE
  8
WAKU
  6
CONTINUOUS
 10
395.864763
 20
287.592308
 30
0.0
 11
395.159221
 21
285.653846
 31
0.0
 12
395.452208
 22
283.5
 32
0.0
 13
395.452208
 23
283.5
 33
0.0
  0
SOLID
  5
DAAF
  8
WAKU
  6
CONTINUOUS
 10
393.172456
 20
287.592308
 30
0.0
 11
391.703565
 21
286.515385
 31
0.0
 12
392.780488
 22
286.515385
 32
0.0
 13
392.780488
 23
286.515385
 33
0.0
  0
SOLID
  5
DAB0
  8
WAKU
  6
CONTINUOUS
 10
392.095533
 20
287.592308
 30
0.0
 11
391.703565
 21
286.515385
 31
0.0
 12
393.172456
 22
287.592308
 32
0.0
 13
393.172456
 23
287.592308
 33
0.0
  0
SOLID
  5
DAB1
  8
WAKU
  6
CONTINUOUS
 10
391.28784
 20
287.592308
 30
0.0
 11
392.095533
 21
287.592308
 31
0.0
 12
393.172456
 22
287.592308
 32
0.0
 13
393.172456
 23
287.592308
 33
0.0
  0
SOLID
  5
DAB2
  8
WAKU
  6
CONTINUOUS
 10
391.28784
 20
287.592308
 30
0.0
 11
393.172456
 21
287.592308
 31
0.0
 12
395.864763
 22
287.592308
 32
0.0
 13
395.864763
 23
287.592308
 33
0.0
  0
SOLID
  5
DAB3
  8
WAKU
  6
CONTINUOUS
 10
396.941687
 20
287.592308
 30
0.0
 11
391.28784
 21
287.592308
 31
0.0
 12
395.864763
 22
287.592308
 32
0.0
 13
395.864763
 23
287.592308
 33
0.0
  0
SOLID
  5
DAB4
  8
WAKU
  6
CONTINUOUS
 10
396.941687
 20
287.592308
 30
0.0
 11
395.864763
 21
287.592308
 31
0.0
 12
395.452208
 22
283.5
 32
0.0
 13
395.452208
 23
283.5
 33
0.0
  0
SOLID
  5
DAB5
  8
WAKU
  6
CONTINUOUS
 10
374.950827
 20
287.596289
 30
0.0
 11
374.556361
 21
287.569864
 31
0.0
 12
374.865984
 22
287.166134
 32
0.0
 13
374.865984
 23
287.166134
 33
0.0
  0
SOLID
  5
DAB6
  8
WAKU
  6
CONTINUOUS
 10
374.328925
 20
287.761987
 30
0.0
 11
373.661353
 21
287.159534
 31
0.0
 12
374.156732
 22
287.28503
 32
0.0
 13
374.156732
 23
287.28503
 33
0.0
  0
SOLID
  5
DAB7
  8
WAKU
  6
CONTINUOUS
 10
373.932071
 20
287.790402
 30
0.0
 11
373.661353
 21
287.159534
 31
0.0
 12
374.328925
 22
287.761987
 32
0.0
 13
374.328925
 23
287.761987
 33
0.0
  0
SOLID
  5
DAB8
  8
WAKU
  6
CONTINUOUS
 10
371.997783
 20
287.832235
 30
0.0
 11
371.505632
 21
287.424128
 31
0.0
 12
372.202181
 22
287.498991
 32
0.0
 13
372.202181
 23
287.498991
 33
0.0
  0
SOLID
  5
DAB9
  8
WAKU
  6
CONTINUOUS
 10
374.561802
 20
287.877253
 30
0.0
 11
374.556361
 21
287.569864
 31
0.0
 12
374.950827
 22
287.596289
 32
0.0
 13
374.950827
 23
287.596289
 33
0.0
  0
SOLID
  5
DABA
  8
WAKU
  6
CONTINUOUS
 10
372.879878
 20
287.940057
 30
0.0
 11
371.997783
 21
287.832235
 31
0.0
 12
372.202181
 22
287.498991
 32
0.0
 13
372.202181
 23
287.498991
 33
0.0
  0
SOLID
  5
DABB
  8
WAKU
  6
CONTINUOUS
 10
370.950599
 20
287.96948
 30
0.0
 11
370.501795
 21
287.520677
 31
0.0
 12
370.996098
 22
287.475108
 32
0.0
 13
370.996098
 23
287.475108
 33
0.0
  0
SOLID
  5
DABC
  8
WAKU
  6
CONTINUOUS
 10
374.940915
 20
287.971493
 30
0.0
 11
374.561802
 21
287.877253
 31
0.0
 12
374.950827
 22
287.596289
 32
0.0
 13
374.950827
 23
287.596289
 33
0.0
  0
SOLID
  5
DABD
  8
WAKU
  6
CONTINUOUS
 10
374.502951
 20
288.077918
 30
0.0
 11
374.561802
 21
287.877253
 31
0.0
 12
374.940915
 22
287.971493
 32
0.0
 13
374.940915
 23
287.971493
 33
0.0
  0
SOLID
  5
DABE
  8
WAKU
  6
CONTINUOUS
 10
405.753055
 20
288.130769
 30
0.0
 11
405.282694
 21
286.838462
 31
0.0
 12
408.513463
 22
286.838462
 32
0.0
 13
408.513463
 23
286.838462
 33
0.0
  0
SOLID
  5
DABF
  8
WAKU
  6
CONTINUOUS
 10
408.983824
 20
288.130769
 30
0.0
 11
405.753055
 21
288.130769
 31
0.0
 12
408.513463
 22
286.838462
 32
0.0
 13
408.513463
 23
286.838462
 33
0.0
  0
SOLID
  5
DAC0
  8
WAKU
  6
CONTINUOUS
 10
372.504269
 20
288.173821
 30
0.0
 11
371.997783
 21
287.832235
 31
0.0
 12
372.879878
 22
287.940057
 32
0.0
 13
372.879878
 23
287.940057
 33
0.0
  0
SOLID
  5
DAC1
  8
WAKU
  6
CONTINUOUS
 10
374.40481
 20
288.196249
 30
0.0
 11
373.932071
 21
287.790402
 31
0.0
 12
374.328925
 22
287.761987
 32
0.0
 13
374.328925
 23
287.761987
 33
0.0
  0
SOLID
  5
DAC2
  8
WAKU
  6
CONTINUOUS
 10
374.40481
 20
288.196249
 30
0.0
 11
374.502951
 21
288.077918
 31
0.0
 12
374.940915
 22
287.971493
 32
0.0
 13
374.940915
 23
287.971493
 33
0.0
  0
SOLID
  5
DAC3
  8
WAKU
  6
CONTINUOUS
 10
373.510738
 20
288.21124
 30
0.0
 11
372.504269
 21
288.173821
 31
0.0
 12
372.879878
 22
287.940057
 32
0.0
 13
372.879878
 23
287.940057
 33
0.0
  0
SOLID
  5
DAC4
  8
WAKU
  6
CONTINUOUS
 10
371.954587
 20
288.264284
 30
0.0
 11
370.950599
 21
287.96948
 31
0.0
 12
370.996098
 22
287.475108
 32
0.0
 13
370.996098
 23
287.475108
 33
0.0
  0
SOLID
  5
DAC5
  8
WAKU
  6
CONTINUOUS
 10
374.836612
 20
288.277967
 30
0.0
 11
374.40481
 21
288.196249
 31
0.0
 12
374.940915
 22
287.971493
 32
0.0
 13
374.940915
 23
287.971493
 33
0.0
  0
SOLID
  5
DAC6
  8
WAKU
  6
CONTINUOUS
 10
374.019229
 20
288.298569
 30
0.0
 11
372.504269
 21
288.173821
 31
0.0
 12
373.510738
 22
288.21124
 32
0.0
 13
373.510738
 23
288.21124
 33
0.0
  0
SOLID
  5
DAC7
  8
WAKU
  6
CONTINUOUS
 10
374.019229
 20
288.298569
 30
0.0
 11
374.40481
 21
288.196249
 31
0.0
 12
374.836612
 22
288.277967
 32
0.0
 13
374.836612
 23
288.277967
 33
0.0
  0
SOLID
  5
DAC8
  8
WAKU
  6
CONTINUOUS
 10
374.019229
 20
288.298569
 30
0.0
 11
373.932071
 21
287.790402
 31
0.0
 12
374.40481
 22
288.196249
 32
0.0
 13
374.40481
 23
288.196249
 33
0.0
  0
SOLID
  5
DAC9
  8
WAKU
  6
CONTINUOUS
 10
371.431374
 20
288.369826
 30
0.0
 11
370.950599
 21
287.96948
 31
0.0
 12
371.954587
 22
288.264284
 32
0.0
 13
371.954587
 23
288.264284
 33
0.0
  0
SOLID
  5
DACA
  8
WAKU
  6
CONTINUOUS
 10
373.005639
 20
288.435768
 30
0.0
 11
372.504269
 21
288.173821
 31
0.0
 12
374.019229
 22
288.298569
 32
0.0
 13
374.019229
 23
288.298569
 33
0.0
  0
SOLID
  5
DACB
  8
WAKU
  6
CONTINUOUS
 10
374.641749
 20
288.504452
 30
0.0
 11
373.005639
 21
288.435768
 31
0.0
 12
374.019229
 22
288.298569
 32
0.0
 13
374.019229
 23
288.298569
 33
0.0
  0
SOLID
  5
DACC
  8
WAKU
  6
CONTINUOUS
 10
374.641749
 20
288.504452
 30
0.0
 11
374.019229
 21
288.298569
 31
0.0
 12
374.836612
 22
288.277967
 32
0.0
 13
374.836612
 23
288.277967
 33
0.0
  0
SOLID
  5
DACD
  8
WAKU
  6
CONTINUOUS
 10
372.440235
 20
288.547585
 30
0.0
 11
371.431374
 21
288.369826
 31
0.0
 12
371.954587
 22
288.264284
 32
0.0
 13
371.954587
 23
288.264284
 33
0.0
  0
SOLID
  5
DACE
  8
WAKU
  6
CONTINUOUS
 10
373.482636
 20
288.608014
 30
0.0
 11
373.005639
 21
288.435768
 31
0.0
 12
374.641749
 22
288.504452
 32
0.0
 13
374.641749
 23
288.504452
 33
0.0
  0
SOLID
  5
DACF
  8
WAKU
  6
CONTINUOUS
 10
374.363484
 20
288.64263
 30
0.0
 11
373.482636
 21
288.608014
 31
0.0
 12
374.641749
 22
288.504452
 32
0.0
 13
374.641749
 23
288.504452
 33
0.0
  0
SOLID
  5
DAD0
  8
WAKU
  6
CONTINUOUS
 10
373.916941
 20
288.683944
 30
0.0
 11
373.482636
 21
288.608014
 31
0.0
 12
374.363484
 22
288.64263
 32
0.0
 13
374.363484
 23
288.64263
 33
0.0
  0
SOLID
  5
DAD1
  8
WAKU
  6
CONTINUOUS
 10
371.926464
 20
288.70701
 30
0.0
 11
371.431374
 21
288.369826
 31
0.0
 12
372.440235
 22
288.547585
 32
0.0
 13
372.440235
 23
288.547585
 33
0.0
  0
SOLID
  5
DAD2
  8
WAKU
  6
CONTINUOUS
 10
372.89514
 20
288.740065
 30
0.0
 11
371.926464
 21
288.70701
 31
0.0
 12
372.440235
 22
288.547585
 32
0.0
 13
372.440235
 23
288.547585
 33
0.0
  0
SOLID
  5
DAD3
  8
WAKU
  6
CONTINUOUS
 10
380.311313
 20
288.776923
 30
0.0
 11
377.155205
 21
286.192308
 31
0.0
 12
380.493667
 22
286.192308
 32
0.0
 13
380.493667
 23
286.192308
 33
0.0
  0
SOLID
  5
DAD4
  8
WAKU
  6
CONTINUOUS
 10
381.524851
 20
288.776923
 30
0.0
 11
378.095928
 21
288.776923
 31
0.0
 12
380.311313
 22
288.776923
 32
0.0
 13
380.311313
 23
288.776923
 33
0.0
  0
SOLID
  5
DAD5
  8
WAKU
  6
CONTINUOUS
 10
381.524851
 20
288.776923
 30
0.0
 11
380.311313
 21
288.776923
 31
0.0
 12
380.493667
 22
286.192308
 32
0.0
 13
380.493667
 23
286.192308
 33
0.0
  0
SOLID
  5
DAD6
  8
WAKU
  6
CONTINUOUS
 10
381.524851
 20
288.776923
 30
0.0
 11
380.493667
 21
286.192308
 31
0.0
 12
382.755205
 22
286.192308
 32
0.0
 13
382.755205
 23
286.192308
 33
0.0
  0
SOLID
  5
DAD7
  8
WAKU
  6
CONTINUOUS
 10
373.799148
 20
288.781929
 30
0.0
 11
373.916941
 21
288.683944
 31
0.0
 12
374.363484
 22
288.64263
 32
0.0
 13
374.363484
 23
288.64263
 33
0.0
  0
SOLID
  5
DAD8
  8
WAKU
  6
CONTINUOUS
 10
373.290857
 20
288.835581
 30
0.0
 11
371.926464
 21
288.70701
 31
0.0
 12
372.89514
 22
288.740065
 32
0.0
 13
372.89514
 23
288.740065
 33
0.0
  0
SOLID
  5
DAD9
  8
WAKU
  6
CONTINUOUS
 10
373.597996
 20
288.840902
 30
0.0
 11
373.799148
 21
288.781929
 31
0.0
 12
374.363484
 22
288.64263
 32
0.0
 13
374.363484
 23
288.64263
 33
0.0
  0
SOLID
  5
DADA
  8
WAKU
  6
CONTINUOUS
 10
402.042817
 20
288.884615
 30
0.0
 11
400.181958
 21
286.730769
 31
0.0
 12
401.258881
 22
286.730769
 32
0.0
 13
401.258881
 23
286.730769
 33
0.0
  0
SOLID
  5
DADB
  8
WAKU
  6
CONTINUOUS
 10
402.796663
 20
288.884615
 30
0.0
 11
401.424776
 21
285.115385
 31
0.0
 12
401.913747
 22
283.5
 32
0.0
 13
401.913747
 23
283.5
 33
0.0
  0
SOLID
  5
DADC
  8
WAKU
  6
CONTINUOUS
 10
403.873587
 20
288.884615
 30
0.0
 11
402.796663
 21
288.884615
 31
0.0
 12
401.913747
 22
283.5
 32
0.0
 13
401.913747
 23
283.5
 33
0.0
  0
SOLID
  5
DADD
  8
WAKU
  6
CONTINUOUS
 10
400.965894
 20
288.884615
 30
0.0
 11
400.181958
 21
286.730769
 31
0.0
 12
402.042817
 22
288.884615
 32
0.0
 13
402.042817
 23
288.884615
 33
0.0
  0
SOLID
  5
DADE
  8
WAKU
  6
CONTINUOUS
 10
399.858881
 20
286.730769
 30
0.0
 11
400.642817
 21
288.884615
 31
0.0
 12
399.565894
 22
288.884615
 32
0.0
 13
399.565894
 23
288.884615
 33
0.0
  0
SOLID
  5
DADF
  8
WAKU
  6
CONTINUOUS
 10
399.565894
 20
288.884615
 30
0.0
 11
398.781958
 21
286.730769
 31
0.0
 12
399.858881
 22
286.730769
 32
0.0
 13
399.858881
 23
286.730769
 33
0.0
  0
SOLID
  5
DAE0
  8
WAKU
  6
CONTINUOUS
 10
374.225306
 20
288.920895
 30
0.0
 11
373.597996
 21
288.840902
 31
0.0
 12
374.363484
 22
288.64263
 32
0.0
 13
374.363484
 23
288.64263
 33
0.0
  0
SOLID
  5
DAE1
  8
WAKU
  6
CONTINUOUS
 10
372.417683
 20
288.968648
 30
0.0
 11
373.597996
 21
288.840902
 31
0.0
 12
374.225306
 22
288.920895
 32
0.0
 13
374.225306
 23
288.920895
 33
0.0
  0
SOLID
  5
DAE2
  8
WAKU
  6
CONTINUOUS
 10
372.417683
 20
288.968648
 30
0.0
 11
373.290857
 21
288.835581
 31
0.0
 12
373.597996
 22
288.840902
 32
0.0
 13
373.597996
 23
288.840902
 33
0.0
  0
SOLID
  5
DAE3
  8
WAKU
  6
CONTINUOUS
 10
372.417683
 20
288.968648
 30
0.0
 11
371.926464
 21
288.70701
 31
0.0
 12
373.290857
 22
288.835581
 32
0.0
 13
373.290857
 23
288.835581
 33
0.0
  0
SOLID
  5
DAE4
  8
WAKU
  6
CONTINUOUS
 10
373.998821
 20
289.115757
 30
0.0
 11
372.417683
 21
288.968648
 31
0.0
 12
374.225306
 22
288.920895
 32
0.0
 13
374.225306
 23
288.920895
 33
0.0
  0
SOLID
  5
DAE5
  8
WAKU
  6
CONTINUOUS
 10
372.886988
 20
289.145129
 30
0.0
 11
372.417683
 21
288.968648
 31
0.0
 12
373.998821
 22
289.115757
 32
0.0
 13
373.998821
 23
289.115757
 33
0.0
  0
SOLID
  5
DAE6
  8
WAKU
  6
CONTINUOUS
 10
396.941687
 20
287.592308
 30
0.0
 11
396.452715
 21
289.207692
 31
0.0
 12
393.760408
 22
289.207692
 32
0.0
 13
393.760408
 23
289.207692
 33
0.0
  0
SOLID
  5
DAE7
  8
WAKU
  6
CONTINUOUS
 10
396.452715
 20
289.207692
 30
0.0
 11
396.941687
 21
287.592308
 31
0.0
 12
397.749379
 22
287.592308
 32
0.0
 13
397.749379
 23
287.592308
 33
0.0
  0
SOLID
  5
DAE8
  8
WAKU
  6
CONTINUOUS
 10
393.760408
 20
289.207692
 30
0.0
 11
391.28784
 21
287.592308
 31
0.0
 12
396.941687
 22
287.592308
 32
0.0
 13
396.941687
 23
287.592308
 33
0.0
  0
SOLID
  5
DAE9
  8
WAKU
  6
CONTINUOUS
 10
398.337331
 20
289.207692
 30
0.0
 11
396.452715
 21
289.207692
 31
0.0
 12
397.749379
 22
287.592308
 32
0.0
 13
397.749379
 23
287.592308
 33
0.0
  0
SOLID
  5
DAEA
  8
WAKU
  6
CONTINUOUS
 10
391.875792
 20
289.207692
 30
0.0
 11
391.28784
 21
287.592308
 31
0.0
 12
393.760408
 22
289.207692
 32
0.0
 13
393.760408
 23
289.207692
 33
0.0
  0
SOLID
  5
DAEB
  8
WAKU
  6
CONTINUOUS
 10
393.760408
 20
289.207692
 30
0.0
 11
392.683485
 21
289.207692
 31
0.0
 12
391.875792
 22
289.207692
 32
0.0
 13
391.875792
 23
289.207692
 33
0.0
  0
SOLID
  5
DAEC
  8
WAKU
  6
CONTINUOUS
 10
397.529638
 20
289.207692
 30
0.0
 11
396.452715
 21
289.207692
 31
0.0
 12
398.337331
 22
289.207692
 32
0.0
 13
398.337331
 23
289.207692
 33
0.0
  0
SOLID
  5
DAED
  8
WAKU
  6
CONTINUOUS
 10
373.692348
 20
289.22006
 30
0.0
 11
372.886988
 21
289.145129
 31
0.0
 12
373.998821
 22
289.115757
 32
0.0
 13
373.998821
 23
289.115757
 33
0.0
  0
SOLID
  5
DAEE
  8
WAKU
  6
CONTINUOUS
 10
373.317143
 20
289.229972
 30
0.0
 11
372.886988
 21
289.145129
 31
0.0
 12
373.692348
 22
289.22006
 32
0.0
 13
373.692348
 23
289.22006
 33
0.0
  0
SOLID
  5
DAEF
  8
WAKU
  6
CONTINUOUS
 10
378.723077
 20
290.5
 30
0.0
 11
381.524851
 21
288.776923
 31
0.0
 12
383.695928
 22
288.776923
 32
0.0
 13
383.695928
 23
288.776923
 33
0.0
  0
SOLID
  5
DAF0
  8
WAKU
  6
CONTINUOUS
 10
378.723077
 20
290.5
 30
0.0
 11
378.095928
 21
288.776923
 31
0.0
 12
381.524851
 22
288.776923
 32
0.0
 13
381.524851
 23
288.776923
 33
0.0
  0
SOLID
  5
DAF1
  8
WAKU
  6
CONTINUOUS
 10
372.249053
 20
290.5
 30
0.0
 11
367.971276
 21
290.5
 31
0.0
 12
367.971276
 22
286.222222
 32
0.0
 13
367.971276
 23
286.222222
 33
0.0
  0
SOLID
  5
DAF2
  8
WAKU
  6
CONTINUOUS
 10
409.219005
 20
288.776923
 30
0.0
 11
409.846154
 21
290.5
 31
0.0
 12
406.615385
 22
290.5
 32
0.0
 13
406.615385
 23
290.5
 33
0.0
  0
SOLID
  5
DAF3
  8
WAKU
  6
CONTINUOUS
 10
406.615385
 20
290.5
 30
0.0
 11
405.988236
 21
288.776923
 31
0.0
 12
409.219005
 22
288.776923
 32
0.0
 13
409.219005
 23
288.776923
 33
0.0
  0
SOLID
  5
DAF4
  8
WAKU
  6
CONTINUOUS
 10
392.683485
 20
289.207692
 30
0.0
 11
394.230769
 21
290.5
 31
0.0
 12
393.153846
 22
290.5
 32
0.0
 13
393.153846
 23
290.5
 33
0.0
  0
SOLID
  5
DAF5
  8
WAKU
  6
CONTINUOUS
 10
394.230769
 20
290.5
 30
0.0
 11
392.683485
 21
289.207692
 31
0.0
 12
393.760408
 22
289.207692
 32
0.0
 13
393.760408
 23
289.207692
 33
0.0
  0
SOLID
  5
DAF6
  8
WAKU
  6
CONTINUOUS
 10
409.159221
 20
285.653846
 30
0.0
 11
412.0
 21
290.5
 31
0.0
 12
410.923077
 22
290.5
 32
0.0
 13
410.923077
 23
290.5
 33
0.0
  0
SOLID
  5
DAF7
  8
WAKU
  6
CONTINUOUS
 10
412.0
 20
290.5
 30
0.0
 11
409.159221
 21
285.653846
 31
0.0
 12
409.452208
 22
283.5
 32
0.0
 13
409.452208
 23
283.5
 33
0.0
  0
SOLID
  5
DAF8
  8
WAKU
  6
CONTINUOUS
 10
384.323077
 20
290.5
 30
0.0
 11
378.723077
 21
290.5
 31
0.0
 12
383.695928
 22
288.776923
 32
0.0
 13
383.695928
 23
288.776923
 33
0.0
  0
SOLID
  5
DAF9
  8
WAKU
  6
CONTINUOUS
 10
385.615385
 20
290.5
 30
0.0
 11
384.988236
 21
288.776923
 31
0.0
 12
390.372851
 22
288.776923
 32
0.0
 13
390.372851
 23
288.776923
 33
0.0
  0
SOLID
  5
DAFA
  8
WAKU
  6
CONTINUOUS
 10
396.923077
 20
290.5
 30
0.0
 11
396.452715
 21
289.207692
 31
0.0
 12
397.529638
 22
289.207692
 32
0.0
 13
397.529638
 23
289.207692
 33
0.0
  0
SOLID
  5
DAFB
  8
WAKU
  6
CONTINUOUS
 10
391.0
 20
290.5
 30
0.0
 11
385.615385
 21
290.5
 31
0.0
 12
390.372851
 22
288.776923
 32
0.0
 13
390.372851
 23
288.776923
 33
0.0
  0
SOLID
  5
DAFC
  8
WAKU
  6
CONTINUOUS
 10
398.0
 20
290.5
 30
0.0
 11
396.923077
 21
290.5
 31
0.0
 12
397.529638
 22
289.207692
 32
0.0
 13
397.529638
 23
289.207692
 33
0.0
  0
ENDBLK
  5
DAFD
  8
0
  0
ENDSEC
  0
SECTION
  2
ENTITIES
  0
LINE
  5
DB05
  8
WAKU
 10
415.0
 20
292.0
 30
0.0
 11
415.0
 21
5.0
 31
0.0
  0
LINE
  5
DB06
  8
WAKU
 10
5.0
 20
292.0
 30
0.0
 11
5.0
 21
5.0
 31
0.0
  0
LINE
  5
DB07
  8
WAKU
 10
5.0
 20
5.0
 30
0.0
 11
415.0
 21
5.0
 31
0.0
  0
LINE
  5
DB08
  8
WAKU
 10
5.0
 20
292.0
 30
0.0
 11
415.0
 21
292.0
 31
0.0
  0
LINE
  5
DB09
  8
WAKU
 10
5.0
 20
282.0
 30
0.0
 11
415.0
 21
282.0
 31
0.0
  0
LINE
  5
DB0A
  8
WAKU
  6
CONTINUOUS
 10
393.760408
 20
289.207692
 30
0.0
 11
396.452715
 21
289.207692
 31
0.0
  0
LINE
  5
DB0B
  8
WAKU
  6
CONTINUOUS
 10
393.172456
 20
287.592308
 30
0.0
 11
395.864763
 21
287.592308
 31
0.0
  0
LINE
  5
DB0C
  8
WAKU
  6
CONTINUOUS
 10
390.39067
 20
283.5
 30
0.0
 11
395.452208
 21
283.5
 31
0.0
  0
LINE
  5
DB0D
  8
WAKU
  6
CONTINUOUS
 10
395.159221
 20
285.653846
 30
0.0
 11
395.864763
 21
287.592308
 31
0.0
  0
LINE
  5
DB0E
  8
WAKU
  6
CONTINUOUS
 10
367.971276
 20
290.5
 30
0.0
 11
372.249053
 21
290.5
 31
0.0
  0
LINE
  5
DB0F
  8
WAKU
  6
CONTINUOUS
 10
367.971276
 20
286.222222
 30
0.0
 11
372.249053
 21
290.5
 31
0.0
  0
LINE
  5
DB10
  8
WAKU
  6
CONTINUOUS
 10
367.971276
 20
290.5
 30
0.0
 11
367.971276
 21
286.222222
 31
0.0
  0
LINE
  5
DB11
  8
WAKU
  6
CONTINUOUS
 10
381.524851
 20
288.776923
 30
0.0
 11
383.695928
 21
288.776923
 31
0.0
  0
LINE
  5
DB12
  8
WAKU
  6
CONTINUOUS
 10
378.723077
 20
290.5
 30
0.0
 11
384.323077
 21
290.5
 31
0.0
  0
LINE
  5
DB13
  8
WAKU
  6
CONTINUOUS
 10
380.311313
 20
288.776923
 30
0.0
 11
377.155205
 21
286.192308
 31
0.0
  0
LINE
  5
DB14
  8
WAKU
  6
CONTINUOUS
 10
381.524851
 20
288.776923
 30
0.0
 11
382.755205
 21
286.192308
 31
0.0
  0
LINE
  5
DB15
  8
WAKU
  6
CONTINUOUS
 10
376.175285
 20
283.5
 30
0.0
 11
377.155205
 21
286.192308
 31
0.0
  0
LINE
  5
DB16
  8
WAKU
  6
CONTINUOUS
 10
379.397145
 20
286.138462
 30
0.0
 11
376.175285
 21
283.5
 31
0.0
  0
LINE
  5
DB17
  8
WAKU
  6
CONTINUOUS
 10
381.775285
 20
283.5
 30
0.0
 11
382.755205
 21
286.192308
 31
0.0
  0
LINE
  5
DB18
  8
WAKU
  6
CONTINUOUS
 10
380.493667
 20
286.192308
 30
0.0
 11
381.775285
 21
283.5
 31
0.0
  0
LINE
  5
DB19
  8
WAKU
  6
CONTINUOUS
 10
379.513747
 20
283.5
 30
0.0
 11
380.493667
 21
286.192308
 31
0.0
  0
LINE
  5
DB1A
  8
WAKU
  6
CONTINUOUS
 10
378.436824
 20
283.5
 30
0.0
 11
379.513747
 21
283.5
 31
0.0
  0
LINE
  5
DB1B
  8
WAKU
  6
CONTINUOUS
 10
378.436824
 20
283.5
 30
0.0
 11
379.397145
 21
286.138462
 31
0.0
  0
LINE
  5
DB1C
  8
WAKU
  6
CONTINUOUS
 10
378.095928
 20
288.776923
 30
0.0
 11
380.311313
 21
288.776923
 31
0.0
  0
LINE
  5
DB1D
  8
WAKU
  6
CONTINUOUS
 10
378.723077
 20
290.5
 30
0.0
 11
378.095928
 21
288.776923
 31
0.0
  0
LINE
  5
DB1E
  8
WAKU
  6
CONTINUOUS
 10
392.780488
 20
286.515385
 30
0.0
 11
393.172456
 21
287.592308
 31
0.0
  0
LINE
  5
DB1F
  8
WAKU
  6
CONTINUOUS
 10
391.703565
 20
286.515385
 30
0.0
 11
392.095533
 21
287.592308
 31
0.0
  0
LINE
  5
DB20
  8
WAKU
  6
CONTINUOUS
 10
388.452208
 20
283.5
 30
0.0
 11
389.236144
 21
285.653846
 31
0.0
  0
LINE
  5
DB21
  8
WAKU
  6
CONTINUOUS
 10
383.851529
 20
285.653846
 30
0.0
 11
389.236144
 21
285.653846
 31
0.0
  0
LINE
  5
DB22
  8
WAKU
  6
CONTINUOUS
 10
383.067593
 20
283.5
 30
0.0
 11
383.851529
 21
285.653846
 31
0.0
  0
LINE
  5
DB23
  8
WAKU
  6
CONTINUOUS
 10
383.067593
 20
283.5
 30
0.0
 11
388.452208
 21
283.5
 31
0.0
  0
LINE
  5
DB24
  8
WAKU
  6
CONTINUOUS
 10
391.174606
 20
285.653846
 30
0.0
 11
395.159221
 21
285.653846
 31
0.0
  0
LINE
  5
DB25
  8
WAKU
  6
CONTINUOUS
 10
391.703565
 20
286.515385
 30
0.0
 11
392.780488
 21
286.515385
 31
0.0
  0
LINE
  5
DB26
  8
WAKU
  6
CONTINUOUS
 10
390.39067
 20
283.5
 30
0.0
 11
391.174606
 21
285.653846
 31
0.0
  0
LINE
  5
DB27
  8
WAKU
  6
CONTINUOUS
 10
384.988236
 20
288.776923
 30
0.0
 11
390.372851
 21
288.776923
 31
0.0
  0
LINE
  5
DB28
  8
WAKU
  6
CONTINUOUS
 10
385.615385
 20
290.5
 30
0.0
 11
391.0
 21
290.5
 31
0.0
  0
LINE
  5
DB29
  8
WAKU
  6
CONTINUOUS
 10
384.988236
 20
288.776923
 30
0.0
 11
385.615385
 21
290.5
 31
0.0
  0
LINE
  5
DB2A
  8
WAKU
  6
CONTINUOUS
 10
384.323077
 20
290.5
 30
0.0
 11
383.695928
 21
288.776923
 31
0.0
  0
LINE
  5
DB2B
  8
WAKU
  6
CONTINUOUS
 10
393.153846
 20
290.5
 30
0.0
 11
394.230769
 21
290.5
 31
0.0
  0
LINE
  5
DB2C
  8
WAKU
  6
CONTINUOUS
 10
393.760408
 20
289.207692
 30
0.0
 11
394.230769
 21
290.5
 31
0.0
  0
LINE
  5
DB2D
  8
WAKU
  6
CONTINUOUS
 10
391.875792
 20
289.207692
 30
0.0
 11
392.683485
 21
289.207692
 31
0.0
  0
LINE
  5
DB2E
  8
WAKU
  6
CONTINUOUS
 10
391.28784
 20
287.592308
 30
0.0
 11
392.095533
 21
287.592308
 31
0.0
  0
LINE
  5
DB2F
  8
WAKU
  6
CONTINUOUS
 10
391.28784
 20
287.592308
 30
0.0
 11
391.875792
 21
289.207692
 31
0.0
  0
LINE
  5
DB30
  8
WAKU
  6
CONTINUOUS
 10
392.683485
 20
289.207692
 30
0.0
 11
393.153846
 21
290.5
 31
0.0
  0
LINE
  5
DB31
  8
WAKU
  6
CONTINUOUS
 10
390.372851
 20
288.776923
 30
0.0
 11
391.0
 21
290.5
 31
0.0
  0
LINE
  5
DB32
  8
WAKU
  6
CONTINUOUS
 10
405.753055
 20
288.130769
 30
0.0
 11
408.983824
 21
288.130769
 31
0.0
  0
LINE
  5
DB33
  8
WAKU
  6
CONTINUOUS
 10
405.282694
 20
286.838462
 30
0.0
 11
408.513463
 21
286.838462
 31
0.0
  0
LINE
  5
DB34
  8
WAKU
  6
CONTINUOUS
 10
409.452208
 20
283.5
 30
0.0
 11
404.067593
 21
283.5
 31
0.0
  0
LINE
  5
DB35
  8
WAKU
  6
CONTINUOUS
 10
404.851529
 20
285.653846
 30
0.0
 11
409.159221
 21
285.653846
 31
0.0
  0
LINE
  5
DB36
  8
WAKU
  6
CONTINUOUS
 10
405.988236
 20
288.776923
 30
0.0
 11
409.219005
 21
288.776923
 31
0.0
  0
LINE
  5
DB37
  8
WAKU
  6
CONTINUOUS
 10
406.615385
 20
290.5
 30
0.0
 11
409.846154
 21
290.5
 31
0.0
  0
LINE
  5
DB38
  8
WAKU
  6
CONTINUOUS
 10
398.781958
 20
286.730769
 30
0.0
 11
399.565894
 21
288.884615
 31
0.0
  0
LINE
  5
DB39
  8
WAKU
  6
CONTINUOUS
 10
400.181958
 20
286.730769
 30
0.0
 11
400.965894
 21
288.884615
 31
0.0
  0
LINE
  5
DB3A
  8
WAKU
  6
CONTINUOUS
 10
399.858881
 20
286.730769
 30
0.0
 11
400.642817
 21
288.884615
 31
0.0
  0
LINE
  5
DB3B
  8
WAKU
  6
CONTINUOUS
 10
401.258881
 20
286.730769
 30
0.0
 11
402.042817
 21
288.884615
 31
0.0
  0
LINE
  5
DB3C
  8
WAKU
  6
CONTINUOUS
 10
401.913747
 20
283.5
 30
0.0
 11
403.873587
 21
288.884615
 31
0.0
  0
LINE
  5
DB3D
  8
WAKU
  6
CONTINUOUS
 10
401.424776
 20
285.115385
 30
0.0
 11
402.796663
 21
288.884615
 31
0.0
  0
LINE
  5
DB3E
  8
WAKU
  6
CONTINUOUS
 10
395.452208
 20
283.5
 30
0.0
 11
396.941687
 21
287.592308
 31
0.0
  0
LINE
  5
DB3F
  8
WAKU
  6
CONTINUOUS
 10
397.606055
 20
283.5
 30
0.0
 11
401.913747
 21
283.5
 31
0.0
  0
LINE
  5
DB40
  8
WAKU
  6
CONTINUOUS
 10
398.781958
 20
286.730769
 30
0.0
 11
399.858881
 21
286.730769
 31
0.0
  0
LINE
  5
DB41
  8
WAKU
  6
CONTINUOUS
 10
398.194006
 20
285.115385
 30
0.0
 11
401.424776
 21
285.115385
 31
0.0
  0
LINE
  5
DB42
  8
WAKU
  6
CONTINUOUS
 10
397.606055
 20
283.5
 30
0.0
 11
398.194006
 21
285.115385
 31
0.0
  0
LINE
  5
DB43
  8
WAKU
  6
CONTINUOUS
 10
400.181958
 20
286.730769
 30
0.0
 11
401.258881
 21
286.730769
 31
0.0
  0
LINE
  5
DB44
  8
WAKU
  6
CONTINUOUS
 10
404.067593
 20
283.5
 30
0.0
 11
404.851529
 21
285.653846
 31
0.0
  0
LINE
  5
DB45
  8
WAKU
  6
CONTINUOUS
 10
400.965894
 20
288.884615
 30
0.0
 11
402.042817
 21
288.884615
 31
0.0
  0
LINE
  5
DB46
  8
WAKU
  6
CONTINUOUS
 10
396.923077
 20
290.5
 30
0.0
 11
398.0
 21
290.5
 31
0.0
  0
LINE
  5
DB47
  8
WAKU
  6
CONTINUOUS
 10
397.529638
 20
289.207692
 30
0.0
 11
398.0
 21
290.5
 31
0.0
  0
LINE
  5
DB48
  8
WAKU
  6
CONTINUOUS
 10
397.529638
 20
289.207692
 30
0.0
 11
398.337331
 21
289.207692
 31
0.0
  0
LINE
  5
DB49
  8
WAKU
  6
CONTINUOUS
 10
396.941687
 20
287.592308
 30
0.0
 11
397.749379
 21
287.592308
 31
0.0
  0
LINE
  5
DB4A
  8
WAKU
  6
CONTINUOUS
 10
397.749379
 20
287.592308
 30
0.0
 11
398.337331
 21
289.207692
 31
0.0
  0
LINE
  5
DB4B
  8
WAKU
  6
CONTINUOUS
 10
399.565894
 20
288.884615
 30
0.0
 11
400.642817
 21
288.884615
 31
0.0
  0
LINE
  5
DB4C
  8
WAKU
  6
CONTINUOUS
 10
396.452715
 20
289.207692
 30
0.0
 11
396.923077
 21
290.5
 31
0.0
  0
LINE
  5
DB4D
  8
WAKU
  6
CONTINUOUS
 10
406.615385
 20
290.5
 30
0.0
 11
405.988236
 21
288.776923
 31
0.0
  0
LINE
  5
DB4E
  8
WAKU
  6
CONTINUOUS
 10
405.753055
 20
288.130769
 30
0.0
 11
405.282694
 21
286.838462
 31
0.0
  0
LINE
  5
DB4F
  8
WAKU
  6
CONTINUOUS
 10
402.796663
 20
288.884615
 30
0.0
 11
403.873587
 21
288.884615
 31
0.0
  0
LINE
  5
DB50
  8
WAKU
  6
CONTINUOUS
 10
409.159221
 20
285.653846
 30
0.0
 11
410.923077
 21
290.5
 31
0.0
  0
LINE
  5
DB51
  8
WAKU
  6
CONTINUOUS
 10
409.452208
 20
283.5
 30
0.0
 11
412.0
 21
290.5
 31
0.0
  0
LINE
  5
DB52
  8
WAKU
  6
CONTINUOUS
 10
409.219005
 20
288.776923
 30
0.0
 11
409.846154
 21
290.5
 31
0.0
  0
LINE
  5
DB53
  8
WAKU
  6
CONTINUOUS
 10
410.923077
 20
290.5
 30
0.0
 11
412.0
 21
290.5
 31
0.0
  0
LINE
  5
DB54
  8
WAKU
  6
CONTINUOUS
 10
408.513463
 20
286.838462
 30
0.0
 11
408.983824
 21
288.130769
 31
0.0
  0
LINE
  5
DB55
  8
WAKU
  6
CONTINUOUS
 10
369.828646
 20
284.107791
 30
0.0
 11
369.966824
 21
283.829526
 31
0.0
  0
LINE
  5
DB56
  8
WAKU
  6
CONTINUOUS
 10
369.966824
 20
283.829526
 30
0.0
 11
370.193309
 21
283.634664
 31
0.0
  0
LINE
  5
DB57
  8
WAKU
  6
CONTINUOUS
 10
370.193309
 20
283.634664
 30
0.0
 11
370.499782
 21
283.530361
 31
0.0
  0
LINE
  5
DB58
  8
WAKU
  6
CONTINUOUS
 10
370.499782
 20
283.530361
 30
0.0
 11
370.874987
 21
283.520449
 31
0.0
  0
LINE
  5
DB59
  8
WAKU
  6
CONTINUOUS
 10
370.874987
 20
283.520449
 30
0.0
 11
371.305142
 21
283.605291
 31
0.0
  0
LINE
  5
DB5A
  8
WAKU
  6
CONTINUOUS
 10
371.305142
 20
283.605291
 30
0.0
 11
371.774448
 21
283.781773
 31
0.0
  0
LINE
  5
DB5B
  8
WAKU
  6
CONTINUOUS
 10
371.774448
 20
283.781773
 30
0.0
 11
372.265666
 21
284.043411
 31
0.0
  0
LINE
  5
DB5C
  8
WAKU
  6
CONTINUOUS
 10
372.265666
 20
284.043411
 30
0.0
 11
372.760756
 21
284.380595
 31
0.0
  0
LINE
  5
DB5D
  8
WAKU
  6
CONTINUOUS
 10
372.760756
 20
284.380595
 30
0.0
 11
373.241532
 21
284.780941
 31
0.0
  0
LINE
  5
DB5E
  8
WAKU
  6
CONTINUOUS
 10
373.241532
 20
284.780941
 30
0.0
 11
373.690335
 21
285.229744
 31
0.0
  0
LINE
  5
DB5F
  8
WAKU
  6
CONTINUOUS
 10
373.690335
 20
285.229744
 30
0.0
 11
374.090681
 21
285.71052
 31
0.0
  0
LINE
  5
DB60
  8
WAKU
  6
CONTINUOUS
 10
374.090681
 20
285.71052
 30
0.0
 11
374.427865
 21
286.205609
 31
0.0
  0
LINE
  5
DB61
  8
WAKU
  6
CONTINUOUS
 10
374.427865
 20
286.205609
 30
0.0
 11
374.689503
 21
286.696828
 31
0.0
  0
LINE
  5
DB62
  8
WAKU
  6
CONTINUOUS
 10
374.689503
 20
286.696828
 30
0.0
 11
374.865984
 21
287.166134
 31
0.0
  0
LINE
  5
DB63
  8
WAKU
  6
CONTINUOUS
 10
374.865984
 20
287.166134
 30
0.0
 11
374.950827
 21
287.596289
 31
0.0
  0
LINE
  5
DB64
  8
WAKU
  6
CONTINUOUS
 10
374.950827
 20
287.596289
 30
0.0
 11
374.940915
 21
287.971493
 31
0.0
  0
LINE
  5
DB65
  8
WAKU
  6
CONTINUOUS
 10
374.940915
 20
287.971493
 30
0.0
 11
374.836612
 21
288.277967
 31
0.0
  0
LINE
  5
DB66
  8
WAKU
  6
CONTINUOUS
 10
374.836612
 20
288.277967
 30
0.0
 11
374.641749
 21
288.504452
 31
0.0
  0
LINE
  5
DB67
  8
WAKU
  6
CONTINUOUS
 10
374.641749
 20
288.504452
 30
0.0
 11
374.363484
 21
288.64263
 31
0.0
  0
LINE
  5
DB68
  8
WAKU
  6
CONTINUOUS
 10
373.916941
 20
288.683944
 30
0.0
 11
373.482636
 21
288.608014
 31
0.0
  0
LINE
  5
DB69
  8
WAKU
  6
CONTINUOUS
 10
373.482636
 20
288.608014
 30
0.0
 11
373.005639
 21
288.435768
 31
0.0
  0
LINE
  5
DB6A
  8
WAKU
  6
CONTINUOUS
 10
373.005639
 20
288.435768
 30
0.0
 11
372.504269
 21
288.173821
 31
0.0
  0
LINE
  5
DB6B
  8
WAKU
  6
CONTINUOUS
 10
372.504269
 20
288.173821
 30
0.0
 11
371.997783
 21
287.832235
 31
0.0
  0
LINE
  5
DB6C
  8
WAKU
  6
CONTINUOUS
 10
371.997783
 20
287.832235
 30
0.0
 11
371.505632
 21
287.424128
 31
0.0
  0
LINE
  5
DB6D
  8
WAKU
  6
CONTINUOUS
 10
371.505632
 20
287.424128
 30
0.0
 11
371.04672
 21
286.965174
 31
0.0
  0
LINE
  5
DB6E
  8
WAKU
  6
CONTINUOUS
 10
371.04672
 20
286.965174
 30
0.0
 11
370.638671
 21
286.473
 31
0.0
  0
LINE
  5
DB6F
  8
WAKU
  6
CONTINUOUS
 10
370.638671
 20
286.473
 30
0.0
 11
370.297156
 21
285.966509
 31
0.0
  0
LINE
  5
DB70
  8
WAKU
  6
CONTINUOUS
 10
370.297156
 20
285.966509
 30
0.0
 11
370.035293
 21
285.465154
 31
0.0
  0
LINE
  5
DB71
  8
WAKU
  6
CONTINUOUS
 10
370.035293
 20
285.465154
 30
0.0
 11
369.863139
 21
284.988189
 31
0.0
  0
LINE
  5
DB72
  8
WAKU
  6
CONTINUOUS
 10
369.863139
 20
284.988189
 30
0.0
 11
369.787305
 21
284.553935
 31
0.0
  0
LINE
  5
DB73
  8
WAKU
  6
CONTINUOUS
 10
370.172911
 20
284.451856
 30
0.0
 11
370.681395
 21
284.539195
 31
0.0
  0
LINE
  5
DB74
  8
WAKU
  6
CONTINUOUS
 10
370.681395
 20
284.539195
 30
0.0
 11
371.312263
 21
284.810332
 31
0.0
  0
LINE
  5
DB75
  8
WAKU
  6
CONTINUOUS
 10
371.312263
 20
284.810332
 30
0.0
 11
371.98994
 21
285.251431
 31
0.0
  0
LINE
  5
DB76
  8
WAKU
  6
CONTINUOUS
 10
371.98994
 20
285.251431
 30
0.0
 11
372.646296
 21
285.825506
 31
0.0
  0
LINE
  5
DB77
  8
WAKU
  6
CONTINUOUS
 10
372.646296
 20
285.825506
 30
0.0
 11
373.220238
 21
286.48192
 31
0.0
  0
LINE
  5
DB78
  8
WAKU
  6
CONTINUOUS
 10
373.220238
 20
286.48192
 30
0.0
 11
373.661353
 21
287.159534
 31
0.0
  0
LINE
  5
DB79
  8
WAKU
  6
CONTINUOUS
 10
373.661353
 20
287.159534
 30
0.0
 11
373.932071
 21
287.790402
 31
0.0
  0
LINE
  5
DB7A
  8
WAKU
  6
CONTINUOUS
 10
373.932071
 20
287.790402
 30
0.0
 11
374.019229
 21
288.298569
 31
0.0
  0
LINE
  5
DB7B
  8
WAKU
  6
CONTINUOUS
 10
373.916941
 20
288.683944
 30
0.0
 11
373.799148
 21
288.781929
 31
0.0
  0
LINE
  5
DB7C
  8
WAKU
  6
CONTINUOUS
 10
373.799148
 20
288.781929
 30
0.0
 11
373.597996
 21
288.840902
 31
0.0
  0
LINE
  5
DB7D
  8
WAKU
  6
CONTINUOUS
 10
373.597996
 20
288.840902
 30
0.0
 11
373.290857
 21
288.835581
 31
0.0
  0
LINE
  5
DB7E
  8
WAKU
  6
CONTINUOUS
 10
373.290857
 20
288.835581
 30
0.0
 11
372.89514
 21
288.740065
 31
0.0
  0
LINE
  5
DB7F
  8
WAKU
  6
CONTINUOUS
 10
372.89514
 20
288.740065
 30
0.0
 11
372.440235
 21
288.547585
 31
0.0
  0
LINE
  5
DB80
  8
WAKU
  6
CONTINUOUS
 10
372.440235
 20
288.547585
 30
0.0
 11
371.954587
 21
288.264284
 31
0.0
  0
LINE
  5
DB81
  8
WAKU
  6
CONTINUOUS
 10
371.954587
 20
288.264284
 30
0.0
 11
370.996098
 21
287.475108
 31
0.0
  0
LINE
  5
DB82
  8
WAKU
  6
CONTINUOUS
 10
370.996098
 20
287.475108
 30
0.0
 11
370.207035
 21
286.51657
 31
0.0
  0
LINE
  5
DB83
  8
WAKU
  6
CONTINUOUS
 10
370.207035
 20
286.51657
 30
0.0
 11
369.923519
 21
286.031028
 31
0.0
  0
LINE
  5
DB84
  8
WAKU
  6
CONTINUOUS
 10
369.923519
 20
286.031028
 30
0.0
 11
369.73149
 21
285.576021
 31
0.0
  0
LINE
  5
DB85
  8
WAKU
  6
CONTINUOUS
 10
369.73149
 20
285.576021
 30
0.0
 11
369.635696
 21
285.180404
 31
0.0
  0
LINE
  5
DB86
  8
WAKU
  6
CONTINUOUS
 10
369.635696
 20
285.180404
 30
0.0
 11
369.630358
 21
284.873087
 31
0.0
  0
LINE
  5
DB87
  8
WAKU
  6
CONTINUOUS
 10
369.630358
 20
284.873087
 30
0.0
 11
369.689155
 21
284.672435
 31
0.0
  0
LINE
  5
DB88
  8
WAKU
  6
CONTINUOUS
 10
369.689155
 20
284.672435
 30
0.0
 11
369.787305
 21
284.553935
 31
0.0
  0
LINE
  5
DB89
  8
WAKU
  6
CONTINUOUS
 10
370.275177
 20
284.066476
 30
0.0
 11
370.392927
 21
283.968568
 31
0.0
  0
LINE
  5
DB8A
  8
WAKU
  6
CONTINUOUS
 10
370.392927
 20
283.968568
 30
0.0
 11
370.594177
 21
283.909498
 31
0.0
  0
LINE
  5
DB8B
  8
WAKU
  6
CONTINUOUS
 10
370.594177
 20
283.909498
 30
0.0
 11
370.901294
 21
283.914863
 31
0.0
  0
LINE
  5
DB8C
  8
WAKU
  6
CONTINUOUS
 10
370.901294
 20
283.914863
 30
0.0
 11
371.296984
 21
284.010368
 31
0.0
  0
LINE
  5
DB8D
  8
WAKU
  6
CONTINUOUS
 10
371.296984
 20
284.010368
 30
0.0
 11
371.751882
 21
284.202798
 31
0.0
  0
LINE
  5
DB8E
  8
WAKU
  6
CONTINUOUS
 10
371.751882
 20
284.202798
 30
0.0
 11
372.237497
 21
284.486117
 31
0.0
  0
LINE
  5
DB8F
  8
WAKU
  6
CONTINUOUS
 10
372.237497
 20
284.486117
 30
0.0
 11
373.195965
 21
285.275232
 31
0.0
  0
LINE
  5
DB90
  8
WAKU
  6
CONTINUOUS
 10
373.195965
 20
285.275232
 30
0.0
 11
373.98505
 21
286.233718
 31
0.0
  0
LINE
  5
DB91
  8
WAKU
  6
CONTINUOUS
 10
373.98505
 20
286.233718
 30
0.0
 11
374.268507
 21
286.719278
 31
0.0
  0
LINE
  5
DB92
  8
WAKU
  6
CONTINUOUS
 10
374.268507
 20
286.719278
 30
0.0
 11
374.46071
 21
287.174248
 31
0.0
  0
LINE
  5
DB93
  8
WAKU
  6
CONTINUOUS
 10
374.46071
 20
287.174248
 30
0.0
 11
374.556361
 21
287.569864
 31
0.0
  0
LINE
  5
DB94
  8
WAKU
  6
CONTINUOUS
 10
374.556361
 20
287.569864
 30
0.0
 11
374.561802
 21
287.877253
 31
0.0
  0
LINE
  5
DB95
  8
WAKU
  6
CONTINUOUS
 10
374.561802
 20
287.877253
 30
0.0
 11
374.502951
 21
288.077918
 31
0.0
  0
LINE
  5
DB96
  8
WAKU
  6
CONTINUOUS
 10
374.502951
 20
288.077918
 30
0.0
 11
374.40481
 21
288.196249
 31
0.0
  0
LINE
  5
DB97
  8
WAKU
  6
CONTINUOUS
 10
374.019229
 20
288.298569
 30
0.0
 11
373.510738
 21
288.21124
 31
0.0
  0
LINE
  5
DB98
  8
WAKU
  6
CONTINUOUS
 10
373.510738
 20
288.21124
 30
0.0
 11
372.879878
 21
287.940057
 31
0.0
  0
LINE
  5
DB99
  8
WAKU
  6
CONTINUOUS
 10
372.879878
 20
287.940057
 30
0.0
 11
372.202181
 21
287.498991
 31
0.0
  0
LINE
  5
DB9A
  8
WAKU
  6
CONTINUOUS
 10
372.202181
 20
287.498991
 30
0.0
 11
371.545827
 21
286.924893
 31
0.0
  0
LINE
  5
DB9B
  8
WAKU
  6
CONTINUOUS
 10
371.545827
 20
286.924893
 30
0.0
 11
370.971896
 21
286.268471
 31
0.0
  0
LINE
  5
DB9C
  8
WAKU
  6
CONTINUOUS
 10
370.971896
 20
286.268471
 30
0.0
 11
370.530712
 21
285.590875
 31
0.0
  0
LINE
  5
DB9D
  8
WAKU
  6
CONTINUOUS
 10
370.530712
 20
285.590875
 30
0.0
 11
370.260168
 21
284.959969
 31
0.0
  0
LINE
  5
DB9E
  8
WAKU
  6
CONTINUOUS
 10
370.260168
 20
284.959969
 30
0.0
 11
370.172911
 21
284.451856
 31
0.0
  0
LINE
  5
DB9F
  8
WAKU
  6
CONTINUOUS
 10
370.275177
 20
284.066476
 30
0.0
 11
370.709458
 21
284.142397
 31
0.0
  0
LINE
  5
DBA0
  8
WAKU
  6
CONTINUOUS
 10
370.709458
 20
284.142397
 30
0.0
 11
371.186428
 21
284.314625
 31
0.0
  0
LINE
  5
DBA1
  8
WAKU
  6
CONTINUOUS
 10
371.186428
 20
284.314625
 30
0.0
 11
371.68777
 21
284.576545
 31
0.0
  0
LINE
  5
DBA2
  8
WAKU
  6
CONTINUOUS
 10
371.68777
 20
284.576545
 30
0.0
 11
372.194232
 21
284.918099
 31
0.0
  0
LINE
  5
DBA3
  8
WAKU
  6
CONTINUOUS
 10
372.194232
 20
284.918099
 30
0.0
 11
372.686363
 21
285.326171
 31
0.0
  0
LINE
  5
DBA4
  8
WAKU
  6
CONTINUOUS
 10
372.686363
 20
285.326171
 30
0.0
 11
373.145266
 21
285.785089
 31
0.0
  0
LINE
  5
DBA5
  8
WAKU
  6
CONTINUOUS
 10
373.145266
 20
285.785089
 30
0.0
 11
373.553316
 21
286.277229
 31
0.0
  0
LINE
  5
DBA6
  8
WAKU
  6
CONTINUOUS
 10
373.553316
 20
286.277229
 30
0.0
 11
373.894843
 21
286.783693
 31
0.0
  0
LINE
  5
DBA7
  8
WAKU
  6
CONTINUOUS
 10
373.894843
 20
286.783693
 30
0.0
 11
374.156732
 21
287.28503
 31
0.0
  0
LINE
  5
DBA8
  8
WAKU
  6
CONTINUOUS
 10
374.156732
 20
287.28503
 30
0.0
 11
374.328925
 21
287.761987
 31
0.0
  0
LINE
  5
DBA9
  8
WAKU
  6
CONTINUOUS
 10
374.328925
 20
287.761987
 30
0.0
 11
374.40481
 21
288.196249
 31
0.0
  0
LINE
  5
DBAA
  8
WAKU
  6
CONTINUOUS
 10
374.363484
 20
288.64263
 30
0.0
 11
374.225306
 21
288.920895
 31
0.0
  0
LINE
  5
DBAB
  8
WAKU
  6
CONTINUOUS
 10
374.225306
 20
288.920895
 30
0.0
 11
373.998821
 21
289.115757
 31
0.0
  0
LINE
  5
DBAC
  8
WAKU
  6
CONTINUOUS
 10
373.998821
 20
289.115757
 30
0.0
 11
373.692348
 21
289.22006
 31
0.0
  0
LINE
  5
DBAD
  8
WAKU
  6
CONTINUOUS
 10
373.692348
 20
289.22006
 30
0.0
 11
373.317143
 21
289.229972
 31
0.0
  0
LINE
  5
DBAE
  8
WAKU
  6
CONTINUOUS
 10
373.317143
 20
289.229972
 30
0.0
 11
372.886988
 21
289.145129
 31
0.0
  0
LINE
  5
DBAF
  8
WAKU
  6
CONTINUOUS
 10
372.886988
 20
289.145129
 30
0.0
 11
372.417683
 21
288.968648
 31
0.0
  0
LINE
  5
DBB0
  8
WAKU
  6
CONTINUOUS
 10
372.417683
 20
288.968648
 30
0.0
 11
371.926464
 21
288.70701
 31
0.0
  0
LINE
  5
DBB1
  8
WAKU
  6
CONTINUOUS
 10
371.926464
 20
288.70701
 30
0.0
 11
371.431374
 21
288.369826
 31
0.0
  0
LINE
  5
DBB2
  8
WAKU
  6
CONTINUOUS
 10
371.431374
 20
288.369826
 30
0.0
 11
370.950599
 21
287.96948
 31
0.0
  0
LINE
  5
DBB3
  8
WAKU
  6
CONTINUOUS
 10
370.950599
 20
287.96948
 30
0.0
 11
370.501795
 21
287.520677
 31
0.0
  0
LINE
  5
DBB4
  8
WAKU
  6
CONTINUOUS
 10
370.501795
 20
287.520677
 30
0.0
 11
370.101449
 21
287.039901
 31
0.0
  0
LINE
  5
DBB5
  8
WAKU
  6
CONTINUOUS
 10
370.101449
 20
287.039901
 30
0.0
 11
369.764265
 21
286.544812
 31
0.0
  0
LINE
  5
DBB6
  8
WAKU
  6
CONTINUOUS
 10
369.764265
 20
286.544812
 30
0.0
 11
369.502627
 21
286.053593
 31
0.0
  0
LINE
  5
DBB7
  8
WAKU
  6
CONTINUOUS
 10
369.502627
 20
286.053593
 30
0.0
 11
369.326146
 21
285.584287
 31
0.0
  0
LINE
  5
DBB8
  8
WAKU
  6
CONTINUOUS
 10
369.326146
 20
285.584287
 30
0.0
 11
369.241303
 21
285.154132
 31
0.0
  0
LINE
  5
DBB9
  8
WAKU
  6
CONTINUOUS
 10
369.241303
 20
285.154132
 30
0.0
 11
369.251215
 21
284.778928
 31
0.0
  0
LINE
  5
DBBA
  8
WAKU
  6
CONTINUOUS
 10
369.251215
 20
284.778928
 30
0.0
 11
369.355518
 21
284.472454
 31
0.0
  0
LINE
  5
DBBB
  8
WAKU
  6
CONTINUOUS
 10
369.355518
 20
284.472454
 30
0.0
 11
369.550381
 21
284.245969
 31
0.0
  0
LINE
  5
DBBC
  8
WAKU
  6
CONTINUOUS
 10
369.550381
 20
284.245969
 30
0.0
 11
369.828646
 21
284.107791
 31
0.0
  0
INSERT
  5
DBBD
  8
WAKU
  6
CONTINUOUS
  2
*U0
 10
0.0
 20
0.0
 30
0.0
  0
TEXT
  5
10375
  8
WAKU
 10
10.0
 20
285.5
 30
0.0
 40
3.0
  1
FNS-70AT
 41
0.868
 11
10.0
 21
287.0
 31
0.0
 73
     2
  0
TEXT
  5
185DB
  8
WAKU
 10
35.0
 20
284.5
 30
0.0
 40
5.0
  1
外動片引き断面詳細図(HCﾀｲプ)　防火戸　非防火戸
 11
35.0
 21
287.0
 31
0.0
 73
     2
  0
LINE
  5
1B6A9
  8
DANMEN
  6
DASHED
 10
202.499997
 20
119.8
 30
0.0
 11
193.499997
 21
119.8
 31
0.0
  0
LINE
  5
1B6AA
  8
DANMEN
  6
CONTINUOUS
 10
202.499997
 20
130.400001
 30
0.0
 11
193.499997
 21
130.400001
 31
0.0
  0
LINE
  5
1B6AB
  8
DANMEN
  6
CONTINUOUS
 10
205.350003
 20
119.3
 30
0.0
 11
190.649991
 21
119.3
 31
0.0
  0
LINE
  5
1B6AC
  8
DANMEN
  6
CONTINUOUS
 10
207.999997
 20
119.6
 30
0.0
 11
187.999997
 21
119.6
 31
0.0
  0
LINE
  5
1B6AD
  8
DANMEN
  6
CONTINUOUS
 10
207.999997
 20
120.0
 30
0.0
 11
187.999997
 21
120.0
 31
0.0
  0
LINE
  5
1B6AE
  8
DANMEN
  6
DASHED
 10
202.499997
 20
129.3
 30
0.0
 11
193.499997
 21
129.3
 31
0.0
  0
LINE
  5
1B6AF
  8
DANMEN
  6
CONTINUOUS
 10
189.95
 20
121.95
 30
0.0
 11
209.05
 21
121.95
 31
0.0
  0
LINE
  5
1B6B0
  8
DANMEN
  6
CONTINUOUS
 10
189.949997
 20
142.05
 30
0.0
 11
209.050003
 21
142.05
 31
0.0
  0
LINE
  5
1B6B1
  8
DANMEN
  6
CONTINUOUS
 10
185.037291
 20
144.0
 30
0.0
 11
209.0
 21
144.0
 31
0.0
  0
LINE
  5
1B6B2
  8
DANMEN
  6
CONTINUOUS
 10
185.037291
 20
120.0
 30
0.0
 11
231.0
 21
120.0
 31
0.0
  0
LINE
  5
1B6B3
  8
DANMEN
  6
CONTINUOUS
 10
189.95
 20
209.95
 30
0.0
 11
227.05
 21
209.95
 31
0.0
  0
LINE
  5
1B6B4
  8
DANMEN
  6
CONTINUOUS
 10
189.949997
 20
230.05
 30
0.0
 11
227.050003
 21
230.05
 31
0.0
  0
LINE
  5
1B6B5
  8
DANMEN
  6
CONTINUOUS
 10
185.037291
 20
232.0
 30
0.0
 11
227.0
 21
232.0
 31
0.0
  0
LINE
  5
1B6B6
  8
DANMEN
  6
CONTINUOUS
 10
185.037291
 20
208.0
 30
0.0
 11
249.0
 21
208.0
 31
0.0
  0
LINE
  5
1B6B7
  8
DANMEN
  6
PHANTOM
 10
226.5
 20
208.000003
 30
0.0
 11
201.5
 21
208.000003
 31
0.0
  0
LINE
  5
1B6B8
  8
DANMEN
  6
CONTINUOUS
 10
185.0
 20
117.0
 30
0.0
 11
240.25
 21
117.0
 31
0.0
  0
LINE
  5
1B6B9
  8
DANMEN
  6
CONTINUOUS
 10
172.0
 20
85.0
 30
0.0
 11
240.25
 21
85.0
 31
0.0
  0
LINE
  5
1B6BA
  8
DANMEN
  6
CONTINUOUS
 10
185.0
 20
81.0
 30
0.0
 11
240.25
 21
81.0
 31
0.0
  0
LINE
  5
1B6BB
  8
DANMEN
  6
CONTINUOUS
 10
172.0
 20
173.0
 30
0.0
 11
255.0
 21
173.0
 31
0.0
  0
LINE
  5
1B6BC
  8
DANMEN
  6
CONTINUOUS
 10
184.5
 20
205.0
 30
0.0
 11
255.0
 21
205.0
 31
0.0
  0
LINE
  5
1B6BD
  8
DANMEN
  6
CONTINUOUS
 10
186.5
 20
169.0
 30
0.0
 11
255.0
 21
169.0
 31
0.0
  0
LINE
  5
1B6BE
  8
DANMEN
  6
CONTINUOUS
 10
207.0
 20
239.0
 30
0.0
 11
186.5
 21
239.0
 31
0.0
  0
LINE
  5
1B6BF
  8
DANMEN
  6
CONTINUOUS
 10
186.5
 20
151.000003
 30
0.0
 11
207.0
 21
151.000003
 31
0.0
  0
LINE
  5
1B6C0
  8
DANMEN
  6
CONTINUOUS
 10
174.025813
 20
124.335584
 30
0.0
 11
176.800004
 21
117.8
 31
0.0
  0
LINE
  5
1B6C1
  8
DANMEN
  6
CONTINUOUS
 10
173.51044
 20
123.502283
 30
0.0
 11
176.270495
 21
117.0
 31
0.0
  0
LINE
  5
1B6C2
  8
DANMEN
  6
CONTINUOUS
 10
81.0
 20
132.500003
 30
0.0
 11
81.0
 21
91.5
 31
0.0
  0
LINE
  5
1B6C3
  8
DANMEN
  6
CONTINUOUS
 10
116.8
 20
132.500003
 30
0.0
 11
116.8
 21
112.500003
 31
0.0
  0
LINE
  5
1B6C4
  8
DANMEN
  6
CONTINUOUS
 10
115.15
 20
131.350003
 30
0.0
 11
115.15
 21
113.000003
 31
0.0
  0
LINE
  5
1B6C5
  8
DANMEN
  6
CONTINUOUS
 10
82.65
 20
128.000003
 30
0.0
 11
82.65
 21
111.000003
 31
0.0
  0
ARC
  5
1B6C6
  8
DANMEN
  6
CONTINUOUS
 10
104.0
 20
122.500003
 30
0.0
 40
0.5
 50
180.0
 51
270.0
  0
ARC
  5
1B6C7
  8
DANMEN
  6
CONTINUOUS
 10
104.5
 20
122.500003
 30
0.0
 40
0.5
 50
270.0
 51
0.0
  0
LINE
  5
1B6C8
  8
DANMEN
  6
CONTINUOUS
 10
39.149994
 20
136.0
 30
0.0
 11
39.149994
 21
109.949997
 31
0.0
  0
LINE
  5
1B6C9
  8
DANMEN
  6
CONTINUOUS
 10
68.850006
 20
141.050003
 30
0.0
 11
68.850006
 21
110.0
 31
0.0
  0
LINE
  5
1B6CA
  8
DANMEN
  6
CONTINUOUS
 10
70.800003
 20
164.5
 30
0.0
 11
70.800003
 21
80.0
 31
0.0
  0
LINE
  5
1B6CB
  8
DANMEN
  6
CONTINUOUS
 10
37.199997
 20
164.5
 30
0.0
 11
37.199997
 21
109.5
 31
0.0
  0
LINE
  5
1B6CC
  8
DANMEN
  6
CONTINUOUS
 10
172.0
 20
129.5
 30
0.0
 11
172.0
 21
114.6
 31
0.0
  0
LINE
  5
1B6CD
  8
DANMEN
  6
CONTINUOUS
 10
170.350006
 20
149.350006
 30
0.0
 11
170.350006
 21
82.649994
 31
0.0
  0
ARC
  5
1B6CE
  8
DANMEN
  6
CONTINUOUS
 10
197.249997
 20
121.8
 30
0.0
 40
2.5
 50
90.000036
 51
173.938799
  0
ARC
  5
1B6CF
  8
DANMEN
  6
CONTINUOUS
 10
198.749997
 20
121.8
 30
0.0
 40
2.5
 50
6.061201
 51
90.000019
  0
LINE
  5
1B6D0
  8
DANMEN
  6
CONTINUOUS
 10
193.499997
 20
130.400001
 30
0.0
 11
193.499997
 21
120.0
 31
0.0
  0
LINE
  5
1B6D1
  8
DANMEN
  6
CENTER
 10
197.999997
 20
132.900001
 30
0.0
 11
197.999997
 21
117.3
 31
0.0
  0
LINE
  5
1B6D2
  8
DANMEN
  6
CONTINUOUS
 10
190.249997
 20
126.941409
 30
0.0
 11
190.249997
 21
120.0
 31
0.0
  0
LINE
  5
1B6D3
  8
DANMEN
  6
CONTINUOUS
 10
189.95
 20
142.05
 30
0.0
 11
189.95
 21
121.95
 31
0.0
  0
LINE
  5
1B6D4
  8
DANMEN
  6
CONTINUOUS
 10
176.2
 20
123.443494
 30
0.0
 11
185.156624
 21
122.1
 31
0.0
  0
LINE
  5
1B6D5
  8
DANMEN
  6
CONTINUOUS
 10
188.0
 20
141.9
 30
0.0
 11
188.0
 21
122.1
 31
0.0
  0
LINE
  5
1B6D6
  8
DANMEN
  6
CONTINUOUS
 10
175.0
 20
124.0
 30
0.0
 11
175.0
 21
122.361191
 31
0.0
  0
LINE
  5
1B6D7
  8
DANMEN
  6
CONTINUOUS
 10
73.0
 20
169.0
 30
0.0
 11
73.0
 21
79.5
 31
0.0
  0
LINE
  5
1B6D8
  8
DANMEN
  6
CONTINUOUS
 10
35.0
 20
169.0
 30
0.0
 11
35.0
 21
109.5
 31
0.0
  0
LINE
  5
1B6D9
  8
DANMEN
  6
CONTINUOUS
 10
119.0
 20
169.0
 30
0.0
 11
119.0
 21
112.500003
 31
0.0
  0
LINE
  5
1B6DA
  8
DANMEN
  6
CONTINUOUS
 10
75.5
 20
169.0
 30
0.0
 11
75.5
 21
91.0
 31
0.0
  0
LINE
  5
1B6DB
  8
DANMEN
  6
DASHED
 10
78.5
 20
169.0
 30
0.0
 11
78.5
 21
91.0
 31
0.0
  0
LINE
  5
1B6DC
  8
DANMEN
  6
CONTINUOUS
 10
97.025
 20
169.0
 30
0.0
 11
97.025
 21
121.000001
 31
0.0
  0
LINE
  5
1B6DD
  8
DANMEN
  6
CONTINUOUS
 10
90.025
 20
169.0
 30
0.0
 11
90.025
 21
121.000001
 31
0.0
  0
LINE
  5
1B6DE
  8
DANMEN
  6
CONTINUOUS
 10
89.525
 20
169.0
 30
0.0
 11
89.525
 21
121.000001
 31
0.0
  0
LINE
  5
1B6DF
  8
DANMEN
  6
CONTINUOUS
 10
97.525
 20
169.0
 30
0.0
 11
97.525
 21
121.000001
 31
0.0
  0
LINE
  5
1B6E0
  8
DANMEN
  6
CONTINUOUS
 10
94.55285
 20
55.664289
 30
0.0
 11
68.943326
 21
44.392373
 31
0.0
  0
LINE
  5
1B6E1
  8
DANMEN
  6
CONTINUOUS
 10
93.5
 20
57.003636
 30
0.0
 11
68.5
 21
46.0
 31
0.0
  0
LINE
  5
1B6E3
  8
DANMEN
  6
CONTINUOUS
 10
71.050003
 20
68.000004
 30
0.0
 11
68.850006
 21
68.000003
 31
0.0
  0
LINE
  5
1B6E4
  8
DANMEN
  6
CONTINUOUS
 10
69.850006
 20
78.050003
 30
0.0
 11
71.050003
 21
78.050003
 31
0.0
  0
LINE
  5
1B6E5
  8
DANMEN
  6
CONTINUOUS
 10
65.0
 20
51.0
 30
0.0
 11
73.0
 21
51.0
 31
0.0
  0
LINE
  5
1B6E6
  8
DANMEN
  6
CONTINUOUS
 10
55.5
 20
31.0
 30
0.0
 11
112.0
 21
31.0
 31
0.0
  0
LINE
  5
1B6E7
  8
DANMEN
  6
CONTINUOUS
 10
54.0
 20
31.0
 30
0.0
 11
54.0
 21
22.5
 31
0.0
  0
LINE
  5
1B6E8
  8
DANMEN
  6
CONTINUOUS
 10
55.5
 20
31.649994
 30
0.0
 11
55.5
 21
22.5
 31
0.0
  0
ARC
  5
1B6E9
  8
DANMEN
  6
CONTINUOUS
 10
54.5
 20
22.5
 30
0.0
 40
0.5
 50
180.000019
 51
270.000001
  0
LINE
  5
1B6ED
  8
DANMEN
  6
CONTINUOUS
 10
54.5
 20
22.0
 30
0.0
 11
55.0
 21
22.0
 31
0.0
  0
ARC
  5
1B6EF
  8
DANMEN
  6
CONTINUOUS
 10
55.0
 20
22.5
 30
0.0
 40
0.5
 50
270.000018
 51
0.0
  0
LINE
  5
1B6F0
  8
DANMEN
  6
CONTINUOUS
 10
63.0
 20
55.0
 30
0.0
 11
63.0
 21
100.000008
 31
0.0
  0
LINE
  5
1B6F1
  8
DANMEN
  6
CONTINUOUS
 10
59.0
 20
55.0
 30
0.0
 11
59.0
 21
100.000008
 31
0.0
  0
LINE
  5
1B6F2
  8
DANMEN
  6
CONTINUOUS
 10
56.799999
 20
100.000008
 30
0.0
 11
56.799999
 21
55.0
 31
0.0
  0
LINE
  5
1B6F3
  8
DANMEN
  6
CONTINUOUS
 10
65.200001
 20
100.000008
 30
0.0
 11
65.200001
 21
55.0
 31
0.0
  0
LINE
  5
1B6F4
  8
DANMEN
  6
CONTINUOUS
 10
56.600002
 20
68.500004
 30
0.0
 11
56.600002
 21
86.500004
 31
0.0
  0
LINE
  5
1B6F5
  8
DANMEN
  6
CONTINUOUS
 10
65.399998
 20
86.500004
 30
0.0
 11
65.399998
 21
68.500004
 31
0.0
  0
LINE
  5
1B6F6
  8
DANMEN
  6
CONTINUOUS
 10
49.011315
 20
50.945203
 30
0.0
 11
49.0
 21
108.0
 31
0.0
  0
LINE
  5
1B6F7
  8
DANMEN
  6
CONTINUOUS
 10
47.501954
 20
108.0
 30
0.0
 11
47.964828
 21
50.464565
 31
0.0
  0
LINE
  5
1B6F8
  8
DANMEN
  6
CONTINUOUS
 10
48.711313
 20
50.958301
 30
0.0
 11
48.699999
 21
108.006521
 31
0.0
  0
LINE
  5
1B6F9
  8
DANMEN
  6
CONTINUOUS
 10
51.199997
 20
108.0
 30
0.0
 11
51.199997
 21
51.5
 31
0.0
  0
LINE
  5
1B6FA
  8
DANMEN
  6
CONTINUOUS
 10
53.149994
 20
103.0
 30
0.0
 11
53.149994
 21
67.0
 31
0.0
  0
LINE
  5
1B6FB
  8
DANMEN
  6
CONTINUOUS
 10
43.649994
 20
108.0
 30
0.0
 11
43.649994
 21
33.0
 31
0.0
  0
LINE
  5
1B6FC
  8
DANMEN
  6
CONTINUOUS
 10
42.0
 20
108.0
 30
0.0
 11
42.0
 21
34.641644
 31
0.0
  0
ARC
  5
1B6FD
  8
DANMEN
  6
CONTINUOUS
 10
51.596175
 20
52.834251
 30
0.0
 40
0.5
 50
357.5
 51
177.5
  0
LINE
  5
1B6FE
  8
DANMEN
  6
CONTINUOUS
 10
62.5
 20
57.29129
 30
0.0
 11
62.5
 21
46.0
 31
0.0
  0
LINE
  5
1B6FF
  8
DANMEN
  6
CONTINUOUS
 10
60.850006
 20
53.847046
 30
0.0
 11
60.850006
 21
46.0
 31
0.0
  0
LINE
  5
1B700
  8
DANMEN
  6
CONTINUOUS
 10
53.149994
 20
65.999999
 30
0.0
 11
53.149994
 21
51.5
 31
0.0
  0
LINE
  5
1B701
  8
DANMEN
  6
CONTINUOUS
 10
65.0
 20
57.0
 30
0.0
 11
65.0
 21
51.0
 31
0.0
  0
LINE
  5
1B702
  8
DANMEN
  6
CONTINUOUS
 10
57.0
 20
57.0
 30
0.0
 11
57.0
 21
51.0
 31
0.0
  0
LINE
  5
1B703
  8
DANMEN
  6
CONTINUOUS
 10
50.649994
 20
32.649994
 30
0.0
 11
54.5
 21
32.649994
 31
0.0
  0
LINE
  5
1B704
  8
DANMEN
  6
CONTINUOUS
 10
54.920742
 20
44.35
 30
0.0
 11
50.649994
 21
42.020489
 31
0.0
  0
ARC
  5
1B705
  8
DANMEN
  6
CONTINUOUS
 10
55.00999
 20
44.0
 30
0.0
 40
2.0
 50
90.0
 51
118.610582
  0
LINE
  5
1B706
  8
DANMEN
  6
CONTINUOUS
 10
52.949997
 20
51.0
 30
0.0
 11
57.0
 21
51.0
 31
0.0
  0
LINE
  5
1B707
  8
DANMEN
  6
CONTINUOUS
 10
49.0
 20
42.406353
 30
0.0
 11
49.0
 21
33.0
 31
0.0
  0
LINE
  5
1B708
  8
DANMEN
  6
CONTINUOUS
 10
50.649994
 20
42.020489
 30
0.0
 11
50.649994
 21
32.649994
 31
0.0
  0
LINE
  5
1B709
  8
DANMEN
  6
CONTINUOUS
 10
43.1
 20
33.0
 30
0.0
 11
49.0
 21
33.0
 31
0.0
  0
LINE
  5
1B70A
  8
DANMEN
  6
CONTINUOUS
 10
42.800003
 20
31.9
 30
0.0
 11
49.0
 21
31.9
 31
0.0
  0
LINE
  5
1B70B
  8
DANMEN
  6
CONTINUOUS
 10
42.402221
 20
31.0
 30
0.0
 11
49.5
 21
31.0
 31
0.0
  0
LINE
  5
1B70C
  8
DANMEN
  6
CONTINUOUS
 10
39.0
 20
40.399994
 30
0.0
 11
39.0
 21
35.10902
 31
0.0
  0
LINE
  5
1B70D
  8
DANMEN
  6
CONTINUOUS
 10
40.199997
 20
40.399994
 30
0.0
 11
40.199997
 21
35.429842
 31
0.0
  0
ARC
  5
1B70E
  8
DANMEN
  6
CONTINUOUS
 10
42.399994
 20
31.399994
 30
0.0
 40
0.4
 50
180.000019
 51
359.999983
  0
LINE
  5
1B70F
  8
DANMEN
  6
CONTINUOUS
 10
40.199997
 20
35.429842
 30
0.0
 11
42.823607
 21
34.118037
 31
0.0
  0
LINE
  5
1B710
  8
DANMEN
  6
CONTINUOUS
 10
42.0
 20
33.300003
 30
0.0
 11
42.0
 21
31.399994
 31
0.0
  0
ARC
  5
1B714
  8
DANMEN
  6
CONTINUOUS
 10
39.5
 20
35.10902
 30
0.0
 40
0.5
 50
180.0
 51
243.434949
  0
LINE
  5
1B715
  8
DANMEN
  6
CONTINUOUS
 10
39.276393
 20
34.661806
 30
0.0
 11
42.0
 21
33.300003
 31
0.0
  0
LINE
  5
1B719
  8
DANMEN
  6
CONTINUOUS
 10
42.800003
 20
31.9
 30
0.0
 11
42.800003
 21
31.399994
 31
0.0
  0
LINE
  5
1B71B
  8
DANMEN
  6
CONTINUOUS
 10
43.1
 20
33.670823
 30
0.0
 11
43.1
 21
33.0
 31
0.0
  0
ARC
  5
1B71C
  8
DANMEN
  6
CONTINUOUS
 10
42.6
 20
33.670823
 30
0.0
 40
0.5
 50
0.0
 51
63.434949
  0
ARC
  5
1B720
  8
DANMEN
  6
CONTINUOUS
 10
39.600006
 20
40.399994
 30
0.0
 40
0.6
 50
0.0
 51
180.000019
  0
LINE
  5
1B723
  8
DANMEN
  6
CONTINUOUS
 10
49.5
 20
31.0
 30
0.0
 11
54.0
 21
31.0
 31
0.0
  0
ARC
  5
1B725
  8
DANMEN
  6
CONTINUOUS
 10
49.5
 20
31.5
 30
0.0
 40
0.5
 50
180.000019
 51
270.000001
  0
LINE
  5
1B726
  8
DANMEN
  6
CONTINUOUS
 10
49.0
 20
31.9
 30
0.0
 11
49.0
 21
31.5
 31
0.0
  0
LINE
  5
1B72B
  8
DANMEN
  6
CONTINUOUS
 10
54.052282
 20
45.755789
 30
0.0
 11
49.521146
 21
43.284248
 31
0.0
  0
ARC
  5
1B72D
  8
DANMEN
  6
CONTINUOUS
 10
50.0
 20
42.406353
 30
0.0
 40
1.0
 50
118.610582
 51
180.0
  0
LINE
  5
1B72F
  8
DANMEN
  6
CONTINUOUS
 10
51.465316
 20
49.837106
 30
0.0
 11
48.443002
 21
49.969063
 31
0.0
  0
LINE
  5
1B730
  8
DANMEN
  6
CONTINUOUS
 10
52.00846
 20
50.814345
 30
0.0
 11
48.711313
 21
50.958301
 31
0.0
  0
ARC
  5
1B735
  8
DANMEN
  6
CONTINUOUS
 10
48.464812
 20
50.468587
 30
0.0
 40
0.5
 50
180.460936
 51
267.5
  0
LINE
  5
1B738
  8
DANMEN
  6
CONTINUOUS
 10
51.09665
 20
52.856061
 30
0.0
 11
51.009412
 21
50.857964
 31
0.0
  0
LINE
  5
1B73A
  8
DANMEN
  6
CONTINUOUS
 10
52.095699
 20
52.812441
 30
0.0
 11
51.98665
 21
50.314821
 31
0.0
  0
ARC
  5
1B73B
  8
DANMEN
  6
CONTINUOUS
 10
51.487126
 20
50.33663
 30
0.0
 40
0.5
 50
267.5
 51
357.5
  0
LINE
  5
1B73D
  8
DANMEN
  6
CONTINUOUS
 10
51.053031
 20
51.857012
 30
0.0
 11
52.052079
 21
51.813393
 31
0.0
  0
ARC
  5
1B740
  8
DANMEN
  6
CONTINUOUS
 10
51.699997
 20
51.5
 30
0.0
 40
0.5
 50
180.000019
 51
270.000001
  0
ARC
  5
1B742
  8
DANMEN
  6
CONTINUOUS
 10
52.649994
 20
51.5
 30
0.0
 40
0.5
 50
270.000018
 51
0.0
  0
LINE
  5
1B744
  8
DANMEN
  6
CONTINUOUS
 10
51.699997
 20
51.0
 30
0.0
 11
52.649994
 21
51.0
 31
0.0
  0
LINE
  5
1B745
  8
DANMEN
  6
CONTINUOUS
 10
50.419296
 20
51.0
 30
0.0
 11
52.0
 21
51.0
 31
0.0
  0
ARC
  5
1B746
  8
DANMEN
  6
CONTINUOUS
 10
62.2
 20
42.053939
 30
0.0
 40
1.0
 50
180.0
 51
245.375682
  0
ARC
  5
1B747
  8
DANMEN
  6
CONTINUOUS
 10
61.7
 20
41.969694
 30
0.0
 40
2.0
 50
180.0
 51
231.706523
  0
ARC
  5
1B748
  8
DANMEN
  6
CONTINUOUS
 10
63.8
 20
42.053939
 30
0.0
 40
1.0
 50
294.624318
 51
0.0
  0
LINE
  5
1B749
  8
DANMEN
  6
CONTINUOUS
 10
69.468917
 20
41.307438
 30
0.0
 11
66.855268
 21
40.171069
 31
0.0
  0
LINE
  5
1B74A
  8
DANMEN
  6
CONTINUOUS
 10
66.3
 20
41.448185
 30
0.0
 11
66.855268
 21
40.171069
 31
0.0
  0
ARC
  5
1B74B
  8
DANMEN
  6
CONTINUOUS
 10
69.66828
 20
40.848903
 30
0.0
 40
0.5
 50
23.49856
 51
113.49856
  0
ARC
  5
1B74D
  8
DANMEN
  6
CONTINUOUS
 10
54.5
 20
31.649994
 30
0.0
 40
1.0
 50
0.0
 51
89.999982
  0
ARC
  5
1B74E
  8
DANMEN
  6
CONTINUOUS
 10
61.6
 20
40.7
 30
0.0
 40
0.3
 50
270.0
 51
0.0
  0
LINE
  5
1B74F
  8
DANMEN
  6
CONTINUOUS
 10
60.460621
 20
40.4
 30
0.0
 11
61.6
 21
40.4
 31
0.0
  0
LINE
  5
1B750
  8
DANMEN
  6
CONTINUOUS
 10
61.9
 20
40.7
 30
0.0
 11
61.9
 21
40.963068
 31
0.0
  0
ARC
  5
1B751
  8
DANMEN
  6
CONTINUOUS
 10
61.7
 20
40.963068
 30
0.0
 40
0.2
 50
0.0
 51
65.375682
  0
ARC
  5
1B752
  8
DANMEN
  6
CONTINUOUS
 10
66.518344
 20
39.315802
 30
0.0
 40
1.0
 50
203.49856
 51
293.49856
  0
ARC
  5
1B753
  8
DANMEN
  6
CONTINUOUS
 10
64.4
 20
40.7
 30
0.0
 40
0.3
 50
180.0
 51
270.0
  0
LINE
  5
1B754
  8
DANMEN
  6
CONTINUOUS
 10
64.4
 20
40.4
 30
0.0
 11
64.956524
 21
40.4
 31
0.0
  0
ARC
  5
1B755
  8
DANMEN
  6
CONTINUOUS
 10
64.3
 20
40.963068
 30
0.0
 40
0.2
 50
114.624318
 51
180.0
  0
LINE
  5
1B756
  8
DANMEN
  6
CONTINUOUS
 10
64.1
 20
40.7
 30
0.0
 11
64.1
 21
40.963068
 31
0.0
  0
LINE
  5
1B75A
  8
DANMEN
  6
CONTINUOUS
 10
64.956524
 20
40.4
 30
0.0
 11
65.601274
 21
38.917076
 31
0.0
  0
LINE
  5
1B75C
  8
DANMEN
  6
CONTINUOUS
 10
70.126815
 20
39.794273
 30
0.0
 11
66.91707
 21
38.398732
 31
0.0
  0
LINE
  5
1B75D
  8
DANMEN
  6
CONTINUOUS
 10
70.126816
 20
41.048266
 30
0.0
 11
70.385987
 21
40.452171
 31
0.0
  0
ARC
  5
1B75E
  8
DANMEN
  6
CONTINUOUS
 10
69.927452
 20
40.252808
 30
0.0
 40
0.5
 50
293.49856
 51
23.49856
  0
LINE
  5
1B761
  8
DANMEN
  6
CONTINUOUS
 10
62.5
 20
46.0
 30
0.0
 11
68.5
 21
46.0
 31
0.0
  0
LINE
  5
1B762
  8
DANMEN
  6
CONTINUOUS
 10
62.2
 20
44.3
 30
0.0
 11
63.8
 21
44.3
 31
0.0
  0
LINE
  5
1B763
  8
DANMEN
  6
CONTINUOUS
 10
55.00999
 20
46.0
 30
0.0
 11
60.850006
 21
46.0
 31
0.0
  0
LINE
  5
1B764
  8
DANMEN
  6
CONTINUOUS
 10
54.920742
 20
44.35
 30
0.0
 11
58.7
 21
44.35
 31
0.0
  0
LINE
  5
1B769
  8
DANMEN
  6
CONTINUOUS
 10
61.2
 20
42.053939
 30
0.0
 11
61.2
 21
43.3
 31
0.0
  0
LINE
  5
1B76A
  8
DANMEN
  6
CONTINUOUS
 10
59.7
 20
41.969694
 30
0.0
 11
59.7
 21
43.35
 31
0.0
  0
ARC
  5
1B76B
  8
DANMEN
  6
CONTINUOUS
 10
62.2
 20
43.3
 30
0.0
 40
1.0
 50
90.0
 51
180.0
  0
ARC
  5
1B76C
  8
DANMEN
  6
CONTINUOUS
 10
58.7
 20
43.35
 30
0.0
 40
1.0
 50
0.0
 51
90.0
  0
LINE
  5
1B76E
  8
DANMEN
  6
CONTINUOUS
 10
66.3
 20
44.350006
 30
0.0
 11
68.741901
 21
44.350006
 31
0.0
  0
ARC
  5
1B770
  8
DANMEN
  6
CONTINUOUS
 10
63.8
 20
43.3
 30
0.0
 40
1.0
 50
0.0
 51
90.0
  0
LINE
  5
1B771
  8
DANMEN
  6
CONTINUOUS
 10
64.8
 20
42.053939
 30
0.0
 11
64.8
 21
43.3
 31
0.0
  0
LINE
  5
1B772
  8
DANMEN
  6
CONTINUOUS
 10
66.3
 20
41.448185
 30
0.0
 11
66.3
 21
44.350006
 31
0.0
  0
ARC
  5
1B775
  8
DANMEN
  6
CONTINUOUS
 10
68.741901
 20
44.850006
 30
0.0
 40
0.5
 50
270.0
 51
293.756476
  0
LINE
  5
1B778
  8
DANMEN
  6
CONTINUOUS
 10
68.850006
 20
67.000003
 30
0.0
 11
53.149989
 21
66.999999
 31
0.0
  0
LINE
  5
1B779
  8
DANMEN
  6
CONTINUOUS
 10
56.149989
 20
65.999999
 30
0.0
 11
54.149994
 21
65.999999
 31
0.0
  0
LINE
  5
1B77D
  8
DANMEN
  6
CONTINUOUS
 10
53.149994
 20
65.999999
 30
0.0
 11
53.649994
 21
66.499999
 31
0.0
  0
LINE
  5
1B77E
  8
DANMEN
  6
CONTINUOUS
 10
54.149994
 20
65.999999
 30
0.0
 11
53.649994
 21
66.499999
 31
0.0
  0
ARC
  5
1B785
  8
DANMEN
  6
CONTINUOUS
 10
61.0
 20
55.0
 30
0.0
 40
3.0
 50
53.130102
 51
126.869903
  0
ARC
  5
1B786
  8
DANMEN
  6
CONTINUOUS
 10
62.0
 20
57.29129
 30
0.0
 40
0.5
 50
0.000279
 51
66.42195
  0
ARC
  5
1B787
  8
DANMEN
  6
CONTINUOUS
 10
61.0
 20
57.0
 30
0.0
 40
4.0
 50
0.0
 51
180.000019
  0
LINE
  5
1B788
  8
DANMEN
  6
CONTINUOUS
 10
56.799999
 20
55.0
 30
0.0
 11
59.0
 21
55.0
 31
0.0
  0
ARC
  5
1B78A
  8
DANMEN
  6
CONTINUOUS
 10
59.5
 20
57.0
 30
0.0
 40
0.5
 50
126.869907
 51
180.000009
  0
LINE
  5
1B78B
  8
DANMEN
  6
CONTINUOUS
 10
59.5
 20
57.29129
 30
0.0
 11
59.5
 21
56.152954
 31
0.0
  0
ARC
  5
1B78D
  8
DANMEN
  6
CONTINUOUS
 10
61.0
 20
55.0
 30
0.0
 40
3.0
 50
66.421841
 51
113.578178
  0
ARC
  5
1B78E
  8
DANMEN
  6
CONTINUOUS
 10
60.0
 20
57.29129
 30
0.0
 40
0.5
 50
113.578068
 51
179.999745
  0
LINE
  5
1B793
  8
DANMEN
  6
CONTINUOUS
 10
60.764431
 20
54.126784
 30
0.0
 11
59.585579
 21
55.873223
 31
0.0
  0
ARC
  5
1B794
  8
DANMEN
  6
CONTINUOUS
 10
60.350006
 20
53.847046
 30
0.0
 40
0.5
 50
0.000664
 51
34.020021
  0
ARC
  5
1B795
  8
DANMEN
  6
CONTINUOUS
 10
60.0
 20
56.152954
 30
0.0
 40
0.5
 50
180.000309
 51
214.019733
  0
LINE
  5
1B796
  8
DANMEN
  6
CONTINUOUS
 10
65.200001
 20
55.0
 30
0.0
 11
63.0
 21
55.0
 31
0.0
  0
ARC
  5
1B797
  8
DANMEN
  6
CONTINUOUS
 10
62.5
 20
57.0
 30
0.0
 40
0.5
 50
359.999997
 51
53.130102
  0
LINE
  5
1B79B
  8
DANMEN
  6
CONTINUOUS
 10
65.850001
 20
65.050006
 30
0.0
 11
56.149988
 21
65.050002
 31
0.0
  0
LINE
  5
1B79C
  8
DANMEN
  6
CONTINUOUS
 10
56.600001
 20
68.500003
 30
0.0
 11
56.799998
 21
68.300005
 31
0.0
  0
LINE
  5
1B79F
  8
DANMEN
  6
CONTINUOUS
 10
56.149994
 20
66.0
 30
0.0
 11
56.149994
 21
65.050003
 31
0.0
  0
LINE
  5
1B7A0
  8
DANMEN
  6
CONTINUOUS
 10
67.850006
 20
66.000003
 30
0.0
 11
65.850001
 21
66.000002
 31
0.0
  0
LINE
  5
1B7A1
  8
DANMEN
  6
CONTINUOUS
 10
65.399994
 20
68.500002
 30
0.0
 11
65.199998
 21
68.300006
 31
0.0
  0
LINE
  5
1B7A4
  8
DANMEN
  6
CONTINUOUS
 10
65.850006
 20
66.0
 30
0.0
 11
65.850006
 21
65.050003
 31
0.0
  0
LINE
  5
1B7A5
  8
DANMEN
  6
CONTINUOUS
 10
68.350006
 20
66.500003
 30
0.0
 11
67.850006
 21
66.000003
 31
0.0
  0
LINE
  5
1B7A6
  8
DANMEN
  6
CONTINUOUS
 10
68.850006
 20
66.000003
 30
0.0
 11
68.350006
 21
66.500003
 31
0.0
  0
LINE
  5
1B7AD
  8
DANMEN
  6
CONTINUOUS
 10
68.850006
 20
68.000003
 30
0.0
 11
68.850006
 21
67.0
 31
0.0
  0
LINE
  5
1B7AE
  8
DANMEN
  6
CONTINUOUS
 10
49.0
 20
109.5
 30
0.0
 11
35.000005
 21
109.5
 31
0.0
  0
LINE
  5
1B7AF
  8
DANMEN
  6
CONTINUOUS
 10
48.7
 20
108.0
 30
0.0
 11
36.000005
 21
108.0
 31
0.0
  0
LINE
  5
1B7B0
  8
DANMEN
  6
CONTINUOUS
 10
36.0
 20
108.0
 30
0.0
 11
51.199997
 21
108.0
 31
0.0
  0
LINE
  5
1B7B1
  8
DANMEN
  6
CONTINUOUS
 10
35.000005
 20
109.5
 30
0.0
 11
35.000005
 21
109.0
 31
0.0
  0
ARC
  5
1B7B3
  8
DANMEN
  6
CONTINUOUS
 10
36.000005
 20
109.0
 30
0.0
 40
1.0
 50
180.0
 51
270.0
  0
ARC
  5
1B7B6
  8
DANMEN
  6
CONTINUOUS
 10
36.0
 20
109.0
 30
0.0
 40
1.0
 50
180.0
 51
270.0
  0
LINE
  5
1B7B9
  8
DANMEN
  6
CONTINUOUS
 10
35.0
 20
109.5
 30
0.0
 11
37.199997
 21
109.5
 31
0.0
  0
LINE
  5
1B7BA
  8
DANMEN
  6
CONTINUOUS
 10
35.0
 20
109.5
 30
0.0
 11
35.0
 21
109.0
 31
0.0
  0
LINE
  5
1B7BB
  8
DANMEN
  6
CONTINUOUS
 10
68.850006
 20
103.0
 30
0.0
 11
68.850006
 21
79.050003
 31
0.0
  0
LINE
  5
1B7BC
  8
DANMEN
  6
CONTINUOUS
 10
56.600001
 20
86.500005
 30
0.0
 11
56.799998
 21
86.700002
 31
0.0
  0
ARC
  5
1B7BD
  8
DANMEN
  6
CONTINUOUS
 10
69.850006
 20
79.050003
 30
0.0
 40
1.0
 50
180.000019
 51
270.000001
  0
LINE
  5
1B7BF
  8
DANMEN
  6
CONTINUOUS
 10
65.399994
 20
86.500006
 30
0.0
 11
65.199998
 21
86.700002
 31
0.0
  0
ARC
  5
1B7C0
  8
DANMEN
  6
CONTINUOUS
 10
61.0
 20
100.000008
 30
0.0
 40
3.0
 50
233.130097
 51
306.869898
  0
ARC
  5
1B7C1
  8
DANMEN
  6
CONTINUOUS
 10
59.5
 20
98.000008
 30
0.0
 40
0.5
 50
179.999991
 51
233.130093
  0
ARC
  5
1B7C2
  8
DANMEN
  6
CONTINUOUS
 10
62.5
 20
98.000008
 30
0.0
 40
0.5
 50
306.869898
 51
0.000003
  0
LINE
  5
1B7C3
  8
DANMEN
  6
CONTINUOUS
 10
53.149994
 20
104.199997
 30
0.0
 11
57.699997
 21
104.199997
 31
0.0
  0
LINE
  5
1B7C4
  8
DANMEN
  6
CONTINUOUS
 10
53.149994
 20
103.0
 30
0.0
 11
59.199997
 21
103.0
 31
0.0
  0
LINE
  5
1B7C5
  8
DANMEN
  6
CONTINUOUS
 10
39.149994
 20
109.949997
 30
0.0
 11
52.149994
 21
109.949997
 31
0.0
  0
LINE
  5
1B7C7
  8
DANMEN
  6
CONTINUOUS
 10
53.149994
 20
108.949997
 30
0.0
 11
53.149994
 21
104.199997
 31
0.0
  0
LINE
  5
1B7CA
  8
DANMEN
  6
CONTINUOUS
 10
49.0
 20
109.5
 30
0.0
 11
49.0
 21
108.0
 31
0.0
  0
LINE
  5
1B7CC
  8
DANMEN
  6
CONTINUOUS
 10
48.7
 20
109.5
 30
0.0
 11
48.7
 21
107.993429
 31
0.0
  0
ARC
  5
1B7D0
  8
DANMEN
  6
CONTINUOUS
 10
52.149994
 20
108.949997
 30
0.0
 40
1.0
 50
0.0
 51
89.999982
  0
ARC
  5
1B7D3
  8
DANMEN
  6
CONTINUOUS
 10
61.7
 20
107.3
 30
0.0
 40
1.0
 50
0.0
 51
90.0
  0
LINE
  5
1B7D4
  8
DANMEN
  6
CONTINUOUS
 10
60.199997
 20
110.0
 30
0.0
 11
68.850006
 21
110.0
 31
0.0
  0
ARC
  5
1B7D5
  8
DANMEN
  6
CONTINUOUS
 10
60.2
 20
105.8
 30
0.0
 40
1.0
 50
180.0
 51
270.0
  0
LINE
  5
1B7D6
  8
DANMEN
  6
CONTINUOUS
 10
57.699997
 20
107.5
 30
0.0
 11
57.699997
 21
104.199997
 31
0.0
  0
LINE
  5
1B7D7
  8
DANMEN
  6
CONTINUOUS
 10
56.799999
 20
100.000008
 30
0.0
 11
59.0
 21
100.000008
 31
0.0
  0
LINE
  5
1B7DA
  8
DANMEN
  6
CONTINUOUS
 10
60.2
 20
104.8
 30
0.0
 11
60.833705
 21
104.8
 31
0.0
  0
LINE
  5
1B7DB
  8
DANMEN
  6
CONTINUOUS
 10
59.199997
 20
103.3
 30
0.0
 11
60.833705
 21
103.3
 31
0.0
  0
ARC
  5
1B7DC
  8
DANMEN
  6
CONTINUOUS
 10
60.833705
 20
104.05
 30
0.0
 40
0.75
 50
270.0
 51
90.0
  0
LINE
  5
1B7DE
  8
DANMEN
  6
CONTINUOUS
 10
59.199997
 20
103.300003
 30
0.0
 11
59.199997
 21
103.0
 31
0.0
  0
ARC
  5
1B7DF
  8
DANMEN
  6
CONTINUOUS
 10
60.199997
 20
107.5
 30
0.0
 40
2.5
 50
89.999982
 51
180.000019
  0
LINE
  5
1B7E2
  8
DANMEN
  6
CONTINUOUS
 10
60.2
 20
108.3
 30
0.0
 11
61.7
 21
108.3
 31
0.0
  0
LINE
  5
1B7E3
  8
DANMEN
  6
CONTINUOUS
 10
59.2
 20
105.8
 30
0.0
 11
59.2
 21
107.3
 31
0.0
  0
ARC
  5
1B7E4
  8
DANMEN
  6
CONTINUOUS
 10
60.2
 20
107.3
 30
0.0
 40
1.0
 50
90.0
 51
180.0
  0
LINE
  5
1B7E6
  8
DANMEN
  6
CONTINUOUS
 10
68.850006
 20
108.350006
 30
0.0
 11
68.850006
 21
104.199997
 31
0.0
  0
ARC
  5
1B7E7
  8
DANMEN
  6
CONTINUOUS
 10
66.800003
 20
103.699997
 30
0.0
 40
0.5
 50
89.999982
 51
180.000019
  0
LINE
  5
1B7E8
  8
DANMEN
  6
CONTINUOUS
 10
66.300003
 20
103.0
 30
0.0
 11
68.850006
 21
103.0
 31
0.0
  0
LINE
  5
1B7E9
  8
DANMEN
  6
CONTINUOUS
 10
65.200001
 20
100.000008
 30
0.0
 11
63.0
 21
100.000008
 31
0.0
  0
LINE
  5
1B7EC
  8
DANMEN
  6
CONTINUOUS
 10
66.300003
 20
103.699997
 30
0.0
 11
66.300003
 21
103.0
 31
0.0
  0
LINE
  5
1B7EF
  8
DANMEN
  6
CONTINUOUS
 10
66.800003
 20
104.199997
 30
0.0
 11
68.850006
 21
104.199997
 31
0.0
  0
LINE
  5
1B7F0
  8
DANMEN
  6
CONTINUOUS
 10
65.199997
 20
108.350006
 30
0.0
 11
68.850006
 21
108.350006
 31
0.0
  0
ARC
  5
1B7F2
  8
DANMEN
  6
CONTINUOUS
 10
65.2
 20
107.350006
 30
0.0
 40
1.0
 50
90.0
 51
180.0
  0
LINE
  5
1B7F4
  8
DANMEN
  6
CONTINUOUS
 10
62.7
 20
106.666295
 30
0.0
 11
62.7
 21
107.3
 31
0.0
  0
LINE
  5
1B7F5
  8
DANMEN
  6
CONTINUOUS
 10
64.2
 20
106.666295
 30
0.0
 11
64.2
 21
107.350006
 31
0.0
  0
ARC
  5
1B7F6
  8
DANMEN
  6
CONTINUOUS
 10
63.45
 20
106.666295
 30
0.0
 40
0.75
 50
180.0
 51
0.0
  0
LINE
  5
1B7F8
  8
DANMEN
  6
CONTINUOUS
 10
81.0
 20
90.5
 30
0.0
 11
81.0
 21
74.0
 31
0.0
  0
LINE
  5
1B7F9
  8
DANMEN
  6
CONTINUOUS
 10
82.8
 20
88.0
 30
0.0
 11
82.8
 21
71.0
 31
0.0
  0
LINE
  5
1B7FA
  8
DANMEN
  6
CONTINUOUS
 10
112.0
 20
90.5
 30
0.0
 11
112.0
 21
56.5
 31
0.0
  0
LINE
  5
1B7FB
  8
DANMEN
  6
CONTINUOUS
 10
110.35
 20
84.2
 30
0.0
 11
110.35
 21
73.0
 31
0.0
  0
LINE
  5
1B7FC
  8
DANMEN
  6
CONTINUOUS
 10
71.050003
 20
78.050003
 30
0.0
 11
71.050003
 21
68.000004
 31
0.0
  0
LINE
  5
1B7FD
  8
DANMEN
  6
CONTINUOUS
 10
73.0
 20
79.5
 30
0.0
 11
73.0
 21
66.500005
 31
0.0
  0
LINE
  5
1B7FE
  8
DANMEN
  6
CONTINUOUS
 10
73.0
 20
91.0
 30
0.0
 11
81.0
 21
74.0
 31
0.0
  0
LINE
  5
1B7FF
  8
DANMEN
  6
CONTINUOUS
 10
81.0
 20
91.0
 30
0.0
 11
73.0
 21
74.0
 31
0.0
  0
LINE
  5
1B800
  8
DANMEN
  6
CONTINUOUS
 10
99.05
 20
73.0
 30
0.0
 11
110.35
 21
73.0
 31
0.0
  0
LINE
  5
1B801
  8
DANMEN
  6
CONTINUOUS
 10
100.2
 20
71.35
 30
0.0
 11
110.350006
 21
71.35
 31
0.0
  0
LINE
  5
1B802
  8
DANMEN
  6
CONTINUOUS
 10
73.0
 20
66.500005
 30
0.0
 11
73.0
 21
51.0
 31
0.0
  0
LINE
  5
1B803
  8
DANMEN
  6
CONTINUOUS
 10
82.8
 20
71.0
 30
0.0
 11
98.55
 21
71.0
 31
0.0
  0
LINE
  5
1B804
  8
DANMEN
  6
CONTINUOUS
 10
86.5
 20
68.5
 30
0.0
 11
92.5
 21
68.5
 31
0.0
  0
LINE
  5
1B805
  8
DANMEN
  6
CONTINUOUS
 10
76.5
 20
66.0
 30
0.0
 11
79.000003
 21
66.0
 31
0.0
  0
LINE
  5
1B806
  8
DANMEN
  6
CONTINUOUS
 10
76.5
 20
74.0
 30
0.0
 11
81.0
 21
74.0
 31
0.0
  0
LINE
  5
1B807
  8
DANMEN
  6
CONTINUOUS
 10
73.000003
 20
74.0
 30
0.0
 11
81.000003
 21
74.0
 31
0.0
  0
LINE
  5
1B808
  8
DANMEN
  6
CONTINUOUS
 10
73.600003
 20
70.217127
 30
0.0
 11
74.582437
 21
73.4
 31
0.0
  0
LINE
  5
1B809
  8
DANMEN
  6
CONTINUOUS
 10
73.000003
 20
69.394291
 30
0.0
 11
73.000003
 21
70.305709
 31
0.0
  0
LINE
  5
1B80A
  8
DANMEN
  6
CONTINUOUS
 10
77.200003
 20
69.0
 30
0.0
 11
77.200003
 21
70.7
 31
0.0
  0
LINE
  5
1B80B
  8
DANMEN
  6
CONTINUOUS
 10
75.200003
 20
66.3
 30
0.0
 11
75.200003
 21
73.4
 31
0.0
  0
LINE
  5
1B80C
  8
DANMEN
  6
CONTINUOUS
 10
78.500003
 20
73.0
 30
0.0
 11
78.500003
 21
66.8
 31
0.0
  0
LINE
  5
1B80D
  8
DANMEN
  6
CONTINUOUS
 10
74.582437
 20
66.3
 30
0.0
 11
75.200003
 21
66.3
 31
0.0
  0
LINE
  5
1B80E
  8
DANMEN
  6
CONTINUOUS
 10
74.327481
 20
65.7
 30
0.0
 11
76.000003
 21
65.7
 31
0.0
  0
LINE
  5
1B812
  8
DANMEN
  6
CONTINUOUS
 10
73.600003
 20
69.482874
 30
0.0
 11
73.600003
 21
70.217127
 31
0.0
  0
LINE
  5
1B813
  8
DANMEN
  6
CONTINUOUS
 10
74.582437
 20
66.3
 30
0.0
 11
73.600003
 21
69.482874
 31
0.0
  0
ARC
  5
1B815
  8
DANMEN
  6
CONTINUOUS
 10
73.200003
 20
69.394291
 30
0.0
 40
0.2
 50
180.0
 51
204.97391
  0
ARC
  5
1B817
  8
DANMEN
  6
CONTINUOUS
 10
74.327481
 20
65.9
 30
0.0
 40
0.2
 50
204.97391
 51
270.0
  0
LINE
  5
1B818
  8
DANMEN
  6
CONTINUOUS
 10
74.146181
 20
65.815559
 30
0.0
 11
73.018703
 21
69.30985
 31
0.0
  0
ARC
  5
1B81C
  8
DANMEN
  6
CONTINUOUS
 10
72.5
 20
66.500005
 30
0.0
 40
0.5
 50
270.0
 51
0.0
  0
LINE
  5
1B824
  8
DANMEN
  6
CONTINUOUS
 10
76.000003
 20
65.7
 30
0.0
 11
76.000003
 21
68.2
 31
0.0
  0
LINE
  5
1B826
  8
DANMEN
  6
CONTINUOUS
 10
76.000003
 20
68.2
 30
0.0
 11
77.000003
 21
68.2
 31
0.0
  0
LINE
  5
1B827
  8
DANMEN
  6
CONTINUOUS
 10
78.000003
 20
68.2
 30
0.0
 11
77.200003
 21
69.0
 31
0.0
  0
ARC
  5
1B82A
  8
DANMEN
  6
CONTINUOUS
 10
77.200003
 20
67.2
 30
0.0
 40
0.2
 50
179.999981
 51
270.000018
  0
ARC
  5
1B82C
  8
DANMEN
  6
CONTINUOUS
 10
77.800003
 20
67.2
 30
0.0
 40
0.2
 50
270.000018
 51
0.0
  0
LINE
  5
1B82E
  8
DANMEN
  6
CONTINUOUS
 10
77.000003
 20
67.2
 30
0.0
 11
77.000003
 21
68.2
 31
0.0
  0
LINE
  5
1B82F
  8
DANMEN
  6
CONTINUOUS
 10
77.200003
 20
67.0
 30
0.0
 11
77.800003
 21
67.0
 31
0.0
  0
LINE
  5
1B830
  8
DANMEN
  6
CONTINUOUS
 10
78.000003
 20
67.2
 30
0.0
 11
78.000003
 21
68.2
 31
0.0
  0
LINE
  5
1B832
  8
DANMEN
  6
CONTINUOUS
 10
76.0
 20
67.699997
 30
0.0
 11
76.0
 21
66.5
 31
0.0
  0
LINE
  5
1B833
  8
DANMEN
  6
CONTINUOUS
 10
76.800003
 20
68.199997
 30
0.0
 11
76.800003
 21
66.8
 31
0.0
  0
ARC
  5
1B834
  8
DANMEN
  6
CONTINUOUS
 10
76.5
 20
66.5
 30
0.0
 40
0.5
 50
180.000019
 51
270.000001
  0
ARC
  5
1B835
  8
DANMEN
  6
CONTINUOUS
 10
76.5
 20
67.699997
 30
0.0
 40
0.5
 50
89.999982
 51
180.000019
  0
LINE
  5
1B836
  8
DANMEN
  6
CONTINUOUS
 10
76.5
 20
68.199997
 30
0.0
 11
76.800003
 21
68.199997
 31
0.0
  0
LINE
  5
1B837
  8
DANMEN
  6
CONTINUOUS
 10
76.800003
 20
66.8
 30
0.0
 11
78.5
 21
66.8
 31
0.0
  0
LINE
  5
1B83D
  8
DANMEN
  6
CONTINUOUS
 10
74.582437
 20
73.4
 30
0.0
 11
75.200003
 21
73.4
 31
0.0
  0
LINE
  5
1B83E
  8
DANMEN
  6
CONTINUOUS
 10
74.327481
 20
74.0
 30
0.0
 11
76.000003
 21
74.0
 31
0.0
  0
ARC
  5
1B841
  8
DANMEN
  6
CONTINUOUS
 10
73.200003
 20
70.305709
 30
0.0
 40
0.2
 50
155.02609
 51
180.0
  0
ARC
  5
1B843
  8
DANMEN
  6
CONTINUOUS
 10
74.327481
 20
73.8
 30
0.0
 40
0.2
 50
90.0
 51
155.02609
  0
LINE
  5
1B844
  8
DANMEN
  6
CONTINUOUS
 10
73.018703
 20
70.39015
 30
0.0
 11
74.146181
 21
73.884441
 31
0.0
  0
LINE
  5
1B84A
  8
DANMEN
  6
CONTINUOUS
 10
76.000003
 20
71.5
 30
0.0
 11
77.000003
 21
71.5
 31
0.0
  0
LINE
  5
1B84B
  8
DANMEN
  6
CONTINUOUS
 10
77.000003
 20
71.5
 30
0.0
 11
77.000003
 21
72.5
 31
0.0
  0
LINE
  5
1B84C
  8
DANMEN
  6
CONTINUOUS
 10
77.200003
 20
70.7
 30
0.0
 11
78.000003
 21
71.5
 31
0.0
  0
LINE
  5
1B84E
  8
DANMEN
  6
CONTINUOUS
 10
78.000003
 20
71.5
 30
0.0
 11
78.000003
 21
72.5
 31
0.0
  0
ARC
  5
1B84F
  8
DANMEN
  6
CONTINUOUS
 10
77.200003
 20
72.5
 30
0.0
 40
0.2
 50
89.999999
 51
179.999981
  0
ARC
  5
1B851
  8
DANMEN
  6
CONTINUOUS
 10
77.800003
 20
72.5
 30
0.0
 40
0.2
 50
0.0
 51
89.999982
  0
LINE
  5
1B853
  8
DANMEN
  6
CONTINUOUS
 10
76.000003
 20
71.5
 30
0.0
 11
76.000003
 21
74.0
 31
0.0
  0
LINE
  5
1B854
  8
DANMEN
  6
CONTINUOUS
 10
77.200003
 20
72.7
 30
0.0
 11
77.800003
 21
72.7
 31
0.0
  0
LINE
  5
1B855
  8
DANMEN
  6
CONTINUOUS
 10
76.0
 20
73.5
 30
0.0
 11
76.0
 21
72.300003
 31
0.0
  0
LINE
  5
1B856
  8
DANMEN
  6
CONTINUOUS
 10
76.5
 20
71.800003
 30
0.0
 11
76.800003
 21
71.800003
 31
0.0
  0
LINE
  5
1B857
  8
DANMEN
  6
CONTINUOUS
 10
76.800003
 20
73.0
 30
0.0
 11
76.800003
 21
71.800003
 31
0.0
  0
ARC
  5
1B858
  8
DANMEN
  6
CONTINUOUS
 10
76.5
 20
72.300003
 30
0.0
 40
0.5
 50
180.000019
 51
270.000001
  0
LINE
  5
1B859
  8
DANMEN
  6
CONTINUOUS
 10
76.800003
 20
73.0
 30
0.0
 11
78.5
 21
73.0
 31
0.0
  0
ARC
  5
1B85A
  8
DANMEN
  6
CONTINUOUS
 10
76.5
 20
73.5
 30
0.0
 40
0.5
 50
89.999982
 51
180.000019
  0
LINE
  5
1B860
  8
DANMEN
  6
CONTINUOUS
 10
79.5
 20
72.2
 30
0.0
 11
79.5
 21
66.5
 31
0.0
  0
LINE
  5
1B861
  8
DANMEN
  6
CONTINUOUS
 10
81.0
 20
70.2
 30
0.0
 11
81.0
 21
72.2
 31
0.0
  0
LINE
  5
1B862
  8
DANMEN
  6
CONTINUOUS
 10
82.0
 20
69.2
 30
0.0
 11
85.5
 21
69.2
 31
0.0
  0
ARC
  5
1B863
  8
DANMEN
  6
CONTINUOUS
 10
79.0
 20
66.5
 30
0.0
 40
0.5
 50
270.000018
 51
0.0
  0
ARC
  5
1B865
  8
DANMEN
  6
CONTINUOUS
 10
82.0
 20
70.2
 30
0.0
 40
1.0
 50
180.0
 51
270.0
  0
LINE
  5
1B86B
  8
DANMEN
  6
CONTINUOUS
 10
86.5
 20
68.5
 30
0.0
 11
85.5
 21
69.2
 31
0.0
  0
LINE
  5
1B86E
  8
DANMEN
  6
CONTINUOUS
 10
79.5
 20
72.2
 30
0.0
 11
81.0
 21
72.2
 31
0.0
  0
LINE
  5
1B871
  8
DANMEN
  6
CONTINUOUS
 10
93.5
 20
69.2
 30
0.0
 11
93.5
 21
57.003636
 31
0.0
  0
ARC
  5
1B872
  8
DANMEN
  6
CONTINUOUS
 10
96.833705
 20
65.05
 30
0.0
 40
0.75
 50
270.0
 51
90.0
  0
ARC
  5
1B873
  8
DANMEN
  6
CONTINUOUS
 10
96.15
 20
63.3
 30
0.0
 40
1.0
 50
90.0
 51
180.0
  0
LINE
  5
1B874
  8
DANMEN
  6
CONTINUOUS
 10
95.15
 20
63.3
 30
0.0
 11
95.15
 21
56.579555
 31
0.0
  0
ARC
  5
1B875
  8
DANMEN
  6
CONTINUOUS
 10
94.15
 20
56.579555
 30
0.0
 40
1.0
 50
293.756476
 51
0.0
  0
LINE
  5
1B877
  8
DANMEN
  6
CONTINUOUS
 10
96.15
 20
64.3
 30
0.0
 11
96.833705
 21
64.3
 31
0.0
  0
ARC
  5
1B878
  8
DANMEN
  6
CONTINUOUS
 10
96.2
 20
68.3
 30
0.0
 40
1.0
 50
90.0
 51
180.0
  0
ARC
  5
1B879
  8
DANMEN
  6
CONTINUOUS
 10
96.2
 20
66.8
 30
0.0
 40
1.0
 50
180.0
 51
270.0
  0
LINE
  5
1B87A
  8
DANMEN
  6
CONTINUOUS
 10
95.2
 20
66.8
 30
0.0
 11
95.2
 21
68.3
 31
0.0
  0
LINE
  5
1B87F
  8
DANMEN
  6
CONTINUOUS
 10
93.5
 20
69.2
 30
0.0
 11
92.5
 21
68.5
 31
0.0
  0
LINE
  5
1B880
  8
DANMEN
  6
CONTINUOUS
 10
100.2
 20
67.666295
 30
0.0
 11
100.2
 21
71.35
 31
0.0
  0
ARC
  5
1B881
  8
DANMEN
  6
CONTINUOUS
 10
99.45
 20
67.666295
 30
0.0
 40
0.75
 50
180.0
 51
0.0
  0
LINE
  5
1B882
  8
DANMEN
  6
CONTINUOUS
 10
96.2
 20
69.3
 30
0.0
 11
97.7
 21
69.3
 31
0.0
  0
LINE
  5
1B883
  8
DANMEN
  6
CONTINUOUS
 10
98.7
 20
67.666295
 30
0.0
 11
98.7
 21
68.3
 31
0.0
  0
LINE
  5
1B884
  8
DANMEN
  6
CONTINUOUS
 10
96.2
 20
65.8
 30
0.0
 11
96.833705
 21
65.8
 31
0.0
  0
ARC
  5
1B885
  8
DANMEN
  6
CONTINUOUS
 10
97.7
 20
68.3
 30
0.0
 40
1.0
 50
0.0
 51
90.0
  0
LINE
  5
1B887
  8
DANMEN
  6
CONTINUOUS
 10
98.55
 20
71.0
 30
0.0
 11
98.55
 21
72.5
 31
0.0
  0
ARC
  5
1B888
  8
DANMEN
  6
CONTINUOUS
 10
99.05
 20
72.5
 30
0.0
 40
0.5
 50
90.0
 51
180.0
  0
LINE
  5
1B88B
  8
DANMEN
  6
CONTINUOUS
 10
112.0
 20
56.5
 30
0.0
 11
112.0
 21
31.0
 31
0.0
  0
LINE
  5
1B88C
  8
DANMEN
  6
CONTINUOUS
 10
110.350006
 20
71.35
 30
0.0
 11
110.350006
 21
59.08182
 31
0.0
  0
ARC
  5
1B88D
  8
DANMEN
  6
CONTINUOUS
 10
111.5
 20
56.5
 30
0.0
 40
0.5
 50
270.0
 51
0.0
  0
LINE
  5
1B88E
  8
DANMEN
  6
CONTINUOUS
 10
110.350006
 20
59.08182
 30
0.0
 11
107.215287
 21
57.718899
 31
0.0
  0
ARC
  5
1B88F
  8
DANMEN
  6
CONTINUOUS
 10
107.673822
 20
56.664268
 30
0.0
 40
0.5
 50
203.49856
 51
293.49856
  0
LINE
  5
1B890
  8
DANMEN
  6
CONTINUOUS
 10
107.215287
 20
56.464905
 30
0.0
 11
106.956115
 21
57.061001
 31
0.0
  0
ARC
  5
1B891
  8
DANMEN
  6
CONTINUOUS
 10
107.41465
 20
57.260364
 30
0.0
 40
0.5
 50
113.49856
 51
203.49856
  0
LINE
  5
1B894
  8
DANMEN
  6
CONTINUOUS
 10
110.9
 20
56.0
 30
0.0
 11
111.5
 21
56.0
 31
0.0
  0
LINE
  5
1B895
  8
DANMEN
  6
CONTINUOUS
 10
110.9
 20
56.759133
 30
0.0
 11
110.9
 21
56.0
 31
0.0
  0
LINE
  5
1B897
  8
DANMEN
  6
CONTINUOUS
 10
110.200637
 20
57.217668
 30
0.0
 11
107.873185
 21
56.205733
 31
0.0
  0
ARC
  5
1B898
  8
DANMEN
  6
CONTINUOUS
 10
110.4
 20
56.759133
 30
0.0
 40
0.5
 50
0.0
 51
113.49856
  0
LINE
  5
1B8A1
  8
DANMEN
  6
CONTINUOUS
 10
99.0
 20
84.2
 30
0.0
 11
110.35
 21
84.2
 31
0.0
  0
LINE
  5
1B8A2
  8
DANMEN
  6
CONTINUOUS
 10
101.0
 20
86.0
 30
0.0
 11
110.35
 21
86.0
 31
0.0
  0
LINE
  5
1B8A3
  8
DANMEN
  6
CONTINUOUS
 10
110.2
 20
109.000003
 30
0.0
 11
102.0
 21
95.650005
 31
0.0
  0
LINE
  5
1B8A4
  8
DANMEN
  6
CONTINUOUS
 10
107.584676
 20
109.350003
 30
0.0
 11
95.299997
 21
109.350003
 31
0.0
  0
LINE
  5
1B8A5
  8
DANMEN
  6
CONTINUOUS
 10
82.65
 20
111.000003
 30
0.0
 11
108.55
 21
111.000003
 31
0.0
  0
LINE
  5
1B8A6
  8
DANMEN
  6
CONTINUOUS
 10
108.010724
 20
108.588311
 30
0.0
 11
100.063599
 21
95.650005
 31
0.0
  0
LINE
  5
1B8A7
  8
DANMEN
  6
CONTINUOUS
 10
82.65
 20
109.350003
 30
0.0
 11
82.65
 21
92.65
 31
0.0
  0
LINE
  5
1B8A8
  8
DANMEN
  6
DASHED
 10
97.0
 20
91.0
 30
0.0
 11
85.0
 21
91.0
 31
0.0
  0
LINE
  5
1B8A9
  8
DANMEN
  6
DASHED
 10
101.0
 20
92.199997
 30
0.0
 11
76.5
 21
92.199997
 31
0.0
  0
LINE
  5
1B8AA
  8
DANMEN
  6
DASHED
 10
84.5
 20
86.399997
 30
0.0
 11
84.5
 21
90.5
 31
0.0
  0
ARC
  5
1B8AB
  8
DANMEN
  6
DASHED
 10
83.299999
 20
87.500028
 30
0.0
 40
0.3
 50
124.343976
 51
202.988532
  0
LINE
  5
1B8AC
  8
DANMEN
  6
CONTINUOUS
 10
83.5
 20
80.999996
 30
0.0
 11
83.5
 21
91.0
 31
0.0
  0
LINE
  5
1B8AD
  8
DANMEN
  6
CONTINUOUS
 10
85.0
 20
91.649995
 30
0.0
 11
85.0
 21
80.499997
 31
0.0
  0
ARC
  5
1B8AE
  8
DANMEN
  6
CONTINUOUS
 10
72.5
 20
79.5
 30
0.0
 40
0.5
 50
0.0
 51
89.999982
  0
LINE
  5
1B8B2
  8
DANMEN
  6
CONTINUOUS
 10
70.800003
 20
80.0
 30
0.0
 11
72.5
 21
80.0
 31
0.0
  0
ARC
  5
1B8B5
  8
DANMEN
  6
CONTINUOUS
 10
84.0
 20
80.999996
 30
0.0
 40
0.5
 50
180.0
 51
270.0
  0
LINE
  5
1B8B6
  8
DANMEN
  6
CONTINUOUS
 10
85.0
 20
80.499997
 30
0.0
 11
84.0
 21
80.499996
 31
0.0
  0
LINE
  5
1B8B9
  8
DANMEN
  6
DASHED
 10
83.023824
 20
87.382864
 30
0.0
 11
84.423825
 21
84.082833
 31
0.0
  0
LINE
  5
1B8BB
  8
DANMEN
  6
DASHED
 10
84.5
 20
86.399997
 30
0.0
 11
84.992312
 21
84.26748
 31
0.0
  0
ARC
  5
1B8BC
  8
DANMEN
  6
DASHED
 10
84.7
 20
84.199997
 30
0.0
 40
0.3
 50
202.988532
 51
12.999521
  0
LINE
  5
1B8C1
  8
DANMEN
  6
DASHED
 10
83.5
 20
91.0
 30
0.0
 11
77.714146
 21
91.0
 31
0.0
  0
LINE
  5
1B8C2
  8
DANMEN
  6
CONTINUOUS
 10
73.0
 20
91.0
 30
0.0
 11
81.0
 21
91.0
 31
0.0
  0
ARC
  5
1B8C3
  8
DANMEN
  6
DASHED
 10
77.714146
 20
90.0
 30
0.0
 40
1.0
 50
89.999982
 51
135.573244
  0
LINE
  5
1B8C4
  8
DANMEN
  6
DASHED
 10
77.0
 20
90.699997
 30
0.0
 11
76.5
 21
90.699997
 31
0.0
  0
LINE
  5
1B8C5
  8
DANMEN
  6
DASHED
 10
76.0
 20
91.699997
 30
0.0
 11
76.0
 21
91.199997
 31
0.0
  0
ARC
  5
1B8C6
  8
DANMEN
  6
DASHED
 10
76.5
 20
91.699997
 30
0.0
 40
0.5
 50
90.0
 51
180.0
  0
ARC
  5
1B8C7
  8
DANMEN
  6
DASHED
 10
76.5
 20
91.199997
 30
0.0
 40
0.5
 50
180.0
 51
270.0
  0
ARC
  5
1B8CC
  8
DANMEN
  6
CONTINUOUS
 10
83.0
 20
90.5
 30
0.0
 40
0.5
 50
0.0
 51
90.0
  0
LINE
  5
1B8CD
  8
DANMEN
  6
CONTINUOUS
 10
82.8
 20
88.0
 30
0.0
 11
83.5
 21
88.0
 31
0.0
  0
LINE
  5
1B8CE
  8
DANMEN
  6
CONTINUOUS
 10
81.5
 20
91.0
 30
0.0
 11
83.5
 21
91.0
 31
0.0
  0
LINE
  5
1B8CF
  8
DANMEN
  6
CONTINUOUS
 10
82.65
 20
92.65
 30
0.0
 11
84.0
 21
92.65
 31
0.0
  0
LINE
  5
1B8D0
  8
DANMEN
  6
CONTINUOUS
 10
81.5
 20
91.0
 30
0.0
 11
83.0
 21
91.0
 31
0.0
  0
ARC
  5
1B8D1
  8
DANMEN
  6
CONTINUOUS
 10
81.5
 20
90.5
 30
0.0
 40
0.5
 50
90.0
 51
180.0
  0
ARC
  5
1B8D4
  8
DANMEN
  6
CONTINUOUS
 10
81.5
 20
91.5
 30
0.0
 40
0.5
 50
180.0
 51
270.0
  0
ARC
  5
1B8D8
  8
DANMEN
  6
DASHED
 10
85.0
 20
90.5
 30
0.0
 40
0.5
 50
90.0
 51
180.0
  0
LINE
  5
1B8D9
  8
DANMEN
  6
DASHED
 10
83.5
 20
91.0
 30
0.0
 11
83.5
 21
88.000035
 31
0.0
  0
LINE
  5
1B8DA
  8
DANMEN
  6
DASHED
 10
83.5
 20
88.000035
 30
0.0
 11
83.130743
 21
87.747729
 31
0.0
  0
LINE
  5
1B8DD
  8
DANMEN
  6
CONTINUOUS
 10
83.5
 20
90.5
 30
0.0
 11
83.5
 21
88.0
 31
0.0
  0
ARC
  5
1B8E0
  8
DANMEN
  6
CONTINUOUS
 10
84.0
 20
91.65
 30
0.0
 40
1.0
 50
0.0
 51
90.0
  0
LINE
  5
1B8E3
  8
DANMEN
  6
DASHED
 10
98.5
 20
91.0
 30
0.0
 11
98.5
 21
84.500035
 31
0.0
  0
LINE
  5
1B8E4
  8
DANMEN
  6
DASHED
 10
97.5
 20
82.899997
 30
0.0
 11
97.5
 21
90.5
 31
0.0
  0
LINE
  5
1B8E5
  8
DANMEN
  6
CONTINUOUS
 10
101.0
 20
90.0
 30
0.0
 11
101.0
 21
86.0
 31
0.0
  0
LINE
  5
1B8E6
  8
DANMEN
  6
CONTINUOUS
 10
99.35
 20
85.2
 30
0.0
 11
99.35
 21
88.0
 31
0.0
  0
LINE
  5
1B8E7
  8
DANMEN
  6
CONTINUOUS
 10
98.3
 20
89.500005
 30
0.0
 11
98.3
 21
80.999999
 31
0.0
  0
LINE
  5
1B8E8
  8
DANMEN
  6
CONTINUOUS
 10
96.8
 20
88.850005
 30
0.0
 11
96.8
 21
80.499999
 31
0.0
  0
LINE
  5
1B8E9
  8
DANMEN
  6
DASHED
 10
98.976176
 20
83.882864
 30
0.0
 11
97.576175
 21
80.582833
 31
0.0
  0
LINE
  5
1B8EA
  8
DANMEN
  6
DASHED
 10
97.5
 20
82.899997
 30
0.0
 11
97.007688
 21
80.76748
 31
0.0
  0
ARC
  5
1B8EB
  8
DANMEN
  6
DASHED
 10
97.3
 20
80.699997
 30
0.0
 40
0.3
 50
167.000479
 51
337.011468
  0
ARC
  5
1B8EE
  8
DANMEN
  6
CONTINUOUS
 10
97.8
 20
80.999999
 30
0.0
 40
0.5
 50
270.0
 51
0.0
  0
LINE
  5
1B8EF
  8
DANMEN
  6
CONTINUOUS
 10
97.8
 20
80.499999
 30
0.0
 11
96.8
 21
80.499999
 31
0.0
  0
ARC
  5
1B8F3
  8
DANMEN
  6
DASHED
 10
98.700001
 20
84.000028
 30
0.0
 40
0.3
 50
337.011468
 51
55.656024
  0
LINE
  5
1B8F4
  8
DANMEN
  6
DASHED
 10
98.5
 20
84.500035
 30
0.0
 11
98.869257
 21
84.247729
 31
0.0
  0
LINE
  5
1B8F8
  8
DANMEN
  6
CONTINUOUS
 10
99.0
 20
85.2
 30
0.0
 11
99.35
 21
85.2
 31
0.0
  0
ARC
  5
1B8F9
  8
DANMEN
  6
CONTINUOUS
 10
99.0
 20
84.7
 30
0.0
 40
0.5
 50
90.0
 51
270.0
  0
ARC
  5
1B8FE
  8
DANMEN
  6
CONTINUOUS
 10
95.7
 20
89.350005
 30
0.0
 40
0.5
 50
180.0
 51
270.0
  0
ARC
  5
1B8FF
  8
DANMEN
  6
CONTINUOUS
 10
95.7
 20
95.150004
 30
0.0
 40
0.5
 50
90.0
 51
180.0
  0
LINE
  5
1B900
  8
DANMEN
  6
CONTINUOUS
 10
95.2
 20
95.150004
 30
0.0
 11
95.2
 21
89.350005
 31
0.0
  0
CIRCLE
  5
1B904
  8
DANMEN
  6
CONTINUOUS
 10
98.825
 20
92.000005
 30
0.0
 40
2.0
  0
LINE
  5
1B905
  8
DANMEN
  6
CONTINUOUS
 10
100.8
 20
91.500005
 30
0.0
 11
100.8
 21
94.000005
 31
0.0
  0
LINE
  5
1B906
  8
DANMEN
  6
CONTINUOUS
 10
96.85
 20
94.000005
 30
0.0
 11
96.85
 21
90.500005
 31
0.0
  0
LINE
  5
1B907
  8
DANMEN
  6
CONTINUOUS
 10
102.0
 20
91.000005
 30
0.0
 11
102.0
 21
95.650005
 31
0.0
  0
LINE
  5
1B908
  8
DANMEN
  6
DASHED
 10
98.5
 20
91.0
 30
0.0
 11
101.5
 21
91.0
 31
0.0
  0
LINE
  5
1B909
  8
DANMEN
  6
CONTINUOUS
 10
99.0
 20
91.0
 30
0.0
 11
102.0
 21
91.0
 31
0.0
  0
CIRCLE
  5
1B90B
  8
DANMEN
  6
CONTINUOUS
 10
98.413199
 20
92.823913
 30
0.0
 40
0.1
  0
CIRCLE
  5
1B90C
  8
DANMEN
  6
CONTINUOUS
 10
97.288908
 20
92.137323
 30
0.0
 40
0.1
  0
CIRCLE
  5
1B90D
  8
DANMEN
  6
CONTINUOUS
 10
97.632203
 20
93.167208
 30
0.0
 40
0.1
  0
CIRCLE
  5
1B90E
  8
DANMEN
  6
CONTINUOUS
 10
98.052739
 20
91.630963
 30
0.0
 40
0.1
  0
CIRCLE
  5
1B90F
  8
DANMEN
  6
CONTINUOUS
 10
99.357261
 20
91.605216
 30
0.0
 40
0.1
  0
CIRCLE
  5
1B910
  8
DANMEN
  6
CONTINUOUS
 10
98.722165
 20
90.944373
 30
0.0
 40
0.1
  0
CIRCLE
  5
1B911
  8
DANMEN
  6
CONTINUOUS
 10
97.503467
 20
90.944373
 30
0.0
 40
0.1
  0
CIRCLE
  5
1B912
  8
DANMEN
  6
CONTINUOUS
 10
98.353123
 20
90.386519
 30
0.0
 40
0.1
  0
CIRCLE
  5
1B913
  8
DANMEN
  6
CONTINUOUS
 10
99.048295
 20
92.223147
 30
0.0
 40
0.1
  0
ARC
  5
1B914
  8
DANMEN
  6
DASHED
 10
97.0
 20
90.5
 30
0.0
 40
0.5
 50
0.0
 51
90.0
  0
LINE
  5
1B917
  8
DANMEN
  6
CONTINUOUS
 10
99.35
 20
88.0
 30
0.0
 11
98.5
 21
88.0
 31
0.0
  0
LINE
  5
1B918
  8
DANMEN
  6
CONTINUOUS
 10
98.5
 20
90.5
 30
0.0
 11
98.5
 21
88.0
 31
0.0
  0
ARC
  5
1B919
  8
DANMEN
  6
CONTINUOUS
 10
99.0
 20
90.5
 30
0.0
 40
0.5
 50
89.999981
 51
180.000037
  0
LINE
  5
1B91D
  8
DANMEN
  6
CONTINUOUS
 10
96.85
 20
90.500005
 30
0.0
 11
97.3
 21
90.500005
 31
0.0
  0
LINE
  5
1B91E
  8
DANMEN
  6
CONTINUOUS
 10
95.7
 20
88.850005
 30
0.0
 11
96.8
 21
88.850005
 31
0.0
  0
ARC
  5
1B91F
  8
DANMEN
  6
CONTINUOUS
 10
97.3
 20
89.500005
 30
0.0
 40
1.0
 50
0.0
 51
90.0
  0
CIRCLE
  5
1B923
  8
DANMEN
  6
CONTINUOUS
 10
99.597567
 20
93.167208
 30
0.0
 40
0.1
  0
CIRCLE
  5
1B924
  8
DANMEN
  6
CONTINUOUS
 10
99.597567
 20
93.167208
 30
0.0
 40
0.1
  0
CIRCLE
  5
1B925
  8
DANMEN
  6
CONTINUOUS
 10
99.597567
 20
93.167208
 30
0.0
 40
0.1
  0
CIRCLE
  5
1B926
  8
DANMEN
  6
CONTINUOUS
 10
100.198333
 20
92.274641
 30
0.0
 40
0.1
  0
CIRCLE
  5
1B927
  8
DANMEN
  6
CONTINUOUS
 10
100.266992
 20
91.176097
 30
0.0
 40
0.1
  0
CIRCLE
  5
1B928
  8
DANMEN
  6
CONTINUOUS
 10
99.606149
 20
90.532419
 30
0.0
 40
0.1
  0
ARC
  5
1B929
  8
DANMEN
  6
DASHED
 10
101.0
 20
91.699997
 30
0.0
 40
0.5
 50
0.0
 51
89.999982
  0
LINE
  5
1B92A
  8
DANMEN
  6
DASHED
 10
101.5
 20
91.0
 30
0.0
 11
101.5
 21
91.699997
 31
0.0
  0
LINE
  5
1B92D
  8
DANMEN
  6
CONTINUOUS
 10
102.0
 20
91.0
 30
0.0
 11
102.0
 21
90.5
 31
0.0
  0
LINE
  5
1B92F
  8
DANMEN
  6
CONTINUOUS
 10
101.0
 20
90.0
 30
0.0
 11
101.5
 21
90.0
 31
0.0
  0
ARC
  5
1B931
  8
DANMEN
  6
CONTINUOUS
 10
101.5
 20
90.5
 30
0.0
 40
0.5
 50
270.0
 51
0.0
  0
LINE
  5
1B933
  8
DANMEN
  6
CONTINUOUS
 10
102.0
 20
91.000005
 30
0.0
 11
101.3
 21
91.000005
 31
0.0
  0
ARC
  5
1B934
  8
DANMEN
  6
CONTINUOUS
 10
101.3
 20
91.500005
 30
0.0
 40
0.5
 50
180.0
 51
270.0
  0
LINE
  5
1B937
  8
DANMEN
  6
CONTINUOUS
 10
100.063599
 20
95.650005
 30
0.0
 11
95.7
 21
95.650004
 31
0.0
  0
LINE
  5
1B938
  8
DANMEN
  6
CONTINUOUS
 10
96.85
 20
94.000005
 30
0.0
 11
100.8
 21
94.000005
 31
0.0
  0
CIRCLE
  5
1B939
  8
DANMEN
  6
CONTINUOUS
 10
98.799406
 20
93.596327
 30
0.0
 40
0.1
  0
LINE
  5
1B93E
  8
DANMEN
  6
CONTINUOUS
 10
86.024999
 20
111.000001
 30
0.0
 11
101.024999
 21
111.000001
 31
0.0
  0
LINE
  5
1B93F
  8
DANMEN
  6
CONTINUOUS
 10
86.024999
 20
121.000001
 30
0.0
 11
101.024999
 21
121.000001
 31
0.0
  0
LINE
  5
1B940
  8
DANMEN
  6
CONTINUOUS
 10
101.024999
 20
121.000001
 30
0.0
 11
86.024999
 21
111.000001
 31
0.0
  0
ARC
  5
1B941
  8
DANMEN
  6
CONTINUOUS
 10
86.699993
 20
108.350003
 30
0.0
 40
1.0
 50
0.0
 51
90.0
  0
LINE
  5
1B942
  8
DANMEN
  6
CONTINUOUS
 10
86.699993
 20
109.350003
 30
0.0
 11
82.65
 21
109.350003
 31
0.0
  0
LINE
  5
1B944
  8
DANMEN
  6
CONTINUOUS
 10
86.024999
 20
111.000001
 30
0.0
 11
86.024999
 21
121.000001
 31
0.0
  0
LINE
  5
1B948
  8
DANMEN
  6
CONTINUOUS
 10
90.199997
 20
109.4
 30
0.0
 11
91.799997
 21
109.4
 31
0.0
  0
LINE
  5
1B949
  8
DANMEN
  6
CONTINUOUS
 10
87.699993
 20
107.069695
 30
0.0
 11
87.699993
 21
108.350003
 31
0.0
  0
LINE
  5
1B94A
  8
DANMEN
  6
CONTINUOUS
 10
89.899992
 20
105.800001
 30
0.0
 11
89.899992
 21
106.063069
 31
0.0
  0
ARC
  5
1B94B
  8
DANMEN
  6
CONTINUOUS
 10
90.199993
 20
107.15394
 30
0.0
 40
1.0
 50
179.999974
 51
245.375656
  0
ARC
  5
1B94C
  8
DANMEN
  6
CONTINUOUS
 10
89.699992
 20
106.063069
 30
0.0
 40
0.2
 50
359.999974
 51
65.375656
  0
LINE
  5
1B94D
  8
DANMEN
  6
CONTINUOUS
 10
89.599992
 20
105.500001
 30
0.0
 11
88.460613
 21
105.500001
 31
0.0
  0
ARC
  5
1B94E
  8
DANMEN
  6
CONTINUOUS
 10
89.599992
 20
105.800001
 30
0.0
 40
0.3
 50
269.999974
 51
359.999974
  0
LINE
  5
1B94F
  8
DANMEN
  6
CONTINUOUS
 10
89.199993
 20
107.15394
 30
0.0
 11
89.199993
 21
108.400001
 31
0.0
  0
ARC
  5
1B950
  8
DANMEN
  6
CONTINUOUS
 10
89.699993
 20
107.069694
 30
0.0
 40
2.0
 50
179.999974
 51
231.706497
  0
ARC
  5
1B951
  8
DANMEN
  6
CONTINUOUS
 10
90.199993
 20
108.4
 30
0.0
 40
1.0
 50
89.999974
 51
179.999974
  0
ARC
  5
1B953
  8
DANMEN
  6
CONTINUOUS
 10
92.299998
 20
107.069694
 30
0.0
 40
2.0
 50
308.293503
 51
0.000026
  0
LINE
  5
1B954
  8
DANMEN
  6
CONTINUOUS
 10
92.799998
 20
107.15394
 30
0.0
 11
92.799997
 21
108.400001
 31
0.0
  0
ARC
  5
1B955
  8
DANMEN
  6
CONTINUOUS
 10
92.399998
 20
105.800001
 30
0.0
 40
0.3
 50
180.000026
 51
270.000026
  0
LINE
  5
1B956
  8
DANMEN
  6
CONTINUOUS
 10
92.399999
 20
105.500001
 30
0.0
 11
93.539378
 21
105.500001
 31
0.0
  0
ARC
  5
1B957
  8
DANMEN
  6
CONTINUOUS
 10
92.299998
 20
106.063069
 30
0.0
 40
0.2
 50
114.624344
 51
180.000026
  0
ARC
  5
1B958
  8
DANMEN
  6
CONTINUOUS
 10
91.799998
 20
107.15394
 30
0.0
 40
1.0
 50
294.624344
 51
0.000026
  0
LINE
  5
1B959
  8
DANMEN
  6
CONTINUOUS
 10
92.099998
 20
105.800001
 30
0.0
 11
92.099998
 21
106.063069
 31
0.0
  0
ARC
  5
1B95A
  8
DANMEN
  6
CONTINUOUS
 10
91.799997
 20
108.4
 30
0.0
 40
1.0
 50
0.000026
 51
90.000026
  0
LINE
  5
1B95B
  8
DANMEN
  6
CONTINUOUS
 10
94.299998
 20
107.069695
 30
0.0
 11
94.299997
 21
108.350003
 31
0.0
  0
ARC
  5
1B95C
  8
DANMEN
  6
CONTINUOUS
 10
95.299997
 20
108.350003
 30
0.0
 40
1.0
 50
90.0
 51
180.0
  0
LINE
  5
1B95D
  8
DANMEN
  6
CONTINUOUS
 10
89.525
 20
120.999998
 30
0.0
 11
97.525
 21
120.999998
 31
0.0
  0
LINE
  5
1B95F
  8
DANMEN
  6
CONTINUOUS
 10
101.024999
 20
111.000001
 30
0.0
 11
101.024999
 21
121.000001
 31
0.0
  0
LINE
  5
1B963
  8
DANMEN
  6
CONTINUOUS
 10
110.463231
 20
91.019298
 30
0.0
 11
110.500009
 21
108.007745
 31
0.0
  0
LINE
  5
1B964
  8
DANMEN
  6
CONTINUOUS
 10
111.700003
 20
108.259086
 30
0.0
 11
111.167188
 21
91.524983
 31
0.0
  0
LINE
  5
1B965
  8
DANMEN
  6
CONTINUOUS
 10
110.163219
 20
91.003575
 30
0.0
 11
110.200003
 21
108.000003
 31
0.0
  0
LINE
  5
1B966
  8
DANMEN
  6
CONTINUOUS
 10
112.0
 20
91.0
 30
0.0
 11
112.0
 21
108.000137
 31
0.0
  0
LINE
  5
1B967
  8
DANMEN
  6
CONTINUOUS
 10
110.2
 20
109.000003
 30
0.0
 11
110.2
 21
86.0
 31
0.0
  0
LINE
  5
1B968
  8
DANMEN
  6
CONTINUOUS
 10
110.35
 20
90.5
 30
0.0
 11
110.35
 21
86.0
 31
0.0
  0
ARC
  5
1B96B
  8
DANMEN
  6
CONTINUOUS
 10
111.5
 20
90.5
 30
0.0
 40
0.5
 50
0.0
 51
90.0
  0
LINE
  5
1B96D
  8
DANMEN
  6
CONTINUOUS
 10
110.163219
 20
91.003575
 30
0.0
 11
110.693389
 21
91.03136
 31
0.0
  0
ARC
  5
1B971
  8
DANMEN
  6
CONTINUOUS
 10
110.667221
 20
91.530675
 30
0.0
 40
0.5
 50
273.0
 51
359.347777
  0
LINE
  5
1B974
  8
DANMEN
  6
CONTINUOUS
 10
110.85
 20
91.0
 30
0.0
 11
111.5
 21
91.0
 31
0.0
  0
ARC
  5
1B975
  8
DANMEN
  6
CONTINUOUS
 10
110.85
 20
90.5
 30
0.0
 40
0.5
 50
90.0
 51
180.0
  0
LINE
  5
1B977
  8
DANMEN
  6
CONTINUOUS
 10
110.3
 20
91.0
 30
0.0
 11
110.3
 21
92.52729
 31
0.0
  0
LINE
  5
1B97A
  8
DANMEN
  6
CONTINUOUS
 10
113.700003
 20
116.500003
 30
0.0
 11
130.200003
 21
116.500003
 31
0.0
  0
LINE
  5
1B97B
  8
DANMEN
  6
CONTINUOUS
 10
130.200003
 20
109.153615
 30
0.0
 11
111.700003
 21
108.000003
 31
0.0
  0
LINE
  5
1B97C
  8
DANMEN
  6
CONTINUOUS
 10
110.200003
 20
112.500003
 30
0.0
 11
110.200003
 21
108.000003
 31
0.0
  0
LINE
  5
1B97D
  8
DANMEN
  6
CONTINUOUS
 10
110.500003
 20
112.500003
 30
0.0
 11
110.500003
 21
107.992034
 31
0.0
  0
LINE
  5
1B97E
  8
DANMEN
  6
CONTINUOUS
 10
111.700003
 20
114.500003
 30
0.0
 11
111.700003
 21
108.000003
 31
0.0
  0
LINE
  5
1B97F
  8
DANMEN
  6
CONTINUOUS
 10
110.2
 20
111.000003
 30
0.0
 11
110.2
 21
109.000003
 31
0.0
  0
ARC
  5
1B980
  8
DANMEN
  6
CONTINUOUS
 10
118.499997
 20
111.500003
 30
0.0
 40
0.5
 50
270.0
 51
0.0
  0
ARC
  5
1B981
  8
DANMEN
  6
CONTINUOUS
 10
107.584676
 20
108.850003
 30
0.0
 40
0.5
 50
328.440409
 51
90.0
  0
ARC
  5
1B989
  8
DANMEN
  6
CONTINUOUS
 10
113.700003
 20
114.500003
 30
0.0
 40
2.0
 50
89.999982
 51
180.000019
  0
LINE
  5
1B98A
  8
DANMEN
  6
CONTINUOUS
 10
110.2
 20
111.000003
 30
0.0
 11
118.499997
 21
111.000003
 31
0.0
  0
LINE
  5
1B98B
  8
DANMEN
  6
CONTINUOUS
 10
109.05
 20
113.000003
 30
0.0
 11
115.15
 21
113.000003
 31
0.0
  0
LINE
  5
1B98C
  8
DANMEN
  6
CONTINUOUS
 10
110.200003
 20
112.500003
 30
0.0
 11
111.700003
 21
112.500003
 31
0.0
  0
ARC
  5
1B992
  8
DANMEN
  6
CONTINUOUS
 10
109.05
 20
112.500003
 30
0.0
 40
0.5
 50
90.0
 51
180.0
  0
LINE
  5
1B995
  8
DANMEN
  6
CONTINUOUS
 10
108.55
 20
112.500003
 30
0.0
 11
108.55
 21
111.000003
 31
0.0
  0
LINE
  5
1B996
  8
DANMEN
  6
CONTINUOUS
 10
104.5
 20
122.000003
 30
0.0
 11
104.0
 21
122.000003
 31
0.0
  0
LINE
  5
1B99A
  8
DANMEN
  6
CONTINUOUS
 10
116.8
 20
112.500003
 30
0.0
 11
118.999997
 21
112.500003
 31
0.0
  0
LINE
  5
1B99B
  8
DANMEN
  6
CONTINUOUS
 10
118.999997
 20
112.500003
 30
0.0
 11
118.999997
 21
111.500003
 31
0.0
  0
LINE
  5
1B99E
  8
DANMEN
  6
CONTINUOUS
 10
162.5
 20
81.0
 30
0.0
 11
186.5
 21
81.0
 31
0.0
  0
LINE
  5
1B99F
  8
DANMEN
  6
CONTINUOUS
 10
163.649994
 20
82.649994
 30
0.0
 11
170.350006
 21
82.649994
 31
0.0
  0
LINE
  5
1B9A0
  8
DANMEN
  6
CONTINUOUS
 10
162.0
 20
86.5
 30
0.0
 11
162.0
 21
81.5
 31
0.0
  0
ARC
  5
1B9A2
  8
DANMEN
  6
CONTINUOUS
 10
162.5
 20
81.5
 30
0.0
 40
0.5
 50
180.000036
 51
269.999963
  0
ARC
  5
1B9A6
  8
DANMEN
  6
CONTINUOUS
 10
162.5
 20
86.5
 30
0.0
 40
0.5
 50
89.999982
 51
180.000019
  0
ARC
  5
1B9A7
  8
DANMEN
  6
CONTINUOUS
 10
163.149994
 20
86.5
 30
0.0
 40
0.5
 50
359.999981
 51
89.999982
  0
LINE
  5
1B9A8
  8
DANMEN
  6
CONTINUOUS
 10
163.649994
 20
86.5
 30
0.0
 11
163.649994
 21
82.649994
 31
0.0
  0
LINE
  5
1B9A9
  8
DANMEN
  6
CONTINUOUS
 10
162.5
 20
87.0
 30
0.0
 11
163.149994
 21
87.0
 31
0.0
  0
LINE
  5
1B9AA
  8
DANMEN
  6
CONTINUOUS
 10
172.0
 20
113.5
 30
0.0
 11
172.0
 21
82.1
 31
0.0
  0
LINE
  5
1B9AB
  8
DANMEN
  6
CONTINUOUS
 10
174.0
 20
82.649994
 30
0.0
 11
186.5
 21
82.649994
 31
0.0
  0
LINE
  5
1B9AC
  8
DANMEN
  6
CONTINUOUS
 10
172.0
 20
82.1
 30
0.0
 11
174.0
 21
82.1
 31
0.0
  0
LINE
  5
1B9B0
  8
DANMEN
  6
CONTINUOUS
 10
174.0
 20
82.649994
 30
0.0
 11
174.0
 21
82.1
 31
0.0
  0
LINE
  5
1B9B2
  8
DANMEN
  6
CONTINUOUS
 10
187.0
 20
82.149994
 30
0.0
 11
187.0
 21
81.5
 31
0.0
  0
ARC
  5
1B9B4
  8
DANMEN
  6
CONTINUOUS
 10
186.5
 20
81.5
 30
0.0
 40
0.5
 50
270.000018
 51
359.999981
  0
ARC
  5
1B9B6
  8
DANMEN
  6
CONTINUOUS
 10
186.5
 20
82.149994
 30
0.0
 40
0.5
 50
359.999981
 51
89.999982
  0
LINE
  5
1B9B7
  8
DANMEN
  6
CONTINUOUS
 10
185.156624
 20
122.1
 30
0.0
 11
188.0
 21
122.1
 31
0.0
  0
LINE
  5
1B9B8
  8
DANMEN
  6
CONTINUOUS
 10
176.270495
 20
117.0
 30
0.0
 11
179.350004
 21
117.0
 31
0.0
  0
LINE
  5
1B9B9
  8
DANMEN
  6
CONTINUOUS
 10
176.800004
 20
117.8
 30
0.0
 11
184.200004
 21
117.8
 31
0.0
  0
LINE
  5
1B9BA
  8
DANMEN
  6
CONTINUOUS
 10
172.0
 20
113.5
 30
0.0
 11
184.5
 21
113.5
 31
0.0
  0
ARC
  5
1B9BB
  8
DANMEN
  6
CONTINUOUS
 10
177.5
 20
116.5
 30
0.0
 40
0.5
 50
90.000037
 51
180.000019
  0
LINE
  5
1B9BC
  8
DANMEN
  6
CONTINUOUS
 10
175.85166
 20
121.372251
 30
0.0
 11
184.963121
 21
120.005532
 31
0.0
  0
LINE
  5
1B9BD
  8
DANMEN
  6
CONTINUOUS
 10
172.0
 20
117.0
 30
0.0
 11
177.5
 21
117.0
 31
0.0
  0
LINE
  5
1B9BE
  8
DANMEN
  6
CONTINUOUS
 10
172.0
 20
114.6
 30
0.0
 11
177.0
 21
114.6
 31
0.0
  0
LINE
  5
1B9C1
  8
DANMEN
  6
CONTINUOUS
 10
177.0
 20
116.5
 30
0.0
 11
177.0
 21
114.6
 31
0.0
  0
ARC
  5
1B9C7
  8
DANMEN
  6
CONTINUOUS
 10
176.0
 20
122.361187
 30
0.0
 40
1.0
 50
180.0
 51
261.469234
  0
LINE
  5
1B9C9
  8
DANMEN
  6
CONTINUOUS
 10
179.350004
 20
117.0
 30
0.0
 11
179.350004
 21
116.0
 31
0.0
  0
LINE
  5
1B9CA
  8
DANMEN
  6
CONTINUOUS
 10
182.650003
 20
117.0
 30
0.0
 11
182.650003
 21
116.0
 31
0.0
  0
ARC
  5
1B9CB
  8
DANMEN
  6
CONTINUOUS
 10
183.300003
 20
116.5
 30
0.0
 40
0.5
 50
90.0
 51
179.999149
  0
ARC
  5
1B9CC
  8
DANMEN
  6
CONTINUOUS
 10
178.699997
 20
116.5
 30
0.0
 40
0.5
 50
359.999981
 51
90.000037
  0
ARC
  5
1B9CD
  8
DANMEN
  6
CONTINUOUS
 10
184.5
 20
116.5
 30
0.0
 40
0.5
 50
359.999981
 51
90.000037
  0
LINE
  5
1B9CE
  8
DANMEN
  6
CONTINUOUS
 10
185.0
 20
113.5
 30
0.0
 11
185.0
 21
117.0
 31
0.0
  0
LINE
  5
1B9CF
  8
DANMEN
  6
CONTINUOUS
 10
180.150004
 20
115.8
 30
0.0
 11
181.850003
 21
115.8
 31
0.0
  0
LINE
  5
1B9D0
  8
DANMEN
  6
CONTINUOUS
 10
177.8
 20
114.6
 30
0.0
 11
183.999998
 21
114.6
 31
0.0
  0
LINE
  5
1B9D1
  8
DANMEN
  6
CONTINUOUS
 10
178.350003
 20
116.0
 30
0.0
 11
179.350004
 21
116.0
 31
0.0
  0
LINE
  5
1B9D2
  8
DANMEN
  6
CONTINUOUS
 10
178.150003
 20
115.8
 30
0.0
 11
178.150003
 21
115.2
 31
0.0
  0
LINE
  5
1B9D3
  8
DANMEN
  6
CONTINUOUS
 10
178.350003
 20
115.0
 30
0.0
 11
179.350004
 21
115.0
 31
0.0
  0
LINE
  5
1B9D5
  8
DANMEN
  6
CONTINUOUS
 10
180.150004
 20
115.8
 30
0.0
 11
179.350004
 21
115.0
 31
0.0
  0
ARC
  5
1B9D8
  8
DANMEN
  6
CONTINUOUS
 10
178.350003
 20
115.2
 30
0.0
 40
0.2
 50
180.000019
 51
270.000001
  0
ARC
  5
1B9DA
  8
DANMEN
  6
CONTINUOUS
 10
178.350003
 20
115.8
 30
0.0
 40
0.2
 50
89.999982
 51
180.000019
  0
LINE
  5
1B9DF
  8
DANMEN
  6
CONTINUOUS
 10
177.8
 20
116.199997
 30
0.0
 11
179.199997
 21
116.199997
 31
0.0
  0
LINE
  5
1B9E0
  8
DANMEN
  6
CONTINUOUS
 10
179.200001
 20
116.499999
 30
0.0
 11
179.200003
 21
116.199996
 31
0.0
  0
LINE
  5
1B9E1
  8
DANMEN
  6
CONTINUOUS
 10
177.8
 20
116.199997
 30
0.0
 11
177.8
 21
114.6
 31
0.0
  0
LINE
  5
1B9E4
  8
DANMEN
  6
CONTINUOUS
 10
183.850004
 20
115.8
 30
0.0
 11
183.850004
 21
115.2
 31
0.0
  0
LINE
  5
1B9E6
  8
DANMEN
  6
CONTINUOUS
 10
181.850003
 20
115.8
 30
0.0
 11
182.650003
 21
115.0
 31
0.0
  0
LINE
  5
1B9E7
  8
DANMEN
  6
CONTINUOUS
 10
182.650003
 20
115.0
 30
0.0
 11
183.650004
 21
115.0
 31
0.0
  0
ARC
  5
1B9EA
  8
DANMEN
  6
CONTINUOUS
 10
183.650004
 20
115.8
 30
0.0
 40
0.2
 50
0.0
 51
89.999982
  0
ARC
  5
1B9EC
  8
DANMEN
  6
CONTINUOUS
 10
183.650004
 20
115.2
 30
0.0
 40
0.2
 50
270.000018
 51
0.0
  0
LINE
  5
1B9ED
  8
DANMEN
  6
CONTINUOUS
 10
182.650003
 20
116.0
 30
0.0
 11
183.650004
 21
116.0
 31
0.0
  0
ARC
  5
1B9F4
  8
DANMEN
  6
CONTINUOUS
 10
184.5
 20
114.0
 30
0.0
 40
0.5
 50
270.000018
 51
0.0
  0
LINE
  5
1B9F5
  8
DANMEN
  6
CONTINUOUS
 10
182.800003
 20
116.199997
 30
0.0
 11
184.0
 21
116.199997
 31
0.0
  0
LINE
  5
1B9F6
  8
DANMEN
  6
CONTINUOUS
 10
183.999998
 20
116.199997
 30
0.0
 11
183.999998
 21
114.6
 31
0.0
  0
LINE
  5
1B9F7
  8
DANMEN
  6
CONTINUOUS
 10
182.800003
 20
116.500017
 30
0.0
 11
182.799998
 21
116.199998
 31
0.0
  0
LINE
  5
1B9F8
  8
DANMEN
  6
CONTINUOUS
 10
185.0
 20
116.5
 30
0.0
 11
185.0
 21
114.0
 31
0.0
  0
LINE
  5
1B9FA
  8
DANMEN
  6
CONTINUOUS
 10
184.5
 20
113.5
 30
0.0
 11
185.0
 21
113.5
 31
0.0
  0
LINE
  5
1B9FB
  8
DANMEN
  6
CONTINUOUS
 10
183.878862
 20
118.390573
 30
0.0
 11
181.335668
 21
119.419423
 31
0.0
  0
LINE
  5
1B9FC
  8
DANMEN
  6
CONTINUOUS
 10
184.895163
 20
118.842413
 30
0.0
 11
180.246848
 21
120.722891
 31
0.0
  0
ARC
  5
1BA00
  8
DANMEN
  6
CONTINUOUS
 10
180.44585
 20
119.563653
 30
0.0
 40
0.2
 50
311.738105
 51
67.974191
  0
LINE
  5
1BA01
  8
DANMEN
  6
CONTINUOUS
 10
180.520855
 20
119.749056
 30
0.0
 11
179.946828
 21
119.981279
 31
0.0
  0
LINE
  5
1BA06
  8
DANMEN
  6
CONTINUOUS
 10
181.335668
 20
119.419423
 30
0.0
 11
179.479406
 21
117.763337
 31
0.0
  0
LINE
  5
1BA07
  8
DANMEN
  6
CONTINUOUS
 10
180.578995
 20
119.414414
 30
0.0
 11
179.146542
 21
118.136435
 31
0.0
  0
ARC
  5
1BA09
  8
DANMEN
  6
CONTINUOUS
 10
179.312974
 20
117.949886
 30
0.0
 40
0.25
 50
131.738105
 51
311.738105
  0
ARC
  5
1BA0B
  8
DANMEN
  6
CONTINUOUS
 10
180.096838
 20
120.352085
 30
0.0
 40
0.4
 50
67.974191
 51
247.974191
  0
LINE
  5
1BA0E
  8
DANMEN
  6
CONTINUOUS
 10
177.5
 20
117.0
 30
0.0
 11
178.699997
 21
117.0
 31
0.0
  0
ARC
  5
1BA10
  8
DANMEN
  6
CONTINUOUS
 10
184.820158
 20
118.65701
 30
0.0
 40
0.2
 50
25.943161
 51
67.974191
  0
ARC
  5
1BA13
  8
DANMEN
  6
CONTINUOUS
 10
184.064265
 20
118.315568
 30
0.0
 40
0.2
 50
47.258366
 51
157.974191
  0
LINE
  5
1BA14
  8
DANMEN
  6
CONTINUOUS
 10
182.650003
 20
117.0
 30
0.0
 11
185.000004
 21
117.0
 31
0.0
  0
LINE
  5
1BA16
  8
DANMEN
  6
CONTINUOUS
 10
185.000004
 20
118.744506
 30
0.0
 11
185.000004
 21
117.0
 31
0.0
  0
LINE
  5
1BA18
  8
DANMEN
  6
CONTINUOUS
 10
184.200004
 20
118.462453
 30
0.0
 11
184.200004
 21
117.8
 31
0.0
  0
LINE
  5
1BA1C
  8
DANMEN
  6
CONTINUOUS
 10
183.300003
 20
117.0
 30
0.0
 11
184.5
 21
117.0
 31
0.0
  0
ARC
  5
1BA1F
  8
DANMEN
  6
CONTINUOUS
 10
185.037291
 20
120.5
 30
0.0
 40
0.5
 50
261.469234
 51
270.0
  0
LINE
  5
1BA20
  8
DANMEN
  6
CONTINUOUS
 10
188.0
 20
119.600001
 30
0.0
 11
190.650004
 21
119.3
 31
0.0
  0
LINE
  5
1BA21
  8
DANMEN
  6
CONTINUOUS
 10
187.999997
 20
120.0
 30
0.0
 11
187.999997
 21
119.6
 31
0.0
  0
LINE
  5
1BA25
  8
DANMEN
  6
DASHED
 10
193.499997
 20
120.0
 30
0.0
 11
193.499997
 21
119.8
 31
0.0
  0
LINE
  5
1BA2A
  8
DANMEN
  6
CONTINUOUS
 10
199.249997
 20
120.3
 30
0.0
 11
196.749997
 21
120.3
 31
0.0
  0
ARC
  5
1BA2D
  8
DANMEN
  6
CONTINUOUS
 10
196.749997
 20
122.3
 30
0.0
 40
2.0
 50
186.777369
 51
270.0
  0
ARC
  5
1BA34
  8
DANMEN
  6
CONTINUOUS
 10
199.249997
 20
122.3
 30
0.0
 40
2.0
 50
270.0
 51
353.222631
  0
ARC
  5
1BA3C
  8
DANMEN
  6
CONTINUOUS
 10
70.300003
 20
175.5
 30
0.0
 40
0.5
 50
270.000018
 51
0.0
  0
LINE
  5
1BA3D
  8
DANMEN
  6
CONTINUOUS
 10
71.05
 20
222.95
 30
0.0
 11
69.850006
 21
222.95
 31
0.0
  0
LINE
  5
1BA3E
  8
DANMEN
  6
CONTINUOUS
 10
78.0
 20
251.950012
 30
0.0
 11
65.5
 21
251.950012
 31
0.0
  0
LINE
  5
1BA3F
  8
DANMEN
  6
CONTINUOUS
 10
78.65
 20
253.600012
 30
0.0
 11
63.4
 21
253.600012
 31
0.0
  0
ARC
  5
1BA40
  8
DANMEN
  6
CONTINUOUS
 10
70.300003
 20
164.5
 30
0.0
 40
0.5
 50
0.0
 51
89.999982
  0
LINE
  5
1BA41
  8
DANMEN
  6
CONTINUOUS
 10
47.5
 20
260.0
 30
0.0
 11
106.5
 21
260.0
 31
0.0
  0
LINE
  5
1BA42
  8
DANMEN
  6
CONTINUOUS
 10
65.0
 20
233.0
 30
0.0
 11
73.0
 21
233.0
 31
0.0
  0
LINE
  5
1BA43
  8
DANMEN
  6
CONTINUOUS
 10
47.504337
 20
195.0
 30
0.0
 11
47.907182
 21
233.550678
 31
0.0
  0
LINE
  5
1BA44
  8
DANMEN
  6
CONTINUOUS
 10
48.976095
 20
233.082141
 30
0.0
 11
49.0
 21
195.0
 31
0.0
  0
LINE
  5
1BA45
  8
DANMEN
  6
CONTINUOUS
 10
48.676108
 20
233.062215
 30
0.0
 11
48.7
 21
195.0
 31
0.0
  0
LINE
  5
1BA46
  8
DANMEN
  6
CONTINUOUS
 10
53.149994
 20
232.5
 30
0.0
 11
53.149994
 21
206.5
 31
0.0
  0
LINE
  5
1BA47
  8
DANMEN
  6
CONTINUOUS
 10
68.850006
 20
221.95
 30
0.0
 11
68.850006
 21
206.5
 31
0.0
  0
LINE
  5
1BA48
  8
DANMEN
  6
CONTINUOUS
 10
51.199997
 20
232.5
 30
0.0
 11
51.199997
 21
195.0
 31
0.0
  0
LINE
  5
1BA49
  8
DANMEN
  6
CONTINUOUS
 10
42.0
 20
225.5
 30
0.0
 11
42.0
 21
195.0
 31
0.0
  0
LINE
  5
1BA4A
  8
DANMEN
  6
CONTINUOUS
 10
43.649994
 20
225.5
 30
0.0
 11
43.649994
 21
195.0
 31
0.0
  0
LINE
  5
1BA4B
  8
DANMEN
  6
CONTINUOUS
 10
49.0
 20
233.0
 30
0.0
 11
49.0
 21
193.5
 31
0.0
  0
LINE
  5
1BA4C
  8
DANMEN
  6
CONTINUOUS
 10
57.0
 20
233.0
 30
0.0
 11
57.0
 21
214.0
 31
0.0
  0
LINE
  5
1BA4D
  8
DANMEN
  6
CONTINUOUS
 10
65.0
 20
233.0
 30
0.0
 11
65.0
 21
214.0
 31
0.0
  0
LINE
  5
1BA4E
  8
DANMEN
  6
CONTINUOUS
 10
61.5
 20
169.0
 30
0.0
 11
61.5
 21
153.0
 31
0.0
  0
LINE
  5
1BA4F
  8
DANMEN
  6
CONTINUOUS
 10
54.5
 20
169.0
 30
0.0
 11
54.5
 21
153.0
 31
0.0
  0
LINE
  5
1BA50
  8
DANMEN
  6
CONTINUOUS
 10
54.0
 20
169.0
 30
0.0
 11
54.0
 21
153.0
 31
0.0
  0
LINE
  5
1BA51
  8
DANMEN
  6
CONTINUOUS
 10
62.0
 20
169.0
 30
0.0
 11
62.0
 21
153.0
 31
0.0
  0
LINE
  5
1BA52
  8
DANMEN
  6
CONTINUOUS
 10
47.499995
 20
165.0
 30
0.0
 11
47.499995
 21
169.0
 31
0.0
  0
LINE
  5
1BA53
  8
DANMEN
  6
CONTINUOUS
 10
68.500005
 20
165.0
 30
0.0
 11
68.500005
 21
169.0
 31
0.0
  0
LINE
  5
1BA54
  8
DANMEN
  6
CONTINUOUS
 10
37.699997
 20
165.0
 30
0.0
 11
47.5
 21
165.0
 31
0.0
  0
ARC
  5
1BA55
  8
DANMEN
  6
CONTINUOUS
 10
37.699997
 20
164.5
 30
0.0
 40
0.5
 50
89.999982
 51
180.000019
  0
LINE
  5
1BA57
  8
DANMEN
  6
CONTINUOUS
 10
65.5
 20
143.0
 30
0.0
 11
65.5
 21
153.0
 31
0.0
  0
LINE
  5
1BA58
  8
DANMEN
  6
CONTINUOUS
 10
50.5
 20
143.0
 30
0.0
 11
50.5
 21
153.0
 31
0.0
  0
LINE
  5
1BA59
  8
DANMEN
  6
CONTINUOUS
 10
65.5
 20
153.0
 30
0.0
 11
50.5
 21
143.0
 31
0.0
  0
LINE
  5
1BA5A
  8
DANMEN
  6
CONTINUOUS
 10
39.149994
 20
163.050003
 30
0.0
 11
39.149994
 21
137.199997
 31
0.0
  0
LINE
  5
1BA5B
  8
DANMEN
  6
CONTINUOUS
 10
68.850006
 20
160.0
 30
0.0
 11
68.850006
 21
143.0
 31
0.0
  0
LINE
  5
1BA5C
  8
DANMEN
  6
CONTINUOUS
 10
50.5
 20
143.0
 30
0.0
 11
65.5
 21
143.0
 31
0.0
  0
LINE
  5
1BA5D
  8
DANMEN
  6
CONTINUOUS
 10
45.649994
 20
141.050003
 30
0.0
 11
68.850006
 21
141.050003
 31
0.0
  0
LINE
  5
1BA5E
  8
DANMEN
  6
CONTINUOUS
 10
44.699997
 20
143.0
 30
0.0
 11
68.850006
 21
143.0
 31
0.0
  0
LINE
  5
1BA5F
  8
DANMEN
  6
CONTINUOUS
 10
45.649994
 20
141.050003
 30
0.0
 11
45.649994
 21
137.0
 31
0.0
  0
LINE
  5
1BA60
  8
DANMEN
  6
CONTINUOUS
 10
43.699997
 20
142.0
 30
0.0
 11
43.699997
 21
137.199997
 31
0.0
  0
LINE
  5
1BA61
  8
DANMEN
  6
CONTINUOUS
 10
39.149994
 20
136.0
 30
0.0
 11
44.649994
 21
136.0
 31
0.0
  0
LINE
  5
1BA62
  8
DANMEN
  6
CONTINUOUS
 10
39.149994
 20
137.199997
 30
0.0
 11
43.699997
 21
137.199997
 31
0.0
  0
ARC
  5
1BA65
  8
DANMEN
  6
CONTINUOUS
 10
44.649994
 20
137.0
 30
0.0
 40
1.0
 50
270.000018
 51
0.0
  0
ARC
  5
1BA68
  8
DANMEN
  6
CONTINUOUS
 10
44.699997
 20
142.0
 30
0.0
 40
1.0
 50
89.999982
 51
180.000019
  0
LINE
  5
1BA70
  8
DANMEN
  6
CONTINUOUS
 10
50.5
 20
153.0
 30
0.0
 11
65.5
 21
153.0
 31
0.0
  0
LINE
  5
1BA71
  8
DANMEN
  6
CONTINUOUS
 10
54.0
 20
153.0
 30
0.0
 11
62.0
 21
153.0
 31
0.0
  0
LINE
  5
1BA73
  8
DANMEN
  6
CONTINUOUS
 10
39.149994
 20
163.050003
 30
0.0
 11
47.0
 21
163.050003
 31
0.0
  0
LINE
  5
1BA75
  8
DANMEN
  6
CONTINUOUS
 10
54.0
 20
162.636039
 30
0.0
 11
51.084572
 21
165.551467
 31
0.0
  0
LINE
  5
1BA76
  8
DANMEN
  6
CONTINUOUS
 10
52.514719
 20
162.0
 30
0.0
 11
49.246094
 21
165.268625
 31
0.0
  0
LINE
  5
1BA77
  8
DANMEN
  6
CONTINUOUS
 10
50.393398
 20
162.0
 30
0.0
 11
48.0
 21
164.393398
 31
0.0
  0
LINE
  5
1BA78
  8
DANMEN
  6
CONTINUOUS
 10
52.87868
 20
162.0
 30
0.0
 11
54.0
 21
163.12132
 31
0.0
  0
LINE
  5
1BA79
  8
DANMEN
  6
CONTINUOUS
 10
50.757359
 20
162.0
 30
0.0
 11
54.0
 21
165.242641
 31
0.0
  0
LINE
  5
1BA7A
  8
DANMEN
  6
CONTINUOUS
 10
48.636039
 20
162.0
 30
0.0
 11
52.38804
 21
165.752001
 31
0.0
  0
LINE
  5
1BA7B
  8
DANMEN
  6
CONTINUOUS
 10
48.0
 20
164.5
 30
0.0
 11
48.0
 21
160.0
 31
0.0
  0
LINE
  5
1BA7C
  8
DANMEN
  6
CONTINUOUS
 10
48.272078
 20
162.0
 30
0.0
 11
48.0
 21
162.272078
 31
0.0
  0
ARC
  5
1BA7E
  8
DANMEN
  6
CONTINUOUS
 10
47.5
 20
160.5
 30
0.0
 40
0.5
 50
180.000019
 51
270.000001
  0
LINE
  5
1BA80
  8
DANMEN
  6
CONTINUOUS
 10
47.0
 20
163.050003
 30
0.0
 11
47.0
 21
160.5
 31
0.0
  0
LINE
  5
1BA82
  8
DANMEN
  6
CONTINUOUS
 10
47.5
 20
160.0
 30
0.0
 11
48.0
 21
160.0
 31
0.0
  0
LINE
  5
1BA83
  8
DANMEN
  6
CONTINUOUS
 10
54.000003
 20
165.999995
 30
0.0
 11
47.500002
 21
164.999995
 31
0.0
  0
LINE
  5
1BA84
  8
DANMEN
  6
CONTINUOUS
 10
48.0
 20
163.485281
 30
0.0
 11
49.881025
 21
165.366306
 31
0.0
  0
ARC
  5
1BA85
  8
DANMEN
  6
CONTINUOUS
 10
47.5
 20
164.5
 30
0.0
 40
0.5
 50
0.0
 51
89.999982
  0
LINE
  5
1BA87
  8
DANMEN
  6
CONTINUOUS
 10
54.0
 20
164.757359
 30
0.0
 11
52.923049
 21
165.83431
 31
0.0
  0
LINE
  5
1BA89
  8
DANMEN
  6
CONTINUOUS
 10
65.242641
 20
162.0
 30
0.0
 11
62.0
 21
165.242641
 31
0.0
  0
LINE
  5
1BA8A
  8
DANMEN
  6
CONTINUOUS
 10
63.12132
 20
162.0
 30
0.0
 11
62.0
 21
163.12132
 31
0.0
  0
LINE
  5
1BA8B
  8
DANMEN
  6
CONTINUOUS
 10
62.0
 20
162.636039
 30
0.0
 11
64.915428
 21
165.551467
 31
0.0
  0
LINE
  5
1BA8C
  8
DANMEN
  6
CONTINUOUS
 10
62.0
 20
164.757359
 30
0.0
 11
63.076951
 21
165.83431
 31
0.0
  0
LINE
  5
1BA8D
  8
DANMEN
  6
CONTINUOUS
 10
62.000004
 20
166.000003
 30
0.0
 11
68.500005
 21
165.000003
 31
0.0
  0
LINE
  5
1BA91
  8
DANMEN
  6
CONTINUOUS
 10
67.363961
 20
162.0
 30
0.0
 11
63.61196
 21
165.752001
 31
0.0
  0
LINE
  5
1BA92
  8
DANMEN
  6
CONTINUOUS
 10
65.606602
 20
162.0
 30
0.0
 11
68.0
 21
164.393398
 31
0.0
  0
LINE
  5
1BA93
  8
DANMEN
  6
CONTINUOUS
 10
63.485281
 20
162.0
 30
0.0
 11
66.753906
 21
165.268625
 31
0.0
  0
LINE
  5
1BA94
  8
DANMEN
  6
CONTINUOUS
 10
68.0
 20
164.5
 30
0.0
 11
68.0
 21
160.0
 31
0.0
  0
LINE
  5
1BA95
  8
DANMEN
  6
CONTINUOUS
 10
67.727922
 20
162.0
 30
0.0
 11
68.0
 21
162.272078
 31
0.0
  0
LINE
  5
1BA98
  8
DANMEN
  6
CONTINUOUS
 10
68.0
 20
160.0
 30
0.0
 11
68.850006
 21
160.0
 31
0.0
  0
LINE
  5
1BA99
  8
DANMEN
  6
CONTINUOUS
 10
68.0
 20
163.485281
 30
0.0
 11
66.118975
 21
165.366306
 31
0.0
  0
ARC
  5
1BA9A
  8
DANMEN
  6
CONTINUOUS
 10
68.5
 20
164.5
 30
0.0
 40
0.5
 50
89.999982
 51
180.000019
  0
LINE
  5
1BA9C
  8
DANMEN
  6
CONTINUOUS
 10
68.5
 20
165.0
 30
0.0
 11
70.300003
 21
165.0
 31
0.0
  0
LINE
  5
1BA9D
  8
DANMEN
  6
CONTINUOUS
 10
49.0
 20
193.5
 30
0.0
 11
34.700005
 21
193.5
 31
0.0
  0
LINE
  5
1BA9E
  8
DANMEN
  6
CONTINUOUS
 10
48.7
 20
195.0
 30
0.0
 11
35.700005
 21
195.0
 31
0.0
  0
LINE
  5
1BA9F
  8
DANMEN
  6
CONTINUOUS
 10
36.0
 20
195.0
 30
0.0
 11
51.199997
 21
195.0
 31
0.0
  0
LINE
  5
1BAA0
  8
DANMEN
  6
CONTINUOUS
 10
37.699997
 20
175.0
 30
0.0
 11
47.5
 21
175.0
 31
0.0
  0
LINE
  5
1BAA1
  8
DANMEN
  6
CONTINUOUS
 10
37.199997
 20
193.5
 30
0.0
 11
37.199997
 21
175.5
 31
0.0
  0
LINE
  5
1BAA2
  8
DANMEN
  6
CONTINUOUS
 10
35.0
 20
193.5
 30
0.0
 11
35.0
 21
171.0
 31
0.0
  0
ARC
  5
1BAA3
  8
DANMEN
  6
CONTINUOUS
 10
37.699997
 20
175.5
 30
0.0
 40
0.5
 50
180.000019
 51
270.000001
  0
LINE
  5
1BAA6
  8
DANMEN
  6
CONTINUOUS
 10
34.700005
 20
193.5
 30
0.0
 11
34.700005
 21
194.0
 31
0.0
  0
ARC
  5
1BAA8
  8
DANMEN
  6
CONTINUOUS
 10
35.700005
 20
194.0
 30
0.0
 40
1.0
 50
90.0
 51
180.0
  0
ARC
  5
1BAAA
  8
DANMEN
  6
CONTINUOUS
 10
36.0
 20
194.0
 30
0.0
 40
1.0
 50
89.999982
 51
180.000019
  0
LINE
  5
1BAAE
  8
DANMEN
  6
CONTINUOUS
 10
35.0
 20
193.5
 30
0.0
 11
37.199997
 21
193.5
 31
0.0
  0
LINE
  5
1BAAF
  8
DANMEN
  6
CONTINUOUS
 10
35.0
 20
194.0
 30
0.0
 11
35.0
 21
193.5
 31
0.0
  0
LINE
  5
1BAB0
  8
DANMEN
  6
CONTINUOUS
 10
68.850006
 20
193.050003
 30
0.0
 11
68.850006
 21
180.0
 31
0.0
  0
LINE
  5
1BAB1
  8
DANMEN
  6
CONTINUOUS
 10
39.149994
 20
193.050003
 30
0.0
 11
39.149994
 21
176.95
 31
0.0
  0
LINE
  5
1BAB2
  8
DANMEN
  6
CONTINUOUS
 10
54.0
 20
187.0
 30
0.0
 11
62.0
 21
187.0
 31
0.0
  0
LINE
  5
1BAB3
  8
DANMEN
  6
CONTINUOUS
 10
54.0
 20
187.0
 30
0.0
 11
54.0
 21
171.0
 31
0.0
  0
LINE
  5
1BAB4
  8
DANMEN
  6
CONTINUOUS
 10
39.149994
 20
176.95
 30
0.0
 11
47.0
 21
176.95
 31
0.0
  0
LINE
  5
1BAB6
  8
DANMEN
  6
CONTINUOUS
 10
52.38804
 20
174.247999
 30
0.0
 11
48.636039
 21
178.0
 31
0.0
  0
LINE
  5
1BAB7
  8
DANMEN
  6
CONTINUOUS
 10
49.881025
 20
174.633694
 30
0.0
 11
48.0
 21
176.514719
 31
0.0
  0
LINE
  5
1BAB8
  8
DANMEN
  6
CONTINUOUS
 10
52.923049
 20
174.16569
 30
0.0
 11
54.0
 21
175.242641
 31
0.0
  0
LINE
  5
1BAB9
  8
DANMEN
  6
CONTINUOUS
 10
51.084572
 20
174.448533
 30
0.0
 11
54.0
 21
177.363961
 31
0.0
  0
LINE
  5
1BABA
  8
DANMEN
  6
CONTINUOUS
 10
54.000003
 20
174.000005
 30
0.0
 11
47.500002
 21
175.000005
 31
0.0
  0
LINE
  5
1BABB
  8
DANMEN
  6
CONTINUOUS
 10
47.499995
 20
171.0
 30
0.0
 11
47.499995
 21
174.923082
 31
0.0
  0
LINE
  5
1BABC
  8
DANMEN
  6
CONTINUOUS
 10
49.246094
 20
174.731375
 30
0.0
 11
52.514719
 21
178.0
 31
0.0
  0
LINE
  5
1BABD
  8
DANMEN
  6
CONTINUOUS
 10
48.0
 20
175.606602
 30
0.0
 11
50.393398
 21
178.0
 31
0.0
  0
LINE
  5
1BABE
  8
DANMEN
  6
CONTINUOUS
 10
48.0
 20
177.727922
 30
0.0
 11
48.272078
 21
178.0
 31
0.0
  0
ARC
  5
1BAC0
  8
DANMEN
  6
CONTINUOUS
 10
47.5
 20
179.5
 30
0.0
 40
0.5
 50
89.999982
 51
180.000019
  0
LINE
  5
1BAC2
  8
DANMEN
  6
CONTINUOUS
 10
47.0
 20
179.5
 30
0.0
 11
47.0
 21
176.95
 31
0.0
  0
ARC
  5
1BAC3
  8
DANMEN
  6
CONTINUOUS
 10
47.5
 20
175.5
 30
0.0
 40
0.5
 50
270.000018
 51
0.0
  0
LINE
  5
1BAC6
  8
DANMEN
  6
CONTINUOUS
 10
47.5
 20
180.0
 30
0.0
 11
48.0
 21
180.0
 31
0.0
  0
LINE
  5
1BAC7
  8
DANMEN
  6
CONTINUOUS
 10
48.0
 20
180.0
 30
0.0
 11
48.0
 21
175.5
 31
0.0
  0
LINE
  5
1BAC8
  8
DANMEN
  6
CONTINUOUS
 10
54.0
 20
176.87868
 30
0.0
 11
52.87868
 21
178.0
 31
0.0
  0
LINE
  5
1BAC9
  8
DANMEN
  6
CONTINUOUS
 10
54.0
 20
174.757359
 30
0.0
 11
50.757359
 21
178.0
 31
0.0
  0
LINE
  5
1BACA
  8
DANMEN
  6
CONTINUOUS
 10
61.5
 20
187.0
 30
0.0
 11
61.5
 21
171.0
 31
0.0
  0
LINE
  5
1BACB
  8
DANMEN
  6
CONTINUOUS
 10
54.5
 20
187.0
 30
0.0
 11
54.5
 21
171.0
 31
0.0
  0
LINE
  5
1BACC
  8
DANMEN
  6
CONTINUOUS
 10
62.0
 20
187.0
 30
0.0
 11
62.0
 21
171.0
 31
0.0
  0
LINE
  5
1BACD
  8
DANMEN
  6
CONTINUOUS
 10
64.915428
 20
174.448533
 30
0.0
 11
62.0
 21
177.363961
 31
0.0
  0
LINE
  5
1BACE
  8
DANMEN
  6
CONTINUOUS
 10
63.076951
 20
174.16569
 30
0.0
 11
62.0
 21
175.242641
 31
0.0
  0
LINE
  5
1BACF
  8
DANMEN
  6
CONTINUOUS
 10
62.0
 20
174.757359
 30
0.0
 11
65.242641
 21
178.0
 31
0.0
  0
LINE
  5
1BAD0
  8
DANMEN
  6
CONTINUOUS
 10
62.0
 20
176.87868
 30
0.0
 11
63.12132
 21
178.0
 31
0.0
  0
LINE
  5
1BAD1
  8
DANMEN
  6
CONTINUOUS
 10
62.000004
 20
173.999997
 30
0.0
 11
68.500005
 21
174.999997
 31
0.0
  0
LINE
  5
1BAD4
  8
DANMEN
  6
CONTINUOUS
 10
66.118975
 20
174.633694
 30
0.0
 11
68.0
 21
176.514719
 31
0.0
  0
LINE
  5
1BAD5
  8
DANMEN
  6
CONTINUOUS
 10
63.61196
 20
174.247999
 30
0.0
 11
67.363961
 21
178.0
 31
0.0
  0
LINE
  5
1BAD6
  8
DANMEN
  6
CONTINUOUS
 10
68.500005
 20
174.923073
 30
0.0
 11
68.500005
 21
171.0
 31
0.0
  0
LINE
  5
1BAD7
  8
DANMEN
  6
CONTINUOUS
 10
68.0
 20
175.606602
 30
0.0
 11
65.606602
 21
178.0
 31
0.0
  0
LINE
  5
1BAD8
  8
DANMEN
  6
CONTINUOUS
 10
66.753906
 20
174.731375
 30
0.0
 11
63.485281
 21
178.0
 31
0.0
  0
LINE
  5
1BAD9
  8
DANMEN
  6
CONTINUOUS
 10
68.0
 20
177.727922
 30
0.0
 11
67.727922
 21
178.0
 31
0.0
  0
ARC
  5
1BADC
  8
DANMEN
  6
CONTINUOUS
 10
68.5
 20
175.5
 30
0.0
 40
0.5
 50
180.000019
 51
270.000001
  0
LINE
  5
1BADE
  8
DANMEN
  6
CONTINUOUS
 10
68.5
 20
175.0
 30
0.0
 11
70.300003
 21
175.0
 31
0.0
  0
LINE
  5
1BADF
  8
DANMEN
  6
CONTINUOUS
 10
68.0
 20
180.0
 30
0.0
 11
68.850006
 21
180.0
 31
0.0
  0
LINE
  5
1BAE0
  8
DANMEN
  6
CONTINUOUS
 10
68.0
 20
180.0
 30
0.0
 11
68.0
 21
175.5
 31
0.0
  0
LINE
  5
1BAE1
  8
DANMEN
  6
CONTINUOUS
 10
53.149994
 20
204.550003
 30
0.0
 11
56.699997
 21
204.550003
 31
0.0
  0
LINE
  5
1BAE2
  8
DANMEN
  6
CONTINUOUS
 10
53.149994
 20
195.0
 30
0.0
 11
68.850006
 21
195.0
 31
0.0
  0
LINE
  5
1BAE3
  8
DANMEN
  6
CONTINUOUS
 10
39.149994
 20
193.050003
 30
0.0
 11
68.850006
 21
193.050003
 31
0.0
  0
LINE
  5
1BAE4
  8
DANMEN
  6
CONTINUOUS
 10
53.149994
 20
206.5
 30
0.0
 11
68.850006
 21
206.5
 31
0.0
  0
LINE
  5
1BAE5
  8
DANMEN
  6
CONTINUOUS
 10
53.149994
 20
204.550003
 30
0.0
 11
53.149994
 21
195.0
 31
0.0
  0
LINE
  5
1BAE7
  8
DANMEN
  6
CONTINUOUS
 10
49.0
 20
193.5
 30
0.0
 11
49.0
 21
195.0
 31
0.0
  0
LINE
  5
1BAE9
  8
DANMEN
  6
CONTINUOUS
 10
48.7
 20
193.5
 30
0.0
 11
48.7
 21
195.0
 31
0.0
  0
LINE
  5
1BAF2
  8
DANMEN
  6
CONTINUOUS
 10
68.850006
 20
204.550003
 30
0.0
 11
68.850006
 21
195.0
 31
0.0
  0
LINE
  5
1BAF3
  8
DANMEN
  6
CONTINUOUS
 10
62.8
 20
202.553939
 30
0.0
 11
62.8
 21
203.8
 31
0.0
  0
LINE
  5
1BAF4
  8
DANMEN
  6
CONTINUOUS
 10
59.2
 20
202.553939
 30
0.0
 11
59.2
 21
203.8
 31
0.0
  0
ARC
  5
1BAF5
  8
DANMEN
  6
CONTINUOUS
 10
56.7
 20
203.550003
 30
0.0
 40
1.0
 50
0.0
 51
90.0
  0
ARC
  5
1BAF6
  8
DANMEN
  6
CONTINUOUS
 10
65.3
 20
203.550003
 30
0.0
 40
1.0
 50
90.0
 51
180.0
  0
LINE
  5
1BAF7
  8
DANMEN
  6
CONTINUOUS
 10
63.539379
 20
200.9
 30
0.0
 11
62.4
 21
200.9
 31
0.0
  0
ARC
  5
1BAF8
  8
DANMEN
  6
CONTINUOUS
 10
61.8
 20
202.553939
 30
0.0
 40
1.0
 50
294.624318
 51
0.0
  0
ARC
  5
1BAF9
  8
DANMEN
  6
CONTINUOUS
 10
59.7
 20
202.469694
 30
0.0
 40
2.0
 50
180.0
 51
231.706523
  0
LINE
  5
1BAFA
  8
DANMEN
  6
CONTINUOUS
 10
57.7
 20
202.469694
 30
0.0
 11
57.7
 21
203.550003
 31
0.0
  0
ARC
  5
1BAFC
  8
DANMEN
  6
CONTINUOUS
 10
62.4
 20
201.2
 30
0.0
 40
0.3
 50
180.0
 51
270.0
  0
ARC
  5
1BAFD
  8
DANMEN
  6
CONTINUOUS
 10
59.6
 20
201.2
 30
0.0
 40
0.3
 50
270.0
 51
0.0
  0
LINE
  5
1BAFE
  8
DANMEN
  6
CONTINUOUS
 10
59.6
 20
200.9
 30
0.0
 11
58.460621
 21
200.9
 31
0.0
  0
LINE
  5
1BB01
  8
DANMEN
  6
CONTINUOUS
 10
62.1
 20
201.2
 30
0.0
 11
62.1
 21
201.463068
 31
0.0
  0
ARC
  5
1BB02
  8
DANMEN
  6
CONTINUOUS
 10
62.3
 20
201.463068
 30
0.0
 40
0.2
 50
114.624318
 51
180.0
  0
ARC
  5
1BB03
  8
DANMEN
  6
CONTINUOUS
 10
59.7
 20
201.463068
 30
0.0
 40
0.2
 50
0.0
 51
65.375682
  0
ARC
  5
1BB04
  8
DANMEN
  6
CONTINUOUS
 10
60.2
 20
202.553939
 30
0.0
 40
1.0
 50
180.0
 51
245.375682
  0
LINE
  5
1BB05
  8
DANMEN
  6
CONTINUOUS
 10
59.9
 20
201.2
 30
0.0
 11
59.9
 21
201.463068
 31
0.0
  0
ARC
  5
1BB08
  8
DANMEN
  6
CONTINUOUS
 10
62.3
 20
202.469694
 30
0.0
 40
2.0
 50
308.293477
 51
0.0
  0
LINE
  5
1BB09
  8
DANMEN
  6
CONTINUOUS
 10
64.3
 20
202.469694
 30
0.0
 11
64.3
 21
203.550003
 31
0.0
  0
ARC
  5
1BB0A
  8
DANMEN
  6
CONTINUOUS
 10
61.8
 20
203.8
 30
0.0
 40
1.0
 50
0.0
 51
90.0
  0
ARC
  5
1BB0B
  8
DANMEN
  6
CONTINUOUS
 10
61.0
 20
214.0
 30
0.0
 40
4.0
 50
180.000019
 51
359.999983
  0
LINE
  5
1BB0D
  8
DANMEN
  6
CONTINUOUS
 10
61.8
 20
204.8
 30
0.0
 11
60.2
 21
204.8
 31
0.0
  0
ARC
  5
1BB0E
  8
DANMEN
  6
CONTINUOUS
 10
60.2
 20
203.8
 30
0.0
 40
1.0
 50
90.0
 51
180.0
  0
LINE
  5
1BB0F
  8
DANMEN
  6
CONTINUOUS
 10
65.300003
 20
204.550003
 30
0.0
 11
68.850006
 21
204.550003
 31
0.0
  0
LINE
  5
1BB13
  8
DANMEN
  6
CONTINUOUS
 10
42.0
 20
259.5
 30
0.0
 11
42.0
 21
225.5
 31
0.0
  0
LINE
  5
1BB14
  8
DANMEN
  6
CONTINUOUS
 10
43.649994
 20
248.0
 30
0.0
 11
43.649994
 21
225.5
 31
0.0
  0
LINE
  5
1BB15
  8
DANMEN
  6
CONTINUOUS
 10
62.25
 20
248.0
 30
0.0
 11
62.25
 21
227.061553
 31
0.0
  0
LINE
  5
1BB16
  8
DANMEN
  6
CONTINUOUS
 10
60.6
 20
248.0
 30
0.0
 11
60.6
 21
237.101833
 31
0.0
  0
LINE
  5
1BB17
  8
DANMEN
  6
CONTINUOUS
 10
49.0
 20
233.0
 30
0.0
 11
57.0
 21
233.0
 31
0.0
  0
ARC
  5
1BB18
  8
DANMEN
  6
CONTINUOUS
 10
42.5
 20
225.5
 30
0.0
 40
0.5
 50
180.000019
 51
270.000001
  0
LINE
  5
1BB19
  8
DANMEN
  6
CONTINUOUS
 10
42.5
 20
225.0
 30
0.0
 11
43.149994
 21
225.0
 31
0.0
  0
ARC
  5
1BB1A
  8
DANMEN
  6
CONTINUOUS
 10
43.149994
 20
225.5
 30
0.0
 40
0.5
 50
270.000018
 51
0.0
  0
LINE
  5
1BB1B
  8
DANMEN
  6
CONTINUOUS
 10
51.104246
 20
231.219085
 30
0.0
 11
50.971698
 21
233.214688
 31
0.0
  0
LINE
  5
1BB1C
  8
DANMEN
  6
CONTINUOUS
 10
52.102047
 20
231.285359
 30
0.0
 11
51.936363
 21
233.779863
 31
0.0
  0
ARC
  5
1BB1D
  8
DANMEN
  6
CONTINUOUS
 10
51.699997
 20
232.5
 30
0.0
 40
0.5
 50
90.0
 51
180.0
  0
ARC
  5
1BB1E
  8
DANMEN
  6
CONTINUOUS
 10
52.649994
 20
232.5
 30
0.0
 40
0.5
 50
0.0
 51
90.0
  0
LINE
  5
1BB22
  8
DANMEN
  6
CONTINUOUS
 10
51.037972
 20
232.216887
 30
0.0
 11
52.035774
 21
232.283161
 31
0.0
  0
ARC
  5
1BB25
  8
DANMEN
  6
CONTINUOUS
 10
51.603147
 20
231.252222
 30
0.0
 40
0.5
 50
183.8
 51
3.8
  0
LINE
  5
1BB26
  8
DANMEN
  6
CONTINUOUS
 10
51.404325
 20
234.245627
 30
0.0
 11
48.374018
 21
234.044354
 31
0.0
  0
LINE
  5
1BB27
  8
DANMEN
  6
CONTINUOUS
 10
51.9695
 20
233.280962
 30
0.0
 11
48.676108
 21
233.062215
 31
0.0
  0
ARC
  5
1BB29
  8
DANMEN
  6
CONTINUOUS
 10
48.407155
 20
233.545453
 30
0.0
 40
0.5
 50
93.8
 51
179.401295
  0
ARC
  5
1BB2E
  8
DANMEN
  6
CONTINUOUS
 10
51.437462
 20
233.746726
 30
0.0
 40
0.5
 50
3.8
 51
93.8
  0
LINE
  5
1BB30
  8
DANMEN
  6
CONTINUOUS
 10
51.699997
 20
233.0
 30
0.0
 11
52.649994
 21
233.0
 31
0.0
  0
LINE
  5
1BB33
  8
DANMEN
  6
CONTINUOUS
 10
62.235071
 20
226.940285
 30
0.0
 11
61.844683
 21
225.378732
 31
0.0
  0
LINE
  5
1BB34
  8
DANMEN
  6
CONTINUOUS
 10
60.155317
 20
225.378732
 30
0.0
 11
59.764929
 21
226.940285
 31
0.0
  0
LINE
  5
1BB35
  8
DANMEN
  6
CONTINUOUS
 10
60.640388
 20
225.0
 30
0.0
 11
61.359612
 21
225.0
 31
0.0
  0
ARC
  5
1BB36
  8
DANMEN
  6
CONTINUOUS
 10
60.640388
 20
225.5
 30
0.0
 40
0.5
 50
194.036243
 51
270.0
  0
ARC
  5
1BB37
  8
DANMEN
  6
CONTINUOUS
 10
61.359612
 20
225.5
 30
0.0
 40
0.5
 50
270.0
 51
345.963757
  0
ARC
  5
1BB38
  8
DANMEN
  6
CONTINUOUS
 10
69.850006
 20
221.95
 30
0.0
 40
1.0
 50
90.0
 51
180.0
  0
LINE
  5
1BB3A
  8
DANMEN
  6
CONTINUOUS
 10
59.75
 20
234.898149
 30
0.0
 11
59.75
 21
227.061553
 31
0.0
  0
ARC
  5
1BB3B
  8
DANMEN
  6
CONTINUOUS
 10
60.25
 20
227.061553
 30
0.0
 40
0.5
 50
180.0
 51
194.036243
  0
ARC
  5
1BB3C
  8
DANMEN
  6
CONTINUOUS
 10
61.75
 20
227.061553
 30
0.0
 40
0.5
 50
345.963757
 51
0.0
  0
LINE
  5
1BB3D
  8
DANMEN
  6
CONTINUOUS
 10
60.560165
 20
236.906263
 30
0.0
 11
59.789835
 21
235.09372
 31
0.0
  0
ARC
  5
1BB3E
  8
DANMEN
  6
CONTINUOUS
 10
60.1
 20
237.101833
 30
0.0
 40
0.5
 50
336.974508
 51
0.0
  0
ARC
  5
1BB3F
  8
DANMEN
  6
CONTINUOUS
 10
60.25
 20
234.898149
 30
0.0
 40
0.5
 50
156.974508
 51
180.0
  0
LINE
  5
1BB40
  8
DANMEN
  6
CONTINUOUS
 10
43.649994
 20
248.0
 30
0.0
 11
60.6
 21
248.0
 31
0.0
  0
LINE
  5
1BB41
  8
DANMEN
  6
CONTINUOUS
 10
43.649994
 20
249.649994
 30
0.0
 11
57.699997
 21
249.649994
 31
0.0
  0
LINE
  5
1BB42
  8
DANMEN
  6
CONTINUOUS
 10
43.649994
 20
258.350006
 30
0.0
 11
43.649994
 21
249.649994
 31
0.0
  0
LINE
  5
1BB43
  8
DANMEN
  6
CONTINUOUS
 10
42.5
 20
260.0
 30
0.0
 11
47.5
 21
260.0
 31
0.0
  0
LINE
  5
1BB44
  8
DANMEN
  6
CONTINUOUS
 10
43.649994
 20
258.350006
 30
0.0
 11
47.5
 21
258.350006
 31
0.0
  0
ARC
  5
1BB45
  8
DANMEN
  6
CONTINUOUS
 10
42.5
 20
259.5
 30
0.0
 40
0.5
 50
89.999982
 51
180.000019
  0
LINE
  5
1BB46
  8
DANMEN
  6
CONTINUOUS
 10
48.0
 20
259.5
 30
0.0
 11
48.0
 21
258.850006
 31
0.0
  0
ARC
  5
1BB47
  8
DANMEN
  6
CONTINUOUS
 10
47.5
 20
258.850006
 30
0.0
 40
0.5
 50
270.000018
 51
0.0
  0
ARC
  5
1BB48
  8
DANMEN
  6
CONTINUOUS
 10
47.5
 20
259.5
 30
0.0
 40
0.5
 50
0.0
 51
89.999982
  0
LINE
  5
1BB49
  8
DANMEN
  6
CONTINUOUS
 10
65.5
 20
251.950012
 30
0.0
 11
65.5
 21
248.8
 31
0.0
  0
ARC
  5
1BB4A
  8
DANMEN
  6
CONTINUOUS
 10
61.2
 20
250.7
 30
0.0
 40
1.0
 50
180.0
 51
270.0
  0
ARC
  5
1BB4B
  8
DANMEN
  6
CONTINUOUS
 10
62.8
 20
250.7
 30
0.0
 40
1.0
 50
270.0
 51
0.0
  0
ARC
  5
1BB4C
  8
DANMEN
  6
CONTINUOUS
 10
57.7
 20
250.649994
 30
0.0
 40
1.0
 50
270.0
 51
0.0
  0
LINE
  5
1BB4D
  8
DANMEN
  6
CONTINUOUS
 10
62.25
 20
248.0
 30
0.0
 11
66.5
 21
248.0
 31
0.0
  0
LINE
  5
1BB4E
  8
DANMEN
  6
CONTINUOUS
 10
62.8
 20
249.7
 30
0.0
 11
61.2
 21
249.7
 31
0.0
  0
LINE
  5
1BB4F
  8
DANMEN
  6
CONTINUOUS
 10
65.5
 20
248.8
 30
0.0
 11
67.0
 21
248.8
 31
0.0
  0
ARC
  5
1BB50
  8
DANMEN
  6
CONTINUOUS
 10
66.5
 20
248.5
 30
0.0
 40
0.5
 50
270.000018
 51
0.0
  0
LINE
  5
1BB52
  8
DANMEN
  6
CONTINUOUS
 10
67.0
 20
248.8
 30
0.0
 11
67.0
 21
248.5
 31
0.0
  0
ARC
  5
1BB53
  8
DANMEN
  6
CONTINUOUS
 10
60.6
 20
253.3
 30
0.0
 40
0.3
 50
0.0
 51
90.0
  0
LINE
  5
1BB54
  8
DANMEN
  6
CONTINUOUS
 10
60.6
 20
253.6
 30
0.0
 11
59.460621
 21
253.6
 31
0.0
  0
LINE
  5
1BB55
  8
DANMEN
  6
CONTINUOUS
 10
60.2
 20
251.946061
 30
0.0
 11
60.2
 21
250.7
 31
0.0
  0
LINE
  5
1BB56
  8
DANMEN
  6
CONTINUOUS
 10
58.7
 20
252.030306
 30
0.0
 11
58.7
 21
250.649994
 31
0.0
  0
ARC
  5
1BB57
  8
DANMEN
  6
CONTINUOUS
 10
60.7
 20
252.030306
 30
0.0
 40
2.0
 50
128.293477
 51
180.0
  0
ARC
  5
1BB58
  8
DANMEN
  6
CONTINUOUS
 10
60.7
 20
253.036932
 30
0.0
 40
0.2
 50
294.624318
 51
0.0
  0
ARC
  5
1BB59
  8
DANMEN
  6
CONTINUOUS
 10
61.2
 20
251.946061
 30
0.0
 40
1.0
 50
114.624318
 51
180.0
  0
LINE
  5
1BB5A
  8
DANMEN
  6
CONTINUOUS
 10
60.9
 20
253.3
 30
0.0
 11
60.9
 21
253.036932
 31
0.0
  0
LINE
  5
1BB5B
  8
DANMEN
  6
CONTINUOUS
 10
63.8
 20
251.946061
 30
0.0
 11
63.8
 21
250.7
 31
0.0
  0
LINE
  5
1BB5C
  8
DANMEN
  6
CONTINUOUS
 10
63.1
 20
253.300012
 30
0.0
 11
63.1
 21
253.036932
 31
0.0
  0
ARC
  5
1BB5D
  8
DANMEN
  6
CONTINUOUS
 10
62.8
 20
251.946061
 30
0.0
 40
1.0
 50
0.0
 51
65.375682
  0
ARC
  5
1BB5E
  8
DANMEN
  6
CONTINUOUS
 10
63.3
 20
253.036932
 30
0.0
 40
0.2
 50
180.0
 51
245.375682
  0
ARC
  5
1BB5F
  8
DANMEN
  6
CONTINUOUS
 10
63.4
 20
253.300012
 30
0.0
 40
0.3
 50
90.0
 51
180.0
  0
LINE
  5
1BB60
  8
DANMEN
  6
CONTINUOUS
 10
172.0
 20
217.5
 30
0.0
 11
172.0
 21
202.6
 31
0.0
  0
LINE
  5
1BB61
  8
DANMEN
  6
CONTINUOUS
 10
170.350006
 20
237.350006
 30
0.0
 11
170.350006
 21
170.649994
 31
0.0
  0
LINE
  5
1BB62
  8
DANMEN
  6
CONTINUOUS
 10
110.11785
 20
224.995322
 30
0.0
 11
110.2
 21
212.999997
 31
0.0
  0
LINE
  5
1BB63
  8
DANMEN
  6
CONTINUOUS
 10
111.123338
 20
224.451912
 30
0.0
 11
111.687844
 21
213.000834
 31
0.0
  0
LINE
  5
1BB64
  8
DANMEN
  6
CONTINUOUS
 10
110.417964
 20
224.963778
 30
0.0
 11
110.500056
 21
212.984777
 31
0.0
  0
LINE
  5
1BB65
  8
DANMEN
  6
CONTINUOUS
 10
110.2
 20
209.999997
 30
0.0
 11
110.2
 21
224.499997
 31
0.0
  0
LINE
  5
1BB66
  8
DANMEN
  6
CONTINUOUS
 10
81.0
 20
206.999997
 30
0.0
 11
81.0
 21
224.5
 31
0.0
  0
LINE
  5
1BB67
  8
DANMEN
  6
CONTINUOUS
 10
70.800003
 20
221.0
 30
0.0
 11
70.800003
 21
175.5
 31
0.0
  0
LINE
  5
1BB68
  8
DANMEN
  6
CONTINUOUS
 10
189.95
 20
230.05
 30
0.0
 11
189.95
 21
209.95
 31
0.0
  0
LINE
  5
1BB69
  8
DANMEN
  6
CONTINUOUS
 10
188.0
 20
229.9
 30
0.0
 11
188.0
 21
210.1
 31
0.0
  0
LINE
  5
1BB6A
  8
DANMEN
  6
CONTINUOUS
 10
112.0
 20
210.149997
 30
0.0
 11
112.0
 21
225.0
 31
0.0
  0
LINE
  5
1BB6B
  8
DANMEN
  6
CONTINUOUS
 10
73.0
 20
233.0
 30
0.0
 11
73.0
 21
171.0
 31
0.0
  0
LINE
  5
1BB6C
  8
DANMEN
  6
DASHED
 10
78.5
 20
225.0
 30
0.0
 11
78.5
 21
171.0
 31
0.0
  0
LINE
  5
1BB6D
  8
DANMEN
  6
CONTINUOUS
 10
75.5
 20
225.0
 30
0.0
 11
75.5
 21
171.0
 31
0.0
  0
LINE
  5
1BB6E
  8
DANMEN
  6
CONTINUOUS
 10
116.8
 20
169.0
 30
0.0
 11
116.8
 21
132.500001
 31
0.0
  0
LINE
  5
1BB6F
  8
DANMEN
  6
CONTINUOUS
 10
82.974995
 20
133.000001
 30
0.0
 11
82.974995
 21
169.0
 31
0.0
  0
LINE
  5
1BB70
  8
DANMEN
  6
CONTINUOUS
 10
103.975005
 20
133.000001
 30
0.0
 11
103.975005
 21
169.0
 31
0.0
  0
LINE
  5
1BB71
  8
DANMEN
  6
CONTINUOUS
 10
97.525004
 20
134.000001
 30
0.0
 11
104.025005
 21
133.000001
 31
0.0
  0
ARC
  5
1BB72
  8
DANMEN
  6
CONTINUOUS
 10
104.0
 20
132.500003
 30
0.0
 40
0.5
 50
90.0
 51
180.0
  0
LINE
  5
1BB73
  8
DANMEN
  6
CONTINUOUS
 10
104.0
 20
128.000003
 30
0.0
 11
103.5
 21
128.000003
 31
0.0
  0
LINE
  5
1BB74
  8
DANMEN
  6
CONTINUOUS
 10
104.0
 20
123.000003
 30
0.0
 11
103.5
 21
123.000003
 31
0.0
  0
LINE
  5
1BB75
  8
DANMEN
  6
CONTINUOUS
 10
81.0
 20
168.5
 30
0.0
 11
81.0
 21
132.500001
 31
0.0
  0
LINE
  5
1BB76
  8
DANMEN
  6
CONTINUOUS
 10
89.525
 20
130.636037
 30
0.0
 11
86.609572
 21
133.551465
 31
0.0
  0
LINE
  5
1BB77
  8
DANMEN
  6
CONTINUOUS
 10
88.039719
 20
129.999998
 30
0.0
 11
84.771094
 21
133.268623
 31
0.0
  0
LINE
  5
1BB78
  8
DANMEN
  6
CONTINUOUS
 10
86.282359
 20
129.999998
 30
0.0
 11
89.525
 21
133.242639
 31
0.0
  0
LINE
  5
1BB79
  8
DANMEN
  6
CONTINUOUS
 10
84.161039
 20
129.999998
 30
0.0
 11
87.91304
 21
133.751999
 31
0.0
  0
LINE
  5
1BB7A
  8
DANMEN
  6
CONTINUOUS
 10
89.525003
 20
133.999993
 30
0.0
 11
83.025002
 21
132.999993
 31
0.0
  0
LINE
  5
1BB7B
  8
DANMEN
  6
CONTINUOUS
 10
83.5
 20
132.500003
 30
0.0
 11
83.5
 21
128.000003
 31
0.0
  0
LINE
  5
1BB7C
  8
DANMEN
  6
CONTINUOUS
 10
82.65
 20
128.000003
 30
0.0
 11
83.5
 21
128.000003
 31
0.0
  0
ARC
  5
1BB7F
  8
DANMEN
  6
CONTINUOUS
 10
83.0
 20
132.500003
 30
0.0
 40
0.5
 50
0.0
 51
90.0
  0
ARC
  5
1BB80
  8
DANMEN
  6
CONTINUOUS
 10
81.5
 20
132.500003
 30
0.0
 40
0.5
 50
90.0
 51
180.0
  0
LINE
  5
1BB81
  8
DANMEN
  6
CONTINUOUS
 10
81.5
 20
133.000003
 30
0.0
 11
83.0
 21
133.000003
 31
0.0
  0
LINE
  5
1BB83
  8
DANMEN
  6
CONTINUOUS
 10
85.918398
 20
129.999998
 30
0.0
 11
83.525
 21
132.393396
 31
0.0
  0
LINE
  5
1BB84
  8
DANMEN
  6
CONTINUOUS
 10
83.797078
 20
129.999998
 30
0.0
 11
83.525
 21
130.272076
 31
0.0
  0
LINE
  5
1BB85
  8
DANMEN
  6
CONTINUOUS
 10
83.525
 20
131.485279
 30
0.0
 11
85.406025
 21
133.366304
 31
0.0
  0
LINE
  5
1BB87
  8
DANMEN
  6
CONTINUOUS
 10
89.525
 20
132.757357
 30
0.0
 11
88.448049
 21
133.834308
 31
0.0
  0
LINE
  5
1BB88
  8
DANMEN
  6
CONTINUOUS
 10
88.40368
 20
129.999998
 30
0.0
 11
89.525
 21
131.121318
 31
0.0
  0
LINE
  5
1BB8B
  8
DANMEN
  6
CONTINUOUS
 10
103.5
 20
132.500002
 30
0.0
 11
103.5
 21
128.000003
 31
0.0
  0
LINE
  5
1BB8D
  8
DANMEN
  6
CONTINUOUS
 10
103.5
 20
123.000003
 30
0.0
 11
103.5
 21
122.500003
 31
0.0
  0
LINE
  5
1BB8F
  8
DANMEN
  6
CONTINUOUS
 10
102.888961
 20
129.999998
 30
0.0
 11
99.13696
 21
133.751999
 31
0.0
  0
LINE
  5
1BB90
  8
DANMEN
  6
CONTINUOUS
 10
100.767641
 20
129.999998
 30
0.0
 11
97.525
 21
133.242639
 31
0.0
  0
LINE
  5
1BB91
  8
DANMEN
  6
CONTINUOUS
 10
99.010281
 20
129.999998
 30
0.0
 11
102.278906
 21
133.268623
 31
0.0
  0
LINE
  5
1BB92
  8
DANMEN
  6
CONTINUOUS
 10
97.525
 20
130.636037
 30
0.0
 11
100.440428
 21
133.551465
 31
0.0
  0
LINE
  5
1BB93
  8
DANMEN
  6
CONTINUOUS
 10
98.64632
 20
129.999998
 30
0.0
 11
97.525
 21
131.121318
 31
0.0
  0
LINE
  5
1BB94
  8
DANMEN
  6
CONTINUOUS
 10
97.525
 20
132.757357
 30
0.0
 11
98.601951
 21
133.834308
 31
0.0
  0
LINE
  5
1BB95
  8
DANMEN
  6
CONTINUOUS
 10
103.525
 20
131.485279
 30
0.0
 11
101.643975
 21
133.366304
 31
0.0
  0
LINE
  5
1BB96
  8
DANMEN
  6
CONTINUOUS
 10
103.252922
 20
129.999998
 30
0.0
 11
103.525
 21
130.272076
 31
0.0
  0
LINE
  5
1BB97
  8
DANMEN
  6
CONTINUOUS
 10
101.131602
 20
129.999998
 30
0.0
 11
103.525
 21
132.393396
 31
0.0
  0
LINE
  5
1BB9A
  8
DANMEN
  6
CONTINUOUS
 10
104.0
 20
133.000003
 30
0.0
 11
116.3
 21
133.000003
 31
0.0
  0
LINE
  5
1BB9B
  8
DANMEN
  6
CONTINUOUS
 10
105.0
 20
131.350003
 30
0.0
 11
115.15
 21
131.350003
 31
0.0
  0
LINE
  5
1BB9C
  8
DANMEN
  6
CONTINUOUS
 10
105.0
 20
131.350003
 30
0.0
 11
105.0
 21
122.500003
 31
0.0
  0
LINE
  5
1BB9D
  8
DANMEN
  6
CONTINUOUS
 10
104.0
 20
128.000003
 30
0.0
 11
104.0
 21
123.000003
 31
0.0
  0
ARC
  5
1BBA2
  8
DANMEN
  6
CONTINUOUS
 10
116.3
 20
132.500003
 30
0.0
 40
0.5
 50
0.0
 51
89.999982
  0
LINE
  5
1BBA4
  8
DANMEN
  6
CONTINUOUS
 10
97.549997
 20
186.000003
 30
0.0
 11
104.049998
 21
187.000003
 31
0.0
  0
ARC
  5
1BBA5
  8
DANMEN
  6
CONTINUOUS
 10
104.0
 20
187.499997
 30
0.0
 40
0.5
 50
180.0
 51
270.0
  0
ARC
  5
1BBA6
  8
DANMEN
  6
CONTINUOUS
 10
104.0
 20
196.499997
 30
0.0
 40
0.5
 50
90.0
 51
180.0
  0
LINE
  5
1BBA7
  8
DANMEN
  6
CONTINUOUS
 10
104.0
 20
195.999997
 30
0.0
 11
103.5
 21
195.999997
 31
0.0
  0
LINE
  5
1BBA8
  8
DANMEN
  6
CONTINUOUS
 10
104.0
 20
191.999997
 30
0.0
 11
103.5
 21
191.999997
 31
0.0
  0
LINE
  5
1BBA9
  8
DANMEN
  6
CONTINUOUS
 10
87.700006
 20
214.499997
 30
0.0
 11
108.55
 21
214.499997
 31
0.0
  0
LINE
  5
1BBAA
  8
DANMEN
  6
CONTINUOUS
 10
82.95
 20
192.000001
 30
0.0
 11
82.95
 21
204.699998
 31
0.0
  0
LINE
  5
1BBAB
  8
DANMEN
  6
CONTINUOUS
 10
81.0
 20
187.500002
 30
0.0
 11
81.0
 21
206.999998
 31
0.0
  0
LINE
  5
1BBAC
  8
DANMEN
  6
CONTINUOUS
 10
97.05
 20
198.999998
 30
0.0
 11
97.05
 21
171.0
 31
0.0
  0
LINE
  5
1BBAD
  8
DANMEN
  6
CONTINUOUS
 10
90.05
 20
198.999998
 30
0.0
 11
90.05
 21
170.999998
 31
0.0
  0
LINE
  5
1BBAE
  8
DANMEN
  6
CONTINUOUS
 10
89.55
 20
198.999998
 30
0.0
 11
89.55
 21
171.0
 31
0.0
  0
LINE
  5
1BBAF
  8
DANMEN
  6
CONTINUOUS
 10
97.55
 20
198.999998
 30
0.0
 11
97.55
 21
170.999998
 31
0.0
  0
LINE
  5
1BBB0
  8
DANMEN
  6
CONTINUOUS
 10
84.186039
 20
189.999998
 30
0.0
 11
87.93804
 21
186.247998
 31
0.0
  0
LINE
  5
1BBB1
  8
DANMEN
  6
CONTINUOUS
 10
86.307359
 20
189.999998
 30
0.0
 11
89.55
 21
186.757358
 31
0.0
  0
LINE
  5
1BBB2
  8
DANMEN
  6
CONTINUOUS
 10
88.064719
 20
189.999998
 30
0.0
 11
84.796094
 21
186.731374
 31
0.0
  0
LINE
  5
1BBB3
  8
DANMEN
  6
CONTINUOUS
 10
89.55
 20
189.363959
 30
0.0
 11
86.634572
 21
186.448531
 31
0.0
  0
LINE
  5
1BBB4
  8
DANMEN
  6
CONTINUOUS
 10
89.549996
 20
185.999996
 30
0.0
 11
83.049995
 21
186.999996
 31
0.0
  0
LINE
  5
1BBB5
  8
DANMEN
  6
CONTINUOUS
 10
82.987495
 20
171.0
 30
0.0
 11
82.987495
 21
186.999998
 31
0.0
  0
LINE
  5
1BBB6
  8
DANMEN
  6
CONTINUOUS
 10
81.0
 20
187.500001
 30
0.0
 11
81.0
 21
171.0
 31
0.0
  0
LINE
  5
1BBB8
  8
DANMEN
  6
CONTINUOUS
 10
82.95
 20
192.000001
 30
0.0
 11
83.5
 21
192.000001
 31
0.0
  0
ARC
  5
1BBB9
  8
DANMEN
  6
CONTINUOUS
 10
83.0
 20
187.500001
 30
0.0
 40
0.5
 50
270.0
 51
0.0
  0
ARC
  5
1BBBB
  8
DANMEN
  6
CONTINUOUS
 10
81.5
 20
187.500001
 30
0.0
 40
0.5
 50
179.999872
 51
269.999909
  0
LINE
  5
1BBBC
  8
DANMEN
  6
CONTINUOUS
 10
81.5
 20
187.000001
 30
0.0
 11
83.0
 21
187.000001
 31
0.0
  0
LINE
  5
1BBBF
  8
DANMEN
  6
CONTINUOUS
 10
83.55
 20
188.514717
 30
0.0
 11
85.431025
 21
186.633692
 31
0.0
  0
LINE
  5
1BBC0
  8
DANMEN
  6
CONTINUOUS
 10
83.822078
 20
189.999998
 30
0.0
 11
83.55
 21
189.72792
 31
0.0
  0
LINE
  5
1BBC1
  8
DANMEN
  6
CONTINUOUS
 10
85.943398
 20
189.999998
 30
0.0
 11
83.55
 21
187.6066
 31
0.0
  0
LINE
  5
1BBC3
  8
DANMEN
  6
CONTINUOUS
 10
83.5
 20
187.500002
 30
0.0
 11
83.5
 21
192.000001
 31
0.0
  0
LINE
  5
1BBC5
  8
DANMEN
  6
CONTINUOUS
 10
89.55
 20
187.242639
 30
0.0
 11
88.473049
 21
186.165688
 31
0.0
  0
LINE
  5
1BBC6
  8
DANMEN
  6
CONTINUOUS
 10
88.42868
 20
189.999998
 30
0.0
 11
89.55
 21
188.878678
 31
0.0
  0
LINE
  5
1BBC9
  8
DANMEN
  6
CONTINUOUS
 10
97.55
 20
187.242639
 30
0.0
 11
98.626951
 21
186.165688
 31
0.0
  0
LINE
  5
1BBCA
  8
DANMEN
  6
CONTINUOUS
 10
102.913961
 20
189.999998
 30
0.0
 11
99.16196
 21
186.247998
 31
0.0
  0
LINE
  5
1BBCB
  8
DANMEN
  6
CONTINUOUS
 10
97.55
 20
189.363959
 30
0.0
 11
100.465428
 21
186.448531
 31
0.0
  0
LINE
  5
1BBCC
  8
DANMEN
  6
CONTINUOUS
 10
99.035281
 20
189.999998
 30
0.0
 11
102.303906
 21
186.731374
 31
0.0
  0
LINE
  5
1BBCD
  8
DANMEN
  6
CONTINUOUS
 10
100.792641
 20
189.999998
 30
0.0
 11
97.55
 21
186.757358
 31
0.0
  0
LINE
  5
1BBCE
  8
DANMEN
  6
CONTINUOUS
 10
98.67132
 20
189.999998
 30
0.0
 11
97.55
 21
188.878678
 31
0.0
  0
LINE
  5
1BBCF
  8
DANMEN
  6
CONTINUOUS
 10
101.156602
 20
189.999998
 30
0.0
 11
103.55
 21
187.6066
 31
0.0
  0
LINE
  5
1BBD0
  8
DANMEN
  6
CONTINUOUS
 10
103.277922
 20
189.999998
 30
0.0
 11
103.55
 21
189.72792
 31
0.0
  0
LINE
  5
1BBD1
  8
DANMEN
  6
CONTINUOUS
 10
103.55
 20
188.514717
 30
0.0
 11
101.668975
 21
186.633692
 31
0.0
  0
LINE
  5
1BBD3
  8
DANMEN
  6
CONTINUOUS
 10
103.5
 20
187.499998
 30
0.0
 11
103.5
 21
191.999997
 31
0.0
  0
ARC
  5
1BBD5
  8
DANMEN
  6
CONTINUOUS
 10
87.309908
 20
209.499997
 30
0.0
 40
0.5
 50
191.309932
 51
270.0
  0
LINE
  5
1BBD6
  8
DANMEN
  6
CONTINUOUS
 10
84.65
 20
205.699998
 30
0.0
 11
84.65
 21
209.734022
 31
0.0
  0
ARC
  5
1BBD7
  8
DANMEN
  6
CONTINUOUS
 10
83.502184
 20
209.399934
 30
0.0
 40
0.5
 50
149.886267
 51
243.881419
  0
LINE
  5
1BBD8
  8
DANMEN
  6
CONTINUOUS
 10
86.500006
 20
210.999997
 30
0.0
 11
86.819618
 21
209.401939
 31
0.0
  0
LINE
  5
1BBD9
  8
DANMEN
  6
CONTINUOUS
 10
82.65
 20
208.999997
 30
0.0
 11
82.65
 21
214.999997
 31
0.0
  0
ARC
  5
1BBDA
  8
DANMEN
  6
CONTINUOUS
 10
83.45
 20
204.699998
 30
0.0
 40
0.5
 50
90.0
 51
180.0
  0
LINE
  5
1BBDB
  8
DANMEN
  6
CONTINUOUS
 10
82.95
 20
206.699998
 30
0.0
 11
83.45
 21
206.699998
 31
0.0
  0
ARC
  5
1BBDC
  8
DANMEN
  6
CONTINUOUS
 10
82.707801
 20
207.499997
 30
0.0
 40
0.5
 50
270.0
 51
330.603827
  0
LINE
  5
1BBDD
  8
DANMEN
  6
CONTINUOUS
 10
83.2
 20
208.999997
 30
0.0
 11
82.65
 21
208.999997
 31
0.0
  0
LINE
  5
1BBDF
  8
DANMEN
  6
CONTINUOUS
 10
81.0
 20
206.999998
 30
0.0
 11
82.95
 21
206.999998
 31
0.0
  0
LINE
  5
1BBE0
  8
DANMEN
  6
CONTINUOUS
 10
82.95
 20
206.699998
 30
0.0
 11
82.95
 21
206.999998
 31
0.0
  0
LINE
  5
1BBE8
  8
DANMEN
  6
CONTINUOUS
 10
81.0
 20
206.999997
 30
0.0
 11
82.707801
 21
206.999997
 31
0.0
  0
LINE
  5
1BBEB
  8
DANMEN
  6
CONTINUOUS
 10
83.45
 20
206.699998
 30
0.0
 11
83.45
 21
208.681626
 31
0.0
  0
LINE
  5
1BBEE
  8
DANMEN
  6
CONTINUOUS
 10
83.45
 20
205.199998
 30
0.0
 11
84.15
 21
205.199998
 31
0.0
  0
ARC
  5
1BBEF
  8
DANMEN
  6
CONTINUOUS
 10
84.15
 20
205.699998
 30
0.0
 40
0.5
 50
270.0
 51
0.0
  0
ARC
  5
1BBF2
  8
DANMEN
  6
CONTINUOUS
 10
83.15
 20
208.681626
 30
0.0
 40
0.3
 50
0.0
 51
63.881419
  0
LINE
  5
1BBF6
  8
DANMEN
  6
CONTINUOUS
 10
83.5
 20
208.699997
 30
0.0
 11
83.5
 21
207.996242
 31
0.0
  0
LINE
  5
1BBF7
  8
DANMEN
  6
CONTINUOUS
 10
83.5
 20
207.996242
 30
0.0
 11
83.143425
 21
207.254574
 31
0.0
  0
ARC
  5
1BBF8
  8
DANMEN
  6
CONTINUOUS
 10
83.2
 20
208.699997
 30
0.0
 40
0.3
 50
0.0
 51
90.0
  0
LINE
  5
1BBFB
  8
DANMEN
  6
CONTINUOUS
 10
82.65
 20
214.999997
 30
0.0
 11
86.500006
 21
214.999997
 31
0.0
  0
ARC
  5
1BBFF
  8
DANMEN
  6
CONTINUOUS
 10
85.0
 20
214.000893
 30
0.0
 40
0.5
 50
55.291951
 51
235.291951
  0
LINE
  5
1BC00
  8
DANMEN
  6
CONTINUOUS
 10
86.6
 20
212.259563
 30
0.0
 11
86.6
 21
213.500893
 31
0.0
  0
LINE
  5
1BC02
  8
DANMEN
  6
CONTINUOUS
 10
83.069669
 20
209.650793
 30
0.0
 11
85.431636
 21
212.709893
 31
0.0
  0
LINE
  5
1BC04
  8
DANMEN
  6
CONTINUOUS
 10
86.6
 20
213.500893
 30
0.0
 11
85.284698
 21
214.411925
 31
0.0
  0
LINE
  5
1BC06
  8
DANMEN
  6
CONTINUOUS
 10
85.364998
 20
213.139855
 30
0.0
 11
84.715302
 21
213.589861
 31
0.0
  0
LINE
  5
1BC07
  8
DANMEN
  6
CONTINUOUS
 10
84.65
 20
209.734022
 30
0.0
 11
86.6
 21
212.259563
 31
0.0
  0
ARC
  5
1BC08
  8
DANMEN
  6
CONTINUOUS
 10
85.19418
 20
212.893236
 30
0.0
 40
0.3
 50
322.327843
 51
55.291951
  0
LINE
  5
1BC0D
  8
DANMEN
  6
CONTINUOUS
 10
86.500006
 20
210.999997
 30
0.0
 11
86.500006
 21
214.999997
 31
0.0
  0
LINE
  5
1BC0F
  8
DANMEN
  6
CONTINUOUS
 10
89.55
 20
198.999998
 30
0.0
 11
97.55
 21
198.999998
 31
0.0
  0
LINE
  5
1BC12
  8
DANMEN
  6
CONTINUOUS
 10
103.5
 20
195.999997
 30
0.0
 11
103.5
 21
196.499997
 31
0.0
  0
LINE
  5
1BC13
  8
DANMEN
  6
CONTINUOUS
 10
87.700006
 20
208.999997
 30
0.0
 11
87.700006
 21
214.499997
 31
0.0
  0
LINE
  5
1BC15
  8
DANMEN
  6
CONTINUOUS
 10
87.309908
 20
208.999997
 30
0.0
 11
87.700006
 21
208.999997
 31
0.0
  0
LINE
  5
1BC19
  8
DANMEN
  6
CONTINUOUS
 10
104.0
 20
191.999997
 30
0.0
 11
104.0
 21
195.999997
 31
0.0
  0
LINE
  5
1BC1A
  8
DANMEN
  6
CONTINUOUS
 10
105.0
 20
188.649997
 30
0.0
 11
105.0
 21
196.499997
 31
0.0
  0
LINE
  5
1BC1B
  8
DANMEN
  6
CONTINUOUS
 10
116.8
 20
208.499997
 30
0.0
 11
116.8
 21
187.499997
 31
0.0
  0
LINE
  5
1BC1C
  8
DANMEN
  6
CONTINUOUS
 10
115.150003
 20
208.349997
 30
0.0
 11
115.150003
 21
188.649997
 31
0.0
  0
LINE
  5
1BC1D
  8
DANMEN
  6
CONTINUOUS
 10
119.0
 20
208.499997
 30
0.0
 11
119.0
 21
171.0
 31
0.0
  0
LINE
  5
1BC1E
  8
DANMEN
  6
CONTINUOUS
 10
116.8
 20
208.499997
 30
0.0
 11
116.8
 21
171.0
 31
0.0
  0
LINE
  5
1BC1F
  8
DANMEN
  6
CONTINUOUS
 10
104.000005
 20
171.0
 30
0.0
 11
104.000005
 21
186.999998
 31
0.0
  0
LINE
  5
1BC20
  8
DANMEN
  6
CONTINUOUS
 10
115.150003
 20
188.649997
 30
0.0
 11
105.0
 21
188.649997
 31
0.0
  0
LINE
  5
1BC21
  8
DANMEN
  6
CONTINUOUS
 10
116.300003
 20
186.999997
 30
0.0
 11
104.0
 21
186.999997
 31
0.0
  0
ARC
  5
1BC25
  8
DANMEN
  6
CONTINUOUS
 10
116.3
 20
187.499997
 30
0.0
 40
0.5
 50
270.0
 51
0.0
  0
LINE
  5
1BC27
  8
DANMEN
  6
CONTINUOUS
 10
130.2
 20
211.578484
 30
0.0
 11
111.687844
 21
213.000834
 31
0.0
  0
LINE
  5
1BC28
  8
DANMEN
  6
CONTINUOUS
 10
110.500003
 20
208.499997
 30
0.0
 11
130.2
 21
208.499997
 31
0.0
  0
ARC
  5
1BC2A
  8
DANMEN
  6
CONTINUOUS
 10
104.5
 20
196.499997
 30
0.0
 40
0.5
 50
0.0
 51
90.0
  0
LINE
  5
1BC2B
  8
DANMEN
  6
CONTINUOUS
 10
104.5
 20
196.999997
 30
0.0
 11
104.0
 21
196.999997
 31
0.0
  0
LINE
  5
1BC2E
  8
DANMEN
  6
CONTINUOUS
 10
109.05
 20
208.349997
 30
0.0
 11
115.150003
 21
208.349997
 31
0.0
  0
LINE
  5
1BC2F
  8
DANMEN
  6
CONTINUOUS
 10
110.2
 20
209.999997
 30
0.0
 11
118.0
 21
209.999997
 31
0.0
  0
LINE
  5
1BC30
  8
DANMEN
  6
CONTINUOUS
 10
110.500003
 20
208.499997
 30
0.0
 11
110.500003
 21
213.016225
 31
0.0
  0
LINE
  5
1BC31
  8
DANMEN
  6
CONTINUOUS
 10
110.2
 20
208.499997
 30
0.0
 11
110.2
 21
212.999997
 31
0.0
  0
LINE
  5
1BC32
  8
DANMEN
  6
CONTINUOUS
 10
108.55
 20
208.849997
 30
0.0
 11
108.55
 21
214.499997
 31
0.0
  0
ARC
  5
1BC36
  8
DANMEN
  6
CONTINUOUS
 10
109.05
 20
208.849997
 30
0.0
 40
0.5
 50
180.0
 51
270.0
  0
ARC
  5
1BC3D
  8
DANMEN
  6
CONTINUOUS
 10
118.0
 20
208.999997
 30
0.0
 40
1.0
 50
0.0
 51
90.0
  0
LINE
  5
1BC41
  8
DANMEN
  6
CONTINUOUS
 10
116.8
 20
208.499997
 30
0.0
 11
119.0
 21
208.499997
 31
0.0
  0
LINE
  5
1BC42
  8
DANMEN
  6
CONTINUOUS
 10
119.0
 20
208.999997
 30
0.0
 11
119.0
 21
208.499997
 31
0.0
  0
ARC
  5
1BC44
  8
DANMEN
  6
CONTINUOUS
 10
186.5
 20
169.5
 30
0.0
 40
0.5
 50
270.000018
 51
359.999981
  0
ARC
  5
1BC45
  8
DANMEN
  6
CONTINUOUS
 10
162.5
 20
169.5
 30
0.0
 40
0.5
 50
180.000036
 51
269.999963
  0
LINE
  5
1BC46
  8
DANMEN
  6
CONTINUOUS
 10
163.649994
 20
149.350006
 30
0.0
 11
170.350006
 21
149.350006
 31
0.0
  0
LINE
  5
1BC47
  8
DANMEN
  6
CONTINUOUS
 10
162.5
 20
151.0
 30
0.0
 11
186.5
 21
151.0
 31
0.0
  0
LINE
  5
1BC48
  8
DANMEN
  6
CONTINUOUS
 10
163.649994
 20
149.350006
 30
0.0
 11
163.649994
 21
145.5
 31
0.0
  0
LINE
  5
1BC49
  8
DANMEN
  6
CONTINUOUS
 10
162.0
 20
150.5
 30
0.0
 11
162.0
 21
145.5
 31
0.0
  0
ARC
  5
1BC4C
  8
DANMEN
  6
CONTINUOUS
 10
163.149994
 20
145.5
 30
0.0
 40
0.5
 50
270.000018
 51
359.999981
  0
ARC
  5
1BC4D
  8
DANMEN
  6
CONTINUOUS
 10
162.5
 20
145.5
 30
0.0
 40
0.5
 50
180.000036
 51
269.999963
  0
LINE
  5
1BC4E
  8
DANMEN
  6
CONTINUOUS
 10
162.5
 20
145.0
 30
0.0
 11
163.149994
 21
145.0
 31
0.0
  0
ARC
  5
1BC50
  8
DANMEN
  6
CONTINUOUS
 10
162.5
 20
150.5
 30
0.0
 40
0.5
 50
89.999982
 51
180.000019
  0
LINE
  5
1BC52
  8
DANMEN
  6
CONTINUOUS
 10
172.0
 20
149.9
 30
0.0
 11
172.0
 21
131.3
 31
0.0
  0
LINE
  5
1BC53
  8
DANMEN
  6
CONTINUOUS
 10
185.156624
 20
141.9
 30
0.0
 11
188.0
 21
141.9
 31
0.0
  0
LINE
  5
1BC54
  8
DANMEN
  6
CONTINUOUS
 10
172.0
 20
133.5
 30
0.0
 11
188.0
 21
133.5
 31
0.0
  0
LINE
  5
1BC55
  8
DANMEN
  6
CONTINUOUS
 10
172.0
 20
138.5
 30
0.0
 11
188.0
 21
138.5
 31
0.0
  0
LINE
  5
1BC56
  8
DANMEN
  6
CONTINUOUS
 10
181.050996
 20
132.0
 30
0.0
 11
176.850995
 21
131.3
 31
0.0
  0
LINE
  5
1BC57
  8
DANMEN
  6
CONTINUOUS
 10
182.164402
 20
130.360739
 30
0.0
 11
177.081604
 21
129.513606
 31
0.0
  0
ARC
  5
1BC58
  8
DANMEN
  6
CONTINUOUS
 10
173.47351
 20
124.101146
 30
0.0
 40
0.6
 50
23.0
 51
273.528779
  0
ARC
  5
1BC5F
  8
DANMEN
  6
CONTINUOUS
 10
175.5
 20
124.0
 30
0.0
 40
0.5
 50
90.0
 51
180.0
  0
LINE
  5
1BC61
  8
DANMEN
  6
CONTINUOUS
 10
176.2
 20
124.5
 30
0.0
 11
176.2
 21
123.443494
 31
0.0
  0
LINE
  5
1BC62
  8
DANMEN
  6
CONTINUOUS
 10
175.5
 20
124.5
 30
0.0
 11
176.199997
 21
124.5
 31
0.0
  0
LINE
  5
1BC63
  8
DANMEN
  6
CONTINUOUS
 10
172.0
 20
131.3
 30
0.0
 11
176.850995
 21
131.3
 31
0.0
  0
LINE
  5
1BC64
  8
DANMEN
  6
CONTINUOUS
 10
172.0
 20
129.5
 30
0.0
 11
176.917205
 21
129.5
 31
0.0
  0
ARC
  5
1BC68
  8
DANMEN
  6
CONTINUOUS
 10
176.917205
 20
130.5
 30
0.0
 40
1.0
 50
270.000018
 51
279.462343
  0
LINE
  5
1BC6B
  8
DANMEN
  6
CONTINUOUS
 10
181.050996
 20
132.0
 30
0.0
 11
182.5
 21
132.0
 31
0.0
  0
ARC
  5
1BC6D
  8
DANMEN
  6
CONTINUOUS
 10
182.5
 20
131.5
 30
0.0
 40
0.5
 50
0.0
 51
89.999982
  0
ARC
  5
1BC6F
  8
DANMEN
  6
CONTINUOUS
 10
182.0
 20
131.347137
 30
0.0
 40
1.0
 50
279.462343
 51
0.000285
  0
LINE
  5
1BC72
  8
DANMEN
  6
CONTINUOUS
 10
183.0
 20
131.5
 30
0.0
 11
183.0
 21
131.347137
 31
0.0
  0
LINE
  5
1BC73
  8
DANMEN
  6
CONTINUOUS
 10
176.2
 20
140.556506
 30
0.0
 11
185.156624
 21
141.9
 31
0.0
  0
LINE
  5
1BC74
  8
DANMEN
  6
CONTINUOUS
 10
175.85166
 20
142.627749
 30
0.0
 11
184.963121
 21
143.994468
 31
0.0
  0
LINE
  5
1BC75
  8
DANMEN
  6
CONTINUOUS
 10
172.0
 20
144.0
 30
0.0
 11
184.999936
 21
144.0
 31
0.0
  0
LINE
  5
1BC76
  8
DANMEN
  6
CONTINUOUS
 10
176.2
 20
139.5
 30
0.0
 11
176.2
 21
140.556506
 31
0.0
  0
ARC
  5
1BC77
  8
DANMEN
  6
CONTINUOUS
 10
175.5
 20
140.0
 30
0.0
 40
0.5
 50
180.0
 51
270.0
  0
LINE
  5
1BC78
  8
DANMEN
  6
CONTINUOUS
 10
175.5
 20
139.5
 30
0.0
 11
176.199997
 21
139.5
 31
0.0
  0
LINE
  5
1BC7B
  8
DANMEN
  6
CONTINUOUS
 10
175.0
 20
140.0
 30
0.0
 11
175.0
 21
141.638809
 31
0.0
  0
ARC
  5
1BC7C
  8
DANMEN
  6
CONTINUOUS
 10
176.0
 20
141.638813
 30
0.0
 40
1.0
 50
98.530766
 51
180.0
  0
ARC
  5
1BC80
  8
DANMEN
  6
CONTINUOUS
 10
185.037291
 20
143.5
 30
0.0
 40
0.5
 50
90.0
 51
98.530766
  0
LINE
  5
1BC82
  8
DANMEN
  6
CONTINUOUS
 10
190.337866
 20
127.153542
 30
0.0
 11
192.396457
 21
129.212133
 31
0.0
  0
ARC
  5
1BC83
  8
DANMEN
  6
CONTINUOUS
 10
190.55
 20
126.941409
 30
0.0
 40
0.3
 50
135.000055
 51
180.000073
  0
ARC
  5
1BC86
  8
DANMEN
  6
CONTINUOUS
 10
192.608591
 20
129.0
 30
0.0
 40
0.3
 50
89.999927
 51
134.999946
  0
LINE
  5
1BC89
  8
DANMEN
  6
CONTINUOUS
 10
193.499997
 20
129.3
 30
0.0
 11
192.608591
 21
129.3
 31
0.0
  0
LINE
  5
1BC8A
  8
DANMEN
  6
CONTINUOUS
 10
198.749997
 20
124.3
 30
0.0
 11
197.249997
 21
124.3
 31
0.0
  0
LINE
  5
1BC97
  8
DANMEN
  6
CONTINUOUS
 10
174.0
 20
149.350006
 30
0.0
 11
186.5
 21
149.350006
 31
0.0
  0
LINE
  5
1BC98
  8
DANMEN
  6
CONTINUOUS
 10
172.0
 20
149.9
 30
0.0
 11
174.0
 21
149.9
 31
0.0
  0
LINE
  5
1BC9C
  8
DANMEN
  6
CONTINUOUS
 10
174.0
 20
149.9
 30
0.0
 11
174.0
 21
149.350006
 31
0.0
  0
ARC
  5
1BCA1
  8
DANMEN
  6
CONTINUOUS
 10
186.5
 20
150.5
 30
0.0
 40
0.5
 50
359.999981
 51
89.999982
  0
ARC
  5
1BCA2
  8
DANMEN
  6
CONTINUOUS
 10
186.5
 20
149.850006
 30
0.0
 40
0.5
 50
270.000018
 51
359.999981
  0
LINE
  5
1BCA3
  8
DANMEN
  6
CONTINUOUS
 10
187.0
 20
150.5
 30
0.0
 11
187.0
 21
149.850006
 31
0.0
  0
LINE
  5
1BCA4
  8
DANMEN
  6
CONTINUOUS
 10
162.5
 20
169.0
 30
0.0
 11
186.5
 21
169.0
 31
0.0
  0
LINE
  5
1BCA5
  8
DANMEN
  6
CONTINUOUS
 10
163.649994
 20
170.649994
 30
0.0
 11
170.350006
 21
170.649994
 31
0.0
  0
ARC
  5
1BCA6
  8
DANMEN
  6
CONTINUOUS
 10
162.5
 20
174.5
 30
0.0
 40
0.5
 50
89.999982
 51
180.000019
  0
ARC
  5
1BCA7
  8
DANMEN
  6
CONTINUOUS
 10
163.149994
 20
174.5
 30
0.0
 40
0.5
 50
359.999981
 51
89.999982
  0
LINE
  5
1BCAA
  8
DANMEN
  6
CONTINUOUS
 10
163.649994
 20
174.5
 30
0.0
 11
163.649994
 21
170.649994
 31
0.0
  0
LINE
  5
1BCAB
  8
DANMEN
  6
CONTINUOUS
 10
162.0
 20
174.5
 30
0.0
 11
162.0
 21
169.5
 31
0.0
  0
LINE
  5
1BCAE
  8
DANMEN
  6
CONTINUOUS
 10
162.5
 20
175.0
 30
0.0
 11
163.149994
 21
175.0
 31
0.0
  0
LINE
  5
1BCAF
  8
DANMEN
  6
CONTINUOUS
 10
172.0
 20
201.5
 30
0.0
 11
172.0
 21
170.1
 31
0.0
  0
LINE
  5
1BCB0
  8
DANMEN
  6
PHANTOM
 10
201.5
 20
208.000003
 30
0.0
 11
201.5
 21
170.500003
 31
0.0
  0
LINE
  5
1BCB1
  8
DANMEN
  6
CONTINUOUS
 10
174.0
 20
170.649994
 30
0.0
 11
186.5
 21
170.649994
 31
0.0
  0
LINE
  5
1BCB2
  8
DANMEN
  6
CONTINUOUS
 10
172.0
 20
170.1
 30
0.0
 11
174.0
 21
170.1
 31
0.0
  0
LINE
  5
1BCB6
  8
DANMEN
  6
CONTINUOUS
 10
174.0
 20
170.649994
 30
0.0
 11
174.0
 21
170.1
 31
0.0
  0
ARC
  5
1BCBA
  8
DANMEN
  6
CONTINUOUS
 10
186.5
 20
170.149994
 30
0.0
 40
0.5
 50
359.999981
 51
89.999982
  0
LINE
  5
1BCBB
  8
DANMEN
  6
CONTINUOUS
 10
187.0
 20
170.149994
 30
0.0
 11
187.0
 21
169.5
 31
0.0
  0
ARC
  5
1BCBC
  8
DANMEN
  6
PHANTOM
 10
234.0
 20
170.500003
 30
0.0
 40
32.5
 50
180.0
 51
182.64536
  0
LINE
  5
1BCBD
  8
DANMEN
  6
CONTINUOUS
 10
185.156624
 20
210.1
 30
0.0
 11
188.0
 21
210.1
 31
0.0
  0
LINE
  5
1BCBE
  8
DANMEN
  6
CONTINUOUS
 10
183.850004
 20
203.8
 30
0.0
 11
183.850004
 21
203.2
 31
0.0
  0
LINE
  5
1BCBF
  8
DANMEN
  6
CONTINUOUS
 10
178.150003
 20
203.8
 30
0.0
 11
178.150003
 21
203.2
 31
0.0
  0
LINE
  5
1BCC0
  8
DANMEN
  6
CONTINUOUS
 10
181.850003
 20
203.8
 30
0.0
 11
182.650003
 21
203.0
 31
0.0
  0
LINE
  5
1BCC1
  8
DANMEN
  6
CONTINUOUS
 10
180.150004
 20
203.8
 30
0.0
 11
179.350004
 21
203.0
 31
0.0
  0
LINE
  5
1BCC2
  8
DANMEN
  6
CONTINUOUS
 10
183.999998
 20
204.199997
 30
0.0
 11
183.999998
 21
202.6
 31
0.0
  0
LINE
  5
1BCC3
  8
DANMEN
  6
CONTINUOUS
 10
177.0
 20
204.5
 30
0.0
 11
177.0
 21
202.6
 31
0.0
  0
LINE
  5
1BCC4
  8
DANMEN
  6
CONTINUOUS
 10
185.0
 20
204.5
 30
0.0
 11
185.0
 21
202.0
 31
0.0
  0
LINE
  5
1BCC5
  8
DANMEN
  6
CONTINUOUS
 10
177.8
 20
204.199997
 30
0.0
 11
177.8
 21
202.6
 31
0.0
  0
LINE
  5
1BCC6
  8
DANMEN
  6
CONTINUOUS
 10
172.0
 20
201.5
 30
0.0
 11
184.5
 21
201.5
 31
0.0
  0
LINE
  5
1BCC7
  8
DANMEN
  6
CONTINUOUS
 10
172.0
 20
202.6
 30
0.0
 11
177.0
 21
202.6
 31
0.0
  0
LINE
  5
1BCCB
  8
DANMEN
  6
CONTINUOUS
 10
177.8
 20
202.6
 30
0.0
 11
183.999998
 21
202.6
 31
0.0
  0
LINE
  5
1BCCC
  8
DANMEN
  6
CONTINUOUS
 10
178.350003
 20
203.0
 30
0.0
 11
179.350004
 21
203.0
 31
0.0
  0
ARC
  5
1BCD0
  8
DANMEN
  6
CONTINUOUS
 10
178.350003
 20
203.2
 30
0.0
 40
0.2
 50
180.000019
 51
270.000001
  0
LINE
  5
1BCD4
  8
DANMEN
  6
CONTINUOUS
 10
182.650003
 20
203.0
 30
0.0
 11
183.650004
 21
203.0
 31
0.0
  0
ARC
  5
1BCD7
  8
DANMEN
  6
CONTINUOUS
 10
183.650004
 20
203.2
 30
0.0
 40
0.2
 50
270.000018
 51
0.0
  0
ARC
  5
1BCDA
  8
DANMEN
  6
CONTINUOUS
 10
184.5
 20
202.0
 30
0.0
 40
0.5
 50
270.000018
 51
0.0
  0
LINE
  5
1BCDC
  8
DANMEN
  6
CONTINUOUS
 10
176.270495
 20
205.0
 30
0.0
 11
179.350004
 21
205.0
 31
0.0
  0
LINE
  5
1BCDD
  8
DANMEN
  6
CONTINUOUS
 10
176.800004
 20
205.8
 30
0.0
 11
184.200004
 21
205.8
 31
0.0
  0
ARC
  5
1BCDE
  8
DANMEN
  6
CONTINUOUS
 10
177.5
 20
204.5
 30
0.0
 40
0.5
 50
90.000037
 51
180.000019
  0
LINE
  5
1BCDF
  8
DANMEN
  6
CONTINUOUS
 10
176.2
 20
211.443494
 30
0.0
 11
185.156624
 21
210.1
 31
0.0
  0
LINE
  5
1BCE0
  8
DANMEN
  6
CONTINUOUS
 10
175.85166
 20
209.372251
 30
0.0
 11
184.963121
 21
208.005532
 31
0.0
  0
LINE
  5
1BCE1
  8
DANMEN
  6
CONTINUOUS
 10
172.0
 20
205.0
 30
0.0
 11
177.5
 21
205.0
 31
0.0
  0
LINE
  5
1BCE2
  8
DANMEN
  6
CONTINUOUS
 10
174.025813
 20
212.335584
 30
0.0
 11
176.800004
 21
205.8
 31
0.0
  0
LINE
  5
1BCE3
  8
DANMEN
  6
CONTINUOUS
 10
173.51044
 20
211.502283
 30
0.0
 11
176.270495
 21
205.0
 31
0.0
  0
ARC
  5
1BCE4
  8
DANMEN
  6
CONTINUOUS
 10
176.0
 20
210.361187
 30
0.0
 40
1.0
 50
180.0
 51
261.469234
  0
ARC
  5
1BCEA
  8
DANMEN
  6
CONTINUOUS
 10
173.47351
 20
212.101146
 30
0.0
 40
0.6
 50
23.0
 51
273.528779
  0
ARC
  5
1BCF2
  8
DANMEN
  6
CONTINUOUS
 10
175.5
 20
212.0
 30
0.0
 40
0.5
 50
90.0
 51
180.0
  0
LINE
  5
1BCF4
  8
DANMEN
  6
CONTINUOUS
 10
176.2
 20
212.5
 30
0.0
 11
176.2
 21
211.443494
 31
0.0
  0
LINE
  5
1BCF5
  8
DANMEN
  6
CONTINUOUS
 10
175.0
 20
212.0
 30
0.0
 11
175.0
 21
210.361191
 31
0.0
  0
LINE
  5
1BCF6
  8
DANMEN
  6
CONTINUOUS
 10
175.5
 20
212.5
 30
0.0
 11
176.199997
 21
212.5
 31
0.0
  0
LINE
  5
1BCF7
  8
DANMEN
  6
CONTINUOUS
 10
183.878862
 20
206.390573
 30
0.0
 11
181.335668
 21
207.419423
 31
0.0
  0
LINE
  5
1BCF8
  8
DANMEN
  6
CONTINUOUS
 10
184.895163
 20
206.842413
 30
0.0
 11
180.246848
 21
208.722891
 31
0.0
  0
LINE
  5
1BCF9
  8
DANMEN
  6
CONTINUOUS
 10
180.150004
 20
203.8
 30
0.0
 11
181.850003
 21
203.8
 31
0.0
  0
ARC
  5
1BCFD
  8
DANMEN
  6
CONTINUOUS
 10
180.44585
 20
207.563653
 30
0.0
 40
0.2
 50
311.738105
 51
67.974191
  0
LINE
  5
1BCFE
  8
DANMEN
  6
CONTINUOUS
 10
180.520855
 20
207.749056
 30
0.0
 11
179.946828
 21
207.981279
 31
0.0
  0
LINE
  5
1BD03
  8
DANMEN
  6
CONTINUOUS
 10
181.335668
 20
207.419423
 30
0.0
 11
179.479406
 21
205.763337
 31
0.0
  0
LINE
  5
1BD04
  8
DANMEN
  6
CONTINUOUS
 10
180.578995
 20
207.414414
 30
0.0
 11
179.146542
 21
206.136435
 31
0.0
  0
ARC
  5
1BD06
  8
DANMEN
  6
CONTINUOUS
 10
179.312974
 20
205.949886
 30
0.0
 40
0.25
 50
131.738105
 51
311.738105
  0
ARC
  5
1BD08
  8
DANMEN
  6
CONTINUOUS
 10
180.096838
 20
208.352085
 30
0.0
 40
0.4
 50
67.974191
 51
247.974191
  0
LINE
  5
1BD09
  8
DANMEN
  6
CONTINUOUS
 10
178.350003
 20
204.0
 30
0.0
 11
179.350004
 21
204.0
 31
0.0
  0
ARC
  5
1BD0B
  8
DANMEN
  6
CONTINUOUS
 10
178.350003
 20
203.8
 30
0.0
 40
0.2
 50
89.999982
 51
180.000019
  0
LINE
  5
1BD0C
  8
DANMEN
  6
CONTINUOUS
 10
179.350004
 20
205.0
 30
0.0
 11
179.350004
 21
204.0
 31
0.0
  0
ARC
  5
1BD12
  8
DANMEN
  6
CONTINUOUS
 10
178.699997
 20
204.5
 30
0.0
 40
0.5
 50
359.999981
 51
90.000037
  0
LINE
  5
1BD13
  8
DANMEN
  6
CONTINUOUS
 10
177.8
 20
204.199997
 30
0.0
 11
179.199997
 21
204.199997
 31
0.0
  0
LINE
  5
1BD14
  8
DANMEN
  6
CONTINUOUS
 10
179.200001
 20
204.499999
 30
0.0
 11
179.200003
 21
204.199996
 31
0.0
  0
LINE
  5
1BD15
  8
DANMEN
  6
CONTINUOUS
 10
177.5
 20
205.0
 30
0.0
 11
178.699997
 21
205.0
 31
0.0
  0
ARC
  5
1BD18
  8
DANMEN
  6
CONTINUOUS
 10
184.820158
 20
206.65701
 30
0.0
 40
0.2
 50
25.943161
 51
67.974191
  0
ARC
  5
1BD1B
  8
DANMEN
  6
CONTINUOUS
 10
184.064265
 20
206.315568
 30
0.0
 40
0.2
 50
47.258366
 51
157.974191
  0
ARC
  5
1BD1D
  8
DANMEN
  6
CONTINUOUS
 10
183.650004
 20
203.8
 30
0.0
 40
0.2
 50
0.0
 51
89.999982
  0
LINE
  5
1BD1E
  8
DANMEN
  6
CONTINUOUS
 10
182.650003
 20
204.0
 30
0.0
 11
183.650004
 21
204.0
 31
0.0
  0
LINE
  5
1BD1F
  8
DANMEN
  6
CONTINUOUS
 10
182.650003
 20
205.0
 30
0.0
 11
182.650003
 21
204.0
 31
0.0
  0
LINE
  5
1BD21
  8
DANMEN
  6
CONTINUOUS
 10
182.650003
 20
205.0
 30
0.0
 11
185.000004
 21
205.0
 31
0.0
  0
LINE
  5
1BD23
  8
DANMEN
  6
CONTINUOUS
 10
185.000004
 20
206.744506
 30
0.0
 11
185.000004
 21
205.0
 31
0.0
  0
LINE
  5
1BD26
  8
DANMEN
  6
CONTINUOUS
 10
184.200004
 20
206.462453
 30
0.0
 11
184.200004
 21
205.8
 31
0.0
  0
ARC
  5
1BD29
  8
DANMEN
  6
CONTINUOUS
 10
183.300003
 20
204.5
 30
0.0
 40
0.5
 50
90.0
 51
179.999149
  0
ARC
  5
1BD2D
  8
DANMEN
  6
CONTINUOUS
 10
184.5
 20
204.5
 30
0.0
 40
0.5
 50
359.999981
 51
90.000037
  0
LINE
  5
1BD2E
  8
DANMEN
  6
CONTINUOUS
 10
183.300003
 20
205.0
 30
0.0
 11
184.5
 21
205.0
 31
0.0
  0
LINE
  5
1BD2F
  8
DANMEN
  6
CONTINUOUS
 10
182.800003
 20
204.199997
 30
0.0
 11
184.0
 21
204.199997
 31
0.0
  0
LINE
  5
1BD30
  8
DANMEN
  6
CONTINUOUS
 10
182.800003
 20
204.500017
 30
0.0
 11
182.799998
 21
204.199998
 31
0.0
  0
ARC
  5
1BD32
  8
DANMEN
  6
CONTINUOUS
 10
185.037291
 20
208.5
 30
0.0
 40
0.5
 50
261.469234
 51
270.0
  0
LINE
  5
1BD37
  8
DANMEN
  6
CONTINUOUS
 10
96.300002
 20
216.149997
 30
0.0
 11
108.55
 21
216.149997
 31
0.0
  0
LINE
  5
1BD38
  8
DANMEN
  6
CONTINUOUS
 10
97.8
 20
223.349997
 30
0.0
 11
108.55
 21
223.349997
 31
0.0
  0
LINE
  5
1BD39
  8
DANMEN
  6
CONTINUOUS
 10
98.3
 20
224.999997
 30
0.0
 11
109.7
 21
224.999997
 31
0.0
  0
LINE
  5
1BD3A
  8
DANMEN
  6
CONTINUOUS
 10
82.65
 20
248.0
 30
0.0
 11
110.350006
 21
248.0
 31
0.0
  0
LINE
  5
1BD3B
  8
DANMEN
  6
CONTINUOUS
 10
99.5
 20
226.65
 30
0.0
 11
110.350006
 21
226.65
 31
0.0
  0
LINE
  5
1BD3C
  8
DANMEN
  6
CONTINUOUS
 10
99.0
 20
225.0
 30
0.0
 11
111.5
 21
225.0
 31
0.0
  0
LINE
  5
1BD3D
  8
DANMEN
  6
CONTINUOUS
 10
96.3
 20
249.65
 30
0.0
 11
110.350006
 21
249.65
 31
0.0
  0
LINE
  5
1BD3E
  8
DANMEN
  6
CONTINUOUS
 10
82.65
 20
248.0
 30
0.0
 11
82.65
 21
228.0
 31
0.0
  0
LINE
  5
1BD3F
  8
DANMEN
  6
CONTINUOUS
 10
81.0
 20
248.0
 30
0.0
 11
81.0
 21
233.0
 31
0.0
  0
LINE
  5
1BD40
  8
DANMEN
  6
DASHED
 10
85.0
 20
225.0
 30
0.0
 11
97.0
 21
225.0
 31
0.0
  0
LINE
  5
1BD41
  8
DANMEN
  6
DASHED
 10
81.5
 20
223.800003
 30
0.0
 11
100.5
 21
223.800003
 31
0.0
  0
LINE
  5
1BD42
  8
DANMEN
  6
CONTINUOUS
 10
82.65
 20
216.649997
 30
0.0
 11
87.700002
 21
216.649997
 31
0.0
  0
LINE
  5
1BD43
  8
DANMEN
  6
CONTINUOUS
 10
73.600003
 20
228.782873
 30
0.0
 11
74.582437
 21
225.6
 31
0.0
  0
LINE
  5
1BD44
  8
DANMEN
  6
CONTINUOUS
 10
73.018703
 20
228.60985
 30
0.0
 11
74.146181
 21
225.115559
 31
0.0
  0
LINE
  5
1BD45
  8
DANMEN
  6
CONTINUOUS
 10
77.000003
 20
227.5
 30
0.0
 11
77.000003
 21
226.5
 31
0.0
  0
LINE
  5
1BD46
  8
DANMEN
  6
CONTINUOUS
 10
78.000003
 20
227.5
 30
0.0
 11
78.000003
 21
226.5
 31
0.0
  0
LINE
  5
1BD47
  8
DANMEN
  6
CONTINUOUS
 10
76.000003
 20
227.5
 30
0.0
 11
76.000003
 21
225.0
 31
0.0
  0
LINE
  5
1BD48
  8
DANMEN
  6
CONTINUOUS
 10
75.200003
 20
232.7
 30
0.0
 11
75.200003
 21
225.6
 31
0.0
  0
LINE
  5
1BD49
  8
DANMEN
  6
DASHED
 10
83.5
 20
225.0
 30
0.0
 11
83.5
 21
227.999972
 31
0.0
  0
LINE
  5
1BD4A
  8
DANMEN
  6
DASHED
 10
84.5
 20
229.600003
 30
0.0
 11
84.5
 21
225.5
 31
0.0
  0
LINE
  5
1BD4B
  8
DANMEN
  6
CONTINUOUS
 10
85.0
 20
224.349997
 30
0.0
 11
85.0
 21
235.5
 31
0.0
  0
LINE
  5
1BD4C
  8
DANMEN
  6
CONTINUOUS
 10
83.5
 20
225.000001
 30
0.0
 11
83.5
 21
235.0
 31
0.0
  0
LINE
  5
1BD4D
  8
DANMEN
  6
CONTINUOUS
 10
73.0
 20
232.5
 30
0.0
 11
73.0
 21
221.5
 31
0.0
  0
LINE
  5
1BD4E
  8
DANMEN
  6
CONTINUOUS
 10
71.05
 20
232.5
 30
0.0
 11
71.05
 21
222.95
 31
0.0
  0
LINE
  5
1BD4F
  8
DANMEN
  6
CONTINUOUS
 10
83.5
 20
228.0
 30
0.0
 11
83.5
 21
225.5
 31
0.0
  0
ARC
  5
1BD50
  8
DANMEN
  6
CONTINUOUS
 10
76.5
 20
226.699997
 30
0.0
 40
0.5
 50
89.999999
 51
179.999981
  0
LINE
  5
1BD51
  8
DANMEN
  6
CONTINUOUS
 10
76.800003
 20
226.0
 30
0.0
 11
76.800003
 21
227.199997
 31
0.0
  0
LINE
  5
1BD52
  8
DANMEN
  6
CONTINUOUS
 10
81.000003
 20
226.0
 30
0.0
 11
81.000003
 21
232.2
 31
0.0
  0
LINE
  5
1BD53
  8
DANMEN
  6
CONTINUOUS
 10
83.0
 20
225.0
 30
0.0
 11
76.5
 21
225.0
 31
0.0
  0
LINE
  5
1BD54
  8
DANMEN
  6
CONTINUOUS
 10
76.800003
 20
226.0
 30
0.0
 11
81.0
 21
226.0
 31
0.0
  0
LINE
  5
1BD55
  8
DANMEN
  6
CONTINUOUS
 10
73.000003
 20
225.0
 30
0.0
 11
81.000003
 21
225.0
 31
0.0
  0
ARC
  5
1BD56
  8
DANMEN
  6
CONTINUOUS
 10
72.5
 20
221.5
 30
0.0
 40
0.5
 50
270.0
 51
0.0
  0
LINE
  5
1BD57
  8
DANMEN
  6
CONTINUOUS
 10
72.5
 20
221.0
 30
0.0
 11
70.800003
 21
221.0
 31
0.0
  0
LINE
  5
1BD5A
  8
DANMEN
  6
CONTINUOUS
 10
74.582437
 20
225.6
 30
0.0
 11
75.200003
 21
225.6
 31
0.0
  0
LINE
  5
1BD5B
  8
DANMEN
  6
CONTINUOUS
 10
74.327481
 20
225.0
 30
0.0
 11
76.000003
 21
225.0
 31
0.0
  0
ARC
  5
1BD5E
  8
DANMEN
  6
CONTINUOUS
 10
74.327481
 20
225.2
 30
0.0
 40
0.2
 50
204.97391
 51
270.0
  0
ARC
  5
1BD62
  8
DANMEN
  6
CONTINUOUS
 10
77.200003
 20
226.5
 30
0.0
 40
0.2
 50
180.000019
 51
270.000001
  0
ARC
  5
1BD64
  8
DANMEN
  6
CONTINUOUS
 10
77.800003
 20
226.5
 30
0.0
 40
0.2
 50
270.000018
 51
0.0
  0
LINE
  5
1BD66
  8
DANMEN
  6
CONTINUOUS
 10
77.200003
 20
226.3
 30
0.0
 11
77.800003
 21
226.3
 31
0.0
  0
ARC
  5
1BD67
  8
DANMEN
  6
CONTINUOUS
 10
76.5
 20
225.5
 30
0.0
 40
0.5
 50
179.999981
 51
270.000018
  0
LINE
  5
1BD68
  8
DANMEN
  6
CONTINUOUS
 10
76.0
 20
225.5
 30
0.0
 11
76.0
 21
226.699997
 31
0.0
  0
LINE
  5
1BD6B
  8
DANMEN
  6
CONTINUOUS
 10
82.65
 20
223.349997
 30
0.0
 11
82.65
 21
216.649997
 31
0.0
  0
LINE
  5
1BD6E
  8
DANMEN
  6
DASHED
 10
83.5
 20
225.0
 30
0.0
 11
81.0
 21
225.0
 31
0.0
  0
LINE
  5
1BD6F
  8
DANMEN
  6
CONTINUOUS
 10
81.5
 20
225.0
 30
0.0
 11
83.5
 21
225.0
 31
0.0
  0
LINE
  5
1BD70
  8
DANMEN
  6
CONTINUOUS
 10
82.65
 20
223.349997
 30
0.0
 11
84.0
 21
223.349997
 31
0.0
  0
ARC
  5
1BD71
  8
DANMEN
  6
CONTINUOUS
 10
83.0
 20
225.5
 30
0.0
 40
0.5
 50
270.0
 51
0.0
  0
ARC
  5
1BD72
  8
DANMEN
  6
DASHED
 10
81.5
 20
224.300003
 30
0.0
 40
0.5
 50
180.0
 51
269.999982
  0
LINE
  5
1BD73
  8
DANMEN
  6
DASHED
 10
81.0
 20
225.0
 30
0.0
 11
81.0
 21
224.300003
 31
0.0
  0
ARC
  5
1BD78
  8
DANMEN
  6
CONTINUOUS
 10
81.5
 20
224.5
 30
0.0
 40
0.5
 50
90.0
 51
180.0
  0
ARC
  5
1BD79
  8
DANMEN
  6
DASHED
 10
85.0
 20
225.5
 30
0.0
 40
0.5
 50
180.0
 51
270.0
  0
ARC
  5
1BD7D
  8
DANMEN
  6
CONTINUOUS
 10
84.0
 20
224.349997
 30
0.0
 40
1.0
 50
270.0
 51
0.0
  0
LINE
  5
1BD7F
  8
DANMEN
  6
CONTINUOUS
 10
76.800003
 20
232.2
 30
0.0
 11
81.0
 21
232.2
 31
0.0
  0
LINE
  5
1BD80
  8
DANMEN
  6
CONTINUOUS
 10
76.5
 20
233.0
 30
0.0
 11
81.0
 21
233.0
 31
0.0
  0
LINE
  5
1BD81
  8
DANMEN
  6
CONTINUOUS
 10
74.146181
 20
233.184441
 30
0.0
 11
73.018703
 21
229.69015
 31
0.0
  0
LINE
  5
1BD82
  8
DANMEN
  6
CONTINUOUS
 10
76.000003
 20
233.3
 30
0.0
 11
76.000003
 21
230.8
 31
0.0
  0
ARC
  5
1BD83
  8
DANMEN
  6
CONTINUOUS
 10
72.5
 20
232.5
 30
0.0
 40
0.5
 50
0.0
 51
90.0
  0
ARC
  5
1BD84
  8
DANMEN
  6
CONTINUOUS
 10
71.55
 20
232.5
 30
0.0
 40
0.5
 50
90.0
 51
180.0
  0
ARC
  5
1BD85
  8
DANMEN
  6
CONTINUOUS
 10
76.5
 20
232.5
 30
0.0
 40
0.5
 50
89.999999
 51
179.999981
  0
LINE
  5
1BD86
  8
DANMEN
  6
CONTINUOUS
 10
74.582437
 20
232.7
 30
0.0
 11
75.200003
 21
232.7
 31
0.0
  0
LINE
  5
1BD8A
  8
DANMEN
  6
CONTINUOUS
 10
73.600003
 20
229.517126
 30
0.0
 11
73.600003
 21
228.782873
 31
0.0
  0
LINE
  5
1BD8B
  8
DANMEN
  6
CONTINUOUS
 10
74.582437
 20
232.7
 30
0.0
 11
73.600003
 21
229.517126
 31
0.0
  0
ARC
  5
1BD8D
  8
DANMEN
  6
CONTINUOUS
 10
73.200003
 20
228.694291
 30
0.0
 40
0.2
 50
180.0
 51
204.97391
  0
ARC
  5
1BD8F
  8
DANMEN
  6
CONTINUOUS
 10
73.200003
 20
229.605709
 30
0.0
 40
0.2
 50
155.02609
 51
180.0
  0
LINE
  5
1BD90
  8
DANMEN
  6
CONTINUOUS
 10
73.000003
 20
229.605709
 30
0.0
 11
73.000003
 21
228.694291
 31
0.0
  0
LINE
  5
1BD97
  8
DANMEN
  6
CONTINUOUS
 10
77.200003
 20
230.0
 30
0.0
 11
77.200003
 21
228.3
 31
0.0
  0
LINE
  5
1BD9C
  8
DANMEN
  6
CONTINUOUS
 10
76.000003
 20
227.5
 30
0.0
 11
77.000003
 21
227.5
 31
0.0
  0
LINE
  5
1BD9E
  8
DANMEN
  6
CONTINUOUS
 10
76.000003
 20
230.8
 30
0.0
 11
77.000003
 21
230.8
 31
0.0
  0
LINE
  5
1BD9F
  8
DANMEN
  6
CONTINUOUS
 10
77.200003
 20
228.3
 30
0.0
 11
78.000003
 21
227.5
 31
0.0
  0
LINE
  5
1BDA0
  8
DANMEN
  6
CONTINUOUS
 10
78.000003
 20
230.8
 30
0.0
 11
77.200003
 21
230.0
 31
0.0
  0
ARC
  5
1BDA4
  8
DANMEN
  6
CONTINUOUS
 10
77.200003
 20
231.8
 30
0.0
 40
0.2
 50
89.999982
 51
180.000019
  0
ARC
  5
1BDA6
  8
DANMEN
  6
CONTINUOUS
 10
77.800003
 20
231.8
 30
0.0
 40
0.2
 50
0.0
 51
89.999982
  0
LINE
  5
1BDA8
  8
DANMEN
  6
CONTINUOUS
 10
77.000003
 20
231.8
 30
0.0
 11
77.000003
 21
230.8
 31
0.0
  0
LINE
  5
1BDA9
  8
DANMEN
  6
CONTINUOUS
 10
77.200003
 20
232.0
 30
0.0
 11
77.800003
 21
232.0
 31
0.0
  0
LINE
  5
1BDAA
  8
DANMEN
  6
CONTINUOUS
 10
78.000003
 20
231.8
 30
0.0
 11
78.000003
 21
230.8
 31
0.0
  0
LINE
  5
1BDAC
  8
DANMEN
  6
CONTINUOUS
 10
76.5
 20
230.800003
 30
0.0
 11
76.800003
 21
230.800003
 31
0.0
  0
ARC
  5
1BDAD
  8
DANMEN
  6
CONTINUOUS
 10
76.5
 20
231.300003
 30
0.0
 40
0.5
 50
179.999981
 51
270.000018
  0
LINE
  5
1BDAE
  8
DANMEN
  6
CONTINUOUS
 10
76.800003
 20
230.800003
 30
0.0
 11
76.800003
 21
232.2
 31
0.0
  0
LINE
  5
1BDAF
  8
DANMEN
  6
CONTINUOUS
 10
76.0
 20
231.300003
 30
0.0
 11
76.0
 21
232.5
 31
0.0
  0
LINE
  5
1BDB0
  8
DANMEN
  6
CONTINUOUS
 10
76.5
 20
227.199997
 30
0.0
 11
76.800003
 21
227.199997
 31
0.0
  0
LINE
  5
1BDB1
  8
DANMEN
  6
CONTINUOUS
 10
74.327481
 20
233.3
 30
0.0
 11
76.000003
 21
233.3
 31
0.0
  0
ARC
  5
1BDB3
  8
DANMEN
  6
CONTINUOUS
 10
74.327481
 20
233.1
 30
0.0
 40
0.2
 50
90.0
 51
155.02609
  0
LINE
  5
1BDB4
  8
DANMEN
  6
CONTINUOUS
 10
72.5
 20
233.0
 30
0.0
 11
71.55
 21
233.0
 31
0.0
  0
ARC
  5
1BDB8
  8
DANMEN
  6
DASHED
 10
83.299999
 20
228.499972
 30
0.0
 40
0.3
 50
157.011468
 51
235.656024
  0
LINE
  5
1BDB9
  8
DANMEN
  6
DASHED
 10
83.023824
 20
228.617136
 30
0.0
 11
84.423825
 21
231.917167
 31
0.0
  0
LINE
  5
1BDBA
  8
DANMEN
  6
CONTINUOUS
 10
82.65
 20
228.0
 30
0.0
 11
83.5
 21
228.0
 31
0.0
  0
LINE
  5
1BDC0
  8
DANMEN
  6
DASHED
 10
83.499991
 20
227.999972
 30
0.0
 11
83.130743
 21
228.252271
 31
0.0
  0
ARC
  5
1BDC1
  8
DANMEN
  6
DASHED
 10
84.7
 20
231.800003
 30
0.0
 40
0.3
 50
347.000479
 51
157.011468
  0
LINE
  5
1BDC2
  8
DANMEN
  6
DASHED
 10
84.5
 20
229.600003
 30
0.0
 11
84.992312
 21
231.73252
 31
0.0
  0
ARC
  5
1BDC7
  8
DANMEN
  6
CONTINUOUS
 10
84.0
 20
235.0
 30
0.0
 40
0.5
 50
90.0
 51
180.0
  0
LINE
  5
1BDC8
  8
DANMEN
  6
CONTINUOUS
 10
84.0
 20
235.5
 30
0.0
 11
85.0
 21
235.5
 31
0.0
  0
LINE
  5
1BDC9
  8
DANMEN
  6
DASHED
 10
97.5
 20
229.600003
 30
0.0
 11
97.5
 21
225.5
 31
0.0
  0
LINE
  5
1BDCA
  8
DANMEN
  6
DASHED
 10
98.5
 20
225.0
 30
0.0
 11
98.5
 21
227.999972
 31
0.0
  0
LINE
  5
1BDCB
  8
DANMEN
  6
CONTINUOUS
 10
96.8
 20
224.349997
 30
0.0
 11
96.8
 21
235.500003
 31
0.0
  0
LINE
  5
1BDCC
  8
DANMEN
  6
CONTINUOUS
 10
98.3
 20
224.999997
 30
0.0
 11
98.3
 21
235.000003
 31
0.0
  0
LINE
  5
1BDCD
  8
DANMEN
  6
CONTINUOUS
 10
98.5
 20
228.0
 30
0.0
 11
98.5
 21
225.5
 31
0.0
  0
LINE
  5
1BDCE
  8
DANMEN
  6
CONTINUOUS
 10
99.206061
 20
227.642044
 30
0.0
 11
99.5
 21
226.65
 31
0.0
  0
ARC
  5
1BDCF
  8
DANMEN
  6
CONTINUOUS
 10
93.300002
 20
218.430304
 30
0.0
 40
2.0
 50
0.000026
 51
51.706549
  0
ARC
  5
1BDD0
  8
DANMEN
  6
CONTINUOUS
 10
96.300002
 20
217.149997
 30
0.0
 40
1.0
 50
180.0
 51
270.0
  0
LINE
  5
1BDD1
  8
DANMEN
  6
CONTINUOUS
 10
92.800003
 20
216.099997
 30
0.0
 11
91.200003
 21
216.099996
 31
0.0
  0
LINE
  5
1BDD2
  8
DANMEN
  6
CONTINUOUS
 10
90.900001
 20
219.699996
 30
0.0
 11
90.900001
 21
219.436928
 31
0.0
  0
ARC
  5
1BDD3
  8
DANMEN
  6
CONTINUOUS
 10
91.200002
 20
218.346057
 30
0.0
 40
1.0
 50
114.624344
 51
180.000026
  0
ARC
  5
1BDD4
  8
DANMEN
  6
CONTINUOUS
 10
90.700001
 20
219.436928
 30
0.0
 40
0.2
 50
294.624344
 51
0.000026
  0
ARC
  5
1BDD5
  8
DANMEN
  6
CONTINUOUS
 10
90.700002
 20
218.430302
 30
0.0
 40
2.0
 50
128.293503
 51
180.000026
  0
LINE
  5
1BDD6
  8
DANMEN
  6
CONTINUOUS
 10
88.700002
 20
218.430301
 30
0.0
 11
88.700002
 21
217.649995
 31
0.0
  0
LINE
  5
1BDD7
  8
DANMEN
  6
CONTINUOUS
 10
90.200002
 20
218.346057
 30
0.0
 11
90.200002
 21
217.099996
 31
0.0
  0
ARC
  5
1BDD8
  8
DANMEN
  6
CONTINUOUS
 10
91.200002
 20
217.099996
 30
0.0
 40
1.0
 50
180.000026
 51
270.000026
  0
LINE
  5
1BDD9
  8
DANMEN
  6
CONTINUOUS
 10
90.600001
 20
219.999996
 30
0.0
 11
89.460621
 21
219.999996
 31
0.0
  0
ARC
  5
1BDDA
  8
DANMEN
  6
CONTINUOUS
 10
90.600001
 20
219.699996
 30
0.0
 40
0.3
 50
0.000026
 51
90.000026
  0
ARC
  5
1BDDC
  8
DANMEN
  6
CONTINUOUS
 10
87.700002
 20
217.649997
 30
0.0
 40
1.0
 50
270.0
 51
0.0
  0
ARC
  5
1BDDE
  8
DANMEN
  6
CONTINUOUS
 10
93.300001
 20
219.436929
 30
0.0
 40
0.2
 50
180.000026
 51
245.375708
  0
ARC
  5
1BDDF
  8
DANMEN
  6
CONTINUOUS
 10
92.800002
 20
218.346058
 30
0.0
 40
1.0
 50
0.000026
 51
65.375708
  0
LINE
  5
1BDE0
  8
DANMEN
  6
CONTINUOUS
 10
93.100001
 20
219.699997
 30
0.0
 11
93.100001
 21
219.436929
 31
0.0
  0
ARC
  5
1BDE1
  8
DANMEN
  6
CONTINUOUS
 10
92.800002
 20
217.099997
 30
0.0
 40
1.0
 50
270.000026
 51
0.000026
  0
LINE
  5
1BDE2
  8
DANMEN
  6
CONTINUOUS
 10
95.300002
 20
218.430304
 30
0.0
 11
95.300002
 21
217.149998
 31
0.0
  0
LINE
  5
1BDE3
  8
DANMEN
  6
CONTINUOUS
 10
93.800002
 20
218.346058
 30
0.0
 11
93.800002
 21
217.099998
 31
0.0
  0
ARC
  5
1BDE4
  8
DANMEN
  6
CONTINUOUS
 10
93.400001
 20
219.699997
 30
0.0
 40
0.3
 50
90.000026
 51
180.000026
  0
LINE
  5
1BDE7
  8
DANMEN
  6
CONTINUOUS
 10
93.400001
 20
219.999996
 30
0.0
 11
94.53938
 21
219.999996
 31
0.0
  0
LINE
  5
1BDEC
  8
DANMEN
  6
DASHED
 10
98.5
 20
225.0
 30
0.0
 11
101.0
 21
225.0
 31
0.0
  0
LINE
  5
1BDED
  8
DANMEN
  6
DASHED
 10
98.5
 20
225.0
 30
0.0
 11
101.0
 21
225.0
 31
0.0
  0
ARC
  5
1BDEE
  8
DANMEN
  6
DASHED
 10
97.0
 20
225.5
 30
0.0
 40
0.5
 50
270.0
 51
0.0
  0
ARC
  5
1BDF2
  8
DANMEN
  6
CONTINUOUS
 10
97.8
 20
224.349997
 30
0.0
 40
1.0
 50
180.0
 51
270.0
  0
ARC
  5
1BDF4
  8
DANMEN
  6
CONTINUOUS
 10
99.0
 20
225.5
 30
0.0
 40
0.5
 50
180.0
 51
270.0
  0
ARC
  5
1BDF6
  8
DANMEN
  6
DASHED
 10
100.5
 20
224.300003
 30
0.0
 40
0.5
 50
270.000018
 51
0.0
  0
LINE
  5
1BDF8
  8
DANMEN
  6
DASHED
 10
101.0
 20
225.0
 30
0.0
 11
101.0
 21
224.300003
 31
0.0
  0
LINE
  5
1BDFD
  8
DANMEN
  6
DASHED
 10
97.5
 20
229.600003
 30
0.0
 11
97.007688
 21
231.73252
 31
0.0
  0
LINE
  5
1BDFE
  8
DANMEN
  6
DASHED
 10
98.976176
 20
228.617136
 30
0.0
 11
97.576175
 21
231.917167
 31
0.0
  0
ARC
  5
1BDFF
  8
DANMEN
  6
DASHED
 10
97.3
 20
231.800003
 30
0.0
 40
0.3
 50
22.988532
 51
192.999521
  0
LINE
  5
1BE00
  8
DANMEN
  6
DASHED
 10
98.500009
 20
227.999972
 30
0.0
 11
98.869257
 21
228.252271
 31
0.0
  0
ARC
  5
1BE01
  8
DANMEN
  6
DASHED
 10
98.700001
 20
228.499972
 30
0.0
 40
0.3
 50
304.343976
 51
22.988532
  0
LINE
  5
1BE04
  8
DANMEN
  6
CONTINUOUS
 10
98.726662
 20
228.0
 30
0.0
 11
98.5
 21
228.0
 31
0.0
  0
ARC
  5
1BE05
  8
DANMEN
  6
CONTINUOUS
 10
98.726662
 20
227.5
 30
0.0
 40
0.5
 50
16.504361
 51
90.0
  0
ARC
  5
1BE09
  8
DANMEN
  6
CONTINUOUS
 10
97.8
 20
235.000003
 30
0.0
 40
0.5
 50
0.0
 51
90.0
  0
LINE
  5
1BE0A
  8
DANMEN
  6
CONTINUOUS
 10
96.8
 20
235.500003
 30
0.0
 11
97.8
 21
235.500003
 31
0.0
  0
LINE
  5
1BE0B
  8
DANMEN
  6
CONTINUOUS
 10
79.65
 20
249.65
 30
0.0
 11
87.7
 21
249.65
 31
0.0
  0
LINE
  5
1BE0C
  8
DANMEN
  6
CONTINUOUS
 10
78.0
 20
251.950012
 30
0.0
 11
78.0
 21
248.8
 31
0.0
  0
LINE
  5
1BE0D
  8
DANMEN
  6
CONTINUOUS
 10
79.65
 20
252.600012
 30
0.0
 11
79.65
 21
249.65
 31
0.0
  0
LINE
  5
1BE0E
  8
DANMEN
  6
CONTINUOUS
 10
77.0
 20
248.0
 30
0.0
 11
81.0
 21
248.0
 31
0.0
  0
LINE
  5
1BE12
  8
DANMEN
  6
CONTINUOUS
 10
76.5
 20
248.8
 30
0.0
 11
78.0
 21
248.8
 31
0.0
  0
LINE
  5
1BE13
  8
DANMEN
  6
CONTINUOUS
 10
76.5
 20
248.8
 30
0.0
 11
76.5
 21
248.5
 31
0.0
  0
ARC
  5
1BE14
  8
DANMEN
  6
CONTINUOUS
 10
77.0
 20
248.5
 30
0.0
 40
0.5
 50
180.000019
 51
270.000001
  0
ARC
  5
1BE15
  8
DANMEN
  6
CONTINUOUS
 10
78.65
 20
252.600012
 30
0.0
 40
1.0
 50
0.0
 51
90.0
  0
ARC
  5
1BE16
  8
DANMEN
  6
CONTINUOUS
 10
91.2
 20
250.7
 30
0.0
 40
1.0
 50
180.0
 51
270.0
  0
ARC
  5
1BE17
  8
DANMEN
  6
CONTINUOUS
 10
92.8
 20
250.7
 30
0.0
 40
1.0
 50
270.0
 51
0.0
  0
ARC
  5
1BE18
  8
DANMEN
  6
CONTINUOUS
 10
96.3
 20
250.65
 30
0.0
 40
1.0
 50
180.0
 51
270.0
  0
ARC
  5
1BE19
  8
DANMEN
  6
CONTINUOUS
 10
87.7
 20
250.65
 30
0.0
 40
1.0
 50
270.0
 51
0.0
  0
LINE
  5
1BE1A
  8
DANMEN
  6
CONTINUOUS
 10
92.8
 20
249.7
 30
0.0
 11
91.2
 21
249.7
 31
0.0
  0
ARC
  5
1BE1B
  8
DANMEN
  6
CONTINUOUS
 10
93.3
 20
252.030306
 30
0.0
 40
2.0
 50
0.0
 51
51.706523
  0
LINE
  5
1BE1C
  8
DANMEN
  6
CONTINUOUS
 10
90.6
 20
253.600006
 30
0.0
 11
89.460628
 21
253.600006
 31
0.0
  0
ARC
  5
1BE1D
  8
DANMEN
  6
CONTINUOUS
 10
90.6
 20
253.3
 30
0.0
 40
0.3
 50
0.0
 51
90.0
  0
LINE
  5
1BE1E
  8
DANMEN
  6
CONTINUOUS
 10
90.2
 20
251.946061
 30
0.0
 11
90.2
 21
250.7
 31
0.0
  0
ARC
  5
1BE1F
  8
DANMEN
  6
CONTINUOUS
 10
90.7
 20
253.036932
 30
0.0
 40
0.2
 50
294.624318
 51
0.0
  0
ARC
  5
1BE20
  8
DANMEN
  6
CONTINUOUS
 10
91.2
 20
251.946061
 30
0.0
 40
1.0
 50
114.624318
 51
180.0
  0
LINE
  5
1BE21
  8
DANMEN
  6
CONTINUOUS
 10
90.9
 20
253.036932
 30
0.0
 11
90.9
 21
253.3
 31
0.0
  0
LINE
  5
1BE22
  8
DANMEN
  6
CONTINUOUS
 10
88.7
 20
252.030306
 30
0.0
 11
88.7
 21
250.65
 31
0.0
  0
ARC
  5
1BE23
  8
DANMEN
  6
CONTINUOUS
 10
90.7
 20
252.030306
 30
0.0
 40
2.0
 50
128.293195
 51
180.0
  0
ARC
  5
1BE24
  8
DANMEN
  6
CONTINUOUS
 10
93.4
 20
253.3
 30
0.0
 40
0.3
 50
90.0
 51
180.0
  0
LINE
  5
1BE25
  8
DANMEN
  6
CONTINUOUS
 10
94.539379
 20
253.6
 30
0.0
 11
93.4
 21
253.6
 31
0.0
  0
LINE
  5
1BE26
  8
DANMEN
  6
CONTINUOUS
 10
93.8
 20
251.946061
 30
0.0
 11
93.8
 21
250.7
 31
0.0
  0
LINE
  5
1BE27
  8
DANMEN
  6
CONTINUOUS
 10
95.3
 20
252.030306
 30
0.0
 11
95.3
 21
250.65
 31
0.0
  0
LINE
  5
1BE28
  8
DANMEN
  6
CONTINUOUS
 10
93.1
 20
253.036932
 30
0.0
 11
93.1
 21
253.3
 31
0.0
  0
ARC
  5
1BE29
  8
DANMEN
  6
CONTINUOUS
 10
92.8
 20
251.946061
 30
0.0
 40
1.0
 50
0.0
 51
65.375682
  0
ARC
  5
1BE2A
  8
DANMEN
  6
CONTINUOUS
 10
93.3
 20
253.036932
 30
0.0
 40
0.2
 50
180.0
 51
245.375682
  0
LINE
  5
1BE2B
  8
DANMEN
  6
CONTINUOUS
 10
112.0
 20
259.5
 30
0.0
 11
112.0
 21
225.5
 31
0.0
  0
LINE
  5
1BE2C
  8
DANMEN
  6
CONTINUOUS
 10
110.350006
 20
248.0
 30
0.0
 11
110.350006
 21
226.65
 31
0.0
  0
ARC
  5
1BE2D
  8
DANMEN
  6
CONTINUOUS
 10
111.5
 20
225.5
 30
0.0
 40
0.5
 50
270.000018
 51
0.0
  0
LINE
  5
1BE2E
  8
DANMEN
  6
CONTINUOUS
 10
108.55
 20
216.149997
 30
0.0
 11
108.55
 21
223.349997
 31
0.0
  0
ARC
  5
1BE31
  8
DANMEN
  6
CONTINUOUS
 10
110.623494
 20
224.439422
 30
0.0
 40
0.5
 50
1.431408
 51
84.0
  0
LINE
  5
1BE37
  8
DANMEN
  6
CONTINUOUS
 10
110.11785
 20
224.995322
 30
0.0
 11
110.675759
 21
224.936683
 31
0.0
  0
ARC
  5
1BE3A
  8
DANMEN
  6
CONTINUOUS
 10
109.7
 20
224.499997
 30
0.0
 40
0.5
 50
0.0
 51
90.0
  0
LINE
  5
1BE3C
  8
DANMEN
  6
CONTINUOUS
 10
110.350006
 20
258.350006
 30
0.0
 11
110.350006
 21
249.65
 31
0.0
  0
ARC
  5
1BE3D
  8
DANMEN
  6
CONTINUOUS
 10
111.5
 20
259.5
 30
0.0
 40
0.5
 50
0.0
 51
89.999982
  0
LINE
  5
1BE3E
  8
DANMEN
  6
CONTINUOUS
 10
106.5
 20
260.0
 30
0.0
 11
111.5
 21
260.0
 31
0.0
  0
LINE
  5
1BE3F
  8
DANMEN
  6
CONTINUOUS
 10
106.5
 20
258.350006
 30
0.0
 11
110.350006
 21
258.350006
 31
0.0
  0
LINE
  5
1BE40
  8
DANMEN
  6
CONTINUOUS
 10
106.0
 20
259.5
 30
0.0
 11
106.0
 21
258.850006
 31
0.0
  0
ARC
  5
1BE41
  8
DANMEN
  6
CONTINUOUS
 10
106.5
 20
259.5
 30
0.0
 40
0.5
 50
89.999982
 51
180.000019
  0
ARC
  5
1BE42
  8
DANMEN
  6
CONTINUOUS
 10
106.5
 20
258.850006
 30
0.0
 40
0.5
 50
180.000019
 51
270.000001
  0
LINE
  5
1BE44
  8
DANMEN
  6
CONTINUOUS
 10
163.649994
 20
237.350006
 30
0.0
 11
170.350006
 21
237.350006
 31
0.0
  0
LINE
  5
1BE45
  8
DANMEN
  6
CONTINUOUS
 10
162.5
 20
239.0
 30
0.0
 11
186.5
 21
239.0
 31
0.0
  0
ARC
  5
1BE46
  8
DANMEN
  6
CONTINUOUS
 10
162.5
 20
238.5
 30
0.0
 40
0.5
 50
89.999982
 51
180.000019
  0
ARC
  5
1BE4A
  8
DANMEN
  6
CONTINUOUS
 10
163.149994
 20
233.5
 30
0.0
 40
0.5
 50
270.000018
 51
359.999981
  0
ARC
  5
1BE4B
  8
DANMEN
  6
CONTINUOUS
 10
162.5
 20
233.5
 30
0.0
 40
0.5
 50
180.000036
 51
269.999963
  0
LINE
  5
1BE4C
  8
DANMEN
  6
CONTINUOUS
 10
163.649994
 20
237.350006
 30
0.0
 11
163.649994
 21
233.5
 31
0.0
  0
LINE
  5
1BE4D
  8
DANMEN
  6
CONTINUOUS
 10
162.5
 20
233.0
 30
0.0
 11
163.149994
 21
233.0
 31
0.0
  0
LINE
  5
1BE4E
  8
DANMEN
  6
CONTINUOUS
 10
162.0
 20
238.5
 30
0.0
 11
162.0
 21
233.5
 31
0.0
  0
ARC
  5
1BE50
  8
DANMEN
  6
CONTINUOUS
 10
186.5
 20
238.5
 30
0.0
 40
0.5
 50
359.999981
 51
89.999982
  0
LINE
  5
1BE51
  8
DANMEN
  6
CONTINUOUS
 10
174.0
 20
237.350006
 30
0.0
 11
186.5
 21
237.350006
 31
0.0
  0
LINE
  5
1BE52
  8
DANMEN
  6
CONTINUOUS
 10
185.156624
 20
229.9
 30
0.0
 11
188.0
 21
229.9
 31
0.0
  0
LINE
  5
1BE53
  8
DANMEN
  6
CONTINUOUS
 10
172.0
 20
221.5
 30
0.0
 11
188.0
 21
221.5
 31
0.0
  0
LINE
  5
1BE54
  8
DANMEN
  6
CONTINUOUS
 10
172.0
 20
226.5
 30
0.0
 11
188.0
 21
226.5
 31
0.0
  0
LINE
  5
1BE55
  8
DANMEN
  6
CONTINUOUS
 10
172.0
 20
237.9
 30
0.0
 11
172.0
 21
219.3
 31
0.0
  0
LINE
  5
1BE56
  8
DANMEN
  6
CONTINUOUS
 10
181.050996
 20
220.0
 30
0.0
 11
176.850995
 21
219.3
 31
0.0
  0
LINE
  5
1BE57
  8
DANMEN
  6
CONTINUOUS
 10
182.164402
 20
218.360739
 30
0.0
 11
177.081604
 21
217.513606
 31
0.0
  0
LINE
  5
1BE58
  8
DANMEN
  6
CONTINUOUS
 10
172.0
 20
219.3
 30
0.0
 11
176.850995
 21
219.3
 31
0.0
  0
LINE
  5
1BE59
  8
DANMEN
  6
CONTINUOUS
 10
172.0
 20
217.5
 30
0.0
 11
176.917205
 21
217.5
 31
0.0
  0
ARC
  5
1BE5D
  8
DANMEN
  6
CONTINUOUS
 10
176.917205
 20
218.5
 30
0.0
 40
1.0
 50
270.000018
 51
279.462343
  0
LINE
  5
1BE60
  8
DANMEN
  6
CONTINUOUS
 10
181.050996
 20
220.0
 30
0.0
 11
182.5
 21
220.0
 31
0.0
  0
ARC
  5
1BE62
  8
DANMEN
  6
CONTINUOUS
 10
182.5
 20
219.5
 30
0.0
 40
0.5
 50
0.0
 51
89.999982
  0
ARC
  5
1BE64
  8
DANMEN
  6
CONTINUOUS
 10
182.0
 20
219.347137
 30
0.0
 40
1.0
 50
279.462343
 51
0.000285
  0
LINE
  5
1BE67
  8
DANMEN
  6
CONTINUOUS
 10
183.0
 20
219.5
 30
0.0
 11
183.0
 21
219.347137
 31
0.0
  0
LINE
  5
1BE68
  8
DANMEN
  6
CONTINUOUS
 10
176.2
 20
228.556506
 30
0.0
 11
185.156624
 21
229.9
 31
0.0
  0
LINE
  5
1BE69
  8
DANMEN
  6
CONTINUOUS
 10
175.85166
 20
230.627749
 30
0.0
 11
184.963121
 21
231.994468
 31
0.0
  0
LINE
  5
1BE6A
  8
DANMEN
  6
CONTINUOUS
 10
172.0
 20
232.0
 30
0.0
 11
184.999936
 21
232.0
 31
0.0
  0
LINE
  5
1BE6C
  8
DANMEN
  6
CONTINUOUS
 10
175.5
 20
227.5
 30
0.0
 11
176.199997
 21
227.5
 31
0.0
  0
LINE
  5
1BE6D
  8
DANMEN
  6
CONTINUOUS
 10
175.0
 20
228.0
 30
0.0
 11
175.0
 21
229.638809
 31
0.0
  0
LINE
  5
1BE6E
  8
DANMEN
  6
CONTINUOUS
 10
176.2
 20
227.5
 30
0.0
 11
176.2
 21
228.556506
 31
0.0
  0
ARC
  5
1BE70
  8
DANMEN
  6
CONTINUOUS
 10
175.5
 20
228.0
 30
0.0
 40
0.5
 50
180.0
 51
270.0
  0
ARC
  5
1BE72
  8
DANMEN
  6
CONTINUOUS
 10
176.0
 20
229.638813
 30
0.0
 40
1.0
 50
98.530766
 51
180.0
  0
LINE
  5
1BE75
  8
DANMEN
  6
CONTINUOUS
 10
172.0
 20
237.9
 30
0.0
 11
174.0
 21
237.9
 31
0.0
  0
LINE
  5
1BE79
  8
DANMEN
  6
CONTINUOUS
 10
174.0
 20
237.9
 30
0.0
 11
174.0
 21
237.350006
 31
0.0
  0
ARC
  5
1BE7C
  8
DANMEN
  6
CONTINUOUS
 10
185.037291
 20
231.5
 30
0.0
 40
0.5
 50
90.0
 51
98.530766
  0
ARC
  5
1BE81
  8
DANMEN
  6
CONTINUOUS
 10
186.5
 20
237.850006
 30
0.0
 40
0.5
 50
270.000018
 51
359.999981
  0
LINE
  5
1BE82
  8
DANMEN
  6
CONTINUOUS
 10
187.0
 20
238.5
 30
0.0
 11
187.0
 21
237.850006
 31
0.0
  0
TEXT
  5
1BE85
  8
SUNPO
  6
CONTINUOUS
 10
135.221192
 20
119.91667
 30
0.0
 40
2.5
  1
22
 50
90.0
  7
MX_NOTE_STANDARD
  0
LINE
  5
1BE86
  8
DANMEN
  6
CONTINUOUS
 10
296.449994
 20
124.0
 30
0.0
 11
296.449994
 21
121.949997
 31
0.0
  0
LINE
  5
1BE87
  8
DANMEN
  6
CONTINUOUS
 10
295.449994
 20
123.5
 30
0.0
 11
295.449994
 21
121.949997
 31
0.0
  0
LINE
  5
1BE88
  8
DANMEN
  6
CONTINUOUS
 10
274.499997
 20
143.0
 30
0.0
 11
274.499997
 21
121.949997
 31
0.0
  0
LINE
  5
1BE89
  8
DANMEN
  6
CONTINUOUS
 10
309.499997
 20
157.0
 30
0.0
 11
309.499997
 21
115.5
 31
0.0
  0
LINE
  5
1BE8A
  8
DANMEN
  6
CONTINUOUS
 10
255.699997
 20
124.0
 30
0.0
 11
255.699997
 21
121.949997
 31
0.0
  0
LINE
  5
1BE8B
  8
DANMEN
  6
CONTINUOUS
 10
254.499997
 20
124.5
 30
0.0
 11
254.499997
 21
121.0
 31
0.0
  0
LINE
  5
1BE8C
  8
DANMEN
  6
CONTINUOUS
 10
276.449994
 20
143.0
 30
0.0
 11
276.449994
 21
121.949997
 31
0.0
  0
LINE
  5
1BE8D
  8
DANMEN
  6
CONTINUOUS
 10
307.55
 20
143.0
 30
0.0
 11
307.55
 21
121.949997
 31
0.0
  0
LINE
  5
1BE8E
  8
DANMEN
  6
CONTINUOUS
 10
393.649994
 20
149.350006
 30
0.0
 11
393.649994
 21
82.649994
 31
0.0
  0
LINE
  5
1BE8F
  8
DANMEN
  6
CONTINUOUS
 10
392.0
 20
149.800003
 30
0.0
 11
392.0
 21
82.199997
 31
0.0
  0
LINE
  5
1BE90
  8
SUNPO
  6
CONTINUOUS
 10
244.793737
 20
151.0
 30
0.0
 11
244.793737
 21
81.0
 31
0.0
  0
LINE
  5
1BE91
  8
SUNPO
  6
CONTINUOUS
 10
324.468739
 20
158.0
 30
0.0
 11
324.468739
 21
120.0
 31
0.0
  0
LINE
  5
1BE92
  8
SUNPO
  6
CONTINUOUS
 10
21.0
 20
51.0
 30
0.0
 11
21.0
 21
165.0
 31
0.0
  0
LINE
  5
1BE93
  8
SUNPO
  6
CONTINUOUS
 10
144.685645
 20
133.000003
 30
0.0
 11
144.685645
 21
91.0
 31
0.0
  0
LINE
  5
1BE94
  8
SUNPO
  6
CONTINUOUS
 10
136.221192
 20
133.000003
 30
0.0
 11
136.221192
 21
111.000003
 31
0.0
  0
LINE
  5
1BE95
  8
DANMEN
  6
CONTINUOUS
 10
202.499997
 20
130.400001
 30
0.0
 11
202.499997
 21
120.0
 31
0.0
  0
LINE
  5
1BE96
  8
DANMEN
  6
CONTINUOUS
 10
205.749997
 20
126.94142
 30
0.0
 11
205.749997
 21
120.0
 31
0.0
  0
LINE
  5
1BE97
  8
DANMEN
  6
CONTINUOUS
 10
209.05
 20
142.05
 30
0.0
 11
209.05
 21
121.949997
 31
0.0
  0
LINE
  5
1BE98
  8
DANMEN
  6
CONTINUOUS
 10
230.8
 20
121.95
 30
0.0
 11
230.8
 21
124.0
 31
0.0
  0
LINE
  5
1BE99
  8
DANMEN
  6
CONTINUOUS
 10
211.0
 20
143.0
 30
0.0
 11
211.0
 21
121.949997
 31
0.0
  0
LINE
  5
1BE9A
  8
DANMEN
  6
CONTINUOUS
 10
232.0
 20
121.0
 30
0.0
 11
232.0
 21
124.5
 31
0.0
  0
LINE
  5
1BE9B
  8
SUNPO
  6
CONTINUOUS
 10
156.0
 20
91.0
 30
0.0
 11
156.0
 21
146.0
 31
0.0
  0
LINE
  5
1BE9C
  8
SUNPO
  6
CONTINUOUS
 10
297.0
 20
18.0
 30
0.0
 11
377.0
 21
18.0
 31
0.0
  0
LINE
  5
1BE9D
  8
SUNPO
  6
CONTINUOUS
 10
309.5
 20
26.322886
 30
0.0
 11
377.0
 21
26.322886
 31
0.0
  0
LINE
  5
1BE9E
  8
SUNPO
  6
CONTINUOUS
 10
57.0
 20
22.0
 30
0.0
 11
156.0
 21
22.0
 31
0.0
  0
LINE
  5
1BEA0
  8
DANMEN
  6
CONTINUOUS
 10
323.9
 20
76.199997
 30
0.0
 11
346.5
 21
76.199997
 31
0.0
  0
LINE
  5
1BEA1
  8
DANMEN
  6
CONTINUOUS
 10
323.9
 20
74.0
 30
0.0
 11
346.5
 21
74.0
 31
0.0
  0
LINE
  5
1BEA2
  8
DANMEN
  6
CONTINUOUS
 10
323.75
 20
117.0
 30
0.0
 11
392.0
 21
117.0
 31
0.0
  0
LINE
  5
1BEA3
  8
DANMEN
  6
CONTINUOUS
 10
347.500004
 20
112.0
 30
0.0
 11
323.9
 21
112.0
 31
0.0
  0
LINE
  5
1BEA4
  8
DANMEN
  6
CONTINUOUS
 10
323.9
 20
103.0
 30
0.0
 11
359.0
 21
103.0
 31
0.0
  0
LINE
  5
1BEA5
  8
DANMEN
  6
CONTINUOUS
 10
323.9
 20
103.5
 30
0.0
 11
359.0
 21
103.5
 31
0.0
  0
LINE
  5
1BEA6
  8
DANMEN
  6
CONTINUOUS
 10
323.9
 20
96.0
 30
0.0
 11
359.0
 21
96.0
 31
0.0
  0
LINE
  5
1BEA7
  8
DANMEN
  6
CONTINUOUS
 10
323.9
 20
95.5
 30
0.0
 11
359.0
 21
95.5
 31
0.0
  0
LINE
  5
1BEA8
  8
DANMEN
  6
CONTINUOUS
 10
347.0
 20
110.000034
 30
0.0
 11
323.9
 21
110.000034
 31
0.0
  0
LINE
  5
1BEA9
  8
DANMEN
  6
CONTINUOUS
 10
347.0
 20
88.999963
 30
0.0
 11
323.9
 21
88.999963
 31
0.0
  0
LINE
  5
1BEAA
  8
DANMEN
  6
CONTINUOUS
 10
268.05
 20
106.999994
 30
0.0
 11
267.55
 21
106.999994
 31
0.0
  0
LINE
  5
1BEAB
  8
DANMEN
  6
CONTINUOUS
 10
268.05
 20
89.8
 30
0.0
 11
267.55
 21
89.8
 31
0.0
  0
LINE
  5
1BEAC
  8
DANMEN
  6
CONTINUOUS
 10
279.0
 20
82.8
 30
0.0
 11
256.499994
 21
82.8
 31
0.0
  0
LINE
  5
1BEAD
  8
DANMEN
  6
CONTINUOUS
 10
307.499997
 20
36.0
 30
0.0
 11
256.499997
 21
36.0
 31
0.0
  0
ARC
  5
1BEAE
  8
DANMEN
  6
CONTINUOUS
 10
268.549997
 20
116.5
 30
0.0
 40
1.0
 50
89.999982
 51
180.000019
  0
LINE
  5
1BEAF
  8
DANMEN
  6
CONTINUOUS
 10
306.499997
 20
41.0
 30
0.0
 11
257.499997
 21
41.0
 31
0.0
  0
LINE
  5
1BEB0
  8
DANMEN
  6
CONTINUOUS
 10
255.699997
 20
121.949997
 30
0.0
 11
274.499997
 21
121.949997
 31
0.0
  0
LINE
  5
1BEB1
  8
DANMEN
  6
CONTINUOUS
 10
255.499997
 20
120.0
 30
0.0
 11
282.999997
 21
120.0
 31
0.0
  0
LINE
  5
1BEB2
  8
DANMEN
  6
CONTINUOUS
 10
261.149991
 20
117.0
 30
0.0
 11
267.683975
 21
117.0
 31
0.0
  0
LINE
  5
1BEB3
  8
DANMEN
  6
CONTINUOUS
 10
254.499997
 20
38.0
 30
0.0
 11
254.499997
 21
116.5
 31
0.0
  0
LINE
  5
1BEB4
  8
DANMEN
  6
CONTINUOUS
 10
256.499994
 20
82.8
 30
0.0
 11
257.499997
 21
51.0
 31
0.0
  0
LINE
  5
1BEB5
  8
DANMEN
  6
CONTINUOUS
 10
257.499997
 20
41.0
 30
0.0
 11
257.499997
 21
51.0
 31
0.0
  0
ARC
  5
1BEB6
  8
DANMEN
  6
CONTINUOUS
 10
256.499997
 20
38.0
 30
0.0
 40
2.0
 50
179.999981
 51
270.000018
  0
LINE
  5
1BEB9
  8
DANMEN
  6
CONTINUOUS
 10
231.0
 20
120.0
 30
0.0
 11
240.25
 21
120.0
 31
0.0
  0
LINE
  5
1BEBA
  8
DANMEN
  6
CONTINUOUS
 10
232.0
 20
122.2
 30
0.0
 11
240.25
 21
122.2
 31
0.0
  0
LINE
  5
1BEBB
  8
DANMEN
  6
CONTINUOUS
 10
211.0
 20
121.95
 30
0.0
 11
230.8
 21
121.95
 31
0.0
  0
LINE
  5
1BEBC
  8
DANMEN
  6
CONTINUOUS
 10
207.999996
 20
119.600002
 30
0.0
 11
205.349992
 21
119.300001
 31
0.0
  0
LINE
  5
1BEBD
  8
DANMEN
  6
DASHED
 10
202.499997
 20
120.0
 30
0.0
 11
202.499997
 21
119.8
 31
0.0
  0
LINE
  5
1BEC1
  8
DANMEN
  6
CONTINUOUS
 10
207.999997
 20
120.0
 30
0.0
 11
207.999997
 21
119.6
 31
0.0
  0
ARC
  5
1BEC7
  8
DANMEN
  6
CONTINUOUS
 10
231.0
 20
121.0
 30
0.0
 40
1.0
 50
270.0
 51
0.0
  0
LINE
  5
1BEC9
  8
DANMEN
  6
CONTINUOUS
 10
256.449994
 20
84.75
 30
0.0
 11
256.449994
 21
110.050003
 31
0.0
  0
LINE
  5
1BECA
  8
DANMEN
  6
CONTINUOUS
 10
242.75
 20
85.0
 30
0.0
 11
254.499997
 21
85.0
 31
0.0
  0
LINE
  5
1BECB
  8
DANMEN
  6
CONTINUOUS
 10
242.75
 20
81.0
 30
0.0
 11
254.499997
 21
81.0
 31
0.0
  0
LINE
  5
1BECC
  8
DANMEN
  6
CONTINUOUS
 10
267.55
 20
84.75
 30
0.0
 11
267.55
 21
89.8
 31
0.0
  0
LINE
  5
1BECD
  8
DANMEN
  6
CONTINUOUS
 10
261.449997
 20
84.75
 30
0.0
 11
256.449994
 21
84.75
 31
0.0
  0
LINE
  5
1BED0
  8
DANMEN
  6
CONTINUOUS
 10
267.55
 20
84.75
 30
0.0
 11
262.549997
 21
84.75
 31
0.0
  0
LINE
  5
1BED1
  8
DANMEN
  6
CONTINUOUS
 10
262.549997
 20
86.95
 30
0.0
 11
261.449997
 21
86.95
 31
0.0
  0
LINE
  5
1BED2
  8
DANMEN
  6
CONTINUOUS
 10
262.549997
 20
84.75
 30
0.0
 11
262.549997
 21
86.95
 31
0.0
  0
LINE
  5
1BED3
  8
DANMEN
  6
CONTINUOUS
 10
261.449997
 20
84.75
 30
0.0
 11
261.449997
 21
86.95
 31
0.0
  0
LINE
  5
1BEDA
  8
DANMEN
  6
CONTINUOUS
 10
242.75
 20
120.0
 30
0.0
 11
254.499997
 21
120.0
 31
0.0
  0
LINE
  5
1BEDB
  8
DANMEN
  6
CONTINUOUS
 10
242.75
 20
122.2
 30
0.0
 11
254.499997
 21
122.2
 31
0.0
  0
LINE
  5
1BEDC
  8
DANMEN
  6
CONTINUOUS
 10
245.529614
 20
117.0
 30
0.0
 11
257.720635
 21
117.0
 31
0.0
  0
LINE
  5
1BEDD
  8
DANMEN
  6
CONTINUOUS
 10
267.55
 20
110.050003
 30
0.0
 11
256.449994
 21
110.050003
 31
0.0
  0
LINE
  5
1BEE1
  8
DANMEN
  6
CONTINUOUS
 10
267.55
 20
106.999994
 30
0.0
 11
267.55
 21
110.050003
 31
0.0
  0
LINE
  5
1BEE2
  8
DANMEN
  6
CONTINUOUS
 10
259.099998
 20
115.5
 30
0.0
 11
261.299998
 21
115.5
 31
0.0
  0
LINE
  5
1BEE3
  8
DANMEN
  6
CONTINUOUS
 10
260.099998
 20
113.5
 30
0.0
 11
259.099998
 21
113.5
 31
0.0
  0
LINE
  5
1BEE4
  8
DANMEN
  6
CONTINUOUS
 10
259.899998
 20
114.5
 30
0.0
 11
259.099998
 21
114.5
 31
0.0
  0
LINE
  5
1BEE5
  8
DANMEN
  6
CONTINUOUS
 10
259.345221
 20
120.8
 30
0.0
 11
260.699998
 21
120.8
 31
0.0
  0
LINE
  5
1BEE6
  8
DANMEN
  6
CONTINUOUS
 10
259.345221
 20
119.8
 30
0.0
 11
260.299998
 21
119.8
 31
0.0
  0
LINE
  5
1BEE7
  8
DANMEN
  6
CONTINUOUS
 10
257.089664
 20
116.3
 30
0.0
 11
260.299998
 21
116.3
 31
0.0
  0
LINE
  5
1BEE8
  8
DANMEN
  6
CONTINUOUS
 10
260.249997
 20
112.0
 30
0.0
 11
255.699997
 21
112.0
 31
0.0
  0
ARC
  5
1BEE9
  8
DANMEN
  6
CONTINUOUS
 10
259.749997
 20
115.0
 30
0.0
 40
0.5
 50
89.999982
 51
180.000019
  0
LINE
  5
1BEEA
  8
DANMEN
  6
CONTINUOUS
 10
260.249997
 20
114.699997
 30
0.0
 11
259.249997
 21
114.699997
 31
0.0
  0
LINE
  5
1BEEB
  8
DANMEN
  6
CONTINUOUS
 10
258.50465
 20
120.341701
 30
0.0
 11
255.899997
 21
116.3
 31
0.0
  0
LINE
  5
1BEEC
  8
DANMEN
  6
CONTINUOUS
 10
259.345221
 20
119.8
 30
0.0
 11
257.089664
 21
116.3
 31
0.0
  0
ARC
  5
1BEED
  8
DANMEN
  6
CONTINUOUS
 10
255.199997
 20
116.5
 30
0.0
 40
0.5
 50
0.0
 51
90.0
  0
ARC
  5
1BEEE
  8
DANMEN
  6
CONTINUOUS
 10
254.999997
 20
116.5
 30
0.0
 40
0.5
 50
90.0
 51
180.0
  0
LINE
  5
1BEF3
  8
DANMEN
  6
CONTINUOUS
 10
257.399997
 20
114.0
 30
0.0
 11
256.899997
 21
113.5
 31
0.0
  0
LINE
  5
1BEF4
  8
DANMEN
  6
CONTINUOUS
 10
259.099998
 20
113.5
 30
0.0
 11
258.599998
 21
114.0
 31
0.0
  0
LINE
  5
1BEF9
  8
DANMEN
  6
CONTINUOUS
 10
256.899997
 20
113.5
 30
0.0
 11
255.899997
 21
113.5
 31
0.0
  0
LINE
  5
1BEFB
  8
DANMEN
  6
CONTINUOUS
 10
257.399997
 20
114.0
 30
0.0
 11
258.599998
 21
114.0
 31
0.0
  0
LINE
  5
1BEFD
  8
DANMEN
  6
CONTINUOUS
 10
255.899997
 20
115.5
 30
0.0
 11
255.899997
 21
116.3
 31
0.0
  0
LINE
  5
1BF03
  8
DANMEN
  6
CONTINUOUS
 10
255.899997
 20
115.5
 30
0.0
 11
256.899997
 21
115.5
 31
0.0
  0
LINE
  5
1BF04
  8
DANMEN
  6
CONTINUOUS
 10
259.099998
 20
115.5
 30
0.0
 11
259.099998
 21
114.5
 31
0.0
  0
ARC
  5
1BF05
  8
DANMEN
  6
CONTINUOUS
 10
256.099997
 20
114.3
 30
0.0
 40
0.2
 50
89.999982
 51
180.000019
  0
LINE
  5
1BF06
  8
DANMEN
  6
CONTINUOUS
 10
255.899997
 20
114.3
 30
0.0
 11
255.899997
 21
113.5
 31
0.0
  0
LINE
  5
1BF07
  8
DANMEN
  6
CONTINUOUS
 10
256.099997
 20
114.5
 30
0.0
 11
256.899997
 21
114.5
 31
0.0
  0
LINE
  5
1BF08
  8
DANMEN
  6
CONTINUOUS
 10
256.899997
 20
115.5
 30
0.0
 11
256.899997
 21
114.5
 31
0.0
  0
LINE
  5
1BF11
  8
DANMEN
  6
CONTINUOUS
 10
255.699997
 20
115.5
 30
0.0
 11
255.699997
 21
116.5
 31
0.0
  0
LINE
  5
1BF12
  8
DANMEN
  6
CONTINUOUS
 10
255.699997
 20
112.0
 30
0.0
 11
255.699997
 21
114.699997
 31
0.0
  0
ARC
  5
1BF13
  8
DANMEN
  6
CONTINUOUS
 10
256.249997
 20
115.0
 30
0.0
 40
0.5
 50
360.0
 51
89.999982
  0
LINE
  5
1BF14
  8
DANMEN
  6
CONTINUOUS
 10
256.249997
 20
115.5
 30
0.0
 11
255.699997
 21
115.5
 31
0.0
  0
LINE
  5
1BF15
  8
DANMEN
  6
CONTINUOUS
 10
256.749997
 20
114.699997
 30
0.0
 11
255.699997
 21
114.699997
 31
0.0
  0
LINE
  5
1BF16
  8
DANMEN
  6
CONTINUOUS
 10
259.249997
 20
114.699997
 30
0.0
 11
259.249997
 21
115.0
 31
0.0
  0
LINE
  5
1BF17
  8
DANMEN
  6
CONTINUOUS
 10
256.749997
 20
114.699997
 30
0.0
 11
256.749997
 21
115.0
 31
0.0
  0
ARC
  5
1BF18
  8
DANMEN
  6
CONTINUOUS
 10
255.499997
 20
121.0
 30
0.0
 40
1.0
 50
180.0
 51
270.0
  0
LINE
  5
1BF1A
  8
DANMEN
  6
CONTINUOUS
 10
254.999997
 20
117.0
 30
0.0
 11
255.199997
 21
117.0
 31
0.0
  0
ARC
  5
1BF1F
  8
DANMEN
  6
CONTINUOUS
 10
259.345221
 20
119.8
 30
0.0
 40
1.0
 50
90.0
 51
147.20046
  0
LINE
  5
1BF25
  8
DANMEN
  6
CONTINUOUS
 10
261.299998
 20
120.2
 30
0.0
 11
261.299998
 21
115.5
 31
0.0
  0
LINE
  5
1BF26
  8
DANMEN
  6
CONTINUOUS
 10
260.299998
 20
119.8
 30
0.0
 11
260.299998
 21
116.3
 31
0.0
  0
LINE
  5
1BF27
  8
DANMEN
  6
CONTINUOUS
 10
267.55
 20
112.0
 30
0.0
 11
261.249997
 21
112.0
 31
0.0
  0
ARC
  5
1BF2A
  8
DANMEN
  6
CONTINUOUS
 10
259.899998
 20
114.3
 30
0.0
 40
0.2
 50
359.999981
 51
90.000037
  0
LINE
  5
1BF2B
  8
DANMEN
  6
CONTINUOUS
 10
260.099998
 20
114.3
 30
0.0
 11
260.099998
 21
113.5
 31
0.0
  0
ARC
  5
1BF30
  8
DANMEN
  6
CONTINUOUS
 10
260.749997
 20
115.0
 30
0.0
 40
0.5
 50
360.0
 51
89.999982
  0
LINE
  5
1BF31
  8
DANMEN
  6
CONTINUOUS
 10
260.249997
 20
112.0
 30
0.0
 11
260.249997
 21
114.699997
 31
0.0
  0
LINE
  5
1BF32
  8
DANMEN
  6
CONTINUOUS
 10
261.249997
 20
112.0
 30
0.0
 11
261.249997
 21
115.0
 31
0.0
  0
LINE
  5
1BF33
  8
DANMEN
  6
CONTINUOUS
 10
260.749997
 20
115.5
 30
0.0
 11
259.749997
 21
115.5
 31
0.0
  0
LINE
  5
1BF35
  8
DANMEN
  6
CONTINUOUS
 10
267.55
 20
112.0
 30
0.0
 11
267.55
 21
116.5
 31
0.0
  0
ARC
  5
1BF37
  8
DANMEN
  6
CONTINUOUS
 10
260.699998
 20
120.2
 30
0.0
 40
0.6
 50
0.0
 51
90.0
  0
LINE
  5
1BF3C
  8
DANMEN
  6
CONTINUOUS
 10
281.499997
 20
75.949997
 30
0.0
 11
281.499997
 21
105.299994
 31
0.0
  0
LINE
  5
1BF3D
  8
DANMEN
  6
CONTINUOUS
 10
279.0
 20
75.0
 30
0.0
 11
279.0
 21
82.8
 31
0.0
  0
LINE
  5
1BF3E
  8
DANMEN
  6
CONTINUOUS
 10
309.499997
 20
38.0
 30
0.0
 11
309.499997
 21
89.0
 31
0.0
  0
LINE
  5
1BF3F
  8
DANMEN
  6
CONTINUOUS
 10
308.399997
 20
75.949997
 30
0.0
 11
308.399997
 21
77.949997
 31
0.0
  0
LINE
  5
1BF40
  8
DANMEN
  6
CONTINUOUS
 10
308.399997
 20
75.949997
 30
0.0
 11
281.499997
 21
75.949997
 31
0.0
  0
LINE
  5
1BF41
  8
DANMEN
  6
CONTINUOUS
 10
307.5
 20
74.0
 30
0.0
 11
280.0
 21
74.0
 31
0.0
  0
ARC
  5
1BF43
  8
DANMEN
  6
CONTINUOUS
 10
280.0
 20
75.0
 30
0.0
 40
1.0
 50
179.999981
 51
270.000018
  0
LINE
  5
1BF46
  8
DANMEN
  6
CONTINUOUS
 10
307.5
 20
74.0
 30
0.0
 11
306.499997
 21
51.0
 31
0.0
  0
LINE
  5
1BF47
  8
DANMEN
  6
CONTINUOUS
 10
306.499997
 20
41.0
 30
0.0
 11
306.499997
 21
51.0
 31
0.0
  0
ARC
  5
1BF48
  8
DANMEN
  6
CONTINUOUS
 10
307.499997
 20
38.0
 30
0.0
 40
2.0
 50
270.000018
 51
0.0
  0
LINE
  5
1BF4B
  8
DANMEN
  6
CONTINUOUS
 10
309.499997
 20
74.0
 30
0.0
 11
321.25
 21
74.0
 31
0.0
  0
LINE
  5
1BF4E
  8
DANMEN
  6
CONTINUOUS
 10
304.499994
 20
110.05
 30
0.0
 11
291.799997
 21
110.05
 31
0.0
  0
LINE
  5
1BF4F
  8
DANMEN
  6
CONTINUOUS
 10
308.999993
 20
112.0
 30
0.0
 11
289.499997
 21
112.0
 31
0.0
  0
LINE
  5
1BF50
  8
DANMEN
  6
CONTINUOUS
 10
307.55
 20
88.0
 30
0.0
 11
298.999997
 21
88.0
 31
0.0
  0
LINE
  5
1BF51
  8
DANMEN
  6
CONTINUOUS
 10
304.499997
 20
89.0
 30
0.0
 11
299.499997
 21
89.0
 31
0.0
  0
LINE
  5
1BF52
  8
DANMEN
  6
CONTINUOUS
 10
296.449994
 20
121.949997
 30
0.0
 11
307.55
 21
121.949997
 31
0.0
  0
LINE
  5
1BF53
  8
DANMEN
  6
CONTINUOUS
 10
284.499997
 20
120.0
 30
0.0
 11
307.999997
 21
120.0
 31
0.0
  0
LINE
  5
1BF54
  8
DANMEN
  6
CONTINUOUS
 10
320.520495
 20
96.0
 30
0.0
 11
297.499997
 21
96.0
 31
0.0
  0
LINE
  5
1BF55
  8
DANMEN
  6
CONTINUOUS
 10
321.25
 20
103.0
 30
0.0
 11
297.499997
 21
103.0
 31
0.0
  0
LINE
  5
1BF56
  8
DANMEN
  6
CONTINUOUS
 10
321.25
 20
103.5
 30
0.0
 11
297.499997
 21
103.5
 31
0.0
  0
LINE
  5
1BF57
  8
DANMEN
  6
CONTINUOUS
 10
320.520495
 20
95.5
 30
0.0
 11
297.499997
 21
95.5
 31
0.0
  0
LINE
  5
1BF58
  8
DANMEN
  6
CONTINUOUS
 10
284.499997
 20
117.0
 30
0.0
 11
307.999997
 21
117.0
 31
0.0
  0
LINE
  5
1BF59
  8
DANMEN
  6
CONTINUOUS
 10
281.499997
 20
105.0
 30
0.0
 11
281.499997
 21
94.0
 31
0.0
  0
LINE
  5
1BF5A
  8
DANMEN
  6
CONTINUOUS
 10
297.499997
 20
94.0
 30
0.0
 11
281.499997
 21
105.0
 31
0.0
  0
LINE
  5
1BF5B
  8
DANMEN
  6
CONTINUOUS
 10
297.499997
 20
105.0
 30
0.0
 11
297.499997
 21
94.0
 31
0.0
  0
LINE
  5
1BF5C
  8
DANMEN
  6
CONTINUOUS
 10
278.999997
 20
84.75
 30
0.0
 11
278.999997
 21
110.050003
 31
0.0
  0
LINE
  5
1BF5D
  8
DANMEN
  6
CONTINUOUS
 10
297.499997
 20
94.0
 30
0.0
 11
281.499997
 21
94.0
 31
0.0
  0
LINE
  5
1BF5E
  8
DANMEN
  6
CONTINUOUS
 10
268.55
 20
84.75
 30
0.0
 11
268.55
 21
89.3
 31
0.0
  0
LINE
  5
1BF5F
  8
DANMEN
  6
CONTINUOUS
 10
279.0
 20
84.75
 30
0.0
 11
268.55
 21
84.75
 31
0.0
  0
ARC
  5
1BF64
  8
DANMEN
  6
CONTINUOUS
 10
268.05
 20
89.3
 30
0.0
 40
0.5
 50
0.0
 51
89.999982
  0
LINE
  5
1BF66
  8
DANMEN
  6
CONTINUOUS
 10
298.499997
 20
88.5
 30
0.0
 11
298.499997
 21
89.0
 31
0.0
  0
LINE
  5
1BF67
  8
DANMEN
  6
CONTINUOUS
 10
299.499997
 20
89.0
 30
0.0
 11
299.499997
 21
89.5
 31
0.0
  0
ARC
  5
1BF68
  8
DANMEN
  6
CONTINUOUS
 10
298.999997
 20
88.5
 30
0.0
 40
0.5
 50
180.0
 51
270.0
  0
LINE
  5
1BF6B
  8
DANMEN
  6
CONTINUOUS
 10
299.499997
 20
89.5
 30
0.0
 11
298.999997
 21
89.5
 31
0.0
  0
ARC
  5
1BF6D
  8
DANMEN
  6
CONTINUOUS
 10
298.999997
 20
89.0
 30
0.0
 40
0.5
 50
90.0
 51
180.0
  0
LINE
  5
1BF6F
  8
DANMEN
  6
CONTINUOUS
 10
297.499997
 20
105.0
 30
0.0
 11
281.499997
 21
105.0
 31
0.0
  0
LINE
  5
1BF70
  8
DANMEN
  6
CONTINUOUS
 10
284.240433
 20
106.4
 30
0.0
 11
282.999103
 21
106.4
 31
0.0
  0
LINE
  5
1BF71
  8
DANMEN
  6
CONTINUOUS
 10
286.849202
 20
109.930331
 30
0.0
 11
283.790102
 21
107.568364
 31
0.0
  0
LINE
  5
1BF72
  8
DANMEN
  6
CONTINUOUS
 10
289.499997
 20
112.0
 30
0.0
 11
269.049997
 21
112.0
 31
0.0
  0
LINE
  5
1BF73
  8
DANMEN
  6
CONTINUOUS
 10
287.499997
 20
110.05
 30
0.0
 11
281.499997
 21
110.05
 31
0.0
  0
LINE
  5
1BF74
  8
DANMEN
  6
CONTINUOUS
 10
287.499997
 20
105.299994
 30
0.0
 11
281.499997
 21
105.299994
 31
0.0
  0
LINE
  5
1BF75
  8
DANMEN
  6
CONTINUOUS
 10
285.499997
 20
106.499994
 30
0.0
 11
281.499997
 21
106.499994
 31
0.0
  0
LINE
  5
1BF76
  8
DANMEN
  6
CONTINUOUS
 10
276.449994
 20
121.949997
 30
0.0
 11
295.449994
 21
121.949997
 31
0.0
  0
ARC
  5
1BF77
  8
DANMEN
  6
CONTINUOUS
 10
283.499997
 20
115.5
 30
0.0
 40
1.0
 50
270.000018
 51
0.0
  0
LINE
  5
1BF78
  8
DANMEN
  6
CONTINUOUS
 10
278.999997
 20
110.050003
 30
0.0
 11
268.55
 21
110.050003
 31
0.0
  0
ARC
  5
1BF7B
  8
DANMEN
  6
CONTINUOUS
 10
268.05
 20
107.499994
 30
0.0
 40
0.5
 50
270.0
 51
0.0
  0
LINE
  5
1BF7C
  8
DANMEN
  6
CONTINUOUS
 10
268.55
 20
107.499994
 30
0.0
 11
268.55
 21
110.050003
 31
0.0
  0
ARC
  5
1BF81
  8
DANMEN
  6
CONTINUOUS
 10
282.499103
 20
108.0
 30
0.0
 40
0.5
 50
34.708049
 51
214.708049
  0
LINE
  5
1BF84
  8
DANMEN
  6
CONTINUOUS
 10
282.999103
 20
106.4
 30
0.0
 11
282.088071
 21
107.715302
 31
0.0
  0
LINE
  5
1BF86
  8
DANMEN
  6
CONTINUOUS
 10
283.36014
 20
107.635002
 30
0.0
 11
282.910135
 21
108.284698
 31
0.0
  0
ARC
  5
1BF87
  8
DANMEN
  6
CONTINUOUS
 10
283.60676
 20
107.80582
 30
0.0
 40
0.3
 50
214.708049
 51
307.672157
  0
LINE
  5
1BF88
  8
DANMEN
  6
CONTINUOUS
 10
281.499997
 20
106.499994
 30
0.0
 11
281.499997
 21
110.05
 31
0.0
  0
LINE
  5
1BF8C
  8
DANMEN
  6
CONTINUOUS
 10
278.75
 20
117.5
 30
0.0
 11
268.549997
 21
117.5
 31
0.0
  0
LINE
  5
1BF8D
  8
DANMEN
  6
CONTINUOUS
 10
273.05
 20
115.2
 30
0.0
 11
278.835145
 21
116.912336
 31
0.0
  0
LINE
  5
1BF8E
  8
DANMEN
  6
CONTINUOUS
 10
278.999997
 20
116.8
 30
0.0
 11
273.214852
 21
115.087664
 31
0.0
  0
LINE
  5
1BF8F
  8
DANMEN
  6
CONTINUOUS
 10
273.299997
 20
114.5
 30
0.0
 11
283.499997
 21
114.5
 31
0.0
  0
LINE
  5
1BF90
  8
DANMEN
  6
CONTINUOUS
 10
272.55
 20
116.0
 30
0.0
 11
269.049997
 21
116.0
 31
0.0
  0
LINE
  5
1BF93
  8
DANMEN
  6
CONTINUOUS
 10
269.049997
 20
112.0
 30
0.0
 11
269.049997
 21
116.0
 31
0.0
  0
LINE
  5
1BF97
  8
DANMEN
  6
CONTINUOUS
 10
272.55
 20
116.0
 30
0.0
 11
272.55
 21
115.2
 31
0.0
  0
LINE
  5
1BF99
  8
DANMEN
  6
CONTINUOUS
 10
273.05
 20
115.2
 30
0.0
 11
272.55
 21
115.2
 31
0.0
  0
ARC
  5
1BF9B
  8
DANMEN
  6
CONTINUOUS
 10
273.299997
 20
114.8
 30
0.0
 40
0.3
 50
106.488148
 51
270.0
  0
LINE
  5
1BF9F
  8
DANMEN
  6
CONTINUOUS
 10
282.999997
 20
120.0
 30
0.0
 11
282.999997
 21
116.0
 31
0.0
  0
LINE
  5
1BFA0
  8
DANMEN
  6
CONTINUOUS
 10
279.499997
 20
116.0
 30
0.0
 11
279.499997
 21
116.8
 31
0.0
  0
LINE
  5
1BFA1
  8
DANMEN
  6
CONTINUOUS
 10
279.499997
 20
116.0
 30
0.0
 11
282.999997
 21
116.0
 31
0.0
  0
ARC
  5
1BFA8
  8
DANMEN
  6
CONTINUOUS
 10
278.75
 20
117.2
 30
0.0
 40
0.3
 50
286.488148
 51
90.0
  0
LINE
  5
1BFAC
  8
DANMEN
  6
CONTINUOUS
 10
278.999997
 20
116.8
 30
0.0
 11
279.499997
 21
116.8
 31
0.0
  0
LINE
  5
1BFAE
  8
DANMEN
  6
CONTINUOUS
 10
289.499997
 20
112.0
 30
0.0
 11
289.499997
 21
110.05
 31
0.0
  0
LINE
  5
1BFAF
  8
DANMEN
  6
CONTINUOUS
 10
289.499997
 20
112.0
 30
0.0
 11
289.499997
 21
110.292199
 31
0.0
  0
LINE
  5
1BFB0
  8
DANMEN
  6
CONTINUOUS
 10
289.799997
 20
109.55
 30
0.0
 11
287.818369
 21
109.55
 31
0.0
  0
LINE
  5
1BFB1
  8
DANMEN
  6
CONTINUOUS
 10
290.799997
 20
108.35
 30
0.0
 11
286.765973
 21
108.35
 31
0.0
  0
LINE
  5
1BFB2
  8
DANMEN
  6
CONTINUOUS
 10
287.799997
 20
109.5
 30
0.0
 11
288.503752
 21
109.5
 31
0.0
  0
ARC
  5
1BFB5
  8
DANMEN
  6
CONTINUOUS
 10
287.100061
 20
109.497816
 30
0.0
 40
0.5
 50
26.118581
 51
120.113733
  0
ARC
  5
1BFB7
  8
DANMEN
  6
CONTINUOUS
 10
287.818369
 20
109.85
 30
0.0
 40
0.3
 50
206.118581
 51
270.0
  0
LINE
  5
1BFB9
  8
DANMEN
  6
CONTINUOUS
 10
286.765973
 20
108.35
 30
0.0
 11
284.240433
 21
106.4
 31
0.0
  0
LINE
  5
1BFBC
  8
DANMEN
  6
CONTINUOUS
 10
285.499997
 20
106.499994
 30
0.0
 11
287.098055
 21
106.180382
 31
0.0
  0
ARC
  5
1BFC0
  8
DANMEN
  6
CONTINUOUS
 10
287.799997
 20
109.8
 30
0.0
 40
0.3
 50
180.0
 51
270.0
  0
LINE
  5
1BFC1
  8
DANMEN
  6
CONTINUOUS
 10
287.499997
 20
109.8
 30
0.0
 11
287.499997
 21
110.05
 31
0.0
  0
LINE
  5
1BFC3
  8
DANMEN
  6
CONTINUOUS
 10
287.499997
 20
105.690092
 30
0.0
 11
287.499997
 21
105.299994
 31
0.0
  0
ARC
  5
1BFC4
  8
DANMEN
  6
CONTINUOUS
 10
286.999997
 20
105.690092
 30
0.0
 40
0.5
 50
0.0
 51
78.690068
  0
ARC
  5
1BFC9
  8
DANMEN
  6
CONTINUOUS
 10
291.799997
 20
109.55
 30
0.0
 40
0.5
 50
90.0
 51
180.0
  0
LINE
  5
1BFCC
  8
DANMEN
  6
CONTINUOUS
 10
291.299997
 20
109.55
 30
0.0
 11
291.299997
 21
108.85
 31
0.0
  0
LINE
  5
1BFCD
  8
DANMEN
  6
CONTINUOUS
 10
289.799997
 20
110.05
 30
0.0
 11
289.799997
 21
109.55
 31
0.0
  0
LINE
  5
1BFCE
  8
DANMEN
  6
CONTINUOUS
 10
289.799997
 20
110.05
 30
0.0
 11
289.499997
 21
110.05
 31
0.0
  0
ARC
  5
1BFD1
  8
DANMEN
  6
CONTINUOUS
 10
290.799997
 20
108.85
 30
0.0
 40
0.5
 50
270.0
 51
0.0
  0
LINE
  5
1BFD3
  8
DANMEN
  6
CONTINUOUS
 10
288.503752
 20
109.5
 30
0.0
 11
289.24542
 21
109.856576
 31
0.0
  0
ARC
  5
1BFD4
  8
DANMEN
  6
CONTINUOUS
 10
288.999997
 20
110.292199
 30
0.0
 40
0.5
 50
299.396173
 51
0.0
  0
LINE
  5
1BFD7
  8
DANMEN
  6
CONTINUOUS
 10
284.499997
 20
120.0
 30
0.0
 11
284.499997
 21
115.5
 31
0.0
  0
LINE
  5
1BFE0
  8
DANMEN
  6
CONTINUOUS
 10
309.499997
 20
76.199997
 30
0.0
 11
321.25
 21
76.199997
 31
0.0
  0
LINE
  5
1BFE1
  8
DANMEN
  6
CONTINUOUS
 10
309.499997
 20
89.000034
 30
0.0
 11
321.25
 21
89.000034
 31
0.0
  0
LINE
  5
1BFE2
  8
DANMEN
  6
CONTINUOUS
 10
307.55
 20
77.949997
 30
0.0
 11
307.55
 21
88.0
 31
0.0
  0
LINE
  5
1BFE3
  8
DANMEN
  6
CONTINUOUS
 10
308.399997
 20
77.949997
 30
0.0
 11
307.55
 21
77.949997
 31
0.0
  0
LINE
  5
1BFE6
  8
DANMEN
  6
CONTINUOUS
 10
307.985279
 20
89.499998
 30
0.0
 11
309.866303
 21
91.381023
 31
0.0
  0
LINE
  5
1BFE7
  8
DANMEN
  6
CONTINUOUS
 10
306.499997
 20
90.136037
 30
0.0
 11
310.251998
 21
93.888038
 31
0.0
  0
LINE
  5
1BFE8
  8
DANMEN
  6
CONTINUOUS
 10
306.499997
 20
92.257358
 30
0.0
 11
309.742638
 21
95.499998
 31
0.0
  0
LINE
  5
1BFE9
  8
DANMEN
  6
CONTINUOUS
 10
306.499997
 20
91.893397
 30
0.0
 11
308.893395
 21
89.499998
 31
0.0
  0
LINE
  5
1BFEA
  8
DANMEN
  6
CONTINUOUS
 10
306.499997
 20
94.014717
 30
0.0
 11
309.768622
 21
90.746092
 31
0.0
  0
LINE
  5
1BFEB
  8
DANMEN
  6
CONTINUOUS
 10
307.136036
 20
95.499998
 30
0.0
 11
310.051464
 21
92.58457
 31
0.0
  0
LINE
  5
1BFEC
  8
DANMEN
  6
CONTINUOUS
 10
308.999997
 20
89.5
 30
0.0
 11
304.499997
 21
89.5
 31
0.0
  0
LINE
  5
1BFEE
  8
DANMEN
  6
CONTINUOUS
 10
304.499997
 20
89.0
 30
0.0
 11
304.499997
 21
89.5
 31
0.0
  0
LINE
  5
1BFF0
  8
DANMEN
  6
CONTINUOUS
 10
306.499997
 20
89.772076
 30
0.0
 11
306.772075
 21
89.499998
 31
0.0
  0
LINE
  5
1BFF2
  8
DANMEN
  6
CONTINUOUS
 10
306.499997
 20
94.378678
 30
0.0
 11
307.621317
 21
95.499998
 31
0.0
  0
LINE
  5
1BFF3
  8
DANMEN
  6
CONTINUOUS
 10
310.5
 20
95.499994
 30
0.0
 11
309.5
 21
88.999993
 31
0.0
  0
ARC
  5
1BFF5
  8
DANMEN
  6
CONTINUOUS
 10
308.999997
 20
89.0
 30
0.0
 40
0.5
 50
0.000019
 51
89.999982
  0
LINE
  5
1BFF6
  8
DANMEN
  6
CONTINUOUS
 10
309.257356
 20
95.499998
 30
0.0
 11
310.334307
 21
94.423048
 31
0.0
  0
LINE
  5
1BFF7
  8
DANMEN
  6
CONTINUOUS
 10
309.499997
 20
117.0
 30
0.0
 11
321.25
 21
117.0
 31
0.0
  0
LINE
  5
1BFF8
  8
DANMEN
  6
CONTINUOUS
 10
309.499997
 20
112.0
 30
0.0
 11
321.25
 21
112.0
 31
0.0
  0
LINE
  5
1BFF9
  8
DANMEN
  6
CONTINUOUS
 10
309.499997
 20
109.999966
 30
0.0
 11
321.25
 21
109.999966
 31
0.0
  0
LINE
  5
1BFFA
  8
DANMEN
  6
CONTINUOUS
 10
309.499994
 20
111.5
 30
0.0
 11
309.499994
 21
110.0
 31
0.0
  0
LINE
  5
1BFFB
  8
DANMEN
  6
CONTINUOUS
 10
307.136036
 20
103.499998
 30
0.0
 11
310.051464
 21
106.415427
 31
0.0
  0
LINE
  5
1BFFC
  8
DANMEN
  6
CONTINUOUS
 10
306.499997
 20
104.98528
 30
0.0
 11
309.768622
 21
108.253904
 31
0.0
  0
LINE
  5
1BFFD
  8
DANMEN
  6
CONTINUOUS
 10
306.499997
 20
107.1066
 30
0.0
 11
308.893395
 21
109.499998
 31
0.0
  0
LINE
  5
1BFFE
  8
DANMEN
  6
CONTINUOUS
 10
306.499997
 20
106.742639
 30
0.0
 11
309.742638
 21
103.499998
 31
0.0
  0
LINE
  5
1BFFF
  8
DANMEN
  6
CONTINUOUS
 10
306.499997
 20
108.86396
 30
0.0
 11
310.251998
 21
105.111959
 31
0.0
  0
LINE
  5
1C000
  8
DANMEN
  6
CONTINUOUS
 10
307.985279
 20
109.499998
 30
0.0
 11
309.866303
 21
107.618974
 31
0.0
  0
LINE
  5
1C001
  8
DANMEN
  6
CONTINUOUS
 10
308.999993
 20
109.5
 30
0.0
 11
304.499994
 21
109.5
 31
0.0
  0
LINE
  5
1C002
  8
DANMEN
  6
CONTINUOUS
 10
306.499997
 20
104.621319
 30
0.0
 11
307.621317
 21
103.499998
 31
0.0
  0
LINE
  5
1C005
  8
DANMEN
  6
CONTINUOUS
 10
304.499994
 20
110.05
 30
0.0
 11
304.499994
 21
109.5
 31
0.0
  0
LINE
  5
1C006
  8
DANMEN
  6
CONTINUOUS
 10
306.499997
 20
109.227921
 30
0.0
 11
306.772075
 21
109.499998
 31
0.0
  0
LINE
  5
1C007
  8
DANMEN
  6
CONTINUOUS
 10
310.499992
 20
103.499996
 30
0.0
 11
309.499992
 21
109.999997
 31
0.0
  0
LINE
  5
1C008
  8
DANMEN
  6
CONTINUOUS
 10
309.257356
 20
103.499998
 30
0.0
 11
310.334307
 21
104.576949
 31
0.0
  0
ARC
  5
1C00B
  8
DANMEN
  6
CONTINUOUS
 10
308.999994
 20
110.0
 30
0.0
 40
0.5
 50
270.0
 51
0.0
  0
ARC
  5
1C00D
  8
DANMEN
  6
CONTINUOUS
 10
308.499997
 20
115.5
 30
0.0
 40
1.0
 50
270.0
 51
0.0
  0
LINE
  5
1C00E
  8
DANMEN
  6
CONTINUOUS
 10
307.999997
 20
120.0
 30
0.0
 11
307.999997
 21
116.0
 31
0.0
  0
ARC
  5
1C00F
  8
DANMEN
  6
CONTINUOUS
 10
304.999997
 20
115.0
 30
0.0
 40
0.5
 50
180.0
 51
270.0
  0
ARC
  5
1C010
  8
DANMEN
  6
CONTINUOUS
 10
304.999997
 20
115.5
 30
0.0
 40
0.5
 50
90.0
 51
180.0
  0
LINE
  5
1C011
  8
DANMEN
  6
CONTINUOUS
 10
304.499997
 20
115.5
 30
0.0
 11
304.499997
 21
115.0
 31
0.0
  0
LINE
  5
1C014
  8
DANMEN
  6
CONTINUOUS
 10
304.999997
 20
114.5
 30
0.0
 11
308.499997
 21
114.5
 31
0.0
  0
LINE
  5
1C015
  8
DANMEN
  6
CONTINUOUS
 10
304.999997
 20
116.0
 30
0.0
 11
307.999997
 21
116.0
 31
0.0
  0
ARC
  5
1C01A
  8
DANMEN
  6
CONTINUOUS
 10
308.999994
 20
111.5
 30
0.0
 40
0.5
 50
0.000091
 51
90.000128
  0
LINE
  5
1C01D
  8
SUNPO
  6
CONTINUOUS
 10
21.0
 20
22.0
 30
0.0
 11
21.0
 21
31.0
 31
0.0
  0
LINE
  5
1C01F
  8
SUNPO
  6
CONTINUOUS
 10
52.5
 20
22.0
 30
0.0
 11
21.0
 21
22.0
 31
0.0
  0
ARC
  5
1C020
  8
SUNPO
  6
BYBLOCK
 10
21.0
 20
22.0
 30
0.0
 40
0.145
 50
270.0
 51
90.0
  0
ARC
  5
1C021
  8
SUNPO
  6
BYBLOCK
 10
21.0
 20
22.0
 30
0.0
 40
0.145
 50
90.0
 51
270.0
  0
TEXT
  5
1C022
  8
SUNPO
  6
CONTINUOUS
 10
20.0
 20
25.666667
 30
0.0
 40
2.5
  1
9
 50
90.0
  7
MX_NOTE_STANDARD
  0
TEXT
  5
1C023
  8
SUNPO
  6
CONTINUOUS
 10
46.333333
 20
15.0
 30
0.0
 40
2.5
  1
12
  7
MX_NOTE_STANDARD
  0
LINE
  5
1C024
  8
SUNPO
  6
CONTINUOUS
 10
54.0
 20
14.0
 30
0.0
 11
42.0
 21
14.0
 31
0.0
  0
LINE
  5
1C025
  8
SUNPO
  6
CONTINUOUS
 10
42.0
 20
29.5
 30
0.0
 11
42.0
 21
14.0
 31
0.0
  0
ARC
  5
1C026
  8
SUNPO
  6
BYBLOCK
 10
42.0
 20
14.0
 30
0.0
 40
0.145
 50
180.0
 51
0.0
  0
ARC
  5
1C027
  8
SUNPO
  6
BYBLOCK
 10
42.0
 20
14.0
 30
0.0
 40
0.145
 50
0.0
 51
180.0
  0
LINE
  5
1C028
  8
SUNPO
  6
CONTINUOUS
 10
54.0
 20
20.5
 30
0.0
 11
54.0
 21
14.0
 31
0.0
  0
ARC
  5
1C029
  8
SUNPO
  6
BYBLOCK
 10
54.0
 20
14.0
 30
0.0
 40
0.145
 50
0.0
 51
180.0
  0
ARC
  5
1C02A
  8
SUNPO
  6
BYBLOCK
 10
54.0
 20
14.0
 30
0.0
 40
0.145
 50
180.0
 51
0.0
  0
TEXT
  5
1C02B
  8
DANMEN
  6
CONTINUOUS
 10
400.021299
 20
105.25
 30
0.0
 40
2.5
  1
11
 50
90.0
  7
MX_NOTE_STANDARD
  0
LINE
  5
1C02C
  8
DANMEN
  6
CONTINUOUS
 10
397.13855
 20
101.0
 30
0.0
 11
401.021299
 21
101.0
 31
0.0
  0
LINE
  5
1C02D
  8
DANMEN
  6
CONTINUOUS
 10
393.499989
 20
112.0
 30
0.0
 11
401.021299
 21
112.0
 31
0.0
  0
LINE
  5
1C02E
  8
DANMEN
  6
CONTINUOUS
 10
401.5
 20
81.0
 30
0.0
 11
377.5
 21
81.0
 31
0.0
  0
LINE
  5
1C02F
  8
DANMEN
  6
CONTINUOUS
 10
400.350006
 20
82.649994
 30
0.0
 11
393.649994
 21
82.649994
 31
0.0
  0
LINE
  5
1C030
  8
DANMEN
  6
CONTINUOUS
 10
375.0
 20
75.649994
 30
0.0
 11
375.0
 21
105.299994
 31
0.0
  0
LINE
  5
1C031
  8
DANMEN
  6
CONTINUOUS
 10
348.2
 20
75.649994
 30
0.0
 11
348.2
 21
77.949991
 31
0.0
  0
LINE
  5
1C032
  8
DANMEN
  6
CONTINUOUS
 10
347.0
 20
74.499994
 30
0.0
 11
347.0
 21
88.999997
 31
0.0
  0
LINE
  5
1C033
  8
DANMEN
  6
CONTINUOUS
 10
377.0
 20
74.999994
 30
0.0
 11
377.0
 21
82.8
 31
0.0
  0
LINE
  5
1C034
  8
DANMEN
  6
CONTINUOUS
 10
375.0
 20
75.649994
 30
0.0
 11
348.2
 21
75.649994
 31
0.0
  0
LINE
  5
1C035
  8
DANMEN
  6
CONTINUOUS
 10
376.0
 20
73.999994
 30
0.0
 11
347.5
 21
73.999994
 31
0.0
  0
ARC
  5
1C038
  8
DANMEN
  6
CONTINUOUS
 10
347.5
 20
74.499994
 30
0.0
 40
0.5
 50
179.999999
 51
269.999981
  0
ARC
  5
1C03C
  8
DANMEN
  6
CONTINUOUS
 10
376.0
 20
74.999994
 30
0.0
 40
1.0
 50
270.0
 51
0.0
  0
LINE
  5
1C03D
  8
DANMEN
  6
CONTINUOUS
 10
347.500005
 20
112.0
 30
0.0
 11
367.000001
 21
112.0
 31
0.0
  0
LINE
  5
1C03E
  8
DANMEN
  6
CONTINUOUS
 10
365.700001
 20
108.35
 30
0.0
 11
369.734025
 21
108.35
 31
0.0
  0
LINE
  5
1C03F
  8
DANMEN
  6
CONTINUOUS
 10
359.0
 20
103.5
 30
0.0
 11
359.0
 21
95.5
 31
0.0
  0
LINE
  5
1C040
  8
DANMEN
  6
CONTINUOUS
 10
350.000001
 20
94.378678
 30
0.0
 11
348.878681
 21
95.499998
 31
0.0
  0
LINE
  5
1C041
  8
DANMEN
  6
CONTINUOUS
 10
350.000001
 20
92.257358
 30
0.0
 11
346.757361
 21
95.499998
 31
0.0
  0
LINE
  5
1C042
  8
DANMEN
  6
CONTINUOUS
 10
350.000001
 20
90.136037
 30
0.0
 11
346.248001
 21
93.888038
 31
0.0
  0
LINE
  5
1C043
  8
DANMEN
  6
CONTINUOUS
 10
350.000001
 20
94.014717
 30
0.0
 11
346.731377
 21
90.746092
 31
0.0
  0
LINE
  5
1C044
  8
DANMEN
  6
CONTINUOUS
 10
350.000001
 20
91.893397
 30
0.0
 11
347.606603
 21
89.499998
 31
0.0
  0
LINE
  5
1C045
  8
DANMEN
  6
CONTINUOUS
 10
348.65
 20
87.999997
 30
0.0
 11
357.5
 21
87.999997
 31
0.0
  0
LINE
  5
1C046
  8
DANMEN
  6
CONTINUOUS
 10
347.500001
 20
89.499997
 30
0.0
 11
352.0
 21
89.499997
 31
0.0
  0
LINE
  5
1C047
  8
DANMEN
  6
CONTINUOUS
 10
348.65
 20
77.949991
 30
0.0
 11
348.65
 21
87.999997
 31
0.0
  0
LINE
  5
1C04A
  8
DANMEN
  6
CONTINUOUS
 10
348.65
 20
77.949991
 30
0.0
 11
348.2
 21
77.949991
 31
0.0
  0
LINE
  5
1C04B
  8
DANMEN
  6
CONTINUOUS
 10
349.363962
 20
95.499998
 30
0.0
 11
346.448534
 21
92.58457
 31
0.0
  0
LINE
  5
1C04C
  8
DANMEN
  6
CONTINUOUS
 10
345.999999
 20
95.499994
 30
0.0
 11
346.999999
 21
88.999993
 31
0.0
  0
LINE
  5
1C04D
  8
DANMEN
  6
CONTINUOUS
 10
348.51472
 20
89.499998
 30
0.0
 11
346.633695
 21
91.381023
 31
0.0
  0
ARC
  5
1C04F
  8
DANMEN
  6
CONTINUOUS
 10
347.5
 20
88.999997
 30
0.0
 40
0.5
 50
90.0
 51
179.999982
  0
LINE
  5
1C050
  8
DANMEN
  6
CONTINUOUS
 10
347.242642
 20
95.499998
 30
0.0
 11
346.165691
 21
94.423048
 31
0.0
  0
ARC
  5
1C051
  8
DANMEN
  6
CONTINUOUS
 10
357.5
 20
88.999997
 30
0.0
 40
0.5
 50
0.0
 51
90.0
  0
ARC
  5
1C052
  8
DANMEN
  6
CONTINUOUS
 10
357.5
 20
88.499997
 30
0.0
 40
0.5
 50
270.0
 51
0.0
  0
LINE
  5
1C053
  8
DANMEN
  6
CONTINUOUS
 10
352.0
 20
88.999997
 30
0.0
 11
357.0
 21
88.999997
 31
0.0
  0
LINE
  5
1C054
  8
DANMEN
  6
CONTINUOUS
 10
350.000001
 20
89.772076
 30
0.0
 11
349.727923
 21
89.499998
 31
0.0
  0
LINE
  5
1C055
  8
DANMEN
  6
CONTINUOUS
 10
352.0
 20
88.999997
 30
0.0
 11
352.0
 21
89.499997
 31
0.0
  0
LINE
  5
1C058
  8
DANMEN
  6
CONTINUOUS
 10
357.0
 20
88.999997
 30
0.0
 11
357.0
 21
89.499997
 31
0.0
  0
LINE
  5
1C05A
  8
DANMEN
  6
CONTINUOUS
 10
357.0
 20
89.499997
 30
0.0
 11
357.5
 21
89.499997
 31
0.0
  0
LINE
  5
1C05D
  8
DANMEN
  6
CONTINUOUS
 10
358.0
 20
88.499997
 30
0.0
 11
358.0
 21
88.999997
 31
0.0
  0
LINE
  5
1C05F
  8
DANMEN
  6
CONTINUOUS
 10
350.000001
 20
107.1066
 30
0.0
 11
347.606603
 21
109.499998
 31
0.0
  0
LINE
  5
1C060
  8
DANMEN
  6
CONTINUOUS
 10
350.000001
 20
104.98528
 30
0.0
 11
346.731377
 21
108.253904
 31
0.0
  0
LINE
  5
1C061
  8
DANMEN
  6
CONTINUOUS
 10
350.000001
 20
108.86396
 30
0.0
 11
346.248001
 21
105.111959
 31
0.0
  0
LINE
  5
1C062
  8
DANMEN
  6
CONTINUOUS
 10
350.000001
 20
106.742639
 30
0.0
 11
346.757361
 21
103.499998
 31
0.0
  0
LINE
  5
1C063
  8
DANMEN
  6
CONTINUOUS
 10
350.000001
 20
104.621319
 30
0.0
 11
348.878681
 21
103.499998
 31
0.0
  0
LINE
  5
1C064
  8
DANMEN
  6
CONTINUOUS
 10
347.500005
 20
109.5
 30
0.0
 11
352.000004
 21
109.5
 31
0.0
  0
LINE
  5
1C065
  8
DANMEN
  6
CONTINUOUS
 10
347.000004
 20
111.5
 30
0.0
 11
347.000004
 21
110.0
 31
0.0
  0
LINE
  5
1C066
  8
DANMEN
  6
CONTINUOUS
 10
349.363962
 20
103.499998
 30
0.0
 11
346.448534
 21
106.415427
 31
0.0
  0
LINE
  5
1C067
  8
DANMEN
  6
CONTINUOUS
 10
346.000006
 20
103.499996
 30
0.0
 11
347.000006
 21
109.999997
 31
0.0
  0
LINE
  5
1C068
  8
DANMEN
  6
CONTINUOUS
 10
347.242642
 20
103.499998
 30
0.0
 11
346.165691
 21
104.576949
 31
0.0
  0
LINE
  5
1C06B
  8
DANMEN
  6
CONTINUOUS
 10
348.51472
 20
109.499998
 30
0.0
 11
346.633695
 21
107.618974
 31
0.0
  0
ARC
  5
1C06C
  8
DANMEN
  6
CONTINUOUS
 10
347.500004
 20
110.0
 30
0.0
 40
0.5
 50
180.0
 51
270.0
  0
ARC
  5
1C06E
  8
DANMEN
  6
CONTINUOUS
 10
347.500004
 20
111.5
 30
0.0
 40
0.5
 50
89.999872
 51
179.999909
  0
LINE
  5
1C070
  8
DANMEN
  6
CONTINUOUS
 10
352.000004
 20
110.05
 30
0.0
 11
364.700001
 21
110.05
 31
0.0
  0
LINE
  5
1C071
  8
DANMEN
  6
CONTINUOUS
 10
350.000001
 20
109.227921
 30
0.0
 11
349.727923
 21
109.499998
 31
0.0
  0
LINE
  5
1C074
  8
DANMEN
  6
CONTINUOUS
 10
352.000004
 20
110.05
 30
0.0
 11
352.000004
 21
109.5
 31
0.0
  0
ARC
  5
1C076
  8
DANMEN
  6
CONTINUOUS
 10
364.700001
 20
109.55
 30
0.0
 40
0.5
 50
0.0
 51
90.0
  0
LINE
  5
1C077
  8
DANMEN
  6
CONTINUOUS
 10
365.200001
 20
109.55
 30
0.0
 11
365.200001
 21
108.85
 31
0.0
  0
ARC
  5
1C078
  8
DANMEN
  6
CONTINUOUS
 10
365.700001
 20
108.85
 30
0.0
 40
0.5
 50
180.0
 51
270.0
  0
LINE
  5
1C07A
  8
DANMEN
  6
CONTINUOUS
 10
374.999999
 20
104.5
 30
0.0
 11
375.000001
 21
97.5
 31
0.0
  0
LINE
  5
1C07B
  8
DANMEN
  6
CONTINUOUS
 10
375.299999
 20
104.5
 30
0.0
 11
375.300001
 21
97.5
 31
0.0
  0
LINE
  5
1C07C
  8
DANMEN
  6
CONTINUOUS
 10
394.999998
 20
103.000001
 30
0.0
 11
395.0
 21
99.000005
 31
0.0
  0
LINE
  5
1C07D
  8
DANMEN
  6
CONTINUOUS
 10
378.274966
 20
99.37901
 30
0.0
 11
377.027505
 21
99.22751
 31
0.0
  0
LINE
  5
1C07E
  8
DANMEN
  6
CONTINUOUS
 10
377.027513
 20
102.772498
 30
0.0
 11
377.027514
 21
99.227503
 31
0.0
  0
LINE
  5
1C07F
  8
DANMEN
  6
DASHED
 10
375.0
 20
99.249295
 30
0.0
 11
376.214876
 21
99.85501
 31
0.0
  0
LINE
  5
1C080
  8
DANMEN
  6
CONTINUOUS
 10
378.274975
 20
102.999999
 30
0.0
 11
378.274976
 21
99.000003
 31
0.0
  0
LINE
  5
1C081
  8
DANMEN
  6
CONTINUOUS
 10
376.65
 20
97.494998
 30
0.0
 11
376.65
 21
110.35
 31
0.0
  0
LINE
  5
1C082
  8
DANMEN
  6
CONTINUOUS
 10
378.274976
 20
99.000002
 30
0.0
 11
394.999997
 21
99.000004
 31
0.0
  0
LINE
  5
1C083
  8
DANMEN
  6
CONTINUOUS
 10
387.849979
 20
84.45
 30
0.0
 11
376.65
 21
84.45
 31
0.0
  0
LINE
  5
1C084
  8
DANMEN
  6
CONTINUOUS
 10
376.65
 20
97.494998
 30
0.0
 11
391.299989
 21
97.494998
 31
0.0
  0
LINE
  5
1C085
  8
DANMEN
  6
CONTINUOUS
 10
376.65
 20
95.844999
 30
0.0
 11
388.799989
 21
95.844999
 31
0.0
  0
LINE
  5
1C086
  8
DANMEN
  6
CONTINUOUS
 10
391.799989
 20
82.8
 30
0.0
 11
377.0
 21
82.8
 31
0.0
  0
LINE
  5
1C087
  8
DANMEN
  6
CONTINUOUS
 10
390.0
 20
82.649994
 30
0.0
 11
377.5
 21
82.649994
 31
0.0
  0
LINE
  5
1C088
  8
DANMEN
  6
CONTINUOUS
 10
376.65
 20
84.45
 30
0.0
 11
376.65
 21
95.844999
 31
0.0
  0
LINE
  5
1C089
  8
DANMEN
  6
CONTINUOUS
 10
377.0
 20
81.5
 30
0.0
 11
377.0
 21
82.149994
 31
0.0
  0
ARC
  5
1C08A
  8
DANMEN
  6
CONTINUOUS
 10
377.5
 20
81.5
 30
0.0
 40
0.5
 50
179.999981
 51
269.999963
  0
ARC
  5
1C090
  8
DANMEN
  6
CONTINUOUS
 10
377.5
 20
82.149994
 30
0.0
 40
0.5
 50
90.0
 51
180.0
  0
LINE
  5
1C091
  8
DANMEN
  6
CONTINUOUS
 10
375.000001
 20
97.5
 30
0.0
 11
375.300001
 21
97.5
 31
0.0
  0
LINE
  5
1C092
  8
DANMEN
  6
CONTINUOUS
 10
378.274966
 20
99.000012
 30
0.0
 11
377.027505
 21
99.227513
 31
0.0
  0
LINE
  5
1C093
  8
DANMEN
  6
CONTINUOUS
 10
375.300001
 20
97.5
 30
0.0
 11
377.027508
 21
99.227508
 31
0.0
  0
LINE
  5
1C096
  8
DANMEN
  6
CONTINUOUS
 10
389.499989
 20
86.554246
 30
0.0
 11
392.0
 21
89.054257
 31
0.0
  0
LINE
  5
1C097
  8
DANMEN
  6
CONTINUOUS
 10
389.499989
 20
89.499998
 30
0.0
 11
389.499989
 21
84.299998
 31
0.0
  0
LINE
  5
1C098
  8
DANMEN
  6
CONTINUOUS
 10
387.849979
 20
90.649997
 30
0.0
 11
387.849979
 21
84.45
 31
0.0
  0
LINE
  5
1C099
  8
DANMEN
  6
CONTINUOUS
 10
390.074168
 20
84.299998
 30
0.0
 11
392.0
 21
86.22583
 31
0.0
  0
LINE
  5
1C09A
  8
DANMEN
  6
CONTINUOUS
 10
389.499989
 20
85.140032
 30
0.0
 11
392.0
 21
87.640044
 31
0.0
  0
LINE
  5
1C09B
  8
DANMEN
  6
CONTINUOUS
 10
389.499989
 20
84.299998
 30
0.0
 11
391.299989
 21
84.299998
 31
0.0
  0
LINE
  5
1C09C
  8
DANMEN
  6
CONTINUOUS
 10
392.0
 20
82.199997
 30
0.0
 11
390.0
 21
82.199997
 31
0.0
  0
LINE
  5
1C09F
  8
DANMEN
  6
CONTINUOUS
 10
390.0
 20
82.199997
 30
0.0
 11
390.0
 21
82.649994
 31
0.0
  0
LINE
  5
1C0A2
  8
DANMEN
  6
CONTINUOUS
 10
391.488381
 20
84.299998
 30
0.0
 11
392.0
 21
84.811616
 31
0.0
  0
ARC
  5
1C0A5
  8
DANMEN
  6
CONTINUOUS
 10
391.299989
 20
83.799998
 30
0.0
 40
0.5
 50
0.0
 51
89.999982
  0
LINE
  5
1C0A6
  8
DANMEN
  6
CONTINUOUS
 10
391.799989
 20
83.799998
 30
0.0
 11
391.799989
 21
82.8
 31
0.0
  0
LINE
  5
1C0A8
  8
DANMEN
  6
CONTINUOUS
 10
389.499989
 20
87.968459
 30
0.0
 11
391.031527
 21
89.499998
 31
0.0
  0
LINE
  5
1C0A9
  8
DANMEN
  6
CONTINUOUS
 10
389.499989
 20
89.499998
 30
0.0
 11
391.299989
 21
89.499998
 31
0.0
  0
LINE
  5
1C0AA
  8
DANMEN
  6
CONTINUOUS
 10
388.799989
 20
95.844999
 30
0.0
 11
388.799989
 21
91.149997
 31
0.0
  0
LINE
  5
1C0AB
  8
DANMEN
  6
CONTINUOUS
 10
389.499989
 20
89.382673
 30
0.0
 11
389.617313
 21
89.499998
 31
0.0
  0
ARC
  5
1C0AF
  8
DANMEN
  6
CONTINUOUS
 10
388.349979
 20
90.649997
 30
0.0
 40
0.5
 50
89.999982
 51
179.999964
  0
LINE
  5
1C0B0
  8
DANMEN
  6
CONTINUOUS
 10
388.349979
 20
91.149997
 30
0.0
 11
388.799989
 21
91.149997
 31
0.0
  0
LINE
  5
1C0B2
  8
DANMEN
  6
CONTINUOUS
 10
390.999989
 20
93.797498
 30
0.0
 11
390.999989
 21
93.197498
 31
0.0
  0
LINE
  5
1C0B5
  8
DANMEN
  6
CONTINUOUS
 10
391.299989
 20
93.197498
 30
0.0
 11
391.299989
 21
91.149997
 31
0.0
  0
LINE
  5
1C0B6
  8
DANMEN
  6
CONTINUOUS
 10
390.999989
 20
93.197498
 30
0.0
 11
391.299989
 21
93.197498
 31
0.0
  0
ARC
  5
1C0B8
  8
DANMEN
  6
CONTINUOUS
 10
391.299989
 20
90.649997
 30
0.0
 40
0.5
 50
0.0
 51
90.0
  0
ARC
  5
1C0BA
  8
DANMEN
  6
CONTINUOUS
 10
391.299989
 20
89.999998
 30
0.0
 40
0.5
 50
270.0
 51
0.0
  0
LINE
  5
1C0BC
  8
DANMEN
  6
CONTINUOUS
 10
391.799989
 20
90.649997
 30
0.0
 11
391.799989
 21
89.999998
 31
0.0
  0
LINE
  5
1C0C0
  8
DANMEN
  6
CONTINUOUS
 10
390.999989
 20
93.797498
 30
0.0
 11
391.299989
 21
93.797498
 31
0.0
  0
ARC
  5
1C0C4
  8
DANMEN
  6
CONTINUOUS
 10
391.299989
 20
96.344999
 30
0.0
 40
0.5
 50
270.0
 51
0.0
  0
ARC
  5
1C0C5
  8
DANMEN
  6
CONTINUOUS
 10
391.299989
 20
96.994998
 30
0.0
 40
0.5
 50
0.0
 51
90.0
  0
LINE
  5
1C0C6
  8
DANMEN
  6
CONTINUOUS
 10
391.799989
 20
96.994998
 30
0.0
 11
391.799989
 21
96.344999
 31
0.0
  0
LINE
  5
1C0C7
  8
DANMEN
  6
CONTINUOUS
 10
391.299989
 20
95.844999
 30
0.0
 11
391.299989
 21
93.797498
 31
0.0
  0
LINE
  5
1C0C8
  8
DANMEN
  6
CENTER
 10
373.960146
 20
101.0
 30
0.0
 11
395.63855
 21
101.0
 31
0.0
  0
LINE
  5
1C0C9
  8
DANMEN
  6
CONTINUOUS
 10
378.274975
 20
102.999999
 30
0.0
 11
394.999997
 21
103.0
 31
0.0
  0
LINE
  5
1C0CA
  8
DANMEN
  6
CONTINUOUS
 10
378.274976
 20
99.379003
 30
0.0
 11
394.999996
 21
99.379005
 31
0.0
  0
LINE
  5
1C0CB
  8
DANMEN
  6
CONTINUOUS
 10
378.274975
 20
102.620998
 30
0.0
 11
394.999996
 21
102.621
 31
0.0
  0
LINE
  5
1C0CC
  8
DANMEN
  6
CONTINUOUS
 10
376.65
 20
110.35
 30
0.0
 11
390.499989
 21
110.35
 31
0.0
  0
LINE
  5
1C0CD
  8
DANMEN
  6
CONTINUOUS
 10
367.0
 20
112.0
 30
0.0
 11
391.999989
 21
112.0
 31
0.0
  0
LINE
  5
1C0CE
  8
DANMEN
  6
CONTINUOUS
 10
367.000001
 20
112.0
 30
0.0
 11
367.000001
 21
110.05
 31
0.0
  0
LINE
  5
1C0CF
  8
DANMEN
  6
CONTINUOUS
 10
367.0
 20
112.0
 30
0.0
 11
367.0
 21
110.292199
 31
0.0
  0
ARC
  5
1C0D0
  8
DANMEN
  6
CONTINUOUS
 10
374.000896
 20
108.0
 30
0.0
 40
0.5
 50
325.291951
 51
145.291951
  0
LINE
  5
1C0D1
  8
DANMEN
  6
CONTINUOUS
 10
373.500896
 20
106.4
 30
0.0
 11
374.411928
 21
107.715302
 31
0.0
  0
LINE
  5
1C0D2
  8
DANMEN
  6
CONTINUOUS
 10
371.0
 20
106.499994
 30
0.0
 11
375.0
 21
106.499994
 31
0.0
  0
LINE
  5
1C0D3
  8
DANMEN
  6
CONTINUOUS
 10
369.0
 20
105.299994
 30
0.0
 11
375.0
 21
105.299994
 31
0.0
  0
LINE
  5
1C0D4
  8
DANMEN
  6
CONTINUOUS
 10
369.0
 20
110.35
 30
0.0
 11
375.0
 21
110.35
 31
0.0
  0
LINE
  5
1C0D5
  8
DANMEN
  6
CONTINUOUS
 10
369.650796
 20
109.930331
 30
0.0
 11
372.709896
 21
107.568364
 31
0.0
  0
LINE
  5
1C0D6
  8
DANMEN
  6
CONTINUOUS
 10
369.734025
 20
108.35
 30
0.0
 11
372.259566
 21
106.4
 31
0.0
  0
LINE
  5
1C0D7
  8
DANMEN
  6
CONTINUOUS
 10
371.0
 20
106.499994
 30
0.0
 11
369.401942
 21
106.180382
 31
0.0
  0
LINE
  5
1C0D9
  8
DANMEN
  6
CONTINUOUS
 10
366.700001
 20
109.55
 30
0.0
 11
368.681629
 21
109.55
 31
0.0
  0
LINE
  5
1C0DC
  8
DANMEN
  6
CONTINUOUS
 10
366.700001
 20
110.05
 30
0.0
 11
366.700001
 21
109.55
 31
0.0
  0
LINE
  5
1C0DD
  8
DANMEN
  6
CONTINUOUS
 10
366.700001
 20
110.05
 30
0.0
 11
367.000001
 21
110.05
 31
0.0
  0
ARC
  5
1C0E2
  8
DANMEN
  6
CONTINUOUS
 10
369.399937
 20
109.497816
 30
0.0
 40
0.5
 50
59.886267
 51
153.881419
  0
ARC
  5
1C0E4
  8
DANMEN
  6
CONTINUOUS
 10
368.681629
 20
109.85
 30
0.0
 40
0.3
 50
270.0
 51
333.881419
  0
ARC
  5
1C0E9
  8
DANMEN
  6
CONTINUOUS
 10
369.5
 20
105.690092
 30
0.0
 40
0.5
 50
101.309932
 51
180.0
  0
LINE
  5
1C0EA
  8
DANMEN
  6
CONTINUOUS
 10
369.0
 20
105.690092
 30
0.0
 11
369.0
 21
105.299994
 31
0.0
  0
LINE
  5
1C0EE
  8
DANMEN
  6
CONTINUOUS
 10
368.7
 20
109.5
 30
0.0
 11
367.996245
 21
109.5
 31
0.0
  0
ARC
  5
1C0EF
  8
DANMEN
  6
CONTINUOUS
 10
367.5
 20
110.292199
 30
0.0
 40
0.5
 50
180.0
 51
240.603827
  0
LINE
  5
1C0F0
  8
DANMEN
  6
CONTINUOUS
 10
367.996245
 20
109.5
 30
0.0
 11
367.254577
 21
109.856576
 31
0.0
  0
LINE
  5
1C0F1
  8
DANMEN
  6
CONTINUOUS
 10
369.0
 20
109.8
 30
0.0
 11
369.0
 21
110.35
 31
0.0
  0
ARC
  5
1C0F2
  8
DANMEN
  6
CONTINUOUS
 10
368.7
 20
109.8
 30
0.0
 40
0.3
 50
270.0
 51
0.0
  0
LINE
  5
1C0F6
  8
DANMEN
  6
CONTINUOUS
 10
372.259566
 20
106.4
 30
0.0
 11
373.500896
 21
106.4
 31
0.0
  0
LINE
  5
1C0FA
  8
DANMEN
  6
CONTINUOUS
 10
373.139858
 20
107.635002
 30
0.0
 11
373.589864
 21
108.284698
 31
0.0
  0
ARC
  5
1C0FB
  8
DANMEN
  6
CONTINUOUS
 10
372.893239
 20
107.80582
 30
0.0
 40
0.3
 50
232.327843
 51
325.291951
  0
LINE
  5
1C100
  8
DANMEN
  6
CONTINUOUS
 10
374.999999
 20
104.5
 30
0.0
 11
375.299999
 21
104.5
 31
0.0
  0
LINE
  5
1C101
  8
DANMEN
  6
CONTINUOUS
 10
378.274967
 20
102.620991
 30
0.0
 11
377.027505
 21
102.772489
 31
0.0
  0
LINE
  5
1C102
  8
DANMEN
  6
CONTINUOUS
 10
378.274967
 20
102.999986
 30
0.0
 11
377.027504
 21
102.772484
 31
0.0
  0
LINE
  5
1C103
  8
DANMEN
  6
CONTINUOUS
 10
375.299998
 20
104.5
 30
0.0
 11
377.027508
 21
102.772491
 31
0.0
  0
ARC
  5
1C104
  8
DANMEN
  6
DASHED
 10
376.257402
 20
101.0
 30
0.0
 40
0.5
 50
332.000013
 51
28.000078
  0
LINE
  5
1C105
  8
DANMEN
  6
DASHED
 10
376.214876
 20
99.855011
 30
0.0
 11
376.698867
 21
100.765266
 31
0.0
  0
LINE
  5
1C106
  8
DANMEN
  6
DASHED
 10
376.214875
 20
102.144989
 30
0.0
 11
376.698866
 21
101.234736
 31
0.0
  0
LINE
  5
1C107
  8
DANMEN
  6
DASHED
 10
375.0
 20
102.750707
 30
0.0
 11
376.214875
 21
102.144993
 31
0.0
  0
LINE
  5
1C10E
  8
DANMEN
  6
CONTINUOUS
 10
375.0
 20
106.499994
 30
0.0
 11
375.0
 21
110.35
 31
0.0
  0
LINE
  5
1C111
  8
DANMEN
  6
CONTINUOUS
 10
391.999989
 20
109.499994
 30
0.0
 11
391.999989
 21
112.0
 31
0.0
  0
LINE
  5
1C112
  8
DANMEN
  6
CONTINUOUS
 10
390.499989
 20
108.999994
 30
0.0
 11
391.499989
 21
108.999994
 31
0.0
  0
LINE
  5
1C115
  8
DANMEN
  6
CONTINUOUS
 10
390.499989
 20
108.999994
 30
0.0
 11
390.499989
 21
110.35
 31
0.0
  0
ARC
  5
1C117
  8
DANMEN
  6
CONTINUOUS
 10
391.499989
 20
109.499994
 30
0.0
 40
0.5
 50
270.0
 51
0.0
  0
LINE
  5
1C11B
  8
SUNPO
  6
CONTINUOUS
 10
40.5
 20
58.0
 30
0.0
 11
28.0
 21
58.0
 31
0.0
  0
LINE
  5
1C11C
  8
SUNPO
  6
CONTINUOUS
 10
40.5
 20
43.0
 30
0.0
 11
28.0
 21
43.0
 31
0.0
  0
LINE
  5
1C11D
  8
SUNPO
  6
CONTINUOUS
 10
40.5
 20
31.0
 30
0.0
 11
21.0
 21
31.0
 31
0.0
  0
LINE
  5
1C11E
  8
SUNPO
  6
CONTINUOUS
 10
40.5
 20
51.0
 30
0.0
 11
21.0
 21
51.0
 31
0.0
  0
LINE
  5
1C11F
  8
SUNPO
  6
CONTINUOUS
 10
28.0
 20
51.0
 30
0.0
 11
28.0
 21
58.0
 31
0.0
  0
TEXT
  5
1C120
  8
SUNPO
  6
CONTINUOUS
 10
20.0
 20
39.125
 30
0.0
 40
2.5
  1
20
 50
90.0
  7
MX_NOTE_STANDARD
  0
LINE
  5
1C121
  8
SUNPO
  6
CONTINUOUS
 10
28.0
 20
31.0
 30
0.0
 11
28.0
 21
43.0
 31
0.0
  0
LINE
  5
1C122
  8
SUNPO
  6
CONTINUOUS
 10
21.0
 20
31.0
 30
0.0
 11
21.0
 21
51.0
 31
0.0
  0
ARC
  5
1C123
  8
SUNPO
  6
BYBLOCK
 10
21.0
 20
31.0
 30
0.0
 40
0.145
 50
270.0
 51
90.0
  0
ARC
  5
1C124
  8
SUNPO
  6
BYBLOCK
 10
21.0
 20
31.0
 30
0.0
 40
0.145
 50
90.0
 51
270.0
  0
ARC
  5
1C125
  8
SUNPO
  6
BYBLOCK
 10
21.0
 20
31.0
 30
0.0
 40
0.145
 50
90.0
 51
270.0
  0
ARC
  5
1C126
  8
SUNPO
  6
BYBLOCK
 10
21.0
 20
31.0
 30
0.0
 40
0.145
 50
270.0
 51
90.0
  0
TEXT
  5
1C127
  8
SUNPO
  6
CONTINUOUS
 10
27.0
 20
35.333333
 30
0.0
 40
2.5
  1
12
 50
90.0
  7
MX_NOTE_STANDARD
  0
ARC
  5
1C128
  8
SUNPO
  6
BYBLOCK
 10
28.0
 20
31.0
 30
0.0
 40
0.145
 50
270.0
 51
90.0
  0
ARC
  5
1C129
  8
SUNPO
  6
BYBLOCK
 10
28.0
 20
31.0
 30
0.0
 40
0.145
 50
90.0
 51
270.0
  0
ARC
  5
1C12A
  8
SUNPO
  6
BYBLOCK
 10
21.0
 20
51.0
 30
0.0
 40
0.145
 50
90.0
 51
270.0
  0
ARC
  5
1C12B
  8
SUNPO
  6
BYBLOCK
 10
21.0
 20
51.0
 30
0.0
 40
0.145
 50
270.0
 51
90.0
  0
ARC
  5
1C12C
  8
SUNPO
  6
BYBLOCK
 10
21.0
 20
51.0
 30
0.0
 40
0.145
 50
270.0
 51
90.0
  0
ARC
  5
1C12D
  8
SUNPO
  6
BYBLOCK
 10
21.0
 20
51.0
 30
0.0
 40
0.145
 50
90.0
 51
270.0
  0
TEXT
  5
1C12E
  8
SUNPO
  6
CONTINUOUS
 10
27.0
 20
46.166667
 30
0.0
 40
2.5
  1
8
 50
90.0
  7
MX_NOTE_STANDARD
  0
LINE
  5
1C12F
  8
SUNPO
  6
CONTINUOUS
 10
28.0
 20
43.0
 30
0.0
 11
28.0
 21
51.0
 31
0.0
  0
ARC
  5
1C130
  8
SUNPO
  6
BYBLOCK
 10
28.0
 20
43.0
 30
0.0
 40
0.145
 50
270.0
 51
90.0
  0
ARC
  5
1C131
  8
SUNPO
  6
BYBLOCK
 10
28.0
 20
43.0
 30
0.0
 40
0.145
 50
90.0
 51
270.0
  0
ARC
  5
1C132
  8
SUNPO
  6
BYBLOCK
 10
28.0
 20
43.0
 30
0.0
 40
0.145
 50
90.0
 51
270.0
  0
ARC
  5
1C133
  8
SUNPO
  6
BYBLOCK
 10
28.0
 20
43.0
 30
0.0
 40
0.145
 50
270.0
 51
90.0
  0
ARC
  5
1C134
  8
SUNPO
  6
BYBLOCK
 10
28.0
 20
51.0
 30
0.0
 40
0.145
 50
270.0
 51
90.0
  0
ARC
  5
1C135
  8
SUNPO
  6
BYBLOCK
 10
28.0
 20
51.0
 30
0.0
 40
0.145
 50
90.0
 51
270.0
  0
ARC
  5
1C136
  8
SUNPO
  6
BYBLOCK
 10
28.0
 20
51.0
 30
0.0
 40
0.145
 50
90.0
 51
270.0
  0
ARC
  5
1C137
  8
SUNPO
  6
BYBLOCK
 10
28.0
 20
51.0
 30
0.0
 40
0.145
 50
270.0
 51
90.0
  0
TEXT
  5
1C138
  8
SUNPO
  6
CONTINUOUS
 10
27.0
 20
53.666667
 30
0.0
 40
2.5
  1
7
 50
90.0
  7
MX_NOTE_STANDARD
  0
ARC
  5
1C139
  8
SUNPO
  6
BYBLOCK
 10
28.0
 20
58.0
 30
0.0
 40
0.145
 50
90.0
 51
270.0
  0
ARC
  5
1C13A
  8
SUNPO
  6
BYBLOCK
 10
28.0
 20
58.0
 30
0.0
 40
0.145
 50
270.0
 51
90.0
  0
LINE
  5
1C13B
  8
DANMEN
  6
CONTINUOUS
 10
402.0
 20
86.5
 30
0.0
 11
402.0
 21
81.5
 31
0.0
  0
ARC
  5
1C13D
  8
DANMEN
  6
CONTINUOUS
 10
401.5
 20
81.5
 30
0.0
 40
0.5
 50
270.000018
 51
359.999981
  0
ARC
  5
1C141
  8
DANMEN
  6
CONTINUOUS
 10
401.5
 20
86.5
 30
0.0
 40
0.5
 50
359.999981
 51
90.000037
  0
ARC
  5
1C142
  8
DANMEN
  6
CONTINUOUS
 10
400.850006
 20
86.5
 30
0.0
 40
0.5
 50
90.000037
 51
180.000019
  0
LINE
  5
1C143
  8
DANMEN
  6
CONTINUOUS
 10
400.350006
 20
86.5
 30
0.0
 11
400.350006
 21
82.649994
 31
0.0
  0
LINE
  5
1C144
  8
DANMEN
  6
CONTINUOUS
 10
401.5
 20
87.0
 30
0.0
 11
400.850006
 21
87.0
 31
0.0
  0
LINE
  5
1C145
  8
DANMEN
  6
CONTINUOUS
 10
401.021299
 20
112.0
 30
0.0
 11
401.021299
 21
101.0
 31
0.0
  0
ARC
  5
1C146
  8
DANMEN
  6
BYBLOCK
 10
401.021299
 20
101.0
 30
0.0
 40
0.145
 50
270.0
 51
90.0
  0
ARC
  5
1C147
  8
DANMEN
  6
BYBLOCK
 10
401.021299
 20
101.0
 30
0.0
 40
0.145
 50
90.0
 51
270.0
  0
ARC
  5
1C148
  8
DANMEN
  6
BYBLOCK
 10
401.021299
 20
112.0
 30
0.0
 40
0.145
 50
90.0
 51
270.0
  0
ARC
  5
1C149
  8
DANMEN
  6
BYBLOCK
 10
401.021299
 20
112.0
 30
0.0
 40
0.145
 50
270.0
 51
90.0
  0
TEXT
  5
1C14A
  8
SUNPO
  6
CONTINUOUS
 10
20.0
 20
105.5
 30
0.0
 40
2.5
  1
114
 50
90.0
  7
MX_NOTE_STANDARD
  0
LINE
  5
1C14B
  8
SUNPO
  6
CONTINUOUS
 10
187.0
 20
26.322886
 30
0.0
 11
196.111405
 21
29.639166
 31
0.0
  0
LINE
  5
1C14C
  8
SUNPO
  6
CONTINUOUS
 10
232.0
 20
39.0
 30
0.0
 11
187.0
 21
39.0
 31
0.0
  0
LINE
  5
1C14D
  8
SUNPO
  6
CONTINUOUS
 10
187.0
 20
18.0
 30
0.0
 11
267.0
 21
18.0
 31
0.0
  0
LINE
  5
1C14E
  8
SUNPO
  6
CONTINUOUS
 10
254.5
 20
26.322886
 30
0.0
 11
187.0
 21
26.322886
 31
0.0
  0
LINE
  5
1C14F
  8
SUNPO
  6
CONTINUOUS
 10
162.0
 20
79.5
 30
0.0
 11
162.0
 21
18.0
 31
0.0
  0
LINE
  5
1C150
  8
SUNPO
  6
CONTINUOUS
 10
187.0
 20
79.5
 30
0.0
 11
187.0
 21
18.0
 31
0.0
  0
LINE
  5
1C151
  8
SUNPO
  6
CONTINUOUS
 10
156.0
 20
31.0
 30
0.0
 11
156.0
 21
22.0
 31
0.0
  0
LINE
  5
1C152
  8
SUNPO
  6
CONTINUOUS
 10
187.0
 20
18.0
 30
0.0
 11
162.0
 21
18.0
 31
0.0
  0
ARC
  5
1C153
  8
SUNPO
  6
BYBLOCK
 10
162.0
 20
18.0
 30
0.0
 40
0.15625
 50
0.0
 51
180.0
  0
ARC
  5
1C154
  8
SUNPO
  6
BYBLOCK
 10
162.0
 20
18.0
 30
0.0
 40
0.15625
 50
180.0
 51
0.0
  0
TEXT
  5
1C155
  8
SUNPO
  6
CONTINUOUS
 10
155.0
 20
25.666667
 30
0.0
 40
2.5
  1
9
 50
90.0
  7
MX_NOTE_STANDARD
  0
ARC
  5
1C156
  8
SUNPO
  6
BYBLOCK
 10
156.0
 20
22.0
 30
0.0
 40
0.145
 50
270.0
 51
90.0
  0
ARC
  5
1C157
  8
SUNPO
  6
BYBLOCK
 10
156.0
 20
22.0
 30
0.0
 40
0.145
 50
90.0
 51
270.0
  0
TEXT
  5
1C158
  8
SUNPO
  6
CONTINUOUS
 10
172.416667
 20
19.0
 30
0.0
 40
2.5
  1
25
  7
MX_NOTE_STANDARD
  0
LINE
  5
1C159
  8
SUNPO
  6
CONTINUOUS
 10
187.0
 20
18.0
 30
0.0
 11
192.0
 21
23.0
 31
0.0
  0
LINE
  5
1C15A
  8
SUNPO
  6
CONTINUOUS
 10
192.0
 20
23.0
 30
0.0
 11
192.0
 21
13.0
 31
0.0
  0
LINE
  5
1C15B
  8
SUNPO
  6
CONTINUOUS
 10
192.0
 20
13.0
 30
0.0
 11
187.0
 21
18.0
 31
0.0
  0
LINE
  5
1C160
  8
SUNPO
  6
CONTINUOUS
 10
113.5
 20
31.0
 30
0.0
 11
156.0
 21
31.0
 31
0.0
  0
LINE
  5
1C161
  8
SUNPO
  6
CONTINUOUS
 10
113.499999
 20
56.0
 30
0.0
 11
144.685645
 21
56.0
 31
0.0
  0
LINE
  5
1C162
  8
SUNPO
  6
CONTINUOUS
 10
113.499999
 20
91.0
 30
0.0
 11
144.685645
 21
91.0
 31
0.0
  0
LINE
  5
1C163
  8
SUNPO
  6
CONTINUOUS
 10
113.499999
 20
56.0
 30
0.0
 11
144.685645
 21
56.0
 31
0.0
  0
LINE
  5
1C164
  8
SUNPO
  6
CONTINUOUS
 10
113.5
 20
91.0
 30
0.0
 11
136.221192
 21
91.0
 31
0.0
  0
LINE
  5
1C165
  8
SUNPO
  6
CONTINUOUS
 10
120.499996
 20
111.000003
 30
0.0
 11
136.221192
 21
111.000003
 31
0.0
  0
LINE
  5
1C166
  8
SUNPO
  6
CONTINUOUS
 10
120.499996
 20
111.000003
 30
0.0
 11
136.221192
 21
111.000003
 31
0.0
  0
LINE
  5
1C167
  8
SUNPO
  6
CONTINUOUS
 10
172.0
 20
79.5
 30
0.0
 11
172.0
 21
39.0
 31
0.0
  0
LINE
  5
1C168
  8
SUNPO
  6
CONTINUOUS
 10
156.0
 20
31.0
 30
0.0
 11
156.0
 21
91.0
 31
0.0
  0
LINE
  5
1C169
  8
SUNPO
  6
CONTINUOUS
 10
144.685645
 20
91.0
 30
0.0
 11
144.685645
 21
56.0
 31
0.0
  0
LINE
  5
1C16A
  8
SUNPO
  6
CONTINUOUS
 10
172.0
 20
39.0
 30
0.0
 11
162.0
 21
39.0
 31
0.0
  0
LINE
  5
1C16B
  8
SUNPO
  6
CONTINUOUS
 10
144.685645
 20
56.0
 30
0.0
 11
144.685645
 21
31.0
 31
0.0
  0
ARC
  5
1C16C
  8
SUNPO
  6
BYBLOCK
 10
144.685645
 20
31.0
 30
0.0
 40
0.145
 50
270.0
 51
90.0
  0
ARC
  5
1C16D
  8
SUNPO
  6
BYBLOCK
 10
144.685645
 20
31.0
 30
0.0
 40
0.145
 50
90.0
 51
270.0
  0
TEXT
  5
1C16E
  8
SUNPO
  6
CONTINUOUS
 10
143.685645
 20
41.416667
 30
0.0
 40
2.5
  1
25
 50
90.0
  7
MX_NOTE_STANDARD
  0
ARC
  5
1C16F
  8
SUNPO
  6
BYBLOCK
 10
156.0
 20
31.0
 30
0.0
 40
0.145
 50
270.0
 51
90.0
  0
ARC
  5
1C170
  8
SUNPO
  6
BYBLOCK
 10
156.0
 20
31.0
 30
0.0
 40
0.145
 50
90.0
 51
270.0
  0
ARC
  5
1C171
  8
SUNPO
  6
BYBLOCK
 10
156.0
 20
31.0
 30
0.0
 40
0.145
 50
90.0
 51
270.0
  0
ARC
  5
1C172
  8
SUNPO
  6
BYBLOCK
 10
156.0
 20
31.0
 30
0.0
 40
0.145
 50
270.0
 51
90.0
  0
ARC
  5
1C173
  8
SUNPO
  6
BYBLOCK
 10
162.0
 20
39.0
 30
0.0
 40
0.145
 50
180.0
 51
0.0
  0
ARC
  5
1C174
  8
SUNPO
  6
BYBLOCK
 10
162.0
 20
39.0
 30
0.0
 40
0.145
 50
0.0
 51
180.0
  0
ARC
  5
1C175
  8
SUNPO
  6
BYBLOCK
 10
144.685645
 20
56.0
 30
0.0
 40
0.145
 50
270.0
 51
90.0
  0
ARC
  5
1C176
  8
SUNPO
  6
BYBLOCK
 10
144.685645
 20
56.0
 30
0.0
 40
0.145
 50
90.0
 51
270.0
  0
ARC
  5
1C177
  8
SUNPO
  6
BYBLOCK
 10
144.685645
 20
56.0
 30
0.0
 40
0.145
 50
90.0
 51
270.0
  0
ARC
  5
1C178
  8
SUNPO
  6
BYBLOCK
 10
144.685645
 20
56.0
 30
0.0
 40
0.145
 50
270.0
 51
90.0
  0
TEXT
  5
1C179
  8
SUNPO
  6
CONTINUOUS
 10
143.685645
 20
71.416667
 30
0.0
 40
2.5
  1
35
 50
90.0
  7
MX_NOTE_STANDARD
  0
TEXT
  5
1C17A
  8
SUNPO
  6
CONTINUOUS
 10
155.0
 20
59.125
 30
0.0
 40
2.5
  1
60
 50
90.0
  7
MX_NOTE_STANDARD
  0
TEXT
  5
1C17B
  8
SUNPO
  6
CONTINUOUS
 10
177.833333
 20
40.0
 30
0.0
 40
2.5
  1
15
  7
MX_NOTE_STANDARD
  0
LINE
  5
1C17C
  8
SUNPO
  6
CONTINUOUS
 10
187.0
 20
39.0
 30
0.0
 11
172.0
 21
39.0
 31
0.0
  0
TEXT
  5
1C17D
  8
SUNPO
  6
CONTINUOUS
 10
165.541667
 20
40.0
 30
0.0
 40
2.5
  1
10
  7
MX_NOTE_STANDARD
  0
ARC
  5
1C17E
  8
SUNPO
  6
BYBLOCK
 10
172.0
 20
39.0
 30
0.0
 40
0.145
 50
0.0
 51
180.0
  0
ARC
  5
1C17F
  8
SUNPO
  6
BYBLOCK
 10
172.0
 20
39.0
 30
0.0
 40
0.145
 50
180.0
 51
0.0
  0
ARC
  5
1C180
  8
SUNPO
  6
BYBLOCK
 10
172.0
 20
39.0
 30
0.0
 40
0.145
 50
180.0
 51
0.0
  0
ARC
  5
1C181
  8
SUNPO
  6
BYBLOCK
 10
172.0
 20
39.0
 30
0.0
 40
0.145
 50
0.0
 51
180.0
  0
ARC
  5
1C182
  8
SUNPO
  6
BYBLOCK
 10
187.0
 20
39.0
 30
0.0
 40
0.145
 50
0.0
 51
180.0
  0
ARC
  5
1C183
  8
SUNPO
  6
BYBLOCK
 10
187.0
 20
39.0
 30
0.0
 40
0.145
 50
180.0
 51
0.0
  0
ARC
  5
1C184
  8
SUNPO
  6
BYBLOCK
 10
187.0
 20
39.0
 30
0.0
 40
0.145
 50
180.0
 51
0.0
  0
ARC
  5
1C185
  8
SUNPO
  6
BYBLOCK
 10
187.0
 20
39.0
 30
0.0
 40
0.145
 50
0.0
 51
180.0
  0
TEXT
  5
1C186
  8
SUNPO
  6
CONTINUOUS
 10
135.221192
 20
99.125001
 30
0.0
 40
2.5
  1
20
 50
90.0
  7
MX_NOTE_STANDARD
  0
LINE
  5
1C187
  8
SUNPO
  6
CONTINUOUS
 10
136.221192
 20
111.000003
 30
0.0
 11
136.221192
 21
91.0
 31
0.0
  0
LINE
  5
1C188
  8
SUNPO
  6
CONTINUOUS
 10
133.5
 20
91.0
 30
0.0
 11
156.0
 21
91.0
 31
0.0
  0
LINE
  5
1C189
  8
SUNPO
  6
CONTINUOUS
 10
137.721191
 20
91.0
 30
0.0
 11
144.685645
 21
91.0
 31
0.0
  0
ARC
  5
1C18A
  8
SUNPO
  6
BYBLOCK
 10
136.221192
 20
91.0
 30
0.0
 40
0.145
 50
270.0
 51
90.0
  0
ARC
  5
1C18B
  8
SUNPO
  6
BYBLOCK
 10
136.221192
 20
91.0
 30
0.0
 40
0.145
 50
90.0
 51
270.0
  0
ARC
  5
1C18C
  8
SUNPO
  6
BYBLOCK
 10
144.685645
 20
91.0
 30
0.0
 40
0.145
 50
90.0
 51
270.0
  0
ARC
  5
1C18D
  8
SUNPO
  6
BYBLOCK
 10
144.685645
 20
91.0
 30
0.0
 40
0.145
 50
270.0
 51
90.0
  0
ARC
  5
1C18E
  8
SUNPO
  6
BYBLOCK
 10
144.685645
 20
91.0
 30
0.0
 40
0.145
 50
270.0
 51
90.0
  0
ARC
  5
1C18F
  8
SUNPO
  6
BYBLOCK
 10
144.685645
 20
91.0
 30
0.0
 40
0.145
 50
90.0
 51
270.0
  0
LINE
  5
1C190
  8
SUNPO
  6
CONTINUOUS
 10
161.0
 20
96.0
 30
0.0
 11
151.0
 21
96.0
 31
0.0
  0
LINE
  5
1C191
  8
SUNPO
  6
CONTINUOUS
 10
151.0
 20
96.0
 30
0.0
 11
156.0
 21
91.0
 31
0.0
  0
LINE
  5
1C193
  8
SUNPO
  6
CONTINUOUS
 10
156.0
 20
91.0
 30
0.0
 11
161.0
 21
96.0
 31
0.0
  0
ARC
  5
1C196
  8
SUNPO
  6
BYBLOCK
 10
136.221192
 20
111.000003
 30
0.0
 40
0.145
 50
90.0
 51
270.0
  0
ARC
  5
1C197
  8
SUNPO
  6
BYBLOCK
 10
136.221192
 20
111.000003
 30
0.0
 40
0.145
 50
270.0
 51
90.0
  0
ARC
  5
1C198
  8
SUNPO
  6
BYBLOCK
 10
136.221192
 20
111.000003
 30
0.0
 40
0.145
 50
270.0
 51
90.0
  0
ARC
  5
1C199
  8
SUNPO
  6
BYBLOCK
 10
136.221192
 20
111.000003
 30
0.0
 40
0.145
 50
90.0
 51
270.0
  0
TEXT
  5
1C19A
  8
SUNPO
  6
CONTINUOUS
 10
143.685645
 20
109.916668
 30
0.0
 40
2.5
  1
42
 50
90.0
  7
MX_NOTE_STANDARD
  0
TEXT
  5
1C19B
  8
SUNPO
  6
CONTINUOUS
 10
279.916664
 20
27.322886
 30
0.0
 40
2.5
  1
55
  7
MX_NOTE_STANDARD
  0
LINE
  5
1C19D
  8
SUNPO
  6
CONTINUOUS
 10
254.499997
 20
34.5
 30
0.0
 11
254.499997
 21
26.322886
 31
0.0
  0
LINE
  5
1C19E
  8
SUNPO
  6
CONTINUOUS
 10
309.499997
 20
34.5
 30
0.0
 11
309.499997
 21
26.322886
 31
0.0
  0
LINE
  5
1C19F
  8
SUNPO
  6
CONTINUOUS
 10
309.499997
 20
26.322886
 30
0.0
 11
254.499997
 21
26.322886
 31
0.0
  0
LINE
  5
1C1A1
  8
SUNPO
  6
CONTINUOUS
 10
196.111405
 20
29.639166
 30
0.0
 11
197.267949
 21
25.322886
 31
0.0
  0
TEXT
  5
1C1A3
  8
SUNPO
  6
CONTINUOUS
 10
225.537473
 20
27.371288
 30
0.0
 40
2.0
  1
2
  7
MX_NOTE_STANDARD
  0
LINE
  5
1C1A4
  8
SUNPO
  6
CONTINUOUS
 10
245.388595
 20
23.006605
 30
0.0
 11
244.232051
 21
27.322886
 31
0.0
  0
LINE
  5
1C1A6
  8
SUNPO
  6
CONTINUOUS
 10
254.5
 20
26.322886
 30
0.0
 11
245.388595
 21
23.006605
 31
0.0
  0
LINE
  5
1C1A9
  8
SUNPO
  6
CONTINUOUS
 10
278.186114
 20
14.5
 30
0.0
 11
274.144668
 21
21.499997
 31
0.0
  0
LINE
  5
1C1AA
  8
SUNPO
  6
CONTINUOUS
 10
279.186113
 20
14.5
 30
0.0
 11
274.708582
 21
14.5
 31
0.0
  0
LINE
  5
1C1AB
  8
SUNPO
  6
CONTINUOUS
 10
281.495514
 20
21.5
 30
0.0
 11
277.186113
 21
21.5
 31
0.0
  0
LINE
  5
1C1AC
  8
SUNPO
  6
CONTINUOUS
 10
275.876776
 20
14.500001
 30
0.0
 11
271.835331
 21
21.499997
 31
0.0
  0
LINE
  5
1C1AD
  8
SUNPO
  6
CONTINUOUS
 10
275.10634
 20
21.5
 30
0.0
 11
270.73099
 21
21.5
 31
0.0
  0
LINE
  5
1C1AE
  8
SUNPO
  6
CONTINUOUS
 10
284.536961
 20
21.5
 30
0.0
 11
284.536961
 21
14.500003
 31
0.0
  0
LINE
  5
1C1AF
  8
SUNPO
  6
CONTINUOUS
 10
284.536959
 20
14.500004
 30
0.0
 11
280.495515
 21
21.499997
 31
0.0
  0
LINE
  5
1C1B0
  8
SUNPO
  6
CONTINUOUS
 10
282.22756
 20
14.500001
 30
0.0
 11
278.186114
 21
21.499998
 31
0.0
  0
LINE
  5
1C1B1
  8
SUNPO
  6
CONTINUOUS
 10
278.186113
 20
21.5
 30
0.0
 11
278.186113
 21
14.500001
 31
0.0
  0
LINE
  5
1C1B2
  8
SUNPO
  6
CONTINUOUS
 10
285.11431
 20
14.5
 30
0.0
 11
281.536562
 21
14.5
 31
0.0
  0
LINE
  5
1C1B4
  8
SUNPO
  6
CONTINUOUS
 10
293.26901
 20
16.5
 30
0.0
 11
288.26901
 21
16.5
 31
0.0
  0
LINE
  5
1C1B5
  8
SUNPO
  6
CONTINUOUS
 10
285.495805
 20
21.5
 30
0.0
 11
283.459285
 21
21.5
 31
0.0
  0
LINE
  5
1C1B6
  8
SUNPO
  6
CONTINUOUS
 10
293.26901
 20
19.5
 30
0.0
 11
288.26901
 21
19.5
 31
0.0
  0
LINE
  5
1C1B7
  8
SUNPO
  6
CONTINUOUS
 10
309.5
 20
26.322886
 30
0.0
 11
318.611405
 21
29.639166
 31
0.0
  0
LINE
  5
1C1B9
  8
SUNPO
  6
CONTINUOUS
 10
318.611405
 20
29.639166
 30
0.0
 11
319.767949
 21
25.322886
 31
0.0
  0
LINE
  5
1C1BC
  8
SUNPO
  6
CONTINUOUS
 10
232.0
 20
79.5
 30
0.0
 11
232.0
 21
39.0
 31
0.0
  0
TEXT
  5
1C1BD
  8
SUNPO
  6
CONTINUOUS
 10
207.416667
 20
40.0
 30
0.0
 40
2.5
  1
45
  7
MX_NOTE_STANDARD
  0
ARC
  5
1C1BE
  8
SUNPO
  6
BYBLOCK
 10
232.0
 20
39.0
 30
0.0
 40
0.145
 50
0.0
 51
180.0
  0
ARC
  5
1C1BF
  8
SUNPO
  6
BYBLOCK
 10
232.0
 20
39.0
 30
0.0
 40
0.145
 50
180.0
 51
0.0
  0
ARC
  5
1C1C0
  8
SUNPO
  6
BYBLOCK
 10
244.793737
 20
81.0
 30
0.0
 40
0.145
 50
270.0
 51
90.0
  0
ARC
  5
1C1C1
  8
SUNPO
  6
BYBLOCK
 10
244.793737
 20
81.0
 30
0.0
 40
0.145
 50
90.0
 51
270.0
  0
TEXT
  5
1C1C2
  8
SUNPO
  6
CONTINUOUS
 10
243.793737
 20
114.125
 30
0.0
 40
2.5
  1
70
 50
90.0
  7
MX_NOTE_STANDARD
  0
LINE
  5
1C1C3
  8
SUNPO
  6
CONTINUOUS
 10
324.468739
 20
74.0
 30
0.0
 11
324.468739
 21
112.0
 31
0.0
  0
LINE
  5
1C1C4
  8
SUNPO
  6
CONTINUOUS
 10
324.468739
 20
74.0
 30
0.0
 11
324.468739
 21
36.0
 31
0.0
  0
LINE
  5
1C1C5
  8
SUNPO
  6
CONTINUOUS
 10
308.999997
 20
36.0
 30
0.0
 11
324.468739
 21
36.0
 31
0.0
  0
ARC
  5
1C1C6
  8
SUNPO
  6
BYBLOCK
 10
324.468739
 20
36.0
 30
0.0
 40
0.145
 50
270.0
 51
90.0
  0
ARC
  5
1C1C7
  8
SUNPO
  6
BYBLOCK
 10
324.468739
 20
36.0
 30
0.0
 40
0.145
 50
90.0
 51
270.0
  0
TEXT
  5
1C1C8
  8
SUNPO
  6
CONTINUOUS
 10
323.468739
 20
52.916667
 30
0.0
 40
2.5
  1
38
 50
90.0
  7
MX_NOTE_STANDARD
  0
ARC
  5
1C1C9
  8
SUNPO
  6
BYBLOCK
 10
324.468739
 20
74.0
 30
0.0
 40
0.145
 50
90.0
 51
270.0
  0
ARC
  5
1C1CA
  8
SUNPO
  6
BYBLOCK
 10
324.468739
 20
74.0
 30
0.0
 40
0.145
 50
270.0
 51
90.0
  0
ARC
  5
1C1CB
  8
SUNPO
  6
BYBLOCK
 10
324.468739
 20
74.0
 30
0.0
 40
0.145
 50
270.0
 51
90.0
  0
ARC
  5
1C1CC
  8
SUNPO
  6
BYBLOCK
 10
324.468739
 20
74.0
 30
0.0
 40
0.145
 50
90.0
 51
270.0
  0
TEXT
  5
1C1CD
  8
SUNPO
  6
CONTINUOUS
 10
323.468739
 20
95.155268
 30
0.0
 40
2.5
  1
38
 50
90.0
  7
MX_NOTE_STANDARD
  0
LINE
  5
1C1CE
  8
SUNPO
  6
CONTINUOUS
 10
310.999998
 20
120.0
 30
0.0
 11
324.468739
 21
120.0
 31
0.0
  0
TEXT
  5
1C1CF
  8
SUNPO
  6
CONTINUOUS
 10
323.468739
 20
115.166667
 30
0.0
 40
2.5
  1
8
 50
90.0
  7
MX_NOTE_STANDARD
  0
LINE
  5
1C1D0
  8
SUNPO
  6
CONTINUOUS
 10
324.468739
 20
120.0
 30
0.0
 11
324.468739
 21
112.0
 31
0.0
  0
ARC
  5
1C1D1
  8
SUNPO
  6
BYBLOCK
 10
324.468739
 20
112.0
 30
0.0
 40
0.145
 50
270.0
 51
90.0
  0
ARC
  5
1C1D2
  8
SUNPO
  6
BYBLOCK
 10
324.468739
 20
112.0
 30
0.0
 40
0.145
 50
90.0
 51
270.0
  0
ARC
  5
1C1D3
  8
SUNPO
  6
BYBLOCK
 10
324.468739
 20
112.0
 30
0.0
 40
0.145
 50
90.0
 51
270.0
  0
ARC
  5
1C1D4
  8
SUNPO
  6
BYBLOCK
 10
324.468739
 20
112.0
 30
0.0
 40
0.145
 50
270.0
 51
90.0
  0
ARC
  5
1C1D5
  8
SUNPO
  6
BYBLOCK
 10
324.468739
 20
120.0
 30
0.0
 40
0.145
 50
90.0
 51
270.0
  0
ARC
  5
1C1D6
  8
SUNPO
  6
BYBLOCK
 10
324.468739
 20
120.0
 30
0.0
 40
0.145
 50
270.0
 51
90.0
  0
ARC
  5
1C1D7
  8
SUNPO
  6
BYBLOCK
 10
324.468739
 20
120.0
 30
0.0
 40
0.145
 50
270.0
 51
90.0
  0
ARC
  5
1C1D8
  8
SUNPO
  6
BYBLOCK
 10
324.468739
 20
120.0
 30
0.0
 40
0.145
 50
90.0
 51
270.0
  0
LINE
  5
1C1D9
  8
SUNPO
  6
CONTINUOUS
 10
377.0
 20
73.499992
 30
0.0
 11
377.0
 21
18.0
 31
0.0
  0
LINE
  5
1C1DA
  8
SUNPO
  6
CONTINUOUS
 10
402.0
 20
80.0
 30
0.0
 11
402.0
 21
18.0
 31
0.0
  0
LINE
  5
1C1DC
  8
SUNPO
  6
CONTINUOUS
 10
402.0
 20
18.0
 30
0.0
 11
377.0
 21
18.0
 31
0.0
  0
TEXT
  5
1C1DD
  8
SUNPO
  6
CONTINUOUS
 10
343.102796
 20
27.307041
 30
0.0
 40
2.0
  1
1
 41
1.5
  7
MX_NOTE_STANDARD
  0
LINE
  5
1C1DE
  8
SUNPO
  6
CONTINUOUS
 10
377.0
 20
18.0
 30
0.0
 11
372.0
 21
13.0
 31
0.0
  0
LINE
  5
1C1DF
  8
SUNPO
  6
CONTINUOUS
 10
372.0
 20
23.0
 30
0.0
 11
377.0
 21
18.0
 31
0.0
  0
LINE
  5
1C1E0
  8
SUNPO
  6
CONTINUOUS
 10
377.0
 20
26.322886
 30
0.0
 11
367.888595
 21
23.006605
 31
0.0
  0
LINE
  5
1C1E1
  8
SUNPO
  6
CONTINUOUS
 10
372.0
 20
13.0
 30
0.0
 11
372.0
 21
23.0
 31
0.0
  0
LINE
  5
1C1E3
  8
SUNPO
  6
CONTINUOUS
 10
367.888595
 20
23.006605
 30
0.0
 11
366.732051
 21
27.322886
 31
0.0
  0
TEXT
  5
1C1E9
  8
SUNPO
  6
CONTINUOUS
 10
387.416667
 20
19.0
 30
0.0
 40
2.5
  1
25
  7
MX_NOTE_STANDARD
  0
ARC
  5
1C1EA
  8
SUNPO
  6
BYBLOCK
 10
402.0
 20
18.0
 30
0.0
 40
0.145
 50
0.0
 51
180.0
  0
ARC
  5
1C1EB
  8
SUNPO
  6
BYBLOCK
 10
402.0
 20
18.0
 30
0.0
 40
0.145
 50
180.0
 51
0.0
  0
LINE
  5
1C1EC
  8
SUNPO
  6
CONTINUOUS
 10
402.0
 20
39.0
 30
0.0
 11
392.0
 21
39.0
 31
0.0
  0
LINE
  5
1C1ED
  8
SUNPO
  6
CONTINUOUS
 10
392.0
 20
79.5
 30
0.0
 11
392.0
 21
39.0
 31
0.0
  0
LINE
  5
1C1EE
  8
SUNPO
  6
CONTINUOUS
 10
377.0
 20
39.0
 30
0.0
 11
347.0
 21
39.0
 31
0.0
  0
LINE
  5
1C1EF
  8
SUNPO
  6
CONTINUOUS
 10
347.0
 20
72.499992
 30
0.0
 11
347.0
 21
39.0
 31
0.0
  0
ARC
  5
1C1F0
  8
SUNPO
  6
BYBLOCK
 10
347.0
 20
39.0
 30
0.0
 40
0.145
 50
180.0
 51
0.0
  0
ARC
  5
1C1F1
  8
SUNPO
  6
BYBLOCK
 10
347.0
 20
39.0
 30
0.0
 40
0.145
 50
0.0
 51
180.0
  0
TEXT
  5
1C1F2
  8
SUNPO
  6
CONTINUOUS
 10
360.125
 20
40.0
 30
0.0
 40
2.5
  1
30
  7
MX_NOTE_STANDARD
  0
TEXT
  5
1C1F3
  8
SUNPO
  6
CONTINUOUS
 10
382.833333
 20
40.0
 30
0.0
 40
2.5
  1
15
  7
MX_NOTE_STANDARD
  0
LINE
  5
1C1F4
  8
SUNPO
  6
CONTINUOUS
 10
392.0
 20
39.0
 30
0.0
 11
377.0
 21
39.0
 31
0.0
  0
ARC
  5
1C1F5
  8
SUNPO
  6
BYBLOCK
 10
377.0
 20
39.0
 30
0.0
 40
0.145
 50
0.0
 51
180.0
  0
ARC
  5
1C1F6
  8
SUNPO
  6
BYBLOCK
 10
377.0
 20
39.0
 30
0.0
 40
0.145
 50
180.0
 51
0.0
  0
ARC
  5
1C1F7
  8
SUNPO
  6
BYBLOCK
 10
377.0
 20
39.0
 30
0.0
 40
0.145
 50
180.0
 51
0.0
  0
ARC
  5
1C1F8
  8
SUNPO
  6
BYBLOCK
 10
377.0
 20
39.0
 30
0.0
 40
0.145
 50
0.0
 51
180.0
  0
ARC
  5
1C1F9
  8
SUNPO
  6
BYBLOCK
 10
392.0
 20
39.0
 30
0.0
 40
0.145
 50
0.0
 51
180.0
  0
ARC
  5
1C1FA
  8
SUNPO
  6
BYBLOCK
 10
392.0
 20
39.0
 30
0.0
 40
0.145
 50
180.0
 51
0.0
  0
ARC
  5
1C1FB
  8
SUNPO
  6
BYBLOCK
 10
392.0
 20
39.0
 30
0.0
 40
0.145
 50
180.0
 51
0.0
  0
ARC
  5
1C1FC
  8
SUNPO
  6
BYBLOCK
 10
392.0
 20
39.0
 30
0.0
 40
0.145
 50
0.0
 51
180.0
  0
TEXT
  5
1C1FD
  8
SUNPO
  6
CONTINUOUS
 10
395.541667
 20
40.0
 30
0.0
 40
2.5
  1
10
  7
MX_NOTE_STANDARD
  0
ARC
  5
1C1FE
  8
SUNPO
  6
BYBLOCK
 10
402.0
 20
39.0
 30
0.0
 40
0.145
 50
0.0
 51
180.0
  0
ARC
  5
1C1FF
  8
SUNPO
  6
BYBLOCK
 10
402.0
 20
39.0
 30
0.0
 40
0.145
 50
180.0
 51
0.0
  0
LINE
  5
1C200
  8
SUNPO
  6
CONTINUOUS
 10
349.33846
 20
221.728614
 30
0.0
 11
311.33846
 21
221.728614
 31
0.0
  0
LINE
  5
1C201
  8
SUNPO
  6
CONTINUOUS
 10
73.0
 20
155.5
 30
0.0
 11
35.0
 21
155.5
 31
0.0
  0
LINE
  5
1C202
  8
SUNPO
  6
CONTINUOUS
 10
42.0
 20
170.428279
 30
0.0
 11
112.0
 21
170.428279
 31
0.0
  0
LINE
  5
1C203
  8
DANMEN
  6
CONTINUOUS
 10
331.495061
 20
180.690825
 30
0.0
 11
333.88846
 21
178.297426
 31
0.0
  0
LINE
  5
1C204
  8
DANMEN
  6
CONTINUOUS
 10
333.252421
 20
180.690825
 30
0.0
 11
329.50042
 21
176.938824
 31
0.0
  0
LINE
  5
1C205
  8
DANMEN
  6
CONTINUOUS
 10
333.88846
 20
179.205543
 30
0.0
 11
332.007435
 21
177.324518
 31
0.0
  0
LINE
  5
1C206
  8
DANMEN
  6
CONTINUOUS
 10
333.86346
 20
256.176101
 30
0.0
 11
331.982435
 21
258.057126
 31
0.0
  0
LINE
  5
1C207
  8
DANMEN
  6
CONTINUOUS
 10
331.470061
 20
254.69082
 30
0.0
 11
333.86346
 21
257.084218
 31
0.0
  0
LINE
  5
1C208
  8
DANMEN
  6
CONTINUOUS
 10
327.863464
 20
258.690823
 30
0.0
 11
334.363465
 21
257.690823
 31
0.0
  0
LINE
  5
1C209
  8
DANMEN
  6
CONTINUOUS
 10
326.638464
 20
233.690826
 30
0.0
 11
345.13846
 21
233.690826
 31
0.0
  0
LINE
  5
1C20A
  8
DANMEN
  6
CONTINUOUS
 10
313.338459
 20
235.690823
 30
0.0
 11
345.13846
 21
235.690823
 31
0.0
  0
LINE
  5
1C20B
  8
DANMEN
  6
CONTINUOUS
 10
313.338459
 20
207.690823
 30
0.0
 11
345.13846
 21
207.690823
 31
0.0
  0
LINE
  5
1C20C
  8
DANMEN
  6
CONTINUOUS
 10
318.038466
 20
205.690823
 30
0.0
 11
345.13846
 21
205.690823
 31
0.0
  0
LINE
  5
1C20D
  8
DANMEN
  6
CONTINUOUS
 10
327.888457
 20
176.690829
 30
0.0
 11
334.388458
 21
177.690829
 31
0.0
  0
LINE
  5
1C20E
  8
DANMEN
  6
CONTINUOUS
 10
357.0
 20
149.800003
 30
0.0
 11
323.75
 21
149.800003
 31
0.0
  0
LINE
  5
1C20F
  8
DANMEN
  6
CONTINUOUS
 10
352.600006
 20
152.800003
 30
0.0
 11
323.75
 21
152.800003
 31
0.0
  0
LINE
  5
1C210
  8
DANMEN
  6
CONTINUOUS
 10
352.600006
 20
154.0
 30
0.0
 11
323.75
 21
154.0
 31
0.0
  0
LINE
  5
1C211
  8
DANMEN
  6
CONTINUOUS
 10
323.75
 20
130.5
 30
0.0
 11
392.0
 21
130.5
 31
0.0
  0
LINE
  5
1C212
  8
DANMEN
  6
CONTINUOUS
 10
323.75
 20
133.5
 30
0.0
 11
392.0
 21
133.5
 31
0.0
  0
LINE
  5
1C213
  8
DANMEN
  6
CONTINUOUS
 10
323.75
 20
144.0
 30
0.0
 11
392.0
 21
144.0
 31
0.0
  0
LINE
  5
1C214
  8
DANMEN
  6
CONTINUOUS
 10
325.23851
 20
138.5
 30
0.0
 11
392.0
 21
138.5
 31
0.0
  0
LINE
  5
1C215
  8
DANMEN
  6
CONTINUOUS
 10
250.752001
 20
217.38804
 30
0.0
 11
247.0
 21
213.636039
 31
0.0
  0
LINE
  5
1C216
  8
DANMEN
  6
CONTINUOUS
 10
250.268625
 20
214.246094
 30
0.0
 11
247.0
 21
217.514719
 31
0.0
  0
LINE
  5
1C217
  8
DANMEN
  6
CONTINUOUS
 10
249.393398
 20
213.0
 30
0.0
 11
247.0
 21
215.393398
 31
0.0
  0
LINE
  5
1C218
  8
DANMEN
  6
CONTINUOUS
 10
250.999995
 20
219.000003
 30
0.0
 11
249.999995
 21
212.500002
 31
0.0
  0
LINE
  5
1C219
  8
DANMEN
  6
CONTINUOUS
 10
269.538457
 20
201.64082
 30
0.0
 11
269.538457
 21
233.740826
 31
0.0
  0
LINE
  5
1C21A
  8
DANMEN
  6
CONTINUOUS
 10
299.138463
 20
201.64082
 30
0.0
 11
299.138463
 21
233.740826
 31
0.0
  0
LINE
  5
1C21B
  8
DANMEN
  6
CONTINUOUS
 10
301.138463
 20
178.190823
 30
0.0
 11
301.138463
 21
257.190823
 31
0.0
  0
LINE
  5
1C21C
  8
DANMEN
  6
CONTINUOUS
 10
267.538457
 20
178.190823
 30
0.0
 11
267.538457
 21
257.190823
 31
0.0
  0
LINE
  5
1C21D
  8
DANMEN
  6
CONTINUOUS
 10
311.33846
 20
197.690823
 30
0.0
 11
311.33846
 21
257.190823
 31
0.0
  0
LINE
  5
1C21E
  8
DANMEN
  6
CONTINUOUS
 10
313.338459
 20
233.690826
 30
0.0
 11
313.338459
 21
207.690823
 31
0.0
  0
LINE
  5
1C21F
  8
DANMEN
  6
CONTINUOUS
 10
227.05
 20
230.05
 30
0.0
 11
227.05
 21
209.949997
 31
0.0
  0
LINE
  5
1C220
  8
DANMEN
  6
CONTINUOUS
 10
229.0
 20
231.0
 30
0.0
 11
229.0
 21
209.949997
 31
0.0
  0
LINE
  5
1C221
  8
DANMEN
  6
CONTINUOUS
 10
303.33846
 20
262.0
 30
0.0
 11
303.33846
 21
172.690823
 31
0.0
  0
LINE
  5
1C222
  8
DANMEN
  6
CONTINUOUS
 10
311.33846
 20
262.0
 30
0.0
 11
311.33846
 21
172.690823
 31
0.0
  0
LINE
  5
1C223
  8
DANMEN
  6
CONTINUOUS
 10
305.83846
 20
262.0
 30
0.0
 11
305.83846
 21
172.690823
 31
0.0
  0
LINE
  5
1C224
  8
DANMEN
  6
DASHED
 10
308.83846
 20
262.0
 30
0.0
 11
308.83846
 21
172.690823
 31
0.0
  0
LINE
  5
1C225
  8
DANMEN
  6
CONTINUOUS
 10
265.33846
 20
262.0
 30
0.0
 11
265.33846
 21
172.690823
 31
0.0
  0
LINE
  5
1C226
  8
DANMEN
  6
CONTINUOUS
 10
266.499997
 20
141.5
 30
0.0
 11
274.499997
 21
128.5
 31
0.0
  0
LINE
  5
1C227
  8
DANMEN
  6
CONTINUOUS
 10
274.499997
 20
128.5
 30
0.0
 11
266.499997
 21
128.5
 31
0.0
  0
LINE
  5
1C228
  8
DANMEN
  6
CONTINUOUS
 10
274.499997
 20
141.5
 30
0.0
 11
266.499997
 21
141.5
 31
0.0
  0
ARC
  5
1C229
  8
DANMEN
  6
CONTINUOUS
 10
268.038457
 20
178.190823
 30
0.0
 40
0.5
 50
179.999964
 51
270.000001
  0
LINE
  5
1C22A
  8
DANMEN
  6
CONTINUOUS
 10
255.699997
 20
156.050003
 30
0.0
 11
274.499997
 21
156.050003
 31
0.0
  0
LINE
  5
1C22B
  8
DANMEN
  6
CONTINUOUS
 10
255.499997
 20
158.0
 30
0.0
 11
308.499997
 21
158.0
 31
0.0
  0
LINE
  5
1C22C
  8
DANMEN
  6
CONTINUOUS
 10
220.0
 20
138.5
 30
0.0
 11
240.25
 21
138.5
 31
0.0
  0
LINE
  5
1C22D
  8
DANMEN
  6
CONTINUOUS
 10
220.0
 20
131.5
 30
0.0
 11
240.25
 21
131.5
 31
0.0
  0
LINE
  5
1C22E
  8
DANMEN
  6
CONTINUOUS
 10
220.0
 20
131.0
 30
0.0
 11
240.25
 21
131.0
 31
0.0
  0
LINE
  5
1C22F
  8
DANMEN
  6
CONTINUOUS
 10
220.0
 20
139.0
 30
0.0
 11
240.25
 21
139.0
 31
0.0
  0
LINE
  5
1C230
  8
DANMEN
  6
CONTINUOUS
 10
232.0
 20
145.5
 30
0.0
 11
240.25
 21
145.5
 31
0.0
  0
LINE
  5
1C231
  8
DANMEN
  6
CONTINUOUS
 10
240.25
 20
124.5
 30
0.0
 11
232.0
 21
124.5
 31
0.0
  0
LINE
  5
1C232
  8
DANMEN
  6
CONTINUOUS
 10
232.0
 20
155.800003
 30
0.0
 11
240.25
 21
155.800003
 31
0.0
  0
LINE
  5
1C233
  8
DANMEN
  6
CONTINUOUS
 10
231.0
 20
158.0
 30
0.0
 11
240.25
 21
158.0
 31
0.0
  0
ARC
  5
1C234
  8
DANMEN
  6
CONTINUOUS
 10
227.5
 20
145.5
 30
0.0
 40
0.5
 50
89.999982
 51
180.000019
  0
LINE
  5
1C235
  8
DANMEN
  6
CONTINUOUS
 10
232.0
 20
157.0
 30
0.0
 11
232.0
 21
145.5
 31
0.0
  0
LINE
  5
1C236
  8
DANMEN
  6
CONTINUOUS
 10
209.0
 20
157.0
 30
0.0
 11
209.0
 21
144.0
 31
0.0
  0
LINE
  5
1C237
  8
DANMEN
  6
CONTINUOUS
 10
211.0
 20
156.050003
 30
0.0
 11
211.0
 21
144.0
 31
0.0
  0
LINE
  5
1C238
  8
DANMEN
  6
CONTINUOUS
 10
205.662128
 20
127.153551
 30
0.0
 11
203.603548
 21
129.212131
 31
0.0
  0
ARC
  5
1C239
  8
DANMEN
  6
CONTINUOUS
 10
205.449997
 20
126.94142
 30
0.0
 40
0.3
 50
359.999927
 51
44.999947
  0
LINE
  5
1C23B
  8
DANMEN
  6
CONTINUOUS
 10
203.391416
 20
129.3
 30
0.0
 11
202.499997
 21
129.3
 31
0.0
  0
ARC
  5
1C23C
  8
DANMEN
  6
CONTINUOUS
 10
203.391416
 20
129.0
 30
0.0
 40
0.3
 50
45.000056
 51
90.000091
  0
ARC
  5
1C242
  8
DANMEN
  6
CONTINUOUS
 10
212.5
 20
142.55
 30
0.0
 40
0.5
 50
270.0
 51
0.0
  0
ARC
  5
1C244
  8
DANMEN
  6
CONTINUOUS
 10
212.5
 20
143.5
 30
0.0
 40
0.5
 50
0.0
 51
90.0
  0
LINE
  5
1C247
  8
DANMEN
  6
CONTINUOUS
 10
212.0
 20
142.05
 30
0.0
 11
212.5
 21
142.05
 31
0.0
  0
LINE
  5
1C249
  8
DANMEN
  6
CONTINUOUS
 10
212.0
 20
143.0
 30
0.0
 11
212.0
 21
142.050003
 31
0.0
  0
LINE
  5
1C24A
  8
DANMEN
  6
CONTINUOUS
 10
211.0
 20
143.0
 30
0.0
 11
212.0
 21
143.0
 31
0.0
  0
LINE
  5
1C24B
  8
DANMEN
  6
CONTINUOUS
 10
213.0
 20
143.5
 30
0.0
 11
213.0
 21
142.550003
 31
0.0
  0
LINE
  5
1C24C
  8
DANMEN
  6
CONTINUOUS
 10
211.0
 20
144.0
 30
0.0
 11
212.5
 21
144.0
 31
0.0
  0
LINE
  5
1C24D
  8
DANMEN
  6
CONTINUOUS
 10
220.0
 20
131.0
 30
0.0
 11
220.0
 21
139.0
 31
0.0
  0
LINE
  5
1C24E
  8
DANMEN
  6
CONTINUOUS
 10
232.242641
 20
131.0
 30
0.0
 11
229.0
 21
127.757359
 31
0.0
  0
LINE
  5
1C24F
  8
DANMEN
  6
CONTINUOUS
 10
232.752001
 20
129.38804
 30
0.0
 11
229.0
 21
125.636039
 31
0.0
  0
LINE
  5
1C250
  8
DANMEN
  6
CONTINUOUS
 10
232.551467
 20
128.084572
 30
0.0
 11
229.636039
 21
131.0
 31
0.0
  0
LINE
  5
1C251
  8
DANMEN
  6
CONTINUOUS
 10
232.268625
 20
126.246094
 30
0.0
 11
229.0
 21
129.514719
 31
0.0
  0
LINE
  5
1C252
  8
DANMEN
  6
CONTINUOUS
 10
232.999995
 20
131.000003
 30
0.0
 11
231.999995
 21
124.500002
 31
0.0
  0
LINE
  5
1C253
  8
DANMEN
  6
CONTINUOUS
 10
232.366306
 20
126.881025
 30
0.0
 11
230.485281
 21
125.0
 31
0.0
  0
LINE
  5
1C254
  8
DANMEN
  6
CONTINUOUS
 10
231.393398
 20
125.0
 30
0.0
 11
229.0
 21
127.393398
 31
0.0
  0
LINE
  5
1C255
  8
DANMEN
  6
CONTINUOUS
 10
227.5
 20
124.0
 30
0.0
 11
230.800003
 21
124.0
 31
0.0
  0
LINE
  5
1C256
  8
DANMEN
  6
CONTINUOUS
 10
227.0
 20
125.0
 30
0.0
 11
231.5
 21
125.0
 31
0.0
  0
LINE
  5
1C257
  8
DANMEN
  6
CONTINUOUS
 10
229.272078
 20
125.0
 30
0.0
 11
229.0
 21
125.272078
 31
0.0
  0
ARC
  5
1C259
  8
DANMEN
  6
CONTINUOUS
 10
227.5
 20
124.5
 30
0.0
 40
0.5
 50
180.0
 51
270.0
  0
LINE
  5
1C25B
  8
DANMEN
  6
CONTINUOUS
 10
227.0
 20
124.5
 30
0.0
 11
227.0
 21
125.0
 31
0.0
  0
ARC
  5
1C25D
  8
DANMEN
  6
CONTINUOUS
 10
231.5
 20
124.5
 30
0.0
 40
0.5
 50
0.0
 51
90.0
  0
LINE
  5
1C25F
  8
DANMEN
  6
CONTINUOUS
 10
230.12132
 20
131.0
 30
0.0
 11
229.0
 21
129.87868
 31
0.0
  0
LINE
  5
1C260
  8
DANMEN
  6
CONTINUOUS
 10
232.83431
 20
129.923049
 30
0.0
 11
231.757359
 21
131.0
 31
0.0
  0
LINE
  5
1C261
  8
DANMEN
  6
CONTINUOUS
 10
232.551467
 20
141.915428
 30
0.0
 11
229.636039
 21
139.0
 31
0.0
  0
LINE
  5
1C262
  8
DANMEN
  6
CONTINUOUS
 10
232.83431
 20
140.076951
 30
0.0
 11
231.757359
 21
139.0
 31
0.0
  0
LINE
  5
1C263
  8
DANMEN
  6
CONTINUOUS
 10
232.242641
 20
139.0
 30
0.0
 11
229.0
 21
142.242641
 31
0.0
  0
LINE
  5
1C264
  8
DANMEN
  6
CONTINUOUS
 10
230.12132
 20
139.0
 30
0.0
 11
229.0
 21
140.12132
 31
0.0
  0
LINE
  5
1C265
  8
DANMEN
  6
CONTINUOUS
 10
233.000003
 20
139.000004
 30
0.0
 11
232.000003
 21
145.500005
 31
0.0
  0
LINE
  5
1C269
  8
DANMEN
  6
CONTINUOUS
 10
231.393398
 20
145.0
 30
0.0
 11
229.0
 21
142.606602
 31
0.0
  0
LINE
  5
1C26A
  8
DANMEN
  6
CONTINUOUS
 10
232.268625
 20
143.753906
 30
0.0
 11
229.0
 21
140.485281
 31
0.0
  0
LINE
  5
1C26B
  8
DANMEN
  6
CONTINUOUS
 10
232.366306
 20
143.118975
 30
0.0
 11
230.485281
 21
145.0
 31
0.0
  0
LINE
  5
1C26C
  8
DANMEN
  6
CONTINUOUS
 10
232.752001
 20
140.61196
 30
0.0
 11
229.0
 21
144.363961
 31
0.0
  0
LINE
  5
1C26D
  8
DANMEN
  6
CONTINUOUS
 10
227.0
 20
145.0
 30
0.0
 11
231.5
 21
145.0
 31
0.0
  0
LINE
  5
1C26E
  8
DANMEN
  6
CONTINUOUS
 10
229.272078
 20
145.0
 30
0.0
 11
229.0
 21
144.727922
 31
0.0
  0
LINE
  5
1C26F
  8
DANMEN
  6
CONTINUOUS
 10
227.0
 20
145.5
 30
0.0
 11
227.0
 21
145.0
 31
0.0
  0
ARC
  5
1C272
  8
DANMEN
  6
CONTINUOUS
 10
231.5
 20
145.5
 30
0.0
 40
0.5
 50
270.000018
 51
0.0
  0
LINE
  5
1C273
  8
DANMEN
  6
CONTINUOUS
 10
211.0
 20
156.05
 30
0.0
 11
230.8
 21
156.05
 31
0.0
  0
LINE
  5
1C274
  8
DANMEN
  6
CONTINUOUS
 10
210.0
 20
158.0
 30
0.0
 11
231.0
 21
158.0
 31
0.0
  0
ARC
  5
1C275
  8
DANMEN
  6
CONTINUOUS
 10
210.0
 20
157.0
 30
0.0
 40
1.0
 50
90.0
 51
180.0
  0
LINE
  5
1C276
  8
DANMEN
  6
CONTINUOUS
 10
207.0
 20
154.000003
 30
0.0
 11
207.0
 21
149.800006
 31
0.0
  0
LINE
  5
1C277
  8
DANMEN
  6
CONTINUOUS
 10
207.0
 20
149.800006
 30
0.0
 11
209.0
 21
149.800006
 31
0.0
  0
LINE
  5
1C278
  8
DANMEN
  6
CONTINUOUS
 10
207.0
 20
152.800006
 30
0.0
 11
209.0
 21
152.800006
 31
0.0
  0
LINE
  5
1C279
  8
DANMEN
  6
CONTINUOUS
 10
207.0
 20
154.000003
 30
0.0
 11
209.0
 21
154.000003
 31
0.0
  0
ARC
  5
1C27D
  8
DANMEN
  6
CONTINUOUS
 10
231.0
 20
157.0
 30
0.0
 40
1.0
 50
0.0
 51
90.0
  0
LINE
  5
1C27E
  8
DANMEN
  6
CONTINUOUS
 10
230.050003
 20
154.050003
 30
0.0
 11
230.050003
 21
146.0
 31
0.0
  0
LINE
  5
1C27F
  8
DANMEN
  6
CONTINUOUS
 10
227.5
 20
146.0
 30
0.0
 11
230.050003
 21
146.0
 31
0.0
  0
LINE
  5
1C282
  8
DANMEN
  6
CONTINUOUS
 10
230.050003
 20
154.050003
 30
0.0
 11
230.800003
 21
154.050003
 31
0.0
  0
LINE
  5
1C285
  8
DANMEN
  6
CONTINUOUS
 10
230.800003
 20
156.050003
 30
0.0
 11
230.800003
 21
154.050003
 31
0.0
  0
ARC
  5
1C289
  8
DANMEN
  6
CONTINUOUS
 10
258.999997
 20
145.5
 30
0.0
 40
0.5
 50
0.0
 51
89.999982
  0
LINE
  5
1C28A
  8
DANMEN
  6
CONTINUOUS
 10
254.499997
 20
157.0
 30
0.0
 11
254.499997
 21
145.5
 31
0.0
  0
LINE
  5
1C28B
  8
DANMEN
  6
CONTINUOUS
 10
266.499997
 20
131.5
 30
0.0
 11
242.75
 21
131.5
 31
0.0
  0
LINE
  5
1C28C
  8
DANMEN
  6
CONTINUOUS
 10
266.499997
 20
138.5
 30
0.0
 11
242.75
 21
138.5
 31
0.0
  0
LINE
  5
1C28D
  8
DANMEN
  6
CONTINUOUS
 10
266.499997
 20
139.0
 30
0.0
 11
242.75
 21
139.0
 31
0.0
  0
LINE
  5
1C28E
  8
DANMEN
  6
CONTINUOUS
 10
266.499997
 20
131.0
 30
0.0
 11
242.75
 21
131.0
 31
0.0
  0
LINE
  5
1C28F
  8
DANMEN
  6
CONTINUOUS
 10
242.75
 20
145.499966
 30
0.0
 11
254.499997
 21
145.499966
 31
0.0
  0
LINE
  5
1C290
  8
DANMEN
  6
CONTINUOUS
 10
242.75
 20
124.500034
 30
0.0
 11
254.499997
 21
124.500034
 31
0.0
  0
LINE
  5
1C291
  8
DANMEN
  6
CONTINUOUS
 10
266.499997
 20
128.5
 30
0.0
 11
266.499997
 21
141.5
 31
0.0
  0
LINE
  5
1C292
  8
DANMEN
  6
CONTINUOUS
 10
266.499997
 20
139.0
 30
0.0
 11
266.499997
 21
131.0
 31
0.0
  0
ARC
  5
1C293
  8
DANMEN
  6
CONTINUOUS
 10
258.999997
 20
124.5
 30
0.0
 40
0.5
 50
270.000018
 51
0.0
  0
LINE
  5
1C294
  8
DANMEN
  6
CONTINUOUS
 10
254.999997
 20
125.0
 30
0.0
 11
259.499997
 21
125.0
 31
0.0
  0
LINE
  5
1C295
  8
DANMEN
  6
CONTINUOUS
 10
257.499997
 20
127.757359
 30
0.0
 11
254.257356
 21
131.0
 31
0.0
  0
LINE
  5
1C296
  8
DANMEN
  6
CONTINUOUS
 10
257.499997
 20
125.636039
 30
0.0
 11
253.747996
 21
129.38804
 31
0.0
  0
LINE
  5
1C297
  8
DANMEN
  6
CONTINUOUS
 10
256.863958
 20
131.0
 30
0.0
 11
253.94853
 21
128.084572
 31
0.0
  0
LINE
  5
1C298
  8
DANMEN
  6
CONTINUOUS
 10
257.499997
 20
129.514719
 30
0.0
 11
254.231372
 21
126.246094
 31
0.0
  0
LINE
  5
1C299
  8
DANMEN
  6
CONTINUOUS
 10
253.499994
 20
130.999996
 30
0.0
 11
254.499995
 21
124.499995
 31
0.0
  0
LINE
  5
1C29A
  8
DANMEN
  6
CONTINUOUS
 10
256.014716
 20
125.0
 30
0.0
 11
254.133691
 21
126.881025
 31
0.0
  0
LINE
  5
1C29B
  8
DANMEN
  6
CONTINUOUS
 10
257.499997
 20
127.393398
 30
0.0
 11
255.106599
 21
125.0
 31
0.0
  0
ARC
  5
1C29C
  8
DANMEN
  6
CONTINUOUS
 10
254.999997
 20
124.5
 30
0.0
 40
0.5
 50
89.999982
 51
180.000019
  0
LINE
  5
1C29E
  8
DANMEN
  6
CONTINUOUS
 10
257.499997
 20
125.272078
 30
0.0
 11
257.227919
 21
125.0
 31
0.0
  0
LINE
  5
1C2A0
  8
DANMEN
  6
CONTINUOUS
 10
255.699997
 20
124.0
 30
0.0
 11
258.999997
 21
124.0
 31
0.0
  0
LINE
  5
1C2A1
  8
DANMEN
  6
CONTINUOUS
 10
254.742638
 20
131.0
 30
0.0
 11
253.665687
 21
129.923049
 31
0.0
  0
LINE
  5
1C2A2
  8
DANMEN
  6
CONTINUOUS
 10
257.499997
 20
129.87868
 30
0.0
 11
256.378677
 21
131.0
 31
0.0
  0
LINE
  5
1C2A5
  8
DANMEN
  6
CONTINUOUS
 10
259.499997
 20
125.0
 30
0.0
 11
259.499997
 21
124.5
 31
0.0
  0
LINE
  5
1C2A7
  8
DANMEN
  6
CONTINUOUS
 10
254.999997
 20
145.0
 30
0.0
 11
259.499997
 21
145.0
 31
0.0
  0
LINE
  5
1C2A8
  8
DANMEN
  6
CONTINUOUS
 10
256.863958
 20
139.0
 30
0.0
 11
253.94853
 21
141.915428
 31
0.0
  0
LINE
  5
1C2A9
  8
DANMEN
  6
CONTINUOUS
 10
254.742638
 20
139.0
 30
0.0
 11
253.665687
 21
140.076951
 31
0.0
  0
LINE
  5
1C2AA
  8
DANMEN
  6
CONTINUOUS
 10
257.499997
 20
142.242641
 30
0.0
 11
254.257356
 21
139.0
 31
0.0
  0
LINE
  5
1C2AB
  8
DANMEN
  6
CONTINUOUS
 10
257.499997
 20
140.12132
 30
0.0
 11
256.378677
 21
139.0
 31
0.0
  0
LINE
  5
1C2AC
  8
DANMEN
  6
CONTINUOUS
 10
253.500002
 20
138.999997
 30
0.0
 11
254.500002
 21
145.499998
 31
0.0
  0
LINE
  5
1C2B0
  8
DANMEN
  6
CONTINUOUS
 10
257.499997
 20
142.606602
 30
0.0
 11
255.106599
 21
145.0
 31
0.0
  0
LINE
  5
1C2B1
  8
DANMEN
  6
CONTINUOUS
 10
257.499997
 20
140.485281
 30
0.0
 11
254.231372
 21
143.753906
 31
0.0
  0
LINE
  5
1C2B2
  8
DANMEN
  6
CONTINUOUS
 10
256.014716
 20
145.0
 30
0.0
 11
254.133691
 21
143.118975
 31
0.0
  0
LINE
  5
1C2B3
  8
DANMEN
  6
CONTINUOUS
 10
257.499997
 20
144.363961
 30
0.0
 11
253.747996
 21
140.61196
 31
0.0
  0
ARC
  5
1C2B4
  8
DANMEN
  6
CONTINUOUS
 10
254.999997
 20
145.5
 30
0.0
 40
0.5
 50
180.000019
 51
270.000001
  0
LINE
  5
1C2B6
  8
DANMEN
  6
CONTINUOUS
 10
257.499997
 20
144.727922
 30
0.0
 11
257.227919
 21
145.0
 31
0.0
  0
LINE
  5
1C2B8
  8
DANMEN
  6
CONTINUOUS
 10
259.499997
 20
145.5
 30
0.0
 11
259.499997
 21
145.0
 31
0.0
  0
LINE
  5
1C2BA
  8
DANMEN
  6
CONTINUOUS
 10
242.75
 20
155.800003
 30
0.0
 11
254.499997
 21
155.800003
 31
0.0
  0
LINE
  5
1C2BB
  8
DANMEN
  6
CONTINUOUS
 10
242.75
 20
158.0
 30
0.0
 11
254.999997
 21
158.0
 31
0.0
  0
ARC
  5
1C2BC
  8
DANMEN
  6
CONTINUOUS
 10
255.499997
 20
157.0
 30
0.0
 40
1.0
 50
90.0
 51
180.0
  0
LINE
  5
1C2BD
  8
DANMEN
  6
CONTINUOUS
 10
256.449997
 20
154.050003
 30
0.0
 11
256.449997
 21
146.0
 31
0.0
  0
LINE
  5
1C2BF
  8
DANMEN
  6
CONTINUOUS
 10
256.449997
 20
146.0
 30
0.0
 11
258.999997
 21
146.0
 31
0.0
  0
LINE
  5
1C2C3
  8
DANMEN
  6
CONTINUOUS
 10
255.699997
 20
156.050003
 30
0.0
 11
255.699997
 21
154.050003
 31
0.0
  0
LINE
  5
1C2C4
  8
DANMEN
  6
CONTINUOUS
 10
255.699997
 20
154.050003
 30
0.0
 11
256.449997
 21
154.050003
 31
0.0
  0
LINE
  5
1C2C7
  8
DANMEN
  6
CONTINUOUS
 10
229.0
 20
209.95
 30
0.0
 11
248.8
 21
209.95
 31
0.0
  0
LINE
  5
1C2C8
  8
DANMEN
  6
PHANTOM
 10
226.5
 20
208.000003
 30
0.0
 11
226.5
 21
170.500003
 31
0.0
  0
ARC
  5
1C2C9
  8
DANMEN
  6
PHANTOM
 10
234.0
 20
170.500003
 30
0.0
 40
7.5
 50
180.0
 51
191.536959
  0
LINE
  5
1C2CF
  8
DANMEN
  6
CONTINUOUS
 10
250.0
 20
213.0
 30
0.0
 11
255.0
 21
213.0
 31
0.0
  0
LINE
  5
1C2D0
  8
DANMEN
  6
CONTINUOUS
 10
250.0
 20
210.199997
 30
0.0
 11
255.0
 21
210.199997
 31
0.0
  0
LINE
  5
1C2D1
  8
DANMEN
  6
CONTINUOUS
 10
249.0
 20
207.999997
 30
0.0
 11
255.0
 21
207.999997
 31
0.0
  0
LINE
  5
1C2D2
  8
DANMEN
  6
CONTINUOUS
 10
250.0
 20
209.0
 30
0.0
 11
250.0
 21
212.5
 31
0.0
  0
ARC
  5
1C2D5
  8
DANMEN
  6
CONTINUOUS
 10
249.0
 20
209.0
 30
0.0
 40
1.0
 50
270.0
 51
0.0
  0
LINE
  5
1C2D6
  8
DANMEN
  6
CONTINUOUS
 10
247.272078
 20
213.0
 30
0.0
 11
247.0
 21
213.272078
 31
0.0
  0
LINE
  5
1C2D7
  8
DANMEN
  6
CONTINUOUS
 10
245.5
 20
212.0
 30
0.0
 11
248.800003
 21
212.0
 31
0.0
  0
LINE
  5
1C2D8
  8
DANMEN
  6
CONTINUOUS
 10
245.0
 20
213.0
 30
0.0
 11
249.5
 21
213.0
 31
0.0
  0
ARC
  5
1C2DA
  8
DANMEN
  6
CONTINUOUS
 10
245.5
 20
212.5
 30
0.0
 40
0.5
 50
180.0
 51
270.0
  0
LINE
  5
1C2DC
  8
DANMEN
  6
CONTINUOUS
 10
245.0
 20
212.5
 30
0.0
 11
245.0
 21
213.0
 31
0.0
  0
LINE
  5
1C2DD
  8
DANMEN
  6
CONTINUOUS
 10
250.366306
 20
214.881025
 30
0.0
 11
248.485281
 21
213.0
 31
0.0
  0
ARC
  5
1C2DF
  8
DANMEN
  6
CONTINUOUS
 10
249.5
 20
212.5
 30
0.0
 40
0.5
 50
0.0
 51
90.0
  0
LINE
  5
1C2E2
  8
DANMEN
  6
CONTINUOUS
 10
248.8
 20
209.95
 30
0.0
 11
248.8
 21
212.0
 31
0.0
  0
LINE
  5
1C2E3
  8
DANMEN
  6
CONTINUOUS
 10
292.499997
 20
156.050003
 30
0.0
 11
307.55
 21
156.050003
 31
0.0
  0
LINE
  5
1C2E4
  8
DANMEN
  6
CONTINUOUS
 10
296.449994
 20
142.050003
 30
0.0
 11
302.55
 21
142.050003
 31
0.0
  0
LINE
  5
1C2E5
  8
DANMEN
  6
CONTINUOUS
 10
276.449994
 20
144.0
 30
0.0
 11
307.55
 21
144.0
 31
0.0
  0
LINE
  5
1C2E6
  8
DANMEN
  6
CONTINUOUS
 10
276.449994
 20
156.050003
 30
0.0
 11
276.449994
 21
144.0
 31
0.0
  0
LINE
  5
1C2E7
  8
DANMEN
  6
CONTINUOUS
 10
274.499997
 20
156.050003
 30
0.0
 11
274.499997
 21
144.0
 31
0.0
  0
LINE
  5
1C2E8
  8
DANMEN
  6
CONTINUOUS
 10
281.449994
 20
142.050003
 30
0.0
 11
295.449994
 21
142.050003
 31
0.0
  0
LINE
  5
1C2E9
  8
DANMEN
  6
CONTINUOUS
 10
274.499997
 20
128.5
 30
0.0
 11
274.499997
 21
141.5
 31
0.0
  0
ARC
  5
1C2EF
  8
DANMEN
  6
CONTINUOUS
 10
272.999997
 20
142.550003
 30
0.0
 40
0.5
 50
180.000019
 51
270.000001
  0
LINE
  5
1C2F1
  8
DANMEN
  6
CONTINUOUS
 10
273.499997
 20
143.0
 30
0.0
 11
273.499997
 21
142.050003
 31
0.0
  0
ARC
  5
1C2F2
  8
DANMEN
  6
CONTINUOUS
 10
272.999997
 20
143.5
 30
0.0
 40
0.5
 50
89.999982
 51
180.000019
  0
LINE
  5
1C2F6
  8
DANMEN
  6
CONTINUOUS
 10
273.499997
 20
143.0
 30
0.0
 11
274.499997
 21
143.0
 31
0.0
  0
LINE
  5
1C2F7
  8
DANMEN
  6
CONTINUOUS
 10
272.999997
 20
142.050003
 30
0.0
 11
273.499997
 21
142.050003
 31
0.0
  0
LINE
  5
1C2F8
  8
DANMEN
  6
CONTINUOUS
 10
272.999997
 20
144.0
 30
0.0
 11
274.499997
 21
144.0
 31
0.0
  0
LINE
  5
1C2F9
  8
DANMEN
  6
CONTINUOUS
 10
272.499997
 20
143.5
 30
0.0
 11
272.499997
 21
142.550003
 31
0.0
  0
LINE
  5
1C2FA
  8
DANMEN
  6
CONTINUOUS
 10
276.449994
 20
143.0
 30
0.0
 11
281.449994
 21
143.0
 31
0.0
  0
LINE
  5
1C2FD
  8
DANMEN
  6
CONTINUOUS
 10
281.449994
 20
143.0
 30
0.0
 11
281.449994
 21
142.050003
 31
0.0
  0
LINE
  5
1C300
  8
DANMEN
  6
CONTINUOUS
 10
295.949994
 20
124.0
 30
0.0
 11
296.449994
 21
124.0
 31
0.0
  0
ARC
  5
1C301
  8
DANMEN
  6
CONTINUOUS
 10
295.949994
 20
123.5
 30
0.0
 40
0.5
 50
89.999982
 51
180.000019
  0
ARC
  5
1C304
  8
DANMEN
  6
CONTINUOUS
 10
295.949994
 20
140.5
 30
0.0
 40
0.5
 50
180.000019
 51
270.000001
  0
LINE
  5
1C305
  8
DANMEN
  6
CONTINUOUS
 10
295.949994
 20
140.0
 30
0.0
 11
296.449994
 21
140.0
 31
0.0
  0
LINE
  5
1C308
  8
DANMEN
  6
CONTINUOUS
 10
295.449994
 20
142.050003
 30
0.0
 11
295.449994
 21
140.5
 31
0.0
  0
LINE
  5
1C30B
  8
DANMEN
  6
CONTINUOUS
 10
296.449994
 20
142.050003
 30
0.0
 11
296.449994
 21
140.0
 31
0.0
  0
LINE
  5
1C30C
  8
DANMEN
  6
CONTINUOUS
 10
276.449994
 20
156.050003
 30
0.0
 11
291.499997
 21
156.050003
 31
0.0
  0
ARC
  5
1C30F
  8
DANMEN
  6
CONTINUOUS
 10
291.999997
 20
155.0
 30
0.0
 40
0.5
 50
180.0
 51
0.0
  0
LINE
  5
1C311
  8
DANMEN
  6
CONTINUOUS
 10
291.499997
 20
156.050003
 30
0.0
 11
291.499997
 21
155.0
 31
0.0
  0
LINE
  5
1C314
  8
DANMEN
  6
CONTINUOUS
 10
292.499997
 20
156.050003
 30
0.0
 11
292.499997
 21
155.0
 31
0.0
  0
LINE
  5
1C316
  8
DANMEN
  6
CONTINUOUS
 10
307.55
 20
156.050003
 30
0.0
 11
307.55
 21
144.0
 31
0.0
  0
LINE
  5
1C317
  8
DANMEN
  6
CONTINUOUS
 10
309.499997
 20
130.5
 30
0.0
 11
321.25
 21
130.5
 31
0.0
  0
LINE
  5
1C318
  8
DANMEN
  6
CONTINUOUS
 10
309.499997
 20
133.5
 30
0.0
 11
321.25
 21
133.5
 31
0.0
  0
LINE
  5
1C319
  8
DANMEN
  6
CONTINUOUS
 10
309.499997
 20
144.0
 30
0.0
 11
321.25
 21
144.0
 31
0.0
  0
LINE
  5
1C31A
  8
DANMEN
  6
CONTINUOUS
 10
309.499997
 20
138.5
 30
0.0
 11
321.25
 21
138.5
 31
0.0
  0
LINE
  5
1C31B
  8
DANMEN
  6
CONTINUOUS
 10
309.499997
 20
124.5
 30
0.0
 11
321.25
 21
124.5
 31
0.0
  0
LINE
  5
1C31C
  8
DANMEN
  6
CONTINUOUS
 10
302.55
 20
143.0
 30
0.0
 11
307.55
 21
143.0
 31
0.0
  0
LINE
  5
1C31D
  8
DANMEN
  6
CONTINUOUS
 10
302.55
 20
143.0
 30
0.0
 11
302.55
 21
142.050003
 31
0.0
  0
LINE
  5
1C322
  8
DANMEN
  6
CONTINUOUS
 10
309.499997
 20
149.800003
 30
0.0
 11
321.25
 21
149.800003
 31
0.0
  0
LINE
  5
1C323
  8
DANMEN
  6
CONTINUOUS
 10
309.499997
 20
152.800003
 30
0.0
 11
321.25
 21
152.800003
 31
0.0
  0
LINE
  5
1C324
  8
DANMEN
  6
CONTINUOUS
 10
309.499997
 20
154.0
 30
0.0
 11
321.25
 21
154.0
 31
0.0
  0
ARC
  5
1C325
  8
DANMEN
  6
CONTINUOUS
 10
308.499997
 20
157.0
 30
0.0
 40
1.0
 50
0.0
 51
89.999982
  0
LINE
  5
1C329
  8
DANMEN
  6
CONTINUOUS
 10
298.83846
 20
177.690823
 30
0.0
 11
300.638463
 21
177.690823
 31
0.0
  0
LINE
  5
1C32A
  8
DANMEN
  6
CONTINUOUS
 10
269.488454
 20
179.64082
 30
0.0
 11
269.488454
 21
199.690823
 31
0.0
  0
LINE
  5
1C32B
  8
DANMEN
  6
CONTINUOUS
 10
299.188466
 20
182.690823
 30
0.0
 11
299.188466
 21
199.690823
 31
0.0
  0
LINE
  5
1C32C
  8
DANMEN
  6
CONTINUOUS
 10
281.095819
 20
180.690823
 30
0.0
 11
284.33846
 21
177.448182
 31
0.0
  0
LINE
  5
1C32D
  8
DANMEN
  6
CONTINUOUS
 10
283.217139
 20
180.690823
 30
0.0
 11
284.33846
 21
179.569503
 31
0.0
  0
LINE
  5
1C32E
  8
DANMEN
  6
CONTINUOUS
 10
284.33846
 20
180.054784
 30
0.0
 11
281.423031
 21
177.139356
 31
0.0
  0
LINE
  5
1C32F
  8
DANMEN
  6
CONTINUOUS
 10
284.33846
 20
177.933464
 30
0.0
 11
283.261509
 21
176.856513
 31
0.0
  0
LINE
  5
1C330
  8
DANMEN
  6
CONTINUOUS
 10
284.338455
 20
176.69082
 30
0.0
 11
277.838454
 21
177.69082
 31
0.0
  0
LINE
  5
1C331
  8
DANMEN
  6
CONTINUOUS
 10
278.974499
 20
180.690823
 30
0.0
 11
282.726499
 21
176.938822
 31
0.0
  0
LINE
  5
1C332
  8
DANMEN
  6
CONTINUOUS
 10
278.610538
 20
180.690823
 30
0.0
 11
278.33846
 21
180.418745
 31
0.0
  0
LINE
  5
1C333
  8
DANMEN
  6
CONTINUOUS
 10
280.731858
 20
180.690823
 30
0.0
 11
278.33846
 21
178.297425
 31
0.0
  0
LINE
  5
1C334
  8
DANMEN
  6
CONTINUOUS
 10
282.853178
 20
180.690823
 30
0.0
 11
279.584554
 21
177.422198
 31
0.0
  0
LINE
  5
1C335
  8
DANMEN
  6
CONTINUOUS
 10
277.33846
 20
179.64082
 30
0.0
 11
277.33846
 21
182.190823
 31
0.0
  0
LINE
  5
1C336
  8
DANMEN
  6
CONTINUOUS
 10
278.33846
 20
178.190823
 30
0.0
 11
278.33846
 21
182.690823
 31
0.0
  0
LINE
  5
1C337
  8
DANMEN
  6
CONTINUOUS
 10
269.488454
 20
179.64082
 30
0.0
 11
277.33846
 21
179.64082
 31
0.0
  0
LINE
  5
1C338
  8
DANMEN
  6
CONTINUOUS
 10
268.038457
 20
177.690823
 30
0.0
 11
277.83846
 21
177.690823
 31
0.0
  0
LINE
  5
1C33A
  8
DANMEN
  6
CONTINUOUS
 10
278.33846
 20
177.690823
 30
0.0
 11
278.33846
 21
172.690823
 31
0.0
  0
LINE
  5
1C33B
  8
DANMEN
  6
CONTINUOUS
 10
278.33846
 20
179.205542
 30
0.0
 11
280.219485
 21
177.324517
 31
0.0
  0
ARC
  5
1C33D
  8
DANMEN
  6
CONTINUOUS
 10
277.83846
 20
178.190823
 30
0.0
 40
0.5
 50
270.000018
 51
0.0
  0
ARC
  5
1C33F
  8
DANMEN
  6
CONTINUOUS
 10
277.83846
 20
182.190823
 30
0.0
 40
0.5
 50
89.999982
 51
180.000019
  0
LINE
  5
1C342
  8
DANMEN
  6
CONTINUOUS
 10
277.83846
 20
182.690823
 30
0.0
 11
278.33846
 21
182.690823
 31
0.0
  0
LINE
  5
1C343
  8
DANMEN
  6
CONTINUOUS
 10
293.823741
 20
180.690823
 30
0.0
 11
297.092366
 21
177.422198
 31
0.0
  0
LINE
  5
1C344
  8
DANMEN
  6
CONTINUOUS
 10
295.945061
 20
180.690823
 30
0.0
 11
298.33846
 21
178.297425
 31
0.0
  0
LINE
  5
1C345
  8
DANMEN
  6
CONTINUOUS
 10
298.066382
 20
180.690823
 30
0.0
 11
298.33846
 21
180.418745
 31
0.0
  0
LINE
  5
1C346
  8
DANMEN
  6
CONTINUOUS
 10
293.45978
 20
180.690823
 30
0.0
 11
292.33846
 21
179.569503
 31
0.0
  0
LINE
  5
1C347
  8
DANMEN
  6
CONTINUOUS
 10
295.5811
 20
180.690823
 30
0.0
 11
292.33846
 21
177.448182
 31
0.0
  0
LINE
  5
1C348
  8
DANMEN
  6
CONTINUOUS
 10
297.702421
 20
180.690823
 30
0.0
 11
293.95042
 21
176.938822
 31
0.0
  0
LINE
  5
1C349
  8
DANMEN
  6
CONTINUOUS
 10
298.33846
 20
178.190823
 30
0.0
 11
298.33846
 21
182.690823
 31
0.0
  0
LINE
  5
1C34A
  8
DANMEN
  6
CONTINUOUS
 10
292.33846
 20
189.690823
 30
0.0
 11
292.33846
 21
172.690823
 31
0.0
  0
LINE
  5
1C34B
  8
DANMEN
  6
CONTINUOUS
 10
284.33846
 20
189.690823
 30
0.0
 11
284.33846
 21
172.690823
 31
0.0
  0
LINE
  5
1C34C
  8
DANMEN
  6
CONTINUOUS
 10
284.83846
 20
189.690823
 30
0.0
 11
284.83846
 21
172.690823
 31
0.0
  0
LINE
  5
1C34D
  8
DANMEN
  6
CONTINUOUS
 10
291.83846
 20
189.690823
 30
0.0
 11
291.83846
 21
172.690823
 31
0.0
  0
LINE
  5
1C350
  8
DANMEN
  6
CONTINUOUS
 10
298.33846
 20
177.690823
 30
0.0
 11
298.33846
 21
172.690823
 31
0.0
  0
LINE
  5
1C351
  8
DANMEN
  6
CONTINUOUS
 10
292.338457
 20
176.690828
 30
0.0
 11
298.838458
 21
177.690828
 31
0.0
  0
LINE
  5
1C352
  8
DANMEN
  6
CONTINUOUS
 10
292.33846
 20
177.933464
 30
0.0
 11
293.41541
 21
176.856513
 31
0.0
  0
LINE
  5
1C353
  8
DANMEN
  6
CONTINUOUS
 10
292.33846
 20
180.054784
 30
0.0
 11
295.253888
 21
177.139356
 31
0.0
  0
LINE
  5
1C354
  8
DANMEN
  6
CONTINUOUS
 10
298.33846
 20
179.205542
 30
0.0
 11
296.457435
 21
177.324517
 31
0.0
  0
ARC
  5
1C355
  8
DANMEN
  6
CONTINUOUS
 10
298.83846
 20
178.190823
 30
0.0
 40
0.5
 50
179.999964
 51
270.000001
  0
LINE
  5
1C357
  8
DANMEN
  6
CONTINUOUS
 10
284.33846
 20
189.690823
 30
0.0
 11
292.33846
 21
189.690823
 31
0.0
  0
LINE
  5
1C35A
  8
DANMEN
  6
CONTINUOUS
 10
298.33846
 20
182.690823
 30
0.0
 11
299.188466
 21
182.690823
 31
0.0
  0
LINE
  5
1C35B
  8
DANMEN
  6
CONTINUOUS
 10
269.538457
 20
201.64082
 30
0.0
 11
299.138463
 21
201.64082
 31
0.0
  0
LINE
  5
1C35C
  8
DANMEN
  6
CONTINUOUS
 10
269.488454
 20
199.690823
 30
0.0
 11
299.188466
 21
199.690823
 31
0.0
  0
LINE
  5
1C361
  8
DANMEN
  6
CONTINUOUS
 10
311.33846
 20
178.190828
 30
0.0
 11
311.33846
 21
197.690824
 31
0.0
  0
LINE
  5
1C362
  8
DANMEN
  6
CONTINUOUS
 10
313.288459
 20
182.690827
 30
0.0
 11
313.288459
 21
195.390824
 31
0.0
  0
LINE
  5
1C363
  8
DANMEN
  6
CONTINUOUS
 10
314.524499
 20
180.690825
 30
0.0
 11
318.276499
 21
176.938824
 31
0.0
  0
LINE
  5
1C364
  8
DANMEN
  6
CONTINUOUS
 10
316.645819
 20
180.690825
 30
0.0
 11
319.88846
 21
177.448184
 31
0.0
  0
LINE
  5
1C365
  8
DANMEN
  6
CONTINUOUS
 10
318.403178
 20
180.690825
 30
0.0
 11
315.134554
 21
177.4222
 31
0.0
  0
LINE
  5
1C366
  8
DANMEN
  6
CONTINUOUS
 10
319.888455
 20
176.690822
 30
0.0
 11
313.388454
 21
177.690822
 31
0.0
  0
LINE
  5
1C367
  8
DANMEN
  6
CONTINUOUS
 10
314.160538
 20
180.690825
 30
0.0
 11
313.88846
 21
180.418747
 31
0.0
  0
LINE
  5
1C368
  8
DANMEN
  6
CONTINUOUS
 10
316.281858
 20
180.690825
 30
0.0
 11
313.88846
 21
178.297426
 31
0.0
  0
LINE
  5
1C369
  8
DANMEN
  6
CONTINUOUS
 10
313.83846
 20
178.190828
 30
0.0
 11
313.83846
 21
182.690827
 31
0.0
  0
ARC
  5
1C36A
  8
DANMEN
  6
CONTINUOUS
 10
300.638463
 20
178.190823
 30
0.0
 40
0.5
 50
270.000018
 51
0.0
  0
LINE
  5
1C36C
  8
DANMEN
  6
CONTINUOUS
 10
313.83846
 20
177.690823
 30
0.0
 11
313.83846
 21
172.690823
 31
0.0
  0
LINE
  5
1C36D
  8
DANMEN
  6
CONTINUOUS
 10
311.83846
 20
177.690827
 30
0.0
 11
313.33846
 21
177.690827
 31
0.0
  0
ARC
  5
1C36F
  8
DANMEN
  6
CONTINUOUS
 10
311.83846
 20
178.190827
 30
0.0
 40
0.5
 50
179.999872
 51
269.999909
  0
LINE
  5
1C370
  8
DANMEN
  6
CONTINUOUS
 10
313.88846
 20
179.205543
 30
0.0
 11
315.769485
 21
177.324518
 31
0.0
  0
ARC
  5
1C372
  8
DANMEN
  6
CONTINUOUS
 10
313.33846
 20
178.190827
 30
0.0
 40
0.5
 50
270.0
 51
0.0
  0
LINE
  5
1C373
  8
DANMEN
  6
CONTINUOUS
 10
313.288459
 20
182.690827
 30
0.0
 11
313.83846
 21
182.690827
 31
0.0
  0
LINE
  5
1C376
  8
DANMEN
  6
CONTINUOUS
 10
318.767139
 20
180.690825
 30
0.0
 11
319.88846
 21
179.569504
 31
0.0
  0
LINE
  5
1C377
  8
DANMEN
  6
CONTINUOUS
 10
329.373741
 20
180.690825
 30
0.0
 11
332.642366
 21
177.4222
 31
0.0
  0
LINE
  5
1C378
  8
DANMEN
  6
CONTINUOUS
 10
329.00978
 20
180.690825
 30
0.0
 11
327.88846
 21
179.569504
 31
0.0
  0
LINE
  5
1C379
  8
DANMEN
  6
CONTINUOUS
 10
331.1311
 20
180.690825
 30
0.0
 11
327.88846
 21
177.448184
 31
0.0
  0
LINE
  5
1C37A
  8
DANMEN
  6
CONTINUOUS
 10
327.38846
 20
189.690825
 30
0.0
 11
327.38846
 21
172.690823
 31
0.0
  0
LINE
  5
1C37B
  8
DANMEN
  6
CONTINUOUS
 10
320.38846
 20
189.690825
 30
0.0
 11
320.38846
 21
172.690823
 31
0.0
  0
LINE
  5
1C37C
  8
DANMEN
  6
CONTINUOUS
 10
319.88846
 20
189.690825
 30
0.0
 11
319.88846
 21
172.690823
 31
0.0
  0
LINE
  5
1C37D
  8
DANMEN
  6
CONTINUOUS
 10
327.88846
 20
189.690825
 30
0.0
 11
327.88846
 21
172.690823
 31
0.0
  0
LINE
  5
1C37E
  8
DANMEN
  6
CONTINUOUS
 10
319.88846
 20
180.054786
 30
0.0
 11
316.973031
 21
177.139357
 31
0.0
  0
LINE
  5
1C37F
  8
DANMEN
  6
CONTINUOUS
 10
319.88846
 20
177.933465
 30
0.0
 11
318.811509
 21
176.856514
 31
0.0
  0
LINE
  5
1C382
  8
DANMEN
  6
CONTINUOUS
 10
327.88846
 20
180.054786
 30
0.0
 11
330.803888
 21
177.139357
 31
0.0
  0
LINE
  5
1C383
  8
DANMEN
  6
CONTINUOUS
 10
327.88846
 20
177.933465
 30
0.0
 11
328.96541
 21
176.856514
 31
0.0
  0
LINE
  5
1C384
  8
DANMEN
  6
CONTINUOUS
 10
319.88846
 20
189.690825
 30
0.0
 11
327.88846
 21
189.690825
 31
0.0
  0
LINE
  5
1C385
  8
DANMEN
  6
CONTINUOUS
 10
314.98846
 20
200.424848
 30
0.0
 11
316.93846
 21
202.950389
 31
0.0
  0
LINE
  5
1C386
  8
DANMEN
  6
CONTINUOUS
 10
316.93846
 20
204.191719
 30
0.0
 11
315.623157
 21
205.102751
 31
0.0
  0
LINE
  5
1C387
  8
DANMEN
  6
CONTINUOUS
 10
316.838466
 20
202.190823
 30
0.0
 11
317.158077
 21
200.592765
 31
0.0
  0
ARC
  5
1C388
  8
DANMEN
  6
CONTINUOUS
 10
315.53264
 20
203.584062
 30
0.0
 40
0.3
 50
322.327843
 51
55.291951
  0
LINE
  5
1C389
  8
DANMEN
  6
CONTINUOUS
 10
316.838466
 20
202.190823
 30
0.0
 11
316.838466
 21
205.690823
 31
0.0
  0
LINE
  5
1C38A
  8
DANMEN
  6
CONTINUOUS
 10
313.288459
 20
199.690823
 30
0.0
 11
313.288459
 21
205.690823
 31
0.0
  0
LINE
  5
1C38B
  8
DANMEN
  6
CONTINUOUS
 10
314.98846
 20
196.390824
 30
0.0
 11
314.98846
 21
200.424848
 31
0.0
  0
LINE
  5
1C38C
  8
DANMEN
  6
CONTINUOUS
 10
313.78846
 20
197.390824
 30
0.0
 11
313.78846
 21
199.372452
 31
0.0
  0
ARC
  5
1C38D
  8
DANMEN
  6
CONTINUOUS
 10
313.046261
 20
198.190823
 30
0.0
 40
0.5
 50
270.0
 51
330.603827
  0
LINE
  5
1C38E
  8
DANMEN
  6
CONTINUOUS
 10
311.33846
 20
197.690824
 30
0.0
 11
313.28846
 21
197.690824
 31
0.0
  0
LINE
  5
1C38F
  8
DANMEN
  6
CONTINUOUS
 10
311.33846
 20
197.690823
 30
0.0
 11
313.046261
 21
197.690823
 31
0.0
  0
ARC
  5
1C392
  8
DANMEN
  6
CONTINUOUS
 10
314.48846
 20
196.390824
 30
0.0
 40
0.5
 50
270.0
 51
0.0
  0
LINE
  5
1C395
  8
DANMEN
  6
CONTINUOUS
 10
313.28846
 20
197.390824
 30
0.0
 11
313.28846
 21
197.690824
 31
0.0
  0
LINE
  5
1C396
  8
DANMEN
  6
CONTINUOUS
 10
313.28846
 20
197.390824
 30
0.0
 11
313.78846
 21
197.390824
 31
0.0
  0
LINE
  5
1C397
  8
DANMEN
  6
CONTINUOUS
 10
313.788459
 20
195.890824
 30
0.0
 11
314.48846
 21
195.890824
 31
0.0
  0
ARC
  5
1C39A
  8
DANMEN
  6
CONTINUOUS
 10
313.788459
 20
195.390824
 30
0.0
 40
0.5
 50
90.0
 51
180.0
  0
ARC
  5
1C3A0
  8
DANMEN
  6
CONTINUOUS
 10
313.48846
 20
199.372452
 30
0.0
 40
0.3
 50
0.0
 51
63.881419
  0
LINE
  5
1C3A1
  8
DANMEN
  6
CONTINUOUS
 10
313.408128
 20
200.341619
 30
0.0
 11
315.770096
 21
203.400719
 31
0.0
  0
ARC
  5
1C3A3
  8
DANMEN
  6
CONTINUOUS
 10
313.840644
 20
200.09076
 30
0.0
 40
0.5
 50
149.886267
 51
243.881419
  0
ARC
  5
1C3A6
  8
DANMEN
  6
CONTINUOUS
 10
313.53846
 20
199.390823
 30
0.0
 40
0.3
 50
0.0
 51
90.0
  0
LINE
  5
1C3A7
  8
DANMEN
  6
CONTINUOUS
 10
313.53846
 20
199.690823
 30
0.0
 11
313.288459
 21
199.690823
 31
0.0
  0
LINE
  5
1C3A8
  8
DANMEN
  6
CONTINUOUS
 10
313.83846
 20
198.687068
 30
0.0
 11
313.481884
 21
197.9454
 31
0.0
  0
LINE
  5
1C3A9
  8
DANMEN
  6
CONTINUOUS
 10
313.83846
 20
199.390823
 30
0.0
 11
313.83846
 21
198.687068
 31
0.0
  0
LINE
  5
1C3AB
  8
DANMEN
  6
CONTINUOUS
 10
315.703458
 20
203.830681
 30
0.0
 11
315.053762
 21
204.280687
 31
0.0
  0
ARC
  5
1C3AC
  8
DANMEN
  6
CONTINUOUS
 10
315.33846
 20
204.691719
 30
0.0
 40
0.5
 50
55.291951
 51
235.291951
  0
LINE
  5
1C3AE
  8
DANMEN
  6
CONTINUOUS
 10
313.288459
 20
205.690823
 30
0.0
 11
316.838466
 21
205.690823
 31
0.0
  0
LINE
  5
1C3B1
  8
DANMEN
  6
CONTINUOUS
 10
316.93846
 20
202.950389
 30
0.0
 11
316.93846
 21
204.191719
 31
0.0
  0
LINE
  5
1C3B2
  8
DANMEN
  6
CONTINUOUS
 10
318.038466
 20
200.190823
 30
0.0
 11
318.038466
 21
205.690823
 31
0.0
  0
LINE
  5
1C3B4
  8
DANMEN
  6
CONTINUOUS
 10
317.648368
 20
200.190823
 30
0.0
 11
318.038466
 21
200.190823
 31
0.0
  0
ARC
  5
1C3B5
  8
DANMEN
  6
CONTINUOUS
 10
317.648368
 20
200.690823
 30
0.0
 40
0.5
 50
191.309932
 51
270.0
  0
ARC
  5
1C3BA
  8
DANMEN
  6
CONTINUOUS
 10
268.038457
 20
257.190823
 30
0.0
 40
0.5
 50
89.999982
 51
180.000019
  0
LINE
  5
1C3BB
  8
DANMEN
  6
CONTINUOUS
 10
229.0
 20
244.05
 30
0.0
 11
248.8
 21
244.05
 31
0.0
  0
LINE
  5
1C3BC
  8
DANMEN
  6
CONTINUOUS
 10
228.0
 20
246.0
 30
0.0
 11
249.0
 21
246.0
 31
0.0
  0
LINE
  5
1C3BD
  8
DANMEN
  6
CONTINUOUS
 10
227.0
 20
245.0
 30
0.0
 11
227.0
 21
232.0
 31
0.0
  0
LINE
  5
1C3BE
  8
DANMEN
  6
CONTINUOUS
 10
229.0
 20
244.050003
 30
0.0
 11
229.0
 21
232.0
 31
0.0
  0
LINE
  5
1C3BF
  8
DANMEN
  6
CONTINUOUS
 10
207.0
 20
242.0
 30
0.0
 11
207.0
 21
237.800003
 31
0.0
  0
LINE
  5
1C3C0
  8
DANMEN
  6
CONTINUOUS
 10
207.0
 20
237.800003
 30
0.0
 11
227.0
 21
237.800003
 31
0.0
  0
ARC
  5
1C3C1
  8
DANMEN
  6
CONTINUOUS
 10
230.5
 20
230.55
 30
0.0
 40
0.5
 50
270.0
 51
0.0
  0
ARC
  5
1C3C2
  8
DANMEN
  6
CONTINUOUS
 10
230.5
 20
231.5
 30
0.0
 40
0.5
 50
0.0
 51
90.0
  0
LINE
  5
1C3C6
  8
DANMEN
  6
CONTINUOUS
 10
230.0
 20
230.05
 30
0.0
 11
230.5
 21
230.05
 31
0.0
  0
LINE
  5
1C3CA
  8
DANMEN
  6
CONTINUOUS
 10
230.0
 20
231.0
 30
0.0
 11
230.0
 21
230.050003
 31
0.0
  0
LINE
  5
1C3CB
  8
DANMEN
  6
CONTINUOUS
 10
229.0
 20
231.0
 30
0.0
 11
230.0
 21
231.0
 31
0.0
  0
LINE
  5
1C3CC
  8
DANMEN
  6
CONTINUOUS
 10
229.0
 20
232.0
 30
0.0
 11
230.5
 21
232.0
 31
0.0
  0
LINE
  5
1C3CF
  8
DANMEN
  6
CONTINUOUS
 10
231.0
 20
231.5
 30
0.0
 11
231.0
 21
230.550003
 31
0.0
  0
LINE
  5
1C3D0
  8
DANMEN
  6
CONTINUOUS
 10
207.0
 20
242.0
 30
0.0
 11
227.0
 21
242.0
 31
0.0
  0
LINE
  5
1C3D1
  8
DANMEN
  6
CONTINUOUS
 10
207.0
 20
240.800003
 30
0.0
 11
227.0
 21
240.800003
 31
0.0
  0
ARC
  5
1C3D2
  8
DANMEN
  6
CONTINUOUS
 10
211.399994
 20
241.399994
 30
0.0
 40
0.6
 50
270.000018
 51
90.000037
  0
ARC
  5
1C3D6
  8
DANMEN
  6
CONTINUOUS
 10
228.0
 20
245.0
 30
0.0
 40
1.0
 50
90.0
 51
180.0
  0
LINE
  5
1C3D7
  8
DANMEN
  6
CONTINUOUS
 10
248.05
 20
242.05
 30
0.0
 11
248.05
 21
234.0
 31
0.0
  0
LINE
  5
1C3D8
  8
DANMEN
  6
CONTINUOUS
 10
250.0
 20
245.0
 30
0.0
 11
250.0
 21
233.5
 31
0.0
  0
LINE
  5
1C3D9
  8
DANMEN
  6
CONTINUOUS
 10
255.0
 20
219.0
 30
0.0
 11
238.0
 21
219.0
 31
0.0
  0
LINE
  5
1C3DA
  8
DANMEN
  6
CONTINUOUS
 10
255.0
 20
227.0
 30
0.0
 11
238.0
 21
227.0
 31
0.0
  0
LINE
  5
1C3DB
  8
DANMEN
  6
CONTINUOUS
 10
255.0
 20
226.5
 30
0.0
 11
238.0
 21
226.5
 31
0.0
  0
LINE
  5
1C3DC
  8
DANMEN
  6
CONTINUOUS
 10
255.0
 20
219.5
 30
0.0
 11
238.0
 21
219.5
 31
0.0
  0
LINE
  5
1C3DD
  8
DANMEN
  6
CONTINUOUS
 10
250.0
 20
233.0
 30
0.0
 11
255.0
 21
233.0
 31
0.0
  0
LINE
  5
1C3DE
  8
DANMEN
  6
CONTINUOUS
 10
238.0
 20
227.0
 30
0.0
 11
238.0
 21
219.0
 31
0.0
  0
LINE
  5
1C3DF
  8
DANMEN
  6
CONTINUOUS
 10
248.12132
 20
219.0
 30
0.0
 11
247.0
 21
217.87868
 31
0.0
  0
LINE
  5
1C3E0
  8
DANMEN
  6
CONTINUOUS
 10
250.242641
 20
219.0
 30
0.0
 11
247.0
 21
215.757359
 31
0.0
  0
LINE
  5
1C3E1
  8
DANMEN
  6
CONTINUOUS
 10
250.83431
 20
217.923049
 30
0.0
 11
249.757359
 21
219.0
 31
0.0
  0
LINE
  5
1C3E2
  8
DANMEN
  6
CONTINUOUS
 10
250.551467
 20
216.084572
 30
0.0
 11
247.636039
 21
219.0
 31
0.0
  0
LINE
  5
1C3E5
  8
DANMEN
  6
CONTINUOUS
 10
249.393398
 20
233.0
 30
0.0
 11
247.0
 21
230.606602
 31
0.0
  0
LINE
  5
1C3E6
  8
DANMEN
  6
CONTINUOUS
 10
250.366306
 20
231.118975
 30
0.0
 11
248.485281
 21
233.0
 31
0.0
  0
LINE
  5
1C3E7
  8
DANMEN
  6
CONTINUOUS
 10
251.000003
 20
227.000004
 30
0.0
 11
250.000003
 21
233.500005
 31
0.0
  0
LINE
  5
1C3E8
  8
DANMEN
  6
CONTINUOUS
 10
250.268625
 20
231.753906
 30
0.0
 11
247.0
 21
228.485281
 31
0.0
  0
LINE
  5
1C3E9
  8
DANMEN
  6
CONTINUOUS
 10
250.752001
 20
228.61196
 30
0.0
 11
247.0
 21
232.363961
 31
0.0
  0
LINE
  5
1C3EA
  8
DANMEN
  6
CONTINUOUS
 10
250.242641
 20
227.0
 30
0.0
 11
247.0
 21
230.242641
 31
0.0
  0
LINE
  5
1C3EB
  8
DANMEN
  6
CONTINUOUS
 10
248.12132
 20
227.0
 30
0.0
 11
247.0
 21
228.12132
 31
0.0
  0
LINE
  5
1C3EC
  8
DANMEN
  6
CONTINUOUS
 10
250.551467
 20
229.915428
 30
0.0
 11
247.636039
 21
227.0
 31
0.0
  0
LINE
  5
1C3ED
  8
DANMEN
  6
CONTINUOUS
 10
250.83431
 20
228.076951
 30
0.0
 11
249.757359
 21
227.0
 31
0.0
  0
LINE
  5
1C3EE
  8
DANMEN
  6
CONTINUOUS
 10
247.272078
 20
233.0
 30
0.0
 11
247.0
 21
232.727922
 31
0.0
  0
LINE
  5
1C3EF
  8
DANMEN
  6
CONTINUOUS
 10
245.5
 20
234.0
 30
0.0
 11
248.05
 21
234.0
 31
0.0
  0
LINE
  5
1C3F0
  8
DANMEN
  6
CONTINUOUS
 10
245.0
 20
233.0
 30
0.0
 11
249.5
 21
233.0
 31
0.0
  0
ARC
  5
1C3F2
  8
DANMEN
  6
CONTINUOUS
 10
245.5
 20
233.5
 30
0.0
 40
0.5
 50
90.0
 51
180.0
  0
LINE
  5
1C3F4
  8
DANMEN
  6
CONTINUOUS
 10
245.0
 20
233.5
 30
0.0
 11
245.0
 21
233.0
 31
0.0
  0
ARC
  5
1C3F7
  8
DANMEN
  6
CONTINUOUS
 10
249.5
 20
233.5
 30
0.0
 40
0.5
 50
270.0
 51
0.0
  0
LINE
  5
1C3F8
  8
DANMEN
  6
CONTINUOUS
 10
249.0
 20
246.0
 30
0.0
 11
255.0
 21
246.0
 31
0.0
  0
LINE
  5
1C3F9
  8
DANMEN
  6
CONTINUOUS
 10
250.0
 20
243.800003
 30
0.0
 11
255.0
 21
243.800003
 31
0.0
  0
LINE
  5
1C3FC
  8
DANMEN
  6
CONTINUOUS
 10
248.05
 20
242.05
 30
0.0
 11
248.8
 21
242.05
 31
0.0
  0
LINE
  5
1C3FE
  8
DANMEN
  6
CONTINUOUS
 10
248.8
 20
244.05
 30
0.0
 11
248.8
 21
242.05
 31
0.0
  0
ARC
  5
1C401
  8
DANMEN
  6
CONTINUOUS
 10
249.0
 20
245.0
 30
0.0
 40
1.0
 50
0.0
 51
90.0
  0
LINE
  5
1C403
  8
DANMEN
  6
CONTINUOUS
 10
327.36346
 20
262.0
 30
0.0
 11
327.36346
 21
245.690823
 31
0.0
  0
LINE
  5
1C404
  8
DANMEN
  6
CONTINUOUS
 10
327.86346
 20
262.0
 30
0.0
 11
327.86346
 21
245.690823
 31
0.0
  0
LINE
  5
1C405
  8
DANMEN
  6
CONTINUOUS
 10
320.36346
 20
262.0
 30
0.0
 11
320.36346
 21
245.690823
 31
0.0
  0
LINE
  5
1C406
  8
DANMEN
  6
CONTINUOUS
 10
319.86346
 20
262.0
 30
0.0
 11
319.86346
 21
245.690823
 31
0.0
  0
LINE
  5
1C407
  8
DANMEN
  6
CONTINUOUS
 10
284.83846
 20
245.690823
 30
0.0
 11
284.83846
 21
262.0
 31
0.0
  0
LINE
  5
1C408
  8
DANMEN
  6
CONTINUOUS
 10
291.83846
 20
245.690823
 30
0.0
 11
291.83846
 21
262.0
 31
0.0
  0
LINE
  5
1C409
  8
DANMEN
  6
CONTINUOUS
 10
292.33846
 20
245.690823
 30
0.0
 11
292.33846
 21
262.0
 31
0.0
  0
LINE
  5
1C40A
  8
DANMEN
  6
CONTINUOUS
 10
284.33846
 20
245.690823
 30
0.0
 11
284.33846
 21
262.0
 31
0.0
  0
LINE
  5
1C40B
  8
DANMEN
  6
CONTINUOUS
 10
313.83846
 20
262.0
 30
0.0
 11
313.83846
 21
257.690823
 31
0.0
  0
LINE
  5
1C40C
  8
DANMEN
  6
CONTINUOUS
 10
298.33846
 20
262.0
 30
0.0
 11
298.33846
 21
257.690823
 31
0.0
  0
LINE
  5
1C40D
  8
DANMEN
  6
CONTINUOUS
 10
278.33846
 20
262.0
 30
0.0
 11
278.33846
 21
257.690823
 31
0.0
  0
LINE
  5
1C40E
  8
DANMEN
  6
CONTINUOUS
 10
298.83846
 20
257.690823
 30
0.0
 11
300.638463
 21
257.690823
 31
0.0
  0
LINE
  5
1C40F
  8
DANMEN
  6
CONTINUOUS
 10
295.83846
 20
235.690823
 30
0.0
 11
295.83846
 21
245.690823
 31
0.0
  0
LINE
  5
1C410
  8
DANMEN
  6
CONTINUOUS
 10
280.83846
 20
235.690823
 30
0.0
 11
280.83846
 21
245.690823
 31
0.0
  0
LINE
  5
1C411
  8
DANMEN
  6
CONTINUOUS
 10
295.83846
 20
245.690823
 30
0.0
 11
280.83846
 21
235.690823
 31
0.0
  0
LINE
  5
1C412
  8
DANMEN
  6
CONTINUOUS
 10
269.488454
 20
235.690823
 30
0.0
 11
269.488454
 21
255.740826
 31
0.0
  0
LINE
  5
1C413
  8
DANMEN
  6
CONTINUOUS
 10
299.188466
 20
252.690823
 30
0.0
 11
299.188466
 21
235.690823
 31
0.0
  0
LINE
  5
1C414
  8
DANMEN
  6
CONTINUOUS
 10
280.83846
 20
235.690823
 30
0.0
 11
295.83846
 21
235.690823
 31
0.0
  0
LINE
  5
1C415
  8
DANMEN
  6
CONTINUOUS
 10
269.538457
 20
233.740826
 30
0.0
 11
287.038457
 21
233.740826
 31
0.0
  0
LINE
  5
1C416
  8
DANMEN
  6
CONTINUOUS
 10
269.488454
 20
235.690823
 30
0.0
 11
299.188466
 21
235.690823
 31
0.0
  0
ARC
  5
1C41A
  8
DANMEN
  6
CONTINUOUS
 10
292.13846
 20
232.990823
 30
0.0
 40
1.0
 50
0.0
 51
90.0
  0
LINE
  5
1C41B
  8
DANMEN
  6
CONTINUOUS
 10
288.03846
 20
231.660517
 30
0.0
 11
288.03846
 21
232.740826
 31
0.0
  0
LINE
  5
1C41C
  8
DANMEN
  6
CONTINUOUS
 10
289.53846
 20
231.744762
 30
0.0
 11
289.53846
 21
232.990823
 31
0.0
  0
ARC
  5
1C41D
  8
DANMEN
  6
CONTINUOUS
 10
290.03846
 20
231.660517
 30
0.0
 40
2.0
 50
180.0
 51
231.706523
  0
ARC
  5
1C41E
  8
DANMEN
  6
CONTINUOUS
 10
290.03846
 20
230.653891
 30
0.0
 40
0.2
 50
0.0
 51
65.375682
  0
ARC
  5
1C41F
  8
DANMEN
  6
CONTINUOUS
 10
290.53846
 20
231.744762
 30
0.0
 40
1.0
 50
180.0
 51
245.375682
  0
LINE
  5
1C420
  8
DANMEN
  6
CONTINUOUS
 10
290.23846
 20
230.390823
 30
0.0
 11
290.23846
 21
230.653891
 31
0.0
  0
LINE
  5
1C422
  8
DANMEN
  6
CONTINUOUS
 10
288.79908
 20
230.090823
 30
0.0
 11
289.93846
 21
230.090823
 31
0.0
  0
ARC
  5
1C423
  8
DANMEN
  6
CONTINUOUS
 10
289.93846
 20
230.390823
 30
0.0
 40
0.3
 50
270.0
 51
0.0
  0
ARC
  5
1C425
  8
DANMEN
  6
CONTINUOUS
 10
287.03846
 20
232.740826
 30
0.0
 40
1.0
 50
0.0
 51
90.0
  0
ARC
  5
1C428
  8
DANMEN
  6
CONTINUOUS
 10
290.53846
 20
232.990823
 30
0.0
 40
1.0
 50
90.0
 51
180.0
  0
LINE
  5
1C429
  8
DANMEN
  6
CONTINUOUS
 10
290.53846
 20
233.990823
 30
0.0
 11
292.13846
 21
233.990823
 31
0.0
  0
LINE
  5
1C42A
  8
DANMEN
  6
CONTINUOUS
 10
294.63846
 20
231.660517
 30
0.0
 11
294.63846
 21
232.740826
 31
0.0
  0
LINE
  5
1C42B
  8
DANMEN
  6
CONTINUOUS
 10
293.13846
 20
231.744762
 30
0.0
 11
293.13846
 21
232.990823
 31
0.0
  0
LINE
  5
1C42C
  8
DANMEN
  6
CONTINUOUS
 10
292.43846
 20
230.390823
 30
0.0
 11
292.43846
 21
230.653891
 31
0.0
  0
ARC
  5
1C42D
  8
DANMEN
  6
CONTINUOUS
 10
292.13846
 20
231.744762
 30
0.0
 40
1.0
 50
294.624318
 51
0.0
  0
ARC
  5
1C42E
  8
DANMEN
  6
CONTINUOUS
 10
292.63846
 20
230.653891
 30
0.0
 40
0.2
 50
114.624318
 51
180.0
  0
ARC
  5
1C42F
  8
DANMEN
  6
CONTINUOUS
 10
292.63846
 20
231.660517
 30
0.0
 40
2.0
 50
308.293477
 51
0.0
  0
LINE
  5
1C431
  8
DANMEN
  6
CONTINUOUS
 10
292.73846
 20
230.090823
 30
0.0
 11
293.877839
 21
230.090823
 31
0.0
  0
ARC
  5
1C432
  8
DANMEN
  6
CONTINUOUS
 10
292.73846
 20
230.390823
 30
0.0
 40
0.3
 50
180.0
 51
270.0
  0
LINE
  5
1C433
  8
DANMEN
  6
CONTINUOUS
 10
295.638463
 20
233.740826
 30
0.0
 11
299.138463
 21
233.740826
 31
0.0
  0
ARC
  5
1C436
  8
DANMEN
  6
CONTINUOUS
 10
295.63846
 20
232.740826
 30
0.0
 40
1.0
 50
90.0
 51
180.0
  0
LINE
  5
1C439
  8
DANMEN
  6
CONTINUOUS
 10
284.33846
 20
257.448182
 30
0.0
 11
283.261509
 21
258.525133
 31
0.0
  0
LINE
  5
1C43A
  8
DANMEN
  6
CONTINUOUS
 10
284.33846
 20
255.326862
 30
0.0
 11
281.423031
 21
258.24229
 31
0.0
  0
LINE
  5
1C43B
  8
DANMEN
  6
CONTINUOUS
 10
283.217139
 20
254.690823
 30
0.0
 11
284.33846
 21
255.812143
 31
0.0
  0
LINE
  5
1C43C
  8
DANMEN
  6
CONTINUOUS
 10
281.095819
 20
254.690823
 30
0.0
 11
284.33846
 21
257.933464
 31
0.0
  0
LINE
  5
1C43D
  8
DANMEN
  6
CONTINUOUS
 10
284.338463
 20
258.690818
 30
0.0
 11
277.838461
 21
257.690818
 31
0.0
  0
LINE
  5
1C43E
  8
DANMEN
  6
CONTINUOUS
 10
280.83846
 20
245.690823
 30
0.0
 11
295.83846
 21
245.690823
 31
0.0
  0
LINE
  5
1C440
  8
DANMEN
  6
CONTINUOUS
 10
269.488454
 20
255.740826
 30
0.0
 11
277.33846
 21
255.740826
 31
0.0
  0
LINE
  5
1C441
  8
DANMEN
  6
CONTINUOUS
 10
268.038457
 20
257.690823
 30
0.0
 11
277.83846
 21
257.690823
 31
0.0
  0
LINE
  5
1C443
  8
DANMEN
  6
CONTINUOUS
 10
282.853178
 20
254.690823
 30
0.0
 11
279.584554
 21
257.959448
 31
0.0
  0
LINE
  5
1C444
  8
DANMEN
  6
CONTINUOUS
 10
280.731858
 20
254.690823
 30
0.0
 11
278.33846
 21
257.084221
 31
0.0
  0
LINE
  5
1C445
  8
DANMEN
  6
CONTINUOUS
 10
278.974499
 20
254.690823
 30
0.0
 11
282.726499
 21
258.442824
 31
0.0
  0
LINE
  5
1C446
  8
DANMEN
  6
CONTINUOUS
 10
278.33846
 20
257.190823
 30
0.0
 11
278.33846
 21
252.690823
 31
0.0
  0
LINE
  5
1C447
  8
DANMEN
  6
CONTINUOUS
 10
278.610538
 20
254.690823
 30
0.0
 11
278.33846
 21
254.962901
 31
0.0
  0
ARC
  5
1C448
  8
DANMEN
  6
CONTINUOUS
 10
277.83846
 20
253.190823
 30
0.0
 40
0.5
 50
180.000019
 51
270.000001
  0
LINE
  5
1C44C
  8
DANMEN
  6
CONTINUOUS
 10
277.33846
 20
255.740826
 30
0.0
 11
277.33846
 21
253.190823
 31
0.0
  0
LINE
  5
1C44D
  8
DANMEN
  6
CONTINUOUS
 10
277.83846
 20
252.690823
 30
0.0
 11
278.33846
 21
252.690823
 31
0.0
  0
LINE
  5
1C44E
  8
DANMEN
  6
CONTINUOUS
 10
278.33846
 20
256.176104
 30
0.0
 11
280.219485
 21
258.057129
 31
0.0
  0
ARC
  5
1C44F
  8
DANMEN
  6
CONTINUOUS
 10
277.83846
 20
257.190823
 30
0.0
 40
0.5
 50
0.0
 51
89.999982
  0
LINE
  5
1C451
  8
DANMEN
  6
CONTINUOUS
 10
292.33846
 20
245.690823
 30
0.0
 11
284.33846
 21
245.690823
 31
0.0
  0
LINE
  5
1C456
  8
DANMEN
  6
CONTINUOUS
 10
297.702421
 20
254.690823
 30
0.0
 11
293.95042
 21
258.442824
 31
0.0
  0
LINE
  5
1C457
  8
DANMEN
  6
CONTINUOUS
 10
295.5811
 20
254.690823
 30
0.0
 11
292.33846
 21
257.933464
 31
0.0
  0
LINE
  5
1C458
  8
DANMEN
  6
CONTINUOUS
 10
295.945061
 20
254.690823
 30
0.0
 11
298.33846
 21
257.084221
 31
0.0
  0
LINE
  5
1C459
  8
DANMEN
  6
CONTINUOUS
 10
293.823741
 20
254.690823
 30
0.0
 11
297.092366
 21
257.959448
 31
0.0
  0
LINE
  5
1C45A
  8
DANMEN
  6
CONTINUOUS
 10
292.33846
 20
255.326862
 30
0.0
 11
295.253888
 21
258.24229
 31
0.0
  0
LINE
  5
1C45B
  8
DANMEN
  6
CONTINUOUS
 10
298.33846
 20
257.190823
 30
0.0
 11
298.33846
 21
252.690823
 31
0.0
  0
LINE
  5
1C45C
  8
DANMEN
  6
CONTINUOUS
 10
293.45978
 20
254.690823
 30
0.0
 11
292.33846
 21
255.812143
 31
0.0
  0
LINE
  5
1C45D
  8
DANMEN
  6
CONTINUOUS
 10
298.066382
 20
254.690823
 30
0.0
 11
298.33846
 21
254.962901
 31
0.0
  0
LINE
  5
1C460
  8
DANMEN
  6
CONTINUOUS
 10
298.33846
 20
252.690823
 30
0.0
 11
299.188466
 21
252.690823
 31
0.0
  0
LINE
  5
1C461
  8
DANMEN
  6
CONTINUOUS
 10
292.338464
 20
258.690826
 30
0.0
 11
298.838465
 21
257.690826
 31
0.0
  0
LINE
  5
1C462
  8
DANMEN
  6
CONTINUOUS
 10
292.33846
 20
257.448182
 30
0.0
 11
293.41541
 21
258.525133
 31
0.0
  0
LINE
  5
1C463
  8
DANMEN
  6
CONTINUOUS
 10
298.33846
 20
256.176104
 30
0.0
 11
296.457435
 21
258.057129
 31
0.0
  0
ARC
  5
1C464
  8
DANMEN
  6
CONTINUOUS
 10
298.83846
 20
257.190823
 30
0.0
 40
0.5
 50
89.999982
 51
180.000019
  0
LINE
  5
1C466
  8
DANMEN
  6
CONTINUOUS
 10
331.363458
 20
235.690823
 30
0.0
 11
331.363458
 21
245.690823
 31
0.0
  0
LINE
  5
1C467
  8
DANMEN
  6
CONTINUOUS
 10
316.363458
 20
235.690823
 30
0.0
 11
316.363458
 21
245.690823
 31
0.0
  0
LINE
  5
1C468
  8
DANMEN
  6
CONTINUOUS
 10
331.363458
 20
245.690823
 30
0.0
 11
316.363458
 21
235.690823
 31
0.0
  0
LINE
  5
1C469
  8
DANMEN
  6
CONTINUOUS
 10
313.338459
 20
252.690823
 30
0.0
 11
313.338459
 21
235.690823
 31
0.0
  0
LINE
  5
1C46A
  8
DANMEN
  6
CONTINUOUS
 10
316.363458
 20
235.690823
 30
0.0
 11
331.363458
 21
235.690823
 31
0.0
  0
LINE
  5
1C46B
  8
DANMEN
  6
CONTINUOUS
 10
318.03846
 20
233.690826
 30
0.0
 11
313.338459
 21
233.690826
 31
0.0
  0
ARC
  5
1C46F
  8
DANMEN
  6
CONTINUOUS
 10
323.638464
 20
231.660517
 30
0.0
 40
2.0
 50
308.293503
 51
0.000026
  0
LINE
  5
1C470
  8
DANMEN
  6
CONTINUOUS
 10
320.538459
 20
231.744763
 30
0.0
 11
320.53846
 21
232.990824
 31
0.0
  0
LINE
  5
1C471
  8
DANMEN
  6
CONTINUOUS
 10
324.138464
 20
231.744763
 30
0.0
 11
324.138464
 21
232.990824
 31
0.0
  0
ARC
  5
1C472
  8
DANMEN
  6
CONTINUOUS
 10
318.03846
 20
232.690826
 30
0.0
 40
1.0
 50
0.0
 51
90.0
  0
ARC
  5
1C473
  8
DANMEN
  6
CONTINUOUS
 10
320.938459
 20
230.390824
 30
0.0
 40
0.3
 50
269.999974
 51
359.999974
  0
ARC
  5
1C474
  8
DANMEN
  6
CONTINUOUS
 10
321.538459
 20
231.744762
 30
0.0
 40
1.0
 50
179.999974
 51
245.375656
  0
ARC
  5
1C475
  8
DANMEN
  6
CONTINUOUS
 10
321.038459
 20
231.660517
 30
0.0
 40
2.0
 50
179.999974
 51
231.706497
  0
LINE
  5
1C476
  8
DANMEN
  6
CONTINUOUS
 10
320.938459
 20
230.090824
 30
0.0
 11
319.799079
 21
230.090824
 31
0.0
  0
LINE
  5
1C477
  8
DANMEN
  6
CONTINUOUS
 10
319.038459
 20
231.660518
 30
0.0
 11
319.03846
 21
232.690825
 31
0.0
  0
LINE
  5
1C478
  8
DANMEN
  6
CONTINUOUS
 10
323.438465
 20
230.390823
 30
0.0
 11
323.438465
 21
230.653891
 31
0.0
  0
ARC
  5
1C479
  8
DANMEN
  6
CONTINUOUS
 10
323.138464
 20
231.744762
 30
0.0
 40
1.0
 50
294.624344
 51
0.000026
  0
ARC
  5
1C47A
  8
DANMEN
  6
CONTINUOUS
 10
323.638465
 20
230.653892
 30
0.0
 40
0.2
 50
114.624344
 51
180.000026
  0
LINE
  5
1C47B
  8
DANMEN
  6
CONTINUOUS
 10
323.738465
 20
230.090824
 30
0.0
 11
324.877845
 21
230.090824
 31
0.0
  0
ARC
  5
1C47C
  8
DANMEN
  6
CONTINUOUS
 10
323.738465
 20
230.390824
 30
0.0
 40
0.3
 50
180.000026
 51
270.000026
  0
ARC
  5
1C47D
  8
DANMEN
  6
CONTINUOUS
 10
321.038459
 20
230.653892
 30
0.0
 40
0.2
 50
359.999974
 51
65.375656
  0
LINE
  5
1C47E
  8
DANMEN
  6
CONTINUOUS
 10
321.238459
 20
230.390823
 30
0.0
 11
321.238459
 21
230.653891
 31
0.0
  0
ARC
  5
1C47F
  8
DANMEN
  6
CONTINUOUS
 10
321.53846
 20
232.990823
 30
0.0
 40
1.0
 50
89.999974
 51
179.999974
  0
LINE
  5
1C481
  8
DANMEN
  6
CONTINUOUS
 10
317.86346
 20
235.690818
 30
0.0
 11
320.206552
 21
235.690818
 31
0.0
  0
ARC
  5
1C483
  8
DANMEN
  6
CONTINUOUS
 10
323.138464
 20
232.990823
 30
0.0
 40
1.0
 50
0.000026
 51
90.000026
  0
LINE
  5
1C484
  8
DANMEN
  6
CONTINUOUS
 10
321.538463
 20
233.990823
 30
0.0
 11
323.138463
 21
233.990823
 31
0.0
  0
ARC
  5
1C485
  8
DANMEN
  6
CONTINUOUS
 10
326.638464
 20
232.690826
 30
0.0
 40
1.0
 50
90.0
 51
180.0
  0
LINE
  5
1C486
  8
DANMEN
  6
CONTINUOUS
 10
325.638464
 20
231.660518
 30
0.0
 11
325.638464
 21
232.690825
 31
0.0
  0
LINE
  5
1C489
  8
DANMEN
  6
CONTINUOUS
 10
318.378178
 20
254.69082
 30
0.0
 11
315.109554
 21
257.959445
 31
0.0
  0
LINE
  5
1C48A
  8
DANMEN
  6
CONTINUOUS
 10
316.620819
 20
254.69082
 30
0.0
 11
319.86346
 21
257.933461
 31
0.0
  0
LINE
  5
1C48B
  8
DANMEN
  6
CONTINUOUS
 10
314.499499
 20
254.69082
 30
0.0
 11
318.251499
 21
258.442821
 31
0.0
  0
LINE
  5
1C48C
  8
DANMEN
  6
CONTINUOUS
 10
316.363458
 20
245.690823
 30
0.0
 11
331.363458
 21
245.690823
 31
0.0
  0
LINE
  5
1C48D
  8
DANMEN
  6
CONTINUOUS
 10
319.863463
 20
258.690815
 30
0.0
 11
313.363461
 21
257.690815
 31
0.0
  0
ARC
  5
1C48F
  8
DANMEN
  6
CONTINUOUS
 10
300.638463
 20
257.190823
 30
0.0
 40
0.5
 50
0.0
 51
89.999982
  0
LINE
  5
1C491
  8
DANMEN
  6
CONTINUOUS
 10
316.256858
 20
254.69082
 30
0.0
 11
313.86346
 21
257.084218
 31
0.0
  0
LINE
  5
1C492
  8
DANMEN
  6
CONTINUOUS
 10
313.83846
 20
257.190823
 30
0.0
 11
313.83846
 21
252.690823
 31
0.0
  0
LINE
  5
1C493
  8
DANMEN
  6
CONTINUOUS
 10
314.135538
 20
254.69082
 30
0.0
 11
313.86346
 21
254.962898
 31
0.0
  0
LINE
  5
1C494
  8
DANMEN
  6
CONTINUOUS
 10
313.338459
 20
252.690823
 30
0.0
 11
313.83846
 21
252.690823
 31
0.0
  0
LINE
  5
1C495
  8
DANMEN
  6
CONTINUOUS
 10
311.83846
 20
257.690823
 30
0.0
 11
313.33846
 21
257.690823
 31
0.0
  0
ARC
  5
1C496
  8
DANMEN
  6
CONTINUOUS
 10
311.83846
 20
257.190823
 30
0.0
 40
0.5
 50
89.999982
 51
180.000019
  0
LINE
  5
1C497
  8
DANMEN
  6
CONTINUOUS
 10
313.86346
 20
256.176101
 30
0.0
 11
315.744485
 21
258.057126
 31
0.0
  0
ARC
  5
1C498
  8
DANMEN
  6
CONTINUOUS
 10
313.33846
 20
257.190823
 30
0.0
 40
0.5
 50
0.0
 51
89.999982
  0
LINE
  5
1C499
  8
DANMEN
  6
CONTINUOUS
 10
319.86346
 20
245.690823
 30
0.0
 11
327.86346
 21
245.690823
 31
0.0
  0
LINE
  5
1C49B
  8
DANMEN
  6
CONTINUOUS
 10
319.86346
 20
255.326859
 30
0.0
 11
316.948031
 21
258.242287
 31
0.0
  0
LINE
  5
1C49C
  8
DANMEN
  6
CONTINUOUS
 10
318.742139
 20
254.69082
 30
0.0
 11
319.86346
 21
255.81214
 31
0.0
  0
LINE
  5
1C49D
  8
DANMEN
  6
CONTINUOUS
 10
319.86346
 20
257.448179
 30
0.0
 11
318.786509
 21
258.52513
 31
0.0
  0
LINE
  5
1C4A0
  8
DANMEN
  6
CONTINUOUS
 10
333.227421
 20
254.69082
 30
0.0
 11
329.47542
 21
258.442821
 31
0.0
  0
LINE
  5
1C4A1
  8
DANMEN
  6
CONTINUOUS
 10
331.1061
 20
254.69082
 30
0.0
 11
327.86346
 21
257.933461
 31
0.0
  0
LINE
  5
1C4A2
  8
DANMEN
  6
CONTINUOUS
 10
329.348741
 20
254.69082
 30
0.0
 11
332.617366
 21
257.959445
 31
0.0
  0
LINE
  5
1C4A3
  8
DANMEN
  6
CONTINUOUS
 10
327.86346
 20
255.326859
 30
0.0
 11
330.778888
 21
258.242287
 31
0.0
  0
LINE
  5
1C4A4
  8
DANMEN
  6
CONTINUOUS
 10
328.98478
 20
254.69082
 30
0.0
 11
327.86346
 21
255.81214
 31
0.0
  0
LINE
  5
1C4A5
  8
DANMEN
  6
CONTINUOUS
 10
327.86346
 20
257.448179
 30
0.0
 11
328.94041
 21
258.52513
 31
0.0
  0
LINE
  5
1C4A6
  8
SUNPO
  6
CONTINUOUS
 10
21.0
 20
175.0
 30
0.0
 11
21.0
 21
225.0
 31
0.0
  0
LINE
  5
1C4A7
  8
DANMEN
  6
CONTINUOUS
 10
345.13846
 20
207.690823
 30
0.0
 11
345.13846
 21
233.690826
 31
0.0
  0
LINE
  5
1C4A8
  8
DANMEN
  6
CONTINUOUS
 10
347.13846
 20
178.190823
 30
0.0
 11
347.13846
 21
257.190823
 31
0.0
  0
LINE
  5
1C4A9
  8
DANMEN
  6
CONTINUOUS
 10
349.33846
 20
262.0
 30
0.0
 11
349.33846
 21
172.690823
 31
0.0
  0
LINE
  5
1C4AA
  8
DANMEN
  6
CONTINUOUS
 10
400.350006
 20
149.350006
 30
0.0
 11
393.649994
 21
149.350006
 31
0.0
  0
LINE
  5
1C4AB
  8
DANMEN
  6
CONTINUOUS
 10
401.5
 20
151.0
 30
0.0
 11
377.5
 21
151.0
 31
0.0
  0
LINE
  5
1C4AC
  8
DANMEN
  6
CONTINUOUS
 10
377.0
 20
151.0
 30
0.0
 11
357.0
 21
151.0
 31
0.0
  0
LINE
  5
1C4AD
  8
DANMEN
  6
CONTINUOUS
 10
357.0
 20
154.000003
 30
0.0
 11
357.0
 21
149.800003
 31
0.0
  0
LINE
  5
1C4AF
  8
DANMEN
  6
CONTINUOUS
 10
352.600006
 20
152.800003
 30
0.0
 11
357.0
 21
152.800003
 31
0.0
  0
LINE
  5
1C4B0
  8
DANMEN
  6
CONTINUOUS
 10
352.600006
 20
154.000003
 30
0.0
 11
357.0
 21
154.000003
 31
0.0
  0
ARC
  5
1C4B5
  8
DANMEN
  6
CONTINUOUS
 10
352.600006
 20
153.399994
 30
0.0
 40
0.6
 50
89.999963
 51
269.999982
  0
LINE
  5
1C4B6
  8
DANMEN
  6
CONTINUOUS
 10
390.0
 20
149.350006
 30
0.0
 11
377.5
 21
149.350006
 31
0.0
  0
ARC
  5
1C4BB
  8
DANMEN
  6
CONTINUOUS
 10
377.5
 20
150.5
 30
0.0
 40
0.5
 50
90.000037
 51
180.000019
  0
LINE
  5
1C4BC
  8
DANMEN
  6
CONTINUOUS
 10
377.0
 20
150.5
 30
0.0
 11
377.0
 21
149.850006
 31
0.0
  0
ARC
  5
1C4BD
  8
DANMEN
  6
CONTINUOUS
 10
377.5
 20
149.850006
 30
0.0
 40
0.5
 50
180.0
 51
270.0
  0
LINE
  5
1C4BE
  8
DANMEN
  6
CONTINUOUS
 10
392.0
 20
149.800003
 30
0.0
 11
390.0
 21
149.800003
 31
0.0
  0
LINE
  5
1C4C1
  8
DANMEN
  6
CONTINUOUS
 10
390.0
 20
149.800003
 30
0.0
 11
390.0
 21
149.350006
 31
0.0
  0
LINE
  5
1C4C4
  8
DANMEN
  6
CONTINUOUS
 10
345.13846
 20
179.690823
 30
0.0
 11
345.13846
 21
205.690823
 31
0.0
  0
LINE
  5
1C4C5
  8
DANMEN
  6
CONTINUOUS
 10
333.616382
 20
180.690825
 30
0.0
 11
333.88846
 21
180.418747
 31
0.0
  0
LINE
  5
1C4C6
  8
DANMEN
  6
CONTINUOUS
 10
333.83846
 20
178.190824
 30
0.0
 11
333.83846
 21
182.690823
 31
0.0
  0
LINE
  5
1C4C7
  8
DANMEN
  6
CONTINUOUS
 10
335.33846
 20
179.690823
 30
0.0
 11
335.33846
 21
188.190823
 31
0.0
  0
LINE
  5
1C4C8
  8
DANMEN
  6
CONTINUOUS
 10
335.33846
 20
179.690823
 30
0.0
 11
345.13846
 21
179.690823
 31
0.0
  0
LINE
  5
1C4C9
  8
DANMEN
  6
CONTINUOUS
 10
334.33846
 20
177.690823
 30
0.0
 11
346.63846
 21
177.690823
 31
0.0
  0
LINE
  5
1C4CA
  8
DANMEN
  6
CONTINUOUS
 10
333.83846
 20
177.690823
 30
0.0
 11
333.83846
 21
172.690823
 31
0.0
  0
ARC
  5
1C4CC
  8
DANMEN
  6
CONTINUOUS
 10
334.33846
 20
178.190823
 30
0.0
 40
0.5
 50
180.0
 51
270.0
  0
ARC
  5
1C4CE
  8
DANMEN
  6
CONTINUOUS
 10
346.63846
 20
178.190823
 30
0.0
 40
0.5
 50
270.0
 51
0.0
  0
LINE
  5
1C4CF
  8
DANMEN
  6
CONTINUOUS
 10
334.33846
 20
182.690823
 30
0.0
 11
334.33846
 21
187.690823
 31
0.0
  0
LINE
  5
1C4D2
  8
DANMEN
  6
CONTINUOUS
 10
334.33846
 20
182.690823
 30
0.0
 11
333.83846
 21
182.690823
 31
0.0
  0
ARC
  5
1C4D4
  8
DANMEN
  6
CONTINUOUS
 10
334.83846
 20
188.190823
 30
0.0
 40
0.5
 50
0.0
 51
90.0
  0
LINE
  5
1C4D5
  8
DANMEN
  6
CONTINUOUS
 10
334.83846
 20
188.690823
 30
0.0
 11
334.33846
 21
188.690823
 31
0.0
  0
ARC
  5
1C4D8
  8
DANMEN
  6
CONTINUOUS
 10
334.33846
 20
188.190823
 30
0.0
 40
0.5
 50
90.0
 51
180.0
  0
LINE
  5
1C4D9
  8
DANMEN
  6
CONTINUOUS
 10
333.83846
 20
187.690823
 30
0.0
 11
333.83846
 21
188.190823
 31
0.0
  0
LINE
  5
1C4DB
  8
DANMEN
  6
CONTINUOUS
 10
334.33846
 20
187.690823
 30
0.0
 11
333.83846
 21
187.690823
 31
0.0
  0
LINE
  5
1C4DE
  8
SUNPO
  6
CONTINUOUS
 10
33.5
 20
165.0
 30
0.0
 11
21.0
 21
165.0
 31
0.0
  0
LINE
  5
1C4DF
  8
DANMEN
  6
CONTINUOUS
 10
400.350006
 20
149.350006
 30
0.0
 11
400.350006
 21
145.5
 31
0.0
  0
LINE
  5
1C4E0
  8
DANMEN
  6
CONTINUOUS
 10
402.0
 20
150.5
 30
0.0
 11
402.0
 21
145.5
 31
0.0
  0
ARC
  5
1C4E3
  8
DANMEN
  6
CONTINUOUS
 10
400.850006
 20
145.5
 30
0.0
 40
0.5
 50
180.000019
 51
270.000001
  0
ARC
  5
1C4E4
  8
DANMEN
  6
CONTINUOUS
 10
401.5
 20
145.5
 30
0.0
 40
0.5
 50
270.000018
 51
359.999981
  0
LINE
  5
1C4E5
  8
DANMEN
  6
CONTINUOUS
 10
401.5
 20
145.0
 30
0.0
 11
400.850006
 21
145.0
 31
0.0
  0
ARC
  5
1C4E7
  8
DANMEN
  6
CONTINUOUS
 10
401.5
 20
150.5
 30
0.0
 40
0.5
 50
0.0
 51
89.999982
  0
ARC
  5
1C4E9
  8
SUNPO
  6
BYBLOCK
 10
21.0
 20
165.0
 30
0.0
 40
0.145
 50
90.0
 51
270.0
  0
ARC
  5
1C4EA
  8
SUNPO
  6
BYBLOCK
 10
21.0
 20
165.0
 30
0.0
 40
0.145
 50
270.0
 51
90.0
  0
ARC
  5
1C4EB
  8
SUNPO
  6
BYBLOCK
 10
35.0
 20
155.5
 30
0.0
 40
0.145
 50
180.0
 51
0.0
  0
ARC
  5
1C4EC
  8
SUNPO
  6
BYBLOCK
 10
35.0
 20
155.5
 30
0.0
 40
0.145
 50
0.0
 51
180.0
  0
TEXT
  5
1C4ED
  8
SUNPO
  6
CONTINUOUS
 10
56.178385
 20
156.5
 30
0.0
 40
2.5
  1
38
  7
MX_NOTE_STANDARD
  0
LINE
  5
1C4EE
  8
SUNPO
  6
CONTINUOUS
 10
35.0
 20
170.428279
 30
0.0
 11
29.013333
 21
170.428279
 31
0.0
  0
LINE
  5
1C4EF
  8
SUNPO
  6
CONTINUOUS
 10
33.5
 20
175.0
 30
0.0
 11
21.0
 21
175.0
 31
0.0
  0
ARC
  5
1C4F0
  8
SUNPO
  6
BYBLOCK
 10
21.0
 20
175.0
 30
0.0
 40
0.145
 50
270.0
 51
90.0
  0
ARC
  5
1C4F1
  8
SUNPO
  6
BYBLOCK
 10
21.0
 20
175.0
 30
0.0
 40
0.145
 50
90.0
 51
270.0
  0
TEXT
  5
1C4F2
  8
SUNPO
  6
CONTINUOUS
 10
30.013333
 20
171.428279
 30
0.0
 40
2.5
  1
7
  7
MX_NOTE_STANDARD
  0
TEXT
  5
1C4F3
  8
SUNPO
  6
CONTINUOUS
 10
20.0
 20
198.125
 30
0.0
 40
2.5
  1
50
 50
90.0
  7
MX_NOTE_STANDARD
  0
LINE
  5
1C4F4
  8
SUNPO
  6
CONTINUOUS
 10
42.0
 20
183.5
 30
0.0
 11
42.0
 21
170.428279
 31
0.0
  0
LINE
  5
1C4F5
  8
SUNPO
  6
CONTINUOUS
 10
42.0
 20
170.428279
 30
0.0
 11
35.0
 21
170.428279
 31
0.0
  0
ARC
  5
1C4F6
  8
SUNPO
  6
BYBLOCK
 10
35.0
 20
170.428279
 30
0.0
 40
0.145
 50
180.0
 51
0.0
  0
ARC
  5
1C4F7
  8
SUNPO
  6
BYBLOCK
 10
35.0
 20
170.428279
 30
0.0
 40
0.145
 50
0.0
 51
180.0
  0
ARC
  5
1C4F8
  8
SUNPO
  6
BYBLOCK
 10
42.0
 20
170.428279
 30
0.0
 40
0.145
 50
0.0
 51
180.0
  0
ARC
  5
1C4F9
  8
SUNPO
  6
BYBLOCK
 10
42.0
 20
170.428279
 30
0.0
 40
0.145
 50
180.0
 51
0.0
  0
ARC
  5
1C4FA
  8
SUNPO
  6
BYBLOCK
 10
42.0
 20
170.428279
 30
0.0
 40
0.145
 50
180.0
 51
0.0
  0
ARC
  5
1C4FB
  8
SUNPO
  6
BYBLOCK
 10
42.0
 20
170.428279
 30
0.0
 40
0.145
 50
0.0
 51
180.0
  0
LINE
  5
1C4FC
  8
DANMEN
  6
CONTINUOUS
 10
333.83846
 20
262.0
 30
0.0
 11
333.83846
 21
257.690823
 31
0.0
  0
LINE
  5
1C4FD
  8
DANMEN
  6
CONTINUOUS
 10
345.13846
 20
235.690823
 30
0.0
 11
345.13846
 21
255.690823
 31
0.0
  0
LINE
  5
1C4FE
  8
DANMEN
  6
CONTINUOUS
 10
335.33846
 20
255.690823
 30
0.0
 11
335.33846
 21
247.190823
 31
0.0
  0
LINE
  5
1C4FF
  8
DANMEN
  6
CONTINUOUS
 10
334.33846
 20
252.690823
 30
0.0
 11
334.33846
 21
247.690823
 31
0.0
  0
ARC
  5
1C501
  8
DANMEN
  6
CONTINUOUS
 10
334.83846
 20
247.190823
 30
0.0
 40
0.5
 50
270.0
 51
0.0
  0
LINE
  5
1C502
  8
DANMEN
  6
CONTINUOUS
 10
334.83846
 20
246.690823
 30
0.0
 11
334.33846
 21
246.690823
 31
0.0
  0
ARC
  5
1C505
  8
DANMEN
  6
CONTINUOUS
 10
334.33846
 20
247.190823
 30
0.0
 40
0.5
 50
180.0
 51
270.0
  0
LINE
  5
1C506
  8
DANMEN
  6
CONTINUOUS
 10
333.83846
 20
247.690823
 30
0.0
 11
333.83846
 21
247.190823
 31
0.0
  0
LINE
  5
1C508
  8
DANMEN
  6
CONTINUOUS
 10
334.33846
 20
247.690823
 30
0.0
 11
333.83846
 21
247.690823
 31
0.0
  0
LINE
  5
1C509
  8
DANMEN
  6
CONTINUOUS
 10
335.33846
 20
255.690823
 30
0.0
 11
345.13846
 21
255.690823
 31
0.0
  0
LINE
  5
1C50A
  8
DANMEN
  6
CONTINUOUS
 10
334.33846
 20
257.690823
 30
0.0
 11
346.63846
 21
257.690823
 31
0.0
  0
LINE
  5
1C50B
  8
DANMEN
  6
CONTINUOUS
 10
333.83846
 20
257.190822
 30
0.0
 11
333.83846
 21
252.690823
 31
0.0
  0
LINE
  5
1C50C
  8
DANMEN
  6
CONTINUOUS
 10
333.591382
 20
254.69082
 30
0.0
 11
333.86346
 21
254.962898
 31
0.0
  0
LINE
  5
1C50F
  8
DANMEN
  6
CONTINUOUS
 10
334.33846
 20
252.690823
 30
0.0
 11
333.83846
 21
252.690823
 31
0.0
  0
ARC
  5
1C511
  8
DANMEN
  6
CONTINUOUS
 10
334.33846
 20
257.190823
 30
0.0
 40
0.5
 50
90.0
 51
180.0
  0
ARC
  5
1C513
  8
DANMEN
  6
CONTINUOUS
 10
346.63846
 20
257.190823
 30
0.0
 40
0.5
 50
0.0
 51
90.0
  0
LINE
  5
1C514
  8
SUNPO
  6
CONTINUOUS
 10
40.5
 20
260.0
 30
0.0
 11
21.0
 21
260.0
 31
0.0
  0
LINE
  5
1C515
  8
SUNPO
  6
CONTINUOUS
 10
40.5
 20
225.0
 30
0.0
 11
21.0
 21
225.0
 31
0.0
  0
LINE
  5
1C516
  8
SUNPO
  6
CONTINUOUS
 10
21.0
 20
225.0
 30
0.0
 11
21.0
 21
260.0
 31
0.0
  0
ARC
  5
1C517
  8
SUNPO
  6
BYBLOCK
 10
21.0
 20
225.0
 30
0.0
 40
0.145
 50
270.0
 51
90.0
  0
ARC
  5
1C518
  8
SUNPO
  6
BYBLOCK
 10
21.0
 20
225.0
 30
0.0
 40
0.145
 50
90.0
 51
270.0
  0
ARC
  5
1C519
  8
SUNPO
  6
BYBLOCK
 10
21.0
 20
225.0
 30
0.0
 40
0.145
 50
90.0
 51
270.0
  0
ARC
  5
1C51A
  8
SUNPO
  6
BYBLOCK
 10
21.0
 20
225.0
 30
0.0
 40
0.145
 50
270.0
 51
90.0
  0
TEXT
  5
1C51B
  8
SUNPO
  6
CONTINUOUS
 10
20.0
 20
240.416667
 30
0.0
 40
2.5
  1
35
 50
90.0
  7
MX_NOTE_STANDARD
  0
ARC
  5
1C51C
  8
SUNPO
  6
BYBLOCK
 10
21.0
 20
260.0
 30
0.0
 40
0.145
 50
90.0
 51
270.0
  0
ARC
  5
1C51D
  8
SUNPO
  6
BYBLOCK
 10
21.0
 20
260.0
 30
0.0
 40
0.145
 50
270.0
 51
90.0
  0
LINE
  5
1C51E
  8
SUNPO
  6
CONTINUOUS
 10
175.0
 20
249.751008
 30
0.0
 11
250.0
 21
249.751008
 31
0.0
  0
LINE
  5
1C51F
  8
SUNPO
  6
CONTINUOUS
 10
175.0
 20
160.527474
 30
0.0
 11
232.0
 21
160.527474
 31
0.0
  0
LINE
  5
1C520
  8
SUNPO
  6
CONTINUOUS
 10
144.685645
 20
225.0
 30
0.0
 11
144.685645
 21
175.0
 31
0.0
  0
LINE
  5
1C521
  8
SUNPO
  6
CONTINUOUS
 10
136.221192
 20
225.0
 30
0.0
 11
136.221192
 21
186.999997
 31
0.0
  0
LINE
  5
1C522
  8
SUNPO
  6
CONTINUOUS
 10
156.0
 20
225.0
 30
0.0
 11
156.0
 21
170.0
 31
0.0
  0
LINE
  5
1C523
  8
SUNPO
  6
CONTINUOUS
 10
120.499999
 20
165.0
 30
0.0
 11
144.685645
 21
165.0
 31
0.0
  0
LINE
  5
1C524
  8
SUNPO
  6
CONTINUOUS
 10
120.499999
 20
175.0
 30
0.0
 11
144.685645
 21
175.0
 31
0.0
  0
LINE
  5
1C525
  8
SUNPO
  6
CONTINUOUS
 10
120.5
 20
186.999997
 30
0.0
 11
136.221192
 21
186.999997
 31
0.0
  0
LINE
  5
1C526
  8
SUNPO
  6
CONTINUOUS
 10
120.499999
 20
133.000003
 30
0.0
 11
144.685645
 21
133.000003
 31
0.0
  0
LINE
  5
1C527
  8
SUNPO
  6
CONTINUOUS
 10
120.5
 20
133.000003
 30
0.0
 11
136.221192
 21
133.000003
 31
0.0
  0
LINE
  5
1C528
  8
SUNPO
  6
CONTINUOUS
 10
119.0
 20
155.5
 30
0.0
 11
81.0
 21
155.5
 31
0.0
  0
ARC
  5
1C529
  8
SUNPO
  6
BYBLOCK
 10
81.0
 20
155.5
 30
0.0
 40
0.145
 50
0.0
 51
180.0
  0
ARC
  5
1C52A
  8
SUNPO
  6
BYBLOCK
 10
81.0
 20
155.5
 30
0.0
 40
0.145
 50
180.0
 51
0.0
  0
ARC
  5
1C52B
  8
SUNPO
  6
BYBLOCK
 10
81.0
 20
155.5
 30
0.0
 40
0.145
 50
180.0
 51
0.0
  0
ARC
  5
1C52C
  8
SUNPO
  6
BYBLOCK
 10
81.0
 20
155.5
 30
0.0
 40
0.145
 50
0.0
 51
180.0
  0
LINE
  5
1C52D
  8
SUNPO
  6
CONTINUOUS
 10
81.0
 20
155.5
 30
0.0
 11
73.0
 21
155.5
 31
0.0
  0
TEXT
  5
1C52E
  8
SUNPO
  6
CONTINUOUS
 10
76.166667
 20
156.5
 30
0.0
 40
2.5
  1
8
  7
MX_NOTE_STANDARD
  0
ARC
  5
1C52F
  8
SUNPO
  6
BYBLOCK
 10
73.0
 20
155.5
 30
0.0
 40
0.145
 50
180.0
 51
0.0
  0
ARC
  5
1C530
  8
SUNPO
  6
BYBLOCK
 10
73.0
 20
155.5
 30
0.0
 40
0.145
 50
0.0
 51
180.0
  0
ARC
  5
1C531
  8
SUNPO
  6
BYBLOCK
 10
73.0
 20
155.5
 30
0.0
 40
0.145
 50
0.0
 51
180.0
  0
ARC
  5
1C532
  8
SUNPO
  6
BYBLOCK
 10
73.0
 20
155.5
 30
0.0
 40
0.145
 50
180.0
 51
0.0
  0
TEXT
  5
1C533
  8
SUNPO
  6
CONTINUOUS
 10
97.916667
 20
156.5
 30
0.0
 40
2.5
  1
38
  7
MX_NOTE_STANDARD
  0
ARC
  5
1C534
  8
SUNPO
  6
BYBLOCK
 10
119.0
 20
155.5
 30
0.0
 40
0.145
 50
0.0
 51
180.0
  0
ARC
  5
1C535
  8
SUNPO
  6
BYBLOCK
 10
119.0
 20
155.5
 30
0.0
 40
0.145
 50
180.0
 51
0.0
  0
TEXT
  5
1C536
  8
SUNPO
  6
CONTINUOUS
 10
76.807449
 20
171.428279
 30
0.0
 40
2.5
  1
70
  7
MX_NOTE_STANDARD
  0
LINE
  5
1C537
  8
SUNPO
  6
CONTINUOUS
 10
112.0
 20
208.649997
 30
0.0
 11
112.0
 21
170.428279
 31
0.0
  0
LINE
  5
1C538
  8
SUNPO
  6
CONTINUOUS
 10
119.0
 20
170.428279
 30
0.0
 11
112.0
 21
170.428279
 31
0.0
  0
ARC
  5
1C539
  8
SUNPO
  6
BYBLOCK
 10
112.0
 20
170.428279
 30
0.0
 40
0.145
 50
180.0
 51
0.0
  0
ARC
  5
1C53A
  8
SUNPO
  6
BYBLOCK
 10
112.0
 20
170.428279
 30
0.0
 40
0.145
 50
0.0
 51
180.0
  0
ARC
  5
1C53B
  8
SUNPO
  6
BYBLOCK
 10
112.0
 20
170.428279
 30
0.0
 40
0.145
 50
0.0
 51
180.0
  0
ARC
  5
1C53C
  8
SUNPO
  6
BYBLOCK
 10
112.0
 20
170.428279
 30
0.0
 40
0.145
 50
180.0
 51
0.0
  0
LINE
  5
1C53D
  8
SUNPO
  6
CONTINUOUS
 10
112.0
 20
174.0
 30
0.0
 11
112.0
 21
170.428279
 31
0.0
  0
TEXT
  5
1C53E
  8
SUNPO
  6
CONTINUOUS
 10
114.666667
 20
171.428279
 30
0.0
 40
2.5
  1
7
  7
MX_NOTE_STANDARD
  0
ARC
  5
1C53F
  8
SUNPO
  6
BYBLOCK
 10
119.0
 20
170.428279
 30
0.0
 40
0.145
 50
0.0
 51
180.0
  0
ARC
  5
1C540
  8
SUNPO
  6
BYBLOCK
 10
119.0
 20
170.428279
 30
0.0
 40
0.145
 50
180.0
 51
0.0
  0
LINE
  5
1C541
  8
SUNPO
  6
CONTINUOUS
 10
119.0
 20
169.5
 30
0.0
 11
119.0
 21
170.428279
 31
0.0
  0
LINE
  5
1C542
  8
SUNPO
  6
CONTINUOUS
 10
144.685645
 20
165.0
 30
0.0
 11
144.685645
 21
133.000003
 31
0.0
  0
ARC
  5
1C543
  8
SUNPO
  6
BYBLOCK
 10
136.221192
 20
133.000003
 30
0.0
 40
0.145
 50
90.0
 51
270.0
  0
ARC
  5
1C544
  8
SUNPO
  6
BYBLOCK
 10
136.221192
 20
133.000003
 30
0.0
 40
0.145
 50
270.0
 51
90.0
  0
ARC
  5
1C545
  8
SUNPO
  6
BYBLOCK
 10
144.685645
 20
133.000003
 30
0.0
 40
0.145
 50
270.0
 51
90.0
  0
ARC
  5
1C546
  8
SUNPO
  6
BYBLOCK
 10
144.685645
 20
133.000003
 30
0.0
 40
0.145
 50
90.0
 51
270.0
  0
ARC
  5
1C547
  8
SUNPO
  6
BYBLOCK
 10
144.685645
 20
133.000003
 30
0.0
 40
0.145
 50
90.0
 51
270.0
  0
ARC
  5
1C548
  8
SUNPO
  6
BYBLOCK
 10
144.685645
 20
133.000003
 30
0.0
 40
0.145
 50
270.0
 51
90.0
  0
TEXT
  5
1C549
  8
SUNPO
  6
CONTINUOUS
 10
143.685645
 20
146.916669
 30
0.0
 40
2.5
  1
32
 50
90.0
  7
MX_NOTE_STANDARD
  0
ARC
  5
1C54A
  8
SUNPO
  6
BYBLOCK
 10
144.685645
 20
165.0
 30
0.0
 40
0.145
 50
90.0
 51
270.0
  0
ARC
  5
1C54B
  8
SUNPO
  6
BYBLOCK
 10
144.685645
 20
165.0
 30
0.0
 40
0.145
 50
270.0
 51
90.0
  0
LINE
  5
1C54C
  8
SUNPO
  6
CONTINUOUS
 10
152.0
 20
160.653991
 30
0.0
 11
152.0
 21
156.920944
 31
0.0
  0
LINE
  5
1C54D
  8
SUNPO
  6
CONTINUOUS
 10
156.0
 20
158.641045
 30
0.0
 11
156.0
 21
153.141045
 31
0.0
  0
LINE
  5
1C54E
  8
SUNPO
  6
CONTINUOUS
 10
160.0
 20
160.653991
 30
0.0
 11
160.0
 21
156.920944
 31
0.0
  0
LINE
  5
1C54F
  8
SUNPO
  6
CONTINUOUS
 10
152.0
 20
153.141045
 30
0.0
 11
160.0
 21
153.141045
 31
0.0
  0
LINE
  5
1C550
  8
SUNPO
  6
CONTINUOUS
 10
152.0
 20
151.141045
 30
0.0
 11
160.0
 21
151.141045
 31
0.0
  0
LINE
  5
1C551
  8
SUNPO
  6
CONTINUOUS
 10
152.0
 20
154.541039
 30
0.0
 11
152.0
 21
149.343696
 31
0.0
  0
LINE
  5
1C552
  8
SUNPO
  6
CONTINUOUS
 10
160.0
 20
154.541039
 30
0.0
 11
160.0
 21
149.343696
 31
0.0
  0
LINE
  5
1C553
  8
SUNPO
  6
CONTINUOUS
 10
152.0
 20
158.641045
 30
0.0
 11
160.0
 21
158.641045
 31
0.0
  0
LINE
  5
1C554
  8
SUNPO
  6
CONTINUOUS
 10
154.799927
 20
166.656304
 30
0.0
 11
154.799927
 21
161.867761
 31
0.0
  0
LINE
  5
1C555
  8
SUNPO
  6
CONTINUOUS
 10
157.199921
 20
166.656304
 30
0.0
 11
157.199921
 21
161.867761
 31
0.0
  0
LINE
  5
1C557
  8
SUNPO
  6
CONTINUOUS
 10
175.0
 20
152.5
 30
0.0
 11
175.0
 21
160.527474
 31
0.0
  0
LINE
  5
1C558
  8
SUNPO
  6
CONTINUOUS
 10
172.0
 20
152.5
 30
0.0
 11
172.0
 21
160.527474
 31
0.0
  0
TEXT
  5
1C559
  8
SUNPO
  6
CONTINUOUS
 10
172.666667
 20
161.527474
 30
0.0
 40
2.5
  1
3
  7
MX_NOTE_STANDARD
  0
ARC
  5
1C55A
  8
SUNPO
  6
BYBLOCK
 10
172.0
 20
160.527474
 30
0.0
 40
0.145
 50
180.0
 51
0.0
  0
ARC
  5
1C55B
  8
SUNPO
  6
BYBLOCK
 10
172.0
 20
160.527474
 30
0.0
 40
0.145
 50
0.0
 51
180.0
  0
ARC
  5
1C55C
  8
SUNPO
  6
BYBLOCK
 10
175.0
 20
160.527474
 30
0.0
 40
0.145
 50
0.0
 51
180.0
  0
ARC
  5
1C55D
  8
SUNPO
  6
BYBLOCK
 10
175.0
 20
160.527474
 30
0.0
 40
0.145
 50
180.0
 51
0.0
  0
ARC
  5
1C55E
  8
SUNPO
  6
BYBLOCK
 10
175.0
 20
160.527474
 30
0.0
 40
0.145
 50
180.0
 51
0.0
  0
ARC
  5
1C55F
  8
SUNPO
  6
BYBLOCK
 10
175.0
 20
160.527474
 30
0.0
 40
0.145
 50
0.0
 51
180.0
  0
LINE
  5
1C560
  8
SUNPO
  6
CONTINUOUS
 10
172.0
 20
160.527474
 30
0.0
 11
175.0
 21
160.527474
 31
0.0
  0
ARC
  5
1C561
  8
SUNPO
  6
BYBLOCK
 10
144.685645
 20
175.0
 30
0.0
 40
0.145
 50
270.0
 51
90.0
  0
ARC
  5
1C562
  8
SUNPO
  6
BYBLOCK
 10
144.685645
 20
175.0
 30
0.0
 40
0.145
 50
90.0
 51
270.0
  0
ARC
  5
1C563
  8
SUNPO
  6
BYBLOCK
 10
136.221192
 20
186.999997
 30
0.0
 40
0.145
 50
270.0
 51
90.0
  0
ARC
  5
1C564
  8
SUNPO
  6
BYBLOCK
 10
136.221192
 20
186.999997
 30
0.0
 40
0.145
 50
90.0
 51
270.0
  0
TEXT
  5
1C565
  8
SUNPO
  6
CONTINUOUS
 10
143.685645
 20
198.125
 30
0.0
 40
2.5
  1
50
 50
90.0
  7
MX_NOTE_STANDARD
  0
TEXT
  5
1C566
  8
SUNPO
  6
CONTINUOUS
 10
135.221192
 20
203.916665
 30
0.0
 40
2.5
  1
38
 50
90.0
  7
MX_NOTE_STANDARD
  0
LINE
  5
1C567
  8
SUNPO
  6
CONTINUOUS
 10
113.5
 20
225.0
 30
0.0
 11
156.0
 21
225.0
 31
0.0
  0
LINE
  5
1C568
  8
SUNPO
  6
CONTINUOUS
 10
113.5
 20
260.0
 30
0.0
 11
156.0
 21
260.0
 31
0.0
  0
LINE
  5
1C569
  8
SUNPO
  6
CONTINUOUS
 10
156.0
 20
260.0
 30
0.0
 11
156.0
 21
225.0
 31
0.0
  0
ARC
  5
1C56A
  8
SUNPO
  6
BYBLOCK
 10
136.221192
 20
225.0
 30
0.0
 40
0.145
 50
90.0
 51
270.0
  0
ARC
  5
1C56B
  8
SUNPO
  6
BYBLOCK
 10
136.221192
 20
225.0
 30
0.0
 40
0.145
 50
270.0
 51
90.0
  0
ARC
  5
1C56C
  8
SUNPO
  6
BYBLOCK
 10
144.685645
 20
225.0
 30
0.0
 40
0.145
 50
90.0
 51
270.0
  0
ARC
  5
1C56D
  8
SUNPO
  6
BYBLOCK
 10
144.685645
 20
225.0
 30
0.0
 40
0.145
 50
270.0
 51
90.0
  0
LINE
  5
1C56E
  8
SUNPO
  6
CONTINUOUS
 10
161.0
 20
220.0
 30
0.0
 11
151.0
 21
220.0
 31
0.0
  0
LINE
  5
1C56F
  8
SUNPO
  6
CONTINUOUS
 10
151.0
 20
220.0
 30
0.0
 11
156.0
 21
225.0
 31
0.0
  0
LINE
  5
1C571
  8
SUNPO
  6
CONTINUOUS
 10
156.0
 20
225.0
 30
0.0
 11
161.0
 21
220.0
 31
0.0
  0
TEXT
  5
1C574
  8
SUNPO
  6
CONTINUOUS
 10
155.0
 20
240.416667
 30
0.0
 40
2.5
  1
35
 50
90.0
  7
MX_NOTE_STANDARD
  0
ARC
  5
1C575
  8
SUNPO
  6
BYBLOCK
 10
156.0
 20
260.0
 30
0.0
 40
0.145
 50
90.0
 51
270.0
  0
ARC
  5
1C576
  8
SUNPO
  6
BYBLOCK
 10
156.0
 20
260.0
 30
0.0
 40
0.145
 50
270.0
 51
90.0
  0
LINE
  5
1C577
  8
SUNPO
  6
CONTINUOUS
 10
172.0
 20
240.5
 30
0.0
 11
172.0
 21
249.751008
 31
0.0
  0
LINE
  5
1C578
  8
SUNPO
  6
CONTINUOUS
 10
175.0
 20
240.5
 30
0.0
 11
175.0
 21
249.751008
 31
0.0
  0
ARC
  5
1C579
  8
SUNPO
  6
BYBLOCK
 10
172.0
 20
249.751008
 30
0.0
 40
0.145
 50
180.0
 51
0.0
  0
ARC
  5
1C57A
  8
SUNPO
  6
BYBLOCK
 10
172.0
 20
249.751008
 30
0.0
 40
0.145
 50
0.0
 51
180.0
  0
ARC
  5
1C57B
  8
SUNPO
  6
BYBLOCK
 10
175.0
 20
249.751008
 30
0.0
 40
0.145
 50
0.0
 51
180.0
  0
ARC
  5
1C57C
  8
SUNPO
  6
BYBLOCK
 10
175.0
 20
249.751008
 30
0.0
 40
0.145
 50
180.0
 51
0.0
  0
ARC
  5
1C57D
  8
SUNPO
  6
BYBLOCK
 10
175.0
 20
249.751008
 30
0.0
 40
0.145
 50
180.0
 51
0.0
  0
ARC
  5
1C57E
  8
SUNPO
  6
BYBLOCK
 10
175.0
 20
249.751008
 30
0.0
 40
0.145
 50
0.0
 51
180.0
  0
LINE
  5
1C57F
  8
SUNPO
  6
CONTINUOUS
 10
172.0
 20
249.751008
 30
0.0
 11
175.0
 21
249.751008
 31
0.0
  0
TEXT
  5
1C580
  8
SUNPO
  6
CONTINUOUS
 10
172.666667
 20
250.751008
 30
0.0
 40
2.5
  1
3
  7
MX_NOTE_STANDARD
  0
LINE
  5
1C581
  8
SUNPO
  6
CONTINUOUS
 10
213.732488
 20
151.0
 30
0.0
 11
244.793737
 21
151.0
 31
0.0
  0
TEXT
  5
1C582
  8
SUNPO
  6
CONTINUOUS
 10
201.416667
 20
161.527474
 30
0.0
 40
2.5
  1
57
  7
MX_NOTE_STANDARD
  0
LINE
  5
1C583
  8
SUNPO
  6
CONTINUOUS
 10
244.793737
 20
158.0
 30
0.0
 11
244.793737
 21
151.0
 31
0.0
  0
ARC
  5
1C584
  8
SUNPO
  6
BYBLOCK
 10
244.793737
 20
151.0
 30
0.0
 40
0.145
 50
270.0
 51
90.0
  0
ARC
  5
1C585
  8
SUNPO
  6
BYBLOCK
 10
244.793737
 20
151.0
 30
0.0
 40
0.145
 50
90.0
 51
270.0
  0
ARC
  5
1C586
  8
SUNPO
  6
BYBLOCK
 10
244.793737
 20
151.0
 30
0.0
 40
0.145
 50
90.0
 51
270.0
  0
ARC
  5
1C587
  8
SUNPO
  6
BYBLOCK
 10
244.793737
 20
151.0
 30
0.0
 40
0.145
 50
270.0
 51
90.0
  0
TEXT
  5
1C588
  8
SUNPO
  6
CONTINUOUS
 10
243.793737
 20
153.666667
 30
0.0
 40
2.5
  1
7
 50
90.0
  7
MX_NOTE_STANDARD
  0
ARC
  5
1C589
  8
SUNPO
  6
BYBLOCK
 10
232.0
 20
160.527474
 30
0.0
 40
0.145
 50
0.0
 51
180.0
  0
ARC
  5
1C58A
  8
SUNPO
  6
BYBLOCK
 10
232.0
 20
160.527474
 30
0.0
 40
0.145
 50
180.0
 51
0.0
  0
LINE
  5
1C58B
  8
SUNPO
  6
CONTINUOUS
 10
232.0
 20
159.5
 30
0.0
 11
232.0
 21
160.527474
 31
0.0
  0
ARC
  5
1C58C
  8
SUNPO
  6
BYBLOCK
 10
244.793737
 20
158.0
 30
0.0
 40
0.145
 50
90.0
 51
270.0
  0
ARC
  5
1C58D
  8
SUNPO
  6
BYBLOCK
 10
244.793737
 20
158.0
 30
0.0
 40
0.145
 50
270.0
 51
90.0
  0
TEXT
  5
1C58E
  8
SUNPO
  6
CONTINUOUS
 10
323.468739
 20
136.916667
 30
0.0
 40
2.5
  1
38
 50
90.0
  7
MX_NOTE_STANDARD
  0
LINE
  5
1C58F
  8
SUNPO
  6
CONTINUOUS
 10
310.999998
 20
158.0
 30
0.0
 11
324.468739
 21
158.0
 31
0.0
  0
ARC
  5
1C590
  8
SUNPO
  6
BYBLOCK
 10
324.468739
 20
158.0
 30
0.0
 40
0.145
 50
90.0
 51
270.0
  0
ARC
  5
1C591
  8
SUNPO
  6
BYBLOCK
 10
324.468739
 20
158.0
 30
0.0
 40
0.145
 50
270.0
 51
90.0
  0
TEXT
  5
1C592
  8
SUNPO
  6
CONTINUOUS
 10
210.416667
 20
250.751008
 30
0.0
 40
2.5
  1
75
  7
MX_NOTE_STANDARD
  0
ARC
  5
1C593
  8
SUNPO
  6
BYBLOCK
 10
250.0
 20
249.751008
 30
0.0
 40
0.145
 50
0.0
 51
180.0
  0
ARC
  5
1C594
  8
SUNPO
  6
BYBLOCK
 10
250.0
 20
249.751008
 30
0.0
 40
0.145
 50
180.0
 51
0.0
  0
LINE
  5
1C595
  8
SUNPO
  6
CONTINUOUS
 10
250.0
 20
247.5
 30
0.0
 11
250.0
 21
249.751008
 31
0.0
  0
LINE
  5
1C596
  8
SUNPO
  6
CONTINUOUS
 10
303.33846
 20
221.728614
 30
0.0
 11
265.33846
 21
221.728614
 31
0.0
  0
ARC
  5
1C597
  8
SUNPO
  6
BYBLOCK
 10
265.33846
 20
221.728614
 30
0.0
 40
0.145
 50
180.0
 51
0.0
  0
ARC
  5
1C598
  8
SUNPO
  6
BYBLOCK
 10
265.33846
 20
221.728614
 30
0.0
 40
0.145
 50
0.0
 51
180.0
  0
TEXT
  5
1C599
  8
SUNPO
  6
CONTINUOUS
 10
282.255126
 20
222.728614
 30
0.0
 40
2.5
  1
38
  7
MX_NOTE_STANDARD
  0
LINE
  5
1C59A
  8
SUNPO
  6
CONTINUOUS
 10
311.33846
 20
221.728614
 30
0.0
 11
303.33846
 21
221.728614
 31
0.0
  0
ARC
  5
1C59B
  8
SUNPO
  6
BYBLOCK
 10
303.33846
 20
221.728614
 30
0.0
 40
0.145
 50
180.0
 51
0.0
  0
ARC
  5
1C59C
  8
SUNPO
  6
BYBLOCK
 10
303.33846
 20
221.728614
 30
0.0
 40
0.145
 50
0.0
 51
180.0
  0
ARC
  5
1C59D
  8
SUNPO
  6
BYBLOCK
 10
303.33846
 20
221.728614
 30
0.0
 40
0.145
 50
0.0
 51
180.0
  0
ARC
  5
1C59E
  8
SUNPO
  6
BYBLOCK
 10
303.33846
 20
221.728614
 30
0.0
 40
0.145
 50
180.0
 51
0.0
  0
TEXT
  5
1C59F
  8
SUNPO
  6
CONTINUOUS
 10
306.505126
 20
222.728614
 30
0.0
 40
2.5
  1
8
  7
MX_NOTE_STANDARD
  0
ARC
  5
1C5A0
  8
SUNPO
  6
BYBLOCK
 10
311.33846
 20
221.728614
 30
0.0
 40
0.145
 50
0.0
 51
180.0
  0
ARC
  5
1C5A1
  8
SUNPO
  6
BYBLOCK
 10
311.33846
 20
221.728614
 30
0.0
 40
0.145
 50
180.0
 51
0.0
  0
ARC
  5
1C5A2
  8
SUNPO
  6
BYBLOCK
 10
311.33846
 20
221.728614
 30
0.0
 40
0.145
 50
180.0
 51
0.0
  0
ARC
  5
1C5A3
  8
SUNPO
  6
BYBLOCK
 10
311.33846
 20
221.728614
 30
0.0
 40
0.145
 50
0.0
 51
180.0
  0
LINE
  5
1C5A4
  8
SUNPO
  6
CONTINUOUS
 10
359.33846
 20
257.690823
 30
0.0
 11
359.33846
 21
177.690823
 31
0.0
  0
LINE
  5
1C5A5
  8
SUNPO
  6
CONTINUOUS
 10
377.0
 20
160.527474
 30
0.0
 11
402.0
 21
160.527474
 31
0.0
  0
LINE
  5
1C5A6
  8
SUNPO
  6
CONTINUOUS
 10
347.0
 20
160.527474
 30
0.0
 11
367.0
 21
160.527474
 31
0.0
  0
LINE
  5
1C5A7
  8
SUNPO
  6
CONTINUOUS
 10
347.0
 20
155.5
 30
0.0
 11
347.0
 21
160.527474
 31
0.0
  0
ARC
  5
1C5A8
  8
SUNPO
  6
BYBLOCK
 10
347.0
 20
160.527474
 30
0.0
 40
0.145
 50
180.0
 51
0.0
  0
ARC
  5
1C5A9
  8
SUNPO
  6
BYBLOCK
 10
347.0
 20
160.527474
 30
0.0
 40
0.145
 50
0.0
 51
180.0
  0
TEXT
  5
1C5AA
  8
SUNPO
  6
CONTINUOUS
 10
355.125
 20
161.527474
 30
0.0
 40
2.5
  1
20
  7
MX_NOTE_STANDARD
  0
LINE
  5
1C5AB
  8
SUNPO
  6
CONTINUOUS
 10
367.0
 20
160.527474
 30
0.0
 11
377.0
 21
160.527474
 31
0.0
  0
LINE
  5
1C5AC
  8
SUNPO
  6
CONTINUOUS
 10
367.0
 20
152.5
 30
0.0
 11
367.0
 21
160.527474
 31
0.0
  0
LINE
  5
1C5AD
  8
SUNPO
  6
CONTINUOUS
 10
367.0
 20
152.5
 30
0.0
 11
367.0
 21
160.527474
 31
0.0
  0
ARC
  5
1C5AE
  8
SUNPO
  6
BYBLOCK
 10
367.0
 20
160.527474
 30
0.0
 40
0.145
 50
180.0
 51
0.0
  0
ARC
  5
1C5AF
  8
SUNPO
  6
BYBLOCK
 10
367.0
 20
160.527474
 30
0.0
 40
0.145
 50
0.0
 51
180.0
  0
ARC
  5
1C5B0
  8
SUNPO
  6
BYBLOCK
 10
367.0
 20
160.527474
 30
0.0
 40
0.145
 50
0.0
 51
180.0
  0
ARC
  5
1C5B1
  8
SUNPO
  6
BYBLOCK
 10
367.0
 20
160.527474
 30
0.0
 40
0.145
 50
180.0
 51
0.0
  0
TEXT
  5
1C5B2
  8
SUNPO
  6
CONTINUOUS
 10
370.541667
 20
161.527474
 30
0.0
 40
2.5
  1
10
  7
MX_NOTE_STANDARD
  0
LINE
  5
1C5B3
  8
SUNPO
  6
CONTINUOUS
 10
377.0
 20
152.5
 30
0.0
 11
377.0
 21
160.527474
 31
0.0
  0
LINE
  5
1C5B4
  8
SUNPO
  6
CONTINUOUS
 10
377.0
 20
152.5
 30
0.0
 11
377.0
 21
160.527474
 31
0.0
  0
ARC
  5
1C5B5
  8
SUNPO
  6
BYBLOCK
 10
377.0
 20
160.527474
 30
0.0
 40
0.145
 50
0.0
 51
180.0
  0
ARC
  5
1C5B6
  8
SUNPO
  6
BYBLOCK
 10
377.0
 20
160.527474
 30
0.0
 40
0.145
 50
180.0
 51
0.0
  0
ARC
  5
1C5B7
  8
SUNPO
  6
BYBLOCK
 10
377.0
 20
160.527474
 30
0.0
 40
0.145
 50
180.0
 51
0.0
  0
ARC
  5
1C5B8
  8
SUNPO
  6
BYBLOCK
 10
377.0
 20
160.527474
 30
0.0
 40
0.145
 50
0.0
 51
180.0
  0
TEXT
  5
1C5B9
  8
SUNPO
  6
CONTINUOUS
 10
387.416667
 20
161.527474
 30
0.0
 40
2.5
  1
25
  7
MX_NOTE_STANDARD
  0
LINE
  5
1C5BA
  8
SUNPO
  6
CONTINUOUS
 10
350.83846
 20
177.690823
 30
0.0
 11
359.33846
 21
177.690823
 31
0.0
  0
ARC
  5
1C5BB
  8
SUNPO
  6
BYBLOCK
 10
359.33846
 20
177.690823
 30
0.0
 40
0.145
 50
270.0
 51
90.0
  0
ARC
  5
1C5BC
  8
SUNPO
  6
BYBLOCK
 10
359.33846
 20
177.690823
 30
0.0
 40
0.145
 50
90.0
 51
270.0
  0
LINE
  5
1C5BD
  8
SUNPO
  6
CONTINUOUS
 10
402.0
 20
152.5
 30
0.0
 11
402.0
 21
160.527474
 31
0.0
  0
ARC
  5
1C5BE
  8
SUNPO
  6
BYBLOCK
 10
402.0
 20
160.527474
 30
0.0
 40
0.145
 50
0.0
 51
180.0
  0
ARC
  5
1C5BF
  8
SUNPO
  6
BYBLOCK
 10
402.0
 20
160.527474
 30
0.0
 40
0.145
 50
180.0
 51
0.0
  0
TEXT
  5
1C5C0
  8
SUNPO
  6
CONTINUOUS
 10
328.255126
 20
222.728614
 30
0.0
 40
2.5
  1
38
  7
MX_NOTE_STANDARD
  0
ARC
  5
1C5C1
  8
SUNPO
  6
BYBLOCK
 10
349.33846
 20
221.728614
 30
0.0
 40
0.145
 50
0.0
 51
180.0
  0
ARC
  5
1C5C2
  8
SUNPO
  6
BYBLOCK
 10
349.33846
 20
221.728614
 30
0.0
 40
0.145
 50
180.0
 51
0.0
  0
TEXT
  5
1C5C3
  8
SUNPO
  6
CONTINUOUS
 10
358.33846
 20
215.815823
 30
0.0
 40
2.5
  1
80
 50
90.0
  7
MX_NOTE_STANDARD
  0
LINE
  5
1C5C4
  8
SUNPO
  6
CONTINUOUS
 10
350.83846
 20
257.690823
 30
0.0
 11
359.33846
 21
257.690823
 31
0.0
  0
ARC
  5
1C5C5
  8
SUNPO
  6
BYBLOCK
 10
359.33846
 20
257.690823
 30
0.0
 40
0.145
 50
90.0
 51
270.0
  0
ARC
  5
1C5C6
  8
SUNPO
  6
BYBLOCK
 10
359.33846
 20
257.690823
 30
0.0
 40
0.145
 50
270.0
 51
90.0
  0
LINE
  5
1C64D
  8
SUNPO
  6
CONTINUOUS
 10
219.815372
 20
30.430155
 30
0.0
 11
220.728887
 21
31.052967
 31
0.0
210
0.0
220
0.0
230
-1.0
  0
LINE
  5
1C64E
  8
SUNPO
  6
CONTINUOUS
 10
220.728887
 20
31.052967
 30
0.0
 11
221.199982
 21
31.091179
 31
0.0
210
0.0
220
0.0
230
-1.0
  0
LINE
  5
1C64F
  8
SUNPO
  6
CONTINUOUS
 10
221.199982
 20
31.091179
 30
0.0
 11
221.0138
 21
30.578868
 31
0.0
210
0.0
220
0.0
230
-1.0
  0
LINE
  5
1C650
  8
SUNPO
  6
CONTINUOUS
 10
221.0138
 20
30.578868
 30
0.0
 11
220.120898
 21
28.599677
 31
0.0
210
0.0
220
0.0
230
-1.0
  0
LINE
  5
1C651
  8
SUNPO
  6
CONTINUOUS
 10
220.120898
 20
28.599677
 30
0.0
 11
220.417461
 21
27.620702
 31
0.0
210
0.0
220
0.0
230
-1.0
  0
LINE
  5
1C652
  8
SUNPO
  6
CONTINUOUS
 10
220.417461
 20
27.620702
 30
0.0
 11
221.378871
 21
27.924854
 31
0.0
210
0.0
220
0.0
230
-1.0
  0
LINE
  5
1C653
  8
SUNPO
  6
CONTINUOUS
 10
221.378871
 20
27.924854
 30
0.0
 11
221.86436
 21
29.042338
 31
0.0
210
0.0
220
0.0
230
-1.0
  0
LINE
  5
1C654
  8
SUNPO
  6
CONTINUOUS
 10
221.86436
 20
29.042338
 30
0.0
 11
221.97692
 21
29.543679
 31
0.0
210
0.0
220
0.0
230
-1.0
  0
LINE
  5
1C655
  8
SUNPO
  6
CONTINUOUS
 10
221.97692
 20
29.543679
 30
0.0
 11
221.849498
 21
29.018051
 31
0.0
210
0.0
220
0.0
230
-1.0
  0
LINE
  5
1C656
  8
SUNPO
  6
CONTINUOUS
 10
221.849498
 20
29.018051
 30
0.0
 11
221.799705
 21
27.952675
 31
0.0
210
0.0
220
0.0
230
-1.0
  0
LINE
  5
1C657
  8
SUNPO
  6
CONTINUOUS
 10
221.799705
 20
27.952675
 30
0.0
 11
222.635643
 21
27.371351
 31
0.0
210
0.0
220
0.0
230
-1.0
  0
LINE
  5
1C658
  8
SUNPO
  6
CONTINUOUS
 10
222.635643
 20
27.371351
 30
0.0
 11
223.508647
 21
27.987263
 31
0.0
210
0.0
220
0.0
230
-1.0
  0
LINE
  5
1C659
  8
SUNPO
  6
CONTINUOUS
 10
223.508647
 20
27.987263
 30
0.0
 11
223.951869
 21
28.976998
 31
0.0
210
0.0
220
0.0
230
-1.0
  0
LINE
  5
1C65A
  8
SUNPO
  6
CONTINUOUS
 10
223.951869
 20
28.976998
 30
0.0
 11
223.836626
 21
31.133374
 31
0.0
210
0.0
220
0.0
230
-1.0
  0
LINE
  5
1C65B
  8
SUNPO
  6
CONTINUOUS
 10
223.836626
 20
31.133374
 30
0.0
 11
225.974428
 21
30.896876
 31
0.0
210
0.0
220
0.0
230
-1.0
  0
LINE
  5
1C65C
  8
SUNPO
  6
CONTINUOUS
 10
337.015372
 20
30.430155
 30
0.0
 11
337.928887
 21
31.052967
 31
0.0
210
0.0
220
0.0
230
-1.0
  0
LINE
  5
1C65D
  8
SUNPO
  6
CONTINUOUS
 10
337.928887
 20
31.052967
 30
0.0
 11
338.399983
 21
31.091179
 31
0.0
210
0.0
220
0.0
230
-1.0
  0
LINE
  5
1C65E
  8
SUNPO
  6
CONTINUOUS
 10
338.399983
 20
31.091179
 30
0.0
 11
338.2138
 21
30.578869
 31
0.0
210
0.0
220
0.0
230
-1.0
  0
LINE
  5
1C65F
  8
SUNPO
  6
CONTINUOUS
 10
338.2138
 20
30.578869
 30
0.0
 11
337.320898
 21
28.599677
 31
0.0
210
0.0
220
0.0
230
-1.0
  0
LINE
  5
1C660
  8
SUNPO
  6
CONTINUOUS
 10
337.320898
 20
28.599677
 30
0.0
 11
337.617461
 21
27.620702
 31
0.0
210
0.0
220
0.0
230
-1.0
  0
LINE
  5
1C661
  8
SUNPO
  6
CONTINUOUS
 10
337.617461
 20
27.620702
 30
0.0
 11
338.578871
 21
27.924853
 31
0.0
210
0.0
220
0.0
230
-1.0
  0
LINE
  5
1C662
  8
SUNPO
  6
CONTINUOUS
 10
338.578871
 20
27.924853
 30
0.0
 11
339.064361
 21
29.042337
 31
0.0
210
0.0
220
0.0
230
-1.0
  0
LINE
  5
1C663
  8
SUNPO
  6
CONTINUOUS
 10
339.064361
 20
29.042337
 30
0.0
 11
339.176921
 21
29.543679
 31
0.0
210
0.0
220
0.0
230
-1.0
  0
LINE
  5
1C664
  8
SUNPO
  6
CONTINUOUS
 10
339.176921
 20
29.543679
 30
0.0
 11
339.0495
 21
29.018052
 31
0.0
210
0.0
220
0.0
230
-1.0
  0
LINE
  5
1C665
  8
SUNPO
  6
CONTINUOUS
 10
339.0495
 20
29.018052
 30
0.0
 11
338.999705
 21
27.952676
 31
0.0
210
0.0
220
0.0
230
-1.0
  0
LINE
  5
1C666
  8
SUNPO
  6
CONTINUOUS
 10
338.999705
 20
27.952676
 30
0.0
 11
339.835643
 21
27.371351
 31
0.0
210
0.0
220
0.0
230
-1.0
  0
LINE
  5
1C667
  8
SUNPO
  6
CONTINUOUS
 10
339.835643
 20
27.371351
 30
0.0
 11
340.708648
 21
27.987263
 31
0.0
210
0.0
220
0.0
230
-1.0
  0
LINE
  5
1C668
  8
SUNPO
  6
CONTINUOUS
 10
340.708648
 20
27.987263
 30
0.0
 11
341.15187
 21
28.976998
 31
0.0
210
0.0
220
0.0
230
-1.0
  0
LINE
  5
1C669
  8
SUNPO
  6
CONTINUOUS
 10
341.15187
 20
28.976998
 30
0.0
 11
341.036626
 21
31.133374
 31
0.0
210
0.0
220
0.0
230
-1.0
  0
LINE
  5
1C66A
  8
SUNPO
  6
CONTINUOUS
 10
341.036626
 20
31.133374
 30
0.0
 11
343.174429
 21
30.896876
 31
0.0
210
0.0
220
0.0
230
-1.0
  0
LINE
  5
1C6E7
  8
DANMEN
  6
CONTINUOUS
 10
72.499995
 20
66.000005
 30
0.0
 11
70.800003
 21
66.000005
 31
0.0
  0
LINE
  5
1C6EE
  8
DANMEN
  6
CONTINUOUS
 10
68.850006
 20
65.999999
 30
0.0
 11
68.850006
 21
51.5
 31
0.0
  0
LINE
  5
1C6EF
  8
DANMEN
  6
CONTINUOUS
 10
70.800003
 20
66.000005
 30
0.0
 11
70.800003
 21
51.5
 31
0.0
  0
ARC
  5
1C6F0
  8
DANMEN
  6
CONTINUOUS
 10
70.300003
 20
51.5
 30
0.0
 40
0.5
 50
269.999999
 51
359.999981
  0
ARC
  5
1C6F1
  8
DANMEN
  6
CONTINUOUS
 10
69.350006
 20
51.5
 30
0.0
 40
0.5
 50
180.0
 51
269.999982
  0
LINE
  5
1C6F2
  8
DANMEN
  6
CONTINUOUS
 10
70.300003
 20
51.0
 30
0.0
 11
69.350006
 21
51.0
 31
0.0
  0
ENDSEC
  0
EOF
