  0
SECTION
  2
HEADER
  9
$ACADVER
  1
AC1009
  9
$INSBASE
 10
0.0
 20
0.0
 30
0.0
  9
$EXTMIN
 10
4.993364
 20
4.976617
 30
0.0
  9
$EXTMAX
 10
415.03815
 20
292.026888
 30
0.0
  9
$LIMMIN
 10
-210.0
 20
-148.5
  9
$LIMMAX
 10
210.0
 20
148.5
  9
$ORTHOMODE
 70
     0
  9
$REGENMODE
 70
     1
  9
$FILLMODE
 70
     1
  9
$QTEXTMODE
 70
     0
  9
$MIRRTEXT
 70
     1
  9
$DRAGMODE
 70
     2
  9
$LTSCALE
 40
0.5
  9
$OSMODE
 70
   239
  9
$ATTMODE
 70
     1
  9
$TEXTSIZE
 40
0.2
  9
$TRACEWID
 40
0.05
  9
$TEXTSTYLE
  7
MX_NOTE_STANDARD
  9
$CLAYER
  8
0
  9
$CELTYPE
  6
CONTINUOUS
  9
$CECOLOR
 62
   256
  9
$DIMSCALE
 40
1.0
  9
$DIMASZ
 40
2.5
  9
$DIMEXO
 40
1.5
  9
$DIMDLI
 40
3.75
  9
$DIMRND
 40
0.0
  9
$DIMDLE
 40
0.0
  9
$DIMEXE
 40
0.0
  9
$DIMTP
 40
0.0
  9
$DIMTM
 40
0.0
  9
$DIMTXT
 40
2.5
  9
$DIMCEN
 40
2.5
  9
$DIMTSZ
 40
0.0
  9
$DIMTOL
 70
     0
  9
$DIMLIM
 70
     0
  9
$DIMTIH
 70
     0
  9
$DIMTOH
 70
     0
  9
$DIMSE1
 70
     0
  9
$DIMSE2
 70
     0
  9
$DIMTAD
 70
     1
  9
$DIMZIN
 70
     8
  9
$DIMBLK
  1

  9
$DIMASO
 70
     1
  9
$DIMSHO
 70
     1
  9
$DIMPOST
  1

  9
$DIMAPOST
  1

  9
$DIMALT
 70
     0
  9
$DIMALTD
 70
     4
  9
$DIMALTF
 40
0.0394
  9
$DIMLFAC
 40
1.0
  9
$DIMTOFL
 70
     1
  9
$DIMTVP
 40
0.0
  9
$DIMTIX
 70
     0
  9
$DIMSOXD
 70
     0
  9
$DIMSAH
 70
     0
  9
$DIMBLK1
  1

  9
$DIMBLK2
  1

  9
$DIMSTYLE
  2
MXDIMSTYLE
  9
$DIMCLRD
 70
     0
  9
$DIMCLRE
 70
     0
  9
$DIMCLRT
 70
     0
  9
$DIMTFAC
 40
1.0
  9
$DIMGAP
 40
1.0
  9
$LUNITS
 70
     2
  9
$LUPREC
 70
     4
  9
$SKETCHINC
 40
0.1
  9
$FILLETRAD
 40
0.0
  9
$AUNITS
 70
     0
  9
$AUPREC
 70
     0
  9
$MENU
  1
acad
  9
$ELEVATION
 40
0.0
  9
$PELEVATION
 40
0.0
  9
$THICKNESS
 40
0.0
  9
$LIMCHECK
 70
     0
  9
$BLIPMODE
 70
     0
  9
$CHAMFERA
 40
0.0
  9
$CHAMFERB
 40
0.0
  9
$SKPOLY
 70
     0
  9
$TDCREATE
 40
2452006.37162
  9
$TDUPDATE
 40
2452137.867293
  9
$TDINDWG
 40
0.08061
  9
$TDUSRTIMER
 40
0.080609
  9
$USRTIMER
 70
     1
  9
$ANGBASE
 50
0.0
  9
$ANGDIR
 70
     0
  9
$PDMODE
 70
     3
  9
$PDSIZE
 40
-100.0
  9
$PLINEWID
 40
0.0
  9
$COORDS
 70
     0
  9
$SPLFRAME
 70
     0
  9
$SPLINETYPE
 70
     6
  9
$SPLINESEGS
 70
     8
  9
$ATTDIA
 70
     0
  9
$ATTREQ
 70
     1
  9
$HANDLING
 70
     1
  9
$HANDSEED
  5
1AD6F
  9
$SURFTAB1
 70
     6
  9
$SURFTAB2
 70
     6
  9
$SURFTYPE
 70
     6
  9
$SURFU
 70
     6
  9
$SURFV
 70
     6
  9
$UCSNAME
  2

  9
$UCSORG
 10
0.0
 20
0.0
 30
0.0
  9
$UCSXDIR
 10
1.0
 20
0.0
 30
0.0
  9
$UCSYDIR
 10
0.0
 20
1.0
 30
0.0
  9
$PUCSNAME
  2

  9
$PUCSORG
 10
0.0
 20
0.0
 30
0.0
  9
$PUCSXDIR
 10
1.0
 20
0.0
 30
0.0
  9
$PUCSYDIR
 10
0.0
 20
1.0
 30
0.0
  9
$USERI1
 70
     0
  9
$USERI2
 70
     0
  9
$USERI3
 70
     0
  9
$USERI4
 70
     0
  9
$USERI5
 70
     0
  9
$USERR1
 40
0.0
  9
$USERR2
 40
0.0
  9
$USERR3
 40
0.0
  9
$USERR4
 40
0.0
  9
$USERR5
 40
0.0
  9
$WORLDVIEW
 70
     1
  9
$SHADEDGE
 70
     3
  9
$SHADEDIF
 70
    70
  9
$TILEMODE
 70
     1
  9
$MAXACTVP
 70
    16
  9
$PLIMCHECK
 70
     0
  9
$PEXTMIN
 10
1.000000E+020
 20
1.000000E+020
 30
1.000000E+020
  9
$PEXTMAX
 10
-1.000000E+020
 20
-1.000000E+020
 30
-1.000000E+020
  9
$PLIMMIN
 10
0.0
 20
0.0
  9
$PLIMMAX
 10
12.0
 20
9.0
  9
$UNITMODE
 70
     0
  9
$VISRETAIN
 70
     0
  9
$PLINEGEN
 70
     1
  9
$PSLTSCALE
 70
     0
  0
ENDSEC
  0
SECTION
  2
TABLES
  0
TABLE
  2
VPORT
 70
     2
  0
VPORT
  2
*ACTIVE
 70
     0
 10
0.0
 20
0.0
 11
1.0
 21
1.0
 12
210.015757
 22
148.501753
 13
0.0
 23
0.0
 14
1.0
 24
1.0
 15
0.0
 25
0.0
 16
0.0
 26
0.0
 36
1.0
 17
0.0
 27
0.0
 37
0.0
 40
290.251576
 41
1.867784
 42
50.0
 43
0.0
 44
0.0
 50
0.0
 51
0.0
 71
     0
 72
   100
 73
     1
 74
     0
 75
     0
 76
     0
 77
     0
 78
     0
  0
ENDTAB
  0
TABLE
  2
LTYPE
 70
     3
  0
LTYPE
  2
CONTINUOUS
 70
     0
  3
Solid line
 72
    65
 73
     0
 40
0.0
  0
LTYPE
  2
DASHED
 70
     0
  3
Dashed __ __ __ __ __ __ __ __ __ __ __ __ __ _
 72
    65
 73
     2
 40
19.05
 49
12.7
 49
-6.35
  0
LTYPE
  2
CENTER
 70
     0
  3
Center ____ _ ____ _ ____ _ ____ _ ____ _ ____
 72
    65
 73
     4
 40
50.8
 49
31.75
 49
-6.35
 49
6.35
 49
-6.35
  0
ENDTAB
  0
TABLE
  2
LAYER
 70
     4
  0
LAYER
  2
0
 70
     0
 62
     7
  6
CONTINUOUS
  0
LAYER
  2
SUNPO
 70
     0
 62
     1
  6
CONTINUOUS
  0
LAYER
  2
DANMEN
 70
     0
 62
     7
  6
CONTINUOUS
  0
LAYER
  2
WAKU
 70
     0
 62
     3
  6
CONTINUOUS
  0
ENDTAB
  0
TABLE
  2
STYLE
 70
     2
  0
STYLE
  2
STANDARD
 70
     0
 40
0.0
 41
1.0
 50
0.0
 71
     0
 42
0.2
  3
txt.shx
  4
extfont.shx
  0
STYLE
  2
MX_NOTE_STANDARD
 70
     0
 40
2.5
 41
1.0
 50
0.0
 71
     0
 42
2.5
  3
txt.shx
  4
extfont.shx
  0
ENDTAB
  0
TABLE
  2
VIEW
 70
     0
  0
ENDTAB
  0
TABLE
  2
UCS
 70
     0
  0
ENDTAB
  0
TABLE
  2
APPID
 70
     1
  0
APPID
  2
ACAD
 70
     0
  0
ENDTAB
  0
TABLE
  2
DIMSTYLE
 70
     1
  0
DIMSTYLE
  2
MXDIMSTYLE
 70
     0
  3

  4

  5

  6

  7

 40
1.0
 41
2.5
 42
1.5
 43
3.75
 44
0.0
 45
0.0
 46
0.0
 47
0.0
 48
0.0
140
2.5
141
2.5
142
0.0
143
0.0394
144
1.0
145
0.0
146
1.0
147
1.0
 71
     0
 72
     0
 73
     0
 74
     0
 75
     0
 76
     0
 77
     1
 78
     8
170
     0
171
     4
172
     1
173
     0
174
     0
175
     0
176
     0
177
     0
178
     0
  0
ENDTAB
  0
ENDSEC
  0
SECTION
  2
BLOCKS
  0
BLOCK
  8
0
  2
$MODEL_SPACE
 70
     0
 10
0.0
 20
0.0
 30
0.0
  3
$MODEL_SPACE
  1

  0
ENDBLK
  5
1A80F
  8
0
  0
BLOCK
 67
     1
  8
0
  2
$PAPER_SPACE
 70
     0
 10
0.0
 20
0.0
 30
0.0
  3
$PAPER_SPACE
  1

  0
ENDBLK
  5
1A80D
 67
     1
  8
0
  0
BLOCK
  8
0
  2
*U0
 70
     1
 10
0.0
 20
0.0
 30
0.0
  3
*U0
  1

  0
SOLID
  5
DA5C
  8
WAKU
  6
CONTINUOUS
 10
371.305142
 20
283.605291
 30
0.0
 11
370.499782
 21
283.530361
 31
0.0
 12
370.874987
 22
283.520449
 32
0.0
 13
370.874987
 23
283.520449
 33
0.0
  0
SOLID
  5
DA5D
  8
WAKU
  6
CONTINUOUS
 10
370.193309
 20
283.634664
 30
0.0
 11
370.499782
 21
283.530361
 31
0.0
 12
371.305142
 22
283.605291
 32
0.0
 13
371.305142
 23
283.605291
 33
0.0
  0
SOLID
  5
DA5E
  8
WAKU
  6
CONTINUOUS
 10
371.774448
 20
283.781773
 30
0.0
 11
370.193309
 21
283.634664
 31
0.0
 12
371.305142
 22
283.605291
 32
0.0
 13
371.305142
 23
283.605291
 33
0.0
  0
SOLID
  5
DA5F
  8
WAKU
  6
CONTINUOUS
 10
369.966824
 20
283.829526
 30
0.0
 11
370.193309
 21
283.634664
 31
0.0
 12
371.774448
 22
283.781773
 32
0.0
 13
371.774448
 23
283.781773
 33
0.0
  0
SOLID
  5
DA60
  8
WAKU
  6
CONTINUOUS
 10
370.594177
 20
283.909498
 30
0.0
 11
369.966824
 21
283.829526
 31
0.0
 12
371.774448
 22
283.781773
 32
0.0
 13
371.774448
 23
283.781773
 33
0.0
  0
SOLID
  5
DA61
  8
WAKU
  6
CONTINUOUS
 10
370.901294
 20
283.914863
 30
0.0
 11
370.594177
 21
283.909498
 31
0.0
 12
371.774448
 22
283.781773
 32
0.0
 13
371.774448
 23
283.781773
 33
0.0
  0
SOLID
  5
DA62
  8
WAKU
  6
CONTINUOUS
 10
370.392927
 20
283.968568
 30
0.0
 11
369.966824
 21
283.829526
 31
0.0
 12
370.594177
 22
283.909498
 32
0.0
 13
370.594177
 23
283.909498
 33
0.0
  0
SOLID
  5
DA63
  8
WAKU
  6
CONTINUOUS
 10
371.296984
 20
284.010368
 30
0.0
 11
370.901294
 21
283.914863
 31
0.0
 12
371.774448
 22
283.781773
 32
0.0
 13
371.774448
 23
283.781773
 33
0.0
  0
SOLID
  5
DA64
  8
WAKU
  6
CONTINUOUS
 10
372.265666
 20
284.043411
 30
0.0
 11
371.296984
 21
284.010368
 31
0.0
 12
371.774448
 22
283.781773
 32
0.0
 13
371.774448
 23
283.781773
 33
0.0
  0
SOLID
  5
DA65
  8
WAKU
  6
CONTINUOUS
 10
370.275177
 20
284.066476
 30
0.0
 11
369.966824
 21
283.829526
 31
0.0
 12
370.392927
 22
283.968568
 32
0.0
 13
370.392927
 23
283.968568
 33
0.0
  0
SOLID
  5
DA66
  8
WAKU
  6
CONTINUOUS
 10
369.828646
 20
284.107791
 30
0.0
 11
369.966824
 21
283.829526
 31
0.0
 12
370.275177
 22
284.066476
 32
0.0
 13
370.275177
 23
284.066476
 33
0.0
  0
SOLID
  5
DA67
  8
WAKU
  6
CONTINUOUS
 10
370.709458
 20
284.142397
 30
0.0
 11
369.828646
 21
284.107791
 31
0.0
 12
370.275177
 22
284.066476
 32
0.0
 13
370.275177
 23
284.066476
 33
0.0
  0
SOLID
  5
DA68
  8
WAKU
  6
CONTINUOUS
 10
371.751882
 20
284.202798
 30
0.0
 11
371.296984
 21
284.010368
 31
0.0
 12
372.265666
 22
284.043411
 32
0.0
 13
372.265666
 23
284.043411
 33
0.0
  0
SOLID
  5
DA69
  8
WAKU
  6
CONTINUOUS
 10
369.550381
 20
284.245969
 30
0.0
 11
369.828646
 21
284.107791
 31
0.0
 12
370.709458
 22
284.142397
 32
0.0
 13
370.709458
 23
284.142397
 33
0.0
  0
SOLID
  5
DA6A
  8
WAKU
  6
CONTINUOUS
 10
371.186428
 20
284.314625
 30
0.0
 11
369.550381
 21
284.245969
 31
0.0
 12
370.709458
 22
284.142397
 32
0.0
 13
370.709458
 23
284.142397
 33
0.0
  0
SOLID
  5
DA6B
  8
WAKU
  6
CONTINUOUS
 10
372.760756
 20
284.380595
 30
0.0
 11
371.751882
 21
284.202798
 31
0.0
 12
372.265666
 22
284.043411
 32
0.0
 13
372.265666
 23
284.043411
 33
0.0
  0
SOLID
  5
DA6C
  8
WAKU
  6
CONTINUOUS
 10
370.172911
 20
284.451856
 30
0.0
 11
369.550381
 21
284.245969
 31
0.0
 12
371.186428
 22
284.314625
 32
0.0
 13
371.186428
 23
284.314625
 33
0.0
  0
SOLID
  5
DA6D
  8
WAKU
  6
CONTINUOUS
 10
369.355518
 20
284.472454
 30
0.0
 11
369.550381
 21
284.245969
 31
0.0
 12
370.172911
 22
284.451856
 32
0.0
 13
370.172911
 23
284.451856
 33
0.0
  0
SOLID
  5
DA6E
  8
WAKU
  6
CONTINUOUS
 10
372.237497
 20
284.486117
 30
0.0
 11
371.751882
 21
284.202798
 31
0.0
 12
372.760756
 22
284.380595
 32
0.0
 13
372.760756
 23
284.380595
 33
0.0
  0
SOLID
  5
DA6F
  8
WAKU
  6
CONTINUOUS
 10
370.681395
 20
284.539195
 30
0.0
 11
370.172911
 21
284.451856
 31
0.0
 12
371.186428
 22
284.314625
 32
0.0
 13
371.186428
 23
284.314625
 33
0.0
  0
SOLID
  5
DA70
  8
WAKU
  6
CONTINUOUS
 10
369.787305
 20
284.553935
 30
0.0
 11
369.355518
 21
284.472454
 31
0.0
 12
370.172911
 22
284.451856
 32
0.0
 13
370.172911
 23
284.451856
 33
0.0
  0
SOLID
  5
DA71
  8
WAKU
  6
CONTINUOUS
 10
371.68777
 20
284.576545
 30
0.0
 11
370.681395
 21
284.539195
 31
0.0
 12
371.186428
 22
284.314625
 32
0.0
 13
371.186428
 23
284.314625
 33
0.0
  0
SOLID
  5
DA72
  8
WAKU
  6
CONTINUOUS
 10
369.689155
 20
284.672435
 30
0.0
 11
369.355518
 21
284.472454
 31
0.0
 12
369.787305
 22
284.553935
 32
0.0
 13
369.787305
 23
284.553935
 33
0.0
  0
SOLID
  5
DA73
  8
WAKU
  6
CONTINUOUS
 10
369.251215
 20
284.778928
 30
0.0
 11
369.355518
 21
284.472454
 31
0.0
 12
369.689155
 22
284.672435
 32
0.0
 13
369.689155
 23
284.672435
 33
0.0
  0
SOLID
  5
DA74
  8
WAKU
  6
CONTINUOUS
 10
373.241532
 20
284.780941
 30
0.0
 11
372.237497
 21
284.486117
 31
0.0
 12
372.760756
 22
284.380595
 32
0.0
 13
372.760756
 23
284.380595
 33
0.0
  0
SOLID
  5
DA75
  8
WAKU
  6
CONTINUOUS
 10
371.312263
 20
284.810332
 30
0.0
 11
370.681395
 21
284.539195
 31
0.0
 12
371.68777
 22
284.576545
 32
0.0
 13
371.68777
 23
284.576545
 33
0.0
  0
SOLID
  5
DA76
  8
WAKU
  6
CONTINUOUS
 10
369.630358
 20
284.873087
 30
0.0
 11
369.251215
 21
284.778928
 31
0.0
 12
369.689155
 22
284.672435
 32
0.0
 13
369.689155
 23
284.672435
 33
0.0
  0
SOLID
  5
DA77
  8
WAKU
  6
CONTINUOUS
 10
372.194232
 20
284.918099
 30
0.0
 11
371.312263
 21
284.810332
 31
0.0
 12
371.68777
 22
284.576545
 32
0.0
 13
371.68777
 23
284.576545
 33
0.0
  0
SOLID
  5
DA78
  8
WAKU
  6
CONTINUOUS
 10
370.260168
 20
284.959969
 30
0.0
 11
369.787305
 21
284.553935
 31
0.0
 12
370.172911
 22
284.451856
 32
0.0
 13
370.172911
 23
284.451856
 33
0.0
  0
SOLID
  5
DA79
  8
WAKU
  6
CONTINUOUS
 10
369.863139
 20
284.988189
 30
0.0
 11
369.787305
 21
284.553935
 31
0.0
 12
370.260168
 22
284.959969
 32
0.0
 13
370.260168
 23
284.959969
 33
0.0
  0
SOLID
  5
DA7A
  8
WAKU
  6
CONTINUOUS
 10
398.194006
 20
285.115385
 30
0.0
 11
397.606055
 21
283.5
 31
0.0
 12
401.913747
 22
283.5
 32
0.0
 13
401.913747
 23
283.5
 33
0.0
  0
SOLID
  5
DA7B
  8
WAKU
  6
CONTINUOUS
 10
401.913747
 20
283.5
 30
0.0
 11
401.424776
 21
285.115385
 31
0.0
 12
398.194006
 22
285.115385
 32
0.0
 13
398.194006
 23
285.115385
 33
0.0
  0
SOLID
  5
DA7C
  8
WAKU
  6
CONTINUOUS
 10
369.241303
 20
285.154132
 30
0.0
 11
369.251215
 21
284.778928
 31
0.0
 12
369.630358
 22
284.873087
 32
0.0
 13
369.630358
 23
284.873087
 33
0.0
  0
SOLID
  5
DA7D
  8
WAKU
  6
CONTINUOUS
 10
369.635696
 20
285.180404
 30
0.0
 11
369.241303
 21
285.154132
 31
0.0
 12
369.630358
 22
284.873087
 32
0.0
 13
369.630358
 23
284.873087
 33
0.0
  0
SOLID
  5
DA7E
  8
WAKU
  6
CONTINUOUS
 10
373.690335
 20
285.229744
 30
0.0
 11
372.237497
 21
284.486117
 31
0.0
 12
373.241532
 22
284.780941
 32
0.0
 13
373.241532
 23
284.780941
 33
0.0
  0
SOLID
  5
DA7F
  8
WAKU
  6
CONTINUOUS
 10
371.98994
 20
285.251431
 30
0.0
 11
371.312263
 21
284.810332
 31
0.0
 12
372.194232
 22
284.918099
 32
0.0
 13
372.194232
 23
284.918099
 33
0.0
  0
SOLID
  5
DA80
  8
WAKU
  6
CONTINUOUS
 10
373.195965
 20
285.275232
 30
0.0
 11
372.237497
 21
284.486117
 31
0.0
 12
373.690335
 22
285.229744
 32
0.0
 13
373.690335
 23
285.229744
 33
0.0
  0
SOLID
  5
DA81
  8
WAKU
  6
CONTINUOUS
 10
372.686363
 20
285.326171
 30
0.0
 11
371.98994
 21
285.251431
 31
0.0
 12
372.194232
 22
284.918099
 32
0.0
 13
372.194232
 23
284.918099
 33
0.0
  0
SOLID
  5
DA82
  8
WAKU
  6
CONTINUOUS
 10
370.035293
 20
285.465154
 30
0.0
 11
369.863139
 21
284.988189
 31
0.0
 12
370.260168
 22
284.959969
 32
0.0
 13
370.260168
 23
284.959969
 33
0.0
  0
SOLID
  5
DA83
  8
WAKU
  6
CONTINUOUS
 10
369.73149
 20
285.576021
 30
0.0
 11
369.241303
 21
285.154132
 31
0.0
 12
369.635696
 22
285.180404
 32
0.0
 13
369.635696
 23
285.180404
 33
0.0
  0
SOLID
  5
DA84
  8
WAKU
  6
CONTINUOUS
 10
369.326146
 20
285.584287
 30
0.0
 11
369.241303
 21
285.154132
 31
0.0
 12
369.73149
 22
285.576021
 32
0.0
 13
369.73149
 23
285.576021
 33
0.0
  0
SOLID
  5
DA85
  8
WAKU
  6
CONTINUOUS
 10
370.530712
 20
285.590875
 30
0.0
 11
370.035293
 21
285.465154
 31
0.0
 12
370.260168
 22
284.959969
 32
0.0
 13
370.260168
 23
284.959969
 33
0.0
  0
SOLID
  5
DA86
  8
WAKU
  6
CONTINUOUS
 10
389.236144
 20
285.653846
 30
0.0
 11
383.067593
 21
283.5
 31
0.0
 12
388.452208
 22
283.5
 32
0.0
 13
388.452208
 23
283.5
 33
0.0
  0
SOLID
  5
DA87
  8
WAKU
  6
CONTINUOUS
 10
383.851529
 20
285.653846
 30
0.0
 11
383.067593
 21
283.5
 31
0.0
 12
389.236144
 22
285.653846
 32
0.0
 13
389.236144
 23
285.653846
 33
0.0
  0
SOLID
  5
DA88
  8
WAKU
  6
CONTINUOUS
 10
404.851529
 20
285.653846
 30
0.0
 11
404.067593
 21
283.5
 31
0.0
 12
409.452208
 22
283.5
 32
0.0
 13
409.452208
 23
283.5
 33
0.0
  0
SOLID
  5
DA89
  8
WAKU
  6
CONTINUOUS
 10
409.452208
 20
283.5
 30
0.0
 11
409.159221
 21
285.653846
 31
0.0
 12
404.851529
 22
285.653846
 32
0.0
 13
404.851529
 23
285.653846
 33
0.0
  0
SOLID
  5
DA8A
  8
WAKU
  6
CONTINUOUS
 10
391.174606
 20
285.653846
 30
0.0
 11
390.39067
 21
283.5
 31
0.0
 12
395.452208
 22
283.5
 32
0.0
 13
395.452208
 23
283.5
 33
0.0
  0
SOLID
  5
DA8B
  8
WAKU
  6
CONTINUOUS
 10
395.452208
 20
283.5
 30
0.0
 11
395.159221
 21
285.653846
 31
0.0
 12
391.174606
 22
285.653846
 32
0.0
 13
391.174606
 23
285.653846
 33
0.0
  0
SOLID
  5
DA8C
  8
WAKU
  6
CONTINUOUS
 10
374.090681
 20
285.71052
 30
0.0
 11
373.195965
 21
285.275232
 31
0.0
 12
373.690335
 22
285.229744
 32
0.0
 13
373.690335
 23
285.229744
 33
0.0
  0
SOLID
  5
DA8D
  8
WAKU
  6
CONTINUOUS
 10
373.145266
 20
285.785089
 30
0.0
 11
371.98994
 21
285.251431
 31
0.0
 12
372.686363
 22
285.326171
 32
0.0
 13
372.686363
 23
285.326171
 33
0.0
  0
SOLID
  5
DA8E
  8
WAKU
  6
CONTINUOUS
 10
372.646296
 20
285.825506
 30
0.0
 11
371.98994
 21
285.251431
 31
0.0
 12
373.145266
 22
285.785089
 32
0.0
 13
373.145266
 23
285.785089
 33
0.0
  0
SOLID
  5
DA8F
  8
WAKU
  6
CONTINUOUS
 10
370.297156
 20
285.966509
 30
0.0
 11
370.035293
 21
285.465154
 31
0.0
 12
370.530712
 22
285.590875
 32
0.0
 13
370.530712
 23
285.590875
 33
0.0
  0
SOLID
  5
DA90
  8
WAKU
  6
CONTINUOUS
 10
369.923519
 20
286.031028
 30
0.0
 11
369.326146
 21
285.584287
 31
0.0
 12
369.73149
 22
285.576021
 32
0.0
 13
369.73149
 23
285.576021
 33
0.0
  0
SOLID
  5
DA91
  8
WAKU
  6
CONTINUOUS
 10
369.502627
 20
286.053593
 30
0.0
 11
369.326146
 21
285.584287
 31
0.0
 12
369.923519
 22
286.031028
 32
0.0
 13
369.923519
 23
286.031028
 33
0.0
  0
SOLID
  5
DA92
  8
WAKU
  6
CONTINUOUS
 10
379.397145
 20
286.138462
 30
0.0
 11
378.436824
 21
283.5
 31
0.0
 12
379.513747
 22
283.5
 32
0.0
 13
379.513747
 23
283.5
 33
0.0
  0
SOLID
  5
DA93
  8
WAKU
  6
CONTINUOUS
 10
377.155205
 20
286.192308
 30
0.0
 11
376.175285
 21
283.5
 31
0.0
 12
379.397145
 22
286.138462
 32
0.0
 13
379.397145
 23
286.138462
 33
0.0
  0
SOLID
  5
DA94
  8
WAKU
  6
CONTINUOUS
 10
380.493667
 20
286.192308
 30
0.0
 11
377.155205
 21
286.192308
 31
0.0
 12
379.397145
 22
286.138462
 32
0.0
 13
379.397145
 23
286.138462
 33
0.0
  0
SOLID
  5
DA95
  8
WAKU
  6
CONTINUOUS
 10
380.493667
 20
286.192308
 30
0.0
 11
379.397145
 21
286.138462
 31
0.0
 12
379.513747
 22
283.5
 32
0.0
 13
379.513747
 23
283.5
 33
0.0
  0
SOLID
  5
DA96
  8
WAKU
  6
CONTINUOUS
 10
380.493667
 20
286.192308
 30
0.0
 11
381.775285
 21
283.5
 31
0.0
 12
382.755205
 22
286.192308
 32
0.0
 13
382.755205
 23
286.192308
 33
0.0
  0
SOLID
  5
DA97
  8
WAKU
  6
CONTINUOUS
 10
374.427865
 20
286.205609
 30
0.0
 11
373.195965
 21
285.275232
 31
0.0
 12
374.090681
 22
285.71052
 32
0.0
 13
374.090681
 23
285.71052
 33
0.0
  0
SOLID
  5
DA98
  8
WAKU
  6
CONTINUOUS
 10
373.98505
 20
286.233718
 30
0.0
 11
373.195965
 21
285.275232
 31
0.0
 12
374.427865
 22
286.205609
 32
0.0
 13
374.427865
 23
286.205609
 33
0.0
  0
SOLID
  5
DA99
  8
WAKU
  6
CONTINUOUS
 10
370.971896
 20
286.268471
 30
0.0
 11
370.297156
 21
285.966509
 31
0.0
 12
370.530712
 22
285.590875
 32
0.0
 13
370.530712
 23
285.590875
 33
0.0
  0
SOLID
  5
DA9A
  8
WAKU
  6
CONTINUOUS
 10
373.553316
 20
286.277229
 30
0.0
 11
372.646296
 21
285.825506
 31
0.0
 12
373.145266
 22
285.785089
 32
0.0
 13
373.145266
 23
285.785089
 33
0.0
  0
SOLID
  5
DA9B
  8
WAKU
  6
CONTINUOUS
 10
370.638671
 20
286.473
 30
0.0
 11
370.297156
 21
285.966509
 31
0.0
 12
370.971896
 22
286.268471
 32
0.0
 13
370.971896
 23
286.268471
 33
0.0
  0
SOLID
  5
DA9C
  8
WAKU
  6
CONTINUOUS
 10
373.220238
 20
286.48192
 30
0.0
 11
372.646296
 21
285.825506
 31
0.0
 12
373.553316
 22
286.277229
 32
0.0
 13
373.553316
 23
286.277229
 33
0.0
  0
SOLID
  5
DA9D
  8
WAKU
  6
CONTINUOUS
 10
370.207035
 20
286.51657
 30
0.0
 11
369.502627
 21
286.053593
 31
0.0
 12
369.923519
 22
286.031028
 32
0.0
 13
369.923519
 23
286.031028
 33
0.0
  0
SOLID
  5
DA9E
  8
WAKU
  6
CONTINUOUS
 10
369.764265
 20
286.544812
 30
0.0
 11
369.502627
 21
286.053593
 31
0.0
 12
370.207035
 22
286.51657
 32
0.0
 13
370.207035
 23
286.51657
 33
0.0
  0
SOLID
  5
DA9F
  8
WAKU
  6
CONTINUOUS
 10
374.689503
 20
286.696828
 30
0.0
 11
373.98505
 21
286.233718
 31
0.0
 12
374.427865
 22
286.205609
 32
0.0
 13
374.427865
 23
286.205609
 33
0.0
  0
SOLID
  5
DAA0
  8
WAKU
  6
CONTINUOUS
 10
374.268507
 20
286.719278
 30
0.0
 11
373.98505
 21
286.233718
 31
0.0
 12
374.689503
 22
286.696828
 32
0.0
 13
374.689503
 23
286.696828
 33
0.0
  0
SOLID
  5
DAA1
  8
WAKU
  6
CONTINUOUS
 10
373.894843
 20
286.783693
 30
0.0
 11
373.220238
 21
286.48192
 31
0.0
 12
373.553316
 22
286.277229
 32
0.0
 13
373.553316
 23
286.277229
 33
0.0
  0
SOLID
  5
DAA2
  8
WAKU
  6
CONTINUOUS
 10
371.545827
 20
286.924893
 30
0.0
 11
370.638671
 21
286.473
 31
0.0
 12
370.971896
 22
286.268471
 32
0.0
 13
370.971896
 23
286.268471
 33
0.0
  0
SOLID
  5
DAA3
  8
WAKU
  6
CONTINUOUS
 10
371.04672
 20
286.965174
 30
0.0
 11
370.638671
 21
286.473
 31
0.0
 12
371.545827
 22
286.924893
 32
0.0
 13
371.545827
 23
286.924893
 33
0.0
  0
SOLID
  5
DAA4
  8
WAKU
  6
CONTINUOUS
 10
370.101449
 20
287.039901
 30
0.0
 11
369.764265
 21
286.544812
 31
0.0
 12
370.207035
 22
286.51657
 32
0.0
 13
370.207035
 23
286.51657
 33
0.0
  0
SOLID
  5
DAA5
  8
WAKU
  6
CONTINUOUS
 10
373.661353
 20
287.159534
 30
0.0
 11
373.220238
 21
286.48192
 31
0.0
 12
373.894843
 22
286.783693
 32
0.0
 13
373.894843
 23
286.783693
 33
0.0
  0
SOLID
  5
DAA6
  8
WAKU
  6
CONTINUOUS
 10
374.865984
 20
287.166134
 30
0.0
 11
374.268507
 21
286.719278
 31
0.0
 12
374.689503
 22
286.696828
 32
0.0
 13
374.689503
 23
286.696828
 33
0.0
  0
SOLID
  5
DAA7
  8
WAKU
  6
CONTINUOUS
 10
374.46071
 20
287.174248
 30
0.0
 11
374.268507
 21
286.719278
 31
0.0
 12
374.865984
 22
287.166134
 32
0.0
 13
374.865984
 23
287.166134
 33
0.0
  0
SOLID
  5
DAA8
  8
WAKU
  6
CONTINUOUS
 10
374.156732
 20
287.28503
 30
0.0
 11
373.661353
 21
287.159534
 31
0.0
 12
373.894843
 22
286.783693
 32
0.0
 13
373.894843
 23
286.783693
 33
0.0
  0
SOLID
  5
DAA9
  8
WAKU
  6
CONTINUOUS
 10
371.505632
 20
287.424128
 30
0.0
 11
371.04672
 21
286.965174
 31
0.0
 12
371.545827
 22
286.924893
 32
0.0
 13
371.545827
 23
286.924893
 33
0.0
  0
SOLID
  5
DAAA
  8
WAKU
  6
CONTINUOUS
 10
370.996098
 20
287.475108
 30
0.0
 11
370.101449
 21
287.039901
 31
0.0
 12
370.207035
 22
286.51657
 32
0.0
 13
370.207035
 23
286.51657
 33
0.0
  0
SOLID
  5
DAAB
  8
WAKU
  6
CONTINUOUS
 10
372.202181
 20
287.498991
 30
0.0
 11
371.505632
 21
287.424128
 31
0.0
 12
371.545827
 22
286.924893
 32
0.0
 13
371.545827
 23
286.924893
 33
0.0
  0
SOLID
  5
DAAC
  8
WAKU
  6
CONTINUOUS
 10
370.501795
 20
287.520677
 30
0.0
 11
370.101449
 21
287.039901
 31
0.0
 12
370.996098
 22
287.475108
 32
0.0
 13
370.996098
 23
287.475108
 33
0.0
  0
SOLID
  5
DAAD
  8
WAKU
  6
CONTINUOUS
 10
374.556361
 20
287.569864
 30
0.0
 11
374.46071
 21
287.174248
 31
0.0
 12
374.865984
 22
287.166134
 32
0.0
 13
374.865984
 23
287.166134
 33
0.0
  0
SOLID
  5
DAAE
  8
WAKU
  6
CONTINUOUS
 10
395.864763
 20
287.592308
 30
0.0
 11
395.159221
 21
285.653846
 31
0.0
 12
395.452208
 22
283.5
 32
0.0
 13
395.452208
 23
283.5
 33
0.0
  0
SOLID
  5
DAAF
  8
WAKU
  6
CONTINUOUS
 10
393.172456
 20
287.592308
 30
0.0
 11
391.703565
 21
286.515385
 31
0.0
 12
392.780488
 22
286.515385
 32
0.0
 13
392.780488
 23
286.515385
 33
0.0
  0
SOLID
  5
DAB0
  8
WAKU
  6
CONTINUOUS
 10
392.095533
 20
287.592308
 30
0.0
 11
391.703565
 21
286.515385
 31
0.0
 12
393.172456
 22
287.592308
 32
0.0
 13
393.172456
 23
287.592308
 33
0.0
  0
SOLID
  5
DAB1
  8
WAKU
  6
CONTINUOUS
 10
391.28784
 20
287.592308
 30
0.0
 11
392.095533
 21
287.592308
 31
0.0
 12
393.172456
 22
287.592308
 32
0.0
 13
393.172456
 23
287.592308
 33
0.0
  0
SOLID
  5
DAB2
  8
WAKU
  6
CONTINUOUS
 10
391.28784
 20
287.592308
 30
0.0
 11
393.172456
 21
287.592308
 31
0.0
 12
395.864763
 22
287.592308
 32
0.0
 13
395.864763
 23
287.592308
 33
0.0
  0
SOLID
  5
DAB3
  8
WAKU
  6
CONTINUOUS
 10
396.941687
 20
287.592308
 30
0.0
 11
391.28784
 21
287.592308
 31
0.0
 12
395.864763
 22
287.592308
 32
0.0
 13
395.864763
 23
287.592308
 33
0.0
  0
SOLID
  5
DAB4
  8
WAKU
  6
CONTINUOUS
 10
396.941687
 20
287.592308
 30
0.0
 11
395.864763
 21
287.592308
 31
0.0
 12
395.452208
 22
283.5
 32
0.0
 13
395.452208
 23
283.5
 33
0.0
  0
SOLID
  5
DAB5
  8
WAKU
  6
CONTINUOUS
 10
374.950827
 20
287.596289
 30
0.0
 11
374.556361
 21
287.569864
 31
0.0
 12
374.865984
 22
287.166134
 32
0.0
 13
374.865984
 23
287.166134
 33
0.0
  0
SOLID
  5
DAB6
  8
WAKU
  6
CONTINUOUS
 10
374.328925
 20
287.761987
 30
0.0
 11
373.661353
 21
287.159534
 31
0.0
 12
374.156732
 22
287.28503
 32
0.0
 13
374.156732
 23
287.28503
 33
0.0
  0
SOLID
  5
DAB7
  8
WAKU
  6
CONTINUOUS
 10
373.932071
 20
287.790402
 30
0.0
 11
373.661353
 21
287.159534
 31
0.0
 12
374.328925
 22
287.761987
 32
0.0
 13
374.328925
 23
287.761987
 33
0.0
  0
SOLID
  5
DAB8
  8
WAKU
  6
CONTINUOUS
 10
371.997783
 20
287.832235
 30
0.0
 11
371.505632
 21
287.424128
 31
0.0
 12
372.202181
 22
287.498991
 32
0.0
 13
372.202181
 23
287.498991
 33
0.0
  0
SOLID
  5
DAB9
  8
WAKU
  6
CONTINUOUS
 10
374.561802
 20
287.877253
 30
0.0
 11
374.556361
 21
287.569864
 31
0.0
 12
374.950827
 22
287.596289
 32
0.0
 13
374.950827
 23
287.596289
 33
0.0
  0
SOLID
  5
DABA
  8
WAKU
  6
CONTINUOUS
 10
372.879878
 20
287.940057
 30
0.0
 11
371.997783
 21
287.832235
 31
0.0
 12
372.202181
 22
287.498991
 32
0.0
 13
372.202181
 23
287.498991
 33
0.0
  0
SOLID
  5
DABB
  8
WAKU
  6
CONTINUOUS
 10
370.950599
 20
287.96948
 30
0.0
 11
370.501795
 21
287.520677
 31
0.0
 12
370.996098
 22
287.475108
 32
0.0
 13
370.996098
 23
287.475108
 33
0.0
  0
SOLID
  5
DABC
  8
WAKU
  6
CONTINUOUS
 10
374.940915
 20
287.971493
 30
0.0
 11
374.561802
 21
287.877253
 31
0.0
 12
374.950827
 22
287.596289
 32
0.0
 13
374.950827
 23
287.596289
 33
0.0
  0
SOLID
  5
DABD
  8
WAKU
  6
CONTINUOUS
 10
374.502951
 20
288.077918
 30
0.0
 11
374.561802
 21
287.877253
 31
0.0
 12
374.940915
 22
287.971493
 32
0.0
 13
374.940915
 23
287.971493
 33
0.0
  0
SOLID
  5
DABE
  8
WAKU
  6
CONTINUOUS
 10
405.753055
 20
288.130769
 30
0.0
 11
405.282694
 21
286.838462
 31
0.0
 12
408.513463
 22
286.838462
 32
0.0
 13
408.513463
 23
286.838462
 33
0.0
  0
SOLID
  5
DABF
  8
WAKU
  6
CONTINUOUS
 10
408.983824
 20
288.130769
 30
0.0
 11
405.753055
 21
288.130769
 31
0.0
 12
408.513463
 22
286.838462
 32
0.0
 13
408.513463
 23
286.838462
 33
0.0
  0
SOLID
  5
DAC0
  8
WAKU
  6
CONTINUOUS
 10
372.504269
 20
288.173821
 30
0.0
 11
371.997783
 21
287.832235
 31
0.0
 12
372.879878
 22
287.940057
 32
0.0
 13
372.879878
 23
287.940057
 33
0.0
  0
SOLID
  5
DAC1
  8
WAKU
  6
CONTINUOUS
 10
374.40481
 20
288.196249
 30
0.0
 11
373.932071
 21
287.790402
 31
0.0
 12
374.328925
 22
287.761987
 32
0.0
 13
374.328925
 23
287.761987
 33
0.0
  0
SOLID
  5
DAC2
  8
WAKU
  6
CONTINUOUS
 10
374.40481
 20
288.196249
 30
0.0
 11
374.502951
 21
288.077918
 31
0.0
 12
374.940915
 22
287.971493
 32
0.0
 13
374.940915
 23
287.971493
 33
0.0
  0
SOLID
  5
DAC3
  8
WAKU
  6
CONTINUOUS
 10
373.510738
 20
288.21124
 30
0.0
 11
372.504269
 21
288.173821
 31
0.0
 12
372.879878
 22
287.940057
 32
0.0
 13
372.879878
 23
287.940057
 33
0.0
  0
SOLID
  5
DAC4
  8
WAKU
  6
CONTINUOUS
 10
371.954587
 20
288.264284
 30
0.0
 11
370.950599
 21
287.96948
 31
0.0
 12
370.996098
 22
287.475108
 32
0.0
 13
370.996098
 23
287.475108
 33
0.0
  0
SOLID
  5
DAC5
  8
WAKU
  6
CONTINUOUS
 10
374.836612
 20
288.277967
 30
0.0
 11
374.40481
 21
288.196249
 31
0.0
 12
374.940915
 22
287.971493
 32
0.0
 13
374.940915
 23
287.971493
 33
0.0
  0
SOLID
  5
DAC6
  8
WAKU
  6
CONTINUOUS
 10
374.019229
 20
288.298569
 30
0.0
 11
372.504269
 21
288.173821
 31
0.0
 12
373.510738
 22
288.21124
 32
0.0
 13
373.510738
 23
288.21124
 33
0.0
  0
SOLID
  5
DAC7
  8
WAKU
  6
CONTINUOUS
 10
374.019229
 20
288.298569
 30
0.0
 11
374.40481
 21
288.196249
 31
0.0
 12
374.836612
 22
288.277967
 32
0.0
 13
374.836612
 23
288.277967
 33
0.0
  0
SOLID
  5
DAC8
  8
WAKU
  6
CONTINUOUS
 10
374.019229
 20
288.298569
 30
0.0
 11
373.932071
 21
287.790402
 31
0.0
 12
374.40481
 22
288.196249
 32
0.0
 13
374.40481
 23
288.196249
 33
0.0
  0
SOLID
  5
DAC9
  8
WAKU
  6
CONTINUOUS
 10
371.431374
 20
288.369826
 30
0.0
 11
370.950599
 21
287.96948
 31
0.0
 12
371.954587
 22
288.264284
 32
0.0
 13
371.954587
 23
288.264284
 33
0.0
  0
SOLID
  5
DACA
  8
WAKU
  6
CONTINUOUS
 10
373.005639
 20
288.435768
 30
0.0
 11
372.504269
 21
288.173821
 31
0.0
 12
374.019229
 22
288.298569
 32
0.0
 13
374.019229
 23
288.298569
 33
0.0
  0
SOLID
  5
DACB
  8
WAKU
  6
CONTINUOUS
 10
374.641749
 20
288.504452
 30
0.0
 11
373.005639
 21
288.435768
 31
0.0
 12
374.019229
 22
288.298569
 32
0.0
 13
374.019229
 23
288.298569
 33
0.0
  0
SOLID
  5
DACC
  8
WAKU
  6
CONTINUOUS
 10
374.641749
 20
288.504452
 30
0.0
 11
374.019229
 21
288.298569
 31
0.0
 12
374.836612
 22
288.277967
 32
0.0
 13
374.836612
 23
288.277967
 33
0.0
  0
SOLID
  5
DACD
  8
WAKU
  6
CONTINUOUS
 10
372.440235
 20
288.547585
 30
0.0
 11
371.431374
 21
288.369826
 31
0.0
 12
371.954587
 22
288.264284
 32
0.0
 13
371.954587
 23
288.264284
 33
0.0
  0
SOLID
  5
DACE
  8
WAKU
  6
CONTINUOUS
 10
373.482636
 20
288.608014
 30
0.0
 11
373.005639
 21
288.435768
 31
0.0
 12
374.641749
 22
288.504452
 32
0.0
 13
374.641749
 23
288.504452
 33
0.0
  0
SOLID
  5
DACF
  8
WAKU
  6
CONTINUOUS
 10
374.363484
 20
288.64263
 30
0.0
 11
373.482636
 21
288.608014
 31
0.0
 12
374.641749
 22
288.504452
 32
0.0
 13
374.641749
 23
288.504452
 33
0.0
  0
SOLID
  5
DAD0
  8
WAKU
  6
CONTINUOUS
 10
373.916941
 20
288.683944
 30
0.0
 11
373.482636
 21
288.608014
 31
0.0
 12
374.363484
 22
288.64263
 32
0.0
 13
374.363484
 23
288.64263
 33
0.0
  0
SOLID
  5
DAD1
  8
WAKU
  6
CONTINUOUS
 10
371.926464
 20
288.70701
 30
0.0
 11
371.431374
 21
288.369826
 31
0.0
 12
372.440235
 22
288.547585
 32
0.0
 13
372.440235
 23
288.547585
 33
0.0
  0
SOLID
  5
DAD2
  8
WAKU
  6
CONTINUOUS
 10
372.89514
 20
288.740065
 30
0.0
 11
371.926464
 21
288.70701
 31
0.0
 12
372.440235
 22
288.547585
 32
0.0
 13
372.440235
 23
288.547585
 33
0.0
  0
SOLID
  5
DAD3
  8
WAKU
  6
CONTINUOUS
 10
380.311313
 20
288.776923
 30
0.0
 11
377.155205
 21
286.192308
 31
0.0
 12
380.493667
 22
286.192308
 32
0.0
 13
380.493667
 23
286.192308
 33
0.0
  0
SOLID
  5
DAD4
  8
WAKU
  6
CONTINUOUS
 10
381.524851
 20
288.776923
 30
0.0
 11
378.095928
 21
288.776923
 31
0.0
 12
380.311313
 22
288.776923
 32
0.0
 13
380.311313
 23
288.776923
 33
0.0
  0
SOLID
  5
DAD5
  8
WAKU
  6
CONTINUOUS
 10
381.524851
 20
288.776923
 30
0.0
 11
380.311313
 21
288.776923
 31
0.0
 12
380.493667
 22
286.192308
 32
0.0
 13
380.493667
 23
286.192308
 33
0.0
  0
SOLID
  5
DAD6
  8
WAKU
  6
CONTINUOUS
 10
381.524851
 20
288.776923
 30
0.0
 11
380.493667
 21
286.192308
 31
0.0
 12
382.755205
 22
286.192308
 32
0.0
 13
382.755205
 23
286.192308
 33
0.0
  0
SOLID
  5
DAD7
  8
WAKU
  6
CONTINUOUS
 10
373.799148
 20
288.781929
 30
0.0
 11
373.916941
 21
288.683944
 31
0.0
 12
374.363484
 22
288.64263
 32
0.0
 13
374.363484
 23
288.64263
 33
0.0
  0
SOLID
  5
DAD8
  8
WAKU
  6
CONTINUOUS
 10
373.290857
 20
288.835581
 30
0.0
 11
371.926464
 21
288.70701
 31
0.0
 12
372.89514
 22
288.740065
 32
0.0
 13
372.89514
 23
288.740065
 33
0.0
  0
SOLID
  5
DAD9
  8
WAKU
  6
CONTINUOUS
 10
373.597996
 20
288.840902
 30
0.0
 11
373.799148
 21
288.781929
 31
0.0
 12
374.363484
 22
288.64263
 32
0.0
 13
374.363484
 23
288.64263
 33
0.0
  0
SOLID
  5
DADA
  8
WAKU
  6
CONTINUOUS
 10
402.042817
 20
288.884615
 30
0.0
 11
400.181958
 21
286.730769
 31
0.0
 12
401.258881
 22
286.730769
 32
0.0
 13
401.258881
 23
286.730769
 33
0.0
  0
SOLID
  5
DADB
  8
WAKU
  6
CONTINUOUS
 10
402.796663
 20
288.884615
 30
0.0
 11
401.424776
 21
285.115385
 31
0.0
 12
401.913747
 22
283.5
 32
0.0
 13
401.913747
 23
283.5
 33
0.0
  0
SOLID
  5
DADC
  8
WAKU
  6
CONTINUOUS
 10
403.873587
 20
288.884615
 30
0.0
 11
402.796663
 21
288.884615
 31
0.0
 12
401.913747
 22
283.5
 32
0.0
 13
401.913747
 23
283.5
 33
0.0
  0
SOLID
  5
DADD
  8
WAKU
  6
CONTINUOUS
 10
400.965894
 20
288.884615
 30
0.0
 11
400.181958
 21
286.730769
 31
0.0
 12
402.042817
 22
288.884615
 32
0.0
 13
402.042817
 23
288.884615
 33
0.0
  0
SOLID
  5
DADE
  8
WAKU
  6
CONTINUOUS
 10
399.858881
 20
286.730769
 30
0.0
 11
400.642817
 21
288.884615
 31
0.0
 12
399.565894
 22
288.884615
 32
0.0
 13
399.565894
 23
288.884615
 33
0.0
  0
SOLID
  5
DADF
  8
WAKU
  6
CONTINUOUS
 10
399.565894
 20
288.884615
 30
0.0
 11
398.781958
 21
286.730769
 31
0.0
 12
399.858881
 22
286.730769
 32
0.0
 13
399.858881
 23
286.730769
 33
0.0
  0
SOLID
  5
DAE0
  8
WAKU
  6
CONTINUOUS
 10
374.225306
 20
288.920895
 30
0.0
 11
373.597996
 21
288.840902
 31
0.0
 12
374.363484
 22
288.64263
 32
0.0
 13
374.363484
 23
288.64263
 33
0.0
  0
SOLID
  5
DAE1
  8
WAKU
  6
CONTINUOUS
 10
372.417683
 20
288.968648
 30
0.0
 11
373.597996
 21
288.840902
 31
0.0
 12
374.225306
 22
288.920895
 32
0.0
 13
374.225306
 23
288.920895
 33
0.0
  0
SOLID
  5
DAE2
  8
WAKU
  6
CONTINUOUS
 10
372.417683
 20
288.968648
 30
0.0
 11
373.290857
 21
288.835581
 31
0.0
 12
373.597996
 22
288.840902
 32
0.0
 13
373.597996
 23
288.840902
 33
0.0
  0
SOLID
  5
DAE3
  8
WAKU
  6
CONTINUOUS
 10
372.417683
 20
288.968648
 30
0.0
 11
371.926464
 21
288.70701
 31
0.0
 12
373.290857
 22
288.835581
 32
0.0
 13
373.290857
 23
288.835581
 33
0.0
  0
SOLID
  5
DAE4
  8
WAKU
  6
CONTINUOUS
 10
373.998821
 20
289.115757
 30
0.0
 11
372.417683
 21
288.968648
 31
0.0
 12
374.225306
 22
288.920895
 32
0.0
 13
374.225306
 23
288.920895
 33
0.0
  0
SOLID
  5
DAE5
  8
WAKU
  6
CONTINUOUS
 10
372.886988
 20
289.145129
 30
0.0
 11
372.417683
 21
288.968648
 31
0.0
 12
373.998821
 22
289.115757
 32
0.0
 13
373.998821
 23
289.115757
 33
0.0
  0
SOLID
  5
DAE6
  8
WAKU
  6
CONTINUOUS
 10
396.941687
 20
287.592308
 30
0.0
 11
396.452715
 21
289.207692
 31
0.0
 12
393.760408
 22
289.207692
 32
0.0
 13
393.760408
 23
289.207692
 33
0.0
  0
SOLID
  5
DAE7
  8
WAKU
  6
CONTINUOUS
 10
396.452715
 20
289.207692
 30
0.0
 11
396.941687
 21
287.592308
 31
0.0
 12
397.749379
 22
287.592308
 32
0.0
 13
397.749379
 23
287.592308
 33
0.0
  0
SOLID
  5
DAE8
  8
WAKU
  6
CONTINUOUS
 10
393.760408
 20
289.207692
 30
0.0
 11
391.28784
 21
287.592308
 31
0.0
 12
396.941687
 22
287.592308
 32
0.0
 13
396.941687
 23
287.592308
 33
0.0
  0
SOLID
  5
DAE9
  8
WAKU
  6
CONTINUOUS
 10
398.337331
 20
289.207692
 30
0.0
 11
396.452715
 21
289.207692
 31
0.0
 12
397.749379
 22
287.592308
 32
0.0
 13
397.749379
 23
287.592308
 33
0.0
  0
SOLID
  5
DAEA
  8
WAKU
  6
CONTINUOUS
 10
391.875792
 20
289.207692
 30
0.0
 11
391.28784
 21
287.592308
 31
0.0
 12
393.760408
 22
289.207692
 32
0.0
 13
393.760408
 23
289.207692
 33
0.0
  0
SOLID
  5
DAEB
  8
WAKU
  6
CONTINUOUS
 10
393.760408
 20
289.207692
 30
0.0
 11
392.683485
 21
289.207692
 31
0.0
 12
391.875792
 22
289.207692
 32
0.0
 13
391.875792
 23
289.207692
 33
0.0
  0
SOLID
  5
DAEC
  8
WAKU
  6
CONTINUOUS
 10
397.529638
 20
289.207692
 30
0.0
 11
396.452715
 21
289.207692
 31
0.0
 12
398.337331
 22
289.207692
 32
0.0
 13
398.337331
 23
289.207692
 33
0.0
  0
SOLID
  5
DAED
  8
WAKU
  6
CONTINUOUS
 10
373.692348
 20
289.22006
 30
0.0
 11
372.886988
 21
289.145129
 31
0.0
 12
373.998821
 22
289.115757
 32
0.0
 13
373.998821
 23
289.115757
 33
0.0
  0
SOLID
  5
DAEE
  8
WAKU
  6
CONTINUOUS
 10
373.317143
 20
289.229972
 30
0.0
 11
372.886988
 21
289.145129
 31
0.0
 12
373.692348
 22
289.22006
 32
0.0
 13
373.692348
 23
289.22006
 33
0.0
  0
SOLID
  5
DAEF
  8
WAKU
  6
CONTINUOUS
 10
378.723077
 20
290.5
 30
0.0
 11
381.524851
 21
288.776923
 31
0.0
 12
383.695928
 22
288.776923
 32
0.0
 13
383.695928
 23
288.776923
 33
0.0
  0
SOLID
  5
DAF0
  8
WAKU
  6
CONTINUOUS
 10
378.723077
 20
290.5
 30
0.0
 11
378.095928
 21
288.776923
 31
0.0
 12
381.524851
 22
288.776923
 32
0.0
 13
381.524851
 23
288.776923
 33
0.0
  0
SOLID
  5
DAF1
  8
WAKU
  6
CONTINUOUS
 10
372.249053
 20
290.5
 30
0.0
 11
367.971276
 21
290.5
 31
0.0
 12
367.971276
 22
286.222222
 32
0.0
 13
367.971276
 23
286.222222
 33
0.0
  0
SOLID
  5
DAF2
  8
WAKU
  6
CONTINUOUS
 10
409.219005
 20
288.776923
 30
0.0
 11
409.846154
 21
290.5
 31
0.0
 12
406.615385
 22
290.5
 32
0.0
 13
406.615385
 23
290.5
 33
0.0
  0
SOLID
  5
DAF3
  8
WAKU
  6
CONTINUOUS
 10
406.615385
 20
290.5
 30
0.0
 11
405.988236
 21
288.776923
 31
0.0
 12
409.219005
 22
288.776923
 32
0.0
 13
409.219005
 23
288.776923
 33
0.0
  0
SOLID
  5
DAF4
  8
WAKU
  6
CONTINUOUS
 10
392.683485
 20
289.207692
 30
0.0
 11
394.230769
 21
290.5
 31
0.0
 12
393.153846
 22
290.5
 32
0.0
 13
393.153846
 23
290.5
 33
0.0
  0
SOLID
  5
DAF5
  8
WAKU
  6
CONTINUOUS
 10
394.230769
 20
290.5
 30
0.0
 11
392.683485
 21
289.207692
 31
0.0
 12
393.760408
 22
289.207692
 32
0.0
 13
393.760408
 23
289.207692
 33
0.0
  0
SOLID
  5
DAF6
  8
WAKU
  6
CONTINUOUS
 10
409.159221
 20
285.653846
 30
0.0
 11
412.0
 21
290.5
 31
0.0
 12
410.923077
 22
290.5
 32
0.0
 13
410.923077
 23
290.5
 33
0.0
  0
SOLID
  5
DAF7
  8
WAKU
  6
CONTINUOUS
 10
412.0
 20
290.5
 30
0.0
 11
409.159221
 21
285.653846
 31
0.0
 12
409.452208
 22
283.5
 32
0.0
 13
409.452208
 23
283.5
 33
0.0
  0
SOLID
  5
DAF8
  8
WAKU
  6
CONTINUOUS
 10
384.323077
 20
290.5
 30
0.0
 11
378.723077
 21
290.5
 31
0.0
 12
383.695928
 22
288.776923
 32
0.0
 13
383.695928
 23
288.776923
 33
0.0
  0
SOLID
  5
DAF9
  8
WAKU
  6
CONTINUOUS
 10
385.615385
 20
290.5
 30
0.0
 11
384.988236
 21
288.776923
 31
0.0
 12
390.372851
 22
288.776923
 32
0.0
 13
390.372851
 23
288.776923
 33
0.0
  0
SOLID
  5
DAFA
  8
WAKU
  6
CONTINUOUS
 10
396.923077
 20
290.5
 30
0.0
 11
396.452715
 21
289.207692
 31
0.0
 12
397.529638
 22
289.207692
 32
0.0
 13
397.529638
 23
289.207692
 33
0.0
  0
SOLID
  5
DAFB
  8
WAKU
  6
CONTINUOUS
 10
391.0
 20
290.5
 30
0.0
 11
385.615385
 21
290.5
 31
0.0
 12
390.372851
 22
288.776923
 32
0.0
 13
390.372851
 23
288.776923
 33
0.0
  0
SOLID
  5
DAFC
  8
WAKU
  6
CONTINUOUS
 10
398.0
 20
290.5
 30
0.0
 11
396.923077
 21
290.5
 31
0.0
 12
397.529638
 22
289.207692
 32
0.0
 13
397.529638
 23
289.207692
 33
0.0
  0
ENDBLK
  5
DAFD
  8
0
  0
ENDSEC
  0
SECTION
  2
ENTITIES
  0
LINE
  5
DB05
  8
WAKU
 10
415.0
 20
292.0
 30
0.0
 11
415.0
 21
5.0
 31
0.0
  0
LINE
  5
DB06
  8
WAKU
 10
5.0
 20
292.0
 30
0.0
 11
5.0
 21
5.0
 31
0.0
  0
LINE
  5
DB07
  8
WAKU
 10
5.0
 20
5.0
 30
0.0
 11
415.0
 21
5.0
 31
0.0
  0
LINE
  5
DB08
  8
WAKU
 10
5.0
 20
292.0
 30
0.0
 11
415.0
 21
292.0
 31
0.0
  0
LINE
  5
DB09
  8
WAKU
 10
5.0
 20
282.0
 30
0.0
 11
415.0
 21
282.0
 31
0.0
  0
LINE
  5
DB0A
  8
WAKU
  6
CONTINUOUS
 10
393.760408
 20
289.207692
 30
0.0
 11
396.452715
 21
289.207692
 31
0.0
  0
LINE
  5
DB0B
  8
WAKU
  6
CONTINUOUS
 10
393.172456
 20
287.592308
 30
0.0
 11
395.864763
 21
287.592308
 31
0.0
  0
LINE
  5
DB0C
  8
WAKU
  6
CONTINUOUS
 10
390.39067
 20
283.5
 30
0.0
 11
395.452208
 21
283.5
 31
0.0
  0
LINE
  5
DB0D
  8
WAKU
  6
CONTINUOUS
 10
395.159221
 20
285.653846
 30
0.0
 11
395.864763
 21
287.592308
 31
0.0
  0
LINE
  5
DB0E
  8
WAKU
  6
CONTINUOUS
 10
367.971276
 20
290.5
 30
0.0
 11
372.249053
 21
290.5
 31
0.0
  0
LINE
  5
DB0F
  8
WAKU
  6
CONTINUOUS
 10
367.971276
 20
286.222222
 30
0.0
 11
372.249053
 21
290.5
 31
0.0
  0
LINE
  5
DB10
  8
WAKU
  6
CONTINUOUS
 10
367.971276
 20
290.5
 30
0.0
 11
367.971276
 21
286.222222
 31
0.0
  0
LINE
  5
DB11
  8
WAKU
  6
CONTINUOUS
 10
381.524851
 20
288.776923
 30
0.0
 11
383.695928
 21
288.776923
 31
0.0
  0
LINE
  5
DB12
  8
WAKU
  6
CONTINUOUS
 10
378.723077
 20
290.5
 30
0.0
 11
384.323077
 21
290.5
 31
0.0
  0
LINE
  5
DB13
  8
WAKU
  6
CONTINUOUS
 10
380.311313
 20
288.776923
 30
0.0
 11
377.155205
 21
286.192308
 31
0.0
  0
LINE
  5
DB14
  8
WAKU
  6
CONTINUOUS
 10
381.524851
 20
288.776923
 30
0.0
 11
382.755205
 21
286.192308
 31
0.0
  0
LINE
  5
DB15
  8
WAKU
  6
CONTINUOUS
 10
376.175285
 20
283.5
 30
0.0
 11
377.155205
 21
286.192308
 31
0.0
  0
LINE
  5
DB16
  8
WAKU
  6
CONTINUOUS
 10
379.397145
 20
286.138462
 30
0.0
 11
376.175285
 21
283.5
 31
0.0
  0
LINE
  5
DB17
  8
WAKU
  6
CONTINUOUS
 10
381.775285
 20
283.5
 30
0.0
 11
382.755205
 21
286.192308
 31
0.0
  0
LINE
  5
DB18
  8
WAKU
  6
CONTINUOUS
 10
380.493667
 20
286.192308
 30
0.0
 11
381.775285
 21
283.5
 31
0.0
  0
LINE
  5
DB19
  8
WAKU
  6
CONTINUOUS
 10
379.513747
 20
283.5
 30
0.0
 11
380.493667
 21
286.192308
 31
0.0
  0
LINE
  5
DB1A
  8
WAKU
  6
CONTINUOUS
 10
378.436824
 20
283.5
 30
0.0
 11
379.513747
 21
283.5
 31
0.0
  0
LINE
  5
DB1B
  8
WAKU
  6
CONTINUOUS
 10
378.436824
 20
283.5
 30
0.0
 11
379.397145
 21
286.138462
 31
0.0
  0
LINE
  5
DB1C
  8
WAKU
  6
CONTINUOUS
 10
378.095928
 20
288.776923
 30
0.0
 11
380.311313
 21
288.776923
 31
0.0
  0
LINE
  5
DB1D
  8
WAKU
  6
CONTINUOUS
 10
378.723077
 20
290.5
 30
0.0
 11
378.095928
 21
288.776923
 31
0.0
  0
LINE
  5
DB1E
  8
WAKU
  6
CONTINUOUS
 10
392.780488
 20
286.515385
 30
0.0
 11
393.172456
 21
287.592308
 31
0.0
  0
LINE
  5
DB1F
  8
WAKU
  6
CONTINUOUS
 10
391.703565
 20
286.515385
 30
0.0
 11
392.095533
 21
287.592308
 31
0.0
  0
LINE
  5
DB20
  8
WAKU
  6
CONTINUOUS
 10
388.452208
 20
283.5
 30
0.0
 11
389.236144
 21
285.653846
 31
0.0
  0
LINE
  5
DB21
  8
WAKU
  6
CONTINUOUS
 10
383.851529
 20
285.653846
 30
0.0
 11
389.236144
 21
285.653846
 31
0.0
  0
LINE
  5
DB22
  8
WAKU
  6
CONTINUOUS
 10
383.067593
 20
283.5
 30
0.0
 11
383.851529
 21
285.653846
 31
0.0
  0
LINE
  5
DB23
  8
WAKU
  6
CONTINUOUS
 10
383.067593
 20
283.5
 30
0.0
 11
388.452208
 21
283.5
 31
0.0
  0
LINE
  5
DB24
  8
WAKU
  6
CONTINUOUS
 10
391.174606
 20
285.653846
 30
0.0
 11
395.159221
 21
285.653846
 31
0.0
  0
LINE
  5
DB25
  8
WAKU
  6
CONTINUOUS
 10
391.703565
 20
286.515385
 30
0.0
 11
392.780488
 21
286.515385
 31
0.0
  0
LINE
  5
DB26
  8
WAKU
  6
CONTINUOUS
 10
390.39067
 20
283.5
 30
0.0
 11
391.174606
 21
285.653846
 31
0.0
  0
LINE
  5
DB27
  8
WAKU
  6
CONTINUOUS
 10
384.988236
 20
288.776923
 30
0.0
 11
390.372851
 21
288.776923
 31
0.0
  0
LINE
  5
DB28
  8
WAKU
  6
CONTINUOUS
 10
385.615385
 20
290.5
 30
0.0
 11
391.0
 21
290.5
 31
0.0
  0
LINE
  5
DB29
  8
WAKU
  6
CONTINUOUS
 10
384.988236
 20
288.776923
 30
0.0
 11
385.615385
 21
290.5
 31
0.0
  0
LINE
  5
DB2A
  8
WAKU
  6
CONTINUOUS
 10
384.323077
 20
290.5
 30
0.0
 11
383.695928
 21
288.776923
 31
0.0
  0
LINE
  5
DB2B
  8
WAKU
  6
CONTINUOUS
 10
393.153846
 20
290.5
 30
0.0
 11
394.230769
 21
290.5
 31
0.0
  0
LINE
  5
DB2C
  8
WAKU
  6
CONTINUOUS
 10
393.760408
 20
289.207692
 30
0.0
 11
394.230769
 21
290.5
 31
0.0
  0
LINE
  5
DB2D
  8
WAKU
  6
CONTINUOUS
 10
391.875792
 20
289.207692
 30
0.0
 11
392.683485
 21
289.207692
 31
0.0
  0
LINE
  5
DB2E
  8
WAKU
  6
CONTINUOUS
 10
391.28784
 20
287.592308
 30
0.0
 11
392.095533
 21
287.592308
 31
0.0
  0
LINE
  5
DB2F
  8
WAKU
  6
CONTINUOUS
 10
391.28784
 20
287.592308
 30
0.0
 11
391.875792
 21
289.207692
 31
0.0
  0
LINE
  5
DB30
  8
WAKU
  6
CONTINUOUS
 10
392.683485
 20
289.207692
 30
0.0
 11
393.153846
 21
290.5
 31
0.0
  0
LINE
  5
DB31
  8
WAKU
  6
CONTINUOUS
 10
390.372851
 20
288.776923
 30
0.0
 11
391.0
 21
290.5
 31
0.0
  0
LINE
  5
DB32
  8
WAKU
  6
CONTINUOUS
 10
405.753055
 20
288.130769
 30
0.0
 11
408.983824
 21
288.130769
 31
0.0
  0
LINE
  5
DB33
  8
WAKU
  6
CONTINUOUS
 10
405.282694
 20
286.838462
 30
0.0
 11
408.513463
 21
286.838462
 31
0.0
  0
LINE
  5
DB34
  8
WAKU
  6
CONTINUOUS
 10
409.452208
 20
283.5
 30
0.0
 11
404.067593
 21
283.5
 31
0.0
  0
LINE
  5
DB35
  8
WAKU
  6
CONTINUOUS
 10
404.851529
 20
285.653846
 30
0.0
 11
409.159221
 21
285.653846
 31
0.0
  0
LINE
  5
DB36
  8
WAKU
  6
CONTINUOUS
 10
405.988236
 20
288.776923
 30
0.0
 11
409.219005
 21
288.776923
 31
0.0
  0
LINE
  5
DB37
  8
WAKU
  6
CONTINUOUS
 10
406.615385
 20
290.5
 30
0.0
 11
409.846154
 21
290.5
 31
0.0
  0
LINE
  5
DB38
  8
WAKU
  6
CONTINUOUS
 10
398.781958
 20
286.730769
 30
0.0
 11
399.565894
 21
288.884615
 31
0.0
  0
LINE
  5
DB39
  8
WAKU
  6
CONTINUOUS
 10
400.181958
 20
286.730769
 30
0.0
 11
400.965894
 21
288.884615
 31
0.0
  0
LINE
  5
DB3A
  8
WAKU
  6
CONTINUOUS
 10
399.858881
 20
286.730769
 30
0.0
 11
400.642817
 21
288.884615
 31
0.0
  0
LINE
  5
DB3B
  8
WAKU
  6
CONTINUOUS
 10
401.258881
 20
286.730769
 30
0.0
 11
402.042817
 21
288.884615
 31
0.0
  0
LINE
  5
DB3C
  8
WAKU
  6
CONTINUOUS
 10
401.913747
 20
283.5
 30
0.0
 11
403.873587
 21
288.884615
 31
0.0
  0
LINE
  5
DB3D
  8
WAKU
  6
CONTINUOUS
 10
401.424776
 20
285.115385
 30
0.0
 11
402.796663
 21
288.884615
 31
0.0
  0
LINE
  5
DB3E
  8
WAKU
  6
CONTINUOUS
 10
395.452208
 20
283.5
 30
0.0
 11
396.941687
 21
287.592308
 31
0.0
  0
LINE
  5
DB3F
  8
WAKU
  6
CONTINUOUS
 10
397.606055
 20
283.5
 30
0.0
 11
401.913747
 21
283.5
 31
0.0
  0
LINE
  5
DB40
  8
WAKU
  6
CONTINUOUS
 10
398.781958
 20
286.730769
 30
0.0
 11
399.858881
 21
286.730769
 31
0.0
  0
LINE
  5
DB41
  8
WAKU
  6
CONTINUOUS
 10
398.194006
 20
285.115385
 30
0.0
 11
401.424776
 21
285.115385
 31
0.0
  0
LINE
  5
DB42
  8
WAKU
  6
CONTINUOUS
 10
397.606055
 20
283.5
 30
0.0
 11
398.194006
 21
285.115385
 31
0.0
  0
LINE
  5
DB43
  8
WAKU
  6
CONTINUOUS
 10
400.181958
 20
286.730769
 30
0.0
 11
401.258881
 21
286.730769
 31
0.0
  0
LINE
  5
DB44
  8
WAKU
  6
CONTINUOUS
 10
404.067593
 20
283.5
 30
0.0
 11
404.851529
 21
285.653846
 31
0.0
  0
LINE
  5
DB45
  8
WAKU
  6
CONTINUOUS
 10
400.965894
 20
288.884615
 30
0.0
 11
402.042817
 21
288.884615
 31
0.0
  0
LINE
  5
DB46
  8
WAKU
  6
CONTINUOUS
 10
396.923077
 20
290.5
 30
0.0
 11
398.0
 21
290.5
 31
0.0
  0
LINE
  5
DB47
  8
WAKU
  6
CONTINUOUS
 10
397.529638
 20
289.207692
 30
0.0
 11
398.0
 21
290.5
 31
0.0
  0
LINE
  5
DB48
  8
WAKU
  6
CONTINUOUS
 10
397.529638
 20
289.207692
 30
0.0
 11
398.337331
 21
289.207692
 31
0.0
  0
LINE
  5
DB49
  8
WAKU
  6
CONTINUOUS
 10
396.941687
 20
287.592308
 30
0.0
 11
397.749379
 21
287.592308
 31
0.0
  0
LINE
  5
DB4A
  8
WAKU
  6
CONTINUOUS
 10
397.749379
 20
287.592308
 30
0.0
 11
398.337331
 21
289.207692
 31
0.0
  0
LINE
  5
DB4B
  8
WAKU
  6
CONTINUOUS
 10
399.565894
 20
288.884615
 30
0.0
 11
400.642817
 21
288.884615
 31
0.0
  0
LINE
  5
DB4C
  8
WAKU
  6
CONTINUOUS
 10
396.452715
 20
289.207692
 30
0.0
 11
396.923077
 21
290.5
 31
0.0
  0
LINE
  5
DB4D
  8
WAKU
  6
CONTINUOUS
 10
406.615385
 20
290.5
 30
0.0
 11
405.988236
 21
288.776923
 31
0.0
  0
LINE
  5
DB4E
  8
WAKU
  6
CONTINUOUS
 10
405.753055
 20
288.130769
 30
0.0
 11
405.282694
 21
286.838462
 31
0.0
  0
LINE
  5
DB4F
  8
WAKU
  6
CONTINUOUS
 10
402.796663
 20
288.884615
 30
0.0
 11
403.873587
 21
288.884615
 31
0.0
  0
LINE
  5
DB50
  8
WAKU
  6
CONTINUOUS
 10
409.159221
 20
285.653846
 30
0.0
 11
410.923077
 21
290.5
 31
0.0
  0
LINE
  5
DB51
  8
WAKU
  6
CONTINUOUS
 10
409.452208
 20
283.5
 30
0.0
 11
412.0
 21
290.5
 31
0.0
  0
LINE
  5
DB52
  8
WAKU
  6
CONTINUOUS
 10
409.219005
 20
288.776923
 30
0.0
 11
409.846154
 21
290.5
 31
0.0
  0
LINE
  5
DB53
  8
WAKU
  6
CONTINUOUS
 10
410.923077
 20
290.5
 30
0.0
 11
412.0
 21
290.5
 31
0.0
  0
LINE
  5
DB54
  8
WAKU
  6
CONTINUOUS
 10
408.513463
 20
286.838462
 30
0.0
 11
408.983824
 21
288.130769
 31
0.0
  0
LINE
  5
DB55
  8
WAKU
  6
CONTINUOUS
 10
369.828646
 20
284.107791
 30
0.0
 11
369.966824
 21
283.829526
 31
0.0
  0
LINE
  5
DB56
  8
WAKU
  6
CONTINUOUS
 10
369.966824
 20
283.829526
 30
0.0
 11
370.193309
 21
283.634664
 31
0.0
  0
LINE
  5
DB57
  8
WAKU
  6
CONTINUOUS
 10
370.193309
 20
283.634664
 30
0.0
 11
370.499782
 21
283.530361
 31
0.0
  0
LINE
  5
DB58
  8
WAKU
  6
CONTINUOUS
 10
370.499782
 20
283.530361
 30
0.0
 11
370.874987
 21
283.520449
 31
0.0
  0
LINE
  5
DB59
  8
WAKU
  6
CONTINUOUS
 10
370.874987
 20
283.520449
 30
0.0
 11
371.305142
 21
283.605291
 31
0.0
  0
LINE
  5
DB5A
  8
WAKU
  6
CONTINUOUS
 10
371.305142
 20
283.605291
 30
0.0
 11
371.774448
 21
283.781773
 31
0.0
  0
LINE
  5
DB5B
  8
WAKU
  6
CONTINUOUS
 10
371.774448
 20
283.781773
 30
0.0
 11
372.265666
 21
284.043411
 31
0.0
  0
LINE
  5
DB5C
  8
WAKU
  6
CONTINUOUS
 10
372.265666
 20
284.043411
 30
0.0
 11
372.760756
 21
284.380595
 31
0.0
  0
LINE
  5
DB5D
  8
WAKU
  6
CONTINUOUS
 10
372.760756
 20
284.380595
 30
0.0
 11
373.241532
 21
284.780941
 31
0.0
  0
LINE
  5
DB5E
  8
WAKU
  6
CONTINUOUS
 10
373.241532
 20
284.780941
 30
0.0
 11
373.690335
 21
285.229744
 31
0.0
  0
LINE
  5
DB5F
  8
WAKU
  6
CONTINUOUS
 10
373.690335
 20
285.229744
 30
0.0
 11
374.090681
 21
285.71052
 31
0.0
  0
LINE
  5
DB60
  8
WAKU
  6
CONTINUOUS
 10
374.090681
 20
285.71052
 30
0.0
 11
374.427865
 21
286.205609
 31
0.0
  0
LINE
  5
DB61
  8
WAKU
  6
CONTINUOUS
 10
374.427865
 20
286.205609
 30
0.0
 11
374.689503
 21
286.696828
 31
0.0
  0
LINE
  5
DB62
  8
WAKU
  6
CONTINUOUS
 10
374.689503
 20
286.696828
 30
0.0
 11
374.865984
 21
287.166134
 31
0.0
  0
LINE
  5
DB63
  8
WAKU
  6
CONTINUOUS
 10
374.865984
 20
287.166134
 30
0.0
 11
374.950827
 21
287.596289
 31
0.0
  0
LINE
  5
DB64
  8
WAKU
  6
CONTINUOUS
 10
374.950827
 20
287.596289
 30
0.0
 11
374.940915
 21
287.971493
 31
0.0
  0
LINE
  5
DB65
  8
WAKU
  6
CONTINUOUS
 10
374.940915
 20
287.971493
 30
0.0
 11
374.836612
 21
288.277967
 31
0.0
  0
LINE
  5
DB66
  8
WAKU
  6
CONTINUOUS
 10
374.836612
 20
288.277967
 30
0.0
 11
374.641749
 21
288.504452
 31
0.0
  0
LINE
  5
DB67
  8
WAKU
  6
CONTINUOUS
 10
374.641749
 20
288.504452
 30
0.0
 11
374.363484
 21
288.64263
 31
0.0
  0
LINE
  5
DB68
  8
WAKU
  6
CONTINUOUS
 10
373.916941
 20
288.683944
 30
0.0
 11
373.482636
 21
288.608014
 31
0.0
  0
LINE
  5
DB69
  8
WAKU
  6
CONTINUOUS
 10
373.482636
 20
288.608014
 30
0.0
 11
373.005639
 21
288.435768
 31
0.0
  0
LINE
  5
DB6A
  8
WAKU
  6
CONTINUOUS
 10
373.005639
 20
288.435768
 30
0.0
 11
372.504269
 21
288.173821
 31
0.0
  0
LINE
  5
DB6B
  8
WAKU
  6
CONTINUOUS
 10
372.504269
 20
288.173821
 30
0.0
 11
371.997783
 21
287.832235
 31
0.0
  0
LINE
  5
DB6C
  8
WAKU
  6
CONTINUOUS
 10
371.997783
 20
287.832235
 30
0.0
 11
371.505632
 21
287.424128
 31
0.0
  0
LINE
  5
DB6D
  8
WAKU
  6
CONTINUOUS
 10
371.505632
 20
287.424128
 30
0.0
 11
371.04672
 21
286.965174
 31
0.0
  0
LINE
  5
DB6E
  8
WAKU
  6
CONTINUOUS
 10
371.04672
 20
286.965174
 30
0.0
 11
370.638671
 21
286.473
 31
0.0
  0
LINE
  5
DB6F
  8
WAKU
  6
CONTINUOUS
 10
370.638671
 20
286.473
 30
0.0
 11
370.297156
 21
285.966509
 31
0.0
  0
LINE
  5
DB70
  8
WAKU
  6
CONTINUOUS
 10
370.297156
 20
285.966509
 30
0.0
 11
370.035293
 21
285.465154
 31
0.0
  0
LINE
  5
DB71
  8
WAKU
  6
CONTINUOUS
 10
370.035293
 20
285.465154
 30
0.0
 11
369.863139
 21
284.988189
 31
0.0
  0
LINE
  5
DB72
  8
WAKU
  6
CONTINUOUS
 10
369.863139
 20
284.988189
 30
0.0
 11
369.787305
 21
284.553935
 31
0.0
  0
LINE
  5
DB73
  8
WAKU
  6
CONTINUOUS
 10
370.172911
 20
284.451856
 30
0.0
 11
370.681395
 21
284.539195
 31
0.0
  0
LINE
  5
DB74
  8
WAKU
  6
CONTINUOUS
 10
370.681395
 20
284.539195
 30
0.0
 11
371.312263
 21
284.810332
 31
0.0
  0
LINE
  5
DB75
  8
WAKU
  6
CONTINUOUS
 10
371.312263
 20
284.810332
 30
0.0
 11
371.98994
 21
285.251431
 31
0.0
  0
LINE
  5
DB76
  8
WAKU
  6
CONTINUOUS
 10
371.98994
 20
285.251431
 30
0.0
 11
372.646296
 21
285.825506
 31
0.0
  0
LINE
  5
DB77
  8
WAKU
  6
CONTINUOUS
 10
372.646296
 20
285.825506
 30
0.0
 11
373.220238
 21
286.48192
 31
0.0
  0
LINE
  5
DB78
  8
WAKU
  6
CONTINUOUS
 10
373.220238
 20
286.48192
 30
0.0
 11
373.661353
 21
287.159534
 31
0.0
  0
LINE
  5
DB79
  8
WAKU
  6
CONTINUOUS
 10
373.661353
 20
287.159534
 30
0.0
 11
373.932071
 21
287.790402
 31
0.0
  0
LINE
  5
DB7A
  8
WAKU
  6
CONTINUOUS
 10
373.932071
 20
287.790402
 30
0.0
 11
374.019229
 21
288.298569
 31
0.0
  0
LINE
  5
DB7B
  8
WAKU
  6
CONTINUOUS
 10
373.916941
 20
288.683944
 30
0.0
 11
373.799148
 21
288.781929
 31
0.0
  0
LINE
  5
DB7C
  8
WAKU
  6
CONTINUOUS
 10
373.799148
 20
288.781929
 30
0.0
 11
373.597996
 21
288.840902
 31
0.0
  0
LINE
  5
DB7D
  8
WAKU
  6
CONTINUOUS
 10
373.597996
 20
288.840902
 30
0.0
 11
373.290857
 21
288.835581
 31
0.0
  0
LINE
  5
DB7E
  8
WAKU
  6
CONTINUOUS
 10
373.290857
 20
288.835581
 30
0.0
 11
372.89514
 21
288.740065
 31
0.0
  0
LINE
  5
DB7F
  8
WAKU
  6
CONTINUOUS
 10
372.89514
 20
288.740065
 30
0.0
 11
372.440235
 21
288.547585
 31
0.0
  0
LINE
  5
DB80
  8
WAKU
  6
CONTINUOUS
 10
372.440235
 20
288.547585
 30
0.0
 11
371.954587
 21
288.264284
 31
0.0
  0
LINE
  5
DB81
  8
WAKU
  6
CONTINUOUS
 10
371.954587
 20
288.264284
 30
0.0
 11
370.996098
 21
287.475108
 31
0.0
  0
LINE
  5
DB82
  8
WAKU
  6
CONTINUOUS
 10
370.996098
 20
287.475108
 30
0.0
 11
370.207035
 21
286.51657
 31
0.0
  0
LINE
  5
DB83
  8
WAKU
  6
CONTINUOUS
 10
370.207035
 20
286.51657
 30
0.0
 11
369.923519
 21
286.031028
 31
0.0
  0
LINE
  5
DB84
  8
WAKU
  6
CONTINUOUS
 10
369.923519
 20
286.031028
 30
0.0
 11
369.73149
 21
285.576021
 31
0.0
  0
LINE
  5
DB85
  8
WAKU
  6
CONTINUOUS
 10
369.73149
 20
285.576021
 30
0.0
 11
369.635696
 21
285.180404
 31
0.0
  0
LINE
  5
DB86
  8
WAKU
  6
CONTINUOUS
 10
369.635696
 20
285.180404
 30
0.0
 11
369.630358
 21
284.873087
 31
0.0
  0
LINE
  5
DB87
  8
WAKU
  6
CONTINUOUS
 10
369.630358
 20
284.873087
 30
0.0
 11
369.689155
 21
284.672435
 31
0.0
  0
LINE
  5
DB88
  8
WAKU
  6
CONTINUOUS
 10
369.689155
 20
284.672435
 30
0.0
 11
369.787305
 21
284.553935
 31
0.0
  0
LINE
  5
DB89
  8
WAKU
  6
CONTINUOUS
 10
370.275177
 20
284.066476
 30
0.0
 11
370.392927
 21
283.968568
 31
0.0
  0
LINE
  5
DB8A
  8
WAKU
  6
CONTINUOUS
 10
370.392927
 20
283.968568
 30
0.0
 11
370.594177
 21
283.909498
 31
0.0
  0
LINE
  5
DB8B
  8
WAKU
  6
CONTINUOUS
 10
370.594177
 20
283.909498
 30
0.0
 11
370.901294
 21
283.914863
 31
0.0
  0
LINE
  5
DB8C
  8
WAKU
  6
CONTINUOUS
 10
370.901294
 20
283.914863
 30
0.0
 11
371.296984
 21
284.010368
 31
0.0
  0
LINE
  5
DB8D
  8
WAKU
  6
CONTINUOUS
 10
371.296984
 20
284.010368
 30
0.0
 11
371.751882
 21
284.202798
 31
0.0
  0
LINE
  5
DB8E
  8
WAKU
  6
CONTINUOUS
 10
371.751882
 20
284.202798
 30
0.0
 11
372.237497
 21
284.486117
 31
0.0
  0
LINE
  5
DB8F
  8
WAKU
  6
CONTINUOUS
 10
372.237497
 20
284.486117
 30
0.0
 11
373.195965
 21
285.275232
 31
0.0
  0
LINE
  5
DB90
  8
WAKU
  6
CONTINUOUS
 10
373.195965
 20
285.275232
 30
0.0
 11
373.98505
 21
286.233718
 31
0.0
  0
LINE
  5
DB91
  8
WAKU
  6
CONTINUOUS
 10
373.98505
 20
286.233718
 30
0.0
 11
374.268507
 21
286.719278
 31
0.0
  0
LINE
  5
DB92
  8
WAKU
  6
CONTINUOUS
 10
374.268507
 20
286.719278
 30
0.0
 11
374.46071
 21
287.174248
 31
0.0
  0
LINE
  5
DB93
  8
WAKU
  6
CONTINUOUS
 10
374.46071
 20
287.174248
 30
0.0
 11
374.556361
 21
287.569864
 31
0.0
  0
LINE
  5
DB94
  8
WAKU
  6
CONTINUOUS
 10
374.556361
 20
287.569864
 30
0.0
 11
374.561802
 21
287.877253
 31
0.0
  0
LINE
  5
DB95
  8
WAKU
  6
CONTINUOUS
 10
374.561802
 20
287.877253
 30
0.0
 11
374.502951
 21
288.077918
 31
0.0
  0
LINE
  5
DB96
  8
WAKU
  6
CONTINUOUS
 10
374.502951
 20
288.077918
 30
0.0
 11
374.40481
 21
288.196249
 31
0.0
  0
LINE
  5
DB97
  8
WAKU
  6
CONTINUOUS
 10
374.019229
 20
288.298569
 30
0.0
 11
373.510738
 21
288.21124
 31
0.0
  0
LINE
  5
DB98
  8
WAKU
  6
CONTINUOUS
 10
373.510738
 20
288.21124
 30
0.0
 11
372.879878
 21
287.940057
 31
0.0
  0
LINE
  5
DB99
  8
WAKU
  6
CONTINUOUS
 10
372.879878
 20
287.940057
 30
0.0
 11
372.202181
 21
287.498991
 31
0.0
  0
LINE
  5
DB9A
  8
WAKU
  6
CONTINUOUS
 10
372.202181
 20
287.498991
 30
0.0
 11
371.545827
 21
286.924893
 31
0.0
  0
LINE
  5
DB9B
  8
WAKU
  6
CONTINUOUS
 10
371.545827
 20
286.924893
 30
0.0
 11
370.971896
 21
286.268471
 31
0.0
  0
LINE
  5
DB9C
  8
WAKU
  6
CONTINUOUS
 10
370.971896
 20
286.268471
 30
0.0
 11
370.530712
 21
285.590875
 31
0.0
  0
LINE
  5
DB9D
  8
WAKU
  6
CONTINUOUS
 10
370.530712
 20
285.590875
 30
0.0
 11
370.260168
 21
284.959969
 31
0.0
  0
LINE
  5
DB9E
  8
WAKU
  6
CONTINUOUS
 10
370.260168
 20
284.959969
 30
0.0
 11
370.172911
 21
284.451856
 31
0.0
  0
LINE
  5
DB9F
  8
WAKU
  6
CONTINUOUS
 10
370.275177
 20
284.066476
 30
0.0
 11
370.709458
 21
284.142397
 31
0.0
  0
LINE
  5
DBA0
  8
WAKU
  6
CONTINUOUS
 10
370.709458
 20
284.142397
 30
0.0
 11
371.186428
 21
284.314625
 31
0.0
  0
LINE
  5
DBA1
  8
WAKU
  6
CONTINUOUS
 10
371.186428
 20
284.314625
 30
0.0
 11
371.68777
 21
284.576545
 31
0.0
  0
LINE
  5
DBA2
  8
WAKU
  6
CONTINUOUS
 10
371.68777
 20
284.576545
 30
0.0
 11
372.194232
 21
284.918099
 31
0.0
  0
LINE
  5
DBA3
  8
WAKU
  6
CONTINUOUS
 10
372.194232
 20
284.918099
 30
0.0
 11
372.686363
 21
285.326171
 31
0.0
  0
LINE
  5
DBA4
  8
WAKU
  6
CONTINUOUS
 10
372.686363
 20
285.326171
 30
0.0
 11
373.145266
 21
285.785089
 31
0.0
  0
LINE
  5
DBA5
  8
WAKU
  6
CONTINUOUS
 10
373.145266
 20
285.785089
 30
0.0
 11
373.553316
 21
286.277229
 31
0.0
  0
LINE
  5
DBA6
  8
WAKU
  6
CONTINUOUS
 10
373.553316
 20
286.277229
 30
0.0
 11
373.894843
 21
286.783693
 31
0.0
  0
LINE
  5
DBA7
  8
WAKU
  6
CONTINUOUS
 10
373.894843
 20
286.783693
 30
0.0
 11
374.156732
 21
287.28503
 31
0.0
  0
LINE
  5
DBA8
  8
WAKU
  6
CONTINUOUS
 10
374.156732
 20
287.28503
 30
0.0
 11
374.328925
 21
287.761987
 31
0.0
  0
LINE
  5
DBA9
  8
WAKU
  6
CONTINUOUS
 10
374.328925
 20
287.761987
 30
0.0
 11
374.40481
 21
288.196249
 31
0.0
  0
LINE
  5
DBAA
  8
WAKU
  6
CONTINUOUS
 10
374.363484
 20
288.64263
 30
0.0
 11
374.225306
 21
288.920895
 31
0.0
  0
LINE
  5
DBAB
  8
WAKU
  6
CONTINUOUS
 10
374.225306
 20
288.920895
 30
0.0
 11
373.998821
 21
289.115757
 31
0.0
  0
LINE
  5
DBAC
  8
WAKU
  6
CONTINUOUS
 10
373.998821
 20
289.115757
 30
0.0
 11
373.692348
 21
289.22006
 31
0.0
  0
LINE
  5
DBAD
  8
WAKU
  6
CONTINUOUS
 10
373.692348
 20
289.22006
 30
0.0
 11
373.317143
 21
289.229972
 31
0.0
  0
LINE
  5
DBAE
  8
WAKU
  6
CONTINUOUS
 10
373.317143
 20
289.229972
 30
0.0
 11
372.886988
 21
289.145129
 31
0.0
  0
LINE
  5
DBAF
  8
WAKU
  6
CONTINUOUS
 10
372.886988
 20
289.145129
 30
0.0
 11
372.417683
 21
288.968648
 31
0.0
  0
LINE
  5
DBB0
  8
WAKU
  6
CONTINUOUS
 10
372.417683
 20
288.968648
 30
0.0
 11
371.926464
 21
288.70701
 31
0.0
  0
LINE
  5
DBB1
  8
WAKU
  6
CONTINUOUS
 10
371.926464
 20
288.70701
 30
0.0
 11
371.431374
 21
288.369826
 31
0.0
  0
LINE
  5
DBB2
  8
WAKU
  6
CONTINUOUS
 10
371.431374
 20
288.369826
 30
0.0
 11
370.950599
 21
287.96948
 31
0.0
  0
LINE
  5
DBB3
  8
WAKU
  6
CONTINUOUS
 10
370.950599
 20
287.96948
 30
0.0
 11
370.501795
 21
287.520677
 31
0.0
  0
LINE
  5
DBB4
  8
WAKU
  6
CONTINUOUS
 10
370.501795
 20
287.520677
 30
0.0
 11
370.101449
 21
287.039901
 31
0.0
  0
LINE
  5
DBB5
  8
WAKU
  6
CONTINUOUS
 10
370.101449
 20
287.039901
 30
0.0
 11
369.764265
 21
286.544812
 31
0.0
  0
LINE
  5
DBB6
  8
WAKU
  6
CONTINUOUS
 10
369.764265
 20
286.544812
 30
0.0
 11
369.502627
 21
286.053593
 31
0.0
  0
LINE
  5
DBB7
  8
WAKU
  6
CONTINUOUS
 10
369.502627
 20
286.053593
 30
0.0
 11
369.326146
 21
285.584287
 31
0.0
  0
LINE
  5
DBB8
  8
WAKU
  6
CONTINUOUS
 10
369.326146
 20
285.584287
 30
0.0
 11
369.241303
 21
285.154132
 31
0.0
  0
LINE
  5
DBB9
  8
WAKU
  6
CONTINUOUS
 10
369.241303
 20
285.154132
 30
0.0
 11
369.251215
 21
284.778928
 31
0.0
  0
LINE
  5
DBBA
  8
WAKU
  6
CONTINUOUS
 10
369.251215
 20
284.778928
 30
0.0
 11
369.355518
 21
284.472454
 31
0.0
  0
LINE
  5
DBBB
  8
WAKU
  6
CONTINUOUS
 10
369.355518
 20
284.472454
 30
0.0
 11
369.550381
 21
284.245969
 31
0.0
  0
LINE
  5
DBBC
  8
WAKU
  6
CONTINUOUS
 10
369.550381
 20
284.245969
 30
0.0
 11
369.828646
 21
284.107791
 31
0.0
  0
INSERT
  5
DBBD
  8
WAKU
  6
CONTINUOUS
  2
*U0
 10
0.0
 20
0.0
 30
0.0
  0
TEXT
  5
10375
  8
WAKU
 10
10.0
 20
285.5
 30
0.0
 40
3.0
  1
FNS-70AT
 41
0.868
 11
10.0
 21
287.0
 31
0.0
 73
     2
  0
TEXT
  5
185DB
  8
WAKU
 10
35.0
 20
284.5
 30
0.0
 40
5.0
  1
外動片引き断面詳細図(HBﾀｲプ)　防火戸　非防火戸
 11
35.0
 21
287.0
 31
0.0
 73
     2
  0
LINE
  5
18899
  8
SUNPO
  6
CONTINUOUS
 10
400.5
 20
84.5
 30
0.0
 11
400.5
 21
28.0
 31
0.0
  0
LINE
  5
199E1
  8
DANMEN
  6
CONTINUOUS
 10
188.449997
 20
147.05
 30
0.0
 11
200.550003
 21
147.05
 31
0.0
  0
ARC
  5
199E2
  8
DANMEN
  6
CONTINUOUS
 10
201.038889
 20
125.5
 30
0.0
 40
0.5
 50
175.710803
 51
270.0
  0
ARC
  5
199E3
  8
DANMEN
  6
CONTINUOUS
 10
201.0
 20
162.5
 30
0.0
 40
0.5
 50
89.999982
 51
180.000019
  0
LINE
  5
199E4
  8
DANMEN
  6
CONTINUOUS
 10
188.449997
 20
130.949997
 30
0.0
 11
200.550003
 21
130.949997
 31
0.0
  0
LINE
  5
199E5
  8
DANMEN
  6
CONTINUOUS
 10
188.199982
 20
129.0
 30
0.0
 11
200.799988
 21
129.0
 31
0.0
  0
LINE
  5
199E6
  8
DANMEN
  6
CONTINUOUS
 10
183.5
 20
122.0
 30
0.0
 11
238.75
 21
122.0
 31
0.0
  0
LINE
  5
199E7
  8
DANMEN
  6
CONTINUOUS
 10
170.5
 20
90.0
 30
0.0
 11
238.75
 21
90.0
 31
0.0
  0
LINE
  5
199E8
  8
DANMEN
  6
CONTINUOUS
 10
183.5
 20
86.0
 30
0.0
 11
238.75
 21
86.0
 31
0.0
  0
LINE
  5
199E9
  8
DANMEN
  6
CONTINUOUS
 10
172.01044
 20
128.502283
 30
0.0
 11
174.770495
 21
122.0
 31
0.0
  0
LINE
  5
199EA
  8
DANMEN
  6
CONTINUOUS
 10
183.500004
 20
123.744506
 30
0.0
 11
183.500004
 21
122.0
 31
0.0
  0
LINE
  5
199EB
  8
DANMEN
  6
CONTINUOUS
 10
79.5
 20
132.500003
 30
0.0
 11
79.5
 21
91.5
 31
0.0
  0
LINE
  5
199EC
  8
DANMEN
  6
CONTINUOUS
 10
115.3
 20
132.500003
 30
0.0
 11
115.3
 21
112.500003
 31
0.0
  0
LINE
  5
199ED
  8
DANMEN
  6
CONTINUOUS
 10
113.65
 20
131.350003
 30
0.0
 11
113.65
 21
113.000003
 31
0.0
  0
LINE
  5
199EE
  8
DANMEN
  6
CONTINUOUS
 10
81.15
 20
128.000003
 30
0.0
 11
81.15
 21
111.000003
 31
0.0
  0
ARC
  5
199EF
  8
DANMEN
  6
CONTINUOUS
 10
102.5
 20
122.500003
 30
0.0
 40
0.5
 50
180.0
 51
270.0
  0
ARC
  5
199F0
  8
DANMEN
  6
CONTINUOUS
 10
103.0
 20
122.500003
 30
0.0
 40
0.5
 50
270.0
 51
0.0
  0
LINE
  5
199F1
  8
DANMEN
  6
CONTINUOUS
 10
37.649994
 20
136.0
 30
0.0
 11
37.649994
 21
109.949997
 31
0.0
  0
LINE
  5
199F2
  8
DANMEN
  6
CONTINUOUS
 10
67.350006
 20
141.050003
 30
0.0
 11
67.350006
 21
110.0
 31
0.0
  0
LINE
  5
199F3
  8
DANMEN
  6
CONTINUOUS
 10
69.300003
 20
164.5
 30
0.0
 11
69.300003
 21
80.0
 31
0.0
  0
LINE
  5
199F4
  8
DANMEN
  6
CONTINUOUS
 10
35.699997
 20
164.5
 30
0.0
 11
35.699997
 21
109.5
 31
0.0
  0
LINE
  5
199F5
  8
DANMEN
  6
CONTINUOUS
 10
170.5
 20
134.5
 30
0.0
 11
170.5
 21
119.6
 31
0.0
  0
LINE
  5
199F6
  8
DANMEN
  6
CONTINUOUS
 10
168.850006
 20
154.350006
 30
0.0
 11
168.850006
 21
87.649994
 31
0.0
  0
LINE
  5
199F7
  8
DANMEN
  6
CONTINUOUS
 10
71.5
 20
169.0
 30
0.0
 11
71.5
 21
79.5
 31
0.0
  0
LINE
  5
199F8
  8
DANMEN
  6
CONTINUOUS
 10
33.5
 20
169.0
 30
0.0
 11
33.5
 21
109.5
 31
0.0
  0
LINE
  5
199F9
  8
DANMEN
  6
CONTINUOUS
 10
117.5
 20
169.0
 30
0.0
 11
117.5
 21
112.500003
 31
0.0
  0
LINE
  5
199FA
  8
DANMEN
  6
CONTINUOUS
 10
74.0
 20
169.0
 30
0.0
 11
74.0
 21
91.0
 31
0.0
  0
LINE
  5
199FB
  8
DANMEN
  6
DASHED
 10
77.0
 20
169.0
 30
0.0
 11
77.0
 21
91.0
 31
0.0
  0
LINE
  5
199FC
  8
DANMEN
  6
CONTINUOUS
 10
95.525
 20
169.0
 30
0.0
 11
95.525
 21
121.000001
 31
0.0
  0
LINE
  5
199FD
  8
DANMEN
  6
CONTINUOUS
 10
88.525
 20
169.0
 30
0.0
 11
88.525
 21
121.000001
 31
0.0
  0
LINE
  5
199FE
  8
DANMEN
  6
CONTINUOUS
 10
88.025
 20
169.0
 30
0.0
 11
88.025
 21
121.000001
 31
0.0
  0
LINE
  5
199FF
  8
DANMEN
  6
CONTINUOUS
 10
96.025
 20
169.0
 30
0.0
 11
96.025
 21
121.000001
 31
0.0
  0
LINE
  5
19A00
  8
DANMEN
  6
CONTINUOUS
 10
93.05285
 20
55.664289
 30
0.0
 11
67.443326
 21
44.392373
 31
0.0
  0
LINE
  5
19A01
  8
DANMEN
  6
CONTINUOUS
 10
92.0
 20
57.003636
 30
0.0
 11
67.0
 21
46.0
 31
0.0
  0
LINE
  5
19A03
  8
DANMEN
  6
CONTINUOUS
 10
69.550003
 20
68.000004
 30
0.0
 11
67.350006
 21
68.000003
 31
0.0
  0
LINE
  5
19A04
  8
DANMEN
  6
CONTINUOUS
 10
68.350006
 20
78.050003
 30
0.0
 11
69.550003
 21
78.050003
 31
0.0
  0
LINE
  5
19A05
  8
DANMEN
  6
CONTINUOUS
 10
63.5
 20
51.0
 30
0.0
 11
71.5
 21
51.0
 31
0.0
  0
LINE
  5
19A06
  8
DANMEN
  6
CONTINUOUS
 10
54.0
 20
31.0
 30
0.0
 11
110.5
 21
31.0
 31
0.0
  0
LINE
  5
19A07
  8
DANMEN
  6
CONTINUOUS
 10
52.5
 20
31.0
 30
0.0
 11
52.5
 21
22.5
 31
0.0
  0
LINE
  5
19A08
  8
DANMEN
  6
CONTINUOUS
 10
54.0
 20
31.649994
 30
0.0
 11
54.0
 21
22.5
 31
0.0
  0
ARC
  5
19A09
  8
DANMEN
  6
CONTINUOUS
 10
53.0
 20
22.5
 30
0.0
 40
0.5
 50
180.000019
 51
270.000001
  0
LINE
  5
19A0D
  8
DANMEN
  6
CONTINUOUS
 10
53.0
 20
22.0
 30
0.0
 11
53.5
 21
22.0
 31
0.0
  0
ARC
  5
19A0F
  8
DANMEN
  6
CONTINUOUS
 10
53.5
 20
22.5
 30
0.0
 40
0.5
 50
270.000018
 51
0.0
  0
LINE
  5
19A10
  8
DANMEN
  6
CONTINUOUS
 10
61.5
 20
55.0
 30
0.0
 11
61.5
 21
100.000008
 31
0.0
  0
LINE
  5
19A11
  8
DANMEN
  6
CONTINUOUS
 10
57.5
 20
55.0
 30
0.0
 11
57.5
 21
100.000008
 31
0.0
  0
LINE
  5
19A12
  8
DANMEN
  6
CONTINUOUS
 10
55.299999
 20
100.000008
 30
0.0
 11
55.299999
 21
55.0
 31
0.0
  0
LINE
  5
19A13
  8
DANMEN
  6
CONTINUOUS
 10
63.700001
 20
100.000008
 30
0.0
 11
63.700001
 21
55.0
 31
0.0
  0
LINE
  5
19A14
  8
DANMEN
  6
CONTINUOUS
 10
55.100002
 20
68.500004
 30
0.0
 11
55.100002
 21
86.500004
 31
0.0
  0
LINE
  5
19A15
  8
DANMEN
  6
CONTINUOUS
 10
63.899998
 20
86.500004
 30
0.0
 11
63.899998
 21
68.500004
 31
0.0
  0
LINE
  5
19A16
  8
DANMEN
  6
CONTINUOUS
 10
47.511315
 20
50.945203
 30
0.0
 11
47.5
 21
108.0
 31
0.0
  0
LINE
  5
19A17
  8
DANMEN
  6
CONTINUOUS
 10
46.001954
 20
108.0
 30
0.0
 11
46.464828
 21
50.464565
 31
0.0
  0
LINE
  5
19A18
  8
DANMEN
  6
CONTINUOUS
 10
47.211313
 20
50.958301
 30
0.0
 11
47.199999
 21
108.006521
 31
0.0
  0
LINE
  5
19A19
  8
DANMEN
  6
CONTINUOUS
 10
49.699997
 20
108.0
 30
0.0
 11
49.699997
 21
51.5
 31
0.0
  0
LINE
  5
19A1A
  8
DANMEN
  6
CONTINUOUS
 10
51.649994
 20
103.0
 30
0.0
 11
51.649994
 21
67.0
 31
0.0
  0
LINE
  5
19A1B
  8
DANMEN
  6
CONTINUOUS
 10
42.149994
 20
108.0
 30
0.0
 11
42.149994
 21
33.0
 31
0.0
  0
LINE
  5
19A1C
  8
DANMEN
  6
CONTINUOUS
 10
40.5
 20
108.0
 30
0.0
 11
40.5
 21
34.641644
 31
0.0
  0
ARC
  5
19A1D
  8
DANMEN
  6
CONTINUOUS
 10
50.096175
 20
52.834251
 30
0.0
 40
0.5
 50
357.5
 51
177.5
  0
LINE
  5
19A1E
  8
DANMEN
  6
CONTINUOUS
 10
61.0
 20
57.29129
 30
0.0
 11
61.0
 21
46.0
 31
0.0
  0
LINE
  5
19A1F
  8
DANMEN
  6
CONTINUOUS
 10
59.350006
 20
53.847046
 30
0.0
 11
59.350006
 21
46.0
 31
0.0
  0
LINE
  5
19A20
  8
DANMEN
  6
CONTINUOUS
 10
51.649994
 20
65.999999
 30
0.0
 11
51.649994
 21
51.5
 31
0.0
  0
LINE
  5
19A21
  8
DANMEN
  6
CONTINUOUS
 10
63.5
 20
57.0
 30
0.0
 11
63.5
 21
51.0
 31
0.0
  0
LINE
  5
19A22
  8
DANMEN
  6
CONTINUOUS
 10
55.5
 20
57.0
 30
0.0
 11
55.5
 21
51.0
 31
0.0
  0
LINE
  5
19A23
  8
DANMEN
  6
CONTINUOUS
 10
49.149994
 20
32.649994
 30
0.0
 11
53.0
 21
32.649994
 31
0.0
  0
LINE
  5
19A24
  8
DANMEN
  6
CONTINUOUS
 10
53.420742
 20
44.35
 30
0.0
 11
49.149994
 21
42.020489
 31
0.0
  0
ARC
  5
19A25
  8
DANMEN
  6
CONTINUOUS
 10
53.50999
 20
44.0
 30
0.0
 40
2.0
 50
90.0
 51
118.610582
  0
LINE
  5
19A26
  8
DANMEN
  6
CONTINUOUS
 10
51.449997
 20
51.0
 30
0.0
 11
55.5
 21
51.0
 31
0.0
  0
LINE
  5
19A27
  8
DANMEN
  6
CONTINUOUS
 10
47.5
 20
42.406353
 30
0.0
 11
47.5
 21
33.0
 31
0.0
  0
LINE
  5
19A28
  8
DANMEN
  6
CONTINUOUS
 10
49.149994
 20
42.020489
 30
0.0
 11
49.149994
 21
32.649994
 31
0.0
  0
LINE
  5
19A29
  8
DANMEN
  6
CONTINUOUS
 10
41.6
 20
33.0
 30
0.0
 11
47.5
 21
33.0
 31
0.0
  0
LINE
  5
19A2A
  8
DANMEN
  6
CONTINUOUS
 10
41.300003
 20
31.9
 30
0.0
 11
47.5
 21
31.9
 31
0.0
  0
LINE
  5
19A2B
  8
DANMEN
  6
CONTINUOUS
 10
40.902221
 20
31.0
 30
0.0
 11
48.0
 21
31.0
 31
0.0
  0
LINE
  5
19A2C
  8
DANMEN
  6
CONTINUOUS
 10
37.5
 20
40.399994
 30
0.0
 11
37.5
 21
35.10902
 31
0.0
  0
LINE
  5
19A2D
  8
DANMEN
  6
CONTINUOUS
 10
38.699997
 20
40.399994
 30
0.0
 11
38.699997
 21
35.429842
 31
0.0
  0
ARC
  5
19A2E
  8
DANMEN
  6
CONTINUOUS
 10
40.899994
 20
31.399994
 30
0.0
 40
0.4
 50
180.000019
 51
359.999983
  0
LINE
  5
19A2F
  8
DANMEN
  6
CONTINUOUS
 10
38.699997
 20
35.429842
 30
0.0
 11
41.323607
 21
34.118037
 31
0.0
  0
LINE
  5
19A30
  8
DANMEN
  6
CONTINUOUS
 10
40.5
 20
33.300003
 30
0.0
 11
40.5
 21
31.399994
 31
0.0
  0
ARC
  5
19A34
  8
DANMEN
  6
CONTINUOUS
 10
38.0
 20
35.10902
 30
0.0
 40
0.5
 50
180.0
 51
243.434949
  0
LINE
  5
19A35
  8
DANMEN
  6
CONTINUOUS
 10
37.776393
 20
34.661806
 30
0.0
 11
40.5
 21
33.300003
 31
0.0
  0
LINE
  5
19A39
  8
DANMEN
  6
CONTINUOUS
 10
41.300003
 20
31.9
 30
0.0
 11
41.300003
 21
31.399994
 31
0.0
  0
LINE
  5
19A3B
  8
DANMEN
  6
CONTINUOUS
 10
41.6
 20
33.670823
 30
0.0
 11
41.6
 21
33.0
 31
0.0
  0
ARC
  5
19A3C
  8
DANMEN
  6
CONTINUOUS
 10
41.1
 20
33.670823
 30
0.0
 40
0.5
 50
0.0
 51
63.434949
  0
ARC
  5
19A40
  8
DANMEN
  6
CONTINUOUS
 10
38.100006
 20
40.399994
 30
0.0
 40
0.6
 50
0.0
 51
180.000019
  0
LINE
  5
19A43
  8
DANMEN
  6
CONTINUOUS
 10
48.0
 20
31.0
 30
0.0
 11
52.5
 21
31.0
 31
0.0
  0
ARC
  5
19A45
  8
DANMEN
  6
CONTINUOUS
 10
48.0
 20
31.5
 30
0.0
 40
0.5
 50
180.000019
 51
270.000001
  0
LINE
  5
19A46
  8
DANMEN
  6
CONTINUOUS
 10
47.5
 20
31.9
 30
0.0
 11
47.5
 21
31.5
 31
0.0
  0
LINE
  5
19A4B
  8
DANMEN
  6
CONTINUOUS
 10
52.552282
 20
45.755789
 30
0.0
 11
48.021146
 21
43.284248
 31
0.0
  0
ARC
  5
19A4D
  8
DANMEN
  6
CONTINUOUS
 10
48.5
 20
42.406353
 30
0.0
 40
1.0
 50
118.610582
 51
180.0
  0
LINE
  5
19A4F
  8
DANMEN
  6
CONTINUOUS
 10
49.965316
 20
49.837106
 30
0.0
 11
46.943002
 21
49.969063
 31
0.0
  0
LINE
  5
19A50
  8
DANMEN
  6
CONTINUOUS
 10
50.50846
 20
50.814345
 30
0.0
 11
47.211313
 21
50.958301
 31
0.0
  0
ARC
  5
19A55
  8
DANMEN
  6
CONTINUOUS
 10
46.964812
 20
50.468587
 30
0.0
 40
0.5
 50
180.460936
 51
267.5
  0
LINE
  5
19A58
  8
DANMEN
  6
CONTINUOUS
 10
49.59665
 20
52.856061
 30
0.0
 11
49.509412
 21
50.857964
 31
0.0
  0
LINE
  5
19A5A
  8
DANMEN
  6
CONTINUOUS
 10
50.595699
 20
52.812441
 30
0.0
 11
50.48665
 21
50.314821
 31
0.0
  0
ARC
  5
19A5B
  8
DANMEN
  6
CONTINUOUS
 10
49.987126
 20
50.33663
 30
0.0
 40
0.5
 50
267.5
 51
357.5
  0
LINE
  5
19A5D
  8
DANMEN
  6
CONTINUOUS
 10
49.553031
 20
51.857012
 30
0.0
 11
50.552079
 21
51.813393
 31
0.0
  0
ARC
  5
19A60
  8
DANMEN
  6
CONTINUOUS
 10
50.199997
 20
51.5
 30
0.0
 40
0.5
 50
180.000019
 51
270.000001
  0
ARC
  5
19A62
  8
DANMEN
  6
CONTINUOUS
 10
51.149994
 20
51.5
 30
0.0
 40
0.5
 50
270.000018
 51
0.0
  0
LINE
  5
19A64
  8
DANMEN
  6
CONTINUOUS
 10
50.199997
 20
51.0
 30
0.0
 11
51.149994
 21
51.0
 31
0.0
  0
LINE
  5
19A65
  8
DANMEN
  6
CONTINUOUS
 10
48.919296
 20
51.0
 30
0.0
 11
50.5
 21
51.0
 31
0.0
  0
ARC
  5
19A66
  8
DANMEN
  6
CONTINUOUS
 10
60.7
 20
42.053939
 30
0.0
 40
1.0
 50
180.0
 51
245.375682
  0
ARC
  5
19A67
  8
DANMEN
  6
CONTINUOUS
 10
60.2
 20
41.969694
 30
0.0
 40
2.0
 50
180.0
 51
231.706523
  0
ARC
  5
19A68
  8
DANMEN
  6
CONTINUOUS
 10
62.3
 20
42.053939
 30
0.0
 40
1.0
 50
294.624318
 51
0.0
  0
LINE
  5
19A69
  8
DANMEN
  6
CONTINUOUS
 10
67.968917
 20
41.307438
 30
0.0
 11
65.355268
 21
40.171069
 31
0.0
  0
LINE
  5
19A6A
  8
DANMEN
  6
CONTINUOUS
 10
64.8
 20
41.448185
 30
0.0
 11
65.355268
 21
40.171069
 31
0.0
  0
ARC
  5
19A6B
  8
DANMEN
  6
CONTINUOUS
 10
68.16828
 20
40.848903
 30
0.0
 40
0.5
 50
23.49856
 51
113.49856
  0
ARC
  5
19A6D
  8
DANMEN
  6
CONTINUOUS
 10
53.0
 20
31.649994
 30
0.0
 40
1.0
 50
0.0
 51
89.999982
  0
ARC
  5
19A6E
  8
DANMEN
  6
CONTINUOUS
 10
60.1
 20
40.7
 30
0.0
 40
0.3
 50
270.0
 51
0.0
  0
LINE
  5
19A6F
  8
DANMEN
  6
CONTINUOUS
 10
58.960621
 20
40.4
 30
0.0
 11
60.1
 21
40.4
 31
0.0
  0
LINE
  5
19A70
  8
DANMEN
  6
CONTINUOUS
 10
60.4
 20
40.7
 30
0.0
 11
60.4
 21
40.963068
 31
0.0
  0
ARC
  5
19A71
  8
DANMEN
  6
CONTINUOUS
 10
60.2
 20
40.963068
 30
0.0
 40
0.2
 50
0.0
 51
65.375682
  0
ARC
  5
19A72
  8
DANMEN
  6
CONTINUOUS
 10
65.018344
 20
39.315802
 30
0.0
 40
1.0
 50
203.49856
 51
293.49856
  0
ARC
  5
19A73
  8
DANMEN
  6
CONTINUOUS
 10
62.9
 20
40.7
 30
0.0
 40
0.3
 50
180.0
 51
270.0
  0
LINE
  5
19A74
  8
DANMEN
  6
CONTINUOUS
 10
62.9
 20
40.4
 30
0.0
 11
63.456524
 21
40.4
 31
0.0
  0
ARC
  5
19A75
  8
DANMEN
  6
CONTINUOUS
 10
62.8
 20
40.963068
 30
0.0
 40
0.2
 50
114.624318
 51
180.0
  0
LINE
  5
19A76
  8
DANMEN
  6
CONTINUOUS
 10
62.6
 20
40.7
 30
0.0
 11
62.6
 21
40.963068
 31
0.0
  0
LINE
  5
19A7A
  8
DANMEN
  6
CONTINUOUS
 10
63.456524
 20
40.4
 30
0.0
 11
64.101274
 21
38.917076
 31
0.0
  0
LINE
  5
19A7C
  8
DANMEN
  6
CONTINUOUS
 10
68.626815
 20
39.794273
 30
0.0
 11
65.41707
 21
38.398732
 31
0.0
  0
LINE
  5
19A7D
  8
DANMEN
  6
CONTINUOUS
 10
68.626816
 20
41.048266
 30
0.0
 11
68.885987
 21
40.452171
 31
0.0
  0
ARC
  5
19A7E
  8
DANMEN
  6
CONTINUOUS
 10
68.427452
 20
40.252808
 30
0.0
 40
0.5
 50
293.49856
 51
23.49856
  0
LINE
  5
19A81
  8
DANMEN
  6
CONTINUOUS
 10
61.0
 20
46.0
 30
0.0
 11
67.0
 21
46.0
 31
0.0
  0
LINE
  5
19A82
  8
DANMEN
  6
CONTINUOUS
 10
60.7
 20
44.3
 30
0.0
 11
62.3
 21
44.3
 31
0.0
  0
LINE
  5
19A83
  8
DANMEN
  6
CONTINUOUS
 10
53.50999
 20
46.0
 30
0.0
 11
59.350006
 21
46.0
 31
0.0
  0
LINE
  5
19A84
  8
DANMEN
  6
CONTINUOUS
 10
53.420742
 20
44.35
 30
0.0
 11
57.2
 21
44.35
 31
0.0
  0
LINE
  5
19A89
  8
DANMEN
  6
CONTINUOUS
 10
59.7
 20
42.053939
 30
0.0
 11
59.7
 21
43.3
 31
0.0
  0
LINE
  5
19A8A
  8
DANMEN
  6
CONTINUOUS
 10
58.2
 20
41.969694
 30
0.0
 11
58.2
 21
43.35
 31
0.0
  0
ARC
  5
19A8B
  8
DANMEN
  6
CONTINUOUS
 10
60.7
 20
43.3
 30
0.0
 40
1.0
 50
90.0
 51
180.0
  0
ARC
  5
19A8C
  8
DANMEN
  6
CONTINUOUS
 10
57.2
 20
43.35
 30
0.0
 40
1.0
 50
0.0
 51
90.0
  0
LINE
  5
19A8E
  8
DANMEN
  6
CONTINUOUS
 10
64.8
 20
44.350006
 30
0.0
 11
67.241901
 21
44.350006
 31
0.0
  0
ARC
  5
19A90
  8
DANMEN
  6
CONTINUOUS
 10
62.3
 20
43.3
 30
0.0
 40
1.0
 50
0.0
 51
90.0
  0
LINE
  5
19A91
  8
DANMEN
  6
CONTINUOUS
 10
63.3
 20
42.053939
 30
0.0
 11
63.3
 21
43.3
 31
0.0
  0
LINE
  5
19A92
  8
DANMEN
  6
CONTINUOUS
 10
64.8
 20
41.448185
 30
0.0
 11
64.8
 21
44.350006
 31
0.0
  0
ARC
  5
19A95
  8
DANMEN
  6
CONTINUOUS
 10
67.241901
 20
44.850006
 30
0.0
 40
0.5
 50
270.0
 51
293.756476
  0
LINE
  5
19A98
  8
DANMEN
  6
CONTINUOUS
 10
67.350006
 20
67.000003
 30
0.0
 11
51.649989
 21
66.999999
 31
0.0
  0
LINE
  5
19A99
  8
DANMEN
  6
CONTINUOUS
 10
54.649989
 20
65.999999
 30
0.0
 11
52.649994
 21
65.999999
 31
0.0
  0
LINE
  5
19A9D
  8
DANMEN
  6
CONTINUOUS
 10
51.649994
 20
65.999999
 30
0.0
 11
52.149994
 21
66.499999
 31
0.0
  0
LINE
  5
19A9E
  8
DANMEN
  6
CONTINUOUS
 10
52.649994
 20
65.999999
 30
0.0
 11
52.149994
 21
66.499999
 31
0.0
  0
ARC
  5
19AA5
  8
DANMEN
  6
CONTINUOUS
 10
59.5
 20
55.0
 30
0.0
 40
3.0
 50
53.130102
 51
126.869903
  0
ARC
  5
19AA6
  8
DANMEN
  6
CONTINUOUS
 10
60.5
 20
57.29129
 30
0.0
 40
0.5
 50
0.000279
 51
66.42195
  0
ARC
  5
19AA7
  8
DANMEN
  6
CONTINUOUS
 10
59.5
 20
57.0
 30
0.0
 40
4.0
 50
0.0
 51
180.000019
  0
LINE
  5
19AA8
  8
DANMEN
  6
CONTINUOUS
 10
55.299999
 20
55.0
 30
0.0
 11
57.5
 21
55.0
 31
0.0
  0
ARC
  5
19AAA
  8
DANMEN
  6
CONTINUOUS
 10
58.0
 20
57.0
 30
0.0
 40
0.5
 50
126.869907
 51
180.000009
  0
LINE
  5
19AAB
  8
DANMEN
  6
CONTINUOUS
 10
58.0
 20
57.29129
 30
0.0
 11
58.0
 21
56.152954
 31
0.0
  0
ARC
  5
19AAD
  8
DANMEN
  6
CONTINUOUS
 10
59.5
 20
55.0
 30
0.0
 40
3.0
 50
66.421841
 51
113.578178
  0
ARC
  5
19AAE
  8
DANMEN
  6
CONTINUOUS
 10
58.5
 20
57.29129
 30
0.0
 40
0.5
 50
113.578068
 51
179.999745
  0
LINE
  5
19AB3
  8
DANMEN
  6
CONTINUOUS
 10
59.264431
 20
54.126784
 30
0.0
 11
58.085579
 21
55.873223
 31
0.0
  0
ARC
  5
19AB4
  8
DANMEN
  6
CONTINUOUS
 10
58.850006
 20
53.847046
 30
0.0
 40
0.5
 50
0.000664
 51
34.020021
  0
ARC
  5
19AB5
  8
DANMEN
  6
CONTINUOUS
 10
58.5
 20
56.152954
 30
0.0
 40
0.5
 50
180.000309
 51
214.019733
  0
LINE
  5
19AB6
  8
DANMEN
  6
CONTINUOUS
 10
63.700001
 20
55.0
 30
0.0
 11
61.5
 21
55.0
 31
0.0
  0
ARC
  5
19AB7
  8
DANMEN
  6
CONTINUOUS
 10
61.0
 20
57.0
 30
0.0
 40
0.5
 50
359.999997
 51
53.130102
  0
LINE
  5
19ABB
  8
DANMEN
  6
CONTINUOUS
 10
64.350001
 20
65.050006
 30
0.0
 11
54.649988
 21
65.050002
 31
0.0
  0
LINE
  5
19ABC
  8
DANMEN
  6
CONTINUOUS
 10
55.100001
 20
68.500003
 30
0.0
 11
55.299998
 21
68.300005
 31
0.0
  0
LINE
  5
19ABF
  8
DANMEN
  6
CONTINUOUS
 10
54.649994
 20
66.0
 30
0.0
 11
54.649994
 21
65.050003
 31
0.0
  0
LINE
  5
19AC0
  8
DANMEN
  6
CONTINUOUS
 10
66.350006
 20
66.000003
 30
0.0
 11
64.350001
 21
66.000002
 31
0.0
  0
LINE
  5
19AC1
  8
DANMEN
  6
CONTINUOUS
 10
63.899994
 20
68.500002
 30
0.0
 11
63.699998
 21
68.300006
 31
0.0
  0
LINE
  5
19AC4
  8
DANMEN
  6
CONTINUOUS
 10
64.350006
 20
66.0
 30
0.0
 11
64.350006
 21
65.050003
 31
0.0
  0
LINE
  5
19AC5
  8
DANMEN
  6
CONTINUOUS
 10
66.850006
 20
66.500003
 30
0.0
 11
66.350006
 21
66.000003
 31
0.0
  0
LINE
  5
19AC6
  8
DANMEN
  6
CONTINUOUS
 10
67.350006
 20
66.000003
 30
0.0
 11
66.850006
 21
66.500003
 31
0.0
  0
LINE
  5
19ACD
  8
DANMEN
  6
CONTINUOUS
 10
67.350006
 20
68.000003
 30
0.0
 11
67.350006
 21
67.0
 31
0.0
  0
LINE
  5
19ACE
  8
DANMEN
  6
CONTINUOUS
 10
47.5
 20
109.5
 30
0.0
 11
33.500005
 21
109.5
 31
0.0
  0
LINE
  5
19ACF
  8
DANMEN
  6
CONTINUOUS
 10
47.2
 20
108.0
 30
0.0
 11
34.500005
 21
108.0
 31
0.0
  0
LINE
  5
19AD0
  8
DANMEN
  6
CONTINUOUS
 10
34.5
 20
108.0
 30
0.0
 11
49.699997
 21
108.0
 31
0.0
  0
LINE
  5
19AD1
  8
DANMEN
  6
CONTINUOUS
 10
33.500005
 20
109.5
 30
0.0
 11
33.500005
 21
109.0
 31
0.0
  0
ARC
  5
19AD3
  8
DANMEN
  6
CONTINUOUS
 10
34.500005
 20
109.0
 30
0.0
 40
1.0
 50
180.0
 51
270.0
  0
ARC
  5
19AD6
  8
DANMEN
  6
CONTINUOUS
 10
34.5
 20
109.0
 30
0.0
 40
1.0
 50
180.0
 51
270.0
  0
LINE
  5
19AD9
  8
DANMEN
  6
CONTINUOUS
 10
33.5
 20
109.5
 30
0.0
 11
35.699997
 21
109.5
 31
0.0
  0
LINE
  5
19ADA
  8
DANMEN
  6
CONTINUOUS
 10
33.5
 20
109.5
 30
0.0
 11
33.5
 21
109.0
 31
0.0
  0
LINE
  5
19ADB
  8
DANMEN
  6
CONTINUOUS
 10
67.350006
 20
103.0
 30
0.0
 11
67.350006
 21
79.050003
 31
0.0
  0
LINE
  5
19ADC
  8
DANMEN
  6
CONTINUOUS
 10
55.100001
 20
86.500005
 30
0.0
 11
55.299998
 21
86.700002
 31
0.0
  0
ARC
  5
19ADD
  8
DANMEN
  6
CONTINUOUS
 10
68.350006
 20
79.050003
 30
0.0
 40
1.0
 50
180.000019
 51
270.000001
  0
LINE
  5
19ADF
  8
DANMEN
  6
CONTINUOUS
 10
63.899994
 20
86.500006
 30
0.0
 11
63.699998
 21
86.700002
 31
0.0
  0
ARC
  5
19AE0
  8
DANMEN
  6
CONTINUOUS
 10
59.5
 20
100.000008
 30
0.0
 40
3.0
 50
233.130097
 51
306.869898
  0
ARC
  5
19AE1
  8
DANMEN
  6
CONTINUOUS
 10
58.0
 20
98.000008
 30
0.0
 40
0.5
 50
179.999991
 51
233.130093
  0
ARC
  5
19AE2
  8
DANMEN
  6
CONTINUOUS
 10
61.0
 20
98.000008
 30
0.0
 40
0.5
 50
306.869898
 51
0.000003
  0
LINE
  5
19AE3
  8
DANMEN
  6
CONTINUOUS
 10
51.649994
 20
104.199997
 30
0.0
 11
56.199997
 21
104.199997
 31
0.0
  0
LINE
  5
19AE4
  8
DANMEN
  6
CONTINUOUS
 10
51.649994
 20
103.0
 30
0.0
 11
57.699997
 21
103.0
 31
0.0
  0
LINE
  5
19AE5
  8
DANMEN
  6
CONTINUOUS
 10
37.649994
 20
109.949997
 30
0.0
 11
50.649994
 21
109.949997
 31
0.0
  0
LINE
  5
19AE7
  8
DANMEN
  6
CONTINUOUS
 10
51.649994
 20
108.949997
 30
0.0
 11
51.649994
 21
104.199997
 31
0.0
  0
LINE
  5
19AEA
  8
DANMEN
  6
CONTINUOUS
 10
47.5
 20
109.5
 30
0.0
 11
47.5
 21
108.0
 31
0.0
  0
LINE
  5
19AEC
  8
DANMEN
  6
CONTINUOUS
 10
47.2
 20
109.5
 30
0.0
 11
47.2
 21
107.993429
 31
0.0
  0
ARC
  5
19AF0
  8
DANMEN
  6
CONTINUOUS
 10
50.649994
 20
108.949997
 30
0.0
 40
1.0
 50
0.0
 51
89.999982
  0
ARC
  5
19AF3
  8
DANMEN
  6
CONTINUOUS
 10
60.2
 20
107.3
 30
0.0
 40
1.0
 50
0.0
 51
90.0
  0
LINE
  5
19AF4
  8
DANMEN
  6
CONTINUOUS
 10
58.699997
 20
110.0
 30
0.0
 11
67.350006
 21
110.0
 31
0.0
  0
ARC
  5
19AF5
  8
DANMEN
  6
CONTINUOUS
 10
58.7
 20
105.8
 30
0.0
 40
1.0
 50
180.0
 51
270.0
  0
LINE
  5
19AF6
  8
DANMEN
  6
CONTINUOUS
 10
56.199997
 20
107.5
 30
0.0
 11
56.199997
 21
104.199997
 31
0.0
  0
LINE
  5
19AF7
  8
DANMEN
  6
CONTINUOUS
 10
55.299999
 20
100.000008
 30
0.0
 11
57.5
 21
100.000008
 31
0.0
  0
LINE
  5
19AFA
  8
DANMEN
  6
CONTINUOUS
 10
58.7
 20
104.8
 30
0.0
 11
59.333705
 21
104.8
 31
0.0
  0
LINE
  5
19AFB
  8
DANMEN
  6
CONTINUOUS
 10
57.699997
 20
103.3
 30
0.0
 11
59.333705
 21
103.3
 31
0.0
  0
ARC
  5
19AFC
  8
DANMEN
  6
CONTINUOUS
 10
59.333705
 20
104.05
 30
0.0
 40
0.75
 50
270.0
 51
90.0
  0
LINE
  5
19AFE
  8
DANMEN
  6
CONTINUOUS
 10
57.699997
 20
103.300003
 30
0.0
 11
57.699997
 21
103.0
 31
0.0
  0
ARC
  5
19AFF
  8
DANMEN
  6
CONTINUOUS
 10
58.699997
 20
107.5
 30
0.0
 40
2.5
 50
89.999982
 51
180.000019
  0
LINE
  5
19B02
  8
DANMEN
  6
CONTINUOUS
 10
58.7
 20
108.3
 30
0.0
 11
60.2
 21
108.3
 31
0.0
  0
LINE
  5
19B03
  8
DANMEN
  6
CONTINUOUS
 10
57.7
 20
105.8
 30
0.0
 11
57.7
 21
107.3
 31
0.0
  0
ARC
  5
19B04
  8
DANMEN
  6
CONTINUOUS
 10
58.7
 20
107.3
 30
0.0
 40
1.0
 50
90.0
 51
180.0
  0
LINE
  5
19B06
  8
DANMEN
  6
CONTINUOUS
 10
67.350006
 20
108.350006
 30
0.0
 11
67.350006
 21
104.199997
 31
0.0
  0
ARC
  5
19B07
  8
DANMEN
  6
CONTINUOUS
 10
65.300003
 20
103.699997
 30
0.0
 40
0.5
 50
89.999982
 51
180.000019
  0
LINE
  5
19B08
  8
DANMEN
  6
CONTINUOUS
 10
64.800003
 20
103.0
 30
0.0
 11
67.350006
 21
103.0
 31
0.0
  0
LINE
  5
19B09
  8
DANMEN
  6
CONTINUOUS
 10
63.700001
 20
100.000008
 30
0.0
 11
61.5
 21
100.000008
 31
0.0
  0
LINE
  5
19B0C
  8
DANMEN
  6
CONTINUOUS
 10
64.800003
 20
103.699997
 30
0.0
 11
64.800003
 21
103.0
 31
0.0
  0
LINE
  5
19B0F
  8
DANMEN
  6
CONTINUOUS
 10
65.300003
 20
104.199997
 30
0.0
 11
67.350006
 21
104.199997
 31
0.0
  0
LINE
  5
19B10
  8
DANMEN
  6
CONTINUOUS
 10
63.699997
 20
108.350006
 30
0.0
 11
67.350006
 21
108.350006
 31
0.0
  0
ARC
  5
19B12
  8
DANMEN
  6
CONTINUOUS
 10
63.7
 20
107.350006
 30
0.0
 40
1.0
 50
90.0
 51
180.0
  0
LINE
  5
19B14
  8
DANMEN
  6
CONTINUOUS
 10
61.2
 20
106.666295
 30
0.0
 11
61.2
 21
107.3
 31
0.0
  0
LINE
  5
19B15
  8
DANMEN
  6
CONTINUOUS
 10
62.7
 20
106.666295
 30
0.0
 11
62.7
 21
107.350006
 31
0.0
  0
ARC
  5
19B16
  8
DANMEN
  6
CONTINUOUS
 10
61.95
 20
106.666295
 30
0.0
 40
0.75
 50
180.0
 51
0.0
  0
LINE
  5
19B18
  8
DANMEN
  6
CONTINUOUS
 10
79.5
 20
90.5
 30
0.0
 11
79.5
 21
74.0
 31
0.0
  0
LINE
  5
19B19
  8
DANMEN
  6
CONTINUOUS
 10
81.3
 20
88.0
 30
0.0
 11
81.3
 21
71.0
 31
0.0
  0
LINE
  5
19B1A
  8
DANMEN
  6
CONTINUOUS
 10
110.5
 20
90.5
 30
0.0
 11
110.5
 21
56.5
 31
0.0
  0
LINE
  5
19B1B
  8
DANMEN
  6
CONTINUOUS
 10
108.85
 20
84.2
 30
0.0
 11
108.85
 21
73.0
 31
0.0
  0
LINE
  5
19B1C
  8
DANMEN
  6
CONTINUOUS
 10
69.550003
 20
78.050003
 30
0.0
 11
69.550003
 21
68.000004
 31
0.0
  0
LINE
  5
19B1D
  8
DANMEN
  6
CONTINUOUS
 10
71.5
 20
79.5
 30
0.0
 11
71.5
 21
66.500005
 31
0.0
  0
LINE
  5
19B1E
  8
DANMEN
  6
CONTINUOUS
 10
71.5
 20
91.0
 30
0.0
 11
79.5
 21
74.0
 31
0.0
  0
LINE
  5
19B1F
  8
DANMEN
  6
CONTINUOUS
 10
79.5
 20
91.0
 30
0.0
 11
71.5
 21
74.0
 31
0.0
  0
LINE
  5
19B20
  8
DANMEN
  6
CONTINUOUS
 10
97.55
 20
73.0
 30
0.0
 11
108.85
 21
73.0
 31
0.0
  0
LINE
  5
19B21
  8
DANMEN
  6
CONTINUOUS
 10
98.7
 20
71.35
 30
0.0
 11
108.850006
 21
71.35
 31
0.0
  0
LINE
  5
19B22
  8
DANMEN
  6
CONTINUOUS
 10
71.5
 20
66.500005
 30
0.0
 11
71.5
 21
51.0
 31
0.0
  0
LINE
  5
19B23
  8
DANMEN
  6
CONTINUOUS
 10
81.3
 20
71.0
 30
0.0
 11
97.05
 21
71.0
 31
0.0
  0
LINE
  5
19B24
  8
DANMEN
  6
CONTINUOUS
 10
85.0
 20
68.5
 30
0.0
 11
91.0
 21
68.5
 31
0.0
  0
LINE
  5
19B25
  8
DANMEN
  6
CONTINUOUS
 10
75.0
 20
66.0
 30
0.0
 11
77.500003
 21
66.0
 31
0.0
  0
LINE
  5
19B26
  8
DANMEN
  6
CONTINUOUS
 10
75.0
 20
74.0
 30
0.0
 11
79.5
 21
74.0
 31
0.0
  0
LINE
  5
19B27
  8
DANMEN
  6
CONTINUOUS
 10
71.500003
 20
74.0
 30
0.0
 11
79.500003
 21
74.0
 31
0.0
  0
LINE
  5
19B28
  8
DANMEN
  6
CONTINUOUS
 10
72.100003
 20
70.217127
 30
0.0
 11
73.082437
 21
73.4
 31
0.0
  0
LINE
  5
19B29
  8
DANMEN
  6
CONTINUOUS
 10
71.500003
 20
69.394291
 30
0.0
 11
71.500003
 21
70.305709
 31
0.0
  0
LINE
  5
19B2A
  8
DANMEN
  6
CONTINUOUS
 10
75.700003
 20
69.0
 30
0.0
 11
75.700003
 21
70.7
 31
0.0
  0
LINE
  5
19B2B
  8
DANMEN
  6
CONTINUOUS
 10
73.700003
 20
66.3
 30
0.0
 11
73.700003
 21
73.4
 31
0.0
  0
LINE
  5
19B2C
  8
DANMEN
  6
CONTINUOUS
 10
77.000003
 20
73.0
 30
0.0
 11
77.000003
 21
66.8
 31
0.0
  0
LINE
  5
19B2D
  8
DANMEN
  6
CONTINUOUS
 10
73.082437
 20
66.3
 30
0.0
 11
73.700003
 21
66.3
 31
0.0
  0
LINE
  5
19B2E
  8
DANMEN
  6
CONTINUOUS
 10
72.827481
 20
65.7
 30
0.0
 11
74.500003
 21
65.7
 31
0.0
  0
LINE
  5
19B32
  8
DANMEN
  6
CONTINUOUS
 10
72.100003
 20
69.482874
 30
0.0
 11
72.100003
 21
70.217127
 31
0.0
  0
LINE
  5
19B33
  8
DANMEN
  6
CONTINUOUS
 10
73.082437
 20
66.3
 30
0.0
 11
72.100003
 21
69.482874
 31
0.0
  0
ARC
  5
19B35
  8
DANMEN
  6
CONTINUOUS
 10
71.700003
 20
69.394291
 30
0.0
 40
0.2
 50
180.0
 51
204.97391
  0
ARC
  5
19B37
  8
DANMEN
  6
CONTINUOUS
 10
72.827481
 20
65.9
 30
0.0
 40
0.2
 50
204.97391
 51
270.0
  0
LINE
  5
19B38
  8
DANMEN
  6
CONTINUOUS
 10
72.646181
 20
65.815559
 30
0.0
 11
71.518703
 21
69.30985
 31
0.0
  0
ARC
  5
19B3C
  8
DANMEN
  6
CONTINUOUS
 10
71.0
 20
66.500005
 30
0.0
 40
0.5
 50
270.0
 51
0.0
  0
LINE
  5
19B44
  8
DANMEN
  6
CONTINUOUS
 10
74.500003
 20
65.7
 30
0.0
 11
74.500003
 21
68.2
 31
0.0
  0
LINE
  5
19B46
  8
DANMEN
  6
CONTINUOUS
 10
74.500003
 20
68.2
 30
0.0
 11
75.500003
 21
68.2
 31
0.0
  0
LINE
  5
19B47
  8
DANMEN
  6
CONTINUOUS
 10
76.500003
 20
68.2
 30
0.0
 11
75.700003
 21
69.0
 31
0.0
  0
ARC
  5
19B4A
  8
DANMEN
  6
CONTINUOUS
 10
75.700003
 20
67.2
 30
0.0
 40
0.2
 50
179.999981
 51
270.000018
  0
ARC
  5
19B4C
  8
DANMEN
  6
CONTINUOUS
 10
76.300003
 20
67.2
 30
0.0
 40
0.2
 50
270.000018
 51
0.0
  0
LINE
  5
19B4E
  8
DANMEN
  6
CONTINUOUS
 10
75.500003
 20
67.2
 30
0.0
 11
75.500003
 21
68.2
 31
0.0
  0
LINE
  5
19B4F
  8
DANMEN
  6
CONTINUOUS
 10
75.700003
 20
67.0
 30
0.0
 11
76.300003
 21
67.0
 31
0.0
  0
LINE
  5
19B50
  8
DANMEN
  6
CONTINUOUS
 10
76.500003
 20
67.2
 30
0.0
 11
76.500003
 21
68.2
 31
0.0
  0
LINE
  5
19B52
  8
DANMEN
  6
CONTINUOUS
 10
74.5
 20
67.699997
 30
0.0
 11
74.5
 21
66.5
 31
0.0
  0
LINE
  5
19B53
  8
DANMEN
  6
CONTINUOUS
 10
75.300003
 20
68.199997
 30
0.0
 11
75.300003
 21
66.8
 31
0.0
  0
ARC
  5
19B54
  8
DANMEN
  6
CONTINUOUS
 10
75.0
 20
66.5
 30
0.0
 40
0.5
 50
180.000019
 51
270.000001
  0
ARC
  5
19B55
  8
DANMEN
  6
CONTINUOUS
 10
75.0
 20
67.699997
 30
0.0
 40
0.5
 50
89.999982
 51
180.000019
  0
LINE
  5
19B56
  8
DANMEN
  6
CONTINUOUS
 10
75.0
 20
68.199997
 30
0.0
 11
75.300003
 21
68.199997
 31
0.0
  0
LINE
  5
19B57
  8
DANMEN
  6
CONTINUOUS
 10
75.300003
 20
66.8
 30
0.0
 11
77.0
 21
66.8
 31
0.0
  0
LINE
  5
19B5D
  8
DANMEN
  6
CONTINUOUS
 10
73.082437
 20
73.4
 30
0.0
 11
73.700003
 21
73.4
 31
0.0
  0
LINE
  5
19B5E
  8
DANMEN
  6
CONTINUOUS
 10
72.827481
 20
74.0
 30
0.0
 11
74.500003
 21
74.0
 31
0.0
  0
ARC
  5
19B61
  8
DANMEN
  6
CONTINUOUS
 10
71.700003
 20
70.305709
 30
0.0
 40
0.2
 50
155.02609
 51
180.0
  0
ARC
  5
19B63
  8
DANMEN
  6
CONTINUOUS
 10
72.827481
 20
73.8
 30
0.0
 40
0.2
 50
90.0
 51
155.02609
  0
LINE
  5
19B64
  8
DANMEN
  6
CONTINUOUS
 10
71.518703
 20
70.39015
 30
0.0
 11
72.646181
 21
73.884441
 31
0.0
  0
LINE
  5
19B6A
  8
DANMEN
  6
CONTINUOUS
 10
74.500003
 20
71.5
 30
0.0
 11
75.500003
 21
71.5
 31
0.0
  0
LINE
  5
19B6B
  8
DANMEN
  6
CONTINUOUS
 10
75.500003
 20
71.5
 30
0.0
 11
75.500003
 21
72.5
 31
0.0
  0
LINE
  5
19B6C
  8
DANMEN
  6
CONTINUOUS
 10
75.700003
 20
70.7
 30
0.0
 11
76.500003
 21
71.5
 31
0.0
  0
LINE
  5
19B6E
  8
DANMEN
  6
CONTINUOUS
 10
76.500003
 20
71.5
 30
0.0
 11
76.500003
 21
72.5
 31
0.0
  0
ARC
  5
19B6F
  8
DANMEN
  6
CONTINUOUS
 10
75.700003
 20
72.5
 30
0.0
 40
0.2
 50
89.999999
 51
179.999981
  0
ARC
  5
19B71
  8
DANMEN
  6
CONTINUOUS
 10
76.300003
 20
72.5
 30
0.0
 40
0.2
 50
0.0
 51
89.999982
  0
LINE
  5
19B73
  8
DANMEN
  6
CONTINUOUS
 10
74.500003
 20
71.5
 30
0.0
 11
74.500003
 21
74.0
 31
0.0
  0
LINE
  5
19B74
  8
DANMEN
  6
CONTINUOUS
 10
75.700003
 20
72.7
 30
0.0
 11
76.300003
 21
72.7
 31
0.0
  0
LINE
  5
19B75
  8
DANMEN
  6
CONTINUOUS
 10
74.5
 20
73.5
 30
0.0
 11
74.5
 21
72.300003
 31
0.0
  0
LINE
  5
19B76
  8
DANMEN
  6
CONTINUOUS
 10
75.0
 20
71.800003
 30
0.0
 11
75.300003
 21
71.800003
 31
0.0
  0
LINE
  5
19B77
  8
DANMEN
  6
CONTINUOUS
 10
75.300003
 20
73.0
 30
0.0
 11
75.300003
 21
71.800003
 31
0.0
  0
ARC
  5
19B78
  8
DANMEN
  6
CONTINUOUS
 10
75.0
 20
72.300003
 30
0.0
 40
0.5
 50
180.000019
 51
270.000001
  0
LINE
  5
19B79
  8
DANMEN
  6
CONTINUOUS
 10
75.300003
 20
73.0
 30
0.0
 11
77.0
 21
73.0
 31
0.0
  0
ARC
  5
19B7A
  8
DANMEN
  6
CONTINUOUS
 10
75.0
 20
73.5
 30
0.0
 40
0.5
 50
89.999982
 51
180.000019
  0
LINE
  5
19B80
  8
DANMEN
  6
CONTINUOUS
 10
78.0
 20
72.2
 30
0.0
 11
78.0
 21
66.5
 31
0.0
  0
LINE
  5
19B81
  8
DANMEN
  6
CONTINUOUS
 10
79.5
 20
70.2
 30
0.0
 11
79.5
 21
72.2
 31
0.0
  0
LINE
  5
19B82
  8
DANMEN
  6
CONTINUOUS
 10
80.5
 20
69.2
 30
0.0
 11
84.0
 21
69.2
 31
0.0
  0
ARC
  5
19B83
  8
DANMEN
  6
CONTINUOUS
 10
77.5
 20
66.5
 30
0.0
 40
0.5
 50
270.000018
 51
0.0
  0
ARC
  5
19B85
  8
DANMEN
  6
CONTINUOUS
 10
80.5
 20
70.2
 30
0.0
 40
1.0
 50
180.0
 51
270.0
  0
LINE
  5
19B8B
  8
DANMEN
  6
CONTINUOUS
 10
85.0
 20
68.5
 30
0.0
 11
84.0
 21
69.2
 31
0.0
  0
LINE
  5
19B8E
  8
DANMEN
  6
CONTINUOUS
 10
78.0
 20
72.2
 30
0.0
 11
79.5
 21
72.2
 31
0.0
  0
LINE
  5
19B91
  8
DANMEN
  6
CONTINUOUS
 10
92.0
 20
69.2
 30
0.0
 11
92.0
 21
57.003636
 31
0.0
  0
ARC
  5
19B92
  8
DANMEN
  6
CONTINUOUS
 10
95.333705
 20
65.05
 30
0.0
 40
0.75
 50
270.0
 51
90.0
  0
ARC
  5
19B93
  8
DANMEN
  6
CONTINUOUS
 10
94.65
 20
63.3
 30
0.0
 40
1.0
 50
90.0
 51
180.0
  0
LINE
  5
19B94
  8
DANMEN
  6
CONTINUOUS
 10
93.65
 20
63.3
 30
0.0
 11
93.65
 21
56.579555
 31
0.0
  0
ARC
  5
19B95
  8
DANMEN
  6
CONTINUOUS
 10
92.65
 20
56.579555
 30
0.0
 40
1.0
 50
293.756476
 51
0.0
  0
LINE
  5
19B97
  8
DANMEN
  6
CONTINUOUS
 10
94.65
 20
64.3
 30
0.0
 11
95.333705
 21
64.3
 31
0.0
  0
ARC
  5
19B98
  8
DANMEN
  6
CONTINUOUS
 10
94.7
 20
68.3
 30
0.0
 40
1.0
 50
90.0
 51
180.0
  0
ARC
  5
19B99
  8
DANMEN
  6
CONTINUOUS
 10
94.7
 20
66.8
 30
0.0
 40
1.0
 50
180.0
 51
270.0
  0
LINE
  5
19B9A
  8
DANMEN
  6
CONTINUOUS
 10
93.7
 20
66.8
 30
0.0
 11
93.7
 21
68.3
 31
0.0
  0
LINE
  5
19B9F
  8
DANMEN
  6
CONTINUOUS
 10
92.0
 20
69.2
 30
0.0
 11
91.0
 21
68.5
 31
0.0
  0
LINE
  5
19BA0
  8
DANMEN
  6
CONTINUOUS
 10
98.7
 20
67.666295
 30
0.0
 11
98.7
 21
71.35
 31
0.0
  0
ARC
  5
19BA1
  8
DANMEN
  6
CONTINUOUS
 10
97.95
 20
67.666295
 30
0.0
 40
0.75
 50
180.0
 51
0.0
  0
LINE
  5
19BA2
  8
DANMEN
  6
CONTINUOUS
 10
94.7
 20
69.3
 30
0.0
 11
96.2
 21
69.3
 31
0.0
  0
LINE
  5
19BA3
  8
DANMEN
  6
CONTINUOUS
 10
97.2
 20
67.666295
 30
0.0
 11
97.2
 21
68.3
 31
0.0
  0
LINE
  5
19BA4
  8
DANMEN
  6
CONTINUOUS
 10
94.7
 20
65.8
 30
0.0
 11
95.333705
 21
65.8
 31
0.0
  0
ARC
  5
19BA5
  8
DANMEN
  6
CONTINUOUS
 10
96.2
 20
68.3
 30
0.0
 40
1.0
 50
0.0
 51
90.0
  0
LINE
  5
19BA7
  8
DANMEN
  6
CONTINUOUS
 10
97.05
 20
71.0
 30
0.0
 11
97.05
 21
72.5
 31
0.0
  0
ARC
  5
19BA8
  8
DANMEN
  6
CONTINUOUS
 10
97.55
 20
72.5
 30
0.0
 40
0.5
 50
90.0
 51
180.0
  0
LINE
  5
19BAB
  8
DANMEN
  6
CONTINUOUS
 10
110.5
 20
56.5
 30
0.0
 11
110.5
 21
31.0
 31
0.0
  0
LINE
  5
19BAC
  8
DANMEN
  6
CONTINUOUS
 10
108.850006
 20
71.35
 30
0.0
 11
108.850006
 21
59.08182
 31
0.0
  0
ARC
  5
19BAD
  8
DANMEN
  6
CONTINUOUS
 10
110.0
 20
56.5
 30
0.0
 40
0.5
 50
270.0
 51
0.0
  0
LINE
  5
19BAE
  8
DANMEN
  6
CONTINUOUS
 10
108.850006
 20
59.08182
 30
0.0
 11
105.715287
 21
57.718899
 31
0.0
  0
ARC
  5
19BAF
  8
DANMEN
  6
CONTINUOUS
 10
106.173822
 20
56.664268
 30
0.0
 40
0.5
 50
203.49856
 51
293.49856
  0
LINE
  5
19BB0
  8
DANMEN
  6
CONTINUOUS
 10
105.715287
 20
56.464905
 30
0.0
 11
105.456115
 21
57.061001
 31
0.0
  0
ARC
  5
19BB1
  8
DANMEN
  6
CONTINUOUS
 10
105.91465
 20
57.260364
 30
0.0
 40
0.5
 50
113.49856
 51
203.49856
  0
LINE
  5
19BB4
  8
DANMEN
  6
CONTINUOUS
 10
109.4
 20
56.0
 30
0.0
 11
110.0
 21
56.0
 31
0.0
  0
LINE
  5
19BB5
  8
DANMEN
  6
CONTINUOUS
 10
109.4
 20
56.759133
 30
0.0
 11
109.4
 21
56.0
 31
0.0
  0
LINE
  5
19BB7
  8
DANMEN
  6
CONTINUOUS
 10
108.700637
 20
57.217668
 30
0.0
 11
106.373185
 21
56.205733
 31
0.0
  0
ARC
  5
19BB8
  8
DANMEN
  6
CONTINUOUS
 10
108.9
 20
56.759133
 30
0.0
 40
0.5
 50
0.0
 51
113.49856
  0
LINE
  5
19BC1
  8
DANMEN
  6
CONTINUOUS
 10
97.5
 20
84.2
 30
0.0
 11
108.85
 21
84.2
 31
0.0
  0
LINE
  5
19BC2
  8
DANMEN
  6
CONTINUOUS
 10
99.5
 20
86.0
 30
0.0
 11
108.85
 21
86.0
 31
0.0
  0
LINE
  5
19BC3
  8
DANMEN
  6
CONTINUOUS
 10
108.7
 20
109.000003
 30
0.0
 11
100.5
 21
95.650005
 31
0.0
  0
LINE
  5
19BC4
  8
DANMEN
  6
CONTINUOUS
 10
106.084676
 20
109.350003
 30
0.0
 11
93.799997
 21
109.350003
 31
0.0
  0
LINE
  5
19BC5
  8
DANMEN
  6
CONTINUOUS
 10
81.15
 20
111.000003
 30
0.0
 11
107.05
 21
111.000003
 31
0.0
  0
LINE
  5
19BC6
  8
DANMEN
  6
CONTINUOUS
 10
106.510724
 20
108.588311
 30
0.0
 11
98.563599
 21
95.650005
 31
0.0
  0
LINE
  5
19BC7
  8
DANMEN
  6
CONTINUOUS
 10
81.15
 20
109.350003
 30
0.0
 11
81.15
 21
92.65
 31
0.0
  0
LINE
  5
19BC8
  8
DANMEN
  6
DASHED
 10
95.5
 20
91.0
 30
0.0
 11
83.5
 21
91.0
 31
0.0
  0
LINE
  5
19BC9
  8
DANMEN
  6
DASHED
 10
99.5
 20
92.199997
 30
0.0
 11
75.0
 21
92.199997
 31
0.0
  0
LINE
  5
19BCA
  8
DANMEN
  6
DASHED
 10
83.0
 20
86.399997
 30
0.0
 11
83.0
 21
90.5
 31
0.0
  0
ARC
  5
19BCB
  8
DANMEN
  6
DASHED
 10
81.799999
 20
87.500028
 30
0.0
 40
0.3
 50
124.343976
 51
202.988532
  0
LINE
  5
19BCC
  8
DANMEN
  6
CONTINUOUS
 10
82.0
 20
80.999996
 30
0.0
 11
82.0
 21
91.0
 31
0.0
  0
LINE
  5
19BCD
  8
DANMEN
  6
CONTINUOUS
 10
83.5
 20
91.649995
 30
0.0
 11
83.5
 21
80.499997
 31
0.0
  0
ARC
  5
19BCE
  8
DANMEN
  6
CONTINUOUS
 10
71.0
 20
79.5
 30
0.0
 40
0.5
 50
0.0
 51
89.999982
  0
LINE
  5
19BD2
  8
DANMEN
  6
CONTINUOUS
 10
69.300003
 20
80.0
 30
0.0
 11
71.0
 21
80.0
 31
0.0
  0
ARC
  5
19BD5
  8
DANMEN
  6
CONTINUOUS
 10
82.5
 20
80.999996
 30
0.0
 40
0.5
 50
180.0
 51
270.0
  0
LINE
  5
19BD6
  8
DANMEN
  6
CONTINUOUS
 10
83.5
 20
80.499997
 30
0.0
 11
82.5
 21
80.499996
 31
0.0
  0
LINE
  5
19BD9
  8
DANMEN
  6
DASHED
 10
81.523824
 20
87.382864
 30
0.0
 11
82.923825
 21
84.082833
 31
0.0
  0
LINE
  5
19BDB
  8
DANMEN
  6
DASHED
 10
83.0
 20
86.399997
 30
0.0
 11
83.492312
 21
84.26748
 31
0.0
  0
ARC
  5
19BDC
  8
DANMEN
  6
DASHED
 10
83.2
 20
84.199997
 30
0.0
 40
0.3
 50
202.988532
 51
12.999521
  0
LINE
  5
19BE1
  8
DANMEN
  6
DASHED
 10
82.0
 20
91.0
 30
0.0
 11
76.214146
 21
91.0
 31
0.0
  0
LINE
  5
19BE2
  8
DANMEN
  6
CONTINUOUS
 10
71.5
 20
91.0
 30
0.0
 11
79.5
 21
91.0
 31
0.0
  0
ARC
  5
19BE3
  8
DANMEN
  6
DASHED
 10
76.214146
 20
90.0
 30
0.0
 40
1.0
 50
89.999982
 51
135.573244
  0
LINE
  5
19BE4
  8
DANMEN
  6
DASHED
 10
75.5
 20
90.699997
 30
0.0
 11
75.0
 21
90.699997
 31
0.0
  0
LINE
  5
19BE5
  8
DANMEN
  6
DASHED
 10
74.5
 20
91.699997
 30
0.0
 11
74.5
 21
91.199997
 31
0.0
  0
ARC
  5
19BE6
  8
DANMEN
  6
DASHED
 10
75.0
 20
91.699997
 30
0.0
 40
0.5
 50
90.0
 51
180.0
  0
ARC
  5
19BE7
  8
DANMEN
  6
DASHED
 10
75.0
 20
91.199997
 30
0.0
 40
0.5
 50
180.0
 51
270.0
  0
ARC
  5
19BEC
  8
DANMEN
  6
CONTINUOUS
 10
81.5
 20
90.5
 30
0.0
 40
0.5
 50
0.0
 51
90.0
  0
LINE
  5
19BED
  8
DANMEN
  6
CONTINUOUS
 10
81.3
 20
88.0
 30
0.0
 11
82.0
 21
88.0
 31
0.0
  0
LINE
  5
19BEE
  8
DANMEN
  6
CONTINUOUS
 10
80.0
 20
91.0
 30
0.0
 11
82.0
 21
91.0
 31
0.0
  0
LINE
  5
19BEF
  8
DANMEN
  6
CONTINUOUS
 10
81.15
 20
92.65
 30
0.0
 11
82.5
 21
92.65
 31
0.0
  0
LINE
  5
19BF0
  8
DANMEN
  6
CONTINUOUS
 10
80.0
 20
91.0
 30
0.0
 11
81.5
 21
91.0
 31
0.0
  0
ARC
  5
19BF1
  8
DANMEN
  6
CONTINUOUS
 10
80.0
 20
90.5
 30
0.0
 40
0.5
 50
90.0
 51
180.0
  0
ARC
  5
19BF4
  8
DANMEN
  6
CONTINUOUS
 10
80.0
 20
91.5
 30
0.0
 40
0.5
 50
180.0
 51
270.0
  0
ARC
  5
19BF8
  8
DANMEN
  6
DASHED
 10
83.5
 20
90.5
 30
0.0
 40
0.5
 50
90.0
 51
180.0
  0
LINE
  5
19BF9
  8
DANMEN
  6
DASHED
 10
82.0
 20
91.0
 30
0.0
 11
82.0
 21
88.000035
 31
0.0
  0
LINE
  5
19BFA
  8
DANMEN
  6
DASHED
 10
82.0
 20
88.000035
 30
0.0
 11
81.630743
 21
87.747729
 31
0.0
  0
LINE
  5
19BFD
  8
DANMEN
  6
CONTINUOUS
 10
82.0
 20
90.5
 30
0.0
 11
82.0
 21
88.0
 31
0.0
  0
ARC
  5
19C00
  8
DANMEN
  6
CONTINUOUS
 10
82.5
 20
91.65
 30
0.0
 40
1.0
 50
0.0
 51
90.0
  0
LINE
  5
19C03
  8
DANMEN
  6
DASHED
 10
97.0
 20
91.0
 30
0.0
 11
97.0
 21
84.500035
 31
0.0
  0
LINE
  5
19C04
  8
DANMEN
  6
DASHED
 10
96.0
 20
82.899997
 30
0.0
 11
96.0
 21
90.5
 31
0.0
  0
LINE
  5
19C05
  8
DANMEN
  6
CONTINUOUS
 10
99.5
 20
90.0
 30
0.0
 11
99.5
 21
86.0
 31
0.0
  0
LINE
  5
19C06
  8
DANMEN
  6
CONTINUOUS
 10
97.85
 20
85.2
 30
0.0
 11
97.85
 21
88.0
 31
0.0
  0
LINE
  5
19C07
  8
DANMEN
  6
CONTINUOUS
 10
96.8
 20
89.500005
 30
0.0
 11
96.8
 21
80.999999
 31
0.0
  0
LINE
  5
19C08
  8
DANMEN
  6
CONTINUOUS
 10
95.3
 20
88.850005
 30
0.0
 11
95.3
 21
80.499999
 31
0.0
  0
LINE
  5
19C09
  8
DANMEN
  6
DASHED
 10
97.476176
 20
83.882864
 30
0.0
 11
96.076175
 21
80.582833
 31
0.0
  0
LINE
  5
19C0A
  8
DANMEN
  6
DASHED
 10
96.0
 20
82.899997
 30
0.0
 11
95.507688
 21
80.76748
 31
0.0
  0
ARC
  5
19C0B
  8
DANMEN
  6
DASHED
 10
95.8
 20
80.699997
 30
0.0
 40
0.3
 50
167.000479
 51
337.011468
  0
ARC
  5
19C0E
  8
DANMEN
  6
CONTINUOUS
 10
96.3
 20
80.999999
 30
0.0
 40
0.5
 50
270.0
 51
0.0
  0
LINE
  5
19C0F
  8
DANMEN
  6
CONTINUOUS
 10
96.3
 20
80.499999
 30
0.0
 11
95.3
 21
80.499999
 31
0.0
  0
ARC
  5
19C13
  8
DANMEN
  6
DASHED
 10
97.200001
 20
84.000028
 30
0.0
 40
0.3
 50
337.011468
 51
55.656024
  0
LINE
  5
19C14
  8
DANMEN
  6
DASHED
 10
97.0
 20
84.500035
 30
0.0
 11
97.369257
 21
84.247729
 31
0.0
  0
LINE
  5
19C18
  8
DANMEN
  6
CONTINUOUS
 10
97.5
 20
85.2
 30
0.0
 11
97.85
 21
85.2
 31
0.0
  0
ARC
  5
19C19
  8
DANMEN
  6
CONTINUOUS
 10
97.5
 20
84.7
 30
0.0
 40
0.5
 50
90.0
 51
270.0
  0
ARC
  5
19C1E
  8
DANMEN
  6
CONTINUOUS
 10
94.2
 20
89.350005
 30
0.0
 40
0.5
 50
180.0
 51
270.0
  0
ARC
  5
19C1F
  8
DANMEN
  6
CONTINUOUS
 10
94.2
 20
95.150004
 30
0.0
 40
0.5
 50
90.0
 51
180.0
  0
LINE
  5
19C20
  8
DANMEN
  6
CONTINUOUS
 10
93.7
 20
95.150004
 30
0.0
 11
93.7
 21
89.350005
 31
0.0
  0
CIRCLE
  5
19C24
  8
DANMEN
  6
CONTINUOUS
 10
97.325
 20
92.000005
 30
0.0
 40
2.0
  0
LINE
  5
19C25
  8
DANMEN
  6
CONTINUOUS
 10
99.3
 20
91.500005
 30
0.0
 11
99.3
 21
94.000005
 31
0.0
  0
LINE
  5
19C26
  8
DANMEN
  6
CONTINUOUS
 10
95.35
 20
94.000005
 30
0.0
 11
95.35
 21
90.500005
 31
0.0
  0
LINE
  5
19C27
  8
DANMEN
  6
CONTINUOUS
 10
100.5
 20
91.000005
 30
0.0
 11
100.5
 21
95.650005
 31
0.0
  0
LINE
  5
19C28
  8
DANMEN
  6
DASHED
 10
97.0
 20
91.0
 30
0.0
 11
100.0
 21
91.0
 31
0.0
  0
LINE
  5
19C29
  8
DANMEN
  6
CONTINUOUS
 10
97.5
 20
91.0
 30
0.0
 11
100.5
 21
91.0
 31
0.0
  0
CIRCLE
  5
19C2B
  8
DANMEN
  6
CONTINUOUS
 10
96.913199
 20
92.823913
 30
0.0
 40
0.1
  0
CIRCLE
  5
19C2C
  8
DANMEN
  6
CONTINUOUS
 10
95.788908
 20
92.137323
 30
0.0
 40
0.1
  0
CIRCLE
  5
19C2D
  8
DANMEN
  6
CONTINUOUS
 10
96.132203
 20
93.167208
 30
0.0
 40
0.1
  0
CIRCLE
  5
19C2E
  8
DANMEN
  6
CONTINUOUS
 10
96.552739
 20
91.630963
 30
0.0
 40
0.1
  0
CIRCLE
  5
19C2F
  8
DANMEN
  6
CONTINUOUS
 10
97.857261
 20
91.605216
 30
0.0
 40
0.1
  0
CIRCLE
  5
19C30
  8
DANMEN
  6
CONTINUOUS
 10
97.222165
 20
90.944373
 30
0.0
 40
0.1
  0
CIRCLE
  5
19C31
  8
DANMEN
  6
CONTINUOUS
 10
96.003467
 20
90.944373
 30
0.0
 40
0.1
  0
CIRCLE
  5
19C32
  8
DANMEN
  6
CONTINUOUS
 10
96.853123
 20
90.386519
 30
0.0
 40
0.1
  0
CIRCLE
  5
19C33
  8
DANMEN
  6
CONTINUOUS
 10
97.548295
 20
92.223147
 30
0.0
 40
0.1
  0
ARC
  5
19C34
  8
DANMEN
  6
DASHED
 10
95.5
 20
90.5
 30
0.0
 40
0.5
 50
0.0
 51
90.0
  0
LINE
  5
19C37
  8
DANMEN
  6
CONTINUOUS
 10
97.85
 20
88.0
 30
0.0
 11
97.0
 21
88.0
 31
0.0
  0
LINE
  5
19C38
  8
DANMEN
  6
CONTINUOUS
 10
97.0
 20
90.5
 30
0.0
 11
97.0
 21
88.0
 31
0.0
  0
ARC
  5
19C39
  8
DANMEN
  6
CONTINUOUS
 10
97.5
 20
90.5
 30
0.0
 40
0.5
 50
89.999981
 51
180.000037
  0
LINE
  5
19C3D
  8
DANMEN
  6
CONTINUOUS
 10
95.35
 20
90.500005
 30
0.0
 11
95.8
 21
90.500005
 31
0.0
  0
LINE
  5
19C3E
  8
DANMEN
  6
CONTINUOUS
 10
94.2
 20
88.850005
 30
0.0
 11
95.3
 21
88.850005
 31
0.0
  0
ARC
  5
19C3F
  8
DANMEN
  6
CONTINUOUS
 10
95.8
 20
89.500005
 30
0.0
 40
1.0
 50
0.0
 51
90.0
  0
CIRCLE
  5
19C43
  8
DANMEN
  6
CONTINUOUS
 10
98.097567
 20
93.167208
 30
0.0
 40
0.1
  0
CIRCLE
  5
19C44
  8
DANMEN
  6
CONTINUOUS
 10
98.097567
 20
93.167208
 30
0.0
 40
0.1
  0
CIRCLE
  5
19C45
  8
DANMEN
  6
CONTINUOUS
 10
98.097567
 20
93.167208
 30
0.0
 40
0.1
  0
CIRCLE
  5
19C46
  8
DANMEN
  6
CONTINUOUS
 10
98.698333
 20
92.274641
 30
0.0
 40
0.1
  0
CIRCLE
  5
19C47
  8
DANMEN
  6
CONTINUOUS
 10
98.766992
 20
91.176097
 30
0.0
 40
0.1
  0
CIRCLE
  5
19C48
  8
DANMEN
  6
CONTINUOUS
 10
98.106149
 20
90.532419
 30
0.0
 40
0.1
  0
ARC
  5
19C49
  8
DANMEN
  6
DASHED
 10
99.5
 20
91.699997
 30
0.0
 40
0.5
 50
0.0
 51
89.999982
  0
LINE
  5
19C4A
  8
DANMEN
  6
DASHED
 10
100.0
 20
91.0
 30
0.0
 11
100.0
 21
91.699997
 31
0.0
  0
LINE
  5
19C4D
  8
DANMEN
  6
CONTINUOUS
 10
100.5
 20
91.0
 30
0.0
 11
100.5
 21
90.5
 31
0.0
  0
LINE
  5
19C4F
  8
DANMEN
  6
CONTINUOUS
 10
99.5
 20
90.0
 30
0.0
 11
100.0
 21
90.0
 31
0.0
  0
ARC
  5
19C51
  8
DANMEN
  6
CONTINUOUS
 10
100.0
 20
90.5
 30
0.0
 40
0.5
 50
270.0
 51
0.0
  0
LINE
  5
19C53
  8
DANMEN
  6
CONTINUOUS
 10
100.5
 20
91.000005
 30
0.0
 11
99.8
 21
91.000005
 31
0.0
  0
ARC
  5
19C54
  8
DANMEN
  6
CONTINUOUS
 10
99.8
 20
91.500005
 30
0.0
 40
0.5
 50
180.0
 51
270.0
  0
LINE
  5
19C57
  8
DANMEN
  6
CONTINUOUS
 10
98.563599
 20
95.650005
 30
0.0
 11
94.2
 21
95.650004
 31
0.0
  0
LINE
  5
19C58
  8
DANMEN
  6
CONTINUOUS
 10
95.35
 20
94.000005
 30
0.0
 11
99.3
 21
94.000005
 31
0.0
  0
CIRCLE
  5
19C59
  8
DANMEN
  6
CONTINUOUS
 10
97.299406
 20
93.596327
 30
0.0
 40
0.1
  0
LINE
  5
19C5E
  8
DANMEN
  6
CONTINUOUS
 10
84.524999
 20
111.000001
 30
0.0
 11
99.524999
 21
111.000001
 31
0.0
  0
LINE
  5
19C5F
  8
DANMEN
  6
CONTINUOUS
 10
84.524999
 20
121.000001
 30
0.0
 11
99.524999
 21
121.000001
 31
0.0
  0
LINE
  5
19C60
  8
DANMEN
  6
CONTINUOUS
 10
99.524999
 20
121.000001
 30
0.0
 11
84.524999
 21
111.000001
 31
0.0
  0
ARC
  5
19C61
  8
DANMEN
  6
CONTINUOUS
 10
85.199993
 20
108.350003
 30
0.0
 40
1.0
 50
0.0
 51
90.0
  0
LINE
  5
19C62
  8
DANMEN
  6
CONTINUOUS
 10
85.199993
 20
109.350003
 30
0.0
 11
81.15
 21
109.350003
 31
0.0
  0
LINE
  5
19C64
  8
DANMEN
  6
CONTINUOUS
 10
84.524999
 20
111.000001
 30
0.0
 11
84.524999
 21
121.000001
 31
0.0
  0
LINE
  5
19C68
  8
DANMEN
  6
CONTINUOUS
 10
88.699997
 20
109.4
 30
0.0
 11
90.299997
 21
109.4
 31
0.0
  0
LINE
  5
19C69
  8
DANMEN
  6
CONTINUOUS
 10
86.199993
 20
107.069695
 30
0.0
 11
86.199993
 21
108.350003
 31
0.0
  0
LINE
  5
19C6A
  8
DANMEN
  6
CONTINUOUS
 10
88.399992
 20
105.800001
 30
0.0
 11
88.399992
 21
106.063069
 31
0.0
  0
ARC
  5
19C6B
  8
DANMEN
  6
CONTINUOUS
 10
88.699993
 20
107.15394
 30
0.0
 40
1.0
 50
179.999974
 51
245.375656
  0
ARC
  5
19C6C
  8
DANMEN
  6
CONTINUOUS
 10
88.199992
 20
106.063069
 30
0.0
 40
0.2
 50
359.999974
 51
65.375656
  0
LINE
  5
19C6D
  8
DANMEN
  6
CONTINUOUS
 10
88.099992
 20
105.500001
 30
0.0
 11
86.960613
 21
105.500001
 31
0.0
  0
ARC
  5
19C6E
  8
DANMEN
  6
CONTINUOUS
 10
88.099992
 20
105.800001
 30
0.0
 40
0.3
 50
269.999974
 51
359.999974
  0
LINE
  5
19C6F
  8
DANMEN
  6
CONTINUOUS
 10
87.699993
 20
107.15394
 30
0.0
 11
87.699993
 21
108.400001
 31
0.0
  0
ARC
  5
19C70
  8
DANMEN
  6
CONTINUOUS
 10
88.199993
 20
107.069694
 30
0.0
 40
2.0
 50
179.999974
 51
231.706497
  0
ARC
  5
19C71
  8
DANMEN
  6
CONTINUOUS
 10
88.699993
 20
108.4
 30
0.0
 40
1.0
 50
89.999974
 51
179.999974
  0
ARC
  5
19C73
  8
DANMEN
  6
CONTINUOUS
 10
90.799998
 20
107.069694
 30
0.0
 40
2.0
 50
308.293503
 51
0.000026
  0
LINE
  5
19C74
  8
DANMEN
  6
CONTINUOUS
 10
91.299998
 20
107.15394
 30
0.0
 11
91.299997
 21
108.400001
 31
0.0
  0
ARC
  5
19C75
  8
DANMEN
  6
CONTINUOUS
 10
90.899998
 20
105.800001
 30
0.0
 40
0.3
 50
180.000026
 51
270.000026
  0
LINE
  5
19C76
  8
DANMEN
  6
CONTINUOUS
 10
90.899999
 20
105.500001
 30
0.0
 11
92.039378
 21
105.500001
 31
0.0
  0
ARC
  5
19C77
  8
DANMEN
  6
CONTINUOUS
 10
90.799998
 20
106.063069
 30
0.0
 40
0.2
 50
114.624344
 51
180.000026
  0
ARC
  5
19C78
  8
DANMEN
  6
CONTINUOUS
 10
90.299998
 20
107.15394
 30
0.0
 40
1.0
 50
294.624344
 51
0.000026
  0
LINE
  5
19C79
  8
DANMEN
  6
CONTINUOUS
 10
90.599998
 20
105.800001
 30
0.0
 11
90.599998
 21
106.063069
 31
0.0
  0
ARC
  5
19C7A
  8
DANMEN
  6
CONTINUOUS
 10
90.299997
 20
108.4
 30
0.0
 40
1.0
 50
0.000026
 51
90.000026
  0
LINE
  5
19C7B
  8
DANMEN
  6
CONTINUOUS
 10
92.799998
 20
107.069695
 30
0.0
 11
92.799997
 21
108.350003
 31
0.0
  0
ARC
  5
19C7C
  8
DANMEN
  6
CONTINUOUS
 10
93.799997
 20
108.350003
 30
0.0
 40
1.0
 50
90.0
 51
180.0
  0
LINE
  5
19C7D
  8
DANMEN
  6
CONTINUOUS
 10
88.025
 20
120.999998
 30
0.0
 11
96.025
 21
120.999998
 31
0.0
  0
LINE
  5
19C7F
  8
DANMEN
  6
CONTINUOUS
 10
99.524999
 20
111.000001
 30
0.0
 11
99.524999
 21
121.000001
 31
0.0
  0
LINE
  5
19C83
  8
DANMEN
  6
CONTINUOUS
 10
108.963231
 20
91.019298
 30
0.0
 11
109.000009
 21
108.007745
 31
0.0
  0
LINE
  5
19C84
  8
DANMEN
  6
CONTINUOUS
 10
110.200003
 20
108.259086
 30
0.0
 11
109.667188
 21
91.524983
 31
0.0
  0
LINE
  5
19C85
  8
DANMEN
  6
CONTINUOUS
 10
108.663219
 20
91.003575
 30
0.0
 11
108.700003
 21
108.000003
 31
0.0
  0
LINE
  5
19C86
  8
DANMEN
  6
CONTINUOUS
 10
110.5
 20
91.0
 30
0.0
 11
110.5
 21
108.000137
 31
0.0
  0
LINE
  5
19C87
  8
DANMEN
  6
CONTINUOUS
 10
108.7
 20
109.000003
 30
0.0
 11
108.7
 21
86.0
 31
0.0
  0
LINE
  5
19C88
  8
DANMEN
  6
CONTINUOUS
 10
108.85
 20
90.5
 30
0.0
 11
108.85
 21
86.0
 31
0.0
  0
ARC
  5
19C8B
  8
DANMEN
  6
CONTINUOUS
 10
110.0
 20
90.5
 30
0.0
 40
0.5
 50
0.0
 51
90.0
  0
LINE
  5
19C8D
  8
DANMEN
  6
CONTINUOUS
 10
108.663219
 20
91.003575
 30
0.0
 11
109.193389
 21
91.03136
 31
0.0
  0
ARC
  5
19C91
  8
DANMEN
  6
CONTINUOUS
 10
109.167221
 20
91.530675
 30
0.0
 40
0.5
 50
273.0
 51
359.347777
  0
LINE
  5
19C94
  8
DANMEN
  6
CONTINUOUS
 10
109.35
 20
91.0
 30
0.0
 11
110.0
 21
91.0
 31
0.0
  0
ARC
  5
19C95
  8
DANMEN
  6
CONTINUOUS
 10
109.35
 20
90.5
 30
0.0
 40
0.5
 50
90.0
 51
180.0
  0
LINE
  5
19C97
  8
DANMEN
  6
CONTINUOUS
 10
108.8
 20
91.0
 30
0.0
 11
108.8
 21
92.52729
 31
0.0
  0
LINE
  5
19C9A
  8
DANMEN
  6
CONTINUOUS
 10
112.200003
 20
116.500003
 30
0.0
 11
128.700003
 21
116.500003
 31
0.0
  0
LINE
  5
19C9B
  8
DANMEN
  6
CONTINUOUS
 10
128.700003
 20
109.153615
 30
0.0
 11
110.200003
 21
108.000003
 31
0.0
  0
LINE
  5
19C9C
  8
DANMEN
  6
CONTINUOUS
 10
108.700003
 20
112.500003
 30
0.0
 11
108.700003
 21
108.000003
 31
0.0
  0
LINE
  5
19C9D
  8
DANMEN
  6
CONTINUOUS
 10
109.000003
 20
112.500003
 30
0.0
 11
109.000003
 21
107.992034
 31
0.0
  0
LINE
  5
19C9E
  8
DANMEN
  6
CONTINUOUS
 10
110.200003
 20
114.500003
 30
0.0
 11
110.200003
 21
108.000003
 31
0.0
  0
LINE
  5
19C9F
  8
DANMEN
  6
CONTINUOUS
 10
108.7
 20
111.000003
 30
0.0
 11
108.7
 21
109.000003
 31
0.0
  0
ARC
  5
19CA0
  8
DANMEN
  6
CONTINUOUS
 10
116.999997
 20
111.500003
 30
0.0
 40
0.5
 50
270.0
 51
0.0
  0
ARC
  5
19CA1
  8
DANMEN
  6
CONTINUOUS
 10
106.084676
 20
108.850003
 30
0.0
 40
0.5
 50
328.440409
 51
90.0
  0
ARC
  5
19CA9
  8
DANMEN
  6
CONTINUOUS
 10
112.200003
 20
114.500003
 30
0.0
 40
2.0
 50
89.999982
 51
180.000019
  0
LINE
  5
19CAA
  8
DANMEN
  6
CONTINUOUS
 10
108.7
 20
111.000003
 30
0.0
 11
116.999997
 21
111.000003
 31
0.0
  0
LINE
  5
19CAB
  8
DANMEN
  6
CONTINUOUS
 10
107.55
 20
113.000003
 30
0.0
 11
113.65
 21
113.000003
 31
0.0
  0
LINE
  5
19CAC
  8
DANMEN
  6
CONTINUOUS
 10
108.700003
 20
112.500003
 30
0.0
 11
110.200003
 21
112.500003
 31
0.0
  0
ARC
  5
19CB2
  8
DANMEN
  6
CONTINUOUS
 10
107.55
 20
112.500003
 30
0.0
 40
0.5
 50
90.0
 51
180.0
  0
LINE
  5
19CB5
  8
DANMEN
  6
CONTINUOUS
 10
107.05
 20
112.500003
 30
0.0
 11
107.05
 21
111.000003
 31
0.0
  0
LINE
  5
19CB6
  8
DANMEN
  6
CONTINUOUS
 10
103.0
 20
122.000003
 30
0.0
 11
102.5
 21
122.000003
 31
0.0
  0
LINE
  5
19CBA
  8
DANMEN
  6
CONTINUOUS
 10
115.3
 20
112.500003
 30
0.0
 11
117.499997
 21
112.500003
 31
0.0
  0
LINE
  5
19CBB
  8
DANMEN
  6
CONTINUOUS
 10
117.499997
 20
112.500003
 30
0.0
 11
117.499997
 21
111.500003
 31
0.0
  0
LINE
  5
19CBE
  8
DANMEN
  6
CONTINUOUS
 10
161.0
 20
86.0
 30
0.0
 11
185.0
 21
86.0
 31
0.0
  0
LINE
  5
19CBF
  8
DANMEN
  6
CONTINUOUS
 10
162.149994
 20
87.649994
 30
0.0
 11
168.850006
 21
87.649994
 31
0.0
  0
LINE
  5
19CC0
  8
DANMEN
  6
CONTINUOUS
 10
162.149994
 20
91.5
 30
0.0
 11
162.149994
 21
87.649994
 31
0.0
  0
LINE
  5
19CC1
  8
DANMEN
  6
CONTINUOUS
 10
160.5
 20
91.5
 30
0.0
 11
160.5
 21
86.5
 31
0.0
  0
ARC
  5
19CC4
  8
DANMEN
  6
CONTINUOUS
 10
161.0
 20
86.5
 30
0.0
 40
0.5
 50
180.000036
 51
269.999963
  0
ARC
  5
19CC7
  8
DANMEN
  6
CONTINUOUS
 10
161.0
 20
91.5
 30
0.0
 40
0.5
 50
89.999982
 51
180.000019
  0
ARC
  5
19CC8
  8
DANMEN
  6
CONTINUOUS
 10
161.649994
 20
91.5
 30
0.0
 40
0.5
 50
359.999981
 51
89.999982
  0
LINE
  5
19CC9
  8
DANMEN
  6
CONTINUOUS
 10
161.0
 20
92.0
 30
0.0
 11
161.649994
 21
92.0
 31
0.0
  0
LINE
  5
19CCA
  8
DANMEN
  6
CONTINUOUS
 10
170.5
 20
118.5
 30
0.0
 11
170.5
 21
87.1
 31
0.0
  0
LINE
  5
19CCB
  8
DANMEN
  6
CONTINUOUS
 10
172.5
 20
87.649994
 30
0.0
 11
185.0
 21
87.649994
 31
0.0
  0
LINE
  5
19CCC
  8
DANMEN
  6
CONTINUOUS
 10
170.5
 20
87.1
 30
0.0
 11
172.5
 21
87.1
 31
0.0
  0
LINE
  5
19CD0
  8
DANMEN
  6
CONTINUOUS
 10
172.5
 20
87.649994
 30
0.0
 11
172.5
 21
87.1
 31
0.0
  0
ARC
  5
19CD2
  8
DANMEN
  6
CONTINUOUS
 10
185.0
 20
87.149994
 30
0.0
 40
0.5
 50
359.999981
 51
89.999982
  0
ARC
  5
19CD5
  8
DANMEN
  6
CONTINUOUS
 10
185.0
 20
86.5
 30
0.0
 40
0.5
 50
270.000018
 51
359.999981
  0
LINE
  5
19CD6
  8
DANMEN
  6
CONTINUOUS
 10
185.5
 20
87.149994
 30
0.0
 11
185.5
 21
86.5
 31
0.0
  0
LINE
  5
19CD7
  8
DANMEN
  6
CONTINUOUS
 10
174.770495
 20
122.0
 30
0.0
 11
177.850004
 21
122.0
 31
0.0
  0
LINE
  5
19CD8
  8
DANMEN
  6
CONTINUOUS
 10
170.5
 20
118.5
 30
0.0
 11
183.0
 21
118.5
 31
0.0
  0
ARC
  5
19CD9
  8
DANMEN
  6
CONTINUOUS
 10
176.0
 20
121.5
 30
0.0
 40
0.5
 50
90.000037
 51
180.000019
  0
LINE
  5
19CDA
  8
DANMEN
  6
CONTINUOUS
 10
170.5
 20
122.0
 30
0.0
 11
176.0
 21
122.0
 31
0.0
  0
LINE
  5
19CDB
  8
DANMEN
  6
CONTINUOUS
 10
170.5
 20
119.6
 30
0.0
 11
175.5
 21
119.6
 31
0.0
  0
LINE
  5
19CE0
  8
DANMEN
  6
CONTINUOUS
 10
175.5
 20
121.5
 30
0.0
 11
175.5
 21
119.6
 31
0.0
  0
LINE
  5
19CE2
  8
DANMEN
  6
CONTINUOUS
 10
178.650004
 20
120.8
 30
0.0
 11
180.350003
 21
120.8
 31
0.0
  0
LINE
  5
19CE3
  8
DANMEN
  6
CONTINUOUS
 10
176.3
 20
119.6
 30
0.0
 11
182.499998
 21
119.6
 31
0.0
  0
LINE
  5
19CE4
  8
DANMEN
  6
CONTINUOUS
 10
176.850003
 20
121.0
 30
0.0
 11
177.850004
 21
121.0
 31
0.0
  0
LINE
  5
19CE5
  8
DANMEN
  6
CONTINUOUS
 10
176.650003
 20
120.8
 30
0.0
 11
176.650003
 21
120.2
 31
0.0
  0
LINE
  5
19CE6
  8
DANMEN
  6
CONTINUOUS
 10
176.850003
 20
120.0
 30
0.0
 11
177.850004
 21
120.0
 31
0.0
  0
LINE
  5
19CE8
  8
DANMEN
  6
CONTINUOUS
 10
178.650004
 20
120.8
 30
0.0
 11
177.850004
 21
120.0
 31
0.0
  0
ARC
  5
19CEB
  8
DANMEN
  6
CONTINUOUS
 10
176.850003
 20
120.2
 30
0.0
 40
0.2
 50
180.000019
 51
270.000001
  0
ARC
  5
19CED
  8
DANMEN
  6
CONTINUOUS
 10
176.850003
 20
120.8
 30
0.0
 40
0.2
 50
89.999982
 51
180.000019
  0
LINE
  5
19CEE
  8
DANMEN
  6
CONTINUOUS
 10
177.850004
 20
122.0
 30
0.0
 11
177.850004
 21
121.0
 31
0.0
  0
ARC
  5
19CF5
  8
DANMEN
  6
CONTINUOUS
 10
177.199997
 20
121.5
 30
0.0
 40
0.5
 50
359.999981
 51
90.000037
  0
LINE
  5
19CF6
  8
DANMEN
  6
CONTINUOUS
 10
176.3
 20
121.199997
 30
0.0
 11
177.699997
 21
121.199997
 31
0.0
  0
LINE
  5
19CF7
  8
DANMEN
  6
CONTINUOUS
 10
177.700001
 20
121.499999
 30
0.0
 11
177.700003
 21
121.199996
 31
0.0
  0
LINE
  5
19CF8
  8
DANMEN
  6
CONTINUOUS
 10
176.0
 20
122.0
 30
0.0
 11
177.199997
 21
122.0
 31
0.0
  0
LINE
  5
19CF9
  8
DANMEN
  6
CONTINUOUS
 10
176.3
 20
121.199997
 30
0.0
 11
176.3
 21
119.6
 31
0.0
  0
LINE
  5
19CFC
  8
DANMEN
  6
CONTINUOUS
 10
182.350004
 20
120.8
 30
0.0
 11
182.350004
 21
120.2
 31
0.0
  0
LINE
  5
19CFE
  8
DANMEN
  6
CONTINUOUS
 10
180.350003
 20
120.8
 30
0.0
 11
181.150003
 21
120.0
 31
0.0
  0
LINE
  5
19CFF
  8
DANMEN
  6
CONTINUOUS
 10
181.150003
 20
120.0
 30
0.0
 11
182.150004
 21
120.0
 31
0.0
  0
ARC
  5
19D02
  8
DANMEN
  6
CONTINUOUS
 10
182.150004
 20
120.8
 30
0.0
 40
0.2
 50
0.0
 51
89.999982
  0
ARC
  5
19D04
  8
DANMEN
  6
CONTINUOUS
 10
182.150004
 20
120.2
 30
0.0
 40
0.2
 50
270.000018
 51
0.0
  0
LINE
  5
19D05
  8
DANMEN
  6
CONTINUOUS
 10
181.150003
 20
121.0
 30
0.0
 11
182.150004
 21
121.0
 31
0.0
  0
LINE
  5
19D06
  8
DANMEN
  6
CONTINUOUS
 10
181.150003
 20
122.0
 30
0.0
 11
181.150003
 21
121.0
 31
0.0
  0
LINE
  5
19D08
  8
DANMEN
  6
CONTINUOUS
 10
181.150003
 20
122.0
 30
0.0
 11
183.500004
 21
122.0
 31
0.0
  0
ARC
  5
19D0E
  8
DANMEN
  6
CONTINUOUS
 10
181.800003
 20
121.5
 30
0.0
 40
0.5
 50
90.0
 51
179.999149
  0
ARC
  5
19D13
  8
DANMEN
  6
CONTINUOUS
 10
183.0
 20
119.0
 30
0.0
 40
0.5
 50
270.000018
 51
0.0
  0
ARC
  5
19D14
  8
DANMEN
  6
CONTINUOUS
 10
183.0
 20
121.5
 30
0.0
 40
0.5
 50
359.999981
 51
90.000037
  0
LINE
  5
19D15
  8
DANMEN
  6
CONTINUOUS
 10
181.800003
 20
122.0
 30
0.0
 11
183.0
 21
122.0
 31
0.0
  0
LINE
  5
19D16
  8
DANMEN
  6
CONTINUOUS
 10
181.300003
 20
121.199997
 30
0.0
 11
182.5
 21
121.199997
 31
0.0
  0
LINE
  5
19D17
  8
DANMEN
  6
CONTINUOUS
 10
182.499998
 20
121.199997
 30
0.0
 11
182.499998
 21
119.6
 31
0.0
  0
LINE
  5
19D18
  8
DANMEN
  6
CONTINUOUS
 10
181.300003
 20
121.500017
 30
0.0
 11
181.299998
 21
121.199998
 31
0.0
  0
LINE
  5
19D19
  8
DANMEN
  6
CONTINUOUS
 10
183.5
 20
121.5
 30
0.0
 11
183.5
 21
119.0
 31
0.0
  0
LINE
  5
19D1B
  8
DANMEN
  6
CONTINUOUS
 10
183.0
 20
118.5
 30
0.0
 11
183.5
 21
118.5
 31
0.0
  0
LINE
  5
19D1C
  8
DANMEN
  6
CONTINUOUS
 10
183.5
 20
118.5
 30
0.0
 11
183.5
 21
122.0
 31
0.0
  0
ARC
  5
19D1D
  8
DANMEN
  6
CONTINUOUS
 10
68.800003
 20
175.5
 30
0.0
 40
0.5
 50
270.000018
 51
0.0
  0
LINE
  5
19D1E
  8
DANMEN
  6
CONTINUOUS
 10
69.55
 20
222.95
 30
0.0
 11
68.350006
 21
222.95
 31
0.0
  0
LINE
  5
19D1F
  8
DANMEN
  6
CONTINUOUS
 10
76.5
 20
251.950012
 30
0.0
 11
64.0
 21
251.950012
 31
0.0
  0
LINE
  5
19D20
  8
DANMEN
  6
CONTINUOUS
 10
77.15
 20
253.600012
 30
0.0
 11
61.9
 21
253.600012
 31
0.0
  0
ARC
  5
19D21
  8
DANMEN
  6
CONTINUOUS
 10
68.800003
 20
164.5
 30
0.0
 40
0.5
 50
0.0
 51
89.999982
  0
LINE
  5
19D22
  8
DANMEN
  6
CONTINUOUS
 10
46.0
 20
260.0
 30
0.0
 11
105.0
 21
260.0
 31
0.0
  0
LINE
  5
19D23
  8
DANMEN
  6
CONTINUOUS
 10
63.5
 20
233.0
 30
0.0
 11
71.5
 21
233.0
 31
0.0
  0
LINE
  5
19D24
  8
DANMEN
  6
CONTINUOUS
 10
46.004337
 20
195.0
 30
0.0
 11
46.407182
 21
233.550678
 31
0.0
  0
LINE
  5
19D25
  8
DANMEN
  6
CONTINUOUS
 10
47.476095
 20
233.082141
 30
0.0
 11
47.5
 21
195.0
 31
0.0
  0
LINE
  5
19D26
  8
DANMEN
  6
CONTINUOUS
 10
47.176108
 20
233.062215
 30
0.0
 11
47.2
 21
195.0
 31
0.0
  0
LINE
  5
19D27
  8
DANMEN
  6
CONTINUOUS
 10
51.649994
 20
232.5
 30
0.0
 11
51.649994
 21
206.5
 31
0.0
  0
LINE
  5
19D28
  8
DANMEN
  6
CONTINUOUS
 10
67.350006
 20
221.95
 30
0.0
 11
67.350006
 21
206.5
 31
0.0
  0
LINE
  5
19D29
  8
DANMEN
  6
CONTINUOUS
 10
49.699997
 20
232.5
 30
0.0
 11
49.699997
 21
195.0
 31
0.0
  0
LINE
  5
19D2A
  8
DANMEN
  6
CONTINUOUS
 10
40.5
 20
225.5
 30
0.0
 11
40.5
 21
195.0
 31
0.0
  0
LINE
  5
19D2B
  8
DANMEN
  6
CONTINUOUS
 10
42.149994
 20
225.5
 30
0.0
 11
42.149994
 21
195.0
 31
0.0
  0
LINE
  5
19D2C
  8
DANMEN
  6
CONTINUOUS
 10
47.5
 20
233.0
 30
0.0
 11
47.5
 21
193.5
 31
0.0
  0
LINE
  5
19D2D
  8
DANMEN
  6
CONTINUOUS
 10
55.5
 20
233.0
 30
0.0
 11
55.5
 21
214.0
 31
0.0
  0
LINE
  5
19D2E
  8
DANMEN
  6
CONTINUOUS
 10
63.5
 20
233.0
 30
0.0
 11
63.5
 21
214.0
 31
0.0
  0
LINE
  5
19D2F
  8
DANMEN
  6
CONTINUOUS
 10
60.0
 20
169.0
 30
0.0
 11
60.0
 21
153.0
 31
0.0
  0
LINE
  5
19D30
  8
DANMEN
  6
CONTINUOUS
 10
53.0
 20
169.0
 30
0.0
 11
53.0
 21
153.0
 31
0.0
  0
LINE
  5
19D31
  8
DANMEN
  6
CONTINUOUS
 10
52.5
 20
169.0
 30
0.0
 11
52.5
 21
153.0
 31
0.0
  0
LINE
  5
19D32
  8
DANMEN
  6
CONTINUOUS
 10
60.5
 20
169.0
 30
0.0
 11
60.5
 21
153.0
 31
0.0
  0
LINE
  5
19D33
  8
DANMEN
  6
CONTINUOUS
 10
67.025
 20
165.0
 30
0.0
 11
67.025
 21
169.0
 31
0.0
  0
LINE
  5
19D34
  8
DANMEN
  6
CONTINUOUS
 10
45.975
 20
165.0
 30
0.0
 11
45.975
 21
169.0
 31
0.0
  0
LINE
  5
19D35
  8
DANMEN
  6
CONTINUOUS
 10
36.199997
 20
165.0
 30
0.0
 11
46.0
 21
165.0
 31
0.0
  0
ARC
  5
19D36
  8
DANMEN
  6
CONTINUOUS
 10
36.199997
 20
164.5
 30
0.0
 40
0.5
 50
89.999982
 51
180.000019
  0
LINE
  5
19D38
  8
DANMEN
  6
CONTINUOUS
 10
64.0
 20
143.0
 30
0.0
 11
64.0
 21
153.0
 31
0.0
  0
LINE
  5
19D39
  8
DANMEN
  6
CONTINUOUS
 10
49.0
 20
143.0
 30
0.0
 11
49.0
 21
153.0
 31
0.0
  0
LINE
  5
19D3A
  8
DANMEN
  6
CONTINUOUS
 10
64.0
 20
153.0
 30
0.0
 11
49.0
 21
143.0
 31
0.0
  0
LINE
  5
19D3B
  8
DANMEN
  6
CONTINUOUS
 10
37.649994
 20
163.050003
 30
0.0
 11
37.649994
 21
137.199997
 31
0.0
  0
LINE
  5
19D3C
  8
DANMEN
  6
CONTINUOUS
 10
67.350006
 20
160.0
 30
0.0
 11
67.350006
 21
143.0
 31
0.0
  0
LINE
  5
19D3D
  8
DANMEN
  6
CONTINUOUS
 10
49.0
 20
143.0
 30
0.0
 11
64.0
 21
143.0
 31
0.0
  0
LINE
  5
19D3E
  8
DANMEN
  6
CONTINUOUS
 10
44.149994
 20
141.050003
 30
0.0
 11
67.350006
 21
141.050003
 31
0.0
  0
LINE
  5
19D3F
  8
DANMEN
  6
CONTINUOUS
 10
43.199997
 20
143.0
 30
0.0
 11
67.350006
 21
143.0
 31
0.0
  0
LINE
  5
19D40
  8
DANMEN
  6
CONTINUOUS
 10
44.149994
 20
141.050003
 30
0.0
 11
44.149994
 21
137.0
 31
0.0
  0
LINE
  5
19D41
  8
DANMEN
  6
CONTINUOUS
 10
42.199997
 20
142.0
 30
0.0
 11
42.199997
 21
137.199997
 31
0.0
  0
LINE
  5
19D42
  8
DANMEN
  6
CONTINUOUS
 10
37.649994
 20
136.0
 30
0.0
 11
43.149994
 21
136.0
 31
0.0
  0
LINE
  5
19D43
  8
DANMEN
  6
CONTINUOUS
 10
37.649994
 20
137.199997
 30
0.0
 11
42.199997
 21
137.199997
 31
0.0
  0
ARC
  5
19D46
  8
DANMEN
  6
CONTINUOUS
 10
43.149994
 20
137.0
 30
0.0
 40
1.0
 50
270.000018
 51
0.0
  0
ARC
  5
19D49
  8
DANMEN
  6
CONTINUOUS
 10
43.199997
 20
142.0
 30
0.0
 40
1.0
 50
89.999982
 51
180.000019
  0
LINE
  5
19D51
  8
DANMEN
  6
CONTINUOUS
 10
49.0
 20
153.0
 30
0.0
 11
64.0
 21
153.0
 31
0.0
  0
LINE
  5
19D52
  8
DANMEN
  6
CONTINUOUS
 10
52.5
 20
153.0
 30
0.0
 11
60.5
 21
153.0
 31
0.0
  0
LINE
  5
19D54
  8
DANMEN
  6
CONTINUOUS
 10
37.649994
 20
163.050003
 30
0.0
 11
45.5
 21
163.050003
 31
0.0
  0
LINE
  5
19D56
  8
DANMEN
  6
CONTINUOUS
 10
52.5
 20
162.636039
 30
0.0
 11
49.584572
 21
165.551467
 31
0.0
  0
LINE
  5
19D57
  8
DANMEN
  6
CONTINUOUS
 10
51.014719
 20
162.0
 30
0.0
 11
47.746094
 21
165.268625
 31
0.0
  0
LINE
  5
19D58
  8
DANMEN
  6
CONTINUOUS
 10
48.893398
 20
162.0
 30
0.0
 11
46.5
 21
164.393398
 31
0.0
  0
LINE
  5
19D59
  8
DANMEN
  6
CONTINUOUS
 10
51.37868
 20
162.0
 30
0.0
 11
52.5
 21
163.12132
 31
0.0
  0
LINE
  5
19D5A
  8
DANMEN
  6
CONTINUOUS
 10
49.257359
 20
162.0
 30
0.0
 11
52.5
 21
165.242641
 31
0.0
  0
LINE
  5
19D5B
  8
DANMEN
  6
CONTINUOUS
 10
47.136039
 20
162.0
 30
0.0
 11
50.88804
 21
165.752001
 31
0.0
  0
LINE
  5
19D5C
  8
DANMEN
  6
CONTINUOUS
 10
46.5
 20
164.5
 30
0.0
 11
46.5
 21
160.0
 31
0.0
  0
LINE
  5
19D5D
  8
DANMEN
  6
CONTINUOUS
 10
46.772078
 20
162.0
 30
0.0
 11
46.5
 21
162.272078
 31
0.0
  0
ARC
  5
19D5F
  8
DANMEN
  6
CONTINUOUS
 10
46.0
 20
160.5
 30
0.0
 40
0.5
 50
180.000019
 51
270.000001
  0
LINE
  5
19D61
  8
DANMEN
  6
CONTINUOUS
 10
45.5
 20
163.050003
 30
0.0
 11
45.5
 21
160.5
 31
0.0
  0
LINE
  5
19D63
  8
DANMEN
  6
CONTINUOUS
 10
46.0
 20
160.0
 30
0.0
 11
46.5
 21
160.0
 31
0.0
  0
LINE
  5
19D64
  8
DANMEN
  6
CONTINUOUS
 10
52.500003
 20
165.999995
 30
0.0
 11
46.000002
 21
164.999995
 31
0.0
  0
LINE
  5
19D65
  8
DANMEN
  6
CONTINUOUS
 10
46.5
 20
163.485281
 30
0.0
 11
48.381025
 21
165.366306
 31
0.0
  0
ARC
  5
19D66
  8
DANMEN
  6
CONTINUOUS
 10
46.0
 20
164.5
 30
0.0
 40
0.5
 50
0.0
 51
89.999982
  0
LINE
  5
19D68
  8
DANMEN
  6
CONTINUOUS
 10
52.5
 20
164.757359
 30
0.0
 11
51.423049
 21
165.83431
 31
0.0
  0
LINE
  5
19D6A
  8
DANMEN
  6
CONTINUOUS
 10
63.742641
 20
162.0
 30
0.0
 11
60.5
 21
165.242641
 31
0.0
  0
LINE
  5
19D6B
  8
DANMEN
  6
CONTINUOUS
 10
61.62132
 20
162.0
 30
0.0
 11
60.5
 21
163.12132
 31
0.0
  0
LINE
  5
19D6C
  8
DANMEN
  6
CONTINUOUS
 10
60.5
 20
162.636039
 30
0.0
 11
63.415428
 21
165.551467
 31
0.0
  0
LINE
  5
19D6D
  8
DANMEN
  6
CONTINUOUS
 10
60.5
 20
164.757359
 30
0.0
 11
61.576951
 21
165.83431
 31
0.0
  0
LINE
  5
19D6E
  8
DANMEN
  6
CONTINUOUS
 10
60.500004
 20
166.000003
 30
0.0
 11
67.000005
 21
165.000003
 31
0.0
  0
LINE
  5
19D72
  8
DANMEN
  6
CONTINUOUS
 10
65.863961
 20
162.0
 30
0.0
 11
62.11196
 21
165.752001
 31
0.0
  0
LINE
  5
19D73
  8
DANMEN
  6
CONTINUOUS
 10
64.106602
 20
162.0
 30
0.0
 11
66.5
 21
164.393398
 31
0.0
  0
LINE
  5
19D74
  8
DANMEN
  6
CONTINUOUS
 10
61.985281
 20
162.0
 30
0.0
 11
65.253906
 21
165.268625
 31
0.0
  0
LINE
  5
19D75
  8
DANMEN
  6
CONTINUOUS
 10
66.5
 20
164.5
 30
0.0
 11
66.5
 21
160.0
 31
0.0
  0
LINE
  5
19D76
  8
DANMEN
  6
CONTINUOUS
 10
66.227922
 20
162.0
 30
0.0
 11
66.5
 21
162.272078
 31
0.0
  0
LINE
  5
19D79
  8
DANMEN
  6
CONTINUOUS
 10
66.5
 20
160.0
 30
0.0
 11
67.350006
 21
160.0
 31
0.0
  0
LINE
  5
19D7A
  8
DANMEN
  6
CONTINUOUS
 10
66.5
 20
163.485281
 30
0.0
 11
64.618975
 21
165.366306
 31
0.0
  0
ARC
  5
19D7B
  8
DANMEN
  6
CONTINUOUS
 10
67.0
 20
164.5
 30
0.0
 40
0.5
 50
89.999982
 51
180.000019
  0
LINE
  5
19D7D
  8
DANMEN
  6
CONTINUOUS
 10
67.0
 20
165.0
 30
0.0
 11
68.800003
 21
165.0
 31
0.0
  0
LINE
  5
19D7E
  8
DANMEN
  6
CONTINUOUS
 10
47.5
 20
193.5
 30
0.0
 11
33.200005
 21
193.5
 31
0.0
  0
LINE
  5
19D7F
  8
DANMEN
  6
CONTINUOUS
 10
47.2
 20
195.0
 30
0.0
 11
34.200005
 21
195.0
 31
0.0
  0
LINE
  5
19D80
  8
DANMEN
  6
CONTINUOUS
 10
34.5
 20
195.0
 30
0.0
 11
49.699997
 21
195.0
 31
0.0
  0
LINE
  5
19D81
  8
DANMEN
  6
CONTINUOUS
 10
36.199997
 20
175.0
 30
0.0
 11
46.0
 21
175.0
 31
0.0
  0
LINE
  5
19D82
  8
DANMEN
  6
CONTINUOUS
 10
35.699997
 20
193.5
 30
0.0
 11
35.699997
 21
175.5
 31
0.0
  0
LINE
  5
19D83
  8
DANMEN
  6
CONTINUOUS
 10
33.5
 20
193.5
 30
0.0
 11
33.5
 21
171.0
 31
0.0
  0
ARC
  5
19D84
  8
DANMEN
  6
CONTINUOUS
 10
36.199997
 20
175.5
 30
0.0
 40
0.5
 50
180.000019
 51
270.000001
  0
LINE
  5
19D87
  8
DANMEN
  6
CONTINUOUS
 10
33.200005
 20
193.5
 30
0.0
 11
33.200005
 21
194.0
 31
0.0
  0
ARC
  5
19D89
  8
DANMEN
  6
CONTINUOUS
 10
34.200005
 20
194.0
 30
0.0
 40
1.0
 50
90.0
 51
180.0
  0
ARC
  5
19D8B
  8
DANMEN
  6
CONTINUOUS
 10
34.5
 20
194.0
 30
0.0
 40
1.0
 50
89.999982
 51
180.000019
  0
LINE
  5
19D8F
  8
DANMEN
  6
CONTINUOUS
 10
33.5
 20
193.5
 30
0.0
 11
35.699997
 21
193.5
 31
0.0
  0
LINE
  5
19D90
  8
DANMEN
  6
CONTINUOUS
 10
33.5
 20
194.0
 30
0.0
 11
33.5
 21
193.5
 31
0.0
  0
LINE
  5
19D91
  8
DANMEN
  6
CONTINUOUS
 10
67.350006
 20
193.050003
 30
0.0
 11
67.350006
 21
180.0
 31
0.0
  0
LINE
  5
19D92
  8
DANMEN
  6
CONTINUOUS
 10
37.649994
 20
193.050003
 30
0.0
 11
37.649994
 21
176.95
 31
0.0
  0
LINE
  5
19D93
  8
DANMEN
  6
CONTINUOUS
 10
52.5
 20
187.0
 30
0.0
 11
60.5
 21
187.0
 31
0.0
  0
LINE
  5
19D94
  8
DANMEN
  6
CONTINUOUS
 10
52.5
 20
187.0
 30
0.0
 11
52.5
 21
171.0
 31
0.0
  0
LINE
  5
19D95
  8
DANMEN
  6
CONTINUOUS
 10
37.649994
 20
176.95
 30
0.0
 11
45.5
 21
176.95
 31
0.0
  0
LINE
  5
19D97
  8
DANMEN
  6
CONTINUOUS
 10
50.88804
 20
174.247999
 30
0.0
 11
47.136039
 21
178.0
 31
0.0
  0
LINE
  5
19D98
  8
DANMEN
  6
CONTINUOUS
 10
48.381025
 20
174.633694
 30
0.0
 11
46.5
 21
176.514719
 31
0.0
  0
LINE
  5
19D99
  8
DANMEN
  6
CONTINUOUS
 10
51.423049
 20
174.16569
 30
0.0
 11
52.5
 21
175.242641
 31
0.0
  0
LINE
  5
19D9A
  8
DANMEN
  6
CONTINUOUS
 10
49.584572
 20
174.448533
 30
0.0
 11
52.5
 21
177.363961
 31
0.0
  0
LINE
  5
19D9B
  8
DANMEN
  6
CONTINUOUS
 10
52.500003
 20
174.000005
 30
0.0
 11
46.000002
 21
175.000005
 31
0.0
  0
LINE
  5
19D9C
  8
DANMEN
  6
CONTINUOUS
 10
45.975
 20
171.0
 30
0.0
 11
45.975
 21
174.923082
 31
0.0
  0
LINE
  5
19D9D
  8
DANMEN
  6
CONTINUOUS
 10
47.746094
 20
174.731375
 30
0.0
 11
51.014719
 21
178.0
 31
0.0
  0
LINE
  5
19D9E
  8
DANMEN
  6
CONTINUOUS
 10
46.5
 20
175.606602
 30
0.0
 11
48.893398
 21
178.0
 31
0.0
  0
LINE
  5
19D9F
  8
DANMEN
  6
CONTINUOUS
 10
46.5
 20
177.727922
 30
0.0
 11
46.772078
 21
178.0
 31
0.0
  0
ARC
  5
19DA1
  8
DANMEN
  6
CONTINUOUS
 10
46.0
 20
179.5
 30
0.0
 40
0.5
 50
89.999982
 51
180.000019
  0
LINE
  5
19DA3
  8
DANMEN
  6
CONTINUOUS
 10
45.5
 20
179.5
 30
0.0
 11
45.5
 21
176.95
 31
0.0
  0
ARC
  5
19DA4
  8
DANMEN
  6
CONTINUOUS
 10
46.0
 20
175.5
 30
0.0
 40
0.5
 50
270.000018
 51
0.0
  0
LINE
  5
19DA7
  8
DANMEN
  6
CONTINUOUS
 10
46.0
 20
180.0
 30
0.0
 11
46.5
 21
180.0
 31
0.0
  0
LINE
  5
19DA8
  8
DANMEN
  6
CONTINUOUS
 10
46.5
 20
180.0
 30
0.0
 11
46.5
 21
175.5
 31
0.0
  0
LINE
  5
19DA9
  8
DANMEN
  6
CONTINUOUS
 10
52.5
 20
176.87868
 30
0.0
 11
51.37868
 21
178.0
 31
0.0
  0
LINE
  5
19DAA
  8
DANMEN
  6
CONTINUOUS
 10
52.5
 20
174.757359
 30
0.0
 11
49.257359
 21
178.0
 31
0.0
  0
LINE
  5
19DAB
  8
DANMEN
  6
CONTINUOUS
 10
60.0
 20
187.0
 30
0.0
 11
60.0
 21
171.0
 31
0.0
  0
LINE
  5
19DAC
  8
DANMEN
  6
CONTINUOUS
 10
53.0
 20
187.0
 30
0.0
 11
53.0
 21
171.0
 31
0.0
  0
LINE
  5
19DAD
  8
DANMEN
  6
CONTINUOUS
 10
60.5
 20
187.0
 30
0.0
 11
60.5
 21
171.0
 31
0.0
  0
LINE
  5
19DAE
  8
DANMEN
  6
CONTINUOUS
 10
63.415428
 20
174.448533
 30
0.0
 11
60.5
 21
177.363961
 31
0.0
  0
LINE
  5
19DAF
  8
DANMEN
  6
CONTINUOUS
 10
61.576951
 20
174.16569
 30
0.0
 11
60.5
 21
175.242641
 31
0.0
  0
LINE
  5
19DB0
  8
DANMEN
  6
CONTINUOUS
 10
60.5
 20
174.757359
 30
0.0
 11
63.742641
 21
178.0
 31
0.0
  0
LINE
  5
19DB1
  8
DANMEN
  6
CONTINUOUS
 10
60.5
 20
176.87868
 30
0.0
 11
61.62132
 21
178.0
 31
0.0
  0
LINE
  5
19DB2
  8
DANMEN
  6
CONTINUOUS
 10
60.500004
 20
173.999997
 30
0.0
 11
67.000005
 21
174.999997
 31
0.0
  0
LINE
  5
19DB5
  8
DANMEN
  6
CONTINUOUS
 10
64.618975
 20
174.633694
 30
0.0
 11
66.5
 21
176.514719
 31
0.0
  0
LINE
  5
19DB6
  8
DANMEN
  6
CONTINUOUS
 10
62.11196
 20
174.247999
 30
0.0
 11
65.863961
 21
178.0
 31
0.0
  0
LINE
  5
19DB7
  8
DANMEN
  6
CONTINUOUS
 10
67.025
 20
174.923073
 30
0.0
 11
67.025
 21
171.0
 31
0.0
  0
LINE
  5
19DB8
  8
DANMEN
  6
CONTINUOUS
 10
66.5
 20
175.606602
 30
0.0
 11
64.106602
 21
178.0
 31
0.0
  0
LINE
  5
19DB9
  8
DANMEN
  6
CONTINUOUS
 10
65.253906
 20
174.731375
 30
0.0
 11
61.985281
 21
178.0
 31
0.0
  0
LINE
  5
19DBA
  8
DANMEN
  6
CONTINUOUS
 10
66.5
 20
177.727922
 30
0.0
 11
66.227922
 21
178.0
 31
0.0
  0
ARC
  5
19DBD
  8
DANMEN
  6
CONTINUOUS
 10
67.0
 20
175.5
 30
0.0
 40
0.5
 50
180.000019
 51
270.000001
  0
LINE
  5
19DBF
  8
DANMEN
  6
CONTINUOUS
 10
67.0
 20
175.0
 30
0.0
 11
68.800003
 21
175.0
 31
0.0
  0
LINE
  5
19DC0
  8
DANMEN
  6
CONTINUOUS
 10
66.5
 20
180.0
 30
0.0
 11
67.350006
 21
180.0
 31
0.0
  0
LINE
  5
19DC1
  8
DANMEN
  6
CONTINUOUS
 10
66.5
 20
180.0
 30
0.0
 11
66.5
 21
175.5
 31
0.0
  0
LINE
  5
19DC2
  8
DANMEN
  6
CONTINUOUS
 10
51.649994
 20
204.550003
 30
0.0
 11
55.199997
 21
204.550003
 31
0.0
  0
LINE
  5
19DC3
  8
DANMEN
  6
CONTINUOUS
 10
51.649994
 20
195.0
 30
0.0
 11
67.350006
 21
195.0
 31
0.0
  0
LINE
  5
19DC4
  8
DANMEN
  6
CONTINUOUS
 10
37.649994
 20
193.050003
 30
0.0
 11
67.350006
 21
193.050003
 31
0.0
  0
LINE
  5
19DC5
  8
DANMEN
  6
CONTINUOUS
 10
51.649994
 20
206.5
 30
0.0
 11
67.350006
 21
206.5
 31
0.0
  0
LINE
  5
19DC6
  8
DANMEN
  6
CONTINUOUS
 10
51.649994
 20
204.550003
 30
0.0
 11
51.649994
 21
195.0
 31
0.0
  0
LINE
  5
19DC8
  8
DANMEN
  6
CONTINUOUS
 10
47.5
 20
193.5
 30
0.0
 11
47.5
 21
195.0
 31
0.0
  0
LINE
  5
19DCA
  8
DANMEN
  6
CONTINUOUS
 10
47.2
 20
193.5
 30
0.0
 11
47.2
 21
195.0
 31
0.0
  0
LINE
  5
19DD3
  8
DANMEN
  6
CONTINUOUS
 10
67.350006
 20
204.550003
 30
0.0
 11
67.350006
 21
195.0
 31
0.0
  0
LINE
  5
19DD4
  8
DANMEN
  6
CONTINUOUS
 10
61.3
 20
202.553939
 30
0.0
 11
61.3
 21
203.8
 31
0.0
  0
LINE
  5
19DD5
  8
DANMEN
  6
CONTINUOUS
 10
57.7
 20
202.553939
 30
0.0
 11
57.7
 21
203.8
 31
0.0
  0
ARC
  5
19DD6
  8
DANMEN
  6
CONTINUOUS
 10
55.2
 20
203.550003
 30
0.0
 40
1.0
 50
0.0
 51
90.0
  0
ARC
  5
19DD7
  8
DANMEN
  6
CONTINUOUS
 10
63.8
 20
203.550003
 30
0.0
 40
1.0
 50
90.0
 51
180.0
  0
LINE
  5
19DD8
  8
DANMEN
  6
CONTINUOUS
 10
62.039379
 20
200.9
 30
0.0
 11
60.9
 21
200.9
 31
0.0
  0
ARC
  5
19DD9
  8
DANMEN
  6
CONTINUOUS
 10
60.3
 20
202.553939
 30
0.0
 40
1.0
 50
294.624318
 51
0.0
  0
ARC
  5
19DDA
  8
DANMEN
  6
CONTINUOUS
 10
58.2
 20
202.469694
 30
0.0
 40
2.0
 50
180.0
 51
231.706523
  0
LINE
  5
19DDB
  8
DANMEN
  6
CONTINUOUS
 10
56.2
 20
202.469694
 30
0.0
 11
56.2
 21
203.550003
 31
0.0
  0
ARC
  5
19DDD
  8
DANMEN
  6
CONTINUOUS
 10
60.9
 20
201.2
 30
0.0
 40
0.3
 50
180.0
 51
270.0
  0
ARC
  5
19DDE
  8
DANMEN
  6
CONTINUOUS
 10
58.1
 20
201.2
 30
0.0
 40
0.3
 50
270.0
 51
0.0
  0
LINE
  5
19DDF
  8
DANMEN
  6
CONTINUOUS
 10
58.1
 20
200.9
 30
0.0
 11
56.960621
 21
200.9
 31
0.0
  0
LINE
  5
19DE2
  8
DANMEN
  6
CONTINUOUS
 10
60.6
 20
201.2
 30
0.0
 11
60.6
 21
201.463068
 31
0.0
  0
ARC
  5
19DE3
  8
DANMEN
  6
CONTINUOUS
 10
60.8
 20
201.463068
 30
0.0
 40
0.2
 50
114.624318
 51
180.0
  0
ARC
  5
19DE4
  8
DANMEN
  6
CONTINUOUS
 10
58.2
 20
201.463068
 30
0.0
 40
0.2
 50
0.0
 51
65.375682
  0
ARC
  5
19DE5
  8
DANMEN
  6
CONTINUOUS
 10
58.7
 20
202.553939
 30
0.0
 40
1.0
 50
180.0
 51
245.375682
  0
LINE
  5
19DE6
  8
DANMEN
  6
CONTINUOUS
 10
58.4
 20
201.2
 30
0.0
 11
58.4
 21
201.463068
 31
0.0
  0
ARC
  5
19DE9
  8
DANMEN
  6
CONTINUOUS
 10
60.8
 20
202.469694
 30
0.0
 40
2.0
 50
308.293477
 51
0.0
  0
LINE
  5
19DEA
  8
DANMEN
  6
CONTINUOUS
 10
62.8
 20
202.469694
 30
0.0
 11
62.8
 21
203.550003
 31
0.0
  0
ARC
  5
19DEB
  8
DANMEN
  6
CONTINUOUS
 10
60.3
 20
203.8
 30
0.0
 40
1.0
 50
0.0
 51
90.0
  0
ARC
  5
19DEC
  8
DANMEN
  6
CONTINUOUS
 10
59.5
 20
214.0
 30
0.0
 40
4.0
 50
180.000019
 51
359.999983
  0
LINE
  5
19DEE
  8
DANMEN
  6
CONTINUOUS
 10
60.3
 20
204.8
 30
0.0
 11
58.7
 21
204.8
 31
0.0
  0
ARC
  5
19DEF
  8
DANMEN
  6
CONTINUOUS
 10
58.7
 20
203.8
 30
0.0
 40
1.0
 50
90.0
 51
180.0
  0
LINE
  5
19DF0
  8
DANMEN
  6
CONTINUOUS
 10
63.800003
 20
204.550003
 30
0.0
 11
67.350006
 21
204.550003
 31
0.0
  0
LINE
  5
19DF4
  8
DANMEN
  6
CONTINUOUS
 10
40.5
 20
259.5
 30
0.0
 11
40.5
 21
225.5
 31
0.0
  0
LINE
  5
19DF5
  8
DANMEN
  6
CONTINUOUS
 10
42.149994
 20
248.0
 30
0.0
 11
42.149994
 21
225.5
 31
0.0
  0
LINE
  5
19DF6
  8
DANMEN
  6
CONTINUOUS
 10
60.75
 20
248.0
 30
0.0
 11
60.75
 21
227.061553
 31
0.0
  0
LINE
  5
19DF7
  8
DANMEN
  6
CONTINUOUS
 10
59.1
 20
248.0
 30
0.0
 11
59.1
 21
237.101833
 31
0.0
  0
LINE
  5
19DF8
  8
DANMEN
  6
CONTINUOUS
 10
47.5
 20
233.0
 30
0.0
 11
55.5
 21
233.0
 31
0.0
  0
ARC
  5
19DF9
  8
DANMEN
  6
CONTINUOUS
 10
41.0
 20
225.5
 30
0.0
 40
0.5
 50
180.000019
 51
270.000001
  0
LINE
  5
19DFA
  8
DANMEN
  6
CONTINUOUS
 10
41.0
 20
225.0
 30
0.0
 11
41.649994
 21
225.0
 31
0.0
  0
ARC
  5
19DFB
  8
DANMEN
  6
CONTINUOUS
 10
41.649994
 20
225.5
 30
0.0
 40
0.5
 50
270.000018
 51
0.0
  0
LINE
  5
19DFC
  8
DANMEN
  6
CONTINUOUS
 10
49.604246
 20
231.219085
 30
0.0
 11
49.471698
 21
233.214688
 31
0.0
  0
LINE
  5
19DFD
  8
DANMEN
  6
CONTINUOUS
 10
50.602047
 20
231.285359
 30
0.0
 11
50.436363
 21
233.779863
 31
0.0
  0
ARC
  5
19DFE
  8
DANMEN
  6
CONTINUOUS
 10
50.199997
 20
232.5
 30
0.0
 40
0.5
 50
90.0
 51
180.0
  0
ARC
  5
19DFF
  8
DANMEN
  6
CONTINUOUS
 10
51.149994
 20
232.5
 30
0.0
 40
0.5
 50
0.0
 51
90.0
  0
LINE
  5
19E03
  8
DANMEN
  6
CONTINUOUS
 10
49.537972
 20
232.216887
 30
0.0
 11
50.535774
 21
232.283161
 31
0.0
  0
ARC
  5
19E06
  8
DANMEN
  6
CONTINUOUS
 10
50.103147
 20
231.252222
 30
0.0
 40
0.5
 50
183.8
 51
3.8
  0
LINE
  5
19E07
  8
DANMEN
  6
CONTINUOUS
 10
49.904325
 20
234.245627
 30
0.0
 11
46.874018
 21
234.044354
 31
0.0
  0
LINE
  5
19E08
  8
DANMEN
  6
CONTINUOUS
 10
50.4695
 20
233.280962
 30
0.0
 11
47.176108
 21
233.062215
 31
0.0
  0
ARC
  5
19E0A
  8
DANMEN
  6
CONTINUOUS
 10
46.907155
 20
233.545453
 30
0.0
 40
0.5
 50
93.8
 51
179.401295
  0
ARC
  5
19E0F
  8
DANMEN
  6
CONTINUOUS
 10
49.937462
 20
233.746726
 30
0.0
 40
0.5
 50
3.8
 51
93.8
  0
LINE
  5
19E11
  8
DANMEN
  6
CONTINUOUS
 10
50.199997
 20
233.0
 30
0.0
 11
51.149994
 21
233.0
 31
0.0
  0
LINE
  5
19E14
  8
DANMEN
  6
CONTINUOUS
 10
60.735071
 20
226.940285
 30
0.0
 11
60.344683
 21
225.378732
 31
0.0
  0
LINE
  5
19E15
  8
DANMEN
  6
CONTINUOUS
 10
58.655317
 20
225.378732
 30
0.0
 11
58.264929
 21
226.940285
 31
0.0
  0
LINE
  5
19E16
  8
DANMEN
  6
CONTINUOUS
 10
59.140388
 20
225.0
 30
0.0
 11
59.859612
 21
225.0
 31
0.0
  0
ARC
  5
19E17
  8
DANMEN
  6
CONTINUOUS
 10
59.140388
 20
225.5
 30
0.0
 40
0.5
 50
194.036243
 51
270.0
  0
ARC
  5
19E18
  8
DANMEN
  6
CONTINUOUS
 10
59.859612
 20
225.5
 30
0.0
 40
0.5
 50
270.0
 51
345.963757
  0
ARC
  5
19E19
  8
DANMEN
  6
CONTINUOUS
 10
68.350006
 20
221.95
 30
0.0
 40
1.0
 50
90.0
 51
180.0
  0
LINE
  5
19E1B
  8
DANMEN
  6
CONTINUOUS
 10
58.25
 20
234.898149
 30
0.0
 11
58.25
 21
227.061553
 31
0.0
  0
ARC
  5
19E1C
  8
DANMEN
  6
CONTINUOUS
 10
58.75
 20
227.061553
 30
0.0
 40
0.5
 50
180.0
 51
194.036243
  0
ARC
  5
19E1D
  8
DANMEN
  6
CONTINUOUS
 10
60.25
 20
227.061553
 30
0.0
 40
0.5
 50
345.963757
 51
0.0
  0
LINE
  5
19E1E
  8
DANMEN
  6
CONTINUOUS
 10
59.060165
 20
236.906263
 30
0.0
 11
58.289835
 21
235.09372
 31
0.0
  0
ARC
  5
19E1F
  8
DANMEN
  6
CONTINUOUS
 10
58.6
 20
237.101833
 30
0.0
 40
0.5
 50
336.974508
 51
0.0
  0
ARC
  5
19E20
  8
DANMEN
  6
CONTINUOUS
 10
58.75
 20
234.898149
 30
0.0
 40
0.5
 50
156.974508
 51
180.0
  0
LINE
  5
19E21
  8
DANMEN
  6
CONTINUOUS
 10
42.149994
 20
248.0
 30
0.0
 11
59.1
 21
248.0
 31
0.0
  0
LINE
  5
19E22
  8
DANMEN
  6
CONTINUOUS
 10
42.149994
 20
249.649994
 30
0.0
 11
56.199997
 21
249.649994
 31
0.0
  0
LINE
  5
19E23
  8
DANMEN
  6
CONTINUOUS
 10
42.149994
 20
258.350006
 30
0.0
 11
42.149994
 21
249.649994
 31
0.0
  0
LINE
  5
19E24
  8
DANMEN
  6
CONTINUOUS
 10
41.0
 20
260.0
 30
0.0
 11
46.0
 21
260.0
 31
0.0
  0
LINE
  5
19E25
  8
DANMEN
  6
CONTINUOUS
 10
42.149994
 20
258.350006
 30
0.0
 11
46.0
 21
258.350006
 31
0.0
  0
ARC
  5
19E26
  8
DANMEN
  6
CONTINUOUS
 10
41.0
 20
259.5
 30
0.0
 40
0.5
 50
89.999982
 51
180.000019
  0
LINE
  5
19E27
  8
DANMEN
  6
CONTINUOUS
 10
46.5
 20
259.5
 30
0.0
 11
46.5
 21
258.850006
 31
0.0
  0
ARC
  5
19E28
  8
DANMEN
  6
CONTINUOUS
 10
46.0
 20
258.850006
 30
0.0
 40
0.5
 50
270.000018
 51
0.0
  0
ARC
  5
19E29
  8
DANMEN
  6
CONTINUOUS
 10
46.0
 20
259.5
 30
0.0
 40
0.5
 50
0.0
 51
89.999982
  0
LINE
  5
19E2A
  8
DANMEN
  6
CONTINUOUS
 10
64.0
 20
251.950012
 30
0.0
 11
64.0
 21
248.8
 31
0.0
  0
ARC
  5
19E2B
  8
DANMEN
  6
CONTINUOUS
 10
59.7
 20
250.7
 30
0.0
 40
1.0
 50
180.0
 51
270.0
  0
ARC
  5
19E2C
  8
DANMEN
  6
CONTINUOUS
 10
61.3
 20
250.7
 30
0.0
 40
1.0
 50
270.0
 51
0.0
  0
ARC
  5
19E2D
  8
DANMEN
  6
CONTINUOUS
 10
56.2
 20
250.649994
 30
0.0
 40
1.0
 50
270.0
 51
0.0
  0
LINE
  5
19E2E
  8
DANMEN
  6
CONTINUOUS
 10
60.75
 20
248.0
 30
0.0
 11
65.0
 21
248.0
 31
0.0
  0
LINE
  5
19E2F
  8
DANMEN
  6
CONTINUOUS
 10
61.3
 20
249.7
 30
0.0
 11
59.7
 21
249.7
 31
0.0
  0
LINE
  5
19E30
  8
DANMEN
  6
CONTINUOUS
 10
64.0
 20
248.8
 30
0.0
 11
65.5
 21
248.8
 31
0.0
  0
ARC
  5
19E31
  8
DANMEN
  6
CONTINUOUS
 10
65.0
 20
248.5
 30
0.0
 40
0.5
 50
270.000018
 51
0.0
  0
LINE
  5
19E33
  8
DANMEN
  6
CONTINUOUS
 10
65.5
 20
248.8
 30
0.0
 11
65.5
 21
248.5
 31
0.0
  0
ARC
  5
19E34
  8
DANMEN
  6
CONTINUOUS
 10
59.1
 20
253.3
 30
0.0
 40
0.3
 50
0.0
 51
90.0
  0
LINE
  5
19E35
  8
DANMEN
  6
CONTINUOUS
 10
59.1
 20
253.6
 30
0.0
 11
57.960621
 21
253.6
 31
0.0
  0
LINE
  5
19E36
  8
DANMEN
  6
CONTINUOUS
 10
58.7
 20
251.946061
 30
0.0
 11
58.7
 21
250.7
 31
0.0
  0
LINE
  5
19E37
  8
DANMEN
  6
CONTINUOUS
 10
57.2
 20
252.030306
 30
0.0
 11
57.2
 21
250.649994
 31
0.0
  0
ARC
  5
19E38
  8
DANMEN
  6
CONTINUOUS
 10
59.2
 20
252.030306
 30
0.0
 40
2.0
 50
128.293477
 51
180.0
  0
ARC
  5
19E39
  8
DANMEN
  6
CONTINUOUS
 10
59.2
 20
253.036932
 30
0.0
 40
0.2
 50
294.624318
 51
0.0
  0
ARC
  5
19E3A
  8
DANMEN
  6
CONTINUOUS
 10
59.7
 20
251.946061
 30
0.0
 40
1.0
 50
114.624318
 51
180.0
  0
LINE
  5
19E3B
  8
DANMEN
  6
CONTINUOUS
 10
59.4
 20
253.3
 30
0.0
 11
59.4
 21
253.036932
 31
0.0
  0
LINE
  5
19E3C
  8
DANMEN
  6
CONTINUOUS
 10
62.3
 20
251.946061
 30
0.0
 11
62.3
 21
250.7
 31
0.0
  0
LINE
  5
19E3D
  8
DANMEN
  6
CONTINUOUS
 10
61.6
 20
253.300012
 30
0.0
 11
61.6
 21
253.036932
 31
0.0
  0
ARC
  5
19E3E
  8
DANMEN
  6
CONTINUOUS
 10
61.3
 20
251.946061
 30
0.0
 40
1.0
 50
0.0
 51
65.375682
  0
ARC
  5
19E3F
  8
DANMEN
  6
CONTINUOUS
 10
61.8
 20
253.036932
 30
0.0
 40
0.2
 50
180.0
 51
245.375682
  0
ARC
  5
19E40
  8
DANMEN
  6
CONTINUOUS
 10
61.9
 20
253.300012
 30
0.0
 40
0.3
 50
90.0
 51
180.0
  0
LINE
  5
19E41
  8
DANMEN
  6
CONTINUOUS
 10
108.61785
 20
224.995322
 30
0.0
 11
108.7
 21
212.999997
 31
0.0
  0
LINE
  5
19E42
  8
DANMEN
  6
CONTINUOUS
 10
109.623338
 20
224.451912
 30
0.0
 11
110.187844
 21
213.000834
 31
0.0
  0
LINE
  5
19E43
  8
DANMEN
  6
CONTINUOUS
 10
108.917964
 20
224.963778
 30
0.0
 11
109.000056
 21
212.984777
 31
0.0
  0
LINE
  5
19E44
  8
DANMEN
  6
CONTINUOUS
 10
108.7
 20
209.999997
 30
0.0
 11
108.7
 21
224.499997
 31
0.0
  0
LINE
  5
19E45
  8
DANMEN
  6
CONTINUOUS
 10
79.5
 20
206.999997
 30
0.0
 11
79.5
 21
224.5
 31
0.0
  0
LINE
  5
19E46
  8
DANMEN
  6
CONTINUOUS
 10
69.300003
 20
221.0
 30
0.0
 11
69.300003
 21
175.5
 31
0.0
  0
LINE
  5
19E47
  8
DANMEN
  6
CONTINUOUS
 10
110.5
 20
210.149997
 30
0.0
 11
110.5
 21
225.0
 31
0.0
  0
LINE
  5
19E48
  8
DANMEN
  6
CONTINUOUS
 10
71.5
 20
233.0
 30
0.0
 11
71.5
 21
171.0
 31
0.0
  0
LINE
  5
19E49
  8
DANMEN
  6
DASHED
 10
77.0
 20
225.0
 30
0.0
 11
77.0
 21
171.0
 31
0.0
  0
LINE
  5
19E4A
  8
DANMEN
  6
CONTINUOUS
 10
74.0
 20
225.0
 30
0.0
 11
74.0
 21
171.0
 31
0.0
  0
LINE
  5
19E4B
  8
DANMEN
  6
CONTINUOUS
 10
115.3
 20
169.0
 30
0.0
 11
115.3
 21
132.500001
 31
0.0
  0
LINE
  5
19E4C
  8
DANMEN
  6
CONTINUOUS
 10
81.550034
 20
133.000001
 30
0.0
 11
81.550034
 21
169.0
 31
0.0
  0
LINE
  5
19E4D
  8
DANMEN
  6
CONTINUOUS
 10
102.5
 20
133.000001
 30
0.0
 11
102.5
 21
169.0
 31
0.0
  0
LINE
  5
19E4E
  8
DANMEN
  6
CONTINUOUS
 10
96.025004
 20
134.000001
 30
0.0
 11
102.525005
 21
133.000001
 31
0.0
  0
ARC
  5
19E4F
  8
DANMEN
  6
CONTINUOUS
 10
102.5
 20
132.500003
 30
0.0
 40
0.5
 50
90.0
 51
180.0
  0
LINE
  5
19E50
  8
DANMEN
  6
CONTINUOUS
 10
102.5
 20
128.000003
 30
0.0
 11
102.0
 21
128.000003
 31
0.0
  0
LINE
  5
19E51
  8
DANMEN
  6
CONTINUOUS
 10
102.5
 20
123.000003
 30
0.0
 11
102.0
 21
123.000003
 31
0.0
  0
LINE
  5
19E52
  8
DANMEN
  6
CONTINUOUS
 10
79.5
 20
168.5
 30
0.0
 11
79.5
 21
132.500001
 31
0.0
  0
LINE
  5
19E53
  8
DANMEN
  6
CONTINUOUS
 10
88.025
 20
130.636037
 30
0.0
 11
85.109572
 21
133.551465
 31
0.0
  0
LINE
  5
19E54
  8
DANMEN
  6
CONTINUOUS
 10
86.539719
 20
129.999998
 30
0.0
 11
83.271094
 21
133.268623
 31
0.0
  0
LINE
  5
19E55
  8
DANMEN
  6
CONTINUOUS
 10
84.782359
 20
129.999998
 30
0.0
 11
88.025
 21
133.242639
 31
0.0
  0
LINE
  5
19E56
  8
DANMEN
  6
CONTINUOUS
 10
82.661039
 20
129.999998
 30
0.0
 11
86.41304
 21
133.751999
 31
0.0
  0
LINE
  5
19E57
  8
DANMEN
  6
CONTINUOUS
 10
88.025003
 20
133.999993
 30
0.0
 11
81.525002
 21
132.999993
 31
0.0
  0
LINE
  5
19E58
  8
DANMEN
  6
CONTINUOUS
 10
82.0
 20
132.500003
 30
0.0
 11
82.0
 21
128.000003
 31
0.0
  0
LINE
  5
19E59
  8
DANMEN
  6
CONTINUOUS
 10
81.15
 20
128.000003
 30
0.0
 11
82.0
 21
128.000003
 31
0.0
  0
ARC
  5
19E5C
  8
DANMEN
  6
CONTINUOUS
 10
81.5
 20
132.500003
 30
0.0
 40
0.5
 50
0.0
 51
90.0
  0
ARC
  5
19E5D
  8
DANMEN
  6
CONTINUOUS
 10
80.0
 20
132.500003
 30
0.0
 40
0.5
 50
90.0
 51
180.0
  0
LINE
  5
19E5E
  8
DANMEN
  6
CONTINUOUS
 10
80.0
 20
133.000003
 30
0.0
 11
81.5
 21
133.000003
 31
0.0
  0
LINE
  5
19E60
  8
DANMEN
  6
CONTINUOUS
 10
84.418398
 20
129.999998
 30
0.0
 11
82.025
 21
132.393396
 31
0.0
  0
LINE
  5
19E61
  8
DANMEN
  6
CONTINUOUS
 10
82.297078
 20
129.999998
 30
0.0
 11
82.025
 21
130.272076
 31
0.0
  0
LINE
  5
19E62
  8
DANMEN
  6
CONTINUOUS
 10
82.025
 20
131.485279
 30
0.0
 11
83.906025
 21
133.366304
 31
0.0
  0
LINE
  5
19E64
  8
DANMEN
  6
CONTINUOUS
 10
88.025
 20
132.757357
 30
0.0
 11
86.948049
 21
133.834308
 31
0.0
  0
LINE
  5
19E65
  8
DANMEN
  6
CONTINUOUS
 10
86.90368
 20
129.999998
 30
0.0
 11
88.025
 21
131.121318
 31
0.0
  0
LINE
  5
19E68
  8
DANMEN
  6
CONTINUOUS
 10
102.0
 20
132.500002
 30
0.0
 11
102.0
 21
128.000003
 31
0.0
  0
LINE
  5
19E6A
  8
DANMEN
  6
CONTINUOUS
 10
102.0
 20
123.000003
 30
0.0
 11
102.0
 21
122.500003
 31
0.0
  0
LINE
  5
19E6C
  8
DANMEN
  6
CONTINUOUS
 10
101.388961
 20
129.999998
 30
0.0
 11
97.63696
 21
133.751999
 31
0.0
  0
LINE
  5
19E6D
  8
DANMEN
  6
CONTINUOUS
 10
99.267641
 20
129.999998
 30
0.0
 11
96.025
 21
133.242639
 31
0.0
  0
LINE
  5
19E6E
  8
DANMEN
  6
CONTINUOUS
 10
97.510281
 20
129.999998
 30
0.0
 11
100.778906
 21
133.268623
 31
0.0
  0
LINE
  5
19E6F
  8
DANMEN
  6
CONTINUOUS
 10
96.025
 20
130.636037
 30
0.0
 11
98.940428
 21
133.551465
 31
0.0
  0
LINE
  5
19E70
  8
DANMEN
  6
CONTINUOUS
 10
97.14632
 20
129.999998
 30
0.0
 11
96.025
 21
131.121318
 31
0.0
  0
LINE
  5
19E71
  8
DANMEN
  6
CONTINUOUS
 10
96.025
 20
132.757357
 30
0.0
 11
97.101951
 21
133.834308
 31
0.0
  0
LINE
  5
19E72
  8
DANMEN
  6
CONTINUOUS
 10
102.025
 20
131.485279
 30
0.0
 11
100.143975
 21
133.366304
 31
0.0
  0
LINE
  5
19E73
  8
DANMEN
  6
CONTINUOUS
 10
101.752922
 20
129.999998
 30
0.0
 11
102.025
 21
130.272076
 31
0.0
  0
LINE
  5
19E74
  8
DANMEN
  6
CONTINUOUS
 10
99.631602
 20
129.999998
 30
0.0
 11
102.025
 21
132.393396
 31
0.0
  0
LINE
  5
19E78
  8
DANMEN
  6
CONTINUOUS
 10
102.5
 20
133.000003
 30
0.0
 11
114.8
 21
133.000003
 31
0.0
  0
LINE
  5
19E79
  8
DANMEN
  6
CONTINUOUS
 10
103.5
 20
131.350003
 30
0.0
 11
113.65
 21
131.350003
 31
0.0
  0
LINE
  5
19E7A
  8
DANMEN
  6
CONTINUOUS
 10
103.5
 20
131.350003
 30
0.0
 11
103.5
 21
122.500003
 31
0.0
  0
LINE
  5
19E7B
  8
DANMEN
  6
CONTINUOUS
 10
102.5
 20
128.000003
 30
0.0
 11
102.5
 21
123.000003
 31
0.0
  0
ARC
  5
19E80
  8
DANMEN
  6
CONTINUOUS
 10
114.8
 20
132.500003
 30
0.0
 40
0.5
 50
0.0
 51
89.999982
  0
LINE
  5
19E82
  8
DANMEN
  6
CONTINUOUS
 10
96.049997
 20
186.000003
 30
0.0
 11
102.549998
 21
187.000003
 31
0.0
  0
ARC
  5
19E83
  8
DANMEN
  6
CONTINUOUS
 10
102.5
 20
187.499997
 30
0.0
 40
0.5
 50
180.0
 51
270.0
  0
ARC
  5
19E84
  8
DANMEN
  6
CONTINUOUS
 10
102.5
 20
196.499997
 30
0.0
 40
0.5
 50
90.0
 51
180.0
  0
LINE
  5
19E85
  8
DANMEN
  6
CONTINUOUS
 10
102.5
 20
195.999997
 30
0.0
 11
102.0
 21
195.999997
 31
0.0
  0
LINE
  5
19E86
  8
DANMEN
  6
CONTINUOUS
 10
102.5
 20
191.999997
 30
0.0
 11
102.0
 21
191.999997
 31
0.0
  0
LINE
  5
19E87
  8
DANMEN
  6
CONTINUOUS
 10
86.200006
 20
214.499997
 30
0.0
 11
107.05
 21
214.499997
 31
0.0
  0
LINE
  5
19E88
  8
DANMEN
  6
CONTINUOUS
 10
81.45
 20
192.000001
 30
0.0
 11
81.45
 21
204.699998
 31
0.0
  0
LINE
  5
19E89
  8
DANMEN
  6
CONTINUOUS
 10
79.5
 20
187.500002
 30
0.0
 11
79.5
 21
206.999998
 31
0.0
  0
LINE
  5
19E8A
  8
DANMEN
  6
CONTINUOUS
 10
95.55
 20
198.999998
 30
0.0
 11
95.55
 21
171.0
 31
0.0
  0
LINE
  5
19E8B
  8
DANMEN
  6
CONTINUOUS
 10
88.55
 20
198.999998
 30
0.0
 11
88.55
 21
170.999998
 31
0.0
  0
LINE
  5
19E8C
  8
DANMEN
  6
CONTINUOUS
 10
88.05
 20
198.999998
 30
0.0
 11
88.05
 21
171.0
 31
0.0
  0
LINE
  5
19E8D
  8
DANMEN
  6
CONTINUOUS
 10
96.05
 20
198.999998
 30
0.0
 11
96.05
 21
170.999998
 31
0.0
  0
LINE
  5
19E8E
  8
DANMEN
  6
CONTINUOUS
 10
82.686039
 20
189.999998
 30
0.0
 11
86.43804
 21
186.247998
 31
0.0
  0
LINE
  5
19E8F
  8
DANMEN
  6
CONTINUOUS
 10
84.807359
 20
189.999998
 30
0.0
 11
88.05
 21
186.757358
 31
0.0
  0
LINE
  5
19E90
  8
DANMEN
  6
CONTINUOUS
 10
86.564719
 20
189.999998
 30
0.0
 11
83.296094
 21
186.731374
 31
0.0
  0
LINE
  5
19E91
  8
DANMEN
  6
CONTINUOUS
 10
88.05
 20
189.363959
 30
0.0
 11
85.134572
 21
186.448531
 31
0.0
  0
LINE
  5
19E92
  8
DANMEN
  6
CONTINUOUS
 10
88.049996
 20
185.999996
 30
0.0
 11
81.549995
 21
186.999996
 31
0.0
  0
LINE
  5
19E93
  8
DANMEN
  6
CONTINUOUS
 10
81.550034
 20
171.0
 30
0.0
 11
81.550034
 21
186.999998
 31
0.0
  0
LINE
  5
19E94
  8
DANMEN
  6
CONTINUOUS
 10
79.5
 20
187.500001
 30
0.0
 11
79.5
 21
171.0
 31
0.0
  0
LINE
  5
19E96
  8
DANMEN
  6
CONTINUOUS
 10
81.45
 20
192.000001
 30
0.0
 11
82.0
 21
192.000001
 31
0.0
  0
ARC
  5
19E97
  8
DANMEN
  6
CONTINUOUS
 10
81.5
 20
187.500001
 30
0.0
 40
0.5
 50
270.0
 51
0.0
  0
ARC
  5
19E99
  8
DANMEN
  6
CONTINUOUS
 10
80.0
 20
187.500001
 30
0.0
 40
0.5
 50
179.999872
 51
269.999909
  0
LINE
  5
19E9A
  8
DANMEN
  6
CONTINUOUS
 10
80.0
 20
187.000001
 30
0.0
 11
81.5
 21
187.000001
 31
0.0
  0
LINE
  5
19E9D
  8
DANMEN
  6
CONTINUOUS
 10
82.05
 20
188.514717
 30
0.0
 11
83.931025
 21
186.633692
 31
0.0
  0
LINE
  5
19E9E
  8
DANMEN
  6
CONTINUOUS
 10
82.322078
 20
189.999998
 30
0.0
 11
82.05
 21
189.72792
 31
0.0
  0
LINE
  5
19E9F
  8
DANMEN
  6
CONTINUOUS
 10
84.443398
 20
189.999998
 30
0.0
 11
82.05
 21
187.6066
 31
0.0
  0
LINE
  5
19EA1
  8
DANMEN
  6
CONTINUOUS
 10
82.0
 20
187.500002
 30
0.0
 11
82.0
 21
192.000001
 31
0.0
  0
LINE
  5
19EA3
  8
DANMEN
  6
CONTINUOUS
 10
88.05
 20
187.242639
 30
0.0
 11
86.973049
 21
186.165688
 31
0.0
  0
LINE
  5
19EA4
  8
DANMEN
  6
CONTINUOUS
 10
86.92868
 20
189.999998
 30
0.0
 11
88.05
 21
188.878678
 31
0.0
  0
LINE
  5
19EA7
  8
DANMEN
  6
CONTINUOUS
 10
96.05
 20
187.242639
 30
0.0
 11
97.126951
 21
186.165688
 31
0.0
  0
LINE
  5
19EA8
  8
DANMEN
  6
CONTINUOUS
 10
101.413961
 20
189.999998
 30
0.0
 11
97.66196
 21
186.247998
 31
0.0
  0
LINE
  5
19EA9
  8
DANMEN
  6
CONTINUOUS
 10
96.05
 20
189.363959
 30
0.0
 11
98.965428
 21
186.448531
 31
0.0
  0
LINE
  5
19EAA
  8
DANMEN
  6
CONTINUOUS
 10
97.535281
 20
189.999998
 30
0.0
 11
100.803906
 21
186.731374
 31
0.0
  0
LINE
  5
19EAB
  8
DANMEN
  6
CONTINUOUS
 10
99.292641
 20
189.999998
 30
0.0
 11
96.05
 21
186.757358
 31
0.0
  0
LINE
  5
19EAC
  8
DANMEN
  6
CONTINUOUS
 10
97.17132
 20
189.999998
 30
0.0
 11
96.05
 21
188.878678
 31
0.0
  0
LINE
  5
19EAD
  8
DANMEN
  6
CONTINUOUS
 10
99.656602
 20
189.999998
 30
0.0
 11
102.05
 21
187.6066
 31
0.0
  0
LINE
  5
19EAE
  8
DANMEN
  6
CONTINUOUS
 10
101.777922
 20
189.999998
 30
0.0
 11
102.05
 21
189.72792
 31
0.0
  0
LINE
  5
19EAF
  8
DANMEN
  6
CONTINUOUS
 10
102.05
 20
188.514717
 30
0.0
 11
100.168975
 21
186.633692
 31
0.0
  0
LINE
  5
19EB1
  8
DANMEN
  6
CONTINUOUS
 10
102.0
 20
187.499998
 30
0.0
 11
102.0
 21
191.999997
 31
0.0
  0
ARC
  5
19EB3
  8
DANMEN
  6
CONTINUOUS
 10
85.809908
 20
209.499997
 30
0.0
 40
0.5
 50
191.309932
 51
270.0
  0
LINE
  5
19EB4
  8
DANMEN
  6
CONTINUOUS
 10
83.15
 20
205.699998
 30
0.0
 11
83.15
 21
209.734022
 31
0.0
  0
ARC
  5
19EB5
  8
DANMEN
  6
CONTINUOUS
 10
82.002184
 20
209.399934
 30
0.0
 40
0.5
 50
149.886267
 51
243.881419
  0
LINE
  5
19EB6
  8
DANMEN
  6
CONTINUOUS
 10
85.000006
 20
210.999997
 30
0.0
 11
85.319618
 21
209.401939
 31
0.0
  0
LINE
  5
19EB7
  8
DANMEN
  6
CONTINUOUS
 10
81.15
 20
208.999997
 30
0.0
 11
81.15
 21
214.999997
 31
0.0
  0
ARC
  5
19EB8
  8
DANMEN
  6
CONTINUOUS
 10
81.95
 20
204.699998
 30
0.0
 40
0.5
 50
90.0
 51
180.0
  0
LINE
  5
19EB9
  8
DANMEN
  6
CONTINUOUS
 10
81.45
 20
206.699998
 30
0.0
 11
81.95
 21
206.699998
 31
0.0
  0
ARC
  5
19EBA
  8
DANMEN
  6
CONTINUOUS
 10
81.207801
 20
207.499997
 30
0.0
 40
0.5
 50
270.0
 51
330.603827
  0
LINE
  5
19EBB
  8
DANMEN
  6
CONTINUOUS
 10
81.7
 20
208.999997
 30
0.0
 11
81.15
 21
208.999997
 31
0.0
  0
LINE
  5
19EBD
  8
DANMEN
  6
CONTINUOUS
 10
79.5
 20
206.999998
 30
0.0
 11
81.45
 21
206.999998
 31
0.0
  0
LINE
  5
19EBE
  8
DANMEN
  6
CONTINUOUS
 10
81.45
 20
206.699998
 30
0.0
 11
81.45
 21
206.999998
 31
0.0
  0
LINE
  5
19EC6
  8
DANMEN
  6
CONTINUOUS
 10
79.5
 20
206.999997
 30
0.0
 11
81.207801
 21
206.999997
 31
0.0
  0
LINE
  5
19EC9
  8
DANMEN
  6
CONTINUOUS
 10
81.95
 20
206.699998
 30
0.0
 11
81.95
 21
208.681626
 31
0.0
  0
LINE
  5
19ECC
  8
DANMEN
  6
CONTINUOUS
 10
81.95
 20
205.199998
 30
0.0
 11
82.65
 21
205.199998
 31
0.0
  0
ARC
  5
19ECD
  8
DANMEN
  6
CONTINUOUS
 10
82.65
 20
205.699998
 30
0.0
 40
0.5
 50
270.0
 51
0.0
  0
ARC
  5
19ED0
  8
DANMEN
  6
CONTINUOUS
 10
81.65
 20
208.681626
 30
0.0
 40
0.3
 50
0.0
 51
63.881419
  0
LINE
  5
19ED4
  8
DANMEN
  6
CONTINUOUS
 10
82.0
 20
208.699997
 30
0.0
 11
82.0
 21
207.996242
 31
0.0
  0
LINE
  5
19ED5
  8
DANMEN
  6
CONTINUOUS
 10
82.0
 20
207.996242
 30
0.0
 11
81.643425
 21
207.254574
 31
0.0
  0
ARC
  5
19ED6
  8
DANMEN
  6
CONTINUOUS
 10
81.7
 20
208.699997
 30
0.0
 40
0.3
 50
0.0
 51
90.0
  0
LINE
  5
19ED9
  8
DANMEN
  6
CONTINUOUS
 10
81.15
 20
214.999997
 30
0.0
 11
85.000006
 21
214.999997
 31
0.0
  0
ARC
  5
19EDD
  8
DANMEN
  6
CONTINUOUS
 10
83.5
 20
214.000893
 30
0.0
 40
0.5
 50
55.291951
 51
235.291951
  0
LINE
  5
19EDE
  8
DANMEN
  6
CONTINUOUS
 10
85.1
 20
212.259563
 30
0.0
 11
85.1
 21
213.500893
 31
0.0
  0
LINE
  5
19EE0
  8
DANMEN
  6
CONTINUOUS
 10
81.569669
 20
209.650793
 30
0.0
 11
83.931636
 21
212.709893
 31
0.0
  0
LINE
  5
19EE2
  8
DANMEN
  6
CONTINUOUS
 10
85.1
 20
213.500893
 30
0.0
 11
83.784698
 21
214.411925
 31
0.0
  0
LINE
  5
19EE4
  8
DANMEN
  6
CONTINUOUS
 10
83.864998
 20
213.139855
 30
0.0
 11
83.215302
 21
213.589861
 31
0.0
  0
LINE
  5
19EE5
  8
DANMEN
  6
CONTINUOUS
 10
83.15
 20
209.734022
 30
0.0
 11
85.1
 21
212.259563
 31
0.0
  0
ARC
  5
19EE6
  8
DANMEN
  6
CONTINUOUS
 10
83.69418
 20
212.893236
 30
0.0
 40
0.3
 50
322.327843
 51
55.291951
  0
LINE
  5
19EEB
  8
DANMEN
  6
CONTINUOUS
 10
85.000006
 20
210.999997
 30
0.0
 11
85.000006
 21
214.999997
 31
0.0
  0
LINE
  5
19EED
  8
DANMEN
  6
CONTINUOUS
 10
88.05
 20
198.999998
 30
0.0
 11
96.05
 21
198.999998
 31
0.0
  0
LINE
  5
19EF0
  8
DANMEN
  6
CONTINUOUS
 10
102.0
 20
195.999997
 30
0.0
 11
102.0
 21
196.499997
 31
0.0
  0
LINE
  5
19EF1
  8
DANMEN
  6
CONTINUOUS
 10
86.200006
 20
208.999997
 30
0.0
 11
86.200006
 21
214.499997
 31
0.0
  0
LINE
  5
19EF3
  8
DANMEN
  6
CONTINUOUS
 10
85.809908
 20
208.999997
 30
0.0
 11
86.200006
 21
208.999997
 31
0.0
  0
LINE
  5
19EF7
  8
DANMEN
  6
CONTINUOUS
 10
102.5
 20
191.999997
 30
0.0
 11
102.5
 21
195.999997
 31
0.0
  0
LINE
  5
19EF8
  8
DANMEN
  6
CONTINUOUS
 10
103.5
 20
188.649997
 30
0.0
 11
103.5
 21
196.499997
 31
0.0
  0
LINE
  5
19EF9
  8
DANMEN
  6
CONTINUOUS
 10
115.3
 20
208.499997
 30
0.0
 11
115.3
 21
187.499997
 31
0.0
  0
LINE
  5
19EFA
  8
DANMEN
  6
CONTINUOUS
 10
113.650003
 20
208.349997
 30
0.0
 11
113.650003
 21
188.649997
 31
0.0
  0
LINE
  5
19EFB
  8
DANMEN
  6
CONTINUOUS
 10
117.5
 20
208.499997
 30
0.0
 11
117.5
 21
171.0
 31
0.0
  0
LINE
  5
19EFC
  8
DANMEN
  6
CONTINUOUS
 10
115.3
 20
208.499997
 30
0.0
 11
115.3
 21
171.0
 31
0.0
  0
LINE
  5
19EFD
  8
DANMEN
  6
CONTINUOUS
 10
102.5
 20
171.0
 30
0.0
 11
102.5
 21
186.999998
 31
0.0
  0
LINE
  5
19EFE
  8
DANMEN
  6
CONTINUOUS
 10
113.650003
 20
188.649997
 30
0.0
 11
103.5
 21
188.649997
 31
0.0
  0
LINE
  5
19EFF
  8
DANMEN
  6
CONTINUOUS
 10
114.800003
 20
186.999997
 30
0.0
 11
102.5
 21
186.999997
 31
0.0
  0
ARC
  5
19F03
  8
DANMEN
  6
CONTINUOUS
 10
114.8
 20
187.499997
 30
0.0
 40
0.5
 50
270.0
 51
0.0
  0
LINE
  5
19F05
  8
DANMEN
  6
CONTINUOUS
 10
128.7
 20
211.578484
 30
0.0
 11
110.187844
 21
213.000834
 31
0.0
  0
LINE
  5
19F06
  8
DANMEN
  6
CONTINUOUS
 10
109.000003
 20
208.499997
 30
0.0
 11
128.7
 21
208.499997
 31
0.0
  0
ARC
  5
19F08
  8
DANMEN
  6
CONTINUOUS
 10
103.0
 20
196.499997
 30
0.0
 40
0.5
 50
0.0
 51
90.0
  0
LINE
  5
19F09
  8
DANMEN
  6
CONTINUOUS
 10
103.0
 20
196.999997
 30
0.0
 11
102.5
 21
196.999997
 31
0.0
  0
LINE
  5
19F0C
  8
DANMEN
  6
CONTINUOUS
 10
107.55
 20
208.349997
 30
0.0
 11
113.650003
 21
208.349997
 31
0.0
  0
LINE
  5
19F0D
  8
DANMEN
  6
CONTINUOUS
 10
108.7
 20
209.999997
 30
0.0
 11
116.5
 21
209.999997
 31
0.0
  0
LINE
  5
19F0E
  8
DANMEN
  6
CONTINUOUS
 10
109.000003
 20
208.499997
 30
0.0
 11
109.000003
 21
213.016225
 31
0.0
  0
LINE
  5
19F0F
  8
DANMEN
  6
CONTINUOUS
 10
108.7
 20
208.499997
 30
0.0
 11
108.7
 21
212.999997
 31
0.0
  0
LINE
  5
19F10
  8
DANMEN
  6
CONTINUOUS
 10
107.05
 20
208.849997
 30
0.0
 11
107.05
 21
214.499997
 31
0.0
  0
ARC
  5
19F14
  8
DANMEN
  6
CONTINUOUS
 10
107.55
 20
208.849997
 30
0.0
 40
0.5
 50
180.0
 51
270.0
  0
ARC
  5
19F1B
  8
DANMEN
  6
CONTINUOUS
 10
116.5
 20
208.999997
 30
0.0
 40
1.0
 50
0.0
 51
90.0
  0
LINE
  5
19F1F
  8
DANMEN
  6
CONTINUOUS
 10
115.3
 20
208.499997
 30
0.0
 11
117.5
 21
208.499997
 31
0.0
  0
LINE
  5
19F20
  8
DANMEN
  6
CONTINUOUS
 10
117.5
 20
208.999997
 30
0.0
 11
117.5
 21
208.499997
 31
0.0
  0
LINE
  5
19F22
  8
DANMEN
  6
CONTINUOUS
 10
162.149994
 20
154.350006
 30
0.0
 11
168.850006
 21
154.350006
 31
0.0
  0
LINE
  5
19F23
  8
DANMEN
  6
CONTINUOUS
 10
161.0
 20
156.0
 30
0.0
 11
185.0
 21
156.0
 31
0.0
  0
LINE
  5
19F24
  8
DANMEN
  6
CONTINUOUS
 10
162.149994
 20
154.350006
 30
0.0
 11
162.149994
 21
150.5
 31
0.0
  0
LINE
  5
19F25
  8
DANMEN
  6
CONTINUOUS
 10
160.5
 20
155.5
 30
0.0
 11
160.5
 21
150.5
 31
0.0
  0
ARC
  5
19F28
  8
DANMEN
  6
CONTINUOUS
 10
161.649994
 20
150.5
 30
0.0
 40
0.5
 50
270.000018
 51
359.999981
  0
ARC
  5
19F29
  8
DANMEN
  6
CONTINUOUS
 10
161.0
 20
150.5
 30
0.0
 40
0.5
 50
180.000036
 51
269.999963
  0
LINE
  5
19F2A
  8
DANMEN
  6
CONTINUOUS
 10
161.0
 20
150.0
 30
0.0
 11
161.649994
 21
150.0
 31
0.0
  0
ARC
  5
19F2C
  8
DANMEN
  6
CONTINUOUS
 10
161.0
 20
155.5
 30
0.0
 40
0.5
 50
89.999982
 51
180.000019
  0
LINE
  5
19F2E
  8
DANMEN
  6
CONTINUOUS
 10
170.5
 20
154.9
 30
0.0
 11
170.5
 21
136.3
 31
0.0
  0
LINE
  5
19F2F
  8
DANMEN
  6
CONTINUOUS
 10
173.5
 20
145.0
 30
0.0
 11
173.5
 21
146.638809
 31
0.0
  0
LINE
  5
19F30
  8
DANMEN
  6
CONTINUOUS
 10
188.449997
 20
147.05
 30
0.0
 11
188.449997
 21
130.949997
 31
0.0
  0
LINE
  5
19F31
  8
DANMEN
  6
CONTINUOUS
 10
186.5
 20
146.9
 30
0.0
 11
186.5
 21
127.1
 31
0.0
  0
LINE
  5
19F32
  8
DANMEN
  6
CONTINUOUS
 10
183.656624
 20
146.9
 30
0.0
 11
174.699997
 21
145.556506
 31
0.0
  0
LINE
  5
19F33
  8
DANMEN
  6
CONTINUOUS
 10
183.537291
 20
125.0
 30
0.0
 11
187.961075
 21
125.0
 31
0.0
  0
LINE
  5
19F34
  8
DANMEN
  6
CONTINUOUS
 10
183.656624
 20
127.1
 30
0.0
 11
186.5
 21
127.1
 31
0.0
  0
LINE
  5
19F35
  8
DANMEN
  6
CONTINUOUS
 10
170.5
 20
138.5
 30
0.0
 11
186.5
 21
138.5
 31
0.0
  0
LINE
  5
19F36
  8
DANMEN
  6
CONTINUOUS
 10
170.5
 20
143.5
 30
0.0
 11
186.5
 21
143.5
 31
0.0
  0
LINE
  5
19F37
  8
DANMEN
  6
CONTINUOUS
 10
175.300004
 20
122.8
 30
0.0
 11
182.700004
 21
122.8
 31
0.0
  0
LINE
  5
19F38
  8
DANMEN
  6
CONTINUOUS
 10
183.463121
 20
125.005532
 30
0.0
 11
174.35166
 21
126.372251
 31
0.0
  0
LINE
  5
19F39
  8
DANMEN
  6
CONTINUOUS
 10
183.656624
 20
127.1
 30
0.0
 11
174.699997
 21
128.443494
 31
0.0
  0
LINE
  5
19F3A
  8
DANMEN
  6
CONTINUOUS
 10
172.525813
 20
129.335584
 30
0.0
 11
175.300004
 21
122.8
 31
0.0
  0
LINE
  5
19F3B
  8
DANMEN
  6
CONTINUOUS
 10
173.5
 20
129.0
 30
0.0
 11
173.5
 21
127.361191
 31
0.0
  0
ARC
  5
19F3E
  8
DANMEN
  6
CONTINUOUS
 10
174.5
 20
127.361187
 30
0.0
 40
1.0
 50
180.0
 51
261.469234
  0
ARC
  5
19F40
  8
DANMEN
  6
CONTINUOUS
 10
171.97351
 20
129.101146
 30
0.0
 40
0.6
 50
23.0
 51
273.528779
  0
LINE
  5
19F45
  8
DANMEN
  6
CONTINUOUS
 10
174.0
 20
129.5
 30
0.0
 11
174.699997
 21
129.5
 31
0.0
  0
ARC
  5
19F47
  8
DANMEN
  6
CONTINUOUS
 10
174.0
 20
129.0
 30
0.0
 40
0.5
 50
89.999999
 51
180.000036
  0
LINE
  5
19F48
  8
DANMEN
  6
CONTINUOUS
 10
174.699997
 20
129.5
 30
0.0
 11
174.699997
 21
128.443489
 31
0.0
  0
LINE
  5
19F4B
  8
DANMEN
  6
CONTINUOUS
 10
182.378862
 20
123.390573
 30
0.0
 11
179.835668
 21
124.419423
 31
0.0
  0
LINE
  5
19F4C
  8
DANMEN
  6
CONTINUOUS
 10
183.395163
 20
123.842413
 30
0.0
 11
178.746848
 21
125.722891
 31
0.0
  0
ARC
  5
19F50
  8
DANMEN
  6
CONTINUOUS
 10
178.94585
 20
124.563653
 30
0.0
 40
0.2
 50
311.738105
 51
67.974191
  0
LINE
  5
19F51
  8
DANMEN
  6
CONTINUOUS
 10
179.020855
 20
124.749056
 30
0.0
 11
178.446828
 21
124.981279
 31
0.0
  0
LINE
  5
19F56
  8
DANMEN
  6
CONTINUOUS
 10
179.835668
 20
124.419423
 30
0.0
 11
177.979406
 21
122.763337
 31
0.0
  0
LINE
  5
19F57
  8
DANMEN
  6
CONTINUOUS
 10
179.078995
 20
124.414414
 30
0.0
 11
177.646542
 21
123.136435
 31
0.0
  0
ARC
  5
19F59
  8
DANMEN
  6
CONTINUOUS
 10
177.812974
 20
122.949886
 30
0.0
 40
0.25
 50
131.738105
 51
311.738105
  0
ARC
  5
19F5B
  8
DANMEN
  6
CONTINUOUS
 10
178.596838
 20
125.352085
 30
0.0
 40
0.4
 50
67.974191
 51
247.974191
  0
ARC
  5
19F5D
  8
DANMEN
  6
CONTINUOUS
 10
183.320158
 20
123.65701
 30
0.0
 40
0.2
 50
25.943161
 51
67.974191
  0
ARC
  5
19F60
  8
DANMEN
  6
CONTINUOUS
 10
182.564265
 20
123.315568
 30
0.0
 40
0.2
 50
47.258366
 51
157.974191
  0
LINE
  5
19F61
  8
DANMEN
  6
CONTINUOUS
 10
182.700004
 20
123.462453
 30
0.0
 11
182.700004
 21
122.8
 31
0.0
  0
ARC
  5
19F64
  8
DANMEN
  6
CONTINUOUS
 10
183.537291
 20
125.5
 30
0.0
 40
0.5
 50
261.469234
 51
270.0
  0
LINE
  5
19F66
  8
DANMEN
  6
CONTINUOUS
 10
179.550996
 20
137.0
 30
0.0
 11
175.350995
 21
136.3
 31
0.0
  0
LINE
  5
19F67
  8
DANMEN
  6
CONTINUOUS
 10
180.664402
 20
135.360739
 30
0.0
 11
175.581604
 21
134.513606
 31
0.0
  0
LINE
  5
19F68
  8
DANMEN
  6
CONTINUOUS
 10
170.5
 20
136.3
 30
0.0
 11
175.350995
 21
136.3
 31
0.0
  0
LINE
  5
19F69
  8
DANMEN
  6
CONTINUOUS
 10
170.5
 20
134.5
 30
0.0
 11
175.417205
 21
134.5
 31
0.0
  0
ARC
  5
19F6D
  8
DANMEN
  6
CONTINUOUS
 10
175.417205
 20
135.5
 30
0.0
 40
1.0
 50
270.000018
 51
279.462343
  0
LINE
  5
19F71
  8
DANMEN
  6
CONTINUOUS
 10
174.699997
 20
144.5
 30
0.0
 11
174.699997
 21
145.556509
 31
0.0
  0
ARC
  5
19F72
  8
DANMEN
  6
CONTINUOUS
 10
174.0
 20
145.0
 30
0.0
 40
0.5
 50
179.999964
 51
270.000001
  0
LINE
  5
19F74
  8
DANMEN
  6
CONTINUOUS
 10
174.0
 20
144.5
 30
0.0
 11
174.699997
 21
144.5
 31
0.0
  0
LINE
  5
19F76
  8
DANMEN
  6
CONTINUOUS
 10
179.550996
 20
137.0
 30
0.0
 11
181.0
 21
137.0
 31
0.0
  0
ARC
  5
19F78
  8
DANMEN
  6
CONTINUOUS
 10
181.0
 20
136.5
 30
0.0
 40
0.5
 50
0.0
 51
89.999982
  0
ARC
  5
19F7A
  8
DANMEN
  6
CONTINUOUS
 10
180.5
 20
136.347137
 30
0.0
 40
1.0
 50
279.462343
 51
0.000285
  0
LINE
  5
19F7D
  8
DANMEN
  6
CONTINUOUS
 10
181.5
 20
136.5
 30
0.0
 11
181.5
 21
136.347137
 31
0.0
  0
LINE
  5
19F7E
  8
DANMEN
  6
CONTINUOUS
 10
188.199982
 20
129.0
 30
0.0
 11
188.45968
 21
125.537395
 31
0.0
  0
ARC
  5
19F7F
  8
DANMEN
  6
CONTINUOUS
 10
187.96108
 20
125.5
 30
0.0
 40
0.5
 50
270.0
 51
4.289197
  0
LINE
  5
19F89
  8
DANMEN
  6
CONTINUOUS
 10
172.5
 20
154.350006
 30
0.0
 11
185.0
 21
154.350006
 31
0.0
  0
LINE
  5
19F8A
  8
DANMEN
  6
CONTINUOUS
 10
183.537291
 20
149.0
 30
0.0
 11
200.5
 21
149.0
 31
0.0
  0
LINE
  5
19F8B
  8
DANMEN
  6
CONTINUOUS
 10
183.656624
 20
146.9
 30
0.0
 11
186.5
 21
146.9
 31
0.0
  0
LINE
  5
19F8C
  8
DANMEN
  6
CONTINUOUS
 10
183.463121
 20
148.994468
 30
0.0
 11
174.35166
 21
147.627749
 31
0.0
  0
LINE
  5
19F8D
  8
DANMEN
  6
CONTINUOUS
 10
170.5
 20
149.0
 30
0.0
 11
183.499936
 21
149.0
 31
0.0
  0
ARC
  5
19F8E
  8
DANMEN
  6
CONTINUOUS
 10
174.5
 20
146.638813
 30
0.0
 40
1.0
 50
98.530766
 51
180.0
  0
LINE
  5
19F90
  8
DANMEN
  6
CONTINUOUS
 10
170.5
 20
154.9
 30
0.0
 11
172.5
 21
154.9
 31
0.0
  0
LINE
  5
19F94
  8
DANMEN
  6
CONTINUOUS
 10
172.5
 20
154.9
 30
0.0
 11
172.5
 21
154.350006
 31
0.0
  0
ARC
  5
19F97
  8
DANMEN
  6
CONTINUOUS
 10
183.537291
 20
148.5
 30
0.0
 40
0.5
 50
90.0
 51
98.530766
  0
LINE
  5
19F99
  8
DANMEN
  6
CONTINUOUS
 10
200.5
 20
162.5
 30
0.0
 11
200.5
 21
149.0
 31
0.0
  0
LINE
  5
19F9A
  8
DANMEN
  6
CONTINUOUS
 10
185.0
 20
156.0
 30
0.0
 11
200.5
 21
156.0
 31
0.0
  0
ARC
  5
19FA0
  8
DANMEN
  6
CONTINUOUS
 10
185.0
 20
155.5
 30
0.0
 40
0.5
 50
359.999981
 51
89.999982
  0
ARC
  5
19FA1
  8
DANMEN
  6
CONTINUOUS
 10
185.0
 20
154.850006
 30
0.0
 40
0.5
 50
270.000018
 51
359.999981
  0
LINE
  5
19FA2
  8
DANMEN
  6
CONTINUOUS
 10
185.5
 20
155.5
 30
0.0
 11
185.5
 21
154.850006
 31
0.0
  0
LINE
  5
19FA5
  8
DANMEN
  6
CONTINUOUS
 10
94.800002
 20
216.149997
 30
0.0
 11
107.05
 21
216.149997
 31
0.0
  0
LINE
  5
19FA6
  8
DANMEN
  6
CONTINUOUS
 10
96.3
 20
223.349997
 30
0.0
 11
107.05
 21
223.349997
 31
0.0
  0
LINE
  5
19FA7
  8
DANMEN
  6
CONTINUOUS
 10
96.8
 20
224.999997
 30
0.0
 11
108.2
 21
224.999997
 31
0.0
  0
LINE
  5
19FA8
  8
DANMEN
  6
CONTINUOUS
 10
81.15
 20
248.0
 30
0.0
 11
108.850006
 21
248.0
 31
0.0
  0
LINE
  5
19FA9
  8
DANMEN
  6
CONTINUOUS
 10
98.0
 20
226.65
 30
0.0
 11
108.850006
 21
226.65
 31
0.0
  0
LINE
  5
19FAA
  8
DANMEN
  6
CONTINUOUS
 10
97.5
 20
225.0
 30
0.0
 11
110.0
 21
225.0
 31
0.0
  0
LINE
  5
19FAB
  8
DANMEN
  6
CONTINUOUS
 10
94.8
 20
249.65
 30
0.0
 11
108.850006
 21
249.65
 31
0.0
  0
LINE
  5
19FAC
  8
DANMEN
  6
CONTINUOUS
 10
81.15
 20
248.0
 30
0.0
 11
81.15
 21
228.0
 31
0.0
  0
LINE
  5
19FAD
  8
DANMEN
  6
CONTINUOUS
 10
79.5
 20
248.0
 30
0.0
 11
79.5
 21
233.0
 31
0.0
  0
LINE
  5
19FAE
  8
DANMEN
  6
DASHED
 10
83.5
 20
225.0
 30
0.0
 11
95.5
 21
225.0
 31
0.0
  0
LINE
  5
19FAF
  8
DANMEN
  6
DASHED
 10
80.0
 20
223.800003
 30
0.0
 11
99.0
 21
223.800003
 31
0.0
  0
LINE
  5
19FB0
  8
DANMEN
  6
CONTINUOUS
 10
81.15
 20
216.649997
 30
0.0
 11
86.200002
 21
216.649997
 31
0.0
  0
LINE
  5
19FB1
  8
DANMEN
  6
CONTINUOUS
 10
72.100003
 20
228.782873
 30
0.0
 11
73.082437
 21
225.6
 31
0.0
  0
LINE
  5
19FB2
  8
DANMEN
  6
CONTINUOUS
 10
71.518703
 20
228.60985
 30
0.0
 11
72.646181
 21
225.115559
 31
0.0
  0
LINE
  5
19FB3
  8
DANMEN
  6
CONTINUOUS
 10
75.500003
 20
227.5
 30
0.0
 11
75.500003
 21
226.5
 31
0.0
  0
LINE
  5
19FB4
  8
DANMEN
  6
CONTINUOUS
 10
76.500003
 20
227.5
 30
0.0
 11
76.500003
 21
226.5
 31
0.0
  0
LINE
  5
19FB5
  8
DANMEN
  6
CONTINUOUS
 10
74.500003
 20
227.5
 30
0.0
 11
74.500003
 21
225.0
 31
0.0
  0
LINE
  5
19FB6
  8
DANMEN
  6
CONTINUOUS
 10
73.700003
 20
232.7
 30
0.0
 11
73.700003
 21
225.6
 31
0.0
  0
LINE
  5
19FB7
  8
DANMEN
  6
DASHED
 10
82.0
 20
225.0
 30
0.0
 11
82.0
 21
227.999972
 31
0.0
  0
LINE
  5
19FB8
  8
DANMEN
  6
DASHED
 10
83.0
 20
229.600003
 30
0.0
 11
83.0
 21
225.5
 31
0.0
  0
LINE
  5
19FB9
  8
DANMEN
  6
CONTINUOUS
 10
83.5
 20
224.349997
 30
0.0
 11
83.5
 21
235.5
 31
0.0
  0
LINE
  5
19FBA
  8
DANMEN
  6
CONTINUOUS
 10
82.0
 20
225.000001
 30
0.0
 11
82.0
 21
235.0
 31
0.0
  0
LINE
  5
19FBB
  8
DANMEN
  6
CONTINUOUS
 10
71.5
 20
232.5
 30
0.0
 11
71.5
 21
221.5
 31
0.0
  0
LINE
  5
19FBC
  8
DANMEN
  6
CONTINUOUS
 10
69.55
 20
232.5
 30
0.0
 11
69.55
 21
222.95
 31
0.0
  0
LINE
  5
19FBD
  8
DANMEN
  6
CONTINUOUS
 10
82.0
 20
228.0
 30
0.0
 11
82.0
 21
225.5
 31
0.0
  0
ARC
  5
19FBE
  8
DANMEN
  6
CONTINUOUS
 10
75.0
 20
226.699997
 30
0.0
 40
0.5
 50
89.999999
 51
179.999981
  0
LINE
  5
19FBF
  8
DANMEN
  6
CONTINUOUS
 10
75.300003
 20
226.0
 30
0.0
 11
75.300003
 21
227.199997
 31
0.0
  0
LINE
  5
19FC0
  8
DANMEN
  6
CONTINUOUS
 10
79.500003
 20
226.0
 30
0.0
 11
79.500003
 21
232.2
 31
0.0
  0
LINE
  5
19FC1
  8
DANMEN
  6
CONTINUOUS
 10
81.5
 20
225.0
 30
0.0
 11
75.0
 21
225.0
 31
0.0
  0
LINE
  5
19FC2
  8
DANMEN
  6
CONTINUOUS
 10
75.300003
 20
226.0
 30
0.0
 11
79.5
 21
226.0
 31
0.0
  0
LINE
  5
19FC3
  8
DANMEN
  6
CONTINUOUS
 10
71.500003
 20
225.0
 30
0.0
 11
79.500003
 21
225.0
 31
0.0
  0
ARC
  5
19FC4
  8
DANMEN
  6
CONTINUOUS
 10
71.0
 20
221.5
 30
0.0
 40
0.5
 50
270.0
 51
0.0
  0
LINE
  5
19FC5
  8
DANMEN
  6
CONTINUOUS
 10
71.0
 20
221.0
 30
0.0
 11
69.300003
 21
221.0
 31
0.0
  0
LINE
  5
19FC8
  8
DANMEN
  6
CONTINUOUS
 10
73.082437
 20
225.6
 30
0.0
 11
73.700003
 21
225.6
 31
0.0
  0
LINE
  5
19FC9
  8
DANMEN
  6
CONTINUOUS
 10
72.827481
 20
225.0
 30
0.0
 11
74.500003
 21
225.0
 31
0.0
  0
ARC
  5
19FCC
  8
DANMEN
  6
CONTINUOUS
 10
72.827481
 20
225.2
 30
0.0
 40
0.2
 50
204.97391
 51
270.0
  0
ARC
  5
19FD0
  8
DANMEN
  6
CONTINUOUS
 10
75.700003
 20
226.5
 30
0.0
 40
0.2
 50
180.000019
 51
270.000001
  0
ARC
  5
19FD2
  8
DANMEN
  6
CONTINUOUS
 10
76.300003
 20
226.5
 30
0.0
 40
0.2
 50
270.000018
 51
0.0
  0
LINE
  5
19FD4
  8
DANMEN
  6
CONTINUOUS
 10
75.700003
 20
226.3
 30
0.0
 11
76.300003
 21
226.3
 31
0.0
  0
ARC
  5
19FD5
  8
DANMEN
  6
CONTINUOUS
 10
75.0
 20
225.5
 30
0.0
 40
0.5
 50
179.999981
 51
270.000018
  0
LINE
  5
19FD6
  8
DANMEN
  6
CONTINUOUS
 10
74.5
 20
225.5
 30
0.0
 11
74.5
 21
226.699997
 31
0.0
  0
LINE
  5
19FD9
  8
DANMEN
  6
CONTINUOUS
 10
81.15
 20
223.349997
 30
0.0
 11
81.15
 21
216.649997
 31
0.0
  0
LINE
  5
19FDC
  8
DANMEN
  6
DASHED
 10
82.0
 20
225.0
 30
0.0
 11
79.5
 21
225.0
 31
0.0
  0
LINE
  5
19FDD
  8
DANMEN
  6
CONTINUOUS
 10
80.0
 20
225.0
 30
0.0
 11
82.0
 21
225.0
 31
0.0
  0
LINE
  5
19FDE
  8
DANMEN
  6
CONTINUOUS
 10
81.15
 20
223.349997
 30
0.0
 11
82.5
 21
223.349997
 31
0.0
  0
ARC
  5
19FDF
  8
DANMEN
  6
CONTINUOUS
 10
81.5
 20
225.5
 30
0.0
 40
0.5
 50
270.0
 51
0.0
  0
ARC
  5
19FE0
  8
DANMEN
  6
DASHED
 10
80.0
 20
224.300003
 30
0.0
 40
0.5
 50
180.0
 51
269.999982
  0
LINE
  5
19FE1
  8
DANMEN
  6
DASHED
 10
79.5
 20
225.0
 30
0.0
 11
79.5
 21
224.300003
 31
0.0
  0
ARC
  5
19FE6
  8
DANMEN
  6
CONTINUOUS
 10
80.0
 20
224.5
 30
0.0
 40
0.5
 50
90.0
 51
180.0
  0
ARC
  5
19FE7
  8
DANMEN
  6
DASHED
 10
83.5
 20
225.5
 30
0.0
 40
0.5
 50
180.0
 51
270.0
  0
ARC
  5
19FEB
  8
DANMEN
  6
CONTINUOUS
 10
82.5
 20
224.349997
 30
0.0
 40
1.0
 50
270.0
 51
0.0
  0
LINE
  5
19FED
  8
DANMEN
  6
CONTINUOUS
 10
75.300003
 20
232.2
 30
0.0
 11
79.5
 21
232.2
 31
0.0
  0
LINE
  5
19FEE
  8
DANMEN
  6
CONTINUOUS
 10
75.0
 20
233.0
 30
0.0
 11
79.5
 21
233.0
 31
0.0
  0
LINE
  5
19FEF
  8
DANMEN
  6
CONTINUOUS
 10
72.646181
 20
233.184441
 30
0.0
 11
71.518703
 21
229.69015
 31
0.0
  0
LINE
  5
19FF0
  8
DANMEN
  6
CONTINUOUS
 10
74.500003
 20
233.3
 30
0.0
 11
74.500003
 21
230.8
 31
0.0
  0
ARC
  5
19FF1
  8
DANMEN
  6
CONTINUOUS
 10
71.0
 20
232.5
 30
0.0
 40
0.5
 50
0.0
 51
90.0
  0
ARC
  5
19FF2
  8
DANMEN
  6
CONTINUOUS
 10
70.05
 20
232.5
 30
0.0
 40
0.5
 50
90.0
 51
180.0
  0
ARC
  5
19FF3
  8
DANMEN
  6
CONTINUOUS
 10
75.0
 20
232.5
 30
0.0
 40
0.5
 50
89.999999
 51
179.999981
  0
LINE
  5
19FF4
  8
DANMEN
  6
CONTINUOUS
 10
73.082437
 20
232.7
 30
0.0
 11
73.700003
 21
232.7
 31
0.0
  0
LINE
  5
19FF8
  8
DANMEN
  6
CONTINUOUS
 10
72.100003
 20
229.517126
 30
0.0
 11
72.100003
 21
228.782873
 31
0.0
  0
LINE
  5
19FF9
  8
DANMEN
  6
CONTINUOUS
 10
73.082437
 20
232.7
 30
0.0
 11
72.100003
 21
229.517126
 31
0.0
  0
ARC
  5
19FFB
  8
DANMEN
  6
CONTINUOUS
 10
71.700003
 20
228.694291
 30
0.0
 40
0.2
 50
180.0
 51
204.97391
  0
ARC
  5
19FFD
  8
DANMEN
  6
CONTINUOUS
 10
71.700003
 20
229.605709
 30
0.0
 40
0.2
 50
155.02609
 51
180.0
  0
LINE
  5
19FFE
  8
DANMEN
  6
CONTINUOUS
 10
71.500003
 20
229.605709
 30
0.0
 11
71.500003
 21
228.694291
 31
0.0
  0
LINE
  5
1A005
  8
DANMEN
  6
CONTINUOUS
 10
75.700003
 20
230.0
 30
0.0
 11
75.700003
 21
228.3
 31
0.0
  0
LINE
  5
1A00A
  8
DANMEN
  6
CONTINUOUS
 10
74.500003
 20
227.5
 30
0.0
 11
75.500003
 21
227.5
 31
0.0
  0
LINE
  5
1A00C
  8
DANMEN
  6
CONTINUOUS
 10
74.500003
 20
230.8
 30
0.0
 11
75.500003
 21
230.8
 31
0.0
  0
LINE
  5
1A00D
  8
DANMEN
  6
CONTINUOUS
 10
75.700003
 20
228.3
 30
0.0
 11
76.500003
 21
227.5
 31
0.0
  0
LINE
  5
1A00E
  8
DANMEN
  6
CONTINUOUS
 10
76.500003
 20
230.8
 30
0.0
 11
75.700003
 21
230.0
 31
0.0
  0
ARC
  5
1A012
  8
DANMEN
  6
CONTINUOUS
 10
75.700003
 20
231.8
 30
0.0
 40
0.2
 50
89.999982
 51
180.000019
  0
ARC
  5
1A014
  8
DANMEN
  6
CONTINUOUS
 10
76.300003
 20
231.8
 30
0.0
 40
0.2
 50
0.0
 51
89.999982
  0
LINE
  5
1A016
  8
DANMEN
  6
CONTINUOUS
 10
75.500003
 20
231.8
 30
0.0
 11
75.500003
 21
230.8
 31
0.0
  0
LINE
  5
1A017
  8
DANMEN
  6
CONTINUOUS
 10
75.700003
 20
232.0
 30
0.0
 11
76.300003
 21
232.0
 31
0.0
  0
LINE
  5
1A018
  8
DANMEN
  6
CONTINUOUS
 10
76.500003
 20
231.8
 30
0.0
 11
76.500003
 21
230.8
 31
0.0
  0
LINE
  5
1A01A
  8
DANMEN
  6
CONTINUOUS
 10
75.0
 20
230.800003
 30
0.0
 11
75.300003
 21
230.800003
 31
0.0
  0
ARC
  5
1A01B
  8
DANMEN
  6
CONTINUOUS
 10
75.0
 20
231.300003
 30
0.0
 40
0.5
 50
179.999981
 51
270.000018
  0
LINE
  5
1A01C
  8
DANMEN
  6
CONTINUOUS
 10
75.300003
 20
230.800003
 30
0.0
 11
75.300003
 21
232.2
 31
0.0
  0
LINE
  5
1A01D
  8
DANMEN
  6
CONTINUOUS
 10
74.5
 20
231.300003
 30
0.0
 11
74.5
 21
232.5
 31
0.0
  0
LINE
  5
1A01E
  8
DANMEN
  6
CONTINUOUS
 10
75.0
 20
227.199997
 30
0.0
 11
75.300003
 21
227.199997
 31
0.0
  0
LINE
  5
1A01F
  8
DANMEN
  6
CONTINUOUS
 10
72.827481
 20
233.3
 30
0.0
 11
74.500003
 21
233.3
 31
0.0
  0
ARC
  5
1A021
  8
DANMEN
  6
CONTINUOUS
 10
72.827481
 20
233.1
 30
0.0
 40
0.2
 50
90.0
 51
155.02609
  0
LINE
  5
1A022
  8
DANMEN
  6
CONTINUOUS
 10
71.0
 20
233.0
 30
0.0
 11
70.05
 21
233.0
 31
0.0
  0
ARC
  5
1A026
  8
DANMEN
  6
DASHED
 10
81.799999
 20
228.499972
 30
0.0
 40
0.3
 50
157.011468
 51
235.656024
  0
LINE
  5
1A027
  8
DANMEN
  6
DASHED
 10
81.523824
 20
228.617136
 30
0.0
 11
82.923825
 21
231.917167
 31
0.0
  0
LINE
  5
1A028
  8
DANMEN
  6
CONTINUOUS
 10
81.15
 20
228.0
 30
0.0
 11
82.0
 21
228.0
 31
0.0
  0
LINE
  5
1A02E
  8
DANMEN
  6
DASHED
 10
81.999991
 20
227.999972
 30
0.0
 11
81.630743
 21
228.252271
 31
0.0
  0
ARC
  5
1A02F
  8
DANMEN
  6
DASHED
 10
83.2
 20
231.800003
 30
0.0
 40
0.3
 50
347.000479
 51
157.011468
  0
LINE
  5
1A030
  8
DANMEN
  6
DASHED
 10
83.0
 20
229.600003
 30
0.0
 11
83.492312
 21
231.73252
 31
0.0
  0
ARC
  5
1A035
  8
DANMEN
  6
CONTINUOUS
 10
82.5
 20
235.0
 30
0.0
 40
0.5
 50
90.0
 51
180.0
  0
LINE
  5
1A036
  8
DANMEN
  6
CONTINUOUS
 10
82.5
 20
235.5
 30
0.0
 11
83.5
 21
235.5
 31
0.0
  0
LINE
  5
1A037
  8
DANMEN
  6
DASHED
 10
96.0
 20
229.600003
 30
0.0
 11
96.0
 21
225.5
 31
0.0
  0
LINE
  5
1A038
  8
DANMEN
  6
DASHED
 10
97.0
 20
225.0
 30
0.0
 11
97.0
 21
227.999972
 31
0.0
  0
LINE
  5
1A039
  8
DANMEN
  6
CONTINUOUS
 10
95.3
 20
224.349997
 30
0.0
 11
95.3
 21
235.500003
 31
0.0
  0
LINE
  5
1A03A
  8
DANMEN
  6
CONTINUOUS
 10
96.8
 20
224.999997
 30
0.0
 11
96.8
 21
235.000003
 31
0.0
  0
LINE
  5
1A03B
  8
DANMEN
  6
CONTINUOUS
 10
97.0
 20
228.0
 30
0.0
 11
97.0
 21
225.5
 31
0.0
  0
LINE
  5
1A03C
  8
DANMEN
  6
CONTINUOUS
 10
97.706061
 20
227.642044
 30
0.0
 11
98.0
 21
226.65
 31
0.0
  0
ARC
  5
1A03D
  8
DANMEN
  6
CONTINUOUS
 10
91.800002
 20
218.430304
 30
0.0
 40
2.0
 50
0.000026
 51
51.706549
  0
ARC
  5
1A03E
  8
DANMEN
  6
CONTINUOUS
 10
94.800002
 20
217.149997
 30
0.0
 40
1.0
 50
180.0
 51
270.0
  0
LINE
  5
1A03F
  8
DANMEN
  6
CONTINUOUS
 10
91.300003
 20
216.099997
 30
0.0
 11
89.700003
 21
216.099996
 31
0.0
  0
LINE
  5
1A040
  8
DANMEN
  6
CONTINUOUS
 10
89.400001
 20
219.699996
 30
0.0
 11
89.400001
 21
219.436928
 31
0.0
  0
ARC
  5
1A041
  8
DANMEN
  6
CONTINUOUS
 10
89.700002
 20
218.346057
 30
0.0
 40
1.0
 50
114.624344
 51
180.000026
  0
ARC
  5
1A042
  8
DANMEN
  6
CONTINUOUS
 10
89.200001
 20
219.436928
 30
0.0
 40
0.2
 50
294.624344
 51
0.000026
  0
ARC
  5
1A043
  8
DANMEN
  6
CONTINUOUS
 10
89.200002
 20
218.430302
 30
0.0
 40
2.0
 50
128.293503
 51
180.000026
  0
LINE
  5
1A044
  8
DANMEN
  6
CONTINUOUS
 10
87.200002
 20
218.430301
 30
0.0
 11
87.200002
 21
217.649995
 31
0.0
  0
LINE
  5
1A045
  8
DANMEN
  6
CONTINUOUS
 10
88.700002
 20
218.346057
 30
0.0
 11
88.700002
 21
217.099996
 31
0.0
  0
ARC
  5
1A046
  8
DANMEN
  6
CONTINUOUS
 10
89.700002
 20
217.099996
 30
0.0
 40
1.0
 50
180.000026
 51
270.000026
  0
LINE
  5
1A047
  8
DANMEN
  6
CONTINUOUS
 10
89.100001
 20
219.999996
 30
0.0
 11
87.960621
 21
219.999996
 31
0.0
  0
ARC
  5
1A048
  8
DANMEN
  6
CONTINUOUS
 10
89.100001
 20
219.699996
 30
0.0
 40
0.3
 50
0.000026
 51
90.000026
  0
ARC
  5
1A04A
  8
DANMEN
  6
CONTINUOUS
 10
86.200002
 20
217.649997
 30
0.0
 40
1.0
 50
270.0
 51
0.0
  0
ARC
  5
1A04C
  8
DANMEN
  6
CONTINUOUS
 10
91.800001
 20
219.436929
 30
0.0
 40
0.2
 50
180.000026
 51
245.375708
  0
ARC
  5
1A04D
  8
DANMEN
  6
CONTINUOUS
 10
91.300002
 20
218.346058
 30
0.0
 40
1.0
 50
0.000026
 51
65.375708
  0
LINE
  5
1A04E
  8
DANMEN
  6
CONTINUOUS
 10
91.600001
 20
219.699997
 30
0.0
 11
91.600001
 21
219.436929
 31
0.0
  0
ARC
  5
1A04F
  8
DANMEN
  6
CONTINUOUS
 10
91.300002
 20
217.099997
 30
0.0
 40
1.0
 50
270.000026
 51
0.000026
  0
LINE
  5
1A050
  8
DANMEN
  6
CONTINUOUS
 10
93.800002
 20
218.430304
 30
0.0
 11
93.800002
 21
217.149998
 31
0.0
  0
LINE
  5
1A051
  8
DANMEN
  6
CONTINUOUS
 10
92.300002
 20
218.346058
 30
0.0
 11
92.300002
 21
217.099998
 31
0.0
  0
ARC
  5
1A052
  8
DANMEN
  6
CONTINUOUS
 10
91.900001
 20
219.699997
 30
0.0
 40
0.3
 50
90.000026
 51
180.000026
  0
LINE
  5
1A055
  8
DANMEN
  6
CONTINUOUS
 10
91.900001
 20
219.999996
 30
0.0
 11
93.03938
 21
219.999996
 31
0.0
  0
LINE
  5
1A05A
  8
DANMEN
  6
DASHED
 10
97.0
 20
225.0
 30
0.0
 11
99.5
 21
225.0
 31
0.0
  0
LINE
  5
1A05B
  8
DANMEN
  6
DASHED
 10
97.0
 20
225.0
 30
0.0
 11
99.5
 21
225.0
 31
0.0
  0
ARC
  5
1A05C
  8
DANMEN
  6
DASHED
 10
95.5
 20
225.5
 30
0.0
 40
0.5
 50
270.0
 51
0.0
  0
ARC
  5
1A060
  8
DANMEN
  6
CONTINUOUS
 10
96.3
 20
224.349997
 30
0.0
 40
1.0
 50
180.0
 51
270.0
  0
ARC
  5
1A062
  8
DANMEN
  6
CONTINUOUS
 10
97.5
 20
225.5
 30
0.0
 40
0.5
 50
180.0
 51
270.0
  0
ARC
  5
1A064
  8
DANMEN
  6
DASHED
 10
99.0
 20
224.300003
 30
0.0
 40
0.5
 50
270.000018
 51
0.0
  0
LINE
  5
1A066
  8
DANMEN
  6
DASHED
 10
99.5
 20
225.0
 30
0.0
 11
99.5
 21
224.300003
 31
0.0
  0
LINE
  5
1A06B
  8
DANMEN
  6
DASHED
 10
96.0
 20
229.600003
 30
0.0
 11
95.507688
 21
231.73252
 31
0.0
  0
LINE
  5
1A06C
  8
DANMEN
  6
DASHED
 10
97.476176
 20
228.617136
 30
0.0
 11
96.076175
 21
231.917167
 31
0.0
  0
ARC
  5
1A06D
  8
DANMEN
  6
DASHED
 10
95.8
 20
231.800003
 30
0.0
 40
0.3
 50
22.988532
 51
192.999521
  0
LINE
  5
1A06E
  8
DANMEN
  6
DASHED
 10
97.000009
 20
227.999972
 30
0.0
 11
97.369257
 21
228.252271
 31
0.0
  0
ARC
  5
1A06F
  8
DANMEN
  6
DASHED
 10
97.200001
 20
228.499972
 30
0.0
 40
0.3
 50
304.343976
 51
22.988532
  0
LINE
  5
1A072
  8
DANMEN
  6
CONTINUOUS
 10
97.226662
 20
228.0
 30
0.0
 11
97.0
 21
228.0
 31
0.0
  0
ARC
  5
1A073
  8
DANMEN
  6
CONTINUOUS
 10
97.226662
 20
227.5
 30
0.0
 40
0.5
 50
16.504361
 51
90.0
  0
ARC
  5
1A077
  8
DANMEN
  6
CONTINUOUS
 10
96.3
 20
235.000003
 30
0.0
 40
0.5
 50
0.0
 51
90.0
  0
LINE
  5
1A078
  8
DANMEN
  6
CONTINUOUS
 10
95.3
 20
235.500003
 30
0.0
 11
96.3
 21
235.500003
 31
0.0
  0
LINE
  5
1A079
  8
DANMEN
  6
CONTINUOUS
 10
78.15
 20
249.65
 30
0.0
 11
86.2
 21
249.65
 31
0.0
  0
LINE
  5
1A07A
  8
DANMEN
  6
CONTINUOUS
 10
76.5
 20
251.950012
 30
0.0
 11
76.5
 21
248.8
 31
0.0
  0
LINE
  5
1A07B
  8
DANMEN
  6
CONTINUOUS
 10
78.15
 20
252.600012
 30
0.0
 11
78.15
 21
249.65
 31
0.0
  0
LINE
  5
1A07C
  8
DANMEN
  6
CONTINUOUS
 10
75.5
 20
248.0
 30
0.0
 11
79.5
 21
248.0
 31
0.0
  0
LINE
  5
1A080
  8
DANMEN
  6
CONTINUOUS
 10
75.0
 20
248.8
 30
0.0
 11
76.5
 21
248.8
 31
0.0
  0
LINE
  5
1A081
  8
DANMEN
  6
CONTINUOUS
 10
75.0
 20
248.8
 30
0.0
 11
75.0
 21
248.5
 31
0.0
  0
ARC
  5
1A082
  8
DANMEN
  6
CONTINUOUS
 10
75.5
 20
248.5
 30
0.0
 40
0.5
 50
180.000019
 51
270.000001
  0
ARC
  5
1A083
  8
DANMEN
  6
CONTINUOUS
 10
77.15
 20
252.600012
 30
0.0
 40
1.0
 50
0.0
 51
90.0
  0
ARC
  5
1A084
  8
DANMEN
  6
CONTINUOUS
 10
89.7
 20
250.7
 30
0.0
 40
1.0
 50
180.0
 51
270.0
  0
ARC
  5
1A085
  8
DANMEN
  6
CONTINUOUS
 10
91.3
 20
250.7
 30
0.0
 40
1.0
 50
270.0
 51
0.0
  0
ARC
  5
1A086
  8
DANMEN
  6
CONTINUOUS
 10
94.8
 20
250.65
 30
0.0
 40
1.0
 50
180.0
 51
270.0
  0
ARC
  5
1A087
  8
DANMEN
  6
CONTINUOUS
 10
86.2
 20
250.65
 30
0.0
 40
1.0
 50
270.0
 51
0.0
  0
LINE
  5
1A088
  8
DANMEN
  6
CONTINUOUS
 10
91.3
 20
249.7
 30
0.0
 11
89.7
 21
249.7
 31
0.0
  0
ARC
  5
1A089
  8
DANMEN
  6
CONTINUOUS
 10
91.8
 20
252.030306
 30
0.0
 40
2.0
 50
0.0
 51
51.706523
  0
LINE
  5
1A08A
  8
DANMEN
  6
CONTINUOUS
 10
89.1
 20
253.600006
 30
0.0
 11
87.960628
 21
253.600006
 31
0.0
  0
ARC
  5
1A08B
  8
DANMEN
  6
CONTINUOUS
 10
89.1
 20
253.3
 30
0.0
 40
0.3
 50
0.0
 51
90.0
  0
LINE
  5
1A08C
  8
DANMEN
  6
CONTINUOUS
 10
88.7
 20
251.946061
 30
0.0
 11
88.7
 21
250.7
 31
0.0
  0
ARC
  5
1A08D
  8
DANMEN
  6
CONTINUOUS
 10
89.2
 20
253.036932
 30
0.0
 40
0.2
 50
294.624318
 51
0.0
  0
ARC
  5
1A08E
  8
DANMEN
  6
CONTINUOUS
 10
89.7
 20
251.946061
 30
0.0
 40
1.0
 50
114.624318
 51
180.0
  0
LINE
  5
1A08F
  8
DANMEN
  6
CONTINUOUS
 10
89.4
 20
253.036932
 30
0.0
 11
89.4
 21
253.3
 31
0.0
  0
LINE
  5
1A090
  8
DANMEN
  6
CONTINUOUS
 10
87.2
 20
252.030306
 30
0.0
 11
87.2
 21
250.65
 31
0.0
  0
ARC
  5
1A091
  8
DANMEN
  6
CONTINUOUS
 10
89.2
 20
252.030306
 30
0.0
 40
2.0
 50
128.293195
 51
180.0
  0
ARC
  5
1A092
  8
DANMEN
  6
CONTINUOUS
 10
91.9
 20
253.3
 30
0.0
 40
0.3
 50
90.0
 51
180.0
  0
LINE
  5
1A093
  8
DANMEN
  6
CONTINUOUS
 10
93.039379
 20
253.6
 30
0.0
 11
91.9
 21
253.6
 31
0.0
  0
LINE
  5
1A094
  8
DANMEN
  6
CONTINUOUS
 10
92.3
 20
251.946061
 30
0.0
 11
92.3
 21
250.7
 31
0.0
  0
LINE
  5
1A095
  8
DANMEN
  6
CONTINUOUS
 10
93.8
 20
252.030306
 30
0.0
 11
93.8
 21
250.65
 31
0.0
  0
LINE
  5
1A096
  8
DANMEN
  6
CONTINUOUS
 10
91.6
 20
253.036932
 30
0.0
 11
91.6
 21
253.3
 31
0.0
  0
ARC
  5
1A097
  8
DANMEN
  6
CONTINUOUS
 10
91.3
 20
251.946061
 30
0.0
 40
1.0
 50
0.0
 51
65.375682
  0
ARC
  5
1A098
  8
DANMEN
  6
CONTINUOUS
 10
91.8
 20
253.036932
 30
0.0
 40
0.2
 50
180.0
 51
245.375682
  0
LINE
  5
1A099
  8
DANMEN
  6
CONTINUOUS
 10
110.5
 20
259.5
 30
0.0
 11
110.5
 21
225.5
 31
0.0
  0
LINE
  5
1A09A
  8
DANMEN
  6
CONTINUOUS
 10
108.850006
 20
248.0
 30
0.0
 11
108.850006
 21
226.65
 31
0.0
  0
ARC
  5
1A09B
  8
DANMEN
  6
CONTINUOUS
 10
110.0
 20
225.5
 30
0.0
 40
0.5
 50
270.000018
 51
0.0
  0
LINE
  5
1A09C
  8
DANMEN
  6
CONTINUOUS
 10
107.05
 20
216.149997
 30
0.0
 11
107.05
 21
223.349997
 31
0.0
  0
ARC
  5
1A09F
  8
DANMEN
  6
CONTINUOUS
 10
109.123494
 20
224.439422
 30
0.0
 40
0.5
 50
1.431408
 51
84.0
  0
LINE
  5
1A0A5
  8
DANMEN
  6
CONTINUOUS
 10
108.61785
 20
224.995322
 30
0.0
 11
109.175759
 21
224.936683
 31
0.0
  0
ARC
  5
1A0A8
  8
DANMEN
  6
CONTINUOUS
 10
108.2
 20
224.499997
 30
0.0
 40
0.5
 50
0.0
 51
90.0
  0
LINE
  5
1A0AA
  8
DANMEN
  6
CONTINUOUS
 10
108.850006
 20
258.350006
 30
0.0
 11
108.850006
 21
249.65
 31
0.0
  0
ARC
  5
1A0AB
  8
DANMEN
  6
CONTINUOUS
 10
110.0
 20
259.5
 30
0.0
 40
0.5
 50
0.0
 51
89.999982
  0
LINE
  5
1A0AC
  8
DANMEN
  6
CONTINUOUS
 10
105.0
 20
260.0
 30
0.0
 11
110.0
 21
260.0
 31
0.0
  0
LINE
  5
1A0AD
  8
DANMEN
  6
CONTINUOUS
 10
105.0
 20
258.350006
 30
0.0
 11
108.850006
 21
258.350006
 31
0.0
  0
LINE
  5
1A0AE
  8
DANMEN
  6
CONTINUOUS
 10
104.5
 20
259.5
 30
0.0
 11
104.5
 21
258.850006
 31
0.0
  0
ARC
  5
1A0AF
  8
DANMEN
  6
CONTINUOUS
 10
105.0
 20
259.5
 30
0.0
 40
0.5
 50
89.999982
 51
180.000019
  0
ARC
  5
1A0B0
  8
DANMEN
  6
CONTINUOUS
 10
105.0
 20
258.850006
 30
0.0
 40
0.5
 50
180.000019
 51
270.000001
  0
TEXT
  5
1A0B2
  8
SUNPO
  6
CONTINUOUS
 10
133.721192
 20
119.91667
 30
0.0
 40
2.5
  1
22
 50
90.0
  7
MX_NOTE_STANDARD
  0
TEXT
  5
1A0B3
  8
SUNPO
  6
CONTINUOUS
 10
242.293737
 20
119.125
 30
0.0
 40
2.5
  1
70
 50
90.0
  7
MX_NOTE_STANDARD
  0
LINE
  5
1A0B4
  8
DANMEN
  6
CONTINUOUS
 10
264.800001
 20
125.2
 30
0.0
 11
264.800001
 21
120.5
 31
0.0
  0
LINE
  5
1A0B5
  8
DANMEN
  6
CONTINUOUS
 10
263.800001
 20
124.8
 30
0.0
 11
263.800001
 21
121.3
 31
0.0
  0
LINE
  5
1A0B6
  8
DANMEN
  6
CONTINUOUS
 10
262.004653
 20
125.341701
 30
0.0
 11
259.4
 21
121.3
 31
0.0
  0
LINE
  5
1A0B7
  8
DANMEN
  6
CONTINUOUS
 10
262.845223
 20
124.8
 30
0.0
 11
260.589667
 21
121.3
 31
0.0
  0
ARC
  5
1A0B8
  8
DANMEN
  6
CONTINUOUS
 10
282.250003
 20
122.2
 30
0.0
 40
0.3
 50
286.488148
 51
90.0
  0
ARC
  5
1A0B9
  8
DANMEN
  6
CONTINUOUS
 10
272.05
 20
121.5
 30
0.0
 40
1.0
 50
89.999982
 51
180.000019
  0
LINE
  5
1A0BA
  8
DANMEN
  6
CONTINUOUS
 10
287.999997
 20
125.0
 30
0.0
 11
287.999997
 21
120.5
 31
0.0
  0
LINE
  5
1A0BB
  8
DANMEN
  6
CONTINUOUS
 10
286.499997
 20
125.0
 30
0.0
 11
286.499997
 21
121.0
 31
0.0
  0
LINE
  5
1A0BC
  8
DANMEN
  6
CONTINUOUS
 10
301.499997
 20
125.0
 30
0.0
 11
301.499997
 21
121.0
 31
0.0
  0
LINE
  5
1A0BD
  8
DANMEN
  6
CONTINUOUS
 10
302.999997
 20
162.0
 30
0.0
 11
302.999997
 21
120.5
 31
0.0
  0
LINE
  5
1A0BE
  8
DANMEN
  6
CONTINUOUS
 10
392.149994
 20
154.350006
 30
0.0
 11
392.149994
 21
87.649994
 31
0.0
  0
LINE
  5
1A0BF
  8
DANMEN
  6
CONTINUOUS
 10
390.5
 20
154.800003
 30
0.0
 11
390.5
 21
87.199997
 31
0.0
  0
LINE
  5
1A0C0
  8
SUNPO
  6
CONTINUOUS
 10
243.293737
 20
156.0
 30
0.0
 11
243.293737
 21
86.0
 31
0.0
  0
LINE
  5
1A0C1
  8
SUNPO
  6
CONTINUOUS
 10
322.968739
 20
125.0
 30
0.0
 11
322.968739
 21
117.0
 31
0.0
  0
LINE
  5
1A0C2
  8
SUNPO
  6
CONTINUOUS
 10
19.5
 20
51.0
 30
0.0
 11
19.5
 21
165.0
 31
0.0
  0
LINE
  5
1A0C3
  8
SUNPO
  6
CONTINUOUS
 10
143.185645
 20
133.000003
 30
0.0
 11
143.185645
 21
91.0
 31
0.0
  0
LINE
  5
1A0C4
  8
SUNPO
  6
CONTINUOUS
 10
134.721192
 20
133.000003
 30
0.0
 11
134.721192
 21
111.000003
 31
0.0
  0
LINE
  5
1A0C5
  8
SUNPO
  6
CONTINUOUS
 10
154.5
 20
91.0
 30
0.0
 11
154.5
 21
146.0
 31
0.0
  0
LINE
  5
1A0C6
  8
SUNPO
  6
CONTINUOUS
 10
295.5
 20
28.0
 30
0.0
 11
375.5
 21
28.0
 31
0.0
  0
LINE
  5
1A0C7
  8
SUNPO
  6
CONTINUOUS
 10
303.0
 20
36.322886
 30
0.0
 11
375.5
 21
36.322886
 31
0.0
  0
LINE
  5
1A0C8
  8
SUNPO
  6
CONTINUOUS
 10
55.5
 20
22.0
 30
0.0
 11
154.5
 21
22.0
 31
0.0
  0
LINE
  5
1A0CA
  8
DANMEN
  6
CONTINUOUS
 10
322.4
 20
81.199997
 30
0.0
 11
345.0
 21
81.199997
 31
0.0
  0
LINE
  5
1A0CB
  8
DANMEN
  6
CONTINUOUS
 10
322.4
 20
79.0
 30
0.0
 11
345.0
 21
79.0
 31
0.0
  0
LINE
  5
1A0CC
  8
DANMEN
  6
CONTINUOUS
 10
322.25
 20
122.0
 30
0.0
 11
390.5
 21
122.0
 31
0.0
  0
LINE
  5
1A0CD
  8
DANMEN
  6
CONTINUOUS
 10
346.000004
 20
117.0
 30
0.0
 11
322.4
 21
117.0
 31
0.0
  0
LINE
  5
1A0CE
  8
DANMEN
  6
CONTINUOUS
 10
322.4
 20
108.0
 30
0.0
 11
357.5
 21
108.0
 31
0.0
  0
LINE
  5
1A0CF
  8
DANMEN
  6
CONTINUOUS
 10
322.4
 20
108.5
 30
0.0
 11
357.5
 21
108.5
 31
0.0
  0
LINE
  5
1A0D0
  8
DANMEN
  6
CONTINUOUS
 10
322.4
 20
101.0
 30
0.0
 11
357.5
 21
101.0
 31
0.0
  0
LINE
  5
1A0D1
  8
DANMEN
  6
CONTINUOUS
 10
322.4
 20
100.5
 30
0.0
 11
357.5
 21
100.5
 31
0.0
  0
LINE
  5
1A0D2
  8
DANMEN
  6
CONTINUOUS
 10
345.5
 20
115.025
 30
0.0
 11
322.4
 21
115.025
 31
0.0
  0
LINE
  5
1A0D3
  8
DANMEN
  6
CONTINUOUS
 10
345.5
 20
93.974997
 30
0.0
 11
322.4
 21
93.974997
 31
0.0
  0
LINE
  5
1A0D4
  8
DANMEN
  6
CONTINUOUS
 10
272.5
 20
89.75
 30
0.0
 11
266.05
 21
89.75
 31
0.0
  0
LINE
  5
1A0D5
  8
DANMEN
  6
CONTINUOUS
 10
301.0
 20
46.0
 30
0.0
 11
260.0
 21
46.0
 31
0.0
  0
LINE
  5
1A0D6
  8
DANMEN
  6
CONTINUOUS
 10
272.5
 20
115.050003
 30
0.0
 11
259.649997
 21
115.050003
 31
0.0
  0
LINE
  5
1A0D7
  8
DANMEN
  6
CONTINUOUS
 10
271.050003
 20
117.0
 30
0.0
 11
264.75
 21
117.0
 31
0.0
  0
LINE
  5
1A0D8
  8
DANMEN
  6
CONTINUOUS
 10
300.5
 20
49.5
 30
0.0
 11
260.5
 21
49.5
 31
0.0
  0
LINE
  5
1A0D9
  8
DANMEN
  6
CONTINUOUS
 10
272.500003
 20
87.8
 30
0.0
 11
259.999997
 21
87.8
 31
0.0
  0
LINE
  5
1A0DA
  8
DANMEN
  6
CONTINUOUS
 10
264.800001
 20
122.0
 30
0.0
 11
271.183978
 21
122.0
 31
0.0
  0
LINE
  5
1A0DB
  8
DANMEN
  6
CONTINUOUS
 10
258.0
 20
48.0
 30
0.0
 11
258.0
 21
121.5
 31
0.0
  0
LINE
  5
1A0DC
  8
DANMEN
  6
CONTINUOUS
 10
260.5
 20
56.0
 30
0.0
 11
259.999997
 21
87.8
 31
0.0
  0
LINE
  5
1A0DD
  8
DANMEN
  6
CONTINUOUS
 10
260.5
 20
56.0
 30
0.0
 11
260.5
 21
49.5
 31
0.0
  0
ARC
  5
1A0DE
  8
DANMEN
  6
CONTINUOUS
 10
260.0
 20
48.0
 30
0.0
 40
2.0
 50
179.999981
 51
270.000018
  0
LINE
  5
1A0DF
  8
DANMEN
  6
CONTINUOUS
 10
259.949997
 20
89.75
 30
0.0
 11
259.949997
 21
114.050003
 31
0.0
  0
LINE
  5
1A0E0
  8
DANMEN
  6
CONTINUOUS
 10
240.25
 20
90.0
 30
0.0
 11
258.0
 21
90.0
 31
0.0
  0
LINE
  5
1A0E1
  8
DANMEN
  6
CONTINUOUS
 10
240.25
 20
86.0
 30
0.0
 11
258.0
 21
86.0
 31
0.0
  0
LINE
  5
1A0E2
  8
DANMEN
  6
CONTINUOUS
 10
264.95
 20
89.75
 30
0.0
 11
259.949997
 21
89.75
 31
0.0
  0
LINE
  5
1A0E3
  8
DANMEN
  6
CONTINUOUS
 10
264.95
 20
89.75
 30
0.0
 11
264.95
 21
91.95
 31
0.0
  0
LINE
  5
1A0E4
  8
DANMEN
  6
CONTINUOUS
 10
266.05
 20
89.75
 30
0.0
 11
266.05
 21
91.95
 31
0.0
  0
LINE
  5
1A0E5
  8
DANMEN
  6
CONTINUOUS
 10
266.05
 20
91.95
 30
0.0
 11
264.95
 21
91.95
 31
0.0
  0
LINE
  5
1A0E6
  8
DANMEN
  6
CONTINUOUS
 10
243.715107
 20
122.0
 30
0.0
 11
259.851111
 21
122.0
 31
0.0
  0
ARC
  5
1A0E7
  8
DANMEN
  6
CONTINUOUS
 10
258.5
 20
121.5
 30
0.0
 40
0.5
 50
90.0
 51
180.0
  0
LINE
  5
1A0E8
  8
DANMEN
  6
CONTINUOUS
 10
259.649997
 20
114.050003
 30
0.0
 11
259.649997
 21
115.050003
 31
0.0
  0
LINE
  5
1A0E9
  8
DANMEN
  6
CONTINUOUS
 10
259.949997
 20
114.050003
 30
0.0
 11
259.649997
 21
114.050003
 31
0.0
  0
LINE
  5
1A0EA
  8
DANMEN
  6
CONTINUOUS
 10
260.9
 20
119.0
 30
0.0
 11
262.1
 21
119.0
 31
0.0
  0
LINE
  5
1A0EB
  8
DANMEN
  6
CONTINUOUS
 10
260.589667
 20
121.3
 30
0.0
 11
263.800001
 21
121.3
 31
0.0
  0
LINE
  5
1A0EC
  8
DANMEN
  6
CONTINUOUS
 10
263.75
 20
117.0
 30
0.0
 11
259.2
 21
117.0
 31
0.0
  0
LINE
  5
1A0ED
  8
DANMEN
  6
CONTINUOUS
 10
261.040778
 20
122.0
 30
0.0
 11
263.800001
 21
122.0
 31
0.0
  0
LINE
  5
1A0F0
  8
DANMEN
  6
CONTINUOUS
 10
260.9
 20
119.0
 30
0.0
 11
260.4
 21
118.5
 31
0.0
  0
LINE
  5
1A0F3
  8
DANMEN
  6
CONTINUOUS
 10
260.4
 20
118.5
 30
0.0
 11
259.4
 21
118.5
 31
0.0
  0
LINE
  5
1A0F6
  8
DANMEN
  6
CONTINUOUS
 10
259.4
 20
120.5
 30
0.0
 11
259.4
 21
121.3
 31
0.0
  0
LINE
  5
1A0FA
  8
DANMEN
  6
CONTINUOUS
 10
259.4
 20
120.5
 30
0.0
 11
260.4
 21
120.5
 31
0.0
  0
ARC
  5
1A0FB
  8
DANMEN
  6
CONTINUOUS
 10
259.599999
 20
119.3
 30
0.0
 40
0.2
 50
89.999982
 51
180.000019
  0
LINE
  5
1A0FC
  8
DANMEN
  6
CONTINUOUS
 10
259.4
 20
119.3
 30
0.0
 11
259.4
 21
118.5
 31
0.0
  0
LINE
  5
1A0FD
  8
DANMEN
  6
CONTINUOUS
 10
259.599999
 20
119.5
 30
0.0
 11
260.4
 21
119.5
 31
0.0
  0
LINE
  5
1A0FE
  8
DANMEN
  6
CONTINUOUS
 10
260.4
 20
120.5
 30
0.0
 11
260.4
 21
119.5
 31
0.0
  0
LINE
  5
1A100
  8
DANMEN
  6
CONTINUOUS
 10
258.5
 20
122.0
 30
0.0
 11
258.7
 21
122.0
 31
0.0
  0
LINE
  5
1A101
  8
DANMEN
  6
CONTINUOUS
 10
260.25
 20
119.699997
 30
0.0
 11
260.25
 21
120.0
 31
0.0
  0
LINE
  5
1A102
  8
DANMEN
  6
CONTINUOUS
 10
260.25
 20
119.699997
 30
0.0
 11
259.2
 21
119.699997
 31
0.0
  0
LINE
  5
1A103
  8
DANMEN
  6
CONTINUOUS
 10
259.75
 20
120.5
 30
0.0
 11
259.2
 21
120.5
 31
0.0
  0
ARC
  5
1A104
  8
DANMEN
  6
CONTINUOUS
 10
259.75
 20
120.0
 30
0.0
 40
0.5
 50
360.0
 51
89.999982
  0
LINE
  5
1A105
  8
DANMEN
  6
CONTINUOUS
 10
259.2
 20
117.0
 30
0.0
 11
259.2
 21
119.699997
 31
0.0
  0
LINE
  5
1A106
  8
DANMEN
  6
CONTINUOUS
 10
259.2
 20
120.5
 30
0.0
 11
259.2
 21
121.5
 31
0.0
  0
ARC
  5
1A107
  8
DANMEN
  6
CONTINUOUS
 10
258.7
 20
121.5
 30
0.0
 40
0.5
 50
0.0
 51
90.0
  0
LINE
  5
1A10A
  8
DANMEN
  6
CONTINUOUS
 10
262.6
 20
120.5
 30
0.0
 11
264.800001
 21
120.5
 31
0.0
  0
LINE
  5
1A10B
  8
DANMEN
  6
CONTINUOUS
 10
262.6
 20
118.5
 30
0.0
 11
262.1
 21
119.0
 31
0.0
  0
LINE
  5
1A10F
  8
DANMEN
  6
CONTINUOUS
 10
263.6
 20
118.5
 30
0.0
 11
262.6
 21
118.5
 31
0.0
  0
ARC
  5
1A113
  8
DANMEN
  6
CONTINUOUS
 10
263.400001
 20
119.3
 30
0.0
 40
0.2
 50
359.999981
 51
90.000037
  0
LINE
  5
1A114
  8
DANMEN
  6
CONTINUOUS
 10
263.6
 20
119.3
 30
0.0
 11
263.6
 21
118.5
 31
0.0
  0
LINE
  5
1A115
  8
DANMEN
  6
CONTINUOUS
 10
263.400001
 20
119.5
 30
0.0
 11
262.6
 21
119.5
 31
0.0
  0
LINE
  5
1A116
  8
DANMEN
  6
CONTINUOUS
 10
262.6
 20
120.5
 30
0.0
 11
262.6
 21
119.5
 31
0.0
  0
LINE
  5
1A118
  8
DANMEN
  6
CONTINUOUS
 10
264.25
 20
120.5
 30
0.0
 11
263.25
 21
120.5
 31
0.0
  0
LINE
  5
1A119
  8
DANMEN
  6
CONTINUOUS
 10
264.75
 20
117.0
 30
0.0
 11
264.75
 21
120.0
 31
0.0
  0
LINE
  5
1A11A
  8
DANMEN
  6
CONTINUOUS
 10
262.75
 20
119.699997
 30
0.0
 11
262.75
 21
120.0
 31
0.0
  0
LINE
  5
1A11B
  8
DANMEN
  6
CONTINUOUS
 10
263.75
 20
119.699997
 30
0.0
 11
262.75
 21
119.699997
 31
0.0
  0
LINE
  5
1A11C
  8
DANMEN
  6
CONTINUOUS
 10
263.75
 20
117.0
 30
0.0
 11
263.75
 21
119.699997
 31
0.0
  0
ARC
  5
1A11D
  8
DANMEN
  6
CONTINUOUS
 10
263.25
 20
120.0
 30
0.0
 40
0.5
 50
89.999982
 51
180.000019
  0
ARC
  5
1A11E
  8
DANMEN
  6
CONTINUOUS
 10
264.25
 20
120.0
 30
0.0
 40
0.5
 50
360.0
 51
89.999982
  0
LINE
  5
1A11F
  8
DANMEN
  6
CONTINUOUS
 10
303.0
 20
48.0
 30
0.0
 11
303.0
 21
94.0
 31
0.0
  0
LINE
  5
1A120
  8
DANMEN
  6
CONTINUOUS
 10
301.000003
 20
79.0
 30
0.0
 11
300.5
 21
56.0
 31
0.0
  0
LINE
  5
1A121
  8
DANMEN
  6
CONTINUOUS
 10
300.5
 20
49.5
 30
0.0
 11
300.5
 21
56.0
 31
0.0
  0
ARC
  5
1A122
  8
DANMEN
  6
CONTINUOUS
 10
301.0
 20
48.0
 30
0.0
 40
2.0
 50
270.000018
 51
0.0
  0
LINE
  5
1A123
  8
DANMEN
  6
CONTINUOUS
 10
302.499996
 20
117.0
 30
0.0
 11
283.0
 21
117.0
 31
0.0
  0
LINE
  5
1A124
  8
DANMEN
  6
CONTINUOUS
 10
302.499996
 20
114.5
 30
0.0
 11
297.999997
 21
114.5
 31
0.0
  0
LINE
  5
1A125
  8
DANMEN
  6
CONTINUOUS
 10
301.8
 20
80.949997
 30
0.0
 11
275.0
 21
80.949997
 31
0.0
  0
LINE
  5
1A126
  8
DANMEN
  6
CONTINUOUS
 10
302.5
 20
94.5
 30
0.0
 11
298.0
 21
94.5
 31
0.0
  0
LINE
  5
1A127
  8
DANMEN
  6
CONTINUOUS
 10
301.050003
 20
93.0
 30
0.0
 11
292.5
 21
93.0
 31
0.0
  0
LINE
  5
1A128
  8
DANMEN
  6
CONTINUOUS
 10
301.000003
 20
79.0
 30
0.0
 11
273.500003
 21
79.0
 31
0.0
  0
LINE
  5
1A129
  8
DANMEN
  6
CONTINUOUS
 10
298.499997
 20
121.0
 30
0.0
 11
301.499997
 21
121.0
 31
0.0
  0
LINE
  5
1A12A
  8
DANMEN
  6
CONTINUOUS
 10
298.499997
 20
119.5
 30
0.0
 11
301.999997
 21
119.5
 31
0.0
  0
LINE
  5
1A12B
  8
DANMEN
  6
CONTINUOUS
 10
318.898349
 20
101.0
 30
0.0
 11
291.0
 21
101.0
 31
0.0
  0
LINE
  5
1A12C
  8
DANMEN
  6
CONTINUOUS
 10
320.75
 20
108.0
 30
0.0
 11
291.0
 21
108.0
 31
0.0
  0
LINE
  5
1A12D
  8
DANMEN
  6
CONTINUOUS
 10
320.75
 20
108.5
 30
0.0
 11
291.0
 21
108.5
 31
0.0
  0
LINE
  5
1A12E
  8
DANMEN
  6
CONTINUOUS
 10
318.898349
 20
100.5
 30
0.0
 11
291.0
 21
100.5
 31
0.0
  0
LINE
  5
1A12F
  8
DANMEN
  6
CONTINUOUS
 10
287.999997
 20
122.0
 30
0.0
 11
301.8
 21
122.0
 31
0.0
  0
LINE
  5
1A130
  8
DANMEN
  6
CONTINUOUS
 10
291.0
 20
110.0
 30
0.0
 11
291.0
 21
99.0
 31
0.0
  0
LINE
  5
1A131
  8
DANMEN
  6
CONTINUOUS
 10
291.0
 20
99.0
 30
0.0
 11
275.0
 21
110.0
 31
0.0
  0
LINE
  5
1A132
  8
DANMEN
  6
CONTINUOUS
 10
275.0
 20
110.0
 30
0.0
 11
275.0
 21
99.0
 31
0.0
  0
LINE
  5
1A133
  8
DANMEN
  6
CONTINUOUS
 10
275.0
 20
80.949997
 30
0.0
 11
275.0
 21
110.299994
 31
0.0
  0
LINE
  5
1A134
  8
DANMEN
  6
CONTINUOUS
 10
272.5
 20
94.8
 30
0.0
 11
272.5
 21
111.999994
 31
0.0
  0
LINE
  5
1A135
  8
DANMEN
  6
CONTINUOUS
 10
291.0
 20
99.0
 30
0.0
 11
275.0
 21
99.0
 31
0.0
  0
LINE
  5
1A136
  8
DANMEN
  6
CONTINUOUS
 10
272.500003
 20
80.0
 30
0.0
 11
272.500003
 21
87.8
 31
0.0
  0
ARC
  5
1A137
  8
DANMEN
  6
CONTINUOUS
 10
273.500003
 20
80.0
 30
0.0
 40
1.0
 50
179.999981
 51
270.000018
  0
LINE
  5
1A138
  8
DANMEN
  6
CONTINUOUS
 10
271.050003
 20
93.3
 30
0.0
 11
271.050003
 21
94.8
 31
0.0
  0
LINE
  5
1A139
  8
DANMEN
  6
CONTINUOUS
 10
272.5
 20
89.75
 30
0.0
 11
272.5
 21
93.3
 31
0.0
  0
LINE
  5
1A13A
  8
DANMEN
  6
CONTINUOUS
 10
272.5
 20
93.3
 30
0.0
 11
271.050003
 21
93.3
 31
0.0
  0
LINE
  5
1A13B
  8
DANMEN
  6
CONTINUOUS
 10
272.5
 20
94.8
 30
0.0
 11
271.050003
 21
94.8
 31
0.0
  0
ARC
  5
1A13D
  8
DANMEN
  6
CONTINUOUS
 10
292.5
 20
93.5
 30
0.0
 40
0.5
 50
180.0
 51
270.0
  0
LINE
  5
1A13E
  8
DANMEN
  6
CONTINUOUS
 10
298.0
 20
94.0
 30
0.0
 11
293.0
 21
94.0
 31
0.0
  0
ARC
  5
1A13F
  8
DANMEN
  6
CONTINUOUS
 10
292.5
 20
94.0
 30
0.0
 40
0.5
 50
90.0
 51
180.0
  0
LINE
  5
1A140
  8
DANMEN
  6
CONTINUOUS
 10
293.0
 20
94.5
 30
0.0
 11
292.5
 21
94.5
 31
0.0
  0
LINE
  5
1A141
  8
DANMEN
  6
CONTINUOUS
 10
293.0
 20
94.0
 30
0.0
 11
293.0
 21
94.5
 31
0.0
  0
LINE
  5
1A142
  8
DANMEN
  6
CONTINUOUS
 10
292.0
 20
93.5
 30
0.0
 11
292.0
 21
94.0
 31
0.0
  0
LINE
  5
1A143
  8
DANMEN
  6
CONTINUOUS
 10
298.0
 20
94.0
 30
0.0
 11
298.0
 21
94.5
 31
0.0
  0
LINE
  5
1A144
  8
DANMEN
  6
CONTINUOUS
 10
291.0
 20
110.0
 30
0.0
 11
275.0
 21
110.0
 31
0.0
  0
LINE
  5
1A145
  8
DANMEN
  6
CONTINUOUS
 10
283.3
 20
114.55
 30
0.0
 11
281.318372
 21
114.55
 31
0.0
  0
LINE
  5
1A146
  8
DANMEN
  6
CONTINUOUS
 10
284.3
 20
113.35
 30
0.0
 11
280.265976
 21
113.35
 31
0.0
  0
LINE
  5
1A147
  8
DANMEN
  6
CONTINUOUS
 10
282.003755
 20
114.5
 30
0.0
 11
282.745423
 21
114.856576
 31
0.0
  0
LINE
  5
1A148
  8
DANMEN
  6
CONTINUOUS
 10
283.0
 20
117.0
 30
0.0
 11
272.55
 21
117.0
 31
0.0
  0
LINE
  5
1A149
  8
DANMEN
  6
CONTINUOUS
 10
276.799997
 20
119.5
 30
0.0
 11
286.999997
 21
119.5
 31
0.0
  0
LINE
  5
1A14A
  8
DANMEN
  6
CONTINUOUS
 10
282.499997
 20
121.8
 30
0.0
 11
282.999997
 21
121.8
 31
0.0
  0
ARC
  5
1A14B
  8
DANMEN
  6
CONTINUOUS
 10
280.5
 20
110.690092
 30
0.0
 40
0.5
 50
0.0
 51
78.690068
  0
LINE
  5
1A14D
  8
DANMEN
  6
CONTINUOUS
 10
281.0
 20
110.299994
 30
0.0
 11
275.0
 21
110.299994
 31
0.0
  0
LINE
  5
1A14F
  8
DANMEN
  6
CONTINUOUS
 10
281.0
 20
110.690092
 30
0.0
 11
281.0
 21
110.299994
 31
0.0
  0
LINE
  5
1A150
  8
DANMEN
  6
CONTINUOUS
 10
282.250003
 20
122.5
 30
0.0
 11
272.05
 21
122.5
 31
0.0
  0
LINE
  5
1A151
  8
DANMEN
  6
CONTINUOUS
 10
276.050003
 20
121.0
 30
0.0
 11
272.55
 21
121.0
 31
0.0
  0
LINE
  5
1A152
  8
DANMEN
  6
CONTINUOUS
 10
271.050003
 20
111.999994
 30
0.0
 11
271.050003
 21
113.499994
 31
0.0
  0
LINE
  5
1A153
  8
DANMEN
  6
CONTINUOUS
 10
272.5
 20
111.999994
 30
0.0
 11
271.050003
 21
111.999994
 31
0.0
  0
LINE
  5
1A154
  8
DANMEN
  6
CONTINUOUS
 10
272.5
 20
113.499994
 30
0.0
 11
272.5
 21
115.050003
 31
0.0
  0
LINE
  5
1A155
  8
DANMEN
  6
CONTINUOUS
 10
272.5
 20
113.499994
 30
0.0
 11
271.050003
 21
113.499994
 31
0.0
  0
LINE
  5
1A156
  8
DANMEN
  6
CONTINUOUS
 10
272.55
 20
117.0
 30
0.0
 11
272.55
 21
121.0
 31
0.0
  0
LINE
  5
1A157
  8
DANMEN
  6
CONTINUOUS
 10
271.050003
 20
117.0
 30
0.0
 11
271.050003
 21
121.5
 31
0.0
  0
LINE
  5
1A158
  8
DANMEN
  6
CONTINUOUS
 10
280.349205
 20
114.930331
 30
0.0
 11
277.290105
 21
112.568364
 31
0.0
  0
LINE
  5
1A159
  8
DANMEN
  6
CONTINUOUS
 10
280.265976
 20
113.35
 30
0.0
 11
277.740435
 21
111.4
 31
0.0
  0
LINE
  5
1A15A
  8
DANMEN
  6
CONTINUOUS
 10
279.0
 20
111.499994
 30
0.0
 11
275.0
 21
111.499994
 31
0.0
  0
LINE
  5
1A15B
  8
DANMEN
  6
CONTINUOUS
 10
281.0
 20
115.05
 30
0.0
 11
275.0
 21
115.05
 31
0.0
  0
ARC
  5
1A15D
  8
DANMEN
  6
CONTINUOUS
 10
275.999105
 20
113.0
 30
0.0
 40
0.5
 50
34.708049
 51
214.708049
  0
LINE
  5
1A15E
  8
DANMEN
  6
CONTINUOUS
 10
277.740435
 20
111.4
 30
0.0
 11
276.499105
 21
111.4
 31
0.0
  0
LINE
  5
1A161
  8
DANMEN
  6
CONTINUOUS
 10
276.499105
 20
111.4
 30
0.0
 11
275.588073
 21
112.715302
 31
0.0
  0
LINE
  5
1A163
  8
DANMEN
  6
CONTINUOUS
 10
276.860143
 20
112.635002
 30
0.0
 11
276.410137
 21
113.284698
 31
0.0
  0
ARC
  5
1A164
  8
DANMEN
  6
CONTINUOUS
 10
277.106762
 20
112.80582
 30
0.0
 40
0.3
 50
214.708049
 51
307.672157
  0
LINE
  5
1A166
  8
DANMEN
  6
CONTINUOUS
 10
275.0
 20
111.499994
 30
0.0
 11
275.0
 21
115.05
 31
0.0
  0
ARC
  5
1A169
  8
DANMEN
  6
CONTINUOUS
 10
280.600064
 20
114.497816
 30
0.0
 40
0.5
 50
26.118581
 51
120.113733
  0
ARC
  5
1A16B
  8
DANMEN
  6
CONTINUOUS
 10
281.318372
 20
114.85
 30
0.0
 40
0.3
 50
206.118581
 51
270.0
  0
LINE
  5
1A16E
  8
DANMEN
  6
CONTINUOUS
 10
281.3
 20
114.5
 30
0.0
 11
282.003755
 21
114.5
 31
0.0
  0
LINE
  5
1A16F
  8
DANMEN
  6
CONTINUOUS
 10
281.0
 20
114.8
 30
0.0
 11
281.0
 21
115.05
 31
0.0
  0
ARC
  5
1A170
  8
DANMEN
  6
CONTINUOUS
 10
281.3
 20
114.8
 30
0.0
 40
0.3
 50
180.0
 51
270.0
  0
LINE
  5
1A171
  8
DANMEN
  6
CONTINUOUS
 10
279.0
 20
111.499994
 30
0.0
 11
280.598058
 21
111.180382
 31
0.0
  0
LINE
  5
1A172
  8
DANMEN
  6
CONTINUOUS
 10
276.550003
 20
120.2
 30
0.0
 11
282.335148
 21
121.912336
 31
0.0
  0
LINE
  5
1A173
  8
DANMEN
  6
CONTINUOUS
 10
282.499997
 20
121.8
 30
0.0
 11
276.714852
 21
120.087664
 31
0.0
  0
LINE
  5
1A174
  8
DANMEN
  6
CONTINUOUS
 10
276.550003
 20
120.2
 30
0.0
 11
276.050003
 21
120.2
 31
0.0
  0
LINE
  5
1A175
  8
DANMEN
  6
CONTINUOUS
 10
276.050003
 20
121.0
 30
0.0
 11
276.050003
 21
120.2
 31
0.0
  0
ARC
  5
1A178
  8
DANMEN
  6
CONTINUOUS
 10
276.799997
 20
119.8
 30
0.0
 40
0.3
 50
106.488148
 51
270.0
  0
LINE
  5
1A17A
  8
DANMEN
  6
CONTINUOUS
 10
291.0
 20
108.5
 30
0.0
 11
291.0
 21
100.5
 31
0.0
  0
LINE
  5
1A17B
  8
DANMEN
  6
CONTINUOUS
 10
297.999997
 20
115.05
 30
0.0
 11
285.3
 21
115.05
 31
0.0
  0
LINE
  5
1A17C
  8
DANMEN
  6
CONTINUOUS
 10
283.0
 20
117.0
 30
0.0
 11
283.0
 21
115.05
 31
0.0
  0
LINE
  5
1A17D
  8
DANMEN
  6
CONTINUOUS
 10
283.0
 20
117.0
 30
0.0
 11
283.0
 21
115.292199
 31
0.0
  0
ARC
  5
1A180
  8
DANMEN
  6
CONTINUOUS
 10
285.3
 20
114.55
 30
0.0
 40
0.5
 50
90.0
 51
180.0
  0
LINE
  5
1A183
  8
DANMEN
  6
CONTINUOUS
 10
284.8
 20
114.55
 30
0.0
 11
284.8
 21
113.85
 31
0.0
  0
LINE
  5
1A184
  8
DANMEN
  6
CONTINUOUS
 10
283.3
 20
115.05
 30
0.0
 11
283.3
 21
114.55
 31
0.0
  0
LINE
  5
1A185
  8
DANMEN
  6
CONTINUOUS
 10
283.3
 20
115.05
 30
0.0
 11
283.0
 21
115.05
 31
0.0
  0
ARC
  5
1A188
  8
DANMEN
  6
CONTINUOUS
 10
284.3
 20
113.85
 30
0.0
 40
0.5
 50
270.0
 51
0.0
  0
ARC
  5
1A18A
  8
DANMEN
  6
CONTINUOUS
 10
282.5
 20
115.292199
 30
0.0
 40
0.5
 50
299.396173
 51
0.0
  0
LINE
  5
1A18D
  8
DANMEN
  6
CONTINUOUS
 10
282.999997
 20
121.0
 30
0.0
 11
282.999997
 21
121.8
 31
0.0
  0
LINE
  5
1A190
  8
DANMEN
  6
CONTINUOUS
 10
282.999997
 20
121.0
 30
0.0
 11
286.499997
 21
121.0
 31
0.0
  0
LINE
  5
1A192
  8
DANMEN
  6
CONTINUOUS
 10
283.0
 20
122.0
 30
0.0
 11
286.499997
 21
122.0
 31
0.0
  0
ARC
  5
1A194
  8
DANMEN
  6
CONTINUOUS
 10
286.999997
 20
120.5
 30
0.0
 40
1.0
 50
270.000018
 51
0.0
  0
LINE
  5
1A199
  8
DANMEN
  6
CONTINUOUS
 10
297.999997
 20
115.05
 30
0.0
 11
297.999997
 21
114.5
 31
0.0
  0
ARC
  5
1A19B
  8
DANMEN
  6
CONTINUOUS
 10
298.499997
 20
120.5
 30
0.0
 40
0.5
 50
90.0
 51
180.0
  0
ARC
  5
1A19D
  8
DANMEN
  6
CONTINUOUS
 10
298.499997
 20
120.0
 30
0.0
 40
0.5
 50
180.0
 51
270.0
  0
LINE
  5
1A19E
  8
DANMEN
  6
CONTINUOUS
 10
297.999997
 20
120.5
 30
0.0
 11
297.999997
 21
120.0
 31
0.0
  0
LINE
  5
1A19F
  8
DANMEN
  6
CONTINUOUS
 10
299.999999
 20
97.257359
 30
0.0
 11
303.242639
 21
100.5
 31
0.0
  0
LINE
  5
1A1A0
  8
DANMEN
  6
CONTINUOUS
 10
300.636038
 20
100.5
 30
0.0
 11
303.551466
 21
97.584572
 31
0.0
  0
LINE
  5
1A1A1
  8
DANMEN
  6
CONTINUOUS
 10
304.000001
 20
100.499996
 30
0.0
 11
303.000001
 21
93.999995
 31
0.0
  0
LINE
  5
1A1A2
  8
DANMEN
  6
CONTINUOUS
 10
303.0
 20
81.199997
 30
0.0
 11
320.75
 21
81.199997
 31
0.0
  0
LINE
  5
1A1A3
  8
DANMEN
  6
CONTINUOUS
 10
303.0
 20
79.0
 30
0.0
 11
320.75
 21
79.0
 31
0.0
  0
LINE
  5
1A1A4
  8
DANMEN
  6
CONTINUOUS
 10
303.0
 20
93.975
 30
0.0
 11
320.75
 21
93.975
 31
0.0
  0
LINE
  5
1A1A5
  8
DANMEN
  6
CONTINUOUS
 10
301.050003
 20
82.949997
 30
0.0
 11
301.050003
 21
93.0
 31
0.0
  0
LINE
  5
1A1A6
  8
DANMEN
  6
CONTINUOUS
 10
301.8
 20
80.949997
 30
0.0
 11
301.8
 21
82.949997
 31
0.0
  0
LINE
  5
1A1A7
  8
DANMEN
  6
CONTINUOUS
 10
301.8
 20
82.949997
 30
0.0
 11
301.050003
 21
82.949997
 31
0.0
  0
LINE
  5
1A1A8
  8
DANMEN
  6
CONTINUOUS
 10
301.48528
 20
94.5
 30
0.0
 11
303.366305
 21
96.381025
 31
0.0
  0
LINE
  5
1A1A9
  8
DANMEN
  6
CONTINUOUS
 10
299.999999
 20
95.136039
 30
0.0
 11
303.751999
 21
98.88804
 31
0.0
  0
LINE
  5
1A1AA
  8
DANMEN
  6
CONTINUOUS
 10
299.999999
 20
99.014719
 30
0.0
 11
303.268623
 21
95.746094
 31
0.0
  0
ARC
  5
1A1AB
  8
DANMEN
  6
CONTINUOUS
 10
302.5
 20
94.0
 30
0.0
 40
0.5
 50
0.000019
 51
89.999982
  0
LINE
  5
1A1AC
  8
DANMEN
  6
CONTINUOUS
 10
299.999999
 20
94.772078
 30
0.0
 11
300.272076
 21
94.5
 31
0.0
  0
LINE
  5
1A1AD
  8
DANMEN
  6
CONTINUOUS
 10
299.999999
 20
96.893398
 30
0.0
 11
302.393397
 21
94.5
 31
0.0
  0
LINE
  5
1A1AE
  8
DANMEN
  6
CONTINUOUS
 10
303.0
 20
122.0
 30
0.0
 11
320.75
 21
122.0
 31
0.0
  0
LINE
  5
1A1AF
  8
DANMEN
  6
CONTINUOUS
 10
303.0
 20
117.0
 30
0.0
 11
320.75
 21
117.0
 31
0.0
  0
LINE
  5
1A1B0
  8
DANMEN
  6
CONTINUOUS
 10
303.0
 20
115.025
 30
0.0
 11
320.75
 21
115.025
 31
0.0
  0
LINE
  5
1A1B1
  8
DANMEN
  6
CONTINUOUS
 10
300.636038
 20
108.5
 30
0.0
 11
303.551466
 21
111.415428
 31
0.0
  0
LINE
  5
1A1B2
  8
DANMEN
  6
CONTINUOUS
 10
299.999999
 20
109.985281
 30
0.0
 11
303.268623
 21
113.253906
 31
0.0
  0
LINE
  5
1A1B3
  8
DANMEN
  6
CONTINUOUS
 10
299.999999
 20
111.742641
 30
0.0
 11
303.242639
 21
108.5
 31
0.0
  0
LINE
  5
1A1B4
  8
DANMEN
  6
CONTINUOUS
 10
299.999999
 20
113.863961
 30
0.0
 11
303.751999
 21
110.11196
 31
0.0
  0
LINE
  5
1A1B5
  8
DANMEN
  6
CONTINUOUS
 10
303.999994
 20
108.499997
 30
0.0
 11
302.999994
 21
114.999998
 31
0.0
  0
LINE
  5
1A1B6
  8
DANMEN
  6
CONTINUOUS
 10
302.757358
 20
100.5
 30
0.0
 11
303.834309
 21
99.423049
 31
0.0
  0
LINE
  5
1A1B7
  8
DANMEN
  6
CONTINUOUS
 10
299.999999
 20
99.37868
 30
0.0
 11
301.121319
 21
100.5
 31
0.0
  0
LINE
  5
1A1BA
  8
DANMEN
  6
CONTINUOUS
 10
302.757358
 20
108.5
 30
0.0
 11
303.834309
 21
109.576951
 31
0.0
  0
LINE
  5
1A1BB
  8
DANMEN
  6
CONTINUOUS
 10
299.999999
 20
109.62132
 30
0.0
 11
301.121319
 21
108.5
 31
0.0
  0
ARC
  5
1A1BC
  8
DANMEN
  6
CONTINUOUS
 10
302.499997
 20
116.5
 30
0.0
 40
0.5
 50
0.000091
 51
90.000128
  0
LINE
  5
1A1BD
  8
DANMEN
  6
CONTINUOUS
 10
301.48528
 20
114.5
 30
0.0
 11
303.366305
 21
112.618975
 31
0.0
  0
ARC
  5
1A1BE
  8
DANMEN
  6
CONTINUOUS
 10
302.499997
 20
115.0
 30
0.0
 40
0.5
 50
270.0
 51
0.0
  0
LINE
  5
1A1BF
  8
DANMEN
  6
CONTINUOUS
 10
299.999999
 20
112.106602
 30
0.0
 11
302.393397
 21
114.5
 31
0.0
  0
LINE
  5
1A1C0
  8
DANMEN
  6
CONTINUOUS
 10
299.999999
 20
114.227922
 30
0.0
 11
300.272076
 21
114.5
 31
0.0
  0
LINE
  5
1A1C1
  8
DANMEN
  6
CONTINUOUS
 10
302.999997
 20
116.5
 30
0.0
 11
302.999997
 21
115.0
 31
0.0
  0
ARC
  5
1A1C3
  8
DANMEN
  6
CONTINUOUS
 10
301.999997
 20
120.5
 30
0.0
 40
1.0
 50
270.0
 51
0.0
  0
LINE
  5
1A1C7
  8
SUNPO
  6
CONTINUOUS
 10
19.5
 20
22.0
 30
0.0
 11
19.5
 21
31.0
 31
0.0
  0
LINE
  5
1A1C9
  8
SUNPO
  6
CONTINUOUS
 10
51.0
 20
22.0
 30
0.0
 11
19.5
 21
22.0
 31
0.0
  0
ARC
  5
1A1CA
  8
SUNPO
  6
BYBLOCK
 10
19.5
 20
22.0
 30
0.0
 40
0.145
 50
270.0
 51
90.0
  0
ARC
  5
1A1CB
  8
SUNPO
  6
BYBLOCK
 10
19.5
 20
22.0
 30
0.0
 40
0.145
 50
90.0
 51
270.0
  0
TEXT
  5
1A1CC
  8
SUNPO
  6
CONTINUOUS
 10
18.5
 20
25.666667
 30
0.0
 40
2.5
  1
9
 50
90.0
  7
MX_NOTE_STANDARD
  0
TEXT
  5
1A1CD
  8
SUNPO
  6
CONTINUOUS
 10
44.833333
 20
15.0
 30
0.0
 40
2.5
  1
12
  7
MX_NOTE_STANDARD
  0
LINE
  5
1A1CE
  8
SUNPO
  6
CONTINUOUS
 10
52.5
 20
14.0
 30
0.0
 11
40.5
 21
14.0
 31
0.0
  0
LINE
  5
1A1CF
  8
SUNPO
  6
CONTINUOUS
 10
40.5
 20
29.5
 30
0.0
 11
40.5
 21
14.0
 31
0.0
  0
ARC
  5
1A1D0
  8
SUNPO
  6
BYBLOCK
 10
40.5
 20
14.0
 30
0.0
 40
0.145
 50
180.0
 51
0.0
  0
ARC
  5
1A1D1
  8
SUNPO
  6
BYBLOCK
 10
40.5
 20
14.0
 30
0.0
 40
0.145
 50
0.0
 51
180.0
  0
LINE
  5
1A1D2
  8
SUNPO
  6
CONTINUOUS
 10
52.5
 20
20.5
 30
0.0
 11
52.5
 21
14.0
 31
0.0
  0
ARC
  5
1A1D3
  8
SUNPO
  6
BYBLOCK
 10
52.5
 20
14.0
 30
0.0
 40
0.145
 50
0.0
 51
180.0
  0
ARC
  5
1A1D4
  8
SUNPO
  6
BYBLOCK
 10
52.5
 20
14.0
 30
0.0
 40
0.145
 50
180.0
 51
0.0
  0
LINE
  5
1A1D5
  8
DANMEN
  6
CONTINUOUS
 10
400.0
 20
86.0
 30
0.0
 11
376.0
 21
86.0
 31
0.0
  0
LINE
  5
1A1D6
  8
DANMEN
  6
CONTINUOUS
 10
398.850006
 20
87.649994
 30
0.0
 11
392.149994
 21
87.649994
 31
0.0
  0
LINE
  5
1A1D7
  8
DANMEN
  6
CONTINUOUS
 10
346.000005
 20
117.0
 30
0.0
 11
365.500001
 21
117.0
 31
0.0
  0
LINE
  5
1A1D8
  8
DANMEN
  6
CONTINUOUS
 10
364.200001
 20
113.35
 30
0.0
 11
368.234025
 21
113.35
 31
0.0
  0
LINE
  5
1A1D9
  8
DANMEN
  6
CONTINUOUS
 10
373.5
 20
80.649994
 30
0.0
 11
346.7
 21
80.649994
 31
0.0
  0
LINE
  5
1A1DA
  8
DANMEN
  6
CONTINUOUS
 10
374.5
 20
78.999994
 30
0.0
 11
346.0
 21
78.999994
 31
0.0
  0
LINE
  5
1A1DB
  8
DANMEN
  6
CONTINUOUS
 10
348.500001
 20
97.257358
 30
0.0
 11
345.257361
 21
100.499998
 31
0.0
  0
LINE
  5
1A1DC
  8
DANMEN
  6
CONTINUOUS
 10
347.863962
 20
100.499998
 30
0.0
 11
344.948534
 21
97.58457
 31
0.0
  0
LINE
  5
1A1DD
  8
DANMEN
  6
CONTINUOUS
 10
344.499999
 20
100.499994
 30
0.0
 11
345.499999
 21
93.999993
 31
0.0
  0
LINE
  5
1A1DE
  8
DANMEN
  6
CONTINUOUS
 10
348.500001
 20
95.136037
 30
0.0
 11
344.748001
 21
98.888038
 31
0.0
  0
LINE
  5
1A1DF
  8
DANMEN
  6
CONTINUOUS
 10
348.500001
 20
99.014717
 30
0.0
 11
345.231377
 21
95.746092
 31
0.0
  0
LINE
  5
1A1E0
  8
DANMEN
  6
CONTINUOUS
 10
348.500001
 20
96.893397
 30
0.0
 11
346.106603
 21
94.499998
 31
0.0
  0
LINE
  5
1A1E1
  8
DANMEN
  6
CONTINUOUS
 10
347.15
 20
92.999997
 30
0.0
 11
356.0
 21
92.999997
 31
0.0
  0
LINE
  5
1A1E2
  8
DANMEN
  6
CONTINUOUS
 10
346.000001
 20
94.499997
 30
0.0
 11
350.5
 21
94.499997
 31
0.0
  0
LINE
  5
1A1E3
  8
DANMEN
  6
CONTINUOUS
 10
347.15
 20
82.949991
 30
0.0
 11
347.15
 21
92.999997
 31
0.0
  0
LINE
  5
1A1E4
  8
DANMEN
  6
CONTINUOUS
 10
345.5
 20
79.499994
 30
0.0
 11
345.5
 21
93.999997
 31
0.0
  0
LINE
  5
1A1E5
  8
DANMEN
  6
CONTINUOUS
 10
346.7
 20
80.649994
 30
0.0
 11
346.7
 21
82.949991
 31
0.0
  0
ARC
  5
1A1E8
  8
DANMEN
  6
CONTINUOUS
 10
346.0
 20
79.499994
 30
0.0
 40
0.5
 50
179.999999
 51
269.999981
  0
LINE
  5
1A1EB
  8
DANMEN
  6
CONTINUOUS
 10
347.15
 20
82.949991
 30
0.0
 11
346.7
 21
82.949991
 31
0.0
  0
LINE
  5
1A1EC
  8
DANMEN
  6
CONTINUOUS
 10
347.01472
 20
94.499998
 30
0.0
 11
345.133695
 21
96.381023
 31
0.0
  0
ARC
  5
1A1EE
  8
DANMEN
  6
CONTINUOUS
 10
346.0
 20
93.999997
 30
0.0
 40
0.5
 50
90.0
 51
179.999982
  0
ARC
  5
1A1EF
  8
DANMEN
  6
CONTINUOUS
 10
356.0
 20
93.999997
 30
0.0
 40
0.5
 50
0.0
 51
90.0
  0
ARC
  5
1A1F0
  8
DANMEN
  6
CONTINUOUS
 10
356.0
 20
93.499997
 30
0.0
 40
0.5
 50
270.0
 51
0.0
  0
LINE
  5
1A1F1
  8
DANMEN
  6
CONTINUOUS
 10
350.5
 20
93.999997
 30
0.0
 11
355.5
 21
93.999997
 31
0.0
  0
LINE
  5
1A1F2
  8
DANMEN
  6
CONTINUOUS
 10
348.500001
 20
94.772076
 30
0.0
 11
348.227923
 21
94.499998
 31
0.0
  0
LINE
  5
1A1F3
  8
DANMEN
  6
CONTINUOUS
 10
350.5
 20
93.999997
 30
0.0
 11
350.5
 21
94.499997
 31
0.0
  0
LINE
  5
1A1F6
  8
DANMEN
  6
CONTINUOUS
 10
355.5
 20
93.999997
 30
0.0
 11
355.5
 21
94.499997
 31
0.0
  0
LINE
  5
1A1F8
  8
DANMEN
  6
CONTINUOUS
 10
355.5
 20
94.499997
 30
0.0
 11
356.0
 21
94.499997
 31
0.0
  0
LINE
  5
1A1FC
  8
DANMEN
  6
CONTINUOUS
 10
356.5
 20
93.499997
 30
0.0
 11
356.5
 21
93.999997
 31
0.0
  0
LINE
  5
1A1FD
  8
DANMEN
  6
CONTINUOUS
 10
348.500001
 20
112.1066
 30
0.0
 11
346.106603
 21
114.499998
 31
0.0
  0
LINE
  5
1A1FE
  8
DANMEN
  6
CONTINUOUS
 10
348.500001
 20
109.98528
 30
0.0
 11
345.231377
 21
113.253904
 31
0.0
  0
LINE
  5
1A1FF
  8
DANMEN
  6
CONTINUOUS
 10
348.500001
 20
113.86396
 30
0.0
 11
344.748001
 21
110.111959
 31
0.0
  0
LINE
  5
1A200
  8
DANMEN
  6
CONTINUOUS
 10
348.500001
 20
111.742639
 30
0.0
 11
345.257361
 21
108.499998
 31
0.0
  0
LINE
  5
1A201
  8
DANMEN
  6
CONTINUOUS
 10
348.500001
 20
109.621319
 30
0.0
 11
347.378681
 21
108.499998
 31
0.0
  0
LINE
  5
1A202
  8
DANMEN
  6
CONTINUOUS
 10
348.500001
 20
99.378678
 30
0.0
 11
347.378681
 21
100.499998
 31
0.0
  0
LINE
  5
1A203
  8
DANMEN
  6
CONTINUOUS
 10
346.000005
 20
114.5
 30
0.0
 11
350.500004
 21
114.5
 31
0.0
  0
LINE
  5
1A204
  8
DANMEN
  6
CONTINUOUS
 10
347.863962
 20
108.499998
 30
0.0
 11
344.948534
 21
111.415427
 31
0.0
  0
LINE
  5
1A205
  8
DANMEN
  6
CONTINUOUS
 10
344.500006
 20
108.499996
 30
0.0
 11
345.500006
 21
114.999997
 31
0.0
  0
LINE
  5
1A206
  8
DANMEN
  6
CONTINUOUS
 10
345.742642
 20
100.499998
 30
0.0
 11
344.665691
 21
99.423048
 31
0.0
  0
LINE
  5
1A209
  8
DANMEN
  6
CONTINUOUS
 10
345.742642
 20
108.499998
 30
0.0
 11
344.665691
 21
109.576949
 31
0.0
  0
ARC
  5
1A20A
  8
DANMEN
  6
CONTINUOUS
 10
346.000004
 20
116.5
 30
0.0
 40
0.5
 50
89.999872
 51
179.999909
  0
LINE
  5
1A20B
  8
DANMEN
  6
CONTINUOUS
 10
347.01472
 20
114.499998
 30
0.0
 11
345.133695
 21
112.618974
 31
0.0
  0
LINE
  5
1A20C
  8
DANMEN
  6
CONTINUOUS
 10
345.500004
 20
116.5
 30
0.0
 11
345.500004
 21
115.0
 31
0.0
  0
ARC
  5
1A20D
  8
DANMEN
  6
CONTINUOUS
 10
346.000004
 20
115.0
 30
0.0
 40
0.5
 50
180.0
 51
270.0
  0
LINE
  5
1A210
  8
DANMEN
  6
CONTINUOUS
 10
357.5
 20
108.5
 30
0.0
 11
357.5
 21
100.5
 31
0.0
  0
LINE
  5
1A211
  8
DANMEN
  6
CONTINUOUS
 10
350.500004
 20
115.05
 30
0.0
 11
363.200001
 21
115.05
 31
0.0
  0
LINE
  5
1A212
  8
DANMEN
  6
CONTINUOUS
 10
348.500001
 20
114.227921
 30
0.0
 11
348.227923
 21
114.499998
 31
0.0
  0
LINE
  5
1A215
  8
DANMEN
  6
CONTINUOUS
 10
350.500004
 20
115.05
 30
0.0
 11
350.500004
 21
114.5
 31
0.0
  0
ARC
  5
1A217
  8
DANMEN
  6
CONTINUOUS
 10
363.200001
 20
114.55
 30
0.0
 40
0.5
 50
0.0
 51
90.0
  0
LINE
  5
1A218
  8
DANMEN
  6
CONTINUOUS
 10
363.700001
 20
114.55
 30
0.0
 11
363.700001
 21
113.85
 31
0.0
  0
ARC
  5
1A219
  8
DANMEN
  6
CONTINUOUS
 10
364.200001
 20
113.85
 30
0.0
 40
0.5
 50
180.0
 51
270.0
  0
LINE
  5
1A21B
  8
DANMEN
  6
CONTINUOUS
 10
373.5
 20
80.649994
 30
0.0
 11
373.5
 21
110.299994
 31
0.0
  0
LINE
  5
1A21C
  8
DANMEN
  6
CONTINUOUS
 10
375.15
 20
89.45
 30
0.0
 11
375.15
 21
100.844999
 31
0.0
  0
LINE
  5
1A21D
  8
DANMEN
  6
CONTINUOUS
 10
389.799989
 20
100.844999
 30
0.0
 11
389.799989
 21
98.797498
 31
0.0
  0
LINE
  5
1A21E
  8
DANMEN
  6
CONTINUOUS
 10
387.299989
 20
100.844999
 30
0.0
 11
387.299989
 21
96.149997
 31
0.0
  0
LINE
  5
1A21F
  8
DANMEN
  6
CONTINUOUS
 10
386.349979
 20
89.45
 30
0.0
 11
375.15
 21
89.45
 31
0.0
  0
LINE
  5
1A220
  8
DANMEN
  6
CONTINUOUS
 10
390.299989
 20
87.8
 30
0.0
 11
375.5
 21
87.8
 31
0.0
  0
LINE
  5
1A221
  8
DANMEN
  6
CONTINUOUS
 10
388.5
 20
87.649994
 30
0.0
 11
376.0
 21
87.649994
 31
0.0
  0
LINE
  5
1A222
  8
DANMEN
  6
CONTINUOUS
 10
375.5
 20
79.999994
 30
0.0
 11
375.5
 21
87.8
 31
0.0
  0
ARC
  5
1A223
  8
DANMEN
  6
CONTINUOUS
 10
376.0
 20
87.149994
 30
0.0
 40
0.5
 50
90.0
 51
180.0
  0
ARC
  5
1A227
  8
DANMEN
  6
CONTINUOUS
 10
374.5
 20
79.999994
 30
0.0
 40
1.0
 50
270.0
 51
0.0
  0
LINE
  5
1A229
  8
DANMEN
  6
CONTINUOUS
 10
375.5
 20
86.5
 30
0.0
 11
375.5
 21
87.149994
 31
0.0
  0
ARC
  5
1A22A
  8
DANMEN
  6
CONTINUOUS
 10
376.0
 20
86.5
 30
0.0
 40
0.5
 50
179.999981
 51
269.999963
  0
LINE
  5
1A22F
  8
DANMEN
  6
CONTINUOUS
 10
390.5
 20
87.199997
 30
0.0
 11
388.5
 21
87.199997
 31
0.0
  0
LINE
  5
1A230
  8
DANMEN
  6
CONTINUOUS
 10
388.5
 20
87.199997
 30
0.0
 11
388.5
 21
87.649994
 31
0.0
  0
LINE
  5
1A234
  8
DANMEN
  6
CONTINUOUS
 10
387.999989
 20
89.382673
 30
0.0
 11
390.5
 21
91.882684
 31
0.0
  0
LINE
  5
1A235
  8
DANMEN
  6
CONTINUOUS
 10
387.999989
 20
90.796886
 30
0.0
 11
390.5
 21
93.296898
 31
0.0
  0
LINE
  5
1A236
  8
DANMEN
  6
CONTINUOUS
 10
387.999989
 20
92.2111
 30
0.0
 11
390.288886
 21
94.499998
 31
0.0
  0
LINE
  5
1A237
  8
DANMEN
  6
CONTINUOUS
 10
387.999989
 20
94.499998
 30
0.0
 11
389.799989
 21
94.499998
 31
0.0
  0
LINE
  5
1A238
  8
DANMEN
  6
CONTINUOUS
 10
387.999989
 20
89.299998
 30
0.0
 11
389.799989
 21
89.299998
 31
0.0
  0
LINE
  5
1A239
  8
DANMEN
  6
CONTINUOUS
 10
387.999989
 20
94.499998
 30
0.0
 11
387.999989
 21
89.299998
 31
0.0
  0
LINE
  5
1A23A
  8
DANMEN
  6
CONTINUOUS
 10
386.349979
 20
95.649997
 30
0.0
 11
386.349979
 21
89.45
 31
0.0
  0
LINE
  5
1A23D
  8
DANMEN
  6
CONTINUOUS
 10
387.999989
 20
93.625314
 30
0.0
 11
388.874673
 21
94.499998
 31
0.0
  0
ARC
  5
1A241
  8
DANMEN
  6
CONTINUOUS
 10
386.849979
 20
95.649997
 30
0.0
 40
0.5
 50
89.999982
 51
179.999964
  0
LINE
  5
1A242
  8
DANMEN
  6
CONTINUOUS
 10
386.849979
 20
96.149997
 30
0.0
 11
387.299989
 21
96.149997
 31
0.0
  0
LINE
  5
1A243
  8
DANMEN
  6
CONTINUOUS
 10
390.454378
 20
89.008636
 30
0.0
 11
390.5
 21
89.054257
 31
0.0
  0
LINE
  5
1A244
  8
DANMEN
  6
CONTINUOUS
 10
389.331527
 20
89.299998
 30
0.0
 11
390.5
 21
90.468471
 31
0.0
  0
ARC
  5
1A247
  8
DANMEN
  6
CONTINUOUS
 10
389.799989
 20
88.799998
 30
0.0
 40
0.5
 50
0.0
 51
89.999982
  0
LINE
  5
1A248
  8
DANMEN
  6
CONTINUOUS
 10
390.299989
 20
88.799998
 30
0.0
 11
390.299989
 21
87.8
 31
0.0
  0
LINE
  5
1A24E
  8
DANMEN
  6
CONTINUOUS
 10
389.799989
 20
98.197498
 30
0.0
 11
389.799989
 21
96.149997
 31
0.0
  0
LINE
  5
1A24F
  8
DANMEN
  6
CONTINUOUS
 10
389.499989
 20
98.197498
 30
0.0
 11
389.799989
 21
98.197498
 31
0.0
  0
LINE
  5
1A250
  8
DANMEN
  6
CONTINUOUS
 10
389.499989
 20
98.797498
 30
0.0
 11
389.799989
 21
98.797498
 31
0.0
  0
LINE
  5
1A251
  8
DANMEN
  6
CONTINUOUS
 10
389.499989
 20
98.797498
 30
0.0
 11
389.499989
 21
98.197498
 31
0.0
  0
ARC
  5
1A253
  8
DANMEN
  6
CONTINUOUS
 10
389.799989
 20
95.649997
 30
0.0
 40
0.5
 50
0.0
 51
90.0
  0
ARC
  5
1A255
  8
DANMEN
  6
CONTINUOUS
 10
389.799989
 20
94.999998
 30
0.0
 40
0.5
 50
270.0
 51
0.0
  0
LINE
  5
1A257
  8
DANMEN
  6
CONTINUOUS
 10
390.299989
 20
95.649997
 30
0.0
 11
390.299989
 21
94.999998
 31
0.0
  0
LINE
  5
1A258
  8
DANMEN
  6
CENTER
 10
372.460146
 20
106.0
 30
0.0
 11
394.13855
 21
106.0
 31
0.0
  0
LINE
  5
1A259
  8
DANMEN
  6
CONTINUOUS
 10
376.774976
 20
104.000002
 30
0.0
 11
393.499997
 21
104.000004
 31
0.0
  0
LINE
  5
1A25A
  8
DANMEN
  6
CONTINUOUS
 10
376.774975
 20
107.999999
 30
0.0
 11
393.499997
 21
108.0
 31
0.0
  0
LINE
  5
1A25B
  8
DANMEN
  6
CONTINUOUS
 10
376.774976
 20
104.379003
 30
0.0
 11
393.499996
 21
104.379005
 31
0.0
  0
LINE
  5
1A25C
  8
DANMEN
  6
CONTINUOUS
 10
376.774975
 20
107.620998
 30
0.0
 11
393.499996
 21
107.621
 31
0.0
  0
LINE
  5
1A25D
  8
DANMEN
  6
CONTINUOUS
 10
375.15
 20
115.35
 30
0.0
 11
388.999989
 21
115.35
 31
0.0
  0
LINE
  5
1A25E
  8
DANMEN
  6
CONTINUOUS
 10
365.5
 20
117.0
 30
0.0
 11
390.499989
 21
117.0
 31
0.0
  0
LINE
  5
1A25F
  8
DANMEN
  6
CONTINUOUS
 10
375.15
 20
102.494998
 30
0.0
 11
389.799989
 21
102.494998
 31
0.0
  0
LINE
  5
1A260
  8
DANMEN
  6
CONTINUOUS
 10
375.15
 20
100.844999
 30
0.0
 11
387.299989
 21
100.844999
 31
0.0
  0
ARC
  5
1A261
  8
DANMEN
  6
CONTINUOUS
 10
368.0
 20
110.690092
 30
0.0
 40
0.5
 50
101.309932
 51
180.0
  0
LINE
  5
1A262
  8
DANMEN
  6
CONTINUOUS
 10
375.15
 20
102.494998
 30
0.0
 11
375.15
 21
115.35
 31
0.0
  0
LINE
  5
1A263
  8
DANMEN
  6
CONTINUOUS
 10
367.5
 20
110.299994
 30
0.0
 11
373.5
 21
110.299994
 31
0.0
  0
LINE
  5
1A265
  8
DANMEN
  6
CONTINUOUS
 10
367.5
 20
110.690092
 30
0.0
 11
367.5
 21
110.299994
 31
0.0
  0
LINE
  5
1A267
  8
DANMEN
  6
CONTINUOUS
 10
373.499999
 20
109.5
 30
0.0
 11
373.500001
 21
102.5
 31
0.0
  0
LINE
  5
1A268
  8
DANMEN
  6
CONTINUOUS
 10
373.799999
 20
109.5
 30
0.0
 11
373.800001
 21
102.5
 31
0.0
  0
LINE
  5
1A269
  8
DANMEN
  6
CONTINUOUS
 10
375.527513
 20
107.772498
 30
0.0
 11
375.527514
 21
104.227503
 31
0.0
  0
LINE
  5
1A26A
  8
DANMEN
  6
DASHED
 10
374.714876
 20
104.855011
 30
0.0
 11
375.198867
 21
105.765266
 31
0.0
  0
LINE
  5
1A26B
  8
DANMEN
  6
CONTINUOUS
 10
376.774975
 20
107.999999
 30
0.0
 11
376.774976
 21
104.000003
 31
0.0
  0
LINE
  5
1A26C
  8
DANMEN
  6
CONTINUOUS
 10
373.500001
 20
102.5
 30
0.0
 11
373.800001
 21
102.5
 31
0.0
  0
LINE
  5
1A26D
  8
DANMEN
  6
CONTINUOUS
 10
376.774966
 20
104.000012
 30
0.0
 11
375.527505
 21
104.227513
 31
0.0
  0
LINE
  5
1A26E
  8
DANMEN
  6
CONTINUOUS
 10
376.774966
 20
104.37901
 30
0.0
 11
375.527505
 21
104.22751
 31
0.0
  0
LINE
  5
1A26F
  8
DANMEN
  6
CONTINUOUS
 10
373.800001
 20
102.5
 30
0.0
 11
375.527508
 21
104.227508
 31
0.0
  0
LINE
  5
1A270
  8
DANMEN
  6
DASHED
 10
373.5
 20
104.249295
 30
0.0
 11
374.714876
 21
104.85501
 31
0.0
  0
LINE
  5
1A275
  8
DANMEN
  6
CONTINUOUS
 10
373.499999
 20
109.5
 30
0.0
 11
373.799999
 21
109.5
 31
0.0
  0
LINE
  5
1A276
  8
DANMEN
  6
CONTINUOUS
 10
376.774967
 20
107.620991
 30
0.0
 11
375.527505
 21
107.772489
 31
0.0
  0
LINE
  5
1A277
  8
DANMEN
  6
CONTINUOUS
 10
376.774967
 20
107.999986
 30
0.0
 11
375.527504
 21
107.772484
 31
0.0
  0
LINE
  5
1A278
  8
DANMEN
  6
CONTINUOUS
 10
373.799998
 20
109.5
 30
0.0
 11
375.527508
 21
107.772491
 31
0.0
  0
ARC
  5
1A279
  8
DANMEN
  6
DASHED
 10
374.757402
 20
106.0
 30
0.0
 40
0.5
 50
332.000013
 51
28.000078
  0
LINE
  5
1A27A
  8
DANMEN
  6
DASHED
 10
374.714875
 20
107.144989
 30
0.0
 11
375.198866
 21
106.234736
 31
0.0
  0
LINE
  5
1A27B
  8
DANMEN
  6
DASHED
 10
373.5
 20
107.750707
 30
0.0
 11
374.714875
 21
107.144993
 31
0.0
  0
ARC
  5
1A27E
  8
DANMEN
  6
CONTINUOUS
 10
372.500896
 20
113.0
 30
0.0
 40
0.5
 50
325.291951
 51
145.291951
  0
LINE
  5
1A27F
  8
DANMEN
  6
CONTINUOUS
 10
372.000896
 20
111.4
 30
0.0
 11
372.911928
 21
112.715302
 31
0.0
  0
LINE
  5
1A280
  8
DANMEN
  6
CONTINUOUS
 10
369.5
 20
111.499994
 30
0.0
 11
373.5
 21
111.499994
 31
0.0
  0
LINE
  5
1A281
  8
DANMEN
  6
CONTINUOUS
 10
367.5
 20
115.35
 30
0.0
 11
373.5
 21
115.35
 31
0.0
  0
LINE
  5
1A282
  8
DANMEN
  6
CONTINUOUS
 10
365.500001
 20
117.0
 30
0.0
 11
365.500001
 21
115.05
 31
0.0
  0
LINE
  5
1A283
  8
DANMEN
  6
CONTINUOUS
 10
365.5
 20
117.0
 30
0.0
 11
365.5
 21
115.292199
 31
0.0
  0
LINE
  5
1A284
  8
DANMEN
  6
CONTINUOUS
 10
368.150796
 20
114.930331
 30
0.0
 11
371.209896
 21
112.568364
 31
0.0
  0
LINE
  5
1A285
  8
DANMEN
  6
CONTINUOUS
 10
368.234025
 20
113.35
 30
0.0
 11
370.759566
 21
111.4
 31
0.0
  0
LINE
  5
1A286
  8
DANMEN
  6
CONTINUOUS
 10
369.5
 20
111.499994
 30
0.0
 11
367.901942
 21
111.180382
 31
0.0
  0
LINE
  5
1A288
  8
DANMEN
  6
CONTINUOUS
 10
365.200001
 20
114.55
 30
0.0
 11
367.181629
 21
114.55
 31
0.0
  0
LINE
  5
1A28B
  8
DANMEN
  6
CONTINUOUS
 10
365.200001
 20
115.05
 30
0.0
 11
365.200001
 21
114.55
 31
0.0
  0
LINE
  5
1A28C
  8
DANMEN
  6
CONTINUOUS
 10
365.200001
 20
115.05
 30
0.0
 11
365.500001
 21
115.05
 31
0.0
  0
ARC
  5
1A291
  8
DANMEN
  6
CONTINUOUS
 10
367.899937
 20
114.497816
 30
0.0
 40
0.5
 50
59.886267
 51
153.881419
  0
ARC
  5
1A293
  8
DANMEN
  6
CONTINUOUS
 10
367.181629
 20
114.85
 30
0.0
 40
0.3
 50
270.0
 51
333.881419
  0
LINE
  5
1A29A
  8
DANMEN
  6
CONTINUOUS
 10
367.2
 20
114.5
 30
0.0
 11
366.496245
 21
114.5
 31
0.0
  0
ARC
  5
1A29B
  8
DANMEN
  6
CONTINUOUS
 10
366.0
 20
115.292199
 30
0.0
 40
0.5
 50
180.0
 51
240.603827
  0
LINE
  5
1A29C
  8
DANMEN
  6
CONTINUOUS
 10
366.496245
 20
114.5
 30
0.0
 11
365.754577
 21
114.856576
 31
0.0
  0
LINE
  5
1A29D
  8
DANMEN
  6
CONTINUOUS
 10
367.5
 20
114.8
 30
0.0
 11
367.5
 21
115.35
 31
0.0
  0
ARC
  5
1A29E
  8
DANMEN
  6
CONTINUOUS
 10
367.2
 20
114.8
 30
0.0
 40
0.3
 50
270.0
 51
0.0
  0
LINE
  5
1A2A1
  8
DANMEN
  6
CONTINUOUS
 10
370.759566
 20
111.4
 30
0.0
 11
372.000896
 21
111.4
 31
0.0
  0
LINE
  5
1A2A5
  8
DANMEN
  6
CONTINUOUS
 10
371.639858
 20
112.635002
 30
0.0
 11
372.089864
 21
113.284698
 31
0.0
  0
ARC
  5
1A2A6
  8
DANMEN
  6
CONTINUOUS
 10
371.393239
 20
112.80582
 30
0.0
 40
0.3
 50
232.327843
 51
325.291951
  0
LINE
  5
1A2AF
  8
DANMEN
  6
CONTINUOUS
 10
373.5
 20
111.499994
 30
0.0
 11
373.5
 21
115.35
 31
0.0
  0
LINE
  5
1A2B1
  8
DANMEN
  6
CONTINUOUS
 10
393.499998
 20
108.000001
 30
0.0
 11
393.5
 21
104.000005
 31
0.0
  0
ARC
  5
1A2B5
  8
DANMEN
  6
CONTINUOUS
 10
389.799989
 20
101.344999
 30
0.0
 40
0.5
 50
270.0
 51
0.0
  0
ARC
  5
1A2B6
  8
DANMEN
  6
CONTINUOUS
 10
389.799989
 20
101.994998
 30
0.0
 40
0.5
 50
0.0
 51
90.0
  0
LINE
  5
1A2B7
  8
DANMEN
  6
CONTINUOUS
 10
390.299989
 20
101.994998
 30
0.0
 11
390.299989
 21
101.344999
 31
0.0
  0
LINE
  5
1A2B8
  8
DANMEN
  6
CONTINUOUS
 10
388.999989
 20
113.999994
 30
0.0
 11
389.999989
 21
113.999994
 31
0.0
  0
LINE
  5
1A2BB
  8
DANMEN
  6
CONTINUOUS
 10
388.999989
 20
113.999994
 30
0.0
 11
388.999989
 21
115.35
 31
0.0
  0
LINE
  5
1A2BC
  8
DANMEN
  6
CONTINUOUS
 10
390.499989
 20
114.499994
 30
0.0
 11
390.499989
 21
117.0
 31
0.0
  0
ARC
  5
1A2BE
  8
DANMEN
  6
CONTINUOUS
 10
389.999989
 20
114.499994
 30
0.0
 40
0.5
 50
270.0
 51
0.0
  0
LINE
  5
1A2C2
  8
SUNPO
  6
CONTINUOUS
 10
39.0
 20
58.0
 30
0.0
 11
26.5
 21
58.0
 31
0.0
  0
LINE
  5
1A2C3
  8
SUNPO
  6
CONTINUOUS
 10
39.0
 20
43.0
 30
0.0
 11
26.5
 21
43.0
 31
0.0
  0
LINE
  5
1A2C4
  8
SUNPO
  6
CONTINUOUS
 10
39.0
 20
31.0
 30
0.0
 11
19.5
 21
31.0
 31
0.0
  0
LINE
  5
1A2C5
  8
SUNPO
  6
CONTINUOUS
 10
39.0
 20
51.0
 30
0.0
 11
19.5
 21
51.0
 31
0.0
  0
LINE
  5
1A2C6
  8
SUNPO
  6
CONTINUOUS
 10
26.5
 20
51.0
 30
0.0
 11
26.5
 21
58.0
 31
0.0
  0
TEXT
  5
1A2C7
  8
SUNPO
  6
CONTINUOUS
 10
18.5
 20
39.125
 30
0.0
 40
2.5
  1
20
 50
90.0
  7
MX_NOTE_STANDARD
  0
LINE
  5
1A2C8
  8
SUNPO
  6
CONTINUOUS
 10
26.5
 20
31.0
 30
0.0
 11
26.5
 21
43.0
 31
0.0
  0
LINE
  5
1A2C9
  8
SUNPO
  6
CONTINUOUS
 10
19.5
 20
31.0
 30
0.0
 11
19.5
 21
51.0
 31
0.0
  0
ARC
  5
1A2CA
  8
SUNPO
  6
BYBLOCK
 10
19.5
 20
31.0
 30
0.0
 40
0.145
 50
270.0
 51
90.0
  0
ARC
  5
1A2CB
  8
SUNPO
  6
BYBLOCK
 10
19.5
 20
31.0
 30
0.0
 40
0.145
 50
90.0
 51
270.0
  0
ARC
  5
1A2CC
  8
SUNPO
  6
BYBLOCK
 10
19.5
 20
31.0
 30
0.0
 40
0.145
 50
90.0
 51
270.0
  0
ARC
  5
1A2CD
  8
SUNPO
  6
BYBLOCK
 10
19.5
 20
31.0
 30
0.0
 40
0.145
 50
270.0
 51
90.0
  0
TEXT
  5
1A2CE
  8
SUNPO
  6
CONTINUOUS
 10
25.5
 20
35.333333
 30
0.0
 40
2.5
  1
12
 50
90.0
  7
MX_NOTE_STANDARD
  0
ARC
  5
1A2CF
  8
SUNPO
  6
BYBLOCK
 10
26.5
 20
31.0
 30
0.0
 40
0.145
 50
270.0
 51
90.0
  0
ARC
  5
1A2D0
  8
SUNPO
  6
BYBLOCK
 10
26.5
 20
31.0
 30
0.0
 40
0.145
 50
90.0
 51
270.0
  0
ARC
  5
1A2D1
  8
SUNPO
  6
BYBLOCK
 10
19.5
 20
51.0
 30
0.0
 40
0.145
 50
90.0
 51
270.0
  0
ARC
  5
1A2D2
  8
SUNPO
  6
BYBLOCK
 10
19.5
 20
51.0
 30
0.0
 40
0.145
 50
270.0
 51
90.0
  0
ARC
  5
1A2D3
  8
SUNPO
  6
BYBLOCK
 10
19.5
 20
51.0
 30
0.0
 40
0.145
 50
270.0
 51
90.0
  0
ARC
  5
1A2D4
  8
SUNPO
  6
BYBLOCK
 10
19.5
 20
51.0
 30
0.0
 40
0.145
 50
90.0
 51
270.0
  0
TEXT
  5
1A2D5
  8
SUNPO
  6
CONTINUOUS
 10
25.5
 20
46.166667
 30
0.0
 40
2.5
  1
8
 50
90.0
  7
MX_NOTE_STANDARD
  0
LINE
  5
1A2D6
  8
SUNPO
  6
CONTINUOUS
 10
26.5
 20
43.0
 30
0.0
 11
26.5
 21
51.0
 31
0.0
  0
ARC
  5
1A2D7
  8
SUNPO
  6
BYBLOCK
 10
26.5
 20
43.0
 30
0.0
 40
0.145
 50
270.0
 51
90.0
  0
ARC
  5
1A2D8
  8
SUNPO
  6
BYBLOCK
 10
26.5
 20
43.0
 30
0.0
 40
0.145
 50
90.0
 51
270.0
  0
ARC
  5
1A2D9
  8
SUNPO
  6
BYBLOCK
 10
26.5
 20
43.0
 30
0.0
 40
0.145
 50
90.0
 51
270.0
  0
ARC
  5
1A2DA
  8
SUNPO
  6
BYBLOCK
 10
26.5
 20
43.0
 30
0.0
 40
0.145
 50
270.0
 51
90.0
  0
ARC
  5
1A2DB
  8
SUNPO
  6
BYBLOCK
 10
26.5
 20
51.0
 30
0.0
 40
0.145
 50
270.0
 51
90.0
  0
ARC
  5
1A2DC
  8
SUNPO
  6
BYBLOCK
 10
26.5
 20
51.0
 30
0.0
 40
0.145
 50
90.0
 51
270.0
  0
ARC
  5
1A2DD
  8
SUNPO
  6
BYBLOCK
 10
26.5
 20
51.0
 30
0.0
 40
0.145
 50
90.0
 51
270.0
  0
ARC
  5
1A2DE
  8
SUNPO
  6
BYBLOCK
 10
26.5
 20
51.0
 30
0.0
 40
0.145
 50
270.0
 51
90.0
  0
TEXT
  5
1A2DF
  8
SUNPO
  6
CONTINUOUS
 10
25.5
 20
53.666667
 30
0.0
 40
2.5
  1
7
 50
90.0
  7
MX_NOTE_STANDARD
  0
ARC
  5
1A2E0
  8
SUNPO
  6
BYBLOCK
 10
26.5
 20
58.0
 30
0.0
 40
0.145
 50
90.0
 51
270.0
  0
ARC
  5
1A2E1
  8
SUNPO
  6
BYBLOCK
 10
26.5
 20
58.0
 30
0.0
 40
0.145
 50
270.0
 51
90.0
  0
LINE
  5
1A2E2
  8
DANMEN
  6
CONTINUOUS
 10
398.850006
 20
91.5
 30
0.0
 11
398.850006
 21
87.649994
 31
0.0
  0
LINE
  5
1A2E3
  8
DANMEN
  6
CONTINUOUS
 10
400.5
 20
91.5
 30
0.0
 11
400.5
 21
86.5
 31
0.0
  0
ARC
  5
1A2E6
  8
DANMEN
  6
CONTINUOUS
 10
400.0
 20
86.5
 30
0.0
 40
0.5
 50
270.000018
 51
359.999981
  0
ARC
  5
1A2E9
  8
DANMEN
  6
CONTINUOUS
 10
400.0
 20
91.5
 30
0.0
 40
0.5
 50
359.999981
 51
90.000037
  0
ARC
  5
1A2EA
  8
DANMEN
  6
CONTINUOUS
 10
399.350006
 20
91.5
 30
0.0
 40
0.5
 50
90.000037
 51
180.000019
  0
LINE
  5
1A2EB
  8
DANMEN
  6
CONTINUOUS
 10
400.0
 20
92.0
 30
0.0
 11
399.350006
 21
92.0
 31
0.0
  0
TEXT
  5
1A2EC
  8
SUNPO
  6
CONTINUOUS
 10
18.5
 20
105.5
 30
0.0
 40
2.5
  1
114
 50
90.0
  7
MX_NOTE_STANDARD
  0
LINE
  5
1A2ED
  8
SUNPO
  6
CONTINUOUS
 10
223.5
 20
44.0
 30
0.0
 11
185.5
 21
44.0
 31
0.0
  0
LINE
  5
1A2EE
  8
SUNPO
  6
CONTINUOUS
 10
185.5
 20
36.322886
 30
0.0
 11
194.611405
 21
39.639166
 31
0.0
  0
LINE
  5
1A2EF
  8
SUNPO
  6
CONTINUOUS
 10
185.5
 20
28.0
 30
0.0
 11
265.5
 21
28.0
 31
0.0
  0
LINE
  5
1A2F0
  8
SUNPO
  6
CONTINUOUS
 10
258.0
 20
36.322886
 30
0.0
 11
185.5
 21
36.322886
 31
0.0
  0
TEXT
  5
1A2F1
  8
SUNPO
  6
CONTINUOUS
 10
170.916667
 20
29.0
 30
0.0
 40
2.5
  1
25
  7
MX_NOTE_STANDARD
  0
LINE
  5
1A2F2
  8
SUNPO
  6
CONTINUOUS
 10
160.5
 20
84.5
 30
0.0
 11
160.5
 21
28.0
 31
0.0
  0
LINE
  5
1A2F3
  8
SUNPO
  6
CONTINUOUS
 10
185.5
 20
84.5
 30
0.0
 11
185.5
 21
28.0
 31
0.0
  0
LINE
  5
1A2F4
  8
SUNPO
  6
CONTINUOUS
 10
185.5
 20
28.0
 30
0.0
 11
190.5
 21
33.0
 31
0.0
  0
LINE
  5
1A2F5
  8
SUNPO
  6
CONTINUOUS
 10
190.5
 20
33.0
 30
0.0
 11
190.5
 21
23.0
 31
0.0
  0
LINE
  5
1A2F6
  8
SUNPO
  6
CONTINUOUS
 10
154.5
 20
31.0
 30
0.0
 11
154.5
 21
22.0
 31
0.0
  0
LINE
  5
1A2F7
  8
SUNPO
  6
CONTINUOUS
 10
185.5
 20
28.0
 30
0.0
 11
160.5
 21
28.0
 31
0.0
  0
TEXT
  5
1A2F8
  8
SUNPO
  6
CONTINUOUS
 10
153.5
 20
25.666667
 30
0.0
 40
2.5
  1
9
 50
90.0
  7
MX_NOTE_STANDARD
  0
ARC
  5
1A2F9
  8
SUNPO
  6
BYBLOCK
 10
154.5
 20
22.0
 30
0.0
 40
0.145
 50
270.0
 51
90.0
  0
ARC
  5
1A2FA
  8
SUNPO
  6
BYBLOCK
 10
154.5
 20
22.0
 30
0.0
 40
0.145
 50
90.0
 51
270.0
  0
ARC
  5
1A2FB
  8
SUNPO
  6
BYBLOCK
 10
160.5
 20
28.0
 30
0.0
 40
0.15625
 50
180.0
 51
0.0
  0
ARC
  5
1A2FC
  8
SUNPO
  6
BYBLOCK
 10
160.5
 20
28.0
 30
0.0
 40
0.15625
 50
0.0
 51
180.0
  0
LINE
  5
1A2FD
  8
SUNPO
  6
CONTINUOUS
 10
190.5
 20
23.0
 30
0.0
 11
185.5
 21
28.0
 31
0.0
  0
LINE
  5
1A300
  8
SUNPO
  6
CONTINUOUS
 10
112.0
 20
31.0
 30
0.0
 11
154.5
 21
31.0
 31
0.0
  0
LINE
  5
1A301
  8
SUNPO
  6
CONTINUOUS
 10
111.999999
 20
56.0
 30
0.0
 11
143.185645
 21
56.0
 31
0.0
  0
LINE
  5
1A302
  8
SUNPO
  6
CONTINUOUS
 10
111.999999
 20
91.0
 30
0.0
 11
143.185645
 21
91.0
 31
0.0
  0
LINE
  5
1A303
  8
SUNPO
  6
CONTINUOUS
 10
111.999999
 20
56.0
 30
0.0
 11
143.185645
 21
56.0
 31
0.0
  0
LINE
  5
1A304
  8
SUNPO
  6
CONTINUOUS
 10
112.0
 20
91.0
 30
0.0
 11
134.721192
 21
91.0
 31
0.0
  0
LINE
  5
1A305
  8
SUNPO
  6
CONTINUOUS
 10
118.999996
 20
111.000003
 30
0.0
 11
134.721192
 21
111.000003
 31
0.0
  0
LINE
  5
1A306
  8
SUNPO
  6
CONTINUOUS
 10
118.999996
 20
111.000003
 30
0.0
 11
134.721192
 21
111.000003
 31
0.0
  0
LINE
  5
1A307
  8
SUNPO
  6
CONTINUOUS
 10
170.5
 20
84.5
 30
0.0
 11
170.5
 21
44.0
 31
0.0
  0
LINE
  5
1A308
  8
SUNPO
  6
CONTINUOUS
 10
154.5
 20
31.0
 30
0.0
 11
154.5
 21
91.0
 31
0.0
  0
LINE
  5
1A309
  8
SUNPO
  6
CONTINUOUS
 10
143.185645
 20
91.0
 30
0.0
 11
143.185645
 21
56.0
 31
0.0
  0
LINE
  5
1A30A
  8
SUNPO
  6
CONTINUOUS
 10
170.5
 20
44.0
 30
0.0
 11
160.5
 21
44.0
 31
0.0
  0
LINE
  5
1A30B
  8
SUNPO
  6
CONTINUOUS
 10
143.185645
 20
56.0
 30
0.0
 11
143.185645
 21
31.0
 31
0.0
  0
ARC
  5
1A30C
  8
SUNPO
  6
BYBLOCK
 10
143.185645
 20
31.0
 30
0.0
 40
0.145
 50
270.0
 51
90.0
  0
ARC
  5
1A30D
  8
SUNPO
  6
BYBLOCK
 10
143.185645
 20
31.0
 30
0.0
 40
0.145
 50
90.0
 51
270.0
  0
TEXT
  5
1A30E
  8
SUNPO
  6
CONTINUOUS
 10
142.185645
 20
41.416667
 30
0.0
 40
2.5
  1
25
 50
90.0
  7
MX_NOTE_STANDARD
  0
ARC
  5
1A30F
  8
SUNPO
  6
BYBLOCK
 10
154.5
 20
31.0
 30
0.0
 40
0.145
 50
270.0
 51
90.0
  0
ARC
  5
1A310
  8
SUNPO
  6
BYBLOCK
 10
154.5
 20
31.0
 30
0.0
 40
0.145
 50
90.0
 51
270.0
  0
ARC
  5
1A311
  8
SUNPO
  6
BYBLOCK
 10
154.5
 20
31.0
 30
0.0
 40
0.145
 50
90.0
 51
270.0
  0
ARC
  5
1A312
  8
SUNPO
  6
BYBLOCK
 10
154.5
 20
31.0
 30
0.0
 40
0.145
 50
270.0
 51
90.0
  0
ARC
  5
1A313
  8
SUNPO
  6
BYBLOCK
 10
160.5
 20
44.0
 30
0.0
 40
0.145
 50
180.0
 51
0.0
  0
ARC
  5
1A314
  8
SUNPO
  6
BYBLOCK
 10
160.5
 20
44.0
 30
0.0
 40
0.145
 50
0.0
 51
180.0
  0
ARC
  5
1A315
  8
SUNPO
  6
BYBLOCK
 10
143.185645
 20
56.0
 30
0.0
 40
0.145
 50
270.0
 51
90.0
  0
ARC
  5
1A316
  8
SUNPO
  6
BYBLOCK
 10
143.185645
 20
56.0
 30
0.0
 40
0.145
 50
90.0
 51
270.0
  0
ARC
  5
1A317
  8
SUNPO
  6
BYBLOCK
 10
143.185645
 20
56.0
 30
0.0
 40
0.145
 50
90.0
 51
270.0
  0
ARC
  5
1A318
  8
SUNPO
  6
BYBLOCK
 10
143.185645
 20
56.0
 30
0.0
 40
0.145
 50
270.0
 51
90.0
  0
TEXT
  5
1A319
  8
SUNPO
  6
CONTINUOUS
 10
142.185645
 20
71.416667
 30
0.0
 40
2.5
  1
35
 50
90.0
  7
MX_NOTE_STANDARD
  0
TEXT
  5
1A31A
  8
SUNPO
  6
CONTINUOUS
 10
153.5
 20
59.125
 30
0.0
 40
2.5
  1
60
 50
90.0
  7
MX_NOTE_STANDARD
  0
TEXT
  5
1A31B
  8
SUNPO
  6
CONTINUOUS
 10
176.333333
 20
45.0
 30
0.0
 40
2.5
  1
15
  7
MX_NOTE_STANDARD
  0
LINE
  5
1A31C
  8
SUNPO
  6
CONTINUOUS
 10
185.5
 20
44.0
 30
0.0
 11
170.5
 21
44.0
 31
0.0
  0
TEXT
  5
1A31D
  8
SUNPO
  6
CONTINUOUS
 10
164.041667
 20
45.0
 30
0.0
 40
2.5
  1
10
  7
MX_NOTE_STANDARD
  0
ARC
  5
1A31E
  8
SUNPO
  6
BYBLOCK
 10
170.5
 20
44.0
 30
0.0
 40
0.145
 50
0.0
 51
180.0
  0
ARC
  5
1A31F
  8
SUNPO
  6
BYBLOCK
 10
170.5
 20
44.0
 30
0.0
 40
0.145
 50
180.0
 51
0.0
  0
ARC
  5
1A320
  8
SUNPO
  6
BYBLOCK
 10
170.5
 20
44.0
 30
0.0
 40
0.145
 50
180.0
 51
0.0
  0
ARC
  5
1A321
  8
SUNPO
  6
BYBLOCK
 10
170.5
 20
44.0
 30
0.0
 40
0.145
 50
0.0
 51
180.0
  0
ARC
  5
1A324
  8
SUNPO
  6
BYBLOCK
 10
185.5
 20
44.0
 30
0.0
 40
0.145
 50
0.0
 51
180.0
  0
ARC
  5
1A325
  8
SUNPO
  6
BYBLOCK
 10
185.5
 20
44.0
 30
0.0
 40
0.145
 50
180.0
 51
0.0
  0
ARC
  5
1A326
  8
SUNPO
  6
BYBLOCK
 10
185.5
 20
44.0
 30
0.0
 40
0.145
 50
180.0
 51
0.0
  0
ARC
  5
1A327
  8
SUNPO
  6
BYBLOCK
 10
185.5
 20
44.0
 30
0.0
 40
0.145
 50
0.0
 51
180.0
  0
TEXT
  5
1A328
  8
SUNPO
  6
CONTINUOUS
 10
133.721192
 20
99.125001
 30
0.0
 40
2.5
  1
20
 50
90.0
  7
MX_NOTE_STANDARD
  0
LINE
  5
1A329
  8
SUNPO
  6
CONTINUOUS
 10
134.721192
 20
111.000003
 30
0.0
 11
134.721192
 21
91.0
 31
0.0
  0
LINE
  5
1A32A
  8
SUNPO
  6
CONTINUOUS
 10
132.0
 20
91.0
 30
0.0
 11
154.5
 21
91.0
 31
0.0
  0
LINE
  5
1A32B
  8
SUNPO
  6
CONTINUOUS
 10
136.221191
 20
91.0
 30
0.0
 11
143.185645
 21
91.0
 31
0.0
  0
ARC
  5
1A32C
  8
SUNPO
  6
BYBLOCK
 10
134.721192
 20
91.0
 30
0.0
 40
0.145
 50
270.0
 51
90.0
  0
ARC
  5
1A32D
  8
SUNPO
  6
BYBLOCK
 10
134.721192
 20
91.0
 30
0.0
 40
0.145
 50
90.0
 51
270.0
  0
ARC
  5
1A32E
  8
SUNPO
  6
BYBLOCK
 10
143.185645
 20
91.0
 30
0.0
 40
0.145
 50
90.0
 51
270.0
  0
ARC
  5
1A32F
  8
SUNPO
  6
BYBLOCK
 10
143.185645
 20
91.0
 30
0.0
 40
0.145
 50
270.0
 51
90.0
  0
ARC
  5
1A330
  8
SUNPO
  6
BYBLOCK
 10
143.185645
 20
91.0
 30
0.0
 40
0.145
 50
270.0
 51
90.0
  0
ARC
  5
1A331
  8
SUNPO
  6
BYBLOCK
 10
143.185645
 20
91.0
 30
0.0
 40
0.145
 50
90.0
 51
270.0
  0
LINE
  5
1A332
  8
SUNPO
  6
CONTINUOUS
 10
159.5
 20
96.0
 30
0.0
 11
149.5
 21
96.0
 31
0.0
  0
LINE
  5
1A333
  8
SUNPO
  6
CONTINUOUS
 10
149.5
 20
96.0
 30
0.0
 11
154.5
 21
91.0
 31
0.0
  0
LINE
  5
1A335
  8
SUNPO
  6
CONTINUOUS
 10
154.5
 20
91.0
 30
0.0
 11
159.5
 21
96.0
 31
0.0
  0
TEXT
  5
1A338
  8
SUNPO
  6
CONTINUOUS
 10
142.185645
 20
109.916668
 30
0.0
 40
2.5
  1
42
 50
90.0
  7
MX_NOTE_STANDARD
  0
ARC
  5
1A339
  8
SUNPO
  6
BYBLOCK
 10
134.721192
 20
111.000003
 30
0.0
 40
0.145
 50
90.0
 51
270.0
  0
ARC
  5
1A33A
  8
SUNPO
  6
BYBLOCK
 10
134.721192
 20
111.000003
 30
0.0
 40
0.145
 50
270.0
 51
90.0
  0
ARC
  5
1A33B
  8
SUNPO
  6
BYBLOCK
 10
134.721192
 20
111.000003
 30
0.0
 40
0.145
 50
270.0
 51
90.0
  0
ARC
  5
1A33C
  8
SUNPO
  6
BYBLOCK
 10
134.721192
 20
111.000003
 30
0.0
 40
0.145
 50
90.0
 51
270.0
  0
LINE
  5
1A33D
  8
SUNPO
  6
CONTINUOUS
 10
274.376776
 20
24.500001
 30
0.0
 11
270.335331
 21
31.499997
 31
0.0
  0
LINE
  5
1A33E
  8
SUNPO
  6
CONTINUOUS
 10
276.686114
 20
24.5
 30
0.0
 11
272.644668
 21
31.499997
 31
0.0
  0
LINE
  5
1A33F
  8
SUNPO
  6
CONTINUOUS
 10
283.036961
 20
31.5
 30
0.0
 11
283.036961
 21
24.500003
 31
0.0
  0
LINE
  5
1A340
  8
SUNPO
  6
CONTINUOUS
 10
283.036959
 20
24.500004
 30
0.0
 11
278.995515
 21
31.499997
 31
0.0
  0
LINE
  5
1A341
  8
SUNPO
  6
CONTINUOUS
 10
280.72756
 20
24.500001
 30
0.0
 11
276.686114
 21
31.499998
 31
0.0
  0
LINE
  5
1A342
  8
SUNPO
  6
CONTINUOUS
 10
276.686113
 20
31.5
 30
0.0
 11
276.686113
 21
24.500001
 31
0.0
  0
LINE
  5
1A343
  8
SUNPO
  6
CONTINUOUS
 10
277.686113
 20
24.5
 30
0.0
 11
273.208582
 21
24.5
 31
0.0
  0
LINE
  5
1A344
  8
SUNPO
  6
CONTINUOUS
 10
283.61431
 20
24.5
 30
0.0
 11
280.036562
 21
24.5
 31
0.0
  0
LINE
  5
1A346
  8
SUNPO
  6
CONTINUOUS
 10
291.76901
 20
26.5
 30
0.0
 11
286.76901
 21
26.5
 31
0.0
  0
LINE
  5
1A347
  8
SUNPO
  6
CONTINUOUS
 10
291.76901
 20
29.5
 30
0.0
 11
286.76901
 21
29.5
 31
0.0
  0
LINE
  5
1A348
  8
SUNPO
  6
CONTINUOUS
 10
303.0
 20
36.322886
 30
0.0
 11
258.0
 21
36.322886
 31
0.0
  0
LINE
  5
1A349
  8
SUNPO
  6
CONTINUOUS
 10
223.5
 20
84.5
 30
0.0
 11
223.5
 21
44.0
 31
0.0
  0
LINE
  5
1A34A
  8
SUNPO
  6
CONTINUOUS
 10
194.611405
 20
39.639166
 30
0.0
 11
195.767949
 21
35.322886
 31
0.0
  0
TEXT
  5
1A34D
  8
SUNPO
  6
CONTINUOUS
 10
202.416667
 20
45.0
 30
0.0
 40
2.5
  1
38
  7
MX_NOTE_STANDARD
  0
TEXT
  5
1A34F
  8
SUNPO
  6
CONTINUOUS
 10
224.037473
 20
37.371288
 30
0.0
 40
2.0
  1
2
  7
MX_NOTE_STANDARD
  0
ARC
  5
1A350
  8
SUNPO
  6
BYBLOCK
 10
223.5
 20
44.0
 30
0.0
 40
0.145
 50
0.0
 51
180.0
  0
ARC
  5
1A351
  8
SUNPO
  6
BYBLOCK
 10
223.5
 20
44.0
 30
0.0
 40
0.145
 50
180.0
 51
0.0
  0
LINE
  5
1A352
  8
SUNPO
  6
CONTINUOUS
 10
258.0
 20
46.5
 30
0.0
 11
258.0
 21
36.322886
 31
0.0
  0
LINE
  5
1A353
  8
SUNPO
  6
CONTINUOUS
 10
258.0
 20
36.322886
 30
0.0
 11
248.888595
 21
33.006605
 31
0.0
  0
LINE
  5
1A354
  8
SUNPO
  6
CONTINUOUS
 10
248.888595
 20
33.006605
 30
0.0
 11
247.732051
 21
37.322886
 31
0.0
  0
ARC
  5
1A358
  8
SUNPO
  6
BYBLOCK
 10
258.0
 20
36.322886
 30
0.0
 40
0.145
 50
180.0
 51
0.0
  0
ARC
  5
1A359
  8
SUNPO
  6
BYBLOCK
 10
258.0
 20
36.322886
 30
0.0
 40
0.145
 50
0.0
 51
180.0
  0
ARC
  5
1A35A
  8
SUNPO
  6
BYBLOCK
 10
243.293737
 20
86.0
 30
0.0
 40
0.145
 50
270.0
 51
90.0
  0
ARC
  5
1A35B
  8
SUNPO
  6
BYBLOCK
 10
243.293737
 20
86.0
 30
0.0
 40
0.145
 50
90.0
 51
270.0
  0
LINE
  5
1A35C
  8
SUNPO
  6
CONTINUOUS
 10
322.968739
 20
79.0
 30
0.0
 11
322.968739
 21
46.0
 31
0.0
  0
LINE
  5
1A35D
  8
SUNPO
  6
CONTINUOUS
 10
279.995514
 20
31.5
 30
0.0
 11
275.686113
 21
31.5
 31
0.0
  0
LINE
  5
1A35E
  8
SUNPO
  6
CONTINUOUS
 10
273.60634
 20
31.5
 30
0.0
 11
269.23099
 21
31.5
 31
0.0
  0
LINE
  5
1A35F
  8
SUNPO
  6
CONTINUOUS
 10
283.995805
 20
31.5
 30
0.0
 11
281.959285
 21
31.5
 31
0.0
  0
TEXT
  5
1A360
  8
SUNPO
  6
CONTINUOUS
 10
278.416667
 20
37.322886
 30
0.0
 40
2.5
  1
45
  7
MX_NOTE_STANDARD
  0
LINE
  5
1A361
  8
SUNPO
  6
CONTINUOUS
 10
303.0
 20
36.322886
 30
0.0
 11
312.111405
 21
39.639166
 31
0.0
  0
LINE
  5
1A362
  8
SUNPO
  6
CONTINUOUS
 10
302.5
 20
46.0
 30
0.0
 11
322.968739
 21
46.0
 31
0.0
  0
LINE
  5
1A363
  8
SUNPO
  6
CONTINUOUS
 10
303.0
 20
46.5
 30
0.0
 11
303.0
 21
36.322886
 31
0.0
  0
ARC
  5
1A365
  8
SUNPO
  6
BYBLOCK
 10
303.0
 20
36.322886
 30
0.0
 40
0.145
 50
0.0
 51
180.0
  0
ARC
  5
1A366
  8
SUNPO
  6
BYBLOCK
 10
303.0
 20
36.322886
 30
0.0
 40
0.145
 50
180.0
 51
0.0
  0
LINE
  5
1A367
  8
SUNPO
  6
CONTINUOUS
 10
312.111405
 20
39.639166
 30
0.0
 11
313.267949
 21
35.322886
 31
0.0
  0
ARC
  5
1A36A
  8
SUNPO
  6
BYBLOCK
 10
322.968739
 20
46.0
 30
0.0
 40
0.145
 50
270.0
 51
90.0
  0
ARC
  5
1A36B
  8
SUNPO
  6
BYBLOCK
 10
322.968739
 20
46.0
 30
0.0
 40
0.145
 50
90.0
 51
270.0
  0
TEXT
  5
1A36C
  8
SUNPO
  6
CONTINUOUS
 10
321.968739
 20
60.416667
 30
0.0
 40
2.5
  1
33
 50
90.0
  7
MX_NOTE_STANDARD
  0
LINE
  5
1A36D
  8
SUNPO
  6
CONTINUOUS
 10
322.968739
 20
79.0
 30
0.0
 11
322.968739
 21
117.0
 31
0.0
  0
ARC
  5
1A36E
  8
SUNPO
  6
BYBLOCK
 10
322.968739
 20
79.0
 30
0.0
 40
0.145
 50
90.0
 51
270.0
  0
ARC
  5
1A36F
  8
SUNPO
  6
BYBLOCK
 10
322.968739
 20
79.0
 30
0.0
 40
0.145
 50
270.0
 51
90.0
  0
ARC
  5
1A370
  8
SUNPO
  6
BYBLOCK
 10
322.968739
 20
79.0
 30
0.0
 40
0.145
 50
270.0
 51
90.0
  0
ARC
  5
1A371
  8
SUNPO
  6
BYBLOCK
 10
322.968739
 20
79.0
 30
0.0
 40
0.145
 50
90.0
 51
270.0
  0
TEXT
  5
1A372
  8
SUNPO
  6
CONTINUOUS
 10
321.968739
 20
100.155268
 30
0.0
 40
2.5
  1
38
 50
90.0
  7
MX_NOTE_STANDARD
  0
TEXT
  5
1A373
  8
SUNPO
  6
CONTINUOUS
 10
321.968739
 20
120.166667
 30
0.0
 40
2.5
  1
8
 50
90.0
  7
MX_NOTE_STANDARD
  0
ARC
  5
1A374
  8
SUNPO
  6
BYBLOCK
 10
322.968739
 20
117.0
 30
0.0
 40
0.145
 50
90.0
 51
270.0
  0
ARC
  5
1A375
  8
SUNPO
  6
BYBLOCK
 10
322.968739
 20
117.0
 30
0.0
 40
0.145
 50
270.0
 51
90.0
  0
ARC
  5
1A376
  8
SUNPO
  6
BYBLOCK
 10
322.968739
 20
117.0
 30
0.0
 40
0.145
 50
270.0
 51
90.0
  0
ARC
  5
1A377
  8
SUNPO
  6
BYBLOCK
 10
322.968739
 20
117.0
 30
0.0
 40
0.145
 50
90.0
 51
270.0
  0
TEXT
  5
1A378
  8
SUNPO
  6
CONTINUOUS
 10
385.916667
 20
29.0
 30
0.0
 40
2.5
  1
25
  7
MX_NOTE_STANDARD
  0
LINE
  5
1A379
  8
SUNPO
  6
CONTINUOUS
 10
375.5
 20
77.499992
 30
0.0
 11
375.5
 21
28.0
 31
0.0
  0
LINE
  5
1A37A
  8
SUNPO
  6
CONTINUOUS
 10
400.5
 20
84.5
 30
0.0
 11
400.5
 21
28.0
 31
0.0
  0
LINE
  5
1A37B
  8
SUNPO
  6
CONTINUOUS
 10
370.5
 20
33.0
 30
0.0
 11
375.5
 21
28.0
 31
0.0
  0
LINE
  5
1A37C
  8
SUNPO
  6
CONTINUOUS
 10
370.5
 20
23.0
 30
0.0
 11
370.5
 21
33.0
 31
0.0
  0
LINE
  5
1A37D
  8
SUNPO
  6
CONTINUOUS
 10
400.5
 20
28.0
 30
0.0
 11
375.5
 21
28.0
 31
0.0
  0
LINE
  5
1A37E
  8
SUNPO
  6
CONTINUOUS
 10
375.5
 20
28.0
 30
0.0
 11
370.5
 21
23.0
 31
0.0
  0
ARC
  5
1A381
  8
SUNPO
  6
BYBLOCK
 10
400.5
 20
28.0
 30
0.0
 40
0.145
 50
0.0
 51
180.0
  0
ARC
  5
1A382
  8
SUNPO
  6
BYBLOCK
 10
400.5
 20
28.0
 30
0.0
 40
0.145
 50
180.0
 51
0.0
  0
LINE
  5
1A383
  8
SUNPO
  6
CONTINUOUS
 10
400.5
 20
44.0
 30
0.0
 11
390.5
 21
44.0
 31
0.0
  0
LINE
  5
1A384
  8
SUNPO
  6
CONTINUOUS
 10
390.5
 20
84.5
 30
0.0
 11
390.5
 21
44.0
 31
0.0
  0
LINE
  5
1A385
  8
SUNPO
  6
CONTINUOUS
 10
345.5
 20
77.499992
 30
0.0
 11
345.5
 21
44.0
 31
0.0
  0
LINE
  5
1A386
  8
SUNPO
  6
CONTINUOUS
 10
375.5
 20
44.0
 30
0.0
 11
345.5
 21
44.0
 31
0.0
  0
TEXT
  5
1A387
  8
SUNPO
  6
CONTINUOUS
 10
341.602796
 20
37.307041
 30
0.0
 40
2.0
  1
1
 41
1.5
  7
MX_NOTE_STANDARD
  0
ARC
  5
1A389
  8
SUNPO
  6
BYBLOCK
 10
345.5
 20
44.0
 30
0.0
 40
0.145
 50
180.0
 51
0.0
  0
ARC
  5
1A38A
  8
SUNPO
  6
BYBLOCK
 10
345.5
 20
44.0
 30
0.0
 40
0.145
 50
0.0
 51
180.0
  0
LINE
  5
1A38B
  8
SUNPO
  6
CONTINUOUS
 10
375.5
 20
36.322886
 30
0.0
 11
366.388595
 21
33.006605
 31
0.0
  0
LINE
  5
1A38C
  8
SUNPO
  6
CONTINUOUS
 10
366.388595
 20
33.006605
 30
0.0
 11
365.232051
 21
37.322886
 31
0.0
  0
TEXT
  5
1A390
  8
SUNPO
  6
CONTINUOUS
 10
358.625
 20
45.0
 30
0.0
 40
2.5
  1
30
  7
MX_NOTE_STANDARD
  0
TEXT
  5
1A392
  8
SUNPO
  6
CONTINUOUS
 10
381.333333
 20
45.0
 30
0.0
 40
2.5
  1
15
  7
MX_NOTE_STANDARD
  0
LINE
  5
1A393
  8
SUNPO
  6
CONTINUOUS
 10
390.5
 20
44.0
 30
0.0
 11
375.5
 21
44.0
 31
0.0
  0
ARC
  5
1A394
  8
SUNPO
  6
BYBLOCK
 10
375.5
 20
44.0
 30
0.0
 40
0.145
 50
180.0
 51
0.0
  0
ARC
  5
1A395
  8
SUNPO
  6
BYBLOCK
 10
375.5
 20
44.0
 30
0.0
 40
0.145
 50
0.0
 51
180.0
  0
ARC
  5
1A396
  8
SUNPO
  6
BYBLOCK
 10
375.5
 20
44.0
 30
0.0
 40
0.145
 50
0.0
 51
180.0
  0
ARC
  5
1A397
  8
SUNPO
  6
BYBLOCK
 10
375.5
 20
44.0
 30
0.0
 40
0.145
 50
180.0
 51
0.0
  0
ARC
  5
1A398
  8
SUNPO
  6
BYBLOCK
 10
390.5
 20
44.0
 30
0.0
 40
0.145
 50
0.0
 51
180.0
  0
ARC
  5
1A399
  8
SUNPO
  6
BYBLOCK
 10
390.5
 20
44.0
 30
0.0
 40
0.145
 50
180.0
 51
0.0
  0
ARC
  5
1A39A
  8
SUNPO
  6
BYBLOCK
 10
390.5
 20
44.0
 30
0.0
 40
0.145
 50
180.0
 51
0.0
  0
ARC
  5
1A39B
  8
SUNPO
  6
BYBLOCK
 10
390.5
 20
44.0
 30
0.0
 40
0.145
 50
0.0
 51
180.0
  0
TEXT
  5
1A39C
  8
SUNPO
  6
CONTINUOUS
 10
394.041667
 20
45.0
 30
0.0
 40
2.5
  1
10
  7
MX_NOTE_STANDARD
  0
ARC
  5
1A39D
  8
SUNPO
  6
BYBLOCK
 10
400.5
 20
44.0
 30
0.0
 40
0.145
 50
0.0
 51
180.0
  0
ARC
  5
1A39E
  8
SUNPO
  6
BYBLOCK
 10
400.5
 20
44.0
 30
0.0
 40
0.145
 50
180.0
 51
0.0
  0
TEXT
  5
1A39F
  8
SUNPO
  6
CONTINUOUS
 10
398.521299
 20
110.25
 30
0.0
 40
2.5
  1
11
 50
90.0
  7
MX_NOTE_STANDARD
  0
LINE
  5
1A3A0
  8
SUNPO
  6
CONTINUOUS
 10
399.521299
 20
117.0
 30
0.0
 11
399.521299
 21
106.0
 31
0.0
  0
LINE
  5
1A3A1
  8
SUNPO
  6
CONTINUOUS
 10
395.63855
 20
106.0
 30
0.0
 11
399.521299
 21
106.0
 31
0.0
  0
ARC
  5
1A3A2
  8
SUNPO
  6
BYBLOCK
 10
399.521299
 20
106.0
 30
0.0
 40
0.145
 50
270.0
 51
90.0
  0
ARC
  5
1A3A3
  8
SUNPO
  6
BYBLOCK
 10
399.521299
 20
106.0
 30
0.0
 40
0.145
 50
90.0
 51
270.0
  0
LINE
  5
1A3A4
  8
SUNPO
  6
CONTINUOUS
 10
391.999989
 20
117.0
 30
0.0
 11
399.521299
 21
117.0
 31
0.0
  0
ARC
  5
1A3A5
  8
SUNPO
  6
BYBLOCK
 10
399.521299
 20
117.0
 30
0.0
 40
0.145
 50
90.0
 51
270.0
  0
ARC
  5
1A3A6
  8
SUNPO
  6
BYBLOCK
 10
399.521299
 20
117.0
 30
0.0
 40
0.145
 50
270.0
 51
90.0
  0
LINE
  5
1A3A7
  8
SUNPO
  6
CONTINUOUS
 10
335.83846
 20
221.728614
 30
0.0
 11
297.83846
 21
221.728614
 31
0.0
  0
LINE
  5
1A3A8
  8
SUNPO
  6
CONTINUOUS
 10
40.5
 20
170.428279
 30
0.0
 11
110.5
 21
170.428279
 31
0.0
  0
LINE
  5
1A3A9
  8
SUNPO
  6
CONTINUOUS
 10
71.5
 20
155.5
 30
0.0
 11
33.5
 21
155.5
 31
0.0
  0
LINE
  5
1A3AA
  8
DANMEN
  6
CONTINUOUS
 10
320.83846
 20
177.690823
 30
0.0
 11
333.13846
 21
177.690823
 31
0.0
  0
LINE
  5
1A3AB
  8
DANMEN
  6
CONTINUOUS
 10
320.83846
 20
257.690823
 30
0.0
 11
333.13846
 21
257.690823
 31
0.0
  0
LINE
  5
1A3AC
  8
DANMEN
  6
CONTINUOUS
 10
355.5
 20
154.800003
 30
0.0
 11
322.25
 21
154.800003
 31
0.0
  0
LINE
  5
1A3AD
  8
DANMEN
  6
CONTINUOUS
 10
351.100006
 20
157.800003
 30
0.0
 11
322.25
 21
157.800003
 31
0.0
  0
LINE
  5
1A3AE
  8
DANMEN
  6
CONTINUOUS
 10
351.100006
 20
159.0
 30
0.0
 11
322.25
 21
159.0
 31
0.0
  0
LINE
  5
1A3AF
  8
DANMEN
  6
CONTINUOUS
 10
322.25
 20
135.5
 30
0.0
 11
390.5
 21
135.5
 31
0.0
  0
LINE
  5
1A3B0
  8
DANMEN
  6
CONTINUOUS
 10
322.25
 20
138.5
 30
0.0
 11
390.5
 21
138.5
 31
0.0
  0
LINE
  5
1A3B1
  8
DANMEN
  6
CONTINUOUS
 10
322.25
 20
149.0
 30
0.0
 11
390.5
 21
149.0
 31
0.0
  0
LINE
  5
1A3B2
  8
DANMEN
  6
CONTINUOUS
 10
323.73851
 20
143.5
 30
0.0
 11
390.5
 21
143.5
 31
0.0
  0
LINE
  5
1A3B3
  8
DANMEN
  6
CONTINUOUS
 10
254.038457
 20
178.190823
 30
0.0
 11
254.038457
 21
257.190823
 31
0.0
  0
LINE
  5
1A3B4
  8
DANMEN
  6
CONTINUOUS
 10
287.638463
 20
178.190823
 30
0.0
 11
287.638463
 21
257.190823
 31
0.0
  0
LINE
  5
1A3B5
  8
DANMEN
  6
CONTINUOUS
 10
285.638463
 20
201.64082
 30
0.0
 11
285.638463
 21
233.740826
 31
0.0
  0
LINE
  5
1A3B6
  8
DANMEN
  6
CONTINUOUS
 10
256.038457
 20
201.64082
 30
0.0
 11
256.038457
 21
233.740826
 31
0.0
  0
LINE
  5
1A3B7
  8
DANMEN
  6
CONTINUOUS
 10
299.838459
 20
233.690826
 30
0.0
 11
299.838459
 21
207.690823
 31
0.0
  0
LINE
  5
1A3B8
  8
DANMEN
  6
CONTINUOUS
 10
297.83846
 20
197.690823
 30
0.0
 11
297.83846
 21
257.190823
 31
0.0
  0
LINE
  5
1A3B9
  8
DANMEN
  6
CONTINUOUS
 10
331.63846
 20
207.690823
 30
0.0
 11
331.63846
 21
233.690826
 31
0.0
  0
LINE
  5
1A3BA
  8
DANMEN
  6
CONTINUOUS
 10
289.83846
 20
262.0
 30
0.0
 11
289.83846
 21
172.690823
 31
0.0
  0
LINE
  5
1A3BB
  8
DANMEN
  6
CONTINUOUS
 10
297.83846
 20
262.0
 30
0.0
 11
297.83846
 21
172.690823
 31
0.0
  0
LINE
  5
1A3BC
  8
DANMEN
  6
CONTINUOUS
 10
292.33846
 20
262.0
 30
0.0
 11
292.33846
 21
172.690823
 31
0.0
  0
LINE
  5
1A3BD
  8
DANMEN
  6
DASHED
 10
295.33846
 20
262.0
 30
0.0
 11
295.33846
 21
172.690823
 31
0.0
  0
LINE
  5
1A3BE
  8
DANMEN
  6
CONTINUOUS
 10
251.83846
 20
262.0
 30
0.0
 11
251.83846
 21
172.690823
 31
0.0
  0
LINE
  5
1A3BF
  8
DANMEN
  6
CONTINUOUS
 10
264.83846
 20
179.205542
 30
0.0
 11
266.719485
 21
177.324517
 31
0.0
  0
LINE
  5
1A3C0
  8
DANMEN
  6
CONTINUOUS
 10
265.474499
 20
180.690823
 30
0.0
 11
269.226499
 21
176.938822
 31
0.0
  0
LINE
  5
1A3C1
  8
DANMEN
  6
CONTINUOUS
 10
267.231858
 20
180.690823
 30
0.0
 11
264.83846
 21
178.297425
 31
0.0
  0
LINE
  5
1A3C2
  8
DANMEN
  6
CONTINUOUS
 10
269.353178
 20
180.690823
 30
0.0
 11
266.084554
 21
177.422198
 31
0.0
  0
LINE
  5
1A3C3
  8
DANMEN
  6
CONTINUOUS
 10
270.838455
 20
176.69082
 30
0.0
 11
264.338454
 21
177.69082
 31
0.0
  0
LINE
  5
1A3C4
  8
DANMEN
  6
CONTINUOUS
 10
255.988454
 20
199.690823
 30
0.0
 11
285.688466
 21
199.690823
 31
0.0
  0
LINE
  5
1A3C5
  8
DANMEN
  6
CONTINUOUS
 10
256.038457
 20
201.64082
 30
0.0
 11
285.638463
 21
201.64082
 31
0.0
  0
LINE
  5
1A3C6
  8
DANMEN
  6
CONTINUOUS
 10
258.999997
 20
163.0
 30
0.0
 11
301.999997
 21
163.0
 31
0.0
  0
LINE
  5
1A3C7
  8
DANMEN
  6
CONTINUOUS
 10
258.999997
 20
125.0
 30
0.0
 11
286.499997
 21
125.0
 31
0.0
  0
LINE
  5
1A3C8
  8
DANMEN
  6
CONTINUOUS
 10
259.199997
 20
126.949997
 30
0.0
 11
277.999997
 21
126.949997
 31
0.0
  0
LINE
  5
1A3C9
  8
DANMEN
  6
CONTINUOUS
 10
259.199997
 20
161.050003
 30
0.0
 11
277.999997
 21
161.050003
 31
0.0
  0
LINE
  5
1A3CA
  8
DANMEN
  6
CONTINUOUS
 10
270.0
 20
136.5
 30
0.0
 11
240.25
 21
136.5
 31
0.0
  0
LINE
  5
1A3CB
  8
DANMEN
  6
CONTINUOUS
 10
270.0
 20
143.5
 30
0.0
 11
240.25
 21
143.5
 31
0.0
  0
LINE
  5
1A3CC
  8
DANMEN
  6
CONTINUOUS
 10
270.0
 20
144.0
 30
0.0
 11
240.25
 21
144.0
 31
0.0
  0
LINE
  5
1A3CD
  8
DANMEN
  6
CONTINUOUS
 10
270.0
 20
136.0
 30
0.0
 11
240.25
 21
136.0
 31
0.0
  0
LINE
  5
1A3CE
  8
DANMEN
  6
CONTINUOUS
 10
223.5
 20
125.0
 30
0.0
 11
238.75
 21
125.0
 31
0.0
  0
LINE
  5
1A3CF
  8
DANMEN
  6
CONTINUOUS
 10
223.5
 20
127.2
 30
0.0
 11
238.75
 21
127.2
 31
0.0
  0
LINE
  5
1A3D0
  8
DANMEN
  6
CONTINUOUS
 10
223.5
 20
163.0
 30
0.0
 11
238.75
 21
163.0
 31
0.0
  0
LINE
  5
1A3D1
  8
DANMEN
  6
CONTINUOUS
 10
238.75
 20
136.5
 30
0.0
 11
211.5
 21
136.5
 31
0.0
  0
LINE
  5
1A3D2
  8
DANMEN
  6
CONTINUOUS
 10
238.75
 20
143.5
 30
0.0
 11
211.5
 21
143.5
 31
0.0
  0
LINE
  5
1A3D3
  8
DANMEN
  6
CONTINUOUS
 10
238.75
 20
144.0
 30
0.0
 11
211.5
 21
144.0
 31
0.0
  0
LINE
  5
1A3D4
  8
DANMEN
  6
CONTINUOUS
 10
238.75
 20
136.0
 30
0.0
 11
211.5
 21
136.0
 31
0.0
  0
LINE
  5
1A3D5
  8
DANMEN
  6
CONTINUOUS
 10
223.5
 20
160.800003
 30
0.0
 11
238.75
 21
160.800003
 31
0.0
  0
LINE
  5
1A3D6
  8
DANMEN
  6
CONTINUOUS
 10
223.5
 20
150.475
 30
0.0
 11
238.75
 21
150.475
 31
0.0
  0
LINE
  5
1A3D7
  8
DANMEN
  6
CONTINUOUS
 10
223.5
 20
129.525
 30
0.0
 11
238.75
 21
129.525
 31
0.0
  0
LINE
  5
1A3D8
  8
DANMEN
  6
CONTINUOUS
 10
221.136039
 20
144.0
 30
0.0
 11
224.051467
 21
146.915428
 31
0.0
  0
LINE
  5
1A3D9
  8
DANMEN
  6
CONTINUOUS
 10
220.5
 20
145.485281
 30
0.0
 11
223.768625
 21
148.753906
 31
0.0
  0
LINE
  5
1A3DA
  8
DANMEN
  6
CONTINUOUS
 10
220.5
 20
147.242641
 30
0.0
 11
223.742641
 21
144.0
 31
0.0
  0
LINE
  5
1A3DB
  8
DANMEN
  6
CONTINUOUS
 10
220.5
 20
149.363961
 30
0.0
 11
224.252001
 21
145.61196
 31
0.0
  0
LINE
  5
1A3DC
  8
DANMEN
  6
CONTINUOUS
 10
224.499995
 20
143.999997
 30
0.0
 11
223.499995
 21
150.499998
 31
0.0
  0
LINE
  5
1A3DD
  8
DANMEN
  6
CONTINUOUS
 10
202.5
 20
148.0
 30
0.0
 11
202.5
 21
126.949997
 31
0.0
  0
LINE
  5
1A3DE
  8
DANMEN
  6
CONTINUOUS
 10
200.550003
 20
147.05
 30
0.0
 11
200.550003
 21
130.949997
 31
0.0
  0
LINE
  5
1A3DF
  8
DANMEN
  6
CONTINUOUS
 10
201.038895
 20
125.0
 30
0.0
 11
223.0
 21
125.0
 31
0.0
  0
LINE
  5
1A3E0
  8
DANMEN
  6
CONTINUOUS
 10
202.5
 20
126.949997
 30
0.0
 11
222.300003
 21
126.949997
 31
0.0
  0
LINE
  5
1A3E1
  8
DANMEN
  6
CONTINUOUS
 10
200.54029
 20
125.537395
 30
0.0
 11
200.799988
 21
129.0
 31
0.0
  0
LINE
  5
1A3E6
  8
DANMEN
  6
CONTINUOUS
 10
211.5
 20
144.0
 30
0.0
 11
211.5
 21
136.0
 31
0.0
  0
LINE
  5
1A3E7
  8
DANMEN
  6
CONTINUOUS
 10
220.5
 20
130.636039
 30
0.0
 11
224.252001
 21
134.38804
 31
0.0
  0
LINE
  5
1A3E8
  8
DANMEN
  6
CONTINUOUS
 10
220.5
 20
132.757359
 30
0.0
 11
223.742641
 21
136.0
 31
0.0
  0
LINE
  5
1A3E9
  8
DANMEN
  6
CONTINUOUS
 10
220.5
 20
134.514719
 30
0.0
 11
223.768625
 21
131.246094
 31
0.0
  0
LINE
  5
1A3EA
  8
DANMEN
  6
CONTINUOUS
 10
221.136039
 20
136.0
 30
0.0
 11
224.051467
 21
133.084572
 31
0.0
  0
LINE
  5
1A3EB
  8
DANMEN
  6
CONTINUOUS
 10
224.500003
 20
135.999996
 30
0.0
 11
223.500003
 21
129.499995
 31
0.0
  0
LINE
  5
1A3EC
  8
DANMEN
  6
CONTINUOUS
 10
222.300003
 20
126.949997
 30
0.0
 11
222.300003
 21
129.0
 31
0.0
  0
LINE
  5
1A3ED
  8
DANMEN
  6
CONTINUOUS
 10
223.5
 20
125.5
 30
0.0
 11
223.5
 21
129.5
 31
0.0
  0
ARC
  5
1A3EF
  8
DANMEN
  6
CONTINUOUS
 10
223.0
 20
125.5
 30
0.0
 40
0.5
 50
270.000018
 51
0.0
  0
LINE
  5
1A3F1
  8
DANMEN
  6
CONTINUOUS
 10
220.5
 20
132.393398
 30
0.0
 11
222.893398
 21
130.0
 31
0.0
  0
LINE
  5
1A3F2
  8
DANMEN
  6
CONTINUOUS
 10
219.0
 20
129.0
 30
0.0
 11
222.300003
 21
129.0
 31
0.0
  0
LINE
  5
1A3F3
  8
DANMEN
  6
CONTINUOUS
 10
218.5
 20
130.0
 30
0.0
 11
223.0
 21
130.0
 31
0.0
  0
LINE
  5
1A3F4
  8
DANMEN
  6
CONTINUOUS
 10
220.5
 20
130.272078
 30
0.0
 11
220.772078
 21
130.0
 31
0.0
  0
ARC
  5
1A3F6
  8
DANMEN
  6
CONTINUOUS
 10
219.0
 20
129.5
 30
0.0
 40
0.5
 50
179.999964
 51
270.000001
  0
LINE
  5
1A3F8
  8
DANMEN
  6
CONTINUOUS
 10
218.5
 20
129.5
 30
0.0
 11
218.5
 21
130.0
 31
0.0
  0
LINE
  5
1A3F9
  8
DANMEN
  6
CONTINUOUS
 10
221.985281
 20
130.0
 30
0.0
 11
223.866306
 21
131.881025
 31
0.0
  0
ARC
  5
1A3FB
  8
DANMEN
  6
CONTINUOUS
 10
223.0
 20
129.5
 30
0.0
 40
0.5
 50
0.0
 51
89.999982
  0
LINE
  5
1A3FD
  8
DANMEN
  6
CONTINUOUS
 10
220.5
 20
134.87868
 30
0.0
 11
221.62132
 21
136.0
 31
0.0
  0
LINE
  5
1A3FE
  8
DANMEN
  6
CONTINUOUS
 10
223.257359
 20
136.0
 30
0.0
 11
224.33431
 21
134.923049
 31
0.0
  0
LINE
  5
1A3FF
  8
DANMEN
  6
CONTINUOUS
 10
220.5
 20
145.12132
 30
0.0
 11
221.62132
 21
144.0
 31
0.0
  0
LINE
  5
1A400
  8
DANMEN
  6
CONTINUOUS
 10
223.257359
 20
144.0
 30
0.0
 11
224.33431
 21
145.076951
 31
0.0
  0
LINE
  5
1A404
  8
DANMEN
  6
CONTINUOUS
 10
201.0
 20
163.0
 30
0.0
 11
223.0
 21
163.0
 31
0.0
  0
LINE
  5
1A405
  8
DANMEN
  6
CONTINUOUS
 10
202.5
 20
161.050003
 30
0.0
 11
222.300003
 21
161.050003
 31
0.0
  0
LINE
  5
1A406
  8
DANMEN
  6
CONTINUOUS
 10
202.5
 20
161.050003
 30
0.0
 11
202.5
 21
149.0
 31
0.0
  0
ARC
  5
1A407
  8
DANMEN
  6
CONTINUOUS
 10
204.0
 20
147.550003
 30
0.0
 40
0.5
 50
270.000018
 51
0.0
  0
ARC
  5
1A408
  8
DANMEN
  6
CONTINUOUS
 10
204.0
 20
148.5
 30
0.0
 40
0.5
 50
0.0
 51
89.999982
  0
LINE
  5
1A40D
  8
DANMEN
  6
CONTINUOUS
 10
203.5
 20
148.0
 30
0.0
 11
203.5
 21
147.050003
 31
0.0
  0
LINE
  5
1A411
  8
DANMEN
  6
CONTINUOUS
 10
203.5
 20
147.050003
 30
0.0
 11
204.0
 21
147.050003
 31
0.0
  0
LINE
  5
1A412
  8
DANMEN
  6
CONTINUOUS
 10
202.5
 20
148.0
 30
0.0
 11
203.5
 21
148.0
 31
0.0
  0
LINE
  5
1A413
  8
DANMEN
  6
CONTINUOUS
 10
204.5
 20
148.5
 30
0.0
 11
204.5
 21
147.550003
 31
0.0
  0
LINE
  5
1A414
  8
DANMEN
  6
CONTINUOUS
 10
202.5
 20
149.0
 30
0.0
 11
204.0
 21
149.0
 31
0.0
  0
LINE
  5
1A416
  8
DANMEN
  6
CONTINUOUS
 10
221.550003
 20
159.050003
 30
0.0
 11
221.550003
 21
151.0
 31
0.0
  0
LINE
  5
1A417
  8
DANMEN
  6
CONTINUOUS
 10
223.5
 20
162.5
 30
0.0
 11
223.5
 21
150.5
 31
0.0
  0
LINE
  5
1A418
  8
DANMEN
  6
CONTINUOUS
 10
220.5
 20
147.606602
 30
0.0
 11
222.893398
 21
150.0
 31
0.0
  0
LINE
  5
1A419
  8
DANMEN
  6
CONTINUOUS
 10
219.0
 20
151.0
 30
0.0
 11
221.550003
 21
151.0
 31
0.0
  0
LINE
  5
1A41A
  8
DANMEN
  6
CONTINUOUS
 10
218.5
 20
150.0
 30
0.0
 11
223.0
 21
150.0
 31
0.0
  0
LINE
  5
1A41B
  8
DANMEN
  6
CONTINUOUS
 10
220.5
 20
149.727922
 30
0.0
 11
220.772078
 21
150.0
 31
0.0
  0
ARC
  5
1A41D
  8
DANMEN
  6
CONTINUOUS
 10
219.0
 20
150.5
 30
0.0
 40
0.5
 50
89.999982
 51
180.000019
  0
LINE
  5
1A41F
  8
DANMEN
  6
CONTINUOUS
 10
218.5
 20
150.5
 30
0.0
 11
218.5
 21
150.0
 31
0.0
  0
LINE
  5
1A420
  8
DANMEN
  6
CONTINUOUS
 10
221.985281
 20
150.0
 30
0.0
 11
223.866306
 21
148.118975
 31
0.0
  0
ARC
  5
1A422
  8
DANMEN
  6
CONTINUOUS
 10
223.0
 20
150.5
 30
0.0
 40
0.5
 50
270.000018
 51
0.0
  0
LINE
  5
1A427
  8
DANMEN
  6
CONTINUOUS
 10
222.300003
 20
161.050003
 30
0.0
 11
222.300003
 21
159.050003
 31
0.0
  0
LINE
  5
1A428
  8
DANMEN
  6
CONTINUOUS
 10
221.550003
 20
159.050003
 30
0.0
 11
222.300003
 21
159.050003
 31
0.0
  0
ARC
  5
1A429
  8
DANMEN
  6
CONTINUOUS
 10
223.0
 20
162.5
 30
0.0
 40
0.5
 50
0.0
 51
89.999982
  0
LINE
  5
1A42B
  8
DANMEN
  6
CONTINUOUS
 10
260.999997
 20
145.485281
 30
0.0
 11
257.731372
 21
148.753906
 31
0.0
  0
LINE
  5
1A42C
  8
DANMEN
  6
CONTINUOUS
 10
260.363958
 20
144.0
 30
0.0
 11
257.44853
 21
146.915428
 31
0.0
  0
LINE
  5
1A42D
  8
DANMEN
  6
CONTINUOUS
 10
260.999997
 20
149.363961
 30
0.0
 11
257.247996
 21
145.61196
 31
0.0
  0
LINE
  5
1A42E
  8
DANMEN
  6
CONTINUOUS
 10
260.999997
 20
147.242641
 30
0.0
 11
257.757356
 21
144.0
 31
0.0
  0
LINE
  5
1A42F
  8
DANMEN
  6
CONTINUOUS
 10
257.000002
 20
143.999997
 30
0.0
 11
258.000002
 21
150.499998
 31
0.0
  0
LINE
  5
1A430
  8
DANMEN
  6
CONTINUOUS
 10
240.25
 20
125.0
 30
0.0
 11
258.0
 21
125.0
 31
0.0
  0
LINE
  5
1A431
  8
DANMEN
  6
CONTINUOUS
 10
240.25
 20
127.2
 30
0.0
 11
258.0
 21
127.2
 31
0.0
  0
LINE
  5
1A432
  8
DANMEN
  6
CONTINUOUS
 10
240.25
 20
129.525
 30
0.0
 11
258.0
 21
129.525
 31
0.0
  0
LINE
  5
1A433
  8
DANMEN
  6
CONTINUOUS
 10
260.999997
 20
132.757359
 30
0.0
 11
257.757356
 21
136.0
 31
0.0
  0
LINE
  5
1A434
  8
DANMEN
  6
CONTINUOUS
 10
260.999997
 20
130.636039
 30
0.0
 11
257.247996
 21
134.38804
 31
0.0
  0
LINE
  5
1A435
  8
DANMEN
  6
CONTINUOUS
 10
260.363958
 20
136.0
 30
0.0
 11
257.44853
 21
133.084572
 31
0.0
  0
LINE
  5
1A436
  8
DANMEN
  6
CONTINUOUS
 10
260.999997
 20
134.514719
 30
0.0
 11
257.731372
 21
131.246094
 31
0.0
  0
LINE
  5
1A437
  8
DANMEN
  6
CONTINUOUS
 10
256.999994
 20
135.999996
 30
0.0
 11
257.999995
 21
129.499995
 31
0.0
  0
LINE
  5
1A438
  8
DANMEN
  6
CONTINUOUS
 10
259.514716
 20
130.0
 30
0.0
 11
257.633691
 21
131.881025
 31
0.0
  0
ARC
  5
1A439
  8
DANMEN
  6
CONTINUOUS
 10
258.999997
 20
126.0
 30
0.0
 40
1.0
 50
180.0
 51
270.0
  0
ARC
  5
1A43A
  8
DANMEN
  6
CONTINUOUS
 10
258.999997
 20
129.0
 30
0.0
 40
1.0
 50
90.0
 51
180.0
  0
LINE
  5
1A43B
  8
DANMEN
  6
CONTINUOUS
 10
257.999997
 20
129.0
 30
0.0
 11
257.999997
 21
126.0
 31
0.0
  0
LINE
  5
1A43C
  8
DANMEN
  6
CONTINUOUS
 10
259.199997
 20
129.0
 30
0.0
 11
259.199997
 21
126.949997
 31
0.0
  0
ARC
  5
1A43D
  8
DANMEN
  6
CONTINUOUS
 10
262.845223
 20
124.8
 30
0.0
 40
1.0
 50
90.0
 51
147.20046
  0
LINE
  5
1A440
  8
DANMEN
  6
CONTINUOUS
 10
262.845223
 20
125.8
 30
0.0
 11
264.200001
 21
125.8
 31
0.0
  0
LINE
  5
1A441
  8
DANMEN
  6
CONTINUOUS
 10
262.845223
 20
124.8
 30
0.0
 11
263.800001
 21
124.8
 31
0.0
  0
ARC
  5
1A446
  8
DANMEN
  6
CONTINUOUS
 10
264.200001
 20
125.2
 30
0.0
 40
0.6
 50
0.0
 51
90.0
  0
LINE
  5
1A44C
  8
DANMEN
  6
CONTINUOUS
 10
258.999997
 20
130.0
 30
0.0
 11
262.999997
 21
130.0
 31
0.0
  0
LINE
  5
1A44D
  8
DANMEN
  6
CONTINUOUS
 10
259.199997
 20
129.0
 30
0.0
 11
262.499997
 21
129.0
 31
0.0
  0
LINE
  5
1A44E
  8
DANMEN
  6
CONTINUOUS
 10
260.999997
 20
132.393398
 30
0.0
 11
258.606599
 21
130.0
 31
0.0
  0
LINE
  5
1A44F
  8
DANMEN
  6
CONTINUOUS
 10
260.999997
 20
130.272078
 30
0.0
 11
260.727919
 21
130.0
 31
0.0
  0
LINE
  5
1A452
  8
DANMEN
  6
CONTINUOUS
 10
262.999997
 20
130.0
 30
0.0
 11
262.999997
 21
129.5
 31
0.0
  0
ARC
  5
1A455
  8
DANMEN
  6
CONTINUOUS
 10
262.499997
 20
129.5
 30
0.0
 40
0.5
 50
270.000018
 51
0.0
  0
LINE
  5
1A456
  8
DANMEN
  6
CONTINUOUS
 10
258.242638
 20
136.0
 30
0.0
 11
257.165687
 21
134.923049
 31
0.0
  0
LINE
  5
1A457
  8
DANMEN
  6
CONTINUOUS
 10
258.242638
 20
144.0
 30
0.0
 11
257.165687
 21
145.076951
 31
0.0
  0
LINE
  5
1A458
  8
DANMEN
  6
CONTINUOUS
 10
260.999997
 20
134.87868
 30
0.0
 11
259.878677
 21
136.0
 31
0.0
  0
LINE
  5
1A459
  8
DANMEN
  6
CONTINUOUS
 10
260.999997
 20
145.12132
 30
0.0
 11
259.878677
 21
144.0
 31
0.0
  0
LINE
  5
1A45D
  8
DANMEN
  6
CONTINUOUS
 10
240.25
 20
160.800003
 30
0.0
 11
258.0
 21
160.800003
 31
0.0
  0
LINE
  5
1A45E
  8
DANMEN
  6
CONTINUOUS
 10
240.25
 20
163.0
 30
0.0
 11
258.5
 21
163.0
 31
0.0
  0
LINE
  5
1A45F
  8
DANMEN
  6
CONTINUOUS
 10
240.25
 20
150.475
 30
0.0
 11
258.0
 21
150.475
 31
0.0
  0
LINE
  5
1A460
  8
DANMEN
  6
CONTINUOUS
 10
257.999997
 20
162.0
 30
0.0
 11
257.999997
 21
150.5
 31
0.0
  0
LINE
  5
1A461
  8
DANMEN
  6
CONTINUOUS
 10
259.949997
 20
159.050003
 30
0.0
 11
259.949997
 21
151.0
 31
0.0
  0
LINE
  5
1A462
  8
DANMEN
  6
CONTINUOUS
 10
259.514716
 20
150.0
 30
0.0
 11
257.633691
 21
148.118975
 31
0.0
  0
ARC
  5
1A463
  8
DANMEN
  6
CONTINUOUS
 10
258.499997
 20
150.5
 30
0.0
 40
0.5
 50
180.000019
 51
270.000001
  0
LINE
  5
1A464
  8
DANMEN
  6
CONTINUOUS
 10
258.499997
 20
150.0
 30
0.0
 11
262.999997
 21
150.0
 31
0.0
  0
LINE
  5
1A465
  8
DANMEN
  6
CONTINUOUS
 10
259.949997
 20
151.0
 30
0.0
 11
262.499997
 21
151.0
 31
0.0
  0
LINE
  5
1A466
  8
DANMEN
  6
CONTINUOUS
 10
260.999997
 20
149.727922
 30
0.0
 11
260.727919
 21
150.0
 31
0.0
  0
LINE
  5
1A467
  8
DANMEN
  6
CONTINUOUS
 10
260.999997
 20
147.606602
 30
0.0
 11
258.606599
 21
150.0
 31
0.0
  0
LINE
  5
1A46A
  8
DANMEN
  6
CONTINUOUS
 10
262.999997
 20
150.5
 30
0.0
 11
262.999997
 21
150.0
 31
0.0
  0
ARC
  5
1A46D
  8
DANMEN
  6
CONTINUOUS
 10
262.499997
 20
150.5
 30
0.0
 40
0.5
 50
0.0
 51
89.999982
  0
ARC
  5
1A46E
  8
DANMEN
  6
CONTINUOUS
 10
258.999997
 20
162.0
 30
0.0
 40
1.0
 50
90.0
 51
180.0
  0
LINE
  5
1A470
  8
DANMEN
  6
CONTINUOUS
 10
259.199997
 20
159.050003
 30
0.0
 11
259.949997
 21
159.050003
 31
0.0
  0
LINE
  5
1A471
  8
DANMEN
  6
CONTINUOUS
 10
259.199997
 20
161.050003
 30
0.0
 11
259.199997
 21
159.050003
 31
0.0
  0
LINE
  5
1A475
  8
DANMEN
  6
CONTINUOUS
 10
255.988454
 20
179.64082
 30
0.0
 11
255.988454
 21
199.690823
 31
0.0
  0
LINE
  5
1A476
  8
DANMEN
  6
CONTINUOUS
 10
265.110538
 20
180.690823
 30
0.0
 11
264.83846
 21
180.418745
 31
0.0
  0
LINE
  5
1A477
  8
DANMEN
  6
CONTINUOUS
 10
264.83846
 20
178.190823
 30
0.0
 11
264.83846
 21
182.690823
 31
0.0
  0
LINE
  5
1A478
  8
DANMEN
  6
CONTINUOUS
 10
263.83846
 20
179.64082
 30
0.0
 11
263.83846
 21
182.190823
 31
0.0
  0
LINE
  5
1A479
  8
DANMEN
  6
CONTINUOUS
 10
254.538457
 20
177.690823
 30
0.0
 11
264.33846
 21
177.690823
 31
0.0
  0
LINE
  5
1A47A
  8
DANMEN
  6
CONTINUOUS
 10
255.988454
 20
179.64082
 30
0.0
 11
263.83846
 21
179.64082
 31
0.0
  0
ARC
  5
1A47C
  8
DANMEN
  6
CONTINUOUS
 10
254.538457
 20
178.190823
 30
0.0
 40
0.5
 50
179.999964
 51
270.000001
  0
LINE
  5
1A47E
  8
DANMEN
  6
CONTINUOUS
 10
264.31346
 20
177.690823
 30
0.0
 11
264.31346
 21
172.690823
 31
0.0
  0
ARC
  5
1A480
  8
DANMEN
  6
CONTINUOUS
 10
264.33846
 20
178.190823
 30
0.0
 40
0.5
 50
270.000018
 51
0.0
  0
LINE
  5
1A482
  8
DANMEN
  6
CONTINUOUS
 10
264.33846
 20
182.690823
 30
0.0
 11
264.83846
 21
182.690823
 31
0.0
  0
ARC
  5
1A485
  8
DANMEN
  6
CONTINUOUS
 10
264.33846
 20
182.190823
 30
0.0
 40
0.5
 50
89.999982
 51
180.000019
  0
LINE
  5
1A488
  8
DANMEN
  6
CONTINUOUS
 10
287.999997
 20
125.0
 30
0.0
 11
301.499997
 21
125.0
 31
0.0
  0
LINE
  5
1A489
  8
DANMEN
  6
CONTINUOUS
 10
296.05
 20
148.0
 30
0.0
 11
301.05
 21
148.0
 31
0.0
  0
LINE
  5
1A48A
  8
DANMEN
  6
CONTINUOUS
 10
279.949994
 20
149.0
 30
0.0
 11
301.05
 21
149.0
 31
0.0
  0
LINE
  5
1A48B
  8
DANMEN
  6
CONTINUOUS
 10
289.949994
 20
126.949997
 30
0.0
 11
301.05
 21
126.949997
 31
0.0
  0
LINE
  5
1A48C
  8
DANMEN
  6
CONTINUOUS
 10
290.999997
 20
161.050003
 30
0.0
 11
301.05
 21
161.050003
 31
0.0
  0
LINE
  5
1A48D
  8
DANMEN
  6
CONTINUOUS
 10
277.999997
 20
133.5
 30
0.0
 11
277.999997
 21
146.5
 31
0.0
  0
LINE
  5
1A48E
  8
DANMEN
  6
CONTINUOUS
 10
269.999997
 20
133.5
 30
0.0
 11
269.999997
 21
146.5
 31
0.0
  0
LINE
  5
1A48F
  8
DANMEN
  6
CONTINUOUS
 10
269.999997
 20
146.5
 30
0.0
 11
277.999997
 21
133.5
 31
0.0
  0
LINE
  5
1A490
  8
DANMEN
  6
CONTINUOUS
 10
279.949994
 20
148.0
 30
0.0
 11
279.949994
 21
126.949997
 31
0.0
  0
LINE
  5
1A491
  8
DANMEN
  6
CONTINUOUS
 10
277.999997
 20
148.0
 30
0.0
 11
277.999997
 21
126.949997
 31
0.0
  0
LINE
  5
1A492
  8
DANMEN
  6
CONTINUOUS
 10
289.949994
 20
147.050003
 30
0.0
 11
289.949994
 21
145.0
 31
0.0
  0
LINE
  5
1A493
  8
DANMEN
  6
CONTINUOUS
 10
288.949994
 20
147.050003
 30
0.0
 11
288.949994
 21
145.5
 31
0.0
  0
LINE
  5
1A494
  8
DANMEN
  6
CONTINUOUS
 10
279.949994
 20
126.949997
 30
0.0
 11
288.949994
 21
126.949997
 31
0.0
  0
LINE
  5
1A495
  8
DANMEN
  6
CONTINUOUS
 10
277.999997
 20
133.5
 30
0.0
 11
269.999997
 21
133.5
 31
0.0
  0
LINE
  5
1A49A
  8
DANMEN
  6
CONTINUOUS
 10
270.0
 20
144.0
 30
0.0
 11
270.0
 21
136.0
 31
0.0
  0
LINE
  5
1A49C
  8
DANMEN
  6
CONTINUOUS
 10
288.949994
 20
128.5
 30
0.0
 11
288.949994
 21
126.949997
 31
0.0
  0
LINE
  5
1A49D
  8
DANMEN
  6
CONTINUOUS
 10
289.949994
 20
129.0
 30
0.0
 11
289.949994
 21
126.949997
 31
0.0
  0
LINE
  5
1A4A2
  8
DANMEN
  6
CONTINUOUS
 10
289.449994
 20
129.0
 30
0.0
 11
289.949994
 21
129.0
 31
0.0
  0
ARC
  5
1A4A5
  8
DANMEN
  6
CONTINUOUS
 10
289.449994
 20
128.5
 30
0.0
 40
0.5
 50
89.999982
 51
180.000019
  0
LINE
  5
1A4A6
  8
DANMEN
  6
CONTINUOUS
 10
289.449994
 20
145.0
 30
0.0
 11
289.949994
 21
145.0
 31
0.0
  0
ARC
  5
1A4A9
  8
DANMEN
  6
CONTINUOUS
 10
289.449994
 20
145.5
 30
0.0
 40
0.5
 50
180.000019
 51
270.000001
  0
LINE
  5
1A4AA
  8
DANMEN
  6
CONTINUOUS
 10
279.949994
 20
148.0
 30
0.0
 11
284.949994
 21
148.0
 31
0.0
  0
LINE
  5
1A4AB
  8
DANMEN
  6
CONTINUOUS
 10
279.949994
 20
161.050003
 30
0.0
 11
289.999997
 21
161.050003
 31
0.0
  0
LINE
  5
1A4AC
  8
DANMEN
  6
CONTINUOUS
 10
277.999997
 20
161.050003
 30
0.0
 11
277.999997
 21
149.0
 31
0.0
  0
LINE
  5
1A4AD
  8
DANMEN
  6
CONTINUOUS
 10
279.949994
 20
161.050003
 30
0.0
 11
279.949994
 21
149.0
 31
0.0
  0
LINE
  5
1A4AE
  8
DANMEN
  6
CONTINUOUS
 10
277.999997
 20
146.5
 30
0.0
 11
269.999997
 21
146.5
 31
0.0
  0
LINE
  5
1A4B1
  8
DANMEN
  6
CONTINUOUS
 10
275.999997
 20
148.5
 30
0.0
 11
275.999997
 21
147.550003
 31
0.0
  0
LINE
  5
1A4B2
  8
DANMEN
  6
CONTINUOUS
 10
276.499997
 20
149.0
 30
0.0
 11
277.999997
 21
149.0
 31
0.0
  0
LINE
  5
1A4B3
  8
DANMEN
  6
CONTINUOUS
 10
276.499997
 20
147.050003
 30
0.0
 11
276.999997
 21
147.050003
 31
0.0
  0
LINE
  5
1A4B4
  8
DANMEN
  6
CONTINUOUS
 10
276.999997
 20
148.0
 30
0.0
 11
277.999997
 21
148.0
 31
0.0
  0
ARC
  5
1A4B8
  8
DANMEN
  6
CONTINUOUS
 10
276.499997
 20
148.5
 30
0.0
 40
0.5
 50
89.999982
 51
180.000019
  0
LINE
  5
1A4B9
  8
DANMEN
  6
CONTINUOUS
 10
276.999997
 20
148.0
 30
0.0
 11
276.999997
 21
147.050003
 31
0.0
  0
ARC
  5
1A4BB
  8
DANMEN
  6
CONTINUOUS
 10
276.499997
 20
147.550003
 30
0.0
 40
0.5
 50
180.000019
 51
270.000001
  0
LINE
  5
1A4C2
  8
DANMEN
  6
CONTINUOUS
 10
289.949994
 20
147.050003
 30
0.0
 11
296.05
 21
147.050003
 31
0.0
  0
LINE
  5
1A4C3
  8
DANMEN
  6
CONTINUOUS
 10
284.949994
 20
147.050003
 30
0.0
 11
288.949994
 21
147.050003
 31
0.0
  0
LINE
  5
1A4C6
  8
DANMEN
  6
CONTINUOUS
 10
284.949994
 20
148.0
 30
0.0
 11
284.949994
 21
147.050003
 31
0.0
  0
LINE
  5
1A4CB
  8
DANMEN
  6
CONTINUOUS
 10
296.05
 20
148.0
 30
0.0
 11
296.05
 21
147.050003
 31
0.0
  0
ARC
  5
1A4CC
  8
DANMEN
  6
CONTINUOUS
 10
290.499997
 20
160.0
 30
0.0
 40
0.5
 50
180.0
 51
0.0
  0
LINE
  5
1A4CE
  8
DANMEN
  6
CONTINUOUS
 10
289.999997
 20
161.050003
 30
0.0
 11
289.999997
 21
160.0
 31
0.0
  0
LINE
  5
1A4D1
  8
DANMEN
  6
CONTINUOUS
 10
290.999997
 20
161.050003
 30
0.0
 11
290.999997
 21
160.0
 31
0.0
  0
LINE
  5
1A4D3
  8
DANMEN
  6
CONTINUOUS
 10
301.05
 20
148.0
 30
0.0
 11
301.05
 21
126.949997
 31
0.0
  0
LINE
  5
1A4D4
  8
DANMEN
  6
CONTINUOUS
 10
303.0
 20
135.5
 30
0.0
 11
320.75
 21
135.5
 31
0.0
  0
LINE
  5
1A4D5
  8
DANMEN
  6
CONTINUOUS
 10
303.0
 20
138.5
 30
0.0
 11
320.75
 21
138.5
 31
0.0
  0
LINE
  5
1A4D6
  8
DANMEN
  6
CONTINUOUS
 10
303.0
 20
143.5
 30
0.0
 11
318.615841
 21
143.5
 31
0.0
  0
LINE
  5
1A4D7
  8
DANMEN
  6
CONTINUOUS
 10
303.0
 20
129.5
 30
0.0
 11
320.75
 21
129.5
 31
0.0
  0
LINE
  5
1A4DA
  8
DANMEN
  6
CONTINUOUS
 10
303.0
 20
154.800003
 30
0.0
 11
320.75
 21
154.800003
 31
0.0
  0
LINE
  5
1A4DB
  8
DANMEN
  6
CONTINUOUS
 10
303.0
 20
157.800003
 30
0.0
 11
320.75
 21
157.800003
 31
0.0
  0
LINE
  5
1A4DC
  8
DANMEN
  6
CONTINUOUS
 10
303.0
 20
159.0
 30
0.0
 11
320.75
 21
159.0
 31
0.0
  0
LINE
  5
1A4DD
  8
DANMEN
  6
CONTINUOUS
 10
303.0
 20
149.0
 30
0.0
 11
320.75
 21
149.0
 31
0.0
  0
LINE
  5
1A4DE
  8
DANMEN
  6
CONTINUOUS
 10
301.05
 20
161.050003
 30
0.0
 11
301.05
 21
149.0
 31
0.0
  0
ARC
  5
1A4E1
  8
DANMEN
  6
CONTINUOUS
 10
301.999997
 20
162.0
 30
0.0
 40
1.0
 50
0.0
 51
89.999982
  0
LINE
  5
1A4E5
  8
DANMEN
  6
CONTINUOUS
 10
298.33846
 20
177.690826
 30
0.0
 11
299.83846
 21
177.690826
 31
0.0
  0
LINE
  5
1A4E6
  8
DANMEN
  6
CONTINUOUS
 10
297.83846
 20
197.690823
 30
0.0
 11
299.78846
 21
197.690823
 31
0.0
  0
LINE
  5
1A4E7
  8
DANMEN
  6
CONTINUOUS
 10
297.83846
 20
197.690823
 30
0.0
 11
299.546261
 21
197.690823
 31
0.0
  0
LINE
  5
1A4E8
  8
DANMEN
  6
CONTINUOUS
 10
297.83846
 20
178.190827
 30
0.0
 11
297.83846
 21
197.690823
 31
0.0
  0
LINE
  5
1A4E9
  8
DANMEN
  6
CONTINUOUS
 10
285.688466
 20
182.690823
 30
0.0
 11
285.688466
 21
199.690823
 31
0.0
  0
LINE
  5
1A4EA
  8
DANMEN
  6
CONTINUOUS
 10
280.323741
 20
180.690823
 30
0.0
 11
283.592366
 21
177.422198
 31
0.0
  0
LINE
  5
1A4EB
  8
DANMEN
  6
CONTINUOUS
 10
282.445061
 20
180.690823
 30
0.0
 11
284.83846
 21
178.297425
 31
0.0
  0
LINE
  5
1A4EC
  8
DANMEN
  6
CONTINUOUS
 10
284.202421
 20
180.690823
 30
0.0
 11
280.45042
 21
176.938822
 31
0.0
  0
LINE
  5
1A4ED
  8
DANMEN
  6
CONTINUOUS
 10
278.838457
 20
176.690828
 30
0.0
 11
285.338458
 21
177.690828
 31
0.0
  0
LINE
  5
1A4EE
  8
DANMEN
  6
CONTINUOUS
 10
279.95978
 20
180.690823
 30
0.0
 11
278.83846
 21
179.569503
 31
0.0
  0
LINE
  5
1A4EF
  8
DANMEN
  6
CONTINUOUS
 10
282.0811
 20
180.690823
 30
0.0
 11
278.83846
 21
177.448182
 31
0.0
  0
LINE
  5
1A4F0
  8
DANMEN
  6
CONTINUOUS
 10
267.595819
 20
180.690823
 30
0.0
 11
270.83846
 21
177.448182
 31
0.0
  0
LINE
  5
1A4F1
  8
DANMEN
  6
CONTINUOUS
 10
269.717139
 20
180.690823
 30
0.0
 11
270.83846
 21
179.569503
 31
0.0
  0
LINE
  5
1A4F2
  8
DANMEN
  6
CONTINUOUS
 10
278.33846
 20
189.690823
 30
0.0
 11
278.33846
 21
172.690823
 31
0.0
  0
LINE
  5
1A4F3
  8
DANMEN
  6
CONTINUOUS
 10
271.33846
 20
189.690823
 30
0.0
 11
271.33846
 21
172.690823
 31
0.0
  0
LINE
  5
1A4F4
  8
DANMEN
  6
CONTINUOUS
 10
270.83846
 20
189.690823
 30
0.0
 11
270.83846
 21
172.690823
 31
0.0
  0
LINE
  5
1A4F5
  8
DANMEN
  6
CONTINUOUS
 10
278.83846
 20
189.690823
 30
0.0
 11
278.83846
 21
172.690823
 31
0.0
  0
LINE
  5
1A4F6
  8
DANMEN
  6
CONTINUOUS
 10
270.83846
 20
180.054784
 30
0.0
 11
267.923031
 21
177.139356
 31
0.0
  0
LINE
  5
1A4F7
  8
DANMEN
  6
CONTINUOUS
 10
270.83846
 20
177.933464
 30
0.0
 11
269.761509
 21
176.856513
 31
0.0
  0
LINE
  5
1A4FA
  8
DANMEN
  6
CONTINUOUS
 10
278.83846
 20
177.933464
 30
0.0
 11
279.91541
 21
176.856513
 31
0.0
  0
LINE
  5
1A4FB
  8
DANMEN
  6
CONTINUOUS
 10
278.83846
 20
180.054784
 30
0.0
 11
281.753888
 21
177.139356
 31
0.0
  0
LINE
  5
1A4FC
  8
DANMEN
  6
CONTINUOUS
 10
270.83846
 20
189.690823
 30
0.0
 11
278.83846
 21
189.690823
 31
0.0
  0
LINE
  5
1A4FD
  8
DANMEN
  6
CONTINUOUS
 10
284.566382
 20
180.690823
 30
0.0
 11
284.83846
 21
180.418745
 31
0.0
  0
LINE
  5
1A4FE
  8
DANMEN
  6
CONTINUOUS
 10
284.83846
 20
178.190823
 30
0.0
 11
284.83846
 21
182.690823
 31
0.0
  0
LINE
  5
1A4FF
  8
DANMEN
  6
CONTINUOUS
 10
285.36346
 20
177.690823
 30
0.0
 11
285.36346
 21
172.690823
 31
0.0
  0
LINE
  5
1A500
  8
DANMEN
  6
CONTINUOUS
 10
285.33846
 20
177.690823
 30
0.0
 11
287.138463
 21
177.690823
 31
0.0
  0
LINE
  5
1A501
  8
DANMEN
  6
CONTINUOUS
 10
284.83846
 20
179.205542
 30
0.0
 11
282.957435
 21
177.324517
 31
0.0
  0
ARC
  5
1A503
  8
DANMEN
  6
CONTINUOUS
 10
285.33846
 20
178.190823
 30
0.0
 40
0.5
 50
179.999964
 51
270.000001
  0
ARC
  5
1A505
  8
DANMEN
  6
CONTINUOUS
 10
287.138463
 20
178.190823
 30
0.0
 40
0.5
 50
270.000018
 51
0.0
  0
ARC
  5
1A506
  8
DANMEN
  6
CONTINUOUS
 10
298.33846
 20
178.190826
 30
0.0
 40
0.5
 50
179.999872
 51
269.999909
  0
LINE
  5
1A508
  8
DANMEN
  6
CONTINUOUS
 10
284.83846
 20
182.690823
 30
0.0
 11
285.688466
 21
182.690823
 31
0.0
  0
LINE
  5
1A50E
  8
DANMEN
  6
CONTINUOUS
 10
299.788459
 20
182.690826
 30
0.0
 11
299.788459
 21
195.390823
 31
0.0
  0
LINE
  5
1A50F
  8
DANMEN
  6
CONTINUOUS
 10
331.63846
 20
179.690823
 30
0.0
 11
331.63846
 21
205.690823
 31
0.0
  0
LINE
  5
1A510
  8
DANMEN
  6
CONTINUOUS
 10
314.38846
 20
177.933465
 30
0.0
 11
315.46541
 21
176.856514
 31
0.0
  0
LINE
  5
1A511
  8
DANMEN
  6
CONTINUOUS
 10
314.38846
 20
180.054786
 30
0.0
 11
317.303888
 21
177.139357
 31
0.0
  0
LINE
  5
1A512
  8
DANMEN
  6
CONTINUOUS
 10
315.50978
 20
180.690825
 30
0.0
 11
314.38846
 21
179.569504
 31
0.0
  0
LINE
  5
1A513
  8
DANMEN
  6
CONTINUOUS
 10
317.6311
 20
180.690825
 30
0.0
 11
314.38846
 21
177.448184
 31
0.0
  0
LINE
  5
1A514
  8
DANMEN
  6
CONTINUOUS
 10
314.388457
 20
176.690829
 30
0.0
 11
320.888458
 21
177.690829
 31
0.0
  0
LINE
  5
1A515
  8
DANMEN
  6
CONTINUOUS
 10
301.024499
 20
180.690825
 30
0.0
 11
304.776499
 21
176.938824
 31
0.0
  0
LINE
  5
1A516
  8
DANMEN
  6
CONTINUOUS
 10
303.145819
 20
180.690825
 30
0.0
 11
306.38846
 21
177.448184
 31
0.0
  0
LINE
  5
1A517
  8
DANMEN
  6
CONTINUOUS
 10
305.267139
 20
180.690825
 30
0.0
 11
306.38846
 21
179.569504
 31
0.0
  0
LINE
  5
1A518
  8
DANMEN
  6
CONTINUOUS
 10
300.660538
 20
180.690825
 30
0.0
 11
300.38846
 21
180.418747
 31
0.0
  0
LINE
  5
1A519
  8
DANMEN
  6
CONTINUOUS
 10
302.781858
 20
180.690825
 30
0.0
 11
300.38846
 21
178.297426
 31
0.0
  0
LINE
  5
1A51A
  8
DANMEN
  6
CONTINUOUS
 10
304.903178
 20
180.690825
 30
0.0
 11
301.634554
 21
177.4222
 31
0.0
  0
LINE
  5
1A51B
  8
DANMEN
  6
CONTINUOUS
 10
300.33846
 20
178.190827
 30
0.0
 11
300.33846
 21
182.690826
 31
0.0
  0
LINE
  5
1A51C
  8
DANMEN
  6
CONTINUOUS
 10
314.38846
 20
189.690825
 30
0.0
 11
314.38846
 21
172.690823
 31
0.0
  0
LINE
  5
1A51D
  8
DANMEN
  6
CONTINUOUS
 10
306.38846
 20
189.690825
 30
0.0
 11
306.38846
 21
172.690823
 31
0.0
  0
LINE
  5
1A51E
  8
DANMEN
  6
CONTINUOUS
 10
306.88846
 20
189.690825
 30
0.0
 11
306.88846
 21
172.690823
 31
0.0
  0
LINE
  5
1A51F
  8
DANMEN
  6
CONTINUOUS
 10
313.88846
 20
189.690825
 30
0.0
 11
313.88846
 21
172.690823
 31
0.0
  0
LINE
  5
1A520
  8
DANMEN
  6
CONTINUOUS
 10
299.81346
 20
177.690823
 30
0.0
 11
299.81346
 21
172.690823
 31
0.0
  0
LINE
  5
1A521
  8
DANMEN
  6
CONTINUOUS
 10
306.388455
 20
176.690822
 30
0.0
 11
299.888454
 21
177.690822
 31
0.0
  0
LINE
  5
1A522
  8
DANMEN
  6
CONTINUOUS
 10
300.38846
 20
179.205543
 30
0.0
 11
302.269485
 21
177.324518
 31
0.0
  0
ARC
  5
1A523
  8
DANMEN
  6
CONTINUOUS
 10
299.83846
 20
178.190826
 30
0.0
 40
0.5
 50
270.0
 51
0.0
  0
LINE
  5
1A525
  8
DANMEN
  6
CONTINUOUS
 10
306.38846
 20
180.054786
 30
0.0
 11
303.473031
 21
177.139357
 31
0.0
  0
LINE
  5
1A526
  8
DANMEN
  6
CONTINUOUS
 10
306.38846
 20
177.933465
 30
0.0
 11
305.311509
 21
176.856514
 31
0.0
  0
LINE
  5
1A529
  8
DANMEN
  6
CONTINUOUS
 10
306.38846
 20
189.690825
 30
0.0
 11
314.38846
 21
189.690825
 31
0.0
  0
LINE
  5
1A52C
  8
DANMEN
  6
CONTINUOUS
 10
299.788459
 20
182.690826
 30
0.0
 11
300.33846
 21
182.690826
 31
0.0
  0
LINE
  5
1A52D
  8
DANMEN
  6
CONTINUOUS
 10
315.873741
 20
180.690825
 30
0.0
 11
319.142366
 21
177.4222
 31
0.0
  0
LINE
  5
1A52E
  8
DANMEN
  6
CONTINUOUS
 10
317.995061
 20
180.690825
 30
0.0
 11
320.38846
 21
178.297426
 31
0.0
  0
LINE
  5
1A52F
  8
DANMEN
  6
CONTINUOUS
 10
320.116382
 20
180.690825
 30
0.0
 11
320.38846
 21
180.418747
 31
0.0
  0
LINE
  5
1A530
  8
DANMEN
  6
CONTINUOUS
 10
319.752421
 20
180.690825
 30
0.0
 11
316.00042
 21
176.938824
 31
0.0
  0
LINE
  5
1A531
  8
DANMEN
  6
CONTINUOUS
 10
321.83846
 20
179.690823
 30
0.0
 11
321.83846
 21
188.190823
 31
0.0
  0
LINE
  5
1A532
  8
DANMEN
  6
CONTINUOUS
 10
320.33846
 20
178.190824
 30
0.0
 11
320.33846
 21
182.690823
 31
0.0
  0
LINE
  5
1A533
  8
DANMEN
  6
CONTINUOUS
 10
321.83846
 20
179.690823
 30
0.0
 11
331.63846
 21
179.690823
 31
0.0
  0
LINE
  5
1A534
  8
DANMEN
  6
CONTINUOUS
 10
320.86346
 20
177.690823
 30
0.0
 11
320.86346
 21
172.690823
 31
0.0
  0
LINE
  5
1A535
  8
DANMEN
  6
CONTINUOUS
 10
320.38846
 20
179.205543
 30
0.0
 11
318.507435
 21
177.324518
 31
0.0
  0
ARC
  5
1A537
  8
DANMEN
  6
CONTINUOUS
 10
320.83846
 20
178.190823
 30
0.0
 40
0.5
 50
180.0
 51
270.0
  0
LINE
  5
1A539
  8
DANMEN
  6
CONTINUOUS
 10
320.83846
 20
182.690823
 30
0.0
 11
320.83846
 21
187.690823
 31
0.0
  0
LINE
  5
1A53A
  8
DANMEN
  6
CONTINUOUS
 10
320.83846
 20
182.690823
 30
0.0
 11
320.33846
 21
182.690823
 31
0.0
  0
LINE
  5
1A53D
  8
DANMEN
  6
CONTINUOUS
 10
320.83846
 20
187.690823
 30
0.0
 11
320.33846
 21
187.690823
 31
0.0
  0
LINE
  5
1A53F
  8
DANMEN
  6
CONTINUOUS
 10
320.33846
 20
187.690823
 30
0.0
 11
320.33846
 21
188.190823
 31
0.0
  0
ARC
  5
1A540
  8
DANMEN
  6
CONTINUOUS
 10
320.83846
 20
188.190823
 30
0.0
 40
0.5
 50
90.0
 51
180.0
  0
LINE
  5
1A543
  8
DANMEN
  6
CONTINUOUS
 10
321.33846
 20
188.690823
 30
0.0
 11
320.83846
 21
188.690823
 31
0.0
  0
ARC
  5
1A544
  8
DANMEN
  6
CONTINUOUS
 10
321.33846
 20
188.190823
 30
0.0
 40
0.5
 50
0.0
 51
90.0
  0
LINE
  5
1A546
  8
DANMEN
  6
CONTINUOUS
 10
304.538466
 20
205.690823
 30
0.0
 11
331.63846
 21
205.690823
 31
0.0
  0
LINE
  5
1A547
  8
DANMEN
  6
CONTINUOUS
 10
299.838459
 20
207.690823
 30
0.0
 11
331.63846
 21
207.690823
 31
0.0
  0
LINE
  5
1A548
  8
DANMEN
  6
CONTINUOUS
 10
303.43846
 20
202.950387
 30
0.0
 11
303.43846
 21
204.191717
 31
0.0
  0
ARC
  5
1A549
  8
DANMEN
  6
CONTINUOUS
 10
302.03264
 20
203.58406
 30
0.0
 40
0.3
 50
322.327843
 51
55.291951
  0
LINE
  5
1A54A
  8
DANMEN
  6
CONTINUOUS
 10
304.538466
 20
200.190823
 30
0.0
 11
304.538466
 21
205.690823
 31
0.0
  0
LINE
  5
1A54B
  8
DANMEN
  6
CONTINUOUS
 10
299.788459
 20
199.690823
 30
0.0
 11
299.788459
 21
205.690823
 31
0.0
  0
LINE
  5
1A54C
  8
DANMEN
  6
CONTINUOUS
 10
303.338466
 20
202.190823
 30
0.0
 11
303.338466
 21
205.690823
 31
0.0
  0
LINE
  5
1A54D
  8
DANMEN
  6
CONTINUOUS
 10
300.28846
 20
197.390823
 30
0.0
 11
300.28846
 21
199.372451
 31
0.0
  0
LINE
  5
1A54E
  8
DANMEN
  6
CONTINUOUS
 10
301.48846
 20
196.390823
 30
0.0
 11
301.48846
 21
200.424847
 31
0.0
  0
ARC
  5
1A54F
  8
DANMEN
  6
CONTINUOUS
 10
299.546261
 20
198.190823
 30
0.0
 40
0.5
 50
270.0
 51
330.603827
  0
ARC
  5
1A552
  8
DANMEN
  6
CONTINUOUS
 10
300.288459
 20
195.390823
 30
0.0
 40
0.5
 50
90.0
 51
180.0
  0
LINE
  5
1A555
  8
DANMEN
  6
CONTINUOUS
 10
300.288459
 20
195.890823
 30
0.0
 11
300.98846
 21
195.890823
 31
0.0
  0
LINE
  5
1A556
  8
DANMEN
  6
CONTINUOUS
 10
299.78846
 20
197.390823
 30
0.0
 11
300.28846
 21
197.390823
 31
0.0
  0
LINE
  5
1A557
  8
DANMEN
  6
CONTINUOUS
 10
299.78846
 20
197.390823
 30
0.0
 11
299.78846
 21
197.690823
 31
0.0
  0
ARC
  5
1A55A
  8
DANMEN
  6
CONTINUOUS
 10
300.98846
 20
196.390823
 30
0.0
 40
0.5
 50
270.0
 51
0.0
  0
LINE
  5
1A55C
  8
DANMEN
  6
CONTINUOUS
 10
301.48846
 20
200.424847
 30
0.0
 11
303.43846
 21
202.950387
 31
0.0
  0
ARC
  5
1A55F
  8
DANMEN
  6
CONTINUOUS
 10
300.340644
 20
200.090759
 30
0.0
 40
0.5
 50
149.886267
 51
243.881419
  0
LINE
  5
1A561
  8
DANMEN
  6
CONTINUOUS
 10
299.908128
 20
200.341618
 30
0.0
 11
302.270096
 21
203.400718
 31
0.0
  0
ARC
  5
1A562
  8
DANMEN
  6
CONTINUOUS
 10
299.98846
 20
199.372451
 30
0.0
 40
0.3
 50
0.0
 51
63.881419
  0
LINE
  5
1A567
  8
DANMEN
  6
CONTINUOUS
 10
300.33846
 20
199.390823
 30
0.0
 11
300.33846
 21
198.687068
 31
0.0
  0
LINE
  5
1A568
  8
DANMEN
  6
CONTINUOUS
 10
300.33846
 20
198.687068
 30
0.0
 11
299.981884
 21
197.9454
 31
0.0
  0
LINE
  5
1A569
  8
DANMEN
  6
CONTINUOUS
 10
300.03846
 20
199.690823
 30
0.0
 11
299.788459
 21
199.690823
 31
0.0
  0
ARC
  5
1A56A
  8
DANMEN
  6
CONTINUOUS
 10
300.03846
 20
199.390823
 30
0.0
 40
0.3
 50
0.0
 51
90.0
  0
LINE
  5
1A56D
  8
DANMEN
  6
CONTINUOUS
 10
303.338466
 20
202.190823
 30
0.0
 11
303.658077
 21
200.592765
 31
0.0
  0
ARC
  5
1A56E
  8
DANMEN
  6
CONTINUOUS
 10
304.148368
 20
200.690823
 30
0.0
 40
0.5
 50
191.309932
 51
270.0
  0
LINE
  5
1A56F
  8
DANMEN
  6
CONTINUOUS
 10
304.148368
 20
200.190823
 30
0.0
 11
304.538466
 21
200.190823
 31
0.0
  0
LINE
  5
1A570
  8
DANMEN
  6
CONTINUOUS
 10
303.43846
 20
204.191717
 30
0.0
 11
302.123157
 21
205.10275
 31
0.0
  0
LINE
  5
1A571
  8
DANMEN
  6
CONTINUOUS
 10
299.788459
 20
205.690823
 30
0.0
 11
303.338466
 21
205.690823
 31
0.0
  0
ARC
  5
1A573
  8
DANMEN
  6
CONTINUOUS
 10
301.83846
 20
204.691717
 30
0.0
 40
0.5
 50
55.291951
 51
235.291951
  0
LINE
  5
1A574
  8
DANMEN
  6
CONTINUOUS
 10
302.203458
 20
203.83068
 30
0.0
 11
301.553762
 21
204.280685
 31
0.0
  0
LINE
  5
1A57C
  8
DANMEN
  6
CONTINUOUS
 10
269.353178
 20
254.690823
 30
0.0
 11
266.084554
 21
257.959448
 31
0.0
  0
LINE
  5
1A57D
  8
DANMEN
  6
CONTINUOUS
 10
267.231858
 20
254.690823
 30
0.0
 11
264.83846
 21
257.084221
 31
0.0
  0
LINE
  5
1A57E
  8
DANMEN
  6
CONTINUOUS
 10
265.474499
 20
254.690823
 30
0.0
 11
269.226499
 21
258.442824
 31
0.0
  0
LINE
  5
1A57F
  8
DANMEN
  6
CONTINUOUS
 10
264.83846
 20
256.176104
 30
0.0
 11
266.719485
 21
258.057129
 31
0.0
  0
LINE
  5
1A580
  8
DANMEN
  6
CONTINUOUS
 10
270.838463
 20
258.690818
 30
0.0
 11
264.338461
 21
257.690818
 31
0.0
  0
LINE
  5
1A581
  8
DANMEN
  6
CONTINUOUS
 10
255.988454
 20
235.690823
 30
0.0
 11
285.688466
 21
235.690823
 31
0.0
  0
LINE
  5
1A582
  8
DANMEN
  6
CONTINUOUS
 10
256.038457
 20
233.740826
 30
0.0
 11
273.538457
 21
233.740826
 31
0.0
  0
LINE
  5
1A583
  8
DANMEN
  6
CONTINUOUS
 10
264.31346
 20
262.0
 30
0.0
 11
264.31346
 21
257.690823
 31
0.0
  0
LINE
  5
1A584
  8
DANMEN
  6
CONTINUOUS
 10
255.988454
 20
235.690823
 30
0.0
 11
255.988454
 21
255.740826
 31
0.0
  0
LINE
  5
1A587
  8
DANMEN
  6
CONTINUOUS
 10
254.538457
 20
257.690823
 30
0.0
 11
264.33846
 21
257.690823
 31
0.0
  0
LINE
  5
1A588
  8
DANMEN
  6
CONTINUOUS
 10
255.988454
 20
255.740826
 30
0.0
 11
263.83846
 21
255.740826
 31
0.0
  0
ARC
  5
1A58B
  8
DANMEN
  6
CONTINUOUS
 10
254.538457
 20
257.190823
 30
0.0
 40
0.5
 50
89.999982
 51
180.000019
  0
LINE
  5
1A58C
  8
DANMEN
  6
CONTINUOUS
 10
264.83846
 20
257.190823
 30
0.0
 11
264.83846
 21
252.690823
 31
0.0
  0
LINE
  5
1A58D
  8
DANMEN
  6
CONTINUOUS
 10
265.110538
 20
254.690823
 30
0.0
 11
264.83846
 21
254.962901
 31
0.0
  0
LINE
  5
1A58E
  8
DANMEN
  6
CONTINUOUS
 10
264.33846
 20
252.690823
 30
0.0
 11
264.83846
 21
252.690823
 31
0.0
  0
LINE
  5
1A58F
  8
DANMEN
  6
CONTINUOUS
 10
263.83846
 20
255.740826
 30
0.0
 11
263.83846
 21
253.190823
 31
0.0
  0
ARC
  5
1A593
  8
DANMEN
  6
CONTINUOUS
 10
264.33846
 20
253.190823
 30
0.0
 40
0.5
 50
180.000019
 51
270.000001
  0
ARC
  5
1A595
  8
DANMEN
  6
CONTINUOUS
 10
264.33846
 20
257.190823
 30
0.0
 40
0.5
 50
0.0
 51
89.999982
  0
LINE
  5
1A596
  8
DANMEN
  6
CONTINUOUS
 10
313.86346
 20
262.0
 30
0.0
 11
313.86346
 21
245.690823
 31
0.0
  0
LINE
  5
1A597
  8
DANMEN
  6
CONTINUOUS
 10
314.36346
 20
262.0
 30
0.0
 11
314.36346
 21
245.690823
 31
0.0
  0
LINE
  5
1A598
  8
DANMEN
  6
CONTINUOUS
 10
306.86346
 20
262.0
 30
0.0
 11
306.86346
 21
245.690823
 31
0.0
  0
LINE
  5
1A599
  8
DANMEN
  6
CONTINUOUS
 10
306.36346
 20
262.0
 30
0.0
 11
306.36346
 21
245.690823
 31
0.0
  0
LINE
  5
1A59A
  8
DANMEN
  6
CONTINUOUS
 10
271.33846
 20
245.690823
 30
0.0
 11
271.33846
 21
262.0
 31
0.0
  0
LINE
  5
1A59B
  8
DANMEN
  6
CONTINUOUS
 10
278.33846
 20
245.690823
 30
0.0
 11
278.33846
 21
262.0
 31
0.0
  0
LINE
  5
1A59C
  8
DANMEN
  6
CONTINUOUS
 10
278.83846
 20
245.690823
 30
0.0
 11
278.83846
 21
262.0
 31
0.0
  0
LINE
  5
1A59D
  8
DANMEN
  6
CONTINUOUS
 10
270.83846
 20
245.690823
 30
0.0
 11
270.83846
 21
262.0
 31
0.0
  0
LINE
  5
1A59E
  8
DANMEN
  6
CONTINUOUS
 10
320.86346
 20
262.0
 30
0.0
 11
320.86346
 21
257.690823
 31
0.0
  0
LINE
  5
1A59F
  8
DANMEN
  6
CONTINUOUS
 10
299.81346
 20
262.0
 30
0.0
 11
299.81346
 21
257.690823
 31
0.0
  0
LINE
  5
1A5A0
  8
DANMEN
  6
CONTINUOUS
 10
285.36346
 20
262.0
 30
0.0
 11
285.36346
 21
257.690823
 31
0.0
  0
LINE
  5
1A5A1
  8
DANMEN
  6
CONTINUOUS
 10
298.33846
 20
257.690823
 30
0.0
 11
299.83846
 21
257.690823
 31
0.0
  0
LINE
  5
1A5A2
  8
DANMEN
  6
CONTINUOUS
 10
282.33846
 20
245.690823
 30
0.0
 11
267.33846
 21
235.690823
 31
0.0
  0
LINE
  5
1A5A3
  8
DANMEN
  6
CONTINUOUS
 10
267.33846
 20
235.690823
 30
0.0
 11
267.33846
 21
245.690823
 31
0.0
  0
LINE
  5
1A5A4
  8
DANMEN
  6
CONTINUOUS
 10
282.33846
 20
235.690823
 30
0.0
 11
282.33846
 21
245.690823
 31
0.0
  0
LINE
  5
1A5A5
  8
DANMEN
  6
CONTINUOUS
 10
285.688466
 20
252.690823
 30
0.0
 11
285.688466
 21
235.690823
 31
0.0
  0
LINE
  5
1A5A6
  8
DANMEN
  6
CONTINUOUS
 10
282.138463
 20
233.740826
 30
0.0
 11
285.638463
 21
233.740826
 31
0.0
  0
LINE
  5
1A5A7
  8
DANMEN
  6
CONTINUOUS
 10
267.33846
 20
235.690823
 30
0.0
 11
282.33846
 21
235.690823
 31
0.0
  0
ARC
  5
1A5A8
  8
DANMEN
  6
CONTINUOUS
 10
273.53846
 20
232.740826
 30
0.0
 40
1.0
 50
0.0
 51
90.0
  0
LINE
  5
1A5AA
  8
DANMEN
  6
CONTINUOUS
 10
276.03846
 20
231.744762
 30
0.0
 11
276.03846
 21
232.990823
 31
0.0
  0
LINE
  5
1A5AB
  8
DANMEN
  6
CONTINUOUS
 10
274.53846
 20
231.660517
 30
0.0
 11
274.53846
 21
232.740826
 31
0.0
  0
LINE
  5
1A5AC
  8
DANMEN
  6
CONTINUOUS
 10
279.63846
 20
231.744762
 30
0.0
 11
279.63846
 21
232.990823
 31
0.0
  0
LINE
  5
1A5AD
  8
DANMEN
  6
CONTINUOUS
 10
281.13846
 20
231.660517
 30
0.0
 11
281.13846
 21
232.740826
 31
0.0
  0
ARC
  5
1A5AF
  8
DANMEN
  6
CONTINUOUS
 10
276.43846
 20
230.390823
 30
0.0
 40
0.3
 50
270.0
 51
0.0
  0
LINE
  5
1A5B0
  8
DANMEN
  6
CONTINUOUS
 10
275.29908
 20
230.090823
 30
0.0
 11
276.43846
 21
230.090823
 31
0.0
  0
LINE
  5
1A5B2
  8
DANMEN
  6
CONTINUOUS
 10
276.73846
 20
230.390823
 30
0.0
 11
276.73846
 21
230.653891
 31
0.0
  0
ARC
  5
1A5B3
  8
DANMEN
  6
CONTINUOUS
 10
277.03846
 20
231.744762
 30
0.0
 40
1.0
 50
180.0
 51
245.375682
  0
ARC
  5
1A5B4
  8
DANMEN
  6
CONTINUOUS
 10
276.53846
 20
230.653891
 30
0.0
 40
0.2
 50
0.0
 51
65.375682
  0
ARC
  5
1A5B5
  8
DANMEN
  6
CONTINUOUS
 10
276.53846
 20
231.660517
 30
0.0
 40
2.0
 50
180.0
 51
231.706523
  0
ARC
  5
1A5B6
  8
DANMEN
  6
CONTINUOUS
 10
279.23846
 20
230.390823
 30
0.0
 40
0.3
 50
180.0
 51
270.0
  0
LINE
  5
1A5B7
  8
DANMEN
  6
CONTINUOUS
 10
279.23846
 20
230.090823
 30
0.0
 11
280.377839
 21
230.090823
 31
0.0
  0
ARC
  5
1A5B9
  8
DANMEN
  6
CONTINUOUS
 10
279.13846
 20
231.660517
 30
0.0
 40
2.0
 50
308.293477
 51
0.0
  0
ARC
  5
1A5BA
  8
DANMEN
  6
CONTINUOUS
 10
279.13846
 20
230.653891
 30
0.0
 40
0.2
 50
114.624318
 51
180.0
  0
ARC
  5
1A5BB
  8
DANMEN
  6
CONTINUOUS
 10
278.63846
 20
231.744762
 30
0.0
 40
1.0
 50
294.624318
 51
0.0
  0
LINE
  5
1A5BC
  8
DANMEN
  6
CONTINUOUS
 10
278.93846
 20
230.390823
 30
0.0
 11
278.93846
 21
230.653891
 31
0.0
  0
LINE
  5
1A5BD
  8
DANMEN
  6
CONTINUOUS
 10
277.03846
 20
233.990823
 30
0.0
 11
278.63846
 21
233.990823
 31
0.0
  0
ARC
  5
1A5BF
  8
DANMEN
  6
CONTINUOUS
 10
277.03846
 20
232.990823
 30
0.0
 40
1.0
 50
90.0
 51
180.0
  0
ARC
  5
1A5C2
  8
DANMEN
  6
CONTINUOUS
 10
278.63846
 20
232.990823
 30
0.0
 40
1.0
 50
0.0
 51
90.0
  0
ARC
  5
1A5C3
  8
DANMEN
  6
CONTINUOUS
 10
282.13846
 20
232.740826
 30
0.0
 40
1.0
 50
90.0
 51
180.0
  0
LINE
  5
1A5C7
  8
DANMEN
  6
CONTINUOUS
 10
284.202421
 20
254.690823
 30
0.0
 11
280.45042
 21
258.442824
 31
0.0
  0
LINE
  5
1A5C8
  8
DANMEN
  6
CONTINUOUS
 10
282.445061
 20
254.690823
 30
0.0
 11
284.83846
 21
257.084221
 31
0.0
  0
LINE
  5
1A5C9
  8
DANMEN
  6
CONTINUOUS
 10
280.323741
 20
254.690823
 30
0.0
 11
283.592366
 21
257.959448
 31
0.0
  0
LINE
  5
1A5CA
  8
DANMEN
  6
CONTINUOUS
 10
278.838464
 20
258.690826
 30
0.0
 11
285.338465
 21
257.690826
 31
0.0
  0
LINE
  5
1A5CB
  8
DANMEN
  6
CONTINUOUS
 10
267.33846
 20
245.690823
 30
0.0
 11
282.33846
 21
245.690823
 31
0.0
  0
LINE
  5
1A5CC
  8
DANMEN
  6
CONTINUOUS
 10
278.83846
 20
245.690823
 30
0.0
 11
270.83846
 21
245.690823
 31
0.0
  0
LINE
  5
1A5CF
  8
DANMEN
  6
CONTINUOUS
 10
270.83846
 20
255.326862
 30
0.0
 11
267.923031
 21
258.24229
 31
0.0
  0
LINE
  5
1A5D0
  8
DANMEN
  6
CONTINUOUS
 10
267.595819
 20
254.690823
 30
0.0
 11
270.83846
 21
257.933464
 31
0.0
  0
LINE
  5
1A5D1
  8
DANMEN
  6
CONTINUOUS
 10
269.717139
 20
254.690823
 30
0.0
 11
270.83846
 21
255.812143
 31
0.0
  0
LINE
  5
1A5D2
  8
DANMEN
  6
CONTINUOUS
 10
270.83846
 20
257.448182
 30
0.0
 11
269.761509
 21
258.525133
 31
0.0
  0
LINE
  5
1A5D3
  8
DANMEN
  6
CONTINUOUS
 10
282.0811
 20
254.690823
 30
0.0
 11
278.83846
 21
257.933464
 31
0.0
  0
LINE
  5
1A5D4
  8
DANMEN
  6
CONTINUOUS
 10
278.83846
 20
255.326862
 30
0.0
 11
281.753888
 21
258.24229
 31
0.0
  0
LINE
  5
1A5D5
  8
DANMEN
  6
CONTINUOUS
 10
279.95978
 20
254.690823
 30
0.0
 11
278.83846
 21
255.812143
 31
0.0
  0
LINE
  5
1A5D9
  8
DANMEN
  6
CONTINUOUS
 10
278.83846
 20
257.448182
 30
0.0
 11
279.91541
 21
258.525133
 31
0.0
  0
LINE
  5
1A5DA
  8
DANMEN
  6
CONTINUOUS
 10
284.83846
 20
257.190823
 30
0.0
 11
284.83846
 21
252.690823
 31
0.0
  0
LINE
  5
1A5DB
  8
DANMEN
  6
CONTINUOUS
 10
284.566382
 20
254.690823
 30
0.0
 11
284.83846
 21
254.962901
 31
0.0
  0
LINE
  5
1A5DC
  8
DANMEN
  6
CONTINUOUS
 10
284.83846
 20
252.690823
 30
0.0
 11
285.688466
 21
252.690823
 31
0.0
  0
LINE
  5
1A5DF
  8
DANMEN
  6
CONTINUOUS
 10
285.33846
 20
257.690823
 30
0.0
 11
287.138463
 21
257.690823
 31
0.0
  0
LINE
  5
1A5E0
  8
DANMEN
  6
CONTINUOUS
 10
284.83846
 20
256.176104
 30
0.0
 11
282.957435
 21
258.057129
 31
0.0
  0
ARC
  5
1A5E2
  8
DANMEN
  6
CONTINUOUS
 10
285.33846
 20
257.190823
 30
0.0
 40
0.5
 50
89.999982
 51
180.000019
  0
ARC
  5
1A5E4
  8
DANMEN
  6
CONTINUOUS
 10
287.138463
 20
257.190823
 30
0.0
 40
0.5
 50
0.0
 51
89.999982
  0
ARC
  5
1A5E5
  8
DANMEN
  6
CONTINUOUS
 10
298.33846
 20
257.190823
 30
0.0
 40
0.5
 50
89.999982
 51
180.000019
  0
LINE
  5
1A5E6
  8
DANMEN
  6
CONTINUOUS
 10
317.863458
 20
245.690823
 30
0.0
 11
302.863458
 21
235.690823
 31
0.0
  0
LINE
  5
1A5E7
  8
DANMEN
  6
CONTINUOUS
 10
302.863458
 20
235.690823
 30
0.0
 11
302.863458
 21
245.690823
 31
0.0
  0
LINE
  5
1A5E8
  8
DANMEN
  6
CONTINUOUS
 10
317.863458
 20
235.690823
 30
0.0
 11
317.863458
 21
245.690823
 31
0.0
  0
LINE
  5
1A5E9
  8
DANMEN
  6
CONTINUOUS
 10
299.838459
 20
252.690823
 30
0.0
 11
299.838459
 21
235.690823
 31
0.0
  0
LINE
  5
1A5EA
  8
DANMEN
  6
CONTINUOUS
 10
331.63846
 20
235.690823
 30
0.0
 11
331.63846
 21
255.690823
 31
0.0
  0
LINE
  5
1A5EB
  8
DANMEN
  6
CONTINUOUS
 10
302.863458
 20
235.690823
 30
0.0
 11
317.863458
 21
235.690823
 31
0.0
  0
LINE
  5
1A5EC
  8
DANMEN
  6
CONTINUOUS
 10
299.838459
 20
235.690823
 30
0.0
 11
331.63846
 21
235.690823
 31
0.0
  0
LINE
  5
1A5ED
  8
DANMEN
  6
CONTINUOUS
 10
313.138464
 20
233.690826
 30
0.0
 11
331.63846
 21
233.690826
 31
0.0
  0
ARC
  5
1A5EE
  8
DANMEN
  6
CONTINUOUS
 10
308.03846
 20
232.990823
 30
0.0
 40
1.0
 50
89.999974
 51
179.999974
  0
ARC
  5
1A5EF
  8
DANMEN
  6
CONTINUOUS
 10
308.038459
 20
231.744762
 30
0.0
 40
1.0
 50
179.999974
 51
245.375656
  0
LINE
  5
1A5F0
  8
DANMEN
  6
CONTINUOUS
 10
307.438459
 20
230.090824
 30
0.0
 11
306.299079
 21
230.090824
 31
0.0
  0
ARC
  5
1A5F1
  8
DANMEN
  6
CONTINUOUS
 10
304.53846
 20
232.690826
 30
0.0
 40
1.0
 50
0.0
 51
90.0
  0
LINE
  5
1A5F2
  8
DANMEN
  6
CONTINUOUS
 10
307.038459
 20
231.744763
 30
0.0
 11
307.03846
 21
232.990824
 31
0.0
  0
LINE
  5
1A5F3
  8
DANMEN
  6
CONTINUOUS
 10
305.538459
 20
231.660518
 30
0.0
 11
305.53846
 21
232.690825
 31
0.0
  0
ARC
  5
1A5F4
  8
DANMEN
  6
CONTINUOUS
 10
307.538459
 20
231.660517
 30
0.0
 40
2.0
 50
179.999974
 51
231.706497
  0
LINE
  5
1A5F5
  8
DANMEN
  6
CONTINUOUS
 10
304.53846
 20
233.690826
 30
0.0
 11
299.838459
 21
233.690826
 31
0.0
  0
LINE
  5
1A5FA
  8
DANMEN
  6
CONTINUOUS
 10
304.36346
 20
235.690818
 30
0.0
 11
306.706552
 21
235.690818
 31
0.0
  0
ARC
  5
1A5FB
  8
DANMEN
  6
CONTINUOUS
 10
313.138464
 20
232.690826
 30
0.0
 40
1.0
 50
90.0
 51
180.0
  0
LINE
  5
1A5FC
  8
DANMEN
  6
CONTINUOUS
 10
310.638464
 20
231.744763
 30
0.0
 11
310.638464
 21
232.990824
 31
0.0
  0
LINE
  5
1A5FD
  8
DANMEN
  6
CONTINUOUS
 10
310.238465
 20
230.090824
 30
0.0
 11
311.377845
 21
230.090824
 31
0.0
  0
LINE
  5
1A5FE
  8
DANMEN
  6
CONTINUOUS
 10
307.738459
 20
230.390823
 30
0.0
 11
307.738459
 21
230.653891
 31
0.0
  0
ARC
  5
1A5FF
  8
DANMEN
  6
CONTINUOUS
 10
307.538459
 20
230.653892
 30
0.0
 40
0.2
 50
359.999974
 51
65.375656
  0
ARC
  5
1A600
  8
DANMEN
  6
CONTINUOUS
 10
307.438459
 20
230.390824
 30
0.0
 40
0.3
 50
269.999974
 51
359.999974
  0
ARC
  5
1A601
  8
DANMEN
  6
CONTINUOUS
 10
310.238465
 20
230.390824
 30
0.0
 40
0.3
 50
180.000026
 51
270.000026
  0
ARC
  5
1A602
  8
DANMEN
  6
CONTINUOUS
 10
310.138465
 20
230.653892
 30
0.0
 40
0.2
 50
114.624344
 51
180.000026
  0
ARC
  5
1A603
  8
DANMEN
  6
CONTINUOUS
 10
309.638464
 20
231.744762
 30
0.0
 40
1.0
 50
294.624344
 51
0.000026
  0
LINE
  5
1A604
  8
DANMEN
  6
CONTINUOUS
 10
309.938465
 20
230.390823
 30
0.0
 11
309.938465
 21
230.653891
 31
0.0
  0
LINE
  5
1A605
  8
DANMEN
  6
CONTINUOUS
 10
312.138464
 20
231.660518
 30
0.0
 11
312.138464
 21
232.690825
 31
0.0
  0
ARC
  5
1A606
  8
DANMEN
  6
CONTINUOUS
 10
310.138464
 20
231.660517
 30
0.0
 40
2.0
 50
308.293503
 51
0.000026
  0
LINE
  5
1A608
  8
DANMEN
  6
CONTINUOUS
 10
308.038463
 20
233.990823
 30
0.0
 11
309.638463
 21
233.990823
 31
0.0
  0
ARC
  5
1A609
  8
DANMEN
  6
CONTINUOUS
 10
309.638464
 20
232.990823
 30
0.0
 40
1.0
 50
0.000026
 51
90.000026
  0
LINE
  5
1A60C
  8
DANMEN
  6
CONTINUOUS
 10
317.6061
 20
254.69082
 30
0.0
 11
314.36346
 21
257.933461
 31
0.0
  0
LINE
  5
1A60D
  8
DANMEN
  6
CONTINUOUS
 10
315.48478
 20
254.69082
 30
0.0
 11
314.36346
 21
255.81214
 31
0.0
  0
LINE
  5
1A60E
  8
DANMEN
  6
CONTINUOUS
 10
314.36346
 20
255.326859
 30
0.0
 11
317.278888
 21
258.242287
 31
0.0
  0
LINE
  5
1A60F
  8
DANMEN
  6
CONTINUOUS
 10
314.36346
 20
257.448179
 30
0.0
 11
315.44041
 21
258.52513
 31
0.0
  0
LINE
  5
1A610
  8
DANMEN
  6
CONTINUOUS
 10
314.363464
 20
258.690823
 30
0.0
 11
320.863465
 21
257.690823
 31
0.0
  0
LINE
  5
1A611
  8
DANMEN
  6
CONTINUOUS
 10
302.863458
 20
245.690823
 30
0.0
 11
317.863458
 21
245.690823
 31
0.0
  0
LINE
  5
1A612
  8
DANMEN
  6
CONTINUOUS
 10
306.36346
 20
245.690823
 30
0.0
 11
314.36346
 21
245.690823
 31
0.0
  0
LINE
  5
1A614
  8
DANMEN
  6
CONTINUOUS
 10
306.36346
 20
255.326859
 30
0.0
 11
303.448031
 21
258.242287
 31
0.0
  0
LINE
  5
1A615
  8
DANMEN
  6
CONTINUOUS
 10
304.878178
 20
254.69082
 30
0.0
 11
301.609554
 21
257.959445
 31
0.0
  0
LINE
  5
1A616
  8
DANMEN
  6
CONTINUOUS
 10
302.756858
 20
254.69082
 30
0.0
 11
300.36346
 21
257.084218
 31
0.0
  0
LINE
  5
1A617
  8
DANMEN
  6
CONTINUOUS
 10
303.120819
 20
254.69082
 30
0.0
 11
306.36346
 21
257.933461
 31
0.0
  0
LINE
  5
1A618
  8
DANMEN
  6
CONTINUOUS
 10
300.999499
 20
254.69082
 30
0.0
 11
304.751499
 21
258.442821
 31
0.0
  0
LINE
  5
1A619
  8
DANMEN
  6
CONTINUOUS
 10
300.33846
 20
257.190823
 30
0.0
 11
300.33846
 21
252.690823
 31
0.0
  0
LINE
  5
1A61A
  8
DANMEN
  6
CONTINUOUS
 10
300.635538
 20
254.69082
 30
0.0
 11
300.36346
 21
254.962898
 31
0.0
  0
LINE
  5
1A61B
  8
DANMEN
  6
CONTINUOUS
 10
299.838459
 20
252.690823
 30
0.0
 11
300.33846
 21
252.690823
 31
0.0
  0
LINE
  5
1A61C
  8
DANMEN
  6
CONTINUOUS
 10
305.242139
 20
254.69082
 30
0.0
 11
306.36346
 21
255.81214
 31
0.0
  0
LINE
  5
1A61D
  8
DANMEN
  6
CONTINUOUS
 10
306.363463
 20
258.690815
 30
0.0
 11
299.863461
 21
257.690815
 31
0.0
  0
LINE
  5
1A61E
  8
DANMEN
  6
CONTINUOUS
 10
300.36346
 20
256.176101
 30
0.0
 11
302.244485
 21
258.057126
 31
0.0
  0
ARC
  5
1A61F
  8
DANMEN
  6
CONTINUOUS
 10
299.83846
 20
257.190823
 30
0.0
 40
0.5
 50
0.0
 51
89.999982
  0
LINE
  5
1A620
  8
DANMEN
  6
CONTINUOUS
 10
306.36346
 20
257.448179
 30
0.0
 11
305.286509
 21
258.52513
 31
0.0
  0
LINE
  5
1A623
  8
DANMEN
  6
CONTINUOUS
 10
320.83846
 20
252.690823
 30
0.0
 11
320.83846
 21
247.690823
 31
0.0
  0
LINE
  5
1A624
  8
DANMEN
  6
CONTINUOUS
 10
321.83846
 20
255.690823
 30
0.0
 11
321.83846
 21
247.190823
 31
0.0
  0
LINE
  5
1A626
  8
DANMEN
  6
CONTINUOUS
 10
320.83846
 20
247.690823
 30
0.0
 11
320.33846
 21
247.690823
 31
0.0
  0
LINE
  5
1A628
  8
DANMEN
  6
CONTINUOUS
 10
320.33846
 20
247.690823
 30
0.0
 11
320.33846
 21
247.190823
 31
0.0
  0
ARC
  5
1A629
  8
DANMEN
  6
CONTINUOUS
 10
320.83846
 20
247.190823
 30
0.0
 40
0.5
 50
180.0
 51
270.0
  0
LINE
  5
1A62C
  8
DANMEN
  6
CONTINUOUS
 10
321.33846
 20
246.690823
 30
0.0
 11
320.83846
 21
246.690823
 31
0.0
  0
ARC
  5
1A62D
  8
DANMEN
  6
CONTINUOUS
 10
321.33846
 20
247.190823
 30
0.0
 40
0.5
 50
270.0
 51
0.0
  0
LINE
  5
1A62F
  8
DANMEN
  6
CONTINUOUS
 10
321.83846
 20
255.690823
 30
0.0
 11
331.63846
 21
255.690823
 31
0.0
  0
LINE
  5
1A630
  8
DANMEN
  6
CONTINUOUS
 10
319.727421
 20
254.69082
 30
0.0
 11
315.97542
 21
258.442821
 31
0.0
  0
LINE
  5
1A631
  8
DANMEN
  6
CONTINUOUS
 10
317.970061
 20
254.69082
 30
0.0
 11
320.36346
 21
257.084218
 31
0.0
  0
LINE
  5
1A632
  8
DANMEN
  6
CONTINUOUS
 10
315.848741
 20
254.69082
 30
0.0
 11
319.117366
 21
257.959445
 31
0.0
  0
LINE
  5
1A633
  8
DANMEN
  6
CONTINUOUS
 10
320.33846
 20
257.190822
 30
0.0
 11
320.33846
 21
252.690823
 31
0.0
  0
LINE
  5
1A634
  8
DANMEN
  6
CONTINUOUS
 10
320.091382
 20
254.69082
 30
0.0
 11
320.36346
 21
254.962898
 31
0.0
  0
LINE
  5
1A636
  8
DANMEN
  6
CONTINUOUS
 10
320.83846
 20
252.690823
 30
0.0
 11
320.33846
 21
252.690823
 31
0.0
  0
LINE
  5
1A639
  8
DANMEN
  6
CONTINUOUS
 10
320.36346
 20
256.176101
 30
0.0
 11
318.482435
 21
258.057126
 31
0.0
  0
ARC
  5
1A63B
  8
DANMEN
  6
CONTINUOUS
 10
320.83846
 20
257.190823
 30
0.0
 40
0.5
 50
90.0
 51
180.0
  0
LINE
  5
1A63C
  8
SUNPO
  6
CONTINUOUS
 10
19.5
 20
175.0
 30
0.0
 11
19.5
 21
225.0
 31
0.0
  0
LINE
  5
1A63D
  8
DANMEN
  6
CONTINUOUS
 10
333.63846
 20
178.190823
 30
0.0
 11
333.63846
 21
257.190823
 31
0.0
  0
LINE
  5
1A63E
  8
DANMEN
  6
CONTINUOUS
 10
335.83846
 20
262.0
 30
0.0
 11
335.83846
 21
172.690823
 31
0.0
  0
LINE
  5
1A63F
  8
DANMEN
  6
CONTINUOUS
 10
398.850006
 20
154.350006
 30
0.0
 11
392.149994
 21
154.350006
 31
0.0
  0
LINE
  5
1A640
  8
DANMEN
  6
CONTINUOUS
 10
400.0
 20
156.0
 30
0.0
 11
376.0
 21
156.0
 31
0.0
  0
LINE
  5
1A641
  8
DANMEN
  6
CONTINUOUS
 10
375.5
 20
156.0
 30
0.0
 11
355.5
 21
156.0
 31
0.0
  0
LINE
  5
1A642
  8
DANMEN
  6
CONTINUOUS
 10
355.5
 20
159.000003
 30
0.0
 11
355.5
 21
154.800003
 31
0.0
  0
LINE
  5
1A644
  8
DANMEN
  6
CONTINUOUS
 10
351.100006
 20
157.800003
 30
0.0
 11
355.5
 21
157.800003
 31
0.0
  0
LINE
  5
1A645
  8
DANMEN
  6
CONTINUOUS
 10
351.100006
 20
159.000003
 30
0.0
 11
355.5
 21
159.000003
 31
0.0
  0
ARC
  5
1A64A
  8
DANMEN
  6
CONTINUOUS
 10
351.100006
 20
158.399994
 30
0.0
 40
0.6
 50
89.999963
 51
269.999982
  0
LINE
  5
1A64B
  8
DANMEN
  6
CONTINUOUS
 10
388.5
 20
154.350006
 30
0.0
 11
376.0
 21
154.350006
 31
0.0
  0
ARC
  5
1A64F
  8
DANMEN
  6
CONTINUOUS
 10
376.0
 20
155.5
 30
0.0
 40
0.5
 50
90.000037
 51
180.000019
  0
LINE
  5
1A650
  8
DANMEN
  6
CONTINUOUS
 10
375.5
 20
155.5
 30
0.0
 11
375.5
 21
154.850006
 31
0.0
  0
ARC
  5
1A651
  8
DANMEN
  6
CONTINUOUS
 10
376.0
 20
154.850006
 30
0.0
 40
0.5
 50
180.0
 51
270.0
  0
LINE
  5
1A652
  8
DANMEN
  6
CONTINUOUS
 10
390.5
 20
154.800003
 30
0.0
 11
388.5
 21
154.800003
 31
0.0
  0
LINE
  5
1A655
  8
DANMEN
  6
CONTINUOUS
 10
388.5
 20
154.800003
 30
0.0
 11
388.5
 21
154.350006
 31
0.0
  0
ARC
  5
1A658
  8
DANMEN
  6
CONTINUOUS
 10
333.13846
 20
178.190823
 30
0.0
 40
0.5
 50
270.0
 51
0.0
  0
LINE
  5
1A659
  8
SUNPO
  6
CONTINUOUS
 10
32.0
 20
165.0
 30
0.0
 11
19.5
 21
165.0
 31
0.0
  0
LINE
  5
1A65A
  8
DANMEN
  6
CONTINUOUS
 10
398.850006
 20
154.350006
 30
0.0
 11
398.850006
 21
150.5
 31
0.0
  0
LINE
  5
1A65B
  8
DANMEN
  6
CONTINUOUS
 10
400.5
 20
155.5
 30
0.0
 11
400.5
 21
150.5
 31
0.0
  0
ARC
  5
1A65E
  8
DANMEN
  6
CONTINUOUS
 10
399.350006
 20
150.5
 30
0.0
 40
0.5
 50
180.000019
 51
270.000001
  0
ARC
  5
1A65F
  8
DANMEN
  6
CONTINUOUS
 10
400.0
 20
150.5
 30
0.0
 40
0.5
 50
270.000018
 51
359.999981
  0
LINE
  5
1A660
  8
DANMEN
  6
CONTINUOUS
 10
400.0
 20
150.0
 30
0.0
 11
399.350006
 21
150.0
 31
0.0
  0
ARC
  5
1A662
  8
DANMEN
  6
CONTINUOUS
 10
400.0
 20
155.5
 30
0.0
 40
0.5
 50
0.0
 51
89.999982
  0
ARC
  5
1A664
  8
SUNPO
  6
BYBLOCK
 10
19.5
 20
165.0
 30
0.0
 40
0.145
 50
90.0
 51
270.0
  0
ARC
  5
1A665
  8
SUNPO
  6
BYBLOCK
 10
19.5
 20
165.0
 30
0.0
 40
0.145
 50
270.0
 51
90.0
  0
ARC
  5
1A666
  8
SUNPO
  6
BYBLOCK
 10
33.5
 20
155.5
 30
0.0
 40
0.145
 50
180.0
 51
0.0
  0
ARC
  5
1A667
  8
SUNPO
  6
BYBLOCK
 10
33.5
 20
155.5
 30
0.0
 40
0.145
 50
0.0
 51
180.0
  0
TEXT
  5
1A668
  8
SUNPO
  6
CONTINUOUS
 10
54.678385
 20
156.5
 30
0.0
 40
2.5
  1
38
  7
MX_NOTE_STANDARD
  0
LINE
  5
1A669
  8
SUNPO
  6
CONTINUOUS
 10
33.5
 20
170.428279
 30
0.0
 11
27.513333
 21
170.428279
 31
0.0
  0
LINE
  5
1A66A
  8
SUNPO
  6
CONTINUOUS
 10
32.0
 20
175.0
 30
0.0
 11
19.5
 21
175.0
 31
0.0
  0
ARC
  5
1A66B
  8
SUNPO
  6
BYBLOCK
 10
19.5
 20
175.0
 30
0.0
 40
0.145
 50
270.0
 51
90.0
  0
ARC
  5
1A66C
  8
SUNPO
  6
BYBLOCK
 10
19.5
 20
175.0
 30
0.0
 40
0.145
 50
90.0
 51
270.0
  0
TEXT
  5
1A66D
  8
SUNPO
  6
CONTINUOUS
 10
28.513333
 20
171.428279
 30
0.0
 40
2.5
  1
7
  7
MX_NOTE_STANDARD
  0
TEXT
  5
1A66E
  8
SUNPO
  6
CONTINUOUS
 10
18.5
 20
198.125
 30
0.0
 40
2.5
  1
50
 50
90.0
  7
MX_NOTE_STANDARD
  0
LINE
  5
1A66F
  8
SUNPO
  6
CONTINUOUS
 10
40.5
 20
183.5
 30
0.0
 11
40.5
 21
170.428279
 31
0.0
  0
LINE
  5
1A670
  8
SUNPO
  6
CONTINUOUS
 10
40.5
 20
170.428279
 30
0.0
 11
33.5
 21
170.428279
 31
0.0
  0
ARC
  5
1A671
  8
SUNPO
  6
BYBLOCK
 10
33.5
 20
170.428279
 30
0.0
 40
0.145
 50
180.0
 51
0.0
  0
ARC
  5
1A672
  8
SUNPO
  6
BYBLOCK
 10
33.5
 20
170.428279
 30
0.0
 40
0.145
 50
0.0
 51
180.0
  0
ARC
  5
1A673
  8
SUNPO
  6
BYBLOCK
 10
40.5
 20
170.428279
 30
0.0
 40
0.145
 50
0.0
 51
180.0
  0
ARC
  5
1A674
  8
SUNPO
  6
BYBLOCK
 10
40.5
 20
170.428279
 30
0.0
 40
0.145
 50
180.0
 51
0.0
  0
ARC
  5
1A675
  8
SUNPO
  6
BYBLOCK
 10
40.5
 20
170.428279
 30
0.0
 40
0.145
 50
180.0
 51
0.0
  0
ARC
  5
1A676
  8
SUNPO
  6
BYBLOCK
 10
40.5
 20
170.428279
 30
0.0
 40
0.145
 50
0.0
 51
180.0
  0
ARC
  5
1A677
  8
DANMEN
  6
CONTINUOUS
 10
333.13846
 20
257.190823
 30
0.0
 40
0.5
 50
0.0
 51
90.0
  0
LINE
  5
1A678
  8
SUNPO
  6
CONTINUOUS
 10
39.0
 20
260.0
 30
0.0
 11
19.5
 21
260.0
 31
0.0
  0
LINE
  5
1A679
  8
SUNPO
  6
CONTINUOUS
 10
39.0
 20
225.0
 30
0.0
 11
19.5
 21
225.0
 31
0.0
  0
LINE
  5
1A67A
  8
SUNPO
  6
CONTINUOUS
 10
19.5
 20
225.0
 30
0.0
 11
19.5
 21
260.0
 31
0.0
  0
ARC
  5
1A67B
  8
SUNPO
  6
BYBLOCK
 10
19.5
 20
225.0
 30
0.0
 40
0.145
 50
270.0
 51
90.0
  0
ARC
  5
1A67C
  8
SUNPO
  6
BYBLOCK
 10
19.5
 20
225.0
 30
0.0
 40
0.145
 50
90.0
 51
270.0
  0
ARC
  5
1A67D
  8
SUNPO
  6
BYBLOCK
 10
19.5
 20
225.0
 30
0.0
 40
0.145
 50
90.0
 51
270.0
  0
ARC
  5
1A67E
  8
SUNPO
  6
BYBLOCK
 10
19.5
 20
225.0
 30
0.0
 40
0.145
 50
270.0
 51
90.0
  0
TEXT
  5
1A67F
  8
SUNPO
  6
CONTINUOUS
 10
18.5
 20
240.416667
 30
0.0
 40
2.5
  1
35
 50
90.0
  7
MX_NOTE_STANDARD
  0
ARC
  5
1A680
  8
SUNPO
  6
BYBLOCK
 10
19.5
 20
260.0
 30
0.0
 40
0.145
 50
90.0
 51
270.0
  0
ARC
  5
1A681
  8
SUNPO
  6
BYBLOCK
 10
19.5
 20
260.0
 30
0.0
 40
0.145
 50
270.0
 51
90.0
  0
LINE
  5
1A682
  8
SUNPO
  6
CONTINUOUS
 10
173.5
 20
165.527474
 30
0.0
 11
223.5
 21
165.527474
 31
0.0
  0
LINE
  5
1A683
  8
SUNPO
  6
CONTINUOUS
 10
143.185645
 20
225.0
 30
0.0
 11
143.185645
 21
175.0
 31
0.0
  0
LINE
  5
1A684
  8
SUNPO
  6
CONTINUOUS
 10
134.721192
 20
225.0
 30
0.0
 11
134.721192
 21
186.999997
 31
0.0
  0
LINE
  5
1A685
  8
SUNPO
  6
CONTINUOUS
 10
154.5
 20
225.0
 30
0.0
 11
154.5
 21
170.0
 31
0.0
  0
LINE
  5
1A686
  8
SUNPO
  6
CONTINUOUS
 10
118.999999
 20
165.0
 30
0.0
 11
143.185645
 21
165.0
 31
0.0
  0
LINE
  5
1A687
  8
SUNPO
  6
CONTINUOUS
 10
118.999999
 20
175.0
 30
0.0
 11
143.185645
 21
175.0
 31
0.0
  0
LINE
  5
1A688
  8
SUNPO
  6
CONTINUOUS
 10
119.0
 20
186.999997
 30
0.0
 11
134.721192
 21
186.999997
 31
0.0
  0
LINE
  5
1A689
  8
SUNPO
  6
CONTINUOUS
 10
118.999999
 20
133.000003
 30
0.0
 11
143.185645
 21
133.000003
 31
0.0
  0
LINE
  5
1A68A
  8
SUNPO
  6
CONTINUOUS
 10
119.0
 20
133.000003
 30
0.0
 11
134.721192
 21
133.000003
 31
0.0
  0
LINE
  5
1A68B
  8
SUNPO
  6
CONTINUOUS
 10
117.5
 20
155.5
 30
0.0
 11
79.5
 21
155.5
 31
0.0
  0
LINE
  5
1A68C
  8
SUNPO
  6
CONTINUOUS
 10
79.5
 20
155.5
 30
0.0
 11
71.5
 21
155.5
 31
0.0
  0
ARC
  5
1A68D
  8
SUNPO
  6
BYBLOCK
 10
79.5
 20
155.5
 30
0.0
 40
0.145
 50
0.0
 51
180.0
  0
ARC
  5
1A68E
  8
SUNPO
  6
BYBLOCK
 10
79.5
 20
155.5
 30
0.0
 40
0.145
 50
180.0
 51
0.0
  0
ARC
  5
1A68F
  8
SUNPO
  6
BYBLOCK
 10
79.5
 20
155.5
 30
0.0
 40
0.145
 50
180.0
 51
0.0
  0
ARC
  5
1A690
  8
SUNPO
  6
BYBLOCK
 10
79.5
 20
155.5
 30
0.0
 40
0.145
 50
0.0
 51
180.0
  0
TEXT
  5
1A691
  8
SUNPO
  6
CONTINUOUS
 10
74.666667
 20
156.5
 30
0.0
 40
2.5
  1
8
  7
MX_NOTE_STANDARD
  0
ARC
  5
1A692
  8
SUNPO
  6
BYBLOCK
 10
71.5
 20
155.5
 30
0.0
 40
0.145
 50
180.0
 51
0.0
  0
ARC
  5
1A693
  8
SUNPO
  6
BYBLOCK
 10
71.5
 20
155.5
 30
0.0
 40
0.145
 50
0.0
 51
180.0
  0
ARC
  5
1A694
  8
SUNPO
  6
BYBLOCK
 10
71.5
 20
155.5
 30
0.0
 40
0.145
 50
0.0
 51
180.0
  0
ARC
  5
1A695
  8
SUNPO
  6
BYBLOCK
 10
71.5
 20
155.5
 30
0.0
 40
0.145
 50
180.0
 51
0.0
  0
TEXT
  5
1A696
  8
SUNPO
  6
CONTINUOUS
 10
96.416667
 20
156.5
 30
0.0
 40
2.5
  1
38
  7
MX_NOTE_STANDARD
  0
ARC
  5
1A697
  8
SUNPO
  6
BYBLOCK
 10
117.5
 20
155.5
 30
0.0
 40
0.145
 50
0.0
 51
180.0
  0
ARC
  5
1A698
  8
SUNPO
  6
BYBLOCK
 10
117.5
 20
155.5
 30
0.0
 40
0.145
 50
180.0
 51
0.0
  0
TEXT
  5
1A699
  8
SUNPO
  6
CONTINUOUS
 10
75.307449
 20
171.428279
 30
0.0
 40
2.5
  1
70
  7
MX_NOTE_STANDARD
  0
LINE
  5
1A69A
  8
SUNPO
  6
CONTINUOUS
 10
110.5
 20
208.649997
 30
0.0
 11
110.5
 21
170.428279
 31
0.0
  0
LINE
  5
1A69B
  8
SUNPO
  6
CONTINUOUS
 10
117.5
 20
170.428279
 30
0.0
 11
110.5
 21
170.428279
 31
0.0
  0
LINE
  5
1A69C
  8
SUNPO
  6
CONTINUOUS
 10
110.5
 20
174.0
 30
0.0
 11
110.5
 21
170.428279
 31
0.0
  0
ARC
  5
1A69D
  8
SUNPO
  6
BYBLOCK
 10
110.5
 20
170.428279
 30
0.0
 40
0.145
 50
180.0
 51
0.0
  0
ARC
  5
1A69E
  8
SUNPO
  6
BYBLOCK
 10
110.5
 20
170.428279
 30
0.0
 40
0.145
 50
0.0
 51
180.0
  0
ARC
  5
1A69F
  8
SUNPO
  6
BYBLOCK
 10
110.5
 20
170.428279
 30
0.0
 40
0.145
 50
0.0
 51
180.0
  0
ARC
  5
1A6A0
  8
SUNPO
  6
BYBLOCK
 10
110.5
 20
170.428279
 30
0.0
 40
0.145
 50
180.0
 51
0.0
  0
TEXT
  5
1A6A1
  8
SUNPO
  6
CONTINUOUS
 10
113.166667
 20
171.428279
 30
0.0
 40
2.5
  1
7
  7
MX_NOTE_STANDARD
  0
LINE
  5
1A6A2
  8
SUNPO
  6
CONTINUOUS
 10
117.5
 20
169.5
 30
0.0
 11
117.5
 21
170.428279
 31
0.0
  0
ARC
  5
1A6A3
  8
SUNPO
  6
BYBLOCK
 10
117.5
 20
170.428279
 30
0.0
 40
0.145
 50
0.0
 51
180.0
  0
ARC
  5
1A6A4
  8
SUNPO
  6
BYBLOCK
 10
117.5
 20
170.428279
 30
0.0
 40
0.145
 50
180.0
 51
0.0
  0
TEXT
  5
1A6A5
  8
SUNPO
  6
CONTINUOUS
 10
171.166667
 20
166.527474
 30
0.0
 40
2.5
  1
3
  7
MX_NOTE_STANDARD
  0
LINE
  5
1A6A6
  8
SUNPO
  6
CONTINUOUS
 10
143.185645
 20
165.0
 30
0.0
 11
143.185645
 21
133.000003
 31
0.0
  0
ARC
  5
1A6A7
  8
SUNPO
  6
BYBLOCK
 10
134.721192
 20
133.000003
 30
0.0
 40
0.145
 50
90.0
 51
270.0
  0
ARC
  5
1A6A8
  8
SUNPO
  6
BYBLOCK
 10
134.721192
 20
133.000003
 30
0.0
 40
0.145
 50
270.0
 51
90.0
  0
ARC
  5
1A6A9
  8
SUNPO
  6
BYBLOCK
 10
143.185645
 20
133.000003
 30
0.0
 40
0.145
 50
270.0
 51
90.0
  0
ARC
  5
1A6AA
  8
SUNPO
  6
BYBLOCK
 10
143.185645
 20
133.000003
 30
0.0
 40
0.145
 50
90.0
 51
270.0
  0
ARC
  5
1A6AB
  8
SUNPO
  6
BYBLOCK
 10
143.185645
 20
133.000003
 30
0.0
 40
0.145
 50
90.0
 51
270.0
  0
ARC
  5
1A6AC
  8
SUNPO
  6
BYBLOCK
 10
143.185645
 20
133.000003
 30
0.0
 40
0.145
 50
270.0
 51
90.0
  0
TEXT
  5
1A6AD
  8
SUNPO
  6
CONTINUOUS
 10
142.185645
 20
146.916669
 30
0.0
 40
2.5
  1
32
 50
90.0
  7
MX_NOTE_STANDARD
  0
ARC
  5
1A6AE
  8
SUNPO
  6
BYBLOCK
 10
143.185645
 20
165.0
 30
0.0
 40
0.145
 50
90.0
 51
270.0
  0
ARC
  5
1A6AF
  8
SUNPO
  6
BYBLOCK
 10
143.185645
 20
165.0
 30
0.0
 40
0.145
 50
270.0
 51
90.0
  0
LINE
  5
1A6B0
  8
SUNPO
  6
CONTINUOUS
 10
150.5
 20
160.653991
 30
0.0
 11
150.5
 21
156.920944
 31
0.0
  0
LINE
  5
1A6B1
  8
SUNPO
  6
CONTINUOUS
 10
154.5
 20
158.641045
 30
0.0
 11
154.5
 21
153.141045
 31
0.0
  0
LINE
  5
1A6B2
  8
SUNPO
  6
CONTINUOUS
 10
158.5
 20
160.653991
 30
0.0
 11
158.5
 21
156.920944
 31
0.0
  0
LINE
  5
1A6B3
  8
SUNPO
  6
CONTINUOUS
 10
150.5
 20
153.141045
 30
0.0
 11
158.5
 21
153.141045
 31
0.0
  0
LINE
  5
1A6B4
  8
SUNPO
  6
CONTINUOUS
 10
150.5
 20
151.141045
 30
0.0
 11
158.5
 21
151.141045
 31
0.0
  0
LINE
  5
1A6B5
  8
SUNPO
  6
CONTINUOUS
 10
150.5
 20
154.541039
 30
0.0
 11
150.5
 21
149.343696
 31
0.0
  0
LINE
  5
1A6B6
  8
SUNPO
  6
CONTINUOUS
 10
158.5
 20
154.541039
 30
0.0
 11
158.5
 21
149.343696
 31
0.0
  0
LINE
  5
1A6B7
  8
SUNPO
  6
CONTINUOUS
 10
150.5
 20
158.641045
 30
0.0
 11
158.5
 21
158.641045
 31
0.0
  0
LINE
  5
1A6B8
  8
SUNPO
  6
CONTINUOUS
 10
153.299927
 20
166.656304
 30
0.0
 11
153.299927
 21
161.867761
 31
0.0
  0
LINE
  5
1A6B9
  8
SUNPO
  6
CONTINUOUS
 10
155.699921
 20
166.656304
 30
0.0
 11
155.699921
 21
161.867761
 31
0.0
  0
LINE
  5
1A6BB
  8
SUNPO
  6
CONTINUOUS
 10
173.5
 20
157.5
 30
0.0
 11
173.5
 21
165.527474
 31
0.0
  0
LINE
  5
1A6BC
  8
SUNPO
  6
CONTINUOUS
 10
170.5
 20
157.5
 30
0.0
 11
170.5
 21
165.527474
 31
0.0
  0
LINE
  5
1A6BD
  8
SUNPO
  6
CONTINUOUS
 10
170.5
 20
165.527474
 30
0.0
 11
173.5
 21
165.527474
 31
0.0
  0
ARC
  5
1A6BE
  8
SUNPO
  6
BYBLOCK
 10
170.5
 20
165.527474
 30
0.0
 40
0.145
 50
180.0
 51
0.0
  0
ARC
  5
1A6BF
  8
SUNPO
  6
BYBLOCK
 10
170.5
 20
165.527474
 30
0.0
 40
0.145
 50
0.0
 51
180.0
  0
ARC
  5
1A6C0
  8
SUNPO
  6
BYBLOCK
 10
173.5
 20
165.527474
 30
0.0
 40
0.145
 50
0.0
 51
180.0
  0
ARC
  5
1A6C1
  8
SUNPO
  6
BYBLOCK
 10
173.5
 20
165.527474
 30
0.0
 40
0.145
 50
180.0
 51
0.0
  0
ARC
  5
1A6C2
  8
SUNPO
  6
BYBLOCK
 10
173.5
 20
165.527474
 30
0.0
 40
0.145
 50
180.0
 51
0.0
  0
ARC
  5
1A6C3
  8
SUNPO
  6
BYBLOCK
 10
173.5
 20
165.527474
 30
0.0
 40
0.145
 50
0.0
 51
180.0
  0
ARC
  5
1A6C4
  8
SUNPO
  6
BYBLOCK
 10
143.185645
 20
175.0
 30
0.0
 40
0.145
 50
270.0
 51
90.0
  0
ARC
  5
1A6C5
  8
SUNPO
  6
BYBLOCK
 10
143.185645
 20
175.0
 30
0.0
 40
0.145
 50
90.0
 51
270.0
  0
ARC
  5
1A6C6
  8
SUNPO
  6
BYBLOCK
 10
134.721192
 20
186.999997
 30
0.0
 40
0.145
 50
270.0
 51
90.0
  0
ARC
  5
1A6C7
  8
SUNPO
  6
BYBLOCK
 10
134.721192
 20
186.999997
 30
0.0
 40
0.145
 50
90.0
 51
270.0
  0
TEXT
  5
1A6C8
  8
SUNPO
  6
CONTINUOUS
 10
142.185645
 20
198.125
 30
0.0
 40
2.5
  1
50
 50
90.0
  7
MX_NOTE_STANDARD
  0
TEXT
  5
1A6C9
  8
SUNPO
  6
CONTINUOUS
 10
133.721192
 20
203.916665
 30
0.0
 40
2.5
  1
38
 50
90.0
  7
MX_NOTE_STANDARD
  0
LINE
  5
1A6CA
  8
SUNPO
  6
CONTINUOUS
 10
112.0
 20
225.0
 30
0.0
 11
154.5
 21
225.0
 31
0.0
  0
LINE
  5
1A6CB
  8
SUNPO
  6
CONTINUOUS
 10
112.0
 20
260.0
 30
0.0
 11
154.5
 21
260.0
 31
0.0
  0
LINE
  5
1A6CC
  8
SUNPO
  6
CONTINUOUS
 10
154.5
 20
260.0
 30
0.0
 11
154.5
 21
225.0
 31
0.0
  0
ARC
  5
1A6CD
  8
SUNPO
  6
BYBLOCK
 10
134.721192
 20
225.0
 30
0.0
 40
0.145
 50
90.0
 51
270.0
  0
ARC
  5
1A6CE
  8
SUNPO
  6
BYBLOCK
 10
134.721192
 20
225.0
 30
0.0
 40
0.145
 50
270.0
 51
90.0
  0
ARC
  5
1A6CF
  8
SUNPO
  6
BYBLOCK
 10
143.185645
 20
225.0
 30
0.0
 40
0.145
 50
90.0
 51
270.0
  0
ARC
  5
1A6D0
  8
SUNPO
  6
BYBLOCK
 10
143.185645
 20
225.0
 30
0.0
 40
0.145
 50
270.0
 51
90.0
  0
LINE
  5
1A6D1
  8
SUNPO
  6
CONTINUOUS
 10
159.5
 20
220.0
 30
0.0
 11
149.5
 21
220.0
 31
0.0
  0
LINE
  5
1A6D2
  8
SUNPO
  6
CONTINUOUS
 10
149.5
 20
220.0
 30
0.0
 11
154.5
 21
225.0
 31
0.0
  0
LINE
  5
1A6D4
  8
SUNPO
  6
CONTINUOUS
 10
154.5
 20
225.0
 30
0.0
 11
159.5
 21
220.0
 31
0.0
  0
TEXT
  5
1A6D7
  8
SUNPO
  6
CONTINUOUS
 10
153.5
 20
240.416667
 30
0.0
 40
2.5
  1
35
 50
90.0
  7
MX_NOTE_STANDARD
  0
ARC
  5
1A6D8
  8
SUNPO
  6
BYBLOCK
 10
154.5
 20
260.0
 30
0.0
 40
0.145
 50
90.0
 51
270.0
  0
ARC
  5
1A6D9
  8
SUNPO
  6
BYBLOCK
 10
154.5
 20
260.0
 30
0.0
 40
0.145
 50
270.0
 51
90.0
  0
TEXT
  5
1A6DA
  8
SUNPO
  6
CONTINUOUS
 10
196.625
 20
166.527474
 30
0.0
 40
2.5
  1
50
  7
MX_NOTE_STANDARD
  0
LINE
  5
1A6DB
  8
SUNPO
  6
CONTINUOUS
 10
202.000001
 20
156.0
 30
0.0
 11
243.293737
 21
156.0
 31
0.0
  0
LINE
  5
1A6DC
  8
SUNPO
  6
CONTINUOUS
 10
223.5
 20
164.5
 30
0.0
 11
223.5
 21
165.527474
 31
0.0
  0
ARC
  5
1A6DD
  8
SUNPO
  6
BYBLOCK
 10
223.5
 20
165.527474
 30
0.0
 40
0.145
 50
0.0
 51
180.0
  0
ARC
  5
1A6DE
  8
SUNPO
  6
BYBLOCK
 10
223.5
 20
165.527474
 30
0.0
 40
0.145
 50
180.0
 51
0.0
  0
LINE
  5
1A6DF
  8
SUNPO
  6
CONTINUOUS
 10
243.293737
 20
163.0
 30
0.0
 11
243.293737
 21
156.0
 31
0.0
  0
ARC
  5
1A6E0
  8
SUNPO
  6
BYBLOCK
 10
243.293737
 20
156.0
 30
0.0
 40
0.145
 50
270.0
 51
90.0
  0
ARC
  5
1A6E1
  8
SUNPO
  6
BYBLOCK
 10
243.293737
 20
156.0
 30
0.0
 40
0.145
 50
90.0
 51
270.0
  0
ARC
  5
1A6E2
  8
SUNPO
  6
BYBLOCK
 10
243.293737
 20
156.0
 30
0.0
 40
0.145
 50
90.0
 51
270.0
  0
ARC
  5
1A6E3
  8
SUNPO
  6
BYBLOCK
 10
243.293737
 20
156.0
 30
0.0
 40
0.145
 50
270.0
 51
90.0
  0
ARC
  5
1A6E4
  8
SUNPO
  6
BYBLOCK
 10
243.293737
 20
163.0
 30
0.0
 40
0.145
 50
90.0
 51
270.0
  0
ARC
  5
1A6E5
  8
SUNPO
  6
BYBLOCK
 10
243.293737
 20
163.0
 30
0.0
 40
0.145
 50
270.0
 51
90.0
  0
TEXT
  5
1A6E6
  8
SUNPO
  6
CONTINUOUS
 10
242.293737
 20
158.666667
 30
0.0
 40
2.5
  1
7
 50
90.0
  7
MX_NOTE_STANDARD
  0
TEXT
  5
1A6E7
  8
SUNPO
  6
CONTINUOUS
 10
321.968739
 20
141.916667
 30
0.0
 40
2.5
  1
38
 50
90.0
  7
MX_NOTE_STANDARD
  0
LINE
  5
1A6E8
  8
SUNPO
  6
CONTINUOUS
 10
322.968739
 20
163.0
 30
0.0
 11
322.968739
 21
125.0
 31
0.0
  0
LINE
  5
1A6E9
  8
SUNPO
  6
CONTINUOUS
 10
304.499997
 20
125.0
 30
0.0
 11
322.968739
 21
125.0
 31
0.0
  0
ARC
  5
1A6EA
  8
SUNPO
  6
BYBLOCK
 10
322.968739
 20
125.0
 30
0.0
 40
0.145
 50
270.0
 51
90.0
  0
ARC
  5
1A6EB
  8
SUNPO
  6
BYBLOCK
 10
322.968739
 20
125.0
 30
0.0
 40
0.145
 50
90.0
 51
270.0
  0
ARC
  5
1A6EC
  8
SUNPO
  6
BYBLOCK
 10
322.968739
 20
125.0
 30
0.0
 40
0.145
 50
90.0
 51
270.0
  0
ARC
  5
1A6ED
  8
SUNPO
  6
BYBLOCK
 10
322.968739
 20
125.0
 30
0.0
 40
0.145
 50
270.0
 51
90.0
  0
LINE
  5
1A6EE
  8
SUNPO
  6
CONTINUOUS
 10
304.499997
 20
163.0
 30
0.0
 11
322.968739
 21
163.0
 31
0.0
  0
ARC
  5
1A6EF
  8
SUNPO
  6
BYBLOCK
 10
322.968739
 20
163.0
 30
0.0
 40
0.145
 50
90.0
 51
270.0
  0
ARC
  5
1A6F0
  8
SUNPO
  6
BYBLOCK
 10
322.968739
 20
163.0
 30
0.0
 40
0.145
 50
270.0
 51
90.0
  0
LINE
  5
1A6F1
  8
SUNPO
  6
CONTINUOUS
 10
289.83846
 20
221.728614
 30
0.0
 11
251.83846
 21
221.728614
 31
0.0
  0
ARC
  5
1A6F2
  8
SUNPO
  6
BYBLOCK
 10
251.83846
 20
221.728614
 30
0.0
 40
0.145
 50
180.0
 51
0.0
  0
ARC
  5
1A6F3
  8
SUNPO
  6
BYBLOCK
 10
251.83846
 20
221.728614
 30
0.0
 40
0.145
 50
0.0
 51
180.0
  0
LINE
  5
1A6F4
  8
SUNPO
  6
CONTINUOUS
 10
297.83846
 20
221.728614
 30
0.0
 11
289.83846
 21
221.728614
 31
0.0
  0
TEXT
  5
1A6F5
  8
SUNPO
  6
CONTINUOUS
 10
268.755126
 20
222.728614
 30
0.0
 40
2.5
  1
38
  7
MX_NOTE_STANDARD
  0
ARC
  5
1A6F6
  8
SUNPO
  6
BYBLOCK
 10
289.83846
 20
221.728614
 30
0.0
 40
0.145
 50
180.0
 51
0.0
  0
ARC
  5
1A6F7
  8
SUNPO
  6
BYBLOCK
 10
289.83846
 20
221.728614
 30
0.0
 40
0.145
 50
0.0
 51
180.0
  0
ARC
  5
1A6F8
  8
SUNPO
  6
BYBLOCK
 10
289.83846
 20
221.728614
 30
0.0
 40
0.145
 50
0.0
 51
180.0
  0
ARC
  5
1A6F9
  8
SUNPO
  6
BYBLOCK
 10
289.83846
 20
221.728614
 30
0.0
 40
0.145
 50
180.0
 51
0.0
  0
TEXT
  5
1A6FA
  8
SUNPO
  6
CONTINUOUS
 10
293.005126
 20
222.728614
 30
0.0
 40
2.5
  1
8
  7
MX_NOTE_STANDARD
  0
ARC
  5
1A6FB
  8
SUNPO
  6
BYBLOCK
 10
297.83846
 20
221.728614
 30
0.0
 40
0.145
 50
180.0
 51
0.0
  0
ARC
  5
1A6FC
  8
SUNPO
  6
BYBLOCK
 10
297.83846
 20
221.728614
 30
0.0
 40
0.145
 50
0.0
 51
180.0
  0
ARC
  5
1A6FD
  8
SUNPO
  6
BYBLOCK
 10
297.83846
 20
221.728614
 30
0.0
 40
0.145
 50
0.0
 51
180.0
  0
ARC
  5
1A6FE
  8
SUNPO
  6
BYBLOCK
 10
297.83846
 20
221.728614
 30
0.0
 40
0.145
 50
180.0
 51
0.0
  0
TEXT
  5
1A6FF
  8
SUNPO
  6
CONTINUOUS
 10
314.755126
 20
222.728614
 30
0.0
 40
2.5
  1
38
  7
MX_NOTE_STANDARD
  0
LINE
  5
1A700
  8
SUNPO
  6
CONTINUOUS
 10
345.83846
 20
257.690823
 30
0.0
 11
345.83846
 21
177.690823
 31
0.0
  0
LINE
  5
1A701
  8
SUNPO
  6
CONTINUOUS
 10
375.5
 20
165.527474
 30
0.0
 11
400.5
 21
165.527474
 31
0.0
  0
TEXT
  5
1A702
  8
SUNPO
  6
CONTINUOUS
 10
385.916667
 20
166.527474
 30
0.0
 40
2.5
  1
25
  7
MX_NOTE_STANDARD
  0
TEXT
  5
1A703
  8
SUNPO
  6
CONTINUOUS
 10
353.625
 20
166.527474
 30
0.0
 40
2.5
  1
20
  7
MX_NOTE_STANDARD
  0
TEXT
  5
1A704
  8
SUNPO
  6
CONTINUOUS
 10
369.041667
 20
166.527474
 30
0.0
 40
2.5
  1
10
  7
MX_NOTE_STANDARD
  0
LINE
  5
1A705
  8
SUNPO
  6
CONTINUOUS
 10
345.5
 20
165.527474
 30
0.0
 11
365.5
 21
165.527474
 31
0.0
  0
LINE
  5
1A706
  8
SUNPO
  6
CONTINUOUS
 10
345.5
 20
160.5
 30
0.0
 11
345.5
 21
165.527474
 31
0.0
  0
ARC
  5
1A707
  8
SUNPO
  6
BYBLOCK
 10
345.5
 20
165.527474
 30
0.0
 40
0.145
 50
180.0
 51
0.0
  0
ARC
  5
1A708
  8
SUNPO
  6
BYBLOCK
 10
345.5
 20
165.527474
 30
0.0
 40
0.145
 50
0.0
 51
180.0
  0
LINE
  5
1A709
  8
SUNPO
  6
CONTINUOUS
 10
365.5
 20
165.527474
 30
0.0
 11
375.5
 21
165.527474
 31
0.0
  0
LINE
  5
1A70A
  8
SUNPO
  6
CONTINUOUS
 10
365.5
 20
157.5
 30
0.0
 11
365.5
 21
165.527474
 31
0.0
  0
LINE
  5
1A70B
  8
SUNPO
  6
CONTINUOUS
 10
365.5
 20
157.5
 30
0.0
 11
365.5
 21
165.527474
 31
0.0
  0
ARC
  5
1A70C
  8
SUNPO
  6
BYBLOCK
 10
365.5
 20
165.527474
 30
0.0
 40
0.145
 50
180.0
 51
0.0
  0
ARC
  5
1A70D
  8
SUNPO
  6
BYBLOCK
 10
365.5
 20
165.527474
 30
0.0
 40
0.145
 50
0.0
 51
180.0
  0
ARC
  5
1A70E
  8
SUNPO
  6
BYBLOCK
 10
365.5
 20
165.527474
 30
0.0
 40
0.145
 50
0.0
 51
180.0
  0
ARC
  5
1A70F
  8
SUNPO
  6
BYBLOCK
 10
365.5
 20
165.527474
 30
0.0
 40
0.145
 50
180.0
 51
0.0
  0
LINE
  5
1A710
  8
SUNPO
  6
CONTINUOUS
 10
375.5
 20
157.5
 30
0.0
 11
375.5
 21
165.527474
 31
0.0
  0
LINE
  5
1A711
  8
SUNPO
  6
CONTINUOUS
 10
375.5
 20
157.5
 30
0.0
 11
375.5
 21
165.527474
 31
0.0
  0
ARC
  5
1A712
  8
SUNPO
  6
BYBLOCK
 10
375.5
 20
165.527474
 30
0.0
 40
0.145
 50
0.0
 51
180.0
  0
ARC
  5
1A713
  8
SUNPO
  6
BYBLOCK
 10
375.5
 20
165.527474
 30
0.0
 40
0.145
 50
180.0
 51
0.0
  0
ARC
  5
1A714
  8
SUNPO
  6
BYBLOCK
 10
375.5
 20
165.527474
 30
0.0
 40
0.145
 50
180.0
 51
0.0
  0
ARC
  5
1A715
  8
SUNPO
  6
BYBLOCK
 10
375.5
 20
165.527474
 30
0.0
 40
0.145
 50
0.0
 51
180.0
  0
LINE
  5
1A716
  8
SUNPO
  6
CONTINUOUS
 10
337.33846
 20
177.690823
 30
0.0
 11
345.83846
 21
177.690823
 31
0.0
  0
ARC
  5
1A717
  8
SUNPO
  6
BYBLOCK
 10
345.83846
 20
177.690823
 30
0.0
 40
0.145
 50
270.0
 51
90.0
  0
ARC
  5
1A718
  8
SUNPO
  6
BYBLOCK
 10
345.83846
 20
177.690823
 30
0.0
 40
0.145
 50
90.0
 51
270.0
  0
LINE
  5
1A719
  8
SUNPO
  6
CONTINUOUS
 10
400.5
 20
157.5
 30
0.0
 11
400.5
 21
165.527474
 31
0.0
  0
ARC
  5
1A71A
  8
SUNPO
  6
BYBLOCK
 10
400.5
 20
165.527474
 30
0.0
 40
0.145
 50
0.0
 51
180.0
  0
ARC
  5
1A71B
  8
SUNPO
  6
BYBLOCK
 10
400.5
 20
165.527474
 30
0.0
 40
0.145
 50
180.0
 51
0.0
  0
ARC
  5
1A71C
  8
SUNPO
  6
BYBLOCK
 10
335.83846
 20
221.728614
 30
0.0
 40
0.145
 50
0.0
 51
180.0
  0
ARC
  5
1A71D
  8
SUNPO
  6
BYBLOCK
 10
335.83846
 20
221.728614
 30
0.0
 40
0.145
 50
180.0
 51
0.0
  0
TEXT
  5
1A71E
  8
SUNPO
  6
CONTINUOUS
 10
344.83846
 20
215.815823
 30
0.0
 40
2.5
  1
80
 50
90.0
  7
MX_NOTE_STANDARD
  0
LINE
  5
1A71F
  8
SUNPO
  6
CONTINUOUS
 10
337.33846
 20
257.690823
 30
0.0
 11
345.83846
 21
257.690823
 31
0.0
  0
ARC
  5
1A720
  8
SUNPO
  6
BYBLOCK
 10
345.83846
 20
257.690823
 30
0.0
 40
0.145
 50
90.0
 51
270.0
  0
ARC
  5
1A721
  8
SUNPO
  6
BYBLOCK
 10
345.83846
 20
257.690823
 30
0.0
 40
0.145
 50
270.0
 51
90.0
  0
LINE
  5
1A7CA
  8
SUNPO
  6
CONTINUOUS
 10
218.315372
 20
40.430155
 30
0.0
 11
219.228887
 21
41.052967
 31
0.0
210
0.0
220
0.0
230
-1.0
  0
LINE
  5
1A7CB
  8
SUNPO
  6
CONTINUOUS
 10
219.228887
 20
41.052967
 30
0.0
 11
219.699982
 21
41.091179
 31
0.0
210
0.0
220
0.0
230
-1.0
  0
LINE
  5
1A7CC
  8
SUNPO
  6
CONTINUOUS
 10
219.699982
 20
41.091179
 30
0.0
 11
219.5138
 21
40.578868
 31
0.0
210
0.0
220
0.0
230
-1.0
  0
LINE
  5
1A7CD
  8
SUNPO
  6
CONTINUOUS
 10
219.5138
 20
40.578868
 30
0.0
 11
218.620898
 21
38.599677
 31
0.0
210
0.0
220
0.0
230
-1.0
  0
LINE
  5
1A7CE
  8
SUNPO
  6
CONTINUOUS
 10
218.620898
 20
38.599677
 30
0.0
 11
218.917461
 21
37.620702
 31
0.0
210
0.0
220
0.0
230
-1.0
  0
LINE
  5
1A7CF
  8
SUNPO
  6
CONTINUOUS
 10
218.917461
 20
37.620702
 30
0.0
 11
219.878871
 21
37.924854
 31
0.0
210
0.0
220
0.0
230
-1.0
  0
LINE
  5
1A7D0
  8
SUNPO
  6
CONTINUOUS
 10
219.878871
 20
37.924854
 30
0.0
 11
220.36436
 21
39.042338
 31
0.0
210
0.0
220
0.0
230
-1.0
  0
LINE
  5
1A7D1
  8
SUNPO
  6
CONTINUOUS
 10
220.36436
 20
39.042338
 30
0.0
 11
220.47692
 21
39.543679
 31
0.0
210
0.0
220
0.0
230
-1.0
  0
LINE
  5
1A7D2
  8
SUNPO
  6
CONTINUOUS
 10
220.47692
 20
39.543679
 30
0.0
 11
220.349498
 21
39.018051
 31
0.0
210
0.0
220
0.0
230
-1.0
  0
LINE
  5
1A7D3
  8
SUNPO
  6
CONTINUOUS
 10
220.349498
 20
39.018051
 30
0.0
 11
220.299705
 21
37.952675
 31
0.0
210
0.0
220
0.0
230
-1.0
  0
LINE
  5
1A7D4
  8
SUNPO
  6
CONTINUOUS
 10
220.299705
 20
37.952675
 30
0.0
 11
221.135643
 21
37.371351
 31
0.0
210
0.0
220
0.0
230
-1.0
  0
LINE
  5
1A7D5
  8
SUNPO
  6
CONTINUOUS
 10
221.135643
 20
37.371351
 30
0.0
 11
222.008647
 21
37.987263
 31
0.0
210
0.0
220
0.0
230
-1.0
  0
LINE
  5
1A7D6
  8
SUNPO
  6
CONTINUOUS
 10
222.008647
 20
37.987263
 30
0.0
 11
222.451869
 21
38.976998
 31
0.0
210
0.0
220
0.0
230
-1.0
  0
LINE
  5
1A7D7
  8
SUNPO
  6
CONTINUOUS
 10
222.451869
 20
38.976998
 30
0.0
 11
222.336626
 21
41.133374
 31
0.0
210
0.0
220
0.0
230
-1.0
  0
LINE
  5
1A7D8
  8
SUNPO
  6
CONTINUOUS
 10
222.336626
 20
41.133374
 30
0.0
 11
224.474428
 21
40.896876
 31
0.0
210
0.0
220
0.0
230
-1.0
  0
LINE
  5
1A7D9
  8
SUNPO
  6
CONTINUOUS
 10
335.515372
 20
40.430155
 30
0.0
 11
336.428887
 21
41.052967
 31
0.0
210
0.0
220
0.0
230
-1.0
  0
LINE
  5
1A7DA
  8
SUNPO
  6
CONTINUOUS
 10
336.428887
 20
41.052967
 30
0.0
 11
336.899983
 21
41.091179
 31
0.0
210
0.0
220
0.0
230
-1.0
  0
LINE
  5
1A7DB
  8
SUNPO
  6
CONTINUOUS
 10
336.899983
 20
41.091179
 30
0.0
 11
336.7138
 21
40.578869
 31
0.0
210
0.0
220
0.0
230
-1.0
  0
LINE
  5
1A7DC
  8
SUNPO
  6
CONTINUOUS
 10
336.7138
 20
40.578869
 30
0.0
 11
335.820898
 21
38.599677
 31
0.0
210
0.0
220
0.0
230
-1.0
  0
LINE
  5
1A7DD
  8
SUNPO
  6
CONTINUOUS
 10
335.820898
 20
38.599677
 30
0.0
 11
336.117461
 21
37.620702
 31
0.0
210
0.0
220
0.0
230
-1.0
  0
LINE
  5
1A7DE
  8
SUNPO
  6
CONTINUOUS
 10
336.117461
 20
37.620702
 30
0.0
 11
337.078871
 21
37.924853
 31
0.0
210
0.0
220
0.0
230
-1.0
  0
LINE
  5
1A7DF
  8
SUNPO
  6
CONTINUOUS
 10
337.078871
 20
37.924853
 30
0.0
 11
337.564361
 21
39.042337
 31
0.0
210
0.0
220
0.0
230
-1.0
  0
LINE
  5
1A7E0
  8
SUNPO
  6
CONTINUOUS
 10
337.564361
 20
39.042337
 30
0.0
 11
337.676921
 21
39.543679
 31
0.0
210
0.0
220
0.0
230
-1.0
  0
LINE
  5
1A7E1
  8
SUNPO
  6
CONTINUOUS
 10
337.676921
 20
39.543679
 30
0.0
 11
337.5495
 21
39.018052
 31
0.0
210
0.0
220
0.0
230
-1.0
  0
LINE
  5
1A7E2
  8
SUNPO
  6
CONTINUOUS
 10
337.5495
 20
39.018052
 30
0.0
 11
337.499705
 21
37.952676
 31
0.0
210
0.0
220
0.0
230
-1.0
  0
LINE
  5
1A7E3
  8
SUNPO
  6
CONTINUOUS
 10
337.499705
 20
37.952676
 30
0.0
 11
338.335643
 21
37.371351
 31
0.0
210
0.0
220
0.0
230
-1.0
  0
LINE
  5
1A7E4
  8
SUNPO
  6
CONTINUOUS
 10
338.335643
 20
37.371351
 30
0.0
 11
339.208648
 21
37.987263
 31
0.0
210
0.0
220
0.0
230
-1.0
  0
LINE
  5
1A7E5
  8
SUNPO
  6
CONTINUOUS
 10
339.208648
 20
37.987263
 30
0.0
 11
339.65187
 21
38.976998
 31
0.0
210
0.0
220
0.0
230
-1.0
  0
LINE
  5
1A7E6
  8
SUNPO
  6
CONTINUOUS
 10
339.65187
 20
38.976998
 30
0.0
 11
339.536626
 21
41.133374
 31
0.0
210
0.0
220
0.0
230
-1.0
  0
LINE
  5
1A7E7
  8
SUNPO
  6
CONTINUOUS
 10
339.536626
 20
41.133374
 30
0.0
 11
341.674429
 21
40.896876
 31
0.0
210
0.0
220
0.0
230
-1.0
  0
LINE
  5
1A863
  8
DANMEN
  6
CONTINUOUS
 10
70.999995
 20
66.000005
 30
0.0
 11
69.300003
 21
66.000005
 31
0.0
  0
LINE
  5
1A86A
  8
DANMEN
  6
CONTINUOUS
 10
67.350006
 20
65.999999
 30
0.0
 11
67.350006
 21
51.5
 31
0.0
  0
LINE
  5
1A86B
  8
DANMEN
  6
CONTINUOUS
 10
69.300003
 20
66.000005
 30
0.0
 11
69.300003
 21
51.5
 31
0.0
  0
ARC
  5
1A86C
  8
DANMEN
  6
CONTINUOUS
 10
68.800003
 20
51.5
 30
0.0
 40
0.5
 50
269.999999
 51
359.999981
  0
ARC
  5
1A86D
  8
DANMEN
  6
CONTINUOUS
 10
67.850006
 20
51.5
 30
0.0
 40
0.5
 50
180.0
 51
269.999982
  0
LINE
  5
1A86E
  8
DANMEN
  6
CONTINUOUS
 10
68.800003
 20
51.0
 30
0.0
 11
67.850006
 21
51.0
 31
0.0
  0
ENDSEC
  0
EOF
