  0
SECTION
  2
HEADER
  9
$ACADVER
  1
AC1009
  9
$INSBASE
 10
0.0
 20
0.0
 30
0.0
  9
$EXTMIN
 10
4.986803
 20
4.971933
 30
-0.001526
  9
$EXTMAX
 10
415.019075
 20
292.013444
 30
0.0
  9
$LIMMIN
 10
-210.0
 20
-148.5
  9
$LIMMAX
 10
210.0
 20
148.5
  9
$ORTHOMODE
 70
     0
  9
$REGENMODE
 70
     1
  9
$FILLMODE
 70
     1
  9
$QTEXTMODE
 70
     0
  9
$MIRRTEXT
 70
     1
  9
$DRAGMODE
 70
     2
  9
$LTSCALE
 40
0.5
  9
$OSMODE
 70
   239
  9
$ATTMODE
 70
     1
  9
$TEXTSIZE
 40
0.2
  9
$TRACEWID
 40
0.05
  9
$TEXTSTYLE
  7
MX_NOTE_STANDARD
  9
$CLAYER
  8
0
  9
$CELTYPE
  6
CONTINUOUS
  9
$CECOLOR
 62
   256
  9
$DIMSCALE
 40
1.0
  9
$DIMASZ
 40
2.5
  9
$DIMEXO
 40
1.5
  9
$DIMDLI
 40
3.75
  9
$DIMRND
 40
0.0
  9
$DIMDLE
 40
0.0
  9
$DIMEXE
 40
0.0
  9
$DIMTP
 40
0.0
  9
$DIMTM
 40
0.0
  9
$DIMTXT
 40
2.5
  9
$DIMCEN
 40
2.5
  9
$DIMTSZ
 40
0.0
  9
$DIMTOL
 70
     0
  9
$DIMLIM
 70
     0
  9
$DIMTIH
 70
     0
  9
$DIMTOH
 70
     0
  9
$DIMSE1
 70
     0
  9
$DIMSE2
 70
     0
  9
$DIMTAD
 70
     1
  9
$DIMZIN
 70
     8
  9
$DIMBLK
  1

  9
$DIMASO
 70
     1
  9
$DIMSHO
 70
     1
  9
$DIMPOST
  1

  9
$DIMAPOST
  1

  9
$DIMALT
 70
     0
  9
$DIMALTD
 70
     4
  9
$DIMALTF
 40
0.0394
  9
$DIMLFAC
 40
1.0
  9
$DIMTOFL
 70
     1
  9
$DIMTVP
 40
0.0
  9
$DIMTIX
 70
     0
  9
$DIMSOXD
 70
     0
  9
$DIMSAH
 70
     0
  9
$DIMBLK1
  1

  9
$DIMBLK2
  1

  9
$DIMSTYLE
  2
MXDIMSTYLE
  9
$DIMCLRD
 70
     0
  9
$DIMCLRE
 70
     0
  9
$DIMCLRT
 70
     0
  9
$DIMTFAC
 40
1.0
  9
$DIMGAP
 40
1.0
  9
$LUNITS
 70
     2
  9
$LUPREC
 70
     4
  9
$SKETCHINC
 40
0.1
  9
$FILLETRAD
 40
0.0
  9
$AUNITS
 70
     0
  9
$AUPREC
 70
     0
  9
$MENU
  1
acad
  9
$ELEVATION
 40
0.0
  9
$PELEVATION
 40
0.0
  9
$THICKNESS
 40
0.0
  9
$LIMCHECK
 70
     0
  9
$BLIPMODE
 70
     0
  9
$CHAMFERA
 40
0.0
  9
$CHAMFERB
 40
0.0
  9
$SKPOLY
 70
     0
  9
$TDCREATE
 40
2452006.37162
  9
$TDUPDATE
 40
2452137.86468
  9
$TDINDWG
 40
0.077996
  9
$TDUSRTIMER
 40
0.077995
  9
$USRTIMER
 70
     1
  9
$ANGBASE
 50
0.0
  9
$ANGDIR
 70
     0
  9
$PDMODE
 70
     3
  9
$PDSIZE
 40
-100.0
  9
$PLINEWID
 40
0.0
  9
$COORDS
 70
     0
  9
$SPLFRAME
 70
     0
  9
$SPLINETYPE
 70
     6
  9
$SPLINESEGS
 70
     8
  9
$ATTDIA
 70
     0
  9
$ATTREQ
 70
     1
  9
$HANDLING
 70
     1
  9
$HANDSEED
  5
19262
  9
$SURFTAB1
 70
     6
  9
$SURFTAB2
 70
     6
  9
$SURFTYPE
 70
     6
  9
$SURFU
 70
     6
  9
$SURFV
 70
     6
  9
$UCSNAME
  2

  9
$UCSORG
 10
0.0
 20
0.0
 30
0.0
  9
$UCSXDIR
 10
1.0
 20
0.0
 30
0.0
  9
$UCSYDIR
 10
0.0
 20
1.0
 30
0.0
  9
$PUCSNAME
  2

  9
$PUCSORG
 10
0.0
 20
0.0
 30
0.0
  9
$PUCSXDIR
 10
1.0
 20
0.0
 30
0.0
  9
$PUCSYDIR
 10
0.0
 20
1.0
 30
0.0
  9
$USERI1
 70
     0
  9
$USERI2
 70
     0
  9
$USERI3
 70
     0
  9
$USERI4
 70
     0
  9
$USERI5
 70
     0
  9
$USERR1
 40
0.0
  9
$USERR2
 40
0.0
  9
$USERR3
 40
0.0
  9
$USERR4
 40
0.0
  9
$USERR5
 40
0.0
  9
$WORLDVIEW
 70
     1
  9
$SHADEDGE
 70
     3
  9
$SHADEDIF
 70
    70
  9
$TILEMODE
 70
     1
  9
$MAXACTVP
 70
    16
  9
$PLIMCHECK
 70
     0
  9
$PEXTMIN
 10
1.000000E+020
 20
1.000000E+020
 30
1.000000E+020
  9
$PEXTMAX
 10
-1.000000E+020
 20
-1.000000E+020
 30
-1.000000E+020
  9
$PLIMMIN
 10
0.0
 20
0.0
  9
$PLIMMAX
 10
12.0
 20
9.0
  9
$UNITMODE
 70
     0
  9
$VISRETAIN
 70
     0
  9
$PLINEGEN
 70
     1
  9
$PSLTSCALE
 70
     0
  0
ENDSEC
  0
SECTION
  2
TABLES
  0
TABLE
  2
VPORT
 70
     2
  0
VPORT
  2
*ACTIVE
 70
     0
 10
0.0
 20
0.0
 11
1.0
 21
1.0
 12
210.002939
 22
148.492688
 13
0.0
 23
0.0
 14
1.0
 24
1.0
 15
0.0
 25
0.0
 16
0.0
 26
0.0
 36
1.0
 17
0.0
 27
0.0
 37
0.0
 40
290.242718
 41
1.867784
 42
50.0
 43
0.0
 44
0.0
 50
0.0
 51
0.0
 71
     0
 72
   100
 73
     1
 74
     0
 75
     0
 76
     0
 77
     0
 78
     0
  0
ENDTAB
  0
TABLE
  2
LTYPE
 70
     3
  0
LTYPE
  2
CONTINUOUS
 70
     0
  3
Solid line
 72
    65
 73
     0
 40
0.0
  0
LTYPE
  2
DASHED
 70
     0
  3
Dashed __ __ __ __ __ __ __ __ __ __ __ __ __ _
 72
    65
 73
     2
 40
19.05
 49
12.7
 49
-6.35
  0
LTYPE
  2
CENTER
 70
     0
  3
Center ____ _ ____ _ ____ _ ____ _ ____ _ ____
 72
    65
 73
     4
 40
50.8
 49
31.75
 49
-6.35
 49
6.35
 49
-6.35
  0
ENDTAB
  0
TABLE
  2
LAYER
 70
     4
  0
LAYER
  2
0
 70
     0
 62
     7
  6
CONTINUOUS
  0
LAYER
  2
SUNPO
 70
     0
 62
     1
  6
CONTINUOUS
  0
LAYER
  2
DANMEN
 70
     0
 62
     7
  6
CONTINUOUS
  0
LAYER
  2
WAKU
 70
     0
 62
     3
  6
CONTINUOUS
  0
ENDTAB
  0
TABLE
  2
STYLE
 70
     2
  0
STYLE
  2
STANDARD
 70
     0
 40
0.0
 41
1.0
 50
0.0
 71
     0
 42
0.2
  3
txt.shx
  4
extfont.shx
  0
STYLE
  2
MX_NOTE_STANDARD
 70
     0
 40
2.5
 41
1.0
 50
0.0
 71
     0
 42
2.5
  3
txt.shx
  4
extfont.shx
  0
ENDTAB
  0
TABLE
  2
VIEW
 70
     0
  0
ENDTAB
  0
TABLE
  2
UCS
 70
     0
  0
ENDTAB
  0
TABLE
  2
APPID
 70
     1
  0
APPID
  2
ACAD
 70
     0
  0
ENDTAB
  0
TABLE
  2
DIMSTYLE
 70
     1
  0
DIMSTYLE
  2
MXDIMSTYLE
 70
     0
  3

  4

  5

  6

  7

 40
1.0
 41
2.5
 42
1.5
 43
3.75
 44
0.0
 45
0.0
 46
0.0
 47
0.0
 48
0.0
140
2.5
141
2.5
142
0.0
143
0.0394
144
1.0
145
0.0
146
1.0
147
1.0
 71
     0
 72
     0
 73
     0
 74
     0
 75
     0
 76
     0
 77
     1
 78
     8
170
     0
171
     4
172
     1
173
     0
174
     0
175
     0
176
     0
177
     0
178
     0
  0
ENDTAB
  0
ENDSEC
  0
SECTION
  2
BLOCKS
  0
BLOCK
  8
0
  2
$MODEL_SPACE
 70
     0
 10
0.0
 20
0.0
 30
0.0
  3
$MODEL_SPACE
  1

  0
ENDBLK
  5
18D02
  8
0
  0
BLOCK
 67
     1
  8
0
  2
$PAPER_SPACE
 70
     0
 10
0.0
 20
0.0
 30
0.0
  3
$PAPER_SPACE
  1

  0
ENDBLK
  5
18D00
 67
     1
  8
0
  0
BLOCK
  8
0
  2
*U0
 70
     1
 10
0.0
 20
0.0
 30
0.0
  3
*U0
  1

  0
SOLID
  5
DA5C
  8
WAKU
  6
CONTINUOUS
 10
371.305142
 20
283.605291
 30
0.0
 11
370.499782
 21
283.530361
 31
0.0
 12
370.874987
 22
283.520449
 32
0.0
 13
370.874987
 23
283.520449
 33
0.0
  0
SOLID
  5
DA5D
  8
WAKU
  6
CONTINUOUS
 10
370.193309
 20
283.634664
 30
0.0
 11
370.499782
 21
283.530361
 31
0.0
 12
371.305142
 22
283.605291
 32
0.0
 13
371.305142
 23
283.605291
 33
0.0
  0
SOLID
  5
DA5E
  8
WAKU
  6
CONTINUOUS
 10
371.774448
 20
283.781773
 30
0.0
 11
370.193309
 21
283.634664
 31
0.0
 12
371.305142
 22
283.605291
 32
0.0
 13
371.305142
 23
283.605291
 33
0.0
  0
SOLID
  5
DA5F
  8
WAKU
  6
CONTINUOUS
 10
369.966824
 20
283.829526
 30
0.0
 11
370.193309
 21
283.634664
 31
0.0
 12
371.774448
 22
283.781773
 32
0.0
 13
371.774448
 23
283.781773
 33
0.0
  0
SOLID
  5
DA60
  8
WAKU
  6
CONTINUOUS
 10
370.594177
 20
283.909498
 30
0.0
 11
369.966824
 21
283.829526
 31
0.0
 12
371.774448
 22
283.781773
 32
0.0
 13
371.774448
 23
283.781773
 33
0.0
  0
SOLID
  5
DA61
  8
WAKU
  6
CONTINUOUS
 10
370.901294
 20
283.914863
 30
0.0
 11
370.594177
 21
283.909498
 31
0.0
 12
371.774448
 22
283.781773
 32
0.0
 13
371.774448
 23
283.781773
 33
0.0
  0
SOLID
  5
DA62
  8
WAKU
  6
CONTINUOUS
 10
370.392927
 20
283.968568
 30
0.0
 11
369.966824
 21
283.829526
 31
0.0
 12
370.594177
 22
283.909498
 32
0.0
 13
370.594177
 23
283.909498
 33
0.0
  0
SOLID
  5
DA63
  8
WAKU
  6
CONTINUOUS
 10
371.296984
 20
284.010368
 30
0.0
 11
370.901294
 21
283.914863
 31
0.0
 12
371.774448
 22
283.781773
 32
0.0
 13
371.774448
 23
283.781773
 33
0.0
  0
SOLID
  5
DA64
  8
WAKU
  6
CONTINUOUS
 10
372.265666
 20
284.043411
 30
0.0
 11
371.296984
 21
284.010368
 31
0.0
 12
371.774448
 22
283.781773
 32
0.0
 13
371.774448
 23
283.781773
 33
0.0
  0
SOLID
  5
DA65
  8
WAKU
  6
CONTINUOUS
 10
370.275177
 20
284.066476
 30
0.0
 11
369.966824
 21
283.829526
 31
0.0
 12
370.392927
 22
283.968568
 32
0.0
 13
370.392927
 23
283.968568
 33
0.0
  0
SOLID
  5
DA66
  8
WAKU
  6
CONTINUOUS
 10
369.828646
 20
284.107791
 30
0.0
 11
369.966824
 21
283.829526
 31
0.0
 12
370.275177
 22
284.066476
 32
0.0
 13
370.275177
 23
284.066476
 33
0.0
  0
SOLID
  5
DA67
  8
WAKU
  6
CONTINUOUS
 10
370.709458
 20
284.142397
 30
0.0
 11
369.828646
 21
284.107791
 31
0.0
 12
370.275177
 22
284.066476
 32
0.0
 13
370.275177
 23
284.066476
 33
0.0
  0
SOLID
  5
DA68
  8
WAKU
  6
CONTINUOUS
 10
371.751882
 20
284.202798
 30
0.0
 11
371.296984
 21
284.010368
 31
0.0
 12
372.265666
 22
284.043411
 32
0.0
 13
372.265666
 23
284.043411
 33
0.0
  0
SOLID
  5
DA69
  8
WAKU
  6
CONTINUOUS
 10
369.550381
 20
284.245969
 30
0.0
 11
369.828646
 21
284.107791
 31
0.0
 12
370.709458
 22
284.142397
 32
0.0
 13
370.709458
 23
284.142397
 33
0.0
  0
SOLID
  5
DA6A
  8
WAKU
  6
CONTINUOUS
 10
371.186428
 20
284.314625
 30
0.0
 11
369.550381
 21
284.245969
 31
0.0
 12
370.709458
 22
284.142397
 32
0.0
 13
370.709458
 23
284.142397
 33
0.0
  0
SOLID
  5
DA6B
  8
WAKU
  6
CONTINUOUS
 10
372.760756
 20
284.380595
 30
0.0
 11
371.751882
 21
284.202798
 31
0.0
 12
372.265666
 22
284.043411
 32
0.0
 13
372.265666
 23
284.043411
 33
0.0
  0
SOLID
  5
DA6C
  8
WAKU
  6
CONTINUOUS
 10
370.172911
 20
284.451856
 30
0.0
 11
369.550381
 21
284.245969
 31
0.0
 12
371.186428
 22
284.314625
 32
0.0
 13
371.186428
 23
284.314625
 33
0.0
  0
SOLID
  5
DA6D
  8
WAKU
  6
CONTINUOUS
 10
369.355518
 20
284.472454
 30
0.0
 11
369.550381
 21
284.245969
 31
0.0
 12
370.172911
 22
284.451856
 32
0.0
 13
370.172911
 23
284.451856
 33
0.0
  0
SOLID
  5
DA6E
  8
WAKU
  6
CONTINUOUS
 10
372.237497
 20
284.486117
 30
0.0
 11
371.751882
 21
284.202798
 31
0.0
 12
372.760756
 22
284.380595
 32
0.0
 13
372.760756
 23
284.380595
 33
0.0
  0
SOLID
  5
DA6F
  8
WAKU
  6
CONTINUOUS
 10
370.681395
 20
284.539195
 30
0.0
 11
370.172911
 21
284.451856
 31
0.0
 12
371.186428
 22
284.314625
 32
0.0
 13
371.186428
 23
284.314625
 33
0.0
  0
SOLID
  5
DA70
  8
WAKU
  6
CONTINUOUS
 10
369.787305
 20
284.553935
 30
0.0
 11
369.355518
 21
284.472454
 31
0.0
 12
370.172911
 22
284.451856
 32
0.0
 13
370.172911
 23
284.451856
 33
0.0
  0
SOLID
  5
DA71
  8
WAKU
  6
CONTINUOUS
 10
371.68777
 20
284.576545
 30
0.0
 11
370.681395
 21
284.539195
 31
0.0
 12
371.186428
 22
284.314625
 32
0.0
 13
371.186428
 23
284.314625
 33
0.0
  0
SOLID
  5
DA72
  8
WAKU
  6
CONTINUOUS
 10
369.689155
 20
284.672435
 30
0.0
 11
369.355518
 21
284.472454
 31
0.0
 12
369.787305
 22
284.553935
 32
0.0
 13
369.787305
 23
284.553935
 33
0.0
  0
SOLID
  5
DA73
  8
WAKU
  6
CONTINUOUS
 10
369.251215
 20
284.778928
 30
0.0
 11
369.355518
 21
284.472454
 31
0.0
 12
369.689155
 22
284.672435
 32
0.0
 13
369.689155
 23
284.672435
 33
0.0
  0
SOLID
  5
DA74
  8
WAKU
  6
CONTINUOUS
 10
373.241532
 20
284.780941
 30
0.0
 11
372.237497
 21
284.486117
 31
0.0
 12
372.760756
 22
284.380595
 32
0.0
 13
372.760756
 23
284.380595
 33
0.0
  0
SOLID
  5
DA75
  8
WAKU
  6
CONTINUOUS
 10
371.312263
 20
284.810332
 30
0.0
 11
370.681395
 21
284.539195
 31
0.0
 12
371.68777
 22
284.576545
 32
0.0
 13
371.68777
 23
284.576545
 33
0.0
  0
SOLID
  5
DA76
  8
WAKU
  6
CONTINUOUS
 10
369.630358
 20
284.873087
 30
0.0
 11
369.251215
 21
284.778928
 31
0.0
 12
369.689155
 22
284.672435
 32
0.0
 13
369.689155
 23
284.672435
 33
0.0
  0
SOLID
  5
DA77
  8
WAKU
  6
CONTINUOUS
 10
372.194232
 20
284.918099
 30
0.0
 11
371.312263
 21
284.810332
 31
0.0
 12
371.68777
 22
284.576545
 32
0.0
 13
371.68777
 23
284.576545
 33
0.0
  0
SOLID
  5
DA78
  8
WAKU
  6
CONTINUOUS
 10
370.260168
 20
284.959969
 30
0.0
 11
369.787305
 21
284.553935
 31
0.0
 12
370.172911
 22
284.451856
 32
0.0
 13
370.172911
 23
284.451856
 33
0.0
  0
SOLID
  5
DA79
  8
WAKU
  6
CONTINUOUS
 10
369.863139
 20
284.988189
 30
0.0
 11
369.787305
 21
284.553935
 31
0.0
 12
370.260168
 22
284.959969
 32
0.0
 13
370.260168
 23
284.959969
 33
0.0
  0
SOLID
  5
DA7A
  8
WAKU
  6
CONTINUOUS
 10
398.194006
 20
285.115385
 30
0.0
 11
397.606055
 21
283.5
 31
0.0
 12
401.913747
 22
283.5
 32
0.0
 13
401.913747
 23
283.5
 33
0.0
  0
SOLID
  5
DA7B
  8
WAKU
  6
CONTINUOUS
 10
401.913747
 20
283.5
 30
0.0
 11
401.424776
 21
285.115385
 31
0.0
 12
398.194006
 22
285.115385
 32
0.0
 13
398.194006
 23
285.115385
 33
0.0
  0
SOLID
  5
DA7C
  8
WAKU
  6
CONTINUOUS
 10
369.241303
 20
285.154132
 30
0.0
 11
369.251215
 21
284.778928
 31
0.0
 12
369.630358
 22
284.873087
 32
0.0
 13
369.630358
 23
284.873087
 33
0.0
  0
SOLID
  5
DA7D
  8
WAKU
  6
CONTINUOUS
 10
369.635696
 20
285.180404
 30
0.0
 11
369.241303
 21
285.154132
 31
0.0
 12
369.630358
 22
284.873087
 32
0.0
 13
369.630358
 23
284.873087
 33
0.0
  0
SOLID
  5
DA7E
  8
WAKU
  6
CONTINUOUS
 10
373.690335
 20
285.229744
 30
0.0
 11
372.237497
 21
284.486117
 31
0.0
 12
373.241532
 22
284.780941
 32
0.0
 13
373.241532
 23
284.780941
 33
0.0
  0
SOLID
  5
DA7F
  8
WAKU
  6
CONTINUOUS
 10
371.98994
 20
285.251431
 30
0.0
 11
371.312263
 21
284.810332
 31
0.0
 12
372.194232
 22
284.918099
 32
0.0
 13
372.194232
 23
284.918099
 33
0.0
  0
SOLID
  5
DA80
  8
WAKU
  6
CONTINUOUS
 10
373.195965
 20
285.275232
 30
0.0
 11
372.237497
 21
284.486117
 31
0.0
 12
373.690335
 22
285.229744
 32
0.0
 13
373.690335
 23
285.229744
 33
0.0
  0
SOLID
  5
DA81
  8
WAKU
  6
CONTINUOUS
 10
372.686363
 20
285.326171
 30
0.0
 11
371.98994
 21
285.251431
 31
0.0
 12
372.194232
 22
284.918099
 32
0.0
 13
372.194232
 23
284.918099
 33
0.0
  0
SOLID
  5
DA82
  8
WAKU
  6
CONTINUOUS
 10
370.035293
 20
285.465154
 30
0.0
 11
369.863139
 21
284.988189
 31
0.0
 12
370.260168
 22
284.959969
 32
0.0
 13
370.260168
 23
284.959969
 33
0.0
  0
SOLID
  5
DA83
  8
WAKU
  6
CONTINUOUS
 10
369.73149
 20
285.576021
 30
0.0
 11
369.241303
 21
285.154132
 31
0.0
 12
369.635696
 22
285.180404
 32
0.0
 13
369.635696
 23
285.180404
 33
0.0
  0
SOLID
  5
DA84
  8
WAKU
  6
CONTINUOUS
 10
369.326146
 20
285.584287
 30
0.0
 11
369.241303
 21
285.154132
 31
0.0
 12
369.73149
 22
285.576021
 32
0.0
 13
369.73149
 23
285.576021
 33
0.0
  0
SOLID
  5
DA85
  8
WAKU
  6
CONTINUOUS
 10
370.530712
 20
285.590875
 30
0.0
 11
370.035293
 21
285.465154
 31
0.0
 12
370.260168
 22
284.959969
 32
0.0
 13
370.260168
 23
284.959969
 33
0.0
  0
SOLID
  5
DA86
  8
WAKU
  6
CONTINUOUS
 10
389.236144
 20
285.653846
 30
0.0
 11
383.067593
 21
283.5
 31
0.0
 12
388.452208
 22
283.5
 32
0.0
 13
388.452208
 23
283.5
 33
0.0
  0
SOLID
  5
DA87
  8
WAKU
  6
CONTINUOUS
 10
383.851529
 20
285.653846
 30
0.0
 11
383.067593
 21
283.5
 31
0.0
 12
389.236144
 22
285.653846
 32
0.0
 13
389.236144
 23
285.653846
 33
0.0
  0
SOLID
  5
DA88
  8
WAKU
  6
CONTINUOUS
 10
404.851529
 20
285.653846
 30
0.0
 11
404.067593
 21
283.5
 31
0.0
 12
409.452208
 22
283.5
 32
0.0
 13
409.452208
 23
283.5
 33
0.0
  0
SOLID
  5
DA89
  8
WAKU
  6
CONTINUOUS
 10
409.452208
 20
283.5
 30
0.0
 11
409.159221
 21
285.653846
 31
0.0
 12
404.851529
 22
285.653846
 32
0.0
 13
404.851529
 23
285.653846
 33
0.0
  0
SOLID
  5
DA8A
  8
WAKU
  6
CONTINUOUS
 10
391.174606
 20
285.653846
 30
0.0
 11
390.39067
 21
283.5
 31
0.0
 12
395.452208
 22
283.5
 32
0.0
 13
395.452208
 23
283.5
 33
0.0
  0
SOLID
  5
DA8B
  8
WAKU
  6
CONTINUOUS
 10
395.452208
 20
283.5
 30
0.0
 11
395.159221
 21
285.653846
 31
0.0
 12
391.174606
 22
285.653846
 32
0.0
 13
391.174606
 23
285.653846
 33
0.0
  0
SOLID
  5
DA8C
  8
WAKU
  6
CONTINUOUS
 10
374.090681
 20
285.71052
 30
0.0
 11
373.195965
 21
285.275232
 31
0.0
 12
373.690335
 22
285.229744
 32
0.0
 13
373.690335
 23
285.229744
 33
0.0
  0
SOLID
  5
DA8D
  8
WAKU
  6
CONTINUOUS
 10
373.145266
 20
285.785089
 30
0.0
 11
371.98994
 21
285.251431
 31
0.0
 12
372.686363
 22
285.326171
 32
0.0
 13
372.686363
 23
285.326171
 33
0.0
  0
SOLID
  5
DA8E
  8
WAKU
  6
CONTINUOUS
 10
372.646296
 20
285.825506
 30
0.0
 11
371.98994
 21
285.251431
 31
0.0
 12
373.145266
 22
285.785089
 32
0.0
 13
373.145266
 23
285.785089
 33
0.0
  0
SOLID
  5
DA8F
  8
WAKU
  6
CONTINUOUS
 10
370.297156
 20
285.966509
 30
0.0
 11
370.035293
 21
285.465154
 31
0.0
 12
370.530712
 22
285.590875
 32
0.0
 13
370.530712
 23
285.590875
 33
0.0
  0
SOLID
  5
DA90
  8
WAKU
  6
CONTINUOUS
 10
369.923519
 20
286.031028
 30
0.0
 11
369.326146
 21
285.584287
 31
0.0
 12
369.73149
 22
285.576021
 32
0.0
 13
369.73149
 23
285.576021
 33
0.0
  0
SOLID
  5
DA91
  8
WAKU
  6
CONTINUOUS
 10
369.502627
 20
286.053593
 30
0.0
 11
369.326146
 21
285.584287
 31
0.0
 12
369.923519
 22
286.031028
 32
0.0
 13
369.923519
 23
286.031028
 33
0.0
  0
SOLID
  5
DA92
  8
WAKU
  6
CONTINUOUS
 10
379.397145
 20
286.138462
 30
0.0
 11
378.436824
 21
283.5
 31
0.0
 12
379.513747
 22
283.5
 32
0.0
 13
379.513747
 23
283.5
 33
0.0
  0
SOLID
  5
DA93
  8
WAKU
  6
CONTINUOUS
 10
377.155205
 20
286.192308
 30
0.0
 11
376.175285
 21
283.5
 31
0.0
 12
379.397145
 22
286.138462
 32
0.0
 13
379.397145
 23
286.138462
 33
0.0
  0
SOLID
  5
DA94
  8
WAKU
  6
CONTINUOUS
 10
380.493667
 20
286.192308
 30
0.0
 11
377.155205
 21
286.192308
 31
0.0
 12
379.397145
 22
286.138462
 32
0.0
 13
379.397145
 23
286.138462
 33
0.0
  0
SOLID
  5
DA95
  8
WAKU
  6
CONTINUOUS
 10
380.493667
 20
286.192308
 30
0.0
 11
379.397145
 21
286.138462
 31
0.0
 12
379.513747
 22
283.5
 32
0.0
 13
379.513747
 23
283.5
 33
0.0
  0
SOLID
  5
DA96
  8
WAKU
  6
CONTINUOUS
 10
380.493667
 20
286.192308
 30
0.0
 11
381.775285
 21
283.5
 31
0.0
 12
382.755205
 22
286.192308
 32
0.0
 13
382.755205
 23
286.192308
 33
0.0
  0
SOLID
  5
DA97
  8
WAKU
  6
CONTINUOUS
 10
374.427865
 20
286.205609
 30
0.0
 11
373.195965
 21
285.275232
 31
0.0
 12
374.090681
 22
285.71052
 32
0.0
 13
374.090681
 23
285.71052
 33
0.0
  0
SOLID
  5
DA98
  8
WAKU
  6
CONTINUOUS
 10
373.98505
 20
286.233718
 30
0.0
 11
373.195965
 21
285.275232
 31
0.0
 12
374.427865
 22
286.205609
 32
0.0
 13
374.427865
 23
286.205609
 33
0.0
  0
SOLID
  5
DA99
  8
WAKU
  6
CONTINUOUS
 10
370.971896
 20
286.268471
 30
0.0
 11
370.297156
 21
285.966509
 31
0.0
 12
370.530712
 22
285.590875
 32
0.0
 13
370.530712
 23
285.590875
 33
0.0
  0
SOLID
  5
DA9A
  8
WAKU
  6
CONTINUOUS
 10
373.553316
 20
286.277229
 30
0.0
 11
372.646296
 21
285.825506
 31
0.0
 12
373.145266
 22
285.785089
 32
0.0
 13
373.145266
 23
285.785089
 33
0.0
  0
SOLID
  5
DA9B
  8
WAKU
  6
CONTINUOUS
 10
370.638671
 20
286.473
 30
0.0
 11
370.297156
 21
285.966509
 31
0.0
 12
370.971896
 22
286.268471
 32
0.0
 13
370.971896
 23
286.268471
 33
0.0
  0
SOLID
  5
DA9C
  8
WAKU
  6
CONTINUOUS
 10
373.220238
 20
286.48192
 30
0.0
 11
372.646296
 21
285.825506
 31
0.0
 12
373.553316
 22
286.277229
 32
0.0
 13
373.553316
 23
286.277229
 33
0.0
  0
SOLID
  5
DA9D
  8
WAKU
  6
CONTINUOUS
 10
370.207035
 20
286.51657
 30
0.0
 11
369.502627
 21
286.053593
 31
0.0
 12
369.923519
 22
286.031028
 32
0.0
 13
369.923519
 23
286.031028
 33
0.0
  0
SOLID
  5
DA9E
  8
WAKU
  6
CONTINUOUS
 10
369.764265
 20
286.544812
 30
0.0
 11
369.502627
 21
286.053593
 31
0.0
 12
370.207035
 22
286.51657
 32
0.0
 13
370.207035
 23
286.51657
 33
0.0
  0
SOLID
  5
DA9F
  8
WAKU
  6
CONTINUOUS
 10
374.689503
 20
286.696828
 30
0.0
 11
373.98505
 21
286.233718
 31
0.0
 12
374.427865
 22
286.205609
 32
0.0
 13
374.427865
 23
286.205609
 33
0.0
  0
SOLID
  5
DAA0
  8
WAKU
  6
CONTINUOUS
 10
374.268507
 20
286.719278
 30
0.0
 11
373.98505
 21
286.233718
 31
0.0
 12
374.689503
 22
286.696828
 32
0.0
 13
374.689503
 23
286.696828
 33
0.0
  0
SOLID
  5
DAA1
  8
WAKU
  6
CONTINUOUS
 10
373.894843
 20
286.783693
 30
0.0
 11
373.220238
 21
286.48192
 31
0.0
 12
373.553316
 22
286.277229
 32
0.0
 13
373.553316
 23
286.277229
 33
0.0
  0
SOLID
  5
DAA2
  8
WAKU
  6
CONTINUOUS
 10
371.545827
 20
286.924893
 30
0.0
 11
370.638671
 21
286.473
 31
0.0
 12
370.971896
 22
286.268471
 32
0.0
 13
370.971896
 23
286.268471
 33
0.0
  0
SOLID
  5
DAA3
  8
WAKU
  6
CONTINUOUS
 10
371.04672
 20
286.965174
 30
0.0
 11
370.638671
 21
286.473
 31
0.0
 12
371.545827
 22
286.924893
 32
0.0
 13
371.545827
 23
286.924893
 33
0.0
  0
SOLID
  5
DAA4
  8
WAKU
  6
CONTINUOUS
 10
370.101449
 20
287.039901
 30
0.0
 11
369.764265
 21
286.544812
 31
0.0
 12
370.207035
 22
286.51657
 32
0.0
 13
370.207035
 23
286.51657
 33
0.0
  0
SOLID
  5
DAA5
  8
WAKU
  6
CONTINUOUS
 10
373.661353
 20
287.159534
 30
0.0
 11
373.220238
 21
286.48192
 31
0.0
 12
373.894843
 22
286.783693
 32
0.0
 13
373.894843
 23
286.783693
 33
0.0
  0
SOLID
  5
DAA6
  8
WAKU
  6
CONTINUOUS
 10
374.865984
 20
287.166134
 30
0.0
 11
374.268507
 21
286.719278
 31
0.0
 12
374.689503
 22
286.696828
 32
0.0
 13
374.689503
 23
286.696828
 33
0.0
  0
SOLID
  5
DAA7
  8
WAKU
  6
CONTINUOUS
 10
374.46071
 20
287.174248
 30
0.0
 11
374.268507
 21
286.719278
 31
0.0
 12
374.865984
 22
287.166134
 32
0.0
 13
374.865984
 23
287.166134
 33
0.0
  0
SOLID
  5
DAA8
  8
WAKU
  6
CONTINUOUS
 10
374.156732
 20
287.28503
 30
0.0
 11
373.661353
 21
287.159534
 31
0.0
 12
373.894843
 22
286.783693
 32
0.0
 13
373.894843
 23
286.783693
 33
0.0
  0
SOLID
  5
DAA9
  8
WAKU
  6
CONTINUOUS
 10
371.505632
 20
287.424128
 30
0.0
 11
371.04672
 21
286.965174
 31
0.0
 12
371.545827
 22
286.924893
 32
0.0
 13
371.545827
 23
286.924893
 33
0.0
  0
SOLID
  5
DAAA
  8
WAKU
  6
CONTINUOUS
 10
370.996098
 20
287.475108
 30
0.0
 11
370.101449
 21
287.039901
 31
0.0
 12
370.207035
 22
286.51657
 32
0.0
 13
370.207035
 23
286.51657
 33
0.0
  0
SOLID
  5
DAAB
  8
WAKU
  6
CONTINUOUS
 10
372.202181
 20
287.498991
 30
0.0
 11
371.505632
 21
287.424128
 31
0.0
 12
371.545827
 22
286.924893
 32
0.0
 13
371.545827
 23
286.924893
 33
0.0
  0
SOLID
  5
DAAC
  8
WAKU
  6
CONTINUOUS
 10
370.501795
 20
287.520677
 30
0.0
 11
370.101449
 21
287.039901
 31
0.0
 12
370.996098
 22
287.475108
 32
0.0
 13
370.996098
 23
287.475108
 33
0.0
  0
SOLID
  5
DAAD
  8
WAKU
  6
CONTINUOUS
 10
374.556361
 20
287.569864
 30
0.0
 11
374.46071
 21
287.174248
 31
0.0
 12
374.865984
 22
287.166134
 32
0.0
 13
374.865984
 23
287.166134
 33
0.0
  0
SOLID
  5
DAAE
  8
WAKU
  6
CONTINUOUS
 10
395.864763
 20
287.592308
 30
0.0
 11
395.159221
 21
285.653846
 31
0.0
 12
395.452208
 22
283.5
 32
0.0
 13
395.452208
 23
283.5
 33
0.0
  0
SOLID
  5
DAAF
  8
WAKU
  6
CONTINUOUS
 10
393.172456
 20
287.592308
 30
0.0
 11
391.703565
 21
286.515385
 31
0.0
 12
392.780488
 22
286.515385
 32
0.0
 13
392.780488
 23
286.515385
 33
0.0
  0
SOLID
  5
DAB0
  8
WAKU
  6
CONTINUOUS
 10
392.095533
 20
287.592308
 30
0.0
 11
391.703565
 21
286.515385
 31
0.0
 12
393.172456
 22
287.592308
 32
0.0
 13
393.172456
 23
287.592308
 33
0.0
  0
SOLID
  5
DAB1
  8
WAKU
  6
CONTINUOUS
 10
391.28784
 20
287.592308
 30
0.0
 11
392.095533
 21
287.592308
 31
0.0
 12
393.172456
 22
287.592308
 32
0.0
 13
393.172456
 23
287.592308
 33
0.0
  0
SOLID
  5
DAB2
  8
WAKU
  6
CONTINUOUS
 10
391.28784
 20
287.592308
 30
0.0
 11
393.172456
 21
287.592308
 31
0.0
 12
395.864763
 22
287.592308
 32
0.0
 13
395.864763
 23
287.592308
 33
0.0
  0
SOLID
  5
DAB3
  8
WAKU
  6
CONTINUOUS
 10
396.941687
 20
287.592308
 30
0.0
 11
391.28784
 21
287.592308
 31
0.0
 12
395.864763
 22
287.592308
 32
0.0
 13
395.864763
 23
287.592308
 33
0.0
  0
SOLID
  5
DAB4
  8
WAKU
  6
CONTINUOUS
 10
396.941687
 20
287.592308
 30
0.0
 11
395.864763
 21
287.592308
 31
0.0
 12
395.452208
 22
283.5
 32
0.0
 13
395.452208
 23
283.5
 33
0.0
  0
SOLID
  5
DAB5
  8
WAKU
  6
CONTINUOUS
 10
374.950827
 20
287.596289
 30
0.0
 11
374.556361
 21
287.569864
 31
0.0
 12
374.865984
 22
287.166134
 32
0.0
 13
374.865984
 23
287.166134
 33
0.0
  0
SOLID
  5
DAB6
  8
WAKU
  6
CONTINUOUS
 10
374.328925
 20
287.761987
 30
0.0
 11
373.661353
 21
287.159534
 31
0.0
 12
374.156732
 22
287.28503
 32
0.0
 13
374.156732
 23
287.28503
 33
0.0
  0
SOLID
  5
DAB7
  8
WAKU
  6
CONTINUOUS
 10
373.932071
 20
287.790402
 30
0.0
 11
373.661353
 21
287.159534
 31
0.0
 12
374.328925
 22
287.761987
 32
0.0
 13
374.328925
 23
287.761987
 33
0.0
  0
SOLID
  5
DAB8
  8
WAKU
  6
CONTINUOUS
 10
371.997783
 20
287.832235
 30
0.0
 11
371.505632
 21
287.424128
 31
0.0
 12
372.202181
 22
287.498991
 32
0.0
 13
372.202181
 23
287.498991
 33
0.0
  0
SOLID
  5
DAB9
  8
WAKU
  6
CONTINUOUS
 10
374.561802
 20
287.877253
 30
0.0
 11
374.556361
 21
287.569864
 31
0.0
 12
374.950827
 22
287.596289
 32
0.0
 13
374.950827
 23
287.596289
 33
0.0
  0
SOLID
  5
DABA
  8
WAKU
  6
CONTINUOUS
 10
372.879878
 20
287.940057
 30
0.0
 11
371.997783
 21
287.832235
 31
0.0
 12
372.202181
 22
287.498991
 32
0.0
 13
372.202181
 23
287.498991
 33
0.0
  0
SOLID
  5
DABB
  8
WAKU
  6
CONTINUOUS
 10
370.950599
 20
287.96948
 30
0.0
 11
370.501795
 21
287.520677
 31
0.0
 12
370.996098
 22
287.475108
 32
0.0
 13
370.996098
 23
287.475108
 33
0.0
  0
SOLID
  5
DABC
  8
WAKU
  6
CONTINUOUS
 10
374.940915
 20
287.971493
 30
0.0
 11
374.561802
 21
287.877253
 31
0.0
 12
374.950827
 22
287.596289
 32
0.0
 13
374.950827
 23
287.596289
 33
0.0
  0
SOLID
  5
DABD
  8
WAKU
  6
CONTINUOUS
 10
374.502951
 20
288.077918
 30
0.0
 11
374.561802
 21
287.877253
 31
0.0
 12
374.940915
 22
287.971493
 32
0.0
 13
374.940915
 23
287.971493
 33
0.0
  0
SOLID
  5
DABE
  8
WAKU
  6
CONTINUOUS
 10
405.753055
 20
288.130769
 30
0.0
 11
405.282694
 21
286.838462
 31
0.0
 12
408.513463
 22
286.838462
 32
0.0
 13
408.513463
 23
286.838462
 33
0.0
  0
SOLID
  5
DABF
  8
WAKU
  6
CONTINUOUS
 10
408.983824
 20
288.130769
 30
0.0
 11
405.753055
 21
288.130769
 31
0.0
 12
408.513463
 22
286.838462
 32
0.0
 13
408.513463
 23
286.838462
 33
0.0
  0
SOLID
  5
DAC0
  8
WAKU
  6
CONTINUOUS
 10
372.504269
 20
288.173821
 30
0.0
 11
371.997783
 21
287.832235
 31
0.0
 12
372.879878
 22
287.940057
 32
0.0
 13
372.879878
 23
287.940057
 33
0.0
  0
SOLID
  5
DAC1
  8
WAKU
  6
CONTINUOUS
 10
374.40481
 20
288.196249
 30
0.0
 11
373.932071
 21
287.790402
 31
0.0
 12
374.328925
 22
287.761987
 32
0.0
 13
374.328925
 23
287.761987
 33
0.0
  0
SOLID
  5
DAC2
  8
WAKU
  6
CONTINUOUS
 10
374.40481
 20
288.196249
 30
0.0
 11
374.502951
 21
288.077918
 31
0.0
 12
374.940915
 22
287.971493
 32
0.0
 13
374.940915
 23
287.971493
 33
0.0
  0
SOLID
  5
DAC3
  8
WAKU
  6
CONTINUOUS
 10
373.510738
 20
288.21124
 30
0.0
 11
372.504269
 21
288.173821
 31
0.0
 12
372.879878
 22
287.940057
 32
0.0
 13
372.879878
 23
287.940057
 33
0.0
  0
SOLID
  5
DAC4
  8
WAKU
  6
CONTINUOUS
 10
371.954587
 20
288.264284
 30
0.0
 11
370.950599
 21
287.96948
 31
0.0
 12
370.996098
 22
287.475108
 32
0.0
 13
370.996098
 23
287.475108
 33
0.0
  0
SOLID
  5
DAC5
  8
WAKU
  6
CONTINUOUS
 10
374.836612
 20
288.277967
 30
0.0
 11
374.40481
 21
288.196249
 31
0.0
 12
374.940915
 22
287.971493
 32
0.0
 13
374.940915
 23
287.971493
 33
0.0
  0
SOLID
  5
DAC6
  8
WAKU
  6
CONTINUOUS
 10
374.019229
 20
288.298569
 30
0.0
 11
372.504269
 21
288.173821
 31
0.0
 12
373.510738
 22
288.21124
 32
0.0
 13
373.510738
 23
288.21124
 33
0.0
  0
SOLID
  5
DAC7
  8
WAKU
  6
CONTINUOUS
 10
374.019229
 20
288.298569
 30
0.0
 11
374.40481
 21
288.196249
 31
0.0
 12
374.836612
 22
288.277967
 32
0.0
 13
374.836612
 23
288.277967
 33
0.0
  0
SOLID
  5
DAC8
  8
WAKU
  6
CONTINUOUS
 10
374.019229
 20
288.298569
 30
0.0
 11
373.932071
 21
287.790402
 31
0.0
 12
374.40481
 22
288.196249
 32
0.0
 13
374.40481
 23
288.196249
 33
0.0
  0
SOLID
  5
DAC9
  8
WAKU
  6
CONTINUOUS
 10
371.431374
 20
288.369826
 30
0.0
 11
370.950599
 21
287.96948
 31
0.0
 12
371.954587
 22
288.264284
 32
0.0
 13
371.954587
 23
288.264284
 33
0.0
  0
SOLID
  5
DACA
  8
WAKU
  6
CONTINUOUS
 10
373.005639
 20
288.435768
 30
0.0
 11
372.504269
 21
288.173821
 31
0.0
 12
374.019229
 22
288.298569
 32
0.0
 13
374.019229
 23
288.298569
 33
0.0
  0
SOLID
  5
DACB
  8
WAKU
  6
CONTINUOUS
 10
374.641749
 20
288.504452
 30
0.0
 11
373.005639
 21
288.435768
 31
0.0
 12
374.019229
 22
288.298569
 32
0.0
 13
374.019229
 23
288.298569
 33
0.0
  0
SOLID
  5
DACC
  8
WAKU
  6
CONTINUOUS
 10
374.641749
 20
288.504452
 30
0.0
 11
374.019229
 21
288.298569
 31
0.0
 12
374.836612
 22
288.277967
 32
0.0
 13
374.836612
 23
288.277967
 33
0.0
  0
SOLID
  5
DACD
  8
WAKU
  6
CONTINUOUS
 10
372.440235
 20
288.547585
 30
0.0
 11
371.431374
 21
288.369826
 31
0.0
 12
371.954587
 22
288.264284
 32
0.0
 13
371.954587
 23
288.264284
 33
0.0
  0
SOLID
  5
DACE
  8
WAKU
  6
CONTINUOUS
 10
373.482636
 20
288.608014
 30
0.0
 11
373.005639
 21
288.435768
 31
0.0
 12
374.641749
 22
288.504452
 32
0.0
 13
374.641749
 23
288.504452
 33
0.0
  0
SOLID
  5
DACF
  8
WAKU
  6
CONTINUOUS
 10
374.363484
 20
288.64263
 30
0.0
 11
373.482636
 21
288.608014
 31
0.0
 12
374.641749
 22
288.504452
 32
0.0
 13
374.641749
 23
288.504452
 33
0.0
  0
SOLID
  5
DAD0
  8
WAKU
  6
CONTINUOUS
 10
373.916941
 20
288.683944
 30
0.0
 11
373.482636
 21
288.608014
 31
0.0
 12
374.363484
 22
288.64263
 32
0.0
 13
374.363484
 23
288.64263
 33
0.0
  0
SOLID
  5
DAD1
  8
WAKU
  6
CONTINUOUS
 10
371.926464
 20
288.70701
 30
0.0
 11
371.431374
 21
288.369826
 31
0.0
 12
372.440235
 22
288.547585
 32
0.0
 13
372.440235
 23
288.547585
 33
0.0
  0
SOLID
  5
DAD2
  8
WAKU
  6
CONTINUOUS
 10
372.89514
 20
288.740065
 30
0.0
 11
371.926464
 21
288.70701
 31
0.0
 12
372.440235
 22
288.547585
 32
0.0
 13
372.440235
 23
288.547585
 33
0.0
  0
SOLID
  5
DAD3
  8
WAKU
  6
CONTINUOUS
 10
380.311313
 20
288.776923
 30
0.0
 11
377.155205
 21
286.192308
 31
0.0
 12
380.493667
 22
286.192308
 32
0.0
 13
380.493667
 23
286.192308
 33
0.0
  0
SOLID
  5
DAD4
  8
WAKU
  6
CONTINUOUS
 10
381.524851
 20
288.776923
 30
0.0
 11
378.095928
 21
288.776923
 31
0.0
 12
380.311313
 22
288.776923
 32
0.0
 13
380.311313
 23
288.776923
 33
0.0
  0
SOLID
  5
DAD5
  8
WAKU
  6
CONTINUOUS
 10
381.524851
 20
288.776923
 30
0.0
 11
380.311313
 21
288.776923
 31
0.0
 12
380.493667
 22
286.192308
 32
0.0
 13
380.493667
 23
286.192308
 33
0.0
  0
SOLID
  5
DAD6
  8
WAKU
  6
CONTINUOUS
 10
381.524851
 20
288.776923
 30
0.0
 11
380.493667
 21
286.192308
 31
0.0
 12
382.755205
 22
286.192308
 32
0.0
 13
382.755205
 23
286.192308
 33
0.0
  0
SOLID
  5
DAD7
  8
WAKU
  6
CONTINUOUS
 10
373.799148
 20
288.781929
 30
0.0
 11
373.916941
 21
288.683944
 31
0.0
 12
374.363484
 22
288.64263
 32
0.0
 13
374.363484
 23
288.64263
 33
0.0
  0
SOLID
  5
DAD8
  8
WAKU
  6
CONTINUOUS
 10
373.290857
 20
288.835581
 30
0.0
 11
371.926464
 21
288.70701
 31
0.0
 12
372.89514
 22
288.740065
 32
0.0
 13
372.89514
 23
288.740065
 33
0.0
  0
SOLID
  5
DAD9
  8
WAKU
  6
CONTINUOUS
 10
373.597996
 20
288.840902
 30
0.0
 11
373.799148
 21
288.781929
 31
0.0
 12
374.363484
 22
288.64263
 32
0.0
 13
374.363484
 23
288.64263
 33
0.0
  0
SOLID
  5
DADA
  8
WAKU
  6
CONTINUOUS
 10
402.042817
 20
288.884615
 30
0.0
 11
400.181958
 21
286.730769
 31
0.0
 12
401.258881
 22
286.730769
 32
0.0
 13
401.258881
 23
286.730769
 33
0.0
  0
SOLID
  5
DADB
  8
WAKU
  6
CONTINUOUS
 10
402.796663
 20
288.884615
 30
0.0
 11
401.424776
 21
285.115385
 31
0.0
 12
401.913747
 22
283.5
 32
0.0
 13
401.913747
 23
283.5
 33
0.0
  0
SOLID
  5
DADC
  8
WAKU
  6
CONTINUOUS
 10
403.873587
 20
288.884615
 30
0.0
 11
402.796663
 21
288.884615
 31
0.0
 12
401.913747
 22
283.5
 32
0.0
 13
401.913747
 23
283.5
 33
0.0
  0
SOLID
  5
DADD
  8
WAKU
  6
CONTINUOUS
 10
400.965894
 20
288.884615
 30
0.0
 11
400.181958
 21
286.730769
 31
0.0
 12
402.042817
 22
288.884615
 32
0.0
 13
402.042817
 23
288.884615
 33
0.0
  0
SOLID
  5
DADE
  8
WAKU
  6
CONTINUOUS
 10
399.858881
 20
286.730769
 30
0.0
 11
400.642817
 21
288.884615
 31
0.0
 12
399.565894
 22
288.884615
 32
0.0
 13
399.565894
 23
288.884615
 33
0.0
  0
SOLID
  5
DADF
  8
WAKU
  6
CONTINUOUS
 10
399.565894
 20
288.884615
 30
0.0
 11
398.781958
 21
286.730769
 31
0.0
 12
399.858881
 22
286.730769
 32
0.0
 13
399.858881
 23
286.730769
 33
0.0
  0
SOLID
  5
DAE0
  8
WAKU
  6
CONTINUOUS
 10
374.225306
 20
288.920895
 30
0.0
 11
373.597996
 21
288.840902
 31
0.0
 12
374.363484
 22
288.64263
 32
0.0
 13
374.363484
 23
288.64263
 33
0.0
  0
SOLID
  5
DAE1
  8
WAKU
  6
CONTINUOUS
 10
372.417683
 20
288.968648
 30
0.0
 11
373.597996
 21
288.840902
 31
0.0
 12
374.225306
 22
288.920895
 32
0.0
 13
374.225306
 23
288.920895
 33
0.0
  0
SOLID
  5
DAE2
  8
WAKU
  6
CONTINUOUS
 10
372.417683
 20
288.968648
 30
0.0
 11
373.290857
 21
288.835581
 31
0.0
 12
373.597996
 22
288.840902
 32
0.0
 13
373.597996
 23
288.840902
 33
0.0
  0
SOLID
  5
DAE3
  8
WAKU
  6
CONTINUOUS
 10
372.417683
 20
288.968648
 30
0.0
 11
371.926464
 21
288.70701
 31
0.0
 12
373.290857
 22
288.835581
 32
0.0
 13
373.290857
 23
288.835581
 33
0.0
  0
SOLID
  5
DAE4
  8
WAKU
  6
CONTINUOUS
 10
373.998821
 20
289.115757
 30
0.0
 11
372.417683
 21
288.968648
 31
0.0
 12
374.225306
 22
288.920895
 32
0.0
 13
374.225306
 23
288.920895
 33
0.0
  0
SOLID
  5
DAE5
  8
WAKU
  6
CONTINUOUS
 10
372.886988
 20
289.145129
 30
0.0
 11
372.417683
 21
288.968648
 31
0.0
 12
373.998821
 22
289.115757
 32
0.0
 13
373.998821
 23
289.115757
 33
0.0
  0
SOLID
  5
DAE6
  8
WAKU
  6
CONTINUOUS
 10
396.941687
 20
287.592308
 30
0.0
 11
396.452715
 21
289.207692
 31
0.0
 12
393.760408
 22
289.207692
 32
0.0
 13
393.760408
 23
289.207692
 33
0.0
  0
SOLID
  5
DAE7
  8
WAKU
  6
CONTINUOUS
 10
396.452715
 20
289.207692
 30
0.0
 11
396.941687
 21
287.592308
 31
0.0
 12
397.749379
 22
287.592308
 32
0.0
 13
397.749379
 23
287.592308
 33
0.0
  0
SOLID
  5
DAE8
  8
WAKU
  6
CONTINUOUS
 10
393.760408
 20
289.207692
 30
0.0
 11
391.28784
 21
287.592308
 31
0.0
 12
396.941687
 22
287.592308
 32
0.0
 13
396.941687
 23
287.592308
 33
0.0
  0
SOLID
  5
DAE9
  8
WAKU
  6
CONTINUOUS
 10
398.337331
 20
289.207692
 30
0.0
 11
396.452715
 21
289.207692
 31
0.0
 12
397.749379
 22
287.592308
 32
0.0
 13
397.749379
 23
287.592308
 33
0.0
  0
SOLID
  5
DAEA
  8
WAKU
  6
CONTINUOUS
 10
391.875792
 20
289.207692
 30
0.0
 11
391.28784
 21
287.592308
 31
0.0
 12
393.760408
 22
289.207692
 32
0.0
 13
393.760408
 23
289.207692
 33
0.0
  0
SOLID
  5
DAEB
  8
WAKU
  6
CONTINUOUS
 10
393.760408
 20
289.207692
 30
0.0
 11
392.683485
 21
289.207692
 31
0.0
 12
391.875792
 22
289.207692
 32
0.0
 13
391.875792
 23
289.207692
 33
0.0
  0
SOLID
  5
DAEC
  8
WAKU
  6
CONTINUOUS
 10
397.529638
 20
289.207692
 30
0.0
 11
396.452715
 21
289.207692
 31
0.0
 12
398.337331
 22
289.207692
 32
0.0
 13
398.337331
 23
289.207692
 33
0.0
  0
SOLID
  5
DAED
  8
WAKU
  6
CONTINUOUS
 10
373.692348
 20
289.22006
 30
0.0
 11
372.886988
 21
289.145129
 31
0.0
 12
373.998821
 22
289.115757
 32
0.0
 13
373.998821
 23
289.115757
 33
0.0
  0
SOLID
  5
DAEE
  8
WAKU
  6
CONTINUOUS
 10
373.317143
 20
289.229972
 30
0.0
 11
372.886988
 21
289.145129
 31
0.0
 12
373.692348
 22
289.22006
 32
0.0
 13
373.692348
 23
289.22006
 33
0.0
  0
SOLID
  5
DAEF
  8
WAKU
  6
CONTINUOUS
 10
378.723077
 20
290.5
 30
0.0
 11
381.524851
 21
288.776923
 31
0.0
 12
383.695928
 22
288.776923
 32
0.0
 13
383.695928
 23
288.776923
 33
0.0
  0
SOLID
  5
DAF0
  8
WAKU
  6
CONTINUOUS
 10
378.723077
 20
290.5
 30
0.0
 11
378.095928
 21
288.776923
 31
0.0
 12
381.524851
 22
288.776923
 32
0.0
 13
381.524851
 23
288.776923
 33
0.0
  0
SOLID
  5
DAF1
  8
WAKU
  6
CONTINUOUS
 10
372.249053
 20
290.5
 30
0.0
 11
367.971276
 21
290.5
 31
0.0
 12
367.971276
 22
286.222222
 32
0.0
 13
367.971276
 23
286.222222
 33
0.0
  0
SOLID
  5
DAF2
  8
WAKU
  6
CONTINUOUS
 10
409.219005
 20
288.776923
 30
0.0
 11
409.846154
 21
290.5
 31
0.0
 12
406.615385
 22
290.5
 32
0.0
 13
406.615385
 23
290.5
 33
0.0
  0
SOLID
  5
DAF3
  8
WAKU
  6
CONTINUOUS
 10
406.615385
 20
290.5
 30
0.0
 11
405.988236
 21
288.776923
 31
0.0
 12
409.219005
 22
288.776923
 32
0.0
 13
409.219005
 23
288.776923
 33
0.0
  0
SOLID
  5
DAF4
  8
WAKU
  6
CONTINUOUS
 10
392.683485
 20
289.207692
 30
0.0
 11
394.230769
 21
290.5
 31
0.0
 12
393.153846
 22
290.5
 32
0.0
 13
393.153846
 23
290.5
 33
0.0
  0
SOLID
  5
DAF5
  8
WAKU
  6
CONTINUOUS
 10
394.230769
 20
290.5
 30
0.0
 11
392.683485
 21
289.207692
 31
0.0
 12
393.760408
 22
289.207692
 32
0.0
 13
393.760408
 23
289.207692
 33
0.0
  0
SOLID
  5
DAF6
  8
WAKU
  6
CONTINUOUS
 10
409.159221
 20
285.653846
 30
0.0
 11
412.0
 21
290.5
 31
0.0
 12
410.923077
 22
290.5
 32
0.0
 13
410.923077
 23
290.5
 33
0.0
  0
SOLID
  5
DAF7
  8
WAKU
  6
CONTINUOUS
 10
412.0
 20
290.5
 30
0.0
 11
409.159221
 21
285.653846
 31
0.0
 12
409.452208
 22
283.5
 32
0.0
 13
409.452208
 23
283.5
 33
0.0
  0
SOLID
  5
DAF8
  8
WAKU
  6
CONTINUOUS
 10
384.323077
 20
290.5
 30
0.0
 11
378.723077
 21
290.5
 31
0.0
 12
383.695928
 22
288.776923
 32
0.0
 13
383.695928
 23
288.776923
 33
0.0
  0
SOLID
  5
DAF9
  8
WAKU
  6
CONTINUOUS
 10
385.615385
 20
290.5
 30
0.0
 11
384.988236
 21
288.776923
 31
0.0
 12
390.372851
 22
288.776923
 32
0.0
 13
390.372851
 23
288.776923
 33
0.0
  0
SOLID
  5
DAFA
  8
WAKU
  6
CONTINUOUS
 10
396.923077
 20
290.5
 30
0.0
 11
396.452715
 21
289.207692
 31
0.0
 12
397.529638
 22
289.207692
 32
0.0
 13
397.529638
 23
289.207692
 33
0.0
  0
SOLID
  5
DAFB
  8
WAKU
  6
CONTINUOUS
 10
391.0
 20
290.5
 30
0.0
 11
385.615385
 21
290.5
 31
0.0
 12
390.372851
 22
288.776923
 32
0.0
 13
390.372851
 23
288.776923
 33
0.0
  0
SOLID
  5
DAFC
  8
WAKU
  6
CONTINUOUS
 10
398.0
 20
290.5
 30
0.0
 11
396.923077
 21
290.5
 31
0.0
 12
397.529638
 22
289.207692
 32
0.0
 13
397.529638
 23
289.207692
 33
0.0
  0
ENDBLK
  5
DAFD
  8
0
  0
ENDSEC
  0
SECTION
  2
ENTITIES
  0
LINE
  5
DB05
  8
WAKU
 10
415.0
 20
292.0
 30
0.0
 11
415.0
 21
5.0
 31
0.0
  0
LINE
  5
DB06
  8
WAKU
 10
5.0
 20
292.0
 30
0.0
 11
5.0
 21
5.0
 31
0.0
  0
LINE
  5
DB07
  8
WAKU
 10
5.0
 20
5.0
 30
0.0
 11
415.0
 21
5.0
 31
0.0
  0
LINE
  5
DB08
  8
WAKU
 10
5.0
 20
292.0
 30
0.0
 11
415.0
 21
292.0
 31
0.0
  0
LINE
  5
DB09
  8
WAKU
 10
5.0
 20
282.0
 30
0.0
 11
415.0
 21
282.0
 31
0.0
  0
LINE
  5
DB0A
  8
WAKU
  6
CONTINUOUS
 10
393.760408
 20
289.207692
 30
0.0
 11
396.452715
 21
289.207692
 31
0.0
  0
LINE
  5
DB0B
  8
WAKU
  6
CONTINUOUS
 10
393.172456
 20
287.592308
 30
0.0
 11
395.864763
 21
287.592308
 31
0.0
  0
LINE
  5
DB0C
  8
WAKU
  6
CONTINUOUS
 10
390.39067
 20
283.5
 30
0.0
 11
395.452208
 21
283.5
 31
0.0
  0
LINE
  5
DB0D
  8
WAKU
  6
CONTINUOUS
 10
395.159221
 20
285.653846
 30
0.0
 11
395.864763
 21
287.592308
 31
0.0
  0
LINE
  5
DB0E
  8
WAKU
  6
CONTINUOUS
 10
367.971276
 20
290.5
 30
0.0
 11
372.249053
 21
290.5
 31
0.0
  0
LINE
  5
DB0F
  8
WAKU
  6
CONTINUOUS
 10
367.971276
 20
286.222222
 30
0.0
 11
372.249053
 21
290.5
 31
0.0
  0
LINE
  5
DB10
  8
WAKU
  6
CONTINUOUS
 10
367.971276
 20
290.5
 30
0.0
 11
367.971276
 21
286.222222
 31
0.0
  0
LINE
  5
DB11
  8
WAKU
  6
CONTINUOUS
 10
381.524851
 20
288.776923
 30
0.0
 11
383.695928
 21
288.776923
 31
0.0
  0
LINE
  5
DB12
  8
WAKU
  6
CONTINUOUS
 10
378.723077
 20
290.5
 30
0.0
 11
384.323077
 21
290.5
 31
0.0
  0
LINE
  5
DB13
  8
WAKU
  6
CONTINUOUS
 10
380.311313
 20
288.776923
 30
0.0
 11
377.155205
 21
286.192308
 31
0.0
  0
LINE
  5
DB14
  8
WAKU
  6
CONTINUOUS
 10
381.524851
 20
288.776923
 30
0.0
 11
382.755205
 21
286.192308
 31
0.0
  0
LINE
  5
DB15
  8
WAKU
  6
CONTINUOUS
 10
376.175285
 20
283.5
 30
0.0
 11
377.155205
 21
286.192308
 31
0.0
  0
LINE
  5
DB16
  8
WAKU
  6
CONTINUOUS
 10
379.397145
 20
286.138462
 30
0.0
 11
376.175285
 21
283.5
 31
0.0
  0
LINE
  5
DB17
  8
WAKU
  6
CONTINUOUS
 10
381.775285
 20
283.5
 30
0.0
 11
382.755205
 21
286.192308
 31
0.0
  0
LINE
  5
DB18
  8
WAKU
  6
CONTINUOUS
 10
380.493667
 20
286.192308
 30
0.0
 11
381.775285
 21
283.5
 31
0.0
  0
LINE
  5
DB19
  8
WAKU
  6
CONTINUOUS
 10
379.513747
 20
283.5
 30
0.0
 11
380.493667
 21
286.192308
 31
0.0
  0
LINE
  5
DB1A
  8
WAKU
  6
CONTINUOUS
 10
378.436824
 20
283.5
 30
0.0
 11
379.513747
 21
283.5
 31
0.0
  0
LINE
  5
DB1B
  8
WAKU
  6
CONTINUOUS
 10
378.436824
 20
283.5
 30
0.0
 11
379.397145
 21
286.138462
 31
0.0
  0
LINE
  5
DB1C
  8
WAKU
  6
CONTINUOUS
 10
378.095928
 20
288.776923
 30
0.0
 11
380.311313
 21
288.776923
 31
0.0
  0
LINE
  5
DB1D
  8
WAKU
  6
CONTINUOUS
 10
378.723077
 20
290.5
 30
0.0
 11
378.095928
 21
288.776923
 31
0.0
  0
LINE
  5
DB1E
  8
WAKU
  6
CONTINUOUS
 10
392.780488
 20
286.515385
 30
0.0
 11
393.172456
 21
287.592308
 31
0.0
  0
LINE
  5
DB1F
  8
WAKU
  6
CONTINUOUS
 10
391.703565
 20
286.515385
 30
0.0
 11
392.095533
 21
287.592308
 31
0.0
  0
LINE
  5
DB20
  8
WAKU
  6
CONTINUOUS
 10
388.452208
 20
283.5
 30
0.0
 11
389.236144
 21
285.653846
 31
0.0
  0
LINE
  5
DB21
  8
WAKU
  6
CONTINUOUS
 10
383.851529
 20
285.653846
 30
0.0
 11
389.236144
 21
285.653846
 31
0.0
  0
LINE
  5
DB22
  8
WAKU
  6
CONTINUOUS
 10
383.067593
 20
283.5
 30
0.0
 11
383.851529
 21
285.653846
 31
0.0
  0
LINE
  5
DB23
  8
WAKU
  6
CONTINUOUS
 10
383.067593
 20
283.5
 30
0.0
 11
388.452208
 21
283.5
 31
0.0
  0
LINE
  5
DB24
  8
WAKU
  6
CONTINUOUS
 10
391.174606
 20
285.653846
 30
0.0
 11
395.159221
 21
285.653846
 31
0.0
  0
LINE
  5
DB25
  8
WAKU
  6
CONTINUOUS
 10
391.703565
 20
286.515385
 30
0.0
 11
392.780488
 21
286.515385
 31
0.0
  0
LINE
  5
DB26
  8
WAKU
  6
CONTINUOUS
 10
390.39067
 20
283.5
 30
0.0
 11
391.174606
 21
285.653846
 31
0.0
  0
LINE
  5
DB27
  8
WAKU
  6
CONTINUOUS
 10
384.988236
 20
288.776923
 30
0.0
 11
390.372851
 21
288.776923
 31
0.0
  0
LINE
  5
DB28
  8
WAKU
  6
CONTINUOUS
 10
385.615385
 20
290.5
 30
0.0
 11
391.0
 21
290.5
 31
0.0
  0
LINE
  5
DB29
  8
WAKU
  6
CONTINUOUS
 10
384.988236
 20
288.776923
 30
0.0
 11
385.615385
 21
290.5
 31
0.0
  0
LINE
  5
DB2A
  8
WAKU
  6
CONTINUOUS
 10
384.323077
 20
290.5
 30
0.0
 11
383.695928
 21
288.776923
 31
0.0
  0
LINE
  5
DB2B
  8
WAKU
  6
CONTINUOUS
 10
393.153846
 20
290.5
 30
0.0
 11
394.230769
 21
290.5
 31
0.0
  0
LINE
  5
DB2C
  8
WAKU
  6
CONTINUOUS
 10
393.760408
 20
289.207692
 30
0.0
 11
394.230769
 21
290.5
 31
0.0
  0
LINE
  5
DB2D
  8
WAKU
  6
CONTINUOUS
 10
391.875792
 20
289.207692
 30
0.0
 11
392.683485
 21
289.207692
 31
0.0
  0
LINE
  5
DB2E
  8
WAKU
  6
CONTINUOUS
 10
391.28784
 20
287.592308
 30
0.0
 11
392.095533
 21
287.592308
 31
0.0
  0
LINE
  5
DB2F
  8
WAKU
  6
CONTINUOUS
 10
391.28784
 20
287.592308
 30
0.0
 11
391.875792
 21
289.207692
 31
0.0
  0
LINE
  5
DB30
  8
WAKU
  6
CONTINUOUS
 10
392.683485
 20
289.207692
 30
0.0
 11
393.153846
 21
290.5
 31
0.0
  0
LINE
  5
DB31
  8
WAKU
  6
CONTINUOUS
 10
390.372851
 20
288.776923
 30
0.0
 11
391.0
 21
290.5
 31
0.0
  0
LINE
  5
DB32
  8
WAKU
  6
CONTINUOUS
 10
405.753055
 20
288.130769
 30
0.0
 11
408.983824
 21
288.130769
 31
0.0
  0
LINE
  5
DB33
  8
WAKU
  6
CONTINUOUS
 10
405.282694
 20
286.838462
 30
0.0
 11
408.513463
 21
286.838462
 31
0.0
  0
LINE
  5
DB34
  8
WAKU
  6
CONTINUOUS
 10
409.452208
 20
283.5
 30
0.0
 11
404.067593
 21
283.5
 31
0.0
  0
LINE
  5
DB35
  8
WAKU
  6
CONTINUOUS
 10
404.851529
 20
285.653846
 30
0.0
 11
409.159221
 21
285.653846
 31
0.0
  0
LINE
  5
DB36
  8
WAKU
  6
CONTINUOUS
 10
405.988236
 20
288.776923
 30
0.0
 11
409.219005
 21
288.776923
 31
0.0
  0
LINE
  5
DB37
  8
WAKU
  6
CONTINUOUS
 10
406.615385
 20
290.5
 30
0.0
 11
409.846154
 21
290.5
 31
0.0
  0
LINE
  5
DB38
  8
WAKU
  6
CONTINUOUS
 10
398.781958
 20
286.730769
 30
0.0
 11
399.565894
 21
288.884615
 31
0.0
  0
LINE
  5
DB39
  8
WAKU
  6
CONTINUOUS
 10
400.181958
 20
286.730769
 30
0.0
 11
400.965894
 21
288.884615
 31
0.0
  0
LINE
  5
DB3A
  8
WAKU
  6
CONTINUOUS
 10
399.858881
 20
286.730769
 30
0.0
 11
400.642817
 21
288.884615
 31
0.0
  0
LINE
  5
DB3B
  8
WAKU
  6
CONTINUOUS
 10
401.258881
 20
286.730769
 30
0.0
 11
402.042817
 21
288.884615
 31
0.0
  0
LINE
  5
DB3C
  8
WAKU
  6
CONTINUOUS
 10
401.913747
 20
283.5
 30
0.0
 11
403.873587
 21
288.884615
 31
0.0
  0
LINE
  5
DB3D
  8
WAKU
  6
CONTINUOUS
 10
401.424776
 20
285.115385
 30
0.0
 11
402.796663
 21
288.884615
 31
0.0
  0
LINE
  5
DB3E
  8
WAKU
  6
CONTINUOUS
 10
395.452208
 20
283.5
 30
0.0
 11
396.941687
 21
287.592308
 31
0.0
  0
LINE
  5
DB3F
  8
WAKU
  6
CONTINUOUS
 10
397.606055
 20
283.5
 30
0.0
 11
401.913747
 21
283.5
 31
0.0
  0
LINE
  5
DB40
  8
WAKU
  6
CONTINUOUS
 10
398.781958
 20
286.730769
 30
0.0
 11
399.858881
 21
286.730769
 31
0.0
  0
LINE
  5
DB41
  8
WAKU
  6
CONTINUOUS
 10
398.194006
 20
285.115385
 30
0.0
 11
401.424776
 21
285.115385
 31
0.0
  0
LINE
  5
DB42
  8
WAKU
  6
CONTINUOUS
 10
397.606055
 20
283.5
 30
0.0
 11
398.194006
 21
285.115385
 31
0.0
  0
LINE
  5
DB43
  8
WAKU
  6
CONTINUOUS
 10
400.181958
 20
286.730769
 30
0.0
 11
401.258881
 21
286.730769
 31
0.0
  0
LINE
  5
DB44
  8
WAKU
  6
CONTINUOUS
 10
404.067593
 20
283.5
 30
0.0
 11
404.851529
 21
285.653846
 31
0.0
  0
LINE
  5
DB45
  8
WAKU
  6
CONTINUOUS
 10
400.965894
 20
288.884615
 30
0.0
 11
402.042817
 21
288.884615
 31
0.0
  0
LINE
  5
DB46
  8
WAKU
  6
CONTINUOUS
 10
396.923077
 20
290.5
 30
0.0
 11
398.0
 21
290.5
 31
0.0
  0
LINE
  5
DB47
  8
WAKU
  6
CONTINUOUS
 10
397.529638
 20
289.207692
 30
0.0
 11
398.0
 21
290.5
 31
0.0
  0
LINE
  5
DB48
  8
WAKU
  6
CONTINUOUS
 10
397.529638
 20
289.207692
 30
0.0
 11
398.337331
 21
289.207692
 31
0.0
  0
LINE
  5
DB49
  8
WAKU
  6
CONTINUOUS
 10
396.941687
 20
287.592308
 30
0.0
 11
397.749379
 21
287.592308
 31
0.0
  0
LINE
  5
DB4A
  8
WAKU
  6
CONTINUOUS
 10
397.749379
 20
287.592308
 30
0.0
 11
398.337331
 21
289.207692
 31
0.0
  0
LINE
  5
DB4B
  8
WAKU
  6
CONTINUOUS
 10
399.565894
 20
288.884615
 30
0.0
 11
400.642817
 21
288.884615
 31
0.0
  0
LINE
  5
DB4C
  8
WAKU
  6
CONTINUOUS
 10
396.452715
 20
289.207692
 30
0.0
 11
396.923077
 21
290.5
 31
0.0
  0
LINE
  5
DB4D
  8
WAKU
  6
CONTINUOUS
 10
406.615385
 20
290.5
 30
0.0
 11
405.988236
 21
288.776923
 31
0.0
  0
LINE
  5
DB4E
  8
WAKU
  6
CONTINUOUS
 10
405.753055
 20
288.130769
 30
0.0
 11
405.282694
 21
286.838462
 31
0.0
  0
LINE
  5
DB4F
  8
WAKU
  6
CONTINUOUS
 10
402.796663
 20
288.884615
 30
0.0
 11
403.873587
 21
288.884615
 31
0.0
  0
LINE
  5
DB50
  8
WAKU
  6
CONTINUOUS
 10
409.159221
 20
285.653846
 30
0.0
 11
410.923077
 21
290.5
 31
0.0
  0
LINE
  5
DB51
  8
WAKU
  6
CONTINUOUS
 10
409.452208
 20
283.5
 30
0.0
 11
412.0
 21
290.5
 31
0.0
  0
LINE
  5
DB52
  8
WAKU
  6
CONTINUOUS
 10
409.219005
 20
288.776923
 30
0.0
 11
409.846154
 21
290.5
 31
0.0
  0
LINE
  5
DB53
  8
WAKU
  6
CONTINUOUS
 10
410.923077
 20
290.5
 30
0.0
 11
412.0
 21
290.5
 31
0.0
  0
LINE
  5
DB54
  8
WAKU
  6
CONTINUOUS
 10
408.513463
 20
286.838462
 30
0.0
 11
408.983824
 21
288.130769
 31
0.0
  0
LINE
  5
DB55
  8
WAKU
  6
CONTINUOUS
 10
369.828646
 20
284.107791
 30
0.0
 11
369.966824
 21
283.829526
 31
0.0
  0
LINE
  5
DB56
  8
WAKU
  6
CONTINUOUS
 10
369.966824
 20
283.829526
 30
0.0
 11
370.193309
 21
283.634664
 31
0.0
  0
LINE
  5
DB57
  8
WAKU
  6
CONTINUOUS
 10
370.193309
 20
283.634664
 30
0.0
 11
370.499782
 21
283.530361
 31
0.0
  0
LINE
  5
DB58
  8
WAKU
  6
CONTINUOUS
 10
370.499782
 20
283.530361
 30
0.0
 11
370.874987
 21
283.520449
 31
0.0
  0
LINE
  5
DB59
  8
WAKU
  6
CONTINUOUS
 10
370.874987
 20
283.520449
 30
0.0
 11
371.305142
 21
283.605291
 31
0.0
  0
LINE
  5
DB5A
  8
WAKU
  6
CONTINUOUS
 10
371.305142
 20
283.605291
 30
0.0
 11
371.774448
 21
283.781773
 31
0.0
  0
LINE
  5
DB5B
  8
WAKU
  6
CONTINUOUS
 10
371.774448
 20
283.781773
 30
0.0
 11
372.265666
 21
284.043411
 31
0.0
  0
LINE
  5
DB5C
  8
WAKU
  6
CONTINUOUS
 10
372.265666
 20
284.043411
 30
0.0
 11
372.760756
 21
284.380595
 31
0.0
  0
LINE
  5
DB5D
  8
WAKU
  6
CONTINUOUS
 10
372.760756
 20
284.380595
 30
0.0
 11
373.241532
 21
284.780941
 31
0.0
  0
LINE
  5
DB5E
  8
WAKU
  6
CONTINUOUS
 10
373.241532
 20
284.780941
 30
0.0
 11
373.690335
 21
285.229744
 31
0.0
  0
LINE
  5
DB5F
  8
WAKU
  6
CONTINUOUS
 10
373.690335
 20
285.229744
 30
0.0
 11
374.090681
 21
285.71052
 31
0.0
  0
LINE
  5
DB60
  8
WAKU
  6
CONTINUOUS
 10
374.090681
 20
285.71052
 30
0.0
 11
374.427865
 21
286.205609
 31
0.0
  0
LINE
  5
DB61
  8
WAKU
  6
CONTINUOUS
 10
374.427865
 20
286.205609
 30
0.0
 11
374.689503
 21
286.696828
 31
0.0
  0
LINE
  5
DB62
  8
WAKU
  6
CONTINUOUS
 10
374.689503
 20
286.696828
 30
0.0
 11
374.865984
 21
287.166134
 31
0.0
  0
LINE
  5
DB63
  8
WAKU
  6
CONTINUOUS
 10
374.865984
 20
287.166134
 30
0.0
 11
374.950827
 21
287.596289
 31
0.0
  0
LINE
  5
DB64
  8
WAKU
  6
CONTINUOUS
 10
374.950827
 20
287.596289
 30
0.0
 11
374.940915
 21
287.971493
 31
0.0
  0
LINE
  5
DB65
  8
WAKU
  6
CONTINUOUS
 10
374.940915
 20
287.971493
 30
0.0
 11
374.836612
 21
288.277967
 31
0.0
  0
LINE
  5
DB66
  8
WAKU
  6
CONTINUOUS
 10
374.836612
 20
288.277967
 30
0.0
 11
374.641749
 21
288.504452
 31
0.0
  0
LINE
  5
DB67
  8
WAKU
  6
CONTINUOUS
 10
374.641749
 20
288.504452
 30
0.0
 11
374.363484
 21
288.64263
 31
0.0
  0
LINE
  5
DB68
  8
WAKU
  6
CONTINUOUS
 10
373.916941
 20
288.683944
 30
0.0
 11
373.482636
 21
288.608014
 31
0.0
  0
LINE
  5
DB69
  8
WAKU
  6
CONTINUOUS
 10
373.482636
 20
288.608014
 30
0.0
 11
373.005639
 21
288.435768
 31
0.0
  0
LINE
  5
DB6A
  8
WAKU
  6
CONTINUOUS
 10
373.005639
 20
288.435768
 30
0.0
 11
372.504269
 21
288.173821
 31
0.0
  0
LINE
  5
DB6B
  8
WAKU
  6
CONTINUOUS
 10
372.504269
 20
288.173821
 30
0.0
 11
371.997783
 21
287.832235
 31
0.0
  0
LINE
  5
DB6C
  8
WAKU
  6
CONTINUOUS
 10
371.997783
 20
287.832235
 30
0.0
 11
371.505632
 21
287.424128
 31
0.0
  0
LINE
  5
DB6D
  8
WAKU
  6
CONTINUOUS
 10
371.505632
 20
287.424128
 30
0.0
 11
371.04672
 21
286.965174
 31
0.0
  0
LINE
  5
DB6E
  8
WAKU
  6
CONTINUOUS
 10
371.04672
 20
286.965174
 30
0.0
 11
370.638671
 21
286.473
 31
0.0
  0
LINE
  5
DB6F
  8
WAKU
  6
CONTINUOUS
 10
370.638671
 20
286.473
 30
0.0
 11
370.297156
 21
285.966509
 31
0.0
  0
LINE
  5
DB70
  8
WAKU
  6
CONTINUOUS
 10
370.297156
 20
285.966509
 30
0.0
 11
370.035293
 21
285.465154
 31
0.0
  0
LINE
  5
DB71
  8
WAKU
  6
CONTINUOUS
 10
370.035293
 20
285.465154
 30
0.0
 11
369.863139
 21
284.988189
 31
0.0
  0
LINE
  5
DB72
  8
WAKU
  6
CONTINUOUS
 10
369.863139
 20
284.988189
 30
0.0
 11
369.787305
 21
284.553935
 31
0.0
  0
LINE
  5
DB73
  8
WAKU
  6
CONTINUOUS
 10
370.172911
 20
284.451856
 30
0.0
 11
370.681395
 21
284.539195
 31
0.0
  0
LINE
  5
DB74
  8
WAKU
  6
CONTINUOUS
 10
370.681395
 20
284.539195
 30
0.0
 11
371.312263
 21
284.810332
 31
0.0
  0
LINE
  5
DB75
  8
WAKU
  6
CONTINUOUS
 10
371.312263
 20
284.810332
 30
0.0
 11
371.98994
 21
285.251431
 31
0.0
  0
LINE
  5
DB76
  8
WAKU
  6
CONTINUOUS
 10
371.98994
 20
285.251431
 30
0.0
 11
372.646296
 21
285.825506
 31
0.0
  0
LINE
  5
DB77
  8
WAKU
  6
CONTINUOUS
 10
372.646296
 20
285.825506
 30
0.0
 11
373.220238
 21
286.48192
 31
0.0
  0
LINE
  5
DB78
  8
WAKU
  6
CONTINUOUS
 10
373.220238
 20
286.48192
 30
0.0
 11
373.661353
 21
287.159534
 31
0.0
  0
LINE
  5
DB79
  8
WAKU
  6
CONTINUOUS
 10
373.661353
 20
287.159534
 30
0.0
 11
373.932071
 21
287.790402
 31
0.0
  0
LINE
  5
DB7A
  8
WAKU
  6
CONTINUOUS
 10
373.932071
 20
287.790402
 30
0.0
 11
374.019229
 21
288.298569
 31
0.0
  0
LINE
  5
DB7B
  8
WAKU
  6
CONTINUOUS
 10
373.916941
 20
288.683944
 30
0.0
 11
373.799148
 21
288.781929
 31
0.0
  0
LINE
  5
DB7C
  8
WAKU
  6
CONTINUOUS
 10
373.799148
 20
288.781929
 30
0.0
 11
373.597996
 21
288.840902
 31
0.0
  0
LINE
  5
DB7D
  8
WAKU
  6
CONTINUOUS
 10
373.597996
 20
288.840902
 30
0.0
 11
373.290857
 21
288.835581
 31
0.0
  0
LINE
  5
DB7E
  8
WAKU
  6
CONTINUOUS
 10
373.290857
 20
288.835581
 30
0.0
 11
372.89514
 21
288.740065
 31
0.0
  0
LINE
  5
DB7F
  8
WAKU
  6
CONTINUOUS
 10
372.89514
 20
288.740065
 30
0.0
 11
372.440235
 21
288.547585
 31
0.0
  0
LINE
  5
DB80
  8
WAKU
  6
CONTINUOUS
 10
372.440235
 20
288.547585
 30
0.0
 11
371.954587
 21
288.264284
 31
0.0
  0
LINE
  5
DB81
  8
WAKU
  6
CONTINUOUS
 10
371.954587
 20
288.264284
 30
0.0
 11
370.996098
 21
287.475108
 31
0.0
  0
LINE
  5
DB82
  8
WAKU
  6
CONTINUOUS
 10
370.996098
 20
287.475108
 30
0.0
 11
370.207035
 21
286.51657
 31
0.0
  0
LINE
  5
DB83
  8
WAKU
  6
CONTINUOUS
 10
370.207035
 20
286.51657
 30
0.0
 11
369.923519
 21
286.031028
 31
0.0
  0
LINE
  5
DB84
  8
WAKU
  6
CONTINUOUS
 10
369.923519
 20
286.031028
 30
0.0
 11
369.73149
 21
285.576021
 31
0.0
  0
LINE
  5
DB85
  8
WAKU
  6
CONTINUOUS
 10
369.73149
 20
285.576021
 30
0.0
 11
369.635696
 21
285.180404
 31
0.0
  0
LINE
  5
DB86
  8
WAKU
  6
CONTINUOUS
 10
369.635696
 20
285.180404
 30
0.0
 11
369.630358
 21
284.873087
 31
0.0
  0
LINE
  5
DB87
  8
WAKU
  6
CONTINUOUS
 10
369.630358
 20
284.873087
 30
0.0
 11
369.689155
 21
284.672435
 31
0.0
  0
LINE
  5
DB88
  8
WAKU
  6
CONTINUOUS
 10
369.689155
 20
284.672435
 30
0.0
 11
369.787305
 21
284.553935
 31
0.0
  0
LINE
  5
DB89
  8
WAKU
  6
CONTINUOUS
 10
370.275177
 20
284.066476
 30
0.0
 11
370.392927
 21
283.968568
 31
0.0
  0
LINE
  5
DB8A
  8
WAKU
  6
CONTINUOUS
 10
370.392927
 20
283.968568
 30
0.0
 11
370.594177
 21
283.909498
 31
0.0
  0
LINE
  5
DB8B
  8
WAKU
  6
CONTINUOUS
 10
370.594177
 20
283.909498
 30
0.0
 11
370.901294
 21
283.914863
 31
0.0
  0
LINE
  5
DB8C
  8
WAKU
  6
CONTINUOUS
 10
370.901294
 20
283.914863
 30
0.0
 11
371.296984
 21
284.010368
 31
0.0
  0
LINE
  5
DB8D
  8
WAKU
  6
CONTINUOUS
 10
371.296984
 20
284.010368
 30
0.0
 11
371.751882
 21
284.202798
 31
0.0
  0
LINE
  5
DB8E
  8
WAKU
  6
CONTINUOUS
 10
371.751882
 20
284.202798
 30
0.0
 11
372.237497
 21
284.486117
 31
0.0
  0
LINE
  5
DB8F
  8
WAKU
  6
CONTINUOUS
 10
372.237497
 20
284.486117
 30
0.0
 11
373.195965
 21
285.275232
 31
0.0
  0
LINE
  5
DB90
  8
WAKU
  6
CONTINUOUS
 10
373.195965
 20
285.275232
 30
0.0
 11
373.98505
 21
286.233718
 31
0.0
  0
LINE
  5
DB91
  8
WAKU
  6
CONTINUOUS
 10
373.98505
 20
286.233718
 30
0.0
 11
374.268507
 21
286.719278
 31
0.0
  0
LINE
  5
DB92
  8
WAKU
  6
CONTINUOUS
 10
374.268507
 20
286.719278
 30
0.0
 11
374.46071
 21
287.174248
 31
0.0
  0
LINE
  5
DB93
  8
WAKU
  6
CONTINUOUS
 10
374.46071
 20
287.174248
 30
0.0
 11
374.556361
 21
287.569864
 31
0.0
  0
LINE
  5
DB94
  8
WAKU
  6
CONTINUOUS
 10
374.556361
 20
287.569864
 30
0.0
 11
374.561802
 21
287.877253
 31
0.0
  0
LINE
  5
DB95
  8
WAKU
  6
CONTINUOUS
 10
374.561802
 20
287.877253
 30
0.0
 11
374.502951
 21
288.077918
 31
0.0
  0
LINE
  5
DB96
  8
WAKU
  6
CONTINUOUS
 10
374.502951
 20
288.077918
 30
0.0
 11
374.40481
 21
288.196249
 31
0.0
  0
LINE
  5
DB97
  8
WAKU
  6
CONTINUOUS
 10
374.019229
 20
288.298569
 30
0.0
 11
373.510738
 21
288.21124
 31
0.0
  0
LINE
  5
DB98
  8
WAKU
  6
CONTINUOUS
 10
373.510738
 20
288.21124
 30
0.0
 11
372.879878
 21
287.940057
 31
0.0
  0
LINE
  5
DB99
  8
WAKU
  6
CONTINUOUS
 10
372.879878
 20
287.940057
 30
0.0
 11
372.202181
 21
287.498991
 31
0.0
  0
LINE
  5
DB9A
  8
WAKU
  6
CONTINUOUS
 10
372.202181
 20
287.498991
 30
0.0
 11
371.545827
 21
286.924893
 31
0.0
  0
LINE
  5
DB9B
  8
WAKU
  6
CONTINUOUS
 10
371.545827
 20
286.924893
 30
0.0
 11
370.971896
 21
286.268471
 31
0.0
  0
LINE
  5
DB9C
  8
WAKU
  6
CONTINUOUS
 10
370.971896
 20
286.268471
 30
0.0
 11
370.530712
 21
285.590875
 31
0.0
  0
LINE
  5
DB9D
  8
WAKU
  6
CONTINUOUS
 10
370.530712
 20
285.590875
 30
0.0
 11
370.260168
 21
284.959969
 31
0.0
  0
LINE
  5
DB9E
  8
WAKU
  6
CONTINUOUS
 10
370.260168
 20
284.959969
 30
0.0
 11
370.172911
 21
284.451856
 31
0.0
  0
LINE
  5
DB9F
  8
WAKU
  6
CONTINUOUS
 10
370.275177
 20
284.066476
 30
0.0
 11
370.709458
 21
284.142397
 31
0.0
  0
LINE
  5
DBA0
  8
WAKU
  6
CONTINUOUS
 10
370.709458
 20
284.142397
 30
0.0
 11
371.186428
 21
284.314625
 31
0.0
  0
LINE
  5
DBA1
  8
WAKU
  6
CONTINUOUS
 10
371.186428
 20
284.314625
 30
0.0
 11
371.68777
 21
284.576545
 31
0.0
  0
LINE
  5
DBA2
  8
WAKU
  6
CONTINUOUS
 10
371.68777
 20
284.576545
 30
0.0
 11
372.194232
 21
284.918099
 31
0.0
  0
LINE
  5
DBA3
  8
WAKU
  6
CONTINUOUS
 10
372.194232
 20
284.918099
 30
0.0
 11
372.686363
 21
285.326171
 31
0.0
  0
LINE
  5
DBA4
  8
WAKU
  6
CONTINUOUS
 10
372.686363
 20
285.326171
 30
0.0
 11
373.145266
 21
285.785089
 31
0.0
  0
LINE
  5
DBA5
  8
WAKU
  6
CONTINUOUS
 10
373.145266
 20
285.785089
 30
0.0
 11
373.553316
 21
286.277229
 31
0.0
  0
LINE
  5
DBA6
  8
WAKU
  6
CONTINUOUS
 10
373.553316
 20
286.277229
 30
0.0
 11
373.894843
 21
286.783693
 31
0.0
  0
LINE
  5
DBA7
  8
WAKU
  6
CONTINUOUS
 10
373.894843
 20
286.783693
 30
0.0
 11
374.156732
 21
287.28503
 31
0.0
  0
LINE
  5
DBA8
  8
WAKU
  6
CONTINUOUS
 10
374.156732
 20
287.28503
 30
0.0
 11
374.328925
 21
287.761987
 31
0.0
  0
LINE
  5
DBA9
  8
WAKU
  6
CONTINUOUS
 10
374.328925
 20
287.761987
 30
0.0
 11
374.40481
 21
288.196249
 31
0.0
  0
LINE
  5
DBAA
  8
WAKU
  6
CONTINUOUS
 10
374.363484
 20
288.64263
 30
0.0
 11
374.225306
 21
288.920895
 31
0.0
  0
LINE
  5
DBAB
  8
WAKU
  6
CONTINUOUS
 10
374.225306
 20
288.920895
 30
0.0
 11
373.998821
 21
289.115757
 31
0.0
  0
LINE
  5
DBAC
  8
WAKU
  6
CONTINUOUS
 10
373.998821
 20
289.115757
 30
0.0
 11
373.692348
 21
289.22006
 31
0.0
  0
LINE
  5
DBAD
  8
WAKU
  6
CONTINUOUS
 10
373.692348
 20
289.22006
 30
0.0
 11
373.317143
 21
289.229972
 31
0.0
  0
LINE
  5
DBAE
  8
WAKU
  6
CONTINUOUS
 10
373.317143
 20
289.229972
 30
0.0
 11
372.886988
 21
289.145129
 31
0.0
  0
LINE
  5
DBAF
  8
WAKU
  6
CONTINUOUS
 10
372.886988
 20
289.145129
 30
0.0
 11
372.417683
 21
288.968648
 31
0.0
  0
LINE
  5
DBB0
  8
WAKU
  6
CONTINUOUS
 10
372.417683
 20
288.968648
 30
0.0
 11
371.926464
 21
288.70701
 31
0.0
  0
LINE
  5
DBB1
  8
WAKU
  6
CONTINUOUS
 10
371.926464
 20
288.70701
 30
0.0
 11
371.431374
 21
288.369826
 31
0.0
  0
LINE
  5
DBB2
  8
WAKU
  6
CONTINUOUS
 10
371.431374
 20
288.369826
 30
0.0
 11
370.950599
 21
287.96948
 31
0.0
  0
LINE
  5
DBB3
  8
WAKU
  6
CONTINUOUS
 10
370.950599
 20
287.96948
 30
0.0
 11
370.501795
 21
287.520677
 31
0.0
  0
LINE
  5
DBB4
  8
WAKU
  6
CONTINUOUS
 10
370.501795
 20
287.520677
 30
0.0
 11
370.101449
 21
287.039901
 31
0.0
  0
LINE
  5
DBB5
  8
WAKU
  6
CONTINUOUS
 10
370.101449
 20
287.039901
 30
0.0
 11
369.764265
 21
286.544812
 31
0.0
  0
LINE
  5
DBB6
  8
WAKU
  6
CONTINUOUS
 10
369.764265
 20
286.544812
 30
0.0
 11
369.502627
 21
286.053593
 31
0.0
  0
LINE
  5
DBB7
  8
WAKU
  6
CONTINUOUS
 10
369.502627
 20
286.053593
 30
0.0
 11
369.326146
 21
285.584287
 31
0.0
  0
LINE
  5
DBB8
  8
WAKU
  6
CONTINUOUS
 10
369.326146
 20
285.584287
 30
0.0
 11
369.241303
 21
285.154132
 31
0.0
  0
LINE
  5
DBB9
  8
WAKU
  6
CONTINUOUS
 10
369.241303
 20
285.154132
 30
0.0
 11
369.251215
 21
284.778928
 31
0.0
  0
LINE
  5
DBBA
  8
WAKU
  6
CONTINUOUS
 10
369.251215
 20
284.778928
 30
0.0
 11
369.355518
 21
284.472454
 31
0.0
  0
LINE
  5
DBBB
  8
WAKU
  6
CONTINUOUS
 10
369.355518
 20
284.472454
 30
0.0
 11
369.550381
 21
284.245969
 31
0.0
  0
LINE
  5
DBBC
  8
WAKU
  6
CONTINUOUS
 10
369.550381
 20
284.245969
 30
0.0
 11
369.828646
 21
284.107791
 31
0.0
  0
INSERT
  5
DBBD
  8
WAKU
  6
CONTINUOUS
  2
*U0
 10
0.0
 20
0.0
 30
0.0
  0
TEXT
  5
10375
  8
WAKU
 10
10.0
 20
285.5
 30
0.0
 40
3.0
  1
FNS-70AT
 41
0.868
 11
10.0
 21
287.0
 31
0.0
 73
     2
  0
LINE
  5
17EE8
  8
DANMEN
  6
CONTINUOUS
 10
188.449997
 20
147.05
 30
0.0
 11
200.550003
 21
147.05
 31
0.0
  0
ARC
  5
17EE9
  8
DANMEN
  6
CONTINUOUS
 10
201.038889
 20
125.5
 30
0.0
 40
0.5
 50
175.710803
 51
270.0
  0
ARC
  5
17EEA
  8
DANMEN
  6
CONTINUOUS
 10
201.0
 20
162.5
 30
0.0
 40
0.5
 50
89.999982
 51
180.000019
  0
LINE
  5
17EEB
  8
DANMEN
  6
CONTINUOUS
 10
188.449997
 20
130.949997
 30
0.0
 11
200.550003
 21
130.949997
 31
0.0
  0
LINE
  5
17EEC
  8
DANMEN
  6
CONTINUOUS
 10
188.199982
 20
129.0
 30
0.0
 11
200.799988
 21
129.0
 31
0.0
  0
LINE
  5
17EED
  8
DANMEN
  6
CONTINUOUS
 10
183.5
 20
122.0
 30
0.0
 11
238.75
 21
122.0
 31
0.0
  0
LINE
  5
17EEE
  8
DANMEN
  6
CONTINUOUS
 10
170.5
 20
90.0
 30
0.0
 11
238.75
 21
90.0
 31
0.0
  0
LINE
  5
17EEF
  8
DANMEN
  6
CONTINUOUS
 10
183.5
 20
86.0
 30
0.0
 11
238.75
 21
86.0
 31
0.0
  0
LINE
  5
17EF0
  8
DANMEN
  6
CONTINUOUS
 10
183.500004
 20
123.744506
 30
0.0
 11
183.500004
 21
122.0
 31
0.0
  0
LINE
  5
17EF1
  8
DANMEN
  6
CONTINUOUS
 10
172.01044
 20
128.502283
 30
0.0
 11
174.770495
 21
122.0
 31
0.0
  0
ARC
  5
17EF2
  8
DANMEN
  6
CONTINUOUS
 10
103.0
 20
122.500003
 30
0.0
 40
0.5
 50
270.0
 51
0.0
  0
ARC
  5
17EF3
  8
DANMEN
  6
CONTINUOUS
 10
102.5
 20
122.500003
 30
0.0
 40
0.5
 50
180.0
 51
270.0
  0
LINE
  5
17EF4
  8
DANMEN
  6
CONTINUOUS
 10
81.15
 20
128.000003
 30
0.0
 11
81.15
 21
111.000003
 31
0.0
  0
LINE
  5
17EF5
  8
DANMEN
  6
CONTINUOUS
 10
113.65
 20
131.350003
 30
0.0
 11
113.65
 21
113.000003
 31
0.0
  0
LINE
  5
17EF6
  8
DANMEN
  6
CONTINUOUS
 10
115.3
 20
132.500003
 30
0.0
 11
115.3
 21
112.500003
 31
0.0
  0
LINE
  5
17EF7
  8
DANMEN
  6
CONTINUOUS
 10
79.5
 20
132.500003
 30
0.0
 11
79.5
 21
91.5
 31
0.0
  0
LINE
  5
17EF8
  8
DANMEN
  6
CONTINUOUS
 10
37.649994
 20
136.0
 30
0.0
 11
37.649994
 21
109.949997
 31
0.0
  0
LINE
  5
17EF9
  8
DANMEN
  6
CONTINUOUS
 10
67.350006
 20
141.050003
 30
0.0
 11
67.350006
 21
110.0
 31
0.0
  0
LINE
  5
17EFA
  8
DANMEN
  6
CONTINUOUS
 10
69.300003
 20
164.5
 30
0.0
 11
69.300003
 21
80.0
 31
0.0
  0
LINE
  5
17EFB
  8
DANMEN
  6
CONTINUOUS
 10
35.699997
 20
164.5
 30
0.0
 11
35.699997
 21
109.5
 31
0.0
  0
LINE
  5
17EFC
  8
DANMEN
  6
CONTINUOUS
 10
170.5
 20
134.5
 30
0.0
 11
170.5
 21
119.6
 31
0.0
  0
LINE
  5
17EFD
  8
DANMEN
  6
CONTINUOUS
 10
168.850006
 20
154.350006
 30
0.0
 11
168.850006
 21
87.649994
 31
0.0
  0
LINE
  5
17EFE
  8
DANMEN
  6
CONTINUOUS
 10
71.5
 20
169.0
 30
0.0
 11
71.5
 21
79.5
 31
0.0
  0
LINE
  5
17EFF
  8
DANMEN
  6
CONTINUOUS
 10
33.5
 20
169.0
 30
0.0
 11
33.5
 21
109.5
 31
0.0
  0
LINE
  5
17F00
  8
DANMEN
  6
CONTINUOUS
 10
117.5
 20
169.0
 30
0.0
 11
117.5
 21
112.500003
 31
0.0
  0
LINE
  5
17F01
  8
DANMEN
  6
CONTINUOUS
 10
74.0
 20
169.0
 30
0.0
 11
74.0
 21
91.0
 31
0.0
  0
LINE
  5
17F02
  8
DANMEN
  6
DASHED
 10
77.0
 20
169.0
 30
0.0
 11
77.0
 21
91.0
 31
0.0
  0
LINE
  5
17F03
  8
DANMEN
  6
CONTINUOUS
 10
95.525
 20
169.0
 30
0.0
 11
95.525
 21
121.000001
 31
0.0
  0
LINE
  5
17F04
  8
DANMEN
  6
CONTINUOUS
 10
88.525
 20
169.0
 30
0.0
 11
88.525
 21
121.000001
 31
0.0
  0
LINE
  5
17F05
  8
DANMEN
  6
CONTINUOUS
 10
88.025
 20
169.0
 30
0.0
 11
88.025
 21
121.000001
 31
0.0
  0
LINE
  5
17F06
  8
DANMEN
  6
CONTINUOUS
 10
96.025
 20
169.0
 30
0.0
 11
96.025
 21
121.000001
 31
0.0
  0
LINE
  5
17F07
  8
DANMEN
  6
CONTINUOUS
 10
93.063803
 20
55.674726
 30
0.0
 11
67.554612
 21
44.43964
 31
0.0
  0
LINE
  5
17F08
  8
DANMEN
  6
CONTINUOUS
 10
92.0
 20
57.003636
 30
0.0
 11
67.0
 21
46.0
 31
0.0
  0
LINE
  5
17F0A
  8
DANMEN
  6
CONTINUOUS
 10
69.550003
 20
68.000004
 30
0.0
 11
67.350006
 21
68.000003
 31
0.0
  0
LINE
  5
17F0B
  8
DANMEN
  6
CONTINUOUS
 10
68.350006
 20
78.050003
 30
0.0
 11
69.550003
 21
78.050003
 31
0.0
  0
LINE
  5
17F0C
  8
DANMEN
  6
CONTINUOUS
 10
63.5
 20
51.0
 30
0.0
 11
71.5
 21
51.0
 31
0.0
  0
LINE
  5
17F0D
  8
DANMEN
  6
CONTINUOUS
 10
54.0
 20
31.0
 30
0.0
 11
110.5
 21
31.0
 31
0.0
  0
LINE
  5
17F0E
  8
DANMEN
  6
CONTINUOUS
 10
52.5
 20
31.0
 30
0.0
 11
52.5
 21
22.5
 31
0.0
  0
LINE
  5
17F0F
  8
DANMEN
  6
CONTINUOUS
 10
54.0
 20
31.649994
 30
0.0
 11
54.0
 21
22.5
 31
0.0
  0
ARC
  5
17F10
  8
DANMEN
  6
CONTINUOUS
 10
53.0
 20
22.5
 30
0.0
 40
0.5
 50
180.000019
 51
270.000001
  0
LINE
  5
17F15
  8
DANMEN
  6
CONTINUOUS
 10
53.0
 20
22.0
 30
0.0
 11
53.5
 21
22.0
 31
0.0
  0
ARC
  5
17F17
  8
DANMEN
  6
CONTINUOUS
 10
53.5
 20
22.5
 30
0.0
 40
0.5
 50
270.000018
 51
0.0
  0
LINE
  5
17F18
  8
DANMEN
  6
CONTINUOUS
 10
63.899998
 20
86.500004
 30
0.0
 11
63.899998
 21
68.500004
 31
0.0
  0
LINE
  5
17F19
  8
DANMEN
  6
CONTINUOUS
 10
55.100002
 20
68.500004
 30
0.0
 11
55.100002
 21
86.500004
 31
0.0
  0
LINE
  5
17F1A
  8
DANMEN
  6
CONTINUOUS
 10
63.700001
 20
100.000008
 30
0.0
 11
63.700001
 21
55.0
 31
0.0
  0
LINE
  5
17F1B
  8
DANMEN
  6
CONTINUOUS
 10
55.299999
 20
100.000008
 30
0.0
 11
55.299999
 21
55.0
 31
0.0
  0
LINE
  5
17F1C
  8
DANMEN
  6
CONTINUOUS
 10
57.5
 20
55.0
 30
0.0
 11
57.5
 21
100.000008
 31
0.0
  0
LINE
  5
17F1D
  8
DANMEN
  6
CONTINUOUS
 10
61.5
 20
55.0
 30
0.0
 11
61.5
 21
100.000008
 31
0.0
  0
LINE
  5
17F1E
  8
DANMEN
  6
CONTINUOUS
 10
47.511315
 20
50.945203
 30
0.0
 11
47.5
 21
108.0
 31
0.0
  0
LINE
  5
17F1F
  8
DANMEN
  6
CONTINUOUS
 10
46.001954
 20
108.0
 30
0.0
 11
46.464828
 21
50.464565
 31
0.0
  0
LINE
  5
17F20
  8
DANMEN
  6
CONTINUOUS
 10
47.211313
 20
50.958301
 30
0.0
 11
47.199999
 21
108.006521
 31
0.0
  0
LINE
  5
17F21
  8
DANMEN
  6
CONTINUOUS
 10
49.699997
 20
108.0
 30
0.0
 11
49.699997
 21
51.5
 31
0.0
  0
LINE
  5
17F22
  8
DANMEN
  6
CONTINUOUS
 10
51.649994
 20
103.0
 30
0.0
 11
51.649994
 21
67.0
 31
0.0
  0
LINE
  5
17F23
  8
DANMEN
  6
CONTINUOUS
 10
42.149994
 20
108.0
 30
0.0
 11
42.149994
 21
33.0
 31
0.0
  0
LINE
  5
17F24
  8
DANMEN
  6
CONTINUOUS
 10
40.5
 20
108.0
 30
0.0
 11
40.5
 21
34.641644
 31
0.0
  0
ARC
  5
17F25
  8
DANMEN
  6
CONTINUOUS
 10
50.096175
 20
52.834251
 30
0.0
 40
0.5
 50
357.5
 51
177.5
  0
LINE
  5
17F26
  8
DANMEN
  6
CONTINUOUS
 10
61.0
 20
57.29129
 30
0.0
 11
61.0
 21
46.0
 31
0.0
  0
LINE
  5
17F27
  8
DANMEN
  6
CONTINUOUS
 10
59.350006
 20
53.847046
 30
0.0
 11
59.350006
 21
46.0
 31
0.0
  0
LINE
  5
17F28
  8
DANMEN
  6
CONTINUOUS
 10
51.649994
 20
65.999999
 30
0.0
 11
51.649994
 21
51.5
 31
0.0
  0
LINE
  5
17F29
  8
DANMEN
  6
CONTINUOUS
 10
63.5
 20
57.0
 30
0.0
 11
63.5
 21
51.0
 31
0.0
  0
LINE
  5
17F2A
  8
DANMEN
  6
CONTINUOUS
 10
55.5
 20
57.0
 30
0.0
 11
55.5
 21
51.0
 31
0.0
  0
LINE
  5
17F2B
  8
DANMEN
  6
CONTINUOUS
 10
49.149994
 20
32.649994
 30
0.0
 11
53.0
 21
32.649994
 31
0.0
  0
LINE
  5
17F2C
  8
DANMEN
  6
CONTINUOUS
 10
53.420742
 20
44.35
 30
0.0
 11
49.149994
 21
42.020489
 31
0.0
  0
ARC
  5
17F2D
  8
DANMEN
  6
CONTINUOUS
 10
53.50999
 20
44.0
 30
0.0
 40
2.0
 50
90.0
 51
118.610582
  0
LINE
  5
17F2E
  8
DANMEN
  6
CONTINUOUS
 10
51.449997
 20
51.0
 30
0.0
 11
55.5
 21
51.0
 31
0.0
  0
LINE
  5
17F2F
  8
DANMEN
  6
CONTINUOUS
 10
47.5
 20
42.406353
 30
0.0
 11
47.5
 21
33.0
 31
0.0
  0
LINE
  5
17F30
  8
DANMEN
  6
CONTINUOUS
 10
49.149994
 20
42.020489
 30
0.0
 11
49.149994
 21
32.649994
 31
0.0
  0
LINE
  5
17F31
  8
DANMEN
  6
CONTINUOUS
 10
41.6
 20
33.0
 30
0.0
 11
47.5
 21
33.0
 31
0.0
  0
LINE
  5
17F32
  8
DANMEN
  6
CONTINUOUS
 10
41.300003
 20
31.9
 30
0.0
 11
47.5
 21
31.9
 31
0.0
  0
LINE
  5
17F33
  8
DANMEN
  6
CONTINUOUS
 10
40.902221
 20
31.0
 30
0.0
 11
48.0
 21
31.0
 31
0.0
  0
LINE
  5
17F34
  8
DANMEN
  6
CONTINUOUS
 10
37.5
 20
40.399994
 30
0.0
 11
37.5
 21
35.10902
 31
0.0
  0
LINE
  5
17F35
  8
DANMEN
  6
CONTINUOUS
 10
38.699997
 20
40.399994
 30
0.0
 11
38.699997
 21
35.429842
 31
0.0
  0
ARC
  5
17F36
  8
DANMEN
  6
CONTINUOUS
 10
40.899994
 20
31.399994
 30
0.0
 40
0.4
 50
180.000019
 51
359.999983
  0
LINE
  5
17F37
  8
DANMEN
  6
CONTINUOUS
 10
38.699997
 20
35.429842
 30
0.0
 11
41.323607
 21
34.118037
 31
0.0
  0
LINE
  5
17F38
  8
DANMEN
  6
CONTINUOUS
 10
40.5
 20
33.300003
 30
0.0
 11
40.5
 21
31.399994
 31
0.0
  0
ARC
  5
17F3C
  8
DANMEN
  6
CONTINUOUS
 10
38.0
 20
35.10902
 30
0.0
 40
0.5
 50
180.0
 51
243.434949
  0
LINE
  5
17F3D
  8
DANMEN
  6
CONTINUOUS
 10
37.776393
 20
34.661806
 30
0.0
 11
40.5
 21
33.300003
 31
0.0
  0
LINE
  5
17F41
  8
DANMEN
  6
CONTINUOUS
 10
41.300003
 20
31.9
 30
0.0
 11
41.300003
 21
31.399994
 31
0.0
  0
LINE
  5
17F43
  8
DANMEN
  6
CONTINUOUS
 10
41.6
 20
33.670823
 30
0.0
 11
41.6
 21
33.0
 31
0.0
  0
ARC
  5
17F44
  8
DANMEN
  6
CONTINUOUS
 10
41.1
 20
33.670823
 30
0.0
 40
0.5
 50
0.0
 51
63.434949
  0
ARC
  5
17F48
  8
DANMEN
  6
CONTINUOUS
 10
38.100006
 20
40.399994
 30
0.0
 40
0.6
 50
0.0
 51
180.000019
  0
LINE
  5
17F4B
  8
DANMEN
  6
CONTINUOUS
 10
48.0
 20
31.0
 30
0.0
 11
52.5
 21
31.0
 31
0.0
  0
ARC
  5
17F4D
  8
DANMEN
  6
CONTINUOUS
 10
48.0
 20
31.5
 30
0.0
 40
0.5
 50
180.000019
 51
270.000001
  0
LINE
  5
17F4E
  8
DANMEN
  6
CONTINUOUS
 10
47.5
 20
31.9
 30
0.0
 11
47.5
 21
31.5
 31
0.0
  0
LINE
  5
17F53
  8
DANMEN
  6
CONTINUOUS
 10
52.552282
 20
45.755789
 30
0.0
 11
48.021146
 21
43.284248
 31
0.0
  0
ARC
  5
17F55
  8
DANMEN
  6
CONTINUOUS
 10
48.5
 20
42.406353
 30
0.0
 40
1.0
 50
118.610582
 51
180.0
  0
LINE
  5
17F57
  8
DANMEN
  6
CONTINUOUS
 10
49.965316
 20
49.837106
 30
0.0
 11
46.943002
 21
49.969063
 31
0.0
  0
LINE
  5
17F58
  8
DANMEN
  6
CONTINUOUS
 10
50.50846
 20
50.814345
 30
0.0
 11
47.211313
 21
50.958301
 31
0.0
  0
ARC
  5
17F5D
  8
DANMEN
  6
CONTINUOUS
 10
46.964812
 20
50.468587
 30
0.0
 40
0.5
 50
180.460936
 51
267.5
  0
LINE
  5
17F60
  8
DANMEN
  6
CONTINUOUS
 10
49.59665
 20
52.856061
 30
0.0
 11
49.509412
 21
50.857964
 31
0.0
  0
LINE
  5
17F62
  8
DANMEN
  6
CONTINUOUS
 10
50.595699
 20
52.812441
 30
0.0
 11
50.48665
 21
50.314821
 31
0.0
  0
ARC
  5
17F63
  8
DANMEN
  6
CONTINUOUS
 10
49.987126
 20
50.33663
 30
0.0
 40
0.5
 50
267.5
 51
357.5
  0
LINE
  5
17F65
  8
DANMEN
  6
CONTINUOUS
 10
49.553031
 20
51.857012
 30
0.0
 11
50.552079
 21
51.813393
 31
0.0
  0
ARC
  5
17F68
  8
DANMEN
  6
CONTINUOUS
 10
50.199997
 20
51.5
 30
0.0
 40
0.5
 50
180.000019
 51
270.000001
  0
ARC
  5
17F6A
  8
DANMEN
  6
CONTINUOUS
 10
51.149994
 20
51.5
 30
0.0
 40
0.5
 50
270.000018
 51
0.0
  0
LINE
  5
17F6C
  8
DANMEN
  6
CONTINUOUS
 10
50.199997
 20
51.0
 30
0.0
 11
51.149994
 21
51.0
 31
0.0
  0
LINE
  5
17F6D
  8
DANMEN
  6
CONTINUOUS
 10
48.919296
 20
51.0
 30
0.0
 11
50.5
 21
51.0
 31
0.0
  0
ARC
  5
17F6E
  8
DANMEN
  6
CONTINUOUS
 10
60.7
 20
42.053939
 30
0.0
 40
1.0
 50
180.0
 51
245.375682
  0
ARC
  5
17F6F
  8
DANMEN
  6
CONTINUOUS
 10
60.2
 20
41.969694
 30
0.0
 40
2.0
 50
180.0
 51
231.706523
  0
ARC
  5
17F70
  8
DANMEN
  6
CONTINUOUS
 10
62.3
 20
42.053939
 30
0.0
 40
1.0
 50
294.624318
 51
0.0
  0
LINE
  5
17F71
  8
DANMEN
  6
CONTINUOUS
 10
67.968917
 20
41.307438
 30
0.0
 11
65.355268
 21
40.171069
 31
0.0
  0
LINE
  5
17F72
  8
DANMEN
  6
CONTINUOUS
 10
64.8
 20
41.448185
 30
0.0
 11
65.355268
 21
40.171069
 31
0.0
  0
ARC
  5
17F73
  8
DANMEN
  6
CONTINUOUS
 10
68.16828
 20
40.848903
 30
0.0
 40
0.5
 50
23.49856
 51
113.49856
  0
ARC
  5
17F75
  8
DANMEN
  6
CONTINUOUS
 10
53.0
 20
31.649994
 30
0.0
 40
1.0
 50
0.0
 51
89.999982
  0
ARC
  5
17F76
  8
DANMEN
  6
CONTINUOUS
 10
60.1
 20
40.7
 30
0.0
 40
0.3
 50
270.0
 51
0.0
  0
LINE
  5
17F77
  8
DANMEN
  6
CONTINUOUS
 10
58.960621
 20
40.4
 30
0.0
 11
60.1
 21
40.4
 31
0.0
  0
LINE
  5
17F78
  8
DANMEN
  6
CONTINUOUS
 10
60.4
 20
40.7
 30
0.0
 11
60.4
 21
40.963068
 31
0.0
  0
ARC
  5
17F79
  8
DANMEN
  6
CONTINUOUS
 10
60.2
 20
40.963068
 30
0.0
 40
0.2
 50
0.0
 51
65.375682
  0
ARC
  5
17F7A
  8
DANMEN
  6
CONTINUOUS
 10
65.018344
 20
39.315802
 30
0.0
 40
1.0
 50
203.49856
 51
293.49856
  0
ARC
  5
17F7B
  8
DANMEN
  6
CONTINUOUS
 10
62.9
 20
40.7
 30
0.0
 40
0.3
 50
180.0
 51
270.0
  0
LINE
  5
17F7C
  8
DANMEN
  6
CONTINUOUS
 10
62.9
 20
40.4
 30
0.0
 11
63.456524
 21
40.4
 31
0.0
  0
ARC
  5
17F7D
  8
DANMEN
  6
CONTINUOUS
 10
62.8
 20
40.963068
 30
0.0
 40
0.2
 50
114.624318
 51
180.0
  0
LINE
  5
17F7E
  8
DANMEN
  6
CONTINUOUS
 10
62.6
 20
40.7
 30
0.0
 11
62.6
 21
40.963068
 31
0.0
  0
LINE
  5
17F82
  8
DANMEN
  6
CONTINUOUS
 10
63.456524
 20
40.4
 30
0.0
 11
64.101274
 21
38.917076
 31
0.0
  0
LINE
  5
17F84
  8
DANMEN
  6
CONTINUOUS
 10
68.626815
 20
39.794273
 30
0.0
 11
65.41707
 21
38.398732
 31
0.0
  0
LINE
  5
17F85
  8
DANMEN
  6
CONTINUOUS
 10
68.626816
 20
41.048266
 30
0.0
 11
68.885987
 21
40.452171
 31
0.0
  0
ARC
  5
17F86
  8
DANMEN
  6
CONTINUOUS
 10
68.427452
 20
40.252808
 30
0.0
 40
0.5
 50
293.49856
 51
23.49856
  0
LINE
  5
17F89
  8
DANMEN
  6
CONTINUOUS
 10
61.0
 20
46.0
 30
0.0
 11
67.0
 21
46.0
 31
0.0
  0
LINE
  5
17F8A
  8
DANMEN
  6
CONTINUOUS
 10
60.7
 20
44.3
 30
0.0
 11
62.3
 21
44.3
 31
0.0
  0
LINE
  5
17F8B
  8
DANMEN
  6
CONTINUOUS
 10
53.50999
 20
46.0
 30
0.0
 11
59.350006
 21
46.0
 31
0.0
  0
LINE
  5
17F8C
  8
DANMEN
  6
CONTINUOUS
 10
53.420742
 20
44.35
 30
0.0
 11
57.2
 21
44.35
 31
0.0
  0
LINE
  5
17F91
  8
DANMEN
  6
CONTINUOUS
 10
59.7
 20
42.053939
 30
0.0
 11
59.7
 21
43.3
 31
0.0
  0
LINE
  5
17F92
  8
DANMEN
  6
CONTINUOUS
 10
58.2
 20
41.969694
 30
0.0
 11
58.2
 21
43.35
 31
0.0
  0
ARC
  5
17F93
  8
DANMEN
  6
CONTINUOUS
 10
60.7
 20
43.3
 30
0.0
 40
1.0
 50
90.0
 51
180.0
  0
ARC
  5
17F94
  8
DANMEN
  6
CONTINUOUS
 10
57.2
 20
43.35
 30
0.0
 40
1.0
 50
0.0
 51
90.0
  0
LINE
  5
17F96
  8
DANMEN
  6
CONTINUOUS
 10
64.8
 20
44.350006
 30
0.0
 11
67.140809
 21
44.350006
 31
0.0
  0
ARC
  5
17F98
  8
DANMEN
  6
CONTINUOUS
 10
62.3
 20
43.3
 30
0.0
 40
1.0
 50
0.0
 51
90.0
  0
LINE
  5
17F99
  8
DANMEN
  6
CONTINUOUS
 10
63.3
 20
42.053939
 30
0.0
 11
63.3
 21
43.3
 31
0.0
  0
LINE
  5
17F9A
  8
DANMEN
  6
CONTINUOUS
 10
64.8
 20
41.448185
 30
0.0
 11
64.8
 21
44.350006
 31
0.0
  0
ARC
  5
17F9E
  8
DANMEN
  6
CONTINUOUS
 10
67.140809
 20
45.350006
 30
0.0
 40
1.0
 50
270.0
 51
294.443955
  0
LINE
  5
17FA1
  8
DANMEN
  6
CONTINUOUS
 10
67.350006
 20
67.000003
 30
0.0
 11
51.649989
 21
66.999999
 31
0.0
  0
LINE
  5
17FA2
  8
DANMEN
  6
CONTINUOUS
 10
54.649989
 20
65.999999
 30
0.0
 11
52.649994
 21
65.999999
 31
0.0
  0
LINE
  5
17FA6
  8
DANMEN
  6
CONTINUOUS
 10
51.649994
 20
65.999999
 30
0.0
 11
52.149994
 21
66.499999
 31
0.0
  0
LINE
  5
17FA7
  8
DANMEN
  6
CONTINUOUS
 10
52.649994
 20
65.999999
 30
0.0
 11
52.149994
 21
66.499999
 31
0.0
  0
ARC
  5
17FAE
  8
DANMEN
  6
CONTINUOUS
 10
59.5
 20
55.0
 30
0.0
 40
3.0
 50
53.130102
 51
126.869903
  0
ARC
  5
17FAF
  8
DANMEN
  6
CONTINUOUS
 10
60.5
 20
57.29129
 30
0.0
 40
0.5
 50
0.000279
 51
66.42195
  0
ARC
  5
17FB0
  8
DANMEN
  6
CONTINUOUS
 10
59.5
 20
57.0
 30
0.0
 40
4.0
 50
0.0
 51
180.000019
  0
LINE
  5
17FB1
  8
DANMEN
  6
CONTINUOUS
 10
55.299999
 20
55.0
 30
0.0
 11
57.5
 21
55.0
 31
0.0
  0
ARC
  5
17FB2
  8
DANMEN
  6
CONTINUOUS
 10
58.0
 20
57.0
 30
0.0
 40
0.5
 50
126.869907
 51
180.000009
  0
LINE
  5
17FB4
  8
DANMEN
  6
CONTINUOUS
 10
58.0
 20
57.29129
 30
0.0
 11
58.0
 21
56.152954
 31
0.0
  0
ARC
  5
17FB6
  8
DANMEN
  6
CONTINUOUS
 10
59.5
 20
55.0
 30
0.0
 40
3.0
 50
66.421841
 51
113.578178
  0
ARC
  5
17FB7
  8
DANMEN
  6
CONTINUOUS
 10
58.5
 20
57.29129
 30
0.0
 40
0.5
 50
113.578068
 51
179.999745
  0
LINE
  5
17FBC
  8
DANMEN
  6
CONTINUOUS
 10
59.264431
 20
54.126784
 30
0.0
 11
58.085579
 21
55.873223
 31
0.0
  0
ARC
  5
17FBD
  8
DANMEN
  6
CONTINUOUS
 10
58.850006
 20
53.847046
 30
0.0
 40
0.5
 50
0.000664
 51
34.020021
  0
ARC
  5
17FBE
  8
DANMEN
  6
CONTINUOUS
 10
58.5
 20
56.152954
 30
0.0
 40
0.5
 50
180.000309
 51
214.019733
  0
ARC
  5
17FBF
  8
DANMEN
  6
CONTINUOUS
 10
61.0
 20
57.0
 30
0.0
 40
0.5
 50
359.999997
 51
53.130102
  0
LINE
  5
17FC0
  8
DANMEN
  6
CONTINUOUS
 10
63.700001
 20
55.0
 30
0.0
 11
61.5
 21
55.0
 31
0.0
  0
LINE
  5
17FC4
  8
DANMEN
  6
CONTINUOUS
 10
64.350001
 20
65.050006
 30
0.0
 11
54.649988
 21
65.050002
 31
0.0
  0
LINE
  5
17FC5
  8
DANMEN
  6
CONTINUOUS
 10
55.100001
 20
68.500003
 30
0.0
 11
55.299998
 21
68.300005
 31
0.0
  0
LINE
  5
17FC8
  8
DANMEN
  6
CONTINUOUS
 10
54.649994
 20
66.0
 30
0.0
 11
54.649994
 21
65.050003
 31
0.0
  0
LINE
  5
17FC9
  8
DANMEN
  6
CONTINUOUS
 10
66.350006
 20
66.000003
 30
0.0
 11
64.350001
 21
66.000002
 31
0.0
  0
LINE
  5
17FCA
  8
DANMEN
  6
CONTINUOUS
 10
63.899994
 20
68.500002
 30
0.0
 11
63.699998
 21
68.300006
 31
0.0
  0
LINE
  5
17FCD
  8
DANMEN
  6
CONTINUOUS
 10
64.350006
 20
66.0
 30
0.0
 11
64.350006
 21
65.050003
 31
0.0
  0
LINE
  5
17FCE
  8
DANMEN
  6
CONTINUOUS
 10
66.850006
 20
66.500003
 30
0.0
 11
66.350006
 21
66.000003
 31
0.0
  0
LINE
  5
17FCF
  8
DANMEN
  6
CONTINUOUS
 10
67.350006
 20
66.000003
 30
0.0
 11
66.850006
 21
66.500003
 31
0.0
  0
LINE
  5
17FD6
  8
DANMEN
  6
CONTINUOUS
 10
67.350006
 20
68.000003
 30
0.0
 11
67.350006
 21
67.0
 31
0.0
  0
LINE
  5
17FD7
  8
DANMEN
  6
CONTINUOUS
 10
47.5
 20
109.5
 30
0.0
 11
33.500005
 21
109.5
 31
0.0
  0
LINE
  5
17FD8
  8
DANMEN
  6
CONTINUOUS
 10
47.2
 20
108.0
 30
0.0
 11
34.500005
 21
108.0
 31
0.0
  0
LINE
  5
17FD9
  8
DANMEN
  6
CONTINUOUS
 10
34.5
 20
108.0
 30
0.0
 11
49.699997
 21
108.0
 31
0.0
  0
LINE
  5
17FDA
  8
DANMEN
  6
CONTINUOUS
 10
33.500005
 20
109.5
 30
0.0
 11
33.500005
 21
109.0
 31
0.0
  0
ARC
  5
17FDC
  8
DANMEN
  6
CONTINUOUS
 10
34.500005
 20
109.0
 30
0.0
 40
1.0
 50
180.0
 51
270.0
  0
ARC
  5
17FDF
  8
DANMEN
  6
CONTINUOUS
 10
34.5
 20
109.0
 30
0.0
 40
1.0
 50
180.0
 51
270.0
  0
LINE
  5
17FE2
  8
DANMEN
  6
CONTINUOUS
 10
33.5
 20
109.5
 30
0.0
 11
35.699997
 21
109.5
 31
0.0
  0
LINE
  5
17FE3
  8
DANMEN
  6
CONTINUOUS
 10
33.5
 20
109.5
 30
0.0
 11
33.5
 21
109.0
 31
0.0
  0
LINE
  5
17FE4
  8
DANMEN
  6
CONTINUOUS
 10
67.350006
 20
103.0
 30
0.0
 11
67.350006
 21
79.050003
 31
0.0
  0
LINE
  5
17FE5
  8
DANMEN
  6
CONTINUOUS
 10
55.100001
 20
86.500005
 30
0.0
 11
55.299998
 21
86.700002
 31
0.0
  0
ARC
  5
17FE6
  8
DANMEN
  6
CONTINUOUS
 10
68.350006
 20
79.050003
 30
0.0
 40
1.0
 50
180.000019
 51
270.000001
  0
LINE
  5
17FE8
  8
DANMEN
  6
CONTINUOUS
 10
63.899994
 20
86.500006
 30
0.0
 11
63.699998
 21
86.700002
 31
0.0
  0
ARC
  5
17FE9
  8
DANMEN
  6
CONTINUOUS
 10
59.5
 20
100.000008
 30
0.0
 40
3.0
 50
233.130097
 51
306.869898
  0
ARC
  5
17FEA
  8
DANMEN
  6
CONTINUOUS
 10
58.0
 20
98.000008
 30
0.0
 40
0.5
 50
179.999991
 51
233.130093
  0
ARC
  5
17FEB
  8
DANMEN
  6
CONTINUOUS
 10
61.0
 20
98.000008
 30
0.0
 40
0.5
 50
306.869898
 51
0.000003
  0
LINE
  5
17FEC
  8
DANMEN
  6
CONTINUOUS
 10
51.649994
 20
104.199997
 30
0.0
 11
56.199997
 21
104.199997
 31
0.0
  0
LINE
  5
17FED
  8
DANMEN
  6
CONTINUOUS
 10
51.649994
 20
103.0
 30
0.0
 11
57.699997
 21
103.0
 31
0.0
  0
LINE
  5
17FEE
  8
DANMEN
  6
CONTINUOUS
 10
37.649994
 20
109.949997
 30
0.0
 11
50.649994
 21
109.949997
 31
0.0
  0
LINE
  5
17FF0
  8
DANMEN
  6
CONTINUOUS
 10
51.649994
 20
108.949997
 30
0.0
 11
51.649994
 21
104.199997
 31
0.0
  0
LINE
  5
17FF3
  8
DANMEN
  6
CONTINUOUS
 10
47.5
 20
109.5
 30
0.0
 11
47.5
 21
108.0
 31
0.0
  0
LINE
  5
17FF5
  8
DANMEN
  6
CONTINUOUS
 10
47.2
 20
109.5
 30
0.0
 11
47.2
 21
107.993429
 31
0.0
  0
ARC
  5
17FF9
  8
DANMEN
  6
CONTINUOUS
 10
50.649994
 20
108.949997
 30
0.0
 40
1.0
 50
0.0
 51
89.999982
  0
ARC
  5
17FFC
  8
DANMEN
  6
CONTINUOUS
 10
60.2
 20
107.3
 30
0.0
 40
1.0
 50
0.0
 51
90.0
  0
LINE
  5
17FFD
  8
DANMEN
  6
CONTINUOUS
 10
58.699997
 20
110.0
 30
0.0
 11
67.350006
 21
110.0
 31
0.0
  0
ARC
  5
17FFE
  8
DANMEN
  6
CONTINUOUS
 10
58.7
 20
105.8
 30
0.0
 40
1.0
 50
180.0
 51
270.0
  0
LINE
  5
17FFF
  8
DANMEN
  6
CONTINUOUS
 10
56.199997
 20
107.5
 30
0.0
 11
56.199997
 21
104.199997
 31
0.0
  0
LINE
  5
18000
  8
DANMEN
  6
CONTINUOUS
 10
55.299999
 20
100.000008
 30
0.0
 11
57.5
 21
100.000008
 31
0.0
  0
LINE
  5
18003
  8
DANMEN
  6
CONTINUOUS
 10
58.7
 20
104.8
 30
0.0
 11
59.333705
 21
104.8
 31
0.0
  0
LINE
  5
18004
  8
DANMEN
  6
CONTINUOUS
 10
57.699997
 20
103.3
 30
0.0
 11
59.333705
 21
103.3
 31
0.0
  0
ARC
  5
18005
  8
DANMEN
  6
CONTINUOUS
 10
59.333705
 20
104.05
 30
0.0
 40
0.75
 50
270.0
 51
90.0
  0
LINE
  5
18007
  8
DANMEN
  6
CONTINUOUS
 10
57.699997
 20
103.300003
 30
0.0
 11
57.699997
 21
103.0
 31
0.0
  0
ARC
  5
18008
  8
DANMEN
  6
CONTINUOUS
 10
58.699997
 20
107.5
 30
0.0
 40
2.5
 50
89.999982
 51
180.000019
  0
LINE
  5
1800B
  8
DANMEN
  6
CONTINUOUS
 10
58.7
 20
108.3
 30
0.0
 11
60.2
 21
108.3
 31
0.0
  0
LINE
  5
1800C
  8
DANMEN
  6
CONTINUOUS
 10
57.7
 20
105.8
 30
0.0
 11
57.7
 21
107.3
 31
0.0
  0
ARC
  5
1800D
  8
DANMEN
  6
CONTINUOUS
 10
58.7
 20
107.3
 30
0.0
 40
1.0
 50
90.0
 51
180.0
  0
LINE
  5
1800F
  8
DANMEN
  6
CONTINUOUS
 10
67.350006
 20
108.350006
 30
0.0
 11
67.350006
 21
104.199997
 31
0.0
  0
ARC
  5
18010
  8
DANMEN
  6
CONTINUOUS
 10
65.300003
 20
103.699997
 30
0.0
 40
0.5
 50
89.999982
 51
180.000019
  0
LINE
  5
18011
  8
DANMEN
  6
CONTINUOUS
 10
64.800003
 20
103.0
 30
0.0
 11
67.350006
 21
103.0
 31
0.0
  0
LINE
  5
18012
  8
DANMEN
  6
CONTINUOUS
 10
63.700001
 20
100.000008
 30
0.0
 11
61.5
 21
100.000008
 31
0.0
  0
LINE
  5
18015
  8
DANMEN
  6
CONTINUOUS
 10
64.800003
 20
103.699997
 30
0.0
 11
64.800003
 21
103.0
 31
0.0
  0
LINE
  5
18018
  8
DANMEN
  6
CONTINUOUS
 10
65.300003
 20
104.199997
 30
0.0
 11
67.350006
 21
104.199997
 31
0.0
  0
LINE
  5
18019
  8
DANMEN
  6
CONTINUOUS
 10
63.699997
 20
108.350006
 30
0.0
 11
67.350006
 21
108.350006
 31
0.0
  0
ARC
  5
1801B
  8
DANMEN
  6
CONTINUOUS
 10
63.7
 20
107.350006
 30
0.0
 40
1.0
 50
90.0
 51
180.0
  0
LINE
  5
1801D
  8
DANMEN
  6
CONTINUOUS
 10
61.2
 20
106.666295
 30
0.0
 11
61.2
 21
107.3
 31
0.0
  0
LINE
  5
1801E
  8
DANMEN
  6
CONTINUOUS
 10
62.7
 20
106.666295
 30
0.0
 11
62.7
 21
107.350006
 31
0.0
  0
ARC
  5
1801F
  8
DANMEN
  6
CONTINUOUS
 10
61.95
 20
106.666295
 30
0.0
 40
0.75
 50
180.0
 51
0.0
  0
LINE
  5
18021
  8
DANMEN
  6
CONTINUOUS
 10
79.5
 20
90.5
 30
0.0
 11
79.5
 21
74.0
 31
0.0
  0
LINE
  5
18022
  8
DANMEN
  6
CONTINUOUS
 10
81.3
 20
88.0
 30
0.0
 11
81.3
 21
71.0
 31
0.0
  0
LINE
  5
18023
  8
DANMEN
  6
CONTINUOUS
 10
110.5
 20
90.5
 30
0.0
 11
110.5
 21
56.5
 31
0.0
  0
LINE
  5
18024
  8
DANMEN
  6
CONTINUOUS
 10
108.85
 20
84.2
 30
0.0
 11
108.85
 21
73.0
 31
0.0
  0
LINE
  5
18025
  8
DANMEN
  6
CONTINUOUS
 10
69.550003
 20
78.050003
 30
0.0
 11
69.550003
 21
68.000004
 31
0.0
  0
LINE
  5
18026
  8
DANMEN
  6
CONTINUOUS
 10
71.5
 20
79.5
 30
0.0
 11
71.5
 21
66.500005
 31
0.0
  0
LINE
  5
18027
  8
DANMEN
  6
CONTINUOUS
 10
71.5
 20
91.0
 30
0.0
 11
79.5
 21
74.0
 31
0.0
  0
LINE
  5
18028
  8
DANMEN
  6
CONTINUOUS
 10
79.5
 20
91.0
 30
0.0
 11
71.5
 21
74.0
 31
0.0
  0
LINE
  5
18029
  8
DANMEN
  6
CONTINUOUS
 10
97.55
 20
73.0
 30
0.0
 11
108.85
 21
73.0
 31
0.0
  0
LINE
  5
1802A
  8
DANMEN
  6
CONTINUOUS
 10
98.7
 20
71.35
 30
0.0
 11
108.850006
 21
71.35
 31
0.0
  0
LINE
  5
1802B
  8
DANMEN
  6
CONTINUOUS
 10
71.5
 20
66.500005
 30
0.0
 11
71.5
 21
51.0
 31
0.0
  0
LINE
  5
1802C
  8
DANMEN
  6
CONTINUOUS
 10
81.3
 20
71.0
 30
0.0
 11
97.05
 21
71.0
 31
0.0
  0
LINE
  5
1802D
  8
DANMEN
  6
CONTINUOUS
 10
85.0
 20
68.5
 30
0.0
 11
91.0
 21
68.5
 31
0.0
  0
LINE
  5
1802E
  8
DANMEN
  6
CONTINUOUS
 10
75.0
 20
66.0
 30
0.0
 11
77.500003
 21
66.0
 31
0.0
  0
LINE
  5
1802F
  8
DANMEN
  6
CONTINUOUS
 10
75.0
 20
74.0
 30
0.0
 11
79.5
 21
74.0
 31
0.0
  0
LINE
  5
18030
  8
DANMEN
  6
CONTINUOUS
 10
73.082434
 20
73.4
 30
0.0
 11
72.1
 21
70.217126
 31
0.0
  0
LINE
  5
18031
  8
DANMEN
  6
CONTINUOUS
 10
71.5
 20
70.305709
 30
0.0
 11
71.5
 21
69.394291
 31
0.0
  0
LINE
  5
18032
  8
DANMEN
  6
CONTINUOUS
 10
75.7
 20
70.7
 30
0.0
 11
75.7
 21
69.0
 31
0.0
  0
LINE
  5
18033
  8
DANMEN
  6
CONTINUOUS
 10
73.7
 20
73.4
 30
0.0
 11
73.7
 21
66.3
 31
0.0
  0
LINE
  5
18034
  8
DANMEN
  6
CONTINUOUS
 10
77.000003
 20
73.0
 30
0.0
 11
77.000003
 21
66.8
 31
0.0
  0
LINE
  5
18035
  8
DANMEN
  6
CONTINUOUS
 10
73.082434
 20
66.3
 30
0.0
 11
73.7
 21
66.3
 31
0.0
  0
LINE
  5
18036
  8
DANMEN
  6
CONTINUOUS
 10
72.827478
 20
65.7
 30
0.0
 11
74.5
 21
65.7
 31
0.0
  0
LINE
  5
1803A
  8
DANMEN
  6
CONTINUOUS
 10
72.1
 20
69.482873
 30
0.0
 11
73.082434
 21
66.3
 31
0.0
  0
LINE
  5
1803B
  8
DANMEN
  6
CONTINUOUS
 10
72.1
 20
70.217126
 30
0.0
 11
72.1
 21
69.482873
 31
0.0
  0
ARC
  5
1803D
  8
DANMEN
  6
CONTINUOUS
 10
71.7
 20
69.394291
 30
0.0
 40
0.2
 50
180.0
 51
204.97391
  0
ARC
  5
1803F
  8
DANMEN
  6
CONTINUOUS
 10
72.827478
 20
65.9
 30
0.0
 40
0.2
 50
204.97391
 51
270.0
  0
LINE
  5
18040
  8
DANMEN
  6
CONTINUOUS
 10
71.5187
 20
69.30985
 30
0.0
 11
72.646178
 21
65.815559
 31
0.0
  0
ARC
  5
18044
  8
DANMEN
  6
CONTINUOUS
 10
71.0
 20
66.500005
 30
0.0
 40
0.5
 50
270.0
 51
0.0
  0
LINE
  5
1804C
  8
DANMEN
  6
CONTINUOUS
 10
74.5
 20
68.2
 30
0.0
 11
75.5
 21
68.2
 31
0.0
  0
LINE
  5
1804D
  8
DANMEN
  6
CONTINUOUS
 10
75.5
 20
68.2
 30
0.0
 11
75.5
 21
67.2
 31
0.0
  0
LINE
  5
1804E
  8
DANMEN
  6
CONTINUOUS
 10
75.7
 20
69.0
 30
0.0
 11
76.5
 21
68.2
 31
0.0
  0
LINE
  5
18050
  8
DANMEN
  6
CONTINUOUS
 10
76.5
 20
68.2
 30
0.0
 11
76.5
 21
67.2
 31
0.0
  0
ARC
  5
18052
  8
DANMEN
  6
CONTINUOUS
 10
75.7
 20
67.2
 30
0.0
 40
0.2
 50
180.000019
 51
270.000001
  0
ARC
  5
18054
  8
DANMEN
  6
CONTINUOUS
 10
76.3
 20
67.2
 30
0.0
 40
0.2
 50
270.000018
 51
0.0
  0
LINE
  5
18056
  8
DANMEN
  6
CONTINUOUS
 10
74.5
 20
68.2
 30
0.0
 11
74.5
 21
65.7
 31
0.0
  0
LINE
  5
18057
  8
DANMEN
  6
CONTINUOUS
 10
75.7
 20
67.0
 30
0.0
 11
76.3
 21
67.0
 31
0.0
  0
LINE
  5
18059
  8
DANMEN
  6
CONTINUOUS
 10
74.5
 20
67.699997
 30
0.0
 11
74.5
 21
66.5
 31
0.0
  0
LINE
  5
1805A
  8
DANMEN
  6
CONTINUOUS
 10
75.300003
 20
68.199997
 30
0.0
 11
75.300003
 21
66.8
 31
0.0
  0
ARC
  5
1805B
  8
DANMEN
  6
CONTINUOUS
 10
75.0
 20
66.5
 30
0.0
 40
0.5
 50
180.000019
 51
270.000001
  0
ARC
  5
1805C
  8
DANMEN
  6
CONTINUOUS
 10
75.0
 20
67.699997
 30
0.0
 40
0.5
 50
89.999982
 51
180.000019
  0
LINE
  5
1805D
  8
DANMEN
  6
CONTINUOUS
 10
75.0
 20
68.199997
 30
0.0
 11
75.300003
 21
68.199997
 31
0.0
  0
LINE
  5
1805E
  8
DANMEN
  6
CONTINUOUS
 10
75.300003
 20
66.8
 30
0.0
 11
77.0
 21
66.8
 31
0.0
  0
LINE
  5
18064
  8
DANMEN
  6
CONTINUOUS
 10
73.082434
 20
73.4
 30
0.0
 11
73.7
 21
73.4
 31
0.0
  0
LINE
  5
18065
  8
DANMEN
  6
CONTINUOUS
 10
72.827478
 20
74.0
 30
0.0
 11
74.5
 21
74.0
 31
0.0
  0
ARC
  5
18068
  8
DANMEN
  6
CONTINUOUS
 10
71.7
 20
70.305709
 30
0.0
 40
0.2
 50
155.02609
 51
180.0
  0
ARC
  5
1806A
  8
DANMEN
  6
CONTINUOUS
 10
72.827478
 20
73.8
 30
0.0
 40
0.2
 50
90.0
 51
155.02609
  0
LINE
  5
1806B
  8
DANMEN
  6
CONTINUOUS
 10
72.646178
 20
73.884441
 30
0.0
 11
71.5187
 21
70.39015
 31
0.0
  0
LINE
  5
18071
  8
DANMEN
  6
CONTINUOUS
 10
74.5
 20
74.0
 30
0.0
 11
74.5
 21
71.5
 31
0.0
  0
LINE
  5
18073
  8
DANMEN
  6
CONTINUOUS
 10
74.5
 20
71.5
 30
0.0
 11
75.5
 21
71.5
 31
0.0
  0
LINE
  5
18074
  8
DANMEN
  6
CONTINUOUS
 10
76.5
 20
71.5
 30
0.0
 11
75.7
 21
70.7
 31
0.0
  0
ARC
  5
18076
  8
DANMEN
  6
CONTINUOUS
 10
75.7
 20
72.5
 30
0.0
 40
0.2
 50
89.999982
 51
180.000019
  0
ARC
  5
18078
  8
DANMEN
  6
CONTINUOUS
 10
76.3
 20
72.5
 30
0.0
 40
0.2
 50
0.0
 51
89.999982
  0
LINE
  5
1807A
  8
DANMEN
  6
CONTINUOUS
 10
75.5
 20
72.5
 30
0.0
 11
75.5
 21
71.5
 31
0.0
  0
LINE
  5
1807B
  8
DANMEN
  6
CONTINUOUS
 10
75.7
 20
72.7
 30
0.0
 11
76.3
 21
72.7
 31
0.0
  0
LINE
  5
1807C
  8
DANMEN
  6
CONTINUOUS
 10
76.5
 20
72.5
 30
0.0
 11
76.5
 21
71.5
 31
0.0
  0
LINE
  5
1807D
  8
DANMEN
  6
CONTINUOUS
 10
74.5
 20
73.5
 30
0.0
 11
74.5
 21
72.300003
 31
0.0
  0
LINE
  5
1807E
  8
DANMEN
  6
CONTINUOUS
 10
75.0
 20
71.800003
 30
0.0
 11
75.300003
 21
71.800003
 31
0.0
  0
LINE
  5
1807F
  8
DANMEN
  6
CONTINUOUS
 10
75.300003
 20
73.0
 30
0.0
 11
75.300003
 21
71.800003
 31
0.0
  0
ARC
  5
18080
  8
DANMEN
  6
CONTINUOUS
 10
75.0
 20
72.300003
 30
0.0
 40
0.5
 50
180.000019
 51
270.000001
  0
LINE
  5
18081
  8
DANMEN
  6
CONTINUOUS
 10
75.300003
 20
73.0
 30
0.0
 11
77.0
 21
73.0
 31
0.0
  0
ARC
  5
18082
  8
DANMEN
  6
CONTINUOUS
 10
75.0
 20
73.5
 30
0.0
 40
0.5
 50
89.999982
 51
180.000019
  0
LINE
  5
18088
  8
DANMEN
  6
CONTINUOUS
 10
78.0
 20
72.2
 30
0.0
 11
78.0
 21
66.5
 31
0.0
  0
LINE
  5
18089
  8
DANMEN
  6
CONTINUOUS
 10
79.5
 20
70.2
 30
0.0
 11
79.5
 21
72.2
 31
0.0
  0
LINE
  5
1808A
  8
DANMEN
  6
CONTINUOUS
 10
80.5
 20
69.2
 30
0.0
 11
84.0
 21
69.2
 31
0.0
  0
ARC
  5
1808B
  8
DANMEN
  6
CONTINUOUS
 10
77.5
 20
66.5
 30
0.0
 40
0.5
 50
270.000018
 51
0.0
  0
ARC
  5
1808D
  8
DANMEN
  6
CONTINUOUS
 10
80.5
 20
70.2
 30
0.0
 40
1.0
 50
180.0
 51
270.0
  0
LINE
  5
18093
  8
DANMEN
  6
CONTINUOUS
 10
85.0
 20
68.5
 30
0.0
 11
84.0
 21
69.2
 31
0.0
  0
LINE
  5
18096
  8
DANMEN
  6
CONTINUOUS
 10
78.0
 20
72.2
 30
0.0
 11
79.5
 21
72.2
 31
0.0
  0
LINE
  5
18099
  8
DANMEN
  6
CONTINUOUS
 10
92.0
 20
69.2
 30
0.0
 11
92.0
 21
57.003636
 31
0.0
  0
ARC
  5
1809A
  8
DANMEN
  6
CONTINUOUS
 10
95.333705
 20
65.05
 30
0.0
 40
0.75
 50
270.0
 51
90.0
  0
ARC
  5
1809B
  8
DANMEN
  6
CONTINUOUS
 10
94.65
 20
63.3
 30
0.0
 40
1.0
 50
90.0
 51
180.0
  0
LINE
  5
1809C
  8
DANMEN
  6
CONTINUOUS
 10
93.65
 20
63.3
 30
0.0
 11
93.65
 21
56.585093
 31
0.0
  0
ARC
  5
1809E
  8
DANMEN
  6
CONTINUOUS
 10
92.65
 20
56.585093
 30
0.0
 40
1.0
 50
294.443955
 51
0.0
  0
LINE
  5
180A0
  8
DANMEN
  6
CONTINUOUS
 10
94.65
 20
64.3
 30
0.0
 11
95.333705
 21
64.3
 31
0.0
  0
ARC
  5
180A1
  8
DANMEN
  6
CONTINUOUS
 10
94.7
 20
68.3
 30
0.0
 40
1.0
 50
90.0
 51
180.0
  0
ARC
  5
180A2
  8
DANMEN
  6
CONTINUOUS
 10
94.7
 20
66.8
 30
0.0
 40
1.0
 50
180.0
 51
270.0
  0
LINE
  5
180A3
  8
DANMEN
  6
CONTINUOUS
 10
93.7
 20
66.8
 30
0.0
 11
93.7
 21
68.3
 31
0.0
  0
LINE
  5
180A8
  8
DANMEN
  6
CONTINUOUS
 10
92.0
 20
69.2
 30
0.0
 11
91.0
 21
68.5
 31
0.0
  0
LINE
  5
180A9
  8
DANMEN
  6
CONTINUOUS
 10
98.7
 20
67.666295
 30
0.0
 11
98.7
 21
71.35
 31
0.0
  0
ARC
  5
180AA
  8
DANMEN
  6
CONTINUOUS
 10
97.95
 20
67.666295
 30
0.0
 40
0.75
 50
180.0
 51
0.0
  0
LINE
  5
180AB
  8
DANMEN
  6
CONTINUOUS
 10
94.7
 20
69.3
 30
0.0
 11
96.2
 21
69.3
 31
0.0
  0
LINE
  5
180AC
  8
DANMEN
  6
CONTINUOUS
 10
97.2
 20
67.666295
 30
0.0
 11
97.2
 21
68.3
 31
0.0
  0
LINE
  5
180AD
  8
DANMEN
  6
CONTINUOUS
 10
94.7
 20
65.8
 30
0.0
 11
95.333705
 21
65.8
 31
0.0
  0
ARC
  5
180AE
  8
DANMEN
  6
CONTINUOUS
 10
96.2
 20
68.3
 30
0.0
 40
1.0
 50
0.0
 51
90.0
  0
LINE
  5
180B0
  8
DANMEN
  6
CONTINUOUS
 10
97.05
 20
71.0
 30
0.0
 11
97.05
 21
72.5
 31
0.0
  0
ARC
  5
180B1
  8
DANMEN
  6
CONTINUOUS
 10
97.55
 20
72.5
 30
0.0
 40
0.5
 50
90.0
 51
180.0
  0
LINE
  5
180B4
  8
DANMEN
  6
CONTINUOUS
 10
110.5
 20
56.5
 30
0.0
 11
110.5
 21
31.0
 31
0.0
  0
LINE
  5
180B5
  8
DANMEN
  6
CONTINUOUS
 10
108.850006
 20
71.35
 30
0.0
 11
108.850006
 21
59.08182
 31
0.0
  0
ARC
  5
180B6
  8
DANMEN
  6
CONTINUOUS
 10
110.0
 20
56.5
 30
0.0
 40
0.5
 50
270.0
 51
0.0
  0
LINE
  5
180B7
  8
DANMEN
  6
CONTINUOUS
 10
108.850006
 20
59.08182
 30
0.0
 11
105.715287
 21
57.718899
 31
0.0
  0
ARC
  5
180B8
  8
DANMEN
  6
CONTINUOUS
 10
106.173822
 20
56.664268
 30
0.0
 40
0.5
 50
203.49856
 51
293.49856
  0
LINE
  5
180B9
  8
DANMEN
  6
CONTINUOUS
 10
105.715287
 20
56.464905
 30
0.0
 11
105.456115
 21
57.061001
 31
0.0
  0
ARC
  5
180BA
  8
DANMEN
  6
CONTINUOUS
 10
105.91465
 20
57.260364
 30
0.0
 40
0.5
 50
113.49856
 51
203.49856
  0
LINE
  5
180BD
  8
DANMEN
  6
CONTINUOUS
 10
109.4
 20
56.0
 30
0.0
 11
110.0
 21
56.0
 31
0.0
  0
LINE
  5
180BE
  8
DANMEN
  6
CONTINUOUS
 10
109.4
 20
56.759133
 30
0.0
 11
109.4
 21
56.0
 31
0.0
  0
LINE
  5
180C0
  8
DANMEN
  6
CONTINUOUS
 10
108.700637
 20
57.217668
 30
0.0
 11
106.373185
 21
56.205733
 31
0.0
  0
ARC
  5
180C1
  8
DANMEN
  6
CONTINUOUS
 10
108.9
 20
56.759133
 30
0.0
 40
0.5
 50
0.0
 51
113.49856
  0
LINE
  5
180CA
  8
DANMEN
  6
CONTINUOUS
 10
97.5
 20
84.2
 30
0.0
 11
108.85
 21
84.2
 31
0.0
  0
LINE
  5
180CB
  8
DANMEN
  6
CONTINUOUS
 10
99.5
 20
86.0
 30
0.0
 11
108.85
 21
86.0
 31
0.0
  0
LINE
  5
180CC
  8
DANMEN
  6
CONTINUOUS
 10
106.510724
 20
108.588311
 30
0.0
 11
98.563599
 21
95.650005
 31
0.0
  0
LINE
  5
180CD
  8
DANMEN
  6
CONTINUOUS
 10
81.15
 20
111.000003
 30
0.0
 11
107.05
 21
111.000003
 31
0.0
  0
LINE
  5
180CE
  8
DANMEN
  6
CONTINUOUS
 10
106.084676
 20
109.350003
 30
0.0
 11
93.799997
 21
109.350003
 31
0.0
  0
LINE
  5
180CF
  8
DANMEN
  6
CONTINUOUS
 10
108.7
 20
109.000003
 30
0.0
 11
100.5
 21
95.650005
 31
0.0
  0
LINE
  5
180D0
  8
DANMEN
  6
CONTINUOUS
 10
81.15
 20
109.350003
 30
0.0
 11
81.15
 21
92.65
 31
0.0
  0
LINE
  5
180D1
  8
DANMEN
  6
DASHED
 10
95.5
 20
91.0
 30
0.0
 11
83.5
 21
91.0
 31
0.0
  0
LINE
  5
180D2
  8
DANMEN
  6
DASHED
 10
99.5
 20
92.199997
 30
0.0
 11
75.0
 21
92.199997
 31
0.0
  0
LINE
  5
180D3
  8
DANMEN
  6
DASHED
 10
83.0
 20
86.399997
 30
0.0
 11
83.0
 21
90.5
 31
0.0
  0
ARC
  5
180D4
  8
DANMEN
  6
DASHED
 10
81.799999
 20
87.500028
 30
0.0
 40
0.3
 50
124.343976
 51
202.988532
  0
LINE
  5
180D5
  8
DANMEN
  6
CONTINUOUS
 10
83.5
 20
91.649995
 30
0.0
 11
83.5
 21
80.499997
 31
0.0
  0
LINE
  5
180D6
  8
DANMEN
  6
CONTINUOUS
 10
82.0
 20
80.999996
 30
0.0
 11
82.0
 21
91.0
 31
0.0
  0
ARC
  5
180D7
  8
DANMEN
  6
CONTINUOUS
 10
71.0
 20
79.5
 30
0.0
 40
0.5
 50
0.0
 51
89.999982
  0
LINE
  5
180DB
  8
DANMEN
  6
CONTINUOUS
 10
69.300003
 20
80.0
 30
0.0
 11
71.0
 21
80.0
 31
0.0
  0
LINE
  5
180E0
  8
DANMEN
  6
CONTINUOUS
 10
83.5
 20
80.499997
 30
0.0
 11
82.5
 21
80.499996
 31
0.0
  0
ARC
  5
180E1
  8
DANMEN
  6
CONTINUOUS
 10
82.5
 20
80.999996
 30
0.0
 40
0.5
 50
180.0
 51
270.0
  0
LINE
  5
180E2
  8
DANMEN
  6
DASHED
 10
81.523824
 20
87.382864
 30
0.0
 11
82.923825
 21
84.082833
 31
0.0
  0
LINE
  5
180E4
  8
DANMEN
  6
DASHED
 10
83.0
 20
86.399997
 30
0.0
 11
83.492312
 21
84.26748
 31
0.0
  0
ARC
  5
180E5
  8
DANMEN
  6
DASHED
 10
83.2
 20
84.199997
 30
0.0
 40
0.3
 50
202.988532
 51
12.999521
  0
LINE
  5
180EA
  8
DANMEN
  6
DASHED
 10
82.0
 20
91.0
 30
0.0
 11
76.214146
 21
91.0
 31
0.0
  0
LINE
  5
180EB
  8
DANMEN
  6
CONTINUOUS
 10
71.5
 20
91.0
 30
0.0
 11
79.5
 21
91.0
 31
0.0
  0
ARC
  5
180EC
  8
DANMEN
  6
DASHED
 10
76.214146
 20
90.0
 30
0.0
 40
1.0
 50
89.999982
 51
135.573244
  0
LINE
  5
180ED
  8
DANMEN
  6
DASHED
 10
75.5
 20
90.699997
 30
0.0
 11
75.0
 21
90.699997
 31
0.0
  0
LINE
  5
180EE
  8
DANMEN
  6
DASHED
 10
74.5
 20
91.699997
 30
0.0
 11
74.5
 21
91.199997
 31
0.0
  0
ARC
  5
180EF
  8
DANMEN
  6
DASHED
 10
75.0
 20
91.699997
 30
0.0
 40
0.5
 50
90.0
 51
180.0
  0
ARC
  5
180F0
  8
DANMEN
  6
DASHED
 10
75.0
 20
91.199997
 30
0.0
 40
0.5
 50
180.0
 51
270.0
  0
ARC
  5
180F5
  8
DANMEN
  6
CONTINUOUS
 10
81.5
 20
90.5
 30
0.0
 40
0.5
 50
0.0
 51
90.0
  0
LINE
  5
180F6
  8
DANMEN
  6
CONTINUOUS
 10
81.3
 20
88.0
 30
0.0
 11
82.0
 21
88.0
 31
0.0
  0
LINE
  5
180F7
  8
DANMEN
  6
CONTINUOUS
 10
81.15
 20
92.65
 30
0.0
 11
82.5
 21
92.65
 31
0.0
  0
LINE
  5
180F8
  8
DANMEN
  6
CONTINUOUS
 10
80.0
 20
91.0
 30
0.0
 11
82.0
 21
91.0
 31
0.0
  0
LINE
  5
180F9
  8
DANMEN
  6
CONTINUOUS
 10
80.0
 20
91.0
 30
0.0
 11
81.5
 21
91.0
 31
0.0
  0
ARC
  5
180FA
  8
DANMEN
  6
CONTINUOUS
 10
80.0
 20
90.5
 30
0.0
 40
0.5
 50
90.0
 51
180.0
  0
ARC
  5
180FF
  8
DANMEN
  6
CONTINUOUS
 10
80.0
 20
91.5
 30
0.0
 40
0.5
 50
180.0
 51
270.0
  0
ARC
  5
18101
  8
DANMEN
  6
DASHED
 10
83.5
 20
90.5
 30
0.0
 40
0.5
 50
90.0
 51
180.0
  0
LINE
  5
18102
  8
DANMEN
  6
DASHED
 10
82.0
 20
91.0
 30
0.0
 11
82.0
 21
88.000035
 31
0.0
  0
LINE
  5
18103
  8
DANMEN
  6
DASHED
 10
82.0
 20
88.000035
 30
0.0
 11
81.630743
 21
87.747729
 31
0.0
  0
LINE
  5
18106
  8
DANMEN
  6
CONTINUOUS
 10
82.0
 20
90.5
 30
0.0
 11
82.0
 21
88.0
 31
0.0
  0
ARC
  5
1810B
  8
DANMEN
  6
CONTINUOUS
 10
82.5
 20
91.65
 30
0.0
 40
1.0
 50
0.0
 51
90.0
  0
LINE
  5
1810C
  8
DANMEN
  6
DASHED
 10
97.0
 20
91.0
 30
0.0
 11
97.0
 21
84.500035
 31
0.0
  0
LINE
  5
1810D
  8
DANMEN
  6
DASHED
 10
96.0
 20
82.899997
 30
0.0
 11
96.0
 21
90.5
 31
0.0
  0
LINE
  5
1810E
  8
DANMEN
  6
CONTINUOUS
 10
99.5
 20
90.0
 30
0.0
 11
99.5
 21
86.0
 31
0.0
  0
LINE
  5
1810F
  8
DANMEN
  6
CONTINUOUS
 10
97.85
 20
85.2
 30
0.0
 11
97.85
 21
88.0
 31
0.0
  0
LINE
  5
18110
  8
DANMEN
  6
CONTINUOUS
 10
95.3
 20
88.850005
 30
0.0
 11
95.3
 21
80.499999
 31
0.0
  0
LINE
  5
18111
  8
DANMEN
  6
CONTINUOUS
 10
96.8
 20
89.500005
 30
0.0
 11
96.8
 21
80.999999
 31
0.0
  0
LINE
  5
18112
  8
DANMEN
  6
DASHED
 10
97.476176
 20
83.882864
 30
0.0
 11
96.076175
 21
80.582833
 31
0.0
  0
LINE
  5
18113
  8
DANMEN
  6
DASHED
 10
96.0
 20
82.899997
 30
0.0
 11
95.507688
 21
80.76748
 31
0.0
  0
ARC
  5
18114
  8
DANMEN
  6
DASHED
 10
95.8
 20
80.699997
 30
0.0
 40
0.3
 50
167.000479
 51
337.011468
  0
LINE
  5
18119
  8
DANMEN
  6
CONTINUOUS
 10
96.3
 20
80.499999
 30
0.0
 11
95.3
 21
80.499999
 31
0.0
  0
ARC
  5
1811A
  8
DANMEN
  6
CONTINUOUS
 10
96.3
 20
80.999999
 30
0.0
 40
0.5
 50
270.0
 51
0.0
  0
ARC
  5
1811C
  8
DANMEN
  6
DASHED
 10
97.200001
 20
84.000028
 30
0.0
 40
0.3
 50
337.011468
 51
55.656024
  0
LINE
  5
1811D
  8
DANMEN
  6
DASHED
 10
97.0
 20
84.500035
 30
0.0
 11
97.369257
 21
84.247729
 31
0.0
  0
LINE
  5
18121
  8
DANMEN
  6
CONTINUOUS
 10
97.5
 20
85.2
 30
0.0
 11
97.85
 21
85.2
 31
0.0
  0
ARC
  5
18122
  8
DANMEN
  6
CONTINUOUS
 10
97.5
 20
84.7
 30
0.0
 40
0.5
 50
90.0
 51
270.0
  0
ARC
  5
18127
  8
DANMEN
  6
CONTINUOUS
 10
94.2
 20
95.150004
 30
0.0
 40
0.5
 50
90.0
 51
180.0
  0
ARC
  5
18128
  8
DANMEN
  6
CONTINUOUS
 10
94.2
 20
89.350005
 30
0.0
 40
0.5
 50
180.0
 51
270.0
  0
LINE
  5
18129
  8
DANMEN
  6
CONTINUOUS
 10
93.7
 20
95.150004
 30
0.0
 11
93.7
 21
89.350005
 31
0.0
  0
CIRCLE
  5
1812D
  8
DANMEN
  6
CONTINUOUS
 10
97.325
 20
92.000005
 30
0.0
 40
2.0
  0
LINE
  5
1812E
  8
DANMEN
  6
CONTINUOUS
 10
100.5
 20
91.000005
 30
0.0
 11
100.5
 21
95.650005
 31
0.0
  0
LINE
  5
1812F
  8
DANMEN
  6
CONTINUOUS
 10
95.35
 20
94.000005
 30
0.0
 11
95.35
 21
90.500005
 31
0.0
  0
LINE
  5
18130
  8
DANMEN
  6
CONTINUOUS
 10
99.3
 20
91.500005
 30
0.0
 11
99.3
 21
94.000005
 31
0.0
  0
LINE
  5
18131
  8
DANMEN
  6
DASHED
 10
97.0
 20
91.0
 30
0.0
 11
100.0
 21
91.0
 31
0.0
  0
LINE
  5
18132
  8
DANMEN
  6
CONTINUOUS
 10
97.5
 20
91.0
 30
0.0
 11
100.5
 21
91.0
 31
0.0
  0
CIRCLE
  5
18133
  8
DANMEN
  6
CONTINUOUS
 10
97.548295
 20
92.223147
 30
0.0
 40
0.1
  0
CIRCLE
  5
18134
  8
DANMEN
  6
CONTINUOUS
 10
96.853123
 20
90.386519
 30
0.0
 40
0.1
  0
CIRCLE
  5
18135
  8
DANMEN
  6
CONTINUOUS
 10
96.003467
 20
90.944373
 30
0.0
 40
0.1
  0
CIRCLE
  5
18136
  8
DANMEN
  6
CONTINUOUS
 10
97.222165
 20
90.944373
 30
0.0
 40
0.1
  0
CIRCLE
  5
18137
  8
DANMEN
  6
CONTINUOUS
 10
97.857261
 20
91.605216
 30
0.0
 40
0.1
  0
CIRCLE
  5
18138
  8
DANMEN
  6
CONTINUOUS
 10
96.552739
 20
91.630963
 30
0.0
 40
0.1
  0
CIRCLE
  5
18139
  8
DANMEN
  6
CONTINUOUS
 10
96.132203
 20
93.167208
 30
0.0
 40
0.1
  0
CIRCLE
  5
1813A
  8
DANMEN
  6
CONTINUOUS
 10
95.788908
 20
92.137323
 30
0.0
 40
0.1
  0
CIRCLE
  5
1813B
  8
DANMEN
  6
CONTINUOUS
 10
96.913199
 20
92.823913
 30
0.0
 40
0.1
  0
ARC
  5
1813D
  8
DANMEN
  6
DASHED
 10
95.5
 20
90.5
 30
0.0
 40
0.5
 50
0.0
 51
90.0
  0
LINE
  5
18140
  8
DANMEN
  6
CONTINUOUS
 10
97.85
 20
88.0
 30
0.0
 11
97.0
 21
88.0
 31
0.0
  0
LINE
  5
18141
  8
DANMEN
  6
CONTINUOUS
 10
97.0
 20
90.5
 30
0.0
 11
97.0
 21
88.0
 31
0.0
  0
ARC
  5
18142
  8
DANMEN
  6
CONTINUOUS
 10
97.5
 20
90.5
 30
0.0
 40
0.5
 50
89.999981
 51
180.000037
  0
ARC
  5
18149
  8
DANMEN
  6
CONTINUOUS
 10
95.8
 20
89.500005
 30
0.0
 40
1.0
 50
0.0
 51
90.0
  0
LINE
  5
1814A
  8
DANMEN
  6
CONTINUOUS
 10
94.2
 20
88.850005
 30
0.0
 11
95.3
 21
88.850005
 31
0.0
  0
LINE
  5
1814B
  8
DANMEN
  6
CONTINUOUS
 10
95.35
 20
90.500005
 30
0.0
 11
95.8
 21
90.500005
 31
0.0
  0
CIRCLE
  5
1814C
  8
DANMEN
  6
CONTINUOUS
 10
98.106149
 20
90.532419
 30
0.0
 40
0.1
  0
CIRCLE
  5
1814D
  8
DANMEN
  6
CONTINUOUS
 10
98.766992
 20
91.176097
 30
0.0
 40
0.1
  0
CIRCLE
  5
1814E
  8
DANMEN
  6
CONTINUOUS
 10
98.698333
 20
92.274641
 30
0.0
 40
0.1
  0
CIRCLE
  5
1814F
  8
DANMEN
  6
CONTINUOUS
 10
98.097567
 20
93.167208
 30
0.0
 40
0.1
  0
CIRCLE
  5
18150
  8
DANMEN
  6
CONTINUOUS
 10
98.097567
 20
93.167208
 30
0.0
 40
0.1
  0
CIRCLE
  5
18151
  8
DANMEN
  6
CONTINUOUS
 10
98.097567
 20
93.167208
 30
0.0
 40
0.1
  0
ARC
  5
18152
  8
DANMEN
  6
DASHED
 10
99.5
 20
91.699997
 30
0.0
 40
0.5
 50
0.0
 51
89.999982
  0
LINE
  5
18153
  8
DANMEN
  6
DASHED
 10
100.0
 20
91.0
 30
0.0
 11
100.0
 21
91.699997
 31
0.0
  0
LINE
  5
18156
  8
DANMEN
  6
CONTINUOUS
 10
100.5
 20
91.0
 30
0.0
 11
100.5
 21
90.5
 31
0.0
  0
LINE
  5
18158
  8
DANMEN
  6
CONTINUOUS
 10
99.5
 20
90.0
 30
0.0
 11
100.0
 21
90.0
 31
0.0
  0
ARC
  5
1815A
  8
DANMEN
  6
CONTINUOUS
 10
100.0
 20
90.5
 30
0.0
 40
0.5
 50
270.0
 51
0.0
  0
ARC
  5
1815E
  8
DANMEN
  6
CONTINUOUS
 10
99.8
 20
91.500005
 30
0.0
 40
0.5
 50
180.0
 51
270.0
  0
LINE
  5
1815F
  8
DANMEN
  6
CONTINUOUS
 10
100.5
 20
91.000005
 30
0.0
 11
99.8
 21
91.000005
 31
0.0
  0
LINE
  5
18160
  8
DANMEN
  6
CONTINUOUS
 10
95.35
 20
94.000005
 30
0.0
 11
99.3
 21
94.000005
 31
0.0
  0
LINE
  5
18161
  8
DANMEN
  6
CONTINUOUS
 10
98.563599
 20
95.650005
 30
0.0
 11
94.2
 21
95.650004
 31
0.0
  0
CIRCLE
  5
18162
  8
DANMEN
  6
CONTINUOUS
 10
97.299406
 20
93.596327
 30
0.0
 40
0.1
  0
LINE
  5
18167
  8
DANMEN
  6
CONTINUOUS
 10
84.524999
 20
111.000001
 30
0.0
 11
99.524999
 21
111.000001
 31
0.0
  0
LINE
  5
18168
  8
DANMEN
  6
CONTINUOUS
 10
84.524999
 20
121.000001
 30
0.0
 11
99.524999
 21
121.000001
 31
0.0
  0
LINE
  5
18169
  8
DANMEN
  6
CONTINUOUS
 10
99.524999
 20
121.000001
 30
0.0
 11
84.524999
 21
111.000001
 31
0.0
  0
ARC
  5
1816A
  8
DANMEN
  6
CONTINUOUS
 10
85.199993
 20
108.350003
 30
0.0
 40
1.0
 50
0.0
 51
90.0
  0
LINE
  5
1816B
  8
DANMEN
  6
CONTINUOUS
 10
85.199993
 20
109.350003
 30
0.0
 11
81.15
 21
109.350003
 31
0.0
  0
LINE
  5
1816D
  8
DANMEN
  6
CONTINUOUS
 10
84.524999
 20
111.000001
 30
0.0
 11
84.524999
 21
121.000001
 31
0.0
  0
LINE
  5
18171
  8
DANMEN
  6
CONTINUOUS
 10
88.699997
 20
109.4
 30
0.0
 11
90.299997
 21
109.4
 31
0.0
  0
ARC
  5
18173
  8
DANMEN
  6
CONTINUOUS
 10
88.699993
 20
108.4
 30
0.0
 40
1.0
 50
89.999974
 51
179.999974
  0
ARC
  5
18174
  8
DANMEN
  6
CONTINUOUS
 10
88.199993
 20
107.069694
 30
0.0
 40
2.0
 50
179.999974
 51
231.706497
  0
LINE
  5
18175
  8
DANMEN
  6
CONTINUOUS
 10
87.699993
 20
107.15394
 30
0.0
 11
87.699993
 21
108.400001
 31
0.0
  0
ARC
  5
18176
  8
DANMEN
  6
CONTINUOUS
 10
88.099992
 20
105.800001
 30
0.0
 40
0.3
 50
269.999974
 51
359.999974
  0
LINE
  5
18177
  8
DANMEN
  6
CONTINUOUS
 10
88.099992
 20
105.500001
 30
0.0
 11
86.960613
 21
105.500001
 31
0.0
  0
ARC
  5
18178
  8
DANMEN
  6
CONTINUOUS
 10
88.199992
 20
106.063069
 30
0.0
 40
0.2
 50
359.999974
 51
65.375656
  0
ARC
  5
18179
  8
DANMEN
  6
CONTINUOUS
 10
88.699993
 20
107.15394
 30
0.0
 40
1.0
 50
179.999974
 51
245.375656
  0
LINE
  5
1817A
  8
DANMEN
  6
CONTINUOUS
 10
88.399992
 20
105.800001
 30
0.0
 11
88.399992
 21
106.063069
 31
0.0
  0
LINE
  5
1817B
  8
DANMEN
  6
CONTINUOUS
 10
86.199993
 20
107.069695
 30
0.0
 11
86.199993
 21
108.350003
 31
0.0
  0
ARC
  5
1817C
  8
DANMEN
  6
CONTINUOUS
 10
93.799997
 20
108.350003
 30
0.0
 40
1.0
 50
90.0
 51
180.0
  0
LINE
  5
1817D
  8
DANMEN
  6
CONTINUOUS
 10
92.799998
 20
107.069695
 30
0.0
 11
92.799997
 21
108.350003
 31
0.0
  0
ARC
  5
1817E
  8
DANMEN
  6
CONTINUOUS
 10
90.299997
 20
108.4
 30
0.0
 40
1.0
 50
0.000026
 51
90.000026
  0
LINE
  5
1817F
  8
DANMEN
  6
CONTINUOUS
 10
90.599998
 20
105.800001
 30
0.0
 11
90.599998
 21
106.063069
 31
0.0
  0
ARC
  5
18180
  8
DANMEN
  6
CONTINUOUS
 10
90.299998
 20
107.15394
 30
0.0
 40
1.0
 50
294.624344
 51
0.000026
  0
ARC
  5
18181
  8
DANMEN
  6
CONTINUOUS
 10
90.799998
 20
106.063069
 30
0.0
 40
0.2
 50
114.624344
 51
180.000026
  0
LINE
  5
18182
  8
DANMEN
  6
CONTINUOUS
 10
90.899999
 20
105.500001
 30
0.0
 11
92.039378
 21
105.500001
 31
0.0
  0
ARC
  5
18183
  8
DANMEN
  6
CONTINUOUS
 10
90.899998
 20
105.800001
 30
0.0
 40
0.3
 50
180.000026
 51
270.000026
  0
LINE
  5
18184
  8
DANMEN
  6
CONTINUOUS
 10
91.299998
 20
107.15394
 30
0.0
 11
91.299997
 21
108.400001
 31
0.0
  0
ARC
  5
18185
  8
DANMEN
  6
CONTINUOUS
 10
90.799998
 20
107.069694
 30
0.0
 40
2.0
 50
308.293503
 51
0.000026
  0
LINE
  5
18186
  8
DANMEN
  6
CONTINUOUS
 10
88.025
 20
120.999998
 30
0.0
 11
96.025
 21
120.999998
 31
0.0
  0
LINE
  5
18188
  8
DANMEN
  6
CONTINUOUS
 10
99.524999
 20
111.000001
 30
0.0
 11
99.524999
 21
121.000001
 31
0.0
  0
LINE
  5
1818C
  8
DANMEN
  6
CONTINUOUS
 10
108.963231
 20
91.019298
 30
0.0
 11
109.000009
 21
108.007745
 31
0.0
  0
LINE
  5
1818D
  8
DANMEN
  6
CONTINUOUS
 10
110.200003
 20
108.259086
 30
0.0
 11
109.667188
 21
91.524983
 31
0.0
  0
LINE
  5
1818E
  8
DANMEN
  6
CONTINUOUS
 10
108.663219
 20
91.003575
 30
0.0
 11
108.700003
 21
108.000003
 31
0.0
  0
LINE
  5
1818F
  8
DANMEN
  6
CONTINUOUS
 10
110.5
 20
91.0
 30
0.0
 11
110.5
 21
108.000137
 31
0.0
  0
LINE
  5
18190
  8
DANMEN
  6
CONTINUOUS
 10
108.7
 20
109.000003
 30
0.0
 11
108.7
 21
86.0
 31
0.0
  0
LINE
  5
18191
  8
DANMEN
  6
CONTINUOUS
 10
108.85
 20
90.5
 30
0.0
 11
108.85
 21
86.0
 31
0.0
  0
ARC
  5
18194
  8
DANMEN
  6
CONTINUOUS
 10
110.0
 20
90.5
 30
0.0
 40
0.5
 50
0.0
 51
90.0
  0
LINE
  5
18196
  8
DANMEN
  6
CONTINUOUS
 10
108.663219
 20
91.003575
 30
0.0
 11
109.193389
 21
91.03136
 31
0.0
  0
ARC
  5
1819A
  8
DANMEN
  6
CONTINUOUS
 10
109.167221
 20
91.530675
 30
0.0
 40
0.5
 50
273.0
 51
359.347777
  0
LINE
  5
1819D
  8
DANMEN
  6
CONTINUOUS
 10
109.35
 20
91.0
 30
0.0
 11
110.0
 21
91.0
 31
0.0
  0
ARC
  5
1819E
  8
DANMEN
  6
CONTINUOUS
 10
109.35
 20
90.5
 30
0.0
 40
0.5
 50
90.0
 51
180.0
  0
LINE
  5
181A0
  8
DANMEN
  6
CONTINUOUS
 10
108.8
 20
91.0
 30
0.0
 11
108.8
 21
92.52729
 31
0.0
  0
LINE
  5
181A3
  8
DANMEN
  6
CONTINUOUS
 10
112.200003
 20
116.500003
 30
0.0
 11
128.700003
 21
116.500003
 31
0.0
  0
LINE
  5
181A4
  8
DANMEN
  6
CONTINUOUS
 10
128.700003
 20
109.153615
 30
0.0
 11
110.200003
 21
108.000003
 31
0.0
  0
LINE
  5
181A5
  8
DANMEN
  6
CONTINUOUS
 10
108.700003
 20
112.500003
 30
0.0
 11
108.700003
 21
108.000003
 31
0.0
  0
LINE
  5
181A6
  8
DANMEN
  6
CONTINUOUS
 10
109.000003
 20
112.500003
 30
0.0
 11
109.000003
 21
107.992034
 31
0.0
  0
LINE
  5
181A7
  8
DANMEN
  6
CONTINUOUS
 10
110.200003
 20
114.500003
 30
0.0
 11
110.200003
 21
108.000003
 31
0.0
  0
ARC
  5
181A8
  8
DANMEN
  6
CONTINUOUS
 10
116.999997
 20
111.500003
 30
0.0
 40
0.5
 50
270.0
 51
0.0
  0
LINE
  5
181A9
  8
DANMEN
  6
CONTINUOUS
 10
108.7
 20
111.000003
 30
0.0
 11
108.7
 21
109.000003
 31
0.0
  0
ARC
  5
181AA
  8
DANMEN
  6
CONTINUOUS
 10
106.084676
 20
108.850003
 30
0.0
 40
0.5
 50
328.440409
 51
90.0
  0
ARC
  5
181B2
  8
DANMEN
  6
CONTINUOUS
 10
112.200003
 20
114.500003
 30
0.0
 40
2.0
 50
89.999982
 51
180.000019
  0
LINE
  5
181B3
  8
DANMEN
  6
CONTINUOUS
 10
107.55
 20
113.000003
 30
0.0
 11
113.65
 21
113.000003
 31
0.0
  0
LINE
  5
181B4
  8
DANMEN
  6
CONTINUOUS
 10
108.7
 20
111.000003
 30
0.0
 11
116.999997
 21
111.000003
 31
0.0
  0
LINE
  5
181B5
  8
DANMEN
  6
CONTINUOUS
 10
108.700003
 20
112.500003
 30
0.0
 11
110.200003
 21
112.500003
 31
0.0
  0
LINE
  5
181B9
  8
DANMEN
  6
CONTINUOUS
 10
107.05
 20
112.500003
 30
0.0
 11
107.05
 21
111.000003
 31
0.0
  0
ARC
  5
181BC
  8
DANMEN
  6
CONTINUOUS
 10
107.55
 20
112.500003
 30
0.0
 40
0.5
 50
90.0
 51
180.0
  0
LINE
  5
181C0
  8
DANMEN
  6
CONTINUOUS
 10
103.0
 20
122.000003
 30
0.0
 11
102.5
 21
122.000003
 31
0.0
  0
LINE
  5
181C4
  8
DANMEN
  6
CONTINUOUS
 10
117.499997
 20
112.500003
 30
0.0
 11
117.499997
 21
111.500003
 31
0.0
  0
LINE
  5
181C5
  8
DANMEN
  6
CONTINUOUS
 10
115.3
 20
112.500003
 30
0.0
 11
117.499997
 21
112.500003
 31
0.0
  0
LINE
  5
181C7
  8
DANMEN
  6
CONTINUOUS
 10
161.0
 20
86.0
 30
0.0
 11
185.0
 21
86.0
 31
0.0
  0
LINE
  5
181C8
  8
DANMEN
  6
CONTINUOUS
 10
162.149994
 20
87.649994
 30
0.0
 11
168.850006
 21
87.649994
 31
0.0
  0
LINE
  5
181C9
  8
DANMEN
  6
CONTINUOUS
 10
162.149994
 20
91.5
 30
0.0
 11
162.149994
 21
87.649994
 31
0.0
  0
LINE
  5
181CA
  8
DANMEN
  6
CONTINUOUS
 10
160.5
 20
91.5
 30
0.0
 11
160.5
 21
86.5
 31
0.0
  0
ARC
  5
181CD
  8
DANMEN
  6
CONTINUOUS
 10
161.0
 20
86.5
 30
0.0
 40
0.5
 50
180.000036
 51
269.999963
  0
ARC
  5
181D0
  8
DANMEN
  6
CONTINUOUS
 10
161.0
 20
91.5
 30
0.0
 40
0.5
 50
89.999982
 51
180.000019
  0
ARC
  5
181D1
  8
DANMEN
  6
CONTINUOUS
 10
161.649994
 20
91.5
 30
0.0
 40
0.5
 50
359.999981
 51
89.999982
  0
LINE
  5
181D2
  8
DANMEN
  6
CONTINUOUS
 10
161.0
 20
92.0
 30
0.0
 11
161.649994
 21
92.0
 31
0.0
  0
LINE
  5
181D3
  8
DANMEN
  6
CONTINUOUS
 10
170.5
 20
118.5
 30
0.0
 11
170.5
 21
87.1
 31
0.0
  0
LINE
  5
181D4
  8
DANMEN
  6
CONTINUOUS
 10
172.5
 20
87.649994
 30
0.0
 11
185.0
 21
87.649994
 31
0.0
  0
LINE
  5
181D5
  8
DANMEN
  6
CONTINUOUS
 10
170.5
 20
87.1
 30
0.0
 11
172.5
 21
87.1
 31
0.0
  0
LINE
  5
181D9
  8
DANMEN
  6
CONTINUOUS
 10
172.5
 20
87.649994
 30
0.0
 11
172.5
 21
87.1
 31
0.0
  0
ARC
  5
181DB
  8
DANMEN
  6
CONTINUOUS
 10
185.0
 20
87.149994
 30
0.0
 40
0.5
 50
359.999981
 51
89.999982
  0
ARC
  5
181DE
  8
DANMEN
  6
CONTINUOUS
 10
185.0
 20
86.5
 30
0.0
 40
0.5
 50
270.000018
 51
359.999981
  0
LINE
  5
181DF
  8
DANMEN
  6
CONTINUOUS
 10
185.5
 20
87.149994
 30
0.0
 11
185.5
 21
86.5
 31
0.0
  0
LINE
  5
181E0
  8
DANMEN
  6
CONTINUOUS
 10
174.770495
 20
122.0
 30
0.0
 11
177.850004
 21
122.0
 31
0.0
  0
LINE
  5
181E1
  8
DANMEN
  6
CONTINUOUS
 10
170.5
 20
118.5
 30
0.0
 11
183.0
 21
118.5
 31
0.0
  0
ARC
  5
181E2
  8
DANMEN
  6
CONTINUOUS
 10
176.0
 20
121.5
 30
0.0
 40
0.5
 50
90.000037
 51
180.000019
  0
LINE
  5
181E3
  8
DANMEN
  6
CONTINUOUS
 10
170.5
 20
122.0
 30
0.0
 11
176.0
 21
122.0
 31
0.0
  0
LINE
  5
181E4
  8
DANMEN
  6
CONTINUOUS
 10
170.5
 20
119.6
 30
0.0
 11
175.5
 21
119.6
 31
0.0
  0
LINE
  5
181E9
  8
DANMEN
  6
CONTINUOUS
 10
175.5
 20
121.5
 30
0.0
 11
175.5
 21
119.6
 31
0.0
  0
LINE
  5
181EB
  8
DANMEN
  6
CONTINUOUS
 10
178.650004
 20
120.8
 30
0.0
 11
180.350003
 21
120.8
 31
0.0
  0
LINE
  5
181EC
  8
DANMEN
  6
CONTINUOUS
 10
176.3
 20
119.6
 30
0.0
 11
182.499998
 21
119.6
 31
0.0
  0
LINE
  5
181F1
  8
DANMEN
  6
CONTINUOUS
 10
177.850004
 20
122.0
 30
0.0
 11
177.850004
 21
121.0
 31
0.0
  0
ARC
  5
181F2
  8
DANMEN
  6
CONTINUOUS
 10
176.850003
 20
120.8
 30
0.0
 40
0.2
 50
89.999982
 51
180.000019
  0
ARC
  5
181F4
  8
DANMEN
  6
CONTINUOUS
 10
176.850003
 20
120.2
 30
0.0
 40
0.2
 50
180.000019
 51
270.000001
  0
LINE
  5
181F7
  8
DANMEN
  6
CONTINUOUS
 10
178.650004
 20
120.8
 30
0.0
 11
177.850004
 21
120.0
 31
0.0
  0
LINE
  5
181F9
  8
DANMEN
  6
CONTINUOUS
 10
176.850003
 20
120.0
 30
0.0
 11
177.850004
 21
120.0
 31
0.0
  0
LINE
  5
181FA
  8
DANMEN
  6
CONTINUOUS
 10
176.650003
 20
120.8
 30
0.0
 11
176.650003
 21
120.2
 31
0.0
  0
LINE
  5
181FB
  8
DANMEN
  6
CONTINUOUS
 10
176.850003
 20
121.0
 30
0.0
 11
177.850004
 21
121.0
 31
0.0
  0
ARC
  5
181FE
  8
DANMEN
  6
CONTINUOUS
 10
177.199997
 20
121.5
 30
0.0
 40
0.5
 50
359.999981
 51
90.000037
  0
LINE
  5
181FF
  8
DANMEN
  6
CONTINUOUS
 10
176.3
 20
121.199997
 30
0.0
 11
177.699997
 21
121.199997
 31
0.0
  0
LINE
  5
18200
  8
DANMEN
  6
CONTINUOUS
 10
177.700001
 20
121.499999
 30
0.0
 11
177.700003
 21
121.199996
 31
0.0
  0
LINE
  5
18201
  8
DANMEN
  6
CONTINUOUS
 10
176.0
 20
122.0
 30
0.0
 11
177.199997
 21
122.0
 31
0.0
  0
LINE
  5
18202
  8
DANMEN
  6
CONTINUOUS
 10
176.3
 20
121.199997
 30
0.0
 11
176.3
 21
119.6
 31
0.0
  0
LINE
  5
18209
  8
DANMEN
  6
CONTINUOUS
 10
181.150003
 20
122.0
 30
0.0
 11
183.500004
 21
122.0
 31
0.0
  0
LINE
  5
1820B
  8
DANMEN
  6
CONTINUOUS
 10
181.150003
 20
122.0
 30
0.0
 11
181.150003
 21
121.0
 31
0.0
  0
LINE
  5
1820C
  8
DANMEN
  6
CONTINUOUS
 10
181.150003
 20
121.0
 30
0.0
 11
182.150004
 21
121.0
 31
0.0
  0
ARC
  5
1820D
  8
DANMEN
  6
CONTINUOUS
 10
182.150004
 20
120.2
 30
0.0
 40
0.2
 50
270.000018
 51
0.0
  0
ARC
  5
1820F
  8
DANMEN
  6
CONTINUOUS
 10
182.150004
 20
120.8
 30
0.0
 40
0.2
 50
0.0
 51
89.999982
  0
LINE
  5
18212
  8
DANMEN
  6
CONTINUOUS
 10
181.150003
 20
120.0
 30
0.0
 11
182.150004
 21
120.0
 31
0.0
  0
LINE
  5
18213
  8
DANMEN
  6
CONTINUOUS
 10
180.350003
 20
120.8
 30
0.0
 11
181.150003
 21
120.0
 31
0.0
  0
LINE
  5
18215
  8
DANMEN
  6
CONTINUOUS
 10
182.350004
 20
120.8
 30
0.0
 11
182.350004
 21
120.2
 31
0.0
  0
ARC
  5
18217
  8
DANMEN
  6
CONTINUOUS
 10
181.800003
 20
121.5
 30
0.0
 40
0.5
 50
90.0
 51
179.999149
  0
ARC
  5
1821C
  8
DANMEN
  6
CONTINUOUS
 10
183.0
 20
119.0
 30
0.0
 40
0.5
 50
270.000018
 51
0.0
  0
ARC
  5
1821D
  8
DANMEN
  6
CONTINUOUS
 10
183.0
 20
121.5
 30
0.0
 40
0.5
 50
359.999981
 51
90.000037
  0
LINE
  5
1821E
  8
DANMEN
  6
CONTINUOUS
 10
181.800003
 20
122.0
 30
0.0
 11
183.0
 21
122.0
 31
0.0
  0
LINE
  5
1821F
  8
DANMEN
  6
CONTINUOUS
 10
181.300003
 20
121.199997
 30
0.0
 11
182.5
 21
121.199997
 31
0.0
  0
LINE
  5
18220
  8
DANMEN
  6
CONTINUOUS
 10
182.499998
 20
121.199997
 30
0.0
 11
182.499998
 21
119.6
 31
0.0
  0
LINE
  5
18221
  8
DANMEN
  6
CONTINUOUS
 10
181.300003
 20
121.500017
 30
0.0
 11
181.299998
 21
121.199998
 31
0.0
  0
LINE
  5
18222
  8
DANMEN
  6
CONTINUOUS
 10
183.5
 20
121.5
 30
0.0
 11
183.5
 21
119.0
 31
0.0
  0
LINE
  5
18224
  8
DANMEN
  6
CONTINUOUS
 10
183.0
 20
118.5
 30
0.0
 11
183.5
 21
118.5
 31
0.0
  0
LINE
  5
18225
  8
DANMEN
  6
CONTINUOUS
 10
183.5
 20
118.5
 30
0.0
 11
183.5
 21
122.0
 31
0.0
  0
LINE
  5
18226
  8
DANMEN
  6
CONTINUOUS
 10
77.15
 20
253.600012
 30
0.0
 11
61.9
 21
253.600012
 31
0.0
  0
LINE
  5
18227
  8
DANMEN
  6
CONTINUOUS
 10
76.5
 20
251.950012
 30
0.0
 11
64.0
 21
251.950012
 31
0.0
  0
LINE
  5
18228
  8
DANMEN
  6
CONTINUOUS
 10
69.55
 20
222.95
 30
0.0
 11
68.350006
 21
222.95
 31
0.0
  0
ARC
  5
18229
  8
DANMEN
  6
CONTINUOUS
 10
68.800003
 20
175.5
 30
0.0
 40
0.5
 50
270.000018
 51
0.0
  0
ARC
  5
1822A
  8
DANMEN
  6
CONTINUOUS
 10
68.800003
 20
164.5
 30
0.0
 40
0.5
 50
0.0
 51
89.999982
  0
LINE
  5
1822B
  8
DANMEN
  6
CONTINUOUS
 10
46.0
 20
260.0
 30
0.0
 11
105.0
 21
260.0
 31
0.0
  0
LINE
  5
1822C
  8
DANMEN
  6
CONTINUOUS
 10
63.5
 20
233.0
 30
0.0
 11
71.5
 21
233.0
 31
0.0
  0
LINE
  5
1822D
  8
DANMEN
  6
CONTINUOUS
 10
47.176108
 20
233.062215
 30
0.0
 11
47.2
 21
195.0
 31
0.0
  0
LINE
  5
1822E
  8
DANMEN
  6
CONTINUOUS
 10
47.476095
 20
233.082141
 30
0.0
 11
47.5
 21
195.0
 31
0.0
  0
LINE
  5
1822F
  8
DANMEN
  6
CONTINUOUS
 10
46.004337
 20
195.0
 30
0.0
 11
46.407182
 21
233.550678
 31
0.0
  0
LINE
  5
18230
  8
DANMEN
  6
CONTINUOUS
 10
49.699997
 20
232.5
 30
0.0
 11
49.699997
 21
195.0
 31
0.0
  0
LINE
  5
18231
  8
DANMEN
  6
CONTINUOUS
 10
67.350006
 20
221.95
 30
0.0
 11
67.350006
 21
206.5
 31
0.0
  0
LINE
  5
18232
  8
DANMEN
  6
CONTINUOUS
 10
51.649994
 20
232.5
 30
0.0
 11
51.649994
 21
206.5
 31
0.0
  0
LINE
  5
18233
  8
DANMEN
  6
CONTINUOUS
 10
40.5
 20
225.5
 30
0.0
 11
40.5
 21
195.0
 31
0.0
  0
LINE
  5
18234
  8
DANMEN
  6
CONTINUOUS
 10
42.149994
 20
225.5
 30
0.0
 11
42.149994
 21
195.0
 31
0.0
  0
LINE
  5
18235
  8
DANMEN
  6
CONTINUOUS
 10
63.5
 20
233.0
 30
0.0
 11
63.5
 21
214.0
 31
0.0
  0
LINE
  5
18236
  8
DANMEN
  6
CONTINUOUS
 10
55.5
 20
233.0
 30
0.0
 11
55.5
 21
214.0
 31
0.0
  0
LINE
  5
18237
  8
DANMEN
  6
CONTINUOUS
 10
47.5
 20
233.0
 30
0.0
 11
47.5
 21
193.5
 31
0.0
  0
LINE
  5
18238
  8
DANMEN
  6
CONTINUOUS
 10
60.0
 20
169.0
 30
0.0
 11
60.0
 21
153.0
 31
0.0
  0
LINE
  5
18239
  8
DANMEN
  6
CONTINUOUS
 10
53.0
 20
169.0
 30
0.0
 11
53.0
 21
153.0
 31
0.0
  0
LINE
  5
1823A
  8
DANMEN
  6
CONTINUOUS
 10
52.5
 20
169.0
 30
0.0
 11
52.5
 21
153.0
 31
0.0
  0
LINE
  5
1823B
  8
DANMEN
  6
CONTINUOUS
 10
60.5
 20
169.0
 30
0.0
 11
60.5
 21
153.0
 31
0.0
  0
LINE
  5
1823C
  8
DANMEN
  6
CONTINUOUS
 10
67.049998
 20
165.0
 30
0.0
 11
67.049998
 21
169.0
 31
0.0
  0
LINE
  5
1823D
  8
DANMEN
  6
CONTINUOUS
 10
45.950002
 20
165.0
 30
0.0
 11
45.950002
 21
169.0
 31
0.0
  0
LINE
  5
1823E
  8
DANMEN
  6
CONTINUOUS
 10
36.199997
 20
165.0
 30
0.0
 11
46.0
 21
165.0
 31
0.0
  0
ARC
  5
1823F
  8
DANMEN
  6
CONTINUOUS
 10
36.199997
 20
164.5
 30
0.0
 40
0.5
 50
89.999982
 51
180.000019
  0
LINE
  5
18241
  8
DANMEN
  6
CONTINUOUS
 10
64.0
 20
143.0
 30
0.0
 11
64.0
 21
153.0
 31
0.0
  0
LINE
  5
18242
  8
DANMEN
  6
CONTINUOUS
 10
49.0
 20
143.0
 30
0.0
 11
49.0
 21
153.0
 31
0.0
  0
LINE
  5
18243
  8
DANMEN
  6
CONTINUOUS
 10
64.0
 20
153.0
 30
0.0
 11
49.0
 21
143.0
 31
0.0
  0
LINE
  5
18244
  8
DANMEN
  6
CONTINUOUS
 10
37.649994
 20
163.050003
 30
0.0
 11
37.649994
 21
137.199997
 31
0.0
  0
LINE
  5
18245
  8
DANMEN
  6
CONTINUOUS
 10
67.350006
 20
160.0
 30
0.0
 11
67.350006
 21
143.0
 31
0.0
  0
LINE
  5
18246
  8
DANMEN
  6
CONTINUOUS
 10
49.0
 20
143.0
 30
0.0
 11
64.0
 21
143.0
 31
0.0
  0
LINE
  5
18247
  8
DANMEN
  6
CONTINUOUS
 10
44.149994
 20
141.050003
 30
0.0
 11
67.350006
 21
141.050003
 31
0.0
  0
LINE
  5
18248
  8
DANMEN
  6
CONTINUOUS
 10
43.199997
 20
143.0
 30
0.0
 11
67.350006
 21
143.0
 31
0.0
  0
LINE
  5
18249
  8
DANMEN
  6
CONTINUOUS
 10
44.149994
 20
141.050003
 30
0.0
 11
44.149994
 21
137.0
 31
0.0
  0
LINE
  5
1824A
  8
DANMEN
  6
CONTINUOUS
 10
42.199997
 20
142.0
 30
0.0
 11
42.199997
 21
137.199997
 31
0.0
  0
LINE
  5
1824B
  8
DANMEN
  6
CONTINUOUS
 10
37.649994
 20
136.0
 30
0.0
 11
43.149994
 21
136.0
 31
0.0
  0
LINE
  5
1824C
  8
DANMEN
  6
CONTINUOUS
 10
37.649994
 20
137.199997
 30
0.0
 11
42.199997
 21
137.199997
 31
0.0
  0
ARC
  5
1824F
  8
DANMEN
  6
CONTINUOUS
 10
43.149994
 20
137.0
 30
0.0
 40
1.0
 50
270.000018
 51
0.0
  0
ARC
  5
18252
  8
DANMEN
  6
CONTINUOUS
 10
43.199997
 20
142.0
 30
0.0
 40
1.0
 50
89.999982
 51
180.000019
  0
LINE
  5
1825A
  8
DANMEN
  6
CONTINUOUS
 10
49.0
 20
153.0
 30
0.0
 11
64.0
 21
153.0
 31
0.0
  0
LINE
  5
1825B
  8
DANMEN
  6
CONTINUOUS
 10
52.5
 20
153.0
 30
0.0
 11
60.5
 21
153.0
 31
0.0
  0
LINE
  5
1825D
  8
DANMEN
  6
CONTINUOUS
 10
37.649994
 20
163.050003
 30
0.0
 11
45.5
 21
163.050003
 31
0.0
  0
LINE
  5
1825F
  8
DANMEN
  6
CONTINUOUS
 10
46.5
 20
164.5
 30
0.0
 11
46.5
 21
160.0
 31
0.0
  0
LINE
  5
18260
  8
DANMEN
  6
CONTINUOUS
 10
52.5
 20
162.636039
 30
0.0
 11
49.584572
 21
165.551467
 31
0.0
  0
LINE
  5
18261
  8
DANMEN
  6
CONTINUOUS
 10
51.014719
 20
162.0
 30
0.0
 11
47.746094
 21
165.268625
 31
0.0
  0
LINE
  5
18262
  8
DANMEN
  6
CONTINUOUS
 10
48.893398
 20
162.0
 30
0.0
 11
46.5
 21
164.393398
 31
0.0
  0
LINE
  5
18263
  8
DANMEN
  6
CONTINUOUS
 10
51.37868
 20
162.0
 30
0.0
 11
52.5
 21
163.12132
 31
0.0
  0
LINE
  5
18264
  8
DANMEN
  6
CONTINUOUS
 10
49.257359
 20
162.0
 30
0.0
 11
52.5
 21
165.242641
 31
0.0
  0
LINE
  5
18265
  8
DANMEN
  6
CONTINUOUS
 10
47.136039
 20
162.0
 30
0.0
 11
50.88804
 21
165.752001
 31
0.0
  0
ARC
  5
18267
  8
DANMEN
  6
CONTINUOUS
 10
46.0
 20
160.5
 30
0.0
 40
0.5
 50
180.000019
 51
270.000001
  0
LINE
  5
18269
  8
DANMEN
  6
CONTINUOUS
 10
45.5
 20
163.050003
 30
0.0
 11
45.5
 21
160.5
 31
0.0
  0
LINE
  5
1826B
  8
DANMEN
  6
CONTINUOUS
 10
46.0
 20
160.0
 30
0.0
 11
46.5
 21
160.0
 31
0.0
  0
LINE
  5
1826C
  8
DANMEN
  6
CONTINUOUS
 10
46.772078
 20
162.0
 30
0.0
 11
46.5
 21
162.272078
 31
0.0
  0
LINE
  5
1826D
  8
DANMEN
  6
CONTINUOUS
 10
52.500003
 20
165.999995
 30
0.0
 11
46.000002
 21
164.999995
 31
0.0
  0
ARC
  5
1826E
  8
DANMEN
  6
CONTINUOUS
 10
46.0
 20
164.5
 30
0.0
 40
0.5
 50
0.0
 51
89.999982
  0
LINE
  5
18270
  8
DANMEN
  6
CONTINUOUS
 10
46.5
 20
163.485281
 30
0.0
 11
48.381025
 21
165.366306
 31
0.0
  0
LINE
  5
18271
  8
DANMEN
  6
CONTINUOUS
 10
52.5
 20
164.757359
 30
0.0
 11
51.423049
 21
165.83431
 31
0.0
  0
LINE
  5
18273
  8
DANMEN
  6
CONTINUOUS
 10
60.500004
 20
166.000003
 30
0.0
 11
67.000005
 21
165.000003
 31
0.0
  0
LINE
  5
18274
  8
DANMEN
  6
CONTINUOUS
 10
63.742641
 20
162.0
 30
0.0
 11
60.5
 21
165.242641
 31
0.0
  0
LINE
  5
18275
  8
DANMEN
  6
CONTINUOUS
 10
61.62132
 20
162.0
 30
0.0
 11
60.5
 21
163.12132
 31
0.0
  0
LINE
  5
18276
  8
DANMEN
  6
CONTINUOUS
 10
60.5
 20
162.636039
 30
0.0
 11
63.415428
 21
165.551467
 31
0.0
  0
LINE
  5
18277
  8
DANMEN
  6
CONTINUOUS
 10
60.5
 20
164.757359
 30
0.0
 11
61.576951
 21
165.83431
 31
0.0
  0
LINE
  5
1827B
  8
DANMEN
  6
CONTINUOUS
 10
66.5
 20
164.5
 30
0.0
 11
66.5
 21
160.0
 31
0.0
  0
LINE
  5
1827C
  8
DANMEN
  6
CONTINUOUS
 10
65.863961
 20
162.0
 30
0.0
 11
62.11196
 21
165.752001
 31
0.0
  0
LINE
  5
1827D
  8
DANMEN
  6
CONTINUOUS
 10
64.106602
 20
162.0
 30
0.0
 11
66.5
 21
164.393398
 31
0.0
  0
LINE
  5
1827E
  8
DANMEN
  6
CONTINUOUS
 10
61.985281
 20
162.0
 30
0.0
 11
65.253906
 21
165.268625
 31
0.0
  0
LINE
  5
18281
  8
DANMEN
  6
CONTINUOUS
 10
66.5
 20
160.0
 30
0.0
 11
67.350006
 21
160.0
 31
0.0
  0
LINE
  5
18282
  8
DANMEN
  6
CONTINUOUS
 10
66.227922
 20
162.0
 30
0.0
 11
66.5
 21
162.272078
 31
0.0
  0
LINE
  5
18283
  8
DANMEN
  6
CONTINUOUS
 10
66.5
 20
163.485281
 30
0.0
 11
64.618975
 21
165.366306
 31
0.0
  0
ARC
  5
18284
  8
DANMEN
  6
CONTINUOUS
 10
67.0
 20
164.5
 30
0.0
 40
0.5
 50
89.999982
 51
180.000019
  0
LINE
  5
18286
  8
DANMEN
  6
CONTINUOUS
 10
67.0
 20
165.0
 30
0.0
 11
68.800003
 21
165.0
 31
0.0
  0
LINE
  5
18287
  8
DANMEN
  6
CONTINUOUS
 10
47.2
 20
195.0
 30
0.0
 11
34.200005
 21
195.0
 31
0.0
  0
LINE
  5
18288
  8
DANMEN
  6
CONTINUOUS
 10
47.5
 20
193.5
 30
0.0
 11
33.200005
 21
193.5
 31
0.0
  0
LINE
  5
18289
  8
DANMEN
  6
CONTINUOUS
 10
36.199997
 20
175.0
 30
0.0
 11
46.0
 21
175.0
 31
0.0
  0
LINE
  5
1828A
  8
DANMEN
  6
CONTINUOUS
 10
34.5
 20
195.0
 30
0.0
 11
49.699997
 21
195.0
 31
0.0
  0
LINE
  5
1828B
  8
DANMEN
  6
CONTINUOUS
 10
35.699997
 20
193.5
 30
0.0
 11
35.699997
 21
175.5
 31
0.0
  0
LINE
  5
1828C
  8
DANMEN
  6
CONTINUOUS
 10
33.5
 20
193.5
 30
0.0
 11
33.5
 21
171.0
 31
0.0
  0
ARC
  5
1828F
  8
DANMEN
  6
CONTINUOUS
 10
36.199997
 20
175.5
 30
0.0
 40
0.5
 50
180.000019
 51
270.000001
  0
ARC
  5
18291
  8
DANMEN
  6
CONTINUOUS
 10
34.200005
 20
194.0
 30
0.0
 40
1.0
 50
90.0
 51
180.0
  0
LINE
  5
18293
  8
DANMEN
  6
CONTINUOUS
 10
33.200005
 20
193.5
 30
0.0
 11
33.200005
 21
194.0
 31
0.0
  0
LINE
  5
18294
  8
DANMEN
  6
CONTINUOUS
 10
33.5
 20
194.0
 30
0.0
 11
33.5
 21
193.5
 31
0.0
  0
LINE
  5
18295
  8
DANMEN
  6
CONTINUOUS
 10
33.5
 20
193.5
 30
0.0
 11
35.699997
 21
193.5
 31
0.0
  0
ARC
  5
18299
  8
DANMEN
  6
CONTINUOUS
 10
34.5
 20
194.0
 30
0.0
 40
1.0
 50
89.999982
 51
180.000019
  0
LINE
  5
1829A
  8
DANMEN
  6
CONTINUOUS
 10
37.649994
 20
193.050003
 30
0.0
 11
37.649994
 21
176.95
 31
0.0
  0
LINE
  5
1829B
  8
DANMEN
  6
CONTINUOUS
 10
67.350006
 20
193.050003
 30
0.0
 11
67.350006
 21
180.0
 31
0.0
  0
LINE
  5
1829C
  8
DANMEN
  6
CONTINUOUS
 10
52.5
 20
187.0
 30
0.0
 11
60.5
 21
187.0
 31
0.0
  0
LINE
  5
1829D
  8
DANMEN
  6
CONTINUOUS
 10
52.5
 20
187.0
 30
0.0
 11
52.5
 21
171.0
 31
0.0
  0
LINE
  5
1829E
  8
DANMEN
  6
CONTINUOUS
 10
37.649994
 20
176.95
 30
0.0
 11
45.5
 21
176.95
 31
0.0
  0
LINE
  5
182A0
  8
DANMEN
  6
CONTINUOUS
 10
52.500003
 20
174.000005
 30
0.0
 11
46.000002
 21
175.000005
 31
0.0
  0
LINE
  5
182A1
  8
DANMEN
  6
CONTINUOUS
 10
45.950002
 20
171.0
 30
0.0
 11
45.950002
 21
174.923082
 31
0.0
  0
LINE
  5
182A2
  8
DANMEN
  6
CONTINUOUS
 10
50.88804
 20
174.247999
 30
0.0
 11
47.136039
 21
178.0
 31
0.0
  0
LINE
  5
182A3
  8
DANMEN
  6
CONTINUOUS
 10
48.381025
 20
174.633694
 30
0.0
 11
46.5
 21
176.514719
 31
0.0
  0
LINE
  5
182A4
  8
DANMEN
  6
CONTINUOUS
 10
51.423049
 20
174.16569
 30
0.0
 11
52.5
 21
175.242641
 31
0.0
  0
LINE
  5
182A5
  8
DANMEN
  6
CONTINUOUS
 10
49.584572
 20
174.448533
 30
0.0
 11
52.5
 21
177.363961
 31
0.0
  0
LINE
  5
182A6
  8
DANMEN
  6
CONTINUOUS
 10
47.746094
 20
174.731375
 30
0.0
 11
51.014719
 21
178.0
 31
0.0
  0
LINE
  5
182A7
  8
DANMEN
  6
CONTINUOUS
 10
46.5
 20
175.606602
 30
0.0
 11
48.893398
 21
178.0
 31
0.0
  0
LINE
  5
182A8
  8
DANMEN
  6
CONTINUOUS
 10
46.5
 20
180.0
 30
0.0
 11
46.5
 21
175.5
 31
0.0
  0
LINE
  5
182A9
  8
DANMEN
  6
CONTINUOUS
 10
46.0
 20
180.0
 30
0.0
 11
46.5
 21
180.0
 31
0.0
  0
ARC
  5
182AC
  8
DANMEN
  6
CONTINUOUS
 10
46.0
 20
175.5
 30
0.0
 40
0.5
 50
270.000018
 51
0.0
  0
LINE
  5
182AD
  8
DANMEN
  6
CONTINUOUS
 10
45.5
 20
179.5
 30
0.0
 11
45.5
 21
176.95
 31
0.0
  0
ARC
  5
182AF
  8
DANMEN
  6
CONTINUOUS
 10
46.0
 20
179.5
 30
0.0
 40
0.5
 50
89.999982
 51
180.000019
  0
LINE
  5
182B1
  8
DANMEN
  6
CONTINUOUS
 10
46.5
 20
177.727922
 30
0.0
 11
46.772078
 21
178.0
 31
0.0
  0
LINE
  5
182B2
  8
DANMEN
  6
CONTINUOUS
 10
52.5
 20
176.87868
 30
0.0
 11
51.37868
 21
178.0
 31
0.0
  0
LINE
  5
182B3
  8
DANMEN
  6
CONTINUOUS
 10
52.5
 20
174.757359
 30
0.0
 11
49.257359
 21
178.0
 31
0.0
  0
LINE
  5
182B4
  8
DANMEN
  6
CONTINUOUS
 10
60.0
 20
187.0
 30
0.0
 11
60.0
 21
171.0
 31
0.0
  0
LINE
  5
182B5
  8
DANMEN
  6
CONTINUOUS
 10
53.0
 20
187.0
 30
0.0
 11
53.0
 21
171.0
 31
0.0
  0
LINE
  5
182B6
  8
DANMEN
  6
CONTINUOUS
 10
60.5
 20
187.0
 30
0.0
 11
60.5
 21
171.0
 31
0.0
  0
LINE
  5
182B7
  8
DANMEN
  6
CONTINUOUS
 10
60.500004
 20
173.999997
 30
0.0
 11
67.000005
 21
174.999997
 31
0.0
  0
LINE
  5
182B8
  8
DANMEN
  6
CONTINUOUS
 10
63.415428
 20
174.448533
 30
0.0
 11
60.5
 21
177.363961
 31
0.0
  0
LINE
  5
182B9
  8
DANMEN
  6
CONTINUOUS
 10
61.576951
 20
174.16569
 30
0.0
 11
60.5
 21
175.242641
 31
0.0
  0
LINE
  5
182BA
  8
DANMEN
  6
CONTINUOUS
 10
60.5
 20
174.757359
 30
0.0
 11
63.742641
 21
178.0
 31
0.0
  0
LINE
  5
182BB
  8
DANMEN
  6
CONTINUOUS
 10
60.5
 20
176.87868
 30
0.0
 11
61.62132
 21
178.0
 31
0.0
  0
LINE
  5
182BE
  8
DANMEN
  6
CONTINUOUS
 10
67.049998
 20
174.923073
 30
0.0
 11
67.049998
 21
171.0
 31
0.0
  0
LINE
  5
182BF
  8
DANMEN
  6
CONTINUOUS
 10
64.618975
 20
174.633694
 30
0.0
 11
66.5
 21
176.514719
 31
0.0
  0
LINE
  5
182C0
  8
DANMEN
  6
CONTINUOUS
 10
62.11196
 20
174.247999
 30
0.0
 11
65.863961
 21
178.0
 31
0.0
  0
LINE
  5
182C1
  8
DANMEN
  6
CONTINUOUS
 10
66.5
 20
175.606602
 30
0.0
 11
64.106602
 21
178.0
 31
0.0
  0
LINE
  5
182C2
  8
DANMEN
  6
CONTINUOUS
 10
65.253906
 20
174.731375
 30
0.0
 11
61.985281
 21
178.0
 31
0.0
  0
LINE
  5
182C3
  8
DANMEN
  6
CONTINUOUS
 10
66.5
 20
180.0
 30
0.0
 11
66.5
 21
175.5
 31
0.0
  0
LINE
  5
182C4
  8
DANMEN
  6
CONTINUOUS
 10
66.5
 20
180.0
 30
0.0
 11
67.350006
 21
180.0
 31
0.0
  0
LINE
  5
182C5
  8
DANMEN
  6
CONTINUOUS
 10
67.0
 20
175.0
 30
0.0
 11
68.800003
 21
175.0
 31
0.0
  0
ARC
  5
182C7
  8
DANMEN
  6
CONTINUOUS
 10
67.0
 20
175.5
 30
0.0
 40
0.5
 50
180.000019
 51
270.000001
  0
LINE
  5
182CA
  8
DANMEN
  6
CONTINUOUS
 10
66.5
 20
177.727922
 30
0.0
 11
66.227922
 21
178.0
 31
0.0
  0
LINE
  5
182CB
  8
DANMEN
  6
CONTINUOUS
 10
51.649994
 20
206.5
 30
0.0
 11
67.350006
 21
206.5
 31
0.0
  0
LINE
  5
182CC
  8
DANMEN
  6
CONTINUOUS
 10
37.649994
 20
193.050003
 30
0.0
 11
67.350006
 21
193.050003
 31
0.0
  0
LINE
  5
182CD
  8
DANMEN
  6
CONTINUOUS
 10
51.649994
 20
195.0
 30
0.0
 11
67.350006
 21
195.0
 31
0.0
  0
LINE
  5
182CE
  8
DANMEN
  6
CONTINUOUS
 10
51.649994
 20
204.550003
 30
0.0
 11
55.199997
 21
204.550003
 31
0.0
  0
LINE
  5
182CF
  8
DANMEN
  6
CONTINUOUS
 10
51.649994
 20
204.550003
 30
0.0
 11
51.649994
 21
195.0
 31
0.0
  0
LINE
  5
182D5
  8
DANMEN
  6
CONTINUOUS
 10
47.2
 20
193.5
 30
0.0
 11
47.2
 21
195.0
 31
0.0
  0
LINE
  5
182D7
  8
DANMEN
  6
CONTINUOUS
 10
47.5
 20
193.5
 30
0.0
 11
47.5
 21
195.0
 31
0.0
  0
ARC
  5
182DC
  8
DANMEN
  6
CONTINUOUS
 10
63.8
 20
203.550003
 30
0.0
 40
1.0
 50
90.0
 51
180.0
  0
ARC
  5
182DD
  8
DANMEN
  6
CONTINUOUS
 10
55.2
 20
203.550003
 30
0.0
 40
1.0
 50
0.0
 51
90.0
  0
LINE
  5
182DE
  8
DANMEN
  6
CONTINUOUS
 10
57.7
 20
202.553939
 30
0.0
 11
57.7
 21
203.8
 31
0.0
  0
LINE
  5
182DF
  8
DANMEN
  6
CONTINUOUS
 10
61.3
 20
202.553939
 30
0.0
 11
61.3
 21
203.8
 31
0.0
  0
LINE
  5
182E0
  8
DANMEN
  6
CONTINUOUS
 10
67.350006
 20
204.550003
 30
0.0
 11
67.350006
 21
195.0
 31
0.0
  0
ARC
  5
182E1
  8
DANMEN
  6
CONTINUOUS
 10
60.3
 20
202.553939
 30
0.0
 40
1.0
 50
294.624318
 51
0.0
  0
LINE
  5
182E2
  8
DANMEN
  6
CONTINUOUS
 10
62.039379
 20
200.9
 30
0.0
 11
60.9
 21
200.9
 31
0.0
  0
ARC
  5
182E3
  8
DANMEN
  6
CONTINUOUS
 10
58.2
 20
202.469694
 30
0.0
 40
2.0
 50
180.0
 51
231.706523
  0
LINE
  5
182E4
  8
DANMEN
  6
CONTINUOUS
 10
56.2
 20
202.469694
 30
0.0
 11
56.2
 21
203.550003
 31
0.0
  0
LINE
  5
182E5
  8
DANMEN
  6
CONTINUOUS
 10
58.4
 20
201.2
 30
0.0
 11
58.4
 21
201.463068
 31
0.0
  0
ARC
  5
182E6
  8
DANMEN
  6
CONTINUOUS
 10
58.7
 20
202.553939
 30
0.0
 40
1.0
 50
180.0
 51
245.375682
  0
ARC
  5
182E7
  8
DANMEN
  6
CONTINUOUS
 10
58.2
 20
201.463068
 30
0.0
 40
0.2
 50
0.0
 51
65.375682
  0
ARC
  5
182E8
  8
DANMEN
  6
CONTINUOUS
 10
60.8
 20
201.463068
 30
0.0
 40
0.2
 50
114.624318
 51
180.0
  0
LINE
  5
182E9
  8
DANMEN
  6
CONTINUOUS
 10
60.6
 20
201.2
 30
0.0
 11
60.6
 21
201.463068
 31
0.0
  0
LINE
  5
182EC
  8
DANMEN
  6
CONTINUOUS
 10
58.1
 20
200.9
 30
0.0
 11
56.960621
 21
200.9
 31
0.0
  0
ARC
  5
182ED
  8
DANMEN
  6
CONTINUOUS
 10
58.1
 20
201.2
 30
0.0
 40
0.3
 50
270.0
 51
0.0
  0
ARC
  5
182EE
  8
DANMEN
  6
CONTINUOUS
 10
60.9
 20
201.2
 30
0.0
 40
0.3
 50
180.0
 51
270.0
  0
LINE
  5
182F2
  8
DANMEN
  6
CONTINUOUS
 10
62.8
 20
202.469694
 30
0.0
 11
62.8
 21
203.550003
 31
0.0
  0
ARC
  5
182F3
  8
DANMEN
  6
CONTINUOUS
 10
60.8
 20
202.469694
 30
0.0
 40
2.0
 50
308.293477
 51
0.0
  0
ARC
  5
182F4
  8
DANMEN
  6
CONTINUOUS
 10
60.3
 20
203.8
 30
0.0
 40
1.0
 50
0.0
 51
90.0
  0
ARC
  5
182F5
  8
DANMEN
  6
CONTINUOUS
 10
59.5
 20
214.0
 30
0.0
 40
4.0
 50
180.000019
 51
359.999983
  0
ARC
  5
182F7
  8
DANMEN
  6
CONTINUOUS
 10
58.7
 20
203.8
 30
0.0
 40
1.0
 50
90.0
 51
180.0
  0
LINE
  5
182F8
  8
DANMEN
  6
CONTINUOUS
 10
60.3
 20
204.8
 30
0.0
 11
58.7
 21
204.8
 31
0.0
  0
LINE
  5
182F9
  8
DANMEN
  6
CONTINUOUS
 10
63.800003
 20
204.550003
 30
0.0
 11
67.350006
 21
204.550003
 31
0.0
  0
LINE
  5
182FD
  8
DANMEN
  6
CONTINUOUS
 10
59.1
 20
248.0
 30
0.0
 11
59.1
 21
237.101833
 31
0.0
  0
LINE
  5
182FE
  8
DANMEN
  6
CONTINUOUS
 10
60.75
 20
248.0
 30
0.0
 11
60.75
 21
227.061553
 31
0.0
  0
LINE
  5
182FF
  8
DANMEN
  6
CONTINUOUS
 10
42.149994
 20
248.0
 30
0.0
 11
42.149994
 21
225.5
 31
0.0
  0
LINE
  5
18300
  8
DANMEN
  6
CONTINUOUS
 10
40.5
 20
259.5
 30
0.0
 11
40.5
 21
225.5
 31
0.0
  0
LINE
  5
18301
  8
DANMEN
  6
CONTINUOUS
 10
47.5
 20
233.0
 30
0.0
 11
55.5
 21
233.0
 31
0.0
  0
ARC
  5
18302
  8
DANMEN
  6
CONTINUOUS
 10
41.0
 20
225.5
 30
0.0
 40
0.5
 50
180.000019
 51
270.000001
  0
ARC
  5
18303
  8
DANMEN
  6
CONTINUOUS
 10
41.649994
 20
225.5
 30
0.0
 40
0.5
 50
270.000018
 51
0.0
  0
LINE
  5
18304
  8
DANMEN
  6
CONTINUOUS
 10
41.0
 20
225.0
 30
0.0
 11
41.649994
 21
225.0
 31
0.0
  0
LINE
  5
18305
  8
DANMEN
  6
CONTINUOUS
 10
50.602047
 20
231.285359
 30
0.0
 11
50.436363
 21
233.779863
 31
0.0
  0
LINE
  5
18306
  8
DANMEN
  6
CONTINUOUS
 10
49.604246
 20
231.219085
 30
0.0
 11
49.471698
 21
233.214688
 31
0.0
  0
ARC
  5
18307
  8
DANMEN
  6
CONTINUOUS
 10
51.149994
 20
232.5
 30
0.0
 40
0.5
 50
0.0
 51
90.0
  0
ARC
  5
18308
  8
DANMEN
  6
CONTINUOUS
 10
50.199997
 20
232.5
 30
0.0
 40
0.5
 50
90.0
 51
180.0
  0
ARC
  5
18309
  8
DANMEN
  6
CONTINUOUS
 10
50.103147
 20
231.252222
 30
0.0
 40
0.5
 50
183.8
 51
3.8
  0
LINE
  5
1830C
  8
DANMEN
  6
CONTINUOUS
 10
49.537972
 20
232.216887
 30
0.0
 11
50.535774
 21
232.283161
 31
0.0
  0
LINE
  5
18310
  8
DANMEN
  6
CONTINUOUS
 10
50.4695
 20
233.280962
 30
0.0
 11
47.176108
 21
233.062215
 31
0.0
  0
LINE
  5
18311
  8
DANMEN
  6
CONTINUOUS
 10
49.904325
 20
234.245627
 30
0.0
 11
46.874018
 21
234.044354
 31
0.0
  0
ARC
  5
18315
  8
DANMEN
  6
CONTINUOUS
 10
46.907155
 20
233.545453
 30
0.0
 40
0.5
 50
93.8
 51
179.401295
  0
ARC
  5
18318
  8
DANMEN
  6
CONTINUOUS
 10
49.937462
 20
233.746726
 30
0.0
 40
0.5
 50
3.8
 51
93.8
  0
LINE
  5
1831C
  8
DANMEN
  6
CONTINUOUS
 10
50.199997
 20
233.0
 30
0.0
 11
51.149994
 21
233.0
 31
0.0
  0
LINE
  5
1831D
  8
DANMEN
  6
CONTINUOUS
 10
58.655317
 20
225.378732
 30
0.0
 11
58.264929
 21
226.940285
 31
0.0
  0
LINE
  5
1831E
  8
DANMEN
  6
CONTINUOUS
 10
60.735071
 20
226.940285
 30
0.0
 11
60.344683
 21
225.378732
 31
0.0
  0
ARC
  5
1831F
  8
DANMEN
  6
CONTINUOUS
 10
59.859612
 20
225.5
 30
0.0
 40
0.5
 50
270.0
 51
345.963757
  0
ARC
  5
18320
  8
DANMEN
  6
CONTINUOUS
 10
59.140388
 20
225.5
 30
0.0
 40
0.5
 50
194.036243
 51
270.0
  0
LINE
  5
18321
  8
DANMEN
  6
CONTINUOUS
 10
59.140388
 20
225.0
 30
0.0
 11
59.859612
 21
225.0
 31
0.0
  0
ARC
  5
18323
  8
DANMEN
  6
CONTINUOUS
 10
68.350006
 20
221.95
 30
0.0
 40
1.0
 50
90.0
 51
180.0
  0
LINE
  5
18324
  8
DANMEN
  6
CONTINUOUS
 10
58.25
 20
234.898149
 30
0.0
 11
58.25
 21
227.061553
 31
0.0
  0
ARC
  5
18325
  8
DANMEN
  6
CONTINUOUS
 10
60.25
 20
227.061553
 30
0.0
 40
0.5
 50
345.963757
 51
0.0
  0
ARC
  5
18326
  8
DANMEN
  6
CONTINUOUS
 10
58.75
 20
227.061553
 30
0.0
 40
0.5
 50
180.0
 51
194.036243
  0
ARC
  5
18327
  8
DANMEN
  6
CONTINUOUS
 10
58.75
 20
234.898149
 30
0.0
 40
0.5
 50
156.974508
 51
180.0
  0
ARC
  5
18328
  8
DANMEN
  6
CONTINUOUS
 10
58.6
 20
237.101833
 30
0.0
 40
0.5
 50
336.974508
 51
0.0
  0
LINE
  5
18329
  8
DANMEN
  6
CONTINUOUS
 10
59.060165
 20
236.906263
 30
0.0
 11
58.289835
 21
235.09372
 31
0.0
  0
LINE
  5
1832A
  8
DANMEN
  6
CONTINUOUS
 10
42.149994
 20
249.649994
 30
0.0
 11
56.199997
 21
249.649994
 31
0.0
  0
LINE
  5
1832B
  8
DANMEN
  6
CONTINUOUS
 10
42.149994
 20
248.0
 30
0.0
 11
59.1
 21
248.0
 31
0.0
  0
LINE
  5
1832C
  8
DANMEN
  6
CONTINUOUS
 10
42.149994
 20
258.350006
 30
0.0
 11
42.149994
 21
249.649994
 31
0.0
  0
LINE
  5
1832D
  8
DANMEN
  6
CONTINUOUS
 10
42.149994
 20
258.350006
 30
0.0
 11
46.0
 21
258.350006
 31
0.0
  0
LINE
  5
1832E
  8
DANMEN
  6
CONTINUOUS
 10
41.0
 20
260.0
 30
0.0
 11
46.0
 21
260.0
 31
0.0
  0
ARC
  5
1832F
  8
DANMEN
  6
CONTINUOUS
 10
41.0
 20
259.5
 30
0.0
 40
0.5
 50
89.999982
 51
180.000019
  0
ARC
  5
18330
  8
DANMEN
  6
CONTINUOUS
 10
46.0
 20
259.5
 30
0.0
 40
0.5
 50
0.0
 51
89.999982
  0
ARC
  5
18331
  8
DANMEN
  6
CONTINUOUS
 10
46.0
 20
258.850006
 30
0.0
 40
0.5
 50
270.000018
 51
0.0
  0
LINE
  5
18332
  8
DANMEN
  6
CONTINUOUS
 10
46.5
 20
259.5
 30
0.0
 11
46.5
 21
258.850006
 31
0.0
  0
ARC
  5
18333
  8
DANMEN
  6
CONTINUOUS
 10
56.2
 20
250.649994
 30
0.0
 40
1.0
 50
270.0
 51
0.0
  0
ARC
  5
18334
  8
DANMEN
  6
CONTINUOUS
 10
61.3
 20
250.7
 30
0.0
 40
1.0
 50
270.0
 51
0.0
  0
ARC
  5
18335
  8
DANMEN
  6
CONTINUOUS
 10
59.7
 20
250.7
 30
0.0
 40
1.0
 50
180.0
 51
270.0
  0
LINE
  5
18336
  8
DANMEN
  6
CONTINUOUS
 10
64.0
 20
251.950012
 30
0.0
 11
64.0
 21
248.8
 31
0.0
  0
LINE
  5
18337
  8
DANMEN
  6
CONTINUOUS
 10
61.3
 20
249.7
 30
0.0
 11
59.7
 21
249.7
 31
0.0
  0
LINE
  5
18338
  8
DANMEN
  6
CONTINUOUS
 10
60.75
 20
248.0
 30
0.0
 11
65.0
 21
248.0
 31
0.0
  0
ARC
  5
18339
  8
DANMEN
  6
CONTINUOUS
 10
65.0
 20
248.5
 30
0.0
 40
0.5
 50
270.000018
 51
0.0
  0
LINE
  5
1833A
  8
DANMEN
  6
CONTINUOUS
 10
64.0
 20
248.8
 30
0.0
 11
65.5
 21
248.8
 31
0.0
  0
LINE
  5
1833B
  8
DANMEN
  6
CONTINUOUS
 10
65.5
 20
248.8
 30
0.0
 11
65.5
 21
248.5
 31
0.0
  0
LINE
  5
1833D
  8
DANMEN
  6
CONTINUOUS
 10
59.4
 20
253.3
 30
0.0
 11
59.4
 21
253.036932
 31
0.0
  0
ARC
  5
1833E
  8
DANMEN
  6
CONTINUOUS
 10
59.7
 20
251.946061
 30
0.0
 40
1.0
 50
114.624318
 51
180.0
  0
ARC
  5
1833F
  8
DANMEN
  6
CONTINUOUS
 10
59.2
 20
253.036932
 30
0.0
 40
0.2
 50
294.624318
 51
0.0
  0
ARC
  5
18340
  8
DANMEN
  6
CONTINUOUS
 10
59.2
 20
252.030306
 30
0.0
 40
2.0
 50
128.293477
 51
180.0
  0
LINE
  5
18341
  8
DANMEN
  6
CONTINUOUS
 10
57.2
 20
252.030306
 30
0.0
 11
57.2
 21
250.649994
 31
0.0
  0
LINE
  5
18342
  8
DANMEN
  6
CONTINUOUS
 10
58.7
 20
251.946061
 30
0.0
 11
58.7
 21
250.7
 31
0.0
  0
LINE
  5
18343
  8
DANMEN
  6
CONTINUOUS
 10
59.1
 20
253.6
 30
0.0
 11
57.960621
 21
253.6
 31
0.0
  0
ARC
  5
18344
  8
DANMEN
  6
CONTINUOUS
 10
59.1
 20
253.3
 30
0.0
 40
0.3
 50
0.0
 51
90.0
  0
ARC
  5
18345
  8
DANMEN
  6
CONTINUOUS
 10
61.9
 20
253.300012
 30
0.0
 40
0.3
 50
90.0
 51
180.0
  0
ARC
  5
18346
  8
DANMEN
  6
CONTINUOUS
 10
61.8
 20
253.036932
 30
0.0
 40
0.2
 50
180.0
 51
245.375682
  0
ARC
  5
18347
  8
DANMEN
  6
CONTINUOUS
 10
61.3
 20
251.946061
 30
0.0
 40
1.0
 50
0.0
 51
65.375682
  0
LINE
  5
18348
  8
DANMEN
  6
CONTINUOUS
 10
61.6
 20
253.300012
 30
0.0
 11
61.6
 21
253.036932
 31
0.0
  0
LINE
  5
18349
  8
DANMEN
  6
CONTINUOUS
 10
62.3
 20
251.946061
 30
0.0
 11
62.3
 21
250.7
 31
0.0
  0
LINE
  5
1834A
  8
DANMEN
  6
CONTINUOUS
 10
108.7
 20
209.999997
 30
0.0
 11
108.7
 21
224.499997
 31
0.0
  0
LINE
  5
1834B
  8
DANMEN
  6
CONTINUOUS
 10
79.5
 20
206.999997
 30
0.0
 11
79.5
 21
224.5
 31
0.0
  0
LINE
  5
1834C
  8
DANMEN
  6
CONTINUOUS
 10
69.300003
 20
221.0
 30
0.0
 11
69.300003
 21
175.5
 31
0.0
  0
LINE
  5
1834D
  8
DANMEN
  6
CONTINUOUS
 10
110.5
 20
210.149997
 30
0.0
 11
110.5
 21
225.0
 31
0.0
  0
LINE
  5
1834E
  8
DANMEN
  6
CONTINUOUS
 10
71.5
 20
233.0
 30
0.0
 11
71.5
 21
171.0
 31
0.0
  0
LINE
  5
1834F
  8
DANMEN
  6
DASHED
 10
77.0
 20
225.0
 30
0.0
 11
77.0
 21
171.0
 31
0.0
  0
LINE
  5
18350
  8
DANMEN
  6
CONTINUOUS
 10
74.0
 20
225.0
 30
0.0
 11
74.0
 21
171.0
 31
0.0
  0
LINE
  5
18351
  8
DANMEN
  6
CONTINUOUS
 10
108.61785
 20
224.995322
 30
0.0
 11
108.7
 21
212.999997
 31
0.0
  0
LINE
  5
18352
  8
DANMEN
  6
CONTINUOUS
 10
109.623338
 20
224.451912
 30
0.0
 11
110.187844
 21
213.000834
 31
0.0
  0
LINE
  5
18353
  8
DANMEN
  6
CONTINUOUS
 10
108.917964
 20
224.963778
 30
0.0
 11
109.000056
 21
212.984777
 31
0.0
  0
LINE
  5
18354
  8
DANMEN
  6
CONTINUOUS
 10
115.3
 20
169.0
 30
0.0
 11
115.3
 21
132.500001
 31
0.0
  0
LINE
  5
18355
  8
DANMEN
  6
CONTINUOUS
 10
79.5
 20
169.0
 30
0.0
 11
79.5
 21
132.500001
 31
0.0
  0
LINE
  5
18356
  8
DANMEN
  6
CONTINUOUS
 10
81.425002
 20
133.000001
 30
0.0
 11
81.425002
 21
169.0
 31
0.0
  0
LINE
  5
18357
  8
DANMEN
  6
CONTINUOUS
 10
102.524998
 20
133.000001
 30
0.0
 11
102.524998
 21
169.0
 31
0.0
  0
LINE
  5
18358
  8
DANMEN
  6
CONTINUOUS
 10
102.5
 20
123.000003
 30
0.0
 11
102.0
 21
123.000003
 31
0.0
  0
LINE
  5
18359
  8
DANMEN
  6
CONTINUOUS
 10
102.5
 20
128.000003
 30
0.0
 11
102.0
 21
128.000003
 31
0.0
  0
ARC
  5
1835A
  8
DANMEN
  6
CONTINUOUS
 10
102.5
 20
132.500003
 30
0.0
 40
0.5
 50
90.0
 51
180.0
  0
LINE
  5
1835B
  8
DANMEN
  6
CONTINUOUS
 10
96.025004
 20
134.000001
 30
0.0
 11
102.525005
 21
133.000001
 31
0.0
  0
LINE
  5
1835C
  8
DANMEN
  6
CONTINUOUS
 10
88.025
 20
130.636037
 30
0.0
 11
85.109572
 21
133.551465
 31
0.0
  0
LINE
  5
1835D
  8
DANMEN
  6
CONTINUOUS
 10
86.539719
 20
129.999998
 30
0.0
 11
83.271094
 21
133.268623
 31
0.0
  0
LINE
  5
1835E
  8
DANMEN
  6
CONTINUOUS
 10
84.782359
 20
129.999998
 30
0.0
 11
88.025
 21
133.242639
 31
0.0
  0
LINE
  5
1835F
  8
DANMEN
  6
CONTINUOUS
 10
82.661039
 20
129.999998
 30
0.0
 11
86.41304
 21
133.751999
 31
0.0
  0
LINE
  5
18360
  8
DANMEN
  6
CONTINUOUS
 10
88.025003
 20
133.999993
 30
0.0
 11
81.525002
 21
132.999993
 31
0.0
  0
LINE
  5
18361
  8
DANMEN
  6
CONTINUOUS
 10
82.0
 20
132.500003
 30
0.0
 11
82.0
 21
128.000003
 31
0.0
  0
LINE
  5
18362
  8
DANMEN
  6
CONTINUOUS
 10
81.15
 20
128.000003
 30
0.0
 11
82.0
 21
128.000003
 31
0.0
  0
ARC
  5
18365
  8
DANMEN
  6
CONTINUOUS
 10
81.5
 20
132.500003
 30
0.0
 40
0.5
 50
0.0
 51
90.0
  0
LINE
  5
18367
  8
DANMEN
  6
CONTINUOUS
 10
80.0
 20
133.000003
 30
0.0
 11
81.5
 21
133.000003
 31
0.0
  0
ARC
  5
18368
  8
DANMEN
  6
CONTINUOUS
 10
80.0
 20
132.500003
 30
0.0
 40
0.5
 50
90.0
 51
180.0
  0
LINE
  5
1836A
  8
DANMEN
  6
CONTINUOUS
 10
84.418398
 20
129.999998
 30
0.0
 11
82.025
 21
132.393396
 31
0.0
  0
LINE
  5
1836B
  8
DANMEN
  6
CONTINUOUS
 10
82.297078
 20
129.999998
 30
0.0
 11
82.025
 21
130.272076
 31
0.0
  0
LINE
  5
1836C
  8
DANMEN
  6
CONTINUOUS
 10
82.025
 20
131.485279
 30
0.0
 11
83.906025
 21
133.366304
 31
0.0
  0
LINE
  5
1836D
  8
DANMEN
  6
CONTINUOUS
 10
88.025
 20
132.757357
 30
0.0
 11
86.948049
 21
133.834308
 31
0.0
  0
LINE
  5
1836E
  8
DANMEN
  6
CONTINUOUS
 10
86.90368
 20
129.999998
 30
0.0
 11
88.025
 21
131.121318
 31
0.0
  0
LINE
  5
18371
  8
DANMEN
  6
CONTINUOUS
 10
102.0
 20
132.500002
 30
0.0
 11
102.0
 21
128.000003
 31
0.0
  0
LINE
  5
18373
  8
DANMEN
  6
CONTINUOUS
 10
102.0
 20
123.000003
 30
0.0
 11
102.0
 21
122.500003
 31
0.0
  0
LINE
  5
18375
  8
DANMEN
  6
CONTINUOUS
 10
101.388961
 20
129.999998
 30
0.0
 11
97.63696
 21
133.751999
 31
0.0
  0
LINE
  5
18376
  8
DANMEN
  6
CONTINUOUS
 10
99.267641
 20
129.999998
 30
0.0
 11
96.025
 21
133.242639
 31
0.0
  0
LINE
  5
18377
  8
DANMEN
  6
CONTINUOUS
 10
97.510281
 20
129.999998
 30
0.0
 11
100.778906
 21
133.268623
 31
0.0
  0
LINE
  5
18378
  8
DANMEN
  6
CONTINUOUS
 10
96.025
 20
130.636037
 30
0.0
 11
98.940428
 21
133.551465
 31
0.0
  0
LINE
  5
18379
  8
DANMEN
  6
CONTINUOUS
 10
97.14632
 20
129.999998
 30
0.0
 11
96.025
 21
131.121318
 31
0.0
  0
LINE
  5
1837A
  8
DANMEN
  6
CONTINUOUS
 10
96.025
 20
132.757357
 30
0.0
 11
97.101951
 21
133.834308
 31
0.0
  0
LINE
  5
1837C
  8
DANMEN
  6
CONTINUOUS
 10
102.025
 20
131.485279
 30
0.0
 11
100.143975
 21
133.366304
 31
0.0
  0
LINE
  5
1837D
  8
DANMEN
  6
CONTINUOUS
 10
101.752922
 20
129.999998
 30
0.0
 11
102.025
 21
130.272076
 31
0.0
  0
LINE
  5
1837E
  8
DANMEN
  6
CONTINUOUS
 10
99.631602
 20
129.999998
 30
0.0
 11
102.025
 21
132.393396
 31
0.0
  0
LINE
  5
18380
  8
DANMEN
  6
CONTINUOUS
 10
103.5
 20
131.350003
 30
0.0
 11
113.65
 21
131.350003
 31
0.0
  0
LINE
  5
18381
  8
DANMEN
  6
CONTINUOUS
 10
102.5
 20
133.000003
 30
0.0
 11
114.8
 21
133.000003
 31
0.0
  0
LINE
  5
18382
  8
DANMEN
  6
CONTINUOUS
 10
103.5
 20
131.350003
 30
0.0
 11
103.5
 21
122.500003
 31
0.0
  0
LINE
  5
18385
  8
DANMEN
  6
CONTINUOUS
 10
102.5
 20
128.000003
 30
0.0
 11
102.5
 21
123.000003
 31
0.0
  0
ARC
  5
18389
  8
DANMEN
  6
CONTINUOUS
 10
114.8
 20
132.500003
 30
0.0
 40
0.5
 50
0.0
 51
89.999982
  0
LINE
  5
1838A
  8
DANMEN
  6
CONTINUOUS
 10
86.200006
 20
214.499997
 30
0.0
 11
107.05
 21
214.499997
 31
0.0
  0
LINE
  5
1838B
  8
DANMEN
  6
CONTINUOUS
 10
96.049997
 20
186.000003
 30
0.0
 11
102.549998
 21
187.000003
 31
0.0
  0
ARC
  5
1838C
  8
DANMEN
  6
CONTINUOUS
 10
102.5
 20
187.499997
 30
0.0
 40
0.5
 50
180.0
 51
270.0
  0
ARC
  5
1838D
  8
DANMEN
  6
CONTINUOUS
 10
102.5
 20
196.499997
 30
0.0
 40
0.5
 50
90.0
 51
180.0
  0
LINE
  5
1838E
  8
DANMEN
  6
CONTINUOUS
 10
102.5
 20
195.999997
 30
0.0
 11
102.0
 21
195.999997
 31
0.0
  0
LINE
  5
1838F
  8
DANMEN
  6
CONTINUOUS
 10
102.5
 20
191.999997
 30
0.0
 11
102.0
 21
191.999997
 31
0.0
  0
LINE
  5
18390
  8
DANMEN
  6
CONTINUOUS
 10
95.55
 20
198.999998
 30
0.0
 11
95.55
 21
171.0
 31
0.0
  0
LINE
  5
18391
  8
DANMEN
  6
CONTINUOUS
 10
88.55
 20
198.999998
 30
0.0
 11
88.55
 21
170.999998
 31
0.0
  0
LINE
  5
18392
  8
DANMEN
  6
CONTINUOUS
 10
88.05
 20
198.999998
 30
0.0
 11
88.05
 21
171.0
 31
0.0
  0
LINE
  5
18393
  8
DANMEN
  6
CONTINUOUS
 10
96.05
 20
198.999998
 30
0.0
 11
96.05
 21
170.999998
 31
0.0
  0
LINE
  5
18394
  8
DANMEN
  6
CONTINUOUS
 10
81.45
 20
192.0
 30
0.0
 11
81.45
 21
204.699997
 31
0.0
  0
LINE
  5
18395
  8
DANMEN
  6
CONTINUOUS
 10
79.5
 20
187.500001
 30
0.0
 11
79.5
 21
206.999997
 31
0.0
  0
LINE
  5
18396
  8
DANMEN
  6
CONTINUOUS
 10
82.686039
 20
189.999998
 30
0.0
 11
86.43804
 21
186.247998
 31
0.0
  0
LINE
  5
18397
  8
DANMEN
  6
CONTINUOUS
 10
84.807359
 20
189.999998
 30
0.0
 11
88.05
 21
186.757358
 31
0.0
  0
LINE
  5
18398
  8
DANMEN
  6
CONTINUOUS
 10
86.564719
 20
189.999998
 30
0.0
 11
83.296094
 21
186.731374
 31
0.0
  0
LINE
  5
18399
  8
DANMEN
  6
CONTINUOUS
 10
88.05
 20
189.363959
 30
0.0
 11
85.134572
 21
186.448531
 31
0.0
  0
LINE
  5
1839A
  8
DANMEN
  6
CONTINUOUS
 10
88.049996
 20
185.999996
 30
0.0
 11
81.549995
 21
186.999996
 31
0.0
  0
LINE
  5
1839B
  8
DANMEN
  6
CONTINUOUS
 10
79.55
 20
187.500001
 30
0.0
 11
79.55
 21
171.0
 31
0.0
  0
LINE
  5
1839C
  8
DANMEN
  6
CONTINUOUS
 10
81.450002
 20
171.0
 30
0.0
 11
81.450002
 21
186.999998
 31
0.0
  0
ARC
  5
1839E
  8
DANMEN
  6
CONTINUOUS
 10
81.5
 20
187.5
 30
0.0
 40
0.5
 50
270.0
 51
0.0
  0
LINE
  5
1839F
  8
DANMEN
  6
CONTINUOUS
 10
81.45
 20
192.0
 30
0.0
 11
82.0
 21
192.0
 31
0.0
  0
LINE
  5
183A1
  8
DANMEN
  6
CONTINUOUS
 10
80.0
 20
187.0
 30
0.0
 11
81.5
 21
187.0
 31
0.0
  0
ARC
  5
183A2
  8
DANMEN
  6
CONTINUOUS
 10
80.0
 20
187.5
 30
0.0
 40
0.5
 50
179.999872
 51
269.999909
  0
LINE
  5
183A5
  8
DANMEN
  6
CONTINUOUS
 10
82.05
 20
188.514717
 30
0.0
 11
83.931025
 21
186.633692
 31
0.0
  0
LINE
  5
183A6
  8
DANMEN
  6
CONTINUOUS
 10
82.322078
 20
189.999998
 30
0.0
 11
82.05
 21
189.72792
 31
0.0
  0
LINE
  5
183A7
  8
DANMEN
  6
CONTINUOUS
 10
84.443398
 20
189.999998
 30
0.0
 11
82.05
 21
187.6066
 31
0.0
  0
LINE
  5
183A9
  8
DANMEN
  6
CONTINUOUS
 10
82.0
 20
187.500001
 30
0.0
 11
82.0
 21
192.0
 31
0.0
  0
LINE
  5
183AB
  8
DANMEN
  6
CONTINUOUS
 10
88.05
 20
187.242639
 30
0.0
 11
86.973049
 21
186.165688
 31
0.0
  0
LINE
  5
183AC
  8
DANMEN
  6
CONTINUOUS
 10
86.92868
 20
189.999998
 30
0.0
 11
88.05
 21
188.878678
 31
0.0
  0
LINE
  5
183AF
  8
DANMEN
  6
CONTINUOUS
 10
96.05
 20
187.242639
 30
0.0
 11
97.126951
 21
186.165688
 31
0.0
  0
LINE
  5
183B0
  8
DANMEN
  6
CONTINUOUS
 10
101.413961
 20
189.999998
 30
0.0
 11
97.66196
 21
186.247998
 31
0.0
  0
LINE
  5
183B1
  8
DANMEN
  6
CONTINUOUS
 10
96.05
 20
189.363959
 30
0.0
 11
98.965428
 21
186.448531
 31
0.0
  0
LINE
  5
183B2
  8
DANMEN
  6
CONTINUOUS
 10
97.535281
 20
189.999998
 30
0.0
 11
100.803906
 21
186.731374
 31
0.0
  0
LINE
  5
183B3
  8
DANMEN
  6
CONTINUOUS
 10
99.292641
 20
189.999998
 30
0.0
 11
96.05
 21
186.757358
 31
0.0
  0
LINE
  5
183B4
  8
DANMEN
  6
CONTINUOUS
 10
97.17132
 20
189.999998
 30
0.0
 11
96.05
 21
188.878678
 31
0.0
  0
LINE
  5
183B5
  8
DANMEN
  6
CONTINUOUS
 10
99.656602
 20
189.999998
 30
0.0
 11
102.05
 21
187.6066
 31
0.0
  0
LINE
  5
183B6
  8
DANMEN
  6
CONTINUOUS
 10
101.777922
 20
189.999998
 30
0.0
 11
102.05
 21
189.72792
 31
0.0
  0
LINE
  5
183B7
  8
DANMEN
  6
CONTINUOUS
 10
102.05
 20
188.514717
 30
0.0
 11
100.168975
 21
186.633692
 31
0.0
  0
LINE
  5
183B9
  8
DANMEN
  6
CONTINUOUS
 10
102.0
 20
187.499998
 30
0.0
 11
102.0
 21
191.999997
 31
0.0
  0
ARC
  5
183BB
  8
DANMEN
  6
CONTINUOUS
 10
85.809908
 20
209.499997
 30
0.0
 40
0.5
 50
191.309932
 51
270.0
  0
ARC
  5
183BC
  8
DANMEN
  6
CONTINUOUS
 10
82.002184
 20
209.399933
 30
0.0
 40
0.5
 50
149.886267
 51
243.881419
  0
LINE
  5
183BD
  8
DANMEN
  6
CONTINUOUS
 10
83.15
 20
205.699997
 30
0.0
 11
83.15
 21
209.734021
 31
0.0
  0
LINE
  5
183BE
  8
DANMEN
  6
CONTINUOUS
 10
85.000006
 20
210.999997
 30
0.0
 11
85.319618
 21
209.401939
 31
0.0
  0
LINE
  5
183BF
  8
DANMEN
  6
CONTINUOUS
 10
81.15
 20
208.999997
 30
0.0
 11
81.15
 21
214.999997
 31
0.0
  0
LINE
  5
183C0
  8
DANMEN
  6
CONTINUOUS
 10
81.45
 20
206.699997
 30
0.0
 11
81.95
 21
206.699997
 31
0.0
  0
ARC
  5
183C1
  8
DANMEN
  6
CONTINUOUS
 10
81.95
 20
204.699997
 30
0.0
 40
0.5
 50
90.0
 51
180.0
  0
ARC
  5
183C2
  8
DANMEN
  6
CONTINUOUS
 10
81.207801
 20
207.499997
 30
0.0
 40
0.5
 50
270.0
 51
330.603827
  0
LINE
  5
183C3
  8
DANMEN
  6
CONTINUOUS
 10
81.7
 20
208.999997
 30
0.0
 11
81.15
 21
208.999997
 31
0.0
  0
LINE
  5
183C6
  8
DANMEN
  6
CONTINUOUS
 10
79.5
 20
206.999997
 30
0.0
 11
81.45
 21
206.999997
 31
0.0
  0
LINE
  5
183CB
  8
DANMEN
  6
CONTINUOUS
 10
81.45
 20
206.699997
 30
0.0
 11
81.45
 21
206.999997
 31
0.0
  0
LINE
  5
183CF
  8
DANMEN
  6
CONTINUOUS
 10
79.5
 20
206.999997
 30
0.0
 11
81.207801
 21
206.999997
 31
0.0
  0
ARC
  5
183D1
  8
DANMEN
  6
CONTINUOUS
 10
81.65
 20
208.681625
 30
0.0
 40
0.3
 50
0.0
 51
63.881419
  0
ARC
  5
183D4
  8
DANMEN
  6
CONTINUOUS
 10
82.65
 20
205.699997
 30
0.0
 40
0.5
 50
270.0
 51
0.0
  0
LINE
  5
183D5
  8
DANMEN
  6
CONTINUOUS
 10
81.95
 20
205.199997
 30
0.0
 11
82.65
 21
205.199997
 31
0.0
  0
LINE
  5
183D8
  8
DANMEN
  6
CONTINUOUS
 10
81.95
 20
206.699997
 30
0.0
 11
81.95
 21
208.681625
 31
0.0
  0
LINE
  5
183DC
  8
DANMEN
  6
CONTINUOUS
 10
82.0
 20
208.699997
 30
0.0
 11
82.0
 21
207.996242
 31
0.0
  0
LINE
  5
183DD
  8
DANMEN
  6
CONTINUOUS
 10
82.0
 20
207.996242
 30
0.0
 11
81.643425
 21
207.254574
 31
0.0
  0
ARC
  5
183DE
  8
DANMEN
  6
CONTINUOUS
 10
81.7
 20
208.699997
 30
0.0
 40
0.3
 50
0.0
 51
90.0
  0
LINE
  5
183E1
  8
DANMEN
  6
CONTINUOUS
 10
81.15
 20
214.999997
 30
0.0
 11
85.000006
 21
214.999997
 31
0.0
  0
ARC
  5
183E6
  8
DANMEN
  6
CONTINUOUS
 10
83.69418
 20
212.893234
 30
0.0
 40
0.3
 50
322.327843
 51
55.291951
  0
LINE
  5
183E7
  8
DANMEN
  6
CONTINUOUS
 10
83.15
 20
209.734021
 30
0.0
 11
85.1
 21
212.259561
 31
0.0
  0
LINE
  5
183E8
  8
DANMEN
  6
CONTINUOUS
 10
83.864998
 20
213.139854
 30
0.0
 11
83.215303
 21
213.589859
 31
0.0
  0
LINE
  5
183EA
  8
DANMEN
  6
CONTINUOUS
 10
85.1
 20
213.500891
 30
0.0
 11
83.784698
 21
214.411923
 31
0.0
  0
LINE
  5
183EC
  8
DANMEN
  6
CONTINUOUS
 10
81.569669
 20
209.650792
 30
0.0
 11
83.931636
 21
212.709892
 31
0.0
  0
LINE
  5
183EE
  8
DANMEN
  6
CONTINUOUS
 10
85.1
 20
212.259561
 30
0.0
 11
85.1
 21
213.500891
 31
0.0
  0
ARC
  5
183EF
  8
DANMEN
  6
CONTINUOUS
 10
83.5
 20
214.000891
 30
0.0
 40
0.5
 50
55.291951
 51
235.291951
  0
LINE
  5
183F3
  8
DANMEN
  6
CONTINUOUS
 10
85.000006
 20
210.999997
 30
0.0
 11
85.000006
 21
214.999997
 31
0.0
  0
LINE
  5
183F5
  8
DANMEN
  6
CONTINUOUS
 10
88.05
 20
198.999998
 30
0.0
 11
96.05
 21
198.999998
 31
0.0
  0
LINE
  5
183F8
  8
DANMEN
  6
CONTINUOUS
 10
102.0
 20
195.999997
 30
0.0
 11
102.0
 21
196.499997
 31
0.0
  0
LINE
  5
183F9
  8
DANMEN
  6
CONTINUOUS
 10
86.200006
 20
208.999997
 30
0.0
 11
86.200006
 21
214.499997
 31
0.0
  0
LINE
  5
183FB
  8
DANMEN
  6
CONTINUOUS
 10
85.809908
 20
208.999997
 30
0.0
 11
86.200006
 21
208.999997
 31
0.0
  0
LINE
  5
183FF
  8
DANMEN
  6
CONTINUOUS
 10
115.3
 20
208.499997
 30
0.0
 11
115.3
 21
187.499997
 31
0.0
  0
LINE
  5
18400
  8
DANMEN
  6
CONTINUOUS
 10
113.650003
 20
208.349997
 30
0.0
 11
113.650003
 21
188.649997
 31
0.0
  0
LINE
  5
18401
  8
DANMEN
  6
CONTINUOUS
 10
117.5
 20
208.499997
 30
0.0
 11
117.5
 21
171.0
 31
0.0
  0
LINE
  5
18402
  8
DANMEN
  6
CONTINUOUS
 10
115.3
 20
208.499997
 30
0.0
 11
115.3
 21
171.0
 31
0.0
  0
LINE
  5
18403
  8
DANMEN
  6
CONTINUOUS
 10
102.5
 20
191.999997
 30
0.0
 11
102.5
 21
195.999997
 31
0.0
  0
LINE
  5
18404
  8
DANMEN
  6
CONTINUOUS
 10
103.5
 20
188.649997
 30
0.0
 11
103.5
 21
196.499997
 31
0.0
  0
LINE
  5
18405
  8
DANMEN
  6
CONTINUOUS
 10
102.549998
 20
171.0
 30
0.0
 11
102.549998
 21
186.999998
 31
0.0
  0
LINE
  5
18406
  8
DANMEN
  6
CONTINUOUS
 10
113.650003
 20
188.649997
 30
0.0
 11
103.5
 21
188.649997
 31
0.0
  0
LINE
  5
18407
  8
DANMEN
  6
CONTINUOUS
 10
114.800003
 20
186.999997
 30
0.0
 11
102.5
 21
186.999997
 31
0.0
  0
ARC
  5
1840B
  8
DANMEN
  6
CONTINUOUS
 10
114.8
 20
187.499997
 30
0.0
 40
0.5
 50
270.0
 51
0.0
  0
LINE
  5
1840D
  8
DANMEN
  6
CONTINUOUS
 10
128.7
 20
211.578484
 30
0.0
 11
110.187844
 21
213.000834
 31
0.0
  0
LINE
  5
1840E
  8
DANMEN
  6
CONTINUOUS
 10
109.000003
 20
208.499997
 30
0.0
 11
128.7
 21
208.499997
 31
0.0
  0
ARC
  5
18410
  8
DANMEN
  6
CONTINUOUS
 10
103.0
 20
196.499997
 30
0.0
 40
0.5
 50
0.0
 51
90.0
  0
LINE
  5
18411
  8
DANMEN
  6
CONTINUOUS
 10
103.0
 20
196.999997
 30
0.0
 11
102.5
 21
196.999997
 31
0.0
  0
LINE
  5
18414
  8
DANMEN
  6
CONTINUOUS
 10
107.55
 20
208.349997
 30
0.0
 11
113.650003
 21
208.349997
 31
0.0
  0
LINE
  5
18415
  8
DANMEN
  6
CONTINUOUS
 10
108.7
 20
209.999997
 30
0.0
 11
116.5
 21
209.999997
 31
0.0
  0
LINE
  5
18416
  8
DANMEN
  6
CONTINUOUS
 10
107.05
 20
208.849997
 30
0.0
 11
107.05
 21
214.499997
 31
0.0
  0
LINE
  5
18417
  8
DANMEN
  6
CONTINUOUS
 10
109.000003
 20
208.499997
 30
0.0
 11
109.000003
 21
213.016225
 31
0.0
  0
LINE
  5
18418
  8
DANMEN
  6
CONTINUOUS
 10
108.7
 20
208.499997
 30
0.0
 11
108.7
 21
212.999997
 31
0.0
  0
ARC
  5
1841A
  8
DANMEN
  6
CONTINUOUS
 10
107.55
 20
208.849997
 30
0.0
 40
0.5
 50
180.0
 51
270.0
  0
ARC
  5
18423
  8
DANMEN
  6
CONTINUOUS
 10
116.5
 20
208.999997
 30
0.0
 40
1.0
 50
0.0
 51
90.0
  0
LINE
  5
18425
  8
DANMEN
  6
CONTINUOUS
 10
115.3
 20
208.499997
 30
0.0
 11
117.5
 21
208.499997
 31
0.0
  0
LINE
  5
18426
  8
DANMEN
  6
CONTINUOUS
 10
117.5
 20
208.999997
 30
0.0
 11
117.5
 21
208.499997
 31
0.0
  0
LINE
  5
1842A
  8
DANMEN
  6
CONTINUOUS
 10
162.149994
 20
154.350006
 30
0.0
 11
168.850006
 21
154.350006
 31
0.0
  0
LINE
  5
1842B
  8
DANMEN
  6
CONTINUOUS
 10
161.0
 20
156.0
 30
0.0
 11
185.0
 21
156.0
 31
0.0
  0
LINE
  5
1842C
  8
DANMEN
  6
CONTINUOUS
 10
162.149994
 20
154.350006
 30
0.0
 11
162.149994
 21
150.5
 31
0.0
  0
LINE
  5
1842D
  8
DANMEN
  6
CONTINUOUS
 10
160.5
 20
155.5
 30
0.0
 11
160.5
 21
150.5
 31
0.0
  0
ARC
  5
18430
  8
DANMEN
  6
CONTINUOUS
 10
161.649994
 20
150.5
 30
0.0
 40
0.5
 50
270.000018
 51
359.999981
  0
ARC
  5
18431
  8
DANMEN
  6
CONTINUOUS
 10
161.0
 20
150.5
 30
0.0
 40
0.5
 50
180.000036
 51
269.999963
  0
LINE
  5
18432
  8
DANMEN
  6
CONTINUOUS
 10
161.0
 20
150.0
 30
0.0
 11
161.649994
 21
150.0
 31
0.0
  0
ARC
  5
18434
  8
DANMEN
  6
CONTINUOUS
 10
161.0
 20
155.5
 30
0.0
 40
0.5
 50
89.999982
 51
180.000019
  0
LINE
  5
18436
  8
DANMEN
  6
CONTINUOUS
 10
170.5
 20
154.9
 30
0.0
 11
170.5
 21
136.3
 31
0.0
  0
LINE
  5
18437
  8
DANMEN
  6
CONTINUOUS
 10
173.5
 20
145.0
 30
0.0
 11
173.5
 21
146.638809
 31
0.0
  0
LINE
  5
18438
  8
DANMEN
  6
CONTINUOUS
 10
188.449997
 20
147.05
 30
0.0
 11
188.449997
 21
130.949997
 31
0.0
  0
LINE
  5
18439
  8
DANMEN
  6
CONTINUOUS
 10
186.5
 20
146.9
 30
0.0
 11
186.5
 21
127.1
 31
0.0
  0
LINE
  5
1843A
  8
DANMEN
  6
CONTINUOUS
 10
183.656624
 20
146.9
 30
0.0
 11
174.699997
 21
145.556506
 31
0.0
  0
LINE
  5
1843B
  8
DANMEN
  6
CONTINUOUS
 10
183.537291
 20
125.0
 30
0.0
 11
187.961075
 21
125.0
 31
0.0
  0
LINE
  5
1843C
  8
DANMEN
  6
CONTINUOUS
 10
183.656624
 20
127.1
 30
0.0
 11
186.5
 21
127.1
 31
0.0
  0
LINE
  5
1843D
  8
DANMEN
  6
CONTINUOUS
 10
170.5
 20
138.5
 30
0.0
 11
186.5
 21
138.5
 31
0.0
  0
LINE
  5
1843E
  8
DANMEN
  6
CONTINUOUS
 10
170.5
 20
143.5
 30
0.0
 11
186.5
 21
143.5
 31
0.0
  0
LINE
  5
1843F
  8
DANMEN
  6
CONTINUOUS
 10
175.300004
 20
122.8
 30
0.0
 11
182.700004
 21
122.8
 31
0.0
  0
LINE
  5
18440
  8
DANMEN
  6
CONTINUOUS
 10
183.463121
 20
125.005532
 30
0.0
 11
174.35166
 21
126.372251
 31
0.0
  0
LINE
  5
18441
  8
DANMEN
  6
CONTINUOUS
 10
183.656624
 20
127.1
 30
0.0
 11
174.699997
 21
128.443494
 31
0.0
  0
LINE
  5
18442
  8
DANMEN
  6
CONTINUOUS
 10
172.525813
 20
129.335584
 30
0.0
 11
175.300004
 21
122.8
 31
0.0
  0
LINE
  5
18443
  8
DANMEN
  6
CONTINUOUS
 10
173.5
 20
129.0
 30
0.0
 11
173.5
 21
127.361191
 31
0.0
  0
ARC
  5
18446
  8
DANMEN
  6
CONTINUOUS
 10
174.5
 20
127.361187
 30
0.0
 40
1.0
 50
180.0
 51
261.469234
  0
ARC
  5
18448
  8
DANMEN
  6
CONTINUOUS
 10
171.97351
 20
129.101146
 30
0.0
 40
0.6
 50
23.0
 51
273.528779
  0
LINE
  5
1844D
  8
DANMEN
  6
CONTINUOUS
 10
174.0
 20
129.5
 30
0.0
 11
174.699997
 21
129.5
 31
0.0
  0
ARC
  5
1844F
  8
DANMEN
  6
CONTINUOUS
 10
174.0
 20
129.0
 30
0.0
 40
0.5
 50
89.999999
 51
180.000036
  0
LINE
  5
18450
  8
DANMEN
  6
CONTINUOUS
 10
174.699997
 20
129.5
 30
0.0
 11
174.699997
 21
128.443489
 31
0.0
  0
LINE
  5
18453
  8
DANMEN
  6
CONTINUOUS
 10
183.395163
 20
123.842413
 30
0.0
 11
178.746848
 21
125.722891
 31
0.0
  0
LINE
  5
18454
  8
DANMEN
  6
CONTINUOUS
 10
182.378862
 20
123.390573
 30
0.0
 11
179.835668
 21
124.419423
 31
0.0
  0
ARC
  5
18455
  8
DANMEN
  6
CONTINUOUS
 10
178.596838
 20
125.352085
 30
0.0
 40
0.4
 50
67.974191
 51
247.974191
  0
ARC
  5
18457
  8
DANMEN
  6
CONTINUOUS
 10
177.812974
 20
122.949886
 30
0.0
 40
0.25
 50
131.738105
 51
311.738105
  0
LINE
  5
18459
  8
DANMEN
  6
CONTINUOUS
 10
179.078995
 20
124.414414
 30
0.0
 11
177.646542
 21
123.136435
 31
0.0
  0
LINE
  5
1845A
  8
DANMEN
  6
CONTINUOUS
 10
179.835668
 20
124.419423
 30
0.0
 11
177.979406
 21
122.763337
 31
0.0
  0
LINE
  5
1845F
  8
DANMEN
  6
CONTINUOUS
 10
179.020855
 20
124.749056
 30
0.0
 11
178.446828
 21
124.981279
 31
0.0
  0
ARC
  5
18460
  8
DANMEN
  6
CONTINUOUS
 10
178.94585
 20
124.563653
 30
0.0
 40
0.2
 50
311.738105
 51
67.974191
  0
LINE
  5
18465
  8
DANMEN
  6
CONTINUOUS
 10
182.700004
 20
123.462453
 30
0.0
 11
182.700004
 21
122.8
 31
0.0
  0
ARC
  5
18466
  8
DANMEN
  6
CONTINUOUS
 10
182.564265
 20
123.315568
 30
0.0
 40
0.2
 50
47.258366
 51
157.974191
  0
ARC
  5
18469
  8
DANMEN
  6
CONTINUOUS
 10
183.320158
 20
123.65701
 30
0.0
 40
0.2
 50
25.943161
 51
67.974191
  0
ARC
  5
1846C
  8
DANMEN
  6
CONTINUOUS
 10
183.537291
 20
125.5
 30
0.0
 40
0.5
 50
261.469234
 51
270.0
  0
LINE
  5
1846E
  8
DANMEN
  6
CONTINUOUS
 10
179.550996
 20
137.0
 30
0.0
 11
175.350995
 21
136.3
 31
0.0
  0
LINE
  5
1846F
  8
DANMEN
  6
CONTINUOUS
 10
180.664402
 20
135.360739
 30
0.0
 11
175.581604
 21
134.513606
 31
0.0
  0
LINE
  5
18470
  8
DANMEN
  6
CONTINUOUS
 10
170.5
 20
136.3
 30
0.0
 11
175.350995
 21
136.3
 31
0.0
  0
LINE
  5
18471
  8
DANMEN
  6
CONTINUOUS
 10
170.5
 20
134.5
 30
0.0
 11
175.417205
 21
134.5
 31
0.0
  0
ARC
  5
18475
  8
DANMEN
  6
CONTINUOUS
 10
175.417205
 20
135.5
 30
0.0
 40
1.0
 50
270.000018
 51
279.462343
  0
LINE
  5
18479
  8
DANMEN
  6
CONTINUOUS
 10
174.699997
 20
144.5
 30
0.0
 11
174.699997
 21
145.556509
 31
0.0
  0
ARC
  5
1847A
  8
DANMEN
  6
CONTINUOUS
 10
174.0
 20
145.0
 30
0.0
 40
0.5
 50
179.999964
 51
270.000001
  0
LINE
  5
1847C
  8
DANMEN
  6
CONTINUOUS
 10
174.0
 20
144.5
 30
0.0
 11
174.699997
 21
144.5
 31
0.0
  0
LINE
  5
1847E
  8
DANMEN
  6
CONTINUOUS
 10
179.550996
 20
137.0
 30
0.0
 11
181.0
 21
137.0
 31
0.0
  0
ARC
  5
18480
  8
DANMEN
  6
CONTINUOUS
 10
181.0
 20
136.5
 30
0.0
 40
0.5
 50
0.0
 51
89.999982
  0
ARC
  5
18482
  8
DANMEN
  6
CONTINUOUS
 10
180.5
 20
136.347137
 30
0.0
 40
1.0
 50
279.462343
 51
0.000285
  0
LINE
  5
18485
  8
DANMEN
  6
CONTINUOUS
 10
181.5
 20
136.5
 30
0.0
 11
181.5
 21
136.347137
 31
0.0
  0
LINE
  5
18486
  8
DANMEN
  6
CONTINUOUS
 10
188.199982
 20
129.0
 30
0.0
 11
188.45968
 21
125.537395
 31
0.0
  0
ARC
  5
18487
  8
DANMEN
  6
CONTINUOUS
 10
187.96108
 20
125.5
 30
0.0
 40
0.5
 50
270.0
 51
4.289197
  0
LINE
  5
18491
  8
DANMEN
  6
CONTINUOUS
 10
172.5
 20
154.350006
 30
0.0
 11
185.0
 21
154.350006
 31
0.0
  0
LINE
  5
18492
  8
DANMEN
  6
CONTINUOUS
 10
183.537291
 20
149.0
 30
0.0
 11
200.5
 21
149.0
 31
0.0
  0
LINE
  5
18493
  8
DANMEN
  6
CONTINUOUS
 10
183.656624
 20
146.9
 30
0.0
 11
186.5
 21
146.9
 31
0.0
  0
LINE
  5
18494
  8
DANMEN
  6
CONTINUOUS
 10
183.463121
 20
148.994468
 30
0.0
 11
174.35166
 21
147.627749
 31
0.0
  0
LINE
  5
18495
  8
DANMEN
  6
CONTINUOUS
 10
170.5
 20
149.0
 30
0.0
 11
183.499936
 21
149.0
 31
0.0
  0
ARC
  5
18496
  8
DANMEN
  6
CONTINUOUS
 10
174.5
 20
146.638813
 30
0.0
 40
1.0
 50
98.530766
 51
180.0
  0
LINE
  5
18498
  8
DANMEN
  6
CONTINUOUS
 10
170.5
 20
154.9
 30
0.0
 11
172.5
 21
154.9
 31
0.0
  0
LINE
  5
1849C
  8
DANMEN
  6
CONTINUOUS
 10
172.5
 20
154.9
 30
0.0
 11
172.5
 21
154.350006
 31
0.0
  0
ARC
  5
1849F
  8
DANMEN
  6
CONTINUOUS
 10
183.537291
 20
148.5
 30
0.0
 40
0.5
 50
90.0
 51
98.530766
  0
LINE
  5
184A1
  8
DANMEN
  6
CONTINUOUS
 10
200.5
 20
162.5
 30
0.0
 11
200.5
 21
149.0
 31
0.0
  0
LINE
  5
184A2
  8
DANMEN
  6
CONTINUOUS
 10
185.0
 20
156.0
 30
0.0
 11
200.5
 21
156.0
 31
0.0
  0
ARC
  5
184A8
  8
DANMEN
  6
CONTINUOUS
 10
185.0
 20
155.5
 30
0.0
 40
0.5
 50
359.999981
 51
89.999982
  0
ARC
  5
184A9
  8
DANMEN
  6
CONTINUOUS
 10
185.0
 20
154.850006
 30
0.0
 40
0.5
 50
270.000018
 51
359.999981
  0
LINE
  5
184AA
  8
DANMEN
  6
CONTINUOUS
 10
185.5
 20
155.5
 30
0.0
 11
185.5
 21
154.850006
 31
0.0
  0
LINE
  5
184AD
  8
DANMEN
  6
CONTINUOUS
 10
96.3
 20
223.349997
 30
0.0
 11
107.05
 21
223.349997
 31
0.0
  0
LINE
  5
184AE
  8
DANMEN
  6
CONTINUOUS
 10
96.8
 20
224.999997
 30
0.0
 11
108.2
 21
224.999997
 31
0.0
  0
LINE
  5
184AF
  8
DANMEN
  6
CONTINUOUS
 10
94.8
 20
249.65
 30
0.0
 11
108.850006
 21
249.65
 31
0.0
  0
LINE
  5
184B0
  8
DANMEN
  6
CONTINUOUS
 10
97.5
 20
225.0
 30
0.0
 11
110.0
 21
225.0
 31
0.0
  0
LINE
  5
184B1
  8
DANMEN
  6
CONTINUOUS
 10
98.0
 20
226.65
 30
0.0
 11
108.850006
 21
226.65
 31
0.0
  0
LINE
  5
184B2
  8
DANMEN
  6
CONTINUOUS
 10
81.15
 20
248.0
 30
0.0
 11
108.850006
 21
248.0
 31
0.0
  0
LINE
  5
184B3
  8
DANMEN
  6
CONTINUOUS
 10
94.800002
 20
216.149997
 30
0.0
 11
107.05
 21
216.149997
 31
0.0
  0
LINE
  5
184B4
  8
DANMEN
  6
CONTINUOUS
 10
79.5
 20
248.0
 30
0.0
 11
79.5
 21
233.0
 31
0.0
  0
LINE
  5
184B5
  8
DANMEN
  6
CONTINUOUS
 10
81.15
 20
248.0
 30
0.0
 11
81.15
 21
228.0
 31
0.0
  0
LINE
  5
184B6
  8
DANMEN
  6
CONTINUOUS
 10
81.15
 20
216.649997
 30
0.0
 11
86.200002
 21
216.649997
 31
0.0
  0
LINE
  5
184B7
  8
DANMEN
  6
DASHED
 10
83.5
 20
225.0
 30
0.0
 11
95.5
 21
225.0
 31
0.0
  0
LINE
  5
184B8
  8
DANMEN
  6
DASHED
 10
80.0
 20
223.800003
 30
0.0
 11
99.0
 21
223.800003
 31
0.0
  0
LINE
  5
184B9
  8
DANMEN
  6
CONTINUOUS
 10
79.500003
 20
226.0
 30
0.0
 11
79.500003
 21
232.2
 31
0.0
  0
LINE
  5
184BA
  8
DANMEN
  6
CONTINUOUS
 10
75.300003
 20
226.0
 30
0.0
 11
75.300003
 21
227.199997
 31
0.0
  0
ARC
  5
184BB
  8
DANMEN
  6
CONTINUOUS
 10
75.0
 20
226.699997
 30
0.0
 40
0.5
 50
89.999999
 51
179.999981
  0
LINE
  5
184BC
  8
DANMEN
  6
CONTINUOUS
 10
82.0
 20
228.0
 30
0.0
 11
82.0
 21
225.5
 31
0.0
  0
LINE
  5
184BD
  8
DANMEN
  6
CONTINUOUS
 10
69.55
 20
232.5
 30
0.0
 11
69.55
 21
222.95
 31
0.0
  0
LINE
  5
184BE
  8
DANMEN
  6
CONTINUOUS
 10
71.5
 20
232.5
 30
0.0
 11
71.5
 21
221.5
 31
0.0
  0
LINE
  5
184BF
  8
DANMEN
  6
CONTINUOUS
 10
73.700003
 20
232.7
 30
0.0
 11
73.700003
 21
225.6
 31
0.0
  0
LINE
  5
184C0
  8
DANMEN
  6
CONTINUOUS
 10
74.500003
 20
227.5
 30
0.0
 11
74.500003
 21
225.0
 31
0.0
  0
LINE
  5
184C1
  8
DANMEN
  6
CONTINUOUS
 10
76.500003
 20
227.5
 30
0.0
 11
76.500003
 21
226.5
 31
0.0
  0
LINE
  5
184C2
  8
DANMEN
  6
CONTINUOUS
 10
75.500003
 20
227.5
 30
0.0
 11
75.500003
 21
226.5
 31
0.0
  0
LINE
  5
184C3
  8
DANMEN
  6
CONTINUOUS
 10
71.518703
 20
228.60985
 30
0.0
 11
72.646181
 21
225.115559
 31
0.0
  0
LINE
  5
184C4
  8
DANMEN
  6
CONTINUOUS
 10
72.100003
 20
228.782873
 30
0.0
 11
73.082437
 21
225.6
 31
0.0
  0
LINE
  5
184C5
  8
DANMEN
  6
DASHED
 10
82.0
 20
225.0
 30
0.0
 11
82.0
 21
227.999972
 31
0.0
  0
LINE
  5
184C6
  8
DANMEN
  6
DASHED
 10
83.0
 20
229.600003
 30
0.0
 11
83.0
 21
225.5
 31
0.0
  0
LINE
  5
184C7
  8
DANMEN
  6
CONTINUOUS
 10
83.5
 20
224.349997
 30
0.0
 11
83.5
 21
235.5
 31
0.0
  0
LINE
  5
184C8
  8
DANMEN
  6
CONTINUOUS
 10
82.0
 20
225.000001
 30
0.0
 11
82.0
 21
235.0
 31
0.0
  0
LINE
  5
184C9
  8
DANMEN
  6
CONTINUOUS
 10
75.300003
 20
226.0
 30
0.0
 11
79.5
 21
226.0
 31
0.0
  0
LINE
  5
184CA
  8
DANMEN
  6
CONTINUOUS
 10
81.5
 20
225.0
 30
0.0
 11
75.0
 21
225.0
 31
0.0
  0
LINE
  5
184CB
  8
DANMEN
  6
CONTINUOUS
 10
71.500003
 20
225.0
 30
0.0
 11
79.500003
 21
225.0
 31
0.0
  0
ARC
  5
184CC
  8
DANMEN
  6
CONTINUOUS
 10
71.0
 20
221.5
 30
0.0
 40
0.5
 50
270.0
 51
0.0
  0
LINE
  5
184CF
  8
DANMEN
  6
CONTINUOUS
 10
71.0
 20
221.0
 30
0.0
 11
69.300003
 21
221.0
 31
0.0
  0
LINE
  5
184D0
  8
DANMEN
  6
CONTINUOUS
 10
72.827481
 20
225.0
 30
0.0
 11
74.500003
 21
225.0
 31
0.0
  0
LINE
  5
184D1
  8
DANMEN
  6
CONTINUOUS
 10
73.082437
 20
225.6
 30
0.0
 11
73.700003
 21
225.6
 31
0.0
  0
ARC
  5
184D3
  8
DANMEN
  6
CONTINUOUS
 10
72.827481
 20
225.2
 30
0.0
 40
0.2
 50
204.97391
 51
270.0
  0
LINE
  5
184D8
  8
DANMEN
  6
CONTINUOUS
 10
74.5
 20
225.5
 30
0.0
 11
74.5
 21
226.699997
 31
0.0
  0
ARC
  5
184D9
  8
DANMEN
  6
CONTINUOUS
 10
75.0
 20
225.5
 30
0.0
 40
0.5
 50
179.999981
 51
270.000018
  0
LINE
  5
184DA
  8
DANMEN
  6
CONTINUOUS
 10
75.700003
 20
226.3
 30
0.0
 11
76.300003
 21
226.3
 31
0.0
  0
ARC
  5
184DC
  8
DANMEN
  6
CONTINUOUS
 10
76.300003
 20
226.5
 30
0.0
 40
0.2
 50
270.000018
 51
0.0
  0
ARC
  5
184DE
  8
DANMEN
  6
CONTINUOUS
 10
75.700003
 20
226.5
 30
0.0
 40
0.2
 50
180.000019
 51
270.000001
  0
LINE
  5
184E1
  8
DANMEN
  6
CONTINUOUS
 10
81.15
 20
223.349997
 30
0.0
 11
81.15
 21
216.649997
 31
0.0
  0
LINE
  5
184E4
  8
DANMEN
  6
CONTINUOUS
 10
80.0
 20
225.0
 30
0.0
 11
82.0
 21
225.0
 31
0.0
  0
LINE
  5
184E5
  8
DANMEN
  6
CONTINUOUS
 10
81.15
 20
223.349997
 30
0.0
 11
82.5
 21
223.349997
 31
0.0
  0
ARC
  5
184E6
  8
DANMEN
  6
CONTINUOUS
 10
81.5
 20
225.5
 30
0.0
 40
0.5
 50
270.0
 51
0.0
  0
LINE
  5
184E7
  8
DANMEN
  6
DASHED
 10
82.0
 20
225.0
 30
0.0
 11
79.5
 21
225.0
 31
0.0
  0
ARC
  5
184EA
  8
DANMEN
  6
CONTINUOUS
 10
80.0
 20
224.5
 30
0.0
 40
0.5
 50
90.0
 51
180.0
  0
ARC
  5
184EB
  8
DANMEN
  6
DASHED
 10
80.0
 20
224.300003
 30
0.0
 40
0.5
 50
180.0
 51
269.999982
  0
LINE
  5
184EC
  8
DANMEN
  6
DASHED
 10
79.5
 20
225.0
 30
0.0
 11
79.5
 21
224.300003
 31
0.0
  0
ARC
  5
184EF
  8
DANMEN
  6
DASHED
 10
83.5
 20
225.5
 30
0.0
 40
0.5
 50
180.0
 51
270.0
  0
ARC
  5
184F3
  8
DANMEN
  6
CONTINUOUS
 10
82.5
 20
224.349997
 30
0.0
 40
1.0
 50
270.0
 51
0.0
  0
LINE
  5
184F5
  8
DANMEN
  6
CONTINUOUS
 10
75.0
 20
233.0
 30
0.0
 11
79.5
 21
233.0
 31
0.0
  0
LINE
  5
184F6
  8
DANMEN
  6
CONTINUOUS
 10
75.300003
 20
232.2
 30
0.0
 11
79.5
 21
232.2
 31
0.0
  0
ARC
  5
184F7
  8
DANMEN
  6
CONTINUOUS
 10
75.0
 20
232.5
 30
0.0
 40
0.5
 50
89.999999
 51
179.999981
  0
ARC
  5
184F8
  8
DANMEN
  6
CONTINUOUS
 10
70.05
 20
232.5
 30
0.0
 40
0.5
 50
90.0
 51
180.0
  0
ARC
  5
184F9
  8
DANMEN
  6
CONTINUOUS
 10
71.0
 20
232.5
 30
0.0
 40
0.5
 50
0.0
 51
90.0
  0
LINE
  5
184FA
  8
DANMEN
  6
CONTINUOUS
 10
74.500003
 20
233.3
 30
0.0
 11
74.500003
 21
230.8
 31
0.0
  0
LINE
  5
184FB
  8
DANMEN
  6
CONTINUOUS
 10
72.646181
 20
233.184441
 30
0.0
 11
71.518703
 21
229.69015
 31
0.0
  0
LINE
  5
184FC
  8
DANMEN
  6
CONTINUOUS
 10
73.082437
 20
232.7
 30
0.0
 11
73.700003
 21
232.7
 31
0.0
  0
LINE
  5
184FE
  8
DANMEN
  6
CONTINUOUS
 10
71.500003
 20
229.605709
 30
0.0
 11
71.500003
 21
228.694291
 31
0.0
  0
ARC
  5
184FF
  8
DANMEN
  6
CONTINUOUS
 10
71.700003
 20
229.605709
 30
0.0
 40
0.2
 50
155.02609
 51
180.0
  0
ARC
  5
18501
  8
DANMEN
  6
CONTINUOUS
 10
71.700003
 20
228.694291
 30
0.0
 40
0.2
 50
180.0
 51
204.97391
  0
LINE
  5
18503
  8
DANMEN
  6
CONTINUOUS
 10
73.082437
 20
232.7
 30
0.0
 11
72.100003
 21
229.517126
 31
0.0
  0
LINE
  5
18504
  8
DANMEN
  6
CONTINUOUS
 10
72.100003
 20
229.517126
 30
0.0
 11
72.100003
 21
228.782873
 31
0.0
  0
LINE
  5
18508
  8
DANMEN
  6
CONTINUOUS
 10
75.0
 20
227.199997
 30
0.0
 11
75.300003
 21
227.199997
 31
0.0
  0
LINE
  5
18509
  8
DANMEN
  6
CONTINUOUS
 10
74.5
 20
231.300003
 30
0.0
 11
74.5
 21
232.5
 31
0.0
  0
LINE
  5
1850A
  8
DANMEN
  6
CONTINUOUS
 10
75.300003
 20
230.800003
 30
0.0
 11
75.300003
 21
232.2
 31
0.0
  0
ARC
  5
1850B
  8
DANMEN
  6
CONTINUOUS
 10
75.0
 20
231.300003
 30
0.0
 40
0.5
 50
179.999981
 51
270.000018
  0
LINE
  5
1850C
  8
DANMEN
  6
CONTINUOUS
 10
75.0
 20
230.800003
 30
0.0
 11
75.300003
 21
230.800003
 31
0.0
  0
LINE
  5
1850E
  8
DANMEN
  6
CONTINUOUS
 10
76.500003
 20
231.8
 30
0.0
 11
76.500003
 21
230.8
 31
0.0
  0
LINE
  5
1850F
  8
DANMEN
  6
CONTINUOUS
 10
75.700003
 20
232.0
 30
0.0
 11
76.300003
 21
232.0
 31
0.0
  0
LINE
  5
18510
  8
DANMEN
  6
CONTINUOUS
 10
75.500003
 20
231.8
 30
0.0
 11
75.500003
 21
230.8
 31
0.0
  0
ARC
  5
18512
  8
DANMEN
  6
CONTINUOUS
 10
76.300003
 20
231.8
 30
0.0
 40
0.2
 50
0.0
 51
89.999982
  0
ARC
  5
18514
  8
DANMEN
  6
CONTINUOUS
 10
75.700003
 20
231.8
 30
0.0
 40
0.2
 50
89.999982
 51
180.000019
  0
LINE
  5
18518
  8
DANMEN
  6
CONTINUOUS
 10
76.500003
 20
230.8
 30
0.0
 11
75.700003
 21
230.0
 31
0.0
  0
LINE
  5
18519
  8
DANMEN
  6
CONTINUOUS
 10
75.700003
 20
228.3
 30
0.0
 11
76.500003
 21
227.5
 31
0.0
  0
LINE
  5
1851A
  8
DANMEN
  6
CONTINUOUS
 10
74.500003
 20
230.8
 30
0.0
 11
75.500003
 21
230.8
 31
0.0
  0
LINE
  5
1851C
  8
DANMEN
  6
CONTINUOUS
 10
74.500003
 20
227.5
 30
0.0
 11
75.500003
 21
227.5
 31
0.0
  0
LINE
  5
18521
  8
DANMEN
  6
CONTINUOUS
 10
75.700003
 20
230.0
 30
0.0
 11
75.700003
 21
228.3
 31
0.0
  0
LINE
  5
18527
  8
DANMEN
  6
CONTINUOUS
 10
72.827481
 20
233.3
 30
0.0
 11
74.500003
 21
233.3
 31
0.0
  0
LINE
  5
1852A
  8
DANMEN
  6
CONTINUOUS
 10
71.0
 20
233.0
 30
0.0
 11
70.05
 21
233.0
 31
0.0
  0
ARC
  5
1852B
  8
DANMEN
  6
CONTINUOUS
 10
72.827481
 20
233.1
 30
0.0
 40
0.2
 50
90.0
 51
155.02609
  0
LINE
  5
1852E
  8
DANMEN
  6
CONTINUOUS
 10
81.15
 20
228.0
 30
0.0
 11
82.0
 21
228.0
 31
0.0
  0
ARC
  5
1852F
  8
DANMEN
  6
DASHED
 10
81.799999
 20
228.499972
 30
0.0
 40
0.3
 50
157.011468
 51
235.656024
  0
LINE
  5
18530
  8
DANMEN
  6
DASHED
 10
81.523824
 20
228.617136
 30
0.0
 11
82.923825
 21
231.917167
 31
0.0
  0
LINE
  5
18536
  8
DANMEN
  6
DASHED
 10
81.999991
 20
227.999972
 30
0.0
 11
81.630743
 21
228.252271
 31
0.0
  0
ARC
  5
18537
  8
DANMEN
  6
DASHED
 10
83.2
 20
231.800003
 30
0.0
 40
0.3
 50
347.000479
 51
157.011468
  0
LINE
  5
18538
  8
DANMEN
  6
DASHED
 10
83.0
 20
229.600003
 30
0.0
 11
83.492312
 21
231.73252
 31
0.0
  0
ARC
  5
1853D
  8
DANMEN
  6
CONTINUOUS
 10
82.5
 20
235.0
 30
0.0
 40
0.5
 50
90.0
 51
180.0
  0
LINE
  5
1853E
  8
DANMEN
  6
CONTINUOUS
 10
82.5
 20
235.5
 30
0.0
 11
83.5
 21
235.5
 31
0.0
  0
LINE
  5
1853F
  8
DANMEN
  6
CONTINUOUS
 10
97.706061
 20
227.642044
 30
0.0
 11
98.0
 21
226.65
 31
0.0
  0
LINE
  5
18540
  8
DANMEN
  6
CONTINUOUS
 10
97.0
 20
228.0
 30
0.0
 11
97.0
 21
225.5
 31
0.0
  0
LINE
  5
18541
  8
DANMEN
  6
DASHED
 10
96.0
 20
229.600003
 30
0.0
 11
96.0
 21
225.5
 31
0.0
  0
LINE
  5
18542
  8
DANMEN
  6
DASHED
 10
97.0
 20
225.0
 30
0.0
 11
97.0
 21
227.999972
 31
0.0
  0
LINE
  5
18543
  8
DANMEN
  6
CONTINUOUS
 10
95.3
 20
224.349997
 30
0.0
 11
95.3
 21
235.500003
 31
0.0
  0
LINE
  5
18544
  8
DANMEN
  6
CONTINUOUS
 10
96.8
 20
224.999997
 30
0.0
 11
96.8
 21
235.000003
 31
0.0
  0
ARC
  5
18545
  8
DANMEN
  6
CONTINUOUS
 10
91.800002
 20
218.430304
 30
0.0
 40
2.0
 50
0.000026
 51
51.706549
  0
ARC
  5
18546
  8
DANMEN
  6
CONTINUOUS
 10
94.800002
 20
217.149997
 30
0.0
 40
1.0
 50
180.0
 51
270.0
  0
LINE
  5
18547
  8
DANMEN
  6
CONTINUOUS
 10
91.300003
 20
216.099997
 30
0.0
 11
89.700003
 21
216.099996
 31
0.0
  0
LINE
  5
18548
  8
DANMEN
  6
CONTINUOUS
 10
89.400001
 20
219.699996
 30
0.0
 11
89.400001
 21
219.436928
 31
0.0
  0
ARC
  5
18549
  8
DANMEN
  6
CONTINUOUS
 10
89.700002
 20
218.346057
 30
0.0
 40
1.0
 50
114.624344
 51
180.000026
  0
ARC
  5
1854A
  8
DANMEN
  6
CONTINUOUS
 10
89.200001
 20
219.436928
 30
0.0
 40
0.2
 50
294.624344
 51
0.000026
  0
ARC
  5
1854B
  8
DANMEN
  6
CONTINUOUS
 10
89.200002
 20
218.430302
 30
0.0
 40
2.0
 50
128.293503
 51
180.000026
  0
LINE
  5
1854C
  8
DANMEN
  6
CONTINUOUS
 10
87.200002
 20
218.430301
 30
0.0
 11
87.200002
 21
217.649995
 31
0.0
  0
LINE
  5
1854D
  8
DANMEN
  6
CONTINUOUS
 10
88.700002
 20
218.346057
 30
0.0
 11
88.700002
 21
217.099996
 31
0.0
  0
ARC
  5
1854E
  8
DANMEN
  6
CONTINUOUS
 10
89.700002
 20
217.099996
 30
0.0
 40
1.0
 50
180.000026
 51
270.000026
  0
LINE
  5
1854F
  8
DANMEN
  6
CONTINUOUS
 10
89.100001
 20
219.999996
 30
0.0
 11
87.960621
 21
219.999996
 31
0.0
  0
ARC
  5
18550
  8
DANMEN
  6
CONTINUOUS
 10
89.100001
 20
219.699996
 30
0.0
 40
0.3
 50
0.000026
 51
90.000026
  0
ARC
  5
18552
  8
DANMEN
  6
CONTINUOUS
 10
86.200002
 20
217.649997
 30
0.0
 40
1.0
 50
270.0
 51
0.0
  0
ARC
  5
18553
  8
DANMEN
  6
CONTINUOUS
 10
91.800001
 20
219.436929
 30
0.0
 40
0.2
 50
180.000026
 51
245.375708
  0
ARC
  5
18554
  8
DANMEN
  6
CONTINUOUS
 10
91.300002
 20
218.346058
 30
0.0
 40
1.0
 50
0.000026
 51
65.375708
  0
LINE
  5
18555
  8
DANMEN
  6
CONTINUOUS
 10
91.600001
 20
219.699997
 30
0.0
 11
91.600001
 21
219.436929
 31
0.0
  0
ARC
  5
18556
  8
DANMEN
  6
CONTINUOUS
 10
91.300002
 20
217.099997
 30
0.0
 40
1.0
 50
270.000026
 51
0.000026
  0
LINE
  5
18557
  8
DANMEN
  6
CONTINUOUS
 10
93.800002
 20
218.430304
 30
0.0
 11
93.800002
 21
217.149998
 31
0.0
  0
LINE
  5
18558
  8
DANMEN
  6
CONTINUOUS
 10
92.300002
 20
218.346058
 30
0.0
 11
92.300002
 21
217.099998
 31
0.0
  0
ARC
  5
18559
  8
DANMEN
  6
CONTINUOUS
 10
91.900001
 20
219.699997
 30
0.0
 40
0.3
 50
90.000026
 51
180.000026
  0
LINE
  5
1855C
  8
DANMEN
  6
CONTINUOUS
 10
91.900001
 20
219.999996
 30
0.0
 11
93.03938
 21
219.999996
 31
0.0
  0
LINE
  5
18562
  8
DANMEN
  6
DASHED
 10
97.0
 20
225.0
 30
0.0
 11
99.5
 21
225.0
 31
0.0
  0
LINE
  5
18563
  8
DANMEN
  6
DASHED
 10
97.0
 20
225.0
 30
0.0
 11
99.5
 21
225.0
 31
0.0
  0
ARC
  5
18564
  8
DANMEN
  6
CONTINUOUS
 10
97.5
 20
225.5
 30
0.0
 40
0.5
 50
180.0
 51
270.0
  0
ARC
  5
18565
  8
DANMEN
  6
DASHED
 10
95.5
 20
225.5
 30
0.0
 40
0.5
 50
270.0
 51
0.0
  0
ARC
  5
18569
  8
DANMEN
  6
CONTINUOUS
 10
96.3
 20
224.349997
 30
0.0
 40
1.0
 50
180.0
 51
270.0
  0
ARC
  5
1856C
  8
DANMEN
  6
DASHED
 10
99.0
 20
224.300003
 30
0.0
 40
0.5
 50
270.000018
 51
0.0
  0
LINE
  5
1856E
  8
DANMEN
  6
DASHED
 10
99.5
 20
225.0
 30
0.0
 11
99.5
 21
224.300003
 31
0.0
  0
ARC
  5
1856F
  8
DANMEN
  6
CONTINUOUS
 10
97.226662
 20
227.5
 30
0.0
 40
0.5
 50
16.504361
 51
90.0
  0
LINE
  5
18570
  8
DANMEN
  6
CONTINUOUS
 10
97.226662
 20
228.0
 30
0.0
 11
97.0
 21
228.0
 31
0.0
  0
LINE
  5
18575
  8
DANMEN
  6
DASHED
 10
96.0
 20
229.600003
 30
0.0
 11
95.507688
 21
231.73252
 31
0.0
  0
LINE
  5
18576
  8
DANMEN
  6
DASHED
 10
97.476176
 20
228.617136
 30
0.0
 11
96.076175
 21
231.917167
 31
0.0
  0
ARC
  5
18577
  8
DANMEN
  6
DASHED
 10
95.8
 20
231.800003
 30
0.0
 40
0.3
 50
22.988532
 51
192.999521
  0
LINE
  5
18578
  8
DANMEN
  6
DASHED
 10
97.000009
 20
227.999972
 30
0.0
 11
97.369257
 21
228.252271
 31
0.0
  0
ARC
  5
18579
  8
DANMEN
  6
DASHED
 10
97.200001
 20
228.499972
 30
0.0
 40
0.3
 50
304.343976
 51
22.988532
  0
ARC
  5
1857F
  8
DANMEN
  6
CONTINUOUS
 10
96.3
 20
235.000003
 30
0.0
 40
0.5
 50
0.0
 51
90.0
  0
LINE
  5
18580
  8
DANMEN
  6
CONTINUOUS
 10
95.3
 20
235.500003
 30
0.0
 11
96.3
 21
235.500003
 31
0.0
  0
LINE
  5
18581
  8
DANMEN
  6
CONTINUOUS
 10
78.15
 20
249.65
 30
0.0
 11
86.2
 21
249.65
 31
0.0
  0
LINE
  5
18582
  8
DANMEN
  6
CONTINUOUS
 10
78.15
 20
252.600012
 30
0.0
 11
78.15
 21
249.65
 31
0.0
  0
LINE
  5
18583
  8
DANMEN
  6
CONTINUOUS
 10
76.5
 20
251.950012
 30
0.0
 11
76.5
 21
248.8
 31
0.0
  0
LINE
  5
18584
  8
DANMEN
  6
CONTINUOUS
 10
75.5
 20
248.0
 30
0.0
 11
79.5
 21
248.0
 31
0.0
  0
ARC
  5
18587
  8
DANMEN
  6
CONTINUOUS
 10
75.5
 20
248.5
 30
0.0
 40
0.5
 50
180.000019
 51
270.000001
  0
LINE
  5
18588
  8
DANMEN
  6
CONTINUOUS
 10
75.0
 20
248.8
 30
0.0
 11
75.0
 21
248.5
 31
0.0
  0
LINE
  5
18589
  8
DANMEN
  6
CONTINUOUS
 10
75.0
 20
248.8
 30
0.0
 11
76.5
 21
248.8
 31
0.0
  0
ARC
  5
1858B
  8
DANMEN
  6
CONTINUOUS
 10
77.15
 20
252.600012
 30
0.0
 40
1.0
 50
0.0
 51
90.0
  0
ARC
  5
1858C
  8
DANMEN
  6
CONTINUOUS
 10
86.2
 20
250.65
 30
0.0
 40
1.0
 50
270.0
 51
0.0
  0
ARC
  5
1858D
  8
DANMEN
  6
CONTINUOUS
 10
94.8
 20
250.65
 30
0.0
 40
1.0
 50
180.0
 51
270.0
  0
ARC
  5
1858E
  8
DANMEN
  6
CONTINUOUS
 10
91.3
 20
250.7
 30
0.0
 40
1.0
 50
270.0
 51
0.0
  0
ARC
  5
1858F
  8
DANMEN
  6
CONTINUOUS
 10
89.7
 20
250.7
 30
0.0
 40
1.0
 50
180.0
 51
270.0
  0
LINE
  5
18590
  8
DANMEN
  6
CONTINUOUS
 10
91.3
 20
249.7
 30
0.0
 11
89.7
 21
249.7
 31
0.0
  0
ARC
  5
18591
  8
DANMEN
  6
CONTINUOUS
 10
91.8
 20
252.030306
 30
0.0
 40
2.0
 50
0.0
 51
51.706523
  0
ARC
  5
18592
  8
DANMEN
  6
CONTINUOUS
 10
89.2
 20
252.030306
 30
0.0
 40
2.0
 50
128.293195
 51
180.0
  0
LINE
  5
18593
  8
DANMEN
  6
CONTINUOUS
 10
87.2
 20
252.030306
 30
0.0
 11
87.2
 21
250.65
 31
0.0
  0
LINE
  5
18594
  8
DANMEN
  6
CONTINUOUS
 10
89.4
 20
253.036932
 30
0.0
 11
89.4
 21
253.3
 31
0.0
  0
ARC
  5
18595
  8
DANMEN
  6
CONTINUOUS
 10
89.7
 20
251.946061
 30
0.0
 40
1.0
 50
114.624318
 51
180.0
  0
ARC
  5
18596
  8
DANMEN
  6
CONTINUOUS
 10
89.2
 20
253.036932
 30
0.0
 40
0.2
 50
294.624318
 51
0.0
  0
LINE
  5
18597
  8
DANMEN
  6
CONTINUOUS
 10
88.7
 20
251.946061
 30
0.0
 11
88.7
 21
250.7
 31
0.0
  0
ARC
  5
18598
  8
DANMEN
  6
CONTINUOUS
 10
89.1
 20
253.3
 30
0.0
 40
0.3
 50
0.0
 51
90.0
  0
LINE
  5
18599
  8
DANMEN
  6
CONTINUOUS
 10
89.1
 20
253.600006
 30
0.0
 11
87.960628
 21
253.600006
 31
0.0
  0
ARC
  5
1859A
  8
DANMEN
  6
CONTINUOUS
 10
91.8
 20
253.036932
 30
0.0
 40
0.2
 50
180.0
 51
245.375682
  0
ARC
  5
1859B
  8
DANMEN
  6
CONTINUOUS
 10
91.3
 20
251.946061
 30
0.0
 40
1.0
 50
0.0
 51
65.375682
  0
LINE
  5
1859C
  8
DANMEN
  6
CONTINUOUS
 10
91.6
 20
253.036932
 30
0.0
 11
91.6
 21
253.3
 31
0.0
  0
LINE
  5
1859D
  8
DANMEN
  6
CONTINUOUS
 10
93.8
 20
252.030306
 30
0.0
 11
93.8
 21
250.65
 31
0.0
  0
LINE
  5
1859E
  8
DANMEN
  6
CONTINUOUS
 10
92.3
 20
251.946061
 30
0.0
 11
92.3
 21
250.7
 31
0.0
  0
LINE
  5
1859F
  8
DANMEN
  6
CONTINUOUS
 10
93.039379
 20
253.6
 30
0.0
 11
91.9
 21
253.6
 31
0.0
  0
ARC
  5
185A0
  8
DANMEN
  6
CONTINUOUS
 10
91.9
 20
253.3
 30
0.0
 40
0.3
 50
90.0
 51
180.0
  0
LINE
  5
185A1
  8
DANMEN
  6
CONTINUOUS
 10
108.850006
 20
248.0
 30
0.0
 11
108.850006
 21
226.65
 31
0.0
  0
LINE
  5
185A2
  8
DANMEN
  6
CONTINUOUS
 10
110.5
 20
259.5
 30
0.0
 11
110.5
 21
225.5
 31
0.0
  0
ARC
  5
185A3
  8
DANMEN
  6
CONTINUOUS
 10
110.0
 20
225.5
 30
0.0
 40
0.5
 50
270.000018
 51
0.0
  0
LINE
  5
185A4
  8
DANMEN
  6
CONTINUOUS
 10
107.05
 20
216.149997
 30
0.0
 11
107.05
 21
223.349997
 31
0.0
  0
ARC
  5
185A8
  8
DANMEN
  6
CONTINUOUS
 10
108.2
 20
224.499997
 30
0.0
 40
0.5
 50
0.0
 51
90.0
  0
ARC
  5
185AA
  8
DANMEN
  6
CONTINUOUS
 10
109.123494
 20
224.439422
 30
0.0
 40
0.5
 50
1.431408
 51
84.0
  0
LINE
  5
185B0
  8
DANMEN
  6
CONTINUOUS
 10
108.61785
 20
224.995322
 30
0.0
 11
109.175759
 21
224.936683
 31
0.0
  0
LINE
  5
185B2
  8
DANMEN
  6
CONTINUOUS
 10
108.850006
 20
258.350006
 30
0.0
 11
108.850006
 21
249.65
 31
0.0
  0
ARC
  5
185B3
  8
DANMEN
  6
CONTINUOUS
 10
110.0
 20
259.5
 30
0.0
 40
0.5
 50
0.0
 51
89.999982
  0
LINE
  5
185B4
  8
DANMEN
  6
CONTINUOUS
 10
105.0
 20
258.350006
 30
0.0
 11
108.850006
 21
258.350006
 31
0.0
  0
LINE
  5
185B5
  8
DANMEN
  6
CONTINUOUS
 10
105.0
 20
260.0
 30
0.0
 11
110.0
 21
260.0
 31
0.0
  0
ARC
  5
185B6
  8
DANMEN
  6
CONTINUOUS
 10
105.0
 20
258.850006
 30
0.0
 40
0.5
 50
180.000019
 51
270.000001
  0
ARC
  5
185B7
  8
DANMEN
  6
CONTINUOUS
 10
105.0
 20
259.5
 30
0.0
 40
0.5
 50
89.999982
 51
180.000019
  0
LINE
  5
185B8
  8
DANMEN
  6
CONTINUOUS
 10
104.5
 20
259.5
 30
0.0
 11
104.5
 21
258.850006
 31
0.0
  0
LINE
  5
185BA
  8
SUNPO
  6
CONTINUOUS
 10
154.5
 20
91.0
 30
0.0
 11
154.5
 21
146.0
 31
0.0
  0
TEXT
  5
185BB
  8
SUNPO
  6
CONTINUOUS
 10
133.721192
 20
119.91667
 30
0.0
 40
2.5
  1
22
 50
90.0
  7
MX_NOTE_STANDARD
  0
TEXT
  5
185BC
  8
SUNPO
  6
CONTINUOUS
 10
242.293737
 20
119.125
 30
0.0
 40
2.5
  1
70
 50
90.0
  7
MX_NOTE_STANDARD
  0
LINE
  5
185BD
  8
DANMEN
  6
CONTINUOUS
 10
262.845223
 20
124.8
 30
0.0
 11
260.589667
 21
121.3
 31
0.0
  0
LINE
  5
185BE
  8
DANMEN
  6
CONTINUOUS
 10
262.004653
 20
125.341701
 30
0.0
 11
259.4
 21
121.3
 31
0.0
  0
LINE
  5
185BF
  8
DANMEN
  6
CONTINUOUS
 10
263.800001
 20
124.8
 30
0.0
 11
263.800001
 21
121.3
 31
0.0
  0
LINE
  5
185C0
  8
DANMEN
  6
CONTINUOUS
 10
264.800001
 20
125.2
 30
0.0
 11
264.800001
 21
120.5
 31
0.0
  0
LINE
  5
185C1
  8
DANMEN
  6
CONTINUOUS
 10
287.999997
 20
125.0
 30
0.0
 11
287.999997
 21
120.5
 31
0.0
  0
LINE
  5
185C2
  8
DANMEN
  6
CONTINUOUS
 10
286.499997
 20
125.0
 30
0.0
 11
286.499997
 21
121.0
 31
0.0
  0
LINE
  5
185C3
  8
DANMEN
  6
CONTINUOUS
 10
301.499997
 20
125.0
 30
0.0
 11
301.499997
 21
121.0
 31
0.0
  0
LINE
  5
185C4
  8
DANMEN
  6
CONTINUOUS
 10
302.999997
 20
162.0
 30
0.0
 11
302.999997
 21
120.5
 31
0.0
  0
ARC
  5
185C5
  8
DANMEN
  6
CONTINUOUS
 10
282.250003
 20
122.2
 30
0.0
 40
0.3
 50
286.488148
 51
90.0
  0
ARC
  5
185C6
  8
DANMEN
  6
CONTINUOUS
 10
272.05
 20
121.5
 30
0.0
 40
1.0
 50
89.999982
 51
180.000019
  0
LINE
  5
185C7
  8
DANMEN
  6
CONTINUOUS
 10
392.149994
 20
154.350006
 30
0.0
 11
392.149994
 21
87.649994
 31
0.0
  0
LINE
  5
185C8
  8
DANMEN
  6
CONTINUOUS
 10
390.5
 20
154.800003
 30
0.0
 11
390.5
 21
87.199997
 31
0.0
  0
LINE
  5
185C9
  8
SUNPO
  6
CONTINUOUS
 10
322.968739
 20
125.0
 30
0.0
 11
322.968739
 21
117.0
 31
0.0
  0
LINE
  5
185CA
  8
SUNPO
  6
CONTINUOUS
 10
243.293737
 20
156.0
 30
0.0
 11
243.293737
 21
86.0
 31
0.0
  0
LINE
  5
185CB
  8
SUNPO
  6
CONTINUOUS
 10
143.185645
 20
133.000003
 30
0.0
 11
143.185645
 21
91.0
 31
0.0
  0
LINE
  5
185CC
  8
SUNPO
  6
CONTINUOUS
 10
134.721192
 20
133.000003
 30
0.0
 11
134.721192
 21
111.000003
 31
0.0
  0
LINE
  5
185CD
  8
SUNPO
  6
CONTINUOUS
 10
19.5
 20
51.0
 30
0.0
 11
19.5
 21
165.0
 31
0.0
  0
LINE
  5
185CE
  8
SUNPO
  6
CONTINUOUS
 10
295.5
 20
28.0
 30
0.0
 11
375.5
 21
28.0
 31
0.0
  0
LINE
  5
185CF
  8
SUNPO
  6
CONTINUOUS
 10
303.0
 20
36.322886
 30
0.0
 11
375.5
 21
36.322886
 31
0.0
  0
LINE
  5
185D0
  8
SUNPO
  6
CONTINUOUS
 10
55.5
 20
22.0
 30
0.0
 11
154.5
 21
22.0
 31
0.0
  0
LINE
  5
185D1
  8
DANMEN
  6
CONTINUOUS
 10
322.4
 20
81.199997
 30
0.0
 11
345.0
 21
81.199997
 31
0.0
  0
LINE
  5
185D2
  8
DANMEN
  6
CONTINUOUS
 10
322.4
 20
79.0
 30
0.0
 11
345.0
 21
79.0
 31
0.0
  0
LINE
  5
185D3
  8
DANMEN
  6
CONTINUOUS
 10
322.25
 20
122.0
 30
0.0
 11
390.5
 21
122.0
 31
0.0
  0
LINE
  5
185D4
  8
DANMEN
  6
CONTINUOUS
 10
346.000004
 20
117.0
 30
0.0
 11
322.4
 21
117.0
 31
0.0
  0
LINE
  5
185D5
  8
DANMEN
  6
CONTINUOUS
 10
322.4
 20
108.0
 30
0.0
 11
357.5
 21
108.0
 31
0.0
  0
LINE
  5
185D6
  8
DANMEN
  6
CONTINUOUS
 10
322.4
 20
108.5
 30
0.0
 11
357.5
 21
108.5
 31
0.0
  0
LINE
  5
185D7
  8
DANMEN
  6
CONTINUOUS
 10
322.4
 20
101.0
 30
0.0
 11
357.5
 21
101.0
 31
0.0
  0
LINE
  5
185D8
  8
DANMEN
  6
CONTINUOUS
 10
322.4
 20
100.5
 30
0.0
 11
357.5
 21
100.5
 31
0.0
  0
LINE
  5
185D9
  8
DANMEN
  6
CONTINUOUS
 10
345.5
 20
114.999997
 30
0.0
 11
322.4
 21
114.999997
 31
0.0
  0
LINE
  5
185DA
  8
DANMEN
  6
CONTINUOUS
 10
345.5
 20
94.0
 30
0.0
 11
322.4
 21
94.0
 31
0.0
  0
TEXT
  5
185DB
  8
WAKU
 10
35.0
 20
284.5
 30
0.0
 40
5.0
  1
外動片引き断面詳細図(HAﾀｲプ)　防火戸　非防火戸
 11
35.0
 21
287.0
 31
0.0
 73
     2
  0
LINE
  5
185DC
  8
DANMEN
  6
CONTINUOUS
 10
264.800001
 20
122.0
 30
0.0
 11
271.183978
 21
122.0
 31
0.0
  0
LINE
  5
185DD
  8
DANMEN
  6
CONTINUOUS
 10
301.0
 20
61.0
 30
0.0
 11
260.0
 21
61.0
 31
0.0
  0
LINE
  5
185DE
  8
DANMEN
  6
CONTINUOUS
 10
272.5
 20
89.75
 30
0.0
 11
266.05
 21
89.75
 31
0.0
  0
LINE
  5
185DF
  8
DANMEN
  6
CONTINUOUS
 10
301.0
 20
58.0
 30
0.0
 11
260.0
 21
58.0
 31
0.0
  0
LINE
  5
185E0
  8
DANMEN
  6
CONTINUOUS
 10
272.500003
 20
87.8
 30
0.0
 11
259.999997
 21
87.8
 31
0.0
  0
LINE
  5
185E1
  8
DANMEN
  6
CONTINUOUS
 10
272.5
 20
115.050003
 30
0.0
 11
259.649997
 21
115.050003
 31
0.0
  0
LINE
  5
185E2
  8
DANMEN
  6
CONTINUOUS
 10
271.050003
 20
117.0
 30
0.0
 11
264.75
 21
117.0
 31
0.0
  0
LINE
  5
185E3
  8
DANMEN
  6
CONTINUOUS
 10
260.0
 20
61.0
 30
0.0
 11
260.0
 21
87.8
 31
0.0
  0
LINE
  5
185E4
  8
DANMEN
  6
CONTINUOUS
 10
258.0
 20
60.0
 30
0.0
 11
258.0
 21
121.5
 31
0.0
  0
ARC
  5
185E5
  8
DANMEN
  6
CONTINUOUS
 10
260.0
 20
60.0
 30
0.0
 40
2.0
 50
179.999981
 51
270.000018
  0
LINE
  5
185E8
  8
DANMEN
  6
CONTINUOUS
 10
259.949997
 20
89.75
 30
0.0
 11
259.949997
 21
114.050003
 31
0.0
  0
LINE
  5
185E9
  8
DANMEN
  6
CONTINUOUS
 10
240.25
 20
90.0
 30
0.0
 11
258.0
 21
90.0
 31
0.0
  0
LINE
  5
185EA
  8
DANMEN
  6
CONTINUOUS
 10
240.25
 20
86.0
 30
0.0
 11
258.0
 21
86.0
 31
0.0
  0
LINE
  5
185EB
  8
DANMEN
  6
CONTINUOUS
 10
264.95
 20
89.75
 30
0.0
 11
259.949997
 21
89.75
 31
0.0
  0
LINE
  5
185ED
  8
DANMEN
  6
CONTINUOUS
 10
264.95
 20
89.75
 30
0.0
 11
264.95
 21
91.95
 31
0.0
  0
LINE
  5
185EE
  8
DANMEN
  6
CONTINUOUS
 10
266.05
 20
89.75
 30
0.0
 11
266.05
 21
91.95
 31
0.0
  0
LINE
  5
185EF
  8
DANMEN
  6
CONTINUOUS
 10
266.05
 20
91.95
 30
0.0
 11
264.95
 21
91.95
 31
0.0
  0
LINE
  5
185F0
  8
DANMEN
  6
CONTINUOUS
 10
243.715107
 20
122.0
 30
0.0
 11
258.0
 21
122.0
 31
0.0
  0
ARC
  5
185F1
  8
DANMEN
  6
CONTINUOUS
 10
258.5
 20
121.5
 30
0.0
 40
0.5
 50
90.0
 51
180.0
  0
LINE
  5
185F2
  8
DANMEN
  6
CONTINUOUS
 10
259.949997
 20
114.050003
 30
0.0
 11
259.649997
 21
114.050003
 31
0.0
  0
LINE
  5
185F3
  8
DANMEN
  6
CONTINUOUS
 10
259.649997
 20
114.050003
 30
0.0
 11
259.649997
 21
115.050003
 31
0.0
  0
LINE
  5
185F4
  8
DANMEN
  6
CONTINUOUS
 10
261.040778
 20
122.0
 30
0.0
 11
263.800001
 21
122.0
 31
0.0
  0
LINE
  5
185F5
  8
DANMEN
  6
CONTINUOUS
 10
260.589667
 20
121.3
 30
0.0
 11
263.800001
 21
121.3
 31
0.0
  0
LINE
  5
185F6
  8
DANMEN
  6
CONTINUOUS
 10
260.9
 20
119.0
 30
0.0
 11
262.1
 21
119.0
 31
0.0
  0
LINE
  5
185F7
  8
DANMEN
  6
CONTINUOUS
 10
263.75
 20
117.0
 30
0.0
 11
259.2
 21
117.0
 31
0.0
  0
LINE
  5
185F9
  8
DANMEN
  6
CONTINUOUS
 10
260.4
 20
120.5
 30
0.0
 11
260.4
 21
119.5
 31
0.0
  0
LINE
  5
185FA
  8
DANMEN
  6
CONTINUOUS
 10
259.599999
 20
119.5
 30
0.0
 11
260.4
 21
119.5
 31
0.0
  0
LINE
  5
185FB
  8
DANMEN
  6
CONTINUOUS
 10
259.4
 20
119.3
 30
0.0
 11
259.4
 21
118.5
 31
0.0
  0
ARC
  5
185FC
  8
DANMEN
  6
CONTINUOUS
 10
259.599999
 20
119.3
 30
0.0
 40
0.2
 50
89.999982
 51
180.000019
  0
LINE
  5
185FD
  8
DANMEN
  6
CONTINUOUS
 10
259.4
 20
120.5
 30
0.0
 11
260.4
 21
120.5
 31
0.0
  0
LINE
  5
18601
  8
DANMEN
  6
CONTINUOUS
 10
259.4
 20
120.5
 30
0.0
 11
259.4
 21
121.3
 31
0.0
  0
LINE
  5
18604
  8
DANMEN
  6
CONTINUOUS
 10
260.4
 20
118.5
 30
0.0
 11
259.4
 21
118.5
 31
0.0
  0
LINE
  5
18607
  8
DANMEN
  6
CONTINUOUS
 10
260.9
 20
119.0
 30
0.0
 11
260.4
 21
118.5
 31
0.0
  0
LINE
  5
1860B
  8
DANMEN
  6
CONTINUOUS
 10
258.5
 20
122.0
 30
0.0
 11
258.7
 21
122.0
 31
0.0
  0
LINE
  5
1860C
  8
DANMEN
  6
CONTINUOUS
 10
260.25
 20
119.699997
 30
0.0
 11
260.25
 21
120.0
 31
0.0
  0
LINE
  5
1860D
  8
DANMEN
  6
CONTINUOUS
 10
260.25
 20
119.699997
 30
0.0
 11
259.2
 21
119.699997
 31
0.0
  0
LINE
  5
1860E
  8
DANMEN
  6
CONTINUOUS
 10
259.75
 20
120.5
 30
0.0
 11
259.2
 21
120.5
 31
0.0
  0
ARC
  5
1860F
  8
DANMEN
  6
CONTINUOUS
 10
259.75
 20
120.0
 30
0.0
 40
0.5
 50
360.0
 51
89.999982
  0
LINE
  5
18610
  8
DANMEN
  6
CONTINUOUS
 10
259.2
 20
117.0
 30
0.0
 11
259.2
 21
119.699997
 31
0.0
  0
LINE
  5
18611
  8
DANMEN
  6
CONTINUOUS
 10
259.2
 20
120.5
 30
0.0
 11
259.2
 21
121.5
 31
0.0
  0
ARC
  5
18612
  8
DANMEN
  6
CONTINUOUS
 10
258.7
 20
121.5
 30
0.0
 40
0.5
 50
0.0
 51
90.0
  0
LINE
  5
18614
  8
DANMEN
  6
CONTINUOUS
 10
262.6
 20
120.5
 30
0.0
 11
262.6
 21
119.5
 31
0.0
  0
LINE
  5
18615
  8
DANMEN
  6
CONTINUOUS
 10
263.400001
 20
119.5
 30
0.0
 11
262.6
 21
119.5
 31
0.0
  0
LINE
  5
18616
  8
DANMEN
  6
CONTINUOUS
 10
263.6
 20
119.3
 30
0.0
 11
263.6
 21
118.5
 31
0.0
  0
ARC
  5
18617
  8
DANMEN
  6
CONTINUOUS
 10
263.400001
 20
119.3
 30
0.0
 40
0.2
 50
359.999981
 51
90.000037
  0
LINE
  5
1861B
  8
DANMEN
  6
CONTINUOUS
 10
263.6
 20
118.5
 30
0.0
 11
262.6
 21
118.5
 31
0.0
  0
LINE
  5
1861F
  8
DANMEN
  6
CONTINUOUS
 10
262.6
 20
118.5
 30
0.0
 11
262.1
 21
119.0
 31
0.0
  0
LINE
  5
18620
  8
DANMEN
  6
CONTINUOUS
 10
262.6
 20
120.5
 30
0.0
 11
264.800001
 21
120.5
 31
0.0
  0
LINE
  5
18622
  8
DANMEN
  6
CONTINUOUS
 10
264.25
 20
120.5
 30
0.0
 11
263.25
 21
120.5
 31
0.0
  0
LINE
  5
18623
  8
DANMEN
  6
CONTINUOUS
 10
264.75
 20
117.0
 30
0.0
 11
264.75
 21
120.0
 31
0.0
  0
LINE
  5
18624
  8
DANMEN
  6
CONTINUOUS
 10
262.75
 20
119.699997
 30
0.0
 11
262.75
 21
120.0
 31
0.0
  0
LINE
  5
18625
  8
DANMEN
  6
CONTINUOUS
 10
263.75
 20
119.699997
 30
0.0
 11
262.75
 21
119.699997
 31
0.0
  0
LINE
  5
18626
  8
DANMEN
  6
CONTINUOUS
 10
263.75
 20
117.0
 30
0.0
 11
263.75
 21
119.699997
 31
0.0
  0
ARC
  5
18627
  8
DANMEN
  6
CONTINUOUS
 10
263.25
 20
120.0
 30
0.0
 40
0.5
 50
89.999982
 51
180.000019
  0
ARC
  5
18628
  8
DANMEN
  6
CONTINUOUS
 10
264.25
 20
120.0
 30
0.0
 40
0.5
 50
360.0
 51
89.999982
  0
LINE
  5
18629
  8
DANMEN
  6
CONTINUOUS
 10
301.0
 20
61.0
 30
0.0
 11
301.0
 21
79.0
 31
0.0
  0
LINE
  5
1862A
  8
DANMEN
  6
CONTINUOUS
 10
303.0
 20
60.0
 30
0.0
 11
303.0
 21
94.0
 31
0.0
  0
ARC
  5
1862B
  8
DANMEN
  6
CONTINUOUS
 10
301.0
 20
60.0
 30
0.0
 40
2.0
 50
270.000018
 51
0.0
  0
LINE
  5
1862E
  8
DANMEN
  6
CONTINUOUS
 10
318.898349
 20
101.0
 30
0.0
 11
291.0
 21
101.0
 31
0.0
  0
LINE
  5
1862F
  8
DANMEN
  6
CONTINUOUS
 10
320.75
 20
108.0
 30
0.0
 11
291.0
 21
108.0
 31
0.0
  0
LINE
  5
18630
  8
DANMEN
  6
CONTINUOUS
 10
320.75
 20
108.5
 30
0.0
 11
291.0
 21
108.5
 31
0.0
  0
LINE
  5
18631
  8
DANMEN
  6
CONTINUOUS
 10
318.898349
 20
100.5
 30
0.0
 11
291.0
 21
100.5
 31
0.0
  0
LINE
  5
18632
  8
DANMEN
  6
CONTINUOUS
 10
287.999997
 20
122.0
 30
0.0
 11
301.8
 21
122.0
 31
0.0
  0
LINE
  5
18633
  8
DANMEN
  6
CONTINUOUS
 10
302.499996
 20
117.0
 30
0.0
 11
283.0
 21
117.0
 31
0.0
  0
LINE
  5
18634
  8
DANMEN
  6
CONTINUOUS
 10
302.499996
 20
114.5
 30
0.0
 11
297.999997
 21
114.5
 31
0.0
  0
LINE
  5
18635
  8
DANMEN
  6
CONTINUOUS
 10
298.499997
 20
121.0
 30
0.0
 11
301.499997
 21
121.0
 31
0.0
  0
LINE
  5
18636
  8
DANMEN
  6
CONTINUOUS
 10
298.499997
 20
119.5
 30
0.0
 11
301.999997
 21
119.5
 31
0.0
  0
LINE
  5
18637
  8
DANMEN
  6
CONTINUOUS
 10
301.000003
 20
79.0
 30
0.0
 11
273.500003
 21
79.0
 31
0.0
  0
LINE
  5
18638
  8
DANMEN
  6
CONTINUOUS
 10
301.8
 20
80.949997
 30
0.0
 11
275.0
 21
80.949997
 31
0.0
  0
LINE
  5
18639
  8
DANMEN
  6
CONTINUOUS
 10
301.050003
 20
93.0
 30
0.0
 11
292.5
 21
93.0
 31
0.0
  0
LINE
  5
1863A
  8
DANMEN
  6
CONTINUOUS
 10
302.499999
 20
94.5
 30
0.0
 11
298.0
 21
94.5
 31
0.0
  0
LINE
  5
1863B
  8
DANMEN
  6
CONTINUOUS
 10
291.0
 20
110.0
 30
0.0
 11
291.0
 21
99.0
 31
0.0
  0
LINE
  5
1863C
  8
DANMEN
  6
CONTINUOUS
 10
291.0
 20
99.0
 30
0.0
 11
275.0
 21
110.0
 31
0.0
  0
LINE
  5
1863D
  8
DANMEN
  6
CONTINUOUS
 10
275.0
 20
110.0
 30
0.0
 11
275.0
 21
99.0
 31
0.0
  0
LINE
  5
1863E
  8
DANMEN
  6
CONTINUOUS
 10
275.0
 20
80.949997
 30
0.0
 11
275.0
 21
110.299994
 31
0.0
  0
LINE
  5
1863F
  8
DANMEN
  6
CONTINUOUS
 10
272.5
 20
94.8
 30
0.0
 11
272.5
 21
111.999994
 31
0.0
  0
LINE
  5
18640
  8
DANMEN
  6
CONTINUOUS
 10
291.0
 20
99.0
 30
0.0
 11
275.0
 21
99.0
 31
0.0
  0
LINE
  5
18641
  8
DANMEN
  6
CONTINUOUS
 10
272.500003
 20
80.0
 30
0.0
 11
272.500003
 21
87.8
 31
0.0
  0
ARC
  5
18642
  8
DANMEN
  6
CONTINUOUS
 10
273.500003
 20
80.0
 30
0.0
 40
1.0
 50
179.999981
 51
270.000018
  0
LINE
  5
18644
  8
DANMEN
  6
CONTINUOUS
 10
271.050003
 20
93.3
 30
0.0
 11
271.050003
 21
94.8
 31
0.0
  0
LINE
  5
18645
  8
DANMEN
  6
CONTINUOUS
 10
272.5
 20
89.75
 30
0.0
 11
272.5
 21
93.3
 31
0.0
  0
LINE
  5
18646
  8
DANMEN
  6
CONTINUOUS
 10
272.5
 20
93.3
 30
0.0
 11
271.050003
 21
93.3
 31
0.0
  0
LINE
  5
18647
  8
DANMEN
  6
CONTINUOUS
 10
272.5
 20
94.8
 30
0.0
 11
271.050003
 21
94.8
 31
0.0
  0
ARC
  5
18649
  8
DANMEN
  6
CONTINUOUS
 10
292.5
 20
93.5
 30
0.0
 40
0.5
 50
180.0
 51
270.0
  0
LINE
  5
1864B
  8
DANMEN
  6
CONTINUOUS
 10
298.0
 20
94.0
 30
0.0
 11
293.0
 21
94.0
 31
0.0
  0
LINE
  5
1864C
  8
DANMEN
  6
CONTINUOUS
 10
292.0
 20
93.5
 30
0.0
 11
292.0
 21
94.0
 31
0.0
  0
ARC
  5
1864F
  8
DANMEN
  6
CONTINUOUS
 10
292.5
 20
94.0
 30
0.0
 40
0.5
 50
90.0
 51
180.0
  0
LINE
  5
18650
  8
DANMEN
  6
CONTINUOUS
 10
293.0
 20
94.5
 30
0.0
 11
292.5
 21
94.5
 31
0.0
  0
LINE
  5
18652
  8
DANMEN
  6
CONTINUOUS
 10
293.0
 20
94.0
 30
0.0
 11
293.0
 21
94.5
 31
0.0
  0
LINE
  5
18655
  8
DANMEN
  6
CONTINUOUS
 10
298.0
 20
94.0
 30
0.0
 11
298.0
 21
94.5
 31
0.0
  0
LINE
  5
18656
  8
DANMEN
  6
CONTINUOUS
 10
291.0
 20
110.0
 30
0.0
 11
275.0
 21
110.0
 31
0.0
  0
LINE
  5
18657
  8
DANMEN
  6
CONTINUOUS
 10
284.3
 20
113.35
 30
0.0
 11
280.265976
 21
113.35
 31
0.0
  0
LINE
  5
18658
  8
DANMEN
  6
CONTINUOUS
 10
283.3
 20
114.55
 30
0.0
 11
281.318372
 21
114.55
 31
0.0
  0
LINE
  5
18659
  8
DANMEN
  6
CONTINUOUS
 10
276.799997
 20
119.5
 30
0.0
 11
286.999997
 21
119.5
 31
0.0
  0
LINE
  5
1865A
  8
DANMEN
  6
CONTINUOUS
 10
282.499997
 20
121.8
 30
0.0
 11
282.999997
 21
121.8
 31
0.0
  0
LINE
  5
1865B
  8
DANMEN
  6
CONTINUOUS
 10
282.003755
 20
114.5
 30
0.0
 11
282.745423
 21
114.856576
 31
0.0
  0
LINE
  5
1865C
  8
DANMEN
  6
CONTINUOUS
 10
283.0
 20
117.0
 30
0.0
 11
272.55
 21
117.0
 31
0.0
  0
ARC
  5
1865D
  8
DANMEN
  6
CONTINUOUS
 10
280.5
 20
110.690092
 30
0.0
 40
0.5
 50
0.0
 51
78.690068
  0
LINE
  5
1865F
  8
DANMEN
  6
CONTINUOUS
 10
281.0
 20
110.299994
 30
0.0
 11
275.0
 21
110.299994
 31
0.0
  0
LINE
  5
18661
  8
DANMEN
  6
CONTINUOUS
 10
281.0
 20
110.690092
 30
0.0
 11
281.0
 21
110.299994
 31
0.0
  0
LINE
  5
18662
  8
DANMEN
  6
CONTINUOUS
 10
282.250003
 20
122.5
 30
0.0
 11
272.05
 21
122.5
 31
0.0
  0
LINE
  5
18663
  8
DANMEN
  6
CONTINUOUS
 10
276.050003
 20
121.0
 30
0.0
 11
272.55
 21
121.0
 31
0.0
  0
LINE
  5
18664
  8
DANMEN
  6
CONTINUOUS
 10
271.050003
 20
111.999994
 30
0.0
 11
271.050003
 21
113.499994
 31
0.0
  0
LINE
  5
18665
  8
DANMEN
  6
CONTINUOUS
 10
272.5
 20
111.999994
 30
0.0
 11
271.050003
 21
111.999994
 31
0.0
  0
LINE
  5
18666
  8
DANMEN
  6
CONTINUOUS
 10
272.5
 20
113.499994
 30
0.0
 11
272.5
 21
115.050003
 31
0.0
  0
LINE
  5
18667
  8
DANMEN
  6
CONTINUOUS
 10
272.5
 20
113.499994
 30
0.0
 11
271.050003
 21
113.499994
 31
0.0
  0
LINE
  5
18668
  8
DANMEN
  6
CONTINUOUS
 10
272.55
 20
117.0
 30
0.0
 11
272.55
 21
121.0
 31
0.0
  0
LINE
  5
18669
  8
DANMEN
  6
CONTINUOUS
 10
271.050003
 20
117.0
 30
0.0
 11
271.050003
 21
121.5
 31
0.0
  0
LINE
  5
1866B
  8
DANMEN
  6
CONTINUOUS
 10
280.265976
 20
113.35
 30
0.0
 11
277.740435
 21
111.4
 31
0.0
  0
LINE
  5
1866C
  8
DANMEN
  6
CONTINUOUS
 10
280.349205
 20
114.930331
 30
0.0
 11
277.290105
 21
112.568364
 31
0.0
  0
LINE
  5
1866D
  8
DANMEN
  6
CONTINUOUS
 10
279.0
 20
111.499994
 30
0.0
 11
275.0
 21
111.499994
 31
0.0
  0
LINE
  5
1866E
  8
DANMEN
  6
CONTINUOUS
 10
281.0
 20
115.05
 30
0.0
 11
275.0
 21
115.05
 31
0.0
  0
ARC
  5
18670
  8
DANMEN
  6
CONTINUOUS
 10
277.106762
 20
112.80582
 30
0.0
 40
0.3
 50
214.708049
 51
307.672157
  0
LINE
  5
18671
  8
DANMEN
  6
CONTINUOUS
 10
276.860143
 20
112.635002
 30
0.0
 11
276.410137
 21
113.284698
 31
0.0
  0
LINE
  5
18673
  8
DANMEN
  6
CONTINUOUS
 10
276.499105
 20
111.4
 30
0.0
 11
275.588073
 21
112.715302
 31
0.0
  0
LINE
  5
18676
  8
DANMEN
  6
CONTINUOUS
 10
277.740435
 20
111.4
 30
0.0
 11
276.499105
 21
111.4
 31
0.0
  0
ARC
  5
18677
  8
DANMEN
  6
CONTINUOUS
 10
275.999105
 20
113.0
 30
0.0
 40
0.5
 50
34.708049
 51
214.708049
  0
LINE
  5
18679
  8
DANMEN
  6
CONTINUOUS
 10
275.0
 20
111.499994
 30
0.0
 11
275.0
 21
115.05
 31
0.0
  0
ARC
  5
1867C
  8
DANMEN
  6
CONTINUOUS
 10
281.318372
 20
114.85
 30
0.0
 40
0.3
 50
206.118581
 51
270.0
  0
ARC
  5
1867E
  8
DANMEN
  6
CONTINUOUS
 10
280.600064
 20
114.497816
 30
0.0
 40
0.5
 50
26.118581
 51
120.113733
  0
LINE
  5
18681
  8
DANMEN
  6
CONTINUOUS
 10
281.3
 20
114.5
 30
0.0
 11
282.003755
 21
114.5
 31
0.0
  0
LINE
  5
18682
  8
DANMEN
  6
CONTINUOUS
 10
281.0
 20
114.8
 30
0.0
 11
281.0
 21
115.05
 31
0.0
  0
ARC
  5
18683
  8
DANMEN
  6
CONTINUOUS
 10
281.3
 20
114.8
 30
0.0
 40
0.3
 50
180.0
 51
270.0
  0
LINE
  5
18684
  8
DANMEN
  6
CONTINUOUS
 10
279.0
 20
111.499994
 30
0.0
 11
280.598058
 21
111.180382
 31
0.0
  0
LINE
  5
18685
  8
DANMEN
  6
CONTINUOUS
 10
282.499997
 20
121.8
 30
0.0
 11
276.714852
 21
120.087664
 31
0.0
  0
LINE
  5
18686
  8
DANMEN
  6
CONTINUOUS
 10
276.550003
 20
120.2
 30
0.0
 11
282.335148
 21
121.912336
 31
0.0
  0
ARC
  5
18689
  8
DANMEN
  6
CONTINUOUS
 10
276.799997
 20
119.8
 30
0.0
 40
0.3
 50
106.488148
 51
270.0
  0
LINE
  5
1868A
  8
DANMEN
  6
CONTINUOUS
 10
276.550003
 20
120.2
 30
0.0
 11
276.050003
 21
120.2
 31
0.0
  0
LINE
  5
1868B
  8
DANMEN
  6
CONTINUOUS
 10
276.050003
 20
121.0
 30
0.0
 11
276.050003
 21
120.2
 31
0.0
  0
LINE
  5
1868D
  8
DANMEN
  6
CONTINUOUS
 10
291.0
 20
108.5
 30
0.0
 11
291.0
 21
100.5
 31
0.0
  0
LINE
  5
1868E
  8
DANMEN
  6
CONTINUOUS
 10
297.999997
 20
115.05
 30
0.0
 11
285.3
 21
115.05
 31
0.0
  0
LINE
  5
1868F
  8
DANMEN
  6
CONTINUOUS
 10
283.0
 20
117.0
 30
0.0
 11
283.0
 21
115.05
 31
0.0
  0
LINE
  5
18690
  8
DANMEN
  6
CONTINUOUS
 10
283.0
 20
117.0
 30
0.0
 11
283.0
 21
115.292199
 31
0.0
  0
ARC
  5
18692
  8
DANMEN
  6
CONTINUOUS
 10
284.3
 20
113.85
 30
0.0
 40
0.5
 50
270.0
 51
0.0
  0
LINE
  5
18695
  8
DANMEN
  6
CONTINUOUS
 10
283.3
 20
115.05
 30
0.0
 11
283.0
 21
115.05
 31
0.0
  0
LINE
  5
18696
  8
DANMEN
  6
CONTINUOUS
 10
283.3
 20
115.05
 30
0.0
 11
283.3
 21
114.55
 31
0.0
  0
LINE
  5
18697
  8
DANMEN
  6
CONTINUOUS
 10
284.8
 20
114.55
 30
0.0
 11
284.8
 21
113.85
 31
0.0
  0
ARC
  5
1869A
  8
DANMEN
  6
CONTINUOUS
 10
285.3
 20
114.55
 30
0.0
 40
0.5
 50
90.0
 51
180.0
  0
ARC
  5
1869D
  8
DANMEN
  6
CONTINUOUS
 10
282.5
 20
115.292199
 30
0.0
 40
0.5
 50
299.396173
 51
0.0
  0
LINE
  5
1869E
  8
DANMEN
  6
CONTINUOUS
 10
283.0
 20
122.0
 30
0.0
 11
286.499997
 21
122.0
 31
0.0
  0
LINE
  5
186A1
  8
DANMEN
  6
CONTINUOUS
 10
282.999997
 20
121.0
 30
0.0
 11
282.999997
 21
121.8
 31
0.0
  0
LINE
  5
186A4
  8
DANMEN
  6
CONTINUOUS
 10
282.999997
 20
121.0
 30
0.0
 11
286.499997
 21
121.0
 31
0.0
  0
ARC
  5
186A8
  8
DANMEN
  6
CONTINUOUS
 10
286.999997
 20
120.5
 30
0.0
 40
1.0
 50
270.000018
 51
0.0
  0
LINE
  5
186AB
  8
DANMEN
  6
CONTINUOUS
 10
297.999997
 20
115.05
 30
0.0
 11
297.999997
 21
114.5
 31
0.0
  0
ARC
  5
186AF
  8
DANMEN
  6
CONTINUOUS
 10
298.499997
 20
120.5
 30
0.0
 40
0.5
 50
90.0
 51
180.0
  0
ARC
  5
186B1
  8
DANMEN
  6
CONTINUOUS
 10
298.499997
 20
120.0
 30
0.0
 40
0.5
 50
180.0
 51
270.0
  0
LINE
  5
186B2
  8
DANMEN
  6
CONTINUOUS
 10
297.999997
 20
120.5
 30
0.0
 11
297.999997
 21
120.0
 31
0.0
  0
LINE
  5
186B3
  8
DANMEN
  6
CONTINUOUS
 10
299.999999
 20
97.257359
 30
0.0
 11
303.242639
 21
100.5
 31
0.0
  0
LINE
  5
186B4
  8
DANMEN
  6
CONTINUOUS
 10
300.636038
 20
100.5
 30
0.0
 11
303.551466
 21
97.584572
 31
0.0
  0
LINE
  5
186B5
  8
DANMEN
  6
CONTINUOUS
 10
304.000001
 20
100.499996
 30
0.0
 11
303.000001
 21
93.999995
 31
0.0
  0
LINE
  5
186B6
  8
DANMEN
  6
CONTINUOUS
 10
303.0
 20
81.199997
 30
0.0
 11
320.75
 21
81.199997
 31
0.0
  0
LINE
  5
186B7
  8
DANMEN
  6
CONTINUOUS
 10
303.0
 20
79.0
 30
0.0
 11
320.75
 21
79.0
 31
0.0
  0
LINE
  5
186B8
  8
DANMEN
  6
CONTINUOUS
 10
303.0
 20
94.000003
 30
0.0
 11
320.75
 21
94.000003
 31
0.0
  0
LINE
  5
186B9
  8
DANMEN
  6
CONTINUOUS
 10
301.050003
 20
82.949997
 30
0.0
 11
301.050003
 21
93.0
 31
0.0
  0
LINE
  5
186BA
  8
DANMEN
  6
CONTINUOUS
 10
301.8
 20
80.949997
 30
0.0
 11
301.8
 21
82.949997
 31
0.0
  0
LINE
  5
186BC
  8
DANMEN
  6
CONTINUOUS
 10
301.8
 20
82.949997
 30
0.0
 11
301.050003
 21
82.949997
 31
0.0
  0
LINE
  5
186BE
  8
DANMEN
  6
CONTINUOUS
 10
301.48528
 20
94.5
 30
0.0
 11
303.366305
 21
96.381025
 31
0.0
  0
LINE
  5
186BF
  8
DANMEN
  6
CONTINUOUS
 10
299.999999
 20
95.136039
 30
0.0
 11
303.751999
 21
98.88804
 31
0.0
  0
LINE
  5
186C0
  8
DANMEN
  6
CONTINUOUS
 10
299.999999
 20
99.014719
 30
0.0
 11
303.268623
 21
95.746094
 31
0.0
  0
ARC
  5
186C1
  8
DANMEN
  6
CONTINUOUS
 10
302.5
 20
94.0
 30
0.0
 40
0.5
 50
0.0
 51
90.0
  0
LINE
  5
186C2
  8
DANMEN
  6
CONTINUOUS
 10
299.999999
 20
94.772078
 30
0.0
 11
300.272076
 21
94.5
 31
0.0
  0
LINE
  5
186C3
  8
DANMEN
  6
CONTINUOUS
 10
299.999999
 20
96.893398
 30
0.0
 11
302.393397
 21
94.5
 31
0.0
  0
LINE
  5
186C5
  8
DANMEN
  6
CONTINUOUS
 10
303.0
 20
122.0
 30
0.0
 11
320.75
 21
122.0
 31
0.0
  0
LINE
  5
186C6
  8
DANMEN
  6
CONTINUOUS
 10
303.0
 20
117.0
 30
0.0
 11
320.75
 21
117.0
 31
0.0
  0
LINE
  5
186C7
  8
DANMEN
  6
CONTINUOUS
 10
303.0
 20
114.999997
 30
0.0
 11
320.75
 21
114.999997
 31
0.0
  0
LINE
  5
186C8
  8
DANMEN
  6
CONTINUOUS
 10
300.636038
 20
108.5
 30
0.0
 11
303.551466
 21
111.415428
 31
0.0
  0
LINE
  5
186C9
  8
DANMEN
  6
CONTINUOUS
 10
299.999999
 20
109.985281
 30
0.0
 11
303.268623
 21
113.253906
 31
0.0
  0
LINE
  5
186CA
  8
DANMEN
  6
CONTINUOUS
 10
299.999999
 20
111.742641
 30
0.0
 11
303.242639
 21
108.5
 31
0.0
  0
LINE
  5
186CB
  8
DANMEN
  6
CONTINUOUS
 10
299.999999
 20
113.863961
 30
0.0
 11
303.751999
 21
110.11196
 31
0.0
  0
LINE
  5
186CC
  8
DANMEN
  6
CONTINUOUS
 10
303.999994
 20
108.499997
 30
0.0
 11
302.999994
 21
114.999998
 31
0.0
  0
LINE
  5
186CD
  8
DANMEN
  6
CONTINUOUS
 10
302.757358
 20
100.5
 30
0.0
 11
303.834309
 21
99.423049
 31
0.0
  0
LINE
  5
186CE
  8
DANMEN
  6
CONTINUOUS
 10
299.999999
 20
99.37868
 30
0.0
 11
301.121319
 21
100.5
 31
0.0
  0
LINE
  5
186D2
  8
DANMEN
  6
CONTINUOUS
 10
302.757358
 20
108.5
 30
0.0
 11
303.834309
 21
109.576951
 31
0.0
  0
LINE
  5
186D3
  8
DANMEN
  6
CONTINUOUS
 10
299.999999
 20
109.62132
 30
0.0
 11
301.121319
 21
108.5
 31
0.0
  0
ARC
  5
186D4
  8
DANMEN
  6
CONTINUOUS
 10
302.499997
 20
116.5
 30
0.0
 40
0.5
 50
0.000091
 51
90.000128
  0
LINE
  5
186D5
  8
DANMEN
  6
CONTINUOUS
 10
301.48528
 20
114.5
 30
0.0
 11
303.366305
 21
112.618975
 31
0.0
  0
ARC
  5
186D6
  8
DANMEN
  6
CONTINUOUS
 10
302.499997
 20
115.0
 30
0.0
 40
0.5
 50
270.0
 51
0.0
  0
LINE
  5
186D7
  8
DANMEN
  6
CONTINUOUS
 10
299.999999
 20
112.106602
 30
0.0
 11
302.393397
 21
114.5
 31
0.0
  0
LINE
  5
186D8
  8
DANMEN
  6
CONTINUOUS
 10
299.999999
 20
114.227922
 30
0.0
 11
300.272076
 21
114.5
 31
0.0
  0
LINE
  5
186DA
  8
DANMEN
  6
CONTINUOUS
 10
302.999997
 20
116.5
 30
0.0
 11
302.999997
 21
115.0
 31
0.0
  0
ARC
  5
186DB
  8
DANMEN
  6
CONTINUOUS
 10
301.999997
 20
120.5
 30
0.0
 40
1.0
 50
270.0
 51
0.0
  0
LINE
  5
186DF
  8
SUNPO
  6
CONTINUOUS
 10
19.5
 20
22.0
 30
0.0
 11
19.5
 21
31.0
 31
0.0
  0
LINE
  5
186E0
  8
SUNPO
  6
CONTINUOUS
 10
51.0
 20
22.0
 30
0.0
 11
19.5
 21
22.0
 31
0.0
  0
ARC
  5
186E1
  8
SUNPO
  6
BYBLOCK
 10
19.5
 20
22.0
 30
0.0
 40
0.145
 50
270.0
 51
90.0
  0
ARC
  5
186E2
  8
SUNPO
  6
BYBLOCK
 10
19.5
 20
22.0
 30
0.0
 40
0.145
 50
90.0
 51
270.0
  0
TEXT
  5
186E3
  8
SUNPO
  6
CONTINUOUS
 10
18.5
 20
25.666667
 30
0.0
 40
2.5
  1
9
 50
90.0
  7
MX_NOTE_STANDARD
  0
TEXT
  5
186E4
  8
SUNPO
  6
CONTINUOUS
 10
44.833333
 20
15.0
 30
0.0
 40
2.5
  1
12
  7
MX_NOTE_STANDARD
  0
LINE
  5
186E5
  8
SUNPO
  6
CONTINUOUS
 10
52.5
 20
14.0
 30
0.0
 11
40.5
 21
14.0
 31
0.0
  0
LINE
  5
186E6
  8
SUNPO
  6
CONTINUOUS
 10
40.5
 20
29.5
 30
0.0
 11
40.5
 21
14.0
 31
0.0
  0
ARC
  5
186E7
  8
SUNPO
  6
BYBLOCK
 10
40.5
 20
14.0
 30
0.0
 40
0.145
 50
180.0
 51
0.0
  0
ARC
  5
186E8
  8
SUNPO
  6
BYBLOCK
 10
40.5
 20
14.0
 30
0.0
 40
0.145
 50
0.0
 51
180.0
  0
LINE
  5
186E9
  8
SUNPO
  6
CONTINUOUS
 10
52.5
 20
20.5
 30
0.0
 11
52.5
 21
14.0
 31
0.0
  0
ARC
  5
186EA
  8
SUNPO
  6
BYBLOCK
 10
52.5
 20
14.0
 30
0.0
 40
0.145
 50
0.0
 51
180.0
  0
ARC
  5
186EB
  8
SUNPO
  6
BYBLOCK
 10
52.5
 20
14.0
 30
0.0
 40
0.145
 50
180.0
 51
0.0
  0
TEXT
  5
186EC
  8
SUNPO
  6
CONTINUOUS
 10
398.521299
 20
110.25
 30
0.0
 40
2.5
  1
11
 50
90.0
  7
MX_NOTE_STANDARD
  0
LINE
  5
186ED
  8
SUNPO
  6
CONTINUOUS
 10
395.63855
 20
106.0
 30
0.0
 11
399.521299
 21
106.0
 31
0.0
  0
LINE
  5
186EE
  8
SUNPO
  6
CONTINUOUS
 10
391.999989
 20
117.0
 30
0.0
 11
399.521299
 21
117.0
 31
0.0
  0
LINE
  5
186EF
  8
DANMEN
  6
CONTINUOUS
 10
400.0
 20
86.0
 30
0.0
 11
376.0
 21
86.0
 31
0.0
  0
LINE
  5
186F0
  8
DANMEN
  6
CONTINUOUS
 10
398.850006
 20
87.649994
 30
0.0
 11
392.149994
 21
87.649994
 31
0.0
  0
LINE
  5
186F1
  8
DANMEN
  6
CONTINUOUS
 10
364.2
 20
113.35
 30
0.0
 11
368.234024
 21
113.35
 31
0.0
  0
LINE
  5
186F2
  8
DANMEN
  6
CONTINUOUS
 10
346.000004
 20
117.0
 30
0.0
 11
365.5
 21
117.0
 31
0.0
  0
LINE
  5
186F3
  8
DANMEN
  6
CONTINUOUS
 10
373.5
 20
80.649994
 30
0.0
 11
346.7
 21
80.649994
 31
0.0
  0
LINE
  5
186F4
  8
DANMEN
  6
CONTINUOUS
 10
374.5
 20
78.999994
 30
0.0
 11
346.0
 21
78.999994
 31
0.0
  0
LINE
  5
186F5
  8
DANMEN
  6
CONTINUOUS
 10
348.500001
 20
97.257358
 30
0.0
 11
345.257361
 21
100.499998
 31
0.0
  0
LINE
  5
186F6
  8
DANMEN
  6
CONTINUOUS
 10
347.863962
 20
100.499998
 30
0.0
 11
344.948534
 21
97.58457
 31
0.0
  0
LINE
  5
186F7
  8
DANMEN
  6
CONTINUOUS
 10
344.499999
 20
100.499994
 30
0.0
 11
345.499999
 21
93.999993
 31
0.0
  0
LINE
  5
186F8
  8
DANMEN
  6
CONTINUOUS
 10
348.500001
 20
95.136037
 30
0.0
 11
344.748001
 21
98.888038
 31
0.0
  0
LINE
  5
186F9
  8
DANMEN
  6
CONTINUOUS
 10
348.500001
 20
99.014717
 30
0.0
 11
345.231377
 21
95.746092
 31
0.0
  0
LINE
  5
186FA
  8
DANMEN
  6
CONTINUOUS
 10
348.500001
 20
96.893397
 30
0.0
 11
346.106603
 21
94.499998
 31
0.0
  0
LINE
  5
186FB
  8
DANMEN
  6
CONTINUOUS
 10
347.15
 20
92.999997
 30
0.0
 11
356.0
 21
92.999997
 31
0.0
  0
LINE
  5
186FC
  8
DANMEN
  6
CONTINUOUS
 10
346.000001
 20
94.499997
 30
0.0
 11
350.5
 21
94.499997
 31
0.0
  0
LINE
  5
186FD
  8
DANMEN
  6
CONTINUOUS
 10
347.15
 20
82.949991
 30
0.0
 11
347.15
 21
92.999997
 31
0.0
  0
LINE
  5
186FE
  8
DANMEN
  6
CONTINUOUS
 10
345.5
 20
79.499994
 30
0.0
 11
345.5
 21
93.999997
 31
0.0
  0
LINE
  5
186FF
  8
DANMEN
  6
CONTINUOUS
 10
346.7
 20
80.649994
 30
0.0
 11
346.7
 21
82.949991
 31
0.0
  0
ARC
  5
18702
  8
DANMEN
  6
CONTINUOUS
 10
346.0
 20
79.499994
 30
0.0
 40
0.5
 50
179.999999
 51
269.999981
  0
LINE
  5
18705
  8
DANMEN
  6
CONTINUOUS
 10
347.15
 20
82.949991
 30
0.0
 11
346.7
 21
82.949991
 31
0.0
  0
LINE
  5
18706
  8
DANMEN
  6
CONTINUOUS
 10
347.01472
 20
94.499998
 30
0.0
 11
345.133695
 21
96.381023
 31
0.0
  0
ARC
  5
18708
  8
DANMEN
  6
CONTINUOUS
 10
346.0
 20
93.999997
 30
0.0
 40
0.5
 50
90.0
 51
179.999982
  0
ARC
  5
18709
  8
DANMEN
  6
CONTINUOUS
 10
356.0
 20
93.999997
 30
0.0
 40
0.5
 50
0.0
 51
90.0
  0
ARC
  5
1870A
  8
DANMEN
  6
CONTINUOUS
 10
356.0
 20
93.499997
 30
0.0
 40
0.5
 50
270.0
 51
0.0
  0
LINE
  5
1870B
  8
DANMEN
  6
CONTINUOUS
 10
350.5
 20
93.999997
 30
0.0
 11
355.5
 21
93.999997
 31
0.0
  0
LINE
  5
1870C
  8
DANMEN
  6
CONTINUOUS
 10
348.500001
 20
94.772076
 30
0.0
 11
348.227923
 21
94.499998
 31
0.0
  0
LINE
  5
1870D
  8
DANMEN
  6
CONTINUOUS
 10
350.5
 20
93.999997
 30
0.0
 11
350.5
 21
94.499997
 31
0.0
  0
LINE
  5
18710
  8
DANMEN
  6
CONTINUOUS
 10
355.5
 20
93.999997
 30
0.0
 11
355.5
 21
94.499997
 31
0.0
  0
LINE
  5
18712
  8
DANMEN
  6
CONTINUOUS
 10
355.5
 20
94.499997
 30
0.0
 11
356.0
 21
94.499997
 31
0.0
  0
LINE
  5
18716
  8
DANMEN
  6
CONTINUOUS
 10
356.5
 20
93.499997
 30
0.0
 11
356.5
 21
93.999997
 31
0.0
  0
LINE
  5
18717
  8
DANMEN
  6
CONTINUOUS
 10
348.500001
 20
112.1066
 30
0.0
 11
346.106603
 21
114.499998
 31
0.0
  0
LINE
  5
18718
  8
DANMEN
  6
CONTINUOUS
 10
348.500001
 20
109.98528
 30
0.0
 11
345.231377
 21
113.253904
 31
0.0
  0
LINE
  5
18719
  8
DANMEN
  6
CONTINUOUS
 10
348.500001
 20
113.86396
 30
0.0
 11
344.748001
 21
110.111959
 31
0.0
  0
LINE
  5
1871A
  8
DANMEN
  6
CONTINUOUS
 10
348.500001
 20
111.742639
 30
0.0
 11
345.257361
 21
108.499998
 31
0.0
  0
LINE
  5
1871B
  8
DANMEN
  6
CONTINUOUS
 10
348.500001
 20
109.621319
 30
0.0
 11
347.378681
 21
108.499998
 31
0.0
  0
LINE
  5
1871C
  8
DANMEN
  6
CONTINUOUS
 10
348.500001
 20
99.378678
 30
0.0
 11
347.378681
 21
100.499998
 31
0.0
  0
LINE
  5
1871D
  8
DANMEN
  6
CONTINUOUS
 10
346.000004
 20
114.5
 30
0.0
 11
350.500003
 21
114.5
 31
0.0
  0
LINE
  5
1871E
  8
DANMEN
  6
CONTINUOUS
 10
347.863962
 20
108.499998
 30
0.0
 11
344.948534
 21
111.415427
 31
0.0
  0
LINE
  5
1871F
  8
DANMEN
  6
CONTINUOUS
 10
344.500006
 20
108.499996
 30
0.0
 11
345.500006
 21
114.999997
 31
0.0
  0
LINE
  5
18720
  8
DANMEN
  6
CONTINUOUS
 10
345.742642
 20
100.499998
 30
0.0
 11
344.665691
 21
99.423048
 31
0.0
  0
LINE
  5
18723
  8
DANMEN
  6
CONTINUOUS
 10
345.742642
 20
108.499998
 30
0.0
 11
344.665691
 21
109.576949
 31
0.0
  0
ARC
  5
18724
  8
DANMEN
  6
CONTINUOUS
 10
346.000003
 20
116.5
 30
0.0
 40
0.5
 50
89.999872
 51
179.999909
  0
LINE
  5
18725
  8
DANMEN
  6
CONTINUOUS
 10
347.01472
 20
114.499998
 30
0.0
 11
345.133695
 21
112.618974
 31
0.0
  0
ARC
  5
18727
  8
DANMEN
  6
CONTINUOUS
 10
346.000003
 20
115.0
 30
0.0
 40
0.5
 50
180.0
 51
270.0
  0
LINE
  5
18728
  8
DANMEN
  6
CONTINUOUS
 10
345.500003
 20
116.5
 30
0.0
 11
345.500003
 21
115.0
 31
0.0
  0
LINE
  5
1872A
  8
DANMEN
  6
CONTINUOUS
 10
357.5
 20
108.5
 30
0.0
 11
357.5
 21
100.5
 31
0.0
  0
LINE
  5
1872B
  8
DANMEN
  6
CONTINUOUS
 10
350.500003
 20
115.05
 30
0.0
 11
363.2
 21
115.05
 31
0.0
  0
LINE
  5
1872C
  8
DANMEN
  6
CONTINUOUS
 10
348.500001
 20
114.227921
 30
0.0
 11
348.227923
 21
114.499998
 31
0.0
  0
LINE
  5
1872D
  8
DANMEN
  6
CONTINUOUS
 10
350.500003
 20
115.05
 30
0.0
 11
350.500003
 21
114.5
 31
0.0
  0
ARC
  5
18731
  8
DANMEN
  6
CONTINUOUS
 10
364.2
 20
113.85
 30
0.0
 40
0.5
 50
180.0
 51
270.0
  0
LINE
  5
18732
  8
DANMEN
  6
CONTINUOUS
 10
363.7
 20
114.55
 30
0.0
 11
363.7
 21
113.85
 31
0.0
  0
ARC
  5
18733
  8
DANMEN
  6
CONTINUOUS
 10
363.2
 20
114.55
 30
0.0
 40
0.5
 50
0.0
 51
90.0
  0
LINE
  5
18735
  8
DANMEN
  6
CONTINUOUS
 10
373.5
 20
80.649994
 30
0.0
 11
373.5
 21
110.299994
 31
0.0
  0
LINE
  5
18736
  8
DANMEN
  6
CONTINUOUS
 10
375.15
 20
89.45
 30
0.0
 11
375.15
 21
100.844999
 31
0.0
  0
LINE
  5
18737
  8
DANMEN
  6
CONTINUOUS
 10
389.799989
 20
100.844999
 30
0.0
 11
389.799989
 21
98.797498
 31
0.0
  0
LINE
  5
18738
  8
DANMEN
  6
CONTINUOUS
 10
387.299989
 20
100.844999
 30
0.0
 11
387.299989
 21
96.149997
 31
0.0
  0
LINE
  5
18739
  8
DANMEN
  6
CONTINUOUS
 10
386.349979
 20
89.45
 30
0.0
 11
375.15
 21
89.45
 31
0.0
  0
LINE
  5
1873A
  8
DANMEN
  6
CONTINUOUS
 10
390.299989
 20
87.8
 30
0.0
 11
375.5
 21
87.8
 31
0.0
  0
LINE
  5
1873B
  8
DANMEN
  6
CONTINUOUS
 10
388.5
 20
87.649994
 30
0.0
 11
376.0
 21
87.649994
 31
0.0
  0
LINE
  5
1873C
  8
DANMEN
  6
CONTINUOUS
 10
375.5
 20
79.999994
 30
0.0
 11
375.5
 21
87.8
 31
0.0
  0
ARC
  5
1873D
  8
DANMEN
  6
CONTINUOUS
 10
376.0
 20
87.149994
 30
0.0
 40
0.5
 50
90.0
 51
180.0
  0
ARC
  5
18741
  8
DANMEN
  6
CONTINUOUS
 10
374.5
 20
79.999994
 30
0.0
 40
1.0
 50
270.0
 51
0.0
  0
LINE
  5
18743
  8
DANMEN
  6
CONTINUOUS
 10
375.5
 20
86.5
 30
0.0
 11
375.5
 21
87.149994
 31
0.0
  0
ARC
  5
18744
  8
DANMEN
  6
CONTINUOUS
 10
376.0
 20
86.5
 30
0.0
 40
0.5
 50
179.999981
 51
269.999963
  0
LINE
  5
18749
  8
DANMEN
  6
CONTINUOUS
 10
390.5
 20
87.199997
 30
0.0
 11
388.5
 21
87.199997
 31
0.0
  0
LINE
  5
1874A
  8
DANMEN
  6
CONTINUOUS
 10
388.5
 20
87.199997
 30
0.0
 11
388.5
 21
87.649994
 31
0.0
  0
LINE
  5
1874E
  8
DANMEN
  6
CONTINUOUS
 10
387.999989
 20
89.382673
 30
0.0
 11
390.5
 21
91.882684
 31
0.0
  0
LINE
  5
1874F
  8
DANMEN
  6
CONTINUOUS
 10
387.999989
 20
90.796886
 30
0.0
 11
390.5
 21
93.296898
 31
0.0
  0
LINE
  5
18750
  8
DANMEN
  6
CONTINUOUS
 10
387.999989
 20
92.2111
 30
0.0
 11
390.288886
 21
94.499998
 31
0.0
  0
LINE
  5
18751
  8
DANMEN
  6
CONTINUOUS
 10
387.999989
 20
94.499998
 30
0.0
 11
389.799989
 21
94.499998
 31
0.0
  0
LINE
  5
18752
  8
DANMEN
  6
CONTINUOUS
 10
387.999989
 20
89.299998
 30
0.0
 11
389.799989
 21
89.299998
 31
0.0
  0
LINE
  5
18753
  8
DANMEN
  6
CONTINUOUS
 10
387.999989
 20
94.499998
 30
0.0
 11
387.999989
 21
89.299998
 31
0.0
  0
LINE
  5
18754
  8
DANMEN
  6
CONTINUOUS
 10
386.349979
 20
95.649997
 30
0.0
 11
386.349979
 21
89.45
 31
0.0
  0
LINE
  5
18757
  8
DANMEN
  6
CONTINUOUS
 10
387.999989
 20
93.625314
 30
0.0
 11
388.874673
 21
94.499998
 31
0.0
  0
ARC
  5
1875B
  8
DANMEN
  6
CONTINUOUS
 10
386.849979
 20
95.649997
 30
0.0
 40
0.5
 50
89.999982
 51
179.999964
  0
LINE
  5
1875C
  8
DANMEN
  6
CONTINUOUS
 10
386.849979
 20
96.149997
 30
0.0
 11
387.299989
 21
96.149997
 31
0.0
  0
LINE
  5
1875D
  8
DANMEN
  6
CONTINUOUS
 10
390.454378
 20
89.008636
 30
0.0
 11
390.5
 21
89.054257
 31
0.0
  0
LINE
  5
1875E
  8
DANMEN
  6
CONTINUOUS
 10
389.331527
 20
89.299998
 30
0.0
 11
390.5
 21
90.468471
 31
0.0
  0
ARC
  5
18761
  8
DANMEN
  6
CONTINUOUS
 10
389.799989
 20
88.799998
 30
0.0
 40
0.5
 50
0.0
 51
89.999982
  0
LINE
  5
18762
  8
DANMEN
  6
CONTINUOUS
 10
390.299989
 20
88.799998
 30
0.0
 11
390.299989
 21
87.8
 31
0.0
  0
LINE
  5
18768
  8
DANMEN
  6
CONTINUOUS
 10
389.799989
 20
98.197498
 30
0.0
 11
389.799989
 21
96.149997
 31
0.0
  0
LINE
  5
18769
  8
DANMEN
  6
CONTINUOUS
 10
389.499989
 20
98.197498
 30
0.0
 11
389.799989
 21
98.197498
 31
0.0
  0
LINE
  5
1876A
  8
DANMEN
  6
CONTINUOUS
 10
389.499989
 20
98.797498
 30
0.0
 11
389.799989
 21
98.797498
 31
0.0
  0
LINE
  5
1876B
  8
DANMEN
  6
CONTINUOUS
 10
389.499989
 20
98.797498
 30
0.0
 11
389.499989
 21
98.197498
 31
0.0
  0
ARC
  5
1876D
  8
DANMEN
  6
CONTINUOUS
 10
389.799989
 20
95.649997
 30
0.0
 40
0.5
 50
0.0
 51
90.0
  0
ARC
  5
1876F
  8
DANMEN
  6
CONTINUOUS
 10
389.799989
 20
94.999998
 30
0.0
 40
0.5
 50
270.0
 51
0.0
  0
LINE
  5
18771
  8
DANMEN
  6
CONTINUOUS
 10
390.299989
 20
95.649997
 30
0.0
 11
390.299989
 21
94.999998
 31
0.0
  0
LINE
  5
18772
  8
DANMEN
  6
CENTER
 10
372.460146
 20
106.0
 30
0.0
 11
394.13855
 21
106.0
 31
0.0
  0
LINE
  5
18773
  8
DANMEN
  6
CONTINUOUS
 10
376.774976
 20
104.000002
 30
0.0
 11
393.499997
 21
104.000004
 31
0.0
  0
LINE
  5
18774
  8
DANMEN
  6
CONTINUOUS
 10
376.774975
 20
107.999999
 30
0.0
 11
393.499997
 21
108.0
 31
0.0
  0
LINE
  5
18775
  8
DANMEN
  6
CONTINUOUS
 10
376.774976
 20
104.379003
 30
0.0
 11
393.499996
 21
104.379005
 31
0.0
  0
LINE
  5
18776
  8
DANMEN
  6
CONTINUOUS
 10
376.774975
 20
107.620998
 30
0.0
 11
393.499996
 21
107.621
 31
0.0
  0
LINE
  5
18777
  8
DANMEN
  6
CONTINUOUS
 10
375.15
 20
115.35
 30
0.0
 11
388.999989
 21
115.35
 31
0.0
  0
LINE
  5
18778
  8
DANMEN
  6
CONTINUOUS
 10
365.5
 20
117.0
 30
0.0
 11
390.499989
 21
117.0
 31
0.0
  0
LINE
  5
18779
  8
DANMEN
  6
CONTINUOUS
 10
375.15
 20
102.494998
 30
0.0
 11
389.799989
 21
102.494998
 31
0.0
  0
LINE
  5
1877A
  8
DANMEN
  6
CONTINUOUS
 10
375.15
 20
100.844999
 30
0.0
 11
387.299989
 21
100.844999
 31
0.0
  0
ARC
  5
1877B
  8
DANMEN
  6
CONTINUOUS
 10
368.0
 20
110.690092
 30
0.0
 40
0.5
 50
101.309932
 51
180.0
  0
LINE
  5
1877C
  8
DANMEN
  6
CONTINUOUS
 10
375.15
 20
102.494998
 30
0.0
 11
375.15
 21
115.35
 31
0.0
  0
LINE
  5
1877D
  8
DANMEN
  6
CONTINUOUS
 10
367.5
 20
110.299994
 30
0.0
 11
373.5
 21
110.299994
 31
0.0
  0
LINE
  5
1877F
  8
DANMEN
  6
CONTINUOUS
 10
367.5
 20
110.690092
 30
0.0
 11
367.5
 21
110.299994
 31
0.0
  0
LINE
  5
18781
  8
DANMEN
  6
CONTINUOUS
 10
373.499999
 20
109.5
 30
0.0
 11
373.500001
 21
102.5
 31
0.0
  0
LINE
  5
18782
  8
DANMEN
  6
CONTINUOUS
 10
373.799999
 20
109.5
 30
0.0
 11
373.800001
 21
102.5
 31
0.0
  0
LINE
  5
18783
  8
DANMEN
  6
CONTINUOUS
 10
375.527513
 20
107.772498
 30
0.0
 11
375.527514
 21
104.227503
 31
0.0
  0
LINE
  5
18784
  8
DANMEN
  6
DASHED
 10
374.714876
 20
104.855011
 30
0.0
 11
375.198867
 21
105.765266
 31
0.0
  0
LINE
  5
18785
  8
DANMEN
  6
CONTINUOUS
 10
376.774975
 20
107.999999
 30
0.0
 11
376.774976
 21
104.000003
 31
0.0
  0
LINE
  5
18786
  8
DANMEN
  6
CONTINUOUS
 10
373.500001
 20
102.5
 30
0.0
 11
373.800001
 21
102.5
 31
0.0
  0
LINE
  5
18787
  8
DANMEN
  6
CONTINUOUS
 10
376.774966
 20
104.000012
 30
0.0
 11
375.527505
 21
104.227513
 31
0.0
  0
LINE
  5
18788
  8
DANMEN
  6
CONTINUOUS
 10
376.774966
 20
104.37901
 30
0.0
 11
375.527505
 21
104.22751
 31
0.0
  0
LINE
  5
18789
  8
DANMEN
  6
CONTINUOUS
 10
373.800001
 20
102.5
 30
0.0
 11
375.527508
 21
104.227508
 31
0.0
  0
LINE
  5
1878A
  8
DANMEN
  6
DASHED
 10
373.5
 20
104.249295
 30
0.0
 11
374.714876
 21
104.85501
 31
0.0
  0
LINE
  5
1878F
  8
DANMEN
  6
CONTINUOUS
 10
373.499999
 20
109.5
 30
0.0
 11
373.799999
 21
109.5
 31
0.0
  0
LINE
  5
18790
  8
DANMEN
  6
CONTINUOUS
 10
376.774967
 20
107.620991
 30
0.0
 11
375.527505
 21
107.772489
 31
0.0
  0
LINE
  5
18791
  8
DANMEN
  6
CONTINUOUS
 10
376.774967
 20
107.999986
 30
0.0
 11
375.527504
 21
107.772484
 31
0.0
  0
LINE
  5
18792
  8
DANMEN
  6
CONTINUOUS
 10
373.799998
 20
109.5
 30
0.0
 11
375.527508
 21
107.772491
 31
0.0
  0
ARC
  5
18793
  8
DANMEN
  6
DASHED
 10
374.757402
 20
106.0
 30
0.0
 40
0.5
 50
332.000013
 51
28.000078
  0
LINE
  5
18794
  8
DANMEN
  6
DASHED
 10
374.714875
 20
107.144989
 30
0.0
 11
375.198866
 21
106.234736
 31
0.0
  0
LINE
  5
18795
  8
DANMEN
  6
DASHED
 10
373.5
 20
107.750707
 30
0.0
 11
374.714875
 21
107.144993
 31
0.0
  0
LINE
  5
18798
  8
DANMEN
  6
CONTINUOUS
 10
372.000895
 20
111.4
 30
0.0
 11
372.911927
 21
112.715302
 31
0.0
  0
ARC
  5
18799
  8
DANMEN
  6
CONTINUOUS
 10
372.500895
 20
113.0
 30
0.0
 40
0.5
 50
325.291951
 51
145.291951
  0
LINE
  5
1879A
  8
DANMEN
  6
CONTINUOUS
 10
369.5
 20
111.499994
 30
0.0
 11
373.5
 21
111.499994
 31
0.0
  0
LINE
  5
1879B
  8
DANMEN
  6
CONTINUOUS
 10
367.5
 20
115.35
 30
0.0
 11
373.5
 21
115.35
 31
0.0
  0
LINE
  5
1879C
  8
DANMEN
  6
CONTINUOUS
 10
365.5
 20
117.0
 30
0.0
 11
365.5
 21
115.05
 31
0.0
  0
LINE
  5
1879D
  8
DANMEN
  6
CONTINUOUS
 10
365.5
 20
117.0
 30
0.0
 11
365.5
 21
115.292199
 31
0.0
  0
LINE
  5
1879E
  8
DANMEN
  6
CONTINUOUS
 10
368.234024
 20
113.35
 30
0.0
 11
370.759565
 21
111.4
 31
0.0
  0
LINE
  5
1879F
  8
DANMEN
  6
CONTINUOUS
 10
368.150795
 20
114.930331
 30
0.0
 11
371.209895
 21
112.568364
 31
0.0
  0
LINE
  5
187A0
  8
DANMEN
  6
CONTINUOUS
 10
369.5
 20
111.499994
 30
0.0
 11
367.901942
 21
111.180382
 31
0.0
  0
ARC
  5
187A3
  8
DANMEN
  6
CONTINUOUS
 10
367.181628
 20
114.85
 30
0.0
 40
0.3
 50
270.0
 51
333.881419
  0
ARC
  5
187A5
  8
DANMEN
  6
CONTINUOUS
 10
367.899936
 20
114.497816
 30
0.0
 40
0.5
 50
59.886267
 51
153.881419
  0
LINE
  5
187AA
  8
DANMEN
  6
CONTINUOUS
 10
365.2
 20
115.05
 30
0.0
 11
365.5
 21
115.05
 31
0.0
  0
LINE
  5
187AB
  8
DANMEN
  6
CONTINUOUS
 10
365.2
 20
115.05
 30
0.0
 11
365.2
 21
114.55
 31
0.0
  0
LINE
  5
187AE
  8
DANMEN
  6
CONTINUOUS
 10
365.2
 20
114.55
 30
0.0
 11
367.181628
 21
114.55
 31
0.0
  0
LINE
  5
187B4
  8
DANMEN
  6
CONTINUOUS
 10
367.2
 20
114.5
 30
0.0
 11
366.496245
 21
114.5
 31
0.0
  0
ARC
  5
187B5
  8
DANMEN
  6
CONTINUOUS
 10
366.0
 20
115.292199
 30
0.0
 40
0.5
 50
180.0
 51
240.603827
  0
LINE
  5
187B6
  8
DANMEN
  6
CONTINUOUS
 10
366.496245
 20
114.5
 30
0.0
 11
365.754577
 21
114.856576
 31
0.0
  0
LINE
  5
187B7
  8
DANMEN
  6
CONTINUOUS
 10
367.5
 20
114.8
 30
0.0
 11
367.5
 21
115.35
 31
0.0
  0
ARC
  5
187B8
  8
DANMEN
  6
CONTINUOUS
 10
367.2
 20
114.8
 30
0.0
 40
0.3
 50
270.0
 51
0.0
  0
ARC
  5
187BC
  8
DANMEN
  6
CONTINUOUS
 10
371.393237
 20
112.80582
 30
0.0
 40
0.3
 50
232.327843
 51
325.291951
  0
LINE
  5
187BD
  8
DANMEN
  6
CONTINUOUS
 10
371.639857
 20
112.635002
 30
0.0
 11
372.089863
 21
113.284698
 31
0.0
  0
LINE
  5
187C1
  8
DANMEN
  6
CONTINUOUS
 10
370.759565
 20
111.4
 30
0.0
 11
372.000895
 21
111.4
 31
0.0
  0
LINE
  5
187C9
  8
DANMEN
  6
CONTINUOUS
 10
373.5
 20
111.499994
 30
0.0
 11
373.5
 21
115.35
 31
0.0
  0
LINE
  5
187CB
  8
DANMEN
  6
CONTINUOUS
 10
393.499998
 20
108.000001
 30
0.0
 11
393.5
 21
104.000005
 31
0.0
  0
ARC
  5
187CF
  8
DANMEN
  6
CONTINUOUS
 10
389.799989
 20
101.344999
 30
0.0
 40
0.5
 50
270.0
 51
0.0
  0
ARC
  5
187D0
  8
DANMEN
  6
CONTINUOUS
 10
389.799989
 20
101.994998
 30
0.0
 40
0.5
 50
0.0
 51
90.0
  0
LINE
  5
187D1
  8
DANMEN
  6
CONTINUOUS
 10
390.299989
 20
101.994998
 30
0.0
 11
390.299989
 21
101.344999
 31
0.0
  0
LINE
  5
187D2
  8
DANMEN
  6
CONTINUOUS
 10
388.999989
 20
113.999994
 30
0.0
 11
389.999989
 21
113.999994
 31
0.0
  0
LINE
  5
187D5
  8
DANMEN
  6
CONTINUOUS
 10
388.999989
 20
113.999994
 30
0.0
 11
388.999989
 21
115.35
 31
0.0
  0
LINE
  5
187D6
  8
DANMEN
  6
CONTINUOUS
 10
390.499989
 20
114.499994
 30
0.0
 11
390.499989
 21
117.0
 31
0.0
  0
ARC
  5
187D8
  8
DANMEN
  6
CONTINUOUS
 10
389.999989
 20
114.499994
 30
0.0
 40
0.5
 50
270.0
 51
0.0
  0
LINE
  5
187DC
  8
SUNPO
  6
CONTINUOUS
 10
39.0
 20
58.0
 30
0.0
 11
26.5
 21
58.0
 31
0.0
  0
LINE
  5
187DD
  8
SUNPO
  6
CONTINUOUS
 10
39.0
 20
43.0
 30
0.0
 11
26.5
 21
43.0
 31
0.0
  0
LINE
  5
187DE
  8
SUNPO
  6
CONTINUOUS
 10
39.0
 20
31.0
 30
0.0
 11
19.5
 21
31.0
 31
0.0
  0
LINE
  5
187DF
  8
SUNPO
  6
CONTINUOUS
 10
39.0
 20
51.0
 30
0.0
 11
19.5
 21
51.0
 31
0.0
  0
LINE
  5
187E0
  8
SUNPO
  6
CONTINUOUS
 10
26.5
 20
51.0
 30
0.0
 11
26.5
 21
58.0
 31
0.0
  0
TEXT
  5
187E1
  8
SUNPO
  6
CONTINUOUS
 10
18.5
 20
39.125
 30
0.0
 40
2.5
  1
20
 50
90.0
  7
MX_NOTE_STANDARD
  0
LINE
  5
187E2
  8
SUNPO
  6
CONTINUOUS
 10
26.5
 20
31.0
 30
0.0
 11
26.5
 21
43.0
 31
0.0
  0
LINE
  5
187E3
  8
SUNPO
  6
CONTINUOUS
 10
19.5
 20
31.0
 30
0.0
 11
19.5
 21
51.0
 31
0.0
  0
ARC
  5
187E4
  8
SUNPO
  6
BYBLOCK
 10
19.5
 20
31.0
 30
0.0
 40
0.145
 50
270.0
 51
90.0
  0
ARC
  5
187E5
  8
SUNPO
  6
BYBLOCK
 10
19.5
 20
31.0
 30
0.0
 40
0.145
 50
90.0
 51
270.0
  0
ARC
  5
187E6
  8
SUNPO
  6
BYBLOCK
 10
19.5
 20
31.0
 30
0.0
 40
0.145
 50
90.0
 51
270.0
  0
ARC
  5
187E7
  8
SUNPO
  6
BYBLOCK
 10
19.5
 20
31.0
 30
0.0
 40
0.145
 50
270.0
 51
90.0
  0
TEXT
  5
187E8
  8
SUNPO
  6
CONTINUOUS
 10
25.5
 20
35.333333
 30
0.0
 40
2.5
  1
12
 50
90.0
  7
MX_NOTE_STANDARD
  0
ARC
  5
187E9
  8
SUNPO
  6
BYBLOCK
 10
26.5
 20
31.0
 30
0.0
 40
0.145
 50
270.0
 51
90.0
  0
ARC
  5
187EA
  8
SUNPO
  6
BYBLOCK
 10
26.5
 20
31.0
 30
0.0
 40
0.145
 50
90.0
 51
270.0
  0
ARC
  5
187EB
  8
SUNPO
  6
BYBLOCK
 10
19.5
 20
51.0
 30
0.0
 40
0.145
 50
90.0
 51
270.0
  0
ARC
  5
187EC
  8
SUNPO
  6
BYBLOCK
 10
19.5
 20
51.0
 30
0.0
 40
0.145
 50
270.0
 51
90.0
  0
ARC
  5
187ED
  8
SUNPO
  6
BYBLOCK
 10
19.5
 20
51.0
 30
0.0
 40
0.145
 50
270.0
 51
90.0
  0
ARC
  5
187EE
  8
SUNPO
  6
BYBLOCK
 10
19.5
 20
51.0
 30
0.0
 40
0.145
 50
90.0
 51
270.0
  0
TEXT
  5
187EF
  8
SUNPO
  6
CONTINUOUS
 10
25.5
 20
46.166667
 30
0.0
 40
2.5
  1
8
 50
90.0
  7
MX_NOTE_STANDARD
  0
LINE
  5
187F0
  8
SUNPO
  6
CONTINUOUS
 10
26.5
 20
43.0
 30
0.0
 11
26.5
 21
51.0
 31
0.0
  0
ARC
  5
187F1
  8
SUNPO
  6
BYBLOCK
 10
26.5
 20
43.0
 30
0.0
 40
0.145
 50
270.0
 51
90.0
  0
ARC
  5
187F2
  8
SUNPO
  6
BYBLOCK
 10
26.5
 20
43.0
 30
0.0
 40
0.145
 50
90.0
 51
270.0
  0
ARC
  5
187F3
  8
SUNPO
  6
BYBLOCK
 10
26.5
 20
43.0
 30
0.0
 40
0.145
 50
90.0
 51
270.0
  0
ARC
  5
187F4
  8
SUNPO
  6
BYBLOCK
 10
26.5
 20
43.0
 30
0.0
 40
0.145
 50
270.0
 51
90.0
  0
ARC
  5
187F5
  8
SUNPO
  6
BYBLOCK
 10
26.5
 20
51.0
 30
0.0
 40
0.145
 50
270.0
 51
90.0
  0
ARC
  5
187F6
  8
SUNPO
  6
BYBLOCK
 10
26.5
 20
51.0
 30
0.0
 40
0.145
 50
90.0
 51
270.0
  0
ARC
  5
187F7
  8
SUNPO
  6
BYBLOCK
 10
26.5
 20
51.0
 30
0.0
 40
0.145
 50
90.0
 51
270.0
  0
ARC
  5
187F8
  8
SUNPO
  6
BYBLOCK
 10
26.5
 20
51.0
 30
0.0
 40
0.145
 50
270.0
 51
90.0
  0
TEXT
  5
187F9
  8
SUNPO
  6
CONTINUOUS
 10
25.5
 20
53.666667
 30
0.0
 40
2.5
  1
7
 50
90.0
  7
MX_NOTE_STANDARD
  0
ARC
  5
187FA
  8
SUNPO
  6
BYBLOCK
 10
26.5
 20
58.0
 30
0.0
 40
0.145
 50
90.0
 51
270.0
  0
ARC
  5
187FB
  8
SUNPO
  6
BYBLOCK
 10
26.5
 20
58.0
 30
0.0
 40
0.145
 50
270.0
 51
90.0
  0
LINE
  5
187FC
  8
DANMEN
  6
CONTINUOUS
 10
398.850006
 20
91.5
 30
0.0
 11
398.850006
 21
87.649994
 31
0.0
  0
LINE
  5
187FD
  8
DANMEN
  6
CONTINUOUS
 10
400.5
 20
91.5
 30
0.0
 11
400.5
 21
86.5
 31
0.0
  0
ARC
  5
18800
  8
DANMEN
  6
CONTINUOUS
 10
400.0
 20
86.5
 30
0.0
 40
0.5
 50
270.000018
 51
359.999981
  0
ARC
  5
18803
  8
DANMEN
  6
CONTINUOUS
 10
400.0
 20
91.5
 30
0.0
 40
0.5
 50
359.999981
 51
90.000037
  0
ARC
  5
18804
  8
DANMEN
  6
CONTINUOUS
 10
399.350006
 20
91.5
 30
0.0
 40
0.5
 50
90.000037
 51
180.000019
  0
LINE
  5
18805
  8
DANMEN
  6
CONTINUOUS
 10
400.0
 20
92.0
 30
0.0
 11
399.350006
 21
92.0
 31
0.0
  0
LINE
  5
18806
  8
SUNPO
  6
CONTINUOUS
 10
399.521299
 20
117.0
 30
0.0
 11
399.521299
 21
106.0
 31
0.0
  0
ARC
  5
18807
  8
SUNPO
  6
BYBLOCK
 10
399.521299
 20
106.0
 30
0.0
 40
0.145
 50
270.0
 51
90.0
  0
ARC
  5
18808
  8
SUNPO
  6
BYBLOCK
 10
399.521299
 20
106.0
 30
0.0
 40
0.145
 50
90.0
 51
270.0
  0
ARC
  5
18809
  8
SUNPO
  6
BYBLOCK
 10
399.521299
 20
117.0
 30
0.0
 40
0.145
 50
90.0
 51
270.0
  0
ARC
  5
1880A
  8
SUNPO
  6
BYBLOCK
 10
399.521299
 20
117.0
 30
0.0
 40
0.145
 50
270.0
 51
90.0
  0
TEXT
  5
1880B
  8
SUNPO
  6
CONTINUOUS
 10
18.5
 20
105.5
 30
0.0
 40
2.5
  1
114
 50
90.0
  7
MX_NOTE_STANDARD
  0
LINE
  5
1880C
  8
SUNPO
  6
CONTINUOUS
 10
185.5
 20
28.0
 30
0.0
 11
265.5
 21
28.0
 31
0.0
  0
LINE
  5
1880D
  8
SUNPO
  6
CONTINUOUS
 10
258.0
 20
36.322886
 30
0.0
 11
185.5
 21
36.322886
 31
0.0
  0
LINE
  5
1880E
  8
SUNPO
  6
CONTINUOUS
 10
223.5
 20
44.0
 30
0.0
 11
185.5
 21
44.0
 31
0.0
  0
LINE
  5
1880F
  8
SUNPO
  6
CONTINUOUS
 10
185.5
 20
36.322886
 30
0.0
 11
194.611405
 21
39.639166
 31
0.0
  0
TEXT
  5
18810
  8
SUNPO
  6
CONTINUOUS
 10
170.916667
 20
29.0
 30
0.0
 40
2.5
  1
25
  7
MX_NOTE_STANDARD
  0
LINE
  5
18811
  8
SUNPO
  6
CONTINUOUS
 10
160.5
 20
84.5
 30
0.0
 11
160.5
 21
28.0
 31
0.0
  0
LINE
  5
18812
  8
SUNPO
  6
CONTINUOUS
 10
185.5
 20
84.5
 30
0.0
 11
185.5
 21
28.0
 31
0.0
  0
LINE
  5
18813
  8
SUNPO
  6
CONTINUOUS
 10
185.5
 20
28.0
 30
0.0
 11
190.5
 21
33.0
 31
0.0
  0
LINE
  5
18814
  8
SUNPO
  6
CONTINUOUS
 10
190.5
 20
33.0
 30
0.0
 11
190.5
 21
23.0
 31
0.0
  0
LINE
  5
18815
  8
SUNPO
  6
CONTINUOUS
 10
154.5
 20
31.0
 30
0.0
 11
154.5
 21
22.0
 31
0.0
  0
LINE
  5
18816
  8
SUNPO
  6
CONTINUOUS
 10
185.5
 20
28.0
 30
0.0
 11
160.5
 21
28.0
 31
0.0
  0
TEXT
  5
18817
  8
SUNPO
  6
CONTINUOUS
 10
153.5
 20
25.666667
 30
0.0
 40
2.5
  1
9
 50
90.0
  7
MX_NOTE_STANDARD
  0
ARC
  5
18818
  8
SUNPO
  6
BYBLOCK
 10
154.5
 20
22.0
 30
0.0
 40
0.145
 50
270.0
 51
90.0
  0
ARC
  5
18819
  8
SUNPO
  6
BYBLOCK
 10
154.5
 20
22.0
 30
0.0
 40
0.145
 50
90.0
 51
270.0
  0
ARC
  5
1881A
  8
SUNPO
  6
BYBLOCK
 10
160.5
 20
28.0
 30
0.0
 40
0.15625
 50
180.0
 51
0.0
  0
ARC
  5
1881B
  8
SUNPO
  6
BYBLOCK
 10
160.5
 20
28.0
 30
0.0
 40
0.15625
 50
0.0
 51
180.0
  0
LINE
  5
1881C
  8
SUNPO
  6
CONTINUOUS
 10
190.5
 20
23.0
 30
0.0
 11
185.5
 21
28.0
 31
0.0
  0
LINE
  5
1881F
  8
SUNPO
  6
CONTINUOUS
 10
112.0
 20
31.0
 30
0.0
 11
154.5
 21
31.0
 31
0.0
  0
LINE
  5
18820
  8
SUNPO
  6
CONTINUOUS
 10
111.999999
 20
56.0
 30
0.0
 11
143.185645
 21
56.0
 31
0.0
  0
LINE
  5
18821
  8
SUNPO
  6
CONTINUOUS
 10
111.999999
 20
91.0
 30
0.0
 11
143.185645
 21
91.0
 31
0.0
  0
LINE
  5
18822
  8
SUNPO
  6
CONTINUOUS
 10
111.999999
 20
56.0
 30
0.0
 11
143.185645
 21
56.0
 31
0.0
  0
LINE
  5
18823
  8
SUNPO
  6
CONTINUOUS
 10
112.0
 20
91.0
 30
0.0
 11
134.721192
 21
91.0
 31
0.0
  0
LINE
  5
18824
  8
SUNPO
  6
CONTINUOUS
 10
118.999996
 20
111.000003
 30
0.0
 11
134.721192
 21
111.000003
 31
0.0
  0
LINE
  5
18825
  8
SUNPO
  6
CONTINUOUS
 10
118.999996
 20
111.000003
 30
0.0
 11
134.721192
 21
111.000003
 31
0.0
  0
LINE
  5
18826
  8
SUNPO
  6
CONTINUOUS
 10
170.5
 20
84.5
 30
0.0
 11
170.5
 21
44.0
 31
0.0
  0
LINE
  5
18827
  8
SUNPO
  6
CONTINUOUS
 10
154.5
 20
31.0
 30
0.0
 11
154.5
 21
91.0
 31
0.0
  0
LINE
  5
18828
  8
SUNPO
  6
CONTINUOUS
 10
143.185645
 20
91.0
 30
0.0
 11
143.185645
 21
56.0
 31
0.0
  0
LINE
  5
18829
  8
SUNPO
  6
CONTINUOUS
 10
170.5
 20
44.0
 30
0.0
 11
160.5
 21
44.0
 31
0.0
  0
LINE
  5
1882A
  8
SUNPO
  6
CONTINUOUS
 10
143.185645
 20
56.0
 30
0.0
 11
143.185645
 21
31.0
 31
0.0
  0
ARC
  5
1882B
  8
SUNPO
  6
BYBLOCK
 10
143.185645
 20
31.0
 30
0.0
 40
0.145
 50
270.0
 51
90.0
  0
ARC
  5
1882C
  8
SUNPO
  6
BYBLOCK
 10
143.185645
 20
31.0
 30
0.0
 40
0.145
 50
90.0
 51
270.0
  0
TEXT
  5
1882D
  8
SUNPO
  6
CONTINUOUS
 10
142.185645
 20
41.416667
 30
0.0
 40
2.5
  1
25
 50
90.0
  7
MX_NOTE_STANDARD
  0
ARC
  5
1882E
  8
SUNPO
  6
BYBLOCK
 10
154.5
 20
31.0
 30
0.0
 40
0.145
 50
270.0
 51
90.0
  0
ARC
  5
1882F
  8
SUNPO
  6
BYBLOCK
 10
154.5
 20
31.0
 30
0.0
 40
0.145
 50
90.0
 51
270.0
  0
ARC
  5
18830
  8
SUNPO
  6
BYBLOCK
 10
154.5
 20
31.0
 30
0.0
 40
0.145
 50
90.0
 51
270.0
  0
ARC
  5
18831
  8
SUNPO
  6
BYBLOCK
 10
154.5
 20
31.0
 30
0.0
 40
0.145
 50
270.0
 51
90.0
  0
ARC
  5
18832
  8
SUNPO
  6
BYBLOCK
 10
160.5
 20
44.0
 30
0.0
 40
0.145
 50
180.0
 51
0.0
  0
ARC
  5
18833
  8
SUNPO
  6
BYBLOCK
 10
160.5
 20
44.0
 30
0.0
 40
0.145
 50
0.0
 51
180.0
  0
ARC
  5
18834
  8
SUNPO
  6
BYBLOCK
 10
143.185645
 20
56.0
 30
0.0
 40
0.145
 50
270.0
 51
90.0
  0
ARC
  5
18835
  8
SUNPO
  6
BYBLOCK
 10
143.185645
 20
56.0
 30
0.0
 40
0.145
 50
90.0
 51
270.0
  0
ARC
  5
18836
  8
SUNPO
  6
BYBLOCK
 10
143.185645
 20
56.0
 30
0.0
 40
0.145
 50
90.0
 51
270.0
  0
ARC
  5
18837
  8
SUNPO
  6
BYBLOCK
 10
143.185645
 20
56.0
 30
0.0
 40
0.145
 50
270.0
 51
90.0
  0
TEXT
  5
18838
  8
SUNPO
  6
CONTINUOUS
 10
142.185645
 20
71.416667
 30
0.0
 40
2.5
  1
35
 50
90.0
  7
MX_NOTE_STANDARD
  0
TEXT
  5
18839
  8
SUNPO
  6
CONTINUOUS
 10
153.5
 20
59.125
 30
0.0
 40
2.5
  1
60
 50
90.0
  7
MX_NOTE_STANDARD
  0
TEXT
  5
1883A
  8
SUNPO
  6
CONTINUOUS
 10
176.333333
 20
45.0
 30
0.0
 40
2.5
  1
15
  7
MX_NOTE_STANDARD
  0
LINE
  5
1883B
  8
SUNPO
  6
CONTINUOUS
 10
185.5
 20
44.0
 30
0.0
 11
170.5
 21
44.0
 31
0.0
  0
TEXT
  5
1883C
  8
SUNPO
  6
CONTINUOUS
 10
164.041667
 20
45.0
 30
0.0
 40
2.5
  1
10
  7
MX_NOTE_STANDARD
  0
ARC
  5
1883D
  8
SUNPO
  6
BYBLOCK
 10
170.5
 20
44.0
 30
0.0
 40
0.145
 50
0.0
 51
180.0
  0
ARC
  5
1883E
  8
SUNPO
  6
BYBLOCK
 10
170.5
 20
44.0
 30
0.0
 40
0.145
 50
180.0
 51
0.0
  0
ARC
  5
1883F
  8
SUNPO
  6
BYBLOCK
 10
170.5
 20
44.0
 30
0.0
 40
0.145
 50
180.0
 51
0.0
  0
ARC
  5
18840
  8
SUNPO
  6
BYBLOCK
 10
170.5
 20
44.0
 30
0.0
 40
0.145
 50
0.0
 51
180.0
  0
ARC
  5
18843
  8
SUNPO
  6
BYBLOCK
 10
185.5
 20
44.0
 30
0.0
 40
0.145
 50
0.0
 51
180.0
  0
ARC
  5
18844
  8
SUNPO
  6
BYBLOCK
 10
185.5
 20
44.0
 30
0.0
 40
0.145
 50
180.0
 51
0.0
  0
ARC
  5
18845
  8
SUNPO
  6
BYBLOCK
 10
185.5
 20
44.0
 30
0.0
 40
0.145
 50
180.0
 51
0.0
  0
ARC
  5
18846
  8
SUNPO
  6
BYBLOCK
 10
185.5
 20
44.0
 30
0.0
 40
0.145
 50
0.0
 51
180.0
  0
TEXT
  5
18847
  8
SUNPO
  6
CONTINUOUS
 10
133.721192
 20
99.125001
 30
0.0
 40
2.5
  1
20
 50
90.0
  7
MX_NOTE_STANDARD
  0
LINE
  5
18848
  8
SUNPO
  6
CONTINUOUS
 10
134.721192
 20
111.000003
 30
0.0
 11
134.721192
 21
91.0
 31
0.0
  0
LINE
  5
18849
  8
SUNPO
  6
CONTINUOUS
 10
132.0
 20
91.0
 30
0.0
 11
154.5
 21
91.0
 31
0.0
  0
LINE
  5
1884A
  8
SUNPO
  6
CONTINUOUS
 10
136.221191
 20
91.0
 30
0.0
 11
143.185645
 21
91.0
 31
0.0
  0
ARC
  5
1884B
  8
SUNPO
  6
BYBLOCK
 10
134.721192
 20
91.0
 30
0.0
 40
0.145
 50
270.0
 51
90.0
  0
ARC
  5
1884C
  8
SUNPO
  6
BYBLOCK
 10
134.721192
 20
91.0
 30
0.0
 40
0.145
 50
90.0
 51
270.0
  0
ARC
  5
1884D
  8
SUNPO
  6
BYBLOCK
 10
143.185645
 20
91.0
 30
0.0
 40
0.145
 50
90.0
 51
270.0
  0
ARC
  5
1884E
  8
SUNPO
  6
BYBLOCK
 10
143.185645
 20
91.0
 30
0.0
 40
0.145
 50
270.0
 51
90.0
  0
ARC
  5
1884F
  8
SUNPO
  6
BYBLOCK
 10
143.185645
 20
91.0
 30
0.0
 40
0.145
 50
270.0
 51
90.0
  0
ARC
  5
18850
  8
SUNPO
  6
BYBLOCK
 10
143.185645
 20
91.0
 30
0.0
 40
0.145
 50
90.0
 51
270.0
  0
LINE
  5
18851
  8
SUNPO
  6
CONTINUOUS
 10
159.5
 20
96.0
 30
0.0
 11
149.5
 21
96.0
 31
0.0
  0
LINE
  5
18852
  8
SUNPO
  6
CONTINUOUS
 10
149.5
 20
96.0
 30
0.0
 11
154.5
 21
91.0
 31
0.0
  0
LINE
  5
18854
  8
SUNPO
  6
CONTINUOUS
 10
154.5
 20
91.0
 30
0.0
 11
159.5
 21
96.0
 31
0.0
  0
TEXT
  5
18857
  8
SUNPO
  6
CONTINUOUS
 10
142.185645
 20
109.916668
 30
0.0
 40
2.5
  1
42
 50
90.0
  7
MX_NOTE_STANDARD
  0
ARC
  5
18858
  8
SUNPO
  6
BYBLOCK
 10
134.721192
 20
111.000003
 30
0.0
 40
0.145
 50
90.0
 51
270.0
  0
ARC
  5
18859
  8
SUNPO
  6
BYBLOCK
 10
134.721192
 20
111.000003
 30
0.0
 40
0.145
 50
270.0
 51
90.0
  0
ARC
  5
1885A
  8
SUNPO
  6
BYBLOCK
 10
134.721192
 20
111.000003
 30
0.0
 40
0.145
 50
270.0
 51
90.0
  0
ARC
  5
1885B
  8
SUNPO
  6
BYBLOCK
 10
134.721192
 20
111.000003
 30
0.0
 40
0.145
 50
90.0
 51
270.0
  0
LINE
  5
1885C
  8
SUNPO
  6
CONTINUOUS
 10
274.376776
 20
24.500001
 30
0.0
 11
270.335331
 21
31.499997
 31
0.0
  0
LINE
  5
1885D
  8
SUNPO
  6
CONTINUOUS
 10
276.686114
 20
24.5
 30
0.0
 11
272.644668
 21
31.499997
 31
0.0
  0
LINE
  5
1885E
  8
SUNPO
  6
CONTINUOUS
 10
283.036961
 20
31.5
 30
0.0
 11
283.036961
 21
24.500003
 31
0.0
  0
LINE
  5
1885F
  8
SUNPO
  6
CONTINUOUS
 10
283.036959
 20
24.500004
 30
0.0
 11
278.995515
 21
31.499997
 31
0.0
  0
LINE
  5
18860
  8
SUNPO
  6
CONTINUOUS
 10
280.72756
 20
24.500001
 30
0.0
 11
276.686114
 21
31.499998
 31
0.0
  0
LINE
  5
18861
  8
SUNPO
  6
CONTINUOUS
 10
276.686113
 20
31.5
 30
0.0
 11
276.686113
 21
24.500001
 31
0.0
  0
LINE
  5
18862
  8
SUNPO
  6
CONTINUOUS
 10
277.686113
 20
24.5
 30
0.0
 11
273.208582
 21
24.5
 31
0.0
  0
LINE
  5
18863
  8
SUNPO
  6
CONTINUOUS
 10
283.61431
 20
24.5
 30
0.0
 11
280.036562
 21
24.5
 31
0.0
  0
LINE
  5
18865
  8
SUNPO
  6
CONTINUOUS
 10
291.76901
 20
26.5
 30
0.0
 11
286.76901
 21
26.5
 31
0.0
  0
LINE
  5
18866
  8
SUNPO
  6
CONTINUOUS
 10
291.76901
 20
29.5
 30
0.0
 11
286.76901
 21
29.5
 31
0.0
  0
LINE
  5
18867
  8
SUNPO
  6
CONTINUOUS
 10
303.0
 20
36.322886
 30
0.0
 11
258.0
 21
36.322886
 31
0.0
  0
LINE
  5
18868
  8
SUNPO
  6
CONTINUOUS
 10
223.5
 20
84.5
 30
0.0
 11
223.5
 21
44.0
 31
0.0
  0
LINE
  5
18869
  8
SUNPO
  6
CONTINUOUS
 10
194.611405
 20
39.639166
 30
0.0
 11
195.767949
 21
35.322886
 31
0.0
  0
TEXT
  5
1886C
  8
SUNPO
  6
CONTINUOUS
 10
202.416667
 20
45.0
 30
0.0
 40
2.5
  1
38
  7
MX_NOTE_STANDARD
  0
TEXT
  5
1886E
  8
SUNPO
  6
CONTINUOUS
 10
224.037473
 20
37.371288
 30
0.0
 40
2.0
  1
2
  7
MX_NOTE_STANDARD
  0
ARC
  5
1886F
  8
SUNPO
  6
BYBLOCK
 10
223.5
 20
44.0
 30
0.0
 40
0.145
 50
0.0
 51
180.0
  0
ARC
  5
18870
  8
SUNPO
  6
BYBLOCK
 10
223.5
 20
44.0
 30
0.0
 40
0.145
 50
180.0
 51
0.0
  0
LINE
  5
18871
  8
SUNPO
  6
CONTINUOUS
 10
258.0
 20
56.5
 30
0.0
 11
258.0
 21
36.322886
 31
0.0
  0
LINE
  5
18872
  8
SUNPO
  6
CONTINUOUS
 10
258.0
 20
36.322886
 30
0.0
 11
248.888595
 21
33.006605
 31
0.0
  0
LINE
  5
18873
  8
SUNPO
  6
CONTINUOUS
 10
248.888595
 20
33.006605
 30
0.0
 11
247.732051
 21
37.322886
 31
0.0
  0
ARC
  5
18877
  8
SUNPO
  6
BYBLOCK
 10
258.0
 20
36.322886
 30
0.0
 40
0.145
 50
180.0
 51
0.0
  0
ARC
  5
18878
  8
SUNPO
  6
BYBLOCK
 10
258.0
 20
36.322886
 30
0.0
 40
0.145
 50
0.0
 51
180.0
  0
ARC
  5
18879
  8
SUNPO
  6
BYBLOCK
 10
243.293737
 20
86.0
 30
0.0
 40
0.145
 50
270.0
 51
90.0
  0
ARC
  5
1887A
  8
SUNPO
  6
BYBLOCK
 10
243.293737
 20
86.0
 30
0.0
 40
0.145
 50
90.0
 51
270.0
  0
LINE
  5
1887B
  8
SUNPO
  6
CONTINUOUS
 10
322.968739
 20
79.0
 30
0.0
 11
322.968739
 21
58.0
 31
0.0
  0
LINE
  5
1887C
  8
SUNPO
  6
CONTINUOUS
 10
279.995514
 20
31.5
 30
0.0
 11
275.686113
 21
31.5
 31
0.0
  0
LINE
  5
1887D
  8
SUNPO
  6
CONTINUOUS
 10
273.60634
 20
31.5
 30
0.0
 11
269.23099
 21
31.5
 31
0.0
  0
LINE
  5
1887E
  8
SUNPO
  6
CONTINUOUS
 10
283.995805
 20
31.5
 30
0.0
 11
281.959285
 21
31.5
 31
0.0
  0
TEXT
  5
1887F
  8
SUNPO
  6
CONTINUOUS
 10
278.416667
 20
37.322886
 30
0.0
 40
2.5
  1
45
  7
MX_NOTE_STANDARD
  0
LINE
  5
18880
  8
SUNPO
  6
CONTINUOUS
 10
303.0
 20
56.5
 30
0.0
 11
303.0
 21
36.322886
 31
0.0
  0
LINE
  5
18881
  8
SUNPO
  6
CONTINUOUS
 10
303.0
 20
36.322886
 30
0.0
 11
312.111405
 21
39.639166
 31
0.0
  0
ARC
  5
18883
  8
SUNPO
  6
BYBLOCK
 10
303.0
 20
36.322886
 30
0.0
 40
0.145
 50
0.0
 51
180.0
  0
ARC
  5
18884
  8
SUNPO
  6
BYBLOCK
 10
303.0
 20
36.322886
 30
0.0
 40
0.145
 50
180.0
 51
0.0
  0
LINE
  5
18885
  8
SUNPO
  6
CONTINUOUS
 10
312.111405
 20
39.639166
 30
0.0
 11
313.267949
 21
35.322886
 31
0.0
  0
LINE
  5
18888
  8
SUNPO
  6
CONTINUOUS
 10
304.5
 20
58.0
 30
0.0
 11
322.968739
 21
58.0
 31
0.0
  0
ARC
  5
18889
  8
SUNPO
  6
BYBLOCK
 10
322.968739
 20
58.0
 30
0.0
 40
0.145
 50
270.0
 51
90.0
  0
ARC
  5
1888A
  8
SUNPO
  6
BYBLOCK
 10
322.968739
 20
58.0
 30
0.0
 40
0.145
 50
90.0
 51
270.0
  0
TEXT
  5
1888B
  8
SUNPO
  6
CONTINUOUS
 10
321.968739
 20
66.833333
 30
0.0
 40
2.5
  1
21
 50
90.0
  7
MX_NOTE_STANDARD
  0
LINE
  5
1888C
  8
SUNPO
  6
CONTINUOUS
 10
322.968739
 20
79.0
 30
0.0
 11
322.968739
 21
117.0
 31
0.0
  0
ARC
  5
1888D
  8
SUNPO
  6
BYBLOCK
 10
322.968739
 20
79.0
 30
0.0
 40
0.145
 50
90.0
 51
270.0
  0
ARC
  5
1888E
  8
SUNPO
  6
BYBLOCK
 10
322.968739
 20
79.0
 30
0.0
 40
0.145
 50
270.0
 51
90.0
  0
ARC
  5
1888F
  8
SUNPO
  6
BYBLOCK
 10
322.968739
 20
79.0
 30
0.0
 40
0.145
 50
270.0
 51
90.0
  0
ARC
  5
18890
  8
SUNPO
  6
BYBLOCK
 10
322.968739
 20
79.0
 30
0.0
 40
0.145
 50
90.0
 51
270.0
  0
TEXT
  5
18891
  8
SUNPO
  6
CONTINUOUS
 10
321.968739
 20
100.155268
 30
0.0
 40
2.5
  1
38
 50
90.0
  7
MX_NOTE_STANDARD
  0
TEXT
  5
18892
  8
SUNPO
  6
CONTINUOUS
 10
321.968739
 20
120.166667
 30
0.0
 40
2.5
  1
8
 50
90.0
  7
MX_NOTE_STANDARD
  0
ARC
  5
18893
  8
SUNPO
  6
BYBLOCK
 10
322.968739
 20
117.0
 30
0.0
 40
0.145
 50
90.0
 51
270.0
  0
ARC
  5
18894
  8
SUNPO
  6
BYBLOCK
 10
322.968739
 20
117.0
 30
0.0
 40
0.145
 50
270.0
 51
90.0
  0
ARC
  5
18895
  8
SUNPO
  6
BYBLOCK
 10
322.968739
 20
117.0
 30
0.0
 40
0.145
 50
270.0
 51
90.0
  0
ARC
  5
18896
  8
SUNPO
  6
BYBLOCK
 10
322.968739
 20
117.0
 30
0.0
 40
0.145
 50
90.0
 51
270.0
  0
TEXT
  5
18897
  8
SUNPO
  6
CONTINUOUS
 10
385.916667
 20
29.0
 30
0.0
 40
2.5
  1
25
  7
MX_NOTE_STANDARD
  0
LINE
  5
18898
  8
SUNPO
  6
CONTINUOUS
 10
375.5
 20
77.499992
 30
0.0
 11
375.5
 21
28.0
 31
0.0
  0
LINE
  5
18899
  8
SUNPO
  6
CONTINUOUS
 10
400.5
 20
84.5
 30
0.0
 11
400.5
 21
28.0
 31
0.0
  0
LINE
  5
1889A
  8
SUNPO
  6
CONTINUOUS
 10
370.5
 20
33.0
 30
0.0
 11
375.5
 21
28.0
 31
0.0
  0
LINE
  5
1889B
  8
SUNPO
  6
CONTINUOUS
 10
370.5
 20
23.0
 30
0.0
 11
370.5
 21
33.0
 31
0.0
  0
LINE
  5
1889C
  8
SUNPO
  6
CONTINUOUS
 10
400.5
 20
28.0
 30
0.0
 11
375.5
 21
28.0
 31
0.0
  0
LINE
  5
1889D
  8
SUNPO
  6
CONTINUOUS
 10
375.5
 20
28.0
 30
0.0
 11
370.5
 21
23.0
 31
0.0
  0
ARC
  5
188A0
  8
SUNPO
  6
BYBLOCK
 10
400.5
 20
28.0
 30
0.0
 40
0.145
 50
0.0
 51
180.0
  0
ARC
  5
188A1
  8
SUNPO
  6
BYBLOCK
 10
400.5
 20
28.0
 30
0.0
 40
0.145
 50
180.0
 51
0.0
  0
LINE
  5
188A2
  8
SUNPO
  6
CONTINUOUS
 10
400.5
 20
44.0
 30
0.0
 11
390.5
 21
44.0
 31
0.0
  0
LINE
  5
188A3
  8
SUNPO
  6
CONTINUOUS
 10
390.5
 20
84.5
 30
0.0
 11
390.5
 21
44.0
 31
0.0
  0
LINE
  5
188A4
  8
SUNPO
  6
CONTINUOUS
 10
345.5
 20
77.499992
 30
0.0
 11
345.5
 21
44.0
 31
0.0
  0
LINE
  5
188A5
  8
SUNPO
  6
CONTINUOUS
 10
375.5
 20
44.0
 30
0.0
 11
345.5
 21
44.0
 31
0.0
  0
TEXT
  5
188A6
  8
SUNPO
  6
CONTINUOUS
 10
341.602796
 20
37.307041
 30
0.0
 40
2.0
  1
1
 41
1.5
  7
MX_NOTE_STANDARD
  0
ARC
  5
188A8
  8
SUNPO
  6
BYBLOCK
 10
345.5
 20
44.0
 30
0.0
 40
0.145
 50
180.0
 51
0.0
  0
ARC
  5
188A9
  8
SUNPO
  6
BYBLOCK
 10
345.5
 20
44.0
 30
0.0
 40
0.145
 50
0.0
 51
180.0
  0
LINE
  5
188AA
  8
SUNPO
  6
CONTINUOUS
 10
375.5
 20
36.322886
 30
0.0
 11
366.388595
 21
33.006605
 31
0.0
  0
LINE
  5
188AB
  8
SUNPO
  6
CONTINUOUS
 10
366.388595
 20
33.006605
 30
0.0
 11
365.232051
 21
37.322886
 31
0.0
  0
TEXT
  5
188AF
  8
SUNPO
  6
CONTINUOUS
 10
358.625
 20
45.0
 30
0.0
 40
2.5
  1
30
  7
MX_NOTE_STANDARD
  0
TEXT
  5
188B1
  8
SUNPO
  6
CONTINUOUS
 10
381.333333
 20
45.0
 30
0.0
 40
2.5
  1
15
  7
MX_NOTE_STANDARD
  0
LINE
  5
188B2
  8
SUNPO
  6
CONTINUOUS
 10
390.5
 20
44.0
 30
0.0
 11
375.5
 21
44.0
 31
0.0
  0
ARC
  5
188B3
  8
SUNPO
  6
BYBLOCK
 10
375.5
 20
44.0
 30
0.0
 40
0.145
 50
180.0
 51
0.0
  0
ARC
  5
188B4
  8
SUNPO
  6
BYBLOCK
 10
375.5
 20
44.0
 30
0.0
 40
0.145
 50
0.0
 51
180.0
  0
ARC
  5
188B5
  8
SUNPO
  6
BYBLOCK
 10
375.5
 20
44.0
 30
0.0
 40
0.145
 50
0.0
 51
180.0
  0
ARC
  5
188B6
  8
SUNPO
  6
BYBLOCK
 10
375.5
 20
44.0
 30
0.0
 40
0.145
 50
180.0
 51
0.0
  0
ARC
  5
188B7
  8
SUNPO
  6
BYBLOCK
 10
390.5
 20
44.0
 30
0.0
 40
0.145
 50
0.0
 51
180.0
  0
ARC
  5
188B8
  8
SUNPO
  6
BYBLOCK
 10
390.5
 20
44.0
 30
0.0
 40
0.145
 50
180.0
 51
0.0
  0
ARC
  5
188B9
  8
SUNPO
  6
BYBLOCK
 10
390.5
 20
44.0
 30
0.0
 40
0.145
 50
180.0
 51
0.0
  0
ARC
  5
188BA
  8
SUNPO
  6
BYBLOCK
 10
390.5
 20
44.0
 30
0.0
 40
0.145
 50
0.0
 51
180.0
  0
TEXT
  5
188BB
  8
SUNPO
  6
CONTINUOUS
 10
394.041667
 20
45.0
 30
0.0
 40
2.5
  1
10
  7
MX_NOTE_STANDARD
  0
ARC
  5
188BC
  8
SUNPO
  6
BYBLOCK
 10
400.5
 20
44.0
 30
0.0
 40
0.145
 50
0.0
 51
180.0
  0
ARC
  5
188BD
  8
SUNPO
  6
BYBLOCK
 10
400.5
 20
44.0
 30
0.0
 40
0.145
 50
180.0
 51
0.0
  0
LINE
  5
188BE
  8
SUNPO
  6
CONTINUOUS
 10
335.83846
 20
221.728614
 30
0.0
 11
297.83846
 21
221.728614
 31
0.0
  0
LINE
  5
188BF
  8
SUNPO
  6
CONTINUOUS
 10
40.5
 20
170.428279
 30
0.0
 11
110.5
 21
170.428279
 31
0.0
  0
LINE
  5
188C0
  8
SUNPO
  6
CONTINUOUS
 10
71.5
 20
155.5
 30
0.0
 11
33.5
 21
155.5
 31
0.0
  0
LINE
  5
188C1
  8
DANMEN
  6
CONTINUOUS
 10
355.5
 20
154.800003
 30
0.0
 11
322.25
 21
154.800003
 31
0.0
  0
LINE
  5
188C2
  8
DANMEN
  6
CONTINUOUS
 10
351.100006
 20
157.800003
 30
0.0
 11
322.25
 21
157.800003
 31
0.0
  0
LINE
  5
188C3
  8
DANMEN
  6
CONTINUOUS
 10
351.100006
 20
159.0
 30
0.0
 11
322.25
 21
159.0
 31
0.0
  0
LINE
  5
188C4
  8
DANMEN
  6
CONTINUOUS
 10
322.25
 20
135.5
 30
0.0
 11
390.5
 21
135.5
 31
0.0
  0
LINE
  5
188C5
  8
DANMEN
  6
CONTINUOUS
 10
322.25
 20
138.5
 30
0.0
 11
390.5
 21
138.5
 31
0.0
  0
LINE
  5
188C6
  8
DANMEN
  6
CONTINUOUS
 10
322.25
 20
149.0
 30
0.0
 11
390.5
 21
149.0
 31
0.0
  0
LINE
  5
188C7
  8
DANMEN
  6
CONTINUOUS
 10
323.73851
 20
143.5
 30
0.0
 11
390.5
 21
143.5
 31
0.0
  0
LINE
  5
188C8
  8
DANMEN
  6
CONTINUOUS
 10
320.83846
 20
257.690823
 30
0.0
 11
333.13846
 21
257.690823
 31
0.0
  0
LINE
  5
188C9
  8
DANMEN
  6
CONTINUOUS
 10
320.83846
 20
177.690823
 30
0.0
 11
333.13846
 21
177.690823
 31
0.0
  0
LINE
  5
188CA
  8
DANMEN
  6
CONTINUOUS
 10
289.83846
 20
262.0
 30
0.0
 11
289.83846
 21
172.690823
 31
0.0
  0
LINE
  5
188CB
  8
DANMEN
  6
CONTINUOUS
 10
297.83846
 20
262.0
 30
0.0
 11
297.83846
 21
172.690823
 31
0.0
  0
LINE
  5
188CC
  8
DANMEN
  6
CONTINUOUS
 10
251.83846
 20
262.0
 30
0.0
 11
251.83846
 21
172.690823
 31
0.0
  0
LINE
  5
188CD
  8
DANMEN
  6
CONTINUOUS
 10
292.33846
 20
262.0
 30
0.0
 11
292.33846
 21
172.690823
 31
0.0
  0
LINE
  5
188CE
  8
DANMEN
  6
DASHED
 10
295.33846
 20
262.0
 30
0.0
 11
295.33846
 21
172.690823
 31
0.0
  0
LINE
  5
188CF
  8
DANMEN
  6
CONTINUOUS
 10
256.038457
 20
201.64082
 30
0.0
 11
256.038457
 21
233.740826
 31
0.0
  0
LINE
  5
188D0
  8
DANMEN
  6
CONTINUOUS
 10
285.638463
 20
201.64082
 30
0.0
 11
285.638463
 21
233.740826
 31
0.0
  0
LINE
  5
188D1
  8
DANMEN
  6
CONTINUOUS
 10
287.638463
 20
178.190823
 30
0.0
 11
287.638463
 21
257.190823
 31
0.0
  0
LINE
  5
188D2
  8
DANMEN
  6
CONTINUOUS
 10
254.038457
 20
178.190823
 30
0.0
 11
254.038457
 21
257.190823
 31
0.0
  0
LINE
  5
188D3
  8
DANMEN
  6
CONTINUOUS
 10
331.63846
 20
207.690823
 30
0.0
 11
331.63846
 21
233.690826
 31
0.0
  0
LINE
  5
188D4
  8
DANMEN
  6
CONTINUOUS
 10
297.83846
 20
197.690823
 30
0.0
 11
297.83846
 21
257.190823
 31
0.0
  0
LINE
  5
188D5
  8
DANMEN
  6
CONTINUOUS
 10
299.838459
 20
233.690826
 30
0.0
 11
299.838459
 21
207.690823
 31
0.0
  0
LINE
  5
188D6
  8
DANMEN
  6
CONTINUOUS
 10
270.0
 20
136.5
 30
0.0
 11
240.25
 21
136.5
 31
0.0
  0
LINE
  5
188D7
  8
DANMEN
  6
CONTINUOUS
 10
270.0
 20
143.5
 30
0.0
 11
240.25
 21
143.5
 31
0.0
  0
LINE
  5
188D8
  8
DANMEN
  6
CONTINUOUS
 10
270.0
 20
144.0
 30
0.0
 11
240.25
 21
144.0
 31
0.0
  0
LINE
  5
188D9
  8
DANMEN
  6
CONTINUOUS
 10
270.0
 20
136.0
 30
0.0
 11
240.25
 21
136.0
 31
0.0
  0
LINE
  5
188DA
  8
DANMEN
  6
CONTINUOUS
 10
264.83846
 20
179.205542
 30
0.0
 11
266.719485
 21
177.324517
 31
0.0
  0
LINE
  5
188DB
  8
DANMEN
  6
CONTINUOUS
 10
265.474499
 20
180.690823
 30
0.0
 11
269.226499
 21
176.938822
 31
0.0
  0
LINE
  5
188DC
  8
DANMEN
  6
CONTINUOUS
 10
267.231858
 20
180.690823
 30
0.0
 11
264.83846
 21
178.297425
 31
0.0
  0
LINE
  5
188DD
  8
DANMEN
  6
CONTINUOUS
 10
269.353178
 20
180.690823
 30
0.0
 11
266.084554
 21
177.422198
 31
0.0
  0
LINE
  5
188DE
  8
DANMEN
  6
CONTINUOUS
 10
270.838455
 20
176.69082
 30
0.0
 11
264.338454
 21
177.69082
 31
0.0
  0
LINE
  5
188DF
  8
DANMEN
  6
CONTINUOUS
 10
256.038457
 20
201.64082
 30
0.0
 11
285.638463
 21
201.64082
 31
0.0
  0
LINE
  5
188E0
  8
DANMEN
  6
CONTINUOUS
 10
255.988454
 20
199.690823
 30
0.0
 11
285.688466
 21
199.690823
 31
0.0
  0
LINE
  5
188E1
  8
DANMEN
  6
CONTINUOUS
 10
258.999997
 20
163.0
 30
0.0
 11
301.999997
 21
163.0
 31
0.0
  0
LINE
  5
188E2
  8
DANMEN
  6
CONTINUOUS
 10
258.999997
 20
125.0
 30
0.0
 11
286.499997
 21
125.0
 31
0.0
  0
LINE
  5
188E3
  8
DANMEN
  6
CONTINUOUS
 10
259.199997
 20
126.949997
 30
0.0
 11
277.999997
 21
126.949997
 31
0.0
  0
LINE
  5
188E4
  8
DANMEN
  6
CONTINUOUS
 10
259.199997
 20
161.050003
 30
0.0
 11
277.999997
 21
161.050003
 31
0.0
  0
LINE
  5
188E5
  8
DANMEN
  6
CONTINUOUS
 10
223.5
 20
125.0
 30
0.0
 11
238.75
 21
125.0
 31
0.0
  0
LINE
  5
188E6
  8
DANMEN
  6
CONTINUOUS
 10
223.5
 20
127.2
 30
0.0
 11
238.75
 21
127.2
 31
0.0
  0
LINE
  5
188E7
  8
DANMEN
  6
CONTINUOUS
 10
223.5
 20
163.0
 30
0.0
 11
238.75
 21
163.0
 31
0.0
  0
LINE
  5
188E8
  8
DANMEN
  6
CONTINUOUS
 10
238.75
 20
136.5
 30
0.0
 11
211.5
 21
136.5
 31
0.0
  0
LINE
  5
188E9
  8
DANMEN
  6
CONTINUOUS
 10
238.75
 20
143.5
 30
0.0
 11
211.5
 21
143.5
 31
0.0
  0
LINE
  5
188EA
  8
DANMEN
  6
CONTINUOUS
 10
238.75
 20
144.0
 30
0.0
 11
211.5
 21
144.0
 31
0.0
  0
LINE
  5
188EB
  8
DANMEN
  6
CONTINUOUS
 10
238.75
 20
136.0
 30
0.0
 11
211.5
 21
136.0
 31
0.0
  0
LINE
  5
188EC
  8
DANMEN
  6
CONTINUOUS
 10
223.5
 20
160.800003
 30
0.0
 11
238.75
 21
160.800003
 31
0.0
  0
LINE
  5
188ED
  8
DANMEN
  6
CONTINUOUS
 10
223.5
 20
129.549998
 30
0.0
 11
238.75
 21
129.549998
 31
0.0
  0
LINE
  5
188EE
  8
DANMEN
  6
CONTINUOUS
 10
223.5
 20
150.450002
 30
0.0
 11
238.75
 21
150.450002
 31
0.0
  0
LINE
  5
188EF
  8
DANMEN
  6
CONTINUOUS
 10
202.5
 20
148.0
 30
0.0
 11
202.5
 21
126.949997
 31
0.0
  0
LINE
  5
188F0
  8
DANMEN
  6
CONTINUOUS
 10
200.550003
 20
147.05
 30
0.0
 11
200.550003
 21
130.949997
 31
0.0
  0
LINE
  5
188F1
  8
DANMEN
  6
CONTINUOUS
 10
221.136039
 20
144.0
 30
0.0
 11
224.051467
 21
146.915428
 31
0.0
  0
LINE
  5
188F2
  8
DANMEN
  6
CONTINUOUS
 10
220.5
 20
145.485281
 30
0.0
 11
223.768625
 21
148.753906
 31
0.0
  0
LINE
  5
188F3
  8
DANMEN
  6
CONTINUOUS
 10
220.5
 20
147.242641
 30
0.0
 11
223.742641
 21
144.0
 31
0.0
  0
LINE
  5
188F4
  8
DANMEN
  6
CONTINUOUS
 10
220.5
 20
149.363961
 30
0.0
 11
224.252001
 21
145.61196
 31
0.0
  0
LINE
  5
188F5
  8
DANMEN
  6
CONTINUOUS
 10
224.499995
 20
143.999997
 30
0.0
 11
223.499995
 21
150.499998
 31
0.0
  0
LINE
  5
188F6
  8
DANMEN
  6
CONTINUOUS
 10
201.038895
 20
125.0
 30
0.0
 11
223.0
 21
125.0
 31
0.0
  0
LINE
  5
188F7
  8
DANMEN
  6
CONTINUOUS
 10
202.5
 20
126.949997
 30
0.0
 11
222.300003
 21
126.949997
 31
0.0
  0
LINE
  5
188F8
  8
DANMEN
  6
CONTINUOUS
 10
200.54029
 20
125.537395
 30
0.0
 11
200.799988
 21
129.0
 31
0.0
  0
LINE
  5
188FD
  8
DANMEN
  6
CONTINUOUS
 10
211.5
 20
144.0
 30
0.0
 11
211.5
 21
136.0
 31
0.0
  0
LINE
  5
188FE
  8
DANMEN
  6
CONTINUOUS
 10
220.5
 20
130.636039
 30
0.0
 11
224.252001
 21
134.38804
 31
0.0
  0
LINE
  5
188FF
  8
DANMEN
  6
CONTINUOUS
 10
220.5
 20
132.757359
 30
0.0
 11
223.742641
 21
136.0
 31
0.0
  0
LINE
  5
18900
  8
DANMEN
  6
CONTINUOUS
 10
220.5
 20
134.514719
 30
0.0
 11
223.768625
 21
131.246094
 31
0.0
  0
LINE
  5
18901
  8
DANMEN
  6
CONTINUOUS
 10
221.136039
 20
136.0
 30
0.0
 11
224.051467
 21
133.084572
 31
0.0
  0
LINE
  5
18902
  8
DANMEN
  6
CONTINUOUS
 10
224.500003
 20
135.999996
 30
0.0
 11
223.500003
 21
129.499995
 31
0.0
  0
LINE
  5
18903
  8
DANMEN
  6
CONTINUOUS
 10
222.300003
 20
126.949997
 30
0.0
 11
222.300003
 21
129.0
 31
0.0
  0
LINE
  5
18904
  8
DANMEN
  6
CONTINUOUS
 10
223.5
 20
125.5
 30
0.0
 11
223.5
 21
129.5
 31
0.0
  0
ARC
  5
18906
  8
DANMEN
  6
CONTINUOUS
 10
223.0
 20
125.5
 30
0.0
 40
0.5
 50
270.000018
 51
0.0
  0
LINE
  5
18908
  8
DANMEN
  6
CONTINUOUS
 10
219.0
 20
129.0
 30
0.0
 11
222.300003
 21
129.0
 31
0.0
  0
LINE
  5
18909
  8
DANMEN
  6
CONTINUOUS
 10
218.5
 20
130.0
 30
0.0
 11
223.0
 21
130.0
 31
0.0
  0
LINE
  5
1890A
  8
DANMEN
  6
CONTINUOUS
 10
220.5
 20
132.393398
 30
0.0
 11
222.893398
 21
130.0
 31
0.0
  0
ARC
  5
1890C
  8
DANMEN
  6
CONTINUOUS
 10
219.0
 20
129.5
 30
0.0
 40
0.5
 50
179.999964
 51
270.000001
  0
LINE
  5
1890E
  8
DANMEN
  6
CONTINUOUS
 10
218.5
 20
129.5
 30
0.0
 11
218.5
 21
130.0
 31
0.0
  0
LINE
  5
1890F
  8
DANMEN
  6
CONTINUOUS
 10
220.5
 20
130.272078
 30
0.0
 11
220.772078
 21
130.0
 31
0.0
  0
ARC
  5
18911
  8
DANMEN
  6
CONTINUOUS
 10
223.0
 20
129.5
 30
0.0
 40
0.5
 50
0.0
 51
89.999982
  0
LINE
  5
18913
  8
DANMEN
  6
CONTINUOUS
 10
221.985281
 20
130.0
 30
0.0
 11
223.866306
 21
131.881025
 31
0.0
  0
LINE
  5
18914
  8
DANMEN
  6
CONTINUOUS
 10
220.5
 20
134.87868
 30
0.0
 11
221.62132
 21
136.0
 31
0.0
  0
LINE
  5
18915
  8
DANMEN
  6
CONTINUOUS
 10
223.257359
 20
136.0
 30
0.0
 11
224.33431
 21
134.923049
 31
0.0
  0
LINE
  5
18916
  8
DANMEN
  6
CONTINUOUS
 10
220.5
 20
145.12132
 30
0.0
 11
221.62132
 21
144.0
 31
0.0
  0
LINE
  5
18918
  8
DANMEN
  6
CONTINUOUS
 10
223.257359
 20
144.0
 30
0.0
 11
224.33431
 21
145.076951
 31
0.0
  0
LINE
  5
1891B
  8
DANMEN
  6
CONTINUOUS
 10
201.0
 20
163.0
 30
0.0
 11
223.0
 21
163.0
 31
0.0
  0
LINE
  5
1891C
  8
DANMEN
  6
CONTINUOUS
 10
202.5
 20
161.050003
 30
0.0
 11
222.300003
 21
161.050003
 31
0.0
  0
LINE
  5
1891D
  8
DANMEN
  6
CONTINUOUS
 10
202.5
 20
161.050003
 30
0.0
 11
202.5
 21
149.0
 31
0.0
  0
ARC
  5
1891E
  8
DANMEN
  6
CONTINUOUS
 10
204.0
 20
147.550003
 30
0.0
 40
0.5
 50
270.000018
 51
0.0
  0
ARC
  5
1891F
  8
DANMEN
  6
CONTINUOUS
 10
204.0
 20
148.5
 30
0.0
 40
0.5
 50
0.0
 51
89.999982
  0
LINE
  5
18924
  8
DANMEN
  6
CONTINUOUS
 10
203.5
 20
148.0
 30
0.0
 11
203.5
 21
147.050003
 31
0.0
  0
LINE
  5
18928
  8
DANMEN
  6
CONTINUOUS
 10
203.5
 20
147.050003
 30
0.0
 11
204.0
 21
147.050003
 31
0.0
  0
LINE
  5
18929
  8
DANMEN
  6
CONTINUOUS
 10
202.5
 20
148.0
 30
0.0
 11
203.5
 21
148.0
 31
0.0
  0
LINE
  5
1892A
  8
DANMEN
  6
CONTINUOUS
 10
204.5
 20
148.5
 30
0.0
 11
204.5
 21
147.550003
 31
0.0
  0
LINE
  5
1892B
  8
DANMEN
  6
CONTINUOUS
 10
202.5
 20
149.0
 30
0.0
 11
204.0
 21
149.0
 31
0.0
  0
LINE
  5
1892D
  8
DANMEN
  6
CONTINUOUS
 10
221.550003
 20
159.050003
 30
0.0
 11
221.550003
 21
151.0
 31
0.0
  0
LINE
  5
1892E
  8
DANMEN
  6
CONTINUOUS
 10
223.5
 20
162.5
 30
0.0
 11
223.5
 21
150.5
 31
0.0
  0
LINE
  5
1892F
  8
DANMEN
  6
CONTINUOUS
 10
219.0
 20
151.0
 30
0.0
 11
221.550003
 21
151.0
 31
0.0
  0
LINE
  5
18930
  8
DANMEN
  6
CONTINUOUS
 10
218.5
 20
150.0
 30
0.0
 11
223.0
 21
150.0
 31
0.0
  0
LINE
  5
18931
  8
DANMEN
  6
CONTINUOUS
 10
220.5
 20
147.606602
 30
0.0
 11
222.893398
 21
150.0
 31
0.0
  0
ARC
  5
18933
  8
DANMEN
  6
CONTINUOUS
 10
219.0
 20
150.5
 30
0.0
 40
0.5
 50
89.999982
 51
180.000019
  0
LINE
  5
18935
  8
DANMEN
  6
CONTINUOUS
 10
218.5
 20
150.5
 30
0.0
 11
218.5
 21
150.0
 31
0.0
  0
LINE
  5
18936
  8
DANMEN
  6
CONTINUOUS
 10
220.5
 20
149.727922
 30
0.0
 11
220.772078
 21
150.0
 31
0.0
  0
ARC
  5
18938
  8
DANMEN
  6
CONTINUOUS
 10
223.0
 20
150.5
 30
0.0
 40
0.5
 50
270.000018
 51
0.0
  0
LINE
  5
1893A
  8
DANMEN
  6
CONTINUOUS
 10
221.985281
 20
150.0
 30
0.0
 11
223.866306
 21
148.118975
 31
0.0
  0
LINE
  5
1893E
  8
DANMEN
  6
CONTINUOUS
 10
222.300003
 20
161.050003
 30
0.0
 11
222.300003
 21
159.050003
 31
0.0
  0
LINE
  5
1893F
  8
DANMEN
  6
CONTINUOUS
 10
221.550003
 20
159.050003
 30
0.0
 11
222.300003
 21
159.050003
 31
0.0
  0
ARC
  5
18940
  8
DANMEN
  6
CONTINUOUS
 10
223.0
 20
162.5
 30
0.0
 40
0.5
 50
0.0
 51
89.999982
  0
LINE
  5
18942
  8
DANMEN
  6
CONTINUOUS
 10
260.999997
 20
145.485281
 30
0.0
 11
257.731372
 21
148.753906
 31
0.0
  0
LINE
  5
18943
  8
DANMEN
  6
CONTINUOUS
 10
260.363958
 20
144.0
 30
0.0
 11
257.44853
 21
146.915428
 31
0.0
  0
LINE
  5
18944
  8
DANMEN
  6
CONTINUOUS
 10
260.999997
 20
149.363961
 30
0.0
 11
257.247996
 21
145.61196
 31
0.0
  0
LINE
  5
18945
  8
DANMEN
  6
CONTINUOUS
 10
260.999997
 20
147.242641
 30
0.0
 11
257.757356
 21
144.0
 31
0.0
  0
LINE
  5
18946
  8
DANMEN
  6
CONTINUOUS
 10
257.000002
 20
143.999997
 30
0.0
 11
258.000002
 21
150.499998
 31
0.0
  0
LINE
  5
18947
  8
DANMEN
  6
CONTINUOUS
 10
240.25
 20
125.0
 30
0.0
 11
258.0
 21
125.0
 31
0.0
  0
LINE
  5
18948
  8
DANMEN
  6
CONTINUOUS
 10
240.25
 20
127.2
 30
0.0
 11
258.0
 21
127.2
 31
0.0
  0
LINE
  5
18949
  8
DANMEN
  6
CONTINUOUS
 10
240.25
 20
129.549998
 30
0.0
 11
258.0
 21
129.549998
 31
0.0
  0
LINE
  5
1894A
  8
DANMEN
  6
CONTINUOUS
 10
260.999997
 20
132.757359
 30
0.0
 11
257.757356
 21
136.0
 31
0.0
  0
LINE
  5
1894B
  8
DANMEN
  6
CONTINUOUS
 10
260.999997
 20
130.636039
 30
0.0
 11
257.247996
 21
134.38804
 31
0.0
  0
LINE
  5
1894C
  8
DANMEN
  6
CONTINUOUS
 10
260.363958
 20
136.0
 30
0.0
 11
257.44853
 21
133.084572
 31
0.0
  0
LINE
  5
1894D
  8
DANMEN
  6
CONTINUOUS
 10
260.999997
 20
134.514719
 30
0.0
 11
257.731372
 21
131.246094
 31
0.0
  0
LINE
  5
1894E
  8
DANMEN
  6
CONTINUOUS
 10
256.999994
 20
135.999996
 30
0.0
 11
257.999995
 21
129.499995
 31
0.0
  0
LINE
  5
1894F
  8
DANMEN
  6
CONTINUOUS
 10
259.514716
 20
130.0
 30
0.0
 11
257.633691
 21
131.881025
 31
0.0
  0
ARC
  5
18950
  8
DANMEN
  6
CONTINUOUS
 10
258.999997
 20
126.0
 30
0.0
 40
1.0
 50
180.0
 51
270.0
  0
ARC
  5
18951
  8
DANMEN
  6
CONTINUOUS
 10
258.999997
 20
129.0
 30
0.0
 40
1.0
 50
90.0
 51
180.0
  0
LINE
  5
18952
  8
DANMEN
  6
CONTINUOUS
 10
257.999997
 20
129.0
 30
0.0
 11
257.999997
 21
126.0
 31
0.0
  0
LINE
  5
18953
  8
DANMEN
  6
CONTINUOUS
 10
259.199997
 20
129.0
 30
0.0
 11
259.199997
 21
126.949997
 31
0.0
  0
ARC
  5
18954
  8
DANMEN
  6
CONTINUOUS
 10
262.845223
 20
124.8
 30
0.0
 40
1.0
 50
90.0
 51
147.20046
  0
ARC
  5
1895C
  8
DANMEN
  6
CONTINUOUS
 10
264.200001
 20
125.2
 30
0.0
 40
0.6
 50
0.0
 51
90.0
  0
LINE
  5
18961
  8
DANMEN
  6
CONTINUOUS
 10
262.845223
 20
124.8
 30
0.0
 11
263.800001
 21
124.8
 31
0.0
  0
LINE
  5
18962
  8
DANMEN
  6
CONTINUOUS
 10
262.845223
 20
125.8
 30
0.0
 11
264.200001
 21
125.8
 31
0.0
  0
LINE
  5
18963
  8
DANMEN
  6
CONTINUOUS
 10
258.999997
 20
130.0
 30
0.0
 11
262.999997
 21
130.0
 31
0.0
  0
LINE
  5
18964
  8
DANMEN
  6
CONTINUOUS
 10
259.199997
 20
129.0
 30
0.0
 11
262.499997
 21
129.0
 31
0.0
  0
LINE
  5
18965
  8
DANMEN
  6
CONTINUOUS
 10
260.999997
 20
132.393398
 30
0.0
 11
258.606599
 21
130.0
 31
0.0
  0
LINE
  5
18966
  8
DANMEN
  6
CONTINUOUS
 10
260.999997
 20
130.272078
 30
0.0
 11
260.727919
 21
130.0
 31
0.0
  0
LINE
  5
18969
  8
DANMEN
  6
CONTINUOUS
 10
262.999997
 20
130.0
 30
0.0
 11
262.999997
 21
129.5
 31
0.0
  0
ARC
  5
1896C
  8
DANMEN
  6
CONTINUOUS
 10
262.499997
 20
129.5
 30
0.0
 40
0.5
 50
270.000018
 51
0.0
  0
LINE
  5
1896D
  8
DANMEN
  6
CONTINUOUS
 10
258.242638
 20
136.0
 30
0.0
 11
257.165687
 21
134.923049
 31
0.0
  0
LINE
  5
1896E
  8
DANMEN
  6
CONTINUOUS
 10
258.242638
 20
144.0
 30
0.0
 11
257.165687
 21
145.076951
 31
0.0
  0
LINE
  5
1896F
  8
DANMEN
  6
CONTINUOUS
 10
260.999997
 20
134.87868
 30
0.0
 11
259.878677
 21
136.0
 31
0.0
  0
LINE
  5
18970
  8
DANMEN
  6
CONTINUOUS
 10
260.999997
 20
145.12132
 30
0.0
 11
259.878677
 21
144.0
 31
0.0
  0
LINE
  5
18974
  8
DANMEN
  6
CONTINUOUS
 10
240.25
 20
160.800003
 30
0.0
 11
258.0
 21
160.800003
 31
0.0
  0
LINE
  5
18975
  8
DANMEN
  6
CONTINUOUS
 10
240.25
 20
163.0
 30
0.0
 11
258.5
 21
163.0
 31
0.0
  0
LINE
  5
18976
  8
DANMEN
  6
CONTINUOUS
 10
240.25
 20
150.450002
 30
0.0
 11
258.0
 21
150.450002
 31
0.0
  0
LINE
  5
18977
  8
DANMEN
  6
CONTINUOUS
 10
257.999997
 20
162.0
 30
0.0
 11
257.999997
 21
150.5
 31
0.0
  0
LINE
  5
18978
  8
DANMEN
  6
CONTINUOUS
 10
259.949997
 20
159.050003
 30
0.0
 11
259.949997
 21
151.0
 31
0.0
  0
LINE
  5
18979
  8
DANMEN
  6
CONTINUOUS
 10
259.514716
 20
150.0
 30
0.0
 11
257.633691
 21
148.118975
 31
0.0
  0
ARC
  5
1897A
  8
DANMEN
  6
CONTINUOUS
 10
258.499997
 20
150.5
 30
0.0
 40
0.5
 50
180.000019
 51
270.000001
  0
LINE
  5
1897B
  8
DANMEN
  6
CONTINUOUS
 10
258.499997
 20
150.0
 30
0.0
 11
262.999997
 21
150.0
 31
0.0
  0
LINE
  5
1897C
  8
DANMEN
  6
CONTINUOUS
 10
259.949997
 20
151.0
 30
0.0
 11
262.499997
 21
151.0
 31
0.0
  0
LINE
  5
1897D
  8
DANMEN
  6
CONTINUOUS
 10
260.999997
 20
149.727922
 30
0.0
 11
260.727919
 21
150.0
 31
0.0
  0
LINE
  5
1897E
  8
DANMEN
  6
CONTINUOUS
 10
260.999997
 20
147.606602
 30
0.0
 11
258.606599
 21
150.0
 31
0.0
  0
LINE
  5
18981
  8
DANMEN
  6
CONTINUOUS
 10
262.999997
 20
150.5
 30
0.0
 11
262.999997
 21
150.0
 31
0.0
  0
ARC
  5
18984
  8
DANMEN
  6
CONTINUOUS
 10
262.499997
 20
150.5
 30
0.0
 40
0.5
 50
0.0
 51
89.999982
  0
ARC
  5
18985
  8
DANMEN
  6
CONTINUOUS
 10
258.999997
 20
162.0
 30
0.0
 40
1.0
 50
90.0
 51
180.0
  0
LINE
  5
18987
  8
DANMEN
  6
CONTINUOUS
 10
259.199997
 20
159.050003
 30
0.0
 11
259.949997
 21
159.050003
 31
0.0
  0
LINE
  5
18988
  8
DANMEN
  6
CONTINUOUS
 10
259.199997
 20
161.050003
 30
0.0
 11
259.199997
 21
159.050003
 31
0.0
  0
LINE
  5
1898C
  8
DANMEN
  6
CONTINUOUS
 10
255.988454
 20
179.64082
 30
0.0
 11
255.988454
 21
199.690823
 31
0.0
  0
LINE
  5
1898D
  8
DANMEN
  6
CONTINUOUS
 10
265.110538
 20
180.690823
 30
0.0
 11
264.83846
 21
180.418745
 31
0.0
  0
LINE
  5
1898E
  8
DANMEN
  6
CONTINUOUS
 10
263.83846
 20
179.64082
 30
0.0
 11
263.83846
 21
182.190823
 31
0.0
  0
LINE
  5
1898F
  8
DANMEN
  6
CONTINUOUS
 10
264.83846
 20
178.190823
 30
0.0
 11
264.83846
 21
182.690823
 31
0.0
  0
LINE
  5
18990
  8
DANMEN
  6
CONTINUOUS
 10
255.988454
 20
179.64082
 30
0.0
 11
263.83846
 21
179.64082
 31
0.0
  0
LINE
  5
18991
  8
DANMEN
  6
CONTINUOUS
 10
254.538457
 20
177.690823
 30
0.0
 11
264.33846
 21
177.690823
 31
0.0
  0
ARC
  5
18993
  8
DANMEN
  6
CONTINUOUS
 10
254.538457
 20
178.190823
 30
0.0
 40
0.5
 50
179.999964
 51
270.000001
  0
LINE
  5
18995
  8
DANMEN
  6
CONTINUOUS
 10
264.338463
 20
177.690823
 30
0.0
 11
264.338463
 21
172.690823
 31
0.0
  0
ARC
  5
18997
  8
DANMEN
  6
CONTINUOUS
 10
264.33846
 20
178.190823
 30
0.0
 40
0.5
 50
270.000018
 51
0.0
  0
ARC
  5
18999
  8
DANMEN
  6
CONTINUOUS
 10
264.33846
 20
182.190823
 30
0.0
 40
0.5
 50
89.999982
 51
180.000019
  0
LINE
  5
1899C
  8
DANMEN
  6
CONTINUOUS
 10
264.33846
 20
182.690823
 30
0.0
 11
264.83846
 21
182.690823
 31
0.0
  0
LINE
  5
1899F
  8
DANMEN
  6
CONTINUOUS
 10
287.999997
 20
125.0
 30
0.0
 11
301.499997
 21
125.0
 31
0.0
  0
LINE
  5
189A0
  8
DANMEN
  6
CONTINUOUS
 10
296.05
 20
148.0
 30
0.0
 11
301.05
 21
148.0
 31
0.0
  0
LINE
  5
189A1
  8
DANMEN
  6
CONTINUOUS
 10
279.949994
 20
149.0
 30
0.0
 11
301.05
 21
149.0
 31
0.0
  0
LINE
  5
189A2
  8
DANMEN
  6
CONTINUOUS
 10
289.949994
 20
126.949997
 30
0.0
 11
301.05
 21
126.949997
 31
0.0
  0
LINE
  5
189A3
  8
DANMEN
  6
CONTINUOUS
 10
290.999997
 20
161.050003
 30
0.0
 11
301.05
 21
161.050003
 31
0.0
  0
LINE
  5
189A4
  8
DANMEN
  6
CONTINUOUS
 10
277.999997
 20
133.5
 30
0.0
 11
277.999997
 21
146.5
 31
0.0
  0
LINE
  5
189A5
  8
DANMEN
  6
CONTINUOUS
 10
269.999997
 20
133.5
 30
0.0
 11
269.999997
 21
146.5
 31
0.0
  0
LINE
  5
189A6
  8
DANMEN
  6
CONTINUOUS
 10
269.999997
 20
146.5
 30
0.0
 11
277.999997
 21
133.5
 31
0.0
  0
LINE
  5
189A7
  8
DANMEN
  6
CONTINUOUS
 10
279.949994
 20
148.0
 30
0.0
 11
279.949994
 21
126.949997
 31
0.0
  0
LINE
  5
189A8
  8
DANMEN
  6
CONTINUOUS
 10
277.999997
 20
148.0
 30
0.0
 11
277.999997
 21
126.949997
 31
0.0
  0
LINE
  5
189A9
  8
DANMEN
  6
CONTINUOUS
 10
289.949994
 20
147.050003
 30
0.0
 11
289.949994
 21
145.0
 31
0.0
  0
LINE
  5
189AA
  8
DANMEN
  6
CONTINUOUS
 10
288.949994
 20
147.050003
 30
0.0
 11
288.949994
 21
145.5
 31
0.0
  0
LINE
  5
189AB
  8
DANMEN
  6
CONTINUOUS
 10
279.949994
 20
126.949997
 30
0.0
 11
288.949994
 21
126.949997
 31
0.0
  0
LINE
  5
189AC
  8
DANMEN
  6
CONTINUOUS
 10
277.999997
 20
133.5
 30
0.0
 11
269.999997
 21
133.5
 31
0.0
  0
LINE
  5
189B1
  8
DANMEN
  6
CONTINUOUS
 10
270.0
 20
144.0
 30
0.0
 11
270.0
 21
136.0
 31
0.0
  0
LINE
  5
189B3
  8
DANMEN
  6
CONTINUOUS
 10
288.949994
 20
128.5
 30
0.0
 11
288.949994
 21
126.949997
 31
0.0
  0
LINE
  5
189B4
  8
DANMEN
  6
CONTINUOUS
 10
289.949994
 20
129.0
 30
0.0
 11
289.949994
 21
126.949997
 31
0.0
  0
LINE
  5
189B9
  8
DANMEN
  6
CONTINUOUS
 10
289.449994
 20
129.0
 30
0.0
 11
289.949994
 21
129.0
 31
0.0
  0
ARC
  5
189BC
  8
DANMEN
  6
CONTINUOUS
 10
289.449994
 20
128.5
 30
0.0
 40
0.5
 50
89.999982
 51
180.000019
  0
LINE
  5
189BD
  8
DANMEN
  6
CONTINUOUS
 10
289.449994
 20
145.0
 30
0.0
 11
289.949994
 21
145.0
 31
0.0
  0
ARC
  5
189C0
  8
DANMEN
  6
CONTINUOUS
 10
289.449994
 20
145.5
 30
0.0
 40
0.5
 50
180.000019
 51
270.000001
  0
LINE
  5
189C1
  8
DANMEN
  6
CONTINUOUS
 10
279.949994
 20
148.0
 30
0.0
 11
284.949994
 21
148.0
 31
0.0
  0
LINE
  5
189C2
  8
DANMEN
  6
CONTINUOUS
 10
279.949994
 20
161.050003
 30
0.0
 11
289.999997
 21
161.050003
 31
0.0
  0
LINE
  5
189C3
  8
DANMEN
  6
CONTINUOUS
 10
277.999997
 20
161.050003
 30
0.0
 11
277.999997
 21
149.0
 31
0.0
  0
LINE
  5
189C4
  8
DANMEN
  6
CONTINUOUS
 10
279.949994
 20
161.050003
 30
0.0
 11
279.949994
 21
149.0
 31
0.0
  0
LINE
  5
189C5
  8
DANMEN
  6
CONTINUOUS
 10
277.999997
 20
146.5
 30
0.0
 11
269.999997
 21
146.5
 31
0.0
  0
LINE
  5
189C8
  8
DANMEN
  6
CONTINUOUS
 10
275.999997
 20
148.5
 30
0.0
 11
275.999997
 21
147.550003
 31
0.0
  0
LINE
  5
189C9
  8
DANMEN
  6
CONTINUOUS
 10
276.499997
 20
149.0
 30
0.0
 11
277.999997
 21
149.0
 31
0.0
  0
LINE
  5
189CA
  8
DANMEN
  6
CONTINUOUS
 10
276.499997
 20
147.050003
 30
0.0
 11
276.999997
 21
147.050003
 31
0.0
  0
LINE
  5
189CB
  8
DANMEN
  6
CONTINUOUS
 10
276.999997
 20
148.0
 30
0.0
 11
277.999997
 21
148.0
 31
0.0
  0
ARC
  5
189CF
  8
DANMEN
  6
CONTINUOUS
 10
276.499997
 20
148.5
 30
0.0
 40
0.5
 50
89.999982
 51
180.000019
  0
LINE
  5
189D0
  8
DANMEN
  6
CONTINUOUS
 10
276.999997
 20
148.0
 30
0.0
 11
276.999997
 21
147.050003
 31
0.0
  0
ARC
  5
189D2
  8
DANMEN
  6
CONTINUOUS
 10
276.499997
 20
147.550003
 30
0.0
 40
0.5
 50
180.000019
 51
270.000001
  0
LINE
  5
189D9
  8
DANMEN
  6
CONTINUOUS
 10
289.949994
 20
147.050003
 30
0.0
 11
296.05
 21
147.050003
 31
0.0
  0
LINE
  5
189DA
  8
DANMEN
  6
CONTINUOUS
 10
284.949994
 20
147.050003
 30
0.0
 11
288.949994
 21
147.050003
 31
0.0
  0
LINE
  5
189DD
  8
DANMEN
  6
CONTINUOUS
 10
284.949994
 20
148.0
 30
0.0
 11
284.949994
 21
147.050003
 31
0.0
  0
LINE
  5
189E2
  8
DANMEN
  6
CONTINUOUS
 10
296.05
 20
148.0
 30
0.0
 11
296.05
 21
147.050003
 31
0.0
  0
ARC
  5
189E3
  8
DANMEN
  6
CONTINUOUS
 10
290.499997
 20
160.0
 30
0.0
 40
0.5
 50
180.0
 51
0.0
  0
LINE
  5
189E5
  8
DANMEN
  6
CONTINUOUS
 10
289.999997
 20
161.050003
 30
0.0
 11
289.999997
 21
160.0
 31
0.0
  0
LINE
  5
189E8
  8
DANMEN
  6
CONTINUOUS
 10
290.999997
 20
161.050003
 30
0.0
 11
290.999997
 21
160.0
 31
0.0
  0
LINE
  5
189EA
  8
DANMEN
  6
CONTINUOUS
 10
301.05
 20
148.0
 30
0.0
 11
301.05
 21
126.949997
 31
0.0
  0
LINE
  5
189EB
  8
DANMEN
  6
CONTINUOUS
 10
303.0
 20
135.5
 30
0.0
 11
320.75
 21
135.5
 31
0.0
  0
LINE
  5
189EC
  8
DANMEN
  6
CONTINUOUS
 10
303.0
 20
138.5
 30
0.0
 11
320.75
 21
138.5
 31
0.0
  0
LINE
  5
189ED
  8
DANMEN
  6
CONTINUOUS
 10
303.0
 20
143.5
 30
0.0
 11
318.615841
 21
143.5
 31
0.0
  0
LINE
  5
189EE
  8
DANMEN
  6
CONTINUOUS
 10
303.0
 20
129.5
 30
0.0
 11
320.75
 21
129.5
 31
0.0
  0
LINE
  5
189F1
  8
DANMEN
  6
CONTINUOUS
 10
303.0
 20
154.800003
 30
0.0
 11
320.75
 21
154.800003
 31
0.0
  0
LINE
  5
189F2
  8
DANMEN
  6
CONTINUOUS
 10
303.0
 20
157.800003
 30
0.0
 11
320.75
 21
157.800003
 31
0.0
  0
LINE
  5
189F3
  8
DANMEN
  6
CONTINUOUS
 10
303.0
 20
159.0
 30
0.0
 11
320.75
 21
159.0
 31
0.0
  0
LINE
  5
189F4
  8
DANMEN
  6
CONTINUOUS
 10
303.0
 20
149.0
 30
0.0
 11
320.75
 21
149.0
 31
0.0
  0
LINE
  5
189F5
  8
DANMEN
  6
CONTINUOUS
 10
301.05
 20
161.050003
 30
0.0
 11
301.05
 21
149.0
 31
0.0
  0
ARC
  5
189F8
  8
DANMEN
  6
CONTINUOUS
 10
301.999997
 20
162.0
 30
0.0
 40
1.0
 50
0.0
 51
89.999982
  0
LINE
  5
189FC
  8
DANMEN
  6
CONTINUOUS
 10
297.83846
 20
197.690823
 30
0.0
 11
299.78846
 21
197.690823
 31
0.0
  0
LINE
  5
189FD
  8
DANMEN
  6
CONTINUOUS
 10
298.33846
 20
177.690826
 30
0.0
 11
299.83846
 21
177.690826
 31
0.0
  0
LINE
  5
189FE
  8
DANMEN
  6
CONTINUOUS
 10
297.83846
 20
197.690823
 30
0.0
 11
299.546261
 21
197.690823
 31
0.0
  0
LINE
  5
189FF
  8
DANMEN
  6
CONTINUOUS
 10
297.83846
 20
178.190827
 30
0.0
 11
297.83846
 21
197.690823
 31
0.0
  0
LINE
  5
18A00
  8
DANMEN
  6
CONTINUOUS
 10
285.688466
 20
182.690823
 30
0.0
 11
285.688466
 21
199.690823
 31
0.0
  0
LINE
  5
18A01
  8
DANMEN
  6
CONTINUOUS
 10
280.323741
 20
180.690823
 30
0.0
 11
283.592366
 21
177.422198
 31
0.0
  0
LINE
  5
18A02
  8
DANMEN
  6
CONTINUOUS
 10
282.445061
 20
180.690823
 30
0.0
 11
284.83846
 21
178.297425
 31
0.0
  0
LINE
  5
18A03
  8
DANMEN
  6
CONTINUOUS
 10
284.202421
 20
180.690823
 30
0.0
 11
280.45042
 21
176.938822
 31
0.0
  0
LINE
  5
18A04
  8
DANMEN
  6
CONTINUOUS
 10
278.838457
 20
176.690828
 30
0.0
 11
285.338458
 21
177.690828
 31
0.0
  0
LINE
  5
18A05
  8
DANMEN
  6
CONTINUOUS
 10
278.83846
 20
189.690823
 30
0.0
 11
278.83846
 21
172.690823
 31
0.0
  0
LINE
  5
18A06
  8
DANMEN
  6
CONTINUOUS
 10
270.83846
 20
189.690823
 30
0.0
 11
270.83846
 21
172.690823
 31
0.0
  0
LINE
  5
18A07
  8
DANMEN
  6
CONTINUOUS
 10
271.33846
 20
189.690823
 30
0.0
 11
271.33846
 21
172.690823
 31
0.0
  0
LINE
  5
18A08
  8
DANMEN
  6
CONTINUOUS
 10
278.33846
 20
189.690823
 30
0.0
 11
278.33846
 21
172.690823
 31
0.0
  0
LINE
  5
18A09
  8
DANMEN
  6
CONTINUOUS
 10
279.95978
 20
180.690823
 30
0.0
 11
278.83846
 21
179.569503
 31
0.0
  0
LINE
  5
18A0A
  8
DANMEN
  6
CONTINUOUS
 10
282.0811
 20
180.690823
 30
0.0
 11
278.83846
 21
177.448182
 31
0.0
  0
LINE
  5
18A0B
  8
DANMEN
  6
CONTINUOUS
 10
267.595819
 20
180.690823
 30
0.0
 11
270.83846
 21
177.448182
 31
0.0
  0
LINE
  5
18A0C
  8
DANMEN
  6
CONTINUOUS
 10
269.717139
 20
180.690823
 30
0.0
 11
270.83846
 21
179.569503
 31
0.0
  0
LINE
  5
18A0D
  8
DANMEN
  6
CONTINUOUS
 10
270.83846
 20
180.054784
 30
0.0
 11
267.923031
 21
177.139356
 31
0.0
  0
LINE
  5
18A0E
  8
DANMEN
  6
CONTINUOUS
 10
270.83846
 20
177.933464
 30
0.0
 11
269.761509
 21
176.856513
 31
0.0
  0
LINE
  5
18A11
  8
DANMEN
  6
CONTINUOUS
 10
278.83846
 20
177.933464
 30
0.0
 11
279.91541
 21
176.856513
 31
0.0
  0
LINE
  5
18A12
  8
DANMEN
  6
CONTINUOUS
 10
278.83846
 20
180.054784
 30
0.0
 11
281.753888
 21
177.139356
 31
0.0
  0
LINE
  5
18A13
  8
DANMEN
  6
CONTINUOUS
 10
270.83846
 20
189.690823
 30
0.0
 11
278.83846
 21
189.690823
 31
0.0
  0
LINE
  5
18A14
  8
DANMEN
  6
CONTINUOUS
 10
284.566382
 20
180.690823
 30
0.0
 11
284.83846
 21
180.418745
 31
0.0
  0
LINE
  5
18A15
  8
DANMEN
  6
CONTINUOUS
 10
284.83846
 20
178.190823
 30
0.0
 11
284.83846
 21
182.690823
 31
0.0
  0
LINE
  5
18A16
  8
DANMEN
  6
CONTINUOUS
 10
285.338456
 20
177.690823
 30
0.0
 11
285.338456
 21
172.690823
 31
0.0
  0
LINE
  5
18A17
  8
DANMEN
  6
CONTINUOUS
 10
285.33846
 20
177.690823
 30
0.0
 11
287.138463
 21
177.690823
 31
0.0
  0
LINE
  5
18A18
  8
DANMEN
  6
CONTINUOUS
 10
284.83846
 20
179.205542
 30
0.0
 11
282.957435
 21
177.324517
 31
0.0
  0
ARC
  5
18A19
  8
DANMEN
  6
CONTINUOUS
 10
285.33846
 20
178.190823
 30
0.0
 40
0.5
 50
179.999964
 51
270.000001
  0
ARC
  5
18A1B
  8
DANMEN
  6
CONTINUOUS
 10
287.138463
 20
178.190823
 30
0.0
 40
0.5
 50
270.000018
 51
0.0
  0
ARC
  5
18A1E
  8
DANMEN
  6
CONTINUOUS
 10
298.33846
 20
178.190826
 30
0.0
 40
0.5
 50
179.999872
 51
269.999909
  0
LINE
  5
18A21
  8
DANMEN
  6
CONTINUOUS
 10
284.83846
 20
182.690823
 30
0.0
 11
285.688466
 21
182.690823
 31
0.0
  0
LINE
  5
18A25
  8
DANMEN
  6
CONTINUOUS
 10
299.788459
 20
182.690826
 30
0.0
 11
299.788459
 21
195.390823
 31
0.0
  0
LINE
  5
18A26
  8
DANMEN
  6
CONTINUOUS
 10
331.63846
 20
179.690823
 30
0.0
 11
331.63846
 21
205.690823
 31
0.0
  0
LINE
  5
18A27
  8
DANMEN
  6
CONTINUOUS
 10
314.38846
 20
177.933465
 30
0.0
 11
315.46541
 21
176.856514
 31
0.0
  0
LINE
  5
18A28
  8
DANMEN
  6
CONTINUOUS
 10
314.38846
 20
180.054786
 30
0.0
 11
317.303888
 21
177.139357
 31
0.0
  0
LINE
  5
18A29
  8
DANMEN
  6
CONTINUOUS
 10
315.50978
 20
180.690825
 30
0.0
 11
314.38846
 21
179.569504
 31
0.0
  0
LINE
  5
18A2A
  8
DANMEN
  6
CONTINUOUS
 10
317.6311
 20
180.690825
 30
0.0
 11
314.38846
 21
177.448184
 31
0.0
  0
LINE
  5
18A2B
  8
DANMEN
  6
CONTINUOUS
 10
314.388457
 20
176.690829
 30
0.0
 11
320.888458
 21
177.690829
 31
0.0
  0
LINE
  5
18A2C
  8
DANMEN
  6
CONTINUOUS
 10
313.88846
 20
189.690825
 30
0.0
 11
313.88846
 21
172.690823
 31
0.0
  0
LINE
  5
18A2D
  8
DANMEN
  6
CONTINUOUS
 10
306.88846
 20
189.690825
 30
0.0
 11
306.88846
 21
172.690823
 31
0.0
  0
LINE
  5
18A2E
  8
DANMEN
  6
CONTINUOUS
 10
306.38846
 20
189.690825
 30
0.0
 11
306.38846
 21
172.690823
 31
0.0
  0
LINE
  5
18A2F
  8
DANMEN
  6
CONTINUOUS
 10
314.38846
 20
189.690825
 30
0.0
 11
314.38846
 21
172.690823
 31
0.0
  0
LINE
  5
18A30
  8
DANMEN
  6
CONTINUOUS
 10
301.024499
 20
180.690825
 30
0.0
 11
304.776499
 21
176.938824
 31
0.0
  0
LINE
  5
18A31
  8
DANMEN
  6
CONTINUOUS
 10
303.145819
 20
180.690825
 30
0.0
 11
306.38846
 21
177.448184
 31
0.0
  0
LINE
  5
18A32
  8
DANMEN
  6
CONTINUOUS
 10
305.267139
 20
180.690825
 30
0.0
 11
306.38846
 21
179.569504
 31
0.0
  0
LINE
  5
18A33
  8
DANMEN
  6
CONTINUOUS
 10
300.660538
 20
180.690825
 30
0.0
 11
300.38846
 21
180.418747
 31
0.0
  0
LINE
  5
18A34
  8
DANMEN
  6
CONTINUOUS
 10
302.781858
 20
180.690825
 30
0.0
 11
300.38846
 21
178.297426
 31
0.0
  0
LINE
  5
18A35
  8
DANMEN
  6
CONTINUOUS
 10
304.903178
 20
180.690825
 30
0.0
 11
301.634554
 21
177.4222
 31
0.0
  0
LINE
  5
18A36
  8
DANMEN
  6
CONTINUOUS
 10
300.33846
 20
178.190827
 30
0.0
 11
300.33846
 21
182.690826
 31
0.0
  0
LINE
  5
18A37
  8
DANMEN
  6
CONTINUOUS
 10
299.838463
 20
177.690823
 30
0.0
 11
299.838463
 21
172.690823
 31
0.0
  0
LINE
  5
18A38
  8
DANMEN
  6
CONTINUOUS
 10
306.388455
 20
176.690822
 30
0.0
 11
299.888454
 21
177.690822
 31
0.0
  0
LINE
  5
18A39
  8
DANMEN
  6
CONTINUOUS
 10
300.38846
 20
179.205543
 30
0.0
 11
302.269485
 21
177.324518
 31
0.0
  0
ARC
  5
18A3B
  8
DANMEN
  6
CONTINUOUS
 10
299.83846
 20
178.190826
 30
0.0
 40
0.5
 50
270.0
 51
0.0
  0
LINE
  5
18A3C
  8
DANMEN
  6
CONTINUOUS
 10
306.38846
 20
180.054786
 30
0.0
 11
303.473031
 21
177.139357
 31
0.0
  0
LINE
  5
18A3D
  8
DANMEN
  6
CONTINUOUS
 10
306.38846
 20
177.933465
 30
0.0
 11
305.311509
 21
176.856514
 31
0.0
  0
LINE
  5
18A40
  8
DANMEN
  6
CONTINUOUS
 10
306.38846
 20
189.690825
 30
0.0
 11
314.38846
 21
189.690825
 31
0.0
  0
LINE
  5
18A41
  8
DANMEN
  6
CONTINUOUS
 10
299.788459
 20
182.690826
 30
0.0
 11
300.33846
 21
182.690826
 31
0.0
  0
LINE
  5
18A44
  8
DANMEN
  6
CONTINUOUS
 10
315.873741
 20
180.690825
 30
0.0
 11
319.142366
 21
177.4222
 31
0.0
  0
LINE
  5
18A45
  8
DANMEN
  6
CONTINUOUS
 10
317.995061
 20
180.690825
 30
0.0
 11
320.38846
 21
178.297426
 31
0.0
  0
LINE
  5
18A46
  8
DANMEN
  6
CONTINUOUS
 10
320.116382
 20
180.690825
 30
0.0
 11
320.38846
 21
180.418747
 31
0.0
  0
LINE
  5
18A47
  8
DANMEN
  6
CONTINUOUS
 10
319.752421
 20
180.690825
 30
0.0
 11
316.00042
 21
176.938824
 31
0.0
  0
LINE
  5
18A48
  8
DANMEN
  6
CONTINUOUS
 10
320.33846
 20
178.190824
 30
0.0
 11
320.33846
 21
182.690823
 31
0.0
  0
LINE
  5
18A49
  8
DANMEN
  6
CONTINUOUS
 10
321.83846
 20
179.690823
 30
0.0
 11
321.83846
 21
188.190823
 31
0.0
  0
LINE
  5
18A4A
  8
DANMEN
  6
CONTINUOUS
 10
321.83846
 20
179.690823
 30
0.0
 11
331.63846
 21
179.690823
 31
0.0
  0
LINE
  5
18A4B
  8
DANMEN
  6
CONTINUOUS
 10
320.838456
 20
177.690823
 30
0.0
 11
320.838456
 21
172.690823
 31
0.0
  0
LINE
  5
18A4C
  8
DANMEN
  6
CONTINUOUS
 10
320.38846
 20
179.205543
 30
0.0
 11
318.507435
 21
177.324518
 31
0.0
  0
ARC
  5
18A4E
  8
DANMEN
  6
CONTINUOUS
 10
320.83846
 20
178.190823
 30
0.0
 40
0.5
 50
180.0
 51
270.0
  0
LINE
  5
18A50
  8
DANMEN
  6
CONTINUOUS
 10
320.83846
 20
182.690823
 30
0.0
 11
320.83846
 21
187.690823
 31
0.0
  0
LINE
  5
18A53
  8
DANMEN
  6
CONTINUOUS
 10
320.83846
 20
182.690823
 30
0.0
 11
320.33846
 21
182.690823
 31
0.0
  0
ARC
  5
18A55
  8
DANMEN
  6
CONTINUOUS
 10
321.33846
 20
188.190823
 30
0.0
 40
0.5
 50
0.0
 51
90.0
  0
LINE
  5
18A56
  8
DANMEN
  6
CONTINUOUS
 10
321.33846
 20
188.690823
 30
0.0
 11
320.83846
 21
188.690823
 31
0.0
  0
ARC
  5
18A59
  8
DANMEN
  6
CONTINUOUS
 10
320.83846
 20
188.190823
 30
0.0
 40
0.5
 50
90.0
 51
180.0
  0
LINE
  5
18A5A
  8
DANMEN
  6
CONTINUOUS
 10
320.33846
 20
187.690823
 30
0.0
 11
320.33846
 21
188.190823
 31
0.0
  0
LINE
  5
18A5C
  8
DANMEN
  6
CONTINUOUS
 10
320.83846
 20
187.690823
 30
0.0
 11
320.33846
 21
187.690823
 31
0.0
  0
LINE
  5
18A5D
  8
DANMEN
  6
CONTINUOUS
 10
299.838459
 20
207.690823
 30
0.0
 11
331.63846
 21
207.690823
 31
0.0
  0
LINE
  5
18A5E
  8
DANMEN
  6
CONTINUOUS
 10
304.538466
 20
205.690823
 30
0.0
 11
331.63846
 21
205.690823
 31
0.0
  0
ARC
  5
18A5F
  8
DANMEN
  6
CONTINUOUS
 10
302.03264
 20
203.58406
 30
0.0
 40
0.3
 50
322.327843
 51
55.291951
  0
LINE
  5
18A60
  8
DANMEN
  6
CONTINUOUS
 10
303.43846
 20
202.950387
 30
0.0
 11
303.43846
 21
204.191717
 31
0.0
  0
LINE
  5
18A61
  8
DANMEN
  6
CONTINUOUS
 10
303.338466
 20
202.190823
 30
0.0
 11
303.338466
 21
205.690823
 31
0.0
  0
LINE
  5
18A62
  8
DANMEN
  6
CONTINUOUS
 10
299.788459
 20
199.690823
 30
0.0
 11
299.788459
 21
205.690823
 31
0.0
  0
LINE
  5
18A63
  8
DANMEN
  6
CONTINUOUS
 10
304.538466
 20
200.190823
 30
0.0
 11
304.538466
 21
205.690823
 31
0.0
  0
LINE
  5
18A64
  8
DANMEN
  6
CONTINUOUS
 10
301.48846
 20
196.390823
 30
0.0
 11
301.48846
 21
200.424847
 31
0.0
  0
LINE
  5
18A65
  8
DANMEN
  6
CONTINUOUS
 10
300.28846
 20
197.390823
 30
0.0
 11
300.28846
 21
199.372451
 31
0.0
  0
ARC
  5
18A66
  8
DANMEN
  6
CONTINUOUS
 10
299.546261
 20
198.190823
 30
0.0
 40
0.5
 50
270.0
 51
330.603827
  0
ARC
  5
18A68
  8
DANMEN
  6
CONTINUOUS
 10
300.98846
 20
196.390823
 30
0.0
 40
0.5
 50
270.0
 51
0.0
  0
LINE
  5
18A6B
  8
DANMEN
  6
CONTINUOUS
 10
299.78846
 20
197.390823
 30
0.0
 11
299.78846
 21
197.690823
 31
0.0
  0
LINE
  5
18A6C
  8
DANMEN
  6
CONTINUOUS
 10
299.78846
 20
197.390823
 30
0.0
 11
300.28846
 21
197.390823
 31
0.0
  0
LINE
  5
18A6D
  8
DANMEN
  6
CONTINUOUS
 10
300.288459
 20
195.890823
 30
0.0
 11
300.98846
 21
195.890823
 31
0.0
  0
ARC
  5
18A70
  8
DANMEN
  6
CONTINUOUS
 10
300.288459
 20
195.390823
 30
0.0
 40
0.5
 50
90.0
 51
180.0
  0
LINE
  5
18A73
  8
DANMEN
  6
CONTINUOUS
 10
301.48846
 20
200.424847
 30
0.0
 11
303.43846
 21
202.950387
 31
0.0
  0
ARC
  5
18A77
  8
DANMEN
  6
CONTINUOUS
 10
299.98846
 20
199.372451
 30
0.0
 40
0.3
 50
0.0
 51
63.881419
  0
LINE
  5
18A78
  8
DANMEN
  6
CONTINUOUS
 10
299.908128
 20
200.341618
 30
0.0
 11
302.270096
 21
203.400718
 31
0.0
  0
ARC
  5
18A7A
  8
DANMEN
  6
CONTINUOUS
 10
300.340644
 20
200.090759
 30
0.0
 40
0.5
 50
149.886267
 51
243.881419
  0
ARC
  5
18A7D
  8
DANMEN
  6
CONTINUOUS
 10
300.03846
 20
199.390823
 30
0.0
 40
0.3
 50
0.0
 51
90.0
  0
LINE
  5
18A7E
  8
DANMEN
  6
CONTINUOUS
 10
300.03846
 20
199.690823
 30
0.0
 11
299.788459
 21
199.690823
 31
0.0
  0
LINE
  5
18A7F
  8
DANMEN
  6
CONTINUOUS
 10
300.33846
 20
198.687068
 30
0.0
 11
299.981884
 21
197.9454
 31
0.0
  0
LINE
  5
18A80
  8
DANMEN
  6
CONTINUOUS
 10
300.33846
 20
199.390823
 30
0.0
 11
300.33846
 21
198.687068
 31
0.0
  0
LINE
  5
18A83
  8
DANMEN
  6
CONTINUOUS
 10
304.148368
 20
200.190823
 30
0.0
 11
304.538466
 21
200.190823
 31
0.0
  0
ARC
  5
18A84
  8
DANMEN
  6
CONTINUOUS
 10
304.148368
 20
200.690823
 30
0.0
 40
0.5
 50
191.309932
 51
270.0
  0
LINE
  5
18A85
  8
DANMEN
  6
CONTINUOUS
 10
303.338466
 20
202.190823
 30
0.0
 11
303.658077
 21
200.592765
 31
0.0
  0
LINE
  5
18A87
  8
DANMEN
  6
CONTINUOUS
 10
303.43846
 20
204.191717
 30
0.0
 11
302.123157
 21
205.10275
 31
0.0
  0
LINE
  5
18A88
  8
DANMEN
  6
CONTINUOUS
 10
299.788459
 20
205.690823
 30
0.0
 11
303.338466
 21
205.690823
 31
0.0
  0
LINE
  5
18A89
  8
DANMEN
  6
CONTINUOUS
 10
302.203458
 20
203.83068
 30
0.0
 11
301.553762
 21
204.280685
 31
0.0
  0
ARC
  5
18A8A
  8
DANMEN
  6
CONTINUOUS
 10
301.83846
 20
204.691717
 30
0.0
 40
0.5
 50
55.291951
 51
235.291951
  0
LINE
  5
18A93
  8
DANMEN
  6
CONTINUOUS
 10
269.353178
 20
254.690823
 30
0.0
 11
266.084554
 21
257.959448
 31
0.0
  0
LINE
  5
18A94
  8
DANMEN
  6
CONTINUOUS
 10
267.231858
 20
254.690823
 30
0.0
 11
264.83846
 21
257.084221
 31
0.0
  0
LINE
  5
18A95
  8
DANMEN
  6
CONTINUOUS
 10
265.474499
 20
254.690823
 30
0.0
 11
269.226499
 21
258.442824
 31
0.0
  0
LINE
  5
18A96
  8
DANMEN
  6
CONTINUOUS
 10
264.83846
 20
256.176104
 30
0.0
 11
266.719485
 21
258.057129
 31
0.0
  0
LINE
  5
18A97
  8
DANMEN
  6
CONTINUOUS
 10
270.838463
 20
258.690818
 30
0.0
 11
264.338461
 21
257.690818
 31
0.0
  0
LINE
  5
18A98
  8
DANMEN
  6
CONTINUOUS
 10
256.038457
 20
233.740826
 30
0.0
 11
273.538457
 21
233.740826
 31
0.0
  0
LINE
  5
18A99
  8
DANMEN
  6
CONTINUOUS
 10
255.988454
 20
235.690823
 30
0.0
 11
285.688466
 21
235.690823
 31
0.0
  0
LINE
  5
18A9A
  8
DANMEN
  6
CONTINUOUS
 10
264.338463
 20
262.0
 30
0.0
 11
264.338463
 21
257.690823
 31
0.0
  0
LINE
  5
18A9B
  8
DANMEN
  6
CONTINUOUS
 10
255.988454
 20
235.690823
 30
0.0
 11
255.988454
 21
255.740826
 31
0.0
  0
LINE
  5
18A9E
  8
DANMEN
  6
CONTINUOUS
 10
255.988454
 20
255.740826
 30
0.0
 11
263.83846
 21
255.740826
 31
0.0
  0
LINE
  5
18A9F
  8
DANMEN
  6
CONTINUOUS
 10
254.538457
 20
257.690823
 30
0.0
 11
264.33846
 21
257.690823
 31
0.0
  0
ARC
  5
18AA1
  8
DANMEN
  6
CONTINUOUS
 10
254.538457
 20
257.190823
 30
0.0
 40
0.5
 50
89.999982
 51
180.000019
  0
LINE
  5
18AA3
  8
DANMEN
  6
CONTINUOUS
 10
264.83846
 20
257.190823
 30
0.0
 11
264.83846
 21
252.690823
 31
0.0
  0
LINE
  5
18AA4
  8
DANMEN
  6
CONTINUOUS
 10
265.110538
 20
254.690823
 30
0.0
 11
264.83846
 21
254.962901
 31
0.0
  0
ARC
  5
18AA5
  8
DANMEN
  6
CONTINUOUS
 10
264.33846
 20
253.190823
 30
0.0
 40
0.5
 50
180.000019
 51
270.000001
  0
LINE
  5
18AA9
  8
DANMEN
  6
CONTINUOUS
 10
263.83846
 20
255.740826
 30
0.0
 11
263.83846
 21
253.190823
 31
0.0
  0
LINE
  5
18AAA
  8
DANMEN
  6
CONTINUOUS
 10
264.33846
 20
252.690823
 30
0.0
 11
264.83846
 21
252.690823
 31
0.0
  0
ARC
  5
18AAB
  8
DANMEN
  6
CONTINUOUS
 10
264.33846
 20
257.190823
 30
0.0
 40
0.5
 50
0.0
 51
89.999982
  0
LINE
  5
18AAD
  8
DANMEN
  6
CONTINUOUS
 10
313.86346
 20
262.0
 30
0.0
 11
313.86346
 21
245.690823
 31
0.0
  0
LINE
  5
18AAE
  8
DANMEN
  6
CONTINUOUS
 10
314.36346
 20
262.0
 30
0.0
 11
314.36346
 21
245.690823
 31
0.0
  0
LINE
  5
18AAF
  8
DANMEN
  6
CONTINUOUS
 10
306.86346
 20
262.0
 30
0.0
 11
306.86346
 21
245.690823
 31
0.0
  0
LINE
  5
18AB0
  8
DANMEN
  6
CONTINUOUS
 10
306.36346
 20
262.0
 30
0.0
 11
306.36346
 21
245.690823
 31
0.0
  0
LINE
  5
18AB1
  8
DANMEN
  6
CONTINUOUS
 10
271.33846
 20
245.690823
 30
0.0
 11
271.33846
 21
262.0
 31
0.0
  0
LINE
  5
18AB2
  8
DANMEN
  6
CONTINUOUS
 10
278.33846
 20
245.690823
 30
0.0
 11
278.33846
 21
262.0
 31
0.0
  0
LINE
  5
18AB3
  8
DANMEN
  6
CONTINUOUS
 10
278.83846
 20
245.690823
 30
0.0
 11
278.83846
 21
262.0
 31
0.0
  0
LINE
  5
18AB4
  8
DANMEN
  6
CONTINUOUS
 10
270.83846
 20
245.690823
 30
0.0
 11
270.83846
 21
262.0
 31
0.0
  0
LINE
  5
18AB5
  8
DANMEN
  6
CONTINUOUS
 10
320.838456
 20
262.0
 30
0.0
 11
320.838456
 21
257.690823
 31
0.0
  0
LINE
  5
18AB6
  8
DANMEN
  6
CONTINUOUS
 10
299.838463
 20
262.0
 30
0.0
 11
299.838463
 21
257.690823
 31
0.0
  0
LINE
  5
18AB7
  8
DANMEN
  6
CONTINUOUS
 10
285.338456
 20
262.0
 30
0.0
 11
285.338456
 21
257.690823
 31
0.0
  0
LINE
  5
18AB8
  8
DANMEN
  6
CONTINUOUS
 10
298.33846
 20
257.690823
 30
0.0
 11
299.83846
 21
257.690823
 31
0.0
  0
LINE
  5
18AB9
  8
DANMEN
  6
CONTINUOUS
 10
282.33846
 20
235.690823
 30
0.0
 11
282.33846
 21
245.690823
 31
0.0
  0
LINE
  5
18ABA
  8
DANMEN
  6
CONTINUOUS
 10
267.33846
 20
235.690823
 30
0.0
 11
267.33846
 21
245.690823
 31
0.0
  0
LINE
  5
18ABB
  8
DANMEN
  6
CONTINUOUS
 10
282.33846
 20
245.690823
 30
0.0
 11
267.33846
 21
235.690823
 31
0.0
  0
LINE
  5
18ABC
  8
DANMEN
  6
CONTINUOUS
 10
285.688466
 20
252.690823
 30
0.0
 11
285.688466
 21
235.690823
 31
0.0
  0
LINE
  5
18ABD
  8
DANMEN
  6
CONTINUOUS
 10
282.138463
 20
233.740826
 30
0.0
 11
285.638463
 21
233.740826
 31
0.0
  0
LINE
  5
18ABE
  8
DANMEN
  6
CONTINUOUS
 10
267.33846
 20
235.690823
 30
0.0
 11
282.33846
 21
235.690823
 31
0.0
  0
ARC
  5
18ABF
  8
DANMEN
  6
CONTINUOUS
 10
273.53846
 20
232.740826
 30
0.0
 40
1.0
 50
0.0
 51
90.0
  0
LINE
  5
18AC1
  8
DANMEN
  6
CONTINUOUS
 10
281.13846
 20
231.660517
 30
0.0
 11
281.13846
 21
232.740826
 31
0.0
  0
LINE
  5
18AC2
  8
DANMEN
  6
CONTINUOUS
 10
279.63846
 20
231.744762
 30
0.0
 11
279.63846
 21
232.990823
 31
0.0
  0
LINE
  5
18AC3
  8
DANMEN
  6
CONTINUOUS
 10
274.53846
 20
231.660517
 30
0.0
 11
274.53846
 21
232.740826
 31
0.0
  0
LINE
  5
18AC4
  8
DANMEN
  6
CONTINUOUS
 10
276.03846
 20
231.744762
 30
0.0
 11
276.03846
 21
232.990823
 31
0.0
  0
ARC
  5
18AC5
  8
DANMEN
  6
CONTINUOUS
 10
276.53846
 20
231.660517
 30
0.0
 40
2.0
 50
180.0
 51
231.706523
  0
ARC
  5
18AC6
  8
DANMEN
  6
CONTINUOUS
 10
276.53846
 20
230.653891
 30
0.0
 40
0.2
 50
0.0
 51
65.375682
  0
ARC
  5
18AC7
  8
DANMEN
  6
CONTINUOUS
 10
277.03846
 20
231.744762
 30
0.0
 40
1.0
 50
180.0
 51
245.375682
  0
LINE
  5
18AC8
  8
DANMEN
  6
CONTINUOUS
 10
276.73846
 20
230.390823
 30
0.0
 11
276.73846
 21
230.653891
 31
0.0
  0
LINE
  5
18ACA
  8
DANMEN
  6
CONTINUOUS
 10
275.29908
 20
230.090823
 30
0.0
 11
276.43846
 21
230.090823
 31
0.0
  0
ARC
  5
18ACB
  8
DANMEN
  6
CONTINUOUS
 10
276.43846
 20
230.390823
 30
0.0
 40
0.3
 50
270.0
 51
0.0
  0
LINE
  5
18ACD
  8
DANMEN
  6
CONTINUOUS
 10
278.93846
 20
230.390823
 30
0.0
 11
278.93846
 21
230.653891
 31
0.0
  0
ARC
  5
18ACE
  8
DANMEN
  6
CONTINUOUS
 10
278.63846
 20
231.744762
 30
0.0
 40
1.0
 50
294.624318
 51
0.0
  0
ARC
  5
18ACF
  8
DANMEN
  6
CONTINUOUS
 10
279.13846
 20
230.653891
 30
0.0
 40
0.2
 50
114.624318
 51
180.0
  0
ARC
  5
18AD0
  8
DANMEN
  6
CONTINUOUS
 10
279.13846
 20
231.660517
 30
0.0
 40
2.0
 50
308.293477
 51
0.0
  0
LINE
  5
18AD2
  8
DANMEN
  6
CONTINUOUS
 10
279.23846
 20
230.090823
 30
0.0
 11
280.377839
 21
230.090823
 31
0.0
  0
ARC
  5
18AD3
  8
DANMEN
  6
CONTINUOUS
 10
279.23846
 20
230.390823
 30
0.0
 40
0.3
 50
180.0
 51
270.0
  0
LINE
  5
18AD4
  8
DANMEN
  6
CONTINUOUS
 10
277.03846
 20
233.990823
 30
0.0
 11
278.63846
 21
233.990823
 31
0.0
  0
ARC
  5
18AD7
  8
DANMEN
  6
CONTINUOUS
 10
277.03846
 20
232.990823
 30
0.0
 40
1.0
 50
90.0
 51
180.0
  0
ARC
  5
18ADA
  8
DANMEN
  6
CONTINUOUS
 10
282.13846
 20
232.740826
 30
0.0
 40
1.0
 50
90.0
 51
180.0
  0
ARC
  5
18ADB
  8
DANMEN
  6
CONTINUOUS
 10
278.63846
 20
232.990823
 30
0.0
 40
1.0
 50
0.0
 51
90.0
  0
LINE
  5
18ADE
  8
DANMEN
  6
CONTINUOUS
 10
278.838464
 20
258.690826
 30
0.0
 11
285.338465
 21
257.690826
 31
0.0
  0
LINE
  5
18ADF
  8
DANMEN
  6
CONTINUOUS
 10
284.202421
 20
254.690823
 30
0.0
 11
280.45042
 21
258.442824
 31
0.0
  0
LINE
  5
18AE0
  8
DANMEN
  6
CONTINUOUS
 10
282.445061
 20
254.690823
 30
0.0
 11
284.83846
 21
257.084221
 31
0.0
  0
LINE
  5
18AE1
  8
DANMEN
  6
CONTINUOUS
 10
280.323741
 20
254.690823
 30
0.0
 11
283.592366
 21
257.959448
 31
0.0
  0
LINE
  5
18AE2
  8
DANMEN
  6
CONTINUOUS
 10
278.83846
 20
245.690823
 30
0.0
 11
270.83846
 21
245.690823
 31
0.0
  0
LINE
  5
18AE3
  8
DANMEN
  6
CONTINUOUS
 10
267.33846
 20
245.690823
 30
0.0
 11
282.33846
 21
245.690823
 31
0.0
  0
LINE
  5
18AE6
  8
DANMEN
  6
CONTINUOUS
 10
270.83846
 20
255.326862
 30
0.0
 11
267.923031
 21
258.24229
 31
0.0
  0
LINE
  5
18AE7
  8
DANMEN
  6
CONTINUOUS
 10
267.595819
 20
254.690823
 30
0.0
 11
270.83846
 21
257.933464
 31
0.0
  0
LINE
  5
18AE8
  8
DANMEN
  6
CONTINUOUS
 10
269.717139
 20
254.690823
 30
0.0
 11
270.83846
 21
255.812143
 31
0.0
  0
LINE
  5
18AE9
  8
DANMEN
  6
CONTINUOUS
 10
270.83846
 20
257.448182
 30
0.0
 11
269.761509
 21
258.525133
 31
0.0
  0
LINE
  5
18AEA
  8
DANMEN
  6
CONTINUOUS
 10
282.0811
 20
254.690823
 30
0.0
 11
278.83846
 21
257.933464
 31
0.0
  0
LINE
  5
18AEB
  8
DANMEN
  6
CONTINUOUS
 10
278.83846
 20
255.326862
 30
0.0
 11
281.753888
 21
258.24229
 31
0.0
  0
LINE
  5
18AEC
  8
DANMEN
  6
CONTINUOUS
 10
279.95978
 20
254.690823
 30
0.0
 11
278.83846
 21
255.812143
 31
0.0
  0
LINE
  5
18AF0
  8
DANMEN
  6
CONTINUOUS
 10
278.83846
 20
257.448182
 30
0.0
 11
279.91541
 21
258.525133
 31
0.0
  0
LINE
  5
18AF1
  8
DANMEN
  6
CONTINUOUS
 10
284.83846
 20
257.190823
 30
0.0
 11
284.83846
 21
252.690823
 31
0.0
  0
LINE
  5
18AF4
  8
DANMEN
  6
CONTINUOUS
 10
284.83846
 20
252.690823
 30
0.0
 11
285.688466
 21
252.690823
 31
0.0
  0
LINE
  5
18AF5
  8
DANMEN
  6
CONTINUOUS
 10
284.566382
 20
254.690823
 30
0.0
 11
284.83846
 21
254.962901
 31
0.0
  0
LINE
  5
18AF6
  8
DANMEN
  6
CONTINUOUS
 10
285.33846
 20
257.690823
 30
0.0
 11
287.138463
 21
257.690823
 31
0.0
  0
ARC
  5
18AF7
  8
DANMEN
  6
CONTINUOUS
 10
285.33846
 20
257.190823
 30
0.0
 40
0.5
 50
89.999982
 51
180.000019
  0
LINE
  5
18AF9
  8
DANMEN
  6
CONTINUOUS
 10
284.83846
 20
256.176104
 30
0.0
 11
282.957435
 21
258.057129
 31
0.0
  0
ARC
  5
18AFA
  8
DANMEN
  6
CONTINUOUS
 10
287.138463
 20
257.190823
 30
0.0
 40
0.5
 50
0.0
 51
89.999982
  0
ARC
  5
18AFC
  8
DANMEN
  6
CONTINUOUS
 10
298.33846
 20
257.190823
 30
0.0
 40
0.5
 50
89.999982
 51
180.000019
  0
LINE
  5
18AFD
  8
DANMEN
  6
CONTINUOUS
 10
317.863458
 20
235.690823
 30
0.0
 11
317.863458
 21
245.690823
 31
0.0
  0
LINE
  5
18AFE
  8
DANMEN
  6
CONTINUOUS
 10
302.863458
 20
235.690823
 30
0.0
 11
302.863458
 21
245.690823
 31
0.0
  0
LINE
  5
18AFF
  8
DANMEN
  6
CONTINUOUS
 10
317.863458
 20
245.690823
 30
0.0
 11
302.863458
 21
235.690823
 31
0.0
  0
LINE
  5
18B00
  8
DANMEN
  6
CONTINUOUS
 10
331.63846
 20
235.690823
 30
0.0
 11
331.63846
 21
255.690823
 31
0.0
  0
LINE
  5
18B01
  8
DANMEN
  6
CONTINUOUS
 10
299.838459
 20
252.690823
 30
0.0
 11
299.838459
 21
235.690823
 31
0.0
  0
LINE
  5
18B02
  8
DANMEN
  6
CONTINUOUS
 10
302.863458
 20
235.690823
 30
0.0
 11
317.863458
 21
235.690823
 31
0.0
  0
LINE
  5
18B03
  8
DANMEN
  6
CONTINUOUS
 10
313.138464
 20
233.690826
 30
0.0
 11
331.63846
 21
233.690826
 31
0.0
  0
LINE
  5
18B04
  8
DANMEN
  6
CONTINUOUS
 10
299.838459
 20
235.690823
 30
0.0
 11
331.63846
 21
235.690823
 31
0.0
  0
LINE
  5
18B05
  8
DANMEN
  6
CONTINUOUS
 10
307.438459
 20
230.090824
 30
0.0
 11
306.299079
 21
230.090824
 31
0.0
  0
ARC
  5
18B06
  8
DANMEN
  6
CONTINUOUS
 10
308.038459
 20
231.744762
 30
0.0
 40
1.0
 50
179.999974
 51
245.375656
  0
ARC
  5
18B07
  8
DANMEN
  6
CONTINUOUS
 10
308.03846
 20
232.990823
 30
0.0
 40
1.0
 50
89.999974
 51
179.999974
  0
LINE
  5
18B08
  8
DANMEN
  6
CONTINUOUS
 10
307.038459
 20
231.744763
 30
0.0
 11
307.03846
 21
232.990824
 31
0.0
  0
ARC
  5
18B09
  8
DANMEN
  6
CONTINUOUS
 10
304.53846
 20
232.690826
 30
0.0
 40
1.0
 50
0.0
 51
90.0
  0
ARC
  5
18B0A
  8
DANMEN
  6
CONTINUOUS
 10
307.538459
 20
231.660517
 30
0.0
 40
2.0
 50
179.999974
 51
231.706497
  0
LINE
  5
18B0B
  8
DANMEN
  6
CONTINUOUS
 10
305.538459
 20
231.660518
 30
0.0
 11
305.53846
 21
232.690825
 31
0.0
  0
LINE
  5
18B0C
  8
DANMEN
  6
CONTINUOUS
 10
304.53846
 20
233.690826
 30
0.0
 11
299.838459
 21
233.690826
 31
0.0
  0
LINE
  5
18B10
  8
DANMEN
  6
CONTINUOUS
 10
304.36346
 20
235.690818
 30
0.0
 11
306.706552
 21
235.690818
 31
0.0
  0
LINE
  5
18B12
  8
DANMEN
  6
CONTINUOUS
 10
310.638464
 20
231.744763
 30
0.0
 11
310.638464
 21
232.990824
 31
0.0
  0
ARC
  5
18B13
  8
DANMEN
  6
CONTINUOUS
 10
313.138464
 20
232.690826
 30
0.0
 40
1.0
 50
90.0
 51
180.0
  0
LINE
  5
18B14
  8
DANMEN
  6
CONTINUOUS
 10
310.238465
 20
230.090824
 30
0.0
 11
311.377845
 21
230.090824
 31
0.0
  0
LINE
  5
18B15
  8
DANMEN
  6
CONTINUOUS
 10
309.938465
 20
230.390823
 30
0.0
 11
309.938465
 21
230.653891
 31
0.0
  0
ARC
  5
18B16
  8
DANMEN
  6
CONTINUOUS
 10
309.638464
 20
231.744762
 30
0.0
 40
1.0
 50
294.624344
 51
0.000026
  0
ARC
  5
18B17
  8
DANMEN
  6
CONTINUOUS
 10
310.138465
 20
230.653892
 30
0.0
 40
0.2
 50
114.624344
 51
180.000026
  0
ARC
  5
18B18
  8
DANMEN
  6
CONTINUOUS
 10
310.238465
 20
230.390824
 30
0.0
 40
0.3
 50
180.000026
 51
270.000026
  0
ARC
  5
18B19
  8
DANMEN
  6
CONTINUOUS
 10
307.438459
 20
230.390824
 30
0.0
 40
0.3
 50
269.999974
 51
359.999974
  0
ARC
  5
18B1A
  8
DANMEN
  6
CONTINUOUS
 10
307.538459
 20
230.653892
 30
0.0
 40
0.2
 50
359.999974
 51
65.375656
  0
LINE
  5
18B1B
  8
DANMEN
  6
CONTINUOUS
 10
307.738459
 20
230.390823
 30
0.0
 11
307.738459
 21
230.653891
 31
0.0
  0
ARC
  5
18B1C
  8
DANMEN
  6
CONTINUOUS
 10
310.138464
 20
231.660517
 30
0.0
 40
2.0
 50
308.293503
 51
0.000026
  0
LINE
  5
18B1D
  8
DANMEN
  6
CONTINUOUS
 10
312.138464
 20
231.660518
 30
0.0
 11
312.138464
 21
232.690825
 31
0.0
  0
ARC
  5
18B1F
  8
DANMEN
  6
CONTINUOUS
 10
309.638464
 20
232.990823
 30
0.0
 40
1.0
 50
0.000026
 51
90.000026
  0
LINE
  5
18B20
  8
DANMEN
  6
CONTINUOUS
 10
308.038463
 20
233.990823
 30
0.0
 11
309.638463
 21
233.990823
 31
0.0
  0
LINE
  5
18B23
  8
DANMEN
  6
CONTINUOUS
 10
314.363464
 20
258.690823
 30
0.0
 11
320.863465
 21
257.690823
 31
0.0
  0
LINE
  5
18B24
  8
DANMEN
  6
CONTINUOUS
 10
302.863458
 20
245.690823
 30
0.0
 11
317.863458
 21
245.690823
 31
0.0
  0
LINE
  5
18B25
  8
DANMEN
  6
CONTINUOUS
 10
317.6061
 20
254.69082
 30
0.0
 11
314.36346
 21
257.933461
 31
0.0
  0
LINE
  5
18B26
  8
DANMEN
  6
CONTINUOUS
 10
315.48478
 20
254.69082
 30
0.0
 11
314.36346
 21
255.81214
 31
0.0
  0
LINE
  5
18B27
  8
DANMEN
  6
CONTINUOUS
 10
314.36346
 20
255.326859
 30
0.0
 11
317.278888
 21
258.242287
 31
0.0
  0
LINE
  5
18B28
  8
DANMEN
  6
CONTINUOUS
 10
314.36346
 20
257.448179
 30
0.0
 11
315.44041
 21
258.52513
 31
0.0
  0
LINE
  5
18B29
  8
DANMEN
  6
CONTINUOUS
 10
306.36346
 20
245.690823
 30
0.0
 11
314.36346
 21
245.690823
 31
0.0
  0
LINE
  5
18B2B
  8
DANMEN
  6
CONTINUOUS
 10
300.33846
 20
257.190823
 30
0.0
 11
300.33846
 21
252.690823
 31
0.0
  0
LINE
  5
18B2C
  8
DANMEN
  6
CONTINUOUS
 10
306.36346
 20
255.326859
 30
0.0
 11
303.448031
 21
258.242287
 31
0.0
  0
LINE
  5
18B2D
  8
DANMEN
  6
CONTINUOUS
 10
304.878178
 20
254.69082
 30
0.0
 11
301.609554
 21
257.959445
 31
0.0
  0
LINE
  5
18B2E
  8
DANMEN
  6
CONTINUOUS
 10
302.756858
 20
254.69082
 30
0.0
 11
300.36346
 21
257.084218
 31
0.0
  0
LINE
  5
18B2F
  8
DANMEN
  6
CONTINUOUS
 10
303.120819
 20
254.69082
 30
0.0
 11
306.36346
 21
257.933461
 31
0.0
  0
LINE
  5
18B30
  8
DANMEN
  6
CONTINUOUS
 10
300.999499
 20
254.69082
 30
0.0
 11
304.751499
 21
258.442821
 31
0.0
  0
LINE
  5
18B31
  8
DANMEN
  6
CONTINUOUS
 10
299.838459
 20
252.690823
 30
0.0
 11
300.33846
 21
252.690823
 31
0.0
  0
LINE
  5
18B32
  8
DANMEN
  6
CONTINUOUS
 10
300.635538
 20
254.69082
 30
0.0
 11
300.36346
 21
254.962898
 31
0.0
  0
LINE
  5
18B33
  8
DANMEN
  6
CONTINUOUS
 10
305.242139
 20
254.69082
 30
0.0
 11
306.36346
 21
255.81214
 31
0.0
  0
LINE
  5
18B34
  8
DANMEN
  6
CONTINUOUS
 10
306.363463
 20
258.690815
 30
0.0
 11
299.863461
 21
257.690815
 31
0.0
  0
ARC
  5
18B35
  8
DANMEN
  6
CONTINUOUS
 10
299.83846
 20
257.190823
 30
0.0
 40
0.5
 50
0.0
 51
89.999982
  0
LINE
  5
18B36
  8
DANMEN
  6
CONTINUOUS
 10
300.36346
 20
256.176101
 30
0.0
 11
302.244485
 21
258.057126
 31
0.0
  0
LINE
  5
18B37
  8
DANMEN
  6
CONTINUOUS
 10
306.36346
 20
257.448179
 30
0.0
 11
305.286509
 21
258.52513
 31
0.0
  0
LINE
  5
18B3A
  8
DANMEN
  6
CONTINUOUS
 10
321.83846
 20
255.690823
 30
0.0
 11
321.83846
 21
247.190823
 31
0.0
  0
LINE
  5
18B3B
  8
DANMEN
  6
CONTINUOUS
 10
320.83846
 20
252.690823
 30
0.0
 11
320.83846
 21
247.690823
 31
0.0
  0
ARC
  5
18B3E
  8
DANMEN
  6
CONTINUOUS
 10
321.33846
 20
247.190823
 30
0.0
 40
0.5
 50
270.0
 51
0.0
  0
LINE
  5
18B3F
  8
DANMEN
  6
CONTINUOUS
 10
321.33846
 20
246.690823
 30
0.0
 11
320.83846
 21
246.690823
 31
0.0
  0
ARC
  5
18B42
  8
DANMEN
  6
CONTINUOUS
 10
320.83846
 20
247.190823
 30
0.0
 40
0.5
 50
180.0
 51
270.0
  0
LINE
  5
18B43
  8
DANMEN
  6
CONTINUOUS
 10
320.33846
 20
247.690823
 30
0.0
 11
320.33846
 21
247.190823
 31
0.0
  0
LINE
  5
18B45
  8
DANMEN
  6
CONTINUOUS
 10
320.83846
 20
247.690823
 30
0.0
 11
320.33846
 21
247.690823
 31
0.0
  0
LINE
  5
18B46
  8
DANMEN
  6
CONTINUOUS
 10
321.83846
 20
255.690823
 30
0.0
 11
331.63846
 21
255.690823
 31
0.0
  0
LINE
  5
18B47
  8
DANMEN
  6
CONTINUOUS
 10
320.33846
 20
257.190822
 30
0.0
 11
320.33846
 21
252.690823
 31
0.0
  0
LINE
  5
18B48
  8
DANMEN
  6
CONTINUOUS
 10
319.727421
 20
254.69082
 30
0.0
 11
315.97542
 21
258.442821
 31
0.0
  0
LINE
  5
18B49
  8
DANMEN
  6
CONTINUOUS
 10
317.970061
 20
254.69082
 30
0.0
 11
320.36346
 21
257.084218
 31
0.0
  0
LINE
  5
18B4A
  8
DANMEN
  6
CONTINUOUS
 10
315.848741
 20
254.69082
 30
0.0
 11
319.117366
 21
257.959445
 31
0.0
  0
LINE
  5
18B4D
  8
DANMEN
  6
CONTINUOUS
 10
320.83846
 20
252.690823
 30
0.0
 11
320.33846
 21
252.690823
 31
0.0
  0
LINE
  5
18B4F
  8
DANMEN
  6
CONTINUOUS
 10
320.091382
 20
254.69082
 30
0.0
 11
320.36346
 21
254.962898
 31
0.0
  0
LINE
  5
18B50
  8
DANMEN
  6
CONTINUOUS
 10
320.36346
 20
256.176101
 30
0.0
 11
318.482435
 21
258.057126
 31
0.0
  0
ARC
  5
18B51
  8
DANMEN
  6
CONTINUOUS
 10
320.83846
 20
257.190823
 30
0.0
 40
0.5
 50
90.0
 51
180.0
  0
LINE
  5
18B53
  8
DANMEN
  6
CONTINUOUS
 10
335.83846
 20
262.0
 30
0.0
 11
335.83846
 21
172.690823
 31
0.0
  0
LINE
  5
18B54
  8
SUNPO
  6
CONTINUOUS
 10
19.5
 20
175.0
 30
0.0
 11
19.5
 21
225.0
 31
0.0
  0
LINE
  5
18B55
  8
DANMEN
  6
CONTINUOUS
 10
333.63846
 20
178.190823
 30
0.0
 11
333.63846
 21
257.190823
 31
0.0
  0
LINE
  5
18B56
  8
DANMEN
  6
CONTINUOUS
 10
398.850006
 20
154.350006
 30
0.0
 11
392.149994
 21
154.350006
 31
0.0
  0
LINE
  5
18B57
  8
DANMEN
  6
CONTINUOUS
 10
400.0
 20
156.0
 30
0.0
 11
376.0
 21
156.0
 31
0.0
  0
LINE
  5
18B58
  8
DANMEN
  6
CONTINUOUS
 10
375.5
 20
156.0
 30
0.0
 11
355.5
 21
156.0
 31
0.0
  0
LINE
  5
18B59
  8
DANMEN
  6
CONTINUOUS
 10
355.5
 20
159.000003
 30
0.0
 11
355.5
 21
154.800003
 31
0.0
  0
LINE
  5
18B5B
  8
DANMEN
  6
CONTINUOUS
 10
351.100006
 20
157.800003
 30
0.0
 11
355.5
 21
157.800003
 31
0.0
  0
LINE
  5
18B5C
  8
DANMEN
  6
CONTINUOUS
 10
351.100006
 20
159.000003
 30
0.0
 11
355.5
 21
159.000003
 31
0.0
  0
ARC
  5
18B61
  8
DANMEN
  6
CONTINUOUS
 10
351.100006
 20
158.399994
 30
0.0
 40
0.6
 50
89.999963
 51
269.999982
  0
LINE
  5
18B62
  8
DANMEN
  6
CONTINUOUS
 10
388.5
 20
154.350006
 30
0.0
 11
376.0
 21
154.350006
 31
0.0
  0
ARC
  5
18B64
  8
DANMEN
  6
CONTINUOUS
 10
376.0
 20
155.5
 30
0.0
 40
0.5
 50
90.000037
 51
180.000019
  0
LINE
  5
18B65
  8
DANMEN
  6
CONTINUOUS
 10
375.5
 20
155.5
 30
0.0
 11
375.5
 21
154.850006
 31
0.0
  0
ARC
  5
18B66
  8
DANMEN
  6
CONTINUOUS
 10
376.0
 20
154.850006
 30
0.0
 40
0.5
 50
180.0
 51
270.0
  0
LINE
  5
18B67
  8
DANMEN
  6
CONTINUOUS
 10
390.5
 20
154.800003
 30
0.0
 11
388.5
 21
154.800003
 31
0.0
  0
LINE
  5
18B6A
  8
DANMEN
  6
CONTINUOUS
 10
388.5
 20
154.800003
 30
0.0
 11
388.5
 21
154.350006
 31
0.0
  0
ARC
  5
18B6D
  8
DANMEN
  6
CONTINUOUS
 10
333.13846
 20
178.190823
 30
0.0
 40
0.5
 50
270.0
 51
0.0
  0
LINE
  5
18B6E
  8
SUNPO
  6
CONTINUOUS
 10
32.0
 20
165.0
 30
0.0
 11
19.5
 21
165.0
 31
0.0
  0
LINE
  5
18B6F
  8
DANMEN
  6
CONTINUOUS
 10
398.850006
 20
154.350006
 30
0.0
 11
398.850006
 21
150.5
 31
0.0
  0
LINE
  5
18B70
  8
DANMEN
  6
CONTINUOUS
 10
400.5
 20
155.5
 30
0.0
 11
400.5
 21
150.5
 31
0.0
  0
ARC
  5
18B73
  8
DANMEN
  6
CONTINUOUS
 10
399.350006
 20
150.5
 30
0.0
 40
0.5
 50
180.000019
 51
270.000001
  0
ARC
  5
18B74
  8
DANMEN
  6
CONTINUOUS
 10
400.0
 20
150.5
 30
0.0
 40
0.5
 50
270.000018
 51
359.999981
  0
LINE
  5
18B75
  8
DANMEN
  6
CONTINUOUS
 10
400.0
 20
150.0
 30
0.0
 11
399.350006
 21
150.0
 31
0.0
  0
ARC
  5
18B77
  8
DANMEN
  6
CONTINUOUS
 10
400.0
 20
155.5
 30
0.0
 40
0.5
 50
0.0
 51
89.999982
  0
ARC
  5
18B79
  8
SUNPO
  6
BYBLOCK
 10
19.5
 20
165.0
 30
0.0
 40
0.145
 50
90.0
 51
270.0
  0
ARC
  5
18B7A
  8
SUNPO
  6
BYBLOCK
 10
19.5
 20
165.0
 30
0.0
 40
0.145
 50
270.0
 51
90.0
  0
ARC
  5
18B7B
  8
SUNPO
  6
BYBLOCK
 10
33.5
 20
155.5
 30
0.0
 40
0.145
 50
180.0
 51
0.0
  0
ARC
  5
18B7C
  8
SUNPO
  6
BYBLOCK
 10
33.5
 20
155.5
 30
0.0
 40
0.145
 50
0.0
 51
180.0
  0
TEXT
  5
18B7D
  8
SUNPO
  6
CONTINUOUS
 10
54.678385
 20
156.5
 30
0.0
 40
2.5
  1
38
  7
MX_NOTE_STANDARD
  0
LINE
  5
18B7E
  8
SUNPO
  6
CONTINUOUS
 10
33.5
 20
170.428279
 30
0.0
 11
27.513333
 21
170.428279
 31
0.0
  0
LINE
  5
18B7F
  8
SUNPO
  6
CONTINUOUS
 10
32.0
 20
175.0
 30
0.0
 11
19.5
 21
175.0
 31
0.0
  0
ARC
  5
18B80
  8
SUNPO
  6
BYBLOCK
 10
19.5
 20
175.0
 30
0.0
 40
0.145
 50
270.0
 51
90.0
  0
ARC
  5
18B81
  8
SUNPO
  6
BYBLOCK
 10
19.5
 20
175.0
 30
0.0
 40
0.145
 50
90.0
 51
270.0
  0
TEXT
  5
18B82
  8
SUNPO
  6
CONTINUOUS
 10
28.513333
 20
171.428279
 30
0.0
 40
2.5
  1
7
  7
MX_NOTE_STANDARD
  0
TEXT
  5
18B83
  8
SUNPO
  6
CONTINUOUS
 10
18.5
 20
198.125
 30
0.0
 40
2.5
  1
50
 50
90.0
  7
MX_NOTE_STANDARD
  0
LINE
  5
18B84
  8
SUNPO
  6
CONTINUOUS
 10
40.5
 20
183.5
 30
0.0
 11
40.5
 21
170.428279
 31
0.0
  0
LINE
  5
18B85
  8
SUNPO
  6
CONTINUOUS
 10
40.5
 20
170.428279
 30
0.0
 11
33.5
 21
170.428279
 31
0.0
  0
ARC
  5
18B86
  8
SUNPO
  6
BYBLOCK
 10
33.5
 20
170.428279
 30
0.0
 40
0.145
 50
180.0
 51
0.0
  0
ARC
  5
18B87
  8
SUNPO
  6
BYBLOCK
 10
33.5
 20
170.428279
 30
0.0
 40
0.145
 50
0.0
 51
180.0
  0
ARC
  5
18B88
  8
SUNPO
  6
BYBLOCK
 10
40.5
 20
170.428279
 30
0.0
 40
0.145
 50
0.0
 51
180.0
  0
ARC
  5
18B89
  8
SUNPO
  6
BYBLOCK
 10
40.5
 20
170.428279
 30
0.0
 40
0.145
 50
180.0
 51
0.0
  0
ARC
  5
18B8A
  8
SUNPO
  6
BYBLOCK
 10
40.5
 20
170.428279
 30
0.0
 40
0.145
 50
180.0
 51
0.0
  0
ARC
  5
18B8B
  8
SUNPO
  6
BYBLOCK
 10
40.5
 20
170.428279
 30
0.0
 40
0.145
 50
0.0
 51
180.0
  0
ARC
  5
18B8C
  8
DANMEN
  6
CONTINUOUS
 10
333.13846
 20
257.190823
 30
0.0
 40
0.5
 50
0.0
 51
90.0
  0
LINE
  5
18B8D
  8
SUNPO
  6
CONTINUOUS
 10
39.0
 20
260.0
 30
0.0
 11
19.5
 21
260.0
 31
0.0
  0
LINE
  5
18B8E
  8
SUNPO
  6
CONTINUOUS
 10
39.0
 20
225.0
 30
0.0
 11
19.5
 21
225.0
 31
0.0
  0
LINE
  5
18B8F
  8
SUNPO
  6
CONTINUOUS
 10
19.5
 20
225.0
 30
0.0
 11
19.5
 21
260.0
 31
0.0
  0
ARC
  5
18B90
  8
SUNPO
  6
BYBLOCK
 10
19.5
 20
225.0
 30
0.0
 40
0.145
 50
270.0
 51
90.0
  0
ARC
  5
18B91
  8
SUNPO
  6
BYBLOCK
 10
19.5
 20
225.0
 30
0.0
 40
0.145
 50
90.0
 51
270.0
  0
ARC
  5
18B92
  8
SUNPO
  6
BYBLOCK
 10
19.5
 20
225.0
 30
0.0
 40
0.145
 50
90.0
 51
270.0
  0
ARC
  5
18B93
  8
SUNPO
  6
BYBLOCK
 10
19.5
 20
225.0
 30
0.0
 40
0.145
 50
270.0
 51
90.0
  0
TEXT
  5
18B94
  8
SUNPO
  6
CONTINUOUS
 10
18.5
 20
240.416667
 30
0.0
 40
2.5
  1
35
 50
90.0
  7
MX_NOTE_STANDARD
  0
ARC
  5
18B95
  8
SUNPO
  6
BYBLOCK
 10
19.5
 20
260.0
 30
0.0
 40
0.145
 50
90.0
 51
270.0
  0
ARC
  5
18B96
  8
SUNPO
  6
BYBLOCK
 10
19.5
 20
260.0
 30
0.0
 40
0.145
 50
270.0
 51
90.0
  0
LINE
  5
18B97
  8
SUNPO
  6
CONTINUOUS
 10
173.5
 20
165.527474
 30
0.0
 11
223.5
 21
165.527474
 31
0.0
  0
LINE
  5
18B98
  8
SUNPO
  6
CONTINUOUS
 10
154.5
 20
225.0
 30
0.0
 11
154.5
 21
170.0
 31
0.0
  0
LINE
  5
18B99
  8
SUNPO
  6
CONTINUOUS
 10
143.185645
 20
225.0
 30
0.0
 11
143.185645
 21
175.0
 31
0.0
  0
LINE
  5
18B9A
  8
SUNPO
  6
CONTINUOUS
 10
134.721192
 20
225.0
 30
0.0
 11
134.721192
 21
186.999997
 31
0.0
  0
LINE
  5
18B9B
  8
SUNPO
  6
CONTINUOUS
 10
118.999999
 20
165.0
 30
0.0
 11
143.185645
 21
165.0
 31
0.0
  0
LINE
  5
18B9C
  8
SUNPO
  6
CONTINUOUS
 10
118.999999
 20
175.0
 30
0.0
 11
143.185645
 21
175.0
 31
0.0
  0
LINE
  5
18B9D
  8
SUNPO
  6
CONTINUOUS
 10
119.0
 20
186.999997
 30
0.0
 11
134.721192
 21
186.999997
 31
0.0
  0
LINE
  5
18B9E
  8
SUNPO
  6
CONTINUOUS
 10
118.999999
 20
133.000003
 30
0.0
 11
143.185645
 21
133.000003
 31
0.0
  0
LINE
  5
18B9F
  8
SUNPO
  6
CONTINUOUS
 10
119.0
 20
133.000003
 30
0.0
 11
134.721192
 21
133.000003
 31
0.0
  0
LINE
  5
18BA0
  8
SUNPO
  6
CONTINUOUS
 10
117.5
 20
155.5
 30
0.0
 11
79.5
 21
155.5
 31
0.0
  0
LINE
  5
18BA1
  8
SUNPO
  6
CONTINUOUS
 10
79.5
 20
155.5
 30
0.0
 11
71.5
 21
155.5
 31
0.0
  0
ARC
  5
18BA2
  8
SUNPO
  6
BYBLOCK
 10
79.5
 20
155.5
 30
0.0
 40
0.145
 50
0.0
 51
180.0
  0
ARC
  5
18BA3
  8
SUNPO
  6
BYBLOCK
 10
79.5
 20
155.5
 30
0.0
 40
0.145
 50
180.0
 51
0.0
  0
ARC
  5
18BA4
  8
SUNPO
  6
BYBLOCK
 10
79.5
 20
155.5
 30
0.0
 40
0.145
 50
180.0
 51
0.0
  0
ARC
  5
18BA5
  8
SUNPO
  6
BYBLOCK
 10
79.5
 20
155.5
 30
0.0
 40
0.145
 50
0.0
 51
180.0
  0
TEXT
  5
18BA6
  8
SUNPO
  6
CONTINUOUS
 10
74.666667
 20
156.5
 30
0.0
 40
2.5
  1
8
  7
MX_NOTE_STANDARD
  0
ARC
  5
18BA7
  8
SUNPO
  6
BYBLOCK
 10
71.5
 20
155.5
 30
0.0
 40
0.145
 50
180.0
 51
0.0
  0
ARC
  5
18BA8
  8
SUNPO
  6
BYBLOCK
 10
71.5
 20
155.5
 30
0.0
 40
0.145
 50
0.0
 51
180.0
  0
ARC
  5
18BA9
  8
SUNPO
  6
BYBLOCK
 10
71.5
 20
155.5
 30
0.0
 40
0.145
 50
0.0
 51
180.0
  0
ARC
  5
18BAA
  8
SUNPO
  6
BYBLOCK
 10
71.5
 20
155.5
 30
0.0
 40
0.145
 50
180.0
 51
0.0
  0
TEXT
  5
18BAB
  8
SUNPO
  6
CONTINUOUS
 10
96.416667
 20
156.5
 30
0.0
 40
2.5
  1
38
  7
MX_NOTE_STANDARD
  0
ARC
  5
18BAC
  8
SUNPO
  6
BYBLOCK
 10
117.5
 20
155.5
 30
0.0
 40
0.145
 50
0.0
 51
180.0
  0
ARC
  5
18BAD
  8
SUNPO
  6
BYBLOCK
 10
117.5
 20
155.5
 30
0.0
 40
0.145
 50
180.0
 51
0.0
  0
TEXT
  5
18BAE
  8
SUNPO
  6
CONTINUOUS
 10
75.307449
 20
171.428279
 30
0.0
 40
2.5
  1
70
  7
MX_NOTE_STANDARD
  0
LINE
  5
18BAF
  8
SUNPO
  6
CONTINUOUS
 10
110.5
 20
208.649997
 30
0.0
 11
110.5
 21
170.428279
 31
0.0
  0
LINE
  5
18BB0
  8
SUNPO
  6
CONTINUOUS
 10
117.5
 20
170.428279
 30
0.0
 11
110.5
 21
170.428279
 31
0.0
  0
LINE
  5
18BB1
  8
SUNPO
  6
CONTINUOUS
 10
110.5
 20
174.0
 30
0.0
 11
110.5
 21
170.428279
 31
0.0
  0
ARC
  5
18BB2
  8
SUNPO
  6
BYBLOCK
 10
110.5
 20
170.428279
 30
0.0
 40
0.145
 50
180.0
 51
0.0
  0
ARC
  5
18BB3
  8
SUNPO
  6
BYBLOCK
 10
110.5
 20
170.428279
 30
0.0
 40
0.145
 50
0.0
 51
180.0
  0
ARC
  5
18BB4
  8
SUNPO
  6
BYBLOCK
 10
110.5
 20
170.428279
 30
0.0
 40
0.145
 50
0.0
 51
180.0
  0
ARC
  5
18BB5
  8
SUNPO
  6
BYBLOCK
 10
110.5
 20
170.428279
 30
0.0
 40
0.145
 50
180.0
 51
0.0
  0
TEXT
  5
18BB6
  8
SUNPO
  6
CONTINUOUS
 10
113.166667
 20
171.428279
 30
0.0
 40
2.5
  1
7
  7
MX_NOTE_STANDARD
  0
LINE
  5
18BB7
  8
SUNPO
  6
CONTINUOUS
 10
117.5
 20
169.5
 30
0.0
 11
117.5
 21
170.428279
 31
0.0
  0
ARC
  5
18BB8
  8
SUNPO
  6
BYBLOCK
 10
117.5
 20
170.428279
 30
0.0
 40
0.145
 50
0.0
 51
180.0
  0
ARC
  5
18BB9
  8
SUNPO
  6
BYBLOCK
 10
117.5
 20
170.428279
 30
0.0
 40
0.145
 50
180.0
 51
0.0
  0
TEXT
  5
18BBA
  8
SUNPO
  6
CONTINUOUS
 10
171.166667
 20
166.527474
 30
0.0
 40
2.5
  1
3
  7
MX_NOTE_STANDARD
  0
LINE
  5
18BBB
  8
SUNPO
  6
CONTINUOUS
 10
143.185645
 20
165.0
 30
0.0
 11
143.185645
 21
133.000003
 31
0.0
  0
ARC
  5
18BBC
  8
SUNPO
  6
BYBLOCK
 10
134.721192
 20
133.000003
 30
0.0
 40
0.145
 50
90.0
 51
270.0
  0
ARC
  5
18BBD
  8
SUNPO
  6
BYBLOCK
 10
134.721192
 20
133.000003
 30
0.0
 40
0.145
 50
270.0
 51
90.0
  0
ARC
  5
18BBE
  8
SUNPO
  6
BYBLOCK
 10
143.185645
 20
133.000003
 30
0.0
 40
0.145
 50
270.0
 51
90.0
  0
ARC
  5
18BBF
  8
SUNPO
  6
BYBLOCK
 10
143.185645
 20
133.000003
 30
0.0
 40
0.145
 50
90.0
 51
270.0
  0
ARC
  5
18BC0
  8
SUNPO
  6
BYBLOCK
 10
143.185645
 20
133.000003
 30
0.0
 40
0.145
 50
90.0
 51
270.0
  0
ARC
  5
18BC1
  8
SUNPO
  6
BYBLOCK
 10
143.185645
 20
133.000003
 30
0.0
 40
0.145
 50
270.0
 51
90.0
  0
TEXT
  5
18BC2
  8
SUNPO
  6
CONTINUOUS
 10
142.185645
 20
146.916669
 30
0.0
 40
2.5
  1
32
 50
90.0
  7
MX_NOTE_STANDARD
  0
ARC
  5
18BC3
  8
SUNPO
  6
BYBLOCK
 10
143.185645
 20
165.0
 30
0.0
 40
0.145
 50
90.0
 51
270.0
  0
ARC
  5
18BC4
  8
SUNPO
  6
BYBLOCK
 10
143.185645
 20
165.0
 30
0.0
 40
0.145
 50
270.0
 51
90.0
  0
LINE
  5
18BC5
  8
SUNPO
  6
CONTINUOUS
 10
150.5
 20
160.653991
 30
0.0
 11
150.5
 21
156.920944
 31
0.0
  0
LINE
  5
18BC6
  8
SUNPO
  6
CONTINUOUS
 10
154.5
 20
158.641045
 30
0.0
 11
154.5
 21
153.141045
 31
0.0
  0
LINE
  5
18BC7
  8
SUNPO
  6
CONTINUOUS
 10
158.5
 20
160.653991
 30
0.0
 11
158.5
 21
156.920944
 31
0.0
  0
LINE
  5
18BC8
  8
SUNPO
  6
CONTINUOUS
 10
150.5
 20
153.141045
 30
0.0
 11
158.5
 21
153.141045
 31
0.0
  0
LINE
  5
18BC9
  8
SUNPO
  6
CONTINUOUS
 10
150.5
 20
151.141045
 30
0.0
 11
158.5
 21
151.141045
 31
0.0
  0
LINE
  5
18BCA
  8
SUNPO
  6
CONTINUOUS
 10
150.5
 20
154.541039
 30
0.0
 11
150.5
 21
149.343696
 31
0.0
  0
LINE
  5
18BCB
  8
SUNPO
  6
CONTINUOUS
 10
158.5
 20
154.541039
 30
0.0
 11
158.5
 21
149.343696
 31
0.0
  0
LINE
  5
18BCC
  8
SUNPO
  6
CONTINUOUS
 10
150.5
 20
158.641045
 30
0.0
 11
158.5
 21
158.641045
 31
0.0
  0
LINE
  5
18BCD
  8
SUNPO
  6
CONTINUOUS
 10
153.299927
 20
166.656304
 30
0.0
 11
153.299927
 21
161.867761
 31
0.0
  0
LINE
  5
18BCE
  8
SUNPO
  6
CONTINUOUS
 10
155.699921
 20
166.656304
 30
0.0
 11
155.699921
 21
161.867761
 31
0.0
  0
LINE
  5
18BD0
  8
SUNPO
  6
CONTINUOUS
 10
173.5
 20
157.5
 30
0.0
 11
173.5
 21
165.527474
 31
0.0
  0
LINE
  5
18BD1
  8
SUNPO
  6
CONTINUOUS
 10
170.5
 20
157.5
 30
0.0
 11
170.5
 21
165.527474
 31
0.0
  0
LINE
  5
18BD2
  8
SUNPO
  6
CONTINUOUS
 10
170.5
 20
165.527474
 30
0.0
 11
173.5
 21
165.527474
 31
0.0
  0
ARC
  5
18BD3
  8
SUNPO
  6
BYBLOCK
 10
170.5
 20
165.527474
 30
0.0
 40
0.145
 50
180.0
 51
0.0
  0
ARC
  5
18BD4
  8
SUNPO
  6
BYBLOCK
 10
170.5
 20
165.527474
 30
0.0
 40
0.145
 50
0.0
 51
180.0
  0
ARC
  5
18BD5
  8
SUNPO
  6
BYBLOCK
 10
173.5
 20
165.527474
 30
0.0
 40
0.145
 50
0.0
 51
180.0
  0
ARC
  5
18BD6
  8
SUNPO
  6
BYBLOCK
 10
173.5
 20
165.527474
 30
0.0
 40
0.145
 50
180.0
 51
0.0
  0
ARC
  5
18BD7
  8
SUNPO
  6
BYBLOCK
 10
173.5
 20
165.527474
 30
0.0
 40
0.145
 50
180.0
 51
0.0
  0
ARC
  5
18BD8
  8
SUNPO
  6
BYBLOCK
 10
173.5
 20
165.527474
 30
0.0
 40
0.145
 50
0.0
 51
180.0
  0
ARC
  5
18BD9
  8
SUNPO
  6
BYBLOCK
 10
143.185645
 20
175.0
 30
0.0
 40
0.145
 50
270.0
 51
90.0
  0
ARC
  5
18BDA
  8
SUNPO
  6
BYBLOCK
 10
143.185645
 20
175.0
 30
0.0
 40
0.145
 50
90.0
 51
270.0
  0
ARC
  5
18BDB
  8
SUNPO
  6
BYBLOCK
 10
134.721192
 20
186.999997
 30
0.0
 40
0.145
 50
270.0
 51
90.0
  0
ARC
  5
18BDC
  8
SUNPO
  6
BYBLOCK
 10
134.721192
 20
186.999997
 30
0.0
 40
0.145
 50
90.0
 51
270.0
  0
TEXT
  5
18BDD
  8
SUNPO
  6
CONTINUOUS
 10
142.185645
 20
198.125
 30
0.0
 40
2.5
  1
50
 50
90.0
  7
MX_NOTE_STANDARD
  0
TEXT
  5
18BDE
  8
SUNPO
  6
CONTINUOUS
 10
133.721192
 20
203.916665
 30
0.0
 40
2.5
  1
38
 50
90.0
  7
MX_NOTE_STANDARD
  0
LINE
  5
18BDF
  8
SUNPO
  6
CONTINUOUS
 10
112.0
 20
225.0
 30
0.0
 11
154.5
 21
225.0
 31
0.0
  0
LINE
  5
18BE0
  8
SUNPO
  6
CONTINUOUS
 10
112.0
 20
260.0
 30
0.0
 11
154.5
 21
260.0
 31
0.0
  0
LINE
  5
18BE1
  8
SUNPO
  6
CONTINUOUS
 10
154.5
 20
260.0
 30
0.0
 11
154.5
 21
225.0
 31
0.0
  0
ARC
  5
18BE2
  8
SUNPO
  6
BYBLOCK
 10
134.721192
 20
225.0
 30
0.0
 40
0.145
 50
90.0
 51
270.0
  0
ARC
  5
18BE3
  8
SUNPO
  6
BYBLOCK
 10
134.721192
 20
225.0
 30
0.0
 40
0.145
 50
270.0
 51
90.0
  0
ARC
  5
18BE4
  8
SUNPO
  6
BYBLOCK
 10
143.185645
 20
225.0
 30
0.0
 40
0.145
 50
90.0
 51
270.0
  0
ARC
  5
18BE5
  8
SUNPO
  6
BYBLOCK
 10
143.185645
 20
225.0
 30
0.0
 40
0.145
 50
270.0
 51
90.0
  0
LINE
  5
18BE6
  8
SUNPO
  6
CONTINUOUS
 10
159.5
 20
220.0
 30
0.0
 11
149.5
 21
220.0
 31
0.0
  0
LINE
  5
18BE7
  8
SUNPO
  6
CONTINUOUS
 10
149.5
 20
220.0
 30
0.0
 11
154.5
 21
225.0
 31
0.0
  0
LINE
  5
18BE9
  8
SUNPO
  6
CONTINUOUS
 10
154.5
 20
225.0
 30
0.0
 11
159.5
 21
220.0
 31
0.0
  0
TEXT
  5
18BEC
  8
SUNPO
  6
CONTINUOUS
 10
153.5
 20
240.416667
 30
0.0
 40
2.5
  1
35
 50
90.0
  7
MX_NOTE_STANDARD
  0
ARC
  5
18BED
  8
SUNPO
  6
BYBLOCK
 10
154.5
 20
260.0
 30
0.0
 40
0.145
 50
90.0
 51
270.0
  0
ARC
  5
18BEE
  8
SUNPO
  6
BYBLOCK
 10
154.5
 20
260.0
 30
0.0
 40
0.145
 50
270.0
 51
90.0
  0
TEXT
  5
18BEF
  8
SUNPO
  6
CONTINUOUS
 10
196.625
 20
166.527474
 30
0.0
 40
2.5
  1
50
  7
MX_NOTE_STANDARD
  0
LINE
  5
18BF0
  8
SUNPO
  6
CONTINUOUS
 10
202.000001
 20
156.0
 30
0.0
 11
243.293737
 21
156.0
 31
0.0
  0
LINE
  5
18BF1
  8
SUNPO
  6
CONTINUOUS
 10
223.5
 20
164.5
 30
0.0
 11
223.5
 21
165.527474
 31
0.0
  0
ARC
  5
18BF2
  8
SUNPO
  6
BYBLOCK
 10
223.5
 20
165.527474
 30
0.0
 40
0.145
 50
0.0
 51
180.0
  0
ARC
  5
18BF3
  8
SUNPO
  6
BYBLOCK
 10
223.5
 20
165.527474
 30
0.0
 40
0.145
 50
180.0
 51
0.0
  0
LINE
  5
18BF4
  8
SUNPO
  6
CONTINUOUS
 10
243.293737
 20
163.0
 30
0.0
 11
243.293737
 21
156.0
 31
0.0
  0
ARC
  5
18BF5
  8
SUNPO
  6
BYBLOCK
 10
243.293737
 20
156.0
 30
0.0
 40
0.145
 50
270.0
 51
90.0
  0
ARC
  5
18BF6
  8
SUNPO
  6
BYBLOCK
 10
243.293737
 20
156.0
 30
0.0
 40
0.145
 50
90.0
 51
270.0
  0
ARC
  5
18BF7
  8
SUNPO
  6
BYBLOCK
 10
243.293737
 20
156.0
 30
0.0
 40
0.145
 50
90.0
 51
270.0
  0
ARC
  5
18BF8
  8
SUNPO
  6
BYBLOCK
 10
243.293737
 20
156.0
 30
0.0
 40
0.145
 50
270.0
 51
90.0
  0
ARC
  5
18BF9
  8
SUNPO
  6
BYBLOCK
 10
243.293737
 20
163.0
 30
0.0
 40
0.145
 50
90.0
 51
270.0
  0
ARC
  5
18BFA
  8
SUNPO
  6
BYBLOCK
 10
243.293737
 20
163.0
 30
0.0
 40
0.145
 50
270.0
 51
90.0
  0
TEXT
  5
18BFB
  8
SUNPO
  6
CONTINUOUS
 10
242.293737
 20
158.666667
 30
0.0
 40
2.5
  1
7
 50
90.0
  7
MX_NOTE_STANDARD
  0
LINE
  5
18BFC
  8
SUNPO
  6
CONTINUOUS
 10
322.968739
 20
163.0
 30
0.0
 11
322.968739
 21
125.0
 31
0.0
  0
TEXT
  5
18BFD
  8
SUNPO
  6
CONTINUOUS
 10
321.968739
 20
141.916667
 30
0.0
 40
2.5
  1
38
 50
90.0
  7
MX_NOTE_STANDARD
  0
LINE
  5
18BFE
  8
SUNPO
  6
CONTINUOUS
 10
304.499997
 20
125.0
 30
0.0
 11
322.968739
 21
125.0
 31
0.0
  0
ARC
  5
18BFF
  8
SUNPO
  6
BYBLOCK
 10
322.968739
 20
125.0
 30
0.0
 40
0.145
 50
270.0
 51
90.0
  0
ARC
  5
18C00
  8
SUNPO
  6
BYBLOCK
 10
322.968739
 20
125.0
 30
0.0
 40
0.145
 50
90.0
 51
270.0
  0
ARC
  5
18C01
  8
SUNPO
  6
BYBLOCK
 10
322.968739
 20
125.0
 30
0.0
 40
0.145
 50
90.0
 51
270.0
  0
ARC
  5
18C02
  8
SUNPO
  6
BYBLOCK
 10
322.968739
 20
125.0
 30
0.0
 40
0.145
 50
270.0
 51
90.0
  0
LINE
  5
18C03
  8
SUNPO
  6
CONTINUOUS
 10
304.499997
 20
163.0
 30
0.0
 11
322.968739
 21
163.0
 31
0.0
  0
ARC
  5
18C04
  8
SUNPO
  6
BYBLOCK
 10
322.968739
 20
163.0
 30
0.0
 40
0.145
 50
90.0
 51
270.0
  0
ARC
  5
18C05
  8
SUNPO
  6
BYBLOCK
 10
322.968739
 20
163.0
 30
0.0
 40
0.145
 50
270.0
 51
90.0
  0
LINE
  5
18C06
  8
SUNPO
  6
CONTINUOUS
 10
289.83846
 20
221.728614
 30
0.0
 11
251.83846
 21
221.728614
 31
0.0
  0
ARC
  5
18C07
  8
SUNPO
  6
BYBLOCK
 10
251.83846
 20
221.728614
 30
0.0
 40
0.145
 50
180.0
 51
0.0
  0
ARC
  5
18C08
  8
SUNPO
  6
BYBLOCK
 10
251.83846
 20
221.728614
 30
0.0
 40
0.145
 50
0.0
 51
180.0
  0
LINE
  5
18C09
  8
SUNPO
  6
CONTINUOUS
 10
297.83846
 20
221.728614
 30
0.0
 11
289.83846
 21
221.728614
 31
0.0
  0
TEXT
  5
18C0A
  8
SUNPO
  6
CONTINUOUS
 10
268.755126
 20
222.728614
 30
0.0
 40
2.5
  1
38
  7
MX_NOTE_STANDARD
  0
ARC
  5
18C0B
  8
SUNPO
  6
BYBLOCK
 10
289.83846
 20
221.728614
 30
0.0
 40
0.145
 50
180.0
 51
0.0
  0
ARC
  5
18C0C
  8
SUNPO
  6
BYBLOCK
 10
289.83846
 20
221.728614
 30
0.0
 40
0.145
 50
0.0
 51
180.0
  0
ARC
  5
18C0D
  8
SUNPO
  6
BYBLOCK
 10
289.83846
 20
221.728614
 30
0.0
 40
0.145
 50
0.0
 51
180.0
  0
ARC
  5
18C0E
  8
SUNPO
  6
BYBLOCK
 10
289.83846
 20
221.728614
 30
0.0
 40
0.145
 50
180.0
 51
0.0
  0
TEXT
  5
18C0F
  8
SUNPO
  6
CONTINUOUS
 10
293.005126
 20
222.728614
 30
0.0
 40
2.5
  1
8
  7
MX_NOTE_STANDARD
  0
ARC
  5
18C10
  8
SUNPO
  6
BYBLOCK
 10
297.83846
 20
221.728614
 30
0.0
 40
0.145
 50
0.0
 51
180.0
  0
ARC
  5
18C11
  8
SUNPO
  6
BYBLOCK
 10
297.83846
 20
221.728614
 30
0.0
 40
0.145
 50
180.0
 51
0.0
  0
ARC
  5
18C12
  8
SUNPO
  6
BYBLOCK
 10
297.83846
 20
221.728614
 30
0.0
 40
0.145
 50
180.0
 51
0.0
  0
ARC
  5
18C13
  8
SUNPO
  6
BYBLOCK
 10
297.83846
 20
221.728614
 30
0.0
 40
0.145
 50
0.0
 51
180.0
  0
TEXT
  5
18C14
  8
SUNPO
  6
CONTINUOUS
 10
314.755126
 20
222.728614
 30
0.0
 40
2.5
  1
38
  7
MX_NOTE_STANDARD
  0
LINE
  5
18C15
  8
SUNPO
  6
CONTINUOUS
 10
345.83846
 20
257.690823
 30
0.0
 11
345.83846
 21
177.690823
 31
0.0
  0
LINE
  5
18C16
  8
SUNPO
  6
CONTINUOUS
 10
375.5
 20
165.527474
 30
0.0
 11
400.5
 21
165.527474
 31
0.0
  0
TEXT
  5
18C17
  8
SUNPO
  6
CONTINUOUS
 10
385.916667
 20
166.527474
 30
0.0
 40
2.5
  1
25
  7
MX_NOTE_STANDARD
  0
TEXT
  5
18C18
  8
SUNPO
  6
CONTINUOUS
 10
353.625
 20
166.527474
 30
0.0
 40
2.5
  1
20
  7
MX_NOTE_STANDARD
  0
TEXT
  5
18C19
  8
SUNPO
  6
CONTINUOUS
 10
369.041667
 20
166.527474
 30
0.0
 40
2.5
  1
10
  7
MX_NOTE_STANDARD
  0
LINE
  5
18C1A
  8
SUNPO
  6
CONTINUOUS
 10
345.5
 20
165.527474
 30
0.0
 11
365.5
 21
165.527474
 31
0.0
  0
LINE
  5
18C1B
  8
SUNPO
  6
CONTINUOUS
 10
345.5
 20
160.5
 30
0.0
 11
345.5
 21
165.527474
 31
0.0
  0
ARC
  5
18C1C
  8
SUNPO
  6
BYBLOCK
 10
345.5
 20
165.527474
 30
0.0
 40
0.145
 50
180.0
 51
0.0
  0
ARC
  5
18C1D
  8
SUNPO
  6
BYBLOCK
 10
345.5
 20
165.527474
 30
0.0
 40
0.145
 50
0.0
 51
180.0
  0
LINE
  5
18C1E
  8
SUNPO
  6
CONTINUOUS
 10
365.5
 20
165.527474
 30
0.0
 11
375.5
 21
165.527474
 31
0.0
  0
LINE
  5
18C1F
  8
SUNPO
  6
CONTINUOUS
 10
365.5
 20
157.5
 30
0.0
 11
365.5
 21
165.527474
 31
0.0
  0
LINE
  5
18C20
  8
SUNPO
  6
CONTINUOUS
 10
365.5
 20
157.5
 30
0.0
 11
365.5
 21
165.527474
 31
0.0
  0
ARC
  5
18C21
  8
SUNPO
  6
BYBLOCK
 10
365.5
 20
165.527474
 30
0.0
 40
0.145
 50
180.0
 51
0.0
  0
ARC
  5
18C22
  8
SUNPO
  6
BYBLOCK
 10
365.5
 20
165.527474
 30
0.0
 40
0.145
 50
0.0
 51
180.0
  0
ARC
  5
18C23
  8
SUNPO
  6
BYBLOCK
 10
365.5
 20
165.527474
 30
0.0
 40
0.145
 50
0.0
 51
180.0
  0
ARC
  5
18C24
  8
SUNPO
  6
BYBLOCK
 10
365.5
 20
165.527474
 30
0.0
 40
0.145
 50
180.0
 51
0.0
  0
LINE
  5
18C25
  8
SUNPO
  6
CONTINUOUS
 10
375.5
 20
157.5
 30
0.0
 11
375.5
 21
165.527474
 31
0.0
  0
LINE
  5
18C26
  8
SUNPO
  6
CONTINUOUS
 10
375.5
 20
157.5
 30
0.0
 11
375.5
 21
165.527474
 31
0.0
  0
ARC
  5
18C27
  8
SUNPO
  6
BYBLOCK
 10
375.5
 20
165.527474
 30
0.0
 40
0.145
 50
0.0
 51
180.0
  0
ARC
  5
18C28
  8
SUNPO
  6
BYBLOCK
 10
375.5
 20
165.527474
 30
0.0
 40
0.145
 50
180.0
 51
0.0
  0
ARC
  5
18C29
  8
SUNPO
  6
BYBLOCK
 10
375.5
 20
165.527474
 30
0.0
 40
0.145
 50
180.0
 51
0.0
  0
ARC
  5
18C2A
  8
SUNPO
  6
BYBLOCK
 10
375.5
 20
165.527474
 30
0.0
 40
0.145
 50
0.0
 51
180.0
  0
LINE
  5
18C2B
  8
SUNPO
  6
CONTINUOUS
 10
337.33846
 20
177.690823
 30
0.0
 11
345.83846
 21
177.690823
 31
0.0
  0
ARC
  5
18C2C
  8
SUNPO
  6
BYBLOCK
 10
345.83846
 20
177.690823
 30
0.0
 40
0.145
 50
270.0
 51
90.0
  0
ARC
  5
18C2D
  8
SUNPO
  6
BYBLOCK
 10
345.83846
 20
177.690823
 30
0.0
 40
0.145
 50
90.0
 51
270.0
  0
LINE
  5
18C2E
  8
SUNPO
  6
CONTINUOUS
 10
400.5
 20
157.5
 30
0.0
 11
400.5
 21
165.527474
 31
0.0
  0
ARC
  5
18C2F
  8
SUNPO
  6
BYBLOCK
 10
400.5
 20
165.527474
 30
0.0
 40
0.145
 50
0.0
 51
180.0
  0
ARC
  5
18C30
  8
SUNPO
  6
BYBLOCK
 10
400.5
 20
165.527474
 30
0.0
 40
0.145
 50
180.0
 51
0.0
  0
ARC
  5
18C31
  8
SUNPO
  6
BYBLOCK
 10
335.83846
 20
221.728614
 30
0.0
 40
0.145
 50
0.0
 51
180.0
  0
ARC
  5
18C32
  8
SUNPO
  6
BYBLOCK
 10
335.83846
 20
221.728614
 30
0.0
 40
0.145
 50
180.0
 51
0.0
  0
TEXT
  5
18C33
  8
SUNPO
  6
CONTINUOUS
 10
344.83846
 20
215.815823
 30
0.0
 40
2.5
  1
80
 50
90.0
  7
MX_NOTE_STANDARD
  0
LINE
  5
18C34
  8
SUNPO
  6
CONTINUOUS
 10
337.33846
 20
257.690823
 30
0.0
 11
345.83846
 21
257.690823
 31
0.0
  0
ARC
  5
18C35
  8
SUNPO
  6
BYBLOCK
 10
345.83846
 20
257.690823
 30
0.0
 40
0.145
 50
90.0
 51
270.0
  0
ARC
  5
18C36
  8
SUNPO
  6
BYBLOCK
 10
345.83846
 20
257.690823
 30
0.0
 40
0.145
 50
270.0
 51
90.0
  0
LINE
  5
18CBD
  8
SUNPO
  6
CONTINUOUS
 10
218.315372
 20
40.430155
 30
0.0
 11
219.228887
 21
41.052967
 31
0.0
210
0.0
220
0.0
230
-1.0
  0
LINE
  5
18CBE
  8
SUNPO
  6
CONTINUOUS
 10
219.228887
 20
41.052967
 30
0.0
 11
219.699982
 21
41.091179
 31
0.0
210
0.0
220
0.0
230
-1.0
  0
LINE
  5
18CBF
  8
SUNPO
  6
CONTINUOUS
 10
219.699982
 20
41.091179
 30
0.0
 11
219.5138
 21
40.578868
 31
0.0
210
0.0
220
0.0
230
-1.0
  0
LINE
  5
18CC0
  8
SUNPO
  6
CONTINUOUS
 10
219.5138
 20
40.578868
 30
0.0
 11
218.620898
 21
38.599677
 31
0.0
210
0.0
220
0.0
230
-1.0
  0
LINE
  5
18CC1
  8
SUNPO
  6
CONTINUOUS
 10
218.620898
 20
38.599677
 30
0.0
 11
218.917461
 21
37.620702
 31
0.0
210
0.0
220
0.0
230
-1.0
  0
LINE
  5
18CC2
  8
SUNPO
  6
CONTINUOUS
 10
218.917461
 20
37.620702
 30
0.0
 11
219.878871
 21
37.924854
 31
0.0
210
0.0
220
0.0
230
-1.0
  0
LINE
  5
18CC3
  8
SUNPO
  6
CONTINUOUS
 10
219.878871
 20
37.924854
 30
0.0
 11
220.36436
 21
39.042338
 31
0.0
210
0.0
220
0.0
230
-1.0
  0
LINE
  5
18CC4
  8
SUNPO
  6
CONTINUOUS
 10
220.36436
 20
39.042338
 30
0.0
 11
220.47692
 21
39.543679
 31
0.0
210
0.0
220
0.0
230
-1.0
  0
LINE
  5
18CC5
  8
SUNPO
  6
CONTINUOUS
 10
220.47692
 20
39.543679
 30
0.0
 11
220.349498
 21
39.018051
 31
0.0
210
0.0
220
0.0
230
-1.0
  0
LINE
  5
18CC6
  8
SUNPO
  6
CONTINUOUS
 10
220.349498
 20
39.018051
 30
0.0
 11
220.299705
 21
37.952675
 31
0.0
210
0.0
220
0.0
230
-1.0
  0
LINE
  5
18CC7
  8
SUNPO
  6
CONTINUOUS
 10
220.299705
 20
37.952675
 30
0.0
 11
221.135643
 21
37.371351
 31
0.0
210
0.0
220
0.0
230
-1.0
  0
LINE
  5
18CC8
  8
SUNPO
  6
CONTINUOUS
 10
221.135643
 20
37.371351
 30
0.0
 11
222.008647
 21
37.987263
 31
0.0
210
0.0
220
0.0
230
-1.0
  0
LINE
  5
18CC9
  8
SUNPO
  6
CONTINUOUS
 10
222.008647
 20
37.987263
 30
0.0
 11
222.451869
 21
38.976998
 31
0.0
210
0.0
220
0.0
230
-1.0
  0
LINE
  5
18CCA
  8
SUNPO
  6
CONTINUOUS
 10
222.451869
 20
38.976998
 30
0.0
 11
222.336626
 21
41.133374
 31
0.0
210
0.0
220
0.0
230
-1.0
  0
LINE
  5
18CCB
  8
SUNPO
  6
CONTINUOUS
 10
222.336626
 20
41.133374
 30
0.0
 11
224.474428
 21
40.896876
 31
0.0
210
0.0
220
0.0
230
-1.0
  0
LINE
  5
18CCC
  8
SUNPO
  6
CONTINUOUS
 10
335.515372
 20
40.430155
 30
0.0
 11
336.428887
 21
41.052967
 31
0.0
210
0.0
220
0.0
230
-1.0
  0
LINE
  5
18CCD
  8
SUNPO
  6
CONTINUOUS
 10
336.428887
 20
41.052967
 30
0.0
 11
336.899983
 21
41.091179
 31
0.0
210
0.0
220
0.0
230
-1.0
  0
LINE
  5
18CCE
  8
SUNPO
  6
CONTINUOUS
 10
336.899983
 20
41.091179
 30
0.0
 11
336.7138
 21
40.578869
 31
0.0
210
0.0
220
0.0
230
-1.0
  0
LINE
  5
18CCF
  8
SUNPO
  6
CONTINUOUS
 10
336.7138
 20
40.578869
 30
0.0
 11
335.820898
 21
38.599677
 31
0.0
210
0.0
220
0.0
230
-1.0
  0
LINE
  5
18CD0
  8
SUNPO
  6
CONTINUOUS
 10
335.820898
 20
38.599677
 30
0.0
 11
336.117461
 21
37.620702
 31
0.0
210
0.0
220
0.0
230
-1.0
  0
LINE
  5
18CD1
  8
SUNPO
  6
CONTINUOUS
 10
336.117461
 20
37.620702
 30
0.0
 11
337.078871
 21
37.924853
 31
0.0
210
0.0
220
0.0
230
-1.0
  0
LINE
  5
18CD2
  8
SUNPO
  6
CONTINUOUS
 10
337.078871
 20
37.924853
 30
0.0
 11
337.564361
 21
39.042337
 31
0.0
210
0.0
220
0.0
230
-1.0
  0
LINE
  5
18CD3
  8
SUNPO
  6
CONTINUOUS
 10
337.564361
 20
39.042337
 30
0.0
 11
337.676921
 21
39.543679
 31
0.0
210
0.0
220
0.0
230
-1.0
  0
LINE
  5
18CD4
  8
SUNPO
  6
CONTINUOUS
 10
337.676921
 20
39.543679
 30
0.0
 11
337.5495
 21
39.018052
 31
0.0
210
0.0
220
0.0
230
-1.0
  0
LINE
  5
18CD5
  8
SUNPO
  6
CONTINUOUS
 10
337.5495
 20
39.018052
 30
0.0
 11
337.499705
 21
37.952676
 31
0.0
210
0.0
220
0.0
230
-1.0
  0
LINE
  5
18CD6
  8
SUNPO
  6
CONTINUOUS
 10
337.499705
 20
37.952676
 30
0.0
 11
338.335643
 21
37.371351
 31
0.0
210
0.0
220
0.0
230
-1.0
  0
LINE
  5
18CD7
  8
SUNPO
  6
CONTINUOUS
 10
338.335643
 20
37.371351
 30
0.0
 11
339.208648
 21
37.987263
 31
0.0
210
0.0
220
0.0
230
-1.0
  0
LINE
  5
18CD8
  8
SUNPO
  6
CONTINUOUS
 10
339.208648
 20
37.987263
 30
0.0
 11
339.65187
 21
38.976998
 31
0.0
210
0.0
220
0.0
230
-1.0
  0
LINE
  5
18CD9
  8
SUNPO
  6
CONTINUOUS
 10
339.65187
 20
38.976998
 30
0.0
 11
339.536626
 21
41.133374
 31
0.0
210
0.0
220
0.0
230
-1.0
  0
LINE
  5
18CDA
  8
SUNPO
  6
CONTINUOUS
 10
339.536626
 20
41.133374
 30
0.0
 11
341.674429
 21
40.896876
 31
0.0
210
0.0
220
0.0
230
-1.0
  0
LINE
  5
18D56
  8
DANMEN
  6
CONTINUOUS
 10
70.999995
 20
66.000005
 30
0.0
 11
69.300003
 21
66.000005
 31
0.0
  0
LINE
  5
18D5D
  8
DANMEN
  6
CONTINUOUS
 10
67.350006
 20
65.999999
 30
0.0
 11
67.350006
 21
51.5
 31
0.0
  0
LINE
  5
18D5E
  8
DANMEN
  6
CONTINUOUS
 10
69.300003
 20
66.000005
 30
0.0
 11
69.300003
 21
51.5
 31
0.0
  0
ARC
  5
18D5F
  8
DANMEN
  6
CONTINUOUS
 10
68.800003
 20
51.5
 30
0.0
 40
0.5
 50
269.999999
 51
359.999981
  0
ARC
  5
18D60
  8
DANMEN
  6
CONTINUOUS
 10
67.850006
 20
51.5
 30
0.0
 40
0.5
 50
180.0
 51
269.999982
  0
LINE
  5
18D61
  8
DANMEN
  6
CONTINUOUS
 10
68.800003
 20
51.0
 30
0.0
 11
67.850006
 21
51.0
 31
0.0
  0
ENDSEC
  0
EOF
