  0
SECTION
  2
HEADER
  9
$ACADVER
  1
AC1009
  9
$INSBASE
 10
0.0
 20
0.0
 30
0.0
  9
$EXTMIN
 10
4.986803
 20
4.971933
 30
-0.001526
  9
$EXTMAX
 10
415.019075
 20
292.013444
 30
0.0
  9
$LIMMIN
 10
-210.0
 20
-148.5
  9
$LIMMAX
 10
210.0
 20
148.5
  9
$ORTHOMODE
 70
     0
  9
$REGENMODE
 70
     1
  9
$FILLMODE
 70
     1
  9
$QTEXTMODE
 70
     0
  9
$MIRRTEXT
 70
     1
  9
$DRAGMODE
 70
     2
  9
$LTSCALE
 40
0.5
  9
$OSMODE
 70
   239
  9
$ATTMODE
 70
     1
  9
$TEXTSIZE
 40
0.2
  9
$TRACEWID
 40
0.05
  9
$TEXTSTYLE
  7
MX_NOTE_STANDARD
  9
$CLAYER
  8
0
  9
$CELTYPE
  6
CONTINUOUS
  9
$CECOLOR
 62
   256
  9
$DIMSCALE
 40
1.0
  9
$DIMASZ
 40
2.5
  9
$DIMEXO
 40
1.5
  9
$DIMDLI
 40
3.75
  9
$DIMRND
 40
0.0
  9
$DIMDLE
 40
0.0
  9
$DIMEXE
 40
0.0
  9
$DIMTP
 40
0.0
  9
$DIMTM
 40
0.0
  9
$DIMTXT
 40
2.5
  9
$DIMCEN
 40
2.5
  9
$DIMTSZ
 40
0.0
  9
$DIMTOL
 70
     0
  9
$DIMLIM
 70
     0
  9
$DIMTIH
 70
     0
  9
$DIMTOH
 70
     0
  9
$DIMSE1
 70
     0
  9
$DIMSE2
 70
     0
  9
$DIMTAD
 70
     1
  9
$DIMZIN
 70
     8
  9
$DIMBLK
  1

  9
$DIMASO
 70
     1
  9
$DIMSHO
 70
     1
  9
$DIMPOST
  1

  9
$DIMAPOST
  1

  9
$DIMALT
 70
     0
  9
$DIMALTD
 70
     4
  9
$DIMALTF
 40
0.0394
  9
$DIMLFAC
 40
1.0
  9
$DIMTOFL
 70
     1
  9
$DIMTVP
 40
0.0
  9
$DIMTIX
 70
     0
  9
$DIMSOXD
 70
     0
  9
$DIMSAH
 70
     0
  9
$DIMBLK1
  1

  9
$DIMBLK2
  1

  9
$DIMSTYLE
  2
MXDIMSTYLE
  9
$DIMCLRD
 70
     0
  9
$DIMCLRE
 70
     0
  9
$DIMCLRT
 70
     0
  9
$DIMTFAC
 40
1.0
  9
$DIMGAP
 40
1.0
  9
$LUNITS
 70
     2
  9
$LUPREC
 70
     4
  9
$SKETCHINC
 40
0.1
  9
$FILLETRAD
 40
0.0
  9
$AUNITS
 70
     0
  9
$AUPREC
 70
     0
  9
$MENU
  1
acad
  9
$ELEVATION
 40
0.0
  9
$PELEVATION
 40
0.0
  9
$THICKNESS
 40
0.0
  9
$LIMCHECK
 70
     0
  9
$BLIPMODE
 70
     0
  9
$CHAMFERA
 40
0.0
  9
$CHAMFERB
 40
0.0
  9
$SKPOLY
 70
     0
  9
$TDCREATE
 40
2452006.37162
  9
$TDUPDATE
 40
2452137.014891
  9
$TDINDWG
 40
0.105009
  9
$TDUSRTIMER
 40
0.105009
  9
$USRTIMER
 70
     1
  9
$ANGBASE
 50
0.0
  9
$ANGDIR
 70
     0
  9
$PDMODE
 70
     3
  9
$PDSIZE
 40
-100.0
  9
$PLINEWID
 40
0.0
  9
$COORDS
 70
     0
  9
$SPLFRAME
 70
     0
  9
$SPLINETYPE
 70
     6
  9
$SPLINESEGS
 70
     8
  9
$ATTDIA
 70
     0
  9
$ATTREQ
 70
     1
  9
$HANDLING
 70
     1
  9
$HANDSEED
  5
1E604
  9
$SURFTAB1
 70
     6
  9
$SURFTAB2
 70
     6
  9
$SURFTYPE
 70
     6
  9
$SURFU
 70
     6
  9
$SURFV
 70
     6
  9
$UCSNAME
  2

  9
$UCSORG
 10
0.0
 20
0.0
 30
0.0
  9
$UCSXDIR
 10
1.0
 20
0.0
 30
0.0
  9
$UCSYDIR
 10
0.0
 20
1.0
 30
0.0
  9
$PUCSNAME
  2

  9
$PUCSORG
 10
0.0
 20
0.0
 30
0.0
  9
$PUCSXDIR
 10
1.0
 20
0.0
 30
0.0
  9
$PUCSYDIR
 10
0.0
 20
1.0
 30
0.0
  9
$USERI1
 70
     0
  9
$USERI2
 70
     0
  9
$USERI3
 70
     0
  9
$USERI4
 70
     0
  9
$USERI5
 70
     0
  9
$USERR1
 40
0.0
  9
$USERR2
 40
0.0
  9
$USERR3
 40
0.0
  9
$USERR4
 40
0.0
  9
$USERR5
 40
0.0
  9
$WORLDVIEW
 70
     1
  9
$SHADEDGE
 70
     3
  9
$SHADEDIF
 70
    70
  9
$TILEMODE
 70
     1
  9
$MAXACTVP
 70
    16
  9
$PLIMCHECK
 70
     0
  9
$PEXTMIN
 10
1.000000E+020
 20
1.000000E+020
 30
1.000000E+020
  9
$PEXTMAX
 10
-1.000000E+020
 20
-1.000000E+020
 30
-1.000000E+020
  9
$PLIMMIN
 10
0.0
 20
0.0
  9
$PLIMMAX
 10
12.0
 20
9.0
  9
$UNITMODE
 70
     0
  9
$VISRETAIN
 70
     0
  9
$PLINEGEN
 70
     1
  9
$PSLTSCALE
 70
     0
  0
ENDSEC
  0
SECTION
  2
TABLES
  0
TABLE
  2
VPORT
 70
     2
  0
VPORT
  2
*ACTIVE
 70
     0
 10
0.0
 20
0.0
 11
1.0
 21
1.0
 12
210.002939
 22
148.492688
 13
0.0
 23
0.0
 14
1.0
 24
1.0
 15
0.0
 25
0.0
 16
0.0
 26
0.0
 36
1.0
 17
0.0
 27
0.0
 37
0.0
 40
290.242718
 41
1.867784
 42
50.0
 43
0.0
 44
0.0
 50
0.0
 51
0.0
 71
     0
 72
   100
 73
     1
 74
     0
 75
     0
 76
     0
 77
     0
 78
     0
  0
ENDTAB
  0
TABLE
  2
LTYPE
 70
     2
  0
LTYPE
  2
CONTINUOUS
 70
     0
  3
Solid line
 72
    65
 73
     0
 40
0.0
  0
LTYPE
  2
DASHED
 70
     0
  3
Dashed __ __ __ __ __ __ __ __ __ __ __ __ __ _
 72
    65
 73
     2
 40
19.05
 49
12.7
 49
-6.35
  0
ENDTAB
  0
TABLE
  2
LAYER
 70
     4
  0
LAYER
  2
0
 70
     0
 62
     7
  6
CONTINUOUS
  0
LAYER
  2
SUNPO
 70
     0
 62
     1
  6
CONTINUOUS
  0
LAYER
  2
DANMEN
 70
     0
 62
     7
  6
CONTINUOUS
  0
LAYER
  2
WAKU
 70
     0
 62
     3
  6
CONTINUOUS
  0
ENDTAB
  0
TABLE
  2
STYLE
 70
     2
  0
STYLE
  2
STANDARD
 70
     0
 40
0.0
 41
1.0
 50
0.0
 71
     0
 42
0.2
  3
txt.shx
  4
extfont.shx
  0
STYLE
  2
MX_NOTE_STANDARD
 70
     0
 40
2.5
 41
1.0
 50
0.0
 71
     0
 42
2.5
  3
txt.shx
  4
extfont.shx
  0
ENDTAB
  0
TABLE
  2
VIEW
 70
     0
  0
ENDTAB
  0
TABLE
  2
UCS
 70
     0
  0
ENDTAB
  0
TABLE
  2
APPID
 70
     1
  0
APPID
  2
ACAD
 70
     0
  0
ENDTAB
  0
TABLE
  2
DIMSTYLE
 70
     1
  0
DIMSTYLE
  2
MXDIMSTYLE
 70
     0
  3

  4

  5

  6

  7

 40
1.0
 41
2.5
 42
1.5
 43
3.75
 44
0.0
 45
0.0
 46
0.0
 47
0.0
 48
0.0
140
2.5
141
2.5
142
0.0
143
0.0394
144
1.0
145
0.0
146
1.0
147
1.0
 71
     0
 72
     0
 73
     0
 74
     0
 75
     0
 76
     0
 77
     1
 78
     8
170
     0
171
     4
172
     1
173
     0
174
     0
175
     0
176
     0
177
     0
178
     0
  0
ENDTAB
  0
ENDSEC
  0
SECTION
  2
BLOCKS
  0
BLOCK
  8
0
  2
$MODEL_SPACE
 70
     0
 10
0.0
 20
0.0
 30
0.0
  3
$MODEL_SPACE
  1

  0
ENDBLK
  5
1E09D
  8
0
  0
BLOCK
 67
     1
  8
0
  2
$PAPER_SPACE
 70
     0
 10
0.0
 20
0.0
 30
0.0
  3
$PAPER_SPACE
  1

  0
ENDBLK
  5
1E09B
 67
     1
  8
0
  0
BLOCK
  8
0
  2
*U0
 70
     1
 10
0.0
 20
0.0
 30
0.0
  3
*U0
  1

  0
SOLID
  5
DA5C
  8
WAKU
  6
CONTINUOUS
 10
371.305142
 20
283.605291
 30
0.0
 11
370.499782
 21
283.530361
 31
0.0
 12
370.874987
 22
283.520449
 32
0.0
 13
370.874987
 23
283.520449
 33
0.0
  0
SOLID
  5
DA5D
  8
WAKU
  6
CONTINUOUS
 10
370.193309
 20
283.634664
 30
0.0
 11
370.499782
 21
283.530361
 31
0.0
 12
371.305142
 22
283.605291
 32
0.0
 13
371.305142
 23
283.605291
 33
0.0
  0
SOLID
  5
DA5E
  8
WAKU
  6
CONTINUOUS
 10
371.774448
 20
283.781773
 30
0.0
 11
370.193309
 21
283.634664
 31
0.0
 12
371.305142
 22
283.605291
 32
0.0
 13
371.305142
 23
283.605291
 33
0.0
  0
SOLID
  5
DA5F
  8
WAKU
  6
CONTINUOUS
 10
369.966824
 20
283.829526
 30
0.0
 11
370.193309
 21
283.634664
 31
0.0
 12
371.774448
 22
283.781773
 32
0.0
 13
371.774448
 23
283.781773
 33
0.0
  0
SOLID
  5
DA60
  8
WAKU
  6
CONTINUOUS
 10
370.594177
 20
283.909498
 30
0.0
 11
369.966824
 21
283.829526
 31
0.0
 12
371.774448
 22
283.781773
 32
0.0
 13
371.774448
 23
283.781773
 33
0.0
  0
SOLID
  5
DA61
  8
WAKU
  6
CONTINUOUS
 10
370.901294
 20
283.914863
 30
0.0
 11
370.594177
 21
283.909498
 31
0.0
 12
371.774448
 22
283.781773
 32
0.0
 13
371.774448
 23
283.781773
 33
0.0
  0
SOLID
  5
DA62
  8
WAKU
  6
CONTINUOUS
 10
370.392927
 20
283.968568
 30
0.0
 11
369.966824
 21
283.829526
 31
0.0
 12
370.594177
 22
283.909498
 32
0.0
 13
370.594177
 23
283.909498
 33
0.0
  0
SOLID
  5
DA63
  8
WAKU
  6
CONTINUOUS
 10
371.296984
 20
284.010368
 30
0.0
 11
370.901294
 21
283.914863
 31
0.0
 12
371.774448
 22
283.781773
 32
0.0
 13
371.774448
 23
283.781773
 33
0.0
  0
SOLID
  5
DA64
  8
WAKU
  6
CONTINUOUS
 10
372.265666
 20
284.043411
 30
0.0
 11
371.296984
 21
284.010368
 31
0.0
 12
371.774448
 22
283.781773
 32
0.0
 13
371.774448
 23
283.781773
 33
0.0
  0
SOLID
  5
DA65
  8
WAKU
  6
CONTINUOUS
 10
370.275177
 20
284.066476
 30
0.0
 11
369.966824
 21
283.829526
 31
0.0
 12
370.392927
 22
283.968568
 32
0.0
 13
370.392927
 23
283.968568
 33
0.0
  0
SOLID
  5
DA66
  8
WAKU
  6
CONTINUOUS
 10
369.828646
 20
284.107791
 30
0.0
 11
369.966824
 21
283.829526
 31
0.0
 12
370.275177
 22
284.066476
 32
0.0
 13
370.275177
 23
284.066476
 33
0.0
  0
SOLID
  5
DA67
  8
WAKU
  6
CONTINUOUS
 10
370.709458
 20
284.142397
 30
0.0
 11
369.828646
 21
284.107791
 31
0.0
 12
370.275177
 22
284.066476
 32
0.0
 13
370.275177
 23
284.066476
 33
0.0
  0
SOLID
  5
DA68
  8
WAKU
  6
CONTINUOUS
 10
371.751882
 20
284.202798
 30
0.0
 11
371.296984
 21
284.010368
 31
0.0
 12
372.265666
 22
284.043411
 32
0.0
 13
372.265666
 23
284.043411
 33
0.0
  0
SOLID
  5
DA69
  8
WAKU
  6
CONTINUOUS
 10
369.550381
 20
284.245969
 30
0.0
 11
369.828646
 21
284.107791
 31
0.0
 12
370.709458
 22
284.142397
 32
0.0
 13
370.709458
 23
284.142397
 33
0.0
  0
SOLID
  5
DA6A
  8
WAKU
  6
CONTINUOUS
 10
371.186428
 20
284.314625
 30
0.0
 11
369.550381
 21
284.245969
 31
0.0
 12
370.709458
 22
284.142397
 32
0.0
 13
370.709458
 23
284.142397
 33
0.0
  0
SOLID
  5
DA6B
  8
WAKU
  6
CONTINUOUS
 10
372.760756
 20
284.380595
 30
0.0
 11
371.751882
 21
284.202798
 31
0.0
 12
372.265666
 22
284.043411
 32
0.0
 13
372.265666
 23
284.043411
 33
0.0
  0
SOLID
  5
DA6C
  8
WAKU
  6
CONTINUOUS
 10
370.172911
 20
284.451856
 30
0.0
 11
369.550381
 21
284.245969
 31
0.0
 12
371.186428
 22
284.314625
 32
0.0
 13
371.186428
 23
284.314625
 33
0.0
  0
SOLID
  5
DA6D
  8
WAKU
  6
CONTINUOUS
 10
369.355518
 20
284.472454
 30
0.0
 11
369.550381
 21
284.245969
 31
0.0
 12
370.172911
 22
284.451856
 32
0.0
 13
370.172911
 23
284.451856
 33
0.0
  0
SOLID
  5
DA6E
  8
WAKU
  6
CONTINUOUS
 10
372.237497
 20
284.486117
 30
0.0
 11
371.751882
 21
284.202798
 31
0.0
 12
372.760756
 22
284.380595
 32
0.0
 13
372.760756
 23
284.380595
 33
0.0
  0
SOLID
  5
DA6F
  8
WAKU
  6
CONTINUOUS
 10
370.681395
 20
284.539195
 30
0.0
 11
370.172911
 21
284.451856
 31
0.0
 12
371.186428
 22
284.314625
 32
0.0
 13
371.186428
 23
284.314625
 33
0.0
  0
SOLID
  5
DA70
  8
WAKU
  6
CONTINUOUS
 10
369.787305
 20
284.553935
 30
0.0
 11
369.355518
 21
284.472454
 31
0.0
 12
370.172911
 22
284.451856
 32
0.0
 13
370.172911
 23
284.451856
 33
0.0
  0
SOLID
  5
DA71
  8
WAKU
  6
CONTINUOUS
 10
371.68777
 20
284.576545
 30
0.0
 11
370.681395
 21
284.539195
 31
0.0
 12
371.186428
 22
284.314625
 32
0.0
 13
371.186428
 23
284.314625
 33
0.0
  0
SOLID
  5
DA72
  8
WAKU
  6
CONTINUOUS
 10
369.689155
 20
284.672435
 30
0.0
 11
369.355518
 21
284.472454
 31
0.0
 12
369.787305
 22
284.553935
 32
0.0
 13
369.787305
 23
284.553935
 33
0.0
  0
SOLID
  5
DA73
  8
WAKU
  6
CONTINUOUS
 10
369.251215
 20
284.778928
 30
0.0
 11
369.355518
 21
284.472454
 31
0.0
 12
369.689155
 22
284.672435
 32
0.0
 13
369.689155
 23
284.672435
 33
0.0
  0
SOLID
  5
DA74
  8
WAKU
  6
CONTINUOUS
 10
373.241532
 20
284.780941
 30
0.0
 11
372.237497
 21
284.486117
 31
0.0
 12
372.760756
 22
284.380595
 32
0.0
 13
372.760756
 23
284.380595
 33
0.0
  0
SOLID
  5
DA75
  8
WAKU
  6
CONTINUOUS
 10
371.312263
 20
284.810332
 30
0.0
 11
370.681395
 21
284.539195
 31
0.0
 12
371.68777
 22
284.576545
 32
0.0
 13
371.68777
 23
284.576545
 33
0.0
  0
SOLID
  5
DA76
  8
WAKU
  6
CONTINUOUS
 10
369.630358
 20
284.873087
 30
0.0
 11
369.251215
 21
284.778928
 31
0.0
 12
369.689155
 22
284.672435
 32
0.0
 13
369.689155
 23
284.672435
 33
0.0
  0
SOLID
  5
DA77
  8
WAKU
  6
CONTINUOUS
 10
372.194232
 20
284.918099
 30
0.0
 11
371.312263
 21
284.810332
 31
0.0
 12
371.68777
 22
284.576545
 32
0.0
 13
371.68777
 23
284.576545
 33
0.0
  0
SOLID
  5
DA78
  8
WAKU
  6
CONTINUOUS
 10
370.260168
 20
284.959969
 30
0.0
 11
369.787305
 21
284.553935
 31
0.0
 12
370.172911
 22
284.451856
 32
0.0
 13
370.172911
 23
284.451856
 33
0.0
  0
SOLID
  5
DA79
  8
WAKU
  6
CONTINUOUS
 10
369.863139
 20
284.988189
 30
0.0
 11
369.787305
 21
284.553935
 31
0.0
 12
370.260168
 22
284.959969
 32
0.0
 13
370.260168
 23
284.959969
 33
0.0
  0
SOLID
  5
DA7A
  8
WAKU
  6
CONTINUOUS
 10
398.194006
 20
285.115385
 30
0.0
 11
397.606055
 21
283.5
 31
0.0
 12
401.913747
 22
283.5
 32
0.0
 13
401.913747
 23
283.5
 33
0.0
  0
SOLID
  5
DA7B
  8
WAKU
  6
CONTINUOUS
 10
401.913747
 20
283.5
 30
0.0
 11
401.424776
 21
285.115385
 31
0.0
 12
398.194006
 22
285.115385
 32
0.0
 13
398.194006
 23
285.115385
 33
0.0
  0
SOLID
  5
DA7C
  8
WAKU
  6
CONTINUOUS
 10
369.241303
 20
285.154132
 30
0.0
 11
369.251215
 21
284.778928
 31
0.0
 12
369.630358
 22
284.873087
 32
0.0
 13
369.630358
 23
284.873087
 33
0.0
  0
SOLID
  5
DA7D
  8
WAKU
  6
CONTINUOUS
 10
369.635696
 20
285.180404
 30
0.0
 11
369.241303
 21
285.154132
 31
0.0
 12
369.630358
 22
284.873087
 32
0.0
 13
369.630358
 23
284.873087
 33
0.0
  0
SOLID
  5
DA7E
  8
WAKU
  6
CONTINUOUS
 10
373.690335
 20
285.229744
 30
0.0
 11
372.237497
 21
284.486117
 31
0.0
 12
373.241532
 22
284.780941
 32
0.0
 13
373.241532
 23
284.780941
 33
0.0
  0
SOLID
  5
DA7F
  8
WAKU
  6
CONTINUOUS
 10
371.98994
 20
285.251431
 30
0.0
 11
371.312263
 21
284.810332
 31
0.0
 12
372.194232
 22
284.918099
 32
0.0
 13
372.194232
 23
284.918099
 33
0.0
  0
SOLID
  5
DA80
  8
WAKU
  6
CONTINUOUS
 10
373.195965
 20
285.275232
 30
0.0
 11
372.237497
 21
284.486117
 31
0.0
 12
373.690335
 22
285.229744
 32
0.0
 13
373.690335
 23
285.229744
 33
0.0
  0
SOLID
  5
DA81
  8
WAKU
  6
CONTINUOUS
 10
372.686363
 20
285.326171
 30
0.0
 11
371.98994
 21
285.251431
 31
0.0
 12
372.194232
 22
284.918099
 32
0.0
 13
372.194232
 23
284.918099
 33
0.0
  0
SOLID
  5
DA82
  8
WAKU
  6
CONTINUOUS
 10
370.035293
 20
285.465154
 30
0.0
 11
369.863139
 21
284.988189
 31
0.0
 12
370.260168
 22
284.959969
 32
0.0
 13
370.260168
 23
284.959969
 33
0.0
  0
SOLID
  5
DA83
  8
WAKU
  6
CONTINUOUS
 10
369.73149
 20
285.576021
 30
0.0
 11
369.241303
 21
285.154132
 31
0.0
 12
369.635696
 22
285.180404
 32
0.0
 13
369.635696
 23
285.180404
 33
0.0
  0
SOLID
  5
DA84
  8
WAKU
  6
CONTINUOUS
 10
369.326146
 20
285.584287
 30
0.0
 11
369.241303
 21
285.154132
 31
0.0
 12
369.73149
 22
285.576021
 32
0.0
 13
369.73149
 23
285.576021
 33
0.0
  0
SOLID
  5
DA85
  8
WAKU
  6
CONTINUOUS
 10
370.530712
 20
285.590875
 30
0.0
 11
370.035293
 21
285.465154
 31
0.0
 12
370.260168
 22
284.959969
 32
0.0
 13
370.260168
 23
284.959969
 33
0.0
  0
SOLID
  5
DA86
  8
WAKU
  6
CONTINUOUS
 10
389.236144
 20
285.653846
 30
0.0
 11
383.067593
 21
283.5
 31
0.0
 12
388.452208
 22
283.5
 32
0.0
 13
388.452208
 23
283.5
 33
0.0
  0
SOLID
  5
DA87
  8
WAKU
  6
CONTINUOUS
 10
383.851529
 20
285.653846
 30
0.0
 11
383.067593
 21
283.5
 31
0.0
 12
389.236144
 22
285.653846
 32
0.0
 13
389.236144
 23
285.653846
 33
0.0
  0
SOLID
  5
DA88
  8
WAKU
  6
CONTINUOUS
 10
404.851529
 20
285.653846
 30
0.0
 11
404.067593
 21
283.5
 31
0.0
 12
409.452208
 22
283.5
 32
0.0
 13
409.452208
 23
283.5
 33
0.0
  0
SOLID
  5
DA89
  8
WAKU
  6
CONTINUOUS
 10
409.452208
 20
283.5
 30
0.0
 11
409.159221
 21
285.653846
 31
0.0
 12
404.851529
 22
285.653846
 32
0.0
 13
404.851529
 23
285.653846
 33
0.0
  0
SOLID
  5
DA8A
  8
WAKU
  6
CONTINUOUS
 10
391.174606
 20
285.653846
 30
0.0
 11
390.39067
 21
283.5
 31
0.0
 12
395.452208
 22
283.5
 32
0.0
 13
395.452208
 23
283.5
 33
0.0
  0
SOLID
  5
DA8B
  8
WAKU
  6
CONTINUOUS
 10
395.452208
 20
283.5
 30
0.0
 11
395.159221
 21
285.653846
 31
0.0
 12
391.174606
 22
285.653846
 32
0.0
 13
391.174606
 23
285.653846
 33
0.0
  0
SOLID
  5
DA8C
  8
WAKU
  6
CONTINUOUS
 10
374.090681
 20
285.71052
 30
0.0
 11
373.195965
 21
285.275232
 31
0.0
 12
373.690335
 22
285.229744
 32
0.0
 13
373.690335
 23
285.229744
 33
0.0
  0
SOLID
  5
DA8D
  8
WAKU
  6
CONTINUOUS
 10
373.145266
 20
285.785089
 30
0.0
 11
371.98994
 21
285.251431
 31
0.0
 12
372.686363
 22
285.326171
 32
0.0
 13
372.686363
 23
285.326171
 33
0.0
  0
SOLID
  5
DA8E
  8
WAKU
  6
CONTINUOUS
 10
372.646296
 20
285.825506
 30
0.0
 11
371.98994
 21
285.251431
 31
0.0
 12
373.145266
 22
285.785089
 32
0.0
 13
373.145266
 23
285.785089
 33
0.0
  0
SOLID
  5
DA8F
  8
WAKU
  6
CONTINUOUS
 10
370.297156
 20
285.966509
 30
0.0
 11
370.035293
 21
285.465154
 31
0.0
 12
370.530712
 22
285.590875
 32
0.0
 13
370.530712
 23
285.590875
 33
0.0
  0
SOLID
  5
DA90
  8
WAKU
  6
CONTINUOUS
 10
369.923519
 20
286.031028
 30
0.0
 11
369.326146
 21
285.584287
 31
0.0
 12
369.73149
 22
285.576021
 32
0.0
 13
369.73149
 23
285.576021
 33
0.0
  0
SOLID
  5
DA91
  8
WAKU
  6
CONTINUOUS
 10
369.502627
 20
286.053593
 30
0.0
 11
369.326146
 21
285.584287
 31
0.0
 12
369.923519
 22
286.031028
 32
0.0
 13
369.923519
 23
286.031028
 33
0.0
  0
SOLID
  5
DA92
  8
WAKU
  6
CONTINUOUS
 10
379.397145
 20
286.138462
 30
0.0
 11
378.436824
 21
283.5
 31
0.0
 12
379.513747
 22
283.5
 32
0.0
 13
379.513747
 23
283.5
 33
0.0
  0
SOLID
  5
DA93
  8
WAKU
  6
CONTINUOUS
 10
377.155205
 20
286.192308
 30
0.0
 11
376.175285
 21
283.5
 31
0.0
 12
379.397145
 22
286.138462
 32
0.0
 13
379.397145
 23
286.138462
 33
0.0
  0
SOLID
  5
DA94
  8
WAKU
  6
CONTINUOUS
 10
380.493667
 20
286.192308
 30
0.0
 11
377.155205
 21
286.192308
 31
0.0
 12
379.397145
 22
286.138462
 32
0.0
 13
379.397145
 23
286.138462
 33
0.0
  0
SOLID
  5
DA95
  8
WAKU
  6
CONTINUOUS
 10
380.493667
 20
286.192308
 30
0.0
 11
379.397145
 21
286.138462
 31
0.0
 12
379.513747
 22
283.5
 32
0.0
 13
379.513747
 23
283.5
 33
0.0
  0
SOLID
  5
DA96
  8
WAKU
  6
CONTINUOUS
 10
380.493667
 20
286.192308
 30
0.0
 11
381.775285
 21
283.5
 31
0.0
 12
382.755205
 22
286.192308
 32
0.0
 13
382.755205
 23
286.192308
 33
0.0
  0
SOLID
  5
DA97
  8
WAKU
  6
CONTINUOUS
 10
374.427865
 20
286.205609
 30
0.0
 11
373.195965
 21
285.275232
 31
0.0
 12
374.090681
 22
285.71052
 32
0.0
 13
374.090681
 23
285.71052
 33
0.0
  0
SOLID
  5
DA98
  8
WAKU
  6
CONTINUOUS
 10
373.98505
 20
286.233718
 30
0.0
 11
373.195965
 21
285.275232
 31
0.0
 12
374.427865
 22
286.205609
 32
0.0
 13
374.427865
 23
286.205609
 33
0.0
  0
SOLID
  5
DA99
  8
WAKU
  6
CONTINUOUS
 10
370.971896
 20
286.268471
 30
0.0
 11
370.297156
 21
285.966509
 31
0.0
 12
370.530712
 22
285.590875
 32
0.0
 13
370.530712
 23
285.590875
 33
0.0
  0
SOLID
  5
DA9A
  8
WAKU
  6
CONTINUOUS
 10
373.553316
 20
286.277229
 30
0.0
 11
372.646296
 21
285.825506
 31
0.0
 12
373.145266
 22
285.785089
 32
0.0
 13
373.145266
 23
285.785089
 33
0.0
  0
SOLID
  5
DA9B
  8
WAKU
  6
CONTINUOUS
 10
370.638671
 20
286.473
 30
0.0
 11
370.297156
 21
285.966509
 31
0.0
 12
370.971896
 22
286.268471
 32
0.0
 13
370.971896
 23
286.268471
 33
0.0
  0
SOLID
  5
DA9C
  8
WAKU
  6
CONTINUOUS
 10
373.220238
 20
286.48192
 30
0.0
 11
372.646296
 21
285.825506
 31
0.0
 12
373.553316
 22
286.277229
 32
0.0
 13
373.553316
 23
286.277229
 33
0.0
  0
SOLID
  5
DA9D
  8
WAKU
  6
CONTINUOUS
 10
370.207035
 20
286.51657
 30
0.0
 11
369.502627
 21
286.053593
 31
0.0
 12
369.923519
 22
286.031028
 32
0.0
 13
369.923519
 23
286.031028
 33
0.0
  0
SOLID
  5
DA9E
  8
WAKU
  6
CONTINUOUS
 10
369.764265
 20
286.544812
 30
0.0
 11
369.502627
 21
286.053593
 31
0.0
 12
370.207035
 22
286.51657
 32
0.0
 13
370.207035
 23
286.51657
 33
0.0
  0
SOLID
  5
DA9F
  8
WAKU
  6
CONTINUOUS
 10
374.689503
 20
286.696828
 30
0.0
 11
373.98505
 21
286.233718
 31
0.0
 12
374.427865
 22
286.205609
 32
0.0
 13
374.427865
 23
286.205609
 33
0.0
  0
SOLID
  5
DAA0
  8
WAKU
  6
CONTINUOUS
 10
374.268507
 20
286.719278
 30
0.0
 11
373.98505
 21
286.233718
 31
0.0
 12
374.689503
 22
286.696828
 32
0.0
 13
374.689503
 23
286.696828
 33
0.0
  0
SOLID
  5
DAA1
  8
WAKU
  6
CONTINUOUS
 10
373.894843
 20
286.783693
 30
0.0
 11
373.220238
 21
286.48192
 31
0.0
 12
373.553316
 22
286.277229
 32
0.0
 13
373.553316
 23
286.277229
 33
0.0
  0
SOLID
  5
DAA2
  8
WAKU
  6
CONTINUOUS
 10
371.545827
 20
286.924893
 30
0.0
 11
370.638671
 21
286.473
 31
0.0
 12
370.971896
 22
286.268471
 32
0.0
 13
370.971896
 23
286.268471
 33
0.0
  0
SOLID
  5
DAA3
  8
WAKU
  6
CONTINUOUS
 10
371.04672
 20
286.965174
 30
0.0
 11
370.638671
 21
286.473
 31
0.0
 12
371.545827
 22
286.924893
 32
0.0
 13
371.545827
 23
286.924893
 33
0.0
  0
SOLID
  5
DAA4
  8
WAKU
  6
CONTINUOUS
 10
370.101449
 20
287.039901
 30
0.0
 11
369.764265
 21
286.544812
 31
0.0
 12
370.207035
 22
286.51657
 32
0.0
 13
370.207035
 23
286.51657
 33
0.0
  0
SOLID
  5
DAA5
  8
WAKU
  6
CONTINUOUS
 10
373.661353
 20
287.159534
 30
0.0
 11
373.220238
 21
286.48192
 31
0.0
 12
373.894843
 22
286.783693
 32
0.0
 13
373.894843
 23
286.783693
 33
0.0
  0
SOLID
  5
DAA6
  8
WAKU
  6
CONTINUOUS
 10
374.865984
 20
287.166134
 30
0.0
 11
374.268507
 21
286.719278
 31
0.0
 12
374.689503
 22
286.696828
 32
0.0
 13
374.689503
 23
286.696828
 33
0.0
  0
SOLID
  5
DAA7
  8
WAKU
  6
CONTINUOUS
 10
374.46071
 20
287.174248
 30
0.0
 11
374.268507
 21
286.719278
 31
0.0
 12
374.865984
 22
287.166134
 32
0.0
 13
374.865984
 23
287.166134
 33
0.0
  0
SOLID
  5
DAA8
  8
WAKU
  6
CONTINUOUS
 10
374.156732
 20
287.28503
 30
0.0
 11
373.661353
 21
287.159534
 31
0.0
 12
373.894843
 22
286.783693
 32
0.0
 13
373.894843
 23
286.783693
 33
0.0
  0
SOLID
  5
DAA9
  8
WAKU
  6
CONTINUOUS
 10
371.505632
 20
287.424128
 30
0.0
 11
371.04672
 21
286.965174
 31
0.0
 12
371.545827
 22
286.924893
 32
0.0
 13
371.545827
 23
286.924893
 33
0.0
  0
SOLID
  5
DAAA
  8
WAKU
  6
CONTINUOUS
 10
370.996098
 20
287.475108
 30
0.0
 11
370.101449
 21
287.039901
 31
0.0
 12
370.207035
 22
286.51657
 32
0.0
 13
370.207035
 23
286.51657
 33
0.0
  0
SOLID
  5
DAAB
  8
WAKU
  6
CONTINUOUS
 10
372.202181
 20
287.498991
 30
0.0
 11
371.505632
 21
287.424128
 31
0.0
 12
371.545827
 22
286.924893
 32
0.0
 13
371.545827
 23
286.924893
 33
0.0
  0
SOLID
  5
DAAC
  8
WAKU
  6
CONTINUOUS
 10
370.501795
 20
287.520677
 30
0.0
 11
370.101449
 21
287.039901
 31
0.0
 12
370.996098
 22
287.475108
 32
0.0
 13
370.996098
 23
287.475108
 33
0.0
  0
SOLID
  5
DAAD
  8
WAKU
  6
CONTINUOUS
 10
374.556361
 20
287.569864
 30
0.0
 11
374.46071
 21
287.174248
 31
0.0
 12
374.865984
 22
287.166134
 32
0.0
 13
374.865984
 23
287.166134
 33
0.0
  0
SOLID
  5
DAAE
  8
WAKU
  6
CONTINUOUS
 10
395.864763
 20
287.592308
 30
0.0
 11
395.159221
 21
285.653846
 31
0.0
 12
395.452208
 22
283.5
 32
0.0
 13
395.452208
 23
283.5
 33
0.0
  0
SOLID
  5
DAAF
  8
WAKU
  6
CONTINUOUS
 10
393.172456
 20
287.592308
 30
0.0
 11
391.703565
 21
286.515385
 31
0.0
 12
392.780488
 22
286.515385
 32
0.0
 13
392.780488
 23
286.515385
 33
0.0
  0
SOLID
  5
DAB0
  8
WAKU
  6
CONTINUOUS
 10
392.095533
 20
287.592308
 30
0.0
 11
391.703565
 21
286.515385
 31
0.0
 12
393.172456
 22
287.592308
 32
0.0
 13
393.172456
 23
287.592308
 33
0.0
  0
SOLID
  5
DAB1
  8
WAKU
  6
CONTINUOUS
 10
391.28784
 20
287.592308
 30
0.0
 11
392.095533
 21
287.592308
 31
0.0
 12
393.172456
 22
287.592308
 32
0.0
 13
393.172456
 23
287.592308
 33
0.0
  0
SOLID
  5
DAB2
  8
WAKU
  6
CONTINUOUS
 10
391.28784
 20
287.592308
 30
0.0
 11
393.172456
 21
287.592308
 31
0.0
 12
395.864763
 22
287.592308
 32
0.0
 13
395.864763
 23
287.592308
 33
0.0
  0
SOLID
  5
DAB3
  8
WAKU
  6
CONTINUOUS
 10
396.941687
 20
287.592308
 30
0.0
 11
391.28784
 21
287.592308
 31
0.0
 12
395.864763
 22
287.592308
 32
0.0
 13
395.864763
 23
287.592308
 33
0.0
  0
SOLID
  5
DAB4
  8
WAKU
  6
CONTINUOUS
 10
396.941687
 20
287.592308
 30
0.0
 11
395.864763
 21
287.592308
 31
0.0
 12
395.452208
 22
283.5
 32
0.0
 13
395.452208
 23
283.5
 33
0.0
  0
SOLID
  5
DAB5
  8
WAKU
  6
CONTINUOUS
 10
374.950827
 20
287.596289
 30
0.0
 11
374.556361
 21
287.569864
 31
0.0
 12
374.865984
 22
287.166134
 32
0.0
 13
374.865984
 23
287.166134
 33
0.0
  0
SOLID
  5
DAB6
  8
WAKU
  6
CONTINUOUS
 10
374.328925
 20
287.761987
 30
0.0
 11
373.661353
 21
287.159534
 31
0.0
 12
374.156732
 22
287.28503
 32
0.0
 13
374.156732
 23
287.28503
 33
0.0
  0
SOLID
  5
DAB7
  8
WAKU
  6
CONTINUOUS
 10
373.932071
 20
287.790402
 30
0.0
 11
373.661353
 21
287.159534
 31
0.0
 12
374.328925
 22
287.761987
 32
0.0
 13
374.328925
 23
287.761987
 33
0.0
  0
SOLID
  5
DAB8
  8
WAKU
  6
CONTINUOUS
 10
371.997783
 20
287.832235
 30
0.0
 11
371.505632
 21
287.424128
 31
0.0
 12
372.202181
 22
287.498991
 32
0.0
 13
372.202181
 23
287.498991
 33
0.0
  0
SOLID
  5
DAB9
  8
WAKU
  6
CONTINUOUS
 10
374.561802
 20
287.877253
 30
0.0
 11
374.556361
 21
287.569864
 31
0.0
 12
374.950827
 22
287.596289
 32
0.0
 13
374.950827
 23
287.596289
 33
0.0
  0
SOLID
  5
DABA
  8
WAKU
  6
CONTINUOUS
 10
372.879878
 20
287.940057
 30
0.0
 11
371.997783
 21
287.832235
 31
0.0
 12
372.202181
 22
287.498991
 32
0.0
 13
372.202181
 23
287.498991
 33
0.0
  0
SOLID
  5
DABB
  8
WAKU
  6
CONTINUOUS
 10
370.950599
 20
287.96948
 30
0.0
 11
370.501795
 21
287.520677
 31
0.0
 12
370.996098
 22
287.475108
 32
0.0
 13
370.996098
 23
287.475108
 33
0.0
  0
SOLID
  5
DABC
  8
WAKU
  6
CONTINUOUS
 10
374.940915
 20
287.971493
 30
0.0
 11
374.561802
 21
287.877253
 31
0.0
 12
374.950827
 22
287.596289
 32
0.0
 13
374.950827
 23
287.596289
 33
0.0
  0
SOLID
  5
DABD
  8
WAKU
  6
CONTINUOUS
 10
374.502951
 20
288.077918
 30
0.0
 11
374.561802
 21
287.877253
 31
0.0
 12
374.940915
 22
287.971493
 32
0.0
 13
374.940915
 23
287.971493
 33
0.0
  0
SOLID
  5
DABE
  8
WAKU
  6
CONTINUOUS
 10
405.753055
 20
288.130769
 30
0.0
 11
405.282694
 21
286.838462
 31
0.0
 12
408.513463
 22
286.838462
 32
0.0
 13
408.513463
 23
286.838462
 33
0.0
  0
SOLID
  5
DABF
  8
WAKU
  6
CONTINUOUS
 10
408.983824
 20
288.130769
 30
0.0
 11
405.753055
 21
288.130769
 31
0.0
 12
408.513463
 22
286.838462
 32
0.0
 13
408.513463
 23
286.838462
 33
0.0
  0
SOLID
  5
DAC0
  8
WAKU
  6
CONTINUOUS
 10
372.504269
 20
288.173821
 30
0.0
 11
371.997783
 21
287.832235
 31
0.0
 12
372.879878
 22
287.940057
 32
0.0
 13
372.879878
 23
287.940057
 33
0.0
  0
SOLID
  5
DAC1
  8
WAKU
  6
CONTINUOUS
 10
374.40481
 20
288.196249
 30
0.0
 11
373.932071
 21
287.790402
 31
0.0
 12
374.328925
 22
287.761987
 32
0.0
 13
374.328925
 23
287.761987
 33
0.0
  0
SOLID
  5
DAC2
  8
WAKU
  6
CONTINUOUS
 10
374.40481
 20
288.196249
 30
0.0
 11
374.502951
 21
288.077918
 31
0.0
 12
374.940915
 22
287.971493
 32
0.0
 13
374.940915
 23
287.971493
 33
0.0
  0
SOLID
  5
DAC3
  8
WAKU
  6
CONTINUOUS
 10
373.510738
 20
288.21124
 30
0.0
 11
372.504269
 21
288.173821
 31
0.0
 12
372.879878
 22
287.940057
 32
0.0
 13
372.879878
 23
287.940057
 33
0.0
  0
SOLID
  5
DAC4
  8
WAKU
  6
CONTINUOUS
 10
371.954587
 20
288.264284
 30
0.0
 11
370.950599
 21
287.96948
 31
0.0
 12
370.996098
 22
287.475108
 32
0.0
 13
370.996098
 23
287.475108
 33
0.0
  0
SOLID
  5
DAC5
  8
WAKU
  6
CONTINUOUS
 10
374.836612
 20
288.277967
 30
0.0
 11
374.40481
 21
288.196249
 31
0.0
 12
374.940915
 22
287.971493
 32
0.0
 13
374.940915
 23
287.971493
 33
0.0
  0
SOLID
  5
DAC6
  8
WAKU
  6
CONTINUOUS
 10
374.019229
 20
288.298569
 30
0.0
 11
372.504269
 21
288.173821
 31
0.0
 12
373.510738
 22
288.21124
 32
0.0
 13
373.510738
 23
288.21124
 33
0.0
  0
SOLID
  5
DAC7
  8
WAKU
  6
CONTINUOUS
 10
374.019229
 20
288.298569
 30
0.0
 11
374.40481
 21
288.196249
 31
0.0
 12
374.836612
 22
288.277967
 32
0.0
 13
374.836612
 23
288.277967
 33
0.0
  0
SOLID
  5
DAC8
  8
WAKU
  6
CONTINUOUS
 10
374.019229
 20
288.298569
 30
0.0
 11
373.932071
 21
287.790402
 31
0.0
 12
374.40481
 22
288.196249
 32
0.0
 13
374.40481
 23
288.196249
 33
0.0
  0
SOLID
  5
DAC9
  8
WAKU
  6
CONTINUOUS
 10
371.431374
 20
288.369826
 30
0.0
 11
370.950599
 21
287.96948
 31
0.0
 12
371.954587
 22
288.264284
 32
0.0
 13
371.954587
 23
288.264284
 33
0.0
  0
SOLID
  5
DACA
  8
WAKU
  6
CONTINUOUS
 10
373.005639
 20
288.435768
 30
0.0
 11
372.504269
 21
288.173821
 31
0.0
 12
374.019229
 22
288.298569
 32
0.0
 13
374.019229
 23
288.298569
 33
0.0
  0
SOLID
  5
DACB
  8
WAKU
  6
CONTINUOUS
 10
374.641749
 20
288.504452
 30
0.0
 11
373.005639
 21
288.435768
 31
0.0
 12
374.019229
 22
288.298569
 32
0.0
 13
374.019229
 23
288.298569
 33
0.0
  0
SOLID
  5
DACC
  8
WAKU
  6
CONTINUOUS
 10
374.641749
 20
288.504452
 30
0.0
 11
374.019229
 21
288.298569
 31
0.0
 12
374.836612
 22
288.277967
 32
0.0
 13
374.836612
 23
288.277967
 33
0.0
  0
SOLID
  5
DACD
  8
WAKU
  6
CONTINUOUS
 10
372.440235
 20
288.547585
 30
0.0
 11
371.431374
 21
288.369826
 31
0.0
 12
371.954587
 22
288.264284
 32
0.0
 13
371.954587
 23
288.264284
 33
0.0
  0
SOLID
  5
DACE
  8
WAKU
  6
CONTINUOUS
 10
373.482636
 20
288.608014
 30
0.0
 11
373.005639
 21
288.435768
 31
0.0
 12
374.641749
 22
288.504452
 32
0.0
 13
374.641749
 23
288.504452
 33
0.0
  0
SOLID
  5
DACF
  8
WAKU
  6
CONTINUOUS
 10
374.363484
 20
288.64263
 30
0.0
 11
373.482636
 21
288.608014
 31
0.0
 12
374.641749
 22
288.504452
 32
0.0
 13
374.641749
 23
288.504452
 33
0.0
  0
SOLID
  5
DAD0
  8
WAKU
  6
CONTINUOUS
 10
373.916941
 20
288.683944
 30
0.0
 11
373.482636
 21
288.608014
 31
0.0
 12
374.363484
 22
288.64263
 32
0.0
 13
374.363484
 23
288.64263
 33
0.0
  0
SOLID
  5
DAD1
  8
WAKU
  6
CONTINUOUS
 10
371.926464
 20
288.70701
 30
0.0
 11
371.431374
 21
288.369826
 31
0.0
 12
372.440235
 22
288.547585
 32
0.0
 13
372.440235
 23
288.547585
 33
0.0
  0
SOLID
  5
DAD2
  8
WAKU
  6
CONTINUOUS
 10
372.89514
 20
288.740065
 30
0.0
 11
371.926464
 21
288.70701
 31
0.0
 12
372.440235
 22
288.547585
 32
0.0
 13
372.440235
 23
288.547585
 33
0.0
  0
SOLID
  5
DAD3
  8
WAKU
  6
CONTINUOUS
 10
380.311313
 20
288.776923
 30
0.0
 11
377.155205
 21
286.192308
 31
0.0
 12
380.493667
 22
286.192308
 32
0.0
 13
380.493667
 23
286.192308
 33
0.0
  0
SOLID
  5
DAD4
  8
WAKU
  6
CONTINUOUS
 10
381.524851
 20
288.776923
 30
0.0
 11
378.095928
 21
288.776923
 31
0.0
 12
380.311313
 22
288.776923
 32
0.0
 13
380.311313
 23
288.776923
 33
0.0
  0
SOLID
  5
DAD5
  8
WAKU
  6
CONTINUOUS
 10
381.524851
 20
288.776923
 30
0.0
 11
380.311313
 21
288.776923
 31
0.0
 12
380.493667
 22
286.192308
 32
0.0
 13
380.493667
 23
286.192308
 33
0.0
  0
SOLID
  5
DAD6
  8
WAKU
  6
CONTINUOUS
 10
381.524851
 20
288.776923
 30
0.0
 11
380.493667
 21
286.192308
 31
0.0
 12
382.755205
 22
286.192308
 32
0.0
 13
382.755205
 23
286.192308
 33
0.0
  0
SOLID
  5
DAD7
  8
WAKU
  6
CONTINUOUS
 10
373.799148
 20
288.781929
 30
0.0
 11
373.916941
 21
288.683944
 31
0.0
 12
374.363484
 22
288.64263
 32
0.0
 13
374.363484
 23
288.64263
 33
0.0
  0
SOLID
  5
DAD8
  8
WAKU
  6
CONTINUOUS
 10
373.290857
 20
288.835581
 30
0.0
 11
371.926464
 21
288.70701
 31
0.0
 12
372.89514
 22
288.740065
 32
0.0
 13
372.89514
 23
288.740065
 33
0.0
  0
SOLID
  5
DAD9
  8
WAKU
  6
CONTINUOUS
 10
373.597996
 20
288.840902
 30
0.0
 11
373.799148
 21
288.781929
 31
0.0
 12
374.363484
 22
288.64263
 32
0.0
 13
374.363484
 23
288.64263
 33
0.0
  0
SOLID
  5
DADA
  8
WAKU
  6
CONTINUOUS
 10
402.042817
 20
288.884615
 30
0.0
 11
400.181958
 21
286.730769
 31
0.0
 12
401.258881
 22
286.730769
 32
0.0
 13
401.258881
 23
286.730769
 33
0.0
  0
SOLID
  5
DADB
  8
WAKU
  6
CONTINUOUS
 10
402.796663
 20
288.884615
 30
0.0
 11
401.424776
 21
285.115385
 31
0.0
 12
401.913747
 22
283.5
 32
0.0
 13
401.913747
 23
283.5
 33
0.0
  0
SOLID
  5
DADC
  8
WAKU
  6
CONTINUOUS
 10
403.873587
 20
288.884615
 30
0.0
 11
402.796663
 21
288.884615
 31
0.0
 12
401.913747
 22
283.5
 32
0.0
 13
401.913747
 23
283.5
 33
0.0
  0
SOLID
  5
DADD
  8
WAKU
  6
CONTINUOUS
 10
400.965894
 20
288.884615
 30
0.0
 11
400.181958
 21
286.730769
 31
0.0
 12
402.042817
 22
288.884615
 32
0.0
 13
402.042817
 23
288.884615
 33
0.0
  0
SOLID
  5
DADE
  8
WAKU
  6
CONTINUOUS
 10
399.858881
 20
286.730769
 30
0.0
 11
400.642817
 21
288.884615
 31
0.0
 12
399.565894
 22
288.884615
 32
0.0
 13
399.565894
 23
288.884615
 33
0.0
  0
SOLID
  5
DADF
  8
WAKU
  6
CONTINUOUS
 10
399.565894
 20
288.884615
 30
0.0
 11
398.781958
 21
286.730769
 31
0.0
 12
399.858881
 22
286.730769
 32
0.0
 13
399.858881
 23
286.730769
 33
0.0
  0
SOLID
  5
DAE0
  8
WAKU
  6
CONTINUOUS
 10
374.225306
 20
288.920895
 30
0.0
 11
373.597996
 21
288.840902
 31
0.0
 12
374.363484
 22
288.64263
 32
0.0
 13
374.363484
 23
288.64263
 33
0.0
  0
SOLID
  5
DAE1
  8
WAKU
  6
CONTINUOUS
 10
372.417683
 20
288.968648
 30
0.0
 11
373.597996
 21
288.840902
 31
0.0
 12
374.225306
 22
288.920895
 32
0.0
 13
374.225306
 23
288.920895
 33
0.0
  0
SOLID
  5
DAE2
  8
WAKU
  6
CONTINUOUS
 10
372.417683
 20
288.968648
 30
0.0
 11
373.290857
 21
288.835581
 31
0.0
 12
373.597996
 22
288.840902
 32
0.0
 13
373.597996
 23
288.840902
 33
0.0
  0
SOLID
  5
DAE3
  8
WAKU
  6
CONTINUOUS
 10
372.417683
 20
288.968648
 30
0.0
 11
371.926464
 21
288.70701
 31
0.0
 12
373.290857
 22
288.835581
 32
0.0
 13
373.290857
 23
288.835581
 33
0.0
  0
SOLID
  5
DAE4
  8
WAKU
  6
CONTINUOUS
 10
373.998821
 20
289.115757
 30
0.0
 11
372.417683
 21
288.968648
 31
0.0
 12
374.225306
 22
288.920895
 32
0.0
 13
374.225306
 23
288.920895
 33
0.0
  0
SOLID
  5
DAE5
  8
WAKU
  6
CONTINUOUS
 10
372.886988
 20
289.145129
 30
0.0
 11
372.417683
 21
288.968648
 31
0.0
 12
373.998821
 22
289.115757
 32
0.0
 13
373.998821
 23
289.115757
 33
0.0
  0
SOLID
  5
DAE6
  8
WAKU
  6
CONTINUOUS
 10
396.941687
 20
287.592308
 30
0.0
 11
396.452715
 21
289.207692
 31
0.0
 12
393.760408
 22
289.207692
 32
0.0
 13
393.760408
 23
289.207692
 33
0.0
  0
SOLID
  5
DAE7
  8
WAKU
  6
CONTINUOUS
 10
396.452715
 20
289.207692
 30
0.0
 11
396.941687
 21
287.592308
 31
0.0
 12
397.749379
 22
287.592308
 32
0.0
 13
397.749379
 23
287.592308
 33
0.0
  0
SOLID
  5
DAE8
  8
WAKU
  6
CONTINUOUS
 10
393.760408
 20
289.207692
 30
0.0
 11
391.28784
 21
287.592308
 31
0.0
 12
396.941687
 22
287.592308
 32
0.0
 13
396.941687
 23
287.592308
 33
0.0
  0
SOLID
  5
DAE9
  8
WAKU
  6
CONTINUOUS
 10
398.337331
 20
289.207692
 30
0.0
 11
396.452715
 21
289.207692
 31
0.0
 12
397.749379
 22
287.592308
 32
0.0
 13
397.749379
 23
287.592308
 33
0.0
  0
SOLID
  5
DAEA
  8
WAKU
  6
CONTINUOUS
 10
391.875792
 20
289.207692
 30
0.0
 11
391.28784
 21
287.592308
 31
0.0
 12
393.760408
 22
289.207692
 32
0.0
 13
393.760408
 23
289.207692
 33
0.0
  0
SOLID
  5
DAEB
  8
WAKU
  6
CONTINUOUS
 10
393.760408
 20
289.207692
 30
0.0
 11
392.683485
 21
289.207692
 31
0.0
 12
391.875792
 22
289.207692
 32
0.0
 13
391.875792
 23
289.207692
 33
0.0
  0
SOLID
  5
DAEC
  8
WAKU
  6
CONTINUOUS
 10
397.529638
 20
289.207692
 30
0.0
 11
396.452715
 21
289.207692
 31
0.0
 12
398.337331
 22
289.207692
 32
0.0
 13
398.337331
 23
289.207692
 33
0.0
  0
SOLID
  5
DAED
  8
WAKU
  6
CONTINUOUS
 10
373.692348
 20
289.22006
 30
0.0
 11
372.886988
 21
289.145129
 31
0.0
 12
373.998821
 22
289.115757
 32
0.0
 13
373.998821
 23
289.115757
 33
0.0
  0
SOLID
  5
DAEE
  8
WAKU
  6
CONTINUOUS
 10
373.317143
 20
289.229972
 30
0.0
 11
372.886988
 21
289.145129
 31
0.0
 12
373.692348
 22
289.22006
 32
0.0
 13
373.692348
 23
289.22006
 33
0.0
  0
SOLID
  5
DAEF
  8
WAKU
  6
CONTINUOUS
 10
378.723077
 20
290.5
 30
0.0
 11
381.524851
 21
288.776923
 31
0.0
 12
383.695928
 22
288.776923
 32
0.0
 13
383.695928
 23
288.776923
 33
0.0
  0
SOLID
  5
DAF0
  8
WAKU
  6
CONTINUOUS
 10
378.723077
 20
290.5
 30
0.0
 11
378.095928
 21
288.776923
 31
0.0
 12
381.524851
 22
288.776923
 32
0.0
 13
381.524851
 23
288.776923
 33
0.0
  0
SOLID
  5
DAF1
  8
WAKU
  6
CONTINUOUS
 10
372.249053
 20
290.5
 30
0.0
 11
367.971276
 21
290.5
 31
0.0
 12
367.971276
 22
286.222222
 32
0.0
 13
367.971276
 23
286.222222
 33
0.0
  0
SOLID
  5
DAF2
  8
WAKU
  6
CONTINUOUS
 10
409.219005
 20
288.776923
 30
0.0
 11
409.846154
 21
290.5
 31
0.0
 12
406.615385
 22
290.5
 32
0.0
 13
406.615385
 23
290.5
 33
0.0
  0
SOLID
  5
DAF3
  8
WAKU
  6
CONTINUOUS
 10
406.615385
 20
290.5
 30
0.0
 11
405.988236
 21
288.776923
 31
0.0
 12
409.219005
 22
288.776923
 32
0.0
 13
409.219005
 23
288.776923
 33
0.0
  0
SOLID
  5
DAF4
  8
WAKU
  6
CONTINUOUS
 10
392.683485
 20
289.207692
 30
0.0
 11
394.230769
 21
290.5
 31
0.0
 12
393.153846
 22
290.5
 32
0.0
 13
393.153846
 23
290.5
 33
0.0
  0
SOLID
  5
DAF5
  8
WAKU
  6
CONTINUOUS
 10
394.230769
 20
290.5
 30
0.0
 11
392.683485
 21
289.207692
 31
0.0
 12
393.760408
 22
289.207692
 32
0.0
 13
393.760408
 23
289.207692
 33
0.0
  0
SOLID
  5
DAF6
  8
WAKU
  6
CONTINUOUS
 10
409.159221
 20
285.653846
 30
0.0
 11
412.0
 21
290.5
 31
0.0
 12
410.923077
 22
290.5
 32
0.0
 13
410.923077
 23
290.5
 33
0.0
  0
SOLID
  5
DAF7
  8
WAKU
  6
CONTINUOUS
 10
412.0
 20
290.5
 30
0.0
 11
409.159221
 21
285.653846
 31
0.0
 12
409.452208
 22
283.5
 32
0.0
 13
409.452208
 23
283.5
 33
0.0
  0
SOLID
  5
DAF8
  8
WAKU
  6
CONTINUOUS
 10
384.323077
 20
290.5
 30
0.0
 11
378.723077
 21
290.5
 31
0.0
 12
383.695928
 22
288.776923
 32
0.0
 13
383.695928
 23
288.776923
 33
0.0
  0
SOLID
  5
DAF9
  8
WAKU
  6
CONTINUOUS
 10
385.615385
 20
290.5
 30
0.0
 11
384.988236
 21
288.776923
 31
0.0
 12
390.372851
 22
288.776923
 32
0.0
 13
390.372851
 23
288.776923
 33
0.0
  0
SOLID
  5
DAFA
  8
WAKU
  6
CONTINUOUS
 10
396.923077
 20
290.5
 30
0.0
 11
396.452715
 21
289.207692
 31
0.0
 12
397.529638
 22
289.207692
 32
0.0
 13
397.529638
 23
289.207692
 33
0.0
  0
SOLID
  5
DAFB
  8
WAKU
  6
CONTINUOUS
 10
391.0
 20
290.5
 30
0.0
 11
385.615385
 21
290.5
 31
0.0
 12
390.372851
 22
288.776923
 32
0.0
 13
390.372851
 23
288.776923
 33
0.0
  0
SOLID
  5
DAFC
  8
WAKU
  6
CONTINUOUS
 10
398.0
 20
290.5
 30
0.0
 11
396.923077
 21
290.5
 31
0.0
 12
397.529638
 22
289.207692
 32
0.0
 13
397.529638
 23
289.207692
 33
0.0
  0
ENDBLK
  5
DAFD
  8
0
  0
ENDSEC
  0
SECTION
  2
ENTITIES
  0
LINE
  5
DB05
  8
WAKU
 10
415.0
 20
292.0
 30
0.0
 11
415.0
 21
5.0
 31
0.0
  0
LINE
  5
DB06
  8
WAKU
 10
5.0
 20
292.0
 30
0.0
 11
5.0
 21
5.0
 31
0.0
  0
LINE
  5
DB07
  8
WAKU
 10
5.0
 20
5.0
 30
0.0
 11
415.0
 21
5.0
 31
0.0
  0
LINE
  5
DB08
  8
WAKU
 10
5.0
 20
292.0
 30
0.0
 11
415.0
 21
292.0
 31
0.0
  0
LINE
  5
DB09
  8
WAKU
 10
5.0
 20
282.0
 30
0.0
 11
415.0
 21
282.0
 31
0.0
  0
LINE
  5
DB0A
  8
WAKU
  6
CONTINUOUS
 10
393.760408
 20
289.207692
 30
0.0
 11
396.452715
 21
289.207692
 31
0.0
  0
LINE
  5
DB0B
  8
WAKU
  6
CONTINUOUS
 10
393.172456
 20
287.592308
 30
0.0
 11
395.864763
 21
287.592308
 31
0.0
  0
LINE
  5
DB0C
  8
WAKU
  6
CONTINUOUS
 10
390.39067
 20
283.5
 30
0.0
 11
395.452208
 21
283.5
 31
0.0
  0
LINE
  5
DB0D
  8
WAKU
  6
CONTINUOUS
 10
395.159221
 20
285.653846
 30
0.0
 11
395.864763
 21
287.592308
 31
0.0
  0
LINE
  5
DB0E
  8
WAKU
  6
CONTINUOUS
 10
367.971276
 20
290.5
 30
0.0
 11
372.249053
 21
290.5
 31
0.0
  0
LINE
  5
DB0F
  8
WAKU
  6
CONTINUOUS
 10
367.971276
 20
286.222222
 30
0.0
 11
372.249053
 21
290.5
 31
0.0
  0
LINE
  5
DB10
  8
WAKU
  6
CONTINUOUS
 10
367.971276
 20
290.5
 30
0.0
 11
367.971276
 21
286.222222
 31
0.0
  0
LINE
  5
DB11
  8
WAKU
  6
CONTINUOUS
 10
381.524851
 20
288.776923
 30
0.0
 11
383.695928
 21
288.776923
 31
0.0
  0
LINE
  5
DB12
  8
WAKU
  6
CONTINUOUS
 10
378.723077
 20
290.5
 30
0.0
 11
384.323077
 21
290.5
 31
0.0
  0
LINE
  5
DB13
  8
WAKU
  6
CONTINUOUS
 10
380.311313
 20
288.776923
 30
0.0
 11
377.155205
 21
286.192308
 31
0.0
  0
LINE
  5
DB14
  8
WAKU
  6
CONTINUOUS
 10
381.524851
 20
288.776923
 30
0.0
 11
382.755205
 21
286.192308
 31
0.0
  0
LINE
  5
DB15
  8
WAKU
  6
CONTINUOUS
 10
376.175285
 20
283.5
 30
0.0
 11
377.155205
 21
286.192308
 31
0.0
  0
LINE
  5
DB16
  8
WAKU
  6
CONTINUOUS
 10
379.397145
 20
286.138462
 30
0.0
 11
376.175285
 21
283.5
 31
0.0
  0
LINE
  5
DB17
  8
WAKU
  6
CONTINUOUS
 10
381.775285
 20
283.5
 30
0.0
 11
382.755205
 21
286.192308
 31
0.0
  0
LINE
  5
DB18
  8
WAKU
  6
CONTINUOUS
 10
380.493667
 20
286.192308
 30
0.0
 11
381.775285
 21
283.5
 31
0.0
  0
LINE
  5
DB19
  8
WAKU
  6
CONTINUOUS
 10
379.513747
 20
283.5
 30
0.0
 11
380.493667
 21
286.192308
 31
0.0
  0
LINE
  5
DB1A
  8
WAKU
  6
CONTINUOUS
 10
378.436824
 20
283.5
 30
0.0
 11
379.513747
 21
283.5
 31
0.0
  0
LINE
  5
DB1B
  8
WAKU
  6
CONTINUOUS
 10
378.436824
 20
283.5
 30
0.0
 11
379.397145
 21
286.138462
 31
0.0
  0
LINE
  5
DB1C
  8
WAKU
  6
CONTINUOUS
 10
378.095928
 20
288.776923
 30
0.0
 11
380.311313
 21
288.776923
 31
0.0
  0
LINE
  5
DB1D
  8
WAKU
  6
CONTINUOUS
 10
378.723077
 20
290.5
 30
0.0
 11
378.095928
 21
288.776923
 31
0.0
  0
LINE
  5
DB1E
  8
WAKU
  6
CONTINUOUS
 10
392.780488
 20
286.515385
 30
0.0
 11
393.172456
 21
287.592308
 31
0.0
  0
LINE
  5
DB1F
  8
WAKU
  6
CONTINUOUS
 10
391.703565
 20
286.515385
 30
0.0
 11
392.095533
 21
287.592308
 31
0.0
  0
LINE
  5
DB20
  8
WAKU
  6
CONTINUOUS
 10
388.452208
 20
283.5
 30
0.0
 11
389.236144
 21
285.653846
 31
0.0
  0
LINE
  5
DB21
  8
WAKU
  6
CONTINUOUS
 10
383.851529
 20
285.653846
 30
0.0
 11
389.236144
 21
285.653846
 31
0.0
  0
LINE
  5
DB22
  8
WAKU
  6
CONTINUOUS
 10
383.067593
 20
283.5
 30
0.0
 11
383.851529
 21
285.653846
 31
0.0
  0
LINE
  5
DB23
  8
WAKU
  6
CONTINUOUS
 10
383.067593
 20
283.5
 30
0.0
 11
388.452208
 21
283.5
 31
0.0
  0
LINE
  5
DB24
  8
WAKU
  6
CONTINUOUS
 10
391.174606
 20
285.653846
 30
0.0
 11
395.159221
 21
285.653846
 31
0.0
  0
LINE
  5
DB25
  8
WAKU
  6
CONTINUOUS
 10
391.703565
 20
286.515385
 30
0.0
 11
392.780488
 21
286.515385
 31
0.0
  0
LINE
  5
DB26
  8
WAKU
  6
CONTINUOUS
 10
390.39067
 20
283.5
 30
0.0
 11
391.174606
 21
285.653846
 31
0.0
  0
LINE
  5
DB27
  8
WAKU
  6
CONTINUOUS
 10
384.988236
 20
288.776923
 30
0.0
 11
390.372851
 21
288.776923
 31
0.0
  0
LINE
  5
DB28
  8
WAKU
  6
CONTINUOUS
 10
385.615385
 20
290.5
 30
0.0
 11
391.0
 21
290.5
 31
0.0
  0
LINE
  5
DB29
  8
WAKU
  6
CONTINUOUS
 10
384.988236
 20
288.776923
 30
0.0
 11
385.615385
 21
290.5
 31
0.0
  0
LINE
  5
DB2A
  8
WAKU
  6
CONTINUOUS
 10
384.323077
 20
290.5
 30
0.0
 11
383.695928
 21
288.776923
 31
0.0
  0
LINE
  5
DB2B
  8
WAKU
  6
CONTINUOUS
 10
393.153846
 20
290.5
 30
0.0
 11
394.230769
 21
290.5
 31
0.0
  0
LINE
  5
DB2C
  8
WAKU
  6
CONTINUOUS
 10
393.760408
 20
289.207692
 30
0.0
 11
394.230769
 21
290.5
 31
0.0
  0
LINE
  5
DB2D
  8
WAKU
  6
CONTINUOUS
 10
391.875792
 20
289.207692
 30
0.0
 11
392.683485
 21
289.207692
 31
0.0
  0
LINE
  5
DB2E
  8
WAKU
  6
CONTINUOUS
 10
391.28784
 20
287.592308
 30
0.0
 11
392.095533
 21
287.592308
 31
0.0
  0
LINE
  5
DB2F
  8
WAKU
  6
CONTINUOUS
 10
391.28784
 20
287.592308
 30
0.0
 11
391.875792
 21
289.207692
 31
0.0
  0
LINE
  5
DB30
  8
WAKU
  6
CONTINUOUS
 10
392.683485
 20
289.207692
 30
0.0
 11
393.153846
 21
290.5
 31
0.0
  0
LINE
  5
DB31
  8
WAKU
  6
CONTINUOUS
 10
390.372851
 20
288.776923
 30
0.0
 11
391.0
 21
290.5
 31
0.0
  0
LINE
  5
DB32
  8
WAKU
  6
CONTINUOUS
 10
405.753055
 20
288.130769
 30
0.0
 11
408.983824
 21
288.130769
 31
0.0
  0
LINE
  5
DB33
  8
WAKU
  6
CONTINUOUS
 10
405.282694
 20
286.838462
 30
0.0
 11
408.513463
 21
286.838462
 31
0.0
  0
LINE
  5
DB34
  8
WAKU
  6
CONTINUOUS
 10
409.452208
 20
283.5
 30
0.0
 11
404.067593
 21
283.5
 31
0.0
  0
LINE
  5
DB35
  8
WAKU
  6
CONTINUOUS
 10
404.851529
 20
285.653846
 30
0.0
 11
409.159221
 21
285.653846
 31
0.0
  0
LINE
  5
DB36
  8
WAKU
  6
CONTINUOUS
 10
405.988236
 20
288.776923
 30
0.0
 11
409.219005
 21
288.776923
 31
0.0
  0
LINE
  5
DB37
  8
WAKU
  6
CONTINUOUS
 10
406.615385
 20
290.5
 30
0.0
 11
409.846154
 21
290.5
 31
0.0
  0
LINE
  5
DB38
  8
WAKU
  6
CONTINUOUS
 10
398.781958
 20
286.730769
 30
0.0
 11
399.565894
 21
288.884615
 31
0.0
  0
LINE
  5
DB39
  8
WAKU
  6
CONTINUOUS
 10
400.181958
 20
286.730769
 30
0.0
 11
400.965894
 21
288.884615
 31
0.0
  0
LINE
  5
DB3A
  8
WAKU
  6
CONTINUOUS
 10
399.858881
 20
286.730769
 30
0.0
 11
400.642817
 21
288.884615
 31
0.0
  0
LINE
  5
DB3B
  8
WAKU
  6
CONTINUOUS
 10
401.258881
 20
286.730769
 30
0.0
 11
402.042817
 21
288.884615
 31
0.0
  0
LINE
  5
DB3C
  8
WAKU
  6
CONTINUOUS
 10
401.913747
 20
283.5
 30
0.0
 11
403.873587
 21
288.884615
 31
0.0
  0
LINE
  5
DB3D
  8
WAKU
  6
CONTINUOUS
 10
401.424776
 20
285.115385
 30
0.0
 11
402.796663
 21
288.884615
 31
0.0
  0
LINE
  5
DB3E
  8
WAKU
  6
CONTINUOUS
 10
395.452208
 20
283.5
 30
0.0
 11
396.941687
 21
287.592308
 31
0.0
  0
LINE
  5
DB3F
  8
WAKU
  6
CONTINUOUS
 10
397.606055
 20
283.5
 30
0.0
 11
401.913747
 21
283.5
 31
0.0
  0
LINE
  5
DB40
  8
WAKU
  6
CONTINUOUS
 10
398.781958
 20
286.730769
 30
0.0
 11
399.858881
 21
286.730769
 31
0.0
  0
LINE
  5
DB41
  8
WAKU
  6
CONTINUOUS
 10
398.194006
 20
285.115385
 30
0.0
 11
401.424776
 21
285.115385
 31
0.0
  0
LINE
  5
DB42
  8
WAKU
  6
CONTINUOUS
 10
397.606055
 20
283.5
 30
0.0
 11
398.194006
 21
285.115385
 31
0.0
  0
LINE
  5
DB43
  8
WAKU
  6
CONTINUOUS
 10
400.181958
 20
286.730769
 30
0.0
 11
401.258881
 21
286.730769
 31
0.0
  0
LINE
  5
DB44
  8
WAKU
  6
CONTINUOUS
 10
404.067593
 20
283.5
 30
0.0
 11
404.851529
 21
285.653846
 31
0.0
  0
LINE
  5
DB45
  8
WAKU
  6
CONTINUOUS
 10
400.965894
 20
288.884615
 30
0.0
 11
402.042817
 21
288.884615
 31
0.0
  0
LINE
  5
DB46
  8
WAKU
  6
CONTINUOUS
 10
396.923077
 20
290.5
 30
0.0
 11
398.0
 21
290.5
 31
0.0
  0
LINE
  5
DB47
  8
WAKU
  6
CONTINUOUS
 10
397.529638
 20
289.207692
 30
0.0
 11
398.0
 21
290.5
 31
0.0
  0
LINE
  5
DB48
  8
WAKU
  6
CONTINUOUS
 10
397.529638
 20
289.207692
 30
0.0
 11
398.337331
 21
289.207692
 31
0.0
  0
LINE
  5
DB49
  8
WAKU
  6
CONTINUOUS
 10
396.941687
 20
287.592308
 30
0.0
 11
397.749379
 21
287.592308
 31
0.0
  0
LINE
  5
DB4A
  8
WAKU
  6
CONTINUOUS
 10
397.749379
 20
287.592308
 30
0.0
 11
398.337331
 21
289.207692
 31
0.0
  0
LINE
  5
DB4B
  8
WAKU
  6
CONTINUOUS
 10
399.565894
 20
288.884615
 30
0.0
 11
400.642817
 21
288.884615
 31
0.0
  0
LINE
  5
DB4C
  8
WAKU
  6
CONTINUOUS
 10
396.452715
 20
289.207692
 30
0.0
 11
396.923077
 21
290.5
 31
0.0
  0
LINE
  5
DB4D
  8
WAKU
  6
CONTINUOUS
 10
406.615385
 20
290.5
 30
0.0
 11
405.988236
 21
288.776923
 31
0.0
  0
LINE
  5
DB4E
  8
WAKU
  6
CONTINUOUS
 10
405.753055
 20
288.130769
 30
0.0
 11
405.282694
 21
286.838462
 31
0.0
  0
LINE
  5
DB4F
  8
WAKU
  6
CONTINUOUS
 10
402.796663
 20
288.884615
 30
0.0
 11
403.873587
 21
288.884615
 31
0.0
  0
LINE
  5
DB50
  8
WAKU
  6
CONTINUOUS
 10
409.159221
 20
285.653846
 30
0.0
 11
410.923077
 21
290.5
 31
0.0
  0
LINE
  5
DB51
  8
WAKU
  6
CONTINUOUS
 10
409.452208
 20
283.5
 30
0.0
 11
412.0
 21
290.5
 31
0.0
  0
LINE
  5
DB52
  8
WAKU
  6
CONTINUOUS
 10
409.219005
 20
288.776923
 30
0.0
 11
409.846154
 21
290.5
 31
0.0
  0
LINE
  5
DB53
  8
WAKU
  6
CONTINUOUS
 10
410.923077
 20
290.5
 30
0.0
 11
412.0
 21
290.5
 31
0.0
  0
LINE
  5
DB54
  8
WAKU
  6
CONTINUOUS
 10
408.513463
 20
286.838462
 30
0.0
 11
408.983824
 21
288.130769
 31
0.0
  0
LINE
  5
DB55
  8
WAKU
  6
CONTINUOUS
 10
369.828646
 20
284.107791
 30
0.0
 11
369.966824
 21
283.829526
 31
0.0
  0
LINE
  5
DB56
  8
WAKU
  6
CONTINUOUS
 10
369.966824
 20
283.829526
 30
0.0
 11
370.193309
 21
283.634664
 31
0.0
  0
LINE
  5
DB57
  8
WAKU
  6
CONTINUOUS
 10
370.193309
 20
283.634664
 30
0.0
 11
370.499782
 21
283.530361
 31
0.0
  0
LINE
  5
DB58
  8
WAKU
  6
CONTINUOUS
 10
370.499782
 20
283.530361
 30
0.0
 11
370.874987
 21
283.520449
 31
0.0
  0
LINE
  5
DB59
  8
WAKU
  6
CONTINUOUS
 10
370.874987
 20
283.520449
 30
0.0
 11
371.305142
 21
283.605291
 31
0.0
  0
LINE
  5
DB5A
  8
WAKU
  6
CONTINUOUS
 10
371.305142
 20
283.605291
 30
0.0
 11
371.774448
 21
283.781773
 31
0.0
  0
LINE
  5
DB5B
  8
WAKU
  6
CONTINUOUS
 10
371.774448
 20
283.781773
 30
0.0
 11
372.265666
 21
284.043411
 31
0.0
  0
LINE
  5
DB5C
  8
WAKU
  6
CONTINUOUS
 10
372.265666
 20
284.043411
 30
0.0
 11
372.760756
 21
284.380595
 31
0.0
  0
LINE
  5
DB5D
  8
WAKU
  6
CONTINUOUS
 10
372.760756
 20
284.380595
 30
0.0
 11
373.241532
 21
284.780941
 31
0.0
  0
LINE
  5
DB5E
  8
WAKU
  6
CONTINUOUS
 10
373.241532
 20
284.780941
 30
0.0
 11
373.690335
 21
285.229744
 31
0.0
  0
LINE
  5
DB5F
  8
WAKU
  6
CONTINUOUS
 10
373.690335
 20
285.229744
 30
0.0
 11
374.090681
 21
285.71052
 31
0.0
  0
LINE
  5
DB60
  8
WAKU
  6
CONTINUOUS
 10
374.090681
 20
285.71052
 30
0.0
 11
374.427865
 21
286.205609
 31
0.0
  0
LINE
  5
DB61
  8
WAKU
  6
CONTINUOUS
 10
374.427865
 20
286.205609
 30
0.0
 11
374.689503
 21
286.696828
 31
0.0
  0
LINE
  5
DB62
  8
WAKU
  6
CONTINUOUS
 10
374.689503
 20
286.696828
 30
0.0
 11
374.865984
 21
287.166134
 31
0.0
  0
LINE
  5
DB63
  8
WAKU
  6
CONTINUOUS
 10
374.865984
 20
287.166134
 30
0.0
 11
374.950827
 21
287.596289
 31
0.0
  0
LINE
  5
DB64
  8
WAKU
  6
CONTINUOUS
 10
374.950827
 20
287.596289
 30
0.0
 11
374.940915
 21
287.971493
 31
0.0
  0
LINE
  5
DB65
  8
WAKU
  6
CONTINUOUS
 10
374.940915
 20
287.971493
 30
0.0
 11
374.836612
 21
288.277967
 31
0.0
  0
LINE
  5
DB66
  8
WAKU
  6
CONTINUOUS
 10
374.836612
 20
288.277967
 30
0.0
 11
374.641749
 21
288.504452
 31
0.0
  0
LINE
  5
DB67
  8
WAKU
  6
CONTINUOUS
 10
374.641749
 20
288.504452
 30
0.0
 11
374.363484
 21
288.64263
 31
0.0
  0
LINE
  5
DB68
  8
WAKU
  6
CONTINUOUS
 10
373.916941
 20
288.683944
 30
0.0
 11
373.482636
 21
288.608014
 31
0.0
  0
LINE
  5
DB69
  8
WAKU
  6
CONTINUOUS
 10
373.482636
 20
288.608014
 30
0.0
 11
373.005639
 21
288.435768
 31
0.0
  0
LINE
  5
DB6A
  8
WAKU
  6
CONTINUOUS
 10
373.005639
 20
288.435768
 30
0.0
 11
372.504269
 21
288.173821
 31
0.0
  0
LINE
  5
DB6B
  8
WAKU
  6
CONTINUOUS
 10
372.504269
 20
288.173821
 30
0.0
 11
371.997783
 21
287.832235
 31
0.0
  0
LINE
  5
DB6C
  8
WAKU
  6
CONTINUOUS
 10
371.997783
 20
287.832235
 30
0.0
 11
371.505632
 21
287.424128
 31
0.0
  0
LINE
  5
DB6D
  8
WAKU
  6
CONTINUOUS
 10
371.505632
 20
287.424128
 30
0.0
 11
371.04672
 21
286.965174
 31
0.0
  0
LINE
  5
DB6E
  8
WAKU
  6
CONTINUOUS
 10
371.04672
 20
286.965174
 30
0.0
 11
370.638671
 21
286.473
 31
0.0
  0
LINE
  5
DB6F
  8
WAKU
  6
CONTINUOUS
 10
370.638671
 20
286.473
 30
0.0
 11
370.297156
 21
285.966509
 31
0.0
  0
LINE
  5
DB70
  8
WAKU
  6
CONTINUOUS
 10
370.297156
 20
285.966509
 30
0.0
 11
370.035293
 21
285.465154
 31
0.0
  0
LINE
  5
DB71
  8
WAKU
  6
CONTINUOUS
 10
370.035293
 20
285.465154
 30
0.0
 11
369.863139
 21
284.988189
 31
0.0
  0
LINE
  5
DB72
  8
WAKU
  6
CONTINUOUS
 10
369.863139
 20
284.988189
 30
0.0
 11
369.787305
 21
284.553935
 31
0.0
  0
LINE
  5
DB73
  8
WAKU
  6
CONTINUOUS
 10
370.172911
 20
284.451856
 30
0.0
 11
370.681395
 21
284.539195
 31
0.0
  0
LINE
  5
DB74
  8
WAKU
  6
CONTINUOUS
 10
370.681395
 20
284.539195
 30
0.0
 11
371.312263
 21
284.810332
 31
0.0
  0
LINE
  5
DB75
  8
WAKU
  6
CONTINUOUS
 10
371.312263
 20
284.810332
 30
0.0
 11
371.98994
 21
285.251431
 31
0.0
  0
LINE
  5
DB76
  8
WAKU
  6
CONTINUOUS
 10
371.98994
 20
285.251431
 30
0.0
 11
372.646296
 21
285.825506
 31
0.0
  0
LINE
  5
DB77
  8
WAKU
  6
CONTINUOUS
 10
372.646296
 20
285.825506
 30
0.0
 11
373.220238
 21
286.48192
 31
0.0
  0
LINE
  5
DB78
  8
WAKU
  6
CONTINUOUS
 10
373.220238
 20
286.48192
 30
0.0
 11
373.661353
 21
287.159534
 31
0.0
  0
LINE
  5
DB79
  8
WAKU
  6
CONTINUOUS
 10
373.661353
 20
287.159534
 30
0.0
 11
373.932071
 21
287.790402
 31
0.0
  0
LINE
  5
DB7A
  8
WAKU
  6
CONTINUOUS
 10
373.932071
 20
287.790402
 30
0.0
 11
374.019229
 21
288.298569
 31
0.0
  0
LINE
  5
DB7B
  8
WAKU
  6
CONTINUOUS
 10
373.916941
 20
288.683944
 30
0.0
 11
373.799148
 21
288.781929
 31
0.0
  0
LINE
  5
DB7C
  8
WAKU
  6
CONTINUOUS
 10
373.799148
 20
288.781929
 30
0.0
 11
373.597996
 21
288.840902
 31
0.0
  0
LINE
  5
DB7D
  8
WAKU
  6
CONTINUOUS
 10
373.597996
 20
288.840902
 30
0.0
 11
373.290857
 21
288.835581
 31
0.0
  0
LINE
  5
DB7E
  8
WAKU
  6
CONTINUOUS
 10
373.290857
 20
288.835581
 30
0.0
 11
372.89514
 21
288.740065
 31
0.0
  0
LINE
  5
DB7F
  8
WAKU
  6
CONTINUOUS
 10
372.89514
 20
288.740065
 30
0.0
 11
372.440235
 21
288.547585
 31
0.0
  0
LINE
  5
DB80
  8
WAKU
  6
CONTINUOUS
 10
372.440235
 20
288.547585
 30
0.0
 11
371.954587
 21
288.264284
 31
0.0
  0
LINE
  5
DB81
  8
WAKU
  6
CONTINUOUS
 10
371.954587
 20
288.264284
 30
0.0
 11
370.996098
 21
287.475108
 31
0.0
  0
LINE
  5
DB82
  8
WAKU
  6
CONTINUOUS
 10
370.996098
 20
287.475108
 30
0.0
 11
370.207035
 21
286.51657
 31
0.0
  0
LINE
  5
DB83
  8
WAKU
  6
CONTINUOUS
 10
370.207035
 20
286.51657
 30
0.0
 11
369.923519
 21
286.031028
 31
0.0
  0
LINE
  5
DB84
  8
WAKU
  6
CONTINUOUS
 10
369.923519
 20
286.031028
 30
0.0
 11
369.73149
 21
285.576021
 31
0.0
  0
LINE
  5
DB85
  8
WAKU
  6
CONTINUOUS
 10
369.73149
 20
285.576021
 30
0.0
 11
369.635696
 21
285.180404
 31
0.0
  0
LINE
  5
DB86
  8
WAKU
  6
CONTINUOUS
 10
369.635696
 20
285.180404
 30
0.0
 11
369.630358
 21
284.873087
 31
0.0
  0
LINE
  5
DB87
  8
WAKU
  6
CONTINUOUS
 10
369.630358
 20
284.873087
 30
0.0
 11
369.689155
 21
284.672435
 31
0.0
  0
LINE
  5
DB88
  8
WAKU
  6
CONTINUOUS
 10
369.689155
 20
284.672435
 30
0.0
 11
369.787305
 21
284.553935
 31
0.0
  0
LINE
  5
DB89
  8
WAKU
  6
CONTINUOUS
 10
370.275177
 20
284.066476
 30
0.0
 11
370.392927
 21
283.968568
 31
0.0
  0
LINE
  5
DB8A
  8
WAKU
  6
CONTINUOUS
 10
370.392927
 20
283.968568
 30
0.0
 11
370.594177
 21
283.909498
 31
0.0
  0
LINE
  5
DB8B
  8
WAKU
  6
CONTINUOUS
 10
370.594177
 20
283.909498
 30
0.0
 11
370.901294
 21
283.914863
 31
0.0
  0
LINE
  5
DB8C
  8
WAKU
  6
CONTINUOUS
 10
370.901294
 20
283.914863
 30
0.0
 11
371.296984
 21
284.010368
 31
0.0
  0
LINE
  5
DB8D
  8
WAKU
  6
CONTINUOUS
 10
371.296984
 20
284.010368
 30
0.0
 11
371.751882
 21
284.202798
 31
0.0
  0
LINE
  5
DB8E
  8
WAKU
  6
CONTINUOUS
 10
371.751882
 20
284.202798
 30
0.0
 11
372.237497
 21
284.486117
 31
0.0
  0
LINE
  5
DB8F
  8
WAKU
  6
CONTINUOUS
 10
372.237497
 20
284.486117
 30
0.0
 11
373.195965
 21
285.275232
 31
0.0
  0
LINE
  5
DB90
  8
WAKU
  6
CONTINUOUS
 10
373.195965
 20
285.275232
 30
0.0
 11
373.98505
 21
286.233718
 31
0.0
  0
LINE
  5
DB91
  8
WAKU
  6
CONTINUOUS
 10
373.98505
 20
286.233718
 30
0.0
 11
374.268507
 21
286.719278
 31
0.0
  0
LINE
  5
DB92
  8
WAKU
  6
CONTINUOUS
 10
374.268507
 20
286.719278
 30
0.0
 11
374.46071
 21
287.174248
 31
0.0
  0
LINE
  5
DB93
  8
WAKU
  6
CONTINUOUS
 10
374.46071
 20
287.174248
 30
0.0
 11
374.556361
 21
287.569864
 31
0.0
  0
LINE
  5
DB94
  8
WAKU
  6
CONTINUOUS
 10
374.556361
 20
287.569864
 30
0.0
 11
374.561802
 21
287.877253
 31
0.0
  0
LINE
  5
DB95
  8
WAKU
  6
CONTINUOUS
 10
374.561802
 20
287.877253
 30
0.0
 11
374.502951
 21
288.077918
 31
0.0
  0
LINE
  5
DB96
  8
WAKU
  6
CONTINUOUS
 10
374.502951
 20
288.077918
 30
0.0
 11
374.40481
 21
288.196249
 31
0.0
  0
LINE
  5
DB97
  8
WAKU
  6
CONTINUOUS
 10
374.019229
 20
288.298569
 30
0.0
 11
373.510738
 21
288.21124
 31
0.0
  0
LINE
  5
DB98
  8
WAKU
  6
CONTINUOUS
 10
373.510738
 20
288.21124
 30
0.0
 11
372.879878
 21
287.940057
 31
0.0
  0
LINE
  5
DB99
  8
WAKU
  6
CONTINUOUS
 10
372.879878
 20
287.940057
 30
0.0
 11
372.202181
 21
287.498991
 31
0.0
  0
LINE
  5
DB9A
  8
WAKU
  6
CONTINUOUS
 10
372.202181
 20
287.498991
 30
0.0
 11
371.545827
 21
286.924893
 31
0.0
  0
LINE
  5
DB9B
  8
WAKU
  6
CONTINUOUS
 10
371.545827
 20
286.924893
 30
0.0
 11
370.971896
 21
286.268471
 31
0.0
  0
LINE
  5
DB9C
  8
WAKU
  6
CONTINUOUS
 10
370.971896
 20
286.268471
 30
0.0
 11
370.530712
 21
285.590875
 31
0.0
  0
LINE
  5
DB9D
  8
WAKU
  6
CONTINUOUS
 10
370.530712
 20
285.590875
 30
0.0
 11
370.260168
 21
284.959969
 31
0.0
  0
LINE
  5
DB9E
  8
WAKU
  6
CONTINUOUS
 10
370.260168
 20
284.959969
 30
0.0
 11
370.172911
 21
284.451856
 31
0.0
  0
LINE
  5
DB9F
  8
WAKU
  6
CONTINUOUS
 10
370.275177
 20
284.066476
 30
0.0
 11
370.709458
 21
284.142397
 31
0.0
  0
LINE
  5
DBA0
  8
WAKU
  6
CONTINUOUS
 10
370.709458
 20
284.142397
 30
0.0
 11
371.186428
 21
284.314625
 31
0.0
  0
LINE
  5
DBA1
  8
WAKU
  6
CONTINUOUS
 10
371.186428
 20
284.314625
 30
0.0
 11
371.68777
 21
284.576545
 31
0.0
  0
LINE
  5
DBA2
  8
WAKU
  6
CONTINUOUS
 10
371.68777
 20
284.576545
 30
0.0
 11
372.194232
 21
284.918099
 31
0.0
  0
LINE
  5
DBA3
  8
WAKU
  6
CONTINUOUS
 10
372.194232
 20
284.918099
 30
0.0
 11
372.686363
 21
285.326171
 31
0.0
  0
LINE
  5
DBA4
  8
WAKU
  6
CONTINUOUS
 10
372.686363
 20
285.326171
 30
0.0
 11
373.145266
 21
285.785089
 31
0.0
  0
LINE
  5
DBA5
  8
WAKU
  6
CONTINUOUS
 10
373.145266
 20
285.785089
 30
0.0
 11
373.553316
 21
286.277229
 31
0.0
  0
LINE
  5
DBA6
  8
WAKU
  6
CONTINUOUS
 10
373.553316
 20
286.277229
 30
0.0
 11
373.894843
 21
286.783693
 31
0.0
  0
LINE
  5
DBA7
  8
WAKU
  6
CONTINUOUS
 10
373.894843
 20
286.783693
 30
0.0
 11
374.156732
 21
287.28503
 31
0.0
  0
LINE
  5
DBA8
  8
WAKU
  6
CONTINUOUS
 10
374.156732
 20
287.28503
 30
0.0
 11
374.328925
 21
287.761987
 31
0.0
  0
LINE
  5
DBA9
  8
WAKU
  6
CONTINUOUS
 10
374.328925
 20
287.761987
 30
0.0
 11
374.40481
 21
288.196249
 31
0.0
  0
LINE
  5
DBAA
  8
WAKU
  6
CONTINUOUS
 10
374.363484
 20
288.64263
 30
0.0
 11
374.225306
 21
288.920895
 31
0.0
  0
LINE
  5
DBAB
  8
WAKU
  6
CONTINUOUS
 10
374.225306
 20
288.920895
 30
0.0
 11
373.998821
 21
289.115757
 31
0.0
  0
LINE
  5
DBAC
  8
WAKU
  6
CONTINUOUS
 10
373.998821
 20
289.115757
 30
0.0
 11
373.692348
 21
289.22006
 31
0.0
  0
LINE
  5
DBAD
  8
WAKU
  6
CONTINUOUS
 10
373.692348
 20
289.22006
 30
0.0
 11
373.317143
 21
289.229972
 31
0.0
  0
LINE
  5
DBAE
  8
WAKU
  6
CONTINUOUS
 10
373.317143
 20
289.229972
 30
0.0
 11
372.886988
 21
289.145129
 31
0.0
  0
LINE
  5
DBAF
  8
WAKU
  6
CONTINUOUS
 10
372.886988
 20
289.145129
 30
0.0
 11
372.417683
 21
288.968648
 31
0.0
  0
LINE
  5
DBB0
  8
WAKU
  6
CONTINUOUS
 10
372.417683
 20
288.968648
 30
0.0
 11
371.926464
 21
288.70701
 31
0.0
  0
LINE
  5
DBB1
  8
WAKU
  6
CONTINUOUS
 10
371.926464
 20
288.70701
 30
0.0
 11
371.431374
 21
288.369826
 31
0.0
  0
LINE
  5
DBB2
  8
WAKU
  6
CONTINUOUS
 10
371.431374
 20
288.369826
 30
0.0
 11
370.950599
 21
287.96948
 31
0.0
  0
LINE
  5
DBB3
  8
WAKU
  6
CONTINUOUS
 10
370.950599
 20
287.96948
 30
0.0
 11
370.501795
 21
287.520677
 31
0.0
  0
LINE
  5
DBB4
  8
WAKU
  6
CONTINUOUS
 10
370.501795
 20
287.520677
 30
0.0
 11
370.101449
 21
287.039901
 31
0.0
  0
LINE
  5
DBB5
  8
WAKU
  6
CONTINUOUS
 10
370.101449
 20
287.039901
 30
0.0
 11
369.764265
 21
286.544812
 31
0.0
  0
LINE
  5
DBB6
  8
WAKU
  6
CONTINUOUS
 10
369.764265
 20
286.544812
 30
0.0
 11
369.502627
 21
286.053593
 31
0.0
  0
LINE
  5
DBB7
  8
WAKU
  6
CONTINUOUS
 10
369.502627
 20
286.053593
 30
0.0
 11
369.326146
 21
285.584287
 31
0.0
  0
LINE
  5
DBB8
  8
WAKU
  6
CONTINUOUS
 10
369.326146
 20
285.584287
 30
0.0
 11
369.241303
 21
285.154132
 31
0.0
  0
LINE
  5
DBB9
  8
WAKU
  6
CONTINUOUS
 10
369.241303
 20
285.154132
 30
0.0
 11
369.251215
 21
284.778928
 31
0.0
  0
LINE
  5
DBBA
  8
WAKU
  6
CONTINUOUS
 10
369.251215
 20
284.778928
 30
0.0
 11
369.355518
 21
284.472454
 31
0.0
  0
LINE
  5
DBBB
  8
WAKU
  6
CONTINUOUS
 10
369.355518
 20
284.472454
 30
0.0
 11
369.550381
 21
284.245969
 31
0.0
  0
LINE
  5
DBBC
  8
WAKU
  6
CONTINUOUS
 10
369.550381
 20
284.245969
 30
0.0
 11
369.828646
 21
284.107791
 31
0.0
  0
INSERT
  5
DBBD
  8
WAKU
  6
CONTINUOUS
  2
*U0
 10
0.0
 20
0.0
 30
0.0
  0
TEXT
  5
10375
  8
WAKU
 10
10.0
 20
285.5
 30
0.0
 40
3.0
  1
FNS-70AT
 41
0.868
 11
10.0
 21
287.0
 31
0.0
 73
     2
  0
TEXT
  5
1C716
  8
WAKU
 10
35.0
 20
284.5
 30
0.0
 40
5.0
  1
外動片引き断面詳細図　ＷＥタイプ（Fix部硝子溝20mm）　防火戸　非防火戸
 11
35.0
 21
287.0
 31
0.0
 73
     2
  0
LINE
  5
1C8C5
  8
SUNPO
  6
CONTINUOUS
 10
398.0
 20
90.0
 30
0.0
 11
398.0
 21
35.0
 31
0.0
  0
LINE
  5
1D5B7
  8
DANMEN
  6
CONTINUOUS
 10
201.037291
 20
130.499997
 30
0.0
 11
205.46109
 21
130.499997
 31
0.0
  0
LINE
  5
1D5B8
  8
DANMEN
  6
CONTINUOUS
 10
201.037291
 20
154.499997
 30
0.0
 11
205.46109
 21
154.499997
 31
0.0
  0
LINE
  5
1D5B9
  8
DANMEN
  6
CONTINUOUS
 10
201.145436
 20
152.549997
 30
0.0
 11
204.0
 21
152.549997
 31
0.0
  0
LINE
  5
1D5BA
  8
DANMEN
  6
CONTINUOUS
 10
201.145436
 20
132.449997
 30
0.0
 11
204.0
 21
132.449997
 31
0.0
  0
LINE
  5
1D5BB
  8
DANMEN
  6
CONTINUOUS
 10
190.0
 20
159.850003
 30
0.0
 11
202.5
 21
159.850003
 31
0.0
  0
LINE
  5
1D5BC
  8
DANMEN
  6
CONTINUOUS
 10
190.0
 20
93.149991
 30
0.0
 11
202.5
 21
93.149991
 31
0.0
  0
LINE
  5
1D5BD
  8
DANMEN
  6
CONTINUOUS
 10
178.5
 20
161.499997
 30
0.0
 11
202.5
 21
161.499997
 31
0.0
  0
LINE
  5
1D5BE
  8
DANMEN
  6
CONTINUOUS
 10
178.5
 20
91.499997
 30
0.0
 11
202.5
 21
91.499997
 31
0.0
  0
LINE
  5
1D5BF
  8
DANMEN
  6
CONTINUOUS
 10
188.0
 20
154.499997
 30
0.0
 11
260.0
 21
154.499997
 31
0.0
  0
LINE
  5
1D5C0
  8
DANMEN
  6
CONTINUOUS
 10
200.5
 20
127.499997
 30
0.0
 11
260.0
 21
127.499997
 31
0.0
  0
LINE
  5
1D5C1
  8
DANMEN
  6
CONTINUOUS
 10
188.0
 20
134.999997
 30
0.0
 11
204.0
 21
134.999997
 31
0.0
  0
LINE
  5
1D5C2
  8
DANMEN
  6
CONTINUOUS
 10
188.0
 20
143.999997
 30
0.0
 11
204.0
 21
143.999997
 31
0.0
  0
LINE
  5
1D5C3
  8
DANMEN
  6
CONTINUOUS
 10
188.0
 20
148.999997
 30
0.0
 11
204.0
 21
148.999997
 31
0.0
  0
LINE
  5
1D5C4
  8
DANMEN
  6
CONTINUOUS
 10
188.0
 20
102.499997
 30
0.0
 11
260.0
 21
102.499997
 31
0.0
  0
LINE
  5
1D5C5
  8
DANMEN
  6
CONTINUOUS
 10
53.149998
 20
141.5
 30
0.0
 11
53.149998
 21
109.699997
 31
0.0
  0
LINE
  5
1D5C6
  8
DANMEN
  6
CONTINUOUS
 10
68.849998
 20
146.550003
 30
0.0
 11
68.849998
 21
115.5
 31
0.0
  0
LINE
  5
1D5C7
  8
DANMEN
  6
CONTINUOUS
 10
70.799998
 20
159.0
 30
0.0
 11
70.799998
 21
85.5
 31
0.0
  0
LINE
  5
1D5C8
  8
DANMEN
  6
CONTINUOUS
 10
51.199998
 20
159.0
 30
0.0
 11
51.199998
 21
57.0
 31
0.0
  0
LINE
  5
1D5C9
  8
DANMEN
  6
CONTINUOUS
 10
108.31756
 20
122.50832
 30
0.0
 11
108.30001
 21
92.020979
 31
0.0
  0
LINE
  5
1D5CA
  8
DANMEN
  6
CONTINUOUS
 10
109.517555
 20
122.854639
 30
0.0
 11
109.004224
 21
92.529237
 31
0.0
  0
LINE
  5
1D5CB
  8
DANMEN
  6
CONTINUOUS
 10
108.017555
 20
122.497915
 30
0.0
 11
108.0
 21
92.0
 31
0.0
  0
LINE
  5
1D5CC
  8
DANMEN
  6
CONTINUOUS
 10
104.250009
 20
133.500005
 30
0.0
 11
104.250009
 21
116.500005
 31
0.0
  0
LINE
  5
1D5CD
  8
DANMEN
  6
CONTINUOUS
 10
105.900009
 20
138.000005
 30
0.0
 11
105.900009
 21
114.850005
 31
0.0
  0
LINE
  5
1D5CE
  8
DANMEN
  6
CONTINUOUS
 10
81.000009
 20
138.000005
 30
0.0
 11
81.000009
 21
97.000001
 31
0.0
  0
LINE
  5
1D5CF
  8
DANMEN
  6
CONTINUOUS
 10
82.650009
 20
133.500005
 30
0.0
 11
82.650009
 21
116.500005
 31
0.0
  0
LINE
  5
1D5D0
  8
DANMEN
  6
CONTINUOUS
 10
188.0
 20
123.999997
 30
0.0
 11
188.0
 21
92.599997
 31
0.0
  0
LINE
  5
1D5D1
  8
DANMEN
  6
CONTINUOUS
 10
186.350006
 20
159.850003
 30
0.0
 11
186.350006
 21
93.149991
 31
0.0
  0
LINE
  5
1D5D2
  8
DANMEN
  6
CONTINUOUS
 10
42.0
 20
166.5
 30
0.0
 11
42.0
 21
40.265549
 31
0.0
  0
LINE
  5
1D5D3
  8
DANMEN
  6
CONTINUOUS
 10
73.0
 20
166.5
 30
0.0
 11
73.0
 21
85.0
 31
0.0
  0
LINE
  5
1D5D4
  8
DANMEN
  6
CONTINUOUS
 10
43.649994
 20
166.5
 30
0.0
 11
43.649994
 21
38.5
 31
0.0
  0
LINE
  5
1D5D5
  8
DANMEN
  6
CONTINUOUS
 10
75.5
 20
166.5
 30
0.0
 11
75.5
 21
96.5
 31
0.0
  0
LINE
  5
1D5D6
  8
DANMEN
  6
DASHED
 10
78.5
 20
166.5
 30
0.0
 11
78.5
 21
96.5
 31
0.0
  0
LINE
  5
1D5D7
  8
DANMEN
  6
CONTINUOUS
 10
108.0
 20
166.5
 30
0.0
 11
108.0
 21
91.5
 31
0.0
  0
LINE
  5
1D5D8
  8
DANMEN
  6
CONTINUOUS
 10
112.0
 20
122.72342
 30
0.0
 11
112.0
 21
96.5
 31
0.0
  0
LINE
  5
1D5D9
  8
DANMEN
  6
CONTINUOUS
 10
110.350006
 20
122.573535
 30
0.0
 11
110.350006
 21
96.5
 31
0.0
  0
LINE
  5
1D5DA
  8
DANMEN
  6
CONTINUOUS
 10
101.069997
 20
116.500003
 30
0.0
 11
101.069997
 21
126.499999
 31
0.0
  0
LINE
  5
1D5DB
  8
DANMEN
  6
CONTINUOUS
 10
86.069997
 20
116.500003
 30
0.0
 11
86.069997
 21
126.499999
 31
0.0
  0
LINE
  5
1D5DC
  8
DANMEN
  6
CONTINUOUS
 10
101.069997
 20
126.499999
 30
0.0
 11
86.069997
 21
116.500005
 31
0.0
  0
LINE
  5
1D5DD
  8
DANMEN
  6
CONTINUOUS
 10
49.0
 20
166.5
 30
0.0
 11
49.0
 21
56.5
 31
0.0
  0
LINE
  5
1D5DE
  8
DANMEN
  6
CONTINUOUS
 10
93.5
 20
62.503636
 30
0.0
 11
68.5
 21
51.5
 31
0.0
  0
LINE
  5
1D5DF
  8
DANMEN
  6
CONTINUOUS
 10
94.563803
 20
61.174726
 30
0.0
 11
69.054612
 21
49.93964
 31
0.0
  0
LINE
  5
1D5E0
  8
DANMEN
  6
CONTINUOUS
 10
68.849995
 20
73.5
 30
0.0
 11
71.049998
 21
73.5
 31
0.0
  0
LINE
  5
1D5E2
  8
DANMEN
  6
CONTINUOUS
 10
69.849998
 20
83.550003
 30
0.0
 11
71.049998
 21
83.550003
 31
0.0
  0
LINE
  5
1D5E3
  8
DANMEN
  6
CONTINUOUS
 10
55.5
 20
36.5
 30
0.0
 11
112.0
 21
36.5
 31
0.0
  0
LINE
  5
1D5E4
  8
DANMEN
  6
CONTINUOUS
 10
65.0
 20
56.5
 30
0.0
 11
73.0
 21
56.5
 31
0.0
  0
LINE
  5
1D5E5
  8
DANMEN
  6
CONTINUOUS
 10
55.5
 20
37.149994
 30
0.0
 11
55.5
 21
28.0
 31
0.0
  0
LINE
  5
1D5E6
  8
DANMEN
  6
CONTINUOUS
 10
54.0
 20
36.5
 30
0.0
 11
54.0
 21
28.0
 31
0.0
  0
ARC
  5
1D5E7
  8
DANMEN
  6
CONTINUOUS
 10
54.5
 20
28.0
 30
0.0
 40
0.5
 50
180.000019
 51
270.000001
  0
ARC
  5
1D5EB
  8
DANMEN
  6
CONTINUOUS
 10
55.0
 20
28.0
 30
0.0
 40
0.5
 50
270.000018
 51
0.0
  0
LINE
  5
1D5ED
  8
DANMEN
  6
CONTINUOUS
 10
54.5
 20
27.5
 30
0.0
 11
55.0
 21
27.5
 31
0.0
  0
LINE
  5
1D5EE
  8
DANMEN
  6
CONTINUOUS
 10
65.399998
 20
92.000004
 30
0.0
 11
65.399998
 21
74.000004
 31
0.0
  0
LINE
  5
1D5EF
  8
DANMEN
  6
CONTINUOUS
 10
56.600002
 20
74.000004
 30
0.0
 11
56.600002
 21
92.000004
 31
0.0
  0
LINE
  5
1D5F0
  8
DANMEN
  6
CONTINUOUS
 10
65.200001
 20
105.500008
 30
0.0
 11
65.200001
 21
60.5
 31
0.0
  0
LINE
  5
1D5F1
  8
DANMEN
  6
CONTINUOUS
 10
56.799999
 20
105.500008
 30
0.0
 11
56.799999
 21
60.5
 31
0.0
  0
LINE
  5
1D5F2
  8
DANMEN
  6
CONTINUOUS
 10
59.0
 20
60.5
 30
0.0
 11
59.0
 21
105.500008
 31
0.0
  0
LINE
  5
1D5F3
  8
DANMEN
  6
CONTINUOUS
 10
63.0
 20
60.5
 30
0.0
 11
63.0
 21
105.500008
 31
0.0
  0
LINE
  5
1D5F4
  8
DANMEN
  6
CONTINUOUS
 10
53.149998
 20
108.5
 30
0.0
 11
53.149998
 21
72.5
 31
0.0
  0
ARC
  5
1D5F5
  8
DANMEN
  6
CONTINUOUS
 10
55.00999
 20
49.5
 30
0.0
 40
2.0
 50
90.0
 51
118.610582
  0
LINE
  5
1D5F6
  8
DANMEN
  6
CONTINUOUS
 10
54.920742
 20
49.85
 30
0.0
 11
50.649994
 21
47.520489
 31
0.0
  0
LINE
  5
1D5F7
  8
DANMEN
  6
CONTINUOUS
 10
50.649994
 20
38.149994
 30
0.0
 11
54.5
 21
38.149994
 31
0.0
  0
LINE
  5
1D5F8
  8
DANMEN
  6
CONTINUOUS
 10
40.199997
 20
40.929842
 30
0.0
 11
42.823607
 21
39.618037
 31
0.0
  0
LINE
  5
1D5F9
  8
DANMEN
  6
CONTINUOUS
 10
39.276393
 20
40.161806
 30
0.0
 11
42.0
 21
38.800003
 31
0.0
  0
LINE
  5
1D5FA
  8
DANMEN
  6
CONTINUOUS
 10
50.649994
 20
47.520489
 30
0.0
 11
50.649994
 21
38.149994
 31
0.0
  0
LINE
  5
1D5FB
  8
DANMEN
  6
CONTINUOUS
 10
49.0
 20
47.906353
 30
0.0
 11
49.0
 21
38.5
 31
0.0
  0
LINE
  5
1D5FC
  8
DANMEN
  6
CONTINUOUS
 10
42.800003
 20
37.4
 30
0.0
 11
49.0
 21
37.4
 31
0.0
  0
LINE
  5
1D5FD
  8
DANMEN
  6
CONTINUOUS
 10
43.1
 20
38.5
 30
0.0
 11
49.0
 21
38.5
 31
0.0
  0
LINE
  5
1D5FE
  8
DANMEN
  6
CONTINUOUS
 10
42.570786
 20
36.5
 30
0.0
 11
49.33287
 21
36.5
 31
0.0
  0
ARC
  5
1D5FF
  8
DANMEN
  6
CONTINUOUS
 10
42.399994
 20
36.899994
 30
0.0
 40
0.4
 50
180.000019
 51
359.999983
  0
LINE
  5
1D604
  8
DANMEN
  6
CONTINUOUS
 10
42.0
 20
38.800003
 30
0.0
 11
42.0
 21
36.899994
 31
0.0
  0
ARC
  5
1D608
  8
DANMEN
  6
CONTINUOUS
 10
42.6
 20
39.170823
 30
0.0
 40
0.5
 50
0.0
 51
63.434949
  0
LINE
  5
1D609
  8
DANMEN
  6
CONTINUOUS
 10
43.1
 20
39.170823
 30
0.0
 11
43.1
 21
38.5
 31
0.0
  0
LINE
  5
1D60B
  8
DANMEN
  6
CONTINUOUS
 10
42.800003
 20
37.4
 30
0.0
 11
42.800003
 21
36.899994
 31
0.0
  0
LINE
  5
1D60C
  8
DANMEN
  6
CONTINUOUS
 10
49.5
 20
36.5
 30
0.0
 11
54.0
 21
36.5
 31
0.0
  0
LINE
  5
1D60F
  8
DANMEN
  6
CONTINUOUS
 10
49.0
 20
37.4
 30
0.0
 11
49.0
 21
37.0
 31
0.0
  0
ARC
  5
1D610
  8
DANMEN
  6
CONTINUOUS
 10
49.5
 20
37.0
 30
0.0
 40
0.5
 50
180.000019
 51
270.000001
  0
ARC
  5
1D614
  8
DANMEN
  6
CONTINUOUS
 10
39.600006
 20
45.899994
 30
0.0
 40
0.6
 50
0.0
 51
180.000019
  0
LINE
  5
1D615
  8
DANMEN
  6
CONTINUOUS
 10
40.199997
 20
45.899994
 30
0.0
 11
40.199997
 21
40.929842
 31
0.0
  0
LINE
  5
1D616
  8
DANMEN
  6
CONTINUOUS
 10
39.0
 20
45.899994
 30
0.0
 11
39.0
 21
40.60902
 31
0.0
  0
ARC
  5
1D618
  8
DANMEN
  6
CONTINUOUS
 10
39.5
 20
40.60902
 30
0.0
 40
0.5
 50
180.0
 51
243.434949
  0
LINE
  5
1D61C
  8
DANMEN
  6
CONTINUOUS
 10
54.052282
 20
51.255789
 30
0.0
 11
49.521146
 21
48.784248
 31
0.0
  0
ARC
  5
1D61D
  8
DANMEN
  6
CONTINUOUS
 10
50.0
 20
47.906353
 30
0.0
 40
1.0
 50
118.610582
 51
180.0
  0
ARC
  5
1D620
  8
DANMEN
  6
CONTINUOUS
 10
54.5
 20
37.149994
 30
0.0
 40
1.0
 50
0.0
 51
89.999982
  0
LINE
  5
1D622
  8
DANMEN
  6
CONTINUOUS
 10
62.2
 20
49.8
 30
0.0
 11
63.8
 21
49.8
 31
0.0
  0
LINE
  5
1D623
  8
DANMEN
  6
CONTINUOUS
 10
54.920742
 20
49.85
 30
0.0
 11
58.7
 21
49.85
 31
0.0
  0
ARC
  5
1D626
  8
DANMEN
  6
CONTINUOUS
 10
58.7
 20
48.85
 30
0.0
 40
1.0
 50
0.0
 51
90.0
  0
ARC
  5
1D627
  8
DANMEN
  6
CONTINUOUS
 10
61.7
 20
47.469694
 30
0.0
 40
2.0
 50
180.0
 51
231.706523
  0
ARC
  5
1D628
  8
DANMEN
  6
CONTINUOUS
 10
61.7
 20
46.463068
 30
0.0
 40
0.2
 50
0.0
 51
65.375682
  0
ARC
  5
1D629
  8
DANMEN
  6
CONTINUOUS
 10
62.2
 20
47.553939
 30
0.0
 40
1.0
 50
180.0
 51
245.375682
  0
LINE
  5
1D62A
  8
DANMEN
  6
CONTINUOUS
 10
61.9
 20
46.2
 30
0.0
 11
61.9
 21
46.463068
 31
0.0
  0
ARC
  5
1D62B
  8
DANMEN
  6
CONTINUOUS
 10
62.2
 20
48.8
 30
0.0
 40
1.0
 50
90.0
 51
180.0
  0
LINE
  5
1D62C
  8
DANMEN
  6
CONTINUOUS
 10
59.7
 20
47.469694
 30
0.0
 11
59.7
 21
48.85
 31
0.0
  0
LINE
  5
1D62D
  8
DANMEN
  6
CONTINUOUS
 10
61.2
 20
47.553939
 30
0.0
 11
61.2
 21
48.8
 31
0.0
  0
LINE
  5
1D62E
  8
DANMEN
  6
CONTINUOUS
 10
60.460621
 20
45.9
 30
0.0
 11
61.6
 21
45.9
 31
0.0
  0
ARC
  5
1D62F
  8
DANMEN
  6
CONTINUOUS
 10
61.6
 20
46.2
 30
0.0
 40
0.3
 50
270.0
 51
0.0
  0
ARC
  5
1D630
  8
DANMEN
  6
CONTINUOUS
 10
69.927452
 20
45.752808
 30
0.0
 40
0.5
 50
293.49856
 51
23.49856
  0
LINE
  5
1D631
  8
DANMEN
  6
CONTINUOUS
 10
64.956524
 20
45.9
 30
0.0
 11
65.601274
 21
44.417076
 31
0.0
  0
ARC
  5
1D632
  8
DANMEN
  6
CONTINUOUS
 10
66.518344
 20
44.815802
 30
0.0
 40
1.0
 50
203.49856
 51
293.49856
  0
LINE
  5
1D637
  8
DANMEN
  6
CONTINUOUS
 10
70.126815
 20
45.294273
 30
0.0
 11
66.91707
 21
43.898732
 31
0.0
  0
LINE
  5
1D638
  8
DANMEN
  6
CONTINUOUS
 10
66.3
 20
46.948185
 30
0.0
 11
66.855268
 21
45.671069
 31
0.0
  0
LINE
  5
1D639
  8
DANMEN
  6
CONTINUOUS
 10
66.3
 20
49.850006
 30
0.0
 11
68.640809
 21
49.850006
 31
0.0
  0
LINE
  5
1D63D
  8
DANMEN
  6
CONTINUOUS
 10
64.1
 20
46.2
 30
0.0
 11
64.1
 21
46.463068
 31
0.0
  0
ARC
  5
1D63E
  8
DANMEN
  6
CONTINUOUS
 10
63.8
 20
47.553939
 30
0.0
 40
1.0
 50
294.624318
 51
0.0
  0
ARC
  5
1D63F
  8
DANMEN
  6
CONTINUOUS
 10
64.3
 20
46.463068
 30
0.0
 40
0.2
 50
114.624318
 51
180.0
  0
LINE
  5
1D640
  8
DANMEN
  6
CONTINUOUS
 10
66.3
 20
46.948185
 30
0.0
 11
66.3
 21
49.850006
 31
0.0
  0
LINE
  5
1D641
  8
DANMEN
  6
CONTINUOUS
 10
64.8
 20
47.553939
 30
0.0
 11
64.8
 21
48.8
 31
0.0
  0
ARC
  5
1D642
  8
DANMEN
  6
CONTINUOUS
 10
63.8
 20
48.8
 30
0.0
 40
1.0
 50
0.0
 51
90.0
  0
LINE
  5
1D643
  8
DANMEN
  6
CONTINUOUS
 10
64.4
 20
45.9
 30
0.0
 11
64.956524
 21
45.9
 31
0.0
  0
ARC
  5
1D644
  8
DANMEN
  6
CONTINUOUS
 10
64.4
 20
46.2
 30
0.0
 40
0.3
 50
180.0
 51
270.0
  0
ARC
  5
1D648
  8
DANMEN
  6
CONTINUOUS
 10
69.66828
 20
46.348903
 30
0.0
 40
0.5
 50
23.49856
 51
113.49856
  0
LINE
  5
1D649
  8
DANMEN
  6
CONTINUOUS
 10
70.126816
 20
46.548266
 30
0.0
 11
70.385987
 21
45.952171
 31
0.0
  0
LINE
  5
1D64A
  8
DANMEN
  6
CONTINUOUS
 10
69.468917
 20
46.807438
 30
0.0
 11
66.855268
 21
45.671069
 31
0.0
  0
ARC
  5
1D64C
  8
DANMEN
  6
CONTINUOUS
 10
68.640809
 20
50.850006
 30
0.0
 40
1.0
 50
270.0
 51
294.443955
  0
LINE
  5
1D64D
  8
DANMEN
  6
CONTINUOUS
 10
56.149998
 20
71.499999
 30
0.0
 11
54.149998
 21
71.499998
 31
0.0
  0
LINE
  5
1D64E
  8
DANMEN
  6
CONTINUOUS
 10
68.849995
 20
72.500002
 30
0.0
 11
53.149998
 21
72.499998
 31
0.0
  0
LINE
  5
1D64F
  8
DANMEN
  6
CONTINUOUS
 10
52.649997
 20
56.5
 30
0.0
 11
57.0
 21
56.5
 31
0.0
  0
LINE
  5
1D650
  8
DANMEN
  6
CONTINUOUS
 10
53.149998
 20
71.499998
 30
0.0
 11
53.149998
 21
57.0
 31
0.0
  0
LINE
  5
1D651
  8
DANMEN
  6
CONTINUOUS
 10
49.0
 20
56.5
 30
0.0
 11
51.699999
 21
56.5
 31
0.0
  0
ARC
  5
1D652
  8
DANMEN
  6
CONTINUOUS
 10
52.649998
 20
57.0
 30
0.0
 40
0.5
 50
270.000018
 51
359.999948
  0
ARC
  5
1D654
  8
DANMEN
  6
CONTINUOUS
 10
51.699998
 20
57.0
 30
0.0
 40
0.5
 50
180.000036
 51
270.000018
  0
LINE
  5
1D656
  8
DANMEN
  6
CONTINUOUS
 10
52.649997
 20
56.499997
 30
0.0
 11
51.699998
 21
56.499997
 31
0.0
  0
LINE
  5
1D657
  8
DANMEN
  6
CONTINUOUS
 10
53.649998
 20
71.999998
 30
0.0
 11
53.149998
 21
71.499998
 31
0.0
  0
LINE
  5
1D658
  8
DANMEN
  6
CONTINUOUS
 10
54.149998
 20
71.499998
 30
0.0
 11
53.649998
 21
71.999998
 31
0.0
  0
ARC
  5
1D65D
  8
DANMEN
  6
CONTINUOUS
 10
61.0
 20
60.5
 30
0.0
 40
3.0
 50
53.130102
 51
126.869903
  0
ARC
  5
1D65E
  8
DANMEN
  6
CONTINUOUS
 10
62.0
 20
62.79129
 30
0.0
 40
0.5
 50
0.000279
 51
66.42195
  0
ARC
  5
1D65F
  8
DANMEN
  6
CONTINUOUS
 10
60.0
 20
62.79129
 30
0.0
 40
0.5
 50
113.578068
 51
179.999745
  0
ARC
  5
1D660
  8
DANMEN
  6
CONTINUOUS
 10
61.0
 20
62.5
 30
0.0
 40
4.0
 50
0.0
 51
180.000019
  0
LINE
  5
1D661
  8
DANMEN
  6
CONTINUOUS
 10
62.5
 20
51.5
 30
0.0
 11
68.5
 21
51.5
 31
0.0
  0
LINE
  5
1D662
  8
DANMEN
  6
CONTINUOUS
 10
60.850006
 20
59.347046
 30
0.0
 11
60.850006
 21
51.5
 31
0.0
  0
LINE
  5
1D663
  8
DANMEN
  6
CONTINUOUS
 10
62.5
 20
62.79129
 30
0.0
 11
62.5
 21
51.5
 31
0.0
  0
LINE
  5
1D664
  8
DANMEN
  6
CONTINUOUS
 10
57.0
 20
62.5
 30
0.0
 11
57.0
 21
56.5
 31
0.0
  0
LINE
  5
1D665
  8
DANMEN
  6
CONTINUOUS
 10
55.00999
 20
51.5
 30
0.0
 11
60.850006
 21
51.5
 31
0.0
  0
LINE
  5
1D669
  8
DANMEN
  6
CONTINUOUS
 10
56.799999
 20
60.5
 30
0.0
 11
59.0
 21
60.5
 31
0.0
  0
ARC
  5
1D66A
  8
DANMEN
  6
CONTINUOUS
 10
59.5
 20
62.5
 30
0.0
 40
0.5
 50
126.869907
 51
180.000009
  0
ARC
  5
1D66B
  8
DANMEN
  6
CONTINUOUS
 10
60.0
 20
61.652954
 30
0.0
 40
0.5
 50
180.000309
 51
214.019733
  0
ARC
  5
1D66C
  8
DANMEN
  6
CONTINUOUS
 10
60.350006
 20
59.347046
 30
0.0
 40
0.5
 50
0.000664
 51
34.020021
  0
LINE
  5
1D66D
  8
DANMEN
  6
CONTINUOUS
 10
60.764431
 20
59.626784
 30
0.0
 11
59.585579
 21
61.373223
 31
0.0
  0
LINE
  5
1D670
  8
DANMEN
  6
CONTINUOUS
 10
59.5
 20
62.79129
 30
0.0
 11
59.5
 21
61.652954
 31
0.0
  0
LINE
  5
1D671
  8
DANMEN
  6
CONTINUOUS
 10
65.0
 20
62.5
 30
0.0
 11
65.0
 21
56.5
 31
0.0
  0
ARC
  5
1D673
  8
DANMEN
  6
CONTINUOUS
 10
62.5
 20
62.5
 30
0.0
 40
0.5
 50
359.999997
 51
53.130102
  0
LINE
  5
1D674
  8
DANMEN
  6
CONTINUOUS
 10
65.200001
 20
60.5
 30
0.0
 11
63.0
 21
60.5
 31
0.0
  0
LINE
  5
1D675
  8
DANMEN
  6
CONTINUOUS
 10
65.850001
 20
70.550001
 30
0.0
 11
56.149998
 21
70.549999
 31
0.0
  0
ARC
  5
1D679
  8
DANMEN
  6
CONTINUOUS
 10
61.0
 20
60.5
 30
0.0
 40
3.0
 50
66.421841
 51
113.578178
  0
LINE
  5
1D67B
  8
DANMEN
  6
CONTINUOUS
 10
56.600001
 20
74.000003
 30
0.0
 11
56.799998
 21
73.800005
 31
0.0
  0
LINE
  5
1D67E
  8
DANMEN
  6
CONTINUOUS
 10
56.149998
 20
71.5
 30
0.0
 11
56.149998
 21
70.550003
 31
0.0
  0
LINE
  5
1D682
  8
DANMEN
  6
CONTINUOUS
 10
67.850001
 20
71.500002
 30
0.0
 11
65.850001
 21
71.500001
 31
0.0
  0
LINE
  5
1D683
  8
DANMEN
  6
CONTINUOUS
 10
65.399994
 20
74.000002
 30
0.0
 11
65.199998
 21
73.800006
 31
0.0
  0
LINE
  5
1D686
  8
DANMEN
  6
CONTINUOUS
 10
65.850001
 20
71.5
 30
0.0
 11
65.850001
 21
70.550003
 31
0.0
  0
LINE
  5
1D687
  8
DANMEN
  6
CONTINUOUS
 10
68.350001
 20
72.000002
 30
0.0
 11
68.850001
 21
71.500002
 31
0.0
  0
LINE
  5
1D688
  8
DANMEN
  6
CONTINUOUS
 10
68.350001
 20
72.000002
 30
0.0
 11
67.850001
 21
71.500002
 31
0.0
  0
LINE
  5
1D68F
  8
DANMEN
  6
CONTINUOUS
 10
68.849995
 20
73.5
 30
0.0
 11
68.849995
 21
72.500002
 31
0.0
  0
LINE
  5
1D692
  8
DANMEN
  6
CONTINUOUS
 10
68.849998
 20
108.5
 30
0.0
 11
68.849998
 21
84.550003
 31
0.0
  0
ARC
  5
1D693
  8
DANMEN
  6
CONTINUOUS
 10
69.849998
 20
84.550003
 30
0.0
 40
1.0
 50
180.000019
 51
270.000001
  0
LINE
  5
1D695
  8
DANMEN
  6
CONTINUOUS
 10
56.600001
 20
92.000005
 30
0.0
 11
56.799998
 21
92.200002
 31
0.0
  0
LINE
  5
1D696
  8
DANMEN
  6
CONTINUOUS
 10
65.399994
 20
92.000006
 30
0.0
 11
65.199998
 21
92.200002
 31
0.0
  0
LINE
  5
1D697
  8
DANMEN
  6
CONTINUOUS
 10
53.149998
 20
109.699997
 30
0.0
 11
57.699998
 21
109.699997
 31
0.0
  0
LINE
  5
1D698
  8
DANMEN
  6
CONTINUOUS
 10
53.149998
 20
108.5
 30
0.0
 11
59.199999
 21
108.5
 31
0.0
  0
ARC
  5
1D69B
  8
DANMEN
  6
CONTINUOUS
 10
60.833703
 20
109.55
 30
0.0
 40
0.75
 50
270.0
 51
90.0
  0
ARC
  5
1D69C
  8
DANMEN
  6
CONTINUOUS
 10
66.799998
 20
109.199997
 30
0.0
 40
0.5
 50
89.999982
 51
180.000019
  0
ARC
  5
1D69D
  8
DANMEN
  6
CONTINUOUS
 10
61.0
 20
105.500008
 30
0.0
 40
3.0
 50
233.130097
 51
306.869898
  0
ARC
  5
1D69E
  8
DANMEN
  6
CONTINUOUS
 10
59.5
 20
103.500008
 30
0.0
 40
0.5
 50
179.999991
 51
233.130093
  0
LINE
  5
1D69F
  8
DANMEN
  6
CONTINUOUS
 10
56.799999
 20
105.500008
 30
0.0
 11
59.0
 21
105.500008
 31
0.0
  0
LINE
  5
1D6A1
  8
DANMEN
  6
CONTINUOUS
 10
59.199999
 20
108.8
 30
0.0
 11
60.833703
 21
108.8
 31
0.0
  0
LINE
  5
1D6A3
  8
DANMEN
  6
CONTINUOUS
 10
59.199999
 20
108.800003
 30
0.0
 11
59.199999
 21
108.5
 31
0.0
  0
ARC
  5
1D6A4
  8
DANMEN
  6
CONTINUOUS
 10
62.5
 20
103.500008
 30
0.0
 40
0.5
 50
306.869898
 51
0.000003
  0
LINE
  5
1D6A5
  8
DANMEN
  6
CONTINUOUS
 10
66.299998
 20
108.5
 30
0.0
 11
68.849998
 21
108.5
 31
0.0
  0
LINE
  5
1D6A6
  8
DANMEN
  6
CONTINUOUS
 10
65.200001
 20
105.500008
 30
0.0
 11
63.0
 21
105.500008
 31
0.0
  0
LINE
  5
1D6A8
  8
DANMEN
  6
CONTINUOUS
 10
66.299998
 20
109.199997
 30
0.0
 11
66.299998
 21
108.5
 31
0.0
  0
ARC
  5
1D6AA
  8
DANMEN
  6
CONTINUOUS
 10
61.699998
 20
112.8
 30
0.0
 40
1.0
 50
0.0
 51
90.0
  0
LINE
  5
1D6AB
  8
DANMEN
  6
CONTINUOUS
 10
60.199998
 20
115.5
 30
0.0
 11
68.849998
 21
115.5
 31
0.0
  0
ARC
  5
1D6AC
  8
DANMEN
  6
CONTINUOUS
 10
60.199998
 20
113.0
 30
0.0
 40
2.5
 50
89.999982
 51
180.000019
  0
LINE
  5
1D6AE
  8
DANMEN
  6
CONTINUOUS
 10
57.699998
 20
113.0
 30
0.0
 11
57.699998
 21
109.699997
 31
0.0
  0
LINE
  5
1D6B0
  8
DANMEN
  6
CONTINUOUS
 10
60.199998
 20
113.8
 30
0.0
 11
61.699998
 21
113.8
 31
0.0
  0
LINE
  5
1D6B1
  8
DANMEN
  6
CONTINUOUS
 10
59.199998
 20
111.3
 30
0.0
 11
59.199998
 21
112.8
 31
0.0
  0
LINE
  5
1D6B2
  8
DANMEN
  6
CONTINUOUS
 10
60.199998
 20
110.3
 30
0.0
 11
60.833703
 21
110.3
 31
0.0
  0
ARC
  5
1D6B3
  8
DANMEN
  6
CONTINUOUS
 10
60.199998
 20
112.8
 30
0.0
 40
1.0
 50
90.0
 51
180.0
  0
ARC
  5
1D6B4
  8
DANMEN
  6
CONTINUOUS
 10
60.199998
 20
111.3
 30
0.0
 40
1.0
 50
180.0
 51
270.0
  0
LINE
  5
1D6B7
  8
DANMEN
  6
CONTINUOUS
 10
65.199997
 20
113.550003
 30
0.0
 11
68.849998
 21
113.550003
 31
0.0
  0
ARC
  5
1D6B9
  8
DANMEN
  6
CONTINUOUS
 10
65.199998
 20
112.550003
 30
0.0
 40
1.0
 50
90.0
 51
180.0
  0
LINE
  5
1D6BB
  8
DANMEN
  6
CONTINUOUS
 10
62.699998
 20
112.166295
 30
0.0
 11
62.699998
 21
112.8
 31
0.0
  0
LINE
  5
1D6BC
  8
DANMEN
  6
CONTINUOUS
 10
64.199998
 20
112.166295
 30
0.0
 11
64.199998
 21
112.550003
 31
0.0
  0
ARC
  5
1D6BD
  8
DANMEN
  6
CONTINUOUS
 10
63.449998
 20
112.166295
 30
0.0
 40
0.75
 50
180.0
 51
0.0
  0
LINE
  5
1D6C1
  8
DANMEN
  6
CONTINUOUS
 10
66.799998
 20
109.699997
 30
0.0
 11
68.849998
 21
109.699997
 31
0.0
  0
LINE
  5
1D6C2
  8
DANMEN
  6
CONTINUOUS
 10
68.849998
 20
113.550003
 30
0.0
 11
68.849998
 21
109.699997
 31
0.0
  0
LINE
  5
1D6C4
  8
DANMEN
  6
CONTINUOUS
 10
73.6
 20
74.982873
 30
0.0
 11
74.582434
 21
71.8
 31
0.0
  0
LINE
  5
1D6C5
  8
DANMEN
  6
CONTINUOUS
 10
73.0187
 20
74.80985
 30
0.0
 11
74.146178
 21
71.315559
 31
0.0
  0
LINE
  5
1D6C6
  8
DANMEN
  6
CONTINUOUS
 10
77.2
 20
76.2
 30
0.0
 11
77.2
 21
74.5
 31
0.0
  0
LINE
  5
1D6C7
  8
DANMEN
  6
CONTINUOUS
 10
75.2
 20
78.9
 30
0.0
 11
75.2
 21
71.8
 31
0.0
  0
LINE
  5
1D6C8
  8
DANMEN
  6
CONTINUOUS
 10
110.350006
 20
76.85
 30
0.0
 11
110.350006
 21
64.58182
 31
0.0
  0
LINE
  5
1D6C9
  8
DANMEN
  6
CONTINUOUS
 10
112.0
 20
96.0
 30
0.0
 11
112.0
 21
62.0
 31
0.0
  0
LINE
  5
1D6CA
  8
DANMEN
  6
CONTINUOUS
 10
86.5
 20
74.0
 30
0.0
 11
85.5
 21
74.7
 31
0.0
  0
LINE
  5
1D6CB
  8
DANMEN
  6
CONTINUOUS
 10
93.5
 20
74.7
 30
0.0
 11
92.5
 21
74.0
 31
0.0
  0
ARC
  5
1D6CC
  8
DANMEN
  6
CONTINUOUS
 10
82.0
 20
75.7
 30
0.0
 40
1.0
 50
180.0
 51
270.0
  0
ARC
  5
1D6CD
  8
DANMEN
  6
CONTINUOUS
 10
97.7
 20
73.8
 30
0.0
 40
1.0
 50
0.0
 51
90.0
  0
ARC
  5
1D6CE
  8
DANMEN
  6
CONTINUOUS
 10
96.2
 20
73.8
 30
0.0
 40
1.0
 50
90.0
 51
180.0
  0
LINE
  5
1D6CF
  8
DANMEN
  6
CONTINUOUS
 10
100.2
 20
73.166295
 30
0.0
 11
100.2
 21
76.85
 31
0.0
  0
LINE
  5
1D6D0
  8
DANMEN
  6
CONTINUOUS
 10
79.5
 20
77.7
 30
0.0
 11
79.5
 21
72.0
 31
0.0
  0
LINE
  5
1D6D1
  8
DANMEN
  6
CONTINUOUS
 10
78.500003
 20
78.5
 30
0.0
 11
78.500003
 21
72.3
 31
0.0
  0
LINE
  5
1D6D2
  8
DANMEN
  6
CONTINUOUS
 10
93.5
 20
74.7
 30
0.0
 11
93.5
 21
62.503636
 31
0.0
  0
LINE
  5
1D6D3
  8
DANMEN
  6
CONTINUOUS
 10
71.049998
 20
83.550003
 30
0.0
 11
71.049998
 21
73.5
 31
0.0
  0
LINE
  5
1D6D4
  8
DANMEN
  6
CONTINUOUS
 10
72.999998
 20
85.0
 30
0.0
 11
72.999998
 21
72.0
 31
0.0
  0
LINE
  5
1D6D5
  8
DANMEN
  6
CONTINUOUS
 10
86.5
 20
74.0
 30
0.0
 11
92.5
 21
74.0
 31
0.0
  0
LINE
  5
1D6D6
  8
DANMEN
  6
CONTINUOUS
 10
73.0
 20
72.000007
 30
0.0
 11
73.0
 21
56.5
 31
0.0
  0
LINE
  5
1D6D7
  8
DANMEN
  6
CONTINUOUS
 10
76.5
 20
71.5
 30
0.0
 11
79.000003
 21
71.5
 31
0.0
  0
LINE
  5
1D6D8
  8
DANMEN
  6
CONTINUOUS
 10
74.582434
 20
71.8
 30
0.0
 11
75.2
 21
71.8
 31
0.0
  0
LINE
  5
1D6D9
  8
DANMEN
  6
CONTINUOUS
 10
74.327478
 20
71.2
 30
0.0
 11
76.0
 21
71.2
 31
0.0
  0
ARC
  5
1D6DC
  8
DANMEN
  6
CONTINUOUS
 10
74.327478
 20
71.4
 30
0.0
 40
0.2
 50
204.97391
 51
270.0
  0
ARC
  5
1D6DF
  8
DANMEN
  6
CONTINUOUS
 10
72.499998
 20
72.0
 30
0.0
 40
0.5
 50
270.0
 51
0.0
  0
LINE
  5
1D6E5
  8
DANMEN
  6
CONTINUOUS
 10
76.0
 20
73.7
 30
0.0
 11
77.0
 21
73.7
 31
0.0
  0
LINE
  5
1D6E6
  8
DANMEN
  6
CONTINUOUS
 10
77.0
 20
73.7
 30
0.0
 11
77.0
 21
72.7
 31
0.0
  0
LINE
  5
1D6E7
  8
DANMEN
  6
CONTINUOUS
 10
77.2
 20
74.5
 30
0.0
 11
78.0
 21
73.7
 31
0.0
  0
LINE
  5
1D6E9
  8
DANMEN
  6
CONTINUOUS
 10
78.0
 20
73.7
 30
0.0
 11
78.0
 21
72.7
 31
0.0
  0
ARC
  5
1D6EA
  8
DANMEN
  6
CONTINUOUS
 10
77.2
 20
72.7
 30
0.0
 40
0.2
 50
180.000019
 51
270.000001
  0
ARC
  5
1D6EC
  8
DANMEN
  6
CONTINUOUS
 10
77.8
 20
72.7
 30
0.0
 40
0.2
 50
270.000018
 51
0.0
  0
LINE
  5
1D6EE
  8
DANMEN
  6
CONTINUOUS
 10
76.0
 20
73.7
 30
0.0
 11
76.0
 21
71.2
 31
0.0
  0
LINE
  5
1D6EF
  8
DANMEN
  6
CONTINUOUS
 10
77.2
 20
72.5
 30
0.0
 11
77.8
 21
72.5
 31
0.0
  0
LINE
  5
1D6F5
  8
DANMEN
  6
CONTINUOUS
 10
76.800003
 20
72.3
 30
0.0
 11
78.5
 21
72.3
 31
0.0
  0
LINE
  5
1D6F6
  8
DANMEN
  6
CONTINUOUS
 10
76.5
 20
73.699997
 30
0.0
 11
76.800003
 21
73.699997
 31
0.0
  0
ARC
  5
1D6F7
  8
DANMEN
  6
CONTINUOUS
 10
76.5
 20
73.199997
 30
0.0
 40
0.5
 50
89.999982
 51
180.000019
  0
ARC
  5
1D6F8
  8
DANMEN
  6
CONTINUOUS
 10
76.5
 20
72.0
 30
0.0
 40
0.5
 50
180.000019
 51
270.000001
  0
LINE
  5
1D6F9
  8
DANMEN
  6
CONTINUOUS
 10
76.800003
 20
73.699997
 30
0.0
 11
76.800003
 21
72.3
 31
0.0
  0
LINE
  5
1D6FA
  8
DANMEN
  6
CONTINUOUS
 10
76.0
 20
73.199997
 30
0.0
 11
76.0
 21
72.0
 31
0.0
  0
ARC
  5
1D6FC
  8
DANMEN
  6
CONTINUOUS
 10
79.0
 20
72.0
 30
0.0
 40
0.5
 50
270.000018
 51
0.0
  0
LINE
  5
1D6FE
  8
DANMEN
  6
CONTINUOUS
 10
95.15
 20
68.8
 30
0.0
 11
95.15
 21
62.085093
 31
0.0
  0
ARC
  5
1D700
  8
DANMEN
  6
CONTINUOUS
 10
94.15
 20
62.085093
 30
0.0
 40
1.0
 50
294.443955
 51
0.0
  0
ARC
  5
1D702
  8
DANMEN
  6
CONTINUOUS
 10
96.15
 20
68.8
 30
0.0
 40
1.0
 50
90.0
 51
180.0
  0
ARC
  5
1D703
  8
DANMEN
  6
CONTINUOUS
 10
96.2
 20
72.3
 30
0.0
 40
1.0
 50
180.0
 51
270.0
  0
LINE
  5
1D706
  8
DANMEN
  6
CONTINUOUS
 10
95.2
 20
72.3
 30
0.0
 11
95.2
 21
73.8
 31
0.0
  0
ARC
  5
1D707
  8
DANMEN
  6
CONTINUOUS
 10
99.45
 20
73.166295
 30
0.0
 40
0.75
 50
180.0
 51
0.0
  0
ARC
  5
1D709
  8
DANMEN
  6
CONTINUOUS
 10
96.833705
 20
70.55
 30
0.0
 40
0.75
 50
270.0
 51
90.0
  0
LINE
  5
1D70A
  8
DANMEN
  6
CONTINUOUS
 10
96.15
 20
69.8
 30
0.0
 11
96.833705
 21
69.8
 31
0.0
  0
LINE
  5
1D70B
  8
DANMEN
  6
CONTINUOUS
 10
96.2
 20
71.3
 30
0.0
 11
96.833705
 21
71.3
 31
0.0
  0
LINE
  5
1D70C
  8
DANMEN
  6
CONTINUOUS
 10
98.7
 20
73.166295
 30
0.0
 11
98.7
 21
73.8
 31
0.0
  0
LINE
  5
1D70D
  8
DANMEN
  6
CONTINUOUS
 10
112.0
 20
61.845612
 30
0.0
 11
112.0
 21
36.5
 31
0.0
  0
ARC
  5
1D70E
  8
DANMEN
  6
CONTINUOUS
 10
107.41465
 20
62.760364
 30
0.0
 40
0.5
 50
113.49856
 51
203.49856
  0
ARC
  5
1D70F
  8
DANMEN
  6
CONTINUOUS
 10
111.5
 20
62.0
 30
0.0
 40
0.5
 50
270.0
 51
0.0
  0
ARC
  5
1D710
  8
DANMEN
  6
CONTINUOUS
 10
107.673822
 20
62.164268
 30
0.0
 40
0.5
 50
203.49856
 51
293.49856
  0
LINE
  5
1D712
  8
DANMEN
  6
CONTINUOUS
 10
107.215287
 20
61.964905
 30
0.0
 11
106.956115
 21
62.561001
 31
0.0
  0
ARC
  5
1D713
  8
DANMEN
  6
CONTINUOUS
 10
110.4
 20
62.259133
 30
0.0
 40
0.5
 50
0.0
 51
113.49856
  0
LINE
  5
1D714
  8
DANMEN
  6
CONTINUOUS
 10
110.200637
 20
62.717668
 30
0.0
 11
107.873185
 21
61.705733
 31
0.0
  0
LINE
  5
1D716
  8
DANMEN
  6
CONTINUOUS
 10
110.9
 20
62.259133
 30
0.0
 11
110.9
 21
61.5
 31
0.0
  0
LINE
  5
1D717
  8
DANMEN
  6
CONTINUOUS
 10
110.9
 20
61.5
 30
0.0
 11
111.5
 21
61.5
 31
0.0
  0
LINE
  5
1D719
  8
DANMEN
  6
CONTINUOUS
 10
110.350006
 20
64.58182
 30
0.0
 11
107.215287
 21
63.218899
 31
0.0
  0
LINE
  5
1D720
  8
DANMEN
  6
CONTINUOUS
 10
101.0
 20
91.5
 30
0.0
 11
110.35
 21
91.5
 31
0.0
  0
LINE
  5
1D721
  8
DANMEN
  6
CONTINUOUS
 10
99.0
 20
89.7
 30
0.0
 11
110.35
 21
89.7
 31
0.0
  0
LINE
  5
1D722
  8
DANMEN
  6
CONTINUOUS
 10
100.2
 20
76.85
 30
0.0
 11
110.350006
 21
76.85
 31
0.0
  0
LINE
  5
1D723
  8
DANMEN
  6
CONTINUOUS
 10
99.05
 20
78.5
 30
0.0
 11
110.35
 21
78.5
 31
0.0
  0
LINE
  5
1D724
  8
DANMEN
  6
CONTINUOUS
 10
105.900009
 20
114.850005
 30
0.0
 11
102.000009
 21
101.150007
 31
0.0
  0
LINE
  5
1D725
  8
DANMEN
  6
CONTINUOUS
 10
82.650009
 20
116.500005
 30
0.0
 11
104.250009
 21
116.500005
 31
0.0
  0
LINE
  5
1D726
  8
DANMEN
  6
CONTINUOUS
 10
104.003149
 20
114.213108
 30
0.0
 11
100.284455
 21
101.150007
 31
0.0
  0
ARC
  5
1D727
  8
DANMEN
  6
CONTINUOUS
 10
103.522255
 20
114.350005
 30
0.0
 40
0.5
 50
344.109853
 51
90.0
  0
ARC
  5
1D728
  8
DANMEN
  6
DASHED
 10
101.0
 20
97.199997
 30
0.0
 40
0.5
 50
0.0
 51
89.999982
  0
ARC
  5
1D729
  8
DANMEN
  6
DASHED
 10
76.5
 20
97.199997
 30
0.0
 40
0.5
 50
90.0
 51
180.0
  0
CIRCLE
  5
1D72A
  8
DANMEN
  6
CONTINUOUS
 10
98.825009
 20
97.500007
 30
0.0
 40
2.0
  0
CIRCLE
  5
1D72B
  8
DANMEN
  6
CONTINUOUS
 10
100.198343
 20
97.774643
 30
0.0
 40
0.1
  0
CIRCLE
  5
1D72C
  8
DANMEN
  6
CONTINUOUS
 10
99.048304
 20
97.723148
 30
0.0
 40
0.1
  0
ARC
  5
1D72D
  8
DANMEN
  6
CONTINUOUS
 10
84.000009
 20
97.150001
 30
0.0
 40
1.0
 50
0.0
 51
90.0
  0
LINE
  5
1D72E
  8
DANMEN
  6
CONTINUOUS
 10
95.200009
 20
100.650006
 30
0.0
 11
95.200009
 21
94.850007
 31
0.0
  0
LINE
  5
1D72F
  8
DANMEN
  6
CONTINUOUS
 10
100.800009
 20
97.000006
 30
0.0
 11
100.800009
 21
99.500007
 31
0.0
  0
LINE
  5
1D730
  8
DANMEN
  6
CONTINUOUS
 10
96.850009
 20
99.500007
 30
0.0
 11
96.850009
 21
96.000007
 31
0.0
  0
LINE
  5
1D731
  8
DANMEN
  6
CONTINUOUS
 10
102.000009
 20
96.500007
 30
0.0
 11
102.000009
 21
101.150007
 31
0.0
  0
LINE
  5
1D732
  8
DANMEN
  6
DASHED
 10
97.0
 20
96.5
 30
0.0
 11
85.0
 21
96.5
 31
0.0
  0
LINE
  5
1D733
  8
DANMEN
  6
DASHED
 10
101.0
 20
97.699997
 30
0.0
 11
76.5
 21
97.699997
 31
0.0
  0
LINE
  5
1D734
  8
DANMEN
  6
CONTINUOUS
 10
82.8
 20
76.5
 30
0.0
 11
98.55
 21
76.5
 31
0.0
  0
LINE
  5
1D735
  8
DANMEN
  6
CONTINUOUS
 10
82.8
 20
93.5
 30
0.0
 11
82.8
 21
76.5
 31
0.0
  0
LINE
  5
1D736
  8
DANMEN
  6
CONTINUOUS
 10
81.0
 20
96.0
 30
0.0
 11
81.0
 21
79.5
 31
0.0
  0
LINE
  5
1D737
  8
DANMEN
  6
CONTINUOUS
 10
81.0
 20
96.5
 30
0.0
 11
73.0
 21
79.5
 31
0.0
  0
LINE
  5
1D738
  8
DANMEN
  6
CONTINUOUS
 10
73.0
 20
96.5
 30
0.0
 11
81.0
 21
79.5
 31
0.0
  0
LINE
  5
1D739
  8
DANMEN
  6
CONTINUOUS
 10
76.5
 20
79.5
 30
0.0
 11
81.0
 21
79.5
 31
0.0
  0
LINE
  5
1D73A
  8
DANMEN
  6
CONTINUOUS
 10
81.0
 20
79.5
 30
0.0
 11
72.999998
 21
79.5
 31
0.0
  0
LINE
  5
1D73B
  8
DANMEN
  6
CONTINUOUS
 10
74.582434
 20
78.9
 30
0.0
 11
75.2
 21
78.9
 31
0.0
  0
LINE
  5
1D73C
  8
DANMEN
  6
CONTINUOUS
 10
74.327478
 20
79.5
 30
0.0
 11
76.0
 21
79.5
 31
0.0
  0
LINE
  5
1D740
  8
DANMEN
  6
CONTINUOUS
 10
73.6
 20
75.717126
 30
0.0
 11
73.6
 21
74.982873
 31
0.0
  0
LINE
  5
1D741
  8
DANMEN
  6
CONTINUOUS
 10
74.582434
 20
78.9
 30
0.0
 11
73.6
 21
75.717126
 31
0.0
  0
ARC
  5
1D743
  8
DANMEN
  6
CONTINUOUS
 10
73.2
 20
74.894291
 30
0.0
 40
0.2
 50
180.0
 51
204.97391
  0
ARC
  5
1D745
  8
DANMEN
  6
CONTINUOUS
 10
73.2
 20
75.805709
 30
0.0
 40
0.2
 50
155.02609
 51
180.0
  0
ARC
  5
1D747
  8
DANMEN
  6
CONTINUOUS
 10
74.327478
 20
79.3
 30
0.0
 40
0.2
 50
90.0
 51
155.02609
  0
LINE
  5
1D748
  8
DANMEN
  6
CONTINUOUS
 10
74.146178
 20
79.384441
 30
0.0
 11
73.0187
 21
75.89015
 31
0.0
  0
LINE
  5
1D749
  8
DANMEN
  6
CONTINUOUS
 10
73.0
 20
75.805709
 30
0.0
 11
73.0
 21
74.894291
 31
0.0
  0
LINE
  5
1D752
  8
DANMEN
  6
CONTINUOUS
 10
76.0
 20
79.5
 30
0.0
 11
76.0
 21
77.0
 31
0.0
  0
LINE
  5
1D754
  8
DANMEN
  6
CONTINUOUS
 10
76.0
 20
77.0
 30
0.0
 11
77.0
 21
77.0
 31
0.0
  0
LINE
  5
1D755
  8
DANMEN
  6
CONTINUOUS
 10
78.0
 20
77.0
 30
0.0
 11
77.2
 21
76.2
 31
0.0
  0
ARC
  5
1D758
  8
DANMEN
  6
CONTINUOUS
 10
77.2
 20
78.0
 30
0.0
 40
0.2
 50
89.999982
 51
180.000019
  0
ARC
  5
1D75A
  8
DANMEN
  6
CONTINUOUS
 10
77.8
 20
78.0
 30
0.0
 40
0.2
 50
0.0
 51
89.999982
  0
LINE
  5
1D75C
  8
DANMEN
  6
CONTINUOUS
 10
77.0
 20
78.0
 30
0.0
 11
77.0
 21
77.0
 31
0.0
  0
LINE
  5
1D75D
  8
DANMEN
  6
CONTINUOUS
 10
77.2
 20
78.2
 30
0.0
 11
77.8
 21
78.2
 31
0.0
  0
LINE
  5
1D75E
  8
DANMEN
  6
CONTINUOUS
 10
78.0
 20
78.0
 30
0.0
 11
78.0
 21
77.0
 31
0.0
  0
ARC
  5
1D765
  8
DANMEN
  6
CONTINUOUS
 10
76.5
 20
79.0
 30
0.0
 40
0.5
 50
89.999982
 51
180.000019
  0
LINE
  5
1D766
  8
DANMEN
  6
CONTINUOUS
 10
76.800003
 20
78.5
 30
0.0
 11
78.5
 21
78.5
 31
0.0
  0
ARC
  5
1D767
  8
DANMEN
  6
CONTINUOUS
 10
76.5
 20
77.800003
 30
0.0
 40
0.5
 50
180.000019
 51
270.000001
  0
LINE
  5
1D768
  8
DANMEN
  6
CONTINUOUS
 10
76.800003
 20
78.5
 30
0.0
 11
76.800003
 21
77.300003
 31
0.0
  0
LINE
  5
1D769
  8
DANMEN
  6
CONTINUOUS
 10
76.5
 20
77.300003
 30
0.0
 11
76.800003
 21
77.300003
 31
0.0
  0
LINE
  5
1D76A
  8
DANMEN
  6
CONTINUOUS
 10
76.0
 20
79.0
 30
0.0
 11
76.0
 21
77.800003
 31
0.0
  0
ARC
  5
1D76B
  8
DANMEN
  6
CONTINUOUS
 10
72.499998
 20
85.0
 30
0.0
 40
0.5
 50
0.0
 51
89.999982
  0
LINE
  5
1D76F
  8
DANMEN
  6
CONTINUOUS
 10
70.799998
 20
85.5
 30
0.0
 11
72.499998
 21
85.5
 31
0.0
  0
LINE
  5
1D771
  8
DANMEN
  6
CONTINUOUS
 10
82.0
 20
74.7
 30
0.0
 11
85.5
 21
74.7
 31
0.0
  0
LINE
  5
1D775
  8
DANMEN
  6
CONTINUOUS
 10
79.5
 20
77.7
 30
0.0
 11
81.0
 21
77.7
 31
0.0
  0
LINE
  5
1D778
  8
DANMEN
  6
CONTINUOUS
 10
81.0
 20
75.7
 30
0.0
 11
81.0
 21
77.7
 31
0.0
  0
LINE
  5
1D77C
  8
DANMEN
  6
DASHED
 10
83.5
 20
96.5
 30
0.0
 11
77.714146
 21
96.5
 31
0.0
  0
LINE
  5
1D77D
  8
DANMEN
  6
CONTINUOUS
 10
73.0
 20
96.5
 30
0.0
 11
81.0
 21
96.5
 31
0.0
  0
ARC
  5
1D77E
  8
DANMEN
  6
DASHED
 10
77.714146
 20
95.5
 30
0.0
 40
1.0
 50
89.999982
 51
135.573244
  0
LINE
  5
1D77F
  8
DANMEN
  6
DASHED
 10
77.0
 20
96.199997
 30
0.0
 11
76.5
 21
96.199997
 31
0.0
  0
LINE
  5
1D780
  8
DANMEN
  6
DASHED
 10
76.0
 20
97.199997
 30
0.0
 11
76.0
 21
96.699997
 31
0.0
  0
ARC
  5
1D781
  8
DANMEN
  6
DASHED
 10
76.5
 20
96.699997
 30
0.0
 40
0.5
 50
180.0
 51
270.0
  0
LINE
  5
1D786
  8
DANMEN
  6
DASHED
 10
83.023824
 20
92.882864
 30
0.0
 11
84.423825
 21
89.582833
 31
0.0
  0
LINE
  5
1D787
  8
DANMEN
  6
DASHED
 10
84.5
 20
91.899997
 30
0.0
 11
84.5
 21
96.0
 31
0.0
  0
LINE
  5
1D788
  8
DANMEN
  6
CONTINUOUS
 10
83.500009
 20
87.499998
 30
0.0
 11
83.500009
 21
96.500001
 31
0.0
  0
LINE
  5
1D789
  8
DANMEN
  6
CONTINUOUS
 10
85.000009
 20
97.149996
 30
0.0
 11
85.000009
 21
86.999998
 31
0.0
  0
LINE
  5
1D78A
  8
DANMEN
  6
DASHED
 10
84.5
 20
91.899997
 30
0.0
 11
84.992312
 21
89.76748
 31
0.0
  0
ARC
  5
1D78B
  8
DANMEN
  6
DASHED
 10
84.7
 20
89.699997
 30
0.0
 40
0.3
 50
202.988532
 51
12.999521
  0
ARC
  5
1D78F
  8
DANMEN
  6
CONTINUOUS
 10
84.000009
 20
87.499998
 30
0.0
 40
0.5
 50
180.0
 51
270.0
  0
LINE
  5
1D790
  8
DANMEN
  6
CONTINUOUS
 10
85.000009
 20
86.999998
 30
0.0
 11
84.00001
 21
86.999998
 31
0.0
  0
ARC
  5
1D791
  8
DANMEN
  6
DASHED
 10
83.299999
 20
93.000028
 30
0.0
 40
0.3
 50
124.343976
 51
202.988532
  0
LINE
  5
1D792
  8
DANMEN
  6
CONTINUOUS
 10
82.8
 20
93.5
 30
0.0
 11
83.5
 21
93.5
 31
0.0
  0
ARC
  5
1D793
  8
DANMEN
  6
CONTINUOUS
 10
83.0
 20
96.0
 30
0.0
 40
0.5
 50
0.0
 51
90.0
  0
LINE
  5
1D794
  8
DANMEN
  6
CONTINUOUS
 10
81.500009
 20
96.500001
 30
0.0
 11
83.500009
 21
96.500001
 31
0.0
  0
ARC
  5
1D798
  8
DANMEN
  6
CONTINUOUS
 10
81.5
 20
96.0
 30
0.0
 40
0.5
 50
90.0
 51
180.0
  0
LINE
  5
1D799
  8
DANMEN
  6
CONTINUOUS
 10
81.5
 20
96.5
 30
0.0
 11
83.0
 21
96.5
 31
0.0
  0
ARC
  5
1D79A
  8
DANMEN
  6
CONTINUOUS
 10
81.500009
 20
97.000001
 30
0.0
 40
0.5
 50
180.0
 51
270.0
  0
ARC
  5
1D79D
  8
DANMEN
  6
DASHED
 10
85.0
 20
96.0
 30
0.0
 40
0.5
 50
90.0
 51
180.0
  0
LINE
  5
1D79E
  8
DANMEN
  6
DASHED
 10
83.5
 20
96.5
 30
0.0
 11
83.5
 21
93.500035
 31
0.0
  0
LINE
  5
1D79F
  8
DANMEN
  6
DASHED
 10
83.5
 20
93.500035
 30
0.0
 11
83.130743
 21
93.247729
 31
0.0
  0
LINE
  5
1D7A5
  8
DANMEN
  6
CONTINUOUS
 10
83.5
 20
96.0
 30
0.0
 11
83.5
 21
93.5
 31
0.0
  0
ARC
  5
1D7A6
  8
DANMEN
  6
DASHED
 10
97.3
 20
86.199997
 30
0.0
 40
0.3
 50
167.000479
 51
337.011468
  0
LINE
  5
1D7A7
  8
DANMEN
  6
DASHED
 10
98.976176
 20
89.382864
 30
0.0
 11
97.576175
 21
86.082833
 31
0.0
  0
ARC
  5
1D7AC
  8
DANMEN
  6
CONTINUOUS
 10
99.05
 20
78.0
 30
0.0
 40
0.5
 50
90.0
 51
180.0
  0
LINE
  5
1D7AD
  8
DANMEN
  6
CONTINUOUS
 10
98.55
 20
76.5
 30
0.0
 11
98.55
 21
78.0
 31
0.0
  0
LINE
  5
1D7AE
  8
DANMEN
  6
CONTINUOUS
 10
96.2
 20
74.8
 30
0.0
 11
97.7
 21
74.8
 31
0.0
  0
ARC
  5
1D7B1
  8
DANMEN
  6
CONTINUOUS
 10
95.700009
 20
94.850007
 30
0.0
 40
0.5
 50
180.0
 51
270.0
  0
LINE
  5
1D7B3
  8
DANMEN
  6
DASHED
 10
98.5
 20
96.5
 30
0.0
 11
98.5
 21
90.000035
 31
0.0
  0
LINE
  5
1D7B4
  8
DANMEN
  6
DASHED
 10
97.5
 20
88.399997
 30
0.0
 11
97.5
 21
96.0
 31
0.0
  0
LINE
  5
1D7B5
  8
DANMEN
  6
CONTINUOUS
 10
99.35
 20
90.7
 30
0.0
 11
99.35
 21
93.5
 31
0.0
  0
LINE
  5
1D7B6
  8
DANMEN
  6
CONTINUOUS
 10
101.0
 20
95.5
 30
0.0
 11
101.0
 21
91.5
 31
0.0
  0
LINE
  5
1D7B7
  8
DANMEN
  6
CONTINUOUS
 10
98.300009
 20
95.000007
 30
0.0
 11
98.300009
 21
87.500001
 31
0.0
  0
LINE
  5
1D7B8
  8
DANMEN
  6
CONTINUOUS
 10
96.800009
 20
94.350007
 30
0.0
 11
96.800009
 21
87.000001
 31
0.0
  0
ARC
  5
1D7BA
  8
DANMEN
  6
DASHED
 10
98.700001
 20
89.500028
 30
0.0
 40
0.3
 50
337.011468
 51
55.656024
  0
LINE
  5
1D7BB
  8
DANMEN
  6
DASHED
 10
98.5
 20
90.000035
 30
0.0
 11
98.869257
 21
89.747729
 31
0.0
  0
LINE
  5
1D7BC
  8
DANMEN
  6
DASHED
 10
97.5
 20
88.399997
 30
0.0
 11
97.007688
 21
86.26748
 31
0.0
  0
ARC
  5
1D7C3
  8
DANMEN
  6
CONTINUOUS
 10
99.0
 20
90.2
 30
0.0
 40
0.5
 50
90.0
 51
270.0
  0
LINE
  5
1D7C4
  8
DANMEN
  6
CONTINUOUS
 10
99.0
 20
90.7
 30
0.0
 11
99.35
 21
90.7
 31
0.0
  0
ARC
  5
1D7C5
  8
DANMEN
  6
CONTINUOUS
 10
97.800009
 20
87.500001
 30
0.0
 40
0.5
 50
270.0
 51
0.0
  0
LINE
  5
1D7C6
  8
DANMEN
  6
CONTINUOUS
 10
97.800009
 20
87.000001
 30
0.0
 11
96.800009
 21
87.000001
 31
0.0
  0
LINE
  5
1D7C8
  8
DANMEN
  6
DASHED
 10
98.5
 20
96.5
 30
0.0
 11
101.5
 21
96.5
 31
0.0
  0
LINE
  5
1D7C9
  8
DANMEN
  6
CONTINUOUS
 10
99.0
 20
96.5
 30
0.0
 11
102.0
 21
96.5
 31
0.0
  0
ARC
  5
1D7CA
  8
DANMEN
  6
DASHED
 10
97.0
 20
96.0
 30
0.0
 40
0.5
 50
0.0
 51
90.0
  0
CIRCLE
  5
1D7CE
  8
DANMEN
  6
CONTINUOUS
 10
97.288917
 20
97.637325
 30
0.0
 40
0.1
  0
CIRCLE
  5
1D7CF
  8
DANMEN
  6
CONTINUOUS
 10
98.052749
 20
97.130964
 30
0.0
 40
0.1
  0
CIRCLE
  5
1D7D0
  8
DANMEN
  6
CONTINUOUS
 10
99.35727
 20
97.105217
 30
0.0
 40
0.1
  0
CIRCLE
  5
1D7D1
  8
DANMEN
  6
CONTINUOUS
 10
98.722174
 20
96.444374
 30
0.0
 40
0.1
  0
CIRCLE
  5
1D7D2
  8
DANMEN
  6
CONTINUOUS
 10
97.503477
 20
96.444374
 30
0.0
 40
0.1
  0
CIRCLE
  5
1D7D3
  8
DANMEN
  6
CONTINUOUS
 10
98.353132
 20
95.88652
 30
0.0
 40
0.1
  0
ARC
  5
1D7D7
  8
DANMEN
  6
CONTINUOUS
 10
99.0
 20
96.0
 30
0.0
 40
0.5
 50
89.999981
 51
180.000037
  0
LINE
  5
1D7D8
  8
DANMEN
  6
CONTINUOUS
 10
98.5
 20
96.0
 30
0.0
 11
98.5
 21
93.5
 31
0.0
  0
LINE
  5
1D7D9
  8
DANMEN
  6
CONTINUOUS
 10
99.35
 20
93.5
 30
0.0
 11
98.5
 21
93.5
 31
0.0
  0
LINE
  5
1D7DA
  8
DANMEN
  6
CONTINUOUS
 10
96.850009
 20
96.000007
 30
0.0
 11
97.300009
 21
96.000007
 31
0.0
  0
LINE
  5
1D7DB
  8
DANMEN
  6
CONTINUOUS
 10
95.700009
 20
94.350007
 30
0.0
 11
96.800009
 21
94.350007
 31
0.0
  0
ARC
  5
1D7DC
  8
DANMEN
  6
CONTINUOUS
 10
97.300009
 20
95.000007
 30
0.0
 40
1.0
 50
0.0
 51
90.0
  0
LINE
  5
1D7DD
  8
DANMEN
  6
DASHED
 10
101.5
 20
96.5
 30
0.0
 11
101.5
 21
97.199997
 31
0.0
  0
CIRCLE
  5
1D7E0
  8
DANMEN
  6
CONTINUOUS
 10
100.267002
 20
96.676099
 30
0.0
 40
0.1
  0
CIRCLE
  5
1D7E1
  8
DANMEN
  6
CONTINUOUS
 10
99.606159
 20
96.03242
 30
0.0
 40
0.1
  0
ARC
  5
1D7E3
  8
DANMEN
  6
CONTINUOUS
 10
101.5
 20
96.0
 30
0.0
 40
0.5
 50
270.0
 51
0.0
  0
LINE
  5
1D7E5
  8
DANMEN
  6
CONTINUOUS
 10
101.0
 20
95.5
 30
0.0
 11
101.5
 21
95.5
 31
0.0
  0
LINE
  5
1D7E7
  8
DANMEN
  6
CONTINUOUS
 10
102.0
 20
96.5
 30
0.0
 11
102.0
 21
96.0
 31
0.0
  0
LINE
  5
1D7E8
  8
DANMEN
  6
CONTINUOUS
 10
102.000009
 20
96.500007
 30
0.0
 11
101.300009
 21
96.500006
 31
0.0
  0
ARC
  5
1D7E9
  8
DANMEN
  6
CONTINUOUS
 10
101.300009
 20
97.000006
 30
0.0
 40
0.5
 50
180.0
 51
270.0
  0
ARC
  5
1D7EA
  8
DANMEN
  6
CONTINUOUS
 10
86.700003
 20
113.850005
 30
0.0
 40
1.0
 50
0.0
 51
90.0
  0
LINE
  5
1D7EB
  8
DANMEN
  6
CONTINUOUS
 10
82.650009
 20
114.850005
 30
0.0
 11
82.650009
 21
98.150001
 31
0.0
  0
LINE
  5
1D7EC
  8
DANMEN
  6
CONTINUOUS
 10
82.650009
 20
98.150001
 30
0.0
 11
84.000009
 21
98.150001
 31
0.0
  0
LINE
  5
1D7ED
  8
DANMEN
  6
CONTINUOUS
 10
86.700003
 20
114.850005
 30
0.0
 11
82.650009
 21
114.850005
 31
0.0
  0
ARC
  5
1D7EE
  8
DANMEN
  6
CONTINUOUS
 10
95.700009
 20
100.650006
 30
0.0
 40
0.5
 50
90.0
 51
180.0
  0
LINE
  5
1D7EF
  8
DANMEN
  6
CONTINUOUS
 10
100.284455
 20
101.150007
 30
0.0
 11
95.700009
 21
101.150006
 31
0.0
  0
LINE
  5
1D7F0
  8
DANMEN
  6
CONTINUOUS
 10
96.850009
 20
99.500007
 30
0.0
 11
100.800009
 21
99.500007
 31
0.0
  0
CIRCLE
  5
1D7F1
  8
DANMEN
  6
CONTINUOUS
 10
98.413209
 20
98.323915
 30
0.0
 40
0.1
  0
CIRCLE
  5
1D7F2
  8
DANMEN
  6
CONTINUOUS
 10
97.632213
 20
98.66721
 30
0.0
 40
0.1
  0
CIRCLE
  5
1D7F3
  8
DANMEN
  6
CONTINUOUS
 10
98.799416
 20
99.096328
 30
0.0
 40
0.1
  0
CIRCLE
  5
1D7F4
  8
DANMEN
  6
CONTINUOUS
 10
99.597576
 20
98.66721
 30
0.0
 40
0.1
  0
CIRCLE
  5
1D7F5
  8
DANMEN
  6
CONTINUOUS
 10
99.597576
 20
98.66721
 30
0.0
 40
0.1
  0
CIRCLE
  5
1D7F6
  8
DANMEN
  6
CONTINUOUS
 10
99.597576
 20
98.66721
 30
0.0
 40
0.1
  0
LINE
  5
1D7F7
  8
DANMEN
  6
CONTINUOUS
 10
103.522255
 20
114.850005
 30
0.0
 11
95.300007
 21
114.850005
 31
0.0
  0
LINE
  5
1D7F8
  8
DANMEN
  6
CONTINUOUS
 10
90.200006
 20
114.900001
 30
0.0
 11
91.800006
 21
114.900002
 31
0.0
  0
LINE
  5
1D7F9
  8
DANMEN
  6
CONTINUOUS
 10
87.700002
 20
112.569697
 30
0.0
 11
87.700003
 21
113.850004
 31
0.0
  0
LINE
  5
1D7FA
  8
DANMEN
  6
CONTINUOUS
 10
89.900002
 20
111.300002
 30
0.0
 11
89.900002
 21
111.56307
 31
0.0
  0
ARC
  5
1D7FB
  8
DANMEN
  6
CONTINUOUS
 10
90.200002
 20
112.653941
 30
0.0
 40
1.0
 50
179.999974
 51
245.375656
  0
ARC
  5
1D7FC
  8
DANMEN
  6
CONTINUOUS
 10
89.700002
 20
111.56307
 30
0.0
 40
0.2
 50
359.999974
 51
65.375656
  0
LINE
  5
1D7FD
  8
DANMEN
  6
CONTINUOUS
 10
89.600002
 20
111.000002
 30
0.0
 11
88.460622
 21
111.000003
 31
0.0
  0
ARC
  5
1D7FE
  8
DANMEN
  6
CONTINUOUS
 10
89.600002
 20
111.300002
 30
0.0
 40
0.3
 50
269.999974
 51
359.999974
  0
LINE
  5
1D7FF
  8
DANMEN
  6
CONTINUOUS
 10
89.200002
 20
112.653941
 30
0.0
 11
89.200003
 21
113.900002
 31
0.0
  0
ARC
  5
1D800
  8
DANMEN
  6
CONTINUOUS
 10
89.700002
 20
112.569696
 30
0.0
 40
2.0
 50
179.999974
 51
231.706497
  0
ARC
  5
1D801
  8
DANMEN
  6
CONTINUOUS
 10
90.200003
 20
113.900002
 30
0.0
 40
1.0
 50
89.999974
 51
179.999974
  0
ARC
  5
1D802
  8
DANMEN
  6
CONTINUOUS
 10
92.300007
 20
112.569696
 30
0.0
 40
2.0
 50
308.293503
 51
0.000026
  0
LINE
  5
1D803
  8
DANMEN
  6
CONTINUOUS
 10
92.800007
 20
112.653941
 30
0.0
 11
92.800007
 21
113.900002
 31
0.0
  0
ARC
  5
1D804
  8
DANMEN
  6
CONTINUOUS
 10
92.400008
 20
111.300002
 30
0.0
 40
0.3
 50
180.000026
 51
270.000026
  0
LINE
  5
1D805
  8
DANMEN
  6
CONTINUOUS
 10
92.400008
 20
111.000002
 30
0.0
 11
93.539387
 21
111.000003
 31
0.0
  0
ARC
  5
1D806
  8
DANMEN
  6
CONTINUOUS
 10
92.300008
 20
111.56307
 30
0.0
 40
0.2
 50
114.624344
 51
180.000026
  0
ARC
  5
1D807
  8
DANMEN
  6
CONTINUOUS
 10
91.800007
 20
112.653941
 30
0.0
 40
1.0
 50
294.624344
 51
0.000026
  0
LINE
  5
1D808
  8
DANMEN
  6
CONTINUOUS
 10
92.100008
 20
111.300002
 30
0.0
 11
92.100008
 21
111.56307
 31
0.0
  0
ARC
  5
1D809
  8
DANMEN
  6
CONTINUOUS
 10
91.800007
 20
113.900002
 30
0.0
 40
1.0
 50
0.000026
 51
90.000026
  0
LINE
  5
1D80A
  8
DANMEN
  6
CONTINUOUS
 10
94.300007
 20
112.569697
 30
0.0
 11
94.300007
 21
113.850004
 31
0.0
  0
ARC
  5
1D80B
  8
DANMEN
  6
CONTINUOUS
 10
95.300007
 20
113.850005
 30
0.0
 40
1.0
 50
90.0
 51
180.0
  0
LINE
  5
1D80C
  8
DANMEN
  6
CONTINUOUS
 10
110.35
 20
89.7
 30
0.0
 11
110.35
 21
78.5
 31
0.0
  0
ARC
  5
1D80F
  8
DANMEN
  6
CONTINUOUS
 10
111.5
 20
96.0
 30
0.0
 40
0.5
 50
0.0
 51
90.0
  0
LINE
  5
1D810
  8
DANMEN
  6
CONTINUOUS
 10
110.35
 20
96.0
 30
0.0
 11
110.35
 21
91.5
 31
0.0
  0
ARC
  5
1D811
  8
DANMEN
  6
CONTINUOUS
 10
108.504277
 20
92.536483
 30
0.0
 40
0.5
 50
274.0
 51
359.16958
  0
ARC
  5
1D815
  8
DANMEN
  6
CONTINUOUS
 10
110.85
 20
96.0
 30
0.0
 40
0.5
 50
90.0
 51
180.0
  0
LINE
  5
1D816
  8
DANMEN
  6
CONTINUOUS
 10
110.85
 20
96.5
 30
0.0
 11
111.5
 21
96.5
 31
0.0
  0
LINE
  5
1D818
  8
DANMEN
  6
CONTINUOUS
 10
108.0
 20
92.0
 30
0.0
 11
108.539155
 21
92.037701
 31
0.0
  0
LINE
  5
1D820
  8
DANMEN
  6
CONTINUOUS
 10
179.649994
 20
93.149991
 30
0.0
 11
186.350006
 21
93.149991
 31
0.0
  0
ARC
  5
1D821
  8
DANMEN
  6
CONTINUOUS
 10
178.5
 20
91.999997
 30
0.0
 40
0.5
 50
180.000036
 51
269.999963
  0
ARC
  5
1D826
  8
DANMEN
  6
CONTINUOUS
 10
178.5
 20
96.999997
 30
0.0
 40
0.5
 50
89.999982
 51
180.000019
  0
ARC
  5
1D827
  8
DANMEN
  6
CONTINUOUS
 10
179.149994
 20
96.999997
 30
0.0
 40
0.5
 50
359.999981
 51
89.999982
  0
LINE
  5
1D828
  8
DANMEN
  6
CONTINUOUS
 10
179.649994
 20
96.999997
 30
0.0
 11
179.649994
 21
93.149991
 31
0.0
  0
LINE
  5
1D829
  8
DANMEN
  6
CONTINUOUS
 10
178.0
 20
96.999997
 30
0.0
 11
178.0
 21
91.999997
 31
0.0
  0
LINE
  5
1D82A
  8
DANMEN
  6
CONTINUOUS
 10
178.5
 20
97.499997
 30
0.0
 11
179.149994
 21
97.499997
 31
0.0
  0
LINE
  5
1D82B
  8
DANMEN
  6
CONTINUOUS
 10
188.0
 20
92.599997
 30
0.0
 11
190.0
 21
92.599997
 31
0.0
  0
LINE
  5
1D82F
  8
DANMEN
  6
CONTINUOUS
 10
190.0
 20
93.149991
 30
0.0
 11
190.0
 21
92.599997
 31
0.0
  0
LINE
  5
1D831
  8
DANMEN
  6
CONTINUOUS
 10
71.049998
 20
218.45
 30
0.0
 11
69.850001
 21
218.45
 31
0.0
  0
ARC
  5
1D832
  8
DANMEN
  6
CONTINUOUS
 10
70.299998
 20
186.0
 30
0.0
 40
0.5
 50
270.000018
 51
0.0
  0
LINE
  5
1D833
  8
DANMEN
  6
CONTINUOUS
 10
78.0
 20
247.450012
 30
0.0
 11
65.5
 21
247.450012
 31
0.0
  0
LINE
  5
1D834
  8
DANMEN
  6
CONTINUOUS
 10
78.65
 20
249.100012
 30
0.0
 11
63.4
 21
249.100012
 31
0.0
  0
ARC
  5
1D835
  8
DANMEN
  6
CONTINUOUS
 10
70.299998
 20
159.0
 30
0.0
 40
0.5
 50
0.0
 51
89.999982
  0
LINE
  5
1D836
  8
DANMEN
  6
CONTINUOUS
 10
47.5
 20
255.5
 30
0.0
 11
106.5
 21
255.5
 31
0.0
  0
LINE
  5
1D837
  8
DANMEN
  6
CONTINUOUS
 10
65.0
 20
228.5
 30
0.0
 11
73.0
 21
228.5
 31
0.0
  0
LINE
  5
1D838
  8
DANMEN
  6
CONTINUOUS
 10
68.850001
 20
217.45
 30
0.0
 11
68.850001
 21
202.0
 31
0.0
  0
LINE
  5
1D839
  8
DANMEN
  6
CONTINUOUS
 10
53.149998
 20
228.0
 30
0.0
 11
53.149998
 21
202.0
 31
0.0
  0
LINE
  5
1D83A
  8
DANMEN
  6
CONTINUOUS
 10
51.199998
 20
228.0
 30
0.0
 11
51.199998
 21
186.0
 31
0.0
  0
LINE
  5
1D83B
  8
DANMEN
  6
CONTINUOUS
 10
42.0
 20
221.0
 30
0.0
 11
42.0
 21
169.5
 31
0.0
  0
LINE
  5
1D83C
  8
DANMEN
  6
CONTINUOUS
 10
43.649994
 20
221.0
 30
0.0
 11
43.649994
 21
169.5
 31
0.0
  0
LINE
  5
1D83D
  8
DANMEN
  6
CONTINUOUS
 10
49.0
 20
228.5
 30
0.0
 11
49.0
 21
169.5
 31
0.0
  0
LINE
  5
1D83E
  8
DANMEN
  6
CONTINUOUS
 10
57.0
 20
228.5
 30
0.0
 11
57.0
 21
209.5
 31
0.0
  0
LINE
  5
1D83F
  8
DANMEN
  6
CONTINUOUS
 10
65.0
 20
228.5
 30
0.0
 11
65.0
 21
209.5
 31
0.0
  0
LINE
  5
1D840
  8
DANMEN
  6
CONTINUOUS
 10
59.649998
 20
146.550003
 30
0.0
 11
59.649998
 21
142.5
 31
0.0
  0
LINE
  5
1D841
  8
DANMEN
  6
CONTINUOUS
 10
57.699998
 20
147.5
 30
0.0
 11
57.699998
 21
142.699997
 31
0.0
  0
LINE
  5
1D842
  8
DANMEN
  6
CONTINUOUS
 10
53.149998
 20
156.5
 30
0.0
 11
53.149998
 21
142.699997
 31
0.0
  0
LINE
  5
1D843
  8
DANMEN
  6
CONTINUOUS
 10
53.149998
 20
141.5
 30
0.0
 11
58.649998
 21
141.5
 31
0.0
  0
LINE
  5
1D844
  8
DANMEN
  6
CONTINUOUS
 10
53.149998
 20
142.699997
 30
0.0
 11
57.699998
 21
142.699997
 31
0.0
  0
ARC
  5
1D848
  8
DANMEN
  6
CONTINUOUS
 10
58.649998
 20
142.5
 30
0.0
 40
1.0
 50
270.000018
 51
0.0
  0
ARC
  5
1D84A
  8
DANMEN
  6
CONTINUOUS
 10
54.500015
 20
160.499908
 30
0.0
 40
1.5
 50
90.000018
 51
180.0
  0
LINE
  5
1D84B
  8
DANMEN
  6
CONTINUOUS
 10
53.000015
 20
159.5
 30
0.0
 11
53.000015
 21
166.5
 31
0.0
  0
LINE
  5
1D84E
  8
DANMEN
  6
CONTINUOUS
 10
53.149998
 20
156.5
 30
0.0
 11
53.999998
 21
156.5
 31
0.0
  0
ARC
  5
1D84F
  8
DANMEN
  6
CONTINUOUS
 10
53.499998
 20
159.0
 30
0.0
 40
0.5
 50
0.0
 51
89.999982
  0
LINE
  5
1D851
  8
DANMEN
  6
CONTINUOUS
 10
53.999998
 20
159.0
 30
0.0
 11
53.999998
 21
156.5
 31
0.0
  0
ARC
  5
1D852
  8
DANMEN
  6
CONTINUOUS
 10
51.699998
 20
159.0
 30
0.0
 40
0.5
 50
89.999982
 51
180.000019
  0
LINE
  5
1D854
  8
DANMEN
  6
CONTINUOUS
 10
51.699998
 20
159.5
 30
0.0
 11
53.499998
 21
159.5
 31
0.0
  0
LINE
  5
1D855
  8
DANMEN
  6
CONTINUOUS
 10
68.849998
 20
156.5
 30
0.0
 11
68.849998
 21
148.5
 31
0.0
  0
LINE
  5
1D856
  8
DANMEN
  6
CONTINUOUS
 10
63.500009
 20
152.5
 30
0.0
 11
63.500009
 21
166.5
 31
0.0
  0
LINE
  5
1D857
  8
DANMEN
  6
CONTINUOUS
 10
58.500021
 20
152.499985
 30
0.0
 11
58.500021
 21
166.5
 31
0.0
  0
LINE
  5
1D858
  8
DANMEN
  6
CONTINUOUS
 10
63.000009
 20
152.5
 30
0.0
 11
63.000009
 21
166.5
 31
0.0
  0
LINE
  5
1D859
  8
DANMEN
  6
CONTINUOUS
 10
59.000021
 20
152.499985
 30
0.0
 11
59.000021
 21
166.5
 31
0.0
  0
LINE
  5
1D85A
  8
DANMEN
  6
CONTINUOUS
 10
59.649998
 20
146.550003
 30
0.0
 11
68.849998
 21
146.550003
 31
0.0
  0
LINE
  5
1D85B
  8
DANMEN
  6
CONTINUOUS
 10
58.699998
 20
148.5
 30
0.0
 11
68.849998
 21
148.5
 31
0.0
  0
LINE
  5
1D85C
  8
DANMEN
  6
CONTINUOUS
 10
63.500009
 20
152.499985
 30
0.0
 11
58.500006
 21
152.499985
 31
0.0
  0
ARC
  5
1D85D
  8
DANMEN
  6
CONTINUOUS
 10
58.699998
 20
147.5
 30
0.0
 40
1.0
 50
89.999982
 51
180.000019
  0
ARC
  5
1D864
  8
DANMEN
  6
CONTINUOUS
 10
57.000006
 20
163.499908
 30
0.0
 40
1.5
 50
269.999982
 51
359.999964
  0
LINE
  5
1D865
  8
DANMEN
  6
CONTINUOUS
 10
57.000006
 20
161.999908
 30
0.0
 11
54.500015
 21
161.999908
 31
0.0
  0
ARC
  5
1D866
  8
DANMEN
  6
CONTINUOUS
 10
67.500015
 20
160.499908
 30
0.0
 40
1.5
 50
359.999964
 51
90.000001
  0
LINE
  5
1D867
  8
DANMEN
  6
CONTINUOUS
 10
68.999985
 20
159.5
 30
0.0
 11
68.999985
 21
166.5
 31
0.0
  0
LINE
  5
1D86A
  8
DANMEN
  6
CONTINUOUS
 10
67.999998
 20
156.5
 30
0.0
 11
68.849998
 21
156.5
 31
0.0
  0
ARC
  5
1D86B
  8
DANMEN
  6
CONTINUOUS
 10
68.499998
 20
159.0
 30
0.0
 40
0.5
 50
89.999982
 51
180.000019
  0
LINE
  5
1D86D
  8
DANMEN
  6
CONTINUOUS
 10
68.499998
 20
159.5
 30
0.0
 11
70.299998
 21
159.5
 31
0.0
  0
LINE
  5
1D86E
  8
DANMEN
  6
CONTINUOUS
 10
67.999998
 20
159.0
 30
0.0
 11
67.999998
 21
156.5
 31
0.0
  0
LINE
  5
1D86F
  8
DANMEN
  6
CONTINUOUS
 10
67.500015
 20
161.999908
 30
0.0
 11
65.000009
 21
161.999908
 31
0.0
  0
ARC
  5
1D870
  8
DANMEN
  6
CONTINUOUS
 10
65.000009
 20
163.499908
 30
0.0
 40
1.5
 50
180.0
 51
269.999982
  0
LINE
  5
1D871
  8
DANMEN
  6
CONTINUOUS
 10
68.850001
 20
200.050003
 30
0.0
 11
68.850001
 21
188.5
 31
0.0
  0
LINE
  5
1D872
  8
DANMEN
  6
CONTINUOUS
 10
53.149998
 20
200.050003
 30
0.0
 11
53.149998
 21
188.5
 31
0.0
  0
LINE
  5
1D873
  8
DANMEN
  6
CONTINUOUS
 10
58.499991
 20
192.5
 30
0.0
 11
58.499991
 21
169.5
 31
0.0
  0
LINE
  5
1D874
  8
DANMEN
  6
CONTINUOUS
 10
63.499979
 20
192.500015
 30
0.0
 11
63.499979
 21
169.5
 31
0.0
  0
LINE
  5
1D875
  8
DANMEN
  6
CONTINUOUS
 10
58.999991
 20
192.5
 30
0.0
 11
58.999991
 21
169.5
 31
0.0
  0
LINE
  5
1D876
  8
DANMEN
  6
CONTINUOUS
 10
62.999979
 20
192.500015
 30
0.0
 11
62.999979
 21
169.5
 31
0.0
  0
ARC
  5
1D877
  8
DANMEN
  6
CONTINUOUS
 10
54.499985
 20
184.500092
 30
0.0
 40
1.5
 50
179.999964
 51
270.000001
  0
LINE
  5
1D878
  8
DANMEN
  6
CONTINUOUS
 10
53.0
 20
185.5
 30
0.0
 11
53.0
 21
169.5
 31
0.0
  0
ARC
  5
1D879
  8
DANMEN
  6
CONTINUOUS
 10
53.499998
 20
186.0
 30
0.0
 40
0.5
 50
270.000018
 51
0.0
  0
ARC
  5
1D87B
  8
DANMEN
  6
CONTINUOUS
 10
51.699998
 20
186.0
 30
0.0
 40
0.5
 50
180.000019
 51
270.000001
  0
LINE
  5
1D87F
  8
DANMEN
  6
CONTINUOUS
 10
53.149998
 20
188.5
 30
0.0
 11
53.999998
 21
188.5
 31
0.0
  0
LINE
  5
1D880
  8
DANMEN
  6
CONTINUOUS
 10
53.999998
 20
188.5
 30
0.0
 11
53.999998
 21
186.0
 31
0.0
  0
LINE
  5
1D881
  8
DANMEN
  6
CONTINUOUS
 10
51.699998
 20
185.5
 30
0.0
 11
53.499998
 21
185.5
 31
0.0
  0
LINE
  5
1D882
  8
DANMEN
  6
CONTINUOUS
 10
69.0
 20
185.5
 30
0.0
 11
69.0
 21
169.5
 31
0.0
  0
ARC
  5
1D883
  8
DANMEN
  6
CONTINUOUS
 10
56.999991
 20
181.500092
 30
0.0
 40
1.5
 50
0.0
 51
89.999982
  0
LINE
  5
1D884
  8
DANMEN
  6
CONTINUOUS
 10
54.499985
 20
183.000092
 30
0.0
 11
56.999991
 21
183.000092
 31
0.0
  0
LINE
  5
1D887
  8
DANMEN
  6
CONTINUOUS
 10
64.999994
 20
183.000092
 30
0.0
 11
67.499985
 21
183.000092
 31
0.0
  0
ARC
  5
1D888
  8
DANMEN
  6
CONTINUOUS
 10
64.999994
 20
181.500092
 30
0.0
 40
1.5
 50
89.999982
 51
179.999964
  0
ARC
  5
1D889
  8
DANMEN
  6
CONTINUOUS
 10
67.499985
 20
184.500092
 30
0.0
 40
1.5
 50
270.000018
 51
0.0
  0
ARC
  5
1D88C
  8
DANMEN
  6
CONTINUOUS
 10
68.499995
 20
186.0
 30
0.0
 40
0.5
 50
180.000019
 51
270.000001
  0
LINE
  5
1D88E
  8
DANMEN
  6
CONTINUOUS
 10
68.499995
 20
185.5
 30
0.0
 11
70.299998
 21
185.5
 31
0.0
  0
LINE
  5
1D88F
  8
DANMEN
  6
CONTINUOUS
 10
67.999995
 20
188.5
 30
0.0
 11
68.850001
 21
188.5
 31
0.0
  0
LINE
  5
1D890
  8
DANMEN
  6
CONTINUOUS
 10
67.999995
 20
188.5
 30
0.0
 11
67.999995
 21
186.0
 31
0.0
  0
LINE
  5
1D891
  8
DANMEN
  6
CONTINUOUS
 10
53.149998
 20
200.050003
 30
0.0
 11
56.699999
 21
200.050003
 31
0.0
  0
LINE
  5
1D892
  8
DANMEN
  6
CONTINUOUS
 10
53.149998
 20
202.0
 30
0.0
 11
68.850001
 21
202.0
 31
0.0
  0
LINE
  5
1D895
  8
DANMEN
  6
CONTINUOUS
 10
62.399997
 20
196.400001
 30
0.0
 11
63.539728
 21
196.400001
 31
0.0
  0
ARC
  5
1D896
  8
DANMEN
  6
CONTINUOUS
 10
61.799997
 20
198.05394
 30
0.0
 40
1.0
 50
294.62438
 51
0.0
  0
ARC
  5
1D897
  8
DANMEN
  6
CONTINUOUS
 10
61.799997
 20
199.299999
 30
0.0
 40
1.0
 50
359.999945
 51
89.999982
  0
LINE
  5
1D898
  8
DANMEN
  6
CONTINUOUS
 10
58.499991
 20
192.500015
 30
0.0
 11
63.499994
 21
192.500015
 31
0.0
  0
ARC
  5
1D899
  8
DANMEN
  6
CONTINUOUS
 10
62.399997
 20
196.700001
 30
0.0
 40
0.3
 50
180.000019
 51
270.000055
  0
ARC
  5
1D89A
  8
DANMEN
  6
CONTINUOUS
 10
59.599999
 20
196.700001
 30
0.0
 40
0.3
 50
270.000018
 51
0.0
  0
ARC
  5
1D89B
  8
DANMEN
  6
CONTINUOUS
 10
59.699999
 20
197.969418
 30
0.0
 40
2.0
 50
180.000019
 51
231.693677
  0
LINE
  5
1D89C
  8
DANMEN
  6
CONTINUOUS
 10
58.460268
 20
196.400001
 30
0.0
 11
59.599999
 21
196.400001
 31
0.0
  0
ARC
  5
1D89D
  8
DANMEN
  6
CONTINUOUS
 10
56.699999
 20
199.050003
 30
0.0
 40
1.0
 50
0.0
 51
89.999982
  0
LINE
  5
1D89F
  8
DANMEN
  6
CONTINUOUS
 10
57.699999
 20
199.050003
 30
0.0
 11
57.699999
 21
197.969418
 31
0.0
  0
ARC
  5
1D8A0
  8
DANMEN
  6
CONTINUOUS
 10
62.299997
 20
196.963069
 30
0.0
 40
0.2
 50
114.624344
 51
180.000019
  0
ARC
  5
1D8A1
  8
DANMEN
  6
CONTINUOUS
 10
59.699999
 20
196.963069
 30
0.0
 40
0.2
 50
0.0
 51
65.375675
  0
ARC
  5
1D8A2
  8
DANMEN
  6
CONTINUOUS
 10
60.199999
 20
198.05394
 30
0.0
 40
1.0
 50
180.000019
 51
245.375639
  0
LINE
  5
1D8A3
  8
DANMEN
  6
CONTINUOUS
 10
59.899999
 20
196.963069
 30
0.0
 11
59.899999
 21
196.700001
 31
0.0
  0
ARC
  5
1D8A4
  8
DANMEN
  6
CONTINUOUS
 10
60.199999
 20
199.299999
 30
0.0
 40
1.0
 50
89.999982
 51
180.000019
  0
LINE
  5
1D8A5
  8
DANMEN
  6
CONTINUOUS
 10
60.199999
 20
200.299999
 30
0.0
 11
61.799997
 21
200.299999
 31
0.0
  0
LINE
  5
1D8A6
  8
DANMEN
  6
CONTINUOUS
 10
59.199999
 20
199.299998
 30
0.0
 11
59.199999
 21
198.05394
 31
0.0
  0
LINE
  5
1D8A7
  8
DANMEN
  6
CONTINUOUS
 10
62.099998
 20
196.700001
 30
0.0
 11
62.099998
 21
196.963069
 31
0.0
  0
ARC
  5
1D8AA
  8
DANMEN
  6
CONTINUOUS
 10
62.299997
 20
197.969418
 30
0.0
 40
2.0
 50
308.306342
 51
359.999945
  0
LINE
  5
1D8AB
  8
DANMEN
  6
CONTINUOUS
 10
65.299997
 20
200.050003
 30
0.0
 11
68.850001
 21
200.050003
 31
0.0
  0
ARC
  5
1D8AC
  8
DANMEN
  6
CONTINUOUS
 10
65.299997
 20
199.050003
 30
0.0
 40
1.0
 50
89.999982
 51
180.000019
  0
LINE
  5
1D8AE
  8
DANMEN
  6
CONTINUOUS
 10
64.299997
 20
197.969418
 30
0.0
 11
64.299997
 21
199.050003
 31
0.0
  0
LINE
  5
1D8AF
  8
DANMEN
  6
CONTINUOUS
 10
62.799997
 20
198.05394
 30
0.0
 11
62.799997
 21
199.299998
 31
0.0
  0
ARC
  5
1D8B2
  8
DANMEN
  6
CONTINUOUS
 10
61.0
 20
209.5
 30
0.0
 40
4.0
 50
180.000019
 51
359.999983
  0
LINE
  5
1D8B3
  8
DANMEN
  6
CONTINUOUS
 10
42.0
 20
255.0
 30
0.0
 11
42.0
 21
221.0
 31
0.0
  0
LINE
  5
1D8B4
  8
DANMEN
  6
CONTINUOUS
 10
43.649994
 20
243.5
 30
0.0
 11
43.649994
 21
221.0
 31
0.0
  0
LINE
  5
1D8B5
  8
DANMEN
  6
CONTINUOUS
 10
62.25
 20
243.5
 30
0.0
 11
62.25
 21
222.561553
 31
0.0
  0
LINE
  5
1D8B6
  8
DANMEN
  6
CONTINUOUS
 10
60.6
 20
243.5
 30
0.0
 11
60.6
 21
232.601833
 31
0.0
  0
LINE
  5
1D8B7
  8
DANMEN
  6
CONTINUOUS
 10
49.0
 20
228.5
 30
0.0
 11
57.0
 21
228.5
 31
0.0
  0
ARC
  5
1D8B8
  8
DANMEN
  6
CONTINUOUS
 10
42.5
 20
221.0
 30
0.0
 40
0.5
 50
180.000019
 51
270.000001
  0
LINE
  5
1D8B9
  8
DANMEN
  6
CONTINUOUS
 10
42.5
 20
220.5
 30
0.0
 11
43.149994
 21
220.5
 31
0.0
  0
ARC
  5
1D8BA
  8
DANMEN
  6
CONTINUOUS
 10
43.149994
 20
221.0
 30
0.0
 40
0.5
 50
270.000018
 51
0.0
  0
ARC
  5
1D8BC
  8
DANMEN
  6
CONTINUOUS
 10
52.649998
 20
228.0
 30
0.0
 40
0.5
 50
0.0
 51
90.0
  0
ARC
  5
1D8BD
  8
DANMEN
  6
CONTINUOUS
 10
51.699998
 20
228.0
 30
0.0
 40
0.5
 50
89.999982
 51
180.000019
  0
LINE
  5
1D8BF
  8
DANMEN
  6
CONTINUOUS
 10
51.699998
 20
228.5
 30
0.0
 11
52.649998
 21
228.5
 31
0.0
  0
LINE
  5
1D8C0
  8
DANMEN
  6
CONTINUOUS
 10
59.75
 20
230.398149
 30
0.0
 11
59.75
 21
222.561553
 31
0.0
  0
LINE
  5
1D8C1
  8
DANMEN
  6
CONTINUOUS
 10
60.640388
 20
220.5
 30
0.0
 11
61.359612
 21
220.5
 31
0.0
  0
LINE
  5
1D8C2
  8
DANMEN
  6
CONTINUOUS
 10
62.235071
 20
222.440285
 30
0.0
 11
61.844683
 21
220.878732
 31
0.0
  0
LINE
  5
1D8C3
  8
DANMEN
  6
CONTINUOUS
 10
60.155317
 20
220.878732
 30
0.0
 11
59.764929
 21
222.440285
 31
0.0
  0
ARC
  5
1D8C4
  8
DANMEN
  6
CONTINUOUS
 10
60.640388
 20
221.0
 30
0.0
 40
0.5
 50
194.036243
 51
270.0
  0
ARC
  5
1D8C5
  8
DANMEN
  6
CONTINUOUS
 10
61.359612
 20
221.0
 30
0.0
 40
0.5
 50
270.0
 51
345.963757
  0
ARC
  5
1D8C6
  8
DANMEN
  6
CONTINUOUS
 10
60.25
 20
222.561553
 30
0.0
 40
0.5
 50
180.0
 51
194.036243
  0
ARC
  5
1D8C7
  8
DANMEN
  6
CONTINUOUS
 10
61.75
 20
222.561553
 30
0.0
 40
0.5
 50
345.963757
 51
0.0
  0
ARC
  5
1D8C9
  8
DANMEN
  6
CONTINUOUS
 10
69.850001
 20
217.45
 30
0.0
 40
1.0
 50
90.0
 51
180.0
  0
LINE
  5
1D8CA
  8
DANMEN
  6
CONTINUOUS
 10
60.560165
 20
232.406263
 30
0.0
 11
59.789835
 21
230.59372
 31
0.0
  0
ARC
  5
1D8CB
  8
DANMEN
  6
CONTINUOUS
 10
60.25
 20
230.398149
 30
0.0
 40
0.5
 50
156.974508
 51
180.0
  0
ARC
  5
1D8CC
  8
DANMEN
  6
CONTINUOUS
 10
60.1
 20
232.601833
 30
0.0
 40
0.5
 50
336.974508
 51
0.0
  0
LINE
  5
1D8CD
  8
DANMEN
  6
CONTINUOUS
 10
43.649994
 20
243.5
 30
0.0
 11
60.6
 21
243.5
 31
0.0
  0
LINE
  5
1D8CE
  8
DANMEN
  6
CONTINUOUS
 10
43.649994
 20
245.149994
 30
0.0
 11
57.699997
 21
245.149994
 31
0.0
  0
LINE
  5
1D8CF
  8
DANMEN
  6
CONTINUOUS
 10
43.649994
 20
253.850006
 30
0.0
 11
43.649994
 21
245.149994
 31
0.0
  0
LINE
  5
1D8D0
  8
DANMEN
  6
CONTINUOUS
 10
42.5
 20
255.5
 30
0.0
 11
47.5
 21
255.5
 31
0.0
  0
LINE
  5
1D8D1
  8
DANMEN
  6
CONTINUOUS
 10
43.649994
 20
253.850006
 30
0.0
 11
47.5
 21
253.850006
 31
0.0
  0
ARC
  5
1D8D2
  8
DANMEN
  6
CONTINUOUS
 10
42.5
 20
255.0
 30
0.0
 40
0.5
 50
89.999982
 51
180.000019
  0
LINE
  5
1D8D3
  8
DANMEN
  6
CONTINUOUS
 10
48.0
 20
255.0
 30
0.0
 11
48.0
 21
254.350006
 31
0.0
  0
ARC
  5
1D8D4
  8
DANMEN
  6
CONTINUOUS
 10
47.5
 20
254.350006
 30
0.0
 40
0.5
 50
270.000018
 51
0.0
  0
ARC
  5
1D8D5
  8
DANMEN
  6
CONTINUOUS
 10
47.5
 20
255.0
 30
0.0
 40
0.5
 50
0.0
 51
89.999982
  0
LINE
  5
1D8D6
  8
DANMEN
  6
CONTINUOUS
 10
63.1
 20
248.800012
 30
0.0
 11
63.1
 21
248.536932
 31
0.0
  0
ARC
  5
1D8D7
  8
DANMEN
  6
CONTINUOUS
 10
60.7
 20
247.530306
 30
0.0
 40
2.0
 50
128.293477
 51
180.0
  0
LINE
  5
1D8D8
  8
DANMEN
  6
CONTINUOUS
 10
60.9
 20
248.8
 30
0.0
 11
60.9
 21
248.536932
 31
0.0
  0
LINE
  5
1D8D9
  8
DANMEN
  6
CONTINUOUS
 10
62.25
 20
243.5
 30
0.0
 11
66.5
 21
243.5
 31
0.0
  0
LINE
  5
1D8DA
  8
DANMEN
  6
CONTINUOUS
 10
62.8
 20
245.2
 30
0.0
 11
61.2
 21
245.2
 31
0.0
  0
ARC
  5
1D8DB
  8
DANMEN
  6
CONTINUOUS
 10
57.7
 20
246.149994
 30
0.0
 40
1.0
 50
270.0
 51
0.0
  0
ARC
  5
1D8DC
  8
DANMEN
  6
CONTINUOUS
 10
61.2
 20
246.2
 30
0.0
 40
1.0
 50
180.0
 51
270.0
  0
LINE
  5
1D8DD
  8
DANMEN
  6
CONTINUOUS
 10
60.2
 20
247.446061
 30
0.0
 11
60.2
 21
246.2
 31
0.0
  0
LINE
  5
1D8DE
  8
DANMEN
  6
CONTINUOUS
 10
58.7
 20
247.530306
 30
0.0
 11
58.7
 21
246.149994
 31
0.0
  0
ARC
  5
1D8DF
  8
DANMEN
  6
CONTINUOUS
 10
60.7
 20
248.536932
 30
0.0
 40
0.2
 50
294.624318
 51
0.0
  0
ARC
  5
1D8E0
  8
DANMEN
  6
CONTINUOUS
 10
61.2
 20
247.446061
 30
0.0
 40
1.0
 50
114.624318
 51
180.0
  0
LINE
  5
1D8E1
  8
DANMEN
  6
CONTINUOUS
 10
65.5
 20
244.3
 30
0.0
 11
67.0
 21
244.3
 31
0.0
  0
ARC
  5
1D8E2
  8
DANMEN
  6
CONTINUOUS
 10
66.5
 20
244.0
 30
0.0
 40
0.5
 50
270.000018
 51
0.0
  0
LINE
  5
1D8E3
  8
DANMEN
  6
CONTINUOUS
 10
65.5
 20
247.450012
 30
0.0
 11
65.5
 21
244.3
 31
0.0
  0
LINE
  5
1D8E4
  8
DANMEN
  6
CONTINUOUS
 10
63.8
 20
247.446061
 30
0.0
 11
63.8
 21
246.2
 31
0.0
  0
ARC
  5
1D8E5
  8
DANMEN
  6
CONTINUOUS
 10
62.8
 20
246.2
 30
0.0
 40
1.0
 50
270.0
 51
0.0
  0
ARC
  5
1D8E6
  8
DANMEN
  6
CONTINUOUS
 10
62.8
 20
247.446061
 30
0.0
 40
1.0
 50
0.0
 51
65.375682
  0
ARC
  5
1D8E7
  8
DANMEN
  6
CONTINUOUS
 10
63.3
 20
248.536932
 30
0.0
 40
0.2
 50
180.0
 51
245.375682
  0
LINE
  5
1D8E9
  8
DANMEN
  6
CONTINUOUS
 10
67.0
 20
244.3
 30
0.0
 11
67.0
 21
244.0
 31
0.0
  0
ARC
  5
1D8EA
  8
DANMEN
  6
CONTINUOUS
 10
60.6
 20
248.8
 30
0.0
 40
0.3
 50
0.0
 51
90.0
  0
LINE
  5
1D8EB
  8
DANMEN
  6
CONTINUOUS
 10
60.6
 20
249.1
 30
0.0
 11
59.460621
 21
249.1
 31
0.0
  0
ARC
  5
1D8EC
  8
DANMEN
  6
CONTINUOUS
 10
63.4
 20
248.800012
 30
0.0
 40
0.3
 50
90.0
 51
180.0
  0
LINE
  5
1D8ED
  8
DANMEN
  6
CONTINUOUS
 10
108.31756
 20
189.99168
 30
0.0
 11
108.30001
 21
220.479021
 31
0.0
  0
LINE
  5
1D8EE
  8
DANMEN
  6
CONTINUOUS
 10
109.517555
 20
189.645361
 30
0.0
 11
109.004224
 21
219.970763
 31
0.0
  0
LINE
  5
1D8EF
  8
DANMEN
  6
CONTINUOUS
 10
108.017555
 20
190.002085
 30
0.0
 11
108.0
 21
220.5
 31
0.0
  0
LINE
  5
1D8F0
  8
DANMEN
  6
CONTINUOUS
 10
105.9
 20
185.999999
 30
0.0
 11
105.9
 21
219.999999
 31
0.0
  0
LINE
  5
1D8F1
  8
DANMEN
  6
CONTINUOUS
 10
104.25
 20
211.649999
 30
0.0
 11
104.25
 21
218.849999
 31
0.0
  0
LINE
  5
1D8F2
  8
DANMEN
  6
CONTINUOUS
 10
88.700002
 20
213.930304
 30
0.0
 11
88.700002
 21
213.149999
 31
0.0
  0
LINE
  5
1D8F3
  8
DANMEN
  6
CONTINUOUS
 10
90.200002
 20
213.846059
 30
0.0
 11
90.200002
 21
212.599999
 31
0.0
  0
LINE
  5
1D8F4
  8
DANMEN
  6
CONTINUOUS
 10
95.300002
 20
213.930307
 30
0.0
 11
95.300002
 21
212.650001
 31
0.0
  0
LINE
  5
1D8F5
  8
DANMEN
  6
CONTINUOUS
 10
93.800002
 20
213.846061
 30
0.0
 11
93.800002
 21
212.6
 31
0.0
  0
LINE
  5
1D8F6
  8
DANMEN
  6
CONTINUOUS
 10
82.65
 20
218.849999
 30
0.0
 11
82.65
 21
212.149999
 31
0.0
  0
LINE
  5
1D8F7
  8
DANMEN
  6
CONTINUOUS
 10
81.0
 20
202.499999
 30
0.0
 11
81.0
 21
220.000003
 31
0.0
  0
LINE
  5
1D8F8
  8
DANMEN
  6
CONTINUOUS
 10
70.799998
 20
216.5
 30
0.0
 11
70.799998
 21
186.0
 31
0.0
  0
LINE
  5
1D8F9
  8
DANMEN
  6
CONTINUOUS
 10
108.0
 20
169.5
 30
0.0
 11
108.0
 21
220.5
 31
0.0
  0
LINE
  5
1D8FA
  8
DANMEN
  6
CONTINUOUS
 10
112.0
 20
189.77658
 30
0.0
 11
112.0
 21
220.5
 31
0.0
  0
LINE
  5
1D8FB
  8
DANMEN
  6
CONTINUOUS
 10
110.350006
 20
189.926465
 30
0.0
 11
110.350006
 21
220.5
 31
0.0
  0
LINE
  5
1D8FC
  8
DANMEN
  6
DASHED
 10
78.5
 20
220.5
 30
0.0
 11
78.5
 21
169.5
 31
0.0
  0
LINE
  5
1D8FD
  8
DANMEN
  6
CONTINUOUS
 10
75.5
 20
220.5
 30
0.0
 11
75.5
 21
169.5
 31
0.0
  0
LINE
  5
1D8FE
  8
DANMEN
  6
CONTINUOUS
 10
73.0
 20
228.5
 30
0.0
 11
73.0
 21
169.5
 31
0.0
  0
LINE
  5
1D8FF
  8
DANMEN
  6
CONTINUOUS
 10
73.0
 20
228.5
 30
0.0
 11
73.0
 21
164.5
 31
0.0
  0
LINE
  5
1D900
  8
DANMEN
  6
CONTINUOUS
 10
140.881386
 20
187.153003
 30
0.0
 11
109.517555
 21
190.002085
 31
0.0
  0
LINE
  5
1D901
  8
DANMEN
  6
CONTINUOUS
 10
111.517555
 20
181.502085
 30
0.0
 11
142.217555
 21
181.502085
 31
0.0
  0
LINE
  5
1D902
  8
DANMEN
  6
CONTINUOUS
 10
140.881386
 20
125.346997
 30
0.0
 11
109.517555
 21
122.497915
 31
0.0
  0
LINE
  5
1D903
  8
DANMEN
  6
CONTINUOUS
 10
111.517555
 20
130.997915
 30
0.0
 11
142.217555
 21
130.997915
 31
0.0
  0
ARC
  5
1D904
  8
DANMEN
  6
CONTINUOUS
 10
103.05
 20
139.650003
 30
0.0
 40
1.5
 50
0.0
 51
89.999982
  0
ARC
  5
1D905
  8
DANMEN
  6
CONTINUOUS
 10
104.000009
 20
138.000005
 30
0.0
 40
0.5
 50
90.0
 51
180.0
  0
LINE
  5
1D906
  8
DANMEN
  6
CONTINUOUS
 10
104.250009
 20
133.500005
 30
0.0
 11
103.500009
 21
133.500005
 31
0.0
  0
LINE
  5
1D907
  8
DANMEN
  6
CONTINUOUS
 10
88.55
 20
166.5
 30
0.0
 11
88.55
 21
126.499999
 31
0.0
  0
LINE
  5
1D908
  8
DANMEN
  6
CONTINUOUS
 10
89.05
 20
166.5
 30
0.0
 11
89.05
 21
126.499999
 31
0.0
  0
LINE
  5
1D909
  8
DANMEN
  6
CONTINUOUS
 10
82.55
 20
149.432962
 30
0.0
 11
82.55
 21
138.650003
 31
0.0
  0
LINE
  5
1D90A
  8
DANMEN
  6
CONTINUOUS
 10
81.0
 20
149.471764
 30
0.0
 11
81.0
 21
138.650003
 31
0.0
  0
LINE
  5
1D90B
  8
DANMEN
  6
CONTINUOUS
 10
98.55
 20
149.161345
 30
0.0
 11
98.55
 21
126.499999
 31
0.0
  0
LINE
  5
1D90C
  8
DANMEN
  6
CONTINUOUS
 10
98.05
 20
149.161345
 30
0.0
 11
98.05
 21
126.499999
 31
0.0
  0
ARC
  5
1D90D
  8
DANMEN
  6
CONTINUOUS
 10
87.050006
 20
142.650003
 30
0.0
 40
1.5
 50
270.000018
 51
0.0
  0
LINE
  5
1D90E
  8
DANMEN
  6
CONTINUOUS
 10
86.069997
 20
126.499999
 30
0.0
 11
101.069997
 21
126.499999
 31
0.0
  0
ARC
  5
1D90F
  8
DANMEN
  6
CONTINUOUS
 10
83.000009
 20
138.000005
 30
0.0
 40
0.5
 50
0.0
 51
90.0
  0
ARC
  5
1D910
  8
DANMEN
  6
CONTINUOUS
 10
81.500009
 20
138.000005
 30
0.0
 40
0.5
 50
90.0
 51
180.0
  0
LINE
  5
1D911
  8
DANMEN
  6
CONTINUOUS
 10
82.650009
 20
133.500005
 30
0.0
 11
83.500009
 21
133.500005
 31
0.0
  0
LINE
  5
1D912
  8
DANMEN
  6
CONTINUOUS
 10
83.500009
 20
138.000005
 30
0.0
 11
83.500009
 21
133.500005
 31
0.0
  0
ARC
  5
1D913
  8
DANMEN
  6
CONTINUOUS
 10
84.05
 20
139.650003
 30
0.0
 40
1.5
 50
89.999999
 51
180.000036
  0
LINE
  5
1D915
  8
DANMEN
  6
CONTINUOUS
 10
82.55
 20
138.650003
 30
0.0
 11
82.55
 21
139.650003
 31
0.0
  0
LINE
  5
1D916
  8
DANMEN
  6
CONTINUOUS
 10
81.500009
 20
138.500005
 30
0.0
 11
83.000009
 21
138.500005
 31
0.0
  0
LINE
  5
1D917
  8
DANMEN
  6
CONTINUOUS
 10
84.05
 20
141.150003
 30
0.0
 11
87.050006
 21
141.150003
 31
0.0
  0
LINE
  5
1D91A
  8
DANMEN
  6
CONTINUOUS
 10
103.500009
 20
138.000005
 30
0.0
 11
103.500009
 21
133.500005
 31
0.0
  0
ARC
  5
1D91B
  8
DANMEN
  6
CONTINUOUS
 10
100.05001
 20
142.650003
 30
0.0
 40
1.5
 50
180.000036
 51
270.000018
  0
LINE
  5
1D91C
  8
DANMEN
  6
CONTINUOUS
 10
100.05001
 20
141.150003
 30
0.0
 11
103.05
 21
141.150003
 31
0.0
  0
LINE
  5
1D91E
  8
DANMEN
  6
CONTINUOUS
 10
82.55
 20
166.5
 30
0.0
 11
82.55
 21
152.432962
 31
0.0
  0
LINE
  5
1D91F
  8
DANMEN
  6
CONTINUOUS
 10
81.0
 20
166.5
 30
0.0
 11
81.0
 21
152.471764
 31
0.0
  0
LINE
  5
1D921
  8
DANMEN
  6
CONTINUOUS
 10
98.55
 20
166.5
 30
0.0
 11
98.55
 21
152.161345
 31
0.0
  0
LINE
  5
1D922
  8
DANMEN
  6
CONTINUOUS
 10
98.05
 20
166.5
 30
0.0
 11
98.05
 21
152.161345
 31
0.0
  0
LINE
  5
1D923
  8
DANMEN
  6
CONTINUOUS
 10
104.55
 20
148.999883
 30
0.0
 11
104.55
 21
138.650003
 31
0.0
  0
LINE
  5
1D924
  8
DANMEN
  6
CONTINUOUS
 10
109.517555
 20
128.997915
 30
0.0
 11
109.517555
 21
122.497915
 31
0.0
  0
LINE
  5
1D925
  8
DANMEN
  6
CONTINUOUS
 10
108.317555
 20
126.997915
 30
0.0
 11
108.317555
 21
122.487367
 31
0.0
  0
LINE
  5
1D926
  8
DANMEN
  6
CONTINUOUS
 10
108.017555
 20
126.997915
 30
0.0
 11
108.017555
 21
122.497915
 31
0.0
  0
ARC
  5
1D92A
  8
DANMEN
  6
CONTINUOUS
 10
111.517555
 20
128.997915
 30
0.0
 40
2.0
 50
89.999982
 51
180.000019
  0
LINE
  5
1D92D
  8
DANMEN
  6
CONTINUOUS
 10
108.017555
 20
126.997915
 30
0.0
 11
109.517555
 21
126.997915
 31
0.0
  0
ARC
  5
1D930
  8
DANMEN
  6
CONTINUOUS
 10
105.400009
 20
138.000005
 30
0.0
 40
0.5
 50
0.0
 51
90.0
  0
LINE
  5
1D933
  8
DANMEN
  6
CONTINUOUS
 10
104.55
 20
138.650003
 30
0.0
 11
104.55
 21
139.650003
 31
0.0
  0
LINE
  5
1D935
  8
DANMEN
  6
CONTINUOUS
 10
104.000009
 20
138.500005
 30
0.0
 11
105.400009
 21
138.500005
 31
0.0
  0
LINE
  5
1D936
  8
DANMEN
  6
CONTINUOUS
 10
104.55
 20
166.5
 30
0.0
 11
104.55
 21
151.999883
 31
0.0
  0
ARC
  5
1D937
  8
DANMEN
  6
CONTINUOUS
 10
103.05
 20
184.500003
 30
0.0
 40
1.5
 50
270.000002
 51
0.000038
  0
ARC
  5
1D938
  8
DANMEN
  6
CONTINUOUS
 10
104.0
 20
185.999999
 30
0.0
 40
0.5
 50
179.999981
 51
270.000018
  0
LINE
  5
1D939
  8
DANMEN
  6
CONTINUOUS
 10
103.5
 20
190.499999
 30
0.0
 11
104.25
 21
190.499999
 31
0.0
  0
LINE
  5
1D93A
  8
DANMEN
  6
CONTINUOUS
 10
87.700006
 20
209.999999
 30
0.0
 11
104.25
 21
209.999999
 31
0.0
  0
LINE
  5
1D93B
  8
DANMEN
  6
CONTINUOUS
 10
96.300002
 20
211.649999
 30
0.0
 11
104.25
 21
211.649999
 31
0.0
  0
LINE
  5
1D93C
  8
DANMEN
  6
CONTINUOUS
 10
81.0
 20
186.000003
 30
0.0
 11
81.0
 21
202.499999
 31
0.0
  0
LINE
  5
1D93D
  8
DANMEN
  6
CONTINUOUS
 10
82.95
 20
190.500002
 30
0.0
 11
82.95
 21
200.199999
 31
0.0
  0
LINE
  5
1D93E
  8
DANMEN
  6
CONTINUOUS
 10
89.05
 20
196.500007
 30
0.0
 11
89.05
 21
169.5
 31
0.0
  0
LINE
  5
1D93F
  8
DANMEN
  6
CONTINUOUS
 10
88.55
 20
196.500007
 30
0.0
 11
88.55
 21
169.5
 31
0.0
  0
LINE
  5
1D940
  8
DANMEN
  6
CONTINUOUS
 10
98.55
 20
196.500007
 30
0.0
 11
98.55
 21
169.5
 31
0.0
  0
LINE
  5
1D941
  8
DANMEN
  6
CONTINUOUS
 10
98.05
 20
196.500007
 30
0.0
 11
98.05
 21
169.5
 31
0.0
  0
ARC
  5
1D942
  8
DANMEN
  6
CONTINUOUS
 10
87.049991
 20
181.500002
 30
0.0
 40
1.5
 50
0.000038
 51
90.00002
  0
LINE
  5
1D943
  8
DANMEN
  6
CONTINUOUS
 10
80.95
 20
169.5
 30
0.0
 11
80.95
 21
185.499999
 31
0.0
  0
LINE
  5
1D944
  8
DANMEN
  6
CONTINUOUS
 10
82.55
 20
185.500003
 30
0.0
 11
82.55
 21
169.5
 31
0.0
  0
LINE
  5
1D945
  8
DANMEN
  6
DASHED
 10
78.5
 20
176.367176
 30
0.0
 11
78.5
 21
169.5
 31
0.0
  0
LINE
  5
1D947
  8
DANMEN
  6
CONTINUOUS
 10
82.55
 20
185.500002
 30
0.0
 11
82.55
 21
184.500002
 31
0.0
  0
ARC
  5
1D948
  8
DANMEN
  6
CONTINUOUS
 10
84.05
 20
184.500002
 30
0.0
 40
1.5
 50
180.000002
 51
269.999984
  0
LINE
  5
1D94A
  8
DANMEN
  6
CONTINUOUS
 10
87.049991
 20
183.000002
 30
0.0
 11
84.05
 21
183.000002
 31
0.0
  0
ARC
  5
1D94B
  8
DANMEN
  6
CONTINUOUS
 10
83.0
 20
186.000002
 30
0.0
 40
0.5
 50
270.0
 51
0.0
  0
LINE
  5
1D94C
  8
DANMEN
  6
CONTINUOUS
 10
82.95
 20
190.500002
 30
0.0
 11
83.5
 21
190.500002
 31
0.0
  0
LINE
  5
1D94D
  8
DANMEN
  6
CONTINUOUS
 10
82.95
 20
188.500002
 30
0.0
 11
83.5
 21
188.500002
 31
0.0
  0
ARC
  5
1D94E
  8
DANMEN
  6
CONTINUOUS
 10
83.45
 20
189.000002
 30
0.0
 40
0.5
 50
90.0
 51
180.0
  0
LINE
  5
1D94F
  8
DANMEN
  6
CONTINUOUS
 10
82.95
 20
188.500002
 30
0.0
 11
82.95
 21
189.000002
 31
0.0
  0
LINE
  5
1D950
  8
DANMEN
  6
CONTINUOUS
 10
81.5
 20
185.500002
 30
0.0
 11
83.0
 21
185.500002
 31
0.0
  0
ARC
  5
1D951
  8
DANMEN
  6
CONTINUOUS
 10
81.5
 20
186.000002
 30
0.0
 40
0.5
 50
179.999872
 51
269.999909
  0
LINE
  5
1D954
  8
DANMEN
  6
CONTINUOUS
 10
83.5
 20
186.000003
 30
0.0
 11
83.5
 21
188.500002
 31
0.0
  0
LINE
  5
1D955
  8
DANMEN
  6
CONTINUOUS
 10
83.45
 20
189.500002
 30
0.0
 11
83.5
 21
189.500002
 31
0.0
  0
LINE
  5
1D956
  8
DANMEN
  6
CONTINUOUS
 10
83.5
 20
189.500002
 30
0.0
 11
83.5
 21
190.500002
 31
0.0
  0
ARC
  5
1D958
  8
DANMEN
  6
CONTINUOUS
 10
100.049995
 20
181.500003
 30
0.0
 40
1.5
 50
90.00002
 51
180.000002
  0
LINE
  5
1D959
  8
DANMEN
  6
CONTINUOUS
 10
103.05
 20
183.000003
 30
0.0
 11
100.049994
 21
183.000003
 31
0.0
  0
LINE
  5
1D95C
  8
DANMEN
  6
CONTINUOUS
 10
103.5
 20
185.999999
 30
0.0
 11
103.5
 21
190.499999
 31
0.0
  0
ARC
  5
1D95D
  8
DANMEN
  6
CONTINUOUS
 10
87.309908
 20
204.999999
 30
0.0
 40
0.5
 50
191.309932
 51
270.0
  0
LINE
  5
1D95E
  8
DANMEN
  6
CONTINUOUS
 10
82.65
 20
212.149999
 30
0.0
 11
87.700002
 21
212.149999
 31
0.0
  0
LINE
  5
1D95F
  8
DANMEN
  6
CONTINUOUS
 10
84.7
 20
201.199999
 30
0.0
 11
84.7
 21
205.098916
 31
0.0
  0
LINE
  5
1D960
  8
DANMEN
  6
CONTINUOUS
 10
82.5
 20
202.199999
 30
0.0
 11
82.5
 21
202.499999
 31
0.0
  0
LINE
  5
1D961
  8
DANMEN
  6
CONTINUOUS
 10
83.5
 20
202.199999
 30
0.0
 11
83.5
 21
204.199999
 31
0.0
  0
LINE
  5
1D962
  8
DANMEN
  6
CONTINUOUS
 10
82.5
 20
202.199999
 30
0.0
 11
83.5
 21
202.199999
 31
0.0
  0
ARC
  5
1D963
  8
DANMEN
  6
CONTINUOUS
 10
83.45
 20
200.199999
 30
0.0
 40
0.5
 50
90.0
 51
180.0
  0
ARC
  5
1D964
  8
DANMEN
  6
CONTINUOUS
 10
84.2
 20
201.199999
 30
0.0
 40
0.5
 50
270.0
 51
0.0
  0
LINE
  5
1D965
  8
DANMEN
  6
CONTINUOUS
 10
83.45
 20
200.699999
 30
0.0
 11
84.2
 21
200.699999
 31
0.0
  0
LINE
  5
1D966
  8
DANMEN
  6
CONTINUOUS
 10
83.198117
 20
205.086879
 30
0.0
 11
85.401708
 21
208.063905
 31
0.0
  0
LINE
  5
1D967
  8
DANMEN
  6
CONTINUOUS
 10
86.7
 20
207.800894
 30
0.0
 11
86.7
 21
209.000894
 31
0.0
  0
LINE
  5
1D968
  8
DANMEN
  6
CONTINUOUS
 10
82.65
 20
204.499999
 30
0.0
 11
82.65
 21
210.499999
 31
0.0
  0
LINE
  5
1D969
  8
DANMEN
  6
CONTINUOUS
 10
86.500006
 20
206.499999
 30
0.0
 11
86.500006
 21
210.499999
 31
0.0
  0
LINE
  5
1D96A
  8
DANMEN
  6
CONTINUOUS
 10
83.2
 20
204.499999
 30
0.0
 11
82.65
 21
204.499999
 31
0.0
  0
ARC
  5
1D96B
  8
DANMEN
  6
CONTINUOUS
 10
82.707801
 20
202.999999
 30
0.0
 40
0.5
 50
270.0
 51
330.603827
  0
LINE
  5
1D96C
  8
DANMEN
  6
CONTINUOUS
 10
81.0
 20
202.499999
 30
0.0
 11
82.5
 21
202.499999
 31
0.0
  0
LINE
  5
1D96F
  8
DANMEN
  6
CONTINUOUS
 10
81.0
 20
202.499999
 30
0.0
 11
82.707801
 21
202.499999
 31
0.0
  0
ARC
  5
1D972
  8
DANMEN
  6
CONTINUOUS
 10
83.4
 20
204.765685
 30
0.0
 40
0.3
 50
180.0
 51
250.528779
  0
ARC
  5
1D974
  8
DANMEN
  6
CONTINUOUS
 10
83.2
 20
204.199999
 30
0.0
 40
0.3
 50
0.0
 51
70.528779
  0
ARC
  5
1D975
  8
DANMEN
  6
CONTINUOUS
 10
83.6
 20
204.789406
 30
0.0
 40
0.5
 50
143.491208
 51
180.0
  0
LINE
  5
1D976
  8
DANMEN
  6
CONTINUOUS
 10
84.7
 20
205.098916
 30
0.0
 11
86.7
 21
207.800894
 31
0.0
  0
LINE
  5
1D977
  8
DANMEN
  6
CONTINUOUS
 10
83.1
 20
204.765685
 30
0.0
 11
83.1
 21
204.789406
 31
0.0
  0
LINE
  5
1D978
  8
DANMEN
  6
CONTINUOUS
 10
86.500006
 20
206.499999
 30
0.0
 11
86.819618
 21
204.901941
 31
0.0
  0
ARC
  5
1D97C
  8
DANMEN
  6
CONTINUOUS
 10
83.2
 20
204.199999
 30
0.0
 40
0.3
 50
0.0
 51
90.0
  0
LINE
  5
1D97D
  8
DANMEN
  6
CONTINUOUS
 10
83.5
 20
203.496245
 30
0.0
 11
83.143425
 21
202.754577
 31
0.0
  0
LINE
  5
1D97E
  8
DANMEN
  6
CONTINUOUS
 10
83.5
 20
204.199999
 30
0.0
 11
83.5
 21
203.496245
 31
0.0
  0
LINE
  5
1D981
  8
DANMEN
  6
CONTINUOUS
 10
82.65
 20
210.499999
 30
0.0
 11
86.500006
 21
210.499999
 31
0.0
  0
ARC
  5
1D985
  8
DANMEN
  6
CONTINUOUS
 10
85.099865
 20
209.257529
 30
0.0
 40
0.5
 50
180.0
 51
235.297378
  0
ARC
  5
1D986
  8
DANMEN
  6
CONTINUOUS
 10
85.160578
 20
208.242389
 30
0.0
 40
0.3
 50
323.491208
 51
55.297378
  0
LINE
  5
1D987
  8
DANMEN
  6
CONTINUOUS
 10
84.815206
 20
208.84647
 30
0.0
 11
85.331373
 21
208.489024
 31
0.0
  0
ARC
  5
1D988
  8
DANMEN
  6
CONTINUOUS
 10
85.099865
 20
209.500894
 30
0.0
 40
0.5
 50
90.0
 51
180.0
  0
ARC
  5
1D989
  8
DANMEN
  6
CONTINUOUS
 10
85.099734
 20
209.500894
 30
0.0
 40
0.5
 50
55.297378
 51
90.0
  0
LINE
  5
1D98A
  8
DANMEN
  6
CONTINUOUS
 10
84.599865
 20
209.500894
 30
0.0
 11
84.599865
 21
209.257529
 31
0.0
  0
LINE
  5
1D98B
  8
DANMEN
  6
CONTINUOUS
 10
85.099734
 20
210.000894
 30
0.0
 11
85.099865
 21
210.000894
 31
0.0
  0
LINE
  5
1D98C
  8
DANMEN
  6
CONTINUOUS
 10
85.384393
 20
209.911953
 30
0.0
 11
86.7
 21
209.000894
 31
0.0
  0
LINE
  5
1D98F
  8
DANMEN
  6
CONTINUOUS
 10
88.55
 20
196.500007
 30
0.0
 11
98.55
 21
196.500007
 31
0.0
  0
ARC
  5
1D990
  8
DANMEN
  6
CONTINUOUS
 10
96.300002
 20
212.649999
 30
0.0
 40
1.0
 50
180.0
 51
270.0
  0
LINE
  5
1D991
  8
DANMEN
  6
CONTINUOUS
 10
87.700006
 20
204.499999
 30
0.0
 11
87.700006
 21
209.999999
 31
0.0
  0
LINE
  5
1D994
  8
DANMEN
  6
CONTINUOUS
 10
87.309908
 20
204.499999
 30
0.0
 11
87.700006
 21
204.499999
 31
0.0
  0
LINE
  5
1D995
  8
DANMEN
  6
CONTINUOUS
 10
92.800003
 20
211.6
 30
0.0
 11
91.200003
 21
211.599999
 31
0.0
  0
ARC
  5
1D998
  8
DANMEN
  6
CONTINUOUS
 10
87.700002
 20
213.149999
 30
0.0
 40
1.0
 50
270.0
 51
0.0
  0
ARC
  5
1D999
  8
DANMEN
  6
CONTINUOUS
 10
91.200002
 20
212.599999
 30
0.0
 40
1.0
 50
180.000026
 51
270.000026
  0
ARC
  5
1D99B
  8
DANMEN
  6
CONTINUOUS
 10
92.800002
 20
212.6
 30
0.0
 40
1.0
 50
270.000026
 51
0.000026
  0
LINE
  5
1D9A0
  8
DANMEN
  6
CONTINUOUS
 10
104.25
 20
190.499999
 30
0.0
 11
104.25
 21
209.999999
 31
0.0
  0
LINE
  5
1D9A1
  8
DANMEN
  6
CONTINUOUS
 10
104.55
 20
169.5
 30
0.0
 11
104.55
 21
185.500003
 31
0.0
  0
LINE
  5
1D9A2
  8
DANMEN
  6
CONTINUOUS
 10
104.55
 20
185.500003
 30
0.0
 11
104.55
 21
184.500003
 31
0.0
  0
LINE
  5
1D9A3
  8
DANMEN
  6
CONTINUOUS
 10
109.517555
 20
183.502085
 30
0.0
 11
109.517555
 21
190.002085
 31
0.0
  0
ARC
  5
1D9A5
  8
DANMEN
  6
CONTINUOUS
 10
111.517555
 20
183.502085
 30
0.0
 40
2.0
 50
179.999981
 51
270.000018
  0
ARC
  5
1D9A8
  8
DANMEN
  6
CONTINUOUS
 10
105.4
 20
185.999999
 30
0.0
 40
0.5
 50
270.000018
 51
0.0
  0
LINE
  5
1D9A9
  8
DANMEN
  6
CONTINUOUS
 10
104.0
 20
185.499999
 30
0.0
 11
105.4
 21
185.499999
 31
0.0
  0
LINE
  5
1D9AE
  8
DANMEN
  6
CONTINUOUS
 10
108.317555
 20
185.502085
 30
0.0
 11
108.317555
 21
190.012633
 31
0.0
  0
LINE
  5
1D9B1
  8
DANMEN
  6
CONTINUOUS
 10
108.017555
 20
185.502085
 30
0.0
 11
109.517555
 21
185.502085
 31
0.0
  0
LINE
  5
1D9B2
  8
DANMEN
  6
CONTINUOUS
 10
108.017555
 20
185.502085
 30
0.0
 11
108.017555
 21
190.002085
 31
0.0
  0
LINE
  5
1D9B8
  8
DANMEN
  6
CONTINUOUS
 10
140.0
 20
166.5
 30
0.0
 11
140.0
 21
130.997915
 31
0.0
  0
ARC
  5
1D9B9
  8
DANMEN
  6
CONTINUOUS
 10
140.717555
 20
127.340276
 30
0.0
 40
2.0
 50
274.698681
 51
0.0
  0
ARC
  5
1D9BF
  8
DANMEN
  6
CONTINUOUS
 10
142.217555
 20
130.497915
 30
0.0
 40
0.5
 50
0.0
 51
89.999982
  0
LINE
  5
1D9C1
  8
DANMEN
  6
CONTINUOUS
 10
142.717555
 20
130.497915
 30
0.0
 11
142.717555
 21
127.340276
 31
0.0
  0
LINE
  5
1D9C2
  8
DANMEN
  6
CONTINUOUS
 10
188.0
 20
160.399997
 30
0.0
 11
188.0
 21
141.799997
 31
0.0
  0
LINE
  5
1D9C3
  8
DANMEN
  6
CONTINUOUS
 10
189.510441
 20
134.00228
 30
0.0
 11
192.270497
 21
127.499997
 31
0.0
  0
LINE
  5
1D9C4
  8
DANMEN
  6
CONTINUOUS
 10
190.025814
 20
134.835581
 30
0.0
 11
192.800005
 21
128.299997
 31
0.0
  0
ARC
  5
1D9C5
  8
DANMEN
  6
CONTINUOUS
 10
192.0
 20
132.861184
 30
0.0
 40
1.0
 50
180.0
 51
261.469234
  0
LINE
  5
1D9C6
  8
DANMEN
  6
CONTINUOUS
 10
201.145436
 20
132.449997
 30
0.0
 11
192.2
 21
133.791812
 31
0.0
  0
LINE
  5
1D9C7
  8
DANMEN
  6
CONTINUOUS
 10
188.0
 20
139.999997
 30
0.0
 11
188.0
 21
125.099997
 31
0.0
  0
LINE
  5
1D9C8
  8
DANMEN
  6
CONTINUOUS
 10
192.800005
 20
128.299997
 30
0.0
 11
200.200005
 21
128.299997
 31
0.0
  0
LINE
  5
1D9C9
  8
DANMEN
  6
CONTINUOUS
 10
192.270497
 20
127.499997
 30
0.0
 11
195.350006
 21
127.499997
 31
0.0
  0
LINE
  5
1D9CA
  8
DANMEN
  6
CONTINUOUS
 10
200.963121
 20
130.505529
 30
0.0
 11
191.85166
 21
131.872248
 31
0.0
  0
LINE
  5
1D9CB
  8
DANMEN
  6
CONTINUOUS
 10
188.0
 20
123.999997
 30
0.0
 11
200.5
 21
123.999997
 31
0.0
  0
LINE
  5
1D9CC
  8
DANMEN
  6
CONTINUOUS
 10
193.5
 20
127.499997
 30
0.0
 11
194.699997
 21
127.499997
 31
0.0
  0
LINE
  5
1D9CD
  8
DANMEN
  6
CONTINUOUS
 10
193.0
 20
126.999997
 30
0.0
 11
193.0
 21
125.099997
 31
0.0
  0
LINE
  5
1D9CE
  8
DANMEN
  6
CONTINUOUS
 10
188.0
 20
125.099997
 30
0.0
 11
193.0
 21
125.099997
 31
0.0
  0
LINE
  5
1D9D2
  8
DANMEN
  6
CONTINUOUS
 10
188.0
 20
127.499997
 30
0.0
 11
193.5
 21
127.499997
 31
0.0
  0
ARC
  5
1D9D9
  8
DANMEN
  6
CONTINUOUS
 10
193.5
 20
126.999997
 30
0.0
 40
0.5
 50
90.000037
 51
180.000019
  0
LINE
  5
1D9DA
  8
DANMEN
  6
CONTINUOUS
 10
198.650005
 20
127.499997
 30
0.0
 11
198.650005
 21
126.499997
 31
0.0
  0
LINE
  5
1D9DB
  8
DANMEN
  6
CONTINUOUS
 10
195.350006
 20
127.499997
 30
0.0
 11
195.350006
 21
126.499997
 31
0.0
  0
LINE
  5
1D9DC
  8
DANMEN
  6
CONTINUOUS
 10
195.200001
 20
126.999996
 30
0.0
 11
195.200003
 21
126.699993
 31
0.0
  0
LINE
  5
1D9DD
  8
DANMEN
  6
CONTINUOUS
 10
198.800003
 20
127.000014
 30
0.0
 11
198.799998
 21
126.699995
 31
0.0
  0
LINE
  5
1D9DE
  8
DANMEN
  6
CONTINUOUS
 10
201.0
 20
126.999997
 30
0.0
 11
201.0
 21
124.499997
 31
0.0
  0
LINE
  5
1D9DF
  8
DANMEN
  6
CONTINUOUS
 10
197.850005
 20
126.299997
 30
0.0
 11
198.650005
 21
125.499997
 31
0.0
  0
LINE
  5
1D9E0
  8
DANMEN
  6
CONTINUOUS
 10
193.8
 20
125.099997
 30
0.0
 11
199.999998
 21
125.099997
 31
0.0
  0
LINE
  5
1D9E3
  8
DANMEN
  6
CONTINUOUS
 10
196.150006
 20
126.299997
 30
0.0
 11
197.850005
 21
126.299997
 31
0.0
  0
ARC
  5
1D9E6
  8
DANMEN
  6
CONTINUOUS
 10
194.350005
 20
126.299997
 30
0.0
 40
0.2
 50
89.999982
 51
180.000019
  0
ARC
  5
1D9E8
  8
DANMEN
  6
CONTINUOUS
 10
194.350005
 20
125.699997
 30
0.0
 40
0.2
 50
180.000019
 51
270.000001
  0
LINE
  5
1D9EB
  8
DANMEN
  6
CONTINUOUS
 10
196.150005
 20
126.299997
 30
0.0
 11
195.350006
 21
125.499997
 31
0.0
  0
LINE
  5
1D9ED
  8
DANMEN
  6
CONTINUOUS
 10
194.350005
 20
125.499997
 30
0.0
 11
195.350006
 21
125.499997
 31
0.0
  0
LINE
  5
1D9EE
  8
DANMEN
  6
CONTINUOUS
 10
194.150005
 20
126.299997
 30
0.0
 11
194.150005
 21
125.699997
 31
0.0
  0
LINE
  5
1D9EF
  8
DANMEN
  6
CONTINUOUS
 10
194.350005
 20
126.499997
 30
0.0
 11
195.350006
 21
126.499997
 31
0.0
  0
LINE
  5
1D9F1
  8
DANMEN
  6
CONTINUOUS
 10
193.8
 20
126.699994
 30
0.0
 11
195.199997
 21
126.699994
 31
0.0
  0
LINE
  5
1D9F2
  8
DANMEN
  6
CONTINUOUS
 10
193.8
 20
126.699994
 30
0.0
 11
193.8
 21
125.099997
 31
0.0
  0
LINE
  5
1D9F7
  8
DANMEN
  6
CONTINUOUS
 10
198.650005
 20
126.499997
 30
0.0
 11
199.650006
 21
126.499997
 31
0.0
  0
ARC
  5
1D9F8
  8
DANMEN
  6
CONTINUOUS
 10
199.650006
 20
125.699997
 30
0.0
 40
0.2
 50
270.000018
 51
0.0
  0
ARC
  5
1D9FA
  8
DANMEN
  6
CONTINUOUS
 10
199.650006
 20
126.299997
 30
0.0
 40
0.2
 50
0.0
 51
89.999982
  0
LINE
  5
1D9FD
  8
DANMEN
  6
CONTINUOUS
 10
198.650005
 20
125.499997
 30
0.0
 11
199.650006
 21
125.499997
 31
0.0
  0
LINE
  5
1D9FF
  8
DANMEN
  6
CONTINUOUS
 10
199.850006
 20
126.299997
 30
0.0
 11
199.850006
 21
125.699997
 31
0.0
  0
ARC
  5
1DA03
  8
DANMEN
  6
CONTINUOUS
 10
200.5
 20
124.499997
 30
0.0
 40
0.5
 50
270.000018
 51
0.0
  0
LINE
  5
1DA04
  8
DANMEN
  6
CONTINUOUS
 10
198.800003
 20
126.699994
 30
0.0
 11
200.0
 21
126.699994
 31
0.0
  0
LINE
  5
1DA05
  8
DANMEN
  6
CONTINUOUS
 10
199.999998
 20
126.699994
 30
0.0
 11
199.999998
 21
125.099997
 31
0.0
  0
LINE
  5
1DA07
  8
DANMEN
  6
CONTINUOUS
 10
200.895164
 20
129.34241
 30
0.0
 11
196.246849
 21
131.222888
 31
0.0
  0
LINE
  5
1DA08
  8
DANMEN
  6
CONTINUOUS
 10
199.878863
 20
128.89057
 30
0.0
 11
197.33567
 21
129.91942
 31
0.0
  0
ARC
  5
1DA0A
  8
DANMEN
  6
CONTINUOUS
 10
196.09684
 20
130.852082
 30
0.0
 40
0.4
 50
67.974191
 51
247.974191
  0
ARC
  5
1DA0C
  8
DANMEN
  6
CONTINUOUS
 10
195.312975
 20
128.449883
 30
0.0
 40
0.25
 50
131.738105
 51
311.738105
  0
LINE
  5
1DA0E
  8
DANMEN
  6
CONTINUOUS
 10
196.578997
 20
129.914411
 30
0.0
 11
195.146544
 21
128.636432
 31
0.0
  0
LINE
  5
1DA0F
  8
DANMEN
  6
CONTINUOUS
 10
197.33567
 20
129.91942
 30
0.0
 11
195.479407
 21
128.263334
 31
0.0
  0
LINE
  5
1DA14
  8
DANMEN
  6
CONTINUOUS
 10
196.520856
 20
130.249053
 30
0.0
 11
195.94683
 21
130.481276
 31
0.0
  0
ARC
  5
1DA15
  8
DANMEN
  6
CONTINUOUS
 10
196.445851
 20
130.06365
 30
0.0
 40
0.2
 50
311.738105
 51
67.974191
  0
ARC
  5
1DA1A
  8
DANMEN
  6
CONTINUOUS
 10
194.699997
 20
126.999997
 30
0.0
 40
0.5
 50
359.999981
 51
90.000037
  0
LINE
  5
1DA1C
  8
DANMEN
  6
CONTINUOUS
 10
200.200005
 20
128.96245
 30
0.0
 11
200.200005
 21
128.299997
 31
0.0
  0
LINE
  5
1DA1E
  8
DANMEN
  6
CONTINUOUS
 10
201.000005
 20
129.244503
 30
0.0
 11
201.000005
 21
127.499997
 31
0.0
  0
LINE
  5
1DA20
  8
DANMEN
  6
CONTINUOUS
 10
198.650005
 20
127.499997
 30
0.0
 11
201.000005
 21
127.499997
 31
0.0
  0
ARC
  5
1DA21
  8
DANMEN
  6
CONTINUOUS
 10
200.064266
 20
128.815565
 30
0.0
 40
0.2
 50
47.258366
 51
157.974191
  0
ARC
  5
1DA24
  8
DANMEN
  6
CONTINUOUS
 10
200.820159
 20
129.157007
 30
0.0
 40
0.2
 50
25.943161
 51
67.974191
  0
ARC
  5
1DA27
  8
DANMEN
  6
CONTINUOUS
 10
201.037291
 20
130.999997
 30
0.0
 40
0.5
 50
261.469234
 51
270.0
  0
ARC
  5
1DA2B
  8
DANMEN
  6
CONTINUOUS
 10
199.300003
 20
126.999997
 30
0.0
 40
0.5
 50
90.0
 51
179.999149
  0
ARC
  5
1DA2D
  8
DANMEN
  6
CONTINUOUS
 10
200.5
 20
126.999997
 30
0.0
 40
0.5
 50
359.999981
 51
90.000037
  0
LINE
  5
1DA2E
  8
DANMEN
  6
CONTINUOUS
 10
199.300003
 20
127.499997
 30
0.0
 11
200.5
 21
127.499997
 31
0.0
  0
LINE
  5
1DA2F
  8
DANMEN
  6
CONTINUOUS
 10
197.050996
 20
142.499997
 30
0.0
 11
192.850995
 21
141.799997
 31
0.0
  0
LINE
  5
1DA30
  8
DANMEN
  6
CONTINUOUS
 10
198.164402
 20
140.860736
 30
0.0
 11
193.081604
 21
140.013603
 31
0.0
  0
ARC
  5
1DA31
  8
DANMEN
  6
CONTINUOUS
 10
189.473511
 20
134.601143
 30
0.0
 40
0.6
 50
23.0
 51
273.528779
  0
LINE
  5
1DA36
  8
DANMEN
  6
CONTINUOUS
 10
191.0
 20
134.499997
 30
0.0
 11
191.0
 21
132.861184
 31
0.0
  0
LINE
  5
1DA37
  8
DANMEN
  6
CONTINUOUS
 10
191.5
 20
134.999997
 30
0.0
 11
192.2
 21
134.999997
 31
0.0
  0
ARC
  5
1DA39
  8
DANMEN
  6
CONTINUOUS
 10
191.5
 20
134.499997
 30
0.0
 40
0.5
 50
89.999982
 51
180.000019
  0
LINE
  5
1DA3A
  8
DANMEN
  6
CONTINUOUS
 10
192.2
 20
134.999997
 30
0.0
 11
192.2
 21
133.791812
 31
0.0
  0
LINE
  5
1DA3D
  8
DANMEN
  6
CONTINUOUS
 10
188.0
 20
141.799997
 30
0.0
 11
192.850995
 21
141.799997
 31
0.0
  0
LINE
  5
1DA3E
  8
DANMEN
  6
CONTINUOUS
 10
188.0
 20
139.999997
 30
0.0
 11
192.917205
 21
139.999997
 31
0.0
  0
ARC
  5
1DA42
  8
DANMEN
  6
CONTINUOUS
 10
192.917205
 20
140.999997
 30
0.0
 40
1.0
 50
270.000018
 51
279.462343
  0
LINE
  5
1DA45
  8
DANMEN
  6
CONTINUOUS
 10
197.050996
 20
142.499997
 30
0.0
 11
198.5
 21
142.499997
 31
0.0
  0
ARC
  5
1DA47
  8
DANMEN
  6
CONTINUOUS
 10
198.5
 20
141.999997
 30
0.0
 40
0.5
 50
0.0
 51
89.999982
  0
ARC
  5
1DA49
  8
DANMEN
  6
CONTINUOUS
 10
198.0
 20
141.847134
 30
0.0
 40
1.0
 50
279.462343
 51
0.000285
  0
LINE
  5
1DA4C
  8
DANMEN
  6
CONTINUOUS
 10
199.0
 20
141.999997
 30
0.0
 11
199.0
 21
141.847134
 31
0.0
  0
LINE
  5
1DA4E
  8
DANMEN
  6
CONTINUOUS
 10
179.649994
 20
159.850003
 30
0.0
 11
186.350006
 21
159.850003
 31
0.0
  0
ARC
  5
1DA4F
  8
DANMEN
  6
CONTINUOUS
 10
179.149994
 20
155.999997
 30
0.0
 40
0.5
 50
270.000018
 51
359.999981
  0
ARC
  5
1DA50
  8
DANMEN
  6
CONTINUOUS
 10
178.5
 20
155.999997
 30
0.0
 40
0.5
 50
180.000036
 51
269.999963
  0
LINE
  5
1DA53
  8
DANMEN
  6
CONTINUOUS
 10
178.5
 20
155.499997
 30
0.0
 11
179.149994
 21
155.499997
 31
0.0
  0
ARC
  5
1DA55
  8
DANMEN
  6
CONTINUOUS
 10
178.5
 20
160.999997
 30
0.0
 40
0.5
 50
89.999982
 51
180.000019
  0
LINE
  5
1DA57
  8
DANMEN
  6
CONTINUOUS
 10
179.649994
 20
159.850003
 30
0.0
 11
179.649994
 21
155.999997
 31
0.0
  0
LINE
  5
1DA58
  8
DANMEN
  6
CONTINUOUS
 10
178.0
 20
160.999997
 30
0.0
 11
178.0
 21
155.999997
 31
0.0
  0
LINE
  5
1DA59
  8
DANMEN
  6
CONTINUOUS
 10
200.963121
 20
154.494465
 30
0.0
 11
191.85166
 21
153.127746
 31
0.0
  0
LINE
  5
1DA5A
  8
DANMEN
  6
CONTINUOUS
 10
201.145436
 20
152.549997
 30
0.0
 11
192.2
 21
151.208181
 31
0.0
  0
ARC
  5
1DA5B
  8
DANMEN
  6
CONTINUOUS
 10
191.5
 20
150.499997
 30
0.0
 40
0.5
 50
179.999964
 51
270.000001
  0
LINE
  5
1DA5C
  8
DANMEN
  6
CONTINUOUS
 10
192.2
 20
149.999997
 30
0.0
 11
192.2
 21
151.208181
 31
0.0
  0
LINE
  5
1DA5D
  8
DANMEN
  6
CONTINUOUS
 10
191.5
 20
149.999997
 30
0.0
 11
192.2
 21
149.999997
 31
0.0
  0
LINE
  5
1DA60
  8
DANMEN
  6
CONTINUOUS
 10
191.0
 20
150.499997
 30
0.0
 11
191.0
 21
152.13881
 31
0.0
  0
ARC
  5
1DA61
  8
DANMEN
  6
CONTINUOUS
 10
192.0
 20
152.13881
 30
0.0
 40
1.0
 50
98.530766
 51
180.0
  0
ARC
  5
1DA65
  8
DANMEN
  6
CONTINUOUS
 10
201.037291
 20
153.999997
 30
0.0
 40
0.5
 50
90.0
 51
98.530766
  0
LINE
  5
1DA69
  8
DANMEN
  6
CONTINUOUS
 10
188.0
 20
160.399997
 30
0.0
 11
190.0
 21
160.399997
 31
0.0
  0
LINE
  5
1DA6D
  8
DANMEN
  6
CONTINUOUS
 10
190.0
 20
160.399997
 30
0.0
 11
190.0
 21
159.850003
 31
0.0
  0
LINE
  5
1DA70
  8
DANMEN
  6
CONTINUOUS
 10
140.0
 20
169.5
 30
0.0
 11
140.0
 21
181.502085
 31
0.0
  0
LINE
  5
1DA71
  8
DANMEN
  6
CONTINUOUS
 10
142.717555
 20
182.002085
 30
0.0
 11
142.717555
 21
185.159724
 31
0.0
  0
ARC
  5
1DA73
  8
DANMEN
  6
CONTINUOUS
 10
142.217555
 20
182.002085
 30
0.0
 40
0.5
 50
270.000018
 51
360.0
  0
ARC
  5
1DA76
  8
DANMEN
  6
CONTINUOUS
 10
140.717555
 20
185.159724
 30
0.0
 40
2.0
 50
0.0
 51
85.301319
  0
LINE
  5
1DA7A
  8
DANMEN
  6
CONTINUOUS
 10
97.8
 20
218.849999
 30
0.0
 11
104.25
 21
218.849999
 31
0.0
  0
LINE
  5
1DA7B
  8
DANMEN
  6
CONTINUOUS
 10
98.3
 20
220.499999
 30
0.0
 11
105.4
 21
220.499999
 31
0.0
  0
LINE
  5
1DA7C
  8
DANMEN
  6
CONTINUOUS
 10
82.65
 20
243.5
 30
0.0
 11
110.350006
 21
243.5
 31
0.0
  0
LINE
  5
1DA7D
  8
DANMEN
  6
CONTINUOUS
 10
99.5
 20
222.15
 30
0.0
 11
110.350006
 21
222.15
 31
0.0
  0
LINE
  5
1DA7E
  8
DANMEN
  6
CONTINUOUS
 10
99.0
 20
220.5
 30
0.0
 11
111.5
 21
220.5
 31
0.0
  0
LINE
  5
1DA7F
  8
DANMEN
  6
CONTINUOUS
 10
96.3
 20
245.15
 30
0.0
 11
110.350006
 21
245.15
 31
0.0
  0
LINE
  5
1DA80
  8
DANMEN
  6
CONTINUOUS
 10
82.65
 20
243.5
 30
0.0
 11
82.65
 21
223.5
 31
0.0
  0
LINE
  5
1DA81
  8
DANMEN
  6
CONTINUOUS
 10
81.0
 20
243.5
 30
0.0
 11
81.0
 21
228.5
 31
0.0
  0
LINE
  5
1DA82
  8
DANMEN
  6
DASHED
 10
85.0
 20
220.5
 30
0.0
 11
97.0
 21
220.5
 31
0.0
  0
LINE
  5
1DA83
  8
DANMEN
  6
DASHED
 10
81.5
 20
219.300003
 30
0.0
 11
100.5
 21
219.300003
 31
0.0
  0
LINE
  5
1DA84
  8
DANMEN
  6
CONTINUOUS
 10
74.582434
 20
228.2
 30
0.0
 11
73.6
 21
225.017126
 31
0.0
  0
LINE
  5
1DA85
  8
DANMEN
  6
CONTINUOUS
 10
74.146178
 20
228.684441
 30
0.0
 11
73.0187
 21
225.19015
 31
0.0
  0
LINE
  5
1DA86
  8
DANMEN
  6
CONTINUOUS
 10
77.2
 20
225.5
 30
0.0
 11
77.2
 21
223.8
 31
0.0
  0
LINE
  5
1DA87
  8
DANMEN
  6
CONTINUOUS
 10
75.2
 20
228.2
 30
0.0
 11
75.2
 21
221.1
 31
0.0
  0
LINE
  5
1DA88
  8
DANMEN
  6
DASHED
 10
83.023824
 20
224.117136
 30
0.0
 11
84.423825
 21
227.417167
 31
0.0
  0
LINE
  5
1DA89
  8
DANMEN
  6
DASHED
 10
84.5
 20
225.100003
 30
0.0
 11
84.992312
 21
227.23252
 31
0.0
  0
LINE
  5
1DA8A
  8
DANMEN
  6
CONTINUOUS
 10
85.0
 20
219.849999
 30
0.0
 11
85.0
 21
231.0
 31
0.0
  0
LINE
  5
1DA8B
  8
DANMEN
  6
CONTINUOUS
 10
83.5
 20
220.500001
 30
0.0
 11
83.5
 21
230.5
 31
0.0
  0
LINE
  5
1DA8C
  8
DANMEN
  6
CONTINUOUS
 10
71.049998
 20
218.45
 30
0.0
 11
71.049998
 21
228.0
 31
0.0
  0
LINE
  5
1DA8D
  8
DANMEN
  6
CONTINUOUS
 10
72.999998
 20
217.0
 30
0.0
 11
72.999998
 21
228.0
 31
0.0
  0
LINE
  5
1DA8E
  8
DANMEN
  6
CONTINUOUS
 10
81.000003
 20
221.5
 30
0.0
 11
81.000003
 21
227.7
 31
0.0
  0
LINE
  5
1DA8F
  8
DANMEN
  6
CONTINUOUS
 10
83.0
 20
220.5
 30
0.0
 11
76.5
 21
220.5
 31
0.0
  0
LINE
  5
1DA90
  8
DANMEN
  6
CONTINUOUS
 10
76.800003
 20
221.5
 30
0.0
 11
81.0
 21
221.5
 31
0.0
  0
LINE
  5
1DA91
  8
DANMEN
  6
CONTINUOUS
 10
73.0
 20
220.5
 30
0.0
 11
81.0
 21
220.5
 31
0.0
  0
ARC
  5
1DA95
  8
DANMEN
  6
CONTINUOUS
 10
72.499998
 20
217.0
 30
0.0
 40
0.5
 50
270.0
 51
0.0
  0
LINE
  5
1DA96
  8
DANMEN
  6
CONTINUOUS
 10
72.499998
 20
216.5
 30
0.0
 11
70.799998
 21
216.5
 31
0.0
  0
LINE
  5
1DA97
  8
DANMEN
  6
CONTINUOUS
 10
74.582434
 20
221.1
 30
0.0
 11
75.2
 21
221.1
 31
0.0
  0
LINE
  5
1DA98
  8
DANMEN
  6
CONTINUOUS
 10
74.327478
 20
220.5
 30
0.0
 11
76.0
 21
220.5
 31
0.0
  0
LINE
  5
1DA9C
  8
DANMEN
  6
CONTINUOUS
 10
73.6
 20
224.282873
 30
0.0
 11
74.582434
 21
221.1
 31
0.0
  0
LINE
  5
1DA9D
  8
DANMEN
  6
CONTINUOUS
 10
73.6
 20
225.017126
 30
0.0
 11
73.6
 21
224.282873
 31
0.0
  0
ARC
  5
1DA9F
  8
DANMEN
  6
CONTINUOUS
 10
73.2
 20
224.194291
 30
0.0
 40
0.2
 50
180.0
 51
204.97391
  0
ARC
  5
1DAA1
  8
DANMEN
  6
CONTINUOUS
 10
73.2
 20
225.105709
 30
0.0
 40
0.2
 50
155.02609
 51
180.0
  0
ARC
  5
1DAA3
  8
DANMEN
  6
CONTINUOUS
 10
74.327478
 20
220.7
 30
0.0
 40
0.2
 50
204.97391
 51
270.0
  0
LINE
  5
1DAA4
  8
DANMEN
  6
CONTINUOUS
 10
73.0187
 20
224.10985
 30
0.0
 11
74.146178
 21
220.615559
 31
0.0
  0
LINE
  5
1DAA5
  8
DANMEN
  6
CONTINUOUS
 10
73.0
 20
225.105709
 30
0.0
 11
73.0
 21
224.194291
 31
0.0
  0
LINE
  5
1DAAE
  8
DANMEN
  6
CONTINUOUS
 10
76.0
 20
223.0
 30
0.0
 11
77.0
 21
223.0
 31
0.0
  0
LINE
  5
1DAAF
  8
DANMEN
  6
CONTINUOUS
 10
77.0
 20
223.0
 30
0.0
 11
77.0
 21
222.0
 31
0.0
  0
LINE
  5
1DAB0
  8
DANMEN
  6
CONTINUOUS
 10
77.2
 20
223.8
 30
0.0
 11
78.0
 21
223.0
 31
0.0
  0
LINE
  5
1DAB2
  8
DANMEN
  6
CONTINUOUS
 10
78.0
 20
223.0
 30
0.0
 11
78.0
 21
222.0
 31
0.0
  0
ARC
  5
1DAB4
  8
DANMEN
  6
CONTINUOUS
 10
77.2
 20
222.0
 30
0.0
 40
0.2
 50
180.000019
 51
270.000001
  0
ARC
  5
1DAB6
  8
DANMEN
  6
CONTINUOUS
 10
77.8
 20
222.0
 30
0.0
 40
0.2
 50
270.000018
 51
0.0
  0
LINE
  5
1DAB8
  8
DANMEN
  6
CONTINUOUS
 10
76.0
 20
223.0
 30
0.0
 11
76.0
 21
220.5
 31
0.0
  0
LINE
  5
1DAB9
  8
DANMEN
  6
CONTINUOUS
 10
77.2
 20
221.8
 30
0.0
 11
77.8
 21
221.8
 31
0.0
  0
ARC
  5
1DABB
  8
DANMEN
  6
CONTINUOUS
 10
76.5
 20
221.0
 30
0.0
 40
0.5
 50
179.999981
 51
270.000018
  0
ARC
  5
1DABC
  8
DANMEN
  6
CONTINUOUS
 10
76.5
 20
222.199997
 30
0.0
 40
0.5
 50
89.999999
 51
179.999981
  0
LINE
  5
1DABD
  8
DANMEN
  6
CONTINUOUS
 10
76.800003
 20
221.5
 30
0.0
 11
76.800003
 21
222.699997
 31
0.0
  0
LINE
  5
1DABE
  8
DANMEN
  6
CONTINUOUS
 10
76.5
 20
222.699997
 30
0.0
 11
76.800003
 21
222.699997
 31
0.0
  0
LINE
  5
1DABF
  8
DANMEN
  6
CONTINUOUS
 10
76.0
 20
221.0
 30
0.0
 11
76.0
 21
222.199997
 31
0.0
  0
ARC
  5
1DAC2
  8
DANMEN
  6
DASHED
 10
81.5
 20
219.800003
 30
0.0
 40
0.5
 50
180.0
 51
269.999982
  0
ARC
  5
1DAC3
  8
DANMEN
  6
CONTINUOUS
 10
84.0
 20
219.849999
 30
0.0
 40
1.0
 50
270.0
 51
0.0
  0
LINE
  5
1DAC4
  8
DANMEN
  6
CONTINUOUS
 10
82.65
 20
218.849999
 30
0.0
 11
84.0
 21
218.849999
 31
0.0
  0
LINE
  5
1DAC9
  8
DANMEN
  6
DASHED
 10
83.5
 20
220.5
 30
0.0
 11
81.0
 21
220.5
 31
0.0
  0
ARC
  5
1DACA
  8
DANMEN
  6
DASHED
 10
83.299999
 20
223.999972
 30
0.0
 40
0.3
 50
157.011468
 51
235.656024
  0
LINE
  5
1DACB
  8
DANMEN
  6
CONTINUOUS
 10
81.5
 20
220.500003
 30
0.0
 11
83.5
 21
220.500003
 31
0.0
  0
LINE
  5
1DACC
  8
DANMEN
  6
CONTINUOUS
 10
82.65
 20
223.5
 30
0.0
 11
83.5
 21
223.5
 31
0.0
  0
ARC
  5
1DACD
  8
DANMEN
  6
CONTINUOUS
 10
83.0
 20
221.0
 30
0.0
 40
0.5
 50
270.0
 51
0.0
  0
LINE
  5
1DAD0
  8
DANMEN
  6
DASHED
 10
81.0
 20
220.5
 30
0.0
 11
81.0
 21
219.800003
 31
0.0
  0
ARC
  5
1DAD3
  8
DANMEN
  6
CONTINUOUS
 10
81.5
 20
220.000003
 30
0.0
 40
0.5
 50
90.0
 51
180.0
  0
LINE
  5
1DAD4
  8
DANMEN
  6
DASHED
 10
83.499991
 20
223.499972
 30
0.0
 11
83.130743
 21
223.752271
 31
0.0
  0
LINE
  5
1DAD5
  8
DANMEN
  6
DASHED
 10
83.5
 20
220.5
 30
0.0
 11
83.5
 21
223.499972
 31
0.0
  0
LINE
  5
1DAD6
  8
DANMEN
  6
DASHED
 10
84.5
 20
225.100003
 30
0.0
 11
84.5
 21
221.0
 31
0.0
  0
ARC
  5
1DAD7
  8
DANMEN
  6
DASHED
 10
85.0
 20
221.0
 30
0.0
 40
0.5
 50
180.0
 51
270.0
  0
LINE
  5
1DADD
  8
DANMEN
  6
CONTINUOUS
 10
83.5
 20
223.5
 30
0.0
 11
83.5
 21
221.0
 31
0.0
  0
LINE
  5
1DADE
  8
DANMEN
  6
CONTINUOUS
 10
76.800003
 20
227.7
 30
0.0
 11
81.0
 21
227.7
 31
0.0
  0
LINE
  5
1DADF
  8
DANMEN
  6
CONTINUOUS
 10
76.5
 20
228.5
 30
0.0
 11
81.0
 21
228.5
 31
0.0
  0
LINE
  5
1DAE0
  8
DANMEN
  6
CONTINUOUS
 10
74.582434
 20
228.2
 30
0.0
 11
75.2
 21
228.2
 31
0.0
  0
LINE
  5
1DAE1
  8
DANMEN
  6
CONTINUOUS
 10
74.327478
 20
228.8
 30
0.0
 11
76.0
 21
228.8
 31
0.0
  0
ARC
  5
1DAE4
  8
DANMEN
  6
CONTINUOUS
 10
74.327478
 20
228.6
 30
0.0
 40
0.2
 50
90.0
 51
155.02609
  0
ARC
  5
1DAE6
  8
DANMEN
  6
CONTINUOUS
 10
71.549998
 20
228.0
 30
0.0
 40
0.5
 50
90.0
 51
180.0
  0
ARC
  5
1DAE8
  8
DANMEN
  6
CONTINUOUS
 10
72.499998
 20
228.0
 30
0.0
 40
0.5
 50
0.0
 51
90.0
  0
LINE
  5
1DAE9
  8
DANMEN
  6
CONTINUOUS
 10
72.499998
 20
228.5
 30
0.0
 11
71.549998
 21
228.5
 31
0.0
  0
LINE
  5
1DAEF
  8
DANMEN
  6
CONTINUOUS
 10
76.0
 20
228.8
 30
0.0
 11
76.0
 21
226.3
 31
0.0
  0
LINE
  5
1DAF1
  8
DANMEN
  6
CONTINUOUS
 10
76.0
 20
226.3
 30
0.0
 11
77.0
 21
226.3
 31
0.0
  0
LINE
  5
1DAF2
  8
DANMEN
  6
CONTINUOUS
 10
78.0
 20
226.3
 30
0.0
 11
77.2
 21
225.5
 31
0.0
  0
ARC
  5
1DAF4
  8
DANMEN
  6
CONTINUOUS
 10
77.2
 20
227.3
 30
0.0
 40
0.2
 50
89.999982
 51
180.000019
  0
ARC
  5
1DAF6
  8
DANMEN
  6
CONTINUOUS
 10
77.8
 20
227.3
 30
0.0
 40
0.2
 50
0.0
 51
89.999982
  0
LINE
  5
1DAF8
  8
DANMEN
  6
CONTINUOUS
 10
77.0
 20
227.3
 30
0.0
 11
77.0
 21
226.3
 31
0.0
  0
LINE
  5
1DAF9
  8
DANMEN
  6
CONTINUOUS
 10
77.2
 20
227.5
 30
0.0
 11
77.8
 21
227.5
 31
0.0
  0
LINE
  5
1DAFA
  8
DANMEN
  6
CONTINUOUS
 10
78.0
 20
227.3
 30
0.0
 11
78.0
 21
226.3
 31
0.0
  0
LINE
  5
1DAFB
  8
DANMEN
  6
CONTINUOUS
 10
76.5
 20
226.300003
 30
0.0
 11
76.800003
 21
226.300003
 31
0.0
  0
ARC
  5
1DAFC
  8
DANMEN
  6
CONTINUOUS
 10
76.5
 20
226.800003
 30
0.0
 40
0.5
 50
179.999981
 51
270.000018
  0
ARC
  5
1DAFD
  8
DANMEN
  6
CONTINUOUS
 10
76.5
 20
228.0
 30
0.0
 40
0.5
 50
89.999999
 51
179.999981
  0
LINE
  5
1DAFE
  8
DANMEN
  6
CONTINUOUS
 10
76.800003
 20
226.300003
 30
0.0
 11
76.800003
 21
227.7
 31
0.0
  0
LINE
  5
1DAFF
  8
DANMEN
  6
CONTINUOUS
 10
76.0
 20
226.800003
 30
0.0
 11
76.0
 21
228.0
 31
0.0
  0
ARC
  5
1DB04
  8
DANMEN
  6
DASHED
 10
84.7
 20
227.300003
 30
0.0
 40
0.3
 50
347.000479
 51
157.011468
  0
LINE
  5
1DB05
  8
DANMEN
  6
CONTINUOUS
 10
84.0
 20
231.0
 30
0.0
 11
85.0
 21
231.0
 31
0.0
  0
ARC
  5
1DB06
  8
DANMEN
  6
CONTINUOUS
 10
84.0
 20
230.5
 30
0.0
 40
0.5
 50
90.0
 51
180.0
  0
LINE
  5
1DB09
  8
DANMEN
  6
DASHED
 10
97.5
 20
225.100003
 30
0.0
 11
97.007688
 21
227.23252
 31
0.0
  0
LINE
  5
1DB0A
  8
DANMEN
  6
DASHED
 10
98.976176
 20
224.117136
 30
0.0
 11
97.576175
 21
227.417167
 31
0.0
  0
LINE
  5
1DB0B
  8
DANMEN
  6
CONTINUOUS
 10
96.8
 20
219.849999
 30
0.0
 11
96.8
 21
231.000003
 31
0.0
  0
LINE
  5
1DB0C
  8
DANMEN
  6
CONTINUOUS
 10
98.3
 20
220.499997
 30
0.0
 11
98.3
 21
230.500003
 31
0.0
  0
ARC
  5
1DB0D
  8
DANMEN
  6
CONTINUOUS
 10
93.300002
 20
213.930306
 30
0.0
 40
2.0
 50
0.000026
 51
51.706549
  0
LINE
  5
1DB0E
  8
DANMEN
  6
CONTINUOUS
 10
90.900001
 20
215.199999
 30
0.0
 11
90.900001
 21
214.936931
 31
0.0
  0
ARC
  5
1DB0F
  8
DANMEN
  6
CONTINUOUS
 10
91.200002
 20
213.84606
 30
0.0
 40
1.0
 50
114.624344
 51
180.000026
  0
ARC
  5
1DB10
  8
DANMEN
  6
CONTINUOUS
 10
90.700001
 20
214.936931
 30
0.0
 40
0.2
 50
294.624344
 51
0.000026
  0
ARC
  5
1DB11
  8
DANMEN
  6
CONTINUOUS
 10
90.700002
 20
213.930305
 30
0.0
 40
2.0
 50
128.293503
 51
180.000026
  0
LINE
  5
1DB12
  8
DANMEN
  6
CONTINUOUS
 10
90.600001
 20
215.499999
 30
0.0
 11
89.460622
 21
215.499998
 31
0.0
  0
ARC
  5
1DB13
  8
DANMEN
  6
CONTINUOUS
 10
90.600001
 20
215.199999
 30
0.0
 40
0.3
 50
0.000026
 51
90.000026
  0
ARC
  5
1DB14
  8
DANMEN
  6
CONTINUOUS
 10
93.300001
 20
214.936932
 30
0.0
 40
0.2
 50
180.000026
 51
245.375708
  0
ARC
  5
1DB15
  8
DANMEN
  6
CONTINUOUS
 10
92.800002
 20
213.846061
 30
0.0
 40
1.0
 50
0.000026
 51
65.375708
  0
LINE
  5
1DB16
  8
DANMEN
  6
CONTINUOUS
 10
93.100001
 20
215.2
 30
0.0
 11
93.100001
 21
214.936932
 31
0.0
  0
ARC
  5
1DB17
  8
DANMEN
  6
CONTINUOUS
 10
93.400001
 20
215.2
 30
0.0
 40
0.3
 50
90.000026
 51
180.000026
  0
LINE
  5
1DB18
  8
DANMEN
  6
CONTINUOUS
 10
93.400001
 20
215.499999
 30
0.0
 11
94.53938
 21
215.499999
 31
0.0
  0
ARC
  5
1DB1B
  8
DANMEN
  6
DASHED
 10
100.5
 20
219.800003
 30
0.0
 40
0.5
 50
270.000018
 51
0.0
  0
ARC
  5
1DB1C
  8
DANMEN
  6
CONTINUOUS
 10
97.8
 20
219.849999
 30
0.0
 40
1.0
 50
180.0
 51
270.0
  0
LINE
  5
1DB20
  8
DANMEN
  6
DASHED
 10
98.5
 20
220.5
 30
0.0
 11
101.0
 21
220.5
 31
0.0
  0
LINE
  5
1DB21
  8
DANMEN
  6
DASHED
 10
98.5
 20
220.5
 30
0.0
 11
101.0
 21
220.5
 31
0.0
  0
LINE
  5
1DB22
  8
DANMEN
  6
CONTINUOUS
 10
99.206061
 20
223.142044
 30
0.0
 11
99.5
 21
222.15
 31
0.0
  0
ARC
  5
1DB25
  8
DANMEN
  6
DASHED
 10
97.0
 20
221.0
 30
0.0
 40
0.5
 50
270.0
 51
0.0
  0
LINE
  5
1DB26
  8
DANMEN
  6
DASHED
 10
97.5
 20
225.100003
 30
0.0
 11
97.5
 21
221.0
 31
0.0
  0
LINE
  5
1DB27
  8
DANMEN
  6
DASHED
 10
98.5
 20
220.5
 30
0.0
 11
98.5
 21
223.499972
 31
0.0
  0
LINE
  5
1DB28
  8
DANMEN
  6
DASHED
 10
98.500009
 20
223.499972
 30
0.0
 11
98.869257
 21
223.752271
 31
0.0
  0
ARC
  5
1DB29
  8
DANMEN
  6
DASHED
 10
98.700001
 20
223.999972
 30
0.0
 40
0.3
 50
304.343976
 51
22.988532
  0
ARC
  5
1DB2F
  8
DANMEN
  6
CONTINUOUS
 10
99.0
 20
221.0
 30
0.0
 40
0.5
 50
180.0
 51
270.0
  0
LINE
  5
1DB30
  8
DANMEN
  6
CONTINUOUS
 10
98.5
 20
223.5
 30
0.0
 11
98.5
 21
221.0
 31
0.0
  0
LINE
  5
1DB31
  8
DANMEN
  6
CONTINUOUS
 10
98.726662
 20
223.5
 30
0.0
 11
98.5
 21
223.5
 31
0.0
  0
ARC
  5
1DB32
  8
DANMEN
  6
CONTINUOUS
 10
98.726662
 20
223.0
 30
0.0
 40
0.5
 50
16.504361
 51
90.0
  0
LINE
  5
1DB34
  8
DANMEN
  6
DASHED
 10
101.0
 20
220.5
 30
0.0
 11
101.0
 21
219.800003
 31
0.0
  0
ARC
  5
1DB37
  8
DANMEN
  6
DASHED
 10
97.3
 20
227.300003
 30
0.0
 40
0.3
 50
22.988532
 51
192.999521
  0
LINE
  5
1DB38
  8
DANMEN
  6
CONTINUOUS
 10
96.8
 20
231.000003
 30
0.0
 11
97.8
 21
231.000003
 31
0.0
  0
ARC
  5
1DB39
  8
DANMEN
  6
CONTINUOUS
 10
97.8
 20
230.500003
 30
0.0
 40
0.5
 50
0.0
 51
90.0
  0
LINE
  5
1DB3D
  8
DANMEN
  6
CONTINUOUS
 10
79.65
 20
245.15
 30
0.0
 11
87.7
 21
245.15
 31
0.0
  0
ARC
  5
1DB3E
  8
DANMEN
  6
CONTINUOUS
 10
78.65
 20
248.100012
 30
0.0
 40
1.0
 50
0.0
 51
90.0
  0
LINE
  5
1DB3F
  8
DANMEN
  6
CONTINUOUS
 10
77.0
 20
243.5
 30
0.0
 11
81.0
 21
243.5
 31
0.0
  0
LINE
  5
1DB43
  8
DANMEN
  6
CONTINUOUS
 10
78.0
 20
247.450012
 30
0.0
 11
78.0
 21
244.3
 31
0.0
  0
LINE
  5
1DB44
  8
DANMEN
  6
CONTINUOUS
 10
76.5
 20
244.3
 30
0.0
 11
78.0
 21
244.3
 31
0.0
  0
LINE
  5
1DB45
  8
DANMEN
  6
CONTINUOUS
 10
76.5
 20
244.3
 30
0.0
 11
76.5
 21
244.0
 31
0.0
  0
ARC
  5
1DB46
  8
DANMEN
  6
CONTINUOUS
 10
77.0
 20
244.0
 30
0.0
 40
0.5
 50
180.000019
 51
270.000001
  0
LINE
  5
1DB47
  8
DANMEN
  6
CONTINUOUS
 10
79.65
 20
248.100012
 30
0.0
 11
79.65
 21
245.15
 31
0.0
  0
LINE
  5
1DB48
  8
DANMEN
  6
CONTINUOUS
 10
93.1
 20
248.536932
 30
0.0
 11
93.1
 21
248.8
 31
0.0
  0
ARC
  5
1DB49
  8
DANMEN
  6
CONTINUOUS
 10
93.3
 20
247.530306
 30
0.0
 40
2.0
 50
0.0
 51
51.706523
  0
LINE
  5
1DB4A
  8
DANMEN
  6
CONTINUOUS
 10
90.9
 20
248.536932
 30
0.0
 11
90.9
 21
248.8
 31
0.0
  0
ARC
  5
1DB4B
  8
DANMEN
  6
CONTINUOUS
 10
90.7
 20
247.530306
 30
0.0
 40
2.0
 50
128.293195
 51
180.0
  0
ARC
  5
1DB4C
  8
DANMEN
  6
CONTINUOUS
 10
96.3
 20
246.15
 30
0.0
 40
1.0
 50
180.0
 51
270.0
  0
LINE
  5
1DB4D
  8
DANMEN
  6
CONTINUOUS
 10
92.8
 20
245.2
 30
0.0
 11
91.2
 21
245.2
 31
0.0
  0
ARC
  5
1DB4E
  8
DANMEN
  6
CONTINUOUS
 10
91.2
 20
246.2
 30
0.0
 40
1.0
 50
180.0
 51
270.0
  0
LINE
  5
1DB4F
  8
DANMEN
  6
CONTINUOUS
 10
90.2
 20
247.446061
 30
0.0
 11
90.2
 21
246.2
 31
0.0
  0
ARC
  5
1DB50
  8
DANMEN
  6
CONTINUOUS
 10
90.7
 20
248.536932
 30
0.0
 40
0.2
 50
294.624318
 51
0.0
  0
ARC
  5
1DB51
  8
DANMEN
  6
CONTINUOUS
 10
91.2
 20
247.446061
 30
0.0
 40
1.0
 50
114.624318
 51
180.0
  0
LINE
  5
1DB52
  8
DANMEN
  6
CONTINUOUS
 10
88.7
 20
247.530306
 30
0.0
 11
88.7
 21
246.15
 31
0.0
  0
ARC
  5
1DB53
  8
DANMEN
  6
CONTINUOUS
 10
87.7
 20
246.15
 30
0.0
 40
1.0
 50
270.0
 51
0.0
  0
LINE
  5
1DB54
  8
DANMEN
  6
CONTINUOUS
 10
93.8
 20
247.446061
 30
0.0
 11
93.8
 21
246.2
 31
0.0
  0
LINE
  5
1DB55
  8
DANMEN
  6
CONTINUOUS
 10
95.3
 20
247.530306
 30
0.0
 11
95.3
 21
246.15
 31
0.0
  0
ARC
  5
1DB56
  8
DANMEN
  6
CONTINUOUS
 10
92.8
 20
246.2
 30
0.0
 40
1.0
 50
270.0
 51
0.0
  0
ARC
  5
1DB57
  8
DANMEN
  6
CONTINUOUS
 10
92.8
 20
247.446061
 30
0.0
 40
1.0
 50
0.0
 51
65.375682
  0
ARC
  5
1DB58
  8
DANMEN
  6
CONTINUOUS
 10
93.3
 20
248.536932
 30
0.0
 40
0.2
 50
180.0
 51
245.375682
  0
LINE
  5
1DB59
  8
DANMEN
  6
CONTINUOUS
 10
90.6
 20
249.100006
 30
0.0
 11
89.460628
 21
249.100006
 31
0.0
  0
ARC
  5
1DB5A
  8
DANMEN
  6
CONTINUOUS
 10
90.6
 20
248.8
 30
0.0
 40
0.3
 50
0.0
 51
90.0
  0
ARC
  5
1DB5B
  8
DANMEN
  6
CONTINUOUS
 10
93.4
 20
248.8
 30
0.0
 40
0.3
 50
90.0
 51
180.0
  0
LINE
  5
1DB5C
  8
DANMEN
  6
CONTINUOUS
 10
94.539379
 20
249.1
 30
0.0
 11
93.4
 21
249.1
 31
0.0
  0
LINE
  5
1DB5D
  8
DANMEN
  6
CONTINUOUS
 10
112.0
 20
255.0
 30
0.0
 11
112.0
 21
221.0
 31
0.0
  0
LINE
  5
1DB5E
  8
DANMEN
  6
CONTINUOUS
 10
110.350006
 20
243.5
 30
0.0
 11
110.350006
 21
222.15
 31
0.0
  0
ARC
  5
1DB5F
  8
DANMEN
  6
CONTINUOUS
 10
111.5
 20
221.0
 30
0.0
 40
0.5
 50
270.000018
 51
0.0
  0
ARC
  5
1DB62
  8
DANMEN
  6
CONTINUOUS
 10
105.4
 20
219.999999
 30
0.0
 40
0.5
 50
0.0
 51
90.0
  0
ARC
  5
1DB64
  8
DANMEN
  6
CONTINUOUS
 10
108.504277
 20
219.963517
 30
0.0
 40
0.5
 50
0.83042
 51
86.0
  0
LINE
  5
1DB65
  8
DANMEN
  6
CONTINUOUS
 10
108.0
 20
220.5
 30
0.0
 11
108.539155
 21
220.462299
 31
0.0
  0
LINE
  5
1DB69
  8
DANMEN
  6
CONTINUOUS
 10
110.350006
 20
253.850006
 30
0.0
 11
110.350006
 21
245.15
 31
0.0
  0
ARC
  5
1DB6A
  8
DANMEN
  6
CONTINUOUS
 10
111.5
 20
255.0
 30
0.0
 40
0.5
 50
0.0
 51
89.999982
  0
LINE
  5
1DB6B
  8
DANMEN
  6
CONTINUOUS
 10
106.0
 20
255.0
 30
0.0
 11
106.0
 21
254.350006
 31
0.0
  0
LINE
  5
1DB6C
  8
DANMEN
  6
CONTINUOUS
 10
106.5
 20
253.850006
 30
0.0
 11
110.350006
 21
253.850006
 31
0.0
  0
ARC
  5
1DB6D
  8
DANMEN
  6
CONTINUOUS
 10
106.5
 20
254.350006
 30
0.0
 40
0.5
 50
180.000019
 51
270.000001
  0
LINE
  5
1DB6E
  8
DANMEN
  6
CONTINUOUS
 10
106.5
 20
255.5
 30
0.0
 11
111.5
 21
255.5
 31
0.0
  0
ARC
  5
1DB6F
  8
DANMEN
  6
CONTINUOUS
 10
106.5
 20
255.0
 30
0.0
 40
0.5
 50
89.999982
 51
180.000019
  0
TEXT
  5
1DB71
  8
SUNPO
  6
CONTINUOUS
 10
351.855906
 20
118.75
 30
0.0
 40
2.5
  1
2.5
 50
90.0
  7
MX_NOTE_STANDARD
  0
ARC
  5
1DB72
  8
DANMEN
  6
CONTINUOUS
 10
357.000001
 20
119.499997
 30
0.0
 40
1.5
 50
90.0
 51
179.999982
  0
ARC
  5
1DB73
  8
DANMEN
  6
CONTINUOUS
 10
319.000003
 20
119.499994
 30
0.0
 40
1.5
 50
359.999994
 51
90.00003
  0
LINE
  5
1DB74
  8
DANMEN
  6
CONTINUOUS
 10
301.0
 20
122.499997
 30
0.0
 11
301.0
 21
120.842196
 31
0.0
  0
LINE
  5
1DB75
  8
DANMEN
  6
CONTINUOUS
 10
268.0
 20
65.499997
 30
0.0
 11
268.0
 21
126.999997
 31
0.0
  0
LINE
  5
1DB76
  8
DANMEN
  6
CONTINUOUS
 10
317.999997
 20
121.999997
 30
0.0
 11
317.999997
 21
120.499997
 31
0.0
  0
LINE
  5
1DB77
  8
DANMEN
  6
CONTINUOUS
 10
301.0
 20
122.499997
 30
0.0
 11
301.0
 21
120.999997
 31
0.0
  0
LINE
  5
1DB78
  8
DANMEN
  6
CONTINUOUS
 10
389.649994
 20
159.850006
 30
0.0
 11
389.649994
 21
93.149994
 31
0.0
  0
LINE
  5
1DB79
  8
DANMEN
  6
CONTINUOUS
 10
375.0
 20
122.499994
 30
0.0
 11
375.0
 21
120.792193
 31
0.0
  0
LINE
  5
1DB7A
  8
DANMEN
  6
CONTINUOUS
 10
375.0
 20
122.5
 30
0.0
 11
375.0
 21
121.0
 31
0.0
  0
LINE
  5
1DB7B
  8
DANMEN
  6
CONTINUOUS
 10
358.000003
 20
122.0
 30
0.0
 11
358.000003
 21
120.5
 31
0.0
  0
LINE
  5
1DB7C
  8
SUNPO
  6
CONTINUOUS
 10
330.0
 20
122.5
 30
0.0
 11
330.0
 21
91.5
 31
0.0
  0
LINE
  5
1DB7D
  8
SUNPO
  6
CONTINUOUS
 10
352.855906
 20
120.0
 30
0.0
 11
352.855906
 21
122.5
 31
0.0
  0
LINE
  5
1DB7E
  8
SUNPO
  6
CONTINUOUS
 10
264.364825
 20
161.499997
 30
0.0
 11
264.364825
 21
91.499997
 31
0.0
  0
LINE
  5
1DB7F
  8
SUNPO
  6
CONTINUOUS
 10
153.0
 20
138.5
 30
0.0
 11
153.0
 21
96.5
 31
0.0
  0
LINE
  5
1DB80
  8
SUNPO
  6
CONTINUOUS
 10
22.0
 20
56.5
 30
0.0
 11
22.0
 21
159.5
 31
0.0
  0
LINE
  5
1DB81
  8
SUNPO
  6
CONTINUOUS
 10
163.0
 20
148.093714
 30
0.0
 11
163.0
 21
96.5
 31
0.0
  0
TEXT
  5
1DB82
  8
SUNPO
  6
CONTINUOUS
 10
329.0
 20
100.33711
 30
0.0
 40
2.5
  1
31
 50
90.0
  7
MX_NOTE_STANDARD
  0
TEXT
  5
1DB83
  8
SUNPO
  6
CONTINUOUS
 10
329.0
 20
75.416667
 30
0.0
 40
2.5
  1
28
 50
90.0
  7
MX_NOTE_STANDARD
  0
LINE
  5
1DB84
  8
SUNPO
  6
CONTINUOUS
 10
318.0
 20
47.0
 30
0.0
 11
327.111405
 21
50.31628
 31
0.0
  0
LINE
  5
1DB85
  8
SUNPO
  6
CONTINUOUS
 10
318.500004
 20
63.5
 30
0.0
 11
330.0
 21
63.5
 31
0.0
  0
LINE
  5
1DB86
  8
SUNPO
  6
CONTINUOUS
 10
311.552269
 20
35.0
 30
0.0
 11
373.0
 21
35.0
 31
0.0
  0
LINE
  5
1DB87
  8
SUNPO
  6
CONTINUOUS
 10
318.0
 20
47.0
 30
0.0
 11
373.0
 21
47.0
 31
0.0
  0
LINE
  5
1DB88
  8
SUNPO
  6
CONTINUOUS
 10
57.0
 20
27.5
 30
0.0
 11
163.0
 21
27.5
 31
0.0
  0
LINE
  5
1DB8B
  8
DANMEN
  6
CONTINUOUS
 10
336.5
 20
91.5
 30
0.0
 11
318.0
 21
91.5
 31
0.0
  0
LINE
  5
1DB8C
  8
DANMEN
  6
CONTINUOUS
 10
336.5
 20
93.15
 30
0.0
 11
318.0
 21
93.15
 31
0.0
  0
LINE
  5
1DB8D
  8
DANMEN
  6
CONTINUOUS
 10
336.499997
 20
120.999997
 30
0.0
 11
318.0
 21
120.999997
 31
0.0
  0
LINE
  5
1DB8E
  8
DANMEN
  6
CONTINUOUS
 10
336.499997
 20
97.599997
 30
0.0
 11
318.0
 21
97.599997
 31
0.0
  0
LINE
  5
1DB8F
  8
DANMEN
  6
CONTINUOUS
 10
336.499997
 20
98.999997
 30
0.0
 11
318.0
 21
98.999997
 31
0.0
  0
LINE
  5
1DB90
  8
DANMEN
  6
CONTINUOUS
 10
306.000002
 20
114.999994
 30
0.0
 11
336.5
 21
114.999994
 31
0.0
  0
LINE
  5
1DB91
  8
DANMEN
  6
CONTINUOUS
 10
306.000002
 20
104.999994
 30
0.0
 11
336.5
 21
104.999994
 31
0.0
  0
LINE
  5
1DB92
  8
DANMEN
  6
CONTINUOUS
 10
306.000002
 20
105.499994
 30
0.0
 11
336.5
 21
105.499994
 31
0.0
  0
LINE
  5
1DB93
  8
DANMEN
  6
CONTINUOUS
 10
306.000002
 20
114.499994
 30
0.0
 11
336.5
 21
114.499994
 31
0.0
  0
ARC
  5
1DB94
  8
DANMEN
  6
CONTINUOUS
 10
270.0
 20
65.499997
 30
0.0
 40
2.0
 50
179.999981
 51
270.000018
  0
LINE
  5
1DB95
  8
DANMEN
  6
CONTINUOUS
 10
263.5
 20
102.5
 30
0.0
 11
268.0
 21
102.5
 31
0.0
  0
LINE
  5
1DB96
  8
DANMEN
  6
CONTINUOUS
 10
263.5
 20
91.5
 30
0.0
 11
268.0
 21
91.5
 31
0.0
  0
LINE
  5
1DB97
  8
DANMEN
  6
CONTINUOUS
 10
263.5
 20
93.15
 30
0.0
 11
268.0
 21
93.15
 31
0.0
  0
LINE
  5
1DB98
  8
DANMEN
  6
CONTINUOUS
 10
202.5
 20
91.499997
 30
0.0
 11
260.0
 21
91.499997
 31
0.0
  0
LINE
  5
1DB99
  8
DANMEN
  6
CONTINUOUS
 10
202.5
 20
93.149997
 30
0.0
 11
260.0
 21
93.149997
 31
0.0
  0
ARC
  5
1DB9A
  8
DANMEN
  6
CONTINUOUS
 10
202.5
 20
91.999997
 30
0.0
 40
0.5
 50
270.000018
 51
359.999981
  0
ARC
  5
1DB9D
  8
DANMEN
  6
CONTINUOUS
 10
202.5
 20
92.649991
 30
0.0
 40
0.5
 50
359.999981
 51
89.999982
  0
LINE
  5
1DB9E
  8
DANMEN
  6
CONTINUOUS
 10
203.0
 20
92.649991
 30
0.0
 11
203.0
 21
91.999997
 31
0.0
  0
LINE
  5
1DBA0
  8
DANMEN
  6
CONTINUOUS
 10
271.5
 20
85.499997
 30
0.0
 11
273.0
 21
70.499997
 31
0.0
  0
LINE
  5
1DBA1
  8
DANMEN
  6
CONTINUOUS
 10
314.5
 20
85.499997
 30
0.0
 11
313.0
 21
70.499997
 31
0.0
  0
LINE
  5
1DBA2
  8
DANMEN
  6
CONTINUOUS
 10
318.0
 20
65.499997
 30
0.0
 11
318.0
 21
99.499997
 31
0.0
  0
LINE
  5
1DBA3
  8
DANMEN
  6
CONTINUOUS
 10
313.0
 20
70.499997
 30
0.0
 11
273.0
 21
70.499997
 31
0.0
  0
LINE
  5
1DBA4
  8
DANMEN
  6
CONTINUOUS
 10
316.0
 20
63.499997
 30
0.0
 11
270.0
 21
63.499997
 31
0.0
  0
ARC
  5
1DBA6
  8
DANMEN
  6
CONTINUOUS
 10
316.0
 20
65.499997
 30
0.0
 40
2.0
 50
270.000018
 51
0.0
  0
LINE
  5
1DBA8
  8
DANMEN
  6
CONTINUOUS
 10
314.5
 20
95.499997
 30
0.0
 11
271.5
 21
95.499997
 31
0.0
  0
LINE
  5
1DBA9
  8
DANMEN
  6
CONTINUOUS
 10
300.211146
 20
120.10557
 30
0.0
 11
300.745423
 21
120.406572
 31
0.0
  0
LINE
  5
1DBAA
  8
DANMEN
  6
CONTINUOUS
 10
315.500003
 20
97.499994
 30
0.0
 11
293.0
 21
97.499994
 31
0.0
  0
LINE
  5
1DBAB
  8
DANMEN
  6
CONTINUOUS
 10
301.3
 20
119.999997
 30
0.0
 11
299.3
 21
119.999997
 31
0.0
  0
LINE
  5
1DBAC
  8
DANMEN
  6
CONTINUOUS
 10
302.3
 20
118.799997
 30
0.0
 11
298.401083
 21
118.799997
 31
0.0
  0
LINE
  5
1DBAD
  8
DANMEN
  6
CONTINUOUS
 10
293.0
 20
104.999991
 30
0.0
 11
306.0
 21
104.999991
 31
0.0
  0
LINE
  5
1DBAE
  8
DANMEN
  6
CONTINUOUS
 10
293.0
 20
114.999991
 30
0.0
 11
306.0
 21
114.999991
 31
0.0
  0
LINE
  5
1DBAF
  8
DANMEN
  6
CONTINUOUS
 10
306.0
 20
104.999991
 30
0.0
 11
293.0
 21
114.999991
 31
0.0
  0
LINE
  5
1DBB0
  8
DANMEN
  6
CONTINUOUS
 10
281.049997
 20
97.449994
 30
0.0
 11
281.049997
 21
100.499994
 31
0.0
  0
LINE
  5
1DBB1
  8
DANMEN
  6
CONTINUOUS
 10
293.0
 20
97.499994
 30
0.0
 11
293.0
 21
115.799991
 31
0.0
  0
LINE
  5
1DBB2
  8
DANMEN
  6
CONTINUOUS
 10
269.949997
 20
97.449994
 30
0.0
 11
269.949997
 21
119.549997
 31
0.0
  0
LINE
  5
1DBB3
  8
DANMEN
  6
CONTINUOUS
 10
271.5
 20
95.499997
 30
0.0
 11
271.5
 21
85.499997
 31
0.0
  0
LINE
  5
1DBB4
  8
DANMEN
  6
CONTINUOUS
 10
281.049997
 20
97.449994
 30
0.0
 11
269.949997
 21
97.449994
 31
0.0
  0
LINE
  5
1DBB8
  8
DANMEN
  6
CONTINUOUS
 10
290.500003
 20
97.999994
 30
0.0
 11
282.249997
 21
97.999994
 31
0.0
  0
LINE
  5
1DBB9
  8
DANMEN
  6
CONTINUOUS
 10
282.249997
 20
119.999997
 30
0.0
 11
290.500003
 21
119.999997
 31
0.0
  0
ARC
  5
1DBBA
  8
DANMEN
  6
CONTINUOUS
 10
281.749997
 20
99.999994
 30
0.0
 40
0.5
 50
0.0
 51
90.0
  0
LINE
  5
1DBBB
  8
DANMEN
  6
CONTINUOUS
 10
281.749997
 20
100.499994
 30
0.0
 11
281.049997
 21
100.499994
 31
0.0
  0
LINE
  5
1DBBC
  8
DANMEN
  6
CONTINUOUS
 10
282.249997
 20
97.999994
 30
0.0
 11
282.249997
 21
99.999994
 31
0.0
  0
LINE
  5
1DBBD
  8
DANMEN
  6
CONTINUOUS
 10
281.050003
 20
120.549997
 30
0.0
 11
269.649997
 21
120.549997
 31
0.0
  0
LINE
  5
1DBBF
  8
DANMEN
  6
CONTINUOUS
 10
269.649997
 20
119.549997
 30
0.0
 11
269.649997
 21
120.549997
 31
0.0
  0
LINE
  5
1DBC0
  8
DANMEN
  6
CONTINUOUS
 10
269.949997
 20
119.549997
 30
0.0
 11
269.649997
 21
119.549997
 31
0.0
  0
ARC
  5
1DBC1
  8
DANMEN
  6
CONTINUOUS
 10
281.749997
 20
117.999994
 30
0.0
 40
0.5
 50
270.0
 51
0.0
  0
LINE
  5
1DBC2
  8
DANMEN
  6
CONTINUOUS
 10
282.249997
 20
117.999994
 30
0.0
 11
282.249997
 21
119.999997
 31
0.0
  0
LINE
  5
1DBC3
  8
DANMEN
  6
CONTINUOUS
 10
281.049997
 20
117.499994
 30
0.0
 11
281.049997
 21
120.549997
 31
0.0
  0
LINE
  5
1DBC4
  8
DANMEN
  6
CONTINUOUS
 10
281.749997
 20
117.499994
 30
0.0
 11
281.049997
 21
117.499994
 31
0.0
  0
LINE
  5
1DBC7
  8
DANMEN
  6
CONTINUOUS
 10
290.500003
 20
97.999994
 30
0.0
 11
290.500003
 21
119.999997
 31
0.0
  0
LINE
  5
1DBC9
  8
DANMEN
  6
CONTINUOUS
 10
299.0
 20
120.499997
 30
0.0
 11
293.0
 21
120.499997
 31
0.0
  0
LINE
  5
1DBCA
  8
DANMEN
  6
CONTINUOUS
 10
299.0
 20
115.799991
 30
0.0
 11
293.0
 21
115.799991
 31
0.0
  0
LINE
  5
1DBCB
  8
DANMEN
  6
CONTINUOUS
 10
297.0
 20
116.999991
 30
0.0
 11
293.0
 21
116.999991
 31
0.0
  0
LINE
  5
1DBCC
  8
DANMEN
  6
CONTINUOUS
 10
298.401083
 20
118.799997
 30
0.0
 11
295.699105
 21
116.799997
 31
0.0
  0
LINE
  5
1DBCD
  8
DANMEN
  6
CONTINUOUS
 10
298.413121
 20
120.30188
 30
0.0
 11
295.436094
 21
118.098289
 31
0.0
  0
LINE
  5
1DBCE
  8
DANMEN
  6
CONTINUOUS
 10
293.0
 20
116.999991
 30
0.0
 11
293.0
 21
120.499997
 31
0.0
  0
LINE
  5
1DBCF
  8
DANMEN
  6
CONTINUOUS
 10
295.699105
 20
116.799997
 30
0.0
 11
294.499105
 21
116.799997
 31
0.0
  0
LINE
  5
1DBD0
  8
DANMEN
  6
CONTINUOUS
 10
293.588046
 20
118.115605
 30
0.0
 11
294.499105
 21
116.799997
 31
0.0
  0
LINE
  5
1DBD1
  8
DANMEN
  6
CONTINUOUS
 10
293.499105
 20
118.400263
 30
0.0
 11
293.499105
 21
118.400132
 31
0.0
  0
LINE
  5
1DBD2
  8
DANMEN
  6
CONTINUOUS
 10
293.999105
 20
118.900132
 30
0.0
 11
294.24247
 21
118.900132
 31
0.0
  0
ARC
  5
1DBD3
  8
DANMEN
  6
CONTINUOUS
 10
293.999105
 20
118.400263
 30
0.0
 40
0.5
 50
180.0
 51
214.702622
  0
ARC
  5
1DBD4
  8
DANMEN
  6
CONTINUOUS
 10
293.999105
 20
118.400132
 30
0.0
 40
0.5
 50
90.0
 51
180.0
  0
LINE
  5
1DBD5
  8
DANMEN
  6
CONTINUOUS
 10
294.653529
 20
118.684791
 30
0.0
 11
295.010975
 21
118.168624
 31
0.0
  0
ARC
  5
1DBD6
  8
DANMEN
  6
CONTINUOUS
 10
295.257611
 20
118.339419
 30
0.0
 40
0.3
 50
214.702622
 51
306.508792
  0
ARC
  5
1DBD7
  8
DANMEN
  6
CONTINUOUS
 10
294.24247
 20
118.400132
 30
0.0
 40
0.5
 50
34.702622
 51
90.0
  0
ARC
  5
1DBD8
  8
DANMEN
  6
CONTINUOUS
 10
298.5
 20
116.190089
 30
0.0
 40
0.5
 50
0.0
 51
78.690068
  0
LINE
  5
1DBD9
  8
DANMEN
  6
CONTINUOUS
 10
299.0
 20
116.190089
 30
0.0
 11
299.0
 21
115.799991
 31
0.0
  0
LINE
  5
1DBDA
  8
DANMEN
  6
CONTINUOUS
 10
299.3
 20
119.999997
 30
0.0
 11
299.763932
 21
119.999997
 31
0.0
  0
ARC
  5
1DBDB
  8
DANMEN
  6
CONTINUOUS
 10
299.763932
 20
120.999997
 30
0.0
 40
1.0
 50
270.0
 51
296.565051
  0
LINE
  5
1DBDC
  8
DANMEN
  6
CONTINUOUS
 10
299.0
 20
120.299997
 30
0.0
 11
299.0
 21
120.499997
 31
0.0
  0
ARC
  5
1DBDD
  8
DANMEN
  6
CONTINUOUS
 10
299.3
 20
120.299997
 30
0.0
 40
0.3
 50
180.0
 51
270.0
  0
LINE
  5
1DBDE
  8
DANMEN
  6
CONTINUOUS
 10
297.0
 20
116.999991
 30
0.0
 11
298.598058
 21
116.680379
 31
0.0
  0
LINE
  5
1DBDF
  8
DANMEN
  6
CONTINUOUS
 10
298.734315
 20
120.399997
 30
0.0
 11
298.710594
 21
120.399997
 31
0.0
  0
ARC
  5
1DBE0
  8
DANMEN
  6
CONTINUOUS
 10
298.710594
 20
119.899997
 30
0.0
 40
0.5
 50
90.0
 51
126.508792
  0
ARC
  5
1DBE1
  8
DANMEN
  6
CONTINUOUS
 10
299.3
 20
120.299997
 30
0.0
 40
0.3
 50
199.471221
 51
270.0
  0
ARC
  5
1DBE3
  8
DANMEN
  6
CONTINUOUS
 10
298.734315
 20
120.099997
 30
0.0
 40
0.3
 50
19.471221
 51
90.0
  0
LINE
  5
1DBE5
  8
DANMEN
  6
CONTINUOUS
 10
315.500003
 20
97.499994
 30
0.0
 11
315.500003
 21
98.699994
 31
0.0
  0
LINE
  5
1DBE6
  8
DANMEN
  6
CONTINUOUS
 10
314.5
 20
95.499997
 30
0.0
 11
314.5
 21
85.499997
 31
0.0
  0
LINE
  5
1DBE9
  8
DANMEN
  6
CONTINUOUS
 10
317.5
 20
99.999997
 30
0.0
 11
313.0
 21
99.999997
 31
0.0
  0
LINE
  5
1DBEA
  8
DANMEN
  6
CONTINUOUS
 10
317.499996
 20
119.999997
 30
0.0
 11
314.999997
 21
119.999997
 31
0.0
  0
LINE
  5
1DBEB
  8
DANMEN
  6
CONTINUOUS
 10
306.000002
 20
105.999997
 30
0.0
 11
306.000002
 21
113.999997
 31
0.0
  0
LINE
  5
1DBEC
  8
DANMEN
  6
CONTINUOUS
 10
306.000002
 20
104.999994
 30
0.0
 11
306.000002
 21
114.999994
 31
0.0
  0
LINE
  5
1DBED
  8
DANMEN
  6
CONTINUOUS
 10
306.0
 20
114.799991
 30
0.0
 11
306.0
 21
104.799991
 31
0.0
  0
ARC
  5
1DBF0
  8
DANMEN
  6
CONTINUOUS
 10
313.5
 20
99.699994
 30
0.0
 40
0.5
 50
180.0
 51
270.0
  0
LINE
  5
1DBF1
  8
DANMEN
  6
CONTINUOUS
 10
315.500003
 20
98.699994
 30
0.0
 11
313.5
 21
99.199994
 31
0.0
  0
LINE
  5
1DBF2
  8
DANMEN
  6
CONTINUOUS
 10
313.0
 20
99.699994
 30
0.0
 11
313.0
 21
99.999997
 31
0.0
  0
LINE
  5
1DBF3
  8
DANMEN
  6
CONTINUOUS
 10
312.999997
 20
120.549997
 30
0.0
 11
303.3
 21
120.549997
 31
0.0
  0
ARC
  5
1DBF7
  8
DANMEN
  6
CONTINUOUS
 10
300.5
 20
120.842196
 30
0.0
 40
0.5
 50
299.396173
 51
0.0
  0
ARC
  5
1DBF8
  8
DANMEN
  6
CONTINUOUS
 10
303.3
 20
120.049997
 30
0.0
 40
0.5
 50
90.0
 51
180.0
  0
LINE
  5
1DBF9
  8
DANMEN
  6
CONTINUOUS
 10
302.8
 20
120.049997
 30
0.0
 11
302.8
 21
119.299997
 31
0.0
  0
LINE
  5
1DBFA
  8
DANMEN
  6
CONTINUOUS
 10
301.3
 20
120.999997
 30
0.0
 11
301.3
 21
119.999997
 31
0.0
  0
LINE
  5
1DBFB
  8
DANMEN
  6
CONTINUOUS
 10
301.3
 20
120.999997
 30
0.0
 11
301.0
 21
120.999997
 31
0.0
  0
ARC
  5
1DBFC
  8
DANMEN
  6
CONTINUOUS
 10
302.3
 20
119.299997
 30
0.0
 40
0.5
 50
270.0
 51
0.0
  0
ARC
  5
1DBFD
  8
DANMEN
  6
CONTINUOUS
 10
314.499997
 20
120.049997
 30
0.0
 40
0.5
 50
90.0
 51
180.0
  0
LINE
  5
1DBFE
  8
DANMEN
  6
CONTINUOUS
 10
314.999997
 20
120.549997
 30
0.0
 11
314.999997
 21
119.999997
 31
0.0
  0
LINE
  5
1DBFF
  8
DANMEN
  6
CONTINUOUS
 10
314.999997
 20
120.549997
 30
0.0
 11
314.499997
 21
120.549997
 31
0.0
  0
LINE
  5
1DC00
  8
DANMEN
  6
CONTINUOUS
 10
313.999997
 20
119.999997
 30
0.0
 11
312.999997
 21
119.999997
 31
0.0
  0
LINE
  5
1DC01
  8
DANMEN
  6
CONTINUOUS
 10
313.999997
 20
120.049997
 30
0.0
 11
313.999997
 21
119.999997
 31
0.0
  0
LINE
  5
1DC02
  8
DANMEN
  6
CONTINUOUS
 10
312.999997
 20
120.549997
 30
0.0
 11
312.999997
 21
119.999997
 31
0.0
  0
ARC
  5
1DC03
  8
DANMEN
  6
CONTINUOUS
 10
322.000001
 20
103.499984
 30
0.0
 40
1.5
 50
90.00003
 51
180.000012
  0
ARC
  5
1DC04
  8
DANMEN
  6
CONTINUOUS
 10
319.000001
 20
100.499994
 30
0.0
 40
1.5
 50
269.999994
 51
359.999977
  0
LINE
  5
1DC05
  8
DANMEN
  6
CONTINUOUS
 10
320.500001
 20
103.499984
 30
0.0
 11
320.500001
 21
100.499994
 31
0.0
  0
LINE
  5
1DC06
  8
DANMEN
  6
CONTINUOUS
 10
318.000001
 20
98.999994
 30
0.0
 11
319.000001
 21
98.999994
 31
0.0
  0
ARC
  5
1DC09
  8
DANMEN
  6
CONTINUOUS
 10
317.5
 20
99.499997
 30
0.0
 40
0.5
 50
0.000019
 51
89.999982
  0
ARC
  5
1DC0A
  8
DANMEN
  6
CONTINUOUS
 10
322.000002
 20
116.499988
 30
0.0
 40
1.5
 50
180.000012
 51
269.999994
  0
LINE
  5
1DC0C
  8
DANMEN
  6
CONTINUOUS
 10
320.500003
 20
119.499994
 30
0.0
 11
320.500002
 21
116.499988
 31
0.0
  0
LINE
  5
1DC0D
  8
DANMEN
  6
CONTINUOUS
 10
318.000003
 20
120.999994
 30
0.0
 11
319.000003
 21
120.999994
 31
0.0
  0
ARC
  5
1DC0F
  8
DANMEN
  6
CONTINUOUS
 10
317.499997
 20
120.499997
 30
0.0
 40
0.5
 50
270.0
 51
0.0
  0
LINE
  5
1DC10
  8
SUNPO
  6
CONTINUOUS
 10
42.0
 20
35.0
 30
0.0
 11
42.0
 21
17.5
 31
0.0
  0
LINE
  5
1DC11
  8
SUNPO
  6
CONTINUOUS
 10
22.0
 20
27.5
 30
0.0
 11
22.0
 21
36.5
 31
0.0
  0
LINE
  5
1DC12
  8
SUNPO
  6
CONTINUOUS
 10
52.5
 20
27.5
 30
0.0
 11
22.0
 21
27.5
 31
0.0
  0
ARC
  5
1DC13
  8
SUNPO
  6
BYBLOCK
 10
22.0
 20
27.5
 30
0.0
 40
0.145
 50
270.0
 51
90.0
  0
ARC
  5
1DC14
  8
SUNPO
  6
BYBLOCK
 10
22.0
 20
27.5
 30
0.0
 40
0.145
 50
90.0
 51
270.0
  0
TEXT
  5
1DC15
  8
SUNPO
  6
CONTINUOUS
 10
46.333333
 20
18.5
 30
0.0
 40
2.5
  1
12
  7
MX_NOTE_STANDARD
  0
LINE
  5
1DC16
  8
SUNPO
  6
CONTINUOUS
 10
42.0
 20
17.5
 30
0.0
 11
54.0
 21
17.5
 31
0.0
  0
ARC
  5
1DC17
  8
SUNPO
  6
BYBLOCK
 10
42.0
 20
17.5
 30
0.0
 40
0.145
 50
180.0
 51
0.0
  0
ARC
  5
1DC18
  8
SUNPO
  6
BYBLOCK
 10
42.0
 20
17.5
 30
0.0
 40
0.145
 50
0.0
 51
180.0
  0
LINE
  5
1DC19
  8
SUNPO
  6
CONTINUOUS
 10
54.0
 20
26.0
 30
0.0
 11
54.0
 21
17.5
 31
0.0
  0
ARC
  5
1DC1A
  8
SUNPO
  6
BYBLOCK
 10
54.0
 20
17.5
 30
0.0
 40
0.145
 50
0.0
 51
180.0
  0
ARC
  5
1DC1B
  8
SUNPO
  6
BYBLOCK
 10
54.0
 20
17.5
 30
0.0
 40
0.145
 50
180.0
 51
0.0
  0
LINE
  5
1DC1C
  8
DANMEN
  6
CONTINUOUS
 10
373.0
 20
95.499994
 30
0.0
 11
358.5
 21
95.499994
 31
0.0
  0
LINE
  5
1DC1D
  8
DANMEN
  6
CONTINUOUS
 10
374.15
 20
97.149991
 30
0.0
 11
359.2
 21
97.149991
 31
0.0
  0
LINE
  5
1DC1E
  8
DANMEN
  6
CONTINUOUS
 10
363.000003
 20
120.55
 30
0.0
 11
372.7
 21
120.55
 31
0.0
  0
LINE
  5
1DC1F
  8
DANMEN
  6
CONTINUOUS
 10
339.5
 20
91.5
 30
0.0
 11
373.0
 21
91.5
 31
0.0
  0
LINE
  5
1DC20
  8
DANMEN
  6
CONTINUOUS
 10
339.5
 20
93.15
 30
0.0
 11
373.0
 21
93.15
 31
0.0
  0
LINE
  5
1DC21
  8
DANMEN
  6
CONTINUOUS
 10
370.000001
 20
105.499997
 30
0.0
 11
339.5
 21
105.499997
 31
0.0
  0
LINE
  5
1DC22
  8
DANMEN
  6
CONTINUOUS
 10
370.000001
 20
114.499997
 30
0.0
 11
352.263872
 21
114.499997
 31
0.0
  0
LINE
  5
1DC23
  8
DANMEN
  6
CONTINUOUS
 10
370.000001
 20
114.999997
 30
0.0
 11
352.35104
 21
114.999997
 31
0.0
  0
LINE
  5
1DC24
  8
DANMEN
  6
CONTINUOUS
 10
370.000001
 20
104.999997
 30
0.0
 11
339.5
 21
104.999997
 31
0.0
  0
LINE
  5
1DC25
  8
DANMEN
  6
CONTINUOUS
 10
358.0
 20
95.999994
 30
0.0
 11
358.0
 21
99.499994
 31
0.0
  0
LINE
  5
1DC26
  8
DANMEN
  6
CONTINUOUS
 10
359.2
 20
97.149991
 30
0.0
 11
359.2
 21
98.999994
 31
0.0
  0
LINE
  5
1DC27
  8
DANMEN
  6
CONTINUOUS
 10
339.5
 20
97.6
 30
0.0
 11
349.176704
 21
97.6
 31
0.0
  0
LINE
  5
1DC28
  8
DANMEN
  6
CONTINUOUS
 10
352.176704
 20
97.6
 30
0.0
 11
358.0
 21
97.6
 31
0.0
  0
ARC
  5
1DC29
  8
DANMEN
  6
CONTINUOUS
 10
358.5
 20
95.999994
 30
0.0
 40
0.5
 50
180.0
 51
270.0
  0
LINE
  5
1DC2A
  8
DANMEN
  6
CONTINUOUS
 10
339.5
 20
99.0
 30
0.0
 11
349.176704
 21
99.0
 31
0.0
  0
LINE
  5
1DC2B
  8
DANMEN
  6
CONTINUOUS
 10
349.263872
 20
114.499997
 30
0.0
 11
339.5
 21
114.499997
 31
0.0
  0
LINE
  5
1DC2C
  8
DANMEN
  6
CONTINUOUS
 10
349.35104
 20
114.999997
 30
0.0
 11
339.5
 21
114.999997
 31
0.0
  0
LINE
  5
1DC2D
  8
DANMEN
  6
CONTINUOUS
 10
358.000001
 20
98.999997
 30
0.0
 11
357.000001
 21
98.999997
 31
0.0
  0
LINE
  5
1DC2E
  8
DANMEN
  6
CONTINUOUS
 10
352.176704
 20
99.0
 30
0.0
 11
358.0
 21
99.0
 31
0.0
  0
ARC
  5
1DC2F
  8
DANMEN
  6
CONTINUOUS
 10
354.000001
 20
103.500003
 30
0.0
 40
1.5
 50
0.000018
 51
90.0
  0
LINE
  5
1DC30
  8
DANMEN
  6
CONTINUOUS
 10
355.500001
 20
100.499997
 30
0.0
 11
355.500001
 21
103.500003
 31
0.0
  0
ARC
  5
1DC31
  8
DANMEN
  6
CONTINUOUS
 10
357.000001
 20
100.499997
 30
0.0
 40
1.5
 50
179.999999
 51
270.000036
  0
LINE
  5
1DC33
  8
DANMEN
  6
CONTINUOUS
 10
358.5
 20
99.999994
 30
0.0
 11
363.0
 21
99.999994
 31
0.0
  0
LINE
  5
1DC34
  8
DANMEN
  6
CONTINUOUS
 10
359.2
 20
98.999994
 30
0.0
 11
362.5
 21
98.999994
 31
0.0
  0
ARC
  5
1DC35
  8
DANMEN
  6
CONTINUOUS
 10
358.5
 20
99.499994
 30
0.0
 40
0.5
 50
90.000018
 51
179.999981
  0
LINE
  5
1DC36
  8
DANMEN
  6
CONTINUOUS
 10
363.0
 20
99.499994
 30
0.0
 11
363.0
 21
99.999994
 31
0.0
  0
ARC
  5
1DC37
  8
DANMEN
  6
CONTINUOUS
 10
362.5
 20
99.499994
 30
0.0
 40
0.5
 50
270.0
 51
0.0
  0
LINE
  5
1DC38
  8
DANMEN
  6
CONTINUOUS
 10
358.000001
 20
120.999997
 30
0.0
 11
357.000001
 21
120.999997
 31
0.0
  0
ARC
  5
1DC39
  8
DANMEN
  6
CONTINUOUS
 10
354.000001
 20
116.500006
 30
0.0
 40
1.5
 50
270.000036
 51
0.000018
  0
LINE
  5
1DC3A
  8
DANMEN
  6
CONTINUOUS
 10
355.500001
 20
116.500006
 30
0.0
 11
355.500001
 21
119.499997
 31
0.0
  0
ARC
  5
1DC3D
  8
DANMEN
  6
CONTINUOUS
 10
361.500003
 20
120.05
 30
0.0
 40
0.5
 50
0.0
 51
90.0
  0
LINE
  5
1DC3F
  8
DANMEN
  6
CONTINUOUS
 10
358.500004
 20
120.0
 30
0.0
 11
361.000003
 21
120.0
 31
0.0
  0
ARC
  5
1DC40
  8
DANMEN
  6
CONTINUOUS
 10
358.500003
 20
120.5
 30
0.0
 40
0.5
 50
180.0
 51
270.0
  0
LINE
  5
1DC41
  8
DANMEN
  6
CONTINUOUS
 10
361.000003
 20
120.55
 30
0.0
 11
361.500003
 21
120.55
 31
0.0
  0
LINE
  5
1DC42
  8
DANMEN
  6
CONTINUOUS
 10
361.000003
 20
120.55
 30
0.0
 11
361.000003
 21
120.0
 31
0.0
  0
LINE
  5
1DC43
  8
DANMEN
  6
CONTINUOUS
 10
363.000003
 20
120.55
 30
0.0
 11
363.000003
 21
120.0
 31
0.0
  0
LINE
  5
1DC44
  8
DANMEN
  6
CONTINUOUS
 10
362.000003
 20
120.05
 30
0.0
 11
362.000003
 21
120.0
 31
0.0
  0
LINE
  5
1DC45
  8
DANMEN
  6
CONTINUOUS
 10
362.000003
 20
120.0
 30
0.0
 11
363.000003
 21
120.0
 31
0.0
  0
LINE
  5
1DC46
  8
DANMEN
  6
CONTINUOUS
 10
388.0
 20
120.849994
 30
0.0
 11
388.0
 21
92.699997
 31
0.0
  0
LINE
  5
1DC47
  8
DANMEN
  6
CONTINUOUS
 10
386.0
 20
93.149994
 30
0.0
 11
374.65
 21
93.149994
 31
0.0
  0
LINE
  5
1DC48
  8
DANMEN
  6
CONTINUOUS
 10
397.5
 20
91.5
 30
0.0
 11
373.5
 21
91.5
 31
0.0
  0
ARC
  5
1DC49
  8
DANMEN
  6
CONTINUOUS
 10
374.15
 20
96.649991
 30
0.0
 40
0.5
 50
0.0
 51
90.0
  0
ARC
  5
1DC4A
  8
DANMEN
  6
CONTINUOUS
 10
373.5
 20
92.0
 30
0.0
 40
0.5
 50
179.999981
 51
269.999963
  0
LINE
  5
1DC4C
  8
DANMEN
  6
CONTINUOUS
 10
373.0
 20
92.0
 30
0.0
 11
373.0
 21
95.499994
 31
0.0
  0
LINE
  5
1DC4D
  8
DANMEN
  6
CONTINUOUS
 10
374.65
 20
93.149994
 30
0.0
 11
374.65
 21
96.649991
 31
0.0
  0
LINE
  5
1DC4E
  8
DANMEN
  6
CONTINUOUS
 10
396.350006
 20
93.149994
 30
0.0
 11
389.649994
 21
93.149994
 31
0.0
  0
LINE
  5
1DC4F
  8
DANMEN
  6
CONTINUOUS
 10
388.0
 20
92.699997
 30
0.0
 11
386.0
 21
92.699997
 31
0.0
  0
LINE
  5
1DC50
  8
DANMEN
  6
CONTINUOUS
 10
386.0
 20
92.699997
 30
0.0
 11
386.0
 21
93.149994
 31
0.0
  0
ARC
  5
1DC51
  8
DANMEN
  6
CONTINUOUS
 10
397.5
 20
92.0
 30
0.0
 40
0.5
 50
270.000018
 51
359.999981
  0
LINE
  5
1DC52
  8
DANMEN
  6
CONTINUOUS
 10
397.5
 20
97.5
 30
0.0
 11
396.850006
 21
97.5
 31
0.0
  0
LINE
  5
1DC53
  8
DANMEN
  6
CONTINUOUS
 10
398.0
 20
97.0
 30
0.0
 11
398.0
 21
92.0
 31
0.0
  0
LINE
  5
1DC54
  8
DANMEN
  6
CONTINUOUS
 10
396.350006
 20
97.0
 30
0.0
 11
396.350006
 21
93.149994
 31
0.0
  0
ARC
  5
1DC55
  8
DANMEN
  6
CONTINUOUS
 10
396.850006
 20
97.0
 30
0.0
 40
0.5
 50
90.000037
 51
180.000019
  0
ARC
  5
1DC56
  8
DANMEN
  6
CONTINUOUS
 10
397.5
 20
97.0
 30
0.0
 40
0.5
 50
359.999981
 51
90.000037
  0
LINE
  5
1DC57
  8
DANMEN
  6
CONTINUOUS
 10
379.0
 20
116.999988
 30
0.0
 11
383.0
 21
116.999988
 31
0.0
  0
LINE
  5
1DC58
  8
DANMEN
  6
CONTINUOUS
 10
377.0
 20
120.849994
 30
0.0
 11
383.0
 21
120.849994
 31
0.0
  0
LINE
  5
1DC59
  8
DANMEN
  6
CONTINUOUS
 10
377.0
 20
115.799988
 30
0.0
 11
383.3
 21
115.799988
 31
0.0
  0
ARC
  5
1DC5A
  8
DANMEN
  6
CONTINUOUS
 10
382.000895
 20
118.400136
 30
0.0
 40
0.5
 50
0.0
 51
90.0
  0
ARC
  5
1DC5B
  8
DANMEN
  6
CONTINUOUS
 10
382.000895
 20
118.400266
 30
0.0
 40
0.5
 50
325.297378
 51
0.0
  0
LINE
  5
1DC5C
  8
DANMEN
  6
CONTINUOUS
 10
370.000001
 20
114.999997
 30
0.0
 11
370.000001
 21
104.999997
 31
0.0
  0
LINE
  5
1DC5E
  8
DANMEN
  6
CONTINUOUS
 10
373.7
 20
118.8
 30
0.0
 11
377.598917
 21
118.8
 31
0.0
  0
ARC
  5
1DC62
  8
DANMEN
  6
CONTINUOUS
 10
373.7
 20
119.3
 30
0.0
 40
0.5
 50
180.0
 51
270.0
  0
LINE
  5
1DC63
  8
DANMEN
  6
CONTINUOUS
 10
373.2
 20
120.05
 30
0.0
 11
373.2
 21
119.3
 31
0.0
  0
ARC
  5
1DC64
  8
DANMEN
  6
CONTINUOUS
 10
372.7
 20
120.05
 30
0.0
 40
0.5
 50
0.0
 51
90.0
  0
LINE
  5
1DC65
  8
DANMEN
  6
CONTINUOUS
 10
379.0
 20
116.999988
 30
0.0
 11
377.401942
 21
116.680376
 31
0.0
  0
LINE
  5
1DC66
  8
DANMEN
  6
CONTINUOUS
 10
377.586879
 20
120.301883
 30
0.0
 11
380.563906
 21
118.098292
 31
0.0
  0
LINE
  5
1DC67
  8
DANMEN
  6
CONTINUOUS
 10
377.598917
 20
118.8
 30
0.0
 11
380.300895
 21
116.8
 31
0.0
  0
LINE
  5
1DC68
  8
DANMEN
  6
CONTINUOUS
 10
375.808854
 20
120.105567
 30
0.0
 11
375.254577
 21
120.356569
 31
0.0
  0
ARC
  5
1DC69
  8
DANMEN
  6
CONTINUOUS
 10
377.5
 20
116.190086
 30
0.0
 40
0.5
 50
101.309932
 51
180.0
  0
LINE
  5
1DC6A
  8
DANMEN
  6
CONTINUOUS
 10
377.0
 20
116.190086
 30
0.0
 11
377.0
 21
115.799988
 31
0.0
  0
ARC
  5
1DC6B
  8
DANMEN
  6
CONTINUOUS
 10
376.7
 20
120.299994
 30
0.0
 40
0.3
 50
270.0
 51
0.0
  0
LINE
  5
1DC6C
  8
DANMEN
  6
CONTINUOUS
 10
377.0
 20
120.299994
 30
0.0
 11
377.0
 21
120.849994
 31
0.0
  0
ARC
  5
1DC6D
  8
DANMEN
  6
CONTINUOUS
 10
376.256068
 20
120.999994
 30
0.0
 40
1.0
 50
243.434949
 51
270.0
  0
LINE
  5
1DC6E
  8
DANMEN
  6
CONTINUOUS
 10
376.7
 20
119.999994
 30
0.0
 11
376.256068
 21
119.999994
 31
0.0
  0
ARC
  5
1DC6F
  8
DANMEN
  6
CONTINUOUS
 10
375.5
 20
120.792193
 30
0.0
 40
0.5
 50
180.0
 51
240.603827
  0
ARC
  5
1DC71
  8
DANMEN
  6
CONTINUOUS
 10
377.265685
 20
120.1
 30
0.0
 40
0.3
 50
90.0
 51
160.528779
  0
ARC
  5
1DC73
  8
DANMEN
  6
CONTINUOUS
 10
376.7
 20
120.3
 30
0.0
 40
0.3
 50
270.0
 51
340.528779
  0
ARC
  5
1DC74
  8
DANMEN
  6
CONTINUOUS
 10
377.289406
 20
119.9
 30
0.0
 40
0.5
 50
53.491208
 51
90.0
  0
LINE
  5
1DC75
  8
DANMEN
  6
CONTINUOUS
 10
377.265685
 20
120.4
 30
0.0
 11
377.289406
 21
120.4
 31
0.0
  0
LINE
  5
1DC76
  8
DANMEN
  6
CONTINUOUS
 10
374.7
 20
121.0
 30
0.0
 11
375.0
 21
121.0
 31
0.0
  0
LINE
  5
1DC77
  8
DANMEN
  6
CONTINUOUS
 10
374.7
 20
121.0
 30
0.0
 11
374.7
 21
120.0
 31
0.0
  0
LINE
  5
1DC78
  8
DANMEN
  6
CONTINUOUS
 10
374.7
 20
120.0
 30
0.0
 11
376.7
 21
120.0
 31
0.0
  0
ARC
  5
1DC79
  8
DANMEN
  6
CONTINUOUS
 10
381.75753
 20
118.400136
 30
0.0
 40
0.5
 50
90.0
 51
145.297378
  0
ARC
  5
1DC7A
  8
DANMEN
  6
CONTINUOUS
 10
380.742389
 20
118.339422
 30
0.0
 40
0.3
 50
233.491208
 51
325.297378
  0
LINE
  5
1DC7B
  8
DANMEN
  6
CONTINUOUS
 10
381.346471
 20
118.684794
 30
0.0
 11
380.989025
 21
118.168627
 31
0.0
  0
LINE
  5
1DC7C
  8
DANMEN
  6
CONTINUOUS
 10
382.000895
 20
118.900136
 30
0.0
 11
381.75753
 21
118.900136
 31
0.0
  0
LINE
  5
1DC7D
  8
DANMEN
  6
CONTINUOUS
 10
382.411954
 20
118.115608
 30
0.0
 11
381.500895
 21
116.8
 31
0.0
  0
LINE
  5
1DC7E
  8
DANMEN
  6
CONTINUOUS
 10
380.300895
 20
116.8
 30
0.0
 11
381.500895
 21
116.8
 31
0.0
  0
LINE
  5
1DC7F
  8
DANMEN
  6
CONTINUOUS
 10
388.0
 20
120.849994
 30
0.0
 11
384.3
 21
120.849994
 31
0.0
  0
ARC
  5
1DC81
  8
DANMEN
  6
CONTINUOUS
 10
383.3
 20
116.799988
 30
0.0
 40
1.0
 50
270.0
 51
0.0
  0
LINE
  5
1DC82
  8
DANMEN
  6
CONTINUOUS
 10
384.3
 20
116.799988
 30
0.0
 11
384.3
 21
120.849994
 31
0.0
  0
LINE
  5
1DC83
  8
DANMEN
  6
CONTINUOUS
 10
383.0
 20
116.999988
 30
0.0
 11
383.0
 21
120.849994
 31
0.0
  0
LINE
  5
1DC84
  8
DANMEN
  6
CONTINUOUS
 10
382.500895
 20
118.400266
 30
0.0
 11
382.500895
 21
118.400136
 31
0.0
  0
LINE
  5
1DC86
  8
SUNPO
  6
CONTINUOUS
 10
40.5
 20
36.5
 30
0.0
 11
22.0
 21
36.5
 31
0.0
  0
LINE
  5
1DC87
  8
SUNPO
  6
CONTINUOUS
 10
22.0
 20
36.5
 30
0.0
 11
22.0
 21
56.5
 31
0.0
  0
TEXT
  5
1DC88
  8
SUNPO
  6
CONTINUOUS
 10
21.0
 20
31.166667
 30
0.0
 40
2.5
  1
9
 50
90.0
  7
MX_NOTE_STANDARD
  0
ARC
  5
1DC89
  8
SUNPO
  6
BYBLOCK
 10
22.0
 20
36.5
 30
0.0
 40
0.145
 50
270.0
 51
90.0
  0
ARC
  5
1DC8A
  8
SUNPO
  6
BYBLOCK
 10
22.0
 20
36.5
 30
0.0
 40
0.145
 50
90.0
 51
270.0
  0
ARC
  5
1DC8B
  8
SUNPO
  6
BYBLOCK
 10
22.0
 20
36.5
 30
0.0
 40
0.145
 50
90.0
 51
270.0
  0
ARC
  5
1DC8C
  8
SUNPO
  6
BYBLOCK
 10
22.0
 20
36.5
 30
0.0
 40
0.145
 50
270.0
 51
90.0
  0
TEXT
  5
1DC8D
  8
SUNPO
  6
CONTINUOUS
 10
21.0
 20
44.625
 30
0.0
 40
2.5
  1
20
 50
90.0
  7
MX_NOTE_STANDARD
  0
TEXT
  5
1DC8E
  8
SUNPO
  6
CONTINUOUS
 10
31.0
 20
40.833333
 30
0.0
 40
2.5
  1
12
 50
90.0
  7
MX_NOTE_STANDARD
  0
ARC
  5
1DC8F
  8
SUNPO
  6
BYBLOCK
 10
22.0
 20
56.5
 30
0.0
 40
0.145
 50
90.0
 51
270.0
  0
ARC
  5
1DC90
  8
SUNPO
  6
BYBLOCK
 10
22.0
 20
56.5
 30
0.0
 40
0.145
 50
270.0
 51
90.0
  0
ARC
  5
1DC91
  8
SUNPO
  6
BYBLOCK
 10
22.0
 20
56.5
 30
0.0
 40
0.145
 50
270.0
 51
90.0
  0
ARC
  5
1DC92
  8
SUNPO
  6
BYBLOCK
 10
22.0
 20
56.5
 30
0.0
 40
0.145
 50
90.0
 51
270.0
  0
TEXT
  5
1DC93
  8
SUNPO
  6
CONTINUOUS
 10
31.0
 20
51.666667
 30
0.0
 40
2.5
  1
8
 50
90.0
  7
MX_NOTE_STANDARD
  0
TEXT
  5
1DC94
  8
SUNPO
  6
CONTINUOUS
 10
31.0
 20
59.166667
 30
0.0
 40
2.5
  1
7
 50
90.0
  7
MX_NOTE_STANDARD
  0
LINE
  5
1DC95
  8
SUNPO
  6
CONTINUOUS
 10
32.0
 20
48.5
 30
0.0
 11
32.0
 21
56.5
 31
0.0
  0
LINE
  5
1DC96
  8
SUNPO
  6
CONTINUOUS
 10
32.0
 20
48.5
 30
0.0
 11
32.0
 21
36.5
 31
0.0
  0
ARC
  5
1DC97
  8
SUNPO
  6
BYBLOCK
 10
32.0
 20
36.5
 30
0.0
 40
0.145
 50
270.0
 51
90.0
  0
ARC
  5
1DC98
  8
SUNPO
  6
BYBLOCK
 10
32.0
 20
36.5
 30
0.0
 40
0.145
 50
90.0
 51
270.0
  0
LINE
  5
1DC99
  8
SUNPO
  6
CONTINUOUS
 10
40.5
 20
48.5
 30
0.0
 11
32.0
 21
48.5
 31
0.0
  0
ARC
  5
1DC9A
  8
SUNPO
  6
BYBLOCK
 10
32.0
 20
48.5
 30
0.0
 40
0.145
 50
270.0
 51
90.0
  0
ARC
  5
1DC9B
  8
SUNPO
  6
BYBLOCK
 10
32.0
 20
48.5
 30
0.0
 40
0.145
 50
90.0
 51
270.0
  0
ARC
  5
1DC9C
  8
SUNPO
  6
BYBLOCK
 10
32.0
 20
48.5
 30
0.0
 40
0.145
 50
90.0
 51
270.0
  0
ARC
  5
1DC9D
  8
SUNPO
  6
BYBLOCK
 10
32.0
 20
48.5
 30
0.0
 40
0.145
 50
270.0
 51
90.0
  0
LINE
  5
1DC9E
  8
SUNPO
  6
CONTINUOUS
 10
32.0
 20
63.5
 30
0.0
 11
32.0
 21
56.5
 31
0.0
  0
ARC
  5
1DC9F
  8
SUNPO
  6
BYBLOCK
 10
32.0
 20
56.5
 30
0.0
 40
0.145
 50
270.0
 51
90.0
  0
ARC
  5
1DCA0
  8
SUNPO
  6
BYBLOCK
 10
32.0
 20
56.5
 30
0.0
 40
0.145
 50
90.0
 51
270.0
  0
ARC
  5
1DCA1
  8
SUNPO
  6
BYBLOCK
 10
32.0
 20
56.5
 30
0.0
 40
0.145
 50
90.0
 51
270.0
  0
ARC
  5
1DCA2
  8
SUNPO
  6
BYBLOCK
 10
32.0
 20
56.5
 30
0.0
 40
0.145
 50
270.0
 51
90.0
  0
LINE
  5
1DCA3
  8
SUNPO
  6
CONTINUOUS
 10
40.5
 20
63.5
 30
0.0
 11
32.0
 21
63.5
 31
0.0
  0
ARC
  5
1DCA4
  8
SUNPO
  6
BYBLOCK
 10
32.0
 20
63.5
 30
0.0
 40
0.145
 50
90.0
 51
270.0
  0
ARC
  5
1DCA5
  8
SUNPO
  6
BYBLOCK
 10
32.0
 20
63.5
 30
0.0
 40
0.145
 50
270.0
 51
90.0
  0
TEXT
  5
1DCA6
  8
SUNPO
  6
CONTINUOUS
 10
21.0
 20
105.291667
 30
0.0
 40
2.5
  1
103
 50
90.0
  7
MX_NOTE_STANDARD
  0
TEXT
  5
1DCA7
  8
SUNPO
  6
CONTINUOUS
 10
193.833333
 20
55.999997
 30
0.0
 40
2.5
  1
15
  7
MX_NOTE_STANDARD
  0
LINE
  5
1DCA8
  8
SUNPO
  6
CONTINUOUS
 10
203.0
 20
34.999997
 30
0.0
 11
178.0
 21
34.999997
 31
0.0
  0
LINE
  5
1DCA9
  8
SUNPO
  6
CONTINUOUS
 10
203.0
 20
54.999997
 30
0.0
 11
188.0
 21
54.999997
 31
0.0
  0
LINE
  5
1DCAA
  8
SUNPO
  6
CONTINUOUS
 10
163.0
 20
36.5
 30
0.0
 11
163.0
 21
27.5
 31
0.0
  0
ARC
  5
1DCAB
  8
SUNPO
  6
BYBLOCK
 10
163.0
 20
27.5
 30
0.0
 40
0.145
 50
90.0
 51
270.0
  0
ARC
  5
1DCAC
  8
SUNPO
  6
BYBLOCK
 10
163.0
 20
27.5
 30
0.0
 40
0.145
 50
270.0
 51
90.0
  0
LINE
  5
1DCAD
  8
SUNPO
  6
CONTINUOUS
 10
113.5
 20
61.5
 30
0.0
 11
153.0
 21
61.5
 31
0.0
  0
LINE
  5
1DCAE
  8
SUNPO
  6
CONTINUOUS
 10
113.5
 20
36.5
 30
0.0
 11
163.0
 21
36.5
 31
0.0
  0
LINE
  5
1DCAF
  8
SUNPO
  6
CONTINUOUS
 10
113.5
 20
96.5
 30
0.0
 11
163.0
 21
96.5
 31
0.0
  0
LINE
  5
1DCB0
  8
SUNPO
  6
CONTINUOUS
 10
153.0
 20
96.5
 30
0.0
 11
153.0
 21
61.5
 31
0.0
  0
LINE
  5
1DCB1
  8
SUNPO
  6
CONTINUOUS
 10
163.0
 20
96.5
 30
0.0
 11
163.0
 21
36.5
 31
0.0
  0
LINE
  5
1DCB2
  8
SUNPO
  6
CONTINUOUS
 10
178.0
 20
89.999997
 30
0.0
 11
178.0
 21
34.999997
 31
0.0
  0
LINE
  5
1DCB3
  8
SUNPO
  6
CONTINUOUS
 10
188.0
 20
89.999997
 30
0.0
 11
188.0
 21
54.999997
 31
0.0
  0
ARC
  5
1DCB4
  8
SUNPO
  6
BYBLOCK
 10
163.0
 20
36.5
 30
0.0
 40
0.15625
 50
90.0
 51
270.0
  0
ARC
  5
1DCB5
  8
SUNPO
  6
BYBLOCK
 10
163.0
 20
36.5
 30
0.0
 40
0.145
 50
90.0
 51
270.0
  0
LINE
  5
1DCB6
  8
SUNPO
  6
CONTINUOUS
 10
153.0
 20
61.5
 30
0.0
 11
153.0
 21
36.5
 31
0.0
  0
ARC
  5
1DCB7
  8
SUNPO
  6
BYBLOCK
 10
153.0
 20
36.5
 30
0.0
 40
0.145
 50
270.0
 51
90.0
  0
ARC
  5
1DCB8
  8
SUNPO
  6
BYBLOCK
 10
153.0
 20
36.5
 30
0.0
 40
0.145
 50
90.0
 51
270.0
  0
TEXT
  5
1DCB9
  8
SUNPO
  6
CONTINUOUS
 10
162.0
 20
31.166667
 30
0.0
 40
2.5
  1
9
 50
90.0
  7
MX_NOTE_STANDARD
  0
TEXT
  5
1DCBA
  8
SUNPO
  6
CONTINUOUS
 10
152.0
 20
46.916667
 30
0.0
 40
2.5
  1
25
 50
90.0
  7
MX_NOTE_STANDARD
  0
ARC
  5
1DCBB
  8
SUNPO
  6
BYBLOCK
 10
153.0
 20
61.5
 30
0.0
 40
0.145
 50
270.0
 51
90.0
  0
ARC
  5
1DCBC
  8
SUNPO
  6
BYBLOCK
 10
153.0
 20
61.5
 30
0.0
 40
0.145
 50
90.0
 51
270.0
  0
ARC
  5
1DCBD
  8
SUNPO
  6
BYBLOCK
 10
153.0
 20
61.5
 30
0.0
 40
0.145
 50
90.0
 51
270.0
  0
ARC
  5
1DCBE
  8
SUNPO
  6
BYBLOCK
 10
153.0
 20
61.5
 30
0.0
 40
0.145
 50
270.0
 51
90.0
  0
TEXT
  5
1DCBF
  8
SUNPO
  6
CONTINUOUS
 10
162.0
 20
64.625
 30
0.0
 40
2.5
  1
60
 50
90.0
  7
MX_NOTE_STANDARD
  0
ARC
  5
1DCC0
  8
SUNPO
  6
BYBLOCK
 10
163.0
 20
36.5
 30
0.0
 40
0.15625
 50
270.0
 51
90.0
  0
ARC
  5
1DCC1
  8
SUNPO
  6
BYBLOCK
 10
163.0
 20
36.5
 30
0.0
 40
0.145
 50
270.0
 51
90.0
  0
ARC
  5
1DCC2
  8
SUNPO
  6
BYBLOCK
 10
178.0
 20
34.999997
 30
0.0
 40
0.15625
 50
180.0
 51
0.0
  0
ARC
  5
1DCC3
  8
SUNPO
  6
BYBLOCK
 10
178.0
 20
34.999997
 30
0.0
 40
0.15625
 50
0.0
 51
180.0
  0
TEXT
  5
1DCC4
  8
SUNPO
  6
CONTINUOUS
 10
188.416667
 20
35.999997
 30
0.0
 40
2.5
  1
25
  7
MX_NOTE_STANDARD
  0
LINE
  5
1DCC5
  8
SUNPO
  6
CONTINUOUS
 10
188.0
 20
54.999997
 30
0.0
 11
178.0
 21
54.999997
 31
0.0
  0
ARC
  5
1DCC6
  8
SUNPO
  6
BYBLOCK
 10
178.0
 20
54.999997
 30
0.0
 40
0.145
 50
180.0
 51
0.0
  0
ARC
  5
1DCC7
  8
SUNPO
  6
BYBLOCK
 10
178.0
 20
54.999997
 30
0.0
 40
0.145
 50
0.0
 51
180.0
  0
TEXT
  5
1DCC8
  8
SUNPO
  6
CONTINUOUS
 10
181.541667
 20
55.999997
 30
0.0
 40
2.5
  1
10
  7
MX_NOTE_STANDARD
  0
ARC
  5
1DCC9
  8
SUNPO
  6
BYBLOCK
 10
188.0
 20
54.999997
 30
0.0
 40
0.145
 50
0.0
 51
180.0
  0
ARC
  5
1DCCA
  8
SUNPO
  6
BYBLOCK
 10
188.0
 20
54.999997
 30
0.0
 40
0.145
 50
180.0
 51
0.0
  0
ARC
  5
1DCCB
  8
SUNPO
  6
BYBLOCK
 10
188.0
 20
54.999997
 30
0.0
 40
0.145
 50
180.0
 51
0.0
  0
ARC
  5
1DCCC
  8
SUNPO
  6
BYBLOCK
 10
188.0
 20
54.999997
 30
0.0
 40
0.145
 50
0.0
 51
180.0
  0
LINE
  5
1DCCD
  8
SUNPO
  6
CONTINUOUS
 10
158.0
 20
101.5
 30
0.0
 11
168.0
 21
101.5
 31
0.0
  0
LINE
  5
1DCCE
  8
SUNPO
  6
CONTINUOUS
 10
163.0
 20
96.5
 30
0.0
 11
158.0
 21
101.5
 31
0.0
  0
TEXT
  5
1DCCF
  8
SUNPO
  6
CONTINUOUS
 10
152.0
 20
76.916667
 30
0.0
 40
2.5
  1
35
 50
90.0
  7
MX_NOTE_STANDARD
  0
ARC
  5
1DCD0
  8
SUNPO
  6
BYBLOCK
 10
153.0
 20
96.5
 30
0.0
 40
0.145
 50
90.0
 51
270.0
  0
ARC
  5
1DCD1
  8
SUNPO
  6
BYBLOCK
 10
153.0
 20
96.5
 30
0.0
 40
0.145
 50
270.0
 51
90.0
  0
ARC
  5
1DCD2
  8
SUNPO
  6
BYBLOCK
 10
153.0
 20
96.5
 30
0.0
 40
0.145
 50
270.0
 51
90.0
  0
ARC
  5
1DCD3
  8
SUNPO
  6
BYBLOCK
 10
153.0
 20
96.5
 30
0.0
 40
0.145
 50
90.0
 51
270.0
  0
TEXT
  5
1DCD5
  8
SUNPO
  6
CONTINUOUS
 10
152.0
 20
115.416667
 30
0.0
 40
2.5
  1
42
 50
90.0
  7
MX_NOTE_STANDARD
  0
LINE
  5
1DCD6
  8
SUNPO
  6
CONTINUOUS
 10
168.0
 20
101.5
 30
0.0
 11
163.0
 21
96.5
 31
0.0
  0
LINE
  5
1DCD9
  8
SUNPO
  6
CONTINUOUS
 10
268.0
 20
47.0
 30
0.0
 11
258.888595
 21
43.68372
 31
0.0
  0
LINE
  5
1DCDA
  8
SUNPO
  6
CONTINUOUS
 10
203.000003
 20
35.0
 30
0.0
 11
282.978714
 21
35.0
 31
0.0
  0
LINE
  5
1DCDB
  8
SUNPO
  6
CONTINUOUS
 10
268.0
 20
47.0
 30
0.0
 11
213.0
 21
47.0
 31
0.0
  0
LINE
  5
1DCDC
  8
SUNPO
  6
CONTINUOUS
 10
263.0
 20
46.999997
 30
0.0
 11
203.0
 21
46.999997
 31
0.0
  0
LINE
  5
1DCDD
  8
SUNPO
  6
CONTINUOUS
 10
256.0
 20
89.999997
 30
0.0
 11
256.0
 21
54.999997
 31
0.0
  0
LINE
  5
1DCDE
  8
SUNPO
  6
CONTINUOUS
 10
203.0
 20
89.999997
 30
0.0
 11
203.0
 21
34.999997
 31
0.0
  0
TEXT
  5
1DCDF
  8
SUNPO
  6
CONTINUOUS
 10
227.416667
 20
55.999997
 30
0.0
 40
2.5
  1
53
  7
MX_NOTE_STANDARD
  0
LINE
  5
1DCE0
  8
SUNPO
  6
CONTINUOUS
 10
256.0
 20
54.999997
 30
0.0
 11
203.0
 21
54.999997
 31
0.0
  0
LINE
  5
1DCE1
  8
SUNPO
  6
CONTINUOUS
 10
212.111405
 20
50.316277
 30
0.0
 11
213.267949
 21
45.999997
 31
0.0
  0
LINE
  5
1DCE2
  8
SUNPO
  6
CONTINUOUS
 10
203.0
 20
34.999997
 30
0.0
 11
208.0
 21
39.999997
 31
0.0
  0
LINE
  5
1DCE3
  8
SUNPO
  6
CONTINUOUS
 10
208.0
 20
39.999997
 30
0.0
 11
208.0
 21
29.999997
 31
0.0
  0
LINE
  5
1DCE4
  8
SUNPO
  6
CONTINUOUS
 10
208.0
 20
29.999997
 30
0.0
 11
203.0
 21
34.999997
 31
0.0
  0
LINE
  5
1DCE7
  8
SUNPO
  6
CONTINUOUS
 10
203.0
 20
46.999997
 30
0.0
 11
212.111405
 21
50.316277
 31
0.0
  0
ARC
  5
1DCEC
  8
SUNPO
  6
BYBLOCK
 10
203.0
 20
54.999997
 30
0.0
 40
0.145
 50
180.0
 51
0.0
  0
ARC
  5
1DCED
  8
SUNPO
  6
BYBLOCK
 10
203.0
 20
54.999997
 30
0.0
 40
0.145
 50
0.0
 51
180.0
  0
ARC
  5
1DCEE
  8
SUNPO
  6
BYBLOCK
 10
203.0
 20
54.999997
 30
0.0
 40
0.145
 50
0.0
 51
180.0
  0
ARC
  5
1DCEF
  8
SUNPO
  6
BYBLOCK
 10
203.0
 20
54.999997
 30
0.0
 40
0.145
 50
180.0
 51
0.0
  0
TEXT
  5
1DCF2
  8
SUNPO
  6
CONTINUOUS
 10
238.837473
 20
48.048399
 30
0.0
 40
2.0
  1
2
  7
MX_NOTE_STANDARD
  0
TEXT
  5
1DCF3
  8
SUNPO
  6
CONTINUOUS
 10
238.837473
 20
48.048402
 30
0.0
 40
2.0
  1
2
  7
MX_NOTE_STANDARD
  0
LINE
  5
1DCF4
  8
SUNPO
  6
CONTINUOUS
 10
258.888595
 20
43.68372
 30
0.0
 11
257.732051
 21
48.0
 31
0.0
  0
ARC
  5
1DCF7
  8
SUNPO
  6
BYBLOCK
 10
256.0
 20
54.999997
 30
0.0
 40
0.145
 50
0.0
 51
180.0
  0
ARC
  5
1DCF8
  8
SUNPO
  6
BYBLOCK
 10
256.0
 20
54.999997
 30
0.0
 40
0.145
 50
180.0
 51
0.0
  0
TEXT
  5
1DCF9
  8
SUNPO
  6
CONTINUOUS
 10
291.125
 20
48.0
 30
0.0
 40
2.5
  1
50
  7
MX_NOTE_STANDARD
  0
LINE
  5
1DCFA
  8
SUNPO
  6
CONTINUOUS
 10
295.495514
 20
38.5
 30
0.0
 11
291.186113
 21
38.5
 31
0.0
  0
LINE
  5
1DCFB
  8
SUNPO
  6
CONTINUOUS
 10
296.22756
 20
31.500001
 30
0.0
 11
292.186114
 21
38.499998
 31
0.0
  0
LINE
  5
1DCFC
  8
SUNPO
  6
CONTINUOUS
 10
318.0
 20
47.0
 30
0.0
 11
268.0
 21
47.0
 31
0.0
  0
LINE
  5
1DCFD
  8
SUNPO
  6
CONTINUOUS
 10
268.0
 20
62.0
 30
0.0
 11
268.0
 21
47.0
 31
0.0
  0
LINE
  5
1DCFF
  8
SUNPO
  6
CONTINUOUS
 10
289.10634
 20
38.5
 30
0.0
 11
284.73099
 21
38.5
 31
0.0
  0
LINE
  5
1DD00
  8
SUNPO
  6
CONTINUOUS
 10
289.876776
 20
31.500001
 30
0.0
 11
285.835331
 21
38.499997
 31
0.0
  0
LINE
  5
1DD01
  8
SUNPO
  6
CONTINUOUS
 10
292.186113
 20
38.5
 30
0.0
 11
292.186113
 21
31.500001
 31
0.0
  0
LINE
  5
1DD02
  8
SUNPO
  6
CONTINUOUS
 10
292.186114
 20
31.5
 30
0.0
 11
288.144668
 21
38.499997
 31
0.0
  0
LINE
  5
1DD03
  8
SUNPO
  6
CONTINUOUS
 10
293.186113
 20
31.5
 30
0.0
 11
288.708582
 21
31.5
 31
0.0
  0
LINE
  5
1DD04
  8
SUNPO
  6
CONTINUOUS
 10
318.0
 20
62.0
 30
0.0
 11
318.0
 21
47.0
 31
0.0
  0
LINE
  5
1DD05
  8
SUNPO
  6
CONTINUOUS
 10
307.26901
 20
36.5
 30
0.0
 11
302.26901
 21
36.5
 31
0.0
  0
LINE
  5
1DD06
  8
SUNPO
  6
CONTINUOUS
 10
307.26901
 20
33.5
 30
0.0
 11
302.26901
 21
33.5
 31
0.0
  0
LINE
  5
1DD07
  8
SUNPO
  6
CONTINUOUS
 10
298.536959
 20
31.500004
 30
0.0
 11
294.495515
 21
38.499997
 31
0.0
  0
LINE
  5
1DD08
  8
SUNPO
  6
CONTINUOUS
 10
298.536961
 20
38.5
 30
0.0
 11
298.536961
 21
31.500003
 31
0.0
  0
LINE
  5
1DD09
  8
SUNPO
  6
CONTINUOUS
 10
299.11431
 20
31.5
 30
0.0
 11
295.536562
 21
31.5
 31
0.0
  0
LINE
  5
1DD0A
  8
SUNPO
  6
CONTINUOUS
 10
299.495805
 20
38.5
 30
0.0
 11
297.459285
 21
38.5
 31
0.0
  0
ARC
  5
1DD0D
  8
SUNPO
  6
BYBLOCK
 10
264.364825
 20
91.499997
 30
0.0
 40
0.145
 50
270.0
 51
90.0
  0
ARC
  5
1DD0E
  8
SUNPO
  6
BYBLOCK
 10
264.364825
 20
91.499997
 30
0.0
 40
0.145
 50
90.0
 51
270.0
  0
TEXT
  5
1DD0F
  8
SUNPO
  6
CONTINUOUS
 10
391.541667
 20
56.0
 30
0.0
 40
2.5
  1
10
  7
MX_NOTE_STANDARD
  0
LINE
  5
1DD10
  8
SUNPO
  6
CONTINUOUS
 10
398.0
 20
35.0
 30
0.0
 11
373.0
 21
35.0
 31
0.0
  0
LINE
  5
1DD11
  8
SUNPO
  6
CONTINUOUS
 10
388.0
 20
55.0
 30
0.0
 11
398.0
 21
55.0
 31
0.0
  0
LINE
  5
1DD12
  8
SUNPO
  6
CONTINUOUS
 10
358.0
 20
90.0
 30
0.0
 11
358.0
 21
55.0
 31
0.0
  0
LINE
  5
1DD13
  8
SUNPO
  6
CONTINUOUS
 10
388.0
 20
90.0
 30
0.0
 11
388.0
 21
55.0
 31
0.0
  0
LINE
  5
1DD14
  8
SUNPO
  6
CONTINUOUS
 10
373.0
 20
90.0
 30
0.0
 11
373.0
 21
35.0
 31
0.0
  0
LINE
  5
1DD15
  8
SUNPO
  6
CONTINUOUS
 10
330.0
 20
91.5
 30
0.0
 11
330.0
 21
63.5
 31
0.0
  0
LINE
  5
1DD16
  8
SUNPO
  6
CONTINUOUS
 10
373.0
 20
55.0
 30
0.0
 11
358.0
 21
55.0
 31
0.0
  0
LINE
  5
1DD19
  8
SUNPO
  6
CONTINUOUS
 10
327.111405
 20
50.31628
 30
0.0
 11
328.267949
 21
46.0
 31
0.0
  0
TEXT
  5
1DD1B
  8
SUNPO
  6
CONTINUOUS
 10
339.202796
 20
47.984156
 30
0.0
 40
2.0
  1
1
 41
1.5
  7
MX_NOTE_STANDARD
  0
ARC
  5
1DD1C
  8
SUNPO
  6
BYBLOCK
 10
330.0
 20
63.5
 30
0.0
 40
0.145
 50
270.0
 51
90.0
  0
ARC
  5
1DD1D
  8
SUNPO
  6
BYBLOCK
 10
330.0
 20
63.5
 30
0.0
 40
0.145
 50
90.0
 51
270.0
  0
ARC
  5
1DD1E
  8
SUNPO
  6
BYBLOCK
 10
358.0
 20
55.0
 30
0.0
 40
0.145
 50
180.0
 51
0.0
  0
ARC
  5
1DD1F
  8
SUNPO
  6
BYBLOCK
 10
358.0
 20
55.0
 30
0.0
 40
0.145
 50
0.0
 51
180.0
  0
LINE
  5
1DD20
  8
SUNPO
  6
CONTINUOUS
 10
368.0
 20
30.0
 30
0.0
 11
368.0
 21
40.0
 31
0.0
  0
LINE
  5
1DD21
  8
SUNPO
  6
CONTINUOUS
 10
368.0
 20
40.0
 30
0.0
 11
373.0
 21
35.0
 31
0.0
  0
LINE
  5
1DD22
  8
SUNPO
  6
CONTINUOUS
 10
373.0
 20
35.0
 30
0.0
 11
368.0
 21
30.0
 31
0.0
  0
LINE
  5
1DD25
  8
SUNPO
  6
CONTINUOUS
 10
373.0
 20
47.0
 30
0.0
 11
363.888595
 21
43.68372
 31
0.0
  0
LINE
  5
1DD26
  8
SUNPO
  6
CONTINUOUS
 10
363.888595
 20
43.68372
 30
0.0
 11
362.732051
 21
48.0
 31
0.0
  0
TEXT
  5
1DD2B
  8
SUNPO
  6
CONTINUOUS
 10
383.416667
 20
36.0
 30
0.0
 40
2.5
  1
25
  7
MX_NOTE_STANDARD
  0
LINE
  5
1DD2C
  8
SUNPO
  6
CONTINUOUS
 10
388.0
 20
55.0
 30
0.0
 11
373.0
 21
55.0
 31
0.0
  0
TEXT
  5
1DD2D
  8
SUNPO
  6
CONTINUOUS
 10
363.833333
 20
56.0
 30
0.0
 40
2.5
  1
15
  7
MX_NOTE_STANDARD
  0
ARC
  5
1DD2E
  8
SUNPO
  6
BYBLOCK
 10
373.0
 20
55.0
 30
0.0
 40
0.145
 50
0.0
 51
180.0
  0
ARC
  5
1DD2F
  8
SUNPO
  6
BYBLOCK
 10
373.0
 20
55.0
 30
0.0
 40
0.145
 50
180.0
 51
0.0
  0
ARC
  5
1DD30
  8
SUNPO
  6
BYBLOCK
 10
373.0
 20
55.0
 30
0.0
 40
0.145
 50
180.0
 51
0.0
  0
ARC
  5
1DD31
  8
SUNPO
  6
BYBLOCK
 10
373.0
 20
55.0
 30
0.0
 40
0.145
 50
0.0
 51
180.0
  0
TEXT
  5
1DD32
  8
SUNPO
  6
CONTINUOUS
 10
378.833333
 20
56.0
 30
0.0
 40
2.5
  1
15
  7
MX_NOTE_STANDARD
  0
ARC
  5
1DD33
  8
SUNPO
  6
BYBLOCK
 10
388.0
 20
55.0
 30
0.0
 40
0.145
 50
0.0
 51
180.0
  0
ARC
  5
1DD34
  8
SUNPO
  6
BYBLOCK
 10
388.0
 20
55.0
 30
0.0
 40
0.145
 50
180.0
 51
0.0
  0
ARC
  5
1DD35
  8
SUNPO
  6
BYBLOCK
 10
388.0
 20
55.0
 30
0.0
 40
0.145
 50
180.0
 51
0.0
  0
ARC
  5
1DD36
  8
SUNPO
  6
BYBLOCK
 10
388.0
 20
55.0
 30
0.0
 40
0.145
 50
0.0
 51
180.0
  0
TEXT
  5
1DD37
  8
SUNPO
  6
CONTINUOUS
 10
351.855906
 20
95.249994
 30
0.0
 40
2.5
  1
4.5
 50
90.0
  7
MX_NOTE_STANDARD
  0
LINE
  5
1DD38
  8
SUNPO
  6
CONTINUOUS
 10
352.855906
 20
95.499994
 30
0.0
 11
352.855906
 21
99.999994
 31
0.0
  0
ARC
  5
1DD39
  8
SUNPO
  6
BYBLOCK
 10
330.0
 20
91.5
 30
0.0
 40
0.145
 50
90.0
 51
270.0
  0
ARC
  5
1DD3A
  8
SUNPO
  6
BYBLOCK
 10
330.0
 20
91.5
 30
0.0
 40
0.145
 50
270.0
 51
90.0
  0
ARC
  5
1DD3B
  8
SUNPO
  6
BYBLOCK
 10
330.0
 20
91.5
 30
0.0
 40
0.145
 50
270.0
 51
90.0
  0
ARC
  5
1DD3C
  8
SUNPO
  6
BYBLOCK
 10
330.0
 20
91.5
 30
0.0
 40
0.145
 50
90.0
 51
270.0
  0
LINE
  5
1DD3D
  8
SUNPO
  6
CONTINUOUS
 10
352.855906
 20
91.5
 30
0.0
 11
352.855906
 21
85.513333
 31
0.0
  0
TEXT
  5
1DD3E
  8
SUNPO
  6
CONTINUOUS
 10
351.855906
 20
86.513333
 30
0.0
 40
2.5
  1
4
 50
90.0
  7
MX_NOTE_STANDARD
  0
LINE
  5
1DD3F
  8
SUNPO
  6
CONTINUOUS
 10
352.855906
 20
95.499994
 30
0.0
 11
352.855906
 21
91.5
 31
0.0
  0
ARC
  5
1DD40
  8
SUNPO
  6
BYBLOCK
 10
352.855906
 20
91.5
 30
0.0
 40
0.145
 50
270.0
 51
90.0
  0
ARC
  5
1DD41
  8
SUNPO
  6
BYBLOCK
 10
352.855906
 20
91.5
 30
0.0
 40
0.145
 50
90.0
 51
270.0
  0
LINE
  5
1DD42
  8
SUNPO
  6
CONTINUOUS
 10
356.5
 20
95.499994
 30
0.0
 11
352.855906
 21
95.499994
 31
0.0
  0
ARC
  5
1DD43
  8
SUNPO
  6
BYBLOCK
 10
352.855906
 20
95.499994
 30
0.0
 40
0.145
 50
270.0
 51
90.0
  0
ARC
  5
1DD44
  8
SUNPO
  6
BYBLOCK
 10
352.855906
 20
95.499994
 30
0.0
 40
0.145
 50
90.0
 51
270.0
  0
ARC
  5
1DD45
  8
SUNPO
  6
BYBLOCK
 10
352.855906
 20
95.499994
 30
0.0
 40
0.145
 50
90.0
 51
270.0
  0
ARC
  5
1DD46
  8
SUNPO
  6
BYBLOCK
 10
352.855906
 20
95.499994
 30
0.0
 40
0.145
 50
270.0
 51
90.0
  0
LINE
  5
1DD47
  8
SUNPO
  6
CONTINUOUS
 10
352.855906
 20
99.999994
 30
0.0
 11
352.855906
 21
120.0
 31
0.0
  0
LINE
  5
1DD48
  8
SUNPO
  6
CONTINUOUS
 10
356.5
 20
99.999994
 30
0.0
 11
352.855906
 21
99.999994
 31
0.0
  0
ARC
  5
1DD49
  8
SUNPO
  6
BYBLOCK
 10
352.855906
 20
99.999994
 30
0.0
 40
0.145
 50
270.0
 51
90.0
  0
ARC
  5
1DD4A
  8
SUNPO
  6
BYBLOCK
 10
352.855906
 20
99.999994
 30
0.0
 40
0.145
 50
90.0
 51
270.0
  0
ARC
  5
1DD4B
  8
SUNPO
  6
BYBLOCK
 10
352.855906
 20
99.999994
 30
0.0
 40
0.145
 50
90.0
 51
270.0
  0
ARC
  5
1DD4C
  8
SUNPO
  6
BYBLOCK
 10
352.855906
 20
99.999994
 30
0.0
 40
0.145
 50
270.0
 51
90.0
  0
TEXT
  5
1DD4D
  8
SUNPO
  6
CONTINUOUS
 10
351.855906
 20
111.345249
 30
0.0
 40
2.5
  1
20
 50
90.0
  7
MX_NOTE_STANDARD
  0
LINE
  5
1DD4E
  8
SUNPO
  6
CONTINUOUS
 10
356.5
 20
120.0
 30
0.0
 11
352.855906
 21
120.0
 31
0.0
  0
ARC
  5
1DD4F
  8
SUNPO
  6
BYBLOCK
 10
352.855906
 20
120.0
 30
0.0
 40
0.145
 50
90.0
 51
270.0
  0
ARC
  5
1DD50
  8
SUNPO
  6
BYBLOCK
 10
352.855906
 20
120.0
 30
0.0
 40
0.145
 50
270.0
 51
90.0
  0
ARC
  5
1DD51
  8
SUNPO
  6
BYBLOCK
 10
352.855906
 20
120.0
 30
0.0
 40
0.145
 50
270.0
 51
90.0
  0
ARC
  5
1DD52
  8
SUNPO
  6
BYBLOCK
 10
352.855906
 20
120.0
 30
0.0
 40
0.145
 50
90.0
 51
270.0
  0
LINE
  5
1DD53
  8
SUNPO
  6
CONTINUOUS
 10
398.0
 20
90.0
 30
0.0
 11
398.0
 21
35.0
 31
0.0
  0
ARC
  5
1DD54
  8
SUNPO
  6
BYBLOCK
 10
398.0
 20
35.0
 30
0.0
 40
0.145
 50
0.0
 51
180.0
  0
ARC
  5
1DD55
  8
SUNPO
  6
BYBLOCK
 10
398.0
 20
35.0
 30
0.0
 40
0.145
 50
180.0
 51
0.0
  0
ARC
  5
1DD56
  8
SUNPO
  6
BYBLOCK
 10
398.0
 20
55.0
 30
0.0
 40
0.145
 50
0.0
 51
180.0
  0
ARC
  5
1DD57
  8
SUNPO
  6
BYBLOCK
 10
398.0
 20
55.0
 30
0.0
 40
0.145
 50
180.0
 51
0.0
  0
TEXT
  5
1DD58
  8
SUNPO
  6
CONTINUOUS
 10
329.0
 20
157.166667
 30
0.0
 40
2.5
  1
7
 50
90.0
  7
MX_NOTE_STANDARD
  0
TEXT
  5
1DD59
  8
SUNPO
  6
CONTINUOUS
 10
329.0
 20
144.725548
 30
0.0
 40
2.5
  1
24
 50
90.0
  7
MX_NOTE_STANDARD
  0
TEXT
  5
1DD5A
  8
SUNPO
  6
CONTINUOUS
 10
329.0
 20
125.666667
 30
0.0
 40
2.5
  1
8
 50
90.0
  7
MX_NOTE_STANDARD
  0
LINE
  5
1DD5B
  8
SUNPO
  6
CONTINUOUS
 10
319.5
 20
130.5
 30
0.0
 11
330.0
 21
130.5
 31
0.0
  0
LINE
  5
1DD5C
  8
SUNPO
  6
CONTINUOUS
 10
42.0
 20
175.5
 30
0.0
 11
112.0
 21
175.5
 31
0.0
  0
LINE
  5
1DD5D
  8
SUNPO
  6
CONTINUOUS
 10
73.0
 20
165.5
 30
0.0
 11
49.0
 21
165.5
 31
0.0
  0
LINE
  5
1DD5E
  8
DANMEN
  6
CONTINUOUS
 10
263.5
 20
154.5
 30
0.0
 11
336.5
 21
154.5
 31
0.0
  0
LINE
  5
1DD5F
  8
DANMEN
  6
CONTINUOUS
 10
318.0
 20
144.0
 30
0.0
 11
336.5
 21
144.0
 31
0.0
  0
LINE
  5
1DD60
  8
DANMEN
  6
CONTINUOUS
 10
318.0
 20
141.0
 30
0.0
 11
336.5
 21
141.0
 31
0.0
  0
LINE
  5
1DD61
  8
DANMEN
  6
CONTINUOUS
 10
263.5
 20
164.5
 30
0.0
 11
336.5
 21
164.5
 31
0.0
  0
LINE
  5
1DD62
  8
DANMEN
  6
CONTINUOUS
 10
263.5
 20
163.300003
 30
0.0
 11
336.5
 21
163.300003
 31
0.0
  0
LINE
  5
1DD63
  8
DANMEN
  6
CONTINUOUS
 10
263.5
 20
160.300003
 30
0.0
 11
336.5
 21
160.300003
 31
0.0
  0
LINE
  5
1DD64
  8
DANMEN
  6
CONTINUOUS
 10
336.5
 20
122.5
 30
0.0
 11
317.999997
 21
122.5
 31
0.0
  0
LINE
  5
1DD65
  8
DANMEN
  6
CONTINUOUS
 10
318.0
 20
127.499997
 30
0.0
 11
336.5
 21
127.499997
 31
0.0
  0
LINE
  5
1DD66
  8
DANMEN
  6
CONTINUOUS
 10
264.0
 20
130.499997
 30
0.0
 11
268.0
 21
130.499997
 31
0.0
  0
LINE
  5
1DD67
  8
DANMEN
  6
CONTINUOUS
 10
264.0
 20
127.499997
 30
0.0
 11
268.0
 21
127.499997
 31
0.0
  0
LINE
  5
1DD68
  8
DANMEN
  6
CONTINUOUS
 10
264.0
 20
132.699997
 30
0.0
 11
268.0
 21
132.699997
 31
0.0
  0
LINE
  5
1DD69
  8
DANMEN
  6
CONTINUOUS
 10
268.000015
 20
134.500012
 30
0.0
 11
264.0
 21
134.500012
 31
0.0
  0
LINE
  5
1DD6A
  8
DANMEN
  6
CONTINUOUS
 10
268.0
 20
150.499982
 30
0.0
 11
264.0
 21
150.499982
 31
0.0
  0
LINE
  5
1DD6B
  8
DANMEN
  6
CONTINUOUS
 10
264.0
 20
152.299997
 30
0.0
 11
268.0
 21
152.299997
 31
0.0
  0
LINE
  5
1DD6C
  8
DANMEN
  6
CONTINUOUS
 10
275.000004
 20
139.999988
 30
0.0
 11
263.5
 21
139.999988
 31
0.0
  0
LINE
  5
1DD6D
  8
DANMEN
  6
CONTINUOUS
 10
275.00002
 20
144.999976
 30
0.0
 11
263.5
 21
144.999976
 31
0.0
  0
LINE
  5
1DD6E
  8
DANMEN
  6
CONTINUOUS
 10
275.000004
 20
140.499988
 30
0.0
 11
263.5
 21
140.499988
 31
0.0
  0
LINE
  5
1DD6F
  8
DANMEN
  6
CONTINUOUS
 10
275.00002
 20
144.499976
 30
0.0
 11
263.5
 21
144.499976
 31
0.0
  0
LINE
  5
1DD70
  8
DANMEN
  6
CONTINUOUS
 10
218.538905
 20
154.499997
 30
0.0
 11
255.5
 21
154.499997
 31
0.0
  0
LINE
  5
1DD71
  8
DANMEN
  6
CONTINUOUS
 10
218.53891
 20
130.499997
 30
0.0
 11
255.5
 21
130.499997
 31
0.0
  0
LINE
  5
1DD72
  8
DANMEN
  6
CONTINUOUS
 10
219.95
 20
152.549997
 30
0.0
 11
243.05
 21
152.549997
 31
0.0
  0
LINE
  5
1DD73
  8
DANMEN
  6
CONTINUOUS
 10
219.95
 20
132.449997
 30
0.0
 11
243.05
 21
132.449997
 31
0.0
  0
LINE
  5
1DD74
  8
DANMEN
  6
CONTINUOUS
 10
223.0
 20
164.499997
 30
0.0
 11
260.0
 21
164.499997
 31
0.0
  0
LINE
  5
1DD75
  8
DANMEN
  6
CONTINUOUS
 10
223.0
 20
163.3
 30
0.0
 11
260.0
 21
163.3
 31
0.0
  0
LINE
  5
1DD76
  8
DANMEN
  6
CONTINUOUS
 10
223.0
 20
160.3
 30
0.0
 11
260.0
 21
160.3
 31
0.0
  0
LINE
  5
1DD77
  8
DANMEN
  6
CONTINUOUS
 10
205.461095
 20
130.499997
 30
0.0
 11
250.5
 21
130.499997
 31
0.0
  0
LINE
  5
1DD78
  8
DANMEN
  6
CONTINUOUS
 10
204.0
 20
152.549997
 30
0.0
 11
204.0
 21
132.449994
 31
0.0
  0
LINE
  5
1DD79
  8
DANMEN
  6
CONTINUOUS
 10
205.95
 20
148.549997
 30
0.0
 11
205.95
 21
136.449994
 31
0.0
  0
LINE
  5
1DD7A
  8
DANMEN
  6
CONTINUOUS
 10
205.95
 20
136.449994
 30
0.0
 11
218.95
 21
136.449994
 31
0.0
  0
ARC
  5
1DD7B
  8
DANMEN
  6
CONTINUOUS
 10
218.538905
 20
130.999997
 30
0.0
 40
0.5
 50
175.7108
 51
270.0
  0
LINE
  5
1DD7C
  8
DANMEN
  6
CONTINUOUS
 10
205.699997
 20
134.499994
 30
0.0
 11
205.959695
 21
131.037392
 31
0.0
  0
LINE
  5
1DD7D
  8
DANMEN
  6
CONTINUOUS
 10
218.040305
 20
131.037392
 30
0.0
 11
218.300003
 21
134.499994
 31
0.0
  0
ARC
  5
1DD80
  8
DANMEN
  6
CONTINUOUS
 10
205.461095
 20
130.999997
 30
0.0
 40
0.5
 50
270.0
 51
4.2892
  0
LINE
  5
1DD86
  8
DANMEN
  6
CONTINUOUS
 10
205.699997
 20
134.499994
 30
0.0
 11
218.300003
 21
134.499994
 31
0.0
  0
LINE
  5
1DD8A
  8
DANMEN
  6
CONTINUOUS
 10
219.95
 20
132.449997
 30
0.0
 11
219.95
 21
135.449994
 31
0.0
  0
ARC
  5
1DD8C
  8
DANMEN
  6
CONTINUOUS
 10
218.95
 20
135.449994
 30
0.0
 40
1.0
 50
0.0
 51
90.0
  0
ARC
  5
1DD8E
  8
DANMEN
  6
CONTINUOUS
 10
218.538905
 20
153.999997
 30
0.0
 40
0.5
 50
90.0
 51
184.289197
  0
LINE
  5
1DD8F
  8
DANMEN
  6
CONTINUOUS
 10
205.95
 20
148.549997
 30
0.0
 11
218.95
 21
148.549997
 31
0.0
  0
LINE
  5
1DD90
  8
DANMEN
  6
CONTINUOUS
 10
202.5
 20
161.499997
 30
0.0
 11
223.0
 21
161.499997
 31
0.0
  0
LINE
  5
1DD91
  8
DANMEN
  6
CONTINUOUS
 10
205.699997
 20
150.499997
 30
0.0
 11
218.300003
 21
150.499997
 31
0.0
  0
LINE
  5
1DD96
  8
DANMEN
  6
CONTINUOUS
 10
205.959695
 20
153.962602
 30
0.0
 11
205.699997
 21
150.499997
 31
0.0
  0
ARC
  5
1DD97
  8
DANMEN
  6
CONTINUOUS
 10
205.461095
 20
153.999997
 30
0.0
 40
0.5
 50
355.710803
 51
90.0
  0
LINE
  5
1DD9D
  8
DANMEN
  6
CONTINUOUS
 10
218.300003
 20
150.499997
 30
0.0
 11
218.040305
 21
153.962602
 31
0.0
  0
ARC
  5
1DDA2
  8
DANMEN
  6
CONTINUOUS
 10
202.5
 20
160.999997
 30
0.0
 40
0.5
 50
359.999981
 51
89.999982
  0
ARC
  5
1DDA3
  8
DANMEN
  6
CONTINUOUS
 10
202.5
 20
160.350003
 30
0.0
 40
0.5
 50
270.000018
 51
359.999981
  0
LINE
  5
1DDA4
  8
DANMEN
  6
CONTINUOUS
 10
203.0
 20
160.999997
 30
0.0
 11
203.0
 21
160.350003
 31
0.0
  0
LINE
  5
1DDA5
  8
DANMEN
  6
CONTINUOUS
 10
219.95
 20
149.55
 30
0.0
 11
219.95
 21
152.549997
 31
0.0
  0
ARC
  5
1DDA6
  8
DANMEN
  6
CONTINUOUS
 10
218.95
 20
149.549997
 30
0.0
 40
1.0
 50
270.0
 51
0.0
  0
LINE
  5
1DDAA
  8
DANMEN
  6
CONTINUOUS
 10
223.0
 20
164.499997
 30
0.0
 11
223.0
 21
160.3
 31
0.0
  0
ARC
  5
1DDAB
  8
DANMEN
  6
CONTINUOUS
 10
227.399994
 20
163.899991
 30
0.0
 40
0.6
 50
270.000018
 51
90.000037
  0
LINE
  5
1DDAC
  8
DANMEN
  6
CONTINUOUS
 10
245.0
 20
152.549997
 30
0.0
 11
245.0
 21
132.449997
 31
0.0
  0
LINE
  5
1DDAD
  8
DANMEN
  6
CONTINUOUS
 10
243.05
 20
152.549997
 30
0.0
 11
243.05
 21
132.449997
 31
0.0
  0
LINE
  5
1DDAE
  8
DANMEN
  6
CONTINUOUS
 10
248.999998
 20
139.999991
 30
0.0
 11
248.999998
 21
144.999994
 31
0.0
  0
LINE
  5
1DDAF
  8
DANMEN
  6
CONTINUOUS
 10
245.0
 20
132.449997
 30
0.0
 11
254.8
 21
132.449997
 31
0.0
  0
LINE
  5
1DDB0
  8
DANMEN
  6
CONTINUOUS
 10
249.000014
 20
139.999991
 30
0.0
 11
260.0
 21
139.999991
 31
0.0
  0
LINE
  5
1DDB1
  8
DANMEN
  6
CONTINUOUS
 10
249.000014
 20
140.499991
 30
0.0
 11
260.0
 21
140.499991
 31
0.0
  0
LINE
  5
1DDB4
  8
DANMEN
  6
CONTINUOUS
 10
256.0
 20
130.999997
 30
0.0
 11
256.0
 21
134.999997
 31
0.0
  0
LINE
  5
1DDB5
  8
DANMEN
  6
CONTINUOUS
 10
254.8
 20
132.449997
 30
0.0
 11
254.8
 21
134.699997
 31
0.0
  0
ARC
  5
1DDB8
  8
DANMEN
  6
CONTINUOUS
 10
255.5
 20
130.999997
 30
0.0
 40
0.5
 50
270.000018
 51
0.0
  0
ARC
  5
1DDB9
  8
DANMEN
  6
CONTINUOUS
 10
259.999922
 20
138.500006
 30
0.0
 40
1.5
 50
90.0
 51
179.999982
  0
LINE
  5
1DDBA
  8
DANMEN
  6
CONTINUOUS
 10
256.0
 20
134.500012
 30
0.0
 11
260.0
 21
134.500012
 31
0.0
  0
LINE
  5
1DDBB
  8
DANMEN
  6
CONTINUOUS
 10
256.0
 20
132.699997
 30
0.0
 11
260.0
 21
132.699997
 31
0.0
  0
LINE
  5
1DDBC
  8
DANMEN
  6
CONTINUOUS
 10
258.499922
 20
136.0
 30
0.0
 11
258.499922
 21
138.500006
 31
0.0
  0
LINE
  5
1DDBD
  8
DANMEN
  6
CONTINUOUS
 10
253.0
 20
135.499997
 30
0.0
 11
255.5
 21
135.499997
 31
0.0
  0
LINE
  5
1DDBE
  8
DANMEN
  6
CONTINUOUS
 10
253.0
 20
135.347517
 30
0.0
 11
253.0
 21
135.499997
 31
0.0
  0
LINE
  5
1DDC3
  8
DANMEN
  6
CONTINUOUS
 10
254.8
 20
134.699997
 30
0.0
 11
253.444784
 21
134.850576
 31
0.0
  0
ARC
  5
1DDC4
  8
DANMEN
  6
CONTINUOUS
 10
253.5
 20
135.347518
 30
0.0
 40
0.5
 50
180.0
 51
263.659808
  0
ARC
  5
1DDC5
  8
DANMEN
  6
CONTINUOUS
 10
256.999922
 20
136.0
 30
0.0
 40
1.5
 50
269.999964
 51
0.000001
  0
ARC
  5
1DDC7
  8
DANMEN
  6
CONTINUOUS
 10
255.5
 20
134.999997
 30
0.0
 40
0.5
 50
0.0
 51
89.999982
  0
LINE
  5
1DDCA
  8
DANMEN
  6
CONTINUOUS
 10
265.500096
 20
135.999997
 30
0.0
 11
265.500096
 21
138.500003
 31
0.0
  0
ARC
  5
1DDCB
  8
DANMEN
  6
CONTINUOUS
 10
267.000096
 20
135.999997
 30
0.0
 40
1.5
 50
179.999999
 51
270.000036
  0
ARC
  5
1DDCC
  8
DANMEN
  6
CONTINUOUS
 10
264.000096
 20
138.500003
 30
0.0
 40
1.5
 50
0.000018
 51
90.0
  0
LINE
  5
1DDCD
  8
DANMEN
  6
CONTINUOUS
 10
245.0
 20
152.549997
 30
0.0
 11
254.8
 21
152.549997
 31
0.0
  0
LINE
  5
1DDCE
  8
DANMEN
  6
CONTINUOUS
 10
248.999998
 20
144.999979
 30
0.0
 11
260.0
 21
144.999979
 31
0.0
  0
LINE
  5
1DDCF
  8
DANMEN
  6
CONTINUOUS
 10
248.999998
 20
144.499979
 30
0.0
 11
260.0
 21
144.499979
 31
0.0
  0
ARC
  5
1DDD2
  8
DANMEN
  6
CONTINUOUS
 10
259.999922
 20
146.500009
 30
0.0
 40
1.5
 50
179.999982
 51
269.999964
  0
LINE
  5
1DDD3
  8
DANMEN
  6
CONTINUOUS
 10
255.999985
 20
150.499982
 30
0.0
 11
260.0
 21
150.499982
 31
0.0
  0
LINE
  5
1DDD4
  8
DANMEN
  6
CONTINUOUS
 10
256.0
 20
152.299997
 30
0.0
 11
260.0
 21
152.299997
 31
0.0
  0
ARC
  5
1DDD5
  8
DANMEN
  6
CONTINUOUS
 10
256.999922
 20
149.0
 30
0.0
 40
1.5
 50
0.000018
 51
90.0
  0
LINE
  5
1DDD6
  8
DANMEN
  6
CONTINUOUS
 10
256.0
 20
153.999997
 30
0.0
 11
256.0
 21
149.999997
 31
0.0
  0
ARC
  5
1DDD7
  8
DANMEN
  6
CONTINUOUS
 10
253.5
 20
149.652476
 30
0.0
 40
0.5
 50
96.340192
 51
180.0
  0
LINE
  5
1DDD8
  8
DANMEN
  6
CONTINUOUS
 10
253.0
 20
149.499997
 30
0.0
 11
255.5
 21
149.499997
 31
0.0
  0
LINE
  5
1DDD9
  8
DANMEN
  6
CONTINUOUS
 10
253.0
 20
149.652478
 30
0.0
 11
253.0
 21
149.499997
 31
0.0
  0
LINE
  5
1DDDB
  8
DANMEN
  6
CONTINUOUS
 10
258.499922
 20
146.500009
 30
0.0
 11
258.499922
 21
149.0
 31
0.0
  0
ARC
  5
1DDDD
  8
DANMEN
  6
CONTINUOUS
 10
255.5
 20
149.999997
 30
0.0
 40
0.5
 50
270.000018
 51
0.0
  0
LINE
  5
1DDE0
  8
DANMEN
  6
CONTINUOUS
 10
254.8
 20
152.549997
 30
0.0
 11
254.8
 21
150.299997
 31
0.0
  0
LINE
  5
1DDE2
  8
DANMEN
  6
CONTINUOUS
 10
254.8
 20
150.299997
 30
0.0
 11
253.444784
 21
150.149417
 31
0.0
  0
ARC
  5
1DDE5
  8
DANMEN
  6
CONTINUOUS
 10
255.5
 20
153.999997
 30
0.0
 40
0.5
 50
0.0
 51
89.999982
  0
ARC
  5
1DDE6
  8
DANMEN
  6
CONTINUOUS
 10
267.000096
 20
148.999997
 30
0.0
 40
1.5
 50
90.0
 51
179.999982
  0
LINE
  5
1DDE7
  8
DANMEN
  6
CONTINUOUS
 10
265.500096
 20
146.500006
 30
0.0
 11
265.500096
 21
148.999997
 31
0.0
  0
ARC
  5
1DDE8
  8
DANMEN
  6
CONTINUOUS
 10
264.000096
 20
146.500006
 30
0.0
 40
1.5
 50
270.000036
 51
0.000018
  0
LINE
  5
1DDE9
  8
DANMEN
  6
CONTINUOUS
 10
268.5
 20
154.499997
 30
0.0
 11
317.0
 21
154.499997
 31
0.0
  0
LINE
  5
1DDEA
  8
DANMEN
  6
CONTINUOUS
 10
284.949997
 20
152.55
 30
0.0
 11
303.949997
 21
152.55
 31
0.0
  0
LINE
  5
1DDEB
  8
DANMEN
  6
CONTINUOUS
 10
284.949997
 20
132.449994
 30
0.0
 11
303.949997
 21
132.449994
 31
0.0
  0
LINE
  5
1DDEC
  8
DANMEN
  6
CONTINUOUS
 10
298.0
 20
130.499997
 30
0.0
 11
316.8
 21
130.499997
 31
0.0
  0
LINE
  5
1DDED
  8
DANMEN
  6
CONTINUOUS
 10
282.55
 20
122.499997
 30
0.0
 11
301.0
 21
122.499997
 31
0.0
  0
LINE
  5
1DDEE
  8
DANMEN
  6
CONTINUOUS
 10
298.0
 20
127.499997
 30
0.0
 11
316.8
 21
127.499997
 31
0.0
  0
LINE
  5
1DDEF
  8
DANMEN
  6
CONTINUOUS
 10
283.0
 20
152.55
 30
0.0
 11
283.0
 21
132.449994
 31
0.0
  0
LINE
  5
1DDF0
  8
DANMEN
  6
CONTINUOUS
 10
284.949997
 20
152.55
 30
0.0
 11
284.949997
 21
132.449994
 31
0.0
  0
LINE
  5
1DDF1
  8
DANMEN
  6
CONTINUOUS
 10
275.00002
 20
139.999988
 30
0.0
 11
275.00002
 21
144.999991
 31
0.0
  0
LINE
  5
1DDF2
  8
DANMEN
  6
CONTINUOUS
 10
268.5
 20
130.499997
 30
0.0
 11
296.5
 21
130.499997
 31
0.0
  0
LINE
  5
1DDF3
  8
DANMEN
  6
CONTINUOUS
 10
292.250003
 20
127.999997
 30
0.0
 11
282.05
 21
127.999997
 31
0.0
  0
LINE
  5
1DDF4
  8
DANMEN
  6
CONTINUOUS
 10
286.050003
 20
126.499997
 30
0.0
 11
282.55
 21
126.499997
 31
0.0
  0
LINE
  5
1DDF5
  8
DANMEN
  6
CONTINUOUS
 10
268.0
 20
134.999997
 30
0.0
 11
268.0
 21
130.999997
 31
0.0
  0
LINE
  5
1DDF6
  8
DANMEN
  6
CONTINUOUS
 10
269.2
 20
134.699997
 30
0.0
 11
269.2
 21
132.449994
 31
0.0
  0
LINE
  5
1DDF7
  8
DANMEN
  6
CONTINUOUS
 10
269.2
 20
132.449994
 30
0.0
 11
283.0
 21
132.449994
 31
0.0
  0
LINE
  5
1DDF8
  8
DANMEN
  6
CONTINUOUS
 10
281.050003
 20
122.499997
 30
0.0
 11
274.75
 21
122.499997
 31
0.0
  0
LINE
  5
1DDF9
  8
DANMEN
  6
CONTINUOUS
 10
274.800001
 20
127.499997
 30
0.0
 11
281.183975
 21
127.499997
 31
0.0
  0
LINE
  5
1DDFA
  8
DANMEN
  6
CONTINUOUS
 10
274.800001
 20
130.699997
 30
0.0
 11
274.800001
 21
125.999997
 31
0.0
  0
LINE
  5
1DDFB
  8
DANMEN
  6
CONTINUOUS
 10
273.800001
 20
130.299997
 30
0.0
 11
273.800001
 21
126.799997
 31
0.0
  0
LINE
  5
1DDFC
  8
DANMEN
  6
CONTINUOUS
 10
272.004653
 20
130.841698
 30
0.0
 11
269.4
 21
126.799997
 31
0.0
  0
LINE
  5
1DDFD
  8
DANMEN
  6
CONTINUOUS
 10
272.845223
 20
130.299997
 30
0.0
 11
270.589667
 21
126.799997
 31
0.0
  0
LINE
  5
1DDFE
  8
DANMEN
  6
CONTINUOUS
 10
269.2
 20
125.999997
 30
0.0
 11
269.2
 21
126.999997
 31
0.0
  0
LINE
  5
1DDFF
  8
DANMEN
  6
CONTINUOUS
 10
270.9
 20
124.499997
 30
0.0
 11
272.1
 21
124.499997
 31
0.0
  0
LINE
  5
1DE00
  8
DANMEN
  6
CONTINUOUS
 10
270.589667
 20
126.799997
 30
0.0
 11
273.800001
 21
126.799997
 31
0.0
  0
LINE
  5
1DE01
  8
DANMEN
  6
CONTINUOUS
 10
273.75
 20
122.499997
 30
0.0
 11
269.2
 21
122.499997
 31
0.0
  0
LINE
  5
1DE04
  8
DANMEN
  6
CONTINUOUS
 10
270.9
 20
124.499997
 30
0.0
 11
270.4
 21
123.999997
 31
0.0
  0
LINE
  5
1DE07
  8
DANMEN
  6
CONTINUOUS
 10
270.4
 20
123.999997
 30
0.0
 11
269.4
 21
123.999997
 31
0.0
  0
LINE
  5
1DE0A
  8
DANMEN
  6
CONTINUOUS
 10
269.4
 20
125.999997
 30
0.0
 11
269.4
 21
126.799997
 31
0.0
  0
LINE
  5
1DE0E
  8
DANMEN
  6
CONTINUOUS
 10
269.4
 20
125.999997
 30
0.0
 11
270.4
 21
125.999997
 31
0.0
  0
ARC
  5
1DE0F
  8
DANMEN
  6
CONTINUOUS
 10
269.599999
 20
124.799997
 30
0.0
 40
0.2
 50
89.999982
 51
180.000019
  0
LINE
  5
1DE10
  8
DANMEN
  6
CONTINUOUS
 10
269.4
 20
124.799997
 30
0.0
 11
269.4
 21
123.999997
 31
0.0
  0
LINE
  5
1DE11
  8
DANMEN
  6
CONTINUOUS
 10
269.599999
 20
124.999997
 30
0.0
 11
270.4
 21
124.999997
 31
0.0
  0
LINE
  5
1DE12
  8
DANMEN
  6
CONTINUOUS
 10
270.4
 20
125.999997
 30
0.0
 11
270.4
 21
124.999997
 31
0.0
  0
LINE
  5
1DE15
  8
DANMEN
  6
CONTINUOUS
 10
269.2
 20
122.499997
 30
0.0
 11
269.2
 21
125.199994
 31
0.0
  0
ARC
  5
1DE16
  8
DANMEN
  6
CONTINUOUS
 10
269.75
 20
125.499997
 30
0.0
 40
0.5
 50
360.0
 51
89.999982
  0
LINE
  5
1DE17
  8
DANMEN
  6
CONTINUOUS
 10
269.75
 20
125.999997
 30
0.0
 11
269.2
 21
125.999997
 31
0.0
  0
LINE
  5
1DE18
  8
DANMEN
  6
CONTINUOUS
 10
270.25
 20
125.199994
 30
0.0
 11
269.2
 21
125.199994
 31
0.0
  0
LINE
  5
1DE19
  8
DANMEN
  6
CONTINUOUS
 10
270.25
 20
125.199994
 30
0.0
 11
270.25
 21
125.499997
 31
0.0
  0
LINE
  5
1DE1B
  8
DANMEN
  6
CONTINUOUS
 10
272.6
 20
125.999997
 30
0.0
 11
274.800001
 21
125.999997
 31
0.0
  0
LINE
  5
1DE1C
  8
DANMEN
  6
CONTINUOUS
 10
272.6
 20
123.999997
 30
0.0
 11
272.1
 21
124.499997
 31
0.0
  0
LINE
  5
1DE20
  8
DANMEN
  6
CONTINUOUS
 10
273.6
 20
123.999997
 30
0.0
 11
272.6
 21
123.999997
 31
0.0
  0
ARC
  5
1DE24
  8
DANMEN
  6
CONTINUOUS
 10
273.400001
 20
124.799997
 30
0.0
 40
0.2
 50
359.999981
 51
90.000037
  0
LINE
  5
1DE25
  8
DANMEN
  6
CONTINUOUS
 10
273.6
 20
124.799997
 30
0.0
 11
273.6
 21
123.999997
 31
0.0
  0
LINE
  5
1DE26
  8
DANMEN
  6
CONTINUOUS
 10
273.400001
 20
124.999997
 30
0.0
 11
272.6
 21
124.999997
 31
0.0
  0
LINE
  5
1DE27
  8
DANMEN
  6
CONTINUOUS
 10
272.6
 20
125.999997
 30
0.0
 11
272.6
 21
124.999997
 31
0.0
  0
ARC
  5
1DE29
  8
DANMEN
  6
CONTINUOUS
 10
274.25
 20
125.499997
 30
0.0
 40
0.5
 50
360.0
 51
89.999982
  0
ARC
  5
1DE2A
  8
DANMEN
  6
CONTINUOUS
 10
273.25
 20
125.499997
 30
0.0
 40
0.5
 50
89.999982
 51
180.000019
  0
LINE
  5
1DE2B
  8
DANMEN
  6
CONTINUOUS
 10
273.75
 20
122.499997
 30
0.0
 11
273.75
 21
125.199994
 31
0.0
  0
LINE
  5
1DE2C
  8
DANMEN
  6
CONTINUOUS
 10
273.75
 20
125.199994
 30
0.0
 11
272.75
 21
125.199994
 31
0.0
  0
LINE
  5
1DE2D
  8
DANMEN
  6
CONTINUOUS
 10
272.75
 20
125.199994
 30
0.0
 11
272.75
 21
125.499997
 31
0.0
  0
LINE
  5
1DE2E
  8
DANMEN
  6
CONTINUOUS
 10
274.75
 20
122.499997
 30
0.0
 11
274.75
 21
125.499997
 31
0.0
  0
LINE
  5
1DE2F
  8
DANMEN
  6
CONTINUOUS
 10
274.25
 20
125.999997
 30
0.0
 11
273.25
 21
125.999997
 31
0.0
  0
ARC
  5
1DE32
  8
DANMEN
  6
CONTINUOUS
 10
268.5
 20
130.999997
 30
0.0
 40
0.5
 50
180.000019
 51
270.000001
  0
ARC
  5
1DE33
  8
DANMEN
  6
CONTINUOUS
 10
268.7
 20
126.999997
 30
0.0
 40
0.5
 50
0.0
 51
90.0
  0
ARC
  5
1DE34
  8
DANMEN
  6
CONTINUOUS
 10
268.5
 20
126.999997
 30
0.0
 40
0.5
 50
90.0
 51
180.0
  0
LINE
  5
1DE35
  8
DANMEN
  6
CONTINUOUS
 10
268.5
 20
127.499997
 30
0.0
 11
268.7
 21
127.499997
 31
0.0
  0
LINE
  5
1DE36
  8
DANMEN
  6
CONTINUOUS
 10
272.845223
 20
131.299997
 30
0.0
 11
274.200001
 21
131.299997
 31
0.0
  0
LINE
  5
1DE37
  8
DANMEN
  6
CONTINUOUS
 10
272.845223
 20
130.299997
 30
0.0
 11
273.800001
 21
130.299997
 31
0.0
  0
ARC
  5
1DE3C
  8
DANMEN
  6
CONTINUOUS
 10
274.200001
 20
130.699997
 30
0.0
 40
0.6
 50
0.0
 51
90.0
  0
ARC
  5
1DE3F
  8
DANMEN
  6
CONTINUOUS
 10
272.845223
 20
130.299997
 30
0.0
 40
1.0
 50
90.0
 51
147.20046
  0
LINE
  5
1DE43
  8
DANMEN
  6
CONTINUOUS
 10
281.050003
 20
122.499997
 30
0.0
 11
281.050003
 21
126.999997
 31
0.0
  0
LINE
  5
1DE44
  8
DANMEN
  6
CONTINUOUS
 10
282.55
 20
122.499997
 30
0.0
 11
282.55
 21
126.499997
 31
0.0
  0
ARC
  5
1DE46
  8
DANMEN
  6
CONTINUOUS
 10
282.05
 20
126.999997
 30
0.0
 40
1.0
 50
89.999982
 51
180.000019
  0
LINE
  5
1DE47
  8
DANMEN
  6
CONTINUOUS
 10
268.5
 20
135.499997
 30
0.0
 11
271.0
 21
135.499997
 31
0.0
  0
LINE
  5
1DE48
  8
DANMEN
  6
CONTINUOUS
 10
271.0
 20
135.499997
 30
0.0
 11
271.0
 21
135.347518
 31
0.0
  0
ARC
  5
1DE4A
  8
DANMEN
  6
CONTINUOUS
 10
268.5
 20
134.999997
 30
0.0
 40
0.5
 50
89.999982
 51
180.000019
  0
LINE
  5
1DE4E
  8
DANMEN
  6
CONTINUOUS
 10
270.555216
 20
134.850576
 30
0.0
 11
269.2
 21
134.699997
 31
0.0
  0
ARC
  5
1DE4F
  8
DANMEN
  6
CONTINUOUS
 10
270.5
 20
135.347518
 30
0.0
 40
0.5
 50
276.340191
 51
0.0
  0
LINE
  5
1DE53
  8
DANMEN
  6
CONTINUOUS
 10
286.8
 20
124.999997
 30
0.0
 11
297.0
 21
124.999997
 31
0.0
  0
LINE
  5
1DE54
  8
DANMEN
  6
CONTINUOUS
 10
292.5
 20
127.299997
 30
0.0
 11
286.714855
 21
125.58766
 31
0.0
  0
LINE
  5
1DE55
  8
DANMEN
  6
CONTINUOUS
 10
286.550003
 20
125.699997
 30
0.0
 11
292.335148
 21
127.412333
 31
0.0
  0
ARC
  5
1DE58
  8
DANMEN
  6
CONTINUOUS
 10
286.8
 20
125.299997
 30
0.0
 40
0.3
 50
106.488148
 51
270.0
  0
LINE
  5
1DE59
  8
DANMEN
  6
CONTINUOUS
 10
286.550003
 20
125.699997
 30
0.0
 11
286.050003
 21
125.699997
 31
0.0
  0
LINE
  5
1DE5A
  8
DANMEN
  6
CONTINUOUS
 10
286.050003
 20
126.499997
 30
0.0
 11
286.050003
 21
125.699997
 31
0.0
  0
LINE
  5
1DE5C
  8
DANMEN
  6
CONTINUOUS
 10
296.5
 20
130.499997
 30
0.0
 11
296.5
 21
126.499997
 31
0.0
  0
LINE
  5
1DE5D
  8
DANMEN
  6
CONTINUOUS
 10
298.0
 20
130.499997
 30
0.0
 11
298.0
 21
125.999997
 31
0.0
  0
LINE
  5
1DE5E
  8
DANMEN
  6
CONTINUOUS
 10
293.0
 20
126.499997
 30
0.0
 11
293.0
 21
127.299997
 31
0.0
  0
LINE
  5
1DE5F
  8
DANMEN
  6
CONTINUOUS
 10
293.0
 20
126.499997
 30
0.0
 11
296.5
 21
126.499997
 31
0.0
  0
ARC
  5
1DE64
  8
DANMEN
  6
CONTINUOUS
 10
297.0
 20
125.999997
 30
0.0
 40
1.0
 50
270.000018
 51
0.0
  0
LINE
  5
1DE67
  8
DANMEN
  6
CONTINUOUS
 10
292.47361
 20
127.499997
 30
0.0
 11
296.5
 21
127.499997
 31
0.0
  0
LINE
  5
1DE68
  8
DANMEN
  6
CONTINUOUS
 10
292.5
 20
127.299997
 30
0.0
 11
293.0
 21
127.299997
 31
0.0
  0
ARC
  5
1DE6B
  8
DANMEN
  6
CONTINUOUS
 10
292.250003
 20
127.699997
 30
0.0
 40
0.3
 50
286.488148
 51
90.0
  0
LINE
  5
1DE6E
  8
DANMEN
  6
CONTINUOUS
 10
269.2
 20
152.55
 30
0.0
 11
283.0
 21
152.55
 31
0.0
  0
LINE
  5
1DE6F
  8
DANMEN
  6
CONTINUOUS
 10
268.0
 20
153.999997
 30
0.0
 11
268.0
 21
149.999997
 31
0.0
  0
ARC
  5
1DE70
  8
DANMEN
  6
CONTINUOUS
 10
270.5
 20
149.652476
 30
0.0
 40
0.5
 50
0.0
 51
83.659809
  0
LINE
  5
1DE71
  8
DANMEN
  6
CONTINUOUS
 10
268.5
 20
149.499997
 30
0.0
 11
271.0
 21
149.499997
 31
0.0
  0
LINE
  5
1DE72
  8
DANMEN
  6
CONTINUOUS
 10
271.0
 20
149.652476
 30
0.0
 11
271.0
 21
149.499997
 31
0.0
  0
ARC
  5
1DE74
  8
DANMEN
  6
CONTINUOUS
 10
268.5
 20
149.999997
 30
0.0
 40
0.5
 50
180.000019
 51
270.000001
  0
LINE
  5
1DE76
  8
DANMEN
  6
CONTINUOUS
 10
269.2
 20
152.55
 30
0.0
 11
269.2
 21
150.299997
 31
0.0
  0
ARC
  5
1DE79
  8
DANMEN
  6
CONTINUOUS
 10
268.5
 20
153.999997
 30
0.0
 40
0.5
 50
89.999982
 51
180.000019
  0
LINE
  5
1DE7C
  8
DANMEN
  6
CONTINUOUS
 10
269.2
 20
150.299997
 30
0.0
 11
270.555216
 21
150.149417
 31
0.0
  0
LINE
  5
1DE80
  8
DANMEN
  6
CONTINUOUS
 10
316.050003
 20
152.55
 30
0.0
 11
316.050003
 21
132.449994
 31
0.0
  0
LINE
  5
1DE81
  8
DANMEN
  6
CONTINUOUS
 10
318.0
 20
153.499997
 30
0.0
 11
318.0
 21
126.099997
 31
0.0
  0
ARC
  5
1DE82
  8
DANMEN
  6
CONTINUOUS
 10
317.4
 20
126.099997
 30
0.0
 40
0.6
 50
180.0
 51
0.0
  0
LINE
  5
1DE83
  8
DANMEN
  6
CONTINUOUS
 10
317.499996
 20
122.499997
 30
0.0
 11
301.0
 21
122.499997
 31
0.0
  0
LINE
  5
1DE84
  8
DANMEN
  6
CONTINUOUS
 10
304.949997
 20
134.499997
 30
0.0
 11
304.949997
 21
132.449994
 31
0.0
  0
LINE
  5
1DE85
  8
DANMEN
  6
CONTINUOUS
 10
303.949997
 20
133.999997
 30
0.0
 11
303.949997
 21
132.449994
 31
0.0
  0
LINE
  5
1DE86
  8
DANMEN
  6
CONTINUOUS
 10
304.949997
 20
132.449994
 30
0.0
 11
316.050003
 21
132.449994
 31
0.0
  0
LINE
  5
1DE89
  8
DANMEN
  6
CONTINUOUS
 10
316.8
 20
130.499997
 30
0.0
 11
316.8
 21
126.099997
 31
0.0
  0
LINE
  5
1DE8D
  8
DANMEN
  6
CONTINUOUS
 10
304.449997
 20
134.499997
 30
0.0
 11
304.949997
 21
134.499997
 31
0.0
  0
ARC
  5
1DE8F
  8
DANMEN
  6
CONTINUOUS
 10
304.449997
 20
133.999997
 30
0.0
 40
0.5
 50
89.999982
 51
180.000019
  0
ARC
  5
1DE92
  8
DANMEN
  6
CONTINUOUS
 10
317.499997
 20
121.999997
 30
0.0
 40
0.5
 50
0.000091
 51
90.000128
  0
LINE
  5
1DE93
  8
DANMEN
  6
CONTINUOUS
 10
304.949997
 20
152.55
 30
0.0
 11
316.050003
 21
152.55
 31
0.0
  0
LINE
  5
1DE94
  8
DANMEN
  6
CONTINUOUS
 10
304.449997
 20
150.499997
 30
0.0
 11
304.949997
 21
150.499997
 31
0.0
  0
LINE
  5
1DE95
  8
DANMEN
  6
CONTINUOUS
 10
303.949997
 20
152.55
 30
0.0
 11
303.949997
 21
150.999997
 31
0.0
  0
ARC
  5
1DE97
  8
DANMEN
  6
CONTINUOUS
 10
304.449997
 20
150.999997
 30
0.0
 40
0.5
 50
180.000019
 51
270.000001
  0
LINE
  5
1DE99
  8
DANMEN
  6
CONTINUOUS
 10
304.949997
 20
152.55
 30
0.0
 11
304.949997
 21
150.499997
 31
0.0
  0
ARC
  5
1DE9E
  8
DANMEN
  6
CONTINUOUS
 10
317.0
 20
153.499997
 30
0.0
 40
1.0
 50
0.0
 51
89.999982
  0
LINE
  5
1DE9F
  8
SUNPO
  6
CONTINUOUS
 10
22.0
 20
185.5
 30
0.0
 11
22.0
 21
220.5
 31
0.0
  0
LINE
  5
1DEA0
  8
DANMEN
  6
CONTINUOUS
 10
358.500004
 20
122.5
 30
0.0
 11
375.0
 21
122.5
 31
0.0
  0
LINE
  5
1DEA1
  8
DANMEN
  6
CONTINUOUS
 10
339.5
 20
154.5
 30
0.0
 11
388.0
 21
154.5
 31
0.0
  0
LINE
  5
1DEA2
  8
DANMEN
  6
CONTINUOUS
 10
339.5
 20
127.5
 30
0.0
 11
388.0
 21
127.5
 31
0.0
  0
LINE
  5
1DEA3
  8
DANMEN
  6
CONTINUOUS
 10
339.5
 20
144.0
 30
0.0
 11
388.0
 21
144.0
 31
0.0
  0
LINE
  5
1DEA4
  8
DANMEN
  6
CONTINUOUS
 10
339.5
 20
141.0
 30
0.0
 11
388.0
 21
141.0
 31
0.0
  0
LINE
  5
1DEA5
  8
DANMEN
  6
CONTINUOUS
 10
373.0
 20
161.5
 30
0.0
 11
353.0
 21
161.5
 31
0.0
  0
LINE
  5
1DEA6
  8
DANMEN
  6
CONTINUOUS
 10
339.5
 20
121.000015
 30
0.0
 11
349.35104
 21
121.000015
 31
0.0
  0
LINE
  5
1DEA7
  8
DANMEN
  6
CONTINUOUS
 10
339.5
 20
122.5
 30
0.0
 11
349.354875
 21
122.5
 31
0.0
  0
LINE
  5
1DEA8
  8
DANMEN
  6
CONTINUOUS
 10
352.35104
 20
121.000015
 30
0.0
 11
358.0
 21
121.000015
 31
0.0
  0
LINE
  5
1DEA9
  8
DANMEN
  6
CONTINUOUS
 10
352.354875
 20
122.5
 30
0.0
 11
358.0
 21
122.5
 31
0.0
  0
ARC
  5
1DEAA
  8
DANMEN
  6
CONTINUOUS
 10
358.500003
 20
122.0
 30
0.0
 40
0.5
 50
89.999872
 51
179.999909
  0
LINE
  5
1DEAB
  8
DANMEN
  6
CONTINUOUS
 10
348.600006
 20
164.5
 30
0.0
 11
353.0
 21
164.5
 31
0.0
  0
LINE
  5
1DEAC
  8
DANMEN
  6
CONTINUOUS
 10
348.600006
 20
163.300003
 30
0.0
 11
353.0
 21
163.300003
 31
0.0
  0
LINE
  5
1DEAD
  8
DANMEN
  6
CONTINUOUS
 10
353.0
 20
160.300003
 30
0.0
 11
339.5
 21
160.300003
 31
0.0
  0
LINE
  5
1DEAE
  8
DANMEN
  6
CONTINUOUS
 10
348.600006
 20
164.5
 30
0.0
 11
339.5
 21
164.5
 31
0.0
  0
LINE
  5
1DEAF
  8
DANMEN
  6
CONTINUOUS
 10
348.600006
 20
163.300003
 30
0.0
 11
339.5
 21
163.300003
 31
0.0
  0
ARC
  5
1DEB0
  8
DANMEN
  6
CONTINUOUS
 10
348.600006
 20
163.899994
 30
0.0
 40
0.6
 50
89.999963
 51
269.999982
  0
LINE
  5
1DEB5
  8
DANMEN
  6
CONTINUOUS
 10
353.0
 20
164.5
 30
0.0
 11
353.0
 21
160.300003
 31
0.0
  0
LINE
  5
1DEB7
  8
DANMEN
  6
CONTINUOUS
 10
388.0
 20
160.300003
 30
0.0
 11
388.0
 21
122.499994
 31
0.0
  0
LINE
  5
1DEB8
  8
DANMEN
  6
CONTINUOUS
 10
388.0
 20
122.499994
 30
0.0
 11
375.0
 21
122.499994
 31
0.0
  0
LINE
  5
1DEB9
  8
DANMEN
  6
CONTINUOUS
 10
397.5
 20
161.5
 30
0.0
 11
373.5
 21
161.5
 31
0.0
  0
LINE
  5
1DEBA
  8
DANMEN
  6
CONTINUOUS
 10
386.0
 20
159.850006
 30
0.0
 11
373.5
 21
159.850006
 31
0.0
  0
LINE
  5
1DEBB
  8
DANMEN
  6
CONTINUOUS
 10
373.0
 20
161.0
 30
0.0
 11
373.0
 21
160.350006
 31
0.0
  0
ARC
  5
1DEBC
  8
DANMEN
  6
CONTINUOUS
 10
373.5
 20
160.350006
 30
0.0
 40
0.5
 50
180.000019
 51
270.000001
  0
ARC
  5
1DEBD
  8
DANMEN
  6
CONTINUOUS
 10
373.5
 20
161.0
 30
0.0
 40
0.5
 50
90.000037
 51
180.000019
  0
ARC
  5
1DEBE
  8
DANMEN
  6
CONTINUOUS
 10
397.5
 20
156.0
 30
0.0
 40
0.5
 50
270.000018
 51
359.999981
  0
ARC
  5
1DEBF
  8
DANMEN
  6
CONTINUOUS
 10
396.850006
 20
156.0
 30
0.0
 40
0.5
 50
180.000019
 51
270.000001
  0
LINE
  5
1DEC0
  8
DANMEN
  6
CONTINUOUS
 10
397.5
 20
155.5
 30
0.0
 11
396.850006
 21
155.5
 31
0.0
  0
LINE
  5
1DEC1
  8
DANMEN
  6
CONTINUOUS
 10
396.350006
 20
159.850006
 30
0.0
 11
389.649994
 21
159.850006
 31
0.0
  0
LINE
  5
1DEC2
  8
DANMEN
  6
CONTINUOUS
 10
388.0
 20
160.300003
 30
0.0
 11
386.0
 21
160.300003
 31
0.0
  0
LINE
  5
1DEC3
  8
DANMEN
  6
CONTINUOUS
 10
386.0
 20
160.300003
 30
0.0
 11
386.0
 21
159.850006
 31
0.0
  0
LINE
  5
1DEC4
  8
DANMEN
  6
CONTINUOUS
 10
398.0
 20
161.0
 30
0.0
 11
398.0
 21
156.0
 31
0.0
  0
LINE
  5
1DEC5
  8
DANMEN
  6
CONTINUOUS
 10
396.350006
 20
159.850006
 30
0.0
 11
396.350006
 21
156.0
 31
0.0
  0
ARC
  5
1DEC6
  8
DANMEN
  6
CONTINUOUS
 10
397.5
 20
161.0
 30
0.0
 40
0.5
 50
0.0
 51
89.999982
  0
TEXT
  5
1DEC7
  8
SUNPO
  6
CONTINUOUS
 10
58.916667
 20
166.5
 30
0.0
 40
2.5
  1
24
  7
MX_NOTE_STANDARD
  0
TEXT
  5
1DEC8
  8
SUNPO
  6
CONTINUOUS
 10
34.013333
 20
166.5
 30
0.0
 40
2.5
  1
3
  7
MX_NOTE_STANDARD
  0
TEXT
  5
1DEC9
  8
SUNPO
  6
CONTINUOUS
 10
44.666667
 20
166.5
 30
0.0
 40
2.5
  1
7
  7
MX_NOTE_STANDARD
  0
LINE
  5
1DECA
  8
SUNPO
  6
CONTINUOUS
 10
40.5
 20
159.5
 30
0.0
 11
22.0
 21
159.5
 31
0.0
  0
ARC
  5
1DECB
  8
SUNPO
  6
BYBLOCK
 10
22.0
 20
159.5
 30
0.0
 40
0.145
 50
90.0
 51
270.0
  0
ARC
  5
1DECC
  8
SUNPO
  6
BYBLOCK
 10
22.0
 20
159.5
 30
0.0
 40
0.145
 50
270.0
 51
90.0
  0
LINE
  5
1DECD
  8
SUNPO
  6
CONTINUOUS
 10
49.0
 20
165.5
 30
0.0
 11
42.0
 21
165.5
 31
0.0
  0
LINE
  5
1DECE
  8
SUNPO
  6
CONTINUOUS
 10
42.0
 20
165.5
 30
0.0
 11
39.0
 21
165.5
 31
0.0
  0
LINE
  5
1DECF
  8
SUNPO
  6
CONTINUOUS
 10
39.0
 20
157.0
 30
0.0
 11
39.0
 21
165.5
 31
0.0
  0
LINE
  5
1DED0
  8
SUNPO
  6
CONTINUOUS
 10
39.0
 20
165.5
 30
0.0
 11
33.013333
 21
165.5
 31
0.0
  0
ARC
  5
1DED1
  8
SUNPO
  6
BYBLOCK
 10
39.0
 20
165.5
 30
0.0
 40
0.145
 50
180.0
 51
0.0
  0
ARC
  5
1DED2
  8
SUNPO
  6
BYBLOCK
 10
39.0
 20
165.5
 30
0.0
 40
0.145
 50
0.0
 51
180.0
  0
ARC
  5
1DED3
  8
SUNPO
  6
BYBLOCK
 10
42.0
 20
165.5
 30
0.0
 40
0.145
 50
180.0
 51
0.0
  0
ARC
  5
1DED4
  8
SUNPO
  6
BYBLOCK
 10
42.0
 20
165.5
 30
0.0
 40
0.145
 50
0.0
 51
180.0
  0
ARC
  5
1DED5
  8
SUNPO
  6
BYBLOCK
 10
42.0
 20
165.5
 30
0.0
 40
0.145
 50
0.0
 51
180.0
  0
ARC
  5
1DED6
  8
SUNPO
  6
BYBLOCK
 10
42.0
 20
165.5
 30
0.0
 40
0.145
 50
180.0
 51
0.0
  0
ARC
  5
1DED7
  8
SUNPO
  6
BYBLOCK
 10
49.0
 20
165.5
 30
0.0
 40
0.145
 50
0.0
 51
180.0
  0
ARC
  5
1DED8
  8
SUNPO
  6
BYBLOCK
 10
49.0
 20
165.5
 30
0.0
 40
0.145
 50
180.0
 51
0.0
  0
ARC
  5
1DED9
  8
SUNPO
  6
BYBLOCK
 10
49.0
 20
165.5
 30
0.0
 40
0.145
 50
180.0
 51
0.0
  0
ARC
  5
1DEDA
  8
SUNPO
  6
BYBLOCK
 10
49.0
 20
165.5
 30
0.0
 40
0.145
 50
0.0
 51
180.0
  0
LINE
  5
1DEDB
  8
SUNPO
  6
CONTINUOUS
 10
40.5
 20
185.5
 30
0.0
 11
22.0
 21
185.5
 31
0.0
  0
ARC
  5
1DEDC
  8
SUNPO
  6
BYBLOCK
 10
22.0
 20
185.5
 30
0.0
 40
0.145
 50
270.0
 51
90.0
  0
ARC
  5
1DEDD
  8
SUNPO
  6
BYBLOCK
 10
22.0
 20
185.5
 30
0.0
 40
0.145
 50
90.0
 51
270.0
  0
TEXT
  5
1DEDE
  8
SUNPO
  6
CONTINUOUS
 10
21.0
 20
200.916667
 30
0.0
 40
2.5
  1
35
 50
90.0
  7
MX_NOTE_STANDARD
  0
ARC
  5
1DEDF
  8
SUNPO
  6
BYBLOCK
 10
42.0
 20
175.5
 30
0.0
 40
0.145
 50
180.0
 51
0.0
  0
ARC
  5
1DEE0
  8
SUNPO
  6
BYBLOCK
 10
42.0
 20
175.5
 30
0.0
 40
0.145
 50
0.0
 51
180.0
  0
LINE
  5
1DEE1
  8
SUNPO
  6
CONTINUOUS
 10
40.5
 20
255.5
 30
0.0
 11
22.0
 21
255.5
 31
0.0
  0
LINE
  5
1DEE2
  8
SUNPO
  6
CONTINUOUS
 10
40.5
 20
220.5
 30
0.0
 11
22.0
 21
220.5
 31
0.0
  0
TEXT
  5
1DEE3
  8
SUNPO
  6
CONTINUOUS
 10
21.0
 20
235.916667
 30
0.0
 40
2.5
  1
35
 50
90.0
  7
MX_NOTE_STANDARD
  0
LINE
  5
1DEE4
  8
SUNPO
  6
CONTINUOUS
 10
22.0
 20
255.5
 30
0.0
 11
22.0
 21
220.5
 31
0.0
  0
ARC
  5
1DEE5
  8
SUNPO
  6
BYBLOCK
 10
22.0
 20
220.5
 30
0.0
 40
0.145
 50
270.0
 51
90.0
  0
ARC
  5
1DEE6
  8
SUNPO
  6
BYBLOCK
 10
22.0
 20
220.5
 30
0.0
 40
0.145
 50
90.0
 51
270.0
  0
ARC
  5
1DEE7
  8
SUNPO
  6
BYBLOCK
 10
22.0
 20
220.5
 30
0.0
 40
0.145
 50
90.0
 51
270.0
  0
ARC
  5
1DEE8
  8
SUNPO
  6
BYBLOCK
 10
22.0
 20
220.5
 30
0.0
 40
0.145
 50
270.0
 51
90.0
  0
ARC
  5
1DEE9
  8
SUNPO
  6
BYBLOCK
 10
22.0
 20
255.5
 30
0.0
 40
0.145
 50
90.0
 51
270.0
  0
ARC
  5
1DEEA
  8
SUNPO
  6
BYBLOCK
 10
22.0
 20
255.5
 30
0.0
 40
0.145
 50
270.0
 51
90.0
  0
LINE
  5
1DEEB
  8
SUNPO
  6
CONTINUOUS
 10
191.0
 20
171.499997
 30
0.0
 11
256.0
 21
171.499997
 31
0.0
  0
LINE
  5
1DEEC
  8
SUNPO
  6
CONTINUOUS
 10
153.0
 20
220.5
 30
0.0
 11
153.0
 21
185.5
 31
0.0
  0
LINE
  5
1DEED
  8
SUNPO
  6
CONTINUOUS
 10
163.0
 20
220.5
 30
0.0
 11
163.0
 21
169.561083
 31
0.0
  0
LINE
  5
1DEEE
  8
SUNPO
  6
CONTINUOUS
 10
113.5
 20
159.5
 30
0.0
 11
153.0
 21
159.5
 31
0.0
  0
LINE
  5
1DEEF
  8
SUNPO
  6
CONTINUOUS
 10
140.0
 20
165.5
 30
0.0
 11
112.0
 21
165.5
 31
0.0
  0
LINE
  5
1DEF0
  8
SUNPO
  6
CONTINUOUS
 10
113.5
 20
185.5
 30
0.0
 11
153.0
 21
185.5
 31
0.0
  0
LINE
  5
1DEF1
  8
SUNPO
  6
CONTINUOUS
 10
113.5
 20
138.5
 30
0.0
 11
153.0
 21
138.5
 31
0.0
  0
TEXT
  5
1DEF2
  8
SUNPO
  6
CONTINUOUS
 10
123.916667
 20
166.5
 30
0.0
 40
2.5
  1
28
  7
MX_NOTE_STANDARD
  0
TEXT
  5
1DEF3
  8
SUNPO
  6
CONTINUOUS
 10
76.166667
 20
166.5
 30
0.0
 40
2.5
  1
8
  7
MX_NOTE_STANDARD
  0
TEXT
  5
1DEF4
  8
SUNPO
  6
CONTINUOUS
 10
94.833333
 20
166.5
 30
0.0
 40
2.5
  1
31
  7
MX_NOTE_STANDARD
  0
TEXT
  5
1DEF5
  8
SUNPO
  6
CONTINUOUS
 10
94.948596
 20
149.639205
 30
0.0
 40
2.5
  1
20
  7
MX_NOTE_STANDARD
  0
LINE
  5
1DEF6
  8
SUNPO
  6
CONTINUOUS
 10
83.5
 20
148.639205
 30
0.0
 11
103.5
 21
148.639205
 31
0.0
  0
LINE
  5
1DEF7
  8
SUNPO
  6
CONTINUOUS
 10
81.0
 20
165.5
 30
0.0
 11
112.0
 21
165.5
 31
0.0
  0
LINE
  5
1DEF8
  8
SUNPO
  6
CONTINUOUS
 10
83.5
 20
139.5
 30
0.0
 11
83.5
 21
148.639205
 31
0.0
  0
ARC
  5
1DEF9
  8
SUNPO
  6
BYBLOCK
 10
81.0
 20
148.639205
 30
0.0
 40
0.145
 50
180.0
 51
0.0
  0
ARC
  5
1DEFA
  8
SUNPO
  6
BYBLOCK
 10
81.0
 20
148.639205
 30
0.0
 40
0.145
 50
0.0
 51
180.0
  0
ARC
  5
1DEFB
  8
SUNPO
  6
BYBLOCK
 10
81.0
 20
165.5
 30
0.0
 40
0.145
 50
180.0
 51
0.0
  0
ARC
  5
1DEFC
  8
SUNPO
  6
BYBLOCK
 10
81.0
 20
165.5
 30
0.0
 40
0.145
 50
0.0
 51
180.0
  0
ARC
  5
1DEFD
  8
SUNPO
  6
BYBLOCK
 10
81.0
 20
165.5
 30
0.0
 40
0.145
 50
0.0
 51
180.0
  0
ARC
  5
1DEFE
  8
SUNPO
  6
BYBLOCK
 10
81.0
 20
165.5
 30
0.0
 40
0.145
 50
180.0
 51
0.0
  0
TEXT
  5
1DEFF
  8
SUNPO
  6
CONTINUOUS
 10
79.75
 20
149.639205
 30
0.0
 40
2.5
  1
2.5
  7
MX_NOTE_STANDARD
  0
LINE
  5
1DF00
  8
SUNPO
  6
CONTINUOUS
 10
81.0
 20
165.5
 30
0.0
 11
73.0
 21
165.5
 31
0.0
  0
ARC
  5
1DF01
  8
SUNPO
  6
BYBLOCK
 10
73.0
 20
165.5
 30
0.0
 40
0.145
 50
180.0
 51
0.0
  0
ARC
  5
1DF02
  8
SUNPO
  6
BYBLOCK
 10
73.0
 20
165.5
 30
0.0
 40
0.145
 50
0.0
 51
180.0
  0
ARC
  5
1DF03
  8
SUNPO
  6
BYBLOCK
 10
73.0
 20
165.5
 30
0.0
 40
0.145
 50
0.0
 51
180.0
  0
ARC
  5
1DF04
  8
SUNPO
  6
BYBLOCK
 10
73.0
 20
165.5
 30
0.0
 40
0.145
 50
180.0
 51
0.0
  0
ARC
  5
1DF05
  8
SUNPO
  6
BYBLOCK
 10
83.5
 20
148.639205
 30
0.0
 40
0.145
 50
0.0
 51
180.0
  0
ARC
  5
1DF06
  8
SUNPO
  6
BYBLOCK
 10
83.5
 20
148.639205
 30
0.0
 40
0.145
 50
180.0
 51
0.0
  0
ARC
  5
1DF07
  8
SUNPO
  6
BYBLOCK
 10
83.5
 20
148.639205
 30
0.0
 40
0.145
 50
180.0
 51
0.0
  0
ARC
  5
1DF08
  8
SUNPO
  6
BYBLOCK
 10
83.5
 20
148.639205
 30
0.0
 40
0.145
 50
0.0
 51
180.0
  0
LINE
  5
1DF09
  8
SUNPO
  6
CONTINUOUS
 10
81.0
 20
148.639205
 30
0.0
 11
83.5
 21
148.639205
 31
0.0
  0
LINE
  5
1DF0A
  8
SUNPO
  6
CONTINUOUS
 10
105.9
 20
139.5
 30
0.0
 11
105.9
 21
148.639205
 31
0.0
  0
LINE
  5
1DF0B
  8
SUNPO
  6
CONTINUOUS
 10
103.5
 20
139.5
 30
0.0
 11
103.5
 21
148.639205
 31
0.0
  0
LINE
  5
1DF0C
  8
SUNPO
  6
CONTINUOUS
 10
112.0
 20
123.497913
 30
0.0
 11
112.0
 21
165.5
 31
0.0
  0
TEXT
  5
1DF0D
  8
SUNPO
  6
CONTINUOUS
 10
109.22
 20
149.639205
 30
0.0
 40
2.5
  1
2.4
  7
MX_NOTE_STANDARD
  0
LINE
  5
1DF0E
  8
SUNPO
  6
CONTINUOUS
 10
105.9
 20
148.639205
 30
0.0
 11
115.22
 21
148.639205
 31
0.0
  0
LINE
  5
1DF0F
  8
SUNPO
  6
CONTINUOUS
 10
103.5
 20
148.639205
 30
0.0
 11
105.9
 21
148.639205
 31
0.0
  0
ARC
  5
1DF10
  8
SUNPO
  6
BYBLOCK
 10
103.5
 20
148.639205
 30
0.0
 40
0.145
 50
180.0
 51
0.0
  0
ARC
  5
1DF11
  8
SUNPO
  6
BYBLOCK
 10
103.5
 20
148.639205
 30
0.0
 40
0.145
 50
0.0
 51
180.0
  0
ARC
  5
1DF12
  8
SUNPO
  6
BYBLOCK
 10
103.5
 20
148.639205
 30
0.0
 40
0.145
 50
0.0
 51
180.0
  0
ARC
  5
1DF13
  8
SUNPO
  6
BYBLOCK
 10
103.5
 20
148.639205
 30
0.0
 40
0.145
 50
180.0
 51
0.0
  0
ARC
  5
1DF14
  8
SUNPO
  6
BYBLOCK
 10
105.9
 20
148.639205
 30
0.0
 40
0.145
 50
0.0
 51
180.0
  0
ARC
  5
1DF15
  8
SUNPO
  6
BYBLOCK
 10
105.9
 20
148.639205
 30
0.0
 40
0.145
 50
180.0
 51
0.0
  0
ARC
  5
1DF16
  8
SUNPO
  6
BYBLOCK
 10
112.0
 20
165.5
 30
0.0
 40
0.145
 50
0.0
 51
180.0
  0
ARC
  5
1DF17
  8
SUNPO
  6
BYBLOCK
 10
112.0
 20
165.5
 30
0.0
 40
0.145
 50
180.0
 51
0.0
  0
ARC
  5
1DF18
  8
SUNPO
  6
BYBLOCK
 10
112.0
 20
165.5
 30
0.0
 40
0.145
 50
180.0
 51
0.0
  0
ARC
  5
1DF19
  8
SUNPO
  6
BYBLOCK
 10
112.0
 20
165.5
 30
0.0
 40
0.145
 50
0.0
 51
180.0
  0
TEXT
  5
1DF1A
  8
SUNPO
  6
CONTINUOUS
 10
76.443604
 20
176.5
 30
0.0
 40
2.5
  1
70
  7
MX_NOTE_STANDARD
  0
LINE
  5
1DF1B
  8
SUNPO
  6
CONTINUOUS
 10
112.0
 20
180.002085
 30
0.0
 11
112.0
 21
175.5
 31
0.0
  0
ARC
  5
1DF1C
  8
SUNPO
  6
BYBLOCK
 10
112.0
 20
175.5
 30
0.0
 40
0.145
 50
0.0
 51
180.0
  0
ARC
  5
1DF1D
  8
SUNPO
  6
BYBLOCK
 10
112.0
 20
175.5
 30
0.0
 40
0.145
 50
180.0
 51
0.0
  0
LINE
  5
1DF1E
  8
SUNPO
  6
CONTINUOUS
 10
188.0
 20
162.999997
 30
0.0
 11
188.0
 21
171.499997
 31
0.0
  0
LINE
  5
1DF1F
  8
SUNPO
  6
CONTINUOUS
 10
191.0
 20
162.999997
 30
0.0
 11
191.0
 21
171.499997
 31
0.0
  0
LINE
  5
1DF20
  8
SUNPO
  6
CONTINUOUS
 10
159.0
 20
153.641045
 30
0.0
 11
167.0
 21
153.641045
 31
0.0
  0
LINE
  5
1DF21
  8
SUNPO
  6
CONTINUOUS
 10
159.0
 20
159.141045
 30
0.0
 11
167.0
 21
159.141045
 31
0.0
  0
LINE
  5
1DF22
  8
SUNPO
  6
CONTINUOUS
 10
159.0
 20
151.641045
 30
0.0
 11
167.0
 21
151.641045
 31
0.0
  0
LINE
  5
1DF23
  8
SUNPO
  6
CONTINUOUS
 10
153.0
 20
159.5
 30
0.0
 11
153.0
 21
138.5
 31
0.0
  0
ARC
  5
1DF24
  8
SUNPO
  6
BYBLOCK
 10
153.0
 20
138.5
 30
0.0
 40
0.145
 50
270.0
 51
90.0
  0
ARC
  5
1DF25
  8
SUNPO
  6
BYBLOCK
 10
153.0
 20
138.5
 30
0.0
 40
0.145
 50
90.0
 51
270.0
  0
ARC
  5
1DF26
  8
SUNPO
  6
BYBLOCK
 10
153.0
 20
138.5
 30
0.0
 40
0.145
 50
90.0
 51
270.0
  0
ARC
  5
1DF27
  8
SUNPO
  6
BYBLOCK
 10
153.0
 20
138.5
 30
0.0
 40
0.145
 50
270.0
 51
90.0
  0
ARC
  5
1DF28
  8
SUNPO
  6
BYBLOCK
 10
140.0
 20
165.5
 30
0.0
 40
0.145
 50
0.0
 51
180.0
  0
ARC
  5
1DF29
  8
SUNPO
  6
BYBLOCK
 10
140.0
 20
165.5
 30
0.0
 40
0.145
 50
180.0
 51
0.0
  0
TEXT
  5
1DF2A
  8
SUNPO
  6
CONTINUOUS
 10
152.0
 20
147.333333
 30
0.0
 40
2.5
  1
21
 50
90.0
  7
MX_NOTE_STANDARD
  0
LINE
  5
1DF2B
  8
SUNPO
  6
CONTINUOUS
 10
159.0
 20
155.041039
 30
0.0
 11
159.0
 21
149.843696
 31
0.0
  0
ARC
  5
1DF2C
  8
SUNPO
  6
BYBLOCK
 10
153.0
 20
159.5
 30
0.0
 40
0.145
 50
90.0
 51
270.0
  0
ARC
  5
1DF2D
  8
SUNPO
  6
BYBLOCK
 10
153.0
 20
159.5
 30
0.0
 40
0.145
 50
270.0
 51
90.0
  0
LINE
  5
1DF2E
  8
SUNPO
  6
CONTINUOUS
 10
159.0
 20
161.153991
 30
0.0
 11
159.0
 21
157.420944
 31
0.0
  0
LINE
  5
1DF2F
  8
SUNPO
  6
CONTINUOUS
 10
161.799927
 20
167.156304
 30
0.0
 11
161.799927
 21
162.367761
 31
0.0
  0
LINE
  5
1DF30
  8
SUNPO
  6
CONTINUOUS
 10
163.0
 20
159.141045
 30
0.0
 11
163.0
 21
153.641045
 31
0.0
  0
LINE
  5
1DF31
  8
SUNPO
  6
CONTINUOUS
 10
167.0
 20
155.041039
 30
0.0
 11
167.0
 21
149.843696
 31
0.0
  0
LINE
  5
1DF32
  8
SUNPO
  6
CONTINUOUS
 10
167.0
 20
161.153991
 30
0.0
 11
167.0
 21
157.420944
 31
0.0
  0
LINE
  5
1DF35
  8
SUNPO
  6
CONTINUOUS
 10
164.199921
 20
167.156304
 30
0.0
 11
164.199921
 21
162.367761
 31
0.0
  0
ARC
  5
1DF36
  8
SUNPO
  6
BYBLOCK
 10
153.0
 20
185.5
 30
0.0
 40
0.145
 50
270.0
 51
90.0
  0
ARC
  5
1DF37
  8
SUNPO
  6
BYBLOCK
 10
153.0
 20
185.5
 30
0.0
 40
0.145
 50
90.0
 51
270.0
  0
TEXT
  5
1DF38
  8
SUNPO
  6
CONTINUOUS
 10
152.0
 20
200.916667
 30
0.0
 40
2.5
  1
35
 50
90.0
  7
MX_NOTE_STANDARD
  0
TEXT
  5
1DF39
  8
SUNPO
  6
CONTINUOUS
 10
188.666667
 20
172.499997
 30
0.0
 40
2.5
  1
3
  7
MX_NOTE_STANDARD
  0
ARC
  5
1DF3A
  8
SUNPO
  6
BYBLOCK
 10
188.0
 20
171.499997
 30
0.0
 40
0.145
 50
180.0
 51
0.0
  0
ARC
  5
1DF3B
  8
SUNPO
  6
BYBLOCK
 10
188.0
 20
171.499997
 30
0.0
 40
0.145
 50
0.0
 51
180.0
  0
ARC
  5
1DF3C
  8
SUNPO
  6
BYBLOCK
 10
191.0
 20
171.499997
 30
0.0
 40
0.145
 50
0.0
 51
180.0
  0
ARC
  5
1DF3D
  8
SUNPO
  6
BYBLOCK
 10
191.0
 20
171.499997
 30
0.0
 40
0.145
 50
180.0
 51
0.0
  0
ARC
  5
1DF3E
  8
SUNPO
  6
BYBLOCK
 10
191.0
 20
171.499997
 30
0.0
 40
0.145
 50
180.0
 51
0.0
  0
ARC
  5
1DF3F
  8
SUNPO
  6
BYBLOCK
 10
191.0
 20
171.499997
 30
0.0
 40
0.145
 50
0.0
 51
180.0
  0
LINE
  5
1DF40
  8
SUNPO
  6
CONTINUOUS
 10
191.0
 20
171.499997
 30
0.0
 11
188.0
 21
171.499997
 31
0.0
  0
LINE
  5
1DF41
  8
SUNPO
  6
CONTINUOUS
 10
113.5
 20
220.5
 30
0.0
 11
163.0
 21
220.5
 31
0.0
  0
LINE
  5
1DF42
  8
SUNPO
  6
CONTINUOUS
 10
113.5
 20
255.5
 30
0.0
 11
163.0
 21
255.5
 31
0.0
  0
LINE
  5
1DF43
  8
SUNPO
  6
CONTINUOUS
 10
113.5
 20
228.5
 30
0.0
 11
153.0
 21
228.5
 31
0.0
  0
LINE
  5
1DF44
  8
SUNPO
  6
CONTINUOUS
 10
113.5
 20
243.5
 30
0.0
 11
153.0
 21
243.5
 31
0.0
  0
ARC
  5
1DF45
  8
SUNPO
  6
BYBLOCK
 10
163.0
 20
255.5
 30
0.0
 40
0.145
 50
90.0
 51
270.0
  0
LINE
  5
1DF46
  8
SUNPO
  6
CONTINUOUS
 10
168.0
 20
215.5
 30
0.0
 11
158.0
 21
215.5
 31
0.0
  0
LINE
  5
1DF47
  8
SUNPO
  6
CONTINUOUS
 10
158.0
 20
215.5
 30
0.0
 11
163.0
 21
220.5
 31
0.0
  0
TEXT
  5
1DF48
  8
SUNPO
  6
CONTINUOUS
 10
152.0
 20
234.333333
 30
0.0
 40
2.5
  1
15
 50
90.0
  7
MX_NOTE_STANDARD
  0
TEXT
  5
1DF49
  8
SUNPO
  6
CONTINUOUS
 10
162.0
 20
235.916667
 30
0.0
 40
2.5
  1
35
 50
90.0
  7
MX_NOTE_STANDARD
  0
LINE
  5
1DF4A
  8
SUNPO
  6
CONTINUOUS
 10
153.0
 20
243.5
 30
0.0
 11
153.0
 21
228.5
 31
0.0
  0
LINE
  5
1DF4B
  8
SUNPO
  6
CONTINUOUS
 10
153.0
 20
228.5
 30
0.0
 11
153.0
 21
220.5
 31
0.0
  0
TEXT
  5
1DF4C
  8
SUNPO
  6
CONTINUOUS
 10
152.0
 20
223.666667
 30
0.0
 40
2.5
  1
8
 50
90.0
  7
MX_NOTE_STANDARD
  0
ARC
  5
1DF4D
  8
SUNPO
  6
BYBLOCK
 10
153.0
 20
220.5
 30
0.0
 40
0.145
 50
270.0
 51
90.0
  0
ARC
  5
1DF4E
  8
SUNPO
  6
BYBLOCK
 10
153.0
 20
220.5
 30
0.0
 40
0.145
 50
90.0
 51
270.0
  0
ARC
  5
1DF4F
  8
SUNPO
  6
BYBLOCK
 10
153.0
 20
220.5
 30
0.0
 40
0.145
 50
90.0
 51
270.0
  0
ARC
  5
1DF50
  8
SUNPO
  6
BYBLOCK
 10
153.0
 20
220.5
 30
0.0
 40
0.145
 50
270.0
 51
90.0
  0
ARC
  5
1DF52
  8
SUNPO
  6
BYBLOCK
 10
153.0
 20
228.5
 30
0.0
 40
0.145
 50
90.0
 51
270.0
  0
ARC
  5
1DF53
  8
SUNPO
  6
BYBLOCK
 10
153.0
 20
228.5
 30
0.0
 40
0.145
 50
270.0
 51
90.0
  0
ARC
  5
1DF54
  8
SUNPO
  6
BYBLOCK
 10
153.0
 20
228.5
 30
0.0
 40
0.145
 50
270.0
 51
90.0
  0
ARC
  5
1DF55
  8
SUNPO
  6
BYBLOCK
 10
153.0
 20
228.5
 30
0.0
 40
0.145
 50
90.0
 51
270.0
  0
ARC
  5
1DF56
  8
SUNPO
  6
BYBLOCK
 10
153.0
 20
243.5
 30
0.0
 40
0.145
 50
90.0
 51
270.0
  0
ARC
  5
1DF57
  8
SUNPO
  6
BYBLOCK
 10
153.0
 20
243.5
 30
0.0
 40
0.145
 50
270.0
 51
90.0
  0
LINE
  5
1DF58
  8
SUNPO
  6
CONTINUOUS
 10
163.0
 20
255.5
 30
0.0
 11
163.0
 21
220.5
 31
0.0
  0
LINE
  5
1DF59
  8
SUNPO
  6
CONTINUOUS
 10
163.0
 20
220.5
 30
0.0
 11
168.0
 21
215.5
 31
0.0
  0
ARC
  5
1DF5C
  8
SUNPO
  6
BYBLOCK
 10
163.0
 20
255.5
 30
0.0
 40
0.145
 50
270.0
 51
90.0
  0
TEXT
  5
1DF5D
  8
SUNPO
  6
CONTINUOUS
 10
263.364825
 20
122.281491
 30
0.0
 40
2.5
  1
70
 50
90.0
  7
MX_NOTE_STANDARD
  0
TEXT
  5
1DF5E
  8
SUNPO
  6
CONTINUOUS
 10
263.364825
 20
167.819997
 30
0.0
 40
2.5
  1
3
 50
90.0
  7
MX_NOTE_STANDARD
  0
LINE
  5
1DF5F
  8
SUNPO
  6
CONTINUOUS
 10
224.499999
 20
161.499997
 30
0.0
 11
264.364825
 21
161.499997
 31
0.0
  0
LINE
  5
1DF60
  8
SUNPO
  6
CONTINUOUS
 10
234.499999
 20
161.499997
 30
0.0
 11
264.364825
 21
161.499997
 31
0.0
  0
LINE
  5
1DF61
  8
SUNPO
  6
CONTINUOUS
 10
256.0
 20
165.999997
 30
0.0
 11
256.0
 21
171.499997
 31
0.0
  0
TEXT
  5
1DF62
  8
SUNPO
  6
CONTINUOUS
 10
221.416667
 20
172.499997
 30
0.0
 40
2.5
  1
65
  7
MX_NOTE_STANDARD
  0
ARC
  5
1DF63
  8
SUNPO
  6
BYBLOCK
 10
256.0
 20
171.499997
 30
0.0
 40
0.145
 50
0.0
 51
180.0
  0
ARC
  5
1DF64
  8
SUNPO
  6
BYBLOCK
 10
256.0
 20
171.499997
 30
0.0
 40
0.145
 50
180.0
 51
0.0
  0
LINE
  5
1DF65
  8
SUNPO
  6
CONTINUOUS
 10
264.364825
 20
164.499997
 30
0.0
 11
264.364825
 21
170.486664
 31
0.0
  0
ARC
  5
1DF66
  8
SUNPO
  6
BYBLOCK
 10
264.364825
 20
161.499997
 30
0.0
 40
0.145
 50
270.0
 51
90.0
  0
ARC
  5
1DF67
  8
SUNPO
  6
BYBLOCK
 10
264.364825
 20
161.499997
 30
0.0
 40
0.145
 50
90.0
 51
270.0
  0
ARC
  5
1DF68
  8
SUNPO
  6
BYBLOCK
 10
264.364825
 20
161.499997
 30
0.0
 40
0.145
 50
90.0
 51
270.0
  0
ARC
  5
1DF69
  8
SUNPO
  6
BYBLOCK
 10
264.364825
 20
161.499997
 30
0.0
 40
0.145
 50
270.0
 51
90.0
  0
LINE
  5
1DF6A
  8
SUNPO
  6
CONTINUOUS
 10
264.364825
 20
161.499997
 30
0.0
 11
264.364825
 21
164.499997
 31
0.0
  0
ARC
  5
1DF6B
  8
SUNPO
  6
BYBLOCK
 10
264.364825
 20
164.499997
 30
0.0
 40
0.145
 50
90.0
 51
270.0
  0
ARC
  5
1DF6C
  8
SUNPO
  6
BYBLOCK
 10
264.364825
 20
164.499997
 30
0.0
 40
0.145
 50
270.0
 51
90.0
  0
LINE
  5
1DF6D
  8
SUNPO
  6
CONTINUOUS
 10
373.0
 20
171.5
 30
0.0
 11
398.0
 21
171.5
 31
0.0
  0
LINE
  5
1DF6E
  8
SUNPO
  6
CONTINUOUS
 10
373.0
 20
161.850006
 30
0.0
 11
373.0
 21
171.5
 31
0.0
  0
LINE
  5
1DF6F
  8
SUNPO
  6
CONTINUOUS
 10
330.0
 20
154.5
 30
0.0
 11
330.0
 21
130.5
 31
0.0
  0
LINE
  5
1DF70
  8
SUNPO
  6
CONTINUOUS
 10
330.0
 20
122.5
 30
0.0
 11
330.0
 21
130.5
 31
0.0
  0
ARC
  5
1DF71
  8
SUNPO
  6
BYBLOCK
 10
330.0
 20
122.5
 30
0.0
 40
0.145
 50
270.0
 51
90.0
  0
ARC
  5
1DF72
  8
SUNPO
  6
BYBLOCK
 10
330.0
 20
122.5
 30
0.0
 40
0.145
 50
90.0
 51
270.0
  0
ARC
  5
1DF73
  8
SUNPO
  6
BYBLOCK
 10
330.0
 20
122.5
 30
0.0
 40
0.145
 50
90.0
 51
270.0
  0
ARC
  5
1DF74
  8
SUNPO
  6
BYBLOCK
 10
330.0
 20
122.5
 30
0.0
 40
0.145
 50
270.0
 51
90.0
  0
ARC
  5
1DF75
  8
SUNPO
  6
BYBLOCK
 10
330.0
 20
130.5
 30
0.0
 40
0.145
 50
90.0
 51
270.0
  0
ARC
  5
1DF76
  8
SUNPO
  6
BYBLOCK
 10
330.0
 20
130.5
 30
0.0
 40
0.145
 50
270.0
 51
90.0
  0
ARC
  5
1DF77
  8
SUNPO
  6
BYBLOCK
 10
330.0
 20
130.5
 30
0.0
 40
0.145
 50
270.0
 51
90.0
  0
ARC
  5
1DF78
  8
SUNPO
  6
BYBLOCK
 10
330.0
 20
130.5
 30
0.0
 40
0.145
 50
90.0
 51
270.0
  0
ARC
  5
1DF79
  8
SUNPO
  6
BYBLOCK
 10
352.855906
 20
122.5
 30
0.0
 40
0.145
 50
90.0
 51
270.0
  0
ARC
  5
1DF7A
  8
SUNPO
  6
BYBLOCK
 10
352.855906
 20
122.5
 30
0.0
 40
0.145
 50
270.0
 51
90.0
  0
LINE
  5
1DF7B
  8
SUNPO
  6
CONTINUOUS
 10
351.5
 20
161.5
 30
0.0
 11
330.0
 21
161.5
 31
0.0
  0
LINE
  5
1DF7C
  8
SUNPO
  6
CONTINUOUS
 10
330.0
 20
154.5
 30
0.0
 11
330.0
 21
161.5
 31
0.0
  0
ARC
  5
1DF7D
  8
SUNPO
  6
BYBLOCK
 10
330.0
 20
154.5
 30
0.0
 40
0.145
 50
90.0
 51
270.0
  0
ARC
  5
1DF7E
  8
SUNPO
  6
BYBLOCK
 10
330.0
 20
154.5
 30
0.0
 40
0.145
 50
270.0
 51
90.0
  0
ARC
  5
1DF7F
  8
SUNPO
  6
BYBLOCK
 10
330.0
 20
154.5
 30
0.0
 40
0.145
 50
270.0
 51
90.0
  0
ARC
  5
1DF80
  8
SUNPO
  6
BYBLOCK
 10
330.0
 20
154.5
 30
0.0
 40
0.145
 50
90.0
 51
270.0
  0
ARC
  5
1DF81
  8
SUNPO
  6
BYBLOCK
 10
330.0
 20
161.5
 30
0.0
 40
0.145
 50
90.0
 51
270.0
  0
ARC
  5
1DF82
  8
SUNPO
  6
BYBLOCK
 10
330.0
 20
161.5
 30
0.0
 40
0.145
 50
270.0
 51
90.0
  0
ARC
  5
1DF83
  8
SUNPO
  6
BYBLOCK
 10
373.0
 20
171.5
 30
0.0
 40
0.145
 50
180.0
 51
0.0
  0
ARC
  5
1DF84
  8
SUNPO
  6
BYBLOCK
 10
373.0
 20
171.5
 30
0.0
 40
0.145
 50
0.0
 51
180.0
  0
TEXT
  5
1DF85
  8
SUNPO
  6
CONTINUOUS
 10
383.416667
 20
172.5
 30
0.0
 40
2.5
  1
25
  7
MX_NOTE_STANDARD
  0
LINE
  5
1DF86
  8
SUNPO
  6
CONTINUOUS
 10
398.0
 20
162.5
 30
0.0
 11
398.0
 21
171.5
 31
0.0
  0
ARC
  5
1DF87
  8
SUNPO
  6
BYBLOCK
 10
398.0
 20
171.5
 30
0.0
 40
0.145
 50
0.0
 51
180.0
  0
ARC
  5
1DF88
  8
SUNPO
  6
BYBLOCK
 10
398.0
 20
171.5
 30
0.0
 40
0.145
 50
180.0
 51
0.0
  0
LINE
  5
1E01E
  8
SUNPO
  6
CONTINUOUS
 10
233.115372
 20
51.107266
 30
0.0
 11
234.028887
 21
51.730078
 31
0.0
210
0.0
220
0.0
230
-1.0
  0
LINE
  5
1E01F
  8
SUNPO
  6
CONTINUOUS
 10
234.028887
 20
51.730078
 30
0.0
 11
234.499982
 21
51.76829
 31
0.0
210
0.0
220
0.0
230
-1.0
  0
LINE
  5
1E020
  8
SUNPO
  6
CONTINUOUS
 10
234.499982
 20
51.76829
 30
0.0
 11
234.3138
 21
51.255979
 31
0.0
210
0.0
220
0.0
230
-1.0
  0
LINE
  5
1E021
  8
SUNPO
  6
CONTINUOUS
 10
234.3138
 20
51.255979
 30
0.0
 11
233.420898
 21
49.276788
 31
0.0
210
0.0
220
0.0
230
-1.0
  0
LINE
  5
1E022
  8
SUNPO
  6
CONTINUOUS
 10
233.420898
 20
49.276788
 30
0.0
 11
233.717461
 21
48.297813
 31
0.0
210
0.0
220
0.0
230
-1.0
  0
LINE
  5
1E023
  8
SUNPO
  6
CONTINUOUS
 10
233.717461
 20
48.297813
 30
0.0
 11
234.678871
 21
48.601965
 31
0.0
210
0.0
220
0.0
230
-1.0
  0
LINE
  5
1E024
  8
SUNPO
  6
CONTINUOUS
 10
234.678871
 20
48.601965
 30
0.0
 11
235.16436
 21
49.71945
 31
0.0
210
0.0
220
0.0
230
-1.0
  0
LINE
  5
1E025
  8
SUNPO
  6
CONTINUOUS
 10
235.16436
 20
49.71945
 30
0.0
 11
235.27692
 21
50.22079
 31
0.0
210
0.0
220
0.0
230
-1.0
  0
LINE
  5
1E026
  8
SUNPO
  6
CONTINUOUS
 10
235.27692
 20
50.22079
 30
0.0
 11
235.149498
 21
49.695162
 31
0.0
210
0.0
220
0.0
230
-1.0
  0
LINE
  5
1E027
  8
SUNPO
  6
CONTINUOUS
 10
235.149498
 20
49.695162
 30
0.0
 11
235.099705
 21
48.629787
 31
0.0
210
0.0
220
0.0
230
-1.0
  0
LINE
  5
1E028
  8
SUNPO
  6
CONTINUOUS
 10
235.099705
 20
48.629787
 30
0.0
 11
235.935643
 21
48.048463
 31
0.0
210
0.0
220
0.0
230
-1.0
  0
LINE
  5
1E029
  8
SUNPO
  6
CONTINUOUS
 10
235.935643
 20
48.048463
 30
0.0
 11
236.808647
 21
48.664374
 31
0.0
210
0.0
220
0.0
230
-1.0
  0
LINE
  5
1E02A
  8
SUNPO
  6
CONTINUOUS
 10
236.808647
 20
48.664374
 30
0.0
 11
237.251869
 21
49.654109
 31
0.0
210
0.0
220
0.0
230
-1.0
  0
LINE
  5
1E02B
  8
SUNPO
  6
CONTINUOUS
 10
237.251869
 20
49.654109
 30
0.0
 11
237.136626
 21
51.810485
 31
0.0
210
0.0
220
0.0
230
-1.0
  0
LINE
  5
1E02C
  8
SUNPO
  6
CONTINUOUS
 10
237.136626
 20
51.810485
 30
0.0
 11
239.274428
 21
51.573987
 31
0.0
210
0.0
220
0.0
230
-1.0
  0
LINE
  5
1E02D
  8
SUNPO
  6
CONTINUOUS
 10
233.115372
 20
51.107269
 30
0.0
 11
234.028887
 21
51.730081
 31
0.0
210
0.0
220
0.0
230
-1.0
  0
LINE
  5
1E02E
  8
SUNPO
  6
CONTINUOUS
 10
234.028887
 20
51.730081
 30
0.0
 11
234.499982
 21
51.768293
 31
0.0
210
0.0
220
0.0
230
-1.0
  0
LINE
  5
1E02F
  8
SUNPO
  6
CONTINUOUS
 10
234.499982
 20
51.768293
 30
0.0
 11
234.3138
 21
51.255982
 31
0.0
210
0.0
220
0.0
230
-1.0
  0
LINE
  5
1E030
  8
SUNPO
  6
CONTINUOUS
 10
234.3138
 20
51.255982
 30
0.0
 11
233.420898
 21
49.276791
 31
0.0
210
0.0
220
0.0
230
-1.0
  0
LINE
  5
1E031
  8
SUNPO
  6
CONTINUOUS
 10
233.420898
 20
49.276791
 30
0.0
 11
233.717461
 21
48.297817
 31
0.0
210
0.0
220
0.0
230
-1.0
  0
LINE
  5
1E032
  8
SUNPO
  6
CONTINUOUS
 10
233.717461
 20
48.297817
 30
0.0
 11
234.678871
 21
48.601968
 31
0.0
210
0.0
220
0.0
230
-1.0
  0
LINE
  5
1E033
  8
SUNPO
  6
CONTINUOUS
 10
234.678871
 20
48.601968
 30
0.0
 11
235.16436
 21
49.719453
 31
0.0
210
0.0
220
0.0
230
-1.0
  0
LINE
  5
1E034
  8
SUNPO
  6
CONTINUOUS
 10
235.16436
 20
49.719453
 30
0.0
 11
235.27692
 21
50.220793
 31
0.0
210
0.0
220
0.0
230
-1.0
  0
LINE
  5
1E035
  8
SUNPO
  6
CONTINUOUS
 10
235.27692
 20
50.220793
 30
0.0
 11
235.149498
 21
49.695165
 31
0.0
210
0.0
220
0.0
230
-1.0
  0
LINE
  5
1E036
  8
SUNPO
  6
CONTINUOUS
 10
235.149498
 20
49.695165
 30
0.0
 11
235.099705
 21
48.62979
 31
0.0
210
0.0
220
0.0
230
-1.0
  0
LINE
  5
1E037
  8
SUNPO
  6
CONTINUOUS
 10
235.099705
 20
48.62979
 30
0.0
 11
235.935643
 21
48.048466
 31
0.0
210
0.0
220
0.0
230
-1.0
  0
LINE
  5
1E038
  8
SUNPO
  6
CONTINUOUS
 10
235.935643
 20
48.048466
 30
0.0
 11
236.808647
 21
48.664377
 31
0.0
210
0.0
220
0.0
230
-1.0
  0
LINE
  5
1E039
  8
SUNPO
  6
CONTINUOUS
 10
236.808647
 20
48.664377
 30
0.0
 11
237.251869
 21
49.654112
 31
0.0
210
0.0
220
0.0
230
-1.0
  0
LINE
  5
1E03A
  8
SUNPO
  6
CONTINUOUS
 10
237.251869
 20
49.654112
 30
0.0
 11
237.136626
 21
51.810488
 31
0.0
210
0.0
220
0.0
230
-1.0
  0
LINE
  5
1E03B
  8
SUNPO
  6
CONTINUOUS
 10
237.136626
 20
51.810488
 30
0.0
 11
239.274428
 21
51.57399
 31
0.0
210
0.0
220
0.0
230
-1.0
  0
LINE
  5
1E03C
  8
SUNPO
  6
CONTINUOUS
 10
333.115372
 20
51.107269
 30
0.0
 11
334.028887
 21
51.730081
 31
0.0
210
0.0
220
0.0
230
-1.0
  0
LINE
  5
1E03D
  8
SUNPO
  6
CONTINUOUS
 10
334.028887
 20
51.730081
 30
0.0
 11
334.499983
 21
51.768293
 31
0.0
210
0.0
220
0.0
230
-1.0
  0
LINE
  5
1E03E
  8
SUNPO
  6
CONTINUOUS
 10
334.499983
 20
51.768293
 30
0.0
 11
334.3138
 21
51.255983
 31
0.0
210
0.0
220
0.0
230
-1.0
  0
LINE
  5
1E03F
  8
SUNPO
  6
CONTINUOUS
 10
334.3138
 20
51.255983
 30
0.0
 11
333.420898
 21
49.276791
 31
0.0
210
0.0
220
0.0
230
-1.0
  0
LINE
  5
1E040
  8
SUNPO
  6
CONTINUOUS
 10
333.420898
 20
49.276791
 30
0.0
 11
333.717461
 21
48.297817
 31
0.0
210
0.0
220
0.0
230
-1.0
  0
LINE
  5
1E041
  8
SUNPO
  6
CONTINUOUS
 10
333.717461
 20
48.297817
 30
0.0
 11
334.678871
 21
48.601967
 31
0.0
210
0.0
220
0.0
230
-1.0
  0
LINE
  5
1E042
  8
SUNPO
  6
CONTINUOUS
 10
334.678871
 20
48.601967
 30
0.0
 11
335.164361
 21
49.719451
 31
0.0
210
0.0
220
0.0
230
-1.0
  0
LINE
  5
1E043
  8
SUNPO
  6
CONTINUOUS
 10
335.164361
 20
49.719451
 30
0.0
 11
335.276921
 21
50.220793
 31
0.0
210
0.0
220
0.0
230
-1.0
  0
LINE
  5
1E044
  8
SUNPO
  6
CONTINUOUS
 10
335.276921
 20
50.220793
 30
0.0
 11
335.1495
 21
49.695166
 31
0.0
210
0.0
220
0.0
230
-1.0
  0
LINE
  5
1E045
  8
SUNPO
  6
CONTINUOUS
 10
335.1495
 20
49.695166
 30
0.0
 11
335.099705
 21
48.62979
 31
0.0
210
0.0
220
0.0
230
-1.0
  0
LINE
  5
1E046
  8
SUNPO
  6
CONTINUOUS
 10
335.099705
 20
48.62979
 30
0.0
 11
335.935643
 21
48.048466
 31
0.0
210
0.0
220
0.0
230
-1.0
  0
LINE
  5
1E047
  8
SUNPO
  6
CONTINUOUS
 10
335.935643
 20
48.048466
 30
0.0
 11
336.808648
 21
48.664377
 31
0.0
210
0.0
220
0.0
230
-1.0
  0
LINE
  5
1E048
  8
SUNPO
  6
CONTINUOUS
 10
336.808648
 20
48.664377
 30
0.0
 11
337.25187
 21
49.654112
 31
0.0
210
0.0
220
0.0
230
-1.0
  0
LINE
  5
1E049
  8
SUNPO
  6
CONTINUOUS
 10
337.25187
 20
49.654112
 30
0.0
 11
337.136626
 21
51.810488
 31
0.0
210
0.0
220
0.0
230
-1.0
  0
LINE
  5
1E04A
  8
SUNPO
  6
CONTINUOUS
 10
337.136626
 20
51.810488
 30
0.0
 11
339.274429
 21
51.57399
 31
0.0
210
0.0
220
0.0
230
-1.0
  0
LINE
  5
1E5FC
  8
DANMEN
  6
CONTINUOUS
 10
68.849998
 20
71.499998
 30
0.0
 11
68.849998
 21
57.0
 31
0.0
  0
LINE
  5
1E5FD
  8
DANMEN
  6
CONTINUOUS
 10
70.799998
 20
71.5
 30
0.0
 11
70.799998
 21
57.0
 31
0.0
  0
ARC
  5
1E5FE
  8
DANMEN
  6
CONTINUOUS
 10
70.299998
 20
57.0
 30
0.0
 40
0.5
 50
269.999982
 51
359.999964
  0
ARC
  5
1E5FF
  8
DANMEN
  6
CONTINUOUS
 10
69.349998
 20
57.0
 30
0.0
 40
0.5
 50
180.000052
 51
269.999982
  0
LINE
  5
1E600
  8
DANMEN
  6
CONTINUOUS
 10
69.349999
 20
56.499997
 30
0.0
 11
70.299997
 21
56.499997
 31
0.0
  0
LINE
  5
1E601
  8
DANMEN
  6
CONTINUOUS
 10
70.799998
 20
71.5
 30
0.0
 11
72.499998
 21
71.5
 31
0.0
  0
LINE
  5
1E602
  8
SUNPO
  6
CONTINUOUS
 10
40.5
 20
56.5
 30
0.0
 11
22.0
 21
56.5
 31
0.0
  0
ENDSEC
  0
EOF
