  0
SECTION
  2
HEADER
  9
$ACADVER
  1
AC1009
  9
$INSBASE
 10
0.0
 20
0.0
 30
0.0
  9
$EXTMIN
 10
4.986803
 20
4.971933
 30
-0.001526
  9
$EXTMAX
 10
415.019075
 20
292.013444
 30
0.0
  9
$LIMMIN
 10
-210.0
 20
-148.5
  9
$LIMMAX
 10
210.0
 20
148.5
  9
$ORTHOMODE
 70
     0
  9
$REGENMODE
 70
     1
  9
$FILLMODE
 70
     1
  9
$QTEXTMODE
 70
     0
  9
$MIRRTEXT
 70
     1
  9
$DRAGMODE
 70
     2
  9
$LTSCALE
 40
0.5
  9
$OSMODE
 70
   239
  9
$ATTMODE
 70
     1
  9
$TEXTSIZE
 40
0.2
  9
$TRACEWID
 40
0.05
  9
$TEXTSTYLE
  7
MX_NOTE_STANDARD
  9
$CLAYER
  8
0
  9
$CELTYPE
  6
CONTINUOUS
  9
$CECOLOR
 62
   256
  9
$DIMSCALE
 40
1.0
  9
$DIMASZ
 40
2.5
  9
$DIMEXO
 40
1.5
  9
$DIMDLI
 40
3.75
  9
$DIMRND
 40
0.0
  9
$DIMDLE
 40
0.0
  9
$DIMEXE
 40
0.0
  9
$DIMTP
 40
0.0
  9
$DIMTM
 40
0.0
  9
$DIMTXT
 40
2.5
  9
$DIMCEN
 40
2.5
  9
$DIMTSZ
 40
0.0
  9
$DIMTOL
 70
     0
  9
$DIMLIM
 70
     0
  9
$DIMTIH
 70
     0
  9
$DIMTOH
 70
     0
  9
$DIMSE1
 70
     0
  9
$DIMSE2
 70
     0
  9
$DIMTAD
 70
     1
  9
$DIMZIN
 70
     8
  9
$DIMBLK
  1

  9
$DIMASO
 70
     1
  9
$DIMSHO
 70
     1
  9
$DIMPOST
  1

  9
$DIMAPOST
  1

  9
$DIMALT
 70
     0
  9
$DIMALTD
 70
     4
  9
$DIMALTF
 40
0.0394
  9
$DIMLFAC
 40
1.0
  9
$DIMTOFL
 70
     1
  9
$DIMTVP
 40
0.0
  9
$DIMTIX
 70
     0
  9
$DIMSOXD
 70
     0
  9
$DIMSAH
 70
     0
  9
$DIMBLK1
  1

  9
$DIMBLK2
  1

  9
$DIMSTYLE
  2
MXDIMSTYLE
  9
$DIMCLRD
 70
     0
  9
$DIMCLRE
 70
     0
  9
$DIMCLRT
 70
     0
  9
$DIMTFAC
 40
1.0
  9
$DIMGAP
 40
1.0
  9
$LUNITS
 70
     2
  9
$LUPREC
 70
     4
  9
$SKETCHINC
 40
0.1
  9
$FILLETRAD
 40
0.0
  9
$AUNITS
 70
     0
  9
$AUPREC
 70
     0
  9
$MENU
  1
acad
  9
$ELEVATION
 40
0.0
  9
$PELEVATION
 40
0.0
  9
$THICKNESS
 40
0.0
  9
$LIMCHECK
 70
     0
  9
$BLIPMODE
 70
     0
  9
$CHAMFERA
 40
0.0
  9
$CHAMFERB
 40
0.0
  9
$SKPOLY
 70
     0
  9
$TDCREATE
 40
2452006.37162
  9
$TDUPDATE
 40
2452137.000221
  9
$TDINDWG
 40
0.090339
  9
$TDUSRTIMER
 40
0.090339
  9
$USRTIMER
 70
     1
  9
$ANGBASE
 50
0.0
  9
$ANGDIR
 70
     0
  9
$PDMODE
 70
     3
  9
$PDSIZE
 40
-100.0
  9
$PLINEWID
 40
0.0
  9
$COORDS
 70
     0
  9
$SPLFRAME
 70
     0
  9
$SPLINETYPE
 70
     6
  9
$SPLINESEGS
 70
     8
  9
$ATTDIA
 70
     0
  9
$ATTREQ
 70
     1
  9
$HANDLING
 70
     1
  9
$HANDSEED
  5
1D1AB
  9
$SURFTAB1
 70
     6
  9
$SURFTAB2
 70
     6
  9
$SURFTYPE
 70
     6
  9
$SURFU
 70
     6
  9
$SURFV
 70
     6
  9
$UCSNAME
  2

  9
$UCSORG
 10
0.0
 20
0.0
 30
0.0
  9
$UCSXDIR
 10
1.0
 20
0.0
 30
0.0
  9
$UCSYDIR
 10
0.0
 20
1.0
 30
0.0
  9
$PUCSNAME
  2

  9
$PUCSORG
 10
0.0
 20
0.0
 30
0.0
  9
$PUCSXDIR
 10
1.0
 20
0.0
 30
0.0
  9
$PUCSYDIR
 10
0.0
 20
1.0
 30
0.0
  9
$USERI1
 70
     0
  9
$USERI2
 70
     0
  9
$USERI3
 70
     0
  9
$USERI4
 70
     0
  9
$USERI5
 70
     0
  9
$USERR1
 40
0.0
  9
$USERR2
 40
0.0
  9
$USERR3
 40
0.0
  9
$USERR4
 40
0.0
  9
$USERR5
 40
0.0
  9
$WORLDVIEW
 70
     1
  9
$SHADEDGE
 70
     3
  9
$SHADEDIF
 70
    70
  9
$TILEMODE
 70
     1
  9
$MAXACTVP
 70
    16
  9
$PLIMCHECK
 70
     0
  9
$PEXTMIN
 10
1.000000E+020
 20
1.000000E+020
 30
1.000000E+020
  9
$PEXTMAX
 10
-1.000000E+020
 20
-1.000000E+020
 30
-1.000000E+020
  9
$PLIMMIN
 10
0.0
 20
0.0
  9
$PLIMMAX
 10
12.0
 20
9.0
  9
$UNITMODE
 70
     0
  9
$VISRETAIN
 70
     0
  9
$PLINEGEN
 70
     1
  9
$PSLTSCALE
 70
     0
  0
ENDSEC
  0
SECTION
  2
TABLES
  0
TABLE
  2
VPORT
 70
     2
  0
VPORT
  2
*ACTIVE
 70
     0
 10
0.0
 20
0.0
 11
1.0
 21
1.0
 12
210.002939
 22
148.492688
 13
0.0
 23
0.0
 14
1.0
 24
1.0
 15
0.0
 25
0.0
 16
0.0
 26
0.0
 36
1.0
 17
0.0
 27
0.0
 37
0.0
 40
290.242718
 41
1.867784
 42
50.0
 43
0.0
 44
0.0
 50
0.0
 51
0.0
 71
     0
 72
   100
 73
     1
 74
     0
 75
     0
 76
     0
 77
     0
 78
     0
  0
ENDTAB
  0
TABLE
  2
LTYPE
 70
     2
  0
LTYPE
  2
CONTINUOUS
 70
     0
  3
Solid line
 72
    65
 73
     0
 40
0.0
  0
LTYPE
  2
DASHED
 70
     0
  3
Dashed __ __ __ __ __ __ __ __ __ __ __ __ __ _
 72
    65
 73
     2
 40
19.05
 49
12.7
 49
-6.35
  0
ENDTAB
  0
TABLE
  2
LAYER
 70
     4
  0
LAYER
  2
0
 70
     0
 62
     7
  6
CONTINUOUS
  0
LAYER
  2
SUNPO
 70
     0
 62
     1
  6
CONTINUOUS
  0
LAYER
  2
DANMEN
 70
     0
 62
     7
  6
CONTINUOUS
  0
LAYER
  2
WAKU
 70
     0
 62
     3
  6
CONTINUOUS
  0
ENDTAB
  0
TABLE
  2
STYLE
 70
     2
  0
STYLE
  2
STANDARD
 70
     0
 40
0.0
 41
1.0
 50
0.0
 71
     0
 42
0.2
  3
txt.shx
  4
extfont.shx
  0
STYLE
  2
MX_NOTE_STANDARD
 70
     0
 40
2.5
 41
1.0
 50
0.0
 71
     0
 42
2.5
  3
txt.shx
  4
extfont.shx
  0
ENDTAB
  0
TABLE
  2
VIEW
 70
     0
  0
ENDTAB
  0
TABLE
  2
UCS
 70
     0
  0
ENDTAB
  0
TABLE
  2
APPID
 70
     1
  0
APPID
  2
ACAD
 70
     0
  0
ENDTAB
  0
TABLE
  2
DIMSTYLE
 70
     1
  0
DIMSTYLE
  2
MXDIMSTYLE
 70
     0
  3

  4

  5

  6

  7

 40
1.0
 41
2.5
 42
1.5
 43
3.75
 44
0.0
 45
0.0
 46
0.0
 47
0.0
 48
0.0
140
2.5
141
2.5
142
0.0
143
0.0394
144
1.0
145
0.0
146
1.0
147
1.0
 71
     0
 72
     0
 73
     0
 74
     0
 75
     0
 76
     0
 77
     1
 78
     8
170
     0
171
     4
172
     1
173
     0
174
     0
175
     0
176
     0
177
     0
178
     0
  0
ENDTAB
  0
ENDSEC
  0
SECTION
  2
BLOCKS
  0
BLOCK
  8
0
  2
$MODEL_SPACE
 70
     0
 10
0.0
 20
0.0
 30
0.0
  3
$MODEL_SPACE
  1

  0
ENDBLK
  5
1CC45
  8
0
  0
BLOCK
 67
     1
  8
0
  2
$PAPER_SPACE
 70
     0
 10
0.0
 20
0.0
 30
0.0
  3
$PAPER_SPACE
  1

  0
ENDBLK
  5
1CC43
 67
     1
  8
0
  0
BLOCK
  8
0
  2
*U0
 70
     1
 10
0.0
 20
0.0
 30
0.0
  3
*U0
  1

  0
SOLID
  5
DA5C
  8
WAKU
  6
CONTINUOUS
 10
371.305142
 20
283.605291
 30
0.0
 11
370.499782
 21
283.530361
 31
0.0
 12
370.874987
 22
283.520449
 32
0.0
 13
370.874987
 23
283.520449
 33
0.0
  0
SOLID
  5
DA5D
  8
WAKU
  6
CONTINUOUS
 10
370.193309
 20
283.634664
 30
0.0
 11
370.499782
 21
283.530361
 31
0.0
 12
371.305142
 22
283.605291
 32
0.0
 13
371.305142
 23
283.605291
 33
0.0
  0
SOLID
  5
DA5E
  8
WAKU
  6
CONTINUOUS
 10
371.774448
 20
283.781773
 30
0.0
 11
370.193309
 21
283.634664
 31
0.0
 12
371.305142
 22
283.605291
 32
0.0
 13
371.305142
 23
283.605291
 33
0.0
  0
SOLID
  5
DA5F
  8
WAKU
  6
CONTINUOUS
 10
369.966824
 20
283.829526
 30
0.0
 11
370.193309
 21
283.634664
 31
0.0
 12
371.774448
 22
283.781773
 32
0.0
 13
371.774448
 23
283.781773
 33
0.0
  0
SOLID
  5
DA60
  8
WAKU
  6
CONTINUOUS
 10
370.594177
 20
283.909498
 30
0.0
 11
369.966824
 21
283.829526
 31
0.0
 12
371.774448
 22
283.781773
 32
0.0
 13
371.774448
 23
283.781773
 33
0.0
  0
SOLID
  5
DA61
  8
WAKU
  6
CONTINUOUS
 10
370.901294
 20
283.914863
 30
0.0
 11
370.594177
 21
283.909498
 31
0.0
 12
371.774448
 22
283.781773
 32
0.0
 13
371.774448
 23
283.781773
 33
0.0
  0
SOLID
  5
DA62
  8
WAKU
  6
CONTINUOUS
 10
370.392927
 20
283.968568
 30
0.0
 11
369.966824
 21
283.829526
 31
0.0
 12
370.594177
 22
283.909498
 32
0.0
 13
370.594177
 23
283.909498
 33
0.0
  0
SOLID
  5
DA63
  8
WAKU
  6
CONTINUOUS
 10
371.296984
 20
284.010368
 30
0.0
 11
370.901294
 21
283.914863
 31
0.0
 12
371.774448
 22
283.781773
 32
0.0
 13
371.774448
 23
283.781773
 33
0.0
  0
SOLID
  5
DA64
  8
WAKU
  6
CONTINUOUS
 10
372.265666
 20
284.043411
 30
0.0
 11
371.296984
 21
284.010368
 31
0.0
 12
371.774448
 22
283.781773
 32
0.0
 13
371.774448
 23
283.781773
 33
0.0
  0
SOLID
  5
DA65
  8
WAKU
  6
CONTINUOUS
 10
370.275177
 20
284.066476
 30
0.0
 11
369.966824
 21
283.829526
 31
0.0
 12
370.392927
 22
283.968568
 32
0.0
 13
370.392927
 23
283.968568
 33
0.0
  0
SOLID
  5
DA66
  8
WAKU
  6
CONTINUOUS
 10
369.828646
 20
284.107791
 30
0.0
 11
369.966824
 21
283.829526
 31
0.0
 12
370.275177
 22
284.066476
 32
0.0
 13
370.275177
 23
284.066476
 33
0.0
  0
SOLID
  5
DA67
  8
WAKU
  6
CONTINUOUS
 10
370.709458
 20
284.142397
 30
0.0
 11
369.828646
 21
284.107791
 31
0.0
 12
370.275177
 22
284.066476
 32
0.0
 13
370.275177
 23
284.066476
 33
0.0
  0
SOLID
  5
DA68
  8
WAKU
  6
CONTINUOUS
 10
371.751882
 20
284.202798
 30
0.0
 11
371.296984
 21
284.010368
 31
0.0
 12
372.265666
 22
284.043411
 32
0.0
 13
372.265666
 23
284.043411
 33
0.0
  0
SOLID
  5
DA69
  8
WAKU
  6
CONTINUOUS
 10
369.550381
 20
284.245969
 30
0.0
 11
369.828646
 21
284.107791
 31
0.0
 12
370.709458
 22
284.142397
 32
0.0
 13
370.709458
 23
284.142397
 33
0.0
  0
SOLID
  5
DA6A
  8
WAKU
  6
CONTINUOUS
 10
371.186428
 20
284.314625
 30
0.0
 11
369.550381
 21
284.245969
 31
0.0
 12
370.709458
 22
284.142397
 32
0.0
 13
370.709458
 23
284.142397
 33
0.0
  0
SOLID
  5
DA6B
  8
WAKU
  6
CONTINUOUS
 10
372.760756
 20
284.380595
 30
0.0
 11
371.751882
 21
284.202798
 31
0.0
 12
372.265666
 22
284.043411
 32
0.0
 13
372.265666
 23
284.043411
 33
0.0
  0
SOLID
  5
DA6C
  8
WAKU
  6
CONTINUOUS
 10
370.172911
 20
284.451856
 30
0.0
 11
369.550381
 21
284.245969
 31
0.0
 12
371.186428
 22
284.314625
 32
0.0
 13
371.186428
 23
284.314625
 33
0.0
  0
SOLID
  5
DA6D
  8
WAKU
  6
CONTINUOUS
 10
369.355518
 20
284.472454
 30
0.0
 11
369.550381
 21
284.245969
 31
0.0
 12
370.172911
 22
284.451856
 32
0.0
 13
370.172911
 23
284.451856
 33
0.0
  0
SOLID
  5
DA6E
  8
WAKU
  6
CONTINUOUS
 10
372.237497
 20
284.486117
 30
0.0
 11
371.751882
 21
284.202798
 31
0.0
 12
372.760756
 22
284.380595
 32
0.0
 13
372.760756
 23
284.380595
 33
0.0
  0
SOLID
  5
DA6F
  8
WAKU
  6
CONTINUOUS
 10
370.681395
 20
284.539195
 30
0.0
 11
370.172911
 21
284.451856
 31
0.0
 12
371.186428
 22
284.314625
 32
0.0
 13
371.186428
 23
284.314625
 33
0.0
  0
SOLID
  5
DA70
  8
WAKU
  6
CONTINUOUS
 10
369.787305
 20
284.553935
 30
0.0
 11
369.355518
 21
284.472454
 31
0.0
 12
370.172911
 22
284.451856
 32
0.0
 13
370.172911
 23
284.451856
 33
0.0
  0
SOLID
  5
DA71
  8
WAKU
  6
CONTINUOUS
 10
371.68777
 20
284.576545
 30
0.0
 11
370.681395
 21
284.539195
 31
0.0
 12
371.186428
 22
284.314625
 32
0.0
 13
371.186428
 23
284.314625
 33
0.0
  0
SOLID
  5
DA72
  8
WAKU
  6
CONTINUOUS
 10
369.689155
 20
284.672435
 30
0.0
 11
369.355518
 21
284.472454
 31
0.0
 12
369.787305
 22
284.553935
 32
0.0
 13
369.787305
 23
284.553935
 33
0.0
  0
SOLID
  5
DA73
  8
WAKU
  6
CONTINUOUS
 10
369.251215
 20
284.778928
 30
0.0
 11
369.355518
 21
284.472454
 31
0.0
 12
369.689155
 22
284.672435
 32
0.0
 13
369.689155
 23
284.672435
 33
0.0
  0
SOLID
  5
DA74
  8
WAKU
  6
CONTINUOUS
 10
373.241532
 20
284.780941
 30
0.0
 11
372.237497
 21
284.486117
 31
0.0
 12
372.760756
 22
284.380595
 32
0.0
 13
372.760756
 23
284.380595
 33
0.0
  0
SOLID
  5
DA75
  8
WAKU
  6
CONTINUOUS
 10
371.312263
 20
284.810332
 30
0.0
 11
370.681395
 21
284.539195
 31
0.0
 12
371.68777
 22
284.576545
 32
0.0
 13
371.68777
 23
284.576545
 33
0.0
  0
SOLID
  5
DA76
  8
WAKU
  6
CONTINUOUS
 10
369.630358
 20
284.873087
 30
0.0
 11
369.251215
 21
284.778928
 31
0.0
 12
369.689155
 22
284.672435
 32
0.0
 13
369.689155
 23
284.672435
 33
0.0
  0
SOLID
  5
DA77
  8
WAKU
  6
CONTINUOUS
 10
372.194232
 20
284.918099
 30
0.0
 11
371.312263
 21
284.810332
 31
0.0
 12
371.68777
 22
284.576545
 32
0.0
 13
371.68777
 23
284.576545
 33
0.0
  0
SOLID
  5
DA78
  8
WAKU
  6
CONTINUOUS
 10
370.260168
 20
284.959969
 30
0.0
 11
369.787305
 21
284.553935
 31
0.0
 12
370.172911
 22
284.451856
 32
0.0
 13
370.172911
 23
284.451856
 33
0.0
  0
SOLID
  5
DA79
  8
WAKU
  6
CONTINUOUS
 10
369.863139
 20
284.988189
 30
0.0
 11
369.787305
 21
284.553935
 31
0.0
 12
370.260168
 22
284.959969
 32
0.0
 13
370.260168
 23
284.959969
 33
0.0
  0
SOLID
  5
DA7A
  8
WAKU
  6
CONTINUOUS
 10
398.194006
 20
285.115385
 30
0.0
 11
397.606055
 21
283.5
 31
0.0
 12
401.913747
 22
283.5
 32
0.0
 13
401.913747
 23
283.5
 33
0.0
  0
SOLID
  5
DA7B
  8
WAKU
  6
CONTINUOUS
 10
401.913747
 20
283.5
 30
0.0
 11
401.424776
 21
285.115385
 31
0.0
 12
398.194006
 22
285.115385
 32
0.0
 13
398.194006
 23
285.115385
 33
0.0
  0
SOLID
  5
DA7C
  8
WAKU
  6
CONTINUOUS
 10
369.241303
 20
285.154132
 30
0.0
 11
369.251215
 21
284.778928
 31
0.0
 12
369.630358
 22
284.873087
 32
0.0
 13
369.630358
 23
284.873087
 33
0.0
  0
SOLID
  5
DA7D
  8
WAKU
  6
CONTINUOUS
 10
369.635696
 20
285.180404
 30
0.0
 11
369.241303
 21
285.154132
 31
0.0
 12
369.630358
 22
284.873087
 32
0.0
 13
369.630358
 23
284.873087
 33
0.0
  0
SOLID
  5
DA7E
  8
WAKU
  6
CONTINUOUS
 10
373.690335
 20
285.229744
 30
0.0
 11
372.237497
 21
284.486117
 31
0.0
 12
373.241532
 22
284.780941
 32
0.0
 13
373.241532
 23
284.780941
 33
0.0
  0
SOLID
  5
DA7F
  8
WAKU
  6
CONTINUOUS
 10
371.98994
 20
285.251431
 30
0.0
 11
371.312263
 21
284.810332
 31
0.0
 12
372.194232
 22
284.918099
 32
0.0
 13
372.194232
 23
284.918099
 33
0.0
  0
SOLID
  5
DA80
  8
WAKU
  6
CONTINUOUS
 10
373.195965
 20
285.275232
 30
0.0
 11
372.237497
 21
284.486117
 31
0.0
 12
373.690335
 22
285.229744
 32
0.0
 13
373.690335
 23
285.229744
 33
0.0
  0
SOLID
  5
DA81
  8
WAKU
  6
CONTINUOUS
 10
372.686363
 20
285.326171
 30
0.0
 11
371.98994
 21
285.251431
 31
0.0
 12
372.194232
 22
284.918099
 32
0.0
 13
372.194232
 23
284.918099
 33
0.0
  0
SOLID
  5
DA82
  8
WAKU
  6
CONTINUOUS
 10
370.035293
 20
285.465154
 30
0.0
 11
369.863139
 21
284.988189
 31
0.0
 12
370.260168
 22
284.959969
 32
0.0
 13
370.260168
 23
284.959969
 33
0.0
  0
SOLID
  5
DA83
  8
WAKU
  6
CONTINUOUS
 10
369.73149
 20
285.576021
 30
0.0
 11
369.241303
 21
285.154132
 31
0.0
 12
369.635696
 22
285.180404
 32
0.0
 13
369.635696
 23
285.180404
 33
0.0
  0
SOLID
  5
DA84
  8
WAKU
  6
CONTINUOUS
 10
369.326146
 20
285.584287
 30
0.0
 11
369.241303
 21
285.154132
 31
0.0
 12
369.73149
 22
285.576021
 32
0.0
 13
369.73149
 23
285.576021
 33
0.0
  0
SOLID
  5
DA85
  8
WAKU
  6
CONTINUOUS
 10
370.530712
 20
285.590875
 30
0.0
 11
370.035293
 21
285.465154
 31
0.0
 12
370.260168
 22
284.959969
 32
0.0
 13
370.260168
 23
284.959969
 33
0.0
  0
SOLID
  5
DA86
  8
WAKU
  6
CONTINUOUS
 10
389.236144
 20
285.653846
 30
0.0
 11
383.067593
 21
283.5
 31
0.0
 12
388.452208
 22
283.5
 32
0.0
 13
388.452208
 23
283.5
 33
0.0
  0
SOLID
  5
DA87
  8
WAKU
  6
CONTINUOUS
 10
383.851529
 20
285.653846
 30
0.0
 11
383.067593
 21
283.5
 31
0.0
 12
389.236144
 22
285.653846
 32
0.0
 13
389.236144
 23
285.653846
 33
0.0
  0
SOLID
  5
DA88
  8
WAKU
  6
CONTINUOUS
 10
404.851529
 20
285.653846
 30
0.0
 11
404.067593
 21
283.5
 31
0.0
 12
409.452208
 22
283.5
 32
0.0
 13
409.452208
 23
283.5
 33
0.0
  0
SOLID
  5
DA89
  8
WAKU
  6
CONTINUOUS
 10
409.452208
 20
283.5
 30
0.0
 11
409.159221
 21
285.653846
 31
0.0
 12
404.851529
 22
285.653846
 32
0.0
 13
404.851529
 23
285.653846
 33
0.0
  0
SOLID
  5
DA8A
  8
WAKU
  6
CONTINUOUS
 10
391.174606
 20
285.653846
 30
0.0
 11
390.39067
 21
283.5
 31
0.0
 12
395.452208
 22
283.5
 32
0.0
 13
395.452208
 23
283.5
 33
0.0
  0
SOLID
  5
DA8B
  8
WAKU
  6
CONTINUOUS
 10
395.452208
 20
283.5
 30
0.0
 11
395.159221
 21
285.653846
 31
0.0
 12
391.174606
 22
285.653846
 32
0.0
 13
391.174606
 23
285.653846
 33
0.0
  0
SOLID
  5
DA8C
  8
WAKU
  6
CONTINUOUS
 10
374.090681
 20
285.71052
 30
0.0
 11
373.195965
 21
285.275232
 31
0.0
 12
373.690335
 22
285.229744
 32
0.0
 13
373.690335
 23
285.229744
 33
0.0
  0
SOLID
  5
DA8D
  8
WAKU
  6
CONTINUOUS
 10
373.145266
 20
285.785089
 30
0.0
 11
371.98994
 21
285.251431
 31
0.0
 12
372.686363
 22
285.326171
 32
0.0
 13
372.686363
 23
285.326171
 33
0.0
  0
SOLID
  5
DA8E
  8
WAKU
  6
CONTINUOUS
 10
372.646296
 20
285.825506
 30
0.0
 11
371.98994
 21
285.251431
 31
0.0
 12
373.145266
 22
285.785089
 32
0.0
 13
373.145266
 23
285.785089
 33
0.0
  0
SOLID
  5
DA8F
  8
WAKU
  6
CONTINUOUS
 10
370.297156
 20
285.966509
 30
0.0
 11
370.035293
 21
285.465154
 31
0.0
 12
370.530712
 22
285.590875
 32
0.0
 13
370.530712
 23
285.590875
 33
0.0
  0
SOLID
  5
DA90
  8
WAKU
  6
CONTINUOUS
 10
369.923519
 20
286.031028
 30
0.0
 11
369.326146
 21
285.584287
 31
0.0
 12
369.73149
 22
285.576021
 32
0.0
 13
369.73149
 23
285.576021
 33
0.0
  0
SOLID
  5
DA91
  8
WAKU
  6
CONTINUOUS
 10
369.502627
 20
286.053593
 30
0.0
 11
369.326146
 21
285.584287
 31
0.0
 12
369.923519
 22
286.031028
 32
0.0
 13
369.923519
 23
286.031028
 33
0.0
  0
SOLID
  5
DA92
  8
WAKU
  6
CONTINUOUS
 10
379.397145
 20
286.138462
 30
0.0
 11
378.436824
 21
283.5
 31
0.0
 12
379.513747
 22
283.5
 32
0.0
 13
379.513747
 23
283.5
 33
0.0
  0
SOLID
  5
DA93
  8
WAKU
  6
CONTINUOUS
 10
377.155205
 20
286.192308
 30
0.0
 11
376.175285
 21
283.5
 31
0.0
 12
379.397145
 22
286.138462
 32
0.0
 13
379.397145
 23
286.138462
 33
0.0
  0
SOLID
  5
DA94
  8
WAKU
  6
CONTINUOUS
 10
380.493667
 20
286.192308
 30
0.0
 11
377.155205
 21
286.192308
 31
0.0
 12
379.397145
 22
286.138462
 32
0.0
 13
379.397145
 23
286.138462
 33
0.0
  0
SOLID
  5
DA95
  8
WAKU
  6
CONTINUOUS
 10
380.493667
 20
286.192308
 30
0.0
 11
379.397145
 21
286.138462
 31
0.0
 12
379.513747
 22
283.5
 32
0.0
 13
379.513747
 23
283.5
 33
0.0
  0
SOLID
  5
DA96
  8
WAKU
  6
CONTINUOUS
 10
380.493667
 20
286.192308
 30
0.0
 11
381.775285
 21
283.5
 31
0.0
 12
382.755205
 22
286.192308
 32
0.0
 13
382.755205
 23
286.192308
 33
0.0
  0
SOLID
  5
DA97
  8
WAKU
  6
CONTINUOUS
 10
374.427865
 20
286.205609
 30
0.0
 11
373.195965
 21
285.275232
 31
0.0
 12
374.090681
 22
285.71052
 32
0.0
 13
374.090681
 23
285.71052
 33
0.0
  0
SOLID
  5
DA98
  8
WAKU
  6
CONTINUOUS
 10
373.98505
 20
286.233718
 30
0.0
 11
373.195965
 21
285.275232
 31
0.0
 12
374.427865
 22
286.205609
 32
0.0
 13
374.427865
 23
286.205609
 33
0.0
  0
SOLID
  5
DA99
  8
WAKU
  6
CONTINUOUS
 10
370.971896
 20
286.268471
 30
0.0
 11
370.297156
 21
285.966509
 31
0.0
 12
370.530712
 22
285.590875
 32
0.0
 13
370.530712
 23
285.590875
 33
0.0
  0
SOLID
  5
DA9A
  8
WAKU
  6
CONTINUOUS
 10
373.553316
 20
286.277229
 30
0.0
 11
372.646296
 21
285.825506
 31
0.0
 12
373.145266
 22
285.785089
 32
0.0
 13
373.145266
 23
285.785089
 33
0.0
  0
SOLID
  5
DA9B
  8
WAKU
  6
CONTINUOUS
 10
370.638671
 20
286.473
 30
0.0
 11
370.297156
 21
285.966509
 31
0.0
 12
370.971896
 22
286.268471
 32
0.0
 13
370.971896
 23
286.268471
 33
0.0
  0
SOLID
  5
DA9C
  8
WAKU
  6
CONTINUOUS
 10
373.220238
 20
286.48192
 30
0.0
 11
372.646296
 21
285.825506
 31
0.0
 12
373.553316
 22
286.277229
 32
0.0
 13
373.553316
 23
286.277229
 33
0.0
  0
SOLID
  5
DA9D
  8
WAKU
  6
CONTINUOUS
 10
370.207035
 20
286.51657
 30
0.0
 11
369.502627
 21
286.053593
 31
0.0
 12
369.923519
 22
286.031028
 32
0.0
 13
369.923519
 23
286.031028
 33
0.0
  0
SOLID
  5
DA9E
  8
WAKU
  6
CONTINUOUS
 10
369.764265
 20
286.544812
 30
0.0
 11
369.502627
 21
286.053593
 31
0.0
 12
370.207035
 22
286.51657
 32
0.0
 13
370.207035
 23
286.51657
 33
0.0
  0
SOLID
  5
DA9F
  8
WAKU
  6
CONTINUOUS
 10
374.689503
 20
286.696828
 30
0.0
 11
373.98505
 21
286.233718
 31
0.0
 12
374.427865
 22
286.205609
 32
0.0
 13
374.427865
 23
286.205609
 33
0.0
  0
SOLID
  5
DAA0
  8
WAKU
  6
CONTINUOUS
 10
374.268507
 20
286.719278
 30
0.0
 11
373.98505
 21
286.233718
 31
0.0
 12
374.689503
 22
286.696828
 32
0.0
 13
374.689503
 23
286.696828
 33
0.0
  0
SOLID
  5
DAA1
  8
WAKU
  6
CONTINUOUS
 10
373.894843
 20
286.783693
 30
0.0
 11
373.220238
 21
286.48192
 31
0.0
 12
373.553316
 22
286.277229
 32
0.0
 13
373.553316
 23
286.277229
 33
0.0
  0
SOLID
  5
DAA2
  8
WAKU
  6
CONTINUOUS
 10
371.545827
 20
286.924893
 30
0.0
 11
370.638671
 21
286.473
 31
0.0
 12
370.971896
 22
286.268471
 32
0.0
 13
370.971896
 23
286.268471
 33
0.0
  0
SOLID
  5
DAA3
  8
WAKU
  6
CONTINUOUS
 10
371.04672
 20
286.965174
 30
0.0
 11
370.638671
 21
286.473
 31
0.0
 12
371.545827
 22
286.924893
 32
0.0
 13
371.545827
 23
286.924893
 33
0.0
  0
SOLID
  5
DAA4
  8
WAKU
  6
CONTINUOUS
 10
370.101449
 20
287.039901
 30
0.0
 11
369.764265
 21
286.544812
 31
0.0
 12
370.207035
 22
286.51657
 32
0.0
 13
370.207035
 23
286.51657
 33
0.0
  0
SOLID
  5
DAA5
  8
WAKU
  6
CONTINUOUS
 10
373.661353
 20
287.159534
 30
0.0
 11
373.220238
 21
286.48192
 31
0.0
 12
373.894843
 22
286.783693
 32
0.0
 13
373.894843
 23
286.783693
 33
0.0
  0
SOLID
  5
DAA6
  8
WAKU
  6
CONTINUOUS
 10
374.865984
 20
287.166134
 30
0.0
 11
374.268507
 21
286.719278
 31
0.0
 12
374.689503
 22
286.696828
 32
0.0
 13
374.689503
 23
286.696828
 33
0.0
  0
SOLID
  5
DAA7
  8
WAKU
  6
CONTINUOUS
 10
374.46071
 20
287.174248
 30
0.0
 11
374.268507
 21
286.719278
 31
0.0
 12
374.865984
 22
287.166134
 32
0.0
 13
374.865984
 23
287.166134
 33
0.0
  0
SOLID
  5
DAA8
  8
WAKU
  6
CONTINUOUS
 10
374.156732
 20
287.28503
 30
0.0
 11
373.661353
 21
287.159534
 31
0.0
 12
373.894843
 22
286.783693
 32
0.0
 13
373.894843
 23
286.783693
 33
0.0
  0
SOLID
  5
DAA9
  8
WAKU
  6
CONTINUOUS
 10
371.505632
 20
287.424128
 30
0.0
 11
371.04672
 21
286.965174
 31
0.0
 12
371.545827
 22
286.924893
 32
0.0
 13
371.545827
 23
286.924893
 33
0.0
  0
SOLID
  5
DAAA
  8
WAKU
  6
CONTINUOUS
 10
370.996098
 20
287.475108
 30
0.0
 11
370.101449
 21
287.039901
 31
0.0
 12
370.207035
 22
286.51657
 32
0.0
 13
370.207035
 23
286.51657
 33
0.0
  0
SOLID
  5
DAAB
  8
WAKU
  6
CONTINUOUS
 10
372.202181
 20
287.498991
 30
0.0
 11
371.505632
 21
287.424128
 31
0.0
 12
371.545827
 22
286.924893
 32
0.0
 13
371.545827
 23
286.924893
 33
0.0
  0
SOLID
  5
DAAC
  8
WAKU
  6
CONTINUOUS
 10
370.501795
 20
287.520677
 30
0.0
 11
370.101449
 21
287.039901
 31
0.0
 12
370.996098
 22
287.475108
 32
0.0
 13
370.996098
 23
287.475108
 33
0.0
  0
SOLID
  5
DAAD
  8
WAKU
  6
CONTINUOUS
 10
374.556361
 20
287.569864
 30
0.0
 11
374.46071
 21
287.174248
 31
0.0
 12
374.865984
 22
287.166134
 32
0.0
 13
374.865984
 23
287.166134
 33
0.0
  0
SOLID
  5
DAAE
  8
WAKU
  6
CONTINUOUS
 10
395.864763
 20
287.592308
 30
0.0
 11
395.159221
 21
285.653846
 31
0.0
 12
395.452208
 22
283.5
 32
0.0
 13
395.452208
 23
283.5
 33
0.0
  0
SOLID
  5
DAAF
  8
WAKU
  6
CONTINUOUS
 10
393.172456
 20
287.592308
 30
0.0
 11
391.703565
 21
286.515385
 31
0.0
 12
392.780488
 22
286.515385
 32
0.0
 13
392.780488
 23
286.515385
 33
0.0
  0
SOLID
  5
DAB0
  8
WAKU
  6
CONTINUOUS
 10
392.095533
 20
287.592308
 30
0.0
 11
391.703565
 21
286.515385
 31
0.0
 12
393.172456
 22
287.592308
 32
0.0
 13
393.172456
 23
287.592308
 33
0.0
  0
SOLID
  5
DAB1
  8
WAKU
  6
CONTINUOUS
 10
391.28784
 20
287.592308
 30
0.0
 11
392.095533
 21
287.592308
 31
0.0
 12
393.172456
 22
287.592308
 32
0.0
 13
393.172456
 23
287.592308
 33
0.0
  0
SOLID
  5
DAB2
  8
WAKU
  6
CONTINUOUS
 10
391.28784
 20
287.592308
 30
0.0
 11
393.172456
 21
287.592308
 31
0.0
 12
395.864763
 22
287.592308
 32
0.0
 13
395.864763
 23
287.592308
 33
0.0
  0
SOLID
  5
DAB3
  8
WAKU
  6
CONTINUOUS
 10
396.941687
 20
287.592308
 30
0.0
 11
391.28784
 21
287.592308
 31
0.0
 12
395.864763
 22
287.592308
 32
0.0
 13
395.864763
 23
287.592308
 33
0.0
  0
SOLID
  5
DAB4
  8
WAKU
  6
CONTINUOUS
 10
396.941687
 20
287.592308
 30
0.0
 11
395.864763
 21
287.592308
 31
0.0
 12
395.452208
 22
283.5
 32
0.0
 13
395.452208
 23
283.5
 33
0.0
  0
SOLID
  5
DAB5
  8
WAKU
  6
CONTINUOUS
 10
374.950827
 20
287.596289
 30
0.0
 11
374.556361
 21
287.569864
 31
0.0
 12
374.865984
 22
287.166134
 32
0.0
 13
374.865984
 23
287.166134
 33
0.0
  0
SOLID
  5
DAB6
  8
WAKU
  6
CONTINUOUS
 10
374.328925
 20
287.761987
 30
0.0
 11
373.661353
 21
287.159534
 31
0.0
 12
374.156732
 22
287.28503
 32
0.0
 13
374.156732
 23
287.28503
 33
0.0
  0
SOLID
  5
DAB7
  8
WAKU
  6
CONTINUOUS
 10
373.932071
 20
287.790402
 30
0.0
 11
373.661353
 21
287.159534
 31
0.0
 12
374.328925
 22
287.761987
 32
0.0
 13
374.328925
 23
287.761987
 33
0.0
  0
SOLID
  5
DAB8
  8
WAKU
  6
CONTINUOUS
 10
371.997783
 20
287.832235
 30
0.0
 11
371.505632
 21
287.424128
 31
0.0
 12
372.202181
 22
287.498991
 32
0.0
 13
372.202181
 23
287.498991
 33
0.0
  0
SOLID
  5
DAB9
  8
WAKU
  6
CONTINUOUS
 10
374.561802
 20
287.877253
 30
0.0
 11
374.556361
 21
287.569864
 31
0.0
 12
374.950827
 22
287.596289
 32
0.0
 13
374.950827
 23
287.596289
 33
0.0
  0
SOLID
  5
DABA
  8
WAKU
  6
CONTINUOUS
 10
372.879878
 20
287.940057
 30
0.0
 11
371.997783
 21
287.832235
 31
0.0
 12
372.202181
 22
287.498991
 32
0.0
 13
372.202181
 23
287.498991
 33
0.0
  0
SOLID
  5
DABB
  8
WAKU
  6
CONTINUOUS
 10
370.950599
 20
287.96948
 30
0.0
 11
370.501795
 21
287.520677
 31
0.0
 12
370.996098
 22
287.475108
 32
0.0
 13
370.996098
 23
287.475108
 33
0.0
  0
SOLID
  5
DABC
  8
WAKU
  6
CONTINUOUS
 10
374.940915
 20
287.971493
 30
0.0
 11
374.561802
 21
287.877253
 31
0.0
 12
374.950827
 22
287.596289
 32
0.0
 13
374.950827
 23
287.596289
 33
0.0
  0
SOLID
  5
DABD
  8
WAKU
  6
CONTINUOUS
 10
374.502951
 20
288.077918
 30
0.0
 11
374.561802
 21
287.877253
 31
0.0
 12
374.940915
 22
287.971493
 32
0.0
 13
374.940915
 23
287.971493
 33
0.0
  0
SOLID
  5
DABE
  8
WAKU
  6
CONTINUOUS
 10
405.753055
 20
288.130769
 30
0.0
 11
405.282694
 21
286.838462
 31
0.0
 12
408.513463
 22
286.838462
 32
0.0
 13
408.513463
 23
286.838462
 33
0.0
  0
SOLID
  5
DABF
  8
WAKU
  6
CONTINUOUS
 10
408.983824
 20
288.130769
 30
0.0
 11
405.753055
 21
288.130769
 31
0.0
 12
408.513463
 22
286.838462
 32
0.0
 13
408.513463
 23
286.838462
 33
0.0
  0
SOLID
  5
DAC0
  8
WAKU
  6
CONTINUOUS
 10
372.504269
 20
288.173821
 30
0.0
 11
371.997783
 21
287.832235
 31
0.0
 12
372.879878
 22
287.940057
 32
0.0
 13
372.879878
 23
287.940057
 33
0.0
  0
SOLID
  5
DAC1
  8
WAKU
  6
CONTINUOUS
 10
374.40481
 20
288.196249
 30
0.0
 11
373.932071
 21
287.790402
 31
0.0
 12
374.328925
 22
287.761987
 32
0.0
 13
374.328925
 23
287.761987
 33
0.0
  0
SOLID
  5
DAC2
  8
WAKU
  6
CONTINUOUS
 10
374.40481
 20
288.196249
 30
0.0
 11
374.502951
 21
288.077918
 31
0.0
 12
374.940915
 22
287.971493
 32
0.0
 13
374.940915
 23
287.971493
 33
0.0
  0
SOLID
  5
DAC3
  8
WAKU
  6
CONTINUOUS
 10
373.510738
 20
288.21124
 30
0.0
 11
372.504269
 21
288.173821
 31
0.0
 12
372.879878
 22
287.940057
 32
0.0
 13
372.879878
 23
287.940057
 33
0.0
  0
SOLID
  5
DAC4
  8
WAKU
  6
CONTINUOUS
 10
371.954587
 20
288.264284
 30
0.0
 11
370.950599
 21
287.96948
 31
0.0
 12
370.996098
 22
287.475108
 32
0.0
 13
370.996098
 23
287.475108
 33
0.0
  0
SOLID
  5
DAC5
  8
WAKU
  6
CONTINUOUS
 10
374.836612
 20
288.277967
 30
0.0
 11
374.40481
 21
288.196249
 31
0.0
 12
374.940915
 22
287.971493
 32
0.0
 13
374.940915
 23
287.971493
 33
0.0
  0
SOLID
  5
DAC6
  8
WAKU
  6
CONTINUOUS
 10
374.019229
 20
288.298569
 30
0.0
 11
372.504269
 21
288.173821
 31
0.0
 12
373.510738
 22
288.21124
 32
0.0
 13
373.510738
 23
288.21124
 33
0.0
  0
SOLID
  5
DAC7
  8
WAKU
  6
CONTINUOUS
 10
374.019229
 20
288.298569
 30
0.0
 11
374.40481
 21
288.196249
 31
0.0
 12
374.836612
 22
288.277967
 32
0.0
 13
374.836612
 23
288.277967
 33
0.0
  0
SOLID
  5
DAC8
  8
WAKU
  6
CONTINUOUS
 10
374.019229
 20
288.298569
 30
0.0
 11
373.932071
 21
287.790402
 31
0.0
 12
374.40481
 22
288.196249
 32
0.0
 13
374.40481
 23
288.196249
 33
0.0
  0
SOLID
  5
DAC9
  8
WAKU
  6
CONTINUOUS
 10
371.431374
 20
288.369826
 30
0.0
 11
370.950599
 21
287.96948
 31
0.0
 12
371.954587
 22
288.264284
 32
0.0
 13
371.954587
 23
288.264284
 33
0.0
  0
SOLID
  5
DACA
  8
WAKU
  6
CONTINUOUS
 10
373.005639
 20
288.435768
 30
0.0
 11
372.504269
 21
288.173821
 31
0.0
 12
374.019229
 22
288.298569
 32
0.0
 13
374.019229
 23
288.298569
 33
0.0
  0
SOLID
  5
DACB
  8
WAKU
  6
CONTINUOUS
 10
374.641749
 20
288.504452
 30
0.0
 11
373.005639
 21
288.435768
 31
0.0
 12
374.019229
 22
288.298569
 32
0.0
 13
374.019229
 23
288.298569
 33
0.0
  0
SOLID
  5
DACC
  8
WAKU
  6
CONTINUOUS
 10
374.641749
 20
288.504452
 30
0.0
 11
374.019229
 21
288.298569
 31
0.0
 12
374.836612
 22
288.277967
 32
0.0
 13
374.836612
 23
288.277967
 33
0.0
  0
SOLID
  5
DACD
  8
WAKU
  6
CONTINUOUS
 10
372.440235
 20
288.547585
 30
0.0
 11
371.431374
 21
288.369826
 31
0.0
 12
371.954587
 22
288.264284
 32
0.0
 13
371.954587
 23
288.264284
 33
0.0
  0
SOLID
  5
DACE
  8
WAKU
  6
CONTINUOUS
 10
373.482636
 20
288.608014
 30
0.0
 11
373.005639
 21
288.435768
 31
0.0
 12
374.641749
 22
288.504452
 32
0.0
 13
374.641749
 23
288.504452
 33
0.0
  0
SOLID
  5
DACF
  8
WAKU
  6
CONTINUOUS
 10
374.363484
 20
288.64263
 30
0.0
 11
373.482636
 21
288.608014
 31
0.0
 12
374.641749
 22
288.504452
 32
0.0
 13
374.641749
 23
288.504452
 33
0.0
  0
SOLID
  5
DAD0
  8
WAKU
  6
CONTINUOUS
 10
373.916941
 20
288.683944
 30
0.0
 11
373.482636
 21
288.608014
 31
0.0
 12
374.363484
 22
288.64263
 32
0.0
 13
374.363484
 23
288.64263
 33
0.0
  0
SOLID
  5
DAD1
  8
WAKU
  6
CONTINUOUS
 10
371.926464
 20
288.70701
 30
0.0
 11
371.431374
 21
288.369826
 31
0.0
 12
372.440235
 22
288.547585
 32
0.0
 13
372.440235
 23
288.547585
 33
0.0
  0
SOLID
  5
DAD2
  8
WAKU
  6
CONTINUOUS
 10
372.89514
 20
288.740065
 30
0.0
 11
371.926464
 21
288.70701
 31
0.0
 12
372.440235
 22
288.547585
 32
0.0
 13
372.440235
 23
288.547585
 33
0.0
  0
SOLID
  5
DAD3
  8
WAKU
  6
CONTINUOUS
 10
380.311313
 20
288.776923
 30
0.0
 11
377.155205
 21
286.192308
 31
0.0
 12
380.493667
 22
286.192308
 32
0.0
 13
380.493667
 23
286.192308
 33
0.0
  0
SOLID
  5
DAD4
  8
WAKU
  6
CONTINUOUS
 10
381.524851
 20
288.776923
 30
0.0
 11
378.095928
 21
288.776923
 31
0.0
 12
380.311313
 22
288.776923
 32
0.0
 13
380.311313
 23
288.776923
 33
0.0
  0
SOLID
  5
DAD5
  8
WAKU
  6
CONTINUOUS
 10
381.524851
 20
288.776923
 30
0.0
 11
380.311313
 21
288.776923
 31
0.0
 12
380.493667
 22
286.192308
 32
0.0
 13
380.493667
 23
286.192308
 33
0.0
  0
SOLID
  5
DAD6
  8
WAKU
  6
CONTINUOUS
 10
381.524851
 20
288.776923
 30
0.0
 11
380.493667
 21
286.192308
 31
0.0
 12
382.755205
 22
286.192308
 32
0.0
 13
382.755205
 23
286.192308
 33
0.0
  0
SOLID
  5
DAD7
  8
WAKU
  6
CONTINUOUS
 10
373.799148
 20
288.781929
 30
0.0
 11
373.916941
 21
288.683944
 31
0.0
 12
374.363484
 22
288.64263
 32
0.0
 13
374.363484
 23
288.64263
 33
0.0
  0
SOLID
  5
DAD8
  8
WAKU
  6
CONTINUOUS
 10
373.290857
 20
288.835581
 30
0.0
 11
371.926464
 21
288.70701
 31
0.0
 12
372.89514
 22
288.740065
 32
0.0
 13
372.89514
 23
288.740065
 33
0.0
  0
SOLID
  5
DAD9
  8
WAKU
  6
CONTINUOUS
 10
373.597996
 20
288.840902
 30
0.0
 11
373.799148
 21
288.781929
 31
0.0
 12
374.363484
 22
288.64263
 32
0.0
 13
374.363484
 23
288.64263
 33
0.0
  0
SOLID
  5
DADA
  8
WAKU
  6
CONTINUOUS
 10
402.042817
 20
288.884615
 30
0.0
 11
400.181958
 21
286.730769
 31
0.0
 12
401.258881
 22
286.730769
 32
0.0
 13
401.258881
 23
286.730769
 33
0.0
  0
SOLID
  5
DADB
  8
WAKU
  6
CONTINUOUS
 10
402.796663
 20
288.884615
 30
0.0
 11
401.424776
 21
285.115385
 31
0.0
 12
401.913747
 22
283.5
 32
0.0
 13
401.913747
 23
283.5
 33
0.0
  0
SOLID
  5
DADC
  8
WAKU
  6
CONTINUOUS
 10
403.873587
 20
288.884615
 30
0.0
 11
402.796663
 21
288.884615
 31
0.0
 12
401.913747
 22
283.5
 32
0.0
 13
401.913747
 23
283.5
 33
0.0
  0
SOLID
  5
DADD
  8
WAKU
  6
CONTINUOUS
 10
400.965894
 20
288.884615
 30
0.0
 11
400.181958
 21
286.730769
 31
0.0
 12
402.042817
 22
288.884615
 32
0.0
 13
402.042817
 23
288.884615
 33
0.0
  0
SOLID
  5
DADE
  8
WAKU
  6
CONTINUOUS
 10
399.858881
 20
286.730769
 30
0.0
 11
400.642817
 21
288.884615
 31
0.0
 12
399.565894
 22
288.884615
 32
0.0
 13
399.565894
 23
288.884615
 33
0.0
  0
SOLID
  5
DADF
  8
WAKU
  6
CONTINUOUS
 10
399.565894
 20
288.884615
 30
0.0
 11
398.781958
 21
286.730769
 31
0.0
 12
399.858881
 22
286.730769
 32
0.0
 13
399.858881
 23
286.730769
 33
0.0
  0
SOLID
  5
DAE0
  8
WAKU
  6
CONTINUOUS
 10
374.225306
 20
288.920895
 30
0.0
 11
373.597996
 21
288.840902
 31
0.0
 12
374.363484
 22
288.64263
 32
0.0
 13
374.363484
 23
288.64263
 33
0.0
  0
SOLID
  5
DAE1
  8
WAKU
  6
CONTINUOUS
 10
372.417683
 20
288.968648
 30
0.0
 11
373.597996
 21
288.840902
 31
0.0
 12
374.225306
 22
288.920895
 32
0.0
 13
374.225306
 23
288.920895
 33
0.0
  0
SOLID
  5
DAE2
  8
WAKU
  6
CONTINUOUS
 10
372.417683
 20
288.968648
 30
0.0
 11
373.290857
 21
288.835581
 31
0.0
 12
373.597996
 22
288.840902
 32
0.0
 13
373.597996
 23
288.840902
 33
0.0
  0
SOLID
  5
DAE3
  8
WAKU
  6
CONTINUOUS
 10
372.417683
 20
288.968648
 30
0.0
 11
371.926464
 21
288.70701
 31
0.0
 12
373.290857
 22
288.835581
 32
0.0
 13
373.290857
 23
288.835581
 33
0.0
  0
SOLID
  5
DAE4
  8
WAKU
  6
CONTINUOUS
 10
373.998821
 20
289.115757
 30
0.0
 11
372.417683
 21
288.968648
 31
0.0
 12
374.225306
 22
288.920895
 32
0.0
 13
374.225306
 23
288.920895
 33
0.0
  0
SOLID
  5
DAE5
  8
WAKU
  6
CONTINUOUS
 10
372.886988
 20
289.145129
 30
0.0
 11
372.417683
 21
288.968648
 31
0.0
 12
373.998821
 22
289.115757
 32
0.0
 13
373.998821
 23
289.115757
 33
0.0
  0
SOLID
  5
DAE6
  8
WAKU
  6
CONTINUOUS
 10
396.941687
 20
287.592308
 30
0.0
 11
396.452715
 21
289.207692
 31
0.0
 12
393.760408
 22
289.207692
 32
0.0
 13
393.760408
 23
289.207692
 33
0.0
  0
SOLID
  5
DAE7
  8
WAKU
  6
CONTINUOUS
 10
396.452715
 20
289.207692
 30
0.0
 11
396.941687
 21
287.592308
 31
0.0
 12
397.749379
 22
287.592308
 32
0.0
 13
397.749379
 23
287.592308
 33
0.0
  0
SOLID
  5
DAE8
  8
WAKU
  6
CONTINUOUS
 10
393.760408
 20
289.207692
 30
0.0
 11
391.28784
 21
287.592308
 31
0.0
 12
396.941687
 22
287.592308
 32
0.0
 13
396.941687
 23
287.592308
 33
0.0
  0
SOLID
  5
DAE9
  8
WAKU
  6
CONTINUOUS
 10
398.337331
 20
289.207692
 30
0.0
 11
396.452715
 21
289.207692
 31
0.0
 12
397.749379
 22
287.592308
 32
0.0
 13
397.749379
 23
287.592308
 33
0.0
  0
SOLID
  5
DAEA
  8
WAKU
  6
CONTINUOUS
 10
391.875792
 20
289.207692
 30
0.0
 11
391.28784
 21
287.592308
 31
0.0
 12
393.760408
 22
289.207692
 32
0.0
 13
393.760408
 23
289.207692
 33
0.0
  0
SOLID
  5
DAEB
  8
WAKU
  6
CONTINUOUS
 10
393.760408
 20
289.207692
 30
0.0
 11
392.683485
 21
289.207692
 31
0.0
 12
391.875792
 22
289.207692
 32
0.0
 13
391.875792
 23
289.207692
 33
0.0
  0
SOLID
  5
DAEC
  8
WAKU
  6
CONTINUOUS
 10
397.529638
 20
289.207692
 30
0.0
 11
396.452715
 21
289.207692
 31
0.0
 12
398.337331
 22
289.207692
 32
0.0
 13
398.337331
 23
289.207692
 33
0.0
  0
SOLID
  5
DAED
  8
WAKU
  6
CONTINUOUS
 10
373.692348
 20
289.22006
 30
0.0
 11
372.886988
 21
289.145129
 31
0.0
 12
373.998821
 22
289.115757
 32
0.0
 13
373.998821
 23
289.115757
 33
0.0
  0
SOLID
  5
DAEE
  8
WAKU
  6
CONTINUOUS
 10
373.317143
 20
289.229972
 30
0.0
 11
372.886988
 21
289.145129
 31
0.0
 12
373.692348
 22
289.22006
 32
0.0
 13
373.692348
 23
289.22006
 33
0.0
  0
SOLID
  5
DAEF
  8
WAKU
  6
CONTINUOUS
 10
378.723077
 20
290.5
 30
0.0
 11
381.524851
 21
288.776923
 31
0.0
 12
383.695928
 22
288.776923
 32
0.0
 13
383.695928
 23
288.776923
 33
0.0
  0
SOLID
  5
DAF0
  8
WAKU
  6
CONTINUOUS
 10
378.723077
 20
290.5
 30
0.0
 11
378.095928
 21
288.776923
 31
0.0
 12
381.524851
 22
288.776923
 32
0.0
 13
381.524851
 23
288.776923
 33
0.0
  0
SOLID
  5
DAF1
  8
WAKU
  6
CONTINUOUS
 10
372.249053
 20
290.5
 30
0.0
 11
367.971276
 21
290.5
 31
0.0
 12
367.971276
 22
286.222222
 32
0.0
 13
367.971276
 23
286.222222
 33
0.0
  0
SOLID
  5
DAF2
  8
WAKU
  6
CONTINUOUS
 10
409.219005
 20
288.776923
 30
0.0
 11
409.846154
 21
290.5
 31
0.0
 12
406.615385
 22
290.5
 32
0.0
 13
406.615385
 23
290.5
 33
0.0
  0
SOLID
  5
DAF3
  8
WAKU
  6
CONTINUOUS
 10
406.615385
 20
290.5
 30
0.0
 11
405.988236
 21
288.776923
 31
0.0
 12
409.219005
 22
288.776923
 32
0.0
 13
409.219005
 23
288.776923
 33
0.0
  0
SOLID
  5
DAF4
  8
WAKU
  6
CONTINUOUS
 10
392.683485
 20
289.207692
 30
0.0
 11
394.230769
 21
290.5
 31
0.0
 12
393.153846
 22
290.5
 32
0.0
 13
393.153846
 23
290.5
 33
0.0
  0
SOLID
  5
DAF5
  8
WAKU
  6
CONTINUOUS
 10
394.230769
 20
290.5
 30
0.0
 11
392.683485
 21
289.207692
 31
0.0
 12
393.760408
 22
289.207692
 32
0.0
 13
393.760408
 23
289.207692
 33
0.0
  0
SOLID
  5
DAF6
  8
WAKU
  6
CONTINUOUS
 10
409.159221
 20
285.653846
 30
0.0
 11
412.0
 21
290.5
 31
0.0
 12
410.923077
 22
290.5
 32
0.0
 13
410.923077
 23
290.5
 33
0.0
  0
SOLID
  5
DAF7
  8
WAKU
  6
CONTINUOUS
 10
412.0
 20
290.5
 30
0.0
 11
409.159221
 21
285.653846
 31
0.0
 12
409.452208
 22
283.5
 32
0.0
 13
409.452208
 23
283.5
 33
0.0
  0
SOLID
  5
DAF8
  8
WAKU
  6
CONTINUOUS
 10
384.323077
 20
290.5
 30
0.0
 11
378.723077
 21
290.5
 31
0.0
 12
383.695928
 22
288.776923
 32
0.0
 13
383.695928
 23
288.776923
 33
0.0
  0
SOLID
  5
DAF9
  8
WAKU
  6
CONTINUOUS
 10
385.615385
 20
290.5
 30
0.0
 11
384.988236
 21
288.776923
 31
0.0
 12
390.372851
 22
288.776923
 32
0.0
 13
390.372851
 23
288.776923
 33
0.0
  0
SOLID
  5
DAFA
  8
WAKU
  6
CONTINUOUS
 10
396.923077
 20
290.5
 30
0.0
 11
396.452715
 21
289.207692
 31
0.0
 12
397.529638
 22
289.207692
 32
0.0
 13
397.529638
 23
289.207692
 33
0.0
  0
SOLID
  5
DAFB
  8
WAKU
  6
CONTINUOUS
 10
391.0
 20
290.5
 30
0.0
 11
385.615385
 21
290.5
 31
0.0
 12
390.372851
 22
288.776923
 32
0.0
 13
390.372851
 23
288.776923
 33
0.0
  0
SOLID
  5
DAFC
  8
WAKU
  6
CONTINUOUS
 10
398.0
 20
290.5
 30
0.0
 11
396.923077
 21
290.5
 31
0.0
 12
397.529638
 22
289.207692
 32
0.0
 13
397.529638
 23
289.207692
 33
0.0
  0
ENDBLK
  5
DAFD
  8
0
  0
ENDSEC
  0
SECTION
  2
ENTITIES
  0
LINE
  5
DB05
  8
WAKU
 10
415.0
 20
292.0
 30
0.0
 11
415.0
 21
5.0
 31
0.0
  0
LINE
  5
DB06
  8
WAKU
 10
5.0
 20
292.0
 30
0.0
 11
5.0
 21
5.0
 31
0.0
  0
LINE
  5
DB07
  8
WAKU
 10
5.0
 20
5.0
 30
0.0
 11
415.0
 21
5.0
 31
0.0
  0
LINE
  5
DB08
  8
WAKU
 10
5.0
 20
292.0
 30
0.0
 11
415.0
 21
292.0
 31
0.0
  0
LINE
  5
DB09
  8
WAKU
 10
5.0
 20
282.0
 30
0.0
 11
415.0
 21
282.0
 31
0.0
  0
LINE
  5
DB0A
  8
WAKU
  6
CONTINUOUS
 10
393.760408
 20
289.207692
 30
0.0
 11
396.452715
 21
289.207692
 31
0.0
  0
LINE
  5
DB0B
  8
WAKU
  6
CONTINUOUS
 10
393.172456
 20
287.592308
 30
0.0
 11
395.864763
 21
287.592308
 31
0.0
  0
LINE
  5
DB0C
  8
WAKU
  6
CONTINUOUS
 10
390.39067
 20
283.5
 30
0.0
 11
395.452208
 21
283.5
 31
0.0
  0
LINE
  5
DB0D
  8
WAKU
  6
CONTINUOUS
 10
395.159221
 20
285.653846
 30
0.0
 11
395.864763
 21
287.592308
 31
0.0
  0
LINE
  5
DB0E
  8
WAKU
  6
CONTINUOUS
 10
367.971276
 20
290.5
 30
0.0
 11
372.249053
 21
290.5
 31
0.0
  0
LINE
  5
DB0F
  8
WAKU
  6
CONTINUOUS
 10
367.971276
 20
286.222222
 30
0.0
 11
372.249053
 21
290.5
 31
0.0
  0
LINE
  5
DB10
  8
WAKU
  6
CONTINUOUS
 10
367.971276
 20
290.5
 30
0.0
 11
367.971276
 21
286.222222
 31
0.0
  0
LINE
  5
DB11
  8
WAKU
  6
CONTINUOUS
 10
381.524851
 20
288.776923
 30
0.0
 11
383.695928
 21
288.776923
 31
0.0
  0
LINE
  5
DB12
  8
WAKU
  6
CONTINUOUS
 10
378.723077
 20
290.5
 30
0.0
 11
384.323077
 21
290.5
 31
0.0
  0
LINE
  5
DB13
  8
WAKU
  6
CONTINUOUS
 10
380.311313
 20
288.776923
 30
0.0
 11
377.155205
 21
286.192308
 31
0.0
  0
LINE
  5
DB14
  8
WAKU
  6
CONTINUOUS
 10
381.524851
 20
288.776923
 30
0.0
 11
382.755205
 21
286.192308
 31
0.0
  0
LINE
  5
DB15
  8
WAKU
  6
CONTINUOUS
 10
376.175285
 20
283.5
 30
0.0
 11
377.155205
 21
286.192308
 31
0.0
  0
LINE
  5
DB16
  8
WAKU
  6
CONTINUOUS
 10
379.397145
 20
286.138462
 30
0.0
 11
376.175285
 21
283.5
 31
0.0
  0
LINE
  5
DB17
  8
WAKU
  6
CONTINUOUS
 10
381.775285
 20
283.5
 30
0.0
 11
382.755205
 21
286.192308
 31
0.0
  0
LINE
  5
DB18
  8
WAKU
  6
CONTINUOUS
 10
380.493667
 20
286.192308
 30
0.0
 11
381.775285
 21
283.5
 31
0.0
  0
LINE
  5
DB19
  8
WAKU
  6
CONTINUOUS
 10
379.513747
 20
283.5
 30
0.0
 11
380.493667
 21
286.192308
 31
0.0
  0
LINE
  5
DB1A
  8
WAKU
  6
CONTINUOUS
 10
378.436824
 20
283.5
 30
0.0
 11
379.513747
 21
283.5
 31
0.0
  0
LINE
  5
DB1B
  8
WAKU
  6
CONTINUOUS
 10
378.436824
 20
283.5
 30
0.0
 11
379.397145
 21
286.138462
 31
0.0
  0
LINE
  5
DB1C
  8
WAKU
  6
CONTINUOUS
 10
378.095928
 20
288.776923
 30
0.0
 11
380.311313
 21
288.776923
 31
0.0
  0
LINE
  5
DB1D
  8
WAKU
  6
CONTINUOUS
 10
378.723077
 20
290.5
 30
0.0
 11
378.095928
 21
288.776923
 31
0.0
  0
LINE
  5
DB1E
  8
WAKU
  6
CONTINUOUS
 10
392.780488
 20
286.515385
 30
0.0
 11
393.172456
 21
287.592308
 31
0.0
  0
LINE
  5
DB1F
  8
WAKU
  6
CONTINUOUS
 10
391.703565
 20
286.515385
 30
0.0
 11
392.095533
 21
287.592308
 31
0.0
  0
LINE
  5
DB20
  8
WAKU
  6
CONTINUOUS
 10
388.452208
 20
283.5
 30
0.0
 11
389.236144
 21
285.653846
 31
0.0
  0
LINE
  5
DB21
  8
WAKU
  6
CONTINUOUS
 10
383.851529
 20
285.653846
 30
0.0
 11
389.236144
 21
285.653846
 31
0.0
  0
LINE
  5
DB22
  8
WAKU
  6
CONTINUOUS
 10
383.067593
 20
283.5
 30
0.0
 11
383.851529
 21
285.653846
 31
0.0
  0
LINE
  5
DB23
  8
WAKU
  6
CONTINUOUS
 10
383.067593
 20
283.5
 30
0.0
 11
388.452208
 21
283.5
 31
0.0
  0
LINE
  5
DB24
  8
WAKU
  6
CONTINUOUS
 10
391.174606
 20
285.653846
 30
0.0
 11
395.159221
 21
285.653846
 31
0.0
  0
LINE
  5
DB25
  8
WAKU
  6
CONTINUOUS
 10
391.703565
 20
286.515385
 30
0.0
 11
392.780488
 21
286.515385
 31
0.0
  0
LINE
  5
DB26
  8
WAKU
  6
CONTINUOUS
 10
390.39067
 20
283.5
 30
0.0
 11
391.174606
 21
285.653846
 31
0.0
  0
LINE
  5
DB27
  8
WAKU
  6
CONTINUOUS
 10
384.988236
 20
288.776923
 30
0.0
 11
390.372851
 21
288.776923
 31
0.0
  0
LINE
  5
DB28
  8
WAKU
  6
CONTINUOUS
 10
385.615385
 20
290.5
 30
0.0
 11
391.0
 21
290.5
 31
0.0
  0
LINE
  5
DB29
  8
WAKU
  6
CONTINUOUS
 10
384.988236
 20
288.776923
 30
0.0
 11
385.615385
 21
290.5
 31
0.0
  0
LINE
  5
DB2A
  8
WAKU
  6
CONTINUOUS
 10
384.323077
 20
290.5
 30
0.0
 11
383.695928
 21
288.776923
 31
0.0
  0
LINE
  5
DB2B
  8
WAKU
  6
CONTINUOUS
 10
393.153846
 20
290.5
 30
0.0
 11
394.230769
 21
290.5
 31
0.0
  0
LINE
  5
DB2C
  8
WAKU
  6
CONTINUOUS
 10
393.760408
 20
289.207692
 30
0.0
 11
394.230769
 21
290.5
 31
0.0
  0
LINE
  5
DB2D
  8
WAKU
  6
CONTINUOUS
 10
391.875792
 20
289.207692
 30
0.0
 11
392.683485
 21
289.207692
 31
0.0
  0
LINE
  5
DB2E
  8
WAKU
  6
CONTINUOUS
 10
391.28784
 20
287.592308
 30
0.0
 11
392.095533
 21
287.592308
 31
0.0
  0
LINE
  5
DB2F
  8
WAKU
  6
CONTINUOUS
 10
391.28784
 20
287.592308
 30
0.0
 11
391.875792
 21
289.207692
 31
0.0
  0
LINE
  5
DB30
  8
WAKU
  6
CONTINUOUS
 10
392.683485
 20
289.207692
 30
0.0
 11
393.153846
 21
290.5
 31
0.0
  0
LINE
  5
DB31
  8
WAKU
  6
CONTINUOUS
 10
390.372851
 20
288.776923
 30
0.0
 11
391.0
 21
290.5
 31
0.0
  0
LINE
  5
DB32
  8
WAKU
  6
CONTINUOUS
 10
405.753055
 20
288.130769
 30
0.0
 11
408.983824
 21
288.130769
 31
0.0
  0
LINE
  5
DB33
  8
WAKU
  6
CONTINUOUS
 10
405.282694
 20
286.838462
 30
0.0
 11
408.513463
 21
286.838462
 31
0.0
  0
LINE
  5
DB34
  8
WAKU
  6
CONTINUOUS
 10
409.452208
 20
283.5
 30
0.0
 11
404.067593
 21
283.5
 31
0.0
  0
LINE
  5
DB35
  8
WAKU
  6
CONTINUOUS
 10
404.851529
 20
285.653846
 30
0.0
 11
409.159221
 21
285.653846
 31
0.0
  0
LINE
  5
DB36
  8
WAKU
  6
CONTINUOUS
 10
405.988236
 20
288.776923
 30
0.0
 11
409.219005
 21
288.776923
 31
0.0
  0
LINE
  5
DB37
  8
WAKU
  6
CONTINUOUS
 10
406.615385
 20
290.5
 30
0.0
 11
409.846154
 21
290.5
 31
0.0
  0
LINE
  5
DB38
  8
WAKU
  6
CONTINUOUS
 10
398.781958
 20
286.730769
 30
0.0
 11
399.565894
 21
288.884615
 31
0.0
  0
LINE
  5
DB39
  8
WAKU
  6
CONTINUOUS
 10
400.181958
 20
286.730769
 30
0.0
 11
400.965894
 21
288.884615
 31
0.0
  0
LINE
  5
DB3A
  8
WAKU
  6
CONTINUOUS
 10
399.858881
 20
286.730769
 30
0.0
 11
400.642817
 21
288.884615
 31
0.0
  0
LINE
  5
DB3B
  8
WAKU
  6
CONTINUOUS
 10
401.258881
 20
286.730769
 30
0.0
 11
402.042817
 21
288.884615
 31
0.0
  0
LINE
  5
DB3C
  8
WAKU
  6
CONTINUOUS
 10
401.913747
 20
283.5
 30
0.0
 11
403.873587
 21
288.884615
 31
0.0
  0
LINE
  5
DB3D
  8
WAKU
  6
CONTINUOUS
 10
401.424776
 20
285.115385
 30
0.0
 11
402.796663
 21
288.884615
 31
0.0
  0
LINE
  5
DB3E
  8
WAKU
  6
CONTINUOUS
 10
395.452208
 20
283.5
 30
0.0
 11
396.941687
 21
287.592308
 31
0.0
  0
LINE
  5
DB3F
  8
WAKU
  6
CONTINUOUS
 10
397.606055
 20
283.5
 30
0.0
 11
401.913747
 21
283.5
 31
0.0
  0
LINE
  5
DB40
  8
WAKU
  6
CONTINUOUS
 10
398.781958
 20
286.730769
 30
0.0
 11
399.858881
 21
286.730769
 31
0.0
  0
LINE
  5
DB41
  8
WAKU
  6
CONTINUOUS
 10
398.194006
 20
285.115385
 30
0.0
 11
401.424776
 21
285.115385
 31
0.0
  0
LINE
  5
DB42
  8
WAKU
  6
CONTINUOUS
 10
397.606055
 20
283.5
 30
0.0
 11
398.194006
 21
285.115385
 31
0.0
  0
LINE
  5
DB43
  8
WAKU
  6
CONTINUOUS
 10
400.181958
 20
286.730769
 30
0.0
 11
401.258881
 21
286.730769
 31
0.0
  0
LINE
  5
DB44
  8
WAKU
  6
CONTINUOUS
 10
404.067593
 20
283.5
 30
0.0
 11
404.851529
 21
285.653846
 31
0.0
  0
LINE
  5
DB45
  8
WAKU
  6
CONTINUOUS
 10
400.965894
 20
288.884615
 30
0.0
 11
402.042817
 21
288.884615
 31
0.0
  0
LINE
  5
DB46
  8
WAKU
  6
CONTINUOUS
 10
396.923077
 20
290.5
 30
0.0
 11
398.0
 21
290.5
 31
0.0
  0
LINE
  5
DB47
  8
WAKU
  6
CONTINUOUS
 10
397.529638
 20
289.207692
 30
0.0
 11
398.0
 21
290.5
 31
0.0
  0
LINE
  5
DB48
  8
WAKU
  6
CONTINUOUS
 10
397.529638
 20
289.207692
 30
0.0
 11
398.337331
 21
289.207692
 31
0.0
  0
LINE
  5
DB49
  8
WAKU
  6
CONTINUOUS
 10
396.941687
 20
287.592308
 30
0.0
 11
397.749379
 21
287.592308
 31
0.0
  0
LINE
  5
DB4A
  8
WAKU
  6
CONTINUOUS
 10
397.749379
 20
287.592308
 30
0.0
 11
398.337331
 21
289.207692
 31
0.0
  0
LINE
  5
DB4B
  8
WAKU
  6
CONTINUOUS
 10
399.565894
 20
288.884615
 30
0.0
 11
400.642817
 21
288.884615
 31
0.0
  0
LINE
  5
DB4C
  8
WAKU
  6
CONTINUOUS
 10
396.452715
 20
289.207692
 30
0.0
 11
396.923077
 21
290.5
 31
0.0
  0
LINE
  5
DB4D
  8
WAKU
  6
CONTINUOUS
 10
406.615385
 20
290.5
 30
0.0
 11
405.988236
 21
288.776923
 31
0.0
  0
LINE
  5
DB4E
  8
WAKU
  6
CONTINUOUS
 10
405.753055
 20
288.130769
 30
0.0
 11
405.282694
 21
286.838462
 31
0.0
  0
LINE
  5
DB4F
  8
WAKU
  6
CONTINUOUS
 10
402.796663
 20
288.884615
 30
0.0
 11
403.873587
 21
288.884615
 31
0.0
  0
LINE
  5
DB50
  8
WAKU
  6
CONTINUOUS
 10
409.159221
 20
285.653846
 30
0.0
 11
410.923077
 21
290.5
 31
0.0
  0
LINE
  5
DB51
  8
WAKU
  6
CONTINUOUS
 10
409.452208
 20
283.5
 30
0.0
 11
412.0
 21
290.5
 31
0.0
  0
LINE
  5
DB52
  8
WAKU
  6
CONTINUOUS
 10
409.219005
 20
288.776923
 30
0.0
 11
409.846154
 21
290.5
 31
0.0
  0
LINE
  5
DB53
  8
WAKU
  6
CONTINUOUS
 10
410.923077
 20
290.5
 30
0.0
 11
412.0
 21
290.5
 31
0.0
  0
LINE
  5
DB54
  8
WAKU
  6
CONTINUOUS
 10
408.513463
 20
286.838462
 30
0.0
 11
408.983824
 21
288.130769
 31
0.0
  0
LINE
  5
DB55
  8
WAKU
  6
CONTINUOUS
 10
369.828646
 20
284.107791
 30
0.0
 11
369.966824
 21
283.829526
 31
0.0
  0
LINE
  5
DB56
  8
WAKU
  6
CONTINUOUS
 10
369.966824
 20
283.829526
 30
0.0
 11
370.193309
 21
283.634664
 31
0.0
  0
LINE
  5
DB57
  8
WAKU
  6
CONTINUOUS
 10
370.193309
 20
283.634664
 30
0.0
 11
370.499782
 21
283.530361
 31
0.0
  0
LINE
  5
DB58
  8
WAKU
  6
CONTINUOUS
 10
370.499782
 20
283.530361
 30
0.0
 11
370.874987
 21
283.520449
 31
0.0
  0
LINE
  5
DB59
  8
WAKU
  6
CONTINUOUS
 10
370.874987
 20
283.520449
 30
0.0
 11
371.305142
 21
283.605291
 31
0.0
  0
LINE
  5
DB5A
  8
WAKU
  6
CONTINUOUS
 10
371.305142
 20
283.605291
 30
0.0
 11
371.774448
 21
283.781773
 31
0.0
  0
LINE
  5
DB5B
  8
WAKU
  6
CONTINUOUS
 10
371.774448
 20
283.781773
 30
0.0
 11
372.265666
 21
284.043411
 31
0.0
  0
LINE
  5
DB5C
  8
WAKU
  6
CONTINUOUS
 10
372.265666
 20
284.043411
 30
0.0
 11
372.760756
 21
284.380595
 31
0.0
  0
LINE
  5
DB5D
  8
WAKU
  6
CONTINUOUS
 10
372.760756
 20
284.380595
 30
0.0
 11
373.241532
 21
284.780941
 31
0.0
  0
LINE
  5
DB5E
  8
WAKU
  6
CONTINUOUS
 10
373.241532
 20
284.780941
 30
0.0
 11
373.690335
 21
285.229744
 31
0.0
  0
LINE
  5
DB5F
  8
WAKU
  6
CONTINUOUS
 10
373.690335
 20
285.229744
 30
0.0
 11
374.090681
 21
285.71052
 31
0.0
  0
LINE
  5
DB60
  8
WAKU
  6
CONTINUOUS
 10
374.090681
 20
285.71052
 30
0.0
 11
374.427865
 21
286.205609
 31
0.0
  0
LINE
  5
DB61
  8
WAKU
  6
CONTINUOUS
 10
374.427865
 20
286.205609
 30
0.0
 11
374.689503
 21
286.696828
 31
0.0
  0
LINE
  5
DB62
  8
WAKU
  6
CONTINUOUS
 10
374.689503
 20
286.696828
 30
0.0
 11
374.865984
 21
287.166134
 31
0.0
  0
LINE
  5
DB63
  8
WAKU
  6
CONTINUOUS
 10
374.865984
 20
287.166134
 30
0.0
 11
374.950827
 21
287.596289
 31
0.0
  0
LINE
  5
DB64
  8
WAKU
  6
CONTINUOUS
 10
374.950827
 20
287.596289
 30
0.0
 11
374.940915
 21
287.971493
 31
0.0
  0
LINE
  5
DB65
  8
WAKU
  6
CONTINUOUS
 10
374.940915
 20
287.971493
 30
0.0
 11
374.836612
 21
288.277967
 31
0.0
  0
LINE
  5
DB66
  8
WAKU
  6
CONTINUOUS
 10
374.836612
 20
288.277967
 30
0.0
 11
374.641749
 21
288.504452
 31
0.0
  0
LINE
  5
DB67
  8
WAKU
  6
CONTINUOUS
 10
374.641749
 20
288.504452
 30
0.0
 11
374.363484
 21
288.64263
 31
0.0
  0
LINE
  5
DB68
  8
WAKU
  6
CONTINUOUS
 10
373.916941
 20
288.683944
 30
0.0
 11
373.482636
 21
288.608014
 31
0.0
  0
LINE
  5
DB69
  8
WAKU
  6
CONTINUOUS
 10
373.482636
 20
288.608014
 30
0.0
 11
373.005639
 21
288.435768
 31
0.0
  0
LINE
  5
DB6A
  8
WAKU
  6
CONTINUOUS
 10
373.005639
 20
288.435768
 30
0.0
 11
372.504269
 21
288.173821
 31
0.0
  0
LINE
  5
DB6B
  8
WAKU
  6
CONTINUOUS
 10
372.504269
 20
288.173821
 30
0.0
 11
371.997783
 21
287.832235
 31
0.0
  0
LINE
  5
DB6C
  8
WAKU
  6
CONTINUOUS
 10
371.997783
 20
287.832235
 30
0.0
 11
371.505632
 21
287.424128
 31
0.0
  0
LINE
  5
DB6D
  8
WAKU
  6
CONTINUOUS
 10
371.505632
 20
287.424128
 30
0.0
 11
371.04672
 21
286.965174
 31
0.0
  0
LINE
  5
DB6E
  8
WAKU
  6
CONTINUOUS
 10
371.04672
 20
286.965174
 30
0.0
 11
370.638671
 21
286.473
 31
0.0
  0
LINE
  5
DB6F
  8
WAKU
  6
CONTINUOUS
 10
370.638671
 20
286.473
 30
0.0
 11
370.297156
 21
285.966509
 31
0.0
  0
LINE
  5
DB70
  8
WAKU
  6
CONTINUOUS
 10
370.297156
 20
285.966509
 30
0.0
 11
370.035293
 21
285.465154
 31
0.0
  0
LINE
  5
DB71
  8
WAKU
  6
CONTINUOUS
 10
370.035293
 20
285.465154
 30
0.0
 11
369.863139
 21
284.988189
 31
0.0
  0
LINE
  5
DB72
  8
WAKU
  6
CONTINUOUS
 10
369.863139
 20
284.988189
 30
0.0
 11
369.787305
 21
284.553935
 31
0.0
  0
LINE
  5
DB73
  8
WAKU
  6
CONTINUOUS
 10
370.172911
 20
284.451856
 30
0.0
 11
370.681395
 21
284.539195
 31
0.0
  0
LINE
  5
DB74
  8
WAKU
  6
CONTINUOUS
 10
370.681395
 20
284.539195
 30
0.0
 11
371.312263
 21
284.810332
 31
0.0
  0
LINE
  5
DB75
  8
WAKU
  6
CONTINUOUS
 10
371.312263
 20
284.810332
 30
0.0
 11
371.98994
 21
285.251431
 31
0.0
  0
LINE
  5
DB76
  8
WAKU
  6
CONTINUOUS
 10
371.98994
 20
285.251431
 30
0.0
 11
372.646296
 21
285.825506
 31
0.0
  0
LINE
  5
DB77
  8
WAKU
  6
CONTINUOUS
 10
372.646296
 20
285.825506
 30
0.0
 11
373.220238
 21
286.48192
 31
0.0
  0
LINE
  5
DB78
  8
WAKU
  6
CONTINUOUS
 10
373.220238
 20
286.48192
 30
0.0
 11
373.661353
 21
287.159534
 31
0.0
  0
LINE
  5
DB79
  8
WAKU
  6
CONTINUOUS
 10
373.661353
 20
287.159534
 30
0.0
 11
373.932071
 21
287.790402
 31
0.0
  0
LINE
  5
DB7A
  8
WAKU
  6
CONTINUOUS
 10
373.932071
 20
287.790402
 30
0.0
 11
374.019229
 21
288.298569
 31
0.0
  0
LINE
  5
DB7B
  8
WAKU
  6
CONTINUOUS
 10
373.916941
 20
288.683944
 30
0.0
 11
373.799148
 21
288.781929
 31
0.0
  0
LINE
  5
DB7C
  8
WAKU
  6
CONTINUOUS
 10
373.799148
 20
288.781929
 30
0.0
 11
373.597996
 21
288.840902
 31
0.0
  0
LINE
  5
DB7D
  8
WAKU
  6
CONTINUOUS
 10
373.597996
 20
288.840902
 30
0.0
 11
373.290857
 21
288.835581
 31
0.0
  0
LINE
  5
DB7E
  8
WAKU
  6
CONTINUOUS
 10
373.290857
 20
288.835581
 30
0.0
 11
372.89514
 21
288.740065
 31
0.0
  0
LINE
  5
DB7F
  8
WAKU
  6
CONTINUOUS
 10
372.89514
 20
288.740065
 30
0.0
 11
372.440235
 21
288.547585
 31
0.0
  0
LINE
  5
DB80
  8
WAKU
  6
CONTINUOUS
 10
372.440235
 20
288.547585
 30
0.0
 11
371.954587
 21
288.264284
 31
0.0
  0
LINE
  5
DB81
  8
WAKU
  6
CONTINUOUS
 10
371.954587
 20
288.264284
 30
0.0
 11
370.996098
 21
287.475108
 31
0.0
  0
LINE
  5
DB82
  8
WAKU
  6
CONTINUOUS
 10
370.996098
 20
287.475108
 30
0.0
 11
370.207035
 21
286.51657
 31
0.0
  0
LINE
  5
DB83
  8
WAKU
  6
CONTINUOUS
 10
370.207035
 20
286.51657
 30
0.0
 11
369.923519
 21
286.031028
 31
0.0
  0
LINE
  5
DB84
  8
WAKU
  6
CONTINUOUS
 10
369.923519
 20
286.031028
 30
0.0
 11
369.73149
 21
285.576021
 31
0.0
  0
LINE
  5
DB85
  8
WAKU
  6
CONTINUOUS
 10
369.73149
 20
285.576021
 30
0.0
 11
369.635696
 21
285.180404
 31
0.0
  0
LINE
  5
DB86
  8
WAKU
  6
CONTINUOUS
 10
369.635696
 20
285.180404
 30
0.0
 11
369.630358
 21
284.873087
 31
0.0
  0
LINE
  5
DB87
  8
WAKU
  6
CONTINUOUS
 10
369.630358
 20
284.873087
 30
0.0
 11
369.689155
 21
284.672435
 31
0.0
  0
LINE
  5
DB88
  8
WAKU
  6
CONTINUOUS
 10
369.689155
 20
284.672435
 30
0.0
 11
369.787305
 21
284.553935
 31
0.0
  0
LINE
  5
DB89
  8
WAKU
  6
CONTINUOUS
 10
370.275177
 20
284.066476
 30
0.0
 11
370.392927
 21
283.968568
 31
0.0
  0
LINE
  5
DB8A
  8
WAKU
  6
CONTINUOUS
 10
370.392927
 20
283.968568
 30
0.0
 11
370.594177
 21
283.909498
 31
0.0
  0
LINE
  5
DB8B
  8
WAKU
  6
CONTINUOUS
 10
370.594177
 20
283.909498
 30
0.0
 11
370.901294
 21
283.914863
 31
0.0
  0
LINE
  5
DB8C
  8
WAKU
  6
CONTINUOUS
 10
370.901294
 20
283.914863
 30
0.0
 11
371.296984
 21
284.010368
 31
0.0
  0
LINE
  5
DB8D
  8
WAKU
  6
CONTINUOUS
 10
371.296984
 20
284.010368
 30
0.0
 11
371.751882
 21
284.202798
 31
0.0
  0
LINE
  5
DB8E
  8
WAKU
  6
CONTINUOUS
 10
371.751882
 20
284.202798
 30
0.0
 11
372.237497
 21
284.486117
 31
0.0
  0
LINE
  5
DB8F
  8
WAKU
  6
CONTINUOUS
 10
372.237497
 20
284.486117
 30
0.0
 11
373.195965
 21
285.275232
 31
0.0
  0
LINE
  5
DB90
  8
WAKU
  6
CONTINUOUS
 10
373.195965
 20
285.275232
 30
0.0
 11
373.98505
 21
286.233718
 31
0.0
  0
LINE
  5
DB91
  8
WAKU
  6
CONTINUOUS
 10
373.98505
 20
286.233718
 30
0.0
 11
374.268507
 21
286.719278
 31
0.0
  0
LINE
  5
DB92
  8
WAKU
  6
CONTINUOUS
 10
374.268507
 20
286.719278
 30
0.0
 11
374.46071
 21
287.174248
 31
0.0
  0
LINE
  5
DB93
  8
WAKU
  6
CONTINUOUS
 10
374.46071
 20
287.174248
 30
0.0
 11
374.556361
 21
287.569864
 31
0.0
  0
LINE
  5
DB94
  8
WAKU
  6
CONTINUOUS
 10
374.556361
 20
287.569864
 30
0.0
 11
374.561802
 21
287.877253
 31
0.0
  0
LINE
  5
DB95
  8
WAKU
  6
CONTINUOUS
 10
374.561802
 20
287.877253
 30
0.0
 11
374.502951
 21
288.077918
 31
0.0
  0
LINE
  5
DB96
  8
WAKU
  6
CONTINUOUS
 10
374.502951
 20
288.077918
 30
0.0
 11
374.40481
 21
288.196249
 31
0.0
  0
LINE
  5
DB97
  8
WAKU
  6
CONTINUOUS
 10
374.019229
 20
288.298569
 30
0.0
 11
373.510738
 21
288.21124
 31
0.0
  0
LINE
  5
DB98
  8
WAKU
  6
CONTINUOUS
 10
373.510738
 20
288.21124
 30
0.0
 11
372.879878
 21
287.940057
 31
0.0
  0
LINE
  5
DB99
  8
WAKU
  6
CONTINUOUS
 10
372.879878
 20
287.940057
 30
0.0
 11
372.202181
 21
287.498991
 31
0.0
  0
LINE
  5
DB9A
  8
WAKU
  6
CONTINUOUS
 10
372.202181
 20
287.498991
 30
0.0
 11
371.545827
 21
286.924893
 31
0.0
  0
LINE
  5
DB9B
  8
WAKU
  6
CONTINUOUS
 10
371.545827
 20
286.924893
 30
0.0
 11
370.971896
 21
286.268471
 31
0.0
  0
LINE
  5
DB9C
  8
WAKU
  6
CONTINUOUS
 10
370.971896
 20
286.268471
 30
0.0
 11
370.530712
 21
285.590875
 31
0.0
  0
LINE
  5
DB9D
  8
WAKU
  6
CONTINUOUS
 10
370.530712
 20
285.590875
 30
0.0
 11
370.260168
 21
284.959969
 31
0.0
  0
LINE
  5
DB9E
  8
WAKU
  6
CONTINUOUS
 10
370.260168
 20
284.959969
 30
0.0
 11
370.172911
 21
284.451856
 31
0.0
  0
LINE
  5
DB9F
  8
WAKU
  6
CONTINUOUS
 10
370.275177
 20
284.066476
 30
0.0
 11
370.709458
 21
284.142397
 31
0.0
  0
LINE
  5
DBA0
  8
WAKU
  6
CONTINUOUS
 10
370.709458
 20
284.142397
 30
0.0
 11
371.186428
 21
284.314625
 31
0.0
  0
LINE
  5
DBA1
  8
WAKU
  6
CONTINUOUS
 10
371.186428
 20
284.314625
 30
0.0
 11
371.68777
 21
284.576545
 31
0.0
  0
LINE
  5
DBA2
  8
WAKU
  6
CONTINUOUS
 10
371.68777
 20
284.576545
 30
0.0
 11
372.194232
 21
284.918099
 31
0.0
  0
LINE
  5
DBA3
  8
WAKU
  6
CONTINUOUS
 10
372.194232
 20
284.918099
 30
0.0
 11
372.686363
 21
285.326171
 31
0.0
  0
LINE
  5
DBA4
  8
WAKU
  6
CONTINUOUS
 10
372.686363
 20
285.326171
 30
0.0
 11
373.145266
 21
285.785089
 31
0.0
  0
LINE
  5
DBA5
  8
WAKU
  6
CONTINUOUS
 10
373.145266
 20
285.785089
 30
0.0
 11
373.553316
 21
286.277229
 31
0.0
  0
LINE
  5
DBA6
  8
WAKU
  6
CONTINUOUS
 10
373.553316
 20
286.277229
 30
0.0
 11
373.894843
 21
286.783693
 31
0.0
  0
LINE
  5
DBA7
  8
WAKU
  6
CONTINUOUS
 10
373.894843
 20
286.783693
 30
0.0
 11
374.156732
 21
287.28503
 31
0.0
  0
LINE
  5
DBA8
  8
WAKU
  6
CONTINUOUS
 10
374.156732
 20
287.28503
 30
0.0
 11
374.328925
 21
287.761987
 31
0.0
  0
LINE
  5
DBA9
  8
WAKU
  6
CONTINUOUS
 10
374.328925
 20
287.761987
 30
0.0
 11
374.40481
 21
288.196249
 31
0.0
  0
LINE
  5
DBAA
  8
WAKU
  6
CONTINUOUS
 10
374.363484
 20
288.64263
 30
0.0
 11
374.225306
 21
288.920895
 31
0.0
  0
LINE
  5
DBAB
  8
WAKU
  6
CONTINUOUS
 10
374.225306
 20
288.920895
 30
0.0
 11
373.998821
 21
289.115757
 31
0.0
  0
LINE
  5
DBAC
  8
WAKU
  6
CONTINUOUS
 10
373.998821
 20
289.115757
 30
0.0
 11
373.692348
 21
289.22006
 31
0.0
  0
LINE
  5
DBAD
  8
WAKU
  6
CONTINUOUS
 10
373.692348
 20
289.22006
 30
0.0
 11
373.317143
 21
289.229972
 31
0.0
  0
LINE
  5
DBAE
  8
WAKU
  6
CONTINUOUS
 10
373.317143
 20
289.229972
 30
0.0
 11
372.886988
 21
289.145129
 31
0.0
  0
LINE
  5
DBAF
  8
WAKU
  6
CONTINUOUS
 10
372.886988
 20
289.145129
 30
0.0
 11
372.417683
 21
288.968648
 31
0.0
  0
LINE
  5
DBB0
  8
WAKU
  6
CONTINUOUS
 10
372.417683
 20
288.968648
 30
0.0
 11
371.926464
 21
288.70701
 31
0.0
  0
LINE
  5
DBB1
  8
WAKU
  6
CONTINUOUS
 10
371.926464
 20
288.70701
 30
0.0
 11
371.431374
 21
288.369826
 31
0.0
  0
LINE
  5
DBB2
  8
WAKU
  6
CONTINUOUS
 10
371.431374
 20
288.369826
 30
0.0
 11
370.950599
 21
287.96948
 31
0.0
  0
LINE
  5
DBB3
  8
WAKU
  6
CONTINUOUS
 10
370.950599
 20
287.96948
 30
0.0
 11
370.501795
 21
287.520677
 31
0.0
  0
LINE
  5
DBB4
  8
WAKU
  6
CONTINUOUS
 10
370.501795
 20
287.520677
 30
0.0
 11
370.101449
 21
287.039901
 31
0.0
  0
LINE
  5
DBB5
  8
WAKU
  6
CONTINUOUS
 10
370.101449
 20
287.039901
 30
0.0
 11
369.764265
 21
286.544812
 31
0.0
  0
LINE
  5
DBB6
  8
WAKU
  6
CONTINUOUS
 10
369.764265
 20
286.544812
 30
0.0
 11
369.502627
 21
286.053593
 31
0.0
  0
LINE
  5
DBB7
  8
WAKU
  6
CONTINUOUS
 10
369.502627
 20
286.053593
 30
0.0
 11
369.326146
 21
285.584287
 31
0.0
  0
LINE
  5
DBB8
  8
WAKU
  6
CONTINUOUS
 10
369.326146
 20
285.584287
 30
0.0
 11
369.241303
 21
285.154132
 31
0.0
  0
LINE
  5
DBB9
  8
WAKU
  6
CONTINUOUS
 10
369.241303
 20
285.154132
 30
0.0
 11
369.251215
 21
284.778928
 31
0.0
  0
LINE
  5
DBBA
  8
WAKU
  6
CONTINUOUS
 10
369.251215
 20
284.778928
 30
0.0
 11
369.355518
 21
284.472454
 31
0.0
  0
LINE
  5
DBBB
  8
WAKU
  6
CONTINUOUS
 10
369.355518
 20
284.472454
 30
0.0
 11
369.550381
 21
284.245969
 31
0.0
  0
LINE
  5
DBBC
  8
WAKU
  6
CONTINUOUS
 10
369.550381
 20
284.245969
 30
0.0
 11
369.828646
 21
284.107791
 31
0.0
  0
INSERT
  5
DBBD
  8
WAKU
  6
CONTINUOUS
  2
*U0
 10
0.0
 20
0.0
 30
0.0
  0
TEXT
  5
10375
  8
WAKU
 10
10.0
 20
285.5
 30
0.0
 40
3.0
  1
FNS-70AT
 41
0.868
 11
10.0
 21
287.0
 31
0.0
 73
     2
  0
LINE
  5
1C1C5
  8
DANMEN
  6
CONTINUOUS
 10
199.51044
 20
134.002283
 30
0.0
 11
202.270495
 21
127.5
 31
0.0
  0
LINE
  5
1C1C6
  8
DANMEN
  6
CONTINUOUS
 10
200.025813
 20
134.835584
 30
0.0
 11
202.800004
 21
128.3
 31
0.0
  0
LINE
  5
1C1C7
  8
DANMEN
  6
CONTINUOUS
 10
201.499997
 20
135.0
 30
0.0
 11
202.199994
 21
135.0
 31
0.0
  0
LINE
  5
1C1C8
  8
DANMEN
  6
CONTINUOUS
 10
201.499997
 20
150.0
 30
0.0
 11
202.199994
 21
150.0
 31
0.0
  0
LINE
  5
1C1C9
  8
DANMEN
  6
CONTINUOUS
 10
210.963118
 20
154.494468
 30
0.0
 11
201.851657
 21
153.127749
 31
0.0
  0
LINE
  5
1C1CA
  8
DANMEN
  6
CONTINUOUS
 10
210.963118
 20
130.505532
 30
0.0
 11
201.851657
 21
131.872251
 31
0.0
  0
LINE
  5
1C1CB
  8
DANMEN
  6
CONTINUOUS
 10
198.0
 20
125.1
 30
0.0
 11
203.0
 21
125.1
 31
0.0
  0
LINE
  5
1C1CC
  8
DANMEN
  6
CONTINUOUS
 10
188.5
 20
91.5
 30
0.0
 11
212.5
 21
91.5
 31
0.0
  0
LINE
  5
1C1CD
  8
DANMEN
  6
CONTINUOUS
 10
188.5
 20
161.5
 30
0.0
 11
212.5
 21
161.5
 31
0.0
  0
LINE
  5
1C1CE
  8
DANMEN
  6
CONTINUOUS
 10
200.0
 20
93.149994
 30
0.0
 11
212.5
 21
93.149994
 31
0.0
  0
LINE
  5
1C1CF
  8
DANMEN
  6
CONTINUOUS
 10
200.0
 20
159.850006
 30
0.0
 11
212.5
 21
159.850006
 31
0.0
  0
LINE
  5
1C1D0
  8
DANMEN
  6
CONTINUOUS
 10
198.0
 20
124.0
 30
0.0
 11
210.5
 21
124.0
 31
0.0
  0
LINE
  5
1C1D1
  8
DANMEN
  6
CONTINUOUS
 10
198.0
 20
140.0
 30
0.0
 11
202.917205
 21
140.0
 31
0.0
  0
LINE
  5
1C1D2
  8
DANMEN
  6
CONTINUOUS
 10
198.0
 20
141.8
 30
0.0
 11
202.850995
 21
141.8
 31
0.0
  0
LINE
  5
1C1D3
  8
DANMEN
  6
CONTINUOUS
 10
198.0
 20
154.5
 30
0.0
 11
260.5
 21
154.5
 31
0.0
  0
LINE
  5
1C1D4
  8
DANMEN
  6
CONTINUOUS
 10
198.0
 20
102.5
 30
0.0
 11
260.5
 21
102.5
 31
0.0
  0
LINE
  5
1C1D5
  8
DANMEN
  6
CONTINUOUS
 10
198.0
 20
144.0
 30
0.0
 11
214.0
 21
144.0
 31
0.0
  0
LINE
  5
1C1D6
  8
DANMEN
  6
CONTINUOUS
 10
198.0
 20
149.0
 30
0.0
 11
214.0
 21
149.0
 31
0.0
  0
LINE
  5
1C1D7
  8
DANMEN
  6
CONTINUOUS
 10
198.0
 20
135.0
 30
0.0
 11
214.0
 21
135.0
 31
0.0
  0
LINE
  5
1C1D8
  8
DANMEN
  6
CONTINUOUS
 10
108.31756
 20
122.50832
 30
0.0
 11
108.30001
 21
92.020979
 31
0.0
  0
LINE
  5
1C1D9
  8
DANMEN
  6
CONTINUOUS
 10
109.517555
 20
122.854639
 30
0.0
 11
109.004224
 21
92.529237
 31
0.0
  0
LINE
  5
1C1DA
  8
DANMEN
  6
CONTINUOUS
 10
108.017555
 20
122.497915
 30
0.0
 11
108.0
 21
92.0
 31
0.0
  0
LINE
  5
1C1DB
  8
DANMEN
  6
CONTINUOUS
 10
51.199998
 20
150.0
 30
0.0
 11
51.199998
 21
57.0
 31
0.0
  0
LINE
  5
1C1DC
  8
DANMEN
  6
CONTINUOUS
 10
70.799998
 20
150.0
 30
0.0
 11
70.799998
 21
85.5
 31
0.0
  0
LINE
  5
1C1DD
  8
DANMEN
  6
CONTINUOUS
 10
68.849998
 20
137.550003
 30
0.0
 11
68.849998
 21
106.5
 31
0.0
  0
LINE
  5
1C1DE
  8
DANMEN
  6
CONTINUOUS
 10
53.149998
 20
132.5
 30
0.0
 11
53.149998
 21
100.699997
 31
0.0
  0
LINE
  5
1C1DF
  8
DANMEN
  6
CONTINUOUS
 10
104.250009
 20
133.500005
 30
0.0
 11
104.250009
 21
116.500005
 31
0.0
  0
LINE
  5
1C1E0
  8
DANMEN
  6
CONTINUOUS
 10
105.900009
 20
138.000005
 30
0.0
 11
105.900009
 21
114.850005
 31
0.0
  0
LINE
  5
1C1E1
  8
DANMEN
  6
CONTINUOUS
 10
81.000009
 20
138.000005
 30
0.0
 11
81.000009
 21
97.000001
 31
0.0
  0
LINE
  5
1C1E2
  8
DANMEN
  6
CONTINUOUS
 10
82.650009
 20
133.500005
 30
0.0
 11
82.650009
 21
116.500005
 31
0.0
  0
LINE
  5
1C1E3
  8
DANMEN
  6
CONTINUOUS
 10
196.350006
 20
159.850006
 30
0.0
 11
196.350006
 21
93.149994
 31
0.0
  0
LINE
  5
1C1E4
  8
DANMEN
  6
CONTINUOUS
 10
198.0
 20
124.0
 30
0.0
 11
198.0
 21
92.6
 31
0.0
  0
LINE
  5
1C1E5
  8
DANMEN
  6
CONTINUOUS
 10
42.0
 20
166.5
 30
0.0
 11
42.0
 21
40.265549
 31
0.0
  0
LINE
  5
1C1E6
  8
DANMEN
  6
CONTINUOUS
 10
73.0
 20
166.5
 30
0.0
 11
73.0
 21
85.0
 31
0.0
  0
LINE
  5
1C1E7
  8
DANMEN
  6
CONTINUOUS
 10
43.649994
 20
166.5
 30
0.0
 11
43.649994
 21
38.5
 31
0.0
  0
LINE
  5
1C1E8
  8
DANMEN
  6
CONTINUOUS
 10
75.5
 20
166.5
 30
0.0
 11
75.5
 21
96.5
 31
0.0
  0
LINE
  5
1C1E9
  8
DANMEN
  6
DASHED
 10
78.5
 20
166.5
 30
0.0
 11
78.5
 21
96.5
 31
0.0
  0
LINE
  5
1C1EA
  8
DANMEN
  6
CONTINUOUS
 10
108.0
 20
166.5
 30
0.0
 11
108.0
 21
91.5
 31
0.0
  0
LINE
  5
1C1EB
  8
DANMEN
  6
CONTINUOUS
 10
112.0
 20
122.72342
 30
0.0
 11
112.0
 21
96.5
 31
0.0
  0
LINE
  5
1C1EC
  8
DANMEN
  6
CONTINUOUS
 10
110.350006
 20
122.573535
 30
0.0
 11
110.350006
 21
96.5
 31
0.0
  0
LINE
  5
1C1ED
  8
DANMEN
  6
CONTINUOUS
 10
101.069997
 20
116.500003
 30
0.0
 11
101.069997
 21
126.499999
 31
0.0
  0
LINE
  5
1C1EE
  8
DANMEN
  6
CONTINUOUS
 10
86.069997
 20
116.500003
 30
0.0
 11
86.069997
 21
126.499999
 31
0.0
  0
LINE
  5
1C1EF
  8
DANMEN
  6
CONTINUOUS
 10
101.069997
 20
126.499999
 30
0.0
 11
86.069997
 21
116.500005
 31
0.0
  0
LINE
  5
1C1F0
  8
DANMEN
  6
CONTINUOUS
 10
49.0
 20
166.5
 30
0.0
 11
49.0
 21
56.5
 31
0.0
  0
LINE
  5
1C1F1
  8
DANMEN
  6
CONTINUOUS
 10
93.5
 20
62.503636
 30
0.0
 11
68.5
 21
51.5
 31
0.0
  0
LINE
  5
1C1F2
  8
DANMEN
  6
CONTINUOUS
 10
94.563803
 20
61.174726
 30
0.0
 11
69.054612
 21
49.93964
 31
0.0
  0
LINE
  5
1C1F3
  8
DANMEN
  6
CONTINUOUS
 10
69.849998
 20
83.550003
 30
0.0
 11
71.049998
 21
83.550003
 31
0.0
  0
LINE
  5
1C1F5
  8
DANMEN
  6
CONTINUOUS
 10
68.849995
 20
73.5
 30
0.0
 11
71.049998
 21
73.5
 31
0.0
  0
LINE
  5
1C1F6
  8
DANMEN
  6
CONTINUOUS
 10
55.5
 20
36.5
 30
0.0
 11
112.0
 21
36.5
 31
0.0
  0
LINE
  5
1C1F7
  8
DANMEN
  6
CONTINUOUS
 10
65.0
 20
56.5
 30
0.0
 11
73.0
 21
56.5
 31
0.0
  0
LINE
  5
1C1F8
  8
DANMEN
  6
CONTINUOUS
 10
55.5
 20
37.149994
 30
0.0
 11
55.5
 21
28.0
 31
0.0
  0
LINE
  5
1C1F9
  8
DANMEN
  6
CONTINUOUS
 10
54.0
 20
36.5
 30
0.0
 11
54.0
 21
28.0
 31
0.0
  0
ARC
  5
1C1FA
  8
DANMEN
  6
CONTINUOUS
 10
54.5
 20
28.0
 30
0.0
 40
0.5
 50
180.000019
 51
270.000001
  0
ARC
  5
1C1FE
  8
DANMEN
  6
CONTINUOUS
 10
55.0
 20
28.0
 30
0.0
 40
0.5
 50
270.000018
 51
0.0
  0
LINE
  5
1C200
  8
DANMEN
  6
CONTINUOUS
 10
54.5
 20
27.5
 30
0.0
 11
55.0
 21
27.5
 31
0.0
  0
LINE
  5
1C201
  8
DANMEN
  6
CONTINUOUS
 10
65.0
 20
96.500008
 30
0.0
 11
65.0
 21
60.5
 31
0.0
  0
LINE
  5
1C202
  8
DANMEN
  6
CONTINUOUS
 10
57.0
 20
96.500008
 30
0.0
 11
57.0
 21
60.5
 31
0.0
  0
LINE
  5
1C203
  8
DANMEN
  6
CONTINUOUS
 10
63.0
 20
60.5
 30
0.0
 11
63.0
 21
96.500008
 31
0.0
  0
LINE
  5
1C204
  8
DANMEN
  6
CONTINUOUS
 10
59.0
 20
60.5
 30
0.0
 11
59.0
 21
96.500008
 31
0.0
  0
LINE
  5
1C205
  8
DANMEN
  6
CONTINUOUS
 10
65.400002
 20
87.500004
 30
0.0
 11
65.400002
 21
69.500004
 31
0.0
  0
LINE
  5
1C206
  8
DANMEN
  6
CONTINUOUS
 10
56.599998
 20
87.500004
 30
0.0
 11
56.599998
 21
69.500004
 31
0.0
  0
LINE
  5
1C207
  8
DANMEN
  6
CONTINUOUS
 10
53.149998
 20
99.5
 30
0.0
 11
53.149998
 21
72.5
 31
0.0
  0
ARC
  5
1C208
  8
DANMEN
  6
CONTINUOUS
 10
55.00999
 20
49.5
 30
0.0
 40
2.0
 50
90.0
 51
118.610582
  0
LINE
  5
1C209
  8
DANMEN
  6
CONTINUOUS
 10
54.920742
 20
49.85
 30
0.0
 11
50.649994
 21
47.520489
 31
0.0
  0
LINE
  5
1C20A
  8
DANMEN
  6
CONTINUOUS
 10
50.649994
 20
38.149994
 30
0.0
 11
54.5
 21
38.149994
 31
0.0
  0
LINE
  5
1C20B
  8
DANMEN
  6
CONTINUOUS
 10
40.199997
 20
40.929842
 30
0.0
 11
42.823607
 21
39.618037
 31
0.0
  0
LINE
  5
1C20C
  8
DANMEN
  6
CONTINUOUS
 10
39.276393
 20
40.161806
 30
0.0
 11
42.0
 21
38.800003
 31
0.0
  0
LINE
  5
1C20D
  8
DANMEN
  6
CONTINUOUS
 10
50.649994
 20
47.520489
 30
0.0
 11
50.649994
 21
38.149994
 31
0.0
  0
LINE
  5
1C20E
  8
DANMEN
  6
CONTINUOUS
 10
49.0
 20
47.906353
 30
0.0
 11
49.0
 21
38.5
 31
0.0
  0
LINE
  5
1C20F
  8
DANMEN
  6
CONTINUOUS
 10
42.800003
 20
37.4
 30
0.0
 11
49.0
 21
37.4
 31
0.0
  0
LINE
  5
1C210
  8
DANMEN
  6
CONTINUOUS
 10
43.1
 20
38.5
 30
0.0
 11
49.0
 21
38.5
 31
0.0
  0
LINE
  5
1C211
  8
DANMEN
  6
CONTINUOUS
 10
42.570786
 20
36.5
 30
0.0
 11
49.33287
 21
36.5
 31
0.0
  0
ARC
  5
1C212
  8
DANMEN
  6
CONTINUOUS
 10
42.399994
 20
36.899994
 30
0.0
 40
0.4
 50
180.000019
 51
359.999983
  0
LINE
  5
1C217
  8
DANMEN
  6
CONTINUOUS
 10
42.0
 20
38.800003
 30
0.0
 11
42.0
 21
36.899994
 31
0.0
  0
ARC
  5
1C21B
  8
DANMEN
  6
CONTINUOUS
 10
42.6
 20
39.170823
 30
0.0
 40
0.5
 50
0.0
 51
63.434949
  0
LINE
  5
1C21C
  8
DANMEN
  6
CONTINUOUS
 10
43.1
 20
39.170823
 30
0.0
 11
43.1
 21
38.5
 31
0.0
  0
LINE
  5
1C21E
  8
DANMEN
  6
CONTINUOUS
 10
42.800003
 20
37.4
 30
0.0
 11
42.800003
 21
36.899994
 31
0.0
  0
LINE
  5
1C21F
  8
DANMEN
  6
CONTINUOUS
 10
49.5
 20
36.5
 30
0.0
 11
54.0
 21
36.5
 31
0.0
  0
LINE
  5
1C222
  8
DANMEN
  6
CONTINUOUS
 10
49.0
 20
37.4
 30
0.0
 11
49.0
 21
37.0
 31
0.0
  0
ARC
  5
1C223
  8
DANMEN
  6
CONTINUOUS
 10
49.5
 20
37.0
 30
0.0
 40
0.5
 50
180.000019
 51
270.000001
  0
ARC
  5
1C227
  8
DANMEN
  6
CONTINUOUS
 10
39.600006
 20
45.899994
 30
0.0
 40
0.6
 50
0.0
 51
180.000019
  0
LINE
  5
1C228
  8
DANMEN
  6
CONTINUOUS
 10
40.199997
 20
45.899994
 30
0.0
 11
40.199997
 21
40.929842
 31
0.0
  0
LINE
  5
1C229
  8
DANMEN
  6
CONTINUOUS
 10
39.0
 20
45.899994
 30
0.0
 11
39.0
 21
40.60902
 31
0.0
  0
ARC
  5
1C22B
  8
DANMEN
  6
CONTINUOUS
 10
39.5
 20
40.60902
 30
0.0
 40
0.5
 50
180.0
 51
243.434949
  0
LINE
  5
1C22F
  8
DANMEN
  6
CONTINUOUS
 10
54.052282
 20
51.255789
 30
0.0
 11
49.521146
 21
48.784248
 31
0.0
  0
ARC
  5
1C230
  8
DANMEN
  6
CONTINUOUS
 10
50.0
 20
47.906353
 30
0.0
 40
1.0
 50
118.610582
 51
180.0
  0
ARC
  5
1C233
  8
DANMEN
  6
CONTINUOUS
 10
54.5
 20
37.149994
 30
0.0
 40
1.0
 50
0.0
 51
89.999982
  0
LINE
  5
1C235
  8
DANMEN
  6
CONTINUOUS
 10
62.2
 20
49.8
 30
0.0
 11
63.8
 21
49.8
 31
0.0
  0
LINE
  5
1C236
  8
DANMEN
  6
CONTINUOUS
 10
54.920742
 20
49.85
 30
0.0
 11
58.7
 21
49.85
 31
0.0
  0
ARC
  5
1C239
  8
DANMEN
  6
CONTINUOUS
 10
58.7
 20
48.85
 30
0.0
 40
1.0
 50
0.0
 51
90.0
  0
ARC
  5
1C23A
  8
DANMEN
  6
CONTINUOUS
 10
61.7
 20
47.469694
 30
0.0
 40
2.0
 50
180.0
 51
231.706523
  0
ARC
  5
1C23B
  8
DANMEN
  6
CONTINUOUS
 10
61.7
 20
46.463068
 30
0.0
 40
0.2
 50
0.0
 51
65.375682
  0
ARC
  5
1C23C
  8
DANMEN
  6
CONTINUOUS
 10
62.2
 20
47.553939
 30
0.0
 40
1.0
 50
180.0
 51
245.375682
  0
LINE
  5
1C23D
  8
DANMEN
  6
CONTINUOUS
 10
61.9
 20
46.2
 30
0.0
 11
61.9
 21
46.463068
 31
0.0
  0
ARC
  5
1C23E
  8
DANMEN
  6
CONTINUOUS
 10
62.2
 20
48.8
 30
0.0
 40
1.0
 50
90.0
 51
180.0
  0
LINE
  5
1C23F
  8
DANMEN
  6
CONTINUOUS
 10
59.7
 20
47.469694
 30
0.0
 11
59.7
 21
48.85
 31
0.0
  0
LINE
  5
1C240
  8
DANMEN
  6
CONTINUOUS
 10
61.2
 20
47.553939
 30
0.0
 11
61.2
 21
48.8
 31
0.0
  0
LINE
  5
1C241
  8
DANMEN
  6
CONTINUOUS
 10
60.460621
 20
45.9
 30
0.0
 11
61.6
 21
45.9
 31
0.0
  0
ARC
  5
1C242
  8
DANMEN
  6
CONTINUOUS
 10
61.6
 20
46.2
 30
0.0
 40
0.3
 50
270.0
 51
0.0
  0
ARC
  5
1C243
  8
DANMEN
  6
CONTINUOUS
 10
69.927452
 20
45.752808
 30
0.0
 40
0.5
 50
293.49856
 51
23.49856
  0
LINE
  5
1C244
  8
DANMEN
  6
CONTINUOUS
 10
64.956524
 20
45.9
 30
0.0
 11
65.601274
 21
44.417076
 31
0.0
  0
ARC
  5
1C245
  8
DANMEN
  6
CONTINUOUS
 10
66.518344
 20
44.815802
 30
0.0
 40
1.0
 50
203.49856
 51
293.49856
  0
LINE
  5
1C24A
  8
DANMEN
  6
CONTINUOUS
 10
70.126815
 20
45.294273
 30
0.0
 11
66.91707
 21
43.898732
 31
0.0
  0
LINE
  5
1C24B
  8
DANMEN
  6
CONTINUOUS
 10
66.3
 20
46.948185
 30
0.0
 11
66.855268
 21
45.671069
 31
0.0
  0
LINE
  5
1C24C
  8
DANMEN
  6
CONTINUOUS
 10
66.3
 20
49.850006
 30
0.0
 11
68.640809
 21
49.850006
 31
0.0
  0
LINE
  5
1C250
  8
DANMEN
  6
CONTINUOUS
 10
64.1
 20
46.2
 30
0.0
 11
64.1
 21
46.463068
 31
0.0
  0
ARC
  5
1C251
  8
DANMEN
  6
CONTINUOUS
 10
63.8
 20
47.553939
 30
0.0
 40
1.0
 50
294.624318
 51
0.0
  0
ARC
  5
1C252
  8
DANMEN
  6
CONTINUOUS
 10
64.3
 20
46.463068
 30
0.0
 40
0.2
 50
114.624318
 51
180.0
  0
LINE
  5
1C253
  8
DANMEN
  6
CONTINUOUS
 10
66.3
 20
46.948185
 30
0.0
 11
66.3
 21
49.850006
 31
0.0
  0
LINE
  5
1C254
  8
DANMEN
  6
CONTINUOUS
 10
64.8
 20
47.553939
 30
0.0
 11
64.8
 21
48.8
 31
0.0
  0
ARC
  5
1C255
  8
DANMEN
  6
CONTINUOUS
 10
63.8
 20
48.8
 30
0.0
 40
1.0
 50
0.0
 51
90.0
  0
LINE
  5
1C256
  8
DANMEN
  6
CONTINUOUS
 10
64.4
 20
45.9
 30
0.0
 11
64.956524
 21
45.9
 31
0.0
  0
ARC
  5
1C257
  8
DANMEN
  6
CONTINUOUS
 10
64.4
 20
46.2
 30
0.0
 40
0.3
 50
180.0
 51
270.0
  0
ARC
  5
1C25B
  8
DANMEN
  6
CONTINUOUS
 10
69.66828
 20
46.348903
 30
0.0
 40
0.5
 50
23.49856
 51
113.49856
  0
LINE
  5
1C25C
  8
DANMEN
  6
CONTINUOUS
 10
70.126816
 20
46.548266
 30
0.0
 11
70.385987
 21
45.952171
 31
0.0
  0
LINE
  5
1C25D
  8
DANMEN
  6
CONTINUOUS
 10
69.468917
 20
46.807438
 30
0.0
 11
66.855268
 21
45.671069
 31
0.0
  0
ARC
  5
1C25F
  8
DANMEN
  6
CONTINUOUS
 10
68.640809
 20
50.850006
 30
0.0
 40
1.0
 50
270.0
 51
294.443955
  0
LINE
  5
1C260
  8
DANMEN
  6
CONTINUOUS
 10
68.849995
 20
72.500002
 30
0.0
 11
53.149998
 21
72.499998
 31
0.0
  0
LINE
  5
1C261
  8
DANMEN
  6
CONTINUOUS
 10
56.149998
 20
71.499999
 30
0.0
 11
54.149998
 21
71.499998
 31
0.0
  0
LINE
  5
1C262
  8
DANMEN
  6
CONTINUOUS
 10
52.649997
 20
56.5
 30
0.0
 11
57.0
 21
56.5
 31
0.0
  0
LINE
  5
1C263
  8
DANMEN
  6
CONTINUOUS
 10
53.149998
 20
71.499998
 30
0.0
 11
53.149998
 21
57.0
 31
0.0
  0
LINE
  5
1C264
  8
DANMEN
  6
CONTINUOUS
 10
49.0
 20
56.5
 30
0.0
 11
51.699999
 21
56.5
 31
0.0
  0
LINE
  5
1C265
  8
DANMEN
  6
CONTINUOUS
 10
52.649997
 20
56.499997
 30
0.0
 11
51.699998
 21
56.499997
 31
0.0
  0
ARC
  5
1C267
  8
DANMEN
  6
CONTINUOUS
 10
51.699998
 20
57.0
 30
0.0
 40
0.5
 50
180.000036
 51
270.000018
  0
ARC
  5
1C269
  8
DANMEN
  6
CONTINUOUS
 10
52.649998
 20
57.0
 30
0.0
 40
0.5
 50
270.000018
 51
359.999948
  0
LINE
  5
1C26E
  8
DANMEN
  6
CONTINUOUS
 10
54.149998
 20
71.499998
 30
0.0
 11
53.649998
 21
71.999998
 31
0.0
  0
LINE
  5
1C26F
  8
DANMEN
  6
CONTINUOUS
 10
53.649998
 20
71.999998
 30
0.0
 11
53.149998
 21
71.499998
 31
0.0
  0
ARC
  5
1C270
  8
DANMEN
  6
CONTINUOUS
 10
61.0
 20
60.5
 30
0.0
 40
3.0
 50
53.130102
 51
126.869903
  0
ARC
  5
1C271
  8
DANMEN
  6
CONTINUOUS
 10
62.0
 20
62.79129
 30
0.0
 40
0.5
 50
0.000279
 51
66.42195
  0
ARC
  5
1C272
  8
DANMEN
  6
CONTINUOUS
 10
60.0
 20
62.79129
 30
0.0
 40
0.5
 50
113.578068
 51
179.999745
  0
ARC
  5
1C273
  8
DANMEN
  6
CONTINUOUS
 10
61.0
 20
62.5
 30
0.0
 40
4.0
 50
0.0
 51
180.000019
  0
LINE
  5
1C274
  8
DANMEN
  6
CONTINUOUS
 10
62.5
 20
51.5
 30
0.0
 11
68.5
 21
51.5
 31
0.0
  0
LINE
  5
1C275
  8
DANMEN
  6
CONTINUOUS
 10
60.850006
 20
59.347046
 30
0.0
 11
60.850006
 21
51.5
 31
0.0
  0
LINE
  5
1C276
  8
DANMEN
  6
CONTINUOUS
 10
62.5
 20
62.79129
 30
0.0
 11
62.5
 21
51.5
 31
0.0
  0
LINE
  5
1C277
  8
DANMEN
  6
CONTINUOUS
 10
57.0
 20
62.5
 30
0.0
 11
57.0
 21
56.5
 31
0.0
  0
LINE
  5
1C278
  8
DANMEN
  6
CONTINUOUS
 10
55.00999
 20
51.5
 30
0.0
 11
60.850006
 21
51.5
 31
0.0
  0
LINE
  5
1C27C
  8
DANMEN
  6
CONTINUOUS
 10
57.0
 20
60.5
 30
0.0
 11
59.0
 21
60.5
 31
0.0
  0
ARC
  5
1C27D
  8
DANMEN
  6
CONTINUOUS
 10
59.5
 20
62.5
 30
0.0
 40
0.5
 50
126.869907
 51
180.000009
  0
ARC
  5
1C27E
  8
DANMEN
  6
CONTINUOUS
 10
60.0
 20
61.652954
 30
0.0
 40
0.5
 50
180.000309
 51
214.019733
  0
ARC
  5
1C27F
  8
DANMEN
  6
CONTINUOUS
 10
60.350006
 20
59.347046
 30
0.0
 40
0.5
 50
0.000664
 51
34.020021
  0
LINE
  5
1C280
  8
DANMEN
  6
CONTINUOUS
 10
60.764431
 20
59.626784
 30
0.0
 11
59.585579
 21
61.373223
 31
0.0
  0
LINE
  5
1C283
  8
DANMEN
  6
CONTINUOUS
 10
59.5
 20
62.79129
 30
0.0
 11
59.5
 21
61.652954
 31
0.0
  0
LINE
  5
1C284
  8
DANMEN
  6
CONTINUOUS
 10
65.0
 20
62.5
 30
0.0
 11
65.0
 21
56.5
 31
0.0
  0
LINE
  5
1C286
  8
DANMEN
  6
CONTINUOUS
 10
65.0
 20
60.5
 30
0.0
 11
63.0
 21
60.5
 31
0.0
  0
ARC
  5
1C287
  8
DANMEN
  6
CONTINUOUS
 10
62.5
 20
62.5
 30
0.0
 40
0.5
 50
359.999997
 51
53.130102
  0
LINE
  5
1C288
  8
DANMEN
  6
CONTINUOUS
 10
65.850001
 20
70.550001
 30
0.0
 11
56.149998
 21
70.549999
 31
0.0
  0
ARC
  5
1C28C
  8
DANMEN
  6
CONTINUOUS
 10
61.0
 20
60.5
 30
0.0
 40
3.0
 50
66.421841
 51
113.578178
  0
LINE
  5
1C28E
  8
DANMEN
  6
CONTINUOUS
 10
56.600001
 20
69.500004
 30
0.0
 11
56.999999
 21
69.100005
 31
0.0
  0
LINE
  5
1C28F
  8
DANMEN
  6
CONTINUOUS
 10
56.149998
 20
71.5
 30
0.0
 11
56.149998
 21
70.550003
 31
0.0
  0
LINE
  5
1C295
  8
DANMEN
  6
CONTINUOUS
 10
67.850001
 20
71.500002
 30
0.0
 11
65.850001
 21
71.500001
 31
0.0
  0
LINE
  5
1C296
  8
DANMEN
  6
CONTINUOUS
 10
65.399999
 20
69.500003
 30
0.0
 11
64.999999
 21
69.100003
 31
0.0
  0
LINE
  5
1C297
  8
DANMEN
  6
CONTINUOUS
 10
65.850001
 20
71.5
 30
0.0
 11
65.850001
 21
70.550003
 31
0.0
  0
LINE
  5
1C29C
  8
DANMEN
  6
CONTINUOUS
 10
68.849995
 20
73.5
 30
0.0
 11
68.849995
 21
72.500002
 31
0.0
  0
LINE
  5
1C2A3
  8
DANMEN
  6
CONTINUOUS
 10
68.350001
 20
72.000002
 30
0.0
 11
67.850001
 21
71.500002
 31
0.0
  0
LINE
  5
1C2A4
  8
DANMEN
  6
CONTINUOUS
 10
68.350001
 20
72.000002
 30
0.0
 11
68.850001
 21
71.500002
 31
0.0
  0
LINE
  5
1C2A5
  8
DANMEN
  6
CONTINUOUS
 10
68.849998
 20
99.5
 30
0.0
 11
68.849998
 21
84.550003
 31
0.0
  0
ARC
  5
1C2A7
  8
DANMEN
  6
CONTINUOUS
 10
69.849998
 20
84.550003
 30
0.0
 40
1.0
 50
180.000019
 51
270.000001
  0
ARC
  5
1C2A8
  8
DANMEN
  6
CONTINUOUS
 10
61.0
 20
96.500008
 30
0.0
 40
3.0
 50
233.130097
 51
306.869898
  0
LINE
  5
1C2A9
  8
DANMEN
  6
CONTINUOUS
 10
56.600001
 20
87.500004
 30
0.0
 11
56.999999
 21
87.900003
 31
0.0
  0
LINE
  5
1C2AA
  8
DANMEN
  6
CONTINUOUS
 10
57.0
 20
96.500008
 30
0.0
 11
59.0
 21
96.500008
 31
0.0
  0
ARC
  5
1C2AB
  8
DANMEN
  6
CONTINUOUS
 10
59.5
 20
94.500008
 30
0.0
 40
0.5
 50
179.999991
 51
233.130093
  0
LINE
  5
1C2AC
  8
DANMEN
  6
CONTINUOUS
 10
65.399999
 20
87.500005
 30
0.0
 11
64.999999
 21
87.900005
 31
0.0
  0
ARC
  5
1C2AD
  8
DANMEN
  6
CONTINUOUS
 10
62.5
 20
94.500008
 30
0.0
 40
0.5
 50
306.869898
 51
0.000003
  0
LINE
  5
1C2AE
  8
DANMEN
  6
CONTINUOUS
 10
65.0
 20
96.500008
 30
0.0
 11
63.0
 21
96.500008
 31
0.0
  0
LINE
  5
1C2AF
  8
DANMEN
  6
CONTINUOUS
 10
53.149998
 20
99.5
 30
0.0
 11
59.199999
 21
99.5
 31
0.0
  0
LINE
  5
1C2B0
  8
DANMEN
  6
CONTINUOUS
 10
53.149998
 20
100.699997
 30
0.0
 11
57.699998
 21
100.699997
 31
0.0
  0
LINE
  5
1C2B3
  8
DANMEN
  6
CONTINUOUS
 10
60.199998
 20
106.5
 30
0.0
 11
68.849998
 21
106.5
 31
0.0
  0
ARC
  5
1C2B4
  8
DANMEN
  6
CONTINUOUS
 10
61.699998
 20
103.8
 30
0.0
 40
1.0
 50
0.0
 51
90.0
  0
LINE
  5
1C2B5
  8
DANMEN
  6
CONTINUOUS
 10
57.699998
 20
104.0
 30
0.0
 11
57.699998
 21
100.699997
 31
0.0
  0
LINE
  5
1C2B6
  8
DANMEN
  6
CONTINUOUS
 10
59.199998
 20
102.3
 30
0.0
 11
59.199998
 21
103.8
 31
0.0
  0
LINE
  5
1C2B9
  8
DANMEN
  6
CONTINUOUS
 10
59.199999
 20
99.800003
 30
0.0
 11
59.199999
 21
99.5
 31
0.0
  0
ARC
  5
1C2BB
  8
DANMEN
  6
CONTINUOUS
 10
60.833703
 20
100.55
 30
0.0
 40
0.75
 50
270.0
 51
90.0
  0
ARC
  5
1C2BC
  8
DANMEN
  6
CONTINUOUS
 10
60.199998
 20
102.3
 30
0.0
 40
1.0
 50
180.0
 51
270.0
  0
LINE
  5
1C2BD
  8
DANMEN
  6
CONTINUOUS
 10
59.199999
 20
99.8
 30
0.0
 11
60.833703
 21
99.8
 31
0.0
  0
LINE
  5
1C2BE
  8
DANMEN
  6
CONTINUOUS
 10
60.199998
 20
101.3
 30
0.0
 11
60.833703
 21
101.3
 31
0.0
  0
ARC
  5
1C2C1
  8
DANMEN
  6
CONTINUOUS
 10
60.199998
 20
104.0
 30
0.0
 40
2.5
 50
89.999982
 51
180.000019
  0
ARC
  5
1C2C3
  8
DANMEN
  6
CONTINUOUS
 10
60.199998
 20
103.8
 30
0.0
 40
1.0
 50
90.0
 51
180.0
  0
LINE
  5
1C2C4
  8
DANMEN
  6
CONTINUOUS
 10
60.199998
 20
104.8
 30
0.0
 11
61.699998
 21
104.8
 31
0.0
  0
LINE
  5
1C2C5
  8
DANMEN
  6
CONTINUOUS
 10
68.849998
 20
104.550003
 30
0.0
 11
68.849998
 21
100.699997
 31
0.0
  0
LINE
  5
1C2C6
  8
DANMEN
  6
CONTINUOUS
 10
62.699998
 20
103.166295
 30
0.0
 11
62.699998
 21
103.8
 31
0.0
  0
ARC
  5
1C2C7
  8
DANMEN
  6
CONTINUOUS
 10
65.199998
 20
103.550003
 30
0.0
 40
1.0
 50
90.0
 51
180.0
  0
LINE
  5
1C2C8
  8
DANMEN
  6
CONTINUOUS
 10
66.299998
 20
99.5
 30
0.0
 11
68.849998
 21
99.5
 31
0.0
  0
ARC
  5
1C2C9
  8
DANMEN
  6
CONTINUOUS
 10
66.799998
 20
100.199997
 30
0.0
 40
0.5
 50
89.999982
 51
180.000019
  0
LINE
  5
1C2CA
  8
DANMEN
  6
CONTINUOUS
 10
66.299998
 20
100.199997
 30
0.0
 11
66.299998
 21
99.5
 31
0.0
  0
ARC
  5
1C2CD
  8
DANMEN
  6
CONTINUOUS
 10
63.449998
 20
103.166295
 30
0.0
 40
0.75
 50
180.0
 51
0.0
  0
LINE
  5
1C2CE
  8
DANMEN
  6
CONTINUOUS
 10
64.199998
 20
103.166295
 30
0.0
 11
64.199998
 21
103.550003
 31
0.0
  0
LINE
  5
1C2D0
  8
DANMEN
  6
CONTINUOUS
 10
66.799998
 20
100.699997
 30
0.0
 11
68.849998
 21
100.699997
 31
0.0
  0
LINE
  5
1C2D3
  8
DANMEN
  6
CONTINUOUS
 10
65.199997
 20
104.550003
 30
0.0
 11
68.849998
 21
104.550003
 31
0.0
  0
LINE
  5
1C2D7
  8
DANMEN
  6
CONTINUOUS
 10
73.6
 20
74.982873
 30
0.0
 11
74.582434
 21
71.8
 31
0.0
  0
LINE
  5
1C2D8
  8
DANMEN
  6
CONTINUOUS
 10
73.0187
 20
74.80985
 30
0.0
 11
74.146178
 21
71.315559
 31
0.0
  0
LINE
  5
1C2D9
  8
DANMEN
  6
CONTINUOUS
 10
77.2
 20
76.2
 30
0.0
 11
77.2
 21
74.5
 31
0.0
  0
LINE
  5
1C2DA
  8
DANMEN
  6
CONTINUOUS
 10
75.2
 20
78.9
 30
0.0
 11
75.2
 21
71.8
 31
0.0
  0
LINE
  5
1C2DB
  8
DANMEN
  6
CONTINUOUS
 10
110.350006
 20
76.85
 30
0.0
 11
110.350006
 21
64.58182
 31
0.0
  0
LINE
  5
1C2DC
  8
DANMEN
  6
CONTINUOUS
 10
112.0
 20
96.0
 30
0.0
 11
112.0
 21
62.0
 31
0.0
  0
LINE
  5
1C2DD
  8
DANMEN
  6
CONTINUOUS
 10
86.5
 20
74.0
 30
0.0
 11
85.5
 21
74.7
 31
0.0
  0
LINE
  5
1C2DE
  8
DANMEN
  6
CONTINUOUS
 10
93.5
 20
74.7
 30
0.0
 11
92.5
 21
74.0
 31
0.0
  0
ARC
  5
1C2DF
  8
DANMEN
  6
CONTINUOUS
 10
82.0
 20
75.7
 30
0.0
 40
1.0
 50
180.0
 51
270.0
  0
ARC
  5
1C2E0
  8
DANMEN
  6
CONTINUOUS
 10
97.7
 20
73.8
 30
0.0
 40
1.0
 50
0.0
 51
90.0
  0
ARC
  5
1C2E1
  8
DANMEN
  6
CONTINUOUS
 10
96.2
 20
73.8
 30
0.0
 40
1.0
 50
90.0
 51
180.0
  0
LINE
  5
1C2E2
  8
DANMEN
  6
CONTINUOUS
 10
100.2
 20
73.166295
 30
0.0
 11
100.2
 21
76.85
 31
0.0
  0
LINE
  5
1C2E3
  8
DANMEN
  6
CONTINUOUS
 10
79.5
 20
77.7
 30
0.0
 11
79.5
 21
72.0
 31
0.0
  0
LINE
  5
1C2E4
  8
DANMEN
  6
CONTINUOUS
 10
78.500003
 20
78.5
 30
0.0
 11
78.500003
 21
72.3
 31
0.0
  0
LINE
  5
1C2E5
  8
DANMEN
  6
CONTINUOUS
 10
93.5
 20
74.7
 30
0.0
 11
93.5
 21
62.503636
 31
0.0
  0
LINE
  5
1C2E6
  8
DANMEN
  6
CONTINUOUS
 10
72.999998
 20
85.0
 30
0.0
 11
72.999998
 21
72.0
 31
0.0
  0
LINE
  5
1C2E7
  8
DANMEN
  6
CONTINUOUS
 10
71.049998
 20
83.550003
 30
0.0
 11
71.049998
 21
73.5
 31
0.0
  0
LINE
  5
1C2E8
  8
DANMEN
  6
CONTINUOUS
 10
86.5
 20
74.0
 30
0.0
 11
92.5
 21
74.0
 31
0.0
  0
LINE
  5
1C2E9
  8
DANMEN
  6
CONTINUOUS
 10
73.0
 20
72.000007
 30
0.0
 11
73.0
 21
56.5
 31
0.0
  0
LINE
  5
1C2EA
  8
DANMEN
  6
CONTINUOUS
 10
76.5
 20
71.5
 30
0.0
 11
79.000003
 21
71.5
 31
0.0
  0
LINE
  5
1C2EB
  8
DANMEN
  6
CONTINUOUS
 10
74.582434
 20
71.8
 30
0.0
 11
75.2
 21
71.8
 31
0.0
  0
LINE
  5
1C2EC
  8
DANMEN
  6
CONTINUOUS
 10
74.327478
 20
71.2
 30
0.0
 11
76.0
 21
71.2
 31
0.0
  0
ARC
  5
1C2EF
  8
DANMEN
  6
CONTINUOUS
 10
74.327478
 20
71.4
 30
0.0
 40
0.2
 50
204.97391
 51
270.0
  0
ARC
  5
1C2F0
  8
DANMEN
  6
CONTINUOUS
 10
72.499998
 20
72.0
 30
0.0
 40
0.5
 50
270.0
 51
0.0
  0
LINE
  5
1C2F8
  8
DANMEN
  6
CONTINUOUS
 10
76.0
 20
73.7
 30
0.0
 11
77.0
 21
73.7
 31
0.0
  0
LINE
  5
1C2F9
  8
DANMEN
  6
CONTINUOUS
 10
77.0
 20
73.7
 30
0.0
 11
77.0
 21
72.7
 31
0.0
  0
LINE
  5
1C2FA
  8
DANMEN
  6
CONTINUOUS
 10
77.2
 20
74.5
 30
0.0
 11
78.0
 21
73.7
 31
0.0
  0
LINE
  5
1C2FC
  8
DANMEN
  6
CONTINUOUS
 10
78.0
 20
73.7
 30
0.0
 11
78.0
 21
72.7
 31
0.0
  0
ARC
  5
1C2FD
  8
DANMEN
  6
CONTINUOUS
 10
77.2
 20
72.7
 30
0.0
 40
0.2
 50
180.000019
 51
270.000001
  0
ARC
  5
1C2FF
  8
DANMEN
  6
CONTINUOUS
 10
77.8
 20
72.7
 30
0.0
 40
0.2
 50
270.000018
 51
0.0
  0
LINE
  5
1C301
  8
DANMEN
  6
CONTINUOUS
 10
76.0
 20
73.7
 30
0.0
 11
76.0
 21
71.2
 31
0.0
  0
LINE
  5
1C302
  8
DANMEN
  6
CONTINUOUS
 10
77.2
 20
72.5
 30
0.0
 11
77.8
 21
72.5
 31
0.0
  0
LINE
  5
1C308
  8
DANMEN
  6
CONTINUOUS
 10
76.800003
 20
72.3
 30
0.0
 11
78.5
 21
72.3
 31
0.0
  0
LINE
  5
1C309
  8
DANMEN
  6
CONTINUOUS
 10
76.5
 20
73.699997
 30
0.0
 11
76.800003
 21
73.699997
 31
0.0
  0
ARC
  5
1C30A
  8
DANMEN
  6
CONTINUOUS
 10
76.5
 20
73.199997
 30
0.0
 40
0.5
 50
89.999982
 51
180.000019
  0
ARC
  5
1C30B
  8
DANMEN
  6
CONTINUOUS
 10
76.5
 20
72.0
 30
0.0
 40
0.5
 50
180.000019
 51
270.000001
  0
LINE
  5
1C30C
  8
DANMEN
  6
CONTINUOUS
 10
76.800003
 20
73.699997
 30
0.0
 11
76.800003
 21
72.3
 31
0.0
  0
LINE
  5
1C30D
  8
DANMEN
  6
CONTINUOUS
 10
76.0
 20
73.199997
 30
0.0
 11
76.0
 21
72.0
 31
0.0
  0
ARC
  5
1C30F
  8
DANMEN
  6
CONTINUOUS
 10
79.0
 20
72.0
 30
0.0
 40
0.5
 50
270.000018
 51
0.0
  0
LINE
  5
1C311
  8
DANMEN
  6
CONTINUOUS
 10
95.15
 20
68.8
 30
0.0
 11
95.15
 21
62.085093
 31
0.0
  0
ARC
  5
1C313
  8
DANMEN
  6
CONTINUOUS
 10
94.15
 20
62.085093
 30
0.0
 40
1.0
 50
294.443955
 51
0.0
  0
ARC
  5
1C315
  8
DANMEN
  6
CONTINUOUS
 10
96.15
 20
68.8
 30
0.0
 40
1.0
 50
90.0
 51
180.0
  0
ARC
  5
1C316
  8
DANMEN
  6
CONTINUOUS
 10
96.2
 20
72.3
 30
0.0
 40
1.0
 50
180.0
 51
270.0
  0
LINE
  5
1C319
  8
DANMEN
  6
CONTINUOUS
 10
95.2
 20
72.3
 30
0.0
 11
95.2
 21
73.8
 31
0.0
  0
ARC
  5
1C31A
  8
DANMEN
  6
CONTINUOUS
 10
99.45
 20
73.166295
 30
0.0
 40
0.75
 50
180.0
 51
0.0
  0
ARC
  5
1C31C
  8
DANMEN
  6
CONTINUOUS
 10
96.833705
 20
70.55
 30
0.0
 40
0.75
 50
270.0
 51
90.0
  0
LINE
  5
1C31D
  8
DANMEN
  6
CONTINUOUS
 10
96.15
 20
69.8
 30
0.0
 11
96.833705
 21
69.8
 31
0.0
  0
LINE
  5
1C31E
  8
DANMEN
  6
CONTINUOUS
 10
96.2
 20
71.3
 30
0.0
 11
96.833705
 21
71.3
 31
0.0
  0
LINE
  5
1C31F
  8
DANMEN
  6
CONTINUOUS
 10
98.7
 20
73.166295
 30
0.0
 11
98.7
 21
73.8
 31
0.0
  0
LINE
  5
1C320
  8
DANMEN
  6
CONTINUOUS
 10
112.0
 20
61.845612
 30
0.0
 11
112.0
 21
36.5
 31
0.0
  0
ARC
  5
1C321
  8
DANMEN
  6
CONTINUOUS
 10
107.41465
 20
62.760364
 30
0.0
 40
0.5
 50
113.49856
 51
203.49856
  0
ARC
  5
1C322
  8
DANMEN
  6
CONTINUOUS
 10
111.5
 20
62.0
 30
0.0
 40
0.5
 50
270.0
 51
0.0
  0
ARC
  5
1C323
  8
DANMEN
  6
CONTINUOUS
 10
107.673822
 20
62.164268
 30
0.0
 40
0.5
 50
203.49856
 51
293.49856
  0
LINE
  5
1C325
  8
DANMEN
  6
CONTINUOUS
 10
107.215287
 20
61.964905
 30
0.0
 11
106.956115
 21
62.561001
 31
0.0
  0
ARC
  5
1C326
  8
DANMEN
  6
CONTINUOUS
 10
110.4
 20
62.259133
 30
0.0
 40
0.5
 50
0.0
 51
113.49856
  0
LINE
  5
1C327
  8
DANMEN
  6
CONTINUOUS
 10
110.200637
 20
62.717668
 30
0.0
 11
107.873185
 21
61.705733
 31
0.0
  0
LINE
  5
1C329
  8
DANMEN
  6
CONTINUOUS
 10
110.9
 20
62.259133
 30
0.0
 11
110.9
 21
61.5
 31
0.0
  0
LINE
  5
1C32A
  8
DANMEN
  6
CONTINUOUS
 10
110.9
 20
61.5
 30
0.0
 11
111.5
 21
61.5
 31
0.0
  0
LINE
  5
1C32C
  8
DANMEN
  6
CONTINUOUS
 10
110.350006
 20
64.58182
 30
0.0
 11
107.215287
 21
63.218899
 31
0.0
  0
LINE
  5
1C333
  8
DANMEN
  6
CONTINUOUS
 10
101.0
 20
91.5
 30
0.0
 11
110.35
 21
91.5
 31
0.0
  0
LINE
  5
1C334
  8
DANMEN
  6
CONTINUOUS
 10
99.0
 20
89.7
 30
0.0
 11
110.35
 21
89.7
 31
0.0
  0
LINE
  5
1C335
  8
DANMEN
  6
CONTINUOUS
 10
100.2
 20
76.85
 30
0.0
 11
110.350006
 21
76.85
 31
0.0
  0
LINE
  5
1C336
  8
DANMEN
  6
CONTINUOUS
 10
99.05
 20
78.5
 30
0.0
 11
110.35
 21
78.5
 31
0.0
  0
LINE
  5
1C337
  8
DANMEN
  6
CONTINUOUS
 10
105.900009
 20
114.850005
 30
0.0
 11
102.000009
 21
101.150007
 31
0.0
  0
LINE
  5
1C338
  8
DANMEN
  6
CONTINUOUS
 10
82.650009
 20
116.500005
 30
0.0
 11
104.250009
 21
116.500005
 31
0.0
  0
LINE
  5
1C339
  8
DANMEN
  6
CONTINUOUS
 10
104.003149
 20
114.213108
 30
0.0
 11
100.284455
 21
101.150007
 31
0.0
  0
ARC
  5
1C33A
  8
DANMEN
  6
CONTINUOUS
 10
103.522255
 20
114.350005
 30
0.0
 40
0.5
 50
344.109853
 51
90.0
  0
CIRCLE
  5
1C33B
  8
DANMEN
  6
CONTINUOUS
 10
98.825009
 20
97.500007
 30
0.0
 40
2.0
  0
CIRCLE
  5
1C33C
  8
DANMEN
  6
CONTINUOUS
 10
100.198343
 20
97.774643
 30
0.0
 40
0.1
  0
CIRCLE
  5
1C33D
  8
DANMEN
  6
CONTINUOUS
 10
99.048304
 20
97.723148
 30
0.0
 40
0.1
  0
ARC
  5
1C33E
  8
DANMEN
  6
DASHED
 10
101.0
 20
97.199997
 30
0.0
 40
0.5
 50
0.0
 51
89.999982
  0
ARC
  5
1C33F
  8
DANMEN
  6
DASHED
 10
76.5
 20
97.199997
 30
0.0
 40
0.5
 50
90.0
 51
180.0
  0
ARC
  5
1C340
  8
DANMEN
  6
CONTINUOUS
 10
84.000009
 20
97.150001
 30
0.0
 40
1.0
 50
0.0
 51
90.0
  0
LINE
  5
1C341
  8
DANMEN
  6
CONTINUOUS
 10
95.200009
 20
100.650006
 30
0.0
 11
95.200009
 21
94.850007
 31
0.0
  0
LINE
  5
1C342
  8
DANMEN
  6
CONTINUOUS
 10
100.800009
 20
97.000006
 30
0.0
 11
100.800009
 21
99.500007
 31
0.0
  0
LINE
  5
1C343
  8
DANMEN
  6
CONTINUOUS
 10
96.850009
 20
99.500007
 30
0.0
 11
96.850009
 21
96.000007
 31
0.0
  0
LINE
  5
1C344
  8
DANMEN
  6
CONTINUOUS
 10
102.000009
 20
96.500007
 30
0.0
 11
102.000009
 21
101.150007
 31
0.0
  0
LINE
  5
1C345
  8
DANMEN
  6
DASHED
 10
97.0
 20
96.5
 30
0.0
 11
85.0
 21
96.5
 31
0.0
  0
LINE
  5
1C346
  8
DANMEN
  6
DASHED
 10
101.0
 20
97.699997
 30
0.0
 11
76.5
 21
97.699997
 31
0.0
  0
LINE
  5
1C347
  8
DANMEN
  6
CONTINUOUS
 10
82.8
 20
76.5
 30
0.0
 11
98.55
 21
76.5
 31
0.0
  0
LINE
  5
1C348
  8
DANMEN
  6
CONTINUOUS
 10
82.8
 20
93.5
 30
0.0
 11
82.8
 21
76.5
 31
0.0
  0
LINE
  5
1C349
  8
DANMEN
  6
CONTINUOUS
 10
81.0
 20
96.0
 30
0.0
 11
81.0
 21
79.5
 31
0.0
  0
LINE
  5
1C34A
  8
DANMEN
  6
CONTINUOUS
 10
81.0
 20
96.5
 30
0.0
 11
73.0
 21
79.5
 31
0.0
  0
LINE
  5
1C34B
  8
DANMEN
  6
CONTINUOUS
 10
73.0
 20
96.5
 30
0.0
 11
81.0
 21
79.5
 31
0.0
  0
LINE
  5
1C34C
  8
DANMEN
  6
CONTINUOUS
 10
76.5
 20
79.5
 30
0.0
 11
81.0
 21
79.5
 31
0.0
  0
LINE
  5
1C34D
  8
DANMEN
  6
CONTINUOUS
 10
81.0
 20
79.5
 30
0.0
 11
72.999998
 21
79.5
 31
0.0
  0
LINE
  5
1C34E
  8
DANMEN
  6
CONTINUOUS
 10
74.582434
 20
78.9
 30
0.0
 11
75.2
 21
78.9
 31
0.0
  0
LINE
  5
1C34F
  8
DANMEN
  6
CONTINUOUS
 10
74.327478
 20
79.5
 30
0.0
 11
76.0
 21
79.5
 31
0.0
  0
LINE
  5
1C353
  8
DANMEN
  6
CONTINUOUS
 10
73.6
 20
75.717126
 30
0.0
 11
73.6
 21
74.982873
 31
0.0
  0
LINE
  5
1C354
  8
DANMEN
  6
CONTINUOUS
 10
74.582434
 20
78.9
 30
0.0
 11
73.6
 21
75.717126
 31
0.0
  0
ARC
  5
1C356
  8
DANMEN
  6
CONTINUOUS
 10
73.2
 20
74.894291
 30
0.0
 40
0.2
 50
180.0
 51
204.97391
  0
ARC
  5
1C358
  8
DANMEN
  6
CONTINUOUS
 10
73.2
 20
75.805709
 30
0.0
 40
0.2
 50
155.02609
 51
180.0
  0
ARC
  5
1C35A
  8
DANMEN
  6
CONTINUOUS
 10
74.327478
 20
79.3
 30
0.0
 40
0.2
 50
90.0
 51
155.02609
  0
LINE
  5
1C35B
  8
DANMEN
  6
CONTINUOUS
 10
74.146178
 20
79.384441
 30
0.0
 11
73.0187
 21
75.89015
 31
0.0
  0
LINE
  5
1C35C
  8
DANMEN
  6
CONTINUOUS
 10
73.0
 20
75.805709
 30
0.0
 11
73.0
 21
74.894291
 31
0.0
  0
LINE
  5
1C365
  8
DANMEN
  6
CONTINUOUS
 10
76.0
 20
79.5
 30
0.0
 11
76.0
 21
77.0
 31
0.0
  0
LINE
  5
1C367
  8
DANMEN
  6
CONTINUOUS
 10
76.0
 20
77.0
 30
0.0
 11
77.0
 21
77.0
 31
0.0
  0
LINE
  5
1C368
  8
DANMEN
  6
CONTINUOUS
 10
78.0
 20
77.0
 30
0.0
 11
77.2
 21
76.2
 31
0.0
  0
ARC
  5
1C36B
  8
DANMEN
  6
CONTINUOUS
 10
77.2
 20
78.0
 30
0.0
 40
0.2
 50
89.999982
 51
180.000019
  0
ARC
  5
1C36D
  8
DANMEN
  6
CONTINUOUS
 10
77.8
 20
78.0
 30
0.0
 40
0.2
 50
0.0
 51
89.999982
  0
LINE
  5
1C36F
  8
DANMEN
  6
CONTINUOUS
 10
77.0
 20
78.0
 30
0.0
 11
77.0
 21
77.0
 31
0.0
  0
LINE
  5
1C370
  8
DANMEN
  6
CONTINUOUS
 10
77.2
 20
78.2
 30
0.0
 11
77.8
 21
78.2
 31
0.0
  0
LINE
  5
1C371
  8
DANMEN
  6
CONTINUOUS
 10
78.0
 20
78.0
 30
0.0
 11
78.0
 21
77.0
 31
0.0
  0
ARC
  5
1C378
  8
DANMEN
  6
CONTINUOUS
 10
76.5
 20
79.0
 30
0.0
 40
0.5
 50
89.999982
 51
180.000019
  0
LINE
  5
1C379
  8
DANMEN
  6
CONTINUOUS
 10
76.800003
 20
78.5
 30
0.0
 11
78.5
 21
78.5
 31
0.0
  0
ARC
  5
1C37A
  8
DANMEN
  6
CONTINUOUS
 10
76.5
 20
77.800003
 30
0.0
 40
0.5
 50
180.000019
 51
270.000001
  0
LINE
  5
1C37B
  8
DANMEN
  6
CONTINUOUS
 10
76.800003
 20
78.5
 30
0.0
 11
76.800003
 21
77.300003
 31
0.0
  0
LINE
  5
1C37C
  8
DANMEN
  6
CONTINUOUS
 10
76.5
 20
77.300003
 30
0.0
 11
76.800003
 21
77.300003
 31
0.0
  0
LINE
  5
1C37D
  8
DANMEN
  6
CONTINUOUS
 10
76.0
 20
79.0
 30
0.0
 11
76.0
 21
77.800003
 31
0.0
  0
LINE
  5
1C37E
  8
DANMEN
  6
CONTINUOUS
 10
70.799998
 20
85.5
 30
0.0
 11
72.499998
 21
85.5
 31
0.0
  0
ARC
  5
1C382
  8
DANMEN
  6
CONTINUOUS
 10
72.499998
 20
85.0
 30
0.0
 40
0.5
 50
0.0
 51
89.999982
  0
LINE
  5
1C384
  8
DANMEN
  6
CONTINUOUS
 10
82.0
 20
74.7
 30
0.0
 11
85.5
 21
74.7
 31
0.0
  0
LINE
  5
1C388
  8
DANMEN
  6
CONTINUOUS
 10
79.5
 20
77.7
 30
0.0
 11
81.0
 21
77.7
 31
0.0
  0
LINE
  5
1C38B
  8
DANMEN
  6
CONTINUOUS
 10
81.0
 20
75.7
 30
0.0
 11
81.0
 21
77.7
 31
0.0
  0
LINE
  5
1C38F
  8
DANMEN
  6
DASHED
 10
83.5
 20
96.5
 30
0.0
 11
77.714146
 21
96.5
 31
0.0
  0
LINE
  5
1C390
  8
DANMEN
  6
CONTINUOUS
 10
73.0
 20
96.5
 30
0.0
 11
81.0
 21
96.5
 31
0.0
  0
ARC
  5
1C391
  8
DANMEN
  6
DASHED
 10
77.714146
 20
95.5
 30
0.0
 40
1.0
 50
89.999982
 51
135.573244
  0
LINE
  5
1C392
  8
DANMEN
  6
DASHED
 10
77.0
 20
96.199997
 30
0.0
 11
76.5
 21
96.199997
 31
0.0
  0
LINE
  5
1C393
  8
DANMEN
  6
DASHED
 10
76.0
 20
97.199997
 30
0.0
 11
76.0
 21
96.699997
 31
0.0
  0
ARC
  5
1C394
  8
DANMEN
  6
DASHED
 10
76.5
 20
96.699997
 30
0.0
 40
0.5
 50
180.0
 51
270.0
  0
LINE
  5
1C399
  8
DANMEN
  6
DASHED
 10
83.023824
 20
92.882864
 30
0.0
 11
84.423825
 21
89.582833
 31
0.0
  0
LINE
  5
1C39A
  8
DANMEN
  6
DASHED
 10
84.5
 20
91.899997
 30
0.0
 11
84.5
 21
96.0
 31
0.0
  0
LINE
  5
1C39B
  8
DANMEN
  6
CONTINUOUS
 10
83.500009
 20
87.499998
 30
0.0
 11
83.500009
 21
96.500001
 31
0.0
  0
LINE
  5
1C39C
  8
DANMEN
  6
CONTINUOUS
 10
85.000009
 20
97.149996
 30
0.0
 11
85.000009
 21
86.999998
 31
0.0
  0
LINE
  5
1C39D
  8
DANMEN
  6
DASHED
 10
84.5
 20
91.899997
 30
0.0
 11
84.992312
 21
89.76748
 31
0.0
  0
ARC
  5
1C39E
  8
DANMEN
  6
DASHED
 10
84.7
 20
89.699997
 30
0.0
 40
0.3
 50
202.988532
 51
12.999521
  0
ARC
  5
1C3A2
  8
DANMEN
  6
CONTINUOUS
 10
84.000009
 20
87.499998
 30
0.0
 40
0.5
 50
180.0
 51
270.0
  0
LINE
  5
1C3A3
  8
DANMEN
  6
CONTINUOUS
 10
85.000009
 20
86.999998
 30
0.0
 11
84.00001
 21
86.999998
 31
0.0
  0
ARC
  5
1C3A4
  8
DANMEN
  6
DASHED
 10
83.299999
 20
93.000028
 30
0.0
 40
0.3
 50
124.343976
 51
202.988532
  0
LINE
  5
1C3A5
  8
DANMEN
  6
CONTINUOUS
 10
82.8
 20
93.5
 30
0.0
 11
83.5
 21
93.5
 31
0.0
  0
ARC
  5
1C3A6
  8
DANMEN
  6
CONTINUOUS
 10
83.0
 20
96.0
 30
0.0
 40
0.5
 50
0.0
 51
90.0
  0
LINE
  5
1C3A7
  8
DANMEN
  6
CONTINUOUS
 10
81.500009
 20
96.500001
 30
0.0
 11
83.500009
 21
96.500001
 31
0.0
  0
ARC
  5
1C3AB
  8
DANMEN
  6
CONTINUOUS
 10
81.5
 20
96.0
 30
0.0
 40
0.5
 50
90.0
 51
180.0
  0
LINE
  5
1C3AC
  8
DANMEN
  6
CONTINUOUS
 10
81.5
 20
96.5
 30
0.0
 11
83.0
 21
96.5
 31
0.0
  0
ARC
  5
1C3AD
  8
DANMEN
  6
CONTINUOUS
 10
81.500009
 20
97.000001
 30
0.0
 40
0.5
 50
180.0
 51
270.0
  0
ARC
  5
1C3B0
  8
DANMEN
  6
DASHED
 10
85.0
 20
96.0
 30
0.0
 40
0.5
 50
90.0
 51
180.0
  0
LINE
  5
1C3B1
  8
DANMEN
  6
DASHED
 10
83.5
 20
96.5
 30
0.0
 11
83.5
 21
93.500035
 31
0.0
  0
LINE
  5
1C3B2
  8
DANMEN
  6
DASHED
 10
83.5
 20
93.500035
 30
0.0
 11
83.130743
 21
93.247729
 31
0.0
  0
LINE
  5
1C3B8
  8
DANMEN
  6
CONTINUOUS
 10
83.5
 20
96.0
 30
0.0
 11
83.5
 21
93.5
 31
0.0
  0
ARC
  5
1C3B9
  8
DANMEN
  6
DASHED
 10
97.3
 20
86.199997
 30
0.0
 40
0.3
 50
167.000479
 51
337.011468
  0
LINE
  5
1C3BA
  8
DANMEN
  6
DASHED
 10
98.976176
 20
89.382864
 30
0.0
 11
97.576175
 21
86.082833
 31
0.0
  0
ARC
  5
1C3BF
  8
DANMEN
  6
CONTINUOUS
 10
99.05
 20
78.0
 30
0.0
 40
0.5
 50
90.0
 51
180.0
  0
LINE
  5
1C3C0
  8
DANMEN
  6
CONTINUOUS
 10
98.55
 20
76.5
 30
0.0
 11
98.55
 21
78.0
 31
0.0
  0
LINE
  5
1C3C1
  8
DANMEN
  6
CONTINUOUS
 10
96.2
 20
74.8
 30
0.0
 11
97.7
 21
74.8
 31
0.0
  0
ARC
  5
1C3C4
  8
DANMEN
  6
CONTINUOUS
 10
95.700009
 20
94.850007
 30
0.0
 40
0.5
 50
180.0
 51
270.0
  0
LINE
  5
1C3C6
  8
DANMEN
  6
DASHED
 10
98.5
 20
96.5
 30
0.0
 11
98.5
 21
90.000035
 31
0.0
  0
LINE
  5
1C3C7
  8
DANMEN
  6
DASHED
 10
97.5
 20
88.399997
 30
0.0
 11
97.5
 21
96.0
 31
0.0
  0
LINE
  5
1C3C8
  8
DANMEN
  6
CONTINUOUS
 10
99.35
 20
90.7
 30
0.0
 11
99.35
 21
93.5
 31
0.0
  0
LINE
  5
1C3C9
  8
DANMEN
  6
CONTINUOUS
 10
101.0
 20
95.5
 30
0.0
 11
101.0
 21
91.5
 31
0.0
  0
LINE
  5
1C3CA
  8
DANMEN
  6
CONTINUOUS
 10
98.300009
 20
95.000007
 30
0.0
 11
98.300009
 21
87.500001
 31
0.0
  0
LINE
  5
1C3CB
  8
DANMEN
  6
CONTINUOUS
 10
96.800009
 20
94.350007
 30
0.0
 11
96.800009
 21
87.000001
 31
0.0
  0
ARC
  5
1C3CD
  8
DANMEN
  6
DASHED
 10
98.700001
 20
89.500028
 30
0.0
 40
0.3
 50
337.011468
 51
55.656024
  0
LINE
  5
1C3CE
  8
DANMEN
  6
DASHED
 10
98.5
 20
90.000035
 30
0.0
 11
98.869257
 21
89.747729
 31
0.0
  0
LINE
  5
1C3CF
  8
DANMEN
  6
DASHED
 10
97.5
 20
88.399997
 30
0.0
 11
97.007688
 21
86.26748
 31
0.0
  0
ARC
  5
1C3D6
  8
DANMEN
  6
CONTINUOUS
 10
99.0
 20
90.2
 30
0.0
 40
0.5
 50
90.0
 51
270.0
  0
LINE
  5
1C3D7
  8
DANMEN
  6
CONTINUOUS
 10
99.0
 20
90.7
 30
0.0
 11
99.35
 21
90.7
 31
0.0
  0
ARC
  5
1C3D8
  8
DANMEN
  6
CONTINUOUS
 10
97.800009
 20
87.500001
 30
0.0
 40
0.5
 50
270.0
 51
0.0
  0
LINE
  5
1C3D9
  8
DANMEN
  6
CONTINUOUS
 10
97.800009
 20
87.000001
 30
0.0
 11
96.800009
 21
87.000001
 31
0.0
  0
LINE
  5
1C3DB
  8
DANMEN
  6
DASHED
 10
98.5
 20
96.5
 30
0.0
 11
101.5
 21
96.5
 31
0.0
  0
LINE
  5
1C3DC
  8
DANMEN
  6
CONTINUOUS
 10
99.0
 20
96.5
 30
0.0
 11
102.0
 21
96.5
 31
0.0
  0
CIRCLE
  5
1C3DE
  8
DANMEN
  6
CONTINUOUS
 10
97.288917
 20
97.637325
 30
0.0
 40
0.1
  0
CIRCLE
  5
1C3DF
  8
DANMEN
  6
CONTINUOUS
 10
98.052749
 20
97.130964
 30
0.0
 40
0.1
  0
CIRCLE
  5
1C3E0
  8
DANMEN
  6
CONTINUOUS
 10
99.35727
 20
97.105217
 30
0.0
 40
0.1
  0
CIRCLE
  5
1C3E1
  8
DANMEN
  6
CONTINUOUS
 10
98.722174
 20
96.444374
 30
0.0
 40
0.1
  0
CIRCLE
  5
1C3E2
  8
DANMEN
  6
CONTINUOUS
 10
97.503477
 20
96.444374
 30
0.0
 40
0.1
  0
CIRCLE
  5
1C3E3
  8
DANMEN
  6
CONTINUOUS
 10
98.353132
 20
95.88652
 30
0.0
 40
0.1
  0
ARC
  5
1C3E4
  8
DANMEN
  6
DASHED
 10
97.0
 20
96.0
 30
0.0
 40
0.5
 50
0.0
 51
90.0
  0
ARC
  5
1C3EA
  8
DANMEN
  6
CONTINUOUS
 10
99.0
 20
96.0
 30
0.0
 40
0.5
 50
89.999981
 51
180.000037
  0
LINE
  5
1C3EB
  8
DANMEN
  6
CONTINUOUS
 10
98.5
 20
96.0
 30
0.0
 11
98.5
 21
93.5
 31
0.0
  0
LINE
  5
1C3EC
  8
DANMEN
  6
CONTINUOUS
 10
99.35
 20
93.5
 30
0.0
 11
98.5
 21
93.5
 31
0.0
  0
LINE
  5
1C3ED
  8
DANMEN
  6
CONTINUOUS
 10
96.850009
 20
96.000007
 30
0.0
 11
97.300009
 21
96.000007
 31
0.0
  0
LINE
  5
1C3EE
  8
DANMEN
  6
CONTINUOUS
 10
95.700009
 20
94.350007
 30
0.0
 11
96.800009
 21
94.350007
 31
0.0
  0
ARC
  5
1C3EF
  8
DANMEN
  6
CONTINUOUS
 10
97.300009
 20
95.000007
 30
0.0
 40
1.0
 50
0.0
 51
90.0
  0
CIRCLE
  5
1C3F1
  8
DANMEN
  6
CONTINUOUS
 10
100.267002
 20
96.676099
 30
0.0
 40
0.1
  0
CIRCLE
  5
1C3F2
  8
DANMEN
  6
CONTINUOUS
 10
99.606159
 20
96.03242
 30
0.0
 40
0.1
  0
LINE
  5
1C3F3
  8
DANMEN
  6
DASHED
 10
101.5
 20
96.5
 30
0.0
 11
101.5
 21
97.199997
 31
0.0
  0
ARC
  5
1C3F7
  8
DANMEN
  6
CONTINUOUS
 10
101.5
 20
96.0
 30
0.0
 40
0.5
 50
270.0
 51
0.0
  0
LINE
  5
1C3F9
  8
DANMEN
  6
CONTINUOUS
 10
101.0
 20
95.5
 30
0.0
 11
101.5
 21
95.5
 31
0.0
  0
LINE
  5
1C3FB
  8
DANMEN
  6
CONTINUOUS
 10
102.0
 20
96.5
 30
0.0
 11
102.0
 21
96.0
 31
0.0
  0
LINE
  5
1C3FC
  8
DANMEN
  6
CONTINUOUS
 10
102.000009
 20
96.500007
 30
0.0
 11
101.300009
 21
96.500006
 31
0.0
  0
ARC
  5
1C3FD
  8
DANMEN
  6
CONTINUOUS
 10
101.300009
 20
97.000006
 30
0.0
 40
0.5
 50
180.0
 51
270.0
  0
ARC
  5
1C3FE
  8
DANMEN
  6
CONTINUOUS
 10
86.700003
 20
113.850005
 30
0.0
 40
1.0
 50
0.0
 51
90.0
  0
LINE
  5
1C3FF
  8
DANMEN
  6
CONTINUOUS
 10
82.650009
 20
114.850005
 30
0.0
 11
82.650009
 21
98.150001
 31
0.0
  0
LINE
  5
1C400
  8
DANMEN
  6
CONTINUOUS
 10
82.650009
 20
98.150001
 30
0.0
 11
84.000009
 21
98.150001
 31
0.0
  0
LINE
  5
1C401
  8
DANMEN
  6
CONTINUOUS
 10
86.700003
 20
114.850005
 30
0.0
 11
82.650009
 21
114.850005
 31
0.0
  0
ARC
  5
1C402
  8
DANMEN
  6
CONTINUOUS
 10
95.700009
 20
100.650006
 30
0.0
 40
0.5
 50
90.0
 51
180.0
  0
LINE
  5
1C403
  8
DANMEN
  6
CONTINUOUS
 10
100.284455
 20
101.150007
 30
0.0
 11
95.700009
 21
101.150006
 31
0.0
  0
LINE
  5
1C404
  8
DANMEN
  6
CONTINUOUS
 10
96.850009
 20
99.500007
 30
0.0
 11
100.800009
 21
99.500007
 31
0.0
  0
CIRCLE
  5
1C405
  8
DANMEN
  6
CONTINUOUS
 10
98.413209
 20
98.323915
 30
0.0
 40
0.1
  0
CIRCLE
  5
1C406
  8
DANMEN
  6
CONTINUOUS
 10
97.632213
 20
98.66721
 30
0.0
 40
0.1
  0
CIRCLE
  5
1C407
  8
DANMEN
  6
CONTINUOUS
 10
98.799416
 20
99.096328
 30
0.0
 40
0.1
  0
CIRCLE
  5
1C408
  8
DANMEN
  6
CONTINUOUS
 10
99.597576
 20
98.66721
 30
0.0
 40
0.1
  0
CIRCLE
  5
1C409
  8
DANMEN
  6
CONTINUOUS
 10
99.597576
 20
98.66721
 30
0.0
 40
0.1
  0
CIRCLE
  5
1C40A
  8
DANMEN
  6
CONTINUOUS
 10
99.597576
 20
98.66721
 30
0.0
 40
0.1
  0
LINE
  5
1C40B
  8
DANMEN
  6
CONTINUOUS
 10
103.522255
 20
114.850005
 30
0.0
 11
95.300007
 21
114.850005
 31
0.0
  0
LINE
  5
1C40C
  8
DANMEN
  6
CONTINUOUS
 10
90.200006
 20
114.900001
 30
0.0
 11
91.800006
 21
114.900002
 31
0.0
  0
LINE
  5
1C40D
  8
DANMEN
  6
CONTINUOUS
 10
87.700002
 20
112.569697
 30
0.0
 11
87.700003
 21
113.850004
 31
0.0
  0
LINE
  5
1C40E
  8
DANMEN
  6
CONTINUOUS
 10
89.900002
 20
111.300002
 30
0.0
 11
89.900002
 21
111.56307
 31
0.0
  0
ARC
  5
1C40F
  8
DANMEN
  6
CONTINUOUS
 10
90.200002
 20
112.653941
 30
0.0
 40
1.0
 50
179.999974
 51
245.375656
  0
ARC
  5
1C410
  8
DANMEN
  6
CONTINUOUS
 10
89.700002
 20
111.56307
 30
0.0
 40
0.2
 50
359.999974
 51
65.375656
  0
LINE
  5
1C411
  8
DANMEN
  6
CONTINUOUS
 10
89.600002
 20
111.000002
 30
0.0
 11
88.460622
 21
111.000003
 31
0.0
  0
ARC
  5
1C412
  8
DANMEN
  6
CONTINUOUS
 10
89.600002
 20
111.300002
 30
0.0
 40
0.3
 50
269.999974
 51
359.999974
  0
LINE
  5
1C413
  8
DANMEN
  6
CONTINUOUS
 10
89.200002
 20
112.653941
 30
0.0
 11
89.200003
 21
113.900002
 31
0.0
  0
ARC
  5
1C414
  8
DANMEN
  6
CONTINUOUS
 10
89.700002
 20
112.569696
 30
0.0
 40
2.0
 50
179.999974
 51
231.706497
  0
ARC
  5
1C415
  8
DANMEN
  6
CONTINUOUS
 10
90.200003
 20
113.900002
 30
0.0
 40
1.0
 50
89.999974
 51
179.999974
  0
ARC
  5
1C416
  8
DANMEN
  6
CONTINUOUS
 10
92.300007
 20
112.569696
 30
0.0
 40
2.0
 50
308.293503
 51
0.000026
  0
LINE
  5
1C417
  8
DANMEN
  6
CONTINUOUS
 10
92.800007
 20
112.653941
 30
0.0
 11
92.800007
 21
113.900002
 31
0.0
  0
ARC
  5
1C418
  8
DANMEN
  6
CONTINUOUS
 10
92.400008
 20
111.300002
 30
0.0
 40
0.3
 50
180.000026
 51
270.000026
  0
LINE
  5
1C419
  8
DANMEN
  6
CONTINUOUS
 10
92.400008
 20
111.000002
 30
0.0
 11
93.539387
 21
111.000003
 31
0.0
  0
ARC
  5
1C41A
  8
DANMEN
  6
CONTINUOUS
 10
92.300008
 20
111.56307
 30
0.0
 40
0.2
 50
114.624344
 51
180.000026
  0
ARC
  5
1C41B
  8
DANMEN
  6
CONTINUOUS
 10
91.800007
 20
112.653941
 30
0.0
 40
1.0
 50
294.624344
 51
0.000026
  0
LINE
  5
1C41C
  8
DANMEN
  6
CONTINUOUS
 10
92.100008
 20
111.300002
 30
0.0
 11
92.100008
 21
111.56307
 31
0.0
  0
ARC
  5
1C41D
  8
DANMEN
  6
CONTINUOUS
 10
91.800007
 20
113.900002
 30
0.0
 40
1.0
 50
0.000026
 51
90.000026
  0
LINE
  5
1C41E
  8
DANMEN
  6
CONTINUOUS
 10
94.300007
 20
112.569697
 30
0.0
 11
94.300007
 21
113.850004
 31
0.0
  0
ARC
  5
1C41F
  8
DANMEN
  6
CONTINUOUS
 10
95.300007
 20
113.850005
 30
0.0
 40
1.0
 50
90.0
 51
180.0
  0
LINE
  5
1C420
  8
DANMEN
  6
CONTINUOUS
 10
110.35
 20
89.7
 30
0.0
 11
110.35
 21
78.5
 31
0.0
  0
ARC
  5
1C423
  8
DANMEN
  6
CONTINUOUS
 10
111.5
 20
96.0
 30
0.0
 40
0.5
 50
0.0
 51
90.0
  0
LINE
  5
1C424
  8
DANMEN
  6
CONTINUOUS
 10
110.35
 20
96.0
 30
0.0
 11
110.35
 21
91.5
 31
0.0
  0
ARC
  5
1C425
  8
DANMEN
  6
CONTINUOUS
 10
108.504277
 20
92.536483
 30
0.0
 40
0.5
 50
274.0
 51
359.16958
  0
ARC
  5
1C429
  8
DANMEN
  6
CONTINUOUS
 10
110.85
 20
96.0
 30
0.0
 40
0.5
 50
90.0
 51
180.0
  0
LINE
  5
1C42A
  8
DANMEN
  6
CONTINUOUS
 10
110.85
 20
96.5
 30
0.0
 11
111.5
 21
96.5
 31
0.0
  0
LINE
  5
1C42C
  8
DANMEN
  6
CONTINUOUS
 10
108.0
 20
92.0
 30
0.0
 11
108.539155
 21
92.037701
 31
0.0
  0
LINE
  5
1C434
  8
DANMEN
  6
CONTINUOUS
 10
189.649994
 20
93.149994
 30
0.0
 11
196.350006
 21
93.149994
 31
0.0
  0
ARC
  5
1C435
  8
DANMEN
  6
CONTINUOUS
 10
188.5
 20
92.0
 30
0.0
 40
0.5
 50
180.000036
 51
269.999963
  0
ARC
  5
1C437
  8
DANMEN
  6
CONTINUOUS
 10
189.149994
 20
97.0
 30
0.0
 40
0.5
 50
359.999981
 51
89.999982
  0
LINE
  5
1C438
  8
DANMEN
  6
CONTINUOUS
 10
188.5
 20
97.5
 30
0.0
 11
189.149994
 21
97.5
 31
0.0
  0
LINE
  5
1C439
  8
DANMEN
  6
CONTINUOUS
 10
188.0
 20
97.0
 30
0.0
 11
188.0
 21
92.0
 31
0.0
  0
LINE
  5
1C43A
  8
DANMEN
  6
CONTINUOUS
 10
189.649994
 20
97.0
 30
0.0
 11
189.649994
 21
93.149994
 31
0.0
  0
ARC
  5
1C43B
  8
DANMEN
  6
CONTINUOUS
 10
188.5
 20
97.0
 30
0.0
 40
0.5
 50
89.999982
 51
180.000019
  0
LINE
  5
1C442
  8
DANMEN
  6
CONTINUOUS
 10
198.0
 20
92.6
 30
0.0
 11
200.0
 21
92.6
 31
0.0
  0
LINE
  5
1C443
  8
DANMEN
  6
CONTINUOUS
 10
200.0
 20
93.149994
 30
0.0
 11
200.0
 21
92.6
 31
0.0
  0
LINE
  5
1C445
  8
DANMEN
  6
CONTINUOUS
 10
71.049998
 20
218.45
 30
0.0
 11
69.850001
 21
218.45
 31
0.0
  0
ARC
  5
1C446
  8
DANMEN
  6
CONTINUOUS
 10
70.299998
 20
186.0
 30
0.0
 40
0.5
 50
270.000018
 51
0.0
  0
LINE
  5
1C447
  8
DANMEN
  6
CONTINUOUS
 10
78.0
 20
247.450012
 30
0.0
 11
65.5
 21
247.450012
 31
0.0
  0
LINE
  5
1C448
  8
DANMEN
  6
CONTINUOUS
 10
78.65
 20
249.100012
 30
0.0
 11
63.4
 21
249.100012
 31
0.0
  0
ARC
  5
1C449
  8
DANMEN
  6
CONTINUOUS
 10
70.299998
 20
150.0
 30
0.0
 40
0.5
 50
0.0
 51
89.999982
  0
LINE
  5
1C44A
  8
DANMEN
  6
CONTINUOUS
 10
47.5
 20
255.5
 30
0.0
 11
106.5
 21
255.5
 31
0.0
  0
LINE
  5
1C44B
  8
DANMEN
  6
CONTINUOUS
 10
65.0
 20
228.5
 30
0.0
 11
73.0
 21
228.5
 31
0.0
  0
LINE
  5
1C44C
  8
DANMEN
  6
CONTINUOUS
 10
68.850001
 20
217.45
 30
0.0
 11
68.850001
 21
202.0
 31
0.0
  0
LINE
  5
1C44D
  8
DANMEN
  6
CONTINUOUS
 10
53.149998
 20
228.0
 30
0.0
 11
53.149998
 21
202.0
 31
0.0
  0
LINE
  5
1C44E
  8
DANMEN
  6
CONTINUOUS
 10
51.199998
 20
228.0
 30
0.0
 11
51.199998
 21
186.0
 31
0.0
  0
LINE
  5
1C44F
  8
DANMEN
  6
CONTINUOUS
 10
42.0
 20
221.0
 30
0.0
 11
42.0
 21
169.5
 31
0.0
  0
LINE
  5
1C450
  8
DANMEN
  6
CONTINUOUS
 10
43.649994
 20
221.0
 30
0.0
 11
43.649994
 21
169.5
 31
0.0
  0
LINE
  5
1C451
  8
DANMEN
  6
CONTINUOUS
 10
49.0
 20
228.5
 30
0.0
 11
49.0
 21
169.5
 31
0.0
  0
LINE
  5
1C452
  8
DANMEN
  6
CONTINUOUS
 10
57.0
 20
228.5
 30
0.0
 11
57.0
 21
209.5
 31
0.0
  0
LINE
  5
1C453
  8
DANMEN
  6
CONTINUOUS
 10
65.0
 20
228.5
 30
0.0
 11
65.0
 21
209.5
 31
0.0
  0
LINE
  5
1C454
  8
DANMEN
  6
CONTINUOUS
 10
68.849998
 20
147.5
 30
0.0
 11
68.849998
 21
139.5
 31
0.0
  0
LINE
  5
1C455
  8
DANMEN
  6
CONTINUOUS
 10
53.149998
 20
147.5
 30
0.0
 11
53.149998
 21
133.699997
 31
0.0
  0
LINE
  5
1C456
  8
DANMEN
  6
CONTINUOUS
 10
63.500009
 20
143.5
 30
0.0
 11
63.500009
 21
166.5
 31
0.0
  0
LINE
  5
1C457
  8
DANMEN
  6
CONTINUOUS
 10
58.500021
 20
143.499985
 30
0.0
 11
58.500021
 21
166.5
 31
0.0
  0
LINE
  5
1C458
  8
DANMEN
  6
CONTINUOUS
 10
63.000009
 20
143.5
 30
0.0
 11
63.000009
 21
166.5
 31
0.0
  0
LINE
  5
1C459
  8
DANMEN
  6
CONTINUOUS
 10
59.000021
 20
143.499985
 30
0.0
 11
59.000021
 21
166.5
 31
0.0
  0
LINE
  5
1C45A
  8
DANMEN
  6
CONTINUOUS
 10
53.149998
 20
133.699997
 30
0.0
 11
57.699998
 21
133.699997
 31
0.0
  0
LINE
  5
1C45B
  8
DANMEN
  6
CONTINUOUS
 10
53.149998
 20
132.5
 30
0.0
 11
58.649998
 21
132.5
 31
0.0
  0
ARC
  5
1C45E
  8
DANMEN
  6
CONTINUOUS
 10
58.649998
 20
133.5
 30
0.0
 40
1.0
 50
270.000018
 51
0.0
  0
LINE
  5
1C460
  8
DANMEN
  6
CONTINUOUS
 10
58.699998
 20
139.5
 30
0.0
 11
68.849998
 21
139.5
 31
0.0
  0
LINE
  5
1C461
  8
DANMEN
  6
CONTINUOUS
 10
59.649998
 20
137.550003
 30
0.0
 11
68.849998
 21
137.550003
 31
0.0
  0
LINE
  5
1C462
  8
DANMEN
  6
CONTINUOUS
 10
63.500009
 20
143.499985
 30
0.0
 11
58.500006
 21
143.499985
 31
0.0
  0
LINE
  5
1C463
  8
DANMEN
  6
CONTINUOUS
 10
57.699998
 20
138.5
 30
0.0
 11
57.699998
 21
133.699997
 31
0.0
  0
LINE
  5
1C465
  8
DANMEN
  6
CONTINUOUS
 10
59.649998
 20
137.550003
 30
0.0
 11
59.649998
 21
133.5
 31
0.0
  0
ARC
  5
1C467
  8
DANMEN
  6
CONTINUOUS
 10
58.699998
 20
138.5
 30
0.0
 40
1.0
 50
89.999982
 51
180.000019
  0
ARC
  5
1C46B
  8
DANMEN
  6
CONTINUOUS
 10
54.500015
 20
151.499908
 30
0.0
 40
1.5
 50
90.000018
 51
180.0
  0
LINE
  5
1C46C
  8
DANMEN
  6
CONTINUOUS
 10
53.000015
 20
150.499985
 30
0.0
 11
53.000015
 21
166.5
 31
0.0
  0
ARC
  5
1C46D
  8
DANMEN
  6
CONTINUOUS
 10
51.699998
 20
150.0
 30
0.0
 40
0.5
 50
89.999982
 51
180.000019
  0
ARC
  5
1C46E
  8
DANMEN
  6
CONTINUOUS
 10
53.499998
 20
150.0
 30
0.0
 40
0.5
 50
0.0
 51
89.999982
  0
LINE
  5
1C46F
  8
DANMEN
  6
CONTINUOUS
 10
53.999998
 20
150.0
 30
0.0
 11
53.999998
 21
147.5
 31
0.0
  0
LINE
  5
1C470
  8
DANMEN
  6
CONTINUOUS
 10
53.149998
 20
147.5
 30
0.0
 11
53.999998
 21
147.5
 31
0.0
  0
LINE
  5
1C473
  8
DANMEN
  6
CONTINUOUS
 10
51.699998
 20
150.5
 30
0.0
 11
53.499998
 21
150.5
 31
0.0
  0
LINE
  5
1C476
  8
DANMEN
  6
CONTINUOUS
 10
68.999985
 20
150.5
 30
0.0
 11
68.999985
 21
166.5
 31
0.0
  0
ARC
  5
1C477
  8
DANMEN
  6
CONTINUOUS
 10
57.000006
 20
154.499908
 30
0.0
 40
1.5
 50
269.999982
 51
359.999964
  0
LINE
  5
1C478
  8
DANMEN
  6
CONTINUOUS
 10
57.000006
 20
152.999908
 30
0.0
 11
54.500015
 21
152.999908
 31
0.0
  0
ARC
  5
1C47B
  8
DANMEN
  6
CONTINUOUS
 10
68.499998
 20
150.0
 30
0.0
 40
0.5
 50
89.999982
 51
180.000019
  0
LINE
  5
1C47C
  8
DANMEN
  6
CONTINUOUS
 10
67.999998
 20
150.0
 30
0.0
 11
67.999998
 21
147.5
 31
0.0
  0
LINE
  5
1C47D
  8
DANMEN
  6
CONTINUOUS
 10
67.999998
 20
147.5
 30
0.0
 11
68.849998
 21
147.5
 31
0.0
  0
LINE
  5
1C480
  8
DANMEN
  6
CONTINUOUS
 10
67.500015
 20
152.999908
 30
0.0
 11
65.000009
 21
152.999908
 31
0.0
  0
ARC
  5
1C481
  8
DANMEN
  6
CONTINUOUS
 10
65.000009
 20
154.499908
 30
0.0
 40
1.5
 50
180.0
 51
269.999982
  0
ARC
  5
1C482
  8
DANMEN
  6
CONTINUOUS
 10
67.500015
 20
151.499908
 30
0.0
 40
1.5
 50
359.999964
 51
90.000001
  0
LINE
  5
1C483
  8
DANMEN
  6
CONTINUOUS
 10
68.499998
 20
150.5
 30
0.0
 11
70.299998
 21
150.5
 31
0.0
  0
LINE
  5
1C485
  8
DANMEN
  6
CONTINUOUS
 10
68.850001
 20
200.050003
 30
0.0
 11
68.850001
 21
188.5
 31
0.0
  0
LINE
  5
1C486
  8
DANMEN
  6
CONTINUOUS
 10
53.149998
 20
200.050003
 30
0.0
 11
53.149998
 21
188.5
 31
0.0
  0
LINE
  5
1C487
  8
DANMEN
  6
CONTINUOUS
 10
58.499991
 20
192.5
 30
0.0
 11
58.499991
 21
169.5
 31
0.0
  0
LINE
  5
1C488
  8
DANMEN
  6
CONTINUOUS
 10
63.499979
 20
192.500015
 30
0.0
 11
63.499979
 21
169.5
 31
0.0
  0
LINE
  5
1C489
  8
DANMEN
  6
CONTINUOUS
 10
58.999991
 20
192.5
 30
0.0
 11
58.999991
 21
169.5
 31
0.0
  0
LINE
  5
1C48A
  8
DANMEN
  6
CONTINUOUS
 10
62.999979
 20
192.500015
 30
0.0
 11
62.999979
 21
169.5
 31
0.0
  0
ARC
  5
1C48B
  8
DANMEN
  6
CONTINUOUS
 10
54.499985
 20
184.500092
 30
0.0
 40
1.5
 50
179.999964
 51
270.000001
  0
LINE
  5
1C48C
  8
DANMEN
  6
CONTINUOUS
 10
53.0
 20
185.5
 30
0.0
 11
53.0
 21
169.5
 31
0.0
  0
ARC
  5
1C48D
  8
DANMEN
  6
CONTINUOUS
 10
53.499998
 20
186.0
 30
0.0
 40
0.5
 50
270.000018
 51
0.0
  0
ARC
  5
1C48F
  8
DANMEN
  6
CONTINUOUS
 10
51.699998
 20
186.0
 30
0.0
 40
0.5
 50
180.000019
 51
270.000001
  0
LINE
  5
1C493
  8
DANMEN
  6
CONTINUOUS
 10
53.149998
 20
188.5
 30
0.0
 11
53.999998
 21
188.5
 31
0.0
  0
LINE
  5
1C494
  8
DANMEN
  6
CONTINUOUS
 10
53.999998
 20
188.5
 30
0.0
 11
53.999998
 21
186.0
 31
0.0
  0
LINE
  5
1C495
  8
DANMEN
  6
CONTINUOUS
 10
51.699998
 20
185.5
 30
0.0
 11
53.499998
 21
185.5
 31
0.0
  0
LINE
  5
1C496
  8
DANMEN
  6
CONTINUOUS
 10
69.0
 20
185.5
 30
0.0
 11
69.0
 21
169.5
 31
0.0
  0
ARC
  5
1C497
  8
DANMEN
  6
CONTINUOUS
 10
56.999991
 20
181.500092
 30
0.0
 40
1.5
 50
0.0
 51
89.999982
  0
LINE
  5
1C498
  8
DANMEN
  6
CONTINUOUS
 10
54.499985
 20
183.000092
 30
0.0
 11
56.999991
 21
183.000092
 31
0.0
  0
LINE
  5
1C49B
  8
DANMEN
  6
CONTINUOUS
 10
64.999994
 20
183.000092
 30
0.0
 11
67.499985
 21
183.000092
 31
0.0
  0
ARC
  5
1C49C
  8
DANMEN
  6
CONTINUOUS
 10
64.999994
 20
181.500092
 30
0.0
 40
1.5
 50
89.999982
 51
179.999964
  0
ARC
  5
1C49D
  8
DANMEN
  6
CONTINUOUS
 10
67.499985
 20
184.500092
 30
0.0
 40
1.5
 50
270.000018
 51
0.0
  0
ARC
  5
1C4A0
  8
DANMEN
  6
CONTINUOUS
 10
68.499995
 20
186.0
 30
0.0
 40
0.5
 50
180.000019
 51
270.000001
  0
LINE
  5
1C4A2
  8
DANMEN
  6
CONTINUOUS
 10
68.499995
 20
185.5
 30
0.0
 11
70.299998
 21
185.5
 31
0.0
  0
LINE
  5
1C4A3
  8
DANMEN
  6
CONTINUOUS
 10
67.999995
 20
188.5
 30
0.0
 11
68.850001
 21
188.5
 31
0.0
  0
LINE
  5
1C4A4
  8
DANMEN
  6
CONTINUOUS
 10
67.999995
 20
188.5
 30
0.0
 11
67.999995
 21
186.0
 31
0.0
  0
LINE
  5
1C4A5
  8
DANMEN
  6
CONTINUOUS
 10
53.149998
 20
200.050003
 30
0.0
 11
56.699999
 21
200.050003
 31
0.0
  0
LINE
  5
1C4A6
  8
DANMEN
  6
CONTINUOUS
 10
53.149998
 20
202.0
 30
0.0
 11
68.850001
 21
202.0
 31
0.0
  0
LINE
  5
1C4A9
  8
DANMEN
  6
CONTINUOUS
 10
62.399997
 20
196.400001
 30
0.0
 11
63.539728
 21
196.400001
 31
0.0
  0
ARC
  5
1C4AA
  8
DANMEN
  6
CONTINUOUS
 10
61.799997
 20
198.05394
 30
0.0
 40
1.0
 50
294.62438
 51
0.0
  0
ARC
  5
1C4AB
  8
DANMEN
  6
CONTINUOUS
 10
61.799997
 20
199.299999
 30
0.0
 40
1.0
 50
359.999945
 51
89.999982
  0
LINE
  5
1C4AC
  8
DANMEN
  6
CONTINUOUS
 10
58.499991
 20
192.500015
 30
0.0
 11
63.499994
 21
192.500015
 31
0.0
  0
ARC
  5
1C4AD
  8
DANMEN
  6
CONTINUOUS
 10
62.399997
 20
196.700001
 30
0.0
 40
0.3
 50
180.000019
 51
270.000055
  0
ARC
  5
1C4AE
  8
DANMEN
  6
CONTINUOUS
 10
59.599999
 20
196.700001
 30
0.0
 40
0.3
 50
270.000018
 51
0.0
  0
ARC
  5
1C4AF
  8
DANMEN
  6
CONTINUOUS
 10
59.699999
 20
197.969418
 30
0.0
 40
2.0
 50
180.000019
 51
231.693677
  0
LINE
  5
1C4B0
  8
DANMEN
  6
CONTINUOUS
 10
58.460268
 20
196.400001
 30
0.0
 11
59.599999
 21
196.400001
 31
0.0
  0
ARC
  5
1C4B1
  8
DANMEN
  6
CONTINUOUS
 10
56.699999
 20
199.050003
 30
0.0
 40
1.0
 50
0.0
 51
89.999982
  0
LINE
  5
1C4B3
  8
DANMEN
  6
CONTINUOUS
 10
57.699999
 20
199.050003
 30
0.0
 11
57.699999
 21
197.969418
 31
0.0
  0
ARC
  5
1C4B4
  8
DANMEN
  6
CONTINUOUS
 10
62.299997
 20
196.963069
 30
0.0
 40
0.2
 50
114.624344
 51
180.000019
  0
ARC
  5
1C4B5
  8
DANMEN
  6
CONTINUOUS
 10
59.699999
 20
196.963069
 30
0.0
 40
0.2
 50
0.0
 51
65.375675
  0
ARC
  5
1C4B6
  8
DANMEN
  6
CONTINUOUS
 10
60.199999
 20
198.05394
 30
0.0
 40
1.0
 50
180.000019
 51
245.375639
  0
LINE
  5
1C4B7
  8
DANMEN
  6
CONTINUOUS
 10
59.899999
 20
196.963069
 30
0.0
 11
59.899999
 21
196.700001
 31
0.0
  0
ARC
  5
1C4B8
  8
DANMEN
  6
CONTINUOUS
 10
60.199999
 20
199.299999
 30
0.0
 40
1.0
 50
89.999982
 51
180.000019
  0
LINE
  5
1C4B9
  8
DANMEN
  6
CONTINUOUS
 10
60.199999
 20
200.299999
 30
0.0
 11
61.799997
 21
200.299999
 31
0.0
  0
LINE
  5
1C4BA
  8
DANMEN
  6
CONTINUOUS
 10
59.199999
 20
199.299998
 30
0.0
 11
59.199999
 21
198.05394
 31
0.0
  0
LINE
  5
1C4BB
  8
DANMEN
  6
CONTINUOUS
 10
62.099998
 20
196.700001
 30
0.0
 11
62.099998
 21
196.963069
 31
0.0
  0
ARC
  5
1C4BE
  8
DANMEN
  6
CONTINUOUS
 10
62.299997
 20
197.969418
 30
0.0
 40
2.0
 50
308.306342
 51
359.999945
  0
LINE
  5
1C4BF
  8
DANMEN
  6
CONTINUOUS
 10
65.299997
 20
200.050003
 30
0.0
 11
68.850001
 21
200.050003
 31
0.0
  0
ARC
  5
1C4C0
  8
DANMEN
  6
CONTINUOUS
 10
65.299997
 20
199.050003
 30
0.0
 40
1.0
 50
89.999982
 51
180.000019
  0
LINE
  5
1C4C2
  8
DANMEN
  6
CONTINUOUS
 10
64.299997
 20
197.969418
 30
0.0
 11
64.299997
 21
199.050003
 31
0.0
  0
LINE
  5
1C4C3
  8
DANMEN
  6
CONTINUOUS
 10
62.799997
 20
198.05394
 30
0.0
 11
62.799997
 21
199.299998
 31
0.0
  0
ARC
  5
1C4C6
  8
DANMEN
  6
CONTINUOUS
 10
61.0
 20
209.5
 30
0.0
 40
4.0
 50
180.000019
 51
359.999983
  0
LINE
  5
1C4C7
  8
DANMEN
  6
CONTINUOUS
 10
42.0
 20
255.0
 30
0.0
 11
42.0
 21
221.0
 31
0.0
  0
LINE
  5
1C4C8
  8
DANMEN
  6
CONTINUOUS
 10
43.649994
 20
243.5
 30
0.0
 11
43.649994
 21
221.0
 31
0.0
  0
LINE
  5
1C4C9
  8
DANMEN
  6
CONTINUOUS
 10
62.25
 20
243.5
 30
0.0
 11
62.25
 21
222.561553
 31
0.0
  0
LINE
  5
1C4CA
  8
DANMEN
  6
CONTINUOUS
 10
60.6
 20
243.5
 30
0.0
 11
60.6
 21
232.601833
 31
0.0
  0
LINE
  5
1C4CB
  8
DANMEN
  6
CONTINUOUS
 10
49.0
 20
228.5
 30
0.0
 11
57.0
 21
228.5
 31
0.0
  0
ARC
  5
1C4CC
  8
DANMEN
  6
CONTINUOUS
 10
42.5
 20
221.0
 30
0.0
 40
0.5
 50
180.000019
 51
270.000001
  0
LINE
  5
1C4CD
  8
DANMEN
  6
CONTINUOUS
 10
42.5
 20
220.5
 30
0.0
 11
43.149994
 21
220.5
 31
0.0
  0
ARC
  5
1C4CE
  8
DANMEN
  6
CONTINUOUS
 10
43.149994
 20
221.0
 30
0.0
 40
0.5
 50
270.000018
 51
0.0
  0
ARC
  5
1C4D0
  8
DANMEN
  6
CONTINUOUS
 10
52.649998
 20
228.0
 30
0.0
 40
0.5
 50
0.0
 51
90.0
  0
ARC
  5
1C4D1
  8
DANMEN
  6
CONTINUOUS
 10
51.699998
 20
228.0
 30
0.0
 40
0.5
 50
89.999982
 51
180.000019
  0
LINE
  5
1C4D3
  8
DANMEN
  6
CONTINUOUS
 10
51.699998
 20
228.5
 30
0.0
 11
52.649998
 21
228.5
 31
0.0
  0
LINE
  5
1C4D4
  8
DANMEN
  6
CONTINUOUS
 10
59.75
 20
230.398149
 30
0.0
 11
59.75
 21
222.561553
 31
0.0
  0
LINE
  5
1C4D5
  8
DANMEN
  6
CONTINUOUS
 10
60.640388
 20
220.5
 30
0.0
 11
61.359612
 21
220.5
 31
0.0
  0
LINE
  5
1C4D6
  8
DANMEN
  6
CONTINUOUS
 10
62.235071
 20
222.440285
 30
0.0
 11
61.844683
 21
220.878732
 31
0.0
  0
LINE
  5
1C4D7
  8
DANMEN
  6
CONTINUOUS
 10
60.155317
 20
220.878732
 30
0.0
 11
59.764929
 21
222.440285
 31
0.0
  0
ARC
  5
1C4D8
  8
DANMEN
  6
CONTINUOUS
 10
60.640388
 20
221.0
 30
0.0
 40
0.5
 50
194.036243
 51
270.0
  0
ARC
  5
1C4D9
  8
DANMEN
  6
CONTINUOUS
 10
61.359612
 20
221.0
 30
0.0
 40
0.5
 50
270.0
 51
345.963757
  0
ARC
  5
1C4DA
  8
DANMEN
  6
CONTINUOUS
 10
60.25
 20
222.561553
 30
0.0
 40
0.5
 50
180.0
 51
194.036243
  0
ARC
  5
1C4DB
  8
DANMEN
  6
CONTINUOUS
 10
61.75
 20
222.561553
 30
0.0
 40
0.5
 50
345.963757
 51
0.0
  0
ARC
  5
1C4DD
  8
DANMEN
  6
CONTINUOUS
 10
69.850001
 20
217.45
 30
0.0
 40
1.0
 50
90.0
 51
180.0
  0
LINE
  5
1C4DE
  8
DANMEN
  6
CONTINUOUS
 10
60.560165
 20
232.406263
 30
0.0
 11
59.789835
 21
230.59372
 31
0.0
  0
ARC
  5
1C4DF
  8
DANMEN
  6
CONTINUOUS
 10
60.25
 20
230.398149
 30
0.0
 40
0.5
 50
156.974508
 51
180.0
  0
ARC
  5
1C4E0
  8
DANMEN
  6
CONTINUOUS
 10
60.1
 20
232.601833
 30
0.0
 40
0.5
 50
336.974508
 51
0.0
  0
LINE
  5
1C4E1
  8
DANMEN
  6
CONTINUOUS
 10
43.649994
 20
243.5
 30
0.0
 11
60.6
 21
243.5
 31
0.0
  0
LINE
  5
1C4E2
  8
DANMEN
  6
CONTINUOUS
 10
43.649994
 20
245.149994
 30
0.0
 11
57.699997
 21
245.149994
 31
0.0
  0
LINE
  5
1C4E3
  8
DANMEN
  6
CONTINUOUS
 10
43.649994
 20
253.850006
 30
0.0
 11
43.649994
 21
245.149994
 31
0.0
  0
LINE
  5
1C4E4
  8
DANMEN
  6
CONTINUOUS
 10
42.5
 20
255.5
 30
0.0
 11
47.5
 21
255.5
 31
0.0
  0
LINE
  5
1C4E5
  8
DANMEN
  6
CONTINUOUS
 10
43.649994
 20
253.850006
 30
0.0
 11
47.5
 21
253.850006
 31
0.0
  0
ARC
  5
1C4E6
  8
DANMEN
  6
CONTINUOUS
 10
42.5
 20
255.0
 30
0.0
 40
0.5
 50
89.999982
 51
180.000019
  0
LINE
  5
1C4E7
  8
DANMEN
  6
CONTINUOUS
 10
48.0
 20
255.0
 30
0.0
 11
48.0
 21
254.350006
 31
0.0
  0
ARC
  5
1C4E8
  8
DANMEN
  6
CONTINUOUS
 10
47.5
 20
254.350006
 30
0.0
 40
0.5
 50
270.000018
 51
0.0
  0
ARC
  5
1C4E9
  8
DANMEN
  6
CONTINUOUS
 10
47.5
 20
255.0
 30
0.0
 40
0.5
 50
0.0
 51
89.999982
  0
LINE
  5
1C4EA
  8
DANMEN
  6
CONTINUOUS
 10
63.1
 20
248.800012
 30
0.0
 11
63.1
 21
248.536932
 31
0.0
  0
ARC
  5
1C4EB
  8
DANMEN
  6
CONTINUOUS
 10
60.7
 20
247.530306
 30
0.0
 40
2.0
 50
128.293477
 51
180.0
  0
LINE
  5
1C4EC
  8
DANMEN
  6
CONTINUOUS
 10
60.9
 20
248.8
 30
0.0
 11
60.9
 21
248.536932
 31
0.0
  0
LINE
  5
1C4ED
  8
DANMEN
  6
CONTINUOUS
 10
62.25
 20
243.5
 30
0.0
 11
66.5
 21
243.5
 31
0.0
  0
LINE
  5
1C4EE
  8
DANMEN
  6
CONTINUOUS
 10
62.8
 20
245.2
 30
0.0
 11
61.2
 21
245.2
 31
0.0
  0
ARC
  5
1C4EF
  8
DANMEN
  6
CONTINUOUS
 10
57.7
 20
246.149994
 30
0.0
 40
1.0
 50
270.0
 51
0.0
  0
ARC
  5
1C4F0
  8
DANMEN
  6
CONTINUOUS
 10
61.2
 20
246.2
 30
0.0
 40
1.0
 50
180.0
 51
270.0
  0
LINE
  5
1C4F1
  8
DANMEN
  6
CONTINUOUS
 10
60.2
 20
247.446061
 30
0.0
 11
60.2
 21
246.2
 31
0.0
  0
LINE
  5
1C4F2
  8
DANMEN
  6
CONTINUOUS
 10
58.7
 20
247.530306
 30
0.0
 11
58.7
 21
246.149994
 31
0.0
  0
ARC
  5
1C4F3
  8
DANMEN
  6
CONTINUOUS
 10
60.7
 20
248.536932
 30
0.0
 40
0.2
 50
294.624318
 51
0.0
  0
ARC
  5
1C4F4
  8
DANMEN
  6
CONTINUOUS
 10
61.2
 20
247.446061
 30
0.0
 40
1.0
 50
114.624318
 51
180.0
  0
LINE
  5
1C4F5
  8
DANMEN
  6
CONTINUOUS
 10
65.5
 20
244.3
 30
0.0
 11
67.0
 21
244.3
 31
0.0
  0
ARC
  5
1C4F6
  8
DANMEN
  6
CONTINUOUS
 10
66.5
 20
244.0
 30
0.0
 40
0.5
 50
270.000018
 51
0.0
  0
LINE
  5
1C4F7
  8
DANMEN
  6
CONTINUOUS
 10
65.5
 20
247.450012
 30
0.0
 11
65.5
 21
244.3
 31
0.0
  0
LINE
  5
1C4F8
  8
DANMEN
  6
CONTINUOUS
 10
63.8
 20
247.446061
 30
0.0
 11
63.8
 21
246.2
 31
0.0
  0
ARC
  5
1C4F9
  8
DANMEN
  6
CONTINUOUS
 10
62.8
 20
246.2
 30
0.0
 40
1.0
 50
270.0
 51
0.0
  0
ARC
  5
1C4FA
  8
DANMEN
  6
CONTINUOUS
 10
62.8
 20
247.446061
 30
0.0
 40
1.0
 50
0.0
 51
65.375682
  0
ARC
  5
1C4FB
  8
DANMEN
  6
CONTINUOUS
 10
63.3
 20
248.536932
 30
0.0
 40
0.2
 50
180.0
 51
245.375682
  0
LINE
  5
1C4FD
  8
DANMEN
  6
CONTINUOUS
 10
67.0
 20
244.3
 30
0.0
 11
67.0
 21
244.0
 31
0.0
  0
ARC
  5
1C4FE
  8
DANMEN
  6
CONTINUOUS
 10
60.6
 20
248.8
 30
0.0
 40
0.3
 50
0.0
 51
90.0
  0
LINE
  5
1C4FF
  8
DANMEN
  6
CONTINUOUS
 10
60.6
 20
249.1
 30
0.0
 11
59.460621
 21
249.1
 31
0.0
  0
ARC
  5
1C500
  8
DANMEN
  6
CONTINUOUS
 10
63.4
 20
248.800012
 30
0.0
 40
0.3
 50
90.0
 51
180.0
  0
LINE
  5
1C501
  8
DANMEN
  6
CONTINUOUS
 10
108.31756
 20
189.99168
 30
0.0
 11
108.30001
 21
220.479021
 31
0.0
  0
LINE
  5
1C502
  8
DANMEN
  6
CONTINUOUS
 10
109.517555
 20
189.645361
 30
0.0
 11
109.004224
 21
219.970763
 31
0.0
  0
LINE
  5
1C503
  8
DANMEN
  6
CONTINUOUS
 10
108.017555
 20
190.002085
 30
0.0
 11
108.0
 21
220.5
 31
0.0
  0
LINE
  5
1C504
  8
DANMEN
  6
CONTINUOUS
 10
105.9
 20
185.999999
 30
0.0
 11
105.9
 21
219.999999
 31
0.0
  0
LINE
  5
1C505
  8
DANMEN
  6
CONTINUOUS
 10
104.25
 20
211.649999
 30
0.0
 11
104.25
 21
218.849999
 31
0.0
  0
LINE
  5
1C506
  8
DANMEN
  6
CONTINUOUS
 10
88.700002
 20
213.930304
 30
0.0
 11
88.700002
 21
213.149999
 31
0.0
  0
LINE
  5
1C507
  8
DANMEN
  6
CONTINUOUS
 10
90.200002
 20
213.846059
 30
0.0
 11
90.200002
 21
212.599999
 31
0.0
  0
LINE
  5
1C508
  8
DANMEN
  6
CONTINUOUS
 10
95.300002
 20
213.930307
 30
0.0
 11
95.300002
 21
212.650001
 31
0.0
  0
LINE
  5
1C509
  8
DANMEN
  6
CONTINUOUS
 10
93.800002
 20
213.846061
 30
0.0
 11
93.800002
 21
212.6
 31
0.0
  0
LINE
  5
1C50A
  8
DANMEN
  6
CONTINUOUS
 10
82.65
 20
218.849999
 30
0.0
 11
82.65
 21
212.149999
 31
0.0
  0
LINE
  5
1C50B
  8
DANMEN
  6
CONTINUOUS
 10
81.0
 20
202.499999
 30
0.0
 11
81.0
 21
220.000003
 31
0.0
  0
LINE
  5
1C50C
  8
DANMEN
  6
CONTINUOUS
 10
70.799998
 20
216.5
 30
0.0
 11
70.799998
 21
186.0
 31
0.0
  0
LINE
  5
1C50D
  8
DANMEN
  6
CONTINUOUS
 10
108.0
 20
169.5
 30
0.0
 11
108.0
 21
220.5
 31
0.0
  0
LINE
  5
1C50E
  8
DANMEN
  6
CONTINUOUS
 10
112.0
 20
189.77658
 30
0.0
 11
112.0
 21
220.5
 31
0.0
  0
LINE
  5
1C50F
  8
DANMEN
  6
CONTINUOUS
 10
110.350006
 20
189.926465
 30
0.0
 11
110.350006
 21
220.5
 31
0.0
  0
LINE
  5
1C510
  8
DANMEN
  6
DASHED
 10
78.5
 20
220.5
 30
0.0
 11
78.5
 21
169.5
 31
0.0
  0
LINE
  5
1C511
  8
DANMEN
  6
CONTINUOUS
 10
75.5
 20
220.5
 30
0.0
 11
75.5
 21
169.5
 31
0.0
  0
LINE
  5
1C512
  8
DANMEN
  6
CONTINUOUS
 10
73.0
 20
228.5
 30
0.0
 11
73.0
 21
169.5
 31
0.0
  0
LINE
  5
1C513
  8
DANMEN
  6
CONTINUOUS
 10
73.0
 20
228.5
 30
0.0
 11
73.0
 21
164.5
 31
0.0
  0
LINE
  5
1C514
  8
DANMEN
  6
CONTINUOUS
 10
140.881386
 20
187.153003
 30
0.0
 11
109.517555
 21
190.002085
 31
0.0
  0
LINE
  5
1C515
  8
DANMEN
  6
CONTINUOUS
 10
111.517555
 20
181.502085
 30
0.0
 11
142.217555
 21
181.502085
 31
0.0
  0
LINE
  5
1C516
  8
DANMEN
  6
CONTINUOUS
 10
140.881386
 20
125.346997
 30
0.0
 11
109.517555
 21
122.497915
 31
0.0
  0
LINE
  5
1C517
  8
DANMEN
  6
CONTINUOUS
 10
111.517555
 20
130.997915
 30
0.0
 11
142.217555
 21
130.997915
 31
0.0
  0
ARC
  5
1C518
  8
DANMEN
  6
CONTINUOUS
 10
103.05
 20
139.650003
 30
0.0
 40
1.5
 50
0.0
 51
89.999982
  0
ARC
  5
1C519
  8
DANMEN
  6
CONTINUOUS
 10
104.000009
 20
138.000005
 30
0.0
 40
0.5
 50
90.0
 51
180.0
  0
LINE
  5
1C51A
  8
DANMEN
  6
CONTINUOUS
 10
104.250009
 20
133.500005
 30
0.0
 11
103.500009
 21
133.500005
 31
0.0
  0
LINE
  5
1C51B
  8
DANMEN
  6
CONTINUOUS
 10
88.55
 20
166.5
 30
0.0
 11
88.55
 21
126.499999
 31
0.0
  0
LINE
  5
1C51C
  8
DANMEN
  6
CONTINUOUS
 10
89.05
 20
166.5
 30
0.0
 11
89.05
 21
126.499999
 31
0.0
  0
LINE
  5
1C51D
  8
DANMEN
  6
CONTINUOUS
 10
82.55
 20
149.432962
 30
0.0
 11
82.55
 21
138.650003
 31
0.0
  0
LINE
  5
1C51E
  8
DANMEN
  6
CONTINUOUS
 10
81.0
 20
149.471764
 30
0.0
 11
81.0
 21
138.650003
 31
0.0
  0
LINE
  5
1C51F
  8
DANMEN
  6
CONTINUOUS
 10
98.55
 20
149.161345
 30
0.0
 11
98.55
 21
126.499999
 31
0.0
  0
LINE
  5
1C520
  8
DANMEN
  6
CONTINUOUS
 10
98.05
 20
149.161345
 30
0.0
 11
98.05
 21
126.499999
 31
0.0
  0
ARC
  5
1C521
  8
DANMEN
  6
CONTINUOUS
 10
87.050006
 20
142.650003
 30
0.0
 40
1.5
 50
270.000018
 51
0.0
  0
LINE
  5
1C522
  8
DANMEN
  6
CONTINUOUS
 10
86.069997
 20
126.499999
 30
0.0
 11
101.069997
 21
126.499999
 31
0.0
  0
ARC
  5
1C523
  8
DANMEN
  6
CONTINUOUS
 10
83.000009
 20
138.000005
 30
0.0
 40
0.5
 50
0.0
 51
90.0
  0
ARC
  5
1C524
  8
DANMEN
  6
CONTINUOUS
 10
81.500009
 20
138.000005
 30
0.0
 40
0.5
 50
90.0
 51
180.0
  0
LINE
  5
1C525
  8
DANMEN
  6
CONTINUOUS
 10
82.650009
 20
133.500005
 30
0.0
 11
83.500009
 21
133.500005
 31
0.0
  0
LINE
  5
1C526
  8
DANMEN
  6
CONTINUOUS
 10
83.500009
 20
138.000005
 30
0.0
 11
83.500009
 21
133.500005
 31
0.0
  0
ARC
  5
1C527
  8
DANMEN
  6
CONTINUOUS
 10
84.05
 20
139.650003
 30
0.0
 40
1.5
 50
89.999999
 51
180.000036
  0
LINE
  5
1C529
  8
DANMEN
  6
CONTINUOUS
 10
82.55
 20
138.650003
 30
0.0
 11
82.55
 21
139.650003
 31
0.0
  0
LINE
  5
1C52A
  8
DANMEN
  6
CONTINUOUS
 10
81.500009
 20
138.500005
 30
0.0
 11
83.000009
 21
138.500005
 31
0.0
  0
LINE
  5
1C52B
  8
DANMEN
  6
CONTINUOUS
 10
84.05
 20
141.150003
 30
0.0
 11
87.050006
 21
141.150003
 31
0.0
  0
LINE
  5
1C52E
  8
DANMEN
  6
CONTINUOUS
 10
103.500009
 20
138.000005
 30
0.0
 11
103.500009
 21
133.500005
 31
0.0
  0
ARC
  5
1C52F
  8
DANMEN
  6
CONTINUOUS
 10
100.05001
 20
142.650003
 30
0.0
 40
1.5
 50
180.000036
 51
270.000018
  0
LINE
  5
1C530
  8
DANMEN
  6
CONTINUOUS
 10
100.05001
 20
141.150003
 30
0.0
 11
103.05
 21
141.150003
 31
0.0
  0
LINE
  5
1C532
  8
DANMEN
  6
CONTINUOUS
 10
82.55
 20
166.5
 30
0.0
 11
82.55
 21
152.432962
 31
0.0
  0
LINE
  5
1C533
  8
DANMEN
  6
CONTINUOUS
 10
81.0
 20
166.5
 30
0.0
 11
81.0
 21
152.471764
 31
0.0
  0
LINE
  5
1C535
  8
DANMEN
  6
CONTINUOUS
 10
98.55
 20
166.5
 30
0.0
 11
98.55
 21
152.161345
 31
0.0
  0
LINE
  5
1C536
  8
DANMEN
  6
CONTINUOUS
 10
98.05
 20
166.5
 30
0.0
 11
98.05
 21
152.161345
 31
0.0
  0
LINE
  5
1C537
  8
DANMEN
  6
CONTINUOUS
 10
104.55
 20
148.999883
 30
0.0
 11
104.55
 21
138.650003
 31
0.0
  0
LINE
  5
1C538
  8
DANMEN
  6
CONTINUOUS
 10
109.517555
 20
128.997915
 30
0.0
 11
109.517555
 21
122.497915
 31
0.0
  0
LINE
  5
1C539
  8
DANMEN
  6
CONTINUOUS
 10
108.317555
 20
126.997915
 30
0.0
 11
108.317555
 21
122.487367
 31
0.0
  0
LINE
  5
1C53A
  8
DANMEN
  6
CONTINUOUS
 10
108.017555
 20
126.997915
 30
0.0
 11
108.017555
 21
122.497915
 31
0.0
  0
ARC
  5
1C53E
  8
DANMEN
  6
CONTINUOUS
 10
111.517555
 20
128.997915
 30
0.0
 40
2.0
 50
89.999982
 51
180.000019
  0
LINE
  5
1C541
  8
DANMEN
  6
CONTINUOUS
 10
108.017555
 20
126.997915
 30
0.0
 11
109.517555
 21
126.997915
 31
0.0
  0
ARC
  5
1C544
  8
DANMEN
  6
CONTINUOUS
 10
105.400009
 20
138.000005
 30
0.0
 40
0.5
 50
0.0
 51
90.0
  0
LINE
  5
1C547
  8
DANMEN
  6
CONTINUOUS
 10
104.55
 20
138.650003
 30
0.0
 11
104.55
 21
139.650003
 31
0.0
  0
LINE
  5
1C549
  8
DANMEN
  6
CONTINUOUS
 10
104.000009
 20
138.500005
 30
0.0
 11
105.400009
 21
138.500005
 31
0.0
  0
LINE
  5
1C54A
  8
DANMEN
  6
CONTINUOUS
 10
104.55
 20
166.5
 30
0.0
 11
104.55
 21
151.999883
 31
0.0
  0
ARC
  5
1C54B
  8
DANMEN
  6
CONTINUOUS
 10
103.05
 20
184.500003
 30
0.0
 40
1.5
 50
270.000002
 51
0.000038
  0
ARC
  5
1C54C
  8
DANMEN
  6
CONTINUOUS
 10
104.0
 20
185.999999
 30
0.0
 40
0.5
 50
179.999981
 51
270.000018
  0
LINE
  5
1C54D
  8
DANMEN
  6
CONTINUOUS
 10
103.5
 20
190.499999
 30
0.0
 11
104.25
 21
190.499999
 31
0.0
  0
LINE
  5
1C54E
  8
DANMEN
  6
CONTINUOUS
 10
87.700006
 20
209.999999
 30
0.0
 11
104.25
 21
209.999999
 31
0.0
  0
LINE
  5
1C54F
  8
DANMEN
  6
CONTINUOUS
 10
96.300002
 20
211.649999
 30
0.0
 11
104.25
 21
211.649999
 31
0.0
  0
LINE
  5
1C550
  8
DANMEN
  6
CONTINUOUS
 10
81.0
 20
186.000003
 30
0.0
 11
81.0
 21
202.499999
 31
0.0
  0
LINE
  5
1C551
  8
DANMEN
  6
CONTINUOUS
 10
82.95
 20
190.500002
 30
0.0
 11
82.95
 21
200.199999
 31
0.0
  0
LINE
  5
1C552
  8
DANMEN
  6
CONTINUOUS
 10
89.05
 20
196.500007
 30
0.0
 11
89.05
 21
169.5
 31
0.0
  0
LINE
  5
1C553
  8
DANMEN
  6
CONTINUOUS
 10
88.55
 20
196.500007
 30
0.0
 11
88.55
 21
169.5
 31
0.0
  0
LINE
  5
1C554
  8
DANMEN
  6
CONTINUOUS
 10
98.55
 20
196.500007
 30
0.0
 11
98.55
 21
169.5
 31
0.0
  0
LINE
  5
1C555
  8
DANMEN
  6
CONTINUOUS
 10
98.05
 20
196.500007
 30
0.0
 11
98.05
 21
169.5
 31
0.0
  0
ARC
  5
1C556
  8
DANMEN
  6
CONTINUOUS
 10
87.049991
 20
181.500002
 30
0.0
 40
1.5
 50
0.000038
 51
90.00002
  0
LINE
  5
1C557
  8
DANMEN
  6
CONTINUOUS
 10
80.95
 20
169.5
 30
0.0
 11
80.95
 21
185.499999
 31
0.0
  0
LINE
  5
1C558
  8
DANMEN
  6
CONTINUOUS
 10
82.55
 20
185.500003
 30
0.0
 11
82.55
 21
169.5
 31
0.0
  0
LINE
  5
1C559
  8
DANMEN
  6
DASHED
 10
78.5
 20
176.367176
 30
0.0
 11
78.5
 21
169.5
 31
0.0
  0
LINE
  5
1C55B
  8
DANMEN
  6
CONTINUOUS
 10
82.55
 20
185.500002
 30
0.0
 11
82.55
 21
184.500002
 31
0.0
  0
ARC
  5
1C55C
  8
DANMEN
  6
CONTINUOUS
 10
84.05
 20
184.500002
 30
0.0
 40
1.5
 50
180.000002
 51
269.999984
  0
LINE
  5
1C55E
  8
DANMEN
  6
CONTINUOUS
 10
87.049991
 20
183.000002
 30
0.0
 11
84.05
 21
183.000002
 31
0.0
  0
ARC
  5
1C55F
  8
DANMEN
  6
CONTINUOUS
 10
83.0
 20
186.000002
 30
0.0
 40
0.5
 50
270.0
 51
0.0
  0
LINE
  5
1C560
  8
DANMEN
  6
CONTINUOUS
 10
82.95
 20
190.500002
 30
0.0
 11
83.5
 21
190.500002
 31
0.0
  0
LINE
  5
1C561
  8
DANMEN
  6
CONTINUOUS
 10
82.95
 20
188.500002
 30
0.0
 11
83.5
 21
188.500002
 31
0.0
  0
ARC
  5
1C562
  8
DANMEN
  6
CONTINUOUS
 10
83.45
 20
189.000002
 30
0.0
 40
0.5
 50
90.0
 51
180.0
  0
LINE
  5
1C563
  8
DANMEN
  6
CONTINUOUS
 10
82.95
 20
188.500002
 30
0.0
 11
82.95
 21
189.000002
 31
0.0
  0
LINE
  5
1C564
  8
DANMEN
  6
CONTINUOUS
 10
81.5
 20
185.500002
 30
0.0
 11
83.0
 21
185.500002
 31
0.0
  0
ARC
  5
1C565
  8
DANMEN
  6
CONTINUOUS
 10
81.5
 20
186.000002
 30
0.0
 40
0.5
 50
179.999872
 51
269.999909
  0
LINE
  5
1C568
  8
DANMEN
  6
CONTINUOUS
 10
83.5
 20
186.000003
 30
0.0
 11
83.5
 21
188.500002
 31
0.0
  0
LINE
  5
1C569
  8
DANMEN
  6
CONTINUOUS
 10
83.45
 20
189.500002
 30
0.0
 11
83.5
 21
189.500002
 31
0.0
  0
LINE
  5
1C56A
  8
DANMEN
  6
CONTINUOUS
 10
83.5
 20
189.500002
 30
0.0
 11
83.5
 21
190.500002
 31
0.0
  0
ARC
  5
1C56C
  8
DANMEN
  6
CONTINUOUS
 10
100.049995
 20
181.500003
 30
0.0
 40
1.5
 50
90.00002
 51
180.000002
  0
LINE
  5
1C56D
  8
DANMEN
  6
CONTINUOUS
 10
103.05
 20
183.000003
 30
0.0
 11
100.049994
 21
183.000003
 31
0.0
  0
LINE
  5
1C570
  8
DANMEN
  6
CONTINUOUS
 10
103.5
 20
185.999999
 30
0.0
 11
103.5
 21
190.499999
 31
0.0
  0
ARC
  5
1C571
  8
DANMEN
  6
CONTINUOUS
 10
87.309908
 20
204.999999
 30
0.0
 40
0.5
 50
191.309932
 51
270.0
  0
LINE
  5
1C572
  8
DANMEN
  6
CONTINUOUS
 10
82.65
 20
212.149999
 30
0.0
 11
87.700002
 21
212.149999
 31
0.0
  0
LINE
  5
1C573
  8
DANMEN
  6
CONTINUOUS
 10
84.7
 20
201.199999
 30
0.0
 11
84.7
 21
205.098916
 31
0.0
  0
LINE
  5
1C574
  8
DANMEN
  6
CONTINUOUS
 10
82.5
 20
202.199999
 30
0.0
 11
82.5
 21
202.499999
 31
0.0
  0
LINE
  5
1C575
  8
DANMEN
  6
CONTINUOUS
 10
83.5
 20
202.199999
 30
0.0
 11
83.5
 21
204.199999
 31
0.0
  0
LINE
  5
1C576
  8
DANMEN
  6
CONTINUOUS
 10
82.5
 20
202.199999
 30
0.0
 11
83.5
 21
202.199999
 31
0.0
  0
ARC
  5
1C577
  8
DANMEN
  6
CONTINUOUS
 10
83.45
 20
200.199999
 30
0.0
 40
0.5
 50
90.0
 51
180.0
  0
ARC
  5
1C578
  8
DANMEN
  6
CONTINUOUS
 10
84.2
 20
201.199999
 30
0.0
 40
0.5
 50
270.0
 51
0.0
  0
LINE
  5
1C579
  8
DANMEN
  6
CONTINUOUS
 10
83.45
 20
200.699999
 30
0.0
 11
84.2
 21
200.699999
 31
0.0
  0
LINE
  5
1C57A
  8
DANMEN
  6
CONTINUOUS
 10
83.198117
 20
205.086879
 30
0.0
 11
85.401708
 21
208.063905
 31
0.0
  0
LINE
  5
1C57B
  8
DANMEN
  6
CONTINUOUS
 10
86.7
 20
207.800894
 30
0.0
 11
86.7
 21
209.000894
 31
0.0
  0
LINE
  5
1C57C
  8
DANMEN
  6
CONTINUOUS
 10
82.65
 20
204.499999
 30
0.0
 11
82.65
 21
210.499999
 31
0.0
  0
LINE
  5
1C57D
  8
DANMEN
  6
CONTINUOUS
 10
86.500006
 20
206.499999
 30
0.0
 11
86.500006
 21
210.499999
 31
0.0
  0
LINE
  5
1C57E
  8
DANMEN
  6
CONTINUOUS
 10
83.2
 20
204.499999
 30
0.0
 11
82.65
 21
204.499999
 31
0.0
  0
ARC
  5
1C57F
  8
DANMEN
  6
CONTINUOUS
 10
82.707801
 20
202.999999
 30
0.0
 40
0.5
 50
270.0
 51
330.603827
  0
LINE
  5
1C580
  8
DANMEN
  6
CONTINUOUS
 10
81.0
 20
202.499999
 30
0.0
 11
82.5
 21
202.499999
 31
0.0
  0
LINE
  5
1C583
  8
DANMEN
  6
CONTINUOUS
 10
81.0
 20
202.499999
 30
0.0
 11
82.707801
 21
202.499999
 31
0.0
  0
ARC
  5
1C586
  8
DANMEN
  6
CONTINUOUS
 10
83.4
 20
204.765685
 30
0.0
 40
0.3
 50
180.0
 51
250.528779
  0
ARC
  5
1C588
  8
DANMEN
  6
CONTINUOUS
 10
83.2
 20
204.199999
 30
0.0
 40
0.3
 50
0.0
 51
70.528779
  0
ARC
  5
1C589
  8
DANMEN
  6
CONTINUOUS
 10
83.6
 20
204.789406
 30
0.0
 40
0.5
 50
143.491208
 51
180.0
  0
LINE
  5
1C58A
  8
DANMEN
  6
CONTINUOUS
 10
84.7
 20
205.098916
 30
0.0
 11
86.7
 21
207.800894
 31
0.0
  0
LINE
  5
1C58B
  8
DANMEN
  6
CONTINUOUS
 10
83.1
 20
204.765685
 30
0.0
 11
83.1
 21
204.789406
 31
0.0
  0
LINE
  5
1C58C
  8
DANMEN
  6
CONTINUOUS
 10
86.500006
 20
206.499999
 30
0.0
 11
86.819618
 21
204.901941
 31
0.0
  0
ARC
  5
1C590
  8
DANMEN
  6
CONTINUOUS
 10
83.2
 20
204.199999
 30
0.0
 40
0.3
 50
0.0
 51
90.0
  0
LINE
  5
1C591
  8
DANMEN
  6
CONTINUOUS
 10
83.5
 20
203.496245
 30
0.0
 11
83.143425
 21
202.754577
 31
0.0
  0
LINE
  5
1C592
  8
DANMEN
  6
CONTINUOUS
 10
83.5
 20
204.199999
 30
0.0
 11
83.5
 21
203.496245
 31
0.0
  0
LINE
  5
1C595
  8
DANMEN
  6
CONTINUOUS
 10
82.65
 20
210.499999
 30
0.0
 11
86.500006
 21
210.499999
 31
0.0
  0
ARC
  5
1C599
  8
DANMEN
  6
CONTINUOUS
 10
85.099865
 20
209.257529
 30
0.0
 40
0.5
 50
180.0
 51
235.297378
  0
ARC
  5
1C59A
  8
DANMEN
  6
CONTINUOUS
 10
85.160578
 20
208.242389
 30
0.0
 40
0.3
 50
323.491208
 51
55.297378
  0
LINE
  5
1C59B
  8
DANMEN
  6
CONTINUOUS
 10
84.815206
 20
208.84647
 30
0.0
 11
85.331373
 21
208.489024
 31
0.0
  0
ARC
  5
1C59C
  8
DANMEN
  6
CONTINUOUS
 10
85.099865
 20
209.500894
 30
0.0
 40
0.5
 50
90.0
 51
180.0
  0
ARC
  5
1C59D
  8
DANMEN
  6
CONTINUOUS
 10
85.099734
 20
209.500894
 30
0.0
 40
0.5
 50
55.297378
 51
90.0
  0
LINE
  5
1C59E
  8
DANMEN
  6
CONTINUOUS
 10
84.599865
 20
209.500894
 30
0.0
 11
84.599865
 21
209.257529
 31
0.0
  0
LINE
  5
1C59F
  8
DANMEN
  6
CONTINUOUS
 10
85.099734
 20
210.000894
 30
0.0
 11
85.099865
 21
210.000894
 31
0.0
  0
LINE
  5
1C5A0
  8
DANMEN
  6
CONTINUOUS
 10
85.384393
 20
209.911953
 30
0.0
 11
86.7
 21
209.000894
 31
0.0
  0
LINE
  5
1C5A3
  8
DANMEN
  6
CONTINUOUS
 10
88.55
 20
196.500007
 30
0.0
 11
98.55
 21
196.500007
 31
0.0
  0
ARC
  5
1C5A4
  8
DANMEN
  6
CONTINUOUS
 10
96.300002
 20
212.649999
 30
0.0
 40
1.0
 50
180.0
 51
270.0
  0
LINE
  5
1C5A5
  8
DANMEN
  6
CONTINUOUS
 10
87.700006
 20
204.499999
 30
0.0
 11
87.700006
 21
209.999999
 31
0.0
  0
LINE
  5
1C5A8
  8
DANMEN
  6
CONTINUOUS
 10
87.309908
 20
204.499999
 30
0.0
 11
87.700006
 21
204.499999
 31
0.0
  0
LINE
  5
1C5A9
  8
DANMEN
  6
CONTINUOUS
 10
92.800003
 20
211.6
 30
0.0
 11
91.200003
 21
211.599999
 31
0.0
  0
ARC
  5
1C5AC
  8
DANMEN
  6
CONTINUOUS
 10
87.700002
 20
213.149999
 30
0.0
 40
1.0
 50
270.0
 51
0.0
  0
ARC
  5
1C5AD
  8
DANMEN
  6
CONTINUOUS
 10
91.200002
 20
212.599999
 30
0.0
 40
1.0
 50
180.000026
 51
270.000026
  0
ARC
  5
1C5AF
  8
DANMEN
  6
CONTINUOUS
 10
92.800002
 20
212.6
 30
0.0
 40
1.0
 50
270.000026
 51
0.000026
  0
LINE
  5
1C5B4
  8
DANMEN
  6
CONTINUOUS
 10
104.25
 20
190.499999
 30
0.0
 11
104.25
 21
209.999999
 31
0.0
  0
LINE
  5
1C5B5
  8
DANMEN
  6
CONTINUOUS
 10
104.55
 20
169.5
 30
0.0
 11
104.55
 21
185.500003
 31
0.0
  0
LINE
  5
1C5B6
  8
DANMEN
  6
CONTINUOUS
 10
104.55
 20
185.500003
 30
0.0
 11
104.55
 21
184.500003
 31
0.0
  0
LINE
  5
1C5B7
  8
DANMEN
  6
CONTINUOUS
 10
109.517555
 20
183.502085
 30
0.0
 11
109.517555
 21
190.002085
 31
0.0
  0
ARC
  5
1C5B9
  8
DANMEN
  6
CONTINUOUS
 10
111.517555
 20
183.502085
 30
0.0
 40
2.0
 50
179.999981
 51
270.000018
  0
ARC
  5
1C5BC
  8
DANMEN
  6
CONTINUOUS
 10
105.4
 20
185.999999
 30
0.0
 40
0.5
 50
270.000018
 51
0.0
  0
LINE
  5
1C5BD
  8
DANMEN
  6
CONTINUOUS
 10
104.0
 20
185.499999
 30
0.0
 11
105.4
 21
185.499999
 31
0.0
  0
LINE
  5
1C5C2
  8
DANMEN
  6
CONTINUOUS
 10
108.317555
 20
185.502085
 30
0.0
 11
108.317555
 21
190.012633
 31
0.0
  0
LINE
  5
1C5C5
  8
DANMEN
  6
CONTINUOUS
 10
108.017555
 20
185.502085
 30
0.0
 11
109.517555
 21
185.502085
 31
0.0
  0
LINE
  5
1C5C6
  8
DANMEN
  6
CONTINUOUS
 10
108.017555
 20
185.502085
 30
0.0
 11
108.017555
 21
190.002085
 31
0.0
  0
LINE
  5
1C5CC
  8
DANMEN
  6
CONTINUOUS
 10
140.0
 20
166.5
 30
0.0
 11
140.0
 21
130.997915
 31
0.0
  0
ARC
  5
1C5CD
  8
DANMEN
  6
CONTINUOUS
 10
140.717555
 20
127.340276
 30
0.0
 40
2.0
 50
274.698681
 51
0.0
  0
ARC
  5
1C5D3
  8
DANMEN
  6
CONTINUOUS
 10
142.217555
 20
130.497915
 30
0.0
 40
0.5
 50
0.0
 51
89.999982
  0
LINE
  5
1C5D5
  8
DANMEN
  6
CONTINUOUS
 10
142.717555
 20
130.497915
 30
0.0
 11
142.717555
 21
127.340276
 31
0.0
  0
LINE
  5
1C5D6
  8
DANMEN
  6
CONTINUOUS
 10
198.0
 20
160.4
 30
0.0
 11
198.0
 21
141.8
 31
0.0
  0
ARC
  5
1C5D7
  8
DANMEN
  6
CONTINUOUS
 10
201.999997
 20
132.861187
 30
0.0
 40
1.0
 50
180.0
 51
261.469234
  0
LINE
  5
1C5D8
  8
DANMEN
  6
CONTINUOUS
 10
198.0
 20
140.0
 30
0.0
 11
198.0
 21
125.1
 31
0.0
  0
ARC
  5
1C5DF
  8
DANMEN
  6
CONTINUOUS
 10
199.47351
 20
134.601146
 30
0.0
 40
0.6
 50
23.0
 51
273.528779
  0
LINE
  5
1C5E4
  8
DANMEN
  6
CONTINUOUS
 10
200.999997
 20
134.5
 30
0.0
 11
200.999997
 21
132.861187
 31
0.0
  0
ARC
  5
1C5E6
  8
DANMEN
  6
CONTINUOUS
 10
201.499997
 20
134.5
 30
0.0
 40
0.5
 50
89.999982
 51
180.000019
  0
ARC
  5
1C5E9
  8
DANMEN
  6
CONTINUOUS
 10
188.5
 20
156.0
 30
0.0
 40
0.5
 50
180.000036
 51
269.999963
  0
ARC
  5
1C5EA
  8
DANMEN
  6
CONTINUOUS
 10
189.149994
 20
156.0
 30
0.0
 40
0.5
 50
270.000018
 51
359.999981
  0
LINE
  5
1C5EB
  8
DANMEN
  6
CONTINUOUS
 10
188.5
 20
155.5
 30
0.0
 11
189.149994
 21
155.5
 31
0.0
  0
ARC
  5
1C5EE
  8
DANMEN
  6
CONTINUOUS
 10
201.499997
 20
150.5
 30
0.0
 40
0.5
 50
179.999964
 51
270.000001
  0
LINE
  5
1C5F0
  8
DANMEN
  6
CONTINUOUS
 10
200.999997
 20
150.5
 30
0.0
 11
200.999997
 21
152.138813
 31
0.0
  0
ARC
  5
1C5F1
  8
DANMEN
  6
CONTINUOUS
 10
201.999997
 20
152.138813
 30
0.0
 40
1.0
 50
98.530766
 51
180.0
  0
LINE
  5
1C5F3
  8
DANMEN
  6
CONTINUOUS
 10
189.649994
 20
159.850006
 30
0.0
 11
196.350006
 21
159.850006
 31
0.0
  0
LINE
  5
1C5F4
  8
DANMEN
  6
CONTINUOUS
 10
188.0
 20
161.0
 30
0.0
 11
188.0
 21
156.0
 31
0.0
  0
LINE
  5
1C5F5
  8
DANMEN
  6
CONTINUOUS
 10
189.649994
 20
159.850006
 30
0.0
 11
189.649994
 21
156.0
 31
0.0
  0
ARC
  5
1C5F7
  8
DANMEN
  6
CONTINUOUS
 10
188.5
 20
161.0
 30
0.0
 40
0.5
 50
89.999982
 51
180.000019
  0
LINE
  5
1C5FC
  8
DANMEN
  6
CONTINUOUS
 10
198.0
 20
160.4
 30
0.0
 11
200.0
 21
160.4
 31
0.0
  0
LINE
  5
1C5FD
  8
DANMEN
  6
CONTINUOUS
 10
200.0
 20
160.4
 30
0.0
 11
200.0
 21
159.850006
 31
0.0
  0
LINE
  5
1C5FF
  8
DANMEN
  6
CONTINUOUS
 10
140.0
 20
169.5
 30
0.0
 11
140.0
 21
181.502085
 31
0.0
  0
LINE
  5
1C600
  8
DANMEN
  6
CONTINUOUS
 10
142.717555
 20
182.002085
 30
0.0
 11
142.717555
 21
185.159724
 31
0.0
  0
ARC
  5
1C602
  8
DANMEN
  6
CONTINUOUS
 10
142.217555
 20
182.002085
 30
0.0
 40
0.5
 50
270.000018
 51
360.0
  0
ARC
  5
1C605
  8
DANMEN
  6
CONTINUOUS
 10
140.717555
 20
185.159724
 30
0.0
 40
2.0
 50
0.0
 51
85.301319
  0
LINE
  5
1C609
  8
DANMEN
  6
CONTINUOUS
 10
97.8
 20
218.849999
 30
0.0
 11
104.25
 21
218.849999
 31
0.0
  0
LINE
  5
1C60A
  8
DANMEN
  6
CONTINUOUS
 10
98.3
 20
220.499999
 30
0.0
 11
105.4
 21
220.499999
 31
0.0
  0
LINE
  5
1C60B
  8
DANMEN
  6
CONTINUOUS
 10
82.65
 20
243.5
 30
0.0
 11
110.350006
 21
243.5
 31
0.0
  0
LINE
  5
1C60C
  8
DANMEN
  6
CONTINUOUS
 10
99.5
 20
222.15
 30
0.0
 11
110.350006
 21
222.15
 31
0.0
  0
LINE
  5
1C60D
  8
DANMEN
  6
CONTINUOUS
 10
99.0
 20
220.5
 30
0.0
 11
111.5
 21
220.5
 31
0.0
  0
LINE
  5
1C60E
  8
DANMEN
  6
CONTINUOUS
 10
96.3
 20
245.15
 30
0.0
 11
110.350006
 21
245.15
 31
0.0
  0
LINE
  5
1C60F
  8
DANMEN
  6
CONTINUOUS
 10
82.65
 20
243.5
 30
0.0
 11
82.65
 21
223.5
 31
0.0
  0
LINE
  5
1C610
  8
DANMEN
  6
CONTINUOUS
 10
81.0
 20
243.5
 30
0.0
 11
81.0
 21
228.5
 31
0.0
  0
LINE
  5
1C611
  8
DANMEN
  6
DASHED
 10
85.0
 20
220.5
 30
0.0
 11
97.0
 21
220.5
 31
0.0
  0
LINE
  5
1C612
  8
DANMEN
  6
DASHED
 10
81.5
 20
219.300003
 30
0.0
 11
100.5
 21
219.300003
 31
0.0
  0
LINE
  5
1C613
  8
DANMEN
  6
CONTINUOUS
 10
74.582434
 20
228.2
 30
0.0
 11
73.6
 21
225.017126
 31
0.0
  0
LINE
  5
1C614
  8
DANMEN
  6
CONTINUOUS
 10
74.146178
 20
228.684441
 30
0.0
 11
73.0187
 21
225.19015
 31
0.0
  0
LINE
  5
1C615
  8
DANMEN
  6
CONTINUOUS
 10
77.2
 20
225.5
 30
0.0
 11
77.2
 21
223.8
 31
0.0
  0
LINE
  5
1C616
  8
DANMEN
  6
CONTINUOUS
 10
75.2
 20
228.2
 30
0.0
 11
75.2
 21
221.1
 31
0.0
  0
LINE
  5
1C617
  8
DANMEN
  6
DASHED
 10
83.023824
 20
224.117136
 30
0.0
 11
84.423825
 21
227.417167
 31
0.0
  0
LINE
  5
1C618
  8
DANMEN
  6
DASHED
 10
84.5
 20
225.100003
 30
0.0
 11
84.992312
 21
227.23252
 31
0.0
  0
LINE
  5
1C619
  8
DANMEN
  6
CONTINUOUS
 10
85.0
 20
219.849999
 30
0.0
 11
85.0
 21
231.0
 31
0.0
  0
LINE
  5
1C61A
  8
DANMEN
  6
CONTINUOUS
 10
83.5
 20
220.500001
 30
0.0
 11
83.5
 21
230.5
 31
0.0
  0
LINE
  5
1C61B
  8
DANMEN
  6
CONTINUOUS
 10
71.049998
 20
218.45
 30
0.0
 11
71.049998
 21
228.0
 31
0.0
  0
LINE
  5
1C61C
  8
DANMEN
  6
CONTINUOUS
 10
72.999998
 20
217.0
 30
0.0
 11
72.999998
 21
228.0
 31
0.0
  0
LINE
  5
1C61D
  8
DANMEN
  6
CONTINUOUS
 10
81.000003
 20
221.5
 30
0.0
 11
81.000003
 21
227.7
 31
0.0
  0
LINE
  5
1C61E
  8
DANMEN
  6
CONTINUOUS
 10
83.0
 20
220.5
 30
0.0
 11
76.5
 21
220.5
 31
0.0
  0
LINE
  5
1C61F
  8
DANMEN
  6
CONTINUOUS
 10
76.800003
 20
221.5
 30
0.0
 11
81.0
 21
221.5
 31
0.0
  0
LINE
  5
1C620
  8
DANMEN
  6
CONTINUOUS
 10
73.0
 20
220.5
 30
0.0
 11
81.0
 21
220.5
 31
0.0
  0
ARC
  5
1C624
  8
DANMEN
  6
CONTINUOUS
 10
72.499998
 20
217.0
 30
0.0
 40
0.5
 50
270.0
 51
0.0
  0
LINE
  5
1C625
  8
DANMEN
  6
CONTINUOUS
 10
72.499998
 20
216.5
 30
0.0
 11
70.799998
 21
216.5
 31
0.0
  0
LINE
  5
1C626
  8
DANMEN
  6
CONTINUOUS
 10
74.582434
 20
221.1
 30
0.0
 11
75.2
 21
221.1
 31
0.0
  0
LINE
  5
1C627
  8
DANMEN
  6
CONTINUOUS
 10
74.327478
 20
220.5
 30
0.0
 11
76.0
 21
220.5
 31
0.0
  0
LINE
  5
1C62B
  8
DANMEN
  6
CONTINUOUS
 10
73.6
 20
224.282873
 30
0.0
 11
74.582434
 21
221.1
 31
0.0
  0
LINE
  5
1C62C
  8
DANMEN
  6
CONTINUOUS
 10
73.6
 20
225.017126
 30
0.0
 11
73.6
 21
224.282873
 31
0.0
  0
ARC
  5
1C62E
  8
DANMEN
  6
CONTINUOUS
 10
73.2
 20
224.194291
 30
0.0
 40
0.2
 50
180.0
 51
204.97391
  0
ARC
  5
1C630
  8
DANMEN
  6
CONTINUOUS
 10
73.2
 20
225.105709
 30
0.0
 40
0.2
 50
155.02609
 51
180.0
  0
ARC
  5
1C632
  8
DANMEN
  6
CONTINUOUS
 10
74.327478
 20
220.7
 30
0.0
 40
0.2
 50
204.97391
 51
270.0
  0
LINE
  5
1C633
  8
DANMEN
  6
CONTINUOUS
 10
73.0187
 20
224.10985
 30
0.0
 11
74.146178
 21
220.615559
 31
0.0
  0
LINE
  5
1C634
  8
DANMEN
  6
CONTINUOUS
 10
73.0
 20
225.105709
 30
0.0
 11
73.0
 21
224.194291
 31
0.0
  0
LINE
  5
1C63D
  8
DANMEN
  6
CONTINUOUS
 10
76.0
 20
223.0
 30
0.0
 11
77.0
 21
223.0
 31
0.0
  0
LINE
  5
1C63E
  8
DANMEN
  6
CONTINUOUS
 10
77.0
 20
223.0
 30
0.0
 11
77.0
 21
222.0
 31
0.0
  0
LINE
  5
1C63F
  8
DANMEN
  6
CONTINUOUS
 10
77.2
 20
223.8
 30
0.0
 11
78.0
 21
223.0
 31
0.0
  0
LINE
  5
1C641
  8
DANMEN
  6
CONTINUOUS
 10
78.0
 20
223.0
 30
0.0
 11
78.0
 21
222.0
 31
0.0
  0
ARC
  5
1C643
  8
DANMEN
  6
CONTINUOUS
 10
77.2
 20
222.0
 30
0.0
 40
0.2
 50
180.000019
 51
270.000001
  0
ARC
  5
1C645
  8
DANMEN
  6
CONTINUOUS
 10
77.8
 20
222.0
 30
0.0
 40
0.2
 50
270.000018
 51
0.0
  0
LINE
  5
1C647
  8
DANMEN
  6
CONTINUOUS
 10
76.0
 20
223.0
 30
0.0
 11
76.0
 21
220.5
 31
0.0
  0
LINE
  5
1C648
  8
DANMEN
  6
CONTINUOUS
 10
77.2
 20
221.8
 30
0.0
 11
77.8
 21
221.8
 31
0.0
  0
ARC
  5
1C64A
  8
DANMEN
  6
CONTINUOUS
 10
76.5
 20
221.0
 30
0.0
 40
0.5
 50
179.999981
 51
270.000018
  0
ARC
  5
1C64B
  8
DANMEN
  6
CONTINUOUS
 10
76.5
 20
222.199997
 30
0.0
 40
0.5
 50
89.999999
 51
179.999981
  0
LINE
  5
1C64C
  8
DANMEN
  6
CONTINUOUS
 10
76.800003
 20
221.5
 30
0.0
 11
76.800003
 21
222.699997
 31
0.0
  0
LINE
  5
1C64D
  8
DANMEN
  6
CONTINUOUS
 10
76.5
 20
222.699997
 30
0.0
 11
76.800003
 21
222.699997
 31
0.0
  0
LINE
  5
1C64E
  8
DANMEN
  6
CONTINUOUS
 10
76.0
 20
221.0
 30
0.0
 11
76.0
 21
222.199997
 31
0.0
  0
ARC
  5
1C651
  8
DANMEN
  6
DASHED
 10
81.5
 20
219.800003
 30
0.0
 40
0.5
 50
180.0
 51
269.999982
  0
ARC
  5
1C652
  8
DANMEN
  6
CONTINUOUS
 10
84.0
 20
219.849999
 30
0.0
 40
1.0
 50
270.0
 51
0.0
  0
LINE
  5
1C653
  8
DANMEN
  6
CONTINUOUS
 10
82.65
 20
218.849999
 30
0.0
 11
84.0
 21
218.849999
 31
0.0
  0
LINE
  5
1C658
  8
DANMEN
  6
DASHED
 10
83.5
 20
220.5
 30
0.0
 11
81.0
 21
220.5
 31
0.0
  0
ARC
  5
1C659
  8
DANMEN
  6
DASHED
 10
83.299999
 20
223.999972
 30
0.0
 40
0.3
 50
157.011468
 51
235.656024
  0
LINE
  5
1C65A
  8
DANMEN
  6
CONTINUOUS
 10
81.5
 20
220.500003
 30
0.0
 11
83.5
 21
220.500003
 31
0.0
  0
LINE
  5
1C65B
  8
DANMEN
  6
CONTINUOUS
 10
82.65
 20
223.5
 30
0.0
 11
83.5
 21
223.5
 31
0.0
  0
ARC
  5
1C65C
  8
DANMEN
  6
CONTINUOUS
 10
83.0
 20
221.0
 30
0.0
 40
0.5
 50
270.0
 51
0.0
  0
LINE
  5
1C65F
  8
DANMEN
  6
DASHED
 10
81.0
 20
220.5
 30
0.0
 11
81.0
 21
219.800003
 31
0.0
  0
ARC
  5
1C662
  8
DANMEN
  6
CONTINUOUS
 10
81.5
 20
220.000003
 30
0.0
 40
0.5
 50
90.0
 51
180.0
  0
LINE
  5
1C663
  8
DANMEN
  6
DASHED
 10
83.499991
 20
223.499972
 30
0.0
 11
83.130743
 21
223.752271
 31
0.0
  0
LINE
  5
1C664
  8
DANMEN
  6
DASHED
 10
83.5
 20
220.5
 30
0.0
 11
83.5
 21
223.499972
 31
0.0
  0
LINE
  5
1C665
  8
DANMEN
  6
DASHED
 10
84.5
 20
225.100003
 30
0.0
 11
84.5
 21
221.0
 31
0.0
  0
ARC
  5
1C666
  8
DANMEN
  6
DASHED
 10
85.0
 20
221.0
 30
0.0
 40
0.5
 50
180.0
 51
270.0
  0
LINE
  5
1C66C
  8
DANMEN
  6
CONTINUOUS
 10
83.5
 20
223.5
 30
0.0
 11
83.5
 21
221.0
 31
0.0
  0
LINE
  5
1C66D
  8
DANMEN
  6
CONTINUOUS
 10
76.800003
 20
227.7
 30
0.0
 11
81.0
 21
227.7
 31
0.0
  0
LINE
  5
1C66E
  8
DANMEN
  6
CONTINUOUS
 10
76.5
 20
228.5
 30
0.0
 11
81.0
 21
228.5
 31
0.0
  0
LINE
  5
1C66F
  8
DANMEN
  6
CONTINUOUS
 10
74.582434
 20
228.2
 30
0.0
 11
75.2
 21
228.2
 31
0.0
  0
LINE
  5
1C670
  8
DANMEN
  6
CONTINUOUS
 10
74.327478
 20
228.8
 30
0.0
 11
76.0
 21
228.8
 31
0.0
  0
ARC
  5
1C673
  8
DANMEN
  6
CONTINUOUS
 10
74.327478
 20
228.6
 30
0.0
 40
0.2
 50
90.0
 51
155.02609
  0
ARC
  5
1C675
  8
DANMEN
  6
CONTINUOUS
 10
71.549998
 20
228.0
 30
0.0
 40
0.5
 50
90.0
 51
180.0
  0
ARC
  5
1C677
  8
DANMEN
  6
CONTINUOUS
 10
72.499998
 20
228.0
 30
0.0
 40
0.5
 50
0.0
 51
90.0
  0
LINE
  5
1C678
  8
DANMEN
  6
CONTINUOUS
 10
72.499998
 20
228.5
 30
0.0
 11
71.549998
 21
228.5
 31
0.0
  0
LINE
  5
1C67E
  8
DANMEN
  6
CONTINUOUS
 10
76.0
 20
228.8
 30
0.0
 11
76.0
 21
226.3
 31
0.0
  0
LINE
  5
1C680
  8
DANMEN
  6
CONTINUOUS
 10
76.0
 20
226.3
 30
0.0
 11
77.0
 21
226.3
 31
0.0
  0
LINE
  5
1C681
  8
DANMEN
  6
CONTINUOUS
 10
78.0
 20
226.3
 30
0.0
 11
77.2
 21
225.5
 31
0.0
  0
ARC
  5
1C683
  8
DANMEN
  6
CONTINUOUS
 10
77.2
 20
227.3
 30
0.0
 40
0.2
 50
89.999982
 51
180.000019
  0
ARC
  5
1C685
  8
DANMEN
  6
CONTINUOUS
 10
77.8
 20
227.3
 30
0.0
 40
0.2
 50
0.0
 51
89.999982
  0
LINE
  5
1C687
  8
DANMEN
  6
CONTINUOUS
 10
77.0
 20
227.3
 30
0.0
 11
77.0
 21
226.3
 31
0.0
  0
LINE
  5
1C688
  8
DANMEN
  6
CONTINUOUS
 10
77.2
 20
227.5
 30
0.0
 11
77.8
 21
227.5
 31
0.0
  0
LINE
  5
1C689
  8
DANMEN
  6
CONTINUOUS
 10
78.0
 20
227.3
 30
0.0
 11
78.0
 21
226.3
 31
0.0
  0
LINE
  5
1C68A
  8
DANMEN
  6
CONTINUOUS
 10
76.5
 20
226.300003
 30
0.0
 11
76.800003
 21
226.300003
 31
0.0
  0
ARC
  5
1C68B
  8
DANMEN
  6
CONTINUOUS
 10
76.5
 20
226.800003
 30
0.0
 40
0.5
 50
179.999981
 51
270.000018
  0
ARC
  5
1C68C
  8
DANMEN
  6
CONTINUOUS
 10
76.5
 20
228.0
 30
0.0
 40
0.5
 50
89.999999
 51
179.999981
  0
LINE
  5
1C68D
  8
DANMEN
  6
CONTINUOUS
 10
76.800003
 20
226.300003
 30
0.0
 11
76.800003
 21
227.7
 31
0.0
  0
LINE
  5
1C68E
  8
DANMEN
  6
CONTINUOUS
 10
76.0
 20
226.800003
 30
0.0
 11
76.0
 21
228.0
 31
0.0
  0
ARC
  5
1C693
  8
DANMEN
  6
DASHED
 10
84.7
 20
227.300003
 30
0.0
 40
0.3
 50
347.000479
 51
157.011468
  0
LINE
  5
1C694
  8
DANMEN
  6
CONTINUOUS
 10
84.0
 20
231.0
 30
0.0
 11
85.0
 21
231.0
 31
0.0
  0
ARC
  5
1C695
  8
DANMEN
  6
CONTINUOUS
 10
84.0
 20
230.5
 30
0.0
 40
0.5
 50
90.0
 51
180.0
  0
LINE
  5
1C698
  8
DANMEN
  6
DASHED
 10
97.5
 20
225.100003
 30
0.0
 11
97.007688
 21
227.23252
 31
0.0
  0
LINE
  5
1C699
  8
DANMEN
  6
DASHED
 10
98.976176
 20
224.117136
 30
0.0
 11
97.576175
 21
227.417167
 31
0.0
  0
LINE
  5
1C69A
  8
DANMEN
  6
CONTINUOUS
 10
96.8
 20
219.849999
 30
0.0
 11
96.8
 21
231.000003
 31
0.0
  0
LINE
  5
1C69B
  8
DANMEN
  6
CONTINUOUS
 10
98.3
 20
220.499997
 30
0.0
 11
98.3
 21
230.500003
 31
0.0
  0
ARC
  5
1C69C
  8
DANMEN
  6
CONTINUOUS
 10
93.300002
 20
213.930306
 30
0.0
 40
2.0
 50
0.000026
 51
51.706549
  0
LINE
  5
1C69D
  8
DANMEN
  6
CONTINUOUS
 10
90.900001
 20
215.199999
 30
0.0
 11
90.900001
 21
214.936931
 31
0.0
  0
ARC
  5
1C69E
  8
DANMEN
  6
CONTINUOUS
 10
91.200002
 20
213.84606
 30
0.0
 40
1.0
 50
114.624344
 51
180.000026
  0
ARC
  5
1C69F
  8
DANMEN
  6
CONTINUOUS
 10
90.700001
 20
214.936931
 30
0.0
 40
0.2
 50
294.624344
 51
0.000026
  0
ARC
  5
1C6A0
  8
DANMEN
  6
CONTINUOUS
 10
90.700002
 20
213.930305
 30
0.0
 40
2.0
 50
128.293503
 51
180.000026
  0
LINE
  5
1C6A1
  8
DANMEN
  6
CONTINUOUS
 10
90.600001
 20
215.499999
 30
0.0
 11
89.460622
 21
215.499998
 31
0.0
  0
ARC
  5
1C6A2
  8
DANMEN
  6
CONTINUOUS
 10
90.600001
 20
215.199999
 30
0.0
 40
0.3
 50
0.000026
 51
90.000026
  0
ARC
  5
1C6A3
  8
DANMEN
  6
CONTINUOUS
 10
93.300001
 20
214.936932
 30
0.0
 40
0.2
 50
180.000026
 51
245.375708
  0
ARC
  5
1C6A4
  8
DANMEN
  6
CONTINUOUS
 10
92.800002
 20
213.846061
 30
0.0
 40
1.0
 50
0.000026
 51
65.375708
  0
LINE
  5
1C6A5
  8
DANMEN
  6
CONTINUOUS
 10
93.100001
 20
215.2
 30
0.0
 11
93.100001
 21
214.936932
 31
0.0
  0
ARC
  5
1C6A6
  8
DANMEN
  6
CONTINUOUS
 10
93.400001
 20
215.2
 30
0.0
 40
0.3
 50
90.000026
 51
180.000026
  0
LINE
  5
1C6A7
  8
DANMEN
  6
CONTINUOUS
 10
93.400001
 20
215.499999
 30
0.0
 11
94.53938
 21
215.499999
 31
0.0
  0
ARC
  5
1C6AA
  8
DANMEN
  6
DASHED
 10
100.5
 20
219.800003
 30
0.0
 40
0.5
 50
270.000018
 51
0.0
  0
ARC
  5
1C6AB
  8
DANMEN
  6
CONTINUOUS
 10
97.8
 20
219.849999
 30
0.0
 40
1.0
 50
180.0
 51
270.0
  0
LINE
  5
1C6AF
  8
DANMEN
  6
DASHED
 10
98.5
 20
220.5
 30
0.0
 11
101.0
 21
220.5
 31
0.0
  0
LINE
  5
1C6B0
  8
DANMEN
  6
DASHED
 10
98.5
 20
220.5
 30
0.0
 11
101.0
 21
220.5
 31
0.0
  0
LINE
  5
1C6B1
  8
DANMEN
  6
CONTINUOUS
 10
99.206061
 20
223.142044
 30
0.0
 11
99.5
 21
222.15
 31
0.0
  0
ARC
  5
1C6B4
  8
DANMEN
  6
DASHED
 10
97.0
 20
221.0
 30
0.0
 40
0.5
 50
270.0
 51
0.0
  0
LINE
  5
1C6B5
  8
DANMEN
  6
DASHED
 10
97.5
 20
225.100003
 30
0.0
 11
97.5
 21
221.0
 31
0.0
  0
LINE
  5
1C6B6
  8
DANMEN
  6
DASHED
 10
98.5
 20
220.5
 30
0.0
 11
98.5
 21
223.499972
 31
0.0
  0
LINE
  5
1C6B7
  8
DANMEN
  6
DASHED
 10
98.500009
 20
223.499972
 30
0.0
 11
98.869257
 21
223.752271
 31
0.0
  0
ARC
  5
1C6B8
  8
DANMEN
  6
DASHED
 10
98.700001
 20
223.999972
 30
0.0
 40
0.3
 50
304.343976
 51
22.988532
  0
ARC
  5
1C6BE
  8
DANMEN
  6
CONTINUOUS
 10
99.0
 20
221.0
 30
0.0
 40
0.5
 50
180.0
 51
270.0
  0
LINE
  5
1C6BF
  8
DANMEN
  6
CONTINUOUS
 10
98.5
 20
223.5
 30
0.0
 11
98.5
 21
221.0
 31
0.0
  0
LINE
  5
1C6C0
  8
DANMEN
  6
CONTINUOUS
 10
98.726662
 20
223.5
 30
0.0
 11
98.5
 21
223.5
 31
0.0
  0
ARC
  5
1C6C1
  8
DANMEN
  6
CONTINUOUS
 10
98.726662
 20
223.0
 30
0.0
 40
0.5
 50
16.504361
 51
90.0
  0
LINE
  5
1C6C3
  8
DANMEN
  6
DASHED
 10
101.0
 20
220.5
 30
0.0
 11
101.0
 21
219.800003
 31
0.0
  0
ARC
  5
1C6C6
  8
DANMEN
  6
DASHED
 10
97.3
 20
227.300003
 30
0.0
 40
0.3
 50
22.988532
 51
192.999521
  0
LINE
  5
1C6C7
  8
DANMEN
  6
CONTINUOUS
 10
96.8
 20
231.000003
 30
0.0
 11
97.8
 21
231.000003
 31
0.0
  0
ARC
  5
1C6C8
  8
DANMEN
  6
CONTINUOUS
 10
97.8
 20
230.500003
 30
0.0
 40
0.5
 50
0.0
 51
90.0
  0
LINE
  5
1C6CC
  8
DANMEN
  6
CONTINUOUS
 10
79.65
 20
245.15
 30
0.0
 11
87.7
 21
245.15
 31
0.0
  0
ARC
  5
1C6CD
  8
DANMEN
  6
CONTINUOUS
 10
78.65
 20
248.100012
 30
0.0
 40
1.0
 50
0.0
 51
90.0
  0
LINE
  5
1C6CE
  8
DANMEN
  6
CONTINUOUS
 10
77.0
 20
243.5
 30
0.0
 11
81.0
 21
243.5
 31
0.0
  0
LINE
  5
1C6D2
  8
DANMEN
  6
CONTINUOUS
 10
78.0
 20
247.450012
 30
0.0
 11
78.0
 21
244.3
 31
0.0
  0
LINE
  5
1C6D3
  8
DANMEN
  6
CONTINUOUS
 10
76.5
 20
244.3
 30
0.0
 11
78.0
 21
244.3
 31
0.0
  0
LINE
  5
1C6D4
  8
DANMEN
  6
CONTINUOUS
 10
76.5
 20
244.3
 30
0.0
 11
76.5
 21
244.0
 31
0.0
  0
ARC
  5
1C6D5
  8
DANMEN
  6
CONTINUOUS
 10
77.0
 20
244.0
 30
0.0
 40
0.5
 50
180.000019
 51
270.000001
  0
LINE
  5
1C6D6
  8
DANMEN
  6
CONTINUOUS
 10
79.65
 20
248.100012
 30
0.0
 11
79.65
 21
245.15
 31
0.0
  0
LINE
  5
1C6D7
  8
DANMEN
  6
CONTINUOUS
 10
93.1
 20
248.536932
 30
0.0
 11
93.1
 21
248.8
 31
0.0
  0
ARC
  5
1C6D8
  8
DANMEN
  6
CONTINUOUS
 10
93.3
 20
247.530306
 30
0.0
 40
2.0
 50
0.0
 51
51.706523
  0
LINE
  5
1C6D9
  8
DANMEN
  6
CONTINUOUS
 10
90.9
 20
248.536932
 30
0.0
 11
90.9
 21
248.8
 31
0.0
  0
ARC
  5
1C6DA
  8
DANMEN
  6
CONTINUOUS
 10
90.7
 20
247.530306
 30
0.0
 40
2.0
 50
128.293195
 51
180.0
  0
ARC
  5
1C6DB
  8
DANMEN
  6
CONTINUOUS
 10
96.3
 20
246.15
 30
0.0
 40
1.0
 50
180.0
 51
270.0
  0
LINE
  5
1C6DC
  8
DANMEN
  6
CONTINUOUS
 10
92.8
 20
245.2
 30
0.0
 11
91.2
 21
245.2
 31
0.0
  0
ARC
  5
1C6DD
  8
DANMEN
  6
CONTINUOUS
 10
91.2
 20
246.2
 30
0.0
 40
1.0
 50
180.0
 51
270.0
  0
LINE
  5
1C6DE
  8
DANMEN
  6
CONTINUOUS
 10
90.2
 20
247.446061
 30
0.0
 11
90.2
 21
246.2
 31
0.0
  0
ARC
  5
1C6DF
  8
DANMEN
  6
CONTINUOUS
 10
90.7
 20
248.536932
 30
0.0
 40
0.2
 50
294.624318
 51
0.0
  0
ARC
  5
1C6E0
  8
DANMEN
  6
CONTINUOUS
 10
91.2
 20
247.446061
 30
0.0
 40
1.0
 50
114.624318
 51
180.0
  0
LINE
  5
1C6E1
  8
DANMEN
  6
CONTINUOUS
 10
88.7
 20
247.530306
 30
0.0
 11
88.7
 21
246.15
 31
0.0
  0
ARC
  5
1C6E2
  8
DANMEN
  6
CONTINUOUS
 10
87.7
 20
246.15
 30
0.0
 40
1.0
 50
270.0
 51
0.0
  0
LINE
  5
1C6E3
  8
DANMEN
  6
CONTINUOUS
 10
93.8
 20
247.446061
 30
0.0
 11
93.8
 21
246.2
 31
0.0
  0
LINE
  5
1C6E4
  8
DANMEN
  6
CONTINUOUS
 10
95.3
 20
247.530306
 30
0.0
 11
95.3
 21
246.15
 31
0.0
  0
ARC
  5
1C6E5
  8
DANMEN
  6
CONTINUOUS
 10
92.8
 20
246.2
 30
0.0
 40
1.0
 50
270.0
 51
0.0
  0
ARC
  5
1C6E6
  8
DANMEN
  6
CONTINUOUS
 10
92.8
 20
247.446061
 30
0.0
 40
1.0
 50
0.0
 51
65.375682
  0
ARC
  5
1C6E7
  8
DANMEN
  6
CONTINUOUS
 10
93.3
 20
248.536932
 30
0.0
 40
0.2
 50
180.0
 51
245.375682
  0
LINE
  5
1C6E8
  8
DANMEN
  6
CONTINUOUS
 10
90.6
 20
249.100006
 30
0.0
 11
89.460628
 21
249.100006
 31
0.0
  0
ARC
  5
1C6E9
  8
DANMEN
  6
CONTINUOUS
 10
90.6
 20
248.8
 30
0.0
 40
0.3
 50
0.0
 51
90.0
  0
ARC
  5
1C6EA
  8
DANMEN
  6
CONTINUOUS
 10
93.4
 20
248.8
 30
0.0
 40
0.3
 50
90.0
 51
180.0
  0
LINE
  5
1C6EB
  8
DANMEN
  6
CONTINUOUS
 10
94.539379
 20
249.1
 30
0.0
 11
93.4
 21
249.1
 31
0.0
  0
LINE
  5
1C6EC
  8
DANMEN
  6
CONTINUOUS
 10
112.0
 20
255.0
 30
0.0
 11
112.0
 21
221.0
 31
0.0
  0
LINE
  5
1C6ED
  8
DANMEN
  6
CONTINUOUS
 10
110.350006
 20
243.5
 30
0.0
 11
110.350006
 21
222.15
 31
0.0
  0
ARC
  5
1C6EE
  8
DANMEN
  6
CONTINUOUS
 10
111.5
 20
221.0
 30
0.0
 40
0.5
 50
270.000018
 51
0.0
  0
ARC
  5
1C6F1
  8
DANMEN
  6
CONTINUOUS
 10
105.4
 20
219.999999
 30
0.0
 40
0.5
 50
0.0
 51
90.0
  0
ARC
  5
1C6F3
  8
DANMEN
  6
CONTINUOUS
 10
108.504277
 20
219.963517
 30
0.0
 40
0.5
 50
0.83042
 51
86.0
  0
LINE
  5
1C6F4
  8
DANMEN
  6
CONTINUOUS
 10
108.0
 20
220.5
 30
0.0
 11
108.539155
 21
220.462299
 31
0.0
  0
LINE
  5
1C6F8
  8
DANMEN
  6
CONTINUOUS
 10
110.350006
 20
253.850006
 30
0.0
 11
110.350006
 21
245.15
 31
0.0
  0
ARC
  5
1C6F9
  8
DANMEN
  6
CONTINUOUS
 10
111.5
 20
255.0
 30
0.0
 40
0.5
 50
0.0
 51
89.999982
  0
LINE
  5
1C6FA
  8
DANMEN
  6
CONTINUOUS
 10
106.0
 20
255.0
 30
0.0
 11
106.0
 21
254.350006
 31
0.0
  0
LINE
  5
1C6FB
  8
DANMEN
  6
CONTINUOUS
 10
106.5
 20
253.850006
 30
0.0
 11
110.350006
 21
253.850006
 31
0.0
  0
ARC
  5
1C6FC
  8
DANMEN
  6
CONTINUOUS
 10
106.5
 20
254.350006
 30
0.0
 40
0.5
 50
180.000019
 51
270.000001
  0
LINE
  5
1C6FD
  8
DANMEN
  6
CONTINUOUS
 10
106.5
 20
255.5
 30
0.0
 11
111.5
 21
255.5
 31
0.0
  0
ARC
  5
1C6FE
  8
DANMEN
  6
CONTINUOUS
 10
106.5
 20
255.0
 30
0.0
 40
0.5
 50
89.999982
 51
180.000019
  0
TEXT
  5
1C700
  8
SUNPO
  6
CONTINUOUS
 10
351.855906
 20
118.75
 30
0.0
 40
2.5
  1
2.5
 50
90.0
  7
MX_NOTE_STANDARD
  0
LINE
  5
1C701
  8
DANMEN
  6
CONTINUOUS
 10
296.0
 20
122.499997
 30
0.0
 11
296.0
 21
120.792196
 31
0.0
  0
LINE
  5
1C702
  8
DANMEN
  6
CONTINUOUS
 10
273.0
 20
65.499997
 30
0.0
 11
273.0
 21
126.999997
 31
0.0
  0
ARC
  5
1C703
  8
DANMEN
  6
CONTINUOUS
 10
314.000003
 20
119.499997
 30
0.0
 40
1.5
 50
359.999994
 51
90.00003
  0
LINE
  5
1C704
  8
DANMEN
  6
CONTINUOUS
 10
389.649994
 20
159.850006
 30
0.0
 11
389.649994
 21
93.149994
 31
0.0
  0
LINE
  5
1C705
  8
DANMEN
  6
CONTINUOUS
 10
375.0
 20
122.499994
 30
0.0
 11
375.0
 21
120.792193
 31
0.0
  0
LINE
  5
1C706
  8
DANMEN
  6
CONTINUOUS
 10
375.0
 20
122.5
 30
0.0
 11
375.0
 21
121.0
 31
0.0
  0
LINE
  5
1C707
  8
DANMEN
  6
CONTINUOUS
 10
358.000003
 20
122.0
 30
0.0
 11
358.000003
 21
120.5
 31
0.0
  0
ARC
  5
1C708
  8
DANMEN
  6
CONTINUOUS
 10
357.000001
 20
119.499997
 30
0.0
 40
1.5
 50
90.0
 51
179.999982
  0
LINE
  5
1C709
  8
DANMEN
  6
CONTINUOUS
 10
296.0
 20
122.5
 30
0.0
 11
296.0
 21
121.0
 31
0.0
  0
LINE
  5
1C70A
  8
DANMEN
  6
CONTINUOUS
 10
312.999997
 20
122.0
 30
0.0
 11
312.999997
 21
120.5
 31
0.0
  0
LINE
  5
1C70B
  8
SUNPO
  6
CONTINUOUS
 10
330.0
 20
122.5
 30
0.0
 11
330.0
 21
91.5
 31
0.0
  0
LINE
  5
1C70C
  8
SUNPO
  6
CONTINUOUS
 10
352.855906
 20
120.0
 30
0.0
 11
352.855906
 21
122.5
 31
0.0
  0
LINE
  5
1C70D
  8
SUNPO
  6
CONTINUOUS
 10
254.5
 20
91.5
 30
0.0
 11
254.5
 21
161.5
 31
0.0
  0
LINE
  5
1C70E
  8
SUNPO
  6
CONTINUOUS
 10
22.0
 20
56.5
 30
0.0
 11
22.0
 21
150.5
 31
0.0
  0
LINE
  5
1C70F
  8
SUNPO
  6
CONTINUOUS
 10
153.0
 20
138.5
 30
0.0
 11
153.0
 21
96.5
 31
0.0
  0
LINE
  5
1C710
  8
SUNPO
  6
CONTINUOUS
 10
163.0
 20
148.093714
 30
0.0
 11
163.0
 21
96.5
 31
0.0
  0
TEXT
  5
1C711
  8
SUNPO
  6
CONTINUOUS
 10
329.0
 20
100.826503
 30
0.0
 40
2.5
  1
31
 50
90.0
  7
MX_NOTE_STANDARD
  0
TEXT
  5
1C712
  8
SUNPO
  6
CONTINUOUS
 10
329.0
 20
75.416667
 30
0.0
 40
2.5
  1
28
 50
90.0
  7
MX_NOTE_STANDARD
  0
LINE
  5
1C713
  8
SUNPO
  6
CONTINUOUS
 10
313.500004
 20
63.5
 30
0.0
 11
330.0
 21
63.5
 31
0.0
  0
LINE
  5
1C714
  8
SUNPO
  6
CONTINUOUS
 10
311.552269
 20
35.0
 30
0.0
 11
373.0
 21
35.0
 31
0.0
  0
LINE
  5
1C715
  8
SUNPO
  6
CONTINUOUS
 10
313.0
 20
47.0
 30
0.0
 11
373.0
 21
47.0
 31
0.0
  0
TEXT
  5
1C716
  8
WAKU
 10
35.0
 20
284.5
 30
0.0
 40
5.0
  1
外動片引き断面詳細図　ＷＤタイプ（Fix部硝子溝20mm）　防火戸　非防火戸
 11
35.0
 21
287.0
 31
0.0
 73
     2
  0
LINE
  5
1C717
  8
SUNPO
  6
CONTINUOUS
 10
57.0
 20
27.5
 30
0.0
 11
163.0
 21
27.5
 31
0.0
  0
LINE
  5
1C718
  8
DANMEN
  6
CONTINUOUS
 10
336.5
 20
91.5
 30
0.0
 11
313.0
 21
91.5
 31
0.0
  0
LINE
  5
1C719
  8
DANMEN
  6
CONTINUOUS
 10
336.5
 20
93.15
 30
0.0
 11
313.0
 21
93.15
 31
0.0
  0
LINE
  5
1C71A
  8
DANMEN
  6
CONTINUOUS
 10
301.000002
 20
114.499997
 30
0.0
 11
336.499997
 21
114.499997
 31
0.0
  0
LINE
  5
1C71B
  8
DANMEN
  6
CONTINUOUS
 10
301.000002
 20
105.499997
 30
0.0
 11
336.499997
 21
105.499997
 31
0.0
  0
LINE
  5
1C71C
  8
DANMEN
  6
CONTINUOUS
 10
301.000002
 20
104.999997
 30
0.0
 11
336.499997
 21
104.999997
 31
0.0
  0
LINE
  5
1C71D
  8
DANMEN
  6
CONTINUOUS
 10
301.000002
 20
114.999997
 30
0.0
 11
336.499997
 21
114.999997
 31
0.0
  0
LINE
  5
1C71E
  8
DANMEN
  6
CONTINUOUS
 10
336.499997
 20
120.999997
 30
0.0
 11
312.999997
 21
120.999997
 31
0.0
  0
LINE
  5
1C71F
  8
DANMEN
  6
CONTINUOUS
 10
336.499997
 20
97.599997
 30
0.0
 11
313.000003
 21
97.599997
 31
0.0
  0
LINE
  5
1C720
  8
DANMEN
  6
CONTINUOUS
 10
336.499997
 20
98.999997
 30
0.0
 11
313.000003
 21
98.999997
 31
0.0
  0
LINE
  5
1C721
  8
DANMEN
  6
CONTINUOUS
 10
263.5
 20
102.5
 30
0.0
 11
273.0
 21
102.5
 31
0.0
  0
LINE
  5
1C722
  8
DANMEN
  6
CONTINUOUS
 10
263.5
 20
91.5
 30
0.0
 11
273.0
 21
91.5
 31
0.0
  0
LINE
  5
1C723
  8
DANMEN
  6
CONTINUOUS
 10
263.5
 20
93.15
 30
0.0
 11
273.0
 21
93.15
 31
0.0
  0
LINE
  5
1C724
  8
DANMEN
  6
CONTINUOUS
 10
213.0
 20
91.5
 30
0.0
 11
260.5
 21
91.5
 31
0.0
  0
LINE
  5
1C725
  8
DANMEN
  6
CONTINUOUS
 10
213.0
 20
93.15
 30
0.0
 11
260.5
 21
93.15
 31
0.0
  0
ARC
  5
1C726
  8
DANMEN
  6
CONTINUOUS
 10
212.5
 20
92.0
 30
0.0
 40
0.5
 50
270.000018
 51
359.999981
  0
LINE
  5
1C728
  8
DANMEN
  6
CONTINUOUS
 10
213.0
 20
92.649994
 30
0.0
 11
213.0
 21
92.0
 31
0.0
  0
ARC
  5
1C729
  8
DANMEN
  6
CONTINUOUS
 10
212.5
 20
92.649994
 30
0.0
 40
0.5
 50
359.999981
 51
89.999982
  0
LINE
  5
1C72B
  8
DANMEN
  6
CONTINUOUS
 10
310.5
 20
67.999997
 30
0.0
 11
310.5
 21
77.999792
 31
0.0
  0
LINE
  5
1C72C
  8
DANMEN
  6
CONTINUOUS
 10
275.5
 20
67.999997
 30
0.0
 11
275.5
 21
77.999792
 31
0.0
  0
LINE
  5
1C72D
  8
DANMEN
  6
CONTINUOUS
 10
313.0
 20
65.499997
 30
0.0
 11
313.0
 21
99.499997
 31
0.0
  0
LINE
  5
1C72E
  8
DANMEN
  6
CONTINUOUS
 10
311.0
 20
63.499997
 30
0.0
 11
275.0
 21
63.499997
 31
0.0
  0
LINE
  5
1C72F
  8
DANMEN
  6
CONTINUOUS
 10
310.5
 20
67.999997
 30
0.0
 11
275.5
 21
67.999997
 31
0.0
  0
ARC
  5
1C730
  8
DANMEN
  6
CONTINUOUS
 10
275.0
 20
65.499997
 30
0.0
 40
2.0
 50
179.999981
 51
270.000018
  0
ARC
  5
1C731
  8
DANMEN
  6
CONTINUOUS
 10
311.0
 20
65.499997
 30
0.0
 40
2.0
 50
270.000018
 51
0.0
  0
LINE
  5
1C732
  8
DANMEN
  6
CONTINUOUS
 10
311.0
 20
95.499997
 30
0.0
 11
275.0
 21
95.499997
 31
0.0
  0
LINE
  5
1C733
  8
DANMEN
  6
CONTINUOUS
 10
310.5
 20
97.449994
 30
0.0
 11
288.0
 21
97.449994
 31
0.0
  0
LINE
  5
1C734
  8
DANMEN
  6
CONTINUOUS
 10
307.999997
 20
120.55
 30
0.0
 11
298.3
 21
120.55
 31
0.0
  0
LINE
  5
1C735
  8
DANMEN
  6
CONTINUOUS
 10
288.0
 20
104.999997
 30
0.0
 11
301.0
 21
104.999997
 31
0.0
  0
LINE
  5
1C736
  8
DANMEN
  6
CONTINUOUS
 10
301.0
 20
104.999997
 30
0.0
 11
288.0
 21
114.999997
 31
0.0
  0
LINE
  5
1C737
  8
DANMEN
  6
CONTINUOUS
 10
288.0
 20
114.999997
 30
0.0
 11
301.0
 21
114.999997
 31
0.0
  0
LINE
  5
1C738
  8
DANMEN
  6
CONTINUOUS
 10
274.949997
 20
97.449994
 30
0.0
 11
274.949997
 21
119.55
 31
0.0
  0
LINE
  5
1C739
  8
DANMEN
  6
CONTINUOUS
 10
286.050003
 20
97.449994
 30
0.0
 11
286.050003
 21
120.55
 31
0.0
  0
LINE
  5
1C73A
  8
DANMEN
  6
CONTINUOUS
 10
288.0
 20
97.449994
 30
0.0
 11
288.0
 21
115.799991
 31
0.0
  0
LINE
  5
1C73B
  8
DANMEN
  6
CONTINUOUS
 10
286.050003
 20
97.449994
 30
0.0
 11
274.949997
 21
97.449994
 31
0.0
  0
LINE
  5
1C73C
  8
DANMEN
  6
CONTINUOUS
 10
275.0
 20
95.499997
 30
0.0
 11
275.5
 21
77.999792
 31
0.0
  0
LINE
  5
1C73D
  8
DANMEN
  6
CONTINUOUS
 10
286.050003
 20
120.55
 30
0.0
 11
274.649997
 21
120.55
 31
0.0
  0
LINE
  5
1C73E
  8
DANMEN
  6
CONTINUOUS
 10
274.649997
 20
119.55
 30
0.0
 11
274.649997
 21
120.55
 31
0.0
  0
LINE
  5
1C73F
  8
DANMEN
  6
CONTINUOUS
 10
274.949997
 20
119.55
 30
0.0
 11
274.649997
 21
119.55
 31
0.0
  0
LINE
  5
1C740
  8
DANMEN
  6
CONTINUOUS
 10
292.0
 20
116.999991
 30
0.0
 11
293.598058
 21
116.680379
 31
0.0
  0
LINE
  5
1C741
  8
DANMEN
  6
CONTINUOUS
 10
294.0
 20
115.799991
 30
0.0
 11
288.0
 21
115.799991
 31
0.0
  0
LINE
  5
1C742
  8
DANMEN
  6
CONTINUOUS
 10
294.0
 20
120.549997
 30
0.0
 11
288.0
 21
120.549997
 31
0.0
  0
LINE
  5
1C743
  8
DANMEN
  6
CONTINUOUS
 10
293.413121
 20
120.301883
 30
0.0
 11
290.436094
 21
118.098292
 31
0.0
  0
LINE
  5
1C744
  8
DANMEN
  6
CONTINUOUS
 10
293.401083
 20
118.8
 30
0.0
 11
290.699105
 21
116.8
 31
0.0
  0
LINE
  5
1C745
  8
DANMEN
  6
CONTINUOUS
 10
292.0
 20
116.999991
 30
0.0
 11
288.0
 21
116.999991
 31
0.0
  0
LINE
  5
1C746
  8
DANMEN
  6
CONTINUOUS
 10
288.0
 20
116.999991
 30
0.0
 11
288.0
 21
120.549997
 31
0.0
  0
ARC
  5
1C747
  8
DANMEN
  6
CONTINUOUS
 10
289.24247
 20
118.400136
 30
0.0
 40
0.5
 50
34.702622
 51
90.0
  0
ARC
  5
1C748
  8
DANMEN
  6
CONTINUOUS
 10
290.257611
 20
118.339422
 30
0.0
 40
0.3
 50
214.702622
 51
306.508792
  0
LINE
  5
1C749
  8
DANMEN
  6
CONTINUOUS
 10
289.653529
 20
118.684794
 30
0.0
 11
290.010975
 21
118.168627
 31
0.0
  0
ARC
  5
1C74A
  8
DANMEN
  6
CONTINUOUS
 10
288.999105
 20
118.400136
 30
0.0
 40
0.5
 50
90.0
 51
180.0
  0
ARC
  5
1C74B
  8
DANMEN
  6
CONTINUOUS
 10
288.999105
 20
118.400266
 30
0.0
 40
0.5
 50
180.0
 51
214.702622
  0
LINE
  5
1C74C
  8
DANMEN
  6
CONTINUOUS
 10
288.999105
 20
118.900136
 30
0.0
 11
289.24247
 21
118.900136
 31
0.0
  0
LINE
  5
1C74D
  8
DANMEN
  6
CONTINUOUS
 10
288.499105
 20
118.400266
 30
0.0
 11
288.499105
 21
118.400136
 31
0.0
  0
LINE
  5
1C74E
  8
DANMEN
  6
CONTINUOUS
 10
288.588046
 20
118.115608
 30
0.0
 11
289.499105
 21
116.8
 31
0.0
  0
LINE
  5
1C74F
  8
DANMEN
  6
CONTINUOUS
 10
290.699105
 20
116.8
 30
0.0
 11
289.499105
 21
116.8
 31
0.0
  0
LINE
  5
1C750
  8
DANMEN
  6
CONTINUOUS
 10
297.3
 20
118.8
 30
0.0
 11
293.401083
 21
118.8
 31
0.0
  0
ARC
  5
1C751
  8
DANMEN
  6
CONTINUOUS
 10
293.5
 20
116.190089
 30
0.0
 40
0.5
 50
0.0
 51
78.690068
  0
LINE
  5
1C752
  8
DANMEN
  6
CONTINUOUS
 10
294.0
 20
116.190089
 30
0.0
 11
294.0
 21
115.799991
 31
0.0
  0
LINE
  5
1C753
  8
DANMEN
  6
CONTINUOUS
 10
294.3
 20
119.999997
 30
0.0
 11
295.003755
 21
119.999997
 31
0.0
  0
ARC
  5
1C754
  8
DANMEN
  6
CONTINUOUS
 10
295.5
 20
120.792196
 30
0.0
 40
0.5
 50
299.396173
 51
0.0
  0
LINE
  5
1C755
  8
DANMEN
  6
CONTINUOUS
 10
295.003755
 20
119.999997
 30
0.0
 11
295.745423
 21
120.356572
 31
0.0
  0
LINE
  5
1C756
  8
DANMEN
  6
CONTINUOUS
 10
294.0
 20
120.299997
 30
0.0
 11
294.0
 21
120.549997
 31
0.0
  0
ARC
  5
1C757
  8
DANMEN
  6
CONTINUOUS
 10
294.3
 20
120.299997
 30
0.0
 40
0.3
 50
180.0
 51
270.0
  0
ARC
  5
1C759
  8
DANMEN
  6
CONTINUOUS
 10
293.734315
 20
120.1
 30
0.0
 40
0.3
 50
19.471221
 51
90.0
  0
ARC
  5
1C75B
  8
DANMEN
  6
CONTINUOUS
 10
294.3
 20
120.3
 30
0.0
 40
0.3
 50
199.471221
 51
270.0
  0
ARC
  5
1C75C
  8
DANMEN
  6
CONTINUOUS
 10
293.710594
 20
119.9
 30
0.0
 40
0.5
 50
90.0
 51
126.508792
  0
LINE
  5
1C75D
  8
DANMEN
  6
CONTINUOUS
 10
293.734315
 20
120.4
 30
0.0
 11
293.710594
 21
120.4
 31
0.0
  0
LINE
  5
1C75E
  8
DANMEN
  6
CONTINUOUS
 10
296.3
 20
121.0
 30
0.0
 11
296.0
 21
121.0
 31
0.0
  0
LINE
  5
1C75F
  8
DANMEN
  6
CONTINUOUS
 10
296.3
 20
121.0
 30
0.0
 11
296.3
 21
120.0
 31
0.0
  0
LINE
  5
1C760
  8
DANMEN
  6
CONTINUOUS
 10
296.3
 20
120.0
 30
0.0
 11
294.3
 21
120.0
 31
0.0
  0
ARC
  5
1C761
  8
DANMEN
  6
CONTINUOUS
 10
297.3
 20
119.3
 30
0.0
 40
0.5
 50
270.0
 51
0.0
  0
LINE
  5
1C762
  8
DANMEN
  6
CONTINUOUS
 10
297.8
 20
120.05
 30
0.0
 11
297.8
 21
119.3
 31
0.0
  0
ARC
  5
1C763
  8
DANMEN
  6
CONTINUOUS
 10
298.3
 20
120.05
 30
0.0
 40
0.5
 50
90.0
 51
180.0
  0
LINE
  5
1C764
  8
DANMEN
  6
CONTINUOUS
 10
310.5
 20
97.449994
 30
0.0
 11
310.5
 21
98.499997
 31
0.0
  0
LINE
  5
1C765
  8
DANMEN
  6
CONTINUOUS
 10
311.0
 20
95.499997
 30
0.0
 11
310.5
 21
77.999792
 31
0.0
  0
ARC
  5
1C766
  8
DANMEN
  6
CONTINUOUS
 10
317.000002
 20
116.499991
 30
0.0
 40
1.5
 50
180.000012
 51
269.999994
  0
ARC
  5
1C767
  8
DANMEN
  6
CONTINUOUS
 10
317.000001
 20
103.499987
 30
0.0
 40
1.5
 50
90.00003
 51
180.000012
  0
LINE
  5
1C768
  8
DANMEN
  6
CONTINUOUS
 10
301.000002
 20
104.999997
 30
0.0
 11
301.000002
 21
114.999997
 31
0.0
  0
LINE
  5
1C769
  8
DANMEN
  6
CONTINUOUS
 10
310.5
 20
98.499997
 30
0.0
 11
308.401942
 21
98.919609
 31
0.0
  0
LINE
  5
1C76A
  8
DANMEN
  6
CONTINUOUS
 10
312.5
 20
99.999997
 30
0.0
 11
308.0
 21
99.999997
 31
0.0
  0
ARC
  5
1C76B
  8
DANMEN
  6
CONTINUOUS
 10
308.5
 20
99.409899
 30
0.0
 40
0.5
 50
180.0
 51
258.690068
  0
LINE
  5
1C76C
  8
DANMEN
  6
CONTINUOUS
 10
308.0
 20
99.999997
 30
0.0
 11
308.0
 21
99.409899
 31
0.0
  0
ARC
  5
1C76E
  8
DANMEN
  6
CONTINUOUS
 10
312.5
 20
99.499997
 30
0.0
 40
0.5
 50
0.000019
 51
89.999982
  0
LINE
  5
1C771
  8
DANMEN
  6
CONTINUOUS
 10
313.000001
 20
98.999997
 30
0.0
 11
314.000001
 21
98.999997
 31
0.0
  0
LINE
  5
1C772
  8
DANMEN
  6
CONTINUOUS
 10
315.500001
 20
103.499987
 30
0.0
 11
315.500001
 21
100.499997
 31
0.0
  0
ARC
  5
1C773
  8
DANMEN
  6
CONTINUOUS
 10
314.000001
 20
100.499997
 30
0.0
 40
1.5
 50
269.999994
 51
359.999977
  0
LINE
  5
1C774
  8
DANMEN
  6
CONTINUOUS
 10
308.999997
 20
120.0
 30
0.0
 11
307.999997
 21
120.0
 31
0.0
  0
LINE
  5
1C778
  8
DANMEN
  6
CONTINUOUS
 10
307.999997
 20
120.55
 30
0.0
 11
307.999997
 21
120.0
 31
0.0
  0
ARC
  5
1C77A
  8
DANMEN
  6
CONTINUOUS
 10
312.499997
 20
120.5
 30
0.0
 40
0.5
 50
270.0
 51
0.0
  0
LINE
  5
1C77B
  8
DANMEN
  6
CONTINUOUS
 10
312.499996
 20
120.0
 30
0.0
 11
309.999997
 21
120.0
 31
0.0
  0
LINE
  5
1C77C
  8
DANMEN
  6
CONTINUOUS
 10
308.999997
 20
120.05
 30
0.0
 11
308.999997
 21
120.0
 31
0.0
  0
LINE
  5
1C77D
  8
DANMEN
  6
CONTINUOUS
 10
309.999997
 20
120.55
 30
0.0
 11
309.499997
 21
120.55
 31
0.0
  0
LINE
  5
1C77E
  8
DANMEN
  6
CONTINUOUS
 10
309.999997
 20
120.55
 30
0.0
 11
309.999997
 21
120.0
 31
0.0
  0
ARC
  5
1C77F
  8
DANMEN
  6
CONTINUOUS
 10
309.499997
 20
120.05
 30
0.0
 40
0.5
 50
90.0
 51
180.0
  0
LINE
  5
1C781
  8
DANMEN
  6
CONTINUOUS
 10
313.000003
 20
120.999997
 30
0.0
 11
314.000003
 21
120.999997
 31
0.0
  0
LINE
  5
1C782
  8
DANMEN
  6
CONTINUOUS
 10
315.500003
 20
119.499997
 30
0.0
 11
315.500002
 21
116.499991
 31
0.0
  0
LINE
  5
1C783
  8
SUNPO
  6
CONTINUOUS
 10
22.0
 20
27.5
 30
0.0
 11
22.0
 21
36.5
 31
0.0
  0
LINE
  5
1C784
  8
SUNPO
  6
CONTINUOUS
 10
42.0
 20
35.0
 30
0.0
 11
42.0
 21
17.5
 31
0.0
  0
LINE
  5
1C785
  8
SUNPO
  6
CONTINUOUS
 10
52.5
 20
27.5
 30
0.0
 11
22.0
 21
27.5
 31
0.0
  0
ARC
  5
1C786
  8
SUNPO
  6
BYBLOCK
 10
22.0
 20
27.5
 30
0.0
 40
0.145
 50
270.0
 51
90.0
  0
ARC
  5
1C787
  8
SUNPO
  6
BYBLOCK
 10
22.0
 20
27.5
 30
0.0
 40
0.145
 50
90.0
 51
270.0
  0
TEXT
  5
1C788
  8
SUNPO
  6
CONTINUOUS
 10
46.333333
 20
18.5
 30
0.0
 40
2.5
  1
12
  7
MX_NOTE_STANDARD
  0
LINE
  5
1C789
  8
SUNPO
  6
CONTINUOUS
 10
42.0
 20
17.5
 30
0.0
 11
54.0
 21
17.5
 31
0.0
  0
ARC
  5
1C78A
  8
SUNPO
  6
BYBLOCK
 10
42.0
 20
17.5
 30
0.0
 40
0.145
 50
180.0
 51
0.0
  0
ARC
  5
1C78B
  8
SUNPO
  6
BYBLOCK
 10
42.0
 20
17.5
 30
0.0
 40
0.145
 50
0.0
 51
180.0
  0
LINE
  5
1C78C
  8
SUNPO
  6
CONTINUOUS
 10
54.0
 20
26.0
 30
0.0
 11
54.0
 21
17.5
 31
0.0
  0
ARC
  5
1C78D
  8
SUNPO
  6
BYBLOCK
 10
54.0
 20
17.5
 30
0.0
 40
0.145
 50
0.0
 51
180.0
  0
ARC
  5
1C78E
  8
SUNPO
  6
BYBLOCK
 10
54.0
 20
17.5
 30
0.0
 40
0.145
 50
180.0
 51
0.0
  0
LINE
  5
1C78F
  8
DANMEN
  6
CONTINUOUS
 10
373.0
 20
95.499994
 30
0.0
 11
358.5
 21
95.499994
 31
0.0
  0
LINE
  5
1C790
  8
DANMEN
  6
CONTINUOUS
 10
374.15
 20
97.149991
 30
0.0
 11
359.2
 21
97.149991
 31
0.0
  0
LINE
  5
1C791
  8
DANMEN
  6
CONTINUOUS
 10
363.000003
 20
120.55
 30
0.0
 11
372.7
 21
120.55
 31
0.0
  0
LINE
  5
1C792
  8
DANMEN
  6
CONTINUOUS
 10
339.5
 20
91.5
 30
0.0
 11
373.0
 21
91.5
 31
0.0
  0
LINE
  5
1C793
  8
DANMEN
  6
CONTINUOUS
 10
339.5
 20
93.15
 30
0.0
 11
373.0
 21
93.15
 31
0.0
  0
LINE
  5
1C794
  8
DANMEN
  6
CONTINUOUS
 10
370.000001
 20
104.999997
 30
0.0
 11
339.5
 21
104.999997
 31
0.0
  0
LINE
  5
1C795
  8
DANMEN
  6
CONTINUOUS
 10
370.000001
 20
114.999997
 30
0.0
 11
352.35104
 21
114.999997
 31
0.0
  0
LINE
  5
1C796
  8
DANMEN
  6
CONTINUOUS
 10
370.000001
 20
114.499997
 30
0.0
 11
352.263872
 21
114.499997
 31
0.0
  0
LINE
  5
1C797
  8
DANMEN
  6
CONTINUOUS
 10
370.000001
 20
105.499997
 30
0.0
 11
339.5
 21
105.499997
 31
0.0
  0
LINE
  5
1C798
  8
DANMEN
  6
CONTINUOUS
 10
358.0
 20
95.999994
 30
0.0
 11
358.0
 21
99.499994
 31
0.0
  0
LINE
  5
1C799
  8
DANMEN
  6
CONTINUOUS
 10
359.2
 20
97.149991
 30
0.0
 11
359.2
 21
98.999994
 31
0.0
  0
LINE
  5
1C79A
  8
DANMEN
  6
CONTINUOUS
 10
339.5
 20
97.6
 30
0.0
 11
349.176704
 21
97.6
 31
0.0
  0
LINE
  5
1C79B
  8
DANMEN
  6
CONTINUOUS
 10
352.176704
 20
97.6
 30
0.0
 11
358.0
 21
97.6
 31
0.0
  0
ARC
  5
1C79C
  8
DANMEN
  6
CONTINUOUS
 10
358.5
 20
95.999994
 30
0.0
 40
0.5
 50
180.0
 51
270.0
  0
LINE
  5
1C79D
  8
DANMEN
  6
CONTINUOUS
 10
339.5
 20
99.0
 30
0.0
 11
349.176704
 21
99.0
 31
0.0
  0
LINE
  5
1C79E
  8
DANMEN
  6
CONTINUOUS
 10
349.35104
 20
114.999997
 30
0.0
 11
339.5
 21
114.999997
 31
0.0
  0
LINE
  5
1C79F
  8
DANMEN
  6
CONTINUOUS
 10
349.263872
 20
114.499997
 30
0.0
 11
339.5
 21
114.499997
 31
0.0
  0
LINE
  5
1C7A0
  8
DANMEN
  6
CONTINUOUS
 10
358.000001
 20
98.999997
 30
0.0
 11
357.000001
 21
98.999997
 31
0.0
  0
LINE
  5
1C7A1
  8
DANMEN
  6
CONTINUOUS
 10
352.176704
 20
99.0
 30
0.0
 11
358.0
 21
99.0
 31
0.0
  0
ARC
  5
1C7A2
  8
DANMEN
  6
CONTINUOUS
 10
354.000001
 20
103.500003
 30
0.0
 40
1.5
 50
0.000018
 51
90.0
  0
ARC
  5
1C7A4
  8
DANMEN
  6
CONTINUOUS
 10
357.000001
 20
100.499997
 30
0.0
 40
1.5
 50
179.999999
 51
270.000036
  0
LINE
  5
1C7A5
  8
DANMEN
  6
CONTINUOUS
 10
355.500001
 20
100.499997
 30
0.0
 11
355.500001
 21
103.500003
 31
0.0
  0
LINE
  5
1C7A6
  8
DANMEN
  6
CONTINUOUS
 10
358.5
 20
99.999994
 30
0.0
 11
363.0
 21
99.999994
 31
0.0
  0
LINE
  5
1C7A7
  8
DANMEN
  6
CONTINUOUS
 10
359.2
 20
98.999994
 30
0.0
 11
362.5
 21
98.999994
 31
0.0
  0
ARC
  5
1C7A8
  8
DANMEN
  6
CONTINUOUS
 10
358.5
 20
99.499994
 30
0.0
 40
0.5
 50
90.000018
 51
179.999981
  0
LINE
  5
1C7A9
  8
DANMEN
  6
CONTINUOUS
 10
363.0
 20
99.499994
 30
0.0
 11
363.0
 21
99.999994
 31
0.0
  0
ARC
  5
1C7AA
  8
DANMEN
  6
CONTINUOUS
 10
362.5
 20
99.499994
 30
0.0
 40
0.5
 50
270.0
 51
0.0
  0
LINE
  5
1C7AB
  8
DANMEN
  6
CONTINUOUS
 10
358.000001
 20
120.999997
 30
0.0
 11
357.000001
 21
120.999997
 31
0.0
  0
ARC
  5
1C7AC
  8
DANMEN
  6
CONTINUOUS
 10
354.000001
 20
116.500006
 30
0.0
 40
1.5
 50
270.000036
 51
0.000018
  0
LINE
  5
1C7AE
  8
DANMEN
  6
CONTINUOUS
 10
355.500001
 20
116.500006
 30
0.0
 11
355.500001
 21
119.499997
 31
0.0
  0
ARC
  5
1C7B0
  8
DANMEN
  6
CONTINUOUS
 10
361.500003
 20
120.05
 30
0.0
 40
0.5
 50
0.0
 51
90.0
  0
LINE
  5
1C7B1
  8
DANMEN
  6
CONTINUOUS
 10
358.500004
 20
120.0
 30
0.0
 11
361.000003
 21
120.0
 31
0.0
  0
ARC
  5
1C7B2
  8
DANMEN
  6
CONTINUOUS
 10
358.500003
 20
120.5
 30
0.0
 40
0.5
 50
180.0
 51
270.0
  0
LINE
  5
1C7B3
  8
DANMEN
  6
CONTINUOUS
 10
361.000003
 20
120.55
 30
0.0
 11
361.500003
 21
120.55
 31
0.0
  0
LINE
  5
1C7B4
  8
DANMEN
  6
CONTINUOUS
 10
361.000003
 20
120.55
 30
0.0
 11
361.000003
 21
120.0
 31
0.0
  0
LINE
  5
1C7B6
  8
DANMEN
  6
CONTINUOUS
 10
363.000003
 20
120.55
 30
0.0
 11
363.000003
 21
120.0
 31
0.0
  0
LINE
  5
1C7B7
  8
DANMEN
  6
CONTINUOUS
 10
362.000003
 20
120.05
 30
0.0
 11
362.000003
 21
120.0
 31
0.0
  0
LINE
  5
1C7B8
  8
DANMEN
  6
CONTINUOUS
 10
362.000003
 20
120.0
 30
0.0
 11
363.000003
 21
120.0
 31
0.0
  0
LINE
  5
1C7B9
  8
DANMEN
  6
CONTINUOUS
 10
388.0
 20
120.849994
 30
0.0
 11
388.0
 21
92.699997
 31
0.0
  0
LINE
  5
1C7BA
  8
DANMEN
  6
CONTINUOUS
 10
386.0
 20
93.149994
 30
0.0
 11
374.65
 21
93.149994
 31
0.0
  0
LINE
  5
1C7BB
  8
DANMEN
  6
CONTINUOUS
 10
397.5
 20
91.5
 30
0.0
 11
373.5
 21
91.5
 31
0.0
  0
ARC
  5
1C7BC
  8
DANMEN
  6
CONTINUOUS
 10
374.15
 20
96.649991
 30
0.0
 40
0.5
 50
0.0
 51
90.0
  0
ARC
  5
1C7BD
  8
DANMEN
  6
CONTINUOUS
 10
373.5
 20
92.0
 30
0.0
 40
0.5
 50
179.999981
 51
269.999963
  0
LINE
  5
1C7BF
  8
DANMEN
  6
CONTINUOUS
 10
373.0
 20
92.0
 30
0.0
 11
373.0
 21
95.499994
 31
0.0
  0
LINE
  5
1C7C0
  8
DANMEN
  6
CONTINUOUS
 10
374.65
 20
93.149994
 30
0.0
 11
374.65
 21
96.649991
 31
0.0
  0
LINE
  5
1C7C1
  8
DANMEN
  6
CONTINUOUS
 10
396.350006
 20
93.149994
 30
0.0
 11
389.649994
 21
93.149994
 31
0.0
  0
LINE
  5
1C7C2
  8
DANMEN
  6
CONTINUOUS
 10
388.0
 20
92.699997
 30
0.0
 11
386.0
 21
92.699997
 31
0.0
  0
LINE
  5
1C7C3
  8
DANMEN
  6
CONTINUOUS
 10
386.0
 20
92.699997
 30
0.0
 11
386.0
 21
93.149994
 31
0.0
  0
ARC
  5
1C7C4
  8
DANMEN
  6
CONTINUOUS
 10
397.5
 20
92.0
 30
0.0
 40
0.5
 50
270.000018
 51
359.999981
  0
LINE
  5
1C7C5
  8
DANMEN
  6
CONTINUOUS
 10
397.5
 20
97.5
 30
0.0
 11
396.850006
 21
97.5
 31
0.0
  0
LINE
  5
1C7C6
  8
DANMEN
  6
CONTINUOUS
 10
398.0
 20
97.0
 30
0.0
 11
398.0
 21
92.0
 31
0.0
  0
LINE
  5
1C7C7
  8
DANMEN
  6
CONTINUOUS
 10
396.350006
 20
97.0
 30
0.0
 11
396.350006
 21
93.149994
 31
0.0
  0
ARC
  5
1C7C8
  8
DANMEN
  6
CONTINUOUS
 10
396.850006
 20
97.0
 30
0.0
 40
0.5
 50
90.000037
 51
180.000019
  0
ARC
  5
1C7C9
  8
DANMEN
  6
CONTINUOUS
 10
397.5
 20
97.0
 30
0.0
 40
0.5
 50
359.999981
 51
90.000037
  0
LINE
  5
1C7CA
  8
DANMEN
  6
CONTINUOUS
 10
379.0
 20
116.999988
 30
0.0
 11
383.0
 21
116.999988
 31
0.0
  0
LINE
  5
1C7CB
  8
DANMEN
  6
CONTINUOUS
 10
377.0
 20
120.849994
 30
0.0
 11
383.0
 21
120.849994
 31
0.0
  0
LINE
  5
1C7CC
  8
DANMEN
  6
CONTINUOUS
 10
377.0
 20
115.799988
 30
0.0
 11
383.3
 21
115.799988
 31
0.0
  0
ARC
  5
1C7CD
  8
DANMEN
  6
CONTINUOUS
 10
382.000895
 20
118.400136
 30
0.0
 40
0.5
 50
0.0
 51
90.0
  0
ARC
  5
1C7CE
  8
DANMEN
  6
CONTINUOUS
 10
382.000895
 20
118.400266
 30
0.0
 40
0.5
 50
325.297378
 51
0.0
  0
LINE
  5
1C7CF
  8
DANMEN
  6
CONTINUOUS
 10
370.000001
 20
114.999997
 30
0.0
 11
370.000001
 21
104.999997
 31
0.0
  0
LINE
  5
1C7D1
  8
DANMEN
  6
CONTINUOUS
 10
373.7
 20
118.8
 30
0.0
 11
377.598917
 21
118.8
 31
0.0
  0
ARC
  5
1C7D5
  8
DANMEN
  6
CONTINUOUS
 10
373.7
 20
119.3
 30
0.0
 40
0.5
 50
180.0
 51
270.0
  0
LINE
  5
1C7D6
  8
DANMEN
  6
CONTINUOUS
 10
373.2
 20
120.05
 30
0.0
 11
373.2
 21
119.3
 31
0.0
  0
ARC
  5
1C7D7
  8
DANMEN
  6
CONTINUOUS
 10
372.7
 20
120.05
 30
0.0
 40
0.5
 50
0.0
 51
90.0
  0
LINE
  5
1C7D8
  8
DANMEN
  6
CONTINUOUS
 10
379.0
 20
116.999988
 30
0.0
 11
377.401942
 21
116.680376
 31
0.0
  0
LINE
  5
1C7D9
  8
DANMEN
  6
CONTINUOUS
 10
377.586879
 20
120.301883
 30
0.0
 11
380.563906
 21
118.098292
 31
0.0
  0
LINE
  5
1C7DA
  8
DANMEN
  6
CONTINUOUS
 10
377.598917
 20
118.8
 30
0.0
 11
380.300895
 21
116.8
 31
0.0
  0
LINE
  5
1C7DB
  8
DANMEN
  6
CONTINUOUS
 10
375.808854
 20
120.105567
 30
0.0
 11
375.254577
 21
120.356569
 31
0.0
  0
ARC
  5
1C7DC
  8
DANMEN
  6
CONTINUOUS
 10
377.5
 20
116.190086
 30
0.0
 40
0.5
 50
101.309932
 51
180.0
  0
LINE
  5
1C7DD
  8
DANMEN
  6
CONTINUOUS
 10
377.0
 20
116.190086
 30
0.0
 11
377.0
 21
115.799988
 31
0.0
  0
ARC
  5
1C7DE
  8
DANMEN
  6
CONTINUOUS
 10
376.7
 20
120.299994
 30
0.0
 40
0.3
 50
270.0
 51
0.0
  0
LINE
  5
1C7DF
  8
DANMEN
  6
CONTINUOUS
 10
377.0
 20
120.299994
 30
0.0
 11
377.0
 21
120.849994
 31
0.0
  0
ARC
  5
1C7E0
  8
DANMEN
  6
CONTINUOUS
 10
376.256068
 20
120.999994
 30
0.0
 40
1.0
 50
243.434949
 51
270.0
  0
LINE
  5
1C7E1
  8
DANMEN
  6
CONTINUOUS
 10
376.7
 20
119.999994
 30
0.0
 11
376.256068
 21
119.999994
 31
0.0
  0
ARC
  5
1C7E2
  8
DANMEN
  6
CONTINUOUS
 10
375.5
 20
120.792193
 30
0.0
 40
0.5
 50
180.0
 51
240.603827
  0
ARC
  5
1C7E4
  8
DANMEN
  6
CONTINUOUS
 10
377.265685
 20
120.1
 30
0.0
 40
0.3
 50
90.0
 51
160.528779
  0
ARC
  5
1C7E6
  8
DANMEN
  6
CONTINUOUS
 10
376.7
 20
120.3
 30
0.0
 40
0.3
 50
270.0
 51
340.528779
  0
ARC
  5
1C7E7
  8
DANMEN
  6
CONTINUOUS
 10
377.289406
 20
119.9
 30
0.0
 40
0.5
 50
53.491208
 51
90.0
  0
LINE
  5
1C7E8
  8
DANMEN
  6
CONTINUOUS
 10
377.265685
 20
120.4
 30
0.0
 11
377.289406
 21
120.4
 31
0.0
  0
LINE
  5
1C7E9
  8
DANMEN
  6
CONTINUOUS
 10
374.7
 20
121.0
 30
0.0
 11
375.0
 21
121.0
 31
0.0
  0
LINE
  5
1C7EA
  8
DANMEN
  6
CONTINUOUS
 10
374.7
 20
121.0
 30
0.0
 11
374.7
 21
120.0
 31
0.0
  0
LINE
  5
1C7EB
  8
DANMEN
  6
CONTINUOUS
 10
374.7
 20
120.0
 30
0.0
 11
376.7
 21
120.0
 31
0.0
  0
ARC
  5
1C7EC
  8
DANMEN
  6
CONTINUOUS
 10
381.75753
 20
118.400136
 30
0.0
 40
0.5
 50
90.0
 51
145.297378
  0
ARC
  5
1C7ED
  8
DANMEN
  6
CONTINUOUS
 10
380.742389
 20
118.339422
 30
0.0
 40
0.3
 50
233.491208
 51
325.297378
  0
LINE
  5
1C7EE
  8
DANMEN
  6
CONTINUOUS
 10
381.346471
 20
118.684794
 30
0.0
 11
380.989025
 21
118.168627
 31
0.0
  0
LINE
  5
1C7EF
  8
DANMEN
  6
CONTINUOUS
 10
382.000895
 20
118.900136
 30
0.0
 11
381.75753
 21
118.900136
 31
0.0
  0
LINE
  5
1C7F0
  8
DANMEN
  6
CONTINUOUS
 10
382.411954
 20
118.115608
 30
0.0
 11
381.500895
 21
116.8
 31
0.0
  0
LINE
  5
1C7F1
  8
DANMEN
  6
CONTINUOUS
 10
380.300895
 20
116.8
 30
0.0
 11
381.500895
 21
116.8
 31
0.0
  0
LINE
  5
1C7F2
  8
DANMEN
  6
CONTINUOUS
 10
388.0
 20
120.849994
 30
0.0
 11
384.3
 21
120.849994
 31
0.0
  0
ARC
  5
1C7F4
  8
DANMEN
  6
CONTINUOUS
 10
383.3
 20
116.799988
 30
0.0
 40
1.0
 50
270.0
 51
0.0
  0
LINE
  5
1C7F5
  8
DANMEN
  6
CONTINUOUS
 10
384.3
 20
116.799988
 30
0.0
 11
384.3
 21
120.849994
 31
0.0
  0
LINE
  5
1C7F6
  8
DANMEN
  6
CONTINUOUS
 10
383.0
 20
116.999988
 30
0.0
 11
383.0
 21
120.849994
 31
0.0
  0
LINE
  5
1C7F7
  8
DANMEN
  6
CONTINUOUS
 10
382.500895
 20
118.400266
 30
0.0
 11
382.500895
 21
118.400136
 31
0.0
  0
LINE
  5
1C7F9
  8
SUNPO
  6
CONTINUOUS
 10
40.5
 20
36.5
 30
0.0
 11
22.0
 21
36.5
 31
0.0
  0
LINE
  5
1C7FA
  8
SUNPO
  6
CONTINUOUS
 10
40.5
 20
56.5
 30
0.0
 11
22.0
 21
56.5
 31
0.0
  0
LINE
  5
1C7FB
  8
SUNPO
  6
CONTINUOUS
 10
22.0
 20
36.5
 30
0.0
 11
22.0
 21
56.5
 31
0.0
  0
TEXT
  5
1C7FC
  8
SUNPO
  6
CONTINUOUS
 10
21.0
 20
31.166667
 30
0.0
 40
2.5
  1
9
 50
90.0
  7
MX_NOTE_STANDARD
  0
ARC
  5
1C7FD
  8
SUNPO
  6
BYBLOCK
 10
22.0
 20
36.5
 30
0.0
 40
0.145
 50
270.0
 51
90.0
  0
ARC
  5
1C7FE
  8
SUNPO
  6
BYBLOCK
 10
22.0
 20
36.5
 30
0.0
 40
0.145
 50
90.0
 51
270.0
  0
ARC
  5
1C7FF
  8
SUNPO
  6
BYBLOCK
 10
22.0
 20
36.5
 30
0.0
 40
0.145
 50
90.0
 51
270.0
  0
ARC
  5
1C800
  8
SUNPO
  6
BYBLOCK
 10
22.0
 20
36.5
 30
0.0
 40
0.145
 50
270.0
 51
90.0
  0
TEXT
  5
1C801
  8
SUNPO
  6
CONTINUOUS
 10
21.0
 20
44.625
 30
0.0
 40
2.5
  1
20
 50
90.0
  7
MX_NOTE_STANDARD
  0
TEXT
  5
1C802
  8
SUNPO
  6
CONTINUOUS
 10
31.0
 20
40.833333
 30
0.0
 40
2.5
  1
12
 50
90.0
  7
MX_NOTE_STANDARD
  0
ARC
  5
1C803
  8
SUNPO
  6
BYBLOCK
 10
22.0
 20
56.5
 30
0.0
 40
0.145
 50
90.0
 51
270.0
  0
ARC
  5
1C804
  8
SUNPO
  6
BYBLOCK
 10
22.0
 20
56.5
 30
0.0
 40
0.145
 50
270.0
 51
90.0
  0
ARC
  5
1C805
  8
SUNPO
  6
BYBLOCK
 10
22.0
 20
56.5
 30
0.0
 40
0.145
 50
270.0
 51
90.0
  0
ARC
  5
1C806
  8
SUNPO
  6
BYBLOCK
 10
22.0
 20
56.5
 30
0.0
 40
0.145
 50
90.0
 51
270.0
  0
TEXT
  5
1C807
  8
SUNPO
  6
CONTINUOUS
 10
31.0
 20
51.666667
 30
0.0
 40
2.5
  1
8
 50
90.0
  7
MX_NOTE_STANDARD
  0
TEXT
  5
1C808
  8
SUNPO
  6
CONTINUOUS
 10
31.0
 20
59.166667
 30
0.0
 40
2.5
  1
7
 50
90.0
  7
MX_NOTE_STANDARD
  0
LINE
  5
1C809
  8
SUNPO
  6
CONTINUOUS
 10
32.0
 20
48.5
 30
0.0
 11
32.0
 21
56.5
 31
0.0
  0
LINE
  5
1C80A
  8
SUNPO
  6
CONTINUOUS
 10
32.0
 20
48.5
 30
0.0
 11
32.0
 21
36.5
 31
0.0
  0
ARC
  5
1C80B
  8
SUNPO
  6
BYBLOCK
 10
32.0
 20
36.5
 30
0.0
 40
0.145
 50
270.0
 51
90.0
  0
ARC
  5
1C80C
  8
SUNPO
  6
BYBLOCK
 10
32.0
 20
36.5
 30
0.0
 40
0.145
 50
90.0
 51
270.0
  0
LINE
  5
1C80D
  8
SUNPO
  6
CONTINUOUS
 10
40.5
 20
48.5
 30
0.0
 11
32.0
 21
48.5
 31
0.0
  0
ARC
  5
1C80E
  8
SUNPO
  6
BYBLOCK
 10
32.0
 20
48.5
 30
0.0
 40
0.145
 50
90.0
 51
270.0
  0
ARC
  5
1C80F
  8
SUNPO
  6
BYBLOCK
 10
32.0
 20
48.5
 30
0.0
 40
0.145
 50
270.0
 51
90.0
  0
ARC
  5
1C810
  8
SUNPO
  6
BYBLOCK
 10
32.0
 20
48.5
 30
0.0
 40
0.145
 50
270.0
 51
90.0
  0
ARC
  5
1C811
  8
SUNPO
  6
BYBLOCK
 10
32.0
 20
48.5
 30
0.0
 40
0.145
 50
90.0
 51
270.0
  0
LINE
  5
1C812
  8
SUNPO
  6
CONTINUOUS
 10
32.0
 20
63.5
 30
0.0
 11
32.0
 21
56.5
 31
0.0
  0
ARC
  5
1C813
  8
SUNPO
  6
BYBLOCK
 10
32.0
 20
56.5
 30
0.0
 40
0.145
 50
90.0
 51
270.0
  0
ARC
  5
1C814
  8
SUNPO
  6
BYBLOCK
 10
32.0
 20
56.5
 30
0.0
 40
0.145
 50
270.0
 51
90.0
  0
ARC
  5
1C815
  8
SUNPO
  6
BYBLOCK
 10
32.0
 20
56.5
 30
0.0
 40
0.145
 50
270.0
 51
90.0
  0
ARC
  5
1C816
  8
SUNPO
  6
BYBLOCK
 10
32.0
 20
56.5
 30
0.0
 40
0.145
 50
90.0
 51
270.0
  0
LINE
  5
1C817
  8
SUNPO
  6
CONTINUOUS
 10
40.5
 20
63.5
 30
0.0
 11
32.0
 21
63.5
 31
0.0
  0
ARC
  5
1C818
  8
SUNPO
  6
BYBLOCK
 10
32.0
 20
63.5
 30
0.0
 40
0.145
 50
90.0
 51
270.0
  0
ARC
  5
1C819
  8
SUNPO
  6
BYBLOCK
 10
32.0
 20
63.5
 30
0.0
 40
0.145
 50
270.0
 51
90.0
  0
TEXT
  5
1C81A
  8
SUNPO
  6
CONTINUOUS
 10
21.0
 20
101.416667
 30
0.0
 40
2.5
  1
94
 50
90.0
  7
MX_NOTE_STANDARD
  0
LINE
  5
1C81B
  8
SUNPO
  6
CONTINUOUS
 10
213.0
 20
35.0
 30
0.0
 11
188.0
 21
35.0
 31
0.0
  0
LINE
  5
1C81C
  8
SUNPO
  6
CONTINUOUS
 10
198.0
 20
55.0
 30
0.0
 11
188.0
 21
55.0
 31
0.0
  0
LINE
  5
1C81D
  8
SUNPO
  6
CONTINUOUS
 10
163.0
 20
36.5
 30
0.0
 11
163.0
 21
27.5
 31
0.0
  0
ARC
  5
1C81E
  8
SUNPO
  6
BYBLOCK
 10
163.0
 20
27.5
 30
0.0
 40
0.145
 50
90.0
 51
270.0
  0
ARC
  5
1C81F
  8
SUNPO
  6
BYBLOCK
 10
163.0
 20
27.5
 30
0.0
 40
0.145
 50
270.0
 51
90.0
  0
LINE
  5
1C820
  8
SUNPO
  6
CONTINUOUS
 10
113.5
 20
61.5
 30
0.0
 11
153.0
 21
61.5
 31
0.0
  0
LINE
  5
1C821
  8
SUNPO
  6
CONTINUOUS
 10
113.5
 20
36.5
 30
0.0
 11
163.0
 21
36.5
 31
0.0
  0
LINE
  5
1C822
  8
SUNPO
  6
CONTINUOUS
 10
113.5
 20
96.5
 30
0.0
 11
163.0
 21
96.5
 31
0.0
  0
LINE
  5
1C823
  8
SUNPO
  6
CONTINUOUS
 10
153.0
 20
96.5
 30
0.0
 11
153.0
 21
61.5
 31
0.0
  0
LINE
  5
1C824
  8
SUNPO
  6
CONTINUOUS
 10
163.0
 20
96.5
 30
0.0
 11
163.0
 21
36.5
 31
0.0
  0
LINE
  5
1C825
  8
SUNPO
  6
CONTINUOUS
 10
188.0
 20
90.0
 30
0.0
 11
188.0
 21
35.0
 31
0.0
  0
ARC
  5
1C826
  8
SUNPO
  6
BYBLOCK
 10
163.0
 20
36.5
 30
0.0
 40
0.15625
 50
90.0
 51
270.0
  0
ARC
  5
1C827
  8
SUNPO
  6
BYBLOCK
 10
163.0
 20
36.5
 30
0.0
 40
0.145
 50
90.0
 51
270.0
  0
LINE
  5
1C828
  8
SUNPO
  6
CONTINUOUS
 10
153.0
 20
61.5
 30
0.0
 11
153.0
 21
36.5
 31
0.0
  0
ARC
  5
1C829
  8
SUNPO
  6
BYBLOCK
 10
153.0
 20
36.5
 30
0.0
 40
0.145
 50
270.0
 51
90.0
  0
ARC
  5
1C82A
  8
SUNPO
  6
BYBLOCK
 10
153.0
 20
36.5
 30
0.0
 40
0.145
 50
90.0
 51
270.0
  0
TEXT
  5
1C82B
  8
SUNPO
  6
CONTINUOUS
 10
162.0
 20
31.166667
 30
0.0
 40
2.5
  1
9
 50
90.0
  7
MX_NOTE_STANDARD
  0
TEXT
  5
1C82C
  8
SUNPO
  6
CONTINUOUS
 10
152.0
 20
46.916667
 30
0.0
 40
2.5
  1
25
 50
90.0
  7
MX_NOTE_STANDARD
  0
ARC
  5
1C82D
  8
SUNPO
  6
BYBLOCK
 10
153.0
 20
61.5
 30
0.0
 40
0.145
 50
270.0
 51
90.0
  0
ARC
  5
1C82E
  8
SUNPO
  6
BYBLOCK
 10
153.0
 20
61.5
 30
0.0
 40
0.145
 50
90.0
 51
270.0
  0
ARC
  5
1C82F
  8
SUNPO
  6
BYBLOCK
 10
153.0
 20
61.5
 30
0.0
 40
0.145
 50
90.0
 51
270.0
  0
ARC
  5
1C830
  8
SUNPO
  6
BYBLOCK
 10
153.0
 20
61.5
 30
0.0
 40
0.145
 50
270.0
 51
90.0
  0
TEXT
  5
1C831
  8
SUNPO
  6
CONTINUOUS
 10
162.0
 20
64.625
 30
0.0
 40
2.5
  1
60
 50
90.0
  7
MX_NOTE_STANDARD
  0
ARC
  5
1C832
  8
SUNPO
  6
BYBLOCK
 10
163.0
 20
36.5
 30
0.0
 40
0.15625
 50
270.0
 51
90.0
  0
ARC
  5
1C833
  8
SUNPO
  6
BYBLOCK
 10
163.0
 20
36.5
 30
0.0
 40
0.145
 50
270.0
 51
90.0
  0
ARC
  5
1C834
  8
SUNPO
  6
BYBLOCK
 10
188.0
 20
35.0
 30
0.0
 40
0.15625
 50
180.0
 51
0.0
  0
ARC
  5
1C835
  8
SUNPO
  6
BYBLOCK
 10
188.0
 20
35.0
 30
0.0
 40
0.15625
 50
0.0
 51
180.0
  0
TEXT
  5
1C836
  8
SUNPO
  6
CONTINUOUS
 10
191.541667
 20
56.0
 30
0.0
 40
2.5
  1
10
  7
MX_NOTE_STANDARD
  0
ARC
  5
1C837
  8
SUNPO
  6
BYBLOCK
 10
188.0
 20
55.0
 30
0.0
 40
0.145
 50
180.0
 51
0.0
  0
ARC
  5
1C838
  8
SUNPO
  6
BYBLOCK
 10
188.0
 20
55.0
 30
0.0
 40
0.145
 50
0.0
 51
180.0
  0
LINE
  5
1C839
  8
SUNPO
  6
CONTINUOUS
 10
158.0
 20
101.5
 30
0.0
 11
168.0
 21
101.5
 31
0.0
  0
LINE
  5
1C83A
  8
SUNPO
  6
CONTINUOUS
 10
163.0
 20
96.5
 30
0.0
 11
158.0
 21
101.5
 31
0.0
  0
TEXT
  5
1C83B
  8
SUNPO
  6
CONTINUOUS
 10
152.0
 20
76.916667
 30
0.0
 40
2.5
  1
35
 50
90.0
  7
MX_NOTE_STANDARD
  0
ARC
  5
1C83C
  8
SUNPO
  6
BYBLOCK
 10
153.0
 20
96.5
 30
0.0
 40
0.145
 50
90.0
 51
270.0
  0
ARC
  5
1C83D
  8
SUNPO
  6
BYBLOCK
 10
153.0
 20
96.5
 30
0.0
 40
0.145
 50
270.0
 51
90.0
  0
ARC
  5
1C83E
  8
SUNPO
  6
BYBLOCK
 10
153.0
 20
96.5
 30
0.0
 40
0.145
 50
270.0
 51
90.0
  0
ARC
  5
1C83F
  8
SUNPO
  6
BYBLOCK
 10
153.0
 20
96.5
 30
0.0
 40
0.145
 50
90.0
 51
270.0
  0
TEXT
  5
1C841
  8
SUNPO
  6
CONTINUOUS
 10
152.0
 20
115.416667
 30
0.0
 40
2.5
  1
42
 50
90.0
  7
MX_NOTE_STANDARD
  0
LINE
  5
1C842
  8
SUNPO
  6
CONTINUOUS
 10
168.0
 20
101.5
 30
0.0
 11
163.0
 21
96.5
 31
0.0
  0
LINE
  5
1C845
  8
SUNPO
  6
CONTINUOUS
 10
213.0
 20
35.0
 30
0.0
 11
282.978714
 21
35.0
 31
0.0
  0
LINE
  5
1C846
  8
SUNPO
  6
CONTINUOUS
 10
273.0
 20
47.0
 30
0.0
 11
213.0
 21
47.0
 31
0.0
  0
LINE
  5
1C847
  8
SUNPO
  6
CONTINUOUS
 10
251.0
 20
90.0
 30
0.0
 11
251.0
 21
55.0
 31
0.0
  0
LINE
  5
1C848
  8
SUNPO
  6
CONTINUOUS
 10
198.0
 20
90.0
 30
0.0
 11
198.0
 21
55.0
 31
0.0
  0
LINE
  5
1C849
  8
SUNPO
  6
CONTINUOUS
 10
213.0
 20
90.0
 30
0.0
 11
213.0
 21
35.0
 31
0.0
  0
LINE
  5
1C84A
  8
SUNPO
  6
CONTINUOUS
 10
251.0
 20
55.0
 30
0.0
 11
213.0
 21
55.0
 31
0.0
  0
TEXT
  5
1C84B
  8
SUNPO
  6
CONTINUOUS
 10
198.416667
 20
36.0
 30
0.0
 40
2.5
  1
25
  7
MX_NOTE_STANDARD
  0
LINE
  5
1C84C
  8
SUNPO
  6
CONTINUOUS
 10
218.0
 20
40.0
 30
0.0
 11
218.0
 21
30.0
 31
0.0
  0
LINE
  5
1C84D
  8
SUNPO
  6
CONTINUOUS
 10
213.0
 20
35.0
 30
0.0
 11
218.0
 21
40.0
 31
0.0
  0
LINE
  5
1C84E
  8
SUNPO
  6
CONTINUOUS
 10
218.0
 20
30.0
 30
0.0
 11
213.0
 21
35.0
 31
0.0
  0
LINE
  5
1C851
  8
SUNPO
  6
CONTINUOUS
 10
213.0
 20
47.0
 30
0.0
 11
222.111405
 21
50.31628
 31
0.0
  0
LINE
  5
1C855
  8
SUNPO
  6
CONTINUOUS
 10
222.111405
 20
50.31628
 30
0.0
 11
223.267949
 21
46.0
 31
0.0
  0
LINE
  5
1C857
  8
SUNPO
  6
CONTINUOUS
 10
213.0
 20
55.0
 30
0.0
 11
198.0
 21
55.0
 31
0.0
  0
TEXT
  5
1C858
  8
SUNPO
  6
CONTINUOUS
 10
203.833333
 20
56.0
 30
0.0
 40
2.5
  1
15
  7
MX_NOTE_STANDARD
  0
ARC
  5
1C859
  8
SUNPO
  6
BYBLOCK
 10
198.0
 20
55.0
 30
0.0
 40
0.145
 50
180.0
 51
0.0
  0
ARC
  5
1C85A
  8
SUNPO
  6
BYBLOCK
 10
198.0
 20
55.0
 30
0.0
 40
0.145
 50
0.0
 51
180.0
  0
ARC
  5
1C85B
  8
SUNPO
  6
BYBLOCK
 10
198.0
 20
55.0
 30
0.0
 40
0.145
 50
0.0
 51
180.0
  0
ARC
  5
1C85C
  8
SUNPO
  6
BYBLOCK
 10
198.0
 20
55.0
 30
0.0
 40
0.145
 50
180.0
 51
0.0
  0
ARC
  5
1C85D
  8
SUNPO
  6
BYBLOCK
 10
213.0
 20
55.0
 30
0.0
 40
0.145
 50
180.0
 51
0.0
  0
ARC
  5
1C85E
  8
SUNPO
  6
BYBLOCK
 10
213.0
 20
55.0
 30
0.0
 40
0.145
 50
0.0
 51
180.0
  0
ARC
  5
1C85F
  8
SUNPO
  6
BYBLOCK
 10
213.0
 20
55.0
 30
0.0
 40
0.145
 50
0.0
 51
180.0
  0
ARC
  5
1C860
  8
SUNPO
  6
BYBLOCK
 10
213.0
 20
55.0
 30
0.0
 40
0.145
 50
180.0
 51
0.0
  0
TEXT
  5
1C862
  8
SUNPO
  6
CONTINUOUS
 10
238.837473
 20
48.048402
 30
0.0
 40
2.0
  1
2
  7
MX_NOTE_STANDARD
  0
TEXT
  5
1C863
  8
SUNPO
  6
CONTINUOUS
 10
229.916667
 20
56.0
 30
0.0
 40
2.5
  1
38
  7
MX_NOTE_STANDARD
  0
ARC
  5
1C864
  8
SUNPO
  6
BYBLOCK
 10
251.0
 20
55.0
 30
0.0
 40
0.145
 50
0.0
 51
180.0
  0
ARC
  5
1C865
  8
SUNPO
  6
BYBLOCK
 10
251.0
 20
55.0
 30
0.0
 40
0.145
 50
180.0
 51
0.0
  0
ARC
  5
1C866
  8
SUNPO
  6
BYBLOCK
 10
254.5
 20
91.5
 30
0.0
 40
0.145
 50
270.0
 51
90.0
  0
ARC
  5
1C867
  8
SUNPO
  6
BYBLOCK
 10
254.5
 20
91.5
 30
0.0
 40
0.145
 50
90.0
 51
270.0
  0
TEXT
  5
1C868
  8
SUNPO
  6
CONTINUOUS
 10
291.125
 20
48.0
 30
0.0
 40
2.5
  1
40
  7
MX_NOTE_STANDARD
  0
LINE
  5
1C869
  8
SUNPO
  6
CONTINUOUS
 10
295.495514
 20
38.5
 30
0.0
 11
291.186113
 21
38.5
 31
0.0
  0
LINE
  5
1C86A
  8
SUNPO
  6
CONTINUOUS
 10
296.22756
 20
31.500001
 30
0.0
 11
292.186114
 21
38.499998
 31
0.0
  0
LINE
  5
1C86B
  8
SUNPO
  6
CONTINUOUS
 10
313.0
 20
47.0
 30
0.0
 11
273.0
 21
47.0
 31
0.0
  0
LINE
  5
1C86C
  8
SUNPO
  6
CONTINUOUS
 10
273.0
 20
62.0
 30
0.0
 11
273.0
 21
47.0
 31
0.0
  0
LINE
  5
1C86D
  8
SUNPO
  6
CONTINUOUS
 10
273.0
 20
47.0
 30
0.0
 11
263.888595
 21
43.68372
 31
0.0
  0
LINE
  5
1C86E
  8
SUNPO
  6
CONTINUOUS
 10
263.888595
 20
43.68372
 30
0.0
 11
262.732051
 21
48.0
 31
0.0
  0
LINE
  5
1C872
  8
SUNPO
  6
CONTINUOUS
 10
289.10634
 20
38.5
 30
0.0
 11
284.73099
 21
38.5
 31
0.0
  0
LINE
  5
1C873
  8
SUNPO
  6
CONTINUOUS
 10
289.876776
 20
31.500001
 30
0.0
 11
285.835331
 21
38.499997
 31
0.0
  0
LINE
  5
1C874
  8
SUNPO
  6
CONTINUOUS
 10
292.186113
 20
38.5
 30
0.0
 11
292.186113
 21
31.500001
 31
0.0
  0
LINE
  5
1C875
  8
SUNPO
  6
CONTINUOUS
 10
292.186114
 20
31.5
 30
0.0
 11
288.144668
 21
38.499997
 31
0.0
  0
LINE
  5
1C876
  8
SUNPO
  6
CONTINUOUS
 10
293.186113
 20
31.5
 30
0.0
 11
288.708582
 21
31.5
 31
0.0
  0
LINE
  5
1C877
  8
SUNPO
  6
CONTINUOUS
 10
313.0
 20
62.0
 30
0.0
 11
313.0
 21
47.0
 31
0.0
  0
LINE
  5
1C878
  8
SUNPO
  6
CONTINUOUS
 10
307.26901
 20
36.5
 30
0.0
 11
302.26901
 21
36.5
 31
0.0
  0
LINE
  5
1C879
  8
SUNPO
  6
CONTINUOUS
 10
307.26901
 20
33.5
 30
0.0
 11
302.26901
 21
33.5
 31
0.0
  0
LINE
  5
1C87A
  8
SUNPO
  6
CONTINUOUS
 10
298.536959
 20
31.500004
 30
0.0
 11
294.495515
 21
38.499997
 31
0.0
  0
LINE
  5
1C87B
  8
SUNPO
  6
CONTINUOUS
 10
298.536961
 20
38.5
 30
0.0
 11
298.536961
 21
31.500003
 31
0.0
  0
LINE
  5
1C87C
  8
SUNPO
  6
CONTINUOUS
 10
299.11431
 20
31.5
 30
0.0
 11
295.536562
 21
31.5
 31
0.0
  0
LINE
  5
1C87D
  8
SUNPO
  6
CONTINUOUS
 10
299.495805
 20
38.5
 30
0.0
 11
297.459285
 21
38.5
 31
0.0
  0
LINE
  5
1C87F
  8
SUNPO
  6
CONTINUOUS
 10
313.0
 20
47.0
 30
0.0
 11
322.111405
 21
50.31628
 31
0.0
  0
LINE
  5
1C881
  8
SUNPO
  6
CONTINUOUS
 10
322.111405
 20
50.31628
 30
0.0
 11
323.267949
 21
46.0
 31
0.0
  0
TEXT
  5
1C884
  8
SUNPO
  6
CONTINUOUS
 10
391.541667
 20
56.0
 30
0.0
 40
2.5
  1
10
  7
MX_NOTE_STANDARD
  0
LINE
  5
1C885
  8
SUNPO
  6
CONTINUOUS
 10
398.0
 20
35.0
 30
0.0
 11
373.0
 21
35.0
 31
0.0
  0
LINE
  5
1C886
  8
SUNPO
  6
CONTINUOUS
 10
388.0
 20
55.0
 30
0.0
 11
398.0
 21
55.0
 31
0.0
  0
LINE
  5
1C887
  8
SUNPO
  6
CONTINUOUS
 10
388.0
 20
90.0
 30
0.0
 11
388.0
 21
55.0
 31
0.0
  0
LINE
  5
1C888
  8
SUNPO
  6
CONTINUOUS
 10
358.0
 20
90.0
 30
0.0
 11
358.0
 21
55.0
 31
0.0
  0
LINE
  5
1C889
  8
SUNPO
  6
CONTINUOUS
 10
373.0
 20
90.0
 30
0.0
 11
373.0
 21
35.0
 31
0.0
  0
LINE
  5
1C88A
  8
SUNPO
  6
CONTINUOUS
 10
330.0
 20
91.5
 30
0.0
 11
330.0
 21
63.5
 31
0.0
  0
LINE
  5
1C88B
  8
SUNPO
  6
CONTINUOUS
 10
373.0
 20
55.0
 30
0.0
 11
358.0
 21
55.0
 31
0.0
  0
TEXT
  5
1C88D
  8
SUNPO
  6
CONTINUOUS
 10
339.202796
 20
47.984156
 30
0.0
 40
2.0
  1
1
 41
1.5
  7
MX_NOTE_STANDARD
  0
ARC
  5
1C88E
  8
SUNPO
  6
BYBLOCK
 10
330.0
 20
63.5
 30
0.0
 40
0.145
 50
270.0
 51
90.0
  0
ARC
  5
1C88F
  8
SUNPO
  6
BYBLOCK
 10
330.0
 20
63.5
 30
0.0
 40
0.145
 50
90.0
 51
270.0
  0
ARC
  5
1C890
  8
SUNPO
  6
BYBLOCK
 10
358.0
 20
55.0
 30
0.0
 40
0.145
 50
180.0
 51
0.0
  0
ARC
  5
1C891
  8
SUNPO
  6
BYBLOCK
 10
358.0
 20
55.0
 30
0.0
 40
0.145
 50
0.0
 51
180.0
  0
LINE
  5
1C892
  8
SUNPO
  6
CONTINUOUS
 10
368.0
 20
30.0
 30
0.0
 11
368.0
 21
40.0
 31
0.0
  0
LINE
  5
1C893
  8
SUNPO
  6
CONTINUOUS
 10
368.0
 20
40.0
 30
0.0
 11
373.0
 21
35.0
 31
0.0
  0
LINE
  5
1C894
  8
SUNPO
  6
CONTINUOUS
 10
373.0
 20
35.0
 30
0.0
 11
368.0
 21
30.0
 31
0.0
  0
LINE
  5
1C897
  8
SUNPO
  6
CONTINUOUS
 10
373.0
 20
47.0
 30
0.0
 11
363.888595
 21
43.68372
 31
0.0
  0
LINE
  5
1C898
  8
SUNPO
  6
CONTINUOUS
 10
363.888595
 20
43.68372
 30
0.0
 11
362.732051
 21
48.0
 31
0.0
  0
TEXT
  5
1C89D
  8
SUNPO
  6
CONTINUOUS
 10
383.416667
 20
36.0
 30
0.0
 40
2.5
  1
25
  7
MX_NOTE_STANDARD
  0
LINE
  5
1C89E
  8
SUNPO
  6
CONTINUOUS
 10
388.0
 20
55.0
 30
0.0
 11
373.0
 21
55.0
 31
0.0
  0
TEXT
  5
1C89F
  8
SUNPO
  6
CONTINUOUS
 10
363.833333
 20
56.0
 30
0.0
 40
2.5
  1
15
  7
MX_NOTE_STANDARD
  0
ARC
  5
1C8A0
  8
SUNPO
  6
BYBLOCK
 10
373.0
 20
55.0
 30
0.0
 40
0.145
 50
180.0
 51
0.0
  0
ARC
  5
1C8A1
  8
SUNPO
  6
BYBLOCK
 10
373.0
 20
55.0
 30
0.0
 40
0.145
 50
0.0
 51
180.0
  0
ARC
  5
1C8A2
  8
SUNPO
  6
BYBLOCK
 10
373.0
 20
55.0
 30
0.0
 40
0.145
 50
0.0
 51
180.0
  0
ARC
  5
1C8A3
  8
SUNPO
  6
BYBLOCK
 10
373.0
 20
55.0
 30
0.0
 40
0.145
 50
180.0
 51
0.0
  0
TEXT
  5
1C8A4
  8
SUNPO
  6
CONTINUOUS
 10
378.833333
 20
56.0
 30
0.0
 40
2.5
  1
15
  7
MX_NOTE_STANDARD
  0
ARC
  5
1C8A5
  8
SUNPO
  6
BYBLOCK
 10
388.0
 20
55.0
 30
0.0
 40
0.145
 50
0.0
 51
180.0
  0
ARC
  5
1C8A6
  8
SUNPO
  6
BYBLOCK
 10
388.0
 20
55.0
 30
0.0
 40
0.145
 50
180.0
 51
0.0
  0
ARC
  5
1C8A7
  8
SUNPO
  6
BYBLOCK
 10
388.0
 20
55.0
 30
0.0
 40
0.145
 50
180.0
 51
0.0
  0
ARC
  5
1C8A8
  8
SUNPO
  6
BYBLOCK
 10
388.0
 20
55.0
 30
0.0
 40
0.145
 50
0.0
 51
180.0
  0
TEXT
  5
1C8A9
  8
SUNPO
  6
CONTINUOUS
 10
351.855906
 20
95.249994
 30
0.0
 40
2.5
  1
4.5
 50
90.0
  7
MX_NOTE_STANDARD
  0
LINE
  5
1C8AA
  8
SUNPO
  6
CONTINUOUS
 10
352.855906
 20
95.499994
 30
0.0
 11
352.855906
 21
99.999994
 31
0.0
  0
ARC
  5
1C8AB
  8
SUNPO
  6
BYBLOCK
 10
330.0
 20
91.5
 30
0.0
 40
0.145
 50
90.0
 51
270.0
  0
ARC
  5
1C8AC
  8
SUNPO
  6
BYBLOCK
 10
330.0
 20
91.5
 30
0.0
 40
0.145
 50
270.0
 51
90.0
  0
ARC
  5
1C8AD
  8
SUNPO
  6
BYBLOCK
 10
330.0
 20
91.5
 30
0.0
 40
0.145
 50
270.0
 51
90.0
  0
ARC
  5
1C8AE
  8
SUNPO
  6
BYBLOCK
 10
330.0
 20
91.5
 30
0.0
 40
0.145
 50
90.0
 51
270.0
  0
LINE
  5
1C8AF
  8
SUNPO
  6
CONTINUOUS
 10
352.855906
 20
91.5
 30
0.0
 11
352.855906
 21
85.513333
 31
0.0
  0
TEXT
  5
1C8B0
  8
SUNPO
  6
CONTINUOUS
 10
351.855906
 20
86.513333
 30
0.0
 40
2.5
  1
4
 50
90.0
  7
MX_NOTE_STANDARD
  0
LINE
  5
1C8B1
  8
SUNPO
  6
CONTINUOUS
 10
352.855906
 20
95.499994
 30
0.0
 11
352.855906
 21
91.5
 31
0.0
  0
ARC
  5
1C8B2
  8
SUNPO
  6
BYBLOCK
 10
352.855906
 20
91.5
 30
0.0
 40
0.145
 50
270.0
 51
90.0
  0
ARC
  5
1C8B3
  8
SUNPO
  6
BYBLOCK
 10
352.855906
 20
91.5
 30
0.0
 40
0.145
 50
90.0
 51
270.0
  0
LINE
  5
1C8B4
  8
SUNPO
  6
CONTINUOUS
 10
356.5
 20
95.499994
 30
0.0
 11
352.855906
 21
95.499994
 31
0.0
  0
ARC
  5
1C8B5
  8
SUNPO
  6
BYBLOCK
 10
352.855906
 20
95.499994
 30
0.0
 40
0.145
 50
90.0
 51
270.0
  0
ARC
  5
1C8B6
  8
SUNPO
  6
BYBLOCK
 10
352.855906
 20
95.499994
 30
0.0
 40
0.145
 50
270.0
 51
90.0
  0
ARC
  5
1C8B7
  8
SUNPO
  6
BYBLOCK
 10
352.855906
 20
95.499994
 30
0.0
 40
0.145
 50
270.0
 51
90.0
  0
ARC
  5
1C8B8
  8
SUNPO
  6
BYBLOCK
 10
352.855906
 20
95.499994
 30
0.0
 40
0.145
 50
90.0
 51
270.0
  0
LINE
  5
1C8B9
  8
SUNPO
  6
CONTINUOUS
 10
352.855906
 20
99.999994
 30
0.0
 11
352.855906
 21
120.0
 31
0.0
  0
LINE
  5
1C8BA
  8
SUNPO
  6
CONTINUOUS
 10
356.5
 20
99.999994
 30
0.0
 11
352.855906
 21
99.999994
 31
0.0
  0
ARC
  5
1C8BB
  8
SUNPO
  6
BYBLOCK
 10
352.855906
 20
99.999994
 30
0.0
 40
0.145
 50
270.0
 51
90.0
  0
ARC
  5
1C8BC
  8
SUNPO
  6
BYBLOCK
 10
352.855906
 20
99.999994
 30
0.0
 40
0.145
 50
90.0
 51
270.0
  0
ARC
  5
1C8BD
  8
SUNPO
  6
BYBLOCK
 10
352.855906
 20
99.999994
 30
0.0
 40
0.145
 50
90.0
 51
270.0
  0
ARC
  5
1C8BE
  8
SUNPO
  6
BYBLOCK
 10
352.855906
 20
99.999994
 30
0.0
 40
0.145
 50
270.0
 51
90.0
  0
TEXT
  5
1C8BF
  8
SUNPO
  6
CONTINUOUS
 10
351.855906
 20
111.345249
 30
0.0
 40
2.5
  1
20
 50
90.0
  7
MX_NOTE_STANDARD
  0
LINE
  5
1C8C0
  8
SUNPO
  6
CONTINUOUS
 10
356.5
 20
120.0
 30
0.0
 11
352.855906
 21
120.0
 31
0.0
  0
ARC
  5
1C8C1
  8
SUNPO
  6
BYBLOCK
 10
352.855906
 20
120.0
 30
0.0
 40
0.145
 50
90.0
 51
270.0
  0
ARC
  5
1C8C2
  8
SUNPO
  6
BYBLOCK
 10
352.855906
 20
120.0
 30
0.0
 40
0.145
 50
270.0
 51
90.0
  0
ARC
  5
1C8C3
  8
SUNPO
  6
BYBLOCK
 10
352.855906
 20
120.0
 30
0.0
 40
0.145
 50
270.0
 51
90.0
  0
ARC
  5
1C8C4
  8
SUNPO
  6
BYBLOCK
 10
352.855906
 20
120.0
 30
0.0
 40
0.145
 50
90.0
 51
270.0
  0
LINE
  5
1C8C5
  8
SUNPO
  6
CONTINUOUS
 10
398.0
 20
90.0
 30
0.0
 11
398.0
 21
35.0
 31
0.0
  0
ARC
  5
1C8C6
  8
SUNPO
  6
BYBLOCK
 10
398.0
 20
35.0
 30
0.0
 40
0.145
 50
0.0
 51
180.0
  0
ARC
  5
1C8C7
  8
SUNPO
  6
BYBLOCK
 10
398.0
 20
35.0
 30
0.0
 40
0.145
 50
180.0
 51
0.0
  0
ARC
  5
1C8C8
  8
SUNPO
  6
BYBLOCK
 10
398.0
 20
55.0
 30
0.0
 40
0.145
 50
0.0
 51
180.0
  0
ARC
  5
1C8C9
  8
SUNPO
  6
BYBLOCK
 10
398.0
 20
55.0
 30
0.0
 40
0.145
 50
180.0
 51
0.0
  0
TEXT
  5
1C8CA
  8
SUNPO
  6
CONTINUOUS
 10
329.0
 20
125.666667
 30
0.0
 40
2.5
  1
8
 50
90.0
  7
MX_NOTE_STANDARD
  0
TEXT
  5
1C8CB
  8
SUNPO
  6
CONTINUOUS
 10
329.0
 20
144.725548
 30
0.0
 40
2.5
  1
24
 50
90.0
  7
MX_NOTE_STANDARD
  0
TEXT
  5
1C8CC
  8
SUNPO
  6
CONTINUOUS
 10
329.0
 20
157.166667
 30
0.0
 40
2.5
  1
7
 50
90.0
  7
MX_NOTE_STANDARD
  0
LINE
  5
1C8CD
  8
SUNPO
  6
CONTINUOUS
 10
314.350012
 20
130.5
 30
0.0
 11
330.0
 21
130.5
 31
0.0
  0
LINE
  5
1C8CE
  8
SUNPO
  6
CONTINUOUS
 10
73.0
 20
165.5
 30
0.0
 11
49.0
 21
165.5
 31
0.0
  0
LINE
  5
1C8CF
  8
SUNPO
  6
CONTINUOUS
 10
42.0
 20
175.5
 30
0.0
 11
112.0
 21
175.5
 31
0.0
  0
LINE
  5
1C8D0
  8
DANMEN
  6
CONTINUOUS
 10
263.5
 20
154.5
 30
0.0
 11
336.5
 21
154.5
 31
0.0
  0
LINE
  5
1C8D1
  8
DANMEN
  6
CONTINUOUS
 10
313.0
 20
144.0
 30
0.0
 11
336.5
 21
144.0
 31
0.0
  0
LINE
  5
1C8D2
  8
DANMEN
  6
CONTINUOUS
 10
313.0
 20
141.0
 30
0.0
 11
336.5
 21
141.0
 31
0.0
  0
LINE
  5
1C8D3
  8
DANMEN
  6
CONTINUOUS
 10
263.5
 20
164.5
 30
0.0
 11
336.5
 21
164.5
 31
0.0
  0
LINE
  5
1C8D4
  8
DANMEN
  6
CONTINUOUS
 10
263.5
 20
163.300003
 30
0.0
 11
336.5
 21
163.300003
 31
0.0
  0
LINE
  5
1C8D5
  8
DANMEN
  6
CONTINUOUS
 10
263.5
 20
160.300003
 30
0.0
 11
336.5
 21
160.300003
 31
0.0
  0
LINE
  5
1C8D6
  8
DANMEN
  6
CONTINUOUS
 10
336.5
 20
122.5
 30
0.0
 11
313.0
 21
122.5
 31
0.0
  0
LINE
  5
1C8D7
  8
DANMEN
  6
CONTINUOUS
 10
336.5
 20
127.5
 30
0.0
 11
313.0
 21
127.5
 31
0.0
  0
LINE
  5
1C8D8
  8
DANMEN
  6
CONTINUOUS
 10
263.5
 20
130.5
 30
0.0
 11
273.0
 21
130.5
 31
0.0
  0
LINE
  5
1C8D9
  8
DANMEN
  6
CONTINUOUS
 10
263.5
 20
127.5
 30
0.0
 11
273.0
 21
127.5
 31
0.0
  0
LINE
  5
1C8DA
  8
DANMEN
  6
CONTINUOUS
 10
263.5
 20
134.5
 30
0.0
 11
273.0
 21
134.5
 31
0.0
  0
LINE
  5
1C8DB
  8
DANMEN
  6
CONTINUOUS
 10
263.5
 20
150.5
 30
0.0
 11
273.0
 21
150.5
 31
0.0
  0
LINE
  5
1C8DC
  8
DANMEN
  6
CONTINUOUS
 10
263.5
 20
152.3
 30
0.0
 11
273.0
 21
152.3
 31
0.0
  0
LINE
  5
1C8DD
  8
DANMEN
  6
CONTINUOUS
 10
263.5
 20
132.7
 30
0.0
 11
273.0
 21
132.7
 31
0.0
  0
LINE
  5
1C8DE
  8
DANMEN
  6
CONTINUOUS
 10
280.000015
 20
145.000009
 30
0.0
 11
263.5
 21
145.000009
 31
0.0
  0
LINE
  5
1C8DF
  8
DANMEN
  6
CONTINUOUS
 10
280.000015
 20
140.000021
 30
0.0
 11
263.5
 21
140.000021
 31
0.0
  0
LINE
  5
1C8E0
  8
DANMEN
  6
CONTINUOUS
 10
280.000015
 20
144.500009
 30
0.0
 11
263.5
 21
144.500009
 31
0.0
  0
LINE
  5
1C8E1
  8
DANMEN
  6
CONTINUOUS
 10
280.000015
 20
140.500021
 30
0.0
 11
263.5
 21
140.500021
 31
0.0
  0
LINE
  5
1C8E2
  8
DANMEN
  6
CONTINUOUS
 10
237.399994
 20
164.5
 30
0.0
 11
233.0
 21
164.5
 31
0.0
  0
LINE
  5
1C8E3
  8
DANMEN
  6
CONTINUOUS
 10
237.399994
 20
163.300003
 30
0.0
 11
233.0
 21
163.300003
 31
0.0
  0
LINE
  5
1C8E4
  8
DANMEN
  6
CONTINUOUS
 10
228.538902
 20
154.5
 30
0.0
 11
250.499997
 21
154.5
 31
0.0
  0
LINE
  5
1C8E5
  8
DANMEN
  6
CONTINUOUS
 10
228.538907
 20
130.5
 30
0.0
 11
250.499997
 21
130.5
 31
0.0
  0
LINE
  5
1C8E6
  8
DANMEN
  6
CONTINUOUS
 10
229.949979
 20
152.550003
 30
0.0
 11
238.049985
 21
152.550003
 31
0.0
  0
LINE
  5
1C8E7
  8
DANMEN
  6
CONTINUOUS
 10
229.949979
 20
132.449997
 30
0.0
 11
238.049985
 21
132.449997
 31
0.0
  0
LINE
  5
1C8E8
  8
DANMEN
  6
CONTINUOUS
 10
211.0
 20
127.5
 30
0.0
 11
260.5
 21
127.5
 31
0.0
  0
LINE
  5
1C8E9
  8
DANMEN
  6
CONTINUOUS
 10
233.0
 20
160.300003
 30
0.0
 11
260.5
 21
160.300003
 31
0.0
  0
LINE
  5
1C8EA
  8
DANMEN
  6
CONTINUOUS
 10
215.461095
 20
130.5
 30
0.0
 11
260.5
 21
130.5
 31
0.0
  0
LINE
  5
1C8EB
  8
DANMEN
  6
CONTINUOUS
 10
213.999997
 20
152.55
 30
0.0
 11
213.999997
 21
132.449997
 31
0.0
  0
LINE
  5
1C8EC
  8
DANMEN
  6
CONTINUOUS
 10
215.949994
 20
148.550003
 30
0.0
 11
215.949994
 21
136.449997
 31
0.0
  0
LINE
  5
1C8ED
  8
DANMEN
  6
CONTINUOUS
 10
215.949994
 20
136.449997
 30
0.0
 11
228.949979
 21
136.449997
 31
0.0
  0
LINE
  5
1C8EE
  8
DANMEN
  6
CONTINUOUS
 10
215.699994
 20
134.499997
 30
0.0
 11
228.3
 21
134.499997
 31
0.0
  0
LINE
  5
1C8EF
  8
DANMEN
  6
CONTINUOUS
 10
215.699994
 20
134.499997
 30
0.0
 11
215.959692
 21
131.037395
 31
0.0
  0
LINE
  5
1C8F0
  8
DANMEN
  6
CONTINUOUS
 10
211.145454
 20
132.449997
 30
0.0
 11
202.199994
 21
133.791816
 31
0.0
  0
LINE
  5
1C8F1
  8
DANMEN
  6
CONTINUOUS
 10
208.650003
 20
127.5
 30
0.0
 11
211.000004
 21
127.5
 31
0.0
  0
LINE
  5
1C8F2
  8
DANMEN
  6
CONTINUOUS
 10
210.895163
 20
129.342413
 30
0.0
 11
206.246848
 21
131.222891
 31
0.0
  0
LINE
  5
1C8F3
  8
DANMEN
  6
CONTINUOUS
 10
209.300003
 20
127.5
 30
0.0
 11
210.5
 21
127.5
 31
0.0
  0
LINE
  5
1C8F4
  8
DANMEN
  6
CONTINUOUS
 10
208.650003
 20
127.5
 30
0.0
 11
208.650003
 21
126.5
 31
0.0
  0
LINE
  5
1C8F5
  8
DANMEN
  6
CONTINUOUS
 10
205.350004
 20
127.5
 30
0.0
 11
205.350004
 21
126.5
 31
0.0
  0
LINE
  5
1C8F6
  8
DANMEN
  6
CONTINUOUS
 10
203.0
 20
127.0
 30
0.0
 11
203.0
 21
125.1
 31
0.0
  0
LINE
  5
1C8F7
  8
DANMEN
  6
CONTINUOUS
 10
208.800003
 20
127.000017
 30
0.0
 11
208.799998
 21
126.699998
 31
0.0
  0
LINE
  5
1C8F8
  8
DANMEN
  6
CONTINUOUS
 10
205.200001
 20
126.999999
 30
0.0
 11
205.200003
 21
126.699996
 31
0.0
  0
LINE
  5
1C8F9
  8
DANMEN
  6
CONTINUOUS
 10
206.150004
 20
126.3
 30
0.0
 11
205.350004
 21
125.5
 31
0.0
  0
LINE
  5
1C8FA
  8
DANMEN
  6
CONTINUOUS
 10
203.8
 20
125.1
 30
0.0
 11
209.999998
 21
125.1
 31
0.0
  0
ARC
  5
1C8FD
  8
DANMEN
  6
CONTINUOUS
 10
204.350003
 20
126.3
 30
0.0
 40
0.2
 50
89.999982
 51
180.000019
  0
ARC
  5
1C8FF
  8
DANMEN
  6
CONTINUOUS
 10
204.350003
 20
125.7
 30
0.0
 40
0.2
 50
180.000019
 51
270.000001
  0
LINE
  5
1C903
  8
DANMEN
  6
CONTINUOUS
 10
204.350003
 20
125.5
 30
0.0
 11
205.350004
 21
125.5
 31
0.0
  0
LINE
  5
1C904
  8
DANMEN
  6
CONTINUOUS
 10
204.150003
 20
126.3
 30
0.0
 11
204.150003
 21
125.7
 31
0.0
  0
LINE
  5
1C905
  8
DANMEN
  6
CONTINUOUS
 10
204.350003
 20
126.5
 30
0.0
 11
205.350004
 21
126.5
 31
0.0
  0
LINE
  5
1C908
  8
DANMEN
  6
CONTINUOUS
 10
203.8
 20
126.699997
 30
0.0
 11
203.8
 21
125.1
 31
0.0
  0
LINE
  5
1C90A
  8
DANMEN
  6
CONTINUOUS
 10
203.8
 20
126.699997
 30
0.0
 11
205.199997
 21
126.699997
 31
0.0
  0
LINE
  5
1C90E
  8
DANMEN
  6
CONTINUOUS
 10
206.150004
 20
126.3
 30
0.0
 11
207.850003
 21
126.3
 31
0.0
  0
LINE
  5
1C911
  8
DANMEN
  6
CONTINUOUS
 10
208.650003
 20
126.5
 30
0.0
 11
209.650004
 21
126.5
 31
0.0
  0
ARC
  5
1C912
  8
DANMEN
  6
CONTINUOUS
 10
209.650004
 20
125.7
 30
0.0
 40
0.2
 50
270.000018
 51
0.0
  0
ARC
  5
1C914
  8
DANMEN
  6
CONTINUOUS
 10
209.650004
 20
126.3
 30
0.0
 40
0.2
 50
0.0
 51
89.999982
  0
LINE
  5
1C917
  8
DANMEN
  6
CONTINUOUS
 10
208.650003
 20
125.5
 30
0.0
 11
209.650004
 21
125.5
 31
0.0
  0
LINE
  5
1C918
  8
DANMEN
  6
CONTINUOUS
 10
207.850003
 20
126.3
 30
0.0
 11
208.650003
 21
125.5
 31
0.0
  0
LINE
  5
1C91A
  8
DANMEN
  6
CONTINUOUS
 10
209.850004
 20
126.3
 30
0.0
 11
209.850004
 21
125.7
 31
0.0
  0
LINE
  5
1C91C
  8
DANMEN
  6
CONTINUOUS
 10
209.999998
 20
126.699997
 30
0.0
 11
209.999998
 21
125.1
 31
0.0
  0
LINE
  5
1C91D
  8
DANMEN
  6
CONTINUOUS
 10
208.800003
 20
126.699997
 30
0.0
 11
210.0
 21
126.699997
 31
0.0
  0
LINE
  5
1C920
  8
DANMEN
  6
CONTINUOUS
 10
202.800004
 20
128.3
 30
0.0
 11
210.200004
 21
128.3
 31
0.0
  0
ARC
  5
1C921
  8
DANMEN
  6
CONTINUOUS
 10
206.096838
 20
130.852085
 30
0.0
 40
0.4
 50
67.974191
 51
247.974191
  0
LINE
  5
1C922
  8
DANMEN
  6
CONTINUOUS
 10
206.578995
 20
129.914414
 30
0.0
 11
205.146542
 21
128.636435
 31
0.0
  0
LINE
  5
1C923
  8
DANMEN
  6
CONTINUOUS
 10
207.335668
 20
129.919423
 30
0.0
 11
205.479406
 21
128.263337
 31
0.0
  0
LINE
  5
1C924
  8
DANMEN
  6
CONTINUOUS
 10
206.520855
 20
130.249056
 30
0.0
 11
205.946828
 21
130.481279
 31
0.0
  0
LINE
  5
1C926
  8
DANMEN
  6
CONTINUOUS
 10
202.270495
 20
127.5
 30
0.0
 11
205.350004
 21
127.5
 31
0.0
  0
ARC
  5
1C92A
  8
DANMEN
  6
CONTINUOUS
 10
205.312974
 20
128.449886
 30
0.0
 40
0.25
 50
131.738105
 51
311.738105
  0
LINE
  5
1C931
  8
DANMEN
  6
CONTINUOUS
 10
203.5
 20
127.5
 30
0.0
 11
204.699997
 21
127.5
 31
0.0
  0
ARC
  5
1C932
  8
DANMEN
  6
CONTINUOUS
 10
203.5
 20
127.0
 30
0.0
 40
0.5
 50
90.000037
 51
180.000019
  0
ARC
  5
1C933
  8
DANMEN
  6
CONTINUOUS
 10
204.699997
 20
127.0
 30
0.0
 40
0.5
 50
359.999981
 51
90.000037
  0
LINE
  5
1C937
  8
DANMEN
  6
CONTINUOUS
 10
210.200004
 20
128.962453
 30
0.0
 11
210.200004
 21
128.3
 31
0.0
  0
LINE
  5
1C939
  8
DANMEN
  6
CONTINUOUS
 10
209.878862
 20
128.890573
 30
0.0
 11
207.335668
 21
129.919423
 31
0.0
  0
ARC
  5
1C93A
  8
DANMEN
  6
CONTINUOUS
 10
206.44585
 20
130.063653
 30
0.0
 40
0.2
 50
311.738105
 51
67.974191
  0
ARC
  5
1C93D
  8
DANMEN
  6
CONTINUOUS
 10
210.064265
 20
128.815568
 30
0.0
 40
0.2
 50
47.258366
 51
157.974191
  0
ARC
  5
1C940
  8
DANMEN
  6
CONTINUOUS
 10
209.300003
 20
127.0
 30
0.0
 40
0.5
 50
90.0
 51
179.999149
  0
LINE
  5
1C942
  8
DANMEN
  6
CONTINUOUS
 10
211.0
 20
127.0
 30
0.0
 11
211.0
 21
124.5
 31
0.0
  0
ARC
  5
1C943
  8
DANMEN
  6
CONTINUOUS
 10
210.5
 20
124.5
 30
0.0
 40
0.5
 50
270.000018
 51
0.0
  0
LINE
  5
1C945
  8
DANMEN
  6
CONTINUOUS
 10
211.037289
 20
130.5
 30
0.0
 11
215.461087
 21
130.5
 31
0.0
  0
LINE
  5
1C947
  8
DANMEN
  6
CONTINUOUS
 10
211.000004
 20
129.244506
 30
0.0
 11
211.000004
 21
127.5
 31
0.0
  0
ARC
  5
1C948
  8
DANMEN
  6
CONTINUOUS
 10
210.820158
 20
129.15701
 30
0.0
 40
0.2
 50
25.943161
 51
67.974191
  0
LINE
  5
1C94A
  8
DANMEN
  6
CONTINUOUS
 10
211.145454
 20
132.449997
 30
0.0
 11
213.999997
 21
132.449997
 31
0.0
  0
ARC
  5
1C94D
  8
DANMEN
  6
CONTINUOUS
 10
211.037289
 20
131.0
 30
0.0
 40
0.5
 50
261.469234
 51
270.0
  0
ARC
  5
1C950
  8
DANMEN
  6
CONTINUOUS
 10
210.5
 20
127.0
 30
0.0
 40
0.5
 50
359.999981
 51
90.000037
  0
ARC
  5
1C954
  8
DANMEN
  6
CONTINUOUS
 10
215.461092
 20
131.0
 30
0.0
 40
0.5
 50
270.0
 51
4.2892
  0
LINE
  5
1C956
  8
DANMEN
  6
CONTINUOUS
 10
202.199994
 20
135.0
 30
0.0
 11
202.199994
 21
133.791816
 31
0.0
  0
LINE
  5
1C959
  8
DANMEN
  6
CONTINUOUS
 10
208.164402
 20
140.860739
 30
0.0
 11
203.081604
 21
140.013606
 31
0.0
  0
LINE
  5
1C95A
  8
DANMEN
  6
CONTINUOUS
 10
207.050996
 20
142.5
 30
0.0
 11
202.850995
 21
141.8
 31
0.0
  0
ARC
  5
1C95D
  8
DANMEN
  6
CONTINUOUS
 10
202.917205
 20
141.0
 30
0.0
 40
1.0
 50
270.000018
 51
279.462343
  0
LINE
  5
1C95F
  8
DANMEN
  6
CONTINUOUS
 10
209.0
 20
142.0
 30
0.0
 11
209.0
 21
141.847137
 31
0.0
  0
LINE
  5
1C960
  8
DANMEN
  6
CONTINUOUS
 10
207.050996
 20
142.5
 30
0.0
 11
208.5
 21
142.5
 31
0.0
  0
ARC
  5
1C963
  8
DANMEN
  6
CONTINUOUS
 10
208.0
 20
141.847137
 30
0.0
 40
1.0
 50
279.462343
 51
0.000285
  0
ARC
  5
1C965
  8
DANMEN
  6
CONTINUOUS
 10
208.5
 20
142.0
 30
0.0
 40
0.5
 50
0.0
 51
89.999982
  0
LINE
  5
1C96A
  8
DANMEN
  6
CONTINUOUS
 10
229.949979
 20
135.449997
 30
0.0
 11
229.949979
 21
132.449997
 31
0.0
  0
LINE
  5
1C96B
  8
DANMEN
  6
CONTINUOUS
 10
228.040302
 20
131.037395
 30
0.0
 11
228.3
 21
134.499997
 31
0.0
  0
ARC
  5
1C96F
  8
DANMEN
  6
CONTINUOUS
 10
228.538902
 20
131.0
 30
0.0
 40
0.5
 50
175.7108
 51
270.0
  0
ARC
  5
1C972
  8
DANMEN
  6
CONTINUOUS
 10
228.949979
 20
135.449997
 30
0.0
 40
1.0
 50
0.0
 51
89.999982
  0
LINE
  5
1C974
  8
DANMEN
  6
CONTINUOUS
 10
215.699994
 20
150.5
 30
0.0
 11
228.3
 21
150.5
 31
0.0
  0
LINE
  5
1C975
  8
DANMEN
  6
CONTINUOUS
 10
215.949994
 20
148.550003
 30
0.0
 11
228.949979
 21
148.550003
 31
0.0
  0
LINE
  5
1C976
  8
DANMEN
  6
CONTINUOUS
 10
213.0
 20
161.5
 30
0.0
 11
233.0
 21
161.5
 31
0.0
  0
LINE
  5
1C977
  8
DANMEN
  6
CONTINUOUS
 10
211.145434
 20
152.55
 30
0.0
 11
202.199994
 21
151.208184
 31
0.0
  0
LINE
  5
1C978
  8
DANMEN
  6
CONTINUOUS
 10
202.199994
 20
150.0
 30
0.0
 11
202.199994
 21
151.208184
 31
0.0
  0
LINE
  5
1C97C
  8
DANMEN
  6
CONTINUOUS
 10
211.037289
 20
154.5
 30
0.0
 11
215.461087
 21
154.5
 31
0.0
  0
ARC
  5
1C97E
  8
DANMEN
  6
CONTINUOUS
 10
211.037289
 20
154.0
 30
0.0
 40
0.5
 50
90.0
 51
98.530766
  0
LINE
  5
1C980
  8
DANMEN
  6
CONTINUOUS
 10
211.145434
 20
152.55
 30
0.0
 11
213.999997
 21
152.55
 31
0.0
  0
LINE
  5
1C986
  8
DANMEN
  6
CONTINUOUS
 10
215.959692
 20
153.962605
 30
0.0
 11
215.699994
 21
150.5
 31
0.0
  0
ARC
  5
1C987
  8
DANMEN
  6
CONTINUOUS
 10
215.461092
 20
154.0
 30
0.0
 40
0.5
 50
355.710803
 51
90.0
  0
LINE
  5
1C989
  8
DANMEN
  6
CONTINUOUS
 10
213.0
 20
161.0
 30
0.0
 11
213.0
 21
160.350006
 31
0.0
  0
ARC
  5
1C98A
  8
DANMEN
  6
CONTINUOUS
 10
212.5
 20
160.350006
 30
0.0
 40
0.5
 50
270.000018
 51
359.999981
  0
ARC
  5
1C98B
  8
DANMEN
  6
CONTINUOUS
 10
212.5
 20
161.0
 30
0.0
 40
0.5
 50
359.999981
 51
89.999982
  0
LINE
  5
1C98F
  8
DANMEN
  6
CONTINUOUS
 10
229.949979
 20
152.550003
 30
0.0
 11
229.949979
 21
149.550003
 31
0.0
  0
ARC
  5
1C991
  8
DANMEN
  6
CONTINUOUS
 10
228.949979
 20
149.550003
 30
0.0
 40
1.0
 50
270.000018
 51
0.0
  0
LINE
  5
1C996
  8
DANMEN
  6
CONTINUOUS
 10
228.3
 20
150.5
 30
0.0
 11
228.040302
 21
153.962605
 31
0.0
  0
ARC
  5
1C997
  8
DANMEN
  6
CONTINUOUS
 10
228.538902
 20
154.0
 30
0.0
 40
0.5
 50
90.0
 51
184.289197
  0
LINE
  5
1C999
  8
DANMEN
  6
CONTINUOUS
 10
233.0
 20
164.5
 30
0.0
 11
233.0
 21
160.300003
 31
0.0
  0
LINE
  5
1C99B
  8
DANMEN
  6
CONTINUOUS
 10
239.999982
 20
152.550003
 30
0.0
 11
239.999982
 21
132.449997
 31
0.0
  0
LINE
  5
1C99C
  8
DANMEN
  6
CONTINUOUS
 10
238.049985
 20
152.550003
 30
0.0
 11
238.049985
 21
132.449997
 31
0.0
  0
LINE
  5
1C99D
  8
DANMEN
  6
CONTINUOUS
 10
243.99998
 20
139.999991
 30
0.0
 11
243.99998
 21
144.999994
 31
0.0
  0
LINE
  5
1C99E
  8
DANMEN
  6
CONTINUOUS
 10
251.0
 20
132.7
 30
0.0
 11
260.5
 21
132.7
 31
0.0
  0
LINE
  5
1C99F
  8
DANMEN
  6
CONTINUOUS
 10
251.0
 20
134.500015
 30
0.0
 11
260.5
 21
134.500015
 31
0.0
  0
LINE
  5
1C9A0
  8
DANMEN
  6
CONTINUOUS
 10
243.999996
 20
140.499991
 30
0.0
 11
260.499996
 21
140.499991
 31
0.0
  0
LINE
  5
1C9A1
  8
DANMEN
  6
CONTINUOUS
 10
243.999996
 20
139.999991
 30
0.0
 11
260.499996
 21
139.999991
 31
0.0
  0
LINE
  5
1C9A2
  8
DANMEN
  6
CONTINUOUS
 10
250.999997
 20
131.0
 30
0.0
 11
250.999997
 21
135.0
 31
0.0
  0
LINE
  5
1C9A3
  8
DANMEN
  6
CONTINUOUS
 10
249.8
 20
132.449997
 30
0.0
 11
249.8
 21
134.7
 31
0.0
  0
LINE
  5
1C9A4
  8
DANMEN
  6
CONTINUOUS
 10
239.999982
 20
132.449997
 30
0.0
 11
249.8
 21
132.449997
 31
0.0
  0
ARC
  5
1C9A9
  8
DANMEN
  6
CONTINUOUS
 10
250.499997
 20
131.0
 30
0.0
 40
0.5
 50
270.000018
 51
0.0
  0
LINE
  5
1C9AA
  8
DANMEN
  6
CONTINUOUS
 10
247.999997
 20
135.5
 30
0.0
 11
250.499997
 21
135.5
 31
0.0
  0
LINE
  5
1C9AB
  8
DANMEN
  6
CONTINUOUS
 10
247.999997
 20
135.34752
 30
0.0
 11
247.999997
 21
135.5
 31
0.0
  0
ARC
  5
1C9AE
  8
DANMEN
  6
CONTINUOUS
 10
250.499997
 20
135.0
 30
0.0
 40
0.5
 50
0.0
 51
89.999982
  0
LINE
  5
1C9B1
  8
DANMEN
  6
CONTINUOUS
 10
248.444781
 20
134.85058
 30
0.0
 11
249.8
 21
134.7
 31
0.0
  0
ARC
  5
1C9B2
  8
DANMEN
  6
CONTINUOUS
 10
248.499997
 20
135.347521
 30
0.0
 40
0.5
 50
180.0
 51
263.659819
  0
LINE
  5
1C9B6
  8
DANMEN
  6
CONTINUOUS
 10
253.499904
 20
136.0
 30
0.0
 11
253.499904
 21
138.500006
 31
0.0
  0
ARC
  5
1C9B7
  8
DANMEN
  6
CONTINUOUS
 10
251.999904
 20
136.0
 30
0.0
 40
1.5
 50
269.999964
 51
0.000001
  0
ARC
  5
1C9B8
  8
DANMEN
  6
CONTINUOUS
 10
254.999904
 20
138.500006
 30
0.0
 40
1.5
 50
90.0
 51
179.999982
  0
LINE
  5
1C9B9
  8
DANMEN
  6
CONTINUOUS
 10
237.399994
 20
164.5
 30
0.0
 11
260.5
 21
164.5
 31
0.0
  0
LINE
  5
1C9BA
  8
DANMEN
  6
CONTINUOUS
 10
237.399994
 20
163.300003
 30
0.0
 11
260.5
 21
163.300003
 31
0.0
  0
LINE
  5
1C9BB
  8
DANMEN
  6
CONTINUOUS
 10
251.0
 20
150.5
 30
0.0
 11
260.5
 21
150.5
 31
0.0
  0
LINE
  5
1C9BC
  8
DANMEN
  6
CONTINUOUS
 10
251.0
 20
152.3
 30
0.0
 11
260.5
 21
152.3
 31
0.0
  0
LINE
  5
1C9BD
  8
DANMEN
  6
CONTINUOUS
 10
243.99998
 20
144.499979
 30
0.0
 11
260.499996
 21
144.499979
 31
0.0
  0
LINE
  5
1C9BE
  8
DANMEN
  6
CONTINUOUS
 10
243.99998
 20
144.999979
 30
0.0
 11
260.499996
 21
144.999979
 31
0.0
  0
LINE
  5
1C9BF
  8
DANMEN
  6
CONTINUOUS
 10
239.999982
 20
152.550003
 30
0.0
 11
249.8
 21
152.550003
 31
0.0
  0
LINE
  5
1C9C2
  8
DANMEN
  6
CONTINUOUS
 10
250.999997
 20
154.0
 30
0.0
 11
250.999997
 21
150.0
 31
0.0
  0
ARC
  5
1C9C3
  8
DANMEN
  6
CONTINUOUS
 10
248.499997
 20
149.652479
 30
0.0
 40
0.5
 50
96.340181
 51
180.0
  0
LINE
  5
1C9C4
  8
DANMEN
  6
CONTINUOUS
 10
247.999997
 20
149.5
 30
0.0
 11
250.499997
 21
149.5
 31
0.0
  0
LINE
  5
1C9C5
  8
DANMEN
  6
CONTINUOUS
 10
247.999997
 20
149.652481
 30
0.0
 11
247.999997
 21
149.5
 31
0.0
  0
ARC
  5
1C9C8
  8
DANMEN
  6
CONTINUOUS
 10
250.499997
 20
150.0
 30
0.0
 40
0.5
 50
270.000018
 51
0.0
  0
LINE
  5
1C9C9
  8
DANMEN
  6
CONTINUOUS
 10
249.8
 20
152.550003
 30
0.0
 11
249.8
 21
150.3
 31
0.0
  0
ARC
  5
1C9CC
  8
DANMEN
  6
CONTINUOUS
 10
250.499997
 20
154.0
 30
0.0
 40
0.5
 50
0.0
 51
89.999982
  0
LINE
  5
1C9CF
  8
DANMEN
  6
CONTINUOUS
 10
249.8
 20
150.3
 30
0.0
 11
248.444781
 21
150.14942
 31
0.0
  0
ARC
  5
1C9D1
  8
DANMEN
  6
CONTINUOUS
 10
237.399994
 20
163.899994
 30
0.0
 40
0.6
 50
270.000018
 51
90.000037
  0
ARC
  5
1C9D6
  8
DANMEN
  6
CONTINUOUS
 10
251.999904
 20
149.0
 30
0.0
 40
1.5
 50
0.000018
 51
90.0
  0
LINE
  5
1C9D7
  8
DANMEN
  6
CONTINUOUS
 10
253.499904
 20
146.500009
 30
0.0
 11
253.499904
 21
149.0
 31
0.0
  0
ARC
  5
1C9D8
  8
DANMEN
  6
CONTINUOUS
 10
254.999904
 20
146.500009
 30
0.0
 40
1.5
 50
179.999982
 51
269.999964
  0
LINE
  5
1C9D9
  8
DANMEN
  6
CONTINUOUS
 10
298.0
 20
126.5
 30
0.0
 11
301.5
 21
126.5
 31
0.0
  0
LINE
  5
1C9DA
  8
DANMEN
  6
CONTINUOUS
 10
291.8
 20
125.0
 30
0.0
 11
302.0
 21
125.0
 31
0.0
  0
LINE
  5
1C9DB
  8
DANMEN
  6
CONTINUOUS
 10
299.949997
 20
132.449997
 30
0.0
 11
311.050003
 21
132.449997
 31
0.0
  0
LINE
  5
1C9DC
  8
DANMEN
  6
CONTINUOUS
 10
299.949997
 20
152.550003
 30
0.0
 11
311.050003
 21
152.550003
 31
0.0
  0
LINE
  5
1C9DD
  8
DANMEN
  6
CONTINUOUS
 10
273.5
 20
130.5
 30
0.0
 11
301.5
 21
130.5
 31
0.0
  0
LINE
  5
1C9DE
  8
DANMEN
  6
CONTINUOUS
 10
273.5
 20
154.5
 30
0.0
 11
312.0
 21
154.5
 31
0.0
  0
LINE
  5
1C9DF
  8
DANMEN
  6
CONTINUOUS
 10
312.499996
 20
122.5
 30
0.0
 11
296.0
 21
122.5
 31
0.0
  0
LINE
  5
1C9E0
  8
DANMEN
  6
CONTINUOUS
 10
289.949997
 20
152.550003
 30
0.0
 11
289.949997
 21
132.449997
 31
0.0
  0
LINE
  5
1C9E1
  8
DANMEN
  6
CONTINUOUS
 10
288.0
 20
152.550003
 30
0.0
 11
288.0
 21
132.449997
 31
0.0
  0
LINE
  5
1C9E2
  8
DANMEN
  6
CONTINUOUS
 10
280.000015
 20
145.000009
 30
0.0
 11
280.000015
 21
140.000006
 31
0.0
  0
LINE
  5
1C9E3
  8
DANMEN
  6
CONTINUOUS
 10
274.2
 20
132.449997
 30
0.0
 11
288.0
 21
132.449997
 31
0.0
  0
LINE
  5
1C9E4
  8
DANMEN
  6
CONTINUOUS
 10
286.050003
 20
122.499997
 30
0.0
 11
279.75
 21
122.499997
 31
0.0
  0
LINE
  5
1C9E5
  8
DANMEN
  6
CONTINUOUS
 10
279.800001
 20
127.499997
 30
0.0
 11
286.050003
 21
127.499997
 31
0.0
  0
LINE
  5
1C9E6
  8
DANMEN
  6
CONTINUOUS
 10
274.2
 20
134.7
 30
0.0
 11
274.2
 21
132.449997
 31
0.0
  0
LINE
  5
1C9E7
  8
DANMEN
  6
CONTINUOUS
 10
273.0
 20
135.0
 30
0.0
 11
273.0
 21
131.0
 31
0.0
  0
LINE
  5
1C9E8
  8
DANMEN
  6
CONTINUOUS
 10
275.9
 20
124.499997
 30
0.0
 11
275.4
 21
123.999997
 31
0.0
  0
LINE
  5
1C9E9
  8
DANMEN
  6
CONTINUOUS
 10
275.589667
 20
126.799997
 30
0.0
 11
278.800001
 21
126.799997
 31
0.0
  0
LINE
  5
1C9EA
  8
DANMEN
  6
CONTINUOUS
 10
277.004653
 20
130.841698
 30
0.0
 11
274.4
 21
126.799997
 31
0.0
  0
LINE
  5
1C9EB
  8
DANMEN
  6
CONTINUOUS
 10
277.845223
 20
130.299997
 30
0.0
 11
275.589667
 21
126.799997
 31
0.0
  0
LINE
  5
1C9EC
  8
DANMEN
  6
CONTINUOUS
 10
278.75
 20
122.499997
 30
0.0
 11
274.2
 21
122.499997
 31
0.0
  0
LINE
  5
1C9ED
  8
DANMEN
  6
CONTINUOUS
 10
274.2
 20
125.999997
 30
0.0
 11
274.2
 21
126.999997
 31
0.0
  0
LINE
  5
1C9F0
  8
DANMEN
  6
CONTINUOUS
 10
275.4
 20
123.999997
 30
0.0
 11
274.4
 21
123.999997
 31
0.0
  0
LINE
  5
1C9F3
  8
DANMEN
  6
CONTINUOUS
 10
274.4
 20
125.999997
 30
0.0
 11
274.4
 21
126.799997
 31
0.0
  0
LINE
  5
1C9F7
  8
DANMEN
  6
CONTINUOUS
 10
274.4
 20
125.999997
 30
0.0
 11
275.4
 21
125.999997
 31
0.0
  0
ARC
  5
1C9F8
  8
DANMEN
  6
CONTINUOUS
 10
274.599999
 20
124.799997
 30
0.0
 40
0.2
 50
89.999982
 51
180.000019
  0
LINE
  5
1C9F9
  8
DANMEN
  6
CONTINUOUS
 10
274.4
 20
124.799997
 30
0.0
 11
274.4
 21
123.999997
 31
0.0
  0
LINE
  5
1C9FA
  8
DANMEN
  6
CONTINUOUS
 10
274.599999
 20
124.999997
 30
0.0
 11
275.4
 21
124.999997
 31
0.0
  0
LINE
  5
1C9FB
  8
DANMEN
  6
CONTINUOUS
 10
275.4
 20
125.999997
 30
0.0
 11
275.4
 21
124.999997
 31
0.0
  0
LINE
  5
1C9FE
  8
DANMEN
  6
CONTINUOUS
 10
274.2
 20
122.499997
 30
0.0
 11
274.2
 21
125.199994
 31
0.0
  0
LINE
  5
1C9FF
  8
DANMEN
  6
CONTINUOUS
 10
275.25
 20
125.199994
 30
0.0
 11
275.25
 21
125.499997
 31
0.0
  0
LINE
  5
1CA00
  8
DANMEN
  6
CONTINUOUS
 10
275.25
 20
125.199994
 30
0.0
 11
274.2
 21
125.199994
 31
0.0
  0
LINE
  5
1CA01
  8
DANMEN
  6
CONTINUOUS
 10
274.75
 20
125.999997
 30
0.0
 11
274.2
 21
125.999997
 31
0.0
  0
ARC
  5
1CA02
  8
DANMEN
  6
CONTINUOUS
 10
274.75
 20
125.499997
 30
0.0
 40
0.5
 50
360.0
 51
89.999982
  0
ARC
  5
1CA03
  8
DANMEN
  6
CONTINUOUS
 10
273.5
 20
131.0
 30
0.0
 40
0.5
 50
180.000019
 51
270.000001
  0
ARC
  5
1CA06
  8
DANMEN
  6
CONTINUOUS
 10
273.7
 20
126.999997
 30
0.0
 40
0.5
 50
0.0
 51
90.0
  0
LINE
  5
1CA07
  8
DANMEN
  6
CONTINUOUS
 10
273.5
 20
127.499997
 30
0.0
 11
273.7
 21
127.499997
 31
0.0
  0
ARC
  5
1CA08
  8
DANMEN
  6
CONTINUOUS
 10
273.5
 20
126.999997
 30
0.0
 40
0.5
 50
90.0
 51
180.0
  0
LINE
  5
1CA09
  8
DANMEN
  6
CONTINUOUS
 10
279.800001
 20
130.699997
 30
0.0
 11
279.800001
 21
125.999997
 31
0.0
  0
LINE
  5
1CA0A
  8
DANMEN
  6
CONTINUOUS
 10
278.800001
 20
130.299997
 30
0.0
 11
278.800001
 21
126.799997
 31
0.0
  0
LINE
  5
1CA0D
  8
DANMEN
  6
CONTINUOUS
 10
277.6
 20
125.999997
 30
0.0
 11
279.800001
 21
125.999997
 31
0.0
  0
LINE
  5
1CA0E
  8
DANMEN
  6
CONTINUOUS
 10
277.6
 20
123.999997
 30
0.0
 11
277.1
 21
124.499997
 31
0.0
  0
LINE
  5
1CA13
  8
DANMEN
  6
CONTINUOUS
 10
275.9
 20
124.499997
 30
0.0
 11
277.1
 21
124.499997
 31
0.0
  0
LINE
  5
1CA14
  8
DANMEN
  6
CONTINUOUS
 10
278.6
 20
123.999997
 30
0.0
 11
277.6
 21
123.999997
 31
0.0
  0
ARC
  5
1CA18
  8
DANMEN
  6
CONTINUOUS
 10
278.400001
 20
124.799997
 30
0.0
 40
0.2
 50
359.999981
 51
90.000037
  0
LINE
  5
1CA19
  8
DANMEN
  6
CONTINUOUS
 10
278.6
 20
124.799997
 30
0.0
 11
278.6
 21
123.999997
 31
0.0
  0
LINE
  5
1CA1A
  8
DANMEN
  6
CONTINUOUS
 10
278.400001
 20
124.999997
 30
0.0
 11
277.6
 21
124.999997
 31
0.0
  0
LINE
  5
1CA1B
  8
DANMEN
  6
CONTINUOUS
 10
277.6
 20
125.999997
 30
0.0
 11
277.6
 21
124.999997
 31
0.0
  0
LINE
  5
1CA1D
  8
DANMEN
  6
CONTINUOUS
 10
279.25
 20
125.999997
 30
0.0
 11
278.25
 21
125.999997
 31
0.0
  0
LINE
  5
1CA1E
  8
DANMEN
  6
CONTINUOUS
 10
279.75
 20
122.499997
 30
0.0
 11
279.75
 21
125.499997
 31
0.0
  0
LINE
  5
1CA1F
  8
DANMEN
  6
CONTINUOUS
 10
277.75
 20
125.199994
 30
0.0
 11
277.75
 21
125.499997
 31
0.0
  0
LINE
  5
1CA20
  8
DANMEN
  6
CONTINUOUS
 10
278.75
 20
125.199994
 30
0.0
 11
277.75
 21
125.199994
 31
0.0
  0
LINE
  5
1CA21
  8
DANMEN
  6
CONTINUOUS
 10
278.75
 20
122.499997
 30
0.0
 11
278.75
 21
125.199994
 31
0.0
  0
ARC
  5
1CA22
  8
DANMEN
  6
CONTINUOUS
 10
278.25
 20
125.499997
 30
0.0
 40
0.5
 50
89.999982
 51
180.000019
  0
ARC
  5
1CA23
  8
DANMEN
  6
CONTINUOUS
 10
279.25
 20
125.499997
 30
0.0
 40
0.5
 50
360.0
 51
89.999982
  0
LINE
  5
1CA24
  8
DANMEN
  6
CONTINUOUS
 10
277.845223
 20
131.299997
 30
0.0
 11
279.200001
 21
131.299997
 31
0.0
  0
LINE
  5
1CA25
  8
DANMEN
  6
CONTINUOUS
 10
277.845223
 20
130.299997
 30
0.0
 11
278.800001
 21
130.299997
 31
0.0
  0
ARC
  5
1CA2A
  8
DANMEN
  6
CONTINUOUS
 10
279.200001
 20
130.699997
 30
0.0
 40
0.6
 50
0.0
 51
90.0
  0
ARC
  5
1CA2D
  8
DANMEN
  6
CONTINUOUS
 10
277.845223
 20
130.299997
 30
0.0
 40
1.0
 50
90.0
 51
147.20046
  0
ARC
  5
1CA31
  8
DANMEN
  6
CONTINUOUS
 10
275.5
 20
135.347521
 30
0.0
 40
0.5
 50
276.340191
 51
0.0
  0
LINE
  5
1CA32
  8
DANMEN
  6
CONTINUOUS
 10
273.5
 20
135.5
 30
0.0
 11
276.0
 21
135.5
 31
0.0
  0
LINE
  5
1CA33
  8
DANMEN
  6
CONTINUOUS
 10
270.5
 20
138.499991
 30
0.0
 11
270.5
 21
136.0
 31
0.0
  0
ARC
  5
1CA34
  8
DANMEN
  6
CONTINUOUS
 10
272.0
 20
136.0
 30
0.0
 40
1.5
 50
180.000018
 51
270.0
  0
LINE
  5
1CA35
  8
DANMEN
  6
CONTINUOUS
 10
275.555216
 20
134.85058
 30
0.0
 11
274.2
 21
134.7
 31
0.0
  0
ARC
  5
1CA37
  8
DANMEN
  6
CONTINUOUS
 10
273.5
 20
135.0
 30
0.0
 40
0.5
 50
89.999982
 51
180.000019
  0
ARC
  5
1CA39
  8
DANMEN
  6
CONTINUOUS
 10
269.0
 20
138.499991
 30
0.0
 40
1.5
 50
359.999982
 51
89.999964
  0
LINE
  5
1CA3F
  8
DANMEN
  6
CONTINUOUS
 10
276.0
 20
135.5
 30
0.0
 11
276.0
 21
135.347521
 31
0.0
  0
LINE
  5
1CA40
  8
DANMEN
  6
CONTINUOUS
 10
298.949997
 20
134.0
 30
0.0
 11
298.949997
 21
132.449997
 31
0.0
  0
LINE
  5
1CA41
  8
DANMEN
  6
CONTINUOUS
 10
299.949997
 20
134.5
 30
0.0
 11
299.949997
 21
132.449997
 31
0.0
  0
LINE
  5
1CA42
  8
DANMEN
  6
CONTINUOUS
 10
297.5
 20
127.3
 30
0.0
 11
291.714855
 21
125.587664
 31
0.0
  0
LINE
  5
1CA43
  8
DANMEN
  6
CONTINUOUS
 10
289.949997
 20
132.449997
 30
0.0
 11
298.949997
 21
132.449997
 31
0.0
  0
LINE
  5
1CA44
  8
DANMEN
  6
CONTINUOUS
 10
296.0
 20
122.499997
 30
0.0
 11
287.550003
 21
122.499997
 31
0.0
  0
LINE
  5
1CA45
  8
DANMEN
  6
CONTINUOUS
 10
297.250003
 20
127.999997
 30
0.0
 11
287.05
 21
127.999997
 31
0.0
  0
LINE
  5
1CA46
  8
DANMEN
  6
CONTINUOUS
 10
291.550003
 20
125.699997
 30
0.0
 11
297.335148
 21
127.412333
 31
0.0
  0
LINE
  5
1CA47
  8
DANMEN
  6
CONTINUOUS
 10
286.050003
 20
122.499997
 30
0.0
 11
286.050003
 21
126.999997
 31
0.0
  0
LINE
  5
1CA48
  8
DANMEN
  6
CONTINUOUS
 10
291.050003
 20
126.499997
 30
0.0
 11
287.55
 21
126.499997
 31
0.0
  0
LINE
  5
1CA49
  8
DANMEN
  6
CONTINUOUS
 10
287.55
 20
122.499997
 30
0.0
 11
287.55
 21
126.499997
 31
0.0
  0
ARC
  5
1CA4A
  8
DANMEN
  6
CONTINUOUS
 10
291.8
 20
125.3
 30
0.0
 40
0.3
 50
106.488148
 51
270.0
  0
LINE
  5
1CA4D
  8
DANMEN
  6
CONTINUOUS
 10
291.050003
 20
126.499997
 30
0.0
 11
291.050003
 21
125.699997
 31
0.0
  0
LINE
  5
1CA4E
  8
DANMEN
  6
CONTINUOUS
 10
291.550003
 20
125.699997
 30
0.0
 11
291.050003
 21
125.699997
 31
0.0
  0
ARC
  5
1CA50
  8
DANMEN
  6
CONTINUOUS
 10
287.05
 20
126.999997
 30
0.0
 40
1.0
 50
89.999982
 51
180.000019
  0
LINE
  5
1CA52
  8
DANMEN
  6
CONTINUOUS
 10
298.0
 20
126.5
 30
0.0
 11
298.0
 21
127.3
 31
0.0
  0
LINE
  5
1CA57
  8
DANMEN
  6
CONTINUOUS
 10
297.5
 20
127.3
 30
0.0
 11
298.0
 21
127.3
 31
0.0
  0
ARC
  5
1CA5A
  8
DANMEN
  6
CONTINUOUS
 10
297.250003
 20
127.699997
 30
0.0
 40
0.3
 50
286.488148
 51
90.0
  0
ARC
  5
1CA5B
  8
DANMEN
  6
CONTINUOUS
 10
299.449997
 20
134.0
 30
0.0
 40
0.5
 50
89.999982
 51
180.000019
  0
LINE
  5
1CA5E
  8
DANMEN
  6
CONTINUOUS
 10
299.449997
 20
134.5
 30
0.0
 11
299.949997
 21
134.5
 31
0.0
  0
LINE
  5
1CA5F
  8
DANMEN
  6
CONTINUOUS
 10
274.2
 20
152.550003
 30
0.0
 11
288.0
 21
152.550003
 31
0.0
  0
ARC
  5
1CA60
  8
DANMEN
  6
CONTINUOUS
 10
275.5
 20
149.652479
 30
0.0
 40
0.5
 50
0.0
 51
83.659809
  0
LINE
  5
1CA61
  8
DANMEN
  6
CONTINUOUS
 10
273.5
 20
149.5
 30
0.0
 11
276.0
 21
149.5
 31
0.0
  0
ARC
  5
1CA62
  8
DANMEN
  6
CONTINUOUS
 10
272.0
 20
149.0
 30
0.0
 40
1.5
 50
89.999964
 51
180.000001
  0
LINE
  5
1CA63
  8
DANMEN
  6
CONTINUOUS
 10
273.0
 20
154.0
 30
0.0
 11
273.0
 21
150.0
 31
0.0
  0
LINE
  5
1CA64
  8
DANMEN
  6
CONTINUOUS
 10
270.5
 20
149.0
 30
0.0
 11
270.5
 21
146.499994
 31
0.0
  0
ARC
  5
1CA65
  8
DANMEN
  6
CONTINUOUS
 10
269.0
 20
146.499994
 30
0.0
 40
1.5
 50
270.0
 51
359.999982
  0
ARC
  5
1CA66
  8
DANMEN
  6
CONTINUOUS
 10
273.5
 20
150.0
 30
0.0
 40
0.5
 50
180.000019
 51
270.000001
  0
LINE
  5
1CA68
  8
DANMEN
  6
CONTINUOUS
 10
274.2
 20
150.3
 30
0.0
 11
275.555216
 21
150.14942
 31
0.0
  0
ARC
  5
1CA6A
  8
DANMEN
  6
CONTINUOUS
 10
273.5
 20
154.0
 30
0.0
 40
0.5
 50
89.999982
 51
180.000019
  0
LINE
  5
1CA6D
  8
DANMEN
  6
CONTINUOUS
 10
274.2
 20
152.550003
 30
0.0
 11
274.2
 21
150.3
 31
0.0
  0
LINE
  5
1CA6F
  8
DANMEN
  6
CONTINUOUS
 10
276.0
 20
149.652479
 30
0.0
 11
276.0
 21
149.5
 31
0.0
  0
LINE
  5
1CA72
  8
DANMEN
  6
CONTINUOUS
 10
289.949997
 20
152.550003
 30
0.0
 11
298.949997
 21
152.550003
 31
0.0
  0
ARC
  5
1CA77
  8
DANMEN
  6
CONTINUOUS
 10
299.449997
 20
151.0
 30
0.0
 40
0.5
 50
180.000019
 51
270.000001
  0
LINE
  5
1CA7A
  8
DANMEN
  6
CONTINUOUS
 10
298.949997
 20
152.550003
 30
0.0
 11
298.949997
 21
151.0
 31
0.0
  0
LINE
  5
1CA7B
  8
DANMEN
  6
CONTINUOUS
 10
299.949997
 20
152.550003
 30
0.0
 11
299.949997
 21
150.5
 31
0.0
  0
LINE
  5
1CA7C
  8
DANMEN
  6
CONTINUOUS
 10
299.449997
 20
150.5
 30
0.0
 11
299.949997
 21
150.5
 31
0.0
  0
LINE
  5
1CA7D
  8
DANMEN
  6
CONTINUOUS
 10
313.0
 20
153.5
 30
0.0
 11
313.0
 21
126.1
 31
0.0
  0
LINE
  5
1CA7E
  8
DANMEN
  6
CONTINUOUS
 10
311.050003
 20
152.550003
 30
0.0
 11
311.050003
 21
132.449997
 31
0.0
  0
LINE
  5
1CA7F
  8
DANMEN
  6
CONTINUOUS
 10
303.0
 20
130.5
 30
0.0
 11
311.8
 21
130.5
 31
0.0
  0
LINE
  5
1CA80
  8
DANMEN
  6
CONTINUOUS
 10
303.0
 20
127.5
 30
0.0
 11
311.8
 21
127.5
 31
0.0
  0
LINE
  5
1CA81
  8
DANMEN
  6
CONTINUOUS
 10
303.0
 20
130.5
 30
0.0
 11
303.0
 21
126.0
 31
0.0
  0
LINE
  5
1CA82
  8
DANMEN
  6
CONTINUOUS
 10
301.5
 20
130.5
 30
0.0
 11
301.5
 21
126.5
 31
0.0
  0
ARC
  5
1CA85
  8
DANMEN
  6
CONTINUOUS
 10
302.0
 20
126.0
 30
0.0
 40
1.0
 50
270.000018
 51
0.0
  0
LINE
  5
1CA8A
  8
DANMEN
  6
CONTINUOUS
 10
311.8
 20
130.5
 30
0.0
 11
311.8
 21
126.1
 31
0.0
  0
ARC
  5
1CA8B
  8
DANMEN
  6
CONTINUOUS
 10
312.4
 20
126.1
 30
0.0
 40
0.6
 50
180.0
 51
0.0
  0
ARC
  5
1CA8C
  8
DANMEN
  6
CONTINUOUS
 10
312.499997
 20
122.0
 30
0.0
 40
0.5
 50
0.000091
 51
90.000128
  0
ARC
  5
1CA91
  8
DANMEN
  6
CONTINUOUS
 10
312.0
 20
153.5
 30
0.0
 40
1.0
 50
0.0
 51
89.999982
  0
LINE
  5
1CA94
  8
SUNPO
  6
CONTINUOUS
 10
22.0
 20
185.5
 30
0.0
 11
22.0
 21
220.5
 31
0.0
  0
LINE
  5
1CA95
  8
DANMEN
  6
CONTINUOUS
 10
358.500004
 20
122.5
 30
0.0
 11
375.0
 21
122.5
 31
0.0
  0
LINE
  5
1CA96
  8
DANMEN
  6
CONTINUOUS
 10
339.5
 20
154.5
 30
0.0
 11
388.0
 21
154.5
 31
0.0
  0
LINE
  5
1CA97
  8
DANMEN
  6
CONTINUOUS
 10
339.5
 20
127.5
 30
0.0
 11
388.0
 21
127.5
 31
0.0
  0
LINE
  5
1CA98
  8
DANMEN
  6
CONTINUOUS
 10
339.5
 20
144.0
 30
0.0
 11
388.0
 21
144.0
 31
0.0
  0
LINE
  5
1CA99
  8
DANMEN
  6
CONTINUOUS
 10
339.5
 20
141.0
 30
0.0
 11
388.0
 21
141.0
 31
0.0
  0
LINE
  5
1CA9A
  8
DANMEN
  6
CONTINUOUS
 10
373.0
 20
161.5
 30
0.0
 11
353.0
 21
161.5
 31
0.0
  0
LINE
  5
1CA9B
  8
DANMEN
  6
CONTINUOUS
 10
339.5
 20
121.000015
 30
0.0
 11
349.35104
 21
121.000015
 31
0.0
  0
LINE
  5
1CA9C
  8
DANMEN
  6
CONTINUOUS
 10
339.5
 20
122.5
 30
0.0
 11
349.354875
 21
122.5
 31
0.0
  0
LINE
  5
1CA9D
  8
DANMEN
  6
CONTINUOUS
 10
352.35104
 20
121.000015
 30
0.0
 11
358.0
 21
121.000015
 31
0.0
  0
LINE
  5
1CA9E
  8
DANMEN
  6
CONTINUOUS
 10
352.354875
 20
122.5
 30
0.0
 11
358.0
 21
122.5
 31
0.0
  0
ARC
  5
1CA9F
  8
DANMEN
  6
CONTINUOUS
 10
358.500003
 20
122.0
 30
0.0
 40
0.5
 50
89.999872
 51
179.999909
  0
LINE
  5
1CAA0
  8
DANMEN
  6
CONTINUOUS
 10
348.600006
 20
164.5
 30
0.0
 11
353.0
 21
164.5
 31
0.0
  0
LINE
  5
1CAA1
  8
DANMEN
  6
CONTINUOUS
 10
348.600006
 20
163.300003
 30
0.0
 11
353.0
 21
163.300003
 31
0.0
  0
LINE
  5
1CAA2
  8
DANMEN
  6
CONTINUOUS
 10
353.0
 20
160.300003
 30
0.0
 11
339.5
 21
160.300003
 31
0.0
  0
LINE
  5
1CAA3
  8
DANMEN
  6
CONTINUOUS
 10
348.600006
 20
164.5
 30
0.0
 11
339.5
 21
164.5
 31
0.0
  0
LINE
  5
1CAA4
  8
DANMEN
  6
CONTINUOUS
 10
348.600006
 20
163.300003
 30
0.0
 11
339.5
 21
163.300003
 31
0.0
  0
ARC
  5
1CAA5
  8
DANMEN
  6
CONTINUOUS
 10
348.600006
 20
163.899994
 30
0.0
 40
0.6
 50
89.999963
 51
269.999982
  0
LINE
  5
1CAAA
  8
DANMEN
  6
CONTINUOUS
 10
353.0
 20
164.5
 30
0.0
 11
353.0
 21
160.300003
 31
0.0
  0
LINE
  5
1CAAC
  8
DANMEN
  6
CONTINUOUS
 10
388.0
 20
160.300003
 30
0.0
 11
388.0
 21
122.499994
 31
0.0
  0
LINE
  5
1CAAD
  8
DANMEN
  6
CONTINUOUS
 10
388.0
 20
122.499994
 30
0.0
 11
375.0
 21
122.499994
 31
0.0
  0
LINE
  5
1CAAE
  8
DANMEN
  6
CONTINUOUS
 10
397.5
 20
161.5
 30
0.0
 11
373.5
 21
161.5
 31
0.0
  0
LINE
  5
1CAAF
  8
DANMEN
  6
CONTINUOUS
 10
386.0
 20
159.850006
 30
0.0
 11
373.5
 21
159.850006
 31
0.0
  0
LINE
  5
1CAB0
  8
DANMEN
  6
CONTINUOUS
 10
373.0
 20
161.0
 30
0.0
 11
373.0
 21
160.350006
 31
0.0
  0
ARC
  5
1CAB1
  8
DANMEN
  6
CONTINUOUS
 10
373.5
 20
160.350006
 30
0.0
 40
0.5
 50
180.000019
 51
270.000001
  0
ARC
  5
1CAB2
  8
DANMEN
  6
CONTINUOUS
 10
373.5
 20
161.0
 30
0.0
 40
0.5
 50
90.000037
 51
180.000019
  0
ARC
  5
1CAB3
  8
DANMEN
  6
CONTINUOUS
 10
397.5
 20
156.0
 30
0.0
 40
0.5
 50
270.000018
 51
359.999981
  0
ARC
  5
1CAB4
  8
DANMEN
  6
CONTINUOUS
 10
396.850006
 20
156.0
 30
0.0
 40
0.5
 50
180.000019
 51
270.000001
  0
LINE
  5
1CAB5
  8
DANMEN
  6
CONTINUOUS
 10
397.5
 20
155.5
 30
0.0
 11
396.850006
 21
155.5
 31
0.0
  0
LINE
  5
1CAB6
  8
DANMEN
  6
CONTINUOUS
 10
396.350006
 20
159.850006
 30
0.0
 11
389.649994
 21
159.850006
 31
0.0
  0
LINE
  5
1CAB7
  8
DANMEN
  6
CONTINUOUS
 10
388.0
 20
160.300003
 30
0.0
 11
386.0
 21
160.300003
 31
0.0
  0
LINE
  5
1CAB8
  8
DANMEN
  6
CONTINUOUS
 10
386.0
 20
160.300003
 30
0.0
 11
386.0
 21
159.850006
 31
0.0
  0
LINE
  5
1CAB9
  8
DANMEN
  6
CONTINUOUS
 10
398.0
 20
161.0
 30
0.0
 11
398.0
 21
156.0
 31
0.0
  0
LINE
  5
1CABA
  8
DANMEN
  6
CONTINUOUS
 10
396.350006
 20
159.850006
 30
0.0
 11
396.350006
 21
156.0
 31
0.0
  0
ARC
  5
1CABB
  8
DANMEN
  6
CONTINUOUS
 10
397.5
 20
161.0
 30
0.0
 40
0.5
 50
0.0
 51
89.999982
  0
TEXT
  5
1CABC
  8
SUNPO
  6
CONTINUOUS
 10
58.916667
 20
166.5
 30
0.0
 40
2.5
  1
24
  7
MX_NOTE_STANDARD
  0
TEXT
  5
1CABD
  8
SUNPO
  6
CONTINUOUS
 10
34.013333
 20
166.5
 30
0.0
 40
2.5
  1
3
  7
MX_NOTE_STANDARD
  0
TEXT
  5
1CABE
  8
SUNPO
  6
CONTINUOUS
 10
44.666667
 20
166.5
 30
0.0
 40
2.5
  1
7
  7
MX_NOTE_STANDARD
  0
LINE
  5
1CABF
  8
SUNPO
  6
CONTINUOUS
 10
40.5
 20
150.5
 30
0.0
 11
22.0
 21
150.5
 31
0.0
  0
ARC
  5
1CAC0
  8
SUNPO
  6
BYBLOCK
 10
22.0
 20
150.5
 30
0.0
 40
0.145
 50
90.0
 51
270.0
  0
ARC
  5
1CAC1
  8
SUNPO
  6
BYBLOCK
 10
22.0
 20
150.5
 30
0.0
 40
0.145
 50
270.0
 51
90.0
  0
LINE
  5
1CAC2
  8
SUNPO
  6
CONTINUOUS
 10
49.0
 20
165.5
 30
0.0
 11
42.0
 21
165.5
 31
0.0
  0
LINE
  5
1CAC3
  8
SUNPO
  6
CONTINUOUS
 10
42.0
 20
165.5
 30
0.0
 11
39.0
 21
165.5
 31
0.0
  0
LINE
  5
1CAC4
  8
SUNPO
  6
CONTINUOUS
 10
39.0
 20
157.0
 30
0.0
 11
39.0
 21
165.5
 31
0.0
  0
LINE
  5
1CAC5
  8
SUNPO
  6
CONTINUOUS
 10
39.0
 20
165.5
 30
0.0
 11
33.013333
 21
165.5
 31
0.0
  0
ARC
  5
1CAC6
  8
SUNPO
  6
BYBLOCK
 10
39.0
 20
165.5
 30
0.0
 40
0.145
 50
180.0
 51
0.0
  0
ARC
  5
1CAC7
  8
SUNPO
  6
BYBLOCK
 10
39.0
 20
165.5
 30
0.0
 40
0.145
 50
0.0
 51
180.0
  0
ARC
  5
1CAC8
  8
SUNPO
  6
BYBLOCK
 10
42.0
 20
165.5
 30
0.0
 40
0.145
 50
180.0
 51
0.0
  0
ARC
  5
1CAC9
  8
SUNPO
  6
BYBLOCK
 10
42.0
 20
165.5
 30
0.0
 40
0.145
 50
0.0
 51
180.0
  0
ARC
  5
1CACA
  8
SUNPO
  6
BYBLOCK
 10
42.0
 20
165.5
 30
0.0
 40
0.145
 50
0.0
 51
180.0
  0
ARC
  5
1CACB
  8
SUNPO
  6
BYBLOCK
 10
42.0
 20
165.5
 30
0.0
 40
0.145
 50
180.0
 51
0.0
  0
ARC
  5
1CACC
  8
SUNPO
  6
BYBLOCK
 10
49.0
 20
165.5
 30
0.0
 40
0.145
 50
0.0
 51
180.0
  0
ARC
  5
1CACD
  8
SUNPO
  6
BYBLOCK
 10
49.0
 20
165.5
 30
0.0
 40
0.145
 50
180.0
 51
0.0
  0
ARC
  5
1CACE
  8
SUNPO
  6
BYBLOCK
 10
49.0
 20
165.5
 30
0.0
 40
0.145
 50
180.0
 51
0.0
  0
ARC
  5
1CACF
  8
SUNPO
  6
BYBLOCK
 10
49.0
 20
165.5
 30
0.0
 40
0.145
 50
0.0
 51
180.0
  0
LINE
  5
1CAD0
  8
SUNPO
  6
CONTINUOUS
 10
40.5
 20
185.5
 30
0.0
 11
22.0
 21
185.5
 31
0.0
  0
ARC
  5
1CAD1
  8
SUNPO
  6
BYBLOCK
 10
22.0
 20
185.5
 30
0.0
 40
0.145
 50
270.0
 51
90.0
  0
ARC
  5
1CAD2
  8
SUNPO
  6
BYBLOCK
 10
22.0
 20
185.5
 30
0.0
 40
0.145
 50
90.0
 51
270.0
  0
TEXT
  5
1CAD3
  8
SUNPO
  6
CONTINUOUS
 10
21.0
 20
200.916667
 30
0.0
 40
2.5
  1
35
 50
90.0
  7
MX_NOTE_STANDARD
  0
ARC
  5
1CAD4
  8
SUNPO
  6
BYBLOCK
 10
42.0
 20
175.5
 30
0.0
 40
0.145
 50
180.0
 51
0.0
  0
ARC
  5
1CAD5
  8
SUNPO
  6
BYBLOCK
 10
42.0
 20
175.5
 30
0.0
 40
0.145
 50
0.0
 51
180.0
  0
LINE
  5
1CAD6
  8
SUNPO
  6
CONTINUOUS
 10
40.5
 20
255.5
 30
0.0
 11
22.0
 21
255.5
 31
0.0
  0
LINE
  5
1CAD7
  8
SUNPO
  6
CONTINUOUS
 10
40.5
 20
220.5
 30
0.0
 11
22.0
 21
220.5
 31
0.0
  0
TEXT
  5
1CAD8
  8
SUNPO
  6
CONTINUOUS
 10
21.0
 20
235.916667
 30
0.0
 40
2.5
  1
35
 50
90.0
  7
MX_NOTE_STANDARD
  0
LINE
  5
1CAD9
  8
SUNPO
  6
CONTINUOUS
 10
22.0
 20
255.5
 30
0.0
 11
22.0
 21
220.5
 31
0.0
  0
ARC
  5
1CADA
  8
SUNPO
  6
BYBLOCK
 10
22.0
 20
220.5
 30
0.0
 40
0.145
 50
270.0
 51
90.0
  0
ARC
  5
1CADB
  8
SUNPO
  6
BYBLOCK
 10
22.0
 20
220.5
 30
0.0
 40
0.145
 50
90.0
 51
270.0
  0
ARC
  5
1CADC
  8
SUNPO
  6
BYBLOCK
 10
22.0
 20
220.5
 30
0.0
 40
0.145
 50
90.0
 51
270.0
  0
ARC
  5
1CADD
  8
SUNPO
  6
BYBLOCK
 10
22.0
 20
220.5
 30
0.0
 40
0.145
 50
270.0
 51
90.0
  0
ARC
  5
1CADE
  8
SUNPO
  6
BYBLOCK
 10
22.0
 20
255.5
 30
0.0
 40
0.145
 50
90.0
 51
270.0
  0
ARC
  5
1CADF
  8
SUNPO
  6
BYBLOCK
 10
22.0
 20
255.5
 30
0.0
 40
0.145
 50
270.0
 51
90.0
  0
LINE
  5
1CAE0
  8
SUNPO
  6
CONTINUOUS
 10
153.0
 20
220.5
 30
0.0
 11
153.0
 21
185.5
 31
0.0
  0
LINE
  5
1CAE1
  8
SUNPO
  6
CONTINUOUS
 10
163.0
 20
220.5
 30
0.0
 11
163.0
 21
169.561083
 31
0.0
  0
LINE
  5
1CAE2
  8
SUNPO
  6
CONTINUOUS
 10
113.5
 20
150.5
 30
0.0
 11
153.0
 21
150.5
 31
0.0
  0
LINE
  5
1CAE3
  8
SUNPO
  6
CONTINUOUS
 10
140.0
 20
165.5
 30
0.0
 11
112.0
 21
165.5
 31
0.0
  0
LINE
  5
1CAE4
  8
SUNPO
  6
CONTINUOUS
 10
113.5
 20
185.5
 30
0.0
 11
153.0
 21
185.5
 31
0.0
  0
LINE
  5
1CAE5
  8
SUNPO
  6
CONTINUOUS
 10
113.5
 20
138.5
 30
0.0
 11
153.0
 21
138.5
 31
0.0
  0
TEXT
  5
1CAE6
  8
SUNPO
  6
CONTINUOUS
 10
123.916667
 20
166.5
 30
0.0
 40
2.5
  1
28
  7
MX_NOTE_STANDARD
  0
TEXT
  5
1CAE7
  8
SUNPO
  6
CONTINUOUS
 10
76.166667
 20
166.5
 30
0.0
 40
2.5
  1
8
  7
MX_NOTE_STANDARD
  0
TEXT
  5
1CAE8
  8
SUNPO
  6
CONTINUOUS
 10
94.833333
 20
166.5
 30
0.0
 40
2.5
  1
31
  7
MX_NOTE_STANDARD
  0
TEXT
  5
1CAE9
  8
SUNPO
  6
CONTINUOUS
 10
94.948596
 20
149.639205
 30
0.0
 40
2.5
  1
20
  7
MX_NOTE_STANDARD
  0
LINE
  5
1CAEA
  8
SUNPO
  6
CONTINUOUS
 10
83.5
 20
148.639205
 30
0.0
 11
103.5
 21
148.639205
 31
0.0
  0
LINE
  5
1CAEB
  8
SUNPO
  6
CONTINUOUS
 10
81.0
 20
165.5
 30
0.0
 11
112.0
 21
165.5
 31
0.0
  0
LINE
  5
1CAEC
  8
SUNPO
  6
CONTINUOUS
 10
83.5
 20
139.5
 30
0.0
 11
83.5
 21
148.639205
 31
0.0
  0
ARC
  5
1CAED
  8
SUNPO
  6
BYBLOCK
 10
81.0
 20
148.639205
 30
0.0
 40
0.145
 50
180.0
 51
0.0
  0
ARC
  5
1CAEE
  8
SUNPO
  6
BYBLOCK
 10
81.0
 20
148.639205
 30
0.0
 40
0.145
 50
0.0
 51
180.0
  0
ARC
  5
1CAEF
  8
SUNPO
  6
BYBLOCK
 10
81.0
 20
165.5
 30
0.0
 40
0.145
 50
180.0
 51
0.0
  0
ARC
  5
1CAF0
  8
SUNPO
  6
BYBLOCK
 10
81.0
 20
165.5
 30
0.0
 40
0.145
 50
0.0
 51
180.0
  0
ARC
  5
1CAF1
  8
SUNPO
  6
BYBLOCK
 10
81.0
 20
165.5
 30
0.0
 40
0.145
 50
0.0
 51
180.0
  0
ARC
  5
1CAF2
  8
SUNPO
  6
BYBLOCK
 10
81.0
 20
165.5
 30
0.0
 40
0.145
 50
180.0
 51
0.0
  0
TEXT
  5
1CAF3
  8
SUNPO
  6
CONTINUOUS
 10
79.75
 20
149.639205
 30
0.0
 40
2.5
  1
2.5
  7
MX_NOTE_STANDARD
  0
LINE
  5
1CAF4
  8
SUNPO
  6
CONTINUOUS
 10
81.0
 20
165.5
 30
0.0
 11
73.0
 21
165.5
 31
0.0
  0
ARC
  5
1CAF5
  8
SUNPO
  6
BYBLOCK
 10
73.0
 20
165.5
 30
0.0
 40
0.145
 50
180.0
 51
0.0
  0
ARC
  5
1CAF6
  8
SUNPO
  6
BYBLOCK
 10
73.0
 20
165.5
 30
0.0
 40
0.145
 50
0.0
 51
180.0
  0
ARC
  5
1CAF7
  8
SUNPO
  6
BYBLOCK
 10
73.0
 20
165.5
 30
0.0
 40
0.145
 50
0.0
 51
180.0
  0
ARC
  5
1CAF8
  8
SUNPO
  6
BYBLOCK
 10
73.0
 20
165.5
 30
0.0
 40
0.145
 50
180.0
 51
0.0
  0
ARC
  5
1CAF9
  8
SUNPO
  6
BYBLOCK
 10
83.5
 20
148.639205
 30
0.0
 40
0.145
 50
0.0
 51
180.0
  0
ARC
  5
1CAFA
  8
SUNPO
  6
BYBLOCK
 10
83.5
 20
148.639205
 30
0.0
 40
0.145
 50
180.0
 51
0.0
  0
ARC
  5
1CAFB
  8
SUNPO
  6
BYBLOCK
 10
83.5
 20
148.639205
 30
0.0
 40
0.145
 50
180.0
 51
0.0
  0
ARC
  5
1CAFC
  8
SUNPO
  6
BYBLOCK
 10
83.5
 20
148.639205
 30
0.0
 40
0.145
 50
0.0
 51
180.0
  0
LINE
  5
1CAFD
  8
SUNPO
  6
CONTINUOUS
 10
81.0
 20
148.639205
 30
0.0
 11
83.5
 21
148.639205
 31
0.0
  0
LINE
  5
1CAFE
  8
SUNPO
  6
CONTINUOUS
 10
105.9
 20
139.5
 30
0.0
 11
105.9
 21
148.639205
 31
0.0
  0
LINE
  5
1CAFF
  8
SUNPO
  6
CONTINUOUS
 10
103.5
 20
139.5
 30
0.0
 11
103.5
 21
148.639205
 31
0.0
  0
LINE
  5
1CB00
  8
SUNPO
  6
CONTINUOUS
 10
112.0
 20
123.497913
 30
0.0
 11
112.0
 21
165.5
 31
0.0
  0
TEXT
  5
1CB01
  8
SUNPO
  6
CONTINUOUS
 10
109.22
 20
149.639205
 30
0.0
 40
2.5
  1
2.4
  7
MX_NOTE_STANDARD
  0
LINE
  5
1CB02
  8
SUNPO
  6
CONTINUOUS
 10
105.9
 20
148.639205
 30
0.0
 11
115.22
 21
148.639205
 31
0.0
  0
LINE
  5
1CB03
  8
SUNPO
  6
CONTINUOUS
 10
103.5
 20
148.639205
 30
0.0
 11
105.9
 21
148.639205
 31
0.0
  0
ARC
  5
1CB04
  8
SUNPO
  6
BYBLOCK
 10
103.5
 20
148.639205
 30
0.0
 40
0.145
 50
180.0
 51
0.0
  0
ARC
  5
1CB05
  8
SUNPO
  6
BYBLOCK
 10
103.5
 20
148.639205
 30
0.0
 40
0.145
 50
0.0
 51
180.0
  0
ARC
  5
1CB06
  8
SUNPO
  6
BYBLOCK
 10
103.5
 20
148.639205
 30
0.0
 40
0.145
 50
0.0
 51
180.0
  0
ARC
  5
1CB07
  8
SUNPO
  6
BYBLOCK
 10
103.5
 20
148.639205
 30
0.0
 40
0.145
 50
180.0
 51
0.0
  0
ARC
  5
1CB08
  8
SUNPO
  6
BYBLOCK
 10
105.9
 20
148.639205
 30
0.0
 40
0.145
 50
0.0
 51
180.0
  0
ARC
  5
1CB09
  8
SUNPO
  6
BYBLOCK
 10
105.9
 20
148.639205
 30
0.0
 40
0.145
 50
180.0
 51
0.0
  0
ARC
  5
1CB0A
  8
SUNPO
  6
BYBLOCK
 10
112.0
 20
165.5
 30
0.0
 40
0.145
 50
0.0
 51
180.0
  0
ARC
  5
1CB0B
  8
SUNPO
  6
BYBLOCK
 10
112.0
 20
165.5
 30
0.0
 40
0.145
 50
180.0
 51
0.0
  0
ARC
  5
1CB0C
  8
SUNPO
  6
BYBLOCK
 10
112.0
 20
165.5
 30
0.0
 40
0.145
 50
180.0
 51
0.0
  0
ARC
  5
1CB0D
  8
SUNPO
  6
BYBLOCK
 10
112.0
 20
165.5
 30
0.0
 40
0.145
 50
0.0
 51
180.0
  0
TEXT
  5
1CB0E
  8
SUNPO
  6
CONTINUOUS
 10
76.443604
 20
176.5
 30
0.0
 40
2.5
  1
70
  7
MX_NOTE_STANDARD
  0
LINE
  5
1CB0F
  8
SUNPO
  6
CONTINUOUS
 10
112.0
 20
180.002085
 30
0.0
 11
112.0
 21
175.5
 31
0.0
  0
ARC
  5
1CB10
  8
SUNPO
  6
BYBLOCK
 10
112.0
 20
175.5
 30
0.0
 40
0.145
 50
0.0
 51
180.0
  0
ARC
  5
1CB11
  8
SUNPO
  6
BYBLOCK
 10
112.0
 20
175.5
 30
0.0
 40
0.145
 50
180.0
 51
0.0
  0
LINE
  5
1CB12
  8
SUNPO
  6
CONTINUOUS
 10
159.0
 20
153.641045
 30
0.0
 11
167.0
 21
153.641045
 31
0.0
  0
LINE
  5
1CB13
  8
SUNPO
  6
CONTINUOUS
 10
159.0
 20
159.141045
 30
0.0
 11
167.0
 21
159.141045
 31
0.0
  0
LINE
  5
1CB14
  8
SUNPO
  6
CONTINUOUS
 10
159.0
 20
151.641045
 30
0.0
 11
167.0
 21
151.641045
 31
0.0
  0
TEXT
  5
1CB15
  8
SUNPO
  6
CONTINUOUS
 10
152.0
 20
142.833333
 30
0.0
 40
2.5
  1
12
 50
90.0
  7
MX_NOTE_STANDARD
  0
LINE
  5
1CB16
  8
SUNPO
  6
CONTINUOUS
 10
153.0
 20
150.5
 30
0.0
 11
153.0
 21
138.5
 31
0.0
  0
ARC
  5
1CB17
  8
SUNPO
  6
BYBLOCK
 10
153.0
 20
138.5
 30
0.0
 40
0.145
 50
270.0
 51
90.0
  0
ARC
  5
1CB18
  8
SUNPO
  6
BYBLOCK
 10
153.0
 20
138.5
 30
0.0
 40
0.145
 50
90.0
 51
270.0
  0
ARC
  5
1CB19
  8
SUNPO
  6
BYBLOCK
 10
153.0
 20
138.5
 30
0.0
 40
0.145
 50
90.0
 51
270.0
  0
ARC
  5
1CB1A
  8
SUNPO
  6
BYBLOCK
 10
153.0
 20
138.5
 30
0.0
 40
0.145
 50
270.0
 51
90.0
  0
ARC
  5
1CB1B
  8
SUNPO
  6
BYBLOCK
 10
140.0
 20
165.5
 30
0.0
 40
0.145
 50
0.0
 51
180.0
  0
ARC
  5
1CB1C
  8
SUNPO
  6
BYBLOCK
 10
140.0
 20
165.5
 30
0.0
 40
0.145
 50
180.0
 51
0.0
  0
ARC
  5
1CB1D
  8
SUNPO
  6
BYBLOCK
 10
153.0
 20
150.5
 30
0.0
 40
0.145
 50
90.0
 51
270.0
  0
ARC
  5
1CB1E
  8
SUNPO
  6
BYBLOCK
 10
153.0
 20
150.5
 30
0.0
 40
0.145
 50
270.0
 51
90.0
  0
LINE
  5
1CB1F
  8
SUNPO
  6
CONTINUOUS
 10
159.0
 20
155.041039
 30
0.0
 11
159.0
 21
149.843696
 31
0.0
  0
LINE
  5
1CB20
  8
SUNPO
  6
CONTINUOUS
 10
159.0
 20
161.153991
 30
0.0
 11
159.0
 21
157.420944
 31
0.0
  0
LINE
  5
1CB21
  8
SUNPO
  6
CONTINUOUS
 10
161.799927
 20
167.156304
 30
0.0
 11
161.799927
 21
162.367761
 31
0.0
  0
LINE
  5
1CB22
  8
SUNPO
  6
CONTINUOUS
 10
163.0
 20
159.141045
 30
0.0
 11
163.0
 21
153.641045
 31
0.0
  0
LINE
  5
1CB23
  8
SUNPO
  6
CONTINUOUS
 10
167.0
 20
155.041039
 30
0.0
 11
167.0
 21
149.843696
 31
0.0
  0
LINE
  5
1CB24
  8
SUNPO
  6
CONTINUOUS
 10
167.0
 20
161.153991
 30
0.0
 11
167.0
 21
157.420944
 31
0.0
  0
LINE
  5
1CB26
  8
SUNPO
  6
CONTINUOUS
 10
164.199921
 20
167.156304
 30
0.0
 11
164.199921
 21
162.367761
 31
0.0
  0
ARC
  5
1CB27
  8
SUNPO
  6
BYBLOCK
 10
153.0
 20
185.5
 30
0.0
 40
0.145
 50
270.0
 51
90.0
  0
ARC
  5
1CB28
  8
SUNPO
  6
BYBLOCK
 10
153.0
 20
185.5
 30
0.0
 40
0.145
 50
90.0
 51
270.0
  0
TEXT
  5
1CB29
  8
SUNPO
  6
CONTINUOUS
 10
152.0
 20
200.916667
 30
0.0
 40
2.5
  1
35
 50
90.0
  7
MX_NOTE_STANDARD
  0
LINE
  5
1CB2A
  8
SUNPO
  6
CONTINUOUS
 10
113.5
 20
220.5
 30
0.0
 11
163.0
 21
220.5
 31
0.0
  0
LINE
  5
1CB2B
  8
SUNPO
  6
CONTINUOUS
 10
113.5
 20
255.5
 30
0.0
 11
163.0
 21
255.5
 31
0.0
  0
LINE
  5
1CB2C
  8
SUNPO
  6
CONTINUOUS
 10
113.5
 20
228.5
 30
0.0
 11
153.0
 21
228.5
 31
0.0
  0
LINE
  5
1CB2D
  8
SUNPO
  6
CONTINUOUS
 10
113.5
 20
243.5
 30
0.0
 11
153.0
 21
243.5
 31
0.0
  0
ARC
  5
1CB2E
  8
SUNPO
  6
BYBLOCK
 10
163.0
 20
255.5
 30
0.0
 40
0.145
 50
90.0
 51
270.0
  0
LINE
  5
1CB2F
  8
SUNPO
  6
CONTINUOUS
 10
168.0
 20
215.5
 30
0.0
 11
158.0
 21
215.5
 31
0.0
  0
LINE
  5
1CB30
  8
SUNPO
  6
CONTINUOUS
 10
158.0
 20
215.5
 30
0.0
 11
163.0
 21
220.5
 31
0.0
  0
TEXT
  5
1CB31
  8
SUNPO
  6
CONTINUOUS
 10
152.0
 20
234.333333
 30
0.0
 40
2.5
  1
15
 50
90.0
  7
MX_NOTE_STANDARD
  0
TEXT
  5
1CB32
  8
SUNPO
  6
CONTINUOUS
 10
162.0
 20
235.916667
 30
0.0
 40
2.5
  1
35
 50
90.0
  7
MX_NOTE_STANDARD
  0
LINE
  5
1CB33
  8
SUNPO
  6
CONTINUOUS
 10
153.0
 20
243.5
 30
0.0
 11
153.0
 21
228.5
 31
0.0
  0
LINE
  5
1CB34
  8
SUNPO
  6
CONTINUOUS
 10
153.0
 20
228.5
 30
0.0
 11
153.0
 21
220.5
 31
0.0
  0
TEXT
  5
1CB35
  8
SUNPO
  6
CONTINUOUS
 10
152.0
 20
223.666667
 30
0.0
 40
2.5
  1
8
 50
90.0
  7
MX_NOTE_STANDARD
  0
ARC
  5
1CB36
  8
SUNPO
  6
BYBLOCK
 10
153.0
 20
220.5
 30
0.0
 40
0.145
 50
270.0
 51
90.0
  0
ARC
  5
1CB37
  8
SUNPO
  6
BYBLOCK
 10
153.0
 20
220.5
 30
0.0
 40
0.145
 50
90.0
 51
270.0
  0
ARC
  5
1CB38
  8
SUNPO
  6
BYBLOCK
 10
153.0
 20
220.5
 30
0.0
 40
0.145
 50
90.0
 51
270.0
  0
ARC
  5
1CB39
  8
SUNPO
  6
BYBLOCK
 10
153.0
 20
220.5
 30
0.0
 40
0.145
 50
270.0
 51
90.0
  0
ARC
  5
1CB3B
  8
SUNPO
  6
BYBLOCK
 10
153.0
 20
228.5
 30
0.0
 40
0.145
 50
90.0
 51
270.0
  0
ARC
  5
1CB3C
  8
SUNPO
  6
BYBLOCK
 10
153.0
 20
228.5
 30
0.0
 40
0.145
 50
270.0
 51
90.0
  0
ARC
  5
1CB3D
  8
SUNPO
  6
BYBLOCK
 10
153.0
 20
228.5
 30
0.0
 40
0.145
 50
270.0
 51
90.0
  0
ARC
  5
1CB3E
  8
SUNPO
  6
BYBLOCK
 10
153.0
 20
228.5
 30
0.0
 40
0.145
 50
90.0
 51
270.0
  0
ARC
  5
1CB3F
  8
SUNPO
  6
BYBLOCK
 10
153.0
 20
243.5
 30
0.0
 40
0.145
 50
90.0
 51
270.0
  0
ARC
  5
1CB40
  8
SUNPO
  6
BYBLOCK
 10
153.0
 20
243.5
 30
0.0
 40
0.145
 50
270.0
 51
90.0
  0
LINE
  5
1CB41
  8
SUNPO
  6
CONTINUOUS
 10
163.0
 20
255.5
 30
0.0
 11
163.0
 21
220.5
 31
0.0
  0
LINE
  5
1CB42
  8
SUNPO
  6
CONTINUOUS
 10
163.0
 20
220.5
 30
0.0
 11
168.0
 21
215.5
 31
0.0
  0
ARC
  5
1CB45
  8
SUNPO
  6
BYBLOCK
 10
163.0
 20
255.5
 30
0.0
 40
0.145
 50
270.0
 51
90.0
  0
LINE
  5
1CB46
  8
SUNPO
  6
CONTINUOUS
 10
251.0
 20
163.0
 30
0.0
 11
251.0
 21
171.5
 31
0.0
  0
LINE
  5
1CB47
  8
SUNPO
  6
CONTINUOUS
 10
201.0
 20
164.5
 30
0.0
 11
201.0
 21
171.5
 31
0.0
  0
LINE
  5
1CB48
  8
SUNPO
  6
CONTINUOUS
 10
198.0
 20
163.0
 30
0.0
 11
198.0
 21
171.5
 31
0.0
  0
LINE
  5
1CB49
  8
SUNPO
  6
CONTINUOUS
 10
254.5
 20
164.5
 30
0.0
 11
254.5
 21
170.486667
 31
0.0
  0
TEXT
  5
1CB4A
  8
SUNPO
  6
CONTINUOUS
 10
253.5
 20
121.985291
 30
0.0
 40
2.5
  1
70
 50
90.0
  7
MX_NOTE_STANDARD
  0
LINE
  5
1CB4B
  8
SUNPO
  6
CONTINUOUS
 10
234.5
 20
161.5
 30
0.0
 11
254.5
 21
161.5
 31
0.0
  0
ARC
  5
1CB4C
  8
SUNPO
  6
BYBLOCK
 10
254.5
 20
161.5
 30
0.0
 40
0.145
 50
270.0
 51
90.0
  0
ARC
  5
1CB4D
  8
SUNPO
  6
BYBLOCK
 10
254.5
 20
161.5
 30
0.0
 40
0.145
 50
90.0
 51
270.0
  0
ARC
  5
1CB4E
  8
SUNPO
  6
BYBLOCK
 10
254.5
 20
161.5
 30
0.0
 40
0.145
 50
90.0
 51
270.0
  0
ARC
  5
1CB4F
  8
SUNPO
  6
BYBLOCK
 10
254.5
 20
161.5
 30
0.0
 40
0.145
 50
270.0
 51
90.0
  0
LINE
  5
1CB50
  8
SUNPO
  6
CONTINUOUS
 10
254.5
 20
161.5
 30
0.0
 11
254.5
 21
164.5
 31
0.0
  0
ARC
  5
1CB51
  8
SUNPO
  6
BYBLOCK
 10
254.5
 20
164.5
 30
0.0
 40
0.145
 50
90.0
 51
270.0
  0
ARC
  5
1CB52
  8
SUNPO
  6
BYBLOCK
 10
254.5
 20
164.5
 30
0.0
 40
0.145
 50
270.0
 51
90.0
  0
LINE
  5
1CB53
  8
SUNPO
  6
CONTINUOUS
 10
201.0
 20
171.5
 30
0.0
 11
251.0
 21
171.5
 31
0.0
  0
TEXT
  5
1CB54
  8
SUNPO
  6
CONTINUOUS
 10
198.666667
 20
172.5
 30
0.0
 40
2.5
  1
3
  7
MX_NOTE_STANDARD
  0
LINE
  5
1CB55
  8
SUNPO
  6
CONTINUOUS
 10
201.0
 20
171.5
 30
0.0
 11
198.0
 21
171.5
 31
0.0
  0
ARC
  5
1CB56
  8
SUNPO
  6
BYBLOCK
 10
198.0
 20
171.5
 30
0.0
 40
0.145
 50
180.0
 51
0.0
  0
ARC
  5
1CB57
  8
SUNPO
  6
BYBLOCK
 10
198.0
 20
171.5
 30
0.0
 40
0.145
 50
0.0
 51
180.0
  0
ARC
  5
1CB58
  8
SUNPO
  6
BYBLOCK
 10
201.0
 20
171.5
 30
0.0
 40
0.145
 50
180.0
 51
0.0
  0
ARC
  5
1CB59
  8
SUNPO
  6
BYBLOCK
 10
201.0
 20
171.5
 30
0.0
 40
0.145
 50
0.0
 51
180.0
  0
ARC
  5
1CB5A
  8
SUNPO
  6
BYBLOCK
 10
201.0
 20
171.5
 30
0.0
 40
0.145
 50
0.0
 51
180.0
  0
ARC
  5
1CB5B
  8
SUNPO
  6
BYBLOCK
 10
201.0
 20
171.5
 30
0.0
 40
0.145
 50
180.0
 51
0.0
  0
TEXT
  5
1CB5C
  8
SUNPO
  6
CONTINUOUS
 10
224.125
 20
172.5
 30
0.0
 40
2.5
  1
50
  7
MX_NOTE_STANDARD
  0
TEXT
  5
1CB5D
  8
SUNPO
  6
CONTINUOUS
 10
253.5
 20
167.82
 30
0.0
 40
2.5
  1
3
 50
90.0
  7
MX_NOTE_STANDARD
  0
ARC
  5
1CB5E
  8
SUNPO
  6
BYBLOCK
 10
251.0
 20
171.5
 30
0.0
 40
0.145
 50
0.0
 51
180.0
  0
ARC
  5
1CB5F
  8
SUNPO
  6
BYBLOCK
 10
251.0
 20
171.5
 30
0.0
 40
0.145
 50
180.0
 51
0.0
  0
LINE
  5
1CB60
  8
SUNPO
  6
CONTINUOUS
 10
373.0
 20
171.5
 30
0.0
 11
398.0
 21
171.5
 31
0.0
  0
LINE
  5
1CB61
  8
SUNPO
  6
CONTINUOUS
 10
373.0
 20
161.850006
 30
0.0
 11
373.0
 21
171.5
 31
0.0
  0
LINE
  5
1CB62
  8
SUNPO
  6
CONTINUOUS
 10
330.0
 20
154.5
 30
0.0
 11
330.0
 21
130.5
 31
0.0
  0
LINE
  5
1CB63
  8
SUNPO
  6
CONTINUOUS
 10
330.0
 20
122.5
 30
0.0
 11
330.0
 21
130.5
 31
0.0
  0
ARC
  5
1CB64
  8
SUNPO
  6
BYBLOCK
 10
330.0
 20
122.5
 30
0.0
 40
0.145
 50
270.0
 51
90.0
  0
ARC
  5
1CB65
  8
SUNPO
  6
BYBLOCK
 10
330.0
 20
122.5
 30
0.0
 40
0.145
 50
90.0
 51
270.0
  0
ARC
  5
1CB66
  8
SUNPO
  6
BYBLOCK
 10
330.0
 20
122.5
 30
0.0
 40
0.145
 50
90.0
 51
270.0
  0
ARC
  5
1CB67
  8
SUNPO
  6
BYBLOCK
 10
330.0
 20
122.5
 30
0.0
 40
0.145
 50
270.0
 51
90.0
  0
ARC
  5
1CB68
  8
SUNPO
  6
BYBLOCK
 10
330.0
 20
130.5
 30
0.0
 40
0.145
 50
270.0
 51
90.0
  0
ARC
  5
1CB69
  8
SUNPO
  6
BYBLOCK
 10
330.0
 20
130.5
 30
0.0
 40
0.145
 50
90.0
 51
270.0
  0
ARC
  5
1CB6A
  8
SUNPO
  6
BYBLOCK
 10
330.0
 20
130.5
 30
0.0
 40
0.145
 50
90.0
 51
270.0
  0
ARC
  5
1CB6B
  8
SUNPO
  6
BYBLOCK
 10
330.0
 20
130.5
 30
0.0
 40
0.145
 50
270.0
 51
90.0
  0
ARC
  5
1CB6C
  8
SUNPO
  6
BYBLOCK
 10
352.855906
 20
122.5
 30
0.0
 40
0.145
 50
90.0
 51
270.0
  0
ARC
  5
1CB6D
  8
SUNPO
  6
BYBLOCK
 10
352.855906
 20
122.5
 30
0.0
 40
0.145
 50
270.0
 51
90.0
  0
LINE
  5
1CB6E
  8
SUNPO
  6
CONTINUOUS
 10
351.5
 20
161.5
 30
0.0
 11
330.0
 21
161.5
 31
0.0
  0
LINE
  5
1CB6F
  8
SUNPO
  6
CONTINUOUS
 10
330.0
 20
154.5
 30
0.0
 11
330.0
 21
161.5
 31
0.0
  0
ARC
  5
1CB70
  8
SUNPO
  6
BYBLOCK
 10
330.0
 20
154.5
 30
0.0
 40
0.145
 50
270.0
 51
90.0
  0
ARC
  5
1CB71
  8
SUNPO
  6
BYBLOCK
 10
330.0
 20
154.5
 30
0.0
 40
0.145
 50
90.0
 51
270.0
  0
ARC
  5
1CB72
  8
SUNPO
  6
BYBLOCK
 10
330.0
 20
154.5
 30
0.0
 40
0.145
 50
90.0
 51
270.0
  0
ARC
  5
1CB73
  8
SUNPO
  6
BYBLOCK
 10
330.0
 20
154.5
 30
0.0
 40
0.145
 50
270.0
 51
90.0
  0
ARC
  5
1CB74
  8
SUNPO
  6
BYBLOCK
 10
330.0
 20
161.5
 30
0.0
 40
0.145
 50
90.0
 51
270.0
  0
ARC
  5
1CB75
  8
SUNPO
  6
BYBLOCK
 10
330.0
 20
161.5
 30
0.0
 40
0.145
 50
270.0
 51
90.0
  0
ARC
  5
1CB76
  8
SUNPO
  6
BYBLOCK
 10
373.0
 20
171.5
 30
0.0
 40
0.145
 50
180.0
 51
0.0
  0
ARC
  5
1CB77
  8
SUNPO
  6
BYBLOCK
 10
373.0
 20
171.5
 30
0.0
 40
0.145
 50
0.0
 51
180.0
  0
TEXT
  5
1CB78
  8
SUNPO
  6
CONTINUOUS
 10
383.416667
 20
172.5
 30
0.0
 40
2.5
  1
25
  7
MX_NOTE_STANDARD
  0
LINE
  5
1CB79
  8
SUNPO
  6
CONTINUOUS
 10
398.0
 20
162.5
 30
0.0
 11
398.0
 21
171.5
 31
0.0
  0
ARC
  5
1CB7A
  8
SUNPO
  6
BYBLOCK
 10
398.0
 20
171.5
 30
0.0
 40
0.145
 50
0.0
 51
180.0
  0
ARC
  5
1CB7B
  8
SUNPO
  6
BYBLOCK
 10
398.0
 20
171.5
 30
0.0
 40
0.145
 50
180.0
 51
0.0
  0
LINE
  5
1CC01
  8
SUNPO
  6
CONTINUOUS
 10
233.115372
 20
51.107269
 30
0.0
 11
234.028887
 21
51.730081
 31
0.0
210
0.0
220
0.0
230
-1.0
  0
LINE
  5
1CC02
  8
SUNPO
  6
CONTINUOUS
 10
234.028887
 20
51.730081
 30
0.0
 11
234.499982
 21
51.768293
 31
0.0
210
0.0
220
0.0
230
-1.0
  0
LINE
  5
1CC03
  8
SUNPO
  6
CONTINUOUS
 10
234.499982
 20
51.768293
 30
0.0
 11
234.3138
 21
51.255982
 31
0.0
210
0.0
220
0.0
230
-1.0
  0
LINE
  5
1CC04
  8
SUNPO
  6
CONTINUOUS
 10
234.3138
 20
51.255982
 30
0.0
 11
233.420898
 21
49.276791
 31
0.0
210
0.0
220
0.0
230
-1.0
  0
LINE
  5
1CC05
  8
SUNPO
  6
CONTINUOUS
 10
233.420898
 20
49.276791
 30
0.0
 11
233.717461
 21
48.297817
 31
0.0
210
0.0
220
0.0
230
-1.0
  0
LINE
  5
1CC06
  8
SUNPO
  6
CONTINUOUS
 10
233.717461
 20
48.297817
 30
0.0
 11
234.678871
 21
48.601968
 31
0.0
210
0.0
220
0.0
230
-1.0
  0
LINE
  5
1CC07
  8
SUNPO
  6
CONTINUOUS
 10
234.678871
 20
48.601968
 30
0.0
 11
235.16436
 21
49.719453
 31
0.0
210
0.0
220
0.0
230
-1.0
  0
LINE
  5
1CC08
  8
SUNPO
  6
CONTINUOUS
 10
235.16436
 20
49.719453
 30
0.0
 11
235.27692
 21
50.220793
 31
0.0
210
0.0
220
0.0
230
-1.0
  0
LINE
  5
1CC09
  8
SUNPO
  6
CONTINUOUS
 10
235.27692
 20
50.220793
 30
0.0
 11
235.149498
 21
49.695165
 31
0.0
210
0.0
220
0.0
230
-1.0
  0
LINE
  5
1CC0A
  8
SUNPO
  6
CONTINUOUS
 10
235.149498
 20
49.695165
 30
0.0
 11
235.099705
 21
48.62979
 31
0.0
210
0.0
220
0.0
230
-1.0
  0
LINE
  5
1CC0B
  8
SUNPO
  6
CONTINUOUS
 10
235.099705
 20
48.62979
 30
0.0
 11
235.935643
 21
48.048466
 31
0.0
210
0.0
220
0.0
230
-1.0
  0
LINE
  5
1CC0C
  8
SUNPO
  6
CONTINUOUS
 10
235.935643
 20
48.048466
 30
0.0
 11
236.808647
 21
48.664377
 31
0.0
210
0.0
220
0.0
230
-1.0
  0
LINE
  5
1CC0D
  8
SUNPO
  6
CONTINUOUS
 10
236.808647
 20
48.664377
 30
0.0
 11
237.251869
 21
49.654112
 31
0.0
210
0.0
220
0.0
230
-1.0
  0
LINE
  5
1CC0E
  8
SUNPO
  6
CONTINUOUS
 10
237.251869
 20
49.654112
 30
0.0
 11
237.136626
 21
51.810488
 31
0.0
210
0.0
220
0.0
230
-1.0
  0
LINE
  5
1CC0F
  8
SUNPO
  6
CONTINUOUS
 10
237.136626
 20
51.810488
 30
0.0
 11
239.274428
 21
51.57399
 31
0.0
210
0.0
220
0.0
230
-1.0
  0
LINE
  5
1CC10
  8
SUNPO
  6
CONTINUOUS
 10
333.115372
 20
51.107269
 30
0.0
 11
334.028887
 21
51.730081
 31
0.0
210
0.0
220
0.0
230
-1.0
  0
LINE
  5
1CC11
  8
SUNPO
  6
CONTINUOUS
 10
334.028887
 20
51.730081
 30
0.0
 11
334.499983
 21
51.768293
 31
0.0
210
0.0
220
0.0
230
-1.0
  0
LINE
  5
1CC12
  8
SUNPO
  6
CONTINUOUS
 10
334.499983
 20
51.768293
 30
0.0
 11
334.3138
 21
51.255983
 31
0.0
210
0.0
220
0.0
230
-1.0
  0
LINE
  5
1CC13
  8
SUNPO
  6
CONTINUOUS
 10
334.3138
 20
51.255983
 30
0.0
 11
333.420898
 21
49.276791
 31
0.0
210
0.0
220
0.0
230
-1.0
  0
LINE
  5
1CC14
  8
SUNPO
  6
CONTINUOUS
 10
333.420898
 20
49.276791
 30
0.0
 11
333.717461
 21
48.297817
 31
0.0
210
0.0
220
0.0
230
-1.0
  0
LINE
  5
1CC15
  8
SUNPO
  6
CONTINUOUS
 10
333.717461
 20
48.297817
 30
0.0
 11
334.678871
 21
48.601967
 31
0.0
210
0.0
220
0.0
230
-1.0
  0
LINE
  5
1CC16
  8
SUNPO
  6
CONTINUOUS
 10
334.678871
 20
48.601967
 30
0.0
 11
335.164361
 21
49.719451
 31
0.0
210
0.0
220
0.0
230
-1.0
  0
LINE
  5
1CC17
  8
SUNPO
  6
CONTINUOUS
 10
335.164361
 20
49.719451
 30
0.0
 11
335.276921
 21
50.220793
 31
0.0
210
0.0
220
0.0
230
-1.0
  0
LINE
  5
1CC18
  8
SUNPO
  6
CONTINUOUS
 10
335.276921
 20
50.220793
 30
0.0
 11
335.1495
 21
49.695166
 31
0.0
210
0.0
220
0.0
230
-1.0
  0
LINE
  5
1CC19
  8
SUNPO
  6
CONTINUOUS
 10
335.1495
 20
49.695166
 30
0.0
 11
335.099705
 21
48.62979
 31
0.0
210
0.0
220
0.0
230
-1.0
  0
LINE
  5
1CC1A
  8
SUNPO
  6
CONTINUOUS
 10
335.099705
 20
48.62979
 30
0.0
 11
335.935643
 21
48.048466
 31
0.0
210
0.0
220
0.0
230
-1.0
  0
LINE
  5
1CC1B
  8
SUNPO
  6
CONTINUOUS
 10
335.935643
 20
48.048466
 30
0.0
 11
336.808648
 21
48.664377
 31
0.0
210
0.0
220
0.0
230
-1.0
  0
LINE
  5
1CC1C
  8
SUNPO
  6
CONTINUOUS
 10
336.808648
 20
48.664377
 30
0.0
 11
337.25187
 21
49.654112
 31
0.0
210
0.0
220
0.0
230
-1.0
  0
LINE
  5
1CC1D
  8
SUNPO
  6
CONTINUOUS
 10
337.25187
 20
49.654112
 30
0.0
 11
337.136626
 21
51.810488
 31
0.0
210
0.0
220
0.0
230
-1.0
  0
LINE
  5
1CC1E
  8
SUNPO
  6
CONTINUOUS
 10
337.136626
 20
51.810488
 30
0.0
 11
339.274429
 21
51.57399
 31
0.0
210
0.0
220
0.0
230
-1.0
  0
LINE
  5
1D1A4
  8
DANMEN
  6
CONTINUOUS
 10
68.849998
 20
71.499998
 30
0.0
 11
68.849998
 21
57.0
 31
0.0
  0
LINE
  5
1D1A5
  8
DANMEN
  6
CONTINUOUS
 10
70.799998
 20
71.5
 30
0.0
 11
70.799998
 21
57.0
 31
0.0
  0
LINE
  5
1D1A6
  8
DANMEN
  6
CONTINUOUS
 10
69.349999
 20
56.499997
 30
0.0
 11
70.299997
 21
56.499997
 31
0.0
  0
ARC
  5
1D1A7
  8
DANMEN
  6
CONTINUOUS
 10
69.349998
 20
57.0
 30
0.0
 40
0.5
 50
180.000052
 51
269.999982
  0
ARC
  5
1D1A8
  8
DANMEN
  6
CONTINUOUS
 10
70.299998
 20
57.0
 30
0.0
 40
0.5
 50
269.999982
 51
359.999964
  0
LINE
  5
1D1A9
  8
DANMEN
  6
CONTINUOUS
 10
70.799998
 20
71.5
 30
0.0
 11
72.499998
 21
71.5
 31
0.0
  0
ENDSEC
  0
EOF
