  0
SECTION
  2
HEADER
  9
$ACADVER
  1
AC1009
  9
$INSBASE
 10
0.0
 20
0.0
 30
0.0
  9
$EXTMIN
 10
4.986803
 20
4.971933
 30
-0.001526
  9
$EXTMAX
 10
415.019075
 20
292.013444
 30
0.0
  9
$LIMMIN
 10
-210.0
 20
-148.5
  9
$LIMMAX
 10
210.0
 20
148.5
  9
$ORTHOMODE
 70
     0
  9
$REGENMODE
 70
     1
  9
$FILLMODE
 70
     1
  9
$QTEXTMODE
 70
     0
  9
$MIRRTEXT
 70
     1
  9
$DRAGMODE
 70
     2
  9
$LTSCALE
 40
0.5
  9
$OSMODE
 70
   239
  9
$ATTMODE
 70
     1
  9
$TEXTSIZE
 40
0.2
  9
$TRACEWID
 40
0.05
  9
$TEXTSTYLE
  7
MX_NOTE_STANDARD
  9
$CLAYER
  8
0
  9
$CELTYPE
  6
CONTINUOUS
  9
$CECOLOR
 62
   256
  9
$DIMSCALE
 40
1.0
  9
$DIMASZ
 40
2.5
  9
$DIMEXO
 40
1.5
  9
$DIMDLI
 40
3.75
  9
$DIMRND
 40
0.0
  9
$DIMDLE
 40
0.0
  9
$DIMEXE
 40
0.0
  9
$DIMTP
 40
0.0
  9
$DIMTM
 40
0.0
  9
$DIMTXT
 40
2.5
  9
$DIMCEN
 40
2.5
  9
$DIMTSZ
 40
0.0
  9
$DIMTOL
 70
     0
  9
$DIMLIM
 70
     0
  9
$DIMTIH
 70
     0
  9
$DIMTOH
 70
     0
  9
$DIMSE1
 70
     0
  9
$DIMSE2
 70
     0
  9
$DIMTAD
 70
     1
  9
$DIMZIN
 70
     8
  9
$DIMBLK
  1

  9
$DIMASO
 70
     1
  9
$DIMSHO
 70
     1
  9
$DIMPOST
  1

  9
$DIMAPOST
  1

  9
$DIMALT
 70
     0
  9
$DIMALTD
 70
     4
  9
$DIMALTF
 40
0.0394
  9
$DIMLFAC
 40
1.0
  9
$DIMTOFL
 70
     1
  9
$DIMTVP
 40
0.0
  9
$DIMTIX
 70
     0
  9
$DIMSOXD
 70
     0
  9
$DIMSAH
 70
     0
  9
$DIMBLK1
  1

  9
$DIMBLK2
  1

  9
$DIMSTYLE
  2
MXDIMSTYLE
  9
$DIMCLRD
 70
     0
  9
$DIMCLRE
 70
     0
  9
$DIMCLRT
 70
     0
  9
$DIMTFAC
 40
1.0
  9
$DIMGAP
 40
1.0
  9
$LUNITS
 70
     2
  9
$LUPREC
 70
     4
  9
$SKETCHINC
 40
0.1
  9
$FILLETRAD
 40
0.0
  9
$AUNITS
 70
     0
  9
$AUPREC
 70
     0
  9
$MENU
  1
acad
  9
$ELEVATION
 40
0.0
  9
$PELEVATION
 40
0.0
  9
$THICKNESS
 40
0.0
  9
$LIMCHECK
 70
     0
  9
$BLIPMODE
 70
     0
  9
$CHAMFERA
 40
0.0
  9
$CHAMFERB
 40
0.0
  9
$SKPOLY
 70
     0
  9
$TDCREATE
 40
2452006.37162
  9
$TDUPDATE
 40
2452136.997328
  9
$TDINDWG
 40
0.087446
  9
$TDUSRTIMER
 40
0.087445
  9
$USRTIMER
 70
     1
  9
$ANGBASE
 50
0.0
  9
$ANGDIR
 70
     0
  9
$PDMODE
 70
     3
  9
$PDSIZE
 40
-100.0
  9
$PLINEWID
 40
0.0
  9
$COORDS
 70
     0
  9
$SPLFRAME
 70
     0
  9
$SPLINETYPE
 70
     6
  9
$SPLINESEGS
 70
     8
  9
$ATTDIA
 70
     0
  9
$ATTREQ
 70
     1
  9
$HANDLING
 70
     1
  9
$HANDSEED
  5
1BDF4
  9
$SURFTAB1
 70
     6
  9
$SURFTAB2
 70
     6
  9
$SURFTYPE
 70
     6
  9
$SURFU
 70
     6
  9
$SURFV
 70
     6
  9
$UCSNAME
  2

  9
$UCSORG
 10
0.0
 20
0.0
 30
0.0
  9
$UCSXDIR
 10
1.0
 20
0.0
 30
0.0
  9
$UCSYDIR
 10
0.0
 20
1.0
 30
0.0
  9
$PUCSNAME
  2

  9
$PUCSORG
 10
0.0
 20
0.0
 30
0.0
  9
$PUCSXDIR
 10
1.0
 20
0.0
 30
0.0
  9
$PUCSYDIR
 10
0.0
 20
1.0
 30
0.0
  9
$USERI1
 70
     0
  9
$USERI2
 70
     0
  9
$USERI3
 70
     0
  9
$USERI4
 70
     0
  9
$USERI5
 70
     0
  9
$USERR1
 40
0.0
  9
$USERR2
 40
0.0
  9
$USERR3
 40
0.0
  9
$USERR4
 40
0.0
  9
$USERR5
 40
0.0
  9
$WORLDVIEW
 70
     1
  9
$SHADEDGE
 70
     3
  9
$SHADEDIF
 70
    70
  9
$TILEMODE
 70
     1
  9
$MAXACTVP
 70
    16
  9
$PLIMCHECK
 70
     0
  9
$PEXTMIN
 10
1.000000E+020
 20
1.000000E+020
 30
1.000000E+020
  9
$PEXTMAX
 10
-1.000000E+020
 20
-1.000000E+020
 30
-1.000000E+020
  9
$PLIMMIN
 10
0.0
 20
0.0
  9
$PLIMMAX
 10
12.0
 20
9.0
  9
$UNITMODE
 70
     0
  9
$VISRETAIN
 70
     0
  9
$PLINEGEN
 70
     1
  9
$PSLTSCALE
 70
     0
  0
ENDSEC
  0
SECTION
  2
TABLES
  0
TABLE
  2
VPORT
 70
     2
  0
VPORT
  2
*ACTIVE
 70
     0
 10
0.0
 20
0.0
 11
1.0
 21
1.0
 12
210.002939
 22
148.492688
 13
0.0
 23
0.0
 14
1.0
 24
1.0
 15
0.0
 25
0.0
 16
0.0
 26
0.0
 36
1.0
 17
0.0
 27
0.0
 37
0.0
 40
290.242718
 41
1.867784
 42
50.0
 43
0.0
 44
0.0
 50
0.0
 51
0.0
 71
     0
 72
   100
 73
     1
 74
     0
 75
     0
 76
     0
 77
     0
 78
     0
  0
ENDTAB
  0
TABLE
  2
LTYPE
 70
     2
  0
LTYPE
  2
CONTINUOUS
 70
     0
  3
Solid line
 72
    65
 73
     0
 40
0.0
  0
LTYPE
  2
DASHED
 70
     0
  3
Dashed __ __ __ __ __ __ __ __ __ __ __ __ __ _
 72
    65
 73
     2
 40
19.05
 49
12.7
 49
-6.35
  0
ENDTAB
  0
TABLE
  2
LAYER
 70
     4
  0
LAYER
  2
0
 70
     0
 62
     7
  6
CONTINUOUS
  0
LAYER
  2
SUNPO
 70
     0
 62
     1
  6
CONTINUOUS
  0
LAYER
  2
DANMEN
 70
     0
 62
     7
  6
CONTINUOUS
  0
LAYER
  2
WAKU
 70
     0
 62
     3
  6
CONTINUOUS
  0
ENDTAB
  0
TABLE
  2
STYLE
 70
     2
  0
STYLE
  2
STANDARD
 70
     0
 40
0.0
 41
1.0
 50
0.0
 71
     0
 42
0.2
  3
txt.shx
  4
extfont.shx
  0
STYLE
  2
MX_NOTE_STANDARD
 70
     0
 40
2.5
 41
1.0
 50
0.0
 71
     0
 42
2.5
  3
txt.shx
  4
extfont.shx
  0
ENDTAB
  0
TABLE
  2
VIEW
 70
     0
  0
ENDTAB
  0
TABLE
  2
UCS
 70
     0
  0
ENDTAB
  0
TABLE
  2
APPID
 70
     1
  0
APPID
  2
ACAD
 70
     0
  0
ENDTAB
  0
TABLE
  2
DIMSTYLE
 70
     1
  0
DIMSTYLE
  2
MXDIMSTYLE
 70
     0
  3

  4

  5

  6

  7

 40
1.0
 41
2.5
 42
1.5
 43
3.75
 44
0.0
 45
0.0
 46
0.0
 47
0.0
 48
0.0
140
2.5
141
2.5
142
0.0
143
0.0394
144
1.0
145
0.0
146
1.0
147
1.0
 71
     0
 72
     0
 73
     0
 74
     0
 75
     0
 76
     0
 77
     1
 78
     8
170
     0
171
     4
172
     1
173
     0
174
     0
175
     0
176
     0
177
     0
178
     0
  0
ENDTAB
  0
ENDSEC
  0
SECTION
  2
BLOCKS
  0
BLOCK
  8
0
  2
$MODEL_SPACE
 70
     0
 10
0.0
 20
0.0
 30
0.0
  3
$MODEL_SPACE
  1

  0
ENDBLK
  5
1B88E
  8
0
  0
BLOCK
 67
     1
  8
0
  2
$PAPER_SPACE
 70
     0
 10
0.0
 20
0.0
 30
0.0
  3
$PAPER_SPACE
  1

  0
ENDBLK
  5
1B88C
 67
     1
  8
0
  0
BLOCK
  8
0
  2
*U0
 70
     1
 10
0.0
 20
0.0
 30
0.0
  3
*U0
  1

  0
SOLID
  5
DA5C
  8
WAKU
  6
CONTINUOUS
 10
371.305142
 20
283.605291
 30
0.0
 11
370.499782
 21
283.530361
 31
0.0
 12
370.874987
 22
283.520449
 32
0.0
 13
370.874987
 23
283.520449
 33
0.0
  0
SOLID
  5
DA5D
  8
WAKU
  6
CONTINUOUS
 10
370.193309
 20
283.634664
 30
0.0
 11
370.499782
 21
283.530361
 31
0.0
 12
371.305142
 22
283.605291
 32
0.0
 13
371.305142
 23
283.605291
 33
0.0
  0
SOLID
  5
DA5E
  8
WAKU
  6
CONTINUOUS
 10
371.774448
 20
283.781773
 30
0.0
 11
370.193309
 21
283.634664
 31
0.0
 12
371.305142
 22
283.605291
 32
0.0
 13
371.305142
 23
283.605291
 33
0.0
  0
SOLID
  5
DA5F
  8
WAKU
  6
CONTINUOUS
 10
369.966824
 20
283.829526
 30
0.0
 11
370.193309
 21
283.634664
 31
0.0
 12
371.774448
 22
283.781773
 32
0.0
 13
371.774448
 23
283.781773
 33
0.0
  0
SOLID
  5
DA60
  8
WAKU
  6
CONTINUOUS
 10
370.594177
 20
283.909498
 30
0.0
 11
369.966824
 21
283.829526
 31
0.0
 12
371.774448
 22
283.781773
 32
0.0
 13
371.774448
 23
283.781773
 33
0.0
  0
SOLID
  5
DA61
  8
WAKU
  6
CONTINUOUS
 10
370.901294
 20
283.914863
 30
0.0
 11
370.594177
 21
283.909498
 31
0.0
 12
371.774448
 22
283.781773
 32
0.0
 13
371.774448
 23
283.781773
 33
0.0
  0
SOLID
  5
DA62
  8
WAKU
  6
CONTINUOUS
 10
370.392927
 20
283.968568
 30
0.0
 11
369.966824
 21
283.829526
 31
0.0
 12
370.594177
 22
283.909498
 32
0.0
 13
370.594177
 23
283.909498
 33
0.0
  0
SOLID
  5
DA63
  8
WAKU
  6
CONTINUOUS
 10
371.296984
 20
284.010368
 30
0.0
 11
370.901294
 21
283.914863
 31
0.0
 12
371.774448
 22
283.781773
 32
0.0
 13
371.774448
 23
283.781773
 33
0.0
  0
SOLID
  5
DA64
  8
WAKU
  6
CONTINUOUS
 10
372.265666
 20
284.043411
 30
0.0
 11
371.296984
 21
284.010368
 31
0.0
 12
371.774448
 22
283.781773
 32
0.0
 13
371.774448
 23
283.781773
 33
0.0
  0
SOLID
  5
DA65
  8
WAKU
  6
CONTINUOUS
 10
370.275177
 20
284.066476
 30
0.0
 11
369.966824
 21
283.829526
 31
0.0
 12
370.392927
 22
283.968568
 32
0.0
 13
370.392927
 23
283.968568
 33
0.0
  0
SOLID
  5
DA66
  8
WAKU
  6
CONTINUOUS
 10
369.828646
 20
284.107791
 30
0.0
 11
369.966824
 21
283.829526
 31
0.0
 12
370.275177
 22
284.066476
 32
0.0
 13
370.275177
 23
284.066476
 33
0.0
  0
SOLID
  5
DA67
  8
WAKU
  6
CONTINUOUS
 10
370.709458
 20
284.142397
 30
0.0
 11
369.828646
 21
284.107791
 31
0.0
 12
370.275177
 22
284.066476
 32
0.0
 13
370.275177
 23
284.066476
 33
0.0
  0
SOLID
  5
DA68
  8
WAKU
  6
CONTINUOUS
 10
371.751882
 20
284.202798
 30
0.0
 11
371.296984
 21
284.010368
 31
0.0
 12
372.265666
 22
284.043411
 32
0.0
 13
372.265666
 23
284.043411
 33
0.0
  0
SOLID
  5
DA69
  8
WAKU
  6
CONTINUOUS
 10
369.550381
 20
284.245969
 30
0.0
 11
369.828646
 21
284.107791
 31
0.0
 12
370.709458
 22
284.142397
 32
0.0
 13
370.709458
 23
284.142397
 33
0.0
  0
SOLID
  5
DA6A
  8
WAKU
  6
CONTINUOUS
 10
371.186428
 20
284.314625
 30
0.0
 11
369.550381
 21
284.245969
 31
0.0
 12
370.709458
 22
284.142397
 32
0.0
 13
370.709458
 23
284.142397
 33
0.0
  0
SOLID
  5
DA6B
  8
WAKU
  6
CONTINUOUS
 10
372.760756
 20
284.380595
 30
0.0
 11
371.751882
 21
284.202798
 31
0.0
 12
372.265666
 22
284.043411
 32
0.0
 13
372.265666
 23
284.043411
 33
0.0
  0
SOLID
  5
DA6C
  8
WAKU
  6
CONTINUOUS
 10
370.172911
 20
284.451856
 30
0.0
 11
369.550381
 21
284.245969
 31
0.0
 12
371.186428
 22
284.314625
 32
0.0
 13
371.186428
 23
284.314625
 33
0.0
  0
SOLID
  5
DA6D
  8
WAKU
  6
CONTINUOUS
 10
369.355518
 20
284.472454
 30
0.0
 11
369.550381
 21
284.245969
 31
0.0
 12
370.172911
 22
284.451856
 32
0.0
 13
370.172911
 23
284.451856
 33
0.0
  0
SOLID
  5
DA6E
  8
WAKU
  6
CONTINUOUS
 10
372.237497
 20
284.486117
 30
0.0
 11
371.751882
 21
284.202798
 31
0.0
 12
372.760756
 22
284.380595
 32
0.0
 13
372.760756
 23
284.380595
 33
0.0
  0
SOLID
  5
DA6F
  8
WAKU
  6
CONTINUOUS
 10
370.681395
 20
284.539195
 30
0.0
 11
370.172911
 21
284.451856
 31
0.0
 12
371.186428
 22
284.314625
 32
0.0
 13
371.186428
 23
284.314625
 33
0.0
  0
SOLID
  5
DA70
  8
WAKU
  6
CONTINUOUS
 10
369.787305
 20
284.553935
 30
0.0
 11
369.355518
 21
284.472454
 31
0.0
 12
370.172911
 22
284.451856
 32
0.0
 13
370.172911
 23
284.451856
 33
0.0
  0
SOLID
  5
DA71
  8
WAKU
  6
CONTINUOUS
 10
371.68777
 20
284.576545
 30
0.0
 11
370.681395
 21
284.539195
 31
0.0
 12
371.186428
 22
284.314625
 32
0.0
 13
371.186428
 23
284.314625
 33
0.0
  0
SOLID
  5
DA72
  8
WAKU
  6
CONTINUOUS
 10
369.689155
 20
284.672435
 30
0.0
 11
369.355518
 21
284.472454
 31
0.0
 12
369.787305
 22
284.553935
 32
0.0
 13
369.787305
 23
284.553935
 33
0.0
  0
SOLID
  5
DA73
  8
WAKU
  6
CONTINUOUS
 10
369.251215
 20
284.778928
 30
0.0
 11
369.355518
 21
284.472454
 31
0.0
 12
369.689155
 22
284.672435
 32
0.0
 13
369.689155
 23
284.672435
 33
0.0
  0
SOLID
  5
DA74
  8
WAKU
  6
CONTINUOUS
 10
373.241532
 20
284.780941
 30
0.0
 11
372.237497
 21
284.486117
 31
0.0
 12
372.760756
 22
284.380595
 32
0.0
 13
372.760756
 23
284.380595
 33
0.0
  0
SOLID
  5
DA75
  8
WAKU
  6
CONTINUOUS
 10
371.312263
 20
284.810332
 30
0.0
 11
370.681395
 21
284.539195
 31
0.0
 12
371.68777
 22
284.576545
 32
0.0
 13
371.68777
 23
284.576545
 33
0.0
  0
SOLID
  5
DA76
  8
WAKU
  6
CONTINUOUS
 10
369.630358
 20
284.873087
 30
0.0
 11
369.251215
 21
284.778928
 31
0.0
 12
369.689155
 22
284.672435
 32
0.0
 13
369.689155
 23
284.672435
 33
0.0
  0
SOLID
  5
DA77
  8
WAKU
  6
CONTINUOUS
 10
372.194232
 20
284.918099
 30
0.0
 11
371.312263
 21
284.810332
 31
0.0
 12
371.68777
 22
284.576545
 32
0.0
 13
371.68777
 23
284.576545
 33
0.0
  0
SOLID
  5
DA78
  8
WAKU
  6
CONTINUOUS
 10
370.260168
 20
284.959969
 30
0.0
 11
369.787305
 21
284.553935
 31
0.0
 12
370.172911
 22
284.451856
 32
0.0
 13
370.172911
 23
284.451856
 33
0.0
  0
SOLID
  5
DA79
  8
WAKU
  6
CONTINUOUS
 10
369.863139
 20
284.988189
 30
0.0
 11
369.787305
 21
284.553935
 31
0.0
 12
370.260168
 22
284.959969
 32
0.0
 13
370.260168
 23
284.959969
 33
0.0
  0
SOLID
  5
DA7A
  8
WAKU
  6
CONTINUOUS
 10
398.194006
 20
285.115385
 30
0.0
 11
397.606055
 21
283.5
 31
0.0
 12
401.913747
 22
283.5
 32
0.0
 13
401.913747
 23
283.5
 33
0.0
  0
SOLID
  5
DA7B
  8
WAKU
  6
CONTINUOUS
 10
401.913747
 20
283.5
 30
0.0
 11
401.424776
 21
285.115385
 31
0.0
 12
398.194006
 22
285.115385
 32
0.0
 13
398.194006
 23
285.115385
 33
0.0
  0
SOLID
  5
DA7C
  8
WAKU
  6
CONTINUOUS
 10
369.241303
 20
285.154132
 30
0.0
 11
369.251215
 21
284.778928
 31
0.0
 12
369.630358
 22
284.873087
 32
0.0
 13
369.630358
 23
284.873087
 33
0.0
  0
SOLID
  5
DA7D
  8
WAKU
  6
CONTINUOUS
 10
369.635696
 20
285.180404
 30
0.0
 11
369.241303
 21
285.154132
 31
0.0
 12
369.630358
 22
284.873087
 32
0.0
 13
369.630358
 23
284.873087
 33
0.0
  0
SOLID
  5
DA7E
  8
WAKU
  6
CONTINUOUS
 10
373.690335
 20
285.229744
 30
0.0
 11
372.237497
 21
284.486117
 31
0.0
 12
373.241532
 22
284.780941
 32
0.0
 13
373.241532
 23
284.780941
 33
0.0
  0
SOLID
  5
DA7F
  8
WAKU
  6
CONTINUOUS
 10
371.98994
 20
285.251431
 30
0.0
 11
371.312263
 21
284.810332
 31
0.0
 12
372.194232
 22
284.918099
 32
0.0
 13
372.194232
 23
284.918099
 33
0.0
  0
SOLID
  5
DA80
  8
WAKU
  6
CONTINUOUS
 10
373.195965
 20
285.275232
 30
0.0
 11
372.237497
 21
284.486117
 31
0.0
 12
373.690335
 22
285.229744
 32
0.0
 13
373.690335
 23
285.229744
 33
0.0
  0
SOLID
  5
DA81
  8
WAKU
  6
CONTINUOUS
 10
372.686363
 20
285.326171
 30
0.0
 11
371.98994
 21
285.251431
 31
0.0
 12
372.194232
 22
284.918099
 32
0.0
 13
372.194232
 23
284.918099
 33
0.0
  0
SOLID
  5
DA82
  8
WAKU
  6
CONTINUOUS
 10
370.035293
 20
285.465154
 30
0.0
 11
369.863139
 21
284.988189
 31
0.0
 12
370.260168
 22
284.959969
 32
0.0
 13
370.260168
 23
284.959969
 33
0.0
  0
SOLID
  5
DA83
  8
WAKU
  6
CONTINUOUS
 10
369.73149
 20
285.576021
 30
0.0
 11
369.241303
 21
285.154132
 31
0.0
 12
369.635696
 22
285.180404
 32
0.0
 13
369.635696
 23
285.180404
 33
0.0
  0
SOLID
  5
DA84
  8
WAKU
  6
CONTINUOUS
 10
369.326146
 20
285.584287
 30
0.0
 11
369.241303
 21
285.154132
 31
0.0
 12
369.73149
 22
285.576021
 32
0.0
 13
369.73149
 23
285.576021
 33
0.0
  0
SOLID
  5
DA85
  8
WAKU
  6
CONTINUOUS
 10
370.530712
 20
285.590875
 30
0.0
 11
370.035293
 21
285.465154
 31
0.0
 12
370.260168
 22
284.959969
 32
0.0
 13
370.260168
 23
284.959969
 33
0.0
  0
SOLID
  5
DA86
  8
WAKU
  6
CONTINUOUS
 10
389.236144
 20
285.653846
 30
0.0
 11
383.067593
 21
283.5
 31
0.0
 12
388.452208
 22
283.5
 32
0.0
 13
388.452208
 23
283.5
 33
0.0
  0
SOLID
  5
DA87
  8
WAKU
  6
CONTINUOUS
 10
383.851529
 20
285.653846
 30
0.0
 11
383.067593
 21
283.5
 31
0.0
 12
389.236144
 22
285.653846
 32
0.0
 13
389.236144
 23
285.653846
 33
0.0
  0
SOLID
  5
DA88
  8
WAKU
  6
CONTINUOUS
 10
404.851529
 20
285.653846
 30
0.0
 11
404.067593
 21
283.5
 31
0.0
 12
409.452208
 22
283.5
 32
0.0
 13
409.452208
 23
283.5
 33
0.0
  0
SOLID
  5
DA89
  8
WAKU
  6
CONTINUOUS
 10
409.452208
 20
283.5
 30
0.0
 11
409.159221
 21
285.653846
 31
0.0
 12
404.851529
 22
285.653846
 32
0.0
 13
404.851529
 23
285.653846
 33
0.0
  0
SOLID
  5
DA8A
  8
WAKU
  6
CONTINUOUS
 10
391.174606
 20
285.653846
 30
0.0
 11
390.39067
 21
283.5
 31
0.0
 12
395.452208
 22
283.5
 32
0.0
 13
395.452208
 23
283.5
 33
0.0
  0
SOLID
  5
DA8B
  8
WAKU
  6
CONTINUOUS
 10
395.452208
 20
283.5
 30
0.0
 11
395.159221
 21
285.653846
 31
0.0
 12
391.174606
 22
285.653846
 32
0.0
 13
391.174606
 23
285.653846
 33
0.0
  0
SOLID
  5
DA8C
  8
WAKU
  6
CONTINUOUS
 10
374.090681
 20
285.71052
 30
0.0
 11
373.195965
 21
285.275232
 31
0.0
 12
373.690335
 22
285.229744
 32
0.0
 13
373.690335
 23
285.229744
 33
0.0
  0
SOLID
  5
DA8D
  8
WAKU
  6
CONTINUOUS
 10
373.145266
 20
285.785089
 30
0.0
 11
371.98994
 21
285.251431
 31
0.0
 12
372.686363
 22
285.326171
 32
0.0
 13
372.686363
 23
285.326171
 33
0.0
  0
SOLID
  5
DA8E
  8
WAKU
  6
CONTINUOUS
 10
372.646296
 20
285.825506
 30
0.0
 11
371.98994
 21
285.251431
 31
0.0
 12
373.145266
 22
285.785089
 32
0.0
 13
373.145266
 23
285.785089
 33
0.0
  0
SOLID
  5
DA8F
  8
WAKU
  6
CONTINUOUS
 10
370.297156
 20
285.966509
 30
0.0
 11
370.035293
 21
285.465154
 31
0.0
 12
370.530712
 22
285.590875
 32
0.0
 13
370.530712
 23
285.590875
 33
0.0
  0
SOLID
  5
DA90
  8
WAKU
  6
CONTINUOUS
 10
369.923519
 20
286.031028
 30
0.0
 11
369.326146
 21
285.584287
 31
0.0
 12
369.73149
 22
285.576021
 32
0.0
 13
369.73149
 23
285.576021
 33
0.0
  0
SOLID
  5
DA91
  8
WAKU
  6
CONTINUOUS
 10
369.502627
 20
286.053593
 30
0.0
 11
369.326146
 21
285.584287
 31
0.0
 12
369.923519
 22
286.031028
 32
0.0
 13
369.923519
 23
286.031028
 33
0.0
  0
SOLID
  5
DA92
  8
WAKU
  6
CONTINUOUS
 10
379.397145
 20
286.138462
 30
0.0
 11
378.436824
 21
283.5
 31
0.0
 12
379.513747
 22
283.5
 32
0.0
 13
379.513747
 23
283.5
 33
0.0
  0
SOLID
  5
DA93
  8
WAKU
  6
CONTINUOUS
 10
377.155205
 20
286.192308
 30
0.0
 11
376.175285
 21
283.5
 31
0.0
 12
379.397145
 22
286.138462
 32
0.0
 13
379.397145
 23
286.138462
 33
0.0
  0
SOLID
  5
DA94
  8
WAKU
  6
CONTINUOUS
 10
380.493667
 20
286.192308
 30
0.0
 11
377.155205
 21
286.192308
 31
0.0
 12
379.397145
 22
286.138462
 32
0.0
 13
379.397145
 23
286.138462
 33
0.0
  0
SOLID
  5
DA95
  8
WAKU
  6
CONTINUOUS
 10
380.493667
 20
286.192308
 30
0.0
 11
379.397145
 21
286.138462
 31
0.0
 12
379.513747
 22
283.5
 32
0.0
 13
379.513747
 23
283.5
 33
0.0
  0
SOLID
  5
DA96
  8
WAKU
  6
CONTINUOUS
 10
380.493667
 20
286.192308
 30
0.0
 11
381.775285
 21
283.5
 31
0.0
 12
382.755205
 22
286.192308
 32
0.0
 13
382.755205
 23
286.192308
 33
0.0
  0
SOLID
  5
DA97
  8
WAKU
  6
CONTINUOUS
 10
374.427865
 20
286.205609
 30
0.0
 11
373.195965
 21
285.275232
 31
0.0
 12
374.090681
 22
285.71052
 32
0.0
 13
374.090681
 23
285.71052
 33
0.0
  0
SOLID
  5
DA98
  8
WAKU
  6
CONTINUOUS
 10
373.98505
 20
286.233718
 30
0.0
 11
373.195965
 21
285.275232
 31
0.0
 12
374.427865
 22
286.205609
 32
0.0
 13
374.427865
 23
286.205609
 33
0.0
  0
SOLID
  5
DA99
  8
WAKU
  6
CONTINUOUS
 10
370.971896
 20
286.268471
 30
0.0
 11
370.297156
 21
285.966509
 31
0.0
 12
370.530712
 22
285.590875
 32
0.0
 13
370.530712
 23
285.590875
 33
0.0
  0
SOLID
  5
DA9A
  8
WAKU
  6
CONTINUOUS
 10
373.553316
 20
286.277229
 30
0.0
 11
372.646296
 21
285.825506
 31
0.0
 12
373.145266
 22
285.785089
 32
0.0
 13
373.145266
 23
285.785089
 33
0.0
  0
SOLID
  5
DA9B
  8
WAKU
  6
CONTINUOUS
 10
370.638671
 20
286.473
 30
0.0
 11
370.297156
 21
285.966509
 31
0.0
 12
370.971896
 22
286.268471
 32
0.0
 13
370.971896
 23
286.268471
 33
0.0
  0
SOLID
  5
DA9C
  8
WAKU
  6
CONTINUOUS
 10
373.220238
 20
286.48192
 30
0.0
 11
372.646296
 21
285.825506
 31
0.0
 12
373.553316
 22
286.277229
 32
0.0
 13
373.553316
 23
286.277229
 33
0.0
  0
SOLID
  5
DA9D
  8
WAKU
  6
CONTINUOUS
 10
370.207035
 20
286.51657
 30
0.0
 11
369.502627
 21
286.053593
 31
0.0
 12
369.923519
 22
286.031028
 32
0.0
 13
369.923519
 23
286.031028
 33
0.0
  0
SOLID
  5
DA9E
  8
WAKU
  6
CONTINUOUS
 10
369.764265
 20
286.544812
 30
0.0
 11
369.502627
 21
286.053593
 31
0.0
 12
370.207035
 22
286.51657
 32
0.0
 13
370.207035
 23
286.51657
 33
0.0
  0
SOLID
  5
DA9F
  8
WAKU
  6
CONTINUOUS
 10
374.689503
 20
286.696828
 30
0.0
 11
373.98505
 21
286.233718
 31
0.0
 12
374.427865
 22
286.205609
 32
0.0
 13
374.427865
 23
286.205609
 33
0.0
  0
SOLID
  5
DAA0
  8
WAKU
  6
CONTINUOUS
 10
374.268507
 20
286.719278
 30
0.0
 11
373.98505
 21
286.233718
 31
0.0
 12
374.689503
 22
286.696828
 32
0.0
 13
374.689503
 23
286.696828
 33
0.0
  0
SOLID
  5
DAA1
  8
WAKU
  6
CONTINUOUS
 10
373.894843
 20
286.783693
 30
0.0
 11
373.220238
 21
286.48192
 31
0.0
 12
373.553316
 22
286.277229
 32
0.0
 13
373.553316
 23
286.277229
 33
0.0
  0
SOLID
  5
DAA2
  8
WAKU
  6
CONTINUOUS
 10
371.545827
 20
286.924893
 30
0.0
 11
370.638671
 21
286.473
 31
0.0
 12
370.971896
 22
286.268471
 32
0.0
 13
370.971896
 23
286.268471
 33
0.0
  0
SOLID
  5
DAA3
  8
WAKU
  6
CONTINUOUS
 10
371.04672
 20
286.965174
 30
0.0
 11
370.638671
 21
286.473
 31
0.0
 12
371.545827
 22
286.924893
 32
0.0
 13
371.545827
 23
286.924893
 33
0.0
  0
SOLID
  5
DAA4
  8
WAKU
  6
CONTINUOUS
 10
370.101449
 20
287.039901
 30
0.0
 11
369.764265
 21
286.544812
 31
0.0
 12
370.207035
 22
286.51657
 32
0.0
 13
370.207035
 23
286.51657
 33
0.0
  0
SOLID
  5
DAA5
  8
WAKU
  6
CONTINUOUS
 10
373.661353
 20
287.159534
 30
0.0
 11
373.220238
 21
286.48192
 31
0.0
 12
373.894843
 22
286.783693
 32
0.0
 13
373.894843
 23
286.783693
 33
0.0
  0
SOLID
  5
DAA6
  8
WAKU
  6
CONTINUOUS
 10
374.865984
 20
287.166134
 30
0.0
 11
374.268507
 21
286.719278
 31
0.0
 12
374.689503
 22
286.696828
 32
0.0
 13
374.689503
 23
286.696828
 33
0.0
  0
SOLID
  5
DAA7
  8
WAKU
  6
CONTINUOUS
 10
374.46071
 20
287.174248
 30
0.0
 11
374.268507
 21
286.719278
 31
0.0
 12
374.865984
 22
287.166134
 32
0.0
 13
374.865984
 23
287.166134
 33
0.0
  0
SOLID
  5
DAA8
  8
WAKU
  6
CONTINUOUS
 10
374.156732
 20
287.28503
 30
0.0
 11
373.661353
 21
287.159534
 31
0.0
 12
373.894843
 22
286.783693
 32
0.0
 13
373.894843
 23
286.783693
 33
0.0
  0
SOLID
  5
DAA9
  8
WAKU
  6
CONTINUOUS
 10
371.505632
 20
287.424128
 30
0.0
 11
371.04672
 21
286.965174
 31
0.0
 12
371.545827
 22
286.924893
 32
0.0
 13
371.545827
 23
286.924893
 33
0.0
  0
SOLID
  5
DAAA
  8
WAKU
  6
CONTINUOUS
 10
370.996098
 20
287.475108
 30
0.0
 11
370.101449
 21
287.039901
 31
0.0
 12
370.207035
 22
286.51657
 32
0.0
 13
370.207035
 23
286.51657
 33
0.0
  0
SOLID
  5
DAAB
  8
WAKU
  6
CONTINUOUS
 10
372.202181
 20
287.498991
 30
0.0
 11
371.505632
 21
287.424128
 31
0.0
 12
371.545827
 22
286.924893
 32
0.0
 13
371.545827
 23
286.924893
 33
0.0
  0
SOLID
  5
DAAC
  8
WAKU
  6
CONTINUOUS
 10
370.501795
 20
287.520677
 30
0.0
 11
370.101449
 21
287.039901
 31
0.0
 12
370.996098
 22
287.475108
 32
0.0
 13
370.996098
 23
287.475108
 33
0.0
  0
SOLID
  5
DAAD
  8
WAKU
  6
CONTINUOUS
 10
374.556361
 20
287.569864
 30
0.0
 11
374.46071
 21
287.174248
 31
0.0
 12
374.865984
 22
287.166134
 32
0.0
 13
374.865984
 23
287.166134
 33
0.0
  0
SOLID
  5
DAAE
  8
WAKU
  6
CONTINUOUS
 10
395.864763
 20
287.592308
 30
0.0
 11
395.159221
 21
285.653846
 31
0.0
 12
395.452208
 22
283.5
 32
0.0
 13
395.452208
 23
283.5
 33
0.0
  0
SOLID
  5
DAAF
  8
WAKU
  6
CONTINUOUS
 10
393.172456
 20
287.592308
 30
0.0
 11
391.703565
 21
286.515385
 31
0.0
 12
392.780488
 22
286.515385
 32
0.0
 13
392.780488
 23
286.515385
 33
0.0
  0
SOLID
  5
DAB0
  8
WAKU
  6
CONTINUOUS
 10
392.095533
 20
287.592308
 30
0.0
 11
391.703565
 21
286.515385
 31
0.0
 12
393.172456
 22
287.592308
 32
0.0
 13
393.172456
 23
287.592308
 33
0.0
  0
SOLID
  5
DAB1
  8
WAKU
  6
CONTINUOUS
 10
391.28784
 20
287.592308
 30
0.0
 11
392.095533
 21
287.592308
 31
0.0
 12
393.172456
 22
287.592308
 32
0.0
 13
393.172456
 23
287.592308
 33
0.0
  0
SOLID
  5
DAB2
  8
WAKU
  6
CONTINUOUS
 10
391.28784
 20
287.592308
 30
0.0
 11
393.172456
 21
287.592308
 31
0.0
 12
395.864763
 22
287.592308
 32
0.0
 13
395.864763
 23
287.592308
 33
0.0
  0
SOLID
  5
DAB3
  8
WAKU
  6
CONTINUOUS
 10
396.941687
 20
287.592308
 30
0.0
 11
391.28784
 21
287.592308
 31
0.0
 12
395.864763
 22
287.592308
 32
0.0
 13
395.864763
 23
287.592308
 33
0.0
  0
SOLID
  5
DAB4
  8
WAKU
  6
CONTINUOUS
 10
396.941687
 20
287.592308
 30
0.0
 11
395.864763
 21
287.592308
 31
0.0
 12
395.452208
 22
283.5
 32
0.0
 13
395.452208
 23
283.5
 33
0.0
  0
SOLID
  5
DAB5
  8
WAKU
  6
CONTINUOUS
 10
374.950827
 20
287.596289
 30
0.0
 11
374.556361
 21
287.569864
 31
0.0
 12
374.865984
 22
287.166134
 32
0.0
 13
374.865984
 23
287.166134
 33
0.0
  0
SOLID
  5
DAB6
  8
WAKU
  6
CONTINUOUS
 10
374.328925
 20
287.761987
 30
0.0
 11
373.661353
 21
287.159534
 31
0.0
 12
374.156732
 22
287.28503
 32
0.0
 13
374.156732
 23
287.28503
 33
0.0
  0
SOLID
  5
DAB7
  8
WAKU
  6
CONTINUOUS
 10
373.932071
 20
287.790402
 30
0.0
 11
373.661353
 21
287.159534
 31
0.0
 12
374.328925
 22
287.761987
 32
0.0
 13
374.328925
 23
287.761987
 33
0.0
  0
SOLID
  5
DAB8
  8
WAKU
  6
CONTINUOUS
 10
371.997783
 20
287.832235
 30
0.0
 11
371.505632
 21
287.424128
 31
0.0
 12
372.202181
 22
287.498991
 32
0.0
 13
372.202181
 23
287.498991
 33
0.0
  0
SOLID
  5
DAB9
  8
WAKU
  6
CONTINUOUS
 10
374.561802
 20
287.877253
 30
0.0
 11
374.556361
 21
287.569864
 31
0.0
 12
374.950827
 22
287.596289
 32
0.0
 13
374.950827
 23
287.596289
 33
0.0
  0
SOLID
  5
DABA
  8
WAKU
  6
CONTINUOUS
 10
372.879878
 20
287.940057
 30
0.0
 11
371.997783
 21
287.832235
 31
0.0
 12
372.202181
 22
287.498991
 32
0.0
 13
372.202181
 23
287.498991
 33
0.0
  0
SOLID
  5
DABB
  8
WAKU
  6
CONTINUOUS
 10
370.950599
 20
287.96948
 30
0.0
 11
370.501795
 21
287.520677
 31
0.0
 12
370.996098
 22
287.475108
 32
0.0
 13
370.996098
 23
287.475108
 33
0.0
  0
SOLID
  5
DABC
  8
WAKU
  6
CONTINUOUS
 10
374.940915
 20
287.971493
 30
0.0
 11
374.561802
 21
287.877253
 31
0.0
 12
374.950827
 22
287.596289
 32
0.0
 13
374.950827
 23
287.596289
 33
0.0
  0
SOLID
  5
DABD
  8
WAKU
  6
CONTINUOUS
 10
374.502951
 20
288.077918
 30
0.0
 11
374.561802
 21
287.877253
 31
0.0
 12
374.940915
 22
287.971493
 32
0.0
 13
374.940915
 23
287.971493
 33
0.0
  0
SOLID
  5
DABE
  8
WAKU
  6
CONTINUOUS
 10
405.753055
 20
288.130769
 30
0.0
 11
405.282694
 21
286.838462
 31
0.0
 12
408.513463
 22
286.838462
 32
0.0
 13
408.513463
 23
286.838462
 33
0.0
  0
SOLID
  5
DABF
  8
WAKU
  6
CONTINUOUS
 10
408.983824
 20
288.130769
 30
0.0
 11
405.753055
 21
288.130769
 31
0.0
 12
408.513463
 22
286.838462
 32
0.0
 13
408.513463
 23
286.838462
 33
0.0
  0
SOLID
  5
DAC0
  8
WAKU
  6
CONTINUOUS
 10
372.504269
 20
288.173821
 30
0.0
 11
371.997783
 21
287.832235
 31
0.0
 12
372.879878
 22
287.940057
 32
0.0
 13
372.879878
 23
287.940057
 33
0.0
  0
SOLID
  5
DAC1
  8
WAKU
  6
CONTINUOUS
 10
374.40481
 20
288.196249
 30
0.0
 11
373.932071
 21
287.790402
 31
0.0
 12
374.328925
 22
287.761987
 32
0.0
 13
374.328925
 23
287.761987
 33
0.0
  0
SOLID
  5
DAC2
  8
WAKU
  6
CONTINUOUS
 10
374.40481
 20
288.196249
 30
0.0
 11
374.502951
 21
288.077918
 31
0.0
 12
374.940915
 22
287.971493
 32
0.0
 13
374.940915
 23
287.971493
 33
0.0
  0
SOLID
  5
DAC3
  8
WAKU
  6
CONTINUOUS
 10
373.510738
 20
288.21124
 30
0.0
 11
372.504269
 21
288.173821
 31
0.0
 12
372.879878
 22
287.940057
 32
0.0
 13
372.879878
 23
287.940057
 33
0.0
  0
SOLID
  5
DAC4
  8
WAKU
  6
CONTINUOUS
 10
371.954587
 20
288.264284
 30
0.0
 11
370.950599
 21
287.96948
 31
0.0
 12
370.996098
 22
287.475108
 32
0.0
 13
370.996098
 23
287.475108
 33
0.0
  0
SOLID
  5
DAC5
  8
WAKU
  6
CONTINUOUS
 10
374.836612
 20
288.277967
 30
0.0
 11
374.40481
 21
288.196249
 31
0.0
 12
374.940915
 22
287.971493
 32
0.0
 13
374.940915
 23
287.971493
 33
0.0
  0
SOLID
  5
DAC6
  8
WAKU
  6
CONTINUOUS
 10
374.019229
 20
288.298569
 30
0.0
 11
372.504269
 21
288.173821
 31
0.0
 12
373.510738
 22
288.21124
 32
0.0
 13
373.510738
 23
288.21124
 33
0.0
  0
SOLID
  5
DAC7
  8
WAKU
  6
CONTINUOUS
 10
374.019229
 20
288.298569
 30
0.0
 11
374.40481
 21
288.196249
 31
0.0
 12
374.836612
 22
288.277967
 32
0.0
 13
374.836612
 23
288.277967
 33
0.0
  0
SOLID
  5
DAC8
  8
WAKU
  6
CONTINUOUS
 10
374.019229
 20
288.298569
 30
0.0
 11
373.932071
 21
287.790402
 31
0.0
 12
374.40481
 22
288.196249
 32
0.0
 13
374.40481
 23
288.196249
 33
0.0
  0
SOLID
  5
DAC9
  8
WAKU
  6
CONTINUOUS
 10
371.431374
 20
288.369826
 30
0.0
 11
370.950599
 21
287.96948
 31
0.0
 12
371.954587
 22
288.264284
 32
0.0
 13
371.954587
 23
288.264284
 33
0.0
  0
SOLID
  5
DACA
  8
WAKU
  6
CONTINUOUS
 10
373.005639
 20
288.435768
 30
0.0
 11
372.504269
 21
288.173821
 31
0.0
 12
374.019229
 22
288.298569
 32
0.0
 13
374.019229
 23
288.298569
 33
0.0
  0
SOLID
  5
DACB
  8
WAKU
  6
CONTINUOUS
 10
374.641749
 20
288.504452
 30
0.0
 11
373.005639
 21
288.435768
 31
0.0
 12
374.019229
 22
288.298569
 32
0.0
 13
374.019229
 23
288.298569
 33
0.0
  0
SOLID
  5
DACC
  8
WAKU
  6
CONTINUOUS
 10
374.641749
 20
288.504452
 30
0.0
 11
374.019229
 21
288.298569
 31
0.0
 12
374.836612
 22
288.277967
 32
0.0
 13
374.836612
 23
288.277967
 33
0.0
  0
SOLID
  5
DACD
  8
WAKU
  6
CONTINUOUS
 10
372.440235
 20
288.547585
 30
0.0
 11
371.431374
 21
288.369826
 31
0.0
 12
371.954587
 22
288.264284
 32
0.0
 13
371.954587
 23
288.264284
 33
0.0
  0
SOLID
  5
DACE
  8
WAKU
  6
CONTINUOUS
 10
373.482636
 20
288.608014
 30
0.0
 11
373.005639
 21
288.435768
 31
0.0
 12
374.641749
 22
288.504452
 32
0.0
 13
374.641749
 23
288.504452
 33
0.0
  0
SOLID
  5
DACF
  8
WAKU
  6
CONTINUOUS
 10
374.363484
 20
288.64263
 30
0.0
 11
373.482636
 21
288.608014
 31
0.0
 12
374.641749
 22
288.504452
 32
0.0
 13
374.641749
 23
288.504452
 33
0.0
  0
SOLID
  5
DAD0
  8
WAKU
  6
CONTINUOUS
 10
373.916941
 20
288.683944
 30
0.0
 11
373.482636
 21
288.608014
 31
0.0
 12
374.363484
 22
288.64263
 32
0.0
 13
374.363484
 23
288.64263
 33
0.0
  0
SOLID
  5
DAD1
  8
WAKU
  6
CONTINUOUS
 10
371.926464
 20
288.70701
 30
0.0
 11
371.431374
 21
288.369826
 31
0.0
 12
372.440235
 22
288.547585
 32
0.0
 13
372.440235
 23
288.547585
 33
0.0
  0
SOLID
  5
DAD2
  8
WAKU
  6
CONTINUOUS
 10
372.89514
 20
288.740065
 30
0.0
 11
371.926464
 21
288.70701
 31
0.0
 12
372.440235
 22
288.547585
 32
0.0
 13
372.440235
 23
288.547585
 33
0.0
  0
SOLID
  5
DAD3
  8
WAKU
  6
CONTINUOUS
 10
380.311313
 20
288.776923
 30
0.0
 11
377.155205
 21
286.192308
 31
0.0
 12
380.493667
 22
286.192308
 32
0.0
 13
380.493667
 23
286.192308
 33
0.0
  0
SOLID
  5
DAD4
  8
WAKU
  6
CONTINUOUS
 10
381.524851
 20
288.776923
 30
0.0
 11
378.095928
 21
288.776923
 31
0.0
 12
380.311313
 22
288.776923
 32
0.0
 13
380.311313
 23
288.776923
 33
0.0
  0
SOLID
  5
DAD5
  8
WAKU
  6
CONTINUOUS
 10
381.524851
 20
288.776923
 30
0.0
 11
380.311313
 21
288.776923
 31
0.0
 12
380.493667
 22
286.192308
 32
0.0
 13
380.493667
 23
286.192308
 33
0.0
  0
SOLID
  5
DAD6
  8
WAKU
  6
CONTINUOUS
 10
381.524851
 20
288.776923
 30
0.0
 11
380.493667
 21
286.192308
 31
0.0
 12
382.755205
 22
286.192308
 32
0.0
 13
382.755205
 23
286.192308
 33
0.0
  0
SOLID
  5
DAD7
  8
WAKU
  6
CONTINUOUS
 10
373.799148
 20
288.781929
 30
0.0
 11
373.916941
 21
288.683944
 31
0.0
 12
374.363484
 22
288.64263
 32
0.0
 13
374.363484
 23
288.64263
 33
0.0
  0
SOLID
  5
DAD8
  8
WAKU
  6
CONTINUOUS
 10
373.290857
 20
288.835581
 30
0.0
 11
371.926464
 21
288.70701
 31
0.0
 12
372.89514
 22
288.740065
 32
0.0
 13
372.89514
 23
288.740065
 33
0.0
  0
SOLID
  5
DAD9
  8
WAKU
  6
CONTINUOUS
 10
373.597996
 20
288.840902
 30
0.0
 11
373.799148
 21
288.781929
 31
0.0
 12
374.363484
 22
288.64263
 32
0.0
 13
374.363484
 23
288.64263
 33
0.0
  0
SOLID
  5
DADA
  8
WAKU
  6
CONTINUOUS
 10
402.042817
 20
288.884615
 30
0.0
 11
400.181958
 21
286.730769
 31
0.0
 12
401.258881
 22
286.730769
 32
0.0
 13
401.258881
 23
286.730769
 33
0.0
  0
SOLID
  5
DADB
  8
WAKU
  6
CONTINUOUS
 10
402.796663
 20
288.884615
 30
0.0
 11
401.424776
 21
285.115385
 31
0.0
 12
401.913747
 22
283.5
 32
0.0
 13
401.913747
 23
283.5
 33
0.0
  0
SOLID
  5
DADC
  8
WAKU
  6
CONTINUOUS
 10
403.873587
 20
288.884615
 30
0.0
 11
402.796663
 21
288.884615
 31
0.0
 12
401.913747
 22
283.5
 32
0.0
 13
401.913747
 23
283.5
 33
0.0
  0
SOLID
  5
DADD
  8
WAKU
  6
CONTINUOUS
 10
400.965894
 20
288.884615
 30
0.0
 11
400.181958
 21
286.730769
 31
0.0
 12
402.042817
 22
288.884615
 32
0.0
 13
402.042817
 23
288.884615
 33
0.0
  0
SOLID
  5
DADE
  8
WAKU
  6
CONTINUOUS
 10
399.858881
 20
286.730769
 30
0.0
 11
400.642817
 21
288.884615
 31
0.0
 12
399.565894
 22
288.884615
 32
0.0
 13
399.565894
 23
288.884615
 33
0.0
  0
SOLID
  5
DADF
  8
WAKU
  6
CONTINUOUS
 10
399.565894
 20
288.884615
 30
0.0
 11
398.781958
 21
286.730769
 31
0.0
 12
399.858881
 22
286.730769
 32
0.0
 13
399.858881
 23
286.730769
 33
0.0
  0
SOLID
  5
DAE0
  8
WAKU
  6
CONTINUOUS
 10
374.225306
 20
288.920895
 30
0.0
 11
373.597996
 21
288.840902
 31
0.0
 12
374.363484
 22
288.64263
 32
0.0
 13
374.363484
 23
288.64263
 33
0.0
  0
SOLID
  5
DAE1
  8
WAKU
  6
CONTINUOUS
 10
372.417683
 20
288.968648
 30
0.0
 11
373.597996
 21
288.840902
 31
0.0
 12
374.225306
 22
288.920895
 32
0.0
 13
374.225306
 23
288.920895
 33
0.0
  0
SOLID
  5
DAE2
  8
WAKU
  6
CONTINUOUS
 10
372.417683
 20
288.968648
 30
0.0
 11
373.290857
 21
288.835581
 31
0.0
 12
373.597996
 22
288.840902
 32
0.0
 13
373.597996
 23
288.840902
 33
0.0
  0
SOLID
  5
DAE3
  8
WAKU
  6
CONTINUOUS
 10
372.417683
 20
288.968648
 30
0.0
 11
371.926464
 21
288.70701
 31
0.0
 12
373.290857
 22
288.835581
 32
0.0
 13
373.290857
 23
288.835581
 33
0.0
  0
SOLID
  5
DAE4
  8
WAKU
  6
CONTINUOUS
 10
373.998821
 20
289.115757
 30
0.0
 11
372.417683
 21
288.968648
 31
0.0
 12
374.225306
 22
288.920895
 32
0.0
 13
374.225306
 23
288.920895
 33
0.0
  0
SOLID
  5
DAE5
  8
WAKU
  6
CONTINUOUS
 10
372.886988
 20
289.145129
 30
0.0
 11
372.417683
 21
288.968648
 31
0.0
 12
373.998821
 22
289.115757
 32
0.0
 13
373.998821
 23
289.115757
 33
0.0
  0
SOLID
  5
DAE6
  8
WAKU
  6
CONTINUOUS
 10
396.941687
 20
287.592308
 30
0.0
 11
396.452715
 21
289.207692
 31
0.0
 12
393.760408
 22
289.207692
 32
0.0
 13
393.760408
 23
289.207692
 33
0.0
  0
SOLID
  5
DAE7
  8
WAKU
  6
CONTINUOUS
 10
396.452715
 20
289.207692
 30
0.0
 11
396.941687
 21
287.592308
 31
0.0
 12
397.749379
 22
287.592308
 32
0.0
 13
397.749379
 23
287.592308
 33
0.0
  0
SOLID
  5
DAE8
  8
WAKU
  6
CONTINUOUS
 10
393.760408
 20
289.207692
 30
0.0
 11
391.28784
 21
287.592308
 31
0.0
 12
396.941687
 22
287.592308
 32
0.0
 13
396.941687
 23
287.592308
 33
0.0
  0
SOLID
  5
DAE9
  8
WAKU
  6
CONTINUOUS
 10
398.337331
 20
289.207692
 30
0.0
 11
396.452715
 21
289.207692
 31
0.0
 12
397.749379
 22
287.592308
 32
0.0
 13
397.749379
 23
287.592308
 33
0.0
  0
SOLID
  5
DAEA
  8
WAKU
  6
CONTINUOUS
 10
391.875792
 20
289.207692
 30
0.0
 11
391.28784
 21
287.592308
 31
0.0
 12
393.760408
 22
289.207692
 32
0.0
 13
393.760408
 23
289.207692
 33
0.0
  0
SOLID
  5
DAEB
  8
WAKU
  6
CONTINUOUS
 10
393.760408
 20
289.207692
 30
0.0
 11
392.683485
 21
289.207692
 31
0.0
 12
391.875792
 22
289.207692
 32
0.0
 13
391.875792
 23
289.207692
 33
0.0
  0
SOLID
  5
DAEC
  8
WAKU
  6
CONTINUOUS
 10
397.529638
 20
289.207692
 30
0.0
 11
396.452715
 21
289.207692
 31
0.0
 12
398.337331
 22
289.207692
 32
0.0
 13
398.337331
 23
289.207692
 33
0.0
  0
SOLID
  5
DAED
  8
WAKU
  6
CONTINUOUS
 10
373.692348
 20
289.22006
 30
0.0
 11
372.886988
 21
289.145129
 31
0.0
 12
373.998821
 22
289.115757
 32
0.0
 13
373.998821
 23
289.115757
 33
0.0
  0
SOLID
  5
DAEE
  8
WAKU
  6
CONTINUOUS
 10
373.317143
 20
289.229972
 30
0.0
 11
372.886988
 21
289.145129
 31
0.0
 12
373.692348
 22
289.22006
 32
0.0
 13
373.692348
 23
289.22006
 33
0.0
  0
SOLID
  5
DAEF
  8
WAKU
  6
CONTINUOUS
 10
378.723077
 20
290.5
 30
0.0
 11
381.524851
 21
288.776923
 31
0.0
 12
383.695928
 22
288.776923
 32
0.0
 13
383.695928
 23
288.776923
 33
0.0
  0
SOLID
  5
DAF0
  8
WAKU
  6
CONTINUOUS
 10
378.723077
 20
290.5
 30
0.0
 11
378.095928
 21
288.776923
 31
0.0
 12
381.524851
 22
288.776923
 32
0.0
 13
381.524851
 23
288.776923
 33
0.0
  0
SOLID
  5
DAF1
  8
WAKU
  6
CONTINUOUS
 10
372.249053
 20
290.5
 30
0.0
 11
367.971276
 21
290.5
 31
0.0
 12
367.971276
 22
286.222222
 32
0.0
 13
367.971276
 23
286.222222
 33
0.0
  0
SOLID
  5
DAF2
  8
WAKU
  6
CONTINUOUS
 10
409.219005
 20
288.776923
 30
0.0
 11
409.846154
 21
290.5
 31
0.0
 12
406.615385
 22
290.5
 32
0.0
 13
406.615385
 23
290.5
 33
0.0
  0
SOLID
  5
DAF3
  8
WAKU
  6
CONTINUOUS
 10
406.615385
 20
290.5
 30
0.0
 11
405.988236
 21
288.776923
 31
0.0
 12
409.219005
 22
288.776923
 32
0.0
 13
409.219005
 23
288.776923
 33
0.0
  0
SOLID
  5
DAF4
  8
WAKU
  6
CONTINUOUS
 10
392.683485
 20
289.207692
 30
0.0
 11
394.230769
 21
290.5
 31
0.0
 12
393.153846
 22
290.5
 32
0.0
 13
393.153846
 23
290.5
 33
0.0
  0
SOLID
  5
DAF5
  8
WAKU
  6
CONTINUOUS
 10
394.230769
 20
290.5
 30
0.0
 11
392.683485
 21
289.207692
 31
0.0
 12
393.760408
 22
289.207692
 32
0.0
 13
393.760408
 23
289.207692
 33
0.0
  0
SOLID
  5
DAF6
  8
WAKU
  6
CONTINUOUS
 10
409.159221
 20
285.653846
 30
0.0
 11
412.0
 21
290.5
 31
0.0
 12
410.923077
 22
290.5
 32
0.0
 13
410.923077
 23
290.5
 33
0.0
  0
SOLID
  5
DAF7
  8
WAKU
  6
CONTINUOUS
 10
412.0
 20
290.5
 30
0.0
 11
409.159221
 21
285.653846
 31
0.0
 12
409.452208
 22
283.5
 32
0.0
 13
409.452208
 23
283.5
 33
0.0
  0
SOLID
  5
DAF8
  8
WAKU
  6
CONTINUOUS
 10
384.323077
 20
290.5
 30
0.0
 11
378.723077
 21
290.5
 31
0.0
 12
383.695928
 22
288.776923
 32
0.0
 13
383.695928
 23
288.776923
 33
0.0
  0
SOLID
  5
DAF9
  8
WAKU
  6
CONTINUOUS
 10
385.615385
 20
290.5
 30
0.0
 11
384.988236
 21
288.776923
 31
0.0
 12
390.372851
 22
288.776923
 32
0.0
 13
390.372851
 23
288.776923
 33
0.0
  0
SOLID
  5
DAFA
  8
WAKU
  6
CONTINUOUS
 10
396.923077
 20
290.5
 30
0.0
 11
396.452715
 21
289.207692
 31
0.0
 12
397.529638
 22
289.207692
 32
0.0
 13
397.529638
 23
289.207692
 33
0.0
  0
SOLID
  5
DAFB
  8
WAKU
  6
CONTINUOUS
 10
391.0
 20
290.5
 30
0.0
 11
385.615385
 21
290.5
 31
0.0
 12
390.372851
 22
288.776923
 32
0.0
 13
390.372851
 23
288.776923
 33
0.0
  0
SOLID
  5
DAFC
  8
WAKU
  6
CONTINUOUS
 10
398.0
 20
290.5
 30
0.0
 11
396.923077
 21
290.5
 31
0.0
 12
397.529638
 22
289.207692
 32
0.0
 13
397.529638
 23
289.207692
 33
0.0
  0
ENDBLK
  5
DAFD
  8
0
  0
ENDSEC
  0
SECTION
  2
ENTITIES
  0
LINE
  5
DB05
  8
WAKU
 10
415.0
 20
292.0
 30
0.0
 11
415.0
 21
5.0
 31
0.0
  0
LINE
  5
DB06
  8
WAKU
 10
5.0
 20
292.0
 30
0.0
 11
5.0
 21
5.0
 31
0.0
  0
LINE
  5
DB07
  8
WAKU
 10
5.0
 20
5.0
 30
0.0
 11
415.0
 21
5.0
 31
0.0
  0
LINE
  5
DB08
  8
WAKU
 10
5.0
 20
292.0
 30
0.0
 11
415.0
 21
292.0
 31
0.0
  0
LINE
  5
DB09
  8
WAKU
 10
5.0
 20
282.0
 30
0.0
 11
415.0
 21
282.0
 31
0.0
  0
LINE
  5
DB0A
  8
WAKU
  6
CONTINUOUS
 10
393.760408
 20
289.207692
 30
0.0
 11
396.452715
 21
289.207692
 31
0.0
  0
LINE
  5
DB0B
  8
WAKU
  6
CONTINUOUS
 10
393.172456
 20
287.592308
 30
0.0
 11
395.864763
 21
287.592308
 31
0.0
  0
LINE
  5
DB0C
  8
WAKU
  6
CONTINUOUS
 10
390.39067
 20
283.5
 30
0.0
 11
395.452208
 21
283.5
 31
0.0
  0
LINE
  5
DB0D
  8
WAKU
  6
CONTINUOUS
 10
395.159221
 20
285.653846
 30
0.0
 11
395.864763
 21
287.592308
 31
0.0
  0
LINE
  5
DB0E
  8
WAKU
  6
CONTINUOUS
 10
367.971276
 20
290.5
 30
0.0
 11
372.249053
 21
290.5
 31
0.0
  0
LINE
  5
DB0F
  8
WAKU
  6
CONTINUOUS
 10
367.971276
 20
286.222222
 30
0.0
 11
372.249053
 21
290.5
 31
0.0
  0
LINE
  5
DB10
  8
WAKU
  6
CONTINUOUS
 10
367.971276
 20
290.5
 30
0.0
 11
367.971276
 21
286.222222
 31
0.0
  0
LINE
  5
DB11
  8
WAKU
  6
CONTINUOUS
 10
381.524851
 20
288.776923
 30
0.0
 11
383.695928
 21
288.776923
 31
0.0
  0
LINE
  5
DB12
  8
WAKU
  6
CONTINUOUS
 10
378.723077
 20
290.5
 30
0.0
 11
384.323077
 21
290.5
 31
0.0
  0
LINE
  5
DB13
  8
WAKU
  6
CONTINUOUS
 10
380.311313
 20
288.776923
 30
0.0
 11
377.155205
 21
286.192308
 31
0.0
  0
LINE
  5
DB14
  8
WAKU
  6
CONTINUOUS
 10
381.524851
 20
288.776923
 30
0.0
 11
382.755205
 21
286.192308
 31
0.0
  0
LINE
  5
DB15
  8
WAKU
  6
CONTINUOUS
 10
376.175285
 20
283.5
 30
0.0
 11
377.155205
 21
286.192308
 31
0.0
  0
LINE
  5
DB16
  8
WAKU
  6
CONTINUOUS
 10
379.397145
 20
286.138462
 30
0.0
 11
376.175285
 21
283.5
 31
0.0
  0
LINE
  5
DB17
  8
WAKU
  6
CONTINUOUS
 10
381.775285
 20
283.5
 30
0.0
 11
382.755205
 21
286.192308
 31
0.0
  0
LINE
  5
DB18
  8
WAKU
  6
CONTINUOUS
 10
380.493667
 20
286.192308
 30
0.0
 11
381.775285
 21
283.5
 31
0.0
  0
LINE
  5
DB19
  8
WAKU
  6
CONTINUOUS
 10
379.513747
 20
283.5
 30
0.0
 11
380.493667
 21
286.192308
 31
0.0
  0
LINE
  5
DB1A
  8
WAKU
  6
CONTINUOUS
 10
378.436824
 20
283.5
 30
0.0
 11
379.513747
 21
283.5
 31
0.0
  0
LINE
  5
DB1B
  8
WAKU
  6
CONTINUOUS
 10
378.436824
 20
283.5
 30
0.0
 11
379.397145
 21
286.138462
 31
0.0
  0
LINE
  5
DB1C
  8
WAKU
  6
CONTINUOUS
 10
378.095928
 20
288.776923
 30
0.0
 11
380.311313
 21
288.776923
 31
0.0
  0
LINE
  5
DB1D
  8
WAKU
  6
CONTINUOUS
 10
378.723077
 20
290.5
 30
0.0
 11
378.095928
 21
288.776923
 31
0.0
  0
LINE
  5
DB1E
  8
WAKU
  6
CONTINUOUS
 10
392.780488
 20
286.515385
 30
0.0
 11
393.172456
 21
287.592308
 31
0.0
  0
LINE
  5
DB1F
  8
WAKU
  6
CONTINUOUS
 10
391.703565
 20
286.515385
 30
0.0
 11
392.095533
 21
287.592308
 31
0.0
  0
LINE
  5
DB20
  8
WAKU
  6
CONTINUOUS
 10
388.452208
 20
283.5
 30
0.0
 11
389.236144
 21
285.653846
 31
0.0
  0
LINE
  5
DB21
  8
WAKU
  6
CONTINUOUS
 10
383.851529
 20
285.653846
 30
0.0
 11
389.236144
 21
285.653846
 31
0.0
  0
LINE
  5
DB22
  8
WAKU
  6
CONTINUOUS
 10
383.067593
 20
283.5
 30
0.0
 11
383.851529
 21
285.653846
 31
0.0
  0
LINE
  5
DB23
  8
WAKU
  6
CONTINUOUS
 10
383.067593
 20
283.5
 30
0.0
 11
388.452208
 21
283.5
 31
0.0
  0
LINE
  5
DB24
  8
WAKU
  6
CONTINUOUS
 10
391.174606
 20
285.653846
 30
0.0
 11
395.159221
 21
285.653846
 31
0.0
  0
LINE
  5
DB25
  8
WAKU
  6
CONTINUOUS
 10
391.703565
 20
286.515385
 30
0.0
 11
392.780488
 21
286.515385
 31
0.0
  0
LINE
  5
DB26
  8
WAKU
  6
CONTINUOUS
 10
390.39067
 20
283.5
 30
0.0
 11
391.174606
 21
285.653846
 31
0.0
  0
LINE
  5
DB27
  8
WAKU
  6
CONTINUOUS
 10
384.988236
 20
288.776923
 30
0.0
 11
390.372851
 21
288.776923
 31
0.0
  0
LINE
  5
DB28
  8
WAKU
  6
CONTINUOUS
 10
385.615385
 20
290.5
 30
0.0
 11
391.0
 21
290.5
 31
0.0
  0
LINE
  5
DB29
  8
WAKU
  6
CONTINUOUS
 10
384.988236
 20
288.776923
 30
0.0
 11
385.615385
 21
290.5
 31
0.0
  0
LINE
  5
DB2A
  8
WAKU
  6
CONTINUOUS
 10
384.323077
 20
290.5
 30
0.0
 11
383.695928
 21
288.776923
 31
0.0
  0
LINE
  5
DB2B
  8
WAKU
  6
CONTINUOUS
 10
393.153846
 20
290.5
 30
0.0
 11
394.230769
 21
290.5
 31
0.0
  0
LINE
  5
DB2C
  8
WAKU
  6
CONTINUOUS
 10
393.760408
 20
289.207692
 30
0.0
 11
394.230769
 21
290.5
 31
0.0
  0
LINE
  5
DB2D
  8
WAKU
  6
CONTINUOUS
 10
391.875792
 20
289.207692
 30
0.0
 11
392.683485
 21
289.207692
 31
0.0
  0
LINE
  5
DB2E
  8
WAKU
  6
CONTINUOUS
 10
391.28784
 20
287.592308
 30
0.0
 11
392.095533
 21
287.592308
 31
0.0
  0
LINE
  5
DB2F
  8
WAKU
  6
CONTINUOUS
 10
391.28784
 20
287.592308
 30
0.0
 11
391.875792
 21
289.207692
 31
0.0
  0
LINE
  5
DB30
  8
WAKU
  6
CONTINUOUS
 10
392.683485
 20
289.207692
 30
0.0
 11
393.153846
 21
290.5
 31
0.0
  0
LINE
  5
DB31
  8
WAKU
  6
CONTINUOUS
 10
390.372851
 20
288.776923
 30
0.0
 11
391.0
 21
290.5
 31
0.0
  0
LINE
  5
DB32
  8
WAKU
  6
CONTINUOUS
 10
405.753055
 20
288.130769
 30
0.0
 11
408.983824
 21
288.130769
 31
0.0
  0
LINE
  5
DB33
  8
WAKU
  6
CONTINUOUS
 10
405.282694
 20
286.838462
 30
0.0
 11
408.513463
 21
286.838462
 31
0.0
  0
LINE
  5
DB34
  8
WAKU
  6
CONTINUOUS
 10
409.452208
 20
283.5
 30
0.0
 11
404.067593
 21
283.5
 31
0.0
  0
LINE
  5
DB35
  8
WAKU
  6
CONTINUOUS
 10
404.851529
 20
285.653846
 30
0.0
 11
409.159221
 21
285.653846
 31
0.0
  0
LINE
  5
DB36
  8
WAKU
  6
CONTINUOUS
 10
405.988236
 20
288.776923
 30
0.0
 11
409.219005
 21
288.776923
 31
0.0
  0
LINE
  5
DB37
  8
WAKU
  6
CONTINUOUS
 10
406.615385
 20
290.5
 30
0.0
 11
409.846154
 21
290.5
 31
0.0
  0
LINE
  5
DB38
  8
WAKU
  6
CONTINUOUS
 10
398.781958
 20
286.730769
 30
0.0
 11
399.565894
 21
288.884615
 31
0.0
  0
LINE
  5
DB39
  8
WAKU
  6
CONTINUOUS
 10
400.181958
 20
286.730769
 30
0.0
 11
400.965894
 21
288.884615
 31
0.0
  0
LINE
  5
DB3A
  8
WAKU
  6
CONTINUOUS
 10
399.858881
 20
286.730769
 30
0.0
 11
400.642817
 21
288.884615
 31
0.0
  0
LINE
  5
DB3B
  8
WAKU
  6
CONTINUOUS
 10
401.258881
 20
286.730769
 30
0.0
 11
402.042817
 21
288.884615
 31
0.0
  0
LINE
  5
DB3C
  8
WAKU
  6
CONTINUOUS
 10
401.913747
 20
283.5
 30
0.0
 11
403.873587
 21
288.884615
 31
0.0
  0
LINE
  5
DB3D
  8
WAKU
  6
CONTINUOUS
 10
401.424776
 20
285.115385
 30
0.0
 11
402.796663
 21
288.884615
 31
0.0
  0
LINE
  5
DB3E
  8
WAKU
  6
CONTINUOUS
 10
395.452208
 20
283.5
 30
0.0
 11
396.941687
 21
287.592308
 31
0.0
  0
LINE
  5
DB3F
  8
WAKU
  6
CONTINUOUS
 10
397.606055
 20
283.5
 30
0.0
 11
401.913747
 21
283.5
 31
0.0
  0
LINE
  5
DB40
  8
WAKU
  6
CONTINUOUS
 10
398.781958
 20
286.730769
 30
0.0
 11
399.858881
 21
286.730769
 31
0.0
  0
LINE
  5
DB41
  8
WAKU
  6
CONTINUOUS
 10
398.194006
 20
285.115385
 30
0.0
 11
401.424776
 21
285.115385
 31
0.0
  0
LINE
  5
DB42
  8
WAKU
  6
CONTINUOUS
 10
397.606055
 20
283.5
 30
0.0
 11
398.194006
 21
285.115385
 31
0.0
  0
LINE
  5
DB43
  8
WAKU
  6
CONTINUOUS
 10
400.181958
 20
286.730769
 30
0.0
 11
401.258881
 21
286.730769
 31
0.0
  0
LINE
  5
DB44
  8
WAKU
  6
CONTINUOUS
 10
404.067593
 20
283.5
 30
0.0
 11
404.851529
 21
285.653846
 31
0.0
  0
LINE
  5
DB45
  8
WAKU
  6
CONTINUOUS
 10
400.965894
 20
288.884615
 30
0.0
 11
402.042817
 21
288.884615
 31
0.0
  0
LINE
  5
DB46
  8
WAKU
  6
CONTINUOUS
 10
396.923077
 20
290.5
 30
0.0
 11
398.0
 21
290.5
 31
0.0
  0
LINE
  5
DB47
  8
WAKU
  6
CONTINUOUS
 10
397.529638
 20
289.207692
 30
0.0
 11
398.0
 21
290.5
 31
0.0
  0
LINE
  5
DB48
  8
WAKU
  6
CONTINUOUS
 10
397.529638
 20
289.207692
 30
0.0
 11
398.337331
 21
289.207692
 31
0.0
  0
LINE
  5
DB49
  8
WAKU
  6
CONTINUOUS
 10
396.941687
 20
287.592308
 30
0.0
 11
397.749379
 21
287.592308
 31
0.0
  0
LINE
  5
DB4A
  8
WAKU
  6
CONTINUOUS
 10
397.749379
 20
287.592308
 30
0.0
 11
398.337331
 21
289.207692
 31
0.0
  0
LINE
  5
DB4B
  8
WAKU
  6
CONTINUOUS
 10
399.565894
 20
288.884615
 30
0.0
 11
400.642817
 21
288.884615
 31
0.0
  0
LINE
  5
DB4C
  8
WAKU
  6
CONTINUOUS
 10
396.452715
 20
289.207692
 30
0.0
 11
396.923077
 21
290.5
 31
0.0
  0
LINE
  5
DB4D
  8
WAKU
  6
CONTINUOUS
 10
406.615385
 20
290.5
 30
0.0
 11
405.988236
 21
288.776923
 31
0.0
  0
LINE
  5
DB4E
  8
WAKU
  6
CONTINUOUS
 10
405.753055
 20
288.130769
 30
0.0
 11
405.282694
 21
286.838462
 31
0.0
  0
LINE
  5
DB4F
  8
WAKU
  6
CONTINUOUS
 10
402.796663
 20
288.884615
 30
0.0
 11
403.873587
 21
288.884615
 31
0.0
  0
LINE
  5
DB50
  8
WAKU
  6
CONTINUOUS
 10
409.159221
 20
285.653846
 30
0.0
 11
410.923077
 21
290.5
 31
0.0
  0
LINE
  5
DB51
  8
WAKU
  6
CONTINUOUS
 10
409.452208
 20
283.5
 30
0.0
 11
412.0
 21
290.5
 31
0.0
  0
LINE
  5
DB52
  8
WAKU
  6
CONTINUOUS
 10
409.219005
 20
288.776923
 30
0.0
 11
409.846154
 21
290.5
 31
0.0
  0
LINE
  5
DB53
  8
WAKU
  6
CONTINUOUS
 10
410.923077
 20
290.5
 30
0.0
 11
412.0
 21
290.5
 31
0.0
  0
LINE
  5
DB54
  8
WAKU
  6
CONTINUOUS
 10
408.513463
 20
286.838462
 30
0.0
 11
408.983824
 21
288.130769
 31
0.0
  0
LINE
  5
DB55
  8
WAKU
  6
CONTINUOUS
 10
369.828646
 20
284.107791
 30
0.0
 11
369.966824
 21
283.829526
 31
0.0
  0
LINE
  5
DB56
  8
WAKU
  6
CONTINUOUS
 10
369.966824
 20
283.829526
 30
0.0
 11
370.193309
 21
283.634664
 31
0.0
  0
LINE
  5
DB57
  8
WAKU
  6
CONTINUOUS
 10
370.193309
 20
283.634664
 30
0.0
 11
370.499782
 21
283.530361
 31
0.0
  0
LINE
  5
DB58
  8
WAKU
  6
CONTINUOUS
 10
370.499782
 20
283.530361
 30
0.0
 11
370.874987
 21
283.520449
 31
0.0
  0
LINE
  5
DB59
  8
WAKU
  6
CONTINUOUS
 10
370.874987
 20
283.520449
 30
0.0
 11
371.305142
 21
283.605291
 31
0.0
  0
LINE
  5
DB5A
  8
WAKU
  6
CONTINUOUS
 10
371.305142
 20
283.605291
 30
0.0
 11
371.774448
 21
283.781773
 31
0.0
  0
LINE
  5
DB5B
  8
WAKU
  6
CONTINUOUS
 10
371.774448
 20
283.781773
 30
0.0
 11
372.265666
 21
284.043411
 31
0.0
  0
LINE
  5
DB5C
  8
WAKU
  6
CONTINUOUS
 10
372.265666
 20
284.043411
 30
0.0
 11
372.760756
 21
284.380595
 31
0.0
  0
LINE
  5
DB5D
  8
WAKU
  6
CONTINUOUS
 10
372.760756
 20
284.380595
 30
0.0
 11
373.241532
 21
284.780941
 31
0.0
  0
LINE
  5
DB5E
  8
WAKU
  6
CONTINUOUS
 10
373.241532
 20
284.780941
 30
0.0
 11
373.690335
 21
285.229744
 31
0.0
  0
LINE
  5
DB5F
  8
WAKU
  6
CONTINUOUS
 10
373.690335
 20
285.229744
 30
0.0
 11
374.090681
 21
285.71052
 31
0.0
  0
LINE
  5
DB60
  8
WAKU
  6
CONTINUOUS
 10
374.090681
 20
285.71052
 30
0.0
 11
374.427865
 21
286.205609
 31
0.0
  0
LINE
  5
DB61
  8
WAKU
  6
CONTINUOUS
 10
374.427865
 20
286.205609
 30
0.0
 11
374.689503
 21
286.696828
 31
0.0
  0
LINE
  5
DB62
  8
WAKU
  6
CONTINUOUS
 10
374.689503
 20
286.696828
 30
0.0
 11
374.865984
 21
287.166134
 31
0.0
  0
LINE
  5
DB63
  8
WAKU
  6
CONTINUOUS
 10
374.865984
 20
287.166134
 30
0.0
 11
374.950827
 21
287.596289
 31
0.0
  0
LINE
  5
DB64
  8
WAKU
  6
CONTINUOUS
 10
374.950827
 20
287.596289
 30
0.0
 11
374.940915
 21
287.971493
 31
0.0
  0
LINE
  5
DB65
  8
WAKU
  6
CONTINUOUS
 10
374.940915
 20
287.971493
 30
0.0
 11
374.836612
 21
288.277967
 31
0.0
  0
LINE
  5
DB66
  8
WAKU
  6
CONTINUOUS
 10
374.836612
 20
288.277967
 30
0.0
 11
374.641749
 21
288.504452
 31
0.0
  0
LINE
  5
DB67
  8
WAKU
  6
CONTINUOUS
 10
374.641749
 20
288.504452
 30
0.0
 11
374.363484
 21
288.64263
 31
0.0
  0
LINE
  5
DB68
  8
WAKU
  6
CONTINUOUS
 10
373.916941
 20
288.683944
 30
0.0
 11
373.482636
 21
288.608014
 31
0.0
  0
LINE
  5
DB69
  8
WAKU
  6
CONTINUOUS
 10
373.482636
 20
288.608014
 30
0.0
 11
373.005639
 21
288.435768
 31
0.0
  0
LINE
  5
DB6A
  8
WAKU
  6
CONTINUOUS
 10
373.005639
 20
288.435768
 30
0.0
 11
372.504269
 21
288.173821
 31
0.0
  0
LINE
  5
DB6B
  8
WAKU
  6
CONTINUOUS
 10
372.504269
 20
288.173821
 30
0.0
 11
371.997783
 21
287.832235
 31
0.0
  0
LINE
  5
DB6C
  8
WAKU
  6
CONTINUOUS
 10
371.997783
 20
287.832235
 30
0.0
 11
371.505632
 21
287.424128
 31
0.0
  0
LINE
  5
DB6D
  8
WAKU
  6
CONTINUOUS
 10
371.505632
 20
287.424128
 30
0.0
 11
371.04672
 21
286.965174
 31
0.0
  0
LINE
  5
DB6E
  8
WAKU
  6
CONTINUOUS
 10
371.04672
 20
286.965174
 30
0.0
 11
370.638671
 21
286.473
 31
0.0
  0
LINE
  5
DB6F
  8
WAKU
  6
CONTINUOUS
 10
370.638671
 20
286.473
 30
0.0
 11
370.297156
 21
285.966509
 31
0.0
  0
LINE
  5
DB70
  8
WAKU
  6
CONTINUOUS
 10
370.297156
 20
285.966509
 30
0.0
 11
370.035293
 21
285.465154
 31
0.0
  0
LINE
  5
DB71
  8
WAKU
  6
CONTINUOUS
 10
370.035293
 20
285.465154
 30
0.0
 11
369.863139
 21
284.988189
 31
0.0
  0
LINE
  5
DB72
  8
WAKU
  6
CONTINUOUS
 10
369.863139
 20
284.988189
 30
0.0
 11
369.787305
 21
284.553935
 31
0.0
  0
LINE
  5
DB73
  8
WAKU
  6
CONTINUOUS
 10
370.172911
 20
284.451856
 30
0.0
 11
370.681395
 21
284.539195
 31
0.0
  0
LINE
  5
DB74
  8
WAKU
  6
CONTINUOUS
 10
370.681395
 20
284.539195
 30
0.0
 11
371.312263
 21
284.810332
 31
0.0
  0
LINE
  5
DB75
  8
WAKU
  6
CONTINUOUS
 10
371.312263
 20
284.810332
 30
0.0
 11
371.98994
 21
285.251431
 31
0.0
  0
LINE
  5
DB76
  8
WAKU
  6
CONTINUOUS
 10
371.98994
 20
285.251431
 30
0.0
 11
372.646296
 21
285.825506
 31
0.0
  0
LINE
  5
DB77
  8
WAKU
  6
CONTINUOUS
 10
372.646296
 20
285.825506
 30
0.0
 11
373.220238
 21
286.48192
 31
0.0
  0
LINE
  5
DB78
  8
WAKU
  6
CONTINUOUS
 10
373.220238
 20
286.48192
 30
0.0
 11
373.661353
 21
287.159534
 31
0.0
  0
LINE
  5
DB79
  8
WAKU
  6
CONTINUOUS
 10
373.661353
 20
287.159534
 30
0.0
 11
373.932071
 21
287.790402
 31
0.0
  0
LINE
  5
DB7A
  8
WAKU
  6
CONTINUOUS
 10
373.932071
 20
287.790402
 30
0.0
 11
374.019229
 21
288.298569
 31
0.0
  0
LINE
  5
DB7B
  8
WAKU
  6
CONTINUOUS
 10
373.916941
 20
288.683944
 30
0.0
 11
373.799148
 21
288.781929
 31
0.0
  0
LINE
  5
DB7C
  8
WAKU
  6
CONTINUOUS
 10
373.799148
 20
288.781929
 30
0.0
 11
373.597996
 21
288.840902
 31
0.0
  0
LINE
  5
DB7D
  8
WAKU
  6
CONTINUOUS
 10
373.597996
 20
288.840902
 30
0.0
 11
373.290857
 21
288.835581
 31
0.0
  0
LINE
  5
DB7E
  8
WAKU
  6
CONTINUOUS
 10
373.290857
 20
288.835581
 30
0.0
 11
372.89514
 21
288.740065
 31
0.0
  0
LINE
  5
DB7F
  8
WAKU
  6
CONTINUOUS
 10
372.89514
 20
288.740065
 30
0.0
 11
372.440235
 21
288.547585
 31
0.0
  0
LINE
  5
DB80
  8
WAKU
  6
CONTINUOUS
 10
372.440235
 20
288.547585
 30
0.0
 11
371.954587
 21
288.264284
 31
0.0
  0
LINE
  5
DB81
  8
WAKU
  6
CONTINUOUS
 10
371.954587
 20
288.264284
 30
0.0
 11
370.996098
 21
287.475108
 31
0.0
  0
LINE
  5
DB82
  8
WAKU
  6
CONTINUOUS
 10
370.996098
 20
287.475108
 30
0.0
 11
370.207035
 21
286.51657
 31
0.0
  0
LINE
  5
DB83
  8
WAKU
  6
CONTINUOUS
 10
370.207035
 20
286.51657
 30
0.0
 11
369.923519
 21
286.031028
 31
0.0
  0
LINE
  5
DB84
  8
WAKU
  6
CONTINUOUS
 10
369.923519
 20
286.031028
 30
0.0
 11
369.73149
 21
285.576021
 31
0.0
  0
LINE
  5
DB85
  8
WAKU
  6
CONTINUOUS
 10
369.73149
 20
285.576021
 30
0.0
 11
369.635696
 21
285.180404
 31
0.0
  0
LINE
  5
DB86
  8
WAKU
  6
CONTINUOUS
 10
369.635696
 20
285.180404
 30
0.0
 11
369.630358
 21
284.873087
 31
0.0
  0
LINE
  5
DB87
  8
WAKU
  6
CONTINUOUS
 10
369.630358
 20
284.873087
 30
0.0
 11
369.689155
 21
284.672435
 31
0.0
  0
LINE
  5
DB88
  8
WAKU
  6
CONTINUOUS
 10
369.689155
 20
284.672435
 30
0.0
 11
369.787305
 21
284.553935
 31
0.0
  0
LINE
  5
DB89
  8
WAKU
  6
CONTINUOUS
 10
370.275177
 20
284.066476
 30
0.0
 11
370.392927
 21
283.968568
 31
0.0
  0
LINE
  5
DB8A
  8
WAKU
  6
CONTINUOUS
 10
370.392927
 20
283.968568
 30
0.0
 11
370.594177
 21
283.909498
 31
0.0
  0
LINE
  5
DB8B
  8
WAKU
  6
CONTINUOUS
 10
370.594177
 20
283.909498
 30
0.0
 11
370.901294
 21
283.914863
 31
0.0
  0
LINE
  5
DB8C
  8
WAKU
  6
CONTINUOUS
 10
370.901294
 20
283.914863
 30
0.0
 11
371.296984
 21
284.010368
 31
0.0
  0
LINE
  5
DB8D
  8
WAKU
  6
CONTINUOUS
 10
371.296984
 20
284.010368
 30
0.0
 11
371.751882
 21
284.202798
 31
0.0
  0
LINE
  5
DB8E
  8
WAKU
  6
CONTINUOUS
 10
371.751882
 20
284.202798
 30
0.0
 11
372.237497
 21
284.486117
 31
0.0
  0
LINE
  5
DB8F
  8
WAKU
  6
CONTINUOUS
 10
372.237497
 20
284.486117
 30
0.0
 11
373.195965
 21
285.275232
 31
0.0
  0
LINE
  5
DB90
  8
WAKU
  6
CONTINUOUS
 10
373.195965
 20
285.275232
 30
0.0
 11
373.98505
 21
286.233718
 31
0.0
  0
LINE
  5
DB91
  8
WAKU
  6
CONTINUOUS
 10
373.98505
 20
286.233718
 30
0.0
 11
374.268507
 21
286.719278
 31
0.0
  0
LINE
  5
DB92
  8
WAKU
  6
CONTINUOUS
 10
374.268507
 20
286.719278
 30
0.0
 11
374.46071
 21
287.174248
 31
0.0
  0
LINE
  5
DB93
  8
WAKU
  6
CONTINUOUS
 10
374.46071
 20
287.174248
 30
0.0
 11
374.556361
 21
287.569864
 31
0.0
  0
LINE
  5
DB94
  8
WAKU
  6
CONTINUOUS
 10
374.556361
 20
287.569864
 30
0.0
 11
374.561802
 21
287.877253
 31
0.0
  0
LINE
  5
DB95
  8
WAKU
  6
CONTINUOUS
 10
374.561802
 20
287.877253
 30
0.0
 11
374.502951
 21
288.077918
 31
0.0
  0
LINE
  5
DB96
  8
WAKU
  6
CONTINUOUS
 10
374.502951
 20
288.077918
 30
0.0
 11
374.40481
 21
288.196249
 31
0.0
  0
LINE
  5
DB97
  8
WAKU
  6
CONTINUOUS
 10
374.019229
 20
288.298569
 30
0.0
 11
373.510738
 21
288.21124
 31
0.0
  0
LINE
  5
DB98
  8
WAKU
  6
CONTINUOUS
 10
373.510738
 20
288.21124
 30
0.0
 11
372.879878
 21
287.940057
 31
0.0
  0
LINE
  5
DB99
  8
WAKU
  6
CONTINUOUS
 10
372.879878
 20
287.940057
 30
0.0
 11
372.202181
 21
287.498991
 31
0.0
  0
LINE
  5
DB9A
  8
WAKU
  6
CONTINUOUS
 10
372.202181
 20
287.498991
 30
0.0
 11
371.545827
 21
286.924893
 31
0.0
  0
LINE
  5
DB9B
  8
WAKU
  6
CONTINUOUS
 10
371.545827
 20
286.924893
 30
0.0
 11
370.971896
 21
286.268471
 31
0.0
  0
LINE
  5
DB9C
  8
WAKU
  6
CONTINUOUS
 10
370.971896
 20
286.268471
 30
0.0
 11
370.530712
 21
285.590875
 31
0.0
  0
LINE
  5
DB9D
  8
WAKU
  6
CONTINUOUS
 10
370.530712
 20
285.590875
 30
0.0
 11
370.260168
 21
284.959969
 31
0.0
  0
LINE
  5
DB9E
  8
WAKU
  6
CONTINUOUS
 10
370.260168
 20
284.959969
 30
0.0
 11
370.172911
 21
284.451856
 31
0.0
  0
LINE
  5
DB9F
  8
WAKU
  6
CONTINUOUS
 10
370.275177
 20
284.066476
 30
0.0
 11
370.709458
 21
284.142397
 31
0.0
  0
LINE
  5
DBA0
  8
WAKU
  6
CONTINUOUS
 10
370.709458
 20
284.142397
 30
0.0
 11
371.186428
 21
284.314625
 31
0.0
  0
LINE
  5
DBA1
  8
WAKU
  6
CONTINUOUS
 10
371.186428
 20
284.314625
 30
0.0
 11
371.68777
 21
284.576545
 31
0.0
  0
LINE
  5
DBA2
  8
WAKU
  6
CONTINUOUS
 10
371.68777
 20
284.576545
 30
0.0
 11
372.194232
 21
284.918099
 31
0.0
  0
LINE
  5
DBA3
  8
WAKU
  6
CONTINUOUS
 10
372.194232
 20
284.918099
 30
0.0
 11
372.686363
 21
285.326171
 31
0.0
  0
LINE
  5
DBA4
  8
WAKU
  6
CONTINUOUS
 10
372.686363
 20
285.326171
 30
0.0
 11
373.145266
 21
285.785089
 31
0.0
  0
LINE
  5
DBA5
  8
WAKU
  6
CONTINUOUS
 10
373.145266
 20
285.785089
 30
0.0
 11
373.553316
 21
286.277229
 31
0.0
  0
LINE
  5
DBA6
  8
WAKU
  6
CONTINUOUS
 10
373.553316
 20
286.277229
 30
0.0
 11
373.894843
 21
286.783693
 31
0.0
  0
LINE
  5
DBA7
  8
WAKU
  6
CONTINUOUS
 10
373.894843
 20
286.783693
 30
0.0
 11
374.156732
 21
287.28503
 31
0.0
  0
LINE
  5
DBA8
  8
WAKU
  6
CONTINUOUS
 10
374.156732
 20
287.28503
 30
0.0
 11
374.328925
 21
287.761987
 31
0.0
  0
LINE
  5
DBA9
  8
WAKU
  6
CONTINUOUS
 10
374.328925
 20
287.761987
 30
0.0
 11
374.40481
 21
288.196249
 31
0.0
  0
LINE
  5
DBAA
  8
WAKU
  6
CONTINUOUS
 10
374.363484
 20
288.64263
 30
0.0
 11
374.225306
 21
288.920895
 31
0.0
  0
LINE
  5
DBAB
  8
WAKU
  6
CONTINUOUS
 10
374.225306
 20
288.920895
 30
0.0
 11
373.998821
 21
289.115757
 31
0.0
  0
LINE
  5
DBAC
  8
WAKU
  6
CONTINUOUS
 10
373.998821
 20
289.115757
 30
0.0
 11
373.692348
 21
289.22006
 31
0.0
  0
LINE
  5
DBAD
  8
WAKU
  6
CONTINUOUS
 10
373.692348
 20
289.22006
 30
0.0
 11
373.317143
 21
289.229972
 31
0.0
  0
LINE
  5
DBAE
  8
WAKU
  6
CONTINUOUS
 10
373.317143
 20
289.229972
 30
0.0
 11
372.886988
 21
289.145129
 31
0.0
  0
LINE
  5
DBAF
  8
WAKU
  6
CONTINUOUS
 10
372.886988
 20
289.145129
 30
0.0
 11
372.417683
 21
288.968648
 31
0.0
  0
LINE
  5
DBB0
  8
WAKU
  6
CONTINUOUS
 10
372.417683
 20
288.968648
 30
0.0
 11
371.926464
 21
288.70701
 31
0.0
  0
LINE
  5
DBB1
  8
WAKU
  6
CONTINUOUS
 10
371.926464
 20
288.70701
 30
0.0
 11
371.431374
 21
288.369826
 31
0.0
  0
LINE
  5
DBB2
  8
WAKU
  6
CONTINUOUS
 10
371.431374
 20
288.369826
 30
0.0
 11
370.950599
 21
287.96948
 31
0.0
  0
LINE
  5
DBB3
  8
WAKU
  6
CONTINUOUS
 10
370.950599
 20
287.96948
 30
0.0
 11
370.501795
 21
287.520677
 31
0.0
  0
LINE
  5
DBB4
  8
WAKU
  6
CONTINUOUS
 10
370.501795
 20
287.520677
 30
0.0
 11
370.101449
 21
287.039901
 31
0.0
  0
LINE
  5
DBB5
  8
WAKU
  6
CONTINUOUS
 10
370.101449
 20
287.039901
 30
0.0
 11
369.764265
 21
286.544812
 31
0.0
  0
LINE
  5
DBB6
  8
WAKU
  6
CONTINUOUS
 10
369.764265
 20
286.544812
 30
0.0
 11
369.502627
 21
286.053593
 31
0.0
  0
LINE
  5
DBB7
  8
WAKU
  6
CONTINUOUS
 10
369.502627
 20
286.053593
 30
0.0
 11
369.326146
 21
285.584287
 31
0.0
  0
LINE
  5
DBB8
  8
WAKU
  6
CONTINUOUS
 10
369.326146
 20
285.584287
 30
0.0
 11
369.241303
 21
285.154132
 31
0.0
  0
LINE
  5
DBB9
  8
WAKU
  6
CONTINUOUS
 10
369.241303
 20
285.154132
 30
0.0
 11
369.251215
 21
284.778928
 31
0.0
  0
LINE
  5
DBBA
  8
WAKU
  6
CONTINUOUS
 10
369.251215
 20
284.778928
 30
0.0
 11
369.355518
 21
284.472454
 31
0.0
  0
LINE
  5
DBBB
  8
WAKU
  6
CONTINUOUS
 10
369.355518
 20
284.472454
 30
0.0
 11
369.550381
 21
284.245969
 31
0.0
  0
LINE
  5
DBBC
  8
WAKU
  6
CONTINUOUS
 10
369.550381
 20
284.245969
 30
0.0
 11
369.828646
 21
284.107791
 31
0.0
  0
INSERT
  5
DBBD
  8
WAKU
  6
CONTINUOUS
  2
*U0
 10
0.0
 20
0.0
 30
0.0
  0
TEXT
  5
10375
  8
WAKU
 10
10.0
 20
285.5
 30
0.0
 40
3.0
  1
FNS-70AT
 41
0.868
 11
10.0
 21
287.0
 31
0.0
 73
     2
  0
TEXT
  5
16DA1
  8
WAKU
 10
35.0
 20
284.5
 30
0.0
 40
5.0
  1
外動片引き断面詳細図(Eｲプ)　防火戸　非防火戸
 11
35.0
 21
287.0
 31
0.0
 73
     2
  0
LINE
  5
1A40E
  8
SUNPO
  6
CONTINUOUS
 10
398.0
 20
85.5
 30
0.0
 11
398.0
 21
20.0
 31
0.0
  0
LINE
  5
1AEFD
  8
DANMEN
  6
CONTINUOUS
 10
200.950003
 20
143.55
 30
0.0
 11
213.950003
 21
143.55
 31
0.0
  0
LINE
  5
1AEFE
  8
DANMEN
  6
CONTINUOUS
 10
200.7
 20
129.499997
 30
0.0
 11
213.300006
 21
129.499997
 31
0.0
  0
LINE
  5
1AEFF
  8
DANMEN
  6
CONTINUOUS
 10
200.950003
 20
131.449997
 30
0.0
 11
213.950003
 21
131.449997
 31
0.0
  0
LINE
  5
1AF00
  8
DANMEN
  6
CONTINUOUS
 10
200.7
 20
145.5
 30
0.0
 11
213.300006
 21
145.5
 31
0.0
  0
LINE
  5
1AF01
  8
DANMEN
  6
CONTINUOUS
 10
200.461098
 20
125.5
 30
0.0
 11
245.500003
 21
125.5
 31
0.0
  0
LINE
  5
1AF02
  8
DANMEN
  6
CONTINUOUS
 10
197.500003
 20
156.5
 30
0.0
 11
218.000003
 21
156.5
 31
0.0
  0
LINE
  5
1AF03
  8
DANMEN
  6
CONTINUOUS
 10
183.000003
 20
97.5
 30
0.0
 11
256.000012
 21
97.5
 31
0.0
  0
LINE
  5
1AF04
  8
DANMEN
  6
CONTINUOUS
 10
197.500003
 20
88.15
 30
0.0
 11
255.000003
 21
88.15
 31
0.0
  0
LINE
  5
1AF05
  8
DANMEN
  6
CONTINUOUS
 10
197.500003
 20
86.5
 30
0.0
 11
256.000012
 21
86.5
 31
0.0
  0
LINE
  5
1AF06
  8
DANMEN
  6
CONTINUOUS
 10
195.500003
 20
122.5
 30
0.0
 11
256.000012
 21
122.5
 31
0.0
  0
LINE
  5
1AF07
  8
DANMEN
  6
CONTINUOUS
 10
183.000003
 20
149.5
 30
0.0
 11
256.000012
 21
149.5
 31
0.0
  0
LINE
  5
1AF08
  8
DANMEN
  6
CONTINUOUS
 10
181.350009
 20
154.850006
 30
0.0
 11
181.350009
 21
88.149994
 31
0.0
  0
LINE
  5
1AF09
  8
DANMEN
  6
CONTINUOUS
 10
183.000003
 20
135.0
 30
0.0
 11
183.000003
 21
120.1
 31
0.0
  0
ARC
  5
1AF0A
  8
DANMEN
  6
CONTINUOUS
 10
195.064269
 20
123.815568
 30
0.0
 40
0.2
 50
47.258366
 51
157.974191
  0
LINE
  5
1AF0B
  8
DANMEN
  6
CONTINUOUS
 10
192.335673
 20
124.919423
 30
0.0
 11
190.47941
 21
123.263337
 31
0.0
  0
LINE
  5
1AF0C
  8
DANMEN
  6
CONTINUOUS
 10
191.579
 20
124.914414
 30
0.0
 11
190.146547
 21
123.636435
 31
0.0
  0
LINE
  5
1AF0D
  8
DANMEN
  6
CONTINUOUS
 10
194.878866
 20
123.890573
 30
0.0
 11
192.335673
 21
124.919423
 31
0.0
  0
LINE
  5
1AF0E
  8
DANMEN
  6
CONTINUOUS
 10
185.025817
 20
129.835584
 30
0.0
 11
187.800008
 21
123.3
 31
0.0
  0
LINE
  5
1AF0F
  8
DANMEN
  6
CONTINUOUS
 10
184.510444
 20
129.002283
 30
0.0
 11
187.2705
 21
122.5
 31
0.0
  0
LINE
  5
1AF10
  8
DANMEN
  6
CONTINUOUS
 10
196.000008
 20
124.244506
 30
0.0
 11
196.000008
 21
122.5
 31
0.0
  0
LINE
  5
1AF11
  8
DANMEN
  6
CONTINUOUS
 10
53.149998
 20
144.5
 30
0.0
 11
53.149998
 21
112.699997
 31
0.0
  0
LINE
  5
1AF12
  8
DANMEN
  6
CONTINUOUS
 10
68.849998
 20
149.550003
 30
0.0
 11
68.849998
 21
118.5
 31
0.0
  0
LINE
  5
1AF13
  8
DANMEN
  6
CONTINUOUS
 10
70.799998
 20
162.0
 30
0.0
 11
70.799998
 21
88.5
 31
0.0
  0
LINE
  5
1AF14
  8
DANMEN
  6
CONTINUOUS
 10
51.199998
 20
162.0
 30
0.0
 11
51.199998
 21
60.0
 31
0.0
  0
LINE
  5
1AF15
  8
DANMEN
  6
CONTINUOUS
 10
108.017555
 20
125.497915
 30
0.0
 11
108.0
 21
95.0
 31
0.0
  0
LINE
  5
1AF16
  8
DANMEN
  6
CONTINUOUS
 10
109.517555
 20
125.854639
 30
0.0
 11
109.004224
 21
95.529237
 31
0.0
  0
LINE
  5
1AF17
  8
DANMEN
  6
CONTINUOUS
 10
108.31756
 20
125.50832
 30
0.0
 11
108.30001
 21
95.020979
 31
0.0
  0
LINE
  5
1AF18
  8
DANMEN
  6
CONTINUOUS
 10
110.350006
 20
125.573535
 30
0.0
 11
110.350006
 21
99.5
 31
0.0
  0
LINE
  5
1AF19
  8
DANMEN
  6
CONTINUOUS
 10
112.0
 20
125.72342
 30
0.0
 11
112.0
 21
99.5
 31
0.0
  0
LINE
  5
1AF1A
  8
DANMEN
  6
CONTINUOUS
 10
108.0
 20
169.5
 30
0.0
 11
108.0
 21
94.5
 31
0.0
  0
LINE
  5
1AF1B
  8
DANMEN
  6
CONTINUOUS
 10
82.999985
 20
169.5
 30
0.0
 11
82.999985
 21
99.5
 31
0.0
  0
LINE
  5
1AF1C
  8
DANMEN
  6
CONTINUOUS
 10
99.000015
 20
169.5
 30
0.0
 11
99.000015
 21
99.5
 31
0.0
  0
LINE
  5
1AF1D
  8
DANMEN
  6
CONTINUOUS
 10
101.0
 20
169.5
 30
0.0
 11
101.0
 21
99.5
 31
0.0
  0
LINE
  5
1AF1E
  8
DANMEN
  6
CONTINUOUS
 10
81.0
 20
169.5
 30
0.0
 11
81.0
 21
99.5
 31
0.0
  0
LINE
  5
1AF1F
  8
DANMEN
  6
CONTINUOUS
 10
92.999986
 20
92.5
 30
0.0
 11
92.999986
 21
169.5
 31
0.0
  0
LINE
  5
1AF20
  8
DANMEN
  6
CONTINUOUS
 10
88.999998
 20
92.5
 30
0.0
 11
88.999998
 21
169.5
 31
0.0
  0
LINE
  5
1AF21
  8
DANMEN
  6
CONTINUOUS
 10
88.499998
 20
92.5
 30
0.0
 11
88.499998
 21
169.5
 31
0.0
  0
LINE
  5
1AF22
  8
DANMEN
  6
CONTINUOUS
 10
93.499986
 20
92.5
 30
0.0
 11
93.499986
 21
169.5
 31
0.0
  0
LINE
  5
1AF23
  8
DANMEN
  6
DASHED
 10
78.5
 20
169.5
 30
0.0
 11
78.5
 21
99.5
 31
0.0
  0
LINE
  5
1AF24
  8
DANMEN
  6
CONTINUOUS
 10
75.5
 20
169.5
 30
0.0
 11
75.5
 21
99.5
 31
0.0
  0
LINE
  5
1AF25
  8
DANMEN
  6
CONTINUOUS
 10
43.649994
 20
169.5
 30
0.0
 11
43.649994
 21
41.5
 31
0.0
  0
LINE
  5
1AF26
  8
DANMEN
  6
CONTINUOUS
 10
49.0
 20
169.5
 30
0.0
 11
49.0
 21
59.5
 31
0.0
  0
LINE
  5
1AF27
  8
DANMEN
  6
CONTINUOUS
 10
73.0
 20
169.5
 30
0.0
 11
73.0
 21
88.0
 31
0.0
  0
LINE
  5
1AF28
  8
DANMEN
  6
CONTINUOUS
 10
42.0
 20
169.5
 30
0.0
 11
42.0
 21
43.265549
 31
0.0
  0
LINE
  5
1AF29
  8
DANMEN
  6
CONTINUOUS
 10
94.563803
 20
64.174726
 30
0.0
 11
69.054612
 21
52.93964
 31
0.0
  0
LINE
  5
1AF2A
  8
DANMEN
  6
CONTINUOUS
 10
93.5
 20
65.503636
 30
0.0
 11
68.5
 21
54.5
 31
0.0
  0
LINE
  5
1AF2B
  8
DANMEN
  6
CONTINUOUS
 10
68.849995
 20
76.5
 30
0.0
 11
71.049998
 21
76.5
 31
0.0
  0
LINE
  5
1AF2D
  8
DANMEN
  6
CONTINUOUS
 10
69.849998
 20
86.550003
 30
0.0
 11
71.049998
 21
86.550003
 31
0.0
  0
LINE
  5
1AF2E
  8
DANMEN
  6
CONTINUOUS
 10
65.0
 20
59.5
 30
0.0
 11
73.0
 21
59.5
 31
0.0
  0
LINE
  5
1AF2F
  8
DANMEN
  6
CONTINUOUS
 10
55.5
 20
39.5
 30
0.0
 11
112.0
 21
39.5
 31
0.0
  0
LINE
  5
1AF30
  8
DANMEN
  6
CONTINUOUS
 10
54.0
 20
39.5
 30
0.0
 11
54.0
 21
31.0
 31
0.0
  0
LINE
  5
1AF31
  8
DANMEN
  6
CONTINUOUS
 10
55.5
 20
40.149994
 30
0.0
 11
55.5
 21
31.0
 31
0.0
  0
ARC
  5
1AF32
  8
DANMEN
  6
CONTINUOUS
 10
54.5
 20
31.0
 30
0.0
 40
0.5
 50
180.000019
 51
270.000001
  0
LINE
  5
1AF36
  8
DANMEN
  6
CONTINUOUS
 10
54.5
 20
30.5
 30
0.0
 11
55.0
 21
30.5
 31
0.0
  0
ARC
  5
1AF38
  8
DANMEN
  6
CONTINUOUS
 10
55.0
 20
31.0
 30
0.0
 40
0.5
 50
270.000018
 51
0.0
  0
LINE
  5
1AF39
  8
DANMEN
  6
CONTINUOUS
 10
63.0
 20
63.5
 30
0.0
 11
63.0
 21
108.500008
 31
0.0
  0
LINE
  5
1AF3A
  8
DANMEN
  6
CONTINUOUS
 10
59.0
 20
63.5
 30
0.0
 11
59.0
 21
108.500008
 31
0.0
  0
LINE
  5
1AF3B
  8
DANMEN
  6
CONTINUOUS
 10
56.799999
 20
108.500008
 30
0.0
 11
56.799999
 21
63.5
 31
0.0
  0
LINE
  5
1AF3C
  8
DANMEN
  6
CONTINUOUS
 10
65.200001
 20
108.500008
 30
0.0
 11
65.200001
 21
63.5
 31
0.0
  0
LINE
  5
1AF3D
  8
DANMEN
  6
CONTINUOUS
 10
56.600002
 20
77.000004
 30
0.0
 11
56.600002
 21
95.000004
 31
0.0
  0
LINE
  5
1AF3E
  8
DANMEN
  6
CONTINUOUS
 10
65.399998
 20
95.000004
 30
0.0
 11
65.399998
 21
77.000004
 31
0.0
  0
LINE
  5
1AF3F
  8
DANMEN
  6
CONTINUOUS
 10
53.149998
 20
111.5
 30
0.0
 11
53.149998
 21
75.5
 31
0.0
  0
ARC
  5
1AF40
  8
DANMEN
  6
CONTINUOUS
 10
55.00999
 20
52.5
 30
0.0
 40
2.0
 50
90.0
 51
118.610582
  0
LINE
  5
1AF41
  8
DANMEN
  6
CONTINUOUS
 10
50.649994
 20
41.149994
 30
0.0
 11
54.5
 21
41.149994
 31
0.0
  0
LINE
  5
1AF42
  8
DANMEN
  6
CONTINUOUS
 10
54.920742
 20
52.85
 30
0.0
 11
50.649994
 21
50.520489
 31
0.0
  0
LINE
  5
1AF43
  8
DANMEN
  6
CONTINUOUS
 10
49.0
 20
50.906353
 30
0.0
 11
49.0
 21
41.5
 31
0.0
  0
LINE
  5
1AF44
  8
DANMEN
  6
CONTINUOUS
 10
50.649994
 20
50.520489
 30
0.0
 11
50.649994
 21
41.149994
 31
0.0
  0
LINE
  5
1AF45
  8
DANMEN
  6
CONTINUOUS
 10
39.276393
 20
43.161806
 30
0.0
 11
42.0
 21
41.800003
 31
0.0
  0
LINE
  5
1AF46
  8
DANMEN
  6
CONTINUOUS
 10
40.199997
 20
43.929842
 30
0.0
 11
42.823607
 21
42.618037
 31
0.0
  0
LINE
  5
1AF47
  8
DANMEN
  6
CONTINUOUS
 10
43.1
 20
41.5
 30
0.0
 11
49.0
 21
41.5
 31
0.0
  0
LINE
  5
1AF48
  8
DANMEN
  6
CONTINUOUS
 10
42.800003
 20
40.4
 30
0.0
 11
49.0
 21
40.4
 31
0.0
  0
LINE
  5
1AF49
  8
DANMEN
  6
CONTINUOUS
 10
42.570786
 20
39.5
 30
0.0
 11
49.33287
 21
39.5
 31
0.0
  0
ARC
  5
1AF4A
  8
DANMEN
  6
CONTINUOUS
 10
42.399994
 20
39.899994
 30
0.0
 40
0.4
 50
180.000019
 51
359.999983
  0
LINE
  5
1AF4B
  8
DANMEN
  6
CONTINUOUS
 10
42.0
 20
41.800003
 30
0.0
 11
42.0
 21
39.899994
 31
0.0
  0
LINE
  5
1AF50
  8
DANMEN
  6
CONTINUOUS
 10
42.800003
 20
40.4
 30
0.0
 11
42.800003
 21
39.899994
 31
0.0
  0
LINE
  5
1AF52
  8
DANMEN
  6
CONTINUOUS
 10
43.1
 20
42.170823
 30
0.0
 11
43.1
 21
41.5
 31
0.0
  0
ARC
  5
1AF53
  8
DANMEN
  6
CONTINUOUS
 10
42.6
 20
42.170823
 30
0.0
 40
0.5
 50
0.0
 51
63.434949
  0
LINE
  5
1AF57
  8
DANMEN
  6
CONTINUOUS
 10
49.5
 20
39.5
 30
0.0
 11
54.0
 21
39.5
 31
0.0
  0
ARC
  5
1AF59
  8
DANMEN
  6
CONTINUOUS
 10
49.5
 20
40.0
 30
0.0
 40
0.5
 50
180.000019
 51
270.000001
  0
LINE
  5
1AF5A
  8
DANMEN
  6
CONTINUOUS
 10
49.0
 20
40.4
 30
0.0
 11
49.0
 21
40.0
 31
0.0
  0
LINE
  5
1AF5F
  8
DANMEN
  6
CONTINUOUS
 10
39.0
 20
48.899994
 30
0.0
 11
39.0
 21
43.60902
 31
0.0
  0
LINE
  5
1AF60
  8
DANMEN
  6
CONTINUOUS
 10
40.199997
 20
48.899994
 30
0.0
 11
40.199997
 21
43.929842
 31
0.0
  0
ARC
  5
1AF61
  8
DANMEN
  6
CONTINUOUS
 10
39.600006
 20
48.899994
 30
0.0
 40
0.6
 50
0.0
 51
180.000019
  0
ARC
  5
1AF63
  8
DANMEN
  6
CONTINUOUS
 10
39.5
 20
43.60902
 30
0.0
 40
0.5
 50
180.0
 51
243.434949
  0
LINE
  5
1AF67
  8
DANMEN
  6
CONTINUOUS
 10
54.052282
 20
54.255789
 30
0.0
 11
49.521146
 21
51.784248
 31
0.0
  0
ARC
  5
1AF69
  8
DANMEN
  6
CONTINUOUS
 10
50.0
 20
50.906353
 30
0.0
 40
1.0
 50
118.610582
 51
180.0
  0
ARC
  5
1AF6C
  8
DANMEN
  6
CONTINUOUS
 10
54.5
 20
40.149994
 30
0.0
 40
1.0
 50
0.0
 51
89.999982
  0
LINE
  5
1AF6D
  8
DANMEN
  6
CONTINUOUS
 10
62.2
 20
52.8
 30
0.0
 11
63.8
 21
52.8
 31
0.0
  0
LINE
  5
1AF6E
  8
DANMEN
  6
CONTINUOUS
 10
54.920742
 20
52.85
 30
0.0
 11
58.7
 21
52.85
 31
0.0
  0
ARC
  5
1AF70
  8
DANMEN
  6
CONTINUOUS
 10
61.6
 20
49.2
 30
0.0
 40
0.3
 50
270.0
 51
0.0
  0
LINE
  5
1AF71
  8
DANMEN
  6
CONTINUOUS
 10
60.460621
 20
48.9
 30
0.0
 11
61.6
 21
48.9
 31
0.0
  0
LINE
  5
1AF72
  8
DANMEN
  6
CONTINUOUS
 10
61.2
 20
50.553939
 30
0.0
 11
61.2
 21
51.8
 31
0.0
  0
LINE
  5
1AF73
  8
DANMEN
  6
CONTINUOUS
 10
59.7
 20
50.469694
 30
0.0
 11
59.7
 21
51.85
 31
0.0
  0
ARC
  5
1AF74
  8
DANMEN
  6
CONTINUOUS
 10
62.2
 20
51.8
 30
0.0
 40
1.0
 50
90.0
 51
180.0
  0
LINE
  5
1AF75
  8
DANMEN
  6
CONTINUOUS
 10
61.9
 20
49.2
 30
0.0
 11
61.9
 21
49.463068
 31
0.0
  0
ARC
  5
1AF76
  8
DANMEN
  6
CONTINUOUS
 10
62.2
 20
50.553939
 30
0.0
 40
1.0
 50
180.0
 51
245.375682
  0
ARC
  5
1AF77
  8
DANMEN
  6
CONTINUOUS
 10
61.7
 20
49.463068
 30
0.0
 40
0.2
 50
0.0
 51
65.375682
  0
ARC
  5
1AF78
  8
DANMEN
  6
CONTINUOUS
 10
61.7
 20
50.469694
 30
0.0
 40
2.0
 50
180.0
 51
231.706523
  0
ARC
  5
1AF79
  8
DANMEN
  6
CONTINUOUS
 10
58.7
 20
51.85
 30
0.0
 40
1.0
 50
0.0
 51
90.0
  0
LINE
  5
1AF7B
  8
DANMEN
  6
CONTINUOUS
 10
64.956524
 20
48.9
 30
0.0
 11
65.601274
 21
47.417076
 31
0.0
  0
ARC
  5
1AF7C
  8
DANMEN
  6
CONTINUOUS
 10
69.927452
 20
48.752808
 30
0.0
 40
0.5
 50
293.49856
 51
23.49856
  0
ARC
  5
1AF7D
  8
DANMEN
  6
CONTINUOUS
 10
66.518344
 20
47.815802
 30
0.0
 40
1.0
 50
203.49856
 51
293.49856
  0
LINE
  5
1AF81
  8
DANMEN
  6
CONTINUOUS
 10
70.126815
 20
48.294273
 30
0.0
 11
66.91707
 21
46.898732
 31
0.0
  0
LINE
  5
1AF83
  8
DANMEN
  6
CONTINUOUS
 10
66.3
 20
52.850006
 30
0.0
 11
68.640809
 21
52.850006
 31
0.0
  0
LINE
  5
1AF84
  8
DANMEN
  6
CONTINUOUS
 10
66.3
 20
49.948185
 30
0.0
 11
66.855268
 21
48.671069
 31
0.0
  0
ARC
  5
1AF86
  8
DANMEN
  6
CONTINUOUS
 10
64.4
 20
49.2
 30
0.0
 40
0.3
 50
180.0
 51
270.0
  0
LINE
  5
1AF87
  8
DANMEN
  6
CONTINUOUS
 10
64.4
 20
48.9
 30
0.0
 11
64.956524
 21
48.9
 31
0.0
  0
ARC
  5
1AF88
  8
DANMEN
  6
CONTINUOUS
 10
63.8
 20
51.8
 30
0.0
 40
1.0
 50
0.0
 51
90.0
  0
LINE
  5
1AF89
  8
DANMEN
  6
CONTINUOUS
 10
64.8
 20
50.553939
 30
0.0
 11
64.8
 21
51.8
 31
0.0
  0
LINE
  5
1AF8A
  8
DANMEN
  6
CONTINUOUS
 10
66.3
 20
49.948185
 30
0.0
 11
66.3
 21
52.850006
 31
0.0
  0
ARC
  5
1AF8B
  8
DANMEN
  6
CONTINUOUS
 10
64.3
 20
49.463068
 30
0.0
 40
0.2
 50
114.624318
 51
180.0
  0
ARC
  5
1AF8C
  8
DANMEN
  6
CONTINUOUS
 10
63.8
 20
50.553939
 30
0.0
 40
1.0
 50
294.624318
 51
0.0
  0
LINE
  5
1AF8D
  8
DANMEN
  6
CONTINUOUS
 10
64.1
 20
49.2
 30
0.0
 11
64.1
 21
49.463068
 31
0.0
  0
ARC
  5
1AF91
  8
DANMEN
  6
CONTINUOUS
 10
68.640809
 20
53.850006
 30
0.0
 40
1.0
 50
270.0
 51
294.443955
  0
LINE
  5
1AF93
  8
DANMEN
  6
CONTINUOUS
 10
69.468917
 20
49.807438
 30
0.0
 11
66.855268
 21
48.671069
 31
0.0
  0
LINE
  5
1AF94
  8
DANMEN
  6
CONTINUOUS
 10
70.126816
 20
49.548266
 30
0.0
 11
70.385987
 21
48.952171
 31
0.0
  0
ARC
  5
1AF95
  8
DANMEN
  6
CONTINUOUS
 10
69.66828
 20
49.348903
 30
0.0
 40
0.5
 50
23.49856
 51
113.49856
  0
LINE
  5
1AF98
  8
DANMEN
  6
CONTINUOUS
 10
56.149998
 20
74.499999
 30
0.0
 11
54.149998
 21
74.499998
 31
0.0
  0
LINE
  5
1AF99
  8
DANMEN
  6
CONTINUOUS
 10
68.849995
 20
75.500002
 30
0.0
 11
53.149998
 21
75.499998
 31
0.0
  0
LINE
  5
1AF9A
  8
DANMEN
  6
CONTINUOUS
 10
52.649997
 20
59.5
 30
0.0
 11
57.0
 21
59.5
 31
0.0
  0
LINE
  5
1AF9B
  8
DANMEN
  6
CONTINUOUS
 10
53.149998
 20
74.499998
 30
0.0
 11
53.149998
 21
60.0
 31
0.0
  0
LINE
  5
1AF9C
  8
DANMEN
  6
CONTINUOUS
 10
49.0
 20
59.5
 30
0.0
 11
51.699999
 21
59.5
 31
0.0
  0
ARC
  5
1AF9D
  8
DANMEN
  6
CONTINUOUS
 10
52.649998
 20
60.0
 30
0.0
 40
0.5
 50
270.000018
 51
359.999948
  0
ARC
  5
1AF9F
  8
DANMEN
  6
CONTINUOUS
 10
51.699998
 20
60.0
 30
0.0
 40
0.5
 50
180.000036
 51
270.000018
  0
LINE
  5
1AFA1
  8
DANMEN
  6
CONTINUOUS
 10
52.649997
 20
59.499997
 30
0.0
 11
51.699998
 21
59.499997
 31
0.0
  0
LINE
  5
1AFA2
  8
DANMEN
  6
CONTINUOUS
 10
53.649998
 20
74.999998
 30
0.0
 11
53.149998
 21
74.499998
 31
0.0
  0
LINE
  5
1AFA3
  8
DANMEN
  6
CONTINUOUS
 10
54.149998
 20
74.499998
 30
0.0
 11
53.649998
 21
74.999998
 31
0.0
  0
ARC
  5
1AFA8
  8
DANMEN
  6
CONTINUOUS
 10
61.0
 20
63.5
 30
0.0
 40
3.0
 50
53.130102
 51
126.869903
  0
ARC
  5
1AFA9
  8
DANMEN
  6
CONTINUOUS
 10
60.0
 20
65.79129
 30
0.0
 40
0.5
 50
113.578068
 51
179.999745
  0
ARC
  5
1AFAA
  8
DANMEN
  6
CONTINUOUS
 10
62.0
 20
65.79129
 30
0.0
 40
0.5
 50
0.000279
 51
66.42195
  0
ARC
  5
1AFAB
  8
DANMEN
  6
CONTINUOUS
 10
61.0
 20
65.5
 30
0.0
 40
4.0
 50
0.0
 51
180.000019
  0
LINE
  5
1AFAC
  8
DANMEN
  6
CONTINUOUS
 10
62.5
 20
54.5
 30
0.0
 11
68.5
 21
54.5
 31
0.0
  0
LINE
  5
1AFAD
  8
DANMEN
  6
CONTINUOUS
 10
62.5
 20
65.79129
 30
0.0
 11
62.5
 21
54.5
 31
0.0
  0
LINE
  5
1AFAE
  8
DANMEN
  6
CONTINUOUS
 10
60.850006
 20
62.347046
 30
0.0
 11
60.850006
 21
54.5
 31
0.0
  0
LINE
  5
1AFAF
  8
DANMEN
  6
CONTINUOUS
 10
57.0
 20
65.5
 30
0.0
 11
57.0
 21
59.5
 31
0.0
  0
LINE
  5
1AFB0
  8
DANMEN
  6
CONTINUOUS
 10
55.00999
 20
54.5
 30
0.0
 11
60.850006
 21
54.5
 31
0.0
  0
LINE
  5
1AFB4
  8
DANMEN
  6
CONTINUOUS
 10
56.799999
 20
63.5
 30
0.0
 11
59.0
 21
63.5
 31
0.0
  0
ARC
  5
1AFB5
  8
DANMEN
  6
CONTINUOUS
 10
59.5
 20
65.5
 30
0.0
 40
0.5
 50
126.869907
 51
180.000009
  0
LINE
  5
1AFB6
  8
DANMEN
  6
CONTINUOUS
 10
59.5
 20
65.79129
 30
0.0
 11
59.5
 21
64.652954
 31
0.0
  0
LINE
  5
1AFB9
  8
DANMEN
  6
CONTINUOUS
 10
60.764431
 20
62.626784
 30
0.0
 11
59.585579
 21
64.373223
 31
0.0
  0
ARC
  5
1AFBA
  8
DANMEN
  6
CONTINUOUS
 10
60.350006
 20
62.347046
 30
0.0
 40
0.5
 50
0.000664
 51
34.020021
  0
ARC
  5
1AFBB
  8
DANMEN
  6
CONTINUOUS
 10
60.0
 20
64.652954
 30
0.0
 40
0.5
 50
180.000309
 51
214.019733
  0
LINE
  5
1AFBC
  8
DANMEN
  6
CONTINUOUS
 10
65.0
 20
65.5
 30
0.0
 11
65.0
 21
59.5
 31
0.0
  0
LINE
  5
1AFBE
  8
DANMEN
  6
CONTINUOUS
 10
65.200001
 20
63.5
 30
0.0
 11
63.0
 21
63.5
 31
0.0
  0
ARC
  5
1AFBF
  8
DANMEN
  6
CONTINUOUS
 10
62.5
 20
65.5
 30
0.0
 40
0.5
 50
359.999997
 51
53.130102
  0
LINE
  5
1AFC0
  8
DANMEN
  6
CONTINUOUS
 10
65.850001
 20
73.550001
 30
0.0
 11
56.149998
 21
73.549999
 31
0.0
  0
ARC
  5
1AFC3
  8
DANMEN
  6
CONTINUOUS
 10
61.0
 20
63.5
 30
0.0
 40
3.0
 50
66.421841
 51
113.578178
  0
LINE
  5
1AFC6
  8
DANMEN
  6
CONTINUOUS
 10
56.600001
 20
77.000003
 30
0.0
 11
56.799998
 21
76.800005
 31
0.0
  0
LINE
  5
1AFC9
  8
DANMEN
  6
CONTINUOUS
 10
56.149998
 20
74.5
 30
0.0
 11
56.149998
 21
73.550003
 31
0.0
  0
LINE
  5
1AFCD
  8
DANMEN
  6
CONTINUOUS
 10
67.850001
 20
74.500002
 30
0.0
 11
65.850001
 21
74.500001
 31
0.0
  0
LINE
  5
1AFCE
  8
DANMEN
  6
CONTINUOUS
 10
65.399994
 20
77.000002
 30
0.0
 11
65.199998
 21
76.800006
 31
0.0
  0
LINE
  5
1AFD1
  8
DANMEN
  6
CONTINUOUS
 10
65.850001
 20
74.5
 30
0.0
 11
65.850001
 21
73.550003
 31
0.0
  0
LINE
  5
1AFD2
  8
DANMEN
  6
CONTINUOUS
 10
68.350001
 20
75.000002
 30
0.0
 11
68.850001
 21
74.500002
 31
0.0
  0
LINE
  5
1AFD3
  8
DANMEN
  6
CONTINUOUS
 10
68.350001
 20
75.000002
 30
0.0
 11
67.850001
 21
74.500002
 31
0.0
  0
LINE
  5
1AFDA
  8
DANMEN
  6
CONTINUOUS
 10
68.849995
 20
76.5
 30
0.0
 11
68.849995
 21
75.500002
 31
0.0
  0
LINE
  5
1AFDD
  8
DANMEN
  6
CONTINUOUS
 10
68.849998
 20
111.5
 30
0.0
 11
68.849998
 21
87.550003
 31
0.0
  0
ARC
  5
1AFDE
  8
DANMEN
  6
CONTINUOUS
 10
69.849998
 20
87.550003
 30
0.0
 40
1.0
 50
180.000019
 51
270.000001
  0
LINE
  5
1AFE0
  8
DANMEN
  6
CONTINUOUS
 10
56.600001
 20
95.000005
 30
0.0
 11
56.799998
 21
95.200002
 31
0.0
  0
LINE
  5
1AFE1
  8
DANMEN
  6
CONTINUOUS
 10
65.399994
 20
95.000006
 30
0.0
 11
65.199998
 21
95.200002
 31
0.0
  0
LINE
  5
1AFE2
  8
DANMEN
  6
CONTINUOUS
 10
53.149998
 20
112.699997
 30
0.0
 11
57.699998
 21
112.699997
 31
0.0
  0
LINE
  5
1AFE3
  8
DANMEN
  6
CONTINUOUS
 10
53.149998
 20
111.5
 30
0.0
 11
59.199999
 21
111.5
 31
0.0
  0
ARC
  5
1AFE6
  8
DANMEN
  6
CONTINUOUS
 10
60.833703
 20
112.55
 30
0.0
 40
0.75
 50
270.0
 51
90.0
  0
ARC
  5
1AFE7
  8
DANMEN
  6
CONTINUOUS
 10
66.799998
 20
112.199997
 30
0.0
 40
0.5
 50
89.999982
 51
180.000019
  0
ARC
  5
1AFE8
  8
DANMEN
  6
CONTINUOUS
 10
61.0
 20
108.500008
 30
0.0
 40
3.0
 50
233.130097
 51
306.869898
  0
ARC
  5
1AFE9
  8
DANMEN
  6
CONTINUOUS
 10
59.5
 20
106.500008
 30
0.0
 40
0.5
 50
179.999991
 51
233.130093
  0
LINE
  5
1AFEA
  8
DANMEN
  6
CONTINUOUS
 10
56.799999
 20
108.500008
 30
0.0
 11
59.0
 21
108.500008
 31
0.0
  0
LINE
  5
1AFEC
  8
DANMEN
  6
CONTINUOUS
 10
59.199999
 20
111.8
 30
0.0
 11
60.833703
 21
111.8
 31
0.0
  0
LINE
  5
1AFEE
  8
DANMEN
  6
CONTINUOUS
 10
59.199999
 20
111.800003
 30
0.0
 11
59.199999
 21
111.5
 31
0.0
  0
ARC
  5
1AFEF
  8
DANMEN
  6
CONTINUOUS
 10
62.5
 20
106.500008
 30
0.0
 40
0.5
 50
306.869898
 51
0.000003
  0
LINE
  5
1AFF0
  8
DANMEN
  6
CONTINUOUS
 10
66.299998
 20
111.5
 30
0.0
 11
68.849998
 21
111.5
 31
0.0
  0
LINE
  5
1AFF1
  8
DANMEN
  6
CONTINUOUS
 10
65.200001
 20
108.500008
 30
0.0
 11
63.0
 21
108.500008
 31
0.0
  0
LINE
  5
1AFF3
  8
DANMEN
  6
CONTINUOUS
 10
66.299998
 20
112.199997
 30
0.0
 11
66.299998
 21
111.5
 31
0.0
  0
ARC
  5
1AFF5
  8
DANMEN
  6
CONTINUOUS
 10
61.699998
 20
115.8
 30
0.0
 40
1.0
 50
0.0
 51
90.0
  0
LINE
  5
1AFF6
  8
DANMEN
  6
CONTINUOUS
 10
60.199998
 20
118.5
 30
0.0
 11
68.849998
 21
118.5
 31
0.0
  0
ARC
  5
1AFF7
  8
DANMEN
  6
CONTINUOUS
 10
60.199998
 20
116.0
 30
0.0
 40
2.5
 50
89.999982
 51
180.000019
  0
LINE
  5
1AFF9
  8
DANMEN
  6
CONTINUOUS
 10
57.699998
 20
116.0
 30
0.0
 11
57.699998
 21
112.699997
 31
0.0
  0
LINE
  5
1AFFB
  8
DANMEN
  6
CONTINUOUS
 10
60.199998
 20
116.8
 30
0.0
 11
61.699998
 21
116.8
 31
0.0
  0
LINE
  5
1AFFC
  8
DANMEN
  6
CONTINUOUS
 10
59.199998
 20
114.3
 30
0.0
 11
59.199998
 21
115.8
 31
0.0
  0
LINE
  5
1AFFD
  8
DANMEN
  6
CONTINUOUS
 10
60.199998
 20
113.3
 30
0.0
 11
60.833703
 21
113.3
 31
0.0
  0
ARC
  5
1AFFE
  8
DANMEN
  6
CONTINUOUS
 10
60.199998
 20
115.8
 30
0.0
 40
1.0
 50
90.0
 51
180.0
  0
ARC
  5
1AFFF
  8
DANMEN
  6
CONTINUOUS
 10
60.199998
 20
114.3
 30
0.0
 40
1.0
 50
180.0
 51
270.0
  0
LINE
  5
1B002
  8
DANMEN
  6
CONTINUOUS
 10
65.199997
 20
116.550003
 30
0.0
 11
68.849998
 21
116.550003
 31
0.0
  0
ARC
  5
1B004
  8
DANMEN
  6
CONTINUOUS
 10
65.199998
 20
115.550003
 30
0.0
 40
1.0
 50
90.0
 51
180.0
  0
LINE
  5
1B006
  8
DANMEN
  6
CONTINUOUS
 10
62.699998
 20
115.166295
 30
0.0
 11
62.699998
 21
115.8
 31
0.0
  0
LINE
  5
1B007
  8
DANMEN
  6
CONTINUOUS
 10
64.199998
 20
115.166295
 30
0.0
 11
64.199998
 21
115.550003
 31
0.0
  0
ARC
  5
1B008
  8
DANMEN
  6
CONTINUOUS
 10
63.449998
 20
115.166295
 30
0.0
 40
0.75
 50
180.0
 51
0.0
  0
LINE
  5
1B00C
  8
DANMEN
  6
CONTINUOUS
 10
66.799998
 20
112.699997
 30
0.0
 11
68.849998
 21
112.699997
 31
0.0
  0
LINE
  5
1B00D
  8
DANMEN
  6
CONTINUOUS
 10
68.849998
 20
116.550003
 30
0.0
 11
68.849998
 21
112.699997
 31
0.0
  0
LINE
  5
1B00F
  8
DANMEN
  6
CONTINUOUS
 10
75.2
 20
81.9
 30
0.0
 11
75.2
 21
74.8
 31
0.0
  0
LINE
  5
1B010
  8
DANMEN
  6
CONTINUOUS
 10
77.2
 20
79.2
 30
0.0
 11
77.2
 21
77.5
 31
0.0
  0
LINE
  5
1B011
  8
DANMEN
  6
CONTINUOUS
 10
73.0187
 20
77.80985
 30
0.0
 11
74.146178
 21
74.315559
 31
0.0
  0
LINE
  5
1B012
  8
DANMEN
  6
CONTINUOUS
 10
73.6
 20
77.982873
 30
0.0
 11
74.582434
 21
74.8
 31
0.0
  0
LINE
  5
1B013
  8
DANMEN
  6
CONTINUOUS
 10
93.5
 20
77.7
 30
0.0
 11
93.5
 21
65.503636
 31
0.0
  0
LINE
  5
1B014
  8
DANMEN
  6
CONTINUOUS
 10
78.500003
 20
81.5
 30
0.0
 11
78.500003
 21
75.3
 31
0.0
  0
LINE
  5
1B015
  8
DANMEN
  6
CONTINUOUS
 10
79.5
 20
80.7
 30
0.0
 11
79.5
 21
75.0
 31
0.0
  0
LINE
  5
1B016
  8
DANMEN
  6
CONTINUOUS
 10
100.2
 20
76.166295
 30
0.0
 11
100.2
 21
79.85
 31
0.0
  0
ARC
  5
1B017
  8
DANMEN
  6
CONTINUOUS
 10
96.2
 20
76.8
 30
0.0
 40
1.0
 50
90.0
 51
180.0
  0
ARC
  5
1B018
  8
DANMEN
  6
CONTINUOUS
 10
97.7
 20
76.8
 30
0.0
 40
1.0
 50
0.0
 51
90.0
  0
ARC
  5
1B019
  8
DANMEN
  6
CONTINUOUS
 10
82.0
 20
78.7
 30
0.0
 40
1.0
 50
180.0
 51
270.0
  0
LINE
  5
1B01A
  8
DANMEN
  6
CONTINUOUS
 10
93.5
 20
77.7
 30
0.0
 11
92.5
 21
77.0
 31
0.0
  0
LINE
  5
1B01B
  8
DANMEN
  6
CONTINUOUS
 10
86.5
 20
77.0
 30
0.0
 11
85.5
 21
77.7
 31
0.0
  0
LINE
  5
1B01C
  8
DANMEN
  6
CONTINUOUS
 10
112.0
 20
99.0
 30
0.0
 11
112.0
 21
65.0
 31
0.0
  0
LINE
  5
1B01D
  8
DANMEN
  6
CONTINUOUS
 10
110.350006
 20
79.85
 30
0.0
 11
110.350006
 21
67.58182
 31
0.0
  0
LINE
  5
1B01E
  8
DANMEN
  6
CONTINUOUS
 10
71.049998
 20
86.550003
 30
0.0
 11
71.049998
 21
76.5
 31
0.0
  0
LINE
  5
1B01F
  8
DANMEN
  6
CONTINUOUS
 10
72.999998
 20
88.0
 30
0.0
 11
72.999998
 21
75.0
 31
0.0
  0
LINE
  5
1B020
  8
DANMEN
  6
CONTINUOUS
 10
86.5
 20
77.0
 30
0.0
 11
92.5
 21
77.0
 31
0.0
  0
LINE
  5
1B021
  8
DANMEN
  6
CONTINUOUS
 10
73.0
 20
75.000007
 30
0.0
 11
73.0
 21
59.5
 31
0.0
  0
LINE
  5
1B022
  8
DANMEN
  6
CONTINUOUS
 10
76.5
 20
74.5
 30
0.0
 11
79.000003
 21
74.5
 31
0.0
  0
LINE
  5
1B023
  8
DANMEN
  6
CONTINUOUS
 10
74.327478
 20
74.2
 30
0.0
 11
76.0
 21
74.2
 31
0.0
  0
LINE
  5
1B024
  8
DANMEN
  6
CONTINUOUS
 10
74.582434
 20
74.8
 30
0.0
 11
75.2
 21
74.8
 31
0.0
  0
ARC
  5
1B025
  8
DANMEN
  6
CONTINUOUS
 10
74.327478
 20
74.4
 30
0.0
 40
0.2
 50
204.97391
 51
270.0
  0
ARC
  5
1B02A
  8
DANMEN
  6
CONTINUOUS
 10
72.499998
 20
75.0
 30
0.0
 40
0.5
 50
270.0
 51
0.0
  0
LINE
  5
1B02B
  8
DANMEN
  6
CONTINUOUS
 10
77.2
 20
75.5
 30
0.0
 11
77.8
 21
75.5
 31
0.0
  0
LINE
  5
1B02C
  8
DANMEN
  6
CONTINUOUS
 10
76.0
 20
76.7
 30
0.0
 11
76.0
 21
74.2
 31
0.0
  0
ARC
  5
1B02E
  8
DANMEN
  6
CONTINUOUS
 10
77.8
 20
75.7
 30
0.0
 40
0.2
 50
270.000018
 51
0.0
  0
ARC
  5
1B030
  8
DANMEN
  6
CONTINUOUS
 10
77.2
 20
75.7
 30
0.0
 40
0.2
 50
180.000019
 51
270.000001
  0
LINE
  5
1B031
  8
DANMEN
  6
CONTINUOUS
 10
78.0
 20
76.7
 30
0.0
 11
78.0
 21
75.7
 31
0.0
  0
LINE
  5
1B033
  8
DANMEN
  6
CONTINUOUS
 10
77.2
 20
77.5
 30
0.0
 11
78.0
 21
76.7
 31
0.0
  0
LINE
  5
1B034
  8
DANMEN
  6
CONTINUOUS
 10
77.0
 20
76.7
 30
0.0
 11
77.0
 21
75.7
 31
0.0
  0
LINE
  5
1B035
  8
DANMEN
  6
CONTINUOUS
 10
76.0
 20
76.7
 30
0.0
 11
77.0
 21
76.7
 31
0.0
  0
LINE
  5
1B03B
  8
DANMEN
  6
CONTINUOUS
 10
76.0
 20
76.199997
 30
0.0
 11
76.0
 21
75.0
 31
0.0
  0
LINE
  5
1B03C
  8
DANMEN
  6
CONTINUOUS
 10
76.800003
 20
76.699997
 30
0.0
 11
76.800003
 21
75.3
 31
0.0
  0
ARC
  5
1B03D
  8
DANMEN
  6
CONTINUOUS
 10
76.5
 20
75.0
 30
0.0
 40
0.5
 50
180.000019
 51
270.000001
  0
ARC
  5
1B03E
  8
DANMEN
  6
CONTINUOUS
 10
76.5
 20
76.199997
 30
0.0
 40
0.5
 50
89.999982
 51
180.000019
  0
LINE
  5
1B03F
  8
DANMEN
  6
CONTINUOUS
 10
76.5
 20
76.699997
 30
0.0
 11
76.800003
 21
76.699997
 31
0.0
  0
LINE
  5
1B040
  8
DANMEN
  6
CONTINUOUS
 10
76.800003
 20
75.3
 30
0.0
 11
78.5
 21
75.3
 31
0.0
  0
ARC
  5
1B046
  8
DANMEN
  6
CONTINUOUS
 10
79.0
 20
75.0
 30
0.0
 40
0.5
 50
270.000018
 51
0.0
  0
LINE
  5
1B049
  8
DANMEN
  6
CONTINUOUS
 10
95.15
 20
71.8
 30
0.0
 11
95.15
 21
65.085093
 31
0.0
  0
ARC
  5
1B04B
  8
DANMEN
  6
CONTINUOUS
 10
94.15
 20
65.085093
 30
0.0
 40
1.0
 50
294.443955
 51
0.0
  0
ARC
  5
1B04D
  8
DANMEN
  6
CONTINUOUS
 10
96.2
 20
75.3
 30
0.0
 40
1.0
 50
180.0
 51
270.0
  0
ARC
  5
1B04E
  8
DANMEN
  6
CONTINUOUS
 10
96.15
 20
71.8
 30
0.0
 40
1.0
 50
90.0
 51
180.0
  0
LINE
  5
1B04F
  8
DANMEN
  6
CONTINUOUS
 10
95.2
 20
75.3
 30
0.0
 11
95.2
 21
76.8
 31
0.0
  0
ARC
  5
1B052
  8
DANMEN
  6
CONTINUOUS
 10
99.45
 20
76.166295
 30
0.0
 40
0.75
 50
180.0
 51
0.0
  0
LINE
  5
1B053
  8
DANMEN
  6
CONTINUOUS
 10
98.7
 20
76.166295
 30
0.0
 11
98.7
 21
76.8
 31
0.0
  0
LINE
  5
1B054
  8
DANMEN
  6
CONTINUOUS
 10
96.2
 20
74.3
 30
0.0
 11
96.833705
 21
74.3
 31
0.0
  0
LINE
  5
1B055
  8
DANMEN
  6
CONTINUOUS
 10
96.15
 20
72.8
 30
0.0
 11
96.833705
 21
72.8
 31
0.0
  0
ARC
  5
1B056
  8
DANMEN
  6
CONTINUOUS
 10
96.833705
 20
73.55
 30
0.0
 40
0.75
 50
270.0
 51
90.0
  0
LINE
  5
1B058
  8
DANMEN
  6
CONTINUOUS
 10
112.0
 20
64.845612
 30
0.0
 11
112.0
 21
39.5
 31
0.0
  0
ARC
  5
1B059
  8
DANMEN
  6
CONTINUOUS
 10
107.41465
 20
65.760364
 30
0.0
 40
0.5
 50
113.49856
 51
203.49856
  0
ARC
  5
1B05A
  8
DANMEN
  6
CONTINUOUS
 10
111.5
 20
65.0
 30
0.0
 40
0.5
 50
270.0
 51
0.0
  0
ARC
  5
1B05B
  8
DANMEN
  6
CONTINUOUS
 10
107.673822
 20
65.164268
 30
0.0
 40
0.5
 50
203.49856
 51
293.49856
  0
LINE
  5
1B05C
  8
DANMEN
  6
CONTINUOUS
 10
107.215287
 20
64.964905
 30
0.0
 11
106.956115
 21
65.561001
 31
0.0
  0
LINE
  5
1B05E
  8
DANMEN
  6
CONTINUOUS
 10
110.9
 20
64.5
 30
0.0
 11
111.5
 21
64.5
 31
0.0
  0
LINE
  5
1B05F
  8
DANMEN
  6
CONTINUOUS
 10
110.9
 20
65.259133
 30
0.0
 11
110.9
 21
64.5
 31
0.0
  0
LINE
  5
1B061
  8
DANMEN
  6
CONTINUOUS
 10
110.200637
 20
65.717668
 30
0.0
 11
107.873185
 21
64.705733
 31
0.0
  0
ARC
  5
1B062
  8
DANMEN
  6
CONTINUOUS
 10
110.4
 20
65.259133
 30
0.0
 40
0.5
 50
0.0
 51
113.49856
  0
LINE
  5
1B064
  8
DANMEN
  6
CONTINUOUS
 10
110.350006
 20
67.58182
 30
0.0
 11
107.215287
 21
66.218899
 31
0.0
  0
LINE
  5
1B06B
  8
DANMEN
  6
CONTINUOUS
 10
99.05
 20
81.5
 30
0.0
 11
110.35
 21
81.5
 31
0.0
  0
LINE
  5
1B06C
  8
DANMEN
  6
CONTINUOUS
 10
100.2
 20
79.85
 30
0.0
 11
110.350006
 21
79.85
 31
0.0
  0
LINE
  5
1B06D
  8
DANMEN
  6
CONTINUOUS
 10
99.0
 20
92.7
 30
0.0
 11
110.35
 21
92.7
 31
0.0
  0
LINE
  5
1B06E
  8
DANMEN
  6
CONTINUOUS
 10
101.0
 20
94.5
 30
0.0
 11
110.35
 21
94.5
 31
0.0
  0
ARC
  5
1B06F
  8
DANMEN
  6
DASHED
 10
101.0
 20
100.199997
 30
0.0
 40
0.5
 50
0.0
 51
89.999982
  0
ARC
  5
1B070
  8
DANMEN
  6
DASHED
 10
76.5
 20
100.199997
 30
0.0
 40
0.5
 50
90.0
 51
180.0
  0
ARC
  5
1B071
  8
DANMEN
  6
CONTINUOUS
 10
84.500015
 20
100.499908
 30
0.0
 40
1.5
 50
90.000018
 51
180.0
  0
ARC
  5
1B072
  8
DANMEN
  6
CONTINUOUS
 10
97.500015
 20
100.499908
 30
0.0
 40
1.5
 50
359.999964
 51
90.000001
  0
LINE
  5
1B073
  8
DANMEN
  6
DASHED
 10
97.0
 20
99.5
 30
0.0
 11
85.0
 21
99.5
 31
0.0
  0
LINE
  5
1B074
  8
DANMEN
  6
DASHED
 10
101.0
 20
100.699997
 30
0.0
 11
76.5
 21
100.699997
 31
0.0
  0
LINE
  5
1B075
  8
DANMEN
  6
CONTINUOUS
 10
82.8
 20
79.5
 30
0.0
 11
98.55
 21
79.5
 31
0.0
  0
LINE
  5
1B076
  8
DANMEN
  6
CONTINUOUS
 10
86.0
 20
92.5
 30
0.0
 11
96.0
 21
92.5
 31
0.0
  0
LINE
  5
1B077
  8
DANMEN
  6
CONTINUOUS
 10
96.0
 20
92.5
 30
0.0
 11
86.0
 21
79.5
 31
0.0
  0
LINE
  5
1B078
  8
DANMEN
  6
CONTINUOUS
 10
81.0
 20
99.0
 30
0.0
 11
81.0
 21
82.5
 31
0.0
  0
LINE
  5
1B079
  8
DANMEN
  6
CONTINUOUS
 10
82.8
 20
96.5
 30
0.0
 11
82.8
 21
79.5
 31
0.0
  0
LINE
  5
1B07A
  8
DANMEN
  6
CONTINUOUS
 10
81.0
 20
99.5
 30
0.0
 11
81.0
 21
82.5
 31
0.0
  0
LINE
  5
1B07B
  8
DANMEN
  6
CONTINUOUS
 10
81.0
 20
99.5
 30
0.0
 11
73.0
 21
82.5
 31
0.0
  0
LINE
  5
1B07C
  8
DANMEN
  6
CONTINUOUS
 10
73.0
 20
99.5
 30
0.0
 11
81.0
 21
82.5
 31
0.0
  0
LINE
  5
1B07D
  8
DANMEN
  6
CONTINUOUS
 10
86.0
 20
79.5
 30
0.0
 11
86.0
 21
92.5
 31
0.0
  0
LINE
  5
1B07E
  8
DANMEN
  6
CONTINUOUS
 10
76.5
 20
82.5
 30
0.0
 11
81.0
 21
82.5
 31
0.0
  0
LINE
  5
1B07F
  8
DANMEN
  6
CONTINUOUS
 10
73.0
 20
82.5
 30
0.0
 11
81.0
 21
82.5
 31
0.0
  0
LINE
  5
1B080
  8
DANMEN
  6
CONTINUOUS
 10
74.327478
 20
82.5
 30
0.0
 11
76.0
 21
82.5
 31
0.0
  0
LINE
  5
1B081
  8
DANMEN
  6
CONTINUOUS
 10
74.582434
 20
81.9
 30
0.0
 11
75.2
 21
81.9
 31
0.0
  0
LINE
  5
1B083
  8
DANMEN
  6
CONTINUOUS
 10
73.0
 20
78.805709
 30
0.0
 11
73.0
 21
77.894291
 31
0.0
  0
LINE
  5
1B084
  8
DANMEN
  6
CONTINUOUS
 10
74.146178
 20
82.384441
 30
0.0
 11
73.0187
 21
78.89015
 31
0.0
  0
ARC
  5
1B085
  8
DANMEN
  6
CONTINUOUS
 10
74.327478
 20
82.3
 30
0.0
 40
0.2
 50
90.0
 51
155.02609
  0
ARC
  5
1B087
  8
DANMEN
  6
CONTINUOUS
 10
73.2
 20
78.805709
 30
0.0
 40
0.2
 50
155.02609
 51
180.0
  0
ARC
  5
1B089
  8
DANMEN
  6
CONTINUOUS
 10
73.2
 20
77.894291
 30
0.0
 40
0.2
 50
180.0
 51
204.97391
  0
LINE
  5
1B08B
  8
DANMEN
  6
CONTINUOUS
 10
74.582434
 20
81.9
 30
0.0
 11
73.6
 21
78.717126
 31
0.0
  0
LINE
  5
1B08C
  8
DANMEN
  6
CONTINUOUS
 10
73.6
 20
78.717126
 30
0.0
 11
73.6
 21
77.982873
 31
0.0
  0
LINE
  5
1B091
  8
DANMEN
  6
CONTINUOUS
 10
78.0
 20
81.0
 30
0.0
 11
78.0
 21
80.0
 31
0.0
  0
LINE
  5
1B092
  8
DANMEN
  6
CONTINUOUS
 10
77.2
 20
81.2
 30
0.0
 11
77.8
 21
81.2
 31
0.0
  0
LINE
  5
1B093
  8
DANMEN
  6
CONTINUOUS
 10
77.0
 20
81.0
 30
0.0
 11
77.0
 21
80.0
 31
0.0
  0
ARC
  5
1B095
  8
DANMEN
  6
CONTINUOUS
 10
77.8
 20
81.0
 30
0.0
 40
0.2
 50
0.0
 51
89.999982
  0
ARC
  5
1B097
  8
DANMEN
  6
CONTINUOUS
 10
77.2
 20
81.0
 30
0.0
 40
0.2
 50
89.999982
 51
180.000019
  0
LINE
  5
1B09A
  8
DANMEN
  6
CONTINUOUS
 10
78.0
 20
80.0
 30
0.0
 11
77.2
 21
79.2
 31
0.0
  0
LINE
  5
1B09B
  8
DANMEN
  6
CONTINUOUS
 10
76.0
 20
80.0
 30
0.0
 11
77.0
 21
80.0
 31
0.0
  0
LINE
  5
1B09D
  8
DANMEN
  6
CONTINUOUS
 10
76.0
 20
82.5
 30
0.0
 11
76.0
 21
80.0
 31
0.0
  0
LINE
  5
1B0A5
  8
DANMEN
  6
CONTINUOUS
 10
76.0
 20
82.0
 30
0.0
 11
76.0
 21
80.800003
 31
0.0
  0
LINE
  5
1B0A6
  8
DANMEN
  6
CONTINUOUS
 10
76.5
 20
80.300003
 30
0.0
 11
76.800003
 21
80.300003
 31
0.0
  0
LINE
  5
1B0A7
  8
DANMEN
  6
CONTINUOUS
 10
76.800003
 20
81.5
 30
0.0
 11
76.800003
 21
80.300003
 31
0.0
  0
ARC
  5
1B0A8
  8
DANMEN
  6
CONTINUOUS
 10
76.5
 20
80.800003
 30
0.0
 40
0.5
 50
180.000019
 51
270.000001
  0
LINE
  5
1B0A9
  8
DANMEN
  6
CONTINUOUS
 10
76.800003
 20
81.5
 30
0.0
 11
78.5
 21
81.5
 31
0.0
  0
ARC
  5
1B0AA
  8
DANMEN
  6
CONTINUOUS
 10
76.5
 20
82.0
 30
0.0
 40
0.5
 50
89.999982
 51
180.000019
  0
ARC
  5
1B0B0
  8
DANMEN
  6
CONTINUOUS
 10
72.499998
 20
88.0
 30
0.0
 40
0.5
 50
0.0
 51
89.999982
  0
LINE
  5
1B0B4
  8
DANMEN
  6
CONTINUOUS
 10
70.799998
 20
88.5
 30
0.0
 11
72.499998
 21
88.5
 31
0.0
  0
LINE
  5
1B0B6
  8
DANMEN
  6
CONTINUOUS
 10
82.0
 20
77.7
 30
0.0
 11
85.5
 21
77.7
 31
0.0
  0
LINE
  5
1B0B7
  8
DANMEN
  6
CONTINUOUS
 10
81.0
 20
78.7
 30
0.0
 11
81.0
 21
80.7
 31
0.0
  0
LINE
  5
1B0BA
  8
DANMEN
  6
CONTINUOUS
 10
79.5
 20
80.7
 30
0.0
 11
81.0
 21
80.7
 31
0.0
  0
LINE
  5
1B0C1
  8
DANMEN
  6
DASHED
 10
83.5
 20
99.5
 30
0.0
 11
77.714146
 21
99.5
 31
0.0
  0
LINE
  5
1B0C2
  8
DANMEN
  6
CONTINUOUS
 10
73.0
 20
99.5
 30
0.0
 11
81.0
 21
99.5
 31
0.0
  0
ARC
  5
1B0C3
  8
DANMEN
  6
DASHED
 10
77.714146
 20
98.5
 30
0.0
 40
1.0
 50
89.999982
 51
135.573244
  0
LINE
  5
1B0C4
  8
DANMEN
  6
DASHED
 10
77.0
 20
99.199997
 30
0.0
 11
76.5
 21
99.199997
 31
0.0
  0
LINE
  5
1B0C5
  8
DANMEN
  6
DASHED
 10
76.0
 20
100.199997
 30
0.0
 11
76.0
 21
99.699997
 31
0.0
  0
ARC
  5
1B0C6
  8
DANMEN
  6
DASHED
 10
76.5
 20
99.699997
 30
0.0
 40
0.5
 50
180.0
 51
270.0
  0
LINE
  5
1B0CB
  8
DANMEN
  6
DASHED
 10
83.023824
 20
95.882864
 30
0.0
 11
84.423825
 21
92.582833
 31
0.0
  0
LINE
  5
1B0CC
  8
DANMEN
  6
DASHED
 10
84.5
 20
94.899997
 30
0.0
 11
84.5
 21
99.0
 31
0.0
  0
LINE
  5
1B0CD
  8
DANMEN
  6
DASHED
 10
84.5
 20
94.899997
 30
0.0
 11
84.992312
 21
92.76748
 31
0.0
  0
ARC
  5
1B0CE
  8
DANMEN
  6
DASHED
 10
84.7
 20
92.699997
 30
0.0
 40
0.3
 50
202.988532
 51
12.999521
  0
ARC
  5
1B0D2
  8
DANMEN
  6
DASHED
 10
83.299999
 20
96.000028
 30
0.0
 40
0.3
 50
124.343976
 51
202.988532
  0
ARC
  5
1B0D3
  8
DANMEN
  6
CONTINUOUS
 10
83.0
 20
99.0
 30
0.0
 40
0.5
 50
0.0
 51
90.0
  0
LINE
  5
1B0D4
  8
DANMEN
  6
CONTINUOUS
 10
82.8
 20
96.5
 30
0.0
 11
83.5
 21
96.5
 31
0.0
  0
LINE
  5
1B0D6
  8
DANMEN
  6
CONTINUOUS
 10
81.5
 20
99.5
 30
0.0
 11
83.0
 21
99.5
 31
0.0
  0
ARC
  5
1B0D7
  8
DANMEN
  6
CONTINUOUS
 10
81.5
 20
99.0
 30
0.0
 40
0.5
 50
90.0
 51
180.0
  0
ARC
  5
1B0DB
  8
DANMEN
  6
DASHED
 10
85.0
 20
99.0
 30
0.0
 40
0.5
 50
90.0
 51
180.0
  0
LINE
  5
1B0DC
  8
DANMEN
  6
DASHED
 10
83.5
 20
99.5
 30
0.0
 11
83.5
 21
96.500035
 31
0.0
  0
LINE
  5
1B0DD
  8
DANMEN
  6
DASHED
 10
83.5
 20
96.500035
 30
0.0
 11
83.130743
 21
96.247729
 31
0.0
  0
LINE
  5
1B0E1
  8
DANMEN
  6
CONTINUOUS
 10
83.5
 20
99.0
 30
0.0
 11
83.5
 21
96.5
 31
0.0
  0
ARC
  5
1B0E4
  8
DANMEN
  6
DASHED
 10
97.3
 20
89.199997
 30
0.0
 40
0.3
 50
167.000479
 51
337.011468
  0
LINE
  5
1B0E5
  8
DANMEN
  6
DASHED
 10
98.976176
 20
92.382864
 30
0.0
 11
97.576175
 21
89.082833
 31
0.0
  0
LINE
  5
1B0E6
  8
DANMEN
  6
CONTINUOUS
 10
96.0
 20
79.5
 30
0.0
 11
96.0
 21
92.5
 31
0.0
  0
LINE
  5
1B0E9
  8
DANMEN
  6
CONTINUOUS
 10
96.2
 20
77.8
 30
0.0
 11
97.7
 21
77.8
 31
0.0
  0
LINE
  5
1B0EA
  8
DANMEN
  6
CONTINUOUS
 10
98.55
 20
79.5
 30
0.0
 11
98.55
 21
81.0
 31
0.0
  0
ARC
  5
1B0EB
  8
DANMEN
  6
CONTINUOUS
 10
99.05
 20
81.0
 30
0.0
 40
0.5
 50
90.0
 51
180.0
  0
LINE
  5
1B0F2
  8
DANMEN
  6
DASHED
 10
98.5
 20
99.5
 30
0.0
 11
98.5
 21
93.000035
 31
0.0
  0
LINE
  5
1B0F3
  8
DANMEN
  6
DASHED
 10
97.5
 20
91.399997
 30
0.0
 11
97.5
 21
99.0
 31
0.0
  0
LINE
  5
1B0F4
  8
DANMEN
  6
CONTINUOUS
 10
101.0
 20
98.5
 30
0.0
 11
101.0
 21
94.5
 31
0.0
  0
LINE
  5
1B0F5
  8
DANMEN
  6
CONTINUOUS
 10
99.35
 20
93.7
 30
0.0
 11
99.35
 21
96.5
 31
0.0
  0
ARC
  5
1B0F7
  8
DANMEN
  6
DASHED
 10
98.700001
 20
92.500028
 30
0.0
 40
0.3
 50
337.011468
 51
55.656024
  0
LINE
  5
1B0F8
  8
DANMEN
  6
DASHED
 10
98.5
 20
93.000035
 30
0.0
 11
98.869257
 21
92.747729
 31
0.0
  0
LINE
  5
1B0F9
  8
DANMEN
  6
DASHED
 10
97.5
 20
91.399997
 30
0.0
 11
97.007688
 21
89.26748
 31
0.0
  0
LINE
  5
1B0FD
  8
DANMEN
  6
CONTINUOUS
 10
99.0
 20
93.7
 30
0.0
 11
99.35
 21
93.7
 31
0.0
  0
ARC
  5
1B0FE
  8
DANMEN
  6
CONTINUOUS
 10
99.0
 20
93.2
 30
0.0
 40
0.5
 50
90.0
 51
270.0
  0
LINE
  5
1B103
  8
DANMEN
  6
DASHED
 10
98.5
 20
99.5
 30
0.0
 11
101.5
 21
99.5
 31
0.0
  0
LINE
  5
1B104
  8
DANMEN
  6
CONTINUOUS
 10
99.0
 20
99.5
 30
0.0
 11
102.0
 21
99.5
 31
0.0
  0
ARC
  5
1B105
  8
DANMEN
  6
DASHED
 10
97.0
 20
99.0
 30
0.0
 40
0.5
 50
0.0
 51
90.0
  0
LINE
  5
1B108
  8
DANMEN
  6
CONTINUOUS
 10
99.35
 20
96.5
 30
0.0
 11
98.5
 21
96.5
 31
0.0
  0
LINE
  5
1B109
  8
DANMEN
  6
CONTINUOUS
 10
98.5
 20
99.0
 30
0.0
 11
98.5
 21
96.5
 31
0.0
  0
ARC
  5
1B10A
  8
DANMEN
  6
CONTINUOUS
 10
99.0
 20
99.0
 30
0.0
 40
0.5
 50
89.999981
 51
180.000037
  0
LINE
  5
1B10E
  8
DANMEN
  6
DASHED
 10
101.5
 20
99.5
 30
0.0
 11
101.5
 21
100.199997
 31
0.0
  0
LINE
  5
1B111
  8
DANMEN
  6
CONTINUOUS
 10
102.0
 20
99.5
 30
0.0
 11
102.0
 21
99.0
 31
0.0
  0
LINE
  5
1B113
  8
DANMEN
  6
CONTINUOUS
 10
101.0
 20
98.5
 30
0.0
 11
101.5
 21
98.5
 31
0.0
  0
ARC
  5
1B115
  8
DANMEN
  6
CONTINUOUS
 10
101.5
 20
99.0
 30
0.0
 40
0.5
 50
270.0
 51
0.0
  0
ARC
  5
1B117
  8
DANMEN
  6
CONTINUOUS
 10
87.000006
 20
103.499908
 30
0.0
 40
1.5
 50
269.999982
 51
359.999964
  0
LINE
  5
1B118
  8
DANMEN
  6
CONTINUOUS
 10
87.000006
 20
101.999908
 30
0.0
 11
84.500015
 21
101.999908
 31
0.0
  0
LINE
  5
1B119
  8
DANMEN
  6
CONTINUOUS
 10
97.500015
 20
101.999908
 30
0.0
 11
95.000009
 21
101.999908
 31
0.0
  0
ARC
  5
1B11A
  8
DANMEN
  6
CONTINUOUS
 10
95.000009
 20
103.499908
 30
0.0
 40
1.5
 50
180.0
 51
269.999982
  0
LINE
  5
1B11B
  8
DANMEN
  6
CONTINUOUS
 10
110.35
 20
92.7
 30
0.0
 11
110.35
 21
81.5
 31
0.0
  0
ARC
  5
1B11E
  8
DANMEN
  6
CONTINUOUS
 10
111.5
 20
99.0
 30
0.0
 40
0.5
 50
0.0
 51
90.0
  0
LINE
  5
1B11F
  8
DANMEN
  6
CONTINUOUS
 10
110.35
 20
99.0
 30
0.0
 11
110.35
 21
94.5
 31
0.0
  0
ARC
  5
1B120
  8
DANMEN
  6
CONTINUOUS
 10
108.504277
 20
95.536483
 30
0.0
 40
0.5
 50
274.0
 51
359.16958
  0
LINE
  5
1B123
  8
DANMEN
  6
CONTINUOUS
 10
110.85
 20
99.5
 30
0.0
 11
111.5
 21
99.5
 31
0.0
  0
ARC
  5
1B124
  8
DANMEN
  6
CONTINUOUS
 10
110.85
 20
99.0
 30
0.0
 40
0.5
 50
90.0
 51
180.0
  0
LINE
  5
1B128
  8
DANMEN
  6
CONTINUOUS
 10
108.0
 20
95.0
 30
0.0
 11
108.539155
 21
95.037701
 31
0.0
  0
LINE
  5
1B12D
  8
DANMEN
  6
CONTINUOUS
 10
183.000003
 20
119.0
 30
0.0
 11
183.000003
 21
87.6
 31
0.0
  0
LINE
  5
1B12E
  8
DANMEN
  6
CONTINUOUS
 10
173.500003
 20
86.5
 30
0.0
 11
197.500003
 21
86.5
 31
0.0
  0
LINE
  5
1B12F
  8
DANMEN
  6
CONTINUOUS
 10
185.000003
 20
88.149994
 30
0.0
 11
197.500003
 21
88.149994
 31
0.0
  0
LINE
  5
1B130
  8
DANMEN
  6
CONTINUOUS
 10
173.000003
 20
92.0
 30
0.0
 11
173.000003
 21
87.0
 31
0.0
  0
LINE
  5
1B131
  8
DANMEN
  6
CONTINUOUS
 10
174.649997
 20
92.0
 30
0.0
 11
174.649997
 21
88.149994
 31
0.0
  0
LINE
  5
1B132
  8
DANMEN
  6
CONTINUOUS
 10
174.649997
 20
88.149994
 30
0.0
 11
181.350009
 21
88.149994
 31
0.0
  0
ARC
  5
1B133
  8
DANMEN
  6
CONTINUOUS
 10
173.500003
 20
87.0
 30
0.0
 40
0.5
 50
180.000036
 51
269.999963
  0
LINE
  5
1B139
  8
DANMEN
  6
CONTINUOUS
 10
183.000003
 20
87.6
 30
0.0
 11
185.000003
 21
87.6
 31
0.0
  0
LINE
  5
1B13A
  8
DANMEN
  6
CONTINUOUS
 10
185.000003
 20
88.149994
 30
0.0
 11
185.000003
 21
87.6
 31
0.0
  0
ARC
  5
1B13C
  8
DANMEN
  6
CONTINUOUS
 10
173.500003
 20
92.0
 30
0.0
 40
0.5
 50
89.999982
 51
180.000019
  0
LINE
  5
1B13E
  8
DANMEN
  6
CONTINUOUS
 10
173.500003
 20
92.5
 30
0.0
 11
174.149997
 21
92.5
 31
0.0
  0
ARC
  5
1B13F
  8
DANMEN
  6
CONTINUOUS
 10
174.149997
 20
92.0
 30
0.0
 40
0.5
 50
359.999981
 51
89.999982
  0
ARC
  5
1B141
  8
DANMEN
  6
CONTINUOUS
 10
197.500003
 20
87.649994
 30
0.0
 40
0.5
 50
359.999981
 51
89.999982
  0
ARC
  5
1B142
  8
DANMEN
  6
CONTINUOUS
 10
197.500003
 20
87.0
 30
0.0
 40
0.5
 50
270.000018
 51
359.999981
  0
LINE
  5
1B143
  8
DANMEN
  6
CONTINUOUS
 10
198.000003
 20
87.649994
 30
0.0
 11
198.000003
 21
87.0
 31
0.0
  0
LINE
  5
1B146
  8
DANMEN
  6
CONTINUOUS
 10
183.000003
 20
120.1
 30
0.0
 11
188.000003
 21
120.1
 31
0.0
  0
LINE
  5
1B147
  8
DANMEN
  6
CONTINUOUS
 10
183.000003
 20
119.0
 30
0.0
 11
195.500003
 21
119.0
 31
0.0
  0
LINE
  5
1B148
  8
DANMEN
  6
CONTINUOUS
 10
183.000003
 20
122.5
 30
0.0
 11
188.500003
 21
122.5
 31
0.0
  0
LINE
  5
1B14B
  8
DANMEN
  6
CONTINUOUS
 10
188.800003
 20
120.1
 30
0.0
 11
195.000001
 21
120.1
 31
0.0
  0
ARC
  5
1B14C
  8
DANMEN
  6
CONTINUOUS
 10
194.300006
 20
122.0
 30
0.0
 40
0.5
 50
90.0
 51
179.999149
  0
LINE
  5
1B14D
  8
DANMEN
  6
CONTINUOUS
 10
193.650008
 20
120.5
 30
0.0
 11
194.650009
 21
120.5
 31
0.0
  0
LINE
  5
1B14E
  8
DANMEN
  6
CONTINUOUS
 10
193.650008
 20
121.5
 30
0.0
 11
194.650009
 21
121.5
 31
0.0
  0
LINE
  5
1B14F
  8
DANMEN
  6
CONTINUOUS
 10
193.650008
 20
122.5
 30
0.0
 11
196.000008
 21
122.5
 31
0.0
  0
LINE
  5
1B150
  8
DANMEN
  6
CONTINUOUS
 10
187.800008
 20
123.3
 30
0.0
 11
195.200008
 21
123.3
 31
0.0
  0
LINE
  5
1B151
  8
DANMEN
  6
CONTINUOUS
 10
188.500003
 20
122.5
 30
0.0
 11
189.7
 21
122.5
 31
0.0
  0
LINE
  5
1B152
  8
DANMEN
  6
CONTINUOUS
 10
188.800003
 20
121.699997
 30
0.0
 11
190.2
 21
121.699997
 31
0.0
  0
LINE
  5
1B153
  8
DANMEN
  6
CONTINUOUS
 10
189.350007
 20
121.5
 30
0.0
 11
190.350008
 21
121.5
 31
0.0
  0
LINE
  5
1B154
  8
DANMEN
  6
CONTINUOUS
 10
189.350007
 20
120.5
 30
0.0
 11
190.350008
 21
120.5
 31
0.0
  0
LINE
  5
1B155
  8
DANMEN
  6
CONTINUOUS
 10
187.2705
 20
122.5
 30
0.0
 11
190.350008
 21
122.5
 31
0.0
  0
LINE
  5
1B158
  8
DANMEN
  6
CONTINUOUS
 10
188.800003
 20
121.699997
 30
0.0
 11
188.800003
 21
120.1
 31
0.0
  0
LINE
  5
1B15A
  8
DANMEN
  6
CONTINUOUS
 10
188.000003
 20
122.0
 30
0.0
 11
188.000003
 21
120.1
 31
0.0
  0
ARC
  5
1B15B
  8
DANMEN
  6
CONTINUOUS
 10
188.500003
 20
122.0
 30
0.0
 40
0.5
 50
90.000037
 51
180.000019
  0
LINE
  5
1B15F
  8
DANMEN
  6
CONTINUOUS
 10
189.150008
 20
121.3
 30
0.0
 11
189.150008
 21
120.7
 31
0.0
  0
ARC
  5
1B161
  8
DANMEN
  6
CONTINUOUS
 10
189.350007
 20
120.7
 30
0.0
 40
0.2
 50
180.000019
 51
270.000001
  0
ARC
  5
1B163
  8
DANMEN
  6
CONTINUOUS
 10
189.350007
 20
121.3
 30
0.0
 40
0.2
 50
89.999982
 51
180.000019
  0
LINE
  5
1B165
  8
DANMEN
  6
CONTINUOUS
 10
190.200004
 20
121.999999
 30
0.0
 11
190.200005
 21
121.699996
 31
0.0
  0
ARC
  5
1B166
  8
DANMEN
  6
CONTINUOUS
 10
189.7
 20
122.0
 30
0.0
 40
0.5
 50
359.999981
 51
90.000037
  0
ARC
  5
1B16C
  8
DANMEN
  6
CONTINUOUS
 10
190.312978
 20
123.449886
 30
0.0
 40
0.25
 50
131.738105
 51
311.738105
  0
LINE
  5
1B16F
  8
DANMEN
  6
CONTINUOUS
 10
192.850008
 20
121.3
 30
0.0
 11
193.650008
 21
120.5
 31
0.0
  0
LINE
  5
1B170
  8
DANMEN
  6
CONTINUOUS
 10
191.150008
 20
121.3
 30
0.0
 11
190.350008
 21
120.5
 31
0.0
  0
LINE
  5
1B173
  8
DANMEN
  6
CONTINUOUS
 10
190.350008
 20
122.5
 30
0.0
 11
190.350008
 21
121.5
 31
0.0
  0
LINE
  5
1B174
  8
DANMEN
  6
CONTINUOUS
 10
193.650008
 20
122.5
 30
0.0
 11
193.650008
 21
121.5
 31
0.0
  0
LINE
  5
1B179
  8
DANMEN
  6
CONTINUOUS
 10
191.150009
 20
121.3
 30
0.0
 11
192.850007
 21
121.3
 31
0.0
  0
LINE
  5
1B17D
  8
DANMEN
  6
CONTINUOUS
 10
196.000003
 20
122.0
 30
0.0
 11
196.000003
 21
119.5
 31
0.0
  0
LINE
  5
1B17E
  8
DANMEN
  6
CONTINUOUS
 10
193.800006
 20
122.000017
 30
0.0
 11
193.800001
 21
121.699998
 31
0.0
  0
LINE
  5
1B17F
  8
DANMEN
  6
CONTINUOUS
 10
195.000001
 20
121.699997
 30
0.0
 11
195.000001
 21
120.1
 31
0.0
  0
LINE
  5
1B180
  8
DANMEN
  6
CONTINUOUS
 10
193.800006
 20
121.699997
 30
0.0
 11
195.000003
 21
121.699997
 31
0.0
  0
LINE
  5
1B181
  8
DANMEN
  6
CONTINUOUS
 10
194.300006
 20
122.5
 30
0.0
 11
195.500003
 21
122.5
 31
0.0
  0
ARC
  5
1B182
  8
DANMEN
  6
CONTINUOUS
 10
195.500003
 20
122.0
 30
0.0
 40
0.5
 50
359.999981
 51
90.000037
  0
ARC
  5
1B183
  8
DANMEN
  6
CONTINUOUS
 10
195.500003
 20
119.5
 30
0.0
 40
0.5
 50
270.000018
 51
0.0
  0
LINE
  5
1B18A
  8
DANMEN
  6
CONTINUOUS
 10
194.850008
 20
121.3
 30
0.0
 11
194.850008
 21
120.7
 31
0.0
  0
ARC
  5
1B18C
  8
DANMEN
  6
CONTINUOUS
 10
194.650009
 20
121.3
 30
0.0
 40
0.2
 50
0.0
 51
89.999982
  0
ARC
  5
1B18E
  8
DANMEN
  6
CONTINUOUS
 10
194.650009
 20
120.7
 30
0.0
 40
0.2
 50
270.000018
 51
0.0
  0
LINE
  5
1B191
  8
DANMEN
  6
CONTINUOUS
 10
195.200008
 20
123.962453
 30
0.0
 11
195.200008
 21
123.3
 31
0.0
  0
LINE
  5
1B193
  8
DANMEN
  6
CONTINUOUS
 10
78.65
 20
252.100012
 30
0.0
 11
63.4
 21
252.100012
 31
0.0
  0
LINE
  5
1B194
  8
DANMEN
  6
CONTINUOUS
 10
78.0
 20
250.450012
 30
0.0
 11
65.5
 21
250.450012
 31
0.0
  0
ARC
  5
1B195
  8
DANMEN
  6
CONTINUOUS
 10
70.299998
 20
189.0
 30
0.0
 40
0.5
 50
270.000018
 51
0.0
  0
LINE
  5
1B196
  8
DANMEN
  6
CONTINUOUS
 10
71.049998
 20
221.45
 30
0.0
 11
69.850001
 21
221.45
 31
0.0
  0
ARC
  5
1B197
  8
DANMEN
  6
CONTINUOUS
 10
70.299998
 20
162.0
 30
0.0
 40
0.5
 50
0.0
 51
89.999982
  0
LINE
  5
1B198
  8
DANMEN
  6
CONTINUOUS
 10
47.5
 20
258.5
 30
0.0
 11
106.5
 21
258.5
 31
0.0
  0
LINE
  5
1B199
  8
DANMEN
  6
CONTINUOUS
 10
65.0
 20
231.5
 30
0.0
 11
73.0
 21
231.5
 31
0.0
  0
LINE
  5
1B19A
  8
DANMEN
  6
CONTINUOUS
 10
51.199998
 20
231.0
 30
0.0
 11
51.199998
 21
189.0
 31
0.0
  0
LINE
  5
1B19B
  8
DANMEN
  6
CONTINUOUS
 10
53.149998
 20
231.0
 30
0.0
 11
53.149998
 21
205.0
 31
0.0
  0
LINE
  5
1B19C
  8
DANMEN
  6
CONTINUOUS
 10
68.850001
 20
220.45
 30
0.0
 11
68.850001
 21
205.0
 31
0.0
  0
LINE
  5
1B19D
  8
DANMEN
  6
CONTINUOUS
 10
43.649994
 20
224.0
 30
0.0
 11
43.649994
 21
172.5
 31
0.0
  0
LINE
  5
1B19E
  8
DANMEN
  6
CONTINUOUS
 10
42.0
 20
224.0
 30
0.0
 11
42.0
 21
172.5
 31
0.0
  0
LINE
  5
1B19F
  8
DANMEN
  6
CONTINUOUS
 10
49.0
 20
231.5
 30
0.0
 11
49.0
 21
172.5
 31
0.0
  0
LINE
  5
1B1A0
  8
DANMEN
  6
CONTINUOUS
 10
65.0
 20
231.5
 30
0.0
 11
65.0
 21
212.5
 31
0.0
  0
LINE
  5
1B1A1
  8
DANMEN
  6
CONTINUOUS
 10
57.0
 20
231.5
 30
0.0
 11
57.0
 21
212.5
 31
0.0
  0
LINE
  5
1B1A2
  8
DANMEN
  6
CONTINUOUS
 10
59.649998
 20
149.550003
 30
0.0
 11
59.649998
 21
145.5
 31
0.0
  0
LINE
  5
1B1A3
  8
DANMEN
  6
CONTINUOUS
 10
57.699998
 20
150.5
 30
0.0
 11
57.699998
 21
145.699997
 31
0.0
  0
LINE
  5
1B1A4
  8
DANMEN
  6
CONTINUOUS
 10
53.149998
 20
159.5
 30
0.0
 11
53.149998
 21
145.699997
 31
0.0
  0
LINE
  5
1B1A5
  8
DANMEN
  6
CONTINUOUS
 10
53.149998
 20
144.5
 30
0.0
 11
58.649998
 21
144.5
 31
0.0
  0
LINE
  5
1B1A6
  8
DANMEN
  6
CONTINUOUS
 10
53.149998
 20
145.699997
 30
0.0
 11
57.699998
 21
145.699997
 31
0.0
  0
ARC
  5
1B1AA
  8
DANMEN
  6
CONTINUOUS
 10
58.649998
 20
145.5
 30
0.0
 40
1.0
 50
270.000018
 51
0.0
  0
ARC
  5
1B1AC
  8
DANMEN
  6
CONTINUOUS
 10
54.500015
 20
163.499908
 30
0.0
 40
1.5
 50
90.000018
 51
180.0
  0
LINE
  5
1B1AD
  8
DANMEN
  6
CONTINUOUS
 10
53.000015
 20
162.499985
 30
0.0
 11
53.000015
 21
169.5
 31
0.0
  0
LINE
  5
1B1B0
  8
DANMEN
  6
CONTINUOUS
 10
53.149998
 20
159.5
 30
0.0
 11
53.999998
 21
159.5
 31
0.0
  0
ARC
  5
1B1B1
  8
DANMEN
  6
CONTINUOUS
 10
53.499998
 20
162.0
 30
0.0
 40
0.5
 50
0.0
 51
89.999982
  0
LINE
  5
1B1B3
  8
DANMEN
  6
CONTINUOUS
 10
53.999998
 20
162.0
 30
0.0
 11
53.999998
 21
159.5
 31
0.0
  0
ARC
  5
1B1B4
  8
DANMEN
  6
CONTINUOUS
 10
51.699998
 20
162.0
 30
0.0
 40
0.5
 50
89.999982
 51
180.000019
  0
LINE
  5
1B1B6
  8
DANMEN
  6
CONTINUOUS
 10
51.699998
 20
162.5
 30
0.0
 11
53.499998
 21
162.5
 31
0.0
  0
LINE
  5
1B1B7
  8
DANMEN
  6
CONTINUOUS
 10
68.849998
 20
159.5
 30
0.0
 11
68.849998
 21
151.5
 31
0.0
  0
LINE
  5
1B1B8
  8
DANMEN
  6
CONTINUOUS
 10
63.500009
 20
155.5
 30
0.0
 11
63.500009
 21
169.5
 31
0.0
  0
LINE
  5
1B1B9
  8
DANMEN
  6
CONTINUOUS
 10
58.500021
 20
155.499985
 30
0.0
 11
58.500021
 21
169.5
 31
0.0
  0
LINE
  5
1B1BA
  8
DANMEN
  6
CONTINUOUS
 10
63.000009
 20
155.5
 30
0.0
 11
63.000009
 21
169.5
 31
0.0
  0
LINE
  5
1B1BB
  8
DANMEN
  6
CONTINUOUS
 10
59.000021
 20
155.499985
 30
0.0
 11
59.000021
 21
169.5
 31
0.0
  0
LINE
  5
1B1BC
  8
DANMEN
  6
CONTINUOUS
 10
59.649998
 20
149.550003
 30
0.0
 11
68.849998
 21
149.550003
 31
0.0
  0
LINE
  5
1B1BD
  8
DANMEN
  6
CONTINUOUS
 10
58.699998
 20
151.5
 30
0.0
 11
68.849998
 21
151.5
 31
0.0
  0
LINE
  5
1B1BE
  8
DANMEN
  6
CONTINUOUS
 10
63.500009
 20
155.499985
 30
0.0
 11
58.500006
 21
155.499985
 31
0.0
  0
ARC
  5
1B1BF
  8
DANMEN
  6
CONTINUOUS
 10
58.699998
 20
150.5
 30
0.0
 40
1.0
 50
89.999982
 51
180.000019
  0
ARC
  5
1B1C6
  8
DANMEN
  6
CONTINUOUS
 10
57.000006
 20
166.499908
 30
0.0
 40
1.5
 50
269.999982
 51
359.999964
  0
LINE
  5
1B1C7
  8
DANMEN
  6
CONTINUOUS
 10
57.000006
 20
164.999908
 30
0.0
 11
54.500015
 21
164.999908
 31
0.0
  0
ARC
  5
1B1C8
  8
DANMEN
  6
CONTINUOUS
 10
67.500015
 20
163.499908
 30
0.0
 40
1.5
 50
359.999964
 51
90.000001
  0
LINE
  5
1B1C9
  8
DANMEN
  6
CONTINUOUS
 10
68.999985
 20
162.5
 30
0.0
 11
68.999985
 21
169.5
 31
0.0
  0
LINE
  5
1B1CC
  8
DANMEN
  6
CONTINUOUS
 10
67.999998
 20
159.5
 30
0.0
 11
68.849998
 21
159.5
 31
0.0
  0
ARC
  5
1B1CD
  8
DANMEN
  6
CONTINUOUS
 10
68.499998
 20
162.0
 30
0.0
 40
0.5
 50
89.999982
 51
180.000019
  0
LINE
  5
1B1CF
  8
DANMEN
  6
CONTINUOUS
 10
68.499998
 20
162.5
 30
0.0
 11
70.299998
 21
162.5
 31
0.0
  0
LINE
  5
1B1D0
  8
DANMEN
  6
CONTINUOUS
 10
67.999998
 20
162.0
 30
0.0
 11
67.999998
 21
159.5
 31
0.0
  0
LINE
  5
1B1D1
  8
DANMEN
  6
CONTINUOUS
 10
67.500015
 20
164.999908
 30
0.0
 11
65.000009
 21
164.999908
 31
0.0
  0
ARC
  5
1B1D2
  8
DANMEN
  6
CONTINUOUS
 10
65.000009
 20
166.499908
 30
0.0
 40
1.5
 50
180.0
 51
269.999982
  0
LINE
  5
1B1D3
  8
DANMEN
  6
CONTINUOUS
 10
53.149998
 20
203.050003
 30
0.0
 11
53.149998
 21
191.5
 31
0.0
  0
LINE
  5
1B1D4
  8
DANMEN
  6
CONTINUOUS
 10
68.850001
 20
203.050003
 30
0.0
 11
68.850001
 21
191.5
 31
0.0
  0
LINE
  5
1B1D5
  8
DANMEN
  6
CONTINUOUS
 10
58.499991
 20
195.5
 30
0.0
 11
58.499991
 21
172.5
 31
0.0
  0
LINE
  5
1B1D6
  8
DANMEN
  6
CONTINUOUS
 10
63.499979
 20
195.500015
 30
0.0
 11
63.499979
 21
172.5
 31
0.0
  0
LINE
  5
1B1D7
  8
DANMEN
  6
CONTINUOUS
 10
58.999991
 20
195.5
 30
0.0
 11
58.999991
 21
172.5
 31
0.0
  0
LINE
  5
1B1D8
  8
DANMEN
  6
CONTINUOUS
 10
62.999979
 20
195.500015
 30
0.0
 11
62.999979
 21
172.5
 31
0.0
  0
ARC
  5
1B1D9
  8
DANMEN
  6
CONTINUOUS
 10
54.499985
 20
187.500092
 30
0.0
 40
1.5
 50
179.999964
 51
270.000001
  0
LINE
  5
1B1DA
  8
DANMEN
  6
CONTINUOUS
 10
53.0
 20
188.5
 30
0.0
 11
53.0
 21
172.5
 31
0.0
  0
LINE
  5
1B1DB
  8
DANMEN
  6
CONTINUOUS
 10
51.699998
 20
188.5
 30
0.0
 11
53.499998
 21
188.5
 31
0.0
  0
LINE
  5
1B1DC
  8
DANMEN
  6
CONTINUOUS
 10
53.999998
 20
191.5
 30
0.0
 11
53.999998
 21
189.0
 31
0.0
  0
LINE
  5
1B1DD
  8
DANMEN
  6
CONTINUOUS
 10
53.149998
 20
191.5
 30
0.0
 11
53.999998
 21
191.5
 31
0.0
  0
ARC
  5
1B1E1
  8
DANMEN
  6
CONTINUOUS
 10
51.699998
 20
189.0
 30
0.0
 40
0.5
 50
180.000019
 51
270.000001
  0
ARC
  5
1B1E3
  8
DANMEN
  6
CONTINUOUS
 10
53.499998
 20
189.0
 30
0.0
 40
0.5
 50
270.000018
 51
0.0
  0
LINE
  5
1B1E4
  8
DANMEN
  6
CONTINUOUS
 10
69.0
 20
188.5
 30
0.0
 11
69.0
 21
172.5
 31
0.0
  0
ARC
  5
1B1E5
  8
DANMEN
  6
CONTINUOUS
 10
56.999991
 20
184.500092
 30
0.0
 40
1.5
 50
0.0
 51
89.999982
  0
LINE
  5
1B1E6
  8
DANMEN
  6
CONTINUOUS
 10
54.499985
 20
186.000092
 30
0.0
 11
56.999991
 21
186.000092
 31
0.0
  0
LINE
  5
1B1E9
  8
DANMEN
  6
CONTINUOUS
 10
64.999994
 20
186.000092
 30
0.0
 11
67.499985
 21
186.000092
 31
0.0
  0
ARC
  5
1B1EA
  8
DANMEN
  6
CONTINUOUS
 10
64.999994
 20
184.500092
 30
0.0
 40
1.5
 50
89.999982
 51
179.999964
  0
ARC
  5
1B1EB
  8
DANMEN
  6
CONTINUOUS
 10
67.499985
 20
187.500092
 30
0.0
 40
1.5
 50
270.000018
 51
0.0
  0
LINE
  5
1B1EC
  8
DANMEN
  6
CONTINUOUS
 10
67.999995
 20
191.5
 30
0.0
 11
67.999995
 21
189.0
 31
0.0
  0
LINE
  5
1B1ED
  8
DANMEN
  6
CONTINUOUS
 10
67.999995
 20
191.5
 30
0.0
 11
68.850001
 21
191.5
 31
0.0
  0
LINE
  5
1B1EE
  8
DANMEN
  6
CONTINUOUS
 10
68.499995
 20
188.5
 30
0.0
 11
70.299998
 21
188.5
 31
0.0
  0
ARC
  5
1B1F0
  8
DANMEN
  6
CONTINUOUS
 10
68.499995
 20
189.0
 30
0.0
 40
0.5
 50
180.000019
 51
270.000001
  0
LINE
  5
1B1F3
  8
DANMEN
  6
CONTINUOUS
 10
53.149998
 20
205.0
 30
0.0
 11
68.850001
 21
205.0
 31
0.0
  0
LINE
  5
1B1F4
  8
DANMEN
  6
CONTINUOUS
 10
53.149998
 20
203.050003
 30
0.0
 11
56.699999
 21
203.050003
 31
0.0
  0
ARC
  5
1B1F7
  8
DANMEN
  6
CONTINUOUS
 10
61.799997
 20
202.299999
 30
0.0
 40
1.0
 50
359.999945
 51
89.999982
  0
ARC
  5
1B1F8
  8
DANMEN
  6
CONTINUOUS
 10
61.799997
 20
201.05394
 30
0.0
 40
1.0
 50
294.62438
 51
0.0
  0
LINE
  5
1B1F9
  8
DANMEN
  6
CONTINUOUS
 10
62.399997
 20
199.400001
 30
0.0
 11
63.539728
 21
199.400001
 31
0.0
  0
LINE
  5
1B1FA
  8
DANMEN
  6
CONTINUOUS
 10
58.499991
 20
195.500015
 30
0.0
 11
63.499994
 21
195.500015
 31
0.0
  0
ARC
  5
1B1FB
  8
DANMEN
  6
CONTINUOUS
 10
59.699999
 20
200.969418
 30
0.0
 40
2.0
 50
180.000019
 51
231.693677
  0
ARC
  5
1B1FC
  8
DANMEN
  6
CONTINUOUS
 10
59.599999
 20
199.700001
 30
0.0
 40
0.3
 50
270.000018
 51
0.0
  0
ARC
  5
1B1FD
  8
DANMEN
  6
CONTINUOUS
 10
62.399997
 20
199.700001
 30
0.0
 40
0.3
 50
180.000019
 51
270.000055
  0
LINE
  5
1B1FE
  8
DANMEN
  6
CONTINUOUS
 10
58.460268
 20
199.400001
 30
0.0
 11
59.599999
 21
199.400001
 31
0.0
  0
LINE
  5
1B1FF
  8
DANMEN
  6
CONTINUOUS
 10
57.699999
 20
202.050003
 30
0.0
 11
57.699999
 21
200.969418
 31
0.0
  0
ARC
  5
1B201
  8
DANMEN
  6
CONTINUOUS
 10
56.699999
 20
202.050003
 30
0.0
 40
1.0
 50
0.0
 51
89.999982
  0
LINE
  5
1B204
  8
DANMEN
  6
CONTINUOUS
 10
62.099998
 20
199.700001
 30
0.0
 11
62.099998
 21
199.963069
 31
0.0
  0
LINE
  5
1B205
  8
DANMEN
  6
CONTINUOUS
 10
59.199999
 20
202.299998
 30
0.0
 11
59.199999
 21
201.05394
 31
0.0
  0
LINE
  5
1B206
  8
DANMEN
  6
CONTINUOUS
 10
60.199999
 20
203.299999
 30
0.0
 11
61.799997
 21
203.299999
 31
0.0
  0
ARC
  5
1B207
  8
DANMEN
  6
CONTINUOUS
 10
60.199999
 20
202.299999
 30
0.0
 40
1.0
 50
89.999982
 51
180.000019
  0
LINE
  5
1B208
  8
DANMEN
  6
CONTINUOUS
 10
59.899999
 20
199.963069
 30
0.0
 11
59.899999
 21
199.700001
 31
0.0
  0
ARC
  5
1B209
  8
DANMEN
  6
CONTINUOUS
 10
60.199999
 20
201.05394
 30
0.0
 40
1.0
 50
180.000019
 51
245.375639
  0
ARC
  5
1B20A
  8
DANMEN
  6
CONTINUOUS
 10
59.699999
 20
199.963069
 30
0.0
 40
0.2
 50
0.0
 51
65.375675
  0
ARC
  5
1B20B
  8
DANMEN
  6
CONTINUOUS
 10
62.299997
 20
199.963069
 30
0.0
 40
0.2
 50
114.624344
 51
180.000019
  0
ARC
  5
1B20C
  8
DANMEN
  6
CONTINUOUS
 10
62.299997
 20
200.969418
 30
0.0
 40
2.0
 50
308.306342
 51
359.999945
  0
LINE
  5
1B20D
  8
DANMEN
  6
CONTINUOUS
 10
65.299997
 20
203.050003
 30
0.0
 11
68.850001
 21
203.050003
 31
0.0
  0
LINE
  5
1B20E
  8
DANMEN
  6
CONTINUOUS
 10
62.799997
 20
201.05394
 30
0.0
 11
62.799997
 21
202.299998
 31
0.0
  0
LINE
  5
1B20F
  8
DANMEN
  6
CONTINUOUS
 10
64.299997
 20
200.969418
 30
0.0
 11
64.299997
 21
202.050003
 31
0.0
  0
ARC
  5
1B211
  8
DANMEN
  6
CONTINUOUS
 10
65.299997
 20
202.050003
 30
0.0
 40
1.0
 50
89.999982
 51
180.000019
  0
ARC
  5
1B214
  8
DANMEN
  6
CONTINUOUS
 10
61.0
 20
212.5
 30
0.0
 40
4.0
 50
180.000019
 51
359.999983
  0
LINE
  5
1B215
  8
DANMEN
  6
CONTINUOUS
 10
60.6
 20
246.5
 30
0.0
 11
60.6
 21
235.601833
 31
0.0
  0
LINE
  5
1B216
  8
DANMEN
  6
CONTINUOUS
 10
62.25
 20
246.5
 30
0.0
 11
62.25
 21
225.561553
 31
0.0
  0
LINE
  5
1B217
  8
DANMEN
  6
CONTINUOUS
 10
43.649994
 20
246.5
 30
0.0
 11
43.649994
 21
224.0
 31
0.0
  0
LINE
  5
1B218
  8
DANMEN
  6
CONTINUOUS
 10
42.0
 20
258.0
 30
0.0
 11
42.0
 21
224.0
 31
0.0
  0
LINE
  5
1B219
  8
DANMEN
  6
CONTINUOUS
 10
49.0
 20
231.5
 30
0.0
 11
57.0
 21
231.5
 31
0.0
  0
ARC
  5
1B21A
  8
DANMEN
  6
CONTINUOUS
 10
42.5
 20
224.0
 30
0.0
 40
0.5
 50
180.000019
 51
270.000001
  0
ARC
  5
1B21B
  8
DANMEN
  6
CONTINUOUS
 10
43.149994
 20
224.0
 30
0.0
 40
0.5
 50
270.000018
 51
0.0
  0
LINE
  5
1B21C
  8
DANMEN
  6
CONTINUOUS
 10
42.5
 20
223.5
 30
0.0
 11
43.149994
 21
223.5
 31
0.0
  0
LINE
  5
1B21D
  8
DANMEN
  6
CONTINUOUS
 10
51.699998
 20
231.5
 30
0.0
 11
52.649998
 21
231.5
 31
0.0
  0
ARC
  5
1B21F
  8
DANMEN
  6
CONTINUOUS
 10
51.699998
 20
231.0
 30
0.0
 40
0.5
 50
89.999982
 51
180.000019
  0
ARC
  5
1B220
  8
DANMEN
  6
CONTINUOUS
 10
52.649998
 20
231.0
 30
0.0
 40
0.5
 50
0.0
 51
90.0
  0
LINE
  5
1B222
  8
DANMEN
  6
CONTINUOUS
 10
59.75
 20
233.398149
 30
0.0
 11
59.75
 21
225.561553
 31
0.0
  0
ARC
  5
1B223
  8
DANMEN
  6
CONTINUOUS
 10
61.75
 20
225.561553
 30
0.0
 40
0.5
 50
345.963757
 51
0.0
  0
ARC
  5
1B224
  8
DANMEN
  6
CONTINUOUS
 10
60.25
 20
225.561553
 30
0.0
 40
0.5
 50
180.0
 51
194.036243
  0
ARC
  5
1B225
  8
DANMEN
  6
CONTINUOUS
 10
61.359612
 20
224.0
 30
0.0
 40
0.5
 50
270.0
 51
345.963757
  0
ARC
  5
1B226
  8
DANMEN
  6
CONTINUOUS
 10
60.640388
 20
224.0
 30
0.0
 40
0.5
 50
194.036243
 51
270.0
  0
LINE
  5
1B227
  8
DANMEN
  6
CONTINUOUS
 10
60.155317
 20
223.878732
 30
0.0
 11
59.764929
 21
225.440285
 31
0.0
  0
LINE
  5
1B228
  8
DANMEN
  6
CONTINUOUS
 10
62.235071
 20
225.440285
 30
0.0
 11
61.844683
 21
223.878732
 31
0.0
  0
LINE
  5
1B229
  8
DANMEN
  6
CONTINUOUS
 10
60.640388
 20
223.5
 30
0.0
 11
61.359612
 21
223.5
 31
0.0
  0
ARC
  5
1B22A
  8
DANMEN
  6
CONTINUOUS
 10
69.850001
 20
220.45
 30
0.0
 40
1.0
 50
90.0
 51
180.0
  0
LINE
  5
1B22C
  8
DANMEN
  6
CONTINUOUS
 10
60.560165
 20
235.406263
 30
0.0
 11
59.789835
 21
233.59372
 31
0.0
  0
ARC
  5
1B22D
  8
DANMEN
  6
CONTINUOUS
 10
60.25
 20
233.398149
 30
0.0
 40
0.5
 50
156.974508
 51
180.0
  0
ARC
  5
1B22E
  8
DANMEN
  6
CONTINUOUS
 10
60.1
 20
235.601833
 30
0.0
 40
0.5
 50
336.974508
 51
0.0
  0
LINE
  5
1B22F
  8
DANMEN
  6
CONTINUOUS
 10
43.649994
 20
248.149994
 30
0.0
 11
57.699997
 21
248.149994
 31
0.0
  0
LINE
  5
1B230
  8
DANMEN
  6
CONTINUOUS
 10
43.649994
 20
246.5
 30
0.0
 11
60.6
 21
246.5
 31
0.0
  0
LINE
  5
1B231
  8
DANMEN
  6
CONTINUOUS
 10
43.649994
 20
256.850006
 30
0.0
 11
43.649994
 21
248.149994
 31
0.0
  0
LINE
  5
1B232
  8
DANMEN
  6
CONTINUOUS
 10
43.649994
 20
256.850006
 30
0.0
 11
47.5
 21
256.850006
 31
0.0
  0
LINE
  5
1B233
  8
DANMEN
  6
CONTINUOUS
 10
42.5
 20
258.5
 30
0.0
 11
47.5
 21
258.5
 31
0.0
  0
ARC
  5
1B234
  8
DANMEN
  6
CONTINUOUS
 10
42.5
 20
258.0
 30
0.0
 40
0.5
 50
89.999982
 51
180.000019
  0
LINE
  5
1B235
  8
DANMEN
  6
CONTINUOUS
 10
48.0
 20
258.0
 30
0.0
 11
48.0
 21
257.350006
 31
0.0
  0
ARC
  5
1B236
  8
DANMEN
  6
CONTINUOUS
 10
47.5
 20
257.350006
 30
0.0
 40
0.5
 50
270.000018
 51
0.0
  0
ARC
  5
1B237
  8
DANMEN
  6
CONTINUOUS
 10
47.5
 20
258.0
 30
0.0
 40
0.5
 50
0.0
 51
89.999982
  0
LINE
  5
1B238
  8
DANMEN
  6
CONTINUOUS
 10
60.9
 20
251.8
 30
0.0
 11
60.9
 21
251.536932
 31
0.0
  0
ARC
  5
1B239
  8
DANMEN
  6
CONTINUOUS
 10
60.7
 20
250.530306
 30
0.0
 40
2.0
 50
128.293477
 51
180.0
  0
LINE
  5
1B23A
  8
DANMEN
  6
CONTINUOUS
 10
63.1
 20
251.800012
 30
0.0
 11
63.1
 21
251.536932
 31
0.0
  0
LINE
  5
1B23B
  8
DANMEN
  6
CONTINUOUS
 10
62.8
 20
248.2
 30
0.0
 11
61.2
 21
248.2
 31
0.0
  0
LINE
  5
1B23C
  8
DANMEN
  6
CONTINUOUS
 10
62.25
 20
246.5
 30
0.0
 11
66.5
 21
246.5
 31
0.0
  0
ARC
  5
1B23D
  8
DANMEN
  6
CONTINUOUS
 10
57.7
 20
249.149994
 30
0.0
 40
1.0
 50
270.0
 51
0.0
  0
ARC
  5
1B23E
  8
DANMEN
  6
CONTINUOUS
 10
61.2
 20
250.446061
 30
0.0
 40
1.0
 50
114.624318
 51
180.0
  0
ARC
  5
1B23F
  8
DANMEN
  6
CONTINUOUS
 10
60.7
 20
251.536932
 30
0.0
 40
0.2
 50
294.624318
 51
0.0
  0
LINE
  5
1B240
  8
DANMEN
  6
CONTINUOUS
 10
58.7
 20
250.530306
 30
0.0
 11
58.7
 21
249.149994
 31
0.0
  0
LINE
  5
1B241
  8
DANMEN
  6
CONTINUOUS
 10
60.2
 20
250.446061
 30
0.0
 11
60.2
 21
249.2
 31
0.0
  0
ARC
  5
1B242
  8
DANMEN
  6
CONTINUOUS
 10
61.2
 20
249.2
 30
0.0
 40
1.0
 50
180.0
 51
270.0
  0
ARC
  5
1B243
  8
DANMEN
  6
CONTINUOUS
 10
66.5
 20
247.0
 30
0.0
 40
0.5
 50
270.000018
 51
0.0
  0
LINE
  5
1B244
  8
DANMEN
  6
CONTINUOUS
 10
65.5
 20
247.3
 30
0.0
 11
67.0
 21
247.3
 31
0.0
  0
ARC
  5
1B245
  8
DANMEN
  6
CONTINUOUS
 10
63.3
 20
251.536932
 30
0.0
 40
0.2
 50
180.0
 51
245.375682
  0
ARC
  5
1B246
  8
DANMEN
  6
CONTINUOUS
 10
62.8
 20
250.446061
 30
0.0
 40
1.0
 50
0.0
 51
65.375682
  0
ARC
  5
1B247
  8
DANMEN
  6
CONTINUOUS
 10
62.8
 20
249.2
 30
0.0
 40
1.0
 50
270.0
 51
0.0
  0
LINE
  5
1B248
  8
DANMEN
  6
CONTINUOUS
 10
63.8
 20
250.446061
 30
0.0
 11
63.8
 21
249.2
 31
0.0
  0
LINE
  5
1B249
  8
DANMEN
  6
CONTINUOUS
 10
65.5
 20
250.450012
 30
0.0
 11
65.5
 21
247.3
 31
0.0
  0
LINE
  5
1B24A
  8
DANMEN
  6
CONTINUOUS
 10
67.0
 20
247.3
 30
0.0
 11
67.0
 21
247.0
 31
0.0
  0
LINE
  5
1B24C
  8
DANMEN
  6
CONTINUOUS
 10
60.6
 20
252.1
 30
0.0
 11
59.460621
 21
252.1
 31
0.0
  0
ARC
  5
1B24D
  8
DANMEN
  6
CONTINUOUS
 10
60.6
 20
251.8
 30
0.0
 40
0.3
 50
0.0
 51
90.0
  0
ARC
  5
1B24E
  8
DANMEN
  6
CONTINUOUS
 10
63.4
 20
251.800012
 30
0.0
 40
0.3
 50
90.0
 51
180.0
  0
LINE
  5
1B24F
  8
DANMEN
  6
CONTINUOUS
 10
108.017555
 20
193.002085
 30
0.0
 11
108.0
 21
223.5
 31
0.0
  0
LINE
  5
1B250
  8
DANMEN
  6
CONTINUOUS
 10
109.517555
 20
192.645361
 30
0.0
 11
109.004224
 21
222.970763
 31
0.0
  0
LINE
  5
1B251
  8
DANMEN
  6
CONTINUOUS
 10
108.31756
 20
192.99168
 30
0.0
 11
108.30001
 21
223.479021
 31
0.0
  0
LINE
  5
1B252
  8
DANMEN
  6
CONTINUOUS
 10
70.799998
 20
219.5
 30
0.0
 11
70.799998
 21
189.0
 31
0.0
  0
LINE
  5
1B253
  8
DANMEN
  6
CONTINUOUS
 10
110.350006
 20
192.926465
 30
0.0
 11
110.350006
 21
223.5
 31
0.0
  0
LINE
  5
1B254
  8
DANMEN
  6
CONTINUOUS
 10
112.0
 20
192.77658
 30
0.0
 11
112.0
 21
223.5
 31
0.0
  0
LINE
  5
1B255
  8
DANMEN
  6
CONTINUOUS
 10
108.0
 20
172.5
 30
0.0
 11
108.0
 21
223.5
 31
0.0
  0
LINE
  5
1B256
  8
DANMEN
  6
CONTINUOUS
 10
83.000015
 20
172.5
 30
0.0
 11
83.000015
 21
223.5
 31
0.0
  0
LINE
  5
1B257
  8
DANMEN
  6
CONTINUOUS
 10
98.949985
 20
172.5
 30
0.0
 11
98.949985
 21
223.5
 31
0.0
  0
LINE
  5
1B258
  8
DANMEN
  6
CONTINUOUS
 10
80.95
 20
172.5
 30
0.0
 11
80.95
 21
223.5
 31
0.0
  0
LINE
  5
1B259
  8
DANMEN
  6
CONTINUOUS
 10
101.0
 20
172.5
 30
0.0
 11
101.0
 21
223.5
 31
0.0
  0
LINE
  5
1B25A
  8
DANMEN
  6
CONTINUOUS
 10
92.949986
 20
230.5
 30
0.0
 11
92.949986
 21
172.5
 31
0.0
  0
LINE
  5
1B25B
  8
DANMEN
  6
CONTINUOUS
 10
88.949998
 20
230.5
 30
0.0
 11
88.949998
 21
172.5
 31
0.0
  0
LINE
  5
1B25C
  8
DANMEN
  6
CONTINUOUS
 10
93.449986
 20
230.5
 30
0.0
 11
93.449986
 21
172.5
 31
0.0
  0
LINE
  5
1B25D
  8
DANMEN
  6
CONTINUOUS
 10
88.449998
 20
230.5
 30
0.0
 11
88.449998
 21
172.5
 31
0.0
  0
LINE
  5
1B25E
  8
DANMEN
  6
DASHED
 10
78.5
 20
223.5
 30
0.0
 11
78.5
 21
172.5
 31
0.0
  0
LINE
  5
1B25F
  8
DANMEN
  6
CONTINUOUS
 10
75.5
 20
223.5
 30
0.0
 11
75.5
 21
172.5
 31
0.0
  0
LINE
  5
1B260
  8
DANMEN
  6
CONTINUOUS
 10
73.0
 20
231.5
 30
0.0
 11
73.0
 21
172.5
 31
0.0
  0
LINE
  5
1B261
  8
DANMEN
  6
CONTINUOUS
 10
73.0
 20
231.5
 30
0.0
 11
73.0
 21
172.5
 31
0.0
  0
LINE
  5
1B262
  8
DANMEN
  6
CONTINUOUS
 10
111.517555
 20
184.502085
 30
0.0
 11
142.217555
 21
184.502085
 31
0.0
  0
LINE
  5
1B263
  8
DANMEN
  6
CONTINUOUS
 10
140.881386
 20
190.153003
 30
0.0
 11
109.517555
 21
193.002085
 31
0.0
  0
LINE
  5
1B264
  8
DANMEN
  6
CONTINUOUS
 10
111.517555
 20
133.997915
 30
0.0
 11
142.217555
 21
133.997915
 31
0.0
  0
LINE
  5
1B265
  8
DANMEN
  6
CONTINUOUS
 10
140.881386
 20
128.346997
 30
0.0
 11
109.517555
 21
125.497915
 31
0.0
  0
LINE
  5
1B267
  8
DANMEN
  6
CONTINUOUS
 10
108.017555
 20
129.997915
 30
0.0
 11
108.017555
 21
125.497915
 31
0.0
  0
LINE
  5
1B268
  8
DANMEN
  6
CONTINUOUS
 10
108.317555
 20
129.997915
 30
0.0
 11
108.317555
 21
125.487367
 31
0.0
  0
LINE
  5
1B269
  8
DANMEN
  6
CONTINUOUS
 10
109.517555
 20
131.997915
 30
0.0
 11
109.517555
 21
125.497915
 31
0.0
  0
LINE
  5
1B26D
  8
DANMEN
  6
CONTINUOUS
 10
108.017555
 20
129.997915
 30
0.0
 11
109.517555
 21
129.997915
 31
0.0
  0
ARC
  5
1B270
  8
DANMEN
  6
CONTINUOUS
 10
111.517555
 20
131.997915
 30
0.0
 40
2.0
 50
89.999982
 51
180.000019
  0
LINE
  5
1B276
  8
DANMEN
  6
CONTINUOUS
 10
109.517555
 20
186.502085
 30
0.0
 11
109.517555
 21
193.002085
 31
0.0
  0
ARC
  5
1B278
  8
DANMEN
  6
CONTINUOUS
 10
111.517555
 20
186.502085
 30
0.0
 40
2.0
 50
179.999981
 51
270.000018
  0
LINE
  5
1B27A
  8
DANMEN
  6
CONTINUOUS
 10
108.017555
 20
188.502085
 30
0.0
 11
108.017555
 21
193.002085
 31
0.0
  0
LINE
  5
1B27B
  8
DANMEN
  6
CONTINUOUS
 10
108.017555
 20
188.502085
 30
0.0
 11
109.517555
 21
188.502085
 31
0.0
  0
LINE
  5
1B27E
  8
DANMEN
  6
CONTINUOUS
 10
108.317555
 20
188.502085
 30
0.0
 11
108.317555
 21
193.012633
 31
0.0
  0
LINE
  5
1B283
  8
DANMEN
  6
CONTINUOUS
 10
140.0
 20
169.5
 30
0.0
 11
140.0
 21
133.997915
 31
0.0
  0
ARC
  5
1B284
  8
DANMEN
  6
CONTINUOUS
 10
140.717555
 20
130.340276
 30
0.0
 40
2.0
 50
274.698681
 51
0.0
  0
LINE
  5
1B289
  8
DANMEN
  6
CONTINUOUS
 10
142.717555
 20
133.497915
 30
0.0
 11
142.717555
 21
130.340276
 31
0.0
  0
ARC
  5
1B28B
  8
DANMEN
  6
CONTINUOUS
 10
142.217555
 20
133.497915
 30
0.0
 40
0.5
 50
0.0
 51
89.999982
  0
LINE
  5
1B28D
  8
DANMEN
  6
CONTINUOUS
 10
183.000003
 20
155.4
 30
0.0
 11
183.000003
 21
136.8
 31
0.0
  0
LINE
  5
1B28E
  8
DANMEN
  6
CONTINUOUS
 10
196.145439
 20
147.55
 30
0.0
 11
187.200003
 21
146.208185
 31
0.0
  0
ARC
  5
1B28F
  8
DANMEN
  6
CONTINUOUS
 10
187.000003
 20
147.138813
 30
0.0
 40
1.0
 50
98.530766
 51
180.0
  0
LINE
  5
1B290
  8
DANMEN
  6
CONTINUOUS
 10
200.959698
 20
148.962605
 30
0.0
 11
200.7
 21
145.5
 31
0.0
  0
LINE
  5
1B291
  8
DANMEN
  6
CONTINUOUS
 10
199.000003
 20
147.55
 30
0.0
 11
199.000003
 21
127.449997
 31
0.0
  0
LINE
  5
1B292
  8
DANMEN
  6
CONTINUOUS
 10
183.000003
 20
135.0
 30
0.0
 11
187.917208
 21
135.0
 31
0.0
  0
LINE
  5
1B293
  8
DANMEN
  6
CONTINUOUS
 10
183.000003
 20
136.8
 30
0.0
 11
187.850998
 21
136.8
 31
0.0
  0
LINE
  5
1B294
  8
DANMEN
  6
CONTINUOUS
 10
183.000003
 20
144.0
 30
0.0
 11
199.000003
 21
144.0
 31
0.0
  0
LINE
  5
1B295
  8
DANMEN
  6
CONTINUOUS
 10
183.000003
 20
139.0
 30
0.0
 11
199.000003
 21
139.0
 31
0.0
  0
LINE
  5
1B296
  8
DANMEN
  6
CONTINUOUS
 10
183.000003
 20
130.0
 30
0.0
 11
199.000003
 21
130.0
 31
0.0
  0
ARC
  5
1B297
  8
DANMEN
  6
CONTINUOUS
 10
184.473514
 20
129.601146
 30
0.0
 40
0.6
 50
23.0
 51
273.528779
  0
LINE
  5
1B29E
  8
DANMEN
  6
CONTINUOUS
 10
193.164405
 20
135.860739
 30
0.0
 11
188.081607
 21
135.013606
 31
0.0
  0
LINE
  5
1B29F
  8
DANMEN
  6
CONTINUOUS
 10
200.950003
 20
143.55
 30
0.0
 11
200.950003
 21
131.449997
 31
0.0
  0
LINE
  5
1B2A0
  8
DANMEN
  6
CONTINUOUS
 10
195.895167
 20
124.342413
 30
0.0
 11
191.246852
 21
126.222891
 31
0.0
  0
LINE
  5
1B2A1
  8
DANMEN
  6
CONTINUOUS
 10
196.145439
 20
127.45
 30
0.0
 11
187.200003
 21
128.791815
 31
0.0
  0
LINE
  5
1B2A2
  8
DANMEN
  6
CONTINUOUS
 10
195.963124
 20
125.505532
 30
0.0
 11
186.851662
 21
126.872251
 31
0.0
  0
LINE
  5
1B2A3
  8
DANMEN
  6
CONTINUOUS
 10
187.200003
 20
130.0
 30
0.0
 11
187.200003
 21
128.791815
 31
0.0
  0
ARC
  5
1B2A4
  8
DANMEN
  6
CONTINUOUS
 10
186.500003
 20
129.5
 30
0.0
 40
0.5
 50
89.999982
 51
180.000019
  0
ARC
  5
1B2A7
  8
DANMEN
  6
CONTINUOUS
 10
187.000003
 20
127.861187
 30
0.0
 40
1.0
 50
180.0
 51
261.469234
  0
LINE
  5
1B2AA
  8
DANMEN
  6
CONTINUOUS
 10
186.000003
 20
129.5
 30
0.0
 11
186.000003
 21
127.861187
 31
0.0
  0
ARC
  5
1B2AE
  8
DANMEN
  6
CONTINUOUS
 10
191.445854
 20
125.063653
 30
0.0
 40
0.2
 50
311.738105
 51
67.974191
  0
LINE
  5
1B2AF
  8
DANMEN
  6
CONTINUOUS
 10
191.520859
 20
125.249056
 30
0.0
 11
190.946833
 21
125.481279
 31
0.0
  0
ARC
  5
1B2B3
  8
DANMEN
  6
CONTINUOUS
 10
191.096842
 20
125.852085
 30
0.0
 40
0.4
 50
67.974191
 51
247.974191
  0
ARC
  5
1B2B6
  8
DANMEN
  6
CONTINUOUS
 10
187.917208
 20
136.0
 30
0.0
 40
1.0
 50
270.000018
 51
279.462343
  0
LINE
  5
1B2B9
  8
DANMEN
  6
CONTINUOUS
 10
186.500003
 20
130.0
 30
0.0
 11
187.200003
 21
130.0
 31
0.0
  0
LINE
  5
1B2BA
  8
DANMEN
  6
CONTINUOUS
 10
196.145439
 20
127.45
 30
0.0
 11
199.000003
 21
127.45
 31
0.0
  0
LINE
  5
1B2BB
  8
DANMEN
  6
CONTINUOUS
 10
196.037294
 20
125.5
 30
0.0
 11
200.461093
 21
125.5
 31
0.0
  0
ARC
  5
1B2BD
  8
DANMEN
  6
CONTINUOUS
 10
195.820162
 20
124.15701
 30
0.0
 40
0.2
 50
25.943161
 51
67.974191
  0
ARC
  5
1B2C1
  8
DANMEN
  6
CONTINUOUS
 10
196.037294
 20
126.0
 30
0.0
 40
0.5
 50
261.469234
 51
270.0
  0
ARC
  5
1B2C5
  8
DANMEN
  6
CONTINUOUS
 10
200.461098
 20
126.0
 30
0.0
 40
0.5
 50
270.0
 51
4.2892
  0
LINE
  5
1B2C6
  8
DANMEN
  6
CONTINUOUS
 10
200.7
 20
129.499997
 30
0.0
 11
200.959698
 21
126.037395
 31
0.0
  0
ARC
  5
1B2CB
  8
DANMEN
  6
CONTINUOUS
 10
193.000003
 20
136.847137
 30
0.0
 40
1.0
 50
279.462343
 51
0.000285
  0
ARC
  5
1B2CC
  8
DANMEN
  6
CONTINUOUS
 10
193.500003
 20
137.0
 30
0.0
 40
0.5
 50
0.0
 51
89.999982
  0
LINE
  5
1B2CD
  8
DANMEN
  6
CONTINUOUS
 10
192.050999
 20
137.5
 30
0.0
 11
187.850998
 21
136.8
 31
0.0
  0
LINE
  5
1B2CF
  8
DANMEN
  6
CONTINUOUS
 10
192.050999
 20
137.5
 30
0.0
 11
193.500003
 21
137.5
 31
0.0
  0
LINE
  5
1B2D3
  8
DANMEN
  6
CONTINUOUS
 10
187.200003
 20
145.0
 30
0.0
 11
187.200003
 21
146.208185
 31
0.0
  0
ARC
  5
1B2D4
  8
DANMEN
  6
CONTINUOUS
 10
186.500003
 20
145.5
 30
0.0
 40
0.5
 50
179.999964
 51
270.000001
  0
LINE
  5
1B2D6
  8
DANMEN
  6
CONTINUOUS
 10
186.500003
 20
145.0
 30
0.0
 11
187.200003
 21
145.0
 31
0.0
  0
LINE
  5
1B2D7
  8
DANMEN
  6
CONTINUOUS
 10
186.000003
 20
145.5
 30
0.0
 11
186.000003
 21
147.138813
 31
0.0
  0
LINE
  5
1B2D8
  8
DANMEN
  6
CONTINUOUS
 10
194.000003
 20
137.0
 30
0.0
 11
194.000003
 21
136.847137
 31
0.0
  0
LINE
  5
1B2DE
  8
DANMEN
  6
CONTINUOUS
 10
173.500003
 20
156.5
 30
0.0
 11
197.500003
 21
156.5
 31
0.0
  0
LINE
  5
1B2DF
  8
DANMEN
  6
CONTINUOUS
 10
185.000003
 20
154.850006
 30
0.0
 11
197.500003
 21
154.850006
 31
0.0
  0
LINE
  5
1B2E0
  8
DANMEN
  6
CONTINUOUS
 10
174.649997
 20
154.850006
 30
0.0
 11
181.350009
 21
154.850006
 31
0.0
  0
LINE
  5
1B2E1
  8
DANMEN
  6
CONTINUOUS
 10
173.000003
 20
156.0
 30
0.0
 11
173.000003
 21
151.0
 31
0.0
  0
LINE
  5
1B2E2
  8
DANMEN
  6
CONTINUOUS
 10
174.649997
 20
154.850006
 30
0.0
 11
174.649997
 21
151.0
 31
0.0
  0
ARC
  5
1B2E3
  8
DANMEN
  6
CONTINUOUS
 10
173.500003
 20
151.0
 30
0.0
 40
0.5
 50
180.000036
 51
269.999963
  0
LINE
  5
1B2E5
  8
DANMEN
  6
CONTINUOUS
 10
173.500003
 20
150.5
 30
0.0
 11
174.149997
 21
150.5
 31
0.0
  0
ARC
  5
1B2E6
  8
DANMEN
  6
CONTINUOUS
 10
174.149997
 20
151.0
 30
0.0
 40
0.5
 50
270.000018
 51
359.999981
  0
ARC
  5
1B2E8
  8
DANMEN
  6
CONTINUOUS
 10
173.500003
 20
156.0
 30
0.0
 40
0.5
 50
89.999982
 51
180.000019
  0
LINE
  5
1B2EE
  8
DANMEN
  6
CONTINUOUS
 10
183.000003
 20
155.4
 30
0.0
 11
185.000003
 21
155.4
 31
0.0
  0
LINE
  5
1B2EF
  8
DANMEN
  6
CONTINUOUS
 10
185.000003
 20
155.4
 30
0.0
 11
185.000003
 21
154.850006
 31
0.0
  0
LINE
  5
1B2F1
  8
DANMEN
  6
CONTINUOUS
 10
195.963124
 20
149.494468
 30
0.0
 11
186.851662
 21
148.127749
 31
0.0
  0
LINE
  5
1B2F3
  8
DANMEN
  6
CONTINUOUS
 10
196.145439
 20
147.55
 30
0.0
 11
199.000003
 21
147.55
 31
0.0
  0
LINE
  5
1B2F4
  8
DANMEN
  6
CONTINUOUS
 10
196.037294
 20
149.5
 30
0.0
 11
200.461093
 21
149.5
 31
0.0
  0
ARC
  5
1B2F7
  8
DANMEN
  6
CONTINUOUS
 10
196.037294
 20
149.0
 30
0.0
 40
0.5
 50
90.0
 51
98.530766
  0
ARC
  5
1B2FB
  8
DANMEN
  6
CONTINUOUS
 10
200.461098
 20
149.0
 30
0.0
 40
0.5
 50
355.710803
 51
90.0
  0
ARC
  5
1B2FE
  8
DANMEN
  6
CONTINUOUS
 10
197.500003
 20
155.350006
 30
0.0
 40
0.5
 50
270.000018
 51
359.999981
  0
ARC
  5
1B2FF
  8
DANMEN
  6
CONTINUOUS
 10
197.500003
 20
156.0
 30
0.0
 40
0.5
 50
359.999981
 51
89.999982
  0
LINE
  5
1B300
  8
DANMEN
  6
CONTINUOUS
 10
198.000003
 20
156.0
 30
0.0
 11
198.000003
 21
155.350006
 31
0.0
  0
LINE
  5
1B304
  8
DANMEN
  6
CONTINUOUS
 10
140.0
 20
172.5
 30
0.0
 11
140.0
 21
184.502085
 31
0.0
  0
LINE
  5
1B305
  8
DANMEN
  6
CONTINUOUS
 10
142.717555
 20
185.002085
 30
0.0
 11
142.717555
 21
188.159724
 31
0.0
  0
ARC
  5
1B307
  8
DANMEN
  6
CONTINUOUS
 10
142.217555
 20
185.002085
 30
0.0
 40
0.5
 50
270.000018
 51
360.0
  0
ARC
  5
1B30C
  8
DANMEN
  6
CONTINUOUS
 10
140.717555
 20
188.159724
 30
0.0
 40
2.0
 50
0.0
 51
85.301319
  0
LINE
  5
1B30E
  8
DANMEN
  6
CONTINUOUS
 10
96.3
 20
248.15
 30
0.0
 11
110.350006
 21
248.15
 31
0.0
  0
LINE
  5
1B30F
  8
DANMEN
  6
CONTINUOUS
 10
99.0
 20
223.5
 30
0.0
 11
111.5
 21
223.5
 31
0.0
  0
LINE
  5
1B310
  8
DANMEN
  6
CONTINUOUS
 10
99.5
 20
225.15
 30
0.0
 11
110.350006
 21
225.15
 31
0.0
  0
LINE
  5
1B311
  8
DANMEN
  6
CONTINUOUS
 10
82.65
 20
246.5
 30
0.0
 11
110.350006
 21
246.5
 31
0.0
  0
LINE
  5
1B312
  8
DANMEN
  6
CONTINUOUS
 10
81.0
 20
246.5
 30
0.0
 11
81.0
 21
231.5
 31
0.0
  0
LINE
  5
1B313
  8
DANMEN
  6
CONTINUOUS
 10
82.65
 20
246.5
 30
0.0
 11
82.65
 21
226.5
 31
0.0
  0
LINE
  5
1B314
  8
DANMEN
  6
DASHED
 10
85.0
 20
223.5
 30
0.0
 11
97.0
 21
223.5
 31
0.0
  0
LINE
  5
1B315
  8
DANMEN
  6
DASHED
 10
81.5
 20
222.300003
 30
0.0
 11
100.5
 21
222.300003
 31
0.0
  0
ARC
  5
1B316
  8
DANMEN
  6
CONTINUOUS
 10
86.949991
 20
219.750092
 30
0.0
 40
1.5
 50
0.0
 51
89.999982
  0
LINE
  5
1B317
  8
DANMEN
  6
CONTINUOUS
 10
75.2
 20
231.2
 30
0.0
 11
75.2
 21
224.1
 31
0.0
  0
LINE
  5
1B318
  8
DANMEN
  6
CONTINUOUS
 10
77.2
 20
228.5
 30
0.0
 11
77.2
 21
226.8
 31
0.0
  0
LINE
  5
1B319
  8
DANMEN
  6
CONTINUOUS
 10
74.146178
 20
231.684441
 30
0.0
 11
73.0187
 21
228.19015
 31
0.0
  0
LINE
  5
1B31A
  8
DANMEN
  6
CONTINUOUS
 10
74.582434
 20
231.2
 30
0.0
 11
73.6
 21
228.017126
 31
0.0
  0
LINE
  5
1B31B
  8
DANMEN
  6
DASHED
 10
83.023824
 20
227.117136
 30
0.0
 11
84.423825
 21
230.417167
 31
0.0
  0
LINE
  5
1B31C
  8
DANMEN
  6
DASHED
 10
84.5
 20
228.100003
 30
0.0
 11
84.992312
 21
230.23252
 31
0.0
  0
LINE
  5
1B31D
  8
DANMEN
  6
CONTINUOUS
 10
81.000003
 20
224.5
 30
0.0
 11
81.000003
 21
230.7
 31
0.0
  0
LINE
  5
1B31E
  8
DANMEN
  6
CONTINUOUS
 10
72.999998
 20
220.0
 30
0.0
 11
72.999998
 21
231.0
 31
0.0
  0
LINE
  5
1B31F
  8
DANMEN
  6
CONTINUOUS
 10
71.049998
 20
221.45
 30
0.0
 11
71.049998
 21
231.0
 31
0.0
  0
LINE
  5
1B320
  8
DANMEN
  6
CONTINUOUS
 10
76.800003
 20
224.5
 30
0.0
 11
81.0
 21
224.5
 31
0.0
  0
LINE
  5
1B321
  8
DANMEN
  6
CONTINUOUS
 10
83.0
 20
223.5
 30
0.0
 11
76.5
 21
223.5
 31
0.0
  0
LINE
  5
1B322
  8
DANMEN
  6
CONTINUOUS
 10
73.0
 20
223.5
 30
0.0
 11
81.0
 21
223.5
 31
0.0
  0
LINE
  5
1B323
  8
DANMEN
  6
CONTINUOUS
 10
72.499998
 20
219.5
 30
0.0
 11
70.799998
 21
219.5
 31
0.0
  0
ARC
  5
1B324
  8
DANMEN
  6
CONTINUOUS
 10
72.499998
 20
220.0
 30
0.0
 40
0.5
 50
270.0
 51
0.0
  0
LINE
  5
1B328
  8
DANMEN
  6
CONTINUOUS
 10
74.327478
 20
223.5
 30
0.0
 11
76.0
 21
223.5
 31
0.0
  0
LINE
  5
1B329
  8
DANMEN
  6
CONTINUOUS
 10
74.582434
 20
224.1
 30
0.0
 11
75.2
 21
224.1
 31
0.0
  0
LINE
  5
1B32B
  8
DANMEN
  6
CONTINUOUS
 10
73.0
 20
228.105709
 30
0.0
 11
73.0
 21
227.194291
 31
0.0
  0
LINE
  5
1B32C
  8
DANMEN
  6
CONTINUOUS
 10
73.0187
 20
227.10985
 30
0.0
 11
74.146178
 21
223.615559
 31
0.0
  0
ARC
  5
1B32D
  8
DANMEN
  6
CONTINUOUS
 10
74.327478
 20
223.7
 30
0.0
 40
0.2
 50
204.97391
 51
270.0
  0
ARC
  5
1B32F
  8
DANMEN
  6
CONTINUOUS
 10
73.2
 20
228.105709
 30
0.0
 40
0.2
 50
155.02609
 51
180.0
  0
ARC
  5
1B331
  8
DANMEN
  6
CONTINUOUS
 10
73.2
 20
227.194291
 30
0.0
 40
0.2
 50
180.0
 51
204.97391
  0
LINE
  5
1B333
  8
DANMEN
  6
CONTINUOUS
 10
73.6
 20
228.017126
 30
0.0
 11
73.6
 21
227.282873
 31
0.0
  0
LINE
  5
1B334
  8
DANMEN
  6
CONTINUOUS
 10
73.6
 20
227.282873
 30
0.0
 11
74.582434
 21
224.1
 31
0.0
  0
LINE
  5
1B339
  8
DANMEN
  6
CONTINUOUS
 10
77.2
 20
224.8
 30
0.0
 11
77.8
 21
224.8
 31
0.0
  0
LINE
  5
1B33A
  8
DANMEN
  6
CONTINUOUS
 10
76.0
 20
226.0
 30
0.0
 11
76.0
 21
223.5
 31
0.0
  0
ARC
  5
1B33C
  8
DANMEN
  6
CONTINUOUS
 10
77.8
 20
225.0
 30
0.0
 40
0.2
 50
270.000018
 51
0.0
  0
ARC
  5
1B33E
  8
DANMEN
  6
CONTINUOUS
 10
77.2
 20
225.0
 30
0.0
 40
0.2
 50
180.000019
 51
270.000001
  0
LINE
  5
1B340
  8
DANMEN
  6
CONTINUOUS
 10
78.0
 20
226.0
 30
0.0
 11
78.0
 21
225.0
 31
0.0
  0
LINE
  5
1B342
  8
DANMEN
  6
CONTINUOUS
 10
77.2
 20
226.8
 30
0.0
 11
78.0
 21
226.0
 31
0.0
  0
LINE
  5
1B343
  8
DANMEN
  6
CONTINUOUS
 10
77.0
 20
226.0
 30
0.0
 11
77.0
 21
225.0
 31
0.0
  0
LINE
  5
1B344
  8
DANMEN
  6
CONTINUOUS
 10
76.0
 20
226.0
 30
0.0
 11
77.0
 21
226.0
 31
0.0
  0
LINE
  5
1B34E
  8
DANMEN
  6
CONTINUOUS
 10
76.0
 20
224.0
 30
0.0
 11
76.0
 21
225.199997
 31
0.0
  0
LINE
  5
1B34F
  8
DANMEN
  6
CONTINUOUS
 10
76.5
 20
225.699997
 30
0.0
 11
76.800003
 21
225.699997
 31
0.0
  0
LINE
  5
1B350
  8
DANMEN
  6
CONTINUOUS
 10
76.800003
 20
224.5
 30
0.0
 11
76.800003
 21
225.699997
 31
0.0
  0
ARC
  5
1B351
  8
DANMEN
  6
CONTINUOUS
 10
76.5
 20
225.199997
 30
0.0
 40
0.5
 50
89.999999
 51
179.999981
  0
ARC
  5
1B352
  8
DANMEN
  6
CONTINUOUS
 10
76.5
 20
224.0
 30
0.0
 40
0.5
 50
179.999981
 51
270.000018
  0
ARC
  5
1B353
  8
DANMEN
  6
DASHED
 10
81.5
 20
222.800003
 30
0.0
 40
0.5
 50
180.0
 51
269.999982
  0
ARC
  5
1B354
  8
DANMEN
  6
CONTINUOUS
 10
84.449985
 20
222.750092
 30
0.0
 40
1.5
 50
179.999964
 51
270.000001
  0
LINE
  5
1B356
  8
DANMEN
  6
CONTINUOUS
 10
84.449985
 20
221.250092
 30
0.0
 11
86.949991
 21
221.250092
 31
0.0
  0
LINE
  5
1B357
  8
DANMEN
  6
DASHED
 10
83.5
 20
223.5
 30
0.0
 11
81.0
 21
223.5
 31
0.0
  0
ARC
  5
1B358
  8
DANMEN
  6
DASHED
 10
83.299999
 20
226.999972
 30
0.0
 40
0.3
 50
157.011468
 51
235.656024
  0
ARC
  5
1B359
  8
DANMEN
  6
CONTINUOUS
 10
83.0
 20
224.0
 30
0.0
 40
0.5
 50
270.0
 51
0.0
  0
LINE
  5
1B35A
  8
DANMEN
  6
CONTINUOUS
 10
82.65
 20
226.5
 30
0.0
 11
83.5
 21
226.5
 31
0.0
  0
LINE
  5
1B35D
  8
DANMEN
  6
DASHED
 10
81.0
 20
223.5
 30
0.0
 11
81.0
 21
222.800003
 31
0.0
  0
LINE
  5
1B35F
  8
DANMEN
  6
DASHED
 10
83.499991
 20
226.499972
 30
0.0
 11
83.130743
 21
226.752271
 31
0.0
  0
LINE
  5
1B360
  8
DANMEN
  6
DASHED
 10
83.5
 20
223.5
 30
0.0
 11
83.5
 21
226.499972
 31
0.0
  0
LINE
  5
1B361
  8
DANMEN
  6
DASHED
 10
84.5
 20
228.100003
 30
0.0
 11
84.5
 21
224.0
 31
0.0
  0
ARC
  5
1B362
  8
DANMEN
  6
DASHED
 10
85.0
 20
224.0
 30
0.0
 40
0.5
 50
180.0
 51
270.0
  0
LINE
  5
1B367
  8
DANMEN
  6
CONTINUOUS
 10
83.5
 20
226.5
 30
0.0
 11
83.5
 21
224.0
 31
0.0
  0
LINE
  5
1B368
  8
DANMEN
  6
CONTINUOUS
 10
76.5
 20
231.5
 30
0.0
 11
81.0
 21
231.5
 31
0.0
  0
LINE
  5
1B369
  8
DANMEN
  6
CONTINUOUS
 10
76.800003
 20
230.7
 30
0.0
 11
81.0
 21
230.7
 31
0.0
  0
LINE
  5
1B36A
  8
DANMEN
  6
CONTINUOUS
 10
74.327478
 20
231.8
 30
0.0
 11
76.0
 21
231.8
 31
0.0
  0
LINE
  5
1B36B
  8
DANMEN
  6
CONTINUOUS
 10
74.582434
 20
231.2
 30
0.0
 11
75.2
 21
231.2
 31
0.0
  0
ARC
  5
1B36C
  8
DANMEN
  6
CONTINUOUS
 10
74.327478
 20
231.6
 30
0.0
 40
0.2
 50
90.0
 51
155.02609
  0
LINE
  5
1B36F
  8
DANMEN
  6
CONTINUOUS
 10
72.499998
 20
231.5
 30
0.0
 11
71.549998
 21
231.5
 31
0.0
  0
ARC
  5
1B370
  8
DANMEN
  6
CONTINUOUS
 10
72.499998
 20
231.0
 30
0.0
 40
0.5
 50
0.0
 51
90.0
  0
ARC
  5
1B372
  8
DANMEN
  6
CONTINUOUS
 10
71.549998
 20
231.0
 30
0.0
 40
0.5
 50
90.0
 51
180.0
  0
LINE
  5
1B374
  8
DANMEN
  6
CONTINUOUS
 10
78.0
 20
230.3
 30
0.0
 11
78.0
 21
229.3
 31
0.0
  0
LINE
  5
1B375
  8
DANMEN
  6
CONTINUOUS
 10
77.2
 20
230.5
 30
0.0
 11
77.8
 21
230.5
 31
0.0
  0
LINE
  5
1B376
  8
DANMEN
  6
CONTINUOUS
 10
77.0
 20
230.3
 30
0.0
 11
77.0
 21
229.3
 31
0.0
  0
ARC
  5
1B378
  8
DANMEN
  6
CONTINUOUS
 10
77.8
 20
230.3
 30
0.0
 40
0.2
 50
0.0
 51
89.999982
  0
ARC
  5
1B37A
  8
DANMEN
  6
CONTINUOUS
 10
77.2
 20
230.3
 30
0.0
 40
0.2
 50
89.999982
 51
180.000019
  0
LINE
  5
1B37C
  8
DANMEN
  6
CONTINUOUS
 10
78.0
 20
229.3
 30
0.0
 11
77.2
 21
228.5
 31
0.0
  0
LINE
  5
1B37D
  8
DANMEN
  6
CONTINUOUS
 10
76.0
 20
229.3
 30
0.0
 11
77.0
 21
229.3
 31
0.0
  0
LINE
  5
1B37F
  8
DANMEN
  6
CONTINUOUS
 10
76.0
 20
231.8
 30
0.0
 11
76.0
 21
229.3
 31
0.0
  0
LINE
  5
1B385
  8
DANMEN
  6
CONTINUOUS
 10
76.0
 20
229.800003
 30
0.0
 11
76.0
 21
231.0
 31
0.0
  0
LINE
  5
1B386
  8
DANMEN
  6
CONTINUOUS
 10
76.800003
 20
229.300003
 30
0.0
 11
76.800003
 21
230.7
 31
0.0
  0
ARC
  5
1B387
  8
DANMEN
  6
CONTINUOUS
 10
76.5
 20
231.0
 30
0.0
 40
0.5
 50
89.999999
 51
179.999981
  0
ARC
  5
1B388
  8
DANMEN
  6
CONTINUOUS
 10
76.5
 20
229.800003
 30
0.0
 40
0.5
 50
179.999981
 51
270.000018
  0
LINE
  5
1B389
  8
DANMEN
  6
CONTINUOUS
 10
76.5
 20
229.300003
 30
0.0
 11
76.800003
 21
229.300003
 31
0.0
  0
ARC
  5
1B38D
  8
DANMEN
  6
DASHED
 10
84.7
 20
230.300003
 30
0.0
 40
0.3
 50
347.000479
 51
157.011468
  0
LINE
  5
1B38E
  8
DANMEN
  6
DASHED
 10
97.5
 20
228.100003
 30
0.0
 11
97.007688
 21
230.23252
 31
0.0
  0
LINE
  5
1B38F
  8
DANMEN
  6
DASHED
 10
98.976176
 20
227.117136
 30
0.0
 11
97.576175
 21
230.417167
 31
0.0
  0
LINE
  5
1B390
  8
DANMEN
  6
CONTINUOUS
 10
94.949994
 20
221.250092
 30
0.0
 11
97.449985
 21
221.250092
 31
0.0
  0
ARC
  5
1B391
  8
DANMEN
  6
CONTINUOUS
 10
94.949994
 20
219.750092
 30
0.0
 40
1.5
 50
89.999982
 51
179.999964
  0
ARC
  5
1B394
  8
DANMEN
  6
DASHED
 10
100.5
 20
222.800003
 30
0.0
 40
0.5
 50
270.000018
 51
0.0
  0
ARC
  5
1B395
  8
DANMEN
  6
CONTINUOUS
 10
97.449985
 20
222.750092
 30
0.0
 40
1.5
 50
270.000018
 51
0.0
  0
LINE
  5
1B397
  8
DANMEN
  6
DASHED
 10
98.5
 20
223.5
 30
0.0
 11
101.0
 21
223.5
 31
0.0
  0
LINE
  5
1B398
  8
DANMEN
  6
DASHED
 10
98.5
 20
223.5
 30
0.0
 11
101.0
 21
223.5
 31
0.0
  0
LINE
  5
1B399
  8
DANMEN
  6
CONTINUOUS
 10
99.206061
 20
226.142044
 30
0.0
 11
99.5
 21
225.15
 31
0.0
  0
ARC
  5
1B39C
  8
DANMEN
  6
DASHED
 10
97.0
 20
224.0
 30
0.0
 40
0.5
 50
270.0
 51
0.0
  0
LINE
  5
1B39D
  8
DANMEN
  6
DASHED
 10
97.5
 20
228.100003
 30
0.0
 11
97.5
 21
224.0
 31
0.0
  0
LINE
  5
1B39E
  8
DANMEN
  6
DASHED
 10
98.5
 20
223.5
 30
0.0
 11
98.5
 21
226.499972
 31
0.0
  0
LINE
  5
1B39F
  8
DANMEN
  6
DASHED
 10
98.500009
 20
226.499972
 30
0.0
 11
98.869257
 21
226.752271
 31
0.0
  0
ARC
  5
1B3A0
  8
DANMEN
  6
DASHED
 10
98.700001
 20
226.999972
 30
0.0
 40
0.3
 50
304.343976
 51
22.988532
  0
ARC
  5
1B3A5
  8
DANMEN
  6
CONTINUOUS
 10
98.726662
 20
226.0
 30
0.0
 40
0.5
 50
16.504361
 51
90.0
  0
LINE
  5
1B3A6
  8
DANMEN
  6
CONTINUOUS
 10
98.726662
 20
226.5
 30
0.0
 11
98.5
 21
226.5
 31
0.0
  0
LINE
  5
1B3A7
  8
DANMEN
  6
CONTINUOUS
 10
98.5
 20
226.5
 30
0.0
 11
98.5
 21
224.0
 31
0.0
  0
ARC
  5
1B3A8
  8
DANMEN
  6
CONTINUOUS
 10
99.0
 20
224.0
 30
0.0
 40
0.5
 50
180.0
 51
270.0
  0
LINE
  5
1B3AA
  8
DANMEN
  6
DASHED
 10
101.0
 20
223.5
 30
0.0
 11
101.0
 21
222.800003
 31
0.0
  0
LINE
  5
1B3AB
  8
DANMEN
  6
CONTINUOUS
 10
88.449998
 20
230.5
 30
0.0
 11
93.449986
 21
230.5
 31
0.0
  0
ARC
  5
1B3AE
  8
DANMEN
  6
DASHED
 10
97.3
 20
230.300003
 30
0.0
 40
0.3
 50
22.988532
 51
192.999521
  0
LINE
  5
1B3B0
  8
DANMEN
  6
CONTINUOUS
 10
79.65
 20
248.15
 30
0.0
 11
87.7
 21
248.15
 31
0.0
  0
ARC
  5
1B3B1
  8
DANMEN
  6
CONTINUOUS
 10
78.65
 20
251.100012
 30
0.0
 40
1.0
 50
0.0
 51
90.0
  0
LINE
  5
1B3B2
  8
DANMEN
  6
CONTINUOUS
 10
77.0
 20
246.5
 30
0.0
 11
81.0
 21
246.5
 31
0.0
  0
ARC
  5
1B3B5
  8
DANMEN
  6
CONTINUOUS
 10
77.0
 20
247.0
 30
0.0
 40
0.5
 50
180.000019
 51
270.000001
  0
LINE
  5
1B3B6
  8
DANMEN
  6
CONTINUOUS
 10
76.5
 20
247.3
 30
0.0
 11
76.5
 21
247.0
 31
0.0
  0
LINE
  5
1B3B7
  8
DANMEN
  6
CONTINUOUS
 10
76.5
 20
247.3
 30
0.0
 11
78.0
 21
247.3
 31
0.0
  0
LINE
  5
1B3B8
  8
DANMEN
  6
CONTINUOUS
 10
78.0
 20
250.450012
 30
0.0
 11
78.0
 21
247.3
 31
0.0
  0
LINE
  5
1B3BA
  8
DANMEN
  6
CONTINUOUS
 10
79.65
 20
251.100012
 30
0.0
 11
79.65
 21
248.15
 31
0.0
  0
ARC
  5
1B3BB
  8
DANMEN
  6
CONTINUOUS
 10
90.7
 20
250.530306
 30
0.0
 40
2.0
 50
128.293195
 51
180.0
  0
LINE
  5
1B3BC
  8
DANMEN
  6
CONTINUOUS
 10
90.9
 20
251.536932
 30
0.0
 11
90.9
 21
251.8
 31
0.0
  0
ARC
  5
1B3BD
  8
DANMEN
  6
CONTINUOUS
 10
93.3
 20
250.530306
 30
0.0
 40
2.0
 50
0.0
 51
51.706523
  0
LINE
  5
1B3BE
  8
DANMEN
  6
CONTINUOUS
 10
93.1
 20
251.536932
 30
0.0
 11
93.1
 21
251.8
 31
0.0
  0
ARC
  5
1B3BF
  8
DANMEN
  6
CONTINUOUS
 10
96.3
 20
249.15
 30
0.0
 40
1.0
 50
180.0
 51
270.0
  0
LINE
  5
1B3C0
  8
DANMEN
  6
CONTINUOUS
 10
92.8
 20
248.2
 30
0.0
 11
91.2
 21
248.2
 31
0.0
  0
ARC
  5
1B3C1
  8
DANMEN
  6
CONTINUOUS
 10
87.7
 20
249.15
 30
0.0
 40
1.0
 50
270.0
 51
0.0
  0
LINE
  5
1B3C2
  8
DANMEN
  6
CONTINUOUS
 10
88.7
 20
250.530306
 30
0.0
 11
88.7
 21
249.15
 31
0.0
  0
ARC
  5
1B3C3
  8
DANMEN
  6
CONTINUOUS
 10
91.2
 20
250.446061
 30
0.0
 40
1.0
 50
114.624318
 51
180.0
  0
ARC
  5
1B3C4
  8
DANMEN
  6
CONTINUOUS
 10
90.7
 20
251.536932
 30
0.0
 40
0.2
 50
294.624318
 51
0.0
  0
LINE
  5
1B3C5
  8
DANMEN
  6
CONTINUOUS
 10
90.2
 20
250.446061
 30
0.0
 11
90.2
 21
249.2
 31
0.0
  0
ARC
  5
1B3C6
  8
DANMEN
  6
CONTINUOUS
 10
91.2
 20
249.2
 30
0.0
 40
1.0
 50
180.0
 51
270.0
  0
ARC
  5
1B3C7
  8
DANMEN
  6
CONTINUOUS
 10
93.3
 20
251.536932
 30
0.0
 40
0.2
 50
180.0
 51
245.375682
  0
ARC
  5
1B3C8
  8
DANMEN
  6
CONTINUOUS
 10
92.8
 20
250.446061
 30
0.0
 40
1.0
 50
0.0
 51
65.375682
  0
ARC
  5
1B3C9
  8
DANMEN
  6
CONTINUOUS
 10
92.8
 20
249.2
 30
0.0
 40
1.0
 50
270.0
 51
0.0
  0
LINE
  5
1B3CA
  8
DANMEN
  6
CONTINUOUS
 10
95.3
 20
250.530306
 30
0.0
 11
95.3
 21
249.15
 31
0.0
  0
LINE
  5
1B3CB
  8
DANMEN
  6
CONTINUOUS
 10
93.8
 20
250.446061
 30
0.0
 11
93.8
 21
249.2
 31
0.0
  0
ARC
  5
1B3CC
  8
DANMEN
  6
CONTINUOUS
 10
90.6
 20
251.8
 30
0.0
 40
0.3
 50
0.0
 51
90.0
  0
LINE
  5
1B3CD
  8
DANMEN
  6
CONTINUOUS
 10
90.6
 20
252.100006
 30
0.0
 11
89.460628
 21
252.100006
 31
0.0
  0
LINE
  5
1B3CE
  8
DANMEN
  6
CONTINUOUS
 10
94.539379
 20
252.1
 30
0.0
 11
93.4
 21
252.1
 31
0.0
  0
ARC
  5
1B3CF
  8
DANMEN
  6
CONTINUOUS
 10
93.4
 20
251.8
 30
0.0
 40
0.3
 50
90.0
 51
180.0
  0
LINE
  5
1B3D0
  8
DANMEN
  6
CONTINUOUS
 10
110.350006
 20
246.5
 30
0.0
 11
110.350006
 21
225.15
 31
0.0
  0
LINE
  5
1B3D1
  8
DANMEN
  6
CONTINUOUS
 10
112.0
 20
258.0
 30
0.0
 11
112.0
 21
224.0
 31
0.0
  0
ARC
  5
1B3D2
  8
DANMEN
  6
CONTINUOUS
 10
111.5
 20
224.0
 30
0.0
 40
0.5
 50
270.000018
 51
0.0
  0
LINE
  5
1B3D5
  8
DANMEN
  6
CONTINUOUS
 10
108.0
 20
223.5
 30
0.0
 11
108.539155
 21
223.462299
 31
0.0
  0
ARC
  5
1B3D6
  8
DANMEN
  6
CONTINUOUS
 10
108.504277
 20
222.963517
 30
0.0
 40
0.5
 50
0.83042
 51
86.0
  0
LINE
  5
1B3D9
  8
DANMEN
  6
CONTINUOUS
 10
110.350006
 20
256.850006
 30
0.0
 11
110.350006
 21
248.15
 31
0.0
  0
ARC
  5
1B3DA
  8
DANMEN
  6
CONTINUOUS
 10
111.5
 20
258.0
 30
0.0
 40
0.5
 50
0.0
 51
89.999982
  0
LINE
  5
1B3DB
  8
DANMEN
  6
CONTINUOUS
 10
106.0
 20
258.0
 30
0.0
 11
106.0
 21
257.350006
 31
0.0
  0
LINE
  5
1B3DC
  8
DANMEN
  6
CONTINUOUS
 10
106.5
 20
256.850006
 30
0.0
 11
110.350006
 21
256.850006
 31
0.0
  0
ARC
  5
1B3DD
  8
DANMEN
  6
CONTINUOUS
 10
106.5
 20
257.350006
 30
0.0
 40
0.5
 50
180.000019
 51
270.000001
  0
LINE
  5
1B3DE
  8
DANMEN
  6
CONTINUOUS
 10
106.5
 20
258.5
 30
0.0
 11
111.5
 21
258.5
 31
0.0
  0
ARC
  5
1B3DF
  8
DANMEN
  6
CONTINUOUS
 10
106.5
 20
258.0
 30
0.0
 40
0.5
 50
89.999982
 51
180.000019
  0
TEXT
  5
1B3E1
  8
SUNPO
  6
CONTINUOUS
 10
349.577611
 20
120.82
 30
0.0
 40
2.5
  1
2.5
 50
90.0
  7
MX_NOTE_STANDARD
  0
LINE
  5
1B3E2
  8
DANMEN
  6
CONTINUOUS
 10
313.000003
 20
148.5
 30
0.0
 11
313.000003
 21
121.1
 31
0.0
  0
LINE
  5
1B3E3
  8
DANMEN
  6
CONTINUOUS
 10
311.800003
 20
125.5
 30
0.0
 11
311.800003
 21
121.1
 31
0.0
  0
LINE
  5
1B3E4
  8
DANMEN
  6
CONTINUOUS
 10
291.500003
 20
125.5
 30
0.0
 11
291.500003
 21
121.5
 31
0.0
  0
LINE
  5
1B3E5
  8
DANMEN
  6
CONTINUOUS
 10
293.000003
 20
125.5
 30
0.0
 11
293.000003
 21
121.0
 31
0.0
  0
LINE
  5
1B3E6
  8
DANMEN
  6
CONTINUOUS
 10
389.649994
 20
154.850006
 30
0.0
 11
389.649994
 21
88.149994
 31
0.0
  0
LINE
  5
1B3E7
  8
DANMEN
  6
CONTINUOUS
 10
388.0
 20
155.400003
 30
0.0
 11
388.0
 21
117.5
 31
0.0
  0
LINE
  5
1B3E8
  8
DANMEN
  6
CONTINUOUS
 10
267.845226
 20
125.3
 30
0.0
 11
265.58967
 21
121.8
 31
0.0
  0
LINE
  5
1B3E9
  8
DANMEN
  6
CONTINUOUS
 10
267.004655
 20
125.841701
 30
0.0
 11
264.400002
 21
121.8
 31
0.0
  0
LINE
  5
1B3EA
  8
DANMEN
  6
CONTINUOUS
 10
268.800003
 20
125.3
 30
0.0
 11
268.800003
 21
121.8
 31
0.0
  0
LINE
  5
1B3EB
  8
DANMEN
  6
CONTINUOUS
 10
269.800003
 20
125.7
 30
0.0
 11
269.800003
 21
121.0
 31
0.0
  0
LINE
  5
1B3EC
  8
SUNPO
  6
CONTINUOUS
 10
330.0
 20
117.5
 30
0.0
 11
330.0
 21
125.5
 31
0.0
  0
LINE
  5
1B3ED
  8
SUNPO
  6
CONTINUOUS
 10
350.577611
 20
117.5
 30
0.0
 11
350.577611
 21
126.82
 31
0.0
  0
LINE
  5
1B3EE
  8
SUNPO
  6
CONTINUOUS
 10
259.364828
 20
156.5
 30
0.0
 11
259.364828
 21
86.5
 31
0.0
  0
LINE
  5
1B3EF
  8
SUNPO
  6
CONTINUOUS
 10
153.0
 20
99.5
 30
0.0
 11
153.0
 21
162.5
 31
0.0
  0
LINE
  5
1B3F0
  8
SUNPO
  6
CONTINUOUS
 10
22.0
 20
59.5
 30
0.0
 11
22.0
 21
162.5
 31
0.0
  0
LINE
  5
1B3F1
  8
SUNPO
  6
CONTINUOUS
 10
39.0
 20
50.399994
 30
0.0
 11
39.0
 21
168.5
 31
0.0
  0
LINE
  5
1B3F2
  8
SUNPO
  6
CONTINUOUS
 10
163.0
 20
151.999252
 30
0.0
 11
163.0
 21
99.5
 31
0.0
  0
TEXT
  5
1B3F3
  8
SUNPO
  6
CONTINUOUS
 10
329.0
 20
120.666667
 30
0.0
 40
2.5
  1
8
 50
90.0
  7
MX_NOTE_STANDARD
  0
TEXT
  5
1B3F4
  8
SUNPO
  6
CONTINUOUS
 10
329.0
 20
70.416667
 30
0.0
 40
2.5
  1
28
 50
90.0
  7
MX_NOTE_STANDARD
  0
TEXT
  5
1B3F5
  8
SUNPO
  6
CONTINUOUS
 10
329.0
 20
100.790689
 30
0.0
 40
2.5
  1
31
 50
90.0
  7
MX_NOTE_STANDARD
  0
LINE
  5
1B3F6
  8
SUNPO
  6
CONTINUOUS
 10
313.500004
 20
58.5
 30
0.0
 11
370.704887
 21
58.5
 31
0.0
  0
LINE
  5
1B3F7
  8
SUNPO
  6
CONTINUOUS
 10
313.0
 20
32.0
 30
0.0
 11
373.0
 21
32.0
 31
0.0
  0
LINE
  5
1B3F8
  8
SUNPO
  6
CONTINUOUS
 10
308.684322
 20
20.0
 30
0.0
 11
373.0
 21
20.0
 31
0.0
  0
LINE
  5
1B3F9
  8
SUNPO
  6
CONTINUOUS
 10
57.0
 20
30.5
 30
0.0
 11
163.0
 21
30.5
 31
0.0
  0
LINE
  5
1B3FB
  8
DANMEN
  6
CONTINUOUS
 10
336.5
 20
88.15
 30
0.0
 11
313.0
 21
88.15
 31
0.0
  0
LINE
  5
1B3FC
  8
DANMEN
  6
CONTINUOUS
 10
336.5
 20
97.5
 30
0.0
 11
313.0
 21
97.5
 31
0.0
  0
LINE
  5
1B3FD
  8
DANMEN
  6
CONTINUOUS
 10
336.5
 20
99.5
 30
0.0
 11
313.0
 21
99.5
 31
0.0
  0
LINE
  5
1B3FE
  8
DANMEN
  6
CONTINUOUS
 10
336.5
 20
115.5
 30
0.0
 11
313.0
 21
115.5
 31
0.0
  0
LINE
  5
1B3FF
  8
DANMEN
  6
CONTINUOUS
 10
336.5
 20
117.5
 30
0.0
 11
313.0
 21
117.5
 31
0.0
  0
LINE
  5
1B400
  8
DANMEN
  6
CONTINUOUS
 10
336.5
 20
105.000014
 30
0.0
 11
306.0
 21
105.000014
 31
0.0
  0
LINE
  5
1B401
  8
DANMEN
  6
CONTINUOUS
 10
336.5
 20
105.500014
 30
0.0
 11
306.0
 21
105.500014
 31
0.0
  0
LINE
  5
1B402
  8
DANMEN
  6
CONTINUOUS
 10
336.5
 20
110.000002
 30
0.0
 11
306.0
 21
110.000002
 31
0.0
  0
LINE
  5
1B403
  8
DANMEN
  6
CONTINUOUS
 10
336.5
 20
109.500002
 30
0.0
 11
306.0
 21
109.500002
 31
0.0
  0
LINE
  5
1B404
  8
DANMEN
  6
CONTINUOUS
 10
336.5
 20
122.5
 30
0.0
 11
313.0
 21
122.5
 31
0.0
  0
LINE
  5
1B405
  8
DANMEN
  6
CONTINUOUS
 10
336.5
 20
86.5
 30
0.0
 11
313.0
 21
86.5
 31
0.0
  0
LINE
  5
1B406
  8
DANMEN
  6
CONTINUOUS
 10
266.500003
 20
80.5
 30
0.0
 11
268.000003
 21
65.5
 31
0.0
  0
LINE
  5
1B407
  8
DANMEN
  6
CONTINUOUS
 10
309.500003
 20
90.5
 30
0.0
 11
266.500003
 21
90.5
 31
0.0
  0
LINE
  5
1B408
  8
DANMEN
  6
CONTINUOUS
 10
276.05
 20
92.449997
 30
0.0
 11
264.95
 21
92.449997
 31
0.0
  0
LINE
  5
1B409
  8
DANMEN
  6
CONTINUOUS
 10
311.000003
 20
58.5
 30
0.0
 11
265.000003
 21
58.5
 31
0.0
  0
LINE
  5
1B40A
  8
DANMEN
  6
CONTINUOUS
 10
268.750003
 20
117.5
 30
0.0
 11
264.200003
 21
117.5
 31
0.0
  0
LINE
  5
1B40B
  8
DANMEN
  6
CONTINUOUS
 10
276.050006
 20
115.55
 30
0.0
 11
264.65
 21
115.55
 31
0.0
  0
LINE
  5
1B40C
  8
DANMEN
  6
CONTINUOUS
 10
265.58967
 20
121.8
 30
0.0
 11
268.800003
 21
121.8
 31
0.0
  0
LINE
  5
1B40D
  8
DANMEN
  6
CONTINUOUS
 10
268.400003
 20
120.0
 30
0.0
 11
267.600003
 21
120.0
 31
0.0
  0
LINE
  5
1B40E
  8
DANMEN
  6
CONTINUOUS
 10
268.600003
 20
119.0
 30
0.0
 11
267.600003
 21
119.0
 31
0.0
  0
LINE
  5
1B40F
  8
DANMEN
  6
CONTINUOUS
 10
267.600003
 20
121.0
 30
0.0
 11
269.800003
 21
121.0
 31
0.0
  0
LINE
  5
1B410
  8
DANMEN
  6
CONTINUOUS
 10
263.000003
 20
60.5
 30
0.0
 11
263.000003
 21
122.0
 31
0.0
  0
ARC
  5
1B411
  8
DANMEN
  6
CONTINUOUS
 10
265.000003
 20
60.5
 30
0.0
 40
2.0
 50
179.999981
 51
270.000018
  0
LINE
  5
1B412
  8
DANMEN
  6
CONTINUOUS
 10
264.95
 20
92.449997
 30
0.0
 11
264.95
 21
114.55
 31
0.0
  0
LINE
  5
1B413
  8
DANMEN
  6
CONTINUOUS
 10
266.500003
 20
90.5
 30
0.0
 11
266.500003
 21
80.5
 31
0.0
  0
LINE
  5
1B414
  8
DANMEN
  6
CONTINUOUS
 10
258.000012
 20
88.15
 30
0.0
 11
263.0
 21
88.15
 31
0.0
  0
LINE
  5
1B415
  8
DANMEN
  6
CONTINUOUS
 10
258.000012
 20
86.5
 30
0.0
 11
263.0
 21
86.5
 31
0.0
  0
LINE
  5
1B416
  8
DANMEN
  6
CONTINUOUS
 10
258.000012
 20
97.5
 30
0.0
 11
263.0
 21
97.5
 31
0.0
  0
LINE
  5
1B418
  8
DANMEN
  6
CONTINUOUS
 10
258.000012
 20
122.5
 30
0.0
 11
263.000003
 21
122.5
 31
0.0
  0
LINE
  5
1B419
  8
DANMEN
  6
CONTINUOUS
 10
264.200003
 20
117.5
 30
0.0
 11
264.200003
 21
120.199997
 31
0.0
  0
LINE
  5
1B41A
  8
DANMEN
  6
CONTINUOUS
 10
264.65
 20
114.55
 30
0.0
 11
264.65
 21
115.55
 31
0.0
  0
LINE
  5
1B41B
  8
DANMEN
  6
CONTINUOUS
 10
264.95
 20
114.55
 30
0.0
 11
264.65
 21
114.55
 31
0.0
  0
LINE
  5
1B41D
  8
DANMEN
  6
CONTINUOUS
 10
263.500003
 20
122.5
 30
0.0
 11
263.700003
 21
122.5
 31
0.0
  0
ARC
  5
1B41E
  8
DANMEN
  6
CONTINUOUS
 10
263.500003
 20
122.0
 30
0.0
 40
0.5
 50
90.0
 51
180.0
  0
ARC
  5
1B420
  8
DANMEN
  6
CONTINUOUS
 10
263.700003
 20
122.0
 30
0.0
 40
0.5
 50
0.0
 51
90.0
  0
LINE
  5
1B421
  8
DANMEN
  6
CONTINUOUS
 10
264.200003
 20
121.0
 30
0.0
 11
264.200003
 21
122.0
 31
0.0
  0
ARC
  5
1B422
  8
DANMEN
  6
CONTINUOUS
 10
264.750003
 20
120.5
 30
0.0
 40
0.5
 50
360.0
 51
89.999982
  0
LINE
  5
1B423
  8
DANMEN
  6
CONTINUOUS
 10
264.750003
 20
121.0
 30
0.0
 11
264.200003
 21
121.0
 31
0.0
  0
LINE
  5
1B424
  8
DANMEN
  6
CONTINUOUS
 10
265.250003
 20
120.199997
 30
0.0
 11
264.200003
 21
120.199997
 31
0.0
  0
LINE
  5
1B425
  8
DANMEN
  6
CONTINUOUS
 10
265.250003
 20
120.199997
 30
0.0
 11
265.250003
 21
120.5
 31
0.0
  0
LINE
  5
1B427
  8
DANMEN
  6
CONTINUOUS
 10
265.400002
 20
121.0
 30
0.0
 11
265.400002
 21
120.0
 31
0.0
  0
LINE
  5
1B428
  8
DANMEN
  6
CONTINUOUS
 10
264.600002
 20
120.0
 30
0.0
 11
265.400002
 21
120.0
 31
0.0
  0
LINE
  5
1B429
  8
DANMEN
  6
CONTINUOUS
 10
264.400002
 20
119.8
 30
0.0
 11
264.400002
 21
119.0
 31
0.0
  0
ARC
  5
1B42A
  8
DANMEN
  6
CONTINUOUS
 10
264.600002
 20
119.8
 30
0.0
 40
0.2
 50
89.999982
 51
180.000019
  0
LINE
  5
1B42B
  8
DANMEN
  6
CONTINUOUS
 10
267.600003
 20
121.0
 30
0.0
 11
267.600003
 21
120.0
 31
0.0
  0
LINE
  5
1B42C
  8
DANMEN
  6
CONTINUOUS
 10
264.400002
 20
121.0
 30
0.0
 11
265.400002
 21
121.0
 31
0.0
  0
LINE
  5
1B432
  8
DANMEN
  6
CONTINUOUS
 10
264.400002
 20
121.0
 30
0.0
 11
264.400002
 21
121.8
 31
0.0
  0
LINE
  5
1B434
  8
DANMEN
  6
CONTINUOUS
 10
265.900002
 20
119.5
 30
0.0
 11
267.100003
 21
119.5
 31
0.0
  0
LINE
  5
1B436
  8
DANMEN
  6
CONTINUOUS
 10
265.400002
 20
119.0
 30
0.0
 11
264.400002
 21
119.0
 31
0.0
  0
LINE
  5
1B43B
  8
DANMEN
  6
CONTINUOUS
 10
267.600003
 20
119.0
 30
0.0
 11
267.100003
 21
119.5
 31
0.0
  0
LINE
  5
1B43C
  8
DANMEN
  6
CONTINUOUS
 10
265.900002
 20
119.5
 30
0.0
 11
265.400002
 21
119.0
 31
0.0
  0
LINE
  5
1B440
  8
DANMEN
  6
CONTINUOUS
 10
309.500003
 20
80.5
 30
0.0
 11
308.000003
 21
65.5
 31
0.0
  0
LINE
  5
1B441
  8
DANMEN
  6
CONTINUOUS
 10
313.000003
 20
60.5
 30
0.0
 11
313.000003
 21
99.5
 31
0.0
  0
LINE
  5
1B442
  8
DANMEN
  6
CONTINUOUS
 10
308.000003
 20
65.5
 30
0.0
 11
268.000003
 21
65.5
 31
0.0
  0
ARC
  5
1B445
  8
DANMEN
  6
CONTINUOUS
 10
311.000003
 20
60.5
 30
0.0
 40
2.0
 50
270.000018
 51
0.0
  0
LINE
  5
1B446
  8
DANMEN
  6
CONTINUOUS
 10
308.0
 20
115.55
 30
0.0
 11
298.300003
 21
115.55
 31
0.0
  0
LINE
  5
1B447
  8
DANMEN
  6
CONTINUOUS
 10
312.499999
 20
117.5
 30
0.0
 11
296.000003
 21
117.5
 31
0.0
  0
LINE
  5
1B448
  8
DANMEN
  6
CONTINUOUS
 10
311.500006
 20
92.499997
 30
0.0
 11
288.000003
 21
92.499997
 31
0.0
  0
LINE
  5
1B449
  8
DANMEN
  6
CONTINUOUS
 10
293.0
 20
122.5
 30
0.0
 11
311.8
 21
122.5
 31
0.0
  0
LINE
  5
1B44A
  8
DANMEN
  6
CONTINUOUS
 10
288.000003
 20
100.799994
 30
0.0
 11
306.000003
 21
100.799994
 31
0.0
  0
LINE
  5
1B44B
  8
DANMEN
  6
CONTINUOUS
 10
306.000003
 20
100.799994
 30
0.0
 11
288.000003
 21
110.799994
 31
0.0
  0
LINE
  5
1B44C
  8
DANMEN
  6
CONTINUOUS
 10
288.000003
 20
110.799994
 30
0.0
 11
306.000003
 21
110.799994
 31
0.0
  0
LINE
  5
1B44D
  8
DANMEN
  6
CONTINUOUS
 10
288.000003
 20
92.499997
 30
0.0
 11
288.000003
 21
110.799994
 31
0.0
  0
LINE
  5
1B44E
  8
DANMEN
  6
CONTINUOUS
 10
285.700006
 20
92.999997
 30
0.0
 11
285.700006
 21
115.0
 31
0.0
  0
LINE
  5
1B44F
  8
DANMEN
  6
CONTINUOUS
 10
285.700006
 20
92.999997
 30
0.0
 11
277.25
 21
92.999997
 31
0.0
  0
LINE
  5
1B450
  8
DANMEN
  6
CONTINUOUS
 10
277.25
 20
92.999997
 30
0.0
 11
277.25
 21
94.999997
 31
0.0
  0
LINE
  5
1B451
  8
DANMEN
  6
CONTINUOUS
 10
276.05
 20
92.449997
 30
0.0
 11
276.05
 21
95.499997
 31
0.0
  0
ARC
  5
1B452
  8
DANMEN
  6
CONTINUOUS
 10
276.75
 20
94.999997
 30
0.0
 40
0.5
 50
0.0
 51
90.0
  0
LINE
  5
1B453
  8
DANMEN
  6
CONTINUOUS
 10
276.75
 20
95.499997
 30
0.0
 11
276.05
 21
95.499997
 31
0.0
  0
LINE
  5
1B454
  8
DANMEN
  6
CONTINUOUS
 10
277.550003
 20
117.5
 30
0.0
 11
296.000003
 21
117.5
 31
0.0
  0
LINE
  5
1B455
  8
DANMEN
  6
CONTINUOUS
 10
281.550006
 20
120.7
 30
0.0
 11
287.335151
 21
122.412336
 31
0.0
  0
LINE
  5
1B456
  8
DANMEN
  6
CONTINUOUS
 10
287.250006
 20
123.0
 30
0.0
 11
277.050003
 21
123.0
 31
0.0
  0
LINE
  5
1B457
  8
DANMEN
  6
CONTINUOUS
 10
277.25
 20
115.0
 30
0.0
 11
285.700006
 21
115.0
 31
0.0
  0
LINE
  5
1B458
  8
DANMEN
  6
CONTINUOUS
 10
281.800003
 20
120.0
 30
0.0
 11
292.000003
 21
120.0
 31
0.0
  0
LINE
  5
1B459
  8
DANMEN
  6
CONTINUOUS
 10
287.500003
 20
122.3
 30
0.0
 11
281.714858
 21
120.587664
 31
0.0
  0
ARC
  5
1B45A
  8
DANMEN
  6
CONTINUOUS
 10
276.75
 20
112.999997
 30
0.0
 40
0.5
 50
270.0
 51
0.0
  0
LINE
  5
1B45B
  8
DANMEN
  6
CONTINUOUS
 10
276.050006
 20
117.5
 30
0.0
 11
269.750003
 21
117.5
 31
0.0
  0
LINE
  5
1B45C
  8
DANMEN
  6
CONTINUOUS
 10
269.800003
 20
122.5
 30
0.0
 11
276.050006
 21
122.5
 31
0.0
  0
LINE
  5
1B45D
  8
DANMEN
  6
CONTINUOUS
 10
268.750003
 20
117.5
 30
0.0
 11
268.750003
 21
120.199997
 31
0.0
  0
LINE
  5
1B45E
  8
DANMEN
  6
CONTINUOUS
 10
269.750003
 20
117.5
 30
0.0
 11
269.750003
 21
120.5
 31
0.0
  0
ARC
  5
1B45F
  8
DANMEN
  6
CONTINUOUS
 10
269.250003
 20
120.5
 30
0.0
 40
0.5
 50
360.0
 51
89.999982
  0
ARC
  5
1B460
  8
DANMEN
  6
CONTINUOUS
 10
268.250003
 20
120.5
 30
0.0
 40
0.5
 50
89.999982
 51
180.000019
  0
LINE
  5
1B461
  8
DANMEN
  6
CONTINUOUS
 10
268.750003
 20
120.199997
 30
0.0
 11
267.750003
 21
120.199997
 31
0.0
  0
LINE
  5
1B462
  8
DANMEN
  6
CONTINUOUS
 10
267.750003
 20
120.199997
 30
0.0
 11
267.750003
 21
120.5
 31
0.0
  0
LINE
  5
1B463
  8
DANMEN
  6
CONTINUOUS
 10
269.250003
 20
121.0
 30
0.0
 11
268.250003
 21
121.0
 31
0.0
  0
LINE
  5
1B465
  8
DANMEN
  6
CONTINUOUS
 10
268.600003
 20
119.8
 30
0.0
 11
268.600003
 21
119.0
 31
0.0
  0
ARC
  5
1B466
  8
DANMEN
  6
CONTINUOUS
 10
268.400003
 20
119.8
 30
0.0
 40
0.2
 50
359.999981
 51
90.000037
  0
LINE
  5
1B469
  8
DANMEN
  6
CONTINUOUS
 10
276.050006
 20
117.5
 30
0.0
 11
276.050006
 21
122.0
 31
0.0
  0
LINE
  5
1B46A
  8
DANMEN
  6
CONTINUOUS
 10
277.550003
 20
117.5
 30
0.0
 11
277.550003
 21
121.5
 31
0.0
  0
LINE
  5
1B46B
  8
DANMEN
  6
CONTINUOUS
 10
277.25
 20
112.999997
 30
0.0
 11
277.25
 21
115.0
 31
0.0
  0
LINE
  5
1B46C
  8
DANMEN
  6
CONTINUOUS
 10
276.05
 20
112.499997
 30
0.0
 11
276.05
 21
115.55
 31
0.0
  0
LINE
  5
1B46D
  8
DANMEN
  6
CONTINUOUS
 10
276.75
 20
112.499997
 30
0.0
 11
276.05
 21
112.499997
 31
0.0
  0
LINE
  5
1B470
  8
DANMEN
  6
CONTINUOUS
 10
281.050006
 20
121.5
 30
0.0
 11
277.550003
 21
121.5
 31
0.0
  0
ARC
  5
1B471
  8
DANMEN
  6
CONTINUOUS
 10
277.050003
 20
122.0
 30
0.0
 40
1.0
 50
89.999982
 51
180.000019
  0
LINE
  5
1B472
  8
DANMEN
  6
CONTINUOUS
 10
281.550006
 20
120.7
 30
0.0
 11
281.050006
 21
120.7
 31
0.0
  0
LINE
  5
1B473
  8
DANMEN
  6
CONTINUOUS
 10
281.050006
 20
121.5
 30
0.0
 11
281.050006
 21
120.7
 31
0.0
  0
ARC
  5
1B476
  8
DANMEN
  6
CONTINUOUS
 10
281.800003
 20
120.3
 30
0.0
 40
0.3
 50
106.488148
 51
270.0
  0
LINE
  5
1B477
  8
DANMEN
  6
CONTINUOUS
 10
288.588049
 20
113.115608
 30
0.0
 11
289.499108
 21
111.8
 31
0.0
  0
LINE
  5
1B478
  8
DANMEN
  6
CONTINUOUS
 10
293.401086
 20
113.8
 30
0.0
 11
290.699108
 21
111.8
 31
0.0
  0
LINE
  5
1B479
  8
DANMEN
  6
CONTINUOUS
 10
288.000003
 20
111.999994
 30
0.0
 11
288.000003
 21
115.55
 31
0.0
  0
LINE
  5
1B47A
  8
DANMEN
  6
CONTINUOUS
 10
292.000003
 20
111.999994
 30
0.0
 11
293.598061
 21
111.680382
 31
0.0
  0
LINE
  5
1B47B
  8
DANMEN
  6
CONTINUOUS
 10
294.000003
 20
110.799994
 30
0.0
 11
288.000003
 21
110.799994
 31
0.0
  0
LINE
  5
1B47C
  8
DANMEN
  6
CONTINUOUS
 10
292.000003
 20
111.999994
 30
0.0
 11
288.000003
 21
111.999994
 31
0.0
  0
LINE
  5
1B47D
  8
DANMEN
  6
CONTINUOUS
 10
290.699108
 20
111.8
 30
0.0
 11
289.499108
 21
111.8
 31
0.0
  0
LINE
  5
1B481
  8
DANMEN
  6
CONTINUOUS
 10
294.000003
 20
111.190092
 30
0.0
 11
294.000003
 21
110.799994
 31
0.0
  0
ARC
  5
1B482
  8
DANMEN
  6
CONTINUOUS
 10
293.500003
 20
111.190092
 30
0.0
 40
0.5
 50
0.0
 51
78.690068
  0
LINE
  5
1B483
  8
DANMEN
  6
CONTINUOUS
 10
293.413124
 20
115.301883
 30
0.0
 11
290.436097
 21
113.098292
 31
0.0
  0
LINE
  5
1B484
  8
DANMEN
  6
CONTINUOUS
 10
294.000003
 20
115.55
 30
0.0
 11
288.000003
 21
115.55
 31
0.0
  0
ARC
  5
1B485
  8
DANMEN
  6
CONTINUOUS
 10
292.000003
 20
121.0
 30
0.0
 40
1.0
 50
270.000018
 51
0.0
  0
LINE
  5
1B487
  8
DANMEN
  6
CONTINUOUS
 10
288.499108
 20
113.400266
 30
0.0
 11
288.499108
 21
113.400136
 31
0.0
  0
LINE
  5
1B488
  8
DANMEN
  6
CONTINUOUS
 10
288.999108
 20
113.900136
 30
0.0
 11
289.242473
 21
113.900136
 31
0.0
  0
ARC
  5
1B489
  8
DANMEN
  6
CONTINUOUS
 10
288.999108
 20
113.400266
 30
0.0
 40
0.5
 50
180.0
 51
214.702622
  0
ARC
  5
1B48A
  8
DANMEN
  6
CONTINUOUS
 10
288.999108
 20
113.400136
 30
0.0
 40
0.5
 50
90.0
 51
180.0
  0
LINE
  5
1B48B
  8
DANMEN
  6
CONTINUOUS
 10
289.653532
 20
113.684794
 30
0.0
 11
290.010978
 21
113.168627
 31
0.0
  0
ARC
  5
1B48C
  8
DANMEN
  6
CONTINUOUS
 10
290.257613
 20
113.339422
 30
0.0
 40
0.3
 50
214.702622
 51
306.508792
  0
ARC
  5
1B48D
  8
DANMEN
  6
CONTINUOUS
 10
289.242473
 20
113.400136
 30
0.0
 40
0.5
 50
34.702622
 51
90.0
  0
LINE
  5
1B48E
  8
DANMEN
  6
CONTINUOUS
 10
288.000003
 20
121.5
 30
0.0
 11
291.500003
 21
121.5
 31
0.0
  0
LINE
  5
1B48F
  8
DANMEN
  6
CONTINUOUS
 10
291.500003
 20
122.5
 30
0.0
 11
287.473613
 21
122.5
 31
0.0
  0
ARC
  5
1B490
  8
DANMEN
  6
CONTINUOUS
 10
287.250006
 20
122.7
 30
0.0
 40
0.3
 50
286.488148
 51
90.0
  0
LINE
  5
1B491
  8
DANMEN
  6
CONTINUOUS
 10
287.500003
 20
122.3
 30
0.0
 11
288.000003
 21
122.3
 31
0.0
  0
LINE
  5
1B493
  8
DANMEN
  6
CONTINUOUS
 10
288.000003
 20
121.5
 30
0.0
 11
288.000003
 21
122.3
 31
0.0
  0
LINE
  5
1B498
  8
DANMEN
  6
CONTINUOUS
 10
297.300003
 20
113.8
 30
0.0
 11
293.401086
 21
113.8
 31
0.0
  0
LINE
  5
1B499
  8
DANMEN
  6
CONTINUOUS
 10
296.300003
 20
115.0
 30
0.0
 11
294.300003
 21
115.0
 31
0.0
  0
LINE
  5
1B49A
  8
DANMEN
  6
CONTINUOUS
 10
296.300003
 20
116.0
 30
0.0
 11
296.300003
 21
115.0
 31
0.0
  0
LINE
  5
1B49B
  8
DANMEN
  6
CONTINUOUS
 10
296.000003
 20
117.5
 30
0.0
 11
296.000003
 21
116.0
 31
0.0
  0
LINE
  5
1B49C
  8
DANMEN
  6
CONTINUOUS
 10
296.300003
 20
116.0
 30
0.0
 11
296.000003
 21
116.0
 31
0.0
  0
LINE
  5
1B49D
  8
DANMEN
  6
CONTINUOUS
 10
293.734317
 20
115.4
 30
0.0
 11
293.710597
 21
115.4
 31
0.0
  0
ARC
  5
1B49E
  8
DANMEN
  6
CONTINUOUS
 10
293.710597
 20
114.9
 30
0.0
 40
0.5
 50
90.0
 51
126.508792
  0
ARC
  5
1B49F
  8
DANMEN
  6
CONTINUOUS
 10
294.300003
 20
115.3
 30
0.0
 40
0.3
 50
199.471221
 51
270.0
  0
ARC
  5
1B4A1
  8
DANMEN
  6
CONTINUOUS
 10
293.734317
 20
115.1
 30
0.0
 40
0.3
 50
19.471221
 51
90.0
  0
LINE
  5
1B4A8
  8
DANMEN
  6
CONTINUOUS
 10
294.300003
 20
115.0
 30
0.0
 11
294.743935
 21
115.0
 31
0.0
  0
ARC
  5
1B4A9
  8
DANMEN
  6
CONTINUOUS
 10
295.500003
 20
115.792199
 30
0.0
 40
0.5
 50
299.396173
 51
0.0
  0
ARC
  5
1B4AA
  8
DANMEN
  6
CONTINUOUS
 10
294.743935
 20
116.0
 30
0.0
 40
1.0
 50
270.0
 51
296.565051
  0
LINE
  5
1B4AB
  8
DANMEN
  6
CONTINUOUS
 10
295.191148
 20
115.105573
 30
0.0
 11
295.745426
 21
115.356576
 31
0.0
  0
LINE
  5
1B4AC
  8
DANMEN
  6
CONTINUOUS
 10
294.000003
 20
115.3
 30
0.0
 11
294.000003
 21
115.55
 31
0.0
  0
ARC
  5
1B4AD
  8
DANMEN
  6
CONTINUOUS
 10
294.300003
 20
115.3
 30
0.0
 40
0.3
 50
180.0
 51
270.0
  0
LINE
  5
1B4AE
  8
DANMEN
  6
CONTINUOUS
 10
296.000003
 20
117.5
 30
0.0
 11
296.000003
 21
115.792199
 31
0.0
  0
ARC
  5
1B4AF
  8
DANMEN
  6
CONTINUOUS
 10
298.300003
 20
115.05
 30
0.0
 40
0.5
 50
90.0
 51
180.0
  0
LINE
  5
1B4B0
  8
DANMEN
  6
CONTINUOUS
 10
297.800003
 20
115.05
 30
0.0
 11
297.800003
 21
114.3
 31
0.0
  0
ARC
  5
1B4B1
  8
DANMEN
  6
CONTINUOUS
 10
297.300003
 20
114.3
 30
0.0
 40
0.5
 50
270.0
 51
0.0
  0
ARC
  5
1B4B5
  8
DANMEN
  6
CONTINUOUS
 10
314.0
 20
101.0
 30
0.0
 40
1.5
 50
269.999964
 51
0.000001
  0
LINE
  5
1B4B6
  8
DANMEN
  6
CONTINUOUS
 10
309.500003
 20
90.5
 30
0.0
 11
309.500003
 21
80.5
 31
0.0
  0
LINE
  5
1B4B7
  8
DANMEN
  6
CONTINUOUS
 10
311.050003
 20
94.499997
 30
0.0
 11
311.050003
 21
99.199997
 31
0.0
  0
LINE
  5
1B4B8
  8
DANMEN
  6
CONTINUOUS
 10
311.500006
 20
94.499997
 30
0.0
 11
311.050003
 21
94.499997
 31
0.0
  0
LINE
  5
1B4B9
  8
DANMEN
  6
CONTINUOUS
 10
311.500006
 20
92.499997
 30
0.0
 11
311.500006
 21
94.499997
 31
0.0
  0
ARC
  5
1B4BB
  8
DANMEN
  6
CONTINUOUS
 10
312.500003
 20
99.5
 30
0.0
 40
0.5
 50
0.000019
 51
89.999982
  0
ARC
  5
1B4BC
  8
DANMEN
  6
CONTINUOUS
 10
310.500003
 20
99.699997
 30
0.0
 40
0.5
 50
180.0
 51
270.0
  0
LINE
  5
1B4BD
  8
DANMEN
  6
CONTINUOUS
 10
311.050003
 20
99.199997
 30
0.0
 11
310.500003
 21
99.199997
 31
0.0
  0
LINE
  5
1B4BE
  8
DANMEN
  6
CONTINUOUS
 10
310.000003
 20
99.699997
 30
0.0
 11
310.000003
 21
100.0
 31
0.0
  0
LINE
  5
1B4BF
  8
DANMEN
  6
CONTINUOUS
 10
312.500003
 20
100.0
 30
0.0
 11
310.000003
 21
100.0
 31
0.0
  0
ARC
  5
1B4C0
  8
DANMEN
  6
CONTINUOUS
 10
317.0
 20
103.500006
 30
0.0
 40
1.5
 50
90.0
 51
179.999982
  0
ARC
  5
1B4C1
  8
DANMEN
  6
CONTINUOUS
 10
317.0
 20
111.500009
 30
0.0
 40
1.5
 50
179.999982
 51
269.999964
  0
LINE
  5
1B4C2
  8
DANMEN
  6
CONTINUOUS
 10
315.5
 20
111.500009
 30
0.0
 11
315.5
 21
114.0
 31
0.0
  0
LINE
  5
1B4C3
  8
DANMEN
  6
CONTINUOUS
 10
306.0
 20
110.000002
 30
0.0
 11
306.0
 21
104.999998
 31
0.0
  0
LINE
  5
1B4C4
  8
DANMEN
  6
CONTINUOUS
 10
306.000003
 20
110.799994
 30
0.0
 11
306.000003
 21
100.799994
 31
0.0
  0
LINE
  5
1B4C5
  8
DANMEN
  6
CONTINUOUS
 10
315.5
 20
101.0
 30
0.0
 11
315.5
 21
103.500006
 31
0.0
  0
LINE
  5
1B4C7
  8
DANMEN
  6
CONTINUOUS
 10
309.0
 20
115.0
 30
0.0
 11
308.0
 21
115.0
 31
0.0
  0
LINE
  5
1B4C8
  8
DANMEN
  6
CONTINUOUS
 10
308.0
 20
115.55
 30
0.0
 11
308.0
 21
115.0
 31
0.0
  0
ARC
  5
1B4C9
  8
DANMEN
  6
CONTINUOUS
 10
312.5
 20
117.0
 30
0.0
 40
0.5
 50
0.000091
 51
90.000128
  0
ARC
  5
1B4CA
  8
DANMEN
  6
CONTINUOUS
 10
312.5
 20
115.5
 30
0.0
 40
0.5
 50
270.0
 51
0.0
  0
ARC
  5
1B4CB
  8
DANMEN
  6
CONTINUOUS
 10
309.5
 20
115.05
 30
0.0
 40
0.5
 50
90.0
 51
180.0
  0
LINE
  5
1B4CC
  8
DANMEN
  6
CONTINUOUS
 10
310.0
 20
115.55
 30
0.0
 11
310.0
 21
115.0
 31
0.0
  0
LINE
  5
1B4CD
  8
DANMEN
  6
CONTINUOUS
 10
310.0
 20
115.55
 30
0.0
 11
309.5
 21
115.55
 31
0.0
  0
LINE
  5
1B4CE
  8
DANMEN
  6
CONTINUOUS
 10
309.0
 20
115.05
 30
0.0
 11
309.0
 21
115.0
 31
0.0
  0
LINE
  5
1B4CF
  8
DANMEN
  6
CONTINUOUS
 10
312.499999
 20
115.0
 30
0.0
 11
310.0
 21
115.0
 31
0.0
  0
ARC
  5
1B4D0
  8
DANMEN
  6
CONTINUOUS
 10
314.0
 20
114.0
 30
0.0
 40
1.5
 50
0.000018
 51
90.0
  0
LINE
  5
1B4D1
  8
DANMEN
  6
CONTINUOUS
 10
313.0
 20
117.0
 30
0.0
 11
313.0
 21
115.5
 31
0.0
  0
ARC
  5
1B4D2
  8
DANMEN
  6
CONTINUOUS
 10
312.400003
 20
121.1
 30
0.0
 40
0.6
 50
180.0
 51
0.0
  0
LINE
  5
1B4D5
  8
SUNPO
  6
CONTINUOUS
 10
22.0
 20
30.5
 30
0.0
 11
22.0
 21
39.5
 31
0.0
  0
LINE
  5
1B4D6
  8
SUNPO
  6
CONTINUOUS
 10
42.0
 20
38.0
 30
0.0
 11
42.0
 21
20.5
 31
0.0
  0
LINE
  5
1B4D7
  8
SUNPO
  6
CONTINUOUS
 10
52.5
 20
30.5
 30
0.0
 11
22.0
 21
30.5
 31
0.0
  0
ARC
  5
1B4D8
  8
SUNPO
  6
BYBLOCK
 10
22.0
 20
30.5
 30
0.0
 40
0.145
 50
270.0
 51
90.0
  0
ARC
  5
1B4D9
  8
SUNPO
  6
BYBLOCK
 10
22.0
 20
30.5
 30
0.0
 40
0.145
 50
90.0
 51
270.0
  0
TEXT
  5
1B4DA
  8
SUNPO
  6
CONTINUOUS
 10
46.333333
 20
21.5
 30
0.0
 40
2.5
  1
12
  7
MX_NOTE_STANDARD
  0
LINE
  5
1B4DB
  8
SUNPO
  6
CONTINUOUS
 10
42.0
 20
20.5
 30
0.0
 11
54.0
 21
20.5
 31
0.0
  0
ARC
  5
1B4DC
  8
SUNPO
  6
BYBLOCK
 10
42.0
 20
20.5
 30
0.0
 40
0.145
 50
180.0
 51
0.0
  0
ARC
  5
1B4DD
  8
SUNPO
  6
BYBLOCK
 10
42.0
 20
20.5
 30
0.0
 40
0.145
 50
0.0
 51
180.0
  0
LINE
  5
1B4DE
  8
SUNPO
  6
CONTINUOUS
 10
54.0
 20
29.0
 30
0.0
 11
54.0
 21
20.5
 31
0.0
  0
ARC
  5
1B4DF
  8
SUNPO
  6
BYBLOCK
 10
54.0
 20
20.5
 30
0.0
 40
0.145
 50
0.0
 51
180.0
  0
ARC
  5
1B4E0
  8
SUNPO
  6
BYBLOCK
 10
54.0
 20
20.5
 30
0.0
 40
0.145
 50
180.0
 51
0.0
  0
LINE
  5
1B4E1
  8
DANMEN
  6
CONTINUOUS
 10
363.500004
 20
117.5
 30
0.0
 11
380.0
 21
117.5
 31
0.0
  0
LINE
  5
1B4E2
  8
DANMEN
  6
CONTINUOUS
 10
366.000003
 20
115.55
 30
0.0
 11
366.500003
 21
115.55
 31
0.0
  0
LINE
  5
1B4E3
  8
DANMEN
  6
CONTINUOUS
 10
363.5
 20
97.5
 30
0.0
 11
373.0
 21
97.5
 31
0.0
  0
LINE
  5
1B4E4
  8
DANMEN
  6
CONTINUOUS
 10
366.0
 20
99.15
 30
0.0
 11
374.15
 21
99.15
 31
0.0
  0
LINE
  5
1B4E5
  8
DANMEN
  6
CONTINUOUS
 10
339.5
 20
88.15
 30
0.0
 11
373.0
 21
88.15
 31
0.0
  0
LINE
  5
1B4E6
  8
DANMEN
  6
CONTINUOUS
 10
370.0
 20
105.500014
 30
0.0
 11
339.5
 21
105.500014
 31
0.0
  0
LINE
  5
1B4E7
  8
DANMEN
  6
CONTINUOUS
 10
370.0
 20
109.500002
 30
0.0
 11
339.5
 21
109.500002
 31
0.0
  0
LINE
  5
1B4E8
  8
DANMEN
  6
CONTINUOUS
 10
370.0
 20
105.000014
 30
0.0
 11
339.5
 21
105.000014
 31
0.0
  0
LINE
  5
1B4E9
  8
DANMEN
  6
CONTINUOUS
 10
370.0
 20
110.000002
 30
0.0
 11
339.5
 21
110.000002
 31
0.0
  0
LINE
  5
1B4EA
  8
DANMEN
  6
CONTINUOUS
 10
339.5
 20
122.5
 30
0.0
 11
388.0
 21
122.5
 31
0.0
  0
LINE
  5
1B4EB
  8
DANMEN
  6
CONTINUOUS
 10
339.5
 20
86.5
 30
0.0
 11
373.0
 21
86.5
 31
0.0
  0
ARC
  5
1B4EC
  8
DANMEN
  6
CONTINUOUS
 10
362.000092
 20
101.000015
 30
0.0
 40
1.5
 50
180.000018
 51
270.0
  0
LINE
  5
1B4ED
  8
DANMEN
  6
CONTINUOUS
 10
339.5
 20
97.5
 30
0.0
 11
363.5
 21
97.5
 31
0.0
  0
LINE
  5
1B4EE
  8
DANMEN
  6
CONTINUOUS
 10
339.5
 20
99.500015
 30
0.0
 11
363.0
 21
99.500015
 31
0.0
  0
ARC
  5
1B4EF
  8
DANMEN
  6
CONTINUOUS
 10
363.5
 20
98.0
 30
0.0
 40
0.5
 50
180.0
 51
269.999982
  0
ARC
  5
1B4F0
  8
DANMEN
  6
CONTINUOUS
 10
363.5
 20
99.5
 30
0.0
 40
0.5
 50
89.999963
 51
180.000019
  0
LINE
  5
1B4F1
  8
DANMEN
  6
CONTINUOUS
 10
366.0
 20
100.0
 30
0.0
 11
366.0
 21
99.15
 31
0.0
  0
LINE
  5
1B4F2
  8
DANMEN
  6
CONTINUOUS
 10
363.0
 20
99.5
 30
0.0
 11
363.0
 21
98.0
 31
0.0
  0
LINE
  5
1B4F3
  8
DANMEN
  6
CONTINUOUS
 10
363.5
 20
100.0
 30
0.0
 11
366.0
 21
100.0
 31
0.0
  0
LINE
  5
1B4F4
  8
DANMEN
  6
CONTINUOUS
 10
339.5
 20
115.500015
 30
0.0
 11
363.0
 21
115.500015
 31
0.0
  0
LINE
  5
1B4F5
  8
DANMEN
  6
CONTINUOUS
 10
339.5
 20
117.5
 30
0.0
 11
363.0
 21
117.5
 31
0.0
  0
LINE
  5
1B4F6
  8
DANMEN
  6
CONTINUOUS
 10
360.500092
 20
114.000015
 30
0.0
 11
360.500092
 21
111.500009
 31
0.0
  0
ARC
  5
1B4F7
  8
DANMEN
  6
CONTINUOUS
 10
359.000092
 20
103.500006
 30
0.0
 40
1.5
 50
359.999982
 51
89.999964
  0
LINE
  5
1B4F8
  8
DANMEN
  6
CONTINUOUS
 10
360.500092
 20
103.500006
 30
0.0
 11
360.500092
 21
101.000015
 31
0.0
  0
ARC
  5
1B4F9
  8
DANMEN
  6
CONTINUOUS
 10
359.000092
 20
111.500009
 30
0.0
 40
1.5
 50
270.0
 51
359.999982
  0
ARC
  5
1B4FB
  8
DANMEN
  6
CONTINUOUS
 10
362.000092
 20
114.000015
 30
0.0
 40
1.5
 50
89.999964
 51
180.000001
  0
ARC
  5
1B4FC
  8
DANMEN
  6
CONTINUOUS
 10
363.500003
 20
117.0
 30
0.0
 40
0.5
 50
89.999872
 51
179.999909
  0
LINE
  5
1B4FD
  8
DANMEN
  6
CONTINUOUS
 10
363.000003
 20
117.0
 30
0.0
 11
363.000003
 21
115.5
 31
0.0
  0
LINE
  5
1B4FE
  8
DANMEN
  6
CONTINUOUS
 10
366.000003
 20
115.55
 30
0.0
 11
366.000003
 21
115.0
 31
0.0
  0
ARC
  5
1B4FF
  8
DANMEN
  6
CONTINUOUS
 10
363.500003
 20
115.5
 30
0.0
 40
0.5
 50
180.0
 51
270.0
  0
LINE
  5
1B500
  8
DANMEN
  6
CONTINUOUS
 10
363.500004
 20
115.0
 30
0.0
 11
366.000003
 21
115.0
 31
0.0
  0
LINE
  5
1B501
  8
DANMEN
  6
CONTINUOUS
 10
388.0
 20
87.599997
 30
0.0
 11
388.0
 21
110.799994
 31
0.0
  0
LINE
  5
1B502
  8
DANMEN
  6
CONTINUOUS
 10
373.5
 20
86.5
 30
0.0
 11
397.5
 21
86.5
 31
0.0
  0
LINE
  5
1B503
  8
DANMEN
  6
CONTINUOUS
 10
374.65
 20
88.15
 30
0.0
 11
386.0
 21
88.15
 31
0.0
  0
LINE
  5
1B504
  8
DANMEN
  6
CONTINUOUS
 10
373.0
 20
97.5
 30
0.0
 11
373.0
 21
87.0
 31
0.0
  0
LINE
  5
1B505
  8
DANMEN
  6
CONTINUOUS
 10
374.65
 20
98.65
 30
0.0
 11
374.65
 21
88.15
 31
0.0
  0
ARC
  5
1B506
  8
DANMEN
  6
CONTINUOUS
 10
373.5
 20
87.0
 30
0.0
 40
0.5
 50
180.0
 51
270.0
  0
ARC
  5
1B507
  8
DANMEN
  6
CONTINUOUS
 10
374.15
 20
98.65
 30
0.0
 40
0.5
 50
0.0
 51
90.0
  0
LINE
  5
1B508
  8
DANMEN
  6
CONTINUOUS
 10
396.350006
 20
92.0
 30
0.0
 11
396.350006
 21
88.149994
 31
0.0
  0
LINE
  5
1B509
  8
DANMEN
  6
CONTINUOUS
 10
398.0
 20
92.0
 30
0.0
 11
398.0
 21
87.0
 31
0.0
  0
LINE
  5
1B50A
  8
DANMEN
  6
CONTINUOUS
 10
396.350006
 20
88.149994
 30
0.0
 11
389.649994
 21
88.149994
 31
0.0
  0
LINE
  5
1B50B
  8
DANMEN
  6
CONTINUOUS
 10
388.0
 20
87.599997
 30
0.0
 11
386.0
 21
87.599997
 31
0.0
  0
LINE
  5
1B50C
  8
DANMEN
  6
CONTINUOUS
 10
386.0
 20
87.599997
 30
0.0
 11
386.0
 21
88.149994
 31
0.0
  0
ARC
  5
1B50D
  8
DANMEN
  6
CONTINUOUS
 10
397.5
 20
87.0
 30
0.0
 40
0.5
 50
270.000018
 51
359.999981
  0
ARC
  5
1B50E
  8
DANMEN
  6
CONTINUOUS
 10
397.5
 20
92.0
 30
0.0
 40
0.5
 50
359.999981
 51
90.000037
  0
ARC
  5
1B50F
  8
DANMEN
  6
CONTINUOUS
 10
396.850006
 20
92.0
 30
0.0
 40
0.5
 50
90.000037
 51
180.000019
  0
LINE
  5
1B510
  8
DANMEN
  6
CONTINUOUS
 10
397.5
 20
92.5
 30
0.0
 11
396.850006
 21
92.5
 31
0.0
  0
LINE
  5
1B511
  8
DANMEN
  6
CONTINUOUS
 10
378.7
 20
113.8
 30
0.0
 11
382.598917
 21
113.8
 31
0.0
  0
ARC
  5
1B512
  8
DANMEN
  6
CONTINUOUS
 10
382.289406
 20
114.9
 30
0.0
 40
0.5
 50
53.491208
 51
90.0
  0
LINE
  5
1B513
  8
DANMEN
  6
CONTINUOUS
 10
384.0
 20
111.999994
 30
0.0
 11
382.401942
 21
111.680382
 31
0.0
  0
LINE
  5
1B514
  8
DANMEN
  6
CONTINUOUS
 10
382.0
 20
110.799994
 30
0.0
 11
388.0
 21
110.799994
 31
0.0
  0
LINE
  5
1B515
  8
DANMEN
  6
CONTINUOUS
 10
382.0
 20
115.85
 30
0.0
 11
388.0
 21
115.85
 31
0.0
  0
LINE
  5
1B516
  8
DANMEN
  6
CONTINUOUS
 10
388.0
 20
117.5
 30
0.0
 11
380.0
 21
117.5
 31
0.0
  0
LINE
  5
1B517
  8
DANMEN
  6
CONTINUOUS
 10
370.0
 20
110.000002
 30
0.0
 11
370.0
 21
104.999998
 31
0.0
  0
ARC
  5
1B518
  8
DANMEN
  6
CONTINUOUS
 10
382.5
 20
111.190092
 30
0.0
 40
0.5
 50
101.309932
 51
180.0
  0
LINE
  5
1B519
  8
DANMEN
  6
CONTINUOUS
 10
382.0
 20
111.190092
 30
0.0
 11
382.0
 21
110.799994
 31
0.0
  0
LINE
  5
1B51A
  8
DANMEN
  6
CONTINUOUS
 10
368.000003
 20
115.55
 30
0.0
 11
377.7
 21
115.55
 31
0.0
  0
ARC
  5
1B51B
  8
DANMEN
  6
CONTINUOUS
 10
366.500003
 20
115.05
 30
0.0
 40
0.5
 50
0.0
 51
90.0
  0
LINE
  5
1B51C
  8
DANMEN
  6
CONTINUOUS
 10
367.000003
 20
115.0
 30
0.0
 11
368.000003
 21
115.0
 31
0.0
  0
LINE
  5
1B51D
  8
DANMEN
  6
CONTINUOUS
 10
367.000003
 20
115.05
 30
0.0
 11
367.000003
 21
115.0
 31
0.0
  0
LINE
  5
1B51E
  8
DANMEN
  6
CONTINUOUS
 10
368.000003
 20
115.55
 30
0.0
 11
368.000003
 21
115.0
 31
0.0
  0
ARC
  5
1B51F
  8
DANMEN
  6
CONTINUOUS
 10
378.7
 20
114.3
 30
0.0
 40
0.5
 50
180.0
 51
270.0
  0
ARC
  5
1B520
  8
DANMEN
  6
CONTINUOUS
 10
377.7
 20
115.05
 30
0.0
 40
0.5
 50
0.0
 51
90.0
  0
LINE
  5
1B521
  8
DANMEN
  6
CONTINUOUS
 10
378.2
 20
115.05
 30
0.0
 11
378.2
 21
114.3
 31
0.0
  0
LINE
  5
1B522
  8
DANMEN
  6
CONTINUOUS
 10
379.7
 20
115.0
 30
0.0
 11
381.7
 21
115.0
 31
0.0
  0
LINE
  5
1B523
  8
DANMEN
  6
CONTINUOUS
 10
379.7
 20
116.0
 30
0.0
 11
379.7
 21
115.0
 31
0.0
  0
LINE
  5
1B524
  8
DANMEN
  6
CONTINUOUS
 10
380.0
 20
117.5
 30
0.0
 11
380.0
 21
116.0
 31
0.0
  0
LINE
  5
1B525
  8
DANMEN
  6
CONTINUOUS
 10
379.7
 20
116.0
 30
0.0
 11
380.0
 21
116.0
 31
0.0
  0
LINE
  5
1B526
  8
DANMEN
  6
CONTINUOUS
 10
382.265685
 20
115.4
 30
0.0
 11
382.289406
 21
115.4
 31
0.0
  0
ARC
  5
1B527
  8
DANMEN
  6
CONTINUOUS
 10
381.7
 20
115.3
 30
0.0
 40
0.3
 50
270.0
 51
340.528779
  0
ARC
  5
1B529
  8
DANMEN
  6
CONTINUOUS
 10
382.265685
 20
115.1
 30
0.0
 40
0.3
 50
90.0
 51
160.528779
  0
LINE
  5
1B52B
  8
DANMEN
  6
CONTINUOUS
 10
380.0
 20
117.5
 30
0.0
 11
380.0
 21
115.792199
 31
0.0
  0
ARC
  5
1B52C
  8
DANMEN
  6
CONTINUOUS
 10
381.7
 20
115.3
 30
0.0
 40
0.3
 50
270.0
 51
0.0
  0
LINE
  5
1B52D
  8
DANMEN
  6
CONTINUOUS
 10
382.0
 20
115.3
 30
0.0
 11
382.0
 21
115.85
 31
0.0
  0
LINE
  5
1B52E
  8
DANMEN
  6
CONTINUOUS
 10
380.808854
 20
115.105573
 30
0.0
 11
380.254577
 21
115.356576
 31
0.0
  0
ARC
  5
1B52F
  8
DANMEN
  6
CONTINUOUS
 10
381.256068
 20
116.0
 30
0.0
 40
1.0
 50
243.434949
 51
270.0
  0
ARC
  5
1B530
  8
DANMEN
  6
CONTINUOUS
 10
380.5
 20
115.792199
 30
0.0
 40
0.5
 50
180.0
 51
240.603827
  0
LINE
  5
1B531
  8
DANMEN
  6
CONTINUOUS
 10
381.7
 20
115.0
 30
0.0
 11
381.256068
 21
115.0
 31
0.0
  0
LINE
  5
1B532
  8
DANMEN
  6
CONTINUOUS
 10
387.411954
 20
113.115608
 30
0.0
 11
386.500895
 21
111.8
 31
0.0
  0
LINE
  5
1B533
  8
DANMEN
  6
CONTINUOUS
 10
382.598917
 20
113.8
 30
0.0
 11
385.300895
 21
111.8
 31
0.0
  0
LINE
  5
1B534
  8
DANMEN
  6
CONTINUOUS
 10
388.0
 20
111.999994
 30
0.0
 11
388.0
 21
115.85
 31
0.0
  0
LINE
  5
1B535
  8
DANMEN
  6
CONTINUOUS
 10
384.0
 20
111.999994
 30
0.0
 11
388.0
 21
111.999994
 31
0.0
  0
LINE
  5
1B536
  8
DANMEN
  6
CONTINUOUS
 10
385.300895
 20
111.8
 30
0.0
 11
386.500895
 21
111.8
 31
0.0
  0
ARC
  5
1B539
  8
DANMEN
  6
CONTINUOUS
 10
386.75753
 20
113.400136
 30
0.0
 40
0.5
 50
90.0
 51
145.297378
  0
LINE
  5
1B53A
  8
DANMEN
  6
CONTINUOUS
 10
382.586879
 20
115.301883
 30
0.0
 11
385.563906
 21
113.098292
 31
0.0
  0
LINE
  5
1B53B
  8
DANMEN
  6
CONTINUOUS
 10
386.346471
 20
113.684794
 30
0.0
 11
385.989025
 21
113.168627
 31
0.0
  0
ARC
  5
1B53C
  8
DANMEN
  6
CONTINUOUS
 10
385.742389
 20
113.339422
 30
0.0
 40
0.3
 50
233.491208
 51
325.297378
  0
LINE
  5
1B53D
  8
DANMEN
  6
CONTINUOUS
 10
387.500895
 20
113.400266
 30
0.0
 11
387.500895
 21
113.400136
 31
0.0
  0
LINE
  5
1B53E
  8
DANMEN
  6
CONTINUOUS
 10
387.000895
 20
113.900136
 30
0.0
 11
386.75753
 21
113.900136
 31
0.0
  0
ARC
  5
1B53F
  8
DANMEN
  6
CONTINUOUS
 10
387.000895
 20
113.400266
 30
0.0
 40
0.5
 50
325.297378
 51
0.0
  0
ARC
  5
1B540
  8
DANMEN
  6
CONTINUOUS
 10
387.000895
 20
113.400136
 30
0.0
 40
0.5
 50
0.0
 51
90.0
  0
LINE
  5
1B543
  8
SUNPO
  6
CONTINUOUS
 10
40.5
 20
39.5
 30
0.0
 11
22.0
 21
39.5
 31
0.0
  0
LINE
  5
1B544
  8
SUNPO
  6
CONTINUOUS
 10
40.5
 20
59.5
 30
0.0
 11
22.0
 21
59.5
 31
0.0
  0
LINE
  5
1B545
  8
SUNPO
  6
CONTINUOUS
 10
22.0
 20
39.5
 30
0.0
 11
22.0
 21
59.5
 31
0.0
  0
TEXT
  5
1B546
  8
SUNPO
  6
CONTINUOUS
 10
21.0
 20
34.166667
 30
0.0
 40
2.5
  1
9
 50
90.0
  7
MX_NOTE_STANDARD
  0
ARC
  5
1B547
  8
SUNPO
  6
BYBLOCK
 10
22.0
 20
39.5
 30
0.0
 40
0.145
 50
270.0
 51
90.0
  0
ARC
  5
1B548
  8
SUNPO
  6
BYBLOCK
 10
22.0
 20
39.5
 30
0.0
 40
0.145
 50
90.0
 51
270.0
  0
ARC
  5
1B549
  8
SUNPO
  6
BYBLOCK
 10
22.0
 20
39.5
 30
0.0
 40
0.145
 50
90.0
 51
270.0
  0
ARC
  5
1B54A
  8
SUNPO
  6
BYBLOCK
 10
22.0
 20
39.5
 30
0.0
 40
0.145
 50
270.0
 51
90.0
  0
TEXT
  5
1B54B
  8
SUNPO
  6
CONTINUOUS
 10
21.0
 20
47.625
 30
0.0
 40
2.5
  1
20
 50
90.0
  7
MX_NOTE_STANDARD
  0
TEXT
  5
1B54C
  8
SUNPO
  6
CONTINUOUS
 10
31.0
 20
43.833333
 30
0.0
 40
2.5
  1
12
 50
90.0
  7
MX_NOTE_STANDARD
  0
ARC
  5
1B54D
  8
SUNPO
  6
BYBLOCK
 10
22.0
 20
59.5
 30
0.0
 40
0.145
 50
90.0
 51
270.0
  0
ARC
  5
1B54E
  8
SUNPO
  6
BYBLOCK
 10
22.0
 20
59.5
 30
0.0
 40
0.145
 50
270.0
 51
90.0
  0
ARC
  5
1B54F
  8
SUNPO
  6
BYBLOCK
 10
22.0
 20
59.5
 30
0.0
 40
0.145
 50
270.0
 51
90.0
  0
ARC
  5
1B550
  8
SUNPO
  6
BYBLOCK
 10
22.0
 20
59.5
 30
0.0
 40
0.145
 50
90.0
 51
270.0
  0
TEXT
  5
1B551
  8
SUNPO
  6
CONTINUOUS
 10
31.0
 20
54.666667
 30
0.0
 40
2.5
  1
8
 50
90.0
  7
MX_NOTE_STANDARD
  0
TEXT
  5
1B552
  8
SUNPO
  6
CONTINUOUS
 10
31.0
 20
62.166667
 30
0.0
 40
2.5
  1
7
 50
90.0
  7
MX_NOTE_STANDARD
  0
LINE
  5
1B553
  8
SUNPO
  6
CONTINUOUS
 10
32.0
 20
51.5
 30
0.0
 11
32.0
 21
59.5
 31
0.0
  0
LINE
  5
1B554
  8
SUNPO
  6
CONTINUOUS
 10
32.0
 20
51.5
 30
0.0
 11
32.0
 21
39.5
 31
0.0
  0
ARC
  5
1B555
  8
SUNPO
  6
BYBLOCK
 10
32.0
 20
39.5
 30
0.0
 40
0.145
 50
270.0
 51
90.0
  0
ARC
  5
1B556
  8
SUNPO
  6
BYBLOCK
 10
32.0
 20
39.5
 30
0.0
 40
0.145
 50
90.0
 51
270.0
  0
LINE
  5
1B557
  8
SUNPO
  6
CONTINUOUS
 10
40.5
 20
51.5
 30
0.0
 11
32.0
 21
51.5
 31
0.0
  0
ARC
  5
1B558
  8
SUNPO
  6
BYBLOCK
 10
32.0
 20
51.5
 30
0.0
 40
0.145
 50
90.0
 51
270.0
  0
ARC
  5
1B559
  8
SUNPO
  6
BYBLOCK
 10
32.0
 20
51.5
 30
0.0
 40
0.145
 50
270.0
 51
90.0
  0
ARC
  5
1B55A
  8
SUNPO
  6
BYBLOCK
 10
32.0
 20
51.5
 30
0.0
 40
0.145
 50
270.0
 51
90.0
  0
ARC
  5
1B55B
  8
SUNPO
  6
BYBLOCK
 10
32.0
 20
51.5
 30
0.0
 40
0.145
 50
90.0
 51
270.0
  0
LINE
  5
1B55C
  8
SUNPO
  6
CONTINUOUS
 10
32.0
 20
66.5
 30
0.0
 11
32.0
 21
59.5
 31
0.0
  0
ARC
  5
1B55D
  8
SUNPO
  6
BYBLOCK
 10
32.0
 20
59.5
 30
0.0
 40
0.145
 50
90.0
 51
270.0
  0
ARC
  5
1B55E
  8
SUNPO
  6
BYBLOCK
 10
32.0
 20
59.5
 30
0.0
 40
0.145
 50
270.0
 51
90.0
  0
ARC
  5
1B55F
  8
SUNPO
  6
BYBLOCK
 10
32.0
 20
59.5
 30
0.0
 40
0.145
 50
270.0
 51
90.0
  0
ARC
  5
1B560
  8
SUNPO
  6
BYBLOCK
 10
32.0
 20
59.5
 30
0.0
 40
0.145
 50
90.0
 51
270.0
  0
LINE
  5
1B561
  8
SUNPO
  6
CONTINUOUS
 10
40.5
 20
66.5
 30
0.0
 11
32.0
 21
66.5
 31
0.0
  0
ARC
  5
1B562
  8
SUNPO
  6
BYBLOCK
 10
32.0
 20
66.5
 30
0.0
 40
0.145
 50
90.0
 51
270.0
  0
ARC
  5
1B563
  8
SUNPO
  6
BYBLOCK
 10
32.0
 20
66.5
 30
0.0
 40
0.145
 50
270.0
 51
90.0
  0
TEXT
  5
1B564
  8
SUNPO
  6
CONTINUOUS
 10
21.0
 20
108.291667
 30
0.0
 40
2.5
  1
103
 50
90.0
  7
MX_NOTE_STANDARD
  0
LINE
  5
1B565
  8
SUNPO
  6
CONTINUOUS
 10
198.0
 20
19.999997
 30
0.0
 11
173.0
 21
19.999997
 31
0.0
  0
LINE
  5
1B566
  8
SUNPO
  6
CONTINUOUS
 10
198.000003
 20
40.0
 30
0.0
 11
183.000003
 21
40.0
 31
0.0
  0
LINE
  5
1B567
  8
SUNPO
  6
CONTINUOUS
 10
173.0
 20
84.999997
 30
0.0
 11
173.0
 21
19.999997
 31
0.0
  0
LINE
  5
1B568
  8
SUNPO
  6
CONTINUOUS
 10
163.0
 20
39.5
 30
0.0
 11
163.0
 21
30.5
 31
0.0
  0
ARC
  5
1B569
  8
SUNPO
  6
BYBLOCK
 10
163.0
 20
30.5
 30
0.0
 40
0.145
 50
90.0
 51
270.0
  0
ARC
  5
1B56A
  8
SUNPO
  6
BYBLOCK
 10
163.0
 20
30.5
 30
0.0
 40
0.145
 50
270.0
 51
90.0
  0
ARC
  5
1B56B
  8
SUNPO
  6
BYBLOCK
 10
173.0
 20
19.999997
 30
0.0
 40
0.15625
 50
180.0
 51
0.0
  0
ARC
  5
1B56C
  8
SUNPO
  6
BYBLOCK
 10
173.0
 20
19.999997
 30
0.0
 40
0.15625
 50
0.0
 51
180.0
  0
TEXT
  5
1B56D
  8
SUNPO
  6
CONTINUOUS
 10
183.416667
 20
20.999997
 30
0.0
 40
2.5
  1
25
  7
MX_NOTE_STANDARD
  0
LINE
  5
1B56E
  8
SUNPO
  6
CONTINUOUS
 10
113.5
 20
39.5
 30
0.0
 11
163.0
 21
39.5
 31
0.0
  0
LINE
  5
1B56F
  8
SUNPO
  6
CONTINUOUS
 10
113.5
 20
99.5
 30
0.0
 11
163.0
 21
99.5
 31
0.0
  0
LINE
  5
1B570
  8
SUNPO
  6
CONTINUOUS
 10
113.5
 20
64.5
 30
0.0
 11
153.0
 21
64.5
 31
0.0
  0
LINE
  5
1B571
  8
SUNPO
  6
CONTINUOUS
 10
83.5
 20
114.290488
 30
0.0
 11
98.5
 21
114.290488
 31
0.0
  0
ARC
  5
1B572
  8
SUNPO
  6
BYBLOCK
 10
81.0
 20
114.290488
 30
0.0
 40
0.145
 50
180.0
 51
0.0
  0
ARC
  5
1B573
  8
SUNPO
  6
BYBLOCK
 10
81.0
 20
114.290488
 30
0.0
 40
0.145
 50
0.0
 51
180.0
  0
LINE
  5
1B574
  8
SUNPO
  6
CONTINUOUS
 10
81.0
 20
114.290488
 30
0.0
 11
71.68
 21
114.290488
 31
0.0
  0
TEXT
  5
1B575
  8
SUNPO
  6
CONTINUOUS
 10
72.68
 20
115.290488
 30
0.0
 40
2.5
  1
2.5
  7
MX_NOTE_STANDARD
  0
LINE
  5
1B576
  8
SUNPO
  6
CONTINUOUS
 10
83.5
 20
101.0
 30
0.0
 11
83.5
 21
114.290488
 31
0.0
  0
LINE
  5
1B577
  8
SUNPO
  6
CONTINUOUS
 10
81.0
 20
101.0
 30
0.0
 11
81.0
 21
114.290488
 31
0.0
  0
LINE
  5
1B578
  8
SUNPO
  6
CONTINUOUS
 10
83.5
 20
101.0
 30
0.0
 11
83.5
 21
114.290488
 31
0.0
  0
ARC
  5
1B579
  8
SUNPO
  6
BYBLOCK
 10
83.5
 20
114.290488
 30
0.0
 40
0.145
 50
0.0
 51
180.0
  0
ARC
  5
1B57A
  8
SUNPO
  6
BYBLOCK
 10
83.5
 20
114.290488
 30
0.0
 40
0.145
 50
180.0
 51
0.0
  0
ARC
  5
1B57B
  8
SUNPO
  6
BYBLOCK
 10
83.5
 20
114.290488
 30
0.0
 40
0.145
 50
180.0
 51
0.0
  0
ARC
  5
1B57C
  8
SUNPO
  6
BYBLOCK
 10
83.5
 20
114.290488
 30
0.0
 40
0.145
 50
0.0
 51
180.0
  0
LINE
  5
1B57D
  8
SUNPO
  6
CONTINUOUS
 10
83.5
 20
114.290488
 30
0.0
 11
81.0
 21
114.290488
 31
0.0
  0
TEXT
  5
1B57E
  8
SUNPO
  6
CONTINUOUS
 10
89.333333
 20
115.290488
 30
0.0
 40
2.5
  1
15
  7
MX_NOTE_STANDARD
  0
LINE
  5
1B57F
  8
SUNPO
  6
CONTINUOUS
 10
101.0
 20
101.0
 30
0.0
 11
101.0
 21
114.290488
 31
0.0
  0
LINE
  5
1B580
  8
SUNPO
  6
CONTINUOUS
 10
98.5
 20
101.0
 30
0.0
 11
98.5
 21
114.290488
 31
0.0
  0
LINE
  5
1B581
  8
SUNPO
  6
CONTINUOUS
 10
98.5
 20
101.0
 30
0.0
 11
98.5
 21
114.290488
 31
0.0
  0
TEXT
  5
1B582
  8
SUNPO
  6
CONTINUOUS
 10
104.32
 20
115.290488
 30
0.0
 40
2.5
  1
2.5
  7
MX_NOTE_STANDARD
  0
LINE
  5
1B583
  8
SUNPO
  6
CONTINUOUS
 10
101.0
 20
114.290488
 30
0.0
 11
110.32
 21
114.290488
 31
0.0
  0
ARC
  5
1B584
  8
SUNPO
  6
BYBLOCK
 10
101.0
 20
114.290488
 30
0.0
 40
0.145
 50
0.0
 51
180.0
  0
ARC
  5
1B585
  8
SUNPO
  6
BYBLOCK
 10
101.0
 20
114.290488
 30
0.0
 40
0.145
 50
180.0
 51
0.0
  0
ARC
  5
1B586
  8
SUNPO
  6
BYBLOCK
 10
98.5
 20
114.290488
 30
0.0
 40
0.145
 50
180.0
 51
0.0
  0
ARC
  5
1B587
  8
SUNPO
  6
BYBLOCK
 10
98.5
 20
114.290488
 30
0.0
 40
0.145
 50
0.0
 51
180.0
  0
ARC
  5
1B588
  8
SUNPO
  6
BYBLOCK
 10
98.5
 20
114.290488
 30
0.0
 40
0.145
 50
0.0
 51
180.0
  0
ARC
  5
1B589
  8
SUNPO
  6
BYBLOCK
 10
98.5
 20
114.290488
 30
0.0
 40
0.145
 50
180.0
 51
0.0
  0
LINE
  5
1B58A
  8
SUNPO
  6
CONTINUOUS
 10
98.5
 20
114.290488
 30
0.0
 11
101.0
 21
114.290488
 31
0.0
  0
LINE
  5
1B58B
  8
SUNPO
  6
CONTINUOUS
 10
163.0
 20
99.5
 30
0.0
 11
163.0
 21
39.5
 31
0.0
  0
LINE
  5
1B58C
  8
SUNPO
  6
CONTINUOUS
 10
153.0
 20
99.5
 30
0.0
 11
153.0
 21
64.5
 31
0.0
  0
LINE
  5
1B58D
  8
SUNPO
  6
CONTINUOUS
 10
183.000003
 20
85.0
 30
0.0
 11
183.000003
 21
40.0
 31
0.0
  0
ARC
  5
1B58E
  8
SUNPO
  6
BYBLOCK
 10
163.0
 20
39.5
 30
0.0
 40
0.15625
 50
90.0
 51
270.0
  0
ARC
  5
1B58F
  8
SUNPO
  6
BYBLOCK
 10
163.0
 20
39.5
 30
0.0
 40
0.145
 50
90.0
 51
270.0
  0
LINE
  5
1B590
  8
SUNPO
  6
CONTINUOUS
 10
153.0
 20
64.5
 30
0.0
 11
153.0
 21
39.5
 31
0.0
  0
ARC
  5
1B591
  8
SUNPO
  6
BYBLOCK
 10
153.0
 20
39.5
 30
0.0
 40
0.145
 50
270.0
 51
90.0
  0
ARC
  5
1B592
  8
SUNPO
  6
BYBLOCK
 10
153.0
 20
39.5
 30
0.0
 40
0.145
 50
90.0
 51
270.0
  0
TEXT
  5
1B593
  8
SUNPO
  6
CONTINUOUS
 10
162.0
 20
34.166667
 30
0.0
 40
2.5
  1
9
 50
90.0
  7
MX_NOTE_STANDARD
  0
TEXT
  5
1B594
  8
SUNPO
  6
CONTINUOUS
 10
152.0
 20
49.916667
 30
0.0
 40
2.5
  1
25
 50
90.0
  7
MX_NOTE_STANDARD
  0
ARC
  5
1B595
  8
SUNPO
  6
BYBLOCK
 10
153.0
 20
64.5
 30
0.0
 40
0.145
 50
90.0
 51
270.0
  0
ARC
  5
1B596
  8
SUNPO
  6
BYBLOCK
 10
153.0
 20
64.5
 30
0.0
 40
0.145
 50
270.0
 51
90.0
  0
ARC
  5
1B597
  8
SUNPO
  6
BYBLOCK
 10
153.0
 20
64.5
 30
0.0
 40
0.145
 50
270.0
 51
90.0
  0
ARC
  5
1B598
  8
SUNPO
  6
BYBLOCK
 10
153.0
 20
64.5
 30
0.0
 40
0.145
 50
90.0
 51
270.0
  0
TEXT
  5
1B599
  8
SUNPO
  6
CONTINUOUS
 10
162.0
 20
67.625
 30
0.0
 40
2.5
  1
60
 50
90.0
  7
MX_NOTE_STANDARD
  0
TEXT
  5
1B59A
  8
SUNPO
  6
CONTINUOUS
 10
176.54167
 20
41.0
 30
0.0
 40
2.5
  1
10
  7
MX_NOTE_STANDARD
  0
LINE
  5
1B59B
  8
SUNPO
  6
CONTINUOUS
 10
183.000003
 20
40.0
 30
0.0
 11
173.000003
 21
40.0
 31
0.0
  0
ARC
  5
1B59C
  8
SUNPO
  6
BYBLOCK
 10
163.0
 20
39.5
 30
0.0
 40
0.15625
 50
270.0
 51
90.0
  0
ARC
  5
1B59D
  8
SUNPO
  6
BYBLOCK
 10
163.0
 20
39.5
 30
0.0
 40
0.145
 50
270.0
 51
90.0
  0
ARC
  5
1B59E
  8
SUNPO
  6
BYBLOCK
 10
173.000003
 20
40.0
 30
0.0
 40
0.145
 50
180.0
 51
0.0
  0
ARC
  5
1B59F
  8
SUNPO
  6
BYBLOCK
 10
173.000003
 20
40.0
 30
0.0
 40
0.145
 50
0.0
 51
180.0
  0
TEXT
  5
1B5A0
  8
SUNPO
  6
CONTINUOUS
 10
188.833336
 20
41.0
 30
0.0
 40
2.5
  1
15
  7
MX_NOTE_STANDARD
  0
ARC
  5
1B5A1
  8
SUNPO
  6
BYBLOCK
 10
183.000003
 20
40.0
 30
0.0
 40
0.145
 50
0.0
 51
180.0
  0
ARC
  5
1B5A2
  8
SUNPO
  6
BYBLOCK
 10
183.000003
 20
40.0
 30
0.0
 40
0.145
 50
180.0
 51
0.0
  0
ARC
  5
1B5A3
  8
SUNPO
  6
BYBLOCK
 10
183.000003
 20
40.0
 30
0.0
 40
0.145
 50
180.0
 51
0.0
  0
ARC
  5
1B5A4
  8
SUNPO
  6
BYBLOCK
 10
183.000003
 20
40.0
 30
0.0
 40
0.145
 50
0.0
 51
180.0
  0
LINE
  5
1B5A5
  8
SUNPO
  6
CONTINUOUS
 10
163.0
 20
99.5
 30
0.0
 11
158.0
 21
104.5
 31
0.0
  0
LINE
  5
1B5A6
  8
SUNPO
  6
CONTINUOUS
 10
158.0
 20
104.5
 30
0.0
 11
168.0
 21
104.5
 31
0.0
  0
TEXT
  5
1B5A7
  8
SUNPO
  6
CONTINUOUS
 10
152.0
 20
79.916667
 30
0.0
 40
2.5
  1
35
 50
90.0
  7
MX_NOTE_STANDARD
  0
ARC
  5
1B5A8
  8
SUNPO
  6
BYBLOCK
 10
153.0
 20
99.5
 30
0.0
 40
0.145
 50
90.0
 51
270.0
  0
ARC
  5
1B5A9
  8
SUNPO
  6
BYBLOCK
 10
153.0
 20
99.5
 30
0.0
 40
0.145
 50
270.0
 51
90.0
  0
ARC
  5
1B5AA
  8
SUNPO
  6
BYBLOCK
 10
153.0
 20
99.5
 30
0.0
 40
0.145
 50
270.0
 51
90.0
  0
ARC
  5
1B5AB
  8
SUNPO
  6
BYBLOCK
 10
153.0
 20
99.5
 30
0.0
 40
0.145
 50
90.0
 51
270.0
  0
LINE
  5
1B5AD
  8
SUNPO
  6
CONTINUOUS
 10
168.0
 20
104.5
 30
0.0
 11
163.0
 21
99.5
 31
0.0
  0
LINE
  5
1B5B0
  8
SUNPO
  6
CONTINUOUS
 10
207.111405
 20
35.316277
 30
0.0
 11
208.267949
 21
30.999997
 31
0.0
  0
LINE
  5
1B5B1
  8
SUNPO
  6
CONTINUOUS
 10
263.0
 20
32.0
 30
0.0
 11
253.888595
 21
28.68372
 31
0.0
  0
LINE
  5
1B5B2
  8
SUNPO
  6
CONTINUOUS
 10
253.888595
 20
28.68372
 30
0.0
 11
252.732051
 21
33.0
 31
0.0
  0
LINE
  5
1B5B3
  8
SUNPO
  6
CONTINUOUS
 10
322.111405
 20
35.31628
 30
0.0
 11
323.267949
 21
31.0
 31
0.0
  0
LINE
  5
1B5B4
  8
SUNPO
  6
CONTINUOUS
 10
198.0
 20
84.999997
 30
0.0
 11
198.0
 21
19.999997
 31
0.0
  0
LINE
  5
1B5B5
  8
SUNPO
  6
CONTINUOUS
 10
198.000003
 20
20.0
 30
0.0
 11
277.978714
 21
20.0
 31
0.0
  0
LINE
  5
1B5B6
  8
SUNPO
  6
CONTINUOUS
 10
203.0
 20
24.999997
 30
0.0
 11
203.0
 21
14.999997
 31
0.0
  0
LINE
  5
1B5B7
  8
SUNPO
  6
CONTINUOUS
 10
203.0
 20
14.999997
 30
0.0
 11
198.0
 21
19.999997
 31
0.0
  0
LINE
  5
1B5B9
  8
SUNPO
  6
CONTINUOUS
 10
198.0
 20
19.999997
 30
0.0
 11
203.0
 21
24.999997
 31
0.0
  0
LINE
  5
1B5BD
  8
SUNPO
  6
CONTINUOUS
 10
295.11431
 20
16.5
 30
0.0
 11
291.536562
 21
16.5
 31
0.0
  0
LINE
  5
1B5BE
  8
SUNPO
  6
CONTINUOUS
 10
294.536959
 20
16.500004
 30
0.0
 11
290.495515
 21
23.499997
 31
0.0
  0
LINE
  5
1B5BF
  8
SUNPO
  6
CONTINUOUS
 10
295.495805
 20
23.5
 30
0.0
 11
293.459285
 21
23.5
 31
0.0
  0
LINE
  5
1B5C0
  8
SUNPO
  6
CONTINUOUS
 10
285.876776
 20
16.500001
 30
0.0
 11
281.835331
 21
23.499997
 31
0.0
  0
LINE
  5
1B5C1
  8
SUNPO
  6
CONTINUOUS
 10
288.186114
 20
16.5
 30
0.0
 11
284.144668
 21
23.499997
 31
0.0
  0
LINE
  5
1B5C2
  8
SUNPO
  6
CONTINUOUS
 10
292.22756
 20
16.500001
 30
0.0
 11
288.186114
 21
23.499998
 31
0.0
  0
LINE
  5
1B5C3
  8
SUNPO
  6
CONTINUOUS
 10
288.186113
 20
23.5
 30
0.0
 11
288.186113
 21
16.500001
 31
0.0
  0
LINE
  5
1B5C4
  8
SUNPO
  6
CONTINUOUS
 10
289.186113
 20
16.5
 30
0.0
 11
284.708582
 21
16.5
 31
0.0
  0
LINE
  5
1B5C5
  8
SUNPO
  6
CONTINUOUS
 10
285.10634
 20
23.5
 30
0.0
 11
280.73099
 21
23.5
 31
0.0
  0
LINE
  5
1B5C6
  8
SUNPO
  6
CONTINUOUS
 10
291.495514
 20
23.5
 30
0.0
 11
287.186113
 21
23.5
 31
0.0
  0
LINE
  5
1B5C8
  8
SUNPO
  6
CONTINUOUS
 10
294.536961
 20
23.5
 30
0.0
 11
294.536961
 21
16.500003
 31
0.0
  0
LINE
  5
1B5C9
  8
SUNPO
  6
CONTINUOUS
 10
303.26901
 20
18.5
 30
0.0
 11
298.26901
 21
18.5
 31
0.0
  0
LINE
  5
1B5CA
  8
SUNPO
  6
CONTINUOUS
 10
303.26901
 20
21.5
 30
0.0
 11
298.26901
 21
21.5
 31
0.0
  0
LINE
  5
1B5CB
  8
SUNPO
  6
CONTINUOUS
 10
263.000003
 20
32.0
 30
0.0
 11
198.0
 21
32.0
 31
0.0
  0
LINE
  5
1B5CC
  8
SUNPO
  6
CONTINUOUS
 10
251.000003
 20
85.0
 30
0.0
 11
251.000003
 21
40.0
 31
0.0
  0
LINE
  5
1B5CF
  8
SUNPO
  6
CONTINUOUS
 10
251.000003
 20
40.0
 30
0.0
 11
198.000003
 21
40.0
 31
0.0
  0
LINE
  5
1B5D0
  8
SUNPO
  6
CONTINUOUS
 10
198.0
 20
31.999997
 30
0.0
 11
207.111405
 21
35.316277
 31
0.0
  0
ARC
  5
1B5D2
  8
SUNPO
  6
BYBLOCK
 10
198.000003
 20
40.0
 30
0.0
 40
0.145
 50
180.0
 51
0.0
  0
ARC
  5
1B5D3
  8
SUNPO
  6
BYBLOCK
 10
198.000003
 20
40.0
 30
0.0
 40
0.145
 50
0.0
 51
180.0
  0
ARC
  5
1B5D4
  8
SUNPO
  6
BYBLOCK
 10
198.000003
 20
40.0
 30
0.0
 40
0.145
 50
0.0
 51
180.0
  0
ARC
  5
1B5D5
  8
SUNPO
  6
BYBLOCK
 10
198.000003
 20
40.0
 30
0.0
 40
0.145
 50
180.0
 51
0.0
  0
TEXT
  5
1B5D8
  8
SUNPO
  6
CONTINUOUS
 10
222.41667
 20
41.0
 30
0.0
 40
2.5
  1
53
  7
MX_NOTE_STANDARD
  0
TEXT
  5
1B5D9
  8
SUNPO
  6
CONTINUOUS
 10
233.837473
 20
33.048402
 30
0.0
 40
2.0
  1
2
  7
MX_NOTE_STANDARD
  0
TEXT
  5
1B5DA
  8
SUNPO
  6
CONTINUOUS
 10
233.837473
 20
33.048399
 30
0.0
 40
2.0
  1
2
  7
MX_NOTE_STANDARD
  0
ARC
  5
1B5DC
  8
SUNPO
  6
BYBLOCK
 10
251.000003
 20
40.0
 30
0.0
 40
0.145
 50
0.0
 51
180.0
  0
ARC
  5
1B5DD
  8
SUNPO
  6
BYBLOCK
 10
251.000003
 20
40.0
 30
0.0
 40
0.145
 50
180.0
 51
0.0
  0
ARC
  5
1B5DE
  8
SUNPO
  6
BYBLOCK
 10
259.364828
 20
86.5
 30
0.0
 40
0.145
 50
270.0
 51
90.0
  0
ARC
  5
1B5DF
  8
SUNPO
  6
BYBLOCK
 10
259.364828
 20
86.5
 30
0.0
 40
0.145
 50
90.0
 51
270.0
  0
TEXT
  5
1B5E0
  8
SUNPO
  6
CONTINUOUS
 10
258.364828
 20
117.281494
 30
0.0
 40
2.5
  1
70
 50
90.0
  7
MX_NOTE_STANDARD
  0
LINE
  5
1B5E1
  8
SUNPO
  6
CONTINUOUS
 10
313.0
 20
32.0
 30
0.0
 11
263.0
 21
32.0
 31
0.0
  0
LINE
  5
1B5E2
  8
SUNPO
  6
CONTINUOUS
 10
263.0
 20
57.0
 30
0.0
 11
263.0
 21
32.0
 31
0.0
  0
TEXT
  5
1B5E4
  8
SUNPO
  6
CONTINUOUS
 10
286.125
 20
33.0
 30
0.0
 40
2.5
  1
50
  7
MX_NOTE_STANDARD
  0
LINE
  5
1B5E5
  8
SUNPO
  6
CONTINUOUS
 10
313.0
 20
57.0
 30
0.0
 11
313.0
 21
32.0
 31
0.0
  0
LINE
  5
1B5E6
  8
SUNPO
  6
CONTINUOUS
 10
313.0
 20
32.0
 30
0.0
 11
322.111405
 21
35.31628
 31
0.0
  0
LINE
  5
1B5EA
  8
SUNPO
  6
CONTINUOUS
 10
373.0
 20
85.0
 30
0.0
 11
373.0
 21
20.0
 31
0.0
  0
LINE
  5
1B5EC
  8
SUNPO
  6
CONTINUOUS
 10
373.0
 20
32.0
 30
0.0
 11
363.888595
 21
28.68372
 31
0.0
  0
LINE
  5
1B5ED
  8
SUNPO
  6
CONTINUOUS
 10
363.888595
 20
28.68372
 30
0.0
 11
362.732051
 21
33.0
 31
0.0
  0
LINE
  5
1B5EE
  8
SUNPO
  6
CONTINUOUS
 10
398.0
 20
20.0
 30
0.0
 11
373.0
 21
20.0
 31
0.0
  0
LINE
  5
1B5EF
  8
SUNPO
  6
CONTINUOUS
 10
373.0
 20
20.0
 30
0.0
 11
368.0
 21
15.0
 31
0.0
  0
LINE
  5
1B5F0
  8
SUNPO
  6
CONTINUOUS
 10
368.0
 20
15.0
 30
0.0
 11
368.0
 21
25.0
 31
0.0
  0
LINE
  5
1B5F2
  8
SUNPO
  6
CONTINUOUS
 10
368.0
 20
25.0
 30
0.0
 11
373.0
 21
20.0
 31
0.0
  0
TEXT
  5
1B5F6
  8
SUNPO
  6
CONTINUOUS
 10
383.416667
 20
21.0
 30
0.0
 40
2.5
  1
25
  7
MX_NOTE_STANDARD
  0
ARC
  5
1B5F7
  8
SUNPO
  6
BYBLOCK
 10
398.0
 20
20.0
 30
0.0
 40
0.145
 50
0.0
 51
180.0
  0
ARC
  5
1B5F8
  8
SUNPO
  6
BYBLOCK
 10
398.0
 20
20.0
 30
0.0
 40
0.145
 50
180.0
 51
0.0
  0
TEXT
  5
1B5F9
  8
SUNPO
  6
CONTINUOUS
 10
391.541667
 20
41.0
 30
0.0
 40
2.5
  1
10
  7
MX_NOTE_STANDARD
  0
LINE
  5
1B5FA
  8
SUNPO
  6
CONTINUOUS
 10
388.0
 20
40.0
 30
0.0
 11
398.0
 21
40.0
 31
0.0
  0
LINE
  5
1B5FB
  8
SUNPO
  6
CONTINUOUS
 10
363.0
 20
85.0
 30
0.0
 11
363.0
 21
40.0
 31
0.0
  0
LINE
  5
1B5FC
  8
SUNPO
  6
CONTINUOUS
 10
388.0
 20
85.0
 30
0.0
 11
388.0
 21
40.0
 31
0.0
  0
LINE
  5
1B5FD
  8
SUNPO
  6
CONTINUOUS
 10
330.0
 20
86.5
 30
0.0
 11
330.0
 21
58.5
 31
0.0
  0
TEXT
  5
1B5FF
  8
SUNPO
  6
CONTINUOUS
 10
346.372796
 20
32.984156
 30
0.0
 40
2.0
  1
1
 41
1.5
  7
MX_NOTE_STANDARD
  0
ARC
  5
1B600
  8
SUNPO
  6
BYBLOCK
 10
330.0
 20
58.5
 30
0.0
 40
0.145
 50
270.0
 51
90.0
  0
ARC
  5
1B601
  8
SUNPO
  6
BYBLOCK
 10
330.0
 20
58.5
 30
0.0
 40
0.145
 50
90.0
 51
270.0
  0
LINE
  5
1B602
  8
SUNPO
  6
CONTINUOUS
 10
388.0
 20
40.0
 30
0.0
 11
373.0
 21
40.0
 31
0.0
  0
TEXT
  5
1B603
  8
SUNPO
  6
CONTINUOUS
 10
366.541667
 20
41.0
 30
0.0
 40
2.5
  1
10
  7
MX_NOTE_STANDARD
  0
LINE
  5
1B604
  8
SUNPO
  6
CONTINUOUS
 10
373.0
 20
40.0
 30
0.0
 11
363.0
 21
40.0
 31
0.0
  0
ARC
  5
1B606
  8
SUNPO
  6
BYBLOCK
 10
363.0
 20
40.0
 30
0.0
 40
0.145
 50
180.0
 51
0.0
  0
ARC
  5
1B607
  8
SUNPO
  6
BYBLOCK
 10
363.0
 20
40.0
 30
0.0
 40
0.145
 50
0.0
 51
180.0
  0
ARC
  5
1B609
  8
SUNPO
  6
BYBLOCK
 10
373.0
 20
40.0
 30
0.0
 40
0.145
 50
0.0
 51
180.0
  0
ARC
  5
1B60A
  8
SUNPO
  6
BYBLOCK
 10
373.0
 20
40.0
 30
0.0
 40
0.145
 50
180.0
 51
0.0
  0
ARC
  5
1B60B
  8
SUNPO
  6
BYBLOCK
 10
373.0
 20
40.0
 30
0.0
 40
0.145
 50
180.0
 51
0.0
  0
ARC
  5
1B60C
  8
SUNPO
  6
BYBLOCK
 10
373.0
 20
40.0
 30
0.0
 40
0.145
 50
0.0
 51
180.0
  0
TEXT
  5
1B60D
  8
SUNPO
  6
CONTINUOUS
 10
378.833333
 20
41.0
 30
0.0
 40
2.5
  1
15
  7
MX_NOTE_STANDARD
  0
ARC
  5
1B60E
  8
SUNPO
  6
BYBLOCK
 10
388.0
 20
40.0
 30
0.0
 40
0.145
 50
0.0
 51
180.0
  0
ARC
  5
1B60F
  8
SUNPO
  6
BYBLOCK
 10
388.0
 20
40.0
 30
0.0
 40
0.145
 50
180.0
 51
0.0
  0
ARC
  5
1B610
  8
SUNPO
  6
BYBLOCK
 10
388.0
 20
40.0
 30
0.0
 40
0.145
 50
180.0
 51
0.0
  0
ARC
  5
1B611
  8
SUNPO
  6
BYBLOCK
 10
388.0
 20
40.0
 30
0.0
 40
0.145
 50
0.0
 51
180.0
  0
LINE
  5
1B612
  8
SUNPO
  6
CONTINUOUS
 10
361.5
 20
100.0
 30
0.0
 11
350.577611
 21
100.0
 31
0.0
  0
LINE
  5
1B613
  8
SUNPO
  6
CONTINUOUS
 10
361.5
 20
97.5
 30
0.0
 11
350.577611
 21
97.5
 31
0.0
  0
LINE
  5
1B614
  8
SUNPO
  6
CONTINUOUS
 10
361.5
 20
115.0
 30
0.0
 11
350.577611
 21
115.0
 31
0.0
  0
LINE
  5
1B615
  8
SUNPO
  6
CONTINUOUS
 10
361.5
 20
100.0
 30
0.0
 11
350.577611
 21
100.0
 31
0.0
  0
LINE
  5
1B616
  8
SUNPO
  6
CONTINUOUS
 10
361.5
 20
117.5
 30
0.0
 11
350.577611
 21
117.5
 31
0.0
  0
LINE
  5
1B617
  8
SUNPO
  6
CONTINUOUS
 10
361.5
 20
115.0
 30
0.0
 11
350.577611
 21
115.0
 31
0.0
  0
LINE
  5
1B618
  8
SUNPO
  6
CONTINUOUS
 10
350.577611
 20
100.0
 30
0.0
 11
350.577611
 21
115.0
 31
0.0
  0
LINE
  5
1B619
  8
SUNPO
  6
CONTINUOUS
 10
330.0
 20
117.5
 30
0.0
 11
330.0
 21
86.5
 31
0.0
  0
ARC
  5
1B61A
  8
SUNPO
  6
BYBLOCK
 10
330.0
 20
86.5
 30
0.0
 40
0.145
 50
270.0
 51
90.0
  0
ARC
  5
1B61B
  8
SUNPO
  6
BYBLOCK
 10
330.0
 20
86.5
 30
0.0
 40
0.145
 50
90.0
 51
270.0
  0
ARC
  5
1B61C
  8
SUNPO
  6
BYBLOCK
 10
330.0
 20
86.5
 30
0.0
 40
0.145
 50
90.0
 51
270.0
  0
ARC
  5
1B61D
  8
SUNPO
  6
BYBLOCK
 10
330.0
 20
86.5
 30
0.0
 40
0.145
 50
270.0
 51
90.0
  0
TEXT
  5
1B61E
  8
SUNPO
  6
CONTINUOUS
 10
349.577611
 20
89.18
 30
0.0
 40
2.5
  1
2.5
 50
90.0
  7
MX_NOTE_STANDARD
  0
LINE
  5
1B61F
  8
SUNPO
  6
CONTINUOUS
 10
350.577611
 20
97.5
 30
0.0
 11
350.577611
 21
88.18
 31
0.0
  0
ARC
  5
1B620
  8
SUNPO
  6
BYBLOCK
 10
350.577611
 20
97.5
 30
0.0
 40
0.145
 50
270.0
 51
90.0
  0
ARC
  5
1B621
  8
SUNPO
  6
BYBLOCK
 10
350.577611
 20
97.5
 30
0.0
 40
0.145
 50
90.0
 51
270.0
  0
ARC
  5
1B622
  8
SUNPO
  6
BYBLOCK
 10
350.577611
 20
100.0
 30
0.0
 40
0.145
 50
90.0
 51
270.0
  0
ARC
  5
1B623
  8
SUNPO
  6
BYBLOCK
 10
350.577611
 20
100.0
 30
0.0
 40
0.145
 50
270.0
 51
90.0
  0
ARC
  5
1B624
  8
SUNPO
  6
BYBLOCK
 10
350.577611
 20
100.0
 30
0.0
 40
0.145
 50
270.0
 51
90.0
  0
ARC
  5
1B625
  8
SUNPO
  6
BYBLOCK
 10
350.577611
 20
100.0
 30
0.0
 40
0.145
 50
90.0
 51
270.0
  0
LINE
  5
1B626
  8
SUNPO
  6
CONTINUOUS
 10
350.577611
 20
100.0
 30
0.0
 11
350.577611
 21
97.5
 31
0.0
  0
ARC
  5
1B627
  8
SUNPO
  6
BYBLOCK
 10
330.0
 20
117.5
 30
0.0
 40
0.145
 50
90.0
 51
270.0
  0
ARC
  5
1B628
  8
SUNPO
  6
BYBLOCK
 10
330.0
 20
117.5
 30
0.0
 40
0.145
 50
270.0
 51
90.0
  0
ARC
  5
1B629
  8
SUNPO
  6
BYBLOCK
 10
330.0
 20
117.5
 30
0.0
 40
0.145
 50
270.0
 51
90.0
  0
ARC
  5
1B62A
  8
SUNPO
  6
BYBLOCK
 10
330.0
 20
117.5
 30
0.0
 40
0.145
 50
90.0
 51
270.0
  0
TEXT
  5
1B62B
  8
SUNPO
  6
CONTINUOUS
 10
349.577611
 20
105.833333
 30
0.0
 40
2.5
  1
15
 50
90.0
  7
MX_NOTE_STANDARD
  0
ARC
  5
1B62C
  8
SUNPO
  6
BYBLOCK
 10
350.577611
 20
115.0
 30
0.0
 40
0.145
 50
90.0
 51
270.0
  0
ARC
  5
1B62D
  8
SUNPO
  6
BYBLOCK
 10
350.577611
 20
115.0
 30
0.0
 40
0.145
 50
270.0
 51
90.0
  0
ARC
  5
1B62E
  8
SUNPO
  6
BYBLOCK
 10
350.577611
 20
117.5
 30
0.0
 40
0.145
 50
90.0
 51
270.0
  0
ARC
  5
1B62F
  8
SUNPO
  6
BYBLOCK
 10
350.577611
 20
117.5
 30
0.0
 40
0.145
 50
270.0
 51
90.0
  0
ARC
  5
1B630
  8
SUNPO
  6
BYBLOCK
 10
350.577611
 20
115.0
 30
0.0
 40
0.145
 50
270.0
 51
90.0
  0
ARC
  5
1B631
  8
SUNPO
  6
BYBLOCK
 10
350.577611
 20
115.0
 30
0.0
 40
0.145
 50
90.0
 51
270.0
  0
LINE
  5
1B632
  8
SUNPO
  6
CONTINUOUS
 10
350.577611
 20
115.0
 30
0.0
 11
350.577611
 21
117.5
 31
0.0
  0
ARC
  5
1B633
  8
SUNPO
  6
BYBLOCK
 10
398.0
 20
40.0
 30
0.0
 40
0.145
 50
0.0
 51
180.0
  0
ARC
  5
1B634
  8
SUNPO
  6
BYBLOCK
 10
398.0
 20
40.0
 30
0.0
 40
0.145
 50
180.0
 51
0.0
  0
TEXT
  5
1B635
  8
SUNPO
  6
CONTINUOUS
 10
329.0
 20
135.416667
 30
0.0
 40
2.5
  1
24
 50
90.0
  7
MX_NOTE_STANDARD
  0
TEXT
  5
1B636
  8
SUNPO
  6
CONTINUOUS
 10
329.0
 20
152.166667
 30
0.0
 40
2.5
  1
7
 50
90.0
  7
MX_NOTE_STANDARD
  0
LINE
  5
1B637
  8
SUNPO
  6
CONTINUOUS
 10
314.350012
 20
125.5
 30
0.0
 11
330.0
 21
125.5
 31
0.0
  0
LINE
  5
1B638
  8
SUNPO
  6
CONTINUOUS
 10
42.0
 20
178.5
 30
0.0
 11
112.0
 21
178.5
 31
0.0
  0
LINE
  5
1B639
  8
SUNPO
  6
CONTINUOUS
 10
73.0
 20
168.5
 30
0.0
 11
49.0
 21
168.5
 31
0.0
  0
LINE
  5
1B63A
  8
DANMEN
  6
CONTINUOUS
 10
258.000012
 20
155.300003
 30
0.0
 11
336.5
 21
155.300003
 31
0.0
  0
LINE
  5
1B63B
  8
DANMEN
  6
CONTINUOUS
 10
258.000012
 20
158.300003
 30
0.0
 11
336.5
 21
158.300003
 31
0.0
  0
LINE
  5
1B63C
  8
DANMEN
  6
CONTINUOUS
 10
258.000012
 20
159.5
 30
0.0
 11
336.5
 21
159.5
 31
0.0
  0
LINE
  5
1B63D
  8
DANMEN
  6
CONTINUOUS
 10
313.0
 20
136.0
 30
0.0
 11
336.5
 21
136.0
 31
0.0
  0
LINE
  5
1B63E
  8
DANMEN
  6
CONTINUOUS
 10
313.0
 20
139.0
 30
0.0
 11
336.5
 21
139.0
 31
0.0
  0
LINE
  5
1B63F
  8
DANMEN
  6
CONTINUOUS
 10
258.000012
 20
149.5
 30
0.0
 11
336.5
 21
149.5
 31
0.0
  0
LINE
  5
1B640
  8
DANMEN
  6
CONTINUOUS
 10
263.500003
 20
149.5
 30
0.0
 11
312.000003
 21
149.5
 31
0.0
  0
LINE
  5
1B641
  8
DANMEN
  6
CONTINUOUS
 10
263.500003
 20
125.5
 30
0.0
 11
291.500003
 21
125.5
 31
0.0
  0
LINE
  5
1B642
  8
DANMEN
  6
CONTINUOUS
 10
264.200003
 20
127.449997
 30
0.0
 11
278.000003
 21
127.449997
 31
0.0
  0
LINE
  5
1B643
  8
DANMEN
  6
CONTINUOUS
 10
264.200003
 20
147.550003
 30
0.0
 11
278.000003
 21
147.550003
 31
0.0
  0
ARC
  5
1B644
  8
DANMEN
  6
CONTINUOUS
 10
267.845226
 20
125.3
 30
0.0
 40
1.0
 50
90.0
 51
147.20046
  0
LINE
  5
1B645
  8
DANMEN
  6
CONTINUOUS
 10
270.000007
 20
134.999991
 30
0.0
 11
258.000012
 21
134.999991
 31
0.0
  0
LINE
  5
1B646
  8
DANMEN
  6
CONTINUOUS
 10
270.000023
 20
139.999979
 30
0.0
 11
258.000012
 21
139.999979
 31
0.0
  0
LINE
  5
1B647
  8
DANMEN
  6
CONTINUOUS
 10
270.000007
 20
135.499991
 30
0.0
 11
258.000012
 21
135.499991
 31
0.0
  0
LINE
  5
1B648
  8
DANMEN
  6
CONTINUOUS
 10
270.000023
 20
139.499979
 30
0.0
 11
258.000012
 21
139.499979
 31
0.0
  0
LINE
  5
1B649
  8
DANMEN
  6
CONTINUOUS
 10
214.950003
 20
127.45
 30
0.0
 11
238.050003
 21
127.45
 31
0.0
  0
LINE
  5
1B64A
  8
DANMEN
  6
CONTINUOUS
 10
214.950003
 20
147.55
 30
0.0
 11
238.050003
 21
147.55
 31
0.0
  0
LINE
  5
1B64B
  8
DANMEN
  6
CONTINUOUS
 10
213.538913
 20
125.5
 30
0.0
 11
250.500003
 21
125.5
 31
0.0
  0
LINE
  5
1B64C
  8
DANMEN
  6
CONTINUOUS
 10
213.538908
 20
149.5
 30
0.0
 11
250.500003
 21
149.5
 31
0.0
  0
LINE
  5
1B64D
  8
DANMEN
  6
CONTINUOUS
 10
218.000003
 20
155.300003
 30
0.0
 11
256.000012
 21
155.300003
 31
0.0
  0
LINE
  5
1B64E
  8
DANMEN
  6
CONTINUOUS
 10
218.000003
 20
158.300003
 30
0.0
 11
256.000012
 21
158.300003
 31
0.0
  0
LINE
  5
1B64F
  8
DANMEN
  6
CONTINUOUS
 10
218.000003
 20
159.5
 30
0.0
 11
256.000012
 21
159.5
 31
0.0
  0
LINE
  5
1B650
  8
DANMEN
  6
CONTINUOUS
 10
214.950003
 20
144.550003
 30
0.0
 11
214.950003
 21
147.55
 31
0.0
  0
LINE
  5
1B651
  8
DANMEN
  6
CONTINUOUS
 10
213.300006
 20
145.5
 30
0.0
 11
213.040308
 21
148.962605
 31
0.0
  0
LINE
  5
1B652
  8
DANMEN
  6
CONTINUOUS
 10
214.950003
 20
127.45
 30
0.0
 11
214.950003
 21
130.449997
 31
0.0
  0
ARC
  5
1B654
  8
DANMEN
  6
CONTINUOUS
 10
213.538908
 20
126.0
 30
0.0
 40
0.5
 50
175.7108
 51
270.0
  0
LINE
  5
1B655
  8
DANMEN
  6
CONTINUOUS
 10
213.040308
 20
126.037395
 30
0.0
 11
213.300006
 21
129.499997
 31
0.0
  0
ARC
  5
1B65A
  8
DANMEN
  6
CONTINUOUS
 10
213.950003
 20
130.449997
 30
0.0
 40
1.0
 50
0.0
 51
90.0
  0
ARC
  5
1B65C
  8
DANMEN
  6
CONTINUOUS
 10
213.950003
 20
144.55
 30
0.0
 40
1.0
 50
270.0
 51
0.0
  0
LINE
  5
1B65F
  8
DANMEN
  6
CONTINUOUS
 10
218.000003
 20
159.5
 30
0.0
 11
218.000003
 21
155.300003
 31
0.0
  0
ARC
  5
1B661
  8
DANMEN
  6
CONTINUOUS
 10
213.538908
 20
149.0
 30
0.0
 40
0.5
 50
90.0
 51
184.289197
  0
ARC
  5
1B665
  8
DANMEN
  6
CONTINUOUS
 10
222.399997
 20
158.899994
 30
0.0
 40
0.6
 50
270.000018
 51
90.000037
  0
LINE
  5
1B666
  8
DANMEN
  6
CONTINUOUS
 10
263.000003
 20
149.0
 30
0.0
 11
263.000003
 21
145.0
 31
0.0
  0
LINE
  5
1B667
  8
DANMEN
  6
CONTINUOUS
 10
264.200003
 20
147.550003
 30
0.0
 11
264.200003
 21
145.3
 31
0.0
  0
LINE
  5
1B668
  8
DANMEN
  6
CONTINUOUS
 10
249.800003
 20
147.55
 30
0.0
 11
249.800003
 21
145.3
 31
0.0
  0
LINE
  5
1B669
  8
DANMEN
  6
CONTINUOUS
 10
238.050003
 20
147.55
 30
0.0
 11
238.050003
 21
127.45
 31
0.0
  0
LINE
  5
1B66A
  8
DANMEN
  6
CONTINUOUS
 10
240.000003
 20
147.55
 30
0.0
 11
240.000003
 21
127.45
 31
0.0
  0
LINE
  5
1B66B
  8
DANMEN
  6
CONTINUOUS
 10
251.000003
 20
149.0
 30
0.0
 11
251.000003
 21
145.0
 31
0.0
  0
LINE
  5
1B66C
  8
DANMEN
  6
CONTINUOUS
 10
250.500003
 20
125.5
 30
0.0
 11
256.000012
 21
125.5
 31
0.0
  0
LINE
  5
1B66D
  8
DANMEN
  6
CONTINUOUS
 10
244.000001
 20
139.499982
 30
0.0
 11
256.000012
 21
139.499982
 31
0.0
  0
LINE
  5
1B66E
  8
DANMEN
  6
CONTINUOUS
 10
244.000017
 20
135.499994
 30
0.0
 11
256.000012
 21
135.499994
 31
0.0
  0
LINE
  5
1B66F
  8
DANMEN
  6
CONTINUOUS
 10
244.000001
 20
139.999982
 30
0.0
 11
256.000012
 21
139.999982
 31
0.0
  0
LINE
  5
1B670
  8
DANMEN
  6
CONTINUOUS
 10
244.000017
 20
134.999994
 30
0.0
 11
256.000012
 21
134.999994
 31
0.0
  0
LINE
  5
1B671
  8
DANMEN
  6
CONTINUOUS
 10
251.000003
 20
127.7
 30
0.0
 11
256.000012
 21
127.7
 31
0.0
  0
LINE
  5
1B672
  8
DANMEN
  6
CONTINUOUS
 10
250.999988
 20
145.499985
 30
0.0
 11
256.000012
 21
145.499985
 31
0.0
  0
LINE
  5
1B673
  8
DANMEN
  6
CONTINUOUS
 10
251.000003
 20
129.500015
 30
0.0
 11
256.000012
 21
129.500015
 31
0.0
  0
LINE
  5
1B674
  8
DANMEN
  6
CONTINUOUS
 10
244.000001
 20
134.999994
 30
0.0
 11
244.000001
 21
139.999997
 31
0.0
  0
LINE
  5
1B675
  8
DANMEN
  6
CONTINUOUS
 10
240.000003
 20
127.45
 30
0.0
 11
249.800003
 21
127.45
 31
0.0
  0
ARC
  5
1B678
  8
DANMEN
  6
CONTINUOUS
 10
248.500003
 20
130.347521
 30
0.0
 40
0.5
 50
180.0
 51
263.659808
  0
LINE
  5
1B679
  8
DANMEN
  6
CONTINUOUS
 10
249.800003
 20
129.7
 30
0.0
 11
248.444787
 21
129.85058
 31
0.0
  0
LINE
  5
1B67A
  8
DANMEN
  6
CONTINUOUS
 10
251.000003
 20
126.0
 30
0.0
 11
251.000003
 21
130.0
 31
0.0
  0
LINE
  5
1B67D
  8
DANMEN
  6
CONTINUOUS
 10
249.800003
 20
127.45
 30
0.0
 11
249.800003
 21
129.7
 31
0.0
  0
ARC
  5
1B67E
  8
DANMEN
  6
CONTINUOUS
 10
250.500003
 20
126.0
 30
0.0
 40
0.5
 50
270.000018
 51
0.0
  0
ARC
  5
1B682
  8
DANMEN
  6
CONTINUOUS
 10
250.500003
 20
130.0
 30
0.0
 40
0.5
 50
0.0
 51
89.999982
  0
LINE
  5
1B685
  8
DANMEN
  6
CONTINUOUS
 10
248.000003
 20
130.34752
 30
0.0
 11
248.000003
 21
130.5
 31
0.0
  0
LINE
  5
1B686
  8
DANMEN
  6
CONTINUOUS
 10
248.000003
 20
130.5
 30
0.0
 11
250.500003
 21
130.5
 31
0.0
  0
ARC
  5
1B689
  8
DANMEN
  6
CONTINUOUS
 10
248.500003
 20
144.652479
 30
0.0
 40
0.5
 50
96.340192
 51
180.0
  0
LINE
  5
1B68A
  8
DANMEN
  6
CONTINUOUS
 10
249.800003
 20
145.3
 30
0.0
 11
248.444787
 21
145.14942
 31
0.0
  0
ARC
  5
1B68E
  8
DANMEN
  6
CONTINUOUS
 10
250.500003
 20
145.0
 30
0.0
 40
0.5
 50
270.000018
 51
0.0
  0
LINE
  5
1B691
  8
DANMEN
  6
CONTINUOUS
 10
248.000003
 20
144.652481
 30
0.0
 11
248.000003
 21
144.5
 31
0.0
  0
LINE
  5
1B692
  8
DANMEN
  6
CONTINUOUS
 10
248.000003
 20
144.5
 30
0.0
 11
250.500003
 21
144.5
 31
0.0
  0
ARC
  5
1B693
  8
DANMEN
  6
CONTINUOUS
 10
259.000099
 20
133.500006
 30
0.0
 40
1.5
 50
0.000018
 51
90.0
  0
LINE
  5
1B694
  8
DANMEN
  6
CONTINUOUS
 10
258.000012
 20
127.7
 30
0.0
 11
263.000003
 21
127.7
 31
0.0
  0
LINE
  5
1B695
  8
DANMEN
  6
CONTINUOUS
 10
263.000018
 20
129.500015
 30
0.0
 11
258.000012
 21
129.500015
 31
0.0
  0
LINE
  5
1B696
  8
DANMEN
  6
CONTINUOUS
 10
258.000012
 20
125.5
 30
0.0
 11
263.000003
 21
125.5
 31
0.0
  0
ARC
  5
1B697
  8
DANMEN
  6
CONTINUOUS
 10
251.999925
 20
131.000003
 30
0.0
 40
1.5
 50
269.999964
 51
0.000001
  0
ARC
  5
1B698
  8
DANMEN
  6
CONTINUOUS
 10
254.999925
 20
133.500009
 30
0.0
 40
1.5
 50
90.0
 51
179.999982
  0
LINE
  5
1B699
  8
DANMEN
  6
CONTINUOUS
 10
253.499925
 20
131.000003
 30
0.0
 11
253.499925
 21
133.500009
 31
0.0
  0
ARC
  5
1B69A
  8
DANMEN
  6
CONTINUOUS
 10
262.000099
 20
131.0
 30
0.0
 40
1.5
 50
179.999999
 51
270.000036
  0
LINE
  5
1B69B
  8
DANMEN
  6
CONTINUOUS
 10
263.000003
 20
130.0
 30
0.0
 11
263.000003
 21
126.0
 31
0.0
  0
LINE
  5
1B69C
  8
DANMEN
  6
CONTINUOUS
 10
265.555219
 20
129.85058
 30
0.0
 11
264.200003
 21
129.7
 31
0.0
  0
ARC
  5
1B69D
  8
DANMEN
  6
CONTINUOUS
 10
265.500003
 20
130.347521
 30
0.0
 40
0.5
 50
276.340191
 51
0.0
  0
ARC
  5
1B69F
  8
DANMEN
  6
CONTINUOUS
 10
263.500003
 20
126.0
 30
0.0
 40
0.5
 50
180.000019
 51
270.000001
  0
LINE
  5
1B6A0
  8
DANMEN
  6
CONTINUOUS
 10
264.200003
 20
129.7
 30
0.0
 11
264.200003
 21
127.449997
 31
0.0
  0
LINE
  5
1B6A8
  8
DANMEN
  6
CONTINUOUS
 10
263.500003
 20
130.5
 30
0.0
 11
266.000003
 21
130.5
 31
0.0
  0
LINE
  5
1B6A9
  8
DANMEN
  6
CONTINUOUS
 10
260.500099
 20
131.0
 30
0.0
 11
260.500099
 21
133.500006
 31
0.0
  0
ARC
  5
1B6AB
  8
DANMEN
  6
CONTINUOUS
 10
263.500003
 20
130.0
 30
0.0
 40
0.5
 50
89.999982
 51
180.000019
  0
LINE
  5
1B6AC
  8
DANMEN
  6
CONTINUOUS
 10
266.000003
 20
130.5
 30
0.0
 11
266.000003
 21
130.347521
 31
0.0
  0
ARC
  5
1B6B0
  8
DANMEN
  6
CONTINUOUS
 10
259.000099
 20
141.500009
 30
0.0
 40
1.5
 50
270.000036
 51
0.000018
  0
LINE
  5
1B6B1
  8
DANMEN
  6
CONTINUOUS
 10
263.000003
 20
145.499985
 30
0.0
 11
258.000012
 21
145.499985
 31
0.0
  0
ARC
  5
1B6B2
  8
DANMEN
  6
CONTINUOUS
 10
254.999925
 20
141.500012
 30
0.0
 40
1.5
 50
179.999982
 51
269.999964
  0
LINE
  5
1B6B3
  8
DANMEN
  6
CONTINUOUS
 10
253.499925
 20
141.500012
 30
0.0
 11
253.499925
 21
144.000003
 31
0.0
  0
ARC
  5
1B6B4
  8
DANMEN
  6
CONTINUOUS
 10
251.999925
 20
144.000003
 30
0.0
 40
1.5
 50
0.000018
 51
90.0
  0
LINE
  5
1B6B7
  8
DANMEN
  6
CONTINUOUS
 10
263.500003
 20
144.5
 30
0.0
 11
266.000003
 21
144.5
 31
0.0
  0
LINE
  5
1B6B8
  8
DANMEN
  6
CONTINUOUS
 10
260.500099
 20
141.500009
 30
0.0
 11
260.500099
 21
144.0
 31
0.0
  0
ARC
  5
1B6B9
  8
DANMEN
  6
CONTINUOUS
 10
262.000099
 20
144.0
 30
0.0
 40
1.5
 50
90.0
 51
179.999982
  0
ARC
  5
1B6BB
  8
DANMEN
  6
CONTINUOUS
 10
263.500003
 20
145.0
 30
0.0
 40
0.5
 50
180.000019
 51
270.000001
  0
LINE
  5
1B6BC
  8
DANMEN
  6
CONTINUOUS
 10
266.000003
 20
144.652479
 30
0.0
 11
266.000003
 21
144.5
 31
0.0
  0
LINE
  5
1B6C0
  8
DANMEN
  6
CONTINUOUS
 10
264.200003
 20
145.3
 30
0.0
 11
265.555219
 21
145.14942
 31
0.0
  0
ARC
  5
1B6C1
  8
DANMEN
  6
CONTINUOUS
 10
265.500003
 20
144.652479
 30
0.0
 40
0.5
 50
0.0
 51
83.659809
  0
LINE
  5
1B6C3
  8
DANMEN
  6
CONTINUOUS
 10
251.000003
 20
147.3
 30
0.0
 11
256.000012
 21
147.3
 31
0.0
  0
LINE
  5
1B6C4
  8
DANMEN
  6
CONTINUOUS
 10
240.000003
 20
147.55
 30
0.0
 11
249.800003
 21
147.55
 31
0.0
  0
ARC
  5
1B6C8
  8
DANMEN
  6
CONTINUOUS
 10
250.500003
 20
149.0
 30
0.0
 40
0.5
 50
0.0
 51
89.999982
  0
LINE
  5
1B6CA
  8
DANMEN
  6
CONTINUOUS
 10
258.000012
 20
147.3
 30
0.0
 11
263.000003
 21
147.3
 31
0.0
  0
ARC
  5
1B6CC
  8
DANMEN
  6
CONTINUOUS
 10
263.500003
 20
149.0
 30
0.0
 40
0.5
 50
89.999982
 51
180.000019
  0
LINE
  5
1B6CE
  8
DANMEN
  6
CONTINUOUS
 10
299.95
 20
147.550003
 30
0.0
 11
311.050006
 21
147.550003
 31
0.0
  0
LINE
  5
1B6CF
  8
DANMEN
  6
CONTINUOUS
 10
299.95
 20
127.449997
 30
0.0
 11
311.050006
 21
127.449997
 31
0.0
  0
LINE
  5
1B6D0
  8
DANMEN
  6
CONTINUOUS
 10
293.000003
 20
125.5
 30
0.0
 11
311.800003
 21
125.5
 31
0.0
  0
LINE
  5
1B6D1
  8
DANMEN
  6
CONTINUOUS
 10
278.000003
 20
147.550003
 30
0.0
 11
278.000003
 21
127.449997
 31
0.0
  0
LINE
  5
1B6D2
  8
DANMEN
  6
CONTINUOUS
 10
279.95
 20
147.550003
 30
0.0
 11
279.95
 21
127.449997
 31
0.0
  0
LINE
  5
1B6D3
  8
DANMEN
  6
CONTINUOUS
 10
299.95
 20
147.550003
 30
0.0
 11
299.95
 21
145.5
 31
0.0
  0
LINE
  5
1B6D4
  8
DANMEN
  6
CONTINUOUS
 10
298.95
 20
147.550003
 30
0.0
 11
298.95
 21
146.0
 31
0.0
  0
LINE
  5
1B6D5
  8
DANMEN
  6
CONTINUOUS
 10
279.95
 20
127.449997
 30
0.0
 11
298.95
 21
127.449997
 31
0.0
  0
LINE
  5
1B6D6
  8
DANMEN
  6
CONTINUOUS
 10
270.000023
 20
134.999991
 30
0.0
 11
270.000023
 21
139.999994
 31
0.0
  0
ARC
  5
1B6DA
  8
DANMEN
  6
CONTINUOUS
 10
269.200003
 20
125.7
 30
0.0
 40
0.6
 50
0.0
 51
90.0
  0
LINE
  5
1B6DC
  8
DANMEN
  6
CONTINUOUS
 10
267.845226
 20
125.3
 30
0.0
 11
268.800003
 21
125.3
 31
0.0
  0
LINE
  5
1B6DD
  8
DANMEN
  6
CONTINUOUS
 10
267.845226
 20
126.3
 30
0.0
 11
269.200003
 21
126.3
 31
0.0
  0
LINE
  5
1B6E2
  8
DANMEN
  6
CONTINUOUS
 10
299.95
 20
129.5
 30
0.0
 11
299.95
 21
127.449997
 31
0.0
  0
LINE
  5
1B6E3
  8
DANMEN
  6
CONTINUOUS
 10
298.95
 20
129.0
 30
0.0
 11
298.95
 21
127.449997
 31
0.0
  0
LINE
  5
1B6E4
  8
DANMEN
  6
CONTINUOUS
 10
299.45
 20
129.5
 30
0.0
 11
299.95
 21
129.5
 31
0.0
  0
ARC
  5
1B6E7
  8
DANMEN
  6
CONTINUOUS
 10
299.45
 20
129.0
 30
0.0
 40
0.5
 50
89.999982
 51
180.000019
  0
LINE
  5
1B6EA
  8
DANMEN
  6
CONTINUOUS
 10
299.45
 20
145.5
 30
0.0
 11
299.95
 21
145.5
 31
0.0
  0
ARC
  5
1B6ED
  8
DANMEN
  6
CONTINUOUS
 10
299.45
 20
146.0
 30
0.0
 40
0.5
 50
180.000019
 51
270.000001
  0
LINE
  5
1B6EE
  8
DANMEN
  6
CONTINUOUS
 10
279.95
 20
147.550003
 30
0.0
 11
298.95
 21
147.550003
 31
0.0
  0
LINE
  5
1B6F3
  8
DANMEN
  6
CONTINUOUS
 10
311.050006
 20
147.550003
 30
0.0
 11
311.050006
 21
127.449997
 31
0.0
  0
ARC
  5
1B6F6
  8
DANMEN
  6
CONTINUOUS
 10
312.000003
 20
148.5
 30
0.0
 40
1.0
 50
0.0
 51
89.999982
  0
LINE
  5
1B6F9
  8
SUNPO
  6
CONTINUOUS
 10
22.0
 20
188.5
 30
0.0
 11
22.0
 21
223.5
 31
0.0
  0
LINE
  5
1B6FA
  8
DANMEN
  6
CONTINUOUS
 10
373.0
 20
156.5
 30
0.0
 11
353.0
 21
156.5
 31
0.0
  0
LINE
  5
1B6FB
  8
DANMEN
  6
CONTINUOUS
 10
339.5
 20
136.0
 30
0.0
 11
388.0
 21
136.0
 31
0.0
  0
LINE
  5
1B6FC
  8
DANMEN
  6
CONTINUOUS
 10
339.5
 20
139.0
 30
0.0
 11
388.0
 21
139.0
 31
0.0
  0
LINE
  5
1B6FD
  8
DANMEN
  6
CONTINUOUS
 10
339.5
 20
149.5
 30
0.0
 11
388.0
 21
149.5
 31
0.0
  0
LINE
  5
1B6FE
  8
DANMEN
  6
CONTINUOUS
 10
348.600006
 20
158.300003
 30
0.0
 11
353.0
 21
158.300003
 31
0.0
  0
LINE
  5
1B6FF
  8
DANMEN
  6
CONTINUOUS
 10
348.600006
 20
159.5
 30
0.0
 11
353.0
 21
159.5
 31
0.0
  0
LINE
  5
1B700
  8
DANMEN
  6
CONTINUOUS
 10
353.0
 20
155.300003
 30
0.0
 11
339.5
 21
155.300003
 31
0.0
  0
ARC
  5
1B701
  8
DANMEN
  6
CONTINUOUS
 10
348.600006
 20
158.899994
 30
0.0
 40
0.6
 50
89.999963
 51
269.999982
  0
LINE
  5
1B702
  8
DANMEN
  6
CONTINUOUS
 10
348.600006
 20
158.300003
 30
0.0
 11
339.5
 21
158.300003
 31
0.0
  0
LINE
  5
1B705
  8
DANMEN
  6
CONTINUOUS
 10
348.600006
 20
159.5
 30
0.0
 11
339.5
 21
159.5
 31
0.0
  0
LINE
  5
1B708
  8
DANMEN
  6
CONTINUOUS
 10
353.0
 20
159.5
 30
0.0
 11
353.0
 21
155.300003
 31
0.0
  0
LINE
  5
1B70A
  8
DANMEN
  6
CONTINUOUS
 10
386.0
 20
154.850006
 30
0.0
 11
373.5
 21
154.850006
 31
0.0
  0
LINE
  5
1B70B
  8
DANMEN
  6
CONTINUOUS
 10
397.5
 20
156.5
 30
0.0
 11
373.5
 21
156.5
 31
0.0
  0
ARC
  5
1B70C
  8
DANMEN
  6
CONTINUOUS
 10
373.5
 20
156.0
 30
0.0
 40
0.5
 50
90.000037
 51
180.000019
  0
ARC
  5
1B70D
  8
DANMEN
  6
CONTINUOUS
 10
373.5
 20
155.350006
 30
0.0
 40
0.5
 50
180.000019
 51
270.000001
  0
LINE
  5
1B70E
  8
DANMEN
  6
CONTINUOUS
 10
373.0
 20
156.0
 30
0.0
 11
373.0
 21
155.350006
 31
0.0
  0
LINE
  5
1B70F
  8
DANMEN
  6
CONTINUOUS
 10
396.350006
 20
154.850006
 30
0.0
 11
389.649994
 21
154.850006
 31
0.0
  0
LINE
  5
1B710
  8
DANMEN
  6
CONTINUOUS
 10
388.0
 20
155.400003
 30
0.0
 11
386.0
 21
155.400003
 31
0.0
  0
LINE
  5
1B711
  8
DANMEN
  6
CONTINUOUS
 10
386.0
 20
155.400003
 30
0.0
 11
386.0
 21
154.850006
 31
0.0
  0
LINE
  5
1B712
  8
DANMEN
  6
CONTINUOUS
 10
396.350006
 20
154.850006
 30
0.0
 11
396.350006
 21
151.0
 31
0.0
  0
LINE
  5
1B713
  8
DANMEN
  6
CONTINUOUS
 10
398.0
 20
156.0
 30
0.0
 11
398.0
 21
151.0
 31
0.0
  0
ARC
  5
1B714
  8
DANMEN
  6
CONTINUOUS
 10
396.850006
 20
151.0
 30
0.0
 40
0.5
 50
180.000019
 51
270.000001
  0
ARC
  5
1B715
  8
DANMEN
  6
CONTINUOUS
 10
397.5
 20
151.0
 30
0.0
 40
0.5
 50
270.000018
 51
359.999981
  0
LINE
  5
1B716
  8
DANMEN
  6
CONTINUOUS
 10
397.5
 20
150.5
 30
0.0
 11
396.850006
 21
150.5
 31
0.0
  0
ARC
  5
1B717
  8
DANMEN
  6
CONTINUOUS
 10
397.5
 20
156.0
 30
0.0
 40
0.5
 50
0.0
 51
89.999982
  0
TEXT
  5
1B718
  8
SUNPO
  6
CONTINUOUS
 10
34.013333
 20
169.5
 30
0.0
 40
2.5
  1
3
  7
MX_NOTE_STANDARD
  0
TEXT
  5
1B719
  8
SUNPO
  6
CONTINUOUS
 10
58.916667
 20
169.5
 30
0.0
 40
2.5
  1
24
  7
MX_NOTE_STANDARD
  0
TEXT
  5
1B71A
  8
SUNPO
  6
CONTINUOUS
 10
44.666667
 20
169.5
 30
0.0
 40
2.5
  1
7
  7
MX_NOTE_STANDARD
  0
LINE
  5
1B71B
  8
SUNPO
  6
CONTINUOUS
 10
40.5
 20
162.5
 30
0.0
 11
22.0
 21
162.5
 31
0.0
  0
ARC
  5
1B71C
  8
SUNPO
  6
BYBLOCK
 10
22.0
 20
162.5
 30
0.0
 40
0.145
 50
90.0
 51
270.0
  0
ARC
  5
1B71D
  8
SUNPO
  6
BYBLOCK
 10
22.0
 20
162.5
 30
0.0
 40
0.145
 50
270.0
 51
90.0
  0
LINE
  5
1B71E
  8
SUNPO
  6
CONTINUOUS
 10
49.0
 20
168.5
 30
0.0
 11
42.0
 21
168.5
 31
0.0
  0
LINE
  5
1B71F
  8
SUNPO
  6
CONTINUOUS
 10
42.0
 20
168.5
 30
0.0
 11
39.0
 21
168.5
 31
0.0
  0
LINE
  5
1B720
  8
SUNPO
  6
CONTINUOUS
 10
39.0
 20
168.5
 30
0.0
 11
33.013333
 21
168.5
 31
0.0
  0
ARC
  5
1B721
  8
SUNPO
  6
BYBLOCK
 10
39.0
 20
168.5
 30
0.0
 40
0.145
 50
180.0
 51
0.0
  0
ARC
  5
1B722
  8
SUNPO
  6
BYBLOCK
 10
39.0
 20
168.5
 30
0.0
 40
0.145
 50
0.0
 51
180.0
  0
ARC
  5
1B723
  8
SUNPO
  6
BYBLOCK
 10
42.0
 20
168.5
 30
0.0
 40
0.145
 50
180.0
 51
0.0
  0
ARC
  5
1B724
  8
SUNPO
  6
BYBLOCK
 10
42.0
 20
168.5
 30
0.0
 40
0.145
 50
0.0
 51
180.0
  0
ARC
  5
1B725
  8
SUNPO
  6
BYBLOCK
 10
42.0
 20
168.5
 30
0.0
 40
0.145
 50
0.0
 51
180.0
  0
ARC
  5
1B726
  8
SUNPO
  6
BYBLOCK
 10
42.0
 20
168.5
 30
0.0
 40
0.145
 50
180.0
 51
0.0
  0
ARC
  5
1B727
  8
SUNPO
  6
BYBLOCK
 10
49.0
 20
168.5
 30
0.0
 40
0.145
 50
0.0
 51
180.0
  0
ARC
  5
1B728
  8
SUNPO
  6
BYBLOCK
 10
49.0
 20
168.5
 30
0.0
 40
0.145
 50
180.0
 51
0.0
  0
ARC
  5
1B729
  8
SUNPO
  6
BYBLOCK
 10
49.0
 20
168.5
 30
0.0
 40
0.145
 50
180.0
 51
0.0
  0
ARC
  5
1B72A
  8
SUNPO
  6
BYBLOCK
 10
49.0
 20
168.5
 30
0.0
 40
0.145
 50
0.0
 51
180.0
  0
LINE
  5
1B72B
  8
SUNPO
  6
CONTINUOUS
 10
40.5
 20
188.5
 30
0.0
 11
22.0
 21
188.5
 31
0.0
  0
ARC
  5
1B72C
  8
SUNPO
  6
BYBLOCK
 10
22.0
 20
188.5
 30
0.0
 40
0.145
 50
270.0
 51
90.0
  0
ARC
  5
1B72D
  8
SUNPO
  6
BYBLOCK
 10
22.0
 20
188.5
 30
0.0
 40
0.145
 50
90.0
 51
270.0
  0
TEXT
  5
1B72E
  8
SUNPO
  6
CONTINUOUS
 10
21.0
 20
203.916667
 30
0.0
 40
2.5
  1
35
 50
90.0
  7
MX_NOTE_STANDARD
  0
ARC
  5
1B72F
  8
SUNPO
  6
BYBLOCK
 10
42.0
 20
178.5
 30
0.0
 40
0.145
 50
180.0
 51
0.0
  0
ARC
  5
1B730
  8
SUNPO
  6
BYBLOCK
 10
42.0
 20
178.5
 30
0.0
 40
0.145
 50
0.0
 51
180.0
  0
LINE
  5
1B731
  8
SUNPO
  6
CONTINUOUS
 10
40.5
 20
258.5
 30
0.0
 11
22.0
 21
258.5
 31
0.0
  0
LINE
  5
1B732
  8
SUNPO
  6
CONTINUOUS
 10
40.5
 20
223.5
 30
0.0
 11
22.0
 21
223.5
 31
0.0
  0
TEXT
  5
1B733
  8
SUNPO
  6
CONTINUOUS
 10
21.0
 20
238.916667
 30
0.0
 40
2.5
  1
35
 50
90.0
  7
MX_NOTE_STANDARD
  0
LINE
  5
1B734
  8
SUNPO
  6
CONTINUOUS
 10
22.0
 20
258.5
 30
0.0
 11
22.0
 21
223.5
 31
0.0
  0
ARC
  5
1B735
  8
SUNPO
  6
BYBLOCK
 10
22.0
 20
223.5
 30
0.0
 40
0.145
 50
270.0
 51
90.0
  0
ARC
  5
1B736
  8
SUNPO
  6
BYBLOCK
 10
22.0
 20
223.5
 30
0.0
 40
0.145
 50
90.0
 51
270.0
  0
ARC
  5
1B737
  8
SUNPO
  6
BYBLOCK
 10
22.0
 20
223.5
 30
0.0
 40
0.145
 50
90.0
 51
270.0
  0
ARC
  5
1B738
  8
SUNPO
  6
BYBLOCK
 10
22.0
 20
223.5
 30
0.0
 40
0.145
 50
270.0
 51
90.0
  0
ARC
  5
1B739
  8
SUNPO
  6
BYBLOCK
 10
22.0
 20
258.5
 30
0.0
 40
0.145
 50
90.0
 51
270.0
  0
ARC
  5
1B73A
  8
SUNPO
  6
BYBLOCK
 10
22.0
 20
258.5
 30
0.0
 40
0.145
 50
270.0
 51
90.0
  0
LINE
  5
1B73B
  8
SUNPO
  6
CONTINUOUS
 10
186.000003
 20
166.5
 30
0.0
 11
251.000003
 21
166.5
 31
0.0
  0
LINE
  5
1B73C
  8
SUNPO
  6
CONTINUOUS
 10
153.0
 20
223.5
 30
0.0
 11
153.0
 21
188.5
 31
0.0
  0
LINE
  5
1B73D
  8
SUNPO
  6
CONTINUOUS
 10
163.0
 20
223.5
 30
0.0
 11
163.0
 21
172.374644
 31
0.0
  0
LINE
  5
1B73E
  8
SUNPO
  6
CONTINUOUS
 10
140.0
 20
168.5
 30
0.0
 11
112.0
 21
168.5
 31
0.0
  0
LINE
  5
1B73F
  8
SUNPO
  6
CONTINUOUS
 10
113.5
 20
188.5
 30
0.0
 11
153.0
 21
188.5
 31
0.0
  0
LINE
  5
1B740
  8
SUNPO
  6
CONTINUOUS
 10
113.5
 20
162.5
 30
0.0
 11
153.0
 21
162.5
 31
0.0
  0
TEXT
  5
1B741
  8
SUNPO
  6
CONTINUOUS
 10
123.916667
 20
169.5
 30
0.0
 40
2.5
  1
28
  7
MX_NOTE_STANDARD
  0
TEXT
  5
1B742
  8
SUNPO
  6
CONTINUOUS
 10
76.166667
 20
169.5
 30
0.0
 40
2.5
  1
8
  7
MX_NOTE_STANDARD
  0
TEXT
  5
1B743
  8
SUNPO
  6
CONTINUOUS
 10
94.833333
 20
169.5
 30
0.0
 40
2.5
  1
31
  7
MX_NOTE_STANDARD
  0
LINE
  5
1B744
  8
SUNPO
  6
CONTINUOUS
 10
81.0
 20
168.5
 30
0.0
 11
112.0
 21
168.5
 31
0.0
  0
ARC
  5
1B745
  8
SUNPO
  6
BYBLOCK
 10
81.0
 20
168.5
 30
0.0
 40
0.145
 50
180.0
 51
0.0
  0
ARC
  5
1B746
  8
SUNPO
  6
BYBLOCK
 10
81.0
 20
168.5
 30
0.0
 40
0.145
 50
0.0
 51
180.0
  0
ARC
  5
1B747
  8
SUNPO
  6
BYBLOCK
 10
81.0
 20
168.5
 30
0.0
 40
0.145
 50
0.0
 51
180.0
  0
ARC
  5
1B748
  8
SUNPO
  6
BYBLOCK
 10
81.0
 20
168.5
 30
0.0
 40
0.145
 50
180.0
 51
0.0
  0
LINE
  5
1B749
  8
SUNPO
  6
CONTINUOUS
 10
81.0
 20
168.5
 30
0.0
 11
73.0
 21
168.5
 31
0.0
  0
ARC
  5
1B74A
  8
SUNPO
  6
BYBLOCK
 10
73.0
 20
168.5
 30
0.0
 40
0.145
 50
180.0
 51
0.0
  0
ARC
  5
1B74B
  8
SUNPO
  6
BYBLOCK
 10
73.0
 20
168.5
 30
0.0
 40
0.145
 50
0.0
 51
180.0
  0
ARC
  5
1B74C
  8
SUNPO
  6
BYBLOCK
 10
73.0
 20
168.5
 30
0.0
 40
0.145
 50
0.0
 51
180.0
  0
ARC
  5
1B74D
  8
SUNPO
  6
BYBLOCK
 10
73.0
 20
168.5
 30
0.0
 40
0.145
 50
180.0
 51
0.0
  0
LINE
  5
1B74E
  8
SUNPO
  6
CONTINUOUS
 10
112.0
 20
135.497913
 30
0.0
 11
112.0
 21
168.5
 31
0.0
  0
ARC
  5
1B74F
  8
SUNPO
  6
BYBLOCK
 10
112.0
 20
168.5
 30
0.0
 40
0.145
 50
0.0
 51
180.0
  0
ARC
  5
1B750
  8
SUNPO
  6
BYBLOCK
 10
112.0
 20
168.5
 30
0.0
 40
0.145
 50
180.0
 51
0.0
  0
ARC
  5
1B751
  8
SUNPO
  6
BYBLOCK
 10
112.0
 20
168.5
 30
0.0
 40
0.145
 50
180.0
 51
0.0
  0
ARC
  5
1B752
  8
SUNPO
  6
BYBLOCK
 10
112.0
 20
168.5
 30
0.0
 40
0.145
 50
0.0
 51
180.0
  0
TEXT
  5
1B753
  8
SUNPO
  6
CONTINUOUS
 10
76.443604
 20
179.5
 30
0.0
 40
2.5
  1
70
  7
MX_NOTE_STANDARD
  0
LINE
  5
1B754
  8
SUNPO
  6
CONTINUOUS
 10
112.0
 20
183.002085
 30
0.0
 11
112.0
 21
178.5
 31
0.0
  0
ARC
  5
1B755
  8
SUNPO
  6
BYBLOCK
 10
112.0
 20
178.5
 30
0.0
 40
0.145
 50
0.0
 51
180.0
  0
ARC
  5
1B756
  8
SUNPO
  6
BYBLOCK
 10
112.0
 20
178.5
 30
0.0
 40
0.145
 50
180.0
 51
0.0
  0
LINE
  5
1B757
  8
SUNPO
  6
CONTINUOUS
 10
159.0
 20
154.641045
 30
0.0
 11
167.0
 21
154.641045
 31
0.0
  0
LINE
  5
1B758
  8
SUNPO
  6
CONTINUOUS
 10
159.0
 20
162.141045
 30
0.0
 11
167.0
 21
162.141045
 31
0.0
  0
LINE
  5
1B759
  8
SUNPO
  6
CONTINUOUS
 10
159.0
 20
156.641045
 30
0.0
 11
167.0
 21
156.641045
 31
0.0
  0
TEXT
  5
1B75A
  8
SUNPO
  6
CONTINUOUS
 10
152.0
 20
128.916667
 30
0.0
 40
2.5
  1
63
 50
90.0
  7
MX_NOTE_STANDARD
  0
ARC
  5
1B75B
  8
SUNPO
  6
BYBLOCK
 10
140.0
 20
168.5
 30
0.0
 40
0.145
 50
0.0
 51
180.0
  0
ARC
  5
1B75C
  8
SUNPO
  6
BYBLOCK
 10
140.0
 20
168.5
 30
0.0
 40
0.145
 50
180.0
 51
0.0
  0
LINE
  5
1B75D
  8
SUNPO
  6
CONTINUOUS
 10
159.0
 20
158.041039
 30
0.0
 11
159.0
 21
152.843696
 31
0.0
  0
ARC
  5
1B75E
  8
SUNPO
  6
BYBLOCK
 10
153.0
 20
162.5
 30
0.0
 40
0.145
 50
90.0
 51
270.0
  0
ARC
  5
1B75F
  8
SUNPO
  6
BYBLOCK
 10
153.0
 20
162.5
 30
0.0
 40
0.145
 50
270.0
 51
90.0
  0
LINE
  5
1B760
  8
SUNPO
  6
CONTINUOUS
 10
159.0
 20
164.153991
 30
0.0
 11
159.0
 21
160.420944
 31
0.0
  0
LINE
  5
1B761
  8
SUNPO
  6
CONTINUOUS
 10
161.799927
 20
170.156304
 30
0.0
 11
161.799927
 21
165.367761
 31
0.0
  0
LINE
  5
1B762
  8
SUNPO
  6
CONTINUOUS
 10
163.0
 20
162.141045
 30
0.0
 11
163.0
 21
156.641045
 31
0.0
  0
LINE
  5
1B763
  8
SUNPO
  6
CONTINUOUS
 10
167.0
 20
158.041039
 30
0.0
 11
167.0
 21
152.843696
 31
0.0
  0
LINE
  5
1B765
  8
SUNPO
  6
CONTINUOUS
 10
167.0
 20
164.153991
 30
0.0
 11
167.0
 21
160.420944
 31
0.0
  0
LINE
  5
1B766
  8
SUNPO
  6
CONTINUOUS
 10
164.199921
 20
170.156304
 30
0.0
 11
164.199921
 21
165.367761
 31
0.0
  0
LINE
  5
1B767
  8
SUNPO
  6
CONTINUOUS
 10
183.000003
 20
158.0
 30
0.0
 11
183.000003
 21
166.5
 31
0.0
  0
LINE
  5
1B768
  8
SUNPO
  6
CONTINUOUS
 10
186.000003
 20
158.0
 30
0.0
 11
186.000003
 21
166.5
 31
0.0
  0
LINE
  5
1B769
  8
SUNPO
  6
CONTINUOUS
 10
186.000003
 20
166.5
 30
0.0
 11
183.000003
 21
166.5
 31
0.0
  0
ARC
  5
1B76A
  8
SUNPO
  6
BYBLOCK
 10
183.000003
 20
166.5
 30
0.0
 40
0.145
 50
180.0
 51
0.0
  0
ARC
  5
1B76B
  8
SUNPO
  6
BYBLOCK
 10
183.000003
 20
166.5
 30
0.0
 40
0.145
 50
0.0
 51
180.0
  0
ARC
  5
1B76C
  8
SUNPO
  6
BYBLOCK
 10
186.000003
 20
166.5
 30
0.0
 40
0.145
 50
0.0
 51
180.0
  0
ARC
  5
1B76D
  8
SUNPO
  6
BYBLOCK
 10
186.000003
 20
166.5
 30
0.0
 40
0.145
 50
180.0
 51
0.0
  0
ARC
  5
1B76E
  8
SUNPO
  6
BYBLOCK
 10
186.000003
 20
166.5
 30
0.0
 40
0.145
 50
180.0
 51
0.0
  0
ARC
  5
1B76F
  8
SUNPO
  6
BYBLOCK
 10
186.000003
 20
166.5
 30
0.0
 40
0.145
 50
0.0
 51
180.0
  0
TEXT
  5
1B770
  8
SUNPO
  6
CONTINUOUS
 10
183.66667
 20
167.5
 30
0.0
 40
2.5
  1
3
  7
MX_NOTE_STANDARD
  0
ARC
  5
1B771
  8
SUNPO
  6
BYBLOCK
 10
153.0
 20
188.5
 30
0.0
 40
0.145
 50
270.0
 51
90.0
  0
ARC
  5
1B772
  8
SUNPO
  6
BYBLOCK
 10
153.0
 20
188.5
 30
0.0
 40
0.145
 50
90.0
 51
270.0
  0
TEXT
  5
1B773
  8
SUNPO
  6
CONTINUOUS
 10
152.0
 20
203.916667
 30
0.0
 40
2.5
  1
35
 50
90.0
  7
MX_NOTE_STANDARD
  0
LINE
  5
1B774
  8
SUNPO
  6
CONTINUOUS
 10
113.5
 20
223.5
 30
0.0
 11
163.0
 21
223.5
 31
0.0
  0
LINE
  5
1B775
  8
SUNPO
  6
CONTINUOUS
 10
113.5
 20
258.5
 30
0.0
 11
163.0
 21
258.5
 31
0.0
  0
ARC
  5
1B776
  8
SUNPO
  6
BYBLOCK
 10
163.0
 20
258.5
 30
0.0
 40
0.145
 50
90.0
 51
270.0
  0
LINE
  5
1B777
  8
SUNPO
  6
CONTINUOUS
 10
158.0
 20
218.5
 30
0.0
 11
163.0
 21
223.5
 31
0.0
  0
LINE
  5
1B778
  8
SUNPO
  6
CONTINUOUS
 10
168.0
 20
218.5
 30
0.0
 11
158.0
 21
218.5
 31
0.0
  0
TEXT
  5
1B779
  8
SUNPO
  6
CONTINUOUS
 10
162.0
 20
238.916667
 30
0.0
 40
2.5
  1
35
 50
90.0
  7
MX_NOTE_STANDARD
  0
ARC
  5
1B77A
  8
SUNPO
  6
BYBLOCK
 10
153.0
 20
223.5
 30
0.0
 40
0.145
 50
90.0
 51
270.0
  0
ARC
  5
1B77B
  8
SUNPO
  6
BYBLOCK
 10
153.0
 20
223.5
 30
0.0
 40
0.145
 50
270.0
 51
90.0
  0
LINE
  5
1B77D
  8
SUNPO
  6
CONTINUOUS
 10
163.0
 20
258.5
 30
0.0
 11
163.0
 21
223.5
 31
0.0
  0
LINE
  5
1B77E
  8
SUNPO
  6
CONTINUOUS
 10
163.0
 20
223.5
 30
0.0
 11
168.0
 21
218.5
 31
0.0
  0
ARC
  5
1B781
  8
SUNPO
  6
BYBLOCK
 10
163.0
 20
258.5
 30
0.0
 40
0.145
 50
270.0
 51
90.0
  0
LINE
  5
1B782
  8
SUNPO
  6
CONTINUOUS
 10
219.500002
 20
156.5
 30
0.0
 11
259.364828
 21
156.5
 31
0.0
  0
TEXT
  5
1B783
  8
SUNPO
  6
CONTINUOUS
 10
216.41667
 20
167.5
 30
0.0
 40
2.5
  1
65
  7
MX_NOTE_STANDARD
  0
LINE
  5
1B784
  8
SUNPO
  6
CONTINUOUS
 10
229.500002
 20
156.5
 30
0.0
 11
259.364828
 21
156.5
 31
0.0
  0
LINE
  5
1B785
  8
SUNPO
  6
CONTINUOUS
 10
259.364828
 20
156.5
 30
0.0
 11
259.364828
 21
159.5
 31
0.0
  0
ARC
  5
1B786
  8
SUNPO
  6
BYBLOCK
 10
259.364828
 20
156.5
 30
0.0
 40
0.145
 50
270.0
 51
90.0
  0
ARC
  5
1B787
  8
SUNPO
  6
BYBLOCK
 10
259.364828
 20
156.5
 30
0.0
 40
0.145
 50
90.0
 51
270.0
  0
ARC
  5
1B788
  8
SUNPO
  6
BYBLOCK
 10
259.364828
 20
156.5
 30
0.0
 40
0.145
 50
90.0
 51
270.0
  0
ARC
  5
1B789
  8
SUNPO
  6
BYBLOCK
 10
259.364828
 20
156.5
 30
0.0
 40
0.145
 50
270.0
 51
90.0
  0
LINE
  5
1B78A
  8
SUNPO
  6
CONTINUOUS
 10
251.000003
 20
161.0
 30
0.0
 11
251.000003
 21
166.5
 31
0.0
  0
ARC
  5
1B78B
  8
SUNPO
  6
BYBLOCK
 10
251.000003
 20
166.5
 30
0.0
 40
0.145
 50
0.0
 51
180.0
  0
ARC
  5
1B78C
  8
SUNPO
  6
BYBLOCK
 10
251.000003
 20
166.5
 30
0.0
 40
0.145
 50
180.0
 51
0.0
  0
LINE
  5
1B78D
  8
SUNPO
  6
CONTINUOUS
 10
259.364828
 20
159.5
 30
0.0
 11
259.364828
 21
165.486667
 31
0.0
  0
TEXT
  5
1B78E
  8
SUNPO
  6
CONTINUOUS
 10
258.364828
 20
162.82
 30
0.0
 40
2.5
  1
3
 50
90.0
  7
MX_NOTE_STANDARD
  0
ARC
  5
1B78F
  8
SUNPO
  6
BYBLOCK
 10
259.364828
 20
159.5
 30
0.0
 40
0.145
 50
90.0
 51
270.0
  0
ARC
  5
1B790
  8
SUNPO
  6
BYBLOCK
 10
259.364828
 20
159.5
 30
0.0
 40
0.145
 50
270.0
 51
90.0
  0
LINE
  5
1B791
  8
SUNPO
  6
CONTINUOUS
 10
373.0
 20
166.5
 30
0.0
 11
398.0
 21
166.5
 31
0.0
  0
LINE
  5
1B792
  8
SUNPO
  6
CONTINUOUS
 10
330.0
 20
149.5
 30
0.0
 11
330.0
 21
125.5
 31
0.0
  0
ARC
  5
1B793
  8
SUNPO
  6
BYBLOCK
 10
330.0
 20
125.5
 30
0.0
 40
0.145
 50
270.0
 51
90.0
  0
ARC
  5
1B794
  8
SUNPO
  6
BYBLOCK
 10
330.0
 20
125.5
 30
0.0
 40
0.145
 50
90.0
 51
270.0
  0
ARC
  5
1B795
  8
SUNPO
  6
BYBLOCK
 10
330.0
 20
125.5
 30
0.0
 40
0.145
 50
90.0
 51
270.0
  0
ARC
  5
1B796
  8
SUNPO
  6
BYBLOCK
 10
330.0
 20
125.5
 30
0.0
 40
0.145
 50
270.0
 51
90.0
  0
LINE
  5
1B797
  8
SUNPO
  6
CONTINUOUS
 10
351.5
 20
156.5
 30
0.0
 11
330.0
 21
156.5
 31
0.0
  0
LINE
  5
1B798
  8
SUNPO
  6
CONTINUOUS
 10
330.0
 20
149.5
 30
0.0
 11
330.0
 21
156.5
 31
0.0
  0
ARC
  5
1B799
  8
SUNPO
  6
BYBLOCK
 10
330.0
 20
149.5
 30
0.0
 40
0.145
 50
270.0
 51
90.0
  0
ARC
  5
1B79A
  8
SUNPO
  6
BYBLOCK
 10
330.0
 20
149.5
 30
0.0
 40
0.145
 50
90.0
 51
270.0
  0
ARC
  5
1B79B
  8
SUNPO
  6
BYBLOCK
 10
330.0
 20
149.5
 30
0.0
 40
0.145
 50
90.0
 51
270.0
  0
ARC
  5
1B79C
  8
SUNPO
  6
BYBLOCK
 10
330.0
 20
149.5
 30
0.0
 40
0.145
 50
270.0
 51
90.0
  0
ARC
  5
1B79D
  8
SUNPO
  6
BYBLOCK
 10
330.0
 20
156.5
 30
0.0
 40
0.145
 50
90.0
 51
270.0
  0
ARC
  5
1B79E
  8
SUNPO
  6
BYBLOCK
 10
330.0
 20
156.5
 30
0.0
 40
0.145
 50
270.0
 51
90.0
  0
LINE
  5
1B79F
  8
SUNPO
  6
CONTINUOUS
 10
373.0
 20
156.850006
 30
0.0
 11
373.0
 21
166.5
 31
0.0
  0
ARC
  5
1B7A0
  8
SUNPO
  6
BYBLOCK
 10
373.0
 20
166.5
 30
0.0
 40
0.145
 50
180.0
 51
0.0
  0
ARC
  5
1B7A1
  8
SUNPO
  6
BYBLOCK
 10
373.0
 20
166.5
 30
0.0
 40
0.145
 50
0.0
 51
180.0
  0
TEXT
  5
1B7A2
  8
SUNPO
  6
CONTINUOUS
 10
383.416667
 20
167.5
 30
0.0
 40
2.5
  1
25
  7
MX_NOTE_STANDARD
  0
LINE
  5
1B7A3
  8
SUNPO
  6
CONTINUOUS
 10
398.0
 20
157.5
 30
0.0
 11
398.0
 21
166.5
 31
0.0
  0
ARC
  5
1B7A4
  8
SUNPO
  6
BYBLOCK
 10
398.0
 20
166.5
 30
0.0
 40
0.145
 50
0.0
 51
180.0
  0
ARC
  5
1B7A5
  8
SUNPO
  6
BYBLOCK
 10
398.0
 20
166.5
 30
0.0
 40
0.145
 50
180.0
 51
0.0
  0
LINE
  5
1B83B
  8
SUNPO
  6
CONTINUOUS
 10
228.115372
 20
36.107269
 30
0.0
 11
229.028887
 21
36.730081
 31
0.0
210
0.0
220
0.0
230
-1.0
  0
LINE
  5
1B83C
  8
SUNPO
  6
CONTINUOUS
 10
229.028887
 20
36.730081
 30
0.0
 11
229.499982
 21
36.768293
 31
0.0
210
0.0
220
0.0
230
-1.0
  0
LINE
  5
1B83D
  8
SUNPO
  6
CONTINUOUS
 10
229.499982
 20
36.768293
 30
0.0
 11
229.3138
 21
36.255982
 31
0.0
210
0.0
220
0.0
230
-1.0
  0
LINE
  5
1B83E
  8
SUNPO
  6
CONTINUOUS
 10
229.3138
 20
36.255982
 30
0.0
 11
228.420898
 21
34.276791
 31
0.0
210
0.0
220
0.0
230
-1.0
  0
LINE
  5
1B83F
  8
SUNPO
  6
CONTINUOUS
 10
228.420898
 20
34.276791
 30
0.0
 11
228.717461
 21
33.297817
 31
0.0
210
0.0
220
0.0
230
-1.0
  0
LINE
  5
1B840
  8
SUNPO
  6
CONTINUOUS
 10
228.717461
 20
33.297817
 30
0.0
 11
229.678871
 21
33.601968
 31
0.0
210
0.0
220
0.0
230
-1.0
  0
LINE
  5
1B841
  8
SUNPO
  6
CONTINUOUS
 10
229.678871
 20
33.601968
 30
0.0
 11
230.16436
 21
34.719453
 31
0.0
210
0.0
220
0.0
230
-1.0
  0
LINE
  5
1B842
  8
SUNPO
  6
CONTINUOUS
 10
230.16436
 20
34.719453
 30
0.0
 11
230.27692
 21
35.220793
 31
0.0
210
0.0
220
0.0
230
-1.0
  0
LINE
  5
1B843
  8
SUNPO
  6
CONTINUOUS
 10
230.27692
 20
35.220793
 30
0.0
 11
230.149498
 21
34.695165
 31
0.0
210
0.0
220
0.0
230
-1.0
  0
LINE
  5
1B844
  8
SUNPO
  6
CONTINUOUS
 10
230.149498
 20
34.695165
 30
0.0
 11
230.099705
 21
33.62979
 31
0.0
210
0.0
220
0.0
230
-1.0
  0
LINE
  5
1B845
  8
SUNPO
  6
CONTINUOUS
 10
230.099705
 20
33.62979
 30
0.0
 11
230.935643
 21
33.048466
 31
0.0
210
0.0
220
0.0
230
-1.0
  0
LINE
  5
1B846
  8
SUNPO
  6
CONTINUOUS
 10
230.935643
 20
33.048466
 30
0.0
 11
231.808647
 21
33.664377
 31
0.0
210
0.0
220
0.0
230
-1.0
  0
LINE
  5
1B847
  8
SUNPO
  6
CONTINUOUS
 10
231.808647
 20
33.664377
 30
0.0
 11
232.251869
 21
34.654112
 31
0.0
210
0.0
220
0.0
230
-1.0
  0
LINE
  5
1B848
  8
SUNPO
  6
CONTINUOUS
 10
232.251869
 20
34.654112
 30
0.0
 11
232.136626
 21
36.810488
 31
0.0
210
0.0
220
0.0
230
-1.0
  0
LINE
  5
1B849
  8
SUNPO
  6
CONTINUOUS
 10
232.136626
 20
36.810488
 30
0.0
 11
234.274428
 21
36.57399
 31
0.0
210
0.0
220
0.0
230
-1.0
  0
LINE
  5
1B84A
  8
SUNPO
  6
CONTINUOUS
 10
228.115372
 20
36.107266
 30
0.0
 11
229.028887
 21
36.730078
 31
0.0
210
0.0
220
0.0
230
-1.0
  0
LINE
  5
1B84B
  8
SUNPO
  6
CONTINUOUS
 10
229.028887
 20
36.730078
 30
0.0
 11
229.499982
 21
36.76829
 31
0.0
210
0.0
220
0.0
230
-1.0
  0
LINE
  5
1B84C
  8
SUNPO
  6
CONTINUOUS
 10
229.499982
 20
36.76829
 30
0.0
 11
229.3138
 21
36.255979
 31
0.0
210
0.0
220
0.0
230
-1.0
  0
LINE
  5
1B84D
  8
SUNPO
  6
CONTINUOUS
 10
229.3138
 20
36.255979
 30
0.0
 11
228.420898
 21
34.276788
 31
0.0
210
0.0
220
0.0
230
-1.0
  0
LINE
  5
1B84E
  8
SUNPO
  6
CONTINUOUS
 10
228.420898
 20
34.276788
 30
0.0
 11
228.717461
 21
33.297813
 31
0.0
210
0.0
220
0.0
230
-1.0
  0
LINE
  5
1B84F
  8
SUNPO
  6
CONTINUOUS
 10
228.717461
 20
33.297813
 30
0.0
 11
229.678871
 21
33.601965
 31
0.0
210
0.0
220
0.0
230
-1.0
  0
LINE
  5
1B850
  8
SUNPO
  6
CONTINUOUS
 10
229.678871
 20
33.601965
 30
0.0
 11
230.16436
 21
34.71945
 31
0.0
210
0.0
220
0.0
230
-1.0
  0
LINE
  5
1B851
  8
SUNPO
  6
CONTINUOUS
 10
230.16436
 20
34.71945
 30
0.0
 11
230.27692
 21
35.22079
 31
0.0
210
0.0
220
0.0
230
-1.0
  0
LINE
  5
1B852
  8
SUNPO
  6
CONTINUOUS
 10
230.27692
 20
35.22079
 30
0.0
 11
230.149498
 21
34.695162
 31
0.0
210
0.0
220
0.0
230
-1.0
  0
LINE
  5
1B853
  8
SUNPO
  6
CONTINUOUS
 10
230.149498
 20
34.695162
 30
0.0
 11
230.099705
 21
33.629787
 31
0.0
210
0.0
220
0.0
230
-1.0
  0
LINE
  5
1B854
  8
SUNPO
  6
CONTINUOUS
 10
230.099705
 20
33.629787
 30
0.0
 11
230.935643
 21
33.048463
 31
0.0
210
0.0
220
0.0
230
-1.0
  0
LINE
  5
1B855
  8
SUNPO
  6
CONTINUOUS
 10
230.935643
 20
33.048463
 30
0.0
 11
231.808647
 21
33.664374
 31
0.0
210
0.0
220
0.0
230
-1.0
  0
LINE
  5
1B856
  8
SUNPO
  6
CONTINUOUS
 10
231.808647
 20
33.664374
 30
0.0
 11
232.251869
 21
34.654109
 31
0.0
210
0.0
220
0.0
230
-1.0
  0
LINE
  5
1B857
  8
SUNPO
  6
CONTINUOUS
 10
232.251869
 20
34.654109
 30
0.0
 11
232.136626
 21
36.810485
 31
0.0
210
0.0
220
0.0
230
-1.0
  0
LINE
  5
1B858
  8
SUNPO
  6
CONTINUOUS
 10
232.136626
 20
36.810485
 30
0.0
 11
234.274428
 21
36.573987
 31
0.0
210
0.0
220
0.0
230
-1.0
  0
LINE
  5
1B859
  8
SUNPO
  6
CONTINUOUS
 10
340.285372
 20
36.107269
 30
0.0
 11
341.198887
 21
36.730081
 31
0.0
210
0.0
220
0.0
230
-1.0
  0
LINE
  5
1B85A
  8
SUNPO
  6
CONTINUOUS
 10
341.198887
 20
36.730081
 30
0.0
 11
341.669983
 21
36.768293
 31
0.0
210
0.0
220
0.0
230
-1.0
  0
LINE
  5
1B85B
  8
SUNPO
  6
CONTINUOUS
 10
341.669983
 20
36.768293
 30
0.0
 11
341.4838
 21
36.255983
 31
0.0
210
0.0
220
0.0
230
-1.0
  0
LINE
  5
1B85C
  8
SUNPO
  6
CONTINUOUS
 10
341.4838
 20
36.255983
 30
0.0
 11
340.590898
 21
34.276791
 31
0.0
210
0.0
220
0.0
230
-1.0
  0
LINE
  5
1B85D
  8
SUNPO
  6
CONTINUOUS
 10
340.590898
 20
34.276791
 30
0.0
 11
340.887461
 21
33.297817
 31
0.0
210
0.0
220
0.0
230
-1.0
  0
LINE
  5
1B85E
  8
SUNPO
  6
CONTINUOUS
 10
340.887461
 20
33.297817
 30
0.0
 11
341.848871
 21
33.601967
 31
0.0
210
0.0
220
0.0
230
-1.0
  0
LINE
  5
1B85F
  8
SUNPO
  6
CONTINUOUS
 10
341.848871
 20
33.601967
 30
0.0
 11
342.334361
 21
34.719451
 31
0.0
210
0.0
220
0.0
230
-1.0
  0
LINE
  5
1B860
  8
SUNPO
  6
CONTINUOUS
 10
342.334361
 20
34.719451
 30
0.0
 11
342.446921
 21
35.220793
 31
0.0
210
0.0
220
0.0
230
-1.0
  0
LINE
  5
1B861
  8
SUNPO
  6
CONTINUOUS
 10
342.446921
 20
35.220793
 30
0.0
 11
342.3195
 21
34.695166
 31
0.0
210
0.0
220
0.0
230
-1.0
  0
LINE
  5
1B862
  8
SUNPO
  6
CONTINUOUS
 10
342.3195
 20
34.695166
 30
0.0
 11
342.269705
 21
33.62979
 31
0.0
210
0.0
220
0.0
230
-1.0
  0
LINE
  5
1B863
  8
SUNPO
  6
CONTINUOUS
 10
342.269705
 20
33.62979
 30
0.0
 11
343.105643
 21
33.048466
 31
0.0
210
0.0
220
0.0
230
-1.0
  0
LINE
  5
1B864
  8
SUNPO
  6
CONTINUOUS
 10
343.105643
 20
33.048466
 30
0.0
 11
343.978648
 21
33.664377
 31
0.0
210
0.0
220
0.0
230
-1.0
  0
LINE
  5
1B865
  8
SUNPO
  6
CONTINUOUS
 10
343.978648
 20
33.664377
 30
0.0
 11
344.42187
 21
34.654112
 31
0.0
210
0.0
220
0.0
230
-1.0
  0
LINE
  5
1B866
  8
SUNPO
  6
CONTINUOUS
 10
344.42187
 20
34.654112
 30
0.0
 11
344.306626
 21
36.810488
 31
0.0
210
0.0
220
0.0
230
-1.0
  0
LINE
  5
1B867
  8
SUNPO
  6
CONTINUOUS
 10
344.306626
 20
36.810488
 30
0.0
 11
346.444429
 21
36.57399
 31
0.0
210
0.0
220
0.0
230
-1.0
  0
LINE
  5
1BDED
  8
DANMEN
  6
CONTINUOUS
 10
68.849998
 20
74.499998
 30
0.0
 11
68.849998
 21
60.0
 31
0.0
  0
LINE
  5
1BDEE
  8
DANMEN
  6
CONTINUOUS
 10
70.799998
 20
74.5
 30
0.0
 11
70.799998
 21
60.0
 31
0.0
  0
LINE
  5
1BDEF
  8
DANMEN
  6
CONTINUOUS
 10
69.349999
 20
59.499997
 30
0.0
 11
70.299997
 21
59.499997
 31
0.0
  0
ARC
  5
1BDF0
  8
DANMEN
  6
CONTINUOUS
 10
69.349998
 20
60.0
 30
0.0
 40
0.5
 50
180.000052
 51
269.999982
  0
ARC
  5
1BDF1
  8
DANMEN
  6
CONTINUOUS
 10
70.299998
 20
60.0
 30
0.0
 40
0.5
 50
269.999982
 51
359.999964
  0
LINE
  5
1BDF2
  8
DANMEN
  6
CONTINUOUS
 10
70.799998
 20
74.5
 30
0.0
 11
72.499998
 21
74.5
 31
0.0
  0
ENDSEC
  0
EOF
