  0
SECTION
  2
HEADER
  9
$ACADVER
  1
AC1009
  9
$INSBASE
 10
0.0
 20
0.0
 30
0.0
  9
$EXTMIN
 10
4.986803
 20
4.971933
 30
-0.001526
  9
$EXTMAX
 10
415.019075
 20
292.013444
 30
0.0
  9
$LIMMIN
 10
-210.0
 20
-148.5
  9
$LIMMAX
 10
210.0
 20
148.5
  9
$ORTHOMODE
 70
     1
  9
$REGENMODE
 70
     1
  9
$FILLMODE
 70
     1
  9
$QTEXTMODE
 70
     0
  9
$MIRRTEXT
 70
     1
  9
$DRAGMODE
 70
     2
  9
$LTSCALE
 40
0.5
  9
$OSMODE
 70
   239
  9
$ATTMODE
 70
     1
  9
$TEXTSIZE
 40
0.2
  9
$TRACEWID
 40
0.05
  9
$TEXTSTYLE
  7
MX_NOTE_STANDARD
  9
$CLAYER
  8
0
  9
$CELTYPE
  6
CONTINUOUS
  9
$CECOLOR
 62
   256
  9
$DIMSCALE
 40
1.0
  9
$DIMASZ
 40
2.5
  9
$DIMEXO
 40
1.5
  9
$DIMDLI
 40
3.75
  9
$DIMRND
 40
0.0
  9
$DIMDLE
 40
0.0
  9
$DIMEXE
 40
0.0
  9
$DIMTP
 40
0.0
  9
$DIMTM
 40
0.0
  9
$DIMTXT
 40
2.5
  9
$DIMCEN
 40
2.5
  9
$DIMTSZ
 40
0.0
  9
$DIMTOL
 70
     0
  9
$DIMLIM
 70
     0
  9
$DIMTIH
 70
     0
  9
$DIMTOH
 70
     0
  9
$DIMSE1
 70
     0
  9
$DIMSE2
 70
     0
  9
$DIMTAD
 70
     1
  9
$DIMZIN
 70
     8
  9
$DIMBLK
  1

  9
$DIMASO
 70
     1
  9
$DIMSHO
 70
     1
  9
$DIMPOST
  1

  9
$DIMAPOST
  1

  9
$DIMALT
 70
     0
  9
$DIMALTD
 70
     4
  9
$DIMALTF
 40
0.0394
  9
$DIMLFAC
 40
1.0
  9
$DIMTOFL
 70
     1
  9
$DIMTVP
 40
0.0
  9
$DIMTIX
 70
     0
  9
$DIMSOXD
 70
     0
  9
$DIMSAH
 70
     0
  9
$DIMBLK1
  1

  9
$DIMBLK2
  1

  9
$DIMSTYLE
  2
MXDIMSTYLE
  9
$DIMCLRD
 70
     0
  9
$DIMCLRE
 70
     0
  9
$DIMCLRT
 70
     0
  9
$DIMTFAC
 40
1.0
  9
$DIMGAP
 40
1.0
  9
$LUNITS
 70
     2
  9
$LUPREC
 70
     4
  9
$SKETCHINC
 40
0.1
  9
$FILLETRAD
 40
0.0
  9
$AUNITS
 70
     0
  9
$AUPREC
 70
     0
  9
$MENU
  1
acad
  9
$ELEVATION
 40
0.0
  9
$PELEVATION
 40
0.0
  9
$THICKNESS
 40
0.0
  9
$LIMCHECK
 70
     0
  9
$BLIPMODE
 70
     0
  9
$CHAMFERA
 40
0.0
  9
$CHAMFERB
 40
0.0
  9
$SKPOLY
 70
     0
  9
$TDCREATE
 40
2452006.37162
  9
$TDUPDATE
 40
2452143.437747
  9
$TDINDWG
 40
0.085388
  9
$TDUSRTIMER
 40
0.085388
  9
$USRTIMER
 70
     1
  9
$ANGBASE
 50
0.0
  9
$ANGDIR
 70
     0
  9
$PDMODE
 70
     3
  9
$PDSIZE
 40
-100.0
  9
$PLINEWID
 40
0.0
  9
$COORDS
 70
     0
  9
$SPLFRAME
 70
     0
  9
$SPLINETYPE
 70
     6
  9
$SPLINESEGS
 70
     8
  9
$ATTDIA
 70
     0
  9
$ATTREQ
 70
     1
  9
$HANDLING
 70
     1
  9
$HANDSEED
  5
1AC53
  9
$SURFTAB1
 70
     6
  9
$SURFTAB2
 70
     6
  9
$SURFTYPE
 70
     6
  9
$SURFU
 70
     6
  9
$SURFV
 70
     6
  9
$UCSNAME
  2

  9
$UCSORG
 10
0.0
 20
0.0
 30
0.0
  9
$UCSXDIR
 10
1.0
 20
0.0
 30
0.0
  9
$UCSYDIR
 10
0.0
 20
1.0
 30
0.0
  9
$PUCSNAME
  2

  9
$PUCSORG
 10
0.0
 20
0.0
 30
0.0
  9
$PUCSXDIR
 10
1.0
 20
0.0
 30
0.0
  9
$PUCSYDIR
 10
0.0
 20
1.0
 30
0.0
  9
$USERI1
 70
     0
  9
$USERI2
 70
     0
  9
$USERI3
 70
     0
  9
$USERI4
 70
     0
  9
$USERI5
 70
     0
  9
$USERR1
 40
0.0
  9
$USERR2
 40
0.0
  9
$USERR3
 40
0.0
  9
$USERR4
 40
0.0
  9
$USERR5
 40
0.0
  9
$WORLDVIEW
 70
     1
  9
$SHADEDGE
 70
     3
  9
$SHADEDIF
 70
    70
  9
$TILEMODE
 70
     1
  9
$MAXACTVP
 70
    16
  9
$PLIMCHECK
 70
     0
  9
$PEXTMIN
 10
1.000000E+020
 20
1.000000E+020
 30
1.000000E+020
  9
$PEXTMAX
 10
-1.000000E+020
 20
-1.000000E+020
 30
-1.000000E+020
  9
$PLIMMIN
 10
0.0
 20
0.0
  9
$PLIMMAX
 10
12.0
 20
9.0
  9
$UNITMODE
 70
     0
  9
$VISRETAIN
 70
     0
  9
$PLINEGEN
 70
     1
  9
$PSLTSCALE
 70
     0
  0
ENDSEC
  0
SECTION
  2
TABLES
  0
TABLE
  2
VPORT
 70
     2
  0
VPORT
  2
*ACTIVE
 70
     0
 10
0.0
 20
0.0
 11
1.0
 21
1.0
 12
210.002939
 22
148.492688
 13
0.0
 23
0.0
 14
1.0
 24
1.0
 15
0.0
 25
0.0
 16
0.0
 26
0.0
 36
1.0
 17
0.0
 27
0.0
 37
0.0
 40
290.242718
 41
1.867784
 42
50.0
 43
0.0
 44
0.0
 50
0.0
 51
0.0
 71
     0
 72
   100
 73
     1
 74
     0
 75
     0
 76
     0
 77
     0
 78
     0
  0
ENDTAB
  0
TABLE
  2
LTYPE
 70
     2
  0
LTYPE
  2
CONTINUOUS
 70
     0
  3
Solid line
 72
    65
 73
     0
 40
0.0
  0
LTYPE
  2
DASHED
 70
     0
  3
Dashed __ __ __ __ __ __ __ __ __ __ __ __ __ _
 72
    65
 73
     2
 40
19.05
 49
12.7
 49
-6.35
  0
ENDTAB
  0
TABLE
  2
LAYER
 70
     4
  0
LAYER
  2
0
 70
     0
 62
     7
  6
CONTINUOUS
  0
LAYER
  2
SUNPO
 70
     0
 62
     1
  6
CONTINUOUS
  0
LAYER
  2
DANMEN
 70
     0
 62
     7
  6
CONTINUOUS
  0
LAYER
  2
WAKU
 70
     0
 62
     3
  6
CONTINUOUS
  0
ENDTAB
  0
TABLE
  2
STYLE
 70
     2
  0
STYLE
  2
STANDARD
 70
     0
 40
0.0
 41
1.0
 50
0.0
 71
     0
 42
0.2
  3
txt.shx
  4
extfont.shx
  0
STYLE
  2
MX_NOTE_STANDARD
 70
     0
 40
2.5
 41
1.0
 50
0.0
 71
     0
 42
2.5
  3
txt.shx
  4
extfont.shx
  0
ENDTAB
  0
TABLE
  2
VIEW
 70
     0
  0
ENDTAB
  0
TABLE
  2
UCS
 70
     0
  0
ENDTAB
  0
TABLE
  2
APPID
 70
     1
  0
APPID
  2
ACAD
 70
     0
  0
ENDTAB
  0
TABLE
  2
DIMSTYLE
 70
     1
  0
DIMSTYLE
  2
MXDIMSTYLE
 70
     0
  3

  4

  5

  6

  7

 40
1.0
 41
2.5
 42
1.5
 43
3.75
 44
0.0
 45
0.0
 46
0.0
 47
0.0
 48
0.0
140
2.5
141
2.5
142
0.0
143
0.0394
144
1.0
145
0.0
146
1.0
147
1.0
 71
     0
 72
     0
 73
     0
 74
     0
 75
     0
 76
     0
 77
     1
 78
     8
170
     0
171
     4
172
     1
173
     0
174
     0
175
     0
176
     0
177
     0
178
     0
  0
ENDTAB
  0
ENDSEC
  0
SECTION
  2
BLOCKS
  0
BLOCK
  8
0
  2
$MODEL_SPACE
 70
     0
 10
0.0
 20
0.0
 30
0.0
  3
$MODEL_SPACE
  1

  0
ENDBLK
  5
1A6ED
  8
0
  0
BLOCK
 67
     1
  8
0
  2
$PAPER_SPACE
 70
     0
 10
0.0
 20
0.0
 30
0.0
  3
$PAPER_SPACE
  1

  0
ENDBLK
  5
1A6EB
 67
     1
  8
0
  0
BLOCK
  8
0
  2
*U0
 70
     1
 10
0.0
 20
0.0
 30
0.0
  3
*U0
  1

  0
SOLID
  5
DA5C
  8
WAKU
  6
CONTINUOUS
 10
371.305142
 20
283.605291
 30
0.0
 11
370.499782
 21
283.530361
 31
0.0
 12
370.874987
 22
283.520449
 32
0.0
 13
370.874987
 23
283.520449
 33
0.0
  0
SOLID
  5
DA5D
  8
WAKU
  6
CONTINUOUS
 10
370.193309
 20
283.634664
 30
0.0
 11
370.499782
 21
283.530361
 31
0.0
 12
371.305142
 22
283.605291
 32
0.0
 13
371.305142
 23
283.605291
 33
0.0
  0
SOLID
  5
DA5E
  8
WAKU
  6
CONTINUOUS
 10
371.774448
 20
283.781773
 30
0.0
 11
370.193309
 21
283.634664
 31
0.0
 12
371.305142
 22
283.605291
 32
0.0
 13
371.305142
 23
283.605291
 33
0.0
  0
SOLID
  5
DA5F
  8
WAKU
  6
CONTINUOUS
 10
369.966824
 20
283.829526
 30
0.0
 11
370.193309
 21
283.634664
 31
0.0
 12
371.774448
 22
283.781773
 32
0.0
 13
371.774448
 23
283.781773
 33
0.0
  0
SOLID
  5
DA60
  8
WAKU
  6
CONTINUOUS
 10
370.594177
 20
283.909498
 30
0.0
 11
369.966824
 21
283.829526
 31
0.0
 12
371.774448
 22
283.781773
 32
0.0
 13
371.774448
 23
283.781773
 33
0.0
  0
SOLID
  5
DA61
  8
WAKU
  6
CONTINUOUS
 10
370.901294
 20
283.914863
 30
0.0
 11
370.594177
 21
283.909498
 31
0.0
 12
371.774448
 22
283.781773
 32
0.0
 13
371.774448
 23
283.781773
 33
0.0
  0
SOLID
  5
DA62
  8
WAKU
  6
CONTINUOUS
 10
370.392927
 20
283.968568
 30
0.0
 11
369.966824
 21
283.829526
 31
0.0
 12
370.594177
 22
283.909498
 32
0.0
 13
370.594177
 23
283.909498
 33
0.0
  0
SOLID
  5
DA63
  8
WAKU
  6
CONTINUOUS
 10
371.296984
 20
284.010368
 30
0.0
 11
370.901294
 21
283.914863
 31
0.0
 12
371.774448
 22
283.781773
 32
0.0
 13
371.774448
 23
283.781773
 33
0.0
  0
SOLID
  5
DA64
  8
WAKU
  6
CONTINUOUS
 10
372.265666
 20
284.043411
 30
0.0
 11
371.296984
 21
284.010368
 31
0.0
 12
371.774448
 22
283.781773
 32
0.0
 13
371.774448
 23
283.781773
 33
0.0
  0
SOLID
  5
DA65
  8
WAKU
  6
CONTINUOUS
 10
370.275177
 20
284.066476
 30
0.0
 11
369.966824
 21
283.829526
 31
0.0
 12
370.392927
 22
283.968568
 32
0.0
 13
370.392927
 23
283.968568
 33
0.0
  0
SOLID
  5
DA66
  8
WAKU
  6
CONTINUOUS
 10
369.828646
 20
284.107791
 30
0.0
 11
369.966824
 21
283.829526
 31
0.0
 12
370.275177
 22
284.066476
 32
0.0
 13
370.275177
 23
284.066476
 33
0.0
  0
SOLID
  5
DA67
  8
WAKU
  6
CONTINUOUS
 10
370.709458
 20
284.142397
 30
0.0
 11
369.828646
 21
284.107791
 31
0.0
 12
370.275177
 22
284.066476
 32
0.0
 13
370.275177
 23
284.066476
 33
0.0
  0
SOLID
  5
DA68
  8
WAKU
  6
CONTINUOUS
 10
371.751882
 20
284.202798
 30
0.0
 11
371.296984
 21
284.010368
 31
0.0
 12
372.265666
 22
284.043411
 32
0.0
 13
372.265666
 23
284.043411
 33
0.0
  0
SOLID
  5
DA69
  8
WAKU
  6
CONTINUOUS
 10
369.550381
 20
284.245969
 30
0.0
 11
369.828646
 21
284.107791
 31
0.0
 12
370.709458
 22
284.142397
 32
0.0
 13
370.709458
 23
284.142397
 33
0.0
  0
SOLID
  5
DA6A
  8
WAKU
  6
CONTINUOUS
 10
371.186428
 20
284.314625
 30
0.0
 11
369.550381
 21
284.245969
 31
0.0
 12
370.709458
 22
284.142397
 32
0.0
 13
370.709458
 23
284.142397
 33
0.0
  0
SOLID
  5
DA6B
  8
WAKU
  6
CONTINUOUS
 10
372.760756
 20
284.380595
 30
0.0
 11
371.751882
 21
284.202798
 31
0.0
 12
372.265666
 22
284.043411
 32
0.0
 13
372.265666
 23
284.043411
 33
0.0
  0
SOLID
  5
DA6C
  8
WAKU
  6
CONTINUOUS
 10
370.172911
 20
284.451856
 30
0.0
 11
369.550381
 21
284.245969
 31
0.0
 12
371.186428
 22
284.314625
 32
0.0
 13
371.186428
 23
284.314625
 33
0.0
  0
SOLID
  5
DA6D
  8
WAKU
  6
CONTINUOUS
 10
369.355518
 20
284.472454
 30
0.0
 11
369.550381
 21
284.245969
 31
0.0
 12
370.172911
 22
284.451856
 32
0.0
 13
370.172911
 23
284.451856
 33
0.0
  0
SOLID
  5
DA6E
  8
WAKU
  6
CONTINUOUS
 10
372.237497
 20
284.486117
 30
0.0
 11
371.751882
 21
284.202798
 31
0.0
 12
372.760756
 22
284.380595
 32
0.0
 13
372.760756
 23
284.380595
 33
0.0
  0
SOLID
  5
DA6F
  8
WAKU
  6
CONTINUOUS
 10
370.681395
 20
284.539195
 30
0.0
 11
370.172911
 21
284.451856
 31
0.0
 12
371.186428
 22
284.314625
 32
0.0
 13
371.186428
 23
284.314625
 33
0.0
  0
SOLID
  5
DA70
  8
WAKU
  6
CONTINUOUS
 10
369.787305
 20
284.553935
 30
0.0
 11
369.355518
 21
284.472454
 31
0.0
 12
370.172911
 22
284.451856
 32
0.0
 13
370.172911
 23
284.451856
 33
0.0
  0
SOLID
  5
DA71
  8
WAKU
  6
CONTINUOUS
 10
371.68777
 20
284.576545
 30
0.0
 11
370.681395
 21
284.539195
 31
0.0
 12
371.186428
 22
284.314625
 32
0.0
 13
371.186428
 23
284.314625
 33
0.0
  0
SOLID
  5
DA72
  8
WAKU
  6
CONTINUOUS
 10
369.689155
 20
284.672435
 30
0.0
 11
369.355518
 21
284.472454
 31
0.0
 12
369.787305
 22
284.553935
 32
0.0
 13
369.787305
 23
284.553935
 33
0.0
  0
SOLID
  5
DA73
  8
WAKU
  6
CONTINUOUS
 10
369.251215
 20
284.778928
 30
0.0
 11
369.355518
 21
284.472454
 31
0.0
 12
369.689155
 22
284.672435
 32
0.0
 13
369.689155
 23
284.672435
 33
0.0
  0
SOLID
  5
DA74
  8
WAKU
  6
CONTINUOUS
 10
373.241532
 20
284.780941
 30
0.0
 11
372.237497
 21
284.486117
 31
0.0
 12
372.760756
 22
284.380595
 32
0.0
 13
372.760756
 23
284.380595
 33
0.0
  0
SOLID
  5
DA75
  8
WAKU
  6
CONTINUOUS
 10
371.312263
 20
284.810332
 30
0.0
 11
370.681395
 21
284.539195
 31
0.0
 12
371.68777
 22
284.576545
 32
0.0
 13
371.68777
 23
284.576545
 33
0.0
  0
SOLID
  5
DA76
  8
WAKU
  6
CONTINUOUS
 10
369.630358
 20
284.873087
 30
0.0
 11
369.251215
 21
284.778928
 31
0.0
 12
369.689155
 22
284.672435
 32
0.0
 13
369.689155
 23
284.672435
 33
0.0
  0
SOLID
  5
DA77
  8
WAKU
  6
CONTINUOUS
 10
372.194232
 20
284.918099
 30
0.0
 11
371.312263
 21
284.810332
 31
0.0
 12
371.68777
 22
284.576545
 32
0.0
 13
371.68777
 23
284.576545
 33
0.0
  0
SOLID
  5
DA78
  8
WAKU
  6
CONTINUOUS
 10
370.260168
 20
284.959969
 30
0.0
 11
369.787305
 21
284.553935
 31
0.0
 12
370.172911
 22
284.451856
 32
0.0
 13
370.172911
 23
284.451856
 33
0.0
  0
SOLID
  5
DA79
  8
WAKU
  6
CONTINUOUS
 10
369.863139
 20
284.988189
 30
0.0
 11
369.787305
 21
284.553935
 31
0.0
 12
370.260168
 22
284.959969
 32
0.0
 13
370.260168
 23
284.959969
 33
0.0
  0
SOLID
  5
DA7A
  8
WAKU
  6
CONTINUOUS
 10
398.194006
 20
285.115385
 30
0.0
 11
397.606055
 21
283.5
 31
0.0
 12
401.913747
 22
283.5
 32
0.0
 13
401.913747
 23
283.5
 33
0.0
  0
SOLID
  5
DA7B
  8
WAKU
  6
CONTINUOUS
 10
401.913747
 20
283.5
 30
0.0
 11
401.424776
 21
285.115385
 31
0.0
 12
398.194006
 22
285.115385
 32
0.0
 13
398.194006
 23
285.115385
 33
0.0
  0
SOLID
  5
DA7C
  8
WAKU
  6
CONTINUOUS
 10
369.241303
 20
285.154132
 30
0.0
 11
369.251215
 21
284.778928
 31
0.0
 12
369.630358
 22
284.873087
 32
0.0
 13
369.630358
 23
284.873087
 33
0.0
  0
SOLID
  5
DA7D
  8
WAKU
  6
CONTINUOUS
 10
369.635696
 20
285.180404
 30
0.0
 11
369.241303
 21
285.154132
 31
0.0
 12
369.630358
 22
284.873087
 32
0.0
 13
369.630358
 23
284.873087
 33
0.0
  0
SOLID
  5
DA7E
  8
WAKU
  6
CONTINUOUS
 10
373.690335
 20
285.229744
 30
0.0
 11
372.237497
 21
284.486117
 31
0.0
 12
373.241532
 22
284.780941
 32
0.0
 13
373.241532
 23
284.780941
 33
0.0
  0
SOLID
  5
DA7F
  8
WAKU
  6
CONTINUOUS
 10
371.98994
 20
285.251431
 30
0.0
 11
371.312263
 21
284.810332
 31
0.0
 12
372.194232
 22
284.918099
 32
0.0
 13
372.194232
 23
284.918099
 33
0.0
  0
SOLID
  5
DA80
  8
WAKU
  6
CONTINUOUS
 10
373.195965
 20
285.275232
 30
0.0
 11
372.237497
 21
284.486117
 31
0.0
 12
373.690335
 22
285.229744
 32
0.0
 13
373.690335
 23
285.229744
 33
0.0
  0
SOLID
  5
DA81
  8
WAKU
  6
CONTINUOUS
 10
372.686363
 20
285.326171
 30
0.0
 11
371.98994
 21
285.251431
 31
0.0
 12
372.194232
 22
284.918099
 32
0.0
 13
372.194232
 23
284.918099
 33
0.0
  0
SOLID
  5
DA82
  8
WAKU
  6
CONTINUOUS
 10
370.035293
 20
285.465154
 30
0.0
 11
369.863139
 21
284.988189
 31
0.0
 12
370.260168
 22
284.959969
 32
0.0
 13
370.260168
 23
284.959969
 33
0.0
  0
SOLID
  5
DA83
  8
WAKU
  6
CONTINUOUS
 10
369.73149
 20
285.576021
 30
0.0
 11
369.241303
 21
285.154132
 31
0.0
 12
369.635696
 22
285.180404
 32
0.0
 13
369.635696
 23
285.180404
 33
0.0
  0
SOLID
  5
DA84
  8
WAKU
  6
CONTINUOUS
 10
369.326146
 20
285.584287
 30
0.0
 11
369.241303
 21
285.154132
 31
0.0
 12
369.73149
 22
285.576021
 32
0.0
 13
369.73149
 23
285.576021
 33
0.0
  0
SOLID
  5
DA85
  8
WAKU
  6
CONTINUOUS
 10
370.530712
 20
285.590875
 30
0.0
 11
370.035293
 21
285.465154
 31
0.0
 12
370.260168
 22
284.959969
 32
0.0
 13
370.260168
 23
284.959969
 33
0.0
  0
SOLID
  5
DA86
  8
WAKU
  6
CONTINUOUS
 10
389.236144
 20
285.653846
 30
0.0
 11
383.067593
 21
283.5
 31
0.0
 12
388.452208
 22
283.5
 32
0.0
 13
388.452208
 23
283.5
 33
0.0
  0
SOLID
  5
DA87
  8
WAKU
  6
CONTINUOUS
 10
383.851529
 20
285.653846
 30
0.0
 11
383.067593
 21
283.5
 31
0.0
 12
389.236144
 22
285.653846
 32
0.0
 13
389.236144
 23
285.653846
 33
0.0
  0
SOLID
  5
DA88
  8
WAKU
  6
CONTINUOUS
 10
404.851529
 20
285.653846
 30
0.0
 11
404.067593
 21
283.5
 31
0.0
 12
409.452208
 22
283.5
 32
0.0
 13
409.452208
 23
283.5
 33
0.0
  0
SOLID
  5
DA89
  8
WAKU
  6
CONTINUOUS
 10
409.452208
 20
283.5
 30
0.0
 11
409.159221
 21
285.653846
 31
0.0
 12
404.851529
 22
285.653846
 32
0.0
 13
404.851529
 23
285.653846
 33
0.0
  0
SOLID
  5
DA8A
  8
WAKU
  6
CONTINUOUS
 10
391.174606
 20
285.653846
 30
0.0
 11
390.39067
 21
283.5
 31
0.0
 12
395.452208
 22
283.5
 32
0.0
 13
395.452208
 23
283.5
 33
0.0
  0
SOLID
  5
DA8B
  8
WAKU
  6
CONTINUOUS
 10
395.452208
 20
283.5
 30
0.0
 11
395.159221
 21
285.653846
 31
0.0
 12
391.174606
 22
285.653846
 32
0.0
 13
391.174606
 23
285.653846
 33
0.0
  0
SOLID
  5
DA8C
  8
WAKU
  6
CONTINUOUS
 10
374.090681
 20
285.71052
 30
0.0
 11
373.195965
 21
285.275232
 31
0.0
 12
373.690335
 22
285.229744
 32
0.0
 13
373.690335
 23
285.229744
 33
0.0
  0
SOLID
  5
DA8D
  8
WAKU
  6
CONTINUOUS
 10
373.145266
 20
285.785089
 30
0.0
 11
371.98994
 21
285.251431
 31
0.0
 12
372.686363
 22
285.326171
 32
0.0
 13
372.686363
 23
285.326171
 33
0.0
  0
SOLID
  5
DA8E
  8
WAKU
  6
CONTINUOUS
 10
372.646296
 20
285.825506
 30
0.0
 11
371.98994
 21
285.251431
 31
0.0
 12
373.145266
 22
285.785089
 32
0.0
 13
373.145266
 23
285.785089
 33
0.0
  0
SOLID
  5
DA8F
  8
WAKU
  6
CONTINUOUS
 10
370.297156
 20
285.966509
 30
0.0
 11
370.035293
 21
285.465154
 31
0.0
 12
370.530712
 22
285.590875
 32
0.0
 13
370.530712
 23
285.590875
 33
0.0
  0
SOLID
  5
DA90
  8
WAKU
  6
CONTINUOUS
 10
369.923519
 20
286.031028
 30
0.0
 11
369.326146
 21
285.584287
 31
0.0
 12
369.73149
 22
285.576021
 32
0.0
 13
369.73149
 23
285.576021
 33
0.0
  0
SOLID
  5
DA91
  8
WAKU
  6
CONTINUOUS
 10
369.502627
 20
286.053593
 30
0.0
 11
369.326146
 21
285.584287
 31
0.0
 12
369.923519
 22
286.031028
 32
0.0
 13
369.923519
 23
286.031028
 33
0.0
  0
SOLID
  5
DA92
  8
WAKU
  6
CONTINUOUS
 10
379.397145
 20
286.138462
 30
0.0
 11
378.436824
 21
283.5
 31
0.0
 12
379.513747
 22
283.5
 32
0.0
 13
379.513747
 23
283.5
 33
0.0
  0
SOLID
  5
DA93
  8
WAKU
  6
CONTINUOUS
 10
377.155205
 20
286.192308
 30
0.0
 11
376.175285
 21
283.5
 31
0.0
 12
379.397145
 22
286.138462
 32
0.0
 13
379.397145
 23
286.138462
 33
0.0
  0
SOLID
  5
DA94
  8
WAKU
  6
CONTINUOUS
 10
380.493667
 20
286.192308
 30
0.0
 11
377.155205
 21
286.192308
 31
0.0
 12
379.397145
 22
286.138462
 32
0.0
 13
379.397145
 23
286.138462
 33
0.0
  0
SOLID
  5
DA95
  8
WAKU
  6
CONTINUOUS
 10
380.493667
 20
286.192308
 30
0.0
 11
379.397145
 21
286.138462
 31
0.0
 12
379.513747
 22
283.5
 32
0.0
 13
379.513747
 23
283.5
 33
0.0
  0
SOLID
  5
DA96
  8
WAKU
  6
CONTINUOUS
 10
380.493667
 20
286.192308
 30
0.0
 11
381.775285
 21
283.5
 31
0.0
 12
382.755205
 22
286.192308
 32
0.0
 13
382.755205
 23
286.192308
 33
0.0
  0
SOLID
  5
DA97
  8
WAKU
  6
CONTINUOUS
 10
374.427865
 20
286.205609
 30
0.0
 11
373.195965
 21
285.275232
 31
0.0
 12
374.090681
 22
285.71052
 32
0.0
 13
374.090681
 23
285.71052
 33
0.0
  0
SOLID
  5
DA98
  8
WAKU
  6
CONTINUOUS
 10
373.98505
 20
286.233718
 30
0.0
 11
373.195965
 21
285.275232
 31
0.0
 12
374.427865
 22
286.205609
 32
0.0
 13
374.427865
 23
286.205609
 33
0.0
  0
SOLID
  5
DA99
  8
WAKU
  6
CONTINUOUS
 10
370.971896
 20
286.268471
 30
0.0
 11
370.297156
 21
285.966509
 31
0.0
 12
370.530712
 22
285.590875
 32
0.0
 13
370.530712
 23
285.590875
 33
0.0
  0
SOLID
  5
DA9A
  8
WAKU
  6
CONTINUOUS
 10
373.553316
 20
286.277229
 30
0.0
 11
372.646296
 21
285.825506
 31
0.0
 12
373.145266
 22
285.785089
 32
0.0
 13
373.145266
 23
285.785089
 33
0.0
  0
SOLID
  5
DA9B
  8
WAKU
  6
CONTINUOUS
 10
370.638671
 20
286.473
 30
0.0
 11
370.297156
 21
285.966509
 31
0.0
 12
370.971896
 22
286.268471
 32
0.0
 13
370.971896
 23
286.268471
 33
0.0
  0
SOLID
  5
DA9C
  8
WAKU
  6
CONTINUOUS
 10
373.220238
 20
286.48192
 30
0.0
 11
372.646296
 21
285.825506
 31
0.0
 12
373.553316
 22
286.277229
 32
0.0
 13
373.553316
 23
286.277229
 33
0.0
  0
SOLID
  5
DA9D
  8
WAKU
  6
CONTINUOUS
 10
370.207035
 20
286.51657
 30
0.0
 11
369.502627
 21
286.053593
 31
0.0
 12
369.923519
 22
286.031028
 32
0.0
 13
369.923519
 23
286.031028
 33
0.0
  0
SOLID
  5
DA9E
  8
WAKU
  6
CONTINUOUS
 10
369.764265
 20
286.544812
 30
0.0
 11
369.502627
 21
286.053593
 31
0.0
 12
370.207035
 22
286.51657
 32
0.0
 13
370.207035
 23
286.51657
 33
0.0
  0
SOLID
  5
DA9F
  8
WAKU
  6
CONTINUOUS
 10
374.689503
 20
286.696828
 30
0.0
 11
373.98505
 21
286.233718
 31
0.0
 12
374.427865
 22
286.205609
 32
0.0
 13
374.427865
 23
286.205609
 33
0.0
  0
SOLID
  5
DAA0
  8
WAKU
  6
CONTINUOUS
 10
374.268507
 20
286.719278
 30
0.0
 11
373.98505
 21
286.233718
 31
0.0
 12
374.689503
 22
286.696828
 32
0.0
 13
374.689503
 23
286.696828
 33
0.0
  0
SOLID
  5
DAA1
  8
WAKU
  6
CONTINUOUS
 10
373.894843
 20
286.783693
 30
0.0
 11
373.220238
 21
286.48192
 31
0.0
 12
373.553316
 22
286.277229
 32
0.0
 13
373.553316
 23
286.277229
 33
0.0
  0
SOLID
  5
DAA2
  8
WAKU
  6
CONTINUOUS
 10
371.545827
 20
286.924893
 30
0.0
 11
370.638671
 21
286.473
 31
0.0
 12
370.971896
 22
286.268471
 32
0.0
 13
370.971896
 23
286.268471
 33
0.0
  0
SOLID
  5
DAA3
  8
WAKU
  6
CONTINUOUS
 10
371.04672
 20
286.965174
 30
0.0
 11
370.638671
 21
286.473
 31
0.0
 12
371.545827
 22
286.924893
 32
0.0
 13
371.545827
 23
286.924893
 33
0.0
  0
SOLID
  5
DAA4
  8
WAKU
  6
CONTINUOUS
 10
370.101449
 20
287.039901
 30
0.0
 11
369.764265
 21
286.544812
 31
0.0
 12
370.207035
 22
286.51657
 32
0.0
 13
370.207035
 23
286.51657
 33
0.0
  0
SOLID
  5
DAA5
  8
WAKU
  6
CONTINUOUS
 10
373.661353
 20
287.159534
 30
0.0
 11
373.220238
 21
286.48192
 31
0.0
 12
373.894843
 22
286.783693
 32
0.0
 13
373.894843
 23
286.783693
 33
0.0
  0
SOLID
  5
DAA6
  8
WAKU
  6
CONTINUOUS
 10
374.865984
 20
287.166134
 30
0.0
 11
374.268507
 21
286.719278
 31
0.0
 12
374.689503
 22
286.696828
 32
0.0
 13
374.689503
 23
286.696828
 33
0.0
  0
SOLID
  5
DAA7
  8
WAKU
  6
CONTINUOUS
 10
374.46071
 20
287.174248
 30
0.0
 11
374.268507
 21
286.719278
 31
0.0
 12
374.865984
 22
287.166134
 32
0.0
 13
374.865984
 23
287.166134
 33
0.0
  0
SOLID
  5
DAA8
  8
WAKU
  6
CONTINUOUS
 10
374.156732
 20
287.28503
 30
0.0
 11
373.661353
 21
287.159534
 31
0.0
 12
373.894843
 22
286.783693
 32
0.0
 13
373.894843
 23
286.783693
 33
0.0
  0
SOLID
  5
DAA9
  8
WAKU
  6
CONTINUOUS
 10
371.505632
 20
287.424128
 30
0.0
 11
371.04672
 21
286.965174
 31
0.0
 12
371.545827
 22
286.924893
 32
0.0
 13
371.545827
 23
286.924893
 33
0.0
  0
SOLID
  5
DAAA
  8
WAKU
  6
CONTINUOUS
 10
370.996098
 20
287.475108
 30
0.0
 11
370.101449
 21
287.039901
 31
0.0
 12
370.207035
 22
286.51657
 32
0.0
 13
370.207035
 23
286.51657
 33
0.0
  0
SOLID
  5
DAAB
  8
WAKU
  6
CONTINUOUS
 10
372.202181
 20
287.498991
 30
0.0
 11
371.505632
 21
287.424128
 31
0.0
 12
371.545827
 22
286.924893
 32
0.0
 13
371.545827
 23
286.924893
 33
0.0
  0
SOLID
  5
DAAC
  8
WAKU
  6
CONTINUOUS
 10
370.501795
 20
287.520677
 30
0.0
 11
370.101449
 21
287.039901
 31
0.0
 12
370.996098
 22
287.475108
 32
0.0
 13
370.996098
 23
287.475108
 33
0.0
  0
SOLID
  5
DAAD
  8
WAKU
  6
CONTINUOUS
 10
374.556361
 20
287.569864
 30
0.0
 11
374.46071
 21
287.174248
 31
0.0
 12
374.865984
 22
287.166134
 32
0.0
 13
374.865984
 23
287.166134
 33
0.0
  0
SOLID
  5
DAAE
  8
WAKU
  6
CONTINUOUS
 10
395.864763
 20
287.592308
 30
0.0
 11
395.159221
 21
285.653846
 31
0.0
 12
395.452208
 22
283.5
 32
0.0
 13
395.452208
 23
283.5
 33
0.0
  0
SOLID
  5
DAAF
  8
WAKU
  6
CONTINUOUS
 10
393.172456
 20
287.592308
 30
0.0
 11
391.703565
 21
286.515385
 31
0.0
 12
392.780488
 22
286.515385
 32
0.0
 13
392.780488
 23
286.515385
 33
0.0
  0
SOLID
  5
DAB0
  8
WAKU
  6
CONTINUOUS
 10
392.095533
 20
287.592308
 30
0.0
 11
391.703565
 21
286.515385
 31
0.0
 12
393.172456
 22
287.592308
 32
0.0
 13
393.172456
 23
287.592308
 33
0.0
  0
SOLID
  5
DAB1
  8
WAKU
  6
CONTINUOUS
 10
391.28784
 20
287.592308
 30
0.0
 11
392.095533
 21
287.592308
 31
0.0
 12
393.172456
 22
287.592308
 32
0.0
 13
393.172456
 23
287.592308
 33
0.0
  0
SOLID
  5
DAB2
  8
WAKU
  6
CONTINUOUS
 10
391.28784
 20
287.592308
 30
0.0
 11
393.172456
 21
287.592308
 31
0.0
 12
395.864763
 22
287.592308
 32
0.0
 13
395.864763
 23
287.592308
 33
0.0
  0
SOLID
  5
DAB3
  8
WAKU
  6
CONTINUOUS
 10
396.941687
 20
287.592308
 30
0.0
 11
391.28784
 21
287.592308
 31
0.0
 12
395.864763
 22
287.592308
 32
0.0
 13
395.864763
 23
287.592308
 33
0.0
  0
SOLID
  5
DAB4
  8
WAKU
  6
CONTINUOUS
 10
396.941687
 20
287.592308
 30
0.0
 11
395.864763
 21
287.592308
 31
0.0
 12
395.452208
 22
283.5
 32
0.0
 13
395.452208
 23
283.5
 33
0.0
  0
SOLID
  5
DAB5
  8
WAKU
  6
CONTINUOUS
 10
374.950827
 20
287.596289
 30
0.0
 11
374.556361
 21
287.569864
 31
0.0
 12
374.865984
 22
287.166134
 32
0.0
 13
374.865984
 23
287.166134
 33
0.0
  0
SOLID
  5
DAB6
  8
WAKU
  6
CONTINUOUS
 10
374.328925
 20
287.761987
 30
0.0
 11
373.661353
 21
287.159534
 31
0.0
 12
374.156732
 22
287.28503
 32
0.0
 13
374.156732
 23
287.28503
 33
0.0
  0
SOLID
  5
DAB7
  8
WAKU
  6
CONTINUOUS
 10
373.932071
 20
287.790402
 30
0.0
 11
373.661353
 21
287.159534
 31
0.0
 12
374.328925
 22
287.761987
 32
0.0
 13
374.328925
 23
287.761987
 33
0.0
  0
SOLID
  5
DAB8
  8
WAKU
  6
CONTINUOUS
 10
371.997783
 20
287.832235
 30
0.0
 11
371.505632
 21
287.424128
 31
0.0
 12
372.202181
 22
287.498991
 32
0.0
 13
372.202181
 23
287.498991
 33
0.0
  0
SOLID
  5
DAB9
  8
WAKU
  6
CONTINUOUS
 10
374.561802
 20
287.877253
 30
0.0
 11
374.556361
 21
287.569864
 31
0.0
 12
374.950827
 22
287.596289
 32
0.0
 13
374.950827
 23
287.596289
 33
0.0
  0
SOLID
  5
DABA
  8
WAKU
  6
CONTINUOUS
 10
372.879878
 20
287.940057
 30
0.0
 11
371.997783
 21
287.832235
 31
0.0
 12
372.202181
 22
287.498991
 32
0.0
 13
372.202181
 23
287.498991
 33
0.0
  0
SOLID
  5
DABB
  8
WAKU
  6
CONTINUOUS
 10
370.950599
 20
287.96948
 30
0.0
 11
370.501795
 21
287.520677
 31
0.0
 12
370.996098
 22
287.475108
 32
0.0
 13
370.996098
 23
287.475108
 33
0.0
  0
SOLID
  5
DABC
  8
WAKU
  6
CONTINUOUS
 10
374.940915
 20
287.971493
 30
0.0
 11
374.561802
 21
287.877253
 31
0.0
 12
374.950827
 22
287.596289
 32
0.0
 13
374.950827
 23
287.596289
 33
0.0
  0
SOLID
  5
DABD
  8
WAKU
  6
CONTINUOUS
 10
374.502951
 20
288.077918
 30
0.0
 11
374.561802
 21
287.877253
 31
0.0
 12
374.940915
 22
287.971493
 32
0.0
 13
374.940915
 23
287.971493
 33
0.0
  0
SOLID
  5
DABE
  8
WAKU
  6
CONTINUOUS
 10
405.753055
 20
288.130769
 30
0.0
 11
405.282694
 21
286.838462
 31
0.0
 12
408.513463
 22
286.838462
 32
0.0
 13
408.513463
 23
286.838462
 33
0.0
  0
SOLID
  5
DABF
  8
WAKU
  6
CONTINUOUS
 10
408.983824
 20
288.130769
 30
0.0
 11
405.753055
 21
288.130769
 31
0.0
 12
408.513463
 22
286.838462
 32
0.0
 13
408.513463
 23
286.838462
 33
0.0
  0
SOLID
  5
DAC0
  8
WAKU
  6
CONTINUOUS
 10
372.504269
 20
288.173821
 30
0.0
 11
371.997783
 21
287.832235
 31
0.0
 12
372.879878
 22
287.940057
 32
0.0
 13
372.879878
 23
287.940057
 33
0.0
  0
SOLID
  5
DAC1
  8
WAKU
  6
CONTINUOUS
 10
374.40481
 20
288.196249
 30
0.0
 11
373.932071
 21
287.790402
 31
0.0
 12
374.328925
 22
287.761987
 32
0.0
 13
374.328925
 23
287.761987
 33
0.0
  0
SOLID
  5
DAC2
  8
WAKU
  6
CONTINUOUS
 10
374.40481
 20
288.196249
 30
0.0
 11
374.502951
 21
288.077918
 31
0.0
 12
374.940915
 22
287.971493
 32
0.0
 13
374.940915
 23
287.971493
 33
0.0
  0
SOLID
  5
DAC3
  8
WAKU
  6
CONTINUOUS
 10
373.510738
 20
288.21124
 30
0.0
 11
372.504269
 21
288.173821
 31
0.0
 12
372.879878
 22
287.940057
 32
0.0
 13
372.879878
 23
287.940057
 33
0.0
  0
SOLID
  5
DAC4
  8
WAKU
  6
CONTINUOUS
 10
371.954587
 20
288.264284
 30
0.0
 11
370.950599
 21
287.96948
 31
0.0
 12
370.996098
 22
287.475108
 32
0.0
 13
370.996098
 23
287.475108
 33
0.0
  0
SOLID
  5
DAC5
  8
WAKU
  6
CONTINUOUS
 10
374.836612
 20
288.277967
 30
0.0
 11
374.40481
 21
288.196249
 31
0.0
 12
374.940915
 22
287.971493
 32
0.0
 13
374.940915
 23
287.971493
 33
0.0
  0
SOLID
  5
DAC6
  8
WAKU
  6
CONTINUOUS
 10
374.019229
 20
288.298569
 30
0.0
 11
372.504269
 21
288.173821
 31
0.0
 12
373.510738
 22
288.21124
 32
0.0
 13
373.510738
 23
288.21124
 33
0.0
  0
SOLID
  5
DAC7
  8
WAKU
  6
CONTINUOUS
 10
374.019229
 20
288.298569
 30
0.0
 11
374.40481
 21
288.196249
 31
0.0
 12
374.836612
 22
288.277967
 32
0.0
 13
374.836612
 23
288.277967
 33
0.0
  0
SOLID
  5
DAC8
  8
WAKU
  6
CONTINUOUS
 10
374.019229
 20
288.298569
 30
0.0
 11
373.932071
 21
287.790402
 31
0.0
 12
374.40481
 22
288.196249
 32
0.0
 13
374.40481
 23
288.196249
 33
0.0
  0
SOLID
  5
DAC9
  8
WAKU
  6
CONTINUOUS
 10
371.431374
 20
288.369826
 30
0.0
 11
370.950599
 21
287.96948
 31
0.0
 12
371.954587
 22
288.264284
 32
0.0
 13
371.954587
 23
288.264284
 33
0.0
  0
SOLID
  5
DACA
  8
WAKU
  6
CONTINUOUS
 10
373.005639
 20
288.435768
 30
0.0
 11
372.504269
 21
288.173821
 31
0.0
 12
374.019229
 22
288.298569
 32
0.0
 13
374.019229
 23
288.298569
 33
0.0
  0
SOLID
  5
DACB
  8
WAKU
  6
CONTINUOUS
 10
374.641749
 20
288.504452
 30
0.0
 11
373.005639
 21
288.435768
 31
0.0
 12
374.019229
 22
288.298569
 32
0.0
 13
374.019229
 23
288.298569
 33
0.0
  0
SOLID
  5
DACC
  8
WAKU
  6
CONTINUOUS
 10
374.641749
 20
288.504452
 30
0.0
 11
374.019229
 21
288.298569
 31
0.0
 12
374.836612
 22
288.277967
 32
0.0
 13
374.836612
 23
288.277967
 33
0.0
  0
SOLID
  5
DACD
  8
WAKU
  6
CONTINUOUS
 10
372.440235
 20
288.547585
 30
0.0
 11
371.431374
 21
288.369826
 31
0.0
 12
371.954587
 22
288.264284
 32
0.0
 13
371.954587
 23
288.264284
 33
0.0
  0
SOLID
  5
DACE
  8
WAKU
  6
CONTINUOUS
 10
373.482636
 20
288.608014
 30
0.0
 11
373.005639
 21
288.435768
 31
0.0
 12
374.641749
 22
288.504452
 32
0.0
 13
374.641749
 23
288.504452
 33
0.0
  0
SOLID
  5
DACF
  8
WAKU
  6
CONTINUOUS
 10
374.363484
 20
288.64263
 30
0.0
 11
373.482636
 21
288.608014
 31
0.0
 12
374.641749
 22
288.504452
 32
0.0
 13
374.641749
 23
288.504452
 33
0.0
  0
SOLID
  5
DAD0
  8
WAKU
  6
CONTINUOUS
 10
373.916941
 20
288.683944
 30
0.0
 11
373.482636
 21
288.608014
 31
0.0
 12
374.363484
 22
288.64263
 32
0.0
 13
374.363484
 23
288.64263
 33
0.0
  0
SOLID
  5
DAD1
  8
WAKU
  6
CONTINUOUS
 10
371.926464
 20
288.70701
 30
0.0
 11
371.431374
 21
288.369826
 31
0.0
 12
372.440235
 22
288.547585
 32
0.0
 13
372.440235
 23
288.547585
 33
0.0
  0
SOLID
  5
DAD2
  8
WAKU
  6
CONTINUOUS
 10
372.89514
 20
288.740065
 30
0.0
 11
371.926464
 21
288.70701
 31
0.0
 12
372.440235
 22
288.547585
 32
0.0
 13
372.440235
 23
288.547585
 33
0.0
  0
SOLID
  5
DAD3
  8
WAKU
  6
CONTINUOUS
 10
380.311313
 20
288.776923
 30
0.0
 11
377.155205
 21
286.192308
 31
0.0
 12
380.493667
 22
286.192308
 32
0.0
 13
380.493667
 23
286.192308
 33
0.0
  0
SOLID
  5
DAD4
  8
WAKU
  6
CONTINUOUS
 10
381.524851
 20
288.776923
 30
0.0
 11
378.095928
 21
288.776923
 31
0.0
 12
380.311313
 22
288.776923
 32
0.0
 13
380.311313
 23
288.776923
 33
0.0
  0
SOLID
  5
DAD5
  8
WAKU
  6
CONTINUOUS
 10
381.524851
 20
288.776923
 30
0.0
 11
380.311313
 21
288.776923
 31
0.0
 12
380.493667
 22
286.192308
 32
0.0
 13
380.493667
 23
286.192308
 33
0.0
  0
SOLID
  5
DAD6
  8
WAKU
  6
CONTINUOUS
 10
381.524851
 20
288.776923
 30
0.0
 11
380.493667
 21
286.192308
 31
0.0
 12
382.755205
 22
286.192308
 32
0.0
 13
382.755205
 23
286.192308
 33
0.0
  0
SOLID
  5
DAD7
  8
WAKU
  6
CONTINUOUS
 10
373.799148
 20
288.781929
 30
0.0
 11
373.916941
 21
288.683944
 31
0.0
 12
374.363484
 22
288.64263
 32
0.0
 13
374.363484
 23
288.64263
 33
0.0
  0
SOLID
  5
DAD8
  8
WAKU
  6
CONTINUOUS
 10
373.290857
 20
288.835581
 30
0.0
 11
371.926464
 21
288.70701
 31
0.0
 12
372.89514
 22
288.740065
 32
0.0
 13
372.89514
 23
288.740065
 33
0.0
  0
SOLID
  5
DAD9
  8
WAKU
  6
CONTINUOUS
 10
373.597996
 20
288.840902
 30
0.0
 11
373.799148
 21
288.781929
 31
0.0
 12
374.363484
 22
288.64263
 32
0.0
 13
374.363484
 23
288.64263
 33
0.0
  0
SOLID
  5
DADA
  8
WAKU
  6
CONTINUOUS
 10
402.042817
 20
288.884615
 30
0.0
 11
400.181958
 21
286.730769
 31
0.0
 12
401.258881
 22
286.730769
 32
0.0
 13
401.258881
 23
286.730769
 33
0.0
  0
SOLID
  5
DADB
  8
WAKU
  6
CONTINUOUS
 10
402.796663
 20
288.884615
 30
0.0
 11
401.424776
 21
285.115385
 31
0.0
 12
401.913747
 22
283.5
 32
0.0
 13
401.913747
 23
283.5
 33
0.0
  0
SOLID
  5
DADC
  8
WAKU
  6
CONTINUOUS
 10
403.873587
 20
288.884615
 30
0.0
 11
402.796663
 21
288.884615
 31
0.0
 12
401.913747
 22
283.5
 32
0.0
 13
401.913747
 23
283.5
 33
0.0
  0
SOLID
  5
DADD
  8
WAKU
  6
CONTINUOUS
 10
400.965894
 20
288.884615
 30
0.0
 11
400.181958
 21
286.730769
 31
0.0
 12
402.042817
 22
288.884615
 32
0.0
 13
402.042817
 23
288.884615
 33
0.0
  0
SOLID
  5
DADE
  8
WAKU
  6
CONTINUOUS
 10
399.858881
 20
286.730769
 30
0.0
 11
400.642817
 21
288.884615
 31
0.0
 12
399.565894
 22
288.884615
 32
0.0
 13
399.565894
 23
288.884615
 33
0.0
  0
SOLID
  5
DADF
  8
WAKU
  6
CONTINUOUS
 10
399.565894
 20
288.884615
 30
0.0
 11
398.781958
 21
286.730769
 31
0.0
 12
399.858881
 22
286.730769
 32
0.0
 13
399.858881
 23
286.730769
 33
0.0
  0
SOLID
  5
DAE0
  8
WAKU
  6
CONTINUOUS
 10
374.225306
 20
288.920895
 30
0.0
 11
373.597996
 21
288.840902
 31
0.0
 12
374.363484
 22
288.64263
 32
0.0
 13
374.363484
 23
288.64263
 33
0.0
  0
SOLID
  5
DAE1
  8
WAKU
  6
CONTINUOUS
 10
372.417683
 20
288.968648
 30
0.0
 11
373.597996
 21
288.840902
 31
0.0
 12
374.225306
 22
288.920895
 32
0.0
 13
374.225306
 23
288.920895
 33
0.0
  0
SOLID
  5
DAE2
  8
WAKU
  6
CONTINUOUS
 10
372.417683
 20
288.968648
 30
0.0
 11
373.290857
 21
288.835581
 31
0.0
 12
373.597996
 22
288.840902
 32
0.0
 13
373.597996
 23
288.840902
 33
0.0
  0
SOLID
  5
DAE3
  8
WAKU
  6
CONTINUOUS
 10
372.417683
 20
288.968648
 30
0.0
 11
371.926464
 21
288.70701
 31
0.0
 12
373.290857
 22
288.835581
 32
0.0
 13
373.290857
 23
288.835581
 33
0.0
  0
SOLID
  5
DAE4
  8
WAKU
  6
CONTINUOUS
 10
373.998821
 20
289.115757
 30
0.0
 11
372.417683
 21
288.968648
 31
0.0
 12
374.225306
 22
288.920895
 32
0.0
 13
374.225306
 23
288.920895
 33
0.0
  0
SOLID
  5
DAE5
  8
WAKU
  6
CONTINUOUS
 10
372.886988
 20
289.145129
 30
0.0
 11
372.417683
 21
288.968648
 31
0.0
 12
373.998821
 22
289.115757
 32
0.0
 13
373.998821
 23
289.115757
 33
0.0
  0
SOLID
  5
DAE6
  8
WAKU
  6
CONTINUOUS
 10
396.941687
 20
287.592308
 30
0.0
 11
396.452715
 21
289.207692
 31
0.0
 12
393.760408
 22
289.207692
 32
0.0
 13
393.760408
 23
289.207692
 33
0.0
  0
SOLID
  5
DAE7
  8
WAKU
  6
CONTINUOUS
 10
396.452715
 20
289.207692
 30
0.0
 11
396.941687
 21
287.592308
 31
0.0
 12
397.749379
 22
287.592308
 32
0.0
 13
397.749379
 23
287.592308
 33
0.0
  0
SOLID
  5
DAE8
  8
WAKU
  6
CONTINUOUS
 10
393.760408
 20
289.207692
 30
0.0
 11
391.28784
 21
287.592308
 31
0.0
 12
396.941687
 22
287.592308
 32
0.0
 13
396.941687
 23
287.592308
 33
0.0
  0
SOLID
  5
DAE9
  8
WAKU
  6
CONTINUOUS
 10
398.337331
 20
289.207692
 30
0.0
 11
396.452715
 21
289.207692
 31
0.0
 12
397.749379
 22
287.592308
 32
0.0
 13
397.749379
 23
287.592308
 33
0.0
  0
SOLID
  5
DAEA
  8
WAKU
  6
CONTINUOUS
 10
391.875792
 20
289.207692
 30
0.0
 11
391.28784
 21
287.592308
 31
0.0
 12
393.760408
 22
289.207692
 32
0.0
 13
393.760408
 23
289.207692
 33
0.0
  0
SOLID
  5
DAEB
  8
WAKU
  6
CONTINUOUS
 10
393.760408
 20
289.207692
 30
0.0
 11
392.683485
 21
289.207692
 31
0.0
 12
391.875792
 22
289.207692
 32
0.0
 13
391.875792
 23
289.207692
 33
0.0
  0
SOLID
  5
DAEC
  8
WAKU
  6
CONTINUOUS
 10
397.529638
 20
289.207692
 30
0.0
 11
396.452715
 21
289.207692
 31
0.0
 12
398.337331
 22
289.207692
 32
0.0
 13
398.337331
 23
289.207692
 33
0.0
  0
SOLID
  5
DAED
  8
WAKU
  6
CONTINUOUS
 10
373.692348
 20
289.22006
 30
0.0
 11
372.886988
 21
289.145129
 31
0.0
 12
373.998821
 22
289.115757
 32
0.0
 13
373.998821
 23
289.115757
 33
0.0
  0
SOLID
  5
DAEE
  8
WAKU
  6
CONTINUOUS
 10
373.317143
 20
289.229972
 30
0.0
 11
372.886988
 21
289.145129
 31
0.0
 12
373.692348
 22
289.22006
 32
0.0
 13
373.692348
 23
289.22006
 33
0.0
  0
SOLID
  5
DAEF
  8
WAKU
  6
CONTINUOUS
 10
378.723077
 20
290.5
 30
0.0
 11
381.524851
 21
288.776923
 31
0.0
 12
383.695928
 22
288.776923
 32
0.0
 13
383.695928
 23
288.776923
 33
0.0
  0
SOLID
  5
DAF0
  8
WAKU
  6
CONTINUOUS
 10
378.723077
 20
290.5
 30
0.0
 11
378.095928
 21
288.776923
 31
0.0
 12
381.524851
 22
288.776923
 32
0.0
 13
381.524851
 23
288.776923
 33
0.0
  0
SOLID
  5
DAF1
  8
WAKU
  6
CONTINUOUS
 10
372.249053
 20
290.5
 30
0.0
 11
367.971276
 21
290.5
 31
0.0
 12
367.971276
 22
286.222222
 32
0.0
 13
367.971276
 23
286.222222
 33
0.0
  0
SOLID
  5
DAF2
  8
WAKU
  6
CONTINUOUS
 10
409.219005
 20
288.776923
 30
0.0
 11
409.846154
 21
290.5
 31
0.0
 12
406.615385
 22
290.5
 32
0.0
 13
406.615385
 23
290.5
 33
0.0
  0
SOLID
  5
DAF3
  8
WAKU
  6
CONTINUOUS
 10
406.615385
 20
290.5
 30
0.0
 11
405.988236
 21
288.776923
 31
0.0
 12
409.219005
 22
288.776923
 32
0.0
 13
409.219005
 23
288.776923
 33
0.0
  0
SOLID
  5
DAF4
  8
WAKU
  6
CONTINUOUS
 10
392.683485
 20
289.207692
 30
0.0
 11
394.230769
 21
290.5
 31
0.0
 12
393.153846
 22
290.5
 32
0.0
 13
393.153846
 23
290.5
 33
0.0
  0
SOLID
  5
DAF5
  8
WAKU
  6
CONTINUOUS
 10
394.230769
 20
290.5
 30
0.0
 11
392.683485
 21
289.207692
 31
0.0
 12
393.760408
 22
289.207692
 32
0.0
 13
393.760408
 23
289.207692
 33
0.0
  0
SOLID
  5
DAF6
  8
WAKU
  6
CONTINUOUS
 10
409.159221
 20
285.653846
 30
0.0
 11
412.0
 21
290.5
 31
0.0
 12
410.923077
 22
290.5
 32
0.0
 13
410.923077
 23
290.5
 33
0.0
  0
SOLID
  5
DAF7
  8
WAKU
  6
CONTINUOUS
 10
412.0
 20
290.5
 30
0.0
 11
409.159221
 21
285.653846
 31
0.0
 12
409.452208
 22
283.5
 32
0.0
 13
409.452208
 23
283.5
 33
0.0
  0
SOLID
  5
DAF8
  8
WAKU
  6
CONTINUOUS
 10
384.323077
 20
290.5
 30
0.0
 11
378.723077
 21
290.5
 31
0.0
 12
383.695928
 22
288.776923
 32
0.0
 13
383.695928
 23
288.776923
 33
0.0
  0
SOLID
  5
DAF9
  8
WAKU
  6
CONTINUOUS
 10
385.615385
 20
290.5
 30
0.0
 11
384.988236
 21
288.776923
 31
0.0
 12
390.372851
 22
288.776923
 32
0.0
 13
390.372851
 23
288.776923
 33
0.0
  0
SOLID
  5
DAFA
  8
WAKU
  6
CONTINUOUS
 10
396.923077
 20
290.5
 30
0.0
 11
396.452715
 21
289.207692
 31
0.0
 12
397.529638
 22
289.207692
 32
0.0
 13
397.529638
 23
289.207692
 33
0.0
  0
SOLID
  5
DAFB
  8
WAKU
  6
CONTINUOUS
 10
391.0
 20
290.5
 30
0.0
 11
385.615385
 21
290.5
 31
0.0
 12
390.372851
 22
288.776923
 32
0.0
 13
390.372851
 23
288.776923
 33
0.0
  0
SOLID
  5
DAFC
  8
WAKU
  6
CONTINUOUS
 10
398.0
 20
290.5
 30
0.0
 11
396.923077
 21
290.5
 31
0.0
 12
397.529638
 22
289.207692
 32
0.0
 13
397.529638
 23
289.207692
 33
0.0
  0
ENDBLK
  5
DAFD
  8
0
  0
ENDSEC
  0
SECTION
  2
ENTITIES
  0
LINE
  5
DB05
  8
WAKU
 10
415.0
 20
292.0
 30
0.0
 11
415.0
 21
5.0
 31
0.0
  0
LINE
  5
DB06
  8
WAKU
 10
5.0
 20
292.0
 30
0.0
 11
5.0
 21
5.0
 31
0.0
  0
LINE
  5
DB07
  8
WAKU
 10
5.0
 20
5.0
 30
0.0
 11
415.0
 21
5.0
 31
0.0
  0
LINE
  5
DB08
  8
WAKU
 10
5.0
 20
292.0
 30
0.0
 11
415.0
 21
292.0
 31
0.0
  0
LINE
  5
DB09
  8
WAKU
 10
5.0
 20
282.0
 30
0.0
 11
415.0
 21
282.0
 31
0.0
  0
LINE
  5
DB0A
  8
WAKU
  6
CONTINUOUS
 10
393.760408
 20
289.207692
 30
0.0
 11
396.452715
 21
289.207692
 31
0.0
  0
LINE
  5
DB0B
  8
WAKU
  6
CONTINUOUS
 10
393.172456
 20
287.592308
 30
0.0
 11
395.864763
 21
287.592308
 31
0.0
  0
LINE
  5
DB0C
  8
WAKU
  6
CONTINUOUS
 10
390.39067
 20
283.5
 30
0.0
 11
395.452208
 21
283.5
 31
0.0
  0
LINE
  5
DB0D
  8
WAKU
  6
CONTINUOUS
 10
395.159221
 20
285.653846
 30
0.0
 11
395.864763
 21
287.592308
 31
0.0
  0
LINE
  5
DB0E
  8
WAKU
  6
CONTINUOUS
 10
367.971276
 20
290.5
 30
0.0
 11
372.249053
 21
290.5
 31
0.0
  0
LINE
  5
DB0F
  8
WAKU
  6
CONTINUOUS
 10
367.971276
 20
286.222222
 30
0.0
 11
372.249053
 21
290.5
 31
0.0
  0
LINE
  5
DB10
  8
WAKU
  6
CONTINUOUS
 10
367.971276
 20
290.5
 30
0.0
 11
367.971276
 21
286.222222
 31
0.0
  0
LINE
  5
DB11
  8
WAKU
  6
CONTINUOUS
 10
381.524851
 20
288.776923
 30
0.0
 11
383.695928
 21
288.776923
 31
0.0
  0
LINE
  5
DB12
  8
WAKU
  6
CONTINUOUS
 10
378.723077
 20
290.5
 30
0.0
 11
384.323077
 21
290.5
 31
0.0
  0
LINE
  5
DB13
  8
WAKU
  6
CONTINUOUS
 10
380.311313
 20
288.776923
 30
0.0
 11
377.155205
 21
286.192308
 31
0.0
  0
LINE
  5
DB14
  8
WAKU
  6
CONTINUOUS
 10
381.524851
 20
288.776923
 30
0.0
 11
382.755205
 21
286.192308
 31
0.0
  0
LINE
  5
DB15
  8
WAKU
  6
CONTINUOUS
 10
376.175285
 20
283.5
 30
0.0
 11
377.155205
 21
286.192308
 31
0.0
  0
LINE
  5
DB16
  8
WAKU
  6
CONTINUOUS
 10
379.397145
 20
286.138462
 30
0.0
 11
376.175285
 21
283.5
 31
0.0
  0
LINE
  5
DB17
  8
WAKU
  6
CONTINUOUS
 10
381.775285
 20
283.5
 30
0.0
 11
382.755205
 21
286.192308
 31
0.0
  0
LINE
  5
DB18
  8
WAKU
  6
CONTINUOUS
 10
380.493667
 20
286.192308
 30
0.0
 11
381.775285
 21
283.5
 31
0.0
  0
LINE
  5
DB19
  8
WAKU
  6
CONTINUOUS
 10
379.513747
 20
283.5
 30
0.0
 11
380.493667
 21
286.192308
 31
0.0
  0
LINE
  5
DB1A
  8
WAKU
  6
CONTINUOUS
 10
378.436824
 20
283.5
 30
0.0
 11
379.513747
 21
283.5
 31
0.0
  0
LINE
  5
DB1B
  8
WAKU
  6
CONTINUOUS
 10
378.436824
 20
283.5
 30
0.0
 11
379.397145
 21
286.138462
 31
0.0
  0
LINE
  5
DB1C
  8
WAKU
  6
CONTINUOUS
 10
378.095928
 20
288.776923
 30
0.0
 11
380.311313
 21
288.776923
 31
0.0
  0
LINE
  5
DB1D
  8
WAKU
  6
CONTINUOUS
 10
378.723077
 20
290.5
 30
0.0
 11
378.095928
 21
288.776923
 31
0.0
  0
LINE
  5
DB1E
  8
WAKU
  6
CONTINUOUS
 10
392.780488
 20
286.515385
 30
0.0
 11
393.172456
 21
287.592308
 31
0.0
  0
LINE
  5
DB1F
  8
WAKU
  6
CONTINUOUS
 10
391.703565
 20
286.515385
 30
0.0
 11
392.095533
 21
287.592308
 31
0.0
  0
LINE
  5
DB20
  8
WAKU
  6
CONTINUOUS
 10
388.452208
 20
283.5
 30
0.0
 11
389.236144
 21
285.653846
 31
0.0
  0
LINE
  5
DB21
  8
WAKU
  6
CONTINUOUS
 10
383.851529
 20
285.653846
 30
0.0
 11
389.236144
 21
285.653846
 31
0.0
  0
LINE
  5
DB22
  8
WAKU
  6
CONTINUOUS
 10
383.067593
 20
283.5
 30
0.0
 11
383.851529
 21
285.653846
 31
0.0
  0
LINE
  5
DB23
  8
WAKU
  6
CONTINUOUS
 10
383.067593
 20
283.5
 30
0.0
 11
388.452208
 21
283.5
 31
0.0
  0
LINE
  5
DB24
  8
WAKU
  6
CONTINUOUS
 10
391.174606
 20
285.653846
 30
0.0
 11
395.159221
 21
285.653846
 31
0.0
  0
LINE
  5
DB25
  8
WAKU
  6
CONTINUOUS
 10
391.703565
 20
286.515385
 30
0.0
 11
392.780488
 21
286.515385
 31
0.0
  0
LINE
  5
DB26
  8
WAKU
  6
CONTINUOUS
 10
390.39067
 20
283.5
 30
0.0
 11
391.174606
 21
285.653846
 31
0.0
  0
LINE
  5
DB27
  8
WAKU
  6
CONTINUOUS
 10
384.988236
 20
288.776923
 30
0.0
 11
390.372851
 21
288.776923
 31
0.0
  0
LINE
  5
DB28
  8
WAKU
  6
CONTINUOUS
 10
385.615385
 20
290.5
 30
0.0
 11
391.0
 21
290.5
 31
0.0
  0
LINE
  5
DB29
  8
WAKU
  6
CONTINUOUS
 10
384.988236
 20
288.776923
 30
0.0
 11
385.615385
 21
290.5
 31
0.0
  0
LINE
  5
DB2A
  8
WAKU
  6
CONTINUOUS
 10
384.323077
 20
290.5
 30
0.0
 11
383.695928
 21
288.776923
 31
0.0
  0
LINE
  5
DB2B
  8
WAKU
  6
CONTINUOUS
 10
393.153846
 20
290.5
 30
0.0
 11
394.230769
 21
290.5
 31
0.0
  0
LINE
  5
DB2C
  8
WAKU
  6
CONTINUOUS
 10
393.760408
 20
289.207692
 30
0.0
 11
394.230769
 21
290.5
 31
0.0
  0
LINE
  5
DB2D
  8
WAKU
  6
CONTINUOUS
 10
391.875792
 20
289.207692
 30
0.0
 11
392.683485
 21
289.207692
 31
0.0
  0
LINE
  5
DB2E
  8
WAKU
  6
CONTINUOUS
 10
391.28784
 20
287.592308
 30
0.0
 11
392.095533
 21
287.592308
 31
0.0
  0
LINE
  5
DB2F
  8
WAKU
  6
CONTINUOUS
 10
391.28784
 20
287.592308
 30
0.0
 11
391.875792
 21
289.207692
 31
0.0
  0
LINE
  5
DB30
  8
WAKU
  6
CONTINUOUS
 10
392.683485
 20
289.207692
 30
0.0
 11
393.153846
 21
290.5
 31
0.0
  0
LINE
  5
DB31
  8
WAKU
  6
CONTINUOUS
 10
390.372851
 20
288.776923
 30
0.0
 11
391.0
 21
290.5
 31
0.0
  0
LINE
  5
DB32
  8
WAKU
  6
CONTINUOUS
 10
405.753055
 20
288.130769
 30
0.0
 11
408.983824
 21
288.130769
 31
0.0
  0
LINE
  5
DB33
  8
WAKU
  6
CONTINUOUS
 10
405.282694
 20
286.838462
 30
0.0
 11
408.513463
 21
286.838462
 31
0.0
  0
LINE
  5
DB34
  8
WAKU
  6
CONTINUOUS
 10
409.452208
 20
283.5
 30
0.0
 11
404.067593
 21
283.5
 31
0.0
  0
LINE
  5
DB35
  8
WAKU
  6
CONTINUOUS
 10
404.851529
 20
285.653846
 30
0.0
 11
409.159221
 21
285.653846
 31
0.0
  0
LINE
  5
DB36
  8
WAKU
  6
CONTINUOUS
 10
405.988236
 20
288.776923
 30
0.0
 11
409.219005
 21
288.776923
 31
0.0
  0
LINE
  5
DB37
  8
WAKU
  6
CONTINUOUS
 10
406.615385
 20
290.5
 30
0.0
 11
409.846154
 21
290.5
 31
0.0
  0
LINE
  5
DB38
  8
WAKU
  6
CONTINUOUS
 10
398.781958
 20
286.730769
 30
0.0
 11
399.565894
 21
288.884615
 31
0.0
  0
LINE
  5
DB39
  8
WAKU
  6
CONTINUOUS
 10
400.181958
 20
286.730769
 30
0.0
 11
400.965894
 21
288.884615
 31
0.0
  0
LINE
  5
DB3A
  8
WAKU
  6
CONTINUOUS
 10
399.858881
 20
286.730769
 30
0.0
 11
400.642817
 21
288.884615
 31
0.0
  0
LINE
  5
DB3B
  8
WAKU
  6
CONTINUOUS
 10
401.258881
 20
286.730769
 30
0.0
 11
402.042817
 21
288.884615
 31
0.0
  0
LINE
  5
DB3C
  8
WAKU
  6
CONTINUOUS
 10
401.913747
 20
283.5
 30
0.0
 11
403.873587
 21
288.884615
 31
0.0
  0
LINE
  5
DB3D
  8
WAKU
  6
CONTINUOUS
 10
401.424776
 20
285.115385
 30
0.0
 11
402.796663
 21
288.884615
 31
0.0
  0
LINE
  5
DB3E
  8
WAKU
  6
CONTINUOUS
 10
395.452208
 20
283.5
 30
0.0
 11
396.941687
 21
287.592308
 31
0.0
  0
LINE
  5
DB3F
  8
WAKU
  6
CONTINUOUS
 10
397.606055
 20
283.5
 30
0.0
 11
401.913747
 21
283.5
 31
0.0
  0
LINE
  5
DB40
  8
WAKU
  6
CONTINUOUS
 10
398.781958
 20
286.730769
 30
0.0
 11
399.858881
 21
286.730769
 31
0.0
  0
LINE
  5
DB41
  8
WAKU
  6
CONTINUOUS
 10
398.194006
 20
285.115385
 30
0.0
 11
401.424776
 21
285.115385
 31
0.0
  0
LINE
  5
DB42
  8
WAKU
  6
CONTINUOUS
 10
397.606055
 20
283.5
 30
0.0
 11
398.194006
 21
285.115385
 31
0.0
  0
LINE
  5
DB43
  8
WAKU
  6
CONTINUOUS
 10
400.181958
 20
286.730769
 30
0.0
 11
401.258881
 21
286.730769
 31
0.0
  0
LINE
  5
DB44
  8
WAKU
  6
CONTINUOUS
 10
404.067593
 20
283.5
 30
0.0
 11
404.851529
 21
285.653846
 31
0.0
  0
LINE
  5
DB45
  8
WAKU
  6
CONTINUOUS
 10
400.965894
 20
288.884615
 30
0.0
 11
402.042817
 21
288.884615
 31
0.0
  0
LINE
  5
DB46
  8
WAKU
  6
CONTINUOUS
 10
396.923077
 20
290.5
 30
0.0
 11
398.0
 21
290.5
 31
0.0
  0
LINE
  5
DB47
  8
WAKU
  6
CONTINUOUS
 10
397.529638
 20
289.207692
 30
0.0
 11
398.0
 21
290.5
 31
0.0
  0
LINE
  5
DB48
  8
WAKU
  6
CONTINUOUS
 10
397.529638
 20
289.207692
 30
0.0
 11
398.337331
 21
289.207692
 31
0.0
  0
LINE
  5
DB49
  8
WAKU
  6
CONTINUOUS
 10
396.941687
 20
287.592308
 30
0.0
 11
397.749379
 21
287.592308
 31
0.0
  0
LINE
  5
DB4A
  8
WAKU
  6
CONTINUOUS
 10
397.749379
 20
287.592308
 30
0.0
 11
398.337331
 21
289.207692
 31
0.0
  0
LINE
  5
DB4B
  8
WAKU
  6
CONTINUOUS
 10
399.565894
 20
288.884615
 30
0.0
 11
400.642817
 21
288.884615
 31
0.0
  0
LINE
  5
DB4C
  8
WAKU
  6
CONTINUOUS
 10
396.452715
 20
289.207692
 30
0.0
 11
396.923077
 21
290.5
 31
0.0
  0
LINE
  5
DB4D
  8
WAKU
  6
CONTINUOUS
 10
406.615385
 20
290.5
 30
0.0
 11
405.988236
 21
288.776923
 31
0.0
  0
LINE
  5
DB4E
  8
WAKU
  6
CONTINUOUS
 10
405.753055
 20
288.130769
 30
0.0
 11
405.282694
 21
286.838462
 31
0.0
  0
LINE
  5
DB4F
  8
WAKU
  6
CONTINUOUS
 10
402.796663
 20
288.884615
 30
0.0
 11
403.873587
 21
288.884615
 31
0.0
  0
LINE
  5
DB50
  8
WAKU
  6
CONTINUOUS
 10
409.159221
 20
285.653846
 30
0.0
 11
410.923077
 21
290.5
 31
0.0
  0
LINE
  5
DB51
  8
WAKU
  6
CONTINUOUS
 10
409.452208
 20
283.5
 30
0.0
 11
412.0
 21
290.5
 31
0.0
  0
LINE
  5
DB52
  8
WAKU
  6
CONTINUOUS
 10
409.219005
 20
288.776923
 30
0.0
 11
409.846154
 21
290.5
 31
0.0
  0
LINE
  5
DB53
  8
WAKU
  6
CONTINUOUS
 10
410.923077
 20
290.5
 30
0.0
 11
412.0
 21
290.5
 31
0.0
  0
LINE
  5
DB54
  8
WAKU
  6
CONTINUOUS
 10
408.513463
 20
286.838462
 30
0.0
 11
408.983824
 21
288.130769
 31
0.0
  0
LINE
  5
DB55
  8
WAKU
  6
CONTINUOUS
 10
369.828646
 20
284.107791
 30
0.0
 11
369.966824
 21
283.829526
 31
0.0
  0
LINE
  5
DB56
  8
WAKU
  6
CONTINUOUS
 10
369.966824
 20
283.829526
 30
0.0
 11
370.193309
 21
283.634664
 31
0.0
  0
LINE
  5
DB57
  8
WAKU
  6
CONTINUOUS
 10
370.193309
 20
283.634664
 30
0.0
 11
370.499782
 21
283.530361
 31
0.0
  0
LINE
  5
DB58
  8
WAKU
  6
CONTINUOUS
 10
370.499782
 20
283.530361
 30
0.0
 11
370.874987
 21
283.520449
 31
0.0
  0
LINE
  5
DB59
  8
WAKU
  6
CONTINUOUS
 10
370.874987
 20
283.520449
 30
0.0
 11
371.305142
 21
283.605291
 31
0.0
  0
LINE
  5
DB5A
  8
WAKU
  6
CONTINUOUS
 10
371.305142
 20
283.605291
 30
0.0
 11
371.774448
 21
283.781773
 31
0.0
  0
LINE
  5
DB5B
  8
WAKU
  6
CONTINUOUS
 10
371.774448
 20
283.781773
 30
0.0
 11
372.265666
 21
284.043411
 31
0.0
  0
LINE
  5
DB5C
  8
WAKU
  6
CONTINUOUS
 10
372.265666
 20
284.043411
 30
0.0
 11
372.760756
 21
284.380595
 31
0.0
  0
LINE
  5
DB5D
  8
WAKU
  6
CONTINUOUS
 10
372.760756
 20
284.380595
 30
0.0
 11
373.241532
 21
284.780941
 31
0.0
  0
LINE
  5
DB5E
  8
WAKU
  6
CONTINUOUS
 10
373.241532
 20
284.780941
 30
0.0
 11
373.690335
 21
285.229744
 31
0.0
  0
LINE
  5
DB5F
  8
WAKU
  6
CONTINUOUS
 10
373.690335
 20
285.229744
 30
0.0
 11
374.090681
 21
285.71052
 31
0.0
  0
LINE
  5
DB60
  8
WAKU
  6
CONTINUOUS
 10
374.090681
 20
285.71052
 30
0.0
 11
374.427865
 21
286.205609
 31
0.0
  0
LINE
  5
DB61
  8
WAKU
  6
CONTINUOUS
 10
374.427865
 20
286.205609
 30
0.0
 11
374.689503
 21
286.696828
 31
0.0
  0
LINE
  5
DB62
  8
WAKU
  6
CONTINUOUS
 10
374.689503
 20
286.696828
 30
0.0
 11
374.865984
 21
287.166134
 31
0.0
  0
LINE
  5
DB63
  8
WAKU
  6
CONTINUOUS
 10
374.865984
 20
287.166134
 30
0.0
 11
374.950827
 21
287.596289
 31
0.0
  0
LINE
  5
DB64
  8
WAKU
  6
CONTINUOUS
 10
374.950827
 20
287.596289
 30
0.0
 11
374.940915
 21
287.971493
 31
0.0
  0
LINE
  5
DB65
  8
WAKU
  6
CONTINUOUS
 10
374.940915
 20
287.971493
 30
0.0
 11
374.836612
 21
288.277967
 31
0.0
  0
LINE
  5
DB66
  8
WAKU
  6
CONTINUOUS
 10
374.836612
 20
288.277967
 30
0.0
 11
374.641749
 21
288.504452
 31
0.0
  0
LINE
  5
DB67
  8
WAKU
  6
CONTINUOUS
 10
374.641749
 20
288.504452
 30
0.0
 11
374.363484
 21
288.64263
 31
0.0
  0
LINE
  5
DB68
  8
WAKU
  6
CONTINUOUS
 10
373.916941
 20
288.683944
 30
0.0
 11
373.482636
 21
288.608014
 31
0.0
  0
LINE
  5
DB69
  8
WAKU
  6
CONTINUOUS
 10
373.482636
 20
288.608014
 30
0.0
 11
373.005639
 21
288.435768
 31
0.0
  0
LINE
  5
DB6A
  8
WAKU
  6
CONTINUOUS
 10
373.005639
 20
288.435768
 30
0.0
 11
372.504269
 21
288.173821
 31
0.0
  0
LINE
  5
DB6B
  8
WAKU
  6
CONTINUOUS
 10
372.504269
 20
288.173821
 30
0.0
 11
371.997783
 21
287.832235
 31
0.0
  0
LINE
  5
DB6C
  8
WAKU
  6
CONTINUOUS
 10
371.997783
 20
287.832235
 30
0.0
 11
371.505632
 21
287.424128
 31
0.0
  0
LINE
  5
DB6D
  8
WAKU
  6
CONTINUOUS
 10
371.505632
 20
287.424128
 30
0.0
 11
371.04672
 21
286.965174
 31
0.0
  0
LINE
  5
DB6E
  8
WAKU
  6
CONTINUOUS
 10
371.04672
 20
286.965174
 30
0.0
 11
370.638671
 21
286.473
 31
0.0
  0
LINE
  5
DB6F
  8
WAKU
  6
CONTINUOUS
 10
370.638671
 20
286.473
 30
0.0
 11
370.297156
 21
285.966509
 31
0.0
  0
LINE
  5
DB70
  8
WAKU
  6
CONTINUOUS
 10
370.297156
 20
285.966509
 30
0.0
 11
370.035293
 21
285.465154
 31
0.0
  0
LINE
  5
DB71
  8
WAKU
  6
CONTINUOUS
 10
370.035293
 20
285.465154
 30
0.0
 11
369.863139
 21
284.988189
 31
0.0
  0
LINE
  5
DB72
  8
WAKU
  6
CONTINUOUS
 10
369.863139
 20
284.988189
 30
0.0
 11
369.787305
 21
284.553935
 31
0.0
  0
LINE
  5
DB73
  8
WAKU
  6
CONTINUOUS
 10
370.172911
 20
284.451856
 30
0.0
 11
370.681395
 21
284.539195
 31
0.0
  0
LINE
  5
DB74
  8
WAKU
  6
CONTINUOUS
 10
370.681395
 20
284.539195
 30
0.0
 11
371.312263
 21
284.810332
 31
0.0
  0
LINE
  5
DB75
  8
WAKU
  6
CONTINUOUS
 10
371.312263
 20
284.810332
 30
0.0
 11
371.98994
 21
285.251431
 31
0.0
  0
LINE
  5
DB76
  8
WAKU
  6
CONTINUOUS
 10
371.98994
 20
285.251431
 30
0.0
 11
372.646296
 21
285.825506
 31
0.0
  0
LINE
  5
DB77
  8
WAKU
  6
CONTINUOUS
 10
372.646296
 20
285.825506
 30
0.0
 11
373.220238
 21
286.48192
 31
0.0
  0
LINE
  5
DB78
  8
WAKU
  6
CONTINUOUS
 10
373.220238
 20
286.48192
 30
0.0
 11
373.661353
 21
287.159534
 31
0.0
  0
LINE
  5
DB79
  8
WAKU
  6
CONTINUOUS
 10
373.661353
 20
287.159534
 30
0.0
 11
373.932071
 21
287.790402
 31
0.0
  0
LINE
  5
DB7A
  8
WAKU
  6
CONTINUOUS
 10
373.932071
 20
287.790402
 30
0.0
 11
374.019229
 21
288.298569
 31
0.0
  0
LINE
  5
DB7B
  8
WAKU
  6
CONTINUOUS
 10
373.916941
 20
288.683944
 30
0.0
 11
373.799148
 21
288.781929
 31
0.0
  0
LINE
  5
DB7C
  8
WAKU
  6
CONTINUOUS
 10
373.799148
 20
288.781929
 30
0.0
 11
373.597996
 21
288.840902
 31
0.0
  0
LINE
  5
DB7D
  8
WAKU
  6
CONTINUOUS
 10
373.597996
 20
288.840902
 30
0.0
 11
373.290857
 21
288.835581
 31
0.0
  0
LINE
  5
DB7E
  8
WAKU
  6
CONTINUOUS
 10
373.290857
 20
288.835581
 30
0.0
 11
372.89514
 21
288.740065
 31
0.0
  0
LINE
  5
DB7F
  8
WAKU
  6
CONTINUOUS
 10
372.89514
 20
288.740065
 30
0.0
 11
372.440235
 21
288.547585
 31
0.0
  0
LINE
  5
DB80
  8
WAKU
  6
CONTINUOUS
 10
372.440235
 20
288.547585
 30
0.0
 11
371.954587
 21
288.264284
 31
0.0
  0
LINE
  5
DB81
  8
WAKU
  6
CONTINUOUS
 10
371.954587
 20
288.264284
 30
0.0
 11
370.996098
 21
287.475108
 31
0.0
  0
LINE
  5
DB82
  8
WAKU
  6
CONTINUOUS
 10
370.996098
 20
287.475108
 30
0.0
 11
370.207035
 21
286.51657
 31
0.0
  0
LINE
  5
DB83
  8
WAKU
  6
CONTINUOUS
 10
370.207035
 20
286.51657
 30
0.0
 11
369.923519
 21
286.031028
 31
0.0
  0
LINE
  5
DB84
  8
WAKU
  6
CONTINUOUS
 10
369.923519
 20
286.031028
 30
0.0
 11
369.73149
 21
285.576021
 31
0.0
  0
LINE
  5
DB85
  8
WAKU
  6
CONTINUOUS
 10
369.73149
 20
285.576021
 30
0.0
 11
369.635696
 21
285.180404
 31
0.0
  0
LINE
  5
DB86
  8
WAKU
  6
CONTINUOUS
 10
369.635696
 20
285.180404
 30
0.0
 11
369.630358
 21
284.873087
 31
0.0
  0
LINE
  5
DB87
  8
WAKU
  6
CONTINUOUS
 10
369.630358
 20
284.873087
 30
0.0
 11
369.689155
 21
284.672435
 31
0.0
  0
LINE
  5
DB88
  8
WAKU
  6
CONTINUOUS
 10
369.689155
 20
284.672435
 30
0.0
 11
369.787305
 21
284.553935
 31
0.0
  0
LINE
  5
DB89
  8
WAKU
  6
CONTINUOUS
 10
370.275177
 20
284.066476
 30
0.0
 11
370.392927
 21
283.968568
 31
0.0
  0
LINE
  5
DB8A
  8
WAKU
  6
CONTINUOUS
 10
370.392927
 20
283.968568
 30
0.0
 11
370.594177
 21
283.909498
 31
0.0
  0
LINE
  5
DB8B
  8
WAKU
  6
CONTINUOUS
 10
370.594177
 20
283.909498
 30
0.0
 11
370.901294
 21
283.914863
 31
0.0
  0
LINE
  5
DB8C
  8
WAKU
  6
CONTINUOUS
 10
370.901294
 20
283.914863
 30
0.0
 11
371.296984
 21
284.010368
 31
0.0
  0
LINE
  5
DB8D
  8
WAKU
  6
CONTINUOUS
 10
371.296984
 20
284.010368
 30
0.0
 11
371.751882
 21
284.202798
 31
0.0
  0
LINE
  5
DB8E
  8
WAKU
  6
CONTINUOUS
 10
371.751882
 20
284.202798
 30
0.0
 11
372.237497
 21
284.486117
 31
0.0
  0
LINE
  5
DB8F
  8
WAKU
  6
CONTINUOUS
 10
372.237497
 20
284.486117
 30
0.0
 11
373.195965
 21
285.275232
 31
0.0
  0
LINE
  5
DB90
  8
WAKU
  6
CONTINUOUS
 10
373.195965
 20
285.275232
 30
0.0
 11
373.98505
 21
286.233718
 31
0.0
  0
LINE
  5
DB91
  8
WAKU
  6
CONTINUOUS
 10
373.98505
 20
286.233718
 30
0.0
 11
374.268507
 21
286.719278
 31
0.0
  0
LINE
  5
DB92
  8
WAKU
  6
CONTINUOUS
 10
374.268507
 20
286.719278
 30
0.0
 11
374.46071
 21
287.174248
 31
0.0
  0
LINE
  5
DB93
  8
WAKU
  6
CONTINUOUS
 10
374.46071
 20
287.174248
 30
0.0
 11
374.556361
 21
287.569864
 31
0.0
  0
LINE
  5
DB94
  8
WAKU
  6
CONTINUOUS
 10
374.556361
 20
287.569864
 30
0.0
 11
374.561802
 21
287.877253
 31
0.0
  0
LINE
  5
DB95
  8
WAKU
  6
CONTINUOUS
 10
374.561802
 20
287.877253
 30
0.0
 11
374.502951
 21
288.077918
 31
0.0
  0
LINE
  5
DB96
  8
WAKU
  6
CONTINUOUS
 10
374.502951
 20
288.077918
 30
0.0
 11
374.40481
 21
288.196249
 31
0.0
  0
LINE
  5
DB97
  8
WAKU
  6
CONTINUOUS
 10
374.019229
 20
288.298569
 30
0.0
 11
373.510738
 21
288.21124
 31
0.0
  0
LINE
  5
DB98
  8
WAKU
  6
CONTINUOUS
 10
373.510738
 20
288.21124
 30
0.0
 11
372.879878
 21
287.940057
 31
0.0
  0
LINE
  5
DB99
  8
WAKU
  6
CONTINUOUS
 10
372.879878
 20
287.940057
 30
0.0
 11
372.202181
 21
287.498991
 31
0.0
  0
LINE
  5
DB9A
  8
WAKU
  6
CONTINUOUS
 10
372.202181
 20
287.498991
 30
0.0
 11
371.545827
 21
286.924893
 31
0.0
  0
LINE
  5
DB9B
  8
WAKU
  6
CONTINUOUS
 10
371.545827
 20
286.924893
 30
0.0
 11
370.971896
 21
286.268471
 31
0.0
  0
LINE
  5
DB9C
  8
WAKU
  6
CONTINUOUS
 10
370.971896
 20
286.268471
 30
0.0
 11
370.530712
 21
285.590875
 31
0.0
  0
LINE
  5
DB9D
  8
WAKU
  6
CONTINUOUS
 10
370.530712
 20
285.590875
 30
0.0
 11
370.260168
 21
284.959969
 31
0.0
  0
LINE
  5
DB9E
  8
WAKU
  6
CONTINUOUS
 10
370.260168
 20
284.959969
 30
0.0
 11
370.172911
 21
284.451856
 31
0.0
  0
LINE
  5
DB9F
  8
WAKU
  6
CONTINUOUS
 10
370.275177
 20
284.066476
 30
0.0
 11
370.709458
 21
284.142397
 31
0.0
  0
LINE
  5
DBA0
  8
WAKU
  6
CONTINUOUS
 10
370.709458
 20
284.142397
 30
0.0
 11
371.186428
 21
284.314625
 31
0.0
  0
LINE
  5
DBA1
  8
WAKU
  6
CONTINUOUS
 10
371.186428
 20
284.314625
 30
0.0
 11
371.68777
 21
284.576545
 31
0.0
  0
LINE
  5
DBA2
  8
WAKU
  6
CONTINUOUS
 10
371.68777
 20
284.576545
 30
0.0
 11
372.194232
 21
284.918099
 31
0.0
  0
LINE
  5
DBA3
  8
WAKU
  6
CONTINUOUS
 10
372.194232
 20
284.918099
 30
0.0
 11
372.686363
 21
285.326171
 31
0.0
  0
LINE
  5
DBA4
  8
WAKU
  6
CONTINUOUS
 10
372.686363
 20
285.326171
 30
0.0
 11
373.145266
 21
285.785089
 31
0.0
  0
LINE
  5
DBA5
  8
WAKU
  6
CONTINUOUS
 10
373.145266
 20
285.785089
 30
0.0
 11
373.553316
 21
286.277229
 31
0.0
  0
LINE
  5
DBA6
  8
WAKU
  6
CONTINUOUS
 10
373.553316
 20
286.277229
 30
0.0
 11
373.894843
 21
286.783693
 31
0.0
  0
LINE
  5
DBA7
  8
WAKU
  6
CONTINUOUS
 10
373.894843
 20
286.783693
 30
0.0
 11
374.156732
 21
287.28503
 31
0.0
  0
LINE
  5
DBA8
  8
WAKU
  6
CONTINUOUS
 10
374.156732
 20
287.28503
 30
0.0
 11
374.328925
 21
287.761987
 31
0.0
  0
LINE
  5
DBA9
  8
WAKU
  6
CONTINUOUS
 10
374.328925
 20
287.761987
 30
0.0
 11
374.40481
 21
288.196249
 31
0.0
  0
LINE
  5
DBAA
  8
WAKU
  6
CONTINUOUS
 10
374.363484
 20
288.64263
 30
0.0
 11
374.225306
 21
288.920895
 31
0.0
  0
LINE
  5
DBAB
  8
WAKU
  6
CONTINUOUS
 10
374.225306
 20
288.920895
 30
0.0
 11
373.998821
 21
289.115757
 31
0.0
  0
LINE
  5
DBAC
  8
WAKU
  6
CONTINUOUS
 10
373.998821
 20
289.115757
 30
0.0
 11
373.692348
 21
289.22006
 31
0.0
  0
LINE
  5
DBAD
  8
WAKU
  6
CONTINUOUS
 10
373.692348
 20
289.22006
 30
0.0
 11
373.317143
 21
289.229972
 31
0.0
  0
LINE
  5
DBAE
  8
WAKU
  6
CONTINUOUS
 10
373.317143
 20
289.229972
 30
0.0
 11
372.886988
 21
289.145129
 31
0.0
  0
LINE
  5
DBAF
  8
WAKU
  6
CONTINUOUS
 10
372.886988
 20
289.145129
 30
0.0
 11
372.417683
 21
288.968648
 31
0.0
  0
LINE
  5
DBB0
  8
WAKU
  6
CONTINUOUS
 10
372.417683
 20
288.968648
 30
0.0
 11
371.926464
 21
288.70701
 31
0.0
  0
LINE
  5
DBB1
  8
WAKU
  6
CONTINUOUS
 10
371.926464
 20
288.70701
 30
0.0
 11
371.431374
 21
288.369826
 31
0.0
  0
LINE
  5
DBB2
  8
WAKU
  6
CONTINUOUS
 10
371.431374
 20
288.369826
 30
0.0
 11
370.950599
 21
287.96948
 31
0.0
  0
LINE
  5
DBB3
  8
WAKU
  6
CONTINUOUS
 10
370.950599
 20
287.96948
 30
0.0
 11
370.501795
 21
287.520677
 31
0.0
  0
LINE
  5
DBB4
  8
WAKU
  6
CONTINUOUS
 10
370.501795
 20
287.520677
 30
0.0
 11
370.101449
 21
287.039901
 31
0.0
  0
LINE
  5
DBB5
  8
WAKU
  6
CONTINUOUS
 10
370.101449
 20
287.039901
 30
0.0
 11
369.764265
 21
286.544812
 31
0.0
  0
LINE
  5
DBB6
  8
WAKU
  6
CONTINUOUS
 10
369.764265
 20
286.544812
 30
0.0
 11
369.502627
 21
286.053593
 31
0.0
  0
LINE
  5
DBB7
  8
WAKU
  6
CONTINUOUS
 10
369.502627
 20
286.053593
 30
0.0
 11
369.326146
 21
285.584287
 31
0.0
  0
LINE
  5
DBB8
  8
WAKU
  6
CONTINUOUS
 10
369.326146
 20
285.584287
 30
0.0
 11
369.241303
 21
285.154132
 31
0.0
  0
LINE
  5
DBB9
  8
WAKU
  6
CONTINUOUS
 10
369.241303
 20
285.154132
 30
0.0
 11
369.251215
 21
284.778928
 31
0.0
  0
LINE
  5
DBBA
  8
WAKU
  6
CONTINUOUS
 10
369.251215
 20
284.778928
 30
0.0
 11
369.355518
 21
284.472454
 31
0.0
  0
LINE
  5
DBBB
  8
WAKU
  6
CONTINUOUS
 10
369.355518
 20
284.472454
 30
0.0
 11
369.550381
 21
284.245969
 31
0.0
  0
LINE
  5
DBBC
  8
WAKU
  6
CONTINUOUS
 10
369.550381
 20
284.245969
 30
0.0
 11
369.828646
 21
284.107791
 31
0.0
  0
INSERT
  5
DBBD
  8
WAKU
  6
CONTINUOUS
  2
*U0
 10
0.0
 20
0.0
 30
0.0
  0
TEXT
  5
10375
  8
WAKU
 10
10.0
 20
285.5
 30
0.0
 40
3.0
  1
FNS-70AT
 41
0.868
 11
10.0
 21
287.0
 31
0.0
 73
     2
  0
LINE
  5
1927A
  8
SUNPO
  6
CONTINUOUS
 10
398.0
 20
85.5
 30
0.0
 11
398.0
 21
20.0
 31
0.0
  0
LINE
  5
19D8D
  8
DANMEN
  6
CONTINUOUS
 10
198.000002
 20
136.8
 30
0.0
 11
202.850997
 21
136.8
 31
0.0
  0
LINE
  5
19D8E
  8
DANMEN
  6
CONTINUOUS
 10
198.000002
 20
135.0
 30
0.0
 11
202.917206
 21
135.0
 31
0.0
  0
LINE
  5
19D8F
  8
DANMEN
  6
CONTINUOUS
 10
198.000002
 20
119.0
 30
0.0
 11
210.500002
 21
119.0
 31
0.0
  0
LINE
  5
19D90
  8
DANMEN
  6
CONTINUOUS
 10
200.000002
 20
154.850006
 30
0.0
 11
212.500002
 21
154.850006
 31
0.0
  0
LINE
  5
19D91
  8
DANMEN
  6
CONTINUOUS
 10
200.000002
 20
88.149994
 30
0.0
 11
212.500002
 21
88.149994
 31
0.0
  0
LINE
  5
19D92
  8
DANMEN
  6
CONTINUOUS
 10
188.500002
 20
156.5
 30
0.0
 11
212.500002
 21
156.5
 31
0.0
  0
LINE
  5
19D93
  8
DANMEN
  6
CONTINUOUS
 10
188.500002
 20
86.5
 30
0.0
 11
212.500002
 21
86.5
 31
0.0
  0
LINE
  5
19D94
  8
DANMEN
  6
CONTINUOUS
 10
198.000002
 20
120.1
 30
0.0
 11
203.000002
 21
120.1
 31
0.0
  0
LINE
  5
19D95
  8
DANMEN
  6
CONTINUOUS
 10
201.500002
 20
130.0
 30
0.0
 11
202.199998
 21
130.0
 31
0.0
  0
LINE
  5
19D96
  8
DANMEN
  6
CONTINUOUS
 10
201.500002
 20
145.0
 30
0.0
 11
202.199998
 21
145.0
 31
0.0
  0
LINE
  5
19D97
  8
DANMEN
  6
CONTINUOUS
 10
210.963123
 20
149.494468
 30
0.0
 11
201.851661
 21
148.127749
 31
0.0
  0
LINE
  5
19D98
  8
DANMEN
  6
CONTINUOUS
 10
210.963123
 20
125.505532
 30
0.0
 11
201.851661
 21
126.872251
 31
0.0
  0
LINE
  5
19D99
  8
DANMEN
  6
CONTINUOUS
 10
200.025814
 20
129.835584
 30
0.0
 11
202.800005
 21
123.3
 31
0.0
  0
LINE
  5
19D9A
  8
DANMEN
  6
CONTINUOUS
 10
199.510441
 20
129.002283
 30
0.0
 11
202.270497
 21
122.5
 31
0.0
  0
LINE
  5
19D9B
  8
DANMEN
  6
CONTINUOUS
 10
198.0
 20
130.0
 30
0.0
 11
214.0
 21
130.0
 31
0.0
  0
LINE
  5
19D9C
  8
DANMEN
  6
CONTINUOUS
 10
198.0
 20
144.0
 30
0.0
 11
214.0
 21
144.0
 31
0.0
  0
LINE
  5
19D9D
  8
DANMEN
  6
CONTINUOUS
 10
198.0
 20
139.0
 30
0.0
 11
214.0
 21
139.0
 31
0.0
  0
LINE
  5
19D9E
  8
DANMEN
  6
CONTINUOUS
 10
198.0
 20
119.0
 30
0.0
 11
211.0
 21
119.0
 31
0.0
  0
LINE
  5
19D9F
  8
DANMEN
  6
CONTINUOUS
 10
198.0
 20
97.5
 30
0.0
 11
260.5
 21
97.5
 31
0.0
  0
LINE
  5
19DA0
  8
DANMEN
  6
CONTINUOUS
 10
198.0
 20
149.5
 30
0.0
 11
260.5
 21
149.5
 31
0.0
  0
LINE
  5
19DA1
  8
DANMEN
  6
CONTINUOUS
 10
203.5
 20
122.5
 30
0.0
 11
198.0
 21
122.5
 31
0.0
  0
LINE
  5
19DA2
  8
DANMEN
  6
CONTINUOUS
 10
198.0
 20
119.0
 30
0.0
 11
211.0
 21
119.0
 31
0.0
  0
LINE
  5
19DA3
  8
DANMEN
  6
CONTINUOUS
 10
53.149998
 20
135.5
 30
0.0
 11
53.149998
 21
103.699997
 31
0.0
  0
LINE
  5
19DA4
  8
DANMEN
  6
CONTINUOUS
 10
68.849998
 20
140.550003
 30
0.0
 11
68.849998
 21
109.5
 31
0.0
  0
LINE
  5
19DA5
  8
DANMEN
  6
CONTINUOUS
 10
70.799998
 20
153.0
 30
0.0
 11
70.799998
 21
88.5
 31
0.0
  0
LINE
  5
19DA6
  8
DANMEN
  6
CONTINUOUS
 10
51.199998
 20
153.0
 30
0.0
 11
51.199998
 21
60.0
 31
0.0
  0
LINE
  5
19DA7
  8
DANMEN
  6
CONTINUOUS
 10
108.017555
 20
125.497915
 30
0.0
 11
108.0
 21
95.0
 31
0.0
  0
LINE
  5
19DA8
  8
DANMEN
  6
CONTINUOUS
 10
109.517555
 20
125.854639
 30
0.0
 11
109.004224
 21
95.529237
 31
0.0
  0
LINE
  5
19DA9
  8
DANMEN
  6
CONTINUOUS
 10
108.31756
 20
125.50832
 30
0.0
 11
108.30001
 21
95.020979
 31
0.0
  0
LINE
  5
19DAA
  8
DANMEN
  6
CONTINUOUS
 10
198.000002
 20
135.0
 30
0.0
 11
198.000002
 21
120.1
 31
0.0
  0
LINE
  5
19DAB
  8
DANMEN
  6
CONTINUOUS
 10
196.350008
 20
154.850006
 30
0.0
 11
196.350008
 21
88.149994
 31
0.0
  0
LINE
  5
19DAC
  8
DANMEN
  6
CONTINUOUS
 10
110.350006
 20
125.573535
 30
0.0
 11
110.350006
 21
99.5
 31
0.0
  0
LINE
  5
19DAD
  8
DANMEN
  6
CONTINUOUS
 10
112.0
 20
125.72342
 30
0.0
 11
112.0
 21
99.5
 31
0.0
  0
LINE
  5
19DAE
  8
DANMEN
  6
CONTINUOUS
 10
108.0
 20
169.5
 30
0.0
 11
108.0
 21
94.5
 31
0.0
  0
LINE
  5
19DAF
  8
DANMEN
  6
CONTINUOUS
 10
82.999985
 20
169.5
 30
0.0
 11
82.999985
 21
99.5
 31
0.0
  0
LINE
  5
19DB0
  8
DANMEN
  6
CONTINUOUS
 10
99.000015
 20
169.5
 30
0.0
 11
99.000015
 21
99.5
 31
0.0
  0
LINE
  5
19DB1
  8
DANMEN
  6
CONTINUOUS
 10
101.0
 20
169.5
 30
0.0
 11
101.0
 21
99.5
 31
0.0
  0
LINE
  5
19DB2
  8
DANMEN
  6
CONTINUOUS
 10
81.0
 20
169.5
 30
0.0
 11
81.0
 21
99.5
 31
0.0
  0
LINE
  5
19DB3
  8
DANMEN
  6
CONTINUOUS
 10
92.999986
 20
92.5
 30
0.0
 11
92.999986
 21
169.5
 31
0.0
  0
LINE
  5
19DB4
  8
DANMEN
  6
CONTINUOUS
 10
88.999998
 20
92.5
 30
0.0
 11
88.999998
 21
169.5
 31
0.0
  0
LINE
  5
19DB5
  8
DANMEN
  6
CONTINUOUS
 10
88.499998
 20
92.5
 30
0.0
 11
88.499998
 21
169.5
 31
0.0
  0
LINE
  5
19DB6
  8
DANMEN
  6
CONTINUOUS
 10
93.499986
 20
92.5
 30
0.0
 11
93.499986
 21
169.5
 31
0.0
  0
LINE
  5
19DB7
  8
DANMEN
  6
DASHED
 10
78.5
 20
169.5
 30
0.0
 11
78.5
 21
99.5
 31
0.0
  0
LINE
  5
19DB8
  8
DANMEN
  6
CONTINUOUS
 10
75.5
 20
169.5
 30
0.0
 11
75.5
 21
99.5
 31
0.0
  0
LINE
  5
19DB9
  8
DANMEN
  6
CONTINUOUS
 10
43.649994
 20
169.5
 30
0.0
 11
43.649994
 21
41.5
 31
0.0
  0
LINE
  5
19DBA
  8
DANMEN
  6
CONTINUOUS
 10
49.0
 20
169.5
 30
0.0
 11
49.0
 21
59.5
 31
0.0
  0
LINE
  5
19DBB
  8
DANMEN
  6
CONTINUOUS
 10
73.0
 20
169.5
 30
0.0
 11
73.0
 21
88.0
 31
0.0
  0
LINE
  5
19DBC
  8
DANMEN
  6
CONTINUOUS
 10
42.0
 20
169.5
 30
0.0
 11
42.0
 21
43.265549
 31
0.0
  0
LINE
  5
19DBD
  8
DANMEN
  6
CONTINUOUS
 10
94.563803
 20
64.174726
 30
0.0
 11
69.054612
 21
52.93964
 31
0.0
  0
LINE
  5
19DBE
  8
DANMEN
  6
CONTINUOUS
 10
93.5
 20
65.503636
 30
0.0
 11
68.5
 21
54.5
 31
0.0
  0
LINE
  5
19DBF
  8
DANMEN
  6
CONTINUOUS
 10
68.849995
 20
76.5
 30
0.0
 11
71.049998
 21
76.5
 31
0.0
  0
LINE
  5
19DC1
  8
DANMEN
  6
CONTINUOUS
 10
69.849998
 20
86.550003
 30
0.0
 11
71.049998
 21
86.550003
 31
0.0
  0
LINE
  5
19DC2
  8
DANMEN
  6
CONTINUOUS
 10
65.0
 20
59.5
 30
0.0
 11
73.0
 21
59.5
 31
0.0
  0
LINE
  5
19DC3
  8
DANMEN
  6
CONTINUOUS
 10
55.5
 20
39.5
 30
0.0
 11
112.0
 21
39.5
 31
0.0
  0
LINE
  5
19DC4
  8
DANMEN
  6
CONTINUOUS
 10
54.0
 20
39.5
 30
0.0
 11
54.0
 21
31.0
 31
0.0
  0
LINE
  5
19DC5
  8
DANMEN
  6
CONTINUOUS
 10
55.5
 20
40.149994
 30
0.0
 11
55.5
 21
31.0
 31
0.0
  0
ARC
  5
19DC6
  8
DANMEN
  6
CONTINUOUS
 10
54.5
 20
31.0
 30
0.0
 40
0.5
 50
180.000019
 51
270.000001
  0
LINE
  5
19DCA
  8
DANMEN
  6
CONTINUOUS
 10
54.5
 20
30.5
 30
0.0
 11
55.0
 21
30.5
 31
0.0
  0
ARC
  5
19DCC
  8
DANMEN
  6
CONTINUOUS
 10
55.0
 20
31.0
 30
0.0
 40
0.5
 50
270.000018
 51
0.0
  0
LINE
  5
19DCD
  8
DANMEN
  6
CONTINUOUS
 10
56.599998
 20
90.500004
 30
0.0
 11
56.599998
 21
72.500004
 31
0.0
  0
LINE
  5
19DCE
  8
DANMEN
  6
CONTINUOUS
 10
65.400002
 20
90.500004
 30
0.0
 11
65.400002
 21
72.500004
 31
0.0
  0
LINE
  5
19DCF
  8
DANMEN
  6
CONTINUOUS
 10
59.0
 20
63.5
 30
0.0
 11
59.0
 21
99.500008
 31
0.0
  0
LINE
  5
19DD0
  8
DANMEN
  6
CONTINUOUS
 10
63.0
 20
63.5
 30
0.0
 11
63.0
 21
99.500008
 31
0.0
  0
LINE
  5
19DD1
  8
DANMEN
  6
CONTINUOUS
 10
57.0
 20
99.500008
 30
0.0
 11
57.0
 21
63.5
 31
0.0
  0
LINE
  5
19DD2
  8
DANMEN
  6
CONTINUOUS
 10
65.0
 20
99.500008
 30
0.0
 11
65.0
 21
63.5
 31
0.0
  0
LINE
  5
19DD3
  8
DANMEN
  6
CONTINUOUS
 10
53.149998
 20
102.5
 30
0.0
 11
53.149998
 21
75.5
 31
0.0
  0
ARC
  5
19DD4
  8
DANMEN
  6
CONTINUOUS
 10
55.00999
 20
52.5
 30
0.0
 40
2.0
 50
90.0
 51
118.610582
  0
LINE
  5
19DD5
  8
DANMEN
  6
CONTINUOUS
 10
50.649994
 20
41.149994
 30
0.0
 11
54.5
 21
41.149994
 31
0.0
  0
LINE
  5
19DD6
  8
DANMEN
  6
CONTINUOUS
 10
54.920742
 20
52.85
 30
0.0
 11
50.649994
 21
50.520489
 31
0.0
  0
LINE
  5
19DD7
  8
DANMEN
  6
CONTINUOUS
 10
49.0
 20
50.906353
 30
0.0
 11
49.0
 21
41.5
 31
0.0
  0
LINE
  5
19DD8
  8
DANMEN
  6
CONTINUOUS
 10
50.649994
 20
50.520489
 30
0.0
 11
50.649994
 21
41.149994
 31
0.0
  0
LINE
  5
19DD9
  8
DANMEN
  6
CONTINUOUS
 10
39.276393
 20
43.161806
 30
0.0
 11
42.0
 21
41.800003
 31
0.0
  0
LINE
  5
19DDA
  8
DANMEN
  6
CONTINUOUS
 10
40.199997
 20
43.929842
 30
0.0
 11
42.823607
 21
42.618037
 31
0.0
  0
LINE
  5
19DDB
  8
DANMEN
  6
CONTINUOUS
 10
43.1
 20
41.5
 30
0.0
 11
49.0
 21
41.5
 31
0.0
  0
LINE
  5
19DDC
  8
DANMEN
  6
CONTINUOUS
 10
42.800003
 20
40.4
 30
0.0
 11
49.0
 21
40.4
 31
0.0
  0
LINE
  5
19DDD
  8
DANMEN
  6
CONTINUOUS
 10
42.570786
 20
39.5
 30
0.0
 11
49.33287
 21
39.5
 31
0.0
  0
ARC
  5
19DDE
  8
DANMEN
  6
CONTINUOUS
 10
42.399994
 20
39.899994
 30
0.0
 40
0.4
 50
180.000019
 51
359.999983
  0
LINE
  5
19DDF
  8
DANMEN
  6
CONTINUOUS
 10
42.0
 20
41.800003
 30
0.0
 11
42.0
 21
39.899994
 31
0.0
  0
LINE
  5
19DE4
  8
DANMEN
  6
CONTINUOUS
 10
42.800003
 20
40.4
 30
0.0
 11
42.800003
 21
39.899994
 31
0.0
  0
LINE
  5
19DE6
  8
DANMEN
  6
CONTINUOUS
 10
43.1
 20
42.170823
 30
0.0
 11
43.1
 21
41.5
 31
0.0
  0
ARC
  5
19DE7
  8
DANMEN
  6
CONTINUOUS
 10
42.6
 20
42.170823
 30
0.0
 40
0.5
 50
0.0
 51
63.434949
  0
LINE
  5
19DEB
  8
DANMEN
  6
CONTINUOUS
 10
49.5
 20
39.5
 30
0.0
 11
54.0
 21
39.5
 31
0.0
  0
ARC
  5
19DED
  8
DANMEN
  6
CONTINUOUS
 10
49.5
 20
40.0
 30
0.0
 40
0.5
 50
180.000019
 51
270.000001
  0
LINE
  5
19DEE
  8
DANMEN
  6
CONTINUOUS
 10
49.0
 20
40.4
 30
0.0
 11
49.0
 21
40.0
 31
0.0
  0
LINE
  5
19DF3
  8
DANMEN
  6
CONTINUOUS
 10
39.0
 20
48.899994
 30
0.0
 11
39.0
 21
43.60902
 31
0.0
  0
LINE
  5
19DF4
  8
DANMEN
  6
CONTINUOUS
 10
40.199997
 20
48.899994
 30
0.0
 11
40.199997
 21
43.929842
 31
0.0
  0
ARC
  5
19DF5
  8
DANMEN
  6
CONTINUOUS
 10
39.600006
 20
48.899994
 30
0.0
 40
0.6
 50
0.0
 51
180.000019
  0
ARC
  5
19DF7
  8
DANMEN
  6
CONTINUOUS
 10
39.5
 20
43.60902
 30
0.0
 40
0.5
 50
180.0
 51
243.434949
  0
LINE
  5
19DFB
  8
DANMEN
  6
CONTINUOUS
 10
54.052282
 20
54.255789
 30
0.0
 11
49.521146
 21
51.784248
 31
0.0
  0
ARC
  5
19DFD
  8
DANMEN
  6
CONTINUOUS
 10
50.0
 20
50.906353
 30
0.0
 40
1.0
 50
118.610582
 51
180.0
  0
ARC
  5
19E00
  8
DANMEN
  6
CONTINUOUS
 10
54.5
 20
40.149994
 30
0.0
 40
1.0
 50
0.0
 51
89.999982
  0
LINE
  5
19E01
  8
DANMEN
  6
CONTINUOUS
 10
62.2
 20
52.8
 30
0.0
 11
63.8
 21
52.8
 31
0.0
  0
LINE
  5
19E02
  8
DANMEN
  6
CONTINUOUS
 10
54.920742
 20
52.85
 30
0.0
 11
58.7
 21
52.85
 31
0.0
  0
ARC
  5
19E04
  8
DANMEN
  6
CONTINUOUS
 10
61.6
 20
49.2
 30
0.0
 40
0.3
 50
270.0
 51
0.0
  0
LINE
  5
19E05
  8
DANMEN
  6
CONTINUOUS
 10
60.460621
 20
48.9
 30
0.0
 11
61.6
 21
48.9
 31
0.0
  0
LINE
  5
19E06
  8
DANMEN
  6
CONTINUOUS
 10
61.2
 20
50.553939
 30
0.0
 11
61.2
 21
51.8
 31
0.0
  0
LINE
  5
19E07
  8
DANMEN
  6
CONTINUOUS
 10
59.7
 20
50.469694
 30
0.0
 11
59.7
 21
51.85
 31
0.0
  0
ARC
  5
19E08
  8
DANMEN
  6
CONTINUOUS
 10
62.2
 20
51.8
 30
0.0
 40
1.0
 50
90.0
 51
180.0
  0
LINE
  5
19E09
  8
DANMEN
  6
CONTINUOUS
 10
61.9
 20
49.2
 30
0.0
 11
61.9
 21
49.463068
 31
0.0
  0
ARC
  5
19E0A
  8
DANMEN
  6
CONTINUOUS
 10
62.2
 20
50.553939
 30
0.0
 40
1.0
 50
180.0
 51
245.375682
  0
ARC
  5
19E0B
  8
DANMEN
  6
CONTINUOUS
 10
61.7
 20
49.463068
 30
0.0
 40
0.2
 50
0.0
 51
65.375682
  0
ARC
  5
19E0C
  8
DANMEN
  6
CONTINUOUS
 10
61.7
 20
50.469694
 30
0.0
 40
2.0
 50
180.0
 51
231.706523
  0
ARC
  5
19E0D
  8
DANMEN
  6
CONTINUOUS
 10
58.7
 20
51.85
 30
0.0
 40
1.0
 50
0.0
 51
90.0
  0
LINE
  5
19E0F
  8
DANMEN
  6
CONTINUOUS
 10
64.956524
 20
48.9
 30
0.0
 11
65.601274
 21
47.417076
 31
0.0
  0
ARC
  5
19E10
  8
DANMEN
  6
CONTINUOUS
 10
69.927452
 20
48.752808
 30
0.0
 40
0.5
 50
293.49856
 51
23.49856
  0
ARC
  5
19E11
  8
DANMEN
  6
CONTINUOUS
 10
66.518344
 20
47.815802
 30
0.0
 40
1.0
 50
203.49856
 51
293.49856
  0
LINE
  5
19E15
  8
DANMEN
  6
CONTINUOUS
 10
70.126815
 20
48.294273
 30
0.0
 11
66.91707
 21
46.898732
 31
0.0
  0
LINE
  5
19E17
  8
DANMEN
  6
CONTINUOUS
 10
66.3
 20
52.850006
 30
0.0
 11
68.640809
 21
52.850006
 31
0.0
  0
LINE
  5
19E18
  8
DANMEN
  6
CONTINUOUS
 10
66.3
 20
49.948185
 30
0.0
 11
66.855268
 21
48.671069
 31
0.0
  0
ARC
  5
19E1A
  8
DANMEN
  6
CONTINUOUS
 10
64.4
 20
49.2
 30
0.0
 40
0.3
 50
180.0
 51
270.0
  0
LINE
  5
19E1B
  8
DANMEN
  6
CONTINUOUS
 10
64.4
 20
48.9
 30
0.0
 11
64.956524
 21
48.9
 31
0.0
  0
ARC
  5
19E1C
  8
DANMEN
  6
CONTINUOUS
 10
63.8
 20
51.8
 30
0.0
 40
1.0
 50
0.0
 51
90.0
  0
LINE
  5
19E1D
  8
DANMEN
  6
CONTINUOUS
 10
64.8
 20
50.553939
 30
0.0
 11
64.8
 21
51.8
 31
0.0
  0
LINE
  5
19E1E
  8
DANMEN
  6
CONTINUOUS
 10
66.3
 20
49.948185
 30
0.0
 11
66.3
 21
52.850006
 31
0.0
  0
ARC
  5
19E1F
  8
DANMEN
  6
CONTINUOUS
 10
64.3
 20
49.463068
 30
0.0
 40
0.2
 50
114.624318
 51
180.0
  0
ARC
  5
19E20
  8
DANMEN
  6
CONTINUOUS
 10
63.8
 20
50.553939
 30
0.0
 40
1.0
 50
294.624318
 51
0.0
  0
LINE
  5
19E21
  8
DANMEN
  6
CONTINUOUS
 10
64.1
 20
49.2
 30
0.0
 11
64.1
 21
49.463068
 31
0.0
  0
ARC
  5
19E25
  8
DANMEN
  6
CONTINUOUS
 10
68.640809
 20
53.850006
 30
0.0
 40
1.0
 50
270.0
 51
294.443955
  0
LINE
  5
19E27
  8
DANMEN
  6
CONTINUOUS
 10
69.468917
 20
49.807438
 30
0.0
 11
66.855268
 21
48.671069
 31
0.0
  0
LINE
  5
19E28
  8
DANMEN
  6
CONTINUOUS
 10
70.126816
 20
49.548266
 30
0.0
 11
70.385987
 21
48.952171
 31
0.0
  0
ARC
  5
19E29
  8
DANMEN
  6
CONTINUOUS
 10
69.66828
 20
49.348903
 30
0.0
 40
0.5
 50
23.49856
 51
113.49856
  0
LINE
  5
19E2C
  8
DANMEN
  6
CONTINUOUS
 10
56.149998
 20
74.499999
 30
0.0
 11
54.149998
 21
74.499998
 31
0.0
  0
LINE
  5
19E2D
  8
DANMEN
  6
CONTINUOUS
 10
68.849995
 20
75.500002
 30
0.0
 11
53.149998
 21
75.499998
 31
0.0
  0
LINE
  5
19E2E
  8
DANMEN
  6
CONTINUOUS
 10
52.649997
 20
59.5
 30
0.0
 11
57.0
 21
59.5
 31
0.0
  0
LINE
  5
19E2F
  8
DANMEN
  6
CONTINUOUS
 10
53.149998
 20
74.499998
 30
0.0
 11
53.149998
 21
60.0
 31
0.0
  0
LINE
  5
19E30
  8
DANMEN
  6
CONTINUOUS
 10
49.0
 20
59.5
 30
0.0
 11
51.699999
 21
59.5
 31
0.0
  0
ARC
  5
19E31
  8
DANMEN
  6
CONTINUOUS
 10
52.649998
 20
60.0
 30
0.0
 40
0.5
 50
270.000018
 51
359.999948
  0
ARC
  5
19E33
  8
DANMEN
  6
CONTINUOUS
 10
51.699998
 20
60.0
 30
0.0
 40
0.5
 50
180.000036
 51
270.000018
  0
LINE
  5
19E35
  8
DANMEN
  6
CONTINUOUS
 10
52.649997
 20
59.499997
 30
0.0
 11
51.699998
 21
59.499997
 31
0.0
  0
LINE
  5
19E36
  8
DANMEN
  6
CONTINUOUS
 10
53.649998
 20
74.999998
 30
0.0
 11
53.149998
 21
74.499998
 31
0.0
  0
LINE
  5
19E37
  8
DANMEN
  6
CONTINUOUS
 10
54.149998
 20
74.499998
 30
0.0
 11
53.649998
 21
74.999998
 31
0.0
  0
ARC
  5
19E3C
  8
DANMEN
  6
CONTINUOUS
 10
61.0
 20
63.5
 30
0.0
 40
3.0
 50
53.130102
 51
126.869903
  0
ARC
  5
19E3D
  8
DANMEN
  6
CONTINUOUS
 10
60.0
 20
65.79129
 30
0.0
 40
0.5
 50
113.578068
 51
179.999745
  0
ARC
  5
19E3E
  8
DANMEN
  6
CONTINUOUS
 10
62.0
 20
65.79129
 30
0.0
 40
0.5
 50
0.000279
 51
66.42195
  0
ARC
  5
19E3F
  8
DANMEN
  6
CONTINUOUS
 10
61.0
 20
65.5
 30
0.0
 40
4.0
 50
0.0
 51
180.000019
  0
LINE
  5
19E40
  8
DANMEN
  6
CONTINUOUS
 10
62.5
 20
54.5
 30
0.0
 11
68.5
 21
54.5
 31
0.0
  0
LINE
  5
19E41
  8
DANMEN
  6
CONTINUOUS
 10
62.5
 20
65.79129
 30
0.0
 11
62.5
 21
54.5
 31
0.0
  0
LINE
  5
19E42
  8
DANMEN
  6
CONTINUOUS
 10
60.850006
 20
62.347046
 30
0.0
 11
60.850006
 21
54.5
 31
0.0
  0
LINE
  5
19E43
  8
DANMEN
  6
CONTINUOUS
 10
57.0
 20
65.5
 30
0.0
 11
57.0
 21
59.5
 31
0.0
  0
LINE
  5
19E44
  8
DANMEN
  6
CONTINUOUS
 10
55.00999
 20
54.5
 30
0.0
 11
60.850006
 21
54.5
 31
0.0
  0
LINE
  5
19E48
  8
DANMEN
  6
CONTINUOUS
 10
57.0
 20
63.5
 30
0.0
 11
59.0
 21
63.5
 31
0.0
  0
ARC
  5
19E49
  8
DANMEN
  6
CONTINUOUS
 10
59.5
 20
65.5
 30
0.0
 40
0.5
 50
126.869907
 51
180.000009
  0
LINE
  5
19E4A
  8
DANMEN
  6
CONTINUOUS
 10
59.5
 20
65.79129
 30
0.0
 11
59.5
 21
64.652954
 31
0.0
  0
LINE
  5
19E4D
  8
DANMEN
  6
CONTINUOUS
 10
60.764431
 20
62.626784
 30
0.0
 11
59.585579
 21
64.373223
 31
0.0
  0
ARC
  5
19E4E
  8
DANMEN
  6
CONTINUOUS
 10
60.350006
 20
62.347046
 30
0.0
 40
0.5
 50
0.000664
 51
34.020021
  0
ARC
  5
19E4F
  8
DANMEN
  6
CONTINUOUS
 10
60.0
 20
64.652954
 30
0.0
 40
0.5
 50
180.000309
 51
214.019733
  0
LINE
  5
19E50
  8
DANMEN
  6
CONTINUOUS
 10
65.0
 20
65.5
 30
0.0
 11
65.0
 21
59.5
 31
0.0
  0
ARC
  5
19E52
  8
DANMEN
  6
CONTINUOUS
 10
62.5
 20
65.5
 30
0.0
 40
0.5
 50
359.999997
 51
53.130102
  0
LINE
  5
19E53
  8
DANMEN
  6
CONTINUOUS
 10
65.0
 20
63.5
 30
0.0
 11
63.0
 21
63.5
 31
0.0
  0
LINE
  5
19E54
  8
DANMEN
  6
CONTINUOUS
 10
65.850001
 20
73.550001
 30
0.0
 11
56.149998
 21
73.549999
 31
0.0
  0
ARC
  5
19E57
  8
DANMEN
  6
CONTINUOUS
 10
61.0
 20
63.5
 30
0.0
 40
3.0
 50
66.421841
 51
113.578178
  0
LINE
  5
19E5A
  8
DANMEN
  6
CONTINUOUS
 10
56.600001
 20
72.500004
 30
0.0
 11
56.999999
 21
72.100005
 31
0.0
  0
LINE
  5
19E5D
  8
DANMEN
  6
CONTINUOUS
 10
56.149998
 20
74.5
 30
0.0
 11
56.149998
 21
73.550003
 31
0.0
  0
LINE
  5
19E61
  8
DANMEN
  6
CONTINUOUS
 10
67.850001
 20
74.500002
 30
0.0
 11
65.850001
 21
74.500001
 31
0.0
  0
LINE
  5
19E62
  8
DANMEN
  6
CONTINUOUS
 10
65.399999
 20
72.500003
 30
0.0
 11
64.999999
 21
72.100003
 31
0.0
  0
LINE
  5
19E65
  8
DANMEN
  6
CONTINUOUS
 10
65.850001
 20
74.5
 30
0.0
 11
65.850001
 21
73.550003
 31
0.0
  0
LINE
  5
19E66
  8
DANMEN
  6
CONTINUOUS
 10
68.350001
 20
75.000002
 30
0.0
 11
68.850001
 21
74.500002
 31
0.0
  0
LINE
  5
19E67
  8
DANMEN
  6
CONTINUOUS
 10
68.350001
 20
75.000002
 30
0.0
 11
67.850001
 21
74.500002
 31
0.0
  0
LINE
  5
19E6E
  8
DANMEN
  6
CONTINUOUS
 10
68.849995
 20
76.5
 30
0.0
 11
68.849995
 21
75.500002
 31
0.0
  0
LINE
  5
19E71
  8
DANMEN
  6
CONTINUOUS
 10
68.849998
 20
102.5
 30
0.0
 11
68.849998
 21
87.550003
 31
0.0
  0
ARC
  5
19E72
  8
DANMEN
  6
CONTINUOUS
 10
69.849998
 20
87.550003
 30
0.0
 40
1.0
 50
180.000019
 51
270.000001
  0
ARC
  5
19E74
  8
DANMEN
  6
CONTINUOUS
 10
61.0
 20
99.500008
 30
0.0
 40
3.0
 50
233.130097
 51
306.869898
  0
LINE
  5
19E75
  8
DANMEN
  6
CONTINUOUS
 10
56.600001
 20
90.500004
 30
0.0
 11
56.999999
 21
90.900003
 31
0.0
  0
LINE
  5
19E76
  8
DANMEN
  6
CONTINUOUS
 10
57.0
 20
99.500008
 30
0.0
 11
59.0
 21
99.500008
 31
0.0
  0
ARC
  5
19E77
  8
DANMEN
  6
CONTINUOUS
 10
59.5
 20
97.500008
 30
0.0
 40
0.5
 50
179.999991
 51
233.130093
  0
LINE
  5
19E78
  8
DANMEN
  6
CONTINUOUS
 10
65.399999
 20
90.500005
 30
0.0
 11
64.999999
 21
90.900005
 31
0.0
  0
LINE
  5
19E79
  8
DANMEN
  6
CONTINUOUS
 10
65.0
 20
99.500008
 30
0.0
 11
63.0
 21
99.500008
 31
0.0
  0
ARC
  5
19E7A
  8
DANMEN
  6
CONTINUOUS
 10
62.5
 20
97.500008
 30
0.0
 40
0.5
 50
306.869898
 51
0.000003
  0
LINE
  5
19E7B
  8
DANMEN
  6
CONTINUOUS
 10
53.149998
 20
103.699997
 30
0.0
 11
57.699998
 21
103.699997
 31
0.0
  0
LINE
  5
19E7C
  8
DANMEN
  6
CONTINUOUS
 10
53.149998
 20
102.5
 30
0.0
 11
59.199999
 21
102.5
 31
0.0
  0
ARC
  5
19E7F
  8
DANMEN
  6
CONTINUOUS
 10
61.699998
 20
106.8
 30
0.0
 40
1.0
 50
0.0
 51
90.0
  0
LINE
  5
19E80
  8
DANMEN
  6
CONTINUOUS
 10
60.199998
 20
109.5
 30
0.0
 11
68.849998
 21
109.5
 31
0.0
  0
LINE
  5
19E81
  8
DANMEN
  6
CONTINUOUS
 10
59.199998
 20
105.3
 30
0.0
 11
59.199998
 21
106.8
 31
0.0
  0
LINE
  5
19E82
  8
DANMEN
  6
CONTINUOUS
 10
57.699998
 20
107.0
 30
0.0
 11
57.699998
 21
103.699997
 31
0.0
  0
LINE
  5
19E86
  8
DANMEN
  6
CONTINUOUS
 10
60.199998
 20
104.3
 30
0.0
 11
60.833703
 21
104.3
 31
0.0
  0
LINE
  5
19E87
  8
DANMEN
  6
CONTINUOUS
 10
59.199999
 20
102.8
 30
0.0
 11
60.833703
 21
102.8
 31
0.0
  0
ARC
  5
19E88
  8
DANMEN
  6
CONTINUOUS
 10
60.199998
 20
105.3
 30
0.0
 40
1.0
 50
180.0
 51
270.0
  0
ARC
  5
19E89
  8
DANMEN
  6
CONTINUOUS
 10
60.833703
 20
103.55
 30
0.0
 40
0.75
 50
270.0
 51
90.0
  0
LINE
  5
19E8B
  8
DANMEN
  6
CONTINUOUS
 10
59.199999
 20
102.800003
 30
0.0
 11
59.199999
 21
102.5
 31
0.0
  0
ARC
  5
19E8D
  8
DANMEN
  6
CONTINUOUS
 10
60.199998
 20
107.0
 30
0.0
 40
2.5
 50
89.999982
 51
180.000019
  0
LINE
  5
19E8F
  8
DANMEN
  6
CONTINUOUS
 10
60.199998
 20
107.8
 30
0.0
 11
61.699998
 21
107.8
 31
0.0
  0
ARC
  5
19E90
  8
DANMEN
  6
CONTINUOUS
 10
60.199998
 20
106.8
 30
0.0
 40
1.0
 50
90.0
 51
180.0
  0
ARC
  5
19E91
  8
DANMEN
  6
CONTINUOUS
 10
65.199998
 20
106.550003
 30
0.0
 40
1.0
 50
90.0
 51
180.0
  0
LINE
  5
19E92
  8
DANMEN
  6
CONTINUOUS
 10
62.699998
 20
106.166295
 30
0.0
 11
62.699998
 21
106.8
 31
0.0
  0
LINE
  5
19E93
  8
DANMEN
  6
CONTINUOUS
 10
68.849998
 20
107.550003
 30
0.0
 11
68.849998
 21
103.699997
 31
0.0
  0
ARC
  5
19E94
  8
DANMEN
  6
CONTINUOUS
 10
66.799998
 20
103.199997
 30
0.0
 40
0.5
 50
89.999982
 51
180.000019
  0
LINE
  5
19E95
  8
DANMEN
  6
CONTINUOUS
 10
66.299998
 20
102.5
 30
0.0
 11
68.849998
 21
102.5
 31
0.0
  0
LINE
  5
19E97
  8
DANMEN
  6
CONTINUOUS
 10
64.199998
 20
106.166295
 30
0.0
 11
64.199998
 21
106.550003
 31
0.0
  0
ARC
  5
19E98
  8
DANMEN
  6
CONTINUOUS
 10
63.449998
 20
106.166295
 30
0.0
 40
0.75
 50
180.0
 51
0.0
  0
LINE
  5
19E9B
  8
DANMEN
  6
CONTINUOUS
 10
66.299998
 20
103.199997
 30
0.0
 11
66.299998
 21
102.5
 31
0.0
  0
LINE
  5
19E9E
  8
DANMEN
  6
CONTINUOUS
 10
66.799998
 20
103.699997
 30
0.0
 11
68.849998
 21
103.699997
 31
0.0
  0
LINE
  5
19E9F
  8
DANMEN
  6
CONTINUOUS
 10
65.199997
 20
107.550003
 30
0.0
 11
68.849998
 21
107.550003
 31
0.0
  0
LINE
  5
19EA3
  8
DANMEN
  6
CONTINUOUS
 10
75.2
 20
81.9
 30
0.0
 11
75.2
 21
74.8
 31
0.0
  0
LINE
  5
19EA4
  8
DANMEN
  6
CONTINUOUS
 10
77.2
 20
79.2
 30
0.0
 11
77.2
 21
77.5
 31
0.0
  0
LINE
  5
19EA5
  8
DANMEN
  6
CONTINUOUS
 10
73.0187
 20
77.80985
 30
0.0
 11
74.146178
 21
74.315559
 31
0.0
  0
LINE
  5
19EA6
  8
DANMEN
  6
CONTINUOUS
 10
73.6
 20
77.982873
 30
0.0
 11
74.582434
 21
74.8
 31
0.0
  0
LINE
  5
19EA7
  8
DANMEN
  6
CONTINUOUS
 10
93.5
 20
77.7
 30
0.0
 11
93.5
 21
65.503636
 31
0.0
  0
LINE
  5
19EA8
  8
DANMEN
  6
CONTINUOUS
 10
78.500003
 20
81.5
 30
0.0
 11
78.500003
 21
75.3
 31
0.0
  0
LINE
  5
19EA9
  8
DANMEN
  6
CONTINUOUS
 10
79.5
 20
80.7
 30
0.0
 11
79.5
 21
75.0
 31
0.0
  0
LINE
  5
19EAA
  8
DANMEN
  6
CONTINUOUS
 10
100.2
 20
76.166295
 30
0.0
 11
100.2
 21
79.85
 31
0.0
  0
ARC
  5
19EAB
  8
DANMEN
  6
CONTINUOUS
 10
96.2
 20
76.8
 30
0.0
 40
1.0
 50
90.0
 51
180.0
  0
ARC
  5
19EAC
  8
DANMEN
  6
CONTINUOUS
 10
97.7
 20
76.8
 30
0.0
 40
1.0
 50
0.0
 51
90.0
  0
ARC
  5
19EAD
  8
DANMEN
  6
CONTINUOUS
 10
82.0
 20
78.7
 30
0.0
 40
1.0
 50
180.0
 51
270.0
  0
LINE
  5
19EAE
  8
DANMEN
  6
CONTINUOUS
 10
93.5
 20
77.7
 30
0.0
 11
92.5
 21
77.0
 31
0.0
  0
LINE
  5
19EAF
  8
DANMEN
  6
CONTINUOUS
 10
86.5
 20
77.0
 30
0.0
 11
85.5
 21
77.7
 31
0.0
  0
LINE
  5
19EB0
  8
DANMEN
  6
CONTINUOUS
 10
112.0
 20
99.0
 30
0.0
 11
112.0
 21
65.0
 31
0.0
  0
LINE
  5
19EB1
  8
DANMEN
  6
CONTINUOUS
 10
110.350006
 20
79.85
 30
0.0
 11
110.350006
 21
67.58182
 31
0.0
  0
LINE
  5
19EB2
  8
DANMEN
  6
CONTINUOUS
 10
71.049998
 20
86.550003
 30
0.0
 11
71.049998
 21
76.5
 31
0.0
  0
LINE
  5
19EB3
  8
DANMEN
  6
CONTINUOUS
 10
72.999998
 20
88.0
 30
0.0
 11
72.999998
 21
75.0
 31
0.0
  0
LINE
  5
19EB4
  8
DANMEN
  6
CONTINUOUS
 10
86.5
 20
77.0
 30
0.0
 11
92.5
 21
77.0
 31
0.0
  0
LINE
  5
19EB5
  8
DANMEN
  6
CONTINUOUS
 10
73.0
 20
75.000007
 30
0.0
 11
73.0
 21
59.5
 31
0.0
  0
LINE
  5
19EB6
  8
DANMEN
  6
CONTINUOUS
 10
76.5
 20
74.5
 30
0.0
 11
79.000003
 21
74.5
 31
0.0
  0
LINE
  5
19EB7
  8
DANMEN
  6
CONTINUOUS
 10
74.327478
 20
74.2
 30
0.0
 11
76.0
 21
74.2
 31
0.0
  0
LINE
  5
19EB8
  8
DANMEN
  6
CONTINUOUS
 10
74.582434
 20
74.8
 30
0.0
 11
75.2
 21
74.8
 31
0.0
  0
ARC
  5
19EB9
  8
DANMEN
  6
CONTINUOUS
 10
74.327478
 20
74.4
 30
0.0
 40
0.2
 50
204.97391
 51
270.0
  0
ARC
  5
19EBE
  8
DANMEN
  6
CONTINUOUS
 10
72.499998
 20
75.0
 30
0.0
 40
0.5
 50
270.0
 51
0.0
  0
LINE
  5
19EBF
  8
DANMEN
  6
CONTINUOUS
 10
77.2
 20
75.5
 30
0.0
 11
77.8
 21
75.5
 31
0.0
  0
LINE
  5
19EC0
  8
DANMEN
  6
CONTINUOUS
 10
76.0
 20
76.7
 30
0.0
 11
76.0
 21
74.2
 31
0.0
  0
ARC
  5
19EC2
  8
DANMEN
  6
CONTINUOUS
 10
77.8
 20
75.7
 30
0.0
 40
0.2
 50
270.000018
 51
0.0
  0
ARC
  5
19EC4
  8
DANMEN
  6
CONTINUOUS
 10
77.2
 20
75.7
 30
0.0
 40
0.2
 50
180.000019
 51
270.000001
  0
LINE
  5
19EC5
  8
DANMEN
  6
CONTINUOUS
 10
78.0
 20
76.7
 30
0.0
 11
78.0
 21
75.7
 31
0.0
  0
LINE
  5
19EC7
  8
DANMEN
  6
CONTINUOUS
 10
77.2
 20
77.5
 30
0.0
 11
78.0
 21
76.7
 31
0.0
  0
LINE
  5
19EC8
  8
DANMEN
  6
CONTINUOUS
 10
77.0
 20
76.7
 30
0.0
 11
77.0
 21
75.7
 31
0.0
  0
LINE
  5
19EC9
  8
DANMEN
  6
CONTINUOUS
 10
76.0
 20
76.7
 30
0.0
 11
77.0
 21
76.7
 31
0.0
  0
LINE
  5
19ECF
  8
DANMEN
  6
CONTINUOUS
 10
76.0
 20
76.199997
 30
0.0
 11
76.0
 21
75.0
 31
0.0
  0
LINE
  5
19ED0
  8
DANMEN
  6
CONTINUOUS
 10
76.800003
 20
76.699997
 30
0.0
 11
76.800003
 21
75.3
 31
0.0
  0
ARC
  5
19ED1
  8
DANMEN
  6
CONTINUOUS
 10
76.5
 20
75.0
 30
0.0
 40
0.5
 50
180.000019
 51
270.000001
  0
ARC
  5
19ED2
  8
DANMEN
  6
CONTINUOUS
 10
76.5
 20
76.199997
 30
0.0
 40
0.5
 50
89.999982
 51
180.000019
  0
LINE
  5
19ED3
  8
DANMEN
  6
CONTINUOUS
 10
76.5
 20
76.699997
 30
0.0
 11
76.800003
 21
76.699997
 31
0.0
  0
LINE
  5
19ED4
  8
DANMEN
  6
CONTINUOUS
 10
76.800003
 20
75.3
 30
0.0
 11
78.5
 21
75.3
 31
0.0
  0
ARC
  5
19EDA
  8
DANMEN
  6
CONTINUOUS
 10
79.0
 20
75.0
 30
0.0
 40
0.5
 50
270.000018
 51
0.0
  0
LINE
  5
19EDD
  8
DANMEN
  6
CONTINUOUS
 10
95.15
 20
71.8
 30
0.0
 11
95.15
 21
65.085093
 31
0.0
  0
ARC
  5
19EDF
  8
DANMEN
  6
CONTINUOUS
 10
94.15
 20
65.085093
 30
0.0
 40
1.0
 50
294.443955
 51
0.0
  0
ARC
  5
19EE1
  8
DANMEN
  6
CONTINUOUS
 10
96.2
 20
75.3
 30
0.0
 40
1.0
 50
180.0
 51
270.0
  0
ARC
  5
19EE2
  8
DANMEN
  6
CONTINUOUS
 10
96.15
 20
71.8
 30
0.0
 40
1.0
 50
90.0
 51
180.0
  0
LINE
  5
19EE3
  8
DANMEN
  6
CONTINUOUS
 10
95.2
 20
75.3
 30
0.0
 11
95.2
 21
76.8
 31
0.0
  0
ARC
  5
19EE6
  8
DANMEN
  6
CONTINUOUS
 10
99.45
 20
76.166295
 30
0.0
 40
0.75
 50
180.0
 51
0.0
  0
LINE
  5
19EE7
  8
DANMEN
  6
CONTINUOUS
 10
98.7
 20
76.166295
 30
0.0
 11
98.7
 21
76.8
 31
0.0
  0
LINE
  5
19EE8
  8
DANMEN
  6
CONTINUOUS
 10
96.2
 20
74.3
 30
0.0
 11
96.833705
 21
74.3
 31
0.0
  0
LINE
  5
19EE9
  8
DANMEN
  6
CONTINUOUS
 10
96.15
 20
72.8
 30
0.0
 11
96.833705
 21
72.8
 31
0.0
  0
ARC
  5
19EEA
  8
DANMEN
  6
CONTINUOUS
 10
96.833705
 20
73.55
 30
0.0
 40
0.75
 50
270.0
 51
90.0
  0
LINE
  5
19EEC
  8
DANMEN
  6
CONTINUOUS
 10
112.0
 20
64.845612
 30
0.0
 11
112.0
 21
39.5
 31
0.0
  0
ARC
  5
19EED
  8
DANMEN
  6
CONTINUOUS
 10
107.41465
 20
65.760364
 30
0.0
 40
0.5
 50
113.49856
 51
203.49856
  0
ARC
  5
19EEE
  8
DANMEN
  6
CONTINUOUS
 10
111.5
 20
65.0
 30
0.0
 40
0.5
 50
270.0
 51
0.0
  0
ARC
  5
19EEF
  8
DANMEN
  6
CONTINUOUS
 10
107.673822
 20
65.164268
 30
0.0
 40
0.5
 50
203.49856
 51
293.49856
  0
LINE
  5
19EF0
  8
DANMEN
  6
CONTINUOUS
 10
107.215287
 20
64.964905
 30
0.0
 11
106.956115
 21
65.561001
 31
0.0
  0
LINE
  5
19EF2
  8
DANMEN
  6
CONTINUOUS
 10
110.9
 20
64.5
 30
0.0
 11
111.5
 21
64.5
 31
0.0
  0
LINE
  5
19EF3
  8
DANMEN
  6
CONTINUOUS
 10
110.9
 20
65.259133
 30
0.0
 11
110.9
 21
64.5
 31
0.0
  0
LINE
  5
19EF5
  8
DANMEN
  6
CONTINUOUS
 10
110.200637
 20
65.717668
 30
0.0
 11
107.873185
 21
64.705733
 31
0.0
  0
ARC
  5
19EF6
  8
DANMEN
  6
CONTINUOUS
 10
110.4
 20
65.259133
 30
0.0
 40
0.5
 50
0.0
 51
113.49856
  0
LINE
  5
19EF8
  8
DANMEN
  6
CONTINUOUS
 10
110.350006
 20
67.58182
 30
0.0
 11
107.215287
 21
66.218899
 31
0.0
  0
LINE
  5
19EFF
  8
DANMEN
  6
CONTINUOUS
 10
99.05
 20
81.5
 30
0.0
 11
110.35
 21
81.5
 31
0.0
  0
LINE
  5
19F00
  8
DANMEN
  6
CONTINUOUS
 10
100.2
 20
79.85
 30
0.0
 11
110.350006
 21
79.85
 31
0.0
  0
LINE
  5
19F01
  8
DANMEN
  6
CONTINUOUS
 10
99.0
 20
92.7
 30
0.0
 11
110.35
 21
92.7
 31
0.0
  0
LINE
  5
19F02
  8
DANMEN
  6
CONTINUOUS
 10
101.0
 20
94.5
 30
0.0
 11
110.35
 21
94.5
 31
0.0
  0
ARC
  5
19F03
  8
DANMEN
  6
DASHED
 10
101.0
 20
100.199997
 30
0.0
 40
0.5
 50
0.0
 51
89.999982
  0
ARC
  5
19F04
  8
DANMEN
  6
DASHED
 10
76.5
 20
100.199997
 30
0.0
 40
0.5
 50
90.0
 51
180.0
  0
ARC
  5
19F05
  8
DANMEN
  6
CONTINUOUS
 10
84.500015
 20
100.499908
 30
0.0
 40
1.5
 50
90.000018
 51
180.0
  0
ARC
  5
19F06
  8
DANMEN
  6
CONTINUOUS
 10
97.500015
 20
100.499908
 30
0.0
 40
1.5
 50
359.999964
 51
90.000001
  0
LINE
  5
19F07
  8
DANMEN
  6
DASHED
 10
97.0
 20
99.5
 30
0.0
 11
85.0
 21
99.5
 31
0.0
  0
LINE
  5
19F08
  8
DANMEN
  6
DASHED
 10
101.0
 20
100.699997
 30
0.0
 11
76.5
 21
100.699997
 31
0.0
  0
LINE
  5
19F09
  8
DANMEN
  6
CONTINUOUS
 10
82.8
 20
79.5
 30
0.0
 11
98.55
 21
79.5
 31
0.0
  0
LINE
  5
19F0A
  8
DANMEN
  6
CONTINUOUS
 10
86.0
 20
92.5
 30
0.0
 11
96.0
 21
92.5
 31
0.0
  0
LINE
  5
19F0B
  8
DANMEN
  6
CONTINUOUS
 10
96.0
 20
92.5
 30
0.0
 11
86.0
 21
79.5
 31
0.0
  0
LINE
  5
19F0C
  8
DANMEN
  6
CONTINUOUS
 10
81.0
 20
99.0
 30
0.0
 11
81.0
 21
82.5
 31
0.0
  0
LINE
  5
19F0D
  8
DANMEN
  6
CONTINUOUS
 10
82.8
 20
96.5
 30
0.0
 11
82.8
 21
79.5
 31
0.0
  0
LINE
  5
19F0E
  8
DANMEN
  6
CONTINUOUS
 10
81.0
 20
99.5
 30
0.0
 11
81.0
 21
82.5
 31
0.0
  0
LINE
  5
19F0F
  8
DANMEN
  6
CONTINUOUS
 10
81.0
 20
99.5
 30
0.0
 11
73.0
 21
82.5
 31
0.0
  0
LINE
  5
19F10
  8
DANMEN
  6
CONTINUOUS
 10
73.0
 20
99.5
 30
0.0
 11
81.0
 21
82.5
 31
0.0
  0
LINE
  5
19F11
  8
DANMEN
  6
CONTINUOUS
 10
86.0
 20
79.5
 30
0.0
 11
86.0
 21
92.5
 31
0.0
  0
LINE
  5
19F12
  8
DANMEN
  6
CONTINUOUS
 10
76.5
 20
82.5
 30
0.0
 11
81.0
 21
82.5
 31
0.0
  0
LINE
  5
19F13
  8
DANMEN
  6
CONTINUOUS
 10
73.0
 20
82.5
 30
0.0
 11
81.0
 21
82.5
 31
0.0
  0
LINE
  5
19F14
  8
DANMEN
  6
CONTINUOUS
 10
74.327478
 20
82.5
 30
0.0
 11
76.0
 21
82.5
 31
0.0
  0
LINE
  5
19F15
  8
DANMEN
  6
CONTINUOUS
 10
74.582434
 20
81.9
 30
0.0
 11
75.2
 21
81.9
 31
0.0
  0
LINE
  5
19F17
  8
DANMEN
  6
CONTINUOUS
 10
73.0
 20
78.805709
 30
0.0
 11
73.0
 21
77.894291
 31
0.0
  0
LINE
  5
19F18
  8
DANMEN
  6
CONTINUOUS
 10
74.146178
 20
82.384441
 30
0.0
 11
73.0187
 21
78.89015
 31
0.0
  0
ARC
  5
19F19
  8
DANMEN
  6
CONTINUOUS
 10
74.327478
 20
82.3
 30
0.0
 40
0.2
 50
90.0
 51
155.02609
  0
ARC
  5
19F1B
  8
DANMEN
  6
CONTINUOUS
 10
73.2
 20
78.805709
 30
0.0
 40
0.2
 50
155.02609
 51
180.0
  0
ARC
  5
19F1D
  8
DANMEN
  6
CONTINUOUS
 10
73.2
 20
77.894291
 30
0.0
 40
0.2
 50
180.0
 51
204.97391
  0
LINE
  5
19F1F
  8
DANMEN
  6
CONTINUOUS
 10
74.582434
 20
81.9
 30
0.0
 11
73.6
 21
78.717126
 31
0.0
  0
LINE
  5
19F20
  8
DANMEN
  6
CONTINUOUS
 10
73.6
 20
78.717126
 30
0.0
 11
73.6
 21
77.982873
 31
0.0
  0
LINE
  5
19F25
  8
DANMEN
  6
CONTINUOUS
 10
78.0
 20
81.0
 30
0.0
 11
78.0
 21
80.0
 31
0.0
  0
LINE
  5
19F26
  8
DANMEN
  6
CONTINUOUS
 10
77.2
 20
81.2
 30
0.0
 11
77.8
 21
81.2
 31
0.0
  0
LINE
  5
19F27
  8
DANMEN
  6
CONTINUOUS
 10
77.0
 20
81.0
 30
0.0
 11
77.0
 21
80.0
 31
0.0
  0
ARC
  5
19F29
  8
DANMEN
  6
CONTINUOUS
 10
77.8
 20
81.0
 30
0.0
 40
0.2
 50
0.0
 51
89.999982
  0
ARC
  5
19F2B
  8
DANMEN
  6
CONTINUOUS
 10
77.2
 20
81.0
 30
0.0
 40
0.2
 50
89.999982
 51
180.000019
  0
LINE
  5
19F2E
  8
DANMEN
  6
CONTINUOUS
 10
78.0
 20
80.0
 30
0.0
 11
77.2
 21
79.2
 31
0.0
  0
LINE
  5
19F2F
  8
DANMEN
  6
CONTINUOUS
 10
76.0
 20
80.0
 30
0.0
 11
77.0
 21
80.0
 31
0.0
  0
LINE
  5
19F31
  8
DANMEN
  6
CONTINUOUS
 10
76.0
 20
82.5
 30
0.0
 11
76.0
 21
80.0
 31
0.0
  0
LINE
  5
19F39
  8
DANMEN
  6
CONTINUOUS
 10
76.0
 20
82.0
 30
0.0
 11
76.0
 21
80.800003
 31
0.0
  0
LINE
  5
19F3A
  8
DANMEN
  6
CONTINUOUS
 10
76.5
 20
80.300003
 30
0.0
 11
76.800003
 21
80.300003
 31
0.0
  0
LINE
  5
19F3B
  8
DANMEN
  6
CONTINUOUS
 10
76.800003
 20
81.5
 30
0.0
 11
76.800003
 21
80.300003
 31
0.0
  0
ARC
  5
19F3C
  8
DANMEN
  6
CONTINUOUS
 10
76.5
 20
80.800003
 30
0.0
 40
0.5
 50
180.000019
 51
270.000001
  0
LINE
  5
19F3D
  8
DANMEN
  6
CONTINUOUS
 10
76.800003
 20
81.5
 30
0.0
 11
78.5
 21
81.5
 31
0.0
  0
ARC
  5
19F3E
  8
DANMEN
  6
CONTINUOUS
 10
76.5
 20
82.0
 30
0.0
 40
0.5
 50
89.999982
 51
180.000019
  0
ARC
  5
19F44
  8
DANMEN
  6
CONTINUOUS
 10
72.499998
 20
88.0
 30
0.0
 40
0.5
 50
0.0
 51
89.999982
  0
LINE
  5
19F48
  8
DANMEN
  6
CONTINUOUS
 10
70.799998
 20
88.5
 30
0.0
 11
72.499998
 21
88.5
 31
0.0
  0
LINE
  5
19F4A
  8
DANMEN
  6
CONTINUOUS
 10
82.0
 20
77.7
 30
0.0
 11
85.5
 21
77.7
 31
0.0
  0
LINE
  5
19F4B
  8
DANMEN
  6
CONTINUOUS
 10
81.0
 20
78.7
 30
0.0
 11
81.0
 21
80.7
 31
0.0
  0
LINE
  5
19F4E
  8
DANMEN
  6
CONTINUOUS
 10
79.5
 20
80.7
 30
0.0
 11
81.0
 21
80.7
 31
0.0
  0
LINE
  5
19F55
  8
DANMEN
  6
DASHED
 10
83.5
 20
99.5
 30
0.0
 11
77.714146
 21
99.5
 31
0.0
  0
LINE
  5
19F56
  8
DANMEN
  6
CONTINUOUS
 10
73.0
 20
99.5
 30
0.0
 11
81.0
 21
99.5
 31
0.0
  0
ARC
  5
19F57
  8
DANMEN
  6
DASHED
 10
77.714146
 20
98.5
 30
0.0
 40
1.0
 50
89.999982
 51
135.573244
  0
LINE
  5
19F58
  8
DANMEN
  6
DASHED
 10
77.0
 20
99.199997
 30
0.0
 11
76.5
 21
99.199997
 31
0.0
  0
LINE
  5
19F59
  8
DANMEN
  6
DASHED
 10
76.0
 20
100.199997
 30
0.0
 11
76.0
 21
99.699997
 31
0.0
  0
ARC
  5
19F5A
  8
DANMEN
  6
DASHED
 10
76.5
 20
99.699997
 30
0.0
 40
0.5
 50
180.0
 51
270.0
  0
LINE
  5
19F5F
  8
DANMEN
  6
DASHED
 10
83.023824
 20
95.882864
 30
0.0
 11
84.423825
 21
92.582833
 31
0.0
  0
LINE
  5
19F60
  8
DANMEN
  6
DASHED
 10
84.5
 20
94.899997
 30
0.0
 11
84.5
 21
99.0
 31
0.0
  0
LINE
  5
19F61
  8
DANMEN
  6
DASHED
 10
84.5
 20
94.899997
 30
0.0
 11
84.992312
 21
92.76748
 31
0.0
  0
ARC
  5
19F62
  8
DANMEN
  6
DASHED
 10
84.7
 20
92.699997
 30
0.0
 40
0.3
 50
202.988532
 51
12.999521
  0
ARC
  5
19F66
  8
DANMEN
  6
DASHED
 10
83.299999
 20
96.000028
 30
0.0
 40
0.3
 50
124.343976
 51
202.988532
  0
ARC
  5
19F67
  8
DANMEN
  6
CONTINUOUS
 10
83.0
 20
99.0
 30
0.0
 40
0.5
 50
0.0
 51
90.0
  0
LINE
  5
19F68
  8
DANMEN
  6
CONTINUOUS
 10
82.8
 20
96.5
 30
0.0
 11
83.5
 21
96.5
 31
0.0
  0
LINE
  5
19F6A
  8
DANMEN
  6
CONTINUOUS
 10
81.5
 20
99.5
 30
0.0
 11
83.0
 21
99.5
 31
0.0
  0
ARC
  5
19F6B
  8
DANMEN
  6
CONTINUOUS
 10
81.5
 20
99.0
 30
0.0
 40
0.5
 50
90.0
 51
180.0
  0
ARC
  5
19F6F
  8
DANMEN
  6
DASHED
 10
85.0
 20
99.0
 30
0.0
 40
0.5
 50
90.0
 51
180.0
  0
LINE
  5
19F70
  8
DANMEN
  6
DASHED
 10
83.5
 20
99.5
 30
0.0
 11
83.5
 21
96.500035
 31
0.0
  0
LINE
  5
19F71
  8
DANMEN
  6
DASHED
 10
83.5
 20
96.500035
 30
0.0
 11
83.130743
 21
96.247729
 31
0.0
  0
LINE
  5
19F75
  8
DANMEN
  6
CONTINUOUS
 10
83.5
 20
99.0
 30
0.0
 11
83.5
 21
96.5
 31
0.0
  0
ARC
  5
19F78
  8
DANMEN
  6
DASHED
 10
97.3
 20
89.199997
 30
0.0
 40
0.3
 50
167.000479
 51
337.011468
  0
LINE
  5
19F79
  8
DANMEN
  6
DASHED
 10
98.976176
 20
92.382864
 30
0.0
 11
97.576175
 21
89.082833
 31
0.0
  0
LINE
  5
19F7A
  8
DANMEN
  6
CONTINUOUS
 10
96.0
 20
79.5
 30
0.0
 11
96.0
 21
92.5
 31
0.0
  0
LINE
  5
19F7D
  8
DANMEN
  6
CONTINUOUS
 10
96.2
 20
77.8
 30
0.0
 11
97.7
 21
77.8
 31
0.0
  0
LINE
  5
19F7E
  8
DANMEN
  6
CONTINUOUS
 10
98.55
 20
79.5
 30
0.0
 11
98.55
 21
81.0
 31
0.0
  0
ARC
  5
19F7F
  8
DANMEN
  6
CONTINUOUS
 10
99.05
 20
81.0
 30
0.0
 40
0.5
 50
90.0
 51
180.0
  0
LINE
  5
19F86
  8
DANMEN
  6
DASHED
 10
98.5
 20
99.5
 30
0.0
 11
98.5
 21
93.000035
 31
0.0
  0
LINE
  5
19F87
  8
DANMEN
  6
DASHED
 10
97.5
 20
91.399997
 30
0.0
 11
97.5
 21
99.0
 31
0.0
  0
LINE
  5
19F88
  8
DANMEN
  6
CONTINUOUS
 10
101.0
 20
98.5
 30
0.0
 11
101.0
 21
94.5
 31
0.0
  0
LINE
  5
19F89
  8
DANMEN
  6
CONTINUOUS
 10
99.35
 20
93.7
 30
0.0
 11
99.35
 21
96.5
 31
0.0
  0
ARC
  5
19F8B
  8
DANMEN
  6
DASHED
 10
98.700001
 20
92.500028
 30
0.0
 40
0.3
 50
337.011468
 51
55.656024
  0
LINE
  5
19F8C
  8
DANMEN
  6
DASHED
 10
98.5
 20
93.000035
 30
0.0
 11
98.869257
 21
92.747729
 31
0.0
  0
LINE
  5
19F8D
  8
DANMEN
  6
DASHED
 10
97.5
 20
91.399997
 30
0.0
 11
97.007688
 21
89.26748
 31
0.0
  0
LINE
  5
19F91
  8
DANMEN
  6
CONTINUOUS
 10
99.0
 20
93.7
 30
0.0
 11
99.35
 21
93.7
 31
0.0
  0
ARC
  5
19F92
  8
DANMEN
  6
CONTINUOUS
 10
99.0
 20
93.2
 30
0.0
 40
0.5
 50
90.0
 51
270.0
  0
LINE
  5
19F97
  8
DANMEN
  6
DASHED
 10
98.5
 20
99.5
 30
0.0
 11
101.5
 21
99.5
 31
0.0
  0
LINE
  5
19F98
  8
DANMEN
  6
CONTINUOUS
 10
99.0
 20
99.5
 30
0.0
 11
102.0
 21
99.5
 31
0.0
  0
ARC
  5
19F99
  8
DANMEN
  6
DASHED
 10
97.0
 20
99.0
 30
0.0
 40
0.5
 50
0.0
 51
90.0
  0
LINE
  5
19F9C
  8
DANMEN
  6
CONTINUOUS
 10
99.35
 20
96.5
 30
0.0
 11
98.5
 21
96.5
 31
0.0
  0
LINE
  5
19F9D
  8
DANMEN
  6
CONTINUOUS
 10
98.5
 20
99.0
 30
0.0
 11
98.5
 21
96.5
 31
0.0
  0
ARC
  5
19F9E
  8
DANMEN
  6
CONTINUOUS
 10
99.0
 20
99.0
 30
0.0
 40
0.5
 50
89.999981
 51
180.000037
  0
LINE
  5
19FA2
  8
DANMEN
  6
DASHED
 10
101.5
 20
99.5
 30
0.0
 11
101.5
 21
100.199997
 31
0.0
  0
LINE
  5
19FA5
  8
DANMEN
  6
CONTINUOUS
 10
102.0
 20
99.5
 30
0.0
 11
102.0
 21
99.0
 31
0.0
  0
LINE
  5
19FA7
  8
DANMEN
  6
CONTINUOUS
 10
101.0
 20
98.5
 30
0.0
 11
101.5
 21
98.5
 31
0.0
  0
ARC
  5
19FA9
  8
DANMEN
  6
CONTINUOUS
 10
101.5
 20
99.0
 30
0.0
 40
0.5
 50
270.0
 51
0.0
  0
ARC
  5
19FAB
  8
DANMEN
  6
CONTINUOUS
 10
87.000006
 20
103.499908
 30
0.0
 40
1.5
 50
269.999982
 51
359.999964
  0
LINE
  5
19FAC
  8
DANMEN
  6
CONTINUOUS
 10
87.000006
 20
101.999908
 30
0.0
 11
84.500015
 21
101.999908
 31
0.0
  0
LINE
  5
19FAD
  8
DANMEN
  6
CONTINUOUS
 10
97.500015
 20
101.999908
 30
0.0
 11
95.000009
 21
101.999908
 31
0.0
  0
ARC
  5
19FAE
  8
DANMEN
  6
CONTINUOUS
 10
95.000009
 20
103.499908
 30
0.0
 40
1.5
 50
180.0
 51
269.999982
  0
LINE
  5
19FAF
  8
DANMEN
  6
CONTINUOUS
 10
110.35
 20
92.7
 30
0.0
 11
110.35
 21
81.5
 31
0.0
  0
ARC
  5
19FB2
  8
DANMEN
  6
CONTINUOUS
 10
111.5
 20
99.0
 30
0.0
 40
0.5
 50
0.0
 51
90.0
  0
LINE
  5
19FB3
  8
DANMEN
  6
CONTINUOUS
 10
110.35
 20
99.0
 30
0.0
 11
110.35
 21
94.5
 31
0.0
  0
ARC
  5
19FB4
  8
DANMEN
  6
CONTINUOUS
 10
108.504277
 20
95.536483
 30
0.0
 40
0.5
 50
274.0
 51
359.16958
  0
LINE
  5
19FB7
  8
DANMEN
  6
CONTINUOUS
 10
110.85
 20
99.5
 30
0.0
 11
111.5
 21
99.5
 31
0.0
  0
ARC
  5
19FB8
  8
DANMEN
  6
CONTINUOUS
 10
110.85
 20
99.0
 30
0.0
 40
0.5
 50
90.0
 51
180.0
  0
LINE
  5
19FBC
  8
DANMEN
  6
CONTINUOUS
 10
108.0
 20
95.0
 30
0.0
 11
108.539155
 21
95.037701
 31
0.0
  0
LINE
  5
19FC1
  8
DANMEN
  6
CONTINUOUS
 10
198.000002
 20
119.0
 30
0.0
 11
198.000002
 21
87.6
 31
0.0
  0
LINE
  5
19FC2
  8
DANMEN
  6
CONTINUOUS
 10
189.649995
 20
92.0
 30
0.0
 11
189.649995
 21
88.149994
 31
0.0
  0
LINE
  5
19FC3
  8
DANMEN
  6
CONTINUOUS
 10
188.000002
 20
92.0
 30
0.0
 11
188.000002
 21
87.0
 31
0.0
  0
LINE
  5
19FC4
  8
DANMEN
  6
CONTINUOUS
 10
189.649995
 20
88.149994
 30
0.0
 11
196.350008
 21
88.149994
 31
0.0
  0
ARC
  5
19FC7
  8
DANMEN
  6
CONTINUOUS
 10
188.500002
 20
87.0
 30
0.0
 40
0.5
 50
180.000036
 51
269.999963
  0
LINE
  5
19FCA
  8
DANMEN
  6
CONTINUOUS
 10
200.000002
 20
88.149994
 30
0.0
 11
200.000002
 21
87.6
 31
0.0
  0
LINE
  5
19FCB
  8
DANMEN
  6
CONTINUOUS
 10
198.000002
 20
87.6
 30
0.0
 11
200.000002
 21
87.6
 31
0.0
  0
ARC
  5
19FCE
  8
DANMEN
  6
CONTINUOUS
 10
189.149995
 20
92.0
 30
0.0
 40
0.5
 50
359.999981
 51
89.999982
  0
ARC
  5
19FD1
  8
DANMEN
  6
CONTINUOUS
 10
188.500002
 20
92.0
 30
0.0
 40
0.5
 50
89.999982
 51
180.000019
  0
LINE
  5
19FD2
  8
DANMEN
  6
CONTINUOUS
 10
188.500002
 20
92.5
 30
0.0
 11
189.149995
 21
92.5
 31
0.0
  0
LINE
  5
19FD5
  8
DANMEN
  6
CONTINUOUS
 10
78.65
 20
252.100012
 30
0.0
 11
63.4
 21
252.100012
 31
0.0
  0
LINE
  5
19FD6
  8
DANMEN
  6
CONTINUOUS
 10
78.0
 20
250.450012
 30
0.0
 11
65.5
 21
250.450012
 31
0.0
  0
ARC
  5
19FD7
  8
DANMEN
  6
CONTINUOUS
 10
70.299998
 20
189.0
 30
0.0
 40
0.5
 50
270.000018
 51
0.0
  0
LINE
  5
19FD8
  8
DANMEN
  6
CONTINUOUS
 10
71.049998
 20
221.45
 30
0.0
 11
69.850001
 21
221.45
 31
0.0
  0
ARC
  5
19FD9
  8
DANMEN
  6
CONTINUOUS
 10
70.299998
 20
153.0
 30
0.0
 40
0.5
 50
0.0
 51
89.999982
  0
LINE
  5
19FDA
  8
DANMEN
  6
CONTINUOUS
 10
47.5
 20
258.5
 30
0.0
 11
106.5
 21
258.5
 31
0.0
  0
LINE
  5
19FDB
  8
DANMEN
  6
CONTINUOUS
 10
65.0
 20
231.5
 30
0.0
 11
73.0
 21
231.5
 31
0.0
  0
LINE
  5
19FDC
  8
DANMEN
  6
CONTINUOUS
 10
51.199998
 20
231.0
 30
0.0
 11
51.199998
 21
189.0
 31
0.0
  0
LINE
  5
19FDD
  8
DANMEN
  6
CONTINUOUS
 10
53.149998
 20
231.0
 30
0.0
 11
53.149998
 21
205.0
 31
0.0
  0
LINE
  5
19FDE
  8
DANMEN
  6
CONTINUOUS
 10
68.850001
 20
220.45
 30
0.0
 11
68.850001
 21
205.0
 31
0.0
  0
LINE
  5
19FDF
  8
DANMEN
  6
CONTINUOUS
 10
43.649994
 20
224.0
 30
0.0
 11
43.649994
 21
172.5
 31
0.0
  0
LINE
  5
19FE0
  8
DANMEN
  6
CONTINUOUS
 10
42.0
 20
224.0
 30
0.0
 11
42.0
 21
172.5
 31
0.0
  0
LINE
  5
19FE1
  8
DANMEN
  6
CONTINUOUS
 10
49.0
 20
231.5
 30
0.0
 11
49.0
 21
172.5
 31
0.0
  0
LINE
  5
19FE2
  8
DANMEN
  6
CONTINUOUS
 10
65.0
 20
231.5
 30
0.0
 11
65.0
 21
212.5
 31
0.0
  0
LINE
  5
19FE3
  8
DANMEN
  6
CONTINUOUS
 10
57.0
 20
231.5
 30
0.0
 11
57.0
 21
212.5
 31
0.0
  0
LINE
  5
19FE4
  8
DANMEN
  6
CONTINUOUS
 10
53.149998
 20
150.5
 30
0.0
 11
53.149998
 21
136.699997
 31
0.0
  0
LINE
  5
19FE5
  8
DANMEN
  6
CONTINUOUS
 10
68.849998
 20
150.5
 30
0.0
 11
68.849998
 21
142.5
 31
0.0
  0
LINE
  5
19FE6
  8
DANMEN
  6
CONTINUOUS
 10
63.500009
 20
146.5
 30
0.0
 11
63.500009
 21
169.5
 31
0.0
  0
LINE
  5
19FE7
  8
DANMEN
  6
CONTINUOUS
 10
58.500021
 20
146.499985
 30
0.0
 11
58.500021
 21
169.5
 31
0.0
  0
LINE
  5
19FE8
  8
DANMEN
  6
CONTINUOUS
 10
63.000009
 20
146.5
 30
0.0
 11
63.000009
 21
169.5
 31
0.0
  0
LINE
  5
19FE9
  8
DANMEN
  6
CONTINUOUS
 10
59.000021
 20
146.499985
 30
0.0
 11
59.000021
 21
169.5
 31
0.0
  0
LINE
  5
19FEA
  8
DANMEN
  6
CONTINUOUS
 10
53.149998
 20
135.5
 30
0.0
 11
58.649998
 21
135.5
 31
0.0
  0
LINE
  5
19FEB
  8
DANMEN
  6
CONTINUOUS
 10
53.149998
 20
136.699997
 30
0.0
 11
57.699998
 21
136.699997
 31
0.0
  0
ARC
  5
19FEE
  8
DANMEN
  6
CONTINUOUS
 10
58.649998
 20
136.5
 30
0.0
 40
1.0
 50
270.000018
 51
0.0
  0
LINE
  5
19FF0
  8
DANMEN
  6
CONTINUOUS
 10
59.649998
 20
140.550003
 30
0.0
 11
68.849998
 21
140.550003
 31
0.0
  0
LINE
  5
19FF1
  8
DANMEN
  6
CONTINUOUS
 10
58.699998
 20
142.5
 30
0.0
 11
68.849998
 21
142.5
 31
0.0
  0
LINE
  5
19FF2
  8
DANMEN
  6
CONTINUOUS
 10
63.500009
 20
146.499985
 30
0.0
 11
58.500006
 21
146.499985
 31
0.0
  0
LINE
  5
19FF3
  8
DANMEN
  6
CONTINUOUS
 10
57.699998
 20
141.5
 30
0.0
 11
57.699998
 21
136.699997
 31
0.0
  0
LINE
  5
19FF6
  8
DANMEN
  6
CONTINUOUS
 10
59.649998
 20
140.550003
 30
0.0
 11
59.649998
 21
136.5
 31
0.0
  0
ARC
  5
19FF7
  8
DANMEN
  6
CONTINUOUS
 10
58.699998
 20
141.5
 30
0.0
 40
1.0
 50
89.999982
 51
180.000019
  0
ARC
  5
19FFB
  8
DANMEN
  6
CONTINUOUS
 10
54.500015
 20
154.499908
 30
0.0
 40
1.5
 50
90.000018
 51
180.0
  0
LINE
  5
19FFC
  8
DANMEN
  6
CONTINUOUS
 10
53.000015
 20
153.499985
 30
0.0
 11
53.000015
 21
169.5
 31
0.0
  0
ARC
  5
19FFD
  8
DANMEN
  6
CONTINUOUS
 10
53.499998
 20
153.0
 30
0.0
 40
0.5
 50
0.0
 51
89.999982
  0
ARC
  5
19FFE
  8
DANMEN
  6
CONTINUOUS
 10
51.699998
 20
153.0
 30
0.0
 40
0.5
 50
89.999982
 51
180.000019
  0
LINE
  5
1A001
  8
DANMEN
  6
CONTINUOUS
 10
53.149998
 20
150.5
 30
0.0
 11
53.999998
 21
150.5
 31
0.0
  0
LINE
  5
1A002
  8
DANMEN
  6
CONTINUOUS
 10
53.999998
 20
153.0
 30
0.0
 11
53.999998
 21
150.5
 31
0.0
  0
LINE
  5
1A005
  8
DANMEN
  6
CONTINUOUS
 10
51.699998
 20
153.5
 30
0.0
 11
53.499998
 21
153.5
 31
0.0
  0
LINE
  5
1A006
  8
DANMEN
  6
CONTINUOUS
 10
68.999985
 20
153.5
 30
0.0
 11
68.999985
 21
169.5
 31
0.0
  0
ARC
  5
1A007
  8
DANMEN
  6
CONTINUOUS
 10
57.000006
 20
157.499908
 30
0.0
 40
1.5
 50
269.999982
 51
359.999964
  0
LINE
  5
1A008
  8
DANMEN
  6
CONTINUOUS
 10
57.000006
 20
155.999908
 30
0.0
 11
54.500015
 21
155.999908
 31
0.0
  0
ARC
  5
1A00B
  8
DANMEN
  6
CONTINUOUS
 10
68.499998
 20
153.0
 30
0.0
 40
0.5
 50
89.999982
 51
180.000019
  0
LINE
  5
1A00E
  8
DANMEN
  6
CONTINUOUS
 10
67.999998
 20
150.5
 30
0.0
 11
68.849998
 21
150.5
 31
0.0
  0
LINE
  5
1A00F
  8
DANMEN
  6
CONTINUOUS
 10
67.999998
 20
153.0
 30
0.0
 11
67.999998
 21
150.5
 31
0.0
  0
LINE
  5
1A010
  8
DANMEN
  6
CONTINUOUS
 10
67.500015
 20
155.999908
 30
0.0
 11
65.000009
 21
155.999908
 31
0.0
  0
ARC
  5
1A011
  8
DANMEN
  6
CONTINUOUS
 10
65.000009
 20
157.499908
 30
0.0
 40
1.5
 50
180.0
 51
269.999982
  0
ARC
  5
1A012
  8
DANMEN
  6
CONTINUOUS
 10
67.500015
 20
154.499908
 30
0.0
 40
1.5
 50
359.999964
 51
90.000001
  0
LINE
  5
1A014
  8
DANMEN
  6
CONTINUOUS
 10
68.499998
 20
153.5
 30
0.0
 11
70.299998
 21
153.5
 31
0.0
  0
LINE
  5
1A015
  8
DANMEN
  6
CONTINUOUS
 10
53.149998
 20
203.050003
 30
0.0
 11
53.149998
 21
191.5
 31
0.0
  0
LINE
  5
1A016
  8
DANMEN
  6
CONTINUOUS
 10
68.850001
 20
203.050003
 30
0.0
 11
68.850001
 21
191.5
 31
0.0
  0
LINE
  5
1A017
  8
DANMEN
  6
CONTINUOUS
 10
58.499991
 20
195.5
 30
0.0
 11
58.499991
 21
172.5
 31
0.0
  0
LINE
  5
1A018
  8
DANMEN
  6
CONTINUOUS
 10
63.499979
 20
195.500015
 30
0.0
 11
63.499979
 21
172.5
 31
0.0
  0
LINE
  5
1A019
  8
DANMEN
  6
CONTINUOUS
 10
58.999991
 20
195.5
 30
0.0
 11
58.999991
 21
172.5
 31
0.0
  0
LINE
  5
1A01A
  8
DANMEN
  6
CONTINUOUS
 10
62.999979
 20
195.500015
 30
0.0
 11
62.999979
 21
172.5
 31
0.0
  0
ARC
  5
1A01B
  8
DANMEN
  6
CONTINUOUS
 10
54.499985
 20
187.500092
 30
0.0
 40
1.5
 50
179.999964
 51
270.000001
  0
LINE
  5
1A01C
  8
DANMEN
  6
CONTINUOUS
 10
53.0
 20
188.5
 30
0.0
 11
53.0
 21
172.5
 31
0.0
  0
LINE
  5
1A01D
  8
DANMEN
  6
CONTINUOUS
 10
51.699998
 20
188.5
 30
0.0
 11
53.499998
 21
188.5
 31
0.0
  0
LINE
  5
1A01E
  8
DANMEN
  6
CONTINUOUS
 10
53.999998
 20
191.5
 30
0.0
 11
53.999998
 21
189.0
 31
0.0
  0
LINE
  5
1A01F
  8
DANMEN
  6
CONTINUOUS
 10
53.149998
 20
191.5
 30
0.0
 11
53.999998
 21
191.5
 31
0.0
  0
ARC
  5
1A023
  8
DANMEN
  6
CONTINUOUS
 10
51.699998
 20
189.0
 30
0.0
 40
0.5
 50
180.000019
 51
270.000001
  0
ARC
  5
1A025
  8
DANMEN
  6
CONTINUOUS
 10
53.499998
 20
189.0
 30
0.0
 40
0.5
 50
270.000018
 51
0.0
  0
LINE
  5
1A026
  8
DANMEN
  6
CONTINUOUS
 10
69.0
 20
188.5
 30
0.0
 11
69.0
 21
172.5
 31
0.0
  0
ARC
  5
1A027
  8
DANMEN
  6
CONTINUOUS
 10
56.999991
 20
184.500092
 30
0.0
 40
1.5
 50
0.0
 51
89.999982
  0
LINE
  5
1A028
  8
DANMEN
  6
CONTINUOUS
 10
54.499985
 20
186.000092
 30
0.0
 11
56.999991
 21
186.000092
 31
0.0
  0
LINE
  5
1A02B
  8
DANMEN
  6
CONTINUOUS
 10
64.999994
 20
186.000092
 30
0.0
 11
67.499985
 21
186.000092
 31
0.0
  0
ARC
  5
1A02C
  8
DANMEN
  6
CONTINUOUS
 10
64.999994
 20
184.500092
 30
0.0
 40
1.5
 50
89.999982
 51
179.999964
  0
ARC
  5
1A02D
  8
DANMEN
  6
CONTINUOUS
 10
67.499985
 20
187.500092
 30
0.0
 40
1.5
 50
270.000018
 51
0.0
  0
LINE
  5
1A02E
  8
DANMEN
  6
CONTINUOUS
 10
67.999995
 20
191.5
 30
0.0
 11
67.999995
 21
189.0
 31
0.0
  0
LINE
  5
1A02F
  8
DANMEN
  6
CONTINUOUS
 10
67.999995
 20
191.5
 30
0.0
 11
68.850001
 21
191.5
 31
0.0
  0
LINE
  5
1A030
  8
DANMEN
  6
CONTINUOUS
 10
68.499995
 20
188.5
 30
0.0
 11
70.299998
 21
188.5
 31
0.0
  0
ARC
  5
1A032
  8
DANMEN
  6
CONTINUOUS
 10
68.499995
 20
189.0
 30
0.0
 40
0.5
 50
180.000019
 51
270.000001
  0
LINE
  5
1A035
  8
DANMEN
  6
CONTINUOUS
 10
53.149998
 20
205.0
 30
0.0
 11
68.850001
 21
205.0
 31
0.0
  0
LINE
  5
1A036
  8
DANMEN
  6
CONTINUOUS
 10
53.149998
 20
203.050003
 30
0.0
 11
56.699999
 21
203.050003
 31
0.0
  0
ARC
  5
1A039
  8
DANMEN
  6
CONTINUOUS
 10
61.799997
 20
202.299999
 30
0.0
 40
1.0
 50
359.999945
 51
89.999982
  0
ARC
  5
1A03A
  8
DANMEN
  6
CONTINUOUS
 10
61.799997
 20
201.05394
 30
0.0
 40
1.0
 50
294.62438
 51
0.0
  0
LINE
  5
1A03B
  8
DANMEN
  6
CONTINUOUS
 10
62.399997
 20
199.400001
 30
0.0
 11
63.539728
 21
199.400001
 31
0.0
  0
LINE
  5
1A03C
  8
DANMEN
  6
CONTINUOUS
 10
58.499991
 20
195.500015
 30
0.0
 11
63.499994
 21
195.500015
 31
0.0
  0
ARC
  5
1A03D
  8
DANMEN
  6
CONTINUOUS
 10
59.699999
 20
200.969418
 30
0.0
 40
2.0
 50
180.000019
 51
231.693677
  0
ARC
  5
1A03E
  8
DANMEN
  6
CONTINUOUS
 10
59.599999
 20
199.700001
 30
0.0
 40
0.3
 50
270.000018
 51
0.0
  0
ARC
  5
1A03F
  8
DANMEN
  6
CONTINUOUS
 10
62.399997
 20
199.700001
 30
0.0
 40
0.3
 50
180.000019
 51
270.000055
  0
LINE
  5
1A040
  8
DANMEN
  6
CONTINUOUS
 10
58.460268
 20
199.400001
 30
0.0
 11
59.599999
 21
199.400001
 31
0.0
  0
LINE
  5
1A041
  8
DANMEN
  6
CONTINUOUS
 10
57.699999
 20
202.050003
 30
0.0
 11
57.699999
 21
200.969418
 31
0.0
  0
ARC
  5
1A043
  8
DANMEN
  6
CONTINUOUS
 10
56.699999
 20
202.050003
 30
0.0
 40
1.0
 50
0.0
 51
89.999982
  0
LINE
  5
1A046
  8
DANMEN
  6
CONTINUOUS
 10
62.099998
 20
199.700001
 30
0.0
 11
62.099998
 21
199.963069
 31
0.0
  0
LINE
  5
1A047
  8
DANMEN
  6
CONTINUOUS
 10
59.199999
 20
202.299998
 30
0.0
 11
59.199999
 21
201.05394
 31
0.0
  0
LINE
  5
1A048
  8
DANMEN
  6
CONTINUOUS
 10
60.199999
 20
203.299999
 30
0.0
 11
61.799997
 21
203.299999
 31
0.0
  0
ARC
  5
1A049
  8
DANMEN
  6
CONTINUOUS
 10
60.199999
 20
202.299999
 30
0.0
 40
1.0
 50
89.999982
 51
180.000019
  0
LINE
  5
1A04A
  8
DANMEN
  6
CONTINUOUS
 10
59.899999
 20
199.963069
 30
0.0
 11
59.899999
 21
199.700001
 31
0.0
  0
ARC
  5
1A04B
  8
DANMEN
  6
CONTINUOUS
 10
60.199999
 20
201.05394
 30
0.0
 40
1.0
 50
180.000019
 51
245.375639
  0
ARC
  5
1A04C
  8
DANMEN
  6
CONTINUOUS
 10
59.699999
 20
199.963069
 30
0.0
 40
0.2
 50
0.0
 51
65.375675
  0
ARC
  5
1A04D
  8
DANMEN
  6
CONTINUOUS
 10
62.299997
 20
199.963069
 30
0.0
 40
0.2
 50
114.624344
 51
180.000019
  0
ARC
  5
1A04E
  8
DANMEN
  6
CONTINUOUS
 10
62.299997
 20
200.969418
 30
0.0
 40
2.0
 50
308.306342
 51
359.999945
  0
LINE
  5
1A04F
  8
DANMEN
  6
CONTINUOUS
 10
65.299997
 20
203.050003
 30
0.0
 11
68.850001
 21
203.050003
 31
0.0
  0
LINE
  5
1A050
  8
DANMEN
  6
CONTINUOUS
 10
62.799997
 20
201.05394
 30
0.0
 11
62.799997
 21
202.299998
 31
0.0
  0
LINE
  5
1A051
  8
DANMEN
  6
CONTINUOUS
 10
64.299997
 20
200.969418
 30
0.0
 11
64.299997
 21
202.050003
 31
0.0
  0
ARC
  5
1A053
  8
DANMEN
  6
CONTINUOUS
 10
65.299997
 20
202.050003
 30
0.0
 40
1.0
 50
89.999982
 51
180.000019
  0
ARC
  5
1A056
  8
DANMEN
  6
CONTINUOUS
 10
61.0
 20
212.5
 30
0.0
 40
4.0
 50
180.000019
 51
359.999983
  0
LINE
  5
1A057
  8
DANMEN
  6
CONTINUOUS
 10
60.6
 20
246.5
 30
0.0
 11
60.6
 21
235.601833
 31
0.0
  0
LINE
  5
1A058
  8
DANMEN
  6
CONTINUOUS
 10
62.25
 20
246.5
 30
0.0
 11
62.25
 21
225.561553
 31
0.0
  0
LINE
  5
1A059
  8
DANMEN
  6
CONTINUOUS
 10
43.649994
 20
246.5
 30
0.0
 11
43.649994
 21
224.0
 31
0.0
  0
LINE
  5
1A05A
  8
DANMEN
  6
CONTINUOUS
 10
42.0
 20
258.0
 30
0.0
 11
42.0
 21
224.0
 31
0.0
  0
LINE
  5
1A05B
  8
DANMEN
  6
CONTINUOUS
 10
49.0
 20
231.5
 30
0.0
 11
57.0
 21
231.5
 31
0.0
  0
ARC
  5
1A05C
  8
DANMEN
  6
CONTINUOUS
 10
42.5
 20
224.0
 30
0.0
 40
0.5
 50
180.000019
 51
270.000001
  0
ARC
  5
1A05D
  8
DANMEN
  6
CONTINUOUS
 10
43.149994
 20
224.0
 30
0.0
 40
0.5
 50
270.000018
 51
0.0
  0
LINE
  5
1A05E
  8
DANMEN
  6
CONTINUOUS
 10
42.5
 20
223.5
 30
0.0
 11
43.149994
 21
223.5
 31
0.0
  0
LINE
  5
1A05F
  8
DANMEN
  6
CONTINUOUS
 10
51.699998
 20
231.5
 30
0.0
 11
52.649998
 21
231.5
 31
0.0
  0
ARC
  5
1A061
  8
DANMEN
  6
CONTINUOUS
 10
51.699998
 20
231.0
 30
0.0
 40
0.5
 50
89.999982
 51
180.000019
  0
ARC
  5
1A062
  8
DANMEN
  6
CONTINUOUS
 10
52.649998
 20
231.0
 30
0.0
 40
0.5
 50
0.0
 51
90.0
  0
LINE
  5
1A064
  8
DANMEN
  6
CONTINUOUS
 10
59.75
 20
233.398149
 30
0.0
 11
59.75
 21
225.561553
 31
0.0
  0
ARC
  5
1A065
  8
DANMEN
  6
CONTINUOUS
 10
61.75
 20
225.561553
 30
0.0
 40
0.5
 50
345.963757
 51
0.0
  0
ARC
  5
1A066
  8
DANMEN
  6
CONTINUOUS
 10
60.25
 20
225.561553
 30
0.0
 40
0.5
 50
180.0
 51
194.036243
  0
ARC
  5
1A067
  8
DANMEN
  6
CONTINUOUS
 10
61.359612
 20
224.0
 30
0.0
 40
0.5
 50
270.0
 51
345.963757
  0
ARC
  5
1A068
  8
DANMEN
  6
CONTINUOUS
 10
60.640388
 20
224.0
 30
0.0
 40
0.5
 50
194.036243
 51
270.0
  0
LINE
  5
1A069
  8
DANMEN
  6
CONTINUOUS
 10
60.155317
 20
223.878732
 30
0.0
 11
59.764929
 21
225.440285
 31
0.0
  0
LINE
  5
1A06A
  8
DANMEN
  6
CONTINUOUS
 10
62.235071
 20
225.440285
 30
0.0
 11
61.844683
 21
223.878732
 31
0.0
  0
LINE
  5
1A06B
  8
DANMEN
  6
CONTINUOUS
 10
60.640388
 20
223.5
 30
0.0
 11
61.359612
 21
223.5
 31
0.0
  0
ARC
  5
1A06C
  8
DANMEN
  6
CONTINUOUS
 10
69.850001
 20
220.45
 30
0.0
 40
1.0
 50
90.0
 51
180.0
  0
LINE
  5
1A06E
  8
DANMEN
  6
CONTINUOUS
 10
60.560165
 20
235.406263
 30
0.0
 11
59.789835
 21
233.59372
 31
0.0
  0
ARC
  5
1A06F
  8
DANMEN
  6
CONTINUOUS
 10
60.25
 20
233.398149
 30
0.0
 40
0.5
 50
156.974508
 51
180.0
  0
ARC
  5
1A070
  8
DANMEN
  6
CONTINUOUS
 10
60.1
 20
235.601833
 30
0.0
 40
0.5
 50
336.974508
 51
0.0
  0
LINE
  5
1A071
  8
DANMEN
  6
CONTINUOUS
 10
43.649994
 20
248.149994
 30
0.0
 11
57.699997
 21
248.149994
 31
0.0
  0
LINE
  5
1A072
  8
DANMEN
  6
CONTINUOUS
 10
43.649994
 20
246.5
 30
0.0
 11
60.6
 21
246.5
 31
0.0
  0
LINE
  5
1A073
  8
DANMEN
  6
CONTINUOUS
 10
43.649994
 20
256.850006
 30
0.0
 11
43.649994
 21
248.149994
 31
0.0
  0
LINE
  5
1A074
  8
DANMEN
  6
CONTINUOUS
 10
43.649994
 20
256.850006
 30
0.0
 11
47.5
 21
256.850006
 31
0.0
  0
LINE
  5
1A075
  8
DANMEN
  6
CONTINUOUS
 10
42.5
 20
258.5
 30
0.0
 11
47.5
 21
258.5
 31
0.0
  0
ARC
  5
1A076
  8
DANMEN
  6
CONTINUOUS
 10
42.5
 20
258.0
 30
0.0
 40
0.5
 50
89.999982
 51
180.000019
  0
LINE
  5
1A077
  8
DANMEN
  6
CONTINUOUS
 10
48.0
 20
258.0
 30
0.0
 11
48.0
 21
257.350006
 31
0.0
  0
ARC
  5
1A078
  8
DANMEN
  6
CONTINUOUS
 10
47.5
 20
257.350006
 30
0.0
 40
0.5
 50
270.000018
 51
0.0
  0
ARC
  5
1A079
  8
DANMEN
  6
CONTINUOUS
 10
47.5
 20
258.0
 30
0.0
 40
0.5
 50
0.0
 51
89.999982
  0
LINE
  5
1A07A
  8
DANMEN
  6
CONTINUOUS
 10
60.9
 20
251.8
 30
0.0
 11
60.9
 21
251.536932
 31
0.0
  0
ARC
  5
1A07B
  8
DANMEN
  6
CONTINUOUS
 10
60.7
 20
250.530306
 30
0.0
 40
2.0
 50
128.293477
 51
180.0
  0
LINE
  5
1A07C
  8
DANMEN
  6
CONTINUOUS
 10
63.1
 20
251.800012
 30
0.0
 11
63.1
 21
251.536932
 31
0.0
  0
LINE
  5
1A07D
  8
DANMEN
  6
CONTINUOUS
 10
62.8
 20
248.2
 30
0.0
 11
61.2
 21
248.2
 31
0.0
  0
LINE
  5
1A07E
  8
DANMEN
  6
CONTINUOUS
 10
62.25
 20
246.5
 30
0.0
 11
66.5
 21
246.5
 31
0.0
  0
ARC
  5
1A07F
  8
DANMEN
  6
CONTINUOUS
 10
57.7
 20
249.149994
 30
0.0
 40
1.0
 50
270.0
 51
0.0
  0
ARC
  5
1A080
  8
DANMEN
  6
CONTINUOUS
 10
61.2
 20
250.446061
 30
0.0
 40
1.0
 50
114.624318
 51
180.0
  0
ARC
  5
1A081
  8
DANMEN
  6
CONTINUOUS
 10
60.7
 20
251.536932
 30
0.0
 40
0.2
 50
294.624318
 51
0.0
  0
LINE
  5
1A082
  8
DANMEN
  6
CONTINUOUS
 10
58.7
 20
250.530306
 30
0.0
 11
58.7
 21
249.149994
 31
0.0
  0
LINE
  5
1A083
  8
DANMEN
  6
CONTINUOUS
 10
60.2
 20
250.446061
 30
0.0
 11
60.2
 21
249.2
 31
0.0
  0
ARC
  5
1A084
  8
DANMEN
  6
CONTINUOUS
 10
61.2
 20
249.2
 30
0.0
 40
1.0
 50
180.0
 51
270.0
  0
ARC
  5
1A085
  8
DANMEN
  6
CONTINUOUS
 10
66.5
 20
247.0
 30
0.0
 40
0.5
 50
270.000018
 51
0.0
  0
LINE
  5
1A086
  8
DANMEN
  6
CONTINUOUS
 10
65.5
 20
247.3
 30
0.0
 11
67.0
 21
247.3
 31
0.0
  0
ARC
  5
1A087
  8
DANMEN
  6
CONTINUOUS
 10
63.3
 20
251.536932
 30
0.0
 40
0.2
 50
180.0
 51
245.375682
  0
ARC
  5
1A088
  8
DANMEN
  6
CONTINUOUS
 10
62.8
 20
250.446061
 30
0.0
 40
1.0
 50
0.0
 51
65.375682
  0
ARC
  5
1A089
  8
DANMEN
  6
CONTINUOUS
 10
62.8
 20
249.2
 30
0.0
 40
1.0
 50
270.0
 51
0.0
  0
LINE
  5
1A08A
  8
DANMEN
  6
CONTINUOUS
 10
63.8
 20
250.446061
 30
0.0
 11
63.8
 21
249.2
 31
0.0
  0
LINE
  5
1A08B
  8
DANMEN
  6
CONTINUOUS
 10
65.5
 20
250.450012
 30
0.0
 11
65.5
 21
247.3
 31
0.0
  0
LINE
  5
1A08C
  8
DANMEN
  6
CONTINUOUS
 10
67.0
 20
247.3
 30
0.0
 11
67.0
 21
247.0
 31
0.0
  0
LINE
  5
1A08E
  8
DANMEN
  6
CONTINUOUS
 10
60.6
 20
252.1
 30
0.0
 11
59.460621
 21
252.1
 31
0.0
  0
ARC
  5
1A08F
  8
DANMEN
  6
CONTINUOUS
 10
60.6
 20
251.8
 30
0.0
 40
0.3
 50
0.0
 51
90.0
  0
ARC
  5
1A090
  8
DANMEN
  6
CONTINUOUS
 10
63.4
 20
251.800012
 30
0.0
 40
0.3
 50
90.0
 51
180.0
  0
LINE
  5
1A091
  8
DANMEN
  6
CONTINUOUS
 10
108.017555
 20
193.002085
 30
0.0
 11
108.0
 21
223.5
 31
0.0
  0
LINE
  5
1A092
  8
DANMEN
  6
CONTINUOUS
 10
109.517555
 20
192.645361
 30
0.0
 11
109.004224
 21
222.970763
 31
0.0
  0
LINE
  5
1A093
  8
DANMEN
  6
CONTINUOUS
 10
108.31756
 20
192.99168
 30
0.0
 11
108.30001
 21
223.479021
 31
0.0
  0
LINE
  5
1A094
  8
DANMEN
  6
CONTINUOUS
 10
70.799998
 20
219.5
 30
0.0
 11
70.799998
 21
189.0
 31
0.0
  0
LINE
  5
1A095
  8
DANMEN
  6
CONTINUOUS
 10
110.350006
 20
192.926465
 30
0.0
 11
110.350006
 21
223.5
 31
0.0
  0
LINE
  5
1A096
  8
DANMEN
  6
CONTINUOUS
 10
112.0
 20
192.77658
 30
0.0
 11
112.0
 21
223.5
 31
0.0
  0
LINE
  5
1A097
  8
DANMEN
  6
CONTINUOUS
 10
108.0
 20
172.5
 30
0.0
 11
108.0
 21
223.5
 31
0.0
  0
LINE
  5
1A098
  8
DANMEN
  6
CONTINUOUS
 10
83.000015
 20
172.5
 30
0.0
 11
83.000015
 21
223.5
 31
0.0
  0
LINE
  5
1A099
  8
DANMEN
  6
CONTINUOUS
 10
98.949985
 20
172.5
 30
0.0
 11
98.949985
 21
223.5
 31
0.0
  0
LINE
  5
1A09A
  8
DANMEN
  6
CONTINUOUS
 10
80.95
 20
172.5
 30
0.0
 11
80.95
 21
223.5
 31
0.0
  0
LINE
  5
1A09B
  8
DANMEN
  6
CONTINUOUS
 10
101.0
 20
172.5
 30
0.0
 11
101.0
 21
223.5
 31
0.0
  0
LINE
  5
1A09C
  8
DANMEN
  6
CONTINUOUS
 10
92.949986
 20
230.5
 30
0.0
 11
92.949986
 21
172.5
 31
0.0
  0
LINE
  5
1A09D
  8
DANMEN
  6
CONTINUOUS
 10
88.949998
 20
230.5
 30
0.0
 11
88.949998
 21
172.5
 31
0.0
  0
LINE
  5
1A09E
  8
DANMEN
  6
CONTINUOUS
 10
93.449986
 20
230.5
 30
0.0
 11
93.449986
 21
172.5
 31
0.0
  0
LINE
  5
1A09F
  8
DANMEN
  6
CONTINUOUS
 10
88.449998
 20
230.5
 30
0.0
 11
88.449998
 21
172.5
 31
0.0
  0
LINE
  5
1A0A0
  8
DANMEN
  6
DASHED
 10
78.5
 20
223.5
 30
0.0
 11
78.5
 21
172.5
 31
0.0
  0
LINE
  5
1A0A1
  8
DANMEN
  6
CONTINUOUS
 10
75.5
 20
223.5
 30
0.0
 11
75.5
 21
172.5
 31
0.0
  0
LINE
  5
1A0A2
  8
DANMEN
  6
CONTINUOUS
 10
73.0
 20
231.5
 30
0.0
 11
73.0
 21
172.5
 31
0.0
  0
LINE
  5
1A0A3
  8
DANMEN
  6
CONTINUOUS
 10
73.0
 20
231.5
 30
0.0
 11
73.0
 21
167.5
 31
0.0
  0
LINE
  5
1A0A4
  8
DANMEN
  6
CONTINUOUS
 10
111.517555
 20
184.502085
 30
0.0
 11
142.217555
 21
184.502085
 31
0.0
  0
LINE
  5
1A0A5
  8
DANMEN
  6
CONTINUOUS
 10
140.881386
 20
190.153003
 30
0.0
 11
109.517555
 21
193.002085
 31
0.0
  0
LINE
  5
1A0A6
  8
DANMEN
  6
CONTINUOUS
 10
111.517555
 20
133.997915
 30
0.0
 11
142.217555
 21
133.997915
 31
0.0
  0
LINE
  5
1A0A7
  8
DANMEN
  6
CONTINUOUS
 10
140.881386
 20
128.346997
 30
0.0
 11
109.517555
 21
125.497915
 31
0.0
  0
LINE
  5
1A0A9
  8
DANMEN
  6
CONTINUOUS
 10
108.017555
 20
129.997915
 30
0.0
 11
108.017555
 21
125.497915
 31
0.0
  0
LINE
  5
1A0AA
  8
DANMEN
  6
CONTINUOUS
 10
108.317555
 20
129.997915
 30
0.0
 11
108.317555
 21
125.487367
 31
0.0
  0
LINE
  5
1A0AB
  8
DANMEN
  6
CONTINUOUS
 10
109.517555
 20
131.997915
 30
0.0
 11
109.517555
 21
125.497915
 31
0.0
  0
LINE
  5
1A0AF
  8
DANMEN
  6
CONTINUOUS
 10
108.017555
 20
129.997915
 30
0.0
 11
109.517555
 21
129.997915
 31
0.0
  0
ARC
  5
1A0B2
  8
DANMEN
  6
CONTINUOUS
 10
111.517555
 20
131.997915
 30
0.0
 40
2.0
 50
89.999982
 51
180.000019
  0
LINE
  5
1A0B6
  8
DANMEN
  6
CONTINUOUS
 10
109.517555
 20
186.502085
 30
0.0
 11
109.517555
 21
193.002085
 31
0.0
  0
ARC
  5
1A0B8
  8
DANMEN
  6
CONTINUOUS
 10
111.517555
 20
186.502085
 30
0.0
 40
2.0
 50
179.999981
 51
270.000018
  0
LINE
  5
1A0BA
  8
DANMEN
  6
CONTINUOUS
 10
108.017555
 20
188.502085
 30
0.0
 11
108.017555
 21
193.002085
 31
0.0
  0
LINE
  5
1A0BB
  8
DANMEN
  6
CONTINUOUS
 10
108.017555
 20
188.502085
 30
0.0
 11
109.517555
 21
188.502085
 31
0.0
  0
LINE
  5
1A0BE
  8
DANMEN
  6
CONTINUOUS
 10
108.317555
 20
188.502085
 30
0.0
 11
108.317555
 21
193.012633
 31
0.0
  0
LINE
  5
1A0C3
  8
DANMEN
  6
CONTINUOUS
 10
140.0
 20
169.5
 30
0.0
 11
140.0
 21
133.997915
 31
0.0
  0
ARC
  5
1A0C4
  8
DANMEN
  6
CONTINUOUS
 10
140.717555
 20
130.340276
 30
0.0
 40
2.0
 50
274.698681
 51
0.0
  0
LINE
  5
1A0C9
  8
DANMEN
  6
CONTINUOUS
 10
142.717555
 20
133.497915
 30
0.0
 11
142.717555
 21
130.340276
 31
0.0
  0
ARC
  5
1A0CB
  8
DANMEN
  6
CONTINUOUS
 10
142.217555
 20
133.497915
 30
0.0
 40
0.5
 50
0.0
 51
89.999982
  0
LINE
  5
1A0CD
  8
DANMEN
  6
CONTINUOUS
 10
198.000002
 20
155.4
 30
0.0
 11
198.000002
 21
136.8
 31
0.0
  0
ARC
  5
1A0CE
  8
DANMEN
  6
CONTINUOUS
 10
202.000002
 20
147.138813
 30
0.0
 40
1.0
 50
98.530766
 51
180.0
  0
ARC
  5
1A0CF
  8
DANMEN
  6
CONTINUOUS
 10
201.500002
 20
129.5
 30
0.0
 40
0.5
 50
89.999982
 51
180.000019
  0
ARC
  5
1A0D0
  8
DANMEN
  6
CONTINUOUS
 10
199.473511
 20
129.601146
 30
0.0
 40
0.6
 50
23.0
 51
273.528779
  0
LINE
  5
1A0D1
  8
DANMEN
  6
CONTINUOUS
 10
201.000002
 20
129.5
 30
0.0
 11
201.000002
 21
127.861187
 31
0.0
  0
ARC
  5
1A0D4
  8
DANMEN
  6
CONTINUOUS
 10
202.000002
 20
127.861187
 30
0.0
 40
1.0
 50
180.0
 51
261.469234
  0
LINE
  5
1A0DE
  8
DANMEN
  6
CONTINUOUS
 10
201.000002
 20
145.5
 30
0.0
 11
201.000002
 21
147.138813
 31
0.0
  0
ARC
  5
1A0E0
  8
DANMEN
  6
CONTINUOUS
 10
201.500002
 20
145.5
 30
0.0
 40
0.5
 50
179.999964
 51
270.000001
  0
LINE
  5
1A0E1
  8
DANMEN
  6
CONTINUOUS
 10
189.649995
 20
154.850006
 30
0.0
 11
196.350008
 21
154.850006
 31
0.0
  0
LINE
  5
1A0E2
  8
DANMEN
  6
CONTINUOUS
 10
189.649995
 20
154.850006
 30
0.0
 11
189.649995
 21
151.0
 31
0.0
  0
LINE
  5
1A0E3
  8
DANMEN
  6
CONTINUOUS
 10
188.000002
 20
156.0
 30
0.0
 11
188.000002
 21
151.0
 31
0.0
  0
ARC
  5
1A0E4
  8
DANMEN
  6
CONTINUOUS
 10
189.149995
 20
151.0
 30
0.0
 40
0.5
 50
270.000018
 51
359.999981
  0
ARC
  5
1A0E7
  8
DANMEN
  6
CONTINUOUS
 10
188.500002
 20
151.0
 30
0.0
 40
0.5
 50
180.000036
 51
269.999963
  0
LINE
  5
1A0E8
  8
DANMEN
  6
CONTINUOUS
 10
188.500002
 20
150.5
 30
0.0
 11
189.149995
 21
150.5
 31
0.0
  0
ARC
  5
1A0EA
  8
DANMEN
  6
CONTINUOUS
 10
188.500002
 20
156.0
 30
0.0
 40
0.5
 50
89.999982
 51
180.000019
  0
LINE
  5
1A0EF
  8
DANMEN
  6
CONTINUOUS
 10
200.000002
 20
155.4
 30
0.0
 11
200.000002
 21
154.850006
 31
0.0
  0
LINE
  5
1A0F0
  8
DANMEN
  6
CONTINUOUS
 10
198.000002
 20
155.4
 30
0.0
 11
200.000002
 21
155.4
 31
0.0
  0
LINE
  5
1A0F3
  8
DANMEN
  6
CONTINUOUS
 10
140.0
 20
172.5
 30
0.0
 11
140.0
 21
184.502085
 31
0.0
  0
LINE
  5
1A0F4
  8
DANMEN
  6
CONTINUOUS
 10
142.717555
 20
185.002085
 30
0.0
 11
142.717555
 21
188.159724
 31
0.0
  0
ARC
  5
1A0F6
  8
DANMEN
  6
CONTINUOUS
 10
142.217555
 20
185.002085
 30
0.0
 40
0.5
 50
270.000018
 51
360.0
  0
ARC
  5
1A0FB
  8
DANMEN
  6
CONTINUOUS
 10
140.717555
 20
188.159724
 30
0.0
 40
2.0
 50
0.0
 51
85.301319
  0
LINE
  5
1A0FD
  8
DANMEN
  6
CONTINUOUS
 10
96.3
 20
248.15
 30
0.0
 11
110.350006
 21
248.15
 31
0.0
  0
LINE
  5
1A0FE
  8
DANMEN
  6
CONTINUOUS
 10
99.0
 20
223.5
 30
0.0
 11
111.5
 21
223.5
 31
0.0
  0
LINE
  5
1A0FF
  8
DANMEN
  6
CONTINUOUS
 10
99.5
 20
225.15
 30
0.0
 11
110.350006
 21
225.15
 31
0.0
  0
LINE
  5
1A100
  8
DANMEN
  6
CONTINUOUS
 10
82.65
 20
246.5
 30
0.0
 11
110.350006
 21
246.5
 31
0.0
  0
LINE
  5
1A101
  8
DANMEN
  6
CONTINUOUS
 10
81.0
 20
246.5
 30
0.0
 11
81.0
 21
231.5
 31
0.0
  0
LINE
  5
1A102
  8
DANMEN
  6
CONTINUOUS
 10
82.65
 20
246.5
 30
0.0
 11
82.65
 21
226.5
 31
0.0
  0
LINE
  5
1A103
  8
DANMEN
  6
DASHED
 10
85.0
 20
223.5
 30
0.0
 11
97.0
 21
223.5
 31
0.0
  0
LINE
  5
1A104
  8
DANMEN
  6
DASHED
 10
81.5
 20
222.300003
 30
0.0
 11
100.5
 21
222.300003
 31
0.0
  0
ARC
  5
1A105
  8
DANMEN
  6
CONTINUOUS
 10
86.949991
 20
219.750092
 30
0.0
 40
1.5
 50
0.0
 51
89.999982
  0
LINE
  5
1A106
  8
DANMEN
  6
CONTINUOUS
 10
75.2
 20
231.2
 30
0.0
 11
75.2
 21
224.1
 31
0.0
  0
LINE
  5
1A107
  8
DANMEN
  6
CONTINUOUS
 10
77.2
 20
228.5
 30
0.0
 11
77.2
 21
226.8
 31
0.0
  0
LINE
  5
1A108
  8
DANMEN
  6
CONTINUOUS
 10
74.146178
 20
231.684441
 30
0.0
 11
73.0187
 21
228.19015
 31
0.0
  0
LINE
  5
1A109
  8
DANMEN
  6
CONTINUOUS
 10
74.582434
 20
231.2
 30
0.0
 11
73.6
 21
228.017126
 31
0.0
  0
LINE
  5
1A10A
  8
DANMEN
  6
DASHED
 10
83.023824
 20
227.117136
 30
0.0
 11
84.423825
 21
230.417167
 31
0.0
  0
LINE
  5
1A10B
  8
DANMEN
  6
DASHED
 10
84.5
 20
228.100003
 30
0.0
 11
84.992312
 21
230.23252
 31
0.0
  0
LINE
  5
1A10C
  8
DANMEN
  6
CONTINUOUS
 10
81.000003
 20
224.5
 30
0.0
 11
81.000003
 21
230.7
 31
0.0
  0
LINE
  5
1A10D
  8
DANMEN
  6
CONTINUOUS
 10
72.999998
 20
220.0
 30
0.0
 11
72.999998
 21
231.0
 31
0.0
  0
LINE
  5
1A10E
  8
DANMEN
  6
CONTINUOUS
 10
71.049998
 20
221.45
 30
0.0
 11
71.049998
 21
231.0
 31
0.0
  0
LINE
  5
1A10F
  8
DANMEN
  6
CONTINUOUS
 10
76.800003
 20
224.5
 30
0.0
 11
81.0
 21
224.5
 31
0.0
  0
LINE
  5
1A110
  8
DANMEN
  6
CONTINUOUS
 10
83.0
 20
223.5
 30
0.0
 11
76.5
 21
223.5
 31
0.0
  0
LINE
  5
1A111
  8
DANMEN
  6
CONTINUOUS
 10
73.0
 20
223.5
 30
0.0
 11
81.0
 21
223.5
 31
0.0
  0
LINE
  5
1A112
  8
DANMEN
  6
CONTINUOUS
 10
72.499998
 20
219.5
 30
0.0
 11
70.799998
 21
219.5
 31
0.0
  0
ARC
  5
1A113
  8
DANMEN
  6
CONTINUOUS
 10
72.499998
 20
220.0
 30
0.0
 40
0.5
 50
270.0
 51
0.0
  0
LINE
  5
1A117
  8
DANMEN
  6
CONTINUOUS
 10
74.327478
 20
223.5
 30
0.0
 11
76.0
 21
223.5
 31
0.0
  0
LINE
  5
1A118
  8
DANMEN
  6
CONTINUOUS
 10
74.582434
 20
224.1
 30
0.0
 11
75.2
 21
224.1
 31
0.0
  0
LINE
  5
1A11A
  8
DANMEN
  6
CONTINUOUS
 10
73.0
 20
228.105709
 30
0.0
 11
73.0
 21
227.194291
 31
0.0
  0
LINE
  5
1A11B
  8
DANMEN
  6
CONTINUOUS
 10
73.0187
 20
227.10985
 30
0.0
 11
74.146178
 21
223.615559
 31
0.0
  0
ARC
  5
1A11C
  8
DANMEN
  6
CONTINUOUS
 10
74.327478
 20
223.7
 30
0.0
 40
0.2
 50
204.97391
 51
270.0
  0
ARC
  5
1A11E
  8
DANMEN
  6
CONTINUOUS
 10
73.2
 20
228.105709
 30
0.0
 40
0.2
 50
155.02609
 51
180.0
  0
ARC
  5
1A120
  8
DANMEN
  6
CONTINUOUS
 10
73.2
 20
227.194291
 30
0.0
 40
0.2
 50
180.0
 51
204.97391
  0
LINE
  5
1A122
  8
DANMEN
  6
CONTINUOUS
 10
73.6
 20
228.017126
 30
0.0
 11
73.6
 21
227.282873
 31
0.0
  0
LINE
  5
1A123
  8
DANMEN
  6
CONTINUOUS
 10
73.6
 20
227.282873
 30
0.0
 11
74.582434
 21
224.1
 31
0.0
  0
LINE
  5
1A128
  8
DANMEN
  6
CONTINUOUS
 10
77.2
 20
224.8
 30
0.0
 11
77.8
 21
224.8
 31
0.0
  0
LINE
  5
1A129
  8
DANMEN
  6
CONTINUOUS
 10
76.0
 20
226.0
 30
0.0
 11
76.0
 21
223.5
 31
0.0
  0
ARC
  5
1A12B
  8
DANMEN
  6
CONTINUOUS
 10
77.8
 20
225.0
 30
0.0
 40
0.2
 50
270.000018
 51
0.0
  0
ARC
  5
1A12D
  8
DANMEN
  6
CONTINUOUS
 10
77.2
 20
225.0
 30
0.0
 40
0.2
 50
180.000019
 51
270.000001
  0
LINE
  5
1A12F
  8
DANMEN
  6
CONTINUOUS
 10
78.0
 20
226.0
 30
0.0
 11
78.0
 21
225.0
 31
0.0
  0
LINE
  5
1A131
  8
DANMEN
  6
CONTINUOUS
 10
77.2
 20
226.8
 30
0.0
 11
78.0
 21
226.0
 31
0.0
  0
LINE
  5
1A132
  8
DANMEN
  6
CONTINUOUS
 10
77.0
 20
226.0
 30
0.0
 11
77.0
 21
225.0
 31
0.0
  0
LINE
  5
1A133
  8
DANMEN
  6
CONTINUOUS
 10
76.0
 20
226.0
 30
0.0
 11
77.0
 21
226.0
 31
0.0
  0
LINE
  5
1A13D
  8
DANMEN
  6
CONTINUOUS
 10
76.0
 20
224.0
 30
0.0
 11
76.0
 21
225.199997
 31
0.0
  0
LINE
  5
1A13E
  8
DANMEN
  6
CONTINUOUS
 10
76.5
 20
225.699997
 30
0.0
 11
76.800003
 21
225.699997
 31
0.0
  0
LINE
  5
1A13F
  8
DANMEN
  6
CONTINUOUS
 10
76.800003
 20
224.5
 30
0.0
 11
76.800003
 21
225.699997
 31
0.0
  0
ARC
  5
1A140
  8
DANMEN
  6
CONTINUOUS
 10
76.5
 20
225.199997
 30
0.0
 40
0.5
 50
89.999999
 51
179.999981
  0
ARC
  5
1A141
  8
DANMEN
  6
CONTINUOUS
 10
76.5
 20
224.0
 30
0.0
 40
0.5
 50
179.999981
 51
270.000018
  0
ARC
  5
1A142
  8
DANMEN
  6
DASHED
 10
81.5
 20
222.800003
 30
0.0
 40
0.5
 50
180.0
 51
269.999982
  0
ARC
  5
1A143
  8
DANMEN
  6
CONTINUOUS
 10
84.449985
 20
222.750092
 30
0.0
 40
1.5
 50
179.999964
 51
270.000001
  0
LINE
  5
1A145
  8
DANMEN
  6
CONTINUOUS
 10
84.449985
 20
221.250092
 30
0.0
 11
86.949991
 21
221.250092
 31
0.0
  0
LINE
  5
1A146
  8
DANMEN
  6
DASHED
 10
83.5
 20
223.5
 30
0.0
 11
81.0
 21
223.5
 31
0.0
  0
ARC
  5
1A147
  8
DANMEN
  6
DASHED
 10
83.299999
 20
226.999972
 30
0.0
 40
0.3
 50
157.011468
 51
235.656024
  0
ARC
  5
1A148
  8
DANMEN
  6
CONTINUOUS
 10
83.0
 20
224.0
 30
0.0
 40
0.5
 50
270.0
 51
0.0
  0
LINE
  5
1A149
  8
DANMEN
  6
CONTINUOUS
 10
82.65
 20
226.5
 30
0.0
 11
83.5
 21
226.5
 31
0.0
  0
LINE
  5
1A14C
  8
DANMEN
  6
DASHED
 10
81.0
 20
223.5
 30
0.0
 11
81.0
 21
222.800003
 31
0.0
  0
LINE
  5
1A14E
  8
DANMEN
  6
DASHED
 10
83.499991
 20
226.499972
 30
0.0
 11
83.130743
 21
226.752271
 31
0.0
  0
LINE
  5
1A14F
  8
DANMEN
  6
DASHED
 10
83.5
 20
223.5
 30
0.0
 11
83.5
 21
226.499972
 31
0.0
  0
LINE
  5
1A150
  8
DANMEN
  6
DASHED
 10
84.5
 20
228.100003
 30
0.0
 11
84.5
 21
224.0
 31
0.0
  0
ARC
  5
1A151
  8
DANMEN
  6
DASHED
 10
85.0
 20
224.0
 30
0.0
 40
0.5
 50
180.0
 51
270.0
  0
LINE
  5
1A156
  8
DANMEN
  6
CONTINUOUS
 10
83.5
 20
226.5
 30
0.0
 11
83.5
 21
224.0
 31
0.0
  0
LINE
  5
1A157
  8
DANMEN
  6
CONTINUOUS
 10
76.5
 20
231.5
 30
0.0
 11
81.0
 21
231.5
 31
0.0
  0
LINE
  5
1A158
  8
DANMEN
  6
CONTINUOUS
 10
76.800003
 20
230.7
 30
0.0
 11
81.0
 21
230.7
 31
0.0
  0
LINE
  5
1A159
  8
DANMEN
  6
CONTINUOUS
 10
74.327478
 20
231.8
 30
0.0
 11
76.0
 21
231.8
 31
0.0
  0
LINE
  5
1A15A
  8
DANMEN
  6
CONTINUOUS
 10
74.582434
 20
231.2
 30
0.0
 11
75.2
 21
231.2
 31
0.0
  0
ARC
  5
1A15B
  8
DANMEN
  6
CONTINUOUS
 10
74.327478
 20
231.6
 30
0.0
 40
0.2
 50
90.0
 51
155.02609
  0
LINE
  5
1A15E
  8
DANMEN
  6
CONTINUOUS
 10
72.499998
 20
231.5
 30
0.0
 11
71.549998
 21
231.5
 31
0.0
  0
ARC
  5
1A15F
  8
DANMEN
  6
CONTINUOUS
 10
72.499998
 20
231.0
 30
0.0
 40
0.5
 50
0.0
 51
90.0
  0
ARC
  5
1A161
  8
DANMEN
  6
CONTINUOUS
 10
71.549998
 20
231.0
 30
0.0
 40
0.5
 50
90.0
 51
180.0
  0
LINE
  5
1A163
  8
DANMEN
  6
CONTINUOUS
 10
78.0
 20
230.3
 30
0.0
 11
78.0
 21
229.3
 31
0.0
  0
LINE
  5
1A164
  8
DANMEN
  6
CONTINUOUS
 10
77.2
 20
230.5
 30
0.0
 11
77.8
 21
230.5
 31
0.0
  0
LINE
  5
1A165
  8
DANMEN
  6
CONTINUOUS
 10
77.0
 20
230.3
 30
0.0
 11
77.0
 21
229.3
 31
0.0
  0
ARC
  5
1A167
  8
DANMEN
  6
CONTINUOUS
 10
77.8
 20
230.3
 30
0.0
 40
0.2
 50
0.0
 51
89.999982
  0
ARC
  5
1A169
  8
DANMEN
  6
CONTINUOUS
 10
77.2
 20
230.3
 30
0.0
 40
0.2
 50
89.999982
 51
180.000019
  0
LINE
  5
1A16B
  8
DANMEN
  6
CONTINUOUS
 10
78.0
 20
229.3
 30
0.0
 11
77.2
 21
228.5
 31
0.0
  0
LINE
  5
1A16C
  8
DANMEN
  6
CONTINUOUS
 10
76.0
 20
229.3
 30
0.0
 11
77.0
 21
229.3
 31
0.0
  0
LINE
  5
1A16E
  8
DANMEN
  6
CONTINUOUS
 10
76.0
 20
231.8
 30
0.0
 11
76.0
 21
229.3
 31
0.0
  0
LINE
  5
1A174
  8
DANMEN
  6
CONTINUOUS
 10
76.0
 20
229.800003
 30
0.0
 11
76.0
 21
231.0
 31
0.0
  0
LINE
  5
1A175
  8
DANMEN
  6
CONTINUOUS
 10
76.800003
 20
229.300003
 30
0.0
 11
76.800003
 21
230.7
 31
0.0
  0
ARC
  5
1A176
  8
DANMEN
  6
CONTINUOUS
 10
76.5
 20
231.0
 30
0.0
 40
0.5
 50
89.999999
 51
179.999981
  0
ARC
  5
1A177
  8
DANMEN
  6
CONTINUOUS
 10
76.5
 20
229.800003
 30
0.0
 40
0.5
 50
179.999981
 51
270.000018
  0
LINE
  5
1A178
  8
DANMEN
  6
CONTINUOUS
 10
76.5
 20
229.300003
 30
0.0
 11
76.800003
 21
229.300003
 31
0.0
  0
ARC
  5
1A17C
  8
DANMEN
  6
DASHED
 10
84.7
 20
230.300003
 30
0.0
 40
0.3
 50
347.000479
 51
157.011468
  0
LINE
  5
1A17D
  8
DANMEN
  6
DASHED
 10
97.5
 20
228.100003
 30
0.0
 11
97.007688
 21
230.23252
 31
0.0
  0
LINE
  5
1A17E
  8
DANMEN
  6
DASHED
 10
98.976176
 20
227.117136
 30
0.0
 11
97.576175
 21
230.417167
 31
0.0
  0
LINE
  5
1A17F
  8
DANMEN
  6
CONTINUOUS
 10
94.949994
 20
221.250092
 30
0.0
 11
97.449985
 21
221.250092
 31
0.0
  0
ARC
  5
1A180
  8
DANMEN
  6
CONTINUOUS
 10
94.949994
 20
219.750092
 30
0.0
 40
1.5
 50
89.999982
 51
179.999964
  0
ARC
  5
1A183
  8
DANMEN
  6
DASHED
 10
100.5
 20
222.800003
 30
0.0
 40
0.5
 50
270.000018
 51
0.0
  0
ARC
  5
1A184
  8
DANMEN
  6
CONTINUOUS
 10
97.449985
 20
222.750092
 30
0.0
 40
1.5
 50
270.000018
 51
0.0
  0
LINE
  5
1A186
  8
DANMEN
  6
DASHED
 10
98.5
 20
223.5
 30
0.0
 11
101.0
 21
223.5
 31
0.0
  0
LINE
  5
1A187
  8
DANMEN
  6
DASHED
 10
98.5
 20
223.5
 30
0.0
 11
101.0
 21
223.5
 31
0.0
  0
LINE
  5
1A188
  8
DANMEN
  6
CONTINUOUS
 10
99.206061
 20
226.142044
 30
0.0
 11
99.5
 21
225.15
 31
0.0
  0
ARC
  5
1A18B
  8
DANMEN
  6
DASHED
 10
97.0
 20
224.0
 30
0.0
 40
0.5
 50
270.0
 51
0.0
  0
LINE
  5
1A18C
  8
DANMEN
  6
DASHED
 10
97.5
 20
228.100003
 30
0.0
 11
97.5
 21
224.0
 31
0.0
  0
LINE
  5
1A18D
  8
DANMEN
  6
DASHED
 10
98.5
 20
223.5
 30
0.0
 11
98.5
 21
226.499972
 31
0.0
  0
LINE
  5
1A18E
  8
DANMEN
  6
DASHED
 10
98.500009
 20
226.499972
 30
0.0
 11
98.869257
 21
226.752271
 31
0.0
  0
ARC
  5
1A18F
  8
DANMEN
  6
DASHED
 10
98.700001
 20
226.999972
 30
0.0
 40
0.3
 50
304.343976
 51
22.988532
  0
ARC
  5
1A194
  8
DANMEN
  6
CONTINUOUS
 10
98.726662
 20
226.0
 30
0.0
 40
0.5
 50
16.504361
 51
90.0
  0
LINE
  5
1A195
  8
DANMEN
  6
CONTINUOUS
 10
98.726662
 20
226.5
 30
0.0
 11
98.5
 21
226.5
 31
0.0
  0
LINE
  5
1A196
  8
DANMEN
  6
CONTINUOUS
 10
98.5
 20
226.5
 30
0.0
 11
98.5
 21
224.0
 31
0.0
  0
ARC
  5
1A197
  8
DANMEN
  6
CONTINUOUS
 10
99.0
 20
224.0
 30
0.0
 40
0.5
 50
180.0
 51
270.0
  0
LINE
  5
1A199
  8
DANMEN
  6
DASHED
 10
101.0
 20
223.5
 30
0.0
 11
101.0
 21
222.800003
 31
0.0
  0
LINE
  5
1A19A
  8
DANMEN
  6
CONTINUOUS
 10
88.449998
 20
230.5
 30
0.0
 11
93.449986
 21
230.5
 31
0.0
  0
ARC
  5
1A19D
  8
DANMEN
  6
DASHED
 10
97.3
 20
230.300003
 30
0.0
 40
0.3
 50
22.988532
 51
192.999521
  0
LINE
  5
1A19F
  8
DANMEN
  6
CONTINUOUS
 10
79.65
 20
248.15
 30
0.0
 11
87.7
 21
248.15
 31
0.0
  0
ARC
  5
1A1A0
  8
DANMEN
  6
CONTINUOUS
 10
78.65
 20
251.100012
 30
0.0
 40
1.0
 50
0.0
 51
90.0
  0
LINE
  5
1A1A1
  8
DANMEN
  6
CONTINUOUS
 10
77.0
 20
246.5
 30
0.0
 11
81.0
 21
246.5
 31
0.0
  0
ARC
  5
1A1A4
  8
DANMEN
  6
CONTINUOUS
 10
77.0
 20
247.0
 30
0.0
 40
0.5
 50
180.000019
 51
270.000001
  0
LINE
  5
1A1A5
  8
DANMEN
  6
CONTINUOUS
 10
76.5
 20
247.3
 30
0.0
 11
76.5
 21
247.0
 31
0.0
  0
LINE
  5
1A1A6
  8
DANMEN
  6
CONTINUOUS
 10
76.5
 20
247.3
 30
0.0
 11
78.0
 21
247.3
 31
0.0
  0
LINE
  5
1A1A7
  8
DANMEN
  6
CONTINUOUS
 10
78.0
 20
250.450012
 30
0.0
 11
78.0
 21
247.3
 31
0.0
  0
LINE
  5
1A1A9
  8
DANMEN
  6
CONTINUOUS
 10
79.65
 20
251.100012
 30
0.0
 11
79.65
 21
248.15
 31
0.0
  0
ARC
  5
1A1AA
  8
DANMEN
  6
CONTINUOUS
 10
90.7
 20
250.530306
 30
0.0
 40
2.0
 50
128.293195
 51
180.0
  0
LINE
  5
1A1AB
  8
DANMEN
  6
CONTINUOUS
 10
90.9
 20
251.536932
 30
0.0
 11
90.9
 21
251.8
 31
0.0
  0
ARC
  5
1A1AC
  8
DANMEN
  6
CONTINUOUS
 10
93.3
 20
250.530306
 30
0.0
 40
2.0
 50
0.0
 51
51.706523
  0
LINE
  5
1A1AD
  8
DANMEN
  6
CONTINUOUS
 10
93.1
 20
251.536932
 30
0.0
 11
93.1
 21
251.8
 31
0.0
  0
ARC
  5
1A1AE
  8
DANMEN
  6
CONTINUOUS
 10
96.3
 20
249.15
 30
0.0
 40
1.0
 50
180.0
 51
270.0
  0
LINE
  5
1A1AF
  8
DANMEN
  6
CONTINUOUS
 10
92.8
 20
248.2
 30
0.0
 11
91.2
 21
248.2
 31
0.0
  0
ARC
  5
1A1B0
  8
DANMEN
  6
CONTINUOUS
 10
87.7
 20
249.15
 30
0.0
 40
1.0
 50
270.0
 51
0.0
  0
LINE
  5
1A1B1
  8
DANMEN
  6
CONTINUOUS
 10
88.7
 20
250.530306
 30
0.0
 11
88.7
 21
249.15
 31
0.0
  0
ARC
  5
1A1B2
  8
DANMEN
  6
CONTINUOUS
 10
91.2
 20
250.446061
 30
0.0
 40
1.0
 50
114.624318
 51
180.0
  0
ARC
  5
1A1B3
  8
DANMEN
  6
CONTINUOUS
 10
90.7
 20
251.536932
 30
0.0
 40
0.2
 50
294.624318
 51
0.0
  0
LINE
  5
1A1B4
  8
DANMEN
  6
CONTINUOUS
 10
90.2
 20
250.446061
 30
0.0
 11
90.2
 21
249.2
 31
0.0
  0
ARC
  5
1A1B5
  8
DANMEN
  6
CONTINUOUS
 10
91.2
 20
249.2
 30
0.0
 40
1.0
 50
180.0
 51
270.0
  0
ARC
  5
1A1B6
  8
DANMEN
  6
CONTINUOUS
 10
93.3
 20
251.536932
 30
0.0
 40
0.2
 50
180.0
 51
245.375682
  0
ARC
  5
1A1B7
  8
DANMEN
  6
CONTINUOUS
 10
92.8
 20
250.446061
 30
0.0
 40
1.0
 50
0.0
 51
65.375682
  0
ARC
  5
1A1B8
  8
DANMEN
  6
CONTINUOUS
 10
92.8
 20
249.2
 30
0.0
 40
1.0
 50
270.0
 51
0.0
  0
LINE
  5
1A1B9
  8
DANMEN
  6
CONTINUOUS
 10
95.3
 20
250.530306
 30
0.0
 11
95.3
 21
249.15
 31
0.0
  0
LINE
  5
1A1BA
  8
DANMEN
  6
CONTINUOUS
 10
93.8
 20
250.446061
 30
0.0
 11
93.8
 21
249.2
 31
0.0
  0
ARC
  5
1A1BB
  8
DANMEN
  6
CONTINUOUS
 10
90.6
 20
251.8
 30
0.0
 40
0.3
 50
0.0
 51
90.0
  0
LINE
  5
1A1BC
  8
DANMEN
  6
CONTINUOUS
 10
90.6
 20
252.100006
 30
0.0
 11
89.460628
 21
252.100006
 31
0.0
  0
LINE
  5
1A1BD
  8
DANMEN
  6
CONTINUOUS
 10
94.539379
 20
252.1
 30
0.0
 11
93.4
 21
252.1
 31
0.0
  0
ARC
  5
1A1BE
  8
DANMEN
  6
CONTINUOUS
 10
93.4
 20
251.8
 30
0.0
 40
0.3
 50
90.0
 51
180.0
  0
LINE
  5
1A1BF
  8
DANMEN
  6
CONTINUOUS
 10
110.350006
 20
246.5
 30
0.0
 11
110.350006
 21
225.15
 31
0.0
  0
LINE
  5
1A1C0
  8
DANMEN
  6
CONTINUOUS
 10
112.0
 20
258.0
 30
0.0
 11
112.0
 21
224.0
 31
0.0
  0
ARC
  5
1A1C1
  8
DANMEN
  6
CONTINUOUS
 10
111.5
 20
224.0
 30
0.0
 40
0.5
 50
270.000018
 51
0.0
  0
LINE
  5
1A1C4
  8
DANMEN
  6
CONTINUOUS
 10
108.0
 20
223.5
 30
0.0
 11
108.539155
 21
223.462299
 31
0.0
  0
ARC
  5
1A1C5
  8
DANMEN
  6
CONTINUOUS
 10
108.504277
 20
222.963517
 30
0.0
 40
0.5
 50
0.83042
 51
86.0
  0
LINE
  5
1A1C8
  8
DANMEN
  6
CONTINUOUS
 10
110.350006
 20
256.850006
 30
0.0
 11
110.350006
 21
248.15
 31
0.0
  0
ARC
  5
1A1C9
  8
DANMEN
  6
CONTINUOUS
 10
111.5
 20
258.0
 30
0.0
 40
0.5
 50
0.0
 51
89.999982
  0
LINE
  5
1A1CA
  8
DANMEN
  6
CONTINUOUS
 10
106.0
 20
258.0
 30
0.0
 11
106.0
 21
257.350006
 31
0.0
  0
LINE
  5
1A1CB
  8
DANMEN
  6
CONTINUOUS
 10
106.5
 20
256.850006
 30
0.0
 11
110.350006
 21
256.850006
 31
0.0
  0
ARC
  5
1A1CC
  8
DANMEN
  6
CONTINUOUS
 10
106.5
 20
257.350006
 30
0.0
 40
0.5
 50
180.000019
 51
270.000001
  0
LINE
  5
1A1CD
  8
DANMEN
  6
CONTINUOUS
 10
106.5
 20
258.5
 30
0.0
 11
111.5
 21
258.5
 31
0.0
  0
ARC
  5
1A1CE
  8
DANMEN
  6
CONTINUOUS
 10
106.5
 20
258.0
 30
0.0
 40
0.5
 50
89.999982
 51
180.000019
  0
TEXT
  5
1A1D0
  8
SUNPO
  6
CONTINUOUS
 10
349.577611
 20
120.82
 30
0.0
 40
2.5
  1
2.5
 50
90.0
  7
MX_NOTE_STANDARD
  0
LINE
  5
1A1D1
  8
DANMEN
  6
CONTINUOUS
 10
389.649994
 20
154.850006
 30
0.0
 11
389.649994
 21
88.149994
 31
0.0
  0
LINE
  5
1A1D2
  8
DANMEN
  6
CONTINUOUS
 10
388.0
 20
155.400003
 30
0.0
 11
388.0
 21
117.5
 31
0.0
  0
LINE
  5
1A1D3
  8
DANMEN
  6
CONTINUOUS
 10
277.845226
 20
125.3
 30
0.0
 11
275.58967
 21
121.8
 31
0.0
  0
LINE
  5
1A1D4
  8
DANMEN
  6
CONTINUOUS
 10
277.004655
 20
125.841701
 30
0.0
 11
274.400002
 21
121.8
 31
0.0
  0
LINE
  5
1A1D5
  8
DANMEN
  6
CONTINUOUS
 10
278.800003
 20
125.3
 30
0.0
 11
278.800003
 21
121.8
 31
0.0
  0
LINE
  5
1A1D6
  8
DANMEN
  6
CONTINUOUS
 10
279.800003
 20
125.7
 30
0.0
 11
279.800003
 21
121.0
 31
0.0
  0
LINE
  5
1A1D7
  8
DANMEN
  6
CONTINUOUS
 10
303.000003
 20
125.5
 30
0.0
 11
303.000003
 21
121.0
 31
0.0
  0
LINE
  5
1A1D8
  8
DANMEN
  6
CONTINUOUS
 10
301.500003
 20
125.5
 30
0.0
 11
301.500003
 21
121.5
 31
0.0
  0
LINE
  5
1A1D9
  8
DANMEN
  6
CONTINUOUS
 10
311.800003
 20
125.5
 30
0.0
 11
311.800003
 21
121.1
 31
0.0
  0
LINE
  5
1A1DA
  8
DANMEN
  6
CONTINUOUS
 10
313.000003
 20
148.5
 30
0.0
 11
313.000003
 21
121.1
 31
0.0
  0
LINE
  5
1A1DB
  8
SUNPO
  6
CONTINUOUS
 10
330.0
 20
117.5
 30
0.0
 11
330.0
 21
125.5
 31
0.0
  0
LINE
  5
1A1DC
  8
SUNPO
  6
CONTINUOUS
 10
254.5
 20
86.5
 30
0.0
 11
254.5
 21
156.5
 31
0.0
  0
LINE
  5
1A1DD
  8
SUNPO
  6
CONTINUOUS
 10
350.577611
 20
117.5
 30
0.0
 11
350.577611
 21
126.82
 31
0.0
  0
LINE
  5
1A1DE
  8
SUNPO
  6
CONTINUOUS
 10
153.0
 20
99.5
 30
0.0
 11
153.0
 21
153.5
 31
0.0
  0
LINE
  5
1A1DF
  8
SUNPO
  6
CONTINUOUS
 10
22.0
 20
59.5
 30
0.0
 11
22.0
 21
153.5
 31
0.0
  0
ARC
  5
1A1E0
  8
DANMEN
  6
CONTINUOUS
 10
210.064266
 20
123.815568
 30
0.0
 40
0.2
 50
47.258366
 51
157.974191
  0
LINE
  5
1A1E1
  8
DANMEN
  6
CONTINUOUS
 10
207.33567
 20
124.919423
 30
0.0
 11
205.479407
 21
123.263337
 31
0.0
  0
LINE
  5
1A1E2
  8
DANMEN
  6
CONTINUOUS
 10
206.578997
 20
124.914414
 30
0.0
 11
205.146544
 21
123.636435
 31
0.0
  0
LINE
  5
1A1E3
  8
DANMEN
  6
CONTINUOUS
 10
209.878863
 20
123.890573
 30
0.0
 11
207.33567
 21
124.919423
 31
0.0
  0
LINE
  5
1A1E4
  8
DANMEN
  6
CONTINUOUS
 10
211.000005
 20
124.244506
 30
0.0
 11
211.000005
 21
122.5
 31
0.0
  0
LINE
  5
1A1E5
  8
SUNPO
  6
CONTINUOUS
 10
163.0
 20
151.999252
 30
0.0
 11
163.0
 21
99.5
 31
0.0
  0
TEXT
  5
1A1E6
  8
SUNPO
  6
CONTINUOUS
 10
329.0
 20
120.666667
 30
0.0
 40
2.5
  1
8
 50
90.0
  7
MX_NOTE_STANDARD
  0
TEXT
  5
1A1E7
  8
SUNPO
  6
CONTINUOUS
 10
329.0
 20
100.790689
 30
0.0
 40
2.5
  1
31
 50
90.0
  7
MX_NOTE_STANDARD
  0
TEXT
  5
1A1E8
  8
SUNPO
  6
CONTINUOUS
 10
329.0
 20
70.416667
 30
0.0
 40
2.5
  1
28
 50
90.0
  7
MX_NOTE_STANDARD
  0
LINE
  5
1A1E9
  8
SUNPO
  6
CONTINUOUS
 10
313.500004
 20
58.5
 30
0.0
 11
370.704887
 21
58.5
 31
0.0
  0
LINE
  5
1A1EA
  8
SUNPO
  6
CONTINUOUS
 10
313.0
 20
32.0
 30
0.0
 11
373.0
 21
32.0
 31
0.0
  0
LINE
  5
1A1EB
  8
SUNPO
  6
CONTINUOUS
 10
308.684322
 20
20.0
 30
0.0
 11
373.0
 21
20.0
 31
0.0
  0
LINE
  5
1A1EC
  8
SUNPO
  6
CONTINUOUS
 10
57.0
 20
30.5
 30
0.0
 11
163.0
 21
30.5
 31
0.0
  0
TEXT
  5
1A1ED
  8
WAKU
 10
35.0
 20
284.5
 30
0.0
 40
5.0
  1
外動片引き断面詳細図(Dﾀｲプ)　防火戸　非防火戸
 11
35.0
 21
287.0
 31
0.0
 73
     2
  0
LINE
  5
1A1EE
  8
DANMEN
  6
CONTINUOUS
 10
336.5
 20
88.15
 30
0.0
 11
313.0
 21
88.15
 31
0.0
  0
LINE
  5
1A1EF
  8
DANMEN
  6
CONTINUOUS
 10
336.5
 20
97.5
 30
0.0
 11
313.0
 21
97.5
 31
0.0
  0
LINE
  5
1A1F0
  8
DANMEN
  6
CONTINUOUS
 10
336.5
 20
99.5
 30
0.0
 11
313.0
 21
99.5
 31
0.0
  0
LINE
  5
1A1F1
  8
DANMEN
  6
CONTINUOUS
 10
336.5
 20
115.5
 30
0.0
 11
313.0
 21
115.5
 31
0.0
  0
LINE
  5
1A1F2
  8
DANMEN
  6
CONTINUOUS
 10
336.5
 20
117.5
 30
0.0
 11
313.0
 21
117.5
 31
0.0
  0
LINE
  5
1A1F3
  8
DANMEN
  6
CONTINUOUS
 10
336.5
 20
105.000014
 30
0.0
 11
306.0
 21
105.000014
 31
0.0
  0
LINE
  5
1A1F4
  8
DANMEN
  6
CONTINUOUS
 10
336.5
 20
105.500014
 30
0.0
 11
306.0
 21
105.500014
 31
0.0
  0
LINE
  5
1A1F5
  8
DANMEN
  6
CONTINUOUS
 10
336.5
 20
110.000002
 30
0.0
 11
306.0
 21
110.000002
 31
0.0
  0
LINE
  5
1A1F6
  8
DANMEN
  6
CONTINUOUS
 10
336.5
 20
109.500002
 30
0.0
 11
306.0
 21
109.500002
 31
0.0
  0
LINE
  5
1A1F7
  8
DANMEN
  6
CONTINUOUS
 10
336.5
 20
122.5
 30
0.0
 11
313.0
 21
122.5
 31
0.0
  0
LINE
  5
1A1F8
  8
DANMEN
  6
CONTINUOUS
 10
336.5
 20
86.5
 30
0.0
 11
313.0
 21
86.5
 31
0.0
  0
LINE
  5
1A1F9
  8
DANMEN
  6
CONTINUOUS
 10
263.5
 20
88.15
 30
0.0
 11
273.0
 21
88.15
 31
0.0
  0
LINE
  5
1A1FA
  8
DANMEN
  6
CONTINUOUS
 10
263.5
 20
97.5
 30
0.0
 11
273.0
 21
97.5
 31
0.0
  0
LINE
  5
1A1FB
  8
DANMEN
  6
CONTINUOUS
 10
263.5
 20
122.5
 30
0.0
 11
273.0
 21
122.5
 31
0.0
  0
LINE
  5
1A1FC
  8
DANMEN
  6
CONTINUOUS
 10
263.5
 20
86.5
 30
0.0
 11
273.0
 21
86.5
 31
0.0
  0
LINE
  5
1A1FD
  8
DANMEN
  6
CONTINUOUS
 10
213.0
 20
88.15
 30
0.0
 11
260.5
 21
88.15
 31
0.0
  0
LINE
  5
1A1FE
  8
DANMEN
  6
CONTINUOUS
 10
211.0
 20
122.5
 30
0.0
 11
260.5
 21
122.5
 31
0.0
  0
LINE
  5
1A1FF
  8
DANMEN
  6
CONTINUOUS
 10
213.0
 20
86.5
 30
0.0
 11
260.5
 21
86.5
 31
0.0
  0
ARC
  5
1A202
  8
DANMEN
  6
CONTINUOUS
 10
212.500002
 20
87.0
 30
0.0
 40
0.5
 50
270.000018
 51
359.999981
  0
ARC
  5
1A203
  8
DANMEN
  6
CONTINUOUS
 10
212.500002
 20
87.649994
 30
0.0
 40
0.5
 50
359.999981
 51
89.999982
  0
LINE
  5
1A204
  8
DANMEN
  6
CONTINUOUS
 10
213.000002
 20
87.649994
 30
0.0
 11
213.000002
 21
87.0
 31
0.0
  0
LINE
  5
1A205
  8
DANMEN
  6
CONTINUOUS
 10
209.300005
 20
122.5
 30
0.0
 11
210.500002
 21
122.5
 31
0.0
  0
LINE
  5
1A206
  8
DANMEN
  6
CONTINUOUS
 10
208.650005
 20
122.5
 30
0.0
 11
211.000005
 21
122.5
 31
0.0
  0
LINE
  5
1A207
  8
DANMEN
  6
CONTINUOUS
 10
203.800002
 20
120.1
 30
0.0
 11
210.0
 21
120.1
 31
0.0
  0
LINE
  5
1A208
  8
DANMEN
  6
CONTINUOUS
 10
206.150005
 20
121.3
 30
0.0
 11
205.350006
 21
120.5
 31
0.0
  0
LINE
  5
1A209
  8
DANMEN
  6
CONTINUOUS
 10
202.800005
 20
123.3
 30
0.0
 11
210.200005
 21
123.3
 31
0.0
  0
ARC
  5
1A20D
  8
DANMEN
  6
CONTINUOUS
 10
204.699998
 20
122.0
 30
0.0
 40
0.5
 50
359.999981
 51
90.000037
  0
ARC
  5
1A20E
  8
DANMEN
  6
CONTINUOUS
 10
203.500002
 20
122.0
 30
0.0
 40
0.5
 50
90.000037
 51
180.000019
  0
LINE
  5
1A20F
  8
DANMEN
  6
CONTINUOUS
 10
203.800002
 20
121.699997
 30
0.0
 11
205.199998
 21
121.699997
 31
0.0
  0
LINE
  5
1A210
  8
DANMEN
  6
CONTINUOUS
 10
205.200003
 20
121.999999
 30
0.0
 11
205.200004
 21
121.699996
 31
0.0
  0
LINE
  5
1A211
  8
DANMEN
  6
CONTINUOUS
 10
203.000002
 20
122.0
 30
0.0
 11
203.000002
 21
120.1
 31
0.0
  0
LINE
  5
1A212
  8
DANMEN
  6
CONTINUOUS
 10
203.500002
 20
122.5
 30
0.0
 11
204.699998
 21
122.5
 31
0.0
  0
LINE
  5
1A214
  8
DANMEN
  6
CONTINUOUS
 10
203.800002
 20
121.699997
 30
0.0
 11
203.800002
 21
120.1
 31
0.0
  0
ARC
  5
1A21A
  8
DANMEN
  6
CONTINUOUS
 10
205.312975
 20
123.449886
 30
0.0
 40
0.25
 50
131.738105
 51
311.738105
  0
LINE
  5
1A21D
  8
DANMEN
  6
CONTINUOUS
 10
204.350005
 20
121.5
 30
0.0
 11
205.350006
 21
121.5
 31
0.0
  0
LINE
  5
1A21E
  8
DANMEN
  6
CONTINUOUS
 10
204.150005
 20
121.3
 30
0.0
 11
204.150005
 21
120.7
 31
0.0
  0
LINE
  5
1A21F
  8
DANMEN
  6
CONTINUOUS
 10
204.350005
 20
120.5
 30
0.0
 11
205.350006
 21
120.5
 31
0.0
  0
ARC
  5
1A223
  8
DANMEN
  6
CONTINUOUS
 10
204.350005
 20
120.7
 30
0.0
 40
0.2
 50
180.000019
 51
270.000001
  0
ARC
  5
1A225
  8
DANMEN
  6
CONTINUOUS
 10
204.350005
 20
121.3
 30
0.0
 40
0.2
 50
89.999982
 51
180.000019
  0
LINE
  5
1A226
  8
DANMEN
  6
CONTINUOUS
 10
205.350006
 20
122.5
 30
0.0
 11
205.350006
 21
121.5
 31
0.0
  0
LINE
  5
1A228
  8
DANMEN
  6
CONTINUOUS
 10
202.270497
 20
122.5
 30
0.0
 11
205.350006
 21
122.5
 31
0.0
  0
ARC
  5
1A22C
  8
DANMEN
  6
CONTINUOUS
 10
209.300004
 20
122.0
 30
0.0
 40
0.5
 50
90.0
 51
179.999149
  0
LINE
  5
1A22F
  8
DANMEN
  6
CONTINUOUS
 10
208.800005
 20
121.699997
 30
0.0
 11
210.000002
 21
121.699997
 31
0.0
  0
LINE
  5
1A230
  8
DANMEN
  6
CONTINUOUS
 10
210.0
 20
121.699997
 30
0.0
 11
210.0
 21
120.1
 31
0.0
  0
LINE
  5
1A231
  8
DANMEN
  6
CONTINUOUS
 10
208.800004
 20
122.000017
 30
0.0
 11
208.8
 21
121.699998
 31
0.0
  0
LINE
  5
1A234
  8
DANMEN
  6
CONTINUOUS
 10
209.850006
 20
121.3
 30
0.0
 11
209.850006
 21
120.7
 31
0.0
  0
LINE
  5
1A236
  8
DANMEN
  6
CONTINUOUS
 10
207.850005
 20
121.3
 30
0.0
 11
208.650005
 21
120.5
 31
0.0
  0
LINE
  5
1A237
  8
DANMEN
  6
CONTINUOUS
 10
208.650005
 20
120.5
 30
0.0
 11
209.650006
 21
120.5
 31
0.0
  0
ARC
  5
1A23A
  8
DANMEN
  6
CONTINUOUS
 10
209.650006
 20
121.3
 30
0.0
 40
0.2
 50
0.0
 51
89.999982
  0
ARC
  5
1A23C
  8
DANMEN
  6
CONTINUOUS
 10
209.650006
 20
120.7
 30
0.0
 40
0.2
 50
270.000018
 51
0.0
  0
LINE
  5
1A23D
  8
DANMEN
  6
CONTINUOUS
 10
208.650005
 20
121.5
 30
0.0
 11
209.650006
 21
121.5
 31
0.0
  0
LINE
  5
1A23E
  8
DANMEN
  6
CONTINUOUS
 10
208.650005
 20
122.5
 30
0.0
 11
208.650005
 21
121.5
 31
0.0
  0
LINE
  5
1A242
  8
DANMEN
  6
CONTINUOUS
 10
206.150006
 20
121.3
 30
0.0
 11
207.850005
 21
121.3
 31
0.0
  0
LINE
  5
1A245
  8
DANMEN
  6
CONTINUOUS
 10
210.200005
 20
123.962453
 30
0.0
 11
210.200005
 21
123.3
 31
0.0
  0
ARC
  5
1A249
  8
DANMEN
  6
CONTINUOUS
 10
210.500002
 20
119.5
 30
0.0
 40
0.5
 50
270.000018
 51
0.0
  0
ARC
  5
1A24A
  8
DANMEN
  6
CONTINUOUS
 10
210.500002
 20
122.0
 30
0.0
 40
0.5
 50
359.999981
 51
90.000037
  0
LINE
  5
1A24B
  8
DANMEN
  6
CONTINUOUS
 10
211.000002
 20
122.0
 30
0.0
 11
211.000002
 21
119.5
 31
0.0
  0
LINE
  5
1A24D
  8
DANMEN
  6
CONTINUOUS
 10
211.0
 20
119.0
 30
0.0
 11
211.0
 21
122.5
 31
0.0
  0
LINE
  5
1A24E
  8
DANMEN
  6
CONTINUOUS
 10
275.0
 20
90.5
 30
0.0
 11
275.500003
 21
73.0
 31
0.0
  0
LINE
  5
1A24F
  8
DANMEN
  6
CONTINUOUS
 10
311.000006
 20
90.5
 30
0.0
 11
310.500003
 21
73.0
 31
0.0
  0
LINE
  5
1A250
  8
DANMEN
  6
CONTINUOUS
 10
273.000003
 20
60.5
 30
0.0
 11
273.000003
 21
122.0
 31
0.0
  0
LINE
  5
1A251
  8
DANMEN
  6
CONTINUOUS
 10
313.000003
 20
60.5
 30
0.0
 11
313.000003
 21
99.5
 31
0.0
  0
LINE
  5
1A252
  8
DANMEN
  6
CONTINUOUS
 10
310.500003
 20
63.0
 30
0.0
 11
275.500003
 21
63.0
 31
0.0
  0
LINE
  5
1A253
  8
DANMEN
  6
CONTINUOUS
 10
311.000003
 20
58.5
 30
0.0
 11
275.000003
 21
58.5
 31
0.0
  0
LINE
  5
1A254
  8
DANMEN
  6
CONTINUOUS
 10
275.500003
 20
63.0
 30
0.0
 11
275.500003
 21
73.0
 31
0.0
  0
ARC
  5
1A255
  8
DANMEN
  6
CONTINUOUS
 10
275.000003
 20
60.5
 30
0.0
 40
2.0
 50
179.999981
 51
270.000018
  0
LINE
  5
1A256
  8
DANMEN
  6
CONTINUOUS
 10
310.500003
 20
63.0
 30
0.0
 11
310.500003
 21
73.0
 31
0.0
  0
ARC
  5
1A257
  8
DANMEN
  6
CONTINUOUS
 10
311.000003
 20
60.5
 30
0.0
 40
2.0
 50
270.000018
 51
0.0
  0
LINE
  5
1A258
  8
DANMEN
  6
CONTINUOUS
 10
308.0
 20
115.55
 30
0.0
 11
298.300003
 21
115.55
 31
0.0
  0
LINE
  5
1A259
  8
DANMEN
  6
CONTINUOUS
 10
312.499999
 20
117.5
 30
0.0
 11
296.000003
 21
117.5
 31
0.0
  0
LINE
  5
1A25A
  8
DANMEN
  6
CONTINUOUS
 10
311.900006
 20
92.449997
 30
0.0
 11
288.000003
 21
92.449997
 31
0.0
  0
LINE
  5
1A25B
  8
DANMEN
  6
CONTINUOUS
 10
311.000006
 20
90.5
 30
0.0
 11
275.0
 21
90.5
 31
0.0
  0
LINE
  5
1A25C
  8
DANMEN
  6
CONTINUOUS
 10
298.000003
 20
121.5
 30
0.0
 11
301.500003
 21
121.5
 31
0.0
  0
LINE
  5
1A25D
  8
DANMEN
  6
CONTINUOUS
 10
291.800003
 20
120.0
 30
0.0
 11
302.000003
 21
120.0
 31
0.0
  0
LINE
  5
1A25E
  8
DANMEN
  6
CONTINUOUS
 10
288.000003
 20
100.799994
 30
0.0
 11
306.000003
 21
100.799994
 31
0.0
  0
LINE
  5
1A25F
  8
DANMEN
  6
CONTINUOUS
 10
306.000003
 20
100.799994
 30
0.0
 11
288.000003
 21
110.799994
 31
0.0
  0
LINE
  5
1A260
  8
DANMEN
  6
CONTINUOUS
 10
288.000003
 20
110.799994
 30
0.0
 11
306.000003
 21
110.799994
 31
0.0
  0
LINE
  5
1A261
  8
DANMEN
  6
CONTINUOUS
 10
301.500003
 20
122.5
 30
0.0
 11
297.473613
 21
122.5
 31
0.0
  0
LINE
  5
1A262
  8
DANMEN
  6
CONTINUOUS
 10
288.000003
 20
92.449997
 30
0.0
 11
288.000003
 21
110.799994
 31
0.0
  0
LINE
  5
1A263
  8
DANMEN
  6
CONTINUOUS
 10
286.050006
 20
92.449997
 30
0.0
 11
286.050006
 21
115.550003
 31
0.0
  0
LINE
  5
1A264
  8
DANMEN
  6
CONTINUOUS
 10
274.95
 20
92.449997
 30
0.0
 11
274.95
 21
114.550003
 31
0.0
  0
LINE
  5
1A265
  8
DANMEN
  6
CONTINUOUS
 10
286.050006
 20
92.449997
 30
0.0
 11
274.95
 21
92.449997
 31
0.0
  0
LINE
  5
1A266
  8
DANMEN
  6
CONTINUOUS
 10
286.050006
 20
117.5
 30
0.0
 11
279.750003
 21
117.5
 31
0.0
  0
LINE
  5
1A267
  8
DANMEN
  6
CONTINUOUS
 10
286.050006
 20
115.550003
 30
0.0
 11
274.65
 21
115.550003
 31
0.0
  0
LINE
  5
1A268
  8
DANMEN
  6
CONTINUOUS
 10
279.800003
 20
122.5
 30
0.0
 11
286.050006
 21
122.5
 31
0.0
  0
LINE
  5
1A269
  8
DANMEN
  6
CONTINUOUS
 10
278.750003
 20
117.5
 30
0.0
 11
274.200003
 21
117.5
 31
0.0
  0
LINE
  5
1A26A
  8
DANMEN
  6
CONTINUOUS
 10
275.58967
 20
121.8
 30
0.0
 11
278.800003
 21
121.8
 31
0.0
  0
LINE
  5
1A26B
  8
DANMEN
  6
CONTINUOUS
 10
275.900002
 20
119.5
 30
0.0
 11
275.400002
 21
119.0
 31
0.0
  0
LINE
  5
1A26C
  8
DANMEN
  6
CONTINUOUS
 10
274.200003
 20
117.5
 30
0.0
 11
274.200003
 21
120.199997
 31
0.0
  0
LINE
  5
1A26D
  8
DANMEN
  6
CONTINUOUS
 10
274.65
 20
114.550003
 30
0.0
 11
274.65
 21
115.550003
 31
0.0
  0
LINE
  5
1A26E
  8
DANMEN
  6
CONTINUOUS
 10
274.95
 20
114.550003
 30
0.0
 11
274.65
 21
114.550003
 31
0.0
  0
ARC
  5
1A26F
  8
DANMEN
  6
CONTINUOUS
 10
273.700003
 20
122.0
 30
0.0
 40
0.5
 50
0.0
 51
90.0
  0
LINE
  5
1A270
  8
DANMEN
  6
CONTINUOUS
 10
274.200003
 20
121.0
 30
0.0
 11
274.200003
 21
122.0
 31
0.0
  0
ARC
  5
1A271
  8
DANMEN
  6
CONTINUOUS
 10
273.500003
 20
122.0
 30
0.0
 40
0.5
 50
90.0
 51
180.0
  0
LINE
  5
1A272
  8
DANMEN
  6
CONTINUOUS
 10
273.500003
 20
122.5
 30
0.0
 11
273.700003
 21
122.5
 31
0.0
  0
ARC
  5
1A273
  8
DANMEN
  6
CONTINUOUS
 10
274.750003
 20
120.5
 30
0.0
 40
0.5
 50
360.0
 51
89.999982
  0
LINE
  5
1A274
  8
DANMEN
  6
CONTINUOUS
 10
274.750003
 20
121.0
 30
0.0
 11
274.200003
 21
121.0
 31
0.0
  0
LINE
  5
1A275
  8
DANMEN
  6
CONTINUOUS
 10
275.250003
 20
120.199997
 30
0.0
 11
274.200003
 21
120.199997
 31
0.0
  0
LINE
  5
1A276
  8
DANMEN
  6
CONTINUOUS
 10
275.250003
 20
120.199997
 30
0.0
 11
275.250003
 21
120.5
 31
0.0
  0
LINE
  5
1A278
  8
DANMEN
  6
CONTINUOUS
 10
275.400002
 20
121.0
 30
0.0
 11
275.400002
 21
120.0
 31
0.0
  0
LINE
  5
1A279
  8
DANMEN
  6
CONTINUOUS
 10
274.600002
 20
120.0
 30
0.0
 11
275.400002
 21
120.0
 31
0.0
  0
LINE
  5
1A27A
  8
DANMEN
  6
CONTINUOUS
 10
274.400002
 20
119.8
 30
0.0
 11
274.400002
 21
119.0
 31
0.0
  0
ARC
  5
1A27B
  8
DANMEN
  6
CONTINUOUS
 10
274.600002
 20
119.8
 30
0.0
 40
0.2
 50
89.999982
 51
180.000019
  0
LINE
  5
1A27C
  8
DANMEN
  6
CONTINUOUS
 10
274.400002
 20
121.0
 30
0.0
 11
275.400002
 21
121.0
 31
0.0
  0
LINE
  5
1A280
  8
DANMEN
  6
CONTINUOUS
 10
274.400002
 20
121.0
 30
0.0
 11
274.400002
 21
121.8
 31
0.0
  0
LINE
  5
1A283
  8
DANMEN
  6
CONTINUOUS
 10
275.400002
 20
119.0
 30
0.0
 11
274.400002
 21
119.0
 31
0.0
  0
LINE
  5
1A287
  8
DANMEN
  6
CONTINUOUS
 10
278.750003
 20
117.5
 30
0.0
 11
278.750003
 21
120.199997
 31
0.0
  0
LINE
  5
1A288
  8
DANMEN
  6
CONTINUOUS
 10
279.750003
 20
117.5
 30
0.0
 11
279.750003
 21
120.5
 31
0.0
  0
ARC
  5
1A289
  8
DANMEN
  6
CONTINUOUS
 10
279.250003
 20
120.5
 30
0.0
 40
0.5
 50
360.0
 51
89.999982
  0
ARC
  5
1A28A
  8
DANMEN
  6
CONTINUOUS
 10
278.250003
 20
120.5
 30
0.0
 40
0.5
 50
89.999982
 51
180.000019
  0
LINE
  5
1A28B
  8
DANMEN
  6
CONTINUOUS
 10
278.750003
 20
120.199997
 30
0.0
 11
277.750003
 21
120.199997
 31
0.0
  0
LINE
  5
1A28C
  8
DANMEN
  6
CONTINUOUS
 10
277.750003
 20
120.199997
 30
0.0
 11
277.750003
 21
120.5
 31
0.0
  0
LINE
  5
1A28D
  8
DANMEN
  6
CONTINUOUS
 10
279.250003
 20
121.0
 30
0.0
 11
278.250003
 21
121.0
 31
0.0
  0
LINE
  5
1A28F
  8
DANMEN
  6
CONTINUOUS
 10
277.600003
 20
121.0
 30
0.0
 11
277.600003
 21
120.0
 31
0.0
  0
LINE
  5
1A290
  8
DANMEN
  6
CONTINUOUS
 10
278.400003
 20
120.0
 30
0.0
 11
277.600003
 21
120.0
 31
0.0
  0
LINE
  5
1A291
  8
DANMEN
  6
CONTINUOUS
 10
278.600003
 20
119.8
 30
0.0
 11
278.600003
 21
119.0
 31
0.0
  0
ARC
  5
1A292
  8
DANMEN
  6
CONTINUOUS
 10
278.400003
 20
119.8
 30
0.0
 40
0.2
 50
359.999981
 51
90.000037
  0
LINE
  5
1A296
  8
DANMEN
  6
CONTINUOUS
 10
278.600003
 20
119.0
 30
0.0
 11
277.600003
 21
119.0
 31
0.0
  0
LINE
  5
1A297
  8
DANMEN
  6
CONTINUOUS
 10
275.900002
 20
119.5
 30
0.0
 11
277.100003
 21
119.5
 31
0.0
  0
LINE
  5
1A29C
  8
DANMEN
  6
CONTINUOUS
 10
277.600003
 20
119.0
 30
0.0
 11
277.100003
 21
119.5
 31
0.0
  0
LINE
  5
1A29D
  8
DANMEN
  6
CONTINUOUS
 10
277.600003
 20
121.0
 30
0.0
 11
279.800003
 21
121.0
 31
0.0
  0
LINE
  5
1A2A0
  8
DANMEN
  6
CONTINUOUS
 10
288.588049
 20
113.115608
 30
0.0
 11
289.499108
 21
111.8
 31
0.0
  0
LINE
  5
1A2A1
  8
DANMEN
  6
CONTINUOUS
 10
293.401086
 20
113.8
 30
0.0
 11
290.699108
 21
111.8
 31
0.0
  0
LINE
  5
1A2A2
  8
DANMEN
  6
CONTINUOUS
 10
288.000003
 20
111.999994
 30
0.0
 11
288.000003
 21
115.55
 31
0.0
  0
LINE
  5
1A2A3
  8
DANMEN
  6
CONTINUOUS
 10
294.000003
 20
110.799994
 30
0.0
 11
288.000003
 21
110.799994
 31
0.0
  0
LINE
  5
1A2A4
  8
DANMEN
  6
CONTINUOUS
 10
292.000003
 20
111.999994
 30
0.0
 11
293.598061
 21
111.680382
 31
0.0
  0
LINE
  5
1A2A5
  8
DANMEN
  6
CONTINUOUS
 10
292.000003
 20
111.999994
 30
0.0
 11
288.000003
 21
111.999994
 31
0.0
  0
LINE
  5
1A2A6
  8
DANMEN
  6
CONTINUOUS
 10
290.699108
 20
111.8
 30
0.0
 11
289.499108
 21
111.8
 31
0.0
  0
ARC
  5
1A2A7
  8
DANMEN
  6
CONTINUOUS
 10
293.500003
 20
111.190092
 30
0.0
 40
0.5
 50
0.0
 51
78.690068
  0
LINE
  5
1A2A8
  8
DANMEN
  6
CONTINUOUS
 10
294.000003
 20
111.190092
 30
0.0
 11
294.000003
 21
110.799994
 31
0.0
  0
LINE
  5
1A2A9
  8
DANMEN
  6
CONTINUOUS
 10
293.413124
 20
115.301883
 30
0.0
 11
290.436097
 21
113.098292
 31
0.0
  0
LINE
  5
1A2AA
  8
DANMEN
  6
CONTINUOUS
 10
291.550006
 20
120.7
 30
0.0
 11
297.335151
 21
122.412336
 31
0.0
  0
LINE
  5
1A2AB
  8
DANMEN
  6
CONTINUOUS
 10
297.250006
 20
123.0
 30
0.0
 11
287.050003
 21
123.0
 31
0.0
  0
LINE
  5
1A2AC
  8
DANMEN
  6
CONTINUOUS
 10
294.000003
 20
115.55
 30
0.0
 11
288.000003
 21
115.55
 31
0.0
  0
LINE
  5
1A2AD
  8
DANMEN
  6
CONTINUOUS
 10
287.550003
 20
117.5
 30
0.0
 11
296.000003
 21
117.5
 31
0.0
  0
LINE
  5
1A2AE
  8
DANMEN
  6
CONTINUOUS
 10
297.500003
 20
122.3
 30
0.0
 11
291.714858
 21
120.587664
 31
0.0
  0
LINE
  5
1A2AF
  8
DANMEN
  6
CONTINUOUS
 10
286.050006
 20
117.5
 30
0.0
 11
286.050006
 21
122.0
 31
0.0
  0
LINE
  5
1A2B0
  8
DANMEN
  6
CONTINUOUS
 10
287.550003
 20
117.5
 30
0.0
 11
287.550003
 21
121.5
 31
0.0
  0
LINE
  5
1A2B1
  8
DANMEN
  6
CONTINUOUS
 10
288.499108
 20
113.400266
 30
0.0
 11
288.499108
 21
113.400136
 31
0.0
  0
LINE
  5
1A2B2
  8
DANMEN
  6
CONTINUOUS
 10
288.999108
 20
113.900136
 30
0.0
 11
289.242473
 21
113.900136
 31
0.0
  0
ARC
  5
1A2B3
  8
DANMEN
  6
CONTINUOUS
 10
288.999108
 20
113.400266
 30
0.0
 40
0.5
 50
180.0
 51
214.702622
  0
ARC
  5
1A2B4
  8
DANMEN
  6
CONTINUOUS
 10
288.999108
 20
113.400136
 30
0.0
 40
0.5
 50
90.0
 51
180.0
  0
LINE
  5
1A2B5
  8
DANMEN
  6
CONTINUOUS
 10
289.653532
 20
113.684794
 30
0.0
 11
290.010978
 21
113.168627
 31
0.0
  0
ARC
  5
1A2B6
  8
DANMEN
  6
CONTINUOUS
 10
290.257613
 20
113.339422
 30
0.0
 40
0.3
 50
214.702622
 51
306.508792
  0
ARC
  5
1A2B7
  8
DANMEN
  6
CONTINUOUS
 10
289.242473
 20
113.400136
 30
0.0
 40
0.5
 50
34.702622
 51
90.0
  0
LINE
  5
1A2B8
  8
DANMEN
  6
CONTINUOUS
 10
291.050006
 20
121.5
 30
0.0
 11
287.550003
 21
121.5
 31
0.0
  0
ARC
  5
1A2B9
  8
DANMEN
  6
CONTINUOUS
 10
287.050003
 20
122.0
 30
0.0
 40
1.0
 50
89.999982
 51
180.000019
  0
LINE
  5
1A2BA
  8
DANMEN
  6
CONTINUOUS
 10
291.550006
 20
120.7
 30
0.0
 11
291.050006
 21
120.7
 31
0.0
  0
LINE
  5
1A2BB
  8
DANMEN
  6
CONTINUOUS
 10
291.050006
 20
121.5
 30
0.0
 11
291.050006
 21
120.7
 31
0.0
  0
ARC
  5
1A2BC
  8
DANMEN
  6
CONTINUOUS
 10
291.800003
 20
120.3
 30
0.0
 40
0.3
 50
106.488148
 51
270.0
  0
LINE
  5
1A2BF
  8
DANMEN
  6
CONTINUOUS
 10
297.300003
 20
113.8
 30
0.0
 11
293.401086
 21
113.8
 31
0.0
  0
LINE
  5
1A2C0
  8
DANMEN
  6
CONTINUOUS
 10
296.300003
 20
115.0
 30
0.0
 11
294.300003
 21
115.0
 31
0.0
  0
LINE
  5
1A2C1
  8
DANMEN
  6
CONTINUOUS
 10
296.300003
 20
116.0
 30
0.0
 11
296.300003
 21
115.0
 31
0.0
  0
LINE
  5
1A2C2
  8
DANMEN
  6
CONTINUOUS
 10
296.000003
 20
117.5
 30
0.0
 11
296.000003
 21
116.0
 31
0.0
  0
LINE
  5
1A2C3
  8
DANMEN
  6
CONTINUOUS
 10
296.300003
 20
116.0
 30
0.0
 11
296.000003
 21
116.0
 31
0.0
  0
LINE
  5
1A2C4
  8
DANMEN
  6
CONTINUOUS
 10
293.734317
 20
115.4
 30
0.0
 11
293.710597
 21
115.4
 31
0.0
  0
ARC
  5
1A2C5
  8
DANMEN
  6
CONTINUOUS
 10
293.710597
 20
114.9
 30
0.0
 40
0.5
 50
90.0
 51
126.508792
  0
ARC
  5
1A2C6
  8
DANMEN
  6
CONTINUOUS
 10
294.300003
 20
115.3
 30
0.0
 40
0.3
 50
199.471221
 51
270.0
  0
ARC
  5
1A2C8
  8
DANMEN
  6
CONTINUOUS
 10
293.734317
 20
115.1
 30
0.0
 40
0.3
 50
19.471221
 51
90.0
  0
ARC
  5
1A2CA
  8
DANMEN
  6
CONTINUOUS
 10
294.300003
 20
115.3
 30
0.0
 40
0.3
 50
180.0
 51
270.0
  0
LINE
  5
1A2CB
  8
DANMEN
  6
CONTINUOUS
 10
296.000003
 20
117.5
 30
0.0
 11
296.000003
 21
115.842199
 31
0.0
  0
LINE
  5
1A2CC
  8
DANMEN
  6
CONTINUOUS
 10
294.000003
 20
115.3
 30
0.0
 11
294.000003
 21
115.55
 31
0.0
  0
LINE
  5
1A2CD
  8
DANMEN
  6
CONTINUOUS
 10
295.211148
 20
115.105573
 30
0.0
 11
295.745426
 21
115.406576
 31
0.0
  0
ARC
  5
1A2CE
  8
DANMEN
  6
CONTINUOUS
 10
294.763935
 20
116.0
 30
0.0
 40
1.0
 50
270.0
 51
296.565051
  0
ARC
  5
1A2CF
  8
DANMEN
  6
CONTINUOUS
 10
295.500003
 20
115.842199
 30
0.0
 40
0.5
 50
299.396173
 51
0.0
  0
LINE
  5
1A2D0
  8
DANMEN
  6
CONTINUOUS
 10
294.300003
 20
115.0
 30
0.0
 11
294.763935
 21
115.0
 31
0.0
  0
ARC
  5
1A2D1
  8
DANMEN
  6
CONTINUOUS
 10
298.300003
 20
115.05
 30
0.0
 40
0.5
 50
90.0
 51
180.0
  0
LINE
  5
1A2D2
  8
DANMEN
  6
CONTINUOUS
 10
297.800003
 20
115.05
 30
0.0
 11
297.800003
 21
114.3
 31
0.0
  0
ARC
  5
1A2D3
  8
DANMEN
  6
CONTINUOUS
 10
297.300003
 20
114.3
 30
0.0
 40
0.5
 50
270.0
 51
0.0
  0
ARC
  5
1A2D4
  8
DANMEN
  6
CONTINUOUS
 10
297.250006
 20
122.7
 30
0.0
 40
0.3
 50
286.488148
 51
90.0
  0
LINE
  5
1A2D8
  8
DANMEN
  6
CONTINUOUS
 10
298.000003
 20
121.5
 30
0.0
 11
298.000003
 21
122.3
 31
0.0
  0
LINE
  5
1A2DA
  8
DANMEN
  6
CONTINUOUS
 10
297.500003
 20
122.3
 30
0.0
 11
298.000003
 21
122.3
 31
0.0
  0
ARC
  5
1A2DB
  8
DANMEN
  6
CONTINUOUS
 10
314.0
 20
101.0
 30
0.0
 40
1.5
 50
269.999964
 51
0.000001
  0
LINE
  5
1A2DC
  8
DANMEN
  6
CONTINUOUS
 10
311.050003
 20
94.449997
 30
0.0
 11
311.050003
 21
99.0
 31
0.0
  0
LINE
  5
1A2DD
  8
DANMEN
  6
CONTINUOUS
 10
311.900006
 20
94.449997
 30
0.0
 11
311.050003
 21
94.449997
 31
0.0
  0
LINE
  5
1A2DE
  8
DANMEN
  6
CONTINUOUS
 10
311.900003
 20
92.449997
 30
0.0
 11
311.900003
 21
94.449997
 31
0.0
  0
ARC
  5
1A2DF
  8
DANMEN
  6
CONTINUOUS
 10
312.500003
 20
99.5
 30
0.0
 40
0.5
 50
0.000019
 51
89.999982
  0
LINE
  5
1A2E0
  8
DANMEN
  6
CONTINUOUS
 10
310.000003
 20
99.5
 30
0.0
 11
310.000003
 21
100.0
 31
0.0
  0
LINE
  5
1A2E1
  8
DANMEN
  6
CONTINUOUS
 10
311.050003
 20
99.0
 30
0.0
 11
310.500003
 21
99.0
 31
0.0
  0
ARC
  5
1A2E2
  8
DANMEN
  6
CONTINUOUS
 10
310.500003
 20
99.5
 30
0.0
 40
0.5
 50
180.0
 51
270.0
  0
LINE
  5
1A2E3
  8
DANMEN
  6
CONTINUOUS
 10
312.500003
 20
100.0
 30
0.0
 11
310.000003
 21
100.0
 31
0.0
  0
ARC
  5
1A2E4
  8
DANMEN
  6
CONTINUOUS
 10
317.0
 20
103.500006
 30
0.0
 40
1.5
 50
90.0
 51
179.999982
  0
ARC
  5
1A2E5
  8
DANMEN
  6
CONTINUOUS
 10
317.0
 20
111.500009
 30
0.0
 40
1.5
 50
179.999982
 51
269.999964
  0
LINE
  5
1A2E6
  8
DANMEN
  6
CONTINUOUS
 10
315.5
 20
111.500009
 30
0.0
 11
315.5
 21
114.0
 31
0.0
  0
LINE
  5
1A2E7
  8
DANMEN
  6
CONTINUOUS
 10
306.0
 20
110.000002
 30
0.0
 11
306.0
 21
104.999998
 31
0.0
  0
LINE
  5
1A2E8
  8
DANMEN
  6
CONTINUOUS
 10
306.000003
 20
110.799994
 30
0.0
 11
306.000003
 21
100.799994
 31
0.0
  0
LINE
  5
1A2E9
  8
DANMEN
  6
CONTINUOUS
 10
315.5
 20
101.0
 30
0.0
 11
315.5
 21
103.500006
 31
0.0
  0
LINE
  5
1A2EB
  8
DANMEN
  6
CONTINUOUS
 10
309.0
 20
115.0
 30
0.0
 11
308.0
 21
115.0
 31
0.0
  0
LINE
  5
1A2EC
  8
DANMEN
  6
CONTINUOUS
 10
303.0
 20
122.5
 30
0.0
 11
311.8
 21
122.5
 31
0.0
  0
LINE
  5
1A2ED
  8
DANMEN
  6
CONTINUOUS
 10
308.0
 20
115.55
 30
0.0
 11
308.0
 21
115.0
 31
0.0
  0
ARC
  5
1A2F0
  8
DANMEN
  6
CONTINUOUS
 10
302.000003
 20
121.0
 30
0.0
 40
1.0
 50
270.000018
 51
0.0
  0
ARC
  5
1A2F3
  8
DANMEN
  6
CONTINUOUS
 10
312.5
 20
117.0
 30
0.0
 40
0.5
 50
0.000091
 51
90.000128
  0
ARC
  5
1A2F4
  8
DANMEN
  6
CONTINUOUS
 10
312.5
 20
115.5
 30
0.0
 40
0.5
 50
270.0
 51
0.0
  0
ARC
  5
1A2F5
  8
DANMEN
  6
CONTINUOUS
 10
309.5
 20
115.05
 30
0.0
 40
0.5
 50
90.0
 51
180.0
  0
LINE
  5
1A2F6
  8
DANMEN
  6
CONTINUOUS
 10
310.0
 20
115.55
 30
0.0
 11
310.0
 21
115.0
 31
0.0
  0
LINE
  5
1A2F7
  8
DANMEN
  6
CONTINUOUS
 10
310.0
 20
115.55
 30
0.0
 11
309.5
 21
115.55
 31
0.0
  0
LINE
  5
1A2F8
  8
DANMEN
  6
CONTINUOUS
 10
309.0
 20
115.05
 30
0.0
 11
309.0
 21
115.0
 31
0.0
  0
LINE
  5
1A2F9
  8
DANMEN
  6
CONTINUOUS
 10
312.499999
 20
115.0
 30
0.0
 11
310.0
 21
115.0
 31
0.0
  0
ARC
  5
1A2FA
  8
DANMEN
  6
CONTINUOUS
 10
314.0
 20
114.0
 30
0.0
 40
1.5
 50
0.000018
 51
90.0
  0
LINE
  5
1A2FB
  8
DANMEN
  6
CONTINUOUS
 10
313.0
 20
117.0
 30
0.0
 11
313.0
 21
115.5
 31
0.0
  0
ARC
  5
1A2FC
  8
DANMEN
  6
CONTINUOUS
 10
312.400003
 20
121.1
 30
0.0
 40
0.6
 50
180.0
 51
0.0
  0
LINE
  5
1A2FF
  8
SUNPO
  6
CONTINUOUS
 10
22.0
 20
30.5
 30
0.0
 11
22.0
 21
39.5
 31
0.0
  0
LINE
  5
1A300
  8
SUNPO
  6
CONTINUOUS
 10
42.0
 20
38.0
 30
0.0
 11
42.0
 21
20.5
 31
0.0
  0
LINE
  5
1A301
  8
SUNPO
  6
CONTINUOUS
 10
52.5
 20
30.5
 30
0.0
 11
22.0
 21
30.5
 31
0.0
  0
ARC
  5
1A302
  8
SUNPO
  6
BYBLOCK
 10
22.0
 20
30.5
 30
0.0
 40
0.145
 50
270.0
 51
90.0
  0
ARC
  5
1A303
  8
SUNPO
  6
BYBLOCK
 10
22.0
 20
30.5
 30
0.0
 40
0.145
 50
90.0
 51
270.0
  0
TEXT
  5
1A304
  8
SUNPO
  6
CONTINUOUS
 10
46.333333
 20
21.5
 30
0.0
 40
2.5
  1
12
  7
MX_NOTE_STANDARD
  0
LINE
  5
1A305
  8
SUNPO
  6
CONTINUOUS
 10
42.0
 20
20.5
 30
0.0
 11
54.0
 21
20.5
 31
0.0
  0
ARC
  5
1A306
  8
SUNPO
  6
BYBLOCK
 10
42.0
 20
20.5
 30
0.0
 40
0.145
 50
180.0
 51
0.0
  0
ARC
  5
1A307
  8
SUNPO
  6
BYBLOCK
 10
42.0
 20
20.5
 30
0.0
 40
0.145
 50
0.0
 51
180.0
  0
LINE
  5
1A308
  8
SUNPO
  6
CONTINUOUS
 10
54.0
 20
29.0
 30
0.0
 11
54.0
 21
20.5
 31
0.0
  0
ARC
  5
1A309
  8
SUNPO
  6
BYBLOCK
 10
54.0
 20
20.5
 30
0.0
 40
0.145
 50
0.0
 51
180.0
  0
ARC
  5
1A30A
  8
SUNPO
  6
BYBLOCK
 10
54.0
 20
20.5
 30
0.0
 40
0.145
 50
180.0
 51
0.0
  0
LINE
  5
1A30B
  8
DANMEN
  6
CONTINUOUS
 10
363.500004
 20
117.5
 30
0.0
 11
380.0
 21
117.5
 31
0.0
  0
LINE
  5
1A30C
  8
DANMEN
  6
CONTINUOUS
 10
366.000003
 20
115.55
 30
0.0
 11
366.500003
 21
115.55
 31
0.0
  0
LINE
  5
1A30D
  8
DANMEN
  6
CONTINUOUS
 10
363.5
 20
97.5
 30
0.0
 11
373.0
 21
97.5
 31
0.0
  0
LINE
  5
1A30E
  8
DANMEN
  6
CONTINUOUS
 10
366.0
 20
99.15
 30
0.0
 11
374.15
 21
99.15
 31
0.0
  0
LINE
  5
1A30F
  8
DANMEN
  6
CONTINUOUS
 10
339.5
 20
88.15
 30
0.0
 11
373.0
 21
88.15
 31
0.0
  0
LINE
  5
1A310
  8
DANMEN
  6
CONTINUOUS
 10
370.0
 20
105.500014
 30
0.0
 11
339.5
 21
105.500014
 31
0.0
  0
LINE
  5
1A311
  8
DANMEN
  6
CONTINUOUS
 10
370.0
 20
109.500002
 30
0.0
 11
339.5
 21
109.500002
 31
0.0
  0
LINE
  5
1A312
  8
DANMEN
  6
CONTINUOUS
 10
370.0
 20
105.000014
 30
0.0
 11
339.5
 21
105.000014
 31
0.0
  0
LINE
  5
1A313
  8
DANMEN
  6
CONTINUOUS
 10
370.0
 20
110.000002
 30
0.0
 11
339.5
 21
110.000002
 31
0.0
  0
LINE
  5
1A314
  8
DANMEN
  6
CONTINUOUS
 10
339.5
 20
122.5
 30
0.0
 11
388.0
 21
122.5
 31
0.0
  0
LINE
  5
1A315
  8
DANMEN
  6
CONTINUOUS
 10
339.5
 20
86.5
 30
0.0
 11
373.0
 21
86.5
 31
0.0
  0
ARC
  5
1A316
  8
DANMEN
  6
CONTINUOUS
 10
362.000092
 20
101.000015
 30
0.0
 40
1.5
 50
180.000018
 51
270.0
  0
LINE
  5
1A317
  8
DANMEN
  6
CONTINUOUS
 10
339.5
 20
97.5
 30
0.0
 11
363.5
 21
97.5
 31
0.0
  0
LINE
  5
1A318
  8
DANMEN
  6
CONTINUOUS
 10
339.5
 20
99.500015
 30
0.0
 11
363.0
 21
99.500015
 31
0.0
  0
ARC
  5
1A319
  8
DANMEN
  6
CONTINUOUS
 10
363.5
 20
98.0
 30
0.0
 40
0.5
 50
180.0
 51
269.999982
  0
ARC
  5
1A31A
  8
DANMEN
  6
CONTINUOUS
 10
363.5
 20
99.5
 30
0.0
 40
0.5
 50
89.999963
 51
180.000019
  0
LINE
  5
1A31B
  8
DANMEN
  6
CONTINUOUS
 10
366.0
 20
100.0
 30
0.0
 11
366.0
 21
99.15
 31
0.0
  0
LINE
  5
1A31C
  8
DANMEN
  6
CONTINUOUS
 10
363.0
 20
99.5
 30
0.0
 11
363.0
 21
98.0
 31
0.0
  0
LINE
  5
1A31D
  8
DANMEN
  6
CONTINUOUS
 10
363.5
 20
100.0
 30
0.0
 11
366.0
 21
100.0
 31
0.0
  0
LINE
  5
1A31E
  8
DANMEN
  6
CONTINUOUS
 10
339.5
 20
115.500015
 30
0.0
 11
363.0
 21
115.500015
 31
0.0
  0
LINE
  5
1A31F
  8
DANMEN
  6
CONTINUOUS
 10
339.5
 20
117.5
 30
0.0
 11
363.0
 21
117.5
 31
0.0
  0
LINE
  5
1A320
  8
DANMEN
  6
CONTINUOUS
 10
360.500092
 20
114.000015
 30
0.0
 11
360.500092
 21
111.500009
 31
0.0
  0
ARC
  5
1A321
  8
DANMEN
  6
CONTINUOUS
 10
359.000092
 20
103.500006
 30
0.0
 40
1.5
 50
359.999982
 51
89.999964
  0
LINE
  5
1A322
  8
DANMEN
  6
CONTINUOUS
 10
360.500092
 20
103.500006
 30
0.0
 11
360.500092
 21
101.000015
 31
0.0
  0
ARC
  5
1A323
  8
DANMEN
  6
CONTINUOUS
 10
359.000092
 20
111.500009
 30
0.0
 40
1.5
 50
270.0
 51
359.999982
  0
ARC
  5
1A325
  8
DANMEN
  6
CONTINUOUS
 10
362.000092
 20
114.000015
 30
0.0
 40
1.5
 50
89.999964
 51
180.000001
  0
ARC
  5
1A326
  8
DANMEN
  6
CONTINUOUS
 10
363.500003
 20
117.0
 30
0.0
 40
0.5
 50
89.999872
 51
179.999909
  0
LINE
  5
1A327
  8
DANMEN
  6
CONTINUOUS
 10
363.000003
 20
117.0
 30
0.0
 11
363.000003
 21
115.5
 31
0.0
  0
LINE
  5
1A328
  8
DANMEN
  6
CONTINUOUS
 10
366.000003
 20
115.55
 30
0.0
 11
366.000003
 21
115.0
 31
0.0
  0
ARC
  5
1A329
  8
DANMEN
  6
CONTINUOUS
 10
363.500003
 20
115.5
 30
0.0
 40
0.5
 50
180.0
 51
270.0
  0
LINE
  5
1A32A
  8
DANMEN
  6
CONTINUOUS
 10
363.500004
 20
115.0
 30
0.0
 11
366.000003
 21
115.0
 31
0.0
  0
LINE
  5
1A32B
  8
DANMEN
  6
CONTINUOUS
 10
388.0
 20
87.599997
 30
0.0
 11
388.0
 21
110.799994
 31
0.0
  0
LINE
  5
1A32C
  8
DANMEN
  6
CONTINUOUS
 10
373.5
 20
86.5
 30
0.0
 11
397.5
 21
86.5
 31
0.0
  0
LINE
  5
1A32D
  8
DANMEN
  6
CONTINUOUS
 10
374.65
 20
88.15
 30
0.0
 11
386.0
 21
88.15
 31
0.0
  0
LINE
  5
1A32E
  8
DANMEN
  6
CONTINUOUS
 10
373.0
 20
97.5
 30
0.0
 11
373.0
 21
87.0
 31
0.0
  0
LINE
  5
1A32F
  8
DANMEN
  6
CONTINUOUS
 10
374.65
 20
98.65
 30
0.0
 11
374.65
 21
88.15
 31
0.0
  0
ARC
  5
1A330
  8
DANMEN
  6
CONTINUOUS
 10
373.5
 20
87.0
 30
0.0
 40
0.5
 50
180.0
 51
270.0
  0
ARC
  5
1A331
  8
DANMEN
  6
CONTINUOUS
 10
374.15
 20
98.65
 30
0.0
 40
0.5
 50
0.0
 51
90.0
  0
LINE
  5
1A332
  8
DANMEN
  6
CONTINUOUS
 10
396.350006
 20
92.0
 30
0.0
 11
396.350006
 21
88.149994
 31
0.0
  0
LINE
  5
1A333
  8
DANMEN
  6
CONTINUOUS
 10
398.0
 20
92.0
 30
0.0
 11
398.0
 21
87.0
 31
0.0
  0
LINE
  5
1A334
  8
DANMEN
  6
CONTINUOUS
 10
396.350006
 20
88.149994
 30
0.0
 11
389.649994
 21
88.149994
 31
0.0
  0
LINE
  5
1A335
  8
DANMEN
  6
CONTINUOUS
 10
388.0
 20
87.599997
 30
0.0
 11
386.0
 21
87.599997
 31
0.0
  0
LINE
  5
1A336
  8
DANMEN
  6
CONTINUOUS
 10
386.0
 20
87.599997
 30
0.0
 11
386.0
 21
88.149994
 31
0.0
  0
ARC
  5
1A337
  8
DANMEN
  6
CONTINUOUS
 10
397.5
 20
87.0
 30
0.0
 40
0.5
 50
270.000018
 51
359.999981
  0
ARC
  5
1A338
  8
DANMEN
  6
CONTINUOUS
 10
397.5
 20
92.0
 30
0.0
 40
0.5
 50
359.999981
 51
90.000037
  0
ARC
  5
1A339
  8
DANMEN
  6
CONTINUOUS
 10
396.850006
 20
92.0
 30
0.0
 40
0.5
 50
90.000037
 51
180.000019
  0
LINE
  5
1A33A
  8
DANMEN
  6
CONTINUOUS
 10
397.5
 20
92.5
 30
0.0
 11
396.850006
 21
92.5
 31
0.0
  0
LINE
  5
1A33B
  8
DANMEN
  6
CONTINUOUS
 10
378.7
 20
113.8
 30
0.0
 11
382.598917
 21
113.8
 31
0.0
  0
ARC
  5
1A33C
  8
DANMEN
  6
CONTINUOUS
 10
382.289406
 20
114.9
 30
0.0
 40
0.5
 50
53.491208
 51
90.0
  0
LINE
  5
1A33D
  8
DANMEN
  6
CONTINUOUS
 10
384.0
 20
111.999994
 30
0.0
 11
382.401942
 21
111.680382
 31
0.0
  0
LINE
  5
1A33E
  8
DANMEN
  6
CONTINUOUS
 10
382.0
 20
110.799994
 30
0.0
 11
388.0
 21
110.799994
 31
0.0
  0
LINE
  5
1A33F
  8
DANMEN
  6
CONTINUOUS
 10
382.0
 20
115.85
 30
0.0
 11
388.0
 21
115.85
 31
0.0
  0
LINE
  5
1A340
  8
DANMEN
  6
CONTINUOUS
 10
388.0
 20
117.5
 30
0.0
 11
380.0
 21
117.5
 31
0.0
  0
LINE
  5
1A341
  8
DANMEN
  6
CONTINUOUS
 10
370.0
 20
110.000002
 30
0.0
 11
370.0
 21
104.999998
 31
0.0
  0
ARC
  5
1A342
  8
DANMEN
  6
CONTINUOUS
 10
382.5
 20
111.190092
 30
0.0
 40
0.5
 50
101.309932
 51
180.0
  0
LINE
  5
1A343
  8
DANMEN
  6
CONTINUOUS
 10
382.0
 20
111.190092
 30
0.0
 11
382.0
 21
110.799994
 31
0.0
  0
LINE
  5
1A344
  8
DANMEN
  6
CONTINUOUS
 10
368.000003
 20
115.55
 30
0.0
 11
377.7
 21
115.55
 31
0.0
  0
ARC
  5
1A345
  8
DANMEN
  6
CONTINUOUS
 10
366.500003
 20
115.05
 30
0.0
 40
0.5
 50
0.0
 51
90.0
  0
LINE
  5
1A346
  8
DANMEN
  6
CONTINUOUS
 10
367.000003
 20
115.0
 30
0.0
 11
368.000003
 21
115.0
 31
0.0
  0
LINE
  5
1A347
  8
DANMEN
  6
CONTINUOUS
 10
367.000003
 20
115.05
 30
0.0
 11
367.000003
 21
115.0
 31
0.0
  0
LINE
  5
1A348
  8
DANMEN
  6
CONTINUOUS
 10
368.000003
 20
115.55
 30
0.0
 11
368.000003
 21
115.0
 31
0.0
  0
ARC
  5
1A349
  8
DANMEN
  6
CONTINUOUS
 10
378.7
 20
114.3
 30
0.0
 40
0.5
 50
180.0
 51
270.0
  0
ARC
  5
1A34A
  8
DANMEN
  6
CONTINUOUS
 10
377.7
 20
115.05
 30
0.0
 40
0.5
 50
0.0
 51
90.0
  0
LINE
  5
1A34B
  8
DANMEN
  6
CONTINUOUS
 10
378.2
 20
115.05
 30
0.0
 11
378.2
 21
114.3
 31
0.0
  0
LINE
  5
1A34C
  8
DANMEN
  6
CONTINUOUS
 10
379.7
 20
115.0
 30
0.0
 11
381.7
 21
115.0
 31
0.0
  0
LINE
  5
1A34D
  8
DANMEN
  6
CONTINUOUS
 10
379.7
 20
116.0
 30
0.0
 11
379.7
 21
115.0
 31
0.0
  0
LINE
  5
1A34E
  8
DANMEN
  6
CONTINUOUS
 10
380.0
 20
117.5
 30
0.0
 11
380.0
 21
116.0
 31
0.0
  0
LINE
  5
1A34F
  8
DANMEN
  6
CONTINUOUS
 10
379.7
 20
116.0
 30
0.0
 11
380.0
 21
116.0
 31
0.0
  0
LINE
  5
1A350
  8
DANMEN
  6
CONTINUOUS
 10
382.265685
 20
115.4
 30
0.0
 11
382.289406
 21
115.4
 31
0.0
  0
ARC
  5
1A351
  8
DANMEN
  6
CONTINUOUS
 10
381.7
 20
115.3
 30
0.0
 40
0.3
 50
270.0
 51
340.528779
  0
ARC
  5
1A353
  8
DANMEN
  6
CONTINUOUS
 10
382.265685
 20
115.1
 30
0.0
 40
0.3
 50
90.0
 51
160.528779
  0
LINE
  5
1A355
  8
DANMEN
  6
CONTINUOUS
 10
380.0
 20
117.5
 30
0.0
 11
380.0
 21
115.792199
 31
0.0
  0
ARC
  5
1A356
  8
DANMEN
  6
CONTINUOUS
 10
381.7
 20
115.3
 30
0.0
 40
0.3
 50
270.0
 51
0.0
  0
LINE
  5
1A357
  8
DANMEN
  6
CONTINUOUS
 10
382.0
 20
115.3
 30
0.0
 11
382.0
 21
115.85
 31
0.0
  0
LINE
  5
1A358
  8
DANMEN
  6
CONTINUOUS
 10
380.808854
 20
115.105573
 30
0.0
 11
380.254577
 21
115.356576
 31
0.0
  0
ARC
  5
1A359
  8
DANMEN
  6
CONTINUOUS
 10
381.256068
 20
116.0
 30
0.0
 40
1.0
 50
243.434949
 51
270.0
  0
ARC
  5
1A35A
  8
DANMEN
  6
CONTINUOUS
 10
380.5
 20
115.792199
 30
0.0
 40
0.5
 50
180.0
 51
240.603827
  0
LINE
  5
1A35B
  8
DANMEN
  6
CONTINUOUS
 10
381.7
 20
115.0
 30
0.0
 11
381.256068
 21
115.0
 31
0.0
  0
LINE
  5
1A35C
  8
DANMEN
  6
CONTINUOUS
 10
387.411954
 20
113.115608
 30
0.0
 11
386.500895
 21
111.8
 31
0.0
  0
LINE
  5
1A35D
  8
DANMEN
  6
CONTINUOUS
 10
382.598917
 20
113.8
 30
0.0
 11
385.300895
 21
111.8
 31
0.0
  0
LINE
  5
1A35E
  8
DANMEN
  6
CONTINUOUS
 10
388.0
 20
111.999994
 30
0.0
 11
388.0
 21
115.85
 31
0.0
  0
LINE
  5
1A35F
  8
DANMEN
  6
CONTINUOUS
 10
384.0
 20
111.999994
 30
0.0
 11
388.0
 21
111.999994
 31
0.0
  0
LINE
  5
1A360
  8
DANMEN
  6
CONTINUOUS
 10
385.300895
 20
111.8
 30
0.0
 11
386.500895
 21
111.8
 31
0.0
  0
ARC
  5
1A363
  8
DANMEN
  6
CONTINUOUS
 10
386.75753
 20
113.400136
 30
0.0
 40
0.5
 50
90.0
 51
145.297378
  0
LINE
  5
1A364
  8
DANMEN
  6
CONTINUOUS
 10
382.586879
 20
115.301883
 30
0.0
 11
385.563906
 21
113.098292
 31
0.0
  0
LINE
  5
1A365
  8
DANMEN
  6
CONTINUOUS
 10
386.346471
 20
113.684794
 30
0.0
 11
385.989025
 21
113.168627
 31
0.0
  0
ARC
  5
1A366
  8
DANMEN
  6
CONTINUOUS
 10
385.742389
 20
113.339422
 30
0.0
 40
0.3
 50
233.491208
 51
325.297378
  0
LINE
  5
1A367
  8
DANMEN
  6
CONTINUOUS
 10
387.500895
 20
113.400266
 30
0.0
 11
387.500895
 21
113.400136
 31
0.0
  0
LINE
  5
1A368
  8
DANMEN
  6
CONTINUOUS
 10
387.000895
 20
113.900136
 30
0.0
 11
386.75753
 21
113.900136
 31
0.0
  0
ARC
  5
1A369
  8
DANMEN
  6
CONTINUOUS
 10
387.000895
 20
113.400266
 30
0.0
 40
0.5
 50
325.297378
 51
0.0
  0
ARC
  5
1A36A
  8
DANMEN
  6
CONTINUOUS
 10
387.000895
 20
113.400136
 30
0.0
 40
0.5
 50
0.0
 51
90.0
  0
LINE
  5
1A36D
  8
SUNPO
  6
CONTINUOUS
 10
40.5
 20
39.5
 30
0.0
 11
22.0
 21
39.5
 31
0.0
  0
LINE
  5
1A36E
  8
SUNPO
  6
CONTINUOUS
 10
40.5
 20
59.5
 30
0.0
 11
22.0
 21
59.5
 31
0.0
  0
LINE
  5
1A36F
  8
SUNPO
  6
CONTINUOUS
 10
22.0
 20
39.5
 30
0.0
 11
22.0
 21
59.5
 31
0.0
  0
TEXT
  5
1A370
  8
SUNPO
  6
CONTINUOUS
 10
21.0
 20
34.166667
 30
0.0
 40
2.5
  1
9
 50
90.0
  7
MX_NOTE_STANDARD
  0
ARC
  5
1A371
  8
SUNPO
  6
BYBLOCK
 10
22.0
 20
39.5
 30
0.0
 40
0.145
 50
270.0
 51
90.0
  0
ARC
  5
1A372
  8
SUNPO
  6
BYBLOCK
 10
22.0
 20
39.5
 30
0.0
 40
0.145
 50
90.0
 51
270.0
  0
ARC
  5
1A373
  8
SUNPO
  6
BYBLOCK
 10
22.0
 20
39.5
 30
0.0
 40
0.145
 50
90.0
 51
270.0
  0
ARC
  5
1A374
  8
SUNPO
  6
BYBLOCK
 10
22.0
 20
39.5
 30
0.0
 40
0.145
 50
270.0
 51
90.0
  0
TEXT
  5
1A375
  8
SUNPO
  6
CONTINUOUS
 10
21.0
 20
47.625
 30
0.0
 40
2.5
  1
20
 50
90.0
  7
MX_NOTE_STANDARD
  0
TEXT
  5
1A376
  8
SUNPO
  6
CONTINUOUS
 10
31.0
 20
43.833333
 30
0.0
 40
2.5
  1
12
 50
90.0
  7
MX_NOTE_STANDARD
  0
ARC
  5
1A377
  8
SUNPO
  6
BYBLOCK
 10
22.0
 20
59.5
 30
0.0
 40
0.145
 50
90.0
 51
270.0
  0
ARC
  5
1A378
  8
SUNPO
  6
BYBLOCK
 10
22.0
 20
59.5
 30
0.0
 40
0.145
 50
270.0
 51
90.0
  0
ARC
  5
1A379
  8
SUNPO
  6
BYBLOCK
 10
22.0
 20
59.5
 30
0.0
 40
0.145
 50
270.0
 51
90.0
  0
ARC
  5
1A37A
  8
SUNPO
  6
BYBLOCK
 10
22.0
 20
59.5
 30
0.0
 40
0.145
 50
90.0
 51
270.0
  0
TEXT
  5
1A37B
  8
SUNPO
  6
CONTINUOUS
 10
31.0
 20
54.666667
 30
0.0
 40
2.5
  1
8
 50
90.0
  7
MX_NOTE_STANDARD
  0
TEXT
  5
1A37C
  8
SUNPO
  6
CONTINUOUS
 10
31.0
 20
62.166667
 30
0.0
 40
2.5
  1
7
 50
90.0
  7
MX_NOTE_STANDARD
  0
LINE
  5
1A37D
  8
SUNPO
  6
CONTINUOUS
 10
32.0
 20
51.5
 30
0.0
 11
32.0
 21
59.5
 31
0.0
  0
LINE
  5
1A37E
  8
SUNPO
  6
CONTINUOUS
 10
32.0
 20
51.5
 30
0.0
 11
32.0
 21
39.5
 31
0.0
  0
ARC
  5
1A37F
  8
SUNPO
  6
BYBLOCK
 10
32.0
 20
39.5
 30
0.0
 40
0.145
 50
270.0
 51
90.0
  0
ARC
  5
1A380
  8
SUNPO
  6
BYBLOCK
 10
32.0
 20
39.5
 30
0.0
 40
0.145
 50
90.0
 51
270.0
  0
LINE
  5
1A381
  8
SUNPO
  6
CONTINUOUS
 10
40.5
 20
51.5
 30
0.0
 11
32.0
 21
51.5
 31
0.0
  0
ARC
  5
1A382
  8
SUNPO
  6
BYBLOCK
 10
32.0
 20
51.5
 30
0.0
 40
0.145
 50
90.0
 51
270.0
  0
ARC
  5
1A383
  8
SUNPO
  6
BYBLOCK
 10
32.0
 20
51.5
 30
0.0
 40
0.145
 50
270.0
 51
90.0
  0
ARC
  5
1A384
  8
SUNPO
  6
BYBLOCK
 10
32.0
 20
51.5
 30
0.0
 40
0.145
 50
270.0
 51
90.0
  0
ARC
  5
1A385
  8
SUNPO
  6
BYBLOCK
 10
32.0
 20
51.5
 30
0.0
 40
0.145
 50
90.0
 51
270.0
  0
LINE
  5
1A386
  8
SUNPO
  6
CONTINUOUS
 10
32.0
 20
66.5
 30
0.0
 11
32.0
 21
59.5
 31
0.0
  0
ARC
  5
1A387
  8
SUNPO
  6
BYBLOCK
 10
32.0
 20
59.5
 30
0.0
 40
0.145
 50
90.0
 51
270.0
  0
ARC
  5
1A388
  8
SUNPO
  6
BYBLOCK
 10
32.0
 20
59.5
 30
0.0
 40
0.145
 50
270.0
 51
90.0
  0
ARC
  5
1A389
  8
SUNPO
  6
BYBLOCK
 10
32.0
 20
59.5
 30
0.0
 40
0.145
 50
270.0
 51
90.0
  0
ARC
  5
1A38A
  8
SUNPO
  6
BYBLOCK
 10
32.0
 20
59.5
 30
0.0
 40
0.145
 50
90.0
 51
270.0
  0
LINE
  5
1A38B
  8
SUNPO
  6
CONTINUOUS
 10
40.5
 20
66.5
 30
0.0
 11
32.0
 21
66.5
 31
0.0
  0
ARC
  5
1A38C
  8
SUNPO
  6
BYBLOCK
 10
32.0
 20
66.5
 30
0.0
 40
0.145
 50
90.0
 51
270.0
  0
ARC
  5
1A38D
  8
SUNPO
  6
BYBLOCK
 10
32.0
 20
66.5
 30
0.0
 40
0.145
 50
270.0
 51
90.0
  0
TEXT
  5
1A38E
  8
SUNPO
  6
CONTINUOUS
 10
21.0
 20
104.416667
 30
0.0
 40
2.5
  1
94
 50
90.0
  7
MX_NOTE_STANDARD
  0
LINE
  5
1A38F
  8
SUNPO
  6
CONTINUOUS
 10
213.0
 20
20.0
 30
0.0
 11
188.0
 21
20.0
 31
0.0
  0
LINE
  5
1A390
  8
SUNPO
  6
CONTINUOUS
 10
198.0
 20
40.0
 30
0.0
 11
188.0
 21
40.0
 31
0.0
  0
LINE
  5
1A391
  8
SUNPO
  6
CONTINUOUS
 10
188.0
 20
85.0
 30
0.0
 11
188.0
 21
20.0
 31
0.0
  0
LINE
  5
1A392
  8
SUNPO
  6
CONTINUOUS
 10
163.0
 20
39.5
 30
0.0
 11
163.0
 21
30.5
 31
0.0
  0
ARC
  5
1A393
  8
SUNPO
  6
BYBLOCK
 10
163.0
 20
30.5
 30
0.0
 40
0.145
 50
90.0
 51
270.0
  0
ARC
  5
1A394
  8
SUNPO
  6
BYBLOCK
 10
163.0
 20
30.5
 30
0.0
 40
0.145
 50
270.0
 51
90.0
  0
ARC
  5
1A395
  8
SUNPO
  6
BYBLOCK
 10
188.0
 20
20.0
 30
0.0
 40
0.15625
 50
180.0
 51
0.0
  0
ARC
  5
1A396
  8
SUNPO
  6
BYBLOCK
 10
188.0
 20
20.0
 30
0.0
 40
0.15625
 50
0.0
 51
180.0
  0
LINE
  5
1A397
  8
SUNPO
  6
CONTINUOUS
 10
113.5
 20
39.5
 30
0.0
 11
163.0
 21
39.5
 31
0.0
  0
LINE
  5
1A398
  8
SUNPO
  6
CONTINUOUS
 10
113.5
 20
99.5
 30
0.0
 11
163.0
 21
99.5
 31
0.0
  0
LINE
  5
1A399
  8
SUNPO
  6
CONTINUOUS
 10
113.5
 20
64.5
 30
0.0
 11
153.0
 21
64.5
 31
0.0
  0
LINE
  5
1A39A
  8
SUNPO
  6
CONTINUOUS
 10
83.5
 20
114.290488
 30
0.0
 11
98.5
 21
114.290488
 31
0.0
  0
ARC
  5
1A39B
  8
SUNPO
  6
BYBLOCK
 10
81.0
 20
114.290488
 30
0.0
 40
0.145
 50
180.0
 51
0.0
  0
ARC
  5
1A39C
  8
SUNPO
  6
BYBLOCK
 10
81.0
 20
114.290488
 30
0.0
 40
0.145
 50
0.0
 51
180.0
  0
LINE
  5
1A39D
  8
SUNPO
  6
CONTINUOUS
 10
81.0
 20
114.290488
 30
0.0
 11
71.68
 21
114.290488
 31
0.0
  0
TEXT
  5
1A39E
  8
SUNPO
  6
CONTINUOUS
 10
72.68
 20
115.290488
 30
0.0
 40
2.5
  1
2.5
  7
MX_NOTE_STANDARD
  0
LINE
  5
1A39F
  8
SUNPO
  6
CONTINUOUS
 10
83.5
 20
101.0
 30
0.0
 11
83.5
 21
114.290488
 31
0.0
  0
LINE
  5
1A3A0
  8
SUNPO
  6
CONTINUOUS
 10
81.0
 20
101.0
 30
0.0
 11
81.0
 21
114.290488
 31
0.0
  0
LINE
  5
1A3A1
  8
SUNPO
  6
CONTINUOUS
 10
83.5
 20
101.0
 30
0.0
 11
83.5
 21
114.290488
 31
0.0
  0
ARC
  5
1A3A2
  8
SUNPO
  6
BYBLOCK
 10
83.5
 20
114.290488
 30
0.0
 40
0.145
 50
0.0
 51
180.0
  0
ARC
  5
1A3A3
  8
SUNPO
  6
BYBLOCK
 10
83.5
 20
114.290488
 30
0.0
 40
0.145
 50
180.0
 51
0.0
  0
ARC
  5
1A3A4
  8
SUNPO
  6
BYBLOCK
 10
83.5
 20
114.290488
 30
0.0
 40
0.145
 50
180.0
 51
0.0
  0
ARC
  5
1A3A5
  8
SUNPO
  6
BYBLOCK
 10
83.5
 20
114.290488
 30
0.0
 40
0.145
 50
0.0
 51
180.0
  0
LINE
  5
1A3A6
  8
SUNPO
  6
CONTINUOUS
 10
83.5
 20
114.290488
 30
0.0
 11
81.0
 21
114.290488
 31
0.0
  0
TEXT
  5
1A3A7
  8
SUNPO
  6
CONTINUOUS
 10
89.333333
 20
115.290488
 30
0.0
 40
2.5
  1
15
  7
MX_NOTE_STANDARD
  0
LINE
  5
1A3A8
  8
SUNPO
  6
CONTINUOUS
 10
101.0
 20
101.0
 30
0.0
 11
101.0
 21
114.290488
 31
0.0
  0
LINE
  5
1A3A9
  8
SUNPO
  6
CONTINUOUS
 10
98.5
 20
101.0
 30
0.0
 11
98.5
 21
114.290488
 31
0.0
  0
LINE
  5
1A3AA
  8
SUNPO
  6
CONTINUOUS
 10
98.5
 20
101.0
 30
0.0
 11
98.5
 21
114.290488
 31
0.0
  0
TEXT
  5
1A3AB
  8
SUNPO
  6
CONTINUOUS
 10
104.32
 20
115.290488
 30
0.0
 40
2.5
  1
2.5
  7
MX_NOTE_STANDARD
  0
LINE
  5
1A3AC
  8
SUNPO
  6
CONTINUOUS
 10
101.0
 20
114.290488
 30
0.0
 11
110.32
 21
114.290488
 31
0.0
  0
ARC
  5
1A3AD
  8
SUNPO
  6
BYBLOCK
 10
101.0
 20
114.290488
 30
0.0
 40
0.145
 50
0.0
 51
180.0
  0
ARC
  5
1A3AE
  8
SUNPO
  6
BYBLOCK
 10
101.0
 20
114.290488
 30
0.0
 40
0.145
 50
180.0
 51
0.0
  0
ARC
  5
1A3AF
  8
SUNPO
  6
BYBLOCK
 10
98.5
 20
114.290488
 30
0.0
 40
0.145
 50
180.0
 51
0.0
  0
ARC
  5
1A3B0
  8
SUNPO
  6
BYBLOCK
 10
98.5
 20
114.290488
 30
0.0
 40
0.145
 50
0.0
 51
180.0
  0
ARC
  5
1A3B1
  8
SUNPO
  6
BYBLOCK
 10
98.5
 20
114.290488
 30
0.0
 40
0.145
 50
0.0
 51
180.0
  0
ARC
  5
1A3B2
  8
SUNPO
  6
BYBLOCK
 10
98.5
 20
114.290488
 30
0.0
 40
0.145
 50
180.0
 51
0.0
  0
LINE
  5
1A3B3
  8
SUNPO
  6
CONTINUOUS
 10
98.5
 20
114.290488
 30
0.0
 11
101.0
 21
114.290488
 31
0.0
  0
LINE
  5
1A3B4
  8
SUNPO
  6
CONTINUOUS
 10
163.0
 20
99.5
 30
0.0
 11
163.0
 21
39.5
 31
0.0
  0
LINE
  5
1A3B5
  8
SUNPO
  6
CONTINUOUS
 10
153.0
 20
99.5
 30
0.0
 11
153.0
 21
64.5
 31
0.0
  0
ARC
  5
1A3B6
  8
SUNPO
  6
BYBLOCK
 10
163.0
 20
39.5
 30
0.0
 40
0.15625
 50
90.0
 51
270.0
  0
ARC
  5
1A3B7
  8
SUNPO
  6
BYBLOCK
 10
163.0
 20
39.5
 30
0.0
 40
0.145
 50
90.0
 51
270.0
  0
LINE
  5
1A3B8
  8
SUNPO
  6
CONTINUOUS
 10
153.0
 20
64.5
 30
0.0
 11
153.0
 21
39.5
 31
0.0
  0
ARC
  5
1A3B9
  8
SUNPO
  6
BYBLOCK
 10
153.0
 20
39.5
 30
0.0
 40
0.145
 50
270.0
 51
90.0
  0
ARC
  5
1A3BA
  8
SUNPO
  6
BYBLOCK
 10
153.0
 20
39.5
 30
0.0
 40
0.145
 50
90.0
 51
270.0
  0
TEXT
  5
1A3BB
  8
SUNPO
  6
CONTINUOUS
 10
162.0
 20
34.166667
 30
0.0
 40
2.5
  1
9
 50
90.0
  7
MX_NOTE_STANDARD
  0
TEXT
  5
1A3BC
  8
SUNPO
  6
CONTINUOUS
 10
152.0
 20
49.916667
 30
0.0
 40
2.5
  1
25
 50
90.0
  7
MX_NOTE_STANDARD
  0
ARC
  5
1A3BD
  8
SUNPO
  6
BYBLOCK
 10
153.0
 20
64.5
 30
0.0
 40
0.145
 50
90.0
 51
270.0
  0
ARC
  5
1A3BE
  8
SUNPO
  6
BYBLOCK
 10
153.0
 20
64.5
 30
0.0
 40
0.145
 50
270.0
 51
90.0
  0
ARC
  5
1A3BF
  8
SUNPO
  6
BYBLOCK
 10
153.0
 20
64.5
 30
0.0
 40
0.145
 50
270.0
 51
90.0
  0
ARC
  5
1A3C0
  8
SUNPO
  6
BYBLOCK
 10
153.0
 20
64.5
 30
0.0
 40
0.145
 50
90.0
 51
270.0
  0
TEXT
  5
1A3C1
  8
SUNPO
  6
CONTINUOUS
 10
162.0
 20
67.625
 30
0.0
 40
2.5
  1
60
 50
90.0
  7
MX_NOTE_STANDARD
  0
ARC
  5
1A3C2
  8
SUNPO
  6
BYBLOCK
 10
163.0
 20
39.5
 30
0.0
 40
0.15625
 50
270.0
 51
90.0
  0
ARC
  5
1A3C3
  8
SUNPO
  6
BYBLOCK
 10
163.0
 20
39.5
 30
0.0
 40
0.145
 50
270.0
 51
90.0
  0
TEXT
  5
1A3C4
  8
SUNPO
  6
CONTINUOUS
 10
191.541667
 20
41.0
 30
0.0
 40
2.5
  1
10
  7
MX_NOTE_STANDARD
  0
ARC
  5
1A3C5
  8
SUNPO
  6
BYBLOCK
 10
188.0
 20
40.0
 30
0.0
 40
0.145
 50
180.0
 51
0.0
  0
ARC
  5
1A3C6
  8
SUNPO
  6
BYBLOCK
 10
188.0
 20
40.0
 30
0.0
 40
0.145
 50
0.0
 51
180.0
  0
LINE
  5
1A3C7
  8
SUNPO
  6
CONTINUOUS
 10
163.0
 20
99.5
 30
0.0
 11
158.0
 21
104.5
 31
0.0
  0
LINE
  5
1A3C8
  8
SUNPO
  6
CONTINUOUS
 10
158.0
 20
104.5
 30
0.0
 11
168.0
 21
104.5
 31
0.0
  0
TEXT
  5
1A3C9
  8
SUNPO
  6
CONTINUOUS
 10
152.0
 20
79.916667
 30
0.0
 40
2.5
  1
35
 50
90.0
  7
MX_NOTE_STANDARD
  0
ARC
  5
1A3CA
  8
SUNPO
  6
BYBLOCK
 10
153.0
 20
99.5
 30
0.0
 40
0.145
 50
90.0
 51
270.0
  0
ARC
  5
1A3CB
  8
SUNPO
  6
BYBLOCK
 10
153.0
 20
99.5
 30
0.0
 40
0.145
 50
270.0
 51
90.0
  0
ARC
  5
1A3CC
  8
SUNPO
  6
BYBLOCK
 10
153.0
 20
99.5
 30
0.0
 40
0.145
 50
270.0
 51
90.0
  0
ARC
  5
1A3CD
  8
SUNPO
  6
BYBLOCK
 10
153.0
 20
99.5
 30
0.0
 40
0.145
 50
90.0
 51
270.0
  0
LINE
  5
1A3CF
  8
SUNPO
  6
CONTINUOUS
 10
168.0
 20
104.5
 30
0.0
 11
163.0
 21
99.5
 31
0.0
  0
LINE
  5
1A3D2
  8
SUNPO
  6
CONTINUOUS
 10
222.111405
 20
35.31628
 30
0.0
 11
223.267949
 21
31.0
 31
0.0
  0
LINE
  5
1A3D3
  8
SUNPO
  6
CONTINUOUS
 10
273.0
 20
32.0
 30
0.0
 11
263.888595
 21
28.68372
 31
0.0
  0
LINE
  5
1A3D4
  8
SUNPO
  6
CONTINUOUS
 10
263.888595
 20
28.68372
 30
0.0
 11
262.732051
 21
33.0
 31
0.0
  0
LINE
  5
1A3D5
  8
SUNPO
  6
CONTINUOUS
 10
322.111405
 20
35.31628
 30
0.0
 11
323.267949
 21
31.0
 31
0.0
  0
LINE
  5
1A3D6
  8
SUNPO
  6
CONTINUOUS
 10
213.0
 20
85.0
 30
0.0
 11
213.0
 21
20.0
 31
0.0
  0
LINE
  5
1A3D7
  8
SUNPO
  6
CONTINUOUS
 10
213.0
 20
20.0
 30
0.0
 11
278.282836
 21
20.0
 31
0.0
  0
TEXT
  5
1A3D8
  8
SUNPO
  6
CONTINUOUS
 10
198.416667
 20
21.0
 30
0.0
 40
2.5
  1
25
  7
MX_NOTE_STANDARD
  0
LINE
  5
1A3D9
  8
SUNPO
  6
CONTINUOUS
 10
218.0
 20
15.0
 30
0.0
 11
213.0
 21
20.0
 31
0.0
  0
LINE
  5
1A3DA
  8
SUNPO
  6
CONTINUOUS
 10
218.0
 20
25.0
 30
0.0
 11
218.0
 21
15.0
 31
0.0
  0
LINE
  5
1A3DC
  8
SUNPO
  6
CONTINUOUS
 10
213.0
 20
20.0
 30
0.0
 11
218.0
 21
25.0
 31
0.0
  0
LINE
  5
1A3DF
  8
SUNPO
  6
CONTINUOUS
 10
295.11431
 20
16.5
 30
0.0
 11
291.536562
 21
16.5
 31
0.0
  0
LINE
  5
1A3E0
  8
SUNPO
  6
CONTINUOUS
 10
294.536959
 20
16.500004
 30
0.0
 11
290.495515
 21
23.499997
 31
0.0
  0
LINE
  5
1A3E1
  8
SUNPO
  6
CONTINUOUS
 10
295.495805
 20
23.5
 30
0.0
 11
293.459285
 21
23.5
 31
0.0
  0
LINE
  5
1A3E3
  8
SUNPO
  6
CONTINUOUS
 10
285.876776
 20
16.500001
 30
0.0
 11
281.835331
 21
23.499997
 31
0.0
  0
LINE
  5
1A3E4
  8
SUNPO
  6
CONTINUOUS
 10
288.186114
 20
16.5
 30
0.0
 11
284.144668
 21
23.499997
 31
0.0
  0
LINE
  5
1A3E5
  8
SUNPO
  6
CONTINUOUS
 10
292.22756
 20
16.500001
 30
0.0
 11
288.186114
 21
23.499998
 31
0.0
  0
LINE
  5
1A3E6
  8
SUNPO
  6
CONTINUOUS
 10
288.186113
 20
23.5
 30
0.0
 11
288.186113
 21
16.500001
 31
0.0
  0
LINE
  5
1A3E7
  8
SUNPO
  6
CONTINUOUS
 10
289.186113
 20
16.5
 30
0.0
 11
284.708582
 21
16.5
 31
0.0
  0
LINE
  5
1A3E8
  8
SUNPO
  6
CONTINUOUS
 10
285.10634
 20
23.5
 30
0.0
 11
280.73099
 21
23.5
 31
0.0
  0
LINE
  5
1A3E9
  8
SUNPO
  6
CONTINUOUS
 10
291.495514
 20
23.5
 30
0.0
 11
287.186113
 21
23.5
 31
0.0
  0
LINE
  5
1A3EB
  8
SUNPO
  6
CONTINUOUS
 10
294.536961
 20
23.5
 30
0.0
 11
294.536961
 21
16.500003
 31
0.0
  0
LINE
  5
1A3EC
  8
SUNPO
  6
CONTINUOUS
 10
303.26901
 20
18.5
 30
0.0
 11
298.26901
 21
18.5
 31
0.0
  0
LINE
  5
1A3ED
  8
SUNPO
  6
CONTINUOUS
 10
303.26901
 20
21.5
 30
0.0
 11
298.26901
 21
21.5
 31
0.0
  0
LINE
  5
1A3EF
  8
SUNPO
  6
CONTINUOUS
 10
273.0
 20
32.0
 30
0.0
 11
213.0
 21
32.0
 31
0.0
  0
LINE
  5
1A3F0
  8
SUNPO
  6
CONTINUOUS
 10
198.0
 20
85.0
 30
0.0
 11
198.0
 21
40.0
 31
0.0
  0
LINE
  5
1A3F1
  8
SUNPO
  6
CONTINUOUS
 10
251.0
 20
85.0
 30
0.0
 11
251.0
 21
40.0
 31
0.0
  0
LINE
  5
1A3F2
  8
SUNPO
  6
CONTINUOUS
 10
251.0
 20
40.0
 30
0.0
 11
213.0
 21
40.0
 31
0.0
  0
LINE
  5
1A3F3
  8
SUNPO
  6
CONTINUOUS
 10
213.0
 20
40.0
 30
0.0
 11
198.0
 21
40.0
 31
0.0
  0
TEXT
  5
1A3F4
  8
SUNPO
  6
CONTINUOUS
 10
203.833333
 20
41.0
 30
0.0
 40
2.5
  1
15
  7
MX_NOTE_STANDARD
  0
ARC
  5
1A3F5
  8
SUNPO
  6
BYBLOCK
 10
198.0
 20
40.0
 30
0.0
 40
0.145
 50
180.0
 51
0.0
  0
ARC
  5
1A3F6
  8
SUNPO
  6
BYBLOCK
 10
198.0
 20
40.0
 30
0.0
 40
0.145
 50
0.0
 51
180.0
  0
ARC
  5
1A3F7
  8
SUNPO
  6
BYBLOCK
 10
198.0
 20
40.0
 30
0.0
 40
0.145
 50
0.0
 51
180.0
  0
ARC
  5
1A3F8
  8
SUNPO
  6
BYBLOCK
 10
198.0
 20
40.0
 30
0.0
 40
0.145
 50
180.0
 51
0.0
  0
LINE
  5
1A3F9
  8
SUNPO
  6
CONTINUOUS
 10
213.0
 20
32.0
 30
0.0
 11
222.111405
 21
35.31628
 31
0.0
  0
ARC
  5
1A3FB
  8
SUNPO
  6
BYBLOCK
 10
213.0
 20
40.0
 30
0.0
 40
0.145
 50
0.0
 51
180.0
  0
ARC
  5
1A3FC
  8
SUNPO
  6
BYBLOCK
 10
213.0
 20
40.0
 30
0.0
 40
0.145
 50
180.0
 51
0.0
  0
ARC
  5
1A3FD
  8
SUNPO
  6
BYBLOCK
 10
213.0
 20
40.0
 30
0.0
 40
0.145
 50
180.0
 51
0.0
  0
ARC
  5
1A3FE
  8
SUNPO
  6
BYBLOCK
 10
213.0
 20
40.0
 30
0.0
 40
0.145
 50
0.0
 51
180.0
  0
TEXT
  5
1A402
  8
SUNPO
  6
CONTINUOUS
 10
229.916667
 20
41.0
 30
0.0
 40
2.5
  1
38
  7
MX_NOTE_STANDARD
  0
TEXT
  5
1A403
  8
SUNPO
  6
CONTINUOUS
 10
246.007473
 20
33.048402
 30
0.0
 40
2.0
  1
2
  7
MX_NOTE_STANDARD
  0
ARC
  5
1A404
  8
SUNPO
  6
BYBLOCK
 10
251.0
 20
40.0
 30
0.0
 40
0.145
 50
0.0
 51
180.0
  0
ARC
  5
1A405
  8
SUNPO
  6
BYBLOCK
 10
251.0
 20
40.0
 30
0.0
 40
0.145
 50
180.0
 51
0.0
  0
ARC
  5
1A406
  8
SUNPO
  6
BYBLOCK
 10
254.5
 20
86.5
 30
0.0
 40
0.145
 50
270.0
 51
90.0
  0
ARC
  5
1A407
  8
SUNPO
  6
BYBLOCK
 10
254.5
 20
86.5
 30
0.0
 40
0.145
 50
90.0
 51
270.0
  0
TEXT
  5
1A408
  8
SUNPO
  6
CONTINUOUS
 10
253.5
 20
116.985291
 30
0.0
 40
2.5
  1
70
 50
90.0
  7
MX_NOTE_STANDARD
  0
TEXT
  5
1A409
  8
SUNPO
  6
CONTINUOUS
 10
291.125
 20
33.0
 30
0.0
 40
2.5
  1
40
  7
MX_NOTE_STANDARD
  0
LINE
  5
1A40A
  8
SUNPO
  6
CONTINUOUS
 10
313.0
 20
32.0
 30
0.0
 11
273.0
 21
32.0
 31
0.0
  0
LINE
  5
1A40B
  8
SUNPO
  6
CONTINUOUS
 10
273.0
 20
57.0
 30
0.0
 11
273.0
 21
32.0
 31
0.0
  0
LINE
  5
1A40E
  8
SUNPO
  6
CONTINUOUS
 10
313.0
 20
57.0
 30
0.0
 11
313.0
 21
32.0
 31
0.0
  0
LINE
  5
1A40F
  8
SUNPO
  6
CONTINUOUS
 10
313.0
 20
32.0
 30
0.0
 11
322.111405
 21
35.31628
 31
0.0
  0
LINE
  5
1A413
  8
SUNPO
  6
CONTINUOUS
 10
373.0
 20
85.0
 30
0.0
 11
373.0
 21
20.0
 31
0.0
  0
LINE
  5
1A414
  8
SUNPO
  6
CONTINUOUS
 10
398.0
 20
85.5
 30
0.0
 11
398.0
 21
20.0
 31
0.0
  0
LINE
  5
1A415
  8
SUNPO
  6
CONTINUOUS
 10
373.0
 20
32.0
 30
0.0
 11
363.888595
 21
28.68372
 31
0.0
  0
LINE
  5
1A416
  8
SUNPO
  6
CONTINUOUS
 10
363.888595
 20
28.68372
 30
0.0
 11
362.732051
 21
33.0
 31
0.0
  0
LINE
  5
1A417
  8
SUNPO
  6
CONTINUOUS
 10
398.0
 20
20.0
 30
0.0
 11
373.0
 21
20.0
 31
0.0
  0
LINE
  5
1A418
  8
SUNPO
  6
CONTINUOUS
 10
373.0
 20
20.0
 30
0.0
 11
368.0
 21
15.0
 31
0.0
  0
LINE
  5
1A419
  8
SUNPO
  6
CONTINUOUS
 10
368.0
 20
15.0
 30
0.0
 11
368.0
 21
25.0
 31
0.0
  0
LINE
  5
1A41B
  8
SUNPO
  6
CONTINUOUS
 10
368.0
 20
25.0
 30
0.0
 11
373.0
 21
20.0
 31
0.0
  0
TEXT
  5
1A41F
  8
SUNPO
  6
CONTINUOUS
 10
383.416667
 20
21.0
 30
0.0
 40
2.5
  1
25
  7
MX_NOTE_STANDARD
  0
ARC
  5
1A420
  8
SUNPO
  6
BYBLOCK
 10
398.0
 20
20.0
 30
0.0
 40
0.145
 50
0.0
 51
180.0
  0
ARC
  5
1A421
  8
SUNPO
  6
BYBLOCK
 10
398.0
 20
20.0
 30
0.0
 40
0.145
 50
180.0
 51
0.0
  0
TEXT
  5
1A422
  8
SUNPO
  6
CONTINUOUS
 10
391.541667
 20
41.0
 30
0.0
 40
2.5
  1
10
  7
MX_NOTE_STANDARD
  0
LINE
  5
1A423
  8
SUNPO
  6
CONTINUOUS
 10
388.0
 20
40.0
 30
0.0
 11
398.0
 21
40.0
 31
0.0
  0
LINE
  5
1A424
  8
SUNPO
  6
CONTINUOUS
 10
363.0
 20
85.0
 30
0.0
 11
363.0
 21
40.0
 31
0.0
  0
LINE
  5
1A425
  8
SUNPO
  6
CONTINUOUS
 10
388.0
 20
85.0
 30
0.0
 11
388.0
 21
40.0
 31
0.0
  0
LINE
  5
1A426
  8
SUNPO
  6
CONTINUOUS
 10
330.0
 20
86.5
 30
0.0
 11
330.0
 21
58.5
 31
0.0
  0
TEXT
  5
1A428
  8
SUNPO
  6
CONTINUOUS
 10
346.372796
 20
32.984156
 30
0.0
 40
2.0
  1
1
 41
1.5
  7
MX_NOTE_STANDARD
  0
ARC
  5
1A429
  8
SUNPO
  6
BYBLOCK
 10
330.0
 20
58.5
 30
0.0
 40
0.145
 50
270.0
 51
90.0
  0
ARC
  5
1A42A
  8
SUNPO
  6
BYBLOCK
 10
330.0
 20
58.5
 30
0.0
 40
0.145
 50
90.0
 51
270.0
  0
LINE
  5
1A42B
  8
SUNPO
  6
CONTINUOUS
 10
388.0
 20
40.0
 30
0.0
 11
373.0
 21
40.0
 31
0.0
  0
TEXT
  5
1A42C
  8
SUNPO
  6
CONTINUOUS
 10
366.541667
 20
41.0
 30
0.0
 40
2.5
  1
10
  7
MX_NOTE_STANDARD
  0
LINE
  5
1A42D
  8
SUNPO
  6
CONTINUOUS
 10
373.0
 20
40.0
 30
0.0
 11
363.0
 21
40.0
 31
0.0
  0
ARC
  5
1A42F
  8
SUNPO
  6
BYBLOCK
 10
363.0
 20
40.0
 30
0.0
 40
0.145
 50
180.0
 51
0.0
  0
ARC
  5
1A430
  8
SUNPO
  6
BYBLOCK
 10
363.0
 20
40.0
 30
0.0
 40
0.145
 50
0.0
 51
180.0
  0
ARC
  5
1A432
  8
SUNPO
  6
BYBLOCK
 10
373.0
 20
40.0
 30
0.0
 40
0.145
 50
0.0
 51
180.0
  0
ARC
  5
1A433
  8
SUNPO
  6
BYBLOCK
 10
373.0
 20
40.0
 30
0.0
 40
0.145
 50
180.0
 51
0.0
  0
ARC
  5
1A434
  8
SUNPO
  6
BYBLOCK
 10
373.0
 20
40.0
 30
0.0
 40
0.145
 50
180.0
 51
0.0
  0
ARC
  5
1A435
  8
SUNPO
  6
BYBLOCK
 10
373.0
 20
40.0
 30
0.0
 40
0.145
 50
0.0
 51
180.0
  0
TEXT
  5
1A436
  8
SUNPO
  6
CONTINUOUS
 10
378.833333
 20
41.0
 30
0.0
 40
2.5
  1
15
  7
MX_NOTE_STANDARD
  0
ARC
  5
1A437
  8
SUNPO
  6
BYBLOCK
 10
388.0
 20
40.0
 30
0.0
 40
0.145
 50
0.0
 51
180.0
  0
ARC
  5
1A438
  8
SUNPO
  6
BYBLOCK
 10
388.0
 20
40.0
 30
0.0
 40
0.145
 50
180.0
 51
0.0
  0
ARC
  5
1A439
  8
SUNPO
  6
BYBLOCK
 10
388.0
 20
40.0
 30
0.0
 40
0.145
 50
180.0
 51
0.0
  0
ARC
  5
1A43A
  8
SUNPO
  6
BYBLOCK
 10
388.0
 20
40.0
 30
0.0
 40
0.145
 50
0.0
 51
180.0
  0
LINE
  5
1A43B
  8
SUNPO
  6
CONTINUOUS
 10
361.5
 20
100.0
 30
0.0
 11
350.577611
 21
100.0
 31
0.0
  0
LINE
  5
1A43C
  8
SUNPO
  6
CONTINUOUS
 10
361.5
 20
97.5
 30
0.0
 11
350.577611
 21
97.5
 31
0.0
  0
LINE
  5
1A43D
  8
SUNPO
  6
CONTINUOUS
 10
361.5
 20
115.0
 30
0.0
 11
350.577611
 21
115.0
 31
0.0
  0
LINE
  5
1A43E
  8
SUNPO
  6
CONTINUOUS
 10
361.5
 20
100.0
 30
0.0
 11
350.577611
 21
100.0
 31
0.0
  0
LINE
  5
1A43F
  8
SUNPO
  6
CONTINUOUS
 10
361.5
 20
117.5
 30
0.0
 11
350.577611
 21
117.5
 31
0.0
  0
LINE
  5
1A440
  8
SUNPO
  6
CONTINUOUS
 10
361.5
 20
115.0
 30
0.0
 11
350.577611
 21
115.0
 31
0.0
  0
LINE
  5
1A441
  8
SUNPO
  6
CONTINUOUS
 10
350.577611
 20
100.0
 30
0.0
 11
350.577611
 21
115.0
 31
0.0
  0
LINE
  5
1A442
  8
SUNPO
  6
CONTINUOUS
 10
330.0
 20
117.5
 30
0.0
 11
330.0
 21
86.5
 31
0.0
  0
ARC
  5
1A443
  8
SUNPO
  6
BYBLOCK
 10
330.0
 20
86.5
 30
0.0
 40
0.145
 50
90.0
 51
270.0
  0
ARC
  5
1A444
  8
SUNPO
  6
BYBLOCK
 10
330.0
 20
86.5
 30
0.0
 40
0.145
 50
270.0
 51
90.0
  0
ARC
  5
1A445
  8
SUNPO
  6
BYBLOCK
 10
330.0
 20
86.5
 30
0.0
 40
0.145
 50
270.0
 51
90.0
  0
ARC
  5
1A446
  8
SUNPO
  6
BYBLOCK
 10
330.0
 20
86.5
 30
0.0
 40
0.145
 50
90.0
 51
270.0
  0
TEXT
  5
1A447
  8
SUNPO
  6
CONTINUOUS
 10
349.577611
 20
89.18
 30
0.0
 40
2.5
  1
2.5
 50
90.0
  7
MX_NOTE_STANDARD
  0
LINE
  5
1A448
  8
SUNPO
  6
CONTINUOUS
 10
350.577611
 20
97.5
 30
0.0
 11
350.577611
 21
88.18
 31
0.0
  0
ARC
  5
1A449
  8
SUNPO
  6
BYBLOCK
 10
350.577611
 20
97.5
 30
0.0
 40
0.145
 50
270.0
 51
90.0
  0
ARC
  5
1A44A
  8
SUNPO
  6
BYBLOCK
 10
350.577611
 20
97.5
 30
0.0
 40
0.145
 50
90.0
 51
270.0
  0
ARC
  5
1A44B
  8
SUNPO
  6
BYBLOCK
 10
350.577611
 20
100.0
 30
0.0
 40
0.145
 50
90.0
 51
270.0
  0
ARC
  5
1A44C
  8
SUNPO
  6
BYBLOCK
 10
350.577611
 20
100.0
 30
0.0
 40
0.145
 50
270.0
 51
90.0
  0
ARC
  5
1A44D
  8
SUNPO
  6
BYBLOCK
 10
350.577611
 20
100.0
 30
0.0
 40
0.145
 50
270.0
 51
90.0
  0
ARC
  5
1A44E
  8
SUNPO
  6
BYBLOCK
 10
350.577611
 20
100.0
 30
0.0
 40
0.145
 50
90.0
 51
270.0
  0
LINE
  5
1A44F
  8
SUNPO
  6
CONTINUOUS
 10
350.577611
 20
100.0
 30
0.0
 11
350.577611
 21
97.5
 31
0.0
  0
ARC
  5
1A450
  8
SUNPO
  6
BYBLOCK
 10
330.0
 20
117.5
 30
0.0
 40
0.145
 50
90.0
 51
270.0
  0
ARC
  5
1A451
  8
SUNPO
  6
BYBLOCK
 10
330.0
 20
117.5
 30
0.0
 40
0.145
 50
270.0
 51
90.0
  0
ARC
  5
1A452
  8
SUNPO
  6
BYBLOCK
 10
330.0
 20
117.5
 30
0.0
 40
0.145
 50
270.0
 51
90.0
  0
ARC
  5
1A453
  8
SUNPO
  6
BYBLOCK
 10
330.0
 20
117.5
 30
0.0
 40
0.145
 50
90.0
 51
270.0
  0
TEXT
  5
1A454
  8
SUNPO
  6
CONTINUOUS
 10
349.577611
 20
105.833333
 30
0.0
 40
2.5
  1
15
 50
90.0
  7
MX_NOTE_STANDARD
  0
ARC
  5
1A455
  8
SUNPO
  6
BYBLOCK
 10
350.577611
 20
115.0
 30
0.0
 40
0.145
 50
90.0
 51
270.0
  0
ARC
  5
1A456
  8
SUNPO
  6
BYBLOCK
 10
350.577611
 20
115.0
 30
0.0
 40
0.145
 50
270.0
 51
90.0
  0
ARC
  5
1A457
  8
SUNPO
  6
BYBLOCK
 10
350.577611
 20
117.5
 30
0.0
 40
0.145
 50
90.0
 51
270.0
  0
ARC
  5
1A458
  8
SUNPO
  6
BYBLOCK
 10
350.577611
 20
117.5
 30
0.0
 40
0.145
 50
270.0
 51
90.0
  0
ARC
  5
1A459
  8
SUNPO
  6
BYBLOCK
 10
350.577611
 20
115.0
 30
0.0
 40
0.145
 50
270.0
 51
90.0
  0
ARC
  5
1A45A
  8
SUNPO
  6
BYBLOCK
 10
350.577611
 20
115.0
 30
0.0
 40
0.145
 50
90.0
 51
270.0
  0
LINE
  5
1A45B
  8
SUNPO
  6
CONTINUOUS
 10
350.577611
 20
115.0
 30
0.0
 11
350.577611
 21
117.5
 31
0.0
  0
ARC
  5
1A45C
  8
SUNPO
  6
BYBLOCK
 10
398.0
 20
40.0
 30
0.0
 40
0.145
 50
0.0
 51
180.0
  0
ARC
  5
1A45D
  8
SUNPO
  6
BYBLOCK
 10
398.0
 20
40.0
 30
0.0
 40
0.145
 50
180.0
 51
0.0
  0
TEXT
  5
1A45E
  8
SUNPO
  6
CONTINUOUS
 10
329.0
 20
152.166667
 30
0.0
 40
2.5
  1
7
 50
90.0
  7
MX_NOTE_STANDARD
  0
TEXT
  5
1A45F
  8
SUNPO
  6
CONTINUOUS
 10
329.0
 20
135.416667
 30
0.0
 40
2.5
  1
24
 50
90.0
  7
MX_NOTE_STANDARD
  0
LINE
  5
1A460
  8
SUNPO
  6
CONTINUOUS
 10
314.350012
 20
125.5
 30
0.0
 11
330.0
 21
125.5
 31
0.0
  0
LINE
  5
1A461
  8
SUNPO
  6
CONTINUOUS
 10
42.0
 20
178.5
 30
0.0
 11
112.0
 21
178.5
 31
0.0
  0
LINE
  5
1A462
  8
SUNPO
  6
CONTINUOUS
 10
73.0
 20
168.5
 30
0.0
 11
49.0
 21
168.5
 31
0.0
  0
LINE
  5
1A463
  8
DANMEN
  6
CONTINUOUS
 10
263.5
 20
155.300003
 30
0.0
 11
336.5
 21
155.300003
 31
0.0
  0
LINE
  5
1A464
  8
DANMEN
  6
CONTINUOUS
 10
263.5
 20
158.300003
 30
0.0
 11
336.5
 21
158.300003
 31
0.0
  0
LINE
  5
1A465
  8
DANMEN
  6
CONTINUOUS
 10
263.5
 20
159.5
 30
0.0
 11
336.5
 21
159.5
 31
0.0
  0
LINE
  5
1A466
  8
DANMEN
  6
CONTINUOUS
 10
313.0
 20
136.0
 30
0.0
 11
336.5
 21
136.0
 31
0.0
  0
LINE
  5
1A467
  8
DANMEN
  6
CONTINUOUS
 10
313.0
 20
139.0
 30
0.0
 11
336.5
 21
139.0
 31
0.0
  0
LINE
  5
1A468
  8
DANMEN
  6
CONTINUOUS
 10
263.500003
 20
149.5
 30
0.0
 11
336.5
 21
149.5
 31
0.0
  0
LINE
  5
1A469
  8
DANMEN
  6
CONTINUOUS
 10
263.5
 20
127.7
 30
0.0
 11
273.0
 21
127.7
 31
0.0
  0
LINE
  5
1A46A
  8
DANMEN
  6
CONTINUOUS
 10
263.5
 20
147.3
 30
0.0
 11
273.0
 21
147.3
 31
0.0
  0
LINE
  5
1A46B
  8
DANMEN
  6
CONTINUOUS
 10
263.5
 20
145.5
 30
0.0
 11
273.0
 21
145.5
 31
0.0
  0
LINE
  5
1A46C
  8
DANMEN
  6
CONTINUOUS
 10
263.5
 20
129.5
 30
0.0
 11
273.0
 21
129.5
 31
0.0
  0
LINE
  5
1A46D
  8
DANMEN
  6
CONTINUOUS
 10
263.5
 20
125.5
 30
0.0
 11
273.0
 21
125.5
 31
0.0
  0
LINE
  5
1A46E
  8
DANMEN
  6
CONTINUOUS
 10
280.000018
 20
140.000009
 30
0.0
 11
263.500003
 21
140.000009
 31
0.0
  0
LINE
  5
1A46F
  8
DANMEN
  6
CONTINUOUS
 10
280.000018
 20
135.000021
 30
0.0
 11
263.500003
 21
135.000021
 31
0.0
  0
LINE
  5
1A470
  8
DANMEN
  6
CONTINUOUS
 10
280.000018
 20
139.500009
 30
0.0
 11
263.500003
 21
139.500009
 31
0.0
  0
LINE
  5
1A471
  8
DANMEN
  6
CONTINUOUS
 10
280.000018
 20
135.500021
 30
0.0
 11
263.500003
 21
135.500021
 31
0.0
  0
LINE
  5
1A472
  8
DANMEN
  6
CONTINUOUS
 10
237.399994
 20
158.300003
 30
0.0
 11
233.0
 21
158.300003
 31
0.0
  0
LINE
  5
1A473
  8
DANMEN
  6
CONTINUOUS
 10
237.399994
 20
159.5
 30
0.0
 11
233.0
 21
159.5
 31
0.0
  0
LINE
  5
1A474
  8
DANMEN
  6
CONTINUOUS
 10
228.538906
 20
149.5
 30
0.0
 11
250.500002
 21
149.5
 31
0.0
  0
LINE
  5
1A475
  8
DANMEN
  6
CONTINUOUS
 10
228.538911
 20
125.5
 30
0.0
 11
250.500002
 21
125.5
 31
0.0
  0
LINE
  5
1A476
  8
DANMEN
  6
CONTINUOUS
 10
229.949983
 20
147.550003
 30
0.0
 11
238.049989
 21
147.550003
 31
0.0
  0
LINE
  5
1A477
  8
DANMEN
  6
CONTINUOUS
 10
229.949983
 20
127.449997
 30
0.0
 11
238.049989
 21
127.449997
 31
0.0
  0
LINE
  5
1A478
  8
DANMEN
  6
CONTINUOUS
 10
215.461095
 20
125.5
 30
0.0
 11
260.5
 21
125.5
 31
0.0
  0
LINE
  5
1A479
  8
DANMEN
  6
CONTINUOUS
 10
233.0
 20
155.300003
 30
0.0
 11
260.5
 21
155.300003
 31
0.0
  0
LINE
  5
1A47A
  8
DANMEN
  6
CONTINUOUS
 10
214.000002
 20
147.55
 30
0.0
 11
214.000002
 21
127.449997
 31
0.0
  0
LINE
  5
1A47B
  8
DANMEN
  6
CONTINUOUS
 10
229.949983
 20
147.550003
 30
0.0
 11
229.949983
 21
144.550003
 31
0.0
  0
LINE
  5
1A47C
  8
DANMEN
  6
CONTINUOUS
 10
228.300005
 20
145.5
 30
0.0
 11
228.040307
 21
148.962605
 31
0.0
  0
LINE
  5
1A47D
  8
DANMEN
  6
CONTINUOUS
 10
215.959696
 20
148.962605
 30
0.0
 11
215.699998
 21
145.5
 31
0.0
  0
LINE
  5
1A47E
  8
DANMEN
  6
CONTINUOUS
 10
211.145438
 20
147.55
 30
0.0
 11
202.199998
 21
146.208184
 31
0.0
  0
LINE
  5
1A47F
  8
DANMEN
  6
CONTINUOUS
 10
215.699998
 20
145.5
 30
0.0
 11
228.300005
 21
145.5
 31
0.0
  0
LINE
  5
1A480
  8
DANMEN
  6
CONTINUOUS
 10
215.949998
 20
143.550003
 30
0.0
 11
228.949983
 21
143.550003
 31
0.0
  0
LINE
  5
1A481
  8
DANMEN
  6
CONTINUOUS
 10
215.949998
 20
131.449997
 30
0.0
 11
228.949983
 21
131.449997
 31
0.0
  0
LINE
  5
1A482
  8
DANMEN
  6
CONTINUOUS
 10
215.699998
 20
129.499997
 30
0.0
 11
228.300005
 21
129.499997
 31
0.0
  0
LINE
  5
1A483
  8
DANMEN
  6
CONTINUOUS
 10
208.164403
 20
135.860739
 30
0.0
 11
203.081606
 21
135.013606
 31
0.0
  0
LINE
  5
1A484
  8
DANMEN
  6
CONTINUOUS
 10
215.949998
 20
143.550003
 30
0.0
 11
215.949998
 21
131.449997
 31
0.0
  0
LINE
  5
1A485
  8
DANMEN
  6
CONTINUOUS
 10
211.145458
 20
127.449997
 30
0.0
 11
202.199998
 21
128.791816
 31
0.0
  0
LINE
  5
1A486
  8
DANMEN
  6
CONTINUOUS
 10
210.895164
 20
124.342413
 30
0.0
 11
206.246849
 21
126.222891
 31
0.0
  0
LINE
  5
1A487
  8
DANMEN
  6
CONTINUOUS
 10
202.199998
 20
130.0
 30
0.0
 11
202.199998
 21
128.791816
 31
0.0
  0
LINE
  5
1A488
  8
DANMEN
  6
CONTINUOUS
 10
206.520856
 20
125.249056
 30
0.0
 11
205.94683
 21
125.481279
 31
0.0
  0
ARC
  5
1A489
  8
DANMEN
  6
CONTINUOUS
 10
206.09684
 20
125.852085
 30
0.0
 40
0.4
 50
67.974191
 51
247.974191
  0
ARC
  5
1A492
  8
DANMEN
  6
CONTINUOUS
 10
206.445851
 20
125.063653
 30
0.0
 40
0.2
 50
311.738105
 51
67.974191
  0
ARC
  5
1A493
  8
DANMEN
  6
CONTINUOUS
 10
202.917206
 20
136.0
 30
0.0
 40
1.0
 50
270.000018
 51
279.462343
  0
LINE
  5
1A497
  8
DANMEN
  6
CONTINUOUS
 10
211.037293
 20
125.5
 30
0.0
 11
215.461092
 21
125.5
 31
0.0
  0
LINE
  5
1A498
  8
DANMEN
  6
CONTINUOUS
 10
211.145458
 20
127.449997
 30
0.0
 11
214.000002
 21
127.449997
 31
0.0
  0
ARC
  5
1A49B
  8
DANMEN
  6
CONTINUOUS
 10
211.037293
 20
126.0
 30
0.0
 40
0.5
 50
261.469234
 51
270.0
  0
ARC
  5
1A49F
  8
DANMEN
  6
CONTINUOUS
 10
210.820159
 20
124.15701
 30
0.0
 40
0.2
 50
25.943161
 51
67.974191
  0
LINE
  5
1A4A3
  8
DANMEN
  6
CONTINUOUS
 10
215.699998
 20
129.499997
 30
0.0
 11
215.959696
 21
126.037395
 31
0.0
  0
ARC
  5
1A4A4
  8
DANMEN
  6
CONTINUOUS
 10
215.461097
 20
126.0
 30
0.0
 40
0.5
 50
270.0
 51
4.2892
  0
LINE
  5
1A4A7
  8
DANMEN
  6
CONTINUOUS
 10
207.050997
 20
137.5
 30
0.0
 11
202.850997
 21
136.8
 31
0.0
  0
ARC
  5
1A4AA
  8
DANMEN
  6
CONTINUOUS
 10
208.500002
 20
137.0
 30
0.0
 40
0.5
 50
0.0
 51
89.999982
  0
ARC
  5
1A4AC
  8
DANMEN
  6
CONTINUOUS
 10
208.000002
 20
136.847137
 30
0.0
 40
1.0
 50
279.462343
 51
0.000285
  0
LINE
  5
1A4AF
  8
DANMEN
  6
CONTINUOUS
 10
207.050997
 20
137.5
 30
0.0
 11
208.500002
 21
137.5
 31
0.0
  0
LINE
  5
1A4B0
  8
DANMEN
  6
CONTINUOUS
 10
209.000002
 20
137.0
 30
0.0
 11
209.000002
 21
136.847137
 31
0.0
  0
LINE
  5
1A4B1
  8
DANMEN
  6
CONTINUOUS
 10
202.199998
 20
145.0
 30
0.0
 11
202.199998
 21
146.208184
 31
0.0
  0
LINE
  5
1A4B7
  8
DANMEN
  6
CONTINUOUS
 10
229.949983
 20
130.449997
 30
0.0
 11
229.949983
 21
127.449997
 31
0.0
  0
LINE
  5
1A4BC
  8
DANMEN
  6
CONTINUOUS
 10
228.040307
 20
126.037395
 30
0.0
 11
228.300005
 21
129.499997
 31
0.0
  0
ARC
  5
1A4BD
  8
DANMEN
  6
CONTINUOUS
 10
228.538906
 20
126.0
 30
0.0
 40
0.5
 50
175.7108
 51
270.0
  0
ARC
  5
1A4C0
  8
DANMEN
  6
CONTINUOUS
 10
228.949983
 20
130.449997
 30
0.0
 40
1.0
 50
0.0
 51
89.999982
  0
ARC
  5
1A4C2
  8
DANMEN
  6
CONTINUOUS
 10
228.949983
 20
144.550003
 30
0.0
 40
1.0
 50
270.000018
 51
0.0
  0
LINE
  5
1A4C4
  8
DANMEN
  6
CONTINUOUS
 10
213.0
 20
156.5
 30
0.0
 11
233.0
 21
156.5
 31
0.0
  0
LINE
  5
1A4C5
  8
DANMEN
  6
CONTINUOUS
 10
211.037293
 20
149.5
 30
0.0
 11
215.461092
 21
149.5
 31
0.0
  0
ARC
  5
1A4C7
  8
DANMEN
  6
CONTINUOUS
 10
211.037293
 20
149.0
 30
0.0
 40
0.5
 50
90.0
 51
98.530766
  0
LINE
  5
1A4C9
  8
DANMEN
  6
CONTINUOUS
 10
211.145438
 20
147.55
 30
0.0
 11
214.000002
 21
147.55
 31
0.0
  0
ARC
  5
1A4CE
  8
DANMEN
  6
CONTINUOUS
 10
215.461097
 20
149.0
 30
0.0
 40
0.5
 50
355.710803
 51
90.0
  0
ARC
  5
1A4D3
  8
DANMEN
  6
CONTINUOUS
 10
212.500002
 20
156.0
 30
0.0
 40
0.5
 50
359.999981
 51
89.999982
  0
ARC
  5
1A4D4
  8
DANMEN
  6
CONTINUOUS
 10
212.500002
 20
155.350006
 30
0.0
 40
0.5
 50
270.000018
 51
359.999981
  0
LINE
  5
1A4D5
  8
DANMEN
  6
CONTINUOUS
 10
213.000002
 20
156.0
 30
0.0
 11
213.000002
 21
155.350006
 31
0.0
  0
LINE
  5
1A4D6
  8
DANMEN
  6
CONTINUOUS
 10
233.0
 20
159.5
 30
0.0
 11
233.0
 21
155.300003
 31
0.0
  0
ARC
  5
1A4DA
  8
DANMEN
  6
CONTINUOUS
 10
228.538906
 20
149.0
 30
0.0
 40
0.5
 50
90.0
 51
184.289197
  0
LINE
  5
1A4DD
  8
DANMEN
  6
CONTINUOUS
 10
251.000002
 20
149.0
 30
0.0
 11
251.000002
 21
145.0
 31
0.0
  0
LINE
  5
1A4DE
  8
DANMEN
  6
CONTINUOUS
 10
249.800005
 20
147.550003
 30
0.0
 11
249.800005
 21
145.3
 31
0.0
  0
LINE
  5
1A4DF
  8
DANMEN
  6
CONTINUOUS
 10
239.999986
 20
147.550003
 30
0.0
 11
239.999986
 21
127.449997
 31
0.0
  0
LINE
  5
1A4E0
  8
DANMEN
  6
CONTINUOUS
 10
238.049989
 20
147.550003
 30
0.0
 11
238.049989
 21
127.449997
 31
0.0
  0
LINE
  5
1A4E1
  8
DANMEN
  6
CONTINUOUS
 10
251.0
 20
145.5
 30
0.0
 11
260.5
 21
145.5
 31
0.0
  0
LINE
  5
1A4E2
  8
DANMEN
  6
CONTINUOUS
 10
251.0
 20
129.500015
 30
0.0
 11
260.5
 21
129.500015
 31
0.0
  0
LINE
  5
1A4E3
  8
DANMEN
  6
CONTINUOUS
 10
251.0
 20
127.7
 30
0.0
 11
260.5
 21
127.7
 31
0.0
  0
LINE
  5
1A4E4
  8
DANMEN
  6
CONTINUOUS
 10
244.0
 20
134.999991
 30
0.0
 11
260.5
 21
134.999991
 31
0.0
  0
LINE
  5
1A4E5
  8
DANMEN
  6
CONTINUOUS
 10
243.999985
 20
139.999979
 30
0.0
 11
260.5
 21
139.999979
 31
0.0
  0
LINE
  5
1A4E6
  8
DANMEN
  6
CONTINUOUS
 10
244.0
 20
135.499991
 30
0.0
 11
260.5
 21
135.499991
 31
0.0
  0
LINE
  5
1A4E7
  8
DANMEN
  6
CONTINUOUS
 10
243.999985
 20
139.499979
 30
0.0
 11
260.5
 21
139.499979
 31
0.0
  0
LINE
  5
1A4E8
  8
DANMEN
  6
CONTINUOUS
 10
243.999985
 20
134.999991
 30
0.0
 11
243.999985
 21
139.999994
 31
0.0
  0
LINE
  5
1A4E9
  8
DANMEN
  6
CONTINUOUS
 10
239.999986
 20
127.449997
 30
0.0
 11
249.800005
 21
127.449997
 31
0.0
  0
LINE
  5
1A4EC
  8
DANMEN
  6
CONTINUOUS
 10
251.000002
 20
126.0
 30
0.0
 11
251.000002
 21
130.0
 31
0.0
  0
LINE
  5
1A4ED
  8
DANMEN
  6
CONTINUOUS
 10
248.444786
 20
129.85058
 30
0.0
 11
249.800005
 21
129.7
 31
0.0
  0
ARC
  5
1A4EE
  8
DANMEN
  6
CONTINUOUS
 10
248.500002
 20
130.347521
 30
0.0
 40
0.5
 50
180.0
 51
263.659819
  0
LINE
  5
1A4EF
  8
DANMEN
  6
CONTINUOUS
 10
249.800005
 20
127.449997
 30
0.0
 11
249.800005
 21
129.7
 31
0.0
  0
ARC
  5
1A4F2
  8
DANMEN
  6
CONTINUOUS
 10
250.500002
 20
126.0
 30
0.0
 40
0.5
 50
270.000018
 51
0.0
  0
LINE
  5
1A4F4
  8
DANMEN
  6
CONTINUOUS
 10
248.000002
 20
130.5
 30
0.0
 11
250.500002
 21
130.5
 31
0.0
  0
LINE
  5
1A4F5
  8
DANMEN
  6
CONTINUOUS
 10
248.000002
 20
130.34752
 30
0.0
 11
248.000002
 21
130.5
 31
0.0
  0
ARC
  5
1A4F8
  8
DANMEN
  6
CONTINUOUS
 10
250.500002
 20
130.0
 30
0.0
 40
0.5
 50
0.0
 51
89.999982
  0
LINE
  5
1A4FD
  8
DANMEN
  6
CONTINUOUS
 10
248.000002
 20
144.5
 30
0.0
 11
250.500002
 21
144.5
 31
0.0
  0
LINE
  5
1A4FE
  8
DANMEN
  6
CONTINUOUS
 10
248.000002
 20
144.652481
 30
0.0
 11
248.000002
 21
144.5
 31
0.0
  0
ARC
  5
1A501
  8
DANMEN
  6
CONTINUOUS
 10
250.500002
 20
145.0
 30
0.0
 40
0.5
 50
270.000018
 51
0.0
  0
LINE
  5
1A504
  8
DANMEN
  6
CONTINUOUS
 10
249.800005
 20
145.3
 30
0.0
 11
248.444786
 21
145.14942
 31
0.0
  0
ARC
  5
1A505
  8
DANMEN
  6
CONTINUOUS
 10
248.500002
 20
144.652479
 30
0.0
 40
0.5
 50
96.340181
 51
180.0
  0
ARC
  5
1A507
  8
DANMEN
  6
CONTINUOUS
 10
251.999908
 20
131.0
 30
0.0
 40
1.5
 50
269.999964
 51
0.000001
  0
ARC
  5
1A508
  8
DANMEN
  6
CONTINUOUS
 10
254.999908
 20
133.500006
 30
0.0
 40
1.5
 50
90.0
 51
179.999982
  0
LINE
  5
1A509
  8
DANMEN
  6
CONTINUOUS
 10
253.499908
 20
131.0
 30
0.0
 11
253.499908
 21
133.500006
 31
0.0
  0
ARC
  5
1A50A
  8
DANMEN
  6
CONTINUOUS
 10
254.999908
 20
141.500009
 30
0.0
 40
1.5
 50
179.999982
 51
269.999964
  0
LINE
  5
1A50B
  8
DANMEN
  6
CONTINUOUS
 10
253.499908
 20
141.500009
 30
0.0
 11
253.499908
 21
144.0
 31
0.0
  0
ARC
  5
1A50C
  8
DANMEN
  6
CONTINUOUS
 10
251.999908
 20
144.0
 30
0.0
 40
1.5
 50
0.000018
 51
90.0
  0
LINE
  5
1A50D
  8
DANMEN
  6
CONTINUOUS
 10
251.0
 20
147.3
 30
0.0
 11
260.5
 21
147.3
 31
0.0
  0
LINE
  5
1A50E
  8
DANMEN
  6
CONTINUOUS
 10
237.399994
 20
158.300003
 30
0.0
 11
260.5
 21
158.300003
 31
0.0
  0
LINE
  5
1A50F
  8
DANMEN
  6
CONTINUOUS
 10
237.399994
 20
159.5
 30
0.0
 11
260.5
 21
159.5
 31
0.0
  0
ARC
  5
1A510
  8
DANMEN
  6
CONTINUOUS
 10
237.399994
 20
158.899994
 30
0.0
 40
0.6
 50
270.000018
 51
90.000037
  0
LINE
  5
1A511
  8
DANMEN
  6
CONTINUOUS
 10
239.999986
 20
147.550003
 30
0.0
 11
249.800005
 21
147.550003
 31
0.0
  0
ARC
  5
1A518
  8
DANMEN
  6
CONTINUOUS
 10
250.500002
 20
149.0
 30
0.0
 40
0.5
 50
0.0
 51
89.999982
  0
LINE
  5
1A51B
  8
DANMEN
  6
CONTINUOUS
 10
299.95
 20
127.449997
 30
0.0
 11
311.050006
 21
127.449997
 31
0.0
  0
LINE
  5
1A51C
  8
DANMEN
  6
CONTINUOUS
 10
299.95
 20
147.550003
 30
0.0
 11
311.050006
 21
147.550003
 31
0.0
  0
LINE
  5
1A51D
  8
DANMEN
  6
CONTINUOUS
 10
273.500003
 20
125.5
 30
0.0
 11
301.500003
 21
125.5
 31
0.0
  0
LINE
  5
1A51E
  8
DANMEN
  6
CONTINUOUS
 10
273.500003
 20
149.5
 30
0.0
 11
312.000003
 21
149.5
 31
0.0
  0
LINE
  5
1A51F
  8
DANMEN
  6
CONTINUOUS
 10
298.95
 20
147.550003
 30
0.0
 11
298.95
 21
146.0
 31
0.0
  0
LINE
  5
1A520
  8
DANMEN
  6
CONTINUOUS
 10
299.95
 20
147.550003
 30
0.0
 11
299.95
 21
145.5
 31
0.0
  0
LINE
  5
1A521
  8
DANMEN
  6
CONTINUOUS
 10
274.200003
 20
147.550003
 30
0.0
 11
274.200003
 21
145.3
 31
0.0
  0
LINE
  5
1A522
  8
DANMEN
  6
CONTINUOUS
 10
289.95
 20
147.550003
 30
0.0
 11
289.95
 21
127.449997
 31
0.0
  0
LINE
  5
1A523
  8
DANMEN
  6
CONTINUOUS
 10
288.000003
 20
147.550003
 30
0.0
 11
288.000003
 21
127.449997
 31
0.0
  0
LINE
  5
1A524
  8
DANMEN
  6
CONTINUOUS
 10
273.000003
 20
149.0
 30
0.0
 11
273.000003
 21
145.0
 31
0.0
  0
LINE
  5
1A525
  8
DANMEN
  6
CONTINUOUS
 10
274.200003
 20
127.449997
 30
0.0
 11
288.000003
 21
127.449997
 31
0.0
  0
LINE
  5
1A526
  8
DANMEN
  6
CONTINUOUS
 10
280.000018
 20
140.000009
 30
0.0
 11
280.000018
 21
135.000006
 31
0.0
  0
ARC
  5
1A527
  8
DANMEN
  6
CONTINUOUS
 10
275.500003
 20
130.347521
 30
0.0
 40
0.5
 50
276.340191
 51
0.0
  0
LINE
  5
1A528
  8
DANMEN
  6
CONTINUOUS
 10
273.500003
 20
130.5
 30
0.0
 11
276.000003
 21
130.5
 31
0.0
  0
ARC
  5
1A529
  8
DANMEN
  6
CONTINUOUS
 10
272.000003
 20
131.0
 30
0.0
 40
1.5
 50
180.000018
 51
270.0
  0
LINE
  5
1A52A
  8
DANMEN
  6
CONTINUOUS
 10
275.555219
 20
129.85058
 30
0.0
 11
274.200003
 21
129.7
 31
0.0
  0
LINE
  5
1A52B
  8
DANMEN
  6
CONTINUOUS
 10
273.000003
 20
130.0
 30
0.0
 11
273.000003
 21
126.0
 31
0.0
  0
ARC
  5
1A52D
  8
DANMEN
  6
CONTINUOUS
 10
273.500003
 20
126.0
 30
0.0
 40
0.5
 50
180.000019
 51
270.000001
  0
LINE
  5
1A530
  8
DANMEN
  6
CONTINUOUS
 10
274.200003
 20
129.7
 30
0.0
 11
274.200003
 21
127.449997
 31
0.0
  0
ARC
  5
1A531
  8
DANMEN
  6
CONTINUOUS
 10
269.000003
 20
133.499991
 30
0.0
 40
1.5
 50
359.999982
 51
89.999964
  0
LINE
  5
1A532
  8
DANMEN
  6
CONTINUOUS
 10
270.500003
 20
133.499991
 30
0.0
 11
270.500003
 21
131.0
 31
0.0
  0
ARC
  5
1A533
  8
DANMEN
  6
CONTINUOUS
 10
273.500003
 20
130.0
 30
0.0
 40
0.5
 50
89.999982
 51
180.000019
  0
ARC
  5
1A538
  8
DANMEN
  6
CONTINUOUS
 10
277.845226
 20
125.3
 30
0.0
 40
1.0
 50
90.0
 51
147.20046
  0
ARC
  5
1A53B
  8
DANMEN
  6
CONTINUOUS
 10
279.200003
 20
125.7
 30
0.0
 40
0.6
 50
0.0
 51
90.0
  0
LINE
  5
1A540
  8
DANMEN
  6
CONTINUOUS
 10
277.845226
 20
125.3
 30
0.0
 11
278.800003
 21
125.3
 31
0.0
  0
LINE
  5
1A541
  8
DANMEN
  6
CONTINUOUS
 10
277.845226
 20
126.3
 30
0.0
 11
279.200003
 21
126.3
 31
0.0
  0
LINE
  5
1A545
  8
DANMEN
  6
CONTINUOUS
 10
276.000003
 20
130.5
 30
0.0
 11
276.000003
 21
130.347521
 31
0.0
  0
ARC
  5
1A546
  8
DANMEN
  6
CONTINUOUS
 10
275.500003
 20
144.652479
 30
0.0
 40
0.5
 50
0.0
 51
83.659809
  0
LINE
  5
1A547
  8
DANMEN
  6
CONTINUOUS
 10
273.500003
 20
144.5
 30
0.0
 11
276.000003
 21
144.5
 31
0.0
  0
ARC
  5
1A548
  8
DANMEN
  6
CONTINUOUS
 10
269.000003
 20
141.499994
 30
0.0
 40
1.5
 50
270.0
 51
359.999982
  0
ARC
  5
1A54B
  8
DANMEN
  6
CONTINUOUS
 10
272.000003
 20
144.0
 30
0.0
 40
1.5
 50
89.999964
 51
180.000001
  0
LINE
  5
1A54C
  8
DANMEN
  6
CONTINUOUS
 10
270.500003
 20
144.0
 30
0.0
 11
270.500003
 21
141.499994
 31
0.0
  0
LINE
  5
1A54D
  8
DANMEN
  6
CONTINUOUS
 10
274.200003
 20
145.3
 30
0.0
 11
275.555219
 21
145.14942
 31
0.0
  0
ARC
  5
1A54F
  8
DANMEN
  6
CONTINUOUS
 10
273.500003
 20
145.0
 30
0.0
 40
0.5
 50
180.000019
 51
270.000001
  0
LINE
  5
1A554
  8
DANMEN
  6
CONTINUOUS
 10
276.000003
 20
144.652479
 30
0.0
 11
276.000003
 21
144.5
 31
0.0
  0
LINE
  5
1A555
  8
DANMEN
  6
CONTINUOUS
 10
289.95
 20
127.449997
 30
0.0
 11
298.95
 21
127.449997
 31
0.0
  0
ARC
  5
1A55A
  8
DANMEN
  6
CONTINUOUS
 10
299.45
 20
129.0
 30
0.0
 40
0.5
 50
89.999982
 51
180.000019
  0
LINE
  5
1A55D
  8
DANMEN
  6
CONTINUOUS
 10
299.45
 20
129.5
 30
0.0
 11
299.95
 21
129.5
 31
0.0
  0
LINE
  5
1A55E
  8
DANMEN
  6
CONTINUOUS
 10
298.95
 20
129.0
 30
0.0
 11
298.95
 21
127.449997
 31
0.0
  0
LINE
  5
1A55F
  8
DANMEN
  6
CONTINUOUS
 10
299.95
 20
129.5
 30
0.0
 11
299.95
 21
127.449997
 31
0.0
  0
ARC
  5
1A560
  8
DANMEN
  6
CONTINUOUS
 10
299.45
 20
146.0
 30
0.0
 40
0.5
 50
180.000019
 51
270.000001
  0
LINE
  5
1A563
  8
DANMEN
  6
CONTINUOUS
 10
299.45
 20
145.5
 30
0.0
 11
299.95
 21
145.5
 31
0.0
  0
LINE
  5
1A564
  8
DANMEN
  6
CONTINUOUS
 10
274.200003
 20
147.550003
 30
0.0
 11
288.000003
 21
147.550003
 31
0.0
  0
ARC
  5
1A565
  8
DANMEN
  6
CONTINUOUS
 10
273.500003
 20
149.0
 30
0.0
 40
0.5
 50
89.999982
 51
180.000019
  0
LINE
  5
1A568
  8
DANMEN
  6
CONTINUOUS
 10
289.95
 20
147.550003
 30
0.0
 11
298.95
 21
147.550003
 31
0.0
  0
LINE
  5
1A56D
  8
DANMEN
  6
CONTINUOUS
 10
311.050006
 20
147.550003
 30
0.0
 11
311.050006
 21
127.449997
 31
0.0
  0
LINE
  5
1A56E
  8
DANMEN
  6
CONTINUOUS
 10
303.000003
 20
125.5
 30
0.0
 11
311.800003
 21
125.5
 31
0.0
  0
ARC
  5
1A573
  8
DANMEN
  6
CONTINUOUS
 10
312.000003
 20
148.5
 30
0.0
 40
1.0
 50
0.0
 51
89.999982
  0
LINE
  5
1A576
  8
SUNPO
  6
CONTINUOUS
 10
22.0
 20
188.5
 30
0.0
 11
22.0
 21
223.5
 31
0.0
  0
LINE
  5
1A577
  8
DANMEN
  6
CONTINUOUS
 10
373.0
 20
156.5
 30
0.0
 11
353.0
 21
156.5
 31
0.0
  0
LINE
  5
1A578
  8
DANMEN
  6
CONTINUOUS
 10
339.5
 20
136.0
 30
0.0
 11
388.0
 21
136.0
 31
0.0
  0
LINE
  5
1A579
  8
DANMEN
  6
CONTINUOUS
 10
339.5
 20
139.0
 30
0.0
 11
388.0
 21
139.0
 31
0.0
  0
LINE
  5
1A57A
  8
DANMEN
  6
CONTINUOUS
 10
339.5
 20
149.5
 30
0.0
 11
388.0
 21
149.5
 31
0.0
  0
LINE
  5
1A57B
  8
DANMEN
  6
CONTINUOUS
 10
348.600006
 20
158.300003
 30
0.0
 11
353.0
 21
158.300003
 31
0.0
  0
LINE
  5
1A57C
  8
DANMEN
  6
CONTINUOUS
 10
348.600006
 20
159.5
 30
0.0
 11
353.0
 21
159.5
 31
0.0
  0
LINE
  5
1A57D
  8
DANMEN
  6
CONTINUOUS
 10
353.0
 20
155.300003
 30
0.0
 11
339.5
 21
155.300003
 31
0.0
  0
ARC
  5
1A57E
  8
DANMEN
  6
CONTINUOUS
 10
348.600006
 20
158.899994
 30
0.0
 40
0.6
 50
89.999963
 51
269.999982
  0
LINE
  5
1A57F
  8
DANMEN
  6
CONTINUOUS
 10
348.600006
 20
158.300003
 30
0.0
 11
339.5
 21
158.300003
 31
0.0
  0
LINE
  5
1A582
  8
DANMEN
  6
CONTINUOUS
 10
348.600006
 20
159.5
 30
0.0
 11
339.5
 21
159.5
 31
0.0
  0
LINE
  5
1A585
  8
DANMEN
  6
CONTINUOUS
 10
353.0
 20
159.5
 30
0.0
 11
353.0
 21
155.300003
 31
0.0
  0
LINE
  5
1A587
  8
DANMEN
  6
CONTINUOUS
 10
386.0
 20
154.850006
 30
0.0
 11
373.5
 21
154.850006
 31
0.0
  0
LINE
  5
1A588
  8
DANMEN
  6
CONTINUOUS
 10
397.5
 20
156.5
 30
0.0
 11
373.5
 21
156.5
 31
0.0
  0
ARC
  5
1A589
  8
DANMEN
  6
CONTINUOUS
 10
373.5
 20
156.0
 30
0.0
 40
0.5
 50
90.000037
 51
180.000019
  0
ARC
  5
1A58A
  8
DANMEN
  6
CONTINUOUS
 10
373.5
 20
155.350006
 30
0.0
 40
0.5
 50
180.000019
 51
270.000001
  0
LINE
  5
1A58B
  8
DANMEN
  6
CONTINUOUS
 10
373.0
 20
156.0
 30
0.0
 11
373.0
 21
155.350006
 31
0.0
  0
LINE
  5
1A58C
  8
DANMEN
  6
CONTINUOUS
 10
396.350006
 20
154.850006
 30
0.0
 11
389.649994
 21
154.850006
 31
0.0
  0
LINE
  5
1A58D
  8
DANMEN
  6
CONTINUOUS
 10
388.0
 20
155.400003
 30
0.0
 11
386.0
 21
155.400003
 31
0.0
  0
LINE
  5
1A58E
  8
DANMEN
  6
CONTINUOUS
 10
386.0
 20
155.400003
 30
0.0
 11
386.0
 21
154.850006
 31
0.0
  0
LINE
  5
1A58F
  8
DANMEN
  6
CONTINUOUS
 10
396.350006
 20
154.850006
 30
0.0
 11
396.350006
 21
151.0
 31
0.0
  0
LINE
  5
1A590
  8
DANMEN
  6
CONTINUOUS
 10
398.0
 20
156.0
 30
0.0
 11
398.0
 21
151.0
 31
0.0
  0
ARC
  5
1A591
  8
DANMEN
  6
CONTINUOUS
 10
396.850006
 20
151.0
 30
0.0
 40
0.5
 50
180.000019
 51
270.000001
  0
ARC
  5
1A592
  8
DANMEN
  6
CONTINUOUS
 10
397.5
 20
151.0
 30
0.0
 40
0.5
 50
270.000018
 51
359.999981
  0
LINE
  5
1A593
  8
DANMEN
  6
CONTINUOUS
 10
397.5
 20
150.5
 30
0.0
 11
396.850006
 21
150.5
 31
0.0
  0
ARC
  5
1A594
  8
DANMEN
  6
CONTINUOUS
 10
397.5
 20
156.0
 30
0.0
 40
0.5
 50
0.0
 51
89.999982
  0
TEXT
  5
1A595
  8
SUNPO
  6
CONTINUOUS
 10
58.916667
 20
169.5
 30
0.0
 40
2.5
  1
24
  7
MX_NOTE_STANDARD
  0
TEXT
  5
1A596
  8
SUNPO
  6
CONTINUOUS
 10
44.666667
 20
169.5
 30
0.0
 40
2.5
  1
7
  7
MX_NOTE_STANDARD
  0
TEXT
  5
1A597
  8
SUNPO
  6
CONTINUOUS
 10
34.013333
 20
169.5
 30
0.0
 40
2.5
  1
3
  7
MX_NOTE_STANDARD
  0
LINE
  5
1A598
  8
SUNPO
  6
CONTINUOUS
 10
40.5
 20
153.5
 30
0.0
 11
22.0
 21
153.5
 31
0.0
  0
ARC
  5
1A599
  8
SUNPO
  6
BYBLOCK
 10
22.0
 20
153.5
 30
0.0
 40
0.145
 50
90.0
 51
270.0
  0
ARC
  5
1A59A
  8
SUNPO
  6
BYBLOCK
 10
22.0
 20
153.5
 30
0.0
 40
0.145
 50
270.0
 51
90.0
  0
LINE
  5
1A59B
  8
SUNPO
  6
CONTINUOUS
 10
49.0
 20
168.5
 30
0.0
 11
42.0
 21
168.5
 31
0.0
  0
LINE
  5
1A59C
  8
SUNPO
  6
CONTINUOUS
 10
42.0
 20
168.5
 30
0.0
 11
39.0
 21
168.5
 31
0.0
  0
LINE
  5
1A59D
  8
SUNPO
  6
CONTINUOUS
 10
39.0
 20
160.0
 30
0.0
 11
39.0
 21
168.5
 31
0.0
  0
LINE
  5
1A59E
  8
SUNPO
  6
CONTINUOUS
 10
39.0
 20
168.5
 30
0.0
 11
33.013333
 21
168.5
 31
0.0
  0
ARC
  5
1A59F
  8
SUNPO
  6
BYBLOCK
 10
39.0
 20
168.5
 30
0.0
 40
0.145
 50
180.0
 51
0.0
  0
ARC
  5
1A5A0
  8
SUNPO
  6
BYBLOCK
 10
39.0
 20
168.5
 30
0.0
 40
0.145
 50
0.0
 51
180.0
  0
ARC
  5
1A5A1
  8
SUNPO
  6
BYBLOCK
 10
42.0
 20
168.5
 30
0.0
 40
0.145
 50
0.0
 51
180.0
  0
ARC
  5
1A5A2
  8
SUNPO
  6
BYBLOCK
 10
42.0
 20
168.5
 30
0.0
 40
0.145
 50
180.0
 51
0.0
  0
ARC
  5
1A5A3
  8
SUNPO
  6
BYBLOCK
 10
42.0
 20
168.5
 30
0.0
 40
0.145
 50
180.0
 51
0.0
  0
ARC
  5
1A5A4
  8
SUNPO
  6
BYBLOCK
 10
42.0
 20
168.5
 30
0.0
 40
0.145
 50
0.0
 51
180.0
  0
ARC
  5
1A5A5
  8
SUNPO
  6
BYBLOCK
 10
49.0
 20
168.5
 30
0.0
 40
0.145
 50
0.0
 51
180.0
  0
ARC
  5
1A5A6
  8
SUNPO
  6
BYBLOCK
 10
49.0
 20
168.5
 30
0.0
 40
0.145
 50
180.0
 51
0.0
  0
ARC
  5
1A5A7
  8
SUNPO
  6
BYBLOCK
 10
49.0
 20
168.5
 30
0.0
 40
0.145
 50
180.0
 51
0.0
  0
ARC
  5
1A5A8
  8
SUNPO
  6
BYBLOCK
 10
49.0
 20
168.5
 30
0.0
 40
0.145
 50
0.0
 51
180.0
  0
LINE
  5
1A5A9
  8
SUNPO
  6
CONTINUOUS
 10
40.5
 20
188.5
 30
0.0
 11
22.0
 21
188.5
 31
0.0
  0
ARC
  5
1A5AA
  8
SUNPO
  6
BYBLOCK
 10
22.0
 20
188.5
 30
0.0
 40
0.145
 50
270.0
 51
90.0
  0
ARC
  5
1A5AB
  8
SUNPO
  6
BYBLOCK
 10
22.0
 20
188.5
 30
0.0
 40
0.145
 50
90.0
 51
270.0
  0
TEXT
  5
1A5AC
  8
SUNPO
  6
CONTINUOUS
 10
21.0
 20
203.916667
 30
0.0
 40
2.5
  1
35
 50
90.0
  7
MX_NOTE_STANDARD
  0
ARC
  5
1A5AD
  8
SUNPO
  6
BYBLOCK
 10
42.0
 20
178.5
 30
0.0
 40
0.145
 50
180.0
 51
0.0
  0
ARC
  5
1A5AE
  8
SUNPO
  6
BYBLOCK
 10
42.0
 20
178.5
 30
0.0
 40
0.145
 50
0.0
 51
180.0
  0
LINE
  5
1A5AF
  8
SUNPO
  6
CONTINUOUS
 10
40.5
 20
258.5
 30
0.0
 11
22.0
 21
258.5
 31
0.0
  0
LINE
  5
1A5B0
  8
SUNPO
  6
CONTINUOUS
 10
40.5
 20
223.5
 30
0.0
 11
22.0
 21
223.5
 31
0.0
  0
TEXT
  5
1A5B1
  8
SUNPO
  6
CONTINUOUS
 10
21.0
 20
238.916667
 30
0.0
 40
2.5
  1
35
 50
90.0
  7
MX_NOTE_STANDARD
  0
LINE
  5
1A5B2
  8
SUNPO
  6
CONTINUOUS
 10
22.0
 20
258.5
 30
0.0
 11
22.0
 21
223.5
 31
0.0
  0
ARC
  5
1A5B3
  8
SUNPO
  6
BYBLOCK
 10
22.0
 20
223.5
 30
0.0
 40
0.145
 50
270.0
 51
90.0
  0
ARC
  5
1A5B4
  8
SUNPO
  6
BYBLOCK
 10
22.0
 20
223.5
 30
0.0
 40
0.145
 50
90.0
 51
270.0
  0
ARC
  5
1A5B5
  8
SUNPO
  6
BYBLOCK
 10
22.0
 20
223.5
 30
0.0
 40
0.145
 50
90.0
 51
270.0
  0
ARC
  5
1A5B6
  8
SUNPO
  6
BYBLOCK
 10
22.0
 20
223.5
 30
0.0
 40
0.145
 50
270.0
 51
90.0
  0
ARC
  5
1A5B7
  8
SUNPO
  6
BYBLOCK
 10
22.0
 20
258.5
 30
0.0
 40
0.145
 50
90.0
 51
270.0
  0
ARC
  5
1A5B8
  8
SUNPO
  6
BYBLOCK
 10
22.0
 20
258.5
 30
0.0
 40
0.145
 50
270.0
 51
90.0
  0
LINE
  5
1A5B9
  8
SUNPO
  6
CONTINUOUS
 10
153.0
 20
223.5
 30
0.0
 11
153.0
 21
188.5
 31
0.0
  0
LINE
  5
1A5BA
  8
SUNPO
  6
CONTINUOUS
 10
163.0
 20
223.5
 30
0.0
 11
163.0
 21
172.374644
 31
0.0
  0
LINE
  5
1A5BB
  8
SUNPO
  6
CONTINUOUS
 10
140.0
 20
168.5
 30
0.0
 11
112.0
 21
168.5
 31
0.0
  0
LINE
  5
1A5BC
  8
SUNPO
  6
CONTINUOUS
 10
113.5
 20
188.5
 30
0.0
 11
153.0
 21
188.5
 31
0.0
  0
LINE
  5
1A5BD
  8
SUNPO
  6
CONTINUOUS
 10
113.5
 20
153.5
 30
0.0
 11
153.0
 21
153.5
 31
0.0
  0
TEXT
  5
1A5BE
  8
SUNPO
  6
CONTINUOUS
 10
123.916667
 20
169.5
 30
0.0
 40
2.5
  1
28
  7
MX_NOTE_STANDARD
  0
TEXT
  5
1A5BF
  8
SUNPO
  6
CONTINUOUS
 10
76.166667
 20
169.5
 30
0.0
 40
2.5
  1
8
  7
MX_NOTE_STANDARD
  0
TEXT
  5
1A5C0
  8
SUNPO
  6
CONTINUOUS
 10
94.833333
 20
169.5
 30
0.0
 40
2.5
  1
31
  7
MX_NOTE_STANDARD
  0
LINE
  5
1A5C1
  8
SUNPO
  6
CONTINUOUS
 10
81.0
 20
168.5
 30
0.0
 11
112.0
 21
168.5
 31
0.0
  0
ARC
  5
1A5C2
  8
SUNPO
  6
BYBLOCK
 10
81.0
 20
168.5
 30
0.0
 40
0.145
 50
180.0
 51
0.0
  0
ARC
  5
1A5C3
  8
SUNPO
  6
BYBLOCK
 10
81.0
 20
168.5
 30
0.0
 40
0.145
 50
0.0
 51
180.0
  0
ARC
  5
1A5C4
  8
SUNPO
  6
BYBLOCK
 10
81.0
 20
168.5
 30
0.0
 40
0.145
 50
0.0
 51
180.0
  0
ARC
  5
1A5C5
  8
SUNPO
  6
BYBLOCK
 10
81.0
 20
168.5
 30
0.0
 40
0.145
 50
180.0
 51
0.0
  0
LINE
  5
1A5C6
  8
SUNPO
  6
CONTINUOUS
 10
81.0
 20
168.5
 30
0.0
 11
73.0
 21
168.5
 31
0.0
  0
ARC
  5
1A5C7
  8
SUNPO
  6
BYBLOCK
 10
73.0
 20
168.5
 30
0.0
 40
0.145
 50
180.0
 51
0.0
  0
ARC
  5
1A5C8
  8
SUNPO
  6
BYBLOCK
 10
73.0
 20
168.5
 30
0.0
 40
0.145
 50
0.0
 51
180.0
  0
ARC
  5
1A5C9
  8
SUNPO
  6
BYBLOCK
 10
73.0
 20
168.5
 30
0.0
 40
0.145
 50
0.0
 51
180.0
  0
ARC
  5
1A5CA
  8
SUNPO
  6
BYBLOCK
 10
73.0
 20
168.5
 30
0.0
 40
0.145
 50
180.0
 51
0.0
  0
LINE
  5
1A5CB
  8
SUNPO
  6
CONTINUOUS
 10
112.0
 20
135.497913
 30
0.0
 11
112.0
 21
168.5
 31
0.0
  0
ARC
  5
1A5CC
  8
SUNPO
  6
BYBLOCK
 10
112.0
 20
168.5
 30
0.0
 40
0.145
 50
0.0
 51
180.0
  0
ARC
  5
1A5CD
  8
SUNPO
  6
BYBLOCK
 10
112.0
 20
168.5
 30
0.0
 40
0.145
 50
180.0
 51
0.0
  0
ARC
  5
1A5CE
  8
SUNPO
  6
BYBLOCK
 10
112.0
 20
168.5
 30
0.0
 40
0.145
 50
180.0
 51
0.0
  0
ARC
  5
1A5CF
  8
SUNPO
  6
BYBLOCK
 10
112.0
 20
168.5
 30
0.0
 40
0.145
 50
0.0
 51
180.0
  0
TEXT
  5
1A5D0
  8
SUNPO
  6
CONTINUOUS
 10
76.443604
 20
179.5
 30
0.0
 40
2.5
  1
70
  7
MX_NOTE_STANDARD
  0
LINE
  5
1A5D1
  8
SUNPO
  6
CONTINUOUS
 10
112.0
 20
183.002085
 30
0.0
 11
112.0
 21
178.5
 31
0.0
  0
ARC
  5
1A5D2
  8
SUNPO
  6
BYBLOCK
 10
112.0
 20
178.5
 30
0.0
 40
0.145
 50
0.0
 51
180.0
  0
ARC
  5
1A5D3
  8
SUNPO
  6
BYBLOCK
 10
112.0
 20
178.5
 30
0.0
 40
0.145
 50
180.0
 51
0.0
  0
LINE
  5
1A5D4
  8
SUNPO
  6
CONTINUOUS
 10
159.0
 20
154.641045
 30
0.0
 11
167.0
 21
154.641045
 31
0.0
  0
LINE
  5
1A5D5
  8
SUNPO
  6
CONTINUOUS
 10
159.0
 20
162.141045
 30
0.0
 11
167.0
 21
162.141045
 31
0.0
  0
LINE
  5
1A5D6
  8
SUNPO
  6
CONTINUOUS
 10
159.0
 20
156.641045
 30
0.0
 11
167.0
 21
156.641045
 31
0.0
  0
TEXT
  5
1A5D7
  8
SUNPO
  6
CONTINUOUS
 10
152.0
 20
124.416667
 30
0.0
 40
2.5
  1
54
 50
90.0
  7
MX_NOTE_STANDARD
  0
ARC
  5
1A5D8
  8
SUNPO
  6
BYBLOCK
 10
140.0
 20
168.5
 30
0.0
 40
0.145
 50
0.0
 51
180.0
  0
ARC
  5
1A5D9
  8
SUNPO
  6
BYBLOCK
 10
140.0
 20
168.5
 30
0.0
 40
0.145
 50
180.0
 51
0.0
  0
ARC
  5
1A5DA
  8
SUNPO
  6
BYBLOCK
 10
153.0
 20
153.5
 30
0.0
 40
0.145
 50
90.0
 51
270.0
  0
ARC
  5
1A5DB
  8
SUNPO
  6
BYBLOCK
 10
153.0
 20
153.5
 30
0.0
 40
0.145
 50
270.0
 51
90.0
  0
LINE
  5
1A5DC
  8
SUNPO
  6
CONTINUOUS
 10
159.0
 20
158.041039
 30
0.0
 11
159.0
 21
152.843696
 31
0.0
  0
LINE
  5
1A5DD
  8
SUNPO
  6
CONTINUOUS
 10
159.0
 20
164.153991
 30
0.0
 11
159.0
 21
160.420944
 31
0.0
  0
LINE
  5
1A5DE
  8
SUNPO
  6
CONTINUOUS
 10
161.799927
 20
170.156304
 30
0.0
 11
161.799927
 21
165.367761
 31
0.0
  0
LINE
  5
1A5DF
  8
SUNPO
  6
CONTINUOUS
 10
163.0
 20
162.141045
 30
0.0
 11
163.0
 21
156.641045
 31
0.0
  0
LINE
  5
1A5E0
  8
SUNPO
  6
CONTINUOUS
 10
167.0
 20
158.041039
 30
0.0
 11
167.0
 21
152.843696
 31
0.0
  0
LINE
  5
1A5E2
  8
SUNPO
  6
CONTINUOUS
 10
167.0
 20
164.153991
 30
0.0
 11
167.0
 21
160.420944
 31
0.0
  0
LINE
  5
1A5E4
  8
SUNPO
  6
CONTINUOUS
 10
164.199921
 20
170.156304
 30
0.0
 11
164.199921
 21
165.367761
 31
0.0
  0
ARC
  5
1A5E5
  8
SUNPO
  6
BYBLOCK
 10
153.0
 20
188.5
 30
0.0
 40
0.145
 50
270.0
 51
90.0
  0
ARC
  5
1A5E6
  8
SUNPO
  6
BYBLOCK
 10
153.0
 20
188.5
 30
0.0
 40
0.145
 50
90.0
 51
270.0
  0
TEXT
  5
1A5E7
  8
SUNPO
  6
CONTINUOUS
 10
152.0
 20
203.916667
 30
0.0
 40
2.5
  1
35
 50
90.0
  7
MX_NOTE_STANDARD
  0
LINE
  5
1A5E8
  8
SUNPO
  6
CONTINUOUS
 10
113.5
 20
223.5
 30
0.0
 11
163.0
 21
223.5
 31
0.0
  0
LINE
  5
1A5E9
  8
SUNPO
  6
CONTINUOUS
 10
113.5
 20
258.5
 30
0.0
 11
163.0
 21
258.5
 31
0.0
  0
ARC
  5
1A5EA
  8
SUNPO
  6
BYBLOCK
 10
163.0
 20
258.5
 30
0.0
 40
0.145
 50
90.0
 51
270.0
  0
LINE
  5
1A5EB
  8
SUNPO
  6
CONTINUOUS
 10
158.0
 20
218.5
 30
0.0
 11
163.0
 21
223.5
 31
0.0
  0
LINE
  5
1A5EC
  8
SUNPO
  6
CONTINUOUS
 10
168.0
 20
218.5
 30
0.0
 11
158.0
 21
218.5
 31
0.0
  0
TEXT
  5
1A5ED
  8
SUNPO
  6
CONTINUOUS
 10
162.0
 20
238.916667
 30
0.0
 40
2.5
  1
35
 50
90.0
  7
MX_NOTE_STANDARD
  0
ARC
  5
1A5EE
  8
SUNPO
  6
BYBLOCK
 10
153.0
 20
223.5
 30
0.0
 40
0.145
 50
90.0
 51
270.0
  0
ARC
  5
1A5EF
  8
SUNPO
  6
BYBLOCK
 10
153.0
 20
223.5
 30
0.0
 40
0.145
 50
270.0
 51
90.0
  0
LINE
  5
1A5F1
  8
SUNPO
  6
CONTINUOUS
 10
163.0
 20
258.5
 30
0.0
 11
163.0
 21
223.5
 31
0.0
  0
LINE
  5
1A5F2
  8
SUNPO
  6
CONTINUOUS
 10
163.0
 20
223.5
 30
0.0
 11
168.0
 21
218.5
 31
0.0
  0
ARC
  5
1A5F5
  8
SUNPO
  6
BYBLOCK
 10
163.0
 20
258.5
 30
0.0
 40
0.145
 50
270.0
 51
90.0
  0
LINE
  5
1A5F6
  8
SUNPO
  6
CONTINUOUS
 10
201.0
 20
166.5
 30
0.0
 11
251.0
 21
166.5
 31
0.0
  0
LINE
  5
1A5F7
  8
SUNPO
  6
CONTINUOUS
 10
198.0
 20
158.0
 30
0.0
 11
198.0
 21
166.5
 31
0.0
  0
LINE
  5
1A5F8
  8
SUNPO
  6
CONTINUOUS
 10
201.0
 20
159.5
 30
0.0
 11
201.0
 21
166.5
 31
0.0
  0
TEXT
  5
1A5F9
  8
SUNPO
  6
CONTINUOUS
 10
198.666667
 20
167.5
 30
0.0
 40
2.5
  1
3
  7
MX_NOTE_STANDARD
  0
LINE
  5
1A5FA
  8
SUNPO
  6
CONTINUOUS
 10
201.0
 20
166.5
 30
0.0
 11
198.0
 21
166.5
 31
0.0
  0
ARC
  5
1A5FB
  8
SUNPO
  6
BYBLOCK
 10
198.0
 20
166.5
 30
0.0
 40
0.145
 50
180.0
 51
0.0
  0
ARC
  5
1A5FC
  8
SUNPO
  6
BYBLOCK
 10
198.0
 20
166.5
 30
0.0
 40
0.145
 50
0.0
 51
180.0
  0
ARC
  5
1A5FD
  8
SUNPO
  6
BYBLOCK
 10
201.0
 20
166.5
 30
0.0
 40
0.145
 50
0.0
 51
180.0
  0
ARC
  5
1A5FE
  8
SUNPO
  6
BYBLOCK
 10
201.0
 20
166.5
 30
0.0
 40
0.145
 50
180.0
 51
0.0
  0
ARC
  5
1A5FF
  8
SUNPO
  6
BYBLOCK
 10
201.0
 20
166.5
 30
0.0
 40
0.145
 50
180.0
 51
0.0
  0
ARC
  5
1A600
  8
SUNPO
  6
BYBLOCK
 10
201.0
 20
166.5
 30
0.0
 40
0.145
 50
0.0
 51
180.0
  0
TEXT
  5
1A601
  8
SUNPO
  6
CONTINUOUS
 10
224.125
 20
167.5
 30
0.0
 40
2.5
  1
50
  7
MX_NOTE_STANDARD
  0
LINE
  5
1A602
  8
SUNPO
  6
CONTINUOUS
 10
234.5
 20
156.5
 30
0.0
 11
254.5
 21
156.5
 31
0.0
  0
LINE
  5
1A603
  8
SUNPO
  6
CONTINUOUS
 10
254.5
 20
156.5
 30
0.0
 11
254.5
 21
159.5
 31
0.0
  0
LINE
  5
1A604
  8
SUNPO
  6
CONTINUOUS
 10
251.0
 20
158.0
 30
0.0
 11
251.0
 21
166.5
 31
0.0
  0
ARC
  5
1A605
  8
SUNPO
  6
BYBLOCK
 10
254.5
 20
156.5
 30
0.0
 40
0.145
 50
270.0
 51
90.0
  0
ARC
  5
1A606
  8
SUNPO
  6
BYBLOCK
 10
254.5
 20
156.5
 30
0.0
 40
0.145
 50
90.0
 51
270.0
  0
ARC
  5
1A607
  8
SUNPO
  6
BYBLOCK
 10
254.5
 20
156.5
 30
0.0
 40
0.145
 50
90.0
 51
270.0
  0
ARC
  5
1A608
  8
SUNPO
  6
BYBLOCK
 10
254.5
 20
156.5
 30
0.0
 40
0.145
 50
270.0
 51
90.0
  0
TEXT
  5
1A609
  8
SUNPO
  6
CONTINUOUS
 10
253.5
 20
162.82
 30
0.0
 40
2.5
  1
3
 50
90.0
  7
MX_NOTE_STANDARD
  0
ARC
  5
1A60A
  8
SUNPO
  6
BYBLOCK
 10
251.0
 20
166.5
 30
0.0
 40
0.145
 50
0.0
 51
180.0
  0
ARC
  5
1A60B
  8
SUNPO
  6
BYBLOCK
 10
251.0
 20
166.5
 30
0.0
 40
0.145
 50
180.0
 51
0.0
  0
LINE
  5
1A60C
  8
SUNPO
  6
CONTINUOUS
 10
254.5
 20
159.5
 30
0.0
 11
254.5
 21
165.486667
 31
0.0
  0
ARC
  5
1A60D
  8
SUNPO
  6
BYBLOCK
 10
254.5
 20
159.5
 30
0.0
 40
0.145
 50
90.0
 51
270.0
  0
ARC
  5
1A60E
  8
SUNPO
  6
BYBLOCK
 10
254.5
 20
159.5
 30
0.0
 40
0.145
 50
270.0
 51
90.0
  0
LINE
  5
1A60F
  8
SUNPO
  6
CONTINUOUS
 10
373.0
 20
166.5
 30
0.0
 11
398.0
 21
166.5
 31
0.0
  0
LINE
  5
1A610
  8
SUNPO
  6
CONTINUOUS
 10
330.0
 20
149.5
 30
0.0
 11
330.0
 21
125.5
 31
0.0
  0
ARC
  5
1A611
  8
SUNPO
  6
BYBLOCK
 10
330.0
 20
125.5
 30
0.0
 40
0.145
 50
270.0
 51
90.0
  0
ARC
  5
1A612
  8
SUNPO
  6
BYBLOCK
 10
330.0
 20
125.5
 30
0.0
 40
0.145
 50
90.0
 51
270.0
  0
ARC
  5
1A613
  8
SUNPO
  6
BYBLOCK
 10
330.0
 20
125.5
 30
0.0
 40
0.145
 50
90.0
 51
270.0
  0
ARC
  5
1A614
  8
SUNPO
  6
BYBLOCK
 10
330.0
 20
125.5
 30
0.0
 40
0.145
 50
270.0
 51
90.0
  0
LINE
  5
1A615
  8
SUNPO
  6
CONTINUOUS
 10
351.5
 20
156.5
 30
0.0
 11
330.0
 21
156.5
 31
0.0
  0
LINE
  5
1A616
  8
SUNPO
  6
CONTINUOUS
 10
330.0
 20
149.5
 30
0.0
 11
330.0
 21
156.5
 31
0.0
  0
ARC
  5
1A617
  8
SUNPO
  6
BYBLOCK
 10
330.0
 20
149.5
 30
0.0
 40
0.145
 50
90.0
 51
270.0
  0
ARC
  5
1A618
  8
SUNPO
  6
BYBLOCK
 10
330.0
 20
149.5
 30
0.0
 40
0.145
 50
270.0
 51
90.0
  0
ARC
  5
1A619
  8
SUNPO
  6
BYBLOCK
 10
330.0
 20
149.5
 30
0.0
 40
0.145
 50
270.0
 51
90.0
  0
ARC
  5
1A61A
  8
SUNPO
  6
BYBLOCK
 10
330.0
 20
149.5
 30
0.0
 40
0.145
 50
90.0
 51
270.0
  0
ARC
  5
1A61B
  8
SUNPO
  6
BYBLOCK
 10
330.0
 20
156.5
 30
0.0
 40
0.145
 50
90.0
 51
270.0
  0
ARC
  5
1A61C
  8
SUNPO
  6
BYBLOCK
 10
330.0
 20
156.5
 30
0.0
 40
0.145
 50
270.0
 51
90.0
  0
LINE
  5
1A61D
  8
SUNPO
  6
CONTINUOUS
 10
373.0
 20
156.850006
 30
0.0
 11
373.0
 21
166.5
 31
0.0
  0
ARC
  5
1A61E
  8
SUNPO
  6
BYBLOCK
 10
373.0
 20
166.5
 30
0.0
 40
0.145
 50
180.0
 51
0.0
  0
ARC
  5
1A61F
  8
SUNPO
  6
BYBLOCK
 10
373.0
 20
166.5
 30
0.0
 40
0.145
 50
0.0
 51
180.0
  0
TEXT
  5
1A620
  8
SUNPO
  6
CONTINUOUS
 10
383.416667
 20
167.5
 30
0.0
 40
2.5
  1
25
  7
MX_NOTE_STANDARD
  0
LINE
  5
1A621
  8
SUNPO
  6
CONTINUOUS
 10
398.0
 20
157.5
 30
0.0
 11
398.0
 21
166.5
 31
0.0
  0
ARC
  5
1A622
  8
SUNPO
  6
BYBLOCK
 10
398.0
 20
166.5
 30
0.0
 40
0.145
 50
0.0
 51
180.0
  0
ARC
  5
1A623
  8
SUNPO
  6
BYBLOCK
 10
398.0
 20
166.5
 30
0.0
 40
0.145
 50
180.0
 51
0.0
  0
LINE
  5
1A6A9
  8
SUNPO
  6
CONTINUOUS
 10
240.285372
 20
36.107269
 30
0.0
 11
241.198887
 21
36.730081
 31
0.0
210
0.0
220
0.0
230
-1.0
  0
LINE
  5
1A6AA
  8
SUNPO
  6
CONTINUOUS
 10
241.198887
 20
36.730081
 30
0.0
 11
241.669982
 21
36.768293
 31
0.0
210
0.0
220
0.0
230
-1.0
  0
LINE
  5
1A6AB
  8
SUNPO
  6
CONTINUOUS
 10
241.669982
 20
36.768293
 30
0.0
 11
241.4838
 21
36.255982
 31
0.0
210
0.0
220
0.0
230
-1.0
  0
LINE
  5
1A6AC
  8
SUNPO
  6
CONTINUOUS
 10
241.4838
 20
36.255982
 30
0.0
 11
240.590898
 21
34.276791
 31
0.0
210
0.0
220
0.0
230
-1.0
  0
LINE
  5
1A6AD
  8
SUNPO
  6
CONTINUOUS
 10
240.590898
 20
34.276791
 30
0.0
 11
240.887461
 21
33.297817
 31
0.0
210
0.0
220
0.0
230
-1.0
  0
LINE
  5
1A6AE
  8
SUNPO
  6
CONTINUOUS
 10
240.887461
 20
33.297817
 30
0.0
 11
241.848871
 21
33.601968
 31
0.0
210
0.0
220
0.0
230
-1.0
  0
LINE
  5
1A6AF
  8
SUNPO
  6
CONTINUOUS
 10
241.848871
 20
33.601968
 30
0.0
 11
242.33436
 21
34.719453
 31
0.0
210
0.0
220
0.0
230
-1.0
  0
LINE
  5
1A6B0
  8
SUNPO
  6
CONTINUOUS
 10
242.33436
 20
34.719453
 30
0.0
 11
242.44692
 21
35.220793
 31
0.0
210
0.0
220
0.0
230
-1.0
  0
LINE
  5
1A6B1
  8
SUNPO
  6
CONTINUOUS
 10
242.44692
 20
35.220793
 30
0.0
 11
242.319498
 21
34.695165
 31
0.0
210
0.0
220
0.0
230
-1.0
  0
LINE
  5
1A6B2
  8
SUNPO
  6
CONTINUOUS
 10
242.319498
 20
34.695165
 30
0.0
 11
242.269705
 21
33.62979
 31
0.0
210
0.0
220
0.0
230
-1.0
  0
LINE
  5
1A6B3
  8
SUNPO
  6
CONTINUOUS
 10
242.269705
 20
33.62979
 30
0.0
 11
243.105643
 21
33.048466
 31
0.0
210
0.0
220
0.0
230
-1.0
  0
LINE
  5
1A6B4
  8
SUNPO
  6
CONTINUOUS
 10
243.105643
 20
33.048466
 30
0.0
 11
243.978647
 21
33.664377
 31
0.0
210
0.0
220
0.0
230
-1.0
  0
LINE
  5
1A6B5
  8
SUNPO
  6
CONTINUOUS
 10
243.978647
 20
33.664377
 30
0.0
 11
244.421869
 21
34.654112
 31
0.0
210
0.0
220
0.0
230
-1.0
  0
LINE
  5
1A6B6
  8
SUNPO
  6
CONTINUOUS
 10
244.421869
 20
34.654112
 30
0.0
 11
244.306626
 21
36.810488
 31
0.0
210
0.0
220
0.0
230
-1.0
  0
LINE
  5
1A6B7
  8
SUNPO
  6
CONTINUOUS
 10
244.306626
 20
36.810488
 30
0.0
 11
246.444428
 21
36.57399
 31
0.0
210
0.0
220
0.0
230
-1.0
  0
LINE
  5
1A6B8
  8
SUNPO
  6
CONTINUOUS
 10
340.285372
 20
36.107269
 30
0.0
 11
341.198887
 21
36.730081
 31
0.0
210
0.0
220
0.0
230
-1.0
  0
LINE
  5
1A6B9
  8
SUNPO
  6
CONTINUOUS
 10
341.198887
 20
36.730081
 30
0.0
 11
341.669983
 21
36.768293
 31
0.0
210
0.0
220
0.0
230
-1.0
  0
LINE
  5
1A6BA
  8
SUNPO
  6
CONTINUOUS
 10
341.669983
 20
36.768293
 30
0.0
 11
341.4838
 21
36.255983
 31
0.0
210
0.0
220
0.0
230
-1.0
  0
LINE
  5
1A6BB
  8
SUNPO
  6
CONTINUOUS
 10
341.4838
 20
36.255983
 30
0.0
 11
340.590898
 21
34.276791
 31
0.0
210
0.0
220
0.0
230
-1.0
  0
LINE
  5
1A6BC
  8
SUNPO
  6
CONTINUOUS
 10
340.590898
 20
34.276791
 30
0.0
 11
340.887461
 21
33.297817
 31
0.0
210
0.0
220
0.0
230
-1.0
  0
LINE
  5
1A6BD
  8
SUNPO
  6
CONTINUOUS
 10
340.887461
 20
33.297817
 30
0.0
 11
341.848871
 21
33.601967
 31
0.0
210
0.0
220
0.0
230
-1.0
  0
LINE
  5
1A6BE
  8
SUNPO
  6
CONTINUOUS
 10
341.848871
 20
33.601967
 30
0.0
 11
342.334361
 21
34.719451
 31
0.0
210
0.0
220
0.0
230
-1.0
  0
LINE
  5
1A6BF
  8
SUNPO
  6
CONTINUOUS
 10
342.334361
 20
34.719451
 30
0.0
 11
342.446921
 21
35.220793
 31
0.0
210
0.0
220
0.0
230
-1.0
  0
LINE
  5
1A6C0
  8
SUNPO
  6
CONTINUOUS
 10
342.446921
 20
35.220793
 30
0.0
 11
342.3195
 21
34.695166
 31
0.0
210
0.0
220
0.0
230
-1.0
  0
LINE
  5
1A6C1
  8
SUNPO
  6
CONTINUOUS
 10
342.3195
 20
34.695166
 30
0.0
 11
342.269705
 21
33.62979
 31
0.0
210
0.0
220
0.0
230
-1.0
  0
LINE
  5
1A6C2
  8
SUNPO
  6
CONTINUOUS
 10
342.269705
 20
33.62979
 30
0.0
 11
343.105643
 21
33.048466
 31
0.0
210
0.0
220
0.0
230
-1.0
  0
LINE
  5
1A6C3
  8
SUNPO
  6
CONTINUOUS
 10
343.105643
 20
33.048466
 30
0.0
 11
343.978648
 21
33.664377
 31
0.0
210
0.0
220
0.0
230
-1.0
  0
LINE
  5
1A6C4
  8
SUNPO
  6
CONTINUOUS
 10
343.978648
 20
33.664377
 30
0.0
 11
344.42187
 21
34.654112
 31
0.0
210
0.0
220
0.0
230
-1.0
  0
LINE
  5
1A6C5
  8
SUNPO
  6
CONTINUOUS
 10
344.42187
 20
34.654112
 30
0.0
 11
344.306626
 21
36.810488
 31
0.0
210
0.0
220
0.0
230
-1.0
  0
LINE
  5
1A6C6
  8
SUNPO
  6
CONTINUOUS
 10
344.306626
 20
36.810488
 30
0.0
 11
346.444429
 21
36.57399
 31
0.0
210
0.0
220
0.0
230
-1.0
  0
LINE
  5
1AC4C
  8
DANMEN
  6
CONTINUOUS
 10
68.849998
 20
74.499998
 30
0.0
 11
68.849998
 21
60.0
 31
0.0
  0
LINE
  5
1AC4D
  8
DANMEN
  6
CONTINUOUS
 10
70.799998
 20
74.5
 30
0.0
 11
70.799998
 21
60.0
 31
0.0
  0
LINE
  5
1AC4E
  8
DANMEN
  6
CONTINUOUS
 10
69.349999
 20
59.499997
 30
0.0
 11
70.299997
 21
59.499997
 31
0.0
  0
ARC
  5
1AC4F
  8
DANMEN
  6
CONTINUOUS
 10
70.299998
 20
60.0
 30
0.0
 40
0.5
 50
269.999982
 51
359.999964
  0
ARC
  5
1AC50
  8
DANMEN
  6
CONTINUOUS
 10
69.349998
 20
60.0
 30
0.0
 40
0.5
 50
180.000052
 51
269.999982
  0
LINE
  5
1AC51
  8
DANMEN
  6
CONTINUOUS
 10
70.799998
 20
74.5
 30
0.0
 11
72.499998
 21
74.5
 31
0.0
  0
ENDSEC
  0
EOF
