  0
SECTION
  2
HEADER
  9
$ACADVER
  1
AC1009
  9
$INSBASE
 10
0.0
 20
0.0
 30
0.0
  9
$EXTMIN
 10
4.986803
 20
4.971933
 30
-0.001526
  9
$EXTMAX
 10
415.019075
 20
292.013444
 30
0.0
  9
$LIMMIN
 10
-210.0
 20
-148.5
  9
$LIMMAX
 10
210.0
 20
148.5
  9
$ORTHOMODE
 70
     0
  9
$REGENMODE
 70
     1
  9
$FILLMODE
 70
     1
  9
$QTEXTMODE
 70
     0
  9
$MIRRTEXT
 70
     1
  9
$DRAGMODE
 70
     2
  9
$LTSCALE
 40
0.5
  9
$OSMODE
 70
   239
  9
$ATTMODE
 70
     1
  9
$TEXTSIZE
 40
0.2
  9
$TRACEWID
 40
0.05
  9
$TEXTSTYLE
  7
MX_NOTE_STANDARD
  9
$CLAYER
  8
0
  9
$CELTYPE
  6
CONTINUOUS
  9
$CECOLOR
 62
   256
  9
$DIMSCALE
 40
1.0
  9
$DIMASZ
 40
2.5
  9
$DIMEXO
 40
1.5
  9
$DIMDLI
 40
3.75
  9
$DIMRND
 40
0.0
  9
$DIMDLE
 40
0.0
  9
$DIMEXE
 40
0.0
  9
$DIMTP
 40
0.0
  9
$DIMTM
 40
0.0
  9
$DIMTXT
 40
2.5
  9
$DIMCEN
 40
2.5
  9
$DIMTSZ
 40
0.0
  9
$DIMTOL
 70
     0
  9
$DIMLIM
 70
     0
  9
$DIMTIH
 70
     0
  9
$DIMTOH
 70
     0
  9
$DIMSE1
 70
     0
  9
$DIMSE2
 70
     0
  9
$DIMTAD
 70
     1
  9
$DIMZIN
 70
     8
  9
$DIMBLK
  1

  9
$DIMASO
 70
     1
  9
$DIMSHO
 70
     1
  9
$DIMPOST
  1

  9
$DIMAPOST
  1

  9
$DIMALT
 70
     0
  9
$DIMALTD
 70
     4
  9
$DIMALTF
 40
0.0394
  9
$DIMLFAC
 40
1.0
  9
$DIMTOFL
 70
     1
  9
$DIMTVP
 40
0.0
  9
$DIMTIX
 70
     0
  9
$DIMSOXD
 70
     0
  9
$DIMSAH
 70
     0
  9
$DIMBLK1
  1

  9
$DIMBLK2
  1

  9
$DIMSTYLE
  2
MXDIMSTYLE
  9
$DIMCLRD
 70
     0
  9
$DIMCLRE
 70
     0
  9
$DIMCLRT
 70
     0
  9
$DIMTFAC
 40
1.0
  9
$DIMGAP
 40
1.0
  9
$LUNITS
 70
     2
  9
$LUPREC
 70
     4
  9
$SKETCHINC
 40
0.1
  9
$FILLETRAD
 40
0.0
  9
$AUNITS
 70
     0
  9
$AUPREC
 70
     0
  9
$MENU
  1
acad
  9
$ELEVATION
 40
0.0
  9
$PELEVATION
 40
0.0
  9
$THICKNESS
 40
0.0
  9
$LIMCHECK
 70
     0
  9
$BLIPMODE
 70
     0
  9
$CHAMFERA
 40
0.0
  9
$CHAMFERB
 40
0.0
  9
$SKPOLY
 70
     0
  9
$TDCREATE
 40
2452006.37162
  9
$TDUPDATE
 40
2452136.991483
  9
$TDINDWG
 40
0.081601
  9
$TDUSRTIMER
 40
0.081601
  9
$USRTIMER
 70
     1
  9
$ANGBASE
 50
0.0
  9
$ANGDIR
 70
     0
  9
$PDMODE
 70
     3
  9
$PDSIZE
 40
-100.0
  9
$PLINEWID
 40
0.0
  9
$COORDS
 70
     0
  9
$SPLFRAME
 70
     0
  9
$SPLINETYPE
 70
     6
  9
$SPLINESEGS
 70
     8
  9
$ATTDIA
 70
     0
  9
$ATTREQ
 70
     1
  9
$HANDLING
 70
     1
  9
$HANDSEED
  5
19AB8
  9
$SURFTAB1
 70
     6
  9
$SURFTAB2
 70
     6
  9
$SURFTYPE
 70
     6
  9
$SURFU
 70
     6
  9
$SURFV
 70
     6
  9
$UCSNAME
  2

  9
$UCSORG
 10
0.0
 20
0.0
 30
0.0
  9
$UCSXDIR
 10
1.0
 20
0.0
 30
0.0
  9
$UCSYDIR
 10
0.0
 20
1.0
 30
0.0
  9
$PUCSNAME
  2

  9
$PUCSORG
 10
0.0
 20
0.0
 30
0.0
  9
$PUCSXDIR
 10
1.0
 20
0.0
 30
0.0
  9
$PUCSYDIR
 10
0.0
 20
1.0
 30
0.0
  9
$USERI1
 70
     0
  9
$USERI2
 70
     0
  9
$USERI3
 70
     0
  9
$USERI4
 70
     0
  9
$USERI5
 70
     0
  9
$USERR1
 40
0.0
  9
$USERR2
 40
0.0
  9
$USERR3
 40
0.0
  9
$USERR4
 40
0.0
  9
$USERR5
 40
0.0
  9
$WORLDVIEW
 70
     1
  9
$SHADEDGE
 70
     3
  9
$SHADEDIF
 70
    70
  9
$TILEMODE
 70
     1
  9
$MAXACTVP
 70
    16
  9
$PLIMCHECK
 70
     0
  9
$PEXTMIN
 10
1.000000E+020
 20
1.000000E+020
 30
1.000000E+020
  9
$PEXTMAX
 10
-1.000000E+020
 20
-1.000000E+020
 30
-1.000000E+020
  9
$PLIMMIN
 10
0.0
 20
0.0
  9
$PLIMMAX
 10
12.0
 20
9.0
  9
$UNITMODE
 70
     0
  9
$VISRETAIN
 70
     0
  9
$PLINEGEN
 70
     1
  9
$PSLTSCALE
 70
     0
  0
ENDSEC
  0
SECTION
  2
TABLES
  0
TABLE
  2
VPORT
 70
     2
  0
VPORT
  2
*ACTIVE
 70
     0
 10
0.0
 20
0.0
 11
1.0
 21
1.0
 12
210.002939
 22
148.492688
 13
0.0
 23
0.0
 14
1.0
 24
1.0
 15
0.0
 25
0.0
 16
0.0
 26
0.0
 36
1.0
 17
0.0
 27
0.0
 37
0.0
 40
290.242718
 41
1.867784
 42
50.0
 43
0.0
 44
0.0
 50
0.0
 51
0.0
 71
     0
 72
   100
 73
     1
 74
     0
 75
     0
 76
     0
 77
     0
 78
     0
  0
ENDTAB
  0
TABLE
  2
LTYPE
 70
     2
  0
LTYPE
  2
CONTINUOUS
 70
     0
  3
Solid line
 72
    65
 73
     0
 40
0.0
  0
LTYPE
  2
DASHED
 70
     0
  3
Dashed __ __ __ __ __ __ __ __ __ __ __ __ __ _
 72
    65
 73
     2
 40
19.05
 49
12.7
 49
-6.35
  0
ENDTAB
  0
TABLE
  2
LAYER
 70
     4
  0
LAYER
  2
0
 70
     0
 62
     7
  6
CONTINUOUS
  0
LAYER
  2
SUNPO
 70
     0
 62
     1
  6
CONTINUOUS
  0
LAYER
  2
DANMEN
 70
     0
 62
     7
  6
CONTINUOUS
  0
LAYER
  2
WAKU
 70
     0
 62
     3
  6
CONTINUOUS
  0
ENDTAB
  0
TABLE
  2
STYLE
 70
     2
  0
STYLE
  2
STANDARD
 70
     0
 40
0.0
 41
1.0
 50
0.0
 71
     0
 42
0.2
  3
txt.shx
  4
extfont.shx
  0
STYLE
  2
MX_NOTE_STANDARD
 70
     0
 40
2.5
 41
1.0
 50
0.0
 71
     0
 42
2.5
  3
txt.shx
  4
extfont.shx
  0
ENDTAB
  0
TABLE
  2
VIEW
 70
     0
  0
ENDTAB
  0
TABLE
  2
UCS
 70
     0
  0
ENDTAB
  0
TABLE
  2
APPID
 70
     1
  0
APPID
  2
ACAD
 70
     0
  0
ENDTAB
  0
TABLE
  2
DIMSTYLE
 70
     1
  0
DIMSTYLE
  2
MXDIMSTYLE
 70
     0
  3

  4

  5

  6

  7

 40
1.0
 41
2.5
 42
1.5
 43
3.75
 44
0.0
 45
0.0
 46
0.0
 47
0.0
 48
0.0
140
2.5
141
2.5
142
0.0
143
0.0394
144
1.0
145
0.0
146
1.0
147
1.0
 71
     0
 72
     0
 73
     0
 74
     0
 75
     0
 76
     0
 77
     1
 78
     8
170
     0
171
     4
172
     1
173
     0
174
     0
175
     0
176
     0
177
     0
178
     0
  0
ENDTAB
  0
ENDSEC
  0
SECTION
  2
BLOCKS
  0
BLOCK
  8
0
  2
$MODEL_SPACE
 70
     0
 10
0.0
 20
0.0
 30
0.0
  3
$MODEL_SPACE
  1

  0
ENDBLK
  5
19552
  8
0
  0
BLOCK
 67
     1
  8
0
  2
$PAPER_SPACE
 70
     0
 10
0.0
 20
0.0
 30
0.0
  3
$PAPER_SPACE
  1

  0
ENDBLK
  5
19550
 67
     1
  8
0
  0
BLOCK
  8
0
  2
*U0
 70
     1
 10
0.0
 20
0.0
 30
0.0
  3
*U0
  1

  0
SOLID
  5
DA5C
  8
WAKU
  6
CONTINUOUS
 10
371.305142
 20
283.605291
 30
0.0
 11
370.499782
 21
283.530361
 31
0.0
 12
370.874987
 22
283.520449
 32
0.0
 13
370.874987
 23
283.520449
 33
0.0
  0
SOLID
  5
DA5D
  8
WAKU
  6
CONTINUOUS
 10
370.193309
 20
283.634664
 30
0.0
 11
370.499782
 21
283.530361
 31
0.0
 12
371.305142
 22
283.605291
 32
0.0
 13
371.305142
 23
283.605291
 33
0.0
  0
SOLID
  5
DA5E
  8
WAKU
  6
CONTINUOUS
 10
371.774448
 20
283.781773
 30
0.0
 11
370.193309
 21
283.634664
 31
0.0
 12
371.305142
 22
283.605291
 32
0.0
 13
371.305142
 23
283.605291
 33
0.0
  0
SOLID
  5
DA5F
  8
WAKU
  6
CONTINUOUS
 10
369.966824
 20
283.829526
 30
0.0
 11
370.193309
 21
283.634664
 31
0.0
 12
371.774448
 22
283.781773
 32
0.0
 13
371.774448
 23
283.781773
 33
0.0
  0
SOLID
  5
DA60
  8
WAKU
  6
CONTINUOUS
 10
370.594177
 20
283.909498
 30
0.0
 11
369.966824
 21
283.829526
 31
0.0
 12
371.774448
 22
283.781773
 32
0.0
 13
371.774448
 23
283.781773
 33
0.0
  0
SOLID
  5
DA61
  8
WAKU
  6
CONTINUOUS
 10
370.901294
 20
283.914863
 30
0.0
 11
370.594177
 21
283.909498
 31
0.0
 12
371.774448
 22
283.781773
 32
0.0
 13
371.774448
 23
283.781773
 33
0.0
  0
SOLID
  5
DA62
  8
WAKU
  6
CONTINUOUS
 10
370.392927
 20
283.968568
 30
0.0
 11
369.966824
 21
283.829526
 31
0.0
 12
370.594177
 22
283.909498
 32
0.0
 13
370.594177
 23
283.909498
 33
0.0
  0
SOLID
  5
DA63
  8
WAKU
  6
CONTINUOUS
 10
371.296984
 20
284.010368
 30
0.0
 11
370.901294
 21
283.914863
 31
0.0
 12
371.774448
 22
283.781773
 32
0.0
 13
371.774448
 23
283.781773
 33
0.0
  0
SOLID
  5
DA64
  8
WAKU
  6
CONTINUOUS
 10
372.265666
 20
284.043411
 30
0.0
 11
371.296984
 21
284.010368
 31
0.0
 12
371.774448
 22
283.781773
 32
0.0
 13
371.774448
 23
283.781773
 33
0.0
  0
SOLID
  5
DA65
  8
WAKU
  6
CONTINUOUS
 10
370.275177
 20
284.066476
 30
0.0
 11
369.966824
 21
283.829526
 31
0.0
 12
370.392927
 22
283.968568
 32
0.0
 13
370.392927
 23
283.968568
 33
0.0
  0
SOLID
  5
DA66
  8
WAKU
  6
CONTINUOUS
 10
369.828646
 20
284.107791
 30
0.0
 11
369.966824
 21
283.829526
 31
0.0
 12
370.275177
 22
284.066476
 32
0.0
 13
370.275177
 23
284.066476
 33
0.0
  0
SOLID
  5
DA67
  8
WAKU
  6
CONTINUOUS
 10
370.709458
 20
284.142397
 30
0.0
 11
369.828646
 21
284.107791
 31
0.0
 12
370.275177
 22
284.066476
 32
0.0
 13
370.275177
 23
284.066476
 33
0.0
  0
SOLID
  5
DA68
  8
WAKU
  6
CONTINUOUS
 10
371.751882
 20
284.202798
 30
0.0
 11
371.296984
 21
284.010368
 31
0.0
 12
372.265666
 22
284.043411
 32
0.0
 13
372.265666
 23
284.043411
 33
0.0
  0
SOLID
  5
DA69
  8
WAKU
  6
CONTINUOUS
 10
369.550381
 20
284.245969
 30
0.0
 11
369.828646
 21
284.107791
 31
0.0
 12
370.709458
 22
284.142397
 32
0.0
 13
370.709458
 23
284.142397
 33
0.0
  0
SOLID
  5
DA6A
  8
WAKU
  6
CONTINUOUS
 10
371.186428
 20
284.314625
 30
0.0
 11
369.550381
 21
284.245969
 31
0.0
 12
370.709458
 22
284.142397
 32
0.0
 13
370.709458
 23
284.142397
 33
0.0
  0
SOLID
  5
DA6B
  8
WAKU
  6
CONTINUOUS
 10
372.760756
 20
284.380595
 30
0.0
 11
371.751882
 21
284.202798
 31
0.0
 12
372.265666
 22
284.043411
 32
0.0
 13
372.265666
 23
284.043411
 33
0.0
  0
SOLID
  5
DA6C
  8
WAKU
  6
CONTINUOUS
 10
370.172911
 20
284.451856
 30
0.0
 11
369.550381
 21
284.245969
 31
0.0
 12
371.186428
 22
284.314625
 32
0.0
 13
371.186428
 23
284.314625
 33
0.0
  0
SOLID
  5
DA6D
  8
WAKU
  6
CONTINUOUS
 10
369.355518
 20
284.472454
 30
0.0
 11
369.550381
 21
284.245969
 31
0.0
 12
370.172911
 22
284.451856
 32
0.0
 13
370.172911
 23
284.451856
 33
0.0
  0
SOLID
  5
DA6E
  8
WAKU
  6
CONTINUOUS
 10
372.237497
 20
284.486117
 30
0.0
 11
371.751882
 21
284.202798
 31
0.0
 12
372.760756
 22
284.380595
 32
0.0
 13
372.760756
 23
284.380595
 33
0.0
  0
SOLID
  5
DA6F
  8
WAKU
  6
CONTINUOUS
 10
370.681395
 20
284.539195
 30
0.0
 11
370.172911
 21
284.451856
 31
0.0
 12
371.186428
 22
284.314625
 32
0.0
 13
371.186428
 23
284.314625
 33
0.0
  0
SOLID
  5
DA70
  8
WAKU
  6
CONTINUOUS
 10
369.787305
 20
284.553935
 30
0.0
 11
369.355518
 21
284.472454
 31
0.0
 12
370.172911
 22
284.451856
 32
0.0
 13
370.172911
 23
284.451856
 33
0.0
  0
SOLID
  5
DA71
  8
WAKU
  6
CONTINUOUS
 10
371.68777
 20
284.576545
 30
0.0
 11
370.681395
 21
284.539195
 31
0.0
 12
371.186428
 22
284.314625
 32
0.0
 13
371.186428
 23
284.314625
 33
0.0
  0
SOLID
  5
DA72
  8
WAKU
  6
CONTINUOUS
 10
369.689155
 20
284.672435
 30
0.0
 11
369.355518
 21
284.472454
 31
0.0
 12
369.787305
 22
284.553935
 32
0.0
 13
369.787305
 23
284.553935
 33
0.0
  0
SOLID
  5
DA73
  8
WAKU
  6
CONTINUOUS
 10
369.251215
 20
284.778928
 30
0.0
 11
369.355518
 21
284.472454
 31
0.0
 12
369.689155
 22
284.672435
 32
0.0
 13
369.689155
 23
284.672435
 33
0.0
  0
SOLID
  5
DA74
  8
WAKU
  6
CONTINUOUS
 10
373.241532
 20
284.780941
 30
0.0
 11
372.237497
 21
284.486117
 31
0.0
 12
372.760756
 22
284.380595
 32
0.0
 13
372.760756
 23
284.380595
 33
0.0
  0
SOLID
  5
DA75
  8
WAKU
  6
CONTINUOUS
 10
371.312263
 20
284.810332
 30
0.0
 11
370.681395
 21
284.539195
 31
0.0
 12
371.68777
 22
284.576545
 32
0.0
 13
371.68777
 23
284.576545
 33
0.0
  0
SOLID
  5
DA76
  8
WAKU
  6
CONTINUOUS
 10
369.630358
 20
284.873087
 30
0.0
 11
369.251215
 21
284.778928
 31
0.0
 12
369.689155
 22
284.672435
 32
0.0
 13
369.689155
 23
284.672435
 33
0.0
  0
SOLID
  5
DA77
  8
WAKU
  6
CONTINUOUS
 10
372.194232
 20
284.918099
 30
0.0
 11
371.312263
 21
284.810332
 31
0.0
 12
371.68777
 22
284.576545
 32
0.0
 13
371.68777
 23
284.576545
 33
0.0
  0
SOLID
  5
DA78
  8
WAKU
  6
CONTINUOUS
 10
370.260168
 20
284.959969
 30
0.0
 11
369.787305
 21
284.553935
 31
0.0
 12
370.172911
 22
284.451856
 32
0.0
 13
370.172911
 23
284.451856
 33
0.0
  0
SOLID
  5
DA79
  8
WAKU
  6
CONTINUOUS
 10
369.863139
 20
284.988189
 30
0.0
 11
369.787305
 21
284.553935
 31
0.0
 12
370.260168
 22
284.959969
 32
0.0
 13
370.260168
 23
284.959969
 33
0.0
  0
SOLID
  5
DA7A
  8
WAKU
  6
CONTINUOUS
 10
398.194006
 20
285.115385
 30
0.0
 11
397.606055
 21
283.5
 31
0.0
 12
401.913747
 22
283.5
 32
0.0
 13
401.913747
 23
283.5
 33
0.0
  0
SOLID
  5
DA7B
  8
WAKU
  6
CONTINUOUS
 10
401.913747
 20
283.5
 30
0.0
 11
401.424776
 21
285.115385
 31
0.0
 12
398.194006
 22
285.115385
 32
0.0
 13
398.194006
 23
285.115385
 33
0.0
  0
SOLID
  5
DA7C
  8
WAKU
  6
CONTINUOUS
 10
369.241303
 20
285.154132
 30
0.0
 11
369.251215
 21
284.778928
 31
0.0
 12
369.630358
 22
284.873087
 32
0.0
 13
369.630358
 23
284.873087
 33
0.0
  0
SOLID
  5
DA7D
  8
WAKU
  6
CONTINUOUS
 10
369.635696
 20
285.180404
 30
0.0
 11
369.241303
 21
285.154132
 31
0.0
 12
369.630358
 22
284.873087
 32
0.0
 13
369.630358
 23
284.873087
 33
0.0
  0
SOLID
  5
DA7E
  8
WAKU
  6
CONTINUOUS
 10
373.690335
 20
285.229744
 30
0.0
 11
372.237497
 21
284.486117
 31
0.0
 12
373.241532
 22
284.780941
 32
0.0
 13
373.241532
 23
284.780941
 33
0.0
  0
SOLID
  5
DA7F
  8
WAKU
  6
CONTINUOUS
 10
371.98994
 20
285.251431
 30
0.0
 11
371.312263
 21
284.810332
 31
0.0
 12
372.194232
 22
284.918099
 32
0.0
 13
372.194232
 23
284.918099
 33
0.0
  0
SOLID
  5
DA80
  8
WAKU
  6
CONTINUOUS
 10
373.195965
 20
285.275232
 30
0.0
 11
372.237497
 21
284.486117
 31
0.0
 12
373.690335
 22
285.229744
 32
0.0
 13
373.690335
 23
285.229744
 33
0.0
  0
SOLID
  5
DA81
  8
WAKU
  6
CONTINUOUS
 10
372.686363
 20
285.326171
 30
0.0
 11
371.98994
 21
285.251431
 31
0.0
 12
372.194232
 22
284.918099
 32
0.0
 13
372.194232
 23
284.918099
 33
0.0
  0
SOLID
  5
DA82
  8
WAKU
  6
CONTINUOUS
 10
370.035293
 20
285.465154
 30
0.0
 11
369.863139
 21
284.988189
 31
0.0
 12
370.260168
 22
284.959969
 32
0.0
 13
370.260168
 23
284.959969
 33
0.0
  0
SOLID
  5
DA83
  8
WAKU
  6
CONTINUOUS
 10
369.73149
 20
285.576021
 30
0.0
 11
369.241303
 21
285.154132
 31
0.0
 12
369.635696
 22
285.180404
 32
0.0
 13
369.635696
 23
285.180404
 33
0.0
  0
SOLID
  5
DA84
  8
WAKU
  6
CONTINUOUS
 10
369.326146
 20
285.584287
 30
0.0
 11
369.241303
 21
285.154132
 31
0.0
 12
369.73149
 22
285.576021
 32
0.0
 13
369.73149
 23
285.576021
 33
0.0
  0
SOLID
  5
DA85
  8
WAKU
  6
CONTINUOUS
 10
370.530712
 20
285.590875
 30
0.0
 11
370.035293
 21
285.465154
 31
0.0
 12
370.260168
 22
284.959969
 32
0.0
 13
370.260168
 23
284.959969
 33
0.0
  0
SOLID
  5
DA86
  8
WAKU
  6
CONTINUOUS
 10
389.236144
 20
285.653846
 30
0.0
 11
383.067593
 21
283.5
 31
0.0
 12
388.452208
 22
283.5
 32
0.0
 13
388.452208
 23
283.5
 33
0.0
  0
SOLID
  5
DA87
  8
WAKU
  6
CONTINUOUS
 10
383.851529
 20
285.653846
 30
0.0
 11
383.067593
 21
283.5
 31
0.0
 12
389.236144
 22
285.653846
 32
0.0
 13
389.236144
 23
285.653846
 33
0.0
  0
SOLID
  5
DA88
  8
WAKU
  6
CONTINUOUS
 10
404.851529
 20
285.653846
 30
0.0
 11
404.067593
 21
283.5
 31
0.0
 12
409.452208
 22
283.5
 32
0.0
 13
409.452208
 23
283.5
 33
0.0
  0
SOLID
  5
DA89
  8
WAKU
  6
CONTINUOUS
 10
409.452208
 20
283.5
 30
0.0
 11
409.159221
 21
285.653846
 31
0.0
 12
404.851529
 22
285.653846
 32
0.0
 13
404.851529
 23
285.653846
 33
0.0
  0
SOLID
  5
DA8A
  8
WAKU
  6
CONTINUOUS
 10
391.174606
 20
285.653846
 30
0.0
 11
390.39067
 21
283.5
 31
0.0
 12
395.452208
 22
283.5
 32
0.0
 13
395.452208
 23
283.5
 33
0.0
  0
SOLID
  5
DA8B
  8
WAKU
  6
CONTINUOUS
 10
395.452208
 20
283.5
 30
0.0
 11
395.159221
 21
285.653846
 31
0.0
 12
391.174606
 22
285.653846
 32
0.0
 13
391.174606
 23
285.653846
 33
0.0
  0
SOLID
  5
DA8C
  8
WAKU
  6
CONTINUOUS
 10
374.090681
 20
285.71052
 30
0.0
 11
373.195965
 21
285.275232
 31
0.0
 12
373.690335
 22
285.229744
 32
0.0
 13
373.690335
 23
285.229744
 33
0.0
  0
SOLID
  5
DA8D
  8
WAKU
  6
CONTINUOUS
 10
373.145266
 20
285.785089
 30
0.0
 11
371.98994
 21
285.251431
 31
0.0
 12
372.686363
 22
285.326171
 32
0.0
 13
372.686363
 23
285.326171
 33
0.0
  0
SOLID
  5
DA8E
  8
WAKU
  6
CONTINUOUS
 10
372.646296
 20
285.825506
 30
0.0
 11
371.98994
 21
285.251431
 31
0.0
 12
373.145266
 22
285.785089
 32
0.0
 13
373.145266
 23
285.785089
 33
0.0
  0
SOLID
  5
DA8F
  8
WAKU
  6
CONTINUOUS
 10
370.297156
 20
285.966509
 30
0.0
 11
370.035293
 21
285.465154
 31
0.0
 12
370.530712
 22
285.590875
 32
0.0
 13
370.530712
 23
285.590875
 33
0.0
  0
SOLID
  5
DA90
  8
WAKU
  6
CONTINUOUS
 10
369.923519
 20
286.031028
 30
0.0
 11
369.326146
 21
285.584287
 31
0.0
 12
369.73149
 22
285.576021
 32
0.0
 13
369.73149
 23
285.576021
 33
0.0
  0
SOLID
  5
DA91
  8
WAKU
  6
CONTINUOUS
 10
369.502627
 20
286.053593
 30
0.0
 11
369.326146
 21
285.584287
 31
0.0
 12
369.923519
 22
286.031028
 32
0.0
 13
369.923519
 23
286.031028
 33
0.0
  0
SOLID
  5
DA92
  8
WAKU
  6
CONTINUOUS
 10
379.397145
 20
286.138462
 30
0.0
 11
378.436824
 21
283.5
 31
0.0
 12
379.513747
 22
283.5
 32
0.0
 13
379.513747
 23
283.5
 33
0.0
  0
SOLID
  5
DA93
  8
WAKU
  6
CONTINUOUS
 10
377.155205
 20
286.192308
 30
0.0
 11
376.175285
 21
283.5
 31
0.0
 12
379.397145
 22
286.138462
 32
0.0
 13
379.397145
 23
286.138462
 33
0.0
  0
SOLID
  5
DA94
  8
WAKU
  6
CONTINUOUS
 10
380.493667
 20
286.192308
 30
0.0
 11
377.155205
 21
286.192308
 31
0.0
 12
379.397145
 22
286.138462
 32
0.0
 13
379.397145
 23
286.138462
 33
0.0
  0
SOLID
  5
DA95
  8
WAKU
  6
CONTINUOUS
 10
380.493667
 20
286.192308
 30
0.0
 11
379.397145
 21
286.138462
 31
0.0
 12
379.513747
 22
283.5
 32
0.0
 13
379.513747
 23
283.5
 33
0.0
  0
SOLID
  5
DA96
  8
WAKU
  6
CONTINUOUS
 10
380.493667
 20
286.192308
 30
0.0
 11
381.775285
 21
283.5
 31
0.0
 12
382.755205
 22
286.192308
 32
0.0
 13
382.755205
 23
286.192308
 33
0.0
  0
SOLID
  5
DA97
  8
WAKU
  6
CONTINUOUS
 10
374.427865
 20
286.205609
 30
0.0
 11
373.195965
 21
285.275232
 31
0.0
 12
374.090681
 22
285.71052
 32
0.0
 13
374.090681
 23
285.71052
 33
0.0
  0
SOLID
  5
DA98
  8
WAKU
  6
CONTINUOUS
 10
373.98505
 20
286.233718
 30
0.0
 11
373.195965
 21
285.275232
 31
0.0
 12
374.427865
 22
286.205609
 32
0.0
 13
374.427865
 23
286.205609
 33
0.0
  0
SOLID
  5
DA99
  8
WAKU
  6
CONTINUOUS
 10
370.971896
 20
286.268471
 30
0.0
 11
370.297156
 21
285.966509
 31
0.0
 12
370.530712
 22
285.590875
 32
0.0
 13
370.530712
 23
285.590875
 33
0.0
  0
SOLID
  5
DA9A
  8
WAKU
  6
CONTINUOUS
 10
373.553316
 20
286.277229
 30
0.0
 11
372.646296
 21
285.825506
 31
0.0
 12
373.145266
 22
285.785089
 32
0.0
 13
373.145266
 23
285.785089
 33
0.0
  0
SOLID
  5
DA9B
  8
WAKU
  6
CONTINUOUS
 10
370.638671
 20
286.473
 30
0.0
 11
370.297156
 21
285.966509
 31
0.0
 12
370.971896
 22
286.268471
 32
0.0
 13
370.971896
 23
286.268471
 33
0.0
  0
SOLID
  5
DA9C
  8
WAKU
  6
CONTINUOUS
 10
373.220238
 20
286.48192
 30
0.0
 11
372.646296
 21
285.825506
 31
0.0
 12
373.553316
 22
286.277229
 32
0.0
 13
373.553316
 23
286.277229
 33
0.0
  0
SOLID
  5
DA9D
  8
WAKU
  6
CONTINUOUS
 10
370.207035
 20
286.51657
 30
0.0
 11
369.502627
 21
286.053593
 31
0.0
 12
369.923519
 22
286.031028
 32
0.0
 13
369.923519
 23
286.031028
 33
0.0
  0
SOLID
  5
DA9E
  8
WAKU
  6
CONTINUOUS
 10
369.764265
 20
286.544812
 30
0.0
 11
369.502627
 21
286.053593
 31
0.0
 12
370.207035
 22
286.51657
 32
0.0
 13
370.207035
 23
286.51657
 33
0.0
  0
SOLID
  5
DA9F
  8
WAKU
  6
CONTINUOUS
 10
374.689503
 20
286.696828
 30
0.0
 11
373.98505
 21
286.233718
 31
0.0
 12
374.427865
 22
286.205609
 32
0.0
 13
374.427865
 23
286.205609
 33
0.0
  0
SOLID
  5
DAA0
  8
WAKU
  6
CONTINUOUS
 10
374.268507
 20
286.719278
 30
0.0
 11
373.98505
 21
286.233718
 31
0.0
 12
374.689503
 22
286.696828
 32
0.0
 13
374.689503
 23
286.696828
 33
0.0
  0
SOLID
  5
DAA1
  8
WAKU
  6
CONTINUOUS
 10
373.894843
 20
286.783693
 30
0.0
 11
373.220238
 21
286.48192
 31
0.0
 12
373.553316
 22
286.277229
 32
0.0
 13
373.553316
 23
286.277229
 33
0.0
  0
SOLID
  5
DAA2
  8
WAKU
  6
CONTINUOUS
 10
371.545827
 20
286.924893
 30
0.0
 11
370.638671
 21
286.473
 31
0.0
 12
370.971896
 22
286.268471
 32
0.0
 13
370.971896
 23
286.268471
 33
0.0
  0
SOLID
  5
DAA3
  8
WAKU
  6
CONTINUOUS
 10
371.04672
 20
286.965174
 30
0.0
 11
370.638671
 21
286.473
 31
0.0
 12
371.545827
 22
286.924893
 32
0.0
 13
371.545827
 23
286.924893
 33
0.0
  0
SOLID
  5
DAA4
  8
WAKU
  6
CONTINUOUS
 10
370.101449
 20
287.039901
 30
0.0
 11
369.764265
 21
286.544812
 31
0.0
 12
370.207035
 22
286.51657
 32
0.0
 13
370.207035
 23
286.51657
 33
0.0
  0
SOLID
  5
DAA5
  8
WAKU
  6
CONTINUOUS
 10
373.661353
 20
287.159534
 30
0.0
 11
373.220238
 21
286.48192
 31
0.0
 12
373.894843
 22
286.783693
 32
0.0
 13
373.894843
 23
286.783693
 33
0.0
  0
SOLID
  5
DAA6
  8
WAKU
  6
CONTINUOUS
 10
374.865984
 20
287.166134
 30
0.0
 11
374.268507
 21
286.719278
 31
0.0
 12
374.689503
 22
286.696828
 32
0.0
 13
374.689503
 23
286.696828
 33
0.0
  0
SOLID
  5
DAA7
  8
WAKU
  6
CONTINUOUS
 10
374.46071
 20
287.174248
 30
0.0
 11
374.268507
 21
286.719278
 31
0.0
 12
374.865984
 22
287.166134
 32
0.0
 13
374.865984
 23
287.166134
 33
0.0
  0
SOLID
  5
DAA8
  8
WAKU
  6
CONTINUOUS
 10
374.156732
 20
287.28503
 30
0.0
 11
373.661353
 21
287.159534
 31
0.0
 12
373.894843
 22
286.783693
 32
0.0
 13
373.894843
 23
286.783693
 33
0.0
  0
SOLID
  5
DAA9
  8
WAKU
  6
CONTINUOUS
 10
371.505632
 20
287.424128
 30
0.0
 11
371.04672
 21
286.965174
 31
0.0
 12
371.545827
 22
286.924893
 32
0.0
 13
371.545827
 23
286.924893
 33
0.0
  0
SOLID
  5
DAAA
  8
WAKU
  6
CONTINUOUS
 10
370.996098
 20
287.475108
 30
0.0
 11
370.101449
 21
287.039901
 31
0.0
 12
370.207035
 22
286.51657
 32
0.0
 13
370.207035
 23
286.51657
 33
0.0
  0
SOLID
  5
DAAB
  8
WAKU
  6
CONTINUOUS
 10
372.202181
 20
287.498991
 30
0.0
 11
371.505632
 21
287.424128
 31
0.0
 12
371.545827
 22
286.924893
 32
0.0
 13
371.545827
 23
286.924893
 33
0.0
  0
SOLID
  5
DAAC
  8
WAKU
  6
CONTINUOUS
 10
370.501795
 20
287.520677
 30
0.0
 11
370.101449
 21
287.039901
 31
0.0
 12
370.996098
 22
287.475108
 32
0.0
 13
370.996098
 23
287.475108
 33
0.0
  0
SOLID
  5
DAAD
  8
WAKU
  6
CONTINUOUS
 10
374.556361
 20
287.569864
 30
0.0
 11
374.46071
 21
287.174248
 31
0.0
 12
374.865984
 22
287.166134
 32
0.0
 13
374.865984
 23
287.166134
 33
0.0
  0
SOLID
  5
DAAE
  8
WAKU
  6
CONTINUOUS
 10
395.864763
 20
287.592308
 30
0.0
 11
395.159221
 21
285.653846
 31
0.0
 12
395.452208
 22
283.5
 32
0.0
 13
395.452208
 23
283.5
 33
0.0
  0
SOLID
  5
DAAF
  8
WAKU
  6
CONTINUOUS
 10
393.172456
 20
287.592308
 30
0.0
 11
391.703565
 21
286.515385
 31
0.0
 12
392.780488
 22
286.515385
 32
0.0
 13
392.780488
 23
286.515385
 33
0.0
  0
SOLID
  5
DAB0
  8
WAKU
  6
CONTINUOUS
 10
392.095533
 20
287.592308
 30
0.0
 11
391.703565
 21
286.515385
 31
0.0
 12
393.172456
 22
287.592308
 32
0.0
 13
393.172456
 23
287.592308
 33
0.0
  0
SOLID
  5
DAB1
  8
WAKU
  6
CONTINUOUS
 10
391.28784
 20
287.592308
 30
0.0
 11
392.095533
 21
287.592308
 31
0.0
 12
393.172456
 22
287.592308
 32
0.0
 13
393.172456
 23
287.592308
 33
0.0
  0
SOLID
  5
DAB2
  8
WAKU
  6
CONTINUOUS
 10
391.28784
 20
287.592308
 30
0.0
 11
393.172456
 21
287.592308
 31
0.0
 12
395.864763
 22
287.592308
 32
0.0
 13
395.864763
 23
287.592308
 33
0.0
  0
SOLID
  5
DAB3
  8
WAKU
  6
CONTINUOUS
 10
396.941687
 20
287.592308
 30
0.0
 11
391.28784
 21
287.592308
 31
0.0
 12
395.864763
 22
287.592308
 32
0.0
 13
395.864763
 23
287.592308
 33
0.0
  0
SOLID
  5
DAB4
  8
WAKU
  6
CONTINUOUS
 10
396.941687
 20
287.592308
 30
0.0
 11
395.864763
 21
287.592308
 31
0.0
 12
395.452208
 22
283.5
 32
0.0
 13
395.452208
 23
283.5
 33
0.0
  0
SOLID
  5
DAB5
  8
WAKU
  6
CONTINUOUS
 10
374.950827
 20
287.596289
 30
0.0
 11
374.556361
 21
287.569864
 31
0.0
 12
374.865984
 22
287.166134
 32
0.0
 13
374.865984
 23
287.166134
 33
0.0
  0
SOLID
  5
DAB6
  8
WAKU
  6
CONTINUOUS
 10
374.328925
 20
287.761987
 30
0.0
 11
373.661353
 21
287.159534
 31
0.0
 12
374.156732
 22
287.28503
 32
0.0
 13
374.156732
 23
287.28503
 33
0.0
  0
SOLID
  5
DAB7
  8
WAKU
  6
CONTINUOUS
 10
373.932071
 20
287.790402
 30
0.0
 11
373.661353
 21
287.159534
 31
0.0
 12
374.328925
 22
287.761987
 32
0.0
 13
374.328925
 23
287.761987
 33
0.0
  0
SOLID
  5
DAB8
  8
WAKU
  6
CONTINUOUS
 10
371.997783
 20
287.832235
 30
0.0
 11
371.505632
 21
287.424128
 31
0.0
 12
372.202181
 22
287.498991
 32
0.0
 13
372.202181
 23
287.498991
 33
0.0
  0
SOLID
  5
DAB9
  8
WAKU
  6
CONTINUOUS
 10
374.561802
 20
287.877253
 30
0.0
 11
374.556361
 21
287.569864
 31
0.0
 12
374.950827
 22
287.596289
 32
0.0
 13
374.950827
 23
287.596289
 33
0.0
  0
SOLID
  5
DABA
  8
WAKU
  6
CONTINUOUS
 10
372.879878
 20
287.940057
 30
0.0
 11
371.997783
 21
287.832235
 31
0.0
 12
372.202181
 22
287.498991
 32
0.0
 13
372.202181
 23
287.498991
 33
0.0
  0
SOLID
  5
DABB
  8
WAKU
  6
CONTINUOUS
 10
370.950599
 20
287.96948
 30
0.0
 11
370.501795
 21
287.520677
 31
0.0
 12
370.996098
 22
287.475108
 32
0.0
 13
370.996098
 23
287.475108
 33
0.0
  0
SOLID
  5
DABC
  8
WAKU
  6
CONTINUOUS
 10
374.940915
 20
287.971493
 30
0.0
 11
374.561802
 21
287.877253
 31
0.0
 12
374.950827
 22
287.596289
 32
0.0
 13
374.950827
 23
287.596289
 33
0.0
  0
SOLID
  5
DABD
  8
WAKU
  6
CONTINUOUS
 10
374.502951
 20
288.077918
 30
0.0
 11
374.561802
 21
287.877253
 31
0.0
 12
374.940915
 22
287.971493
 32
0.0
 13
374.940915
 23
287.971493
 33
0.0
  0
SOLID
  5
DABE
  8
WAKU
  6
CONTINUOUS
 10
405.753055
 20
288.130769
 30
0.0
 11
405.282694
 21
286.838462
 31
0.0
 12
408.513463
 22
286.838462
 32
0.0
 13
408.513463
 23
286.838462
 33
0.0
  0
SOLID
  5
DABF
  8
WAKU
  6
CONTINUOUS
 10
408.983824
 20
288.130769
 30
0.0
 11
405.753055
 21
288.130769
 31
0.0
 12
408.513463
 22
286.838462
 32
0.0
 13
408.513463
 23
286.838462
 33
0.0
  0
SOLID
  5
DAC0
  8
WAKU
  6
CONTINUOUS
 10
372.504269
 20
288.173821
 30
0.0
 11
371.997783
 21
287.832235
 31
0.0
 12
372.879878
 22
287.940057
 32
0.0
 13
372.879878
 23
287.940057
 33
0.0
  0
SOLID
  5
DAC1
  8
WAKU
  6
CONTINUOUS
 10
374.40481
 20
288.196249
 30
0.0
 11
373.932071
 21
287.790402
 31
0.0
 12
374.328925
 22
287.761987
 32
0.0
 13
374.328925
 23
287.761987
 33
0.0
  0
SOLID
  5
DAC2
  8
WAKU
  6
CONTINUOUS
 10
374.40481
 20
288.196249
 30
0.0
 11
374.502951
 21
288.077918
 31
0.0
 12
374.940915
 22
287.971493
 32
0.0
 13
374.940915
 23
287.971493
 33
0.0
  0
SOLID
  5
DAC3
  8
WAKU
  6
CONTINUOUS
 10
373.510738
 20
288.21124
 30
0.0
 11
372.504269
 21
288.173821
 31
0.0
 12
372.879878
 22
287.940057
 32
0.0
 13
372.879878
 23
287.940057
 33
0.0
  0
SOLID
  5
DAC4
  8
WAKU
  6
CONTINUOUS
 10
371.954587
 20
288.264284
 30
0.0
 11
370.950599
 21
287.96948
 31
0.0
 12
370.996098
 22
287.475108
 32
0.0
 13
370.996098
 23
287.475108
 33
0.0
  0
SOLID
  5
DAC5
  8
WAKU
  6
CONTINUOUS
 10
374.836612
 20
288.277967
 30
0.0
 11
374.40481
 21
288.196249
 31
0.0
 12
374.940915
 22
287.971493
 32
0.0
 13
374.940915
 23
287.971493
 33
0.0
  0
SOLID
  5
DAC6
  8
WAKU
  6
CONTINUOUS
 10
374.019229
 20
288.298569
 30
0.0
 11
372.504269
 21
288.173821
 31
0.0
 12
373.510738
 22
288.21124
 32
0.0
 13
373.510738
 23
288.21124
 33
0.0
  0
SOLID
  5
DAC7
  8
WAKU
  6
CONTINUOUS
 10
374.019229
 20
288.298569
 30
0.0
 11
374.40481
 21
288.196249
 31
0.0
 12
374.836612
 22
288.277967
 32
0.0
 13
374.836612
 23
288.277967
 33
0.0
  0
SOLID
  5
DAC8
  8
WAKU
  6
CONTINUOUS
 10
374.019229
 20
288.298569
 30
0.0
 11
373.932071
 21
287.790402
 31
0.0
 12
374.40481
 22
288.196249
 32
0.0
 13
374.40481
 23
288.196249
 33
0.0
  0
SOLID
  5
DAC9
  8
WAKU
  6
CONTINUOUS
 10
371.431374
 20
288.369826
 30
0.0
 11
370.950599
 21
287.96948
 31
0.0
 12
371.954587
 22
288.264284
 32
0.0
 13
371.954587
 23
288.264284
 33
0.0
  0
SOLID
  5
DACA
  8
WAKU
  6
CONTINUOUS
 10
373.005639
 20
288.435768
 30
0.0
 11
372.504269
 21
288.173821
 31
0.0
 12
374.019229
 22
288.298569
 32
0.0
 13
374.019229
 23
288.298569
 33
0.0
  0
SOLID
  5
DACB
  8
WAKU
  6
CONTINUOUS
 10
374.641749
 20
288.504452
 30
0.0
 11
373.005639
 21
288.435768
 31
0.0
 12
374.019229
 22
288.298569
 32
0.0
 13
374.019229
 23
288.298569
 33
0.0
  0
SOLID
  5
DACC
  8
WAKU
  6
CONTINUOUS
 10
374.641749
 20
288.504452
 30
0.0
 11
374.019229
 21
288.298569
 31
0.0
 12
374.836612
 22
288.277967
 32
0.0
 13
374.836612
 23
288.277967
 33
0.0
  0
SOLID
  5
DACD
  8
WAKU
  6
CONTINUOUS
 10
372.440235
 20
288.547585
 30
0.0
 11
371.431374
 21
288.369826
 31
0.0
 12
371.954587
 22
288.264284
 32
0.0
 13
371.954587
 23
288.264284
 33
0.0
  0
SOLID
  5
DACE
  8
WAKU
  6
CONTINUOUS
 10
373.482636
 20
288.608014
 30
0.0
 11
373.005639
 21
288.435768
 31
0.0
 12
374.641749
 22
288.504452
 32
0.0
 13
374.641749
 23
288.504452
 33
0.0
  0
SOLID
  5
DACF
  8
WAKU
  6
CONTINUOUS
 10
374.363484
 20
288.64263
 30
0.0
 11
373.482636
 21
288.608014
 31
0.0
 12
374.641749
 22
288.504452
 32
0.0
 13
374.641749
 23
288.504452
 33
0.0
  0
SOLID
  5
DAD0
  8
WAKU
  6
CONTINUOUS
 10
373.916941
 20
288.683944
 30
0.0
 11
373.482636
 21
288.608014
 31
0.0
 12
374.363484
 22
288.64263
 32
0.0
 13
374.363484
 23
288.64263
 33
0.0
  0
SOLID
  5
DAD1
  8
WAKU
  6
CONTINUOUS
 10
371.926464
 20
288.70701
 30
0.0
 11
371.431374
 21
288.369826
 31
0.0
 12
372.440235
 22
288.547585
 32
0.0
 13
372.440235
 23
288.547585
 33
0.0
  0
SOLID
  5
DAD2
  8
WAKU
  6
CONTINUOUS
 10
372.89514
 20
288.740065
 30
0.0
 11
371.926464
 21
288.70701
 31
0.0
 12
372.440235
 22
288.547585
 32
0.0
 13
372.440235
 23
288.547585
 33
0.0
  0
SOLID
  5
DAD3
  8
WAKU
  6
CONTINUOUS
 10
380.311313
 20
288.776923
 30
0.0
 11
377.155205
 21
286.192308
 31
0.0
 12
380.493667
 22
286.192308
 32
0.0
 13
380.493667
 23
286.192308
 33
0.0
  0
SOLID
  5
DAD4
  8
WAKU
  6
CONTINUOUS
 10
381.524851
 20
288.776923
 30
0.0
 11
378.095928
 21
288.776923
 31
0.0
 12
380.311313
 22
288.776923
 32
0.0
 13
380.311313
 23
288.776923
 33
0.0
  0
SOLID
  5
DAD5
  8
WAKU
  6
CONTINUOUS
 10
381.524851
 20
288.776923
 30
0.0
 11
380.311313
 21
288.776923
 31
0.0
 12
380.493667
 22
286.192308
 32
0.0
 13
380.493667
 23
286.192308
 33
0.0
  0
SOLID
  5
DAD6
  8
WAKU
  6
CONTINUOUS
 10
381.524851
 20
288.776923
 30
0.0
 11
380.493667
 21
286.192308
 31
0.0
 12
382.755205
 22
286.192308
 32
0.0
 13
382.755205
 23
286.192308
 33
0.0
  0
SOLID
  5
DAD7
  8
WAKU
  6
CONTINUOUS
 10
373.799148
 20
288.781929
 30
0.0
 11
373.916941
 21
288.683944
 31
0.0
 12
374.363484
 22
288.64263
 32
0.0
 13
374.363484
 23
288.64263
 33
0.0
  0
SOLID
  5
DAD8
  8
WAKU
  6
CONTINUOUS
 10
373.290857
 20
288.835581
 30
0.0
 11
371.926464
 21
288.70701
 31
0.0
 12
372.89514
 22
288.740065
 32
0.0
 13
372.89514
 23
288.740065
 33
0.0
  0
SOLID
  5
DAD9
  8
WAKU
  6
CONTINUOUS
 10
373.597996
 20
288.840902
 30
0.0
 11
373.799148
 21
288.781929
 31
0.0
 12
374.363484
 22
288.64263
 32
0.0
 13
374.363484
 23
288.64263
 33
0.0
  0
SOLID
  5
DADA
  8
WAKU
  6
CONTINUOUS
 10
402.042817
 20
288.884615
 30
0.0
 11
400.181958
 21
286.730769
 31
0.0
 12
401.258881
 22
286.730769
 32
0.0
 13
401.258881
 23
286.730769
 33
0.0
  0
SOLID
  5
DADB
  8
WAKU
  6
CONTINUOUS
 10
402.796663
 20
288.884615
 30
0.0
 11
401.424776
 21
285.115385
 31
0.0
 12
401.913747
 22
283.5
 32
0.0
 13
401.913747
 23
283.5
 33
0.0
  0
SOLID
  5
DADC
  8
WAKU
  6
CONTINUOUS
 10
403.873587
 20
288.884615
 30
0.0
 11
402.796663
 21
288.884615
 31
0.0
 12
401.913747
 22
283.5
 32
0.0
 13
401.913747
 23
283.5
 33
0.0
  0
SOLID
  5
DADD
  8
WAKU
  6
CONTINUOUS
 10
400.965894
 20
288.884615
 30
0.0
 11
400.181958
 21
286.730769
 31
0.0
 12
402.042817
 22
288.884615
 32
0.0
 13
402.042817
 23
288.884615
 33
0.0
  0
SOLID
  5
DADE
  8
WAKU
  6
CONTINUOUS
 10
399.858881
 20
286.730769
 30
0.0
 11
400.642817
 21
288.884615
 31
0.0
 12
399.565894
 22
288.884615
 32
0.0
 13
399.565894
 23
288.884615
 33
0.0
  0
SOLID
  5
DADF
  8
WAKU
  6
CONTINUOUS
 10
399.565894
 20
288.884615
 30
0.0
 11
398.781958
 21
286.730769
 31
0.0
 12
399.858881
 22
286.730769
 32
0.0
 13
399.858881
 23
286.730769
 33
0.0
  0
SOLID
  5
DAE0
  8
WAKU
  6
CONTINUOUS
 10
374.225306
 20
288.920895
 30
0.0
 11
373.597996
 21
288.840902
 31
0.0
 12
374.363484
 22
288.64263
 32
0.0
 13
374.363484
 23
288.64263
 33
0.0
  0
SOLID
  5
DAE1
  8
WAKU
  6
CONTINUOUS
 10
372.417683
 20
288.968648
 30
0.0
 11
373.597996
 21
288.840902
 31
0.0
 12
374.225306
 22
288.920895
 32
0.0
 13
374.225306
 23
288.920895
 33
0.0
  0
SOLID
  5
DAE2
  8
WAKU
  6
CONTINUOUS
 10
372.417683
 20
288.968648
 30
0.0
 11
373.290857
 21
288.835581
 31
0.0
 12
373.597996
 22
288.840902
 32
0.0
 13
373.597996
 23
288.840902
 33
0.0
  0
SOLID
  5
DAE3
  8
WAKU
  6
CONTINUOUS
 10
372.417683
 20
288.968648
 30
0.0
 11
371.926464
 21
288.70701
 31
0.0
 12
373.290857
 22
288.835581
 32
0.0
 13
373.290857
 23
288.835581
 33
0.0
  0
SOLID
  5
DAE4
  8
WAKU
  6
CONTINUOUS
 10
373.998821
 20
289.115757
 30
0.0
 11
372.417683
 21
288.968648
 31
0.0
 12
374.225306
 22
288.920895
 32
0.0
 13
374.225306
 23
288.920895
 33
0.0
  0
SOLID
  5
DAE5
  8
WAKU
  6
CONTINUOUS
 10
372.886988
 20
289.145129
 30
0.0
 11
372.417683
 21
288.968648
 31
0.0
 12
373.998821
 22
289.115757
 32
0.0
 13
373.998821
 23
289.115757
 33
0.0
  0
SOLID
  5
DAE6
  8
WAKU
  6
CONTINUOUS
 10
396.941687
 20
287.592308
 30
0.0
 11
396.452715
 21
289.207692
 31
0.0
 12
393.760408
 22
289.207692
 32
0.0
 13
393.760408
 23
289.207692
 33
0.0
  0
SOLID
  5
DAE7
  8
WAKU
  6
CONTINUOUS
 10
396.452715
 20
289.207692
 30
0.0
 11
396.941687
 21
287.592308
 31
0.0
 12
397.749379
 22
287.592308
 32
0.0
 13
397.749379
 23
287.592308
 33
0.0
  0
SOLID
  5
DAE8
  8
WAKU
  6
CONTINUOUS
 10
393.760408
 20
289.207692
 30
0.0
 11
391.28784
 21
287.592308
 31
0.0
 12
396.941687
 22
287.592308
 32
0.0
 13
396.941687
 23
287.592308
 33
0.0
  0
SOLID
  5
DAE9
  8
WAKU
  6
CONTINUOUS
 10
398.337331
 20
289.207692
 30
0.0
 11
396.452715
 21
289.207692
 31
0.0
 12
397.749379
 22
287.592308
 32
0.0
 13
397.749379
 23
287.592308
 33
0.0
  0
SOLID
  5
DAEA
  8
WAKU
  6
CONTINUOUS
 10
391.875792
 20
289.207692
 30
0.0
 11
391.28784
 21
287.592308
 31
0.0
 12
393.760408
 22
289.207692
 32
0.0
 13
393.760408
 23
289.207692
 33
0.0
  0
SOLID
  5
DAEB
  8
WAKU
  6
CONTINUOUS
 10
393.760408
 20
289.207692
 30
0.0
 11
392.683485
 21
289.207692
 31
0.0
 12
391.875792
 22
289.207692
 32
0.0
 13
391.875792
 23
289.207692
 33
0.0
  0
SOLID
  5
DAEC
  8
WAKU
  6
CONTINUOUS
 10
397.529638
 20
289.207692
 30
0.0
 11
396.452715
 21
289.207692
 31
0.0
 12
398.337331
 22
289.207692
 32
0.0
 13
398.337331
 23
289.207692
 33
0.0
  0
SOLID
  5
DAED
  8
WAKU
  6
CONTINUOUS
 10
373.692348
 20
289.22006
 30
0.0
 11
372.886988
 21
289.145129
 31
0.0
 12
373.998821
 22
289.115757
 32
0.0
 13
373.998821
 23
289.115757
 33
0.0
  0
SOLID
  5
DAEE
  8
WAKU
  6
CONTINUOUS
 10
373.317143
 20
289.229972
 30
0.0
 11
372.886988
 21
289.145129
 31
0.0
 12
373.692348
 22
289.22006
 32
0.0
 13
373.692348
 23
289.22006
 33
0.0
  0
SOLID
  5
DAEF
  8
WAKU
  6
CONTINUOUS
 10
378.723077
 20
290.5
 30
0.0
 11
381.524851
 21
288.776923
 31
0.0
 12
383.695928
 22
288.776923
 32
0.0
 13
383.695928
 23
288.776923
 33
0.0
  0
SOLID
  5
DAF0
  8
WAKU
  6
CONTINUOUS
 10
378.723077
 20
290.5
 30
0.0
 11
378.095928
 21
288.776923
 31
0.0
 12
381.524851
 22
288.776923
 32
0.0
 13
381.524851
 23
288.776923
 33
0.0
  0
SOLID
  5
DAF1
  8
WAKU
  6
CONTINUOUS
 10
372.249053
 20
290.5
 30
0.0
 11
367.971276
 21
290.5
 31
0.0
 12
367.971276
 22
286.222222
 32
0.0
 13
367.971276
 23
286.222222
 33
0.0
  0
SOLID
  5
DAF2
  8
WAKU
  6
CONTINUOUS
 10
409.219005
 20
288.776923
 30
0.0
 11
409.846154
 21
290.5
 31
0.0
 12
406.615385
 22
290.5
 32
0.0
 13
406.615385
 23
290.5
 33
0.0
  0
SOLID
  5
DAF3
  8
WAKU
  6
CONTINUOUS
 10
406.615385
 20
290.5
 30
0.0
 11
405.988236
 21
288.776923
 31
0.0
 12
409.219005
 22
288.776923
 32
0.0
 13
409.219005
 23
288.776923
 33
0.0
  0
SOLID
  5
DAF4
  8
WAKU
  6
CONTINUOUS
 10
392.683485
 20
289.207692
 30
0.0
 11
394.230769
 21
290.5
 31
0.0
 12
393.153846
 22
290.5
 32
0.0
 13
393.153846
 23
290.5
 33
0.0
  0
SOLID
  5
DAF5
  8
WAKU
  6
CONTINUOUS
 10
394.230769
 20
290.5
 30
0.0
 11
392.683485
 21
289.207692
 31
0.0
 12
393.760408
 22
289.207692
 32
0.0
 13
393.760408
 23
289.207692
 33
0.0
  0
SOLID
  5
DAF6
  8
WAKU
  6
CONTINUOUS
 10
409.159221
 20
285.653846
 30
0.0
 11
412.0
 21
290.5
 31
0.0
 12
410.923077
 22
290.5
 32
0.0
 13
410.923077
 23
290.5
 33
0.0
  0
SOLID
  5
DAF7
  8
WAKU
  6
CONTINUOUS
 10
412.0
 20
290.5
 30
0.0
 11
409.159221
 21
285.653846
 31
0.0
 12
409.452208
 22
283.5
 32
0.0
 13
409.452208
 23
283.5
 33
0.0
  0
SOLID
  5
DAF8
  8
WAKU
  6
CONTINUOUS
 10
384.323077
 20
290.5
 30
0.0
 11
378.723077
 21
290.5
 31
0.0
 12
383.695928
 22
288.776923
 32
0.0
 13
383.695928
 23
288.776923
 33
0.0
  0
SOLID
  5
DAF9
  8
WAKU
  6
CONTINUOUS
 10
385.615385
 20
290.5
 30
0.0
 11
384.988236
 21
288.776923
 31
0.0
 12
390.372851
 22
288.776923
 32
0.0
 13
390.372851
 23
288.776923
 33
0.0
  0
SOLID
  5
DAFA
  8
WAKU
  6
CONTINUOUS
 10
396.923077
 20
290.5
 30
0.0
 11
396.452715
 21
289.207692
 31
0.0
 12
397.529638
 22
289.207692
 32
0.0
 13
397.529638
 23
289.207692
 33
0.0
  0
SOLID
  5
DAFB
  8
WAKU
  6
CONTINUOUS
 10
391.0
 20
290.5
 30
0.0
 11
385.615385
 21
290.5
 31
0.0
 12
390.372851
 22
288.776923
 32
0.0
 13
390.372851
 23
288.776923
 33
0.0
  0
SOLID
  5
DAFC
  8
WAKU
  6
CONTINUOUS
 10
398.0
 20
290.5
 30
0.0
 11
396.923077
 21
290.5
 31
0.0
 12
397.529638
 22
289.207692
 32
0.0
 13
397.529638
 23
289.207692
 33
0.0
  0
ENDBLK
  5
DAFD
  8
0
  0
ENDSEC
  0
SECTION
  2
ENTITIES
  0
LINE
  5
DB05
  8
WAKU
 10
415.0
 20
292.0
 30
0.0
 11
415.0
 21
5.0
 31
0.0
  0
LINE
  5
DB06
  8
WAKU
 10
5.0
 20
292.0
 30
0.0
 11
5.0
 21
5.0
 31
0.0
  0
LINE
  5
DB07
  8
WAKU
 10
5.0
 20
5.0
 30
0.0
 11
415.0
 21
5.0
 31
0.0
  0
LINE
  5
DB08
  8
WAKU
 10
5.0
 20
292.0
 30
0.0
 11
415.0
 21
292.0
 31
0.0
  0
LINE
  5
DB09
  8
WAKU
 10
5.0
 20
282.0
 30
0.0
 11
415.0
 21
282.0
 31
0.0
  0
LINE
  5
DB0A
  8
WAKU
  6
CONTINUOUS
 10
393.760408
 20
289.207692
 30
0.0
 11
396.452715
 21
289.207692
 31
0.0
  0
LINE
  5
DB0B
  8
WAKU
  6
CONTINUOUS
 10
393.172456
 20
287.592308
 30
0.0
 11
395.864763
 21
287.592308
 31
0.0
  0
LINE
  5
DB0C
  8
WAKU
  6
CONTINUOUS
 10
390.39067
 20
283.5
 30
0.0
 11
395.452208
 21
283.5
 31
0.0
  0
LINE
  5
DB0D
  8
WAKU
  6
CONTINUOUS
 10
395.159221
 20
285.653846
 30
0.0
 11
395.864763
 21
287.592308
 31
0.0
  0
LINE
  5
DB0E
  8
WAKU
  6
CONTINUOUS
 10
367.971276
 20
290.5
 30
0.0
 11
372.249053
 21
290.5
 31
0.0
  0
LINE
  5
DB0F
  8
WAKU
  6
CONTINUOUS
 10
367.971276
 20
286.222222
 30
0.0
 11
372.249053
 21
290.5
 31
0.0
  0
LINE
  5
DB10
  8
WAKU
  6
CONTINUOUS
 10
367.971276
 20
290.5
 30
0.0
 11
367.971276
 21
286.222222
 31
0.0
  0
LINE
  5
DB11
  8
WAKU
  6
CONTINUOUS
 10
381.524851
 20
288.776923
 30
0.0
 11
383.695928
 21
288.776923
 31
0.0
  0
LINE
  5
DB12
  8
WAKU
  6
CONTINUOUS
 10
378.723077
 20
290.5
 30
0.0
 11
384.323077
 21
290.5
 31
0.0
  0
LINE
  5
DB13
  8
WAKU
  6
CONTINUOUS
 10
380.311313
 20
288.776923
 30
0.0
 11
377.155205
 21
286.192308
 31
0.0
  0
LINE
  5
DB14
  8
WAKU
  6
CONTINUOUS
 10
381.524851
 20
288.776923
 30
0.0
 11
382.755205
 21
286.192308
 31
0.0
  0
LINE
  5
DB15
  8
WAKU
  6
CONTINUOUS
 10
376.175285
 20
283.5
 30
0.0
 11
377.155205
 21
286.192308
 31
0.0
  0
LINE
  5
DB16
  8
WAKU
  6
CONTINUOUS
 10
379.397145
 20
286.138462
 30
0.0
 11
376.175285
 21
283.5
 31
0.0
  0
LINE
  5
DB17
  8
WAKU
  6
CONTINUOUS
 10
381.775285
 20
283.5
 30
0.0
 11
382.755205
 21
286.192308
 31
0.0
  0
LINE
  5
DB18
  8
WAKU
  6
CONTINUOUS
 10
380.493667
 20
286.192308
 30
0.0
 11
381.775285
 21
283.5
 31
0.0
  0
LINE
  5
DB19
  8
WAKU
  6
CONTINUOUS
 10
379.513747
 20
283.5
 30
0.0
 11
380.493667
 21
286.192308
 31
0.0
  0
LINE
  5
DB1A
  8
WAKU
  6
CONTINUOUS
 10
378.436824
 20
283.5
 30
0.0
 11
379.513747
 21
283.5
 31
0.0
  0
LINE
  5
DB1B
  8
WAKU
  6
CONTINUOUS
 10
378.436824
 20
283.5
 30
0.0
 11
379.397145
 21
286.138462
 31
0.0
  0
LINE
  5
DB1C
  8
WAKU
  6
CONTINUOUS
 10
378.095928
 20
288.776923
 30
0.0
 11
380.311313
 21
288.776923
 31
0.0
  0
LINE
  5
DB1D
  8
WAKU
  6
CONTINUOUS
 10
378.723077
 20
290.5
 30
0.0
 11
378.095928
 21
288.776923
 31
0.0
  0
LINE
  5
DB1E
  8
WAKU
  6
CONTINUOUS
 10
392.780488
 20
286.515385
 30
0.0
 11
393.172456
 21
287.592308
 31
0.0
  0
LINE
  5
DB1F
  8
WAKU
  6
CONTINUOUS
 10
391.703565
 20
286.515385
 30
0.0
 11
392.095533
 21
287.592308
 31
0.0
  0
LINE
  5
DB20
  8
WAKU
  6
CONTINUOUS
 10
388.452208
 20
283.5
 30
0.0
 11
389.236144
 21
285.653846
 31
0.0
  0
LINE
  5
DB21
  8
WAKU
  6
CONTINUOUS
 10
383.851529
 20
285.653846
 30
0.0
 11
389.236144
 21
285.653846
 31
0.0
  0
LINE
  5
DB22
  8
WAKU
  6
CONTINUOUS
 10
383.067593
 20
283.5
 30
0.0
 11
383.851529
 21
285.653846
 31
0.0
  0
LINE
  5
DB23
  8
WAKU
  6
CONTINUOUS
 10
383.067593
 20
283.5
 30
0.0
 11
388.452208
 21
283.5
 31
0.0
  0
LINE
  5
DB24
  8
WAKU
  6
CONTINUOUS
 10
391.174606
 20
285.653846
 30
0.0
 11
395.159221
 21
285.653846
 31
0.0
  0
LINE
  5
DB25
  8
WAKU
  6
CONTINUOUS
 10
391.703565
 20
286.515385
 30
0.0
 11
392.780488
 21
286.515385
 31
0.0
  0
LINE
  5
DB26
  8
WAKU
  6
CONTINUOUS
 10
390.39067
 20
283.5
 30
0.0
 11
391.174606
 21
285.653846
 31
0.0
  0
LINE
  5
DB27
  8
WAKU
  6
CONTINUOUS
 10
384.988236
 20
288.776923
 30
0.0
 11
390.372851
 21
288.776923
 31
0.0
  0
LINE
  5
DB28
  8
WAKU
  6
CONTINUOUS
 10
385.615385
 20
290.5
 30
0.0
 11
391.0
 21
290.5
 31
0.0
  0
LINE
  5
DB29
  8
WAKU
  6
CONTINUOUS
 10
384.988236
 20
288.776923
 30
0.0
 11
385.615385
 21
290.5
 31
0.0
  0
LINE
  5
DB2A
  8
WAKU
  6
CONTINUOUS
 10
384.323077
 20
290.5
 30
0.0
 11
383.695928
 21
288.776923
 31
0.0
  0
LINE
  5
DB2B
  8
WAKU
  6
CONTINUOUS
 10
393.153846
 20
290.5
 30
0.0
 11
394.230769
 21
290.5
 31
0.0
  0
LINE
  5
DB2C
  8
WAKU
  6
CONTINUOUS
 10
393.760408
 20
289.207692
 30
0.0
 11
394.230769
 21
290.5
 31
0.0
  0
LINE
  5
DB2D
  8
WAKU
  6
CONTINUOUS
 10
391.875792
 20
289.207692
 30
0.0
 11
392.683485
 21
289.207692
 31
0.0
  0
LINE
  5
DB2E
  8
WAKU
  6
CONTINUOUS
 10
391.28784
 20
287.592308
 30
0.0
 11
392.095533
 21
287.592308
 31
0.0
  0
LINE
  5
DB2F
  8
WAKU
  6
CONTINUOUS
 10
391.28784
 20
287.592308
 30
0.0
 11
391.875792
 21
289.207692
 31
0.0
  0
LINE
  5
DB30
  8
WAKU
  6
CONTINUOUS
 10
392.683485
 20
289.207692
 30
0.0
 11
393.153846
 21
290.5
 31
0.0
  0
LINE
  5
DB31
  8
WAKU
  6
CONTINUOUS
 10
390.372851
 20
288.776923
 30
0.0
 11
391.0
 21
290.5
 31
0.0
  0
LINE
  5
DB32
  8
WAKU
  6
CONTINUOUS
 10
405.753055
 20
288.130769
 30
0.0
 11
408.983824
 21
288.130769
 31
0.0
  0
LINE
  5
DB33
  8
WAKU
  6
CONTINUOUS
 10
405.282694
 20
286.838462
 30
0.0
 11
408.513463
 21
286.838462
 31
0.0
  0
LINE
  5
DB34
  8
WAKU
  6
CONTINUOUS
 10
409.452208
 20
283.5
 30
0.0
 11
404.067593
 21
283.5
 31
0.0
  0
LINE
  5
DB35
  8
WAKU
  6
CONTINUOUS
 10
404.851529
 20
285.653846
 30
0.0
 11
409.159221
 21
285.653846
 31
0.0
  0
LINE
  5
DB36
  8
WAKU
  6
CONTINUOUS
 10
405.988236
 20
288.776923
 30
0.0
 11
409.219005
 21
288.776923
 31
0.0
  0
LINE
  5
DB37
  8
WAKU
  6
CONTINUOUS
 10
406.615385
 20
290.5
 30
0.0
 11
409.846154
 21
290.5
 31
0.0
  0
LINE
  5
DB38
  8
WAKU
  6
CONTINUOUS
 10
398.781958
 20
286.730769
 30
0.0
 11
399.565894
 21
288.884615
 31
0.0
  0
LINE
  5
DB39
  8
WAKU
  6
CONTINUOUS
 10
400.181958
 20
286.730769
 30
0.0
 11
400.965894
 21
288.884615
 31
0.0
  0
LINE
  5
DB3A
  8
WAKU
  6
CONTINUOUS
 10
399.858881
 20
286.730769
 30
0.0
 11
400.642817
 21
288.884615
 31
0.0
  0
LINE
  5
DB3B
  8
WAKU
  6
CONTINUOUS
 10
401.258881
 20
286.730769
 30
0.0
 11
402.042817
 21
288.884615
 31
0.0
  0
LINE
  5
DB3C
  8
WAKU
  6
CONTINUOUS
 10
401.913747
 20
283.5
 30
0.0
 11
403.873587
 21
288.884615
 31
0.0
  0
LINE
  5
DB3D
  8
WAKU
  6
CONTINUOUS
 10
401.424776
 20
285.115385
 30
0.0
 11
402.796663
 21
288.884615
 31
0.0
  0
LINE
  5
DB3E
  8
WAKU
  6
CONTINUOUS
 10
395.452208
 20
283.5
 30
0.0
 11
396.941687
 21
287.592308
 31
0.0
  0
LINE
  5
DB3F
  8
WAKU
  6
CONTINUOUS
 10
397.606055
 20
283.5
 30
0.0
 11
401.913747
 21
283.5
 31
0.0
  0
LINE
  5
DB40
  8
WAKU
  6
CONTINUOUS
 10
398.781958
 20
286.730769
 30
0.0
 11
399.858881
 21
286.730769
 31
0.0
  0
LINE
  5
DB41
  8
WAKU
  6
CONTINUOUS
 10
398.194006
 20
285.115385
 30
0.0
 11
401.424776
 21
285.115385
 31
0.0
  0
LINE
  5
DB42
  8
WAKU
  6
CONTINUOUS
 10
397.606055
 20
283.5
 30
0.0
 11
398.194006
 21
285.115385
 31
0.0
  0
LINE
  5
DB43
  8
WAKU
  6
CONTINUOUS
 10
400.181958
 20
286.730769
 30
0.0
 11
401.258881
 21
286.730769
 31
0.0
  0
LINE
  5
DB44
  8
WAKU
  6
CONTINUOUS
 10
404.067593
 20
283.5
 30
0.0
 11
404.851529
 21
285.653846
 31
0.0
  0
LINE
  5
DB45
  8
WAKU
  6
CONTINUOUS
 10
400.965894
 20
288.884615
 30
0.0
 11
402.042817
 21
288.884615
 31
0.0
  0
LINE
  5
DB46
  8
WAKU
  6
CONTINUOUS
 10
396.923077
 20
290.5
 30
0.0
 11
398.0
 21
290.5
 31
0.0
  0
LINE
  5
DB47
  8
WAKU
  6
CONTINUOUS
 10
397.529638
 20
289.207692
 30
0.0
 11
398.0
 21
290.5
 31
0.0
  0
LINE
  5
DB48
  8
WAKU
  6
CONTINUOUS
 10
397.529638
 20
289.207692
 30
0.0
 11
398.337331
 21
289.207692
 31
0.0
  0
LINE
  5
DB49
  8
WAKU
  6
CONTINUOUS
 10
396.941687
 20
287.592308
 30
0.0
 11
397.749379
 21
287.592308
 31
0.0
  0
LINE
  5
DB4A
  8
WAKU
  6
CONTINUOUS
 10
397.749379
 20
287.592308
 30
0.0
 11
398.337331
 21
289.207692
 31
0.0
  0
LINE
  5
DB4B
  8
WAKU
  6
CONTINUOUS
 10
399.565894
 20
288.884615
 30
0.0
 11
400.642817
 21
288.884615
 31
0.0
  0
LINE
  5
DB4C
  8
WAKU
  6
CONTINUOUS
 10
396.452715
 20
289.207692
 30
0.0
 11
396.923077
 21
290.5
 31
0.0
  0
LINE
  5
DB4D
  8
WAKU
  6
CONTINUOUS
 10
406.615385
 20
290.5
 30
0.0
 11
405.988236
 21
288.776923
 31
0.0
  0
LINE
  5
DB4E
  8
WAKU
  6
CONTINUOUS
 10
405.753055
 20
288.130769
 30
0.0
 11
405.282694
 21
286.838462
 31
0.0
  0
LINE
  5
DB4F
  8
WAKU
  6
CONTINUOUS
 10
402.796663
 20
288.884615
 30
0.0
 11
403.873587
 21
288.884615
 31
0.0
  0
LINE
  5
DB50
  8
WAKU
  6
CONTINUOUS
 10
409.159221
 20
285.653846
 30
0.0
 11
410.923077
 21
290.5
 31
0.0
  0
LINE
  5
DB51
  8
WAKU
  6
CONTINUOUS
 10
409.452208
 20
283.5
 30
0.0
 11
412.0
 21
290.5
 31
0.0
  0
LINE
  5
DB52
  8
WAKU
  6
CONTINUOUS
 10
409.219005
 20
288.776923
 30
0.0
 11
409.846154
 21
290.5
 31
0.0
  0
LINE
  5
DB53
  8
WAKU
  6
CONTINUOUS
 10
410.923077
 20
290.5
 30
0.0
 11
412.0
 21
290.5
 31
0.0
  0
LINE
  5
DB54
  8
WAKU
  6
CONTINUOUS
 10
408.513463
 20
286.838462
 30
0.0
 11
408.983824
 21
288.130769
 31
0.0
  0
LINE
  5
DB55
  8
WAKU
  6
CONTINUOUS
 10
369.828646
 20
284.107791
 30
0.0
 11
369.966824
 21
283.829526
 31
0.0
  0
LINE
  5
DB56
  8
WAKU
  6
CONTINUOUS
 10
369.966824
 20
283.829526
 30
0.0
 11
370.193309
 21
283.634664
 31
0.0
  0
LINE
  5
DB57
  8
WAKU
  6
CONTINUOUS
 10
370.193309
 20
283.634664
 30
0.0
 11
370.499782
 21
283.530361
 31
0.0
  0
LINE
  5
DB58
  8
WAKU
  6
CONTINUOUS
 10
370.499782
 20
283.530361
 30
0.0
 11
370.874987
 21
283.520449
 31
0.0
  0
LINE
  5
DB59
  8
WAKU
  6
CONTINUOUS
 10
370.874987
 20
283.520449
 30
0.0
 11
371.305142
 21
283.605291
 31
0.0
  0
LINE
  5
DB5A
  8
WAKU
  6
CONTINUOUS
 10
371.305142
 20
283.605291
 30
0.0
 11
371.774448
 21
283.781773
 31
0.0
  0
LINE
  5
DB5B
  8
WAKU
  6
CONTINUOUS
 10
371.774448
 20
283.781773
 30
0.0
 11
372.265666
 21
284.043411
 31
0.0
  0
LINE
  5
DB5C
  8
WAKU
  6
CONTINUOUS
 10
372.265666
 20
284.043411
 30
0.0
 11
372.760756
 21
284.380595
 31
0.0
  0
LINE
  5
DB5D
  8
WAKU
  6
CONTINUOUS
 10
372.760756
 20
284.380595
 30
0.0
 11
373.241532
 21
284.780941
 31
0.0
  0
LINE
  5
DB5E
  8
WAKU
  6
CONTINUOUS
 10
373.241532
 20
284.780941
 30
0.0
 11
373.690335
 21
285.229744
 31
0.0
  0
LINE
  5
DB5F
  8
WAKU
  6
CONTINUOUS
 10
373.690335
 20
285.229744
 30
0.0
 11
374.090681
 21
285.71052
 31
0.0
  0
LINE
  5
DB60
  8
WAKU
  6
CONTINUOUS
 10
374.090681
 20
285.71052
 30
0.0
 11
374.427865
 21
286.205609
 31
0.0
  0
LINE
  5
DB61
  8
WAKU
  6
CONTINUOUS
 10
374.427865
 20
286.205609
 30
0.0
 11
374.689503
 21
286.696828
 31
0.0
  0
LINE
  5
DB62
  8
WAKU
  6
CONTINUOUS
 10
374.689503
 20
286.696828
 30
0.0
 11
374.865984
 21
287.166134
 31
0.0
  0
LINE
  5
DB63
  8
WAKU
  6
CONTINUOUS
 10
374.865984
 20
287.166134
 30
0.0
 11
374.950827
 21
287.596289
 31
0.0
  0
LINE
  5
DB64
  8
WAKU
  6
CONTINUOUS
 10
374.950827
 20
287.596289
 30
0.0
 11
374.940915
 21
287.971493
 31
0.0
  0
LINE
  5
DB65
  8
WAKU
  6
CONTINUOUS
 10
374.940915
 20
287.971493
 30
0.0
 11
374.836612
 21
288.277967
 31
0.0
  0
LINE
  5
DB66
  8
WAKU
  6
CONTINUOUS
 10
374.836612
 20
288.277967
 30
0.0
 11
374.641749
 21
288.504452
 31
0.0
  0
LINE
  5
DB67
  8
WAKU
  6
CONTINUOUS
 10
374.641749
 20
288.504452
 30
0.0
 11
374.363484
 21
288.64263
 31
0.0
  0
LINE
  5
DB68
  8
WAKU
  6
CONTINUOUS
 10
373.916941
 20
288.683944
 30
0.0
 11
373.482636
 21
288.608014
 31
0.0
  0
LINE
  5
DB69
  8
WAKU
  6
CONTINUOUS
 10
373.482636
 20
288.608014
 30
0.0
 11
373.005639
 21
288.435768
 31
0.0
  0
LINE
  5
DB6A
  8
WAKU
  6
CONTINUOUS
 10
373.005639
 20
288.435768
 30
0.0
 11
372.504269
 21
288.173821
 31
0.0
  0
LINE
  5
DB6B
  8
WAKU
  6
CONTINUOUS
 10
372.504269
 20
288.173821
 30
0.0
 11
371.997783
 21
287.832235
 31
0.0
  0
LINE
  5
DB6C
  8
WAKU
  6
CONTINUOUS
 10
371.997783
 20
287.832235
 30
0.0
 11
371.505632
 21
287.424128
 31
0.0
  0
LINE
  5
DB6D
  8
WAKU
  6
CONTINUOUS
 10
371.505632
 20
287.424128
 30
0.0
 11
371.04672
 21
286.965174
 31
0.0
  0
LINE
  5
DB6E
  8
WAKU
  6
CONTINUOUS
 10
371.04672
 20
286.965174
 30
0.0
 11
370.638671
 21
286.473
 31
0.0
  0
LINE
  5
DB6F
  8
WAKU
  6
CONTINUOUS
 10
370.638671
 20
286.473
 30
0.0
 11
370.297156
 21
285.966509
 31
0.0
  0
LINE
  5
DB70
  8
WAKU
  6
CONTINUOUS
 10
370.297156
 20
285.966509
 30
0.0
 11
370.035293
 21
285.465154
 31
0.0
  0
LINE
  5
DB71
  8
WAKU
  6
CONTINUOUS
 10
370.035293
 20
285.465154
 30
0.0
 11
369.863139
 21
284.988189
 31
0.0
  0
LINE
  5
DB72
  8
WAKU
  6
CONTINUOUS
 10
369.863139
 20
284.988189
 30
0.0
 11
369.787305
 21
284.553935
 31
0.0
  0
LINE
  5
DB73
  8
WAKU
  6
CONTINUOUS
 10
370.172911
 20
284.451856
 30
0.0
 11
370.681395
 21
284.539195
 31
0.0
  0
LINE
  5
DB74
  8
WAKU
  6
CONTINUOUS
 10
370.681395
 20
284.539195
 30
0.0
 11
371.312263
 21
284.810332
 31
0.0
  0
LINE
  5
DB75
  8
WAKU
  6
CONTINUOUS
 10
371.312263
 20
284.810332
 30
0.0
 11
371.98994
 21
285.251431
 31
0.0
  0
LINE
  5
DB76
  8
WAKU
  6
CONTINUOUS
 10
371.98994
 20
285.251431
 30
0.0
 11
372.646296
 21
285.825506
 31
0.0
  0
LINE
  5
DB77
  8
WAKU
  6
CONTINUOUS
 10
372.646296
 20
285.825506
 30
0.0
 11
373.220238
 21
286.48192
 31
0.0
  0
LINE
  5
DB78
  8
WAKU
  6
CONTINUOUS
 10
373.220238
 20
286.48192
 30
0.0
 11
373.661353
 21
287.159534
 31
0.0
  0
LINE
  5
DB79
  8
WAKU
  6
CONTINUOUS
 10
373.661353
 20
287.159534
 30
0.0
 11
373.932071
 21
287.790402
 31
0.0
  0
LINE
  5
DB7A
  8
WAKU
  6
CONTINUOUS
 10
373.932071
 20
287.790402
 30
0.0
 11
374.019229
 21
288.298569
 31
0.0
  0
LINE
  5
DB7B
  8
WAKU
  6
CONTINUOUS
 10
373.916941
 20
288.683944
 30
0.0
 11
373.799148
 21
288.781929
 31
0.0
  0
LINE
  5
DB7C
  8
WAKU
  6
CONTINUOUS
 10
373.799148
 20
288.781929
 30
0.0
 11
373.597996
 21
288.840902
 31
0.0
  0
LINE
  5
DB7D
  8
WAKU
  6
CONTINUOUS
 10
373.597996
 20
288.840902
 30
0.0
 11
373.290857
 21
288.835581
 31
0.0
  0
LINE
  5
DB7E
  8
WAKU
  6
CONTINUOUS
 10
373.290857
 20
288.835581
 30
0.0
 11
372.89514
 21
288.740065
 31
0.0
  0
LINE
  5
DB7F
  8
WAKU
  6
CONTINUOUS
 10
372.89514
 20
288.740065
 30
0.0
 11
372.440235
 21
288.547585
 31
0.0
  0
LINE
  5
DB80
  8
WAKU
  6
CONTINUOUS
 10
372.440235
 20
288.547585
 30
0.0
 11
371.954587
 21
288.264284
 31
0.0
  0
LINE
  5
DB81
  8
WAKU
  6
CONTINUOUS
 10
371.954587
 20
288.264284
 30
0.0
 11
370.996098
 21
287.475108
 31
0.0
  0
LINE
  5
DB82
  8
WAKU
  6
CONTINUOUS
 10
370.996098
 20
287.475108
 30
0.0
 11
370.207035
 21
286.51657
 31
0.0
  0
LINE
  5
DB83
  8
WAKU
  6
CONTINUOUS
 10
370.207035
 20
286.51657
 30
0.0
 11
369.923519
 21
286.031028
 31
0.0
  0
LINE
  5
DB84
  8
WAKU
  6
CONTINUOUS
 10
369.923519
 20
286.031028
 30
0.0
 11
369.73149
 21
285.576021
 31
0.0
  0
LINE
  5
DB85
  8
WAKU
  6
CONTINUOUS
 10
369.73149
 20
285.576021
 30
0.0
 11
369.635696
 21
285.180404
 31
0.0
  0
LINE
  5
DB86
  8
WAKU
  6
CONTINUOUS
 10
369.635696
 20
285.180404
 30
0.0
 11
369.630358
 21
284.873087
 31
0.0
  0
LINE
  5
DB87
  8
WAKU
  6
CONTINUOUS
 10
369.630358
 20
284.873087
 30
0.0
 11
369.689155
 21
284.672435
 31
0.0
  0
LINE
  5
DB88
  8
WAKU
  6
CONTINUOUS
 10
369.689155
 20
284.672435
 30
0.0
 11
369.787305
 21
284.553935
 31
0.0
  0
LINE
  5
DB89
  8
WAKU
  6
CONTINUOUS
 10
370.275177
 20
284.066476
 30
0.0
 11
370.392927
 21
283.968568
 31
0.0
  0
LINE
  5
DB8A
  8
WAKU
  6
CONTINUOUS
 10
370.392927
 20
283.968568
 30
0.0
 11
370.594177
 21
283.909498
 31
0.0
  0
LINE
  5
DB8B
  8
WAKU
  6
CONTINUOUS
 10
370.594177
 20
283.909498
 30
0.0
 11
370.901294
 21
283.914863
 31
0.0
  0
LINE
  5
DB8C
  8
WAKU
  6
CONTINUOUS
 10
370.901294
 20
283.914863
 30
0.0
 11
371.296984
 21
284.010368
 31
0.0
  0
LINE
  5
DB8D
  8
WAKU
  6
CONTINUOUS
 10
371.296984
 20
284.010368
 30
0.0
 11
371.751882
 21
284.202798
 31
0.0
  0
LINE
  5
DB8E
  8
WAKU
  6
CONTINUOUS
 10
371.751882
 20
284.202798
 30
0.0
 11
372.237497
 21
284.486117
 31
0.0
  0
LINE
  5
DB8F
  8
WAKU
  6
CONTINUOUS
 10
372.237497
 20
284.486117
 30
0.0
 11
373.195965
 21
285.275232
 31
0.0
  0
LINE
  5
DB90
  8
WAKU
  6
CONTINUOUS
 10
373.195965
 20
285.275232
 30
0.0
 11
373.98505
 21
286.233718
 31
0.0
  0
LINE
  5
DB91
  8
WAKU
  6
CONTINUOUS
 10
373.98505
 20
286.233718
 30
0.0
 11
374.268507
 21
286.719278
 31
0.0
  0
LINE
  5
DB92
  8
WAKU
  6
CONTINUOUS
 10
374.268507
 20
286.719278
 30
0.0
 11
374.46071
 21
287.174248
 31
0.0
  0
LINE
  5
DB93
  8
WAKU
  6
CONTINUOUS
 10
374.46071
 20
287.174248
 30
0.0
 11
374.556361
 21
287.569864
 31
0.0
  0
LINE
  5
DB94
  8
WAKU
  6
CONTINUOUS
 10
374.556361
 20
287.569864
 30
0.0
 11
374.561802
 21
287.877253
 31
0.0
  0
LINE
  5
DB95
  8
WAKU
  6
CONTINUOUS
 10
374.561802
 20
287.877253
 30
0.0
 11
374.502951
 21
288.077918
 31
0.0
  0
LINE
  5
DB96
  8
WAKU
  6
CONTINUOUS
 10
374.502951
 20
288.077918
 30
0.0
 11
374.40481
 21
288.196249
 31
0.0
  0
LINE
  5
DB97
  8
WAKU
  6
CONTINUOUS
 10
374.019229
 20
288.298569
 30
0.0
 11
373.510738
 21
288.21124
 31
0.0
  0
LINE
  5
DB98
  8
WAKU
  6
CONTINUOUS
 10
373.510738
 20
288.21124
 30
0.0
 11
372.879878
 21
287.940057
 31
0.0
  0
LINE
  5
DB99
  8
WAKU
  6
CONTINUOUS
 10
372.879878
 20
287.940057
 30
0.0
 11
372.202181
 21
287.498991
 31
0.0
  0
LINE
  5
DB9A
  8
WAKU
  6
CONTINUOUS
 10
372.202181
 20
287.498991
 30
0.0
 11
371.545827
 21
286.924893
 31
0.0
  0
LINE
  5
DB9B
  8
WAKU
  6
CONTINUOUS
 10
371.545827
 20
286.924893
 30
0.0
 11
370.971896
 21
286.268471
 31
0.0
  0
LINE
  5
DB9C
  8
WAKU
  6
CONTINUOUS
 10
370.971896
 20
286.268471
 30
0.0
 11
370.530712
 21
285.590875
 31
0.0
  0
LINE
  5
DB9D
  8
WAKU
  6
CONTINUOUS
 10
370.530712
 20
285.590875
 30
0.0
 11
370.260168
 21
284.959969
 31
0.0
  0
LINE
  5
DB9E
  8
WAKU
  6
CONTINUOUS
 10
370.260168
 20
284.959969
 30
0.0
 11
370.172911
 21
284.451856
 31
0.0
  0
LINE
  5
DB9F
  8
WAKU
  6
CONTINUOUS
 10
370.275177
 20
284.066476
 30
0.0
 11
370.709458
 21
284.142397
 31
0.0
  0
LINE
  5
DBA0
  8
WAKU
  6
CONTINUOUS
 10
370.709458
 20
284.142397
 30
0.0
 11
371.186428
 21
284.314625
 31
0.0
  0
LINE
  5
DBA1
  8
WAKU
  6
CONTINUOUS
 10
371.186428
 20
284.314625
 30
0.0
 11
371.68777
 21
284.576545
 31
0.0
  0
LINE
  5
DBA2
  8
WAKU
  6
CONTINUOUS
 10
371.68777
 20
284.576545
 30
0.0
 11
372.194232
 21
284.918099
 31
0.0
  0
LINE
  5
DBA3
  8
WAKU
  6
CONTINUOUS
 10
372.194232
 20
284.918099
 30
0.0
 11
372.686363
 21
285.326171
 31
0.0
  0
LINE
  5
DBA4
  8
WAKU
  6
CONTINUOUS
 10
372.686363
 20
285.326171
 30
0.0
 11
373.145266
 21
285.785089
 31
0.0
  0
LINE
  5
DBA5
  8
WAKU
  6
CONTINUOUS
 10
373.145266
 20
285.785089
 30
0.0
 11
373.553316
 21
286.277229
 31
0.0
  0
LINE
  5
DBA6
  8
WAKU
  6
CONTINUOUS
 10
373.553316
 20
286.277229
 30
0.0
 11
373.894843
 21
286.783693
 31
0.0
  0
LINE
  5
DBA7
  8
WAKU
  6
CONTINUOUS
 10
373.894843
 20
286.783693
 30
0.0
 11
374.156732
 21
287.28503
 31
0.0
  0
LINE
  5
DBA8
  8
WAKU
  6
CONTINUOUS
 10
374.156732
 20
287.28503
 30
0.0
 11
374.328925
 21
287.761987
 31
0.0
  0
LINE
  5
DBA9
  8
WAKU
  6
CONTINUOUS
 10
374.328925
 20
287.761987
 30
0.0
 11
374.40481
 21
288.196249
 31
0.0
  0
LINE
  5
DBAA
  8
WAKU
  6
CONTINUOUS
 10
374.363484
 20
288.64263
 30
0.0
 11
374.225306
 21
288.920895
 31
0.0
  0
LINE
  5
DBAB
  8
WAKU
  6
CONTINUOUS
 10
374.225306
 20
288.920895
 30
0.0
 11
373.998821
 21
289.115757
 31
0.0
  0
LINE
  5
DBAC
  8
WAKU
  6
CONTINUOUS
 10
373.998821
 20
289.115757
 30
0.0
 11
373.692348
 21
289.22006
 31
0.0
  0
LINE
  5
DBAD
  8
WAKU
  6
CONTINUOUS
 10
373.692348
 20
289.22006
 30
0.0
 11
373.317143
 21
289.229972
 31
0.0
  0
LINE
  5
DBAE
  8
WAKU
  6
CONTINUOUS
 10
373.317143
 20
289.229972
 30
0.0
 11
372.886988
 21
289.145129
 31
0.0
  0
LINE
  5
DBAF
  8
WAKU
  6
CONTINUOUS
 10
372.886988
 20
289.145129
 30
0.0
 11
372.417683
 21
288.968648
 31
0.0
  0
LINE
  5
DBB0
  8
WAKU
  6
CONTINUOUS
 10
372.417683
 20
288.968648
 30
0.0
 11
371.926464
 21
288.70701
 31
0.0
  0
LINE
  5
DBB1
  8
WAKU
  6
CONTINUOUS
 10
371.926464
 20
288.70701
 30
0.0
 11
371.431374
 21
288.369826
 31
0.0
  0
LINE
  5
DBB2
  8
WAKU
  6
CONTINUOUS
 10
371.431374
 20
288.369826
 30
0.0
 11
370.950599
 21
287.96948
 31
0.0
  0
LINE
  5
DBB3
  8
WAKU
  6
CONTINUOUS
 10
370.950599
 20
287.96948
 30
0.0
 11
370.501795
 21
287.520677
 31
0.0
  0
LINE
  5
DBB4
  8
WAKU
  6
CONTINUOUS
 10
370.501795
 20
287.520677
 30
0.0
 11
370.101449
 21
287.039901
 31
0.0
  0
LINE
  5
DBB5
  8
WAKU
  6
CONTINUOUS
 10
370.101449
 20
287.039901
 30
0.0
 11
369.764265
 21
286.544812
 31
0.0
  0
LINE
  5
DBB6
  8
WAKU
  6
CONTINUOUS
 10
369.764265
 20
286.544812
 30
0.0
 11
369.502627
 21
286.053593
 31
0.0
  0
LINE
  5
DBB7
  8
WAKU
  6
CONTINUOUS
 10
369.502627
 20
286.053593
 30
0.0
 11
369.326146
 21
285.584287
 31
0.0
  0
LINE
  5
DBB8
  8
WAKU
  6
CONTINUOUS
 10
369.326146
 20
285.584287
 30
0.0
 11
369.241303
 21
285.154132
 31
0.0
  0
LINE
  5
DBB9
  8
WAKU
  6
CONTINUOUS
 10
369.241303
 20
285.154132
 30
0.0
 11
369.251215
 21
284.778928
 31
0.0
  0
LINE
  5
DBBA
  8
WAKU
  6
CONTINUOUS
 10
369.251215
 20
284.778928
 30
0.0
 11
369.355518
 21
284.472454
 31
0.0
  0
LINE
  5
DBBB
  8
WAKU
  6
CONTINUOUS
 10
369.355518
 20
284.472454
 30
0.0
 11
369.550381
 21
284.245969
 31
0.0
  0
LINE
  5
DBBC
  8
WAKU
  6
CONTINUOUS
 10
369.550381
 20
284.245969
 30
0.0
 11
369.828646
 21
284.107791
 31
0.0
  0
INSERT
  5
DBBD
  8
WAKU
  6
CONTINUOUS
  2
*U0
 10
0.0
 20
0.0
 30
0.0
  0
TEXT
  5
10375
  8
WAKU
 10
10.0
 20
285.5
 30
0.0
 40
3.0
  1
FNS-70AT
 41
0.868
 11
10.0
 21
287.0
 31
0.0
 73
     2
  0
TEXT
  5
16DA1
  8
WAKU
 10
35.0
 20
284.5
 30
0.0
 40
5.0
  1
外動片引き断面詳細図(Cﾀｲプ)　防火戸　非防火戸
 11
35.0
 21
287.0
 31
0.0
 73
     2
  0
LINE
  5
18BF5
  8
DANMEN
  6
CONTINUOUS
 10
195.000002
 20
136.8
 30
0.0
 11
199.850997
 21
136.8
 31
0.0
  0
LINE
  5
18BF6
  8
DANMEN
  6
CONTINUOUS
 10
195.000002
 20
135.0
 30
0.0
 11
199.917206
 21
135.0
 31
0.0
  0
LINE
  5
18BF7
  8
DANMEN
  6
CONTINUOUS
 10
195.000002
 20
119.0
 30
0.0
 11
207.500002
 21
119.0
 31
0.0
  0
LINE
  5
18BF8
  8
DANMEN
  6
CONTINUOUS
 10
197.000002
 20
154.850006
 30
0.0
 11
209.500002
 21
154.850006
 31
0.0
  0
LINE
  5
18BF9
  8
DANMEN
  6
CONTINUOUS
 10
197.000002
 20
88.149994
 30
0.0
 11
209.500002
 21
88.149994
 31
0.0
  0
LINE
  5
18BFA
  8
DANMEN
  6
CONTINUOUS
 10
185.500002
 20
156.5
 30
0.0
 11
209.500002
 21
156.5
 31
0.0
  0
LINE
  5
18BFB
  8
DANMEN
  6
CONTINUOUS
 10
185.500002
 20
86.5
 30
0.0
 11
209.500002
 21
86.5
 31
0.0
  0
LINE
  5
18BFC
  8
DANMEN
  6
CONTINUOUS
 10
195.000002
 20
120.1
 30
0.0
 11
200.000002
 21
120.1
 31
0.0
  0
LINE
  5
18BFD
  8
DANMEN
  6
CONTINUOUS
 10
198.500002
 20
130.0
 30
0.0
 11
199.199998
 21
130.0
 31
0.0
  0
LINE
  5
18BFE
  8
DANMEN
  6
CONTINUOUS
 10
198.500002
 20
145.0
 30
0.0
 11
199.199998
 21
145.0
 31
0.0
  0
LINE
  5
18BFF
  8
DANMEN
  6
CONTINUOUS
 10
207.963123
 20
149.494468
 30
0.0
 11
198.851661
 21
148.127749
 31
0.0
  0
LINE
  5
18C00
  8
DANMEN
  6
CONTINUOUS
 10
207.963123
 20
125.505532
 30
0.0
 11
198.851661
 21
126.872251
 31
0.0
  0
LINE
  5
18C01
  8
DANMEN
  6
CONTINUOUS
 10
197.025814
 20
129.835584
 30
0.0
 11
199.800005
 21
123.3
 31
0.0
  0
LINE
  5
18C02
  8
DANMEN
  6
CONTINUOUS
 10
196.510441
 20
129.002283
 30
0.0
 11
199.270497
 21
122.5
 31
0.0
  0
LINE
  5
18C03
  8
DANMEN
  6
CONTINUOUS
 10
195.0
 20
130.0
 30
0.0
 11
211.0
 21
130.0
 31
0.0
  0
LINE
  5
18C04
  8
DANMEN
  6
CONTINUOUS
 10
195.0
 20
144.0
 30
0.0
 11
211.0
 21
144.0
 31
0.0
  0
LINE
  5
18C05
  8
DANMEN
  6
CONTINUOUS
 10
195.0
 20
139.0
 30
0.0
 11
211.0
 21
139.0
 31
0.0
  0
LINE
  5
18C06
  8
DANMEN
  6
CONTINUOUS
 10
195.0
 20
119.0
 30
0.0
 11
208.0
 21
119.0
 31
0.0
  0
LINE
  5
18C07
  8
DANMEN
  6
CONTINUOUS
 10
195.0
 20
97.5
 30
0.0
 11
257.5
 21
97.5
 31
0.0
  0
LINE
  5
18C08
  8
DANMEN
  6
CONTINUOUS
 10
195.0
 20
149.5
 30
0.0
 11
257.5
 21
149.5
 31
0.0
  0
LINE
  5
18C09
  8
DANMEN
  6
CONTINUOUS
 10
200.5
 20
122.5
 30
0.0
 11
195.0
 21
122.5
 31
0.0
  0
LINE
  5
18C0A
  8
DANMEN
  6
CONTINUOUS
 10
195.0
 20
119.0
 30
0.0
 11
208.0
 21
119.0
 31
0.0
  0
LINE
  5
18C0B
  8
DANMEN
  6
CONTINUOUS
 10
50.149998
 20
135.5
 30
0.0
 11
50.149998
 21
103.699997
 31
0.0
  0
LINE
  5
18C0C
  8
DANMEN
  6
CONTINUOUS
 10
65.849998
 20
140.550003
 30
0.0
 11
65.849998
 21
109.5
 31
0.0
  0
LINE
  5
18C0D
  8
DANMEN
  6
CONTINUOUS
 10
67.799998
 20
153.0
 30
0.0
 11
67.799998
 21
88.5
 31
0.0
  0
LINE
  5
18C0E
  8
DANMEN
  6
CONTINUOUS
 10
48.199998
 20
153.0
 30
0.0
 11
48.199998
 21
60.0
 31
0.0
  0
LINE
  5
18C0F
  8
DANMEN
  6
CONTINUOUS
 10
105.017555
 20
125.497915
 30
0.0
 11
105.0
 21
95.0
 31
0.0
  0
LINE
  5
18C10
  8
DANMEN
  6
CONTINUOUS
 10
106.517555
 20
125.854639
 30
0.0
 11
106.004224
 21
95.529237
 31
0.0
  0
LINE
  5
18C11
  8
DANMEN
  6
CONTINUOUS
 10
105.31756
 20
125.50832
 30
0.0
 11
105.30001
 21
95.020979
 31
0.0
  0
LINE
  5
18C12
  8
DANMEN
  6
CONTINUOUS
 10
195.000002
 20
135.0
 30
0.0
 11
195.000002
 21
120.1
 31
0.0
  0
LINE
  5
18C13
  8
DANMEN
  6
CONTINUOUS
 10
193.350008
 20
154.850006
 30
0.0
 11
193.350008
 21
88.149994
 31
0.0
  0
LINE
  5
18C14
  8
DANMEN
  6
CONTINUOUS
 10
107.350006
 20
125.573535
 30
0.0
 11
107.350006
 21
99.5
 31
0.0
  0
LINE
  5
18C15
  8
DANMEN
  6
CONTINUOUS
 10
109.0
 20
125.72342
 30
0.0
 11
109.0
 21
99.5
 31
0.0
  0
LINE
  5
18C16
  8
DANMEN
  6
CONTINUOUS
 10
105.0
 20
169.5
 30
0.0
 11
105.0
 21
94.5
 31
0.0
  0
LINE
  5
18C17
  8
DANMEN
  6
CONTINUOUS
 10
79.999985
 20
169.5
 30
0.0
 11
79.999985
 21
99.5
 31
0.0
  0
LINE
  5
18C18
  8
DANMEN
  6
CONTINUOUS
 10
96.000015
 20
169.5
 30
0.0
 11
96.000015
 21
99.5
 31
0.0
  0
LINE
  5
18C19
  8
DANMEN
  6
CONTINUOUS
 10
98.0
 20
169.5
 30
0.0
 11
98.0
 21
99.5
 31
0.0
  0
LINE
  5
18C1A
  8
DANMEN
  6
CONTINUOUS
 10
78.0
 20
169.5
 30
0.0
 11
78.0
 21
99.5
 31
0.0
  0
LINE
  5
18C1B
  8
DANMEN
  6
CONTINUOUS
 10
89.999986
 20
92.5
 30
0.0
 11
89.999986
 21
169.5
 31
0.0
  0
LINE
  5
18C1C
  8
DANMEN
  6
CONTINUOUS
 10
85.999998
 20
92.5
 30
0.0
 11
85.999998
 21
169.5
 31
0.0
  0
LINE
  5
18C1D
  8
DANMEN
  6
CONTINUOUS
 10
85.499998
 20
92.5
 30
0.0
 11
85.499998
 21
169.5
 31
0.0
  0
LINE
  5
18C1E
  8
DANMEN
  6
CONTINUOUS
 10
90.499986
 20
92.5
 30
0.0
 11
90.499986
 21
169.5
 31
0.0
  0
LINE
  5
18C1F
  8
DANMEN
  6
DASHED
 10
75.5
 20
169.5
 30
0.0
 11
75.5
 21
99.5
 31
0.0
  0
LINE
  5
18C20
  8
DANMEN
  6
CONTINUOUS
 10
72.5
 20
169.5
 30
0.0
 11
72.5
 21
99.5
 31
0.0
  0
LINE
  5
18C21
  8
DANMEN
  6
CONTINUOUS
 10
40.649994
 20
169.5
 30
0.0
 11
40.649994
 21
41.5
 31
0.0
  0
LINE
  5
18C22
  8
DANMEN
  6
CONTINUOUS
 10
46.0
 20
169.5
 30
0.0
 11
46.0
 21
59.5
 31
0.0
  0
LINE
  5
18C23
  8
DANMEN
  6
CONTINUOUS
 10
70.0
 20
169.5
 30
0.0
 11
70.0
 21
88.0
 31
0.0
  0
LINE
  5
18C24
  8
DANMEN
  6
CONTINUOUS
 10
39.0
 20
169.5
 30
0.0
 11
39.0
 21
43.265549
 31
0.0
  0
LINE
  5
18C25
  8
DANMEN
  6
CONTINUOUS
 10
91.563803
 20
64.174726
 30
0.0
 11
66.054612
 21
52.93964
 31
0.0
  0
LINE
  5
18C26
  8
DANMEN
  6
CONTINUOUS
 10
90.5
 20
65.503636
 30
0.0
 11
65.5
 21
54.5
 31
0.0
  0
LINE
  5
18C27
  8
DANMEN
  6
CONTINUOUS
 10
65.849995
 20
76.5
 30
0.0
 11
68.049998
 21
76.5
 31
0.0
  0
LINE
  5
18C29
  8
DANMEN
  6
CONTINUOUS
 10
66.849998
 20
86.550003
 30
0.0
 11
68.049998
 21
86.550003
 31
0.0
  0
LINE
  5
18C2A
  8
DANMEN
  6
CONTINUOUS
 10
62.0
 20
59.5
 30
0.0
 11
70.0
 21
59.5
 31
0.0
  0
LINE
  5
18C2B
  8
DANMEN
  6
CONTINUOUS
 10
52.5
 20
39.5
 30
0.0
 11
109.0
 21
39.5
 31
0.0
  0
LINE
  5
18C2C
  8
DANMEN
  6
CONTINUOUS
 10
51.0
 20
39.5
 30
0.0
 11
51.0
 21
31.0
 31
0.0
  0
LINE
  5
18C2D
  8
DANMEN
  6
CONTINUOUS
 10
52.5
 20
40.149994
 30
0.0
 11
52.5
 21
31.0
 31
0.0
  0
ARC
  5
18C2E
  8
DANMEN
  6
CONTINUOUS
 10
51.5
 20
31.0
 30
0.0
 40
0.5
 50
180.000019
 51
270.000001
  0
LINE
  5
18C32
  8
DANMEN
  6
CONTINUOUS
 10
51.5
 20
30.5
 30
0.0
 11
52.0
 21
30.5
 31
0.0
  0
ARC
  5
18C34
  8
DANMEN
  6
CONTINUOUS
 10
52.0
 20
31.0
 30
0.0
 40
0.5
 50
270.000018
 51
0.0
  0
LINE
  5
18C35
  8
DANMEN
  6
CONTINUOUS
 10
62.0
 20
99.500008
 30
0.0
 11
62.0
 21
63.5
 31
0.0
  0
LINE
  5
18C36
  8
DANMEN
  6
CONTINUOUS
 10
54.0
 20
99.500008
 30
0.0
 11
54.0
 21
63.5
 31
0.0
  0
LINE
  5
18C37
  8
DANMEN
  6
CONTINUOUS
 10
60.0
 20
63.5
 30
0.0
 11
60.0
 21
99.500008
 31
0.0
  0
LINE
  5
18C38
  8
DANMEN
  6
CONTINUOUS
 10
56.0
 20
63.5
 30
0.0
 11
56.0
 21
99.500008
 31
0.0
  0
LINE
  5
18C39
  8
DANMEN
  6
CONTINUOUS
 10
62.400002
 20
90.500004
 30
0.0
 11
62.400002
 21
72.500004
 31
0.0
  0
LINE
  5
18C3A
  8
DANMEN
  6
CONTINUOUS
 10
53.599998
 20
90.500004
 30
0.0
 11
53.599998
 21
72.500004
 31
0.0
  0
LINE
  5
18C3B
  8
DANMEN
  6
CONTINUOUS
 10
50.149998
 20
102.5
 30
0.0
 11
50.149998
 21
75.5
 31
0.0
  0
ARC
  5
18C3C
  8
DANMEN
  6
CONTINUOUS
 10
52.00999
 20
52.5
 30
0.0
 40
2.0
 50
90.0
 51
118.610582
  0
LINE
  5
18C3D
  8
DANMEN
  6
CONTINUOUS
 10
47.649994
 20
41.149994
 30
0.0
 11
51.5
 21
41.149994
 31
0.0
  0
LINE
  5
18C3E
  8
DANMEN
  6
CONTINUOUS
 10
51.920742
 20
52.85
 30
0.0
 11
47.649994
 21
50.520489
 31
0.0
  0
LINE
  5
18C3F
  8
DANMEN
  6
CONTINUOUS
 10
46.0
 20
50.906353
 30
0.0
 11
46.0
 21
41.5
 31
0.0
  0
LINE
  5
18C40
  8
DANMEN
  6
CONTINUOUS
 10
47.649994
 20
50.520489
 30
0.0
 11
47.649994
 21
41.149994
 31
0.0
  0
LINE
  5
18C41
  8
DANMEN
  6
CONTINUOUS
 10
36.276393
 20
43.161806
 30
0.0
 11
39.0
 21
41.800003
 31
0.0
  0
LINE
  5
18C42
  8
DANMEN
  6
CONTINUOUS
 10
37.199997
 20
43.929842
 30
0.0
 11
39.823607
 21
42.618037
 31
0.0
  0
LINE
  5
18C43
  8
DANMEN
  6
CONTINUOUS
 10
40.1
 20
41.5
 30
0.0
 11
46.0
 21
41.5
 31
0.0
  0
LINE
  5
18C44
  8
DANMEN
  6
CONTINUOUS
 10
39.800003
 20
40.4
 30
0.0
 11
46.0
 21
40.4
 31
0.0
  0
LINE
  5
18C45
  8
DANMEN
  6
CONTINUOUS
 10
39.570786
 20
39.5
 30
0.0
 11
46.33287
 21
39.5
 31
0.0
  0
ARC
  5
18C46
  8
DANMEN
  6
CONTINUOUS
 10
39.399994
 20
39.899994
 30
0.0
 40
0.4
 50
180.000019
 51
359.999983
  0
LINE
  5
18C47
  8
DANMEN
  6
CONTINUOUS
 10
39.0
 20
41.800003
 30
0.0
 11
39.0
 21
39.899994
 31
0.0
  0
LINE
  5
18C4C
  8
DANMEN
  6
CONTINUOUS
 10
39.800003
 20
40.4
 30
0.0
 11
39.800003
 21
39.899994
 31
0.0
  0
LINE
  5
18C4E
  8
DANMEN
  6
CONTINUOUS
 10
40.1
 20
42.170823
 30
0.0
 11
40.1
 21
41.5
 31
0.0
  0
ARC
  5
18C4F
  8
DANMEN
  6
CONTINUOUS
 10
39.6
 20
42.170823
 30
0.0
 40
0.5
 50
0.0
 51
63.434949
  0
LINE
  5
18C53
  8
DANMEN
  6
CONTINUOUS
 10
46.5
 20
39.5
 30
0.0
 11
51.0
 21
39.5
 31
0.0
  0
ARC
  5
18C55
  8
DANMEN
  6
CONTINUOUS
 10
46.5
 20
40.0
 30
0.0
 40
0.5
 50
180.000019
 51
270.000001
  0
LINE
  5
18C56
  8
DANMEN
  6
CONTINUOUS
 10
46.0
 20
40.4
 30
0.0
 11
46.0
 21
40.0
 31
0.0
  0
LINE
  5
18C5B
  8
DANMEN
  6
CONTINUOUS
 10
36.0
 20
48.899994
 30
0.0
 11
36.0
 21
43.60902
 31
0.0
  0
LINE
  5
18C5C
  8
DANMEN
  6
CONTINUOUS
 10
37.199997
 20
48.899994
 30
0.0
 11
37.199997
 21
43.929842
 31
0.0
  0
ARC
  5
18C5D
  8
DANMEN
  6
CONTINUOUS
 10
36.600006
 20
48.899994
 30
0.0
 40
0.6
 50
0.0
 51
180.000019
  0
ARC
  5
18C5F
  8
DANMEN
  6
CONTINUOUS
 10
36.5
 20
43.60902
 30
0.0
 40
0.5
 50
180.0
 51
243.434949
  0
LINE
  5
18C63
  8
DANMEN
  6
CONTINUOUS
 10
51.052282
 20
54.255789
 30
0.0
 11
46.521146
 21
51.784248
 31
0.0
  0
ARC
  5
18C65
  8
DANMEN
  6
CONTINUOUS
 10
47.0
 20
50.906353
 30
0.0
 40
1.0
 50
118.610582
 51
180.0
  0
ARC
  5
18C68
  8
DANMEN
  6
CONTINUOUS
 10
51.5
 20
40.149994
 30
0.0
 40
1.0
 50
0.0
 51
89.999982
  0
LINE
  5
18C69
  8
DANMEN
  6
CONTINUOUS
 10
59.2
 20
52.8
 30
0.0
 11
60.8
 21
52.8
 31
0.0
  0
LINE
  5
18C6A
  8
DANMEN
  6
CONTINUOUS
 10
51.920742
 20
52.85
 30
0.0
 11
55.7
 21
52.85
 31
0.0
  0
ARC
  5
18C6C
  8
DANMEN
  6
CONTINUOUS
 10
58.6
 20
49.2
 30
0.0
 40
0.3
 50
270.0
 51
0.0
  0
LINE
  5
18C6D
  8
DANMEN
  6
CONTINUOUS
 10
57.460621
 20
48.9
 30
0.0
 11
58.6
 21
48.9
 31
0.0
  0
LINE
  5
18C6E
  8
DANMEN
  6
CONTINUOUS
 10
58.2
 20
50.553939
 30
0.0
 11
58.2
 21
51.8
 31
0.0
  0
LINE
  5
18C6F
  8
DANMEN
  6
CONTINUOUS
 10
56.7
 20
50.469694
 30
0.0
 11
56.7
 21
51.85
 31
0.0
  0
ARC
  5
18C70
  8
DANMEN
  6
CONTINUOUS
 10
59.2
 20
51.8
 30
0.0
 40
1.0
 50
90.0
 51
180.0
  0
LINE
  5
18C71
  8
DANMEN
  6
CONTINUOUS
 10
58.9
 20
49.2
 30
0.0
 11
58.9
 21
49.463068
 31
0.0
  0
ARC
  5
18C72
  8
DANMEN
  6
CONTINUOUS
 10
59.2
 20
50.553939
 30
0.0
 40
1.0
 50
180.0
 51
245.375682
  0
ARC
  5
18C73
  8
DANMEN
  6
CONTINUOUS
 10
58.7
 20
49.463068
 30
0.0
 40
0.2
 50
0.0
 51
65.375682
  0
ARC
  5
18C74
  8
DANMEN
  6
CONTINUOUS
 10
58.7
 20
50.469694
 30
0.0
 40
2.0
 50
180.0
 51
231.706523
  0
ARC
  5
18C75
  8
DANMEN
  6
CONTINUOUS
 10
55.7
 20
51.85
 30
0.0
 40
1.0
 50
0.0
 51
90.0
  0
LINE
  5
18C77
  8
DANMEN
  6
CONTINUOUS
 10
61.956524
 20
48.9
 30
0.0
 11
62.601274
 21
47.417076
 31
0.0
  0
ARC
  5
18C78
  8
DANMEN
  6
CONTINUOUS
 10
66.927452
 20
48.752808
 30
0.0
 40
0.5
 50
293.49856
 51
23.49856
  0
ARC
  5
18C79
  8
DANMEN
  6
CONTINUOUS
 10
63.518344
 20
47.815802
 30
0.0
 40
1.0
 50
203.49856
 51
293.49856
  0
LINE
  5
18C7D
  8
DANMEN
  6
CONTINUOUS
 10
67.126815
 20
48.294273
 30
0.0
 11
63.91707
 21
46.898732
 31
0.0
  0
LINE
  5
18C7F
  8
DANMEN
  6
CONTINUOUS
 10
63.3
 20
52.850006
 30
0.0
 11
65.640809
 21
52.850006
 31
0.0
  0
LINE
  5
18C80
  8
DANMEN
  6
CONTINUOUS
 10
63.3
 20
49.948185
 30
0.0
 11
63.855268
 21
48.671069
 31
0.0
  0
ARC
  5
18C82
  8
DANMEN
  6
CONTINUOUS
 10
61.4
 20
49.2
 30
0.0
 40
0.3
 50
180.0
 51
270.0
  0
LINE
  5
18C83
  8
DANMEN
  6
CONTINUOUS
 10
61.4
 20
48.9
 30
0.0
 11
61.956524
 21
48.9
 31
0.0
  0
ARC
  5
18C84
  8
DANMEN
  6
CONTINUOUS
 10
60.8
 20
51.8
 30
0.0
 40
1.0
 50
0.0
 51
90.0
  0
LINE
  5
18C85
  8
DANMEN
  6
CONTINUOUS
 10
61.8
 20
50.553939
 30
0.0
 11
61.8
 21
51.8
 31
0.0
  0
LINE
  5
18C86
  8
DANMEN
  6
CONTINUOUS
 10
63.3
 20
49.948185
 30
0.0
 11
63.3
 21
52.850006
 31
0.0
  0
ARC
  5
18C87
  8
DANMEN
  6
CONTINUOUS
 10
61.3
 20
49.463068
 30
0.0
 40
0.2
 50
114.624318
 51
180.0
  0
ARC
  5
18C88
  8
DANMEN
  6
CONTINUOUS
 10
60.8
 20
50.553939
 30
0.0
 40
1.0
 50
294.624318
 51
0.0
  0
LINE
  5
18C89
  8
DANMEN
  6
CONTINUOUS
 10
61.1
 20
49.2
 30
0.0
 11
61.1
 21
49.463068
 31
0.0
  0
ARC
  5
18C8D
  8
DANMEN
  6
CONTINUOUS
 10
65.640809
 20
53.850006
 30
0.0
 40
1.0
 50
270.0
 51
294.443955
  0
LINE
  5
18C8F
  8
DANMEN
  6
CONTINUOUS
 10
66.468917
 20
49.807438
 30
0.0
 11
63.855268
 21
48.671069
 31
0.0
  0
LINE
  5
18C90
  8
DANMEN
  6
CONTINUOUS
 10
67.126816
 20
49.548266
 30
0.0
 11
67.385987
 21
48.952171
 31
0.0
  0
ARC
  5
18C91
  8
DANMEN
  6
CONTINUOUS
 10
66.66828
 20
49.348903
 30
0.0
 40
0.5
 50
23.49856
 51
113.49856
  0
LINE
  5
18C94
  8
DANMEN
  6
CONTINUOUS
 10
53.149998
 20
74.499999
 30
0.0
 11
51.149998
 21
74.499998
 31
0.0
  0
LINE
  5
18C95
  8
DANMEN
  6
CONTINUOUS
 10
65.849995
 20
75.500002
 30
0.0
 11
50.149998
 21
75.499998
 31
0.0
  0
LINE
  5
18C96
  8
DANMEN
  6
CONTINUOUS
 10
49.649997
 20
59.5
 30
0.0
 11
54.0
 21
59.5
 31
0.0
  0
LINE
  5
18C97
  8
DANMEN
  6
CONTINUOUS
 10
50.149998
 20
74.499998
 30
0.0
 11
50.149998
 21
60.0
 31
0.0
  0
LINE
  5
18C98
  8
DANMEN
  6
CONTINUOUS
 10
46.0
 20
59.5
 30
0.0
 11
48.699999
 21
59.5
 31
0.0
  0
ARC
  5
18C99
  8
DANMEN
  6
CONTINUOUS
 10
49.649998
 20
60.0
 30
0.0
 40
0.5
 50
270.000018
 51
359.999948
  0
ARC
  5
18C9B
  8
DANMEN
  6
CONTINUOUS
 10
48.699998
 20
60.0
 30
0.0
 40
0.5
 50
180.000036
 51
270.000018
  0
LINE
  5
18C9D
  8
DANMEN
  6
CONTINUOUS
 10
49.649997
 20
59.499997
 30
0.0
 11
48.699998
 21
59.499997
 31
0.0
  0
LINE
  5
18C9E
  8
DANMEN
  6
CONTINUOUS
 10
50.649998
 20
74.999998
 30
0.0
 11
50.149998
 21
74.499998
 31
0.0
  0
LINE
  5
18C9F
  8
DANMEN
  6
CONTINUOUS
 10
51.149998
 20
74.499998
 30
0.0
 11
50.649998
 21
74.999998
 31
0.0
  0
ARC
  5
18CA4
  8
DANMEN
  6
CONTINUOUS
 10
58.0
 20
63.5
 30
0.0
 40
3.0
 50
53.130102
 51
126.869903
  0
ARC
  5
18CA5
  8
DANMEN
  6
CONTINUOUS
 10
57.0
 20
65.79129
 30
0.0
 40
0.5
 50
113.578068
 51
179.999745
  0
ARC
  5
18CA6
  8
DANMEN
  6
CONTINUOUS
 10
59.0
 20
65.79129
 30
0.0
 40
0.5
 50
0.000279
 51
66.42195
  0
ARC
  5
18CA7
  8
DANMEN
  6
CONTINUOUS
 10
58.0
 20
65.5
 30
0.0
 40
4.0
 50
0.0
 51
180.000019
  0
LINE
  5
18CA8
  8
DANMEN
  6
CONTINUOUS
 10
59.5
 20
54.5
 30
0.0
 11
65.5
 21
54.5
 31
0.0
  0
LINE
  5
18CA9
  8
DANMEN
  6
CONTINUOUS
 10
59.5
 20
65.79129
 30
0.0
 11
59.5
 21
54.5
 31
0.0
  0
LINE
  5
18CAA
  8
DANMEN
  6
CONTINUOUS
 10
57.850006
 20
62.347046
 30
0.0
 11
57.850006
 21
54.5
 31
0.0
  0
LINE
  5
18CAB
  8
DANMEN
  6
CONTINUOUS
 10
54.0
 20
65.5
 30
0.0
 11
54.0
 21
59.5
 31
0.0
  0
LINE
  5
18CAC
  8
DANMEN
  6
CONTINUOUS
 10
52.00999
 20
54.5
 30
0.0
 11
57.850006
 21
54.5
 31
0.0
  0
LINE
  5
18CB0
  8
DANMEN
  6
CONTINUOUS
 10
54.0
 20
63.5
 30
0.0
 11
56.0
 21
63.5
 31
0.0
  0
ARC
  5
18CB1
  8
DANMEN
  6
CONTINUOUS
 10
56.5
 20
65.5
 30
0.0
 40
0.5
 50
126.869907
 51
180.000009
  0
LINE
  5
18CB2
  8
DANMEN
  6
CONTINUOUS
 10
56.5
 20
65.79129
 30
0.0
 11
56.5
 21
64.652954
 31
0.0
  0
LINE
  5
18CB5
  8
DANMEN
  6
CONTINUOUS
 10
57.764431
 20
62.626784
 30
0.0
 11
56.585579
 21
64.373223
 31
0.0
  0
ARC
  5
18CB6
  8
DANMEN
  6
CONTINUOUS
 10
57.350006
 20
62.347046
 30
0.0
 40
0.5
 50
0.000664
 51
34.020021
  0
ARC
  5
18CB7
  8
DANMEN
  6
CONTINUOUS
 10
57.0
 20
64.652954
 30
0.0
 40
0.5
 50
180.000309
 51
214.019733
  0
LINE
  5
18CB8
  8
DANMEN
  6
CONTINUOUS
 10
62.0
 20
65.5
 30
0.0
 11
62.0
 21
59.5
 31
0.0
  0
LINE
  5
18CBA
  8
DANMEN
  6
CONTINUOUS
 10
62.0
 20
63.5
 30
0.0
 11
60.0
 21
63.5
 31
0.0
  0
ARC
  5
18CBB
  8
DANMEN
  6
CONTINUOUS
 10
59.5
 20
65.5
 30
0.0
 40
0.5
 50
359.999997
 51
53.130102
  0
LINE
  5
18CBC
  8
DANMEN
  6
CONTINUOUS
 10
62.850001
 20
73.550001
 30
0.0
 11
53.149998
 21
73.549999
 31
0.0
  0
ARC
  5
18CBF
  8
DANMEN
  6
CONTINUOUS
 10
58.0
 20
63.5
 30
0.0
 40
3.0
 50
66.421841
 51
113.578178
  0
LINE
  5
18CC2
  8
DANMEN
  6
CONTINUOUS
 10
53.600001
 20
72.500004
 30
0.0
 11
53.999999
 21
72.100005
 31
0.0
  0
LINE
  5
18CC5
  8
DANMEN
  6
CONTINUOUS
 10
53.149998
 20
74.5
 30
0.0
 11
53.149998
 21
73.550003
 31
0.0
  0
LINE
  5
18CC9
  8
DANMEN
  6
CONTINUOUS
 10
64.850001
 20
74.500002
 30
0.0
 11
62.850001
 21
74.500001
 31
0.0
  0
LINE
  5
18CCA
  8
DANMEN
  6
CONTINUOUS
 10
62.399999
 20
72.500003
 30
0.0
 11
61.999999
 21
72.100003
 31
0.0
  0
LINE
  5
18CCD
  8
DANMEN
  6
CONTINUOUS
 10
62.850001
 20
74.5
 30
0.0
 11
62.850001
 21
73.550003
 31
0.0
  0
LINE
  5
18CCE
  8
DANMEN
  6
CONTINUOUS
 10
65.350001
 20
75.000002
 30
0.0
 11
65.850001
 21
74.500002
 31
0.0
  0
LINE
  5
18CCF
  8
DANMEN
  6
CONTINUOUS
 10
65.350001
 20
75.000002
 30
0.0
 11
64.850001
 21
74.500002
 31
0.0
  0
LINE
  5
18CD6
  8
DANMEN
  6
CONTINUOUS
 10
65.849995
 20
76.5
 30
0.0
 11
65.849995
 21
75.500002
 31
0.0
  0
LINE
  5
18CD9
  8
DANMEN
  6
CONTINUOUS
 10
65.849998
 20
102.5
 30
0.0
 11
65.849998
 21
87.550003
 31
0.0
  0
ARC
  5
18CDA
  8
DANMEN
  6
CONTINUOUS
 10
66.849998
 20
87.550003
 30
0.0
 40
1.0
 50
180.000019
 51
270.000001
  0
ARC
  5
18CDC
  8
DANMEN
  6
CONTINUOUS
 10
58.0
 20
99.500008
 30
0.0
 40
3.0
 50
233.130097
 51
306.869898
  0
LINE
  5
18CDD
  8
DANMEN
  6
CONTINUOUS
 10
53.600001
 20
90.500004
 30
0.0
 11
53.999999
 21
90.900003
 31
0.0
  0
LINE
  5
18CDE
  8
DANMEN
  6
CONTINUOUS
 10
54.0
 20
99.500008
 30
0.0
 11
56.0
 21
99.500008
 31
0.0
  0
ARC
  5
18CDF
  8
DANMEN
  6
CONTINUOUS
 10
56.5
 20
97.500008
 30
0.0
 40
0.5
 50
179.999991
 51
233.130093
  0
LINE
  5
18CE0
  8
DANMEN
  6
CONTINUOUS
 10
62.399999
 20
90.500005
 30
0.0
 11
61.999999
 21
90.900005
 31
0.0
  0
ARC
  5
18CE1
  8
DANMEN
  6
CONTINUOUS
 10
59.5
 20
97.500008
 30
0.0
 40
0.5
 50
306.869898
 51
0.000003
  0
LINE
  5
18CE2
  8
DANMEN
  6
CONTINUOUS
 10
62.0
 20
99.500008
 30
0.0
 11
60.0
 21
99.500008
 31
0.0
  0
LINE
  5
18CE3
  8
DANMEN
  6
CONTINUOUS
 10
50.149998
 20
103.699997
 30
0.0
 11
54.699998
 21
103.699997
 31
0.0
  0
LINE
  5
18CE4
  8
DANMEN
  6
CONTINUOUS
 10
50.149998
 20
102.5
 30
0.0
 11
56.199999
 21
102.5
 31
0.0
  0
ARC
  5
18CE7
  8
DANMEN
  6
CONTINUOUS
 10
58.699998
 20
106.8
 30
0.0
 40
1.0
 50
0.0
 51
90.0
  0
LINE
  5
18CE8
  8
DANMEN
  6
CONTINUOUS
 10
57.199998
 20
109.5
 30
0.0
 11
65.849998
 21
109.5
 31
0.0
  0
LINE
  5
18CE9
  8
DANMEN
  6
CONTINUOUS
 10
56.199998
 20
105.3
 30
0.0
 11
56.199998
 21
106.8
 31
0.0
  0
LINE
  5
18CEA
  8
DANMEN
  6
CONTINUOUS
 10
54.699998
 20
107.0
 30
0.0
 11
54.699998
 21
103.699997
 31
0.0
  0
LINE
  5
18CEE
  8
DANMEN
  6
CONTINUOUS
 10
57.199998
 20
104.3
 30
0.0
 11
57.833703
 21
104.3
 31
0.0
  0
LINE
  5
18CEF
  8
DANMEN
  6
CONTINUOUS
 10
56.199999
 20
102.8
 30
0.0
 11
57.833703
 21
102.8
 31
0.0
  0
ARC
  5
18CF0
  8
DANMEN
  6
CONTINUOUS
 10
57.199998
 20
105.3
 30
0.0
 40
1.0
 50
180.0
 51
270.0
  0
ARC
  5
18CF1
  8
DANMEN
  6
CONTINUOUS
 10
57.833703
 20
103.55
 30
0.0
 40
0.75
 50
270.0
 51
90.0
  0
LINE
  5
18CF3
  8
DANMEN
  6
CONTINUOUS
 10
56.199999
 20
102.800003
 30
0.0
 11
56.199999
 21
102.5
 31
0.0
  0
ARC
  5
18CF5
  8
DANMEN
  6
CONTINUOUS
 10
57.199998
 20
107.0
 30
0.0
 40
2.5
 50
89.999982
 51
180.000019
  0
LINE
  5
18CF7
  8
DANMEN
  6
CONTINUOUS
 10
57.199998
 20
107.8
 30
0.0
 11
58.699998
 21
107.8
 31
0.0
  0
ARC
  5
18CF8
  8
DANMEN
  6
CONTINUOUS
 10
57.199998
 20
106.8
 30
0.0
 40
1.0
 50
90.0
 51
180.0
  0
ARC
  5
18CF9
  8
DANMEN
  6
CONTINUOUS
 10
62.199998
 20
106.550003
 30
0.0
 40
1.0
 50
90.0
 51
180.0
  0
LINE
  5
18CFA
  8
DANMEN
  6
CONTINUOUS
 10
59.699998
 20
106.166295
 30
0.0
 11
59.699998
 21
106.8
 31
0.0
  0
LINE
  5
18CFB
  8
DANMEN
  6
CONTINUOUS
 10
65.849998
 20
107.550003
 30
0.0
 11
65.849998
 21
103.699997
 31
0.0
  0
ARC
  5
18CFC
  8
DANMEN
  6
CONTINUOUS
 10
63.799998
 20
103.199997
 30
0.0
 40
0.5
 50
89.999982
 51
180.000019
  0
LINE
  5
18CFD
  8
DANMEN
  6
CONTINUOUS
 10
63.299998
 20
102.5
 30
0.0
 11
65.849998
 21
102.5
 31
0.0
  0
LINE
  5
18CFF
  8
DANMEN
  6
CONTINUOUS
 10
61.199998
 20
106.166295
 30
0.0
 11
61.199998
 21
106.550003
 31
0.0
  0
ARC
  5
18D00
  8
DANMEN
  6
CONTINUOUS
 10
60.449998
 20
106.166295
 30
0.0
 40
0.75
 50
180.0
 51
0.0
  0
LINE
  5
18D03
  8
DANMEN
  6
CONTINUOUS
 10
63.299998
 20
103.199997
 30
0.0
 11
63.299998
 21
102.5
 31
0.0
  0
LINE
  5
18D06
  8
DANMEN
  6
CONTINUOUS
 10
63.799998
 20
103.699997
 30
0.0
 11
65.849998
 21
103.699997
 31
0.0
  0
LINE
  5
18D07
  8
DANMEN
  6
CONTINUOUS
 10
62.199997
 20
107.550003
 30
0.0
 11
65.849998
 21
107.550003
 31
0.0
  0
LINE
  5
18D0B
  8
DANMEN
  6
CONTINUOUS
 10
72.2
 20
81.9
 30
0.0
 11
72.2
 21
74.8
 31
0.0
  0
LINE
  5
18D0C
  8
DANMEN
  6
CONTINUOUS
 10
74.2
 20
79.2
 30
0.0
 11
74.2
 21
77.5
 31
0.0
  0
LINE
  5
18D0D
  8
DANMEN
  6
CONTINUOUS
 10
70.0187
 20
77.80985
 30
0.0
 11
71.146178
 21
74.315559
 31
0.0
  0
LINE
  5
18D0E
  8
DANMEN
  6
CONTINUOUS
 10
70.6
 20
77.982873
 30
0.0
 11
71.582434
 21
74.8
 31
0.0
  0
LINE
  5
18D0F
  8
DANMEN
  6
CONTINUOUS
 10
90.5
 20
77.7
 30
0.0
 11
90.5
 21
65.503636
 31
0.0
  0
LINE
  5
18D10
  8
DANMEN
  6
CONTINUOUS
 10
75.500003
 20
81.5
 30
0.0
 11
75.500003
 21
75.3
 31
0.0
  0
LINE
  5
18D11
  8
DANMEN
  6
CONTINUOUS
 10
76.5
 20
80.7
 30
0.0
 11
76.5
 21
75.0
 31
0.0
  0
LINE
  5
18D12
  8
DANMEN
  6
CONTINUOUS
 10
97.2
 20
76.166295
 30
0.0
 11
97.2
 21
79.85
 31
0.0
  0
ARC
  5
18D13
  8
DANMEN
  6
CONTINUOUS
 10
93.2
 20
76.8
 30
0.0
 40
1.0
 50
90.0
 51
180.0
  0
ARC
  5
18D14
  8
DANMEN
  6
CONTINUOUS
 10
94.7
 20
76.8
 30
0.0
 40
1.0
 50
0.0
 51
90.0
  0
ARC
  5
18D15
  8
DANMEN
  6
CONTINUOUS
 10
79.0
 20
78.7
 30
0.0
 40
1.0
 50
180.0
 51
270.0
  0
LINE
  5
18D16
  8
DANMEN
  6
CONTINUOUS
 10
90.5
 20
77.7
 30
0.0
 11
89.5
 21
77.0
 31
0.0
  0
LINE
  5
18D17
  8
DANMEN
  6
CONTINUOUS
 10
83.5
 20
77.0
 30
0.0
 11
82.5
 21
77.7
 31
0.0
  0
LINE
  5
18D18
  8
DANMEN
  6
CONTINUOUS
 10
109.0
 20
99.0
 30
0.0
 11
109.0
 21
65.0
 31
0.0
  0
LINE
  5
18D19
  8
DANMEN
  6
CONTINUOUS
 10
107.350006
 20
79.85
 30
0.0
 11
107.350006
 21
67.58182
 31
0.0
  0
LINE
  5
18D1A
  8
DANMEN
  6
CONTINUOUS
 10
68.049998
 20
86.550003
 30
0.0
 11
68.049998
 21
76.5
 31
0.0
  0
LINE
  5
18D1B
  8
DANMEN
  6
CONTINUOUS
 10
69.999998
 20
88.0
 30
0.0
 11
69.999998
 21
75.0
 31
0.0
  0
LINE
  5
18D1C
  8
DANMEN
  6
CONTINUOUS
 10
83.5
 20
77.0
 30
0.0
 11
89.5
 21
77.0
 31
0.0
  0
LINE
  5
18D1D
  8
DANMEN
  6
CONTINUOUS
 10
70.0
 20
75.000007
 30
0.0
 11
70.0
 21
59.5
 31
0.0
  0
LINE
  5
18D1E
  8
DANMEN
  6
CONTINUOUS
 10
73.5
 20
74.5
 30
0.0
 11
76.000003
 21
74.5
 31
0.0
  0
LINE
  5
18D1F
  8
DANMEN
  6
CONTINUOUS
 10
71.327478
 20
74.2
 30
0.0
 11
73.0
 21
74.2
 31
0.0
  0
LINE
  5
18D20
  8
DANMEN
  6
CONTINUOUS
 10
71.582434
 20
74.8
 30
0.0
 11
72.2
 21
74.8
 31
0.0
  0
ARC
  5
18D21
  8
DANMEN
  6
CONTINUOUS
 10
71.327478
 20
74.4
 30
0.0
 40
0.2
 50
204.97391
 51
270.0
  0
ARC
  5
18D26
  8
DANMEN
  6
CONTINUOUS
 10
69.499998
 20
75.0
 30
0.0
 40
0.5
 50
270.0
 51
0.0
  0
LINE
  5
18D27
  8
DANMEN
  6
CONTINUOUS
 10
74.2
 20
75.5
 30
0.0
 11
74.8
 21
75.5
 31
0.0
  0
LINE
  5
18D28
  8
DANMEN
  6
CONTINUOUS
 10
73.0
 20
76.7
 30
0.0
 11
73.0
 21
74.2
 31
0.0
  0
ARC
  5
18D2A
  8
DANMEN
  6
CONTINUOUS
 10
74.8
 20
75.7
 30
0.0
 40
0.2
 50
270.000018
 51
0.0
  0
ARC
  5
18D2C
  8
DANMEN
  6
CONTINUOUS
 10
74.2
 20
75.7
 30
0.0
 40
0.2
 50
180.000019
 51
270.000001
  0
LINE
  5
18D2D
  8
DANMEN
  6
CONTINUOUS
 10
75.0
 20
76.7
 30
0.0
 11
75.0
 21
75.7
 31
0.0
  0
LINE
  5
18D2F
  8
DANMEN
  6
CONTINUOUS
 10
74.2
 20
77.5
 30
0.0
 11
75.0
 21
76.7
 31
0.0
  0
LINE
  5
18D30
  8
DANMEN
  6
CONTINUOUS
 10
74.0
 20
76.7
 30
0.0
 11
74.0
 21
75.7
 31
0.0
  0
LINE
  5
18D31
  8
DANMEN
  6
CONTINUOUS
 10
73.0
 20
76.7
 30
0.0
 11
74.0
 21
76.7
 31
0.0
  0
LINE
  5
18D37
  8
DANMEN
  6
CONTINUOUS
 10
73.0
 20
76.199997
 30
0.0
 11
73.0
 21
75.0
 31
0.0
  0
LINE
  5
18D38
  8
DANMEN
  6
CONTINUOUS
 10
73.800003
 20
76.699997
 30
0.0
 11
73.800003
 21
75.3
 31
0.0
  0
ARC
  5
18D39
  8
DANMEN
  6
CONTINUOUS
 10
73.5
 20
75.0
 30
0.0
 40
0.5
 50
180.000019
 51
270.000001
  0
ARC
  5
18D3A
  8
DANMEN
  6
CONTINUOUS
 10
73.5
 20
76.199997
 30
0.0
 40
0.5
 50
89.999982
 51
180.000019
  0
LINE
  5
18D3B
  8
DANMEN
  6
CONTINUOUS
 10
73.5
 20
76.699997
 30
0.0
 11
73.800003
 21
76.699997
 31
0.0
  0
LINE
  5
18D3C
  8
DANMEN
  6
CONTINUOUS
 10
73.800003
 20
75.3
 30
0.0
 11
75.5
 21
75.3
 31
0.0
  0
ARC
  5
18D42
  8
DANMEN
  6
CONTINUOUS
 10
76.0
 20
75.0
 30
0.0
 40
0.5
 50
270.000018
 51
0.0
  0
LINE
  5
18D45
  8
DANMEN
  6
CONTINUOUS
 10
92.15
 20
71.8
 30
0.0
 11
92.15
 21
65.085093
 31
0.0
  0
ARC
  5
18D47
  8
DANMEN
  6
CONTINUOUS
 10
91.15
 20
65.085093
 30
0.0
 40
1.0
 50
294.443955
 51
0.0
  0
ARC
  5
18D49
  8
DANMEN
  6
CONTINUOUS
 10
93.2
 20
75.3
 30
0.0
 40
1.0
 50
180.0
 51
270.0
  0
ARC
  5
18D4A
  8
DANMEN
  6
CONTINUOUS
 10
93.15
 20
71.8
 30
0.0
 40
1.0
 50
90.0
 51
180.0
  0
LINE
  5
18D4B
  8
DANMEN
  6
CONTINUOUS
 10
92.2
 20
75.3
 30
0.0
 11
92.2
 21
76.8
 31
0.0
  0
ARC
  5
18D4E
  8
DANMEN
  6
CONTINUOUS
 10
96.45
 20
76.166295
 30
0.0
 40
0.75
 50
180.0
 51
0.0
  0
LINE
  5
18D4F
  8
DANMEN
  6
CONTINUOUS
 10
95.7
 20
76.166295
 30
0.0
 11
95.7
 21
76.8
 31
0.0
  0
LINE
  5
18D50
  8
DANMEN
  6
CONTINUOUS
 10
93.2
 20
74.3
 30
0.0
 11
93.833705
 21
74.3
 31
0.0
  0
LINE
  5
18D51
  8
DANMEN
  6
CONTINUOUS
 10
93.15
 20
72.8
 30
0.0
 11
93.833705
 21
72.8
 31
0.0
  0
ARC
  5
18D52
  8
DANMEN
  6
CONTINUOUS
 10
93.833705
 20
73.55
 30
0.0
 40
0.75
 50
270.0
 51
90.0
  0
LINE
  5
18D54
  8
DANMEN
  6
CONTINUOUS
 10
109.0
 20
64.845612
 30
0.0
 11
109.0
 21
39.5
 31
0.0
  0
ARC
  5
18D55
  8
DANMEN
  6
CONTINUOUS
 10
104.41465
 20
65.760364
 30
0.0
 40
0.5
 50
113.49856
 51
203.49856
  0
ARC
  5
18D56
  8
DANMEN
  6
CONTINUOUS
 10
108.5
 20
65.0
 30
0.0
 40
0.5
 50
270.0
 51
0.0
  0
ARC
  5
18D57
  8
DANMEN
  6
CONTINUOUS
 10
104.673822
 20
65.164268
 30
0.0
 40
0.5
 50
203.49856
 51
293.49856
  0
LINE
  5
18D58
  8
DANMEN
  6
CONTINUOUS
 10
104.215287
 20
64.964905
 30
0.0
 11
103.956115
 21
65.561001
 31
0.0
  0
LINE
  5
18D5A
  8
DANMEN
  6
CONTINUOUS
 10
107.9
 20
64.5
 30
0.0
 11
108.5
 21
64.5
 31
0.0
  0
LINE
  5
18D5B
  8
DANMEN
  6
CONTINUOUS
 10
107.9
 20
65.259133
 30
0.0
 11
107.9
 21
64.5
 31
0.0
  0
LINE
  5
18D5D
  8
DANMEN
  6
CONTINUOUS
 10
107.200637
 20
65.717668
 30
0.0
 11
104.873185
 21
64.705733
 31
0.0
  0
ARC
  5
18D5E
  8
DANMEN
  6
CONTINUOUS
 10
107.4
 20
65.259133
 30
0.0
 40
0.5
 50
0.0
 51
113.49856
  0
LINE
  5
18D60
  8
DANMEN
  6
CONTINUOUS
 10
107.350006
 20
67.58182
 30
0.0
 11
104.215287
 21
66.218899
 31
0.0
  0
LINE
  5
18D67
  8
DANMEN
  6
CONTINUOUS
 10
96.05
 20
81.5
 30
0.0
 11
107.35
 21
81.5
 31
0.0
  0
LINE
  5
18D68
  8
DANMEN
  6
CONTINUOUS
 10
97.2
 20
79.85
 30
0.0
 11
107.350006
 21
79.85
 31
0.0
  0
LINE
  5
18D69
  8
DANMEN
  6
CONTINUOUS
 10
96.0
 20
92.7
 30
0.0
 11
107.35
 21
92.7
 31
0.0
  0
LINE
  5
18D6A
  8
DANMEN
  6
CONTINUOUS
 10
98.0
 20
94.5
 30
0.0
 11
107.35
 21
94.5
 31
0.0
  0
ARC
  5
18D6B
  8
DANMEN
  6
DASHED
 10
98.0
 20
100.199997
 30
0.0
 40
0.5
 50
0.0
 51
89.999982
  0
ARC
  5
18D6C
  8
DANMEN
  6
DASHED
 10
73.5
 20
100.199997
 30
0.0
 40
0.5
 50
90.0
 51
180.0
  0
ARC
  5
18D6D
  8
DANMEN
  6
CONTINUOUS
 10
81.500015
 20
100.499908
 30
0.0
 40
1.5
 50
90.000018
 51
180.0
  0
ARC
  5
18D6E
  8
DANMEN
  6
CONTINUOUS
 10
94.500015
 20
100.499908
 30
0.0
 40
1.5
 50
359.999964
 51
90.000001
  0
LINE
  5
18D6F
  8
DANMEN
  6
DASHED
 10
94.0
 20
99.5
 30
0.0
 11
82.0
 21
99.5
 31
0.0
  0
LINE
  5
18D70
  8
DANMEN
  6
DASHED
 10
98.0
 20
100.699997
 30
0.0
 11
73.5
 21
100.699997
 31
0.0
  0
LINE
  5
18D71
  8
DANMEN
  6
CONTINUOUS
 10
79.8
 20
79.5
 30
0.0
 11
95.55
 21
79.5
 31
0.0
  0
LINE
  5
18D72
  8
DANMEN
  6
CONTINUOUS
 10
83.0
 20
92.5
 30
0.0
 11
93.0
 21
92.5
 31
0.0
  0
LINE
  5
18D73
  8
DANMEN
  6
CONTINUOUS
 10
93.0
 20
92.5
 30
0.0
 11
83.0
 21
79.5
 31
0.0
  0
LINE
  5
18D74
  8
DANMEN
  6
CONTINUOUS
 10
78.0
 20
99.0
 30
0.0
 11
78.0
 21
82.5
 31
0.0
  0
LINE
  5
18D75
  8
DANMEN
  6
CONTINUOUS
 10
79.8
 20
96.5
 30
0.0
 11
79.8
 21
79.5
 31
0.0
  0
LINE
  5
18D76
  8
DANMEN
  6
CONTINUOUS
 10
78.0
 20
99.5
 30
0.0
 11
78.0
 21
82.5
 31
0.0
  0
LINE
  5
18D77
  8
DANMEN
  6
CONTINUOUS
 10
78.0
 20
99.5
 30
0.0
 11
70.0
 21
82.5
 31
0.0
  0
LINE
  5
18D78
  8
DANMEN
  6
CONTINUOUS
 10
70.0
 20
99.5
 30
0.0
 11
78.0
 21
82.5
 31
0.0
  0
LINE
  5
18D79
  8
DANMEN
  6
CONTINUOUS
 10
83.0
 20
79.5
 30
0.0
 11
83.0
 21
92.5
 31
0.0
  0
LINE
  5
18D7A
  8
DANMEN
  6
CONTINUOUS
 10
73.5
 20
82.5
 30
0.0
 11
78.0
 21
82.5
 31
0.0
  0
LINE
  5
18D7B
  8
DANMEN
  6
CONTINUOUS
 10
70.0
 20
82.5
 30
0.0
 11
78.0
 21
82.5
 31
0.0
  0
LINE
  5
18D7C
  8
DANMEN
  6
CONTINUOUS
 10
71.327478
 20
82.5
 30
0.0
 11
73.0
 21
82.5
 31
0.0
  0
LINE
  5
18D7D
  8
DANMEN
  6
CONTINUOUS
 10
71.582434
 20
81.9
 30
0.0
 11
72.2
 21
81.9
 31
0.0
  0
LINE
  5
18D7F
  8
DANMEN
  6
CONTINUOUS
 10
70.0
 20
78.805709
 30
0.0
 11
70.0
 21
77.894291
 31
0.0
  0
LINE
  5
18D80
  8
DANMEN
  6
CONTINUOUS
 10
71.146178
 20
82.384441
 30
0.0
 11
70.0187
 21
78.89015
 31
0.0
  0
ARC
  5
18D81
  8
DANMEN
  6
CONTINUOUS
 10
71.327478
 20
82.3
 30
0.0
 40
0.2
 50
90.0
 51
155.02609
  0
ARC
  5
18D83
  8
DANMEN
  6
CONTINUOUS
 10
70.2
 20
78.805709
 30
0.0
 40
0.2
 50
155.02609
 51
180.0
  0
ARC
  5
18D85
  8
DANMEN
  6
CONTINUOUS
 10
70.2
 20
77.894291
 30
0.0
 40
0.2
 50
180.0
 51
204.97391
  0
LINE
  5
18D87
  8
DANMEN
  6
CONTINUOUS
 10
71.582434
 20
81.9
 30
0.0
 11
70.6
 21
78.717126
 31
0.0
  0
LINE
  5
18D88
  8
DANMEN
  6
CONTINUOUS
 10
70.6
 20
78.717126
 30
0.0
 11
70.6
 21
77.982873
 31
0.0
  0
LINE
  5
18D8D
  8
DANMEN
  6
CONTINUOUS
 10
75.0
 20
81.0
 30
0.0
 11
75.0
 21
80.0
 31
0.0
  0
LINE
  5
18D8E
  8
DANMEN
  6
CONTINUOUS
 10
74.2
 20
81.2
 30
0.0
 11
74.8
 21
81.2
 31
0.0
  0
LINE
  5
18D8F
  8
DANMEN
  6
CONTINUOUS
 10
74.0
 20
81.0
 30
0.0
 11
74.0
 21
80.0
 31
0.0
  0
ARC
  5
18D91
  8
DANMEN
  6
CONTINUOUS
 10
74.8
 20
81.0
 30
0.0
 40
0.2
 50
0.0
 51
89.999982
  0
ARC
  5
18D93
  8
DANMEN
  6
CONTINUOUS
 10
74.2
 20
81.0
 30
0.0
 40
0.2
 50
89.999982
 51
180.000019
  0
LINE
  5
18D96
  8
DANMEN
  6
CONTINUOUS
 10
75.0
 20
80.0
 30
0.0
 11
74.2
 21
79.2
 31
0.0
  0
LINE
  5
18D97
  8
DANMEN
  6
CONTINUOUS
 10
73.0
 20
80.0
 30
0.0
 11
74.0
 21
80.0
 31
0.0
  0
LINE
  5
18D99
  8
DANMEN
  6
CONTINUOUS
 10
73.0
 20
82.5
 30
0.0
 11
73.0
 21
80.0
 31
0.0
  0
LINE
  5
18DA1
  8
DANMEN
  6
CONTINUOUS
 10
73.0
 20
82.0
 30
0.0
 11
73.0
 21
80.800003
 31
0.0
  0
LINE
  5
18DA2
  8
DANMEN
  6
CONTINUOUS
 10
73.5
 20
80.300003
 30
0.0
 11
73.800003
 21
80.300003
 31
0.0
  0
LINE
  5
18DA3
  8
DANMEN
  6
CONTINUOUS
 10
73.800003
 20
81.5
 30
0.0
 11
73.800003
 21
80.300003
 31
0.0
  0
ARC
  5
18DA4
  8
DANMEN
  6
CONTINUOUS
 10
73.5
 20
80.800003
 30
0.0
 40
0.5
 50
180.000019
 51
270.000001
  0
LINE
  5
18DA5
  8
DANMEN
  6
CONTINUOUS
 10
73.800003
 20
81.5
 30
0.0
 11
75.5
 21
81.5
 31
0.0
  0
ARC
  5
18DA6
  8
DANMEN
  6
CONTINUOUS
 10
73.5
 20
82.0
 30
0.0
 40
0.5
 50
89.999982
 51
180.000019
  0
ARC
  5
18DAC
  8
DANMEN
  6
CONTINUOUS
 10
69.499998
 20
88.0
 30
0.0
 40
0.5
 50
0.0
 51
89.999982
  0
LINE
  5
18DB0
  8
DANMEN
  6
CONTINUOUS
 10
67.799998
 20
88.5
 30
0.0
 11
69.499998
 21
88.5
 31
0.0
  0
LINE
  5
18DB2
  8
DANMEN
  6
CONTINUOUS
 10
79.0
 20
77.7
 30
0.0
 11
82.5
 21
77.7
 31
0.0
  0
LINE
  5
18DB3
  8
DANMEN
  6
CONTINUOUS
 10
78.0
 20
78.7
 30
0.0
 11
78.0
 21
80.7
 31
0.0
  0
LINE
  5
18DB6
  8
DANMEN
  6
CONTINUOUS
 10
76.5
 20
80.7
 30
0.0
 11
78.0
 21
80.7
 31
0.0
  0
LINE
  5
18DBD
  8
DANMEN
  6
DASHED
 10
80.5
 20
99.5
 30
0.0
 11
74.714146
 21
99.5
 31
0.0
  0
LINE
  5
18DBE
  8
DANMEN
  6
CONTINUOUS
 10
70.0
 20
99.5
 30
0.0
 11
78.0
 21
99.5
 31
0.0
  0
ARC
  5
18DBF
  8
DANMEN
  6
DASHED
 10
74.714146
 20
98.5
 30
0.0
 40
1.0
 50
89.999982
 51
135.573244
  0
LINE
  5
18DC0
  8
DANMEN
  6
DASHED
 10
74.0
 20
99.199997
 30
0.0
 11
73.5
 21
99.199997
 31
0.0
  0
LINE
  5
18DC1
  8
DANMEN
  6
DASHED
 10
73.0
 20
100.199997
 30
0.0
 11
73.0
 21
99.699997
 31
0.0
  0
ARC
  5
18DC2
  8
DANMEN
  6
DASHED
 10
73.5
 20
99.699997
 30
0.0
 40
0.5
 50
180.0
 51
270.0
  0
LINE
  5
18DC7
  8
DANMEN
  6
DASHED
 10
80.023824
 20
95.882864
 30
0.0
 11
81.423825
 21
92.582833
 31
0.0
  0
LINE
  5
18DC8
  8
DANMEN
  6
DASHED
 10
81.5
 20
94.899997
 30
0.0
 11
81.5
 21
99.0
 31
0.0
  0
LINE
  5
18DC9
  8
DANMEN
  6
DASHED
 10
81.5
 20
94.899997
 30
0.0
 11
81.992312
 21
92.76748
 31
0.0
  0
ARC
  5
18DCA
  8
DANMEN
  6
DASHED
 10
81.7
 20
92.699997
 30
0.0
 40
0.3
 50
202.988532
 51
12.999521
  0
ARC
  5
18DCE
  8
DANMEN
  6
DASHED
 10
80.299999
 20
96.000028
 30
0.0
 40
0.3
 50
124.343976
 51
202.988532
  0
ARC
  5
18DCF
  8
DANMEN
  6
CONTINUOUS
 10
80.0
 20
99.0
 30
0.0
 40
0.5
 50
0.0
 51
90.0
  0
LINE
  5
18DD0
  8
DANMEN
  6
CONTINUOUS
 10
79.8
 20
96.5
 30
0.0
 11
80.5
 21
96.5
 31
0.0
  0
LINE
  5
18DD2
  8
DANMEN
  6
CONTINUOUS
 10
78.5
 20
99.5
 30
0.0
 11
80.0
 21
99.5
 31
0.0
  0
ARC
  5
18DD3
  8
DANMEN
  6
CONTINUOUS
 10
78.5
 20
99.0
 30
0.0
 40
0.5
 50
90.0
 51
180.0
  0
ARC
  5
18DD7
  8
DANMEN
  6
DASHED
 10
82.0
 20
99.0
 30
0.0
 40
0.5
 50
90.0
 51
180.0
  0
LINE
  5
18DD8
  8
DANMEN
  6
DASHED
 10
80.5
 20
99.5
 30
0.0
 11
80.5
 21
96.500035
 31
0.0
  0
LINE
  5
18DD9
  8
DANMEN
  6
DASHED
 10
80.5
 20
96.500035
 30
0.0
 11
80.130743
 21
96.247729
 31
0.0
  0
LINE
  5
18DDD
  8
DANMEN
  6
CONTINUOUS
 10
80.5
 20
99.0
 30
0.0
 11
80.5
 21
96.5
 31
0.0
  0
ARC
  5
18DE0
  8
DANMEN
  6
DASHED
 10
94.3
 20
89.199997
 30
0.0
 40
0.3
 50
167.000479
 51
337.011468
  0
LINE
  5
18DE1
  8
DANMEN
  6
DASHED
 10
95.976176
 20
92.382864
 30
0.0
 11
94.576175
 21
89.082833
 31
0.0
  0
LINE
  5
18DE2
  8
DANMEN
  6
CONTINUOUS
 10
93.0
 20
79.5
 30
0.0
 11
93.0
 21
92.5
 31
0.0
  0
LINE
  5
18DE5
  8
DANMEN
  6
CONTINUOUS
 10
93.2
 20
77.8
 30
0.0
 11
94.7
 21
77.8
 31
0.0
  0
LINE
  5
18DE6
  8
DANMEN
  6
CONTINUOUS
 10
95.55
 20
79.5
 30
0.0
 11
95.55
 21
81.0
 31
0.0
  0
ARC
  5
18DE7
  8
DANMEN
  6
CONTINUOUS
 10
96.05
 20
81.0
 30
0.0
 40
0.5
 50
90.0
 51
180.0
  0
LINE
  5
18DEE
  8
DANMEN
  6
DASHED
 10
95.5
 20
99.5
 30
0.0
 11
95.5
 21
93.000035
 31
0.0
  0
LINE
  5
18DEF
  8
DANMEN
  6
DASHED
 10
94.5
 20
91.399997
 30
0.0
 11
94.5
 21
99.0
 31
0.0
  0
LINE
  5
18DF0
  8
DANMEN
  6
CONTINUOUS
 10
98.0
 20
98.5
 30
0.0
 11
98.0
 21
94.5
 31
0.0
  0
LINE
  5
18DF1
  8
DANMEN
  6
CONTINUOUS
 10
96.35
 20
93.7
 30
0.0
 11
96.35
 21
96.5
 31
0.0
  0
ARC
  5
18DF3
  8
DANMEN
  6
DASHED
 10
95.700001
 20
92.500028
 30
0.0
 40
0.3
 50
337.011468
 51
55.656024
  0
LINE
  5
18DF4
  8
DANMEN
  6
DASHED
 10
95.5
 20
93.000035
 30
0.0
 11
95.869257
 21
92.747729
 31
0.0
  0
LINE
  5
18DF5
  8
DANMEN
  6
DASHED
 10
94.5
 20
91.399997
 30
0.0
 11
94.007688
 21
89.26748
 31
0.0
  0
LINE
  5
18DF9
  8
DANMEN
  6
CONTINUOUS
 10
96.0
 20
93.7
 30
0.0
 11
96.35
 21
93.7
 31
0.0
  0
ARC
  5
18DFA
  8
DANMEN
  6
CONTINUOUS
 10
96.0
 20
93.2
 30
0.0
 40
0.5
 50
90.0
 51
270.0
  0
LINE
  5
18DFF
  8
DANMEN
  6
DASHED
 10
95.5
 20
99.5
 30
0.0
 11
98.5
 21
99.5
 31
0.0
  0
LINE
  5
18E00
  8
DANMEN
  6
CONTINUOUS
 10
96.0
 20
99.5
 30
0.0
 11
99.0
 21
99.5
 31
0.0
  0
ARC
  5
18E01
  8
DANMEN
  6
DASHED
 10
94.0
 20
99.0
 30
0.0
 40
0.5
 50
0.0
 51
90.0
  0
LINE
  5
18E04
  8
DANMEN
  6
CONTINUOUS
 10
96.35
 20
96.5
 30
0.0
 11
95.5
 21
96.5
 31
0.0
  0
LINE
  5
18E05
  8
DANMEN
  6
CONTINUOUS
 10
95.5
 20
99.0
 30
0.0
 11
95.5
 21
96.5
 31
0.0
  0
ARC
  5
18E06
  8
DANMEN
  6
CONTINUOUS
 10
96.0
 20
99.0
 30
0.0
 40
0.5
 50
89.999981
 51
180.000037
  0
LINE
  5
18E0A
  8
DANMEN
  6
DASHED
 10
98.5
 20
99.5
 30
0.0
 11
98.5
 21
100.199997
 31
0.0
  0
LINE
  5
18E0D
  8
DANMEN
  6
CONTINUOUS
 10
99.0
 20
99.5
 30
0.0
 11
99.0
 21
99.0
 31
0.0
  0
LINE
  5
18E0F
  8
DANMEN
  6
CONTINUOUS
 10
98.0
 20
98.5
 30
0.0
 11
98.5
 21
98.5
 31
0.0
  0
ARC
  5
18E11
  8
DANMEN
  6
CONTINUOUS
 10
98.5
 20
99.0
 30
0.0
 40
0.5
 50
270.0
 51
0.0
  0
ARC
  5
18E13
  8
DANMEN
  6
CONTINUOUS
 10
84.000006
 20
103.499908
 30
0.0
 40
1.5
 50
269.999982
 51
359.999964
  0
LINE
  5
18E14
  8
DANMEN
  6
CONTINUOUS
 10
84.000006
 20
101.999908
 30
0.0
 11
81.500015
 21
101.999908
 31
0.0
  0
LINE
  5
18E15
  8
DANMEN
  6
CONTINUOUS
 10
94.500015
 20
101.999908
 30
0.0
 11
92.000009
 21
101.999908
 31
0.0
  0
ARC
  5
18E16
  8
DANMEN
  6
CONTINUOUS
 10
92.000009
 20
103.499908
 30
0.0
 40
1.5
 50
180.0
 51
269.999982
  0
LINE
  5
18E17
  8
DANMEN
  6
CONTINUOUS
 10
107.35
 20
92.7
 30
0.0
 11
107.35
 21
81.5
 31
0.0
  0
ARC
  5
18E1A
  8
DANMEN
  6
CONTINUOUS
 10
108.5
 20
99.0
 30
0.0
 40
0.5
 50
0.0
 51
90.0
  0
LINE
  5
18E1B
  8
DANMEN
  6
CONTINUOUS
 10
107.35
 20
99.0
 30
0.0
 11
107.35
 21
94.5
 31
0.0
  0
ARC
  5
18E1C
  8
DANMEN
  6
CONTINUOUS
 10
105.504277
 20
95.536483
 30
0.0
 40
0.5
 50
274.0
 51
359.16958
  0
LINE
  5
18E1F
  8
DANMEN
  6
CONTINUOUS
 10
107.85
 20
99.5
 30
0.0
 11
108.5
 21
99.5
 31
0.0
  0
ARC
  5
18E20
  8
DANMEN
  6
CONTINUOUS
 10
107.85
 20
99.0
 30
0.0
 40
0.5
 50
90.0
 51
180.0
  0
LINE
  5
18E24
  8
DANMEN
  6
CONTINUOUS
 10
105.0
 20
95.0
 30
0.0
 11
105.539155
 21
95.037701
 31
0.0
  0
LINE
  5
18E29
  8
DANMEN
  6
CONTINUOUS
 10
195.000002
 20
119.0
 30
0.0
 11
195.000002
 21
87.6
 31
0.0
  0
LINE
  5
18E2A
  8
DANMEN
  6
CONTINUOUS
 10
186.649995
 20
92.0
 30
0.0
 11
186.649995
 21
88.149994
 31
0.0
  0
LINE
  5
18E2B
  8
DANMEN
  6
CONTINUOUS
 10
185.000002
 20
92.0
 30
0.0
 11
185.000002
 21
87.0
 31
0.0
  0
LINE
  5
18E2C
  8
DANMEN
  6
CONTINUOUS
 10
186.649995
 20
88.149994
 30
0.0
 11
193.350008
 21
88.149994
 31
0.0
  0
ARC
  5
18E2F
  8
DANMEN
  6
CONTINUOUS
 10
185.500002
 20
87.0
 30
0.0
 40
0.5
 50
180.000036
 51
269.999963
  0
LINE
  5
18E32
  8
DANMEN
  6
CONTINUOUS
 10
197.000002
 20
88.149994
 30
0.0
 11
197.000002
 21
87.6
 31
0.0
  0
LINE
  5
18E33
  8
DANMEN
  6
CONTINUOUS
 10
195.000002
 20
87.6
 30
0.0
 11
197.000002
 21
87.6
 31
0.0
  0
ARC
  5
18E36
  8
DANMEN
  6
CONTINUOUS
 10
186.149995
 20
92.0
 30
0.0
 40
0.5
 50
359.999981
 51
89.999982
  0
ARC
  5
18E39
  8
DANMEN
  6
CONTINUOUS
 10
185.500002
 20
92.0
 30
0.0
 40
0.5
 50
89.999982
 51
180.000019
  0
LINE
  5
18E3A
  8
DANMEN
  6
CONTINUOUS
 10
185.500002
 20
92.5
 30
0.0
 11
186.149995
 21
92.5
 31
0.0
  0
LINE
  5
18E3D
  8
DANMEN
  6
CONTINUOUS
 10
75.65
 20
252.100012
 30
0.0
 11
60.4
 21
252.100012
 31
0.0
  0
LINE
  5
18E3E
  8
DANMEN
  6
CONTINUOUS
 10
75.0
 20
250.450012
 30
0.0
 11
62.5
 21
250.450012
 31
0.0
  0
ARC
  5
18E3F
  8
DANMEN
  6
CONTINUOUS
 10
67.299998
 20
189.0
 30
0.0
 40
0.5
 50
270.000018
 51
0.0
  0
LINE
  5
18E40
  8
DANMEN
  6
CONTINUOUS
 10
68.049998
 20
221.45
 30
0.0
 11
66.850001
 21
221.45
 31
0.0
  0
ARC
  5
18E41
  8
DANMEN
  6
CONTINUOUS
 10
67.299998
 20
153.0
 30
0.0
 40
0.5
 50
0.0
 51
89.999982
  0
LINE
  5
18E42
  8
DANMEN
  6
CONTINUOUS
 10
44.5
 20
258.5
 30
0.0
 11
103.5
 21
258.5
 31
0.0
  0
LINE
  5
18E43
  8
DANMEN
  6
CONTINUOUS
 10
62.0
 20
231.5
 30
0.0
 11
70.0
 21
231.5
 31
0.0
  0
LINE
  5
18E44
  8
DANMEN
  6
CONTINUOUS
 10
48.199998
 20
231.0
 30
0.0
 11
48.199998
 21
189.0
 31
0.0
  0
LINE
  5
18E45
  8
DANMEN
  6
CONTINUOUS
 10
50.149998
 20
231.0
 30
0.0
 11
50.149998
 21
205.0
 31
0.0
  0
LINE
  5
18E46
  8
DANMEN
  6
CONTINUOUS
 10
65.850001
 20
220.45
 30
0.0
 11
65.850001
 21
205.0
 31
0.0
  0
LINE
  5
18E47
  8
DANMEN
  6
CONTINUOUS
 10
40.649994
 20
224.0
 30
0.0
 11
40.649994
 21
172.5
 31
0.0
  0
LINE
  5
18E48
  8
DANMEN
  6
CONTINUOUS
 10
39.0
 20
224.0
 30
0.0
 11
39.0
 21
172.5
 31
0.0
  0
LINE
  5
18E49
  8
DANMEN
  6
CONTINUOUS
 10
46.0
 20
231.5
 30
0.0
 11
46.0
 21
172.5
 31
0.0
  0
LINE
  5
18E4A
  8
DANMEN
  6
CONTINUOUS
 10
62.0
 20
231.5
 30
0.0
 11
62.0
 21
212.5
 31
0.0
  0
LINE
  5
18E4B
  8
DANMEN
  6
CONTINUOUS
 10
54.0
 20
231.5
 30
0.0
 11
54.0
 21
212.5
 31
0.0
  0
LINE
  5
18E4C
  8
DANMEN
  6
CONTINUOUS
 10
50.149998
 20
150.5
 30
0.0
 11
50.149998
 21
136.699997
 31
0.0
  0
LINE
  5
18E4D
  8
DANMEN
  6
CONTINUOUS
 10
65.849998
 20
150.5
 30
0.0
 11
65.849998
 21
142.5
 31
0.0
  0
LINE
  5
18E4E
  8
DANMEN
  6
CONTINUOUS
 10
60.500009
 20
146.5
 30
0.0
 11
60.500009
 21
169.5
 31
0.0
  0
LINE
  5
18E4F
  8
DANMEN
  6
CONTINUOUS
 10
55.500021
 20
146.499985
 30
0.0
 11
55.500021
 21
169.5
 31
0.0
  0
LINE
  5
18E50
  8
DANMEN
  6
CONTINUOUS
 10
60.000009
 20
146.5
 30
0.0
 11
60.000009
 21
169.5
 31
0.0
  0
LINE
  5
18E51
  8
DANMEN
  6
CONTINUOUS
 10
56.000021
 20
146.499985
 30
0.0
 11
56.000021
 21
169.5
 31
0.0
  0
LINE
  5
18E52
  8
DANMEN
  6
CONTINUOUS
 10
50.149998
 20
135.5
 30
0.0
 11
55.649998
 21
135.5
 31
0.0
  0
LINE
  5
18E53
  8
DANMEN
  6
CONTINUOUS
 10
50.149998
 20
136.699997
 30
0.0
 11
54.699998
 21
136.699997
 31
0.0
  0
ARC
  5
18E56
  8
DANMEN
  6
CONTINUOUS
 10
55.649998
 20
136.5
 30
0.0
 40
1.0
 50
270.000018
 51
0.0
  0
LINE
  5
18E58
  8
DANMEN
  6
CONTINUOUS
 10
56.649998
 20
140.550003
 30
0.0
 11
65.849998
 21
140.550003
 31
0.0
  0
LINE
  5
18E59
  8
DANMEN
  6
CONTINUOUS
 10
55.699998
 20
142.5
 30
0.0
 11
65.849998
 21
142.5
 31
0.0
  0
LINE
  5
18E5A
  8
DANMEN
  6
CONTINUOUS
 10
60.500009
 20
146.499985
 30
0.0
 11
55.500006
 21
146.499985
 31
0.0
  0
LINE
  5
18E5B
  8
DANMEN
  6
CONTINUOUS
 10
54.699998
 20
141.5
 30
0.0
 11
54.699998
 21
136.699997
 31
0.0
  0
LINE
  5
18E5E
  8
DANMEN
  6
CONTINUOUS
 10
56.649998
 20
140.550003
 30
0.0
 11
56.649998
 21
136.5
 31
0.0
  0
ARC
  5
18E5F
  8
DANMEN
  6
CONTINUOUS
 10
55.699998
 20
141.5
 30
0.0
 40
1.0
 50
89.999982
 51
180.000019
  0
ARC
  5
18E63
  8
DANMEN
  6
CONTINUOUS
 10
51.500015
 20
154.499908
 30
0.0
 40
1.5
 50
90.000018
 51
180.0
  0
LINE
  5
18E64
  8
DANMEN
  6
CONTINUOUS
 10
50.000015
 20
153.499985
 30
0.0
 11
50.000015
 21
169.5
 31
0.0
  0
ARC
  5
18E65
  8
DANMEN
  6
CONTINUOUS
 10
50.499998
 20
153.0
 30
0.0
 40
0.5
 50
0.0
 51
89.999982
  0
ARC
  5
18E66
  8
DANMEN
  6
CONTINUOUS
 10
48.699998
 20
153.0
 30
0.0
 40
0.5
 50
89.999982
 51
180.000019
  0
LINE
  5
18E69
  8
DANMEN
  6
CONTINUOUS
 10
50.149998
 20
150.5
 30
0.0
 11
50.999998
 21
150.5
 31
0.0
  0
LINE
  5
18E6A
  8
DANMEN
  6
CONTINUOUS
 10
50.999998
 20
153.0
 30
0.0
 11
50.999998
 21
150.5
 31
0.0
  0
LINE
  5
18E6D
  8
DANMEN
  6
CONTINUOUS
 10
48.699998
 20
153.5
 30
0.0
 11
50.499998
 21
153.5
 31
0.0
  0
LINE
  5
18E6E
  8
DANMEN
  6
CONTINUOUS
 10
65.999985
 20
153.5
 30
0.0
 11
65.999985
 21
169.5
 31
0.0
  0
ARC
  5
18E6F
  8
DANMEN
  6
CONTINUOUS
 10
54.000006
 20
157.499908
 30
0.0
 40
1.5
 50
269.999982
 51
359.999964
  0
LINE
  5
18E70
  8
DANMEN
  6
CONTINUOUS
 10
54.000006
 20
155.999908
 30
0.0
 11
51.500015
 21
155.999908
 31
0.0
  0
ARC
  5
18E73
  8
DANMEN
  6
CONTINUOUS
 10
65.499998
 20
153.0
 30
0.0
 40
0.5
 50
89.999982
 51
180.000019
  0
LINE
  5
18E76
  8
DANMEN
  6
CONTINUOUS
 10
64.999998
 20
150.5
 30
0.0
 11
65.849998
 21
150.5
 31
0.0
  0
LINE
  5
18E77
  8
DANMEN
  6
CONTINUOUS
 10
64.999998
 20
153.0
 30
0.0
 11
64.999998
 21
150.5
 31
0.0
  0
LINE
  5
18E78
  8
DANMEN
  6
CONTINUOUS
 10
64.500015
 20
155.999908
 30
0.0
 11
62.000009
 21
155.999908
 31
0.0
  0
ARC
  5
18E79
  8
DANMEN
  6
CONTINUOUS
 10
62.000009
 20
157.499908
 30
0.0
 40
1.5
 50
180.0
 51
269.999982
  0
ARC
  5
18E7A
  8
DANMEN
  6
CONTINUOUS
 10
64.500015
 20
154.499908
 30
0.0
 40
1.5
 50
359.999964
 51
90.000001
  0
LINE
  5
18E7C
  8
DANMEN
  6
CONTINUOUS
 10
65.499998
 20
153.5
 30
0.0
 11
67.299998
 21
153.5
 31
0.0
  0
LINE
  5
18E7D
  8
DANMEN
  6
CONTINUOUS
 10
50.149998
 20
203.050003
 30
0.0
 11
50.149998
 21
191.5
 31
0.0
  0
LINE
  5
18E7E
  8
DANMEN
  6
CONTINUOUS
 10
65.850001
 20
203.050003
 30
0.0
 11
65.850001
 21
191.5
 31
0.0
  0
LINE
  5
18E7F
  8
DANMEN
  6
CONTINUOUS
 10
55.499991
 20
195.5
 30
0.0
 11
55.499991
 21
172.5
 31
0.0
  0
LINE
  5
18E80
  8
DANMEN
  6
CONTINUOUS
 10
60.499979
 20
195.500015
 30
0.0
 11
60.499979
 21
172.5
 31
0.0
  0
LINE
  5
18E81
  8
DANMEN
  6
CONTINUOUS
 10
55.999991
 20
195.5
 30
0.0
 11
55.999991
 21
172.5
 31
0.0
  0
LINE
  5
18E82
  8
DANMEN
  6
CONTINUOUS
 10
59.999979
 20
195.500015
 30
0.0
 11
59.999979
 21
172.5
 31
0.0
  0
ARC
  5
18E83
  8
DANMEN
  6
CONTINUOUS
 10
51.499985
 20
187.500092
 30
0.0
 40
1.5
 50
179.999964
 51
270.000001
  0
LINE
  5
18E84
  8
DANMEN
  6
CONTINUOUS
 10
50.0
 20
188.5
 30
0.0
 11
50.0
 21
172.5
 31
0.0
  0
LINE
  5
18E85
  8
DANMEN
  6
CONTINUOUS
 10
48.699998
 20
188.5
 30
0.0
 11
50.499998
 21
188.5
 31
0.0
  0
LINE
  5
18E86
  8
DANMEN
  6
CONTINUOUS
 10
50.999998
 20
191.5
 30
0.0
 11
50.999998
 21
189.0
 31
0.0
  0
LINE
  5
18E87
  8
DANMEN
  6
CONTINUOUS
 10
50.149998
 20
191.5
 30
0.0
 11
50.999998
 21
191.5
 31
0.0
  0
ARC
  5
18E8B
  8
DANMEN
  6
CONTINUOUS
 10
48.699998
 20
189.0
 30
0.0
 40
0.5
 50
180.000019
 51
270.000001
  0
ARC
  5
18E8D
  8
DANMEN
  6
CONTINUOUS
 10
50.499998
 20
189.0
 30
0.0
 40
0.5
 50
270.000018
 51
0.0
  0
LINE
  5
18E8E
  8
DANMEN
  6
CONTINUOUS
 10
66.0
 20
188.5
 30
0.0
 11
66.0
 21
172.5
 31
0.0
  0
ARC
  5
18E8F
  8
DANMEN
  6
CONTINUOUS
 10
53.999991
 20
184.500092
 30
0.0
 40
1.5
 50
0.0
 51
89.999982
  0
LINE
  5
18E90
  8
DANMEN
  6
CONTINUOUS
 10
51.499985
 20
186.000092
 30
0.0
 11
53.999991
 21
186.000092
 31
0.0
  0
LINE
  5
18E93
  8
DANMEN
  6
CONTINUOUS
 10
61.999994
 20
186.000092
 30
0.0
 11
64.499985
 21
186.000092
 31
0.0
  0
ARC
  5
18E94
  8
DANMEN
  6
CONTINUOUS
 10
61.999994
 20
184.500092
 30
0.0
 40
1.5
 50
89.999982
 51
179.999964
  0
ARC
  5
18E95
  8
DANMEN
  6
CONTINUOUS
 10
64.499985
 20
187.500092
 30
0.0
 40
1.5
 50
270.000018
 51
0.0
  0
LINE
  5
18E96
  8
DANMEN
  6
CONTINUOUS
 10
64.999995
 20
191.5
 30
0.0
 11
64.999995
 21
189.0
 31
0.0
  0
LINE
  5
18E97
  8
DANMEN
  6
CONTINUOUS
 10
64.999995
 20
191.5
 30
0.0
 11
65.850001
 21
191.5
 31
0.0
  0
LINE
  5
18E98
  8
DANMEN
  6
CONTINUOUS
 10
65.499995
 20
188.5
 30
0.0
 11
67.299998
 21
188.5
 31
0.0
  0
ARC
  5
18E9A
  8
DANMEN
  6
CONTINUOUS
 10
65.499995
 20
189.0
 30
0.0
 40
0.5
 50
180.000019
 51
270.000001
  0
LINE
  5
18E9D
  8
DANMEN
  6
CONTINUOUS
 10
50.149998
 20
205.0
 30
0.0
 11
65.850001
 21
205.0
 31
0.0
  0
LINE
  5
18E9E
  8
DANMEN
  6
CONTINUOUS
 10
50.149998
 20
203.050003
 30
0.0
 11
53.699999
 21
203.050003
 31
0.0
  0
ARC
  5
18EA1
  8
DANMEN
  6
CONTINUOUS
 10
58.799997
 20
202.299999
 30
0.0
 40
1.0
 50
359.999945
 51
89.999982
  0
ARC
  5
18EA2
  8
DANMEN
  6
CONTINUOUS
 10
58.799997
 20
201.05394
 30
0.0
 40
1.0
 50
294.62438
 51
0.0
  0
LINE
  5
18EA3
  8
DANMEN
  6
CONTINUOUS
 10
59.399997
 20
199.400001
 30
0.0
 11
60.539728
 21
199.400001
 31
0.0
  0
LINE
  5
18EA4
  8
DANMEN
  6
CONTINUOUS
 10
55.499991
 20
195.500015
 30
0.0
 11
60.499994
 21
195.500015
 31
0.0
  0
ARC
  5
18EA5
  8
DANMEN
  6
CONTINUOUS
 10
56.699999
 20
200.969418
 30
0.0
 40
2.0
 50
180.000019
 51
231.693677
  0
ARC
  5
18EA6
  8
DANMEN
  6
CONTINUOUS
 10
56.599999
 20
199.700001
 30
0.0
 40
0.3
 50
270.000018
 51
0.0
  0
ARC
  5
18EA7
  8
DANMEN
  6
CONTINUOUS
 10
59.399997
 20
199.700001
 30
0.0
 40
0.3
 50
180.000019
 51
270.000055
  0
LINE
  5
18EA8
  8
DANMEN
  6
CONTINUOUS
 10
55.460268
 20
199.400001
 30
0.0
 11
56.599999
 21
199.400001
 31
0.0
  0
LINE
  5
18EA9
  8
DANMEN
  6
CONTINUOUS
 10
54.699999
 20
202.050003
 30
0.0
 11
54.699999
 21
200.969418
 31
0.0
  0
ARC
  5
18EAB
  8
DANMEN
  6
CONTINUOUS
 10
53.699999
 20
202.050003
 30
0.0
 40
1.0
 50
0.0
 51
89.999982
  0
LINE
  5
18EAE
  8
DANMEN
  6
CONTINUOUS
 10
59.099998
 20
199.700001
 30
0.0
 11
59.099998
 21
199.963069
 31
0.0
  0
LINE
  5
18EAF
  8
DANMEN
  6
CONTINUOUS
 10
56.199999
 20
202.299998
 30
0.0
 11
56.199999
 21
201.05394
 31
0.0
  0
LINE
  5
18EB0
  8
DANMEN
  6
CONTINUOUS
 10
57.199999
 20
203.299999
 30
0.0
 11
58.799997
 21
203.299999
 31
0.0
  0
ARC
  5
18EB1
  8
DANMEN
  6
CONTINUOUS
 10
57.199999
 20
202.299999
 30
0.0
 40
1.0
 50
89.999982
 51
180.000019
  0
LINE
  5
18EB2
  8
DANMEN
  6
CONTINUOUS
 10
56.899999
 20
199.963069
 30
0.0
 11
56.899999
 21
199.700001
 31
0.0
  0
ARC
  5
18EB3
  8
DANMEN
  6
CONTINUOUS
 10
57.199999
 20
201.05394
 30
0.0
 40
1.0
 50
180.000019
 51
245.375639
  0
ARC
  5
18EB4
  8
DANMEN
  6
CONTINUOUS
 10
56.699999
 20
199.963069
 30
0.0
 40
0.2
 50
0.0
 51
65.375675
  0
ARC
  5
18EB5
  8
DANMEN
  6
CONTINUOUS
 10
59.299997
 20
199.963069
 30
0.0
 40
0.2
 50
114.624344
 51
180.000019
  0
ARC
  5
18EB6
  8
DANMEN
  6
CONTINUOUS
 10
59.299997
 20
200.969418
 30
0.0
 40
2.0
 50
308.306342
 51
359.999945
  0
LINE
  5
18EB7
  8
DANMEN
  6
CONTINUOUS
 10
62.299997
 20
203.050003
 30
0.0
 11
65.850001
 21
203.050003
 31
0.0
  0
LINE
  5
18EB8
  8
DANMEN
  6
CONTINUOUS
 10
59.799997
 20
201.05394
 30
0.0
 11
59.799997
 21
202.299998
 31
0.0
  0
LINE
  5
18EB9
  8
DANMEN
  6
CONTINUOUS
 10
61.299997
 20
200.969418
 30
0.0
 11
61.299997
 21
202.050003
 31
0.0
  0
ARC
  5
18EBB
  8
DANMEN
  6
CONTINUOUS
 10
62.299997
 20
202.050003
 30
0.0
 40
1.0
 50
89.999982
 51
180.000019
  0
ARC
  5
18EBE
  8
DANMEN
  6
CONTINUOUS
 10
58.0
 20
212.5
 30
0.0
 40
4.0
 50
180.000019
 51
359.999983
  0
LINE
  5
18EBF
  8
DANMEN
  6
CONTINUOUS
 10
57.6
 20
246.5
 30
0.0
 11
57.6
 21
235.601833
 31
0.0
  0
LINE
  5
18EC0
  8
DANMEN
  6
CONTINUOUS
 10
59.25
 20
246.5
 30
0.0
 11
59.25
 21
225.561553
 31
0.0
  0
LINE
  5
18EC1
  8
DANMEN
  6
CONTINUOUS
 10
40.649994
 20
246.5
 30
0.0
 11
40.649994
 21
224.0
 31
0.0
  0
LINE
  5
18EC2
  8
DANMEN
  6
CONTINUOUS
 10
39.0
 20
258.0
 30
0.0
 11
39.0
 21
224.0
 31
0.0
  0
LINE
  5
18EC3
  8
DANMEN
  6
CONTINUOUS
 10
46.0
 20
231.5
 30
0.0
 11
54.0
 21
231.5
 31
0.0
  0
ARC
  5
18EC4
  8
DANMEN
  6
CONTINUOUS
 10
39.5
 20
224.0
 30
0.0
 40
0.5
 50
180.000019
 51
270.000001
  0
ARC
  5
18EC5
  8
DANMEN
  6
CONTINUOUS
 10
40.149994
 20
224.0
 30
0.0
 40
0.5
 50
270.000018
 51
0.0
  0
LINE
  5
18EC6
  8
DANMEN
  6
CONTINUOUS
 10
39.5
 20
223.5
 30
0.0
 11
40.149994
 21
223.5
 31
0.0
  0
LINE
  5
18EC7
  8
DANMEN
  6
CONTINUOUS
 10
48.699998
 20
231.5
 30
0.0
 11
49.649998
 21
231.5
 31
0.0
  0
ARC
  5
18EC9
  8
DANMEN
  6
CONTINUOUS
 10
48.699998
 20
231.0
 30
0.0
 40
0.5
 50
89.999982
 51
180.000019
  0
ARC
  5
18ECA
  8
DANMEN
  6
CONTINUOUS
 10
49.649998
 20
231.0
 30
0.0
 40
0.5
 50
0.0
 51
90.0
  0
LINE
  5
18ECC
  8
DANMEN
  6
CONTINUOUS
 10
56.75
 20
233.398149
 30
0.0
 11
56.75
 21
225.561553
 31
0.0
  0
ARC
  5
18ECD
  8
DANMEN
  6
CONTINUOUS
 10
58.75
 20
225.561553
 30
0.0
 40
0.5
 50
345.963757
 51
0.0
  0
ARC
  5
18ECE
  8
DANMEN
  6
CONTINUOUS
 10
57.25
 20
225.561553
 30
0.0
 40
0.5
 50
180.0
 51
194.036243
  0
ARC
  5
18ECF
  8
DANMEN
  6
CONTINUOUS
 10
58.359612
 20
224.0
 30
0.0
 40
0.5
 50
270.0
 51
345.963757
  0
ARC
  5
18ED0
  8
DANMEN
  6
CONTINUOUS
 10
57.640388
 20
224.0
 30
0.0
 40
0.5
 50
194.036243
 51
270.0
  0
LINE
  5
18ED1
  8
DANMEN
  6
CONTINUOUS
 10
57.155317
 20
223.878732
 30
0.0
 11
56.764929
 21
225.440285
 31
0.0
  0
LINE
  5
18ED2
  8
DANMEN
  6
CONTINUOUS
 10
59.235071
 20
225.440285
 30
0.0
 11
58.844683
 21
223.878732
 31
0.0
  0
LINE
  5
18ED3
  8
DANMEN
  6
CONTINUOUS
 10
57.640388
 20
223.5
 30
0.0
 11
58.359612
 21
223.5
 31
0.0
  0
ARC
  5
18ED4
  8
DANMEN
  6
CONTINUOUS
 10
66.850001
 20
220.45
 30
0.0
 40
1.0
 50
90.0
 51
180.0
  0
LINE
  5
18ED6
  8
DANMEN
  6
CONTINUOUS
 10
57.560165
 20
235.406263
 30
0.0
 11
56.789835
 21
233.59372
 31
0.0
  0
ARC
  5
18ED7
  8
DANMEN
  6
CONTINUOUS
 10
57.25
 20
233.398149
 30
0.0
 40
0.5
 50
156.974508
 51
180.0
  0
ARC
  5
18ED8
  8
DANMEN
  6
CONTINUOUS
 10
57.1
 20
235.601833
 30
0.0
 40
0.5
 50
336.974508
 51
0.0
  0
LINE
  5
18ED9
  8
DANMEN
  6
CONTINUOUS
 10
40.649994
 20
248.149994
 30
0.0
 11
54.699997
 21
248.149994
 31
0.0
  0
LINE
  5
18EDA
  8
DANMEN
  6
CONTINUOUS
 10
40.649994
 20
246.5
 30
0.0
 11
57.6
 21
246.5
 31
0.0
  0
LINE
  5
18EDB
  8
DANMEN
  6
CONTINUOUS
 10
40.649994
 20
256.850006
 30
0.0
 11
40.649994
 21
248.149994
 31
0.0
  0
LINE
  5
18EDC
  8
DANMEN
  6
CONTINUOUS
 10
40.649994
 20
256.850006
 30
0.0
 11
44.5
 21
256.850006
 31
0.0
  0
LINE
  5
18EDD
  8
DANMEN
  6
CONTINUOUS
 10
39.5
 20
258.5
 30
0.0
 11
44.5
 21
258.5
 31
0.0
  0
ARC
  5
18EDE
  8
DANMEN
  6
CONTINUOUS
 10
39.5
 20
258.0
 30
0.0
 40
0.5
 50
89.999982
 51
180.000019
  0
LINE
  5
18EDF
  8
DANMEN
  6
CONTINUOUS
 10
45.0
 20
258.0
 30
0.0
 11
45.0
 21
257.350006
 31
0.0
  0
ARC
  5
18EE0
  8
DANMEN
  6
CONTINUOUS
 10
44.5
 20
257.350006
 30
0.0
 40
0.5
 50
270.000018
 51
0.0
  0
ARC
  5
18EE1
  8
DANMEN
  6
CONTINUOUS
 10
44.5
 20
258.0
 30
0.0
 40
0.5
 50
0.0
 51
89.999982
  0
LINE
  5
18EE2
  8
DANMEN
  6
CONTINUOUS
 10
57.9
 20
251.8
 30
0.0
 11
57.9
 21
251.536932
 31
0.0
  0
ARC
  5
18EE3
  8
DANMEN
  6
CONTINUOUS
 10
57.7
 20
250.530306
 30
0.0
 40
2.0
 50
128.293477
 51
180.0
  0
LINE
  5
18EE4
  8
DANMEN
  6
CONTINUOUS
 10
60.1
 20
251.800012
 30
0.0
 11
60.1
 21
251.536932
 31
0.0
  0
LINE
  5
18EE5
  8
DANMEN
  6
CONTINUOUS
 10
59.8
 20
248.2
 30
0.0
 11
58.2
 21
248.2
 31
0.0
  0
LINE
  5
18EE6
  8
DANMEN
  6
CONTINUOUS
 10
59.25
 20
246.5
 30
0.0
 11
63.5
 21
246.5
 31
0.0
  0
ARC
  5
18EE7
  8
DANMEN
  6
CONTINUOUS
 10
54.7
 20
249.149994
 30
0.0
 40
1.0
 50
270.0
 51
0.0
  0
ARC
  5
18EE8
  8
DANMEN
  6
CONTINUOUS
 10
58.2
 20
250.446061
 30
0.0
 40
1.0
 50
114.624318
 51
180.0
  0
ARC
  5
18EE9
  8
DANMEN
  6
CONTINUOUS
 10
57.7
 20
251.536932
 30
0.0
 40
0.2
 50
294.624318
 51
0.0
  0
LINE
  5
18EEA
  8
DANMEN
  6
CONTINUOUS
 10
55.7
 20
250.530306
 30
0.0
 11
55.7
 21
249.149994
 31
0.0
  0
LINE
  5
18EEB
  8
DANMEN
  6
CONTINUOUS
 10
57.2
 20
250.446061
 30
0.0
 11
57.2
 21
249.2
 31
0.0
  0
ARC
  5
18EEC
  8
DANMEN
  6
CONTINUOUS
 10
58.2
 20
249.2
 30
0.0
 40
1.0
 50
180.0
 51
270.0
  0
ARC
  5
18EED
  8
DANMEN
  6
CONTINUOUS
 10
63.5
 20
247.0
 30
0.0
 40
0.5
 50
270.000018
 51
0.0
  0
LINE
  5
18EEE
  8
DANMEN
  6
CONTINUOUS
 10
62.5
 20
247.3
 30
0.0
 11
64.0
 21
247.3
 31
0.0
  0
ARC
  5
18EEF
  8
DANMEN
  6
CONTINUOUS
 10
60.3
 20
251.536932
 30
0.0
 40
0.2
 50
180.0
 51
245.375682
  0
ARC
  5
18EF0
  8
DANMEN
  6
CONTINUOUS
 10
59.8
 20
250.446061
 30
0.0
 40
1.0
 50
0.0
 51
65.375682
  0
ARC
  5
18EF1
  8
DANMEN
  6
CONTINUOUS
 10
59.8
 20
249.2
 30
0.0
 40
1.0
 50
270.0
 51
0.0
  0
LINE
  5
18EF2
  8
DANMEN
  6
CONTINUOUS
 10
60.8
 20
250.446061
 30
0.0
 11
60.8
 21
249.2
 31
0.0
  0
LINE
  5
18EF3
  8
DANMEN
  6
CONTINUOUS
 10
62.5
 20
250.450012
 30
0.0
 11
62.5
 21
247.3
 31
0.0
  0
LINE
  5
18EF4
  8
DANMEN
  6
CONTINUOUS
 10
64.0
 20
247.3
 30
0.0
 11
64.0
 21
247.0
 31
0.0
  0
LINE
  5
18EF6
  8
DANMEN
  6
CONTINUOUS
 10
57.6
 20
252.1
 30
0.0
 11
56.460621
 21
252.1
 31
0.0
  0
ARC
  5
18EF7
  8
DANMEN
  6
CONTINUOUS
 10
57.6
 20
251.8
 30
0.0
 40
0.3
 50
0.0
 51
90.0
  0
ARC
  5
18EF8
  8
DANMEN
  6
CONTINUOUS
 10
60.4
 20
251.800012
 30
0.0
 40
0.3
 50
90.0
 51
180.0
  0
LINE
  5
18EF9
  8
DANMEN
  6
CONTINUOUS
 10
105.017555
 20
193.002085
 30
0.0
 11
105.0
 21
223.5
 31
0.0
  0
LINE
  5
18EFA
  8
DANMEN
  6
CONTINUOUS
 10
106.517555
 20
192.645361
 30
0.0
 11
106.004224
 21
222.970763
 31
0.0
  0
LINE
  5
18EFB
  8
DANMEN
  6
CONTINUOUS
 10
105.31756
 20
192.99168
 30
0.0
 11
105.30001
 21
223.479021
 31
0.0
  0
LINE
  5
18EFC
  8
DANMEN
  6
CONTINUOUS
 10
67.799998
 20
219.5
 30
0.0
 11
67.799998
 21
189.0
 31
0.0
  0
LINE
  5
18EFD
  8
DANMEN
  6
CONTINUOUS
 10
107.350006
 20
192.926465
 30
0.0
 11
107.350006
 21
223.5
 31
0.0
  0
LINE
  5
18EFE
  8
DANMEN
  6
CONTINUOUS
 10
109.0
 20
192.77658
 30
0.0
 11
109.0
 21
223.5
 31
0.0
  0
LINE
  5
18EFF
  8
DANMEN
  6
CONTINUOUS
 10
105.0
 20
172.5
 30
0.0
 11
105.0
 21
223.5
 31
0.0
  0
LINE
  5
18F00
  8
DANMEN
  6
CONTINUOUS
 10
80.000015
 20
172.5
 30
0.0
 11
80.000015
 21
223.5
 31
0.0
  0
LINE
  5
18F01
  8
DANMEN
  6
CONTINUOUS
 10
95.949985
 20
172.5
 30
0.0
 11
95.949985
 21
223.5
 31
0.0
  0
LINE
  5
18F02
  8
DANMEN
  6
CONTINUOUS
 10
77.95
 20
172.5
 30
0.0
 11
77.95
 21
223.5
 31
0.0
  0
LINE
  5
18F03
  8
DANMEN
  6
CONTINUOUS
 10
98.0
 20
172.5
 30
0.0
 11
98.0
 21
223.5
 31
0.0
  0
LINE
  5
18F04
  8
DANMEN
  6
CONTINUOUS
 10
89.949986
 20
230.5
 30
0.0
 11
89.949986
 21
172.5
 31
0.0
  0
LINE
  5
18F05
  8
DANMEN
  6
CONTINUOUS
 10
85.949998
 20
230.5
 30
0.0
 11
85.949998
 21
172.5
 31
0.0
  0
LINE
  5
18F06
  8
DANMEN
  6
CONTINUOUS
 10
90.449986
 20
230.5
 30
0.0
 11
90.449986
 21
172.5
 31
0.0
  0
LINE
  5
18F07
  8
DANMEN
  6
CONTINUOUS
 10
85.449998
 20
230.5
 30
0.0
 11
85.449998
 21
172.5
 31
0.0
  0
LINE
  5
18F08
  8
DANMEN
  6
DASHED
 10
75.5
 20
223.5
 30
0.0
 11
75.5
 21
172.5
 31
0.0
  0
LINE
  5
18F09
  8
DANMEN
  6
CONTINUOUS
 10
72.5
 20
223.5
 30
0.0
 11
72.5
 21
172.5
 31
0.0
  0
LINE
  5
18F0A
  8
DANMEN
  6
CONTINUOUS
 10
70.0
 20
231.5
 30
0.0
 11
70.0
 21
172.5
 31
0.0
  0
LINE
  5
18F0B
  8
DANMEN
  6
CONTINUOUS
 10
70.0
 20
231.5
 30
0.0
 11
70.0
 21
167.5
 31
0.0
  0
LINE
  5
18F0D
  8
DANMEN
  6
CONTINUOUS
 10
127.5
 20
169.5
 30
0.0
 11
127.5
 21
133.997915
 31
0.0
  0
LINE
  5
18F0E
  8
DANMEN
  6
CONTINUOUS
 10
108.517555
 20
133.997915
 30
0.0
 11
129.997555
 21
133.997915
 31
0.0
  0
LINE
  5
18F0F
  8
DANMEN
  6
CONTINUOUS
 10
128.661386
 20
128.346997
 30
0.0
 11
106.517555
 21
125.497915
 31
0.0
  0
LINE
  5
18F10
  8
DANMEN
  6
CONTINUOUS
 10
105.017555
 20
129.997915
 30
0.0
 11
105.017555
 21
125.497915
 31
0.0
  0
LINE
  5
18F11
  8
DANMEN
  6
CONTINUOUS
 10
105.317555
 20
129.997915
 30
0.0
 11
105.317555
 21
125.487367
 31
0.0
  0
LINE
  5
18F12
  8
DANMEN
  6
CONTINUOUS
 10
106.517555
 20
131.997915
 30
0.0
 11
106.517555
 21
125.497915
 31
0.0
  0
LINE
  5
18F16
  8
DANMEN
  6
CONTINUOUS
 10
105.017555
 20
129.997915
 30
0.0
 11
106.517555
 21
129.997915
 31
0.0
  0
ARC
  5
18F19
  8
DANMEN
  6
CONTINUOUS
 10
108.517555
 20
131.997915
 30
0.0
 40
2.0
 50
89.999982
 51
180.000019
  0
ARC
  5
18F1C
  8
DANMEN
  6
CONTINUOUS
 10
128.497555
 20
130.340276
 30
0.0
 40
2.0
 50
274.698681
 51
0.0
  0
LINE
  5
18F21
  8
DANMEN
  6
CONTINUOUS
 10
130.497555
 20
133.497915
 30
0.0
 11
130.497555
 21
130.340276
 31
0.0
  0
ARC
  5
18F23
  8
DANMEN
  6
CONTINUOUS
 10
129.997555
 20
133.497915
 30
0.0
 40
0.5
 50
0.0
 51
89.999982
  0
LINE
  5
18F26
  8
DANMEN
  6
CONTINUOUS
 10
108.517555
 20
184.502085
 30
0.0
 11
129.997555
 21
184.502085
 31
0.0
  0
LINE
  5
18F27
  8
DANMEN
  6
CONTINUOUS
 10
128.661386
 20
190.153003
 30
0.0
 11
106.517555
 21
193.002085
 31
0.0
  0
LINE
  5
18F28
  8
DANMEN
  6
CONTINUOUS
 10
106.517555
 20
186.502085
 30
0.0
 11
106.517555
 21
193.002085
 31
0.0
  0
ARC
  5
18F2A
  8
DANMEN
  6
CONTINUOUS
 10
108.517555
 20
186.502085
 30
0.0
 40
2.0
 50
179.999981
 51
270.000018
  0
LINE
  5
18F2C
  8
DANMEN
  6
CONTINUOUS
 10
105.017555
 20
188.502085
 30
0.0
 11
105.017555
 21
193.002085
 31
0.0
  0
LINE
  5
18F2D
  8
DANMEN
  6
CONTINUOUS
 10
105.017555
 20
188.502085
 30
0.0
 11
106.517555
 21
188.502085
 31
0.0
  0
LINE
  5
18F30
  8
DANMEN
  6
CONTINUOUS
 10
105.317555
 20
188.502085
 30
0.0
 11
105.317555
 21
193.012633
 31
0.0
  0
LINE
  5
18F34
  8
DANMEN
  6
CONTINUOUS
 10
127.5
 20
172.5
 30
0.0
 11
127.5
 21
184.502085
 31
0.0
  0
LINE
  5
18F35
  8
DANMEN
  6
CONTINUOUS
 10
130.497555
 20
185.002085
 30
0.0
 11
130.497555
 21
188.159724
 31
0.0
  0
ARC
  5
18F37
  8
DANMEN
  6
CONTINUOUS
 10
129.997555
 20
185.002085
 30
0.0
 40
0.5
 50
270.000018
 51
360.0
  0
ARC
  5
18F39
  8
DANMEN
  6
CONTINUOUS
 10
128.497555
 20
188.159724
 30
0.0
 40
2.0
 50
0.0
 51
85.301319
  0
LINE
  5
18F3F
  8
DANMEN
  6
CONTINUOUS
 10
195.000002
 20
155.4
 30
0.0
 11
195.000002
 21
136.8
 31
0.0
  0
ARC
  5
18F40
  8
DANMEN
  6
CONTINUOUS
 10
199.000002
 20
147.138813
 30
0.0
 40
1.0
 50
98.530766
 51
180.0
  0
ARC
  5
18F41
  8
DANMEN
  6
CONTINUOUS
 10
198.500002
 20
129.5
 30
0.0
 40
0.5
 50
89.999982
 51
180.000019
  0
ARC
  5
18F42
  8
DANMEN
  6
CONTINUOUS
 10
196.473511
 20
129.601146
 30
0.0
 40
0.6
 50
23.0
 51
273.528779
  0
LINE
  5
18F43
  8
DANMEN
  6
CONTINUOUS
 10
198.000002
 20
129.5
 30
0.0
 11
198.000002
 21
127.861187
 31
0.0
  0
ARC
  5
18F46
  8
DANMEN
  6
CONTINUOUS
 10
199.000002
 20
127.861187
 30
0.0
 40
1.0
 50
180.0
 51
261.469234
  0
LINE
  5
18F50
  8
DANMEN
  6
CONTINUOUS
 10
198.000002
 20
145.5
 30
0.0
 11
198.000002
 21
147.138813
 31
0.0
  0
ARC
  5
18F52
  8
DANMEN
  6
CONTINUOUS
 10
198.500002
 20
145.5
 30
0.0
 40
0.5
 50
179.999964
 51
270.000001
  0
LINE
  5
18F53
  8
DANMEN
  6
CONTINUOUS
 10
186.649995
 20
154.850006
 30
0.0
 11
193.350008
 21
154.850006
 31
0.0
  0
LINE
  5
18F54
  8
DANMEN
  6
CONTINUOUS
 10
186.649995
 20
154.850006
 30
0.0
 11
186.649995
 21
151.0
 31
0.0
  0
LINE
  5
18F55
  8
DANMEN
  6
CONTINUOUS
 10
185.000002
 20
156.0
 30
0.0
 11
185.000002
 21
151.0
 31
0.0
  0
ARC
  5
18F56
  8
DANMEN
  6
CONTINUOUS
 10
186.149995
 20
151.0
 30
0.0
 40
0.5
 50
270.000018
 51
359.999981
  0
ARC
  5
18F59
  8
DANMEN
  6
CONTINUOUS
 10
185.500002
 20
151.0
 30
0.0
 40
0.5
 50
180.000036
 51
269.999963
  0
LINE
  5
18F5A
  8
DANMEN
  6
CONTINUOUS
 10
185.500002
 20
150.5
 30
0.0
 11
186.149995
 21
150.5
 31
0.0
  0
ARC
  5
18F5C
  8
DANMEN
  6
CONTINUOUS
 10
185.500002
 20
156.0
 30
0.0
 40
0.5
 50
89.999982
 51
180.000019
  0
LINE
  5
18F61
  8
DANMEN
  6
CONTINUOUS
 10
197.000002
 20
155.4
 30
0.0
 11
197.000002
 21
154.850006
 31
0.0
  0
LINE
  5
18F62
  8
DANMEN
  6
CONTINUOUS
 10
195.000002
 20
155.4
 30
0.0
 11
197.000002
 21
155.4
 31
0.0
  0
LINE
  5
18F65
  8
DANMEN
  6
CONTINUOUS
 10
93.3
 20
248.15
 30
0.0
 11
107.350006
 21
248.15
 31
0.0
  0
LINE
  5
18F66
  8
DANMEN
  6
CONTINUOUS
 10
96.0
 20
223.5
 30
0.0
 11
108.5
 21
223.5
 31
0.0
  0
LINE
  5
18F67
  8
DANMEN
  6
CONTINUOUS
 10
96.5
 20
225.15
 30
0.0
 11
107.350006
 21
225.15
 31
0.0
  0
LINE
  5
18F68
  8
DANMEN
  6
CONTINUOUS
 10
79.65
 20
246.5
 30
0.0
 11
107.350006
 21
246.5
 31
0.0
  0
LINE
  5
18F69
  8
DANMEN
  6
CONTINUOUS
 10
78.0
 20
246.5
 30
0.0
 11
78.0
 21
231.5
 31
0.0
  0
LINE
  5
18F6A
  8
DANMEN
  6
CONTINUOUS
 10
79.65
 20
246.5
 30
0.0
 11
79.65
 21
226.5
 31
0.0
  0
LINE
  5
18F6B
  8
DANMEN
  6
DASHED
 10
82.0
 20
223.5
 30
0.0
 11
94.0
 21
223.5
 31
0.0
  0
LINE
  5
18F6C
  8
DANMEN
  6
DASHED
 10
78.5
 20
222.300003
 30
0.0
 11
97.5
 21
222.300003
 31
0.0
  0
ARC
  5
18F6D
  8
DANMEN
  6
CONTINUOUS
 10
83.949991
 20
219.750092
 30
0.0
 40
1.5
 50
0.0
 51
89.999982
  0
LINE
  5
18F6E
  8
DANMEN
  6
CONTINUOUS
 10
72.2
 20
231.2
 30
0.0
 11
72.2
 21
224.1
 31
0.0
  0
LINE
  5
18F6F
  8
DANMEN
  6
CONTINUOUS
 10
74.2
 20
228.5
 30
0.0
 11
74.2
 21
226.8
 31
0.0
  0
LINE
  5
18F70
  8
DANMEN
  6
CONTINUOUS
 10
71.146178
 20
231.684441
 30
0.0
 11
70.0187
 21
228.19015
 31
0.0
  0
LINE
  5
18F71
  8
DANMEN
  6
CONTINUOUS
 10
71.582434
 20
231.2
 30
0.0
 11
70.6
 21
228.017126
 31
0.0
  0
LINE
  5
18F72
  8
DANMEN
  6
DASHED
 10
80.023824
 20
227.117136
 30
0.0
 11
81.423825
 21
230.417167
 31
0.0
  0
LINE
  5
18F73
  8
DANMEN
  6
DASHED
 10
81.5
 20
228.100003
 30
0.0
 11
81.992312
 21
230.23252
 31
0.0
  0
LINE
  5
18F74
  8
DANMEN
  6
CONTINUOUS
 10
78.000003
 20
224.5
 30
0.0
 11
78.000003
 21
230.7
 31
0.0
  0
LINE
  5
18F75
  8
DANMEN
  6
CONTINUOUS
 10
69.999998
 20
220.0
 30
0.0
 11
69.999998
 21
231.0
 31
0.0
  0
LINE
  5
18F76
  8
DANMEN
  6
CONTINUOUS
 10
68.049998
 20
221.45
 30
0.0
 11
68.049998
 21
231.0
 31
0.0
  0
LINE
  5
18F77
  8
DANMEN
  6
CONTINUOUS
 10
73.800003
 20
224.5
 30
0.0
 11
78.0
 21
224.5
 31
0.0
  0
LINE
  5
18F78
  8
DANMEN
  6
CONTINUOUS
 10
80.0
 20
223.5
 30
0.0
 11
73.5
 21
223.5
 31
0.0
  0
LINE
  5
18F79
  8
DANMEN
  6
CONTINUOUS
 10
70.0
 20
223.5
 30
0.0
 11
78.0
 21
223.5
 31
0.0
  0
LINE
  5
18F7A
  8
DANMEN
  6
CONTINUOUS
 10
69.499998
 20
219.5
 30
0.0
 11
67.799998
 21
219.5
 31
0.0
  0
ARC
  5
18F7B
  8
DANMEN
  6
CONTINUOUS
 10
69.499998
 20
220.0
 30
0.0
 40
0.5
 50
270.0
 51
0.0
  0
LINE
  5
18F7F
  8
DANMEN
  6
CONTINUOUS
 10
71.327478
 20
223.5
 30
0.0
 11
73.0
 21
223.5
 31
0.0
  0
LINE
  5
18F80
  8
DANMEN
  6
CONTINUOUS
 10
71.582434
 20
224.1
 30
0.0
 11
72.2
 21
224.1
 31
0.0
  0
LINE
  5
18F82
  8
DANMEN
  6
CONTINUOUS
 10
70.0
 20
228.105709
 30
0.0
 11
70.0
 21
227.194291
 31
0.0
  0
LINE
  5
18F83
  8
DANMEN
  6
CONTINUOUS
 10
70.0187
 20
227.10985
 30
0.0
 11
71.146178
 21
223.615559
 31
0.0
  0
ARC
  5
18F84
  8
DANMEN
  6
CONTINUOUS
 10
71.327478
 20
223.7
 30
0.0
 40
0.2
 50
204.97391
 51
270.0
  0
ARC
  5
18F86
  8
DANMEN
  6
CONTINUOUS
 10
70.2
 20
228.105709
 30
0.0
 40
0.2
 50
155.02609
 51
180.0
  0
ARC
  5
18F88
  8
DANMEN
  6
CONTINUOUS
 10
70.2
 20
227.194291
 30
0.0
 40
0.2
 50
180.0
 51
204.97391
  0
LINE
  5
18F8A
  8
DANMEN
  6
CONTINUOUS
 10
70.6
 20
228.017126
 30
0.0
 11
70.6
 21
227.282873
 31
0.0
  0
LINE
  5
18F8B
  8
DANMEN
  6
CONTINUOUS
 10
70.6
 20
227.282873
 30
0.0
 11
71.582434
 21
224.1
 31
0.0
  0
LINE
  5
18F90
  8
DANMEN
  6
CONTINUOUS
 10
74.2
 20
224.8
 30
0.0
 11
74.8
 21
224.8
 31
0.0
  0
LINE
  5
18F91
  8
DANMEN
  6
CONTINUOUS
 10
73.0
 20
226.0
 30
0.0
 11
73.0
 21
223.5
 31
0.0
  0
ARC
  5
18F93
  8
DANMEN
  6
CONTINUOUS
 10
74.8
 20
225.0
 30
0.0
 40
0.2
 50
270.000018
 51
0.0
  0
ARC
  5
18F95
  8
DANMEN
  6
CONTINUOUS
 10
74.2
 20
225.0
 30
0.0
 40
0.2
 50
180.000019
 51
270.000001
  0
LINE
  5
18F97
  8
DANMEN
  6
CONTINUOUS
 10
75.0
 20
226.0
 30
0.0
 11
75.0
 21
225.0
 31
0.0
  0
LINE
  5
18F99
  8
DANMEN
  6
CONTINUOUS
 10
74.2
 20
226.8
 30
0.0
 11
75.0
 21
226.0
 31
0.0
  0
LINE
  5
18F9A
  8
DANMEN
  6
CONTINUOUS
 10
74.0
 20
226.0
 30
0.0
 11
74.0
 21
225.0
 31
0.0
  0
LINE
  5
18F9B
  8
DANMEN
  6
CONTINUOUS
 10
73.0
 20
226.0
 30
0.0
 11
74.0
 21
226.0
 31
0.0
  0
LINE
  5
18FA5
  8
DANMEN
  6
CONTINUOUS
 10
73.0
 20
224.0
 30
0.0
 11
73.0
 21
225.199997
 31
0.0
  0
LINE
  5
18FA6
  8
DANMEN
  6
CONTINUOUS
 10
73.5
 20
225.699997
 30
0.0
 11
73.800003
 21
225.699997
 31
0.0
  0
LINE
  5
18FA7
  8
DANMEN
  6
CONTINUOUS
 10
73.800003
 20
224.5
 30
0.0
 11
73.800003
 21
225.699997
 31
0.0
  0
ARC
  5
18FA8
  8
DANMEN
  6
CONTINUOUS
 10
73.5
 20
225.199997
 30
0.0
 40
0.5
 50
89.999999
 51
179.999981
  0
ARC
  5
18FA9
  8
DANMEN
  6
CONTINUOUS
 10
73.5
 20
224.0
 30
0.0
 40
0.5
 50
179.999981
 51
270.000018
  0
ARC
  5
18FAA
  8
DANMEN
  6
DASHED
 10
78.5
 20
222.800003
 30
0.0
 40
0.5
 50
180.0
 51
269.999982
  0
ARC
  5
18FAB
  8
DANMEN
  6
CONTINUOUS
 10
81.449985
 20
222.750092
 30
0.0
 40
1.5
 50
179.999964
 51
270.000001
  0
LINE
  5
18FAD
  8
DANMEN
  6
CONTINUOUS
 10
81.449985
 20
221.250092
 30
0.0
 11
83.949991
 21
221.250092
 31
0.0
  0
LINE
  5
18FAE
  8
DANMEN
  6
DASHED
 10
80.5
 20
223.5
 30
0.0
 11
78.0
 21
223.5
 31
0.0
  0
ARC
  5
18FAF
  8
DANMEN
  6
DASHED
 10
80.299999
 20
226.999972
 30
0.0
 40
0.3
 50
157.011468
 51
235.656024
  0
ARC
  5
18FB0
  8
DANMEN
  6
CONTINUOUS
 10
80.0
 20
224.0
 30
0.0
 40
0.5
 50
270.0
 51
0.0
  0
LINE
  5
18FB1
  8
DANMEN
  6
CONTINUOUS
 10
79.65
 20
226.5
 30
0.0
 11
80.5
 21
226.5
 31
0.0
  0
LINE
  5
18FB4
  8
DANMEN
  6
DASHED
 10
78.0
 20
223.5
 30
0.0
 11
78.0
 21
222.800003
 31
0.0
  0
LINE
  5
18FB6
  8
DANMEN
  6
DASHED
 10
80.499991
 20
226.499972
 30
0.0
 11
80.130743
 21
226.752271
 31
0.0
  0
LINE
  5
18FB7
  8
DANMEN
  6
DASHED
 10
80.5
 20
223.5
 30
0.0
 11
80.5
 21
226.499972
 31
0.0
  0
LINE
  5
18FB8
  8
DANMEN
  6
DASHED
 10
81.5
 20
228.100003
 30
0.0
 11
81.5
 21
224.0
 31
0.0
  0
ARC
  5
18FB9
  8
DANMEN
  6
DASHED
 10
82.0
 20
224.0
 30
0.0
 40
0.5
 50
180.0
 51
270.0
  0
LINE
  5
18FBE
  8
DANMEN
  6
CONTINUOUS
 10
80.5
 20
226.5
 30
0.0
 11
80.5
 21
224.0
 31
0.0
  0
LINE
  5
18FBF
  8
DANMEN
  6
CONTINUOUS
 10
73.5
 20
231.5
 30
0.0
 11
78.0
 21
231.5
 31
0.0
  0
LINE
  5
18FC0
  8
DANMEN
  6
CONTINUOUS
 10
73.800003
 20
230.7
 30
0.0
 11
78.0
 21
230.7
 31
0.0
  0
LINE
  5
18FC1
  8
DANMEN
  6
CONTINUOUS
 10
71.327478
 20
231.8
 30
0.0
 11
73.0
 21
231.8
 31
0.0
  0
LINE
  5
18FC2
  8
DANMEN
  6
CONTINUOUS
 10
71.582434
 20
231.2
 30
0.0
 11
72.2
 21
231.2
 31
0.0
  0
ARC
  5
18FC3
  8
DANMEN
  6
CONTINUOUS
 10
71.327478
 20
231.6
 30
0.0
 40
0.2
 50
90.0
 51
155.02609
  0
LINE
  5
18FC6
  8
DANMEN
  6
CONTINUOUS
 10
69.499998
 20
231.5
 30
0.0
 11
68.549998
 21
231.5
 31
0.0
  0
ARC
  5
18FC7
  8
DANMEN
  6
CONTINUOUS
 10
69.499998
 20
231.0
 30
0.0
 40
0.5
 50
0.0
 51
90.0
  0
ARC
  5
18FC9
  8
DANMEN
  6
CONTINUOUS
 10
68.549998
 20
231.0
 30
0.0
 40
0.5
 50
90.0
 51
180.0
  0
LINE
  5
18FCB
  8
DANMEN
  6
CONTINUOUS
 10
75.0
 20
230.3
 30
0.0
 11
75.0
 21
229.3
 31
0.0
  0
LINE
  5
18FCC
  8
DANMEN
  6
CONTINUOUS
 10
74.2
 20
230.5
 30
0.0
 11
74.8
 21
230.5
 31
0.0
  0
LINE
  5
18FCD
  8
DANMEN
  6
CONTINUOUS
 10
74.0
 20
230.3
 30
0.0
 11
74.0
 21
229.3
 31
0.0
  0
ARC
  5
18FCF
  8
DANMEN
  6
CONTINUOUS
 10
74.8
 20
230.3
 30
0.0
 40
0.2
 50
0.0
 51
89.999982
  0
ARC
  5
18FD1
  8
DANMEN
  6
CONTINUOUS
 10
74.2
 20
230.3
 30
0.0
 40
0.2
 50
89.999982
 51
180.000019
  0
LINE
  5
18FD3
  8
DANMEN
  6
CONTINUOUS
 10
75.0
 20
229.3
 30
0.0
 11
74.2
 21
228.5
 31
0.0
  0
LINE
  5
18FD4
  8
DANMEN
  6
CONTINUOUS
 10
73.0
 20
229.3
 30
0.0
 11
74.0
 21
229.3
 31
0.0
  0
LINE
  5
18FD6
  8
DANMEN
  6
CONTINUOUS
 10
73.0
 20
231.8
 30
0.0
 11
73.0
 21
229.3
 31
0.0
  0
LINE
  5
18FDC
  8
DANMEN
  6
CONTINUOUS
 10
73.0
 20
229.800003
 30
0.0
 11
73.0
 21
231.0
 31
0.0
  0
LINE
  5
18FDD
  8
DANMEN
  6
CONTINUOUS
 10
73.800003
 20
229.300003
 30
0.0
 11
73.800003
 21
230.7
 31
0.0
  0
ARC
  5
18FDE
  8
DANMEN
  6
CONTINUOUS
 10
73.5
 20
231.0
 30
0.0
 40
0.5
 50
89.999999
 51
179.999981
  0
ARC
  5
18FDF
  8
DANMEN
  6
CONTINUOUS
 10
73.5
 20
229.800003
 30
0.0
 40
0.5
 50
179.999981
 51
270.000018
  0
LINE
  5
18FE0
  8
DANMEN
  6
CONTINUOUS
 10
73.5
 20
229.300003
 30
0.0
 11
73.800003
 21
229.300003
 31
0.0
  0
ARC
  5
18FE4
  8
DANMEN
  6
DASHED
 10
81.7
 20
230.300003
 30
0.0
 40
0.3
 50
347.000479
 51
157.011468
  0
LINE
  5
18FE5
  8
DANMEN
  6
DASHED
 10
94.5
 20
228.100003
 30
0.0
 11
94.007688
 21
230.23252
 31
0.0
  0
LINE
  5
18FE6
  8
DANMEN
  6
DASHED
 10
95.976176
 20
227.117136
 30
0.0
 11
94.576175
 21
230.417167
 31
0.0
  0
LINE
  5
18FE7
  8
DANMEN
  6
CONTINUOUS
 10
91.949994
 20
221.250092
 30
0.0
 11
94.449985
 21
221.250092
 31
0.0
  0
ARC
  5
18FE8
  8
DANMEN
  6
CONTINUOUS
 10
91.949994
 20
219.750092
 30
0.0
 40
1.5
 50
89.999982
 51
179.999964
  0
ARC
  5
18FEB
  8
DANMEN
  6
DASHED
 10
97.5
 20
222.800003
 30
0.0
 40
0.5
 50
270.000018
 51
0.0
  0
ARC
  5
18FEC
  8
DANMEN
  6
CONTINUOUS
 10
94.449985
 20
222.750092
 30
0.0
 40
1.5
 50
270.000018
 51
0.0
  0
LINE
  5
18FEE
  8
DANMEN
  6
DASHED
 10
95.5
 20
223.5
 30
0.0
 11
98.0
 21
223.5
 31
0.0
  0
LINE
  5
18FEF
  8
DANMEN
  6
DASHED
 10
95.5
 20
223.5
 30
0.0
 11
98.0
 21
223.5
 31
0.0
  0
LINE
  5
18FF0
  8
DANMEN
  6
CONTINUOUS
 10
96.206061
 20
226.142044
 30
0.0
 11
96.5
 21
225.15
 31
0.0
  0
ARC
  5
18FF3
  8
DANMEN
  6
DASHED
 10
94.0
 20
224.0
 30
0.0
 40
0.5
 50
270.0
 51
0.0
  0
LINE
  5
18FF4
  8
DANMEN
  6
DASHED
 10
94.5
 20
228.100003
 30
0.0
 11
94.5
 21
224.0
 31
0.0
  0
LINE
  5
18FF5
  8
DANMEN
  6
DASHED
 10
95.5
 20
223.5
 30
0.0
 11
95.5
 21
226.499972
 31
0.0
  0
LINE
  5
18FF6
  8
DANMEN
  6
DASHED
 10
95.500009
 20
226.499972
 30
0.0
 11
95.869257
 21
226.752271
 31
0.0
  0
ARC
  5
18FF7
  8
DANMEN
  6
DASHED
 10
95.700001
 20
226.999972
 30
0.0
 40
0.3
 50
304.343976
 51
22.988532
  0
ARC
  5
18FFC
  8
DANMEN
  6
CONTINUOUS
 10
95.726662
 20
226.0
 30
0.0
 40
0.5
 50
16.504361
 51
90.0
  0
LINE
  5
18FFD
  8
DANMEN
  6
CONTINUOUS
 10
95.726662
 20
226.5
 30
0.0
 11
95.5
 21
226.5
 31
0.0
  0
LINE
  5
18FFE
  8
DANMEN
  6
CONTINUOUS
 10
95.5
 20
226.5
 30
0.0
 11
95.5
 21
224.0
 31
0.0
  0
ARC
  5
18FFF
  8
DANMEN
  6
CONTINUOUS
 10
96.0
 20
224.0
 30
0.0
 40
0.5
 50
180.0
 51
270.0
  0
LINE
  5
19001
  8
DANMEN
  6
DASHED
 10
98.0
 20
223.5
 30
0.0
 11
98.0
 21
222.800003
 31
0.0
  0
LINE
  5
19002
  8
DANMEN
  6
CONTINUOUS
 10
85.449998
 20
230.5
 30
0.0
 11
90.449986
 21
230.5
 31
0.0
  0
ARC
  5
19005
  8
DANMEN
  6
DASHED
 10
94.3
 20
230.300003
 30
0.0
 40
0.3
 50
22.988532
 51
192.999521
  0
LINE
  5
19007
  8
DANMEN
  6
CONTINUOUS
 10
76.65
 20
248.15
 30
0.0
 11
84.7
 21
248.15
 31
0.0
  0
ARC
  5
19008
  8
DANMEN
  6
CONTINUOUS
 10
75.65
 20
251.100012
 30
0.0
 40
1.0
 50
0.0
 51
90.0
  0
LINE
  5
19009
  8
DANMEN
  6
CONTINUOUS
 10
74.0
 20
246.5
 30
0.0
 11
78.0
 21
246.5
 31
0.0
  0
ARC
  5
1900C
  8
DANMEN
  6
CONTINUOUS
 10
74.0
 20
247.0
 30
0.0
 40
0.5
 50
180.000019
 51
270.000001
  0
LINE
  5
1900D
  8
DANMEN
  6
CONTINUOUS
 10
73.5
 20
247.3
 30
0.0
 11
73.5
 21
247.0
 31
0.0
  0
LINE
  5
1900E
  8
DANMEN
  6
CONTINUOUS
 10
73.5
 20
247.3
 30
0.0
 11
75.0
 21
247.3
 31
0.0
  0
LINE
  5
1900F
  8
DANMEN
  6
CONTINUOUS
 10
75.0
 20
250.450012
 30
0.0
 11
75.0
 21
247.3
 31
0.0
  0
LINE
  5
19011
  8
DANMEN
  6
CONTINUOUS
 10
76.65
 20
251.100012
 30
0.0
 11
76.65
 21
248.15
 31
0.0
  0
ARC
  5
19012
  8
DANMEN
  6
CONTINUOUS
 10
87.7
 20
250.530306
 30
0.0
 40
2.0
 50
128.293195
 51
180.0
  0
LINE
  5
19013
  8
DANMEN
  6
CONTINUOUS
 10
87.9
 20
251.536932
 30
0.0
 11
87.9
 21
251.8
 31
0.0
  0
ARC
  5
19014
  8
DANMEN
  6
CONTINUOUS
 10
90.3
 20
250.530306
 30
0.0
 40
2.0
 50
0.0
 51
51.706523
  0
LINE
  5
19015
  8
DANMEN
  6
CONTINUOUS
 10
90.1
 20
251.536932
 30
0.0
 11
90.1
 21
251.8
 31
0.0
  0
ARC
  5
19016
  8
DANMEN
  6
CONTINUOUS
 10
93.3
 20
249.15
 30
0.0
 40
1.0
 50
180.0
 51
270.0
  0
LINE
  5
19017
  8
DANMEN
  6
CONTINUOUS
 10
89.8
 20
248.2
 30
0.0
 11
88.2
 21
248.2
 31
0.0
  0
ARC
  5
19018
  8
DANMEN
  6
CONTINUOUS
 10
84.7
 20
249.15
 30
0.0
 40
1.0
 50
270.0
 51
0.0
  0
LINE
  5
19019
  8
DANMEN
  6
CONTINUOUS
 10
85.7
 20
250.530306
 30
0.0
 11
85.7
 21
249.15
 31
0.0
  0
ARC
  5
1901A
  8
DANMEN
  6
CONTINUOUS
 10
88.2
 20
250.446061
 30
0.0
 40
1.0
 50
114.624318
 51
180.0
  0
ARC
  5
1901B
  8
DANMEN
  6
CONTINUOUS
 10
87.7
 20
251.536932
 30
0.0
 40
0.2
 50
294.624318
 51
0.0
  0
LINE
  5
1901C
  8
DANMEN
  6
CONTINUOUS
 10
87.2
 20
250.446061
 30
0.0
 11
87.2
 21
249.2
 31
0.0
  0
ARC
  5
1901D
  8
DANMEN
  6
CONTINUOUS
 10
88.2
 20
249.2
 30
0.0
 40
1.0
 50
180.0
 51
270.0
  0
ARC
  5
1901E
  8
DANMEN
  6
CONTINUOUS
 10
90.3
 20
251.536932
 30
0.0
 40
0.2
 50
180.0
 51
245.375682
  0
ARC
  5
1901F
  8
DANMEN
  6
CONTINUOUS
 10
89.8
 20
250.446061
 30
0.0
 40
1.0
 50
0.0
 51
65.375682
  0
ARC
  5
19020
  8
DANMEN
  6
CONTINUOUS
 10
89.8
 20
249.2
 30
0.0
 40
1.0
 50
270.0
 51
0.0
  0
LINE
  5
19021
  8
DANMEN
  6
CONTINUOUS
 10
92.3
 20
250.530306
 30
0.0
 11
92.3
 21
249.15
 31
0.0
  0
LINE
  5
19022
  8
DANMEN
  6
CONTINUOUS
 10
90.8
 20
250.446061
 30
0.0
 11
90.8
 21
249.2
 31
0.0
  0
ARC
  5
19023
  8
DANMEN
  6
CONTINUOUS
 10
87.6
 20
251.8
 30
0.0
 40
0.3
 50
0.0
 51
90.0
  0
LINE
  5
19024
  8
DANMEN
  6
CONTINUOUS
 10
87.6
 20
252.100006
 30
0.0
 11
86.460628
 21
252.100006
 31
0.0
  0
LINE
  5
19025
  8
DANMEN
  6
CONTINUOUS
 10
91.539379
 20
252.1
 30
0.0
 11
90.4
 21
252.1
 31
0.0
  0
ARC
  5
19026
  8
DANMEN
  6
CONTINUOUS
 10
90.4
 20
251.8
 30
0.0
 40
0.3
 50
90.0
 51
180.0
  0
LINE
  5
19027
  8
DANMEN
  6
CONTINUOUS
 10
107.350006
 20
246.5
 30
0.0
 11
107.350006
 21
225.15
 31
0.0
  0
LINE
  5
19028
  8
DANMEN
  6
CONTINUOUS
 10
109.0
 20
258.0
 30
0.0
 11
109.0
 21
224.0
 31
0.0
  0
ARC
  5
19029
  8
DANMEN
  6
CONTINUOUS
 10
108.5
 20
224.0
 30
0.0
 40
0.5
 50
270.000018
 51
0.0
  0
LINE
  5
1902C
  8
DANMEN
  6
CONTINUOUS
 10
105.0
 20
223.5
 30
0.0
 11
105.539155
 21
223.462299
 31
0.0
  0
ARC
  5
1902D
  8
DANMEN
  6
CONTINUOUS
 10
105.504277
 20
222.963517
 30
0.0
 40
0.5
 50
0.83042
 51
86.0
  0
LINE
  5
19030
  8
DANMEN
  6
CONTINUOUS
 10
107.350006
 20
256.850006
 30
0.0
 11
107.350006
 21
248.15
 31
0.0
  0
ARC
  5
19031
  8
DANMEN
  6
CONTINUOUS
 10
108.5
 20
258.0
 30
0.0
 40
0.5
 50
0.0
 51
89.999982
  0
LINE
  5
19032
  8
DANMEN
  6
CONTINUOUS
 10
103.0
 20
258.0
 30
0.0
 11
103.0
 21
257.350006
 31
0.0
  0
LINE
  5
19033
  8
DANMEN
  6
CONTINUOUS
 10
103.5
 20
256.850006
 30
0.0
 11
107.350006
 21
256.850006
 31
0.0
  0
ARC
  5
19034
  8
DANMEN
  6
CONTINUOUS
 10
103.5
 20
257.350006
 30
0.0
 40
0.5
 50
180.000019
 51
270.000001
  0
LINE
  5
19035
  8
DANMEN
  6
CONTINUOUS
 10
103.5
 20
258.5
 30
0.0
 11
108.5
 21
258.5
 31
0.0
  0
ARC
  5
19036
  8
DANMEN
  6
CONTINUOUS
 10
103.5
 20
258.0
 30
0.0
 40
0.5
 50
89.999982
 51
180.000019
  0
TEXT
  5
19038
  8
SUNPO
  6
CONTINUOUS
 10
346.577611
 20
120.82
 30
0.0
 40
2.5
  1
2.5
 50
90.0
  7
MX_NOTE_STANDARD
  0
LINE
  5
19039
  8
DANMEN
  6
CONTINUOUS
 10
386.649994
 20
154.850006
 30
0.0
 11
386.649994
 21
88.149994
 31
0.0
  0
LINE
  5
1903A
  8
DANMEN
  6
CONTINUOUS
 10
385.0
 20
155.400003
 30
0.0
 11
385.0
 21
117.5
 31
0.0
  0
LINE
  5
1903B
  8
DANMEN
  6
CONTINUOUS
 10
274.845226
 20
125.3
 30
0.0
 11
272.58967
 21
121.8
 31
0.0
  0
LINE
  5
1903C
  8
DANMEN
  6
CONTINUOUS
 10
274.004655
 20
125.841701
 30
0.0
 11
271.400002
 21
121.8
 31
0.0
  0
LINE
  5
1903D
  8
DANMEN
  6
CONTINUOUS
 10
275.800003
 20
125.3
 30
0.0
 11
275.800003
 21
121.8
 31
0.0
  0
LINE
  5
1903E
  8
DANMEN
  6
CONTINUOUS
 10
276.800003
 20
125.7
 30
0.0
 11
276.800003
 21
121.0
 31
0.0
  0
LINE
  5
1903F
  8
DANMEN
  6
CONTINUOUS
 10
300.000003
 20
125.5
 30
0.0
 11
300.000003
 21
121.0
 31
0.0
  0
LINE
  5
19040
  8
DANMEN
  6
CONTINUOUS
 10
298.500003
 20
125.5
 30
0.0
 11
298.500003
 21
121.5
 31
0.0
  0
LINE
  5
19041
  8
DANMEN
  6
CONTINUOUS
 10
308.800003
 20
125.5
 30
0.0
 11
308.800003
 21
121.1
 31
0.0
  0
LINE
  5
19042
  8
DANMEN
  6
CONTINUOUS
 10
310.000003
 20
148.5
 30
0.0
 11
310.000003
 21
121.1
 31
0.0
  0
LINE
  5
19043
  8
SUNPO
  6
CONTINUOUS
 10
251.5
 20
86.5
 30
0.0
 11
251.5
 21
156.5
 31
0.0
  0
LINE
  5
19044
  8
SUNPO
  6
CONTINUOUS
 10
327.0
 20
117.5
 30
0.0
 11
327.0
 21
125.5
 31
0.0
  0
LINE
  5
19045
  8
SUNPO
  6
CONTINUOUS
 10
347.577611
 20
117.5
 30
0.0
 11
347.577611
 21
126.82
 31
0.0
  0
LINE
  5
19046
  8
SUNPO
  6
CONTINUOUS
 10
150.0
 20
99.5
 30
0.0
 11
150.0
 21
153.5
 31
0.0
  0
LINE
  5
19047
  8
SUNPO
  6
CONTINUOUS
 10
19.0
 20
59.5
 30
0.0
 11
19.0
 21
153.5
 31
0.0
  0
ARC
  5
19048
  8
DANMEN
  6
CONTINUOUS
 10
207.064266
 20
123.815568
 30
0.0
 40
0.2
 50
47.258366
 51
157.974191
  0
LINE
  5
19049
  8
DANMEN
  6
CONTINUOUS
 10
204.33567
 20
124.919423
 30
0.0
 11
202.479407
 21
123.263337
 31
0.0
  0
LINE
  5
1904A
  8
DANMEN
  6
CONTINUOUS
 10
203.578997
 20
124.914414
 30
0.0
 11
202.146544
 21
123.636435
 31
0.0
  0
LINE
  5
1904B
  8
DANMEN
  6
CONTINUOUS
 10
206.878863
 20
123.890573
 30
0.0
 11
204.33567
 21
124.919423
 31
0.0
  0
LINE
  5
1904C
  8
DANMEN
  6
CONTINUOUS
 10
208.000005
 20
124.244506
 30
0.0
 11
208.000005
 21
122.5
 31
0.0
  0
LINE
  5
1904D
  8
SUNPO
  6
CONTINUOUS
 10
160.0
 20
151.999252
 30
0.0
 11
160.0
 21
99.5
 31
0.0
  0
TEXT
  5
1904E
  8
SUNPO
  6
CONTINUOUS
 10
326.0
 20
120.666667
 30
0.0
 40
2.5
  1
8
 50
90.0
  7
MX_NOTE_STANDARD
  0
TEXT
  5
1904F
  8
SUNPO
  6
CONTINUOUS
 10
326.000003
 20
73.916664
 30
0.0
 40
2.5
  1
18.5
 50
90.0
  7
MX_NOTE_STANDARD
  0
TEXT
  5
19050
  8
SUNPO
  6
CONTINUOUS
 10
326.0
 20
100.790689
 30
0.0
 40
2.5
  1
31
 50
90.0
  7
MX_NOTE_STANDARD
  0
LINE
  5
19051
  8
SUNPO
  6
CONTINUOUS
 10
309.500003
 20
67.999997
 30
0.0
 11
327.000003
 21
67.999997
 31
0.0
  0
LINE
  5
19052
  8
SUNPO
  6
CONTINUOUS
 10
310.0
 20
32.0
 30
0.0
 11
370.0
 21
32.0
 31
0.0
  0
LINE
  5
19053
  8
SUNPO
  6
CONTINUOUS
 10
305.684322
 20
20.0
 30
0.0
 11
370.0
 21
20.0
 31
0.0
  0
LINE
  5
19054
  8
SUNPO
  6
CONTINUOUS
 10
54.0
 20
30.5
 30
0.0
 11
160.0
 21
30.5
 31
0.0
  0
LINE
  5
19056
  8
DANMEN
  6
CONTINUOUS
 10
333.5
 20
88.15
 30
0.0
 11
310.0
 21
88.15
 31
0.0
  0
LINE
  5
19057
  8
DANMEN
  6
CONTINUOUS
 10
333.5
 20
97.5
 30
0.0
 11
310.0
 21
97.5
 31
0.0
  0
LINE
  5
19058
  8
DANMEN
  6
CONTINUOUS
 10
333.5
 20
99.5
 30
0.0
 11
310.0
 21
99.5
 31
0.0
  0
LINE
  5
19059
  8
DANMEN
  6
CONTINUOUS
 10
333.5
 20
115.5
 30
0.0
 11
310.0
 21
115.5
 31
0.0
  0
LINE
  5
1905A
  8
DANMEN
  6
CONTINUOUS
 10
333.5
 20
117.5
 30
0.0
 11
310.0
 21
117.5
 31
0.0
  0
LINE
  5
1905B
  8
DANMEN
  6
CONTINUOUS
 10
333.5
 20
105.000014
 30
0.0
 11
303.0
 21
105.000014
 31
0.0
  0
LINE
  5
1905C
  8
DANMEN
  6
CONTINUOUS
 10
333.5
 20
105.500014
 30
0.0
 11
303.0
 21
105.500014
 31
0.0
  0
LINE
  5
1905D
  8
DANMEN
  6
CONTINUOUS
 10
333.5
 20
110.000002
 30
0.0
 11
303.0
 21
110.000002
 31
0.0
  0
LINE
  5
1905E
  8
DANMEN
  6
CONTINUOUS
 10
333.5
 20
109.500002
 30
0.0
 11
303.0
 21
109.500002
 31
0.0
  0
LINE
  5
1905F
  8
DANMEN
  6
CONTINUOUS
 10
333.5
 20
122.5
 30
0.0
 11
310.0
 21
122.5
 31
0.0
  0
LINE
  5
19060
  8
DANMEN
  6
CONTINUOUS
 10
333.5
 20
86.5
 30
0.0
 11
310.0
 21
86.5
 31
0.0
  0
LINE
  5
19061
  8
DANMEN
  6
CONTINUOUS
 10
260.5
 20
88.15
 30
0.0
 11
270.0
 21
88.15
 31
0.0
  0
LINE
  5
19062
  8
DANMEN
  6
CONTINUOUS
 10
260.5
 20
97.5
 30
0.0
 11
270.0
 21
97.5
 31
0.0
  0
LINE
  5
19063
  8
DANMEN
  6
CONTINUOUS
 10
260.5
 20
122.5
 30
0.0
 11
270.0
 21
122.5
 31
0.0
  0
LINE
  5
19064
  8
DANMEN
  6
CONTINUOUS
 10
260.5
 20
86.5
 30
0.0
 11
270.0
 21
86.5
 31
0.0
  0
LINE
  5
19065
  8
DANMEN
  6
CONTINUOUS
 10
210.0
 20
88.15
 30
0.0
 11
257.5
 21
88.15
 31
0.0
  0
LINE
  5
19066
  8
DANMEN
  6
CONTINUOUS
 10
208.0
 20
122.5
 30
0.0
 11
257.5
 21
122.5
 31
0.0
  0
LINE
  5
19067
  8
DANMEN
  6
CONTINUOUS
 10
210.0
 20
86.5
 30
0.0
 11
257.5
 21
86.5
 31
0.0
  0
ARC
  5
1906A
  8
DANMEN
  6
CONTINUOUS
 10
209.500002
 20
87.0
 30
0.0
 40
0.5
 50
270.000018
 51
359.999981
  0
ARC
  5
1906B
  8
DANMEN
  6
CONTINUOUS
 10
209.500002
 20
87.649994
 30
0.0
 40
0.5
 50
359.999981
 51
89.999982
  0
LINE
  5
1906C
  8
DANMEN
  6
CONTINUOUS
 10
210.000002
 20
87.649994
 30
0.0
 11
210.000002
 21
87.0
 31
0.0
  0
LINE
  5
1906D
  8
DANMEN
  6
CONTINUOUS
 10
206.300005
 20
122.5
 30
0.0
 11
207.500002
 21
122.5
 31
0.0
  0
LINE
  5
1906E
  8
DANMEN
  6
CONTINUOUS
 10
205.650005
 20
122.5
 30
0.0
 11
208.000005
 21
122.5
 31
0.0
  0
LINE
  5
1906F
  8
DANMEN
  6
CONTINUOUS
 10
200.800002
 20
120.1
 30
0.0
 11
207.0
 21
120.1
 31
0.0
  0
LINE
  5
19070
  8
DANMEN
  6
CONTINUOUS
 10
203.150005
 20
121.3
 30
0.0
 11
202.350006
 21
120.5
 31
0.0
  0
LINE
  5
19071
  8
DANMEN
  6
CONTINUOUS
 10
199.800005
 20
123.3
 30
0.0
 11
207.200005
 21
123.3
 31
0.0
  0
ARC
  5
19075
  8
DANMEN
  6
CONTINUOUS
 10
201.699998
 20
122.0
 30
0.0
 40
0.5
 50
359.999981
 51
90.000037
  0
ARC
  5
19076
  8
DANMEN
  6
CONTINUOUS
 10
200.500002
 20
122.0
 30
0.0
 40
0.5
 50
90.000037
 51
180.000019
  0
LINE
  5
19077
  8
DANMEN
  6
CONTINUOUS
 10
200.800002
 20
121.699997
 30
0.0
 11
202.199998
 21
121.699997
 31
0.0
  0
LINE
  5
19078
  8
DANMEN
  6
CONTINUOUS
 10
202.200003
 20
121.999999
 30
0.0
 11
202.200004
 21
121.699996
 31
0.0
  0
LINE
  5
19079
  8
DANMEN
  6
CONTINUOUS
 10
200.000002
 20
122.0
 30
0.0
 11
200.000002
 21
120.1
 31
0.0
  0
LINE
  5
1907A
  8
DANMEN
  6
CONTINUOUS
 10
200.500002
 20
122.5
 30
0.0
 11
201.699998
 21
122.5
 31
0.0
  0
LINE
  5
1907C
  8
DANMEN
  6
CONTINUOUS
 10
200.800002
 20
121.699997
 30
0.0
 11
200.800002
 21
120.1
 31
0.0
  0
ARC
  5
19082
  8
DANMEN
  6
CONTINUOUS
 10
202.312975
 20
123.449886
 30
0.0
 40
0.25
 50
131.738105
 51
311.738105
  0
LINE
  5
19085
  8
DANMEN
  6
CONTINUOUS
 10
201.350005
 20
121.5
 30
0.0
 11
202.350006
 21
121.5
 31
0.0
  0
LINE
  5
19086
  8
DANMEN
  6
CONTINUOUS
 10
201.150005
 20
121.3
 30
0.0
 11
201.150005
 21
120.7
 31
0.0
  0
LINE
  5
19087
  8
DANMEN
  6
CONTINUOUS
 10
201.350005
 20
120.5
 30
0.0
 11
202.350006
 21
120.5
 31
0.0
  0
ARC
  5
1908B
  8
DANMEN
  6
CONTINUOUS
 10
201.350005
 20
120.7
 30
0.0
 40
0.2
 50
180.000019
 51
270.000001
  0
ARC
  5
1908D
  8
DANMEN
  6
CONTINUOUS
 10
201.350005
 20
121.3
 30
0.0
 40
0.2
 50
89.999982
 51
180.000019
  0
LINE
  5
1908E
  8
DANMEN
  6
CONTINUOUS
 10
202.350006
 20
122.5
 30
0.0
 11
202.350006
 21
121.5
 31
0.0
  0
LINE
  5
19090
  8
DANMEN
  6
CONTINUOUS
 10
199.270497
 20
122.5
 30
0.0
 11
202.350006
 21
122.5
 31
0.0
  0
ARC
  5
19094
  8
DANMEN
  6
CONTINUOUS
 10
206.300004
 20
122.0
 30
0.0
 40
0.5
 50
90.0
 51
179.999149
  0
LINE
  5
19097
  8
DANMEN
  6
CONTINUOUS
 10
205.800005
 20
121.699997
 30
0.0
 11
207.000002
 21
121.699997
 31
0.0
  0
LINE
  5
19098
  8
DANMEN
  6
CONTINUOUS
 10
207.0
 20
121.699997
 30
0.0
 11
207.0
 21
120.1
 31
0.0
  0
LINE
  5
19099
  8
DANMEN
  6
CONTINUOUS
 10
205.800004
 20
122.000017
 30
0.0
 11
205.8
 21
121.699998
 31
0.0
  0
LINE
  5
1909C
  8
DANMEN
  6
CONTINUOUS
 10
206.850006
 20
121.3
 30
0.0
 11
206.850006
 21
120.7
 31
0.0
  0
LINE
  5
1909E
  8
DANMEN
  6
CONTINUOUS
 10
204.850005
 20
121.3
 30
0.0
 11
205.650005
 21
120.5
 31
0.0
  0
LINE
  5
1909F
  8
DANMEN
  6
CONTINUOUS
 10
205.650005
 20
120.5
 30
0.0
 11
206.650006
 21
120.5
 31
0.0
  0
ARC
  5
190A2
  8
DANMEN
  6
CONTINUOUS
 10
206.650006
 20
121.3
 30
0.0
 40
0.2
 50
0.0
 51
89.999982
  0
ARC
  5
190A4
  8
DANMEN
  6
CONTINUOUS
 10
206.650006
 20
120.7
 30
0.0
 40
0.2
 50
270.000018
 51
0.0
  0
LINE
  5
190A5
  8
DANMEN
  6
CONTINUOUS
 10
205.650005
 20
121.5
 30
0.0
 11
206.650006
 21
121.5
 31
0.0
  0
LINE
  5
190A6
  8
DANMEN
  6
CONTINUOUS
 10
205.650005
 20
122.5
 30
0.0
 11
205.650005
 21
121.5
 31
0.0
  0
LINE
  5
190AA
  8
DANMEN
  6
CONTINUOUS
 10
203.150006
 20
121.3
 30
0.0
 11
204.850005
 21
121.3
 31
0.0
  0
LINE
  5
190AD
  8
DANMEN
  6
CONTINUOUS
 10
207.200005
 20
123.962453
 30
0.0
 11
207.200005
 21
123.3
 31
0.0
  0
ARC
  5
190B1
  8
DANMEN
  6
CONTINUOUS
 10
207.500002
 20
119.5
 30
0.0
 40
0.5
 50
270.000018
 51
0.0
  0
ARC
  5
190B2
  8
DANMEN
  6
CONTINUOUS
 10
207.500002
 20
122.0
 30
0.0
 40
0.5
 50
359.999981
 51
90.000037
  0
LINE
  5
190B3
  8
DANMEN
  6
CONTINUOUS
 10
208.000002
 20
122.0
 30
0.0
 11
208.000002
 21
119.5
 31
0.0
  0
LINE
  5
190B5
  8
DANMEN
  6
CONTINUOUS
 10
208.0
 20
119.0
 30
0.0
 11
208.0
 21
122.5
 31
0.0
  0
LINE
  5
190B6
  8
DANMEN
  6
CONTINUOUS
 10
310.000003
 20
69.999997
 30
0.0
 11
310.000003
 21
99.499997
 31
0.0
  0
LINE
  5
190B7
  8
DANMEN
  6
CONTINUOUS
 10
270.000003
 20
69.999997
 30
0.0
 11
270.000003
 21
121.999997
 31
0.0
  0
LINE
  5
190B8
  8
DANMEN
  6
CONTINUOUS
 10
308.000006
 20
71.999997
 30
0.0
 11
308.000006
 21
90.499997
 31
0.0
  0
LINE
  5
190B9
  8
DANMEN
  6
CONTINUOUS
 10
272.0
 20
71.999997
 30
0.0
 11
272.0
 21
90.499997
 31
0.0
  0
LINE
  5
190BA
  8
DANMEN
  6
CONTINUOUS
 10
308.000003
 20
67.999997
 30
0.0
 11
272.000003
 21
67.999997
 31
0.0
  0
LINE
  5
190BB
  8
DANMEN
  6
CONTINUOUS
 10
308.000006
 20
71.999997
 30
0.0
 11
272.0
 21
71.999997
 31
0.0
  0
ARC
  5
190BC
  8
DANMEN
  6
CONTINUOUS
 10
272.000003
 20
69.999997
 30
0.0
 40
2.0
 50
179.999981
 51
270.000018
  0
ARC
  5
190BD
  8
DANMEN
  6
CONTINUOUS
 10
308.000003
 20
69.999997
 30
0.0
 40
2.0
 50
270.000018
 51
0.0
  0
LINE
  5
190BE
  8
DANMEN
  6
CONTINUOUS
 10
305.0
 20
115.55
 30
0.0
 11
295.300003
 21
115.55
 31
0.0
  0
LINE
  5
190BF
  8
DANMEN
  6
CONTINUOUS
 10
309.499999
 20
117.5
 30
0.0
 11
293.000003
 21
117.5
 31
0.0
  0
LINE
  5
190C0
  8
DANMEN
  6
CONTINUOUS
 10
308.000006
 20
90.499997
 30
0.0
 11
272.0
 21
90.499997
 31
0.0
  0
LINE
  5
190C1
  8
DANMEN
  6
CONTINUOUS
 10
308.900006
 20
92.449994
 30
0.0
 11
285.000003
 21
92.449994
 31
0.0
  0
LINE
  5
190C2
  8
DANMEN
  6
CONTINUOUS
 10
295.000003
 20
121.5
 30
0.0
 11
298.500003
 21
121.5
 31
0.0
  0
LINE
  5
190C3
  8
DANMEN
  6
CONTINUOUS
 10
288.800003
 20
120.0
 30
0.0
 11
299.000003
 21
120.0
 31
0.0
  0
LINE
  5
190C4
  8
DANMEN
  6
CONTINUOUS
 10
285.000003
 20
100.799994
 30
0.0
 11
303.000003
 21
100.799994
 31
0.0
  0
LINE
  5
190C5
  8
DANMEN
  6
CONTINUOUS
 10
303.000003
 20
100.799994
 30
0.0
 11
285.000003
 21
110.799994
 31
0.0
  0
LINE
  5
190C6
  8
DANMEN
  6
CONTINUOUS
 10
285.000003
 20
110.799994
 30
0.0
 11
303.000003
 21
110.799994
 31
0.0
  0
LINE
  5
190C7
  8
DANMEN
  6
CONTINUOUS
 10
298.500003
 20
122.5
 30
0.0
 11
294.473613
 21
122.5
 31
0.0
  0
LINE
  5
190C8
  8
DANMEN
  6
CONTINUOUS
 10
271.95
 20
92.449994
 30
0.0
 11
271.95
 21
114.55
 31
0.0
  0
LINE
  5
190C9
  8
DANMEN
  6
CONTINUOUS
 10
283.050006
 20
92.449994
 30
0.0
 11
283.050006
 21
115.55
 31
0.0
  0
LINE
  5
190CA
  8
DANMEN
  6
CONTINUOUS
 10
285.000003
 20
92.449994
 30
0.0
 11
285.000003
 21
110.799991
 31
0.0
  0
LINE
  5
190CB
  8
DANMEN
  6
CONTINUOUS
 10
283.050006
 20
92.449994
 30
0.0
 11
271.95
 21
92.449994
 31
0.0
  0
LINE
  5
190CC
  8
DANMEN
  6
CONTINUOUS
 10
283.050006
 20
115.55
 30
0.0
 11
271.65
 21
115.55
 31
0.0
  0
LINE
  5
190CD
  8
DANMEN
  6
CONTINUOUS
 10
283.050006
 20
117.499997
 30
0.0
 11
276.750003
 21
117.499997
 31
0.0
  0
LINE
  5
190CE
  8
DANMEN
  6
CONTINUOUS
 10
276.800003
 20
122.5
 30
0.0
 11
283.183979
 21
122.5
 31
0.0
  0
LINE
  5
190CF
  8
DANMEN
  6
CONTINUOUS
 10
275.750003
 20
117.499997
 30
0.0
 11
271.200003
 21
117.499997
 31
0.0
  0
LINE
  5
190D0
  8
DANMEN
  6
CONTINUOUS
 10
272.58967
 20
121.8
 30
0.0
 11
275.800003
 21
121.8
 31
0.0
  0
LINE
  5
190D1
  8
DANMEN
  6
CONTINUOUS
 10
272.900002
 20
119.5
 30
0.0
 11
272.400002
 21
119.0
 31
0.0
  0
LINE
  5
190D2
  8
DANMEN
  6
CONTINUOUS
 10
271.200003
 20
117.499997
 30
0.0
 11
271.200003
 21
120.199994
 31
0.0
  0
LINE
  5
190D3
  8
DANMEN
  6
CONTINUOUS
 10
271.65
 20
114.55
 30
0.0
 11
271.65
 21
115.55
 31
0.0
  0
LINE
  5
190D4
  8
DANMEN
  6
CONTINUOUS
 10
271.95
 20
114.55
 30
0.0
 11
271.65
 21
114.55
 31
0.0
  0
LINE
  5
190D5
  8
DANMEN
  6
CONTINUOUS
 10
272.250003
 20
120.199994
 30
0.0
 11
272.250003
 21
120.499997
 31
0.0
  0
LINE
  5
190D6
  8
DANMEN
  6
CONTINUOUS
 10
272.250003
 20
120.199994
 30
0.0
 11
271.200003
 21
120.199994
 31
0.0
  0
LINE
  5
190D7
  8
DANMEN
  6
CONTINUOUS
 10
271.750003
 20
120.999997
 30
0.0
 11
271.200003
 21
120.999997
 31
0.0
  0
ARC
  5
190D8
  8
DANMEN
  6
CONTINUOUS
 10
271.750003
 20
120.499997
 30
0.0
 40
0.5
 50
360.0
 51
89.999982
  0
LINE
  5
190D9
  8
DANMEN
  6
CONTINUOUS
 10
270.500003
 20
122.499997
 30
0.0
 11
270.700003
 21
122.499997
 31
0.0
  0
ARC
  5
190DA
  8
DANMEN
  6
CONTINUOUS
 10
270.500003
 20
121.999997
 30
0.0
 40
0.5
 50
90.0
 51
180.0
  0
LINE
  5
190DB
  8
DANMEN
  6
CONTINUOUS
 10
271.200003
 20
120.999997
 30
0.0
 11
271.200003
 21
121.999997
 31
0.0
  0
ARC
  5
190DC
  8
DANMEN
  6
CONTINUOUS
 10
270.700003
 20
121.999997
 30
0.0
 40
0.5
 50
0.0
 51
90.0
  0
LINE
  5
190DE
  8
DANMEN
  6
CONTINUOUS
 10
272.400002
 20
121.0
 30
0.0
 11
272.400002
 21
120.0
 31
0.0
  0
LINE
  5
190DF
  8
DANMEN
  6
CONTINUOUS
 10
271.600002
 20
120.0
 30
0.0
 11
272.400002
 21
120.0
 31
0.0
  0
LINE
  5
190E0
  8
DANMEN
  6
CONTINUOUS
 10
271.400002
 20
119.8
 30
0.0
 11
271.400002
 21
119.0
 31
0.0
  0
ARC
  5
190E1
  8
DANMEN
  6
CONTINUOUS
 10
271.600002
 20
119.8
 30
0.0
 40
0.2
 50
89.999982
 51
180.000019
  0
LINE
  5
190E2
  8
DANMEN
  6
CONTINUOUS
 10
271.400002
 20
121.0
 30
0.0
 11
272.400002
 21
121.0
 31
0.0
  0
LINE
  5
190E6
  8
DANMEN
  6
CONTINUOUS
 10
271.400002
 20
121.0
 30
0.0
 11
271.400002
 21
121.8
 31
0.0
  0
LINE
  5
190E9
  8
DANMEN
  6
CONTINUOUS
 10
272.400002
 20
119.0
 30
0.0
 11
271.400002
 21
119.0
 31
0.0
  0
LINE
  5
190ED
  8
DANMEN
  6
CONTINUOUS
 10
276.750003
 20
117.499997
 30
0.0
 11
276.750003
 21
120.499997
 31
0.0
  0
LINE
  5
190EE
  8
DANMEN
  6
CONTINUOUS
 10
275.750003
 20
117.499997
 30
0.0
 11
275.750003
 21
120.199994
 31
0.0
  0
LINE
  5
190EF
  8
DANMEN
  6
CONTINUOUS
 10
276.250003
 20
120.999997
 30
0.0
 11
275.250003
 21
120.999997
 31
0.0
  0
LINE
  5
190F0
  8
DANMEN
  6
CONTINUOUS
 10
274.750003
 20
120.199994
 30
0.0
 11
274.750003
 21
120.499997
 31
0.0
  0
LINE
  5
190F1
  8
DANMEN
  6
CONTINUOUS
 10
275.750003
 20
120.199994
 30
0.0
 11
274.750003
 21
120.199994
 31
0.0
  0
ARC
  5
190F2
  8
DANMEN
  6
CONTINUOUS
 10
275.250003
 20
120.499997
 30
0.0
 40
0.5
 50
89.999982
 51
180.000019
  0
ARC
  5
190F3
  8
DANMEN
  6
CONTINUOUS
 10
276.250003
 20
120.499997
 30
0.0
 40
0.5
 50
360.0
 51
89.999982
  0
LINE
  5
190F5
  8
DANMEN
  6
CONTINUOUS
 10
274.600003
 20
121.0
 30
0.0
 11
274.600003
 21
120.0
 31
0.0
  0
LINE
  5
190F6
  8
DANMEN
  6
CONTINUOUS
 10
275.400003
 20
120.0
 30
0.0
 11
274.600003
 21
120.0
 31
0.0
  0
LINE
  5
190F7
  8
DANMEN
  6
CONTINUOUS
 10
275.600003
 20
119.8
 30
0.0
 11
275.600003
 21
119.0
 31
0.0
  0
ARC
  5
190F8
  8
DANMEN
  6
CONTINUOUS
 10
275.400003
 20
119.8
 30
0.0
 40
0.2
 50
359.999981
 51
90.000037
  0
LINE
  5
190FC
  8
DANMEN
  6
CONTINUOUS
 10
275.600003
 20
119.0
 30
0.0
 11
274.600003
 21
119.0
 31
0.0
  0
LINE
  5
190FD
  8
DANMEN
  6
CONTINUOUS
 10
272.900002
 20
119.5
 30
0.0
 11
274.100003
 21
119.5
 31
0.0
  0
LINE
  5
19102
  8
DANMEN
  6
CONTINUOUS
 10
274.600003
 20
119.0
 30
0.0
 11
274.100003
 21
119.5
 31
0.0
  0
LINE
  5
19103
  8
DANMEN
  6
CONTINUOUS
 10
274.600003
 20
121.0
 30
0.0
 11
276.800003
 21
121.0
 31
0.0
  0
LINE
  5
19106
  8
DANMEN
  6
CONTINUOUS
 10
285.588049
 20
113.115608
 30
0.0
 11
286.499108
 21
111.8
 31
0.0
  0
LINE
  5
19107
  8
DANMEN
  6
CONTINUOUS
 10
290.401086
 20
113.8
 30
0.0
 11
287.699108
 21
111.8
 31
0.0
  0
LINE
  5
19108
  8
DANMEN
  6
CONTINUOUS
 10
285.000003
 20
111.999991
 30
0.0
 11
285.000003
 21
115.549997
 31
0.0
  0
LINE
  5
19109
  8
DANMEN
  6
CONTINUOUS
 10
291.000003
 20
110.799991
 30
0.0
 11
285.000003
 21
110.799991
 31
0.0
  0
LINE
  5
1910A
  8
DANMEN
  6
CONTINUOUS
 10
289.000003
 20
111.999991
 30
0.0
 11
290.598061
 21
111.680379
 31
0.0
  0
LINE
  5
1910B
  8
DANMEN
  6
CONTINUOUS
 10
289.000003
 20
111.999991
 30
0.0
 11
285.000003
 21
111.999991
 31
0.0
  0
LINE
  5
1910C
  8
DANMEN
  6
CONTINUOUS
 10
287.699108
 20
111.8
 30
0.0
 11
286.499108
 21
111.8
 31
0.0
  0
LINE
  5
1910D
  8
DANMEN
  6
CONTINUOUS
 10
291.000003
 20
111.190089
 30
0.0
 11
291.000003
 21
110.799991
 31
0.0
  0
ARC
  5
1910E
  8
DANMEN
  6
CONTINUOUS
 10
290.500003
 20
111.190089
 30
0.0
 40
0.5
 50
0.0
 51
78.690068
  0
LINE
  5
1910F
  8
DANMEN
  6
CONTINUOUS
 10
290.413124
 20
115.301883
 30
0.0
 11
287.436097
 21
113.098292
 31
0.0
  0
LINE
  5
19110
  8
DANMEN
  6
CONTINUOUS
 10
294.250006
 20
122.999997
 30
0.0
 11
284.050003
 21
122.999997
 31
0.0
  0
LINE
  5
19111
  8
DANMEN
  6
CONTINUOUS
 10
288.550006
 20
120.699997
 30
0.0
 11
294.335151
 21
122.412333
 31
0.0
  0
LINE
  5
19112
  8
DANMEN
  6
CONTINUOUS
 10
284.550006
 20
117.499997
 30
0.0
 11
293.000003
 21
117.499997
 31
0.0
  0
LINE
  5
19113
  8
DANMEN
  6
CONTINUOUS
 10
291.000003
 20
115.549997
 30
0.0
 11
285.000003
 21
115.549997
 31
0.0
  0
LINE
  5
19114
  8
DANMEN
  6
CONTINUOUS
 10
294.500003
 20
122.3
 30
0.0
 11
288.714858
 21
120.587664
 31
0.0
  0
LINE
  5
19115
  8
DANMEN
  6
CONTINUOUS
 10
284.550003
 20
117.499997
 30
0.0
 11
284.550003
 21
121.499997
 31
0.0
  0
LINE
  5
19116
  8
DANMEN
  6
CONTINUOUS
 10
283.050006
 20
117.499997
 30
0.0
 11
283.050006
 21
121.999997
 31
0.0
  0
LINE
  5
19117
  8
DANMEN
  6
CONTINUOUS
 10
285.499108
 20
113.400266
 30
0.0
 11
285.499108
 21
113.400136
 31
0.0
  0
LINE
  5
19118
  8
DANMEN
  6
CONTINUOUS
 10
285.999108
 20
113.900136
 30
0.0
 11
286.242473
 21
113.900136
 31
0.0
  0
ARC
  5
19119
  8
DANMEN
  6
CONTINUOUS
 10
285.999108
 20
113.400266
 30
0.0
 40
0.5
 50
180.0
 51
214.702622
  0
ARC
  5
1911A
  8
DANMEN
  6
CONTINUOUS
 10
285.999108
 20
113.400136
 30
0.0
 40
0.5
 50
90.0
 51
180.0
  0
LINE
  5
1911B
  8
DANMEN
  6
CONTINUOUS
 10
286.653532
 20
113.684794
 30
0.0
 11
287.010978
 21
113.168627
 31
0.0
  0
ARC
  5
1911C
  8
DANMEN
  6
CONTINUOUS
 10
287.257613
 20
113.339422
 30
0.0
 40
0.3
 50
214.702622
 51
306.508792
  0
ARC
  5
1911D
  8
DANMEN
  6
CONTINUOUS
 10
286.242473
 20
113.400136
 30
0.0
 40
0.5
 50
34.702622
 51
90.0
  0
LINE
  5
1911E
  8
DANMEN
  6
CONTINUOUS
 10
288.050006
 20
121.499997
 30
0.0
 11
284.550003
 21
121.499997
 31
0.0
  0
ARC
  5
1911F
  8
DANMEN
  6
CONTINUOUS
 10
284.050003
 20
121.999997
 30
0.0
 40
1.0
 50
89.999982
 51
180.000019
  0
LINE
  5
19120
  8
DANMEN
  6
CONTINUOUS
 10
288.050006
 20
121.499997
 30
0.0
 11
288.050006
 21
120.699997
 31
0.0
  0
LINE
  5
19121
  8
DANMEN
  6
CONTINUOUS
 10
288.550006
 20
120.699997
 30
0.0
 11
288.050006
 21
120.699997
 31
0.0
  0
ARC
  5
19122
  8
DANMEN
  6
CONTINUOUS
 10
288.800003
 20
120.3
 30
0.0
 40
0.3
 50
106.488148
 51
270.0
  0
LINE
  5
19125
  8
DANMEN
  6
CONTINUOUS
 10
294.300003
 20
113.8
 30
0.0
 11
290.401086
 21
113.8
 31
0.0
  0
LINE
  5
19126
  8
DANMEN
  6
CONTINUOUS
 10
293.300003
 20
115.0
 30
0.0
 11
291.300003
 21
115.0
 31
0.0
  0
LINE
  5
19127
  8
DANMEN
  6
CONTINUOUS
 10
293.300003
 20
116.0
 30
0.0
 11
293.300003
 21
115.0
 31
0.0
  0
LINE
  5
19128
  8
DANMEN
  6
CONTINUOUS
 10
293.000003
 20
117.5
 30
0.0
 11
293.000003
 21
116.0
 31
0.0
  0
LINE
  5
19129
  8
DANMEN
  6
CONTINUOUS
 10
293.300003
 20
116.0
 30
0.0
 11
293.000003
 21
116.0
 31
0.0
  0
LINE
  5
1912A
  8
DANMEN
  6
CONTINUOUS
 10
290.734317
 20
115.4
 30
0.0
 11
290.710597
 21
115.4
 31
0.0
  0
ARC
  5
1912B
  8
DANMEN
  6
CONTINUOUS
 10
290.710597
 20
114.9
 30
0.0
 40
0.5
 50
90.0
 51
126.508792
  0
ARC
  5
1912C
  8
DANMEN
  6
CONTINUOUS
 10
291.300003
 20
115.3
 30
0.0
 40
0.3
 50
199.471221
 51
270.0
  0
ARC
  5
1912E
  8
DANMEN
  6
CONTINUOUS
 10
290.734317
 20
115.1
 30
0.0
 40
0.3
 50
19.471221
 51
90.0
  0
LINE
  5
19130
  8
DANMEN
  6
CONTINUOUS
 10
293.000003
 20
117.499997
 30
0.0
 11
293.000003
 21
115.842196
 31
0.0
  0
ARC
  5
19131
  8
DANMEN
  6
CONTINUOUS
 10
291.300003
 20
115.299997
 30
0.0
 40
0.3
 50
180.0
 51
270.0
  0
LINE
  5
19132
  8
DANMEN
  6
CONTINUOUS
 10
291.000003
 20
115.299997
 30
0.0
 11
291.000003
 21
115.549997
 31
0.0
  0
LINE
  5
19133
  8
DANMEN
  6
CONTINUOUS
 10
292.211148
 20
115.10557
 30
0.0
 11
292.745426
 21
115.406572
 31
0.0
  0
ARC
  5
19134
  8
DANMEN
  6
CONTINUOUS
 10
291.763935
 20
115.999997
 30
0.0
 40
1.0
 50
270.0
 51
296.565051
  0
ARC
  5
19135
  8
DANMEN
  6
CONTINUOUS
 10
292.500003
 20
115.842196
 30
0.0
 40
0.5
 50
299.396173
 51
0.0
  0
LINE
  5
19136
  8
DANMEN
  6
CONTINUOUS
 10
291.300003
 20
114.999997
 30
0.0
 11
291.763935
 21
114.999997
 31
0.0
  0
ARC
  5
19137
  8
DANMEN
  6
CONTINUOUS
 10
295.300003
 20
115.05
 30
0.0
 40
0.5
 50
90.0
 51
180.0
  0
LINE
  5
19138
  8
DANMEN
  6
CONTINUOUS
 10
294.800003
 20
115.05
 30
0.0
 11
294.800003
 21
114.3
 31
0.0
  0
ARC
  5
19139
  8
DANMEN
  6
CONTINUOUS
 10
294.300003
 20
114.3
 30
0.0
 40
0.5
 50
270.0
 51
0.0
  0
ARC
  5
1913A
  8
DANMEN
  6
CONTINUOUS
 10
294.250006
 20
122.699997
 30
0.0
 40
0.3
 50
286.488148
 51
90.0
  0
LINE
  5
1913E
  8
DANMEN
  6
CONTINUOUS
 10
295.000003
 20
121.5
 30
0.0
 11
295.000003
 21
122.3
 31
0.0
  0
LINE
  5
19140
  8
DANMEN
  6
CONTINUOUS
 10
294.500003
 20
122.3
 30
0.0
 11
295.000003
 21
122.3
 31
0.0
  0
ARC
  5
19141
  8
DANMEN
  6
CONTINUOUS
 10
311.0
 20
101.0
 30
0.0
 40
1.5
 50
269.999964
 51
0.000001
  0
LINE
  5
19142
  8
DANMEN
  6
CONTINUOUS
 10
308.050003
 20
94.449994
 30
0.0
 11
308.050003
 21
98.999997
 31
0.0
  0
LINE
  5
19143
  8
DANMEN
  6
CONTINUOUS
 10
308.900003
 20
92.449994
 30
0.0
 11
308.900003
 21
94.449994
 31
0.0
  0
LINE
  5
19144
  8
DANMEN
  6
CONTINUOUS
 10
308.900006
 20
94.449994
 30
0.0
 11
308.050003
 21
94.449994
 31
0.0
  0
ARC
  5
19145
  8
DANMEN
  6
CONTINUOUS
 10
309.500003
 20
99.499997
 30
0.0
 40
0.5
 50
0.000019
 51
89.999982
  0
LINE
  5
19146
  8
DANMEN
  6
CONTINUOUS
 10
307.000003
 20
99.499997
 30
0.0
 11
307.000003
 21
99.999997
 31
0.0
  0
LINE
  5
19147
  8
DANMEN
  6
CONTINUOUS
 10
308.050003
 20
98.999997
 30
0.0
 11
307.500003
 21
98.999997
 31
0.0
  0
ARC
  5
19148
  8
DANMEN
  6
CONTINUOUS
 10
307.500003
 20
99.499997
 30
0.0
 40
0.5
 50
180.0
 51
270.0
  0
LINE
  5
19149
  8
DANMEN
  6
CONTINUOUS
 10
309.500003
 20
99.999997
 30
0.0
 11
307.000003
 21
99.999997
 31
0.0
  0
ARC
  5
1914A
  8
DANMEN
  6
CONTINUOUS
 10
314.0
 20
103.500006
 30
0.0
 40
1.5
 50
90.0
 51
179.999982
  0
ARC
  5
1914B
  8
DANMEN
  6
CONTINUOUS
 10
314.0
 20
111.500009
 30
0.0
 40
1.5
 50
179.999982
 51
269.999964
  0
LINE
  5
1914C
  8
DANMEN
  6
CONTINUOUS
 10
312.5
 20
111.500009
 30
0.0
 11
312.5
 21
114.0
 31
0.0
  0
LINE
  5
1914D
  8
DANMEN
  6
CONTINUOUS
 10
303.0
 20
110.000002
 30
0.0
 11
303.0
 21
104.999998
 31
0.0
  0
LINE
  5
1914E
  8
DANMEN
  6
CONTINUOUS
 10
303.000003
 20
110.799994
 30
0.0
 11
303.000003
 21
100.799994
 31
0.0
  0
LINE
  5
1914F
  8
DANMEN
  6
CONTINUOUS
 10
312.5
 20
101.0
 30
0.0
 11
312.5
 21
103.500006
 31
0.0
  0
LINE
  5
19151
  8
DANMEN
  6
CONTINUOUS
 10
306.0
 20
115.0
 30
0.0
 11
305.0
 21
115.0
 31
0.0
  0
LINE
  5
19152
  8
DANMEN
  6
CONTINUOUS
 10
300.0
 20
122.5
 30
0.0
 11
308.8
 21
122.5
 31
0.0
  0
LINE
  5
19153
  8
DANMEN
  6
CONTINUOUS
 10
305.0
 20
115.55
 30
0.0
 11
305.0
 21
115.0
 31
0.0
  0
ARC
  5
19156
  8
DANMEN
  6
CONTINUOUS
 10
299.000003
 20
121.0
 30
0.0
 40
1.0
 50
270.000018
 51
0.0
  0
ARC
  5
19159
  8
DANMEN
  6
CONTINUOUS
 10
309.5
 20
117.0
 30
0.0
 40
0.5
 50
0.000091
 51
90.000128
  0
ARC
  5
1915A
  8
DANMEN
  6
CONTINUOUS
 10
309.5
 20
115.5
 30
0.0
 40
0.5
 50
270.0
 51
0.0
  0
ARC
  5
1915B
  8
DANMEN
  6
CONTINUOUS
 10
306.5
 20
115.05
 30
0.0
 40
0.5
 50
90.0
 51
180.0
  0
LINE
  5
1915C
  8
DANMEN
  6
CONTINUOUS
 10
307.0
 20
115.55
 30
0.0
 11
307.0
 21
115.0
 31
0.0
  0
LINE
  5
1915D
  8
DANMEN
  6
CONTINUOUS
 10
307.0
 20
115.55
 30
0.0
 11
306.5
 21
115.55
 31
0.0
  0
LINE
  5
1915E
  8
DANMEN
  6
CONTINUOUS
 10
306.0
 20
115.05
 30
0.0
 11
306.0
 21
115.0
 31
0.0
  0
LINE
  5
1915F
  8
DANMEN
  6
CONTINUOUS
 10
309.499999
 20
115.0
 30
0.0
 11
307.0
 21
115.0
 31
0.0
  0
ARC
  5
19160
  8
DANMEN
  6
CONTINUOUS
 10
311.0
 20
114.0
 30
0.0
 40
1.5
 50
0.000018
 51
90.0
  0
LINE
  5
19161
  8
DANMEN
  6
CONTINUOUS
 10
310.0
 20
117.0
 30
0.0
 11
310.0
 21
115.5
 31
0.0
  0
ARC
  5
19162
  8
DANMEN
  6
CONTINUOUS
 10
309.400003
 20
121.1
 30
0.0
 40
0.6
 50
180.0
 51
0.0
  0
LINE
  5
19165
  8
SUNPO
  6
CONTINUOUS
 10
39.0
 20
38.0
 30
0.0
 11
39.0
 21
20.5
 31
0.0
  0
LINE
  5
19166
  8
SUNPO
  6
CONTINUOUS
 10
19.0
 20
30.5
 30
0.0
 11
19.0
 21
39.5
 31
0.0
  0
LINE
  5
19167
  8
SUNPO
  6
CONTINUOUS
 10
49.5
 20
30.5
 30
0.0
 11
19.0
 21
30.5
 31
0.0
  0
ARC
  5
19168
  8
SUNPO
  6
BYBLOCK
 10
19.0
 20
30.5
 30
0.0
 40
0.145
 50
270.0
 51
90.0
  0
ARC
  5
19169
  8
SUNPO
  6
BYBLOCK
 10
19.0
 20
30.5
 30
0.0
 40
0.145
 50
90.0
 51
270.0
  0
TEXT
  5
1916A
  8
SUNPO
  6
CONTINUOUS
 10
43.333333
 20
21.5
 30
0.0
 40
2.5
  1
12
  7
MX_NOTE_STANDARD
  0
LINE
  5
1916B
  8
SUNPO
  6
CONTINUOUS
 10
39.0
 20
20.5
 30
0.0
 11
51.0
 21
20.5
 31
0.0
  0
ARC
  5
1916C
  8
SUNPO
  6
BYBLOCK
 10
39.0
 20
20.5
 30
0.0
 40
0.145
 50
180.0
 51
0.0
  0
ARC
  5
1916D
  8
SUNPO
  6
BYBLOCK
 10
39.0
 20
20.5
 30
0.0
 40
0.145
 50
0.0
 51
180.0
  0
LINE
  5
1916E
  8
SUNPO
  6
CONTINUOUS
 10
51.0
 20
29.0
 30
0.0
 11
51.0
 21
20.5
 31
0.0
  0
ARC
  5
1916F
  8
SUNPO
  6
BYBLOCK
 10
51.0
 20
20.5
 30
0.0
 40
0.145
 50
0.0
 51
180.0
  0
ARC
  5
19170
  8
SUNPO
  6
BYBLOCK
 10
51.0
 20
20.5
 30
0.0
 40
0.145
 50
180.0
 51
0.0
  0
LINE
  5
19171
  8
DANMEN
  6
CONTINUOUS
 10
360.500004
 20
117.5
 30
0.0
 11
377.0
 21
117.5
 31
0.0
  0
LINE
  5
19172
  8
DANMEN
  6
CONTINUOUS
 10
363.000003
 20
115.55
 30
0.0
 11
363.500003
 21
115.55
 31
0.0
  0
LINE
  5
19173
  8
DANMEN
  6
CONTINUOUS
 10
360.5
 20
97.5
 30
0.0
 11
370.0
 21
97.5
 31
0.0
  0
LINE
  5
19174
  8
DANMEN
  6
CONTINUOUS
 10
363.0
 20
99.15
 30
0.0
 11
371.15
 21
99.15
 31
0.0
  0
LINE
  5
19175
  8
DANMEN
  6
CONTINUOUS
 10
336.5
 20
88.15
 30
0.0
 11
370.0
 21
88.15
 31
0.0
  0
LINE
  5
19176
  8
DANMEN
  6
CONTINUOUS
 10
367.0
 20
105.500014
 30
0.0
 11
336.5
 21
105.500014
 31
0.0
  0
LINE
  5
19177
  8
DANMEN
  6
CONTINUOUS
 10
367.0
 20
109.500002
 30
0.0
 11
336.5
 21
109.500002
 31
0.0
  0
LINE
  5
19178
  8
DANMEN
  6
CONTINUOUS
 10
367.0
 20
105.000014
 30
0.0
 11
336.5
 21
105.000014
 31
0.0
  0
LINE
  5
19179
  8
DANMEN
  6
CONTINUOUS
 10
367.0
 20
110.000002
 30
0.0
 11
336.5
 21
110.000002
 31
0.0
  0
LINE
  5
1917A
  8
DANMEN
  6
CONTINUOUS
 10
336.5
 20
122.5
 30
0.0
 11
385.0
 21
122.5
 31
0.0
  0
LINE
  5
1917B
  8
DANMEN
  6
CONTINUOUS
 10
336.5
 20
86.5
 30
0.0
 11
370.0
 21
86.5
 31
0.0
  0
ARC
  5
1917C
  8
DANMEN
  6
CONTINUOUS
 10
359.000092
 20
101.000015
 30
0.0
 40
1.5
 50
180.000018
 51
270.0
  0
LINE
  5
1917D
  8
DANMEN
  6
CONTINUOUS
 10
336.5
 20
97.5
 30
0.0
 11
360.5
 21
97.5
 31
0.0
  0
LINE
  5
1917E
  8
DANMEN
  6
CONTINUOUS
 10
336.5
 20
99.500015
 30
0.0
 11
360.0
 21
99.500015
 31
0.0
  0
ARC
  5
1917F
  8
DANMEN
  6
CONTINUOUS
 10
360.5
 20
98.0
 30
0.0
 40
0.5
 50
180.0
 51
269.999982
  0
ARC
  5
19180
  8
DANMEN
  6
CONTINUOUS
 10
360.5
 20
99.5
 30
0.0
 40
0.5
 50
89.999963
 51
180.000019
  0
LINE
  5
19181
  8
DANMEN
  6
CONTINUOUS
 10
363.0
 20
100.0
 30
0.0
 11
363.0
 21
99.15
 31
0.0
  0
LINE
  5
19182
  8
DANMEN
  6
CONTINUOUS
 10
360.0
 20
99.5
 30
0.0
 11
360.0
 21
98.0
 31
0.0
  0
LINE
  5
19183
  8
DANMEN
  6
CONTINUOUS
 10
360.5
 20
100.0
 30
0.0
 11
363.0
 21
100.0
 31
0.0
  0
LINE
  5
19184
  8
DANMEN
  6
CONTINUOUS
 10
336.5
 20
115.500015
 30
0.0
 11
360.0
 21
115.500015
 31
0.0
  0
LINE
  5
19185
  8
DANMEN
  6
CONTINUOUS
 10
336.5
 20
117.5
 30
0.0
 11
360.0
 21
117.5
 31
0.0
  0
LINE
  5
19186
  8
DANMEN
  6
CONTINUOUS
 10
357.500092
 20
114.000015
 30
0.0
 11
357.500092
 21
111.500009
 31
0.0
  0
ARC
  5
19187
  8
DANMEN
  6
CONTINUOUS
 10
356.000092
 20
103.500006
 30
0.0
 40
1.5
 50
359.999982
 51
89.999964
  0
LINE
  5
19188
  8
DANMEN
  6
CONTINUOUS
 10
357.500092
 20
103.500006
 30
0.0
 11
357.500092
 21
101.000015
 31
0.0
  0
ARC
  5
19189
  8
DANMEN
  6
CONTINUOUS
 10
356.000092
 20
111.500009
 30
0.0
 40
1.5
 50
270.0
 51
359.999982
  0
ARC
  5
1918B
  8
DANMEN
  6
CONTINUOUS
 10
359.000092
 20
114.000015
 30
0.0
 40
1.5
 50
89.999964
 51
180.000001
  0
ARC
  5
1918C
  8
DANMEN
  6
CONTINUOUS
 10
360.500003
 20
117.0
 30
0.0
 40
0.5
 50
89.999872
 51
179.999909
  0
LINE
  5
1918D
  8
DANMEN
  6
CONTINUOUS
 10
360.000003
 20
117.0
 30
0.0
 11
360.000003
 21
115.5
 31
0.0
  0
LINE
  5
1918E
  8
DANMEN
  6
CONTINUOUS
 10
363.000003
 20
115.55
 30
0.0
 11
363.000003
 21
115.0
 31
0.0
  0
ARC
  5
1918F
  8
DANMEN
  6
CONTINUOUS
 10
360.500003
 20
115.5
 30
0.0
 40
0.5
 50
180.0
 51
270.0
  0
LINE
  5
19190
  8
DANMEN
  6
CONTINUOUS
 10
360.500004
 20
115.0
 30
0.0
 11
363.000003
 21
115.0
 31
0.0
  0
LINE
  5
19191
  8
DANMEN
  6
CONTINUOUS
 10
385.0
 20
87.599997
 30
0.0
 11
385.0
 21
110.799994
 31
0.0
  0
LINE
  5
19192
  8
DANMEN
  6
CONTINUOUS
 10
370.5
 20
86.5
 30
0.0
 11
394.5
 21
86.5
 31
0.0
  0
LINE
  5
19193
  8
DANMEN
  6
CONTINUOUS
 10
371.65
 20
88.15
 30
0.0
 11
383.0
 21
88.15
 31
0.0
  0
LINE
  5
19194
  8
DANMEN
  6
CONTINUOUS
 10
370.0
 20
97.5
 30
0.0
 11
370.0
 21
87.0
 31
0.0
  0
LINE
  5
19195
  8
DANMEN
  6
CONTINUOUS
 10
371.65
 20
98.65
 30
0.0
 11
371.65
 21
88.15
 31
0.0
  0
ARC
  5
19196
  8
DANMEN
  6
CONTINUOUS
 10
370.5
 20
87.0
 30
0.0
 40
0.5
 50
180.0
 51
270.0
  0
ARC
  5
19197
  8
DANMEN
  6
CONTINUOUS
 10
371.15
 20
98.65
 30
0.0
 40
0.5
 50
0.0
 51
90.0
  0
LINE
  5
19198
  8
DANMEN
  6
CONTINUOUS
 10
393.350006
 20
92.0
 30
0.0
 11
393.350006
 21
88.149994
 31
0.0
  0
LINE
  5
19199
  8
DANMEN
  6
CONTINUOUS
 10
395.0
 20
92.0
 30
0.0
 11
395.0
 21
87.0
 31
0.0
  0
LINE
  5
1919A
  8
DANMEN
  6
CONTINUOUS
 10
393.350006
 20
88.149994
 30
0.0
 11
386.649994
 21
88.149994
 31
0.0
  0
LINE
  5
1919B
  8
DANMEN
  6
CONTINUOUS
 10
385.0
 20
87.599997
 30
0.0
 11
383.0
 21
87.599997
 31
0.0
  0
LINE
  5
1919C
  8
DANMEN
  6
CONTINUOUS
 10
383.0
 20
87.599997
 30
0.0
 11
383.0
 21
88.149994
 31
0.0
  0
ARC
  5
1919D
  8
DANMEN
  6
CONTINUOUS
 10
394.5
 20
87.0
 30
0.0
 40
0.5
 50
270.000018
 51
359.999981
  0
ARC
  5
1919E
  8
DANMEN
  6
CONTINUOUS
 10
394.5
 20
92.0
 30
0.0
 40
0.5
 50
359.999981
 51
90.000037
  0
ARC
  5
1919F
  8
DANMEN
  6
CONTINUOUS
 10
393.850006
 20
92.0
 30
0.0
 40
0.5
 50
90.000037
 51
180.000019
  0
LINE
  5
191A0
  8
DANMEN
  6
CONTINUOUS
 10
394.5
 20
92.5
 30
0.0
 11
393.850006
 21
92.5
 31
0.0
  0
LINE
  5
191A1
  8
DANMEN
  6
CONTINUOUS
 10
375.7
 20
113.8
 30
0.0
 11
379.598917
 21
113.8
 31
0.0
  0
ARC
  5
191A2
  8
DANMEN
  6
CONTINUOUS
 10
379.289406
 20
114.9
 30
0.0
 40
0.5
 50
53.491208
 51
90.0
  0
LINE
  5
191A3
  8
DANMEN
  6
CONTINUOUS
 10
381.0
 20
111.999994
 30
0.0
 11
379.401942
 21
111.680382
 31
0.0
  0
LINE
  5
191A4
  8
DANMEN
  6
CONTINUOUS
 10
379.0
 20
110.799994
 30
0.0
 11
385.0
 21
110.799994
 31
0.0
  0
LINE
  5
191A5
  8
DANMEN
  6
CONTINUOUS
 10
379.0
 20
115.85
 30
0.0
 11
385.0
 21
115.85
 31
0.0
  0
LINE
  5
191A6
  8
DANMEN
  6
CONTINUOUS
 10
385.0
 20
117.5
 30
0.0
 11
377.0
 21
117.5
 31
0.0
  0
LINE
  5
191A7
  8
DANMEN
  6
CONTINUOUS
 10
367.0
 20
110.000002
 30
0.0
 11
367.0
 21
104.999998
 31
0.0
  0
ARC
  5
191A8
  8
DANMEN
  6
CONTINUOUS
 10
379.5
 20
111.190092
 30
0.0
 40
0.5
 50
101.309932
 51
180.0
  0
LINE
  5
191A9
  8
DANMEN
  6
CONTINUOUS
 10
379.0
 20
111.190092
 30
0.0
 11
379.0
 21
110.799994
 31
0.0
  0
LINE
  5
191AA
  8
DANMEN
  6
CONTINUOUS
 10
365.000003
 20
115.55
 30
0.0
 11
374.7
 21
115.55
 31
0.0
  0
ARC
  5
191AB
  8
DANMEN
  6
CONTINUOUS
 10
363.500003
 20
115.05
 30
0.0
 40
0.5
 50
0.0
 51
90.0
  0
LINE
  5
191AC
  8
DANMEN
  6
CONTINUOUS
 10
364.000003
 20
115.0
 30
0.0
 11
365.000003
 21
115.0
 31
0.0
  0
LINE
  5
191AD
  8
DANMEN
  6
CONTINUOUS
 10
364.000003
 20
115.05
 30
0.0
 11
364.000003
 21
115.0
 31
0.0
  0
LINE
  5
191AE
  8
DANMEN
  6
CONTINUOUS
 10
365.000003
 20
115.55
 30
0.0
 11
365.000003
 21
115.0
 31
0.0
  0
ARC
  5
191AF
  8
DANMEN
  6
CONTINUOUS
 10
375.7
 20
114.3
 30
0.0
 40
0.5
 50
180.0
 51
270.0
  0
ARC
  5
191B0
  8
DANMEN
  6
CONTINUOUS
 10
374.7
 20
115.05
 30
0.0
 40
0.5
 50
0.0
 51
90.0
  0
LINE
  5
191B1
  8
DANMEN
  6
CONTINUOUS
 10
375.2
 20
115.05
 30
0.0
 11
375.2
 21
114.3
 31
0.0
  0
LINE
  5
191B2
  8
DANMEN
  6
CONTINUOUS
 10
376.7
 20
115.0
 30
0.0
 11
378.7
 21
115.0
 31
0.0
  0
LINE
  5
191B3
  8
DANMEN
  6
CONTINUOUS
 10
376.7
 20
116.0
 30
0.0
 11
376.7
 21
115.0
 31
0.0
  0
LINE
  5
191B4
  8
DANMEN
  6
CONTINUOUS
 10
377.0
 20
117.5
 30
0.0
 11
377.0
 21
116.0
 31
0.0
  0
LINE
  5
191B5
  8
DANMEN
  6
CONTINUOUS
 10
376.7
 20
116.0
 30
0.0
 11
377.0
 21
116.0
 31
0.0
  0
LINE
  5
191B6
  8
DANMEN
  6
CONTINUOUS
 10
379.265685
 20
115.4
 30
0.0
 11
379.289406
 21
115.4
 31
0.0
  0
ARC
  5
191B7
  8
DANMEN
  6
CONTINUOUS
 10
378.7
 20
115.3
 30
0.0
 40
0.3
 50
270.0
 51
340.528779
  0
ARC
  5
191B9
  8
DANMEN
  6
CONTINUOUS
 10
379.265685
 20
115.1
 30
0.0
 40
0.3
 50
90.0
 51
160.528779
  0
LINE
  5
191BB
  8
DANMEN
  6
CONTINUOUS
 10
377.0
 20
117.5
 30
0.0
 11
377.0
 21
115.792199
 31
0.0
  0
ARC
  5
191BC
  8
DANMEN
  6
CONTINUOUS
 10
378.7
 20
115.3
 30
0.0
 40
0.3
 50
270.0
 51
0.0
  0
LINE
  5
191BD
  8
DANMEN
  6
CONTINUOUS
 10
379.0
 20
115.3
 30
0.0
 11
379.0
 21
115.85
 31
0.0
  0
LINE
  5
191BE
  8
DANMEN
  6
CONTINUOUS
 10
377.808854
 20
115.105573
 30
0.0
 11
377.254577
 21
115.356576
 31
0.0
  0
ARC
  5
191BF
  8
DANMEN
  6
CONTINUOUS
 10
378.256068
 20
116.0
 30
0.0
 40
1.0
 50
243.434949
 51
270.0
  0
ARC
  5
191C0
  8
DANMEN
  6
CONTINUOUS
 10
377.5
 20
115.792199
 30
0.0
 40
0.5
 50
180.0
 51
240.603827
  0
LINE
  5
191C1
  8
DANMEN
  6
CONTINUOUS
 10
378.7
 20
115.0
 30
0.0
 11
378.256068
 21
115.0
 31
0.0
  0
LINE
  5
191C2
  8
DANMEN
  6
CONTINUOUS
 10
384.411954
 20
113.115608
 30
0.0
 11
383.500895
 21
111.8
 31
0.0
  0
LINE
  5
191C3
  8
DANMEN
  6
CONTINUOUS
 10
379.598917
 20
113.8
 30
0.0
 11
382.300895
 21
111.8
 31
0.0
  0
LINE
  5
191C4
  8
DANMEN
  6
CONTINUOUS
 10
385.0
 20
111.999994
 30
0.0
 11
385.0
 21
115.85
 31
0.0
  0
LINE
  5
191C5
  8
DANMEN
  6
CONTINUOUS
 10
381.0
 20
111.999994
 30
0.0
 11
385.0
 21
111.999994
 31
0.0
  0
LINE
  5
191C6
  8
DANMEN
  6
CONTINUOUS
 10
382.300895
 20
111.8
 30
0.0
 11
383.500895
 21
111.8
 31
0.0
  0
ARC
  5
191C9
  8
DANMEN
  6
CONTINUOUS
 10
383.75753
 20
113.400136
 30
0.0
 40
0.5
 50
90.0
 51
145.297378
  0
LINE
  5
191CA
  8
DANMEN
  6
CONTINUOUS
 10
379.586879
 20
115.301883
 30
0.0
 11
382.563906
 21
113.098292
 31
0.0
  0
LINE
  5
191CB
  8
DANMEN
  6
CONTINUOUS
 10
383.346471
 20
113.684794
 30
0.0
 11
382.989025
 21
113.168627
 31
0.0
  0
ARC
  5
191CC
  8
DANMEN
  6
CONTINUOUS
 10
382.742389
 20
113.339422
 30
0.0
 40
0.3
 50
233.491208
 51
325.297378
  0
LINE
  5
191CD
  8
DANMEN
  6
CONTINUOUS
 10
384.500895
 20
113.400266
 30
0.0
 11
384.500895
 21
113.400136
 31
0.0
  0
LINE
  5
191CE
  8
DANMEN
  6
CONTINUOUS
 10
384.000895
 20
113.900136
 30
0.0
 11
383.75753
 21
113.900136
 31
0.0
  0
ARC
  5
191CF
  8
DANMEN
  6
CONTINUOUS
 10
384.000895
 20
113.400266
 30
0.0
 40
0.5
 50
325.297378
 51
0.0
  0
ARC
  5
191D0
  8
DANMEN
  6
CONTINUOUS
 10
384.000895
 20
113.400136
 30
0.0
 40
0.5
 50
0.0
 51
90.0
  0
LINE
  5
191D3
  8
SUNPO
  6
CONTINUOUS
 10
37.5
 20
39.5
 30
0.0
 11
19.0
 21
39.5
 31
0.0
  0
LINE
  5
191D4
  8
SUNPO
  6
CONTINUOUS
 10
37.5
 20
59.5
 30
0.0
 11
19.0
 21
59.5
 31
0.0
  0
LINE
  5
191D5
  8
SUNPO
  6
CONTINUOUS
 10
19.0
 20
39.5
 30
0.0
 11
19.0
 21
59.5
 31
0.0
  0
TEXT
  5
191D6
  8
SUNPO
  6
CONTINUOUS
 10
18.0
 20
34.166667
 30
0.0
 40
2.5
  1
9
 50
90.0
  7
MX_NOTE_STANDARD
  0
ARC
  5
191D7
  8
SUNPO
  6
BYBLOCK
 10
19.0
 20
39.5
 30
0.0
 40
0.145
 50
270.0
 51
90.0
  0
ARC
  5
191D8
  8
SUNPO
  6
BYBLOCK
 10
19.0
 20
39.5
 30
0.0
 40
0.145
 50
90.0
 51
270.0
  0
ARC
  5
191D9
  8
SUNPO
  6
BYBLOCK
 10
19.0
 20
39.5
 30
0.0
 40
0.145
 50
90.0
 51
270.0
  0
ARC
  5
191DA
  8
SUNPO
  6
BYBLOCK
 10
19.0
 20
39.5
 30
0.0
 40
0.145
 50
270.0
 51
90.0
  0
TEXT
  5
191DB
  8
SUNPO
  6
CONTINUOUS
 10
18.0
 20
47.625
 30
0.0
 40
2.5
  1
20
 50
90.0
  7
MX_NOTE_STANDARD
  0
TEXT
  5
191DC
  8
SUNPO
  6
CONTINUOUS
 10
28.0
 20
43.833333
 30
0.0
 40
2.5
  1
12
 50
90.0
  7
MX_NOTE_STANDARD
  0
ARC
  5
191DD
  8
SUNPO
  6
BYBLOCK
 10
19.0
 20
59.5
 30
0.0
 40
0.145
 50
90.0
 51
270.0
  0
ARC
  5
191DE
  8
SUNPO
  6
BYBLOCK
 10
19.0
 20
59.5
 30
0.0
 40
0.145
 50
270.0
 51
90.0
  0
ARC
  5
191DF
  8
SUNPO
  6
BYBLOCK
 10
19.0
 20
59.5
 30
0.0
 40
0.145
 50
270.0
 51
90.0
  0
ARC
  5
191E0
  8
SUNPO
  6
BYBLOCK
 10
19.0
 20
59.5
 30
0.0
 40
0.145
 50
90.0
 51
270.0
  0
TEXT
  5
191E1
  8
SUNPO
  6
CONTINUOUS
 10
28.0
 20
54.666667
 30
0.0
 40
2.5
  1
8
 50
90.0
  7
MX_NOTE_STANDARD
  0
TEXT
  5
191E2
  8
SUNPO
  6
CONTINUOUS
 10
28.0
 20
62.166667
 30
0.0
 40
2.5
  1
7
 50
90.0
  7
MX_NOTE_STANDARD
  0
LINE
  5
191E3
  8
SUNPO
  6
CONTINUOUS
 10
29.0
 20
51.5
 30
0.0
 11
29.0
 21
59.5
 31
0.0
  0
LINE
  5
191E4
  8
SUNPO
  6
CONTINUOUS
 10
29.0
 20
51.5
 30
0.0
 11
29.0
 21
39.5
 31
0.0
  0
ARC
  5
191E5
  8
SUNPO
  6
BYBLOCK
 10
29.0
 20
39.5
 30
0.0
 40
0.145
 50
270.0
 51
90.0
  0
ARC
  5
191E6
  8
SUNPO
  6
BYBLOCK
 10
29.0
 20
39.5
 30
0.0
 40
0.145
 50
90.0
 51
270.0
  0
LINE
  5
191E7
  8
SUNPO
  6
CONTINUOUS
 10
37.5
 20
51.5
 30
0.0
 11
29.0
 21
51.5
 31
0.0
  0
ARC
  5
191E8
  8
SUNPO
  6
BYBLOCK
 10
29.0
 20
51.5
 30
0.0
 40
0.145
 50
90.0
 51
270.0
  0
ARC
  5
191E9
  8
SUNPO
  6
BYBLOCK
 10
29.0
 20
51.5
 30
0.0
 40
0.145
 50
270.0
 51
90.0
  0
ARC
  5
191EA
  8
SUNPO
  6
BYBLOCK
 10
29.0
 20
51.5
 30
0.0
 40
0.145
 50
270.0
 51
90.0
  0
ARC
  5
191EB
  8
SUNPO
  6
BYBLOCK
 10
29.0
 20
51.5
 30
0.0
 40
0.145
 50
90.0
 51
270.0
  0
LINE
  5
191EC
  8
SUNPO
  6
CONTINUOUS
 10
29.0
 20
66.5
 30
0.0
 11
29.0
 21
59.5
 31
0.0
  0
ARC
  5
191ED
  8
SUNPO
  6
BYBLOCK
 10
29.0
 20
59.5
 30
0.0
 40
0.145
 50
90.0
 51
270.0
  0
ARC
  5
191EE
  8
SUNPO
  6
BYBLOCK
 10
29.0
 20
59.5
 30
0.0
 40
0.145
 50
270.0
 51
90.0
  0
ARC
  5
191EF
  8
SUNPO
  6
BYBLOCK
 10
29.0
 20
59.5
 30
0.0
 40
0.145
 50
270.0
 51
90.0
  0
ARC
  5
191F0
  8
SUNPO
  6
BYBLOCK
 10
29.0
 20
59.5
 30
0.0
 40
0.145
 50
90.0
 51
270.0
  0
LINE
  5
191F1
  8
SUNPO
  6
CONTINUOUS
 10
37.5
 20
66.5
 30
0.0
 11
29.0
 21
66.5
 31
0.0
  0
ARC
  5
191F2
  8
SUNPO
  6
BYBLOCK
 10
29.0
 20
66.5
 30
0.0
 40
0.145
 50
90.0
 51
270.0
  0
ARC
  5
191F3
  8
SUNPO
  6
BYBLOCK
 10
29.0
 20
66.5
 30
0.0
 40
0.145
 50
270.0
 51
90.0
  0
TEXT
  5
191F4
  8
SUNPO
  6
CONTINUOUS
 10
18.0
 20
104.416667
 30
0.0
 40
2.5
  1
94
 50
90.0
  7
MX_NOTE_STANDARD
  0
LINE
  5
191F5
  8
SUNPO
  6
CONTINUOUS
 10
210.0
 20
20.0
 30
0.0
 11
185.0
 21
20.0
 31
0.0
  0
LINE
  5
191F6
  8
SUNPO
  6
CONTINUOUS
 10
195.0
 20
40.0
 30
0.0
 11
185.0
 21
40.0
 31
0.0
  0
LINE
  5
191F7
  8
SUNPO
  6
CONTINUOUS
 10
185.0
 20
85.0
 30
0.0
 11
185.0
 21
20.0
 31
0.0
  0
LINE
  5
191F8
  8
SUNPO
  6
CONTINUOUS
 10
160.0
 20
39.5
 30
0.0
 11
160.0
 21
30.5
 31
0.0
  0
ARC
  5
191F9
  8
SUNPO
  6
BYBLOCK
 10
160.0
 20
30.5
 30
0.0
 40
0.145
 50
90.0
 51
270.0
  0
ARC
  5
191FA
  8
SUNPO
  6
BYBLOCK
 10
160.0
 20
30.5
 30
0.0
 40
0.145
 50
270.0
 51
90.0
  0
ARC
  5
191FB
  8
SUNPO
  6
BYBLOCK
 10
185.0
 20
20.0
 30
0.0
 40
0.15625
 50
180.0
 51
0.0
  0
ARC
  5
191FC
  8
SUNPO
  6
BYBLOCK
 10
185.0
 20
20.0
 30
0.0
 40
0.15625
 50
0.0
 51
180.0
  0
LINE
  5
191FD
  8
SUNPO
  6
CONTINUOUS
 10
110.5
 20
39.5
 30
0.0
 11
160.0
 21
39.5
 31
0.0
  0
LINE
  5
191FE
  8
SUNPO
  6
CONTINUOUS
 10
110.5
 20
99.5
 30
0.0
 11
160.0
 21
99.5
 31
0.0
  0
LINE
  5
191FF
  8
SUNPO
  6
CONTINUOUS
 10
110.5
 20
64.5
 30
0.0
 11
150.0
 21
64.5
 31
0.0
  0
LINE
  5
19200
  8
SUNPO
  6
CONTINUOUS
 10
80.5
 20
114.290488
 30
0.0
 11
95.5
 21
114.290488
 31
0.0
  0
ARC
  5
19201
  8
SUNPO
  6
BYBLOCK
 10
78.0
 20
114.290488
 30
0.0
 40
0.145
 50
180.0
 51
0.0
  0
ARC
  5
19202
  8
SUNPO
  6
BYBLOCK
 10
78.0
 20
114.290488
 30
0.0
 40
0.145
 50
0.0
 51
180.0
  0
LINE
  5
19203
  8
SUNPO
  6
CONTINUOUS
 10
78.0
 20
114.290488
 30
0.0
 11
68.68
 21
114.290488
 31
0.0
  0
TEXT
  5
19204
  8
SUNPO
  6
CONTINUOUS
 10
69.68
 20
115.290488
 30
0.0
 40
2.5
  1
2.5
  7
MX_NOTE_STANDARD
  0
LINE
  5
19205
  8
SUNPO
  6
CONTINUOUS
 10
80.5
 20
101.0
 30
0.0
 11
80.5
 21
114.290488
 31
0.0
  0
LINE
  5
19206
  8
SUNPO
  6
CONTINUOUS
 10
78.0
 20
101.0
 30
0.0
 11
78.0
 21
114.290488
 31
0.0
  0
LINE
  5
19207
  8
SUNPO
  6
CONTINUOUS
 10
80.5
 20
101.0
 30
0.0
 11
80.5
 21
114.290488
 31
0.0
  0
ARC
  5
19208
  8
SUNPO
  6
BYBLOCK
 10
80.5
 20
114.290488
 30
0.0
 40
0.145
 50
0.0
 51
180.0
  0
ARC
  5
19209
  8
SUNPO
  6
BYBLOCK
 10
80.5
 20
114.290488
 30
0.0
 40
0.145
 50
180.0
 51
0.0
  0
ARC
  5
1920A
  8
SUNPO
  6
BYBLOCK
 10
80.5
 20
114.290488
 30
0.0
 40
0.145
 50
180.0
 51
0.0
  0
ARC
  5
1920B
  8
SUNPO
  6
BYBLOCK
 10
80.5
 20
114.290488
 30
0.0
 40
0.145
 50
0.0
 51
180.0
  0
LINE
  5
1920C
  8
SUNPO
  6
CONTINUOUS
 10
80.5
 20
114.290488
 30
0.0
 11
78.0
 21
114.290488
 31
0.0
  0
TEXT
  5
1920D
  8
SUNPO
  6
CONTINUOUS
 10
86.333333
 20
115.290488
 30
0.0
 40
2.5
  1
15
  7
MX_NOTE_STANDARD
  0
LINE
  5
1920E
  8
SUNPO
  6
CONTINUOUS
 10
98.0
 20
101.0
 30
0.0
 11
98.0
 21
114.290488
 31
0.0
  0
LINE
  5
1920F
  8
SUNPO
  6
CONTINUOUS
 10
95.5
 20
101.0
 30
0.0
 11
95.5
 21
114.290488
 31
0.0
  0
LINE
  5
19210
  8
SUNPO
  6
CONTINUOUS
 10
95.5
 20
101.0
 30
0.0
 11
95.5
 21
114.290488
 31
0.0
  0
TEXT
  5
19211
  8
SUNPO
  6
CONTINUOUS
 10
101.32
 20
115.290488
 30
0.0
 40
2.5
  1
2.5
  7
MX_NOTE_STANDARD
  0
LINE
  5
19212
  8
SUNPO
  6
CONTINUOUS
 10
98.0
 20
114.290488
 30
0.0
 11
107.32
 21
114.290488
 31
0.0
  0
ARC
  5
19213
  8
SUNPO
  6
BYBLOCK
 10
98.0
 20
114.290488
 30
0.0
 40
0.145
 50
0.0
 51
180.0
  0
ARC
  5
19214
  8
SUNPO
  6
BYBLOCK
 10
98.0
 20
114.290488
 30
0.0
 40
0.145
 50
180.0
 51
0.0
  0
ARC
  5
19215
  8
SUNPO
  6
BYBLOCK
 10
95.5
 20
114.290488
 30
0.0
 40
0.145
 50
180.0
 51
0.0
  0
ARC
  5
19216
  8
SUNPO
  6
BYBLOCK
 10
95.5
 20
114.290488
 30
0.0
 40
0.145
 50
0.0
 51
180.0
  0
ARC
  5
19217
  8
SUNPO
  6
BYBLOCK
 10
95.5
 20
114.290488
 30
0.0
 40
0.145
 50
0.0
 51
180.0
  0
ARC
  5
19218
  8
SUNPO
  6
BYBLOCK
 10
95.5
 20
114.290488
 30
0.0
 40
0.145
 50
180.0
 51
0.0
  0
LINE
  5
19219
  8
SUNPO
  6
CONTINUOUS
 10
95.5
 20
114.290488
 30
0.0
 11
98.0
 21
114.290488
 31
0.0
  0
LINE
  5
1921A
  8
SUNPO
  6
CONTINUOUS
 10
160.0
 20
99.5
 30
0.0
 11
160.0
 21
39.5
 31
0.0
  0
LINE
  5
1921B
  8
SUNPO
  6
CONTINUOUS
 10
150.0
 20
99.5
 30
0.0
 11
150.0
 21
64.5
 31
0.0
  0
ARC
  5
1921C
  8
SUNPO
  6
BYBLOCK
 10
160.0
 20
39.5
 30
0.0
 40
0.15625
 50
90.0
 51
270.0
  0
ARC
  5
1921D
  8
SUNPO
  6
BYBLOCK
 10
160.0
 20
39.5
 30
0.0
 40
0.145
 50
90.0
 51
270.0
  0
LINE
  5
1921E
  8
SUNPO
  6
CONTINUOUS
 10
150.0
 20
64.5
 30
0.0
 11
150.0
 21
39.5
 31
0.0
  0
ARC
  5
1921F
  8
SUNPO
  6
BYBLOCK
 10
150.0
 20
39.5
 30
0.0
 40
0.145
 50
270.0
 51
90.0
  0
ARC
  5
19220
  8
SUNPO
  6
BYBLOCK
 10
150.0
 20
39.5
 30
0.0
 40
0.145
 50
90.0
 51
270.0
  0
TEXT
  5
19221
  8
SUNPO
  6
CONTINUOUS
 10
159.0
 20
34.166667
 30
0.0
 40
2.5
  1
9
 50
90.0
  7
MX_NOTE_STANDARD
  0
TEXT
  5
19222
  8
SUNPO
  6
CONTINUOUS
 10
149.0
 20
49.916667
 30
0.0
 40
2.5
  1
25
 50
90.0
  7
MX_NOTE_STANDARD
  0
ARC
  5
19223
  8
SUNPO
  6
BYBLOCK
 10
150.0
 20
64.5
 30
0.0
 40
0.145
 50
90.0
 51
270.0
  0
ARC
  5
19224
  8
SUNPO
  6
BYBLOCK
 10
150.0
 20
64.5
 30
0.0
 40
0.145
 50
270.0
 51
90.0
  0
ARC
  5
19225
  8
SUNPO
  6
BYBLOCK
 10
150.0
 20
64.5
 30
0.0
 40
0.145
 50
270.0
 51
90.0
  0
ARC
  5
19226
  8
SUNPO
  6
BYBLOCK
 10
150.0
 20
64.5
 30
0.0
 40
0.145
 50
90.0
 51
270.0
  0
TEXT
  5
19227
  8
SUNPO
  6
CONTINUOUS
 10
159.0
 20
67.625
 30
0.0
 40
2.5
  1
60
 50
90.0
  7
MX_NOTE_STANDARD
  0
ARC
  5
19228
  8
SUNPO
  6
BYBLOCK
 10
160.0
 20
39.5
 30
0.0
 40
0.15625
 50
270.0
 51
90.0
  0
ARC
  5
19229
  8
SUNPO
  6
BYBLOCK
 10
160.0
 20
39.5
 30
0.0
 40
0.145
 50
270.0
 51
90.0
  0
TEXT
  5
1922A
  8
SUNPO
  6
CONTINUOUS
 10
188.541667
 20
41.0
 30
0.0
 40
2.5
  1
10
  7
MX_NOTE_STANDARD
  0
ARC
  5
1922B
  8
SUNPO
  6
BYBLOCK
 10
185.0
 20
40.0
 30
0.0
 40
0.145
 50
180.0
 51
0.0
  0
ARC
  5
1922C
  8
SUNPO
  6
BYBLOCK
 10
185.0
 20
40.0
 30
0.0
 40
0.145
 50
0.0
 51
180.0
  0
LINE
  5
1922D
  8
SUNPO
  6
CONTINUOUS
 10
160.0
 20
99.5
 30
0.0
 11
155.0
 21
104.5
 31
0.0
  0
LINE
  5
1922E
  8
SUNPO
  6
CONTINUOUS
 10
155.0
 20
104.5
 30
0.0
 11
165.0
 21
104.5
 31
0.0
  0
TEXT
  5
1922F
  8
SUNPO
  6
CONTINUOUS
 10
149.0
 20
79.916667
 30
0.0
 40
2.5
  1
35
 50
90.0
  7
MX_NOTE_STANDARD
  0
ARC
  5
19230
  8
SUNPO
  6
BYBLOCK
 10
150.0
 20
99.5
 30
0.0
 40
0.145
 50
90.0
 51
270.0
  0
ARC
  5
19231
  8
SUNPO
  6
BYBLOCK
 10
150.0
 20
99.5
 30
0.0
 40
0.145
 50
270.0
 51
90.0
  0
ARC
  5
19232
  8
SUNPO
  6
BYBLOCK
 10
150.0
 20
99.5
 30
0.0
 40
0.145
 50
270.0
 51
90.0
  0
ARC
  5
19233
  8
SUNPO
  6
BYBLOCK
 10
150.0
 20
99.5
 30
0.0
 40
0.145
 50
90.0
 51
270.0
  0
LINE
  5
19235
  8
SUNPO
  6
CONTINUOUS
 10
165.0
 20
104.5
 30
0.0
 11
160.0
 21
99.5
 31
0.0
  0
LINE
  5
19238
  8
SUNPO
  6
CONTINUOUS
 10
219.111405
 20
35.31628
 30
0.0
 11
220.267949
 21
31.0
 31
0.0
  0
LINE
  5
19239
  8
SUNPO
  6
CONTINUOUS
 10
270.0
 20
32.0
 30
0.0
 11
260.888595
 21
28.68372
 31
0.0
  0
LINE
  5
1923A
  8
SUNPO
  6
CONTINUOUS
 10
260.888595
 20
28.68372
 30
0.0
 11
259.732051
 21
33.0
 31
0.0
  0
LINE
  5
1923B
  8
SUNPO
  6
CONTINUOUS
 10
319.111405
 20
35.31628
 30
0.0
 11
320.267949
 21
31.0
 31
0.0
  0
LINE
  5
1923C
  8
SUNPO
  6
CONTINUOUS
 10
210.0
 20
85.0
 30
0.0
 11
210.0
 21
20.0
 31
0.0
  0
LINE
  5
1923D
  8
SUNPO
  6
CONTINUOUS
 10
210.0
 20
20.0
 30
0.0
 11
275.282836
 21
20.0
 31
0.0
  0
TEXT
  5
1923E
  8
SUNPO
  6
CONTINUOUS
 10
195.416667
 20
21.0
 30
0.0
 40
2.5
  1
25
  7
MX_NOTE_STANDARD
  0
LINE
  5
1923F
  8
SUNPO
  6
CONTINUOUS
 10
215.0
 20
15.0
 30
0.0
 11
210.0
 21
20.0
 31
0.0
  0
LINE
  5
19240
  8
SUNPO
  6
CONTINUOUS
 10
215.0
 20
25.0
 30
0.0
 11
215.0
 21
15.0
 31
0.0
  0
LINE
  5
19242
  8
SUNPO
  6
CONTINUOUS
 10
210.0
 20
20.0
 30
0.0
 11
215.0
 21
25.0
 31
0.0
  0
LINE
  5
19245
  8
SUNPO
  6
CONTINUOUS
 10
292.11431
 20
16.5
 30
0.0
 11
288.536562
 21
16.5
 31
0.0
  0
LINE
  5
19246
  8
SUNPO
  6
CONTINUOUS
 10
291.536959
 20
16.500004
 30
0.0
 11
287.495515
 21
23.499997
 31
0.0
  0
LINE
  5
19247
  8
SUNPO
  6
CONTINUOUS
 10
292.495805
 20
23.5
 30
0.0
 11
290.459285
 21
23.5
 31
0.0
  0
LINE
  5
19249
  8
SUNPO
  6
CONTINUOUS
 10
282.876776
 20
16.500001
 30
0.0
 11
278.835331
 21
23.499997
 31
0.0
  0
LINE
  5
1924A
  8
SUNPO
  6
CONTINUOUS
 10
285.186114
 20
16.5
 30
0.0
 11
281.144668
 21
23.499997
 31
0.0
  0
LINE
  5
1924B
  8
SUNPO
  6
CONTINUOUS
 10
289.22756
 20
16.500001
 30
0.0
 11
285.186114
 21
23.499998
 31
0.0
  0
LINE
  5
1924C
  8
SUNPO
  6
CONTINUOUS
 10
285.186113
 20
23.5
 30
0.0
 11
285.186113
 21
16.500001
 31
0.0
  0
LINE
  5
1924D
  8
SUNPO
  6
CONTINUOUS
 10
286.186113
 20
16.5
 30
0.0
 11
281.708582
 21
16.5
 31
0.0
  0
LINE
  5
1924E
  8
SUNPO
  6
CONTINUOUS
 10
282.10634
 20
23.5
 30
0.0
 11
277.73099
 21
23.5
 31
0.0
  0
LINE
  5
1924F
  8
SUNPO
  6
CONTINUOUS
 10
288.495514
 20
23.5
 30
0.0
 11
284.186113
 21
23.5
 31
0.0
  0
LINE
  5
19251
  8
SUNPO
  6
CONTINUOUS
 10
291.536961
 20
23.5
 30
0.0
 11
291.536961
 21
16.500003
 31
0.0
  0
LINE
  5
19252
  8
SUNPO
  6
CONTINUOUS
 10
300.26901
 20
18.5
 30
0.0
 11
295.26901
 21
18.5
 31
0.0
  0
LINE
  5
19253
  8
SUNPO
  6
CONTINUOUS
 10
300.26901
 20
21.5
 30
0.0
 11
295.26901
 21
21.5
 31
0.0
  0
LINE
  5
19255
  8
SUNPO
  6
CONTINUOUS
 10
270.0
 20
32.0
 30
0.0
 11
210.0
 21
32.0
 31
0.0
  0
LINE
  5
19256
  8
SUNPO
  6
CONTINUOUS
 10
195.0
 20
85.0
 30
0.0
 11
195.0
 21
40.0
 31
0.0
  0
LINE
  5
19257
  8
SUNPO
  6
CONTINUOUS
 10
248.0
 20
85.0
 30
0.0
 11
248.0
 21
40.0
 31
0.0
  0
LINE
  5
19258
  8
SUNPO
  6
CONTINUOUS
 10
248.0
 20
40.0
 30
0.0
 11
210.0
 21
40.0
 31
0.0
  0
LINE
  5
19259
  8
SUNPO
  6
CONTINUOUS
 10
210.0
 20
40.0
 30
0.0
 11
195.0
 21
40.0
 31
0.0
  0
TEXT
  5
1925A
  8
SUNPO
  6
CONTINUOUS
 10
200.833333
 20
41.0
 30
0.0
 40
2.5
  1
15
  7
MX_NOTE_STANDARD
  0
ARC
  5
1925B
  8
SUNPO
  6
BYBLOCK
 10
195.0
 20
40.0
 30
0.0
 40
0.145
 50
180.0
 51
0.0
  0
ARC
  5
1925C
  8
SUNPO
  6
BYBLOCK
 10
195.0
 20
40.0
 30
0.0
 40
0.145
 50
0.0
 51
180.0
  0
ARC
  5
1925D
  8
SUNPO
  6
BYBLOCK
 10
195.0
 20
40.0
 30
0.0
 40
0.145
 50
0.0
 51
180.0
  0
ARC
  5
1925E
  8
SUNPO
  6
BYBLOCK
 10
195.0
 20
40.0
 30
0.0
 40
0.145
 50
180.0
 51
0.0
  0
LINE
  5
1925F
  8
SUNPO
  6
CONTINUOUS
 10
210.0
 20
32.0
 30
0.0
 11
219.111405
 21
35.31628
 31
0.0
  0
ARC
  5
19261
  8
SUNPO
  6
BYBLOCK
 10
210.0
 20
40.0
 30
0.0
 40
0.145
 50
0.0
 51
180.0
  0
ARC
  5
19262
  8
SUNPO
  6
BYBLOCK
 10
210.0
 20
40.0
 30
0.0
 40
0.145
 50
180.0
 51
0.0
  0
ARC
  5
19263
  8
SUNPO
  6
BYBLOCK
 10
210.0
 20
40.0
 30
0.0
 40
0.145
 50
180.0
 51
0.0
  0
ARC
  5
19264
  8
SUNPO
  6
BYBLOCK
 10
210.0
 20
40.0
 30
0.0
 40
0.145
 50
0.0
 51
180.0
  0
TEXT
  5
19268
  8
SUNPO
  6
CONTINUOUS
 10
226.916667
 20
41.0
 30
0.0
 40
2.5
  1
38
  7
MX_NOTE_STANDARD
  0
TEXT
  5
19269
  8
SUNPO
  6
CONTINUOUS
 10
243.007473
 20
33.048402
 30
0.0
 40
2.0
  1
2
  7
MX_NOTE_STANDARD
  0
ARC
  5
1926A
  8
SUNPO
  6
BYBLOCK
 10
248.0
 20
40.0
 30
0.0
 40
0.145
 50
0.0
 51
180.0
  0
ARC
  5
1926B
  8
SUNPO
  6
BYBLOCK
 10
248.0
 20
40.0
 30
0.0
 40
0.145
 50
180.0
 51
0.0
  0
ARC
  5
1926C
  8
SUNPO
  6
BYBLOCK
 10
251.5
 20
86.5
 30
0.0
 40
0.145
 50
270.0
 51
90.0
  0
ARC
  5
1926D
  8
SUNPO
  6
BYBLOCK
 10
251.5
 20
86.5
 30
0.0
 40
0.145
 50
90.0
 51
270.0
  0
TEXT
  5
1926E
  8
SUNPO
  6
CONTINUOUS
 10
250.5
 20
116.985291
 30
0.0
 40
2.5
  1
70
 50
90.0
  7
MX_NOTE_STANDARD
  0
TEXT
  5
1926F
  8
SUNPO
  6
CONTINUOUS
 10
288.125
 20
33.0
 30
0.0
 40
2.5
  1
40
  7
MX_NOTE_STANDARD
  0
LINE
  5
19270
  8
SUNPO
  6
CONTINUOUS
 10
310.0
 20
32.0
 30
0.0
 11
270.0
 21
32.0
 31
0.0
  0
LINE
  5
19271
  8
SUNPO
  6
CONTINUOUS
 10
270.0
 20
66.499996
 30
0.0
 11
270.0
 21
32.0
 31
0.0
  0
LINE
  5
19274
  8
SUNPO
  6
CONTINUOUS
 10
310.0
 20
66.499996
 30
0.0
 11
310.0
 21
32.0
 31
0.0
  0
LINE
  5
19275
  8
SUNPO
  6
CONTINUOUS
 10
310.0
 20
32.0
 30
0.0
 11
319.111405
 21
35.31628
 31
0.0
  0
LINE
  5
19279
  8
SUNPO
  6
CONTINUOUS
 10
370.0
 20
85.0
 30
0.0
 11
370.0
 21
20.0
 31
0.0
  0
LINE
  5
1927A
  8
SUNPO
  6
CONTINUOUS
 10
395.0
 20
85.5
 30
0.0
 11
395.0
 21
20.0
 31
0.0
  0
LINE
  5
1927B
  8
SUNPO
  6
CONTINUOUS
 10
370.0
 20
32.0
 30
0.0
 11
360.888595
 21
28.68372
 31
0.0
  0
LINE
  5
1927C
  8
SUNPO
  6
CONTINUOUS
 10
360.888595
 20
28.68372
 30
0.0
 11
359.732051
 21
33.0
 31
0.0
  0
LINE
  5
1927D
  8
SUNPO
  6
CONTINUOUS
 10
395.0
 20
20.0
 30
0.0
 11
370.0
 21
20.0
 31
0.0
  0
LINE
  5
1927E
  8
SUNPO
  6
CONTINUOUS
 10
370.0
 20
20.0
 30
0.0
 11
365.0
 21
15.0
 31
0.0
  0
LINE
  5
1927F
  8
SUNPO
  6
CONTINUOUS
 10
365.0
 20
15.0
 30
0.0
 11
365.0
 21
25.0
 31
0.0
  0
LINE
  5
19281
  8
SUNPO
  6
CONTINUOUS
 10
365.0
 20
25.0
 30
0.0
 11
370.0
 21
20.0
 31
0.0
  0
TEXT
  5
19285
  8
SUNPO
  6
CONTINUOUS
 10
380.416667
 20
21.0
 30
0.0
 40
2.5
  1
25
  7
MX_NOTE_STANDARD
  0
ARC
  5
19286
  8
SUNPO
  6
BYBLOCK
 10
395.0
 20
20.0
 30
0.0
 40
0.145
 50
0.0
 51
180.0
  0
ARC
  5
19287
  8
SUNPO
  6
BYBLOCK
 10
395.0
 20
20.0
 30
0.0
 40
0.145
 50
180.0
 51
0.0
  0
TEXT
  5
19288
  8
SUNPO
  6
CONTINUOUS
 10
388.541667
 20
41.0
 30
0.0
 40
2.5
  1
10
  7
MX_NOTE_STANDARD
  0
LINE
  5
19289
  8
SUNPO
  6
CONTINUOUS
 10
385.0
 20
40.0
 30
0.0
 11
395.0
 21
40.0
 31
0.0
  0
LINE
  5
1928A
  8
SUNPO
  6
CONTINUOUS
 10
360.0
 20
85.0
 30
0.0
 11
360.0
 21
40.0
 31
0.0
  0
LINE
  5
1928B
  8
SUNPO
  6
CONTINUOUS
 10
385.0
 20
85.0
 30
0.0
 11
385.0
 21
40.0
 31
0.0
  0
LINE
  5
1928C
  8
SUNPO
  6
CONTINUOUS
 10
327.000003
 20
67.999997
 30
0.0
 11
327.000003
 21
86.499997
 31
0.0
  0
TEXT
  5
1928E
  8
SUNPO
  6
CONTINUOUS
 10
343.372796
 20
32.984156
 30
0.0
 40
2.0
  1
1
 41
1.5
  7
MX_NOTE_STANDARD
  0
ARC
  5
1928F
  8
SUNPO
  6
BYBLOCK
 10
327.000003
 20
67.999997
 30
0.0
 40
0.145
 50
270.0
 51
90.0
  0
ARC
  5
19290
  8
SUNPO
  6
BYBLOCK
 10
327.000003
 20
67.999997
 30
0.0
 40
0.145
 50
90.0
 51
270.0
  0
LINE
  5
19291
  8
SUNPO
  6
CONTINUOUS
 10
385.0
 20
40.0
 30
0.0
 11
370.0
 21
40.0
 31
0.0
  0
TEXT
  5
19292
  8
SUNPO
  6
CONTINUOUS
 10
363.541667
 20
41.0
 30
0.0
 40
2.5
  1
10
  7
MX_NOTE_STANDARD
  0
LINE
  5
19293
  8
SUNPO
  6
CONTINUOUS
 10
370.0
 20
40.0
 30
0.0
 11
360.0
 21
40.0
 31
0.0
  0
ARC
  5
19295
  8
SUNPO
  6
BYBLOCK
 10
360.0
 20
40.0
 30
0.0
 40
0.145
 50
180.0
 51
0.0
  0
ARC
  5
19296
  8
SUNPO
  6
BYBLOCK
 10
360.0
 20
40.0
 30
0.0
 40
0.145
 50
0.0
 51
180.0
  0
ARC
  5
19298
  8
SUNPO
  6
BYBLOCK
 10
370.0
 20
40.0
 30
0.0
 40
0.145
 50
0.0
 51
180.0
  0
ARC
  5
19299
  8
SUNPO
  6
BYBLOCK
 10
370.0
 20
40.0
 30
0.0
 40
0.145
 50
180.0
 51
0.0
  0
ARC
  5
1929A
  8
SUNPO
  6
BYBLOCK
 10
370.0
 20
40.0
 30
0.0
 40
0.145
 50
180.0
 51
0.0
  0
ARC
  5
1929B
  8
SUNPO
  6
BYBLOCK
 10
370.0
 20
40.0
 30
0.0
 40
0.145
 50
0.0
 51
180.0
  0
TEXT
  5
1929C
  8
SUNPO
  6
CONTINUOUS
 10
375.833333
 20
41.0
 30
0.0
 40
2.5
  1
15
  7
MX_NOTE_STANDARD
  0
ARC
  5
1929D
  8
SUNPO
  6
BYBLOCK
 10
385.0
 20
40.0
 30
0.0
 40
0.145
 50
0.0
 51
180.0
  0
ARC
  5
1929E
  8
SUNPO
  6
BYBLOCK
 10
385.0
 20
40.0
 30
0.0
 40
0.145
 50
180.0
 51
0.0
  0
ARC
  5
1929F
  8
SUNPO
  6
BYBLOCK
 10
385.0
 20
40.0
 30
0.0
 40
0.145
 50
180.0
 51
0.0
  0
ARC
  5
192A0
  8
SUNPO
  6
BYBLOCK
 10
385.0
 20
40.0
 30
0.0
 40
0.145
 50
0.0
 51
180.0
  0
LINE
  5
192A1
  8
SUNPO
  6
CONTINUOUS
 10
358.5
 20
100.0
 30
0.0
 11
347.577611
 21
100.0
 31
0.0
  0
LINE
  5
192A2
  8
SUNPO
  6
CONTINUOUS
 10
358.5
 20
97.5
 30
0.0
 11
347.577611
 21
97.5
 31
0.0
  0
LINE
  5
192A3
  8
SUNPO
  6
CONTINUOUS
 10
358.5
 20
115.0
 30
0.0
 11
347.577611
 21
115.0
 31
0.0
  0
LINE
  5
192A4
  8
SUNPO
  6
CONTINUOUS
 10
358.5
 20
100.0
 30
0.0
 11
347.577611
 21
100.0
 31
0.0
  0
LINE
  5
192A5
  8
SUNPO
  6
CONTINUOUS
 10
358.5
 20
117.5
 30
0.0
 11
347.577611
 21
117.5
 31
0.0
  0
LINE
  5
192A6
  8
SUNPO
  6
CONTINUOUS
 10
358.5
 20
115.0
 30
0.0
 11
347.577611
 21
115.0
 31
0.0
  0
LINE
  5
192A7
  8
SUNPO
  6
CONTINUOUS
 10
347.577611
 20
100.0
 30
0.0
 11
347.577611
 21
115.0
 31
0.0
  0
LINE
  5
192A8
  8
SUNPO
  6
CONTINUOUS
 10
327.0
 20
117.5
 30
0.0
 11
327.0
 21
86.5
 31
0.0
  0
ARC
  5
192A9
  8
SUNPO
  6
BYBLOCK
 10
327.0
 20
86.5
 30
0.0
 40
0.145
 50
270.0
 51
90.0
  0
ARC
  5
192AA
  8
SUNPO
  6
BYBLOCK
 10
327.0
 20
86.5
 30
0.0
 40
0.145
 50
90.0
 51
270.0
  0
ARC
  5
192AB
  8
SUNPO
  6
BYBLOCK
 10
327.000003
 20
86.499997
 30
0.0
 40
0.145
 50
90.0
 51
270.0
  0
ARC
  5
192AC
  8
SUNPO
  6
BYBLOCK
 10
327.000003
 20
86.499997
 30
0.0
 40
0.145
 50
270.0
 51
90.0
  0
TEXT
  5
192AD
  8
SUNPO
  6
CONTINUOUS
 10
346.577611
 20
89.18
 30
0.0
 40
2.5
  1
2.5
 50
90.0
  7
MX_NOTE_STANDARD
  0
LINE
  5
192AE
  8
SUNPO
  6
CONTINUOUS
 10
347.577611
 20
97.5
 30
0.0
 11
347.577611
 21
88.18
 31
0.0
  0
ARC
  5
192AF
  8
SUNPO
  6
BYBLOCK
 10
347.577611
 20
97.5
 30
0.0
 40
0.145
 50
270.0
 51
90.0
  0
ARC
  5
192B0
  8
SUNPO
  6
BYBLOCK
 10
347.577611
 20
97.5
 30
0.0
 40
0.145
 50
90.0
 51
270.0
  0
ARC
  5
192B1
  8
SUNPO
  6
BYBLOCK
 10
347.577611
 20
100.0
 30
0.0
 40
0.145
 50
90.0
 51
270.0
  0
ARC
  5
192B2
  8
SUNPO
  6
BYBLOCK
 10
347.577611
 20
100.0
 30
0.0
 40
0.145
 50
270.0
 51
90.0
  0
ARC
  5
192B3
  8
SUNPO
  6
BYBLOCK
 10
347.577611
 20
100.0
 30
0.0
 40
0.145
 50
270.0
 51
90.0
  0
ARC
  5
192B4
  8
SUNPO
  6
BYBLOCK
 10
347.577611
 20
100.0
 30
0.0
 40
0.145
 50
90.0
 51
270.0
  0
LINE
  5
192B5
  8
SUNPO
  6
CONTINUOUS
 10
347.577611
 20
100.0
 30
0.0
 11
347.577611
 21
97.5
 31
0.0
  0
ARC
  5
192B6
  8
SUNPO
  6
BYBLOCK
 10
327.0
 20
117.5
 30
0.0
 40
0.145
 50
90.0
 51
270.0
  0
ARC
  5
192B7
  8
SUNPO
  6
BYBLOCK
 10
327.0
 20
117.5
 30
0.0
 40
0.145
 50
270.0
 51
90.0
  0
ARC
  5
192B8
  8
SUNPO
  6
BYBLOCK
 10
327.0
 20
117.5
 30
0.0
 40
0.145
 50
270.0
 51
90.0
  0
ARC
  5
192B9
  8
SUNPO
  6
BYBLOCK
 10
327.0
 20
117.5
 30
0.0
 40
0.145
 50
90.0
 51
270.0
  0
TEXT
  5
192BA
  8
SUNPO
  6
CONTINUOUS
 10
346.577611
 20
105.833333
 30
0.0
 40
2.5
  1
15
 50
90.0
  7
MX_NOTE_STANDARD
  0
ARC
  5
192BB
  8
SUNPO
  6
BYBLOCK
 10
347.577611
 20
115.0
 30
0.0
 40
0.145
 50
90.0
 51
270.0
  0
ARC
  5
192BC
  8
SUNPO
  6
BYBLOCK
 10
347.577611
 20
115.0
 30
0.0
 40
0.145
 50
270.0
 51
90.0
  0
ARC
  5
192BD
  8
SUNPO
  6
BYBLOCK
 10
347.577611
 20
117.5
 30
0.0
 40
0.145
 50
90.0
 51
270.0
  0
ARC
  5
192BE
  8
SUNPO
  6
BYBLOCK
 10
347.577611
 20
117.5
 30
0.0
 40
0.145
 50
270.0
 51
90.0
  0
ARC
  5
192BF
  8
SUNPO
  6
BYBLOCK
 10
347.577611
 20
115.0
 30
0.0
 40
0.145
 50
270.0
 51
90.0
  0
ARC
  5
192C0
  8
SUNPO
  6
BYBLOCK
 10
347.577611
 20
115.0
 30
0.0
 40
0.145
 50
90.0
 51
270.0
  0
LINE
  5
192C1
  8
SUNPO
  6
CONTINUOUS
 10
347.577611
 20
115.0
 30
0.0
 11
347.577611
 21
117.5
 31
0.0
  0
ARC
  5
192C2
  8
SUNPO
  6
BYBLOCK
 10
395.0
 20
40.0
 30
0.0
 40
0.145
 50
0.0
 51
180.0
  0
ARC
  5
192C3
  8
SUNPO
  6
BYBLOCK
 10
395.0
 20
40.0
 30
0.0
 40
0.145
 50
180.0
 51
0.0
  0
TEXT
  5
192C4
  8
SUNPO
  6
CONTINUOUS
 10
326.0
 20
135.416667
 30
0.0
 40
2.5
  1
24
 50
90.0
  7
MX_NOTE_STANDARD
  0
TEXT
  5
192C5
  8
SUNPO
  6
CONTINUOUS
 10
326.0
 20
152.166667
 30
0.0
 40
2.5
  1
7
 50
90.0
  7
MX_NOTE_STANDARD
  0
LINE
  5
192C6
  8
SUNPO
  6
CONTINUOUS
 10
311.350012
 20
125.5
 30
0.0
 11
327.0
 21
125.5
 31
0.0
  0
LINE
  5
192C7
  8
SUNPO
  6
CONTINUOUS
 10
70.0
 20
168.5
 30
0.0
 11
46.0
 21
168.5
 31
0.0
  0
LINE
  5
192C8
  8
SUNPO
  6
CONTINUOUS
 10
39.0
 20
178.5
 30
0.0
 11
109.0
 21
178.5
 31
0.0
  0
LINE
  5
192C9
  8
DANMEN
  6
CONTINUOUS
 10
260.5
 20
155.300003
 30
0.0
 11
333.5
 21
155.300003
 31
0.0
  0
LINE
  5
192CA
  8
DANMEN
  6
CONTINUOUS
 10
260.5
 20
158.300003
 30
0.0
 11
333.5
 21
158.300003
 31
0.0
  0
LINE
  5
192CB
  8
DANMEN
  6
CONTINUOUS
 10
260.5
 20
159.5
 30
0.0
 11
333.5
 21
159.5
 31
0.0
  0
LINE
  5
192CC
  8
DANMEN
  6
CONTINUOUS
 10
310.0
 20
136.0
 30
0.0
 11
333.5
 21
136.0
 31
0.0
  0
LINE
  5
192CD
  8
DANMEN
  6
CONTINUOUS
 10
310.0
 20
139.0
 30
0.0
 11
333.5
 21
139.0
 31
0.0
  0
LINE
  5
192CE
  8
DANMEN
  6
CONTINUOUS
 10
260.500003
 20
149.5
 30
0.0
 11
333.5
 21
149.5
 31
0.0
  0
LINE
  5
192CF
  8
DANMEN
  6
CONTINUOUS
 10
260.5
 20
127.7
 30
0.0
 11
270.0
 21
127.7
 31
0.0
  0
LINE
  5
192D0
  8
DANMEN
  6
CONTINUOUS
 10
260.5
 20
147.3
 30
0.0
 11
270.0
 21
147.3
 31
0.0
  0
LINE
  5
192D1
  8
DANMEN
  6
CONTINUOUS
 10
260.5
 20
145.5
 30
0.0
 11
270.0
 21
145.5
 31
0.0
  0
LINE
  5
192D2
  8
DANMEN
  6
CONTINUOUS
 10
260.5
 20
129.5
 30
0.0
 11
270.0
 21
129.5
 31
0.0
  0
LINE
  5
192D3
  8
DANMEN
  6
CONTINUOUS
 10
260.5
 20
125.5
 30
0.0
 11
270.0
 21
125.5
 31
0.0
  0
LINE
  5
192D4
  8
DANMEN
  6
CONTINUOUS
 10
277.000018
 20
140.000009
 30
0.0
 11
260.500003
 21
140.000009
 31
0.0
  0
LINE
  5
192D5
  8
DANMEN
  6
CONTINUOUS
 10
277.000018
 20
135.000021
 30
0.0
 11
260.500003
 21
135.000021
 31
0.0
  0
LINE
  5
192D6
  8
DANMEN
  6
CONTINUOUS
 10
277.000018
 20
139.500009
 30
0.0
 11
260.500003
 21
139.500009
 31
0.0
  0
LINE
  5
192D7
  8
DANMEN
  6
CONTINUOUS
 10
277.000018
 20
135.500021
 30
0.0
 11
260.500003
 21
135.500021
 31
0.0
  0
LINE
  5
192D8
  8
DANMEN
  6
CONTINUOUS
 10
234.399994
 20
158.300003
 30
0.0
 11
230.0
 21
158.300003
 31
0.0
  0
LINE
  5
192D9
  8
DANMEN
  6
CONTINUOUS
 10
234.399994
 20
159.5
 30
0.0
 11
230.0
 21
159.5
 31
0.0
  0
LINE
  5
192DA
  8
DANMEN
  6
CONTINUOUS
 10
225.538906
 20
149.5
 30
0.0
 11
247.500002
 21
149.5
 31
0.0
  0
LINE
  5
192DB
  8
DANMEN
  6
CONTINUOUS
 10
225.538911
 20
125.5
 30
0.0
 11
247.500002
 21
125.5
 31
0.0
  0
LINE
  5
192DC
  8
DANMEN
  6
CONTINUOUS
 10
226.949983
 20
147.550003
 30
0.0
 11
235.049989
 21
147.550003
 31
0.0
  0
LINE
  5
192DD
  8
DANMEN
  6
CONTINUOUS
 10
226.949983
 20
127.449997
 30
0.0
 11
235.049989
 21
127.449997
 31
0.0
  0
LINE
  5
192DE
  8
DANMEN
  6
CONTINUOUS
 10
212.461095
 20
125.5
 30
0.0
 11
257.5
 21
125.5
 31
0.0
  0
LINE
  5
192DF
  8
DANMEN
  6
CONTINUOUS
 10
230.0
 20
155.300003
 30
0.0
 11
257.5
 21
155.300003
 31
0.0
  0
LINE
  5
192E0
  8
DANMEN
  6
CONTINUOUS
 10
211.000002
 20
147.55
 30
0.0
 11
211.000002
 21
127.449997
 31
0.0
  0
LINE
  5
192E1
  8
DANMEN
  6
CONTINUOUS
 10
226.949983
 20
147.550003
 30
0.0
 11
226.949983
 21
144.550003
 31
0.0
  0
LINE
  5
192E2
  8
DANMEN
  6
CONTINUOUS
 10
225.300005
 20
145.5
 30
0.0
 11
225.040307
 21
148.962605
 31
0.0
  0
LINE
  5
192E3
  8
DANMEN
  6
CONTINUOUS
 10
212.959696
 20
148.962605
 30
0.0
 11
212.699998
 21
145.5
 31
0.0
  0
LINE
  5
192E4
  8
DANMEN
  6
CONTINUOUS
 10
208.145438
 20
147.55
 30
0.0
 11
199.199998
 21
146.208184
 31
0.0
  0
LINE
  5
192E5
  8
DANMEN
  6
CONTINUOUS
 10
212.699998
 20
145.5
 30
0.0
 11
225.300005
 21
145.5
 31
0.0
  0
LINE
  5
192E6
  8
DANMEN
  6
CONTINUOUS
 10
212.949998
 20
143.550003
 30
0.0
 11
225.949983
 21
143.550003
 31
0.0
  0
LINE
  5
192E7
  8
DANMEN
  6
CONTINUOUS
 10
212.949998
 20
131.449997
 30
0.0
 11
225.949983
 21
131.449997
 31
0.0
  0
LINE
  5
192E8
  8
DANMEN
  6
CONTINUOUS
 10
212.699998
 20
129.499997
 30
0.0
 11
225.300005
 21
129.499997
 31
0.0
  0
LINE
  5
192E9
  8
DANMEN
  6
CONTINUOUS
 10
205.164403
 20
135.860739
 30
0.0
 11
200.081606
 21
135.013606
 31
0.0
  0
LINE
  5
192EA
  8
DANMEN
  6
CONTINUOUS
 10
212.949998
 20
143.550003
 30
0.0
 11
212.949998
 21
131.449997
 31
0.0
  0
LINE
  5
192EB
  8
DANMEN
  6
CONTINUOUS
 10
208.145458
 20
127.449997
 30
0.0
 11
199.199998
 21
128.791816
 31
0.0
  0
LINE
  5
192EC
  8
DANMEN
  6
CONTINUOUS
 10
207.895164
 20
124.342413
 30
0.0
 11
203.246849
 21
126.222891
 31
0.0
  0
LINE
  5
192ED
  8
DANMEN
  6
CONTINUOUS
 10
199.199998
 20
130.0
 30
0.0
 11
199.199998
 21
128.791816
 31
0.0
  0
LINE
  5
192EE
  8
DANMEN
  6
CONTINUOUS
 10
203.520856
 20
125.249056
 30
0.0
 11
202.94683
 21
125.481279
 31
0.0
  0
ARC
  5
192EF
  8
DANMEN
  6
CONTINUOUS
 10
203.09684
 20
125.852085
 30
0.0
 40
0.4
 50
67.974191
 51
247.974191
  0
ARC
  5
192F8
  8
DANMEN
  6
CONTINUOUS
 10
203.445851
 20
125.063653
 30
0.0
 40
0.2
 50
311.738105
 51
67.974191
  0
ARC
  5
192F9
  8
DANMEN
  6
CONTINUOUS
 10
199.917206
 20
136.0
 30
0.0
 40
1.0
 50
270.000018
 51
279.462343
  0
LINE
  5
192FD
  8
DANMEN
  6
CONTINUOUS
 10
208.037293
 20
125.5
 30
0.0
 11
212.461092
 21
125.5
 31
0.0
  0
LINE
  5
192FE
  8
DANMEN
  6
CONTINUOUS
 10
208.145458
 20
127.449997
 30
0.0
 11
211.000002
 21
127.449997
 31
0.0
  0
ARC
  5
19301
  8
DANMEN
  6
CONTINUOUS
 10
208.037293
 20
126.0
 30
0.0
 40
0.5
 50
261.469234
 51
270.0
  0
ARC
  5
19305
  8
DANMEN
  6
CONTINUOUS
 10
207.820159
 20
124.15701
 30
0.0
 40
0.2
 50
25.943161
 51
67.974191
  0
LINE
  5
19309
  8
DANMEN
  6
CONTINUOUS
 10
212.699998
 20
129.499997
 30
0.0
 11
212.959696
 21
126.037395
 31
0.0
  0
ARC
  5
1930A
  8
DANMEN
  6
CONTINUOUS
 10
212.461097
 20
126.0
 30
0.0
 40
0.5
 50
270.0
 51
4.2892
  0
LINE
  5
1930D
  8
DANMEN
  6
CONTINUOUS
 10
204.050997
 20
137.5
 30
0.0
 11
199.850997
 21
136.8
 31
0.0
  0
ARC
  5
19310
  8
DANMEN
  6
CONTINUOUS
 10
205.500002
 20
137.0
 30
0.0
 40
0.5
 50
0.0
 51
89.999982
  0
ARC
  5
19312
  8
DANMEN
  6
CONTINUOUS
 10
205.000002
 20
136.847137
 30
0.0
 40
1.0
 50
279.462343
 51
0.000285
  0
LINE
  5
19315
  8
DANMEN
  6
CONTINUOUS
 10
204.050997
 20
137.5
 30
0.0
 11
205.500002
 21
137.5
 31
0.0
  0
LINE
  5
19316
  8
DANMEN
  6
CONTINUOUS
 10
206.000002
 20
137.0
 30
0.0
 11
206.000002
 21
136.847137
 31
0.0
  0
LINE
  5
19317
  8
DANMEN
  6
CONTINUOUS
 10
199.199998
 20
145.0
 30
0.0
 11
199.199998
 21
146.208184
 31
0.0
  0
LINE
  5
1931D
  8
DANMEN
  6
CONTINUOUS
 10
226.949983
 20
130.449997
 30
0.0
 11
226.949983
 21
127.449997
 31
0.0
  0
LINE
  5
19322
  8
DANMEN
  6
CONTINUOUS
 10
225.040307
 20
126.037395
 30
0.0
 11
225.300005
 21
129.499997
 31
0.0
  0
ARC
  5
19323
  8
DANMEN
  6
CONTINUOUS
 10
225.538906
 20
126.0
 30
0.0
 40
0.5
 50
175.7108
 51
270.0
  0
ARC
  5
19326
  8
DANMEN
  6
CONTINUOUS
 10
225.949983
 20
130.449997
 30
0.0
 40
1.0
 50
0.0
 51
89.999982
  0
ARC
  5
19328
  8
DANMEN
  6
CONTINUOUS
 10
225.949983
 20
144.550003
 30
0.0
 40
1.0
 50
270.000018
 51
0.0
  0
LINE
  5
1932A
  8
DANMEN
  6
CONTINUOUS
 10
210.0
 20
156.5
 30
0.0
 11
230.0
 21
156.5
 31
0.0
  0
LINE
  5
1932B
  8
DANMEN
  6
CONTINUOUS
 10
208.037293
 20
149.5
 30
0.0
 11
212.461092
 21
149.5
 31
0.0
  0
ARC
  5
1932D
  8
DANMEN
  6
CONTINUOUS
 10
208.037293
 20
149.0
 30
0.0
 40
0.5
 50
90.0
 51
98.530766
  0
LINE
  5
1932F
  8
DANMEN
  6
CONTINUOUS
 10
208.145438
 20
147.55
 30
0.0
 11
211.000002
 21
147.55
 31
0.0
  0
ARC
  5
19334
  8
DANMEN
  6
CONTINUOUS
 10
212.461097
 20
149.0
 30
0.0
 40
0.5
 50
355.710803
 51
90.0
  0
ARC
  5
19339
  8
DANMEN
  6
CONTINUOUS
 10
209.500002
 20
156.0
 30
0.0
 40
0.5
 50
359.999981
 51
89.999982
  0
ARC
  5
1933A
  8
DANMEN
  6
CONTINUOUS
 10
209.500002
 20
155.350006
 30
0.0
 40
0.5
 50
270.000018
 51
359.999981
  0
LINE
  5
1933B
  8
DANMEN
  6
CONTINUOUS
 10
210.000002
 20
156.0
 30
0.0
 11
210.000002
 21
155.350006
 31
0.0
  0
LINE
  5
1933C
  8
DANMEN
  6
CONTINUOUS
 10
230.0
 20
159.5
 30
0.0
 11
230.0
 21
155.300003
 31
0.0
  0
ARC
  5
19340
  8
DANMEN
  6
CONTINUOUS
 10
225.538906
 20
149.0
 30
0.0
 40
0.5
 50
90.0
 51
184.289197
  0
LINE
  5
19343
  8
DANMEN
  6
CONTINUOUS
 10
248.000002
 20
149.0
 30
0.0
 11
248.000002
 21
145.0
 31
0.0
  0
LINE
  5
19344
  8
DANMEN
  6
CONTINUOUS
 10
246.800005
 20
147.550003
 30
0.0
 11
246.800005
 21
145.3
 31
0.0
  0
LINE
  5
19345
  8
DANMEN
  6
CONTINUOUS
 10
236.999986
 20
147.550003
 30
0.0
 11
236.999986
 21
127.449997
 31
0.0
  0
LINE
  5
19346
  8
DANMEN
  6
CONTINUOUS
 10
235.049989
 20
147.550003
 30
0.0
 11
235.049989
 21
127.449997
 31
0.0
  0
LINE
  5
19347
  8
DANMEN
  6
CONTINUOUS
 10
248.0
 20
145.5
 30
0.0
 11
257.5
 21
145.5
 31
0.0
  0
LINE
  5
19348
  8
DANMEN
  6
CONTINUOUS
 10
248.0
 20
129.500015
 30
0.0
 11
257.5
 21
129.500015
 31
0.0
  0
LINE
  5
19349
  8
DANMEN
  6
CONTINUOUS
 10
248.0
 20
127.7
 30
0.0
 11
257.5
 21
127.7
 31
0.0
  0
LINE
  5
1934A
  8
DANMEN
  6
CONTINUOUS
 10
241.0
 20
134.999991
 30
0.0
 11
257.5
 21
134.999991
 31
0.0
  0
LINE
  5
1934B
  8
DANMEN
  6
CONTINUOUS
 10
240.999985
 20
139.999979
 30
0.0
 11
257.5
 21
139.999979
 31
0.0
  0
LINE
  5
1934C
  8
DANMEN
  6
CONTINUOUS
 10
241.0
 20
135.499991
 30
0.0
 11
257.5
 21
135.499991
 31
0.0
  0
LINE
  5
1934D
  8
DANMEN
  6
CONTINUOUS
 10
240.999985
 20
139.499979
 30
0.0
 11
257.5
 21
139.499979
 31
0.0
  0
LINE
  5
1934E
  8
DANMEN
  6
CONTINUOUS
 10
240.999985
 20
134.999991
 30
0.0
 11
240.999985
 21
139.999994
 31
0.0
  0
LINE
  5
1934F
  8
DANMEN
  6
CONTINUOUS
 10
236.999986
 20
127.449997
 30
0.0
 11
246.800005
 21
127.449997
 31
0.0
  0
LINE
  5
19352
  8
DANMEN
  6
CONTINUOUS
 10
248.000002
 20
126.0
 30
0.0
 11
248.000002
 21
130.0
 31
0.0
  0
LINE
  5
19353
  8
DANMEN
  6
CONTINUOUS
 10
245.444786
 20
129.85058
 30
0.0
 11
246.800005
 21
129.7
 31
0.0
  0
ARC
  5
19354
  8
DANMEN
  6
CONTINUOUS
 10
245.500002
 20
130.347521
 30
0.0
 40
0.5
 50
180.0
 51
263.659819
  0
LINE
  5
19355
  8
DANMEN
  6
CONTINUOUS
 10
246.800005
 20
127.449997
 30
0.0
 11
246.800005
 21
129.7
 31
0.0
  0
ARC
  5
19358
  8
DANMEN
  6
CONTINUOUS
 10
247.500002
 20
126.0
 30
0.0
 40
0.5
 50
270.000018
 51
0.0
  0
LINE
  5
1935A
  8
DANMEN
  6
CONTINUOUS
 10
245.000002
 20
130.5
 30
0.0
 11
247.500002
 21
130.5
 31
0.0
  0
LINE
  5
1935B
  8
DANMEN
  6
CONTINUOUS
 10
245.000002
 20
130.34752
 30
0.0
 11
245.000002
 21
130.5
 31
0.0
  0
ARC
  5
1935E
  8
DANMEN
  6
CONTINUOUS
 10
247.500002
 20
130.0
 30
0.0
 40
0.5
 50
0.0
 51
89.999982
  0
LINE
  5
19363
  8
DANMEN
  6
CONTINUOUS
 10
245.000002
 20
144.5
 30
0.0
 11
247.500002
 21
144.5
 31
0.0
  0
LINE
  5
19364
  8
DANMEN
  6
CONTINUOUS
 10
245.000002
 20
144.652481
 30
0.0
 11
245.000002
 21
144.5
 31
0.0
  0
ARC
  5
19367
  8
DANMEN
  6
CONTINUOUS
 10
247.500002
 20
145.0
 30
0.0
 40
0.5
 50
270.000018
 51
0.0
  0
LINE
  5
1936A
  8
DANMEN
  6
CONTINUOUS
 10
246.800005
 20
145.3
 30
0.0
 11
245.444786
 21
145.14942
 31
0.0
  0
ARC
  5
1936B
  8
DANMEN
  6
CONTINUOUS
 10
245.500002
 20
144.652479
 30
0.0
 40
0.5
 50
96.340181
 51
180.0
  0
ARC
  5
1936D
  8
DANMEN
  6
CONTINUOUS
 10
248.999908
 20
131.0
 30
0.0
 40
1.5
 50
269.999964
 51
0.000001
  0
ARC
  5
1936E
  8
DANMEN
  6
CONTINUOUS
 10
251.999908
 20
133.500006
 30
0.0
 40
1.5
 50
90.0
 51
179.999982
  0
LINE
  5
1936F
  8
DANMEN
  6
CONTINUOUS
 10
250.499908
 20
131.0
 30
0.0
 11
250.499908
 21
133.500006
 31
0.0
  0
ARC
  5
19370
  8
DANMEN
  6
CONTINUOUS
 10
251.999908
 20
141.500009
 30
0.0
 40
1.5
 50
179.999982
 51
269.999964
  0
LINE
  5
19371
  8
DANMEN
  6
CONTINUOUS
 10
250.499908
 20
141.500009
 30
0.0
 11
250.499908
 21
144.0
 31
0.0
  0
ARC
  5
19372
  8
DANMEN
  6
CONTINUOUS
 10
248.999908
 20
144.0
 30
0.0
 40
1.5
 50
0.000018
 51
90.0
  0
LINE
  5
19373
  8
DANMEN
  6
CONTINUOUS
 10
248.0
 20
147.3
 30
0.0
 11
257.5
 21
147.3
 31
0.0
  0
LINE
  5
19374
  8
DANMEN
  6
CONTINUOUS
 10
234.399994
 20
158.300003
 30
0.0
 11
257.5
 21
158.300003
 31
0.0
  0
LINE
  5
19375
  8
DANMEN
  6
CONTINUOUS
 10
234.399994
 20
159.5
 30
0.0
 11
257.5
 21
159.5
 31
0.0
  0
ARC
  5
19376
  8
DANMEN
  6
CONTINUOUS
 10
234.399994
 20
158.899994
 30
0.0
 40
0.6
 50
270.000018
 51
90.000037
  0
LINE
  5
19377
  8
DANMEN
  6
CONTINUOUS
 10
236.999986
 20
147.550003
 30
0.0
 11
246.800005
 21
147.550003
 31
0.0
  0
ARC
  5
1937E
  8
DANMEN
  6
CONTINUOUS
 10
247.500002
 20
149.0
 30
0.0
 40
0.5
 50
0.0
 51
89.999982
  0
LINE
  5
19381
  8
DANMEN
  6
CONTINUOUS
 10
296.95
 20
127.449997
 30
0.0
 11
308.050006
 21
127.449997
 31
0.0
  0
LINE
  5
19382
  8
DANMEN
  6
CONTINUOUS
 10
296.95
 20
147.550003
 30
0.0
 11
308.050006
 21
147.550003
 31
0.0
  0
LINE
  5
19383
  8
DANMEN
  6
CONTINUOUS
 10
270.500003
 20
125.5
 30
0.0
 11
298.500003
 21
125.5
 31
0.0
  0
LINE
  5
19384
  8
DANMEN
  6
CONTINUOUS
 10
270.500003
 20
149.5
 30
0.0
 11
309.000003
 21
149.5
 31
0.0
  0
LINE
  5
19385
  8
DANMEN
  6
CONTINUOUS
 10
295.95
 20
147.550003
 30
0.0
 11
295.95
 21
146.0
 31
0.0
  0
LINE
  5
19386
  8
DANMEN
  6
CONTINUOUS
 10
296.95
 20
147.550003
 30
0.0
 11
296.95
 21
145.5
 31
0.0
  0
LINE
  5
19387
  8
DANMEN
  6
CONTINUOUS
 10
271.200003
 20
147.550003
 30
0.0
 11
271.200003
 21
145.3
 31
0.0
  0
LINE
  5
19388
  8
DANMEN
  6
CONTINUOUS
 10
286.95
 20
147.550003
 30
0.0
 11
286.95
 21
127.449997
 31
0.0
  0
LINE
  5
19389
  8
DANMEN
  6
CONTINUOUS
 10
285.000003
 20
147.550003
 30
0.0
 11
285.000003
 21
127.449997
 31
0.0
  0
LINE
  5
1938A
  8
DANMEN
  6
CONTINUOUS
 10
270.000003
 20
149.0
 30
0.0
 11
270.000003
 21
145.0
 31
0.0
  0
LINE
  5
1938B
  8
DANMEN
  6
CONTINUOUS
 10
271.200003
 20
127.449997
 30
0.0
 11
285.000003
 21
127.449997
 31
0.0
  0
LINE
  5
1938C
  8
DANMEN
  6
CONTINUOUS
 10
277.000018
 20
140.000009
 30
0.0
 11
277.000018
 21
135.000006
 31
0.0
  0
ARC
  5
1938D
  8
DANMEN
  6
CONTINUOUS
 10
272.500003
 20
130.347521
 30
0.0
 40
0.5
 50
276.340191
 51
0.0
  0
LINE
  5
1938E
  8
DANMEN
  6
CONTINUOUS
 10
270.500003
 20
130.5
 30
0.0
 11
273.000003
 21
130.5
 31
0.0
  0
ARC
  5
1938F
  8
DANMEN
  6
CONTINUOUS
 10
269.000003
 20
131.0
 30
0.0
 40
1.5
 50
180.000018
 51
270.0
  0
LINE
  5
19390
  8
DANMEN
  6
CONTINUOUS
 10
272.555219
 20
129.85058
 30
0.0
 11
271.200003
 21
129.7
 31
0.0
  0
LINE
  5
19391
  8
DANMEN
  6
CONTINUOUS
 10
270.000003
 20
130.0
 30
0.0
 11
270.000003
 21
126.0
 31
0.0
  0
ARC
  5
19393
  8
DANMEN
  6
CONTINUOUS
 10
270.500003
 20
126.0
 30
0.0
 40
0.5
 50
180.000019
 51
270.000001
  0
LINE
  5
19396
  8
DANMEN
  6
CONTINUOUS
 10
271.200003
 20
129.7
 30
0.0
 11
271.200003
 21
127.449997
 31
0.0
  0
ARC
  5
19397
  8
DANMEN
  6
CONTINUOUS
 10
266.000003
 20
133.499991
 30
0.0
 40
1.5
 50
359.999982
 51
89.999964
  0
LINE
  5
19398
  8
DANMEN
  6
CONTINUOUS
 10
267.500003
 20
133.499991
 30
0.0
 11
267.500003
 21
131.0
 31
0.0
  0
ARC
  5
19399
  8
DANMEN
  6
CONTINUOUS
 10
270.500003
 20
130.0
 30
0.0
 40
0.5
 50
89.999982
 51
180.000019
  0
ARC
  5
1939E
  8
DANMEN
  6
CONTINUOUS
 10
274.845226
 20
125.3
 30
0.0
 40
1.0
 50
90.0
 51
147.20046
  0
ARC
  5
193A1
  8
DANMEN
  6
CONTINUOUS
 10
276.200003
 20
125.7
 30
0.0
 40
0.6
 50
0.0
 51
90.0
  0
LINE
  5
193A6
  8
DANMEN
  6
CONTINUOUS
 10
274.845226
 20
125.3
 30
0.0
 11
275.800003
 21
125.3
 31
0.0
  0
LINE
  5
193A7
  8
DANMEN
  6
CONTINUOUS
 10
274.845226
 20
126.3
 30
0.0
 11
276.200003
 21
126.3
 31
0.0
  0
LINE
  5
193AB
  8
DANMEN
  6
CONTINUOUS
 10
273.000003
 20
130.5
 30
0.0
 11
273.000003
 21
130.347521
 31
0.0
  0
ARC
  5
193AC
  8
DANMEN
  6
CONTINUOUS
 10
272.500003
 20
144.652479
 30
0.0
 40
0.5
 50
0.0
 51
83.659809
  0
LINE
  5
193AD
  8
DANMEN
  6
CONTINUOUS
 10
270.500003
 20
144.5
 30
0.0
 11
273.000003
 21
144.5
 31
0.0
  0
ARC
  5
193AE
  8
DANMEN
  6
CONTINUOUS
 10
266.000003
 20
141.499994
 30
0.0
 40
1.5
 50
270.0
 51
359.999982
  0
ARC
  5
193B1
  8
DANMEN
  6
CONTINUOUS
 10
269.000003
 20
144.0
 30
0.0
 40
1.5
 50
89.999964
 51
180.000001
  0
LINE
  5
193B2
  8
DANMEN
  6
CONTINUOUS
 10
267.500003
 20
144.0
 30
0.0
 11
267.500003
 21
141.499994
 31
0.0
  0
LINE
  5
193B3
  8
DANMEN
  6
CONTINUOUS
 10
271.200003
 20
145.3
 30
0.0
 11
272.555219
 21
145.14942
 31
0.0
  0
ARC
  5
193B5
  8
DANMEN
  6
CONTINUOUS
 10
270.500003
 20
145.0
 30
0.0
 40
0.5
 50
180.000019
 51
270.000001
  0
LINE
  5
193BA
  8
DANMEN
  6
CONTINUOUS
 10
273.000003
 20
144.652479
 30
0.0
 11
273.000003
 21
144.5
 31
0.0
  0
LINE
  5
193BB
  8
DANMEN
  6
CONTINUOUS
 10
286.95
 20
127.449997
 30
0.0
 11
295.95
 21
127.449997
 31
0.0
  0
ARC
  5
193C0
  8
DANMEN
  6
CONTINUOUS
 10
296.45
 20
129.0
 30
0.0
 40
0.5
 50
89.999982
 51
180.000019
  0
LINE
  5
193C3
  8
DANMEN
  6
CONTINUOUS
 10
296.45
 20
129.5
 30
0.0
 11
296.95
 21
129.5
 31
0.0
  0
LINE
  5
193C4
  8
DANMEN
  6
CONTINUOUS
 10
295.95
 20
129.0
 30
0.0
 11
295.95
 21
127.449997
 31
0.0
  0
LINE
  5
193C5
  8
DANMEN
  6
CONTINUOUS
 10
296.95
 20
129.5
 30
0.0
 11
296.95
 21
127.449997
 31
0.0
  0
ARC
  5
193C6
  8
DANMEN
  6
CONTINUOUS
 10
296.45
 20
146.0
 30
0.0
 40
0.5
 50
180.000019
 51
270.000001
  0
LINE
  5
193C9
  8
DANMEN
  6
CONTINUOUS
 10
296.45
 20
145.5
 30
0.0
 11
296.95
 21
145.5
 31
0.0
  0
LINE
  5
193CA
  8
DANMEN
  6
CONTINUOUS
 10
271.200003
 20
147.550003
 30
0.0
 11
285.000003
 21
147.550003
 31
0.0
  0
ARC
  5
193CB
  8
DANMEN
  6
CONTINUOUS
 10
270.500003
 20
149.0
 30
0.0
 40
0.5
 50
89.999982
 51
180.000019
  0
LINE
  5
193CE
  8
DANMEN
  6
CONTINUOUS
 10
286.95
 20
147.550003
 30
0.0
 11
295.95
 21
147.550003
 31
0.0
  0
LINE
  5
193D3
  8
DANMEN
  6
CONTINUOUS
 10
308.050006
 20
147.550003
 30
0.0
 11
308.050006
 21
127.449997
 31
0.0
  0
LINE
  5
193D4
  8
DANMEN
  6
CONTINUOUS
 10
300.000003
 20
125.5
 30
0.0
 11
308.800003
 21
125.5
 31
0.0
  0
ARC
  5
193D9
  8
DANMEN
  6
CONTINUOUS
 10
309.000003
 20
148.5
 30
0.0
 40
1.0
 50
0.0
 51
89.999982
  0
LINE
  5
193DC
  8
SUNPO
  6
CONTINUOUS
 10
19.0
 20
188.5
 30
0.0
 11
19.0
 21
223.5
 31
0.0
  0
LINE
  5
193DD
  8
DANMEN
  6
CONTINUOUS
 10
370.0
 20
156.5
 30
0.0
 11
350.0
 21
156.5
 31
0.0
  0
LINE
  5
193DE
  8
DANMEN
  6
CONTINUOUS
 10
336.5
 20
136.0
 30
0.0
 11
385.0
 21
136.0
 31
0.0
  0
LINE
  5
193DF
  8
DANMEN
  6
CONTINUOUS
 10
336.5
 20
139.0
 30
0.0
 11
385.0
 21
139.0
 31
0.0
  0
LINE
  5
193E0
  8
DANMEN
  6
CONTINUOUS
 10
336.5
 20
149.5
 30
0.0
 11
385.0
 21
149.5
 31
0.0
  0
LINE
  5
193E1
  8
DANMEN
  6
CONTINUOUS
 10
345.600006
 20
158.300003
 30
0.0
 11
350.0
 21
158.300003
 31
0.0
  0
LINE
  5
193E2
  8
DANMEN
  6
CONTINUOUS
 10
345.600006
 20
159.5
 30
0.0
 11
350.0
 21
159.5
 31
0.0
  0
LINE
  5
193E3
  8
DANMEN
  6
CONTINUOUS
 10
350.0
 20
155.300003
 30
0.0
 11
336.5
 21
155.300003
 31
0.0
  0
ARC
  5
193E4
  8
DANMEN
  6
CONTINUOUS
 10
345.600006
 20
158.899994
 30
0.0
 40
0.6
 50
89.999963
 51
269.999982
  0
LINE
  5
193E5
  8
DANMEN
  6
CONTINUOUS
 10
345.600006
 20
158.300003
 30
0.0
 11
336.5
 21
158.300003
 31
0.0
  0
LINE
  5
193E8
  8
DANMEN
  6
CONTINUOUS
 10
345.600006
 20
159.5
 30
0.0
 11
336.5
 21
159.5
 31
0.0
  0
LINE
  5
193EB
  8
DANMEN
  6
CONTINUOUS
 10
350.0
 20
159.5
 30
0.0
 11
350.0
 21
155.300003
 31
0.0
  0
LINE
  5
193ED
  8
DANMEN
  6
CONTINUOUS
 10
383.0
 20
154.850006
 30
0.0
 11
370.5
 21
154.850006
 31
0.0
  0
LINE
  5
193EE
  8
DANMEN
  6
CONTINUOUS
 10
394.5
 20
156.5
 30
0.0
 11
370.5
 21
156.5
 31
0.0
  0
ARC
  5
193EF
  8
DANMEN
  6
CONTINUOUS
 10
370.5
 20
156.0
 30
0.0
 40
0.5
 50
90.000037
 51
180.000019
  0
ARC
  5
193F0
  8
DANMEN
  6
CONTINUOUS
 10
370.5
 20
155.350006
 30
0.0
 40
0.5
 50
180.000019
 51
270.000001
  0
LINE
  5
193F1
  8
DANMEN
  6
CONTINUOUS
 10
370.0
 20
156.0
 30
0.0
 11
370.0
 21
155.350006
 31
0.0
  0
LINE
  5
193F2
  8
DANMEN
  6
CONTINUOUS
 10
393.350006
 20
154.850006
 30
0.0
 11
386.649994
 21
154.850006
 31
0.0
  0
LINE
  5
193F3
  8
DANMEN
  6
CONTINUOUS
 10
385.0
 20
155.400003
 30
0.0
 11
383.0
 21
155.400003
 31
0.0
  0
LINE
  5
193F4
  8
DANMEN
  6
CONTINUOUS
 10
383.0
 20
155.400003
 30
0.0
 11
383.0
 21
154.850006
 31
0.0
  0
LINE
  5
193F5
  8
DANMEN
  6
CONTINUOUS
 10
393.350006
 20
154.850006
 30
0.0
 11
393.350006
 21
151.0
 31
0.0
  0
LINE
  5
193F6
  8
DANMEN
  6
CONTINUOUS
 10
395.0
 20
156.0
 30
0.0
 11
395.0
 21
151.0
 31
0.0
  0
ARC
  5
193F7
  8
DANMEN
  6
CONTINUOUS
 10
393.850006
 20
151.0
 30
0.0
 40
0.5
 50
180.000019
 51
270.000001
  0
ARC
  5
193F8
  8
DANMEN
  6
CONTINUOUS
 10
394.5
 20
151.0
 30
0.0
 40
0.5
 50
270.000018
 51
359.999981
  0
LINE
  5
193F9
  8
DANMEN
  6
CONTINUOUS
 10
394.5
 20
150.5
 30
0.0
 11
393.850006
 21
150.5
 31
0.0
  0
ARC
  5
193FA
  8
DANMEN
  6
CONTINUOUS
 10
394.5
 20
156.0
 30
0.0
 40
0.5
 50
0.0
 51
89.999982
  0
TEXT
  5
193FB
  8
SUNPO
  6
CONTINUOUS
 10
55.916667
 20
169.5
 30
0.0
 40
2.5
  1
24
  7
MX_NOTE_STANDARD
  0
TEXT
  5
193FC
  8
SUNPO
  6
CONTINUOUS
 10
41.666667
 20
169.5
 30
0.0
 40
2.5
  1
7
  7
MX_NOTE_STANDARD
  0
TEXT
  5
193FD
  8
SUNPO
  6
CONTINUOUS
 10
31.013333
 20
169.5
 30
0.0
 40
2.5
  1
3
  7
MX_NOTE_STANDARD
  0
LINE
  5
193FE
  8
SUNPO
  6
CONTINUOUS
 10
37.5
 20
153.5
 30
0.0
 11
19.0
 21
153.5
 31
0.0
  0
ARC
  5
193FF
  8
SUNPO
  6
BYBLOCK
 10
19.0
 20
153.5
 30
0.0
 40
0.145
 50
90.0
 51
270.0
  0
ARC
  5
19400
  8
SUNPO
  6
BYBLOCK
 10
19.0
 20
153.5
 30
0.0
 40
0.145
 50
270.0
 51
90.0
  0
LINE
  5
19401
  8
SUNPO
  6
CONTINUOUS
 10
46.0
 20
168.5
 30
0.0
 11
39.0
 21
168.5
 31
0.0
  0
LINE
  5
19402
  8
SUNPO
  6
CONTINUOUS
 10
39.0
 20
168.5
 30
0.0
 11
36.0
 21
168.5
 31
0.0
  0
LINE
  5
19403
  8
SUNPO
  6
CONTINUOUS
 10
36.0
 20
160.0
 30
0.0
 11
36.0
 21
168.5
 31
0.0
  0
LINE
  5
19404
  8
SUNPO
  6
CONTINUOUS
 10
36.0
 20
168.5
 30
0.0
 11
30.013333
 21
168.5
 31
0.0
  0
ARC
  5
19405
  8
SUNPO
  6
BYBLOCK
 10
36.0
 20
168.5
 30
0.0
 40
0.145
 50
180.0
 51
0.0
  0
ARC
  5
19406
  8
SUNPO
  6
BYBLOCK
 10
36.0
 20
168.5
 30
0.0
 40
0.145
 50
0.0
 51
180.0
  0
ARC
  5
19407
  8
SUNPO
  6
BYBLOCK
 10
39.0
 20
168.5
 30
0.0
 40
0.145
 50
0.0
 51
180.0
  0
ARC
  5
19408
  8
SUNPO
  6
BYBLOCK
 10
39.0
 20
168.5
 30
0.0
 40
0.145
 50
180.0
 51
0.0
  0
ARC
  5
19409
  8
SUNPO
  6
BYBLOCK
 10
39.0
 20
168.5
 30
0.0
 40
0.145
 50
180.0
 51
0.0
  0
ARC
  5
1940A
  8
SUNPO
  6
BYBLOCK
 10
39.0
 20
168.5
 30
0.0
 40
0.145
 50
0.0
 51
180.0
  0
ARC
  5
1940B
  8
SUNPO
  6
BYBLOCK
 10
46.0
 20
168.5
 30
0.0
 40
0.145
 50
0.0
 51
180.0
  0
ARC
  5
1940C
  8
SUNPO
  6
BYBLOCK
 10
46.0
 20
168.5
 30
0.0
 40
0.145
 50
180.0
 51
0.0
  0
ARC
  5
1940D
  8
SUNPO
  6
BYBLOCK
 10
46.0
 20
168.5
 30
0.0
 40
0.145
 50
180.0
 51
0.0
  0
ARC
  5
1940E
  8
SUNPO
  6
BYBLOCK
 10
46.0
 20
168.5
 30
0.0
 40
0.145
 50
0.0
 51
180.0
  0
LINE
  5
1940F
  8
SUNPO
  6
CONTINUOUS
 10
37.5
 20
188.5
 30
0.0
 11
19.0
 21
188.5
 31
0.0
  0
ARC
  5
19410
  8
SUNPO
  6
BYBLOCK
 10
19.0
 20
188.5
 30
0.0
 40
0.145
 50
270.0
 51
90.0
  0
ARC
  5
19411
  8
SUNPO
  6
BYBLOCK
 10
19.0
 20
188.5
 30
0.0
 40
0.145
 50
90.0
 51
270.0
  0
TEXT
  5
19412
  8
SUNPO
  6
CONTINUOUS
 10
18.0
 20
203.916667
 30
0.0
 40
2.5
  1
35
 50
90.0
  7
MX_NOTE_STANDARD
  0
ARC
  5
19413
  8
SUNPO
  6
BYBLOCK
 10
39.0
 20
178.5
 30
0.0
 40
0.145
 50
180.0
 51
0.0
  0
ARC
  5
19414
  8
SUNPO
  6
BYBLOCK
 10
39.0
 20
178.5
 30
0.0
 40
0.145
 50
0.0
 51
180.0
  0
LINE
  5
19415
  8
SUNPO
  6
CONTINUOUS
 10
37.5
 20
258.5
 30
0.0
 11
19.0
 21
258.5
 31
0.0
  0
LINE
  5
19416
  8
SUNPO
  6
CONTINUOUS
 10
37.5
 20
223.5
 30
0.0
 11
19.0
 21
223.5
 31
0.0
  0
TEXT
  5
19417
  8
SUNPO
  6
CONTINUOUS
 10
18.0
 20
238.916667
 30
0.0
 40
2.5
  1
35
 50
90.0
  7
MX_NOTE_STANDARD
  0
LINE
  5
19418
  8
SUNPO
  6
CONTINUOUS
 10
19.0
 20
258.5
 30
0.0
 11
19.0
 21
223.5
 31
0.0
  0
ARC
  5
19419
  8
SUNPO
  6
BYBLOCK
 10
19.0
 20
223.5
 30
0.0
 40
0.145
 50
270.0
 51
90.0
  0
ARC
  5
1941A
  8
SUNPO
  6
BYBLOCK
 10
19.0
 20
223.5
 30
0.0
 40
0.145
 50
90.0
 51
270.0
  0
ARC
  5
1941B
  8
SUNPO
  6
BYBLOCK
 10
19.0
 20
223.5
 30
0.0
 40
0.145
 50
90.0
 51
270.0
  0
ARC
  5
1941C
  8
SUNPO
  6
BYBLOCK
 10
19.0
 20
223.5
 30
0.0
 40
0.145
 50
270.0
 51
90.0
  0
ARC
  5
1941D
  8
SUNPO
  6
BYBLOCK
 10
19.0
 20
258.5
 30
0.0
 40
0.145
 50
90.0
 51
270.0
  0
ARC
  5
1941E
  8
SUNPO
  6
BYBLOCK
 10
19.0
 20
258.5
 30
0.0
 40
0.145
 50
270.0
 51
90.0
  0
LINE
  5
1941F
  8
SUNPO
  6
CONTINUOUS
 10
150.0
 20
223.5
 30
0.0
 11
150.0
 21
188.5
 31
0.0
  0
LINE
  5
19420
  8
SUNPO
  6
CONTINUOUS
 10
160.0
 20
223.5
 30
0.0
 11
160.0
 21
172.374644
 31
0.0
  0
LINE
  5
19421
  8
SUNPO
  6
CONTINUOUS
 10
127.5
 20
168.5
 30
0.0
 11
109.0
 21
168.5
 31
0.0
  0
LINE
  5
19422
  8
SUNPO
  6
CONTINUOUS
 10
110.5
 20
188.5
 30
0.0
 11
150.0
 21
188.5
 31
0.0
  0
LINE
  5
19423
  8
SUNPO
  6
CONTINUOUS
 10
110.5
 20
153.5
 30
0.0
 11
150.0
 21
153.5
 31
0.0
  0
TEXT
  5
19424
  8
SUNPO
  6
CONTINUOUS
 10
114.916667
 20
169.5
 30
0.0
 40
2.5
  1
18.5
  7
MX_NOTE_STANDARD
  0
TEXT
  5
19425
  8
SUNPO
  6
CONTINUOUS
 10
73.166667
 20
169.5
 30
0.0
 40
2.5
  1
8
  7
MX_NOTE_STANDARD
  0
TEXT
  5
19426
  8
SUNPO
  6
CONTINUOUS
 10
91.833333
 20
169.5
 30
0.0
 40
2.5
  1
31
  7
MX_NOTE_STANDARD
  0
LINE
  5
19427
  8
SUNPO
  6
CONTINUOUS
 10
78.0
 20
168.5
 30
0.0
 11
109.0
 21
168.5
 31
0.0
  0
ARC
  5
19428
  8
SUNPO
  6
BYBLOCK
 10
78.0
 20
168.5
 30
0.0
 40
0.145
 50
180.0
 51
0.0
  0
ARC
  5
19429
  8
SUNPO
  6
BYBLOCK
 10
78.0
 20
168.5
 30
0.0
 40
0.145
 50
0.0
 51
180.0
  0
ARC
  5
1942A
  8
SUNPO
  6
BYBLOCK
 10
78.0
 20
168.5
 30
0.0
 40
0.145
 50
0.0
 51
180.0
  0
ARC
  5
1942B
  8
SUNPO
  6
BYBLOCK
 10
78.0
 20
168.5
 30
0.0
 40
0.145
 50
180.0
 51
0.0
  0
LINE
  5
1942C
  8
SUNPO
  6
CONTINUOUS
 10
78.0
 20
168.5
 30
0.0
 11
70.0
 21
168.5
 31
0.0
  0
ARC
  5
1942D
  8
SUNPO
  6
BYBLOCK
 10
70.0
 20
168.5
 30
0.0
 40
0.145
 50
180.0
 51
0.0
  0
ARC
  5
1942E
  8
SUNPO
  6
BYBLOCK
 10
70.0
 20
168.5
 30
0.0
 40
0.145
 50
0.0
 51
180.0
  0
ARC
  5
1942F
  8
SUNPO
  6
BYBLOCK
 10
70.0
 20
168.5
 30
0.0
 40
0.145
 50
0.0
 51
180.0
  0
ARC
  5
19430
  8
SUNPO
  6
BYBLOCK
 10
70.0
 20
168.5
 30
0.0
 40
0.145
 50
180.0
 51
0.0
  0
LINE
  5
19431
  8
SUNPO
  6
CONTINUOUS
 10
109.0
 20
135.497913
 30
0.0
 11
109.0
 21
168.5
 31
0.0
  0
ARC
  5
19432
  8
SUNPO
  6
BYBLOCK
 10
109.0
 20
168.5
 30
0.0
 40
0.145
 50
0.0
 51
180.0
  0
ARC
  5
19433
  8
SUNPO
  6
BYBLOCK
 10
109.0
 20
168.5
 30
0.0
 40
0.145
 50
180.0
 51
0.0
  0
ARC
  5
19434
  8
SUNPO
  6
BYBLOCK
 10
109.0
 20
168.5
 30
0.0
 40
0.145
 50
180.0
 51
0.0
  0
ARC
  5
19435
  8
SUNPO
  6
BYBLOCK
 10
109.0
 20
168.5
 30
0.0
 40
0.145
 50
0.0
 51
180.0
  0
TEXT
  5
19436
  8
SUNPO
  6
CONTINUOUS
 10
73.443604
 20
179.5
 30
0.0
 40
2.5
  1
70
  7
MX_NOTE_STANDARD
  0
LINE
  5
19437
  8
SUNPO
  6
CONTINUOUS
 10
109.0
 20
183.002085
 30
0.0
 11
109.0
 21
178.5
 31
0.0
  0
ARC
  5
19438
  8
SUNPO
  6
BYBLOCK
 10
109.0
 20
178.5
 30
0.0
 40
0.145
 50
0.0
 51
180.0
  0
ARC
  5
19439
  8
SUNPO
  6
BYBLOCK
 10
109.0
 20
178.5
 30
0.0
 40
0.145
 50
180.0
 51
0.0
  0
LINE
  5
1943A
  8
SUNPO
  6
CONTINUOUS
 10
156.0
 20
154.641045
 30
0.0
 11
164.0
 21
154.641045
 31
0.0
  0
LINE
  5
1943B
  8
SUNPO
  6
CONTINUOUS
 10
156.0
 20
162.141045
 30
0.0
 11
164.0
 21
162.141045
 31
0.0
  0
LINE
  5
1943C
  8
SUNPO
  6
CONTINUOUS
 10
156.0
 20
156.641045
 30
0.0
 11
164.0
 21
156.641045
 31
0.0
  0
TEXT
  5
1943D
  8
SUNPO
  6
CONTINUOUS
 10
149.0
 20
124.416667
 30
0.0
 40
2.5
  1
54
 50
90.0
  7
MX_NOTE_STANDARD
  0
ARC
  5
1943E
  8
SUNPO
  6
BYBLOCK
 10
127.5
 20
168.5
 30
0.0
 40
0.145
 50
0.0
 51
180.0
  0
ARC
  5
1943F
  8
SUNPO
  6
BYBLOCK
 10
127.5
 20
168.5
 30
0.0
 40
0.145
 50
180.0
 51
0.0
  0
ARC
  5
19440
  8
SUNPO
  6
BYBLOCK
 10
150.0
 20
153.5
 30
0.0
 40
0.145
 50
90.0
 51
270.0
  0
ARC
  5
19441
  8
SUNPO
  6
BYBLOCK
 10
150.0
 20
153.5
 30
0.0
 40
0.145
 50
270.0
 51
90.0
  0
LINE
  5
19442
  8
SUNPO
  6
CONTINUOUS
 10
156.0
 20
158.041039
 30
0.0
 11
156.0
 21
152.843696
 31
0.0
  0
LINE
  5
19443
  8
SUNPO
  6
CONTINUOUS
 10
156.0
 20
164.153991
 30
0.0
 11
156.0
 21
160.420944
 31
0.0
  0
LINE
  5
19444
  8
SUNPO
  6
CONTINUOUS
 10
158.799927
 20
170.156304
 30
0.0
 11
158.799927
 21
165.367761
 31
0.0
  0
LINE
  5
19445
  8
SUNPO
  6
CONTINUOUS
 10
160.0
 20
162.141045
 30
0.0
 11
160.0
 21
156.641045
 31
0.0
  0
LINE
  5
19446
  8
SUNPO
  6
CONTINUOUS
 10
164.0
 20
158.041039
 30
0.0
 11
164.0
 21
152.843696
 31
0.0
  0
LINE
  5
19448
  8
SUNPO
  6
CONTINUOUS
 10
164.0
 20
164.153991
 30
0.0
 11
164.0
 21
160.420944
 31
0.0
  0
LINE
  5
1944A
  8
SUNPO
  6
CONTINUOUS
 10
161.199921
 20
170.156304
 30
0.0
 11
161.199921
 21
165.367761
 31
0.0
  0
ARC
  5
1944B
  8
SUNPO
  6
BYBLOCK
 10
150.0
 20
188.5
 30
0.0
 40
0.145
 50
270.0
 51
90.0
  0
ARC
  5
1944C
  8
SUNPO
  6
BYBLOCK
 10
150.0
 20
188.5
 30
0.0
 40
0.145
 50
90.0
 51
270.0
  0
TEXT
  5
1944D
  8
SUNPO
  6
CONTINUOUS
 10
149.0
 20
203.916667
 30
0.0
 40
2.5
  1
35
 50
90.0
  7
MX_NOTE_STANDARD
  0
LINE
  5
1944E
  8
SUNPO
  6
CONTINUOUS
 10
110.5
 20
223.5
 30
0.0
 11
160.0
 21
223.5
 31
0.0
  0
LINE
  5
1944F
  8
SUNPO
  6
CONTINUOUS
 10
110.5
 20
258.5
 30
0.0
 11
160.0
 21
258.5
 31
0.0
  0
ARC
  5
19450
  8
SUNPO
  6
BYBLOCK
 10
160.0
 20
258.5
 30
0.0
 40
0.145
 50
90.0
 51
270.0
  0
LINE
  5
19451
  8
SUNPO
  6
CONTINUOUS
 10
155.0
 20
218.5
 30
0.0
 11
160.0
 21
223.5
 31
0.0
  0
LINE
  5
19452
  8
SUNPO
  6
CONTINUOUS
 10
165.0
 20
218.5
 30
0.0
 11
155.0
 21
218.5
 31
0.0
  0
TEXT
  5
19453
  8
SUNPO
  6
CONTINUOUS
 10
159.0
 20
238.916667
 30
0.0
 40
2.5
  1
35
 50
90.0
  7
MX_NOTE_STANDARD
  0
ARC
  5
19454
  8
SUNPO
  6
BYBLOCK
 10
150.0
 20
223.5
 30
0.0
 40
0.145
 50
90.0
 51
270.0
  0
ARC
  5
19455
  8
SUNPO
  6
BYBLOCK
 10
150.0
 20
223.5
 30
0.0
 40
0.145
 50
270.0
 51
90.0
  0
LINE
  5
19457
  8
SUNPO
  6
CONTINUOUS
 10
160.0
 20
258.5
 30
0.0
 11
160.0
 21
223.5
 31
0.0
  0
LINE
  5
19458
  8
SUNPO
  6
CONTINUOUS
 10
160.0
 20
223.5
 30
0.0
 11
165.0
 21
218.5
 31
0.0
  0
ARC
  5
1945B
  8
SUNPO
  6
BYBLOCK
 10
160.0
 20
258.5
 30
0.0
 40
0.145
 50
270.0
 51
90.0
  0
LINE
  5
1945C
  8
SUNPO
  6
CONTINUOUS
 10
198.0
 20
166.5
 30
0.0
 11
248.0
 21
166.5
 31
0.0
  0
LINE
  5
1945D
  8
SUNPO
  6
CONTINUOUS
 10
195.0
 20
158.0
 30
0.0
 11
195.0
 21
166.5
 31
0.0
  0
LINE
  5
1945E
  8
SUNPO
  6
CONTINUOUS
 10
198.0
 20
159.5
 30
0.0
 11
198.0
 21
166.5
 31
0.0
  0
TEXT
  5
1945F
  8
SUNPO
  6
CONTINUOUS
 10
195.666667
 20
167.5
 30
0.0
 40
2.5
  1
3
  7
MX_NOTE_STANDARD
  0
LINE
  5
19460
  8
SUNPO
  6
CONTINUOUS
 10
198.0
 20
166.5
 30
0.0
 11
195.0
 21
166.5
 31
0.0
  0
ARC
  5
19461
  8
SUNPO
  6
BYBLOCK
 10
195.0
 20
166.5
 30
0.0
 40
0.145
 50
180.0
 51
0.0
  0
ARC
  5
19462
  8
SUNPO
  6
BYBLOCK
 10
195.0
 20
166.5
 30
0.0
 40
0.145
 50
0.0
 51
180.0
  0
ARC
  5
19463
  8
SUNPO
  6
BYBLOCK
 10
198.0
 20
166.5
 30
0.0
 40
0.145
 50
0.0
 51
180.0
  0
ARC
  5
19464
  8
SUNPO
  6
BYBLOCK
 10
198.0
 20
166.5
 30
0.0
 40
0.145
 50
180.0
 51
0.0
  0
ARC
  5
19465
  8
SUNPO
  6
BYBLOCK
 10
198.0
 20
166.5
 30
0.0
 40
0.145
 50
180.0
 51
0.0
  0
ARC
  5
19466
  8
SUNPO
  6
BYBLOCK
 10
198.0
 20
166.5
 30
0.0
 40
0.145
 50
0.0
 51
180.0
  0
TEXT
  5
19467
  8
SUNPO
  6
CONTINUOUS
 10
221.125
 20
167.5
 30
0.0
 40
2.5
  1
50
  7
MX_NOTE_STANDARD
  0
LINE
  5
19468
  8
SUNPO
  6
CONTINUOUS
 10
231.5
 20
156.5
 30
0.0
 11
251.5
 21
156.5
 31
0.0
  0
LINE
  5
19469
  8
SUNPO
  6
CONTINUOUS
 10
251.5
 20
156.5
 30
0.0
 11
251.5
 21
159.5
 31
0.0
  0
LINE
  5
1946A
  8
SUNPO
  6
CONTINUOUS
 10
248.0
 20
158.0
 30
0.0
 11
248.0
 21
166.5
 31
0.0
  0
ARC
  5
1946B
  8
SUNPO
  6
BYBLOCK
 10
251.5
 20
156.5
 30
0.0
 40
0.145
 50
270.0
 51
90.0
  0
ARC
  5
1946C
  8
SUNPO
  6
BYBLOCK
 10
251.5
 20
156.5
 30
0.0
 40
0.145
 50
90.0
 51
270.0
  0
ARC
  5
1946D
  8
SUNPO
  6
BYBLOCK
 10
251.5
 20
156.5
 30
0.0
 40
0.145
 50
90.0
 51
270.0
  0
ARC
  5
1946E
  8
SUNPO
  6
BYBLOCK
 10
251.5
 20
156.5
 30
0.0
 40
0.145
 50
270.0
 51
90.0
  0
TEXT
  5
1946F
  8
SUNPO
  6
CONTINUOUS
 10
250.5
 20
162.82
 30
0.0
 40
2.5
  1
3
 50
90.0
  7
MX_NOTE_STANDARD
  0
ARC
  5
19470
  8
SUNPO
  6
BYBLOCK
 10
248.0
 20
166.5
 30
0.0
 40
0.145
 50
0.0
 51
180.0
  0
ARC
  5
19471
  8
SUNPO
  6
BYBLOCK
 10
248.0
 20
166.5
 30
0.0
 40
0.145
 50
180.0
 51
0.0
  0
LINE
  5
19472
  8
SUNPO
  6
CONTINUOUS
 10
251.5
 20
159.5
 30
0.0
 11
251.5
 21
165.486667
 31
0.0
  0
ARC
  5
19473
  8
SUNPO
  6
BYBLOCK
 10
251.5
 20
159.5
 30
0.0
 40
0.145
 50
90.0
 51
270.0
  0
ARC
  5
19474
  8
SUNPO
  6
BYBLOCK
 10
251.5
 20
159.5
 30
0.0
 40
0.145
 50
270.0
 51
90.0
  0
LINE
  5
19475
  8
SUNPO
  6
CONTINUOUS
 10
370.0
 20
166.5
 30
0.0
 11
395.0
 21
166.5
 31
0.0
  0
LINE
  5
19476
  8
SUNPO
  6
CONTINUOUS
 10
327.0
 20
149.5
 30
0.0
 11
327.0
 21
125.5
 31
0.0
  0
ARC
  5
19477
  8
SUNPO
  6
BYBLOCK
 10
327.0
 20
125.5
 30
0.0
 40
0.145
 50
270.0
 51
90.0
  0
ARC
  5
19478
  8
SUNPO
  6
BYBLOCK
 10
327.0
 20
125.5
 30
0.0
 40
0.145
 50
90.0
 51
270.0
  0
ARC
  5
19479
  8
SUNPO
  6
BYBLOCK
 10
327.0
 20
125.5
 30
0.0
 40
0.145
 50
90.0
 51
270.0
  0
ARC
  5
1947A
  8
SUNPO
  6
BYBLOCK
 10
327.0
 20
125.5
 30
0.0
 40
0.145
 50
270.0
 51
90.0
  0
LINE
  5
1947B
  8
SUNPO
  6
CONTINUOUS
 10
348.5
 20
156.5
 30
0.0
 11
327.0
 21
156.5
 31
0.0
  0
LINE
  5
1947C
  8
SUNPO
  6
CONTINUOUS
 10
327.0
 20
149.5
 30
0.0
 11
327.0
 21
156.5
 31
0.0
  0
ARC
  5
1947D
  8
SUNPO
  6
BYBLOCK
 10
327.0
 20
149.5
 30
0.0
 40
0.145
 50
270.0
 51
90.0
  0
ARC
  5
1947E
  8
SUNPO
  6
BYBLOCK
 10
327.0
 20
149.5
 30
0.0
 40
0.145
 50
90.0
 51
270.0
  0
ARC
  5
1947F
  8
SUNPO
  6
BYBLOCK
 10
327.0
 20
149.5
 30
0.0
 40
0.145
 50
90.0
 51
270.0
  0
ARC
  5
19480
  8
SUNPO
  6
BYBLOCK
 10
327.0
 20
149.5
 30
0.0
 40
0.145
 50
270.0
 51
90.0
  0
ARC
  5
19481
  8
SUNPO
  6
BYBLOCK
 10
327.0
 20
156.5
 30
0.0
 40
0.145
 50
90.0
 51
270.0
  0
ARC
  5
19482
  8
SUNPO
  6
BYBLOCK
 10
327.0
 20
156.5
 30
0.0
 40
0.145
 50
270.0
 51
90.0
  0
LINE
  5
19483
  8
SUNPO
  6
CONTINUOUS
 10
370.0
 20
156.850006
 30
0.0
 11
370.0
 21
166.5
 31
0.0
  0
ARC
  5
19484
  8
SUNPO
  6
BYBLOCK
 10
370.0
 20
166.5
 30
0.0
 40
0.145
 50
180.0
 51
0.0
  0
ARC
  5
19485
  8
SUNPO
  6
BYBLOCK
 10
370.0
 20
166.5
 30
0.0
 40
0.145
 50
0.0
 51
180.0
  0
TEXT
  5
19486
  8
SUNPO
  6
CONTINUOUS
 10
380.416667
 20
167.5
 30
0.0
 40
2.5
  1
25
  7
MX_NOTE_STANDARD
  0
LINE
  5
19487
  8
SUNPO
  6
CONTINUOUS
 10
395.0
 20
157.5
 30
0.0
 11
395.0
 21
166.5
 31
0.0
  0
ARC
  5
19488
  8
SUNPO
  6
BYBLOCK
 10
395.0
 20
166.5
 30
0.0
 40
0.145
 50
0.0
 51
180.0
  0
ARC
  5
19489
  8
SUNPO
  6
BYBLOCK
 10
395.0
 20
166.5
 30
0.0
 40
0.145
 50
180.0
 51
0.0
  0
LINE
  5
1950E
  8
SUNPO
  6
CONTINUOUS
 10
237.285372
 20
36.107269
 30
0.0
 11
238.198887
 21
36.730081
 31
0.0
210
0.0
220
0.0
230
-1.0
  0
LINE
  5
1950F
  8
SUNPO
  6
CONTINUOUS
 10
238.198887
 20
36.730081
 30
0.0
 11
238.669982
 21
36.768293
 31
0.0
210
0.0
220
0.0
230
-1.0
  0
LINE
  5
19510
  8
SUNPO
  6
CONTINUOUS
 10
238.669982
 20
36.768293
 30
0.0
 11
238.4838
 21
36.255982
 31
0.0
210
0.0
220
0.0
230
-1.0
  0
LINE
  5
19511
  8
SUNPO
  6
CONTINUOUS
 10
238.4838
 20
36.255982
 30
0.0
 11
237.590898
 21
34.276791
 31
0.0
210
0.0
220
0.0
230
-1.0
  0
LINE
  5
19512
  8
SUNPO
  6
CONTINUOUS
 10
237.590898
 20
34.276791
 30
0.0
 11
237.887461
 21
33.297817
 31
0.0
210
0.0
220
0.0
230
-1.0
  0
LINE
  5
19513
  8
SUNPO
  6
CONTINUOUS
 10
237.887461
 20
33.297817
 30
0.0
 11
238.848871
 21
33.601968
 31
0.0
210
0.0
220
0.0
230
-1.0
  0
LINE
  5
19514
  8
SUNPO
  6
CONTINUOUS
 10
238.848871
 20
33.601968
 30
0.0
 11
239.33436
 21
34.719453
 31
0.0
210
0.0
220
0.0
230
-1.0
  0
LINE
  5
19515
  8
SUNPO
  6
CONTINUOUS
 10
239.33436
 20
34.719453
 30
0.0
 11
239.44692
 21
35.220793
 31
0.0
210
0.0
220
0.0
230
-1.0
  0
LINE
  5
19516
  8
SUNPO
  6
CONTINUOUS
 10
239.44692
 20
35.220793
 30
0.0
 11
239.319498
 21
34.695165
 31
0.0
210
0.0
220
0.0
230
-1.0
  0
LINE
  5
19517
  8
SUNPO
  6
CONTINUOUS
 10
239.319498
 20
34.695165
 30
0.0
 11
239.269705
 21
33.62979
 31
0.0
210
0.0
220
0.0
230
-1.0
  0
LINE
  5
19518
  8
SUNPO
  6
CONTINUOUS
 10
239.269705
 20
33.62979
 30
0.0
 11
240.105643
 21
33.048466
 31
0.0
210
0.0
220
0.0
230
-1.0
  0
LINE
  5
19519
  8
SUNPO
  6
CONTINUOUS
 10
240.105643
 20
33.048466
 30
0.0
 11
240.978647
 21
33.664377
 31
0.0
210
0.0
220
0.0
230
-1.0
  0
LINE
  5
1951A
  8
SUNPO
  6
CONTINUOUS
 10
240.978647
 20
33.664377
 30
0.0
 11
241.421869
 21
34.654112
 31
0.0
210
0.0
220
0.0
230
-1.0
  0
LINE
  5
1951B
  8
SUNPO
  6
CONTINUOUS
 10
241.421869
 20
34.654112
 30
0.0
 11
241.306626
 21
36.810488
 31
0.0
210
0.0
220
0.0
230
-1.0
  0
LINE
  5
1951C
  8
SUNPO
  6
CONTINUOUS
 10
241.306626
 20
36.810488
 30
0.0
 11
243.444428
 21
36.57399
 31
0.0
210
0.0
220
0.0
230
-1.0
  0
LINE
  5
1951D
  8
SUNPO
  6
CONTINUOUS
 10
337.285372
 20
36.107269
 30
0.0
 11
338.198887
 21
36.730081
 31
0.0
210
0.0
220
0.0
230
-1.0
  0
LINE
  5
1951E
  8
SUNPO
  6
CONTINUOUS
 10
338.198887
 20
36.730081
 30
0.0
 11
338.669983
 21
36.768293
 31
0.0
210
0.0
220
0.0
230
-1.0
  0
LINE
  5
1951F
  8
SUNPO
  6
CONTINUOUS
 10
338.669983
 20
36.768293
 30
0.0
 11
338.4838
 21
36.255983
 31
0.0
210
0.0
220
0.0
230
-1.0
  0
LINE
  5
19520
  8
SUNPO
  6
CONTINUOUS
 10
338.4838
 20
36.255983
 30
0.0
 11
337.590898
 21
34.276791
 31
0.0
210
0.0
220
0.0
230
-1.0
  0
LINE
  5
19521
  8
SUNPO
  6
CONTINUOUS
 10
337.590898
 20
34.276791
 30
0.0
 11
337.887461
 21
33.297817
 31
0.0
210
0.0
220
0.0
230
-1.0
  0
LINE
  5
19522
  8
SUNPO
  6
CONTINUOUS
 10
337.887461
 20
33.297817
 30
0.0
 11
338.848871
 21
33.601967
 31
0.0
210
0.0
220
0.0
230
-1.0
  0
LINE
  5
19523
  8
SUNPO
  6
CONTINUOUS
 10
338.848871
 20
33.601967
 30
0.0
 11
339.334361
 21
34.719451
 31
0.0
210
0.0
220
0.0
230
-1.0
  0
LINE
  5
19524
  8
SUNPO
  6
CONTINUOUS
 10
339.334361
 20
34.719451
 30
0.0
 11
339.446921
 21
35.220793
 31
0.0
210
0.0
220
0.0
230
-1.0
  0
LINE
  5
19525
  8
SUNPO
  6
CONTINUOUS
 10
339.446921
 20
35.220793
 30
0.0
 11
339.3195
 21
34.695166
 31
0.0
210
0.0
220
0.0
230
-1.0
  0
LINE
  5
19526
  8
SUNPO
  6
CONTINUOUS
 10
339.3195
 20
34.695166
 30
0.0
 11
339.269705
 21
33.62979
 31
0.0
210
0.0
220
0.0
230
-1.0
  0
LINE
  5
19527
  8
SUNPO
  6
CONTINUOUS
 10
339.269705
 20
33.62979
 30
0.0
 11
340.105643
 21
33.048466
 31
0.0
210
0.0
220
0.0
230
-1.0
  0
LINE
  5
19528
  8
SUNPO
  6
CONTINUOUS
 10
340.105643
 20
33.048466
 30
0.0
 11
340.978648
 21
33.664377
 31
0.0
210
0.0
220
0.0
230
-1.0
  0
LINE
  5
19529
  8
SUNPO
  6
CONTINUOUS
 10
340.978648
 20
33.664377
 30
0.0
 11
341.42187
 21
34.654112
 31
0.0
210
0.0
220
0.0
230
-1.0
  0
LINE
  5
1952A
  8
SUNPO
  6
CONTINUOUS
 10
341.42187
 20
34.654112
 30
0.0
 11
341.306626
 21
36.810488
 31
0.0
210
0.0
220
0.0
230
-1.0
  0
LINE
  5
1952B
  8
SUNPO
  6
CONTINUOUS
 10
341.306626
 20
36.810488
 30
0.0
 11
343.444429
 21
36.57399
 31
0.0
210
0.0
220
0.0
230
-1.0
  0
LINE
  5
19AB1
  8
DANMEN
  6
CONTINUOUS
 10
65.849998
 20
74.499992
 30
0.0
 11
65.849998
 21
59.999994
 31
0.0
  0
LINE
  5
19AB2
  8
DANMEN
  6
CONTINUOUS
 10
67.799998
 20
74.5
 30
0.0
 11
67.799998
 21
59.999994
 31
0.0
  0
ARC
  5
19AB3
  8
DANMEN
  6
CONTINUOUS
 10
66.349998
 20
59.999994
 30
0.0
 40
0.5
 50
180.000052
 51
269.999982
  0
LINE
  5
19AB4
  8
DANMEN
  6
CONTINUOUS
 10
66.349999
 20
59.499991
 30
0.0
 11
67.299997
 21
59.499991
 31
0.0
  0
ARC
  5
19AB5
  8
DANMEN
  6
CONTINUOUS
 10
67.299998
 20
59.999994
 30
0.0
 40
0.5
 50
269.999982
 51
359.999964
  0
LINE
  5
19AB6
  8
DANMEN
  6
CONTINUOUS
 10
69.499995
 20
74.500001
 30
0.0
 11
67.799998
 21
74.5
 31
0.0
  0
ENDSEC
  0
EOF
