  0
SECTION
  2
HEADER
  9
$ACADVER
  1
AC1009
  9
$INSBASE
 10
0.0
 20
0.0
 30
0.0
  9
$EXTMIN
 10
4.986803
 20
4.971933
 30
-0.001526
  9
$EXTMAX
 10
415.019075
 20
292.013444
 30
0.0
  9
$LIMMIN
 10
-210.0
 20
-148.5
  9
$LIMMAX
 10
210.0
 20
148.5
  9
$ORTHOMODE
 70
     0
  9
$REGENMODE
 70
     1
  9
$FILLMODE
 70
     1
  9
$QTEXTMODE
 70
     0
  9
$MIRRTEXT
 70
     1
  9
$DRAGMODE
 70
     2
  9
$LTSCALE
 40
0.5
  9
$OSMODE
 70
   239
  9
$ATTMODE
 70
     1
  9
$TEXTSIZE
 40
0.2
  9
$TRACEWID
 40
0.05
  9
$TEXTSTYLE
  7
MX_NOTE_STANDARD
  9
$CLAYER
  8
0
  9
$CELTYPE
  6
CONTINUOUS
  9
$CECOLOR
 62
   256
  9
$DIMSCALE
 40
1.0
  9
$DIMASZ
 40
2.5
  9
$DIMEXO
 40
1.5
  9
$DIMDLI
 40
3.75
  9
$DIMRND
 40
0.0
  9
$DIMDLE
 40
0.0
  9
$DIMEXE
 40
0.0
  9
$DIMTP
 40
0.0
  9
$DIMTM
 40
0.0
  9
$DIMTXT
 40
2.5
  9
$DIMCEN
 40
2.5
  9
$DIMTSZ
 40
0.0
  9
$DIMTOL
 70
     0
  9
$DIMLIM
 70
     0
  9
$DIMTIH
 70
     0
  9
$DIMTOH
 70
     0
  9
$DIMSE1
 70
     0
  9
$DIMSE2
 70
     0
  9
$DIMTAD
 70
     1
  9
$DIMZIN
 70
     8
  9
$DIMBLK
  1

  9
$DIMASO
 70
     1
  9
$DIMSHO
 70
     1
  9
$DIMPOST
  1

  9
$DIMAPOST
  1

  9
$DIMALT
 70
     0
  9
$DIMALTD
 70
     4
  9
$DIMALTF
 40
0.0394
  9
$DIMLFAC
 40
1.0
  9
$DIMTOFL
 70
     1
  9
$DIMTVP
 40
0.0
  9
$DIMTIX
 70
     0
  9
$DIMSOXD
 70
     0
  9
$DIMSAH
 70
     0
  9
$DIMBLK1
  1

  9
$DIMBLK2
  1

  9
$DIMSTYLE
  2
MXDIMSTYLE
  9
$DIMCLRD
 70
     0
  9
$DIMCLRE
 70
     0
  9
$DIMCLRT
 70
     0
  9
$DIMTFAC
 40
1.0
  9
$DIMGAP
 40
1.0
  9
$LUNITS
 70
     2
  9
$LUPREC
 70
     4
  9
$SKETCHINC
 40
0.1
  9
$FILLETRAD
 40
0.0
  9
$AUNITS
 70
     0
  9
$AUPREC
 70
     0
  9
$MENU
  1
acad
  9
$ELEVATION
 40
0.0
  9
$PELEVATION
 40
0.0
  9
$THICKNESS
 40
0.0
  9
$LIMCHECK
 70
     0
  9
$BLIPMODE
 70
     0
  9
$CHAMFERA
 40
0.0
  9
$CHAMFERB
 40
0.0
  9
$SKPOLY
 70
     0
  9
$TDCREATE
 40
2452006.37162
  9
$TDUPDATE
 40
2452136.988735
  9
$TDINDWG
 40
0.078853
  9
$TDUSRTIMER
 40
0.078852
  9
$USRTIMER
 70
     1
  9
$ANGBASE
 50
0.0
  9
$ANGDIR
 70
     0
  9
$PDMODE
 70
     3
  9
$PDSIZE
 40
-100.0
  9
$PLINEWID
 40
0.0
  9
$COORDS
 70
     0
  9
$SPLFRAME
 70
     0
  9
$SPLINETYPE
 70
     6
  9
$SPLINESEGS
 70
     8
  9
$ATTDIA
 70
     0
  9
$ATTREQ
 70
     1
  9
$HANDLING
 70
     1
  9
$HANDSEED
  5
18926
  9
$SURFTAB1
 70
     6
  9
$SURFTAB2
 70
     6
  9
$SURFTYPE
 70
     6
  9
$SURFU
 70
     6
  9
$SURFV
 70
     6
  9
$UCSNAME
  2

  9
$UCSORG
 10
0.0
 20
0.0
 30
0.0
  9
$UCSXDIR
 10
1.0
 20
0.0
 30
0.0
  9
$UCSYDIR
 10
0.0
 20
1.0
 30
0.0
  9
$PUCSNAME
  2

  9
$PUCSORG
 10
0.0
 20
0.0
 30
0.0
  9
$PUCSXDIR
 10
1.0
 20
0.0
 30
0.0
  9
$PUCSYDIR
 10
0.0
 20
1.0
 30
0.0
  9
$USERI1
 70
     0
  9
$USERI2
 70
     0
  9
$USERI3
 70
     0
  9
$USERI4
 70
     0
  9
$USERI5
 70
     0
  9
$USERR1
 40
0.0
  9
$USERR2
 40
0.0
  9
$USERR3
 40
0.0
  9
$USERR4
 40
0.0
  9
$USERR5
 40
0.0
  9
$WORLDVIEW
 70
     1
  9
$SHADEDGE
 70
     3
  9
$SHADEDIF
 70
    70
  9
$TILEMODE
 70
     1
  9
$MAXACTVP
 70
    16
  9
$PLIMCHECK
 70
     0
  9
$PEXTMIN
 10
1.000000E+020
 20
1.000000E+020
 30
1.000000E+020
  9
$PEXTMAX
 10
-1.000000E+020
 20
-1.000000E+020
 30
-1.000000E+020
  9
$PLIMMIN
 10
0.0
 20
0.0
  9
$PLIMMAX
 10
12.0
 20
9.0
  9
$UNITMODE
 70
     0
  9
$VISRETAIN
 70
     0
  9
$PLINEGEN
 70
     1
  9
$PSLTSCALE
 70
     0
  0
ENDSEC
  0
SECTION
  2
TABLES
  0
TABLE
  2
VPORT
 70
     2
  0
VPORT
  2
*ACTIVE
 70
     0
 10
0.0
 20
0.0
 11
1.0
 21
1.0
 12
210.002939
 22
148.492688
 13
0.0
 23
0.0
 14
1.0
 24
1.0
 15
0.0
 25
0.0
 16
0.0
 26
0.0
 36
1.0
 17
0.0
 27
0.0
 37
0.0
 40
290.242718
 41
1.867784
 42
50.0
 43
0.0
 44
0.0
 50
0.0
 51
0.0
 71
     0
 72
   100
 73
     1
 74
     0
 75
     0
 76
     0
 77
     0
 78
     0
  0
ENDTAB
  0
TABLE
  2
LTYPE
 70
     2
  0
LTYPE
  2
CONTINUOUS
 70
     0
  3
Solid line
 72
    65
 73
     0
 40
0.0
  0
LTYPE
  2
DASHED
 70
     0
  3
Dashed __ __ __ __ __ __ __ __ __ __ __ __ __ _
 72
    65
 73
     2
 40
19.05
 49
12.7
 49
-6.35
  0
ENDTAB
  0
TABLE
  2
LAYER
 70
     4
  0
LAYER
  2
0
 70
     0
 62
     7
  6
CONTINUOUS
  0
LAYER
  2
SUNPO
 70
     0
 62
     1
  6
CONTINUOUS
  0
LAYER
  2
DANMEN
 70
     0
 62
     7
  6
CONTINUOUS
  0
LAYER
  2
WAKU
 70
     0
 62
     3
  6
CONTINUOUS
  0
ENDTAB
  0
TABLE
  2
STYLE
 70
     2
  0
STYLE
  2
STANDARD
 70
     0
 40
0.0
 41
1.0
 50
0.0
 71
     0
 42
0.2
  3
txt.shx
  4
extfont.shx
  0
STYLE
  2
MX_NOTE_STANDARD
 70
     0
 40
2.5
 41
1.0
 50
0.0
 71
     0
 42
2.5
  3
txt.shx
  4
extfont.shx
  0
ENDTAB
  0
TABLE
  2
VIEW
 70
     0
  0
ENDTAB
  0
TABLE
  2
UCS
 70
     0
  0
ENDTAB
  0
TABLE
  2
APPID
 70
     1
  0
APPID
  2
ACAD
 70
     0
  0
ENDTAB
  0
TABLE
  2
DIMSTYLE
 70
     1
  0
DIMSTYLE
  2
MXDIMSTYLE
 70
     0
  3

  4

  5

  6

  7

 40
1.0
 41
2.5
 42
1.5
 43
3.75
 44
0.0
 45
0.0
 46
0.0
 47
0.0
 48
0.0
140
2.5
141
2.5
142
0.0
143
0.0394
144
1.0
145
0.0
146
1.0
147
1.0
 71
     0
 72
     0
 73
     0
 74
     0
 75
     0
 76
     0
 77
     1
 78
     8
170
     0
171
     4
172
     1
173
     0
174
     0
175
     0
176
     0
177
     0
178
     0
  0
ENDTAB
  0
ENDSEC
  0
SECTION
  2
BLOCKS
  0
BLOCK
  8
0
  2
$MODEL_SPACE
 70
     0
 10
0.0
 20
0.0
 30
0.0
  3
$MODEL_SPACE
  1

  0
ENDBLK
  5
183C0
  8
0
  0
BLOCK
 67
     1
  8
0
  2
$PAPER_SPACE
 70
     0
 10
0.0
 20
0.0
 30
0.0
  3
$PAPER_SPACE
  1

  0
ENDBLK
  5
183BE
 67
     1
  8
0
  0
BLOCK
  8
0
  2
*U0
 70
     1
 10
0.0
 20
0.0
 30
0.0
  3
*U0
  1

  0
SOLID
  5
DA5C
  8
WAKU
  6
CONTINUOUS
 10
371.305142
 20
283.605291
 30
0.0
 11
370.499782
 21
283.530361
 31
0.0
 12
370.874987
 22
283.520449
 32
0.0
 13
370.874987
 23
283.520449
 33
0.0
  0
SOLID
  5
DA5D
  8
WAKU
  6
CONTINUOUS
 10
370.193309
 20
283.634664
 30
0.0
 11
370.499782
 21
283.530361
 31
0.0
 12
371.305142
 22
283.605291
 32
0.0
 13
371.305142
 23
283.605291
 33
0.0
  0
SOLID
  5
DA5E
  8
WAKU
  6
CONTINUOUS
 10
371.774448
 20
283.781773
 30
0.0
 11
370.193309
 21
283.634664
 31
0.0
 12
371.305142
 22
283.605291
 32
0.0
 13
371.305142
 23
283.605291
 33
0.0
  0
SOLID
  5
DA5F
  8
WAKU
  6
CONTINUOUS
 10
369.966824
 20
283.829526
 30
0.0
 11
370.193309
 21
283.634664
 31
0.0
 12
371.774448
 22
283.781773
 32
0.0
 13
371.774448
 23
283.781773
 33
0.0
  0
SOLID
  5
DA60
  8
WAKU
  6
CONTINUOUS
 10
370.594177
 20
283.909498
 30
0.0
 11
369.966824
 21
283.829526
 31
0.0
 12
371.774448
 22
283.781773
 32
0.0
 13
371.774448
 23
283.781773
 33
0.0
  0
SOLID
  5
DA61
  8
WAKU
  6
CONTINUOUS
 10
370.901294
 20
283.914863
 30
0.0
 11
370.594177
 21
283.909498
 31
0.0
 12
371.774448
 22
283.781773
 32
0.0
 13
371.774448
 23
283.781773
 33
0.0
  0
SOLID
  5
DA62
  8
WAKU
  6
CONTINUOUS
 10
370.392927
 20
283.968568
 30
0.0
 11
369.966824
 21
283.829526
 31
0.0
 12
370.594177
 22
283.909498
 32
0.0
 13
370.594177
 23
283.909498
 33
0.0
  0
SOLID
  5
DA63
  8
WAKU
  6
CONTINUOUS
 10
371.296984
 20
284.010368
 30
0.0
 11
370.901294
 21
283.914863
 31
0.0
 12
371.774448
 22
283.781773
 32
0.0
 13
371.774448
 23
283.781773
 33
0.0
  0
SOLID
  5
DA64
  8
WAKU
  6
CONTINUOUS
 10
372.265666
 20
284.043411
 30
0.0
 11
371.296984
 21
284.010368
 31
0.0
 12
371.774448
 22
283.781773
 32
0.0
 13
371.774448
 23
283.781773
 33
0.0
  0
SOLID
  5
DA65
  8
WAKU
  6
CONTINUOUS
 10
370.275177
 20
284.066476
 30
0.0
 11
369.966824
 21
283.829526
 31
0.0
 12
370.392927
 22
283.968568
 32
0.0
 13
370.392927
 23
283.968568
 33
0.0
  0
SOLID
  5
DA66
  8
WAKU
  6
CONTINUOUS
 10
369.828646
 20
284.107791
 30
0.0
 11
369.966824
 21
283.829526
 31
0.0
 12
370.275177
 22
284.066476
 32
0.0
 13
370.275177
 23
284.066476
 33
0.0
  0
SOLID
  5
DA67
  8
WAKU
  6
CONTINUOUS
 10
370.709458
 20
284.142397
 30
0.0
 11
369.828646
 21
284.107791
 31
0.0
 12
370.275177
 22
284.066476
 32
0.0
 13
370.275177
 23
284.066476
 33
0.0
  0
SOLID
  5
DA68
  8
WAKU
  6
CONTINUOUS
 10
371.751882
 20
284.202798
 30
0.0
 11
371.296984
 21
284.010368
 31
0.0
 12
372.265666
 22
284.043411
 32
0.0
 13
372.265666
 23
284.043411
 33
0.0
  0
SOLID
  5
DA69
  8
WAKU
  6
CONTINUOUS
 10
369.550381
 20
284.245969
 30
0.0
 11
369.828646
 21
284.107791
 31
0.0
 12
370.709458
 22
284.142397
 32
0.0
 13
370.709458
 23
284.142397
 33
0.0
  0
SOLID
  5
DA6A
  8
WAKU
  6
CONTINUOUS
 10
371.186428
 20
284.314625
 30
0.0
 11
369.550381
 21
284.245969
 31
0.0
 12
370.709458
 22
284.142397
 32
0.0
 13
370.709458
 23
284.142397
 33
0.0
  0
SOLID
  5
DA6B
  8
WAKU
  6
CONTINUOUS
 10
372.760756
 20
284.380595
 30
0.0
 11
371.751882
 21
284.202798
 31
0.0
 12
372.265666
 22
284.043411
 32
0.0
 13
372.265666
 23
284.043411
 33
0.0
  0
SOLID
  5
DA6C
  8
WAKU
  6
CONTINUOUS
 10
370.172911
 20
284.451856
 30
0.0
 11
369.550381
 21
284.245969
 31
0.0
 12
371.186428
 22
284.314625
 32
0.0
 13
371.186428
 23
284.314625
 33
0.0
  0
SOLID
  5
DA6D
  8
WAKU
  6
CONTINUOUS
 10
369.355518
 20
284.472454
 30
0.0
 11
369.550381
 21
284.245969
 31
0.0
 12
370.172911
 22
284.451856
 32
0.0
 13
370.172911
 23
284.451856
 33
0.0
  0
SOLID
  5
DA6E
  8
WAKU
  6
CONTINUOUS
 10
372.237497
 20
284.486117
 30
0.0
 11
371.751882
 21
284.202798
 31
0.0
 12
372.760756
 22
284.380595
 32
0.0
 13
372.760756
 23
284.380595
 33
0.0
  0
SOLID
  5
DA6F
  8
WAKU
  6
CONTINUOUS
 10
370.681395
 20
284.539195
 30
0.0
 11
370.172911
 21
284.451856
 31
0.0
 12
371.186428
 22
284.314625
 32
0.0
 13
371.186428
 23
284.314625
 33
0.0
  0
SOLID
  5
DA70
  8
WAKU
  6
CONTINUOUS
 10
369.787305
 20
284.553935
 30
0.0
 11
369.355518
 21
284.472454
 31
0.0
 12
370.172911
 22
284.451856
 32
0.0
 13
370.172911
 23
284.451856
 33
0.0
  0
SOLID
  5
DA71
  8
WAKU
  6
CONTINUOUS
 10
371.68777
 20
284.576545
 30
0.0
 11
370.681395
 21
284.539195
 31
0.0
 12
371.186428
 22
284.314625
 32
0.0
 13
371.186428
 23
284.314625
 33
0.0
  0
SOLID
  5
DA72
  8
WAKU
  6
CONTINUOUS
 10
369.689155
 20
284.672435
 30
0.0
 11
369.355518
 21
284.472454
 31
0.0
 12
369.787305
 22
284.553935
 32
0.0
 13
369.787305
 23
284.553935
 33
0.0
  0
SOLID
  5
DA73
  8
WAKU
  6
CONTINUOUS
 10
369.251215
 20
284.778928
 30
0.0
 11
369.355518
 21
284.472454
 31
0.0
 12
369.689155
 22
284.672435
 32
0.0
 13
369.689155
 23
284.672435
 33
0.0
  0
SOLID
  5
DA74
  8
WAKU
  6
CONTINUOUS
 10
373.241532
 20
284.780941
 30
0.0
 11
372.237497
 21
284.486117
 31
0.0
 12
372.760756
 22
284.380595
 32
0.0
 13
372.760756
 23
284.380595
 33
0.0
  0
SOLID
  5
DA75
  8
WAKU
  6
CONTINUOUS
 10
371.312263
 20
284.810332
 30
0.0
 11
370.681395
 21
284.539195
 31
0.0
 12
371.68777
 22
284.576545
 32
0.0
 13
371.68777
 23
284.576545
 33
0.0
  0
SOLID
  5
DA76
  8
WAKU
  6
CONTINUOUS
 10
369.630358
 20
284.873087
 30
0.0
 11
369.251215
 21
284.778928
 31
0.0
 12
369.689155
 22
284.672435
 32
0.0
 13
369.689155
 23
284.672435
 33
0.0
  0
SOLID
  5
DA77
  8
WAKU
  6
CONTINUOUS
 10
372.194232
 20
284.918099
 30
0.0
 11
371.312263
 21
284.810332
 31
0.0
 12
371.68777
 22
284.576545
 32
0.0
 13
371.68777
 23
284.576545
 33
0.0
  0
SOLID
  5
DA78
  8
WAKU
  6
CONTINUOUS
 10
370.260168
 20
284.959969
 30
0.0
 11
369.787305
 21
284.553935
 31
0.0
 12
370.172911
 22
284.451856
 32
0.0
 13
370.172911
 23
284.451856
 33
0.0
  0
SOLID
  5
DA79
  8
WAKU
  6
CONTINUOUS
 10
369.863139
 20
284.988189
 30
0.0
 11
369.787305
 21
284.553935
 31
0.0
 12
370.260168
 22
284.959969
 32
0.0
 13
370.260168
 23
284.959969
 33
0.0
  0
SOLID
  5
DA7A
  8
WAKU
  6
CONTINUOUS
 10
398.194006
 20
285.115385
 30
0.0
 11
397.606055
 21
283.5
 31
0.0
 12
401.913747
 22
283.5
 32
0.0
 13
401.913747
 23
283.5
 33
0.0
  0
SOLID
  5
DA7B
  8
WAKU
  6
CONTINUOUS
 10
401.913747
 20
283.5
 30
0.0
 11
401.424776
 21
285.115385
 31
0.0
 12
398.194006
 22
285.115385
 32
0.0
 13
398.194006
 23
285.115385
 33
0.0
  0
SOLID
  5
DA7C
  8
WAKU
  6
CONTINUOUS
 10
369.241303
 20
285.154132
 30
0.0
 11
369.251215
 21
284.778928
 31
0.0
 12
369.630358
 22
284.873087
 32
0.0
 13
369.630358
 23
284.873087
 33
0.0
  0
SOLID
  5
DA7D
  8
WAKU
  6
CONTINUOUS
 10
369.635696
 20
285.180404
 30
0.0
 11
369.241303
 21
285.154132
 31
0.0
 12
369.630358
 22
284.873087
 32
0.0
 13
369.630358
 23
284.873087
 33
0.0
  0
SOLID
  5
DA7E
  8
WAKU
  6
CONTINUOUS
 10
373.690335
 20
285.229744
 30
0.0
 11
372.237497
 21
284.486117
 31
0.0
 12
373.241532
 22
284.780941
 32
0.0
 13
373.241532
 23
284.780941
 33
0.0
  0
SOLID
  5
DA7F
  8
WAKU
  6
CONTINUOUS
 10
371.98994
 20
285.251431
 30
0.0
 11
371.312263
 21
284.810332
 31
0.0
 12
372.194232
 22
284.918099
 32
0.0
 13
372.194232
 23
284.918099
 33
0.0
  0
SOLID
  5
DA80
  8
WAKU
  6
CONTINUOUS
 10
373.195965
 20
285.275232
 30
0.0
 11
372.237497
 21
284.486117
 31
0.0
 12
373.690335
 22
285.229744
 32
0.0
 13
373.690335
 23
285.229744
 33
0.0
  0
SOLID
  5
DA81
  8
WAKU
  6
CONTINUOUS
 10
372.686363
 20
285.326171
 30
0.0
 11
371.98994
 21
285.251431
 31
0.0
 12
372.194232
 22
284.918099
 32
0.0
 13
372.194232
 23
284.918099
 33
0.0
  0
SOLID
  5
DA82
  8
WAKU
  6
CONTINUOUS
 10
370.035293
 20
285.465154
 30
0.0
 11
369.863139
 21
284.988189
 31
0.0
 12
370.260168
 22
284.959969
 32
0.0
 13
370.260168
 23
284.959969
 33
0.0
  0
SOLID
  5
DA83
  8
WAKU
  6
CONTINUOUS
 10
369.73149
 20
285.576021
 30
0.0
 11
369.241303
 21
285.154132
 31
0.0
 12
369.635696
 22
285.180404
 32
0.0
 13
369.635696
 23
285.180404
 33
0.0
  0
SOLID
  5
DA84
  8
WAKU
  6
CONTINUOUS
 10
369.326146
 20
285.584287
 30
0.0
 11
369.241303
 21
285.154132
 31
0.0
 12
369.73149
 22
285.576021
 32
0.0
 13
369.73149
 23
285.576021
 33
0.0
  0
SOLID
  5
DA85
  8
WAKU
  6
CONTINUOUS
 10
370.530712
 20
285.590875
 30
0.0
 11
370.035293
 21
285.465154
 31
0.0
 12
370.260168
 22
284.959969
 32
0.0
 13
370.260168
 23
284.959969
 33
0.0
  0
SOLID
  5
DA86
  8
WAKU
  6
CONTINUOUS
 10
389.236144
 20
285.653846
 30
0.0
 11
383.067593
 21
283.5
 31
0.0
 12
388.452208
 22
283.5
 32
0.0
 13
388.452208
 23
283.5
 33
0.0
  0
SOLID
  5
DA87
  8
WAKU
  6
CONTINUOUS
 10
383.851529
 20
285.653846
 30
0.0
 11
383.067593
 21
283.5
 31
0.0
 12
389.236144
 22
285.653846
 32
0.0
 13
389.236144
 23
285.653846
 33
0.0
  0
SOLID
  5
DA88
  8
WAKU
  6
CONTINUOUS
 10
404.851529
 20
285.653846
 30
0.0
 11
404.067593
 21
283.5
 31
0.0
 12
409.452208
 22
283.5
 32
0.0
 13
409.452208
 23
283.5
 33
0.0
  0
SOLID
  5
DA89
  8
WAKU
  6
CONTINUOUS
 10
409.452208
 20
283.5
 30
0.0
 11
409.159221
 21
285.653846
 31
0.0
 12
404.851529
 22
285.653846
 32
0.0
 13
404.851529
 23
285.653846
 33
0.0
  0
SOLID
  5
DA8A
  8
WAKU
  6
CONTINUOUS
 10
391.174606
 20
285.653846
 30
0.0
 11
390.39067
 21
283.5
 31
0.0
 12
395.452208
 22
283.5
 32
0.0
 13
395.452208
 23
283.5
 33
0.0
  0
SOLID
  5
DA8B
  8
WAKU
  6
CONTINUOUS
 10
395.452208
 20
283.5
 30
0.0
 11
395.159221
 21
285.653846
 31
0.0
 12
391.174606
 22
285.653846
 32
0.0
 13
391.174606
 23
285.653846
 33
0.0
  0
SOLID
  5
DA8C
  8
WAKU
  6
CONTINUOUS
 10
374.090681
 20
285.71052
 30
0.0
 11
373.195965
 21
285.275232
 31
0.0
 12
373.690335
 22
285.229744
 32
0.0
 13
373.690335
 23
285.229744
 33
0.0
  0
SOLID
  5
DA8D
  8
WAKU
  6
CONTINUOUS
 10
373.145266
 20
285.785089
 30
0.0
 11
371.98994
 21
285.251431
 31
0.0
 12
372.686363
 22
285.326171
 32
0.0
 13
372.686363
 23
285.326171
 33
0.0
  0
SOLID
  5
DA8E
  8
WAKU
  6
CONTINUOUS
 10
372.646296
 20
285.825506
 30
0.0
 11
371.98994
 21
285.251431
 31
0.0
 12
373.145266
 22
285.785089
 32
0.0
 13
373.145266
 23
285.785089
 33
0.0
  0
SOLID
  5
DA8F
  8
WAKU
  6
CONTINUOUS
 10
370.297156
 20
285.966509
 30
0.0
 11
370.035293
 21
285.465154
 31
0.0
 12
370.530712
 22
285.590875
 32
0.0
 13
370.530712
 23
285.590875
 33
0.0
  0
SOLID
  5
DA90
  8
WAKU
  6
CONTINUOUS
 10
369.923519
 20
286.031028
 30
0.0
 11
369.326146
 21
285.584287
 31
0.0
 12
369.73149
 22
285.576021
 32
0.0
 13
369.73149
 23
285.576021
 33
0.0
  0
SOLID
  5
DA91
  8
WAKU
  6
CONTINUOUS
 10
369.502627
 20
286.053593
 30
0.0
 11
369.326146
 21
285.584287
 31
0.0
 12
369.923519
 22
286.031028
 32
0.0
 13
369.923519
 23
286.031028
 33
0.0
  0
SOLID
  5
DA92
  8
WAKU
  6
CONTINUOUS
 10
379.397145
 20
286.138462
 30
0.0
 11
378.436824
 21
283.5
 31
0.0
 12
379.513747
 22
283.5
 32
0.0
 13
379.513747
 23
283.5
 33
0.0
  0
SOLID
  5
DA93
  8
WAKU
  6
CONTINUOUS
 10
377.155205
 20
286.192308
 30
0.0
 11
376.175285
 21
283.5
 31
0.0
 12
379.397145
 22
286.138462
 32
0.0
 13
379.397145
 23
286.138462
 33
0.0
  0
SOLID
  5
DA94
  8
WAKU
  6
CONTINUOUS
 10
380.493667
 20
286.192308
 30
0.0
 11
377.155205
 21
286.192308
 31
0.0
 12
379.397145
 22
286.138462
 32
0.0
 13
379.397145
 23
286.138462
 33
0.0
  0
SOLID
  5
DA95
  8
WAKU
  6
CONTINUOUS
 10
380.493667
 20
286.192308
 30
0.0
 11
379.397145
 21
286.138462
 31
0.0
 12
379.513747
 22
283.5
 32
0.0
 13
379.513747
 23
283.5
 33
0.0
  0
SOLID
  5
DA96
  8
WAKU
  6
CONTINUOUS
 10
380.493667
 20
286.192308
 30
0.0
 11
381.775285
 21
283.5
 31
0.0
 12
382.755205
 22
286.192308
 32
0.0
 13
382.755205
 23
286.192308
 33
0.0
  0
SOLID
  5
DA97
  8
WAKU
  6
CONTINUOUS
 10
374.427865
 20
286.205609
 30
0.0
 11
373.195965
 21
285.275232
 31
0.0
 12
374.090681
 22
285.71052
 32
0.0
 13
374.090681
 23
285.71052
 33
0.0
  0
SOLID
  5
DA98
  8
WAKU
  6
CONTINUOUS
 10
373.98505
 20
286.233718
 30
0.0
 11
373.195965
 21
285.275232
 31
0.0
 12
374.427865
 22
286.205609
 32
0.0
 13
374.427865
 23
286.205609
 33
0.0
  0
SOLID
  5
DA99
  8
WAKU
  6
CONTINUOUS
 10
370.971896
 20
286.268471
 30
0.0
 11
370.297156
 21
285.966509
 31
0.0
 12
370.530712
 22
285.590875
 32
0.0
 13
370.530712
 23
285.590875
 33
0.0
  0
SOLID
  5
DA9A
  8
WAKU
  6
CONTINUOUS
 10
373.553316
 20
286.277229
 30
0.0
 11
372.646296
 21
285.825506
 31
0.0
 12
373.145266
 22
285.785089
 32
0.0
 13
373.145266
 23
285.785089
 33
0.0
  0
SOLID
  5
DA9B
  8
WAKU
  6
CONTINUOUS
 10
370.638671
 20
286.473
 30
0.0
 11
370.297156
 21
285.966509
 31
0.0
 12
370.971896
 22
286.268471
 32
0.0
 13
370.971896
 23
286.268471
 33
0.0
  0
SOLID
  5
DA9C
  8
WAKU
  6
CONTINUOUS
 10
373.220238
 20
286.48192
 30
0.0
 11
372.646296
 21
285.825506
 31
0.0
 12
373.553316
 22
286.277229
 32
0.0
 13
373.553316
 23
286.277229
 33
0.0
  0
SOLID
  5
DA9D
  8
WAKU
  6
CONTINUOUS
 10
370.207035
 20
286.51657
 30
0.0
 11
369.502627
 21
286.053593
 31
0.0
 12
369.923519
 22
286.031028
 32
0.0
 13
369.923519
 23
286.031028
 33
0.0
  0
SOLID
  5
DA9E
  8
WAKU
  6
CONTINUOUS
 10
369.764265
 20
286.544812
 30
0.0
 11
369.502627
 21
286.053593
 31
0.0
 12
370.207035
 22
286.51657
 32
0.0
 13
370.207035
 23
286.51657
 33
0.0
  0
SOLID
  5
DA9F
  8
WAKU
  6
CONTINUOUS
 10
374.689503
 20
286.696828
 30
0.0
 11
373.98505
 21
286.233718
 31
0.0
 12
374.427865
 22
286.205609
 32
0.0
 13
374.427865
 23
286.205609
 33
0.0
  0
SOLID
  5
DAA0
  8
WAKU
  6
CONTINUOUS
 10
374.268507
 20
286.719278
 30
0.0
 11
373.98505
 21
286.233718
 31
0.0
 12
374.689503
 22
286.696828
 32
0.0
 13
374.689503
 23
286.696828
 33
0.0
  0
SOLID
  5
DAA1
  8
WAKU
  6
CONTINUOUS
 10
373.894843
 20
286.783693
 30
0.0
 11
373.220238
 21
286.48192
 31
0.0
 12
373.553316
 22
286.277229
 32
0.0
 13
373.553316
 23
286.277229
 33
0.0
  0
SOLID
  5
DAA2
  8
WAKU
  6
CONTINUOUS
 10
371.545827
 20
286.924893
 30
0.0
 11
370.638671
 21
286.473
 31
0.0
 12
370.971896
 22
286.268471
 32
0.0
 13
370.971896
 23
286.268471
 33
0.0
  0
SOLID
  5
DAA3
  8
WAKU
  6
CONTINUOUS
 10
371.04672
 20
286.965174
 30
0.0
 11
370.638671
 21
286.473
 31
0.0
 12
371.545827
 22
286.924893
 32
0.0
 13
371.545827
 23
286.924893
 33
0.0
  0
SOLID
  5
DAA4
  8
WAKU
  6
CONTINUOUS
 10
370.101449
 20
287.039901
 30
0.0
 11
369.764265
 21
286.544812
 31
0.0
 12
370.207035
 22
286.51657
 32
0.0
 13
370.207035
 23
286.51657
 33
0.0
  0
SOLID
  5
DAA5
  8
WAKU
  6
CONTINUOUS
 10
373.661353
 20
287.159534
 30
0.0
 11
373.220238
 21
286.48192
 31
0.0
 12
373.894843
 22
286.783693
 32
0.0
 13
373.894843
 23
286.783693
 33
0.0
  0
SOLID
  5
DAA6
  8
WAKU
  6
CONTINUOUS
 10
374.865984
 20
287.166134
 30
0.0
 11
374.268507
 21
286.719278
 31
0.0
 12
374.689503
 22
286.696828
 32
0.0
 13
374.689503
 23
286.696828
 33
0.0
  0
SOLID
  5
DAA7
  8
WAKU
  6
CONTINUOUS
 10
374.46071
 20
287.174248
 30
0.0
 11
374.268507
 21
286.719278
 31
0.0
 12
374.865984
 22
287.166134
 32
0.0
 13
374.865984
 23
287.166134
 33
0.0
  0
SOLID
  5
DAA8
  8
WAKU
  6
CONTINUOUS
 10
374.156732
 20
287.28503
 30
0.0
 11
373.661353
 21
287.159534
 31
0.0
 12
373.894843
 22
286.783693
 32
0.0
 13
373.894843
 23
286.783693
 33
0.0
  0
SOLID
  5
DAA9
  8
WAKU
  6
CONTINUOUS
 10
371.505632
 20
287.424128
 30
0.0
 11
371.04672
 21
286.965174
 31
0.0
 12
371.545827
 22
286.924893
 32
0.0
 13
371.545827
 23
286.924893
 33
0.0
  0
SOLID
  5
DAAA
  8
WAKU
  6
CONTINUOUS
 10
370.996098
 20
287.475108
 30
0.0
 11
370.101449
 21
287.039901
 31
0.0
 12
370.207035
 22
286.51657
 32
0.0
 13
370.207035
 23
286.51657
 33
0.0
  0
SOLID
  5
DAAB
  8
WAKU
  6
CONTINUOUS
 10
372.202181
 20
287.498991
 30
0.0
 11
371.505632
 21
287.424128
 31
0.0
 12
371.545827
 22
286.924893
 32
0.0
 13
371.545827
 23
286.924893
 33
0.0
  0
SOLID
  5
DAAC
  8
WAKU
  6
CONTINUOUS
 10
370.501795
 20
287.520677
 30
0.0
 11
370.101449
 21
287.039901
 31
0.0
 12
370.996098
 22
287.475108
 32
0.0
 13
370.996098
 23
287.475108
 33
0.0
  0
SOLID
  5
DAAD
  8
WAKU
  6
CONTINUOUS
 10
374.556361
 20
287.569864
 30
0.0
 11
374.46071
 21
287.174248
 31
0.0
 12
374.865984
 22
287.166134
 32
0.0
 13
374.865984
 23
287.166134
 33
0.0
  0
SOLID
  5
DAAE
  8
WAKU
  6
CONTINUOUS
 10
395.864763
 20
287.592308
 30
0.0
 11
395.159221
 21
285.653846
 31
0.0
 12
395.452208
 22
283.5
 32
0.0
 13
395.452208
 23
283.5
 33
0.0
  0
SOLID
  5
DAAF
  8
WAKU
  6
CONTINUOUS
 10
393.172456
 20
287.592308
 30
0.0
 11
391.703565
 21
286.515385
 31
0.0
 12
392.780488
 22
286.515385
 32
0.0
 13
392.780488
 23
286.515385
 33
0.0
  0
SOLID
  5
DAB0
  8
WAKU
  6
CONTINUOUS
 10
392.095533
 20
287.592308
 30
0.0
 11
391.703565
 21
286.515385
 31
0.0
 12
393.172456
 22
287.592308
 32
0.0
 13
393.172456
 23
287.592308
 33
0.0
  0
SOLID
  5
DAB1
  8
WAKU
  6
CONTINUOUS
 10
391.28784
 20
287.592308
 30
0.0
 11
392.095533
 21
287.592308
 31
0.0
 12
393.172456
 22
287.592308
 32
0.0
 13
393.172456
 23
287.592308
 33
0.0
  0
SOLID
  5
DAB2
  8
WAKU
  6
CONTINUOUS
 10
391.28784
 20
287.592308
 30
0.0
 11
393.172456
 21
287.592308
 31
0.0
 12
395.864763
 22
287.592308
 32
0.0
 13
395.864763
 23
287.592308
 33
0.0
  0
SOLID
  5
DAB3
  8
WAKU
  6
CONTINUOUS
 10
396.941687
 20
287.592308
 30
0.0
 11
391.28784
 21
287.592308
 31
0.0
 12
395.864763
 22
287.592308
 32
0.0
 13
395.864763
 23
287.592308
 33
0.0
  0
SOLID
  5
DAB4
  8
WAKU
  6
CONTINUOUS
 10
396.941687
 20
287.592308
 30
0.0
 11
395.864763
 21
287.592308
 31
0.0
 12
395.452208
 22
283.5
 32
0.0
 13
395.452208
 23
283.5
 33
0.0
  0
SOLID
  5
DAB5
  8
WAKU
  6
CONTINUOUS
 10
374.950827
 20
287.596289
 30
0.0
 11
374.556361
 21
287.569864
 31
0.0
 12
374.865984
 22
287.166134
 32
0.0
 13
374.865984
 23
287.166134
 33
0.0
  0
SOLID
  5
DAB6
  8
WAKU
  6
CONTINUOUS
 10
374.328925
 20
287.761987
 30
0.0
 11
373.661353
 21
287.159534
 31
0.0
 12
374.156732
 22
287.28503
 32
0.0
 13
374.156732
 23
287.28503
 33
0.0
  0
SOLID
  5
DAB7
  8
WAKU
  6
CONTINUOUS
 10
373.932071
 20
287.790402
 30
0.0
 11
373.661353
 21
287.159534
 31
0.0
 12
374.328925
 22
287.761987
 32
0.0
 13
374.328925
 23
287.761987
 33
0.0
  0
SOLID
  5
DAB8
  8
WAKU
  6
CONTINUOUS
 10
371.997783
 20
287.832235
 30
0.0
 11
371.505632
 21
287.424128
 31
0.0
 12
372.202181
 22
287.498991
 32
0.0
 13
372.202181
 23
287.498991
 33
0.0
  0
SOLID
  5
DAB9
  8
WAKU
  6
CONTINUOUS
 10
374.561802
 20
287.877253
 30
0.0
 11
374.556361
 21
287.569864
 31
0.0
 12
374.950827
 22
287.596289
 32
0.0
 13
374.950827
 23
287.596289
 33
0.0
  0
SOLID
  5
DABA
  8
WAKU
  6
CONTINUOUS
 10
372.879878
 20
287.940057
 30
0.0
 11
371.997783
 21
287.832235
 31
0.0
 12
372.202181
 22
287.498991
 32
0.0
 13
372.202181
 23
287.498991
 33
0.0
  0
SOLID
  5
DABB
  8
WAKU
  6
CONTINUOUS
 10
370.950599
 20
287.96948
 30
0.0
 11
370.501795
 21
287.520677
 31
0.0
 12
370.996098
 22
287.475108
 32
0.0
 13
370.996098
 23
287.475108
 33
0.0
  0
SOLID
  5
DABC
  8
WAKU
  6
CONTINUOUS
 10
374.940915
 20
287.971493
 30
0.0
 11
374.561802
 21
287.877253
 31
0.0
 12
374.950827
 22
287.596289
 32
0.0
 13
374.950827
 23
287.596289
 33
0.0
  0
SOLID
  5
DABD
  8
WAKU
  6
CONTINUOUS
 10
374.502951
 20
288.077918
 30
0.0
 11
374.561802
 21
287.877253
 31
0.0
 12
374.940915
 22
287.971493
 32
0.0
 13
374.940915
 23
287.971493
 33
0.0
  0
SOLID
  5
DABE
  8
WAKU
  6
CONTINUOUS
 10
405.753055
 20
288.130769
 30
0.0
 11
405.282694
 21
286.838462
 31
0.0
 12
408.513463
 22
286.838462
 32
0.0
 13
408.513463
 23
286.838462
 33
0.0
  0
SOLID
  5
DABF
  8
WAKU
  6
CONTINUOUS
 10
408.983824
 20
288.130769
 30
0.0
 11
405.753055
 21
288.130769
 31
0.0
 12
408.513463
 22
286.838462
 32
0.0
 13
408.513463
 23
286.838462
 33
0.0
  0
SOLID
  5
DAC0
  8
WAKU
  6
CONTINUOUS
 10
372.504269
 20
288.173821
 30
0.0
 11
371.997783
 21
287.832235
 31
0.0
 12
372.879878
 22
287.940057
 32
0.0
 13
372.879878
 23
287.940057
 33
0.0
  0
SOLID
  5
DAC1
  8
WAKU
  6
CONTINUOUS
 10
374.40481
 20
288.196249
 30
0.0
 11
373.932071
 21
287.790402
 31
0.0
 12
374.328925
 22
287.761987
 32
0.0
 13
374.328925
 23
287.761987
 33
0.0
  0
SOLID
  5
DAC2
  8
WAKU
  6
CONTINUOUS
 10
374.40481
 20
288.196249
 30
0.0
 11
374.502951
 21
288.077918
 31
0.0
 12
374.940915
 22
287.971493
 32
0.0
 13
374.940915
 23
287.971493
 33
0.0
  0
SOLID
  5
DAC3
  8
WAKU
  6
CONTINUOUS
 10
373.510738
 20
288.21124
 30
0.0
 11
372.504269
 21
288.173821
 31
0.0
 12
372.879878
 22
287.940057
 32
0.0
 13
372.879878
 23
287.940057
 33
0.0
  0
SOLID
  5
DAC4
  8
WAKU
  6
CONTINUOUS
 10
371.954587
 20
288.264284
 30
0.0
 11
370.950599
 21
287.96948
 31
0.0
 12
370.996098
 22
287.475108
 32
0.0
 13
370.996098
 23
287.475108
 33
0.0
  0
SOLID
  5
DAC5
  8
WAKU
  6
CONTINUOUS
 10
374.836612
 20
288.277967
 30
0.0
 11
374.40481
 21
288.196249
 31
0.0
 12
374.940915
 22
287.971493
 32
0.0
 13
374.940915
 23
287.971493
 33
0.0
  0
SOLID
  5
DAC6
  8
WAKU
  6
CONTINUOUS
 10
374.019229
 20
288.298569
 30
0.0
 11
372.504269
 21
288.173821
 31
0.0
 12
373.510738
 22
288.21124
 32
0.0
 13
373.510738
 23
288.21124
 33
0.0
  0
SOLID
  5
DAC7
  8
WAKU
  6
CONTINUOUS
 10
374.019229
 20
288.298569
 30
0.0
 11
374.40481
 21
288.196249
 31
0.0
 12
374.836612
 22
288.277967
 32
0.0
 13
374.836612
 23
288.277967
 33
0.0
  0
SOLID
  5
DAC8
  8
WAKU
  6
CONTINUOUS
 10
374.019229
 20
288.298569
 30
0.0
 11
373.932071
 21
287.790402
 31
0.0
 12
374.40481
 22
288.196249
 32
0.0
 13
374.40481
 23
288.196249
 33
0.0
  0
SOLID
  5
DAC9
  8
WAKU
  6
CONTINUOUS
 10
371.431374
 20
288.369826
 30
0.0
 11
370.950599
 21
287.96948
 31
0.0
 12
371.954587
 22
288.264284
 32
0.0
 13
371.954587
 23
288.264284
 33
0.0
  0
SOLID
  5
DACA
  8
WAKU
  6
CONTINUOUS
 10
373.005639
 20
288.435768
 30
0.0
 11
372.504269
 21
288.173821
 31
0.0
 12
374.019229
 22
288.298569
 32
0.0
 13
374.019229
 23
288.298569
 33
0.0
  0
SOLID
  5
DACB
  8
WAKU
  6
CONTINUOUS
 10
374.641749
 20
288.504452
 30
0.0
 11
373.005639
 21
288.435768
 31
0.0
 12
374.019229
 22
288.298569
 32
0.0
 13
374.019229
 23
288.298569
 33
0.0
  0
SOLID
  5
DACC
  8
WAKU
  6
CONTINUOUS
 10
374.641749
 20
288.504452
 30
0.0
 11
374.019229
 21
288.298569
 31
0.0
 12
374.836612
 22
288.277967
 32
0.0
 13
374.836612
 23
288.277967
 33
0.0
  0
SOLID
  5
DACD
  8
WAKU
  6
CONTINUOUS
 10
372.440235
 20
288.547585
 30
0.0
 11
371.431374
 21
288.369826
 31
0.0
 12
371.954587
 22
288.264284
 32
0.0
 13
371.954587
 23
288.264284
 33
0.0
  0
SOLID
  5
DACE
  8
WAKU
  6
CONTINUOUS
 10
373.482636
 20
288.608014
 30
0.0
 11
373.005639
 21
288.435768
 31
0.0
 12
374.641749
 22
288.504452
 32
0.0
 13
374.641749
 23
288.504452
 33
0.0
  0
SOLID
  5
DACF
  8
WAKU
  6
CONTINUOUS
 10
374.363484
 20
288.64263
 30
0.0
 11
373.482636
 21
288.608014
 31
0.0
 12
374.641749
 22
288.504452
 32
0.0
 13
374.641749
 23
288.504452
 33
0.0
  0
SOLID
  5
DAD0
  8
WAKU
  6
CONTINUOUS
 10
373.916941
 20
288.683944
 30
0.0
 11
373.482636
 21
288.608014
 31
0.0
 12
374.363484
 22
288.64263
 32
0.0
 13
374.363484
 23
288.64263
 33
0.0
  0
SOLID
  5
DAD1
  8
WAKU
  6
CONTINUOUS
 10
371.926464
 20
288.70701
 30
0.0
 11
371.431374
 21
288.369826
 31
0.0
 12
372.440235
 22
288.547585
 32
0.0
 13
372.440235
 23
288.547585
 33
0.0
  0
SOLID
  5
DAD2
  8
WAKU
  6
CONTINUOUS
 10
372.89514
 20
288.740065
 30
0.0
 11
371.926464
 21
288.70701
 31
0.0
 12
372.440235
 22
288.547585
 32
0.0
 13
372.440235
 23
288.547585
 33
0.0
  0
SOLID
  5
DAD3
  8
WAKU
  6
CONTINUOUS
 10
380.311313
 20
288.776923
 30
0.0
 11
377.155205
 21
286.192308
 31
0.0
 12
380.493667
 22
286.192308
 32
0.0
 13
380.493667
 23
286.192308
 33
0.0
  0
SOLID
  5
DAD4
  8
WAKU
  6
CONTINUOUS
 10
381.524851
 20
288.776923
 30
0.0
 11
378.095928
 21
288.776923
 31
0.0
 12
380.311313
 22
288.776923
 32
0.0
 13
380.311313
 23
288.776923
 33
0.0
  0
SOLID
  5
DAD5
  8
WAKU
  6
CONTINUOUS
 10
381.524851
 20
288.776923
 30
0.0
 11
380.311313
 21
288.776923
 31
0.0
 12
380.493667
 22
286.192308
 32
0.0
 13
380.493667
 23
286.192308
 33
0.0
  0
SOLID
  5
DAD6
  8
WAKU
  6
CONTINUOUS
 10
381.524851
 20
288.776923
 30
0.0
 11
380.493667
 21
286.192308
 31
0.0
 12
382.755205
 22
286.192308
 32
0.0
 13
382.755205
 23
286.192308
 33
0.0
  0
SOLID
  5
DAD7
  8
WAKU
  6
CONTINUOUS
 10
373.799148
 20
288.781929
 30
0.0
 11
373.916941
 21
288.683944
 31
0.0
 12
374.363484
 22
288.64263
 32
0.0
 13
374.363484
 23
288.64263
 33
0.0
  0
SOLID
  5
DAD8
  8
WAKU
  6
CONTINUOUS
 10
373.290857
 20
288.835581
 30
0.0
 11
371.926464
 21
288.70701
 31
0.0
 12
372.89514
 22
288.740065
 32
0.0
 13
372.89514
 23
288.740065
 33
0.0
  0
SOLID
  5
DAD9
  8
WAKU
  6
CONTINUOUS
 10
373.597996
 20
288.840902
 30
0.0
 11
373.799148
 21
288.781929
 31
0.0
 12
374.363484
 22
288.64263
 32
0.0
 13
374.363484
 23
288.64263
 33
0.0
  0
SOLID
  5
DADA
  8
WAKU
  6
CONTINUOUS
 10
402.042817
 20
288.884615
 30
0.0
 11
400.181958
 21
286.730769
 31
0.0
 12
401.258881
 22
286.730769
 32
0.0
 13
401.258881
 23
286.730769
 33
0.0
  0
SOLID
  5
DADB
  8
WAKU
  6
CONTINUOUS
 10
402.796663
 20
288.884615
 30
0.0
 11
401.424776
 21
285.115385
 31
0.0
 12
401.913747
 22
283.5
 32
0.0
 13
401.913747
 23
283.5
 33
0.0
  0
SOLID
  5
DADC
  8
WAKU
  6
CONTINUOUS
 10
403.873587
 20
288.884615
 30
0.0
 11
402.796663
 21
288.884615
 31
0.0
 12
401.913747
 22
283.5
 32
0.0
 13
401.913747
 23
283.5
 33
0.0
  0
SOLID
  5
DADD
  8
WAKU
  6
CONTINUOUS
 10
400.965894
 20
288.884615
 30
0.0
 11
400.181958
 21
286.730769
 31
0.0
 12
402.042817
 22
288.884615
 32
0.0
 13
402.042817
 23
288.884615
 33
0.0
  0
SOLID
  5
DADE
  8
WAKU
  6
CONTINUOUS
 10
399.858881
 20
286.730769
 30
0.0
 11
400.642817
 21
288.884615
 31
0.0
 12
399.565894
 22
288.884615
 32
0.0
 13
399.565894
 23
288.884615
 33
0.0
  0
SOLID
  5
DADF
  8
WAKU
  6
CONTINUOUS
 10
399.565894
 20
288.884615
 30
0.0
 11
398.781958
 21
286.730769
 31
0.0
 12
399.858881
 22
286.730769
 32
0.0
 13
399.858881
 23
286.730769
 33
0.0
  0
SOLID
  5
DAE0
  8
WAKU
  6
CONTINUOUS
 10
374.225306
 20
288.920895
 30
0.0
 11
373.597996
 21
288.840902
 31
0.0
 12
374.363484
 22
288.64263
 32
0.0
 13
374.363484
 23
288.64263
 33
0.0
  0
SOLID
  5
DAE1
  8
WAKU
  6
CONTINUOUS
 10
372.417683
 20
288.968648
 30
0.0
 11
373.597996
 21
288.840902
 31
0.0
 12
374.225306
 22
288.920895
 32
0.0
 13
374.225306
 23
288.920895
 33
0.0
  0
SOLID
  5
DAE2
  8
WAKU
  6
CONTINUOUS
 10
372.417683
 20
288.968648
 30
0.0
 11
373.290857
 21
288.835581
 31
0.0
 12
373.597996
 22
288.840902
 32
0.0
 13
373.597996
 23
288.840902
 33
0.0
  0
SOLID
  5
DAE3
  8
WAKU
  6
CONTINUOUS
 10
372.417683
 20
288.968648
 30
0.0
 11
371.926464
 21
288.70701
 31
0.0
 12
373.290857
 22
288.835581
 32
0.0
 13
373.290857
 23
288.835581
 33
0.0
  0
SOLID
  5
DAE4
  8
WAKU
  6
CONTINUOUS
 10
373.998821
 20
289.115757
 30
0.0
 11
372.417683
 21
288.968648
 31
0.0
 12
374.225306
 22
288.920895
 32
0.0
 13
374.225306
 23
288.920895
 33
0.0
  0
SOLID
  5
DAE5
  8
WAKU
  6
CONTINUOUS
 10
372.886988
 20
289.145129
 30
0.0
 11
372.417683
 21
288.968648
 31
0.0
 12
373.998821
 22
289.115757
 32
0.0
 13
373.998821
 23
289.115757
 33
0.0
  0
SOLID
  5
DAE6
  8
WAKU
  6
CONTINUOUS
 10
396.941687
 20
287.592308
 30
0.0
 11
396.452715
 21
289.207692
 31
0.0
 12
393.760408
 22
289.207692
 32
0.0
 13
393.760408
 23
289.207692
 33
0.0
  0
SOLID
  5
DAE7
  8
WAKU
  6
CONTINUOUS
 10
396.452715
 20
289.207692
 30
0.0
 11
396.941687
 21
287.592308
 31
0.0
 12
397.749379
 22
287.592308
 32
0.0
 13
397.749379
 23
287.592308
 33
0.0
  0
SOLID
  5
DAE8
  8
WAKU
  6
CONTINUOUS
 10
393.760408
 20
289.207692
 30
0.0
 11
391.28784
 21
287.592308
 31
0.0
 12
396.941687
 22
287.592308
 32
0.0
 13
396.941687
 23
287.592308
 33
0.0
  0
SOLID
  5
DAE9
  8
WAKU
  6
CONTINUOUS
 10
398.337331
 20
289.207692
 30
0.0
 11
396.452715
 21
289.207692
 31
0.0
 12
397.749379
 22
287.592308
 32
0.0
 13
397.749379
 23
287.592308
 33
0.0
  0
SOLID
  5
DAEA
  8
WAKU
  6
CONTINUOUS
 10
391.875792
 20
289.207692
 30
0.0
 11
391.28784
 21
287.592308
 31
0.0
 12
393.760408
 22
289.207692
 32
0.0
 13
393.760408
 23
289.207692
 33
0.0
  0
SOLID
  5
DAEB
  8
WAKU
  6
CONTINUOUS
 10
393.760408
 20
289.207692
 30
0.0
 11
392.683485
 21
289.207692
 31
0.0
 12
391.875792
 22
289.207692
 32
0.0
 13
391.875792
 23
289.207692
 33
0.0
  0
SOLID
  5
DAEC
  8
WAKU
  6
CONTINUOUS
 10
397.529638
 20
289.207692
 30
0.0
 11
396.452715
 21
289.207692
 31
0.0
 12
398.337331
 22
289.207692
 32
0.0
 13
398.337331
 23
289.207692
 33
0.0
  0
SOLID
  5
DAED
  8
WAKU
  6
CONTINUOUS
 10
373.692348
 20
289.22006
 30
0.0
 11
372.886988
 21
289.145129
 31
0.0
 12
373.998821
 22
289.115757
 32
0.0
 13
373.998821
 23
289.115757
 33
0.0
  0
SOLID
  5
DAEE
  8
WAKU
  6
CONTINUOUS
 10
373.317143
 20
289.229972
 30
0.0
 11
372.886988
 21
289.145129
 31
0.0
 12
373.692348
 22
289.22006
 32
0.0
 13
373.692348
 23
289.22006
 33
0.0
  0
SOLID
  5
DAEF
  8
WAKU
  6
CONTINUOUS
 10
378.723077
 20
290.5
 30
0.0
 11
381.524851
 21
288.776923
 31
0.0
 12
383.695928
 22
288.776923
 32
0.0
 13
383.695928
 23
288.776923
 33
0.0
  0
SOLID
  5
DAF0
  8
WAKU
  6
CONTINUOUS
 10
378.723077
 20
290.5
 30
0.0
 11
378.095928
 21
288.776923
 31
0.0
 12
381.524851
 22
288.776923
 32
0.0
 13
381.524851
 23
288.776923
 33
0.0
  0
SOLID
  5
DAF1
  8
WAKU
  6
CONTINUOUS
 10
372.249053
 20
290.5
 30
0.0
 11
367.971276
 21
290.5
 31
0.0
 12
367.971276
 22
286.222222
 32
0.0
 13
367.971276
 23
286.222222
 33
0.0
  0
SOLID
  5
DAF2
  8
WAKU
  6
CONTINUOUS
 10
409.219005
 20
288.776923
 30
0.0
 11
409.846154
 21
290.5
 31
0.0
 12
406.615385
 22
290.5
 32
0.0
 13
406.615385
 23
290.5
 33
0.0
  0
SOLID
  5
DAF3
  8
WAKU
  6
CONTINUOUS
 10
406.615385
 20
290.5
 30
0.0
 11
405.988236
 21
288.776923
 31
0.0
 12
409.219005
 22
288.776923
 32
0.0
 13
409.219005
 23
288.776923
 33
0.0
  0
SOLID
  5
DAF4
  8
WAKU
  6
CONTINUOUS
 10
392.683485
 20
289.207692
 30
0.0
 11
394.230769
 21
290.5
 31
0.0
 12
393.153846
 22
290.5
 32
0.0
 13
393.153846
 23
290.5
 33
0.0
  0
SOLID
  5
DAF5
  8
WAKU
  6
CONTINUOUS
 10
394.230769
 20
290.5
 30
0.0
 11
392.683485
 21
289.207692
 31
0.0
 12
393.760408
 22
289.207692
 32
0.0
 13
393.760408
 23
289.207692
 33
0.0
  0
SOLID
  5
DAF6
  8
WAKU
  6
CONTINUOUS
 10
409.159221
 20
285.653846
 30
0.0
 11
412.0
 21
290.5
 31
0.0
 12
410.923077
 22
290.5
 32
0.0
 13
410.923077
 23
290.5
 33
0.0
  0
SOLID
  5
DAF7
  8
WAKU
  6
CONTINUOUS
 10
412.0
 20
290.5
 30
0.0
 11
409.159221
 21
285.653846
 31
0.0
 12
409.452208
 22
283.5
 32
0.0
 13
409.452208
 23
283.5
 33
0.0
  0
SOLID
  5
DAF8
  8
WAKU
  6
CONTINUOUS
 10
384.323077
 20
290.5
 30
0.0
 11
378.723077
 21
290.5
 31
0.0
 12
383.695928
 22
288.776923
 32
0.0
 13
383.695928
 23
288.776923
 33
0.0
  0
SOLID
  5
DAF9
  8
WAKU
  6
CONTINUOUS
 10
385.615385
 20
290.5
 30
0.0
 11
384.988236
 21
288.776923
 31
0.0
 12
390.372851
 22
288.776923
 32
0.0
 13
390.372851
 23
288.776923
 33
0.0
  0
SOLID
  5
DAFA
  8
WAKU
  6
CONTINUOUS
 10
396.923077
 20
290.5
 30
0.0
 11
396.452715
 21
289.207692
 31
0.0
 12
397.529638
 22
289.207692
 32
0.0
 13
397.529638
 23
289.207692
 33
0.0
  0
SOLID
  5
DAFB
  8
WAKU
  6
CONTINUOUS
 10
391.0
 20
290.5
 30
0.0
 11
385.615385
 21
290.5
 31
0.0
 12
390.372851
 22
288.776923
 32
0.0
 13
390.372851
 23
288.776923
 33
0.0
  0
SOLID
  5
DAFC
  8
WAKU
  6
CONTINUOUS
 10
398.0
 20
290.5
 30
0.0
 11
396.923077
 21
290.5
 31
0.0
 12
397.529638
 22
289.207692
 32
0.0
 13
397.529638
 23
289.207692
 33
0.0
  0
ENDBLK
  5
DAFD
  8
0
  0
ENDSEC
  0
SECTION
  2
ENTITIES
  0
LINE
  5
DB05
  8
WAKU
 10
415.0
 20
292.0
 30
0.0
 11
415.0
 21
5.0
 31
0.0
  0
LINE
  5
DB06
  8
WAKU
 10
5.0
 20
292.0
 30
0.0
 11
5.0
 21
5.0
 31
0.0
  0
LINE
  5
DB07
  8
WAKU
 10
5.0
 20
5.0
 30
0.0
 11
415.0
 21
5.0
 31
0.0
  0
LINE
  5
DB08
  8
WAKU
 10
5.0
 20
292.0
 30
0.0
 11
415.0
 21
292.0
 31
0.0
  0
LINE
  5
DB09
  8
WAKU
 10
5.0
 20
282.0
 30
0.0
 11
415.0
 21
282.0
 31
0.0
  0
LINE
  5
DB0A
  8
WAKU
  6
CONTINUOUS
 10
393.760408
 20
289.207692
 30
0.0
 11
396.452715
 21
289.207692
 31
0.0
  0
LINE
  5
DB0B
  8
WAKU
  6
CONTINUOUS
 10
393.172456
 20
287.592308
 30
0.0
 11
395.864763
 21
287.592308
 31
0.0
  0
LINE
  5
DB0C
  8
WAKU
  6
CONTINUOUS
 10
390.39067
 20
283.5
 30
0.0
 11
395.452208
 21
283.5
 31
0.0
  0
LINE
  5
DB0D
  8
WAKU
  6
CONTINUOUS
 10
395.159221
 20
285.653846
 30
0.0
 11
395.864763
 21
287.592308
 31
0.0
  0
LINE
  5
DB0E
  8
WAKU
  6
CONTINUOUS
 10
367.971276
 20
290.5
 30
0.0
 11
372.249053
 21
290.5
 31
0.0
  0
LINE
  5
DB0F
  8
WAKU
  6
CONTINUOUS
 10
367.971276
 20
286.222222
 30
0.0
 11
372.249053
 21
290.5
 31
0.0
  0
LINE
  5
DB10
  8
WAKU
  6
CONTINUOUS
 10
367.971276
 20
290.5
 30
0.0
 11
367.971276
 21
286.222222
 31
0.0
  0
LINE
  5
DB11
  8
WAKU
  6
CONTINUOUS
 10
381.524851
 20
288.776923
 30
0.0
 11
383.695928
 21
288.776923
 31
0.0
  0
LINE
  5
DB12
  8
WAKU
  6
CONTINUOUS
 10
378.723077
 20
290.5
 30
0.0
 11
384.323077
 21
290.5
 31
0.0
  0
LINE
  5
DB13
  8
WAKU
  6
CONTINUOUS
 10
380.311313
 20
288.776923
 30
0.0
 11
377.155205
 21
286.192308
 31
0.0
  0
LINE
  5
DB14
  8
WAKU
  6
CONTINUOUS
 10
381.524851
 20
288.776923
 30
0.0
 11
382.755205
 21
286.192308
 31
0.0
  0
LINE
  5
DB15
  8
WAKU
  6
CONTINUOUS
 10
376.175285
 20
283.5
 30
0.0
 11
377.155205
 21
286.192308
 31
0.0
  0
LINE
  5
DB16
  8
WAKU
  6
CONTINUOUS
 10
379.397145
 20
286.138462
 30
0.0
 11
376.175285
 21
283.5
 31
0.0
  0
LINE
  5
DB17
  8
WAKU
  6
CONTINUOUS
 10
381.775285
 20
283.5
 30
0.0
 11
382.755205
 21
286.192308
 31
0.0
  0
LINE
  5
DB18
  8
WAKU
  6
CONTINUOUS
 10
380.493667
 20
286.192308
 30
0.0
 11
381.775285
 21
283.5
 31
0.0
  0
LINE
  5
DB19
  8
WAKU
  6
CONTINUOUS
 10
379.513747
 20
283.5
 30
0.0
 11
380.493667
 21
286.192308
 31
0.0
  0
LINE
  5
DB1A
  8
WAKU
  6
CONTINUOUS
 10
378.436824
 20
283.5
 30
0.0
 11
379.513747
 21
283.5
 31
0.0
  0
LINE
  5
DB1B
  8
WAKU
  6
CONTINUOUS
 10
378.436824
 20
283.5
 30
0.0
 11
379.397145
 21
286.138462
 31
0.0
  0
LINE
  5
DB1C
  8
WAKU
  6
CONTINUOUS
 10
378.095928
 20
288.776923
 30
0.0
 11
380.311313
 21
288.776923
 31
0.0
  0
LINE
  5
DB1D
  8
WAKU
  6
CONTINUOUS
 10
378.723077
 20
290.5
 30
0.0
 11
378.095928
 21
288.776923
 31
0.0
  0
LINE
  5
DB1E
  8
WAKU
  6
CONTINUOUS
 10
392.780488
 20
286.515385
 30
0.0
 11
393.172456
 21
287.592308
 31
0.0
  0
LINE
  5
DB1F
  8
WAKU
  6
CONTINUOUS
 10
391.703565
 20
286.515385
 30
0.0
 11
392.095533
 21
287.592308
 31
0.0
  0
LINE
  5
DB20
  8
WAKU
  6
CONTINUOUS
 10
388.452208
 20
283.5
 30
0.0
 11
389.236144
 21
285.653846
 31
0.0
  0
LINE
  5
DB21
  8
WAKU
  6
CONTINUOUS
 10
383.851529
 20
285.653846
 30
0.0
 11
389.236144
 21
285.653846
 31
0.0
  0
LINE
  5
DB22
  8
WAKU
  6
CONTINUOUS
 10
383.067593
 20
283.5
 30
0.0
 11
383.851529
 21
285.653846
 31
0.0
  0
LINE
  5
DB23
  8
WAKU
  6
CONTINUOUS
 10
383.067593
 20
283.5
 30
0.0
 11
388.452208
 21
283.5
 31
0.0
  0
LINE
  5
DB24
  8
WAKU
  6
CONTINUOUS
 10
391.174606
 20
285.653846
 30
0.0
 11
395.159221
 21
285.653846
 31
0.0
  0
LINE
  5
DB25
  8
WAKU
  6
CONTINUOUS
 10
391.703565
 20
286.515385
 30
0.0
 11
392.780488
 21
286.515385
 31
0.0
  0
LINE
  5
DB26
  8
WAKU
  6
CONTINUOUS
 10
390.39067
 20
283.5
 30
0.0
 11
391.174606
 21
285.653846
 31
0.0
  0
LINE
  5
DB27
  8
WAKU
  6
CONTINUOUS
 10
384.988236
 20
288.776923
 30
0.0
 11
390.372851
 21
288.776923
 31
0.0
  0
LINE
  5
DB28
  8
WAKU
  6
CONTINUOUS
 10
385.615385
 20
290.5
 30
0.0
 11
391.0
 21
290.5
 31
0.0
  0
LINE
  5
DB29
  8
WAKU
  6
CONTINUOUS
 10
384.988236
 20
288.776923
 30
0.0
 11
385.615385
 21
290.5
 31
0.0
  0
LINE
  5
DB2A
  8
WAKU
  6
CONTINUOUS
 10
384.323077
 20
290.5
 30
0.0
 11
383.695928
 21
288.776923
 31
0.0
  0
LINE
  5
DB2B
  8
WAKU
  6
CONTINUOUS
 10
393.153846
 20
290.5
 30
0.0
 11
394.230769
 21
290.5
 31
0.0
  0
LINE
  5
DB2C
  8
WAKU
  6
CONTINUOUS
 10
393.760408
 20
289.207692
 30
0.0
 11
394.230769
 21
290.5
 31
0.0
  0
LINE
  5
DB2D
  8
WAKU
  6
CONTINUOUS
 10
391.875792
 20
289.207692
 30
0.0
 11
392.683485
 21
289.207692
 31
0.0
  0
LINE
  5
DB2E
  8
WAKU
  6
CONTINUOUS
 10
391.28784
 20
287.592308
 30
0.0
 11
392.095533
 21
287.592308
 31
0.0
  0
LINE
  5
DB2F
  8
WAKU
  6
CONTINUOUS
 10
391.28784
 20
287.592308
 30
0.0
 11
391.875792
 21
289.207692
 31
0.0
  0
LINE
  5
DB30
  8
WAKU
  6
CONTINUOUS
 10
392.683485
 20
289.207692
 30
0.0
 11
393.153846
 21
290.5
 31
0.0
  0
LINE
  5
DB31
  8
WAKU
  6
CONTINUOUS
 10
390.372851
 20
288.776923
 30
0.0
 11
391.0
 21
290.5
 31
0.0
  0
LINE
  5
DB32
  8
WAKU
  6
CONTINUOUS
 10
405.753055
 20
288.130769
 30
0.0
 11
408.983824
 21
288.130769
 31
0.0
  0
LINE
  5
DB33
  8
WAKU
  6
CONTINUOUS
 10
405.282694
 20
286.838462
 30
0.0
 11
408.513463
 21
286.838462
 31
0.0
  0
LINE
  5
DB34
  8
WAKU
  6
CONTINUOUS
 10
409.452208
 20
283.5
 30
0.0
 11
404.067593
 21
283.5
 31
0.0
  0
LINE
  5
DB35
  8
WAKU
  6
CONTINUOUS
 10
404.851529
 20
285.653846
 30
0.0
 11
409.159221
 21
285.653846
 31
0.0
  0
LINE
  5
DB36
  8
WAKU
  6
CONTINUOUS
 10
405.988236
 20
288.776923
 30
0.0
 11
409.219005
 21
288.776923
 31
0.0
  0
LINE
  5
DB37
  8
WAKU
  6
CONTINUOUS
 10
406.615385
 20
290.5
 30
0.0
 11
409.846154
 21
290.5
 31
0.0
  0
LINE
  5
DB38
  8
WAKU
  6
CONTINUOUS
 10
398.781958
 20
286.730769
 30
0.0
 11
399.565894
 21
288.884615
 31
0.0
  0
LINE
  5
DB39
  8
WAKU
  6
CONTINUOUS
 10
400.181958
 20
286.730769
 30
0.0
 11
400.965894
 21
288.884615
 31
0.0
  0
LINE
  5
DB3A
  8
WAKU
  6
CONTINUOUS
 10
399.858881
 20
286.730769
 30
0.0
 11
400.642817
 21
288.884615
 31
0.0
  0
LINE
  5
DB3B
  8
WAKU
  6
CONTINUOUS
 10
401.258881
 20
286.730769
 30
0.0
 11
402.042817
 21
288.884615
 31
0.0
  0
LINE
  5
DB3C
  8
WAKU
  6
CONTINUOUS
 10
401.913747
 20
283.5
 30
0.0
 11
403.873587
 21
288.884615
 31
0.0
  0
LINE
  5
DB3D
  8
WAKU
  6
CONTINUOUS
 10
401.424776
 20
285.115385
 30
0.0
 11
402.796663
 21
288.884615
 31
0.0
  0
LINE
  5
DB3E
  8
WAKU
  6
CONTINUOUS
 10
395.452208
 20
283.5
 30
0.0
 11
396.941687
 21
287.592308
 31
0.0
  0
LINE
  5
DB3F
  8
WAKU
  6
CONTINUOUS
 10
397.606055
 20
283.5
 30
0.0
 11
401.913747
 21
283.5
 31
0.0
  0
LINE
  5
DB40
  8
WAKU
  6
CONTINUOUS
 10
398.781958
 20
286.730769
 30
0.0
 11
399.858881
 21
286.730769
 31
0.0
  0
LINE
  5
DB41
  8
WAKU
  6
CONTINUOUS
 10
398.194006
 20
285.115385
 30
0.0
 11
401.424776
 21
285.115385
 31
0.0
  0
LINE
  5
DB42
  8
WAKU
  6
CONTINUOUS
 10
397.606055
 20
283.5
 30
0.0
 11
398.194006
 21
285.115385
 31
0.0
  0
LINE
  5
DB43
  8
WAKU
  6
CONTINUOUS
 10
400.181958
 20
286.730769
 30
0.0
 11
401.258881
 21
286.730769
 31
0.0
  0
LINE
  5
DB44
  8
WAKU
  6
CONTINUOUS
 10
404.067593
 20
283.5
 30
0.0
 11
404.851529
 21
285.653846
 31
0.0
  0
LINE
  5
DB45
  8
WAKU
  6
CONTINUOUS
 10
400.965894
 20
288.884615
 30
0.0
 11
402.042817
 21
288.884615
 31
0.0
  0
LINE
  5
DB46
  8
WAKU
  6
CONTINUOUS
 10
396.923077
 20
290.5
 30
0.0
 11
398.0
 21
290.5
 31
0.0
  0
LINE
  5
DB47
  8
WAKU
  6
CONTINUOUS
 10
397.529638
 20
289.207692
 30
0.0
 11
398.0
 21
290.5
 31
0.0
  0
LINE
  5
DB48
  8
WAKU
  6
CONTINUOUS
 10
397.529638
 20
289.207692
 30
0.0
 11
398.337331
 21
289.207692
 31
0.0
  0
LINE
  5
DB49
  8
WAKU
  6
CONTINUOUS
 10
396.941687
 20
287.592308
 30
0.0
 11
397.749379
 21
287.592308
 31
0.0
  0
LINE
  5
DB4A
  8
WAKU
  6
CONTINUOUS
 10
397.749379
 20
287.592308
 30
0.0
 11
398.337331
 21
289.207692
 31
0.0
  0
LINE
  5
DB4B
  8
WAKU
  6
CONTINUOUS
 10
399.565894
 20
288.884615
 30
0.0
 11
400.642817
 21
288.884615
 31
0.0
  0
LINE
  5
DB4C
  8
WAKU
  6
CONTINUOUS
 10
396.452715
 20
289.207692
 30
0.0
 11
396.923077
 21
290.5
 31
0.0
  0
LINE
  5
DB4D
  8
WAKU
  6
CONTINUOUS
 10
406.615385
 20
290.5
 30
0.0
 11
405.988236
 21
288.776923
 31
0.0
  0
LINE
  5
DB4E
  8
WAKU
  6
CONTINUOUS
 10
405.753055
 20
288.130769
 30
0.0
 11
405.282694
 21
286.838462
 31
0.0
  0
LINE
  5
DB4F
  8
WAKU
  6
CONTINUOUS
 10
402.796663
 20
288.884615
 30
0.0
 11
403.873587
 21
288.884615
 31
0.0
  0
LINE
  5
DB50
  8
WAKU
  6
CONTINUOUS
 10
409.159221
 20
285.653846
 30
0.0
 11
410.923077
 21
290.5
 31
0.0
  0
LINE
  5
DB51
  8
WAKU
  6
CONTINUOUS
 10
409.452208
 20
283.5
 30
0.0
 11
412.0
 21
290.5
 31
0.0
  0
LINE
  5
DB52
  8
WAKU
  6
CONTINUOUS
 10
409.219005
 20
288.776923
 30
0.0
 11
409.846154
 21
290.5
 31
0.0
  0
LINE
  5
DB53
  8
WAKU
  6
CONTINUOUS
 10
410.923077
 20
290.5
 30
0.0
 11
412.0
 21
290.5
 31
0.0
  0
LINE
  5
DB54
  8
WAKU
  6
CONTINUOUS
 10
408.513463
 20
286.838462
 30
0.0
 11
408.983824
 21
288.130769
 31
0.0
  0
LINE
  5
DB55
  8
WAKU
  6
CONTINUOUS
 10
369.828646
 20
284.107791
 30
0.0
 11
369.966824
 21
283.829526
 31
0.0
  0
LINE
  5
DB56
  8
WAKU
  6
CONTINUOUS
 10
369.966824
 20
283.829526
 30
0.0
 11
370.193309
 21
283.634664
 31
0.0
  0
LINE
  5
DB57
  8
WAKU
  6
CONTINUOUS
 10
370.193309
 20
283.634664
 30
0.0
 11
370.499782
 21
283.530361
 31
0.0
  0
LINE
  5
DB58
  8
WAKU
  6
CONTINUOUS
 10
370.499782
 20
283.530361
 30
0.0
 11
370.874987
 21
283.520449
 31
0.0
  0
LINE
  5
DB59
  8
WAKU
  6
CONTINUOUS
 10
370.874987
 20
283.520449
 30
0.0
 11
371.305142
 21
283.605291
 31
0.0
  0
LINE
  5
DB5A
  8
WAKU
  6
CONTINUOUS
 10
371.305142
 20
283.605291
 30
0.0
 11
371.774448
 21
283.781773
 31
0.0
  0
LINE
  5
DB5B
  8
WAKU
  6
CONTINUOUS
 10
371.774448
 20
283.781773
 30
0.0
 11
372.265666
 21
284.043411
 31
0.0
  0
LINE
  5
DB5C
  8
WAKU
  6
CONTINUOUS
 10
372.265666
 20
284.043411
 30
0.0
 11
372.760756
 21
284.380595
 31
0.0
  0
LINE
  5
DB5D
  8
WAKU
  6
CONTINUOUS
 10
372.760756
 20
284.380595
 30
0.0
 11
373.241532
 21
284.780941
 31
0.0
  0
LINE
  5
DB5E
  8
WAKU
  6
CONTINUOUS
 10
373.241532
 20
284.780941
 30
0.0
 11
373.690335
 21
285.229744
 31
0.0
  0
LINE
  5
DB5F
  8
WAKU
  6
CONTINUOUS
 10
373.690335
 20
285.229744
 30
0.0
 11
374.090681
 21
285.71052
 31
0.0
  0
LINE
  5
DB60
  8
WAKU
  6
CONTINUOUS
 10
374.090681
 20
285.71052
 30
0.0
 11
374.427865
 21
286.205609
 31
0.0
  0
LINE
  5
DB61
  8
WAKU
  6
CONTINUOUS
 10
374.427865
 20
286.205609
 30
0.0
 11
374.689503
 21
286.696828
 31
0.0
  0
LINE
  5
DB62
  8
WAKU
  6
CONTINUOUS
 10
374.689503
 20
286.696828
 30
0.0
 11
374.865984
 21
287.166134
 31
0.0
  0
LINE
  5
DB63
  8
WAKU
  6
CONTINUOUS
 10
374.865984
 20
287.166134
 30
0.0
 11
374.950827
 21
287.596289
 31
0.0
  0
LINE
  5
DB64
  8
WAKU
  6
CONTINUOUS
 10
374.950827
 20
287.596289
 30
0.0
 11
374.940915
 21
287.971493
 31
0.0
  0
LINE
  5
DB65
  8
WAKU
  6
CONTINUOUS
 10
374.940915
 20
287.971493
 30
0.0
 11
374.836612
 21
288.277967
 31
0.0
  0
LINE
  5
DB66
  8
WAKU
  6
CONTINUOUS
 10
374.836612
 20
288.277967
 30
0.0
 11
374.641749
 21
288.504452
 31
0.0
  0
LINE
  5
DB67
  8
WAKU
  6
CONTINUOUS
 10
374.641749
 20
288.504452
 30
0.0
 11
374.363484
 21
288.64263
 31
0.0
  0
LINE
  5
DB68
  8
WAKU
  6
CONTINUOUS
 10
373.916941
 20
288.683944
 30
0.0
 11
373.482636
 21
288.608014
 31
0.0
  0
LINE
  5
DB69
  8
WAKU
  6
CONTINUOUS
 10
373.482636
 20
288.608014
 30
0.0
 11
373.005639
 21
288.435768
 31
0.0
  0
LINE
  5
DB6A
  8
WAKU
  6
CONTINUOUS
 10
373.005639
 20
288.435768
 30
0.0
 11
372.504269
 21
288.173821
 31
0.0
  0
LINE
  5
DB6B
  8
WAKU
  6
CONTINUOUS
 10
372.504269
 20
288.173821
 30
0.0
 11
371.997783
 21
287.832235
 31
0.0
  0
LINE
  5
DB6C
  8
WAKU
  6
CONTINUOUS
 10
371.997783
 20
287.832235
 30
0.0
 11
371.505632
 21
287.424128
 31
0.0
  0
LINE
  5
DB6D
  8
WAKU
  6
CONTINUOUS
 10
371.505632
 20
287.424128
 30
0.0
 11
371.04672
 21
286.965174
 31
0.0
  0
LINE
  5
DB6E
  8
WAKU
  6
CONTINUOUS
 10
371.04672
 20
286.965174
 30
0.0
 11
370.638671
 21
286.473
 31
0.0
  0
LINE
  5
DB6F
  8
WAKU
  6
CONTINUOUS
 10
370.638671
 20
286.473
 30
0.0
 11
370.297156
 21
285.966509
 31
0.0
  0
LINE
  5
DB70
  8
WAKU
  6
CONTINUOUS
 10
370.297156
 20
285.966509
 30
0.0
 11
370.035293
 21
285.465154
 31
0.0
  0
LINE
  5
DB71
  8
WAKU
  6
CONTINUOUS
 10
370.035293
 20
285.465154
 30
0.0
 11
369.863139
 21
284.988189
 31
0.0
  0
LINE
  5
DB72
  8
WAKU
  6
CONTINUOUS
 10
369.863139
 20
284.988189
 30
0.0
 11
369.787305
 21
284.553935
 31
0.0
  0
LINE
  5
DB73
  8
WAKU
  6
CONTINUOUS
 10
370.172911
 20
284.451856
 30
0.0
 11
370.681395
 21
284.539195
 31
0.0
  0
LINE
  5
DB74
  8
WAKU
  6
CONTINUOUS
 10
370.681395
 20
284.539195
 30
0.0
 11
371.312263
 21
284.810332
 31
0.0
  0
LINE
  5
DB75
  8
WAKU
  6
CONTINUOUS
 10
371.312263
 20
284.810332
 30
0.0
 11
371.98994
 21
285.251431
 31
0.0
  0
LINE
  5
DB76
  8
WAKU
  6
CONTINUOUS
 10
371.98994
 20
285.251431
 30
0.0
 11
372.646296
 21
285.825506
 31
0.0
  0
LINE
  5
DB77
  8
WAKU
  6
CONTINUOUS
 10
372.646296
 20
285.825506
 30
0.0
 11
373.220238
 21
286.48192
 31
0.0
  0
LINE
  5
DB78
  8
WAKU
  6
CONTINUOUS
 10
373.220238
 20
286.48192
 30
0.0
 11
373.661353
 21
287.159534
 31
0.0
  0
LINE
  5
DB79
  8
WAKU
  6
CONTINUOUS
 10
373.661353
 20
287.159534
 30
0.0
 11
373.932071
 21
287.790402
 31
0.0
  0
LINE
  5
DB7A
  8
WAKU
  6
CONTINUOUS
 10
373.932071
 20
287.790402
 30
0.0
 11
374.019229
 21
288.298569
 31
0.0
  0
LINE
  5
DB7B
  8
WAKU
  6
CONTINUOUS
 10
373.916941
 20
288.683944
 30
0.0
 11
373.799148
 21
288.781929
 31
0.0
  0
LINE
  5
DB7C
  8
WAKU
  6
CONTINUOUS
 10
373.799148
 20
288.781929
 30
0.0
 11
373.597996
 21
288.840902
 31
0.0
  0
LINE
  5
DB7D
  8
WAKU
  6
CONTINUOUS
 10
373.597996
 20
288.840902
 30
0.0
 11
373.290857
 21
288.835581
 31
0.0
  0
LINE
  5
DB7E
  8
WAKU
  6
CONTINUOUS
 10
373.290857
 20
288.835581
 30
0.0
 11
372.89514
 21
288.740065
 31
0.0
  0
LINE
  5
DB7F
  8
WAKU
  6
CONTINUOUS
 10
372.89514
 20
288.740065
 30
0.0
 11
372.440235
 21
288.547585
 31
0.0
  0
LINE
  5
DB80
  8
WAKU
  6
CONTINUOUS
 10
372.440235
 20
288.547585
 30
0.0
 11
371.954587
 21
288.264284
 31
0.0
  0
LINE
  5
DB81
  8
WAKU
  6
CONTINUOUS
 10
371.954587
 20
288.264284
 30
0.0
 11
370.996098
 21
287.475108
 31
0.0
  0
LINE
  5
DB82
  8
WAKU
  6
CONTINUOUS
 10
370.996098
 20
287.475108
 30
0.0
 11
370.207035
 21
286.51657
 31
0.0
  0
LINE
  5
DB83
  8
WAKU
  6
CONTINUOUS
 10
370.207035
 20
286.51657
 30
0.0
 11
369.923519
 21
286.031028
 31
0.0
  0
LINE
  5
DB84
  8
WAKU
  6
CONTINUOUS
 10
369.923519
 20
286.031028
 30
0.0
 11
369.73149
 21
285.576021
 31
0.0
  0
LINE
  5
DB85
  8
WAKU
  6
CONTINUOUS
 10
369.73149
 20
285.576021
 30
0.0
 11
369.635696
 21
285.180404
 31
0.0
  0
LINE
  5
DB86
  8
WAKU
  6
CONTINUOUS
 10
369.635696
 20
285.180404
 30
0.0
 11
369.630358
 21
284.873087
 31
0.0
  0
LINE
  5
DB87
  8
WAKU
  6
CONTINUOUS
 10
369.630358
 20
284.873087
 30
0.0
 11
369.689155
 21
284.672435
 31
0.0
  0
LINE
  5
DB88
  8
WAKU
  6
CONTINUOUS
 10
369.689155
 20
284.672435
 30
0.0
 11
369.787305
 21
284.553935
 31
0.0
  0
LINE
  5
DB89
  8
WAKU
  6
CONTINUOUS
 10
370.275177
 20
284.066476
 30
0.0
 11
370.392927
 21
283.968568
 31
0.0
  0
LINE
  5
DB8A
  8
WAKU
  6
CONTINUOUS
 10
370.392927
 20
283.968568
 30
0.0
 11
370.594177
 21
283.909498
 31
0.0
  0
LINE
  5
DB8B
  8
WAKU
  6
CONTINUOUS
 10
370.594177
 20
283.909498
 30
0.0
 11
370.901294
 21
283.914863
 31
0.0
  0
LINE
  5
DB8C
  8
WAKU
  6
CONTINUOUS
 10
370.901294
 20
283.914863
 30
0.0
 11
371.296984
 21
284.010368
 31
0.0
  0
LINE
  5
DB8D
  8
WAKU
  6
CONTINUOUS
 10
371.296984
 20
284.010368
 30
0.0
 11
371.751882
 21
284.202798
 31
0.0
  0
LINE
  5
DB8E
  8
WAKU
  6
CONTINUOUS
 10
371.751882
 20
284.202798
 30
0.0
 11
372.237497
 21
284.486117
 31
0.0
  0
LINE
  5
DB8F
  8
WAKU
  6
CONTINUOUS
 10
372.237497
 20
284.486117
 30
0.0
 11
373.195965
 21
285.275232
 31
0.0
  0
LINE
  5
DB90
  8
WAKU
  6
CONTINUOUS
 10
373.195965
 20
285.275232
 30
0.0
 11
373.98505
 21
286.233718
 31
0.0
  0
LINE
  5
DB91
  8
WAKU
  6
CONTINUOUS
 10
373.98505
 20
286.233718
 30
0.0
 11
374.268507
 21
286.719278
 31
0.0
  0
LINE
  5
DB92
  8
WAKU
  6
CONTINUOUS
 10
374.268507
 20
286.719278
 30
0.0
 11
374.46071
 21
287.174248
 31
0.0
  0
LINE
  5
DB93
  8
WAKU
  6
CONTINUOUS
 10
374.46071
 20
287.174248
 30
0.0
 11
374.556361
 21
287.569864
 31
0.0
  0
LINE
  5
DB94
  8
WAKU
  6
CONTINUOUS
 10
374.556361
 20
287.569864
 30
0.0
 11
374.561802
 21
287.877253
 31
0.0
  0
LINE
  5
DB95
  8
WAKU
  6
CONTINUOUS
 10
374.561802
 20
287.877253
 30
0.0
 11
374.502951
 21
288.077918
 31
0.0
  0
LINE
  5
DB96
  8
WAKU
  6
CONTINUOUS
 10
374.502951
 20
288.077918
 30
0.0
 11
374.40481
 21
288.196249
 31
0.0
  0
LINE
  5
DB97
  8
WAKU
  6
CONTINUOUS
 10
374.019229
 20
288.298569
 30
0.0
 11
373.510738
 21
288.21124
 31
0.0
  0
LINE
  5
DB98
  8
WAKU
  6
CONTINUOUS
 10
373.510738
 20
288.21124
 30
0.0
 11
372.879878
 21
287.940057
 31
0.0
  0
LINE
  5
DB99
  8
WAKU
  6
CONTINUOUS
 10
372.879878
 20
287.940057
 30
0.0
 11
372.202181
 21
287.498991
 31
0.0
  0
LINE
  5
DB9A
  8
WAKU
  6
CONTINUOUS
 10
372.202181
 20
287.498991
 30
0.0
 11
371.545827
 21
286.924893
 31
0.0
  0
LINE
  5
DB9B
  8
WAKU
  6
CONTINUOUS
 10
371.545827
 20
286.924893
 30
0.0
 11
370.971896
 21
286.268471
 31
0.0
  0
LINE
  5
DB9C
  8
WAKU
  6
CONTINUOUS
 10
370.971896
 20
286.268471
 30
0.0
 11
370.530712
 21
285.590875
 31
0.0
  0
LINE
  5
DB9D
  8
WAKU
  6
CONTINUOUS
 10
370.530712
 20
285.590875
 30
0.0
 11
370.260168
 21
284.959969
 31
0.0
  0
LINE
  5
DB9E
  8
WAKU
  6
CONTINUOUS
 10
370.260168
 20
284.959969
 30
0.0
 11
370.172911
 21
284.451856
 31
0.0
  0
LINE
  5
DB9F
  8
WAKU
  6
CONTINUOUS
 10
370.275177
 20
284.066476
 30
0.0
 11
370.709458
 21
284.142397
 31
0.0
  0
LINE
  5
DBA0
  8
WAKU
  6
CONTINUOUS
 10
370.709458
 20
284.142397
 30
0.0
 11
371.186428
 21
284.314625
 31
0.0
  0
LINE
  5
DBA1
  8
WAKU
  6
CONTINUOUS
 10
371.186428
 20
284.314625
 30
0.0
 11
371.68777
 21
284.576545
 31
0.0
  0
LINE
  5
DBA2
  8
WAKU
  6
CONTINUOUS
 10
371.68777
 20
284.576545
 30
0.0
 11
372.194232
 21
284.918099
 31
0.0
  0
LINE
  5
DBA3
  8
WAKU
  6
CONTINUOUS
 10
372.194232
 20
284.918099
 30
0.0
 11
372.686363
 21
285.326171
 31
0.0
  0
LINE
  5
DBA4
  8
WAKU
  6
CONTINUOUS
 10
372.686363
 20
285.326171
 30
0.0
 11
373.145266
 21
285.785089
 31
0.0
  0
LINE
  5
DBA5
  8
WAKU
  6
CONTINUOUS
 10
373.145266
 20
285.785089
 30
0.0
 11
373.553316
 21
286.277229
 31
0.0
  0
LINE
  5
DBA6
  8
WAKU
  6
CONTINUOUS
 10
373.553316
 20
286.277229
 30
0.0
 11
373.894843
 21
286.783693
 31
0.0
  0
LINE
  5
DBA7
  8
WAKU
  6
CONTINUOUS
 10
373.894843
 20
286.783693
 30
0.0
 11
374.156732
 21
287.28503
 31
0.0
  0
LINE
  5
DBA8
  8
WAKU
  6
CONTINUOUS
 10
374.156732
 20
287.28503
 30
0.0
 11
374.328925
 21
287.761987
 31
0.0
  0
LINE
  5
DBA9
  8
WAKU
  6
CONTINUOUS
 10
374.328925
 20
287.761987
 30
0.0
 11
374.40481
 21
288.196249
 31
0.0
  0
LINE
  5
DBAA
  8
WAKU
  6
CONTINUOUS
 10
374.363484
 20
288.64263
 30
0.0
 11
374.225306
 21
288.920895
 31
0.0
  0
LINE
  5
DBAB
  8
WAKU
  6
CONTINUOUS
 10
374.225306
 20
288.920895
 30
0.0
 11
373.998821
 21
289.115757
 31
0.0
  0
LINE
  5
DBAC
  8
WAKU
  6
CONTINUOUS
 10
373.998821
 20
289.115757
 30
0.0
 11
373.692348
 21
289.22006
 31
0.0
  0
LINE
  5
DBAD
  8
WAKU
  6
CONTINUOUS
 10
373.692348
 20
289.22006
 30
0.0
 11
373.317143
 21
289.229972
 31
0.0
  0
LINE
  5
DBAE
  8
WAKU
  6
CONTINUOUS
 10
373.317143
 20
289.229972
 30
0.0
 11
372.886988
 21
289.145129
 31
0.0
  0
LINE
  5
DBAF
  8
WAKU
  6
CONTINUOUS
 10
372.886988
 20
289.145129
 30
0.0
 11
372.417683
 21
288.968648
 31
0.0
  0
LINE
  5
DBB0
  8
WAKU
  6
CONTINUOUS
 10
372.417683
 20
288.968648
 30
0.0
 11
371.926464
 21
288.70701
 31
0.0
  0
LINE
  5
DBB1
  8
WAKU
  6
CONTINUOUS
 10
371.926464
 20
288.70701
 30
0.0
 11
371.431374
 21
288.369826
 31
0.0
  0
LINE
  5
DBB2
  8
WAKU
  6
CONTINUOUS
 10
371.431374
 20
288.369826
 30
0.0
 11
370.950599
 21
287.96948
 31
0.0
  0
LINE
  5
DBB3
  8
WAKU
  6
CONTINUOUS
 10
370.950599
 20
287.96948
 30
0.0
 11
370.501795
 21
287.520677
 31
0.0
  0
LINE
  5
DBB4
  8
WAKU
  6
CONTINUOUS
 10
370.501795
 20
287.520677
 30
0.0
 11
370.101449
 21
287.039901
 31
0.0
  0
LINE
  5
DBB5
  8
WAKU
  6
CONTINUOUS
 10
370.101449
 20
287.039901
 30
0.0
 11
369.764265
 21
286.544812
 31
0.0
  0
LINE
  5
DBB6
  8
WAKU
  6
CONTINUOUS
 10
369.764265
 20
286.544812
 30
0.0
 11
369.502627
 21
286.053593
 31
0.0
  0
LINE
  5
DBB7
  8
WAKU
  6
CONTINUOUS
 10
369.502627
 20
286.053593
 30
0.0
 11
369.326146
 21
285.584287
 31
0.0
  0
LINE
  5
DBB8
  8
WAKU
  6
CONTINUOUS
 10
369.326146
 20
285.584287
 30
0.0
 11
369.241303
 21
285.154132
 31
0.0
  0
LINE
  5
DBB9
  8
WAKU
  6
CONTINUOUS
 10
369.241303
 20
285.154132
 30
0.0
 11
369.251215
 21
284.778928
 31
0.0
  0
LINE
  5
DBBA
  8
WAKU
  6
CONTINUOUS
 10
369.251215
 20
284.778928
 30
0.0
 11
369.355518
 21
284.472454
 31
0.0
  0
LINE
  5
DBBB
  8
WAKU
  6
CONTINUOUS
 10
369.355518
 20
284.472454
 30
0.0
 11
369.550381
 21
284.245969
 31
0.0
  0
LINE
  5
DBBC
  8
WAKU
  6
CONTINUOUS
 10
369.550381
 20
284.245969
 30
0.0
 11
369.828646
 21
284.107791
 31
0.0
  0
INSERT
  5
DBBD
  8
WAKU
  6
CONTINUOUS
  2
*U0
 10
0.0
 20
0.0
 30
0.0
  0
TEXT
  5
10375
  8
WAKU
 10
10.0
 20
285.5
 30
0.0
 40
3.0
  1
FNS-70AT
 41
0.868
 11
10.0
 21
287.0
 31
0.0
 73
     2
  0
TEXT
  5
16DA1
  8
WAKU
 10
35.0
 20
284.5
 30
0.0
 40
5.0
  1
外動片引き断面詳細図(Bﾀｲプ)　防火戸　非防火戸
 11
35.0
 21
287.0
 31
0.0
 73
     2
  0
LINE
  5
16F55
  8
SUNPO
  6
CONTINUOUS
 10
395.0
 20
87.5
 30
0.0
 11
395.0
 21
40.0
 31
0.0
  0
LINE
  5
17A46
  8
DANMEN
  6
CONTINUOUS
 10
185.500002
 20
89.0
 30
0.0
 11
209.500002
 21
89.0
 31
0.0
  0
LINE
  5
17A47
  8
DANMEN
  6
CONTINUOUS
 10
185.500002
 20
159.0
 30
0.0
 11
209.500002
 21
159.0
 31
0.0
  0
LINE
  5
17A48
  8
DANMEN
  6
CONTINUOUS
 10
197.000002
 20
90.649994
 30
0.0
 11
209.500002
 21
90.649994
 31
0.0
  0
LINE
  5
17A49
  8
DANMEN
  6
CONTINUOUS
 10
197.000002
 20
157.350006
 30
0.0
 11
209.500002
 21
157.350006
 31
0.0
  0
LINE
  5
17A4A
  8
DANMEN
  6
CONTINUOUS
 10
208.145458
 20
150.050003
 30
0.0
 11
211.000002
 21
150.050003
 31
0.0
  0
LINE
  5
17A4B
  8
DANMEN
  6
CONTINUOUS
 10
208.037293
 20
152.0
 30
0.0
 11
212.461092
 21
152.0
 31
0.0
  0
LINE
  5
17A4C
  8
DANMEN
  6
CONTINUOUS
 10
208.145458
 20
129.949997
 30
0.0
 11
211.000002
 21
129.949997
 31
0.0
  0
LINE
  5
17A4D
  8
DANMEN
  6
CONTINUOUS
 10
208.037293
 20
128.0
 30
0.0
 11
212.461092
 21
128.0
 31
0.0
  0
LINE
  5
17A4E
  8
DANMEN
  6
CONTINUOUS
 10
208.0
 20
125.0
 30
0.0
 11
252.500001
 21
125.0
 31
0.0
  0
LINE
  5
17A4F
  8
DANMEN
  6
CONTINUOUS
 10
195.0
 20
141.5
 30
0.0
 11
211.0
 21
141.5
 31
0.0
  0
LINE
  5
17A50
  8
DANMEN
  6
CONTINUOUS
 10
195.0
 20
152.0
 30
0.0
 11
252.500001
 21
152.0
 31
0.0
  0
LINE
  5
17A51
  8
DANMEN
  6
CONTINUOUS
 10
195.0
 20
100.0
 30
0.0
 11
252.500001
 21
100.0
 31
0.0
  0
LINE
  5
17A52
  8
DANMEN
  6
CONTINUOUS
 10
203.150005
 20
123.8
 30
0.0
 11
202.350006
 21
123.0
 31
0.0
  0
LINE
  5
17A53
  8
DANMEN
  6
CONTINUOUS
 10
204.850005
 20
123.8
 30
0.0
 11
205.650005
 21
123.0
 31
0.0
  0
LINE
  5
17A54
  8
DANMEN
  6
CONTINUOUS
 10
201.150005
 20
123.8
 30
0.0
 11
201.150005
 21
123.2
 31
0.0
  0
LINE
  5
17A55
  8
DANMEN
  6
CONTINUOUS
 10
206.850006
 20
123.8
 30
0.0
 11
206.850006
 21
123.2
 31
0.0
  0
ARC
  5
17A56
  8
DANMEN
  6
CONTINUOUS
 10
65.649998
 20
124.0
 30
0.0
 40
1.0
 50
270.000018
 51
0.0
  0
LINE
  5
17A57
  8
DANMEN
  6
CONTINUOUS
 10
75.850001
 20
128.050003
 30
0.0
 11
75.850001
 21
97.0
 31
0.0
  0
LINE
  5
17A58
  8
DANMEN
  6
CONTINUOUS
 10
77.799998
 20
140.5
 30
0.0
 11
77.799998
 21
88.0
 31
0.0
  0
LINE
  5
17A59
  8
DANMEN
  6
CONTINUOUS
 10
58.199998
 20
140.5
 30
0.0
 11
58.199998
 21
59.5
 31
0.0
  0
LINE
  5
17A5A
  8
DANMEN
  6
CONTINUOUS
 10
115.017555
 20
124.997915
 30
0.0
 11
115.0
 21
94.5
 31
0.0
  0
LINE
  5
17A5B
  8
DANMEN
  6
CONTINUOUS
 10
116.517555
 20
125.354639
 30
0.0
 11
116.004224
 21
95.029237
 31
0.0
  0
LINE
  5
17A5C
  8
DANMEN
  6
CONTINUOUS
 10
115.31756
 20
125.00832
 30
0.0
 11
115.30001
 21
94.520979
 31
0.0
  0
LINE
  5
17A5D
  8
DANMEN
  6
CONTINUOUS
 10
200.800002
 20
124.199997
 30
0.0
 11
200.800002
 21
122.6
 31
0.0
  0
LINE
  5
17A5E
  8
DANMEN
  6
CONTINUOUS
 10
193.350008
 20
157.350006
 30
0.0
 11
193.350008
 21
90.649994
 31
0.0
  0
LINE
  5
17A5F
  8
DANMEN
  6
CONTINUOUS
 10
208.000002
 20
124.5
 30
0.0
 11
208.000002
 21
122.0
 31
0.0
  0
LINE
  5
17A60
  8
DANMEN
  6
CONTINUOUS
 10
200.000002
 20
124.5
 30
0.0
 11
200.000002
 21
122.6
 31
0.0
  0
LINE
  5
17A61
  8
DANMEN
  6
CONTINUOUS
 10
207.0
 20
124.199997
 30
0.0
 11
207.0
 21
122.6
 31
0.0
  0
LINE
  5
17A62
  8
DANMEN
  6
CONTINUOUS
 10
195.000002
 20
137.5
 30
0.0
 11
195.000002
 21
122.6
 31
0.0
  0
LINE
  5
17A63
  8
DANMEN
  6
CONTINUOUS
 10
49.0
 20
164.0
 30
0.0
 11
49.0
 21
42.765549
 31
0.0
  0
LINE
  5
17A64
  8
DANMEN
  6
CONTINUOUS
 10
80.0
 20
164.0
 30
0.0
 11
80.0
 21
87.5
 31
0.0
  0
LINE
  5
17A65
  8
DANMEN
  6
CONTINUOUS
 10
56.0
 20
164.0
 30
0.0
 11
56.0
 21
59.0
 31
0.0
  0
LINE
  5
17A66
  8
DANMEN
  6
CONTINUOUS
 10
50.649994
 20
164.0
 30
0.0
 11
50.649994
 21
41.0
 31
0.0
  0
LINE
  5
17A67
  8
DANMEN
  6
CONTINUOUS
 10
82.5
 20
164.0
 30
0.0
 11
82.5
 21
99.0
 31
0.0
  0
LINE
  5
17A68
  8
DANMEN
  6
DASHED
 10
85.5
 20
164.0
 30
0.0
 11
85.5
 21
99.0
 31
0.0
  0
LINE
  5
17A69
  8
DANMEN
  6
CONTINUOUS
 10
88.0
 20
164.0
 30
0.0
 11
88.0
 21
99.0
 31
0.0
  0
LINE
  5
17A6A
  8
DANMEN
  6
CONTINUOUS
 10
108.0
 20
164.0
 30
0.0
 11
108.0
 21
99.0
 31
0.0
  0
LINE
  5
17A6B
  8
DANMEN
  6
CONTINUOUS
 10
106.000015
 20
164.0
 30
0.0
 11
106.000015
 21
99.0
 31
0.0
  0
LINE
  5
17A6C
  8
DANMEN
  6
CONTINUOUS
 10
89.999985
 20
164.0
 30
0.0
 11
89.999985
 21
99.0
 31
0.0
  0
LINE
  5
17A6D
  8
DANMEN
  6
CONTINUOUS
 10
208.0
 20
121.5
 30
0.0
 11
208.0
 21
125.0
 31
0.0
  0
LINE
  5
17A6E
  8
DANMEN
  6
CONTINUOUS
 10
115.0
 20
164.0
 30
0.0
 11
115.0
 21
94.0
 31
0.0
  0
LINE
  5
17A6F
  8
DANMEN
  6
CONTINUOUS
 10
119.0
 20
125.59407
 30
0.0
 11
119.0
 21
99.0
 31
0.0
  0
LINE
  5
17A70
  8
DANMEN
  6
CONTINUOUS
 10
117.350006
 20
125.197827
 30
0.0
 11
117.350006
 21
99.0
 31
0.0
  0
LINE
  5
17A71
  8
DANMEN
  6
CONTINUOUS
 10
96.000021
 20
92.0
 30
0.0
 11
96.000021
 21
164.0
 31
0.0
  0
LINE
  5
17A72
  8
DANMEN
  6
CONTINUOUS
 10
100.000009
 20
92.0
 30
0.0
 11
100.000009
 21
164.0
 31
0.0
  0
LINE
  5
17A73
  8
DANMEN
  6
CONTINUOUS
 10
95.500021
 20
92.0
 30
0.0
 11
95.500021
 21
164.0
 31
0.0
  0
LINE
  5
17A74
  8
DANMEN
  6
CONTINUOUS
 10
100.500009
 20
92.0
 30
0.0
 11
100.500009
 21
164.0
 31
0.0
  0
LINE
  5
17A75
  8
DANMEN
  6
CONTINUOUS
 10
100.5
 20
65.003636
 30
0.0
 11
75.5
 21
54.0
 31
0.0
  0
LINE
  5
17A76
  8
DANMEN
  6
CONTINUOUS
 10
101.563803
 20
63.674726
 30
0.0
 11
76.054612
 21
52.43964
 31
0.0
  0
LINE
  5
17A78
  8
DANMEN
  6
CONTINUOUS
 10
78.049998
 20
76.000006
 30
0.0
 11
75.849995
 21
76.000005
 31
0.0
  0
LINE
  5
17A79
  8
DANMEN
  6
CONTINUOUS
 10
76.850001
 20
86.050003
 30
0.0
 11
78.049998
 21
86.050003
 31
0.0
  0
LINE
  5
17A7A
  8
DANMEN
  6
CONTINUOUS
 10
62.5
 20
39.0
 30
0.0
 11
119.0
 21
39.0
 31
0.0
  0
LINE
  5
17A7B
  8
DANMEN
  6
CONTINUOUS
 10
72.0
 20
59.0
 30
0.0
 11
80.0
 21
59.0
 31
0.0
  0
LINE
  5
17A7C
  8
DANMEN
  6
CONTINUOUS
 10
62.5
 20
39.649994
 30
0.0
 11
62.5
 21
30.5
 31
0.0
  0
LINE
  5
17A7D
  8
DANMEN
  6
CONTINUOUS
 10
61.0
 20
39.0
 30
0.0
 11
61.0
 21
30.5
 31
0.0
  0
ARC
  5
17A7E
  8
DANMEN
  6
CONTINUOUS
 10
61.5
 20
30.5
 30
0.0
 40
0.5
 50
180.000019
 51
270.000001
  0
ARC
  5
17A83
  8
DANMEN
  6
CONTINUOUS
 10
62.0
 20
30.5
 30
0.0
 40
0.5
 50
270.000018
 51
0.0
  0
LINE
  5
17A85
  8
DANMEN
  6
CONTINUOUS
 10
61.5
 20
30.0
 30
0.0
 11
62.0
 21
30.0
 31
0.0
  0
LINE
  5
17A86
  8
DANMEN
  6
CONTINUOUS
 10
72.199997
 20
84.000004
 30
0.0
 11
72.199997
 21
68.000004
 31
0.0
  0
LINE
  5
17A87
  8
DANMEN
  6
CONTINUOUS
 10
63.800003
 20
68.000004
 30
0.0
 11
63.800003
 21
84.000004
 31
0.0
  0
LINE
  5
17A88
  8
DANMEN
  6
CONTINUOUS
 10
72.0
 20
88.000008
 30
0.0
 11
72.0
 21
64.0
 31
0.0
  0
LINE
  5
17A89
  8
DANMEN
  6
CONTINUOUS
 10
64.0
 20
88.000008
 30
0.0
 11
64.0
 21
64.0
 31
0.0
  0
LINE
  5
17A8A
  8
DANMEN
  6
CONTINUOUS
 10
70.0
 20
64.0
 30
0.0
 11
70.0
 21
88.000008
 31
0.0
  0
LINE
  5
17A8B
  8
DANMEN
  6
CONTINUOUS
 10
66.0
 20
64.0
 30
0.0
 11
66.0
 21
88.000008
 31
0.0
  0
LINE
  5
17A8C
  8
DANMEN
  6
CONTINUOUS
 10
60.149998
 20
90.0
 30
0.0
 11
60.149998
 21
74.999998
 31
0.0
  0
ARC
  5
17A8D
  8
DANMEN
  6
CONTINUOUS
 10
62.00999
 20
52.0
 30
0.0
 40
2.0
 50
90.0
 51
118.610582
  0
LINE
  5
17A8E
  8
DANMEN
  6
CONTINUOUS
 10
61.920742
 20
52.35
 30
0.0
 11
57.649994
 21
50.020489
 31
0.0
  0
LINE
  5
17A8F
  8
DANMEN
  6
CONTINUOUS
 10
57.649994
 20
40.649994
 30
0.0
 11
61.5
 21
40.649994
 31
0.0
  0
LINE
  5
17A90
  8
DANMEN
  6
CONTINUOUS
 10
47.199997
 20
43.429842
 30
0.0
 11
49.823607
 21
42.118037
 31
0.0
  0
LINE
  5
17A91
  8
DANMEN
  6
CONTINUOUS
 10
46.276393
 20
42.661806
 30
0.0
 11
49.0
 21
41.300003
 31
0.0
  0
LINE
  5
17A92
  8
DANMEN
  6
CONTINUOUS
 10
57.649994
 20
50.020489
 30
0.0
 11
57.649994
 21
40.649994
 31
0.0
  0
LINE
  5
17A93
  8
DANMEN
  6
CONTINUOUS
 10
56.0
 20
50.406353
 30
0.0
 11
56.0
 21
41.0
 31
0.0
  0
LINE
  5
17A94
  8
DANMEN
  6
CONTINUOUS
 10
49.800003
 20
39.9
 30
0.0
 11
56.0
 21
39.9
 31
0.0
  0
LINE
  5
17A95
  8
DANMEN
  6
CONTINUOUS
 10
50.1
 20
41.0
 30
0.0
 11
56.0
 21
41.0
 31
0.0
  0
LINE
  5
17A96
  8
DANMEN
  6
CONTINUOUS
 10
49.570786
 20
39.0
 30
0.0
 11
56.33287
 21
39.0
 31
0.0
  0
ARC
  5
17A97
  8
DANMEN
  6
CONTINUOUS
 10
49.399994
 20
39.399994
 30
0.0
 40
0.4
 50
180.000019
 51
359.999983
  0
LINE
  5
17A9C
  8
DANMEN
  6
CONTINUOUS
 10
49.0
 20
41.300003
 30
0.0
 11
49.0
 21
39.399994
 31
0.0
  0
ARC
  5
17AA0
  8
DANMEN
  6
CONTINUOUS
 10
49.6
 20
41.670823
 30
0.0
 40
0.5
 50
0.0
 51
63.434949
  0
LINE
  5
17AA1
  8
DANMEN
  6
CONTINUOUS
 10
50.1
 20
41.670823
 30
0.0
 11
50.1
 21
41.0
 31
0.0
  0
LINE
  5
17AA3
  8
DANMEN
  6
CONTINUOUS
 10
49.800003
 20
39.9
 30
0.0
 11
49.800003
 21
39.399994
 31
0.0
  0
LINE
  5
17AA4
  8
DANMEN
  6
CONTINUOUS
 10
56.5
 20
39.0
 30
0.0
 11
61.0
 21
39.0
 31
0.0
  0
LINE
  5
17AA7
  8
DANMEN
  6
CONTINUOUS
 10
56.0
 20
39.9
 30
0.0
 11
56.0
 21
39.5
 31
0.0
  0
ARC
  5
17AA8
  8
DANMEN
  6
CONTINUOUS
 10
56.5
 20
39.5
 30
0.0
 40
0.5
 50
180.000019
 51
270.000001
  0
ARC
  5
17AAC
  8
DANMEN
  6
CONTINUOUS
 10
46.600006
 20
48.399994
 30
0.0
 40
0.6
 50
0.0
 51
180.000019
  0
LINE
  5
17AAD
  8
DANMEN
  6
CONTINUOUS
 10
47.199997
 20
48.399994
 30
0.0
 11
47.199997
 21
43.429842
 31
0.0
  0
LINE
  5
17AAE
  8
DANMEN
  6
CONTINUOUS
 10
46.0
 20
48.399994
 30
0.0
 11
46.0
 21
43.10902
 31
0.0
  0
ARC
  5
17AB0
  8
DANMEN
  6
CONTINUOUS
 10
46.5
 20
43.10902
 30
0.0
 40
0.5
 50
180.0
 51
243.434949
  0
LINE
  5
17AB4
  8
DANMEN
  6
CONTINUOUS
 10
61.052282
 20
53.755789
 30
0.0
 11
56.521146
 21
51.284248
 31
0.0
  0
ARC
  5
17AB5
  8
DANMEN
  6
CONTINUOUS
 10
57.0
 20
50.406353
 30
0.0
 40
1.0
 50
118.610582
 51
180.0
  0
ARC
  5
17AB8
  8
DANMEN
  6
CONTINUOUS
 10
61.5
 20
39.649994
 30
0.0
 40
1.0
 50
0.0
 51
89.999982
  0
LINE
  5
17ABA
  8
DANMEN
  6
CONTINUOUS
 10
69.2
 20
52.3
 30
0.0
 11
70.8
 21
52.3
 31
0.0
  0
LINE
  5
17ABB
  8
DANMEN
  6
CONTINUOUS
 10
61.920742
 20
52.35
 30
0.0
 11
65.7
 21
52.35
 31
0.0
  0
ARC
  5
17ABE
  8
DANMEN
  6
CONTINUOUS
 10
65.7
 20
51.35
 30
0.0
 40
1.0
 50
0.0
 51
90.0
  0
ARC
  5
17ABF
  8
DANMEN
  6
CONTINUOUS
 10
68.7
 20
49.969694
 30
0.0
 40
2.0
 50
180.0
 51
231.706523
  0
ARC
  5
17AC0
  8
DANMEN
  6
CONTINUOUS
 10
68.7
 20
48.963068
 30
0.0
 40
0.2
 50
0.0
 51
65.375682
  0
ARC
  5
17AC1
  8
DANMEN
  6
CONTINUOUS
 10
69.2
 20
50.053939
 30
0.0
 40
1.0
 50
180.0
 51
245.375682
  0
LINE
  5
17AC2
  8
DANMEN
  6
CONTINUOUS
 10
68.9
 20
48.7
 30
0.0
 11
68.9
 21
48.963068
 31
0.0
  0
ARC
  5
17AC3
  8
DANMEN
  6
CONTINUOUS
 10
69.2
 20
51.3
 30
0.0
 40
1.0
 50
90.0
 51
180.0
  0
LINE
  5
17AC4
  8
DANMEN
  6
CONTINUOUS
 10
66.7
 20
49.969694
 30
0.0
 11
66.7
 21
51.35
 31
0.0
  0
LINE
  5
17AC5
  8
DANMEN
  6
CONTINUOUS
 10
68.2
 20
50.053939
 30
0.0
 11
68.2
 21
51.3
 31
0.0
  0
LINE
  5
17AC6
  8
DANMEN
  6
CONTINUOUS
 10
67.460621
 20
48.4
 30
0.0
 11
68.6
 21
48.4
 31
0.0
  0
ARC
  5
17AC7
  8
DANMEN
  6
CONTINUOUS
 10
68.6
 20
48.7
 30
0.0
 40
0.3
 50
270.0
 51
0.0
  0
ARC
  5
17AC8
  8
DANMEN
  6
CONTINUOUS
 10
76.927452
 20
48.252808
 30
0.0
 40
0.5
 50
293.49856
 51
23.49856
  0
LINE
  5
17AC9
  8
DANMEN
  6
CONTINUOUS
 10
71.956524
 20
48.4
 30
0.0
 11
72.601274
 21
46.917076
 31
0.0
  0
ARC
  5
17ACA
  8
DANMEN
  6
CONTINUOUS
 10
73.518344
 20
47.315802
 30
0.0
 40
1.0
 50
203.49856
 51
293.49856
  0
LINE
  5
17ACF
  8
DANMEN
  6
CONTINUOUS
 10
77.126815
 20
47.794273
 30
0.0
 11
73.91707
 21
46.398732
 31
0.0
  0
LINE
  5
17AD0
  8
DANMEN
  6
CONTINUOUS
 10
73.3
 20
49.448185
 30
0.0
 11
73.855268
 21
48.171069
 31
0.0
  0
LINE
  5
17AD1
  8
DANMEN
  6
CONTINUOUS
 10
73.3
 20
52.350006
 30
0.0
 11
75.640809
 21
52.350006
 31
0.0
  0
LINE
  5
17AD5
  8
DANMEN
  6
CONTINUOUS
 10
71.1
 20
48.7
 30
0.0
 11
71.1
 21
48.963068
 31
0.0
  0
ARC
  5
17AD6
  8
DANMEN
  6
CONTINUOUS
 10
70.8
 20
50.053939
 30
0.0
 40
1.0
 50
294.624318
 51
0.0
  0
ARC
  5
17AD7
  8
DANMEN
  6
CONTINUOUS
 10
71.3
 20
48.963068
 30
0.0
 40
0.2
 50
114.624318
 51
180.0
  0
LINE
  5
17AD8
  8
DANMEN
  6
CONTINUOUS
 10
73.3
 20
49.448185
 30
0.0
 11
73.3
 21
52.350006
 31
0.0
  0
LINE
  5
17AD9
  8
DANMEN
  6
CONTINUOUS
 10
71.8
 20
50.053939
 30
0.0
 11
71.8
 21
51.3
 31
0.0
  0
ARC
  5
17ADA
  8
DANMEN
  6
CONTINUOUS
 10
70.8
 20
51.3
 30
0.0
 40
1.0
 50
0.0
 51
90.0
  0
LINE
  5
17ADB
  8
DANMEN
  6
CONTINUOUS
 10
71.4
 20
48.4
 30
0.0
 11
71.956524
 21
48.4
 31
0.0
  0
ARC
  5
17ADC
  8
DANMEN
  6
CONTINUOUS
 10
71.4
 20
48.7
 30
0.0
 40
0.3
 50
180.0
 51
270.0
  0
ARC
  5
17AE0
  8
DANMEN
  6
CONTINUOUS
 10
76.66828
 20
48.848903
 30
0.0
 40
0.5
 50
23.49856
 51
113.49856
  0
LINE
  5
17AE1
  8
DANMEN
  6
CONTINUOUS
 10
77.126816
 20
49.048266
 30
0.0
 11
77.385987
 21
48.452171
 31
0.0
  0
LINE
  5
17AE2
  8
DANMEN
  6
CONTINUOUS
 10
76.468917
 20
49.307438
 30
0.0
 11
73.855268
 21
48.171069
 31
0.0
  0
ARC
  5
17AE4
  8
DANMEN
  6
CONTINUOUS
 10
75.640809
 20
53.350006
 30
0.0
 40
1.0
 50
270.0
 51
294.443955
  0
LINE
  5
17AE5
  8
DANMEN
  6
CONTINUOUS
 10
75.849995
 20
75.000002
 30
0.0
 11
60.149998
 21
74.999998
 31
0.0
  0
LINE
  5
17AE6
  8
DANMEN
  6
CONTINUOUS
 10
63.149998
 20
73.999999
 30
0.0
 11
61.149998
 21
73.999998
 31
0.0
  0
LINE
  5
17AE7
  8
DANMEN
  6
CONTINUOUS
 10
59.649997
 20
59.0
 30
0.0
 11
64.0
 21
59.0
 31
0.0
  0
LINE
  5
17AE8
  8
DANMEN
  6
CONTINUOUS
 10
60.149998
 20
73.999998
 30
0.0
 11
60.149998
 21
59.5
 31
0.0
  0
LINE
  5
17AE9
  8
DANMEN
  6
CONTINUOUS
 10
56.0
 20
59.0
 30
0.0
 11
58.699999
 21
59.0
 31
0.0
  0
ARC
  5
17AEA
  8
DANMEN
  6
CONTINUOUS
 10
59.649998
 20
59.5
 30
0.0
 40
0.5
 50
270.000018
 51
359.999948
  0
ARC
  5
17AEC
  8
DANMEN
  6
CONTINUOUS
 10
58.699998
 20
59.5
 30
0.0
 40
0.5
 50
180.000036
 51
270.000018
  0
LINE
  5
17AEE
  8
DANMEN
  6
CONTINUOUS
 10
59.649997
 20
58.999997
 30
0.0
 11
58.699999
 21
58.999997
 31
0.0
  0
LINE
  5
17AF3
  8
DANMEN
  6
CONTINUOUS
 10
61.149998
 20
73.999998
 30
0.0
 11
60.649998
 21
74.499998
 31
0.0
  0
LINE
  5
17AF4
  8
DANMEN
  6
CONTINUOUS
 10
60.649998
 20
74.499998
 30
0.0
 11
60.149998
 21
73.999998
 31
0.0
  0
ARC
  5
17AF5
  8
DANMEN
  6
CONTINUOUS
 10
68.0
 20
63.0
 30
0.0
 40
3.0
 50
53.130102
 51
126.869903
  0
ARC
  5
17AF6
  8
DANMEN
  6
CONTINUOUS
 10
69.0
 20
65.29129
 30
0.0
 40
0.5
 50
0.000279
 51
66.42195
  0
ARC
  5
17AF7
  8
DANMEN
  6
CONTINUOUS
 10
67.0
 20
65.29129
 30
0.0
 40
0.5
 50
113.578068
 51
179.999745
  0
ARC
  5
17AF8
  8
DANMEN
  6
CONTINUOUS
 10
68.0
 20
65.0
 30
0.0
 40
4.0
 50
0.0
 51
180.000019
  0
LINE
  5
17AF9
  8
DANMEN
  6
CONTINUOUS
 10
69.5
 20
54.0
 30
0.0
 11
75.5
 21
54.0
 31
0.0
  0
LINE
  5
17AFA
  8
DANMEN
  6
CONTINUOUS
 10
67.850006
 20
61.847046
 30
0.0
 11
67.850006
 21
54.0
 31
0.0
  0
LINE
  5
17AFB
  8
DANMEN
  6
CONTINUOUS
 10
69.5
 20
65.29129
 30
0.0
 11
69.5
 21
54.0
 31
0.0
  0
LINE
  5
17AFC
  8
DANMEN
  6
CONTINUOUS
 10
64.0
 20
65.0
 30
0.0
 11
64.0
 21
59.0
 31
0.0
  0
LINE
  5
17AFD
  8
DANMEN
  6
CONTINUOUS
 10
62.00999
 20
54.0
 30
0.0
 11
67.850006
 21
54.0
 31
0.0
  0
LINE
  5
17B01
  8
DANMEN
  6
CONTINUOUS
 10
64.0
 20
64.0
 30
0.0
 11
66.0
 21
64.0
 31
0.0
  0
ARC
  5
17B02
  8
DANMEN
  6
CONTINUOUS
 10
66.5
 20
65.0
 30
0.0
 40
0.5
 50
126.869907
 51
180.000009
  0
ARC
  5
17B03
  8
DANMEN
  6
CONTINUOUS
 10
67.0
 20
64.152954
 30
0.0
 40
0.5
 50
180.000309
 51
214.019733
  0
ARC
  5
17B04
  8
DANMEN
  6
CONTINUOUS
 10
67.350006
 20
61.847046
 30
0.0
 40
0.5
 50
0.000664
 51
34.020021
  0
LINE
  5
17B05
  8
DANMEN
  6
CONTINUOUS
 10
67.764431
 20
62.126784
 30
0.0
 11
66.585579
 21
63.873223
 31
0.0
  0
LINE
  5
17B08
  8
DANMEN
  6
CONTINUOUS
 10
66.5
 20
65.29129
 30
0.0
 11
66.5
 21
64.152954
 31
0.0
  0
LINE
  5
17B09
  8
DANMEN
  6
CONTINUOUS
 10
72.0
 20
65.0
 30
0.0
 11
72.0
 21
59.0
 31
0.0
  0
ARC
  5
17B0B
  8
DANMEN
  6
CONTINUOUS
 10
69.5
 20
65.0
 30
0.0
 40
0.5
 50
359.999997
 51
53.130102
  0
LINE
  5
17B0C
  8
DANMEN
  6
CONTINUOUS
 10
72.0
 20
64.0
 30
0.0
 11
70.0
 21
64.0
 31
0.0
  0
LINE
  5
17B0D
  8
DANMEN
  6
CONTINUOUS
 10
72.850001
 20
73.050001
 30
0.0
 11
63.149998
 21
73.049999
 31
0.0
  0
LINE
  5
17B0E
  8
DANMEN
  6
CONTINUOUS
 10
63.799998
 20
68.000022
 30
0.0
 11
64.000002
 21
67.750017
 31
0.0
  0
ARC
  5
17B12
  8
DANMEN
  6
CONTINUOUS
 10
68.0
 20
63.0
 30
0.0
 40
3.0
 50
66.421841
 51
113.578178
  0
LINE
  5
17B14
  8
DANMEN
  6
CONTINUOUS
 10
63.149998
 20
74.0
 30
0.0
 11
63.149998
 21
73.050003
 31
0.0
  0
LINE
  5
17B18
  8
DANMEN
  6
CONTINUOUS
 10
72.199995
 20
68.000007
 30
0.0
 11
72.0
 21
67.750013
 31
0.0
  0
LINE
  5
17B1B
  8
DANMEN
  6
CONTINUOUS
 10
74.850001
 20
74.000002
 30
0.0
 11
72.850001
 21
74.000001
 31
0.0
  0
LINE
  5
17B1C
  8
DANMEN
  6
CONTINUOUS
 10
72.850001
 20
74.0
 30
0.0
 11
72.850001
 21
73.050003
 31
0.0
  0
LINE
  5
17B23
  8
DANMEN
  6
CONTINUOUS
 10
75.849995
 20
76.000005
 30
0.0
 11
75.849995
 21
75.000002
 31
0.0
  0
LINE
  5
17B28
  8
DANMEN
  6
CONTINUOUS
 10
75.350001
 20
74.500002
 30
0.0
 11
74.850001
 21
74.000002
 31
0.0
  0
LINE
  5
17B29
  8
DANMEN
  6
CONTINUOUS
 10
75.350001
 20
74.500002
 30
0.0
 11
75.850001
 21
74.000002
 31
0.0
  0
LINE
  5
17B2A
  8
DANMEN
  6
CONTINUOUS
 10
60.149998
 20
123.0
 30
0.0
 11
60.149998
 21
91.199997
 31
0.0
  0
LINE
  5
17B2B
  8
DANMEN
  6
CONTINUOUS
 10
60.149998
 20
91.199997
 30
0.0
 11
64.699998
 21
91.199997
 31
0.0
  0
LINE
  5
17B2C
  8
DANMEN
  6
CONTINUOUS
 10
60.149998
 20
90.0
 30
0.0
 11
66.199999
 21
90.0
 31
0.0
  0
LINE
  5
17B2F
  8
DANMEN
  6
CONTINUOUS
 10
75.850001
 20
90.0
 30
0.0
 11
75.850001
 21
87.050003
 31
0.0
  0
ARC
  5
17B30
  8
DANMEN
  6
CONTINUOUS
 10
68.0
 20
89.000008
 30
0.0
 40
3.0
 50
233.130097
 51
306.869898
  0
LINE
  5
17B31
  8
DANMEN
  6
CONTINUOUS
 10
64.0
 20
88.000008
 30
0.0
 11
66.0
 21
88.000008
 31
0.0
  0
LINE
  5
17B32
  8
DANMEN
  6
CONTINUOUS
 10
63.799998
 20
83.999986
 30
0.0
 11
64.000002
 21
84.24999
 31
0.0
  0
ARC
  5
17B33
  8
DANMEN
  6
CONTINUOUS
 10
66.5
 20
87.000008
 30
0.0
 40
0.5
 50
179.999991
 51
233.130093
  0
LINE
  5
17B34
  8
DANMEN
  6
CONTINUOUS
 10
72.199995
 20
84.000001
 30
0.0
 11
72.0
 21
84.249995
 31
0.0
  0
LINE
  5
17B35
  8
DANMEN
  6
CONTINUOUS
 10
72.0
 20
88.000008
 30
0.0
 11
70.0
 21
88.000008
 31
0.0
  0
ARC
  5
17B36
  8
DANMEN
  6
CONTINUOUS
 10
69.5
 20
87.000008
 30
0.0
 40
0.5
 50
306.869898
 51
0.000003
  0
ARC
  5
17B37
  8
DANMEN
  6
CONTINUOUS
 10
76.850001
 20
87.050003
 30
0.0
 40
1.0
 50
180.000019
 51
270.000001
  0
ARC
  5
17B39
  8
DANMEN
  6
CONTINUOUS
 10
68.699998
 20
94.3
 30
0.0
 40
1.0
 50
0.0
 51
90.0
  0
LINE
  5
17B3A
  8
DANMEN
  6
CONTINUOUS
 10
67.199998
 20
97.0
 30
0.0
 11
75.850001
 21
97.0
 31
0.0
  0
ARC
  5
17B3B
  8
DANMEN
  6
CONTINUOUS
 10
67.199998
 20
94.3
 30
0.0
 40
1.0
 50
90.0
 51
180.0
  0
LINE
  5
17B3C
  8
DANMEN
  6
CONTINUOUS
 10
64.699998
 20
94.5
 30
0.0
 11
64.699998
 21
91.199997
 31
0.0
  0
LINE
  5
17B40
  8
DANMEN
  6
CONTINUOUS
 10
66.199998
 20
92.8
 30
0.0
 11
66.199998
 21
94.3
 31
0.0
  0
LINE
  5
17B41
  8
DANMEN
  6
CONTINUOUS
 10
67.199998
 20
91.8
 30
0.0
 11
67.833703
 21
91.8
 31
0.0
  0
LINE
  5
17B42
  8
DANMEN
  6
CONTINUOUS
 10
66.199999
 20
90.3
 30
0.0
 11
67.833703
 21
90.3
 31
0.0
  0
ARC
  5
17B43
  8
DANMEN
  6
CONTINUOUS
 10
67.199998
 20
92.8
 30
0.0
 40
1.0
 50
180.0
 51
270.0
  0
ARC
  5
17B44
  8
DANMEN
  6
CONTINUOUS
 10
67.833703
 20
91.05
 30
0.0
 40
0.75
 50
270.0
 51
90.0
  0
LINE
  5
17B46
  8
DANMEN
  6
CONTINUOUS
 10
66.199999
 20
90.300003
 30
0.0
 11
66.199999
 21
90.0
 31
0.0
  0
ARC
  5
17B48
  8
DANMEN
  6
CONTINUOUS
 10
67.199998
 20
94.5
 30
0.0
 40
2.5
 50
89.999982
 51
180.000019
  0
LINE
  5
17B4A
  8
DANMEN
  6
CONTINUOUS
 10
67.199998
 20
95.3
 30
0.0
 11
68.699998
 21
95.3
 31
0.0
  0
ARC
  5
17B4B
  8
DANMEN
  6
CONTINUOUS
 10
72.199998
 20
94.050003
 30
0.0
 40
1.0
 50
90.0
 51
180.0
  0
LINE
  5
17B4C
  8
DANMEN
  6
CONTINUOUS
 10
75.850001
 20
95.050003
 30
0.0
 11
75.850001
 21
91.199997
 31
0.0
  0
ARC
  5
17B4D
  8
DANMEN
  6
CONTINUOUS
 10
73.799998
 20
90.699997
 30
0.0
 40
0.5
 50
89.999982
 51
180.000019
  0
LINE
  5
17B4E
  8
DANMEN
  6
CONTINUOUS
 10
73.299998
 20
90.0
 30
0.0
 11
75.850001
 21
90.0
 31
0.0
  0
LINE
  5
17B4F
  8
DANMEN
  6
CONTINUOUS
 10
69.699998
 20
93.666295
 30
0.0
 11
69.699998
 21
94.3
 31
0.0
  0
LINE
  5
17B50
  8
DANMEN
  6
CONTINUOUS
 10
71.199998
 20
93.666295
 30
0.0
 11
71.199998
 21
94.050003
 31
0.0
  0
ARC
  5
17B51
  8
DANMEN
  6
CONTINUOUS
 10
70.449998
 20
93.666295
 30
0.0
 40
0.75
 50
180.0
 51
0.0
  0
LINE
  5
17B54
  8
DANMEN
  6
CONTINUOUS
 10
73.299998
 20
90.699997
 30
0.0
 11
73.299998
 21
90.0
 31
0.0
  0
LINE
  5
17B57
  8
DANMEN
  6
CONTINUOUS
 10
73.799998
 20
91.199997
 30
0.0
 11
75.850001
 21
91.199997
 31
0.0
  0
LINE
  5
17B58
  8
DANMEN
  6
CONTINUOUS
 10
72.199997
 20
95.050003
 30
0.0
 11
75.850001
 21
95.050003
 31
0.0
  0
LINE
  5
17B5C
  8
DANMEN
  6
CONTINUOUS
 10
60.149998
 20
123.0
 30
0.0
 11
65.649998
 21
123.0
 31
0.0
  0
LINE
  5
17B5F
  8
DANMEN
  6
CONTINUOUS
 10
82.2
 20
81.4
 30
0.0
 11
82.2
 21
74.3
 31
0.0
  0
LINE
  5
17B60
  8
DANMEN
  6
CONTINUOUS
 10
84.2
 20
78.7
 30
0.0
 11
84.2
 21
77.0
 31
0.0
  0
LINE
  5
17B61
  8
DANMEN
  6
CONTINUOUS
 10
80.0187
 20
77.30985
 30
0.0
 11
81.146178
 21
73.815559
 31
0.0
  0
LINE
  5
17B62
  8
DANMEN
  6
CONTINUOUS
 10
80.6
 20
77.482873
 30
0.0
 11
81.582434
 21
74.3
 31
0.0
  0
LINE
  5
17B63
  8
DANMEN
  6
CONTINUOUS
 10
117.350006
 20
79.35
 30
0.0
 11
117.350006
 21
67.08182
 31
0.0
  0
LINE
  5
17B64
  8
DANMEN
  6
CONTINUOUS
 10
119.0
 20
98.5
 30
0.0
 11
119.0
 21
64.5
 31
0.0
  0
LINE
  5
17B65
  8
DANMEN
  6
CONTINUOUS
 10
93.5
 20
76.5
 30
0.0
 11
92.5
 21
77.2
 31
0.0
  0
LINE
  5
17B66
  8
DANMEN
  6
CONTINUOUS
 10
100.5
 20
77.2
 30
0.0
 11
99.5
 21
76.5
 31
0.0
  0
ARC
  5
17B67
  8
DANMEN
  6
CONTINUOUS
 10
89.0
 20
78.2
 30
0.0
 40
1.0
 50
180.0
 51
270.0
  0
ARC
  5
17B68
  8
DANMEN
  6
CONTINUOUS
 10
104.7
 20
76.3
 30
0.0
 40
1.0
 50
0.0
 51
90.0
  0
ARC
  5
17B69
  8
DANMEN
  6
CONTINUOUS
 10
103.2
 20
76.3
 30
0.0
 40
1.0
 50
90.0
 51
180.0
  0
LINE
  5
17B6A
  8
DANMEN
  6
CONTINUOUS
 10
107.2
 20
75.666295
 30
0.0
 11
107.2
 21
79.35
 31
0.0
  0
LINE
  5
17B6B
  8
DANMEN
  6
CONTINUOUS
 10
86.5
 20
80.2
 30
0.0
 11
86.5
 21
74.5
 31
0.0
  0
LINE
  5
17B6C
  8
DANMEN
  6
CONTINUOUS
 10
85.500003
 20
81.0
 30
0.0
 11
85.500003
 21
74.8
 31
0.0
  0
LINE
  5
17B6D
  8
DANMEN
  6
CONTINUOUS
 10
100.5
 20
77.2
 30
0.0
 11
100.5
 21
65.003636
 31
0.0
  0
LINE
  5
17B6E
  8
DANMEN
  6
CONTINUOUS
 10
78.049998
 20
86.050003
 30
0.0
 11
78.049998
 21
76.000006
 31
0.0
  0
LINE
  5
17B6F
  8
DANMEN
  6
CONTINUOUS
 10
79.999995
 20
87.5
 30
0.0
 11
79.999995
 21
74.500007
 31
0.0
  0
LINE
  5
17B70
  8
DANMEN
  6
CONTINUOUS
 10
93.5
 20
76.5
 30
0.0
 11
99.5
 21
76.5
 31
0.0
  0
LINE
  5
17B71
  8
DANMEN
  6
CONTINUOUS
 10
80.0
 20
74.500007
 30
0.0
 11
80.0
 21
59.0
 31
0.0
  0
LINE
  5
17B72
  8
DANMEN
  6
CONTINUOUS
 10
83.5
 20
74.0
 30
0.0
 11
86.000003
 21
74.0
 31
0.0
  0
LINE
  5
17B73
  8
DANMEN
  6
CONTINUOUS
 10
81.327478
 20
73.7
 30
0.0
 11
83.0
 21
73.7
 31
0.0
  0
LINE
  5
17B74
  8
DANMEN
  6
CONTINUOUS
 10
81.582434
 20
74.3
 30
0.0
 11
82.2
 21
74.3
 31
0.0
  0
ARC
  5
17B75
  8
DANMEN
  6
CONTINUOUS
 10
81.327478
 20
73.9
 30
0.0
 40
0.2
 50
204.97391
 51
270.0
  0
ARC
  5
17B79
  8
DANMEN
  6
CONTINUOUS
 10
79.499995
 20
74.500007
 30
0.0
 40
0.5
 50
270.0
 51
0.0
  0
LINE
  5
17B7B
  8
DANMEN
  6
CONTINUOUS
 10
84.2
 20
75.0
 30
0.0
 11
84.8
 21
75.0
 31
0.0
  0
LINE
  5
17B7C
  8
DANMEN
  6
CONTINUOUS
 10
83.0
 20
76.2
 30
0.0
 11
83.0
 21
73.7
 31
0.0
  0
ARC
  5
17B7E
  8
DANMEN
  6
CONTINUOUS
 10
84.8
 20
75.2
 30
0.0
 40
0.2
 50
270.000018
 51
0.0
  0
ARC
  5
17B80
  8
DANMEN
  6
CONTINUOUS
 10
84.2
 20
75.2
 30
0.0
 40
0.2
 50
180.000019
 51
270.000001
  0
LINE
  5
17B81
  8
DANMEN
  6
CONTINUOUS
 10
85.0
 20
76.2
 30
0.0
 11
85.0
 21
75.2
 31
0.0
  0
LINE
  5
17B83
  8
DANMEN
  6
CONTINUOUS
 10
84.2
 20
77.0
 30
0.0
 11
85.0
 21
76.2
 31
0.0
  0
LINE
  5
17B84
  8
DANMEN
  6
CONTINUOUS
 10
84.0
 20
76.2
 30
0.0
 11
84.0
 21
75.2
 31
0.0
  0
LINE
  5
17B85
  8
DANMEN
  6
CONTINUOUS
 10
83.0
 20
76.2
 30
0.0
 11
84.0
 21
76.2
 31
0.0
  0
LINE
  5
17B90
  8
DANMEN
  6
CONTINUOUS
 10
83.800003
 20
74.8
 30
0.0
 11
85.5
 21
74.8
 31
0.0
  0
LINE
  5
17B91
  8
DANMEN
  6
CONTINUOUS
 10
83.5
 20
76.199997
 30
0.0
 11
83.800003
 21
76.199997
 31
0.0
  0
ARC
  5
17B92
  8
DANMEN
  6
CONTINUOUS
 10
83.5
 20
75.699997
 30
0.0
 40
0.5
 50
89.999982
 51
180.000019
  0
ARC
  5
17B93
  8
DANMEN
  6
CONTINUOUS
 10
83.5
 20
74.5
 30
0.0
 40
0.5
 50
180.000019
 51
270.000001
  0
LINE
  5
17B94
  8
DANMEN
  6
CONTINUOUS
 10
83.800003
 20
76.199997
 30
0.0
 11
83.800003
 21
74.8
 31
0.0
  0
LINE
  5
17B95
  8
DANMEN
  6
CONTINUOUS
 10
83.0
 20
75.699997
 30
0.0
 11
83.0
 21
74.5
 31
0.0
  0
ARC
  5
17B97
  8
DANMEN
  6
CONTINUOUS
 10
86.0
 20
74.5
 30
0.0
 40
0.5
 50
270.000018
 51
0.0
  0
LINE
  5
17B99
  8
DANMEN
  6
CONTINUOUS
 10
102.15
 20
71.3
 30
0.0
 11
102.15
 21
64.585093
 31
0.0
  0
ARC
  5
17B9B
  8
DANMEN
  6
CONTINUOUS
 10
101.15
 20
64.585093
 30
0.0
 40
1.0
 50
294.443955
 51
0.0
  0
ARC
  5
17B9D
  8
DANMEN
  6
CONTINUOUS
 10
103.15
 20
71.3
 30
0.0
 40
1.0
 50
90.0
 51
180.0
  0
ARC
  5
17B9E
  8
DANMEN
  6
CONTINUOUS
 10
103.2
 20
74.8
 30
0.0
 40
1.0
 50
180.0
 51
270.0
  0
LINE
  5
17BA1
  8
DANMEN
  6
CONTINUOUS
 10
102.2
 20
74.8
 30
0.0
 11
102.2
 21
76.3
 31
0.0
  0
ARC
  5
17BA2
  8
DANMEN
  6
CONTINUOUS
 10
106.45
 20
75.666295
 30
0.0
 40
0.75
 50
180.0
 51
0.0
  0
ARC
  5
17BA4
  8
DANMEN
  6
CONTINUOUS
 10
103.833705
 20
73.05
 30
0.0
 40
0.75
 50
270.0
 51
90.0
  0
LINE
  5
17BA5
  8
DANMEN
  6
CONTINUOUS
 10
103.15
 20
72.3
 30
0.0
 11
103.833705
 21
72.3
 31
0.0
  0
LINE
  5
17BA6
  8
DANMEN
  6
CONTINUOUS
 10
103.2
 20
73.8
 30
0.0
 11
103.833705
 21
73.8
 31
0.0
  0
LINE
  5
17BA7
  8
DANMEN
  6
CONTINUOUS
 10
105.7
 20
75.666295
 30
0.0
 11
105.7
 21
76.3
 31
0.0
  0
LINE
  5
17BA8
  8
DANMEN
  6
CONTINUOUS
 10
119.0
 20
64.345612
 30
0.0
 11
119.0
 21
39.0
 31
0.0
  0
ARC
  5
17BA9
  8
DANMEN
  6
CONTINUOUS
 10
114.41465
 20
65.260364
 30
0.0
 40
0.5
 50
113.49856
 51
203.49856
  0
ARC
  5
17BAA
  8
DANMEN
  6
CONTINUOUS
 10
118.5
 20
64.5
 30
0.0
 40
0.5
 50
270.0
 51
0.0
  0
ARC
  5
17BAB
  8
DANMEN
  6
CONTINUOUS
 10
114.673822
 20
64.664268
 30
0.0
 40
0.5
 50
203.49856
 51
293.49856
  0
LINE
  5
17BAD
  8
DANMEN
  6
CONTINUOUS
 10
114.215287
 20
64.464905
 30
0.0
 11
113.956115
 21
65.061001
 31
0.0
  0
ARC
  5
17BAE
  8
DANMEN
  6
CONTINUOUS
 10
117.4
 20
64.759133
 30
0.0
 40
0.5
 50
0.0
 51
113.49856
  0
LINE
  5
17BAF
  8
DANMEN
  6
CONTINUOUS
 10
117.200637
 20
65.217668
 30
0.0
 11
114.873185
 21
64.205733
 31
0.0
  0
LINE
  5
17BB1
  8
DANMEN
  6
CONTINUOUS
 10
117.9
 20
64.759133
 30
0.0
 11
117.9
 21
64.0
 31
0.0
  0
LINE
  5
17BB2
  8
DANMEN
  6
CONTINUOUS
 10
117.9
 20
64.0
 30
0.0
 11
118.5
 21
64.0
 31
0.0
  0
LINE
  5
17BB4
  8
DANMEN
  6
CONTINUOUS
 10
117.350006
 20
67.08182
 30
0.0
 11
114.215287
 21
65.718899
 31
0.0
  0
LINE
  5
17BBB
  8
DANMEN
  6
CONTINUOUS
 10
108.0
 20
94.0
 30
0.0
 11
117.35
 21
94.0
 31
0.0
  0
LINE
  5
17BBC
  8
DANMEN
  6
CONTINUOUS
 10
106.0
 20
92.2
 30
0.0
 11
117.35
 21
92.2
 31
0.0
  0
LINE
  5
17BBD
  8
DANMEN
  6
CONTINUOUS
 10
107.2
 20
79.35
 30
0.0
 11
117.350006
 21
79.35
 31
0.0
  0
LINE
  5
17BBE
  8
DANMEN
  6
CONTINUOUS
 10
106.05
 20
81.0
 30
0.0
 11
117.35
 21
81.0
 31
0.0
  0
ARC
  5
17BBF
  8
DANMEN
  6
CONTINUOUS
 10
91.500015
 20
99.999908
 30
0.0
 40
1.5
 50
90.000018
 51
180.0
  0
ARC
  5
17BC0
  8
DANMEN
  6
CONTINUOUS
 10
104.500015
 20
99.999908
 30
0.0
 40
1.5
 50
359.999964
 51
90.000001
  0
ARC
  5
17BC1
  8
DANMEN
  6
DASHED
 10
108.0
 20
99.699997
 30
0.0
 40
0.5
 50
0.0
 51
89.999982
  0
ARC
  5
17BC2
  8
DANMEN
  6
DASHED
 10
83.5
 20
99.699997
 30
0.0
 40
0.5
 50
90.0
 51
180.0
  0
LINE
  5
17BC3
  8
DANMEN
  6
DASHED
 10
104.0
 20
99.0
 30
0.0
 11
92.0
 21
99.0
 31
0.0
  0
LINE
  5
17BC4
  8
DANMEN
  6
DASHED
 10
108.0
 20
100.199997
 30
0.0
 11
83.5
 21
100.199997
 31
0.0
  0
LINE
  5
17BC5
  8
DANMEN
  6
CONTINUOUS
 10
89.8
 20
79.0
 30
0.0
 11
105.55
 21
79.0
 31
0.0
  0
LINE
  5
17BC6
  8
DANMEN
  6
CONTINUOUS
 10
93.0
 20
92.0
 30
0.0
 11
103.0
 21
92.0
 31
0.0
  0
LINE
  5
17BC7
  8
DANMEN
  6
CONTINUOUS
 10
103.0
 20
92.0
 30
0.0
 11
93.0
 21
79.0
 31
0.0
  0
LINE
  5
17BC8
  8
DANMEN
  6
CONTINUOUS
 10
89.8
 20
96.0
 30
0.0
 11
89.8
 21
79.0
 31
0.0
  0
LINE
  5
17BC9
  8
DANMEN
  6
CONTINUOUS
 10
88.0
 20
98.5
 30
0.0
 11
88.0
 21
82.0
 31
0.0
  0
LINE
  5
17BCA
  8
DANMEN
  6
CONTINUOUS
 10
88.0
 20
99.0
 30
0.0
 11
88.0
 21
82.0
 31
0.0
  0
LINE
  5
17BCB
  8
DANMEN
  6
CONTINUOUS
 10
93.0
 20
79.0
 30
0.0
 11
93.0
 21
92.0
 31
0.0
  0
LINE
  5
17BCC
  8
DANMEN
  6
CONTINUOUS
 10
88.0
 20
99.0
 30
0.0
 11
79.999995
 21
82.0
 31
0.0
  0
LINE
  5
17BCD
  8
DANMEN
  6
CONTINUOUS
 10
80.0
 20
99.0
 30
0.0
 11
88.0
 21
82.0
 31
0.0
  0
LINE
  5
17BCE
  8
DANMEN
  6
CONTINUOUS
 10
83.5
 20
82.0
 30
0.0
 11
88.0
 21
82.0
 31
0.0
  0
LINE
  5
17BCF
  8
DANMEN
  6
CONTINUOUS
 10
80.0
 20
82.0
 30
0.0
 11
88.0
 21
82.0
 31
0.0
  0
LINE
  5
17BD0
  8
DANMEN
  6
CONTINUOUS
 10
81.327478
 20
82.0
 30
0.0
 11
83.0
 21
82.0
 31
0.0
  0
LINE
  5
17BD1
  8
DANMEN
  6
CONTINUOUS
 10
81.582434
 20
81.4
 30
0.0
 11
82.2
 21
81.4
 31
0.0
  0
LINE
  5
17BD3
  8
DANMEN
  6
CONTINUOUS
 10
80.0
 20
78.305709
 30
0.0
 11
80.0
 21
77.394291
 31
0.0
  0
LINE
  5
17BD4
  8
DANMEN
  6
CONTINUOUS
 10
81.146178
 20
81.884441
 30
0.0
 11
80.0187
 21
78.39015
 31
0.0
  0
ARC
  5
17BD5
  8
DANMEN
  6
CONTINUOUS
 10
81.327478
 20
81.8
 30
0.0
 40
0.2
 50
90.0
 51
155.02609
  0
ARC
  5
17BD7
  8
DANMEN
  6
CONTINUOUS
 10
80.2
 20
78.305709
 30
0.0
 40
0.2
 50
155.02609
 51
180.0
  0
ARC
  5
17BD9
  8
DANMEN
  6
CONTINUOUS
 10
80.2
 20
77.394291
 30
0.0
 40
0.2
 50
180.0
 51
204.97391
  0
LINE
  5
17BDB
  8
DANMEN
  6
CONTINUOUS
 10
81.582434
 20
81.4
 30
0.0
 11
80.6
 21
78.217126
 31
0.0
  0
LINE
  5
17BDC
  8
DANMEN
  6
CONTINUOUS
 10
80.6
 20
78.217126
 30
0.0
 11
80.6
 21
77.482873
 31
0.0
  0
LINE
  5
17BE1
  8
DANMEN
  6
CONTINUOUS
 10
85.0
 20
80.5
 30
0.0
 11
85.0
 21
79.5
 31
0.0
  0
LINE
  5
17BE2
  8
DANMEN
  6
CONTINUOUS
 10
84.2
 20
80.7
 30
0.0
 11
84.8
 21
80.7
 31
0.0
  0
LINE
  5
17BE3
  8
DANMEN
  6
CONTINUOUS
 10
84.0
 20
80.5
 30
0.0
 11
84.0
 21
79.5
 31
0.0
  0
ARC
  5
17BE5
  8
DANMEN
  6
CONTINUOUS
 10
84.8
 20
80.5
 30
0.0
 40
0.2
 50
0.0
 51
89.999982
  0
ARC
  5
17BE7
  8
DANMEN
  6
CONTINUOUS
 10
84.2
 20
80.5
 30
0.0
 40
0.2
 50
89.999982
 51
180.000019
  0
LINE
  5
17BEA
  8
DANMEN
  6
CONTINUOUS
 10
85.0
 20
79.5
 30
0.0
 11
84.2
 21
78.7
 31
0.0
  0
LINE
  5
17BEB
  8
DANMEN
  6
CONTINUOUS
 10
83.0
 20
79.5
 30
0.0
 11
84.0
 21
79.5
 31
0.0
  0
LINE
  5
17BED
  8
DANMEN
  6
CONTINUOUS
 10
83.0
 20
82.0
 30
0.0
 11
83.0
 21
79.5
 31
0.0
  0
ARC
  5
17BFA
  8
DANMEN
  6
CONTINUOUS
 10
83.5
 20
81.5
 30
0.0
 40
0.5
 50
89.999982
 51
180.000019
  0
LINE
  5
17BFB
  8
DANMEN
  6
CONTINUOUS
 10
83.800003
 20
81.0
 30
0.0
 11
85.5
 21
81.0
 31
0.0
  0
ARC
  5
17BFC
  8
DANMEN
  6
CONTINUOUS
 10
83.5
 20
80.300003
 30
0.0
 40
0.5
 50
180.000019
 51
270.000001
  0
LINE
  5
17BFD
  8
DANMEN
  6
CONTINUOUS
 10
83.800003
 20
81.0
 30
0.0
 11
83.800003
 21
79.800003
 31
0.0
  0
LINE
  5
17BFE
  8
DANMEN
  6
CONTINUOUS
 10
83.5
 20
79.800003
 30
0.0
 11
83.800003
 21
79.800003
 31
0.0
  0
LINE
  5
17BFF
  8
DANMEN
  6
CONTINUOUS
 10
83.0
 20
81.5
 30
0.0
 11
83.0
 21
80.300003
 31
0.0
  0
ARC
  5
17C00
  8
DANMEN
  6
CONTINUOUS
 10
79.499995
 20
87.5
 30
0.0
 40
0.5
 50
0.0
 51
89.999982
  0
LINE
  5
17C04
  8
DANMEN
  6
CONTINUOUS
 10
77.799998
 20
88.0
 30
0.0
 11
79.499995
 21
88.0
 31
0.0
  0
LINE
  5
17C06
  8
DANMEN
  6
CONTINUOUS
 10
89.0
 20
77.2
 30
0.0
 11
92.5
 21
77.2
 31
0.0
  0
LINE
  5
17C0A
  8
DANMEN
  6
CONTINUOUS
 10
86.5
 20
80.2
 30
0.0
 11
88.0
 21
80.2
 31
0.0
  0
LINE
  5
17C0D
  8
DANMEN
  6
CONTINUOUS
 10
88.0
 20
78.2
 30
0.0
 11
88.0
 21
80.2
 31
0.0
  0
LINE
  5
17C11
  8
DANMEN
  6
DASHED
 10
90.5
 20
99.0
 30
0.0
 11
84.714146
 21
99.0
 31
0.0
  0
LINE
  5
17C12
  8
DANMEN
  6
CONTINUOUS
 10
80.0
 20
99.0
 30
0.0
 11
88.0
 21
99.0
 31
0.0
  0
ARC
  5
17C13
  8
DANMEN
  6
DASHED
 10
84.714146
 20
98.0
 30
0.0
 40
1.0
 50
89.999982
 51
135.573244
  0
LINE
  5
17C14
  8
DANMEN
  6
DASHED
 10
84.0
 20
98.699997
 30
0.0
 11
83.5
 21
98.699997
 31
0.0
  0
LINE
  5
17C15
  8
DANMEN
  6
DASHED
 10
83.0
 20
99.699997
 30
0.0
 11
83.0
 21
99.199997
 31
0.0
  0
ARC
  5
17C16
  8
DANMEN
  6
DASHED
 10
83.5
 20
99.199997
 30
0.0
 40
0.5
 50
180.0
 51
270.0
  0
LINE
  5
17C1B
  8
DANMEN
  6
DASHED
 10
90.023824
 20
95.382864
 30
0.0
 11
91.423825
 21
92.082833
 31
0.0
  0
LINE
  5
17C1C
  8
DANMEN
  6
DASHED
 10
91.5
 20
94.399997
 30
0.0
 11
91.5
 21
98.5
 31
0.0
  0
LINE
  5
17C1D
  8
DANMEN
  6
DASHED
 10
91.5
 20
94.399997
 30
0.0
 11
91.992312
 21
92.26748
 31
0.0
  0
ARC
  5
17C1E
  8
DANMEN
  6
DASHED
 10
91.7
 20
92.199997
 30
0.0
 40
0.3
 50
202.988532
 51
12.999521
  0
ARC
  5
17C22
  8
DANMEN
  6
DASHED
 10
90.299999
 20
95.500028
 30
0.0
 40
0.3
 50
124.343976
 51
202.988532
  0
LINE
  5
17C23
  8
DANMEN
  6
CONTINUOUS
 10
89.8
 20
96.0
 30
0.0
 11
90.5
 21
96.0
 31
0.0
  0
ARC
  5
17C24
  8
DANMEN
  6
CONTINUOUS
 10
90.0
 20
98.5
 30
0.0
 40
0.5
 50
0.0
 51
90.0
  0
ARC
  5
17C28
  8
DANMEN
  6
CONTINUOUS
 10
88.5
 20
98.5
 30
0.0
 40
0.5
 50
90.0
 51
180.0
  0
LINE
  5
17C29
  8
DANMEN
  6
CONTINUOUS
 10
88.5
 20
99.0
 30
0.0
 11
90.0
 21
99.0
 31
0.0
  0
ARC
  5
17C2B
  8
DANMEN
  6
DASHED
 10
92.0
 20
98.5
 30
0.0
 40
0.5
 50
90.0
 51
180.0
  0
LINE
  5
17C2C
  8
DANMEN
  6
DASHED
 10
90.5
 20
99.0
 30
0.0
 11
90.5
 21
96.000035
 31
0.0
  0
LINE
  5
17C2D
  8
DANMEN
  6
DASHED
 10
90.5
 20
96.000035
 30
0.0
 11
90.130743
 21
95.747729
 31
0.0
  0
LINE
  5
17C33
  8
DANMEN
  6
CONTINUOUS
 10
90.5
 20
98.5
 30
0.0
 11
90.5
 21
96.0
 31
0.0
  0
ARC
  5
17C34
  8
DANMEN
  6
DASHED
 10
104.3
 20
88.699997
 30
0.0
 40
0.3
 50
167.000479
 51
337.011468
  0
LINE
  5
17C35
  8
DANMEN
  6
DASHED
 10
105.976176
 20
91.882864
 30
0.0
 11
104.576175
 21
88.582833
 31
0.0
  0
LINE
  5
17C36
  8
DANMEN
  6
CONTINUOUS
 10
103.0
 20
79.0
 30
0.0
 11
103.0
 21
92.0
 31
0.0
  0
ARC
  5
17C3B
  8
DANMEN
  6
CONTINUOUS
 10
106.05
 20
80.5
 30
0.0
 40
0.5
 50
90.0
 51
180.0
  0
LINE
  5
17C3C
  8
DANMEN
  6
CONTINUOUS
 10
105.55
 20
79.0
 30
0.0
 11
105.55
 21
80.5
 31
0.0
  0
LINE
  5
17C3D
  8
DANMEN
  6
CONTINUOUS
 10
103.2
 20
77.3
 30
0.0
 11
104.7
 21
77.3
 31
0.0
  0
LINE
  5
17C42
  8
DANMEN
  6
DASHED
 10
105.5
 20
99.0
 30
0.0
 11
105.5
 21
92.500035
 31
0.0
  0
LINE
  5
17C43
  8
DANMEN
  6
DASHED
 10
104.5
 20
90.899997
 30
0.0
 11
104.5
 21
98.5
 31
0.0
  0
LINE
  5
17C44
  8
DANMEN
  6
CONTINUOUS
 10
106.35
 20
93.2
 30
0.0
 11
106.35
 21
96.0
 31
0.0
  0
LINE
  5
17C45
  8
DANMEN
  6
CONTINUOUS
 10
108.0
 20
98.0
 30
0.0
 11
108.0
 21
94.0
 31
0.0
  0
ARC
  5
17C47
  8
DANMEN
  6
DASHED
 10
105.700001
 20
92.000028
 30
0.0
 40
0.3
 50
337.011468
 51
55.656024
  0
LINE
  5
17C48
  8
DANMEN
  6
DASHED
 10
105.5
 20
92.500035
 30
0.0
 11
105.869257
 21
92.247729
 31
0.0
  0
LINE
  5
17C49
  8
DANMEN
  6
DASHED
 10
104.5
 20
90.899997
 30
0.0
 11
104.007688
 21
88.76748
 31
0.0
  0
ARC
  5
17C50
  8
DANMEN
  6
CONTINUOUS
 10
106.0
 20
92.7
 30
0.0
 40
0.5
 50
90.0
 51
270.0
  0
LINE
  5
17C51
  8
DANMEN
  6
CONTINUOUS
 10
106.0
 20
93.2
 30
0.0
 11
106.35
 21
93.2
 31
0.0
  0
LINE
  5
17C53
  8
DANMEN
  6
DASHED
 10
105.5
 20
99.0
 30
0.0
 11
108.5
 21
99.0
 31
0.0
  0
LINE
  5
17C54
  8
DANMEN
  6
CONTINUOUS
 10
106.0
 20
99.0
 30
0.0
 11
109.0
 21
99.0
 31
0.0
  0
ARC
  5
17C55
  8
DANMEN
  6
DASHED
 10
104.0
 20
98.5
 30
0.0
 40
0.5
 50
0.0
 51
90.0
  0
ARC
  5
17C5B
  8
DANMEN
  6
CONTINUOUS
 10
106.0
 20
98.5
 30
0.0
 40
0.5
 50
89.999981
 51
180.000037
  0
LINE
  5
17C5C
  8
DANMEN
  6
CONTINUOUS
 10
105.5
 20
98.5
 30
0.0
 11
105.5
 21
96.0
 31
0.0
  0
LINE
  5
17C5D
  8
DANMEN
  6
CONTINUOUS
 10
106.35
 20
96.0
 30
0.0
 11
105.5
 21
96.0
 31
0.0
  0
LINE
  5
17C5E
  8
DANMEN
  6
DASHED
 10
108.5
 20
99.0
 30
0.0
 11
108.5
 21
99.699997
 31
0.0
  0
ARC
  5
17C62
  8
DANMEN
  6
CONTINUOUS
 10
108.5
 20
98.5
 30
0.0
 40
0.5
 50
270.0
 51
0.0
  0
LINE
  5
17C64
  8
DANMEN
  6
CONTINUOUS
 10
108.0
 20
98.0
 30
0.0
 11
108.5
 21
98.0
 31
0.0
  0
LINE
  5
17C66
  8
DANMEN
  6
CONTINUOUS
 10
109.0
 20
99.0
 30
0.0
 11
109.0
 21
98.5
 31
0.0
  0
ARC
  5
17C67
  8
DANMEN
  6
CONTINUOUS
 10
94.000006
 20
102.999908
 30
0.0
 40
1.5
 50
269.999982
 51
359.999964
  0
LINE
  5
17C68
  8
DANMEN
  6
CONTINUOUS
 10
94.000006
 20
101.499908
 30
0.0
 11
91.500015
 21
101.499908
 31
0.0
  0
LINE
  5
17C69
  8
DANMEN
  6
CONTINUOUS
 10
104.500015
 20
101.499908
 30
0.0
 11
102.000009
 21
101.499908
 31
0.0
  0
ARC
  5
17C6A
  8
DANMEN
  6
CONTINUOUS
 10
102.000009
 20
102.999908
 30
0.0
 40
1.5
 50
180.0
 51
269.999982
  0
LINE
  5
17C6B
  8
DANMEN
  6
CONTINUOUS
 10
117.35
 20
92.2
 30
0.0
 11
117.35
 21
81.0
 31
0.0
  0
ARC
  5
17C6E
  8
DANMEN
  6
CONTINUOUS
 10
118.5
 20
98.5
 30
0.0
 40
0.5
 50
0.0
 51
90.0
  0
LINE
  5
17C6F
  8
DANMEN
  6
CONTINUOUS
 10
117.35
 20
98.5
 30
0.0
 11
117.35
 21
94.0
 31
0.0
  0
ARC
  5
17C70
  8
DANMEN
  6
CONTINUOUS
 10
115.504277
 20
95.036483
 30
0.0
 40
0.5
 50
274.0
 51
359.16958
  0
ARC
  5
17C74
  8
DANMEN
  6
CONTINUOUS
 10
117.85
 20
98.5
 30
0.0
 40
0.5
 50
90.0
 51
180.0
  0
LINE
  5
17C75
  8
DANMEN
  6
CONTINUOUS
 10
117.85
 20
99.0
 30
0.0
 11
118.5
 21
99.0
 31
0.0
  0
LINE
  5
17C78
  8
DANMEN
  6
CONTINUOUS
 10
115.0
 20
94.5
 30
0.0
 11
115.539155
 21
94.537701
 31
0.0
  0
LINE
  5
17C7D
  8
DANMEN
  6
CONTINUOUS
 10
195.000002
 20
121.5
 30
0.0
 11
195.000002
 21
90.1
 31
0.0
  0
LINE
  5
17C7E
  8
DANMEN
  6
CONTINUOUS
 10
186.649995
 20
90.649994
 30
0.0
 11
193.350008
 21
90.649994
 31
0.0
  0
LINE
  5
17C7F
  8
DANMEN
  6
CONTINUOUS
 10
185.000002
 20
94.5
 30
0.0
 11
185.000002
 21
89.5
 31
0.0
  0
LINE
  5
17C80
  8
DANMEN
  6
CONTINUOUS
 10
186.649995
 20
94.5
 30
0.0
 11
186.649995
 21
90.649994
 31
0.0
  0
ARC
  5
17C81
  8
DANMEN
  6
CONTINUOUS
 10
185.500002
 20
89.5
 30
0.0
 40
0.5
 50
180.000036
 51
269.999963
  0
LINE
  5
17C84
  8
DANMEN
  6
CONTINUOUS
 10
185.500002
 20
95.0
 30
0.0
 11
186.149995
 21
95.0
 31
0.0
  0
ARC
  5
17C85
  8
DANMEN
  6
CONTINUOUS
 10
186.149995
 20
94.5
 30
0.0
 40
0.5
 50
359.999981
 51
89.999982
  0
ARC
  5
17C86
  8
DANMEN
  6
CONTINUOUS
 10
185.500002
 20
94.5
 30
0.0
 40
0.5
 50
89.999982
 51
180.000019
  0
LINE
  5
17C89
  8
DANMEN
  6
CONTINUOUS
 10
195.000002
 20
90.1
 30
0.0
 11
197.000002
 21
90.1
 31
0.0
  0
LINE
  5
17C8D
  8
DANMEN
  6
CONTINUOUS
 10
197.000002
 20
90.649994
 30
0.0
 11
197.000002
 21
90.1
 31
0.0
  0
LINE
  5
17C8F
  8
DANMEN
  6
CONTINUOUS
 10
195.000002
 20
121.5
 30
0.0
 11
207.500002
 21
121.5
 31
0.0
  0
LINE
  5
17C90
  8
DANMEN
  6
CONTINUOUS
 10
195.0
 20
121.5
 30
0.0
 11
208.0
 21
121.5
 31
0.0
  0
LINE
  5
17C91
  8
DANMEN
  6
CONTINUOUS
 10
195.000002
 20
122.6
 30
0.0
 11
200.000002
 21
122.6
 31
0.0
  0
LINE
  5
17C95
  8
DANMEN
  6
CONTINUOUS
 10
200.800002
 20
122.6
 30
0.0
 11
207.0
 21
122.6
 31
0.0
  0
ARC
  5
17C97
  8
DANMEN
  6
CONTINUOUS
 10
201.350005
 20
123.2
 30
0.0
 40
0.2
 50
180.000019
 51
270.000001
  0
LINE
  5
17C9B
  8
DANMEN
  6
CONTINUOUS
 10
201.350005
 20
123.0
 30
0.0
 11
202.350006
 21
123.0
 31
0.0
  0
ARC
  5
17C9E
  8
DANMEN
  6
CONTINUOUS
 10
206.650006
 20
123.2
 30
0.0
 40
0.2
 50
270.000018
 51
0.0
  0
LINE
  5
17CA1
  8
DANMEN
  6
CONTINUOUS
 10
205.650005
 20
123.0
 30
0.0
 11
206.650006
 21
123.0
 31
0.0
  0
ARC
  5
17CA4
  8
DANMEN
  6
CONTINUOUS
 10
207.500002
 20
122.0
 30
0.0
 40
0.5
 50
270.000018
 51
0.0
  0
LINE
  5
17CA6
  8
DANMEN
  6
CONTINUOUS
 10
85.0
 20
249.950012
 30
0.0
 11
72.5
 21
249.950012
 31
0.0
  0
LINE
  5
17CA7
  8
DANMEN
  6
CONTINUOUS
 10
85.65
 20
251.600012
 30
0.0
 11
70.4
 21
251.600012
 31
0.0
  0
LINE
  5
17CA8
  8
DANMEN
  6
CONTINUOUS
 10
78.049998
 20
220.95
 30
0.0
 11
76.850001
 21
220.95
 31
0.0
  0
ARC
  5
17CA9
  8
DANMEN
  6
CONTINUOUS
 10
77.299998
 20
188.5
 30
0.0
 40
0.5
 50
270.000018
 51
0.0
  0
ARC
  5
17CAA
  8
DANMEN
  6
CONTINUOUS
 10
77.299998
 20
140.5
 30
0.0
 40
0.5
 50
0.0
 51
89.999982
  0
LINE
  5
17CAB
  8
DANMEN
  6
CONTINUOUS
 10
54.5
 20
258.0
 30
0.0
 11
113.5
 21
258.0
 31
0.0
  0
LINE
  5
17CAC
  8
DANMEN
  6
CONTINUOUS
 10
72.0
 20
231.0
 30
0.0
 11
80.0
 21
231.0
 31
0.0
  0
LINE
  5
17CAD
  8
DANMEN
  6
CONTINUOUS
 10
75.850001
 20
219.95
 30
0.0
 11
75.850001
 21
204.5
 31
0.0
  0
LINE
  5
17CAE
  8
DANMEN
  6
CONTINUOUS
 10
60.149998
 20
230.5
 30
0.0
 11
60.149998
 21
204.5
 31
0.0
  0
LINE
  5
17CAF
  8
DANMEN
  6
CONTINUOUS
 10
58.199998
 20
230.5
 30
0.0
 11
58.199998
 21
188.5
 31
0.0
  0
LINE
  5
17CB0
  8
DANMEN
  6
CONTINUOUS
 10
49.0
 20
223.5
 30
0.0
 11
49.0
 21
167.0
 31
0.0
  0
LINE
  5
17CB1
  8
DANMEN
  6
CONTINUOUS
 10
56.0
 20
231.0
 30
0.0
 11
56.0
 21
167.0
 31
0.0
  0
LINE
  5
17CB2
  8
DANMEN
  6
CONTINUOUS
 10
50.649994
 20
223.5
 30
0.0
 11
50.649994
 21
167.0
 31
0.0
  0
LINE
  5
17CB3
  8
DANMEN
  6
CONTINUOUS
 10
64.0
 20
231.0
 30
0.0
 11
64.0
 21
212.0
 31
0.0
  0
LINE
  5
17CB4
  8
DANMEN
  6
CONTINUOUS
 10
72.0
 20
231.0
 30
0.0
 11
72.0
 21
212.0
 31
0.0
  0
LINE
  5
17CB5
  8
DANMEN
  6
CONTINUOUS
 10
76.0
 20
188.0
 30
0.0
 11
76.0
 21
167.0
 31
0.0
  0
LINE
  5
17CB6
  8
DANMEN
  6
CONTINUOUS
 10
60.0
 20
188.0
 30
0.0
 11
60.0
 21
167.0
 31
0.0
  0
LINE
  5
17CB7
  8
DANMEN
  6
CONTINUOUS
 10
65.499991
 20
195.0
 30
0.0
 11
65.499991
 21
167.0
 31
0.0
  0
LINE
  5
17CB8
  8
DANMEN
  6
CONTINUOUS
 10
70.499979
 20
195.000015
 30
0.0
 11
70.499979
 21
167.0
 31
0.0
  0
LINE
  5
17CB9
  8
DANMEN
  6
CONTINUOUS
 10
65.999991
 20
195.0
 30
0.0
 11
65.999991
 21
167.0
 31
0.0
  0
LINE
  5
17CBA
  8
DANMEN
  6
CONTINUOUS
 10
69.999979
 20
195.000015
 30
0.0
 11
69.999979
 21
167.0
 31
0.0
  0
LINE
  5
17CBB
  8
DANMEN
  6
CONTINUOUS
 10
76.000015
 20
164.0
 30
0.0
 11
76.000015
 21
141.0
 31
0.0
  0
LINE
  5
17CBC
  8
DANMEN
  6
CONTINUOUS
 10
60.000015
 20
164.0
 30
0.0
 11
60.000015
 21
141.0
 31
0.0
  0
LINE
  5
17CBD
  8
DANMEN
  6
CONTINUOUS
 10
70.500009
 20
134.0
 30
0.0
 11
70.500009
 21
164.0
 31
0.0
  0
LINE
  5
17CBE
  8
DANMEN
  6
CONTINUOUS
 10
65.500021
 20
133.999985
 30
0.0
 11
65.500021
 21
164.0
 31
0.0
  0
LINE
  5
17CBF
  8
DANMEN
  6
CONTINUOUS
 10
70.000009
 20
134.0
 30
0.0
 11
70.000009
 21
164.0
 31
0.0
  0
LINE
  5
17CC0
  8
DANMEN
  6
CONTINUOUS
 10
66.000021
 20
133.999985
 30
0.0
 11
66.000021
 21
164.0
 31
0.0
  0
ARC
  5
17CC1
  8
DANMEN
  6
CONTINUOUS
 10
61.500015
 20
141.999908
 30
0.0
 40
1.5
 50
90.000018
 51
180.0
  0
LINE
  5
17CC2
  8
DANMEN
  6
CONTINUOUS
 10
60.149998
 20
124.199997
 30
0.0
 11
64.699998
 21
124.199997
 31
0.0
  0
LINE
  5
17CC3
  8
DANMEN
  6
CONTINUOUS
 10
60.149998
 20
138.0
 30
0.0
 11
60.149998
 21
124.199997
 31
0.0
  0
ARC
  5
17CC5
  8
DANMEN
  6
CONTINUOUS
 10
60.499998
 20
140.5
 30
0.0
 40
0.5
 50
0.0
 51
89.999982
  0
ARC
  5
17CC6
  8
DANMEN
  6
CONTINUOUS
 10
58.699998
 20
140.5
 30
0.0
 40
0.5
 50
89.999982
 51
180.000019
  0
LINE
  5
17CC9
  8
DANMEN
  6
CONTINUOUS
 10
60.149998
 20
138.0
 30
0.0
 11
60.999998
 21
138.0
 31
0.0
  0
LINE
  5
17CCA
  8
DANMEN
  6
CONTINUOUS
 10
60.999998
 20
140.5
 30
0.0
 11
60.999998
 21
138.0
 31
0.0
  0
LINE
  5
17CCD
  8
DANMEN
  6
CONTINUOUS
 10
58.699998
 20
141.0
 30
0.0
 11
60.499998
 21
141.0
 31
0.0
  0
LINE
  5
17CCE
  8
DANMEN
  6
CONTINUOUS
 10
75.850001
 20
138.0
 30
0.0
 11
75.850001
 21
130.0
 31
0.0
  0
LINE
  5
17CCF
  8
DANMEN
  6
CONTINUOUS
 10
66.649998
 20
128.050003
 30
0.0
 11
75.850001
 21
128.050003
 31
0.0
  0
LINE
  5
17CD0
  8
DANMEN
  6
CONTINUOUS
 10
65.699998
 20
130.0
 30
0.0
 11
75.850001
 21
130.0
 31
0.0
  0
LINE
  5
17CD1
  8
DANMEN
  6
CONTINUOUS
 10
70.500009
 20
133.999985
 30
0.0
 11
65.500006
 21
133.999985
 31
0.0
  0
ARC
  5
17CD2
  8
DANMEN
  6
CONTINUOUS
 10
65.699998
 20
129.0
 30
0.0
 40
1.0
 50
89.999982
 51
180.000019
  0
LINE
  5
17CD4
  8
DANMEN
  6
CONTINUOUS
 10
64.699998
 20
129.0
 30
0.0
 11
64.699998
 21
124.199997
 31
0.0
  0
LINE
  5
17CD6
  8
DANMEN
  6
CONTINUOUS
 10
66.649998
 20
128.050003
 30
0.0
 11
66.649998
 21
124.0
 31
0.0
  0
ARC
  5
17CDA
  8
DANMEN
  6
CONTINUOUS
 10
64.000006
 20
144.999908
 30
0.0
 40
1.5
 50
269.999982
 51
359.999964
  0
LINE
  5
17CDB
  8
DANMEN
  6
CONTINUOUS
 10
64.000006
 20
143.499908
 30
0.0
 11
61.500015
 21
143.499908
 31
0.0
  0
ARC
  5
17CDE
  8
DANMEN
  6
CONTINUOUS
 10
75.499995
 20
140.5
 30
0.0
 40
0.5
 50
89.999982
 51
180.000019
  0
LINE
  5
17CE1
  8
DANMEN
  6
CONTINUOUS
 10
74.999995
 20
138.0
 30
0.0
 11
75.850001
 21
138.0
 31
0.0
  0
LINE
  5
17CE2
  8
DANMEN
  6
CONTINUOUS
 10
74.999995
 20
140.5
 30
0.0
 11
74.999995
 21
138.0
 31
0.0
  0
LINE
  5
17CE3
  8
DANMEN
  6
CONTINUOUS
 10
74.500015
 20
143.499908
 30
0.0
 11
72.000009
 21
143.499908
 31
0.0
  0
ARC
  5
17CE4
  8
DANMEN
  6
CONTINUOUS
 10
72.000009
 20
144.999908
 30
0.0
 40
1.5
 50
180.0
 51
269.999982
  0
ARC
  5
17CE5
  8
DANMEN
  6
CONTINUOUS
 10
74.500015
 20
141.999908
 30
0.0
 40
1.5
 50
359.999964
 51
90.000001
  0
LINE
  5
17CE7
  8
DANMEN
  6
CONTINUOUS
 10
75.499995
 20
141.0
 30
0.0
 11
77.299998
 21
141.0
 31
0.0
  0
LINE
  5
17CE8
  8
DANMEN
  6
CONTINUOUS
 10
75.850001
 20
202.550003
 30
0.0
 11
75.850001
 21
191.0
 31
0.0
  0
LINE
  5
17CE9
  8
DANMEN
  6
CONTINUOUS
 10
60.149998
 20
202.550003
 30
0.0
 11
60.149998
 21
191.0
 31
0.0
  0
ARC
  5
17CEA
  8
DANMEN
  6
CONTINUOUS
 10
61.499985
 20
187.000092
 30
0.0
 40
1.5
 50
179.999964
 51
270.000001
  0
ARC
  5
17CEB
  8
DANMEN
  6
CONTINUOUS
 10
60.499998
 20
188.5
 30
0.0
 40
0.5
 50
270.000018
 51
0.0
  0
ARC
  5
17CED
  8
DANMEN
  6
CONTINUOUS
 10
58.699998
 20
188.5
 30
0.0
 40
0.5
 50
180.000019
 51
270.000001
  0
LINE
  5
17CF1
  8
DANMEN
  6
CONTINUOUS
 10
60.149998
 20
191.0
 30
0.0
 11
60.999998
 21
191.0
 31
0.0
  0
LINE
  5
17CF2
  8
DANMEN
  6
CONTINUOUS
 10
60.999998
 20
191.0
 30
0.0
 11
60.999998
 21
188.5
 31
0.0
  0
LINE
  5
17CF3
  8
DANMEN
  6
CONTINUOUS
 10
58.699998
 20
188.0
 30
0.0
 11
60.499998
 21
188.0
 31
0.0
  0
ARC
  5
17CF4
  8
DANMEN
  6
CONTINUOUS
 10
63.999991
 20
184.000092
 30
0.0
 40
1.5
 50
0.0
 51
89.999982
  0
LINE
  5
17CF5
  8
DANMEN
  6
CONTINUOUS
 10
61.499985
 20
185.500092
 30
0.0
 11
63.999991
 21
185.500092
 31
0.0
  0
LINE
  5
17CF8
  8
DANMEN
  6
CONTINUOUS
 10
71.999994
 20
185.500092
 30
0.0
 11
74.499985
 21
185.500092
 31
0.0
  0
ARC
  5
17CF9
  8
DANMEN
  6
CONTINUOUS
 10
71.999994
 20
184.000092
 30
0.0
 40
1.5
 50
89.999982
 51
179.999964
  0
ARC
  5
17CFA
  8
DANMEN
  6
CONTINUOUS
 10
74.499985
 20
187.000092
 30
0.0
 40
1.5
 50
270.000018
 51
0.0
  0
ARC
  5
17CFD
  8
DANMEN
  6
CONTINUOUS
 10
75.499995
 20
188.5
 30
0.0
 40
0.5
 50
180.000019
 51
270.000001
  0
LINE
  5
17CFF
  8
DANMEN
  6
CONTINUOUS
 10
75.499995
 20
188.0
 30
0.0
 11
77.299998
 21
188.0
 31
0.0
  0
LINE
  5
17D00
  8
DANMEN
  6
CONTINUOUS
 10
74.999995
 20
191.0
 30
0.0
 11
75.850001
 21
191.0
 31
0.0
  0
LINE
  5
17D01
  8
DANMEN
  6
CONTINUOUS
 10
74.999995
 20
191.0
 30
0.0
 11
74.999995
 21
188.5
 31
0.0
  0
LINE
  5
17D02
  8
DANMEN
  6
CONTINUOUS
 10
60.149998
 20
202.550003
 30
0.0
 11
63.699999
 21
202.550003
 31
0.0
  0
LINE
  5
17D03
  8
DANMEN
  6
CONTINUOUS
 10
60.149998
 20
204.5
 30
0.0
 11
75.850001
 21
204.5
 31
0.0
  0
LINE
  5
17D06
  8
DANMEN
  6
CONTINUOUS
 10
69.399997
 20
198.900001
 30
0.0
 11
70.539728
 21
198.900001
 31
0.0
  0
ARC
  5
17D07
  8
DANMEN
  6
CONTINUOUS
 10
68.799997
 20
200.55394
 30
0.0
 40
1.0
 50
294.62438
 51
0.0
  0
ARC
  5
17D08
  8
DANMEN
  6
CONTINUOUS
 10
68.799997
 20
201.799999
 30
0.0
 40
1.0
 50
359.999945
 51
89.999982
  0
LINE
  5
17D09
  8
DANMEN
  6
CONTINUOUS
 10
65.499991
 20
195.000015
 30
0.0
 11
70.499994
 21
195.000015
 31
0.0
  0
ARC
  5
17D0A
  8
DANMEN
  6
CONTINUOUS
 10
69.399997
 20
199.200001
 30
0.0
 40
0.3
 50
180.000019
 51
270.000055
  0
ARC
  5
17D0B
  8
DANMEN
  6
CONTINUOUS
 10
66.599999
 20
199.200001
 30
0.0
 40
0.3
 50
270.000018
 51
0.0
  0
ARC
  5
17D0C
  8
DANMEN
  6
CONTINUOUS
 10
66.699999
 20
200.469418
 30
0.0
 40
2.0
 50
180.000019
 51
231.693677
  0
LINE
  5
17D0D
  8
DANMEN
  6
CONTINUOUS
 10
65.460268
 20
198.900001
 30
0.0
 11
66.599999
 21
198.900001
 31
0.0
  0
ARC
  5
17D0E
  8
DANMEN
  6
CONTINUOUS
 10
63.699999
 20
201.550003
 30
0.0
 40
1.0
 50
0.0
 51
89.999982
  0
LINE
  5
17D10
  8
DANMEN
  6
CONTINUOUS
 10
64.699999
 20
201.550003
 30
0.0
 11
64.699999
 21
200.469418
 31
0.0
  0
ARC
  5
17D11
  8
DANMEN
  6
CONTINUOUS
 10
69.299997
 20
199.463069
 30
0.0
 40
0.2
 50
114.624344
 51
180.000019
  0
ARC
  5
17D12
  8
DANMEN
  6
CONTINUOUS
 10
66.699999
 20
199.463069
 30
0.0
 40
0.2
 50
0.0
 51
65.375675
  0
ARC
  5
17D13
  8
DANMEN
  6
CONTINUOUS
 10
67.199999
 20
200.55394
 30
0.0
 40
1.0
 50
180.000019
 51
245.375639
  0
LINE
  5
17D14
  8
DANMEN
  6
CONTINUOUS
 10
66.899999
 20
199.463069
 30
0.0
 11
66.899999
 21
199.200001
 31
0.0
  0
ARC
  5
17D15
  8
DANMEN
  6
CONTINUOUS
 10
67.199999
 20
201.799999
 30
0.0
 40
1.0
 50
89.999982
 51
180.000019
  0
LINE
  5
17D16
  8
DANMEN
  6
CONTINUOUS
 10
67.199999
 20
202.799999
 30
0.0
 11
68.799997
 21
202.799999
 31
0.0
  0
LINE
  5
17D17
  8
DANMEN
  6
CONTINUOUS
 10
66.199999
 20
201.799998
 30
0.0
 11
66.199999
 21
200.55394
 31
0.0
  0
LINE
  5
17D18
  8
DANMEN
  6
CONTINUOUS
 10
69.099998
 20
199.200001
 30
0.0
 11
69.099998
 21
199.463069
 31
0.0
  0
ARC
  5
17D1B
  8
DANMEN
  6
CONTINUOUS
 10
69.299997
 20
200.469418
 30
0.0
 40
2.0
 50
308.306342
 51
359.999945
  0
LINE
  5
17D1C
  8
DANMEN
  6
CONTINUOUS
 10
72.299997
 20
202.550003
 30
0.0
 11
75.850001
 21
202.550003
 31
0.0
  0
ARC
  5
17D1D
  8
DANMEN
  6
CONTINUOUS
 10
72.299997
 20
201.550003
 30
0.0
 40
1.0
 50
89.999982
 51
180.000019
  0
LINE
  5
17D1F
  8
DANMEN
  6
CONTINUOUS
 10
71.299997
 20
200.469418
 30
0.0
 11
71.299997
 21
201.550003
 31
0.0
  0
LINE
  5
17D20
  8
DANMEN
  6
CONTINUOUS
 10
69.799997
 20
200.55394
 30
0.0
 11
69.799997
 21
201.799998
 31
0.0
  0
ARC
  5
17D23
  8
DANMEN
  6
CONTINUOUS
 10
68.0
 20
212.0
 30
0.0
 40
4.0
 50
180.000019
 51
359.999983
  0
LINE
  5
17D24
  8
DANMEN
  6
CONTINUOUS
 10
49.0
 20
257.5
 30
0.0
 11
49.0
 21
223.5
 31
0.0
  0
LINE
  5
17D25
  8
DANMEN
  6
CONTINUOUS
 10
50.649994
 20
246.0
 30
0.0
 11
50.649994
 21
223.5
 31
0.0
  0
LINE
  5
17D26
  8
DANMEN
  6
CONTINUOUS
 10
69.25
 20
246.0
 30
0.0
 11
69.25
 21
225.061553
 31
0.0
  0
LINE
  5
17D27
  8
DANMEN
  6
CONTINUOUS
 10
67.6
 20
246.0
 30
0.0
 11
67.6
 21
235.101833
 31
0.0
  0
LINE
  5
17D28
  8
DANMEN
  6
CONTINUOUS
 10
56.0
 20
231.0
 30
0.0
 11
64.0
 21
231.0
 31
0.0
  0
ARC
  5
17D29
  8
DANMEN
  6
CONTINUOUS
 10
49.5
 20
223.5
 30
0.0
 40
0.5
 50
180.000019
 51
270.000001
  0
LINE
  5
17D2A
  8
DANMEN
  6
CONTINUOUS
 10
49.5
 20
223.0
 30
0.0
 11
50.149994
 21
223.0
 31
0.0
  0
ARC
  5
17D2B
  8
DANMEN
  6
CONTINUOUS
 10
50.149994
 20
223.5
 30
0.0
 40
0.5
 50
270.000018
 51
0.0
  0
ARC
  5
17D2D
  8
DANMEN
  6
CONTINUOUS
 10
59.649998
 20
230.5
 30
0.0
 40
0.5
 50
0.0
 51
90.0
  0
ARC
  5
17D2E
  8
DANMEN
  6
CONTINUOUS
 10
58.699998
 20
230.5
 30
0.0
 40
0.5
 50
89.999982
 51
180.000019
  0
LINE
  5
17D30
  8
DANMEN
  6
CONTINUOUS
 10
58.699998
 20
231.0
 30
0.0
 11
59.649998
 21
231.0
 31
0.0
  0
LINE
  5
17D31
  8
DANMEN
  6
CONTINUOUS
 10
66.75
 20
232.898149
 30
0.0
 11
66.75
 21
225.061553
 31
0.0
  0
LINE
  5
17D32
  8
DANMEN
  6
CONTINUOUS
 10
67.640388
 20
223.0
 30
0.0
 11
68.359612
 21
223.0
 31
0.0
  0
LINE
  5
17D33
  8
DANMEN
  6
CONTINUOUS
 10
69.235071
 20
224.940285
 30
0.0
 11
68.844683
 21
223.378732
 31
0.0
  0
LINE
  5
17D34
  8
DANMEN
  6
CONTINUOUS
 10
67.155317
 20
223.378732
 30
0.0
 11
66.764929
 21
224.940285
 31
0.0
  0
ARC
  5
17D35
  8
DANMEN
  6
CONTINUOUS
 10
67.640388
 20
223.5
 30
0.0
 40
0.5
 50
194.036243
 51
270.0
  0
ARC
  5
17D36
  8
DANMEN
  6
CONTINUOUS
 10
68.359612
 20
223.5
 30
0.0
 40
0.5
 50
270.0
 51
345.963757
  0
ARC
  5
17D37
  8
DANMEN
  6
CONTINUOUS
 10
67.25
 20
225.061553
 30
0.0
 40
0.5
 50
180.0
 51
194.036243
  0
ARC
  5
17D38
  8
DANMEN
  6
CONTINUOUS
 10
68.75
 20
225.061553
 30
0.0
 40
0.5
 50
345.963757
 51
0.0
  0
ARC
  5
17D3A
  8
DANMEN
  6
CONTINUOUS
 10
76.850001
 20
219.95
 30
0.0
 40
1.0
 50
90.0
 51
180.0
  0
LINE
  5
17D3B
  8
DANMEN
  6
CONTINUOUS
 10
67.560165
 20
234.906263
 30
0.0
 11
66.789835
 21
233.09372
 31
0.0
  0
ARC
  5
17D3C
  8
DANMEN
  6
CONTINUOUS
 10
67.25
 20
232.898149
 30
0.0
 40
0.5
 50
156.974508
 51
180.0
  0
ARC
  5
17D3D
  8
DANMEN
  6
CONTINUOUS
 10
67.1
 20
235.101833
 30
0.0
 40
0.5
 50
336.974508
 51
0.0
  0
LINE
  5
17D3E
  8
DANMEN
  6
CONTINUOUS
 10
50.649994
 20
246.0
 30
0.0
 11
67.6
 21
246.0
 31
0.0
  0
LINE
  5
17D3F
  8
DANMEN
  6
CONTINUOUS
 10
50.649994
 20
247.649994
 30
0.0
 11
64.699997
 21
247.649994
 31
0.0
  0
LINE
  5
17D40
  8
DANMEN
  6
CONTINUOUS
 10
50.649994
 20
256.350006
 30
0.0
 11
50.649994
 21
247.649994
 31
0.0
  0
LINE
  5
17D41
  8
DANMEN
  6
CONTINUOUS
 10
49.5
 20
258.0
 30
0.0
 11
54.5
 21
258.0
 31
0.0
  0
LINE
  5
17D42
  8
DANMEN
  6
CONTINUOUS
 10
50.649994
 20
256.350006
 30
0.0
 11
54.5
 21
256.350006
 31
0.0
  0
ARC
  5
17D43
  8
DANMEN
  6
CONTINUOUS
 10
49.5
 20
257.5
 30
0.0
 40
0.5
 50
89.999982
 51
180.000019
  0
LINE
  5
17D44
  8
DANMEN
  6
CONTINUOUS
 10
55.0
 20
257.5
 30
0.0
 11
55.0
 21
256.850006
 31
0.0
  0
ARC
  5
17D45
  8
DANMEN
  6
CONTINUOUS
 10
54.5
 20
256.850006
 30
0.0
 40
0.5
 50
270.000018
 51
0.0
  0
ARC
  5
17D46
  8
DANMEN
  6
CONTINUOUS
 10
54.5
 20
257.5
 30
0.0
 40
0.5
 50
0.0
 51
89.999982
  0
LINE
  5
17D48
  8
DANMEN
  6
CONTINUOUS
 10
70.1
 20
251.300012
 30
0.0
 11
70.1
 21
251.036932
 31
0.0
  0
ARC
  5
17D49
  8
DANMEN
  6
CONTINUOUS
 10
67.7
 20
250.030306
 30
0.0
 40
2.0
 50
128.293477
 51
180.0
  0
LINE
  5
17D4A
  8
DANMEN
  6
CONTINUOUS
 10
67.9
 20
251.3
 30
0.0
 11
67.9
 21
251.036932
 31
0.0
  0
LINE
  5
17D4B
  8
DANMEN
  6
CONTINUOUS
 10
69.25
 20
246.0
 30
0.0
 11
73.5
 21
246.0
 31
0.0
  0
LINE
  5
17D4C
  8
DANMEN
  6
CONTINUOUS
 10
69.8
 20
247.7
 30
0.0
 11
68.2
 21
247.7
 31
0.0
  0
ARC
  5
17D4D
  8
DANMEN
  6
CONTINUOUS
 10
64.7
 20
248.649994
 30
0.0
 40
1.0
 50
270.0
 51
0.0
  0
ARC
  5
17D4E
  8
DANMEN
  6
CONTINUOUS
 10
68.2
 20
248.7
 30
0.0
 40
1.0
 50
180.0
 51
270.0
  0
LINE
  5
17D4F
  8
DANMEN
  6
CONTINUOUS
 10
67.2
 20
249.946061
 30
0.0
 11
67.2
 21
248.7
 31
0.0
  0
LINE
  5
17D50
  8
DANMEN
  6
CONTINUOUS
 10
65.7
 20
250.030306
 30
0.0
 11
65.7
 21
248.649994
 31
0.0
  0
ARC
  5
17D51
  8
DANMEN
  6
CONTINUOUS
 10
67.7
 20
251.036932
 30
0.0
 40
0.2
 50
294.624318
 51
0.0
  0
ARC
  5
17D52
  8
DANMEN
  6
CONTINUOUS
 10
68.2
 20
249.946061
 30
0.0
 40
1.0
 50
114.624318
 51
180.0
  0
LINE
  5
17D53
  8
DANMEN
  6
CONTINUOUS
 10
72.5
 20
246.8
 30
0.0
 11
74.0
 21
246.8
 31
0.0
  0
ARC
  5
17D54
  8
DANMEN
  6
CONTINUOUS
 10
73.5
 20
246.5
 30
0.0
 40
0.5
 50
270.000018
 51
0.0
  0
LINE
  5
17D55
  8
DANMEN
  6
CONTINUOUS
 10
72.5
 20
249.950012
 30
0.0
 11
72.5
 21
246.8
 31
0.0
  0
LINE
  5
17D56
  8
DANMEN
  6
CONTINUOUS
 10
70.8
 20
249.946061
 30
0.0
 11
70.8
 21
248.7
 31
0.0
  0
ARC
  5
17D57
  8
DANMEN
  6
CONTINUOUS
 10
69.8
 20
248.7
 30
0.0
 40
1.0
 50
270.0
 51
0.0
  0
ARC
  5
17D58
  8
DANMEN
  6
CONTINUOUS
 10
69.8
 20
249.946061
 30
0.0
 40
1.0
 50
0.0
 51
65.375682
  0
ARC
  5
17D59
  8
DANMEN
  6
CONTINUOUS
 10
70.3
 20
251.036932
 30
0.0
 40
0.2
 50
180.0
 51
245.375682
  0
LINE
  5
17D5B
  8
DANMEN
  6
CONTINUOUS
 10
74.0
 20
246.8
 30
0.0
 11
74.0
 21
246.5
 31
0.0
  0
ARC
  5
17D5C
  8
DANMEN
  6
CONTINUOUS
 10
67.6
 20
251.3
 30
0.0
 40
0.3
 50
0.0
 51
90.0
  0
LINE
  5
17D5D
  8
DANMEN
  6
CONTINUOUS
 10
67.6
 20
251.6
 30
0.0
 11
66.460621
 21
251.6
 31
0.0
  0
ARC
  5
17D5E
  8
DANMEN
  6
CONTINUOUS
 10
70.4
 20
251.300012
 30
0.0
 40
0.3
 50
90.0
 51
180.0
  0
LINE
  5
17D5F
  8
DANMEN
  6
CONTINUOUS
 10
115.017555
 20
192.502085
 30
0.0
 11
115.0
 21
223.0
 31
0.0
  0
LINE
  5
17D60
  8
DANMEN
  6
CONTINUOUS
 10
116.517555
 20
192.145361
 30
0.0
 11
116.004224
 21
222.470763
 31
0.0
  0
LINE
  5
17D61
  8
DANMEN
  6
CONTINUOUS
 10
115.31756
 20
192.49168
 30
0.0
 11
115.30001
 21
222.979021
 31
0.0
  0
LINE
  5
17D62
  8
DANMEN
  6
CONTINUOUS
 10
77.799998
 20
219.0
 30
0.0
 11
77.799998
 21
188.5
 31
0.0
  0
LINE
  5
17D63
  8
DANMEN
  6
CONTINUOUS
 10
80.0
 20
231.0
 30
0.0
 11
80.0
 21
167.0
 31
0.0
  0
LINE
  5
17D64
  8
DANMEN
  6
CONTINUOUS
 10
82.5
 20
223.0
 30
0.0
 11
82.5
 21
167.0
 31
0.0
  0
LINE
  5
17D65
  8
DANMEN
  6
DASHED
 10
85.5
 20
223.0
 30
0.0
 11
85.5
 21
167.0
 31
0.0
  0
LINE
  5
17D66
  8
DANMEN
  6
CONTINUOUS
 10
108.0
 20
167.0
 30
0.0
 11
108.0
 21
223.0
 31
0.0
  0
LINE
  5
17D67
  8
DANMEN
  6
CONTINUOUS
 10
87.95
 20
167.0
 30
0.0
 11
87.95
 21
223.0
 31
0.0
  0
LINE
  5
17D68
  8
DANMEN
  6
CONTINUOUS
 10
105.949985
 20
167.0
 30
0.0
 11
105.949985
 21
223.0
 31
0.0
  0
LINE
  5
17D69
  8
DANMEN
  6
CONTINUOUS
 10
90.000015
 20
167.0
 30
0.0
 11
90.000015
 21
223.0
 31
0.0
  0
LINE
  5
17D6A
  8
DANMEN
  6
CONTINUOUS
 10
115.0
 20
167.0
 30
0.0
 11
115.0
 21
223.0
 31
0.0
  0
LINE
  5
17D6B
  8
DANMEN
  6
CONTINUOUS
 10
119.0
 20
191.90593
 30
0.0
 11
119.0
 21
223.0
 31
0.0
  0
LINE
  5
17D6C
  8
DANMEN
  6
CONTINUOUS
 10
117.350006
 20
192.302173
 30
0.0
 11
117.350006
 21
223.0
 31
0.0
  0
LINE
  5
17D6D
  8
DANMEN
  6
CONTINUOUS
 10
99.949979
 20
230.0
 30
0.0
 11
99.949979
 21
167.0
 31
0.0
  0
LINE
  5
17D6E
  8
DANMEN
  6
CONTINUOUS
 10
95.949991
 20
230.0
 30
0.0
 11
95.949991
 21
167.0
 31
0.0
  0
LINE
  5
17D6F
  8
DANMEN
  6
CONTINUOUS
 10
100.449979
 20
230.0
 30
0.0
 11
100.449979
 21
167.0
 31
0.0
  0
LINE
  5
17D70
  8
DANMEN
  6
CONTINUOUS
 10
95.449991
 20
230.0
 30
0.0
 11
95.449991
 21
167.0
 31
0.0
  0
LINE
  5
17D71
  8
DANMEN
  6
CONTINUOUS
 10
127.5
 20
167.0
 30
0.0
 11
127.5
 21
184.002085
 31
0.0
  0
LINE
  5
17D73
  8
DANMEN
  6
CONTINUOUS
 10
127.5
 20
164.0
 30
0.0
 11
127.5
 21
133.497915
 31
0.0
  0
LINE
  5
17D74
  8
DANMEN
  6
CONTINUOUS
 10
118.517555
 20
133.497915
 30
0.0
 11
129.717555
 21
133.497915
 31
0.0
  0
LINE
  5
17D75
  8
DANMEN
  6
CONTINUOUS
 10
128.381386
 20
127.846997
 30
0.0
 11
116.517555
 21
124.997915
 31
0.0
  0
LINE
  5
17D76
  8
DANMEN
  6
CONTINUOUS
 10
115.017555
 20
129.497915
 30
0.0
 11
115.017555
 21
124.997915
 31
0.0
  0
LINE
  5
17D77
  8
DANMEN
  6
CONTINUOUS
 10
115.317555
 20
129.497915
 30
0.0
 11
115.317555
 21
124.987367
 31
0.0
  0
LINE
  5
17D78
  8
DANMEN
  6
CONTINUOUS
 10
116.517555
 20
131.497915
 30
0.0
 11
116.517555
 21
124.997915
 31
0.0
  0
LINE
  5
17D7C
  8
DANMEN
  6
CONTINUOUS
 10
115.017555
 20
129.497915
 30
0.0
 11
116.517555
 21
129.497915
 31
0.0
  0
ARC
  5
17D7F
  8
DANMEN
  6
CONTINUOUS
 10
118.517555
 20
131.497915
 30
0.0
 40
2.0
 50
89.999982
 51
180.000019
  0
ARC
  5
17D82
  8
DANMEN
  6
CONTINUOUS
 10
128.217555
 20
129.840276
 30
0.0
 40
2.0
 50
274.698681
 51
0.0
  0
LINE
  5
17D87
  8
DANMEN
  6
CONTINUOUS
 10
130.217555
 20
132.997915
 30
0.0
 11
130.217555
 21
129.840276
 31
0.0
  0
ARC
  5
17D89
  8
DANMEN
  6
CONTINUOUS
 10
129.717555
 20
132.997915
 30
0.0
 40
0.5
 50
0.0
 51
89.999982
  0
LINE
  5
17D8C
  8
DANMEN
  6
CONTINUOUS
 10
118.517555
 20
184.002085
 30
0.0
 11
129.717555
 21
184.002085
 31
0.0
  0
LINE
  5
17D8D
  8
DANMEN
  6
CONTINUOUS
 10
128.381386
 20
189.653003
 30
0.0
 11
116.517555
 21
192.502085
 31
0.0
  0
LINE
  5
17D8E
  8
DANMEN
  6
CONTINUOUS
 10
116.517555
 20
186.002085
 30
0.0
 11
116.517555
 21
192.502085
 31
0.0
  0
ARC
  5
17D90
  8
DANMEN
  6
CONTINUOUS
 10
118.517555
 20
186.002085
 30
0.0
 40
2.0
 50
179.999981
 51
270.000018
  0
LINE
  5
17D92
  8
DANMEN
  6
CONTINUOUS
 10
115.017555
 20
188.002085
 30
0.0
 11
115.017555
 21
192.502085
 31
0.0
  0
LINE
  5
17D93
  8
DANMEN
  6
CONTINUOUS
 10
115.017555
 20
188.002085
 30
0.0
 11
116.517555
 21
188.002085
 31
0.0
  0
LINE
  5
17D96
  8
DANMEN
  6
CONTINUOUS
 10
115.317555
 20
188.002085
 30
0.0
 11
115.317555
 21
192.512633
 31
0.0
  0
LINE
  5
17D9A
  8
DANMEN
  6
CONTINUOUS
 10
130.217555
 20
184.502085
 30
0.0
 11
130.217555
 21
187.659724
 31
0.0
  0
ARC
  5
17D9C
  8
DANMEN
  6
CONTINUOUS
 10
129.717555
 20
184.502085
 30
0.0
 40
0.5
 50
270.000018
 51
360.0
  0
ARC
  5
17DA1
  8
DANMEN
  6
CONTINUOUS
 10
128.217555
 20
187.659724
 30
0.0
 40
2.0
 50
0.0
 51
85.301319
  0
LINE
  5
17DA4
  8
DANMEN
  6
CONTINUOUS
 10
195.000002
 20
157.9
 30
0.0
 11
195.000002
 21
139.3
 31
0.0
  0
LINE
  5
17DA5
  8
DANMEN
  6
CONTINUOUS
 10
199.800005
 20
125.8
 30
0.0
 11
207.200005
 21
125.8
 31
0.0
  0
LINE
  5
17DA6
  8
DANMEN
  6
CONTINUOUS
 10
199.270497
 20
125.0
 30
0.0
 11
202.350006
 21
125.0
 31
0.0
  0
LINE
  5
17DA7
  8
DANMEN
  6
CONTINUOUS
 10
200.500002
 20
125.0
 30
0.0
 11
201.699998
 21
125.0
 31
0.0
  0
LINE
  5
17DA8
  8
DANMEN
  6
CONTINUOUS
 10
207.963123
 20
128.005532
 30
0.0
 11
198.851661
 21
129.372251
 31
0.0
  0
LINE
  5
17DA9
  8
DANMEN
  6
CONTINUOUS
 10
208.145458
 20
129.949997
 30
0.0
 11
199.199998
 21
131.291816
 31
0.0
  0
LINE
  5
17DAA
  8
DANMEN
  6
CONTINUOUS
 10
196.510441
 20
131.502283
 30
0.0
 11
199.270497
 21
125.0
 31
0.0
  0
LINE
  5
17DAB
  8
DANMEN
  6
CONTINUOUS
 10
197.025814
 20
132.335584
 30
0.0
 11
199.800005
 21
125.8
 31
0.0
  0
ARC
  5
17DAC
  8
DANMEN
  6
CONTINUOUS
 10
199.000002
 20
130.361187
 30
0.0
 40
1.0
 50
180.0
 51
261.469234
  0
ARC
  5
17DAF
  8
DANMEN
  6
CONTINUOUS
 10
200.500002
 20
124.5
 30
0.0
 40
0.5
 50
90.000037
 51
180.000019
  0
ARC
  5
17DB2
  8
DANMEN
  6
CONTINUOUS
 10
196.473511
 20
132.101146
 30
0.0
 40
0.6
 50
23.0
 51
273.528779
  0
LINE
  5
17DB7
  8
DANMEN
  6
CONTINUOUS
 10
198.000002
 20
132.0
 30
0.0
 11
198.000002
 21
130.361187
 31
0.0
  0
LINE
  5
17DB8
  8
DANMEN
  6
CONTINUOUS
 10
198.500002
 20
132.5
 30
0.0
 11
199.199998
 21
132.5
 31
0.0
  0
ARC
  5
17DBA
  8
DANMEN
  6
CONTINUOUS
 10
198.500002
 20
132.0
 30
0.0
 40
0.5
 50
89.999999
 51
180.000036
  0
LINE
  5
17DBB
  8
DANMEN
  6
CONTINUOUS
 10
199.199998
 20
132.5
 30
0.0
 11
199.199998
 21
131.291816
 31
0.0
  0
LINE
  5
17DC0
  8
DANMEN
  6
CONTINUOUS
 10
207.895164
 20
126.842413
 30
0.0
 11
203.246849
 21
128.722891
 31
0.0
  0
LINE
  5
17DC1
  8
DANMEN
  6
CONTINUOUS
 10
206.878863
 20
126.390573
 30
0.0
 11
204.33567
 21
127.419423
 31
0.0
  0
LINE
  5
17DC4
  8
DANMEN
  6
CONTINUOUS
 10
203.150006
 20
123.8
 30
0.0
 11
204.850005
 21
123.8
 31
0.0
  0
LINE
  5
17DC7
  8
DANMEN
  6
CONTINUOUS
 10
202.350006
 20
125.0
 30
0.0
 11
202.350006
 21
124.0
 31
0.0
  0
ARC
  5
17DC8
  8
DANMEN
  6
CONTINUOUS
 10
201.350005
 20
123.8
 30
0.0
 40
0.2
 50
89.999982
 51
180.000019
  0
LINE
  5
17DCA
  8
DANMEN
  6
CONTINUOUS
 10
201.350005
 20
124.0
 30
0.0
 11
202.350006
 21
124.0
 31
0.0
  0
ARC
  5
17DCB
  8
DANMEN
  6
CONTINUOUS
 10
203.09684
 20
128.352085
 30
0.0
 40
0.4
 50
67.974191
 51
247.974191
  0
ARC
  5
17DCD
  8
DANMEN
  6
CONTINUOUS
 10
202.312975
 20
125.949886
 30
0.0
 40
0.25
 50
131.738105
 51
311.738105
  0
LINE
  5
17DCF
  8
DANMEN
  6
CONTINUOUS
 10
203.578997
 20
127.414414
 30
0.0
 11
202.146544
 21
126.136435
 31
0.0
  0
LINE
  5
17DD0
  8
DANMEN
  6
CONTINUOUS
 10
204.33567
 20
127.419423
 30
0.0
 11
202.479407
 21
125.763337
 31
0.0
  0
LINE
  5
17DD5
  8
DANMEN
  6
CONTINUOUS
 10
203.520856
 20
127.749056
 30
0.0
 11
202.94683
 21
127.981279
 31
0.0
  0
ARC
  5
17DD6
  8
DANMEN
  6
CONTINUOUS
 10
203.445851
 20
127.563653
 30
0.0
 40
0.2
 50
311.738105
 51
67.974191
  0
LINE
  5
17DDB
  8
DANMEN
  6
CONTINUOUS
 10
202.200003
 20
124.499999
 30
0.0
 11
202.200004
 21
124.199996
 31
0.0
  0
LINE
  5
17DDC
  8
DANMEN
  6
CONTINUOUS
 10
200.800002
 20
124.199997
 30
0.0
 11
202.199998
 21
124.199997
 31
0.0
  0
ARC
  5
17DDD
  8
DANMEN
  6
CONTINUOUS
 10
201.699998
 20
124.5
 30
0.0
 40
0.5
 50
359.999981
 51
90.000037
  0
LINE
  5
17DE1
  8
DANMEN
  6
CONTINUOUS
 10
207.200005
 20
126.462453
 30
0.0
 11
207.200005
 21
125.8
 31
0.0
  0
LINE
  5
17DE3
  8
DANMEN
  6
CONTINUOUS
 10
208.000005
 20
126.744506
 30
0.0
 11
208.000005
 21
125.0
 31
0.0
  0
LINE
  5
17DE5
  8
DANMEN
  6
CONTINUOUS
 10
205.650005
 20
125.0
 30
0.0
 11
208.000005
 21
125.0
 31
0.0
  0
LINE
  5
17DE7
  8
DANMEN
  6
CONTINUOUS
 10
205.650005
 20
125.0
 30
0.0
 11
205.650005
 21
124.0
 31
0.0
  0
LINE
  5
17DE8
  8
DANMEN
  6
CONTINUOUS
 10
205.650005
 20
124.0
 30
0.0
 11
206.650006
 21
124.0
 31
0.0
  0
ARC
  5
17DE9
  8
DANMEN
  6
CONTINUOUS
 10
206.650006
 20
123.8
 30
0.0
 40
0.2
 50
0.0
 51
89.999982
  0
ARC
  5
17DEB
  8
DANMEN
  6
CONTINUOUS
 10
207.064266
 20
126.315568
 30
0.0
 40
0.2
 50
47.258366
 51
157.974191
  0
ARC
  5
17DEE
  8
DANMEN
  6
CONTINUOUS
 10
207.820159
 20
126.65701
 30
0.0
 40
0.2
 50
25.943161
 51
67.974191
  0
LINE
  5
17DF0
  8
DANMEN
  6
CONTINUOUS
 10
205.800004
 20
124.500017
 30
0.0
 11
205.8
 21
124.199998
 31
0.0
  0
LINE
  5
17DF1
  8
DANMEN
  6
CONTINUOUS
 10
205.800005
 20
124.199997
 30
0.0
 11
207.000002
 21
124.199997
 31
0.0
  0
LINE
  5
17DF2
  8
DANMEN
  6
CONTINUOUS
 10
206.300005
 20
125.0
 30
0.0
 11
207.500002
 21
125.0
 31
0.0
  0
ARC
  5
17DF3
  8
DANMEN
  6
CONTINUOUS
 10
207.500002
 20
124.5
 30
0.0
 40
0.5
 50
359.999981
 51
90.000037
  0
ARC
  5
17DF7
  8
DANMEN
  6
CONTINUOUS
 10
206.300004
 20
124.5
 30
0.0
 40
0.5
 50
90.0
 51
179.999149
  0
ARC
  5
17DFA
  8
DANMEN
  6
CONTINUOUS
 10
208.037293
 20
128.5
 30
0.0
 40
0.5
 50
261.469234
 51
270.0
  0
LINE
  5
17DFD
  8
DANMEN
  6
CONTINUOUS
 10
205.164403
 20
138.360739
 30
0.0
 11
200.081606
 21
137.513606
 31
0.0
  0
LINE
  5
17DFE
  8
DANMEN
  6
CONTINUOUS
 10
204.050997
 20
140.0
 30
0.0
 11
199.850997
 21
139.3
 31
0.0
  0
LINE
  5
17DFF
  8
DANMEN
  6
CONTINUOUS
 10
195.000002
 20
137.5
 30
0.0
 11
199.917206
 21
137.5
 31
0.0
  0
LINE
  5
17E00
  8
DANMEN
  6
CONTINUOUS
 10
195.000002
 20
139.3
 30
0.0
 11
199.850997
 21
139.3
 31
0.0
  0
ARC
  5
17E05
  8
DANMEN
  6
CONTINUOUS
 10
199.917206
 20
138.5
 30
0.0
 40
1.0
 50
270.000018
 51
279.462343
  0
LINE
  5
17E07
  8
DANMEN
  6
CONTINUOUS
 10
204.050997
 20
140.0
 30
0.0
 11
205.500002
 21
140.0
 31
0.0
  0
LINE
  5
17E09
  8
DANMEN
  6
CONTINUOUS
 10
206.000002
 20
139.5
 30
0.0
 11
206.000002
 21
139.347137
 31
0.0
  0
ARC
  5
17E0C
  8
DANMEN
  6
CONTINUOUS
 10
205.000002
 20
139.347137
 30
0.0
 40
1.0
 50
279.462343
 51
0.000285
  0
ARC
  5
17E0E
  8
DANMEN
  6
CONTINUOUS
 10
205.500002
 20
139.5
 30
0.0
 40
0.5
 50
0.0
 51
89.999982
  0
LINE
  5
17E0F
  8
DANMEN
  6
CONTINUOUS
 10
186.649995
 20
157.350006
 30
0.0
 11
193.350008
 21
157.350006
 31
0.0
  0
LINE
  5
17E10
  8
DANMEN
  6
CONTINUOUS
 10
185.000002
 20
158.5
 30
0.0
 11
185.000002
 21
153.5
 31
0.0
  0
LINE
  5
17E11
  8
DANMEN
  6
CONTINUOUS
 10
185.500002
 20
153.0
 30
0.0
 11
186.149995
 21
153.0
 31
0.0
  0
LINE
  5
17E12
  8
DANMEN
  6
CONTINUOUS
 10
186.649995
 20
157.350006
 30
0.0
 11
186.649995
 21
153.5
 31
0.0
  0
ARC
  5
17E13
  8
DANMEN
  6
CONTINUOUS
 10
185.500002
 20
153.5
 30
0.0
 40
0.5
 50
180.000036
 51
269.999963
  0
ARC
  5
17E14
  8
DANMEN
  6
CONTINUOUS
 10
186.149995
 20
153.5
 30
0.0
 40
0.5
 50
270.000018
 51
359.999981
  0
ARC
  5
17E19
  8
DANMEN
  6
CONTINUOUS
 10
185.500002
 20
158.5
 30
0.0
 40
0.5
 50
89.999982
 51
180.000019
  0
LINE
  5
17E1A
  8
DANMEN
  6
CONTINUOUS
 10
207.963123
 20
151.994468
 30
0.0
 11
198.851661
 21
150.627749
 31
0.0
  0
LINE
  5
17E1B
  8
DANMEN
  6
CONTINUOUS
 10
208.145458
 20
150.050003
 30
0.0
 11
199.199998
 21
148.708184
 31
0.0
  0
LINE
  5
17E1D
  8
DANMEN
  6
CONTINUOUS
 10
199.199998
 20
147.5
 30
0.0
 11
199.199998
 21
148.708184
 31
0.0
  0
ARC
  5
17E1E
  8
DANMEN
  6
CONTINUOUS
 10
198.500002
 20
148.0
 30
0.0
 40
0.5
 50
179.999964
 51
270.000001
  0
LINE
  5
17E20
  8
DANMEN
  6
CONTINUOUS
 10
198.500002
 20
147.5
 30
0.0
 11
199.199998
 21
147.5
 31
0.0
  0
LINE
  5
17E21
  8
DANMEN
  6
CONTINUOUS
 10
198.000002
 20
148.0
 30
0.0
 11
198.000002
 21
149.638813
 31
0.0
  0
ARC
  5
17E23
  8
DANMEN
  6
CONTINUOUS
 10
199.000002
 20
149.638813
 30
0.0
 40
1.0
 50
98.530766
 51
180.0
  0
LINE
  5
17E26
  8
DANMEN
  6
CONTINUOUS
 10
195.000002
 20
157.9
 30
0.0
 11
197.000002
 21
157.9
 31
0.0
  0
LINE
  5
17E2A
  8
DANMEN
  6
CONTINUOUS
 10
197.000002
 20
157.9
 30
0.0
 11
197.000002
 21
157.350006
 31
0.0
  0
ARC
  5
17E2D
  8
DANMEN
  6
CONTINUOUS
 10
208.037293
 20
151.5
 30
0.0
 40
0.5
 50
90.0
 51
98.530766
  0
LINE
  5
17E30
  8
DANMEN
  6
CONTINUOUS
 10
89.65
 20
246.0
 30
0.0
 11
117.350006
 21
246.0
 31
0.0
  0
LINE
  5
17E31
  8
DANMEN
  6
CONTINUOUS
 10
106.5
 20
224.65
 30
0.0
 11
117.350006
 21
224.65
 31
0.0
  0
LINE
  5
17E32
  8
DANMEN
  6
CONTINUOUS
 10
106.0
 20
223.0
 30
0.0
 11
118.5
 21
223.0
 31
0.0
  0
LINE
  5
17E33
  8
DANMEN
  6
CONTINUOUS
 10
103.3
 20
247.65
 30
0.0
 11
117.350006
 21
247.65
 31
0.0
  0
LINE
  5
17E34
  8
DANMEN
  6
CONTINUOUS
 10
89.65
 20
246.0
 30
0.0
 11
89.65
 21
226.0
 31
0.0
  0
LINE
  5
17E35
  8
DANMEN
  6
CONTINUOUS
 10
88.0
 20
246.0
 30
0.0
 11
88.0
 21
231.0
 31
0.0
  0
ARC
  5
17E36
  8
DANMEN
  6
CONTINUOUS
 10
93.949991
 20
219.250092
 30
0.0
 40
1.5
 50
0.0
 51
89.999982
  0
LINE
  5
17E37
  8
DANMEN
  6
DASHED
 10
92.0
 20
223.0
 30
0.0
 11
104.0
 21
223.0
 31
0.0
  0
LINE
  5
17E38
  8
DANMEN
  6
DASHED
 10
88.5
 20
221.800003
 30
0.0
 11
107.5
 21
221.800003
 31
0.0
  0
LINE
  5
17E39
  8
DANMEN
  6
CONTINUOUS
 10
81.582434
 20
230.7
 30
0.0
 11
80.6
 21
227.517126
 31
0.0
  0
LINE
  5
17E3A
  8
DANMEN
  6
CONTINUOUS
 10
81.146178
 20
231.184441
 30
0.0
 11
80.0187
 21
227.69015
 31
0.0
  0
LINE
  5
17E3B
  8
DANMEN
  6
CONTINUOUS
 10
84.2
 20
228.0
 30
0.0
 11
84.2
 21
226.3
 31
0.0
  0
LINE
  5
17E3C
  8
DANMEN
  6
CONTINUOUS
 10
82.2
 20
230.7
 30
0.0
 11
82.2
 21
223.6
 31
0.0
  0
LINE
  5
17E3D
  8
DANMEN
  6
DASHED
 10
90.023824
 20
226.617136
 30
0.0
 11
91.423825
 21
229.917167
 31
0.0
  0
LINE
  5
17E3E
  8
DANMEN
  6
DASHED
 10
91.5
 20
227.600003
 30
0.0
 11
91.992312
 21
229.73252
 31
0.0
  0
LINE
  5
17E3F
  8
DANMEN
  6
CONTINUOUS
 10
88.000003
 20
224.0
 30
0.0
 11
88.000003
 21
230.2
 31
0.0
  0
LINE
  5
17E40
  8
DANMEN
  6
CONTINUOUS
 10
78.049998
 20
220.95
 30
0.0
 11
78.049998
 21
230.5
 31
0.0
  0
LINE
  5
17E41
  8
DANMEN
  6
CONTINUOUS
 10
79.999998
 20
219.5
 30
0.0
 11
79.999998
 21
230.5
 31
0.0
  0
LINE
  5
17E42
  8
DANMEN
  6
CONTINUOUS
 10
90.0
 20
223.0
 30
0.0
 11
83.5
 21
223.0
 31
0.0
  0
LINE
  5
17E43
  8
DANMEN
  6
CONTINUOUS
 10
83.800003
 20
224.0
 30
0.0
 11
88.0
 21
224.0
 31
0.0
  0
LINE
  5
17E44
  8
DANMEN
  6
CONTINUOUS
 10
80.0
 20
223.0
 30
0.0
 11
88.0
 21
223.0
 31
0.0
  0
ARC
  5
17E48
  8
DANMEN
  6
CONTINUOUS
 10
79.499998
 20
219.5
 30
0.0
 40
0.5
 50
270.0
 51
0.0
  0
LINE
  5
17E49
  8
DANMEN
  6
CONTINUOUS
 10
79.499998
 20
219.0
 30
0.0
 11
77.799998
 21
219.0
 31
0.0
  0
LINE
  5
17E4A
  8
DANMEN
  6
CONTINUOUS
 10
81.582434
 20
223.6
 30
0.0
 11
82.2
 21
223.6
 31
0.0
  0
LINE
  5
17E4B
  8
DANMEN
  6
CONTINUOUS
 10
81.327478
 20
223.0
 30
0.0
 11
83.0
 21
223.0
 31
0.0
  0
LINE
  5
17E4F
  8
DANMEN
  6
CONTINUOUS
 10
80.6
 20
226.782873
 30
0.0
 11
81.582434
 21
223.6
 31
0.0
  0
LINE
  5
17E50
  8
DANMEN
  6
CONTINUOUS
 10
80.6
 20
227.517126
 30
0.0
 11
80.6
 21
226.782873
 31
0.0
  0
ARC
  5
17E52
  8
DANMEN
  6
CONTINUOUS
 10
80.2
 20
226.694291
 30
0.0
 40
0.2
 50
180.0
 51
204.97391
  0
ARC
  5
17E54
  8
DANMEN
  6
CONTINUOUS
 10
80.2
 20
227.605709
 30
0.0
 40
0.2
 50
155.02609
 51
180.0
  0
ARC
  5
17E56
  8
DANMEN
  6
CONTINUOUS
 10
81.327478
 20
223.2
 30
0.0
 40
0.2
 50
204.97391
 51
270.0
  0
LINE
  5
17E57
  8
DANMEN
  6
CONTINUOUS
 10
80.0187
 20
226.60985
 30
0.0
 11
81.146178
 21
223.115559
 31
0.0
  0
LINE
  5
17E58
  8
DANMEN
  6
CONTINUOUS
 10
80.0
 20
227.605709
 30
0.0
 11
80.0
 21
226.694291
 31
0.0
  0
LINE
  5
17E61
  8
DANMEN
  6
CONTINUOUS
 10
83.0
 20
225.5
 30
0.0
 11
84.0
 21
225.5
 31
0.0
  0
LINE
  5
17E62
  8
DANMEN
  6
CONTINUOUS
 10
84.0
 20
225.5
 30
0.0
 11
84.0
 21
224.5
 31
0.0
  0
LINE
  5
17E63
  8
DANMEN
  6
CONTINUOUS
 10
84.2
 20
226.3
 30
0.0
 11
85.0
 21
225.5
 31
0.0
  0
LINE
  5
17E65
  8
DANMEN
  6
CONTINUOUS
 10
85.0
 20
225.5
 30
0.0
 11
85.0
 21
224.5
 31
0.0
  0
ARC
  5
17E67
  8
DANMEN
  6
CONTINUOUS
 10
84.2
 20
224.5
 30
0.0
 40
0.2
 50
180.000019
 51
270.000001
  0
ARC
  5
17E69
  8
DANMEN
  6
CONTINUOUS
 10
84.8
 20
224.5
 30
0.0
 40
0.2
 50
270.000018
 51
0.0
  0
LINE
  5
17E6B
  8
DANMEN
  6
CONTINUOUS
 10
83.0
 20
225.5
 30
0.0
 11
83.0
 21
223.0
 31
0.0
  0
LINE
  5
17E6C
  8
DANMEN
  6
CONTINUOUS
 10
84.2
 20
224.3
 30
0.0
 11
84.8
 21
224.3
 31
0.0
  0
ARC
  5
17E6E
  8
DANMEN
  6
CONTINUOUS
 10
83.5
 20
223.5
 30
0.0
 40
0.5
 50
179.999981
 51
270.000018
  0
ARC
  5
17E6F
  8
DANMEN
  6
CONTINUOUS
 10
83.5
 20
224.699997
 30
0.0
 40
0.5
 50
89.999999
 51
179.999981
  0
LINE
  5
17E70
  8
DANMEN
  6
CONTINUOUS
 10
83.800003
 20
224.0
 30
0.0
 11
83.800003
 21
225.199997
 31
0.0
  0
LINE
  5
17E71
  8
DANMEN
  6
CONTINUOUS
 10
83.5
 20
225.199997
 30
0.0
 11
83.800003
 21
225.199997
 31
0.0
  0
LINE
  5
17E72
  8
DANMEN
  6
CONTINUOUS
 10
83.0
 20
223.5
 30
0.0
 11
83.0
 21
224.699997
 31
0.0
  0
ARC
  5
17E75
  8
DANMEN
  6
CONTINUOUS
 10
91.449985
 20
222.250092
 30
0.0
 40
1.5
 50
179.999964
 51
270.000001
  0
ARC
  5
17E76
  8
DANMEN
  6
DASHED
 10
88.5
 20
222.300003
 30
0.0
 40
0.5
 50
180.0
 51
269.999982
  0
LINE
  5
17E78
  8
DANMEN
  6
CONTINUOUS
 10
91.449985
 20
220.750092
 30
0.0
 11
93.949991
 21
220.750092
 31
0.0
  0
LINE
  5
17E79
  8
DANMEN
  6
DASHED
 10
90.5
 20
223.0
 30
0.0
 11
88.0
 21
223.0
 31
0.0
  0
ARC
  5
17E7A
  8
DANMEN
  6
DASHED
 10
90.299999
 20
226.499972
 30
0.0
 40
0.3
 50
157.011468
 51
235.656024
  0
LINE
  5
17E7B
  8
DANMEN
  6
CONTINUOUS
 10
89.65
 20
226.0
 30
0.0
 11
90.5
 21
226.0
 31
0.0
  0
ARC
  5
17E7C
  8
DANMEN
  6
CONTINUOUS
 10
90.0
 20
223.5
 30
0.0
 40
0.5
 50
270.0
 51
0.0
  0
LINE
  5
17E7F
  8
DANMEN
  6
DASHED
 10
88.0
 20
223.0
 30
0.0
 11
88.0
 21
222.300003
 31
0.0
  0
LINE
  5
17E81
  8
DANMEN
  6
DASHED
 10
90.499991
 20
225.999972
 30
0.0
 11
90.130743
 21
226.252271
 31
0.0
  0
LINE
  5
17E82
  8
DANMEN
  6
DASHED
 10
90.5
 20
223.0
 30
0.0
 11
90.5
 21
225.999972
 31
0.0
  0
LINE
  5
17E83
  8
DANMEN
  6
DASHED
 10
91.5
 20
227.600003
 30
0.0
 11
91.5
 21
223.5
 31
0.0
  0
ARC
  5
17E84
  8
DANMEN
  6
DASHED
 10
92.0
 20
223.5
 30
0.0
 40
0.5
 50
180.0
 51
270.0
  0
LINE
  5
17E89
  8
DANMEN
  6
CONTINUOUS
 10
90.5
 20
226.0
 30
0.0
 11
90.5
 21
223.5
 31
0.0
  0
LINE
  5
17E8A
  8
DANMEN
  6
CONTINUOUS
 10
83.800003
 20
230.2
 30
0.0
 11
88.0
 21
230.2
 31
0.0
  0
LINE
  5
17E8B
  8
DANMEN
  6
CONTINUOUS
 10
83.5
 20
231.0
 30
0.0
 11
88.0
 21
231.0
 31
0.0
  0
LINE
  5
17E8C
  8
DANMEN
  6
CONTINUOUS
 10
81.582434
 20
230.7
 30
0.0
 11
82.2
 21
230.7
 31
0.0
  0
LINE
  5
17E8D
  8
DANMEN
  6
CONTINUOUS
 10
81.327478
 20
231.3
 30
0.0
 11
83.0
 21
231.3
 31
0.0
  0
ARC
  5
17E90
  8
DANMEN
  6
CONTINUOUS
 10
81.327478
 20
231.1
 30
0.0
 40
0.2
 50
90.0
 51
155.02609
  0
ARC
  5
17E92
  8
DANMEN
  6
CONTINUOUS
 10
78.549998
 20
230.5
 30
0.0
 40
0.5
 50
90.0
 51
180.0
  0
ARC
  5
17E94
  8
DANMEN
  6
CONTINUOUS
 10
79.499998
 20
230.5
 30
0.0
 40
0.5
 50
0.0
 51
90.0
  0
LINE
  5
17E95
  8
DANMEN
  6
CONTINUOUS
 10
79.499998
 20
231.0
 30
0.0
 11
78.549998
 21
231.0
 31
0.0
  0
LINE
  5
17E9B
  8
DANMEN
  6
CONTINUOUS
 10
83.0
 20
231.3
 30
0.0
 11
83.0
 21
228.8
 31
0.0
  0
LINE
  5
17E9D
  8
DANMEN
  6
CONTINUOUS
 10
83.0
 20
228.8
 30
0.0
 11
84.0
 21
228.8
 31
0.0
  0
LINE
  5
17E9E
  8
DANMEN
  6
CONTINUOUS
 10
85.0
 20
228.8
 30
0.0
 11
84.2
 21
228.0
 31
0.0
  0
ARC
  5
17EA0
  8
DANMEN
  6
CONTINUOUS
 10
84.2
 20
229.8
 30
0.0
 40
0.2
 50
89.999982
 51
180.000019
  0
ARC
  5
17EA2
  8
DANMEN
  6
CONTINUOUS
 10
84.8
 20
229.8
 30
0.0
 40
0.2
 50
0.0
 51
89.999982
  0
LINE
  5
17EA4
  8
DANMEN
  6
CONTINUOUS
 10
84.0
 20
229.8
 30
0.0
 11
84.0
 21
228.8
 31
0.0
  0
LINE
  5
17EA5
  8
DANMEN
  6
CONTINUOUS
 10
84.2
 20
230.0
 30
0.0
 11
84.8
 21
230.0
 31
0.0
  0
LINE
  5
17EA6
  8
DANMEN
  6
CONTINUOUS
 10
85.0
 20
229.8
 30
0.0
 11
85.0
 21
228.8
 31
0.0
  0
LINE
  5
17EA7
  8
DANMEN
  6
CONTINUOUS
 10
83.5
 20
228.800003
 30
0.0
 11
83.800003
 21
228.800003
 31
0.0
  0
ARC
  5
17EA8
  8
DANMEN
  6
CONTINUOUS
 10
83.5
 20
229.300003
 30
0.0
 40
0.5
 50
179.999981
 51
270.000018
  0
ARC
  5
17EA9
  8
DANMEN
  6
CONTINUOUS
 10
83.5
 20
230.5
 30
0.0
 40
0.5
 50
89.999999
 51
179.999981
  0
LINE
  5
17EAA
  8
DANMEN
  6
CONTINUOUS
 10
83.800003
 20
228.800003
 30
0.0
 11
83.800003
 21
230.2
 31
0.0
  0
LINE
  5
17EAB
  8
DANMEN
  6
CONTINUOUS
 10
83.0
 20
229.300003
 30
0.0
 11
83.0
 21
230.5
 31
0.0
  0
ARC
  5
17EAF
  8
DANMEN
  6
DASHED
 10
91.7
 20
229.800003
 30
0.0
 40
0.3
 50
347.000479
 51
157.011468
  0
LINE
  5
17EB0
  8
DANMEN
  6
DASHED
 10
104.5
 20
227.600003
 30
0.0
 11
104.007688
 21
229.73252
 31
0.0
  0
LINE
  5
17EB1
  8
DANMEN
  6
DASHED
 10
105.976176
 20
226.617136
 30
0.0
 11
104.576175
 21
229.917167
 31
0.0
  0
LINE
  5
17EB2
  8
DANMEN
  6
CONTINUOUS
 10
101.949994
 20
220.750092
 30
0.0
 11
104.449985
 21
220.750092
 31
0.0
  0
ARC
  5
17EB3
  8
DANMEN
  6
CONTINUOUS
 10
101.949994
 20
219.250092
 30
0.0
 40
1.5
 50
89.999982
 51
179.999964
  0
ARC
  5
17EB6
  8
DANMEN
  6
CONTINUOUS
 10
104.449985
 20
222.250092
 30
0.0
 40
1.5
 50
270.000018
 51
0.0
  0
ARC
  5
17EB7
  8
DANMEN
  6
DASHED
 10
107.5
 20
222.300003
 30
0.0
 40
0.5
 50
270.000018
 51
0.0
  0
LINE
  5
17EB9
  8
DANMEN
  6
DASHED
 10
105.5
 20
223.0
 30
0.0
 11
108.0
 21
223.0
 31
0.0
  0
LINE
  5
17EBA
  8
DANMEN
  6
DASHED
 10
105.5
 20
223.0
 30
0.0
 11
108.0
 21
223.0
 31
0.0
  0
LINE
  5
17EBB
  8
DANMEN
  6
CONTINUOUS
 10
106.206061
 20
225.642044
 30
0.0
 11
106.5
 21
224.65
 31
0.0
  0
ARC
  5
17EBE
  8
DANMEN
  6
DASHED
 10
104.0
 20
223.5
 30
0.0
 40
0.5
 50
270.0
 51
0.0
  0
LINE
  5
17EBF
  8
DANMEN
  6
DASHED
 10
104.5
 20
227.600003
 30
0.0
 11
104.5
 21
223.5
 31
0.0
  0
LINE
  5
17EC0
  8
DANMEN
  6
DASHED
 10
105.5
 20
223.0
 30
0.0
 11
105.5
 21
225.999972
 31
0.0
  0
LINE
  5
17EC1
  8
DANMEN
  6
DASHED
 10
105.500009
 20
225.999972
 30
0.0
 11
105.869257
 21
226.252271
 31
0.0
  0
ARC
  5
17EC2
  8
DANMEN
  6
DASHED
 10
105.700001
 20
226.499972
 30
0.0
 40
0.3
 50
304.343976
 51
22.988532
  0
ARC
  5
17EC7
  8
DANMEN
  6
CONTINUOUS
 10
106.0
 20
223.5
 30
0.0
 40
0.5
 50
180.0
 51
270.0
  0
LINE
  5
17EC8
  8
DANMEN
  6
CONTINUOUS
 10
105.5
 20
226.0
 30
0.0
 11
105.5
 21
223.5
 31
0.0
  0
LINE
  5
17EC9
  8
DANMEN
  6
CONTINUOUS
 10
105.726662
 20
226.0
 30
0.0
 11
105.5
 21
226.0
 31
0.0
  0
ARC
  5
17ECA
  8
DANMEN
  6
CONTINUOUS
 10
105.726662
 20
225.5
 30
0.0
 40
0.5
 50
16.504361
 51
90.0
  0
LINE
  5
17ECC
  8
DANMEN
  6
DASHED
 10
108.0
 20
223.0
 30
0.0
 11
108.0
 21
222.300003
 31
0.0
  0
LINE
  5
17ECD
  8
DANMEN
  6
CONTINUOUS
 10
95.449991
 20
230.0
 30
0.0
 11
100.449979
 21
230.0
 31
0.0
  0
ARC
  5
17ED0
  8
DANMEN
  6
DASHED
 10
104.3
 20
229.800003
 30
0.0
 40
0.3
 50
22.988532
 51
192.999521
  0
LINE
  5
17ED2
  8
DANMEN
  6
CONTINUOUS
 10
86.65
 20
247.65
 30
0.0
 11
94.7
 21
247.65
 31
0.0
  0
ARC
  5
17ED3
  8
DANMEN
  6
CONTINUOUS
 10
85.65
 20
250.600012
 30
0.0
 40
1.0
 50
0.0
 51
90.0
  0
LINE
  5
17ED4
  8
DANMEN
  6
CONTINUOUS
 10
84.0
 20
246.0
 30
0.0
 11
88.0
 21
246.0
 31
0.0
  0
LINE
  5
17ED8
  8
DANMEN
  6
CONTINUOUS
 10
85.0
 20
249.950012
 30
0.0
 11
85.0
 21
246.8
 31
0.0
  0
LINE
  5
17ED9
  8
DANMEN
  6
CONTINUOUS
 10
83.5
 20
246.8
 30
0.0
 11
85.0
 21
246.8
 31
0.0
  0
LINE
  5
17EDA
  8
DANMEN
  6
CONTINUOUS
 10
83.5
 20
246.8
 30
0.0
 11
83.5
 21
246.5
 31
0.0
  0
ARC
  5
17EDB
  8
DANMEN
  6
CONTINUOUS
 10
84.0
 20
246.5
 30
0.0
 40
0.5
 50
180.000019
 51
270.000001
  0
LINE
  5
17EDC
  8
DANMEN
  6
CONTINUOUS
 10
86.65
 20
250.600012
 30
0.0
 11
86.65
 21
247.65
 31
0.0
  0
LINE
  5
17EDE
  8
DANMEN
  6
CONTINUOUS
 10
100.1
 20
251.036932
 30
0.0
 11
100.1
 21
251.3
 31
0.0
  0
ARC
  5
17EDF
  8
DANMEN
  6
CONTINUOUS
 10
100.3
 20
250.030306
 30
0.0
 40
2.0
 50
0.0
 51
51.706523
  0
LINE
  5
17EE0
  8
DANMEN
  6
CONTINUOUS
 10
97.9
 20
251.036932
 30
0.0
 11
97.9
 21
251.3
 31
0.0
  0
ARC
  5
17EE1
  8
DANMEN
  6
CONTINUOUS
 10
97.7
 20
250.030306
 30
0.0
 40
2.0
 50
128.293195
 51
180.0
  0
ARC
  5
17EE2
  8
DANMEN
  6
CONTINUOUS
 10
103.3
 20
248.65
 30
0.0
 40
1.0
 50
180.0
 51
270.0
  0
LINE
  5
17EE3
  8
DANMEN
  6
CONTINUOUS
 10
99.8
 20
247.7
 30
0.0
 11
98.2
 21
247.7
 31
0.0
  0
ARC
  5
17EE4
  8
DANMEN
  6
CONTINUOUS
 10
98.2
 20
248.7
 30
0.0
 40
1.0
 50
180.0
 51
270.0
  0
LINE
  5
17EE5
  8
DANMEN
  6
CONTINUOUS
 10
97.2
 20
249.946061
 30
0.0
 11
97.2
 21
248.7
 31
0.0
  0
ARC
  5
17EE6
  8
DANMEN
  6
CONTINUOUS
 10
97.7
 20
251.036932
 30
0.0
 40
0.2
 50
294.624318
 51
0.0
  0
ARC
  5
17EE7
  8
DANMEN
  6
CONTINUOUS
 10
98.2
 20
249.946061
 30
0.0
 40
1.0
 50
114.624318
 51
180.0
  0
LINE
  5
17EE8
  8
DANMEN
  6
CONTINUOUS
 10
95.7
 20
250.030306
 30
0.0
 11
95.7
 21
248.65
 31
0.0
  0
ARC
  5
17EE9
  8
DANMEN
  6
CONTINUOUS
 10
94.7
 20
248.65
 30
0.0
 40
1.0
 50
270.0
 51
0.0
  0
LINE
  5
17EEA
  8
DANMEN
  6
CONTINUOUS
 10
100.8
 20
249.946061
 30
0.0
 11
100.8
 21
248.7
 31
0.0
  0
LINE
  5
17EEB
  8
DANMEN
  6
CONTINUOUS
 10
102.3
 20
250.030306
 30
0.0
 11
102.3
 21
248.65
 31
0.0
  0
ARC
  5
17EEC
  8
DANMEN
  6
CONTINUOUS
 10
99.8
 20
248.7
 30
0.0
 40
1.0
 50
270.0
 51
0.0
  0
ARC
  5
17EED
  8
DANMEN
  6
CONTINUOUS
 10
99.8
 20
249.946061
 30
0.0
 40
1.0
 50
0.0
 51
65.375682
  0
ARC
  5
17EEE
  8
DANMEN
  6
CONTINUOUS
 10
100.3
 20
251.036932
 30
0.0
 40
0.2
 50
180.0
 51
245.375682
  0
LINE
  5
17EEF
  8
DANMEN
  6
CONTINUOUS
 10
97.6
 20
251.600006
 30
0.0
 11
96.460628
 21
251.600006
 31
0.0
  0
ARC
  5
17EF0
  8
DANMEN
  6
CONTINUOUS
 10
97.6
 20
251.3
 30
0.0
 40
0.3
 50
0.0
 51
90.0
  0
ARC
  5
17EF1
  8
DANMEN
  6
CONTINUOUS
 10
100.4
 20
251.3
 30
0.0
 40
0.3
 50
90.0
 51
180.0
  0
LINE
  5
17EF2
  8
DANMEN
  6
CONTINUOUS
 10
101.539379
 20
251.6
 30
0.0
 11
100.4
 21
251.6
 31
0.0
  0
LINE
  5
17EF3
  8
DANMEN
  6
CONTINUOUS
 10
119.0
 20
257.5
 30
0.0
 11
119.0
 21
223.5
 31
0.0
  0
LINE
  5
17EF4
  8
DANMEN
  6
CONTINUOUS
 10
117.350006
 20
246.0
 30
0.0
 11
117.350006
 21
224.65
 31
0.0
  0
ARC
  5
17EF5
  8
DANMEN
  6
CONTINUOUS
 10
118.5
 20
223.5
 30
0.0
 40
0.5
 50
270.000018
 51
0.0
  0
LINE
  5
17EF8
  8
DANMEN
  6
CONTINUOUS
 10
115.0
 20
223.0
 30
0.0
 11
115.539155
 21
222.962299
 31
0.0
  0
ARC
  5
17EF9
  8
DANMEN
  6
CONTINUOUS
 10
115.504277
 20
222.463517
 30
0.0
 40
0.5
 50
0.83042
 51
86.0
  0
LINE
  5
17EFC
  8
DANMEN
  6
CONTINUOUS
 10
117.350006
 20
256.350006
 30
0.0
 11
117.350006
 21
247.65
 31
0.0
  0
ARC
  5
17EFD
  8
DANMEN
  6
CONTINUOUS
 10
118.5
 20
257.5
 30
0.0
 40
0.5
 50
0.0
 51
89.999982
  0
LINE
  5
17EFE
  8
DANMEN
  6
CONTINUOUS
 10
113.0
 20
257.5
 30
0.0
 11
113.0
 21
256.850006
 31
0.0
  0
LINE
  5
17EFF
  8
DANMEN
  6
CONTINUOUS
 10
113.5
 20
256.350006
 30
0.0
 11
117.350006
 21
256.350006
 31
0.0
  0
ARC
  5
17F00
  8
DANMEN
  6
CONTINUOUS
 10
113.5
 20
256.850006
 30
0.0
 40
0.5
 50
180.000019
 51
270.000001
  0
LINE
  5
17F01
  8
DANMEN
  6
CONTINUOUS
 10
113.5
 20
258.0
 30
0.0
 11
118.5
 21
258.0
 31
0.0
  0
ARC
  5
17F02
  8
DANMEN
  6
CONTINUOUS
 10
113.5
 20
257.5
 30
0.0
 40
0.5
 50
89.999982
 51
180.000019
  0
TEXT
  5
17F05
  8
SUNPO
  6
CONTINUOUS
 10
326.0
 20
123.166667
 30
0.0
 40
2.5
  1
8
 50
90.0
  7
MX_NOTE_STANDARD
  0
TEXT
  5
17F06
  8
SUNPO
  6
CONTINUOUS
 10
346.577611
 20
123.32
 30
0.0
 40
2.5
  1
2.5
 50
90.0
  7
MX_NOTE_STANDARD
  0
LINE
  5
17F07
  8
DANMEN
  6
CONTINUOUS
 10
385.0
 20
157.900003
 30
0.0
 11
385.0
 21
120.0
 31
0.0
  0
LINE
  5
17F08
  8
DANMEN
  6
CONTINUOUS
 10
386.649994
 20
157.350006
 30
0.0
 11
386.649994
 21
90.649994
 31
0.0
  0
LINE
  5
17F09
  8
DANMEN
  6
CONTINUOUS
 10
271.400003
 20
123.5
 30
0.0
 11
271.400003
 21
124.3
 31
0.0
  0
LINE
  5
17F0A
  8
DANMEN
  6
CONTINUOUS
 10
276.800003
 20
128.2
 30
0.0
 11
276.800003
 21
123.5
 31
0.0
  0
ARC
  5
17F0B
  8
DANMEN
  6
CONTINUOUS
 10
309.400003
 20
123.6
 30
0.0
 40
0.6
 50
180.0
 51
0.0
  0
LINE
  5
17F0C
  8
DANMEN
  6
CONTINUOUS
 10
300.000003
 20
128.0
 30
0.0
 11
300.000003
 21
123.5
 31
0.0
  0
LINE
  5
17F0D
  8
DANMEN
  6
CONTINUOUS
 10
294.500003
 20
124.8
 30
0.0
 11
288.714858
 21
123.087664
 31
0.0
  0
LINE
  5
17F0E
  8
DANMEN
  6
CONTINUOUS
 10
288.050006
 20
124.0
 30
0.0
 11
288.050006
 21
123.2
 31
0.0
  0
LINE
  5
17F0F
  8
DANMEN
  6
CONTINUOUS
 10
288.550006
 20
123.2
 30
0.0
 11
294.335151
 21
124.912336
 31
0.0
  0
LINE
  5
17F10
  8
DANMEN
  6
CONTINUOUS
 10
284.550003
 20
120.0
 30
0.0
 11
284.550003
 21
124.0
 31
0.0
  0
LINE
  5
17F11
  8
DANMEN
  6
CONTINUOUS
 10
283.050006
 20
120.0
 30
0.0
 11
283.050006
 21
124.5
 31
0.0
  0
LINE
  5
17F12
  8
DANMEN
  6
CONTINUOUS
 10
271.200003
 20
123.5
 30
0.0
 11
271.200003
 21
124.5
 31
0.0
  0
ARC
  5
17F13
  8
DANMEN
  6
CONTINUOUS
 10
276.250003
 20
123.0
 30
0.0
 40
0.5
 50
360.0
 51
89.999982
  0
ARC
  5
17F14
  8
DANMEN
  6
CONTINUOUS
 10
275.250003
 20
123.0
 30
0.0
 40
0.5
 50
89.999982
 51
180.000019
  0
ARC
  5
17F15
  8
DANMEN
  6
CONTINUOUS
 10
271.750003
 20
123.0
 30
0.0
 40
0.5
 50
360.0
 51
89.999982
  0
LINE
  5
17F16
  8
DANMEN
  6
CONTINUOUS
 10
270.000003
 20
81.5
 30
0.0
 11
270.000003
 21
124.5
 31
0.0
  0
LINE
  5
17F17
  8
SUNPO
  6
CONTINUOUS
 10
347.577611
 20
120.0
 30
0.0
 11
347.577611
 21
129.32
 31
0.0
  0
LINE
  5
17F18
  8
SUNPO
  6
CONTINUOUS
 10
327.0
 20
120.0
 30
0.0
 11
327.0
 21
128.0
 31
0.0
  0
LINE
  5
17F19
  8
SUNPO
  6
CONTINUOUS
 10
251.5
 20
89.0
 30
0.0
 11
251.5
 21
159.0
 31
0.0
  0
LINE
  5
17F1A
  8
SUNPO
  6
CONTINUOUS
 10
154.0
 20
141.0
 30
0.0
 11
154.0
 21
99.0
 31
0.0
  0
LINE
  5
17F1B
  8
SUNPO
  6
CONTINUOUS
 10
29.0
 20
59.0
 30
0.0
 11
29.0
 21
141.0
 31
0.0
  0
LINE
  5
17F1C
  8
SUNPO
  6
CONTINUOUS
 10
164.0
 20
149.593714
 30
0.0
 11
164.0
 21
99.0
 31
0.0
  0
LINE
  5
17F1E
  8
SUNPO
  6
CONTINUOUS
 10
307.68973
 20
40.0
 30
0.0
 11
370.0
 21
40.0
 31
0.0
  0
LINE
  5
17F1F
  8
SUNPO
  6
CONTINUOUS
 10
310.0
 20
52.0
 30
0.0
 11
370.0
 21
52.0
 31
0.0
  0
LINE
  5
17F20
  8
SUNPO
  6
CONTINUOUS
 10
64.0
 20
30.0
 30
0.0
 11
164.0
 21
30.0
 31
0.0
  0
LINE
  5
17F22
  8
DANMEN
  6
CONTINUOUS
 10
336.5
 20
120.0
 30
0.0
 11
360.0
 21
120.0
 31
0.0
  0
LINE
  5
17F23
  8
DANMEN
  6
CONTINUOUS
 10
336.5
 20
118.000015
 30
0.0
 11
360.0
 21
118.000015
 31
0.0
  0
LINE
  5
17F24
  8
DANMEN
  6
CONTINUOUS
 10
336.5
 20
102.000015
 30
0.0
 11
360.0
 21
102.000015
 31
0.0
  0
LINE
  5
17F25
  8
DANMEN
  6
CONTINUOUS
 10
336.5
 20
99.0
 30
0.0
 11
370.0
 21
99.0
 31
0.0
  0
LINE
  5
17F26
  8
DANMEN
  6
CONTINUOUS
 10
336.5
 20
90.65
 30
0.0
 11
370.0
 21
90.65
 31
0.0
  0
LINE
  5
17F27
  8
DANMEN
  6
CONTINUOUS
 10
367.0
 20
112.500009
 30
0.0
 11
336.5
 21
112.500009
 31
0.0
  0
LINE
  5
17F28
  8
DANMEN
  6
CONTINUOUS
 10
367.0
 20
107.500021
 30
0.0
 11
336.5
 21
107.500021
 31
0.0
  0
LINE
  5
17F29
  8
DANMEN
  6
CONTINUOUS
 10
367.0
 20
112.000009
 30
0.0
 11
336.5
 21
112.000009
 31
0.0
  0
LINE
  5
17F2A
  8
DANMEN
  6
CONTINUOUS
 10
367.0
 20
108.000021
 30
0.0
 11
336.5
 21
108.000021
 31
0.0
  0
LINE
  5
17F2B
  8
DANMEN
  6
CONTINUOUS
 10
336.5
 20
89.0
 30
0.0
 11
370.0
 21
89.0
 31
0.0
  0
LINE
  5
17F2C
  8
DANMEN
  6
CONTINUOUS
 10
274.600003
 20
123.5
 30
0.0
 11
276.800003
 21
123.5
 31
0.0
  0
LINE
  5
17F2D
  8
DANMEN
  6
CONTINUOUS
 10
275.600003
 20
121.5
 30
0.0
 11
274.600003
 21
121.5
 31
0.0
  0
LINE
  5
17F2E
  8
DANMEN
  6
CONTINUOUS
 10
275.400003
 20
122.5
 30
0.0
 11
274.600003
 21
122.5
 31
0.0
  0
LINE
  5
17F2F
  8
DANMEN
  6
CONTINUOUS
 10
283.050006
 20
94.949997
 30
0.0
 11
271.95
 21
94.949997
 31
0.0
  0
LINE
  5
17F30
  8
DANMEN
  6
CONTINUOUS
 10
283.050006
 20
118.050003
 30
0.0
 11
271.65
 21
118.050003
 31
0.0
  0
LINE
  5
17F31
  8
DANMEN
  6
CONTINUOUS
 10
275.750003
 20
120.0
 30
0.0
 11
271.200003
 21
120.0
 31
0.0
  0
LINE
  5
17F32
  8
DANMEN
  6
CONTINUOUS
 10
308.050003
 20
93.0
 30
0.0
 11
271.95
 21
93.0
 31
0.0
  0
LINE
  5
17F33
  8
DANMEN
  6
CONTINUOUS
 10
309.000003
 20
80.5
 30
0.0
 11
271.000003
 21
80.5
 31
0.0
  0
LINE
  5
17F34
  8
DANMEN
  6
CONTINUOUS
 10
308.050003
 20
83.0
 30
0.0
 11
271.95
 21
83.0
 31
0.0
  0
LINE
  5
17F35
  8
DANMEN
  6
CONTINUOUS
 10
210.0
 20
90.65
 30
0.0
 11
252.500001
 21
90.65
 31
0.0
  0
LINE
  5
17F36
  8
DANMEN
  6
CONTINUOUS
 10
210.0
 20
89.0
 30
0.0
 11
252.500001
 21
89.0
 31
0.0
  0
LINE
  5
17F37
  8
DANMEN
  6
CONTINUOUS
 10
210.000002
 20
90.149994
 30
0.0
 11
210.000002
 21
89.5
 31
0.0
  0
ARC
  5
17F38
  8
DANMEN
  6
CONTINUOUS
 10
209.500002
 20
90.149994
 30
0.0
 40
0.5
 50
359.999981
 51
89.999982
  0
ARC
  5
17F39
  8
DANMEN
  6
CONTINUOUS
 10
209.500002
 20
89.5
 30
0.0
 40
0.5
 50
270.000018
 51
359.999981
  0
LINE
  5
17F3C
  8
DANMEN
  6
CONTINUOUS
 10
271.95
 20
94.949997
 30
0.0
 11
271.95
 21
117.050003
 31
0.0
  0
LINE
  5
17F3D
  8
DANMEN
  6
CONTINUOUS
 10
255.500001
 20
100.0
 30
0.0
 11
270.0
 21
100.0
 31
0.0
  0
LINE
  5
17F3E
  8
DANMEN
  6
CONTINUOUS
 10
255.500001
 20
90.65
 30
0.0
 11
270.000003
 21
90.65
 31
0.0
  0
LINE
  5
17F3F
  8
DANMEN
  6
CONTINUOUS
 10
255.500001
 20
89.0
 30
0.0
 11
270.000003
 21
89.0
 31
0.0
  0
LINE
  5
17F40
  8
DANMEN
  6
CONTINUOUS
 10
271.95
 20
83.0
 30
0.0
 11
271.95
 21
93.0
 31
0.0
  0
ARC
  5
17F41
  8
DANMEN
  6
CONTINUOUS
 10
271.000003
 20
81.5
 30
0.0
 40
1.0
 50
180.0
 51
270.0
  0
LINE
  5
17F46
  8
DANMEN
  6
CONTINUOUS
 10
271.65
 20
117.050003
 30
0.0
 11
271.65
 21
118.050003
 31
0.0
  0
LINE
  5
17F47
  8
DANMEN
  6
CONTINUOUS
 10
271.95
 20
117.050003
 30
0.0
 11
271.65
 21
117.050003
 31
0.0
  0
LINE
  5
17F4D
  8
DANMEN
  6
CONTINUOUS
 10
272.900003
 20
122.0
 30
0.0
 11
272.400003
 21
121.5
 31
0.0
  0
LINE
  5
17F4E
  8
DANMEN
  6
CONTINUOUS
 10
274.600003
 20
121.5
 30
0.0
 11
274.100003
 21
122.0
 31
0.0
  0
LINE
  5
17F53
  8
DANMEN
  6
CONTINUOUS
 10
272.400003
 20
121.5
 30
0.0
 11
271.400003
 21
121.5
 31
0.0
  0
LINE
  5
17F55
  8
DANMEN
  6
CONTINUOUS
 10
272.900003
 20
122.0
 30
0.0
 11
274.100003
 21
122.0
 31
0.0
  0
LINE
  5
17F5C
  8
DANMEN
  6
CONTINUOUS
 10
271.400003
 20
123.5
 30
0.0
 11
272.400003
 21
123.5
 31
0.0
  0
LINE
  5
17F5D
  8
DANMEN
  6
CONTINUOUS
 10
274.600003
 20
123.5
 30
0.0
 11
274.600003
 21
122.5
 31
0.0
  0
ARC
  5
17F5E
  8
DANMEN
  6
CONTINUOUS
 10
271.600002
 20
122.3
 30
0.0
 40
0.2
 50
89.999982
 51
180.000019
  0
LINE
  5
17F5F
  8
DANMEN
  6
CONTINUOUS
 10
271.400003
 20
122.3
 30
0.0
 11
271.400003
 21
121.5
 31
0.0
  0
LINE
  5
17F60
  8
DANMEN
  6
CONTINUOUS
 10
271.600002
 20
122.5
 30
0.0
 11
272.400003
 21
122.5
 31
0.0
  0
LINE
  5
17F61
  8
DANMEN
  6
CONTINUOUS
 10
272.400003
 20
123.5
 30
0.0
 11
272.400003
 21
122.5
 31
0.0
  0
LINE
  5
17F62
  8
DANMEN
  6
CONTINUOUS
 10
271.200003
 20
120.0
 30
0.0
 11
271.200003
 21
122.699997
 31
0.0
  0
LINE
  5
17F63
  8
DANMEN
  6
CONTINUOUS
 10
271.750003
 20
123.5
 30
0.0
 11
271.200003
 21
123.5
 31
0.0
  0
LINE
  5
17F64
  8
DANMEN
  6
CONTINUOUS
 10
272.250003
 20
122.699997
 30
0.0
 11
271.200003
 21
122.699997
 31
0.0
  0
LINE
  5
17F65
  8
DANMEN
  6
CONTINUOUS
 10
272.250003
 20
122.699997
 30
0.0
 11
272.250003
 21
123.0
 31
0.0
  0
LINE
  5
17F6C
  8
DANMEN
  6
CONTINUOUS
 10
309.499999
 20
120.0
 30
0.0
 11
293.000003
 21
120.0
 31
0.0
  0
LINE
  5
17F6D
  8
DANMEN
  6
CONTINUOUS
 10
309.499999
 20
117.5
 30
0.0
 11
307.0
 21
117.5
 31
0.0
  0
ARC
  5
17F6E
  8
DANMEN
  6
CONTINUOUS
 10
307.500003
 20
102.0
 30
0.0
 40
0.5
 50
180.0
 51
270.0
  0
LINE
  5
17F6F
  8
DANMEN
  6
CONTINUOUS
 10
308.800006
 20
94.949997
 30
0.0
 11
285.000003
 21
94.949997
 31
0.0
  0
LINE
  5
17F70
  8
DANMEN
  6
CONTINUOUS
 10
309.500003
 20
102.5
 30
0.0
 11
307.000003
 21
102.5
 31
0.0
  0
LINE
  5
17F71
  8
DANMEN
  6
CONTINUOUS
 10
303.0
 20
111.999994
 30
0.0
 11
333.5
 21
111.999994
 31
0.0
  0
LINE
  5
17F72
  8
DANMEN
  6
CONTINUOUS
 10
303.0
 20
108.000006
 30
0.0
 11
333.5
 21
108.000006
 31
0.0
  0
LINE
  5
17F73
  8
DANMEN
  6
CONTINUOUS
 10
303.0
 20
112.499994
 30
0.0
 11
333.5
 21
112.499994
 31
0.0
  0
LINE
  5
17F74
  8
DANMEN
  6
CONTINUOUS
 10
303.0
 20
107.500006
 30
0.0
 11
333.5
 21
107.500006
 31
0.0
  0
LINE
  5
17F75
  8
DANMEN
  6
CONTINUOUS
 10
285.000003
 20
94.949997
 30
0.0
 11
285.000003
 21
113.299994
 31
0.0
  0
LINE
  5
17F76
  8
DANMEN
  6
CONTINUOUS
 10
283.050006
 20
94.949997
 30
0.0
 11
283.050006
 21
118.050003
 31
0.0
  0
LINE
  5
17F79
  8
DANMEN
  6
CONTINUOUS
 10
294.300003
 20
116.3
 30
0.0
 11
290.401086
 21
116.3
 31
0.0
  0
ARC
  5
17F7A
  8
DANMEN
  6
CONTINUOUS
 10
291.300003
 20
117.8
 30
0.0
 40
0.3
 50
199.471221
 51
270.0
  0
ARC
  5
17F7B
  8
DANMEN
  6
CONTINUOUS
 10
290.734317
 20
117.6
 30
0.0
 40
0.3
 50
19.471221
 51
90.0
  0
LINE
  5
17F7C
  8
DANMEN
  6
CONTINUOUS
 10
288.800003
 20
122.5
 30
0.0
 11
299.000003
 21
122.5
 31
0.0
  0
ARC
  5
17F7D
  8
DANMEN
  6
CONTINUOUS
 10
290.500003
 20
113.690092
 30
0.0
 40
0.5
 50
0.0
 51
78.690068
  0
ARC
  5
17F7E
  8
DANMEN
  6
CONTINUOUS
 10
291.300003
 20
117.8
 30
0.0
 40
0.3
 50
180.0
 51
270.0
  0
LINE
  5
17F7F
  8
DANMEN
  6
CONTINUOUS
 10
284.550003
 20
120.0
 30
0.0
 11
293.000003
 21
120.0
 31
0.0
  0
LINE
  5
17F80
  8
DANMEN
  6
CONTINUOUS
 10
285.000003
 20
103.299994
 30
0.0
 11
303.000003
 21
103.299994
 31
0.0
  0
LINE
  5
17F81
  8
DANMEN
  6
CONTINUOUS
 10
303.000003
 20
103.299994
 30
0.0
 11
285.000003
 21
113.299994
 31
0.0
  0
LINE
  5
17F82
  8
DANMEN
  6
CONTINUOUS
 10
285.000003
 20
113.299994
 30
0.0
 11
303.000003
 21
113.299994
 31
0.0
  0
LINE
  5
17F83
  8
DANMEN
  6
CONTINUOUS
 10
283.050006
 20
120.0
 30
0.0
 11
276.750003
 21
120.0
 31
0.0
  0
ARC
  5
17F86
  8
DANMEN
  6
CONTINUOUS
 10
275.400003
 20
122.3
 30
0.0
 40
0.2
 50
359.999981
 51
90.000037
  0
LINE
  5
17F87
  8
DANMEN
  6
CONTINUOUS
 10
275.600003
 20
122.3
 30
0.0
 11
275.600003
 21
121.5
 31
0.0
  0
LINE
  5
17F89
  8
DANMEN
  6
CONTINUOUS
 10
275.750003
 20
120.0
 30
0.0
 11
275.750003
 21
122.699997
 31
0.0
  0
LINE
  5
17F8A
  8
DANMEN
  6
CONTINUOUS
 10
275.750003
 20
122.699997
 30
0.0
 11
274.750003
 21
122.699997
 31
0.0
  0
LINE
  5
17F8B
  8
DANMEN
  6
CONTINUOUS
 10
274.750003
 20
122.699997
 30
0.0
 11
274.750003
 21
123.0
 31
0.0
  0
LINE
  5
17F8C
  8
DANMEN
  6
CONTINUOUS
 10
276.750003
 20
120.0
 30
0.0
 11
276.750003
 21
123.0
 31
0.0
  0
LINE
  5
17F8D
  8
DANMEN
  6
CONTINUOUS
 10
276.250003
 20
123.5
 30
0.0
 11
275.250003
 21
123.5
 31
0.0
  0
LINE
  5
17F93
  8
DANMEN
  6
CONTINUOUS
 10
290.413124
 20
117.801883
 30
0.0
 11
287.436097
 21
115.598292
 31
0.0
  0
LINE
  5
17F94
  8
DANMEN
  6
CONTINUOUS
 10
285.000003
 20
114.499994
 30
0.0
 11
285.000003
 21
118.05
 31
0.0
  0
LINE
  5
17F95
  8
DANMEN
  6
CONTINUOUS
 10
287.699108
 20
114.3
 30
0.0
 11
286.499108
 21
114.3
 31
0.0
  0
LINE
  5
17F96
  8
DANMEN
  6
CONTINUOUS
 10
286.653532
 20
116.184794
 30
0.0
 11
287.010978
 21
115.668627
 31
0.0
  0
LINE
  5
17F97
  8
DANMEN
  6
CONTINUOUS
 10
289.000003
 20
114.499994
 30
0.0
 11
285.000003
 21
114.499994
 31
0.0
  0
LINE
  5
17F98
  8
DANMEN
  6
CONTINUOUS
 10
291.000003
 20
113.299994
 30
0.0
 11
285.000003
 21
113.299994
 31
0.0
  0
LINE
  5
17F99
  8
DANMEN
  6
CONTINUOUS
 10
285.588049
 20
115.615608
 30
0.0
 11
286.499108
 21
114.3
 31
0.0
  0
LINE
  5
17F9A
  8
DANMEN
  6
CONTINUOUS
 10
285.499108
 20
115.900266
 30
0.0
 11
285.499108
 21
115.900136
 31
0.0
  0
LINE
  5
17F9B
  8
DANMEN
  6
CONTINUOUS
 10
285.999108
 20
116.400136
 30
0.0
 11
286.242473
 21
116.400136
 31
0.0
  0
ARC
  5
17F9C
  8
DANMEN
  6
CONTINUOUS
 10
285.999108
 20
115.900266
 30
0.0
 40
0.5
 50
180.0
 51
214.702622
  0
ARC
  5
17F9D
  8
DANMEN
  6
CONTINUOUS
 10
285.999108
 20
115.900136
 30
0.0
 40
0.5
 50
90.0
 51
180.0
  0
ARC
  5
17F9E
  8
DANMEN
  6
CONTINUOUS
 10
286.242473
 20
115.900136
 30
0.0
 40
0.5
 50
34.702622
 51
90.0
  0
LINE
  5
17FA0
  8
DANMEN
  6
CONTINUOUS
 10
290.401086
 20
116.3
 30
0.0
 11
287.699108
 21
114.3
 31
0.0
  0
ARC
  5
17FA1
  8
DANMEN
  6
CONTINUOUS
 10
287.257613
 20
115.839422
 30
0.0
 40
0.3
 50
214.702622
 51
306.508792
  0
LINE
  5
17FA3
  8
DANMEN
  6
CONTINUOUS
 10
291.000003
 20
113.690092
 30
0.0
 11
291.000003
 21
113.299994
 31
0.0
  0
LINE
  5
17FA4
  8
DANMEN
  6
CONTINUOUS
 10
289.000003
 20
114.499994
 30
0.0
 11
290.598061
 21
114.180382
 31
0.0
  0
LINE
  5
17FA9
  8
DANMEN
  6
CONTINUOUS
 10
291.000003
 20
118.05
 30
0.0
 11
285.000003
 21
118.05
 31
0.0
  0
LINE
  5
17FAD
  8
DANMEN
  6
CONTINUOUS
 10
290.734317
 20
117.9
 30
0.0
 11
290.710597
 21
117.9
 31
0.0
  0
ARC
  5
17FAE
  8
DANMEN
  6
CONTINUOUS
 10
290.710597
 20
117.4
 30
0.0
 40
0.5
 50
90.0
 51
126.508792
  0
ARC
  5
17FB2
  8
DANMEN
  6
CONTINUOUS
 10
288.800003
 20
122.8
 30
0.0
 40
0.3
 50
106.488148
 51
270.0
  0
LINE
  5
17FB3
  8
DANMEN
  6
CONTINUOUS
 10
291.000003
 20
117.8
 30
0.0
 11
291.000003
 21
118.05
 31
0.0
  0
LINE
  5
17FB5
  8
DANMEN
  6
CONTINUOUS
 10
288.550006
 20
123.2
 30
0.0
 11
288.050006
 21
123.2
 31
0.0
  0
LINE
  5
17FB8
  8
DANMEN
  6
CONTINUOUS
 10
303.000003
 20
113.299994
 30
0.0
 11
303.000003
 21
103.299994
 31
0.0
  0
LINE
  5
17FB9
  8
DANMEN
  6
CONTINUOUS
 10
307.000003
 20
102.0
 30
0.0
 11
307.000003
 21
102.5
 31
0.0
  0
LINE
  5
17FBC
  8
DANMEN
  6
CONTINUOUS
 10
303.0
 20
111.549994
 30
0.0
 11
303.0
 21
108.450006
 31
0.0
  0
LINE
  5
17FBD
  8
DANMEN
  6
CONTINUOUS
 10
305.0
 20
118.05
 30
0.0
 11
295.300003
 21
118.05
 31
0.0
  0
ARC
  5
17FBE
  8
DANMEN
  6
CONTINUOUS
 10
299.000003
 20
123.5
 30
0.0
 40
1.0
 50
270.000018
 51
0.0
  0
ARC
  5
17FBF
  8
DANMEN
  6
CONTINUOUS
 10
295.300003
 20
117.55
 30
0.0
 40
0.5
 50
90.0
 51
180.0
  0
LINE
  5
17FC0
  8
DANMEN
  6
CONTINUOUS
 10
293.300003
 20
118.5
 30
0.0
 11
293.300003
 21
117.5
 31
0.0
  0
LINE
  5
17FC1
  8
DANMEN
  6
CONTINUOUS
 10
292.191149
 20
117.605573
 30
0.0
 11
292.745426
 21
117.856576
 31
0.0
  0
LINE
  5
17FC2
  8
DANMEN
  6
CONTINUOUS
 10
293.300003
 20
117.5
 30
0.0
 11
291.300003
 21
117.5
 31
0.0
  0
LINE
  5
17FC3
  8
DANMEN
  6
CONTINUOUS
 10
294.800003
 20
117.55
 30
0.0
 11
294.800003
 21
116.8
 31
0.0
  0
ARC
  5
17FC4
  8
DANMEN
  6
CONTINUOUS
 10
294.300003
 20
116.8
 30
0.0
 40
0.5
 50
270.0
 51
0.0
  0
ARC
  5
17FC5
  8
DANMEN
  6
CONTINUOUS
 10
291.743935
 20
118.5
 30
0.0
 40
1.0
 50
270.0
 51
296.565051
  0
LINE
  5
17FC6
  8
DANMEN
  6
CONTINUOUS
 10
291.300003
 20
117.5
 30
0.0
 11
291.743935
 21
117.5
 31
0.0
  0
LINE
  5
17FC8
  8
DANMEN
  6
CONTINUOUS
 10
293.000003
 20
120.0
 30
0.0
 11
293.000003
 21
118.5
 31
0.0
  0
LINE
  5
17FC9
  8
DANMEN
  6
CONTINUOUS
 10
293.300003
 20
118.5
 30
0.0
 11
293.000003
 21
118.5
 31
0.0
  0
LINE
  5
17FCA
  8
DANMEN
  6
CONTINUOUS
 10
293.000003
 20
120.0
 30
0.0
 11
293.000003
 21
118.292199
 31
0.0
  0
ARC
  5
17FCB
  8
DANMEN
  6
CONTINUOUS
 10
292.500003
 20
118.292199
 30
0.0
 40
0.5
 50
299.396173
 51
0.0
  0
ARC
  5
17FD1
  8
DANMEN
  6
CONTINUOUS
 10
306.5
 20
117.55
 30
0.0
 40
0.5
 50
90.0
 51
180.0
  0
LINE
  5
17FD2
  8
DANMEN
  6
CONTINUOUS
 10
307.0
 20
118.05
 30
0.0
 11
307.0
 21
117.5
 31
0.0
  0
LINE
  5
17FD3
  8
DANMEN
  6
CONTINUOUS
 10
305.0
 20
118.05
 30
0.0
 11
305.0
 21
117.5
 31
0.0
  0
LINE
  5
17FD4
  8
DANMEN
  6
CONTINUOUS
 10
306.0
 20
117.5
 30
0.0
 11
305.0
 21
117.5
 31
0.0
  0
LINE
  5
17FD5
  8
DANMEN
  6
CONTINUOUS
 10
306.0
 20
117.55
 30
0.0
 11
306.0
 21
117.5
 31
0.0
  0
LINE
  5
17FD9
  8
DANMEN
  6
CONTINUOUS
 10
307.0
 20
118.05
 30
0.0
 11
306.5
 21
118.05
 31
0.0
  0
LINE
  5
17FDA
  8
DANMEN
  6
CONTINUOUS
 10
310.000003
 20
81.5
 30
0.0
 11
310.000003
 21
102.0
 31
0.0
  0
LINE
  5
17FDB
  8
DANMEN
  6
CONTINUOUS
 10
308.050003
 20
96.949997
 30
0.0
 11
308.050003
 21
101.5
 31
0.0
  0
LINE
  5
17FDC
  8
DANMEN
  6
CONTINUOUS
 10
333.5
 20
99.0
 30
0.0
 11
310.0
 21
99.0
 31
0.0
  0
LINE
  5
17FDD
  8
DANMEN
  6
CONTINUOUS
 10
310.000003
 20
90.65
 30
0.0
 11
333.5
 21
90.65
 31
0.0
  0
LINE
  5
17FDE
  8
DANMEN
  6
CONTINUOUS
 10
310.000003
 20
89.0
 30
0.0
 11
333.5
 21
89.0
 31
0.0
  0
LINE
  5
17FDF
  8
DANMEN
  6
CONTINUOUS
 10
308.050003
 20
83.0
 30
0.0
 11
308.050003
 21
93.0
 31
0.0
  0
ARC
  5
17FE0
  8
DANMEN
  6
CONTINUOUS
 10
309.000003
 20
81.5
 30
0.0
 40
1.0
 50
270.0
 51
0.0
  0
LINE
  5
17FE4
  8
DANMEN
  6
CONTINUOUS
 10
308.800006
 20
94.949997
 30
0.0
 11
308.800006
 21
96.949997
 31
0.0
  0
LINE
  5
17FE5
  8
DANMEN
  6
CONTINUOUS
 10
308.800006
 20
96.949997
 30
0.0
 11
308.050003
 21
96.949997
 31
0.0
  0
LINE
  5
17FE9
  8
DANMEN
  6
CONTINUOUS
 10
333.5
 20
120.0
 30
0.0
 11
310.0
 21
120.0
 31
0.0
  0
LINE
  5
17FEA
  8
DANMEN
  6
CONTINUOUS
 10
333.5
 20
118.0
 30
0.0
 11
310.0
 21
118.0
 31
0.0
  0
LINE
  5
17FEB
  8
DANMEN
  6
CONTINUOUS
 10
333.5
 20
102.0
 30
0.0
 11
310.0
 21
102.0
 31
0.0
  0
ARC
  5
17FEC
  8
DANMEN
  6
CONTINUOUS
 10
314.0
 20
106.000006
 30
0.0
 40
1.5
 50
90.0
 51
179.999982
  0
ARC
  5
17FED
  8
DANMEN
  6
CONTINUOUS
 10
311.0
 20
103.5
 30
0.0
 40
1.5
 50
269.999964
 51
0.000001
  0
LINE
  5
17FEE
  8
DANMEN
  6
CONTINUOUS
 10
308.050003
 20
101.5
 30
0.0
 11
307.500003
 21
101.5
 31
0.0
  0
ARC
  5
17FEF
  8
DANMEN
  6
CONTINUOUS
 10
309.500003
 20
102.0
 30
0.0
 40
0.5
 50
0.000019
 51
89.999982
  0
LINE
  5
17FF2
  8
DANMEN
  6
CONTINUOUS
 10
312.5
 20
103.5
 30
0.0
 11
312.5
 21
106.000006
 31
0.0
  0
ARC
  5
17FF4
  8
DANMEN
  6
CONTINUOUS
 10
311.0
 20
116.5
 30
0.0
 40
1.5
 50
0.000018
 51
90.0
  0
ARC
  5
17FF5
  8
DANMEN
  6
CONTINUOUS
 10
309.5
 20
118.0
 30
0.0
 40
0.5
 50
270.0
 51
0.0
  0
ARC
  5
17FF6
  8
DANMEN
  6
CONTINUOUS
 10
314.0
 20
114.000009
 30
0.0
 40
1.5
 50
179.999982
 51
269.999964
  0
LINE
  5
17FF7
  8
DANMEN
  6
CONTINUOUS
 10
312.5
 20
114.000009
 30
0.0
 11
312.5
 21
116.5
 31
0.0
  0
ARC
  5
17FF8
  8
DANMEN
  6
CONTINUOUS
 10
309.5
 20
119.5
 30
0.0
 40
0.5
 50
0.000091
 51
90.000128
  0
LINE
  5
17FF9
  8
DANMEN
  6
CONTINUOUS
 10
310.0
 20
119.5
 30
0.0
 11
310.0
 21
118.0
 31
0.0
  0
LINE
  5
17FFC
  8
SUNPO
  6
CONTINUOUS
 10
49.0
 20
37.5
 30
0.0
 11
49.0
 21
20.0
 31
0.0
  0
LINE
  5
17FFD
  8
SUNPO
  6
CONTINUOUS
 10
29.0
 20
30.0
 30
0.0
 11
29.0
 21
39.0
 31
0.0
  0
LINE
  5
17FFE
  8
SUNPO
  6
CONTINUOUS
 10
59.5
 20
30.0
 30
0.0
 11
29.0
 21
30.0
 31
0.0
  0
ARC
  5
17FFF
  8
SUNPO
  6
BYBLOCK
 10
29.0
 20
30.0
 30
0.0
 40
0.145
 50
270.0
 51
90.0
  0
ARC
  5
18000
  8
SUNPO
  6
BYBLOCK
 10
29.0
 20
30.0
 30
0.0
 40
0.145
 50
90.0
 51
270.0
  0
TEXT
  5
18001
  8
SUNPO
  6
CONTINUOUS
 10
53.333333
 20
21.0
 30
0.0
 40
2.5
  1
12
  7
MX_NOTE_STANDARD
  0
LINE
  5
18002
  8
SUNPO
  6
CONTINUOUS
 10
49.0
 20
20.0
 30
0.0
 11
61.0
 21
20.0
 31
0.0
  0
ARC
  5
18003
  8
SUNPO
  6
BYBLOCK
 10
49.0
 20
20.0
 30
0.0
 40
0.145
 50
180.0
 51
0.0
  0
ARC
  5
18004
  8
SUNPO
  6
BYBLOCK
 10
49.0
 20
20.0
 30
0.0
 40
0.145
 50
0.0
 51
180.0
  0
LINE
  5
18005
  8
SUNPO
  6
CONTINUOUS
 10
61.0
 20
28.5
 30
0.0
 11
61.0
 21
20.0
 31
0.0
  0
ARC
  5
18006
  8
SUNPO
  6
BYBLOCK
 10
61.0
 20
20.0
 30
0.0
 40
0.145
 50
0.0
 51
180.0
  0
ARC
  5
18007
  8
SUNPO
  6
BYBLOCK
 10
61.0
 20
20.0
 30
0.0
 40
0.145
 50
180.0
 51
0.0
  0
LINE
  5
18008
  8
DANMEN
  6
CONTINUOUS
 10
365.000003
 20
118.050001
 30
0.0
 11
374.7
 21
118.05
 31
0.0
  0
LINE
  5
18009
  8
DANMEN
  6
CONTINUOUS
 10
360.500004
 20
120.000001
 30
0.0
 11
377.0
 21
120.0
 31
0.0
  0
LINE
  5
1800A
  8
DANMEN
  6
CONTINUOUS
 10
371.65
 20
90.65
 30
0.0
 11
383.0
 21
90.65
 31
0.0
  0
LINE
  5
1800B
  8
DANMEN
  6
CONTINUOUS
 10
370.5
 20
89.0
 30
0.0
 11
394.5
 21
89.0
 31
0.0
  0
LINE
  5
1800C
  8
DANMEN
  6
CONTINUOUS
 10
371.65
 20
101.15
 30
0.0
 11
371.65
 21
90.65
 31
0.0
  0
ARC
  5
1800D
  8
DANMEN
  6
CONTINUOUS
 10
360.5
 20
100.5
 30
0.0
 40
0.5
 50
180.0
 51
269.999982
  0
LINE
  5
1800E
  8
DANMEN
  6
CONTINUOUS
 10
360.5
 20
100.0
 30
0.0
 11
370.0
 21
100.0
 31
0.0
  0
LINE
  5
1800F
  8
DANMEN
  6
CONTINUOUS
 10
370.0
 20
100.0
 30
0.0
 11
370.0
 21
89.5
 31
0.0
  0
ARC
  5
18010
  8
DANMEN
  6
CONTINUOUS
 10
370.5
 20
89.5
 30
0.0
 40
0.5
 50
180.0
 51
270.0
  0
ARC
  5
18011
  8
DANMEN
  6
CONTINUOUS
 10
356.000092
 20
114.000009
 30
0.0
 40
1.5
 50
270.0
 51
359.999982
  0
ARC
  5
18012
  8
DANMEN
  6
CONTINUOUS
 10
356.000092
 20
106.000006
 30
0.0
 40
1.5
 50
359.999982
 51
89.999964
  0
LINE
  5
18013
  8
DANMEN
  6
CONTINUOUS
 10
367.0
 20
112.500009
 30
0.0
 11
367.0
 21
107.500021
 31
0.0
  0
LINE
  5
18014
  8
DANMEN
  6
CONTINUOUS
 10
363.0
 20
101.65
 30
0.0
 11
371.15
 21
101.65
 31
0.0
  0
LINE
  5
18015
  8
DANMEN
  6
CONTINUOUS
 10
360.5
 20
102.5
 30
0.0
 11
363.0
 21
102.5
 31
0.0
  0
LINE
  5
18016
  8
DANMEN
  6
CONTINUOUS
 10
357.500092
 20
106.000006
 30
0.0
 11
357.500092
 21
103.500015
 31
0.0
  0
ARC
  5
18017
  8
DANMEN
  6
CONTINUOUS
 10
359.000092
 20
103.500015
 30
0.0
 40
1.5
 50
180.000018
 51
270.0
  0
LINE
  5
18018
  8
DANMEN
  6
CONTINUOUS
 10
360.0
 20
102.0
 30
0.0
 11
360.0
 21
100.5
 31
0.0
  0
ARC
  5
18019
  8
DANMEN
  6
CONTINUOUS
 10
360.5
 20
102.0
 30
0.0
 40
0.5
 50
89.999963
 51
180.000019
  0
LINE
  5
1801A
  8
DANMEN
  6
CONTINUOUS
 10
363.0
 20
102.5
 30
0.0
 11
363.0
 21
101.65
 31
0.0
  0
ARC
  5
1801C
  8
DANMEN
  6
CONTINUOUS
 10
371.15
 20
101.15
 30
0.0
 40
0.5
 50
0.0
 51
90.0
  0
LINE
  5
1801D
  8
DANMEN
  6
CONTINUOUS
 10
364.000003
 20
117.5
 30
0.0
 11
365.000003
 21
117.5
 31
0.0
  0
ARC
  5
1801E
  8
DANMEN
  6
CONTINUOUS
 10
359.000092
 20
116.500015
 30
0.0
 40
1.5
 50
89.999964
 51
180.000001
  0
ARC
  5
1801F
  8
DANMEN
  6
CONTINUOUS
 10
363.500003
 20
117.550001
 30
0.0
 40
0.5
 50
359.999998
 51
89.999998
  0
LINE
  5
18020
  8
DANMEN
  6
CONTINUOUS
 10
363.000003
 20
118.050001
 30
0.0
 11
363.000003
 21
117.5
 31
0.0
  0
ARC
  5
18021
  8
DANMEN
  6
CONTINUOUS
 10
360.500003
 20
118.000001
 30
0.0
 40
0.5
 50
179.999998
 51
269.999998
  0
LINE
  5
18022
  8
DANMEN
  6
CONTINUOUS
 10
360.500004
 20
117.500001
 30
0.0
 11
363.000003
 21
117.5
 31
0.0
  0
LINE
  5
18023
  8
DANMEN
  6
CONTINUOUS
 10
357.500092
 20
116.500015
 30
0.0
 11
357.500092
 21
114.000009
 31
0.0
  0
LINE
  5
18024
  8
DANMEN
  6
CONTINUOUS
 10
364.000003
 20
117.550001
 30
0.0
 11
364.000003
 21
117.5
 31
0.0
  0
ARC
  5
18025
  8
DANMEN
  6
CONTINUOUS
 10
360.500003
 20
119.500001
 30
0.0
 40
0.5
 50
89.99987
 51
179.999907
  0
LINE
  5
18026
  8
DANMEN
  6
CONTINUOUS
 10
360.000003
 20
119.500001
 30
0.0
 11
360.000003
 21
118.000001
 31
0.0
  0
LINE
  5
18027
  8
DANMEN
  6
CONTINUOUS
 10
363.000003
 20
118.050001
 30
0.0
 11
363.500003
 21
118.050001
 31
0.0
  0
LINE
  5
18028
  8
DANMEN
  6
CONTINUOUS
 10
365.000003
 20
118.050001
 30
0.0
 11
365.000003
 21
117.5
 31
0.0
  0
LINE
  5
18029
  8
DANMEN
  6
CONTINUOUS
 10
385.0
 20
90.099997
 30
0.0
 11
385.0
 21
113.299994
 31
0.0
  0
LINE
  5
1802A
  8
DANMEN
  6
CONTINUOUS
 10
393.350006
 20
90.649994
 30
0.0
 11
386.649994
 21
90.649994
 31
0.0
  0
LINE
  5
1802B
  8
DANMEN
  6
CONTINUOUS
 10
383.0
 20
90.099997
 30
0.0
 11
383.0
 21
90.649994
 31
0.0
  0
LINE
  5
1802C
  8
DANMEN
  6
CONTINUOUS
 10
385.0
 20
90.099997
 30
0.0
 11
383.0
 21
90.099997
 31
0.0
  0
LINE
  5
1802D
  8
DANMEN
  6
CONTINUOUS
 10
395.0
 20
94.5
 30
0.0
 11
395.0
 21
89.5
 31
0.0
  0
LINE
  5
1802E
  8
DANMEN
  6
CONTINUOUS
 10
393.350006
 20
94.5
 30
0.0
 11
393.350006
 21
90.649994
 31
0.0
  0
ARC
  5
1802F
  8
DANMEN
  6
CONTINUOUS
 10
394.5
 20
89.5
 30
0.0
 40
0.5
 50
270.000018
 51
359.999981
  0
ARC
  5
18030
  8
DANMEN
  6
CONTINUOUS
 10
393.850006
 20
94.5
 30
0.0
 40
0.5
 50
90.000037
 51
180.000019
  0
LINE
  5
18031
  8
DANMEN
  6
CONTINUOUS
 10
394.5
 20
95.0
 30
0.0
 11
393.850006
 21
95.0
 31
0.0
  0
ARC
  5
18032
  8
DANMEN
  6
CONTINUOUS
 10
394.5
 20
94.5
 30
0.0
 40
0.5
 50
359.999981
 51
90.000037
  0
LINE
  5
18033
  8
DANMEN
  6
CONTINUOUS
 10
379.598917
 20
116.3
 30
0.0
 11
382.300894
 21
114.3
 31
0.0
  0
LINE
  5
18034
  8
DANMEN
  6
CONTINUOUS
 10
379.586879
 20
117.801883
 30
0.0
 11
382.563905
 21
115.598292
 31
0.0
  0
LINE
  5
18035
  8
DANMEN
  6
CONTINUOUS
 10
385.0
 20
120.0
 30
0.0
 11
377.0
 21
120.0
 31
0.0
  0
LINE
  5
18036
  8
DANMEN
  6
CONTINUOUS
 10
381.0
 20
114.499994
 30
0.0
 11
385.0
 21
114.499994
 31
0.0
  0
LINE
  5
18037
  8
DANMEN
  6
CONTINUOUS
 10
379.0
 20
118.35
 30
0.0
 11
385.0
 21
118.35
 31
0.0
  0
LINE
  5
18038
  8
DANMEN
  6
CONTINUOUS
 10
379.0
 20
113.299994
 30
0.0
 11
385.0
 21
113.299994
 31
0.0
  0
ARC
  5
18039
  8
DANMEN
  6
CONTINUOUS
 10
374.7
 20
117.55
 30
0.0
 40
0.5
 50
359.999998
 51
89.999998
  0
LINE
  5
1803A
  8
DANMEN
  6
CONTINUOUS
 10
376.7
 20
118.5
 30
0.0
 11
376.7
 21
117.5
 31
0.0
  0
ARC
  5
1803B
  8
DANMEN
  6
CONTINUOUS
 10
378.7
 20
117.8
 30
0.0
 40
0.3
 50
269.999998
 51
340.528778
  0
LINE
  5
1803C
  8
DANMEN
  6
CONTINUOUS
 10
377.808854
 20
117.605573
 30
0.0
 11
377.254577
 21
117.856576
 31
0.0
  0
ARC
  5
1803D
  8
DANMEN
  6
CONTINUOUS
 10
378.7
 20
117.8
 30
0.0
 40
0.3
 50
270.0
 51
0.0
  0
LINE
  5
1803E
  8
DANMEN
  6
CONTINUOUS
 10
376.7
 20
117.5
 30
0.0
 11
378.7
 21
117.5
 31
0.0
  0
LINE
  5
1803F
  8
DANMEN
  6
CONTINUOUS
 10
375.7
 20
116.3
 30
0.0
 11
379.598917
 21
116.3
 31
0.0
  0
LINE
  5
18040
  8
DANMEN
  6
CONTINUOUS
 10
375.2
 20
117.55
 30
0.0
 11
375.2
 21
116.8
 31
0.0
  0
ARC
  5
18041
  8
DANMEN
  6
CONTINUOUS
 10
375.7
 20
116.8
 30
0.0
 40
0.5
 50
179.999998
 51
269.999998
  0
LINE
  5
18043
  8
DANMEN
  6
CONTINUOUS
 10
378.7
 20
117.5
 30
0.0
 11
378.256068
 21
117.5
 31
0.0
  0
ARC
  5
18044
  8
DANMEN
  6
CONTINUOUS
 10
378.256068
 20
118.5
 30
0.0
 40
1.0
 50
243.434949
 51
270.0
  0
LINE
  5
18045
  8
DANMEN
  6
CONTINUOUS
 10
381.0
 20
114.499994
 30
0.0
 11
379.401942
 21
114.180382
 31
0.0
  0
LINE
  5
18046
  8
DANMEN
  6
CONTINUOUS
 10
379.0
 20
113.690092
 30
0.0
 11
379.0
 21
113.299994
 31
0.0
  0
ARC
  5
18047
  8
DANMEN
  6
CONTINUOUS
 10
379.5
 20
113.690092
 30
0.0
 40
0.5
 50
101.309932
 51
180.0
  0
ARC
  5
18048
  8
DANMEN
  6
CONTINUOUS
 10
377.5
 20
118.292199
 30
0.0
 40
0.5
 50
180.0
 51
240.603827
  0
LINE
  5
18049
  8
DANMEN
  6
CONTINUOUS
 10
377.0
 20
120.0
 30
0.0
 11
377.0
 21
118.5
 31
0.0
  0
LINE
  5
1804A
  8
DANMEN
  6
CONTINUOUS
 10
376.7
 20
118.5
 30
0.0
 11
377.0
 21
118.5
 31
0.0
  0
LINE
  5
1804B
  8
DANMEN
  6
CONTINUOUS
 10
377.0
 20
120.0
 30
0.0
 11
377.0
 21
118.292199
 31
0.0
  0
LINE
  5
1804C
  8
DANMEN
  6
CONTINUOUS
 10
379.265685
 20
117.9
 30
0.0
 11
379.289406
 21
117.9
 31
0.0
  0
ARC
  5
1804D
  8
DANMEN
  6
CONTINUOUS
 10
379.289406
 20
117.4
 30
0.0
 40
0.5
 50
53.491206
 51
89.999998
  0
ARC
  5
1804E
  8
DANMEN
  6
CONTINUOUS
 10
379.265685
 20
117.6
 30
0.0
 40
0.3
 50
89.999998
 51
160.528778
  0
LINE
  5
18050
  8
DANMEN
  6
CONTINUOUS
 10
379.0
 20
117.8
 30
0.0
 11
379.0
 21
118.35
 31
0.0
  0
LINE
  5
18051
  8
DANMEN
  6
CONTINUOUS
 10
385.0
 20
114.499994
 30
0.0
 11
385.0
 21
118.35
 31
0.0
  0
LINE
  5
18052
  8
DANMEN
  6
CONTINUOUS
 10
382.300894
 20
114.3
 30
0.0
 11
383.500894
 21
114.3
 31
0.0
  0
LINE
  5
18053
  8
DANMEN
  6
CONTINUOUS
 10
384.411953
 20
115.615607
 30
0.0
 11
383.500894
 21
114.3
 31
0.0
  0
LINE
  5
18054
  8
DANMEN
  6
CONTINUOUS
 10
384.500894
 20
115.900266
 30
0.0
 11
384.500894
 21
115.900135
 31
0.0
  0
LINE
  5
18055
  8
DANMEN
  6
CONTINUOUS
 10
384.000894
 20
116.400135
 30
0.0
 11
383.75753
 21
116.400135
 31
0.0
  0
ARC
  5
18056
  8
DANMEN
  6
CONTINUOUS
 10
384.000894
 20
115.900266
 30
0.0
 40
0.5
 50
325.297376
 51
359.999998
  0
ARC
  5
18057
  8
DANMEN
  6
CONTINUOUS
 10
384.000894
 20
115.900135
 30
0.0
 40
0.5
 50
359.999998
 51
89.999998
  0
LINE
  5
18058
  8
DANMEN
  6
CONTINUOUS
 10
383.346471
 20
116.184794
 30
0.0
 11
382.989025
 21
115.668627
 31
0.0
  0
ARC
  5
18059
  8
DANMEN
  6
CONTINUOUS
 10
382.742389
 20
115.839422
 30
0.0
 40
0.3
 50
233.491206
 51
325.297376
  0
ARC
  5
1805A
  8
DANMEN
  6
CONTINUOUS
 10
383.75753
 20
115.900135
 30
0.0
 40
0.5
 50
89.999998
 51
145.297376
  0
LINE
  5
1805F
  8
SUNPO
  6
CONTINUOUS
 10
47.5
 20
39.0
 30
0.0
 11
29.0
 21
39.0
 31
0.0
  0
LINE
  5
18060
  8
SUNPO
  6
CONTINUOUS
 10
47.5
 20
59.0
 30
0.0
 11
29.0
 21
59.0
 31
0.0
  0
LINE
  5
18061
  8
SUNPO
  6
CONTINUOUS
 10
29.0
 20
39.0
 30
0.0
 11
29.0
 21
59.0
 31
0.0
  0
TEXT
  5
18062
  8
SUNPO
  6
CONTINUOUS
 10
28.0
 20
33.666667
 30
0.0
 40
2.5
  1
9
 50
90.0
  7
MX_NOTE_STANDARD
  0
ARC
  5
18063
  8
SUNPO
  6
BYBLOCK
 10
29.0
 20
39.0
 30
0.0
 40
0.145
 50
270.0
 51
90.0
  0
ARC
  5
18064
  8
SUNPO
  6
BYBLOCK
 10
29.0
 20
39.0
 30
0.0
 40
0.145
 50
90.0
 51
270.0
  0
ARC
  5
18065
  8
SUNPO
  6
BYBLOCK
 10
29.0
 20
39.0
 30
0.0
 40
0.145
 50
90.0
 51
270.0
  0
ARC
  5
18066
  8
SUNPO
  6
BYBLOCK
 10
29.0
 20
39.0
 30
0.0
 40
0.145
 50
270.0
 51
90.0
  0
TEXT
  5
18067
  8
SUNPO
  6
CONTINUOUS
 10
28.0
 20
47.125
 30
0.0
 40
2.5
  1
20
 50
90.0
  7
MX_NOTE_STANDARD
  0
TEXT
  5
18068
  8
SUNPO
  6
CONTINUOUS
 10
38.0
 20
43.333333
 30
0.0
 40
2.5
  1
12
 50
90.0
  7
MX_NOTE_STANDARD
  0
ARC
  5
18069
  8
SUNPO
  6
BYBLOCK
 10
29.0
 20
59.0
 30
0.0
 40
0.145
 50
90.0
 51
270.0
  0
ARC
  5
1806A
  8
SUNPO
  6
BYBLOCK
 10
29.0
 20
59.0
 30
0.0
 40
0.145
 50
270.0
 51
90.0
  0
ARC
  5
1806B
  8
SUNPO
  6
BYBLOCK
 10
29.0
 20
59.0
 30
0.0
 40
0.145
 50
270.0
 51
90.0
  0
ARC
  5
1806C
  8
SUNPO
  6
BYBLOCK
 10
29.0
 20
59.0
 30
0.0
 40
0.145
 50
90.0
 51
270.0
  0
TEXT
  5
1806D
  8
SUNPO
  6
CONTINUOUS
 10
38.0
 20
54.166667
 30
0.0
 40
2.5
  1
8
 50
90.0
  7
MX_NOTE_STANDARD
  0
TEXT
  5
1806E
  8
SUNPO
  6
CONTINUOUS
 10
38.0
 20
61.666667
 30
0.0
 40
2.5
  1
7
 50
90.0
  7
MX_NOTE_STANDARD
  0
LINE
  5
1806F
  8
SUNPO
  6
CONTINUOUS
 10
39.0
 20
51.0
 30
0.0
 11
39.0
 21
59.0
 31
0.0
  0
LINE
  5
18070
  8
SUNPO
  6
CONTINUOUS
 10
39.0
 20
51.0
 30
0.0
 11
39.0
 21
39.0
 31
0.0
  0
ARC
  5
18071
  8
SUNPO
  6
BYBLOCK
 10
39.0
 20
39.0
 30
0.0
 40
0.145
 50
270.0
 51
90.0
  0
ARC
  5
18072
  8
SUNPO
  6
BYBLOCK
 10
39.0
 20
39.0
 30
0.0
 40
0.145
 50
90.0
 51
270.0
  0
LINE
  5
18073
  8
SUNPO
  6
CONTINUOUS
 10
47.5
 20
51.0
 30
0.0
 11
39.0
 21
51.0
 31
0.0
  0
ARC
  5
18074
  8
SUNPO
  6
BYBLOCK
 10
39.0
 20
51.0
 30
0.0
 40
0.145
 50
270.0
 51
90.0
  0
ARC
  5
18075
  8
SUNPO
  6
BYBLOCK
 10
39.0
 20
51.0
 30
0.0
 40
0.145
 50
90.0
 51
270.0
  0
ARC
  5
18076
  8
SUNPO
  6
BYBLOCK
 10
39.0
 20
51.0
 30
0.0
 40
0.145
 50
90.0
 51
270.0
  0
ARC
  5
18077
  8
SUNPO
  6
BYBLOCK
 10
39.0
 20
51.0
 30
0.0
 40
0.145
 50
270.0
 51
90.0
  0
LINE
  5
18078
  8
SUNPO
  6
CONTINUOUS
 10
39.0
 20
66.0
 30
0.0
 11
39.0
 21
59.0
 31
0.0
  0
ARC
  5
18079
  8
SUNPO
  6
BYBLOCK
 10
39.0
 20
59.0
 30
0.0
 40
0.145
 50
270.0
 51
90.0
  0
ARC
  5
1807A
  8
SUNPO
  6
BYBLOCK
 10
39.0
 20
59.0
 30
0.0
 40
0.145
 50
90.0
 51
270.0
  0
ARC
  5
1807B
  8
SUNPO
  6
BYBLOCK
 10
39.0
 20
59.0
 30
0.0
 40
0.145
 50
90.0
 51
270.0
  0
ARC
  5
1807C
  8
SUNPO
  6
BYBLOCK
 10
39.0
 20
59.0
 30
0.0
 40
0.145
 50
270.0
 51
90.0
  0
LINE
  5
1807D
  8
SUNPO
  6
CONTINUOUS
 10
47.5
 20
66.0
 30
0.0
 11
39.0
 21
66.0
 31
0.0
  0
ARC
  5
1807E
  8
SUNPO
  6
BYBLOCK
 10
39.0
 20
66.0
 30
0.0
 40
0.145
 50
90.0
 51
270.0
  0
ARC
  5
1807F
  8
SUNPO
  6
BYBLOCK
 10
39.0
 20
66.0
 30
0.0
 40
0.145
 50
270.0
 51
90.0
  0
TEXT
  5
18080
  8
SUNPO
  6
CONTINUOUS
 10
28.0
 20
97.916667
 30
0.0
 40
2.5
  1
82
 50
90.0
  7
MX_NOTE_STANDARD
  0
TEXT
  5
18081
  8
SUNPO
  6
CONTINUOUS
 10
200.833333
 20
61.0
 30
0.0
 40
2.5
  1
15
  7
MX_NOTE_STANDARD
  0
LINE
  5
18082
  8
SUNPO
  6
CONTINUOUS
 10
210.0
 20
40.0
 30
0.0
 11
185.0
 21
40.0
 31
0.0
  0
LINE
  5
18083
  8
SUNPO
  6
CONTINUOUS
 10
210.0
 20
60.0
 30
0.0
 11
195.0
 21
60.0
 31
0.0
  0
LINE
  5
18084
  8
SUNPO
  6
CONTINUOUS
 10
164.0
 20
39.0
 30
0.0
 11
164.0
 21
30.0
 31
0.0
  0
ARC
  5
18085
  8
SUNPO
  6
BYBLOCK
 10
164.0
 20
30.0
 30
0.0
 40
0.145
 50
270.0
 51
90.0
  0
ARC
  5
18086
  8
SUNPO
  6
BYBLOCK
 10
164.0
 20
30.0
 30
0.0
 40
0.145
 50
90.0
 51
270.0
  0
LINE
  5
18087
  8
SUNPO
  6
CONTINUOUS
 10
120.5
 20
64.0
 30
0.0
 11
154.0
 21
64.0
 31
0.0
  0
LINE
  5
18088
  8
SUNPO
  6
CONTINUOUS
 10
120.5
 20
39.0
 30
0.0
 11
164.0
 21
39.0
 31
0.0
  0
LINE
  5
18089
  8
SUNPO
  6
CONTINUOUS
 10
120.5
 20
99.0
 30
0.0
 11
164.0
 21
99.0
 31
0.0
  0
LINE
  5
1808A
  8
SUNPO
  6
CONTINUOUS
 10
90.5
 20
113.790488
 30
0.0
 11
105.5
 21
113.790488
 31
0.0
  0
ARC
  5
1808B
  8
SUNPO
  6
BYBLOCK
 10
88.0
 20
113.790488
 30
0.0
 40
0.145
 50
180.0
 51
0.0
  0
ARC
  5
1808C
  8
SUNPO
  6
BYBLOCK
 10
88.0
 20
113.790488
 30
0.0
 40
0.145
 50
0.0
 51
180.0
  0
LINE
  5
1808D
  8
SUNPO
  6
CONTINUOUS
 10
88.0
 20
113.790488
 30
0.0
 11
78.68
 21
113.790488
 31
0.0
  0
TEXT
  5
1808E
  8
SUNPO
  6
CONTINUOUS
 10
79.68
 20
114.790488
 30
0.0
 40
2.5
  1
2.5
  7
MX_NOTE_STANDARD
  0
LINE
  5
1808F
  8
SUNPO
  6
CONTINUOUS
 10
90.5
 20
100.5
 30
0.0
 11
90.5
 21
113.790488
 31
0.0
  0
LINE
  5
18090
  8
SUNPO
  6
CONTINUOUS
 10
88.0
 20
100.5
 30
0.0
 11
88.0
 21
113.790488
 31
0.0
  0
LINE
  5
18091
  8
SUNPO
  6
CONTINUOUS
 10
90.5
 20
100.5
 30
0.0
 11
90.5
 21
113.790488
 31
0.0
  0
ARC
  5
18092
  8
SUNPO
  6
BYBLOCK
 10
90.5
 20
113.790488
 30
0.0
 40
0.145
 50
0.0
 51
180.0
  0
ARC
  5
18093
  8
SUNPO
  6
BYBLOCK
 10
90.5
 20
113.790488
 30
0.0
 40
0.145
 50
180.0
 51
0.0
  0
ARC
  5
18094
  8
SUNPO
  6
BYBLOCK
 10
90.5
 20
113.790488
 30
0.0
 40
0.145
 50
180.0
 51
0.0
  0
ARC
  5
18095
  8
SUNPO
  6
BYBLOCK
 10
90.5
 20
113.790488
 30
0.0
 40
0.145
 50
0.0
 51
180.0
  0
LINE
  5
18096
  8
SUNPO
  6
CONTINUOUS
 10
90.5
 20
113.790488
 30
0.0
 11
88.0
 21
113.790488
 31
0.0
  0
TEXT
  5
18097
  8
SUNPO
  6
CONTINUOUS
 10
96.333333
 20
114.790488
 30
0.0
 40
2.5
  1
15
  7
MX_NOTE_STANDARD
  0
LINE
  5
18098
  8
SUNPO
  6
CONTINUOUS
 10
108.0
 20
100.5
 30
0.0
 11
108.0
 21
113.790488
 31
0.0
  0
LINE
  5
18099
  8
SUNPO
  6
CONTINUOUS
 10
105.5
 20
100.5
 30
0.0
 11
105.5
 21
113.790488
 31
0.0
  0
LINE
  5
1809A
  8
SUNPO
  6
CONTINUOUS
 10
105.5
 20
100.5
 30
0.0
 11
105.5
 21
113.790488
 31
0.0
  0
TEXT
  5
1809B
  8
SUNPO
  6
CONTINUOUS
 10
111.32
 20
114.790488
 30
0.0
 40
2.5
  1
2.5
  7
MX_NOTE_STANDARD
  0
LINE
  5
1809C
  8
SUNPO
  6
CONTINUOUS
 10
108.0
 20
113.790488
 30
0.0
 11
117.32
 21
113.790488
 31
0.0
  0
ARC
  5
1809D
  8
SUNPO
  6
BYBLOCK
 10
108.0
 20
113.790488
 30
0.0
 40
0.145
 50
0.0
 51
180.0
  0
ARC
  5
1809E
  8
SUNPO
  6
BYBLOCK
 10
108.0
 20
113.790488
 30
0.0
 40
0.145
 50
180.0
 51
0.0
  0
ARC
  5
1809F
  8
SUNPO
  6
BYBLOCK
 10
105.5
 20
113.790488
 30
0.0
 40
0.145
 50
180.0
 51
0.0
  0
ARC
  5
180A0
  8
SUNPO
  6
BYBLOCK
 10
105.5
 20
113.790488
 30
0.0
 40
0.145
 50
0.0
 51
180.0
  0
ARC
  5
180A1
  8
SUNPO
  6
BYBLOCK
 10
105.5
 20
113.790488
 30
0.0
 40
0.145
 50
0.0
 51
180.0
  0
ARC
  5
180A2
  8
SUNPO
  6
BYBLOCK
 10
105.5
 20
113.790488
 30
0.0
 40
0.145
 50
180.0
 51
0.0
  0
LINE
  5
180A3
  8
SUNPO
  6
CONTINUOUS
 10
105.5
 20
113.790488
 30
0.0
 11
108.0
 21
113.790488
 31
0.0
  0
LINE
  5
180A4
  8
SUNPO
  6
CONTINUOUS
 10
154.0
 20
99.0
 30
0.0
 11
154.0
 21
64.0
 31
0.0
  0
LINE
  5
180A5
  8
SUNPO
  6
CONTINUOUS
 10
164.0
 20
99.0
 30
0.0
 11
164.0
 21
39.0
 31
0.0
  0
LINE
  5
180A6
  8
SUNPO
  6
CONTINUOUS
 10
185.0
 20
87.5
 30
0.0
 11
185.0
 21
40.0
 31
0.0
  0
LINE
  5
180A7
  8
SUNPO
  6
CONTINUOUS
 10
195.0
 20
87.5
 30
0.0
 11
195.0
 21
60.0
 31
0.0
  0
LINE
  5
180A8
  8
SUNPO
  6
CONTINUOUS
 10
154.0
 20
64.0
 30
0.0
 11
154.0
 21
39.0
 31
0.0
  0
TEXT
  5
180A9
  8
SUNPO
  6
CONTINUOUS
 10
153.0
 20
49.416667
 30
0.0
 40
2.5
  1
25
 50
90.0
  7
MX_NOTE_STANDARD
  0
TEXT
  5
180AA
  8
SUNPO
  6
CONTINUOUS
 10
163.0
 20
33.666667
 30
0.0
 40
2.5
  1
9
 50
90.0
  7
MX_NOTE_STANDARD
  0
ARC
  5
180AB
  8
SUNPO
  6
BYBLOCK
 10
154.0
 20
39.0
 30
0.0
 40
0.145
 50
270.0
 51
90.0
  0
ARC
  5
180AC
  8
SUNPO
  6
BYBLOCK
 10
154.0
 20
39.0
 30
0.0
 40
0.145
 50
90.0
 51
270.0
  0
ARC
  5
180AD
  8
SUNPO
  6
BYBLOCK
 10
164.0
 20
39.0
 30
0.0
 40
0.15625
 50
270.0
 51
90.0
  0
ARC
  5
180AE
  8
SUNPO
  6
BYBLOCK
 10
164.0
 20
39.0
 30
0.0
 40
0.15625
 50
90.0
 51
270.0
  0
ARC
  5
180AF
  8
SUNPO
  6
BYBLOCK
 10
164.0
 20
39.0
 30
0.0
 40
0.145
 50
90.0
 51
270.0
  0
ARC
  5
180B0
  8
SUNPO
  6
BYBLOCK
 10
164.0
 20
39.0
 30
0.0
 40
0.145
 50
270.0
 51
90.0
  0
ARC
  5
180B1
  8
SUNPO
  6
BYBLOCK
 10
154.0
 20
64.0
 30
0.0
 40
0.145
 50
270.0
 51
90.0
  0
ARC
  5
180B2
  8
SUNPO
  6
BYBLOCK
 10
154.0
 20
64.0
 30
0.0
 40
0.145
 50
90.0
 51
270.0
  0
ARC
  5
180B3
  8
SUNPO
  6
BYBLOCK
 10
154.0
 20
64.0
 30
0.0
 40
0.145
 50
90.0
 51
270.0
  0
ARC
  5
180B4
  8
SUNPO
  6
BYBLOCK
 10
154.0
 20
64.0
 30
0.0
 40
0.145
 50
270.0
 51
90.0
  0
TEXT
  5
180B5
  8
SUNPO
  6
CONTINUOUS
 10
163.0
 20
67.125
 30
0.0
 40
2.5
  1
60
 50
90.0
  7
MX_NOTE_STANDARD
  0
ARC
  5
180B6
  8
SUNPO
  6
BYBLOCK
 10
185.0
 20
40.0
 30
0.0
 40
0.15625
 50
180.0
 51
0.0
  0
ARC
  5
180B7
  8
SUNPO
  6
BYBLOCK
 10
185.0
 20
40.0
 30
0.0
 40
0.15625
 50
0.0
 51
180.0
  0
TEXT
  5
180B8
  8
SUNPO
  6
CONTINUOUS
 10
195.416667
 20
41.0
 30
0.0
 40
2.5
  1
25
  7
MX_NOTE_STANDARD
  0
LINE
  5
180B9
  8
SUNPO
  6
CONTINUOUS
 10
195.0
 20
60.0
 30
0.0
 11
185.0
 21
60.0
 31
0.0
  0
ARC
  5
180BA
  8
SUNPO
  6
BYBLOCK
 10
185.0
 20
60.0
 30
0.0
 40
0.145
 50
180.0
 51
0.0
  0
ARC
  5
180BB
  8
SUNPO
  6
BYBLOCK
 10
185.0
 20
60.0
 30
0.0
 40
0.145
 50
0.0
 51
180.0
  0
TEXT
  5
180BC
  8
SUNPO
  6
CONTINUOUS
 10
188.541667
 20
61.0
 30
0.0
 40
2.5
  1
10
  7
MX_NOTE_STANDARD
  0
ARC
  5
180BD
  8
SUNPO
  6
BYBLOCK
 10
195.0
 20
60.0
 30
0.0
 40
0.145
 50
0.0
 51
180.0
  0
ARC
  5
180BE
  8
SUNPO
  6
BYBLOCK
 10
195.0
 20
60.0
 30
0.0
 40
0.145
 50
180.0
 51
0.0
  0
ARC
  5
180BF
  8
SUNPO
  6
BYBLOCK
 10
195.0
 20
60.0
 30
0.0
 40
0.145
 50
180.0
 51
0.0
  0
ARC
  5
180C0
  8
SUNPO
  6
BYBLOCK
 10
195.0
 20
60.0
 30
0.0
 40
0.145
 50
0.0
 51
180.0
  0
LINE
  5
180C1
  8
SUNPO
  6
CONTINUOUS
 10
169.0
 20
104.0
 30
0.0
 11
164.0
 21
99.0
 31
0.0
  0
LINE
  5
180C2
  8
SUNPO
  6
CONTINUOUS
 10
164.0
 20
99.0
 30
0.0
 11
159.0
 21
104.0
 31
0.0
  0
TEXT
  5
180C3
  8
SUNPO
  6
CONTINUOUS
 10
153.0
 20
79.416667
 30
0.0
 40
2.5
  1
35
 50
90.0
  7
MX_NOTE_STANDARD
  0
ARC
  5
180C4
  8
SUNPO
  6
BYBLOCK
 10
154.0
 20
99.0
 30
0.0
 40
0.145
 50
90.0
 51
270.0
  0
ARC
  5
180C5
  8
SUNPO
  6
BYBLOCK
 10
154.0
 20
99.0
 30
0.0
 40
0.145
 50
270.0
 51
90.0
  0
ARC
  5
180C6
  8
SUNPO
  6
BYBLOCK
 10
154.0
 20
99.0
 30
0.0
 40
0.145
 50
270.0
 51
90.0
  0
ARC
  5
180C7
  8
SUNPO
  6
BYBLOCK
 10
154.0
 20
99.0
 30
0.0
 40
0.145
 50
90.0
 51
270.0
  0
TEXT
  5
180C9
  8
SUNPO
  6
CONTINUOUS
 10
153.0
 20
117.916667
 30
0.0
 40
2.5
  1
42
 50
90.0
  7
MX_NOTE_STANDARD
  0
LINE
  5
180CA
  8
SUNPO
  6
CONTINUOUS
 10
159.0
 20
104.0
 30
0.0
 11
169.0
 21
104.0
 31
0.0
  0
LINE
  5
180CD
  8
SUNPO
  6
CONTINUOUS
 10
270.0
 20
52.0
 30
0.0
 11
260.888595
 21
48.68372
 31
0.0
  0
LINE
  5
180CE
  8
SUNPO
  6
CONTINUOUS
 10
210.0
 20
40.0
 30
0.0
 11
277.978714
 21
40.0
 31
0.0
  0
LINE
  5
180CF
  8
SUNPO
  6
CONTINUOUS
 10
270.0
 20
52.0
 30
0.0
 11
210.0
 21
52.0
 31
0.0
  0
LINE
  5
180D0
  8
SUNPO
  6
CONTINUOUS
 10
238.0
 20
87.5
 30
0.0
 11
238.0
 21
60.0
 31
0.0
  0
LINE
  5
180D1
  8
SUNPO
  6
CONTINUOUS
 10
210.0
 20
87.5
 30
0.0
 11
210.0
 21
40.0
 31
0.0
  0
LINE
  5
180D3
  8
SUNPO
  6
CONTINUOUS
 10
238.0
 20
60.0
 30
0.0
 11
210.0
 21
60.0
 31
0.0
  0
LINE
  5
180D4
  8
SUNPO
  6
CONTINUOUS
 10
219.111405
 20
55.31628
 30
0.0
 11
220.267949
 21
51.0
 31
0.0
  0
LINE
  5
180D5
  8
SUNPO
  6
CONTINUOUS
 10
210.0
 20
52.0
 30
0.0
 11
219.111405
 21
55.31628
 31
0.0
  0
LINE
  5
180D6
  8
SUNPO
  6
CONTINUOUS
 10
215.0
 20
45.0
 30
0.0
 11
215.0
 21
35.0
 31
0.0
  0
LINE
  5
180D7
  8
SUNPO
  6
CONTINUOUS
 10
210.0
 20
40.0
 30
0.0
 11
215.0
 21
45.0
 31
0.0
  0
LINE
  5
180D8
  8
SUNPO
  6
CONTINUOUS
 10
215.0
 20
35.0
 30
0.0
 11
210.0
 21
40.0
 31
0.0
  0
ARC
  5
180DE
  8
SUNPO
  6
BYBLOCK
 10
210.0
 20
60.0
 30
0.0
 40
0.145
 50
180.0
 51
0.0
  0
ARC
  5
180DF
  8
SUNPO
  6
BYBLOCK
 10
210.0
 20
60.0
 30
0.0
 40
0.145
 50
0.0
 51
180.0
  0
ARC
  5
180E0
  8
SUNPO
  6
BYBLOCK
 10
210.0
 20
60.0
 30
0.0
 40
0.145
 50
0.0
 51
180.0
  0
ARC
  5
180E1
  8
SUNPO
  6
BYBLOCK
 10
210.0
 20
60.0
 30
0.0
 40
0.145
 50
180.0
 51
0.0
  0
TEXT
  5
180E3
  8
SUNPO
  6
CONTINUOUS
 10
221.916667
 20
61.0
 30
0.0
 40
2.5
  1
28
  7
MX_NOTE_STANDARD
  0
TEXT
  5
180E4
  8
SUNPO
  6
CONTINUOUS
 10
235.837473
 20
53.048402
 30
0.0
 40
2.0
  1
2
  7
MX_NOTE_STANDARD
  0
LINE
  5
180E5
  8
SUNPO
  6
CONTINUOUS
 10
260.888595
 20
48.68372
 30
0.0
 11
259.732051
 21
53.0
 31
0.0
  0
ARC
  5
180E8
  8
SUNPO
  6
BYBLOCK
 10
238.0
 20
60.0
 30
0.0
 40
0.145
 50
0.0
 51
180.0
  0
ARC
  5
180E9
  8
SUNPO
  6
BYBLOCK
 10
238.0
 20
60.0
 30
0.0
 40
0.145
 50
180.0
 51
0.0
  0
ARC
  5
180EA
  8
SUNPO
  6
BYBLOCK
 10
251.5
 20
89.0
 30
0.0
 40
0.145
 50
270.0
 51
90.0
  0
ARC
  5
180EB
  8
SUNPO
  6
BYBLOCK
 10
251.5
 20
89.0
 30
0.0
 40
0.145
 50
90.0
 51
270.0
  0
TEXT
  5
180EC
  8
SUNPO
  6
CONTINUOUS
 10
250.5
 20
119.485291
 30
0.0
 40
2.5
  1
70
 50
90.0
  7
MX_NOTE_STANDARD
  0
LINE
  5
180ED
  8
SUNPO
  6
CONTINUOUS
 10
270.0
 20
79.0
 30
0.0
 11
270.0
 21
52.0
 31
0.0
  0
LINE
  5
180EE
  8
SUNPO
  6
CONTINUOUS
 10
310.0
 20
79.0
 30
0.0
 11
310.0
 21
52.0
 31
0.0
  0
LINE
  5
180EF
  8
SUNPO
  6
CONTINUOUS
 10
302.26901
 20
41.5
 30
0.0
 11
297.26901
 21
41.5
 31
0.0
  0
LINE
  5
180F0
  8
SUNPO
  6
CONTINUOUS
 10
302.26901
 20
38.5
 30
0.0
 11
297.26901
 21
38.5
 31
0.0
  0
LINE
  5
180F1
  8
SUNPO
  6
CONTINUOUS
 10
310.0
 20
52.0
 30
0.0
 11
270.0
 21
52.0
 31
0.0
  0
TEXT
  5
180F2
  8
SUNPO
  6
CONTINUOUS
 10
288.125
 20
53.0
 30
0.0
 40
2.5
  1
40
  7
MX_NOTE_STANDARD
  0
LINE
  5
180F3
  8
SUNPO
  6
CONTINUOUS
 10
288.186113
 20
36.5
 30
0.0
 11
283.708582
 21
36.5
 31
0.0
  0
LINE
  5
180F4
  8
SUNPO
  6
CONTINUOUS
 10
287.186114
 20
36.5
 30
0.0
 11
283.144668
 21
43.499997
 31
0.0
  0
LINE
  5
180F5
  8
SUNPO
  6
CONTINUOUS
 10
284.876776
 20
36.500001
 30
0.0
 11
280.835331
 21
43.499997
 31
0.0
  0
LINE
  5
180F7
  8
SUNPO
  6
CONTINUOUS
 10
284.10634
 20
43.5
 30
0.0
 11
279.73099
 21
43.5
 31
0.0
  0
LINE
  5
180F8
  8
SUNPO
  6
CONTINUOUS
 10
287.186113
 20
43.5
 30
0.0
 11
287.186113
 21
36.500001
 31
0.0
  0
LINE
  5
180F9
  8
SUNPO
  6
CONTINUOUS
 10
291.22756
 20
36.500001
 30
0.0
 11
287.186114
 21
43.499998
 31
0.0
  0
LINE
  5
180FA
  8
SUNPO
  6
CONTINUOUS
 10
293.536959
 20
36.500004
 30
0.0
 11
289.495515
 21
43.499997
 31
0.0
  0
LINE
  5
180FB
  8
SUNPO
  6
CONTINUOUS
 10
293.536961
 20
43.5
 30
0.0
 11
293.536961
 21
36.500003
 31
0.0
  0
LINE
  5
180FC
  8
SUNPO
  6
CONTINUOUS
 10
294.11431
 20
36.5
 30
0.0
 11
290.536562
 21
36.5
 31
0.0
  0
LINE
  5
180FE
  8
SUNPO
  6
CONTINUOUS
 10
294.495805
 20
43.5
 30
0.0
 11
292.459285
 21
43.5
 31
0.0
  0
LINE
  5
180FF
  8
SUNPO
  6
CONTINUOUS
 10
290.495514
 20
43.5
 30
0.0
 11
286.186113
 21
43.5
 31
0.0
  0
LINE
  5
18100
  8
SUNPO
  6
CONTINUOUS
 10
319.111405
 20
55.31628
 30
0.0
 11
320.267949
 21
51.0
 31
0.0
  0
LINE
  5
18101
  8
SUNPO
  6
CONTINUOUS
 10
310.0
 20
52.0
 30
0.0
 11
319.111405
 21
55.31628
 31
0.0
  0
LINE
  5
18105
  8
SUNPO
  6
CONTINUOUS
 10
327.0
 20
120.0
 30
0.0
 11
327.0
 21
89.0
 31
0.0
  0
LINE
  5
18106
  8
SUNPO
  6
CONTINUOUS
 10
310.500003
 20
80.5
 30
0.0
 11
327.0
 21
80.5
 31
0.0
  0
LINE
  5
18107
  8
SUNPO
  6
CONTINUOUS
 10
327.0
 20
80.5
 30
0.0
 11
327.0
 21
89.0
 31
0.0
  0
TEXT
  5
18108
  8
SUNPO
  6
CONTINUOUS
 10
326.0
 20
82.25
 30
0.0
 40
2.5
  1
8.5
 50
90.0
  7
MX_NOTE_STANDARD
  0
ARC
  5
18109
  8
SUNPO
  6
BYBLOCK
 10
327.0
 20
80.5
 30
0.0
 40
0.145
 50
270.0
 51
90.0
  0
ARC
  5
1810A
  8
SUNPO
  6
BYBLOCK
 10
327.0
 20
80.5
 30
0.0
 40
0.145
 50
90.0
 51
270.0
  0
ARC
  5
1810B
  8
SUNPO
  6
BYBLOCK
 10
327.0
 20
89.0
 30
0.0
 40
0.145
 50
90.0
 51
270.0
  0
ARC
  5
1810C
  8
SUNPO
  6
BYBLOCK
 10
327.0
 20
89.0
 30
0.0
 40
0.145
 50
270.0
 51
90.0
  0
ARC
  5
1810D
  8
SUNPO
  6
BYBLOCK
 10
327.0
 20
89.0
 30
0.0
 40
0.145
 50
270.0
 51
90.0
  0
ARC
  5
1810E
  8
SUNPO
  6
BYBLOCK
 10
327.0
 20
89.0
 30
0.0
 40
0.145
 50
90.0
 51
270.0
  0
TEXT
  5
1810F
  8
SUNPO
  6
CONTINUOUS
 10
326.0
 20
102.744513
 30
0.0
 40
2.5
  1
31
 50
90.0
  7
MX_NOTE_STANDARD
  0
ARC
  5
18110
  8
SUNPO
  6
BYBLOCK
 10
327.0
 20
120.0
 30
0.0
 40
0.145
 50
90.0
 51
270.0
  0
ARC
  5
18111
  8
SUNPO
  6
BYBLOCK
 10
327.0
 20
120.0
 30
0.0
 40
0.145
 50
270.0
 51
90.0
  0
ARC
  5
18112
  8
SUNPO
  6
BYBLOCK
 10
327.0
 20
120.0
 30
0.0
 40
0.145
 50
270.0
 51
90.0
  0
ARC
  5
18113
  8
SUNPO
  6
BYBLOCK
 10
327.0
 20
120.0
 30
0.0
 40
0.145
 50
90.0
 51
270.0
  0
LINE
  5
18114
  8
SUNPO
  6
CONTINUOUS
 10
370.0
 20
87.5
 30
0.0
 11
370.0
 21
40.0
 31
0.0
  0
LINE
  5
18116
  8
SUNPO
  6
CONTINUOUS
 10
385.0
 20
87.5
 30
0.0
 11
385.0
 21
60.0
 31
0.0
  0
LINE
  5
18117
  8
SUNPO
  6
CONTINUOUS
 10
360.0
 20
87.5
 30
0.0
 11
360.0
 21
60.0
 31
0.0
  0
LINE
  5
18118
  8
SUNPO
  6
CONTINUOUS
 10
365.0
 20
45.0
 30
0.0
 11
370.0
 21
40.0
 31
0.0
  0
LINE
  5
18119
  8
SUNPO
  6
CONTINUOUS
 10
370.0
 20
40.0
 30
0.0
 11
365.0
 21
35.0
 31
0.0
  0
LINE
  5
1811A
  8
SUNPO
  6
CONTINUOUS
 10
370.0
 20
52.0
 30
0.0
 11
360.888595
 21
48.68372
 31
0.0
  0
LINE
  5
1811B
  8
SUNPO
  6
CONTINUOUS
 10
370.0
 20
60.0
 30
0.0
 11
360.0
 21
60.0
 31
0.0
  0
TEXT
  5
1811C
  8
SUNPO
  6
CONTINUOUS
 10
336.202796
 20
52.984156
 30
0.0
 40
2.0
  1
1
 41
1.5
  7
MX_NOTE_STANDARD
  0
LINE
  5
1811D
  8
SUNPO
  6
CONTINUOUS
 10
365.0
 20
35.0
 30
0.0
 11
365.0
 21
45.0
 31
0.0
  0
LINE
  5
18121
  8
SUNPO
  6
CONTINUOUS
 10
360.888595
 20
48.68372
 30
0.0
 11
359.732051
 21
53.0
 31
0.0
  0
ARC
  5
18123
  8
SUNPO
  6
BYBLOCK
 10
360.0
 20
60.0
 30
0.0
 40
0.145
 50
180.0
 51
0.0
  0
ARC
  5
18124
  8
SUNPO
  6
BYBLOCK
 10
360.0
 20
60.0
 30
0.0
 40
0.145
 50
0.0
 51
180.0
  0
TEXT
  5
18125
  8
SUNPO
  6
CONTINUOUS
 10
363.541667
 20
61.0
 30
0.0
 40
2.5
  1
10
  7
MX_NOTE_STANDARD
  0
TEXT
  5
18126
  8
SUNPO
  6
CONTINUOUS
 10
380.416667
 20
41.0
 30
0.0
 40
2.5
  1
25
  7
MX_NOTE_STANDARD
  0
LINE
  5
18127
  8
SUNPO
  6
CONTINUOUS
 10
395.0
 20
40.0
 30
0.0
 11
370.0
 21
40.0
 31
0.0
  0
ARC
  5
1812A
  8
SUNPO
  6
BYBLOCK
 10
395.0
 20
40.0
 30
0.0
 40
0.145
 50
0.0
 51
180.0
  0
ARC
  5
1812B
  8
SUNPO
  6
BYBLOCK
 10
395.0
 20
40.0
 30
0.0
 40
0.145
 50
180.0
 51
0.0
  0
LINE
  5
1812C
  8
SUNPO
  6
CONTINUOUS
 10
385.0
 20
60.0
 30
0.0
 11
370.0
 21
60.0
 31
0.0
  0
ARC
  5
1812D
  8
SUNPO
  6
BYBLOCK
 10
370.0
 20
60.0
 30
0.0
 40
0.145
 50
180.0
 51
0.0
  0
ARC
  5
1812E
  8
SUNPO
  6
BYBLOCK
 10
370.0
 20
60.0
 30
0.0
 40
0.145
 50
0.0
 51
180.0
  0
ARC
  5
1812F
  8
SUNPO
  6
BYBLOCK
 10
370.0
 20
60.0
 30
0.0
 40
0.145
 50
0.0
 51
180.0
  0
ARC
  5
18130
  8
SUNPO
  6
BYBLOCK
 10
370.0
 20
60.0
 30
0.0
 40
0.145
 50
180.0
 51
0.0
  0
TEXT
  5
18131
  8
SUNPO
  6
CONTINUOUS
 10
375.833333
 20
61.0
 30
0.0
 40
2.5
  1
15
  7
MX_NOTE_STANDARD
  0
TEXT
  5
18132
  8
SUNPO
  6
CONTINUOUS
 10
388.541667
 20
61.0
 30
0.0
 40
2.5
  1
10
  7
MX_NOTE_STANDARD
  0
LINE
  5
18133
  8
SUNPO
  6
CONTINUOUS
 10
385.0
 20
60.0
 30
0.0
 11
395.0
 21
60.0
 31
0.0
  0
ARC
  5
18134
  8
SUNPO
  6
BYBLOCK
 10
385.0
 20
60.0
 30
0.0
 40
0.145
 50
0.0
 51
180.0
  0
ARC
  5
18135
  8
SUNPO
  6
BYBLOCK
 10
385.0
 20
60.0
 30
0.0
 40
0.145
 50
180.0
 51
0.0
  0
ARC
  5
18136
  8
SUNPO
  6
BYBLOCK
 10
385.0
 20
60.0
 30
0.0
 40
0.145
 50
180.0
 51
0.0
  0
ARC
  5
18137
  8
SUNPO
  6
BYBLOCK
 10
385.0
 20
60.0
 30
0.0
 40
0.145
 50
0.0
 51
180.0
  0
ARC
  5
18138
  8
SUNPO
  6
BYBLOCK
 10
395.0
 20
60.0
 30
0.0
 40
0.145
 50
0.0
 51
180.0
  0
ARC
  5
18139
  8
SUNPO
  6
BYBLOCK
 10
395.0
 20
60.0
 30
0.0
 40
0.145
 50
180.0
 51
0.0
  0
LINE
  5
1813A
  8
SUNPO
  6
CONTINUOUS
 10
347.577611
 20
102.5
 30
0.0
 11
347.577611
 21
100.0
 31
0.0
  0
LINE
  5
1813B
  8
SUNPO
  6
CONTINUOUS
 10
358.5
 20
100.0
 30
0.0
 11
347.577611
 21
100.0
 31
0.0
  0
TEXT
  5
1813C
  8
SUNPO
  6
CONTINUOUS
 10
346.577611
 20
91.68
 30
0.0
 40
2.5
  1
2.5
 50
90.0
  7
MX_NOTE_STANDARD
  0
LINE
  5
1813D
  8
SUNPO
  6
CONTINUOUS
 10
347.577611
 20
100.0
 30
0.0
 11
347.577611
 21
90.68
 31
0.0
  0
ARC
  5
1813E
  8
SUNPO
  6
BYBLOCK
 10
347.577611
 20
100.0
 30
0.0
 40
0.145
 50
270.0
 51
90.0
  0
ARC
  5
1813F
  8
SUNPO
  6
BYBLOCK
 10
347.577611
 20
100.0
 30
0.0
 40
0.145
 50
90.0
 51
270.0
  0
LINE
  5
18140
  8
SUNPO
  6
CONTINUOUS
 10
358.5
 20
117.5
 30
0.0
 11
347.577611
 21
117.5
 31
0.0
  0
LINE
  5
18141
  8
SUNPO
  6
CONTINUOUS
 10
358.5
 20
102.5
 30
0.0
 11
347.577611
 21
102.5
 31
0.0
  0
LINE
  5
18142
  8
SUNPO
  6
CONTINUOUS
 10
358.5
 20
102.5
 30
0.0
 11
347.577611
 21
102.5
 31
0.0
  0
LINE
  5
18143
  8
SUNPO
  6
CONTINUOUS
 10
358.5
 20
120.0
 30
0.0
 11
347.577611
 21
120.0
 31
0.0
  0
LINE
  5
18144
  8
SUNPO
  6
CONTINUOUS
 10
358.5
 20
117.5
 30
0.0
 11
347.577611
 21
117.5
 31
0.0
  0
LINE
  5
18145
  8
SUNPO
  6
CONTINUOUS
 10
347.577611
 20
102.5
 30
0.0
 11
347.577611
 21
117.5
 31
0.0
  0
ARC
  5
18146
  8
SUNPO
  6
BYBLOCK
 10
347.577611
 20
102.5
 30
0.0
 40
0.145
 50
270.0
 51
90.0
  0
ARC
  5
18147
  8
SUNPO
  6
BYBLOCK
 10
347.577611
 20
102.5
 30
0.0
 40
0.145
 50
90.0
 51
270.0
  0
ARC
  5
18148
  8
SUNPO
  6
BYBLOCK
 10
347.577611
 20
102.5
 30
0.0
 40
0.145
 50
90.0
 51
270.0
  0
ARC
  5
18149
  8
SUNPO
  6
BYBLOCK
 10
347.577611
 20
102.5
 30
0.0
 40
0.145
 50
270.0
 51
90.0
  0
TEXT
  5
1814A
  8
SUNPO
  6
CONTINUOUS
 10
346.577611
 20
108.15645
 30
0.0
 40
2.5
  1
15
 50
90.0
  7
MX_NOTE_STANDARD
  0
LINE
  5
1814B
  8
SUNPO
  6
CONTINUOUS
 10
347.577611
 20
117.5
 30
0.0
 11
347.577611
 21
120.0
 31
0.0
  0
ARC
  5
1814C
  8
SUNPO
  6
BYBLOCK
 10
347.577611
 20
117.5
 30
0.0
 40
0.145
 50
90.0
 51
270.0
  0
ARC
  5
1814D
  8
SUNPO
  6
BYBLOCK
 10
347.577611
 20
117.5
 30
0.0
 40
0.145
 50
270.0
 51
90.0
  0
ARC
  5
1814E
  8
SUNPO
  6
BYBLOCK
 10
347.577611
 20
117.5
 30
0.0
 40
0.145
 50
270.0
 51
90.0
  0
ARC
  5
1814F
  8
SUNPO
  6
BYBLOCK
 10
347.577611
 20
117.5
 30
0.0
 40
0.145
 50
90.0
 51
270.0
  0
ARC
  5
18150
  8
SUNPO
  6
BYBLOCK
 10
347.577611
 20
120.0
 30
0.0
 40
0.145
 50
90.0
 51
270.0
  0
ARC
  5
18151
  8
SUNPO
  6
BYBLOCK
 10
347.577611
 20
120.0
 30
0.0
 40
0.145
 50
270.0
 51
90.0
  0
LINE
  5
18152
  8
SUNPO
  6
CONTINUOUS
 10
348.5
 20
159.0
 30
0.0
 11
327.0
 21
159.0
 31
0.0
  0
LINE
  5
18153
  8
SUNPO
  6
CONTINUOUS
 10
80.0
 20
163.0
 30
0.0
 11
56.0
 21
163.0
 31
0.0
  0
LINE
  5
18154
  8
SUNPO
  6
CONTINUOUS
 10
49.0
 20
178.0
 30
0.0
 11
119.0
 21
178.0
 31
0.0
  0
LINE
  5
18155
  8
DANMEN
  6
CONTINUOUS
 10
336.5
 20
152.0
 30
0.0
 11
385.0
 21
152.0
 31
0.0
  0
LINE
  5
18156
  8
DANMEN
  6
CONTINUOUS
 10
336.5
 20
125.0
 30
0.0
 11
385.0
 21
125.0
 31
0.0
  0
LINE
  5
18157
  8
DANMEN
  6
CONTINUOUS
 10
336.5
 20
141.5
 30
0.0
 11
385.0
 21
141.5
 31
0.0
  0
LINE
  5
18158
  8
DANMEN
  6
CONTINUOUS
 10
336.5
 20
138.5
 30
0.0
 11
385.0
 21
138.5
 31
0.0
  0
LINE
  5
18159
  8
DANMEN
  6
CONTINUOUS
 10
345.600006
 20
162.0
 30
0.0
 11
336.5
 21
162.0
 31
0.0
  0
LINE
  5
1815A
  8
DANMEN
  6
CONTINUOUS
 10
345.600006
 20
160.800003
 30
0.0
 11
336.5
 21
160.800003
 31
0.0
  0
LINE
  5
1815B
  8
DANMEN
  6
CONTINUOUS
 10
350.0
 20
157.800003
 30
0.0
 11
336.5
 21
157.800003
 31
0.0
  0
LINE
  5
1815C
  8
DANMEN
  6
CONTINUOUS
 10
272.58967
 20
124.3
 30
0.0
 11
275.800003
 21
124.3
 31
0.0
  0
ARC
  5
1815D
  8
DANMEN
  6
CONTINUOUS
 10
274.845226
 20
127.8
 30
0.0
 40
1.0
 50
90.0
 51
147.20046
  0
LINE
  5
1815E
  8
DANMEN
  6
CONTINUOUS
 10
274.845226
 20
127.8
 30
0.0
 11
272.58967
 21
124.3
 31
0.0
  0
LINE
  5
1815F
  8
DANMEN
  6
CONTINUOUS
 10
270.500003
 20
152.0
 30
0.0
 11
309.000003
 21
152.0
 31
0.0
  0
LINE
  5
18160
  8
DANMEN
  6
CONTINUOUS
 10
270.500003
 20
128.0
 30
0.0
 11
298.500003
 21
128.0
 31
0.0
  0
LINE
  5
18161
  8
DANMEN
  6
CONTINUOUS
 10
271.200003
 20
129.949997
 30
0.0
 11
285.000003
 21
129.949997
 31
0.0
  0
LINE
  5
18162
  8
DANMEN
  6
CONTINUOUS
 10
271.200003
 20
150.050003
 30
0.0
 11
285.000003
 21
150.050003
 31
0.0
  0
LINE
  5
18163
  8
DANMEN
  6
CONTINUOUS
 10
255.500001
 20
162.0
 30
0.0
 11
333.5
 21
162.0
 31
0.0
  0
LINE
  5
18164
  8
DANMEN
  6
CONTINUOUS
 10
255.500001
 20
160.800003
 30
0.0
 11
333.5
 21
160.800003
 31
0.0
  0
LINE
  5
18165
  8
DANMEN
  6
CONTINUOUS
 10
255.500001
 20
157.800003
 30
0.0
 11
333.5
 21
157.800003
 31
0.0
  0
LINE
  5
18166
  8
DANMEN
  6
CONTINUOUS
 10
277.000018
 20
138.000021
 30
0.0
 11
255.500001
 21
138.000021
 31
0.0
  0
LINE
  5
18167
  8
DANMEN
  6
CONTINUOUS
 10
277.000003
 20
142.000009
 30
0.0
 11
255.500001
 21
142.000009
 31
0.0
  0
LINE
  5
18168
  8
DANMEN
  6
CONTINUOUS
 10
277.000018
 20
137.500021
 30
0.0
 11
255.500001
 21
137.500021
 31
0.0
  0
LINE
  5
18169
  8
DANMEN
  6
CONTINUOUS
 10
277.000003
 20
142.500009
 30
0.0
 11
255.500001
 21
142.500009
 31
0.0
  0
LINE
  5
1816A
  8
DANMEN
  6
CONTINUOUS
 10
255.500001
 20
152.0
 30
0.0
 11
333.5
 21
152.0
 31
0.0
  0
ARC
  5
1816B
  8
DANMEN
  6
CONTINUOUS
 10
241.99991
 20
135.999991
 30
0.0
 40
1.5
 50
90.0
 51
179.999982
  0
ARC
  5
1816C
  8
DANMEN
  6
CONTINUOUS
 10
241.99991
 20
143.999994
 30
0.0
 40
1.5
 50
179.999982
 51
269.999964
  0
LINE
  5
1816D
  8
DANMEN
  6
CONTINUOUS
 10
238.0
 20
128.0
 30
0.0
 11
252.500001
 21
128.0
 31
0.0
  0
LINE
  5
1816E
  8
DANMEN
  6
CONTINUOUS
 10
238.000002
 20
148.0
 30
0.0
 11
252.500001
 21
148.0
 31
0.0
  0
LINE
  5
1816F
  8
DANMEN
  6
CONTINUOUS
 10
238.000002
 20
132.0
 30
0.0
 11
252.500001
 21
132.0
 31
0.0
  0
LINE
  5
18170
  8
DANMEN
  6
CONTINUOUS
 10
238.000002
 20
149.8
 30
0.0
 11
252.500001
 21
149.8
 31
0.0
  0
LINE
  5
18171
  8
DANMEN
  6
CONTINUOUS
 10
238.000002
 20
130.2
 30
0.0
 11
252.500001
 21
130.2
 31
0.0
  0
LINE
  5
18172
  8
DANMEN
  6
CONTINUOUS
 10
234.399994
 20
162.0
 30
0.0
 11
252.500001
 21
162.0
 31
0.0
  0
LINE
  5
18173
  8
DANMEN
  6
CONTINUOUS
 10
234.399994
 20
160.800003
 30
0.0
 11
252.500001
 21
160.800003
 31
0.0
  0
LINE
  5
18174
  8
DANMEN
  6
CONTINUOUS
 10
230.0
 20
157.800003
 30
0.0
 11
252.500001
 21
157.800003
 31
0.0
  0
LINE
  5
18175
  8
DANMEN
  6
CONTINUOUS
 10
231.000002
 20
137.499991
 30
0.0
 11
252.500001
 21
137.499991
 31
0.0
  0
LINE
  5
18176
  8
DANMEN
  6
CONTINUOUS
 10
230.999986
 20
142.499979
 30
0.0
 11
252.500001
 21
142.499979
 31
0.0
  0
LINE
  5
18177
  8
DANMEN
  6
CONTINUOUS
 10
231.000002
 20
137.999991
 30
0.0
 11
252.500001
 21
137.999991
 31
0.0
  0
LINE
  5
18178
  8
DANMEN
  6
CONTINUOUS
 10
230.999986
 20
141.999979
 30
0.0
 11
252.500001
 21
141.999979
 31
0.0
  0
ARC
  5
18179
  8
DANMEN
  6
CONTINUOUS
 10
238.99991
 20
146.499985
 30
0.0
 40
1.5
 50
0.000018
 51
90.0
  0
LINE
  5
1817A
  8
DANMEN
  6
CONTINUOUS
 10
226.999986
 20
150.050003
 30
0.0
 11
226.999986
 21
129.949997
 31
0.0
  0
LINE
  5
1817B
  8
DANMEN
  6
CONTINUOUS
 10
211.000002
 20
150.050003
 30
0.0
 11
211.000002
 21
129.949997
 31
0.0
  0
ARC
  5
1817C
  8
DANMEN
  6
CONTINUOUS
 10
225.538891
 20
128.5
 30
0.0
 40
0.5
 50
175.710803
 51
270.0
  0
LINE
  5
1817D
  8
DANMEN
  6
CONTINUOUS
 10
225.049989
 20
146.050003
 30
0.0
 11
225.049989
 21
133.949997
 31
0.0
  0
LINE
  5
1817E
  8
DANMEN
  6
CONTINUOUS
 10
212.949998
 20
146.050003
 30
0.0
 11
212.949998
 21
133.949997
 31
0.0
  0
LINE
  5
1817F
  8
DANMEN
  6
CONTINUOUS
 10
212.699998
 20
132.0
 30
0.0
 11
225.299989
 21
132.0
 31
0.0
  0
LINE
  5
18180
  8
DANMEN
  6
CONTINUOUS
 10
212.949998
 20
133.949997
 30
0.0
 11
225.049989
 21
133.949997
 31
0.0
  0
LINE
  5
18181
  8
DANMEN
  6
CONTINUOUS
 10
212.699998
 20
132.0
 30
0.0
 11
212.959696
 21
128.537395
 31
0.0
  0
ARC
  5
18183
  8
DANMEN
  6
CONTINUOUS
 10
212.461097
 20
128.5
 30
0.0
 40
0.5
 50
270.0
 51
4.289197
  0
LINE
  5
18189
  8
DANMEN
  6
CONTINUOUS
 10
225.299989
 20
132.0
 30
0.0
 11
225.040291
 21
128.537395
 31
0.0
  0
LINE
  5
1818F
  8
DANMEN
  6
CONTINUOUS
 10
212.949998
 20
146.050003
 30
0.0
 11
225.049989
 21
146.050003
 31
0.0
  0
LINE
  5
18192
  8
DANMEN
  6
CONTINUOUS
 10
240.49991
 20
133.499985
 30
0.0
 11
240.49991
 21
135.999991
 31
0.0
  0
LINE
  5
18193
  8
DANMEN
  6
CONTINUOUS
 10
225.538896
 20
128.0
 30
0.0
 11
237.500002
 21
128.0
 31
0.0
  0
LINE
  5
18194
  8
DANMEN
  6
CONTINUOUS
 10
226.999986
 20
129.949997
 30
0.0
 11
236.800005
 21
129.949997
 31
0.0
  0
LINE
  5
18196
  8
DANMEN
  6
CONTINUOUS
 10
238.000002
 20
128.5
 30
0.0
 11
238.000002
 21
132.5
 31
0.0
  0
ARC
  5
18197
  8
DANMEN
  6
CONTINUOUS
 10
237.500002
 20
128.5
 30
0.0
 40
0.5
 50
270.000018
 51
0.0
  0
ARC
  5
18199
  8
DANMEN
  6
CONTINUOUS
 10
237.500002
 20
132.5
 30
0.0
 40
0.5
 50
0.0
 51
89.999982
  0
LINE
  5
1819B
  8
DANMEN
  6
CONTINUOUS
 10
236.800005
 20
129.949997
 30
0.0
 11
236.800005
 21
132.2
 31
0.0
  0
LINE
  5
1819D
  8
DANMEN
  6
CONTINUOUS
 10
235.000002
 20
132.84752
 30
0.0
 11
235.000002
 21
133.0
 31
0.0
  0
LINE
  5
1819E
  8
DANMEN
  6
CONTINUOUS
 10
235.000002
 20
133.0
 30
0.0
 11
237.500002
 21
133.0
 31
0.0
  0
LINE
  5
181A1
  8
DANMEN
  6
CONTINUOUS
 10
236.800005
 20
132.2
 30
0.0
 11
235.444786
 21
132.35058
 31
0.0
  0
ARC
  5
181A2
  8
DANMEN
  6
CONTINUOUS
 10
235.500002
 20
132.847521
 30
0.0
 40
0.5
 50
180.0
 51
263.659819
  0
ARC
  5
181A4
  8
DANMEN
  6
CONTINUOUS
 10
238.99991
 20
133.499985
 30
0.0
 40
1.5
 50
269.999964
 51
0.000001
  0
LINE
  5
181A6
  8
DANMEN
  6
CONTINUOUS
 10
230.999986
 20
137.499991
 30
0.0
 11
230.999986
 21
142.499994
 31
0.0
  0
LINE
  5
181A9
  8
DANMEN
  6
CONTINUOUS
 10
240.49991
 20
143.999994
 30
0.0
 11
240.49991
 21
146.499985
 31
0.0
  0
ARC
  5
181AA
  8
DANMEN
  6
CONTINUOUS
 10
225.538891
 20
151.5
 30
0.0
 40
0.5
 50
90.0
 51
184.289197
  0
LINE
  5
181AB
  8
DANMEN
  6
CONTINUOUS
 10
210.0
 20
159.0
 30
0.0
 11
230.0
 21
159.0
 31
0.0
  0
LINE
  5
181AC
  8
DANMEN
  6
CONTINUOUS
 10
210.000002
 20
158.5
 30
0.0
 11
210.000002
 21
157.850006
 31
0.0
  0
LINE
  5
181AD
  8
DANMEN
  6
CONTINUOUS
 10
212.699998
 20
148.0
 30
0.0
 11
225.299989
 21
148.0
 31
0.0
  0
ARC
  5
181AE
  8
DANMEN
  6
CONTINUOUS
 10
212.461097
 20
151.5
 30
0.0
 40
0.5
 50
355.710803
 51
90.0
  0
LINE
  5
181AF
  8
DANMEN
  6
CONTINUOUS
 10
212.959696
 20
151.462605
 30
0.0
 11
212.699998
 21
148.0
 31
0.0
  0
ARC
  5
181B3
  8
DANMEN
  6
CONTINUOUS
 10
209.500002
 20
157.850006
 30
0.0
 40
0.5
 50
270.000018
 51
359.999981
  0
LINE
  5
181B6
  8
DANMEN
  6
CONTINUOUS
 10
225.040291
 20
151.462605
 30
0.0
 11
225.299989
 21
148.0
 31
0.0
  0
ARC
  5
181BA
  8
DANMEN
  6
CONTINUOUS
 10
209.500002
 20
158.5
 30
0.0
 40
0.5
 50
359.999981
 51
89.999982
  0
LINE
  5
181BD
  8
DANMEN
  6
CONTINUOUS
 10
230.0
 20
162.0
 30
0.0
 11
230.0
 21
157.800003
 31
0.0
  0
LINE
  5
181BE
  8
DANMEN
  6
CONTINUOUS
 10
225.538891
 20
152.0
 30
0.0
 11
237.500002
 21
152.0
 31
0.0
  0
LINE
  5
181BF
  8
DANMEN
  6
CONTINUOUS
 10
226.999986
 20
150.050003
 30
0.0
 11
236.800005
 21
150.050003
 31
0.0
  0
ARC
  5
181C2
  8
DANMEN
  6
CONTINUOUS
 10
237.500002
 20
151.5
 30
0.0
 40
0.5
 50
0.0
 51
89.999982
  0
ARC
  5
181C3
  8
DANMEN
  6
CONTINUOUS
 10
237.500002
 20
147.5
 30
0.0
 40
0.5
 50
270.000018
 51
0.0
  0
LINE
  5
181C5
  8
DANMEN
  6
CONTINUOUS
 10
236.800005
 20
150.050003
 30
0.0
 11
236.800005
 21
147.8
 31
0.0
  0
LINE
  5
181C7
  8
DANMEN
  6
CONTINUOUS
 10
235.000002
 20
147.152481
 30
0.0
 11
235.000002
 21
147.0
 31
0.0
  0
LINE
  5
181C8
  8
DANMEN
  6
CONTINUOUS
 10
235.000002
 20
147.0
 30
0.0
 11
237.500002
 21
147.0
 31
0.0
  0
LINE
  5
181CB
  8
DANMEN
  6
CONTINUOUS
 10
236.800005
 20
147.8
 30
0.0
 11
235.444786
 21
147.64942
 31
0.0
  0
ARC
  5
181CC
  8
DANMEN
  6
CONTINUOUS
 10
235.500002
 20
147.152479
 30
0.0
 40
0.5
 50
96.340181
 51
180.0
  0
LINE
  5
181D0
  8
DANMEN
  6
CONTINUOUS
 10
238.000002
 20
151.5
 30
0.0
 11
238.000002
 21
147.5
 31
0.0
  0
LINE
  5
181D1
  8
DANMEN
  6
CONTINUOUS
 10
234.399994
 20
162.0
 30
0.0
 11
230.0
 21
162.0
 31
0.0
  0
LINE
  5
181D2
  8
DANMEN
  6
CONTINUOUS
 10
234.399994
 20
160.800003
 30
0.0
 11
230.0
 21
160.800003
 31
0.0
  0
ARC
  5
181D3
  8
DANMEN
  6
CONTINUOUS
 10
234.399994
 20
161.399994
 30
0.0
 40
0.6
 50
270.000018
 51
90.000037
  0
ARC
  5
181D8
  8
DANMEN
  6
CONTINUOUS
 10
269.000094
 20
146.500015
 30
0.0
 40
1.5
 50
89.999964
 51
180.000001
  0
LINE
  5
181D9
  8
DANMEN
  6
CONTINUOUS
 10
255.500001
 20
128.0
 30
0.0
 11
270.0
 21
128.0
 31
0.0
  0
LINE
  5
181DA
  8
DANMEN
  6
CONTINUOUS
 10
255.500001
 20
125.0
 30
0.0
 11
271.851114
 21
125.0
 31
0.0
  0
LINE
  5
181DB
  8
DANMEN
  6
CONTINUOUS
 10
255.500001
 20
132.0
 30
0.0
 11
270.0
 21
132.0
 31
0.0
  0
LINE
  5
181DC
  8
DANMEN
  6
CONTINUOUS
 10
255.500001
 20
130.2
 30
0.0
 11
270.0
 21
130.2
 31
0.0
  0
LINE
  5
181DD
  8
DANMEN
  6
CONTINUOUS
 10
267.500094
 20
136.000006
 30
0.0
 11
267.500094
 21
133.500015
 31
0.0
  0
LINE
  5
181DE
  8
DANMEN
  6
CONTINUOUS
 10
270.000003
 20
132.5
 30
0.0
 11
270.000003
 21
128.5
 31
0.0
  0
LINE
  5
181DF
  8
DANMEN
  6
CONTINUOUS
 10
270.500003
 20
125.0
 30
0.0
 11
270.700003
 21
125.0
 31
0.0
  0
ARC
  5
181E1
  8
DANMEN
  6
CONTINUOUS
 10
270.500003
 20
128.5
 30
0.0
 40
0.5
 50
180.000019
 51
270.000001
  0
ARC
  5
181E2
  8
DANMEN
  6
CONTINUOUS
 10
270.500003
 20
124.5
 30
0.0
 40
0.5
 50
90.0
 51
180.0
  0
LINE
  5
181E8
  8
DANMEN
  6
CONTINUOUS
 10
274.004655
 20
128.341701
 30
0.0
 11
271.400003
 21
124.3
 31
0.0
  0
ARC
  5
181EB
  8
DANMEN
  6
CONTINUOUS
 10
270.700003
 20
124.5
 30
0.0
 40
0.5
 50
0.0
 51
90.0
  0
LINE
  5
181ED
  8
DANMEN
  6
CONTINUOUS
 10
270.500003
 20
133.0
 30
0.0
 11
273.000003
 21
133.0
 31
0.0
  0
ARC
  5
181EE
  8
DANMEN
  6
CONTINUOUS
 10
269.000094
 20
133.500015
 30
0.0
 40
1.5
 50
180.000018
 51
270.0
  0
ARC
  5
181F0
  8
DANMEN
  6
CONTINUOUS
 10
270.500003
 20
132.5
 30
0.0
 40
0.5
 50
89.999982
 51
180.000019
  0
LINE
  5
181F1
  8
DANMEN
  6
CONTINUOUS
 10
271.200003
 20
132.2
 30
0.0
 11
271.200003
 21
129.949997
 31
0.0
  0
LINE
  5
181F2
  8
DANMEN
  6
CONTINUOUS
 10
273.000003
 20
133.0
 30
0.0
 11
273.000003
 21
132.847521
 31
0.0
  0
LINE
  5
181F7
  8
DANMEN
  6
CONTINUOUS
 10
272.555219
 20
132.35058
 30
0.0
 11
271.200003
 21
132.2
 31
0.0
  0
ARC
  5
181F8
  8
DANMEN
  6
CONTINUOUS
 10
272.500003
 20
132.847521
 30
0.0
 40
0.5
 50
276.340191
 51
0.0
  0
ARC
  5
181FA
  8
DANMEN
  6
CONTINUOUS
 10
266.000094
 20
144.000009
 30
0.0
 40
1.5
 50
270.0
 51
359.999982
  0
ARC
  5
181FB
  8
DANMEN
  6
CONTINUOUS
 10
266.000094
 20
136.000006
 30
0.0
 40
1.5
 50
359.999982
 51
89.999964
  0
LINE
  5
181FE
  8
DANMEN
  6
CONTINUOUS
 10
267.500094
 20
146.500015
 30
0.0
 11
267.500094
 21
144.000009
 31
0.0
  0
LINE
  5
181FF
  8
DANMEN
  6
CONTINUOUS
 10
255.500001
 20
148.0
 30
0.0
 11
270.0
 21
148.0
 31
0.0
  0
LINE
  5
18200
  8
DANMEN
  6
CONTINUOUS
 10
255.500001
 20
149.8
 30
0.0
 11
270.0
 21
149.8
 31
0.0
  0
LINE
  5
18201
  8
DANMEN
  6
CONTINUOUS
 10
270.500003
 20
147.0
 30
0.0
 11
273.000003
 21
147.0
 31
0.0
  0
LINE
  5
18202
  8
DANMEN
  6
CONTINUOUS
 10
270.000003
 20
151.5
 30
0.0
 11
270.000003
 21
147.5
 31
0.0
  0
ARC
  5
18204
  8
DANMEN
  6
CONTINUOUS
 10
270.500003
 20
147.5
 30
0.0
 40
0.5
 50
180.000019
 51
270.000001
  0
ARC
  5
18206
  8
DANMEN
  6
CONTINUOUS
 10
270.500003
 20
151.5
 30
0.0
 40
0.5
 50
89.999982
 51
180.000019
  0
LINE
  5
18207
  8
DANMEN
  6
CONTINUOUS
 10
271.200003
 20
150.050003
 30
0.0
 11
271.200003
 21
147.8
 31
0.0
  0
LINE
  5
18208
  8
DANMEN
  6
CONTINUOUS
 10
273.000003
 20
147.152479
 30
0.0
 11
273.000003
 21
147.0
 31
0.0
  0
LINE
  5
1820D
  8
DANMEN
  6
CONTINUOUS
 10
271.200003
 20
147.8
 30
0.0
 11
272.555219
 21
147.64942
 31
0.0
  0
ARC
  5
1820E
  8
DANMEN
  6
CONTINUOUS
 10
272.500003
 20
147.152479
 30
0.0
 40
0.5
 50
0.0
 51
83.659809
  0
LINE
  5
18210
  8
DANMEN
  6
CONTINUOUS
 10
296.95
 20
150.050003
 30
0.0
 11
308.050006
 21
150.050003
 31
0.0
  0
LINE
  5
18211
  8
DANMEN
  6
CONTINUOUS
 10
296.95
 20
129.949997
 30
0.0
 11
308.050006
 21
129.949997
 31
0.0
  0
LINE
  5
18212
  8
DANMEN
  6
CONTINUOUS
 10
300.000003
 20
128.0
 30
0.0
 11
308.800003
 21
128.0
 31
0.0
  0
LINE
  5
18213
  8
DANMEN
  6
CONTINUOUS
 10
300.0
 20
125.0
 30
0.0
 11
308.8
 21
125.0
 31
0.0
  0
LINE
  5
18214
  8
DANMEN
  6
CONTINUOUS
 10
285.000003
 20
150.050003
 30
0.0
 11
285.000003
 21
129.949997
 31
0.0
  0
LINE
  5
18215
  8
DANMEN
  6
CONTINUOUS
 10
286.95
 20
150.050003
 30
0.0
 11
286.95
 21
129.949997
 31
0.0
  0
LINE
  5
18216
  8
DANMEN
  6
CONTINUOUS
 10
286.95
 20
129.949997
 30
0.0
 11
295.95
 21
129.949997
 31
0.0
  0
LINE
  5
18217
  8
DANMEN
  6
CONTINUOUS
 10
294.250006
 20
125.5
 30
0.0
 11
284.050003
 21
125.5
 31
0.0
  0
LINE
  5
18218
  8
DANMEN
  6
CONTINUOUS
 10
276.800003
 20
125.0
 30
0.0
 11
283.183978
 21
125.0
 31
0.0
  0
LINE
  5
18219
  8
DANMEN
  6
CONTINUOUS
 10
274.845226
 20
128.8
 30
0.0
 11
276.200003
 21
128.8
 31
0.0
  0
LINE
  5
1821A
  8
DANMEN
  6
CONTINUOUS
 10
275.800003
 20
127.8
 30
0.0
 11
275.800003
 21
124.3
 31
0.0
  0
LINE
  5
1821B
  8
DANMEN
  6
CONTINUOUS
 10
274.845226
 20
127.8
 30
0.0
 11
275.800003
 21
127.8
 31
0.0
  0
ARC
  5
1821D
  8
DANMEN
  6
CONTINUOUS
 10
276.200003
 20
128.2
 30
0.0
 40
0.6
 50
0.0
 51
90.0
  0
LINE
  5
18221
  8
DANMEN
  6
CONTINUOUS
 10
288.050006
 20
124.0
 30
0.0
 11
284.550003
 21
124.0
 31
0.0
  0
ARC
  5
18223
  8
DANMEN
  6
CONTINUOUS
 10
284.050003
 20
124.5
 30
0.0
 40
1.0
 50
89.999982
 51
180.000019
  0
LINE
  5
18228
  8
DANMEN
  6
CONTINUOUS
 10
277.000018
 20
142.500009
 30
0.0
 11
277.000018
 21
137.500006
 31
0.0
  0
LINE
  5
18229
  8
DANMEN
  6
CONTINUOUS
 10
295.000003
 20
124.0
 30
0.0
 11
298.500003
 21
124.0
 31
0.0
  0
LINE
  5
1822A
  8
DANMEN
  6
CONTINUOUS
 10
298.500003
 20
125.0
 30
0.0
 11
294.473613
 21
125.0
 31
0.0
  0
LINE
  5
1822B
  8
DANMEN
  6
CONTINUOUS
 10
294.500003
 20
124.8
 30
0.0
 11
295.000003
 21
124.8
 31
0.0
  0
LINE
  5
1822D
  8
DANMEN
  6
CONTINUOUS
 10
295.000003
 20
124.0
 30
0.0
 11
295.000003
 21
124.8
 31
0.0
  0
ARC
  5
18231
  8
DANMEN
  6
CONTINUOUS
 10
294.250006
 20
125.2
 30
0.0
 40
0.3
 50
286.488148
 51
90.0
  0
LINE
  5
18234
  8
DANMEN
  6
CONTINUOUS
 10
298.500003
 20
128.0
 30
0.0
 11
298.500003
 21
124.0
 31
0.0
  0
LINE
  5
18237
  8
DANMEN
  6
CONTINUOUS
 10
296.95
 20
132.0
 30
0.0
 11
296.95
 21
129.949997
 31
0.0
  0
LINE
  5
18238
  8
DANMEN
  6
CONTINUOUS
 10
295.95
 20
131.5
 30
0.0
 11
295.95
 21
129.949997
 31
0.0
  0
LINE
  5
18239
  8
DANMEN
  6
CONTINUOUS
 10
296.45
 20
132.0
 30
0.0
 11
296.95
 21
132.0
 31
0.0
  0
ARC
  5
1823C
  8
DANMEN
  6
CONTINUOUS
 10
296.45
 20
131.5
 30
0.0
 40
0.5
 50
89.999982
 51
180.000019
  0
LINE
  5
18240
  8
DANMEN
  6
CONTINUOUS
 10
286.95
 20
150.050003
 30
0.0
 11
295.95
 21
150.050003
 31
0.0
  0
LINE
  5
18243
  8
DANMEN
  6
CONTINUOUS
 10
296.45
 20
148.0
 30
0.0
 11
296.95
 21
148.0
 31
0.0
  0
LINE
  5
18244
  8
DANMEN
  6
CONTINUOUS
 10
296.95
 20
150.050003
 30
0.0
 11
296.95
 21
148.0
 31
0.0
  0
LINE
  5
18245
  8
DANMEN
  6
CONTINUOUS
 10
295.95
 20
150.050003
 30
0.0
 11
295.95
 21
148.5
 31
0.0
  0
ARC
  5
18248
  8
DANMEN
  6
CONTINUOUS
 10
296.45
 20
148.5
 30
0.0
 40
0.5
 50
180.000019
 51
270.000001
  0
LINE
  5
1824B
  8
DANMEN
  6
CONTINUOUS
 10
308.050006
 20
150.050003
 30
0.0
 11
308.050006
 21
129.949997
 31
0.0
  0
LINE
  5
1824C
  8
DANMEN
  6
CONTINUOUS
 10
310.000003
 20
151.0
 30
0.0
 11
310.000003
 21
123.6
 31
0.0
  0
LINE
  5
1824D
  8
DANMEN
  6
CONTINUOUS
 10
310.0
 20
125.0
 30
0.0
 11
333.5
 21
125.0
 31
0.0
  0
LINE
  5
1824E
  8
DANMEN
  6
CONTINUOUS
 10
308.800003
 20
128.0
 30
0.0
 11
308.800003
 21
123.6
 31
0.0
  0
LINE
  5
18251
  8
DANMEN
  6
CONTINUOUS
 10
310.0
 20
141.5
 30
0.0
 11
323.432756
 21
141.5
 31
0.0
  0
LINE
  5
18252
  8
DANMEN
  6
CONTINUOUS
 10
310.0
 20
138.5
 30
0.0
 11
323.432756
 21
138.5
 31
0.0
  0
LINE
  5
18253
  8
DANMEN
  6
CONTINUOUS
 10
326.432756
 20
138.5
 30
0.0
 11
333.5
 21
138.5
 31
0.0
  0
LINE
  5
18254
  8
DANMEN
  6
CONTINUOUS
 10
326.432756
 20
141.5
 30
0.0
 11
333.5
 21
141.5
 31
0.0
  0
ARC
  5
18257
  8
DANMEN
  6
CONTINUOUS
 10
309.000003
 20
151.0
 30
0.0
 40
1.0
 50
0.0
 51
89.999982
  0
LINE
  5
18258
  8
SUNPO
  6
CONTINUOUS
 10
29.0
 20
188.0
 30
0.0
 11
29.0
 21
223.0
 31
0.0
  0
LINE
  5
18259
  8
DANMEN
  6
CONTINUOUS
 10
394.5
 20
159.0
 30
0.0
 11
370.5
 21
159.0
 31
0.0
  0
LINE
  5
1825A
  8
DANMEN
  6
CONTINUOUS
 10
383.0
 20
157.350006
 30
0.0
 11
370.5
 21
157.350006
 31
0.0
  0
LINE
  5
1825B
  8
DANMEN
  6
CONTINUOUS
 10
370.0
 20
159.0
 30
0.0
 11
350.0
 21
159.0
 31
0.0
  0
LINE
  5
1825C
  8
DANMEN
  6
CONTINUOUS
 10
350.0
 20
162.0
 30
0.0
 11
350.0
 21
157.800003
 31
0.0
  0
LINE
  5
1825E
  8
DANMEN
  6
CONTINUOUS
 10
345.600006
 20
162.0
 30
0.0
 11
350.0
 21
162.0
 31
0.0
  0
LINE
  5
1825F
  8
DANMEN
  6
CONTINUOUS
 10
345.600006
 20
160.800003
 30
0.0
 11
350.0
 21
160.800003
 31
0.0
  0
ARC
  5
18260
  8
DANMEN
  6
CONTINUOUS
 10
345.600006
 20
161.399994
 30
0.0
 40
0.6
 50
89.999963
 51
269.999982
  0
LINE
  5
18265
  8
DANMEN
  6
CONTINUOUS
 10
370.0
 20
158.5
 30
0.0
 11
370.0
 21
157.850006
 31
0.0
  0
ARC
  5
18266
  8
DANMEN
  6
CONTINUOUS
 10
370.5
 20
157.850006
 30
0.0
 40
0.5
 50
180.000019
 51
270.000001
  0
ARC
  5
18267
  8
DANMEN
  6
CONTINUOUS
 10
370.5
 20
158.5
 30
0.0
 40
0.5
 50
90.000037
 51
180.000019
  0
LINE
  5
18268
  8
DANMEN
  6
CONTINUOUS
 10
393.350006
 20
157.350006
 30
0.0
 11
386.649994
 21
157.350006
 31
0.0
  0
LINE
  5
18269
  8
DANMEN
  6
CONTINUOUS
 10
385.0
 20
157.900003
 30
0.0
 11
383.0
 21
157.900003
 31
0.0
  0
LINE
  5
1826A
  8
DANMEN
  6
CONTINUOUS
 10
383.0
 20
157.900003
 30
0.0
 11
383.0
 21
157.350006
 31
0.0
  0
LINE
  5
1826B
  8
DANMEN
  6
CONTINUOUS
 10
395.0
 20
158.5
 30
0.0
 11
395.0
 21
153.5
 31
0.0
  0
ARC
  5
1826C
  8
DANMEN
  6
CONTINUOUS
 10
393.850006
 20
153.5
 30
0.0
 40
0.5
 50
180.000019
 51
270.000001
  0
LINE
  5
1826D
  8
DANMEN
  6
CONTINUOUS
 10
393.350006
 20
157.350006
 30
0.0
 11
393.350006
 21
153.5
 31
0.0
  0
LINE
  5
1826E
  8
DANMEN
  6
CONTINUOUS
 10
394.5
 20
153.0
 30
0.0
 11
393.850006
 21
153.0
 31
0.0
  0
ARC
  5
1826F
  8
DANMEN
  6
CONTINUOUS
 10
394.5
 20
153.5
 30
0.0
 40
0.5
 50
270.000018
 51
359.999981
  0
ARC
  5
18270
  8
DANMEN
  6
CONTINUOUS
 10
394.5
 20
158.5
 30
0.0
 40
0.5
 50
0.0
 51
89.999982
  0
LINE
  5
18271
  8
SUNPO
  6
CONTINUOUS
 10
47.5
 20
141.0
 30
0.0
 11
29.0
 21
141.0
 31
0.0
  0
ARC
  5
18272
  8
SUNPO
  6
BYBLOCK
 10
29.0
 20
141.0
 30
0.0
 40
0.145
 50
90.0
 51
270.0
  0
ARC
  5
18273
  8
SUNPO
  6
BYBLOCK
 10
29.0
 20
141.0
 30
0.0
 40
0.145
 50
270.0
 51
90.0
  0
LINE
  5
18274
  8
SUNPO
  6
CONTINUOUS
 10
56.0
 20
163.0
 30
0.0
 11
49.0
 21
163.0
 31
0.0
  0
TEXT
  5
18275
  8
SUNPO
  6
CONTINUOUS
 10
51.666667
 20
164.0
 30
0.0
 40
2.5
  1
7
  7
MX_NOTE_STANDARD
  0
ARC
  5
18276
  8
SUNPO
  6
BYBLOCK
 10
49.0
 20
163.0
 30
0.0
 40
0.145
 50
180.0
 51
0.0
  0
ARC
  5
18277
  8
SUNPO
  6
BYBLOCK
 10
49.0
 20
163.0
 30
0.0
 40
0.145
 50
0.0
 51
180.0
  0
ARC
  5
18278
  8
SUNPO
  6
BYBLOCK
 10
56.0
 20
163.0
 30
0.0
 40
0.145
 50
0.0
 51
180.0
  0
ARC
  5
18279
  8
SUNPO
  6
BYBLOCK
 10
56.0
 20
163.0
 30
0.0
 40
0.145
 50
180.0
 51
0.0
  0
ARC
  5
1827A
  8
SUNPO
  6
BYBLOCK
 10
56.0
 20
163.0
 30
0.0
 40
0.145
 50
180.0
 51
0.0
  0
ARC
  5
1827B
  8
SUNPO
  6
BYBLOCK
 10
56.0
 20
163.0
 30
0.0
 40
0.145
 50
0.0
 51
180.0
  0
TEXT
  5
1827C
  8
SUNPO
  6
CONTINUOUS
 10
65.916667
 20
164.0
 30
0.0
 40
2.5
  1
24
  7
MX_NOTE_STANDARD
  0
LINE
  5
1827D
  8
SUNPO
  6
CONTINUOUS
 10
47.5
 20
188.0
 30
0.0
 11
29.0
 21
188.0
 31
0.0
  0
ARC
  5
1827E
  8
SUNPO
  6
BYBLOCK
 10
29.0
 20
188.0
 30
0.0
 40
0.145
 50
270.0
 51
90.0
  0
ARC
  5
1827F
  8
SUNPO
  6
BYBLOCK
 10
29.0
 20
188.0
 30
0.0
 40
0.145
 50
90.0
 51
270.0
  0
TEXT
  5
18280
  8
SUNPO
  6
CONTINUOUS
 10
28.0
 20
203.416667
 30
0.0
 40
2.5
  1
35
 50
90.0
  7
MX_NOTE_STANDARD
  0
ARC
  5
18281
  8
SUNPO
  6
BYBLOCK
 10
49.0
 20
178.0
 30
0.0
 40
0.145
 50
180.0
 51
0.0
  0
ARC
  5
18282
  8
SUNPO
  6
BYBLOCK
 10
49.0
 20
178.0
 30
0.0
 40
0.145
 50
0.0
 51
180.0
  0
LINE
  5
18283
  8
SUNPO
  6
CONTINUOUS
 10
47.5
 20
258.0
 30
0.0
 11
29.0
 21
258.0
 31
0.0
  0
LINE
  5
18284
  8
SUNPO
  6
CONTINUOUS
 10
47.5
 20
223.0
 30
0.0
 11
29.0
 21
223.0
 31
0.0
  0
TEXT
  5
18285
  8
SUNPO
  6
CONTINUOUS
 10
28.0
 20
238.416667
 30
0.0
 40
2.5
  1
35
 50
90.0
  7
MX_NOTE_STANDARD
  0
LINE
  5
18286
  8
SUNPO
  6
CONTINUOUS
 10
29.0
 20
258.0
 30
0.0
 11
29.0
 21
223.0
 31
0.0
  0
ARC
  5
18287
  8
SUNPO
  6
BYBLOCK
 10
29.0
 20
223.0
 30
0.0
 40
0.145
 50
270.0
 51
90.0
  0
ARC
  5
18288
  8
SUNPO
  6
BYBLOCK
 10
29.0
 20
223.0
 30
0.0
 40
0.145
 50
90.0
 51
270.0
  0
ARC
  5
18289
  8
SUNPO
  6
BYBLOCK
 10
29.0
 20
223.0
 30
0.0
 40
0.145
 50
90.0
 51
270.0
  0
ARC
  5
1828A
  8
SUNPO
  6
BYBLOCK
 10
29.0
 20
223.0
 30
0.0
 40
0.145
 50
270.0
 51
90.0
  0
ARC
  5
1828B
  8
SUNPO
  6
BYBLOCK
 10
29.0
 20
258.0
 30
0.0
 40
0.145
 50
90.0
 51
270.0
  0
ARC
  5
1828C
  8
SUNPO
  6
BYBLOCK
 10
29.0
 20
258.0
 30
0.0
 40
0.145
 50
270.0
 51
90.0
  0
LINE
  5
1828D
  8
SUNPO
  6
CONTINUOUS
 10
198.0
 20
169.0
 30
0.0
 11
238.0
 21
169.0
 31
0.0
  0
LINE
  5
1828E
  8
SUNPO
  6
CONTINUOUS
 10
154.0
 20
223.0
 30
0.0
 11
154.0
 21
188.0
 31
0.0
  0
LINE
  5
1828F
  8
SUNPO
  6
CONTINUOUS
 10
164.0
 20
223.0
 30
0.0
 11
164.0
 21
172.462162
 31
0.0
  0
LINE
  5
18290
  8
SUNPO
  6
CONTINUOUS
 10
120.5
 20
188.0
 30
0.0
 11
154.0
 21
188.0
 31
0.0
  0
LINE
  5
18291
  8
SUNPO
  6
CONTINUOUS
 10
120.5
 20
141.0
 30
0.0
 11
154.0
 21
141.0
 31
0.0
  0
TEXT
  5
18292
  8
SUNPO
  6
CONTINUOUS
 10
101.833333
 20
164.0
 30
0.0
 40
2.5
  1
31
  7
MX_NOTE_STANDARD
  0
LINE
  5
18293
  8
SUNPO
  6
CONTINUOUS
 10
88.0
 20
163.0
 30
0.0
 11
119.0
 21
163.0
 31
0.0
  0
ARC
  5
18294
  8
SUNPO
  6
BYBLOCK
 10
88.0
 20
163.0
 30
0.0
 40
0.145
 50
0.0
 51
180.0
  0
ARC
  5
18295
  8
SUNPO
  6
BYBLOCK
 10
88.0
 20
163.0
 30
0.0
 40
0.145
 50
180.0
 51
0.0
  0
ARC
  5
18296
  8
SUNPO
  6
BYBLOCK
 10
88.0
 20
163.0
 30
0.0
 40
0.145
 50
180.0
 51
0.0
  0
ARC
  5
18297
  8
SUNPO
  6
BYBLOCK
 10
88.0
 20
163.0
 30
0.0
 40
0.145
 50
0.0
 51
180.0
  0
LINE
  5
18298
  8
SUNPO
  6
CONTINUOUS
 10
88.0
 20
163.0
 30
0.0
 11
80.0
 21
163.0
 31
0.0
  0
TEXT
  5
18299
  8
SUNPO
  6
CONTINUOUS
 10
83.166667
 20
164.0
 30
0.0
 40
2.5
  1
8
  7
MX_NOTE_STANDARD
  0
ARC
  5
1829A
  8
SUNPO
  6
BYBLOCK
 10
80.0
 20
163.0
 30
0.0
 40
0.145
 50
180.0
 51
0.0
  0
ARC
  5
1829B
  8
SUNPO
  6
BYBLOCK
 10
80.0
 20
163.0
 30
0.0
 40
0.145
 50
0.0
 51
180.0
  0
ARC
  5
1829C
  8
SUNPO
  6
BYBLOCK
 10
80.0
 20
163.0
 30
0.0
 40
0.145
 50
0.0
 51
180.0
  0
ARC
  5
1829D
  8
SUNPO
  6
BYBLOCK
 10
80.0
 20
163.0
 30
0.0
 40
0.145
 50
180.0
 51
0.0
  0
LINE
  5
1829E
  8
SUNPO
  6
CONTINUOUS
 10
119.0
 20
134.997915
 30
0.0
 11
119.0
 21
163.0
 31
0.0
  0
LINE
  5
1829F
  8
SUNPO
  6
CONTINUOUS
 10
127.5
 20
163.0
 30
0.0
 11
119.0
 21
163.0
 31
0.0
  0
ARC
  5
182A0
  8
SUNPO
  6
BYBLOCK
 10
119.0
 20
163.0
 30
0.0
 40
0.145
 50
180.0
 51
0.0
  0
ARC
  5
182A1
  8
SUNPO
  6
BYBLOCK
 10
119.0
 20
163.0
 30
0.0
 40
0.145
 50
0.0
 51
180.0
  0
ARC
  5
182A2
  8
SUNPO
  6
BYBLOCK
 10
119.0
 20
163.0
 30
0.0
 40
0.145
 50
0.0
 51
180.0
  0
ARC
  5
182A3
  8
SUNPO
  6
BYBLOCK
 10
119.0
 20
163.0
 30
0.0
 40
0.145
 50
180.0
 51
0.0
  0
TEXT
  5
182A4
  8
SUNPO
  6
CONTINUOUS
 10
120.75
 20
164.0
 30
0.0
 40
2.5
  1
8.5
  7
MX_NOTE_STANDARD
  0
ARC
  5
182A5
  8
SUNPO
  6
BYBLOCK
 10
127.5
 20
163.0
 30
0.0
 40
0.145
 50
0.0
 51
180.0
  0
ARC
  5
182A6
  8
SUNPO
  6
BYBLOCK
 10
127.5
 20
163.0
 30
0.0
 40
0.145
 50
180.0
 51
0.0
  0
TEXT
  5
182A7
  8
SUNPO
  6
CONTINUOUS
 10
83.443604
 20
179.0
 30
0.0
 40
2.5
  1
70
  7
MX_NOTE_STANDARD
  0
LINE
  5
182A8
  8
SUNPO
  6
CONTINUOUS
 10
119.0
 20
182.502085
 30
0.0
 11
119.0
 21
178.0
 31
0.0
  0
ARC
  5
182A9
  8
SUNPO
  6
BYBLOCK
 10
119.0
 20
178.0
 30
0.0
 40
0.145
 50
0.0
 51
180.0
  0
ARC
  5
182AA
  8
SUNPO
  6
BYBLOCK
 10
119.0
 20
178.0
 30
0.0
 40
0.145
 50
180.0
 51
0.0
  0
ARC
  5
182AB
  8
SUNPO
  6
BYBLOCK
 10
154.0
 20
141.0
 30
0.0
 40
0.145
 50
90.0
 51
270.0
  0
ARC
  5
182AC
  8
SUNPO
  6
BYBLOCK
 10
154.0
 20
141.0
 30
0.0
 40
0.145
 50
270.0
 51
90.0
  0
LINE
  5
182AD
  8
SUNPO
  6
CONTINUOUS
 10
164.0
 20
160.641045
 30
0.0
 11
164.0
 21
155.141045
 31
0.0
  0
LINE
  5
182AE
  8
SUNPO
  6
CONTINUOUS
 10
160.0
 20
155.141045
 30
0.0
 11
168.0
 21
155.141045
 31
0.0
  0
LINE
  5
182AF
  8
SUNPO
  6
CONTINUOUS
 10
160.0
 20
153.141045
 30
0.0
 11
168.0
 21
153.141045
 31
0.0
  0
LINE
  5
182B0
  8
SUNPO
  6
CONTINUOUS
 10
160.0
 20
156.541039
 30
0.0
 11
160.0
 21
151.343696
 31
0.0
  0
LINE
  5
182B1
  8
SUNPO
  6
CONTINUOUS
 10
168.0
 20
156.541039
 30
0.0
 11
168.0
 21
151.343696
 31
0.0
  0
LINE
  5
182B2
  8
SUNPO
  6
CONTINUOUS
 10
160.0
 20
160.641045
 30
0.0
 11
168.0
 21
160.641045
 31
0.0
  0
LINE
  5
182B3
  8
SUNPO
  6
CONTINUOUS
 10
160.0
 20
162.653991
 30
0.0
 11
160.0
 21
158.920944
 31
0.0
  0
LINE
  5
182B4
  8
SUNPO
  6
CONTINUOUS
 10
162.799927
 20
168.656304
 30
0.0
 11
162.799927
 21
163.867761
 31
0.0
  0
LINE
  5
182B5
  8
SUNPO
  6
CONTINUOUS
 10
165.199921
 20
168.656304
 30
0.0
 11
165.199921
 21
163.867761
 31
0.0
  0
LINE
  5
182B7
  8
SUNPO
  6
CONTINUOUS
 10
168.0
 20
162.653991
 30
0.0
 11
168.0
 21
158.920944
 31
0.0
  0
LINE
  5
182B8
  8
SUNPO
  6
CONTINUOUS
 10
195.0
 20
160.5
 30
0.0
 11
195.0
 21
169.0
 31
0.0
  0
LINE
  5
182B9
  8
SUNPO
  6
CONTINUOUS
 10
198.0
 20
160.5
 30
0.0
 11
198.0
 21
169.0
 31
0.0
  0
ARC
  5
182BA
  8
SUNPO
  6
BYBLOCK
 10
195.0
 20
169.0
 30
0.0
 40
0.145
 50
180.0
 51
0.0
  0
ARC
  5
182BB
  8
SUNPO
  6
BYBLOCK
 10
195.0
 20
169.0
 30
0.0
 40
0.145
 50
0.0
 51
180.0
  0
ARC
  5
182BC
  8
SUNPO
  6
BYBLOCK
 10
198.0
 20
169.0
 30
0.0
 40
0.145
 50
0.0
 51
180.0
  0
ARC
  5
182BD
  8
SUNPO
  6
BYBLOCK
 10
198.0
 20
169.0
 30
0.0
 40
0.145
 50
180.0
 51
0.0
  0
ARC
  5
182BE
  8
SUNPO
  6
BYBLOCK
 10
198.0
 20
169.0
 30
0.0
 40
0.145
 50
180.0
 51
0.0
  0
ARC
  5
182BF
  8
SUNPO
  6
BYBLOCK
 10
198.0
 20
169.0
 30
0.0
 40
0.145
 50
0.0
 51
180.0
  0
LINE
  5
182C0
  8
SUNPO
  6
CONTINUOUS
 10
198.0
 20
169.0
 30
0.0
 11
195.0
 21
169.0
 31
0.0
  0
ARC
  5
182C1
  8
SUNPO
  6
BYBLOCK
 10
154.0
 20
188.0
 30
0.0
 40
0.145
 50
270.0
 51
90.0
  0
ARC
  5
182C2
  8
SUNPO
  6
BYBLOCK
 10
154.0
 20
188.0
 30
0.0
 40
0.145
 50
90.0
 51
270.0
  0
TEXT
  5
182C3
  8
SUNPO
  6
CONTINUOUS
 10
153.0
 20
203.416667
 30
0.0
 40
2.5
  1
35
 50
90.0
  7
MX_NOTE_STANDARD
  0
TEXT
  5
182C4
  8
SUNPO
  6
CONTINUOUS
 10
195.666667
 20
170.0
 30
0.0
 40
2.5
  1
3
  7
MX_NOTE_STANDARD
  0
LINE
  5
182C5
  8
SUNPO
  6
CONTINUOUS
 10
120.5
 20
223.0
 30
0.0
 11
164.0
 21
223.0
 31
0.0
  0
LINE
  5
182C6
  8
SUNPO
  6
CONTINUOUS
 10
120.5
 20
258.0
 30
0.0
 11
164.0
 21
258.0
 31
0.0
  0
TEXT
  5
182C7
  8
SUNPO
  6
CONTINUOUS
 10
163.0
 20
238.416667
 30
0.0
 40
2.5
  1
35
 50
90.0
  7
MX_NOTE_STANDARD
  0
LINE
  5
182C8
  8
SUNPO
  6
CONTINUOUS
 10
164.0
 20
258.0
 30
0.0
 11
164.0
 21
223.0
 31
0.0
  0
LINE
  5
182C9
  8
SUNPO
  6
CONTINUOUS
 10
169.0
 20
218.0
 30
0.0
 11
159.0
 21
218.0
 31
0.0
  0
LINE
  5
182CA
  8
SUNPO
  6
CONTINUOUS
 10
159.0
 20
218.0
 30
0.0
 11
164.0
 21
223.0
 31
0.0
  0
ARC
  5
182CC
  8
SUNPO
  6
BYBLOCK
 10
154.0
 20
223.0
 30
0.0
 40
0.145
 50
90.0
 51
270.0
  0
ARC
  5
182CD
  8
SUNPO
  6
BYBLOCK
 10
154.0
 20
223.0
 30
0.0
 40
0.145
 50
270.0
 51
90.0
  0
LINE
  5
182CE
  8
SUNPO
  6
CONTINUOUS
 10
164.0
 20
223.0
 30
0.0
 11
169.0
 21
218.0
 31
0.0
  0
ARC
  5
182D1
  8
SUNPO
  6
BYBLOCK
 10
164.0
 20
258.0
 30
0.0
 40
0.145
 50
90.0
 51
270.0
  0
ARC
  5
182D2
  8
SUNPO
  6
BYBLOCK
 10
164.0
 20
258.0
 30
0.0
 40
0.145
 50
270.0
 51
90.0
  0
LINE
  5
182D3
  8
SUNPO
  6
CONTINUOUS
 10
231.5
 20
159.0
 30
0.0
 11
251.5
 21
159.0
 31
0.0
  0
LINE
  5
182D4
  8
SUNPO
  6
CONTINUOUS
 10
238.0
 20
160.5
 30
0.0
 11
238.0
 21
169.0
 31
0.0
  0
ARC
  5
182D5
  8
SUNPO
  6
BYBLOCK
 10
238.0
 20
169.0
 30
0.0
 40
0.145
 50
0.0
 51
180.0
  0
ARC
  5
182D6
  8
SUNPO
  6
BYBLOCK
 10
238.0
 20
169.0
 30
0.0
 40
0.145
 50
180.0
 51
0.0
  0
LINE
  5
182D7
  8
SUNPO
  6
CONTINUOUS
 10
251.5
 20
162.0
 30
0.0
 11
251.5
 21
167.986667
 31
0.0
  0
ARC
  5
182D8
  8
SUNPO
  6
BYBLOCK
 10
251.5
 20
162.0
 30
0.0
 40
0.145
 50
90.0
 51
270.0
  0
ARC
  5
182D9
  8
SUNPO
  6
BYBLOCK
 10
251.5
 20
162.0
 30
0.0
 40
0.145
 50
270.0
 51
90.0
  0
ARC
  5
182DA
  8
SUNPO
  6
BYBLOCK
 10
251.5
 20
159.0
 30
0.0
 40
0.145
 50
270.0
 51
90.0
  0
ARC
  5
182DB
  8
SUNPO
  6
BYBLOCK
 10
251.5
 20
159.0
 30
0.0
 40
0.145
 50
90.0
 51
270.0
  0
ARC
  5
182DC
  8
SUNPO
  6
BYBLOCK
 10
251.5
 20
159.0
 30
0.0
 40
0.145
 50
90.0
 51
270.0
  0
ARC
  5
182DD
  8
SUNPO
  6
BYBLOCK
 10
251.5
 20
159.0
 30
0.0
 40
0.145
 50
270.0
 51
90.0
  0
LINE
  5
182DE
  8
SUNPO
  6
CONTINUOUS
 10
251.5
 20
159.0
 30
0.0
 11
251.5
 21
162.0
 31
0.0
  0
TEXT
  5
182DF
  8
SUNPO
  6
CONTINUOUS
 10
250.5
 20
165.32
 30
0.0
 40
2.5
  1
3
 50
90.0
  7
MX_NOTE_STANDARD
  0
TEXT
  5
182E0
  8
SUNPO
  6
CONTINUOUS
 10
216.125
 20
170.0
 30
0.0
 40
2.5
  1
40
  7
MX_NOTE_STANDARD
  0
LINE
  5
182E1
  8
SUNPO
  6
CONTINUOUS
 10
327.0
 20
152.0
 30
0.0
 11
327.0
 21
128.0
 31
0.0
  0
LINE
  5
182E2
  8
SUNPO
  6
CONTINUOUS
 10
311.350012
 20
128.0
 30
0.0
 11
327.0
 21
128.0
 31
0.0
  0
ARC
  5
182E3
  8
SUNPO
  6
BYBLOCK
 10
327.0
 20
128.0
 30
0.0
 40
0.145
 50
270.0
 51
90.0
  0
ARC
  5
182E4
  8
SUNPO
  6
BYBLOCK
 10
327.0
 20
128.0
 30
0.0
 40
0.145
 50
90.0
 51
270.0
  0
ARC
  5
182E5
  8
SUNPO
  6
BYBLOCK
 10
327.0
 20
128.0
 30
0.0
 40
0.145
 50
90.0
 51
270.0
  0
ARC
  5
182E6
  8
SUNPO
  6
BYBLOCK
 10
327.0
 20
128.0
 30
0.0
 40
0.145
 50
270.0
 51
90.0
  0
TEXT
  5
182E7
  8
SUNPO
  6
CONTINUOUS
 10
326.0
 20
137.916667
 30
0.0
 40
2.5
  1
24
 50
90.0
  7
MX_NOTE_STANDARD
  0
LINE
  5
182E8
  8
SUNPO
  6
CONTINUOUS
 10
327.0
 20
152.0
 30
0.0
 11
327.0
 21
159.0
 31
0.0
  0
TEXT
  5
182E9
  8
SUNPO
  6
CONTINUOUS
 10
326.0
 20
154.666667
 30
0.0
 40
2.5
  1
7
 50
90.0
  7
MX_NOTE_STANDARD
  0
ARC
  5
182EA
  8
SUNPO
  6
BYBLOCK
 10
327.0
 20
152.0
 30
0.0
 40
0.145
 50
90.0
 51
270.0
  0
ARC
  5
182EB
  8
SUNPO
  6
BYBLOCK
 10
327.0
 20
152.0
 30
0.0
 40
0.145
 50
270.0
 51
90.0
  0
ARC
  5
182EC
  8
SUNPO
  6
BYBLOCK
 10
327.0
 20
152.0
 30
0.0
 40
0.145
 50
270.0
 51
90.0
  0
ARC
  5
182ED
  8
SUNPO
  6
BYBLOCK
 10
327.0
 20
152.0
 30
0.0
 40
0.145
 50
90.0
 51
270.0
  0
ARC
  5
182EE
  8
SUNPO
  6
BYBLOCK
 10
327.0
 20
159.0
 30
0.0
 40
0.145
 50
90.0
 51
270.0
  0
ARC
  5
182EF
  8
SUNPO
  6
BYBLOCK
 10
327.0
 20
159.0
 30
0.0
 40
0.145
 50
270.0
 51
90.0
  0
LINE
  5
182F0
  8
SUNPO
  6
CONTINUOUS
 10
370.0
 20
169.0
 30
0.0
 11
395.0
 21
169.0
 31
0.0
  0
LINE
  5
182F1
  8
SUNPO
  6
CONTINUOUS
 10
370.0
 20
159.350006
 30
0.0
 11
370.0
 21
169.0
 31
0.0
  0
ARC
  5
182F2
  8
SUNPO
  6
BYBLOCK
 10
370.0
 20
169.0
 30
0.0
 40
0.145
 50
180.0
 51
0.0
  0
ARC
  5
182F3
  8
SUNPO
  6
BYBLOCK
 10
370.0
 20
169.0
 30
0.0
 40
0.145
 50
0.0
 51
180.0
  0
LINE
  5
182F4
  8
SUNPO
  6
CONTINUOUS
 10
395.0
 20
160.0
 30
0.0
 11
395.0
 21
169.0
 31
0.0
  0
ARC
  5
182F5
  8
SUNPO
  6
BYBLOCK
 10
395.0
 20
169.0
 30
0.0
 40
0.145
 50
0.0
 51
180.0
  0
ARC
  5
182F6
  8
SUNPO
  6
BYBLOCK
 10
395.0
 20
169.0
 30
0.0
 40
0.145
 50
180.0
 51
0.0
  0
TEXT
  5
182F7
  8
SUNPO
  6
CONTINUOUS
 10
380.416667
 20
170.0
 30
0.0
 40
2.5
  1
25
  7
MX_NOTE_STANDARD
  0
LINE
  5
1837C
  8
SUNPO
  6
CONTINUOUS
 10
230.115372
 20
56.107269
 30
0.0
 11
231.028887
 21
56.730081
 31
0.0
210
0.0
220
0.0
230
-1.0
  0
LINE
  5
1837D
  8
SUNPO
  6
CONTINUOUS
 10
231.028887
 20
56.730081
 30
0.0
 11
231.499982
 21
56.768293
 31
0.0
210
0.0
220
0.0
230
-1.0
  0
LINE
  5
1837E
  8
SUNPO
  6
CONTINUOUS
 10
231.499982
 20
56.768293
 30
0.0
 11
231.3138
 21
56.255982
 31
0.0
210
0.0
220
0.0
230
-1.0
  0
LINE
  5
1837F
  8
SUNPO
  6
CONTINUOUS
 10
231.3138
 20
56.255982
 30
0.0
 11
230.420898
 21
54.276791
 31
0.0
210
0.0
220
0.0
230
-1.0
  0
LINE
  5
18380
  8
SUNPO
  6
CONTINUOUS
 10
230.420898
 20
54.276791
 30
0.0
 11
230.717461
 21
53.297817
 31
0.0
210
0.0
220
0.0
230
-1.0
  0
LINE
  5
18381
  8
SUNPO
  6
CONTINUOUS
 10
230.717461
 20
53.297817
 30
0.0
 11
231.678871
 21
53.601968
 31
0.0
210
0.0
220
0.0
230
-1.0
  0
LINE
  5
18382
  8
SUNPO
  6
CONTINUOUS
 10
231.678871
 20
53.601968
 30
0.0
 11
232.16436
 21
54.719453
 31
0.0
210
0.0
220
0.0
230
-1.0
  0
LINE
  5
18383
  8
SUNPO
  6
CONTINUOUS
 10
232.16436
 20
54.719453
 30
0.0
 11
232.27692
 21
55.220793
 31
0.0
210
0.0
220
0.0
230
-1.0
  0
LINE
  5
18384
  8
SUNPO
  6
CONTINUOUS
 10
232.27692
 20
55.220793
 30
0.0
 11
232.149498
 21
54.695165
 31
0.0
210
0.0
220
0.0
230
-1.0
  0
LINE
  5
18385
  8
SUNPO
  6
CONTINUOUS
 10
232.149498
 20
54.695165
 30
0.0
 11
232.099705
 21
53.62979
 31
0.0
210
0.0
220
0.0
230
-1.0
  0
LINE
  5
18386
  8
SUNPO
  6
CONTINUOUS
 10
232.099705
 20
53.62979
 30
0.0
 11
232.935643
 21
53.048466
 31
0.0
210
0.0
220
0.0
230
-1.0
  0
LINE
  5
18387
  8
SUNPO
  6
CONTINUOUS
 10
232.935643
 20
53.048466
 30
0.0
 11
233.808647
 21
53.664377
 31
0.0
210
0.0
220
0.0
230
-1.0
  0
LINE
  5
18388
  8
SUNPO
  6
CONTINUOUS
 10
233.808647
 20
53.664377
 30
0.0
 11
234.251869
 21
54.654112
 31
0.0
210
0.0
220
0.0
230
-1.0
  0
LINE
  5
18389
  8
SUNPO
  6
CONTINUOUS
 10
234.251869
 20
54.654112
 30
0.0
 11
234.136626
 21
56.810488
 31
0.0
210
0.0
220
0.0
230
-1.0
  0
LINE
  5
1838A
  8
SUNPO
  6
CONTINUOUS
 10
234.136626
 20
56.810488
 30
0.0
 11
236.274428
 21
56.57399
 31
0.0
210
0.0
220
0.0
230
-1.0
  0
LINE
  5
1838B
  8
SUNPO
  6
CONTINUOUS
 10
330.115372
 20
56.107269
 30
0.0
 11
331.028887
 21
56.730081
 31
0.0
210
0.0
220
0.0
230
-1.0
  0
LINE
  5
1838C
  8
SUNPO
  6
CONTINUOUS
 10
331.028887
 20
56.730081
 30
0.0
 11
331.499983
 21
56.768293
 31
0.0
210
0.0
220
0.0
230
-1.0
  0
LINE
  5
1838D
  8
SUNPO
  6
CONTINUOUS
 10
331.499983
 20
56.768293
 30
0.0
 11
331.3138
 21
56.255983
 31
0.0
210
0.0
220
0.0
230
-1.0
  0
LINE
  5
1838E
  8
SUNPO
  6
CONTINUOUS
 10
331.3138
 20
56.255983
 30
0.0
 11
330.420898
 21
54.276791
 31
0.0
210
0.0
220
0.0
230
-1.0
  0
LINE
  5
1838F
  8
SUNPO
  6
CONTINUOUS
 10
330.420898
 20
54.276791
 30
0.0
 11
330.717461
 21
53.297817
 31
0.0
210
0.0
220
0.0
230
-1.0
  0
LINE
  5
18390
  8
SUNPO
  6
CONTINUOUS
 10
330.717461
 20
53.297817
 30
0.0
 11
331.678871
 21
53.601967
 31
0.0
210
0.0
220
0.0
230
-1.0
  0
LINE
  5
18391
  8
SUNPO
  6
CONTINUOUS
 10
331.678871
 20
53.601967
 30
0.0
 11
332.164361
 21
54.719451
 31
0.0
210
0.0
220
0.0
230
-1.0
  0
LINE
  5
18392
  8
SUNPO
  6
CONTINUOUS
 10
332.164361
 20
54.719451
 30
0.0
 11
332.276921
 21
55.220793
 31
0.0
210
0.0
220
0.0
230
-1.0
  0
LINE
  5
18393
  8
SUNPO
  6
CONTINUOUS
 10
332.276921
 20
55.220793
 30
0.0
 11
332.1495
 21
54.695166
 31
0.0
210
0.0
220
0.0
230
-1.0
  0
LINE
  5
18394
  8
SUNPO
  6
CONTINUOUS
 10
332.1495
 20
54.695166
 30
0.0
 11
332.099705
 21
53.62979
 31
0.0
210
0.0
220
0.0
230
-1.0
  0
LINE
  5
18395
  8
SUNPO
  6
CONTINUOUS
 10
332.099705
 20
53.62979
 30
0.0
 11
332.935643
 21
53.048466
 31
0.0
210
0.0
220
0.0
230
-1.0
  0
LINE
  5
18396
  8
SUNPO
  6
CONTINUOUS
 10
332.935643
 20
53.048466
 30
0.0
 11
333.808648
 21
53.664377
 31
0.0
210
0.0
220
0.0
230
-1.0
  0
LINE
  5
18397
  8
SUNPO
  6
CONTINUOUS
 10
333.808648
 20
53.664377
 30
0.0
 11
334.25187
 21
54.654112
 31
0.0
210
0.0
220
0.0
230
-1.0
  0
LINE
  5
18398
  8
SUNPO
  6
CONTINUOUS
 10
334.25187
 20
54.654112
 30
0.0
 11
334.136626
 21
56.810488
 31
0.0
210
0.0
220
0.0
230
-1.0
  0
LINE
  5
18399
  8
SUNPO
  6
CONTINUOUS
 10
334.136626
 20
56.810488
 30
0.0
 11
336.274429
 21
56.57399
 31
0.0
210
0.0
220
0.0
230
-1.0
  0
LINE
  5
1891F
  8
DANMEN
  6
CONTINUOUS
 10
77.799998
 20
74.000006
 30
0.0
 11
77.799998
 21
59.5
 31
0.0
  0
LINE
  5
18920
  8
DANMEN
  6
CONTINUOUS
 10
75.849998
 20
73.999998
 30
0.0
 11
75.849998
 21
59.5
 31
0.0
  0
ARC
  5
18921
  8
DANMEN
  6
CONTINUOUS
 10
76.349998
 20
59.5
 30
0.0
 40
0.5
 50
180.000052
 51
269.999982
  0
ARC
  5
18922
  8
DANMEN
  6
CONTINUOUS
 10
77.299998
 20
59.5
 30
0.0
 40
0.5
 50
269.999982
 51
359.999964
  0
LINE
  5
18923
  8
DANMEN
  6
CONTINUOUS
 10
76.349999
 20
58.999997
 30
0.0
 11
77.299997
 21
58.999997
 31
0.0
  0
LINE
  5
18924
  8
DANMEN
  6
CONTINUOUS
 10
79.499995
 20
74.000007
 30
0.0
 11
77.799998
 21
74.000006
 31
0.0
  0
ENDSEC
  0
EOF
