  0
SECTION
  2
HEADER
  9
$ACADVER
  1
AC1009
  9
$INSBASE
 10
0.0
 20
0.0
 30
0.0
  9
$EXTMIN
 10
4.986803
 20
4.971933
 30
-0.001526
  9
$EXTMAX
 10
825.003664
 20
292.013444
 30
0.0
  9
$LIMMIN
 10
-210.0
 20
-148.5
  9
$LIMMAX
 10
210.0
 20
148.5
  9
$ORTHOMODE
 70
     1
  9
$REGENMODE
 70
     1
  9
$FILLMODE
 70
     1
  9
$QTEXTMODE
 70
     0
  9
$MIRRTEXT
 70
     1
  9
$DRAGMODE
 70
     2
  9
$LTSCALE
 40
0.5
  9
$OSMODE
 70
   255
  9
$ATTMODE
 70
     1
  9
$TEXTSIZE
 40
2.5
  9
$TRACEWID
 40
0.05
  9
$TEXTSTYLE
  7
MX_NOTE_STANDARD
  9
$CLAYER
  8
0
  9
$CELTYPE
  6
CONTINUOUS
  9
$CECOLOR
 62
   256
  9
$DIMSCALE
 40
1.0
  9
$DIMASZ
 40
2.5
  9
$DIMEXO
 40
1.5
  9
$DIMDLI
 40
3.75
  9
$DIMRND
 40
0.0
  9
$DIMDLE
 40
0.0
  9
$DIMEXE
 40
0.0
  9
$DIMTP
 40
0.0
  9
$DIMTM
 40
0.0
  9
$DIMTXT
 40
2.5
  9
$DIMCEN
 40
2.5
  9
$DIMTSZ
 40
0.0
  9
$DIMTOL
 70
     0
  9
$DIMLIM
 70
     0
  9
$DIMTIH
 70
     0
  9
$DIMTOH
 70
     0
  9
$DIMSE1
 70
     0
  9
$DIMSE2
 70
     0
  9
$DIMTAD
 70
     1
  9
$DIMZIN
 70
     8
  9
$DIMBLK
  1

  9
$DIMASO
 70
     1
  9
$DIMSHO
 70
     1
  9
$DIMPOST
  1

  9
$DIMAPOST
  1

  9
$DIMALT
 70
     0
  9
$DIMALTD
 70
     4
  9
$DIMALTF
 40
0.0394
  9
$DIMLFAC
 40
1.0
  9
$DIMTOFL
 70
     1
  9
$DIMTVP
 40
0.0
  9
$DIMTIX
 70
     0
  9
$DIMSOXD
 70
     0
  9
$DIMSAH
 70
     0
  9
$DIMBLK1
  1

  9
$DIMBLK2
  1

  9
$DIMSTYLE
  2
MXDIMSTYLE
  9
$DIMCLRD
 70
     0
  9
$DIMCLRE
 70
     0
  9
$DIMCLRT
 70
     0
  9
$DIMTFAC
 40
1.0
  9
$DIMGAP
 40
1.0
  9
$LUNITS
 70
     2
  9
$LUPREC
 70
     4
  9
$SKETCHINC
 40
0.1
  9
$FILLETRAD
 40
0.0
  9
$AUNITS
 70
     0
  9
$AUPREC
 70
     0
  9
$MENU
  1
acad
  9
$ELEVATION
 40
0.0
  9
$PELEVATION
 40
0.0
  9
$THICKNESS
 40
0.0
  9
$LIMCHECK
 70
     0
  9
$BLIPMODE
 70
     0
  9
$CHAMFERA
 40
0.0
  9
$CHAMFERB
 40
0.0
  9
$SKPOLY
 70
     0
  9
$TDCREATE
 40
2452006.37162
  9
$TDUPDATE
 40
2452478.843284
  9
$TDINDWG
 40
0.177392
  9
$TDUSRTIMER
 40
0.177392
  9
$USRTIMER
 70
     1
  9
$ANGBASE
 50
0.0
  9
$ANGDIR
 70
     0
  9
$PDMODE
 70
     3
  9
$PDSIZE
 40
-100.0
  9
$PLINEWID
 40
0.0
  9
$COORDS
 70
     2
  9
$SPLFRAME
 70
     0
  9
$SPLINETYPE
 70
     6
  9
$SPLINESEGS
 70
     8
  9
$ATTDIA
 70
     0
  9
$ATTREQ
 70
     1
  9
$HANDLING
 70
     1
  9
$HANDSEED
  5
249DB
  9
$SURFTAB1
 70
     6
  9
$SURFTAB2
 70
     6
  9
$SURFTYPE
 70
     6
  9
$SURFU
 70
     6
  9
$SURFV
 70
     6
  9
$UCSNAME
  2

  9
$UCSORG
 10
0.0
 20
0.0
 30
0.0
  9
$UCSXDIR
 10
1.0
 20
0.0
 30
0.0
  9
$UCSYDIR
 10
0.0
 20
1.0
 30
0.0
  9
$PUCSNAME
  2

  9
$PUCSORG
 10
0.0
 20
0.0
 30
0.0
  9
$PUCSXDIR
 10
1.0
 20
0.0
 30
0.0
  9
$PUCSYDIR
 10
0.0
 20
1.0
 30
0.0
  9
$USERI1
 70
     0
  9
$USERI2
 70
     0
  9
$USERI3
 70
     0
  9
$USERI4
 70
     0
  9
$USERI5
 70
     0
  9
$USERR1
 40
0.0
  9
$USERR2
 40
0.0
  9
$USERR3
 40
0.0
  9
$USERR4
 40
0.0
  9
$USERR5
 40
0.0
  9
$WORLDVIEW
 70
     1
  9
$SHADEDGE
 70
     3
  9
$SHADEDIF
 70
    70
  9
$TILEMODE
 70
     1
  9
$MAXACTVP
 70
    16
  9
$PLIMCHECK
 70
     0
  9
$PEXTMIN
 10
1.000000E+020
 20
1.000000E+020
 30
1.000000E+020
  9
$PEXTMAX
 10
-1.000000E+020
 20
-1.000000E+020
 30
-1.000000E+020
  9
$PLIMMIN
 10
0.0
 20
0.0
  9
$PLIMMAX
 10
12.0
 20
9.0
  9
$UNITMODE
 70
     0
  9
$VISRETAIN
 70
     0
  9
$PLINEGEN
 70
     1
  9
$PSLTSCALE
 70
     0
  0
ENDSEC
  0
SECTION
  2
TABLES
  0
TABLE
  2
VPORT
 70
     2
  0
VPORT
  2
*ACTIVE
 70
     0
 10
0.0
 20
0.0
 11
1.0
 21
1.0
 12
414.995233
 22
148.492688
 13
0.0
 23
0.0
 14
1.0
 24
1.0
 15
0.0
 25
0.0
 16
0.0
 26
0.0
 36
1.0
 17
0.0
 27
0.0
 37
0.0
 40
457.280032
 41
1.803957
 42
50.0
 43
0.0
 44
0.0
 50
0.0
 51
0.0
 71
     0
 72
   100
 73
     1
 74
     0
 75
     0
 76
     0
 77
     0
 78
     0
  0
ENDTAB
  0
TABLE
  2
LTYPE
 70
     2
  0
LTYPE
  2
CONTINUOUS
 70
     0
  3
Solid line
 72
    65
 73
     0
 40
0.0
  0
LTYPE
  2
DASHED
 70
     0
  3
Dashed __ __ __ __ __ __ __ __ __ __ __ __ __ _
 72
    65
 73
     2
 40
19.05
 49
12.7
 49
-6.35
  0
ENDTAB
  0
TABLE
  2
LAYER
 70
     4
  0
LAYER
  2
0
 70
     0
 62
     7
  6
CONTINUOUS
  0
LAYER
  2
SUNPO
 70
     0
 62
     1
  6
CONTINUOUS
  0
LAYER
  2
DANMEN
 70
     0
 62
     7
  6
CONTINUOUS
  0
LAYER
  2
WAKU
 70
     0
 62
     3
  6
CONTINUOUS
  0
ENDTAB
  0
TABLE
  2
STYLE
 70
     2
  0
STYLE
  2
MX_NOTE_STANDARD
 70
     0
 40
0.0
 41
1.0
 50
0.0
 71
     0
 42
2.5
  3
txt.shx
  4
extfont.shx
  0
STYLE
  2
STANDARD
 70
     0
 40
0.0
 41
1.0
 50
0.0
 71
     0
 42
0.2
  3
txt.shx
  4
bigfont.shx
  0
ENDTAB
  0
TABLE
  2
VIEW
 70
     0
  0
ENDTAB
  0
TABLE
  2
UCS
 70
     0
  0
ENDTAB
  0
TABLE
  2
APPID
 70
     1
  0
APPID
  2
ACAD
 70
     0
  0
ENDTAB
  0
TABLE
  2
DIMSTYLE
 70
     1
  0
DIMSTYLE
  2
MXDIMSTYLE
 70
     0
  3

  4

  5

  6

  7

 40
1.0
 41
2.5
 42
1.5
 43
3.75
 44
0.0
 45
0.0
 46
0.0
 47
0.0
 48
0.0
140
2.5
141
2.5
142
0.0
143
0.0394
144
1.0
145
0.0
146
1.0
147
1.0
 71
     0
 72
     0
 73
     0
 74
     0
 75
     0
 76
     0
 77
     1
 78
     8
170
     0
171
     4
172
     1
173
     0
174
     0
175
     0
176
     0
177
     0
178
     0
  0
ENDTAB
  0
ENDSEC
  0
SECTION
  2
BLOCKS
  0
BLOCK
  8
0
  2
$MODEL_SPACE
 70
     0
 10
0.0
 20
0.0
 30
0.0
  3
$MODEL_SPACE
  1

  0
ENDBLK
  5
23F46
  8
0
  0
BLOCK
 67
     1
  8
0
  2
$PAPER_SPACE
 70
     0
 10
0.0
 20
0.0
 30
0.0
  3
$PAPER_SPACE
  1

  0
ENDBLK
  5
23F44
 67
     1
  8
0
  0
BLOCK
  8
0
  2
*U1
 70
     1
 10
0.0
 20
0.0
 30
0.0
  3
*U1
  1

  0
SOLID
  5
24893
  8
WAKU
  6
CONTINUOUS
 10
371.305142
 20
283.605291
 30
0.0
 11
370.499782
 21
283.530361
 31
0.0
 12
370.874987
 22
283.520449
 32
0.0
 13
370.874987
 23
283.520449
 33
0.0
  0
SOLID
  5
24894
  8
WAKU
  6
CONTINUOUS
 10
370.193309
 20
283.634664
 30
0.0
 11
370.499782
 21
283.530361
 31
0.0
 12
371.305142
 22
283.605291
 32
0.0
 13
371.305142
 23
283.605291
 33
0.0
  0
SOLID
  5
24895
  8
WAKU
  6
CONTINUOUS
 10
371.774448
 20
283.781773
 30
0.0
 11
370.193309
 21
283.634664
 31
0.0
 12
371.305142
 22
283.605291
 32
0.0
 13
371.305142
 23
283.605291
 33
0.0
  0
SOLID
  5
24896
  8
WAKU
  6
CONTINUOUS
 10
369.966824
 20
283.829526
 30
0.0
 11
370.193309
 21
283.634664
 31
0.0
 12
371.774448
 22
283.781773
 32
0.0
 13
371.774448
 23
283.781773
 33
0.0
  0
SOLID
  5
24897
  8
WAKU
  6
CONTINUOUS
 10
370.594177
 20
283.909498
 30
0.0
 11
369.966824
 21
283.829526
 31
0.0
 12
371.774448
 22
283.781773
 32
0.0
 13
371.774448
 23
283.781773
 33
0.0
  0
SOLID
  5
24898
  8
WAKU
  6
CONTINUOUS
 10
370.901294
 20
283.914863
 30
0.0
 11
370.594177
 21
283.909498
 31
0.0
 12
371.774448
 22
283.781773
 32
0.0
 13
371.774448
 23
283.781773
 33
0.0
  0
SOLID
  5
24899
  8
WAKU
  6
CONTINUOUS
 10
370.392927
 20
283.968568
 30
0.0
 11
369.966824
 21
283.829526
 31
0.0
 12
370.594177
 22
283.909498
 32
0.0
 13
370.594177
 23
283.909498
 33
0.0
  0
SOLID
  5
2489A
  8
WAKU
  6
CONTINUOUS
 10
371.296984
 20
284.010368
 30
0.0
 11
370.901294
 21
283.914863
 31
0.0
 12
371.774448
 22
283.781773
 32
0.0
 13
371.774448
 23
283.781773
 33
0.0
  0
SOLID
  5
2489B
  8
WAKU
  6
CONTINUOUS
 10
372.265666
 20
284.043411
 30
0.0
 11
371.296984
 21
284.010368
 31
0.0
 12
371.774448
 22
283.781773
 32
0.0
 13
371.774448
 23
283.781773
 33
0.0
  0
SOLID
  5
2489C
  8
WAKU
  6
CONTINUOUS
 10
370.275177
 20
284.066476
 30
0.0
 11
369.966824
 21
283.829526
 31
0.0
 12
370.392927
 22
283.968568
 32
0.0
 13
370.392927
 23
283.968568
 33
0.0
  0
SOLID
  5
2489D
  8
WAKU
  6
CONTINUOUS
 10
369.828646
 20
284.107791
 30
0.0
 11
369.966824
 21
283.829526
 31
0.0
 12
370.275177
 22
284.066476
 32
0.0
 13
370.275177
 23
284.066476
 33
0.0
  0
SOLID
  5
2489E
  8
WAKU
  6
CONTINUOUS
 10
370.709458
 20
284.142397
 30
0.0
 11
369.828646
 21
284.107791
 31
0.0
 12
370.275177
 22
284.066476
 32
0.0
 13
370.275177
 23
284.066476
 33
0.0
  0
SOLID
  5
2489F
  8
WAKU
  6
CONTINUOUS
 10
371.751882
 20
284.202798
 30
0.0
 11
371.296984
 21
284.010368
 31
0.0
 12
372.265666
 22
284.043411
 32
0.0
 13
372.265666
 23
284.043411
 33
0.0
  0
SOLID
  5
248A0
  8
WAKU
  6
CONTINUOUS
 10
369.550381
 20
284.245969
 30
0.0
 11
369.828646
 21
284.107791
 31
0.0
 12
370.709458
 22
284.142397
 32
0.0
 13
370.709458
 23
284.142397
 33
0.0
  0
SOLID
  5
248A1
  8
WAKU
  6
CONTINUOUS
 10
371.186428
 20
284.314625
 30
0.0
 11
369.550381
 21
284.245969
 31
0.0
 12
370.709458
 22
284.142397
 32
0.0
 13
370.709458
 23
284.142397
 33
0.0
  0
SOLID
  5
248A2
  8
WAKU
  6
CONTINUOUS
 10
372.760756
 20
284.380595
 30
0.0
 11
371.751882
 21
284.202798
 31
0.0
 12
372.265666
 22
284.043411
 32
0.0
 13
372.265666
 23
284.043411
 33
0.0
  0
SOLID
  5
248A3
  8
WAKU
  6
CONTINUOUS
 10
370.172911
 20
284.451856
 30
0.0
 11
369.550381
 21
284.245969
 31
0.0
 12
371.186428
 22
284.314625
 32
0.0
 13
371.186428
 23
284.314625
 33
0.0
  0
SOLID
  5
248A4
  8
WAKU
  6
CONTINUOUS
 10
369.355518
 20
284.472454
 30
0.0
 11
369.550381
 21
284.245969
 31
0.0
 12
370.172911
 22
284.451856
 32
0.0
 13
370.172911
 23
284.451856
 33
0.0
  0
SOLID
  5
248A5
  8
WAKU
  6
CONTINUOUS
 10
372.237497
 20
284.486117
 30
0.0
 11
371.751882
 21
284.202798
 31
0.0
 12
372.760756
 22
284.380595
 32
0.0
 13
372.760756
 23
284.380595
 33
0.0
  0
SOLID
  5
248A6
  8
WAKU
  6
CONTINUOUS
 10
370.681395
 20
284.539195
 30
0.0
 11
370.172911
 21
284.451856
 31
0.0
 12
371.186428
 22
284.314625
 32
0.0
 13
371.186428
 23
284.314625
 33
0.0
  0
SOLID
  5
248A7
  8
WAKU
  6
CONTINUOUS
 10
369.787305
 20
284.553935
 30
0.0
 11
369.355518
 21
284.472454
 31
0.0
 12
370.172911
 22
284.451856
 32
0.0
 13
370.172911
 23
284.451856
 33
0.0
  0
SOLID
  5
248A8
  8
WAKU
  6
CONTINUOUS
 10
371.68777
 20
284.576545
 30
0.0
 11
370.681395
 21
284.539195
 31
0.0
 12
371.186428
 22
284.314625
 32
0.0
 13
371.186428
 23
284.314625
 33
0.0
  0
SOLID
  5
248A9
  8
WAKU
  6
CONTINUOUS
 10
369.689155
 20
284.672435
 30
0.0
 11
369.355518
 21
284.472454
 31
0.0
 12
369.787305
 22
284.553935
 32
0.0
 13
369.787305
 23
284.553935
 33
0.0
  0
SOLID
  5
248AA
  8
WAKU
  6
CONTINUOUS
 10
369.251215
 20
284.778928
 30
0.0
 11
369.355518
 21
284.472454
 31
0.0
 12
369.689155
 22
284.672435
 32
0.0
 13
369.689155
 23
284.672435
 33
0.0
  0
SOLID
  5
248AB
  8
WAKU
  6
CONTINUOUS
 10
373.241532
 20
284.780941
 30
0.0
 11
372.237497
 21
284.486117
 31
0.0
 12
372.760756
 22
284.380595
 32
0.0
 13
372.760756
 23
284.380595
 33
0.0
  0
SOLID
  5
248AC
  8
WAKU
  6
CONTINUOUS
 10
371.312263
 20
284.810332
 30
0.0
 11
370.681395
 21
284.539195
 31
0.0
 12
371.68777
 22
284.576545
 32
0.0
 13
371.68777
 23
284.576545
 33
0.0
  0
SOLID
  5
248AD
  8
WAKU
  6
CONTINUOUS
 10
369.630358
 20
284.873087
 30
0.0
 11
369.251215
 21
284.778928
 31
0.0
 12
369.689155
 22
284.672435
 32
0.0
 13
369.689155
 23
284.672435
 33
0.0
  0
SOLID
  5
248AE
  8
WAKU
  6
CONTINUOUS
 10
372.194232
 20
284.918099
 30
0.0
 11
371.312263
 21
284.810332
 31
0.0
 12
371.68777
 22
284.576545
 32
0.0
 13
371.68777
 23
284.576545
 33
0.0
  0
SOLID
  5
248AF
  8
WAKU
  6
CONTINUOUS
 10
370.260168
 20
284.959969
 30
0.0
 11
369.787305
 21
284.553935
 31
0.0
 12
370.172911
 22
284.451856
 32
0.0
 13
370.172911
 23
284.451856
 33
0.0
  0
SOLID
  5
248B0
  8
WAKU
  6
CONTINUOUS
 10
369.863139
 20
284.988189
 30
0.0
 11
369.787305
 21
284.553935
 31
0.0
 12
370.260168
 22
284.959969
 32
0.0
 13
370.260168
 23
284.959969
 33
0.0
  0
SOLID
  5
248B1
  8
WAKU
  6
CONTINUOUS
 10
398.194006
 20
285.115385
 30
0.0
 11
397.606055
 21
283.5
 31
0.0
 12
401.913747
 22
283.5
 32
0.0
 13
401.913747
 23
283.5
 33
0.0
  0
SOLID
  5
248B2
  8
WAKU
  6
CONTINUOUS
 10
401.913747
 20
283.5
 30
0.0
 11
401.424776
 21
285.115385
 31
0.0
 12
398.194006
 22
285.115385
 32
0.0
 13
398.194006
 23
285.115385
 33
0.0
  0
SOLID
  5
248B3
  8
WAKU
  6
CONTINUOUS
 10
369.241303
 20
285.154132
 30
0.0
 11
369.251215
 21
284.778928
 31
0.0
 12
369.630358
 22
284.873087
 32
0.0
 13
369.630358
 23
284.873087
 33
0.0
  0
SOLID
  5
248B4
  8
WAKU
  6
CONTINUOUS
 10
369.635696
 20
285.180404
 30
0.0
 11
369.241303
 21
285.154132
 31
0.0
 12
369.630358
 22
284.873087
 32
0.0
 13
369.630358
 23
284.873087
 33
0.0
  0
SOLID
  5
248B5
  8
WAKU
  6
CONTINUOUS
 10
373.690335
 20
285.229744
 30
0.0
 11
372.237497
 21
284.486117
 31
0.0
 12
373.241532
 22
284.780941
 32
0.0
 13
373.241532
 23
284.780941
 33
0.0
  0
SOLID
  5
248B6
  8
WAKU
  6
CONTINUOUS
 10
371.98994
 20
285.251431
 30
0.0
 11
371.312263
 21
284.810332
 31
0.0
 12
372.194232
 22
284.918099
 32
0.0
 13
372.194232
 23
284.918099
 33
0.0
  0
SOLID
  5
248B7
  8
WAKU
  6
CONTINUOUS
 10
373.195965
 20
285.275232
 30
0.0
 11
372.237497
 21
284.486117
 31
0.0
 12
373.690335
 22
285.229744
 32
0.0
 13
373.690335
 23
285.229744
 33
0.0
  0
SOLID
  5
248B8
  8
WAKU
  6
CONTINUOUS
 10
372.686363
 20
285.326171
 30
0.0
 11
371.98994
 21
285.251431
 31
0.0
 12
372.194232
 22
284.918099
 32
0.0
 13
372.194232
 23
284.918099
 33
0.0
  0
SOLID
  5
248B9
  8
WAKU
  6
CONTINUOUS
 10
370.035293
 20
285.465154
 30
0.0
 11
369.863139
 21
284.988189
 31
0.0
 12
370.260168
 22
284.959969
 32
0.0
 13
370.260168
 23
284.959969
 33
0.0
  0
SOLID
  5
248BA
  8
WAKU
  6
CONTINUOUS
 10
369.73149
 20
285.576021
 30
0.0
 11
369.241303
 21
285.154132
 31
0.0
 12
369.635696
 22
285.180404
 32
0.0
 13
369.635696
 23
285.180404
 33
0.0
  0
SOLID
  5
248BB
  8
WAKU
  6
CONTINUOUS
 10
369.326146
 20
285.584287
 30
0.0
 11
369.241303
 21
285.154132
 31
0.0
 12
369.73149
 22
285.576021
 32
0.0
 13
369.73149
 23
285.576021
 33
0.0
  0
SOLID
  5
248BC
  8
WAKU
  6
CONTINUOUS
 10
370.530712
 20
285.590875
 30
0.0
 11
370.035293
 21
285.465154
 31
0.0
 12
370.260168
 22
284.959969
 32
0.0
 13
370.260168
 23
284.959969
 33
0.0
  0
SOLID
  5
248BD
  8
WAKU
  6
CONTINUOUS
 10
389.236144
 20
285.653846
 30
0.0
 11
383.067593
 21
283.5
 31
0.0
 12
388.452208
 22
283.5
 32
0.0
 13
388.452208
 23
283.5
 33
0.0
  0
SOLID
  5
248BE
  8
WAKU
  6
CONTINUOUS
 10
383.851529
 20
285.653846
 30
0.0
 11
383.067593
 21
283.5
 31
0.0
 12
389.236144
 22
285.653846
 32
0.0
 13
389.236144
 23
285.653846
 33
0.0
  0
SOLID
  5
248BF
  8
WAKU
  6
CONTINUOUS
 10
404.851529
 20
285.653846
 30
0.0
 11
404.067593
 21
283.5
 31
0.0
 12
409.452208
 22
283.5
 32
0.0
 13
409.452208
 23
283.5
 33
0.0
  0
SOLID
  5
248C0
  8
WAKU
  6
CONTINUOUS
 10
409.452208
 20
283.5
 30
0.0
 11
409.159221
 21
285.653846
 31
0.0
 12
404.851529
 22
285.653846
 32
0.0
 13
404.851529
 23
285.653846
 33
0.0
  0
SOLID
  5
248C1
  8
WAKU
  6
CONTINUOUS
 10
391.174606
 20
285.653846
 30
0.0
 11
390.39067
 21
283.5
 31
0.0
 12
395.452208
 22
283.5
 32
0.0
 13
395.452208
 23
283.5
 33
0.0
  0
SOLID
  5
248C2
  8
WAKU
  6
CONTINUOUS
 10
395.452208
 20
283.5
 30
0.0
 11
395.159221
 21
285.653846
 31
0.0
 12
391.174606
 22
285.653846
 32
0.0
 13
391.174606
 23
285.653846
 33
0.0
  0
SOLID
  5
248C3
  8
WAKU
  6
CONTINUOUS
 10
374.090681
 20
285.71052
 30
0.0
 11
373.195965
 21
285.275232
 31
0.0
 12
373.690335
 22
285.229744
 32
0.0
 13
373.690335
 23
285.229744
 33
0.0
  0
SOLID
  5
248C4
  8
WAKU
  6
CONTINUOUS
 10
373.145266
 20
285.785089
 30
0.0
 11
371.98994
 21
285.251431
 31
0.0
 12
372.686363
 22
285.326171
 32
0.0
 13
372.686363
 23
285.326171
 33
0.0
  0
SOLID
  5
248C5
  8
WAKU
  6
CONTINUOUS
 10
372.646296
 20
285.825506
 30
0.0
 11
371.98994
 21
285.251431
 31
0.0
 12
373.145266
 22
285.785089
 32
0.0
 13
373.145266
 23
285.785089
 33
0.0
  0
SOLID
  5
248C6
  8
WAKU
  6
CONTINUOUS
 10
370.297156
 20
285.966509
 30
0.0
 11
370.035293
 21
285.465154
 31
0.0
 12
370.530712
 22
285.590875
 32
0.0
 13
370.530712
 23
285.590875
 33
0.0
  0
SOLID
  5
248C7
  8
WAKU
  6
CONTINUOUS
 10
369.923519
 20
286.031028
 30
0.0
 11
369.326146
 21
285.584287
 31
0.0
 12
369.73149
 22
285.576021
 32
0.0
 13
369.73149
 23
285.576021
 33
0.0
  0
SOLID
  5
248C8
  8
WAKU
  6
CONTINUOUS
 10
369.502627
 20
286.053593
 30
0.0
 11
369.326146
 21
285.584287
 31
0.0
 12
369.923519
 22
286.031028
 32
0.0
 13
369.923519
 23
286.031028
 33
0.0
  0
SOLID
  5
248C9
  8
WAKU
  6
CONTINUOUS
 10
379.397145
 20
286.138462
 30
0.0
 11
378.436824
 21
283.5
 31
0.0
 12
379.513747
 22
283.5
 32
0.0
 13
379.513747
 23
283.5
 33
0.0
  0
SOLID
  5
248CA
  8
WAKU
  6
CONTINUOUS
 10
377.155205
 20
286.192308
 30
0.0
 11
376.175285
 21
283.5
 31
0.0
 12
379.397145
 22
286.138462
 32
0.0
 13
379.397145
 23
286.138462
 33
0.0
  0
SOLID
  5
248CB
  8
WAKU
  6
CONTINUOUS
 10
380.493667
 20
286.192308
 30
0.0
 11
377.155205
 21
286.192308
 31
0.0
 12
379.397145
 22
286.138462
 32
0.0
 13
379.397145
 23
286.138462
 33
0.0
  0
SOLID
  5
248CC
  8
WAKU
  6
CONTINUOUS
 10
380.493667
 20
286.192308
 30
0.0
 11
379.397145
 21
286.138462
 31
0.0
 12
379.513747
 22
283.5
 32
0.0
 13
379.513747
 23
283.5
 33
0.0
  0
SOLID
  5
248CD
  8
WAKU
  6
CONTINUOUS
 10
380.493667
 20
286.192308
 30
0.0
 11
381.775285
 21
283.5
 31
0.0
 12
382.755205
 22
286.192308
 32
0.0
 13
382.755205
 23
286.192308
 33
0.0
  0
SOLID
  5
248CE
  8
WAKU
  6
CONTINUOUS
 10
374.427865
 20
286.205609
 30
0.0
 11
373.195965
 21
285.275232
 31
0.0
 12
374.090681
 22
285.71052
 32
0.0
 13
374.090681
 23
285.71052
 33
0.0
  0
SOLID
  5
248CF
  8
WAKU
  6
CONTINUOUS
 10
373.98505
 20
286.233718
 30
0.0
 11
373.195965
 21
285.275232
 31
0.0
 12
374.427865
 22
286.205609
 32
0.0
 13
374.427865
 23
286.205609
 33
0.0
  0
SOLID
  5
248D0
  8
WAKU
  6
CONTINUOUS
 10
370.971896
 20
286.268471
 30
0.0
 11
370.297156
 21
285.966509
 31
0.0
 12
370.530712
 22
285.590875
 32
0.0
 13
370.530712
 23
285.590875
 33
0.0
  0
SOLID
  5
248D1
  8
WAKU
  6
CONTINUOUS
 10
373.553316
 20
286.277229
 30
0.0
 11
372.646296
 21
285.825506
 31
0.0
 12
373.145266
 22
285.785089
 32
0.0
 13
373.145266
 23
285.785089
 33
0.0
  0
SOLID
  5
248D2
  8
WAKU
  6
CONTINUOUS
 10
370.638671
 20
286.473
 30
0.0
 11
370.297156
 21
285.966509
 31
0.0
 12
370.971896
 22
286.268471
 32
0.0
 13
370.971896
 23
286.268471
 33
0.0
  0
SOLID
  5
248D3
  8
WAKU
  6
CONTINUOUS
 10
373.220238
 20
286.48192
 30
0.0
 11
372.646296
 21
285.825506
 31
0.0
 12
373.553316
 22
286.277229
 32
0.0
 13
373.553316
 23
286.277229
 33
0.0
  0
SOLID
  5
248D4
  8
WAKU
  6
CONTINUOUS
 10
370.207035
 20
286.51657
 30
0.0
 11
369.502627
 21
286.053593
 31
0.0
 12
369.923519
 22
286.031028
 32
0.0
 13
369.923519
 23
286.031028
 33
0.0
  0
SOLID
  5
248D5
  8
WAKU
  6
CONTINUOUS
 10
369.764265
 20
286.544812
 30
0.0
 11
369.502627
 21
286.053593
 31
0.0
 12
370.207035
 22
286.51657
 32
0.0
 13
370.207035
 23
286.51657
 33
0.0
  0
SOLID
  5
248D6
  8
WAKU
  6
CONTINUOUS
 10
374.689503
 20
286.696828
 30
0.0
 11
373.98505
 21
286.233718
 31
0.0
 12
374.427865
 22
286.205609
 32
0.0
 13
374.427865
 23
286.205609
 33
0.0
  0
SOLID
  5
248D7
  8
WAKU
  6
CONTINUOUS
 10
374.268507
 20
286.719278
 30
0.0
 11
373.98505
 21
286.233718
 31
0.0
 12
374.689503
 22
286.696828
 32
0.0
 13
374.689503
 23
286.696828
 33
0.0
  0
SOLID
  5
248D8
  8
WAKU
  6
CONTINUOUS
 10
373.894843
 20
286.783693
 30
0.0
 11
373.220238
 21
286.48192
 31
0.0
 12
373.553316
 22
286.277229
 32
0.0
 13
373.553316
 23
286.277229
 33
0.0
  0
SOLID
  5
248D9
  8
WAKU
  6
CONTINUOUS
 10
371.545827
 20
286.924893
 30
0.0
 11
370.638671
 21
286.473
 31
0.0
 12
370.971896
 22
286.268471
 32
0.0
 13
370.971896
 23
286.268471
 33
0.0
  0
SOLID
  5
248DA
  8
WAKU
  6
CONTINUOUS
 10
371.04672
 20
286.965174
 30
0.0
 11
370.638671
 21
286.473
 31
0.0
 12
371.545827
 22
286.924893
 32
0.0
 13
371.545827
 23
286.924893
 33
0.0
  0
SOLID
  5
248DB
  8
WAKU
  6
CONTINUOUS
 10
370.101449
 20
287.039901
 30
0.0
 11
369.764265
 21
286.544812
 31
0.0
 12
370.207035
 22
286.51657
 32
0.0
 13
370.207035
 23
286.51657
 33
0.0
  0
SOLID
  5
248DC
  8
WAKU
  6
CONTINUOUS
 10
373.661353
 20
287.159534
 30
0.0
 11
373.220238
 21
286.48192
 31
0.0
 12
373.894843
 22
286.783693
 32
0.0
 13
373.894843
 23
286.783693
 33
0.0
  0
SOLID
  5
248DD
  8
WAKU
  6
CONTINUOUS
 10
374.865984
 20
287.166134
 30
0.0
 11
374.268507
 21
286.719278
 31
0.0
 12
374.689503
 22
286.696828
 32
0.0
 13
374.689503
 23
286.696828
 33
0.0
  0
SOLID
  5
248DE
  8
WAKU
  6
CONTINUOUS
 10
374.46071
 20
287.174248
 30
0.0
 11
374.268507
 21
286.719278
 31
0.0
 12
374.865984
 22
287.166134
 32
0.0
 13
374.865984
 23
287.166134
 33
0.0
  0
SOLID
  5
248DF
  8
WAKU
  6
CONTINUOUS
 10
374.156732
 20
287.28503
 30
0.0
 11
373.661353
 21
287.159534
 31
0.0
 12
373.894843
 22
286.783693
 32
0.0
 13
373.894843
 23
286.783693
 33
0.0
  0
SOLID
  5
248E0
  8
WAKU
  6
CONTINUOUS
 10
371.505632
 20
287.424128
 30
0.0
 11
371.04672
 21
286.965174
 31
0.0
 12
371.545827
 22
286.924893
 32
0.0
 13
371.545827
 23
286.924893
 33
0.0
  0
SOLID
  5
248E1
  8
WAKU
  6
CONTINUOUS
 10
370.996098
 20
287.475108
 30
0.0
 11
370.101449
 21
287.039901
 31
0.0
 12
370.207035
 22
286.51657
 32
0.0
 13
370.207035
 23
286.51657
 33
0.0
  0
SOLID
  5
248E2
  8
WAKU
  6
CONTINUOUS
 10
372.202181
 20
287.498991
 30
0.0
 11
371.505632
 21
287.424128
 31
0.0
 12
371.545827
 22
286.924893
 32
0.0
 13
371.545827
 23
286.924893
 33
0.0
  0
SOLID
  5
248E3
  8
WAKU
  6
CONTINUOUS
 10
370.501795
 20
287.520677
 30
0.0
 11
370.101449
 21
287.039901
 31
0.0
 12
370.996098
 22
287.475108
 32
0.0
 13
370.996098
 23
287.475108
 33
0.0
  0
SOLID
  5
248E4
  8
WAKU
  6
CONTINUOUS
 10
374.556361
 20
287.569864
 30
0.0
 11
374.46071
 21
287.174248
 31
0.0
 12
374.865984
 22
287.166134
 32
0.0
 13
374.865984
 23
287.166134
 33
0.0
  0
SOLID
  5
248E5
  8
WAKU
  6
CONTINUOUS
 10
395.864763
 20
287.592308
 30
0.0
 11
395.159221
 21
285.653846
 31
0.0
 12
395.452208
 22
283.5
 32
0.0
 13
395.452208
 23
283.5
 33
0.0
  0
SOLID
  5
248E6
  8
WAKU
  6
CONTINUOUS
 10
393.172456
 20
287.592308
 30
0.0
 11
391.703565
 21
286.515385
 31
0.0
 12
392.780488
 22
286.515385
 32
0.0
 13
392.780488
 23
286.515385
 33
0.0
  0
SOLID
  5
248E7
  8
WAKU
  6
CONTINUOUS
 10
392.095533
 20
287.592308
 30
0.0
 11
391.703565
 21
286.515385
 31
0.0
 12
393.172456
 22
287.592308
 32
0.0
 13
393.172456
 23
287.592308
 33
0.0
  0
SOLID
  5
248E8
  8
WAKU
  6
CONTINUOUS
 10
391.28784
 20
287.592308
 30
0.0
 11
392.095533
 21
287.592308
 31
0.0
 12
393.172456
 22
287.592308
 32
0.0
 13
393.172456
 23
287.592308
 33
0.0
  0
SOLID
  5
248E9
  8
WAKU
  6
CONTINUOUS
 10
391.28784
 20
287.592308
 30
0.0
 11
393.172456
 21
287.592308
 31
0.0
 12
395.864763
 22
287.592308
 32
0.0
 13
395.864763
 23
287.592308
 33
0.0
  0
SOLID
  5
248EA
  8
WAKU
  6
CONTINUOUS
 10
396.941687
 20
287.592308
 30
0.0
 11
391.28784
 21
287.592308
 31
0.0
 12
395.864763
 22
287.592308
 32
0.0
 13
395.864763
 23
287.592308
 33
0.0
  0
SOLID
  5
248EB
  8
WAKU
  6
CONTINUOUS
 10
396.941687
 20
287.592308
 30
0.0
 11
395.864763
 21
287.592308
 31
0.0
 12
395.452208
 22
283.5
 32
0.0
 13
395.452208
 23
283.5
 33
0.0
  0
SOLID
  5
248EC
  8
WAKU
  6
CONTINUOUS
 10
374.950827
 20
287.596289
 30
0.0
 11
374.556361
 21
287.569864
 31
0.0
 12
374.865984
 22
287.166134
 32
0.0
 13
374.865984
 23
287.166134
 33
0.0
  0
SOLID
  5
248ED
  8
WAKU
  6
CONTINUOUS
 10
374.328925
 20
287.761987
 30
0.0
 11
373.661353
 21
287.159534
 31
0.0
 12
374.156732
 22
287.28503
 32
0.0
 13
374.156732
 23
287.28503
 33
0.0
  0
SOLID
  5
248EE
  8
WAKU
  6
CONTINUOUS
 10
373.932071
 20
287.790402
 30
0.0
 11
373.661353
 21
287.159534
 31
0.0
 12
374.328925
 22
287.761987
 32
0.0
 13
374.328925
 23
287.761987
 33
0.0
  0
SOLID
  5
248EF
  8
WAKU
  6
CONTINUOUS
 10
371.997783
 20
287.832235
 30
0.0
 11
371.505632
 21
287.424128
 31
0.0
 12
372.202181
 22
287.498991
 32
0.0
 13
372.202181
 23
287.498991
 33
0.0
  0
SOLID
  5
248F0
  8
WAKU
  6
CONTINUOUS
 10
374.561802
 20
287.877253
 30
0.0
 11
374.556361
 21
287.569864
 31
0.0
 12
374.950827
 22
287.596289
 32
0.0
 13
374.950827
 23
287.596289
 33
0.0
  0
SOLID
  5
248F1
  8
WAKU
  6
CONTINUOUS
 10
372.879878
 20
287.940057
 30
0.0
 11
371.997783
 21
287.832235
 31
0.0
 12
372.202181
 22
287.498991
 32
0.0
 13
372.202181
 23
287.498991
 33
0.0
  0
SOLID
  5
248F2
  8
WAKU
  6
CONTINUOUS
 10
370.950599
 20
287.96948
 30
0.0
 11
370.501795
 21
287.520677
 31
0.0
 12
370.996098
 22
287.475108
 32
0.0
 13
370.996098
 23
287.475108
 33
0.0
  0
SOLID
  5
248F3
  8
WAKU
  6
CONTINUOUS
 10
374.940915
 20
287.971493
 30
0.0
 11
374.561802
 21
287.877253
 31
0.0
 12
374.950827
 22
287.596289
 32
0.0
 13
374.950827
 23
287.596289
 33
0.0
  0
SOLID
  5
248F4
  8
WAKU
  6
CONTINUOUS
 10
374.502951
 20
288.077918
 30
0.0
 11
374.561802
 21
287.877253
 31
0.0
 12
374.940915
 22
287.971493
 32
0.0
 13
374.940915
 23
287.971493
 33
0.0
  0
SOLID
  5
248F5
  8
WAKU
  6
CONTINUOUS
 10
405.753055
 20
288.130769
 30
0.0
 11
405.282694
 21
286.838462
 31
0.0
 12
408.513463
 22
286.838462
 32
0.0
 13
408.513463
 23
286.838462
 33
0.0
  0
SOLID
  5
248F6
  8
WAKU
  6
CONTINUOUS
 10
408.983824
 20
288.130769
 30
0.0
 11
405.753055
 21
288.130769
 31
0.0
 12
408.513463
 22
286.838462
 32
0.0
 13
408.513463
 23
286.838462
 33
0.0
  0
SOLID
  5
248F7
  8
WAKU
  6
CONTINUOUS
 10
372.504269
 20
288.173821
 30
0.0
 11
371.997783
 21
287.832235
 31
0.0
 12
372.879878
 22
287.940057
 32
0.0
 13
372.879878
 23
287.940057
 33
0.0
  0
SOLID
  5
248F8
  8
WAKU
  6
CONTINUOUS
 10
374.40481
 20
288.196249
 30
0.0
 11
373.932071
 21
287.790402
 31
0.0
 12
374.328925
 22
287.761987
 32
0.0
 13
374.328925
 23
287.761987
 33
0.0
  0
SOLID
  5
248F9
  8
WAKU
  6
CONTINUOUS
 10
374.40481
 20
288.196249
 30
0.0
 11
374.502951
 21
288.077918
 31
0.0
 12
374.940915
 22
287.971493
 32
0.0
 13
374.940915
 23
287.971493
 33
0.0
  0
SOLID
  5
248FA
  8
WAKU
  6
CONTINUOUS
 10
373.510738
 20
288.21124
 30
0.0
 11
372.504269
 21
288.173821
 31
0.0
 12
372.879878
 22
287.940057
 32
0.0
 13
372.879878
 23
287.940057
 33
0.0
  0
SOLID
  5
248FB
  8
WAKU
  6
CONTINUOUS
 10
371.954587
 20
288.264284
 30
0.0
 11
370.950599
 21
287.96948
 31
0.0
 12
370.996098
 22
287.475108
 32
0.0
 13
370.996098
 23
287.475108
 33
0.0
  0
SOLID
  5
248FC
  8
WAKU
  6
CONTINUOUS
 10
374.836612
 20
288.277967
 30
0.0
 11
374.40481
 21
288.196249
 31
0.0
 12
374.940915
 22
287.971493
 32
0.0
 13
374.940915
 23
287.971493
 33
0.0
  0
SOLID
  5
248FD
  8
WAKU
  6
CONTINUOUS
 10
374.019229
 20
288.298569
 30
0.0
 11
372.504269
 21
288.173821
 31
0.0
 12
373.510738
 22
288.21124
 32
0.0
 13
373.510738
 23
288.21124
 33
0.0
  0
SOLID
  5
248FE
  8
WAKU
  6
CONTINUOUS
 10
374.019229
 20
288.298569
 30
0.0
 11
374.40481
 21
288.196249
 31
0.0
 12
374.836612
 22
288.277967
 32
0.0
 13
374.836612
 23
288.277967
 33
0.0
  0
SOLID
  5
248FF
  8
WAKU
  6
CONTINUOUS
 10
374.019229
 20
288.298569
 30
0.0
 11
373.932071
 21
287.790402
 31
0.0
 12
374.40481
 22
288.196249
 32
0.0
 13
374.40481
 23
288.196249
 33
0.0
  0
SOLID
  5
24900
  8
WAKU
  6
CONTINUOUS
 10
371.431374
 20
288.369826
 30
0.0
 11
370.950599
 21
287.96948
 31
0.0
 12
371.954587
 22
288.264284
 32
0.0
 13
371.954587
 23
288.264284
 33
0.0
  0
SOLID
  5
24901
  8
WAKU
  6
CONTINUOUS
 10
373.005639
 20
288.435768
 30
0.0
 11
372.504269
 21
288.173821
 31
0.0
 12
374.019229
 22
288.298569
 32
0.0
 13
374.019229
 23
288.298569
 33
0.0
  0
SOLID
  5
24902
  8
WAKU
  6
CONTINUOUS
 10
374.641749
 20
288.504452
 30
0.0
 11
373.005639
 21
288.435768
 31
0.0
 12
374.019229
 22
288.298569
 32
0.0
 13
374.019229
 23
288.298569
 33
0.0
  0
SOLID
  5
24903
  8
WAKU
  6
CONTINUOUS
 10
374.641749
 20
288.504452
 30
0.0
 11
374.019229
 21
288.298569
 31
0.0
 12
374.836612
 22
288.277967
 32
0.0
 13
374.836612
 23
288.277967
 33
0.0
  0
SOLID
  5
24904
  8
WAKU
  6
CONTINUOUS
 10
372.440235
 20
288.547585
 30
0.0
 11
371.431374
 21
288.369826
 31
0.0
 12
371.954587
 22
288.264284
 32
0.0
 13
371.954587
 23
288.264284
 33
0.0
  0
SOLID
  5
24905
  8
WAKU
  6
CONTINUOUS
 10
373.482636
 20
288.608014
 30
0.0
 11
373.005639
 21
288.435768
 31
0.0
 12
374.641749
 22
288.504452
 32
0.0
 13
374.641749
 23
288.504452
 33
0.0
  0
SOLID
  5
24906
  8
WAKU
  6
CONTINUOUS
 10
374.363484
 20
288.64263
 30
0.0
 11
373.482636
 21
288.608014
 31
0.0
 12
374.641749
 22
288.504452
 32
0.0
 13
374.641749
 23
288.504452
 33
0.0
  0
SOLID
  5
24907
  8
WAKU
  6
CONTINUOUS
 10
373.916941
 20
288.683944
 30
0.0
 11
373.482636
 21
288.608014
 31
0.0
 12
374.363484
 22
288.64263
 32
0.0
 13
374.363484
 23
288.64263
 33
0.0
  0
SOLID
  5
24908
  8
WAKU
  6
CONTINUOUS
 10
371.926464
 20
288.70701
 30
0.0
 11
371.431374
 21
288.369826
 31
0.0
 12
372.440235
 22
288.547585
 32
0.0
 13
372.440235
 23
288.547585
 33
0.0
  0
SOLID
  5
24909
  8
WAKU
  6
CONTINUOUS
 10
372.89514
 20
288.740065
 30
0.0
 11
371.926464
 21
288.70701
 31
0.0
 12
372.440235
 22
288.547585
 32
0.0
 13
372.440235
 23
288.547585
 33
0.0
  0
SOLID
  5
2490A
  8
WAKU
  6
CONTINUOUS
 10
380.311313
 20
288.776923
 30
0.0
 11
377.155205
 21
286.192308
 31
0.0
 12
380.493667
 22
286.192308
 32
0.0
 13
380.493667
 23
286.192308
 33
0.0
  0
SOLID
  5
2490B
  8
WAKU
  6
CONTINUOUS
 10
381.524851
 20
288.776923
 30
0.0
 11
378.095928
 21
288.776923
 31
0.0
 12
380.311313
 22
288.776923
 32
0.0
 13
380.311313
 23
288.776923
 33
0.0
  0
SOLID
  5
2490C
  8
WAKU
  6
CONTINUOUS
 10
381.524851
 20
288.776923
 30
0.0
 11
380.311313
 21
288.776923
 31
0.0
 12
380.493667
 22
286.192308
 32
0.0
 13
380.493667
 23
286.192308
 33
0.0
  0
SOLID
  5
2490D
  8
WAKU
  6
CONTINUOUS
 10
381.524851
 20
288.776923
 30
0.0
 11
380.493667
 21
286.192308
 31
0.0
 12
382.755205
 22
286.192308
 32
0.0
 13
382.755205
 23
286.192308
 33
0.0
  0
SOLID
  5
2490E
  8
WAKU
  6
CONTINUOUS
 10
373.799148
 20
288.781929
 30
0.0
 11
373.916941
 21
288.683944
 31
0.0
 12
374.363484
 22
288.64263
 32
0.0
 13
374.363484
 23
288.64263
 33
0.0
  0
SOLID
  5
2490F
  8
WAKU
  6
CONTINUOUS
 10
373.290857
 20
288.835581
 30
0.0
 11
371.926464
 21
288.70701
 31
0.0
 12
372.89514
 22
288.740065
 32
0.0
 13
372.89514
 23
288.740065
 33
0.0
  0
SOLID
  5
24910
  8
WAKU
  6
CONTINUOUS
 10
373.597996
 20
288.840902
 30
0.0
 11
373.799148
 21
288.781929
 31
0.0
 12
374.363484
 22
288.64263
 32
0.0
 13
374.363484
 23
288.64263
 33
0.0
  0
SOLID
  5
24911
  8
WAKU
  6
CONTINUOUS
 10
402.042817
 20
288.884615
 30
0.0
 11
400.181958
 21
286.730769
 31
0.0
 12
401.258881
 22
286.730769
 32
0.0
 13
401.258881
 23
286.730769
 33
0.0
  0
SOLID
  5
24912
  8
WAKU
  6
CONTINUOUS
 10
402.796663
 20
288.884615
 30
0.0
 11
401.424776
 21
285.115385
 31
0.0
 12
401.913747
 22
283.5
 32
0.0
 13
401.913747
 23
283.5
 33
0.0
  0
SOLID
  5
24913
  8
WAKU
  6
CONTINUOUS
 10
403.873587
 20
288.884615
 30
0.0
 11
402.796663
 21
288.884615
 31
0.0
 12
401.913747
 22
283.5
 32
0.0
 13
401.913747
 23
283.5
 33
0.0
  0
SOLID
  5
24914
  8
WAKU
  6
CONTINUOUS
 10
400.965894
 20
288.884615
 30
0.0
 11
400.181958
 21
286.730769
 31
0.0
 12
402.042817
 22
288.884615
 32
0.0
 13
402.042817
 23
288.884615
 33
0.0
  0
SOLID
  5
24915
  8
WAKU
  6
CONTINUOUS
 10
399.858881
 20
286.730769
 30
0.0
 11
400.642817
 21
288.884615
 31
0.0
 12
399.565894
 22
288.884615
 32
0.0
 13
399.565894
 23
288.884615
 33
0.0
  0
SOLID
  5
24916
  8
WAKU
  6
CONTINUOUS
 10
399.565894
 20
288.884615
 30
0.0
 11
398.781958
 21
286.730769
 31
0.0
 12
399.858881
 22
286.730769
 32
0.0
 13
399.858881
 23
286.730769
 33
0.0
  0
SOLID
  5
24917
  8
WAKU
  6
CONTINUOUS
 10
374.225306
 20
288.920895
 30
0.0
 11
373.597996
 21
288.840902
 31
0.0
 12
374.363484
 22
288.64263
 32
0.0
 13
374.363484
 23
288.64263
 33
0.0
  0
SOLID
  5
24918
  8
WAKU
  6
CONTINUOUS
 10
372.417683
 20
288.968648
 30
0.0
 11
373.597996
 21
288.840902
 31
0.0
 12
374.225306
 22
288.920895
 32
0.0
 13
374.225306
 23
288.920895
 33
0.0
  0
SOLID
  5
24919
  8
WAKU
  6
CONTINUOUS
 10
372.417683
 20
288.968648
 30
0.0
 11
373.290857
 21
288.835581
 31
0.0
 12
373.597996
 22
288.840902
 32
0.0
 13
373.597996
 23
288.840902
 33
0.0
  0
SOLID
  5
2491A
  8
WAKU
  6
CONTINUOUS
 10
372.417683
 20
288.968648
 30
0.0
 11
371.926464
 21
288.70701
 31
0.0
 12
373.290857
 22
288.835581
 32
0.0
 13
373.290857
 23
288.835581
 33
0.0
  0
SOLID
  5
2491B
  8
WAKU
  6
CONTINUOUS
 10
373.998821
 20
289.115757
 30
0.0
 11
372.417683
 21
288.968648
 31
0.0
 12
374.225306
 22
288.920895
 32
0.0
 13
374.225306
 23
288.920895
 33
0.0
  0
SOLID
  5
2491C
  8
WAKU
  6
CONTINUOUS
 10
372.886988
 20
289.145129
 30
0.0
 11
372.417683
 21
288.968648
 31
0.0
 12
373.998821
 22
289.115757
 32
0.0
 13
373.998821
 23
289.115757
 33
0.0
  0
SOLID
  5
2491D
  8
WAKU
  6
CONTINUOUS
 10
396.941687
 20
287.592308
 30
0.0
 11
396.452715
 21
289.207692
 31
0.0
 12
393.760408
 22
289.207692
 32
0.0
 13
393.760408
 23
289.207692
 33
0.0
  0
SOLID
  5
2491E
  8
WAKU
  6
CONTINUOUS
 10
396.452715
 20
289.207692
 30
0.0
 11
396.941687
 21
287.592308
 31
0.0
 12
397.749379
 22
287.592308
 32
0.0
 13
397.749379
 23
287.592308
 33
0.0
  0
SOLID
  5
2491F
  8
WAKU
  6
CONTINUOUS
 10
393.760408
 20
289.207692
 30
0.0
 11
391.28784
 21
287.592308
 31
0.0
 12
396.941687
 22
287.592308
 32
0.0
 13
396.941687
 23
287.592308
 33
0.0
  0
SOLID
  5
24920
  8
WAKU
  6
CONTINUOUS
 10
398.337331
 20
289.207692
 30
0.0
 11
396.452715
 21
289.207692
 31
0.0
 12
397.749379
 22
287.592308
 32
0.0
 13
397.749379
 23
287.592308
 33
0.0
  0
SOLID
  5
24921
  8
WAKU
  6
CONTINUOUS
 10
391.875792
 20
289.207692
 30
0.0
 11
391.28784
 21
287.592308
 31
0.0
 12
393.760408
 22
289.207692
 32
0.0
 13
393.760408
 23
289.207692
 33
0.0
  0
SOLID
  5
24922
  8
WAKU
  6
CONTINUOUS
 10
393.760408
 20
289.207692
 30
0.0
 11
392.683485
 21
289.207692
 31
0.0
 12
391.875792
 22
289.207692
 32
0.0
 13
391.875792
 23
289.207692
 33
0.0
  0
SOLID
  5
24923
  8
WAKU
  6
CONTINUOUS
 10
397.529638
 20
289.207692
 30
0.0
 11
396.452715
 21
289.207692
 31
0.0
 12
398.337331
 22
289.207692
 32
0.0
 13
398.337331
 23
289.207692
 33
0.0
  0
SOLID
  5
24924
  8
WAKU
  6
CONTINUOUS
 10
373.692348
 20
289.22006
 30
0.0
 11
372.886988
 21
289.145129
 31
0.0
 12
373.998821
 22
289.115757
 32
0.0
 13
373.998821
 23
289.115757
 33
0.0
  0
SOLID
  5
24925
  8
WAKU
  6
CONTINUOUS
 10
373.317143
 20
289.229972
 30
0.0
 11
372.886988
 21
289.145129
 31
0.0
 12
373.692348
 22
289.22006
 32
0.0
 13
373.692348
 23
289.22006
 33
0.0
  0
SOLID
  5
24926
  8
WAKU
  6
CONTINUOUS
 10
378.723077
 20
290.5
 30
0.0
 11
381.524851
 21
288.776923
 31
0.0
 12
383.695928
 22
288.776923
 32
0.0
 13
383.695928
 23
288.776923
 33
0.0
  0
SOLID
  5
24927
  8
WAKU
  6
CONTINUOUS
 10
378.723077
 20
290.5
 30
0.0
 11
378.095928
 21
288.776923
 31
0.0
 12
381.524851
 22
288.776923
 32
0.0
 13
381.524851
 23
288.776923
 33
0.0
  0
SOLID
  5
24928
  8
WAKU
  6
CONTINUOUS
 10
372.249053
 20
290.5
 30
0.0
 11
367.971276
 21
290.5
 31
0.0
 12
367.971276
 22
286.222222
 32
0.0
 13
367.971276
 23
286.222222
 33
0.0
  0
SOLID
  5
24929
  8
WAKU
  6
CONTINUOUS
 10
409.219005
 20
288.776923
 30
0.0
 11
409.846154
 21
290.5
 31
0.0
 12
406.615385
 22
290.5
 32
0.0
 13
406.615385
 23
290.5
 33
0.0
  0
SOLID
  5
2492A
  8
WAKU
  6
CONTINUOUS
 10
406.615385
 20
290.5
 30
0.0
 11
405.988236
 21
288.776923
 31
0.0
 12
409.219005
 22
288.776923
 32
0.0
 13
409.219005
 23
288.776923
 33
0.0
  0
SOLID
  5
2492B
  8
WAKU
  6
CONTINUOUS
 10
392.683485
 20
289.207692
 30
0.0
 11
394.230769
 21
290.5
 31
0.0
 12
393.153846
 22
290.5
 32
0.0
 13
393.153846
 23
290.5
 33
0.0
  0
SOLID
  5
2492C
  8
WAKU
  6
CONTINUOUS
 10
394.230769
 20
290.5
 30
0.0
 11
392.683485
 21
289.207692
 31
0.0
 12
393.760408
 22
289.207692
 32
0.0
 13
393.760408
 23
289.207692
 33
0.0
  0
SOLID
  5
2492D
  8
WAKU
  6
CONTINUOUS
 10
409.159221
 20
285.653846
 30
0.0
 11
412.0
 21
290.5
 31
0.0
 12
410.923077
 22
290.5
 32
0.0
 13
410.923077
 23
290.5
 33
0.0
  0
SOLID
  5
2492E
  8
WAKU
  6
CONTINUOUS
 10
412.0
 20
290.5
 30
0.0
 11
409.159221
 21
285.653846
 31
0.0
 12
409.452208
 22
283.5
 32
0.0
 13
409.452208
 23
283.5
 33
0.0
  0
SOLID
  5
2492F
  8
WAKU
  6
CONTINUOUS
 10
384.323077
 20
290.5
 30
0.0
 11
378.723077
 21
290.5
 31
0.0
 12
383.695928
 22
288.776923
 32
0.0
 13
383.695928
 23
288.776923
 33
0.0
  0
SOLID
  5
24930
  8
WAKU
  6
CONTINUOUS
 10
385.615385
 20
290.5
 30
0.0
 11
384.988236
 21
288.776923
 31
0.0
 12
390.372851
 22
288.776923
 32
0.0
 13
390.372851
 23
288.776923
 33
0.0
  0
SOLID
  5
24931
  8
WAKU
  6
CONTINUOUS
 10
396.923077
 20
290.5
 30
0.0
 11
396.452715
 21
289.207692
 31
0.0
 12
397.529638
 22
289.207692
 32
0.0
 13
397.529638
 23
289.207692
 33
0.0
  0
SOLID
  5
24932
  8
WAKU
  6
CONTINUOUS
 10
391.0
 20
290.5
 30
0.0
 11
385.615385
 21
290.5
 31
0.0
 12
390.372851
 22
288.776923
 32
0.0
 13
390.372851
 23
288.776923
 33
0.0
  0
SOLID
  5
24933
  8
WAKU
  6
CONTINUOUS
 10
398.0
 20
290.5
 30
0.0
 11
396.923077
 21
290.5
 31
0.0
 12
397.529638
 22
289.207692
 32
0.0
 13
397.529638
 23
289.207692
 33
0.0
  0
ENDBLK
  5
24935
  8
0
  0
BLOCK
  8
0
  2
*U2
 70
     1
 10
0.0
 20
0.0
 30
0.0
  3
*U2
  1

  0
SOLID
  5
24937
  8
WAKU
  6
CONTINUOUS
 10
781.305142
 20
283.605291
 30
0.0
 11
780.499782
 21
283.530361
 31
0.0
 12
780.874987
 22
283.520449
 32
0.0
 13
780.874987
 23
283.520449
 33
0.0
  0
SOLID
  5
24938
  8
WAKU
  6
CONTINUOUS
 10
780.193309
 20
283.634664
 30
0.0
 11
780.499782
 21
283.530361
 31
0.0
 12
781.305142
 22
283.605291
 32
0.0
 13
781.305142
 23
283.605291
 33
0.0
  0
SOLID
  5
24939
  8
WAKU
  6
CONTINUOUS
 10
781.774448
 20
283.781773
 30
0.0
 11
780.193309
 21
283.634664
 31
0.0
 12
781.305142
 22
283.605291
 32
0.0
 13
781.305142
 23
283.605291
 33
0.0
  0
SOLID
  5
2493A
  8
WAKU
  6
CONTINUOUS
 10
779.966824
 20
283.829526
 30
0.0
 11
780.193309
 21
283.634664
 31
0.0
 12
781.774448
 22
283.781773
 32
0.0
 13
781.774448
 23
283.781773
 33
0.0
  0
SOLID
  5
2493B
  8
WAKU
  6
CONTINUOUS
 10
780.594177
 20
283.909498
 30
0.0
 11
779.966824
 21
283.829526
 31
0.0
 12
781.774448
 22
283.781773
 32
0.0
 13
781.774448
 23
283.781773
 33
0.0
  0
SOLID
  5
2493C
  8
WAKU
  6
CONTINUOUS
 10
780.901294
 20
283.914863
 30
0.0
 11
780.594177
 21
283.909498
 31
0.0
 12
781.774448
 22
283.781773
 32
0.0
 13
781.774448
 23
283.781773
 33
0.0
  0
SOLID
  5
2493D
  8
WAKU
  6
CONTINUOUS
 10
780.392927
 20
283.968568
 30
0.0
 11
779.966824
 21
283.829526
 31
0.0
 12
780.594177
 22
283.909498
 32
0.0
 13
780.594177
 23
283.909498
 33
0.0
  0
SOLID
  5
2493E
  8
WAKU
  6
CONTINUOUS
 10
781.296984
 20
284.010368
 30
0.0
 11
780.901294
 21
283.914863
 31
0.0
 12
781.774448
 22
283.781773
 32
0.0
 13
781.774448
 23
283.781773
 33
0.0
  0
SOLID
  5
2493F
  8
WAKU
  6
CONTINUOUS
 10
782.265666
 20
284.043411
 30
0.0
 11
781.296984
 21
284.010368
 31
0.0
 12
781.774448
 22
283.781773
 32
0.0
 13
781.774448
 23
283.781773
 33
0.0
  0
SOLID
  5
24940
  8
WAKU
  6
CONTINUOUS
 10
780.275177
 20
284.066476
 30
0.0
 11
779.966824
 21
283.829526
 31
0.0
 12
780.392927
 22
283.968568
 32
0.0
 13
780.392927
 23
283.968568
 33
0.0
  0
SOLID
  5
24941
  8
WAKU
  6
CONTINUOUS
 10
779.828646
 20
284.107791
 30
0.0
 11
779.966824
 21
283.829526
 31
0.0
 12
780.275177
 22
284.066476
 32
0.0
 13
780.275177
 23
284.066476
 33
0.0
  0
SOLID
  5
24942
  8
WAKU
  6
CONTINUOUS
 10
780.709458
 20
284.142397
 30
0.0
 11
779.828646
 21
284.107791
 31
0.0
 12
780.275177
 22
284.066476
 32
0.0
 13
780.275177
 23
284.066476
 33
0.0
  0
SOLID
  5
24943
  8
WAKU
  6
CONTINUOUS
 10
781.751882
 20
284.202798
 30
0.0
 11
781.296984
 21
284.010368
 31
0.0
 12
782.265666
 22
284.043411
 32
0.0
 13
782.265666
 23
284.043411
 33
0.0
  0
SOLID
  5
24944
  8
WAKU
  6
CONTINUOUS
 10
779.550381
 20
284.245969
 30
0.0
 11
779.828646
 21
284.107791
 31
0.0
 12
780.709458
 22
284.142397
 32
0.0
 13
780.709458
 23
284.142397
 33
0.0
  0
SOLID
  5
24945
  8
WAKU
  6
CONTINUOUS
 10
781.186428
 20
284.314625
 30
0.0
 11
779.550381
 21
284.245969
 31
0.0
 12
780.709458
 22
284.142397
 32
0.0
 13
780.709458
 23
284.142397
 33
0.0
  0
SOLID
  5
24946
  8
WAKU
  6
CONTINUOUS
 10
782.760756
 20
284.380595
 30
0.0
 11
781.751882
 21
284.202798
 31
0.0
 12
782.265666
 22
284.043411
 32
0.0
 13
782.265666
 23
284.043411
 33
0.0
  0
SOLID
  5
24947
  8
WAKU
  6
CONTINUOUS
 10
780.172911
 20
284.451856
 30
0.0
 11
779.550381
 21
284.245969
 31
0.0
 12
781.186428
 22
284.314625
 32
0.0
 13
781.186428
 23
284.314625
 33
0.0
  0
SOLID
  5
24948
  8
WAKU
  6
CONTINUOUS
 10
779.355518
 20
284.472454
 30
0.0
 11
779.550381
 21
284.245969
 31
0.0
 12
780.172911
 22
284.451856
 32
0.0
 13
780.172911
 23
284.451856
 33
0.0
  0
SOLID
  5
24949
  8
WAKU
  6
CONTINUOUS
 10
782.237497
 20
284.486117
 30
0.0
 11
781.751882
 21
284.202798
 31
0.0
 12
782.760756
 22
284.380595
 32
0.0
 13
782.760756
 23
284.380595
 33
0.0
  0
SOLID
  5
2494A
  8
WAKU
  6
CONTINUOUS
 10
780.681395
 20
284.539195
 30
0.0
 11
780.172911
 21
284.451856
 31
0.0
 12
781.186428
 22
284.314625
 32
0.0
 13
781.186428
 23
284.314625
 33
0.0
  0
SOLID
  5
2494B
  8
WAKU
  6
CONTINUOUS
 10
779.787305
 20
284.553935
 30
0.0
 11
779.355518
 21
284.472454
 31
0.0
 12
780.172911
 22
284.451856
 32
0.0
 13
780.172911
 23
284.451856
 33
0.0
  0
SOLID
  5
2494C
  8
WAKU
  6
CONTINUOUS
 10
781.68777
 20
284.576545
 30
0.0
 11
780.681395
 21
284.539195
 31
0.0
 12
781.186428
 22
284.314625
 32
0.0
 13
781.186428
 23
284.314625
 33
0.0
  0
SOLID
  5
2494D
  8
WAKU
  6
CONTINUOUS
 10
779.689155
 20
284.672435
 30
0.0
 11
779.355518
 21
284.472454
 31
0.0
 12
779.787305
 22
284.553935
 32
0.0
 13
779.787305
 23
284.553935
 33
0.0
  0
SOLID
  5
2494E
  8
WAKU
  6
CONTINUOUS
 10
779.251215
 20
284.778928
 30
0.0
 11
779.355518
 21
284.472454
 31
0.0
 12
779.689155
 22
284.672435
 32
0.0
 13
779.689155
 23
284.672435
 33
0.0
  0
SOLID
  5
2494F
  8
WAKU
  6
CONTINUOUS
 10
783.241532
 20
284.780941
 30
0.0
 11
782.237497
 21
284.486117
 31
0.0
 12
782.760756
 22
284.380595
 32
0.0
 13
782.760756
 23
284.380595
 33
0.0
  0
SOLID
  5
24950
  8
WAKU
  6
CONTINUOUS
 10
781.312263
 20
284.810332
 30
0.0
 11
780.681395
 21
284.539195
 31
0.0
 12
781.68777
 22
284.576545
 32
0.0
 13
781.68777
 23
284.576545
 33
0.0
  0
SOLID
  5
24951
  8
WAKU
  6
CONTINUOUS
 10
779.630358
 20
284.873087
 30
0.0
 11
779.251215
 21
284.778928
 31
0.0
 12
779.689155
 22
284.672435
 32
0.0
 13
779.689155
 23
284.672435
 33
0.0
  0
SOLID
  5
24952
  8
WAKU
  6
CONTINUOUS
 10
782.194232
 20
284.918099
 30
0.0
 11
781.312263
 21
284.810332
 31
0.0
 12
781.68777
 22
284.576545
 32
0.0
 13
781.68777
 23
284.576545
 33
0.0
  0
SOLID
  5
24953
  8
WAKU
  6
CONTINUOUS
 10
780.260168
 20
284.959969
 30
0.0
 11
779.787305
 21
284.553935
 31
0.0
 12
780.172911
 22
284.451856
 32
0.0
 13
780.172911
 23
284.451856
 33
0.0
  0
SOLID
  5
24954
  8
WAKU
  6
CONTINUOUS
 10
779.863139
 20
284.988189
 30
0.0
 11
779.787305
 21
284.553935
 31
0.0
 12
780.260168
 22
284.959969
 32
0.0
 13
780.260168
 23
284.959969
 33
0.0
  0
SOLID
  5
24955
  8
WAKU
  6
CONTINUOUS
 10
808.194006
 20
285.115385
 30
0.0
 11
807.606055
 21
283.5
 31
0.0
 12
811.913747
 22
283.5
 32
0.0
 13
811.913747
 23
283.5
 33
0.0
  0
SOLID
  5
24956
  8
WAKU
  6
CONTINUOUS
 10
811.913747
 20
283.5
 30
0.0
 11
811.424776
 21
285.115385
 31
0.0
 12
808.194006
 22
285.115385
 32
0.0
 13
808.194006
 23
285.115385
 33
0.0
  0
SOLID
  5
24957
  8
WAKU
  6
CONTINUOUS
 10
779.241303
 20
285.154132
 30
0.0
 11
779.251215
 21
284.778928
 31
0.0
 12
779.630358
 22
284.873087
 32
0.0
 13
779.630358
 23
284.873087
 33
0.0
  0
SOLID
  5
24958
  8
WAKU
  6
CONTINUOUS
 10
779.635696
 20
285.180404
 30
0.0
 11
779.241303
 21
285.154132
 31
0.0
 12
779.630358
 22
284.873087
 32
0.0
 13
779.630358
 23
284.873087
 33
0.0
  0
SOLID
  5
24959
  8
WAKU
  6
CONTINUOUS
 10
783.690335
 20
285.229744
 30
0.0
 11
782.237497
 21
284.486117
 31
0.0
 12
783.241532
 22
284.780941
 32
0.0
 13
783.241532
 23
284.780941
 33
0.0
  0
SOLID
  5
2495A
  8
WAKU
  6
CONTINUOUS
 10
781.98994
 20
285.251431
 30
0.0
 11
781.312263
 21
284.810332
 31
0.0
 12
782.194232
 22
284.918099
 32
0.0
 13
782.194232
 23
284.918099
 33
0.0
  0
SOLID
  5
2495B
  8
WAKU
  6
CONTINUOUS
 10
783.195965
 20
285.275232
 30
0.0
 11
782.237497
 21
284.486117
 31
0.0
 12
783.690335
 22
285.229744
 32
0.0
 13
783.690335
 23
285.229744
 33
0.0
  0
SOLID
  5
2495C
  8
WAKU
  6
CONTINUOUS
 10
782.686363
 20
285.326171
 30
0.0
 11
781.98994
 21
285.251431
 31
0.0
 12
782.194232
 22
284.918099
 32
0.0
 13
782.194232
 23
284.918099
 33
0.0
  0
SOLID
  5
2495D
  8
WAKU
  6
CONTINUOUS
 10
780.035293
 20
285.465154
 30
0.0
 11
779.863139
 21
284.988189
 31
0.0
 12
780.260168
 22
284.959969
 32
0.0
 13
780.260168
 23
284.959969
 33
0.0
  0
SOLID
  5
2495E
  8
WAKU
  6
CONTINUOUS
 10
779.73149
 20
285.576021
 30
0.0
 11
779.241303
 21
285.154132
 31
0.0
 12
779.635696
 22
285.180404
 32
0.0
 13
779.635696
 23
285.180404
 33
0.0
  0
SOLID
  5
2495F
  8
WAKU
  6
CONTINUOUS
 10
779.326146
 20
285.584287
 30
0.0
 11
779.241303
 21
285.154132
 31
0.0
 12
779.73149
 22
285.576021
 32
0.0
 13
779.73149
 23
285.576021
 33
0.0
  0
SOLID
  5
24960
  8
WAKU
  6
CONTINUOUS
 10
780.530712
 20
285.590875
 30
0.0
 11
780.035293
 21
285.465154
 31
0.0
 12
780.260168
 22
284.959969
 32
0.0
 13
780.260168
 23
284.959969
 33
0.0
  0
SOLID
  5
24961
  8
WAKU
  6
CONTINUOUS
 10
799.236144
 20
285.653846
 30
0.0
 11
793.067593
 21
283.5
 31
0.0
 12
798.452208
 22
283.5
 32
0.0
 13
798.452208
 23
283.5
 33
0.0
  0
SOLID
  5
24962
  8
WAKU
  6
CONTINUOUS
 10
793.851529
 20
285.653846
 30
0.0
 11
793.067593
 21
283.5
 31
0.0
 12
799.236144
 22
285.653846
 32
0.0
 13
799.236144
 23
285.653846
 33
0.0
  0
SOLID
  5
24963
  8
WAKU
  6
CONTINUOUS
 10
814.851529
 20
285.653846
 30
0.0
 11
814.067593
 21
283.5
 31
0.0
 12
819.452208
 22
283.5
 32
0.0
 13
819.452208
 23
283.5
 33
0.0
  0
SOLID
  5
24964
  8
WAKU
  6
CONTINUOUS
 10
819.452208
 20
283.5
 30
0.0
 11
819.159221
 21
285.653846
 31
0.0
 12
814.851529
 22
285.653846
 32
0.0
 13
814.851529
 23
285.653846
 33
0.0
  0
SOLID
  5
24965
  8
WAKU
  6
CONTINUOUS
 10
801.174606
 20
285.653846
 30
0.0
 11
800.39067
 21
283.5
 31
0.0
 12
805.452208
 22
283.5
 32
0.0
 13
805.452208
 23
283.5
 33
0.0
  0
SOLID
  5
24966
  8
WAKU
  6
CONTINUOUS
 10
805.452208
 20
283.5
 30
0.0
 11
805.159221
 21
285.653846
 31
0.0
 12
801.174606
 22
285.653846
 32
0.0
 13
801.174606
 23
285.653846
 33
0.0
  0
SOLID
  5
24967
  8
WAKU
  6
CONTINUOUS
 10
784.090681
 20
285.71052
 30
0.0
 11
783.195965
 21
285.275232
 31
0.0
 12
783.690335
 22
285.229744
 32
0.0
 13
783.690335
 23
285.229744
 33
0.0
  0
SOLID
  5
24968
  8
WAKU
  6
CONTINUOUS
 10
783.145266
 20
285.785089
 30
0.0
 11
781.98994
 21
285.251431
 31
0.0
 12
782.686363
 22
285.326171
 32
0.0
 13
782.686363
 23
285.326171
 33
0.0
  0
SOLID
  5
24969
  8
WAKU
  6
CONTINUOUS
 10
782.646296
 20
285.825506
 30
0.0
 11
781.98994
 21
285.251431
 31
0.0
 12
783.145266
 22
285.785089
 32
0.0
 13
783.145266
 23
285.785089
 33
0.0
  0
SOLID
  5
2496A
  8
WAKU
  6
CONTINUOUS
 10
780.297156
 20
285.966509
 30
0.0
 11
780.035293
 21
285.465154
 31
0.0
 12
780.530712
 22
285.590875
 32
0.0
 13
780.530712
 23
285.590875
 33
0.0
  0
SOLID
  5
2496B
  8
WAKU
  6
CONTINUOUS
 10
779.923519
 20
286.031028
 30
0.0
 11
779.326146
 21
285.584287
 31
0.0
 12
779.73149
 22
285.576021
 32
0.0
 13
779.73149
 23
285.576021
 33
0.0
  0
SOLID
  5
2496C
  8
WAKU
  6
CONTINUOUS
 10
779.502627
 20
286.053593
 30
0.0
 11
779.326146
 21
285.584287
 31
0.0
 12
779.923519
 22
286.031028
 32
0.0
 13
779.923519
 23
286.031028
 33
0.0
  0
SOLID
  5
2496D
  8
WAKU
  6
CONTINUOUS
 10
789.397145
 20
286.138462
 30
0.0
 11
788.436824
 21
283.5
 31
0.0
 12
789.513747
 22
283.5
 32
0.0
 13
789.513747
 23
283.5
 33
0.0
  0
SOLID
  5
2496E
  8
WAKU
  6
CONTINUOUS
 10
787.155205
 20
286.192308
 30
0.0
 11
786.175285
 21
283.5
 31
0.0
 12
789.397145
 22
286.138462
 32
0.0
 13
789.397145
 23
286.138462
 33
0.0
  0
SOLID
  5
2496F
  8
WAKU
  6
CONTINUOUS
 10
790.493667
 20
286.192308
 30
0.0
 11
787.155205
 21
286.192308
 31
0.0
 12
789.397145
 22
286.138462
 32
0.0
 13
789.397145
 23
286.138462
 33
0.0
  0
SOLID
  5
24970
  8
WAKU
  6
CONTINUOUS
 10
790.493667
 20
286.192308
 30
0.0
 11
789.397145
 21
286.138462
 31
0.0
 12
789.513747
 22
283.5
 32
0.0
 13
789.513747
 23
283.5
 33
0.0
  0
SOLID
  5
24971
  8
WAKU
  6
CONTINUOUS
 10
790.493667
 20
286.192308
 30
0.0
 11
791.775285
 21
283.5
 31
0.0
 12
792.755205
 22
286.192308
 32
0.0
 13
792.755205
 23
286.192308
 33
0.0
  0
SOLID
  5
24972
  8
WAKU
  6
CONTINUOUS
 10
784.427865
 20
286.205609
 30
0.0
 11
783.195965
 21
285.275232
 31
0.0
 12
784.090681
 22
285.71052
 32
0.0
 13
784.090681
 23
285.71052
 33
0.0
  0
SOLID
  5
24973
  8
WAKU
  6
CONTINUOUS
 10
783.98505
 20
286.233718
 30
0.0
 11
783.195965
 21
285.275232
 31
0.0
 12
784.427865
 22
286.205609
 32
0.0
 13
784.427865
 23
286.205609
 33
0.0
  0
SOLID
  5
24974
  8
WAKU
  6
CONTINUOUS
 10
780.971896
 20
286.268471
 30
0.0
 11
780.297156
 21
285.966509
 31
0.0
 12
780.530712
 22
285.590875
 32
0.0
 13
780.530712
 23
285.590875
 33
0.0
  0
SOLID
  5
24975
  8
WAKU
  6
CONTINUOUS
 10
783.553316
 20
286.277229
 30
0.0
 11
782.646296
 21
285.825506
 31
0.0
 12
783.145266
 22
285.785089
 32
0.0
 13
783.145266
 23
285.785089
 33
0.0
  0
SOLID
  5
24976
  8
WAKU
  6
CONTINUOUS
 10
780.638671
 20
286.473
 30
0.0
 11
780.297156
 21
285.966509
 31
0.0
 12
780.971896
 22
286.268471
 32
0.0
 13
780.971896
 23
286.268471
 33
0.0
  0
SOLID
  5
24977
  8
WAKU
  6
CONTINUOUS
 10
783.220238
 20
286.48192
 30
0.0
 11
782.646296
 21
285.825506
 31
0.0
 12
783.553316
 22
286.277229
 32
0.0
 13
783.553316
 23
286.277229
 33
0.0
  0
SOLID
  5
24978
  8
WAKU
  6
CONTINUOUS
 10
780.207035
 20
286.51657
 30
0.0
 11
779.502627
 21
286.053593
 31
0.0
 12
779.923519
 22
286.031028
 32
0.0
 13
779.923519
 23
286.031028
 33
0.0
  0
SOLID
  5
24979
  8
WAKU
  6
CONTINUOUS
 10
779.764265
 20
286.544812
 30
0.0
 11
779.502627
 21
286.053593
 31
0.0
 12
780.207035
 22
286.51657
 32
0.0
 13
780.207035
 23
286.51657
 33
0.0
  0
SOLID
  5
2497A
  8
WAKU
  6
CONTINUOUS
 10
784.689503
 20
286.696828
 30
0.0
 11
783.98505
 21
286.233718
 31
0.0
 12
784.427865
 22
286.205609
 32
0.0
 13
784.427865
 23
286.205609
 33
0.0
  0
SOLID
  5
2497B
  8
WAKU
  6
CONTINUOUS
 10
784.268507
 20
286.719278
 30
0.0
 11
783.98505
 21
286.233718
 31
0.0
 12
784.689503
 22
286.696828
 32
0.0
 13
784.689503
 23
286.696828
 33
0.0
  0
SOLID
  5
2497C
  8
WAKU
  6
CONTINUOUS
 10
783.894843
 20
286.783693
 30
0.0
 11
783.220238
 21
286.48192
 31
0.0
 12
783.553316
 22
286.277229
 32
0.0
 13
783.553316
 23
286.277229
 33
0.0
  0
SOLID
  5
2497D
  8
WAKU
  6
CONTINUOUS
 10
781.545827
 20
286.924893
 30
0.0
 11
780.638671
 21
286.473
 31
0.0
 12
780.971896
 22
286.268471
 32
0.0
 13
780.971896
 23
286.268471
 33
0.0
  0
SOLID
  5
2497E
  8
WAKU
  6
CONTINUOUS
 10
781.04672
 20
286.965174
 30
0.0
 11
780.638671
 21
286.473
 31
0.0
 12
781.545827
 22
286.924893
 32
0.0
 13
781.545827
 23
286.924893
 33
0.0
  0
SOLID
  5
2497F
  8
WAKU
  6
CONTINUOUS
 10
780.101449
 20
287.039901
 30
0.0
 11
779.764265
 21
286.544812
 31
0.0
 12
780.207035
 22
286.51657
 32
0.0
 13
780.207035
 23
286.51657
 33
0.0
  0
SOLID
  5
24980
  8
WAKU
  6
CONTINUOUS
 10
783.661353
 20
287.159534
 30
0.0
 11
783.220238
 21
286.48192
 31
0.0
 12
783.894843
 22
286.783693
 32
0.0
 13
783.894843
 23
286.783693
 33
0.0
  0
SOLID
  5
24981
  8
WAKU
  6
CONTINUOUS
 10
784.865984
 20
287.166134
 30
0.0
 11
784.268507
 21
286.719278
 31
0.0
 12
784.689503
 22
286.696828
 32
0.0
 13
784.689503
 23
286.696828
 33
0.0
  0
SOLID
  5
24982
  8
WAKU
  6
CONTINUOUS
 10
784.46071
 20
287.174248
 30
0.0
 11
784.268507
 21
286.719278
 31
0.0
 12
784.865984
 22
287.166134
 32
0.0
 13
784.865984
 23
287.166134
 33
0.0
  0
SOLID
  5
24983
  8
WAKU
  6
CONTINUOUS
 10
784.156732
 20
287.28503
 30
0.0
 11
783.661353
 21
287.159534
 31
0.0
 12
783.894843
 22
286.783693
 32
0.0
 13
783.894843
 23
286.783693
 33
0.0
  0
SOLID
  5
24984
  8
WAKU
  6
CONTINUOUS
 10
781.505632
 20
287.424128
 30
0.0
 11
781.04672
 21
286.965174
 31
0.0
 12
781.545827
 22
286.924893
 32
0.0
 13
781.545827
 23
286.924893
 33
0.0
  0
SOLID
  5
24985
  8
WAKU
  6
CONTINUOUS
 10
780.996098
 20
287.475108
 30
0.0
 11
780.101449
 21
287.039901
 31
0.0
 12
780.207035
 22
286.51657
 32
0.0
 13
780.207035
 23
286.51657
 33
0.0
  0
SOLID
  5
24986
  8
WAKU
  6
CONTINUOUS
 10
782.202181
 20
287.498991
 30
0.0
 11
781.505632
 21
287.424128
 31
0.0
 12
781.545827
 22
286.924893
 32
0.0
 13
781.545827
 23
286.924893
 33
0.0
  0
SOLID
  5
24987
  8
WAKU
  6
CONTINUOUS
 10
780.501795
 20
287.520677
 30
0.0
 11
780.101449
 21
287.039901
 31
0.0
 12
780.996098
 22
287.475108
 32
0.0
 13
780.996098
 23
287.475108
 33
0.0
  0
SOLID
  5
24988
  8
WAKU
  6
CONTINUOUS
 10
784.556361
 20
287.569864
 30
0.0
 11
784.46071
 21
287.174248
 31
0.0
 12
784.865984
 22
287.166134
 32
0.0
 13
784.865984
 23
287.166134
 33
0.0
  0
SOLID
  5
24989
  8
WAKU
  6
CONTINUOUS
 10
805.864763
 20
287.592308
 30
0.0
 11
805.159221
 21
285.653846
 31
0.0
 12
805.452208
 22
283.5
 32
0.0
 13
805.452208
 23
283.5
 33
0.0
  0
SOLID
  5
2498A
  8
WAKU
  6
CONTINUOUS
 10
803.172456
 20
287.592308
 30
0.0
 11
801.703565
 21
286.515385
 31
0.0
 12
802.780488
 22
286.515385
 32
0.0
 13
802.780488
 23
286.515385
 33
0.0
  0
SOLID
  5
2498B
  8
WAKU
  6
CONTINUOUS
 10
802.095533
 20
287.592308
 30
0.0
 11
801.703565
 21
286.515385
 31
0.0
 12
803.172456
 22
287.592308
 32
0.0
 13
803.172456
 23
287.592308
 33
0.0
  0
SOLID
  5
2498C
  8
WAKU
  6
CONTINUOUS
 10
801.28784
 20
287.592308
 30
0.0
 11
802.095533
 21
287.592308
 31
0.0
 12
803.172456
 22
287.592308
 32
0.0
 13
803.172456
 23
287.592308
 33
0.0
  0
SOLID
  5
2498D
  8
WAKU
  6
CONTINUOUS
 10
801.28784
 20
287.592308
 30
0.0
 11
803.172456
 21
287.592308
 31
0.0
 12
805.864763
 22
287.592308
 32
0.0
 13
805.864763
 23
287.592308
 33
0.0
  0
SOLID
  5
2498E
  8
WAKU
  6
CONTINUOUS
 10
806.941687
 20
287.592308
 30
0.0
 11
801.28784
 21
287.592308
 31
0.0
 12
805.864763
 22
287.592308
 32
0.0
 13
805.864763
 23
287.592308
 33
0.0
  0
SOLID
  5
2498F
  8
WAKU
  6
CONTINUOUS
 10
806.941687
 20
287.592308
 30
0.0
 11
805.864763
 21
287.592308
 31
0.0
 12
805.452208
 22
283.5
 32
0.0
 13
805.452208
 23
283.5
 33
0.0
  0
SOLID
  5
24990
  8
WAKU
  6
CONTINUOUS
 10
784.950827
 20
287.596289
 30
0.0
 11
784.556361
 21
287.569864
 31
0.0
 12
784.865984
 22
287.166134
 32
0.0
 13
784.865984
 23
287.166134
 33
0.0
  0
SOLID
  5
24991
  8
WAKU
  6
CONTINUOUS
 10
784.328925
 20
287.761987
 30
0.0
 11
783.661353
 21
287.159534
 31
0.0
 12
784.156732
 22
287.28503
 32
0.0
 13
784.156732
 23
287.28503
 33
0.0
  0
SOLID
  5
24992
  8
WAKU
  6
CONTINUOUS
 10
783.932071
 20
287.790402
 30
0.0
 11
783.661353
 21
287.159534
 31
0.0
 12
784.328925
 22
287.761987
 32
0.0
 13
784.328925
 23
287.761987
 33
0.0
  0
SOLID
  5
24993
  8
WAKU
  6
CONTINUOUS
 10
781.997783
 20
287.832235
 30
0.0
 11
781.505632
 21
287.424128
 31
0.0
 12
782.202181
 22
287.498991
 32
0.0
 13
782.202181
 23
287.498991
 33
0.0
  0
SOLID
  5
24994
  8
WAKU
  6
CONTINUOUS
 10
784.561802
 20
287.877253
 30
0.0
 11
784.556361
 21
287.569864
 31
0.0
 12
784.950827
 22
287.596289
 32
0.0
 13
784.950827
 23
287.596289
 33
0.0
  0
SOLID
  5
24995
  8
WAKU
  6
CONTINUOUS
 10
782.879878
 20
287.940057
 30
0.0
 11
781.997783
 21
287.832235
 31
0.0
 12
782.202181
 22
287.498991
 32
0.0
 13
782.202181
 23
287.498991
 33
0.0
  0
SOLID
  5
24996
  8
WAKU
  6
CONTINUOUS
 10
780.950599
 20
287.96948
 30
0.0
 11
780.501795
 21
287.520677
 31
0.0
 12
780.996098
 22
287.475108
 32
0.0
 13
780.996098
 23
287.475108
 33
0.0
  0
SOLID
  5
24997
  8
WAKU
  6
CONTINUOUS
 10
784.940915
 20
287.971493
 30
0.0
 11
784.561802
 21
287.877253
 31
0.0
 12
784.950827
 22
287.596289
 32
0.0
 13
784.950827
 23
287.596289
 33
0.0
  0
SOLID
  5
24998
  8
WAKU
  6
CONTINUOUS
 10
784.502951
 20
288.077918
 30
0.0
 11
784.561802
 21
287.877253
 31
0.0
 12
784.940915
 22
287.971493
 32
0.0
 13
784.940915
 23
287.971493
 33
0.0
  0
SOLID
  5
24999
  8
WAKU
  6
CONTINUOUS
 10
815.753055
 20
288.130769
 30
0.0
 11
815.282694
 21
286.838462
 31
0.0
 12
818.513463
 22
286.838462
 32
0.0
 13
818.513463
 23
286.838462
 33
0.0
  0
SOLID
  5
2499A
  8
WAKU
  6
CONTINUOUS
 10
818.983824
 20
288.130769
 30
0.0
 11
815.753055
 21
288.130769
 31
0.0
 12
818.513463
 22
286.838462
 32
0.0
 13
818.513463
 23
286.838462
 33
0.0
  0
SOLID
  5
2499B
  8
WAKU
  6
CONTINUOUS
 10
782.504269
 20
288.173821
 30
0.0
 11
781.997783
 21
287.832235
 31
0.0
 12
782.879878
 22
287.940057
 32
0.0
 13
782.879878
 23
287.940057
 33
0.0
  0
SOLID
  5
2499C
  8
WAKU
  6
CONTINUOUS
 10
784.40481
 20
288.196249
 30
0.0
 11
783.932071
 21
287.790402
 31
0.0
 12
784.328925
 22
287.761987
 32
0.0
 13
784.328925
 23
287.761987
 33
0.0
  0
SOLID
  5
2499D
  8
WAKU
  6
CONTINUOUS
 10
784.40481
 20
288.196249
 30
0.0
 11
784.502951
 21
288.077918
 31
0.0
 12
784.940915
 22
287.971493
 32
0.0
 13
784.940915
 23
287.971493
 33
0.0
  0
SOLID
  5
2499E
  8
WAKU
  6
CONTINUOUS
 10
783.510738
 20
288.21124
 30
0.0
 11
782.504269
 21
288.173821
 31
0.0
 12
782.879878
 22
287.940057
 32
0.0
 13
782.879878
 23
287.940057
 33
0.0
  0
SOLID
  5
2499F
  8
WAKU
  6
CONTINUOUS
 10
781.954587
 20
288.264284
 30
0.0
 11
780.950599
 21
287.96948
 31
0.0
 12
780.996098
 22
287.475108
 32
0.0
 13
780.996098
 23
287.475108
 33
0.0
  0
SOLID
  5
249A0
  8
WAKU
  6
CONTINUOUS
 10
784.836612
 20
288.277967
 30
0.0
 11
784.40481
 21
288.196249
 31
0.0
 12
784.940915
 22
287.971493
 32
0.0
 13
784.940915
 23
287.971493
 33
0.0
  0
SOLID
  5
249A1
  8
WAKU
  6
CONTINUOUS
 10
784.019229
 20
288.298569
 30
0.0
 11
782.504269
 21
288.173821
 31
0.0
 12
783.510738
 22
288.21124
 32
0.0
 13
783.510738
 23
288.21124
 33
0.0
  0
SOLID
  5
249A2
  8
WAKU
  6
CONTINUOUS
 10
784.019229
 20
288.298569
 30
0.0
 11
784.40481
 21
288.196249
 31
0.0
 12
784.836612
 22
288.277967
 32
0.0
 13
784.836612
 23
288.277967
 33
0.0
  0
SOLID
  5
249A3
  8
WAKU
  6
CONTINUOUS
 10
784.019229
 20
288.298569
 30
0.0
 11
783.932071
 21
287.790402
 31
0.0
 12
784.40481
 22
288.196249
 32
0.0
 13
784.40481
 23
288.196249
 33
0.0
  0
SOLID
  5
249A4
  8
WAKU
  6
CONTINUOUS
 10
781.431374
 20
288.369826
 30
0.0
 11
780.950599
 21
287.96948
 31
0.0
 12
781.954587
 22
288.264284
 32
0.0
 13
781.954587
 23
288.264284
 33
0.0
  0
SOLID
  5
249A5
  8
WAKU
  6
CONTINUOUS
 10
783.005639
 20
288.435768
 30
0.0
 11
782.504269
 21
288.173821
 31
0.0
 12
784.019229
 22
288.298569
 32
0.0
 13
784.019229
 23
288.298569
 33
0.0
  0
SOLID
  5
249A6
  8
WAKU
  6
CONTINUOUS
 10
784.641749
 20
288.504452
 30
0.0
 11
783.005639
 21
288.435768
 31
0.0
 12
784.019229
 22
288.298569
 32
0.0
 13
784.019229
 23
288.298569
 33
0.0
  0
SOLID
  5
249A7
  8
WAKU
  6
CONTINUOUS
 10
784.641749
 20
288.504452
 30
0.0
 11
784.019229
 21
288.298569
 31
0.0
 12
784.836612
 22
288.277967
 32
0.0
 13
784.836612
 23
288.277967
 33
0.0
  0
SOLID
  5
249A8
  8
WAKU
  6
CONTINUOUS
 10
782.440235
 20
288.547585
 30
0.0
 11
781.431374
 21
288.369826
 31
0.0
 12
781.954587
 22
288.264284
 32
0.0
 13
781.954587
 23
288.264284
 33
0.0
  0
SOLID
  5
249A9
  8
WAKU
  6
CONTINUOUS
 10
783.482636
 20
288.608014
 30
0.0
 11
783.005639
 21
288.435768
 31
0.0
 12
784.641749
 22
288.504452
 32
0.0
 13
784.641749
 23
288.504452
 33
0.0
  0
SOLID
  5
249AA
  8
WAKU
  6
CONTINUOUS
 10
784.363484
 20
288.64263
 30
0.0
 11
783.482636
 21
288.608014
 31
0.0
 12
784.641749
 22
288.504452
 32
0.0
 13
784.641749
 23
288.504452
 33
0.0
  0
SOLID
  5
249AB
  8
WAKU
  6
CONTINUOUS
 10
783.916941
 20
288.683944
 30
0.0
 11
783.482636
 21
288.608014
 31
0.0
 12
784.363484
 22
288.64263
 32
0.0
 13
784.363484
 23
288.64263
 33
0.0
  0
SOLID
  5
249AC
  8
WAKU
  6
CONTINUOUS
 10
781.926464
 20
288.70701
 30
0.0
 11
781.431374
 21
288.369826
 31
0.0
 12
782.440235
 22
288.547585
 32
0.0
 13
782.440235
 23
288.547585
 33
0.0
  0
SOLID
  5
249AD
  8
WAKU
  6
CONTINUOUS
 10
782.89514
 20
288.740065
 30
0.0
 11
781.926464
 21
288.70701
 31
0.0
 12
782.440235
 22
288.547585
 32
0.0
 13
782.440235
 23
288.547585
 33
0.0
  0
SOLID
  5
249AE
  8
WAKU
  6
CONTINUOUS
 10
790.311313
 20
288.776923
 30
0.0
 11
787.155205
 21
286.192308
 31
0.0
 12
790.493667
 22
286.192308
 32
0.0
 13
790.493667
 23
286.192308
 33
0.0
  0
SOLID
  5
249AF
  8
WAKU
  6
CONTINUOUS
 10
791.524851
 20
288.776923
 30
0.0
 11
788.095928
 21
288.776923
 31
0.0
 12
790.311313
 22
288.776923
 32
0.0
 13
790.311313
 23
288.776923
 33
0.0
  0
SOLID
  5
249B0
  8
WAKU
  6
CONTINUOUS
 10
791.524851
 20
288.776923
 30
0.0
 11
790.311313
 21
288.776923
 31
0.0
 12
790.493667
 22
286.192308
 32
0.0
 13
790.493667
 23
286.192308
 33
0.0
  0
SOLID
  5
249B1
  8
WAKU
  6
CONTINUOUS
 10
791.524851
 20
288.776923
 30
0.0
 11
790.493667
 21
286.192308
 31
0.0
 12
792.755205
 22
286.192308
 32
0.0
 13
792.755205
 23
286.192308
 33
0.0
  0
SOLID
  5
249B2
  8
WAKU
  6
CONTINUOUS
 10
783.799148
 20
288.781929
 30
0.0
 11
783.916941
 21
288.683944
 31
0.0
 12
784.363484
 22
288.64263
 32
0.0
 13
784.363484
 23
288.64263
 33
0.0
  0
SOLID
  5
249B3
  8
WAKU
  6
CONTINUOUS
 10
783.290857
 20
288.835581
 30
0.0
 11
781.926464
 21
288.70701
 31
0.0
 12
782.89514
 22
288.740065
 32
0.0
 13
782.89514
 23
288.740065
 33
0.0
  0
SOLID
  5
249B4
  8
WAKU
  6
CONTINUOUS
 10
783.597996
 20
288.840902
 30
0.0
 11
783.799148
 21
288.781929
 31
0.0
 12
784.363484
 22
288.64263
 32
0.0
 13
784.363484
 23
288.64263
 33
0.0
  0
SOLID
  5
249B5
  8
WAKU
  6
CONTINUOUS
 10
812.042817
 20
288.884615
 30
0.0
 11
810.181958
 21
286.730769
 31
0.0
 12
811.258881
 22
286.730769
 32
0.0
 13
811.258881
 23
286.730769
 33
0.0
  0
SOLID
  5
249B6
  8
WAKU
  6
CONTINUOUS
 10
812.796663
 20
288.884615
 30
0.0
 11
811.424776
 21
285.115385
 31
0.0
 12
811.913747
 22
283.5
 32
0.0
 13
811.913747
 23
283.5
 33
0.0
  0
SOLID
  5
249B7
  8
WAKU
  6
CONTINUOUS
 10
813.873587
 20
288.884615
 30
0.0
 11
812.796663
 21
288.884615
 31
0.0
 12
811.913747
 22
283.5
 32
0.0
 13
811.913747
 23
283.5
 33
0.0
  0
SOLID
  5
249B8
  8
WAKU
  6
CONTINUOUS
 10
810.965894
 20
288.884615
 30
0.0
 11
810.181958
 21
286.730769
 31
0.0
 12
812.042817
 22
288.884615
 32
0.0
 13
812.042817
 23
288.884615
 33
0.0
  0
SOLID
  5
249B9
  8
WAKU
  6
CONTINUOUS
 10
809.858881
 20
286.730769
 30
0.0
 11
810.642817
 21
288.884615
 31
0.0
 12
809.565894
 22
288.884615
 32
0.0
 13
809.565894
 23
288.884615
 33
0.0
  0
SOLID
  5
249BA
  8
WAKU
  6
CONTINUOUS
 10
809.565894
 20
288.884615
 30
0.0
 11
808.781958
 21
286.730769
 31
0.0
 12
809.858881
 22
286.730769
 32
0.0
 13
809.858881
 23
286.730769
 33
0.0
  0
SOLID
  5
249BB
  8
WAKU
  6
CONTINUOUS
 10
784.225306
 20
288.920895
 30
0.0
 11
783.597996
 21
288.840902
 31
0.0
 12
784.363484
 22
288.64263
 32
0.0
 13
784.363484
 23
288.64263
 33
0.0
  0
SOLID
  5
249BC
  8
WAKU
  6
CONTINUOUS
 10
782.417683
 20
288.968648
 30
0.0
 11
783.597996
 21
288.840902
 31
0.0
 12
784.225306
 22
288.920895
 32
0.0
 13
784.225306
 23
288.920895
 33
0.0
  0
SOLID
  5
249BD
  8
WAKU
  6
CONTINUOUS
 10
782.417683
 20
288.968648
 30
0.0
 11
783.290857
 21
288.835581
 31
0.0
 12
783.597996
 22
288.840902
 32
0.0
 13
783.597996
 23
288.840902
 33
0.0
  0
SOLID
  5
249BE
  8
WAKU
  6
CONTINUOUS
 10
782.417683
 20
288.968648
 30
0.0
 11
781.926464
 21
288.70701
 31
0.0
 12
783.290857
 22
288.835581
 32
0.0
 13
783.290857
 23
288.835581
 33
0.0
  0
SOLID
  5
249BF
  8
WAKU
  6
CONTINUOUS
 10
783.998821
 20
289.115757
 30
0.0
 11
782.417683
 21
288.968648
 31
0.0
 12
784.225306
 22
288.920895
 32
0.0
 13
784.225306
 23
288.920895
 33
0.0
  0
SOLID
  5
249C0
  8
WAKU
  6
CONTINUOUS
 10
782.886988
 20
289.145129
 30
0.0
 11
782.417683
 21
288.968648
 31
0.0
 12
783.998821
 22
289.115757
 32
0.0
 13
783.998821
 23
289.115757
 33
0.0
  0
SOLID
  5
249C1
  8
WAKU
  6
CONTINUOUS
 10
806.941687
 20
287.592308
 30
0.0
 11
806.452715
 21
289.207692
 31
0.0
 12
803.760408
 22
289.207692
 32
0.0
 13
803.760408
 23
289.207692
 33
0.0
  0
SOLID
  5
249C2
  8
WAKU
  6
CONTINUOUS
 10
806.452715
 20
289.207692
 30
0.0
 11
806.941687
 21
287.592308
 31
0.0
 12
807.749379
 22
287.592308
 32
0.0
 13
807.749379
 23
287.592308
 33
0.0
  0
SOLID
  5
249C3
  8
WAKU
  6
CONTINUOUS
 10
803.760408
 20
289.207692
 30
0.0
 11
801.28784
 21
287.592308
 31
0.0
 12
806.941687
 22
287.592308
 32
0.0
 13
806.941687
 23
287.592308
 33
0.0
  0
SOLID
  5
249C4
  8
WAKU
  6
CONTINUOUS
 10
808.337331
 20
289.207692
 30
0.0
 11
806.452715
 21
289.207692
 31
0.0
 12
807.749379
 22
287.592308
 32
0.0
 13
807.749379
 23
287.592308
 33
0.0
  0
SOLID
  5
249C5
  8
WAKU
  6
CONTINUOUS
 10
801.875792
 20
289.207692
 30
0.0
 11
801.28784
 21
287.592308
 31
0.0
 12
803.760408
 22
289.207692
 32
0.0
 13
803.760408
 23
289.207692
 33
0.0
  0
SOLID
  5
249C6
  8
WAKU
  6
CONTINUOUS
 10
803.760408
 20
289.207692
 30
0.0
 11
802.683485
 21
289.207692
 31
0.0
 12
801.875792
 22
289.207692
 32
0.0
 13
801.875792
 23
289.207692
 33
0.0
  0
SOLID
  5
249C7
  8
WAKU
  6
CONTINUOUS
 10
807.529638
 20
289.207692
 30
0.0
 11
806.452715
 21
289.207692
 31
0.0
 12
808.337331
 22
289.207692
 32
0.0
 13
808.337331
 23
289.207692
 33
0.0
  0
SOLID
  5
249C8
  8
WAKU
  6
CONTINUOUS
 10
783.692348
 20
289.22006
 30
0.0
 11
782.886988
 21
289.145129
 31
0.0
 12
783.998821
 22
289.115757
 32
0.0
 13
783.998821
 23
289.115757
 33
0.0
  0
SOLID
  5
249C9
  8
WAKU
  6
CONTINUOUS
 10
783.317143
 20
289.229972
 30
0.0
 11
782.886988
 21
289.145129
 31
0.0
 12
783.692348
 22
289.22006
 32
0.0
 13
783.692348
 23
289.22006
 33
0.0
  0
SOLID
  5
249CA
  8
WAKU
  6
CONTINUOUS
 10
788.723077
 20
290.5
 30
0.0
 11
791.524851
 21
288.776923
 31
0.0
 12
793.695928
 22
288.776923
 32
0.0
 13
793.695928
 23
288.776923
 33
0.0
  0
SOLID
  5
249CB
  8
WAKU
  6
CONTINUOUS
 10
788.723077
 20
290.5
 30
0.0
 11
788.095928
 21
288.776923
 31
0.0
 12
791.524851
 22
288.776923
 32
0.0
 13
791.524851
 23
288.776923
 33
0.0
  0
SOLID
  5
249CC
  8
WAKU
  6
CONTINUOUS
 10
782.249053
 20
290.5
 30
0.0
 11
777.971276
 21
290.5
 31
0.0
 12
777.971276
 22
286.222222
 32
0.0
 13
777.971276
 23
286.222222
 33
0.0
  0
SOLID
  5
249CD
  8
WAKU
  6
CONTINUOUS
 10
819.219005
 20
288.776923
 30
0.0
 11
819.846154
 21
290.5
 31
0.0
 12
816.615385
 22
290.5
 32
0.0
 13
816.615385
 23
290.5
 33
0.0
  0
SOLID
  5
249CE
  8
WAKU
  6
CONTINUOUS
 10
816.615385
 20
290.5
 30
0.0
 11
815.988236
 21
288.776923
 31
0.0
 12
819.219005
 22
288.776923
 32
0.0
 13
819.219005
 23
288.776923
 33
0.0
  0
SOLID
  5
249CF
  8
WAKU
  6
CONTINUOUS
 10
802.683485
 20
289.207692
 30
0.0
 11
804.230769
 21
290.5
 31
0.0
 12
803.153846
 22
290.5
 32
0.0
 13
803.153846
 23
290.5
 33
0.0
  0
SOLID
  5
249D0
  8
WAKU
  6
CONTINUOUS
 10
804.230769
 20
290.5
 30
0.0
 11
802.683485
 21
289.207692
 31
0.0
 12
803.760408
 22
289.207692
 32
0.0
 13
803.760408
 23
289.207692
 33
0.0
  0
SOLID
  5
249D1
  8
WAKU
  6
CONTINUOUS
 10
819.159221
 20
285.653846
 30
0.0
 11
822.0
 21
290.5
 31
0.0
 12
820.923077
 22
290.5
 32
0.0
 13
820.923077
 23
290.5
 33
0.0
  0
SOLID
  5
249D2
  8
WAKU
  6
CONTINUOUS
 10
822.0
 20
290.5
 30
0.0
 11
819.159221
 21
285.653846
 31
0.0
 12
819.452208
 22
283.5
 32
0.0
 13
819.452208
 23
283.5
 33
0.0
  0
SOLID
  5
249D3
  8
WAKU
  6
CONTINUOUS
 10
794.323077
 20
290.5
 30
0.0
 11
788.723077
 21
290.5
 31
0.0
 12
793.695928
 22
288.776923
 32
0.0
 13
793.695928
 23
288.776923
 33
0.0
  0
SOLID
  5
249D4
  8
WAKU
  6
CONTINUOUS
 10
795.615385
 20
290.5
 30
0.0
 11
794.988236
 21
288.776923
 31
0.0
 12
800.372851
 22
288.776923
 32
0.0
 13
800.372851
 23
288.776923
 33
0.0
  0
SOLID
  5
249D5
  8
WAKU
  6
CONTINUOUS
 10
806.923077
 20
290.5
 30
0.0
 11
806.452715
 21
289.207692
 31
0.0
 12
807.529638
 22
289.207692
 32
0.0
 13
807.529638
 23
289.207692
 33
0.0
  0
SOLID
  5
249D6
  8
WAKU
  6
CONTINUOUS
 10
801.0
 20
290.5
 30
0.0
 11
795.615385
 21
290.5
 31
0.0
 12
800.372851
 22
288.776923
 32
0.0
 13
800.372851
 23
288.776923
 33
0.0
  0
SOLID
  5
249D7
  8
WAKU
  6
CONTINUOUS
 10
808.0
 20
290.5
 30
0.0
 11
806.923077
 21
290.5
 31
0.0
 12
807.529638
 22
289.207692
 32
0.0
 13
807.529638
 23
289.207692
 33
0.0
  0
ENDBLK
  5
249D9
  8
0
  0
ENDSEC
  0
SECTION
  2
ENTITIES
  0
LINE
  5
43
  8
WAKU
 10
415.0
 20
282.0
 30
0.0
 11
415.0
 21
5.0
 31
0.0
  0
LINE
  5
46
  8
WAKU
 10
5.0
 20
292.0
 30
0.0
 11
5.0
 21
5.0
 31
0.0
  0
LINE
  5
55
  8
WAKU
 10
5.0
 20
5.0
 30
0.0
 11
415.0
 21
5.0
 31
0.0
  0
LINE
  5
571
  8
WAKU
 10
5.0
 20
292.0
 30
0.0
 11
415.0
 21
292.0
 31
0.0
  0
LINE
  5
572
  8
WAKU
 10
5.0
 20
282.0
 30
0.0
 11
415.0
 21
282.0
 31
0.0
  0
TEXT
  5
448D
  8
WAKU
  6
CONTINUOUS
 10
10.0
 20
285.5
 30
0.0
 40
3.0
  1
FNS-70
 41
0.868
  7
STANDARD
 11
10.0
 21
287.0
 31
0.0
 73
     2
  0
LINE
  5
23552
  8
DANMEN
  6
CONTINUOUS
 10
57.904496
 20
57.199997
 30
0.0
 11
64.104495
 21
57.199997
 31
0.0
  0
LINE
  5
23553
  8
DANMEN
  6
CONTINUOUS
 10
57.904496
 20
88.5
 30
0.0
 11
64.104495
 21
88.5
 31
0.0
  0
LINE
  5
23554
  8
DANMEN
  6
CONTINUOUS
 10
57.904496
 20
56.0
 30
0.0
 11
64.304495
 21
56.0
 31
0.0
  0
LINE
  5
23555
  8
DANMEN
  6
CONTINUOUS
 10
57.904496
 20
87.3
 30
0.0
 11
67.238201
 21
87.3
 31
0.0
  0
LINE
  5
23556
  8
DANMEN
  6
CONTINUOUS
 10
63.404502
 20
107.499908
 30
0.0
 11
60.904511
 21
107.499908
 31
0.0
  0
LINE
  5
23557
  8
DANMEN
  6
CONTINUOUS
 10
60.90448
 20
42.500092
 30
0.0
 11
63.404487
 21
42.500092
 31
0.0
  0
LINE
  5
23558
  8
DANMEN
  6
CONTINUOUS
 10
57.904496
 20
57.199997
 30
0.0
 11
57.904496
 21
87.300003
 31
0.0
  0
LINE
  5
23559
  8
DANMEN
  6
CONTINUOUS
 10
56.704496
 20
45.5
 30
0.0
 11
56.704496
 21
104.5
 31
0.0
  0
LINE
  5
2355A
  8
DANMEN
  6
CONTINUOUS
 10
55.404496
 20
115.0
 30
0.0
 11
55.404496
 21
35.0
 31
0.0
  0
LINE
  5
2355B
  8
DANMEN
  6
CONTINUOUS
 10
48.404496
 20
115.0
 30
0.0
 11
48.404496
 21
35.0
 31
0.0
  0
LINE
  5
2355C
  8
DANMEN
  6
CONTINUOUS
 10
57.904496
 20
46.199997
 30
0.0
 11
57.904496
 21
56.0
 31
0.0
  0
LINE
  5
2355D
  8
DANMEN
  6
CONTINUOUS
 10
59.404511
 20
45.0
 30
0.0
 11
59.404511
 21
35.0
 31
0.0
  0
ARC
  5
2355E
  8
DANMEN
  6
CONTINUOUS
 10
60.90448
 20
44.000092
 30
0.0
 40
1.5
 50
179.999964
 51
270.000001
  0
LINE
  5
2355F
  8
DANMEN
  6
CONTINUOUS
 10
57.204496
 20
45.0
 30
0.0
 11
59.904496
 21
45.0
 31
0.0
  0
ARC
  5
23560
  8
DANMEN
  6
CONTINUOUS
 10
57.204496
 20
45.5
 30
0.0
 40
0.5
 50
179.999964
 51
270.000001
  0
ARC
  5
23564
  8
DANMEN
  6
CONTINUOUS
 10
60.252016
 20
47.5
 30
0.0
 40
0.5
 50
89.999982
 51
173.6598
  0
LINE
  5
23566
  8
DANMEN
  6
CONTINUOUS
 10
59.755074
 20
47.555217
 30
0.0
 11
59.604495
 21
46.200001
 31
0.0
  0
LINE
  5
23567
  8
DANMEN
  6
CONTINUOUS
 10
57.904496
 20
46.199997
 30
0.0
 11
59.604495
 21
46.199997
 31
0.0
  0
LINE
  5
23569
  8
DANMEN
  6
CONTINUOUS
 10
60.252016
 20
48.0
 30
0.0
 11
60.404496
 21
48.0
 31
0.0
  0
ARC
  5
2356A
  8
DANMEN
  6
CONTINUOUS
 10
59.904496
 20
45.5
 30
0.0
 40
0.5
 50
270.000018
 51
0.0
  0
LINE
  5
2356C
  8
DANMEN
  6
CONTINUOUS
 10
60.404496
 20
45.5
 30
0.0
 11
60.404496
 21
48.0
 31
0.0
  0
LINE
  5
2356F
  8
DANMEN
  6
CONTINUOUS
 10
57.904496
 20
88.5
 30
0.0
 11
57.904496
 21
103.8
 31
0.0
  0
ARC
  5
23572
  8
DANMEN
  6
CONTINUOUS
 10
60.904511
 20
105.999908
 30
0.0
 40
1.5
 50
90.000018
 51
180.0
  0
LINE
  5
23573
  8
DANMEN
  6
CONTINUOUS
 10
59.404511
 20
104.999985
 30
0.0
 11
59.404511
 21
115.0
 31
0.0
  0
LINE
  5
23574
  8
DANMEN
  6
CONTINUOUS
 10
57.204496
 20
105.0
 30
0.0
 11
59.904496
 21
105.0
 31
0.0
  0
ARC
  5
23575
  8
DANMEN
  6
CONTINUOUS
 10
57.204496
 20
104.5
 30
0.0
 40
0.5
 50
89.999982
 51
180.000019
  0
ARC
  5
23579
  8
DANMEN
  6
CONTINUOUS
 10
60.252016
 20
102.5
 30
0.0
 40
0.5
 50
186.3402
 51
270.000018
  0
LINE
  5
2357B
  8
DANMEN
  6
CONTINUOUS
 10
59.604495
 20
103.8
 30
0.0
 11
59.755075
 21
102.444784
 31
0.0
  0
LINE
  5
2357E
  8
DANMEN
  6
CONTINUOUS
 10
57.904496
 20
103.8
 30
0.0
 11
59.604495
 21
103.8
 31
0.0
  0
LINE
  5
23580
  8
DANMEN
  6
CONTINUOUS
 10
60.252016
 20
102.0
 30
0.0
 11
60.404496
 21
102.0
 31
0.0
  0
ARC
  5
23581
  8
DANMEN
  6
CONTINUOUS
 10
59.904496
 20
104.5
 30
0.0
 40
0.5
 50
0.0
 51
89.999982
  0
LINE
  5
23583
  8
DANMEN
  6
CONTINUOUS
 10
60.404496
 20
104.5
 30
0.0
 11
60.404496
 21
102.0
 31
0.0
  0
LINE
  5
23584
  8
DANMEN
  6
CONTINUOUS
 10
76.004484
 20
62.199997
 30
0.0
 11
76.004484
 21
92.8
 31
0.0
  0
LINE
  5
23585
  8
DANMEN
  6
CONTINUOUS
 10
77.204483
 20
45.5
 30
0.0
 11
77.204483
 21
104.5
 31
0.0
  0
LINE
  5
23586
  8
DANMEN
  6
CONTINUOUS
 10
79.404496
 20
115.0
 30
0.0
 11
79.404496
 21
35.0
 31
0.0
  0
LINE
  5
23587
  8
DANMEN
  6
CONTINUOUS
 10
87.404496
 20
115.0
 30
0.0
 11
87.404496
 21
35.0
 31
0.0
  0
LINE
  5
23588
  8
DANMEN
  6
CONTINUOUS
 10
81.904496
 20
115.0
 30
0.0
 11
81.904496
 21
35.0
 31
0.0
  0
LINE
  5
23589
  8
DANMEN
  6
DASHED
 10
84.904496
 20
115.0
 30
0.0
 11
84.904496
 21
35.0
 31
0.0
  0
LINE
  5
2358A
  8
DANMEN
  6
CONTINUOUS
 10
104.404483
 20
70.499997
 30
0.0
 11
104.404483
 21
91.5
 31
0.0
  0
LINE
  5
2358B
  8
DANMEN
  6
CONTINUOUS
 10
107.904496
 20
48.5
 30
0.0
 11
107.904496
 21
101.5
 31
0.0
  0
LINE
  5
2358C
  8
DANMEN
  6
CONTINUOUS
 10
121.404483
 20
48.5
 30
0.0
 11
121.404483
 21
101.5
 31
0.0
  0
LINE
  5
2358D
  8
DANMEN
  6
CONTINUOUS
 10
90.404496
 20
91.5
 30
0.0
 11
90.404496
 21
70.499997
 31
0.0
  0
LINE
  5
2358E
  8
DANMEN
  6
CONTINUOUS
 10
87.404496
 20
45.5
 30
0.0
 11
87.404496
 21
104.5
 31
0.0
  0
LINE
  5
2358F
  8
DANMEN
  6
CONTINUOUS
 10
124.904483
 20
45.5
 30
0.0
 11
124.904483
 21
104.5
 31
0.0
  0
LINE
  5
23590
  8
DANMEN
  6
CONTINUOUS
 10
90.404496
 20
70.499997
 30
0.0
 11
104.404483
 21
70.499997
 31
0.0
  0
ARC
  5
23591
  8
DANMEN
  6
CONTINUOUS
 10
93.404502
 20
41.000076
 30
0.0
 40
1.5
 50
0.000036
 51
90.000018
  0
LINE
  5
23592
  8
DANMEN
  6
CONTINUOUS
 10
89.904496
 20
68.0
 30
0.0
 11
104.904496
 21
68.0
 31
0.0
  0
LINE
  5
23593
  8
DANMEN
  6
CONTINUOUS
 10
76.004484
 20
46.7
 30
0.0
 11
76.004484
 21
61.0
 31
0.0
  0
LINE
  5
23594
  8
DANMEN
  6
CONTINUOUS
 10
64.904487
 20
52.0
 30
0.0
 11
64.904487
 21
35.0
 31
0.0
  0
LINE
  5
23595
  8
DANMEN
  6
CONTINUOUS
 10
69.904474
 20
52.000015
 30
0.0
 11
69.904474
 21
35.0
 31
0.0
  0
LINE
  5
23596
  8
DANMEN
  6
CONTINUOUS
 10
65.404487
 20
52.0
 30
0.0
 11
65.404487
 21
35.0
 31
0.0
  0
LINE
  5
23597
  8
DANMEN
  6
CONTINUOUS
 10
69.404474
 20
52.000015
 30
0.0
 11
69.404474
 21
35.0
 31
0.0
  0
LINE
  5
23598
  8
DANMEN
  6
CONTINUOUS
 10
89.354495
 20
48.0
 30
0.0
 11
89.354495
 21
51.0
 31
0.0
  0
LINE
  5
23599
  8
DANMEN
  6
CONTINUOUS
 10
75.40448
 20
45.0
 30
0.0
 11
75.40448
 21
35.0
 31
0.0
  0
ARC
  5
2359A
  8
DANMEN
  6
CONTINUOUS
 10
71.40449
 20
41.000092
 30
0.0
 40
1.5
 50
89.999982
 51
179.999964
  0
ARC
  5
2359B
  8
DANMEN
  6
CONTINUOUS
 10
63.404487
 20
41.000092
 30
0.0
 40
1.5
 50
0.0
 51
89.999982
  0
ARC
  5
2359E
  8
DANMEN
  6
CONTINUOUS
 10
73.90448
 20
44.000092
 30
0.0
 40
1.5
 50
270.000018
 51
0.0
  0
LINE
  5
2359F
  8
DANMEN
  6
CONTINUOUS
 10
71.40449
 20
42.500092
 30
0.0
 11
73.90448
 21
42.500092
 31
0.0
  0
LINE
  5
235A2
  8
DANMEN
  6
CONTINUOUS
 10
74.404496
 20
48.0
 30
0.0
 11
74.575537
 21
48.0
 31
0.0
  0
ARC
  5
235A3
  8
DANMEN
  6
CONTINUOUS
 10
74.904496
 20
45.5
 30
0.0
 40
0.5
 50
179.999964
 51
270.000001
  0
LINE
  5
235A5
  8
DANMEN
  6
CONTINUOUS
 10
74.904496
 20
45.0
 30
0.0
 11
76.704483
 21
45.0
 31
0.0
  0
LINE
  5
235A6
  8
DANMEN
  6
CONTINUOUS
 10
74.404496
 20
45.5
 30
0.0
 11
74.404496
 21
48.0
 31
0.0
  0
ARC
  5
235A7
  8
DANMEN
  6
CONTINUOUS
 10
76.704483
 20
45.5
 30
0.0
 40
0.5
 50
270.000018
 51
0.0
  0
LINE
  5
235A9
  8
DANMEN
  6
CONTINUOUS
 10
75.204496
 20
46.7
 30
0.0
 11
76.004484
 21
46.7
 31
0.0
  0
LINE
  5
235AA
  8
DANMEN
  6
CONTINUOUS
 10
75.204496
 20
46.7
 30
0.0
 11
75.069723
 21
47.576028
 31
0.0
  0
ARC
  5
235AB
  8
DANMEN
  6
CONTINUOUS
 10
74.575537
 20
47.5
 30
0.0
 40
0.5
 50
8.746105
 51
90.0
  0
LINE
  5
235AF
  8
DANMEN
  6
CONTINUOUS
 10
89.404511
 20
45.0
 30
0.0
 11
89.404511
 21
35.0
 31
0.0
  0
ARC
  5
235B0
  8
DANMEN
  6
CONTINUOUS
 10
90.904511
 20
44.000076
 30
0.0
 40
1.5
 50
180.0
 51
269.999982
  0
LINE
  5
235B1
  8
DANMEN
  6
CONTINUOUS
 10
93.404502
 20
42.500076
 30
0.0
 11
90.904511
 21
42.500076
 31
0.0
  0
LINE
  5
235B2
  8
DANMEN
  6
CONTINUOUS
 10
87.904496
 20
45.0
 30
0.0
 11
89.404496
 21
45.0
 31
0.0
  0
ARC
  5
235B3
  8
DANMEN
  6
CONTINUOUS
 10
87.904496
 20
45.5
 30
0.0
 40
0.5
 50
179.999964
 51
270.000001
  0
LINE
  5
235B4
  8
DANMEN
  6
CONTINUOUS
 10
89.904496
 20
45.5
 30
0.0
 11
89.904496
 21
48.0
 31
0.0
  0
ARC
  5
235B5
  8
DANMEN
  6
CONTINUOUS
 10
89.404496
 20
45.5
 30
0.0
 40
0.5
 50
270.000018
 51
0.0
  0
LINE
  5
235B6
  8
DANMEN
  6
CONTINUOUS
 10
89.354495
 20
48.0
 30
0.0
 11
89.904496
 21
48.0
 31
0.0
  0
LINE
  5
235B7
  8
DANMEN
  6
CONTINUOUS
 10
65.304495
 20
57.0
 30
0.0
 11
65.304495
 21
61.0
 31
0.0
  0
LINE
  5
235B8
  8
DANMEN
  6
CONTINUOUS
 10
64.104495
 20
57.199997
 30
0.0
 11
64.104495
 21
61.199997
 31
0.0
  0
LINE
  5
235B9
  8
DANMEN
  6
CONTINUOUS
 10
64.904487
 20
52.000015
 30
0.0
 11
69.90449
 21
52.000015
 31
0.0
  0
ARC
  5
235BB
  8
DANMEN
  6
CONTINUOUS
 10
64.304495
 20
57.0
 30
0.0
 40
1.0
 50
270.000018
 51
0.0
  0
LINE
  5
235BD
  8
DANMEN
  6
CONTINUOUS
 10
65.104495
 20
62.199997
 30
0.0
 11
76.004484
 21
62.199997
 31
0.0
  0
LINE
  5
235BE
  8
DANMEN
  6
CONTINUOUS
 10
65.304495
 20
61.0
 30
0.0
 11
76.004484
 21
61.0
 31
0.0
  0
ARC
  5
235BF
  8
DANMEN
  6
CONTINUOUS
 10
65.104495
 20
61.199997
 30
0.0
 40
1.0
 50
89.999982
 51
180.000019
  0
LINE
  5
235C4
  8
DANMEN
  6
CONTINUOUS
 10
89.904496
 20
51.0
 30
0.0
 11
89.904496
 21
68.0
 31
0.0
  0
LINE
  5
235C5
  8
DANMEN
  6
CONTINUOUS
 10
89.354495
 20
51.0
 30
0.0
 11
89.904496
 21
51.0
 31
0.0
  0
LINE
  5
235C6
  8
DANMEN
  6
CONTINUOUS
 10
94.904487
 20
52.0
 30
0.0
 11
94.904487
 21
35.0
 31
0.0
  0
LINE
  5
235C7
  8
DANMEN
  6
CONTINUOUS
 10
99.904474
 20
52.000015
 30
0.0
 11
99.904474
 21
35.0
 31
0.0
  0
LINE
  5
235C8
  8
DANMEN
  6
CONTINUOUS
 10
95.404487
 20
52.0
 30
0.0
 11
95.404487
 21
35.0
 31
0.0
  0
LINE
  5
235C9
  8
DANMEN
  6
CONTINUOUS
 10
99.404474
 20
52.000015
 30
0.0
 11
99.404474
 21
35.0
 31
0.0
  0
LINE
  5
235CA
  8
DANMEN
  6
CONTINUOUS
 10
105.404496
 20
48.0
 30
0.0
 11
105.404496
 21
51.0
 31
0.0
  0
LINE
  5
235CB
  8
DANMEN
  6
CONTINUOUS
 10
107.904496
 20
48.5
 30
0.0
 11
121.404483
 21
48.5
 31
0.0
  0
LINE
  5
235CC
  8
DANMEN
  6
CONTINUOUS
 10
105.404496
 20
45.0
 30
0.0
 11
124.404483
 21
45.0
 31
0.0
  0
LINE
  5
235CD
  8
DANMEN
  6
CONTINUOUS
 10
109.404496
 20
45.0
 30
0.0
 11
109.404496
 21
35.0
 31
0.0
  0
LINE
  5
235CE
  8
DANMEN
  6
CONTINUOUS
 10
105.40448
 20
45.000015
 30
0.0
 11
105.40448
 21
35.0
 31
0.0
  0
LINE
  5
235CF
  8
DANMEN
  6
CONTINUOUS
 10
103.904511
 20
42.500076
 30
0.0
 11
101.404505
 21
42.500076
 31
0.0
  0
ARC
  5
235D0
  8
DANMEN
  6
CONTINUOUS
 10
101.404505
 20
41.000076
 30
0.0
 40
1.5
 50
90.000018
 51
180.0
  0
ARC
  5
235D2
  8
DANMEN
  6
CONTINUOUS
 10
103.904511
 20
44.000076
 30
0.0
 40
1.5
 50
269.999999
 51
0.000036
  0
LINE
  5
235D3
  8
DANMEN
  6
CONTINUOUS
 10
104.904496
 20
45.5
 30
0.0
 11
104.904496
 21
48.0
 31
0.0
  0
ARC
  5
235D4
  8
DANMEN
  6
CONTINUOUS
 10
105.404496
 20
45.5
 30
0.0
 40
0.5
 50
179.999964
 51
270.000001
  0
LINE
  5
235D5
  8
DANMEN
  6
CONTINUOUS
 10
104.904496
 20
48.0
 30
0.0
 11
105.404496
 21
48.0
 31
0.0
  0
LINE
  5
235D6
  8
DANMEN
  6
CONTINUOUS
 10
118.404496
 20
45.0
 30
0.0
 11
118.404496
 21
35.0
 31
0.0
  0
ARC
  5
235D7
  8
DANMEN
  6
CONTINUOUS
 10
124.404483
 20
45.5
 30
0.0
 40
0.5
 50
270.0
 51
0.0
  0
LINE
  5
235D8
  8
DANMEN
  6
CONTINUOUS
 10
104.904496
 20
51.0
 30
0.0
 11
104.904496
 21
68.0
 31
0.0
  0
LINE
  5
235D9
  8
DANMEN
  6
CONTINUOUS
 10
94.904487
 20
52.000015
 30
0.0
 11
99.90449
 21
52.000015
 31
0.0
  0
LINE
  5
235DA
  8
DANMEN
  6
CONTINUOUS
 10
104.904496
 20
51.0
 30
0.0
 11
105.404496
 21
51.0
 31
0.0
  0
ARC
  5
235DB
  8
DANMEN
  6
CONTINUOUS
 10
93.404502
 20
108.999893
 30
0.0
 40
1.5
 50
269.999982
 51
359.999964
  0
ARC
  5
235DC
  8
DANMEN
  6
CONTINUOUS
 10
94.104496
 20
90.5
 30
0.0
 40
1.0
 50
0.0
 51
90.0
  0
LINE
  5
235DD
  8
DANMEN
  6
CONTINUOUS
 10
89.904496
 20
94.0
 30
0.0
 11
104.904496
 21
94.0
 31
0.0
  0
LINE
  5
235DE
  8
DANMEN
  6
CONTINUOUS
 10
76.004484
 20
94.0
 30
0.0
 11
76.004484
 21
103.3
 31
0.0
  0
LINE
  5
235DF
  8
DANMEN
  6
CONTINUOUS
 10
89.904496
 20
99.0
 30
0.0
 11
89.904496
 21
94.0
 31
0.0
  0
LINE
  5
235E0
  8
DANMEN
  6
CONTINUOUS
 10
66.604495
 20
94.0
 30
0.0
 11
76.004484
 21
94.0
 31
0.0
  0
ARC
  5
235E1
  8
DANMEN
  6
CONTINUOUS
 10
69.854496
 20
90.666295
 30
0.0
 40
0.75
 50
180.0
 51
0.0
  0
LINE
  5
235E2
  8
DANMEN
  6
CONTINUOUS
 10
64.104495
 20
91.5
 30
0.0
 11
64.104495
 21
88.5
 31
0.0
  0
ARC
  5
235E3
  8
DANMEN
  6
CONTINUOUS
 10
66.604496
 20
89.8
 30
0.0
 40
1.0
 50
180.0
 51
270.0
  0
ARC
  5
235E5
  8
DANMEN
  6
CONTINUOUS
 10
67.238201
 20
88.05
 30
0.0
 40
0.75
 50
270.0
 51
90.0
  0
LINE
  5
235E6
  8
DANMEN
  6
CONTINUOUS
 10
66.604496
 20
88.8
 30
0.0
 11
67.238201
 21
88.8
 31
0.0
  0
ARC
  5
235E7
  8
DANMEN
  6
CONTINUOUS
 10
66.604495
 20
91.5
 30
0.0
 40
2.5
 50
89.999982
 51
180.000019
  0
ARC
  5
235E8
  8
DANMEN
  6
CONTINUOUS
 10
66.604496
 20
91.3
 30
0.0
 40
1.0
 50
90.0
 51
180.0
  0
LINE
  5
235EA
  8
DANMEN
  6
CONTINUOUS
 10
65.604496
 20
89.8
 30
0.0
 11
65.604496
 21
91.3
 31
0.0
  0
ARC
  5
235EC
  8
DANMEN
  6
CONTINUOUS
 10
68.104496
 20
91.3
 30
0.0
 40
1.0
 50
0.0
 51
90.0
  0
LINE
  5
235ED
  8
DANMEN
  6
CONTINUOUS
 10
69.104496
 20
90.666295
 30
0.0
 11
69.104496
 21
91.3
 31
0.0
  0
LINE
  5
235EE
  8
DANMEN
  6
CONTINUOUS
 10
66.604496
 20
92.3
 30
0.0
 11
68.104496
 21
92.3
 31
0.0
  0
LINE
  5
235F1
  8
DANMEN
  6
CONTINUOUS
 10
71.604495
 20
92.8
 30
0.0
 11
76.004484
 21
92.8
 31
0.0
  0
LINE
  5
235F2
  8
DANMEN
  6
CONTINUOUS
 10
70.604496
 20
90.666295
 30
0.0
 11
70.604496
 21
91.8
 31
0.0
  0
ARC
  5
235F3
  8
DANMEN
  6
CONTINUOUS
 10
71.604496
 20
91.8
 30
0.0
 40
1.0
 50
90.0
 51
180.0
  0
LINE
  5
235F7
  8
DANMEN
  6
CONTINUOUS
 10
94.104496
 20
91.5
 30
0.0
 11
90.404496
 21
91.5
 31
0.0
  0
ARC
  5
235F8
  8
DANMEN
  6
CONTINUOUS
 10
73.904511
 20
105.999908
 30
0.0
 40
1.5
 50
359.999964
 51
90.000001
  0
LINE
  5
235F9
  8
DANMEN
  6
CONTINUOUS
 10
75.40448
 20
105.0
 30
0.0
 11
75.40448
 21
115.0
 31
0.0
  0
LINE
  5
235FA
  8
DANMEN
  6
CONTINUOUS
 10
65.404517
 20
97.999985
 30
0.0
 11
65.404517
 21
115.0
 31
0.0
  0
LINE
  5
235FB
  8
DANMEN
  6
CONTINUOUS
 10
69.404505
 20
98.0
 30
0.0
 11
69.404505
 21
115.0
 31
0.0
  0
LINE
  5
235FC
  8
DANMEN
  6
CONTINUOUS
 10
64.904517
 20
97.999985
 30
0.0
 11
64.904517
 21
115.0
 31
0.0
  0
LINE
  5
235FD
  8
DANMEN
  6
CONTINUOUS
 10
69.904505
 20
98.0
 30
0.0
 11
69.904505
 21
115.0
 31
0.0
  0
LINE
  5
235FE
  8
DANMEN
  6
CONTINUOUS
 10
69.904505
 20
97.999985
 30
0.0
 11
64.904502
 21
97.999985
 31
0.0
  0
LINE
  5
23602
  8
DANMEN
  6
CONTINUOUS
 10
74.404496
 20
102.0
 30
0.0
 11
74.575537
 21
102.0
 31
0.0
  0
ARC
  5
23603
  8
DANMEN
  6
CONTINUOUS
 10
74.904496
 20
104.5
 30
0.0
 40
0.5
 50
89.999982
 51
180.000019
  0
LINE
  5
23605
  8
DANMEN
  6
CONTINUOUS
 10
74.904496
 20
105.0
 30
0.0
 11
76.704483
 21
105.0
 31
0.0
  0
LINE
  5
23606
  8
DANMEN
  6
CONTINUOUS
 10
74.404496
 20
104.5
 30
0.0
 11
74.404496
 21
102.0
 31
0.0
  0
ARC
  5
23607
  8
DANMEN
  6
CONTINUOUS
 10
76.704483
 20
104.5
 30
0.0
 40
0.5
 50
0.0
 51
89.999982
  0
LINE
  5
2360A
  8
DANMEN
  6
CONTINUOUS
 10
75.204496
 20
103.3
 30
0.0
 11
76.004484
 21
103.3
 31
0.0
  0
LINE
  5
2360B
  8
DANMEN
  6
CONTINUOUS
 10
75.204496
 20
103.3
 30
0.0
 11
75.069722
 21
102.423972
 31
0.0
  0
ARC
  5
2360C
  8
DANMEN
  6
CONTINUOUS
 10
74.575537
 20
102.5
 30
0.0
 40
0.5
 50
270.0
 51
351.25386
  0
ARC
  5
23610
  8
DANMEN
  6
CONTINUOUS
 10
71.404505
 20
108.999908
 30
0.0
 40
1.5
 50
180.0
 51
269.999982
  0
ARC
  5
23611
  8
DANMEN
  6
CONTINUOUS
 10
63.404502
 20
108.999908
 30
0.0
 40
1.5
 50
269.999982
 51
359.999964
  0
LINE
  5
23612
  8
DANMEN
  6
CONTINUOUS
 10
73.904511
 20
107.499908
 30
0.0
 11
71.404505
 21
107.499908
 31
0.0
  0
LINE
  5
23613
  8
DANMEN
  6
CONTINUOUS
 10
89.404511
 20
104.999985
 30
0.0
 11
89.404511
 21
115.0
 31
0.0
  0
ARC
  5
23614
  8
DANMEN
  6
CONTINUOUS
 10
90.904511
 20
105.999893
 30
0.0
 40
1.5
 50
90.000018
 51
180.0
  0
LINE
  5
23615
  8
DANMEN
  6
CONTINUOUS
 10
89.354495
 20
102.0
 30
0.0
 11
89.354495
 21
99.0
 31
0.0
  0
LINE
  5
23616
  8
DANMEN
  6
CONTINUOUS
 10
89.354495
 20
99.0
 30
0.0
 11
89.904496
 21
99.0
 31
0.0
  0
LINE
  5
23617
  8
DANMEN
  6
CONTINUOUS
 10
87.904496
 20
105.0
 30
0.0
 11
89.404496
 21
105.0
 31
0.0
  0
ARC
  5
23618
  8
DANMEN
  6
CONTINUOUS
 10
87.904496
 20
104.5
 30
0.0
 40
0.5
 50
89.999982
 51
180.000019
  0
LINE
  5
23619
  8
DANMEN
  6
CONTINUOUS
 10
89.904496
 20
104.5
 30
0.0
 11
89.904496
 21
102.0
 31
0.0
  0
ARC
  5
2361A
  8
DANMEN
  6
CONTINUOUS
 10
89.404496
 20
104.5
 30
0.0
 40
0.5
 50
0.0
 51
89.999982
  0
LINE
  5
2361B
  8
DANMEN
  6
CONTINUOUS
 10
89.354495
 20
102.0
 30
0.0
 11
89.904496
 21
102.0
 31
0.0
  0
LINE
  5
2361C
  8
DANMEN
  6
CONTINUOUS
 10
93.404502
 20
107.499893
 30
0.0
 11
90.904511
 21
107.499893
 31
0.0
  0
LINE
  5
2361D
  8
DANMEN
  6
CONTINUOUS
 10
104.904496
 20
94.0
 30
0.0
 11
104.904496
 21
99.0
 31
0.0
  0
ARC
  5
2361E
  8
DANMEN
  6
CONTINUOUS
 10
102.704496
 20
90.5
 30
0.0
 40
1.0
 50
90.0
 51
180.0
  0
ARC
  5
2361F
  8
DANMEN
  6
CONTINUOUS
 10
99.704496
 20
89.969694
 30
0.0
 40
2.0
 50
308.293477
 51
0.0
  0
ARC
  5
23620
  8
DANMEN
  6
CONTINUOUS
 10
99.204496
 20
90.053939
 30
0.0
 40
1.0
 50
294.624318
 51
0.0
  0
ARC
  5
23621
  8
DANMEN
  6
CONTINUOUS
 10
99.704496
 20
88.963068
 30
0.0
 40
0.2
 50
114.624318
 51
180.0
  0
ARC
  5
23622
  8
DANMEN
  6
CONTINUOUS
 10
97.104496
 20
88.963068
 30
0.0
 40
0.2
 50
0.0
 51
65.375682
  0
ARC
  5
23623
  8
DANMEN
  6
CONTINUOUS
 10
97.604496
 20
90.053939
 30
0.0
 40
1.0
 50
180.0
 51
245.375682
  0
ARC
  5
23624
  8
DANMEN
  6
CONTINUOUS
 10
97.104496
 20
89.969694
 30
0.0
 40
2.0
 50
180.0
 51
231.706523
  0
LINE
  5
23625
  8
DANMEN
  6
CONTINUOUS
 10
97.304496
 20
88.7
 30
0.0
 11
97.304496
 21
88.963068
 31
0.0
  0
LINE
  5
23626
  8
DANMEN
  6
CONTINUOUS
 10
95.865116
 20
88.4
 30
0.0
 11
97.004496
 21
88.4
 31
0.0
  0
ARC
  5
23627
  8
DANMEN
  6
CONTINUOUS
 10
97.004496
 20
88.7
 30
0.0
 40
0.3
 50
270.0
 51
0.0
  0
LINE
  5
23628
  8
DANMEN
  6
CONTINUOUS
 10
99.504496
 20
88.7
 30
0.0
 11
99.504496
 21
88.963068
 31
0.0
  0
ARC
  5
23629
  8
DANMEN
  6
CONTINUOUS
 10
99.804496
 20
88.7
 30
0.0
 40
0.3
 50
180.0
 51
270.0
  0
LINE
  5
2362A
  8
DANMEN
  6
CONTINUOUS
 10
99.804496
 20
88.4
 30
0.0
 11
100.943875
 21
88.4
 31
0.0
  0
LINE
  5
2362B
  8
DANMEN
  6
CONTINUOUS
 10
97.604496
 20
92.3
 30
0.0
 11
99.204496
 21
92.3
 31
0.0
  0
LINE
  5
2362C
  8
DANMEN
  6
CONTINUOUS
 10
95.104496
 20
89.969694
 30
0.0
 11
95.104496
 21
90.5
 31
0.0
  0
ARC
  5
2362D
  8
DANMEN
  6
CONTINUOUS
 10
97.604496
 20
91.3
 30
0.0
 40
1.0
 50
90.0
 51
180.0
  0
LINE
  5
2362E
  8
DANMEN
  6
CONTINUOUS
 10
96.604496
 20
90.053939
 30
0.0
 11
96.604496
 21
91.3
 31
0.0
  0
LINE
  5
2362F
  8
DANMEN
  6
CONTINUOUS
 10
101.704496
 20
89.969694
 30
0.0
 11
101.704496
 21
90.5
 31
0.0
  0
LINE
  5
23630
  8
DANMEN
  6
CONTINUOUS
 10
100.204496
 20
90.053939
 30
0.0
 11
100.204496
 21
91.3
 31
0.0
  0
ARC
  5
23631
  8
DANMEN
  6
CONTINUOUS
 10
99.204496
 20
91.3
 30
0.0
 40
1.0
 50
0.0
 51
90.0
  0
LINE
  5
23632
  8
DANMEN
  6
CONTINUOUS
 10
102.704496
 20
91.5
 30
0.0
 11
104.404483
 21
91.5
 31
0.0
  0
LINE
  5
23633
  8
DANMEN
  6
CONTINUOUS
 10
107.904496
 20
101.5
 30
0.0
 11
121.404483
 21
101.5
 31
0.0
  0
LINE
  5
23634
  8
DANMEN
  6
CONTINUOUS
 10
105.404496
 20
105.0
 30
0.0
 11
124.404483
 21
105.0
 31
0.0
  0
LINE
  5
23635
  8
DANMEN
  6
CONTINUOUS
 10
109.404496
 20
115.0
 30
0.0
 11
109.404496
 21
105.0
 31
0.0
  0
LINE
  5
23636
  8
DANMEN
  6
CONTINUOUS
 10
105.40448
 20
105.0
 30
0.0
 11
105.40448
 21
115.0
 31
0.0
  0
LINE
  5
23637
  8
DANMEN
  6
CONTINUOUS
 10
99.904505
 20
98.0
 30
0.0
 11
99.904505
 21
115.0
 31
0.0
  0
LINE
  5
23638
  8
DANMEN
  6
CONTINUOUS
 10
94.904517
 20
97.999985
 30
0.0
 11
94.904517
 21
115.0
 31
0.0
  0
LINE
  5
23639
  8
DANMEN
  6
CONTINUOUS
 10
99.404505
 20
98.0
 30
0.0
 11
99.404505
 21
115.0
 31
0.0
  0
LINE
  5
2363A
  8
DANMEN
  6
CONTINUOUS
 10
95.404517
 20
97.999985
 30
0.0
 11
95.404517
 21
115.0
 31
0.0
  0
ARC
  5
2363B
  8
DANMEN
  6
CONTINUOUS
 10
103.904511
 20
105.999893
 30
0.0
 40
1.5
 50
359.999964
 51
90.000001
  0
LINE
  5
2363C
  8
DANMEN
  6
CONTINUOUS
 10
99.904505
 20
97.999985
 30
0.0
 11
94.904502
 21
97.999985
 31
0.0
  0
LINE
  5
2363E
  8
DANMEN
  6
CONTINUOUS
 10
105.404496
 20
99.0
 30
0.0
 11
105.404496
 21
102.0
 31
0.0
  0
LINE
  5
2363F
  8
DANMEN
  6
CONTINUOUS
 10
104.904496
 20
99.0
 30
0.0
 11
105.404496
 21
99.0
 31
0.0
  0
LINE
  5
23640
  8
DANMEN
  6
CONTINUOUS
 10
104.904496
 20
102.0
 30
0.0
 11
105.404496
 21
102.0
 31
0.0
  0
LINE
  5
23641
  8
DANMEN
  6
CONTINUOUS
 10
104.904496
 20
104.5
 30
0.0
 11
104.904496
 21
102.0
 31
0.0
  0
ARC
  5
23642
  8
DANMEN
  6
CONTINUOUS
 10
105.404496
 20
104.5
 30
0.0
 40
0.5
 50
89.999999
 51
180.000036
  0
LINE
  5
23643
  8
DANMEN
  6
CONTINUOUS
 10
103.904511
 20
107.499893
 30
0.0
 11
101.404505
 21
107.499893
 31
0.0
  0
ARC
  5
23644
  8
DANMEN
  6
CONTINUOUS
 10
101.404505
 20
108.999893
 30
0.0
 40
1.5
 50
180.0
 51
269.999982
  0
LINE
  5
23645
  8
DANMEN
  6
CONTINUOUS
 10
118.404496
 20
115.0
 30
0.0
 11
118.404496
 21
105.0
 31
0.0
  0
ARC
  5
23646
  8
DANMEN
  6
CONTINUOUS
 10
124.404483
 20
104.5
 30
0.0
 40
0.5
 50
0.0
 51
90.0
  0
LINE
  5
23647
  8
DANMEN
  6
CONTINUOUS
 10
163.0
 20
115.0
 30
0.0
 11
163.0
 21
35.0
 31
0.0
  0
LINE
  5
23648
  8
DANMEN
  6
CONTINUOUS
 10
170.0
 20
115.0
 30
0.0
 11
170.0
 21
35.0
 31
0.0
  0
LINE
  5
23649
  8
DANMEN
  6
CONTINUOUS
 10
191.799988
 20
45.5
 30
0.0
 11
191.799988
 21
104.5
 31
0.0
  0
LINE
  5
2364A
  8
DANMEN
  6
CONTINUOUS
 10
170.5
 20
45.5
 30
0.0
 11
170.5
 21
104.5
 31
0.0
  0
LINE
  5
2364B
  8
DANMEN
  6
CONTINUOUS
 10
172.45
 20
87.300003
 30
0.0
 11
172.45
 21
57.949997
 31
0.0
  0
LINE
  5
2364C
  8
DANMEN
  6
CONTINUOUS
 10
189.849991
 20
92.050003
 30
0.0
 11
189.849991
 21
62.949997
 31
0.0
  0
LINE
  5
2364D
  8
DANMEN
  6
CONTINUOUS
 10
184.500009
 20
52.0
 30
0.0
 11
184.500009
 21
35.0
 31
0.0
  0
LINE
  5
2364E
  8
DANMEN
  6
CONTINUOUS
 10
179.500021
 20
52.000015
 30
0.0
 11
179.500021
 21
35.0
 31
0.0
  0
LINE
  5
2364F
  8
DANMEN
  6
CONTINUOUS
 10
184.000009
 20
52.0
 30
0.0
 11
184.000009
 21
35.0
 31
0.0
  0
LINE
  5
23650
  8
DANMEN
  6
CONTINUOUS
 10
180.000021
 20
52.000015
 30
0.0
 11
180.000021
 21
35.0
 31
0.0
  0
LINE
  5
23651
  8
DANMEN
  6
CONTINUOUS
 10
172.45
 20
46.949997
 30
0.0
 11
172.45
 21
56.0
 31
0.0
  0
LINE
  5
23652
  8
DANMEN
  6
CONTINUOUS
 10
189.849991
 20
48.0
 30
0.0
 11
189.849991
 21
61.0
 31
0.0
  0
LINE
  5
23653
  8
DANMEN
  6
CONTINUOUS
 10
178.000006
 20
42.500092
 30
0.0
 11
175.500015
 21
42.500092
 31
0.0
  0
LINE
  5
23654
  8
DANMEN
  6
CONTINUOUS
 10
174.000015
 20
45.0
 30
0.0
 11
174.000015
 21
35.0
 31
0.0
  0
ARC
  5
23655
  8
DANMEN
  6
CONTINUOUS
 10
175.500015
 20
44.000092
 30
0.0
 40
1.5
 50
180.0
 51
269.999982
  0
LINE
  5
23656
  8
DANMEN
  6
CONTINUOUS
 10
171.0
 20
45.0
 30
0.0
 11
174.5
 21
45.0
 31
0.0
  0
ARC
  5
23658
  8
DANMEN
  6
CONTINUOUS
 10
171.0
 20
45.5
 30
0.0
 40
0.5
 50
179.999964
 51
270.000001
  0
ARC
  5
2365B
  8
DANMEN
  6
CONTINUOUS
 10
174.813751
 20
47.5
 30
0.0
 40
0.5
 50
90.000037
 51
169.215696
  0
LINE
  5
2365D
  8
DANMEN
  6
CONTINUOUS
 10
174.322583
 20
47.593557
 30
0.0
 11
174.200002
 21
46.950006
 31
0.0
  0
LINE
  5
2365F
  8
DANMEN
  6
CONTINUOUS
 10
172.45
 20
46.949997
 30
0.0
 11
174.2
 21
46.949997
 31
0.0
  0
LINE
  5
23661
  8
DANMEN
  6
CONTINUOUS
 10
174.813751
 20
48.0
 30
0.0
 11
175.0
 21
48.0
 31
0.0
  0
ARC
  5
23662
  8
DANMEN
  6
CONTINUOUS
 10
174.5
 20
45.5
 30
0.0
 40
0.5
 50
270.000018
 51
0.0
  0
LINE
  5
23664
  8
DANMEN
  6
CONTINUOUS
 10
175.0
 20
45.5
 30
0.0
 11
175.0
 21
48.0
 31
0.0
  0
LINE
  5
23665
  8
DANMEN
  6
CONTINUOUS
 10
189.999985
 20
45.0
 30
0.0
 11
189.999985
 21
35.0
 31
0.0
  0
ARC
  5
23666
  8
DANMEN
  6
CONTINUOUS
 10
186.000009
 20
41.000092
 30
0.0
 40
1.5
 50
90.000018
 51
180.0
  0
ARC
  5
23667
  8
DANMEN
  6
CONTINUOUS
 10
178.000006
 20
41.000092
 30
0.0
 40
1.5
 50
0.000036
 51
90.000018
  0
ARC
  5
23669
  8
DANMEN
  6
CONTINUOUS
 10
188.500015
 20
44.000092
 30
0.0
 40
1.5
 50
269.999999
 51
0.000036
  0
LINE
  5
2366A
  8
DANMEN
  6
CONTINUOUS
 10
188.500015
 20
42.500092
 30
0.0
 11
186.000009
 21
42.500092
 31
0.0
  0
LINE
  5
2366D
  8
DANMEN
  6
CONTINUOUS
 10
189.0
 20
48.0
 30
0.0
 11
189.849991
 21
48.0
 31
0.0
  0
ARC
  5
2366E
  8
DANMEN
  6
CONTINUOUS
 10
189.5
 20
45.5
 30
0.0
 40
0.5
 50
179.999964
 51
270.000001
  0
LINE
  5
23670
  8
DANMEN
  6
CONTINUOUS
 10
189.5
 20
45.0
 30
0.0
 11
191.299988
 21
45.0
 31
0.0
  0
LINE
  5
23671
  8
DANMEN
  6
CONTINUOUS
 10
189.0
 20
45.5
 30
0.0
 11
189.0
 21
48.0
 31
0.0
  0
ARC
  5
23672
  8
DANMEN
  6
CONTINUOUS
 10
191.299988
 20
45.5
 30
0.0
 40
0.5
 50
270.000018
 51
0.0
  0
LINE
  5
23674
  8
DANMEN
  6
CONTINUOUS
 10
172.45
 20
57.949997
 30
0.0
 11
178.7
 21
57.949997
 31
0.0
  0
LINE
  5
23675
  8
DANMEN
  6
CONTINUOUS
 10
172.45
 20
56.0
 30
0.0
 11
179.65
 21
56.0
 31
0.0
  0
LINE
  5
23678
  8
DANMEN
  6
CONTINUOUS
 10
180.65
 20
57.0
 30
0.0
 11
180.65
 21
61.0
 31
0.0
  0
LINE
  5
23679
  8
DANMEN
  6
CONTINUOUS
 10
178.7
 20
57.949997
 30
0.0
 11
178.7
 21
61.949997
 31
0.0
  0
LINE
  5
2367A
  8
DANMEN
  6
CONTINUOUS
 10
184.500009
 20
52.000015
 30
0.0
 11
179.500006
 21
52.000015
 31
0.0
  0
ARC
  5
2367B
  8
DANMEN
  6
CONTINUOUS
 10
179.65
 20
57.0
 30
0.0
 40
1.0
 50
270.000018
 51
0.0
  0
LINE
  5
2367E
  8
DANMEN
  6
CONTINUOUS
 10
180.65
 20
61.0
 30
0.0
 11
189.849991
 21
61.0
 31
0.0
  0
LINE
  5
2367F
  8
DANMEN
  6
CONTINUOUS
 10
179.7
 20
62.949997
 30
0.0
 11
189.849991
 21
62.949997
 31
0.0
  0
ARC
  5
23680
  8
DANMEN
  6
CONTINUOUS
 10
179.7
 20
61.949997
 30
0.0
 40
1.0
 50
89.999982
 51
180.000019
  0
LINE
  5
23685
  8
DANMEN
  6
CONTINUOUS
 10
172.45
 20
103.050003
 30
0.0
 11
172.45
 21
89.25
 31
0.0
  0
LINE
  5
23686
  8
DANMEN
  6
CONTINUOUS
 10
189.849991
 20
102.0
 30
0.0
 11
189.849991
 21
94.0
 31
0.0
  0
LINE
  5
23687
  8
DANMEN
  6
CONTINUOUS
 10
172.45
 20
87.3
 30
0.0
 11
181.833705
 21
87.3
 31
0.0
  0
LINE
  5
23688
  8
DANMEN
  6
CONTINUOUS
 10
172.45
 20
89.25
 30
0.0
 11
178.7
 21
89.25
 31
0.0
  0
ARC
  5
2368B
  8
DANMEN
  6
CONTINUOUS
 10
184.45
 20
90.666295
 30
0.0
 40
0.75
 50
180.0
 51
0.0
  0
LINE
  5
2368C
  8
DANMEN
  6
CONTINUOUS
 10
181.2
 20
94.0
 30
0.0
 11
189.849991
 21
94.0
 31
0.0
  0
ARC
  5
2368D
  8
DANMEN
  6
CONTINUOUS
 10
181.2
 20
89.8
 30
0.0
 40
1.0
 50
180.0
 51
270.0
  0
LINE
  5
2368E
  8
DANMEN
  6
CONTINUOUS
 10
181.2
 20
88.8
 30
0.0
 11
181.833705
 21
88.8
 31
0.0
  0
ARC
  5
2368F
  8
DANMEN
  6
CONTINUOUS
 10
181.833705
 20
88.05
 30
0.0
 40
0.75
 50
270.0
 51
90.0
  0
ARC
  5
23690
  8
DANMEN
  6
CONTINUOUS
 10
181.2
 20
91.3
 30
0.0
 40
1.0
 50
90.0
 51
180.0
  0
ARC
  5
23691
  8
DANMEN
  6
CONTINUOUS
 10
181.2
 20
91.5
 30
0.0
 40
2.5
 50
89.999982
 51
180.000019
  0
LINE
  5
23692
  8
DANMEN
  6
CONTINUOUS
 10
180.2
 20
89.8
 30
0.0
 11
180.2
 21
91.3
 31
0.0
  0
LINE
  5
23695
  8
DANMEN
  6
CONTINUOUS
 10
178.7
 20
91.5
 30
0.0
 11
178.7
 21
89.25
 31
0.0
  0
LINE
  5
23697
  8
DANMEN
  6
CONTINUOUS
 10
181.2
 20
92.3
 30
0.0
 11
182.7
 21
92.3
 31
0.0
  0
LINE
  5
23698
  8
DANMEN
  6
CONTINUOUS
 10
183.7
 20
90.666295
 30
0.0
 11
183.7
 21
91.3
 31
0.0
  0
ARC
  5
23699
  8
DANMEN
  6
CONTINUOUS
 10
182.7
 20
91.3
 30
0.0
 40
1.0
 50
0.0
 51
90.0
  0
LINE
  5
2369B
  8
DANMEN
  6
CONTINUOUS
 10
186.199999
 20
92.050003
 30
0.0
 11
189.849991
 21
92.050003
 31
0.0
  0
ARC
  5
2369D
  8
DANMEN
  6
CONTINUOUS
 10
186.2
 20
91.050003
 30
0.0
 40
1.0
 50
90.0
 51
180.0
  0
LINE
  5
2369E
  8
DANMEN
  6
CONTINUOUS
 10
185.2
 20
90.666295
 30
0.0
 11
185.2
 21
91.050003
 31
0.0
  0
LINE
  5
236A0
  8
DANMEN
  6
CONTINUOUS
 10
178.000006
 20
107.499908
 30
0.0
 11
175.500015
 21
107.499908
 31
0.0
  0
LINE
  5
236A1
  8
DANMEN
  6
CONTINUOUS
 10
174.000015
 20
104.999985
 30
0.0
 11
174.000015
 21
115.0
 31
0.0
  0
ARC
  5
236A2
  8
DANMEN
  6
CONTINUOUS
 10
175.500015
 20
105.999908
 30
0.0
 40
1.5
 50
90.000018
 51
180.0
  0
LINE
  5
236A3
  8
DANMEN
  6
CONTINUOUS
 10
171.0
 20
105.0
 30
0.0
 11
174.5
 21
105.0
 31
0.0
  0
ARC
  5
236A4
  8
DANMEN
  6
CONTINUOUS
 10
171.0
 20
104.5
 30
0.0
 40
0.5
 50
89.999982
 51
180.000019
  0
ARC
  5
236A7
  8
DANMEN
  6
CONTINUOUS
 10
174.81375
 20
102.5
 30
0.0
 40
0.5
 50
190.784249
 51
270.000018
  0
LINE
  5
236A9
  8
DANMEN
  6
CONTINUOUS
 10
174.199998
 20
103.050011
 30
0.0
 11
174.322582
 21
102.406445
 31
0.0
  0
LINE
  5
236AB
  8
DANMEN
  6
CONTINUOUS
 10
172.45
 20
103.050003
 30
0.0
 11
174.199999
 21
103.050003
 31
0.0
  0
LINE
  5
236AD
  8
DANMEN
  6
CONTINUOUS
 10
174.81375
 20
102.0
 30
0.0
 11
175.0
 21
102.0
 31
0.0
  0
ARC
  5
236AE
  8
DANMEN
  6
CONTINUOUS
 10
174.5
 20
104.5
 30
0.0
 40
0.5
 50
0.0
 51
89.999982
  0
LINE
  5
236B0
  8
DANMEN
  6
CONTINUOUS
 10
175.0
 20
104.5
 30
0.0
 11
175.0
 21
102.0
 31
0.0
  0
LINE
  5
236B1
  8
DANMEN
  6
CONTINUOUS
 10
189.999985
 20
105.0
 30
0.0
 11
189.999985
 21
115.0
 31
0.0
  0
LINE
  5
236B2
  8
DANMEN
  6
CONTINUOUS
 10
184.500009
 20
98.0
 30
0.0
 11
184.500009
 21
115.0
 31
0.0
  0
LINE
  5
236B3
  8
DANMEN
  6
CONTINUOUS
 10
179.500021
 20
97.999985
 30
0.0
 11
179.500021
 21
115.0
 31
0.0
  0
LINE
  5
236B4
  8
DANMEN
  6
CONTINUOUS
 10
184.000009
 20
98.0
 30
0.0
 11
184.000009
 21
115.0
 31
0.0
  0
LINE
  5
236B5
  8
DANMEN
  6
CONTINUOUS
 10
180.000021
 20
97.999985
 30
0.0
 11
180.000021
 21
115.0
 31
0.0
  0
ARC
  5
236B6
  8
DANMEN
  6
CONTINUOUS
 10
188.500015
 20
105.999908
 30
0.0
 40
1.5
 50
359.999964
 51
90.000001
  0
LINE
  5
236B7
  8
DANMEN
  6
CONTINUOUS
 10
184.500009
 20
97.999985
 30
0.0
 11
179.500006
 21
97.999985
 31
0.0
  0
LINE
  5
236BC
  8
DANMEN
  6
CONTINUOUS
 10
189.0
 20
102.0
 30
0.0
 11
189.849991
 21
102.0
 31
0.0
  0
ARC
  5
236BD
  8
DANMEN
  6
CONTINUOUS
 10
189.5
 20
104.5
 30
0.0
 40
0.5
 50
89.999982
 51
180.000019
  0
LINE
  5
236BF
  8
DANMEN
  6
CONTINUOUS
 10
189.5
 20
105.0
 30
0.0
 11
191.299988
 21
105.0
 31
0.0
  0
LINE
  5
236C0
  8
DANMEN
  6
CONTINUOUS
 10
189.0
 20
104.5
 30
0.0
 11
189.0
 21
102.0
 31
0.0
  0
ARC
  5
236C1
  8
DANMEN
  6
CONTINUOUS
 10
191.299988
 20
104.5
 30
0.0
 40
0.5
 50
0.0
 51
89.999982
  0
ARC
  5
236C3
  8
DANMEN
  6
CONTINUOUS
 10
186.000009
 20
108.999908
 30
0.0
 40
1.5
 50
180.0
 51
269.999982
  0
ARC
  5
236C4
  8
DANMEN
  6
CONTINUOUS
 10
178.000006
 20
108.999908
 30
0.0
 40
1.5
 50
269.999982
 51
359.999964
  0
LINE
  5
236C5
  8
DANMEN
  6
CONTINUOUS
 10
188.500015
 20
107.499908
 30
0.0
 11
186.000009
 21
107.499908
 31
0.0
  0
LINE
  5
236C6
  8
DANMEN
  6
CONTINUOUS
 10
60.90448
 20
168.610198
 30
0.0
 11
63.404487
 21
168.610198
 31
0.0
  0
LINE
  5
236C7
  8
DANMEN
  6
CONTINUOUS
 10
63.404502
 20
233.610015
 30
0.0
 11
60.904511
 21
233.610015
 31
0.0
  0
LINE
  5
236C8
  8
DANMEN
  6
CONTINUOUS
 10
57.904496
 20
183.310104
 30
0.0
 11
64.104495
 21
183.310104
 31
0.0
  0
LINE
  5
236C9
  8
DANMEN
  6
CONTINUOUS
 10
57.904496
 20
214.610107
 30
0.0
 11
64.104495
 21
214.610107
 31
0.0
  0
LINE
  5
236CA
  8
DANMEN
  6
CONTINUOUS
 10
57.904496
 20
182.110107
 30
0.0
 11
64.304495
 21
182.110107
 31
0.0
  0
LINE
  5
236CB
  8
DANMEN
  6
CONTINUOUS
 10
57.904496
 20
213.410107
 30
0.0
 11
67.238201
 21
213.410107
 31
0.0
  0
LINE
  5
236CC
  8
DANMEN
  6
CONTINUOUS
 10
48.404496
 20
241.110107
 30
0.0
 11
48.404496
 21
161.110107
 31
0.0
  0
LINE
  5
236CD
  8
DANMEN
  6
CONTINUOUS
 10
55.404496
 20
241.110107
 30
0.0
 11
55.404496
 21
161.110107
 31
0.0
  0
LINE
  5
236CE
  8
DANMEN
  6
CONTINUOUS
 10
57.904496
 20
183.310104
 30
0.0
 11
57.904496
 21
213.41011
 31
0.0
  0
LINE
  5
236CF
  8
DANMEN
  6
CONTINUOUS
 10
56.704496
 20
171.610107
 30
0.0
 11
56.704496
 21
230.610107
 31
0.0
  0
LINE
  5
236D0
  8
DANMEN
  6
CONTINUOUS
 10
59.404511
 20
171.110107
 30
0.0
 11
59.404511
 21
161.110107
 31
0.0
  0
LINE
  5
236D1
  8
DANMEN
  6
CONTINUOUS
 10
57.904496
 20
172.310104
 30
0.0
 11
57.904496
 21
182.110107
 31
0.0
  0
ARC
  5
236D2
  8
DANMEN
  6
CONTINUOUS
 10
60.90448
 20
170.110198
 30
0.0
 40
1.5
 50
179.999964
 51
270.000001
  0
LINE
  5
236D3
  8
DANMEN
  6
CONTINUOUS
 10
57.204496
 20
171.110107
 30
0.0
 11
59.904496
 21
171.110107
 31
0.0
  0
ARC
  5
236D4
  8
DANMEN
  6
CONTINUOUS
 10
57.204496
 20
171.610107
 30
0.0
 40
0.5
 50
179.999964
 51
270.000001
  0
ARC
  5
236D8
  8
DANMEN
  6
CONTINUOUS
 10
60.252016
 20
173.610107
 30
0.0
 40
0.5
 50
89.999982
 51
173.6598
  0
LINE
  5
236DA
  8
DANMEN
  6
CONTINUOUS
 10
59.755074
 20
173.665324
 30
0.0
 11
59.604495
 21
172.310107
 31
0.0
  0
LINE
  5
236DB
  8
DANMEN
  6
CONTINUOUS
 10
57.904496
 20
172.310104
 30
0.0
 11
59.604495
 21
172.310104
 31
0.0
  0
LINE
  5
236DD
  8
DANMEN
  6
CONTINUOUS
 10
60.252016
 20
174.110107
 30
0.0
 11
60.404496
 21
174.110107
 31
0.0
  0
ARC
  5
236DE
  8
DANMEN
  6
CONTINUOUS
 10
59.904496
 20
171.610107
 30
0.0
 40
0.5
 50
270.000018
 51
0.0
  0
LINE
  5
236E0
  8
DANMEN
  6
CONTINUOUS
 10
60.404496
 20
171.610107
 30
0.0
 11
60.404496
 21
174.110107
 31
0.0
  0
LINE
  5
236E3
  8
DANMEN
  6
CONTINUOUS
 10
59.404511
 20
231.110092
 30
0.0
 11
59.404511
 21
241.110107
 31
0.0
  0
LINE
  5
236E4
  8
DANMEN
  6
CONTINUOUS
 10
57.904496
 20
214.610107
 30
0.0
 11
57.904496
 21
229.910107
 31
0.0
  0
ARC
  5
236E7
  8
DANMEN
  6
CONTINUOUS
 10
60.252016
 20
228.610107
 30
0.0
 40
0.5
 50
186.3402
 51
270.000018
  0
LINE
  5
236E8
  8
DANMEN
  6
CONTINUOUS
 10
60.404496
 20
230.610107
 30
0.0
 11
60.404496
 21
228.110107
 31
0.0
  0
LINE
  5
236EC
  8
DANMEN
  6
CONTINUOUS
 10
60.252016
 20
228.110107
 30
0.0
 11
60.404496
 21
228.110107
 31
0.0
  0
LINE
  5
236ED
  8
DANMEN
  6
CONTINUOUS
 10
57.204496
 20
231.110107
 30
0.0
 11
59.904496
 21
231.110107
 31
0.0
  0
ARC
  5
236EE
  8
DANMEN
  6
CONTINUOUS
 10
57.204496
 20
230.610107
 30
0.0
 40
0.5
 50
89.999982
 51
180.000019
  0
ARC
  5
236F0
  8
DANMEN
  6
CONTINUOUS
 10
60.904511
 20
232.110015
 30
0.0
 40
1.5
 50
90.000018
 51
180.0
  0
LINE
  5
236F3
  8
DANMEN
  6
CONTINUOUS
 10
59.604495
 20
229.910107
 30
0.0
 11
59.755075
 21
228.554891
 31
0.0
  0
LINE
  5
236F5
  8
DANMEN
  6
CONTINUOUS
 10
57.904496
 20
229.910107
 30
0.0
 11
59.604495
 21
229.910107
 31
0.0
  0
ARC
  5
236F6
  8
DANMEN
  6
CONTINUOUS
 10
59.904496
 20
230.610107
 30
0.0
 40
0.5
 50
0.0
 51
89.999982
  0
LINE
  5
236F8
  8
DANMEN
  6
CONTINUOUS
 10
170.0
 20
241.354646
 30
0.0
 11
170.0
 21
161.354646
 31
0.0
  0
LINE
  5
236F9
  8
DANMEN
  6
CONTINUOUS
 10
163.0
 20
241.354646
 30
0.0
 11
163.0
 21
161.354646
 31
0.0
  0
LINE
  5
236FA
  8
DANMEN
  6
DASHED
 10
84.904496
 20
241.110107
 30
0.0
 11
84.904496
 21
161.110107
 31
0.0
  0
LINE
  5
236FB
  8
DANMEN
  6
CONTINUOUS
 10
81.904496
 20
241.110107
 30
0.0
 11
81.904496
 21
161.110107
 31
0.0
  0
LINE
  5
236FC
  8
DANMEN
  6
CONTINUOUS
 10
87.404496
 20
241.110107
 30
0.0
 11
87.404496
 21
161.110107
 31
0.0
  0
LINE
  5
236FD
  8
DANMEN
  6
CONTINUOUS
 10
79.404496
 20
241.110107
 30
0.0
 11
79.404496
 21
161.110107
 31
0.0
  0
LINE
  5
236FE
  8
DANMEN
  6
CONTINUOUS
 10
118.404496
 20
241.110107
 30
0.0
 11
118.404496
 21
161.110107
 31
0.0
  0
LINE
  5
236FF
  8
DANMEN
  6
CONTINUOUS
 10
106.204483
 20
198.610104
 30
0.0
 11
106.204483
 21
217.610107
 31
0.0
  0
LINE
  5
23700
  8
DANMEN
  6
CONTINUOUS
 10
90.904496
 20
217.610107
 30
0.0
 11
90.904496
 21
198.610104
 31
0.0
  0
LINE
  5
23701
  8
DANMEN
  6
CONTINUOUS
 10
87.404496
 20
171.610107
 30
0.0
 11
87.404496
 21
230.610107
 31
0.0
  0
LINE
  5
23702
  8
DANMEN
  6
CONTINUOUS
 10
112.204483
 20
171.610107
 30
0.0
 11
112.204483
 21
230.610107
 31
0.0
  0
LINE
  5
23703
  8
DANMEN
  6
CONTINUOUS
 10
191.799988
 20
171.854646
 30
0.0
 11
191.799988
 21
230.854646
 31
0.0
  0
LINE
  5
23704
  8
DANMEN
  6
CONTINUOUS
 10
170.5
 20
171.854646
 30
0.0
 11
170.5
 21
230.854646
 31
0.0
  0
LINE
  5
23705
  8
DANMEN
  6
CONTINUOUS
 10
172.45
 20
213.654649
 30
0.0
 11
172.45
 21
184.304643
 31
0.0
  0
LINE
  5
23706
  8
DANMEN
  6
CONTINUOUS
 10
189.849991
 20
218.404649
 30
0.0
 11
189.849991
 21
189.304643
 31
0.0
  0
LINE
  5
23707
  8
DANMEN
  6
CONTINUOUS
 10
76.004484
 20
188.310104
 30
0.0
 11
76.004484
 21
218.910107
 31
0.0
  0
LINE
  5
23708
  8
DANMEN
  6
CONTINUOUS
 10
77.204483
 20
171.610107
 30
0.0
 11
77.204483
 21
230.610107
 31
0.0
  0
LINE
  5
23709
  8
DANMEN
  6
CONTINUOUS
 10
75.40448
 20
171.110107
 30
0.0
 11
75.40448
 21
161.110107
 31
0.0
  0
LINE
  5
2370A
  8
DANMEN
  6
CONTINUOUS
 10
69.404474
 20
178.110122
 30
0.0
 11
69.404474
 21
161.110107
 31
0.0
  0
LINE
  5
2370B
  8
DANMEN
  6
CONTINUOUS
 10
65.404487
 20
178.110107
 30
0.0
 11
65.404487
 21
161.110107
 31
0.0
  0
LINE
  5
2370C
  8
DANMEN
  6
CONTINUOUS
 10
69.904474
 20
178.110122
 30
0.0
 11
69.904474
 21
161.110107
 31
0.0
  0
LINE
  5
2370D
  8
DANMEN
  6
CONTINUOUS
 10
64.904487
 20
178.110107
 30
0.0
 11
64.904487
 21
161.110107
 31
0.0
  0
LINE
  5
2370E
  8
DANMEN
  6
CONTINUOUS
 10
99.404474
 20
178.110122
 30
0.0
 11
99.404474
 21
161.110107
 31
0.0
  0
LINE
  5
2370F
  8
DANMEN
  6
CONTINUOUS
 10
95.404487
 20
178.110107
 30
0.0
 11
95.404487
 21
161.110107
 31
0.0
  0
LINE
  5
23710
  8
DANMEN
  6
CONTINUOUS
 10
99.904474
 20
178.110122
 30
0.0
 11
99.904474
 21
161.110107
 31
0.0
  0
LINE
  5
23711
  8
DANMEN
  6
CONTINUOUS
 10
94.904487
 20
178.110107
 30
0.0
 11
94.904487
 21
161.110107
 31
0.0
  0
LINE
  5
23712
  8
DANMEN
  6
CONTINUOUS
 10
89.404511
 20
171.110107
 30
0.0
 11
89.404511
 21
161.110107
 31
0.0
  0
LINE
  5
23713
  8
DANMEN
  6
CONTINUOUS
 10
105.40448
 20
171.110122
 30
0.0
 11
105.40448
 21
161.110107
 31
0.0
  0
LINE
  5
23714
  8
DANMEN
  6
CONTINUOUS
 10
109.404496
 20
171.110107
 30
0.0
 11
109.404496
 21
161.110107
 31
0.0
  0
ARC
  5
23715
  8
DANMEN
  6
CONTINUOUS
 10
93.404502
 20
167.110183
 30
0.0
 40
1.5
 50
0.000036
 51
90.000018
  0
LINE
  5
23716
  8
DANMEN
  6
CONTINUOUS
 10
90.904496
 20
196.110107
 30
0.0
 11
106.204496
 21
196.110107
 31
0.0
  0
LINE
  5
23717
  8
DANMEN
  6
CONTINUOUS
 10
90.904496
 20
198.610104
 30
0.0
 11
106.204483
 21
198.610104
 31
0.0
  0
LINE
  5
23718
  8
DANMEN
  6
CONTINUOUS
 10
90.904496
 20
179.452246
 30
0.0
 11
90.904496
 21
196.110107
 31
0.0
  0
ARC
  5
23719
  8
DANMEN
  6
CONTINUOUS
 10
65.104495
 20
187.310104
 30
0.0
 40
1.0
 50
89.999982
 51
180.000019
  0
LINE
  5
2371A
  8
DANMEN
  6
CONTINUOUS
 10
76.004484
 20
172.810107
 30
0.0
 11
76.004484
 21
187.110107
 31
0.0
  0
ARC
  5
2371B
  8
DANMEN
  6
CONTINUOUS
 10
71.40449
 20
167.110198
 30
0.0
 40
1.5
 50
89.999982
 51
179.999964
  0
ARC
  5
2371C
  8
DANMEN
  6
CONTINUOUS
 10
63.404487
 20
167.110198
 30
0.0
 40
1.5
 50
0.0
 51
89.999982
  0
ARC
  5
2371F
  8
DANMEN
  6
CONTINUOUS
 10
73.90448
 20
170.110198
 30
0.0
 40
1.5
 50
270.000018
 51
0.0
  0
LINE
  5
23720
  8
DANMEN
  6
CONTINUOUS
 10
71.40449
 20
168.610198
 30
0.0
 11
73.90448
 21
168.610198
 31
0.0
  0
LINE
  5
23723
  8
DANMEN
  6
CONTINUOUS
 10
74.404496
 20
174.110107
 30
0.0
 11
74.575537
 21
174.110107
 31
0.0
  0
ARC
  5
23724
  8
DANMEN
  6
CONTINUOUS
 10
74.904496
 20
171.610107
 30
0.0
 40
0.5
 50
179.999964
 51
270.000001
  0
LINE
  5
23726
  8
DANMEN
  6
CONTINUOUS
 10
74.904496
 20
171.110107
 30
0.0
 11
76.704483
 21
171.110107
 31
0.0
  0
LINE
  5
23727
  8
DANMEN
  6
CONTINUOUS
 10
74.404496
 20
171.610107
 30
0.0
 11
74.404496
 21
174.110107
 31
0.0
  0
ARC
  5
23728
  8
DANMEN
  6
CONTINUOUS
 10
76.704483
 20
171.610107
 30
0.0
 40
0.5
 50
270.000018
 51
0.0
  0
LINE
  5
2372A
  8
DANMEN
  6
CONTINUOUS
 10
75.204496
 20
172.810107
 30
0.0
 11
76.004484
 21
172.810107
 31
0.0
  0
LINE
  5
2372B
  8
DANMEN
  6
CONTINUOUS
 10
75.204496
 20
172.810107
 30
0.0
 11
75.069723
 21
173.686135
 31
0.0
  0
ARC
  5
2372C
  8
DANMEN
  6
CONTINUOUS
 10
74.575537
 20
173.610107
 30
0.0
 40
0.5
 50
8.746105
 51
90.0
  0
LINE
  5
23730
  8
DANMEN
  6
CONTINUOUS
 10
64.904487
 20
178.110122
 30
0.0
 11
69.90449
 21
178.110122
 31
0.0
  0
LINE
  5
23731
  8
DANMEN
  6
CONTINUOUS
 10
65.304495
 20
187.110107
 30
0.0
 11
76.004484
 21
187.110107
 31
0.0
  0
ARC
  5
23732
  8
DANMEN
  6
CONTINUOUS
 10
64.304495
 20
183.110107
 30
0.0
 40
1.0
 50
270.000018
 51
0.0
  0
LINE
  5
23736
  8
DANMEN
  6
CONTINUOUS
 10
65.304495
 20
183.110107
 30
0.0
 11
65.304495
 21
187.110107
 31
0.0
  0
LINE
  5
23737
  8
DANMEN
  6
CONTINUOUS
 10
64.104495
 20
183.310104
 30
0.0
 11
64.104495
 21
187.310104
 31
0.0
  0
LINE
  5
23739
  8
DANMEN
  6
CONTINUOUS
 10
89.354495
 20
174.110107
 30
0.0
 11
89.354495
 21
177.110107
 31
0.0
  0
ARC
  5
2373A
  8
DANMEN
  6
CONTINUOUS
 10
90.904511
 20
170.110183
 30
0.0
 40
1.5
 50
180.0
 51
269.999982
  0
LINE
  5
2373B
  8
DANMEN
  6
CONTINUOUS
 10
93.404502
 20
168.610183
 30
0.0
 11
90.904511
 21
168.610183
 31
0.0
  0
LINE
  5
23740
  8
DANMEN
  6
CONTINUOUS
 10
87.904496
 20
171.110107
 30
0.0
 11
89.404496
 21
171.110107
 31
0.0
  0
ARC
  5
23741
  8
DANMEN
  6
CONTINUOUS
 10
87.904496
 20
171.610107
 30
0.0
 40
0.5
 50
179.999964
 51
270.000001
  0
LINE
  5
23742
  8
DANMEN
  6
CONTINUOUS
 10
89.904496
 20
171.610107
 30
0.0
 11
89.904496
 21
174.110107
 31
0.0
  0
ARC
  5
23743
  8
DANMEN
  6
CONTINUOUS
 10
89.404496
 20
171.610107
 30
0.0
 40
0.5
 50
270.000018
 51
0.0
  0
LINE
  5
23744
  8
DANMEN
  6
CONTINUOUS
 10
89.354495
 20
174.110107
 30
0.0
 11
89.904496
 21
174.110107
 31
0.0
  0
LINE
  5
23745
  8
DANMEN
  6
CONTINUOUS
 10
90.694911
 20
178.839675
 30
0.0
 11
89.354495
 21
177.110107
 31
0.0
  0
ARC
  5
23747
  8
DANMEN
  6
CONTINUOUS
 10
89.904496
 20
179.452246
 30
0.0
 40
1.0
 50
322.224312
 51
0.0
  0
LINE
  5
23748
  8
DANMEN
  6
CONTINUOUS
 10
65.104495
 20
188.310104
 30
0.0
 11
76.004484
 21
188.310104
 31
0.0
  0
LINE
  5
2374F
  8
DANMEN
  6
CONTINUOUS
 10
106.204496
 20
174.110107
 30
0.0
 11
106.204496
 21
196.110107
 31
0.0
  0
LINE
  5
23750
  8
DANMEN
  6
CONTINUOUS
 10
105.404496
 20
171.110107
 30
0.0
 11
111.704483
 21
171.110107
 31
0.0
  0
LINE
  5
23751
  8
DANMEN
  6
CONTINUOUS
 10
103.904511
 20
168.610183
 30
0.0
 11
101.404505
 21
168.610183
 31
0.0
  0
ARC
  5
23752
  8
DANMEN
  6
CONTINUOUS
 10
101.404505
 20
167.110183
 30
0.0
 40
1.5
 50
90.000018
 51
180.0
  0
ARC
  5
23754
  8
DANMEN
  6
CONTINUOUS
 10
103.904511
 20
170.110183
 30
0.0
 40
1.5
 50
269.999999
 51
0.000036
  0
LINE
  5
23758
  8
DANMEN
  6
CONTINUOUS
 10
104.904496
 20
171.610107
 30
0.0
 11
104.904496
 21
174.110107
 31
0.0
  0
ARC
  5
23759
  8
DANMEN
  6
CONTINUOUS
 10
105.404496
 20
171.610107
 30
0.0
 40
0.5
 50
179.999964
 51
270.000001
  0
LINE
  5
2375A
  8
DANMEN
  6
CONTINUOUS
 10
104.904496
 20
174.110107
 30
0.0
 11
106.204496
 21
174.110107
 31
0.0
  0
LINE
  5
2375B
  8
DANMEN
  6
CONTINUOUS
 10
94.904487
 20
178.110122
 30
0.0
 11
99.90449
 21
178.110122
 31
0.0
  0
ARC
  5
2375D
  8
DANMEN
  6
CONTINUOUS
 10
111.704483
 20
171.610107
 30
0.0
 40
0.5
 50
270.000018
 51
0.0
  0
LINE
  5
23760
  8
DANMEN
  6
CONTINUOUS
 10
179.499991
 20
178.354646
 30
0.0
 11
179.499991
 21
161.354646
 31
0.0
  0
LINE
  5
23761
  8
DANMEN
  6
CONTINUOUS
 10
184.499979
 20
178.354661
 30
0.0
 11
184.499979
 21
161.354646
 31
0.0
  0
LINE
  5
23762
  8
DANMEN
  6
CONTINUOUS
 10
179.999991
 20
178.354646
 30
0.0
 11
179.999991
 21
161.354646
 31
0.0
  0
LINE
  5
23763
  8
DANMEN
  6
CONTINUOUS
 10
183.999979
 20
178.354661
 30
0.0
 11
183.999979
 21
161.354646
 31
0.0
  0
LINE
  5
23764
  8
DANMEN
  6
CONTINUOUS
 10
189.999985
 20
171.354646
 30
0.0
 11
189.999985
 21
161.354646
 31
0.0
  0
LINE
  5
23765
  8
DANMEN
  6
CONTINUOUS
 10
174.000015
 20
171.354646
 30
0.0
 11
174.000015
 21
161.354646
 31
0.0
  0
LINE
  5
23766
  8
DANMEN
  6
CONTINUOUS
 10
178.7
 20
184.304643
 30
0.0
 11
178.7
 21
188.304643
 31
0.0
  0
LINE
  5
23767
  8
DANMEN
  6
CONTINUOUS
 10
175.499985
 20
168.854737
 30
0.0
 11
177.999991
 21
168.854737
 31
0.0
  0
LINE
  5
23768
  8
DANMEN
  6
CONTINUOUS
 10
172.45
 20
184.304643
 30
0.0
 11
178.7
 21
184.304643
 31
0.0
  0
LINE
  5
23769
  8
DANMEN
  6
CONTINUOUS
 10
172.45
 20
182.354646
 30
0.0
 11
179.65
 21
182.354646
 31
0.0
  0
LINE
  5
2376A
  8
DANMEN
  6
CONTINUOUS
 10
172.45
 20
173.304643
 30
0.0
 11
172.45
 21
182.354646
 31
0.0
  0
ARC
  5
2376B
  8
DANMEN
  6
CONTINUOUS
 10
175.499985
 20
170.354737
 30
0.0
 40
1.5
 50
179.999964
 51
270.000001
  0
LINE
  5
2376C
  8
DANMEN
  6
CONTINUOUS
 10
171.0
 20
171.354646
 30
0.0
 11
174.5
 21
171.354646
 31
0.0
  0
ARC
  5
2376E
  8
DANMEN
  6
CONTINUOUS
 10
171.0
 20
171.854646
 30
0.0
 40
0.5
 50
179.999964
 51
270.000001
  0
ARC
  5
23771
  8
DANMEN
  6
CONTINUOUS
 10
174.813751
 20
173.854646
 30
0.0
 40
0.5
 50
90.000037
 51
169.215696
  0
LINE
  5
23773
  8
DANMEN
  6
CONTINUOUS
 10
174.322583
 20
173.948202
 30
0.0
 11
174.200002
 21
173.304652
 31
0.0
  0
LINE
  5
23775
  8
DANMEN
  6
CONTINUOUS
 10
172.45
 20
173.304643
 30
0.0
 11
174.2
 21
173.304643
 31
0.0
  0
LINE
  5
23777
  8
DANMEN
  6
CONTINUOUS
 10
174.813751
 20
174.354646
 30
0.0
 11
175.0
 21
174.354646
 31
0.0
  0
ARC
  5
23778
  8
DANMEN
  6
CONTINUOUS
 10
174.5
 20
171.854646
 30
0.0
 40
0.5
 50
270.000018
 51
0.0
  0
LINE
  5
2377A
  8
DANMEN
  6
CONTINUOUS
 10
175.0
 20
171.854646
 30
0.0
 11
175.0
 21
174.354646
 31
0.0
  0
LINE
  5
2377D
  8
DANMEN
  6
CONTINUOUS
 10
189.849991
 20
174.354646
 30
0.0
 11
189.849991
 21
187.354646
 31
0.0
  0
ARC
  5
2377E
  8
DANMEN
  6
CONTINUOUS
 10
185.999994
 20
167.354737
 30
0.0
 40
1.5
 50
89.999982
 51
179.999964
  0
ARC
  5
2377F
  8
DANMEN
  6
CONTINUOUS
 10
177.999991
 20
167.354737
 30
0.0
 40
1.5
 50
0.0
 51
89.999982
  0
ARC
  5
23781
  8
DANMEN
  6
CONTINUOUS
 10
188.499985
 20
170.354737
 30
0.0
 40
1.5
 50
270.000018
 51
0.0
  0
LINE
  5
23782
  8
DANMEN
  6
CONTINUOUS
 10
185.999994
 20
168.854737
 30
0.0
 11
188.499985
 21
168.854737
 31
0.0
  0
LINE
  5
23785
  8
DANMEN
  6
CONTINUOUS
 10
189.0
 20
174.354646
 30
0.0
 11
189.849991
 21
174.354646
 31
0.0
  0
ARC
  5
23786
  8
DANMEN
  6
CONTINUOUS
 10
189.5
 20
171.854646
 30
0.0
 40
0.5
 50
179.999964
 51
270.000001
  0
LINE
  5
23788
  8
DANMEN
  6
CONTINUOUS
 10
189.5
 20
171.354646
 30
0.0
 11
191.299988
 21
171.354646
 31
0.0
  0
LINE
  5
23789
  8
DANMEN
  6
CONTINUOUS
 10
189.0
 20
171.854646
 30
0.0
 11
189.0
 21
174.354646
 31
0.0
  0
ARC
  5
2378A
  8
DANMEN
  6
CONTINUOUS
 10
191.299988
 20
171.854646
 30
0.0
 40
0.5
 50
270.000018
 51
0.0
  0
LINE
  5
2378C
  8
DANMEN
  6
CONTINUOUS
 10
180.65
 20
187.354646
 30
0.0
 11
189.849991
 21
187.354646
 31
0.0
  0
LINE
  5
2378D
  8
DANMEN
  6
CONTINUOUS
 10
179.499991
 20
178.354661
 30
0.0
 11
184.499994
 21
178.354661
 31
0.0
  0
ARC
  5
2378E
  8
DANMEN
  6
CONTINUOUS
 10
179.65
 20
183.354646
 30
0.0
 40
1.0
 50
270.000018
 51
0.0
  0
LINE
  5
23792
  8
DANMEN
  6
CONTINUOUS
 10
180.65
 20
183.354646
 30
0.0
 11
180.65
 21
187.354646
 31
0.0
  0
LINE
  5
23794
  8
DANMEN
  6
CONTINUOUS
 10
179.7
 20
189.304643
 30
0.0
 11
189.849991
 21
189.304643
 31
0.0
  0
ARC
  5
23795
  8
DANMEN
  6
CONTINUOUS
 10
179.7
 20
188.304643
 30
0.0
 40
1.0
 50
89.999982
 51
180.000019
  0
ARC
  5
23798
  8
DANMEN
  6
CONTINUOUS
 10
93.404502
 20
235.11
 30
0.0
 40
1.5
 50
269.999982
 51
359.999964
  0
LINE
  5
23799
  8
DANMEN
  6
CONTINUOUS
 10
90.904496
 20
220.110107
 30
0.0
 11
106.204496
 21
220.110107
 31
0.0
  0
ARC
  5
2379A
  8
DANMEN
  6
CONTINUOUS
 10
94.104496
 20
216.610107
 30
0.0
 40
1.0
 50
0.0
 51
90.0
  0
LINE
  5
2379B
  8
DANMEN
  6
CONTINUOUS
 10
69.904505
 20
224.110107
 30
0.0
 11
69.904505
 21
241.110107
 31
0.0
  0
LINE
  5
2379C
  8
DANMEN
  6
CONTINUOUS
 10
64.904517
 20
224.110092
 30
0.0
 11
64.904517
 21
241.110107
 31
0.0
  0
LINE
  5
2379D
  8
DANMEN
  6
CONTINUOUS
 10
69.404505
 20
224.110107
 30
0.0
 11
69.404505
 21
241.110107
 31
0.0
  0
LINE
  5
2379E
  8
DANMEN
  6
CONTINUOUS
 10
65.404517
 20
224.110092
 30
0.0
 11
65.404517
 21
241.110107
 31
0.0
  0
LINE
  5
2379F
  8
DANMEN
  6
CONTINUOUS
 10
75.40448
 20
231.110107
 30
0.0
 11
75.40448
 21
241.110107
 31
0.0
  0
LINE
  5
237A0
  8
DANMEN
  6
CONTINUOUS
 10
89.404511
 20
231.110091
 30
0.0
 11
89.404511
 21
241.110107
 31
0.0
  0
ARC
  5
237A1
  8
DANMEN
  6
CONTINUOUS
 10
71.404505
 20
235.110015
 30
0.0
 40
1.5
 50
180.0
 51
269.999982
  0
ARC
  5
237A2
  8
DANMEN
  6
CONTINUOUS
 10
63.404502
 20
235.110015
 30
0.0
 40
1.5
 50
269.999982
 51
359.999964
  0
LINE
  5
237A3
  8
DANMEN
  6
CONTINUOUS
 10
76.004484
 20
220.110107
 30
0.0
 11
76.004484
 21
229.410107
 31
0.0
  0
LINE
  5
237A4
  8
DANMEN
  6
CONTINUOUS
 10
66.604495
 20
220.110107
 30
0.0
 11
76.004484
 21
220.110107
 31
0.0
  0
ARC
  5
237A5
  8
DANMEN
  6
CONTINUOUS
 10
69.854496
 20
216.776402
 30
0.0
 40
0.75
 50
180.0
 51
0.0
  0
LINE
  5
237A6
  8
DANMEN
  6
CONTINUOUS
 10
64.104495
 20
217.610107
 30
0.0
 11
64.104495
 21
214.610107
 31
0.0
  0
LINE
  5
237A7
  8
DANMEN
  6
CONTINUOUS
 10
65.604496
 20
215.910107
 30
0.0
 11
65.604496
 21
217.410107
 31
0.0
  0
ARC
  5
237A8
  8
DANMEN
  6
CONTINUOUS
 10
66.604496
 20
215.910107
 30
0.0
 40
1.0
 50
180.0
 51
270.0
  0
ARC
  5
237AB
  8
DANMEN
  6
CONTINUOUS
 10
67.238201
 20
214.160107
 30
0.0
 40
0.75
 50
270.0
 51
90.0
  0
LINE
  5
237AC
  8
DANMEN
  6
CONTINUOUS
 10
66.604496
 20
214.910107
 30
0.0
 11
67.238201
 21
214.910107
 31
0.0
  0
ARC
  5
237AF
  8
DANMEN
  6
CONTINUOUS
 10
66.604495
 20
217.610107
 30
0.0
 40
2.5
 50
89.999982
 51
180.000019
  0
ARC
  5
237B0
  8
DANMEN
  6
CONTINUOUS
 10
66.604496
 20
217.410107
 30
0.0
 40
1.0
 50
90.0
 51
180.0
  0
ARC
  5
237B2
  8
DANMEN
  6
CONTINUOUS
 10
68.104496
 20
217.410107
 30
0.0
 40
1.0
 50
0.0
 51
90.0
  0
LINE
  5
237B3
  8
DANMEN
  6
CONTINUOUS
 10
69.104496
 20
216.776402
 30
0.0
 11
69.104496
 21
217.410107
 31
0.0
  0
LINE
  5
237B4
  8
DANMEN
  6
CONTINUOUS
 10
66.604496
 20
218.410107
 30
0.0
 11
68.104496
 21
218.410107
 31
0.0
  0
LINE
  5
237B5
  8
DANMEN
  6
CONTINUOUS
 10
71.604495
 20
218.910107
 30
0.0
 11
76.004484
 21
218.910107
 31
0.0
  0
LINE
  5
237B6
  8
DANMEN
  6
CONTINUOUS
 10
70.604496
 20
216.776402
 30
0.0
 11
70.604496
 21
217.910107
 31
0.0
  0
ARC
  5
237B7
  8
DANMEN
  6
CONTINUOUS
 10
71.604496
 20
217.910107
 30
0.0
 40
1.0
 50
90.0
 51
180.0
  0
LINE
  5
237BB
  8
DANMEN
  6
CONTINUOUS
 10
69.904505
 20
224.110092
 30
0.0
 11
64.904502
 21
224.110092
 31
0.0
  0
LINE
  5
237BE
  8
DANMEN
  6
CONTINUOUS
 10
74.404496
 20
230.610107
 30
0.0
 11
74.404496
 21
228.110107
 31
0.0
  0
ARC
  5
237BF
  8
DANMEN
  6
CONTINUOUS
 10
74.575537
 20
228.610107
 30
0.0
 40
0.5
 50
270.0
 51
351.25386
  0
LINE
  5
237C1
  8
DANMEN
  6
CONTINUOUS
 10
74.404496
 20
228.110107
 30
0.0
 11
74.575537
 21
228.110107
 31
0.0
  0
ARC
  5
237C4
  8
DANMEN
  6
CONTINUOUS
 10
73.904511
 20
232.110015
 30
0.0
 40
1.5
 50
359.999964
 51
90.000001
  0
LINE
  5
237C5
  8
DANMEN
  6
CONTINUOUS
 10
73.904511
 20
233.610015
 30
0.0
 11
71.404505
 21
233.610015
 31
0.0
  0
ARC
  5
237C6
  8
DANMEN
  6
CONTINUOUS
 10
74.904496
 20
230.610107
 30
0.0
 40
0.5
 50
89.999982
 51
180.000019
  0
LINE
  5
237C8
  8
DANMEN
  6
CONTINUOUS
 10
74.904496
 20
231.110107
 30
0.0
 11
76.704483
 21
231.110107
 31
0.0
  0
ARC
  5
237C9
  8
DANMEN
  6
CONTINUOUS
 10
76.704483
 20
230.610107
 30
0.0
 40
0.5
 50
0.0
 51
89.999982
  0
LINE
  5
237CB
  8
DANMEN
  6
CONTINUOUS
 10
75.204496
 20
229.410107
 30
0.0
 11
76.004484
 21
229.410107
 31
0.0
  0
LINE
  5
237CC
  8
DANMEN
  6
CONTINUOUS
 10
75.204496
 20
229.410107
 30
0.0
 11
75.069722
 21
228.534078
 31
0.0
  0
LINE
  5
237CF
  8
DANMEN
  6
CONTINUOUS
 10
90.904496
 20
222.767967
 30
0.0
 11
90.904496
 21
220.110107
 31
0.0
  0
LINE
  5
237D2
  8
DANMEN
  6
CONTINUOUS
 10
90.904496
 20
217.610107
 30
0.0
 11
94.104496
 21
217.610107
 31
0.0
  0
LINE
  5
237D5
  8
DANMEN
  6
CONTINUOUS
 10
89.904496
 20
230.610107
 30
0.0
 11
89.904496
 21
228.110107
 31
0.0
  0
LINE
  5
237D6
  8
DANMEN
  6
CONTINUOUS
 10
90.694911
 20
223.380539
 30
0.0
 11
89.354495
 21
225.110107
 31
0.0
  0
LINE
  5
237DB
  8
DANMEN
  6
CONTINUOUS
 10
89.354495
 20
228.110107
 30
0.0
 11
89.354495
 21
225.110107
 31
0.0
  0
LINE
  5
237DC
  8
DANMEN
  6
CONTINUOUS
 10
89.354495
 20
228.110107
 30
0.0
 11
89.904496
 21
228.110107
 31
0.0
  0
ARC
  5
237DD
  8
DANMEN
  6
CONTINUOUS
 10
89.904496
 20
222.767967
 30
0.0
 40
1.0
 50
0.0
 51
37.775688
  0
ARC
  5
237DE
  8
DANMEN
  6
CONTINUOUS
 10
90.904511
 20
232.11
 30
0.0
 40
1.5
 50
90.000018
 51
180.0
  0
LINE
  5
237E1
  8
DANMEN
  6
CONTINUOUS
 10
87.904496
 20
231.110107
 30
0.0
 11
89.404496
 21
231.110107
 31
0.0
  0
ARC
  5
237E2
  8
DANMEN
  6
CONTINUOUS
 10
87.904496
 20
230.610107
 30
0.0
 40
0.5
 50
89.999982
 51
180.000019
  0
ARC
  5
237E3
  8
DANMEN
  6
CONTINUOUS
 10
89.404496
 20
230.610107
 30
0.0
 40
0.5
 50
0.0
 51
89.999982
  0
LINE
  5
237E4
  8
DANMEN
  6
CONTINUOUS
 10
93.404502
 20
233.61
 30
0.0
 11
90.904511
 21
233.61
 31
0.0
  0
LINE
  5
237E5
  8
DANMEN
  6
CONTINUOUS
 10
95.404517
 20
224.110091
 30
0.0
 11
95.404517
 21
241.110107
 31
0.0
  0
LINE
  5
237E6
  8
DANMEN
  6
CONTINUOUS
 10
99.404505
 20
224.110107
 30
0.0
 11
99.404505
 21
241.110107
 31
0.0
  0
LINE
  5
237E7
  8
DANMEN
  6
CONTINUOUS
 10
94.904517
 20
224.110091
 30
0.0
 11
94.904517
 21
241.110107
 31
0.0
  0
LINE
  5
237E8
  8
DANMEN
  6
CONTINUOUS
 10
99.904505
 20
224.110107
 30
0.0
 11
99.904505
 21
241.110107
 31
0.0
  0
LINE
  5
237E9
  8
DANMEN
  6
CONTINUOUS
 10
105.40448
 20
231.110107
 30
0.0
 11
105.40448
 21
241.110107
 31
0.0
  0
LINE
  5
237EA
  8
DANMEN
  6
CONTINUOUS
 10
109.404496
 20
241.110107
 30
0.0
 11
109.404496
 21
231.110107
 31
0.0
  0
ARC
  5
237EB
  8
DANMEN
  6
CONTINUOUS
 10
101.404505
 20
235.11
 30
0.0
 40
1.5
 50
180.0
 51
269.999982
  0
LINE
  5
237EC
  8
DANMEN
  6
CONTINUOUS
 10
105.404496
 20
231.110107
 30
0.0
 11
111.704483
 21
231.110107
 31
0.0
  0
LINE
  5
237ED
  8
DANMEN
  6
CONTINUOUS
 10
106.204496
 20
220.110107
 30
0.0
 11
106.204496
 21
228.110107
 31
0.0
  0
ARC
  5
237EE
  8
DANMEN
  6
CONTINUOUS
 10
102.704496
 20
216.610107
 30
0.0
 40
1.0
 50
90.0
 51
180.0
  0
LINE
  5
237EF
  8
DANMEN
  6
CONTINUOUS
 10
100.204496
 20
216.164046
 30
0.0
 11
100.204496
 21
217.410107
 31
0.0
  0
LINE
  5
237F0
  8
DANMEN
  6
CONTINUOUS
 10
96.604496
 20
216.164046
 30
0.0
 11
96.604496
 21
217.410107
 31
0.0
  0
ARC
  5
237F2
  8
DANMEN
  6
CONTINUOUS
 10
97.104496
 20
216.079801
 30
0.0
 40
2.0
 50
180.0
 51
231.706523
  0
ARC
  5
237F3
  8
DANMEN
  6
CONTINUOUS
 10
97.104496
 20
215.073175
 30
0.0
 40
0.2
 50
0.0
 51
65.375682
  0
ARC
  5
237F4
  8
DANMEN
  6
CONTINUOUS
 10
97.604496
 20
216.164046
 30
0.0
 40
1.0
 50
180.0
 51
245.375682
  0
LINE
  5
237F5
  8
DANMEN
  6
CONTINUOUS
 10
97.304496
 20
214.810107
 30
0.0
 11
97.304496
 21
215.073175
 31
0.0
  0
LINE
  5
237F6
  8
DANMEN
  6
CONTINUOUS
 10
95.104496
 20
216.079801
 30
0.0
 11
95.104496
 21
216.610107
 31
0.0
  0
LINE
  5
237F8
  8
DANMEN
  6
CONTINUOUS
 10
95.865116
 20
214.510107
 30
0.0
 11
97.004496
 21
214.510107
 31
0.0
  0
ARC
  5
237F9
  8
DANMEN
  6
CONTINUOUS
 10
97.004496
 20
214.810107
 30
0.0
 40
0.3
 50
270.0
 51
0.0
  0
LINE
  5
237FA
  8
DANMEN
  6
CONTINUOUS
 10
99.504496
 20
214.810107
 30
0.0
 11
99.504496
 21
215.073175
 31
0.0
  0
ARC
  5
237FB
  8
DANMEN
  6
CONTINUOUS
 10
99.204496
 20
216.164046
 30
0.0
 40
1.0
 50
294.624318
 51
0.0
  0
ARC
  5
237FC
  8
DANMEN
  6
CONTINUOUS
 10
99.704496
 20
215.073175
 30
0.0
 40
0.2
 50
114.624318
 51
180.0
  0
ARC
  5
237FD
  8
DANMEN
  6
CONTINUOUS
 10
99.704496
 20
216.079801
 30
0.0
 40
2.0
 50
308.293477
 51
0.0
  0
LINE
  5
237FE
  8
DANMEN
  6
CONTINUOUS
 10
101.704496
 20
216.079801
 30
0.0
 11
101.704496
 21
216.610107
 31
0.0
  0
LINE
  5
23800
  8
DANMEN
  6
CONTINUOUS
 10
99.804496
 20
214.510107
 30
0.0
 11
100.943875
 21
214.510107
 31
0.0
  0
ARC
  5
23801
  8
DANMEN
  6
CONTINUOUS
 10
99.804496
 20
214.810107
 30
0.0
 40
0.3
 50
180.0
 51
270.0
  0
LINE
  5
23802
  8
DANMEN
  6
CONTINUOUS
 10
97.604496
 20
218.410107
 30
0.0
 11
99.204496
 21
218.410107
 31
0.0
  0
ARC
  5
23804
  8
DANMEN
  6
CONTINUOUS
 10
97.604496
 20
217.410107
 30
0.0
 40
1.0
 50
90.0
 51
180.0
  0
ARC
  5
23806
  8
DANMEN
  6
CONTINUOUS
 10
99.204496
 20
217.410107
 30
0.0
 40
1.0
 50
0.0
 51
90.0
  0
LINE
  5
2380A
  8
DANMEN
  6
CONTINUOUS
 10
102.704496
 20
217.610107
 30
0.0
 11
106.204483
 21
217.610107
 31
0.0
  0
LINE
  5
2380B
  8
DANMEN
  6
CONTINUOUS
 10
103.904511
 20
233.61
 30
0.0
 11
101.404505
 21
233.61
 31
0.0
  0
LINE
  5
2380C
  8
DANMEN
  6
CONTINUOUS
 10
99.904505
 20
224.110091
 30
0.0
 11
94.904502
 21
224.110091
 31
0.0
  0
LINE
  5
2380E
  8
DANMEN
  6
CONTINUOUS
 10
104.904496
 20
230.610107
 30
0.0
 11
104.904496
 21
228.110107
 31
0.0
  0
LINE
  5
23811
  8
DANMEN
  6
CONTINUOUS
 10
104.904496
 20
228.110107
 30
0.0
 11
106.204496
 21
228.110107
 31
0.0
  0
ARC
  5
23812
  8
DANMEN
  6
CONTINUOUS
 10
103.904511
 20
232.11
 30
0.0
 40
1.5
 50
359.999964
 51
90.000001
  0
ARC
  5
23814
  8
DANMEN
  6
CONTINUOUS
 10
105.404496
 20
230.610107
 30
0.0
 40
0.5
 50
89.999999
 51
180.000036
  0
ARC
  5
23816
  8
DANMEN
  6
CONTINUOUS
 10
111.704483
 20
230.610107
 30
0.0
 40
0.5
 50
0.0
 51
89.999982
  0
LINE
  5
23817
  8
DANMEN
  6
CONTINUOUS
 10
189.999985
 20
231.354646
 30
0.0
 11
189.999985
 21
241.354646
 31
0.0
  0
LINE
  5
23818
  8
DANMEN
  6
CONTINUOUS
 10
174.000015
 20
231.354631
 30
0.0
 11
174.000015
 21
241.354646
 31
0.0
  0
LINE
  5
23819
  8
DANMEN
  6
CONTINUOUS
 10
180.000021
 20
224.354631
 30
0.0
 11
180.000021
 21
241.354646
 31
0.0
  0
LINE
  5
2381A
  8
DANMEN
  6
CONTINUOUS
 10
184.000009
 20
224.354646
 30
0.0
 11
184.000009
 21
241.354646
 31
0.0
  0
LINE
  5
2381B
  8
DANMEN
  6
CONTINUOUS
 10
179.500021
 20
224.354631
 30
0.0
 11
179.500021
 21
241.354646
 31
0.0
  0
LINE
  5
2381C
  8
DANMEN
  6
CONTINUOUS
 10
184.500009
 20
224.354646
 30
0.0
 11
184.500009
 21
241.354646
 31
0.0
  0
ARC
  5
2381D
  8
DANMEN
  6
CONTINUOUS
 10
186.000009
 20
235.354554
 30
0.0
 40
1.5
 50
180.0
 51
269.999982
  0
ARC
  5
2381E
  8
DANMEN
  6
CONTINUOUS
 10
178.000006
 20
235.354554
 30
0.0
 40
1.5
 50
269.999982
 51
359.999964
  0
ARC
  5
2381F
  8
DANMEN
  6
CONTINUOUS
 10
175.500015
 20
232.354554
 30
0.0
 40
1.5
 50
90.000018
 51
180.0
  0
ARC
  5
23820
  8
DANMEN
  6
CONTINUOUS
 10
188.500015
 20
232.354554
 30
0.0
 40
1.5
 50
359.999964
 51
90.000001
  0
LINE
  5
23821
  8
DANMEN
  6
CONTINUOUS
 10
178.000006
 20
233.854554
 30
0.0
 11
175.500015
 21
233.854554
 31
0.0
  0
LINE
  5
23822
  8
DANMEN
  6
CONTINUOUS
 10
172.45
 20
213.654646
 30
0.0
 11
181.833705
 21
213.654646
 31
0.0
  0
LINE
  5
23823
  8
DANMEN
  6
CONTINUOUS
 10
172.45
 20
215.604646
 30
0.0
 11
178.7
 21
215.604646
 31
0.0
  0
LINE
  5
23824
  8
DANMEN
  6
CONTINUOUS
 10
172.45
 20
229.404649
 30
0.0
 11
172.45
 21
215.604646
 31
0.0
  0
ARC
  5
23827
  8
DANMEN
  6
CONTINUOUS
 10
174.81375
 20
228.854646
 30
0.0
 40
0.5
 50
190.784249
 51
270.000018
  0
LINE
  5
23828
  8
DANMEN
  6
CONTINUOUS
 10
171.0
 20
231.354646
 30
0.0
 11
174.5
 21
231.354646
 31
0.0
  0
ARC
  5
23829
  8
DANMEN
  6
CONTINUOUS
 10
171.0
 20
230.854646
 30
0.0
 40
0.5
 50
89.999982
 51
180.000019
  0
LINE
  5
2382D
  8
DANMEN
  6
CONTINUOUS
 10
174.199998
 20
229.404657
 30
0.0
 11
174.322582
 21
228.761091
 31
0.0
  0
LINE
  5
2382F
  8
DANMEN
  6
CONTINUOUS
 10
172.45
 20
229.404649
 30
0.0
 11
174.199999
 21
229.404649
 31
0.0
  0
LINE
  5
23831
  8
DANMEN
  6
CONTINUOUS
 10
174.81375
 20
228.354646
 30
0.0
 11
175.0
 21
228.354646
 31
0.0
  0
ARC
  5
23832
  8
DANMEN
  6
CONTINUOUS
 10
174.5
 20
230.854646
 30
0.0
 40
0.5
 50
0.0
 51
89.999982
  0
LINE
  5
23834
  8
DANMEN
  6
CONTINUOUS
 10
175.0
 20
230.854646
 30
0.0
 11
175.0
 21
228.354646
 31
0.0
  0
LINE
  5
23835
  8
DANMEN
  6
CONTINUOUS
 10
189.849991
 20
228.354646
 30
0.0
 11
189.849991
 21
220.354646
 31
0.0
  0
ARC
  5
23836
  8
DANMEN
  6
CONTINUOUS
 10
184.45
 20
217.020941
 30
0.0
 40
0.75
 50
180.0
 51
0.0
  0
LINE
  5
23837
  8
DANMEN
  6
CONTINUOUS
 10
181.2
 20
220.354646
 30
0.0
 11
189.849991
 21
220.354646
 31
0.0
  0
LINE
  5
23838
  8
DANMEN
  6
CONTINUOUS
 10
180.2
 20
216.154646
 30
0.0
 11
180.2
 21
217.654646
 31
0.0
  0
LINE
  5
23839
  8
DANMEN
  6
CONTINUOUS
 10
178.7
 20
217.854646
 30
0.0
 11
178.7
 21
215.604646
 31
0.0
  0
ARC
  5
2383A
  8
DANMEN
  6
CONTINUOUS
 10
181.2
 20
216.154646
 30
0.0
 40
1.0
 50
180.0
 51
270.0
  0
LINE
  5
2383C
  8
DANMEN
  6
CONTINUOUS
 10
181.2
 20
215.154646
 30
0.0
 11
181.833705
 21
215.154646
 31
0.0
  0
ARC
  5
2383D
  8
DANMEN
  6
CONTINUOUS
 10
181.833705
 20
214.404646
 30
0.0
 40
0.75
 50
270.0
 51
90.0
  0
ARC
  5
2383E
  8
DANMEN
  6
CONTINUOUS
 10
181.2
 20
217.654646
 30
0.0
 40
1.0
 50
90.0
 51
180.0
  0
ARC
  5
2383F
  8
DANMEN
  6
CONTINUOUS
 10
181.2
 20
217.854646
 30
0.0
 40
2.5
 50
89.999982
 51
180.000019
  0
LINE
  5
23842
  8
DANMEN
  6
CONTINUOUS
 10
181.2
 20
218.654646
 30
0.0
 11
182.7
 21
218.654646
 31
0.0
  0
LINE
  5
23843
  8
DANMEN
  6
CONTINUOUS
 10
183.7
 20
217.020941
 30
0.0
 11
183.7
 21
217.654646
 31
0.0
  0
ARC
  5
23844
  8
DANMEN
  6
CONTINUOUS
 10
182.7
 20
217.654646
 30
0.0
 40
1.0
 50
0.0
 51
90.0
  0
LINE
  5
23846
  8
DANMEN
  6
CONTINUOUS
 10
186.199999
 20
218.404649
 30
0.0
 11
189.849991
 21
218.404649
 31
0.0
  0
ARC
  5
23848
  8
DANMEN
  6
CONTINUOUS
 10
186.2
 20
217.404649
 30
0.0
 40
1.0
 50
90.0
 51
180.0
  0
LINE
  5
23849
  8
DANMEN
  6
CONTINUOUS
 10
185.2
 20
217.020941
 30
0.0
 11
185.2
 21
217.404649
 31
0.0
  0
LINE
  5
2384B
  8
DANMEN
  6
CONTINUOUS
 10
184.500009
 20
224.354631
 30
0.0
 11
179.500006
 21
224.354631
 31
0.0
  0
LINE
  5
2384E
  8
DANMEN
  6
CONTINUOUS
 10
188.500015
 20
233.854554
 30
0.0
 11
186.000009
 21
233.854554
 31
0.0
  0
LINE
  5
23851
  8
DANMEN
  6
CONTINUOUS
 10
189.0
 20
228.354646
 30
0.0
 11
189.849991
 21
228.354646
 31
0.0
  0
ARC
  5
23852
  8
DANMEN
  6
CONTINUOUS
 10
189.5
 20
230.854646
 30
0.0
 40
0.5
 50
89.999982
 51
180.000019
  0
LINE
  5
23854
  8
DANMEN
  6
CONTINUOUS
 10
189.5
 20
231.354646
 30
0.0
 11
191.299988
 21
231.354646
 31
0.0
  0
LINE
  5
23855
  8
DANMEN
  6
CONTINUOUS
 10
189.0
 20
230.854646
 30
0.0
 11
189.0
 21
228.354646
 31
0.0
  0
ARC
  5
23856
  8
DANMEN
  6
CONTINUOUS
 10
191.299988
 20
230.854646
 30
0.0
 40
0.5
 50
0.0
 51
89.999982
  0
TEXT
  5
23858
  8
SUNPO
  6
CONTINUOUS
 10
367.819988
 20
116.0
 30
0.0
 40
2.5
  1
6.5
  0
TEXT
  5
23859
  8
SUNPO
  6
CONTINUOUS
 10
227.399994
 20
116.0
 30
0.0
 40
2.5
  1
6.2
  0
TEXT
  5
2385A
  8
SUNPO
  6
CONTINUOUS
 10
210.649994
 20
116.0
 30
0.0
 40
2.5
  1
24.8
  0
TEXT
  5
2385B
  8
SUNPO
  6
CONTINUOUS
 10
242.819988
 20
116.0
 30
0.0
 40
2.5
  1
6.5
  0
TEXT
  5
2385C
  8
SUNPO
  6
CONTINUOUS
 10
197.166667
 20
116.0
 30
0.0
 40
2.5
  1
8
  0
TEXT
  5
2385D
  8
SUNPO
  6
CONTINUOUS
 10
335.649994
 20
116.0
 30
0.0
 40
2.5
  1
24.8
  0
TEXT
  5
2385E
  8
SUNPO
  6
CONTINUOUS
 10
352.399994
 20
116.0
 30
0.0
 40
2.5
  1
6.2
  0
TEXT
  5
2385F
  8
SUNPO
  6
CONTINUOUS
 10
322.166667
 20
116.0
 30
0.0
 40
2.5
  1
8
  0
TEXT
  5
23860
  8
SUNPO
  6
CONTINUOUS
 10
290.666667
 20
116.0
 30
0.0
 40
2.5
  1
7
  0
TEXT
  5
23861
  8
SUNPO
  6
CONTINUOUS
 10
304.916667
 20
116.0
 30
0.0
 40
2.5
  1
24
  0
TEXT
  5
23862
  8
SUNPO
  6
CONTINUOUS
 10
112.80449
 20
116.0
 30
0.0
 40
2.5
  1
6.2
  0
TEXT
  5
23863
  8
SUNPO
  6
CONTINUOUS
 10
96.05449
 20
116.0
 30
0.0
 40
2.5
  1
24.8
  0
TEXT
  5
23864
  8
SUNPO
  6
CONTINUOUS
 10
128.224483
 20
116.0
 30
0.0
 40
2.5
  1
6.5
  0
TEXT
  5
23865
  8
SUNPO
  6
CONTINUOUS
 10
82.571162
 20
116.0
 30
0.0
 40
2.5
  1
8
  0
TEXT
  5
23866
  8
SUNPO
  6
CONTINUOUS
 10
65.321162
 20
116.0
 30
0.0
 40
2.5
  1
24
  0
TEXT
  5
23867
  8
SUNPO
  6
CONTINUOUS
 10
51.071162
 20
116.0
 30
0.0
 40
2.5
  1
7
  0
TEXT
  5
23868
  8
SUNPO
  6
CONTINUOUS
 10
165.666667
 20
116.0
 30
0.0
 40
2.5
  1
7
  0
TEXT
  5
23869
  8
SUNPO
  6
CONTINUOUS
 10
179.916667
 20
116.0
 30
0.0
 40
2.5
  1
24
  0
LINE
  5
2386A
  8
SUNPO
  6
CONTINUOUS
 10
319.0
 20
115.0
 30
0.0
 11
295.0
 21
115.0
 31
0.0
  0
ARC
  5
2386B
  8
SUNPO
  6
BYBLOCK
 10
55.404496
 20
115.0
 30
0.0
 40
0.145
 50
0.0
 51
180.0
  0
ARC
  5
2386C
  8
SUNPO
  6
BYBLOCK
 10
55.404496
 20
115.0
 30
0.0
 40
0.145
 50
180.0
 51
0.0
  0
ARC
  5
2386D
  8
SUNPO
  6
BYBLOCK
 10
55.404496
 20
115.0
 30
0.0
 40
0.145
 50
180.0
 51
0.0
  0
ARC
  5
2386E
  8
SUNPO
  6
BYBLOCK
 10
55.404496
 20
115.0
 30
0.0
 40
0.145
 50
0.0
 51
180.0
  0
LINE
  5
2386F
  8
SUNPO
  6
CONTINUOUS
 10
55.404496
 20
115.0
 30
0.0
 11
48.404496
 21
115.0
 31
0.0
  0
TEXT
  5
23870
  8
WAKU
  6
CONTINUOUS
 10
35.0
 20
284.5
 30
0.0
 40
5.0
  1
中桟・中骨断面詳細図
 41
0.913
  7
STANDARD
 11
35.0
 21
287.0
 31
0.0
 73
     2
  0
LINE
  5
23872
  8
DANMEN
  6
DASHED
 10
199.5
 20
115.0
 30
0.0
 11
199.5
 21
35.0
 31
0.0
  0
LINE
  5
23873
  8
DANMEN
  6
CONTINUOUS
 10
196.5
 20
115.0
 30
0.0
 11
196.5
 21
35.0
 31
0.0
  0
LINE
  5
23874
  8
DANMEN
  6
CONTINUOUS
 10
194.0
 20
115.0
 30
0.0
 11
194.0
 21
35.0
 31
0.0
  0
LINE
  5
23875
  8
DANMEN
  6
CONTINUOUS
 10
202.0
 20
115.0
 30
0.0
 11
202.0
 21
35.0
 31
0.0
  0
LINE
  5
23876
  8
DANMEN
  6
CONTINUOUS
 10
218.999988
 20
70.499997
 30
0.0
 11
218.999988
 21
91.5
 31
0.0
  0
LINE
  5
23877
  8
DANMEN
  6
CONTINUOUS
 10
222.5
 20
48.5
 30
0.0
 11
222.5
 21
101.5
 31
0.0
  0
LINE
  5
23878
  8
DANMEN
  6
CONTINUOUS
 10
235.999988
 20
48.5
 30
0.0
 11
235.999988
 21
101.5
 31
0.0
  0
LINE
  5
23879
  8
DANMEN
  6
CONTINUOUS
 10
205.0
 20
91.5
 30
0.0
 11
205.0
 21
70.499997
 31
0.0
  0
LINE
  5
2387A
  8
DANMEN
  6
CONTINUOUS
 10
202.0
 20
45.5
 30
0.0
 11
202.0
 21
104.5
 31
0.0
  0
LINE
  5
2387B
  8
DANMEN
  6
CONTINUOUS
 10
239.499988
 20
45.5
 30
0.0
 11
239.499988
 21
104.5
 31
0.0
  0
LINE
  5
2387C
  8
DANMEN
  6
CONTINUOUS
 10
222.5
 20
48.5
 30
0.0
 11
235.999988
 21
48.5
 31
0.0
  0
LINE
  5
2387D
  8
DANMEN
  6
CONTINUOUS
 10
220.0
 20
45.0
 30
0.0
 11
238.999988
 21
45.0
 31
0.0
  0
LINE
  5
2387E
  8
DANMEN
  6
CONTINUOUS
 10
213.999979
 20
52.000015
 30
0.0
 11
213.999979
 21
35.0
 31
0.0
  0
LINE
  5
2387F
  8
DANMEN
  6
CONTINUOUS
 10
209.999991
 20
52.0
 30
0.0
 11
209.999991
 21
35.0
 31
0.0
  0
LINE
  5
23880
  8
DANMEN
  6
CONTINUOUS
 10
214.499979
 20
52.000015
 30
0.0
 11
214.499979
 21
35.0
 31
0.0
  0
LINE
  5
23881
  8
DANMEN
  6
CONTINUOUS
 10
209.499991
 20
52.0
 30
0.0
 11
209.499991
 21
35.0
 31
0.0
  0
LINE
  5
23882
  8
DANMEN
  6
CONTINUOUS
 10
220.0
 20
48.0
 30
0.0
 11
220.0
 21
51.0
 31
0.0
  0
LINE
  5
23883
  8
DANMEN
  6
CONTINUOUS
 10
203.95
 20
48.0
 30
0.0
 11
203.95
 21
51.0
 31
0.0
  0
ARC
  5
23884
  8
DANMEN
  6
CONTINUOUS
 10
208.000006
 20
41.000076
 30
0.0
 40
1.5
 50
0.000036
 51
90.000018
  0
LINE
  5
23885
  8
DANMEN
  6
CONTINUOUS
 10
204.000015
 20
45.0
 30
0.0
 11
204.000015
 21
35.0
 31
0.0
  0
ARC
  5
23886
  8
DANMEN
  6
CONTINUOUS
 10
205.500015
 20
44.000076
 30
0.0
 40
1.5
 50
180.0
 51
269.999982
  0
LINE
  5
23887
  8
DANMEN
  6
CONTINUOUS
 10
208.000006
 20
42.500076
 30
0.0
 11
205.500015
 21
42.500076
 31
0.0
  0
LINE
  5
23888
  8
DANMEN
  6
CONTINUOUS
 10
202.5
 20
45.0
 30
0.0
 11
204.0
 21
45.0
 31
0.0
  0
ARC
  5
23889
  8
DANMEN
  6
CONTINUOUS
 10
202.5
 20
45.5
 30
0.0
 40
0.5
 50
179.999964
 51
270.000001
  0
LINE
  5
2388A
  8
DANMEN
  6
CONTINUOUS
 10
204.5
 20
45.5
 30
0.0
 11
204.5
 21
48.0
 31
0.0
  0
ARC
  5
2388B
  8
DANMEN
  6
CONTINUOUS
 10
204.0
 20
45.5
 30
0.0
 40
0.5
 50
270.000018
 51
0.0
  0
LINE
  5
2388C
  8
DANMEN
  6
CONTINUOUS
 10
203.95
 20
48.0
 30
0.0
 11
204.5
 21
48.0
 31
0.0
  0
LINE
  5
2388D
  8
DANMEN
  6
CONTINUOUS
 10
219.999985
 20
45.000015
 30
0.0
 11
219.999985
 21
35.0
 31
0.0
  0
LINE
  5
2388E
  8
DANMEN
  6
CONTINUOUS
 10
224.0
 20
45.0
 30
0.0
 11
224.0
 21
35.0
 31
0.0
  0
LINE
  5
2388F
  8
DANMEN
  6
CONTINUOUS
 10
218.500015
 20
42.500076
 30
0.0
 11
216.000009
 21
42.500076
 31
0.0
  0
ARC
  5
23890
  8
DANMEN
  6
CONTINUOUS
 10
216.000009
 20
41.000076
 30
0.0
 40
1.5
 50
90.000018
 51
180.0
  0
ARC
  5
23892
  8
DANMEN
  6
CONTINUOUS
 10
218.500015
 20
44.000076
 30
0.0
 40
1.5
 50
269.999999
 51
0.000036
  0
LINE
  5
23893
  8
DANMEN
  6
CONTINUOUS
 10
219.5
 20
45.5
 30
0.0
 11
219.5
 21
48.0
 31
0.0
  0
ARC
  5
23894
  8
DANMEN
  6
CONTINUOUS
 10
220.0
 20
45.5
 30
0.0
 40
0.5
 50
179.999964
 51
270.000001
  0
LINE
  5
23895
  8
DANMEN
  6
CONTINUOUS
 10
219.5
 20
48.0
 30
0.0
 11
220.0
 21
48.0
 31
0.0
  0
LINE
  5
23896
  8
DANMEN
  6
CONTINUOUS
 10
204.5
 20
68.0
 30
0.0
 11
219.5
 21
68.0
 31
0.0
  0
LINE
  5
23897
  8
DANMEN
  6
CONTINUOUS
 10
205.0
 20
70.499997
 30
0.0
 11
218.999988
 21
70.499997
 31
0.0
  0
LINE
  5
23898
  8
DANMEN
  6
CONTINUOUS
 10
204.5
 20
51.0
 30
0.0
 11
204.5
 21
68.0
 31
0.0
  0
LINE
  5
23899
  8
DANMEN
  6
CONTINUOUS
 10
203.95
 20
51.0
 30
0.0
 11
204.5
 21
51.0
 31
0.0
  0
LINE
  5
2389A
  8
DANMEN
  6
CONTINUOUS
 10
219.5
 20
51.0
 30
0.0
 11
219.5
 21
68.0
 31
0.0
  0
LINE
  5
2389B
  8
DANMEN
  6
CONTINUOUS
 10
209.499991
 20
52.000015
 30
0.0
 11
214.499994
 21
52.000015
 31
0.0
  0
LINE
  5
2389C
  8
DANMEN
  6
CONTINUOUS
 10
219.5
 20
51.0
 30
0.0
 11
220.0
 21
51.0
 31
0.0
  0
LINE
  5
2389D
  8
DANMEN
  6
CONTINUOUS
 10
233.0
 20
45.0
 30
0.0
 11
233.0
 21
35.0
 31
0.0
  0
ARC
  5
2389E
  8
DANMEN
  6
CONTINUOUS
 10
238.999988
 20
45.5
 30
0.0
 40
0.5
 50
270.0
 51
0.0
  0
LINE
  5
2389F
  8
DANMEN
  6
CONTINUOUS
 10
222.5
 20
101.5
 30
0.0
 11
235.999988
 21
101.5
 31
0.0
  0
LINE
  5
238A0
  8
DANMEN
  6
CONTINUOUS
 10
220.0
 20
105.0
 30
0.0
 11
238.999988
 21
105.0
 31
0.0
  0
LINE
  5
238A1
  8
DANMEN
  6
CONTINUOUS
 10
219.5
 20
94.0
 30
0.0
 11
219.5
 21
99.0
 31
0.0
  0
LINE
  5
238A2
  8
DANMEN
  6
CONTINUOUS
 10
204.5
 20
99.0
 30
0.0
 11
204.5
 21
94.0
 31
0.0
  0
ARC
  5
238A3
  8
DANMEN
  6
CONTINUOUS
 10
208.7
 20
90.5
 30
0.0
 40
1.0
 50
0.0
 51
90.0
  0
LINE
  5
238A4
  8
DANMEN
  6
CONTINUOUS
 10
204.5
 20
94.0
 30
0.0
 11
219.5
 21
94.0
 31
0.0
  0
LINE
  5
238A5
  8
DANMEN
  6
CONTINUOUS
 10
208.7
 20
91.5
 30
0.0
 11
205.0
 21
91.5
 31
0.0
  0
LINE
  5
238A6
  8
DANMEN
  6
CONTINUOUS
 10
217.3
 20
91.5
 30
0.0
 11
218.999988
 21
91.5
 31
0.0
  0
ARC
  5
238A7
  8
DANMEN
  6
CONTINUOUS
 10
214.3
 20
89.969694
 30
0.0
 40
2.0
 50
308.293477
 51
0.0
  0
ARC
  5
238A8
  8
DANMEN
  6
CONTINUOUS
 10
213.8
 20
90.053939
 30
0.0
 40
1.0
 50
294.624318
 51
0.0
  0
ARC
  5
238A9
  8
DANMEN
  6
CONTINUOUS
 10
214.3
 20
88.963068
 30
0.0
 40
0.2
 50
114.624318
 51
180.0
  0
ARC
  5
238AA
  8
DANMEN
  6
CONTINUOUS
 10
211.7
 20
88.963068
 30
0.0
 40
0.2
 50
0.0
 51
65.375682
  0
ARC
  5
238AB
  8
DANMEN
  6
CONTINUOUS
 10
212.2
 20
90.053939
 30
0.0
 40
1.0
 50
180.0
 51
245.375682
  0
ARC
  5
238AC
  8
DANMEN
  6
CONTINUOUS
 10
211.7
 20
89.969694
 30
0.0
 40
2.0
 50
180.0
 51
231.706523
  0
LINE
  5
238AD
  8
DANMEN
  6
CONTINUOUS
 10
211.9
 20
88.7
 30
0.0
 11
211.9
 21
88.963068
 31
0.0
  0
LINE
  5
238AE
  8
DANMEN
  6
CONTINUOUS
 10
210.460621
 20
88.4
 30
0.0
 11
211.6
 21
88.4
 31
0.0
  0
ARC
  5
238AF
  8
DANMEN
  6
CONTINUOUS
 10
211.6
 20
88.7
 30
0.0
 40
0.3
 50
270.0
 51
0.0
  0
LINE
  5
238B0
  8
DANMEN
  6
CONTINUOUS
 10
214.1
 20
88.7
 30
0.0
 11
214.1
 21
88.963068
 31
0.0
  0
ARC
  5
238B1
  8
DANMEN
  6
CONTINUOUS
 10
214.4
 20
88.7
 30
0.0
 40
0.3
 50
180.0
 51
270.0
  0
LINE
  5
238B2
  8
DANMEN
  6
CONTINUOUS
 10
214.4
 20
88.4
 30
0.0
 11
215.539379
 21
88.4
 31
0.0
  0
LINE
  5
238B3
  8
DANMEN
  6
CONTINUOUS
 10
212.2
 20
92.3
 30
0.0
 11
213.8
 21
92.3
 31
0.0
  0
LINE
  5
238B4
  8
DANMEN
  6
CONTINUOUS
 10
209.7
 20
89.969694
 30
0.0
 11
209.7
 21
90.5
 31
0.0
  0
ARC
  5
238B5
  8
DANMEN
  6
CONTINUOUS
 10
212.2
 20
91.3
 30
0.0
 40
1.0
 50
90.0
 51
180.0
  0
LINE
  5
238B6
  8
DANMEN
  6
CONTINUOUS
 10
211.2
 20
90.053939
 30
0.0
 11
211.2
 21
91.3
 31
0.0
  0
ARC
  5
238B7
  8
DANMEN
  6
CONTINUOUS
 10
217.3
 20
90.5
 30
0.0
 40
1.0
 50
90.0
 51
180.0
  0
LINE
  5
238B8
  8
DANMEN
  6
CONTINUOUS
 10
216.3
 20
89.969694
 30
0.0
 11
216.3
 21
90.5
 31
0.0
  0
LINE
  5
238B9
  8
DANMEN
  6
CONTINUOUS
 10
214.8
 20
90.053939
 30
0.0
 11
214.8
 21
91.3
 31
0.0
  0
ARC
  5
238BA
  8
DANMEN
  6
CONTINUOUS
 10
213.8
 20
91.3
 30
0.0
 40
1.0
 50
0.0
 51
90.0
  0
ARC
  5
238BB
  8
DANMEN
  6
CONTINUOUS
 10
208.000006
 20
108.999893
 30
0.0
 40
1.5
 50
269.999982
 51
359.999964
  0
LINE
  5
238BC
  8
DANMEN
  6
CONTINUOUS
 10
204.000015
 20
104.999985
 30
0.0
 11
204.000015
 21
115.0
 31
0.0
  0
ARC
  5
238BD
  8
DANMEN
  6
CONTINUOUS
 10
205.500015
 20
105.999893
 30
0.0
 40
1.5
 50
90.000018
 51
180.0
  0
LINE
  5
238BE
  8
DANMEN
  6
CONTINUOUS
 10
203.95
 20
102.0
 30
0.0
 11
203.95
 21
99.0
 31
0.0
  0
LINE
  5
238BF
  8
DANMEN
  6
CONTINUOUS
 10
203.95
 20
99.0
 30
0.0
 11
204.5
 21
99.0
 31
0.0
  0
LINE
  5
238C0
  8
DANMEN
  6
CONTINUOUS
 10
202.5
 20
105.0
 30
0.0
 11
204.0
 21
105.0
 31
0.0
  0
ARC
  5
238C1
  8
DANMEN
  6
CONTINUOUS
 10
202.5
 20
104.5
 30
0.0
 40
0.5
 50
89.999982
 51
180.000019
  0
LINE
  5
238C2
  8
DANMEN
  6
CONTINUOUS
 10
204.5
 20
104.5
 30
0.0
 11
204.5
 21
102.0
 31
0.0
  0
ARC
  5
238C3
  8
DANMEN
  6
CONTINUOUS
 10
204.0
 20
104.5
 30
0.0
 40
0.5
 50
0.0
 51
89.999982
  0
LINE
  5
238C4
  8
DANMEN
  6
CONTINUOUS
 10
203.95
 20
102.0
 30
0.0
 11
204.5
 21
102.0
 31
0.0
  0
LINE
  5
238C5
  8
DANMEN
  6
CONTINUOUS
 10
208.000006
 20
107.499893
 30
0.0
 11
205.500015
 21
107.499893
 31
0.0
  0
LINE
  5
238C6
  8
DANMEN
  6
CONTINUOUS
 10
210.000021
 20
97.999985
 30
0.0
 11
210.000021
 21
115.0
 31
0.0
  0
LINE
  5
238C7
  8
DANMEN
  6
CONTINUOUS
 10
214.000009
 20
98.0
 30
0.0
 11
214.000009
 21
115.0
 31
0.0
  0
LINE
  5
238C8
  8
DANMEN
  6
CONTINUOUS
 10
209.500021
 20
97.999985
 30
0.0
 11
209.500021
 21
115.0
 31
0.0
  0
LINE
  5
238C9
  8
DANMEN
  6
CONTINUOUS
 10
214.500009
 20
98.0
 30
0.0
 11
214.500009
 21
115.0
 31
0.0
  0
LINE
  5
238CA
  8
DANMEN
  6
CONTINUOUS
 10
219.999985
 20
105.0
 30
0.0
 11
219.999985
 21
115.0
 31
0.0
  0
LINE
  5
238CB
  8
DANMEN
  6
CONTINUOUS
 10
224.0
 20
115.0
 30
0.0
 11
224.0
 21
105.0
 31
0.0
  0
ARC
  5
238CC
  8
DANMEN
  6
CONTINUOUS
 10
218.500015
 20
105.999893
 30
0.0
 40
1.5
 50
359.999964
 51
90.000001
  0
LINE
  5
238CD
  8
DANMEN
  6
CONTINUOUS
 10
214.500009
 20
97.999985
 30
0.0
 11
209.500006
 21
97.999985
 31
0.0
  0
LINE
  5
238CF
  8
DANMEN
  6
CONTINUOUS
 10
220.0
 20
99.0
 30
0.0
 11
220.0
 21
102.0
 31
0.0
  0
LINE
  5
238D0
  8
DANMEN
  6
CONTINUOUS
 10
219.5
 20
99.0
 30
0.0
 11
220.0
 21
99.0
 31
0.0
  0
LINE
  5
238D1
  8
DANMEN
  6
CONTINUOUS
 10
219.5
 20
102.0
 30
0.0
 11
220.0
 21
102.0
 31
0.0
  0
LINE
  5
238D2
  8
DANMEN
  6
CONTINUOUS
 10
219.5
 20
104.5
 30
0.0
 11
219.5
 21
102.0
 31
0.0
  0
ARC
  5
238D3
  8
DANMEN
  6
CONTINUOUS
 10
220.0
 20
104.5
 30
0.0
 40
0.5
 50
89.999999
 51
180.000036
  0
LINE
  5
238D4
  8
DANMEN
  6
CONTINUOUS
 10
218.500015
 20
107.499893
 30
0.0
 11
216.000009
 21
107.499893
 31
0.0
  0
ARC
  5
238D5
  8
DANMEN
  6
CONTINUOUS
 10
216.000009
 20
108.999893
 30
0.0
 40
1.5
 50
180.0
 51
269.999982
  0
LINE
  5
238D6
  8
DANMEN
  6
CONTINUOUS
 10
233.0
 20
115.0
 30
0.0
 11
233.0
 21
105.0
 31
0.0
  0
ARC
  5
238D7
  8
DANMEN
  6
CONTINUOUS
 10
238.999988
 20
104.5
 30
0.0
 40
0.5
 50
0.0
 51
90.0
  0
LINE
  5
238D8
  8
DANMEN
  6
CONTINUOUS
 10
321.5
 20
115.0
 30
0.0
 11
321.5
 21
35.0
 31
0.0
  0
LINE
  5
238D9
  8
DANMEN
  6
CONTINUOUS
 10
288.0
 20
115.0
 30
0.0
 11
288.0
 21
35.0
 31
0.0
  0
LINE
  5
238DA
  8
DANMEN
  6
CONTINUOUS
 10
319.0
 20
115.0
 30
0.0
 11
319.0
 21
35.0
 31
0.0
  0
LINE
  5
238DB
  8
DANMEN
  6
CONTINUOUS
 10
295.0
 20
115.0
 30
0.0
 11
295.0
 21
35.0
 31
0.0
  0
LINE
  5
238DC
  8
DANMEN
  6
CONTINUOUS
 10
313.499991
 20
92.050003
 30
0.0
 11
313.499991
 21
62.949997
 31
0.0
  0
LINE
  5
238DD
  8
DANMEN
  6
CONTINUOUS
 10
295.5
 20
45.5
 30
0.0
 11
295.5
 21
104.5
 31
0.0
  0
LINE
  5
238DE
  8
DANMEN
  6
CONTINUOUS
 10
318.5
 20
45.5
 30
0.0
 11
318.5
 21
104.5
 31
0.0
  0
LINE
  5
238DF
  8
DANMEN
  6
CONTINUOUS
 10
300.0
 20
57.949997
 30
0.0
 11
300.0
 21
87.3
 31
0.0
  0
LINE
  5
238E0
  8
DANMEN
  6
CONTINUOUS
 10
305.000021
 20
52.000015
 30
0.0
 11
305.000021
 21
35.0
 31
0.0
  0
LINE
  5
238E1
  8
DANMEN
  6
CONTINUOUS
 10
309.000009
 20
52.0
 30
0.0
 11
309.000009
 21
35.0
 31
0.0
  0
LINE
  5
238E2
  8
DANMEN
  6
CONTINUOUS
 10
304.500021
 20
52.000015
 30
0.0
 11
304.500021
 21
35.0
 31
0.0
  0
LINE
  5
238E3
  8
DANMEN
  6
CONTINUOUS
 10
309.500009
 20
52.0
 30
0.0
 11
309.500009
 21
35.0
 31
0.0
  0
LINE
  5
238E4
  8
DANMEN
  6
CONTINUOUS
 10
299.400009
 20
48.0
 30
0.0
 11
299.400009
 21
51.0
 31
0.0
  0
LINE
  5
238E5
  8
DANMEN
  6
CONTINUOUS
 10
314.599991
 20
48.0
 30
0.0
 11
314.599991
 21
51.0
 31
0.0
  0
LINE
  5
238E6
  8
DANMEN
  6
CONTINUOUS
 10
299.000015
 20
45.0
 30
0.0
 11
299.000015
 21
35.0
 31
0.0
  0
ARC
  5
238E7
  8
DANMEN
  6
CONTINUOUS
 10
300.500015
 20
44.000092
 30
0.0
 40
1.5
 50
180.0
 51
269.999982
  0
LINE
  5
238E8
  8
DANMEN
  6
CONTINUOUS
 10
300.0
 20
48.0
 30
0.0
 11
299.400009
 21
48.0
 31
0.0
  0
ARC
  5
238E9
  8
DANMEN
  6
CONTINUOUS
 10
299.5
 20
45.5
 30
0.0
 40
0.5
 50
270.000018
 51
0.0
  0
ARC
  5
238EA
  8
DANMEN
  6
CONTINUOUS
 10
296.0
 20
45.5
 30
0.0
 40
0.5
 50
179.999964
 51
270.000001
  0
LINE
  5
238EC
  8
DANMEN
  6
CONTINUOUS
 10
296.0
 20
45.0
 30
0.0
 11
299.5
 21
45.0
 31
0.0
  0
ARC
  5
238EE
  8
DANMEN
  6
CONTINUOUS
 10
303.000006
 20
41.000092
 30
0.0
 40
1.5
 50
0.000036
 51
90.000018
  0
LINE
  5
238EF
  8
DANMEN
  6
CONTINUOUS
 10
303.000006
 20
42.500092
 30
0.0
 11
300.500015
 21
42.500092
 31
0.0
  0
LINE
  5
238F0
  8
DANMEN
  6
CONTINUOUS
 10
300.0
 20
45.5
 30
0.0
 11
300.0
 21
48.0
 31
0.0
  0
LINE
  5
238F3
  8
DANMEN
  6
CONTINUOUS
 10
314.999985
 20
45.0
 30
0.0
 11
314.999985
 21
35.0
 31
0.0
  0
LINE
  5
238F4
  8
DANMEN
  6
CONTINUOUS
 10
314.5
 20
45.0
 30
0.0
 11
318.0
 21
45.0
 31
0.0
  0
ARC
  5
238F5
  8
DANMEN
  6
CONTINUOUS
 10
311.000009
 20
41.000092
 30
0.0
 40
1.5
 50
90.000018
 51
180.0
  0
ARC
  5
238F6
  8
DANMEN
  6
CONTINUOUS
 10
313.500015
 20
44.000092
 30
0.0
 40
1.5
 50
269.999999
 51
0.000036
  0
LINE
  5
238F7
  8
DANMEN
  6
CONTINUOUS
 10
313.500015
 20
42.500092
 30
0.0
 11
311.000009
 21
42.500092
 31
0.0
  0
LINE
  5
238F8
  8
DANMEN
  6
CONTINUOUS
 10
314.0
 20
45.5
 30
0.0
 11
314.0
 21
48.0
 31
0.0
  0
ARC
  5
238FA
  8
DANMEN
  6
CONTINUOUS
 10
314.5
 20
45.5
 30
0.0
 40
0.5
 50
179.999964
 51
270.000001
  0
LINE
  5
238FB
  8
DANMEN
  6
CONTINUOUS
 10
314.0
 20
48.0
 30
0.0
 11
314.599991
 21
48.0
 31
0.0
  0
ARC
  5
238FF
  8
DANMEN
  6
CONTINUOUS
 10
318.0
 20
45.5
 30
0.0
 40
0.5
 50
270.000018
 51
0.0
  0
LINE
  5
23900
  8
DANMEN
  6
CONTINUOUS
 10
309.500009
 20
52.000015
 30
0.0
 11
304.500006
 21
52.000015
 31
0.0
  0
LINE
  5
23901
  8
DANMEN
  6
CONTINUOUS
 10
304.7
 20
62.949997
 30
0.0
 11
313.499991
 21
62.949997
 31
0.0
  0
LINE
  5
23902
  8
DANMEN
  6
CONTINUOUS
 10
305.65
 20
61.0
 30
0.0
 11
314.0
 21
61.0
 31
0.0
  0
LINE
  5
23903
  8
DANMEN
  6
CONTINUOUS
 10
303.7
 20
57.949997
 30
0.0
 11
303.7
 21
61.949997
 31
0.0
  0
LINE
  5
23904
  8
DANMEN
  6
CONTINUOUS
 10
305.65
 20
57.0
 30
0.0
 11
305.65
 21
61.0
 31
0.0
  0
LINE
  5
23905
  8
DANMEN
  6
CONTINUOUS
 10
299.400009
 20
51.0
 30
0.0
 11
300.0
 21
51.0
 31
0.0
  0
LINE
  5
23907
  8
DANMEN
  6
CONTINUOUS
 10
300.0
 20
51.0
 30
0.0
 11
300.0
 21
55.999997
 31
0.0
  0
LINE
  5
23909
  8
DANMEN
  6
CONTINUOUS
 10
300.0
 20
55.999997
 30
0.0
 11
304.65
 21
55.999997
 31
0.0
  0
LINE
  5
2390A
  8
DANMEN
  6
CONTINUOUS
 10
300.0
 20
57.949997
 30
0.0
 11
303.7
 21
57.949997
 31
0.0
  0
ARC
  5
2390E
  8
DANMEN
  6
CONTINUOUS
 10
304.65
 20
56.999997
 30
0.0
 40
1.0
 50
270.0
 51
0.0
  0
ARC
  5
23910
  8
DANMEN
  6
CONTINUOUS
 10
304.7
 20
61.949997
 30
0.0
 40
1.0
 50
89.999982
 51
180.000019
  0
LINE
  5
23913
  8
DANMEN
  6
CONTINUOUS
 10
314.0
 20
51.0
 30
0.0
 11
314.0
 21
61.0
 31
0.0
  0
LINE
  5
23916
  8
DANMEN
  6
CONTINUOUS
 10
314.0
 20
51.0
 30
0.0
 11
314.599991
 21
51.0
 31
0.0
  0
LINE
  5
23919
  8
DANMEN
  6
CONTINUOUS
 10
314.0
 20
94.0
 30
0.0
 11
314.0
 21
99.0
 31
0.0
  0
LINE
  5
2391A
  8
DANMEN
  6
CONTINUOUS
 10
300.0
 20
89.25
 30
0.0
 11
300.0
 21
99.0
 31
0.0
  0
LINE
  5
2391B
  8
DANMEN
  6
CONTINUOUS
 10
306.2
 20
94.0
 30
0.0
 11
314.0
 21
94.0
 31
0.0
  0
ARC
  5
2391C
  8
DANMEN
  6
CONTINUOUS
 10
307.7
 20
91.3
 30
0.0
 40
1.0
 50
0.0
 51
90.0
  0
ARC
  5
2391D
  8
DANMEN
  6
CONTINUOUS
 10
306.2
 20
89.8
 30
0.0
 40
1.0
 50
180.0
 51
270.0
  0
LINE
  5
2391E
  8
DANMEN
  6
CONTINUOUS
 10
300.0
 20
87.3
 30
0.0
 11
306.833705
 21
87.3
 31
0.0
  0
ARC
  5
23920
  8
DANMEN
  6
CONTINUOUS
 10
306.833705
 20
88.05
 30
0.0
 40
0.75
 50
270.0
 51
90.0
  0
LINE
  5
23921
  8
DANMEN
  6
CONTINUOUS
 10
306.2
 20
88.8
 30
0.0
 11
306.833705
 21
88.8
 31
0.0
  0
LINE
  5
23922
  8
DANMEN
  6
CONTINUOUS
 10
300.0
 20
89.25
 30
0.0
 11
303.7
 21
89.25
 31
0.0
  0
ARC
  5
23923
  8
DANMEN
  6
CONTINUOUS
 10
306.2
 20
91.5
 30
0.0
 40
2.5
 50
89.999982
 51
180.000019
  0
LINE
  5
23926
  8
DANMEN
  6
CONTINUOUS
 10
303.7
 20
91.5
 30
0.0
 11
303.7
 21
89.25
 31
0.0
  0
ARC
  5
23929
  8
DANMEN
  6
CONTINUOUS
 10
306.2
 20
91.3
 30
0.0
 40
1.0
 50
90.0
 51
180.0
  0
LINE
  5
2392A
  8
DANMEN
  6
CONTINUOUS
 10
305.2
 20
89.8
 30
0.0
 11
305.2
 21
91.3
 31
0.0
  0
LINE
  5
2392B
  8
DANMEN
  6
CONTINUOUS
 10
306.2
 20
92.3
 30
0.0
 11
307.7
 21
92.3
 31
0.0
  0
LINE
  5
2392D
  8
DANMEN
  6
CONTINUOUS
 10
311.199999
 20
92.050003
 30
0.0
 11
313.499991
 21
92.050003
 31
0.0
  0
ARC
  5
2392E
  8
DANMEN
  6
CONTINUOUS
 10
309.45
 20
90.666295
 30
0.0
 40
0.75
 50
180.0
 51
0.0
  0
LINE
  5
2392F
  8
DANMEN
  6
CONTINUOUS
 10
310.2
 20
90.666295
 30
0.0
 11
310.2
 21
91.050003
 31
0.0
  0
LINE
  5
23930
  8
DANMEN
  6
CONTINUOUS
 10
308.7
 20
90.666295
 30
0.0
 11
308.7
 21
91.3
 31
0.0
  0
ARC
  5
23931
  8
DANMEN
  6
CONTINUOUS
 10
311.2
 20
91.050003
 30
0.0
 40
1.0
 50
90.0
 51
180.0
  0
LINE
  5
23935
  8
DANMEN
  6
CONTINUOUS
 10
309.500009
 20
97.999985
 30
0.0
 11
304.500006
 21
97.999985
 31
0.0
  0
LINE
  5
23936
  8
DANMEN
  6
CONTINUOUS
 10
305.000021
 20
97.999985
 30
0.0
 11
305.000021
 21
115.0
 31
0.0
  0
LINE
  5
23937
  8
DANMEN
  6
CONTINUOUS
 10
304.500021
 20
97.999985
 30
0.0
 11
304.500021
 21
115.0
 31
0.0
  0
LINE
  5
23938
  8
DANMEN
  6
CONTINUOUS
 10
299.000015
 20
104.999985
 30
0.0
 11
299.000015
 21
115.0
 31
0.0
  0
ARC
  5
23939
  8
DANMEN
  6
CONTINUOUS
 10
300.500015
 20
105.999908
 30
0.0
 40
1.5
 50
90.000018
 51
180.0
  0
LINE
  5
2393A
  8
DANMEN
  6
CONTINUOUS
 10
300.0
 20
99.0
 30
0.0
 11
299.400009
 21
99.0
 31
0.0
  0
LINE
  5
2393B
  8
DANMEN
  6
CONTINUOUS
 10
300.0
 20
102.0
 30
0.0
 11
299.400009
 21
102.0
 31
0.0
  0
ARC
  5
2393C
  8
DANMEN
  6
CONTINUOUS
 10
299.5
 20
104.5
 30
0.0
 40
0.5
 50
0.0
 51
89.999982
  0
LINE
  5
2393D
  8
DANMEN
  6
CONTINUOUS
 10
299.400009
 20
102.0
 30
0.0
 11
299.400009
 21
99.0
 31
0.0
  0
ARC
  5
2393E
  8
DANMEN
  6
CONTINUOUS
 10
296.0
 20
104.5
 30
0.0
 40
0.5
 50
89.999982
 51
180.000019
  0
LINE
  5
23940
  8
DANMEN
  6
CONTINUOUS
 10
296.0
 20
105.0
 30
0.0
 11
299.5
 21
105.0
 31
0.0
  0
LINE
  5
23943
  8
DANMEN
  6
CONTINUOUS
 10
300.0
 20
104.5
 30
0.0
 11
300.0
 21
102.0
 31
0.0
  0
ARC
  5
23947
  8
DANMEN
  6
CONTINUOUS
 10
303.000006
 20
108.999908
 30
0.0
 40
1.5
 50
269.999982
 51
359.999964
  0
LINE
  5
23948
  8
DANMEN
  6
CONTINUOUS
 10
303.000006
 20
107.499908
 30
0.0
 11
300.500015
 21
107.499908
 31
0.0
  0
LINE
  5
23949
  8
DANMEN
  6
CONTINUOUS
 10
309.000009
 20
98.0
 30
0.0
 11
309.000009
 21
115.0
 31
0.0
  0
LINE
  5
2394A
  8
DANMEN
  6
CONTINUOUS
 10
309.500009
 20
98.0
 30
0.0
 11
309.500009
 21
115.0
 31
0.0
  0
LINE
  5
2394B
  8
DANMEN
  6
CONTINUOUS
 10
314.999985
 20
105.0
 30
0.0
 11
314.999985
 21
115.0
 31
0.0
  0
ARC
  5
2394C
  8
DANMEN
  6
CONTINUOUS
 10
313.500015
 20
105.999908
 30
0.0
 40
1.5
 50
359.999964
 51
90.000001
  0
LINE
  5
2394D
  8
DANMEN
  6
CONTINUOUS
 10
314.5
 20
105.0
 30
0.0
 11
318.0
 21
105.0
 31
0.0
  0
LINE
  5
2394E
  8
DANMEN
  6
CONTINUOUS
 10
314.599991
 20
102.0
 30
0.0
 11
314.599991
 21
99.0
 31
0.0
  0
LINE
  5
23951
  8
DANMEN
  6
CONTINUOUS
 10
314.0
 20
99.0
 30
0.0
 11
314.599991
 21
99.0
 31
0.0
  0
LINE
  5
23952
  8
DANMEN
  6
CONTINUOUS
 10
314.0
 20
104.5
 30
0.0
 11
314.0
 21
102.0
 31
0.0
  0
ARC
  5
23954
  8
DANMEN
  6
CONTINUOUS
 10
314.5
 20
104.5
 30
0.0
 40
0.5
 50
89.999982
 51
180.000019
  0
LINE
  5
23955
  8
DANMEN
  6
CONTINUOUS
 10
314.0
 20
102.0
 30
0.0
 11
314.599991
 21
102.0
 31
0.0
  0
ARC
  5
23959
  8
DANMEN
  6
CONTINUOUS
 10
318.0
 20
104.5
 30
0.0
 40
0.5
 50
0.0
 51
89.999982
  0
LINE
  5
2395A
  8
DANMEN
  6
CONTINUOUS
 10
313.500015
 20
107.499908
 30
0.0
 11
311.000009
 21
107.499908
 31
0.0
  0
ARC
  5
2395B
  8
DANMEN
  6
CONTINUOUS
 10
311.000009
 20
108.999908
 30
0.0
 40
1.5
 50
180.0
 51
269.999982
  0
LINE
  5
2395C
  8
DANMEN
  6
DASHED
 10
324.5
 20
115.0
 30
0.0
 11
324.5
 21
35.0
 31
0.0
  0
LINE
  5
2395D
  8
DANMEN
  6
CONTINUOUS
 10
327.0
 20
115.0
 30
0.0
 11
327.0
 21
35.0
 31
0.0
  0
LINE
  5
2395E
  8
DANMEN
  6
CONTINUOUS
 10
343.999988
 20
70.499997
 30
0.0
 11
343.999988
 21
91.5
 31
0.0
  0
LINE
  5
2395F
  8
DANMEN
  6
CONTINUOUS
 10
347.5
 20
48.5
 30
0.0
 11
347.5
 21
101.5
 31
0.0
  0
LINE
  5
23960
  8
DANMEN
  6
CONTINUOUS
 10
360.999988
 20
48.5
 30
0.0
 11
360.999988
 21
101.5
 31
0.0
  0
LINE
  5
23961
  8
DANMEN
  6
CONTINUOUS
 10
330.0
 20
91.5
 30
0.0
 11
330.0
 21
70.499997
 31
0.0
  0
LINE
  5
23962
  8
DANMEN
  6
CONTINUOUS
 10
327.0
 20
45.5
 30
0.0
 11
327.0
 21
104.5
 31
0.0
  0
LINE
  5
23963
  8
DANMEN
  6
CONTINUOUS
 10
364.499988
 20
45.5
 30
0.0
 11
364.499988
 21
104.5
 31
0.0
  0
LINE
  5
23964
  8
DANMEN
  6
CONTINUOUS
 10
347.5
 20
48.5
 30
0.0
 11
360.999988
 21
48.5
 31
0.0
  0
LINE
  5
23965
  8
DANMEN
  6
CONTINUOUS
 10
345.0
 20
45.0
 30
0.0
 11
363.999988
 21
45.0
 31
0.0
  0
LINE
  5
23966
  8
DANMEN
  6
CONTINUOUS
 10
334.499991
 20
52.0
 30
0.0
 11
334.499991
 21
35.0
 31
0.0
  0
LINE
  5
23967
  8
DANMEN
  6
CONTINUOUS
 10
339.499979
 20
52.000015
 30
0.0
 11
339.499979
 21
35.0
 31
0.0
  0
LINE
  5
23968
  8
DANMEN
  6
CONTINUOUS
 10
334.999991
 20
52.0
 30
0.0
 11
334.999991
 21
35.0
 31
0.0
  0
LINE
  5
23969
  8
DANMEN
  6
CONTINUOUS
 10
338.999979
 20
52.000015
 30
0.0
 11
338.999979
 21
35.0
 31
0.0
  0
LINE
  5
2396A
  8
DANMEN
  6
CONTINUOUS
 10
345.0
 20
48.0
 30
0.0
 11
345.0
 21
51.0
 31
0.0
  0
LINE
  5
2396B
  8
DANMEN
  6
CONTINUOUS
 10
328.95
 20
48.0
 30
0.0
 11
328.95
 21
51.0
 31
0.0
  0
ARC
  5
2396C
  8
DANMEN
  6
CONTINUOUS
 10
341.000009
 20
41.000076
 30
0.0
 40
1.5
 50
90.000018
 51
180.0
  0
LINE
  5
2396D
  8
DANMEN
  6
CONTINUOUS
 10
329.000015
 20
45.0
 30
0.0
 11
329.000015
 21
35.0
 31
0.0
  0
LINE
  5
2396E
  8
DANMEN
  6
CONTINUOUS
 10
333.000006
 20
42.500076
 30
0.0
 11
330.500015
 21
42.500076
 31
0.0
  0
ARC
  5
2396F
  8
DANMEN
  6
CONTINUOUS
 10
330.500015
 20
44.000076
 30
0.0
 40
1.5
 50
180.0
 51
269.999982
  0
LINE
  5
23970
  8
DANMEN
  6
CONTINUOUS
 10
327.5
 20
45.0
 30
0.0
 11
329.0
 21
45.0
 31
0.0
  0
ARC
  5
23971
  8
DANMEN
  6
CONTINUOUS
 10
327.5
 20
45.5
 30
0.0
 40
0.5
 50
179.999964
 51
270.000001
  0
LINE
  5
23972
  8
DANMEN
  6
CONTINUOUS
 10
329.5
 20
45.5
 30
0.0
 11
329.5
 21
48.0
 31
0.0
  0
ARC
  5
23973
  8
DANMEN
  6
CONTINUOUS
 10
329.0
 20
45.5
 30
0.0
 40
0.5
 50
270.000018
 51
0.0
  0
LINE
  5
23974
  8
DANMEN
  6
CONTINUOUS
 10
328.95
 20
48.0
 30
0.0
 11
329.5
 21
48.0
 31
0.0
  0
ARC
  5
23975
  8
DANMEN
  6
CONTINUOUS
 10
333.000006
 20
41.000076
 30
0.0
 40
1.5
 50
0.000036
 51
90.000018
  0
LINE
  5
23977
  8
DANMEN
  6
CONTINUOUS
 10
349.0
 20
45.0
 30
0.0
 11
349.0
 21
35.0
 31
0.0
  0
LINE
  5
23978
  8
DANMEN
  6
CONTINUOUS
 10
344.999985
 20
45.000015
 30
0.0
 11
344.999985
 21
35.0
 31
0.0
  0
ARC
  5
23979
  8
DANMEN
  6
CONTINUOUS
 10
343.500015
 20
44.000076
 30
0.0
 40
1.5
 50
269.999999
 51
0.000036
  0
LINE
  5
2397A
  8
DANMEN
  6
CONTINUOUS
 10
343.500015
 20
42.500076
 30
0.0
 11
341.000009
 21
42.500076
 31
0.0
  0
ARC
  5
2397B
  8
DANMEN
  6
CONTINUOUS
 10
345.0
 20
45.5
 30
0.0
 40
0.5
 50
179.999964
 51
270.000001
  0
LINE
  5
2397C
  8
DANMEN
  6
CONTINUOUS
 10
344.5
 20
48.0
 30
0.0
 11
345.0
 21
48.0
 31
0.0
  0
LINE
  5
2397D
  8
DANMEN
  6
CONTINUOUS
 10
344.5
 20
45.5
 30
0.0
 11
344.5
 21
48.0
 31
0.0
  0
LINE
  5
2397E
  8
DANMEN
  6
CONTINUOUS
 10
329.5
 20
68.0
 30
0.0
 11
344.5
 21
68.0
 31
0.0
  0
LINE
  5
2397F
  8
DANMEN
  6
CONTINUOUS
 10
330.0
 20
70.499997
 30
0.0
 11
343.999988
 21
70.499997
 31
0.0
  0
LINE
  5
23980
  8
DANMEN
  6
CONTINUOUS
 10
329.5
 20
51.0
 30
0.0
 11
329.5
 21
68.0
 31
0.0
  0
LINE
  5
23981
  8
DANMEN
  6
CONTINUOUS
 10
328.95
 20
51.0
 30
0.0
 11
329.5
 21
51.0
 31
0.0
  0
LINE
  5
23982
  8
DANMEN
  6
CONTINUOUS
 10
334.499991
 20
52.000015
 30
0.0
 11
339.499994
 21
52.000015
 31
0.0
  0
LINE
  5
23983
  8
DANMEN
  6
CONTINUOUS
 10
344.5
 20
51.0
 30
0.0
 11
344.5
 21
68.0
 31
0.0
  0
LINE
  5
23984
  8
DANMEN
  6
CONTINUOUS
 10
344.5
 20
51.0
 30
0.0
 11
345.0
 21
51.0
 31
0.0
  0
LINE
  5
23985
  8
DANMEN
  6
CONTINUOUS
 10
358.0
 20
45.0
 30
0.0
 11
358.0
 21
35.0
 31
0.0
  0
ARC
  5
23986
  8
DANMEN
  6
CONTINUOUS
 10
363.999988
 20
45.5
 30
0.0
 40
0.5
 50
270.0
 51
0.0
  0
LINE
  5
23987
  8
DANMEN
  6
CONTINUOUS
 10
347.5
 20
101.5
 30
0.0
 11
360.999988
 21
101.5
 31
0.0
  0
LINE
  5
23988
  8
DANMEN
  6
CONTINUOUS
 10
345.0
 20
105.0
 30
0.0
 11
363.999988
 21
105.0
 31
0.0
  0
LINE
  5
23989
  8
DANMEN
  6
CONTINUOUS
 10
344.5
 20
94.0
 30
0.0
 11
344.5
 21
99.0
 31
0.0
  0
LINE
  5
2398A
  8
DANMEN
  6
CONTINUOUS
 10
329.5
 20
99.0
 30
0.0
 11
329.5
 21
94.0
 31
0.0
  0
LINE
  5
2398B
  8
DANMEN
  6
CONTINUOUS
 10
339.4
 20
88.4
 30
0.0
 11
340.539379
 21
88.4
 31
0.0
  0
LINE
  5
2398C
  8
DANMEN
  6
CONTINUOUS
 10
329.5
 20
94.0
 30
0.0
 11
344.5
 21
94.0
 31
0.0
  0
LINE
  5
2398D
  8
DANMEN
  6
CONTINUOUS
 10
333.7
 20
91.5
 30
0.0
 11
330.0
 21
91.5
 31
0.0
  0
ARC
  5
2398E
  8
DANMEN
  6
CONTINUOUS
 10
338.8
 20
90.053939
 30
0.0
 40
1.0
 50
294.624318
 51
0.0
  0
ARC
  5
2398F
  8
DANMEN
  6
CONTINUOUS
 10
339.3
 20
88.963068
 30
0.0
 40
0.2
 50
114.624318
 51
180.0
  0
ARC
  5
23990
  8
DANMEN
  6
CONTINUOUS
 10
336.7
 20
88.963068
 30
0.0
 40
0.2
 50
0.0
 51
65.375682
  0
ARC
  5
23991
  8
DANMEN
  6
CONTINUOUS
 10
337.2
 20
90.053939
 30
0.0
 40
1.0
 50
180.0
 51
245.375682
  0
ARC
  5
23992
  8
DANMEN
  6
CONTINUOUS
 10
336.7
 20
89.969694
 30
0.0
 40
2.0
 50
180.0
 51
231.706523
  0
LINE
  5
23993
  8
DANMEN
  6
CONTINUOUS
 10
335.460621
 20
88.4
 30
0.0
 11
336.6
 21
88.4
 31
0.0
  0
LINE
  5
23994
  8
DANMEN
  6
CONTINUOUS
 10
339.1
 20
88.7
 30
0.0
 11
339.1
 21
88.963068
 31
0.0
  0
LINE
  5
23995
  8
DANMEN
  6
CONTINUOUS
 10
336.9
 20
88.7
 30
0.0
 11
336.9
 21
88.963068
 31
0.0
  0
ARC
  5
23996
  8
DANMEN
  6
CONTINUOUS
 10
339.4
 20
88.7
 30
0.0
 40
0.3
 50
180.0
 51
270.0
  0
ARC
  5
23997
  8
DANMEN
  6
CONTINUOUS
 10
336.6
 20
88.7
 30
0.0
 40
0.3
 50
270.0
 51
0.0
  0
ARC
  5
23998
  8
DANMEN
  6
CONTINUOUS
 10
337.2
 20
91.3
 30
0.0
 40
1.0
 50
90.0
 51
180.0
  0
ARC
  5
23999
  8
DANMEN
  6
CONTINUOUS
 10
333.7
 20
90.5
 30
0.0
 40
1.0
 50
0.0
 51
90.0
  0
LINE
  5
2399A
  8
DANMEN
  6
CONTINUOUS
 10
334.7
 20
89.969694
 30
0.0
 11
334.7
 21
90.5
 31
0.0
  0
LINE
  5
2399B
  8
DANMEN
  6
CONTINUOUS
 10
336.2
 20
90.053939
 30
0.0
 11
336.2
 21
91.3
 31
0.0
  0
LINE
  5
2399C
  8
DANMEN
  6
CONTINUOUS
 10
339.8
 20
90.053939
 30
0.0
 11
339.8
 21
91.3
 31
0.0
  0
ARC
  5
2399D
  8
DANMEN
  6
CONTINUOUS
 10
338.8
 20
91.3
 30
0.0
 40
1.0
 50
0.0
 51
90.0
  0
LINE
  5
2399E
  8
DANMEN
  6
CONTINUOUS
 10
337.2
 20
92.3
 30
0.0
 11
338.8
 21
92.3
 31
0.0
  0
ARC
  5
2399F
  8
DANMEN
  6
CONTINUOUS
 10
339.3
 20
89.969694
 30
0.0
 40
2.0
 50
308.293477
 51
0.0
  0
ARC
  5
239A0
  8
DANMEN
  6
CONTINUOUS
 10
342.3
 20
90.5
 30
0.0
 40
1.0
 50
90.0
 51
180.0
  0
LINE
  5
239A1
  8
DANMEN
  6
CONTINUOUS
 10
341.3
 20
89.969694
 30
0.0
 11
341.3
 21
90.5
 31
0.0
  0
LINE
  5
239A2
  8
DANMEN
  6
CONTINUOUS
 10
342.3
 20
91.5
 30
0.0
 11
343.999988
 21
91.5
 31
0.0
  0
ARC
  5
239A3
  8
DANMEN
  6
CONTINUOUS
 10
341.000009
 20
108.999893
 30
0.0
 40
1.5
 50
180.0
 51
269.999982
  0
LINE
  5
239A4
  8
DANMEN
  6
CONTINUOUS
 10
329.000015
 20
104.999985
 30
0.0
 11
329.000015
 21
115.0
 31
0.0
  0
LINE
  5
239A5
  8
DANMEN
  6
CONTINUOUS
 10
339.500009
 20
98.0
 30
0.0
 11
339.500009
 21
115.0
 31
0.0
  0
LINE
  5
239A6
  8
DANMEN
  6
CONTINUOUS
 10
334.500021
 20
97.999985
 30
0.0
 11
334.500021
 21
115.0
 31
0.0
  0
LINE
  5
239A7
  8
DANMEN
  6
CONTINUOUS
 10
339.000009
 20
98.0
 30
0.0
 11
339.000009
 21
115.0
 31
0.0
  0
LINE
  5
239A8
  8
DANMEN
  6
CONTINUOUS
 10
335.000021
 20
97.999985
 30
0.0
 11
335.000021
 21
115.0
 31
0.0
  0
ARC
  5
239A9
  8
DANMEN
  6
CONTINUOUS
 10
330.500015
 20
105.999893
 30
0.0
 40
1.5
 50
90.000018
 51
180.0
  0
LINE
  5
239AA
  8
DANMEN
  6
CONTINUOUS
 10
328.95
 20
102.0
 30
0.0
 11
328.95
 21
99.0
 31
0.0
  0
LINE
  5
239AB
  8
DANMEN
  6
CONTINUOUS
 10
328.95
 20
99.0
 30
0.0
 11
329.5
 21
99.0
 31
0.0
  0
LINE
  5
239AC
  8
DANMEN
  6
CONTINUOUS
 10
327.5
 20
105.0
 30
0.0
 11
329.0
 21
105.0
 31
0.0
  0
ARC
  5
239AD
  8
DANMEN
  6
CONTINUOUS
 10
327.5
 20
104.5
 30
0.0
 40
0.5
 50
89.999982
 51
180.000019
  0
LINE
  5
239AE
  8
DANMEN
  6
CONTINUOUS
 10
329.5
 20
104.5
 30
0.0
 11
329.5
 21
102.0
 31
0.0
  0
ARC
  5
239AF
  8
DANMEN
  6
CONTINUOUS
 10
329.0
 20
104.5
 30
0.0
 40
0.5
 50
0.0
 51
89.999982
  0
LINE
  5
239B0
  8
DANMEN
  6
CONTINUOUS
 10
328.95
 20
102.0
 30
0.0
 11
329.5
 21
102.0
 31
0.0
  0
LINE
  5
239B1
  8
DANMEN
  6
CONTINUOUS
 10
339.500009
 20
97.999985
 30
0.0
 11
334.500006
 21
97.999985
 31
0.0
  0
LINE
  5
239B3
  8
DANMEN
  6
CONTINUOUS
 10
333.000006
 20
107.499893
 30
0.0
 11
330.500015
 21
107.499893
 31
0.0
  0
ARC
  5
239B4
  8
DANMEN
  6
CONTINUOUS
 10
333.000006
 20
108.999893
 30
0.0
 40
1.5
 50
269.999982
 51
359.999964
  0
LINE
  5
239B5
  8
DANMEN
  6
CONTINUOUS
 10
349.0
 20
115.0
 30
0.0
 11
349.0
 21
105.0
 31
0.0
  0
LINE
  5
239B6
  8
DANMEN
  6
CONTINUOUS
 10
344.999985
 20
105.0
 30
0.0
 11
344.999985
 21
115.0
 31
0.0
  0
ARC
  5
239B7
  8
DANMEN
  6
CONTINUOUS
 10
343.500015
 20
105.999893
 30
0.0
 40
1.5
 50
359.999964
 51
90.000001
  0
LINE
  5
239B8
  8
DANMEN
  6
CONTINUOUS
 10
345.0
 20
99.0
 30
0.0
 11
345.0
 21
102.0
 31
0.0
  0
LINE
  5
239B9
  8
DANMEN
  6
CONTINUOUS
 10
344.5
 20
99.0
 30
0.0
 11
345.0
 21
99.0
 31
0.0
  0
LINE
  5
239BA
  8
DANMEN
  6
CONTINUOUS
 10
344.5
 20
102.0
 30
0.0
 11
345.0
 21
102.0
 31
0.0
  0
ARC
  5
239BB
  8
DANMEN
  6
CONTINUOUS
 10
345.0
 20
104.5
 30
0.0
 40
0.5
 50
89.999999
 51
180.000036
  0
LINE
  5
239BC
  8
DANMEN
  6
CONTINUOUS
 10
344.5
 20
104.5
 30
0.0
 11
344.5
 21
102.0
 31
0.0
  0
LINE
  5
239BD
  8
DANMEN
  6
CONTINUOUS
 10
343.500015
 20
107.499893
 30
0.0
 11
341.000009
 21
107.499893
 31
0.0
  0
LINE
  5
239BE
  8
DANMEN
  6
CONTINUOUS
 10
358.0
 20
115.0
 30
0.0
 11
358.0
 21
105.0
 31
0.0
  0
ARC
  5
239BF
  8
DANMEN
  6
CONTINUOUS
 10
363.999988
 20
104.5
 30
0.0
 40
0.5
 50
0.0
 51
90.0
  0
ARC
  5
239C0
  8
SUNPO
  6
BYBLOCK
 10
48.404496
 20
115.0
 30
0.0
 40
0.145
 50
180.0
 51
0.0
  0
ARC
  5
239C1
  8
SUNPO
  6
BYBLOCK
 10
48.404496
 20
115.0
 30
0.0
 40
0.145
 50
0.0
 51
180.0
  0
LINE
  5
239C2
  8
SUNPO
  6
CONTINUOUS
 10
194.0
 20
115.0
 30
0.0
 11
170.0
 21
115.0
 31
0.0
  0
LINE
  5
239C3
  8
SUNPO
  6
CONTINUOUS
 10
118.404496
 20
115.0
 30
0.0
 11
124.904483
 21
115.0
 31
0.0
  0
LINE
  5
239C4
  8
SUNPO
  6
CONTINUOUS
 10
87.404496
 20
115.0
 30
0.0
 11
112.204483
 21
115.0
 31
0.0
  0
LINE
  5
239C5
  8
SUNPO
  6
CONTINUOUS
 10
79.404496
 20
115.0
 30
0.0
 11
55.404496
 21
115.0
 31
0.0
  0
LINE
  5
239C6
  8
SUNPO
  6
CONTINUOUS
 10
87.404496
 20
115.0
 30
0.0
 11
79.404496
 21
115.0
 31
0.0
  0
ARC
  5
239C7
  8
SUNPO
  6
BYBLOCK
 10
79.404496
 20
115.0
 30
0.0
 40
0.145
 50
0.0
 51
180.0
  0
ARC
  5
239C8
  8
SUNPO
  6
BYBLOCK
 10
79.404496
 20
115.0
 30
0.0
 40
0.145
 50
180.0
 51
0.0
  0
ARC
  5
239C9
  8
SUNPO
  6
BYBLOCK
 10
79.404496
 20
115.0
 30
0.0
 40
0.145
 50
180.0
 51
0.0
  0
ARC
  5
239CA
  8
SUNPO
  6
BYBLOCK
 10
79.404496
 20
115.0
 30
0.0
 40
0.145
 50
0.0
 51
180.0
  0
ARC
  5
239CB
  8
SUNPO
  6
BYBLOCK
 10
87.404496
 20
115.0
 30
0.0
 40
0.145
 50
0.0
 51
180.0
  0
ARC
  5
239CC
  8
SUNPO
  6
BYBLOCK
 10
87.404496
 20
115.0
 30
0.0
 40
0.145
 50
180.0
 51
0.0
  0
ARC
  5
239CD
  8
SUNPO
  6
BYBLOCK
 10
87.404496
 20
115.0
 30
0.0
 40
0.145
 50
180.0
 51
0.0
  0
ARC
  5
239CE
  8
SUNPO
  6
BYBLOCK
 10
87.404496
 20
115.0
 30
0.0
 40
0.145
 50
0.0
 51
180.0
  0
LINE
  5
239CF
  8
SUNPO
  6
CONTINUOUS
 10
112.204483
 20
106.5
 30
0.0
 11
112.204483
 21
115.0
 31
0.0
  0
LINE
  5
239D0
  8
SUNPO
  6
CONTINUOUS
 10
112.204483
 20
115.0
 30
0.0
 11
118.404496
 21
115.0
 31
0.0
  0
ARC
  5
239D1
  8
SUNPO
  6
BYBLOCK
 10
112.204483
 20
115.0
 30
0.0
 40
0.145
 50
0.0
 51
180.0
  0
ARC
  5
239D2
  8
SUNPO
  6
BYBLOCK
 10
112.204483
 20
115.0
 30
0.0
 40
0.145
 50
180.0
 51
0.0
  0
ARC
  5
239D3
  8
SUNPO
  6
BYBLOCK
 10
112.204483
 20
115.0
 30
0.0
 40
0.145
 50
180.0
 51
0.0
  0
ARC
  5
239D4
  8
SUNPO
  6
BYBLOCK
 10
112.204483
 20
115.0
 30
0.0
 40
0.145
 50
0.0
 51
180.0
  0
ARC
  5
239D5
  8
SUNPO
  6
BYBLOCK
 10
118.404496
 20
115.0
 30
0.0
 40
0.145
 50
180.0
 51
0.0
  0
ARC
  5
239D6
  8
SUNPO
  6
BYBLOCK
 10
118.404496
 20
115.0
 30
0.0
 40
0.145
 50
0.0
 51
180.0
  0
ARC
  5
239D7
  8
SUNPO
  6
BYBLOCK
 10
118.404496
 20
115.0
 30
0.0
 40
0.145
 50
0.0
 51
180.0
  0
ARC
  5
239D8
  8
SUNPO
  6
BYBLOCK
 10
118.404496
 20
115.0
 30
0.0
 40
0.145
 50
180.0
 51
0.0
  0
LINE
  5
239D9
  8
SUNPO
  6
CONTINUOUS
 10
133.404496
 20
105.0
 30
0.0
 11
133.404496
 21
45.0
 31
0.0
  0
ARC
  5
239DA
  8
SUNPO
  6
BYBLOCK
 10
133.404496
 20
45.0
 30
0.0
 40
0.145
 50
90.0
 51
270.0
  0
LINE
  5
239DB
  8
SUNPO
  6
CONTINUOUS
 10
129.904496
 20
45.0
 30
0.0
 11
133.404496
 21
45.0
 31
0.0
  0
ARC
  5
239DC
  8
SUNPO
  6
BYBLOCK
 10
133.404496
 20
45.0
 30
0.0
 40
0.145
 50
270.0
 51
90.0
  0
TEXT
  5
239DD
  8
SUNPO
  6
CONTINUOUS
 10
132.404496
 20
73.125
 30
0.0
 40
2.5
  1
60
 50
90.0
  0
LINE
  5
239DE
  8
SUNPO
  6
CONTINUOUS
 10
124.904483
 20
106.0
 30
0.0
 11
124.904483
 21
115.0
 31
0.0
  0
LINE
  5
239DF
  8
SUNPO
  6
CONTINUOUS
 10
127.904496
 20
105.0
 30
0.0
 11
133.404496
 21
105.0
 31
0.0
  0
ARC
  5
239E0
  8
SUNPO
  6
BYBLOCK
 10
133.404496
 20
105.0
 30
0.0
 40
0.145
 50
90.0
 51
270.0
  0
ARC
  5
239E1
  8
SUNPO
  6
BYBLOCK
 10
133.404496
 20
105.0
 30
0.0
 40
0.145
 50
270.0
 51
90.0
  0
LINE
  5
239E2
  8
SUNPO
  6
CONTINUOUS
 10
124.904483
 20
115.0
 30
0.0
 11
134.224483
 21
115.0
 31
0.0
  0
ARC
  5
239E3
  8
SUNPO
  6
BYBLOCK
 10
124.904483
 20
115.0
 30
0.0
 40
0.145
 50
0.0
 51
180.0
  0
ARC
  5
239E4
  8
SUNPO
  6
BYBLOCK
 10
124.904483
 20
115.0
 30
0.0
 40
0.145
 50
180.0
 51
0.0
  0
LINE
  5
239E5
  8
SUNPO
  6
CONTINUOUS
 10
170.0
 20
115.0
 30
0.0
 11
163.0
 21
115.0
 31
0.0
  0
ARC
  5
239E6
  8
SUNPO
  6
BYBLOCK
 10
163.0
 20
115.0
 30
0.0
 40
0.145
 50
180.0
 51
0.0
  0
ARC
  5
239E7
  8
SUNPO
  6
BYBLOCK
 10
163.0
 20
115.0
 30
0.0
 40
0.145
 50
0.0
 51
180.0
  0
ARC
  5
239E8
  8
SUNPO
  6
BYBLOCK
 10
170.0
 20
115.0
 30
0.0
 40
0.145
 50
180.0
 51
0.0
  0
ARC
  5
239E9
  8
SUNPO
  6
BYBLOCK
 10
170.0
 20
115.0
 30
0.0
 40
0.145
 50
0.0
 51
180.0
  0
ARC
  5
239EA
  8
SUNPO
  6
BYBLOCK
 10
170.0
 20
115.0
 30
0.0
 40
0.145
 50
0.0
 51
180.0
  0
ARC
  5
239EB
  8
SUNPO
  6
BYBLOCK
 10
170.0
 20
115.0
 30
0.0
 40
0.145
 50
180.0
 51
0.0
  0
LINE
  5
239EC
  8
SUNPO
  6
CONTINUOUS
 10
248.0
 20
105.0
 30
0.0
 11
248.0
 21
45.0
 31
0.0
  0
ARC
  5
239ED
  8
SUNPO
  6
BYBLOCK
 10
248.0
 20
45.0
 30
0.0
 40
0.145
 50
270.0
 51
90.0
  0
ARC
  5
239EE
  8
SUNPO
  6
BYBLOCK
 10
248.0
 20
45.0
 30
0.0
 40
0.145
 50
90.0
 51
270.0
  0
LINE
  5
239EF
  8
SUNPO
  6
CONTINUOUS
 10
244.5
 20
45.0
 30
0.0
 11
248.0
 21
45.0
 31
0.0
  0
LINE
  5
239F0
  8
SUNPO
  6
CONTINUOUS
 10
202.0
 20
115.0
 30
0.0
 11
226.799988
 21
115.0
 31
0.0
  0
LINE
  5
239F1
  8
SUNPO
  6
CONTINUOUS
 10
202.0
 20
115.0
 30
0.0
 11
194.0
 21
115.0
 31
0.0
  0
ARC
  5
239F2
  8
SUNPO
  6
BYBLOCK
 10
194.0
 20
115.0
 30
0.0
 40
0.145
 50
0.0
 51
180.0
  0
ARC
  5
239F3
  8
SUNPO
  6
BYBLOCK
 10
194.0
 20
115.0
 30
0.0
 40
0.145
 50
180.0
 51
0.0
  0
ARC
  5
239F4
  8
SUNPO
  6
BYBLOCK
 10
194.0
 20
115.0
 30
0.0
 40
0.145
 50
180.0
 51
0.0
  0
ARC
  5
239F5
  8
SUNPO
  6
BYBLOCK
 10
194.0
 20
115.0
 30
0.0
 40
0.145
 50
0.0
 51
180.0
  0
ARC
  5
239F6
  8
SUNPO
  6
BYBLOCK
 10
202.0
 20
115.0
 30
0.0
 40
0.145
 50
0.0
 51
180.0
  0
ARC
  5
239F7
  8
SUNPO
  6
BYBLOCK
 10
202.0
 20
115.0
 30
0.0
 40
0.145
 50
180.0
 51
0.0
  0
ARC
  5
239F8
  8
SUNPO
  6
BYBLOCK
 10
202.0
 20
115.0
 30
0.0
 40
0.145
 50
180.0
 51
0.0
  0
ARC
  5
239F9
  8
SUNPO
  6
BYBLOCK
 10
202.0
 20
115.0
 30
0.0
 40
0.145
 50
0.0
 51
180.0
  0
TEXT
  5
239FA
  8
SUNPO
  6
CONTINUOUS
 10
247.0
 20
73.125
 30
0.0
 40
2.5
  1
60
 50
90.0
  0
LINE
  5
239FB
  8
SUNPO
  6
CONTINUOUS
 10
233.0
 20
115.0
 30
0.0
 11
239.499988
 21
115.0
 31
0.0
  0
LINE
  5
239FC
  8
SUNPO
  6
CONTINUOUS
 10
226.799988
 20
106.5
 30
0.0
 11
226.799988
 21
115.0
 31
0.0
  0
LINE
  5
239FD
  8
SUNPO
  6
CONTINUOUS
 10
226.799988
 20
115.0
 30
0.0
 11
233.0
 21
115.0
 31
0.0
  0
ARC
  5
239FE
  8
SUNPO
  6
BYBLOCK
 10
226.799988
 20
115.0
 30
0.0
 40
0.145
 50
0.0
 51
180.0
  0
ARC
  5
239FF
  8
SUNPO
  6
BYBLOCK
 10
226.799988
 20
115.0
 30
0.0
 40
0.145
 50
180.0
 51
0.0
  0
ARC
  5
23A00
  8
SUNPO
  6
BYBLOCK
 10
226.799988
 20
115.0
 30
0.0
 40
0.145
 50
180.0
 51
0.0
  0
ARC
  5
23A01
  8
SUNPO
  6
BYBLOCK
 10
226.799988
 20
115.0
 30
0.0
 40
0.145
 50
0.0
 51
180.0
  0
ARC
  5
23A02
  8
SUNPO
  6
BYBLOCK
 10
233.0
 20
115.0
 30
0.0
 40
0.145
 50
180.0
 51
0.0
  0
ARC
  5
23A03
  8
SUNPO
  6
BYBLOCK
 10
233.0
 20
115.0
 30
0.0
 40
0.145
 50
0.0
 51
180.0
  0
ARC
  5
23A04
  8
SUNPO
  6
BYBLOCK
 10
233.0
 20
115.0
 30
0.0
 40
0.145
 50
0.0
 51
180.0
  0
ARC
  5
23A05
  8
SUNPO
  6
BYBLOCK
 10
233.0
 20
115.0
 30
0.0
 40
0.145
 50
180.0
 51
0.0
  0
LINE
  5
23A06
  8
SUNPO
  6
CONTINUOUS
 10
239.499988
 20
106.0
 30
0.0
 11
239.499988
 21
115.0
 31
0.0
  0
LINE
  5
23A07
  8
SUNPO
  6
CONTINUOUS
 10
242.5
 20
105.0
 30
0.0
 11
248.0
 21
105.0
 31
0.0
  0
ARC
  5
23A08
  8
SUNPO
  6
BYBLOCK
 10
248.0
 20
105.0
 30
0.0
 40
0.145
 50
270.0
 51
90.0
  0
ARC
  5
23A09
  8
SUNPO
  6
BYBLOCK
 10
248.0
 20
105.0
 30
0.0
 40
0.145
 50
90.0
 51
270.0
  0
LINE
  5
23A0A
  8
SUNPO
  6
CONTINUOUS
 10
239.499988
 20
115.0
 30
0.0
 11
248.819988
 21
115.0
 31
0.0
  0
ARC
  5
23A0B
  8
SUNPO
  6
BYBLOCK
 10
239.499988
 20
115.0
 30
0.0
 40
0.145
 50
0.0
 51
180.0
  0
ARC
  5
23A0C
  8
SUNPO
  6
BYBLOCK
 10
239.499988
 20
115.0
 30
0.0
 40
0.145
 50
180.0
 51
0.0
  0
LINE
  5
23A0D
  8
SUNPO
  6
CONTINUOUS
 10
295.0
 20
115.0
 30
0.0
 11
288.0
 21
115.0
 31
0.0
  0
ARC
  5
23A0E
  8
SUNPO
  6
BYBLOCK
 10
288.0
 20
115.0
 30
0.0
 40
0.145
 50
180.0
 51
0.0
  0
ARC
  5
23A0F
  8
SUNPO
  6
BYBLOCK
 10
288.0
 20
115.0
 30
0.0
 40
0.145
 50
0.0
 51
180.0
  0
ARC
  5
23A10
  8
SUNPO
  6
BYBLOCK
 10
295.0
 20
115.0
 30
0.0
 40
0.145
 50
180.0
 51
0.0
  0
ARC
  5
23A11
  8
SUNPO
  6
BYBLOCK
 10
295.0
 20
115.0
 30
0.0
 40
0.145
 50
0.0
 51
180.0
  0
ARC
  5
23A12
  8
SUNPO
  6
BYBLOCK
 10
295.0
 20
115.0
 30
0.0
 40
0.145
 50
0.0
 51
180.0
  0
ARC
  5
23A13
  8
SUNPO
  6
BYBLOCK
 10
295.0
 20
115.0
 30
0.0
 40
0.145
 50
180.0
 51
0.0
  0
LINE
  5
23A14
  8
SUNPO
  6
CONTINUOUS
 10
375.0
 20
105.0
 30
0.0
 11
375.0
 21
45.0
 31
0.0
  0
LINE
  5
23A15
  8
SUNPO
  6
CONTINUOUS
 10
369.5
 20
45.0
 30
0.0
 11
375.0
 21
45.0
 31
0.0
  0
ARC
  5
23A16
  8
SUNPO
  6
BYBLOCK
 10
375.0
 20
45.0
 30
0.0
 40
0.145
 50
270.0
 51
90.0
  0
ARC
  5
23A17
  8
SUNPO
  6
BYBLOCK
 10
375.0
 20
45.0
 30
0.0
 40
0.145
 50
90.0
 51
270.0
  0
LINE
  5
23A18
  8
SUNPO
  6
CONTINUOUS
 10
327.0
 20
115.0
 30
0.0
 11
351.799988
 21
115.0
 31
0.0
  0
LINE
  5
23A19
  8
SUNPO
  6
CONTINUOUS
 10
327.0
 20
115.0
 30
0.0
 11
319.0
 21
115.0
 31
0.0
  0
ARC
  5
23A1A
  8
SUNPO
  6
BYBLOCK
 10
319.0
 20
115.0
 30
0.0
 40
0.145
 50
0.0
 51
180.0
  0
ARC
  5
23A1B
  8
SUNPO
  6
BYBLOCK
 10
319.0
 20
115.0
 30
0.0
 40
0.145
 50
180.0
 51
0.0
  0
ARC
  5
23A1C
  8
SUNPO
  6
BYBLOCK
 10
319.0
 20
115.0
 30
0.0
 40
0.145
 50
180.0
 51
0.0
  0
ARC
  5
23A1D
  8
SUNPO
  6
BYBLOCK
 10
319.0
 20
115.0
 30
0.0
 40
0.145
 50
0.0
 51
180.0
  0
ARC
  5
23A1E
  8
SUNPO
  6
BYBLOCK
 10
327.0
 20
115.0
 30
0.0
 40
0.145
 50
0.0
 51
180.0
  0
ARC
  5
23A1F
  8
SUNPO
  6
BYBLOCK
 10
327.0
 20
115.0
 30
0.0
 40
0.145
 50
180.0
 51
0.0
  0
ARC
  5
23A20
  8
SUNPO
  6
BYBLOCK
 10
327.0
 20
115.0
 30
0.0
 40
0.145
 50
180.0
 51
0.0
  0
ARC
  5
23A21
  8
SUNPO
  6
BYBLOCK
 10
327.0
 20
115.0
 30
0.0
 40
0.145
 50
0.0
 51
180.0
  0
TEXT
  5
23A22
  8
SUNPO
  6
CONTINUOUS
 10
374.0
 20
73.125
 30
0.0
 40
2.5
  1
60
 50
90.0
  0
LINE
  5
23A23
  8
SUNPO
  6
CONTINUOUS
 10
364.499988
 20
115.0
 30
0.0
 11
373.819988
 21
115.0
 31
0.0
  0
LINE
  5
23A24
  8
SUNPO
  6
CONTINUOUS
 10
351.799988
 20
106.5
 30
0.0
 11
351.799988
 21
115.0
 31
0.0
  0
LINE
  5
23A25
  8
SUNPO
  6
CONTINUOUS
 10
364.499988
 20
106.0
 30
0.0
 11
364.499988
 21
115.0
 31
0.0
  0
LINE
  5
23A26
  8
SUNPO
  6
CONTINUOUS
 10
358.0
 20
115.0
 30
0.0
 11
364.499988
 21
115.0
 31
0.0
  0
LINE
  5
23A27
  8
SUNPO
  6
CONTINUOUS
 10
351.799988
 20
115.0
 30
0.0
 11
358.0
 21
115.0
 31
0.0
  0
ARC
  5
23A28
  8
SUNPO
  6
BYBLOCK
 10
351.799988
 20
115.0
 30
0.0
 40
0.145
 50
180.0
 51
0.0
  0
ARC
  5
23A29
  8
SUNPO
  6
BYBLOCK
 10
351.799988
 20
115.0
 30
0.0
 40
0.145
 50
0.0
 51
180.0
  0
ARC
  5
23A2A
  8
SUNPO
  6
BYBLOCK
 10
351.799988
 20
115.0
 30
0.0
 40
0.145
 50
0.0
 51
180.0
  0
ARC
  5
23A2B
  8
SUNPO
  6
BYBLOCK
 10
351.799988
 20
115.0
 30
0.0
 40
0.145
 50
180.0
 51
0.0
  0
ARC
  5
23A2C
  8
SUNPO
  6
BYBLOCK
 10
358.0
 20
115.0
 30
0.0
 40
0.145
 50
0.0
 51
180.0
  0
ARC
  5
23A2D
  8
SUNPO
  6
BYBLOCK
 10
358.0
 20
115.0
 30
0.0
 40
0.145
 50
180.0
 51
0.0
  0
ARC
  5
23A2E
  8
SUNPO
  6
BYBLOCK
 10
358.0
 20
115.0
 30
0.0
 40
0.145
 50
180.0
 51
0.0
  0
ARC
  5
23A2F
  8
SUNPO
  6
BYBLOCK
 10
358.0
 20
115.0
 30
0.0
 40
0.145
 50
0.0
 51
180.0
  0
ARC
  5
23A30
  8
SUNPO
  6
BYBLOCK
 10
364.499988
 20
115.0
 30
0.0
 40
0.145
 50
0.0
 51
180.0
  0
ARC
  5
23A31
  8
SUNPO
  6
BYBLOCK
 10
364.499988
 20
115.0
 30
0.0
 40
0.145
 50
180.0
 51
0.0
  0
LINE
  5
23A32
  8
SUNPO
  6
CONTINUOUS
 10
369.5
 20
105.0
 30
0.0
 11
375.0
 21
105.0
 31
0.0
  0
ARC
  5
23A33
  8
SUNPO
  6
BYBLOCK
 10
375.0
 20
105.0
 30
0.0
 40
0.145
 50
90.0
 51
270.0
  0
ARC
  5
23A34
  8
SUNPO
  6
BYBLOCK
 10
375.0
 20
105.0
 30
0.0
 40
0.145
 50
270.0
 51
90.0
  0
LINE
  5
23A35
  8
SUNPO
  6
CONTINUOUS
 10
319.0
 20
241.354646
 30
0.0
 11
295.0
 21
241.354646
 31
0.0
  0
ARC
  5
23A36
  8
SUNPO
  6
BYBLOCK
 10
55.404496
 20
241.110107
 30
0.0
 40
0.145
 50
180.0
 51
0.0
  0
ARC
  5
23A37
  8
SUNPO
  6
BYBLOCK
 10
55.404496
 20
241.110107
 30
0.0
 40
0.145
 50
0.0
 51
180.0
  0
ARC
  5
23A38
  8
SUNPO
  6
BYBLOCK
 10
55.404496
 20
241.110107
 30
0.0
 40
0.145
 50
0.0
 51
180.0
  0
ARC
  5
23A39
  8
SUNPO
  6
BYBLOCK
 10
55.404496
 20
241.110107
 30
0.0
 40
0.145
 50
180.0
 51
0.0
  0
LINE
  5
23A3A
  8
SUNPO
  6
CONTINUOUS
 10
55.404496
 20
241.110107
 30
0.0
 11
48.404496
 21
241.110107
 31
0.0
  0
LINE
  5
23A3B
  8
DANMEN
  6
CONTINUOUS
 10
194.0
 20
241.354646
 30
0.0
 11
194.0
 21
161.354646
 31
0.0
  0
LINE
  5
23A3C
  8
DANMEN
  6
CONTINUOUS
 10
196.5
 20
241.354646
 30
0.0
 11
196.5
 21
161.354646
 31
0.0
  0
LINE
  5
23A3D
  8
DANMEN
  6
DASHED
 10
199.5
 20
241.354646
 30
0.0
 11
199.5
 21
161.354646
 31
0.0
  0
LINE
  5
23A3E
  8
DANMEN
  6
CONTINUOUS
 10
295.0
 20
241.354646
 30
0.0
 11
295.0
 21
161.354646
 31
0.0
  0
LINE
  5
23A3F
  8
DANMEN
  6
CONTINUOUS
 10
319.0
 20
241.354646
 30
0.0
 11
319.0
 21
161.354646
 31
0.0
  0
LINE
  5
23A40
  8
DANMEN
  6
CONTINUOUS
 10
288.0
 20
241.354646
 30
0.0
 11
288.0
 21
161.354646
 31
0.0
  0
LINE
  5
23A41
  8
DANMEN
  6
CONTINUOUS
 10
321.5
 20
241.354646
 30
0.0
 11
321.5
 21
161.354646
 31
0.0
  0
LINE
  5
23A42
  8
DANMEN
  6
CONTINUOUS
 10
233.0
 20
241.354646
 30
0.0
 11
233.0
 21
161.354646
 31
0.0
  0
LINE
  5
23A43
  8
DANMEN
  6
CONTINUOUS
 10
202.0
 20
241.354646
 30
0.0
 11
202.0
 21
161.354646
 31
0.0
  0
LINE
  5
23A44
  8
DANMEN
  6
CONTINUOUS
 10
220.799988
 20
198.854643
 30
0.0
 11
220.799988
 21
217.854646
 31
0.0
  0
LINE
  5
23A45
  8
DANMEN
  6
CONTINUOUS
 10
205.5
 20
217.854646
 30
0.0
 11
205.5
 21
198.854643
 31
0.0
  0
LINE
  5
23A46
  8
DANMEN
  6
CONTINUOUS
 10
202.0
 20
171.854646
 30
0.0
 11
202.0
 21
230.854646
 31
0.0
  0
LINE
  5
23A47
  8
DANMEN
  6
CONTINUOUS
 10
226.799988
 20
171.854646
 30
0.0
 11
226.799988
 21
230.854646
 31
0.0
  0
LINE
  5
23A48
  8
DANMEN
  6
CONTINUOUS
 10
313.499991
 20
218.404649
 30
0.0
 11
313.499991
 21
189.304643
 31
0.0
  0
LINE
  5
23A49
  8
DANMEN
  6
CONTINUOUS
 10
295.5
 20
171.854646
 30
0.0
 11
295.5
 21
230.854646
 31
0.0
  0
LINE
  5
23A4A
  8
DANMEN
  6
CONTINUOUS
 10
318.5
 20
171.854646
 30
0.0
 11
318.5
 21
230.854646
 31
0.0
  0
LINE
  5
23A4B
  8
DANMEN
  6
CONTINUOUS
 10
300.0
 20
184.304643
 30
0.0
 11
300.0
 21
213.654646
 31
0.0
  0
LINE
  5
23A4C
  8
DANMEN
  6
CONTINUOUS
 10
224.0
 20
171.354646
 30
0.0
 11
224.0
 21
161.354646
 31
0.0
  0
LINE
  5
23A4D
  8
DANMEN
  6
CONTINUOUS
 10
219.999985
 20
171.354661
 30
0.0
 11
219.999985
 21
161.354646
 31
0.0
  0
LINE
  5
23A4E
  8
DANMEN
  6
CONTINUOUS
 10
204.000015
 20
171.354646
 30
0.0
 11
204.000015
 21
161.354646
 31
0.0
  0
LINE
  5
23A4F
  8
DANMEN
  6
CONTINUOUS
 10
209.499991
 20
178.354646
 30
0.0
 11
209.499991
 21
161.354646
 31
0.0
  0
LINE
  5
23A50
  8
DANMEN
  6
CONTINUOUS
 10
214.499979
 20
178.354661
 30
0.0
 11
214.499979
 21
161.354646
 31
0.0
  0
LINE
  5
23A51
  8
DANMEN
  6
CONTINUOUS
 10
209.999991
 20
178.354646
 30
0.0
 11
209.999991
 21
161.354646
 31
0.0
  0
LINE
  5
23A52
  8
DANMEN
  6
CONTINUOUS
 10
213.999979
 20
178.354661
 30
0.0
 11
213.999979
 21
161.354646
 31
0.0
  0
LINE
  5
23A53
  8
DANMEN
  6
CONTINUOUS
 10
220.0
 20
171.354646
 30
0.0
 11
226.299988
 21
171.354646
 31
0.0
  0
LINE
  5
23A54
  8
DANMEN
  6
CONTINUOUS
 10
220.8
 20
174.354646
 30
0.0
 11
220.8
 21
196.354646
 31
0.0
  0
LINE
  5
23A55
  8
DANMEN
  6
CONTINUOUS
 10
205.5
 20
179.696785
 30
0.0
 11
205.5
 21
196.354646
 31
0.0
  0
ARC
  5
23A56
  8
DANMEN
  6
CONTINUOUS
 10
208.000006
 20
167.354722
 30
0.0
 40
1.5
 50
0.000036
 51
90.000018
  0
LINE
  5
23A57
  8
DANMEN
  6
CONTINUOUS
 10
203.95
 20
174.354646
 30
0.0
 11
203.95
 21
177.354646
 31
0.0
  0
ARC
  5
23A58
  8
DANMEN
  6
CONTINUOUS
 10
205.500015
 20
170.354722
 30
0.0
 40
1.5
 50
180.0
 51
269.999982
  0
LINE
  5
23A59
  8
DANMEN
  6
CONTINUOUS
 10
208.000006
 20
168.854722
 30
0.0
 11
205.500015
 21
168.854722
 31
0.0
  0
LINE
  5
23A5E
  8
DANMEN
  6
CONTINUOUS
 10
202.5
 20
171.354646
 30
0.0
 11
204.0
 21
171.354646
 31
0.0
  0
ARC
  5
23A5F
  8
DANMEN
  6
CONTINUOUS
 10
202.5
 20
171.854646
 30
0.0
 40
0.5
 50
179.999964
 51
270.000001
  0
LINE
  5
23A60
  8
DANMEN
  6
CONTINUOUS
 10
204.5
 20
171.854646
 30
0.0
 11
204.5
 21
174.354646
 31
0.0
  0
ARC
  5
23A61
  8
DANMEN
  6
CONTINUOUS
 10
204.0
 20
171.854646
 30
0.0
 40
0.5
 50
270.000018
 51
0.0
  0
LINE
  5
23A62
  8
DANMEN
  6
CONTINUOUS
 10
203.95
 20
174.354646
 30
0.0
 11
204.5
 21
174.354646
 31
0.0
  0
LINE
  5
23A63
  8
DANMEN
  6
CONTINUOUS
 10
205.290415
 20
179.084213
 30
0.0
 11
203.95
 21
177.354646
 31
0.0
  0
ARC
  5
23A65
  8
DANMEN
  6
CONTINUOUS
 10
204.5
 20
179.696785
 30
0.0
 40
1.0
 50
322.224312
 51
0.0
  0
LINE
  5
23A66
  8
DANMEN
  6
CONTINUOUS
 10
218.500015
 20
168.854722
 30
0.0
 11
216.000009
 21
168.854722
 31
0.0
  0
ARC
  5
23A67
  8
DANMEN
  6
CONTINUOUS
 10
216.000009
 20
167.354722
 30
0.0
 40
1.5
 50
90.000018
 51
180.0
  0
ARC
  5
23A69
  8
DANMEN
  6
CONTINUOUS
 10
218.500015
 20
170.354722
 30
0.0
 40
1.5
 50
269.999999
 51
0.000036
  0
LINE
  5
23A6D
  8
DANMEN
  6
CONTINUOUS
 10
219.5
 20
171.854646
 30
0.0
 11
219.5
 21
174.354646
 31
0.0
  0
ARC
  5
23A6E
  8
DANMEN
  6
CONTINUOUS
 10
220.0
 20
171.854646
 30
0.0
 40
0.5
 50
179.999964
 51
270.000001
  0
LINE
  5
23A6F
  8
DANMEN
  6
CONTINUOUS
 10
219.5
 20
174.354646
 30
0.0
 11
220.8
 21
174.354646
 31
0.0
  0
LINE
  5
23A70
  8
DANMEN
  6
CONTINUOUS
 10
209.499991
 20
178.354661
 30
0.0
 11
214.499994
 21
178.354661
 31
0.0
  0
LINE
  5
23A71
  8
DANMEN
  6
CONTINUOUS
 10
205.5
 20
196.354646
 30
0.0
 11
220.8
 21
196.354646
 31
0.0
  0
LINE
  5
23A72
  8
DANMEN
  6
CONTINUOUS
 10
205.5
 20
198.854643
 30
0.0
 11
220.799988
 21
198.854643
 31
0.0
  0
ARC
  5
23A7A
  8
DANMEN
  6
CONTINUOUS
 10
226.299988
 20
171.854646
 30
0.0
 40
0.5
 50
270.000018
 51
0.0
  0
LINE
  5
23A7B
  8
DANMEN
  6
CONTINUOUS
 10
314.999985
 20
171.354646
 30
0.0
 11
314.999985
 21
161.354646
 31
0.0
  0
LINE
  5
23A7C
  8
DANMEN
  6
CONTINUOUS
 10
299.000015
 20
171.354646
 30
0.0
 11
299.000015
 21
161.354646
 31
0.0
  0
LINE
  5
23A7D
  8
DANMEN
  6
CONTINUOUS
 10
309.500009
 20
178.354646
 30
0.0
 11
309.500009
 21
161.354646
 31
0.0
  0
LINE
  5
23A7E
  8
DANMEN
  6
CONTINUOUS
 10
304.500021
 20
178.354661
 30
0.0
 11
304.500021
 21
161.354646
 31
0.0
  0
LINE
  5
23A7F
  8
DANMEN
  6
CONTINUOUS
 10
309.000009
 20
178.354646
 30
0.0
 11
309.000009
 21
161.354646
 31
0.0
  0
LINE
  5
23A80
  8
DANMEN
  6
CONTINUOUS
 10
305.000021
 20
178.354661
 30
0.0
 11
305.000021
 21
161.354646
 31
0.0
  0
LINE
  5
23A81
  8
DANMEN
  6
CONTINUOUS
 10
303.7
 20
184.304643
 30
0.0
 11
303.7
 21
188.304643
 31
0.0
  0
LINE
  5
23A82
  8
DANMEN
  6
CONTINUOUS
 10
309.500009
 20
178.354661
 30
0.0
 11
304.500006
 21
178.354661
 31
0.0
  0
LINE
  5
23A83
  8
DANMEN
  6
CONTINUOUS
 10
305.65
 20
187.354646
 30
0.0
 11
314.0
 21
187.354646
 31
0.0
  0
LINE
  5
23A84
  8
DANMEN
  6
CONTINUOUS
 10
299.400009
 20
174.354646
 30
0.0
 11
299.400009
 21
177.354646
 31
0.0
  0
ARC
  5
23A85
  8
DANMEN
  6
CONTINUOUS
 10
300.500015
 20
170.354737
 30
0.0
 40
1.5
 50
180.0
 51
269.999982
  0
LINE
  5
23A86
  8
DANMEN
  6
CONTINUOUS
 10
300.0
 20
174.354646
 30
0.0
 11
299.400009
 21
174.354646
 31
0.0
  0
ARC
  5
23A87
  8
DANMEN
  6
CONTINUOUS
 10
299.5
 20
171.854646
 30
0.0
 40
0.5
 50
270.000018
 51
0.0
  0
ARC
  5
23A88
  8
DANMEN
  6
CONTINUOUS
 10
296.0
 20
171.854646
 30
0.0
 40
0.5
 50
179.999964
 51
270.000001
  0
LINE
  5
23A8A
  8
DANMEN
  6
CONTINUOUS
 10
296.0
 20
171.354646
 30
0.0
 11
299.5
 21
171.354646
 31
0.0
  0
ARC
  5
23A8C
  8
DANMEN
  6
CONTINUOUS
 10
303.000006
 20
167.354737
 30
0.0
 40
1.5
 50
0.000036
 51
90.000018
  0
LINE
  5
23A8D
  8
DANMEN
  6
CONTINUOUS
 10
303.000006
 20
168.854737
 30
0.0
 11
300.500015
 21
168.854737
 31
0.0
  0
LINE
  5
23A8E
  8
DANMEN
  6
CONTINUOUS
 10
300.0
 20
171.854646
 30
0.0
 11
300.0
 21
174.354646
 31
0.0
  0
LINE
  5
23A91
  8
DANMEN
  6
CONTINUOUS
 10
299.400009
 20
177.354646
 30
0.0
 11
300.0
 21
177.354646
 31
0.0
  0
LINE
  5
23A93
  8
DANMEN
  6
CONTINUOUS
 10
300.0
 20
177.354646
 30
0.0
 11
300.0
 21
182.354643
 31
0.0
  0
LINE
  5
23A95
  8
DANMEN
  6
CONTINUOUS
 10
300.0
 20
182.354643
 30
0.0
 11
304.65
 21
182.354643
 31
0.0
  0
LINE
  5
23A96
  8
DANMEN
  6
CONTINUOUS
 10
300.0
 20
184.304643
 30
0.0
 11
303.7
 21
184.304643
 31
0.0
  0
ARC
  5
23A9A
  8
DANMEN
  6
CONTINUOUS
 10
304.65
 20
183.354643
 30
0.0
 40
1.0
 50
270.0
 51
0.0
  0
LINE
  5
23A9B
  8
DANMEN
  6
CONTINUOUS
 10
305.65
 20
183.354646
 30
0.0
 11
305.65
 21
187.354646
 31
0.0
  0
LINE
  5
23A9E
  8
DANMEN
  6
CONTINUOUS
 10
314.599991
 20
174.354646
 30
0.0
 11
314.599991
 21
177.354646
 31
0.0
  0
LINE
  5
23A9F
  8
DANMEN
  6
CONTINUOUS
 10
314.5
 20
171.354646
 30
0.0
 11
318.0
 21
171.354646
 31
0.0
  0
ARC
  5
23AA0
  8
DANMEN
  6
CONTINUOUS
 10
313.500015
 20
170.354737
 30
0.0
 40
1.5
 50
269.999999
 51
0.000036
  0
LINE
  5
23AA1
  8
DANMEN
  6
CONTINUOUS
 10
313.500015
 20
168.854737
 30
0.0
 11
311.000009
 21
168.854737
 31
0.0
  0
ARC
  5
23AA2
  8
DANMEN
  6
CONTINUOUS
 10
311.000009
 20
167.354737
 30
0.0
 40
1.5
 50
90.000018
 51
180.0
  0
LINE
  5
23AA3
  8
DANMEN
  6
CONTINUOUS
 10
314.0
 20
171.854646
 30
0.0
 11
314.0
 21
174.354646
 31
0.0
  0
ARC
  5
23AA5
  8
DANMEN
  6
CONTINUOUS
 10
314.5
 20
171.854646
 30
0.0
 40
0.5
 50
179.999964
 51
270.000001
  0
LINE
  5
23AA6
  8
DANMEN
  6
CONTINUOUS
 10
314.0
 20
174.354646
 30
0.0
 11
314.599991
 21
174.354646
 31
0.0
  0
ARC
  5
23AAA
  8
DANMEN
  6
CONTINUOUS
 10
318.0
 20
171.854646
 30
0.0
 40
0.5
 50
270.000018
 51
0.0
  0
LINE
  5
23AAB
  8
DANMEN
  6
CONTINUOUS
 10
314.0
 20
177.354646
 30
0.0
 11
314.0
 21
187.354646
 31
0.0
  0
LINE
  5
23AAE
  8
DANMEN
  6
CONTINUOUS
 10
314.0
 20
177.354646
 30
0.0
 11
314.599991
 21
177.354646
 31
0.0
  0
LINE
  5
23AB0
  8
DANMEN
  6
CONTINUOUS
 10
304.7
 20
189.304643
 30
0.0
 11
313.499991
 21
189.304643
 31
0.0
  0
ARC
  5
23AB1
  8
DANMEN
  6
CONTINUOUS
 10
304.7
 20
188.304643
 30
0.0
 40
1.0
 50
89.999982
 51
180.000019
  0
LINE
  5
23AB4
  8
DANMEN
  6
CONTINUOUS
 10
220.0
 20
231.354646
 30
0.0
 11
226.299988
 21
231.354646
 31
0.0
  0
LINE
  5
23AB5
  8
DANMEN
  6
CONTINUOUS
 10
224.0
 20
241.354646
 30
0.0
 11
224.0
 21
231.354646
 31
0.0
  0
LINE
  5
23AB6
  8
DANMEN
  6
CONTINUOUS
 10
204.000015
 20
231.35463
 30
0.0
 11
204.000015
 21
241.354646
 31
0.0
  0
LINE
  5
23AB7
  8
DANMEN
  6
CONTINUOUS
 10
219.999985
 20
231.354646
 30
0.0
 11
219.999985
 21
241.354646
 31
0.0
  0
LINE
  5
23AB8
  8
DANMEN
  6
CONTINUOUS
 10
214.500009
 20
224.354646
 30
0.0
 11
214.500009
 21
241.354646
 31
0.0
  0
LINE
  5
23AB9
  8
DANMEN
  6
CONTINUOUS
 10
209.500021
 20
224.35463
 30
0.0
 11
209.500021
 21
241.354646
 31
0.0
  0
LINE
  5
23ABA
  8
DANMEN
  6
CONTINUOUS
 10
214.000009
 20
224.354646
 30
0.0
 11
214.000009
 21
241.354646
 31
0.0
  0
LINE
  5
23ABB
  8
DANMEN
  6
CONTINUOUS
 10
210.000021
 20
224.35463
 30
0.0
 11
210.000021
 21
241.354646
 31
0.0
  0
ARC
  5
23ABC
  8
DANMEN
  6
CONTINUOUS
 10
216.000009
 20
235.354539
 30
0.0
 40
1.5
 50
180.0
 51
269.999982
  0
ARC
  5
23ABD
  8
DANMEN
  6
CONTINUOUS
 10
208.000006
 20
235.354539
 30
0.0
 40
1.5
 50
269.999982
 51
359.999964
  0
ARC
  5
23ABE
  8
DANMEN
  6
CONTINUOUS
 10
205.500015
 20
232.354539
 30
0.0
 40
1.5
 50
90.000018
 51
180.0
  0
ARC
  5
23ABF
  8
DANMEN
  6
CONTINUOUS
 10
218.500015
 20
232.354539
 30
0.0
 40
1.5
 50
359.999964
 51
90.000001
  0
LINE
  5
23AC0
  8
DANMEN
  6
CONTINUOUS
 10
205.5
 20
220.354646
 30
0.0
 11
220.8
 21
220.354646
 31
0.0
  0
ARC
  5
23AC1
  8
DANMEN
  6
CONTINUOUS
 10
208.7
 20
216.854646
 30
0.0
 40
1.0
 50
0.0
 51
90.0
  0
LINE
  5
23AC2
  8
DANMEN
  6
CONTINUOUS
 10
205.5
 20
223.012506
 30
0.0
 11
205.5
 21
220.354646
 31
0.0
  0
LINE
  5
23AC6
  8
DANMEN
  6
CONTINUOUS
 10
205.5
 20
217.854646
 30
0.0
 11
208.7
 21
217.854646
 31
0.0
  0
LINE
  5
23AC9
  8
DANMEN
  6
CONTINUOUS
 10
203.95
 20
228.354646
 30
0.0
 11
203.95
 21
225.354646
 31
0.0
  0
LINE
  5
23ACA
  8
DANMEN
  6
CONTINUOUS
 10
205.290415
 20
223.625078
 30
0.0
 11
203.95
 21
225.354646
 31
0.0
  0
ARC
  5
23ACC
  8
DANMEN
  6
CONTINUOUS
 10
204.5
 20
223.012506
 30
0.0
 40
1.0
 50
0.0
 51
37.775688
  0
LINE
  5
23AD2
  8
DANMEN
  6
CONTINUOUS
 10
202.5
 20
231.354646
 30
0.0
 11
204.0
 21
231.354646
 31
0.0
  0
ARC
  5
23AD3
  8
DANMEN
  6
CONTINUOUS
 10
202.5
 20
230.854646
 30
0.0
 40
0.5
 50
89.999982
 51
180.000019
  0
LINE
  5
23AD4
  8
DANMEN
  6
CONTINUOUS
 10
204.5
 20
230.854646
 30
0.0
 11
204.5
 21
228.354646
 31
0.0
  0
ARC
  5
23AD5
  8
DANMEN
  6
CONTINUOUS
 10
204.0
 20
230.854646
 30
0.0
 40
0.5
 50
0.0
 51
89.999982
  0
LINE
  5
23AD6
  8
DANMEN
  6
CONTINUOUS
 10
203.95
 20
228.354646
 30
0.0
 11
204.5
 21
228.354646
 31
0.0
  0
LINE
  5
23AD7
  8
DANMEN
  6
CONTINUOUS
 10
208.000006
 20
233.854539
 30
0.0
 11
205.500015
 21
233.854539
 31
0.0
  0
LINE
  5
23AD8
  8
DANMEN
  6
CONTINUOUS
 10
220.8
 20
220.354646
 30
0.0
 11
220.8
 21
228.354646
 31
0.0
  0
LINE
  5
23AD9
  8
DANMEN
  6
CONTINUOUS
 10
217.3
 20
217.854646
 30
0.0
 11
220.799988
 21
217.854646
 31
0.0
  0
LINE
  5
23ADA
  8
DANMEN
  6
CONTINUOUS
 10
216.3
 20
216.324339
 30
0.0
 11
216.3
 21
216.854646
 31
0.0
  0
LINE
  5
23ADB
  8
DANMEN
  6
CONTINUOUS
 10
214.8
 20
216.408585
 30
0.0
 11
214.8
 21
217.654646
 31
0.0
  0
LINE
  5
23ADC
  8
DANMEN
  6
CONTINUOUS
 10
209.7
 20
216.324339
 30
0.0
 11
209.7
 21
216.854646
 31
0.0
  0
LINE
  5
23ADD
  8
DANMEN
  6
CONTINUOUS
 10
211.2
 20
216.408585
 30
0.0
 11
211.2
 21
217.654646
 31
0.0
  0
ARC
  5
23ADE
  8
DANMEN
  6
CONTINUOUS
 10
211.7
 20
216.324339
 30
0.0
 40
2.0
 50
180.0
 51
231.706523
  0
ARC
  5
23ADF
  8
DANMEN
  6
CONTINUOUS
 10
211.7
 20
215.317714
 30
0.0
 40
0.2
 50
0.0
 51
65.375682
  0
ARC
  5
23AE0
  8
DANMEN
  6
CONTINUOUS
 10
212.2
 20
216.408585
 30
0.0
 40
1.0
 50
180.0
 51
245.375682
  0
LINE
  5
23AE1
  8
DANMEN
  6
CONTINUOUS
 10
211.9
 20
215.054646
 30
0.0
 11
211.9
 21
215.317714
 31
0.0
  0
LINE
  5
23AE2
  8
DANMEN
  6
CONTINUOUS
 10
210.460621
 20
214.754646
 30
0.0
 11
211.6
 21
214.754646
 31
0.0
  0
ARC
  5
23AE3
  8
DANMEN
  6
CONTINUOUS
 10
211.6
 20
215.054646
 30
0.0
 40
0.3
 50
270.0
 51
0.0
  0
LINE
  5
23AE4
  8
DANMEN
  6
CONTINUOUS
 10
214.1
 20
215.054646
 30
0.0
 11
214.1
 21
215.317714
 31
0.0
  0
ARC
  5
23AE5
  8
DANMEN
  6
CONTINUOUS
 10
213.8
 20
216.408585
 30
0.0
 40
1.0
 50
294.624318
 51
0.0
  0
ARC
  5
23AE6
  8
DANMEN
  6
CONTINUOUS
 10
214.3
 20
215.317714
 30
0.0
 40
0.2
 50
114.624318
 51
180.0
  0
ARC
  5
23AE7
  8
DANMEN
  6
CONTINUOUS
 10
214.3
 20
216.324339
 30
0.0
 40
2.0
 50
308.293477
 51
0.0
  0
LINE
  5
23AE8
  8
DANMEN
  6
CONTINUOUS
 10
214.4
 20
214.754646
 30
0.0
 11
215.539379
 21
214.754646
 31
0.0
  0
ARC
  5
23AE9
  8
DANMEN
  6
CONTINUOUS
 10
214.4
 20
215.054646
 30
0.0
 40
0.3
 50
180.0
 51
270.0
  0
LINE
  5
23AEA
  8
DANMEN
  6
CONTINUOUS
 10
212.2
 20
218.654646
 30
0.0
 11
213.8
 21
218.654646
 31
0.0
  0
ARC
  5
23AEC
  8
DANMEN
  6
CONTINUOUS
 10
212.2
 20
217.654646
 30
0.0
 40
1.0
 50
90.0
 51
180.0
  0
ARC
  5
23AEF
  8
DANMEN
  6
CONTINUOUS
 10
213.8
 20
217.654646
 30
0.0
 40
1.0
 50
0.0
 51
90.0
  0
ARC
  5
23AF1
  8
DANMEN
  6
CONTINUOUS
 10
217.3
 20
216.854646
 30
0.0
 40
1.0
 50
90.0
 51
180.0
  0
LINE
  5
23AF5
  8
DANMEN
  6
CONTINUOUS
 10
218.500015
 20
233.854539
 30
0.0
 11
216.000009
 21
233.854539
 31
0.0
  0
LINE
  5
23AF6
  8
DANMEN
  6
CONTINUOUS
 10
214.500009
 20
224.35463
 30
0.0
 11
209.500006
 21
224.35463
 31
0.0
  0
LINE
  5
23AFB
  8
DANMEN
  6
CONTINUOUS
 10
219.5
 20
228.354646
 30
0.0
 11
220.8
 21
228.354646
 31
0.0
  0
LINE
  5
23AFC
  8
DANMEN
  6
CONTINUOUS
 10
219.5
 20
230.854646
 30
0.0
 11
219.5
 21
228.354646
 31
0.0
  0
ARC
  5
23AFD
  8
DANMEN
  6
CONTINUOUS
 10
220.0
 20
230.854646
 30
0.0
 40
0.5
 50
89.999999
 51
180.000036
  0
ARC
  5
23AFF
  8
DANMEN
  6
CONTINUOUS
 10
226.299988
 20
230.854646
 30
0.0
 40
0.5
 50
0.0
 51
89.999982
  0
LINE
  5
23B00
  8
DANMEN
  6
CONTINUOUS
 10
314.999985
 20
231.354646
 30
0.0
 11
314.999985
 21
241.354646
 31
0.0
  0
LINE
  5
23B01
  8
DANMEN
  6
CONTINUOUS
 10
299.000015
 20
231.354631
 30
0.0
 11
299.000015
 21
241.354646
 31
0.0
  0
LINE
  5
23B02
  8
DANMEN
  6
CONTINUOUS
 10
309.500009
 20
224.354646
 30
0.0
 11
309.500009
 21
241.354646
 31
0.0
  0
LINE
  5
23B03
  8
DANMEN
  6
CONTINUOUS
 10
304.500021
 20
224.354631
 30
0.0
 11
304.500021
 21
241.354646
 31
0.0
  0
LINE
  5
23B04
  8
DANMEN
  6
CONTINUOUS
 10
309.000009
 20
224.354646
 30
0.0
 11
309.000009
 21
241.354646
 31
0.0
  0
LINE
  5
23B05
  8
DANMEN
  6
CONTINUOUS
 10
305.000021
 20
224.354631
 30
0.0
 11
305.000021
 21
241.354646
 31
0.0
  0
ARC
  5
23B06
  8
DANMEN
  6
CONTINUOUS
 10
311.000009
 20
235.354554
 30
0.0
 40
1.5
 50
180.0
 51
269.999982
  0
ARC
  5
23B07
  8
DANMEN
  6
CONTINUOUS
 10
303.000006
 20
235.354554
 30
0.0
 40
1.5
 50
269.999982
 51
359.999964
  0
ARC
  5
23B08
  8
DANMEN
  6
CONTINUOUS
 10
300.500015
 20
232.354554
 30
0.0
 40
1.5
 50
90.000018
 51
180.0
  0
ARC
  5
23B09
  8
DANMEN
  6
CONTINUOUS
 10
313.500015
 20
232.354554
 30
0.0
 40
1.5
 50
359.999964
 51
90.000001
  0
LINE
  5
23B0A
  8
DANMEN
  6
CONTINUOUS
 10
309.500009
 20
224.354631
 30
0.0
 11
304.500006
 21
224.354631
 31
0.0
  0
LINE
  5
23B0B
  8
DANMEN
  6
CONTINUOUS
 10
306.2
 20
220.354646
 30
0.0
 11
314.0
 21
220.354646
 31
0.0
  0
ARC
  5
23B0C
  8
DANMEN
  6
CONTINUOUS
 10
307.7
 20
217.654646
 30
0.0
 40
1.0
 50
0.0
 51
90.0
  0
LINE
  5
23B0D
  8
DANMEN
  6
CONTINUOUS
 10
300.0
 20
215.604646
 30
0.0
 11
300.0
 21
225.354646
 31
0.0
  0
LINE
  5
23B0E
  8
DANMEN
  6
CONTINUOUS
 10
303.7
 20
217.854646
 30
0.0
 11
303.7
 21
215.604646
 31
0.0
  0
LINE
  5
23B0F
  8
DANMEN
  6
CONTINUOUS
 10
305.2
 20
216.154646
 30
0.0
 11
305.2
 21
217.654646
 31
0.0
  0
LINE
  5
23B10
  8
DANMEN
  6
CONTINUOUS
 10
300.0
 20
215.604646
 30
0.0
 11
303.7
 21
215.604646
 31
0.0
  0
LINE
  5
23B11
  8
DANMEN
  6
CONTINUOUS
 10
300.0
 20
213.654646
 30
0.0
 11
306.833705
 21
213.654646
 31
0.0
  0
ARC
  5
23B15
  8
DANMEN
  6
CONTINUOUS
 10
306.833705
 20
214.404646
 30
0.0
 40
0.75
 50
270.0
 51
90.0
  0
ARC
  5
23B16
  8
DANMEN
  6
CONTINUOUS
 10
306.2
 20
216.154646
 30
0.0
 40
1.0
 50
180.0
 51
270.0
  0
LINE
  5
23B17
  8
DANMEN
  6
CONTINUOUS
 10
306.2
 20
215.154646
 30
0.0
 11
306.833705
 21
215.154646
 31
0.0
  0
ARC
  5
23B18
  8
DANMEN
  6
CONTINUOUS
 10
306.2
 20
217.854646
 30
0.0
 40
2.5
 50
89.999982
 51
180.000019
  0
ARC
  5
23B1B
  8
DANMEN
  6
CONTINUOUS
 10
306.2
 20
217.654646
 30
0.0
 40
1.0
 50
90.0
 51
180.0
  0
LINE
  5
23B1C
  8
DANMEN
  6
CONTINUOUS
 10
306.2
 20
218.654646
 30
0.0
 11
307.7
 21
218.654646
 31
0.0
  0
LINE
  5
23B1E
  8
DANMEN
  6
CONTINUOUS
 10
300.0
 20
225.354646
 30
0.0
 11
299.400009
 21
225.354646
 31
0.0
  0
LINE
  5
23B1F
  8
DANMEN
  6
CONTINUOUS
 10
300.0
 20
228.354646
 30
0.0
 11
299.400009
 21
228.354646
 31
0.0
  0
ARC
  5
23B20
  8
DANMEN
  6
CONTINUOUS
 10
299.5
 20
230.854646
 30
0.0
 40
0.5
 50
0.0
 51
89.999982
  0
LINE
  5
23B21
  8
DANMEN
  6
CONTINUOUS
 10
299.400009
 20
228.354646
 30
0.0
 11
299.400009
 21
225.354646
 31
0.0
  0
ARC
  5
23B22
  8
DANMEN
  6
CONTINUOUS
 10
296.0
 20
230.854646
 30
0.0
 40
0.5
 50
89.999982
 51
180.000019
  0
LINE
  5
23B24
  8
DANMEN
  6
CONTINUOUS
 10
296.0
 20
231.354646
 30
0.0
 11
299.5
 21
231.354646
 31
0.0
  0
LINE
  5
23B27
  8
DANMEN
  6
CONTINUOUS
 10
303.000006
 20
233.854554
 30
0.0
 11
300.500015
 21
233.854554
 31
0.0
  0
LINE
  5
23B28
  8
DANMEN
  6
CONTINUOUS
 10
300.0
 20
230.854646
 30
0.0
 11
300.0
 21
228.354646
 31
0.0
  0
LINE
  5
23B2C
  8
DANMEN
  6
CONTINUOUS
 10
314.0
 20
220.354646
 30
0.0
 11
314.0
 21
225.354646
 31
0.0
  0
ARC
  5
23B2D
  8
DANMEN
  6
CONTINUOUS
 10
309.45
 20
217.020941
 30
0.0
 40
0.75
 50
180.0
 51
0.0
  0
LINE
  5
23B2E
  8
DANMEN
  6
CONTINUOUS
 10
311.199999
 20
218.404649
 30
0.0
 11
313.499991
 21
218.404649
 31
0.0
  0
LINE
  5
23B2F
  8
DANMEN
  6
CONTINUOUS
 10
310.2
 20
217.020941
 30
0.0
 11
310.2
 21
217.404649
 31
0.0
  0
LINE
  5
23B30
  8
DANMEN
  6
CONTINUOUS
 10
308.7
 20
217.020941
 30
0.0
 11
308.7
 21
217.654646
 31
0.0
  0
ARC
  5
23B31
  8
DANMEN
  6
CONTINUOUS
 10
311.2
 20
217.404649
 30
0.0
 40
1.0
 50
90.0
 51
180.0
  0
LINE
  5
23B35
  8
DANMEN
  6
CONTINUOUS
 10
314.5
 20
231.354646
 30
0.0
 11
318.0
 21
231.354646
 31
0.0
  0
LINE
  5
23B36
  8
DANMEN
  6
CONTINUOUS
 10
314.599991
 20
228.354646
 30
0.0
 11
314.599991
 21
225.354646
 31
0.0
  0
LINE
  5
23B39
  8
DANMEN
  6
CONTINUOUS
 10
314.0
 20
225.354646
 30
0.0
 11
314.599991
 21
225.354646
 31
0.0
  0
LINE
  5
23B3A
  8
DANMEN
  6
CONTINUOUS
 10
313.500015
 20
233.854554
 30
0.0
 11
311.000009
 21
233.854554
 31
0.0
  0
LINE
  5
23B3B
  8
DANMEN
  6
CONTINUOUS
 10
314.0
 20
230.854646
 30
0.0
 11
314.0
 21
228.354646
 31
0.0
  0
ARC
  5
23B3D
  8
DANMEN
  6
CONTINUOUS
 10
314.5
 20
230.854646
 30
0.0
 40
0.5
 50
89.999982
 51
180.000019
  0
LINE
  5
23B3E
  8
DANMEN
  6
CONTINUOUS
 10
314.0
 20
228.354646
 30
0.0
 11
314.599991
 21
228.354646
 31
0.0
  0
ARC
  5
23B42
  8
DANMEN
  6
CONTINUOUS
 10
318.0
 20
230.854646
 30
0.0
 40
0.5
 50
0.0
 51
89.999982
  0
LINE
  5
23B43
  8
DANMEN
  6
DASHED
 10
324.5
 20
241.354646
 30
0.0
 11
324.5
 21
161.354646
 31
0.0
  0
LINE
  5
23B44
  8
DANMEN
  6
CONTINUOUS
 10
327.0
 20
241.354646
 30
0.0
 11
327.0
 21
161.354646
 31
0.0
  0
LINE
  5
23B45
  8
DANMEN
  6
CONTINUOUS
 10
358.0
 20
241.354646
 30
0.0
 11
358.0
 21
161.354646
 31
0.0
  0
LINE
  5
23B46
  8
DANMEN
  6
CONTINUOUS
 10
345.799988
 20
198.854643
 30
0.0
 11
345.799988
 21
217.854646
 31
0.0
  0
LINE
  5
23B47
  8
DANMEN
  6
CONTINUOUS
 10
330.5
 20
217.854646
 30
0.0
 11
330.5
 21
198.854643
 31
0.0
  0
LINE
  5
23B48
  8
DANMEN
  6
CONTINUOUS
 10
327.0
 20
171.854646
 30
0.0
 11
327.0
 21
230.854646
 31
0.0
  0
LINE
  5
23B49
  8
DANMEN
  6
CONTINUOUS
 10
351.799988
 20
171.854646
 30
0.0
 11
351.799988
 21
230.854646
 31
0.0
  0
LINE
  5
23B4A
  8
DANMEN
  6
CONTINUOUS
 10
338.999979
 20
178.354661
 30
0.0
 11
338.999979
 21
161.354646
 31
0.0
  0
LINE
  5
23B4B
  8
DANMEN
  6
CONTINUOUS
 10
334.999991
 20
178.354646
 30
0.0
 11
334.999991
 21
161.354646
 31
0.0
  0
LINE
  5
23B4C
  8
DANMEN
  6
CONTINUOUS
 10
339.499979
 20
178.354661
 30
0.0
 11
339.499979
 21
161.354646
 31
0.0
  0
LINE
  5
23B4D
  8
DANMEN
  6
CONTINUOUS
 10
334.499991
 20
178.354646
 30
0.0
 11
334.499991
 21
161.354646
 31
0.0
  0
LINE
  5
23B4E
  8
DANMEN
  6
CONTINUOUS
 10
329.000015
 20
171.354646
 30
0.0
 11
329.000015
 21
161.354646
 31
0.0
  0
LINE
  5
23B4F
  8
DANMEN
  6
CONTINUOUS
 10
344.999985
 20
171.354661
 30
0.0
 11
344.999985
 21
161.354646
 31
0.0
  0
LINE
  5
23B50
  8
DANMEN
  6
CONTINUOUS
 10
349.0
 20
171.354646
 30
0.0
 11
349.0
 21
161.354646
 31
0.0
  0
LINE
  5
23B51
  8
DANMEN
  6
CONTINUOUS
 10
345.8
 20
174.354646
 30
0.0
 11
345.8
 21
196.354646
 31
0.0
  0
LINE
  5
23B52
  8
DANMEN
  6
CONTINUOUS
 10
330.5
 20
179.696785
 30
0.0
 11
330.5
 21
196.354646
 31
0.0
  0
ARC
  5
23B53
  8
DANMEN
  6
CONTINUOUS
 10
341.000009
 20
167.354722
 30
0.0
 40
1.5
 50
90.000018
 51
180.0
  0
LINE
  5
23B54
  8
DANMEN
  6
CONTINUOUS
 10
328.95
 20
174.354646
 30
0.0
 11
328.95
 21
177.354646
 31
0.0
  0
LINE
  5
23B55
  8
DANMEN
  6
CONTINUOUS
 10
333.000006
 20
168.854722
 30
0.0
 11
330.500015
 21
168.854722
 31
0.0
  0
ARC
  5
23B56
  8
DANMEN
  6
CONTINUOUS
 10
330.500015
 20
170.354722
 30
0.0
 40
1.5
 50
180.0
 51
269.999982
  0
LINE
  5
23B57
  8
DANMEN
  6
CONTINUOUS
 10
327.5
 20
171.354646
 30
0.0
 11
329.0
 21
171.354646
 31
0.0
  0
ARC
  5
23B59
  8
DANMEN
  6
CONTINUOUS
 10
327.5
 20
171.854646
 30
0.0
 40
0.5
 50
179.999964
 51
270.000001
  0
LINE
  5
23B5D
  8
DANMEN
  6
CONTINUOUS
 10
329.5
 20
171.854646
 30
0.0
 11
329.5
 21
174.354646
 31
0.0
  0
ARC
  5
23B5E
  8
DANMEN
  6
CONTINUOUS
 10
329.0
 20
171.854646
 30
0.0
 40
0.5
 50
270.000018
 51
0.0
  0
LINE
  5
23B5F
  8
DANMEN
  6
CONTINUOUS
 10
328.95
 20
174.354646
 30
0.0
 11
329.5
 21
174.354646
 31
0.0
  0
ARC
  5
23B60
  8
DANMEN
  6
CONTINUOUS
 10
333.000006
 20
167.354722
 30
0.0
 40
1.5
 50
0.000036
 51
90.000018
  0
LINE
  5
23B63
  8
DANMEN
  6
CONTINUOUS
 10
330.290415
 20
179.084213
 30
0.0
 11
328.95
 21
177.354646
 31
0.0
  0
ARC
  5
23B64
  8
DANMEN
  6
CONTINUOUS
 10
329.5
 20
179.696785
 30
0.0
 40
1.0
 50
322.224312
 51
0.0
  0
LINE
  5
23B65
  8
DANMEN
  6
CONTINUOUS
 10
334.499991
 20
178.354661
 30
0.0
 11
339.499994
 21
178.354661
 31
0.0
  0
LINE
  5
23B66
  8
DANMEN
  6
CONTINUOUS
 10
345.0
 20
171.354646
 30
0.0
 11
351.299988
 21
171.354646
 31
0.0
  0
ARC
  5
23B67
  8
DANMEN
  6
CONTINUOUS
 10
343.500015
 20
170.354722
 30
0.0
 40
1.5
 50
269.999999
 51
0.000036
  0
LINE
  5
23B68
  8
DANMEN
  6
CONTINUOUS
 10
343.500015
 20
168.854722
 30
0.0
 11
341.000009
 21
168.854722
 31
0.0
  0
ARC
  5
23B69
  8
DANMEN
  6
CONTINUOUS
 10
345.0
 20
171.854646
 30
0.0
 40
0.5
 50
179.999964
 51
270.000001
  0
LINE
  5
23B6A
  8
DANMEN
  6
CONTINUOUS
 10
344.5
 20
174.354646
 30
0.0
 11
345.8
 21
174.354646
 31
0.0
  0
LINE
  5
23B6D
  8
DANMEN
  6
CONTINUOUS
 10
344.5
 20
171.854646
 30
0.0
 11
344.5
 21
174.354646
 31
0.0
  0
ARC
  5
23B70
  8
DANMEN
  6
CONTINUOUS
 10
351.299988
 20
171.854646
 30
0.0
 40
0.5
 50
270.000018
 51
0.0
  0
LINE
  5
23B71
  8
DANMEN
  6
CONTINUOUS
 10
330.5
 20
196.354646
 30
0.0
 11
345.8
 21
196.354646
 31
0.0
  0
LINE
  5
23B72
  8
DANMEN
  6
CONTINUOUS
 10
330.5
 20
198.854643
 30
0.0
 11
345.799988
 21
198.854643
 31
0.0
  0
LINE
  5
23B79
  8
DANMEN
  6
CONTINUOUS
 10
335.000021
 20
224.35463
 30
0.0
 11
335.000021
 21
241.354646
 31
0.0
  0
LINE
  5
23B7A
  8
DANMEN
  6
CONTINUOUS
 10
339.000009
 20
224.354646
 30
0.0
 11
339.000009
 21
241.354646
 31
0.0
  0
LINE
  5
23B7B
  8
DANMEN
  6
CONTINUOUS
 10
334.500021
 20
224.35463
 30
0.0
 11
334.500021
 21
241.354646
 31
0.0
  0
LINE
  5
23B7C
  8
DANMEN
  6
CONTINUOUS
 10
339.500009
 20
224.354646
 30
0.0
 11
339.500009
 21
241.354646
 31
0.0
  0
LINE
  5
23B7D
  8
DANMEN
  6
CONTINUOUS
 10
344.999985
 20
231.354646
 30
0.0
 11
344.999985
 21
241.354646
 31
0.0
  0
LINE
  5
23B7E
  8
DANMEN
  6
CONTINUOUS
 10
329.000015
 20
231.35463
 30
0.0
 11
329.000015
 21
241.354646
 31
0.0
  0
LINE
  5
23B7F
  8
DANMEN
  6
CONTINUOUS
 10
349.0
 20
241.354646
 30
0.0
 11
349.0
 21
231.354646
 31
0.0
  0
ARC
  5
23B80
  8
DANMEN
  6
CONTINUOUS
 10
341.000009
 20
235.354539
 30
0.0
 40
1.5
 50
180.0
 51
269.999982
  0
ARC
  5
23B81
  8
DANMEN
  6
CONTINUOUS
 10
333.000006
 20
235.354539
 30
0.0
 40
1.5
 50
269.999982
 51
359.999964
  0
ARC
  5
23B82
  8
DANMEN
  6
CONTINUOUS
 10
330.500015
 20
232.354539
 30
0.0
 40
1.5
 50
90.000018
 51
180.0
  0
ARC
  5
23B83
  8
DANMEN
  6
CONTINUOUS
 10
343.500015
 20
232.354539
 30
0.0
 40
1.5
 50
359.999964
 51
90.000001
  0
LINE
  5
23B84
  8
DANMEN
  6
CONTINUOUS
 10
330.5
 20
220.354646
 30
0.0
 11
345.8
 21
220.354646
 31
0.0
  0
LINE
  5
23B85
  8
DANMEN
  6
CONTINUOUS
 10
339.4
 20
214.754646
 30
0.0
 11
340.539379
 21
214.754646
 31
0.0
  0
LINE
  5
23B86
  8
DANMEN
  6
CONTINUOUS
 10
330.5
 20
223.012506
 30
0.0
 11
330.5
 21
220.354646
 31
0.0
  0
LINE
  5
23B87
  8
DANMEN
  6
CONTINUOUS
 10
330.5
 20
217.854646
 30
0.0
 11
333.7
 21
217.854646
 31
0.0
  0
LINE
  5
23B8C
  8
DANMEN
  6
CONTINUOUS
 10
339.8
 20
216.408585
 30
0.0
 11
339.8
 21
217.654646
 31
0.0
  0
LINE
  5
23B8D
  8
DANMEN
  6
CONTINUOUS
 10
334.7
 20
216.324339
 30
0.0
 11
334.7
 21
216.854646
 31
0.0
  0
LINE
  5
23B8E
  8
DANMEN
  6
CONTINUOUS
 10
336.2
 20
216.408585
 30
0.0
 11
336.2
 21
217.654646
 31
0.0
  0
ARC
  5
23B8F
  8
DANMEN
  6
CONTINUOUS
 10
337.2
 20
216.408585
 30
0.0
 40
1.0
 50
180.0
 51
245.375682
  0
LINE
  5
23B90
  8
DANMEN
  6
CONTINUOUS
 10
335.460621
 20
214.754646
 30
0.0
 11
336.6
 21
214.754646
 31
0.0
  0
ARC
  5
23B91
  8
DANMEN
  6
CONTINUOUS
 10
336.7
 20
216.324339
 30
0.0
 40
2.0
 50
180.0
 51
231.706523
  0
LINE
  5
23B92
  8
DANMEN
  6
CONTINUOUS
 10
339.1
 20
215.054646
 30
0.0
 11
339.1
 21
215.317714
 31
0.0
  0
ARC
  5
23B93
  8
DANMEN
  6
CONTINUOUS
 10
338.8
 20
216.408585
 30
0.0
 40
1.0
 50
294.624318
 51
0.0
  0
ARC
  5
23B94
  8
DANMEN
  6
CONTINUOUS
 10
339.3
 20
215.317714
 30
0.0
 40
0.2
 50
114.624318
 51
180.0
  0
ARC
  5
23B95
  8
DANMEN
  6
CONTINUOUS
 10
336.7
 20
215.317714
 30
0.0
 40
0.2
 50
0.0
 51
65.375682
  0
LINE
  5
23B96
  8
DANMEN
  6
CONTINUOUS
 10
336.9
 20
215.054646
 30
0.0
 11
336.9
 21
215.317714
 31
0.0
  0
ARC
  5
23B97
  8
DANMEN
  6
CONTINUOUS
 10
339.4
 20
215.054646
 30
0.0
 40
0.3
 50
180.0
 51
270.0
  0
ARC
  5
23B98
  8
DANMEN
  6
CONTINUOUS
 10
336.6
 20
215.054646
 30
0.0
 40
0.3
 50
270.0
 51
0.0
  0
ARC
  5
23B99
  8
DANMEN
  6
CONTINUOUS
 10
337.2
 20
217.654646
 30
0.0
 40
1.0
 50
90.0
 51
180.0
  0
ARC
  5
23B9B
  8
DANMEN
  6
CONTINUOUS
 10
333.7
 20
216.854646
 30
0.0
 40
1.0
 50
0.0
 51
90.0
  0
ARC
  5
23B9E
  8
DANMEN
  6
CONTINUOUS
 10
338.8
 20
217.654646
 30
0.0
 40
1.0
 50
0.0
 51
90.0
  0
LINE
  5
23B9F
  8
DANMEN
  6
CONTINUOUS
 10
337.2
 20
218.654646
 30
0.0
 11
338.8
 21
218.654646
 31
0.0
  0
LINE
  5
23BA2
  8
DANMEN
  6
CONTINUOUS
 10
333.000006
 20
233.854539
 30
0.0
 11
330.500015
 21
233.854539
 31
0.0
  0
LINE
  5
23BA3
  8
DANMEN
  6
CONTINUOUS
 10
328.95
 20
228.354646
 30
0.0
 11
328.95
 21
225.354646
 31
0.0
  0
LINE
  5
23BA5
  8
DANMEN
  6
CONTINUOUS
 10
330.290415
 20
223.625078
 30
0.0
 11
328.95
 21
225.354646
 31
0.0
  0
ARC
  5
23BA6
  8
DANMEN
  6
CONTINUOUS
 10
329.5
 20
223.012506
 30
0.0
 40
1.0
 50
0.0
 51
37.775688
  0
LINE
  5
23BA7
  8
DANMEN
  6
CONTINUOUS
 10
327.5
 20
231.354646
 30
0.0
 11
329.0
 21
231.354646
 31
0.0
  0
ARC
  5
23BA9
  8
DANMEN
  6
CONTINUOUS
 10
327.5
 20
230.854646
 30
0.0
 40
0.5
 50
89.999982
 51
180.000019
  0
LINE
  5
23BAE
  8
DANMEN
  6
CONTINUOUS
 10
329.5
 20
230.854646
 30
0.0
 11
329.5
 21
228.354646
 31
0.0
  0
ARC
  5
23BAF
  8
DANMEN
  6
CONTINUOUS
 10
329.0
 20
230.854646
 30
0.0
 40
0.5
 50
0.0
 51
89.999982
  0
LINE
  5
23BB0
  8
DANMEN
  6
CONTINUOUS
 10
328.95
 20
228.354646
 30
0.0
 11
329.5
 21
228.354646
 31
0.0
  0
LINE
  5
23BB1
  8
DANMEN
  6
CONTINUOUS
 10
339.500009
 20
224.35463
 30
0.0
 11
334.500006
 21
224.35463
 31
0.0
  0
LINE
  5
23BB3
  8
DANMEN
  6
CONTINUOUS
 10
345.8
 20
220.354646
 30
0.0
 11
345.8
 21
228.354646
 31
0.0
  0
LINE
  5
23BB4
  8
DANMEN
  6
CONTINUOUS
 10
341.3
 20
216.324339
 30
0.0
 11
341.3
 21
216.854646
 31
0.0
  0
ARC
  5
23BB5
  8
DANMEN
  6
CONTINUOUS
 10
339.3
 20
216.324339
 30
0.0
 40
2.0
 50
308.293477
 51
0.0
  0
LINE
  5
23BB6
  8
DANMEN
  6
CONTINUOUS
 10
342.3
 20
217.854646
 30
0.0
 11
345.799988
 21
217.854646
 31
0.0
  0
ARC
  5
23BB7
  8
DANMEN
  6
CONTINUOUS
 10
342.3
 20
216.854646
 30
0.0
 40
1.0
 50
90.0
 51
180.0
  0
LINE
  5
23BBB
  8
DANMEN
  6
CONTINUOUS
 10
345.0
 20
231.354646
 30
0.0
 11
351.299988
 21
231.354646
 31
0.0
  0
LINE
  5
23BBC
  8
DANMEN
  6
CONTINUOUS
 10
344.5
 20
228.354646
 30
0.0
 11
345.8
 21
228.354646
 31
0.0
  0
ARC
  5
23BBD
  8
DANMEN
  6
CONTINUOUS
 10
345.0
 20
230.854646
 30
0.0
 40
0.5
 50
89.999999
 51
180.000036
  0
LINE
  5
23BBE
  8
DANMEN
  6
CONTINUOUS
 10
343.500015
 20
233.854539
 30
0.0
 11
341.000009
 21
233.854539
 31
0.0
  0
LINE
  5
23BC1
  8
DANMEN
  6
CONTINUOUS
 10
344.5
 20
230.854646
 30
0.0
 11
344.5
 21
228.354646
 31
0.0
  0
ARC
  5
23BC4
  8
DANMEN
  6
CONTINUOUS
 10
351.299988
 20
230.854646
 30
0.0
 40
0.5
 50
0.0
 51
89.999982
  0
TEXT
  5
23BC5
  8
SUNPO
  6
CONTINUOUS
 10
51.071162
 20
242.110107
 30
0.0
 40
2.5
  1
7
  0
ARC
  5
23BC6
  8
SUNPO
  6
BYBLOCK
 10
48.404496
 20
241.110107
 30
0.0
 40
0.145
 50
180.0
 51
0.0
  0
ARC
  5
23BC7
  8
SUNPO
  6
BYBLOCK
 10
48.404496
 20
241.110107
 30
0.0
 40
0.145
 50
0.0
 51
180.0
  0
LINE
  5
23BC8
  8
SUNPO
  6
CONTINUOUS
 10
194.0
 20
241.354646
 30
0.0
 11
170.0
 21
241.354646
 31
0.0
  0
LINE
  5
23BC9
  8
SUNPO
  6
CONTINUOUS
 10
125.404496
 20
231.110107
 30
0.0
 11
125.404496
 21
171.110107
 31
0.0
  0
LINE
  5
23BCA
  8
SUNPO
  6
CONTINUOUS
 10
119.904496
 20
171.110107
 30
0.0
 11
125.404496
 21
171.110107
 31
0.0
  0
ARC
  5
23BCB
  8
SUNPO
  6
BYBLOCK
 10
125.404496
 20
171.110107
 30
0.0
 40
0.145
 50
270.0
 51
90.0
  0
ARC
  5
23BCC
  8
SUNPO
  6
BYBLOCK
 10
125.404496
 20
171.110107
 30
0.0
 40
0.145
 50
90.0
 51
270.0
  0
TEXT
  5
23BCD
  8
SUNPO
  6
CONTINUOUS
 10
124.404496
 20
199.235107
 30
0.0
 40
2.5
  1
60
 50
90.0
  0
LINE
  5
23BCE
  8
SUNPO
  6
CONTINUOUS
 10
119.904496
 20
231.110107
 30
0.0
 11
125.404496
 21
231.110107
 31
0.0
  0
LINE
  5
23BCF
  8
SUNPO
  6
CONTINUOUS
 10
87.404496
 20
241.110107
 30
0.0
 11
112.204483
 21
241.110107
 31
0.0
  0
LINE
  5
23BD0
  8
SUNPO
  6
CONTINUOUS
 10
79.404496
 20
241.110107
 30
0.0
 11
55.404496
 21
241.110107
 31
0.0
  0
TEXT
  5
23BD1
  8
SUNPO
  6
CONTINUOUS
 10
65.321162
 20
242.110107
 30
0.0
 40
2.5
  1
24
  0
LINE
  5
23BD2
  8
SUNPO
  6
CONTINUOUS
 10
87.404496
 20
241.110107
 30
0.0
 11
79.404496
 21
241.110107
 31
0.0
  0
ARC
  5
23BD3
  8
SUNPO
  6
BYBLOCK
 10
79.404496
 20
241.110107
 30
0.0
 40
0.145
 50
180.0
 51
0.0
  0
ARC
  5
23BD4
  8
SUNPO
  6
BYBLOCK
 10
79.404496
 20
241.110107
 30
0.0
 40
0.145
 50
0.0
 51
180.0
  0
ARC
  5
23BD5
  8
SUNPO
  6
BYBLOCK
 10
79.404496
 20
241.110107
 30
0.0
 40
0.145
 50
0.0
 51
180.0
  0
ARC
  5
23BD6
  8
SUNPO
  6
BYBLOCK
 10
79.404496
 20
241.110107
 30
0.0
 40
0.145
 50
180.0
 51
0.0
  0
TEXT
  5
23BD7
  8
SUNPO
  6
CONTINUOUS
 10
82.571162
 20
242.110107
 30
0.0
 40
2.5
  1
8
  0
ARC
  5
23BD8
  8
SUNPO
  6
BYBLOCK
 10
87.404496
 20
241.110107
 30
0.0
 40
0.145
 50
0.0
 51
180.0
  0
ARC
  5
23BD9
  8
SUNPO
  6
BYBLOCK
 10
87.404496
 20
241.110107
 30
0.0
 40
0.145
 50
180.0
 51
0.0
  0
ARC
  5
23BDA
  8
SUNPO
  6
BYBLOCK
 10
87.404496
 20
241.110107
 30
0.0
 40
0.145
 50
180.0
 51
0.0
  0
ARC
  5
23BDB
  8
SUNPO
  6
BYBLOCK
 10
87.404496
 20
241.110107
 30
0.0
 40
0.145
 50
0.0
 51
180.0
  0
LINE
  5
23BDC
  8
SUNPO
  6
CONTINUOUS
 10
112.204483
 20
232.610107
 30
0.0
 11
112.204483
 21
241.110107
 31
0.0
  0
TEXT
  5
23BDD
  8
SUNPO
  6
CONTINUOUS
 10
96.05449
 20
242.110107
 30
0.0
 40
2.5
  1
24.8
  0
LINE
  5
23BDE
  8
SUNPO
  6
CONTINUOUS
 10
112.204483
 20
241.110107
 30
0.0
 11
118.404496
 21
241.110107
 31
0.0
  0
ARC
  5
23BDF
  8
SUNPO
  6
BYBLOCK
 10
112.204483
 20
241.110107
 30
0.0
 40
0.145
 50
180.0
 51
0.0
  0
ARC
  5
23BE0
  8
SUNPO
  6
BYBLOCK
 10
112.204483
 20
241.110107
 30
0.0
 40
0.145
 50
0.0
 51
180.0
  0
ARC
  5
23BE1
  8
SUNPO
  6
BYBLOCK
 10
112.204483
 20
241.110107
 30
0.0
 40
0.145
 50
0.0
 51
180.0
  0
ARC
  5
23BE2
  8
SUNPO
  6
BYBLOCK
 10
112.204483
 20
241.110107
 30
0.0
 40
0.145
 50
180.0
 51
0.0
  0
TEXT
  5
23BE3
  8
SUNPO
  6
CONTINUOUS
 10
112.80449
 20
242.110107
 30
0.0
 40
2.5
  1
6.2
  0
ARC
  5
23BE4
  8
SUNPO
  6
BYBLOCK
 10
118.404496
 20
241.110107
 30
0.0
 40
0.145
 50
0.0
 51
180.0
  0
ARC
  5
23BE5
  8
SUNPO
  6
BYBLOCK
 10
118.404496
 20
241.110107
 30
0.0
 40
0.145
 50
180.0
 51
0.0
  0
ARC
  5
23BE6
  8
SUNPO
  6
BYBLOCK
 10
125.404496
 20
231.110107
 30
0.0
 40
0.145
 50
90.0
 51
270.0
  0
ARC
  5
23BE7
  8
SUNPO
  6
BYBLOCK
 10
125.404496
 20
231.110107
 30
0.0
 40
0.145
 50
270.0
 51
90.0
  0
TEXT
  5
23BE8
  8
SUNPO
  6
CONTINUOUS
 10
165.666667
 20
242.354646
 30
0.0
 40
2.5
  1
7
  0
LINE
  5
23BE9
  8
SUNPO
  6
CONTINUOUS
 10
170.0
 20
241.354646
 30
0.0
 11
163.0
 21
241.354646
 31
0.0
  0
ARC
  5
23BEA
  8
SUNPO
  6
BYBLOCK
 10
163.0
 20
241.354646
 30
0.0
 40
0.145
 50
180.0
 51
0.0
  0
ARC
  5
23BEB
  8
SUNPO
  6
BYBLOCK
 10
163.0
 20
241.354646
 30
0.0
 40
0.145
 50
0.0
 51
180.0
  0
ARC
  5
23BEC
  8
SUNPO
  6
BYBLOCK
 10
170.0
 20
241.354646
 30
0.0
 40
0.145
 50
0.0
 51
180.0
  0
ARC
  5
23BED
  8
SUNPO
  6
BYBLOCK
 10
170.0
 20
241.354646
 30
0.0
 40
0.145
 50
180.0
 51
0.0
  0
ARC
  5
23BEE
  8
SUNPO
  6
BYBLOCK
 10
170.0
 20
241.354646
 30
0.0
 40
0.145
 50
180.0
 51
0.0
  0
ARC
  5
23BEF
  8
SUNPO
  6
BYBLOCK
 10
170.0
 20
241.354646
 30
0.0
 40
0.145
 50
0.0
 51
180.0
  0
TEXT
  5
23BF0
  8
SUNPO
  6
CONTINUOUS
 10
179.916667
 20
242.354646
 30
0.0
 40
2.5
  1
24
  0
LINE
  5
23BF1
  8
SUNPO
  6
CONTINUOUS
 10
240.0
 20
231.354646
 30
0.0
 11
240.0
 21
171.354646
 31
0.0
  0
LINE
  5
23BF2
  8
SUNPO
  6
CONTINUOUS
 10
234.5
 20
171.354646
 30
0.0
 11
240.0
 21
171.354646
 31
0.0
  0
ARC
  5
23BF3
  8
SUNPO
  6
BYBLOCK
 10
240.0
 20
171.354646
 30
0.0
 40
0.145
 50
90.0
 51
270.0
  0
ARC
  5
23BF4
  8
SUNPO
  6
BYBLOCK
 10
240.0
 20
171.354646
 30
0.0
 40
0.145
 50
270.0
 51
90.0
  0
TEXT
  5
23BF5
  8
SUNPO
  6
CONTINUOUS
 10
239.0
 20
199.479646
 30
0.0
 40
2.5
  1
60
 50
90.0
  0
LINE
  5
23BF6
  8
SUNPO
  6
CONTINUOUS
 10
202.0
 20
241.354646
 30
0.0
 11
226.799988
 21
241.354646
 31
0.0
  0
LINE
  5
23BF7
  8
SUNPO
  6
CONTINUOUS
 10
202.0
 20
241.354646
 30
0.0
 11
194.0
 21
241.354646
 31
0.0
  0
ARC
  5
23BF8
  8
SUNPO
  6
BYBLOCK
 10
194.0
 20
241.354646
 30
0.0
 40
0.145
 50
180.0
 51
0.0
  0
ARC
  5
23BF9
  8
SUNPO
  6
BYBLOCK
 10
194.0
 20
241.354646
 30
0.0
 40
0.145
 50
0.0
 51
180.0
  0
ARC
  5
23BFA
  8
SUNPO
  6
BYBLOCK
 10
194.0
 20
241.354646
 30
0.0
 40
0.145
 50
0.0
 51
180.0
  0
ARC
  5
23BFB
  8
SUNPO
  6
BYBLOCK
 10
194.0
 20
241.354646
 30
0.0
 40
0.145
 50
180.0
 51
0.0
  0
TEXT
  5
23BFC
  8
SUNPO
  6
CONTINUOUS
 10
197.166667
 20
242.354646
 30
0.0
 40
2.5
  1
8
  0
ARC
  5
23BFD
  8
SUNPO
  6
BYBLOCK
 10
202.0
 20
241.354646
 30
0.0
 40
0.145
 50
0.0
 51
180.0
  0
ARC
  5
23BFE
  8
SUNPO
  6
BYBLOCK
 10
202.0
 20
241.354646
 30
0.0
 40
0.145
 50
180.0
 51
0.0
  0
ARC
  5
23BFF
  8
SUNPO
  6
BYBLOCK
 10
202.0
 20
241.354646
 30
0.0
 40
0.145
 50
180.0
 51
0.0
  0
ARC
  5
23C00
  8
SUNPO
  6
BYBLOCK
 10
202.0
 20
241.354646
 30
0.0
 40
0.145
 50
0.0
 51
180.0
  0
TEXT
  5
23C01
  8
SUNPO
  6
CONTINUOUS
 10
210.649994
 20
242.354646
 30
0.0
 40
2.5
  1
24.8
  0
LINE
  5
23C02
  8
SUNPO
  6
CONTINUOUS
 10
226.799988
 20
232.854646
 30
0.0
 11
226.799988
 21
241.354646
 31
0.0
  0
LINE
  5
23C03
  8
SUNPO
  6
CONTINUOUS
 10
234.5
 20
231.354646
 30
0.0
 11
240.0
 21
231.354646
 31
0.0
  0
ARC
  5
23C04
  8
SUNPO
  6
BYBLOCK
 10
240.0
 20
231.354646
 30
0.0
 40
0.145
 50
90.0
 51
270.0
  0
ARC
  5
23C05
  8
SUNPO
  6
BYBLOCK
 10
240.0
 20
231.354646
 30
0.0
 40
0.145
 50
270.0
 51
90.0
  0
TEXT
  5
23C06
  8
SUNPO
  6
CONTINUOUS
 10
227.399994
 20
242.354646
 30
0.0
 40
2.5
  1
6.2
  0
LINE
  5
23C07
  8
SUNPO
  6
CONTINUOUS
 10
226.799988
 20
241.354646
 30
0.0
 11
233.0
 21
241.354646
 31
0.0
  0
ARC
  5
23C08
  8
SUNPO
  6
BYBLOCK
 10
226.799988
 20
241.354646
 30
0.0
 40
0.145
 50
180.0
 51
0.0
  0
ARC
  5
23C09
  8
SUNPO
  6
BYBLOCK
 10
226.799988
 20
241.354646
 30
0.0
 40
0.145
 50
0.0
 51
180.0
  0
ARC
  5
23C0A
  8
SUNPO
  6
BYBLOCK
 10
226.799988
 20
241.354646
 30
0.0
 40
0.145
 50
0.0
 51
180.0
  0
ARC
  5
23C0B
  8
SUNPO
  6
BYBLOCK
 10
226.799988
 20
241.354646
 30
0.0
 40
0.145
 50
180.0
 51
0.0
  0
ARC
  5
23C0C
  8
SUNPO
  6
BYBLOCK
 10
233.0
 20
241.354646
 30
0.0
 40
0.145
 50
0.0
 51
180.0
  0
ARC
  5
23C0D
  8
SUNPO
  6
BYBLOCK
 10
233.0
 20
241.354646
 30
0.0
 40
0.145
 50
180.0
 51
0.0
  0
LINE
  5
23C0E
  8
SUNPO
  6
CONTINUOUS
 10
295.0
 20
241.354646
 30
0.0
 11
288.0
 21
241.354646
 31
0.0
  0
ARC
  5
23C0F
  8
SUNPO
  6
BYBLOCK
 10
288.0
 20
241.354646
 30
0.0
 40
0.145
 50
180.0
 51
0.0
  0
ARC
  5
23C10
  8
SUNPO
  6
BYBLOCK
 10
288.0
 20
241.354646
 30
0.0
 40
0.145
 50
0.0
 51
180.0
  0
TEXT
  5
23C11
  8
SUNPO
  6
CONTINUOUS
 10
290.666667
 20
242.354646
 30
0.0
 40
2.5
  1
7
  0
ARC
  5
23C12
  8
SUNPO
  6
BYBLOCK
 10
295.0
 20
241.354646
 30
0.0
 40
0.145
 50
0.0
 51
180.0
  0
ARC
  5
23C13
  8
SUNPO
  6
BYBLOCK
 10
295.0
 20
241.354646
 30
0.0
 40
0.145
 50
180.0
 51
0.0
  0
ARC
  5
23C14
  8
SUNPO
  6
BYBLOCK
 10
295.0
 20
241.354646
 30
0.0
 40
0.145
 50
180.0
 51
0.0
  0
ARC
  5
23C15
  8
SUNPO
  6
BYBLOCK
 10
295.0
 20
241.354646
 30
0.0
 40
0.145
 50
0.0
 51
180.0
  0
TEXT
  5
23C16
  8
SUNPO
  6
CONTINUOUS
 10
304.916667
 20
242.354646
 30
0.0
 40
2.5
  1
24
  0
LINE
  5
23C17
  8
SUNPO
  6
CONTINUOUS
 10
365.0
 20
231.354646
 30
0.0
 11
365.0
 21
171.354646
 31
0.0
  0
LINE
  5
23C18
  8
SUNPO
  6
CONTINUOUS
 10
359.5
 20
171.354646
 30
0.0
 11
365.0
 21
171.354646
 31
0.0
  0
ARC
  5
23C19
  8
SUNPO
  6
BYBLOCK
 10
365.0
 20
171.354646
 30
0.0
 40
0.145
 50
270.0
 51
90.0
  0
ARC
  5
23C1A
  8
SUNPO
  6
BYBLOCK
 10
365.0
 20
171.354646
 30
0.0
 40
0.145
 50
90.0
 51
270.0
  0
TEXT
  5
23C1B
  8
SUNPO
  6
CONTINUOUS
 10
364.0
 20
199.479646
 30
0.0
 40
2.5
  1
60
 50
90.0
  0
LINE
  5
23C1C
  8
SUNPO
  6
CONTINUOUS
 10
327.0
 20
241.354646
 30
0.0
 11
351.799988
 21
241.354646
 31
0.0
  0
LINE
  5
23C1D
  8
SUNPO
  6
CONTINUOUS
 10
327.0
 20
241.354646
 30
0.0
 11
319.0
 21
241.354646
 31
0.0
  0
ARC
  5
23C1E
  8
SUNPO
  6
BYBLOCK
 10
319.0
 20
241.354646
 30
0.0
 40
0.145
 50
180.0
 51
0.0
  0
ARC
  5
23C1F
  8
SUNPO
  6
BYBLOCK
 10
319.0
 20
241.354646
 30
0.0
 40
0.145
 50
0.0
 51
180.0
  0
ARC
  5
23C20
  8
SUNPO
  6
BYBLOCK
 10
319.0
 20
241.354646
 30
0.0
 40
0.145
 50
0.0
 51
180.0
  0
ARC
  5
23C21
  8
SUNPO
  6
BYBLOCK
 10
319.0
 20
241.354646
 30
0.0
 40
0.145
 50
180.0
 51
0.0
  0
TEXT
  5
23C22
  8
SUNPO
  6
CONTINUOUS
 10
322.166667
 20
242.354646
 30
0.0
 40
2.5
  1
8
  0
ARC
  5
23C23
  8
SUNPO
  6
BYBLOCK
 10
327.0
 20
241.354646
 30
0.0
 40
0.145
 50
0.0
 51
180.0
  0
ARC
  5
23C24
  8
SUNPO
  6
BYBLOCK
 10
327.0
 20
241.354646
 30
0.0
 40
0.145
 50
180.0
 51
0.0
  0
ARC
  5
23C25
  8
SUNPO
  6
BYBLOCK
 10
327.0
 20
241.354646
 30
0.0
 40
0.145
 50
180.0
 51
0.0
  0
ARC
  5
23C26
  8
SUNPO
  6
BYBLOCK
 10
327.0
 20
241.354646
 30
0.0
 40
0.145
 50
0.0
 51
180.0
  0
TEXT
  5
23C27
  8
SUNPO
  6
CONTINUOUS
 10
335.649994
 20
242.354646
 30
0.0
 40
2.5
  1
24.8
  0
LINE
  5
23C28
  8
SUNPO
  6
CONTINUOUS
 10
351.799988
 20
232.854646
 30
0.0
 11
351.799988
 21
241.354646
 31
0.0
  0
LINE
  5
23C29
  8
SUNPO
  6
CONTINUOUS
 10
359.5
 20
231.354646
 30
0.0
 11
365.0
 21
231.354646
 31
0.0
  0
ARC
  5
23C2A
  8
SUNPO
  6
BYBLOCK
 10
365.0
 20
231.354646
 30
0.0
 40
0.145
 50
90.0
 51
270.0
  0
ARC
  5
23C2B
  8
SUNPO
  6
BYBLOCK
 10
365.0
 20
231.354646
 30
0.0
 40
0.145
 50
270.0
 51
90.0
  0
TEXT
  5
23C2C
  8
SUNPO
  6
CONTINUOUS
 10
352.399994
 20
242.354646
 30
0.0
 40
2.5
  1
6.2
  0
LINE
  5
23C2D
  8
SUNPO
  6
CONTINUOUS
 10
351.799988
 20
241.354646
 30
0.0
 11
358.0
 21
241.354646
 31
0.0
  0
ARC
  5
23C2E
  8
SUNPO
  6
BYBLOCK
 10
351.799988
 20
241.354646
 30
0.0
 40
0.145
 50
180.0
 51
0.0
  0
ARC
  5
23C2F
  8
SUNPO
  6
BYBLOCK
 10
351.799988
 20
241.354646
 30
0.0
 40
0.145
 50
0.0
 51
180.0
  0
ARC
  5
23C30
  8
SUNPO
  6
BYBLOCK
 10
351.799988
 20
241.354646
 30
0.0
 40
0.145
 50
0.0
 51
180.0
  0
ARC
  5
23C31
  8
SUNPO
  6
BYBLOCK
 10
351.799988
 20
241.354646
 30
0.0
 40
0.145
 50
180.0
 51
0.0
  0
ARC
  5
23C32
  8
SUNPO
  6
BYBLOCK
 10
358.0
 20
241.354646
 30
0.0
 40
0.145
 50
0.0
 51
180.0
  0
ARC
  5
23C33
  8
SUNPO
  6
BYBLOCK
 10
358.0
 20
241.354646
 30
0.0
 40
0.145
 50
180.0
 51
0.0
  0
LINE
  5
24447
  8
WAKU
 10
825.0
 20
292.0
 30
0.0
 11
825.0
 21
5.0
 31
0.0
  0
LINE
  5
24449
  8
WAKU
 10
415.0
 20
5.0
 30
0.0
 11
825.0
 21
5.0
 31
0.0
  0
LINE
  5
2444A
  8
WAKU
 10
415.0
 20
292.0
 30
0.0
 11
825.0
 21
292.0
 31
0.0
  0
LINE
  5
2444B
  8
WAKU
 10
415.0
 20
282.0
 30
0.0
 11
825.0
 21
282.0
 31
0.0
  0
LINE
  5
2444C
  8
WAKU
  6
CONTINUOUS
 10
803.760408
 20
289.207692
 30
0.0
 11
806.452715
 21
289.207692
 31
0.0
  0
LINE
  5
2444D
  8
WAKU
  6
CONTINUOUS
 10
803.172456
 20
287.592308
 30
0.0
 11
805.864763
 21
287.592308
 31
0.0
  0
LINE
  5
2444E
  8
WAKU
  6
CONTINUOUS
 10
800.39067
 20
283.5
 30
0.0
 11
805.452208
 21
283.5
 31
0.0
  0
LINE
  5
2444F
  8
WAKU
  6
CONTINUOUS
 10
805.159221
 20
285.653846
 30
0.0
 11
805.864763
 21
287.592308
 31
0.0
  0
LINE
  5
24450
  8
WAKU
  6
CONTINUOUS
 10
777.971276
 20
290.5
 30
0.0
 11
782.249053
 21
290.5
 31
0.0
  0
LINE
  5
24451
  8
WAKU
  6
CONTINUOUS
 10
777.971276
 20
286.222222
 30
0.0
 11
782.249053
 21
290.5
 31
0.0
  0
LINE
  5
24452
  8
WAKU
  6
CONTINUOUS
 10
777.971276
 20
290.5
 30
0.0
 11
777.971276
 21
286.222222
 31
0.0
  0
LINE
  5
24453
  8
WAKU
  6
CONTINUOUS
 10
791.524851
 20
288.776923
 30
0.0
 11
793.695928
 21
288.776923
 31
0.0
  0
LINE
  5
24454
  8
WAKU
  6
CONTINUOUS
 10
788.723077
 20
290.5
 30
0.0
 11
794.323077
 21
290.5
 31
0.0
  0
LINE
  5
24455
  8
WAKU
  6
CONTINUOUS
 10
790.311313
 20
288.776923
 30
0.0
 11
787.155205
 21
286.192308
 31
0.0
  0
LINE
  5
24456
  8
WAKU
  6
CONTINUOUS
 10
791.524851
 20
288.776923
 30
0.0
 11
792.755205
 21
286.192308
 31
0.0
  0
LINE
  5
24457
  8
WAKU
  6
CONTINUOUS
 10
786.175285
 20
283.5
 30
0.0
 11
787.155205
 21
286.192308
 31
0.0
  0
LINE
  5
24458
  8
WAKU
  6
CONTINUOUS
 10
789.397145
 20
286.138462
 30
0.0
 11
786.175285
 21
283.5
 31
0.0
  0
LINE
  5
24459
  8
WAKU
  6
CONTINUOUS
 10
791.775285
 20
283.5
 30
0.0
 11
792.755205
 21
286.192308
 31
0.0
  0
LINE
  5
2445A
  8
WAKU
  6
CONTINUOUS
 10
790.493667
 20
286.192308
 30
0.0
 11
791.775285
 21
283.5
 31
0.0
  0
LINE
  5
2445B
  8
WAKU
  6
CONTINUOUS
 10
789.513747
 20
283.5
 30
0.0
 11
790.493667
 21
286.192308
 31
0.0
  0
LINE
  5
2445C
  8
WAKU
  6
CONTINUOUS
 10
788.436824
 20
283.5
 30
0.0
 11
789.513747
 21
283.5
 31
0.0
  0
LINE
  5
2445D
  8
WAKU
  6
CONTINUOUS
 10
788.436824
 20
283.5
 30
0.0
 11
789.397145
 21
286.138462
 31
0.0
  0
LINE
  5
2445E
  8
WAKU
  6
CONTINUOUS
 10
788.095928
 20
288.776923
 30
0.0
 11
790.311313
 21
288.776923
 31
0.0
  0
LINE
  5
2445F
  8
WAKU
  6
CONTINUOUS
 10
788.723077
 20
290.5
 30
0.0
 11
788.095928
 21
288.776923
 31
0.0
  0
LINE
  5
24460
  8
WAKU
  6
CONTINUOUS
 10
802.780488
 20
286.515385
 30
0.0
 11
803.172456
 21
287.592308
 31
0.0
  0
LINE
  5
24461
  8
WAKU
  6
CONTINUOUS
 10
801.703565
 20
286.515385
 30
0.0
 11
802.095533
 21
287.592308
 31
0.0
  0
LINE
  5
24462
  8
WAKU
  6
CONTINUOUS
 10
798.452208
 20
283.5
 30
0.0
 11
799.236144
 21
285.653846
 31
0.0
  0
LINE
  5
24463
  8
WAKU
  6
CONTINUOUS
 10
793.851529
 20
285.653846
 30
0.0
 11
799.236144
 21
285.653846
 31
0.0
  0
LINE
  5
24464
  8
WAKU
  6
CONTINUOUS
 10
793.067593
 20
283.5
 30
0.0
 11
793.851529
 21
285.653846
 31
0.0
  0
LINE
  5
24465
  8
WAKU
  6
CONTINUOUS
 10
793.067593
 20
283.5
 30
0.0
 11
798.452208
 21
283.5
 31
0.0
  0
LINE
  5
24466
  8
WAKU
  6
CONTINUOUS
 10
801.174606
 20
285.653846
 30
0.0
 11
805.159221
 21
285.653846
 31
0.0
  0
LINE
  5
24467
  8
WAKU
  6
CONTINUOUS
 10
801.703565
 20
286.515385
 30
0.0
 11
802.780488
 21
286.515385
 31
0.0
  0
LINE
  5
24468
  8
WAKU
  6
CONTINUOUS
 10
800.39067
 20
283.5
 30
0.0
 11
801.174606
 21
285.653846
 31
0.0
  0
LINE
  5
24469
  8
WAKU
  6
CONTINUOUS
 10
794.988236
 20
288.776923
 30
0.0
 11
800.372851
 21
288.776923
 31
0.0
  0
LINE
  5
2446A
  8
WAKU
  6
CONTINUOUS
 10
795.615385
 20
290.5
 30
0.0
 11
801.0
 21
290.5
 31
0.0
  0
LINE
  5
2446B
  8
WAKU
  6
CONTINUOUS
 10
794.988236
 20
288.776923
 30
0.0
 11
795.615385
 21
290.5
 31
0.0
  0
LINE
  5
2446C
  8
WAKU
  6
CONTINUOUS
 10
794.323077
 20
290.5
 30
0.0
 11
793.695928
 21
288.776923
 31
0.0
  0
LINE
  5
2446D
  8
WAKU
  6
CONTINUOUS
 10
803.153846
 20
290.5
 30
0.0
 11
804.230769
 21
290.5
 31
0.0
  0
LINE
  5
2446E
  8
WAKU
  6
CONTINUOUS
 10
803.760408
 20
289.207692
 30
0.0
 11
804.230769
 21
290.5
 31
0.0
  0
LINE
  5
2446F
  8
WAKU
  6
CONTINUOUS
 10
801.875792
 20
289.207692
 30
0.0
 11
802.683485
 21
289.207692
 31
0.0
  0
LINE
  5
24470
  8
WAKU
  6
CONTINUOUS
 10
801.28784
 20
287.592308
 30
0.0
 11
802.095533
 21
287.592308
 31
0.0
  0
LINE
  5
24471
  8
WAKU
  6
CONTINUOUS
 10
801.28784
 20
287.592308
 30
0.0
 11
801.875792
 21
289.207692
 31
0.0
  0
LINE
  5
24472
  8
WAKU
  6
CONTINUOUS
 10
802.683485
 20
289.207692
 30
0.0
 11
803.153846
 21
290.5
 31
0.0
  0
LINE
  5
24473
  8
WAKU
  6
CONTINUOUS
 10
800.372851
 20
288.776923
 30
0.0
 11
801.0
 21
290.5
 31
0.0
  0
LINE
  5
24474
  8
WAKU
  6
CONTINUOUS
 10
815.753055
 20
288.130769
 30
0.0
 11
818.983824
 21
288.130769
 31
0.0
  0
LINE
  5
24475
  8
WAKU
  6
CONTINUOUS
 10
815.282694
 20
286.838462
 30
0.0
 11
818.513463
 21
286.838462
 31
0.0
  0
LINE
  5
24476
  8
WAKU
  6
CONTINUOUS
 10
819.452208
 20
283.5
 30
0.0
 11
814.067593
 21
283.5
 31
0.0
  0
LINE
  5
24477
  8
WAKU
  6
CONTINUOUS
 10
814.851529
 20
285.653846
 30
0.0
 11
819.159221
 21
285.653846
 31
0.0
  0
LINE
  5
24478
  8
WAKU
  6
CONTINUOUS
 10
815.988236
 20
288.776923
 30
0.0
 11
819.219005
 21
288.776923
 31
0.0
  0
LINE
  5
24479
  8
WAKU
  6
CONTINUOUS
 10
816.615385
 20
290.5
 30
0.0
 11
819.846154
 21
290.5
 31
0.0
  0
LINE
  5
2447A
  8
WAKU
  6
CONTINUOUS
 10
808.781958
 20
286.730769
 30
0.0
 11
809.565894
 21
288.884615
 31
0.0
  0
LINE
  5
2447B
  8
WAKU
  6
CONTINUOUS
 10
810.181958
 20
286.730769
 30
0.0
 11
810.965894
 21
288.884615
 31
0.0
  0
LINE
  5
2447C
  8
WAKU
  6
CONTINUOUS
 10
809.858881
 20
286.730769
 30
0.0
 11
810.642817
 21
288.884615
 31
0.0
  0
LINE
  5
2447D
  8
WAKU
  6
CONTINUOUS
 10
811.258881
 20
286.730769
 30
0.0
 11
812.042817
 21
288.884615
 31
0.0
  0
LINE
  5
2447E
  8
WAKU
  6
CONTINUOUS
 10
811.913747
 20
283.5
 30
0.0
 11
813.873587
 21
288.884615
 31
0.0
  0
LINE
  5
2447F
  8
WAKU
  6
CONTINUOUS
 10
811.424776
 20
285.115385
 30
0.0
 11
812.796663
 21
288.884615
 31
0.0
  0
LINE
  5
24480
  8
WAKU
  6
CONTINUOUS
 10
805.452208
 20
283.5
 30
0.0
 11
806.941687
 21
287.592308
 31
0.0
  0
LINE
  5
24481
  8
WAKU
  6
CONTINUOUS
 10
807.606055
 20
283.5
 30
0.0
 11
811.913747
 21
283.5
 31
0.0
  0
LINE
  5
24482
  8
WAKU
  6
CONTINUOUS
 10
808.781958
 20
286.730769
 30
0.0
 11
809.858881
 21
286.730769
 31
0.0
  0
LINE
  5
24483
  8
WAKU
  6
CONTINUOUS
 10
808.194006
 20
285.115385
 30
0.0
 11
811.424776
 21
285.115385
 31
0.0
  0
LINE
  5
24484
  8
WAKU
  6
CONTINUOUS
 10
807.606055
 20
283.5
 30
0.0
 11
808.194006
 21
285.115385
 31
0.0
  0
LINE
  5
24485
  8
WAKU
  6
CONTINUOUS
 10
810.181958
 20
286.730769
 30
0.0
 11
811.258881
 21
286.730769
 31
0.0
  0
LINE
  5
24486
  8
WAKU
  6
CONTINUOUS
 10
814.067593
 20
283.5
 30
0.0
 11
814.851529
 21
285.653846
 31
0.0
  0
LINE
  5
24487
  8
WAKU
  6
CONTINUOUS
 10
810.965894
 20
288.884615
 30
0.0
 11
812.042817
 21
288.884615
 31
0.0
  0
LINE
  5
24488
  8
WAKU
  6
CONTINUOUS
 10
806.923077
 20
290.5
 30
0.0
 11
808.0
 21
290.5
 31
0.0
  0
LINE
  5
24489
  8
WAKU
  6
CONTINUOUS
 10
807.529638
 20
289.207692
 30
0.0
 11
808.0
 21
290.5
 31
0.0
  0
LINE
  5
2448A
  8
WAKU
  6
CONTINUOUS
 10
807.529638
 20
289.207692
 30
0.0
 11
808.337331
 21
289.207692
 31
0.0
  0
LINE
  5
2448B
  8
WAKU
  6
CONTINUOUS
 10
806.941687
 20
287.592308
 30
0.0
 11
807.749379
 21
287.592308
 31
0.0
  0
LINE
  5
2448C
  8
WAKU
  6
CONTINUOUS
 10
807.749379
 20
287.592308
 30
0.0
 11
808.337331
 21
289.207692
 31
0.0
  0
LINE
  5
2448D
  8
WAKU
  6
CONTINUOUS
 10
809.565894
 20
288.884615
 30
0.0
 11
810.642817
 21
288.884615
 31
0.0
  0
LINE
  5
2448E
  8
WAKU
  6
CONTINUOUS
 10
806.452715
 20
289.207692
 30
0.0
 11
806.923077
 21
290.5
 31
0.0
  0
LINE
  5
2448F
  8
WAKU
  6
CONTINUOUS
 10
816.615385
 20
290.5
 30
0.0
 11
815.988236
 21
288.776923
 31
0.0
  0
LINE
  5
24490
  8
WAKU
  6
CONTINUOUS
 10
815.753055
 20
288.130769
 30
0.0
 11
815.282694
 21
286.838462
 31
0.0
  0
LINE
  5
24491
  8
WAKU
  6
CONTINUOUS
 10
812.796663
 20
288.884615
 30
0.0
 11
813.873587
 21
288.884615
 31
0.0
  0
LINE
  5
24492
  8
WAKU
  6
CONTINUOUS
 10
819.159221
 20
285.653846
 30
0.0
 11
820.923077
 21
290.5
 31
0.0
  0
LINE
  5
24493
  8
WAKU
  6
CONTINUOUS
 10
819.452208
 20
283.5
 30
0.0
 11
822.0
 21
290.5
 31
0.0
  0
LINE
  5
24494
  8
WAKU
  6
CONTINUOUS
 10
819.219005
 20
288.776923
 30
0.0
 11
819.846154
 21
290.5
 31
0.0
  0
LINE
  5
24495
  8
WAKU
  6
CONTINUOUS
 10
820.923077
 20
290.5
 30
0.0
 11
822.0
 21
290.5
 31
0.0
  0
LINE
  5
24496
  8
WAKU
  6
CONTINUOUS
 10
818.513463
 20
286.838462
 30
0.0
 11
818.983824
 21
288.130769
 31
0.0
  0
LINE
  5
24497
  8
WAKU
  6
CONTINUOUS
 10
779.828646
 20
284.107791
 30
0.0
 11
779.966824
 21
283.829526
 31
0.0
  0
LINE
  5
24498
  8
WAKU
  6
CONTINUOUS
 10
779.966824
 20
283.829526
 30
0.0
 11
780.193309
 21
283.634664
 31
0.0
  0
LINE
  5
24499
  8
WAKU
  6
CONTINUOUS
 10
780.193309
 20
283.634664
 30
0.0
 11
780.499782
 21
283.530361
 31
0.0
  0
LINE
  5
2449A
  8
WAKU
  6
CONTINUOUS
 10
780.499782
 20
283.530361
 30
0.0
 11
780.874987
 21
283.520449
 31
0.0
  0
LINE
  5
2449B
  8
WAKU
  6
CONTINUOUS
 10
780.874987
 20
283.520449
 30
0.0
 11
781.305142
 21
283.605291
 31
0.0
  0
LINE
  5
2449C
  8
WAKU
  6
CONTINUOUS
 10
781.305142
 20
283.605291
 30
0.0
 11
781.774448
 21
283.781773
 31
0.0
  0
LINE
  5
2449D
  8
WAKU
  6
CONTINUOUS
 10
781.774448
 20
283.781773
 30
0.0
 11
782.265666
 21
284.043411
 31
0.0
  0
LINE
  5
2449E
  8
WAKU
  6
CONTINUOUS
 10
782.265666
 20
284.043411
 30
0.0
 11
782.760756
 21
284.380595
 31
0.0
  0
LINE
  5
2449F
  8
WAKU
  6
CONTINUOUS
 10
782.760756
 20
284.380595
 30
0.0
 11
783.241532
 21
284.780941
 31
0.0
  0
LINE
  5
244A0
  8
WAKU
  6
CONTINUOUS
 10
783.241532
 20
284.780941
 30
0.0
 11
783.690335
 21
285.229744
 31
0.0
  0
LINE
  5
244A1
  8
WAKU
  6
CONTINUOUS
 10
783.690335
 20
285.229744
 30
0.0
 11
784.090681
 21
285.71052
 31
0.0
  0
LINE
  5
244A2
  8
WAKU
  6
CONTINUOUS
 10
784.090681
 20
285.71052
 30
0.0
 11
784.427865
 21
286.205609
 31
0.0
  0
LINE
  5
244A3
  8
WAKU
  6
CONTINUOUS
 10
784.427865
 20
286.205609
 30
0.0
 11
784.689503
 21
286.696828
 31
0.0
  0
LINE
  5
244A4
  8
WAKU
  6
CONTINUOUS
 10
784.689503
 20
286.696828
 30
0.0
 11
784.865984
 21
287.166134
 31
0.0
  0
LINE
  5
244A5
  8
WAKU
  6
CONTINUOUS
 10
784.865984
 20
287.166134
 30
0.0
 11
784.950827
 21
287.596289
 31
0.0
  0
LINE
  5
244A6
  8
WAKU
  6
CONTINUOUS
 10
784.950827
 20
287.596289
 30
0.0
 11
784.940915
 21
287.971493
 31
0.0
  0
LINE
  5
244A7
  8
WAKU
  6
CONTINUOUS
 10
784.940915
 20
287.971493
 30
0.0
 11
784.836612
 21
288.277967
 31
0.0
  0
LINE
  5
244A8
  8
WAKU
  6
CONTINUOUS
 10
784.836612
 20
288.277967
 30
0.0
 11
784.641749
 21
288.504452
 31
0.0
  0
LINE
  5
244A9
  8
WAKU
  6
CONTINUOUS
 10
784.641749
 20
288.504452
 30
0.0
 11
784.363484
 21
288.64263
 31
0.0
  0
LINE
  5
244AA
  8
WAKU
  6
CONTINUOUS
 10
783.916941
 20
288.683944
 30
0.0
 11
783.482636
 21
288.608014
 31
0.0
  0
LINE
  5
244AB
  8
WAKU
  6
CONTINUOUS
 10
783.482636
 20
288.608014
 30
0.0
 11
783.005639
 21
288.435768
 31
0.0
  0
LINE
  5
244AC
  8
WAKU
  6
CONTINUOUS
 10
783.005639
 20
288.435768
 30
0.0
 11
782.504269
 21
288.173821
 31
0.0
  0
LINE
  5
244AD
  8
WAKU
  6
CONTINUOUS
 10
782.504269
 20
288.173821
 30
0.0
 11
781.997783
 21
287.832235
 31
0.0
  0
LINE
  5
244AE
  8
WAKU
  6
CONTINUOUS
 10
781.997783
 20
287.832235
 30
0.0
 11
781.505632
 21
287.424128
 31
0.0
  0
LINE
  5
244AF
  8
WAKU
  6
CONTINUOUS
 10
781.505632
 20
287.424128
 30
0.0
 11
781.04672
 21
286.965174
 31
0.0
  0
LINE
  5
244B0
  8
WAKU
  6
CONTINUOUS
 10
781.04672
 20
286.965174
 30
0.0
 11
780.638671
 21
286.473
 31
0.0
  0
LINE
  5
244B1
  8
WAKU
  6
CONTINUOUS
 10
780.638671
 20
286.473
 30
0.0
 11
780.297156
 21
285.966509
 31
0.0
  0
LINE
  5
244B2
  8
WAKU
  6
CONTINUOUS
 10
780.297156
 20
285.966509
 30
0.0
 11
780.035293
 21
285.465154
 31
0.0
  0
LINE
  5
244B3
  8
WAKU
  6
CONTINUOUS
 10
780.035293
 20
285.465154
 30
0.0
 11
779.863139
 21
284.988189
 31
0.0
  0
LINE
  5
244B4
  8
WAKU
  6
CONTINUOUS
 10
779.863139
 20
284.988189
 30
0.0
 11
779.787305
 21
284.553935
 31
0.0
  0
LINE
  5
244B5
  8
WAKU
  6
CONTINUOUS
 10
780.172911
 20
284.451856
 30
0.0
 11
780.681395
 21
284.539195
 31
0.0
  0
LINE
  5
244B6
  8
WAKU
  6
CONTINUOUS
 10
780.681395
 20
284.539195
 30
0.0
 11
781.312263
 21
284.810332
 31
0.0
  0
LINE
  5
244B7
  8
WAKU
  6
CONTINUOUS
 10
781.312263
 20
284.810332
 30
0.0
 11
781.98994
 21
285.251431
 31
0.0
  0
LINE
  5
244B8
  8
WAKU
  6
CONTINUOUS
 10
781.98994
 20
285.251431
 30
0.0
 11
782.646296
 21
285.825506
 31
0.0
  0
LINE
  5
244B9
  8
WAKU
  6
CONTINUOUS
 10
782.646296
 20
285.825506
 30
0.0
 11
783.220238
 21
286.48192
 31
0.0
  0
LINE
  5
244BA
  8
WAKU
  6
CONTINUOUS
 10
783.220238
 20
286.48192
 30
0.0
 11
783.661353
 21
287.159534
 31
0.0
  0
LINE
  5
244BB
  8
WAKU
  6
CONTINUOUS
 10
783.661353
 20
287.159534
 30
0.0
 11
783.932071
 21
287.790402
 31
0.0
  0
LINE
  5
244BC
  8
WAKU
  6
CONTINUOUS
 10
783.932071
 20
287.790402
 30
0.0
 11
784.019229
 21
288.298569
 31
0.0
  0
LINE
  5
244BD
  8
WAKU
  6
CONTINUOUS
 10
783.916941
 20
288.683944
 30
0.0
 11
783.799148
 21
288.781929
 31
0.0
  0
LINE
  5
244BE
  8
WAKU
  6
CONTINUOUS
 10
783.799148
 20
288.781929
 30
0.0
 11
783.597996
 21
288.840902
 31
0.0
  0
LINE
  5
244BF
  8
WAKU
  6
CONTINUOUS
 10
783.597996
 20
288.840902
 30
0.0
 11
783.290857
 21
288.835581
 31
0.0
  0
LINE
  5
244C0
  8
WAKU
  6
CONTINUOUS
 10
783.290857
 20
288.835581
 30
0.0
 11
782.89514
 21
288.740065
 31
0.0
  0
LINE
  5
244C1
  8
WAKU
  6
CONTINUOUS
 10
782.89514
 20
288.740065
 30
0.0
 11
782.440235
 21
288.547585
 31
0.0
  0
LINE
  5
244C2
  8
WAKU
  6
CONTINUOUS
 10
782.440235
 20
288.547585
 30
0.0
 11
781.954587
 21
288.264284
 31
0.0
  0
LINE
  5
244C3
  8
WAKU
  6
CONTINUOUS
 10
781.954587
 20
288.264284
 30
0.0
 11
780.996098
 21
287.475108
 31
0.0
  0
LINE
  5
244C4
  8
WAKU
  6
CONTINUOUS
 10
780.996098
 20
287.475108
 30
0.0
 11
780.207035
 21
286.51657
 31
0.0
  0
LINE
  5
244C5
  8
WAKU
  6
CONTINUOUS
 10
780.207035
 20
286.51657
 30
0.0
 11
779.923519
 21
286.031028
 31
0.0
  0
LINE
  5
244C6
  8
WAKU
  6
CONTINUOUS
 10
779.923519
 20
286.031028
 30
0.0
 11
779.73149
 21
285.576021
 31
0.0
  0
LINE
  5
244C7
  8
WAKU
  6
CONTINUOUS
 10
779.73149
 20
285.576021
 30
0.0
 11
779.635696
 21
285.180404
 31
0.0
  0
LINE
  5
244C8
  8
WAKU
  6
CONTINUOUS
 10
779.635696
 20
285.180404
 30
0.0
 11
779.630358
 21
284.873087
 31
0.0
  0
LINE
  5
244C9
  8
WAKU
  6
CONTINUOUS
 10
779.630358
 20
284.873087
 30
0.0
 11
779.689155
 21
284.672435
 31
0.0
  0
LINE
  5
244CA
  8
WAKU
  6
CONTINUOUS
 10
779.689155
 20
284.672435
 30
0.0
 11
779.787305
 21
284.553935
 31
0.0
  0
LINE
  5
244CB
  8
WAKU
  6
CONTINUOUS
 10
780.275177
 20
284.066476
 30
0.0
 11
780.392927
 21
283.968568
 31
0.0
  0
LINE
  5
244CC
  8
WAKU
  6
CONTINUOUS
 10
780.392927
 20
283.968568
 30
0.0
 11
780.594177
 21
283.909498
 31
0.0
  0
LINE
  5
244CD
  8
WAKU
  6
CONTINUOUS
 10
780.594177
 20
283.909498
 30
0.0
 11
780.901294
 21
283.914863
 31
0.0
  0
LINE
  5
244CE
  8
WAKU
  6
CONTINUOUS
 10
780.901294
 20
283.914863
 30
0.0
 11
781.296984
 21
284.010368
 31
0.0
  0
LINE
  5
244CF
  8
WAKU
  6
CONTINUOUS
 10
781.296984
 20
284.010368
 30
0.0
 11
781.751882
 21
284.202798
 31
0.0
  0
LINE
  5
244D0
  8
WAKU
  6
CONTINUOUS
 10
781.751882
 20
284.202798
 30
0.0
 11
782.237497
 21
284.486117
 31
0.0
  0
LINE
  5
244D1
  8
WAKU
  6
CONTINUOUS
 10
782.237497
 20
284.486117
 30
0.0
 11
783.195965
 21
285.275232
 31
0.0
  0
LINE
  5
244D2
  8
WAKU
  6
CONTINUOUS
 10
783.195965
 20
285.275232
 30
0.0
 11
783.98505
 21
286.233718
 31
0.0
  0
LINE
  5
244D3
  8
WAKU
  6
CONTINUOUS
 10
783.98505
 20
286.233718
 30
0.0
 11
784.268507
 21
286.719278
 31
0.0
  0
LINE
  5
244D4
  8
WAKU
  6
CONTINUOUS
 10
784.268507
 20
286.719278
 30
0.0
 11
784.46071
 21
287.174248
 31
0.0
  0
LINE
  5
244D5
  8
WAKU
  6
CONTINUOUS
 10
784.46071
 20
287.174248
 30
0.0
 11
784.556361
 21
287.569864
 31
0.0
  0
LINE
  5
244D6
  8
WAKU
  6
CONTINUOUS
 10
784.556361
 20
287.569864
 30
0.0
 11
784.561802
 21
287.877253
 31
0.0
  0
LINE
  5
244D7
  8
WAKU
  6
CONTINUOUS
 10
784.561802
 20
287.877253
 30
0.0
 11
784.502951
 21
288.077918
 31
0.0
  0
LINE
  5
244D8
  8
WAKU
  6
CONTINUOUS
 10
784.502951
 20
288.077918
 30
0.0
 11
784.40481
 21
288.196249
 31
0.0
  0
LINE
  5
244D9
  8
WAKU
  6
CONTINUOUS
 10
784.019229
 20
288.298569
 30
0.0
 11
783.510738
 21
288.21124
 31
0.0
  0
LINE
  5
244DA
  8
WAKU
  6
CONTINUOUS
 10
783.510738
 20
288.21124
 30
0.0
 11
782.879878
 21
287.940057
 31
0.0
  0
LINE
  5
244DB
  8
WAKU
  6
CONTINUOUS
 10
782.879878
 20
287.940057
 30
0.0
 11
782.202181
 21
287.498991
 31
0.0
  0
LINE
  5
244DC
  8
WAKU
  6
CONTINUOUS
 10
782.202181
 20
287.498991
 30
0.0
 11
781.545827
 21
286.924893
 31
0.0
  0
LINE
  5
244DD
  8
WAKU
  6
CONTINUOUS
 10
781.545827
 20
286.924893
 30
0.0
 11
780.971896
 21
286.268471
 31
0.0
  0
LINE
  5
244DE
  8
WAKU
  6
CONTINUOUS
 10
780.971896
 20
286.268471
 30
0.0
 11
780.530712
 21
285.590875
 31
0.0
  0
LINE
  5
244DF
  8
WAKU
  6
CONTINUOUS
 10
780.530712
 20
285.590875
 30
0.0
 11
780.260168
 21
284.959969
 31
0.0
  0
LINE
  5
244E0
  8
WAKU
  6
CONTINUOUS
 10
780.260168
 20
284.959969
 30
0.0
 11
780.172911
 21
284.451856
 31
0.0
  0
LINE
  5
244E1
  8
WAKU
  6
CONTINUOUS
 10
780.275177
 20
284.066476
 30
0.0
 11
780.709458
 21
284.142397
 31
0.0
  0
LINE
  5
244E2
  8
WAKU
  6
CONTINUOUS
 10
780.709458
 20
284.142397
 30
0.0
 11
781.186428
 21
284.314625
 31
0.0
  0
LINE
  5
244E3
  8
WAKU
  6
CONTINUOUS
 10
781.186428
 20
284.314625
 30
0.0
 11
781.68777
 21
284.576545
 31
0.0
  0
LINE
  5
244E4
  8
WAKU
  6
CONTINUOUS
 10
781.68777
 20
284.576545
 30
0.0
 11
782.194232
 21
284.918099
 31
0.0
  0
LINE
  5
244E5
  8
WAKU
  6
CONTINUOUS
 10
782.194232
 20
284.918099
 30
0.0
 11
782.686363
 21
285.326171
 31
0.0
  0
LINE
  5
244E6
  8
WAKU
  6
CONTINUOUS
 10
782.686363
 20
285.326171
 30
0.0
 11
783.145266
 21
285.785089
 31
0.0
  0
LINE
  5
244E7
  8
WAKU
  6
CONTINUOUS
 10
783.145266
 20
285.785089
 30
0.0
 11
783.553316
 21
286.277229
 31
0.0
  0
LINE
  5
244E8
  8
WAKU
  6
CONTINUOUS
 10
783.553316
 20
286.277229
 30
0.0
 11
783.894843
 21
286.783693
 31
0.0
  0
LINE
  5
244E9
  8
WAKU
  6
CONTINUOUS
 10
783.894843
 20
286.783693
 30
0.0
 11
784.156732
 21
287.28503
 31
0.0
  0
LINE
  5
244EA
  8
WAKU
  6
CONTINUOUS
 10
784.156732
 20
287.28503
 30
0.0
 11
784.328925
 21
287.761987
 31
0.0
  0
LINE
  5
244EB
  8
WAKU
  6
CONTINUOUS
 10
784.328925
 20
287.761987
 30
0.0
 11
784.40481
 21
288.196249
 31
0.0
  0
LINE
  5
244EC
  8
WAKU
  6
CONTINUOUS
 10
784.363484
 20
288.64263
 30
0.0
 11
784.225306
 21
288.920895
 31
0.0
  0
LINE
  5
244ED
  8
WAKU
  6
CONTINUOUS
 10
784.225306
 20
288.920895
 30
0.0
 11
783.998821
 21
289.115757
 31
0.0
  0
LINE
  5
244EE
  8
WAKU
  6
CONTINUOUS
 10
783.998821
 20
289.115757
 30
0.0
 11
783.692348
 21
289.22006
 31
0.0
  0
LINE
  5
244EF
  8
WAKU
  6
CONTINUOUS
 10
783.692348
 20
289.22006
 30
0.0
 11
783.317143
 21
289.229972
 31
0.0
  0
LINE
  5
244F0
  8
WAKU
  6
CONTINUOUS
 10
783.317143
 20
289.229972
 30
0.0
 11
782.886988
 21
289.145129
 31
0.0
  0
LINE
  5
244F1
  8
WAKU
  6
CONTINUOUS
 10
782.886988
 20
289.145129
 30
0.0
 11
782.417683
 21
288.968648
 31
0.0
  0
LINE
  5
244F2
  8
WAKU
  6
CONTINUOUS
 10
782.417683
 20
288.968648
 30
0.0
 11
781.926464
 21
288.70701
 31
0.0
  0
LINE
  5
244F3
  8
WAKU
  6
CONTINUOUS
 10
781.926464
 20
288.70701
 30
0.0
 11
781.431374
 21
288.369826
 31
0.0
  0
LINE
  5
244F4
  8
WAKU
  6
CONTINUOUS
 10
781.431374
 20
288.369826
 30
0.0
 11
780.950599
 21
287.96948
 31
0.0
  0
LINE
  5
244F5
  8
WAKU
  6
CONTINUOUS
 10
780.950599
 20
287.96948
 30
0.0
 11
780.501795
 21
287.520677
 31
0.0
  0
LINE
  5
244F6
  8
WAKU
  6
CONTINUOUS
 10
780.501795
 20
287.520677
 30
0.0
 11
780.101449
 21
287.039901
 31
0.0
  0
LINE
  5
244F7
  8
WAKU
  6
CONTINUOUS
 10
780.101449
 20
287.039901
 30
0.0
 11
779.764265
 21
286.544812
 31
0.0
  0
LINE
  5
244F8
  8
WAKU
  6
CONTINUOUS
 10
779.764265
 20
286.544812
 30
0.0
 11
779.502627
 21
286.053593
 31
0.0
  0
LINE
  5
244F9
  8
WAKU
  6
CONTINUOUS
 10
779.502627
 20
286.053593
 30
0.0
 11
779.326146
 21
285.584287
 31
0.0
  0
LINE
  5
244FA
  8
WAKU
  6
CONTINUOUS
 10
779.326146
 20
285.584287
 30
0.0
 11
779.241303
 21
285.154132
 31
0.0
  0
LINE
  5
244FB
  8
WAKU
  6
CONTINUOUS
 10
779.241303
 20
285.154132
 30
0.0
 11
779.251215
 21
284.778928
 31
0.0
  0
LINE
  5
244FC
  8
WAKU
  6
CONTINUOUS
 10
779.251215
 20
284.778928
 30
0.0
 11
779.355518
 21
284.472454
 31
0.0
  0
LINE
  5
244FD
  8
WAKU
  6
CONTINUOUS
 10
779.355518
 20
284.472454
 30
0.0
 11
779.550381
 21
284.245969
 31
0.0
  0
LINE
  5
244FE
  8
WAKU
  6
CONTINUOUS
 10
779.550381
 20
284.245969
 30
0.0
 11
779.828646
 21
284.107791
 31
0.0
  0
INSERT
  5
244FF
  8
WAKU
  6
CONTINUOUS
  2
*U2
 10
0.0
 20
0.0
 30
0.0
1001
ACAD
1002
{
1000
R14_HATCH_DATA
1000
244FF
1011
1.0
1021
0.0
1031
0.0
1021
0.0
1031
0.0
1011
0.0
1021
0.0
1031
0.0
1021
1.0
1031
0.0
1011
0.0
1021
0.0
1031
0.0
1021
0.0
1031
1.0
1040
0.0
1010
0.0
1020
0.0
1030
1.0
1000
SOLID
1070
     1
1070
     1
1071
       15
1071
        7
1070
     0
1070
     1
1071
        3
1040
782.249053
1040
290.5
1040
777.971276
1040
290.5
1040
777.971276
1040
286.222222
1071
        3
1005
24450
1005
24452
1005
24451
1071
        7
1070
     0
1070
     1
1071
       38
1040
783.998821
1040
289.115757
1040
783.692348
1040
289.22006
1040
783.317143
1040
289.229972
1040
782.886988
1040
289.145129
1040
782.417683
1040
288.968648
1040
781.926464
1040
288.70701
1040
781.431374
1040
288.369826
1040
780.950599
1040
287.96948
1040
780.501795
1040
287.520677
1040
780.101449
1040
287.039901
1040
779.764265
1040
286.544812
1040
779.502627
1040
286.053593
1040
779.326146
1040
285.584287
1040
779.241303
1040
285.154132
1040
779.251215
1040
284.778928
1040
779.355518
1040
284.472454
1040
779.550381
1040
284.245969
1040
779.828646
1040
284.107791
1040
779.966824
1040
283.829526
1040
780.193309
1040
283.634664
1040
780.499782
1040
283.530361
1040
780.874987
1040
283.520449
1040
781.305142
1040
283.605291
1040
781.774448
1040
283.781773
1040
782.265666
1040
284.043411
1040
782.760756
1040
284.380595
1040
783.241532
1040
284.780941
1040
783.690335
1040
285.229744
1040
784.090681
1040
285.71052
1040
784.427865
1040
286.205609
1040
784.689503
1040
286.696828
1040
784.865984
1040
287.166134
1040
784.950827
1040
287.596289
1040
784.940915
1040
287.971493
1040
784.836612
1040
288.277967
1040
784.641749
1040
288.504452
1040
784.363484
1040
288.64263
1040
784.225306
1040
288.920895
1071
       38
1005
244ED
1005
244EE
1005
244EF
1005
244F0
1005
244F1
1005
244F2
1005
244F3
1005
244F4
1005
244F5
1005
244F6
1005
244F7
1005
244F8
1005
244F9
1005
244FA
1005
244FB
1005
244FC
1005
244FD
1005
244FE
1005
24497
1005
24498
1005
24499
1005
2449A
1005
2449B
1005
2449C
1005
2449D
1005
2449E
1005
2449F
1005
244A0
1005
244A1
1005
244A2
1005
244A3
1005
244A4
1005
244A5
1005
244A6
1005
244A7
1005
244A8
1005
244A9
1005
244EC
1071
       22
1070
     0
1070
     1
1071
       25
1040
783.799148
1040
288.781929
1040
783.916941
1040
288.683944
1040
783.482636
1040
288.608014
1040
783.005639
1040
288.435768
1040
782.504269
1040
288.173821
1040
781.997783
1040
287.832235
1040
781.505632
1040
287.424128
1040
781.04672
1040
286.965174
1040
780.638671
1040
286.473
1040
780.297156
1040
285.966509
1040
780.035293
1040
285.465154
1040
779.863139
1040
284.988189
1040
779.787305
1040
284.553935
1040
779.689155
1040
284.672435
1040
779.630358
1040
284.873087
1040
779.635696
1040
285.180404
1040
779.73149
1040
285.576021
1040
779.923519
1040
286.031028
1040
780.207035
1040
286.51657
1040
780.996098
1040
287.475108
1040
781.954587
1040
288.264284
1040
782.440235
1040
288.547585
1040
782.89514
1040
288.740065
1040
783.290857
1040
288.835581
1040
783.597996
1040
288.840902
1071
       25
1005
244BD
1005
244AA
1005
244AB
1005
244AC
1005
244AD
1005
244AE
1005
244AF
1005
244B0
1005
244B1
1005
244B2
1005
244B3
1005
244B4
1005
244CA
1005
244C9
1005
244C8
1005
244C7
1005
244C6
1005
244C5
1005
244C4
1005
244C3
1005
244C2
1005
244C1
1005
244C0
1005
244BF
1005
244BE
1071
       22
1070
     0
1070
     1
1071
       16
1040
784.019229
1040
288.298569
1040
783.932071
1040
287.790402
1040
783.661353
1040
287.159534
1040
783.220238
1040
286.48192
1040
782.646296
1040
285.825506
1040
781.98994
1040
285.251431
1040
781.312263
1040
284.810332
1040
780.681395
1040
284.539195
1040
780.172911
1040
284.451856
1040
780.260168
1040
284.959969
1040
780.530712
1040
285.590875
1040
780.971896
1040
286.268471
1040
781.545827
1040
286.924893
1040
782.202181
1040
287.498991
1040
782.879878
1040
287.940057
1040
783.510738
1040
288.21124
1071
       16
1005
244BC
1005
244BB
1005
244BA
1005
244B9
1005
244B8
1005
244B7
1005
244B6
1005
244B5
1005
244E0
1005
244DF
1005
244DE
1005
244DD
1005
244DC
1005
244DB
1005
244DA
1005
244D9
1071
       22
1070
     0
1070
     1
1071
       25
1040
784.40481
1040
288.196249
1040
784.502951
1040
288.077918
1040
784.561802
1040
287.877253
1040
784.556361
1040
287.569864
1040
784.46071
1040
287.174248
1040
784.268507
1040
286.719278
1040
783.98505
1040
286.233718
1040
783.195965
1040
285.275232
1040
782.237497
1040
284.486117
1040
781.751882
1040
284.202798
1040
781.296984
1040
284.010368
1040
780.901294
1040
283.914863
1040
780.594177
1040
283.909498
1040
780.392927
1040
283.968568
1040
780.275177
1040
284.066476
1040
780.709458
1040
284.142397
1040
781.186428
1040
284.314625
1040
781.68777
1040
284.576545
1040
782.194232
1040
284.918099
1040
782.686363
1040
285.326171
1040
783.145266
1040
285.785089
1040
783.553316
1040
286.277229
1040
783.894843
1040
286.783693
1040
784.156732
1040
287.28503
1040
784.328925
1040
287.761987
1071
       25
1005
244D8
1005
244D7
1005
244D6
1005
244D5
1005
244D4
1005
244D3
1005
244D2
1005
244D1
1005
244D0
1005
244CF
1005
244CE
1005
244CD
1005
244CC
1005
244CB
1005
244E1
1005
244E2
1005
244E3
1005
244E4
1005
244E5
1005
244E6
1005
244E7
1005
244E8
1005
244E9
1005
244EA
1005
244EB
1071
        7
1070
     0
1070
     1
1071
       14
1040
788.723077
1040
290.5
1040
788.095928
1040
288.776923
1040
790.311313
1040
288.776923
1040
787.155205
1040
286.192308
1040
786.175285
1040
283.5
1040
789.397145
1040
286.138462
1040
788.436824
1040
283.5
1040
789.513747
1040
283.5
1040
790.493667
1040
286.192308
1040
791.775285
1040
283.5
1040
792.755205
1040
286.192308
1040
791.524851
1040
288.776923
1040
793.695928
1040
288.776923
1040
794.323077
1040
290.5
1071
       14
1005
24454
1005
2445F
1005
2445E
1005
24455
1005
24457
1005
24458
1005
2445D
1005
2445C
1005
2445B
1005
2445A
1005
24459
1005
24456
1005
24453
1005
2446C
1071
        7
1070
     0
1070
     1
1071
        4
1040
795.615385
1040
290.5
1040
794.988236
1040
288.776923
1040
800.372851
1040
288.776923
1040
801.0
1040
290.5
1071
        4
1005
2446A
1005
2446B
1005
24469
1005
24473
1071
        7
1070
     0
1070
     1
1071
        4
1040
798.452208
1040
283.5
1040
799.236144
1040
285.653846
1040
793.851529
1040
285.653846
1040
793.067593
1040
283.5
1071
        4
1005
24463
1005
24464
1005
24465
1005
24462
1071
        7
1070
     0
1070
     1
1071
       22
1040
805.452208
1040
283.5
1040
806.941687
1040
287.592308
1040
807.749379
1040
287.592308
1040
808.337331
1040
289.207692
1040
807.529638
1040
289.207692
1040
808.0
1040
290.5
1040
806.923077
1040
290.5
1040
806.452715
1040
289.207692
1040
803.760408
1040
289.207692
1040
804.230769
1040
290.5
1040
803.153846
1040
290.5
1040
802.683485
1040
289.207692
1040
801.875792
1040
289.207692
1040
801.28784
1040
287.592308
1040
802.095533
1040
287.592308
1040
801.703565
1040
286.515385
1040
802.780488
1040
286.515385
1040
803.172456
1040
287.592308
1040
805.864763
1040
287.592308
1040
805.159221
1040
285.653846
1040
801.174606
1040
285.653846
1040
800.39067
1040
283.5
1071
       22
1005
2448B
1005
2448C
1005
2448A
1005
24489
1005
24488
1005
2448E
1005
2444C
1005
2446E
1005
2446D
1005
24472
1005
2446F
1005
24471
1005
24470
1005
24461
1005
24467
1005
24460
1005
2444D
1005
2444F
1005
24466
1005
24468
1005
2444E
1005
24480
1071
        7
1070
     0
1070
     1
1071
        6
1040
808.194006
1040
285.115385
1040
807.606055
1040
283.5
1040
811.913747
1040
283.5
1040
813.873587
1040
288.884615
1040
812.796663
1040
288.884615
1040
811.424776
1040
285.115385
1071
        6
1005
24491
1005
2447F
1005
24483
1005
24484
1005
24481
1005
2447E
1071
       23
1070
     0
1070
     1
1071
        4
1040
812.042817
1040
288.884615
1040
810.965894
1040
288.884615
1040
810.181958
1040
286.730769
1040
811.258881
1040
286.730769
1071
        4
1005
24487
1005
2447B
1005
24485
1005
2447D
1071
       23
1070
     0
1070
     1
1071
        4
1040
810.642817
1040
288.884615
1040
809.565894
1040
288.884615
1040
808.781958
1040
286.730769
1040
809.858881
1040
286.730769
1071
        4
1005
2448D
1005
2447A
1005
24482
1005
2447C
1071
       23
1070
     0
1070
     1
1071
        4
1040
816.615385
1040
290.5
1040
815.988236
1040
288.776923
1040
819.219005
1040
288.776923
1040
819.846154
1040
290.5
1071
        4
1005
24479
1005
2448F
1005
24478
1005
24494
1071
       23
1070
     0
1070
     1
1071
        4
1040
815.753055
1040
288.130769
1040
815.282694
1040
286.838462
1040
818.513463
1040
286.838462
1040
818.983824
1040
288.130769
1071
        4
1005
24474
1005
24490
1005
24475
1005
24496
1071
        7
1070
     0
1070
     1
1071
        6
1040
819.452208
1040
283.5
1040
822.0
1040
290.5
1040
820.923077
1040
290.5
1040
819.159221
1040
285.653846
1040
814.851529
1040
285.653846
1040
814.067593
1040
283.5
1071
        6
1005
24495
1005
24492
1005
24477
1005
24486
1005
24476
1005
24493
1070
     0
1070
     1
1040
0.054099
1071
       15
1040
781.248373
1040
289.881409
1040
0.0
1040
783.901118
1040
288.907633
1040
0.0
1040
783.901118
1040
288.907633
1040
0.0
1040
783.901118
1040
288.907633
1040
0.0
1040
783.901118
1040
288.907633
1040
0.0
1040
790.3435
1040
289.82731
1040
0.0
1040
798.247597
1040
289.665014
1040
0.0
1040
796.515192
1040
284.146949
1040
0.0
1040
802.578609
1040
284.255146
1040
0.0
1040
810.536845
1040
284.309245
1040
0.0
1040
811.024083
1040
287.555166
1040
0.0
1040
809.72478
1040
287.609264
1040
0.0
1040
817.358189
1040
289.989606
1040
0.0
1040
817.141639
1040
287.501067
1040
0.0
1040
817.195776
1040
284.471541
1040
0.0
1002
}
  0
TEXT
  5
24502
  8
SUNPO
  6
CONTINUOUS
 10
599.155153
 20
21.411933
 30
0.0
 40
5.0
  1
オプション
 41
0.833
  0
ARC
  5
24503
  8
DANMEN
  6
CONTINUOUS
 10
621.7
 20
108.963068
 30
0.0
 40
0.2
 50
0.0
 51
65.375682
  0
ARC
  5
24504
  8
DANMEN
  6
CONTINUOUS
 10
622.2
 20
111.3
 30
0.0
 40
1.0
 50
90.0
 51
180.0
  0
ARC
  5
24505
  8
DANMEN
  6
CONTINUOUS
 10
621.6
 20
108.7
 30
0.0
 40
0.3
 50
270.0
 51
0.0
  0
LINE
  5
24506
  8
DANMEN
  6
CONTINUOUS
 10
614.5
 20
114.0
 30
0.0
 11
629.5
 21
114.0
 31
0.0
  0
LINE
  5
24507
  8
DANMEN
  6
CONTINUOUS
 10
614.5
 20
68.0
 30
0.0
 11
629.5
 21
68.0
 31
0.0
  0
LINE
  5
24508
  8
DANMEN
  6
CONTINUOUS
 10
615.0
 20
70.499997
 30
0.0
 11
628.999988
 21
70.499997
 31
0.0
  0
LINE
  5
24509
  8
DANMEN
  6
CONTINUOUS
 10
615.5
 20
226.0
 30
0.0
 11
630.8
 21
226.0
 31
0.0
  0
LINE
  5
2450A
  8
DANMEN
  6
CONTINUOUS
 10
615.5
 20
182.0
 30
0.0
 11
630.8
 21
182.0
 31
0.0
  0
LINE
  5
2450B
  8
DANMEN
  6
CONTINUOUS
 10
615.5
 20
184.499997
 30
0.0
 11
630.799988
 21
184.499997
 31
0.0
  0
ARC
  5
2450C
  8
DANMEN
  6
CONTINUOUS
 10
621.7
 20
220.963068
 30
0.0
 40
0.2
 50
0.0
 51
65.375682
  0
ARC
  5
2450D
  8
DANMEN
  6
CONTINUOUS
 10
622.2
 20
223.3
 30
0.0
 40
1.0
 50
90.0
 51
180.0
  0
ARC
  5
2450E
  8
DANMEN
  6
CONTINUOUS
 10
621.6
 20
220.7
 30
0.0
 40
0.3
 50
270.0
 51
0.0
  0
LINE
  5
2450F
  8
DANMEN
  6
CONTINUOUS
 10
624.500009
 20
229.999985
 30
0.0
 11
619.500006
 21
229.999985
 31
0.0
  0
LINE
  5
24510
  8
DANMEN
  6
CONTINUOUS
 10
624.500009
 20
164.000015
 30
0.0
 11
619.500006
 21
164.000015
 31
0.0
  0
LINE
  5
24511
  8
DANMEN
  6
CONTINUOUS
 10
624.500009
 20
52.000015
 30
0.0
 11
619.500006
 21
52.000015
 31
0.0
  0
LINE
  5
24512
  8
DANMEN
  6
CONTINUOUS
 10
624.500009
 20
117.999985
 30
0.0
 11
619.500006
 21
117.999985
 31
0.0
  0
LINE
  5
24513
  8
DANMEN
  6
CONTINUOUS
 10
585.0
 20
124.5
 30
0.0
 11
585.0
 21
122.0
 31
0.0
  0
LINE
  5
24514
  8
DANMEN
  6
CONTINUOUS
 10
599.0
 20
124.5
 30
0.0
 11
599.0
 21
122.0
 31
0.0
  0
LINE
  5
24515
  8
DANMEN
  6
CONTINUOUS
 10
580.5
 20
45.5
 30
0.0
 11
580.5
 21
124.5
 31
0.0
  0
LINE
  5
24516
  8
DANMEN
  6
CONTINUOUS
 10
601.799988
 20
45.5
 30
0.0
 11
601.799988
 21
124.5
 31
0.0
  0
LINE
  5
24517
  8
DANMEN
  6
CONTINUOUS
 10
614.5
 20
124.5
 30
0.0
 11
614.5
 21
122.0
 31
0.0
  0
LINE
  5
24518
  8
DANMEN
  6
CONTINUOUS
 10
612.0
 20
45.5
 30
0.0
 11
612.0
 21
124.5
 31
0.0
  0
LINE
  5
24519
  8
DANMEN
  6
CONTINUOUS
 10
590.000021
 20
117.999985
 30
0.0
 11
590.000021
 21
135.0
 31
0.0
  0
LINE
  5
2451A
  8
DANMEN
  6
CONTINUOUS
 10
594.000009
 20
118.0
 30
0.0
 11
594.000009
 21
135.0
 31
0.0
  0
LINE
  5
2451B
  8
DANMEN
  6
CONTINUOUS
 10
589.500021
 20
117.999985
 30
0.0
 11
589.500021
 21
135.0
 31
0.0
  0
LINE
  5
2451C
  8
DANMEN
  6
CONTINUOUS
 10
594.500009
 20
118.0
 30
0.0
 11
594.500009
 21
135.0
 31
0.0
  0
LINE
  5
2451D
  8
DANMEN
  6
DASHED
 10
609.5
 20
135.0
 30
0.0
 11
609.5
 21
35.0
 31
0.0
  0
LINE
  5
2451E
  8
DANMEN
  6
CONTINUOUS
 10
606.5
 20
135.0
 30
0.0
 11
606.5
 21
35.0
 31
0.0
  0
LINE
  5
2451F
  8
DANMEN
  6
CONTINUOUS
 10
573.0
 20
135.0
 30
0.0
 11
573.0
 21
35.0
 31
0.0
  0
LINE
  5
24520
  8
DANMEN
  6
CONTINUOUS
 10
604.0
 20
135.0
 30
0.0
 11
604.0
 21
35.0
 31
0.0
  0
LINE
  5
24521
  8
DANMEN
  6
CONTINUOUS
 10
580.0
 20
135.0
 30
0.0
 11
580.0
 21
35.0
 31
0.0
  0
LINE
  5
24522
  8
DANMEN
  6
CONTINUOUS
 10
620.000021
 20
117.999985
 30
0.0
 11
620.000021
 21
135.0
 31
0.0
  0
LINE
  5
24523
  8
DANMEN
  6
CONTINUOUS
 10
619.500021
 20
117.999985
 30
0.0
 11
619.500021
 21
135.0
 31
0.0
  0
LINE
  5
24524
  8
DANMEN
  6
CONTINUOUS
 10
612.0
 20
135.0
 30
0.0
 11
612.0
 21
35.0
 31
0.0
  0
LINE
  5
24525
  8
DANMEN
  6
CONTINUOUS
 10
599.849991
 20
112.050003
 30
0.0
 11
599.849991
 21
62.949997
 31
0.0
  0
LINE
  5
24526
  8
DANMEN
  6
CONTINUOUS
 10
582.45
 20
107.300003
 30
0.0
 11
582.45
 21
57.949997
 31
0.0
  0
LINE
  5
24527
  8
DANMEN
  6
CONTINUOUS
 10
615.0
 20
111.5
 30
0.0
 11
615.0
 21
70.499997
 31
0.0
  0
ARC
  5
24528
  8
DANMEN
  6
CONTINUOUS
 10
588.000006
 20
41.000092
 30
0.0
 40
1.5
 50
0.000036
 51
90.000018
  0
LINE
  5
24529
  8
DANMEN
  6
CONTINUOUS
 10
582.45
 20
56.0
 30
0.0
 11
589.65
 21
56.0
 31
0.0
  0
ARC
  5
2452A
  8
DANMEN
  6
CONTINUOUS
 10
589.7
 20
61.949997
 30
0.0
 40
1.0
 50
89.999982
 51
180.000019
  0
LINE
  5
2452B
  8
DANMEN
  6
CONTINUOUS
 10
582.45
 20
46.949997
 30
0.0
 11
582.45
 21
56.0
 31
0.0
  0
ARC
  5
2452C
  8
DANMEN
  6
CONTINUOUS
 10
585.500015
 20
44.000092
 30
0.0
 40
1.5
 50
180.0
 51
269.999982
  0
LINE
  5
2452D
  8
DANMEN
  6
CONTINUOUS
 10
584.000015
 20
45.0
 30
0.0
 11
584.000015
 21
35.0
 31
0.0
  0
LINE
  5
2452E
  8
DANMEN
  6
CONTINUOUS
 10
588.000006
 20
42.500092
 30
0.0
 11
585.500015
 21
42.500092
 31
0.0
  0
ARC
  5
2452F
  8
DANMEN
  6
CONTINUOUS
 10
581.0
 20
45.5
 30
0.0
 40
0.5
 50
179.999964
 51
270.000001
  0
ARC
  5
24530
  8
DANMEN
  6
CONTINUOUS
 10
584.5
 20
45.5
 30
0.0
 40
0.5
 50
270.000018
 51
0.0
  0
LINE
  5
24531
  8
DANMEN
  6
CONTINUOUS
 10
584.813751
 20
48.0
 30
0.0
 11
585.0
 21
48.0
 31
0.0
  0
LINE
  5
24532
  8
DANMEN
  6
CONTINUOUS
 10
581.0
 20
45.0
 30
0.0
 11
584.5
 21
45.0
 31
0.0
  0
LINE
  5
24533
  8
DANMEN
  6
CONTINUOUS
 10
582.45
 20
46.949997
 30
0.0
 11
584.2
 21
46.949997
 31
0.0
  0
LINE
  5
24534
  8
DANMEN
  6
CONTINUOUS
 10
584.322583
 20
47.593557
 30
0.0
 11
584.200002
 21
46.950006
 31
0.0
  0
ARC
  5
24535
  8
DANMEN
  6
CONTINUOUS
 10
584.813751
 20
47.5
 30
0.0
 40
0.5
 50
90.000037
 51
169.215696
  0
LINE
  5
24536
  8
DANMEN
  6
CONTINUOUS
 10
585.0
 20
45.5
 30
0.0
 11
585.0
 21
48.0
 31
0.0
  0
LINE
  5
24537
  8
DANMEN
  6
CONTINUOUS
 10
588.7
 20
57.949997
 30
0.0
 11
588.7
 21
61.949997
 31
0.0
  0
LINE
  5
24538
  8
DANMEN
  6
CONTINUOUS
 10
582.45
 20
57.949997
 30
0.0
 11
588.7
 21
57.949997
 31
0.0
  0
LINE
  5
24539
  8
DANMEN
  6
CONTINUOUS
 10
599.849991
 20
48.0
 30
0.0
 11
599.849991
 21
61.0
 31
0.0
  0
LINE
  5
2453A
  8
DANMEN
  6
CONTINUOUS
 10
614.5
 20
51.0
 30
0.0
 11
614.5
 21
68.0
 31
0.0
  0
ARC
  5
2453B
  8
DANMEN
  6
CONTINUOUS
 10
596.000009
 20
41.000092
 30
0.0
 40
1.5
 50
90.000018
 51
180.0
  0
ARC
  5
2453C
  8
DANMEN
  6
CONTINUOUS
 10
598.500015
 20
44.000092
 30
0.0
 40
1.5
 50
269.999999
 51
0.000036
  0
LINE
  5
2453D
  8
DANMEN
  6
CONTINUOUS
 10
590.000021
 20
52.000015
 30
0.0
 11
590.000021
 21
35.0
 31
0.0
  0
LINE
  5
2453E
  8
DANMEN
  6
CONTINUOUS
 10
594.000009
 20
52.0
 30
0.0
 11
594.000009
 21
35.0
 31
0.0
  0
LINE
  5
2453F
  8
DANMEN
  6
CONTINUOUS
 10
589.500021
 20
52.000015
 30
0.0
 11
589.500021
 21
35.0
 31
0.0
  0
LINE
  5
24540
  8
DANMEN
  6
CONTINUOUS
 10
594.500009
 20
52.0
 30
0.0
 11
594.500009
 21
35.0
 31
0.0
  0
LINE
  5
24541
  8
DANMEN
  6
CONTINUOUS
 10
599.999985
 20
45.0
 30
0.0
 11
599.999985
 21
35.0
 31
0.0
  0
LINE
  5
24542
  8
DANMEN
  6
CONTINUOUS
 10
598.500015
 20
42.500092
 30
0.0
 11
596.000009
 21
42.500092
 31
0.0
  0
LINE
  5
24543
  8
DANMEN
  6
CONTINUOUS
 10
594.500009
 20
52.000015
 30
0.0
 11
589.500006
 21
52.000015
 31
0.0
  0
ARC
  5
24544
  8
DANMEN
  6
CONTINUOUS
 10
601.299988
 20
45.5
 30
0.0
 40
0.5
 50
270.000018
 51
0.0
  0
LINE
  5
24545
  8
DANMEN
  6
CONTINUOUS
 10
599.0
 20
45.5
 30
0.0
 11
599.0
 21
48.0
 31
0.0
  0
LINE
  5
24546
  8
DANMEN
  6
CONTINUOUS
 10
599.5
 20
45.0
 30
0.0
 11
601.299988
 21
45.0
 31
0.0
  0
ARC
  5
24547
  8
DANMEN
  6
CONTINUOUS
 10
599.5
 20
45.5
 30
0.0
 40
0.5
 50
179.999964
 51
270.000001
  0
LINE
  5
24548
  8
DANMEN
  6
CONTINUOUS
 10
599.0
 20
48.0
 30
0.0
 11
599.849991
 21
48.0
 31
0.0
  0
ARC
  5
24549
  8
DANMEN
  6
CONTINUOUS
 10
618.000006
 20
41.000107
 30
0.0
 40
1.5
 50
0.000036
 51
90.000018
  0
ARC
  5
2454A
  8
DANMEN
  6
CONTINUOUS
 10
615.500015
 20
44.000107
 30
0.0
 40
1.5
 50
180.0
 51
269.999982
  0
LINE
  5
2454B
  8
DANMEN
  6
CONTINUOUS
 10
614.000015
 20
45.0
 30
0.0
 11
614.000015
 21
35.0
 31
0.0
  0
LINE
  5
2454C
  8
DANMEN
  6
CONTINUOUS
 10
620.000021
 20
52.000015
 30
0.0
 11
620.000021
 21
35.0
 31
0.0
  0
LINE
  5
2454D
  8
DANMEN
  6
CONTINUOUS
 10
619.500021
 20
52.000015
 30
0.0
 11
619.500021
 21
35.0
 31
0.0
  0
LINE
  5
2454E
  8
DANMEN
  6
CONTINUOUS
 10
618.000006
 20
42.500107
 30
0.0
 11
615.500015
 21
42.500107
 31
0.0
  0
LINE
  5
2454F
  8
DANMEN
  6
CONTINUOUS
 10
612.5
 20
45.0
 30
0.0
 11
614.0
 21
45.0
 31
0.0
  0
ARC
  5
24550
  8
DANMEN
  6
CONTINUOUS
 10
612.5
 20
45.5
 30
0.0
 40
0.5
 50
179.999964
 51
270.000001
  0
LINE
  5
24551
  8
DANMEN
  6
CONTINUOUS
 10
613.95
 20
48.0
 30
0.0
 11
613.95
 21
51.0
 31
0.0
  0
LINE
  5
24552
  8
DANMEN
  6
CONTINUOUS
 10
614.5
 20
45.5
 30
0.0
 11
614.5
 21
48.0
 31
0.0
  0
ARC
  5
24553
  8
DANMEN
  6
CONTINUOUS
 10
614.0
 20
45.5
 30
0.0
 40
0.5
 50
270.000018
 51
0.0
  0
LINE
  5
24554
  8
DANMEN
  6
CONTINUOUS
 10
613.95
 20
48.0
 30
0.0
 11
614.5
 21
48.0
 31
0.0
  0
LINE
  5
24555
  8
DANMEN
  6
CONTINUOUS
 10
613.95
 20
51.0
 30
0.0
 11
614.5
 21
51.0
 31
0.0
  0
LINE
  5
24556
  8
DANMEN
  6
CONTINUOUS
 10
589.7
 20
62.949997
 30
0.0
 11
599.849991
 21
62.949997
 31
0.0
  0
LINE
  5
24557
  8
DANMEN
  6
CONTINUOUS
 10
590.65
 20
61.0
 30
0.0
 11
599.849991
 21
61.0
 31
0.0
  0
LINE
  5
24558
  8
DANMEN
  6
CONTINUOUS
 10
590.65
 20
57.0
 30
0.0
 11
590.65
 21
61.0
 31
0.0
  0
ARC
  5
24559
  8
DANMEN
  6
CONTINUOUS
 10
589.65
 20
57.0
 30
0.0
 40
1.0
 50
270.000018
 51
0.0
  0
ARC
  5
2455A
  8
DANMEN
  6
CONTINUOUS
 10
591.2
 20
111.5
 30
0.0
 40
2.5
 50
89.999982
 51
180.000019
  0
LINE
  5
2455B
  8
DANMEN
  6
CONTINUOUS
 10
582.45
 20
107.3
 30
0.0
 11
591.833705
 21
107.3
 31
0.0
  0
LINE
  5
2455C
  8
DANMEN
  6
CONTINUOUS
 10
582.45
 20
123.050003
 30
0.0
 11
582.45
 21
109.25
 31
0.0
  0
LINE
  5
2455D
  8
DANMEN
  6
CONTINUOUS
 10
582.45
 20
109.25
 30
0.0
 11
588.7
 21
109.25
 31
0.0
  0
LINE
  5
2455E
  8
DANMEN
  6
CONTINUOUS
 10
588.7
 20
111.5
 30
0.0
 11
588.7
 21
109.25
 31
0.0
  0
LINE
  5
2455F
  8
DANMEN
  6
CONTINUOUS
 10
584.81375
 20
122.0
 30
0.0
 11
585.0
 21
122.0
 31
0.0
  0
LINE
  5
24560
  8
DANMEN
  6
CONTINUOUS
 10
582.45
 20
123.050003
 30
0.0
 11
584.199999
 21
123.050003
 31
0.0
  0
LINE
  5
24561
  8
DANMEN
  6
CONTINUOUS
 10
584.199998
 20
123.050011
 30
0.0
 11
584.322582
 21
122.406445
 31
0.0
  0
ARC
  5
24562
  8
DANMEN
  6
CONTINUOUS
 10
584.81375
 20
122.5
 30
0.0
 40
0.5
 50
190.784249
 51
270.000018
  0
ARC
  5
24563
  8
DANMEN
  6
CONTINUOUS
 10
592.7
 20
111.3
 30
0.0
 40
1.0
 50
0.0
 51
90.0
  0
ARC
  5
24564
  8
DANMEN
  6
CONTINUOUS
 10
591.2
 20
111.3
 30
0.0
 40
1.0
 50
90.0
 51
180.0
  0
ARC
  5
24565
  8
DANMEN
  6
CONTINUOUS
 10
596.2
 20
111.050003
 30
0.0
 40
1.0
 50
90.0
 51
180.0
  0
LINE
  5
24566
  8
DANMEN
  6
CONTINUOUS
 10
596.199999
 20
112.050003
 30
0.0
 11
599.849991
 21
112.050003
 31
0.0
  0
ARC
  5
24567
  8
DANMEN
  6
CONTINUOUS
 10
591.833705
 20
108.05
 30
0.0
 40
0.75
 50
270.0
 51
90.0
  0
ARC
  5
24568
  8
DANMEN
  6
CONTINUOUS
 10
591.2
 20
109.8
 30
0.0
 40
1.0
 50
180.0
 51
270.0
  0
LINE
  5
24569
  8
DANMEN
  6
CONTINUOUS
 10
591.2
 20
108.8
 30
0.0
 11
591.833705
 21
108.8
 31
0.0
  0
LINE
  5
2456A
  8
DANMEN
  6
CONTINUOUS
 10
590.2
 20
109.8
 30
0.0
 11
590.2
 21
111.3
 31
0.0
  0
ARC
  5
2456B
  8
DANMEN
  6
CONTINUOUS
 10
594.45
 20
110.666295
 30
0.0
 40
0.75
 50
180.0
 51
0.0
  0
LINE
  5
2456C
  8
DANMEN
  6
CONTINUOUS
 10
595.2
 20
110.666295
 30
0.0
 11
595.2
 21
111.050003
 31
0.0
  0
LINE
  5
2456D
  8
DANMEN
  6
CONTINUOUS
 10
593.7
 20
110.666295
 30
0.0
 11
593.7
 21
111.3
 31
0.0
  0
LINE
  5
2456E
  8
DANMEN
  6
CONTINUOUS
 10
591.2
 20
114.0
 30
0.0
 11
599.849991
 21
114.0
 31
0.0
  0
LINE
  5
2456F
  8
DANMEN
  6
CONTINUOUS
 10
591.2
 20
112.3
 30
0.0
 11
592.7
 21
112.3
 31
0.0
  0
LINE
  5
24570
  8
DANMEN
  6
CONTINUOUS
 10
594.500009
 20
117.999985
 30
0.0
 11
589.500006
 21
117.999985
 31
0.0
  0
LINE
  5
24571
  8
DANMEN
  6
CONTINUOUS
 10
599.849991
 20
122.0
 30
0.0
 11
599.849991
 21
114.0
 31
0.0
  0
LINE
  5
24572
  8
DANMEN
  6
CONTINUOUS
 10
599.0
 20
122.0
 30
0.0
 11
599.849991
 21
122.0
 31
0.0
  0
LINE
  5
24573
  8
DANMEN
  6
CONTINUOUS
 10
618.7
 20
111.5
 30
0.0
 11
615.0
 21
111.5
 31
0.0
  0
ARC
  5
24574
  8
DANMEN
  6
CONTINUOUS
 10
618.7
 20
110.5
 30
0.0
 40
1.0
 50
0.0
 51
90.0
  0
LINE
  5
24575
  8
DANMEN
  6
CONTINUOUS
 10
619.7
 20
109.969694
 30
0.0
 11
619.7
 21
110.5
 31
0.0
  0
ARC
  5
24576
  8
DANMEN
  6
CONTINUOUS
 10
622.2
 20
110.053939
 30
0.0
 40
1.0
 50
180.0
 51
245.375682
  0
LINE
  5
24577
  8
DANMEN
  6
CONTINUOUS
 10
621.2
 20
110.053939
 30
0.0
 11
621.2
 21
111.3
 31
0.0
  0
LINE
  5
24578
  8
DANMEN
  6
CONTINUOUS
 10
620.460621
 20
108.4
 30
0.0
 11
621.6
 21
108.4
 31
0.0
  0
ARC
  5
24579
  8
DANMEN
  6
CONTINUOUS
 10
621.7
 20
109.969694
 30
0.0
 40
2.0
 50
180.0
 51
231.706523
  0
LINE
  5
2457A
  8
DANMEN
  6
CONTINUOUS
 10
614.5
 20
119.0
 30
0.0
 11
614.5
 21
114.0
 31
0.0
  0
LINE
  5
2457B
  8
DANMEN
  6
CONTINUOUS
 10
613.95
 20
119.0
 30
0.0
 11
614.5
 21
119.0
 31
0.0
  0
LINE
  5
2457C
  8
DANMEN
  6
CONTINUOUS
 10
613.95
 20
122.0
 30
0.0
 11
613.95
 21
119.0
 31
0.0
  0
LINE
  5
2457D
  8
DANMEN
  6
CONTINUOUS
 10
613.95
 20
122.0
 30
0.0
 11
614.5
 21
122.0
 31
0.0
  0
TEXT
  5
2457E
  8
SUNPO
  6
CONTINUOUS
 10
484.155153
 20
133.411933
 30
0.0
 40
5.0
  1
オプション
 41
0.833
  0
LINE
  5
2457F
  8
DANMEN
  6
CONTINUOUS
 10
484.849991
 20
224.050003
 30
0.0
 11
484.849991
 21
174.949997
 31
0.0
  0
LINE
  5
24580
  8
DANMEN
  6
CONTINUOUS
 10
467.45
 20
219.300003
 30
0.0
 11
467.45
 21
169.949997
 31
0.0
  0
LINE
  5
24581
  8
DANMEN
  6
CONTINUOUS
 10
465.5
 20
157.5
 30
0.0
 11
465.5
 21
236.5
 31
0.0
  0
LINE
  5
24582
  8
DANMEN
  6
CONTINUOUS
 10
486.799988
 20
157.5
 30
0.0
 11
486.799988
 21
236.5
 31
0.0
  0
LINE
  5
24583
  8
DANMEN
  6
CONTINUOUS
 10
465.0
 20
247.0
 30
0.0
 11
465.0
 21
147.0
 31
0.0
  0
LINE
  5
24584
  8
DANMEN
  6
CONTINUOUS
 10
489.0
 20
247.0
 30
0.0
 11
489.0
 21
147.0
 31
0.0
  0
LINE
  5
24585
  8
DANMEN
  6
CONTINUOUS
 10
458.0
 20
247.0
 30
0.0
 11
458.0
 21
147.0
 31
0.0
  0
LINE
  5
24586
  8
DANMEN
  6
CONTINUOUS
 10
484.849991
 20
160.0
 30
0.0
 11
484.849991
 21
173.0
 31
0.0
  0
LINE
  5
24587
  8
DANMEN
  6
CONTINUOUS
 10
473.7
 20
169.949997
 30
0.0
 11
473.7
 21
173.949997
 31
0.0
  0
LINE
  5
24588
  8
DANMEN
  6
CONTINUOUS
 10
475.65
 20
169.0
 30
0.0
 11
475.65
 21
173.0
 31
0.0
  0
ARC
  5
24589
  8
DANMEN
  6
CONTINUOUS
 10
473.000006
 20
153.000092
 30
0.0
 40
1.5
 50
0.000036
 51
90.000018
  0
LINE
  5
2458A
  8
DANMEN
  6
CONTINUOUS
 10
467.45
 20
168.0
 30
0.0
 11
474.65
 21
168.0
 31
0.0
  0
LINE
  5
2458B
  8
DANMEN
  6
CONTINUOUS
 10
470.0
 20
157.5
 30
0.0
 11
470.0
 21
160.0
 31
0.0
  0
LINE
  5
2458C
  8
DANMEN
  6
CONTINUOUS
 10
466.0
 20
157.0
 30
0.0
 11
469.5
 21
157.0
 31
0.0
  0
ARC
  5
2458D
  8
DANMEN
  6
CONTINUOUS
 10
466.0
 20
157.5
 30
0.0
 40
0.5
 50
179.999964
 51
270.000001
  0
LINE
  5
2458E
  8
DANMEN
  6
CONTINUOUS
 10
469.000015
 20
157.0
 30
0.0
 11
469.000015
 21
147.0
 31
0.0
  0
ARC
  5
2458F
  8
DANMEN
  6
CONTINUOUS
 10
470.500015
 20
156.000092
 30
0.0
 40
1.5
 50
180.0
 51
269.999982
  0
ARC
  5
24590
  8
DANMEN
  6
CONTINUOUS
 10
469.5
 20
157.5
 30
0.0
 40
0.5
 50
270.000018
 51
0.0
  0
LINE
  5
24591
  8
DANMEN
  6
CONTINUOUS
 10
473.000006
 20
154.500092
 30
0.0
 11
470.500015
 21
154.500092
 31
0.0
  0
LINE
  5
24592
  8
DANMEN
  6
CONTINUOUS
 10
467.45
 20
158.949997
 30
0.0
 11
467.45
 21
168.0
 31
0.0
  0
LINE
  5
24593
  8
DANMEN
  6
CONTINUOUS
 10
469.813751
 20
160.0
 30
0.0
 11
470.0
 21
160.0
 31
0.0
  0
LINE
  5
24594
  8
DANMEN
  6
CONTINUOUS
 10
467.45
 20
158.949997
 30
0.0
 11
469.2
 21
158.949997
 31
0.0
  0
LINE
  5
24595
  8
DANMEN
  6
CONTINUOUS
 10
469.322583
 20
159.593557
 30
0.0
 11
469.200002
 21
158.950006
 31
0.0
  0
ARC
  5
24596
  8
DANMEN
  6
CONTINUOUS
 10
469.813751
 20
159.5
 30
0.0
 40
0.5
 50
90.000037
 51
169.215696
  0
LINE
  5
24597
  8
DANMEN
  6
CONTINUOUS
 10
467.45
 20
169.949997
 30
0.0
 11
473.7
 21
169.949997
 31
0.0
  0
LINE
  5
24598
  8
DANMEN
  6
CONTINUOUS
 10
484.0
 20
157.5
 30
0.0
 11
484.0
 21
160.0
 31
0.0
  0
LINE
  5
24599
  8
DANMEN
  6
CONTINUOUS
 10
479.500009
 20
164.0
 30
0.0
 11
479.500009
 21
147.0
 31
0.0
  0
LINE
  5
2459A
  8
DANMEN
  6
CONTINUOUS
 10
474.500021
 20
164.000015
 30
0.0
 11
474.500021
 21
147.0
 31
0.0
  0
LINE
  5
2459B
  8
DANMEN
  6
CONTINUOUS
 10
479.000009
 20
164.0
 30
0.0
 11
479.000009
 21
147.0
 31
0.0
  0
LINE
  5
2459C
  8
DANMEN
  6
CONTINUOUS
 10
475.000021
 20
164.000015
 30
0.0
 11
475.000021
 21
147.0
 31
0.0
  0
LINE
  5
2459D
  8
DANMEN
  6
CONTINUOUS
 10
483.500015
 20
154.500092
 30
0.0
 11
481.000009
 21
154.500092
 31
0.0
  0
ARC
  5
2459E
  8
DANMEN
  6
CONTINUOUS
 10
481.000009
 20
153.000092
 30
0.0
 40
1.5
 50
90.000018
 51
180.0
  0
LINE
  5
2459F
  8
DANMEN
  6
CONTINUOUS
 10
484.999985
 20
157.0
 30
0.0
 11
484.999985
 21
147.0
 31
0.0
  0
ARC
  5
245A0
  8
DANMEN
  6
CONTINUOUS
 10
486.299988
 20
157.5
 30
0.0
 40
0.5
 50
270.000018
 51
0.0
  0
ARC
  5
245A1
  8
DANMEN
  6
CONTINUOUS
 10
483.500015
 20
156.000092
 30
0.0
 40
1.5
 50
269.999999
 51
0.000036
  0
LINE
  5
245A2
  8
DANMEN
  6
CONTINUOUS
 10
484.5
 20
157.0
 30
0.0
 11
486.299988
 21
157.0
 31
0.0
  0
ARC
  5
245A3
  8
DANMEN
  6
CONTINUOUS
 10
484.5
 20
157.5
 30
0.0
 40
0.5
 50
179.999964
 51
270.000001
  0
LINE
  5
245A4
  8
DANMEN
  6
CONTINUOUS
 10
479.500009
 20
164.000015
 30
0.0
 11
474.500006
 21
164.000015
 31
0.0
  0
ARC
  5
245A5
  8
DANMEN
  6
CONTINUOUS
 10
474.65
 20
169.0
 30
0.0
 40
1.0
 50
270.000018
 51
0.0
  0
LINE
  5
245A6
  8
DANMEN
  6
CONTINUOUS
 10
484.0
 20
160.0
 30
0.0
 11
484.849991
 21
160.0
 31
0.0
  0
ARC
  5
245A7
  8
DANMEN
  6
CONTINUOUS
 10
474.7
 20
173.949997
 30
0.0
 40
1.0
 50
89.999982
 51
180.000019
  0
LINE
  5
245A8
  8
DANMEN
  6
CONTINUOUS
 10
474.7
 20
174.949997
 30
0.0
 11
484.849991
 21
174.949997
 31
0.0
  0
LINE
  5
245A9
  8
DANMEN
  6
CONTINUOUS
 10
475.65
 20
173.0
 30
0.0
 11
484.849991
 21
173.0
 31
0.0
  0
ARC
  5
245AA
  8
DANMEN
  6
CONTINUOUS
 10
481.000009
 20
240.999908
 30
0.0
 40
1.5
 50
180.0
 51
269.999982
  0
ARC
  5
245AB
  8
DANMEN
  6
CONTINUOUS
 10
473.000006
 20
240.999908
 30
0.0
 40
1.5
 50
269.999982
 51
359.999964
  0
ARC
  5
245AC
  8
DANMEN
  6
CONTINUOUS
 10
470.500015
 20
237.999908
 30
0.0
 40
1.5
 50
90.000018
 51
180.0
  0
ARC
  5
245AD
  8
DANMEN
  6
CONTINUOUS
 10
483.500015
 20
237.999908
 30
0.0
 40
1.5
 50
359.999964
 51
90.000001
  0
LINE
  5
245AE
  8
DANMEN
  6
CONTINUOUS
 10
484.999985
 20
237.0
 30
0.0
 11
484.999985
 21
247.0
 31
0.0
  0
LINE
  5
245AF
  8
DANMEN
  6
CONTINUOUS
 10
469.000015
 20
236.999985
 30
0.0
 11
469.000015
 21
247.0
 31
0.0
  0
LINE
  5
245B0
  8
DANMEN
  6
CONTINUOUS
 10
479.500009
 20
230.0
 30
0.0
 11
479.500009
 21
247.0
 31
0.0
  0
LINE
  5
245B1
  8
DANMEN
  6
CONTINUOUS
 10
474.500021
 20
229.999985
 30
0.0
 11
474.500021
 21
247.0
 31
0.0
  0
LINE
  5
245B2
  8
DANMEN
  6
CONTINUOUS
 10
479.000009
 20
230.0
 30
0.0
 11
479.000009
 21
247.0
 31
0.0
  0
LINE
  5
245B3
  8
DANMEN
  6
CONTINUOUS
 10
475.000021
 20
229.999985
 30
0.0
 11
475.000021
 21
247.0
 31
0.0
  0
ARC
  5
245B4
  8
DANMEN
  6
CONTINUOUS
 10
476.2
 20
223.5
 30
0.0
 40
2.5
 50
89.999982
 51
180.000019
  0
LINE
  5
245B5
  8
DANMEN
  6
CONTINUOUS
 10
467.45
 20
219.3
 30
0.0
 11
476.833705
 21
219.3
 31
0.0
  0
LINE
  5
245B6
  8
DANMEN
  6
CONTINUOUS
 10
467.45
 20
235.050003
 30
0.0
 11
467.45
 21
221.25
 31
0.0
  0
LINE
  5
245B7
  8
DANMEN
  6
CONTINUOUS
 10
473.7
 20
223.5
 30
0.0
 11
473.7
 21
221.25
 31
0.0
  0
LINE
  5
245B8
  8
DANMEN
  6
CONTINUOUS
 10
467.45
 20
221.25
 30
0.0
 11
473.7
 21
221.25
 31
0.0
  0
LINE
  5
245B9
  8
DANMEN
  6
CONTINUOUS
 10
466.0
 20
237.0
 30
0.0
 11
469.5
 21
237.0
 31
0.0
  0
ARC
  5
245BA
  8
DANMEN
  6
CONTINUOUS
 10
466.0
 20
236.5
 30
0.0
 40
0.5
 50
89.999982
 51
180.000019
  0
ARC
  5
245BB
  8
DANMEN
  6
CONTINUOUS
 10
469.81375
 20
234.5
 30
0.0
 40
0.5
 50
190.784249
 51
270.000018
  0
LINE
  5
245BC
  8
DANMEN
  6
CONTINUOUS
 10
470.0
 20
236.5
 30
0.0
 11
470.0
 21
234.0
 31
0.0
  0
ARC
  5
245BD
  8
DANMEN
  6
CONTINUOUS
 10
469.5
 20
236.5
 30
0.0
 40
0.5
 50
0.0
 51
89.999982
  0
LINE
  5
245BE
  8
DANMEN
  6
CONTINUOUS
 10
469.81375
 20
234.0
 30
0.0
 11
470.0
 21
234.0
 31
0.0
  0
LINE
  5
245BF
  8
DANMEN
  6
CONTINUOUS
 10
467.45
 20
235.050003
 30
0.0
 11
469.199999
 21
235.050003
 31
0.0
  0
LINE
  5
245C0
  8
DANMEN
  6
CONTINUOUS
 10
469.199998
 20
235.050011
 30
0.0
 11
469.322582
 21
234.406445
 31
0.0
  0
LINE
  5
245C1
  8
DANMEN
  6
CONTINUOUS
 10
473.000006
 20
239.499908
 30
0.0
 11
470.500015
 21
239.499908
 31
0.0
  0
LINE
  5
245C2
  8
DANMEN
  6
CONTINUOUS
 10
484.849991
 20
234.0
 30
0.0
 11
484.849991
 21
226.0
 31
0.0
  0
LINE
  5
245C3
  8
DANMEN
  6
CONTINUOUS
 10
476.2
 20
226.0
 30
0.0
 11
484.849991
 21
226.0
 31
0.0
  0
LINE
  5
245C4
  8
DANMEN
  6
CONTINUOUS
 10
481.199999
 20
224.050003
 30
0.0
 11
484.849991
 21
224.050003
 31
0.0
  0
ARC
  5
245C5
  8
DANMEN
  6
CONTINUOUS
 10
479.45
 20
222.666295
 30
0.0
 40
0.75
 50
180.0
 51
0.0
  0
LINE
  5
245C6
  8
DANMEN
  6
CONTINUOUS
 10
475.2
 20
221.8
 30
0.0
 11
475.2
 21
223.3
 31
0.0
  0
ARC
  5
245C7
  8
DANMEN
  6
CONTINUOUS
 10
476.833705
 20
220.05
 30
0.0
 40
0.75
 50
270.0
 51
90.0
  0
ARC
  5
245C8
  8
DANMEN
  6
CONTINUOUS
 10
476.2
 20
221.8
 30
0.0
 40
1.0
 50
180.0
 51
270.0
  0
LINE
  5
245C9
  8
DANMEN
  6
CONTINUOUS
 10
476.2
 20
220.8
 30
0.0
 11
476.833705
 21
220.8
 31
0.0
  0
ARC
  5
245CA
  8
DANMEN
  6
CONTINUOUS
 10
477.7
 20
223.3
 30
0.0
 40
1.0
 50
0.0
 51
90.0
  0
ARC
  5
245CB
  8
DANMEN
  6
CONTINUOUS
 10
476.2
 20
223.3
 30
0.0
 40
1.0
 50
90.0
 51
180.0
  0
LINE
  5
245CC
  8
DANMEN
  6
CONTINUOUS
 10
476.2
 20
224.3
 30
0.0
 11
477.7
 21
224.3
 31
0.0
  0
LINE
  5
245CD
  8
DANMEN
  6
CONTINUOUS
 10
480.2
 20
222.666295
 30
0.0
 11
480.2
 21
223.050003
 31
0.0
  0
LINE
  5
245CE
  8
DANMEN
  6
CONTINUOUS
 10
478.7
 20
222.666295
 30
0.0
 11
478.7
 21
223.3
 31
0.0
  0
ARC
  5
245CF
  8
DANMEN
  6
CONTINUOUS
 10
481.2
 20
223.050003
 30
0.0
 40
1.0
 50
90.0
 51
180.0
  0
LINE
  5
245D0
  8
DANMEN
  6
CONTINUOUS
 10
483.500015
 20
239.499908
 30
0.0
 11
481.000009
 21
239.499908
 31
0.0
  0
LINE
  5
245D1
  8
DANMEN
  6
CONTINUOUS
 10
479.500009
 20
229.999985
 30
0.0
 11
474.500006
 21
229.999985
 31
0.0
  0
ARC
  5
245D2
  8
DANMEN
  6
CONTINUOUS
 10
486.299988
 20
236.5
 30
0.0
 40
0.5
 50
0.0
 51
89.999982
  0
LINE
  5
245D3
  8
DANMEN
  6
CONTINUOUS
 10
484.0
 20
236.5
 30
0.0
 11
484.0
 21
234.0
 31
0.0
  0
LINE
  5
245D4
  8
DANMEN
  6
CONTINUOUS
 10
484.5
 20
237.0
 30
0.0
 11
486.299988
 21
237.0
 31
0.0
  0
ARC
  5
245D5
  8
DANMEN
  6
CONTINUOUS
 10
484.5
 20
236.5
 30
0.0
 40
0.5
 50
89.999982
 51
180.000019
  0
LINE
  5
245D6
  8
DANMEN
  6
CONTINUOUS
 10
484.0
 20
234.0
 30
0.0
 11
484.849991
 21
234.0
 31
0.0
  0
LINE
  5
245D7
  8
DANMEN
  6
CONTINUOUS
 10
515.799988
 20
184.499997
 30
0.0
 11
515.799988
 21
223.5
 31
0.0
  0
LINE
  5
245D8
  8
DANMEN
  6
CONTINUOUS
 10
500.5
 20
223.5
 30
0.0
 11
500.5
 21
184.499997
 31
0.0
  0
LINE
  5
245D9
  8
DANMEN
  6
CONTINUOUS
 10
497.0
 20
157.5
 30
0.0
 11
497.0
 21
236.5
 31
0.0
  0
LINE
  5
245DA
  8
DANMEN
  6
CONTINUOUS
 10
521.799988
 20
157.5
 30
0.0
 11
521.799988
 21
236.5
 31
0.0
  0
LINE
  5
245DB
  8
DANMEN
  6
CONTINUOUS
 10
585.0
 20
169.949997
 30
0.0
 11
585.0
 21
219.3
 31
0.0
  0
LINE
  5
245DC
  8
DANMEN
  6
CONTINUOUS
 10
603.5
 20
157.5
 30
0.0
 11
603.5
 21
236.5
 31
0.0
  0
LINE
  5
245DD
  8
DANMEN
  6
CONTINUOUS
 10
580.5
 20
157.5
 30
0.0
 11
580.5
 21
236.5
 31
0.0
  0
LINE
  5
245DE
  8
DANMEN
  6
CONTINUOUS
 10
598.499991
 20
224.050003
 30
0.0
 11
598.499991
 21
174.949997
 31
0.0
  0
LINE
  5
245DF
  8
DANMEN
  6
CONTINUOUS
 10
615.5
 20
223.5
 30
0.0
 11
615.5
 21
184.499997
 31
0.0
  0
LINE
  5
245E0
  8
DANMEN
  6
CONTINUOUS
 10
612.0
 20
157.5
 30
0.0
 11
612.0
 21
236.5
 31
0.0
  0
LINE
  5
245E1
  8
DANMEN
  6
CONTINUOUS
 10
580.0
 20
247.0
 30
0.0
 11
580.0
 21
147.0
 31
0.0
  0
LINE
  5
245E2
  8
DANMEN
  6
CONTINUOUS
 10
604.0
 20
247.0
 30
0.0
 11
604.0
 21
147.0
 31
0.0
  0
LINE
  5
245E3
  8
DANMEN
  6
CONTINUOUS
 10
612.0
 20
247.0
 30
0.0
 11
612.0
 21
147.0
 31
0.0
  0
LINE
  5
245E4
  8
DANMEN
  6
CONTINUOUS
 10
573.0
 20
247.0
 30
0.0
 11
573.0
 21
147.0
 31
0.0
  0
LINE
  5
245E5
  8
DANMEN
  6
CONTINUOUS
 10
606.5
 20
247.0
 30
0.0
 11
606.5
 21
147.0
 31
0.0
  0
LINE
  5
245E6
  8
DANMEN
  6
DASHED
 10
609.5
 20
247.0
 30
0.0
 11
609.5
 21
147.0
 31
0.0
  0
LINE
  5
245E7
  8
DANMEN
  6
CONTINUOUS
 10
491.5
 20
247.0
 30
0.0
 11
491.5
 21
147.0
 31
0.0
  0
LINE
  5
245E8
  8
DANMEN
  6
DASHED
 10
494.5
 20
247.0
 30
0.0
 11
494.5
 21
147.0
 31
0.0
  0
LINE
  5
245E9
  8
DANMEN
  6
CONTINUOUS
 10
528.0
 20
247.0
 30
0.0
 11
528.0
 21
147.0
 31
0.0
  0
LINE
  5
245EA
  8
DANMEN
  6
CONTINUOUS
 10
497.0
 20
247.0
 30
0.0
 11
497.0
 21
147.0
 31
0.0
  0
LINE
  5
245EB
  8
DANMEN
  6
CONTINUOUS
 10
515.8
 20
160.0
 30
0.0
 11
515.8
 21
182.0
 31
0.0
  0
LINE
  5
245EC
  8
DANMEN
  6
CONTINUOUS
 10
500.5
 20
165.34214
 30
0.0
 11
500.5
 21
182.0
 31
0.0
  0
LINE
  5
245ED
  8
DANMEN
  6
CONTINUOUS
 10
509.500009
 20
164.000015
 30
0.0
 11
504.500006
 21
164.000015
 31
0.0
  0
LINE
  5
245EE
  8
DANMEN
  6
CONTINUOUS
 10
499.5
 20
157.5
 30
0.0
 11
499.5
 21
160.0
 31
0.0
  0
LINE
  5
245EF
  8
DANMEN
  6
CONTINUOUS
 10
505.000021
 20
164.000015
 30
0.0
 11
505.000021
 21
147.0
 31
0.0
  0
LINE
  5
245F0
  8
DANMEN
  6
CONTINUOUS
 10
504.500021
 20
164.000015
 30
0.0
 11
504.500021
 21
147.0
 31
0.0
  0
ARC
  5
245F1
  8
DANMEN
  6
CONTINUOUS
 10
500.500015
 20
156.000107
 30
0.0
 40
1.5
 50
180.0
 51
269.999982
  0
LINE
  5
245F2
  8
DANMEN
  6
CONTINUOUS
 10
497.5
 20
157.0
 30
0.0
 11
499.0
 21
157.0
 31
0.0
  0
ARC
  5
245F3
  8
DANMEN
  6
CONTINUOUS
 10
497.5
 20
157.5
 30
0.0
 40
0.5
 50
179.999964
 51
270.000001
  0
LINE
  5
245F4
  8
DANMEN
  6
CONTINUOUS
 10
499.000015
 20
157.0
 30
0.0
 11
499.000015
 21
147.0
 31
0.0
  0
LINE
  5
245F5
  8
DANMEN
  6
CONTINUOUS
 10
503.000006
 20
154.500107
 30
0.0
 11
500.500015
 21
154.500107
 31
0.0
  0
ARC
  5
245F6
  8
DANMEN
  6
CONTINUOUS
 10
499.0
 20
157.5
 30
0.0
 40
0.5
 50
270.000018
 51
0.0
  0
ARC
  5
245F7
  8
DANMEN
  6
CONTINUOUS
 10
503.000006
 20
153.000107
 30
0.0
 40
1.5
 50
0.000036
 51
90.000018
  0
LINE
  5
245F8
  8
DANMEN
  6
CONTINUOUS
 10
500.290415
 20
164.729568
 30
0.0
 11
498.95
 21
163.0
 31
0.0
  0
LINE
  5
245F9
  8
DANMEN
  6
CONTINUOUS
 10
498.95
 20
160.0
 30
0.0
 11
498.95
 21
163.0
 31
0.0
  0
LINE
  5
245FA
  8
DANMEN
  6
CONTINUOUS
 10
498.95
 20
160.0
 30
0.0
 11
499.5
 21
160.0
 31
0.0
  0
ARC
  5
245FB
  8
DANMEN
  6
CONTINUOUS
 10
499.5
 20
165.34214
 30
0.0
 40
1.0
 50
322.224312
 51
0.0
  0
LINE
  5
245FC
  8
DANMEN
  6
CONTINUOUS
 10
514.5
 20
157.5
 30
0.0
 11
514.5
 21
160.0
 31
0.0
  0
LINE
  5
245FD
  8
DANMEN
  6
CONTINUOUS
 10
509.000009
 20
164.0
 30
0.0
 11
509.000009
 21
147.0
 31
0.0
  0
LINE
  5
245FE
  8
DANMEN
  6
CONTINUOUS
 10
509.500009
 20
164.0
 30
0.0
 11
509.500009
 21
147.0
 31
0.0
  0
ARC
  5
245FF
  8
DANMEN
  6
CONTINUOUS
 10
513.500015
 20
156.000107
 30
0.0
 40
1.5
 50
269.999999
 51
0.000036
  0
LINE
  5
24600
  8
DANMEN
  6
CONTINUOUS
 10
515.0
 20
157.0
 30
0.0
 11
521.299988
 21
157.0
 31
0.0
  0
LINE
  5
24601
  8
DANMEN
  6
CONTINUOUS
 10
514.999985
 20
157.0
 30
0.0
 11
514.999985
 21
147.0
 31
0.0
  0
LINE
  5
24602
  8
DANMEN
  6
CONTINUOUS
 10
513.500015
 20
154.500107
 30
0.0
 11
511.000009
 21
154.500107
 31
0.0
  0
ARC
  5
24603
  8
DANMEN
  6
CONTINUOUS
 10
511.000009
 20
153.000107
 30
0.0
 40
1.5
 50
90.000018
 51
180.0
  0
ARC
  5
24604
  8
DANMEN
  6
CONTINUOUS
 10
515.0
 20
157.5
 30
0.0
 40
0.5
 50
179.999964
 51
270.000001
  0
LINE
  5
24605
  8
DANMEN
  6
CONTINUOUS
 10
519.0
 20
147.0
 30
0.0
 11
519.0
 21
157.0
 31
0.0
  0
ARC
  5
24606
  8
DANMEN
  6
CONTINUOUS
 10
521.299988
 20
157.5
 30
0.0
 40
0.5
 50
270.000018
 51
0.0
  0
LINE
  5
24607
  8
DANMEN
  6
CONTINUOUS
 10
514.5
 20
160.0
 30
0.0
 11
515.8
 21
160.0
 31
0.0
  0
LINE
  5
24608
  8
DANMEN
  6
CONTINUOUS
 10
500.5
 20
182.0
 30
0.0
 11
515.8
 21
182.0
 31
0.0
  0
LINE
  5
24609
  8
DANMEN
  6
CONTINUOUS
 10
500.5
 20
184.499997
 30
0.0
 11
515.799988
 21
184.499997
 31
0.0
  0
LINE
  5
2460A
  8
DANMEN
  6
CONTINUOUS
 10
590.65
 20
169.0
 30
0.0
 11
590.65
 21
173.0
 31
0.0
  0
LINE
  5
2460B
  8
DANMEN
  6
CONTINUOUS
 10
588.7
 20
169.949997
 30
0.0
 11
588.7
 21
173.949997
 31
0.0
  0
LINE
  5
2460C
  8
DANMEN
  6
CONTINUOUS
 10
599.0
 20
163.0
 30
0.0
 11
599.0
 21
173.0
 31
0.0
  0
LINE
  5
2460D
  8
DANMEN
  6
CONTINUOUS
 10
615.5
 20
165.34214
 30
0.0
 11
615.5
 21
182.0
 31
0.0
  0
ARC
  5
2460E
  8
DANMEN
  6
CONTINUOUS
 10
588.000006
 20
128.999908
 30
0.0
 40
1.5
 50
269.999982
 51
359.999964
  0
ARC
  5
2460F
  8
DANMEN
  6
CONTINUOUS
 10
588.000006
 20
153.000092
 30
0.0
 40
1.5
 50
0.000036
 51
90.000018
  0
LINE
  5
24610
  8
DANMEN
  6
CONTINUOUS
 10
585.0
 20
167.999997
 30
0.0
 11
589.65
 21
167.999997
 31
0.0
  0
ARC
  5
24611
  8
DANMEN
  6
CONTINUOUS
 10
581.0
 20
124.5
 30
0.0
 40
0.5
 50
89.999982
 51
180.000019
  0
LINE
  5
24612
  8
DANMEN
  6
CONTINUOUS
 10
584.000015
 20
124.999985
 30
0.0
 11
584.000015
 21
135.0
 31
0.0
  0
ARC
  5
24613
  8
DANMEN
  6
CONTINUOUS
 10
585.500015
 20
125.999908
 30
0.0
 40
1.5
 50
90.000018
 51
180.0
  0
ARC
  5
24614
  8
DANMEN
  6
CONTINUOUS
 10
584.5
 20
124.5
 30
0.0
 40
0.5
 50
0.0
 51
89.999982
  0
LINE
  5
24615
  8
DANMEN
  6
CONTINUOUS
 10
581.0
 20
125.0
 30
0.0
 11
584.5
 21
125.0
 31
0.0
  0
LINE
  5
24616
  8
DANMEN
  6
CONTINUOUS
 10
588.000006
 20
127.499908
 30
0.0
 11
585.500015
 21
127.499908
 31
0.0
  0
LINE
  5
24617
  8
DANMEN
  6
CONTINUOUS
 10
585.0
 20
157.5
 30
0.0
 11
585.0
 21
160.0
 31
0.0
  0
ARC
  5
24618
  8
DANMEN
  6
CONTINUOUS
 10
581.0
 20
157.5
 30
0.0
 40
0.5
 50
179.999964
 51
270.000001
  0
LINE
  5
24619
  8
DANMEN
  6
CONTINUOUS
 10
584.000015
 20
157.0
 30
0.0
 11
584.000015
 21
147.0
 31
0.0
  0
ARC
  5
2461A
  8
DANMEN
  6
CONTINUOUS
 10
585.500015
 20
156.000092
 30
0.0
 40
1.5
 50
180.0
 51
269.999982
  0
ARC
  5
2461B
  8
DANMEN
  6
CONTINUOUS
 10
584.5
 20
157.5
 30
0.0
 40
0.5
 50
270.000018
 51
0.0
  0
LINE
  5
2461C
  8
DANMEN
  6
CONTINUOUS
 10
581.0
 20
157.0
 30
0.0
 11
584.5
 21
157.0
 31
0.0
  0
LINE
  5
2461D
  8
DANMEN
  6
CONTINUOUS
 10
588.000006
 20
154.500092
 30
0.0
 11
585.500015
 21
154.500092
 31
0.0
  0
LINE
  5
2461E
  8
DANMEN
  6
CONTINUOUS
 10
585.0
 20
163.0
 30
0.0
 11
585.0
 21
167.999997
 31
0.0
  0
LINE
  5
2461F
  8
DANMEN
  6
CONTINUOUS
 10
585.0
 20
160.0
 30
0.0
 11
584.400009
 21
160.0
 31
0.0
  0
LINE
  5
24620
  8
DANMEN
  6
CONTINUOUS
 10
584.400009
 20
163.0
 30
0.0
 11
585.0
 21
163.0
 31
0.0
  0
LINE
  5
24621
  8
DANMEN
  6
CONTINUOUS
 10
584.400009
 20
160.0
 30
0.0
 11
584.400009
 21
163.0
 31
0.0
  0
LINE
  5
24622
  8
DANMEN
  6
CONTINUOUS
 10
585.0
 20
169.949997
 30
0.0
 11
588.7
 21
169.949997
 31
0.0
  0
LINE
  5
24623
  8
DANMEN
  6
CONTINUOUS
 10
598.500015
 20
127.499908
 30
0.0
 11
596.000009
 21
127.499908
 31
0.0
  0
ARC
  5
24624
  8
DANMEN
  6
CONTINUOUS
 10
596.000009
 20
128.999908
 30
0.0
 40
1.5
 50
180.0
 51
269.999982
  0
LINE
  5
24625
  8
DANMEN
  6
CONTINUOUS
 10
599.999985
 20
125.0
 30
0.0
 11
599.999985
 21
135.0
 31
0.0
  0
ARC
  5
24626
  8
DANMEN
  6
CONTINUOUS
 10
601.299988
 20
124.5
 30
0.0
 40
0.5
 50
0.0
 51
89.999982
  0
ARC
  5
24627
  8
DANMEN
  6
CONTINUOUS
 10
598.500015
 20
125.999908
 30
0.0
 40
1.5
 50
359.999964
 51
90.000001
  0
LINE
  5
24628
  8
DANMEN
  6
CONTINUOUS
 10
599.5
 20
125.0
 30
0.0
 11
601.299988
 21
125.0
 31
0.0
  0
ARC
  5
24629
  8
DANMEN
  6
CONTINUOUS
 10
599.5
 20
124.5
 30
0.0
 40
0.5
 50
89.999982
 51
180.000019
  0
LINE
  5
2462A
  8
DANMEN
  6
CONTINUOUS
 10
612.5
 20
125.0
 30
0.0
 11
614.0
 21
125.0
 31
0.0
  0
ARC
  5
2462B
  8
DANMEN
  6
CONTINUOUS
 10
612.5
 20
124.5
 30
0.0
 40
0.5
 50
89.999982
 51
180.000019
  0
LINE
  5
2462C
  8
DANMEN
  6
CONTINUOUS
 10
614.000015
 20
125.0
 30
0.0
 11
614.000015
 21
135.0
 31
0.0
  0
LINE
  5
2462D
  8
DANMEN
  6
CONTINUOUS
 10
618.000006
 20
127.499893
 30
0.0
 11
615.500015
 21
127.499893
 31
0.0
  0
ARC
  5
2462E
  8
DANMEN
  6
CONTINUOUS
 10
614.0
 20
124.5
 30
0.0
 40
0.5
 50
0.0
 51
89.999982
  0
ARC
  5
2462F
  8
DANMEN
  6
CONTINUOUS
 10
615.500015
 20
125.999893
 30
0.0
 40
1.5
 50
90.000018
 51
180.0
  0
ARC
  5
24630
  8
DANMEN
  6
CONTINUOUS
 10
618.000006
 20
128.999893
 30
0.0
 40
1.5
 50
269.999982
 51
359.999964
  0
LINE
  5
24631
  8
DANMEN
  6
CONTINUOUS
 10
599.0
 20
157.5
 30
0.0
 11
599.0
 21
160.0
 31
0.0
  0
LINE
  5
24632
  8
DANMEN
  6
CONTINUOUS
 10
594.000009
 20
164.0
 30
0.0
 11
594.000009
 21
147.0
 31
0.0
  0
LINE
  5
24633
  8
DANMEN
  6
CONTINUOUS
 10
594.500009
 20
164.0
 30
0.0
 11
594.500009
 21
147.0
 31
0.0
  0
LINE
  5
24634
  8
DANMEN
  6
CONTINUOUS
 10
590.000021
 20
164.000015
 30
0.0
 11
590.000021
 21
147.0
 31
0.0
  0
LINE
  5
24635
  8
DANMEN
  6
CONTINUOUS
 10
589.500021
 20
164.000015
 30
0.0
 11
589.500021
 21
147.0
 31
0.0
  0
LINE
  5
24636
  8
DANMEN
  6
CONTINUOUS
 10
598.500015
 20
154.500092
 30
0.0
 11
596.000009
 21
154.500092
 31
0.0
  0
ARC
  5
24637
  8
DANMEN
  6
CONTINUOUS
 10
596.000009
 20
153.000092
 30
0.0
 40
1.5
 50
90.000018
 51
180.0
  0
LINE
  5
24638
  8
DANMEN
  6
CONTINUOUS
 10
599.999985
 20
157.0
 30
0.0
 11
599.999985
 21
147.0
 31
0.0
  0
LINE
  5
24639
  8
DANMEN
  6
CONTINUOUS
 10
599.5
 20
157.0
 30
0.0
 11
603.0
 21
157.0
 31
0.0
  0
ARC
  5
2463A
  8
DANMEN
  6
CONTINUOUS
 10
598.500015
 20
156.000092
 30
0.0
 40
1.5
 50
269.999999
 51
0.000036
  0
ARC
  5
2463B
  8
DANMEN
  6
CONTINUOUS
 10
599.5
 20
157.5
 30
0.0
 40
0.5
 50
179.999964
 51
270.000001
  0
ARC
  5
2463C
  8
DANMEN
  6
CONTINUOUS
 10
603.0
 20
157.5
 30
0.0
 40
0.5
 50
270.000018
 51
0.0
  0
LINE
  5
2463D
  8
DANMEN
  6
CONTINUOUS
 10
594.500009
 20
164.000015
 30
0.0
 11
589.500021
 21
164.000015
 31
0.0
  0
ARC
  5
2463E
  8
DANMEN
  6
CONTINUOUS
 10
589.65
 20
168.999997
 30
0.0
 40
1.0
 50
270.0
 51
0.0
  0
LINE
  5
2463F
  8
DANMEN
  6
CONTINUOUS
 10
599.0
 20
160.0
 30
0.0
 11
599.599991
 21
160.0
 31
0.0
  0
LINE
  5
24640
  8
DANMEN
  6
CONTINUOUS
 10
599.599991
 20
160.0
 30
0.0
 11
599.599991
 21
163.0
 31
0.0
  0
LINE
  5
24641
  8
DANMEN
  6
CONTINUOUS
 10
599.0
 20
163.0
 30
0.0
 11
599.599991
 21
163.0
 31
0.0
  0
LINE
  5
24642
  8
DANMEN
  6
CONTINUOUS
 10
614.5
 20
157.5
 30
0.0
 11
614.5
 21
160.0
 31
0.0
  0
LINE
  5
24643
  8
DANMEN
  6
CONTINUOUS
 10
619.500021
 20
164.000015
 30
0.0
 11
619.500021
 21
147.0
 31
0.0
  0
LINE
  5
24644
  8
DANMEN
  6
CONTINUOUS
 10
620.000021
 20
164.000015
 30
0.0
 11
620.000021
 21
147.0
 31
0.0
  0
LINE
  5
24645
  8
DANMEN
  6
CONTINUOUS
 10
612.5
 20
157.0
 30
0.0
 11
614.0
 21
157.0
 31
0.0
  0
ARC
  5
24646
  8
DANMEN
  6
CONTINUOUS
 10
612.5
 20
157.5
 30
0.0
 40
0.5
 50
179.999964
 51
270.000001
  0
LINE
  5
24647
  8
DANMEN
  6
CONTINUOUS
 10
614.000015
 20
157.0
 30
0.0
 11
614.000015
 21
147.0
 31
0.0
  0
LINE
  5
24648
  8
DANMEN
  6
CONTINUOUS
 10
618.000006
 20
154.500107
 30
0.0
 11
615.500015
 21
154.500107
 31
0.0
  0
ARC
  5
24649
  8
DANMEN
  6
CONTINUOUS
 10
615.500015
 20
156.000107
 30
0.0
 40
1.5
 50
180.0
 51
269.999982
  0
ARC
  5
2464A
  8
DANMEN
  6
CONTINUOUS
 10
614.0
 20
157.5
 30
0.0
 40
0.5
 50
270.000018
 51
0.0
  0
ARC
  5
2464B
  8
DANMEN
  6
CONTINUOUS
 10
618.000006
 20
153.000107
 30
0.0
 40
1.5
 50
0.000036
 51
90.000018
  0
LINE
  5
2464C
  8
DANMEN
  6
CONTINUOUS
 10
615.290415
 20
164.729568
 30
0.0
 11
613.95
 21
163.0
 31
0.0
  0
LINE
  5
2464D
  8
DANMEN
  6
CONTINUOUS
 10
613.95
 20
160.0
 30
0.0
 11
613.95
 21
163.0
 31
0.0
  0
LINE
  5
2464E
  8
DANMEN
  6
CONTINUOUS
 10
613.95
 20
160.0
 30
0.0
 11
614.5
 21
160.0
 31
0.0
  0
ARC
  5
2464F
  8
DANMEN
  6
CONTINUOUS
 10
614.5
 20
165.34214
 30
0.0
 40
1.0
 50
322.224312
 51
0.0
  0
ARC
  5
24650
  8
DANMEN
  6
CONTINUOUS
 10
589.7
 20
173.949997
 30
0.0
 40
1.0
 50
89.999982
 51
180.000019
  0
LINE
  5
24651
  8
DANMEN
  6
CONTINUOUS
 10
590.65
 20
173.0
 30
0.0
 11
599.0
 21
173.0
 31
0.0
  0
LINE
  5
24652
  8
DANMEN
  6
CONTINUOUS
 10
589.7
 20
174.949997
 30
0.0
 11
598.499991
 21
174.949997
 31
0.0
  0
ARC
  5
24653
  8
DANMEN
  6
CONTINUOUS
 10
511.000009
 20
240.999893
 30
0.0
 40
1.5
 50
180.0
 51
269.999982
  0
ARC
  5
24654
  8
DANMEN
  6
CONTINUOUS
 10
503.000006
 20
240.999893
 30
0.0
 40
1.5
 50
269.999982
 51
359.999964
  0
ARC
  5
24655
  8
DANMEN
  6
CONTINUOUS
 10
500.500015
 20
237.999893
 30
0.0
 40
1.5
 50
90.000018
 51
180.0
  0
ARC
  5
24656
  8
DANMEN
  6
CONTINUOUS
 10
513.500015
 20
237.999893
 30
0.0
 40
1.5
 50
359.999964
 51
90.000001
  0
LINE
  5
24657
  8
DANMEN
  6
CONTINUOUS
 10
499.000015
 20
237.0
 30
0.0
 11
499.000015
 21
247.0
 31
0.0
  0
LINE
  5
24658
  8
DANMEN
  6
CONTINUOUS
 10
519.0
 20
247.0
 30
0.0
 11
519.0
 21
237.0
 31
0.0
  0
LINE
  5
24659
  8
DANMEN
  6
CONTINUOUS
 10
514.999985
 20
237.0
 30
0.0
 11
514.999985
 21
247.0
 31
0.0
  0
LINE
  5
2465A
  8
DANMEN
  6
CONTINUOUS
 10
505.000021
 20
229.999985
 30
0.0
 11
505.000021
 21
247.0
 31
0.0
  0
LINE
  5
2465B
  8
DANMEN
  6
CONTINUOUS
 10
509.000009
 20
230.0
 30
0.0
 11
509.000009
 21
247.0
 31
0.0
  0
LINE
  5
2465C
  8
DANMEN
  6
CONTINUOUS
 10
504.500021
 20
229.999985
 30
0.0
 11
504.500021
 21
247.0
 31
0.0
  0
LINE
  5
2465D
  8
DANMEN
  6
CONTINUOUS
 10
509.500009
 20
230.0
 30
0.0
 11
509.500009
 21
247.0
 31
0.0
  0
LINE
  5
2465E
  8
DANMEN
  6
CONTINUOUS
 10
500.5
 20
226.0
 30
0.0
 11
515.8
 21
226.0
 31
0.0
  0
ARC
  5
2465F
  8
DANMEN
  6
CONTINUOUS
 10
507.2
 20
223.3
 30
0.0
 40
1.0
 50
90.0
 51
180.0
  0
LINE
  5
24660
  8
DANMEN
  6
CONTINUOUS
 10
509.500009
 20
229.999985
 30
0.0
 11
504.500006
 21
229.999985
 31
0.0
  0
LINE
  5
24661
  8
DANMEN
  6
CONTINUOUS
 10
500.5
 20
228.65786
 30
0.0
 11
500.5
 21
226.0
 31
0.0
  0
LINE
  5
24662
  8
DANMEN
  6
CONTINUOUS
 10
504.7
 20
221.969694
 30
0.0
 11
504.7
 21
222.5
 31
0.0
  0
LINE
  5
24663
  8
DANMEN
  6
CONTINUOUS
 10
506.2
 20
222.053939
 30
0.0
 11
506.2
 21
223.3
 31
0.0
  0
ARC
  5
24664
  8
DANMEN
  6
CONTINUOUS
 10
506.7
 20
221.969694
 30
0.0
 40
2.0
 50
180.0
 51
231.706523
  0
ARC
  5
24665
  8
DANMEN
  6
CONTINUOUS
 10
506.7
 20
220.963068
 30
0.0
 40
0.2
 50
0.0
 51
65.375682
  0
ARC
  5
24666
  8
DANMEN
  6
CONTINUOUS
 10
507.2
 20
222.053939
 30
0.0
 40
1.0
 50
180.0
 51
245.375682
  0
LINE
  5
24667
  8
DANMEN
  6
CONTINUOUS
 10
506.9
 20
220.7
 30
0.0
 11
506.9
 21
220.963068
 31
0.0
  0
LINE
  5
24668
  8
DANMEN
  6
CONTINUOUS
 10
505.460621
 20
220.4
 30
0.0
 11
506.6
 21
220.4
 31
0.0
  0
ARC
  5
24669
  8
DANMEN
  6
CONTINUOUS
 10
506.6
 20
220.7
 30
0.0
 40
0.3
 50
270.0
 51
0.0
  0
LINE
  5
2466A
  8
DANMEN
  6
CONTINUOUS
 10
500.5
 20
223.5
 30
0.0
 11
503.7
 21
223.5
 31
0.0
  0
ARC
  5
2466B
  8
DANMEN
  6
CONTINUOUS
 10
503.7
 20
222.5
 30
0.0
 40
1.0
 50
0.0
 51
90.0
  0
LINE
  5
2466C
  8
DANMEN
  6
CONTINUOUS
 10
497.5
 20
237.0
 30
0.0
 11
499.0
 21
237.0
 31
0.0
  0
ARC
  5
2466D
  8
DANMEN
  6
CONTINUOUS
 10
497.5
 20
236.5
 30
0.0
 40
0.5
 50
89.999982
 51
180.000019
  0
LINE
  5
2466E
  8
DANMEN
  6
CONTINUOUS
 10
498.95
 20
234.0
 30
0.0
 11
498.95
 21
231.0
 31
0.0
  0
LINE
  5
2466F
  8
DANMEN
  6
CONTINUOUS
 10
500.290415
 20
229.270432
 30
0.0
 11
498.95
 21
231.0
 31
0.0
  0
ARC
  5
24670
  8
DANMEN
  6
CONTINUOUS
 10
499.5
 20
228.65786
 30
0.0
 40
1.0
 50
0.0
 51
37.775688
  0
LINE
  5
24671
  8
DANMEN
  6
CONTINUOUS
 10
503.000006
 20
239.499893
 30
0.0
 11
500.500015
 21
239.499893
 31
0.0
  0
LINE
  5
24672
  8
DANMEN
  6
CONTINUOUS
 10
499.5
 20
236.5
 30
0.0
 11
499.5
 21
234.0
 31
0.0
  0
ARC
  5
24673
  8
DANMEN
  6
CONTINUOUS
 10
499.0
 20
236.5
 30
0.0
 40
0.5
 50
0.0
 51
89.999982
  0
LINE
  5
24674
  8
DANMEN
  6
CONTINUOUS
 10
498.95
 20
234.0
 30
0.0
 11
499.5
 21
234.0
 31
0.0
  0
LINE
  5
24675
  8
DANMEN
  6
CONTINUOUS
 10
515.8
 20
226.0
 30
0.0
 11
515.8
 21
234.0
 31
0.0
  0
LINE
  5
24676
  8
DANMEN
  6
CONTINUOUS
 10
512.3
 20
223.5
 30
0.0
 11
515.799988
 21
223.5
 31
0.0
  0
LINE
  5
24677
  8
DANMEN
  6
CONTINUOUS
 10
511.3
 20
221.969694
 30
0.0
 11
511.3
 21
222.5
 31
0.0
  0
LINE
  5
24678
  8
DANMEN
  6
CONTINUOUS
 10
509.8
 20
222.053939
 30
0.0
 11
509.8
 21
223.3
 31
0.0
  0
ARC
  5
24679
  8
DANMEN
  6
CONTINUOUS
 10
509.3
 20
221.969694
 30
0.0
 40
2.0
 50
308.293477
 51
0.0
  0
LINE
  5
2467A
  8
DANMEN
  6
CONTINUOUS
 10
509.1
 20
220.7
 30
0.0
 11
509.1
 21
220.963068
 31
0.0
  0
ARC
  5
2467B
  8
DANMEN
  6
CONTINUOUS
 10
508.8
 20
222.053939
 30
0.0
 40
1.0
 50
294.624318
 51
0.0
  0
ARC
  5
2467C
  8
DANMEN
  6
CONTINUOUS
 10
509.3
 20
220.963068
 30
0.0
 40
0.2
 50
114.624318
 51
180.0
  0
LINE
  5
2467D
  8
DANMEN
  6
CONTINUOUS
 10
509.4
 20
220.4
 30
0.0
 11
510.539379
 21
220.4
 31
0.0
  0
ARC
  5
2467E
  8
DANMEN
  6
CONTINUOUS
 10
509.4
 20
220.7
 30
0.0
 40
0.3
 50
180.0
 51
270.0
  0
ARC
  5
2467F
  8
DANMEN
  6
CONTINUOUS
 10
512.3
 20
222.5
 30
0.0
 40
1.0
 50
90.0
 51
180.0
  0
ARC
  5
24680
  8
DANMEN
  6
CONTINUOUS
 10
508.8
 20
223.3
 30
0.0
 40
1.0
 50
0.0
 51
90.0
  0
LINE
  5
24681
  8
DANMEN
  6
CONTINUOUS
 10
507.2
 20
224.3
 30
0.0
 11
508.8
 21
224.3
 31
0.0
  0
LINE
  5
24682
  8
DANMEN
  6
CONTINUOUS
 10
514.5
 20
234.0
 30
0.0
 11
515.8
 21
234.0
 31
0.0
  0
LINE
  5
24683
  8
DANMEN
  6
CONTINUOUS
 10
515.0
 20
237.0
 30
0.0
 11
521.299988
 21
237.0
 31
0.0
  0
LINE
  5
24684
  8
DANMEN
  6
CONTINUOUS
 10
513.500015
 20
239.499893
 30
0.0
 11
511.000009
 21
239.499893
 31
0.0
  0
LINE
  5
24685
  8
DANMEN
  6
CONTINUOUS
 10
514.5
 20
236.5
 30
0.0
 11
514.5
 21
234.0
 31
0.0
  0
ARC
  5
24686
  8
DANMEN
  6
CONTINUOUS
 10
515.0
 20
236.5
 30
0.0
 40
0.5
 50
89.999999
 51
180.000036
  0
ARC
  5
24687
  8
DANMEN
  6
CONTINUOUS
 10
521.299988
 20
236.5
 30
0.0
 40
0.5
 50
0.0
 51
89.999982
  0
ARC
  5
24688
  8
DANMEN
  6
CONTINUOUS
 10
588.000006
 20
240.999908
 30
0.0
 40
1.5
 50
269.999982
 51
359.999964
  0
LINE
  5
24689
  8
DANMEN
  6
CONTINUOUS
 10
585.0
 20
219.3
 30
0.0
 11
591.833705
 21
219.3
 31
0.0
  0
ARC
  5
2468A
  8
DANMEN
  6
CONTINUOUS
 10
591.2
 20
223.5
 30
0.0
 40
2.5
 50
89.999982
 51
180.000019
  0
ARC
  5
2468B
  8
DANMEN
  6
CONTINUOUS
 10
585.500015
 20
237.999908
 30
0.0
 40
1.5
 50
90.000018
 51
180.0
  0
LINE
  5
2468C
  8
DANMEN
  6
CONTINUOUS
 10
584.000015
 20
236.999985
 30
0.0
 11
584.000015
 21
247.0
 31
0.0
  0
LINE
  5
2468D
  8
DANMEN
  6
CONTINUOUS
 10
585.0
 20
221.25
 30
0.0
 11
585.0
 21
231.0
 31
0.0
  0
LINE
  5
2468E
  8
DANMEN
  6
CONTINUOUS
 10
588.7
 20
223.5
 30
0.0
 11
588.7
 21
221.25
 31
0.0
  0
LINE
  5
2468F
  8
DANMEN
  6
CONTINUOUS
 10
585.0
 20
221.25
 30
0.0
 11
588.7
 21
221.25
 31
0.0
  0
ARC
  5
24690
  8
DANMEN
  6
CONTINUOUS
 10
581.0
 20
236.5
 30
0.0
 40
0.5
 50
89.999982
 51
180.000019
  0
LINE
  5
24691
  8
DANMEN
  6
CONTINUOUS
 10
584.400009
 20
234.0
 30
0.0
 11
584.400009
 21
231.0
 31
0.0
  0
LINE
  5
24692
  8
DANMEN
  6
CONTINUOUS
 10
585.0
 20
231.0
 30
0.0
 11
584.400009
 21
231.0
 31
0.0
  0
ARC
  5
24693
  8
DANMEN
  6
CONTINUOUS
 10
584.5
 20
236.5
 30
0.0
 40
0.5
 50
0.0
 51
89.999982
  0
LINE
  5
24694
  8
DANMEN
  6
CONTINUOUS
 10
585.0
 20
234.0
 30
0.0
 11
584.400009
 21
234.0
 31
0.0
  0
LINE
  5
24695
  8
DANMEN
  6
CONTINUOUS
 10
581.0
 20
237.0
 30
0.0
 11
584.5
 21
237.0
 31
0.0
  0
LINE
  5
24696
  8
DANMEN
  6
CONTINUOUS
 10
588.000006
 20
239.499908
 30
0.0
 11
585.500015
 21
239.499908
 31
0.0
  0
LINE
  5
24697
  8
DANMEN
  6
CONTINUOUS
 10
585.0
 20
236.5
 30
0.0
 11
585.0
 21
234.0
 31
0.0
  0
ARC
  5
24698
  8
DANMEN
  6
CONTINUOUS
 10
596.000009
 20
240.999908
 30
0.0
 40
1.5
 50
180.0
 51
269.999982
  0
ARC
  5
24699
  8
DANMEN
  6
CONTINUOUS
 10
598.500015
 20
237.999908
 30
0.0
 40
1.5
 50
359.999964
 51
90.000001
  0
ARC
  5
2469A
  8
DANMEN
  6
CONTINUOUS
 10
618.000006
 20
240.999893
 30
0.0
 40
1.5
 50
269.999982
 51
359.999964
  0
ARC
  5
2469B
  8
DANMEN
  6
CONTINUOUS
 10
615.500015
 20
237.999893
 30
0.0
 40
1.5
 50
90.000018
 51
180.0
  0
LINE
  5
2469C
  8
DANMEN
  6
CONTINUOUS
 10
590.000021
 20
229.999985
 30
0.0
 11
590.000021
 21
247.0
 31
0.0
  0
LINE
  5
2469D
  8
DANMEN
  6
CONTINUOUS
 10
594.000009
 20
230.0
 30
0.0
 11
594.000009
 21
247.0
 31
0.0
  0
LINE
  5
2469E
  8
DANMEN
  6
CONTINUOUS
 10
589.500021
 20
229.999985
 30
0.0
 11
589.500021
 21
247.0
 31
0.0
  0
LINE
  5
2469F
  8
DANMEN
  6
CONTINUOUS
 10
594.500009
 20
230.0
 30
0.0
 11
594.500009
 21
247.0
 31
0.0
  0
LINE
  5
246A0
  8
DANMEN
  6
CONTINUOUS
 10
599.999985
 20
237.0
 30
0.0
 11
599.999985
 21
247.0
 31
0.0
  0
LINE
  5
246A1
  8
DANMEN
  6
CONTINUOUS
 10
619.500021
 20
229.999985
 30
0.0
 11
619.500021
 21
247.0
 31
0.0
  0
LINE
  5
246A2
  8
DANMEN
  6
CONTINUOUS
 10
620.000021
 20
229.999985
 30
0.0
 11
620.000021
 21
247.0
 31
0.0
  0
LINE
  5
246A3
  8
DANMEN
  6
CONTINUOUS
 10
614.000015
 20
237.0
 30
0.0
 11
614.000015
 21
247.0
 31
0.0
  0
LINE
  5
246A4
  8
DANMEN
  6
CONTINUOUS
 10
599.0
 20
226.0
 30
0.0
 11
599.0
 21
231.0
 31
0.0
  0
LINE
  5
246A5
  8
DANMEN
  6
CONTINUOUS
 10
596.199999
 20
224.050003
 30
0.0
 11
598.499991
 21
224.050003
 31
0.0
  0
LINE
  5
246A6
  8
DANMEN
  6
CONTINUOUS
 10
591.2
 20
226.0
 30
0.0
 11
599.0
 21
226.0
 31
0.0
  0
LINE
  5
246A7
  8
DANMEN
  6
CONTINUOUS
 10
590.2
 20
221.8
 30
0.0
 11
590.2
 21
223.3
 31
0.0
  0
ARC
  5
246A8
  8
DANMEN
  6
CONTINUOUS
 10
594.45
 20
222.666295
 30
0.0
 40
0.75
 50
180.0
 51
0.0
  0
LINE
  5
246A9
  8
DANMEN
  6
CONTINUOUS
 10
591.2
 20
220.8
 30
0.0
 11
591.833705
 21
220.8
 31
0.0
  0
ARC
  5
246AA
  8
DANMEN
  6
CONTINUOUS
 10
591.2
 20
221.8
 30
0.0
 40
1.0
 50
180.0
 51
270.0
  0
ARC
  5
246AB
  8
DANMEN
  6
CONTINUOUS
 10
591.833705
 20
220.05
 30
0.0
 40
0.75
 50
270.0
 51
90.0
  0
ARC
  5
246AC
  8
DANMEN
  6
CONTINUOUS
 10
592.7
 20
223.3
 30
0.0
 40
1.0
 50
0.0
 51
90.0
  0
LINE
  5
246AD
  8
DANMEN
  6
CONTINUOUS
 10
591.2
 20
224.3
 30
0.0
 11
592.7
 21
224.3
 31
0.0
  0
ARC
  5
246AE
  8
DANMEN
  6
CONTINUOUS
 10
591.2
 20
223.3
 30
0.0
 40
1.0
 50
90.0
 51
180.0
  0
ARC
  5
246AF
  8
DANMEN
  6
CONTINUOUS
 10
596.2
 20
223.050003
 30
0.0
 40
1.0
 50
90.0
 51
180.0
  0
LINE
  5
246B0
  8
DANMEN
  6
CONTINUOUS
 10
593.7
 20
222.666295
 30
0.0
 11
593.7
 21
223.3
 31
0.0
  0
LINE
  5
246B1
  8
DANMEN
  6
CONTINUOUS
 10
595.2
 20
222.666295
 30
0.0
 11
595.2
 21
223.050003
 31
0.0
  0
LINE
  5
246B2
  8
DANMEN
  6
CONTINUOUS
 10
598.500015
 20
239.499908
 30
0.0
 11
596.000009
 21
239.499908
 31
0.0
  0
LINE
  5
246B3
  8
DANMEN
  6
CONTINUOUS
 10
594.500009
 20
229.999985
 30
0.0
 11
589.500006
 21
229.999985
 31
0.0
  0
LINE
  5
246B4
  8
DANMEN
  6
CONTINUOUS
 10
599.599991
 20
234.0
 30
0.0
 11
599.599991
 21
231.0
 31
0.0
  0
LINE
  5
246B5
  8
DANMEN
  6
CONTINUOUS
 10
599.0
 20
231.0
 30
0.0
 11
599.599991
 21
231.0
 31
0.0
  0
LINE
  5
246B6
  8
DANMEN
  6
CONTINUOUS
 10
599.5
 20
237.0
 30
0.0
 11
603.0
 21
237.0
 31
0.0
  0
LINE
  5
246B7
  8
DANMEN
  6
CONTINUOUS
 10
599.0
 20
234.0
 30
0.0
 11
599.599991
 21
234.0
 31
0.0
  0
ARC
  5
246B8
  8
DANMEN
  6
CONTINUOUS
 10
599.5
 20
236.5
 30
0.0
 40
0.5
 50
89.999982
 51
180.000019
  0
LINE
  5
246B9
  8
DANMEN
  6
CONTINUOUS
 10
599.0
 20
236.5
 30
0.0
 11
599.0
 21
234.0
 31
0.0
  0
ARC
  5
246BA
  8
DANMEN
  6
CONTINUOUS
 10
603.0
 20
236.5
 30
0.0
 40
0.5
 50
0.0
 51
89.999982
  0
LINE
  5
246BB
  8
DANMEN
  6
CONTINUOUS
 10
615.5
 20
228.65786
 30
0.0
 11
615.5
 21
226.0
 31
0.0
  0
LINE
  5
246BC
  8
DANMEN
  6
CONTINUOUS
 10
619.7
 20
221.969694
 30
0.0
 11
619.7
 21
222.5
 31
0.0
  0
LINE
  5
246BD
  8
DANMEN
  6
CONTINUOUS
 10
621.2
 20
222.053939
 30
0.0
 11
621.2
 21
223.3
 31
0.0
  0
ARC
  5
246BE
  8
DANMEN
  6
CONTINUOUS
 10
621.7
 20
221.969694
 30
0.0
 40
2.0
 50
180.0
 51
231.706523
  0
ARC
  5
246BF
  8
DANMEN
  6
CONTINUOUS
 10
622.2
 20
222.053939
 30
0.0
 40
1.0
 50
180.0
 51
245.375682
  0
LINE
  5
246C0
  8
DANMEN
  6
CONTINUOUS
 10
620.460621
 20
220.4
 30
0.0
 11
621.6
 21
220.4
 31
0.0
  0
LINE
  5
246C1
  8
DANMEN
  6
CONTINUOUS
 10
615.5
 20
223.5
 30
0.0
 11
618.7
 21
223.5
 31
0.0
  0
ARC
  5
246C2
  8
DANMEN
  6
CONTINUOUS
 10
618.7
 20
222.5
 30
0.0
 40
1.0
 50
0.0
 51
90.0
  0
LINE
  5
246C3
  8
DANMEN
  6
CONTINUOUS
 10
612.5
 20
237.0
 30
0.0
 11
614.0
 21
237.0
 31
0.0
  0
ARC
  5
246C4
  8
DANMEN
  6
CONTINUOUS
 10
612.5
 20
236.5
 30
0.0
 40
0.5
 50
89.999982
 51
180.000019
  0
LINE
  5
246C5
  8
DANMEN
  6
CONTINUOUS
 10
613.95
 20
234.0
 30
0.0
 11
613.95
 21
231.0
 31
0.0
  0
LINE
  5
246C6
  8
DANMEN
  6
CONTINUOUS
 10
615.290415
 20
229.270432
 30
0.0
 11
613.95
 21
231.0
 31
0.0
  0
ARC
  5
246C7
  8
DANMEN
  6
CONTINUOUS
 10
614.5
 20
228.65786
 30
0.0
 40
1.0
 50
0.0
 51
37.775688
  0
LINE
  5
246C8
  8
DANMEN
  6
CONTINUOUS
 10
618.000006
 20
239.499893
 30
0.0
 11
615.500015
 21
239.499893
 31
0.0
  0
LINE
  5
246C9
  8
DANMEN
  6
CONTINUOUS
 10
614.5
 20
236.5
 30
0.0
 11
614.5
 21
234.0
 31
0.0
  0
ARC
  5
246CA
  8
DANMEN
  6
CONTINUOUS
 10
614.0
 20
236.5
 30
0.0
 40
0.5
 50
0.0
 51
89.999982
  0
LINE
  5
246CB
  8
DANMEN
  6
CONTINUOUS
 10
613.95
 20
234.0
 30
0.0
 11
614.5
 21
234.0
 31
0.0
  0
LINE
  5
246CC
  8
DANMEN
  6
CONTINUOUS
 10
754.5
 20
124.5
 30
0.0
 11
754.5
 21
122.0
 31
0.0
  0
LINE
  5
246CD
  8
DANMEN
  6
CONTINUOUS
 10
739.5
 20
124.5
 30
0.0
 11
739.5
 21
122.0
 31
0.0
  0
LINE
  5
246CE
  8
DANMEN
  6
CONTINUOUS
 10
737.0
 20
45.5
 30
0.0
 11
737.0
 21
124.5
 31
0.0
  0
ARC
  5
246CF
  8
DANMEN
  6
CONTINUOUS
 10
772.999988
 20
123.5
 30
0.0
 40
1.5
 50
0.0
 51
90.0
  0
LINE
  5
246D0
  8
DANMEN
  6
CONTINUOUS
 10
728.5
 20
45.5
 30
0.0
 11
728.5
 21
124.5
 31
0.0
  0
LINE
  5
246D1
  8
DANMEN
  6
CONTINUOUS
 10
705.5
 20
45.5
 30
0.0
 11
705.5
 21
124.5
 31
0.0
  0
LINE
  5
246D2
  8
DANMEN
  6
CONTINUOUS
 10
724.0
 20
124.5
 30
0.0
 11
724.0
 21
122.0
 31
0.0
  0
LINE
  5
246D3
  8
DANMEN
  6
CONTINUOUS
 10
710.0
 20
124.5
 30
0.0
 11
710.0
 21
122.0
 31
0.0
  0
LINE
  5
246D4
  8
SUNPO
  6
CONTINUOUS
 10
660.0
 20
125.0
 30
0.0
 11
660.0
 21
45.0
 31
0.0
  0
LINE
  5
246D5
  8
SUNPO
  6
CONTINUOUS
 10
785.0
 20
125.0
 30
0.0
 11
785.0
 21
45.0
 31
0.0
  0
LINE
  5
246D6
  8
DANMEN
  6
CONTINUOUS
 10
629.5
 20
124.5
 30
0.0
 11
629.5
 21
122.0
 31
0.0
  0
ARC
  5
246D7
  8
DANMEN
  6
CONTINUOUS
 10
647.999988
 20
123.5
 30
0.0
 40
1.5
 50
0.0
 51
90.0
  0
LINE
  5
246D8
  8
DANMEN
  6
CONTINUOUS
 10
624.000009
 20
118.0
 30
0.0
 11
624.000009
 21
135.0
 31
0.0
  0
LINE
  5
246D9
  8
DANMEN
  6
CONTINUOUS
 10
624.500009
 20
118.0
 30
0.0
 11
624.500009
 21
135.0
 31
0.0
  0
LINE
  5
246DA
  8
DANMEN
  6
DASHED
 10
734.5
 20
135.0
 30
0.0
 11
734.5
 21
35.0
 31
0.0
  0
LINE
  5
246DB
  8
DANMEN
  6
CONTINUOUS
 10
731.5
 20
135.0
 30
0.0
 11
731.5
 21
35.0
 31
0.0
  0
LINE
  5
246DC
  8
DANMEN
  6
CONTINUOUS
 10
698.0
 20
135.0
 30
0.0
 11
698.0
 21
35.0
 31
0.0
  0
LINE
  5
246DD
  8
DANMEN
  6
CONTINUOUS
 10
729.0
 20
135.0
 30
0.0
 11
729.0
 21
35.0
 31
0.0
  0
LINE
  5
246DE
  8
DANMEN
  6
CONTINUOUS
 10
705.0
 20
135.0
 30
0.0
 11
705.0
 21
35.0
 31
0.0
  0
LINE
  5
246DF
  8
DANMEN
  6
CONTINUOUS
 10
719.500009
 20
118.0
 30
0.0
 11
719.500009
 21
135.0
 31
0.0
  0
LINE
  5
246E0
  8
DANMEN
  6
CONTINUOUS
 10
714.500021
 20
117.999985
 30
0.0
 11
714.500021
 21
135.0
 31
0.0
  0
LINE
  5
246E1
  8
DANMEN
  6
CONTINUOUS
 10
719.000009
 20
118.0
 30
0.0
 11
719.000009
 21
135.0
 31
0.0
  0
LINE
  5
246E2
  8
DANMEN
  6
CONTINUOUS
 10
715.000021
 20
117.999985
 30
0.0
 11
715.000021
 21
135.0
 31
0.0
  0
LINE
  5
246E3
  8
DANMEN
  6
CONTINUOUS
 10
737.0
 20
135.0
 30
0.0
 11
737.0
 21
35.0
 31
0.0
  0
LINE
  5
246E4
  8
DANMEN
  6
CONTINUOUS
 10
749.500009
 20
118.0
 30
0.0
 11
749.500009
 21
135.0
 31
0.0
  0
LINE
  5
246E5
  8
DANMEN
  6
CONTINUOUS
 10
744.500021
 20
117.999985
 30
0.0
 11
744.500021
 21
135.0
 31
0.0
  0
LINE
  5
246E6
  8
DANMEN
  6
CONTINUOUS
 10
749.000009
 20
118.0
 30
0.0
 11
749.000009
 21
135.0
 31
0.0
  0
LINE
  5
246E7
  8
DANMEN
  6
CONTINUOUS
 10
745.000021
 20
117.999985
 30
0.0
 11
745.000021
 21
135.0
 31
0.0
  0
LINE
  5
246E8
  8
DANMEN
  6
CONTINUOUS
 10
753.500015
 20
42.500107
 30
0.0
 11
751.000009
 21
42.500107
 31
0.0
  0
LINE
  5
246E9
  8
DANMEN
  6
CONTINUOUS
 10
752.3
 20
111.5
 30
0.0
 11
753.999988
 21
111.5
 31
0.0
  0
LINE
  5
246EA
  8
DANMEN
  6
CONTINUOUS
 10
739.5
 20
114.0
 30
0.0
 11
754.5
 21
114.0
 31
0.0
  0
LINE
  5
246EB
  8
DANMEN
  6
CONTINUOUS
 10
739.5
 20
68.0
 30
0.0
 11
754.5
 21
68.0
 31
0.0
  0
LINE
  5
246EC
  8
DANMEN
  6
CONTINUOUS
 10
740.0
 20
70.499997
 30
0.0
 11
753.999988
 21
70.499997
 31
0.0
  0
LINE
  5
246ED
  8
DANMEN
  6
CONTINUOUS
 10
628.999988
 20
70.499997
 30
0.0
 11
628.999988
 21
111.5
 31
0.0
  0
LINE
  5
246EE
  8
DANMEN
  6
CONTINUOUS
 10
632.5
 20
48.5
 30
0.0
 11
632.5
 21
121.5
 31
0.0
  0
LINE
  5
246EF
  8
DANMEN
  6
CONTINUOUS
 10
645.999988
 20
48.5
 30
0.0
 11
645.999988
 21
121.5
 31
0.0
  0
LINE
  5
246F0
  8
DANMEN
  6
CONTINUOUS
 10
649.499988
 20
46.5
 30
0.0
 11
649.499988
 21
123.5
 31
0.0
  0
LINE
  5
246F1
  8
DANMEN
  6
CONTINUOUS
 10
629.5
 20
51.0
 30
0.0
 11
629.5
 21
68.0
 31
0.0
  0
LINE
  5
246F2
  8
DANMEN
  6
CONTINUOUS
 10
632.5
 20
48.5
 30
0.0
 11
645.999988
 21
48.5
 31
0.0
  0
LINE
  5
246F3
  8
DANMEN
  6
CONTINUOUS
 10
630.0
 20
45.0
 30
0.0
 11
647.999988
 21
45.0
 31
0.0
  0
ARC
  5
246F4
  8
DANMEN
  6
CONTINUOUS
 10
626.000009
 20
41.000107
 30
0.0
 40
1.5
 50
90.000018
 51
180.0
  0
ARC
  5
246F5
  8
DANMEN
  6
CONTINUOUS
 10
628.500015
 20
44.000107
 30
0.0
 40
1.5
 50
269.999999
 51
0.000036
  0
LINE
  5
246F6
  8
DANMEN
  6
CONTINUOUS
 10
634.0
 20
35.0
 30
0.0
 11
634.0
 21
45.0
 31
0.0
  0
LINE
  5
246F7
  8
DANMEN
  6
CONTINUOUS
 10
629.999985
 20
45.0
 30
0.0
 11
629.999985
 21
35.0
 31
0.0
  0
LINE
  5
246F8
  8
DANMEN
  6
CONTINUOUS
 10
624.000009
 20
52.0
 30
0.0
 11
624.000009
 21
35.0
 31
0.0
  0
LINE
  5
246F9
  8
DANMEN
  6
CONTINUOUS
 10
624.500009
 20
52.0
 30
0.0
 11
624.500009
 21
35.0
 31
0.0
  0
LINE
  5
246FA
  8
DANMEN
  6
CONTINUOUS
 10
628.500015
 20
42.500107
 30
0.0
 11
626.000009
 21
42.500107
 31
0.0
  0
LINE
  5
246FB
  8
DANMEN
  6
CONTINUOUS
 10
630.0
 20
48.0
 30
0.0
 11
630.0
 21
51.0
 31
0.0
  0
LINE
  5
246FC
  8
DANMEN
  6
CONTINUOUS
 10
629.5
 20
45.5
 30
0.0
 11
629.5
 21
48.0
 31
0.0
  0
ARC
  5
246FD
  8
DANMEN
  6
CONTINUOUS
 10
630.0
 20
45.5
 30
0.0
 40
0.5
 50
179.999964
 51
270.000001
  0
LINE
  5
246FE
  8
DANMEN
  6
CONTINUOUS
 10
629.5
 20
48.0
 30
0.0
 11
630.0
 21
48.0
 31
0.0
  0
LINE
  5
246FF
  8
DANMEN
  6
CONTINUOUS
 10
629.5
 20
51.0
 30
0.0
 11
630.0
 21
51.0
 31
0.0
  0
LINE
  5
24700
  8
DANMEN
  6
CONTINUOUS
 10
643.0
 20
45.0
 30
0.0
 11
643.0
 21
35.0
 31
0.0
  0
ARC
  5
24701
  8
DANMEN
  6
CONTINUOUS
 10
647.999988
 20
46.5
 30
0.0
 40
1.5
 50
270.0
 51
0.0
  0
LINE
  5
24702
  8
DANMEN
  6
CONTINUOUS
 10
632.5
 20
121.5
 30
0.0
 11
645.999988
 21
121.5
 31
0.0
  0
ARC
  5
24703
  8
DANMEN
  6
CONTINUOUS
 10
623.8
 20
111.3
 30
0.0
 40
1.0
 50
0.0
 51
90.0
  0
ARC
  5
24704
  8
DANMEN
  6
CONTINUOUS
 10
624.3
 20
109.969694
 30
0.0
 40
2.0
 50
308.293477
 51
0.0
  0
LINE
  5
24705
  8
DANMEN
  6
CONTINUOUS
 10
624.1
 20
108.7
 30
0.0
 11
624.1
 21
108.963068
 31
0.0
  0
ARC
  5
24706
  8
DANMEN
  6
CONTINUOUS
 10
623.8
 20
110.053939
 30
0.0
 40
1.0
 50
294.624318
 51
0.0
  0
ARC
  5
24707
  8
DANMEN
  6
CONTINUOUS
 10
624.3
 20
108.963068
 30
0.0
 40
0.2
 50
114.624318
 51
180.0
  0
LINE
  5
24708
  8
DANMEN
  6
CONTINUOUS
 10
624.8
 20
110.053939
 30
0.0
 11
624.8
 21
111.3
 31
0.0
  0
LINE
  5
24709
  8
DANMEN
  6
CONTINUOUS
 10
621.9
 20
108.7
 30
0.0
 11
621.9
 21
108.963068
 31
0.0
  0
ARC
  5
2470A
  8
DANMEN
  6
CONTINUOUS
 10
624.4
 20
108.7
 30
0.0
 40
0.3
 50
180.0
 51
270.0
  0
LINE
  5
2470B
  8
DANMEN
  6
CONTINUOUS
 10
624.4
 20
108.4
 30
0.0
 11
625.539379
 21
108.4
 31
0.0
  0
ARC
  5
2470C
  8
DANMEN
  6
CONTINUOUS
 10
627.3
 20
110.5
 30
0.0
 40
1.0
 50
90.0
 51
180.0
  0
LINE
  5
2470D
  8
DANMEN
  6
CONTINUOUS
 10
626.3
 20
109.969694
 30
0.0
 11
626.3
 21
110.5
 31
0.0
  0
LINE
  5
2470E
  8
DANMEN
  6
CONTINUOUS
 10
627.3
 20
111.5
 30
0.0
 11
628.999988
 21
111.5
 31
0.0
  0
LINE
  5
2470F
  8
DANMEN
  6
CONTINUOUS
 10
629.5
 20
114.0
 30
0.0
 11
629.5
 21
119.0
 31
0.0
  0
LINE
  5
24710
  8
DANMEN
  6
CONTINUOUS
 10
622.2
 20
112.3
 30
0.0
 11
623.8
 21
112.3
 31
0.0
  0
LINE
  5
24711
  8
DANMEN
  6
CONTINUOUS
 10
629.5
 20
119.0
 30
0.0
 11
630.0
 21
119.0
 31
0.0
  0
LINE
  5
24712
  8
DANMEN
  6
CONTINUOUS
 10
630.0
 20
119.0
 30
0.0
 11
630.0
 21
122.0
 31
0.0
  0
LINE
  5
24713
  8
DANMEN
  6
CONTINUOUS
 10
629.5
 20
122.0
 30
0.0
 11
630.0
 21
122.0
 31
0.0
  0
LINE
  5
24714
  8
DANMEN
  6
CONTINUOUS
 10
740.0
 20
111.5
 30
0.0
 11
740.0
 21
70.499997
 31
0.0
  0
LINE
  5
24715
  8
DANMEN
  6
CONTINUOUS
 10
710.0
 20
57.949997
 30
0.0
 11
710.0
 21
107.3
 31
0.0
  0
LINE
  5
24716
  8
DANMEN
  6
CONTINUOUS
 10
723.499991
 20
112.050003
 30
0.0
 11
723.499991
 21
62.949997
 31
0.0
  0
ARC
  5
24717
  8
DANMEN
  6
CONTINUOUS
 10
721.000009
 20
41.000092
 30
0.0
 40
1.5
 50
90.000018
 51
180.0
  0
LINE
  5
24718
  8
DANMEN
  6
CONTINUOUS
 10
715.65
 20
61.0
 30
0.0
 11
724.0
 21
61.0
 31
0.0
  0
LINE
  5
24719
  8
DANMEN
  6
CONTINUOUS
 10
714.7
 20
62.949997
 30
0.0
 11
723.499991
 21
62.949997
 31
0.0
  0
LINE
  5
2471A
  8
DANMEN
  6
CONTINUOUS
 10
710.0
 20
51.0
 30
0.0
 11
710.0
 21
55.999997
 31
0.0
  0
ARC
  5
2471B
  8
DANMEN
  6
CONTINUOUS
 10
713.000006
 20
41.000092
 30
0.0
 40
1.5
 50
0.000036
 51
90.000018
  0
ARC
  5
2471C
  8
DANMEN
  6
CONTINUOUS
 10
710.500015
 20
44.000092
 30
0.0
 40
1.5
 50
180.0
 51
269.999982
  0
LINE
  5
2471D
  8
DANMEN
  6
CONTINUOUS
 10
714.500021
 20
52.000015
 30
0.0
 11
714.500021
 21
35.0
 31
0.0
  0
LINE
  5
2471E
  8
DANMEN
  6
CONTINUOUS
 10
715.000021
 20
52.000015
 30
0.0
 11
715.000021
 21
35.0
 31
0.0
  0
LINE
  5
2471F
  8
DANMEN
  6
CONTINUOUS
 10
709.000015
 20
45.0
 30
0.0
 11
709.000015
 21
35.0
 31
0.0
  0
LINE
  5
24720
  8
DANMEN
  6
CONTINUOUS
 10
719.500009
 20
52.0
 30
0.0
 11
719.500009
 21
35.0
 31
0.0
  0
LINE
  5
24721
  8
DANMEN
  6
CONTINUOUS
 10
719.000009
 20
52.0
 30
0.0
 11
719.000009
 21
35.0
 31
0.0
  0
LINE
  5
24722
  8
DANMEN
  6
CONTINUOUS
 10
713.000006
 20
42.500092
 30
0.0
 11
710.500015
 21
42.500092
 31
0.0
  0
LINE
  5
24723
  8
DANMEN
  6
CONTINUOUS
 10
709.400009
 20
48.0
 30
0.0
 11
709.400009
 21
51.0
 31
0.0
  0
LINE
  5
24724
  8
DANMEN
  6
CONTINUOUS
 10
706.0
 20
45.0
 30
0.0
 11
709.5
 21
45.0
 31
0.0
  0
ARC
  5
24725
  8
DANMEN
  6
CONTINUOUS
 10
706.0
 20
45.5
 30
0.0
 40
0.5
 50
179.999964
 51
270.000001
  0
ARC
  5
24726
  8
DANMEN
  6
CONTINUOUS
 10
709.5
 20
45.5
 30
0.0
 40
0.5
 50
270.000018
 51
0.0
  0
LINE
  5
24727
  8
DANMEN
  6
CONTINUOUS
 10
710.0
 20
45.5
 30
0.0
 11
710.0
 21
48.0
 31
0.0
  0
LINE
  5
24728
  8
DANMEN
  6
CONTINUOUS
 10
710.0
 20
48.0
 30
0.0
 11
709.400009
 21
48.0
 31
0.0
  0
LINE
  5
24729
  8
DANMEN
  6
CONTINUOUS
 10
709.400009
 20
51.0
 30
0.0
 11
710.0
 21
51.0
 31
0.0
  0
LINE
  5
2472A
  8
DANMEN
  6
CONTINUOUS
 10
719.500009
 20
52.000015
 30
0.0
 11
714.500021
 21
52.000015
 31
0.0
  0
LINE
  5
2472B
  8
DANMEN
  6
CONTINUOUS
 10
710.0
 20
57.949997
 30
0.0
 11
713.7
 21
57.949997
 31
0.0
  0
LINE
  5
2472C
  8
DANMEN
  6
CONTINUOUS
 10
710.0
 20
55.999997
 30
0.0
 11
714.65
 21
55.999997
 31
0.0
  0
LINE
  5
2472D
  8
DANMEN
  6
CONTINUOUS
 10
715.65
 20
57.0
 30
0.0
 11
715.65
 21
61.0
 31
0.0
  0
LINE
  5
2472E
  8
DANMEN
  6
CONTINUOUS
 10
713.7
 20
57.949997
 30
0.0
 11
713.7
 21
61.949997
 31
0.0
  0
ARC
  5
2472F
  8
DANMEN
  6
CONTINUOUS
 10
714.65
 20
56.999997
 30
0.0
 40
1.0
 50
270.0
 51
0.0
  0
ARC
  5
24730
  8
DANMEN
  6
CONTINUOUS
 10
714.7
 20
61.949997
 30
0.0
 40
1.0
 50
89.999982
 51
180.000019
  0
LINE
  5
24731
  8
DANMEN
  6
CONTINUOUS
 10
739.5
 20
51.0
 30
0.0
 11
739.5
 21
68.0
 31
0.0
  0
LINE
  5
24732
  8
DANMEN
  6
CONTINUOUS
 10
724.0
 20
51.0
 30
0.0
 11
724.0
 21
61.0
 31
0.0
  0
ARC
  5
24733
  8
DANMEN
  6
CONTINUOUS
 10
723.500015
 20
44.000092
 30
0.0
 40
1.5
 50
269.999999
 51
0.000036
  0
LINE
  5
24734
  8
DANMEN
  6
CONTINUOUS
 10
724.999985
 20
45.0
 30
0.0
 11
724.999985
 21
35.0
 31
0.0
  0
LINE
  5
24735
  8
DANMEN
  6
CONTINUOUS
 10
723.500015
 20
42.500092
 30
0.0
 11
721.000009
 21
42.500092
 31
0.0
  0
ARC
  5
24736
  8
DANMEN
  6
CONTINUOUS
 10
728.0
 20
45.5
 30
0.0
 40
0.5
 50
270.000018
 51
0.0
  0
LINE
  5
24737
  8
DANMEN
  6
CONTINUOUS
 10
724.599991
 20
48.0
 30
0.0
 11
724.599991
 21
51.0
 31
0.0
  0
LINE
  5
24738
  8
DANMEN
  6
CONTINUOUS
 10
724.0
 20
48.0
 30
0.0
 11
724.599991
 21
48.0
 31
0.0
  0
ARC
  5
24739
  8
DANMEN
  6
CONTINUOUS
 10
724.5
 20
45.5
 30
0.0
 40
0.5
 50
179.999964
 51
270.000001
  0
LINE
  5
2473A
  8
DANMEN
  6
CONTINUOUS
 10
724.0
 20
45.5
 30
0.0
 11
724.0
 21
48.0
 31
0.0
  0
LINE
  5
2473B
  8
DANMEN
  6
CONTINUOUS
 10
724.5
 20
45.0
 30
0.0
 11
728.0
 21
45.0
 31
0.0
  0
LINE
  5
2473C
  8
DANMEN
  6
CONTINUOUS
 10
724.0
 20
51.0
 30
0.0
 11
724.599991
 21
51.0
 31
0.0
  0
ARC
  5
2473D
  8
DANMEN
  6
CONTINUOUS
 10
751.000009
 20
41.000107
 30
0.0
 40
1.5
 50
90.000018
 51
180.0
  0
ARC
  5
2473E
  8
DANMEN
  6
CONTINUOUS
 10
743.000006
 20
41.000107
 30
0.0
 40
1.5
 50
0.000036
 51
90.000018
  0
ARC
  5
2473F
  8
DANMEN
  6
CONTINUOUS
 10
740.500015
 20
44.000107
 30
0.0
 40
1.5
 50
180.0
 51
269.999982
  0
LINE
  5
24740
  8
DANMEN
  6
CONTINUOUS
 10
749.500009
 20
52.0
 30
0.0
 11
749.500009
 21
35.0
 31
0.0
  0
LINE
  5
24741
  8
DANMEN
  6
CONTINUOUS
 10
744.500021
 20
52.000015
 30
0.0
 11
744.500021
 21
35.0
 31
0.0
  0
LINE
  5
24742
  8
DANMEN
  6
CONTINUOUS
 10
749.000009
 20
52.0
 30
0.0
 11
749.000009
 21
35.0
 31
0.0
  0
LINE
  5
24743
  8
DANMEN
  6
CONTINUOUS
 10
745.000021
 20
52.000015
 30
0.0
 11
745.000021
 21
35.0
 31
0.0
  0
LINE
  5
24744
  8
DANMEN
  6
CONTINUOUS
 10
739.000015
 20
45.0
 30
0.0
 11
739.000015
 21
35.0
 31
0.0
  0
LINE
  5
24745
  8
DANMEN
  6
CONTINUOUS
 10
743.000006
 20
42.500107
 30
0.0
 11
740.500015
 21
42.500107
 31
0.0
  0
LINE
  5
24746
  8
DANMEN
  6
CONTINUOUS
 10
749.500009
 20
52.000015
 30
0.0
 11
744.500006
 21
52.000015
 31
0.0
  0
LINE
  5
24747
  8
DANMEN
  6
CONTINUOUS
 10
738.95
 20
48.0
 30
0.0
 11
738.95
 21
51.0
 31
0.0
  0
LINE
  5
24748
  8
DANMEN
  6
CONTINUOUS
 10
737.5
 20
45.0
 30
0.0
 11
739.0
 21
45.0
 31
0.0
  0
ARC
  5
24749
  8
DANMEN
  6
CONTINUOUS
 10
737.5
 20
45.5
 30
0.0
 40
0.5
 50
179.999964
 51
270.000001
  0
LINE
  5
2474A
  8
DANMEN
  6
CONTINUOUS
 10
739.5
 20
45.5
 30
0.0
 11
739.5
 21
48.0
 31
0.0
  0
ARC
  5
2474B
  8
DANMEN
  6
CONTINUOUS
 10
739.0
 20
45.5
 30
0.0
 40
0.5
 50
270.000018
 51
0.0
  0
LINE
  5
2474C
  8
DANMEN
  6
CONTINUOUS
 10
738.95
 20
48.0
 30
0.0
 11
739.5
 21
48.0
 31
0.0
  0
LINE
  5
2474D
  8
DANMEN
  6
CONTINUOUS
 10
738.95
 20
51.0
 30
0.0
 11
739.5
 21
51.0
 31
0.0
  0
ARC
  5
2474E
  8
DANMEN
  6
CONTINUOUS
 10
721.2
 20
111.050003
 30
0.0
 40
1.0
 50
90.0
 51
180.0
  0
LINE
  5
2474F
  8
DANMEN
  6
CONTINUOUS
 10
716.2
 20
114.0
 30
0.0
 11
724.0
 21
114.0
 31
0.0
  0
ARC
  5
24750
  8
DANMEN
  6
CONTINUOUS
 10
716.2
 20
111.3
 30
0.0
 40
1.0
 50
90.0
 51
180.0
  0
ARC
  5
24751
  8
DANMEN
  6
CONTINUOUS
 10
717.7
 20
111.3
 30
0.0
 40
1.0
 50
0.0
 51
90.0
  0
ARC
  5
24752
  8
DANMEN
  6
CONTINUOUS
 10
716.2
 20
111.5
 30
0.0
 40
2.5
 50
89.999982
 51
180.000019
  0
LINE
  5
24753
  8
DANMEN
  6
CONTINUOUS
 10
710.0
 20
109.25
 30
0.0
 11
710.0
 21
119.0
 31
0.0
  0
LINE
  5
24754
  8
DANMEN
  6
CONTINUOUS
 10
710.0
 20
107.3
 30
0.0
 11
716.833705
 21
107.3
 31
0.0
  0
LINE
  5
24755
  8
DANMEN
  6
CONTINUOUS
 10
710.0
 20
109.25
 30
0.0
 11
713.7
 21
109.25
 31
0.0
  0
LINE
  5
24756
  8
DANMEN
  6
CONTINUOUS
 10
716.2
 20
108.8
 30
0.0
 11
716.833705
 21
108.8
 31
0.0
  0
LINE
  5
24757
  8
DANMEN
  6
CONTINUOUS
 10
715.2
 20
109.8
 30
0.0
 11
715.2
 21
111.3
 31
0.0
  0
ARC
  5
24758
  8
DANMEN
  6
CONTINUOUS
 10
716.2
 20
109.8
 30
0.0
 40
1.0
 50
180.0
 51
270.0
  0
LINE
  5
24759
  8
DANMEN
  6
CONTINUOUS
 10
713.7
 20
111.5
 30
0.0
 11
713.7
 21
109.25
 31
0.0
  0
LINE
  5
2475A
  8
DANMEN
  6
CONTINUOUS
 10
718.7
 20
110.666295
 30
0.0
 11
718.7
 21
111.3
 31
0.0
  0
LINE
  5
2475B
  8
DANMEN
  6
CONTINUOUS
 10
720.2
 20
110.666295
 30
0.0
 11
720.2
 21
111.050003
 31
0.0
  0
ARC
  5
2475C
  8
DANMEN
  6
CONTINUOUS
 10
719.45
 20
110.666295
 30
0.0
 40
0.75
 50
180.0
 51
0.0
  0
ARC
  5
2475D
  8
DANMEN
  6
CONTINUOUS
 10
716.833705
 20
108.05
 30
0.0
 40
0.75
 50
270.0
 51
90.0
  0
LINE
  5
2475E
  8
DANMEN
  6
CONTINUOUS
 10
710.0
 20
122.0
 30
0.0
 11
709.400009
 21
122.0
 31
0.0
  0
LINE
  5
2475F
  8
DANMEN
  6
CONTINUOUS
 10
709.400009
 20
122.0
 30
0.0
 11
709.400009
 21
119.0
 31
0.0
  0
LINE
  5
24760
  8
DANMEN
  6
CONTINUOUS
 10
710.0
 20
119.0
 30
0.0
 11
709.400009
 21
119.0
 31
0.0
  0
LINE
  5
24761
  8
DANMEN
  6
CONTINUOUS
 10
716.2
 20
112.3
 30
0.0
 11
717.7
 21
112.3
 31
0.0
  0
LINE
  5
24762
  8
DANMEN
  6
CONTINUOUS
 10
719.500009
 20
117.999985
 30
0.0
 11
714.500006
 21
117.999985
 31
0.0
  0
LINE
  5
24763
  8
DANMEN
  6
CONTINUOUS
 10
721.199999
 20
112.050003
 30
0.0
 11
723.499991
 21
112.050003
 31
0.0
  0
LINE
  5
24764
  8
DANMEN
  6
CONTINUOUS
 10
724.0
 20
114.0
 30
0.0
 11
724.0
 21
119.0
 31
0.0
  0
LINE
  5
24765
  8
DANMEN
  6
CONTINUOUS
 10
724.0
 20
122.0
 30
0.0
 11
724.599991
 21
122.0
 31
0.0
  0
LINE
  5
24766
  8
DANMEN
  6
CONTINUOUS
 10
724.0
 20
119.0
 30
0.0
 11
724.599991
 21
119.0
 31
0.0
  0
LINE
  5
24767
  8
DANMEN
  6
CONTINUOUS
 10
724.599991
 20
122.0
 30
0.0
 11
724.599991
 21
119.0
 31
0.0
  0
ARC
  5
24768
  8
DANMEN
  6
CONTINUOUS
 10
747.2
 20
111.3
 30
0.0
 40
1.0
 50
90.0
 51
180.0
  0
ARC
  5
24769
  8
DANMEN
  6
CONTINUOUS
 10
748.8
 20
111.3
 30
0.0
 40
1.0
 50
0.0
 51
90.0
  0
ARC
  5
2476A
  8
DANMEN
  6
CONTINUOUS
 10
746.7
 20
109.969694
 30
0.0
 40
2.0
 50
180.0
 51
231.706523
  0
LINE
  5
2476B
  8
DANMEN
  6
CONTINUOUS
 10
743.7
 20
111.5
 30
0.0
 11
740.0
 21
111.5
 31
0.0
  0
ARC
  5
2476C
  8
DANMEN
  6
CONTINUOUS
 10
743.7
 20
110.5
 30
0.0
 40
1.0
 50
0.0
 51
90.0
  0
LINE
  5
2476D
  8
DANMEN
  6
CONTINUOUS
 10
744.7
 20
109.969694
 30
0.0
 11
744.7
 21
110.5
 31
0.0
  0
ARC
  5
2476E
  8
DANMEN
  6
CONTINUOUS
 10
746.7
 20
108.963068
 30
0.0
 40
0.2
 50
0.0
 51
65.375682
  0
ARC
  5
2476F
  8
DANMEN
  6
CONTINUOUS
 10
747.2
 20
110.053939
 30
0.0
 40
1.0
 50
180.0
 51
245.375682
  0
LINE
  5
24770
  8
DANMEN
  6
CONTINUOUS
 10
746.9
 20
108.7
 30
0.0
 11
746.9
 21
108.963068
 31
0.0
  0
LINE
  5
24771
  8
DANMEN
  6
CONTINUOUS
 10
746.2
 20
110.053939
 30
0.0
 11
746.2
 21
111.3
 31
0.0
  0
LINE
  5
24772
  8
DANMEN
  6
CONTINUOUS
 10
745.460621
 20
108.4
 30
0.0
 11
746.6
 21
108.4
 31
0.0
  0
ARC
  5
24773
  8
DANMEN
  6
CONTINUOUS
 10
746.6
 20
108.7
 30
0.0
 40
0.3
 50
270.0
 51
0.0
  0
ARC
  5
24774
  8
DANMEN
  6
CONTINUOUS
 10
752.3
 20
110.5
 30
0.0
 40
1.0
 50
90.0
 51
180.0
  0
LINE
  5
24775
  8
DANMEN
  6
CONTINUOUS
 10
751.3
 20
109.969694
 30
0.0
 11
751.3
 21
110.5
 31
0.0
  0
ARC
  5
24776
  8
DANMEN
  6
CONTINUOUS
 10
749.3
 20
109.969694
 30
0.0
 40
2.0
 50
308.293477
 51
0.0
  0
LINE
  5
24777
  8
DANMEN
  6
CONTINUOUS
 10
749.1
 20
108.7
 30
0.0
 11
749.1
 21
108.963068
 31
0.0
  0
ARC
  5
24778
  8
DANMEN
  6
CONTINUOUS
 10
748.8
 20
110.053939
 30
0.0
 40
1.0
 50
294.624318
 51
0.0
  0
ARC
  5
24779
  8
DANMEN
  6
CONTINUOUS
 10
749.3
 20
108.963068
 30
0.0
 40
0.2
 50
114.624318
 51
180.0
  0
LINE
  5
2477A
  8
DANMEN
  6
CONTINUOUS
 10
749.8
 20
110.053939
 30
0.0
 11
749.8
 21
111.3
 31
0.0
  0
ARC
  5
2477B
  8
DANMEN
  6
CONTINUOUS
 10
749.4
 20
108.7
 30
0.0
 40
0.3
 50
180.0
 51
270.0
  0
LINE
  5
2477C
  8
DANMEN
  6
CONTINUOUS
 10
749.4
 20
108.4
 30
0.0
 11
750.539379
 21
108.4
 31
0.0
  0
LINE
  5
2477D
  8
DANMEN
  6
CONTINUOUS
 10
749.500009
 20
117.999985
 30
0.0
 11
744.500006
 21
117.999985
 31
0.0
  0
LINE
  5
2477E
  8
DANMEN
  6
CONTINUOUS
 10
739.5
 20
119.0
 30
0.0
 11
739.5
 21
114.0
 31
0.0
  0
LINE
  5
2477F
  8
DANMEN
  6
CONTINUOUS
 10
738.95
 20
119.0
 30
0.0
 11
739.5
 21
119.0
 31
0.0
  0
LINE
  5
24780
  8
DANMEN
  6
CONTINUOUS
 10
738.95
 20
122.0
 30
0.0
 11
738.95
 21
119.0
 31
0.0
  0
LINE
  5
24781
  8
DANMEN
  6
CONTINUOUS
 10
738.95
 20
122.0
 30
0.0
 11
739.5
 21
122.0
 31
0.0
  0
LINE
  5
24782
  8
DANMEN
  6
CONTINUOUS
 10
747.2
 20
112.3
 30
0.0
 11
748.8
 21
112.3
 31
0.0
  0
LINE
  5
24783
  8
DANMEN
  6
CONTINUOUS
 10
753.999988
 20
70.499997
 30
0.0
 11
753.999988
 21
111.5
 31
0.0
  0
LINE
  5
24784
  8
DANMEN
  6
CONTINUOUS
 10
757.5
 20
48.5
 30
0.0
 11
757.5
 21
121.5
 31
0.0
  0
LINE
  5
24785
  8
DANMEN
  6
CONTINUOUS
 10
770.999988
 20
48.5
 30
0.0
 11
770.999988
 21
121.5
 31
0.0
  0
LINE
  5
24786
  8
DANMEN
  6
CONTINUOUS
 10
774.499988
 20
46.5
 30
0.0
 11
774.499988
 21
123.5
 31
0.0
  0
LINE
  5
24787
  8
DANMEN
  6
CONTINUOUS
 10
754.5
 20
51.0
 30
0.0
 11
754.5
 21
68.0
 31
0.0
  0
LINE
  5
24788
  8
DANMEN
  6
CONTINUOUS
 10
757.5
 20
48.5
 30
0.0
 11
770.999988
 21
48.5
 31
0.0
  0
LINE
  5
24789
  8
DANMEN
  6
CONTINUOUS
 10
755.0
 20
45.0
 30
0.0
 11
772.999988
 21
45.0
 31
0.0
  0
ARC
  5
2478A
  8
DANMEN
  6
CONTINUOUS
 10
753.500015
 20
44.000107
 30
0.0
 40
1.5
 50
269.999999
 51
0.000036
  0
LINE
  5
2478B
  8
DANMEN
  6
CONTINUOUS
 10
768.0
 20
45.0
 30
0.0
 11
768.0
 21
35.0
 31
0.0
  0
LINE
  5
2478C
  8
DANMEN
  6
CONTINUOUS
 10
754.999985
 20
45.0
 30
0.0
 11
754.999985
 21
35.0
 31
0.0
  0
LINE
  5
2478D
  8
DANMEN
  6
CONTINUOUS
 10
759.0
 20
35.0
 30
0.0
 11
759.0
 21
45.0
 31
0.0
  0
LINE
  5
2478E
  8
DANMEN
  6
CONTINUOUS
 10
755.0
 20
48.0
 30
0.0
 11
755.0
 21
51.0
 31
0.0
  0
LINE
  5
2478F
  8
DANMEN
  6
CONTINUOUS
 10
754.5
 20
45.5
 30
0.0
 11
754.5
 21
48.0
 31
0.0
  0
ARC
  5
24790
  8
DANMEN
  6
CONTINUOUS
 10
755.0
 20
45.5
 30
0.0
 40
0.5
 50
179.999964
 51
270.000001
  0
LINE
  5
24791
  8
DANMEN
  6
CONTINUOUS
 10
754.5
 20
48.0
 30
0.0
 11
755.0
 21
48.0
 31
0.0
  0
LINE
  5
24792
  8
DANMEN
  6
CONTINUOUS
 10
754.5
 20
51.0
 30
0.0
 11
755.0
 21
51.0
 31
0.0
  0
ARC
  5
24793
  8
DANMEN
  6
CONTINUOUS
 10
772.999988
 20
46.5
 30
0.0
 40
1.5
 50
270.0
 51
0.0
  0
LINE
  5
24794
  8
DANMEN
  6
CONTINUOUS
 10
757.5
 20
121.5
 30
0.0
 11
770.999988
 21
121.5
 31
0.0
  0
LINE
  5
24795
  8
DANMEN
  6
CONTINUOUS
 10
754.5
 20
114.0
 30
0.0
 11
754.5
 21
119.0
 31
0.0
  0
LINE
  5
24796
  8
DANMEN
  6
CONTINUOUS
 10
754.5
 20
119.0
 30
0.0
 11
755.0
 21
119.0
 31
0.0
  0
LINE
  5
24797
  8
DANMEN
  6
CONTINUOUS
 10
755.0
 20
119.0
 30
0.0
 11
755.0
 21
122.0
 31
0.0
  0
LINE
  5
24798
  8
DANMEN
  6
CONTINUOUS
 10
754.5
 20
122.0
 30
0.0
 11
755.0
 21
122.0
 31
0.0
  0
LINE
  5
24799
  8
SUNPO
  6
CONTINUOUS
 10
654.5
 20
45.0
 30
0.0
 11
660.0
 21
45.0
 31
0.0
  0
ARC
  5
2479A
  8
SUNPO
  6
BYBLOCK
 10
660.0
 20
45.0
 30
0.0
 40
0.145
 50
270.0
 51
90.0
  0
ARC
  5
2479B
  8
SUNPO
  6
BYBLOCK
 10
660.0
 20
45.0
 30
0.0
 40
0.145
 50
90.0
 51
270.0
  0
TEXT
  5
2479C
  8
SUNPO
  6
CONTINUOUS
 10
659.0
 20
83.125
 30
0.0
 40
2.5
  1
80
 50
90.0
  0
LINE
  5
2479D
  8
SUNPO
  6
CONTINUOUS
 10
779.5
 20
45.0
 30
0.0
 11
785.0
 21
45.0
 31
0.0
  0
ARC
  5
2479E
  8
SUNPO
  6
BYBLOCK
 10
785.0
 20
45.0
 30
0.0
 40
0.145
 50
270.0
 51
90.0
  0
ARC
  5
2479F
  8
SUNPO
  6
BYBLOCK
 10
785.0
 20
45.0
 30
0.0
 40
0.145
 50
90.0
 51
270.0
  0
TEXT
  5
247A0
  8
SUNPO
  6
CONTINUOUS
 10
784.0
 20
83.125
 30
0.0
 40
2.5
  1
80
 50
90.0
  0
TEXT
  5
247A1
  8
SUNPO
  6
CONTINUOUS
 10
745.649994
 20
136.0
 30
0.0
 40
2.5
  1
24.8
  0
LINE
  5
247A2
  8
SUNPO
  6
CONTINUOUS
 10
737.0
 20
135.0
 30
0.0
 11
761.799988
 21
135.0
 31
0.0
  0
LINE
  5
247A3
  8
SUNPO
  6
CONTINUOUS
 10
489.0
 20
247.0
 30
0.0
 11
465.0
 21
247.0
 31
0.0
  0
LINE
  5
247A4
  8
DANMEN
  6
CONTINUOUS
 10
753.500015
 20
127.499893
 30
0.0
 11
751.000009
 21
127.499893
 31
0.0
  0
LINE
  5
247A5
  8
DANMEN
  6
CONTINUOUS
 10
630.799988
 20
184.499997
 30
0.0
 11
630.799988
 21
223.5
 31
0.0
  0
LINE
  5
247A6
  8
DANMEN
  6
CONTINUOUS
 10
636.799988
 20
157.5
 30
0.0
 11
636.799988
 21
236.5
 31
0.0
  0
LINE
  5
247A7
  8
DANMEN
  6
CONTINUOUS
 10
643.0
 20
247.0
 30
0.0
 11
643.0
 21
147.0
 31
0.0
  0
LINE
  5
247A8
  8
DANMEN
  6
CONTINUOUS
 10
630.8
 20
160.0
 30
0.0
 11
630.8
 21
182.0
 31
0.0
  0
LINE
  5
247A9
  8
DANMEN
  6
CONTINUOUS
 10
630.0
 20
125.0
 30
0.0
 11
647.999988
 21
125.0
 31
0.0
  0
ARC
  5
247AA
  8
DANMEN
  6
CONTINUOUS
 10
628.500015
 20
125.999893
 30
0.0
 40
1.5
 50
359.999964
 51
90.000001
  0
LINE
  5
247AB
  8
DANMEN
  6
CONTINUOUS
 10
629.999985
 20
125.0
 30
0.0
 11
629.999985
 21
135.0
 31
0.0
  0
ARC
  5
247AC
  8
DANMEN
  6
CONTINUOUS
 10
626.000009
 20
128.999893
 30
0.0
 40
1.5
 50
180.0
 51
269.999982
  0
ARC
  5
247AD
  8
DANMEN
  6
CONTINUOUS
 10
630.0
 20
124.5
 30
0.0
 40
0.5
 50
89.999999
 51
180.000036
  0
LINE
  5
247AE
  8
DANMEN
  6
CONTINUOUS
 10
628.500015
 20
127.499893
 30
0.0
 11
626.000009
 21
127.499893
 31
0.0
  0
LINE
  5
247AF
  8
DANMEN
  6
CONTINUOUS
 10
634.0
 20
135.0
 30
0.0
 11
634.0
 21
125.0
 31
0.0
  0
LINE
  5
247B0
  8
DANMEN
  6
CONTINUOUS
 10
643.0
 20
135.0
 30
0.0
 11
643.0
 21
125.0
 31
0.0
  0
LINE
  5
247B1
  8
DANMEN
  6
CONTINUOUS
 10
629.5
 20
157.5
 30
0.0
 11
629.5
 21
160.0
 31
0.0
  0
LINE
  5
247B2
  8
DANMEN
  6
CONTINUOUS
 10
624.500009
 20
164.0
 30
0.0
 11
624.500009
 21
147.0
 31
0.0
  0
LINE
  5
247B3
  8
DANMEN
  6
CONTINUOUS
 10
624.000009
 20
164.0
 30
0.0
 11
624.000009
 21
147.0
 31
0.0
  0
ARC
  5
247B4
  8
DANMEN
  6
CONTINUOUS
 10
628.500015
 20
156.000107
 30
0.0
 40
1.5
 50
269.999999
 51
0.000036
  0
LINE
  5
247B5
  8
DANMEN
  6
CONTINUOUS
 10
630.0
 20
157.0
 30
0.0
 11
636.299988
 21
157.0
 31
0.0
  0
LINE
  5
247B6
  8
DANMEN
  6
CONTINUOUS
 10
629.999985
 20
157.0
 30
0.0
 11
629.999985
 21
147.0
 31
0.0
  0
ARC
  5
247B7
  8
DANMEN
  6
CONTINUOUS
 10
626.000009
 20
153.000107
 30
0.0
 40
1.5
 50
90.000018
 51
180.0
  0
LINE
  5
247B8
  8
DANMEN
  6
CONTINUOUS
 10
628.500015
 20
154.500107
 30
0.0
 11
626.000009
 21
154.500107
 31
0.0
  0
ARC
  5
247B9
  8
DANMEN
  6
CONTINUOUS
 10
630.0
 20
157.5
 30
0.0
 40
0.5
 50
179.999964
 51
270.000001
  0
LINE
  5
247BA
  8
DANMEN
  6
CONTINUOUS
 10
634.0
 20
147.0
 30
0.0
 11
634.0
 21
157.0
 31
0.0
  0
ARC
  5
247BB
  8
DANMEN
  6
CONTINUOUS
 10
636.299988
 20
157.5
 30
0.0
 40
0.5
 50
270.000018
 51
0.0
  0
LINE
  5
247BC
  8
DANMEN
  6
CONTINUOUS
 10
629.5
 20
160.0
 30
0.0
 11
630.8
 21
160.0
 31
0.0
  0
ARC
  5
247BD
  8
DANMEN
  6
CONTINUOUS
 10
721.000009
 20
128.999908
 30
0.0
 40
1.5
 50
180.0
 51
269.999982
  0
LINE
  5
247BE
  8
DANMEN
  6
CONTINUOUS
 10
713.000006
 20
127.499908
 30
0.0
 11
710.500015
 21
127.499908
 31
0.0
  0
LINE
  5
247BF
  8
DANMEN
  6
CONTINUOUS
 10
709.000015
 20
124.999985
 30
0.0
 11
709.000015
 21
135.0
 31
0.0
  0
LINE
  5
247C0
  8
DANMEN
  6
CONTINUOUS
 10
706.0
 20
125.0
 30
0.0
 11
709.5
 21
125.0
 31
0.0
  0
ARC
  5
247C1
  8
DANMEN
  6
CONTINUOUS
 10
706.0
 20
124.5
 30
0.0
 40
0.5
 50
89.999982
 51
180.000019
  0
ARC
  5
247C2
  8
DANMEN
  6
CONTINUOUS
 10
710.500015
 20
125.999908
 30
0.0
 40
1.5
 50
90.000018
 51
180.0
  0
ARC
  5
247C3
  8
DANMEN
  6
CONTINUOUS
 10
709.5
 20
124.5
 30
0.0
 40
0.5
 50
0.0
 51
89.999982
  0
ARC
  5
247C4
  8
DANMEN
  6
CONTINUOUS
 10
713.000006
 20
128.999908
 30
0.0
 40
1.5
 50
269.999982
 51
359.999964
  0
ARC
  5
247C5
  8
DANMEN
  6
CONTINUOUS
 10
728.0
 20
124.5
 30
0.0
 40
0.5
 50
0.0
 51
89.999982
  0
LINE
  5
247C6
  8
DANMEN
  6
CONTINUOUS
 10
724.999985
 20
125.0
 30
0.0
 11
724.999985
 21
135.0
 31
0.0
  0
ARC
  5
247C7
  8
DANMEN
  6
CONTINUOUS
 10
723.500015
 20
125.999908
 30
0.0
 40
1.5
 50
359.999964
 51
90.000001
  0
ARC
  5
247C8
  8
DANMEN
  6
CONTINUOUS
 10
724.5
 20
124.5
 30
0.0
 40
0.5
 50
89.999982
 51
180.000019
  0
LINE
  5
247C9
  8
DANMEN
  6
CONTINUOUS
 10
723.500015
 20
127.499908
 30
0.0
 11
721.000009
 21
127.499908
 31
0.0
  0
LINE
  5
247CA
  8
DANMEN
  6
CONTINUOUS
 10
724.5
 20
125.0
 30
0.0
 11
728.0
 21
125.0
 31
0.0
  0
LINE
  5
247CB
  8
DANMEN
  6
CONTINUOUS
 10
739.000015
 20
125.0
 30
0.0
 11
739.000015
 21
135.0
 31
0.0
  0
LINE
  5
247CC
  8
DANMEN
  6
CONTINUOUS
 10
743.000006
 20
127.499893
 30
0.0
 11
740.500015
 21
127.499893
 31
0.0
  0
ARC
  5
247CD
  8
DANMEN
  6
CONTINUOUS
 10
740.500015
 20
125.999893
 30
0.0
 40
1.5
 50
90.000018
 51
180.0
  0
LINE
  5
247CE
  8
DANMEN
  6
CONTINUOUS
 10
737.5
 20
125.0
 30
0.0
 11
739.0
 21
125.0
 31
0.0
  0
ARC
  5
247CF
  8
DANMEN
  6
CONTINUOUS
 10
737.5
 20
124.5
 30
0.0
 40
0.5
 50
89.999982
 51
180.000019
  0
ARC
  5
247D0
  8
DANMEN
  6
CONTINUOUS
 10
739.0
 20
124.5
 30
0.0
 40
0.5
 50
0.0
 51
89.999982
  0
ARC
  5
247D1
  8
DANMEN
  6
CONTINUOUS
 10
743.000006
 20
128.999893
 30
0.0
 40
1.5
 50
269.999982
 51
359.999964
  0
ARC
  5
247D2
  8
DANMEN
  6
CONTINUOUS
 10
751.000009
 20
128.999893
 30
0.0
 40
1.5
 50
180.0
 51
269.999982
  0
ARC
  5
247D3
  8
DANMEN
  6
CONTINUOUS
 10
626.000009
 20
240.999893
 30
0.0
 40
1.5
 50
180.0
 51
269.999982
  0
ARC
  5
247D4
  8
DANMEN
  6
CONTINUOUS
 10
628.500015
 20
237.999893
 30
0.0
 40
1.5
 50
359.999964
 51
90.000001
  0
LINE
  5
247D5
  8
DANMEN
  6
CONTINUOUS
 10
624.500009
 20
230.0
 30
0.0
 11
624.500009
 21
247.0
 31
0.0
  0
LINE
  5
247D6
  8
DANMEN
  6
CONTINUOUS
 10
624.000009
 20
230.0
 30
0.0
 11
624.000009
 21
247.0
 31
0.0
  0
LINE
  5
247D7
  8
DANMEN
  6
CONTINUOUS
 10
629.999985
 20
237.0
 30
0.0
 11
629.999985
 21
247.0
 31
0.0
  0
LINE
  5
247D8
  8
DANMEN
  6
CONTINUOUS
 10
634.0
 20
247.0
 30
0.0
 11
634.0
 21
237.0
 31
0.0
  0
LINE
  5
247D9
  8
DANMEN
  6
CONTINUOUS
 10
630.8
 20
226.0
 30
0.0
 11
630.8
 21
234.0
 31
0.0
  0
LINE
  5
247DA
  8
DANMEN
  6
CONTINUOUS
 10
627.3
 20
223.5
 30
0.0
 11
630.799988
 21
223.5
 31
0.0
  0
LINE
  5
247DB
  8
DANMEN
  6
CONTINUOUS
 10
626.3
 20
221.969694
 30
0.0
 11
626.3
 21
222.5
 31
0.0
  0
LINE
  5
247DC
  8
DANMEN
  6
CONTINUOUS
 10
624.8
 20
222.053939
 30
0.0
 11
624.8
 21
223.3
 31
0.0
  0
ARC
  5
247DD
  8
DANMEN
  6
CONTINUOUS
 10
624.3
 20
221.969694
 30
0.0
 40
2.0
 50
308.293477
 51
0.0
  0
LINE
  5
247DE
  8
DANMEN
  6
CONTINUOUS
 10
624.1
 20
220.7
 30
0.0
 11
624.1
 21
220.963068
 31
0.0
  0
ARC
  5
247DF
  8
DANMEN
  6
CONTINUOUS
 10
623.8
 20
222.053939
 30
0.0
 40
1.0
 50
294.624318
 51
0.0
  0
ARC
  5
247E0
  8
DANMEN
  6
CONTINUOUS
 10
624.3
 20
220.963068
 30
0.0
 40
0.2
 50
114.624318
 51
180.0
  0
LINE
  5
247E1
  8
DANMEN
  6
CONTINUOUS
 10
621.9
 20
220.7
 30
0.0
 11
621.9
 21
220.963068
 31
0.0
  0
LINE
  5
247E2
  8
DANMEN
  6
CONTINUOUS
 10
624.4
 20
220.4
 30
0.0
 11
625.539379
 21
220.4
 31
0.0
  0
ARC
  5
247E3
  8
DANMEN
  6
CONTINUOUS
 10
624.4
 20
220.7
 30
0.0
 40
0.3
 50
180.0
 51
270.0
  0
ARC
  5
247E4
  8
DANMEN
  6
CONTINUOUS
 10
623.8
 20
223.3
 30
0.0
 40
1.0
 50
0.0
 51
90.0
  0
LINE
  5
247E5
  8
DANMEN
  6
CONTINUOUS
 10
622.2
 20
224.3
 30
0.0
 11
623.8
 21
224.3
 31
0.0
  0
ARC
  5
247E6
  8
DANMEN
  6
CONTINUOUS
 10
627.3
 20
222.5
 30
0.0
 40
1.0
 50
90.0
 51
180.0
  0
LINE
  5
247E7
  8
DANMEN
  6
CONTINUOUS
 10
629.5
 20
234.0
 30
0.0
 11
630.8
 21
234.0
 31
0.0
  0
LINE
  5
247E8
  8
DANMEN
  6
CONTINUOUS
 10
630.0
 20
237.0
 30
0.0
 11
636.299988
 21
237.0
 31
0.0
  0
LINE
  5
247E9
  8
DANMEN
  6
CONTINUOUS
 10
628.500015
 20
239.499893
 30
0.0
 11
626.000009
 21
239.499893
 31
0.0
  0
LINE
  5
247EA
  8
DANMEN
  6
CONTINUOUS
 10
629.5
 20
236.5
 30
0.0
 11
629.5
 21
234.0
 31
0.0
  0
ARC
  5
247EB
  8
DANMEN
  6
CONTINUOUS
 10
630.0
 20
236.5
 30
0.0
 40
0.5
 50
89.999999
 51
180.000036
  0
ARC
  5
247EC
  8
DANMEN
  6
CONTINUOUS
 10
636.299988
 20
236.5
 30
0.0
 40
0.5
 50
0.0
 51
89.999982
  0
LINE
  5
247ED
  8
DANMEN
  6
CONTINUOUS
 10
755.0
 20
125.0
 30
0.0
 11
772.999988
 21
125.0
 31
0.0
  0
LINE
  5
247EE
  8
DANMEN
  6
CONTINUOUS
 10
754.999985
 20
125.0
 30
0.0
 11
754.999985
 21
135.0
 31
0.0
  0
LINE
  5
247EF
  8
DANMEN
  6
CONTINUOUS
 10
759.0
 20
135.0
 30
0.0
 11
759.0
 21
125.0
 31
0.0
  0
ARC
  5
247F0
  8
DANMEN
  6
CONTINUOUS
 10
753.500015
 20
125.999893
 30
0.0
 40
1.5
 50
359.999964
 51
90.000001
  0
ARC
  5
247F1
  8
DANMEN
  6
CONTINUOUS
 10
755.0
 20
124.5
 30
0.0
 40
0.5
 50
89.999999
 51
180.000036
  0
LINE
  5
247F2
  8
DANMEN
  6
CONTINUOUS
 10
768.0
 20
135.0
 30
0.0
 11
768.0
 21
125.0
 31
0.0
  0
LINE
  5
247F3
  8
SUNPO
  6
CONTINUOUS
 10
465.0
 20
247.0
 30
0.0
 11
458.0
 21
247.0
 31
0.0
  0
ARC
  5
247F4
  8
SUNPO
  6
BYBLOCK
 10
458.0
 20
247.0
 30
0.0
 40
0.145
 50
180.0
 51
0.0
  0
ARC
  5
247F5
  8
SUNPO
  6
BYBLOCK
 10
458.0
 20
247.0
 30
0.0
 40
0.145
 50
0.0
 51
180.0
  0
TEXT
  5
247F6
  8
SUNPO
  6
CONTINUOUS
 10
460.666667
 20
248.0
 30
0.0
 40
2.5
  1
7
  0
ARC
  5
247F7
  8
SUNPO
  6
BYBLOCK
 10
465.0
 20
247.0
 30
0.0
 40
0.145
 50
0.0
 51
180.0
  0
ARC
  5
247F8
  8
SUNPO
  6
BYBLOCK
 10
465.0
 20
247.0
 30
0.0
 40
0.145
 50
180.0
 51
0.0
  0
ARC
  5
247F9
  8
SUNPO
  6
BYBLOCK
 10
465.0
 20
247.0
 30
0.0
 40
0.145
 50
180.0
 51
0.0
  0
ARC
  5
247FA
  8
SUNPO
  6
BYBLOCK
 10
465.0
 20
247.0
 30
0.0
 40
0.145
 50
0.0
 51
180.0
  0
TEXT
  5
247FB
  8
SUNPO
  6
CONTINUOUS
 10
474.916667
 20
248.0
 30
0.0
 40
2.5
  1
24
  0
LINE
  5
247FC
  8
SUNPO
  6
CONTINUOUS
 10
612.0
 20
135.0
 30
0.0
 11
636.799988
 21
135.0
 31
0.0
  0
LINE
  5
247FD
  8
SUNPO
  6
CONTINUOUS
 10
612.0
 20
247.0
 30
0.0
 11
636.799988
 21
247.0
 31
0.0
  0
LINE
  5
247FE
  8
SUNPO
  6
CONTINUOUS
 10
535.0
 20
237.0
 30
0.0
 11
535.0
 21
157.0
 31
0.0
  0
LINE
  5
247FF
  8
SUNPO
  6
CONTINUOUS
 10
529.5
 20
157.0
 30
0.0
 11
535.0
 21
157.0
 31
0.0
  0
ARC
  5
24800
  8
SUNPO
  6
BYBLOCK
 10
535.0
 20
157.0
 30
0.0
 40
0.145
 50
270.0
 51
90.0
  0
ARC
  5
24801
  8
SUNPO
  6
BYBLOCK
 10
535.0
 20
157.0
 30
0.0
 40
0.145
 50
90.0
 51
270.0
  0
TEXT
  5
24802
  8
SUNPO
  6
CONTINUOUS
 10
534.0
 20
195.125
 30
0.0
 40
2.5
  1
80
 50
90.0
  0
LINE
  5
24803
  8
SUNPO
  6
CONTINUOUS
 10
604.0
 20
135.0
 30
0.0
 11
580.0
 21
135.0
 31
0.0
  0
LINE
  5
24804
  8
SUNPO
  6
CONTINUOUS
 10
580.0
 20
135.0
 30
0.0
 11
573.0
 21
135.0
 31
0.0
  0
ARC
  5
24805
  8
SUNPO
  6
BYBLOCK
 10
573.0
 20
135.0
 30
0.0
 40
0.145
 50
180.0
 51
0.0
  0
ARC
  5
24806
  8
SUNPO
  6
BYBLOCK
 10
573.0
 20
135.0
 30
0.0
 40
0.145
 50
0.0
 51
180.0
  0
ARC
  5
24807
  8
SUNPO
  6
BYBLOCK
 10
580.0
 20
135.0
 30
0.0
 40
0.145
 50
0.0
 51
180.0
  0
ARC
  5
24808
  8
SUNPO
  6
BYBLOCK
 10
580.0
 20
135.0
 30
0.0
 40
0.145
 50
180.0
 51
0.0
  0
ARC
  5
24809
  8
SUNPO
  6
BYBLOCK
 10
580.0
 20
135.0
 30
0.0
 40
0.145
 50
180.0
 51
0.0
  0
ARC
  5
2480A
  8
SUNPO
  6
BYBLOCK
 10
580.0
 20
135.0
 30
0.0
 40
0.145
 50
0.0
 51
180.0
  0
TEXT
  5
2480B
  8
SUNPO
  6
CONTINUOUS
 10
575.666667
 20
136.0
 30
0.0
 40
2.5
  1
7
  0
TEXT
  5
2480C
  8
SUNPO
  6
CONTINUOUS
 10
589.916667
 20
136.0
 30
0.0
 40
2.5
  1
24
  0
LINE
  5
2480D
  8
SUNPO
  6
CONTINUOUS
 10
612.0
 20
135.0
 30
0.0
 11
604.0
 21
135.0
 31
0.0
  0
ARC
  5
2480E
  8
SUNPO
  6
BYBLOCK
 10
604.0
 20
135.0
 30
0.0
 40
0.145
 50
180.0
 51
0.0
  0
ARC
  5
2480F
  8
SUNPO
  6
BYBLOCK
 10
604.0
 20
135.0
 30
0.0
 40
0.145
 50
0.0
 51
180.0
  0
ARC
  5
24810
  8
SUNPO
  6
BYBLOCK
 10
604.0
 20
135.0
 30
0.0
 40
0.145
 50
0.0
 51
180.0
  0
ARC
  5
24811
  8
SUNPO
  6
BYBLOCK
 10
604.0
 20
135.0
 30
0.0
 40
0.145
 50
180.0
 51
0.0
  0
ARC
  5
24812
  8
SUNPO
  6
BYBLOCK
 10
612.0
 20
135.0
 30
0.0
 40
0.145
 50
0.0
 51
180.0
  0
ARC
  5
24813
  8
SUNPO
  6
BYBLOCK
 10
612.0
 20
135.0
 30
0.0
 40
0.145
 50
180.0
 51
0.0
  0
ARC
  5
24814
  8
SUNPO
  6
BYBLOCK
 10
612.0
 20
135.0
 30
0.0
 40
0.145
 50
180.0
 51
0.0
  0
ARC
  5
24815
  8
SUNPO
  6
BYBLOCK
 10
612.0
 20
135.0
 30
0.0
 40
0.145
 50
0.0
 51
180.0
  0
TEXT
  5
24816
  8
SUNPO
  6
CONTINUOUS
 10
607.166667
 20
136.0
 30
0.0
 40
2.5
  1
8
  0
LINE
  5
24817
  8
SUNPO
  6
CONTINUOUS
 10
497.0
 20
247.0
 30
0.0
 11
521.799988
 21
247.0
 31
0.0
  0
TEXT
  5
24818
  8
SUNPO
  6
CONTINUOUS
 10
492.166667
 20
248.0
 30
0.0
 40
2.5
  1
8
  0
LINE
  5
24819
  8
SUNPO
  6
CONTINUOUS
 10
497.0
 20
247.0
 30
0.0
 11
489.0
 21
247.0
 31
0.0
  0
ARC
  5
2481A
  8
SUNPO
  6
BYBLOCK
 10
489.0
 20
247.0
 30
0.0
 40
0.145
 50
180.0
 51
0.0
  0
ARC
  5
2481B
  8
SUNPO
  6
BYBLOCK
 10
489.0
 20
247.0
 30
0.0
 40
0.145
 50
0.0
 51
180.0
  0
ARC
  5
2481C
  8
SUNPO
  6
BYBLOCK
 10
489.0
 20
247.0
 30
0.0
 40
0.145
 50
0.0
 51
180.0
  0
ARC
  5
2481D
  8
SUNPO
  6
BYBLOCK
 10
489.0
 20
247.0
 30
0.0
 40
0.145
 50
180.0
 51
0.0
  0
ARC
  5
2481E
  8
SUNPO
  6
BYBLOCK
 10
497.0
 20
247.0
 30
0.0
 40
0.145
 50
0.0
 51
180.0
  0
ARC
  5
2481F
  8
SUNPO
  6
BYBLOCK
 10
497.0
 20
247.0
 30
0.0
 40
0.145
 50
180.0
 51
0.0
  0
ARC
  5
24820
  8
SUNPO
  6
BYBLOCK
 10
497.0
 20
247.0
 30
0.0
 40
0.145
 50
180.0
 51
0.0
  0
ARC
  5
24821
  8
SUNPO
  6
BYBLOCK
 10
497.0
 20
247.0
 30
0.0
 40
0.145
 50
0.0
 51
180.0
  0
TEXT
  5
24822
  8
SUNPO
  6
CONTINUOUS
 10
505.649994
 20
248.0
 30
0.0
 40
2.5
  1
24.8
  0
LINE
  5
24823
  8
SUNPO
  6
CONTINUOUS
 10
521.799988
 20
238.5
 30
0.0
 11
521.799988
 21
247.0
 31
0.0
  0
LINE
  5
24824
  8
SUNPO
  6
CONTINUOUS
 10
529.5
 20
237.0
 30
0.0
 11
535.0
 21
237.0
 31
0.0
  0
ARC
  5
24825
  8
SUNPO
  6
BYBLOCK
 10
535.0
 20
237.0
 30
0.0
 40
0.145
 50
90.0
 51
270.0
  0
ARC
  5
24826
  8
SUNPO
  6
BYBLOCK
 10
535.0
 20
237.0
 30
0.0
 40
0.145
 50
270.0
 51
90.0
  0
TEXT
  5
24827
  8
SUNPO
  6
CONTINUOUS
 10
522.399994
 20
248.0
 30
0.0
 40
2.5
  1
6.2
  0
LINE
  5
24828
  8
SUNPO
  6
CONTINUOUS
 10
521.799988
 20
247.0
 30
0.0
 11
528.0
 21
247.0
 31
0.0
  0
ARC
  5
24829
  8
SUNPO
  6
BYBLOCK
 10
521.799988
 20
247.0
 30
0.0
 40
0.145
 50
180.0
 51
0.0
  0
ARC
  5
2482A
  8
SUNPO
  6
BYBLOCK
 10
521.799988
 20
247.0
 30
0.0
 40
0.145
 50
0.0
 51
180.0
  0
ARC
  5
2482B
  8
SUNPO
  6
BYBLOCK
 10
521.799988
 20
247.0
 30
0.0
 40
0.145
 50
0.0
 51
180.0
  0
ARC
  5
2482C
  8
SUNPO
  6
BYBLOCK
 10
521.799988
 20
247.0
 30
0.0
 40
0.145
 50
180.0
 51
0.0
  0
ARC
  5
2482D
  8
SUNPO
  6
BYBLOCK
 10
528.0
 20
247.0
 30
0.0
 40
0.145
 50
0.0
 51
180.0
  0
ARC
  5
2482E
  8
SUNPO
  6
BYBLOCK
 10
528.0
 20
247.0
 30
0.0
 40
0.145
 50
180.0
 51
0.0
  0
LINE
  5
2482F
  8
SUNPO
  6
CONTINUOUS
 10
604.0
 20
247.0
 30
0.0
 11
580.0
 21
247.0
 31
0.0
  0
LINE
  5
24830
  8
SUNPO
  6
CONTINUOUS
 10
580.0
 20
247.0
 30
0.0
 11
573.0
 21
247.0
 31
0.0
  0
ARC
  5
24831
  8
SUNPO
  6
BYBLOCK
 10
573.0
 20
247.0
 30
0.0
 40
0.145
 50
180.0
 51
0.0
  0
ARC
  5
24832
  8
SUNPO
  6
BYBLOCK
 10
573.0
 20
247.0
 30
0.0
 40
0.145
 50
0.0
 51
180.0
  0
TEXT
  5
24833
  8
SUNPO
  6
CONTINUOUS
 10
575.666667
 20
248.0
 30
0.0
 40
2.5
  1
7
  0
ARC
  5
24834
  8
SUNPO
  6
BYBLOCK
 10
580.0
 20
247.0
 30
0.0
 40
0.145
 50
0.0
 51
180.0
  0
ARC
  5
24835
  8
SUNPO
  6
BYBLOCK
 10
580.0
 20
247.0
 30
0.0
 40
0.145
 50
180.0
 51
0.0
  0
ARC
  5
24836
  8
SUNPO
  6
BYBLOCK
 10
580.0
 20
247.0
 30
0.0
 40
0.145
 50
180.0
 51
0.0
  0
ARC
  5
24837
  8
SUNPO
  6
BYBLOCK
 10
580.0
 20
247.0
 30
0.0
 40
0.145
 50
0.0
 51
180.0
  0
TEXT
  5
24838
  8
SUNPO
  6
CONTINUOUS
 10
589.916667
 20
248.0
 30
0.0
 40
2.5
  1
24
  0
TEXT
  5
24839
  8
SUNPO
  6
CONTINUOUS
 10
607.166667
 20
248.0
 30
0.0
 40
2.5
  1
8
  0
LINE
  5
2483A
  8
SUNPO
  6
CONTINUOUS
 10
612.0
 20
247.0
 30
0.0
 11
604.0
 21
247.0
 31
0.0
  0
ARC
  5
2483B
  8
SUNPO
  6
BYBLOCK
 10
604.0
 20
247.0
 30
0.0
 40
0.145
 50
180.0
 51
0.0
  0
ARC
  5
2483C
  8
SUNPO
  6
BYBLOCK
 10
604.0
 20
247.0
 30
0.0
 40
0.145
 50
0.0
 51
180.0
  0
ARC
  5
2483D
  8
SUNPO
  6
BYBLOCK
 10
604.0
 20
247.0
 30
0.0
 40
0.145
 50
0.0
 51
180.0
  0
ARC
  5
2483E
  8
SUNPO
  6
BYBLOCK
 10
604.0
 20
247.0
 30
0.0
 40
0.145
 50
180.0
 51
0.0
  0
ARC
  5
2483F
  8
SUNPO
  6
BYBLOCK
 10
612.0
 20
247.0
 30
0.0
 40
0.145
 50
0.0
 51
180.0
  0
ARC
  5
24840
  8
SUNPO
  6
BYBLOCK
 10
612.0
 20
247.0
 30
0.0
 40
0.145
 50
180.0
 51
0.0
  0
ARC
  5
24841
  8
SUNPO
  6
BYBLOCK
 10
612.0
 20
247.0
 30
0.0
 40
0.145
 50
180.0
 51
0.0
  0
ARC
  5
24842
  8
SUNPO
  6
BYBLOCK
 10
612.0
 20
247.0
 30
0.0
 40
0.145
 50
0.0
 51
180.0
  0
LINE
  5
24843
  8
SUNPO
  6
CONTINUOUS
 10
650.0
 20
237.0
 30
0.0
 11
650.0
 21
157.0
 31
0.0
  0
LINE
  5
24844
  8
SUNPO
  6
CONTINUOUS
 10
643.0
 20
135.0
 30
0.0
 11
649.499988
 21
135.0
 31
0.0
  0
LINE
  5
24845
  8
SUNPO
  6
CONTINUOUS
 10
644.5
 20
157.0
 30
0.0
 11
650.0
 21
157.0
 31
0.0
  0
TEXT
  5
24846
  8
SUNPO
  6
CONTINUOUS
 10
620.649994
 20
136.0
 30
0.0
 40
2.5
  1
24.8
  0
LINE
  5
24847
  8
SUNPO
  6
CONTINUOUS
 10
636.799988
 20
135.0
 30
0.0
 11
643.0
 21
135.0
 31
0.0
  0
LINE
  5
24848
  8
SUNPO
  6
CONTINUOUS
 10
636.799988
 20
126.5
 30
0.0
 11
636.799988
 21
135.0
 31
0.0
  0
ARC
  5
24849
  8
SUNPO
  6
BYBLOCK
 10
636.799988
 20
135.0
 30
0.0
 40
0.145
 50
180.0
 51
0.0
  0
ARC
  5
2484A
  8
SUNPO
  6
BYBLOCK
 10
636.799988
 20
135.0
 30
0.0
 40
0.145
 50
0.0
 51
180.0
  0
ARC
  5
2484B
  8
SUNPO
  6
BYBLOCK
 10
636.799988
 20
135.0
 30
0.0
 40
0.145
 50
0.0
 51
180.0
  0
ARC
  5
2484C
  8
SUNPO
  6
BYBLOCK
 10
636.799988
 20
135.0
 30
0.0
 40
0.145
 50
180.0
 51
0.0
  0
ARC
  5
2484D
  8
SUNPO
  6
BYBLOCK
 10
643.0
 20
135.0
 30
0.0
 40
0.145
 50
0.0
 51
180.0
  0
ARC
  5
2484E
  8
SUNPO
  6
BYBLOCK
 10
643.0
 20
135.0
 30
0.0
 40
0.145
 50
180.0
 51
0.0
  0
ARC
  5
2484F
  8
SUNPO
  6
BYBLOCK
 10
643.0
 20
135.0
 30
0.0
 40
0.145
 50
180.0
 51
0.0
  0
ARC
  5
24850
  8
SUNPO
  6
BYBLOCK
 10
643.0
 20
135.0
 30
0.0
 40
0.145
 50
0.0
 51
180.0
  0
TEXT
  5
24851
  8
SUNPO
  6
CONTINUOUS
 10
637.399994
 20
136.0
 30
0.0
 40
2.5
  1
6.2
  0
LINE
  5
24852
  8
SUNPO
  6
CONTINUOUS
 10
649.499988
 20
135.0
 30
0.0
 11
658.819988
 21
135.0
 31
0.0
  0
LINE
  5
24853
  8
SUNPO
  6
CONTINUOUS
 10
654.5
 20
125.0
 30
0.0
 11
660.0
 21
125.0
 31
0.0
  0
LINE
  5
24854
  8
SUNPO
  6
CONTINUOUS
 10
649.499988
 20
126.0
 30
0.0
 11
649.499988
 21
135.0
 31
0.0
  0
ARC
  5
24855
  8
SUNPO
  6
BYBLOCK
 10
649.499988
 20
135.0
 30
0.0
 40
0.145
 50
0.0
 51
180.0
  0
ARC
  5
24856
  8
SUNPO
  6
BYBLOCK
 10
649.499988
 20
135.0
 30
0.0
 40
0.145
 50
180.0
 51
0.0
  0
ARC
  5
24857
  8
SUNPO
  6
BYBLOCK
 10
660.0
 20
125.0
 30
0.0
 40
0.145
 50
90.0
 51
270.0
  0
ARC
  5
24858
  8
SUNPO
  6
BYBLOCK
 10
660.0
 20
125.0
 30
0.0
 40
0.145
 50
270.0
 51
90.0
  0
TEXT
  5
24859
  8
SUNPO
  6
CONTINUOUS
 10
652.819988
 20
136.0
 30
0.0
 40
2.5
  1
6.5
  0
ARC
  5
2485A
  8
SUNPO
  6
BYBLOCK
 10
650.0
 20
157.0
 30
0.0
 40
0.145
 50
270.0
 51
90.0
  0
ARC
  5
2485B
  8
SUNPO
  6
BYBLOCK
 10
650.0
 20
157.0
 30
0.0
 40
0.145
 50
90.0
 51
270.0
  0
TEXT
  5
2485C
  8
SUNPO
  6
CONTINUOUS
 10
649.0
 20
195.125
 30
0.0
 40
2.5
  1
80
 50
90.0
  0
LINE
  5
2485D
  8
SUNPO
  6
CONTINUOUS
 10
729.0
 20
135.0
 30
0.0
 11
705.0
 21
135.0
 31
0.0
  0
LINE
  5
2485E
  8
SUNPO
  6
CONTINUOUS
 10
705.0
 20
135.0
 30
0.0
 11
698.0
 21
135.0
 31
0.0
  0
ARC
  5
2485F
  8
SUNPO
  6
BYBLOCK
 10
698.0
 20
135.0
 30
0.0
 40
0.145
 50
180.0
 51
0.0
  0
ARC
  5
24860
  8
SUNPO
  6
BYBLOCK
 10
698.0
 20
135.0
 30
0.0
 40
0.145
 50
0.0
 51
180.0
  0
ARC
  5
24861
  8
SUNPO
  6
BYBLOCK
 10
705.0
 20
135.0
 30
0.0
 40
0.145
 50
0.0
 51
180.0
  0
ARC
  5
24862
  8
SUNPO
  6
BYBLOCK
 10
705.0
 20
135.0
 30
0.0
 40
0.145
 50
180.0
 51
0.0
  0
ARC
  5
24863
  8
SUNPO
  6
BYBLOCK
 10
705.0
 20
135.0
 30
0.0
 40
0.145
 50
180.0
 51
0.0
  0
ARC
  5
24864
  8
SUNPO
  6
BYBLOCK
 10
705.0
 20
135.0
 30
0.0
 40
0.145
 50
0.0
 51
180.0
  0
TEXT
  5
24865
  8
SUNPO
  6
CONTINUOUS
 10
700.666667
 20
136.0
 30
0.0
 40
2.5
  1
7
  0
LINE
  5
24866
  8
SUNPO
  6
CONTINUOUS
 10
737.0
 20
135.0
 30
0.0
 11
729.0
 21
135.0
 31
0.0
  0
ARC
  5
24867
  8
SUNPO
  6
BYBLOCK
 10
729.0
 20
135.0
 30
0.0
 40
0.145
 50
180.0
 51
0.0
  0
ARC
  5
24868
  8
SUNPO
  6
BYBLOCK
 10
729.0
 20
135.0
 30
0.0
 40
0.145
 50
0.0
 51
180.0
  0
ARC
  5
24869
  8
SUNPO
  6
BYBLOCK
 10
729.0
 20
135.0
 30
0.0
 40
0.145
 50
0.0
 51
180.0
  0
ARC
  5
2486A
  8
SUNPO
  6
BYBLOCK
 10
729.0
 20
135.0
 30
0.0
 40
0.145
 50
180.0
 51
0.0
  0
TEXT
  5
2486B
  8
SUNPO
  6
CONTINUOUS
 10
714.916667
 20
136.0
 30
0.0
 40
2.5
  1
24
  0
ARC
  5
2486C
  8
SUNPO
  6
BYBLOCK
 10
737.0
 20
135.0
 30
0.0
 40
0.145
 50
0.0
 51
180.0
  0
ARC
  5
2486D
  8
SUNPO
  6
BYBLOCK
 10
737.0
 20
135.0
 30
0.0
 40
0.145
 50
180.0
 51
0.0
  0
ARC
  5
2486E
  8
SUNPO
  6
BYBLOCK
 10
737.0
 20
135.0
 30
0.0
 40
0.145
 50
180.0
 51
0.0
  0
ARC
  5
2486F
  8
SUNPO
  6
BYBLOCK
 10
737.0
 20
135.0
 30
0.0
 40
0.145
 50
0.0
 51
180.0
  0
TEXT
  5
24870
  8
SUNPO
  6
CONTINUOUS
 10
732.166667
 20
136.0
 30
0.0
 40
2.5
  1
8
  0
LINE
  5
24871
  8
SUNPO
  6
CONTINUOUS
 10
644.5
 20
237.0
 30
0.0
 11
650.0
 21
237.0
 31
0.0
  0
LINE
  5
24872
  8
SUNPO
  6
CONTINUOUS
 10
636.799988
 20
238.5
 30
0.0
 11
636.799988
 21
247.0
 31
0.0
  0
TEXT
  5
24873
  8
SUNPO
  6
CONTINUOUS
 10
620.649994
 20
248.0
 30
0.0
 40
2.5
  1
24.8
  0
TEXT
  5
24874
  8
SUNPO
  6
CONTINUOUS
 10
637.399994
 20
248.0
 30
0.0
 40
2.5
  1
6.2
  0
LINE
  5
24875
  8
SUNPO
  6
CONTINUOUS
 10
636.799988
 20
247.0
 30
0.0
 11
643.0
 21
247.0
 31
0.0
  0
ARC
  5
24876
  8
SUNPO
  6
BYBLOCK
 10
636.799988
 20
247.0
 30
0.0
 40
0.145
 50
180.0
 51
0.0
  0
ARC
  5
24877
  8
SUNPO
  6
BYBLOCK
 10
636.799988
 20
247.0
 30
0.0
 40
0.145
 50
0.0
 51
180.0
  0
ARC
  5
24878
  8
SUNPO
  6
BYBLOCK
 10
636.799988
 20
247.0
 30
0.0
 40
0.145
 50
0.0
 51
180.0
  0
ARC
  5
24879
  8
SUNPO
  6
BYBLOCK
 10
636.799988
 20
247.0
 30
0.0
 40
0.145
 50
180.0
 51
0.0
  0
ARC
  5
2487A
  8
SUNPO
  6
BYBLOCK
 10
643.0
 20
247.0
 30
0.0
 40
0.145
 50
0.0
 51
180.0
  0
ARC
  5
2487B
  8
SUNPO
  6
BYBLOCK
 10
643.0
 20
247.0
 30
0.0
 40
0.145
 50
180.0
 51
0.0
  0
ARC
  5
2487C
  8
SUNPO
  6
BYBLOCK
 10
650.0
 20
237.0
 30
0.0
 40
0.145
 50
90.0
 51
270.0
  0
ARC
  5
2487D
  8
SUNPO
  6
BYBLOCK
 10
650.0
 20
237.0
 30
0.0
 40
0.145
 50
270.0
 51
90.0
  0
TEXT
  5
2487E
  8
SUNPO
  6
CONTINUOUS
 10
777.819988
 20
136.0
 30
0.0
 40
2.5
  1
6.5
  0
LINE
  5
2487F
  8
SUNPO
  6
CONTINUOUS
 10
774.499988
 20
135.0
 30
0.0
 11
783.819988
 21
135.0
 31
0.0
  0
LINE
  5
24880
  8
SUNPO
  6
CONTINUOUS
 10
779.5
 20
125.0
 30
0.0
 11
785.0
 21
125.0
 31
0.0
  0
TEXT
  5
24881
  8
SUNPO
  6
CONTINUOUS
 10
762.399994
 20
136.0
 30
0.0
 40
2.5
  1
6.2
  0
LINE
  5
24882
  8
SUNPO
  6
CONTINUOUS
 10
761.799988
 20
135.0
 30
0.0
 11
768.0
 21
135.0
 31
0.0
  0
LINE
  5
24883
  8
SUNPO
  6
CONTINUOUS
 10
761.799988
 20
126.5
 30
0.0
 11
761.799988
 21
135.0
 31
0.0
  0
ARC
  5
24884
  8
SUNPO
  6
BYBLOCK
 10
761.799988
 20
135.0
 30
0.0
 40
0.145
 50
180.0
 51
0.0
  0
ARC
  5
24885
  8
SUNPO
  6
BYBLOCK
 10
761.799988
 20
135.0
 30
0.0
 40
0.145
 50
0.0
 51
180.0
  0
ARC
  5
24886
  8
SUNPO
  6
BYBLOCK
 10
761.799988
 20
135.0
 30
0.0
 40
0.145
 50
0.0
 51
180.0
  0
ARC
  5
24887
  8
SUNPO
  6
BYBLOCK
 10
761.799988
 20
135.0
 30
0.0
 40
0.145
 50
180.0
 51
0.0
  0
LINE
  5
24888
  8
SUNPO
  6
CONTINUOUS
 10
768.0
 20
135.0
 30
0.0
 11
774.499988
 21
135.0
 31
0.0
  0
ARC
  5
24889
  8
SUNPO
  6
BYBLOCK
 10
768.0
 20
135.0
 30
0.0
 40
0.145
 50
0.0
 51
180.0
  0
ARC
  5
2488A
  8
SUNPO
  6
BYBLOCK
 10
768.0
 20
135.0
 30
0.0
 40
0.145
 50
180.0
 51
0.0
  0
ARC
  5
2488B
  8
SUNPO
  6
BYBLOCK
 10
768.0
 20
135.0
 30
0.0
 40
0.145
 50
180.0
 51
0.0
  0
ARC
  5
2488C
  8
SUNPO
  6
BYBLOCK
 10
768.0
 20
135.0
 30
0.0
 40
0.145
 50
0.0
 51
180.0
  0
LINE
  5
2488D
  8
SUNPO
  6
CONTINUOUS
 10
774.499988
 20
126.0
 30
0.0
 11
774.499988
 21
135.0
 31
0.0
  0
ARC
  5
2488E
  8
SUNPO
  6
BYBLOCK
 10
774.499988
 20
135.0
 30
0.0
 40
0.145
 50
0.0
 51
180.0
  0
ARC
  5
2488F
  8
SUNPO
  6
BYBLOCK
 10
774.499988
 20
135.0
 30
0.0
 40
0.145
 50
180.0
 51
0.0
  0
ARC
  5
24890
  8
SUNPO
  6
BYBLOCK
 10
785.0
 20
125.0
 30
0.0
 40
0.145
 50
90.0
 51
270.0
  0
ARC
  5
24891
  8
SUNPO
  6
BYBLOCK
 10
785.0
 20
125.0
 30
0.0
 40
0.145
 50
270.0
 51
90.0
  0
ENDSEC
  0
EOF
