  0
SECTION
  2
HEADER
  9
$ACADVER
  1
AC1009
  9
$INSBASE
 10
0.0
 20
0.0
 30
0.0
  9
$EXTMIN
 10
5.0
 20
5.0
 30
0.0
  9
$EXTMAX
 10
415.0
 20
292.0
 30
0.0
  9
$LIMMIN
 10
-210.0
 20
-148.5
  9
$LIMMAX
 10
210.0
 20
148.5
  9
$ORTHOMODE
 70
     0
  9
$REGENMODE
 70
     1
  9
$FILLMODE
 70
     1
  9
$QTEXTMODE
 70
     0
  9
$MIRRTEXT
 70
     1
  9
$DRAGMODE
 70
     2
  9
$LTSCALE
 40
0.5
  9
$OSMODE
 70
   255
  9
$ATTMODE
 70
     1
  9
$TEXTSIZE
 40
2.5
  9
$TRACEWID
 40
0.05
  9
$TEXTSTYLE
  7
MX_NOTE_STANDARD
  9
$CLAYER
  8
0
  9
$CELTYPE
  6
CONTINUOUS
  9
$CECOLOR
 62
   256
  9
$DIMSCALE
 40
1.0
  9
$DIMASZ
 40
2.5
  9
$DIMEXO
 40
1.5
  9
$DIMDLI
 40
3.75
  9
$DIMRND
 40
0.0
  9
$DIMDLE
 40
0.0
  9
$DIMEXE
 40
0.0
  9
$DIMTP
 40
0.0
  9
$DIMTM
 40
0.0
  9
$DIMTXT
 40
2.5
  9
$DIMCEN
 40
2.5
  9
$DIMTSZ
 40
0.0
  9
$DIMTOL
 70
     0
  9
$DIMLIM
 70
     0
  9
$DIMTIH
 70
     0
  9
$DIMTOH
 70
     0
  9
$DIMSE1
 70
     0
  9
$DIMSE2
 70
     0
  9
$DIMTAD
 70
     1
  9
$DIMZIN
 70
     8
  9
$DIMBLK
  1

  9
$DIMASO
 70
     1
  9
$DIMSHO
 70
     1
  9
$DIMPOST
  1

  9
$DIMAPOST
  1

  9
$DIMALT
 70
     0
  9
$DIMALTD
 70
     4
  9
$DIMALTF
 40
0.0394
  9
$DIMLFAC
 40
1.0
  9
$DIMTOFL
 70
     1
  9
$DIMTVP
 40
0.0
  9
$DIMTIX
 70
     0
  9
$DIMSOXD
 70
     0
  9
$DIMSAH
 70
     0
  9
$DIMBLK1
  1

  9
$DIMBLK2
  1

  9
$DIMSTYLE
  2
MXDIMSTYLE
  9
$DIMCLRD
 70
     0
  9
$DIMCLRE
 70
     0
  9
$DIMCLRT
 70
     0
  9
$DIMTFAC
 40
1.0
  9
$DIMGAP
 40
1.0
  9
$LUNITS
 70
     2
  9
$LUPREC
 70
     4
  9
$SKETCHINC
 40
0.1
  9
$FILLETRAD
 40
0.0
  9
$AUNITS
 70
     0
  9
$AUPREC
 70
     0
  9
$MENU
  1
acad
  9
$ELEVATION
 40
0.0
  9
$PELEVATION
 40
0.0
  9
$THICKNESS
 40
0.0
  9
$LIMCHECK
 70
     0
  9
$BLIPMODE
 70
     0
  9
$CHAMFERA
 40
0.0
  9
$CHAMFERB
 40
0.0
  9
$SKPOLY
 70
     0
  9
$TDCREATE
 40
2452006.37162
  9
$TDUPDATE
 40
2452074.566032
  9
$TDINDWG
 40
0.153377
  9
$TDUSRTIMER
 40
0.153377
  9
$USRTIMER
 70
     1
  9
$ANGBASE
 50
0.0
  9
$ANGDIR
 70
     0
  9
$PDMODE
 70
     3
  9
$PDSIZE
 40
-100.0
  9
$PLINEWID
 40
0.0
  9
$COORDS
 70
     2
  9
$SPLFRAME
 70
     0
  9
$SPLINETYPE
 70
     6
  9
$SPLINESEGS
 70
     8
  9
$ATTDIA
 70
     0
  9
$ATTREQ
 70
     1
  9
$HANDLING
 70
     1
  9
$HANDSEED
  5
1644D
  9
$SURFTAB1
 70
     6
  9
$SURFTAB2
 70
     6
  9
$SURFTYPE
 70
     6
  9
$SURFU
 70
     6
  9
$SURFV
 70
     6
  9
$UCSNAME
  2

  9
$UCSORG
 10
0.0
 20
0.0
 30
0.0
  9
$UCSXDIR
 10
1.0
 20
0.0
 30
0.0
  9
$UCSYDIR
 10
0.0
 20
1.0
 30
0.0
  9
$PUCSNAME
  2

  9
$PUCSORG
 10
0.0
 20
0.0
 30
0.0
  9
$PUCSXDIR
 10
1.0
 20
0.0
 30
0.0
  9
$PUCSYDIR
 10
0.0
 20
1.0
 30
0.0
  9
$USERI1
 70
     0
  9
$USERI2
 70
     0
  9
$USERI3
 70
     0
  9
$USERI4
 70
     0
  9
$USERI5
 70
     0
  9
$USERR1
 40
0.0
  9
$USERR2
 40
0.0
  9
$USERR3
 40
0.0
  9
$USERR4
 40
0.0
  9
$USERR5
 40
0.0
  9
$WORLDVIEW
 70
     1
  9
$SHADEDGE
 70
     3
  9
$SHADEDIF
 70
    70
  9
$TILEMODE
 70
     1
  9
$MAXACTVP
 70
    16
  9
$PLIMCHECK
 70
     0
  9
$PEXTMIN
 10
1.000000E+020
 20
1.000000E+020
 30
1.000000E+020
  9
$PEXTMAX
 10
-1.000000E+020
 20
-1.000000E+020
 30
-1.000000E+020
  9
$PLIMMIN
 10
0.0
 20
0.0
  9
$PLIMMAX
 10
12.0
 20
9.0
  9
$UNITMODE
 70
     0
  9
$VISRETAIN
 70
     0
  9
$PLINEGEN
 70
     1
  9
$PSLTSCALE
 70
     0
  0
ENDSEC
  0
SECTION
  2
TABLES
  0
TABLE
  2
VPORT
 70
     2
  0
VPORT
  2
*ACTIVE
 70
     0
 10
0.0
 20
0.0
 11
1.0
 21
1.0
 12
210.002939
 22
148.492688
 13
0.0
 23
0.0
 14
1.0
 24
1.0
 15
0.0
 25
0.0
 16
0.0
 26
0.0
 36
1.0
 17
0.0
 27
0.0
 37
0.0
 40
290.13352
 41
1.803957
 42
50.0
 43
0.0
 44
0.0
 50
0.0
 51
0.0
 71
     0
 72
   100
 73
     1
 74
     0
 75
     0
 76
     0
 77
     0
 78
     0
  0
ENDTAB
  0
TABLE
  2
LTYPE
 70
     2
  0
LTYPE
  2
CONTINUOUS
 70
     0
  3
Solid line
 72
    65
 73
     0
 40
0.0
  0
LTYPE
  2
DASHED
 70
     0
  3
Dashed __ __ __ __ __ __ __ __ __ __ __ __ __ _
 72
    65
 73
     2
 40
19.05
 49
12.7
 49
-6.35
  0
ENDTAB
  0
TABLE
  2
LAYER
 70
     4
  0
LAYER
  2
0
 70
     0
 62
     7
  6
CONTINUOUS
  0
LAYER
  2
SUNPO
 70
     0
 62
     1
  6
CONTINUOUS
  0
LAYER
  2
DANMEN
 70
     0
 62
     7
  6
CONTINUOUS
  0
LAYER
  2
WAKU
 70
     0
 62
     3
  6
CONTINUOUS
  0
ENDTAB
  0
TABLE
  2
STYLE
 70
     2
  0
STYLE
  2
MX_NOTE_STANDARD
 70
     0
 40
0.0
 41
1.0
 50
0.0
 71
     0
 42
2.5
  3
txt.shx
  4
extfont.shx
  0
STYLE
  2
STANDARD
 70
     0
 40
0.0
 41
1.0
 50
0.0
 71
     0
 42
0.2
  3
txt.shx
  4
bigfont.shx
  0
ENDTAB
  0
TABLE
  2
VIEW
 70
     0
  0
ENDTAB
  0
TABLE
  2
UCS
 70
     0
  0
ENDTAB
  0
TABLE
  2
APPID
 70
     1
  0
APPID
  2
ACAD
 70
     0
  0
ENDTAB
  0
TABLE
  2
DIMSTYLE
 70
     1
  0
DIMSTYLE
  2
MXDIMSTYLE
 70
     0
  3

  4

  5

  6

  7

 40
1.0
 41
2.5
 42
1.5
 43
3.75
 44
0.0
 45
0.0
 46
0.0
 47
0.0
 48
0.0
140
2.5
141
2.5
142
0.0
143
0.0394
144
1.0
145
0.0
146
1.0
147
1.0
 71
     0
 72
     0
 73
     0
 74
     0
 75
     0
 76
     0
 77
     1
 78
     8
170
     0
171
     4
172
     1
173
     0
174
     0
175
     0
176
     0
177
     0
178
     0
  0
ENDTAB
  0
ENDSEC
  0
SECTION
  2
BLOCKS
  0
BLOCK
  8
0
  2
$MODEL_SPACE
 70
     0
 10
0.0
 20
0.0
 30
0.0
  3
$MODEL_SPACE
  1

  0
ENDBLK
  5
163A1
  8
0
  0
BLOCK
 67
     1
  8
0
  2
$PAPER_SPACE
 70
     0
 10
0.0
 20
0.0
 30
0.0
  3
$PAPER_SPACE
  1

  0
ENDBLK
  5
1639F
 67
     1
  8
0
  0
BLOCK
  8
0
  2
*U5
 70
     1
 10
0.0
 20
0.0
 30
0.0
  3
*U5
  1

  0
SOLID
  5
163A9
  8
WAKU
  6
CONTINUOUS
 10
371.305142
 20
283.605291
 30
0.0
 11
370.499782
 21
283.530361
 31
0.0
 12
370.874987
 22
283.520449
 32
0.0
 13
370.874987
 23
283.520449
 33
0.0
  0
SOLID
  5
163AA
  8
WAKU
  6
CONTINUOUS
 10
370.193309
 20
283.634664
 30
0.0
 11
370.499782
 21
283.530361
 31
0.0
 12
371.305142
 22
283.605291
 32
0.0
 13
371.305142
 23
283.605291
 33
0.0
  0
SOLID
  5
163AB
  8
WAKU
  6
CONTINUOUS
 10
371.774448
 20
283.781773
 30
0.0
 11
370.193309
 21
283.634664
 31
0.0
 12
371.305142
 22
283.605291
 32
0.0
 13
371.305142
 23
283.605291
 33
0.0
  0
SOLID
  5
163AC
  8
WAKU
  6
CONTINUOUS
 10
369.966824
 20
283.829526
 30
0.0
 11
370.193309
 21
283.634664
 31
0.0
 12
371.774448
 22
283.781773
 32
0.0
 13
371.774448
 23
283.781773
 33
0.0
  0
SOLID
  5
163AD
  8
WAKU
  6
CONTINUOUS
 10
370.594177
 20
283.909498
 30
0.0
 11
369.966824
 21
283.829526
 31
0.0
 12
371.774448
 22
283.781773
 32
0.0
 13
371.774448
 23
283.781773
 33
0.0
  0
SOLID
  5
163AE
  8
WAKU
  6
CONTINUOUS
 10
370.901294
 20
283.914863
 30
0.0
 11
370.594177
 21
283.909498
 31
0.0
 12
371.774448
 22
283.781773
 32
0.0
 13
371.774448
 23
283.781773
 33
0.0
  0
SOLID
  5
163AF
  8
WAKU
  6
CONTINUOUS
 10
370.392927
 20
283.968568
 30
0.0
 11
369.966824
 21
283.829526
 31
0.0
 12
370.594177
 22
283.909498
 32
0.0
 13
370.594177
 23
283.909498
 33
0.0
  0
SOLID
  5
163B0
  8
WAKU
  6
CONTINUOUS
 10
371.296984
 20
284.010368
 30
0.0
 11
370.901294
 21
283.914863
 31
0.0
 12
371.774448
 22
283.781773
 32
0.0
 13
371.774448
 23
283.781773
 33
0.0
  0
SOLID
  5
163B1
  8
WAKU
  6
CONTINUOUS
 10
372.265666
 20
284.043411
 30
0.0
 11
371.296984
 21
284.010368
 31
0.0
 12
371.774448
 22
283.781773
 32
0.0
 13
371.774448
 23
283.781773
 33
0.0
  0
SOLID
  5
163B2
  8
WAKU
  6
CONTINUOUS
 10
370.275177
 20
284.066476
 30
0.0
 11
369.966824
 21
283.829526
 31
0.0
 12
370.392927
 22
283.968568
 32
0.0
 13
370.392927
 23
283.968568
 33
0.0
  0
SOLID
  5
163B3
  8
WAKU
  6
CONTINUOUS
 10
369.828646
 20
284.107791
 30
0.0
 11
369.966824
 21
283.829526
 31
0.0
 12
370.275177
 22
284.066476
 32
0.0
 13
370.275177
 23
284.066476
 33
0.0
  0
SOLID
  5
163B4
  8
WAKU
  6
CONTINUOUS
 10
370.709458
 20
284.142397
 30
0.0
 11
369.828646
 21
284.107791
 31
0.0
 12
370.275177
 22
284.066476
 32
0.0
 13
370.275177
 23
284.066476
 33
0.0
  0
SOLID
  5
163B5
  8
WAKU
  6
CONTINUOUS
 10
371.751882
 20
284.202798
 30
0.0
 11
371.296984
 21
284.010368
 31
0.0
 12
372.265666
 22
284.043411
 32
0.0
 13
372.265666
 23
284.043411
 33
0.0
  0
SOLID
  5
163B6
  8
WAKU
  6
CONTINUOUS
 10
369.550381
 20
284.245969
 30
0.0
 11
369.828646
 21
284.107791
 31
0.0
 12
370.709458
 22
284.142397
 32
0.0
 13
370.709458
 23
284.142397
 33
0.0
  0
SOLID
  5
163B7
  8
WAKU
  6
CONTINUOUS
 10
371.186428
 20
284.314625
 30
0.0
 11
369.550381
 21
284.245969
 31
0.0
 12
370.709458
 22
284.142397
 32
0.0
 13
370.709458
 23
284.142397
 33
0.0
  0
SOLID
  5
163B8
  8
WAKU
  6
CONTINUOUS
 10
372.760756
 20
284.380595
 30
0.0
 11
371.751882
 21
284.202798
 31
0.0
 12
372.265666
 22
284.043411
 32
0.0
 13
372.265666
 23
284.043411
 33
0.0
  0
SOLID
  5
163B9
  8
WAKU
  6
CONTINUOUS
 10
370.172911
 20
284.451856
 30
0.0
 11
369.550381
 21
284.245969
 31
0.0
 12
371.186428
 22
284.314625
 32
0.0
 13
371.186428
 23
284.314625
 33
0.0
  0
SOLID
  5
163BA
  8
WAKU
  6
CONTINUOUS
 10
369.355518
 20
284.472454
 30
0.0
 11
369.550381
 21
284.245969
 31
0.0
 12
370.172911
 22
284.451856
 32
0.0
 13
370.172911
 23
284.451856
 33
0.0
  0
SOLID
  5
163BB
  8
WAKU
  6
CONTINUOUS
 10
372.237497
 20
284.486117
 30
0.0
 11
371.751882
 21
284.202798
 31
0.0
 12
372.760756
 22
284.380595
 32
0.0
 13
372.760756
 23
284.380595
 33
0.0
  0
SOLID
  5
163BC
  8
WAKU
  6
CONTINUOUS
 10
370.681395
 20
284.539195
 30
0.0
 11
370.172911
 21
284.451856
 31
0.0
 12
371.186428
 22
284.314625
 32
0.0
 13
371.186428
 23
284.314625
 33
0.0
  0
SOLID
  5
163BD
  8
WAKU
  6
CONTINUOUS
 10
369.787305
 20
284.553935
 30
0.0
 11
369.355518
 21
284.472454
 31
0.0
 12
370.172911
 22
284.451856
 32
0.0
 13
370.172911
 23
284.451856
 33
0.0
  0
SOLID
  5
163BE
  8
WAKU
  6
CONTINUOUS
 10
371.68777
 20
284.576545
 30
0.0
 11
370.681395
 21
284.539195
 31
0.0
 12
371.186428
 22
284.314625
 32
0.0
 13
371.186428
 23
284.314625
 33
0.0
  0
SOLID
  5
163BF
  8
WAKU
  6
CONTINUOUS
 10
369.689155
 20
284.672435
 30
0.0
 11
369.355518
 21
284.472454
 31
0.0
 12
369.787305
 22
284.553935
 32
0.0
 13
369.787305
 23
284.553935
 33
0.0
  0
SOLID
  5
163C0
  8
WAKU
  6
CONTINUOUS
 10
369.251215
 20
284.778928
 30
0.0
 11
369.355518
 21
284.472454
 31
0.0
 12
369.689155
 22
284.672435
 32
0.0
 13
369.689155
 23
284.672435
 33
0.0
  0
SOLID
  5
163C1
  8
WAKU
  6
CONTINUOUS
 10
373.241532
 20
284.780941
 30
0.0
 11
372.237497
 21
284.486117
 31
0.0
 12
372.760756
 22
284.380595
 32
0.0
 13
372.760756
 23
284.380595
 33
0.0
  0
SOLID
  5
163C2
  8
WAKU
  6
CONTINUOUS
 10
371.312263
 20
284.810332
 30
0.0
 11
370.681395
 21
284.539195
 31
0.0
 12
371.68777
 22
284.576545
 32
0.0
 13
371.68777
 23
284.576545
 33
0.0
  0
SOLID
  5
163C3
  8
WAKU
  6
CONTINUOUS
 10
369.630358
 20
284.873087
 30
0.0
 11
369.251215
 21
284.778928
 31
0.0
 12
369.689155
 22
284.672435
 32
0.0
 13
369.689155
 23
284.672435
 33
0.0
  0
SOLID
  5
163C4
  8
WAKU
  6
CONTINUOUS
 10
372.194232
 20
284.918099
 30
0.0
 11
371.312263
 21
284.810332
 31
0.0
 12
371.68777
 22
284.576545
 32
0.0
 13
371.68777
 23
284.576545
 33
0.0
  0
SOLID
  5
163C5
  8
WAKU
  6
CONTINUOUS
 10
370.260168
 20
284.959969
 30
0.0
 11
369.787305
 21
284.553935
 31
0.0
 12
370.172911
 22
284.451856
 32
0.0
 13
370.172911
 23
284.451856
 33
0.0
  0
SOLID
  5
163C6
  8
WAKU
  6
CONTINUOUS
 10
369.863139
 20
284.988189
 30
0.0
 11
369.787305
 21
284.553935
 31
0.0
 12
370.260168
 22
284.959969
 32
0.0
 13
370.260168
 23
284.959969
 33
0.0
  0
SOLID
  5
163C7
  8
WAKU
  6
CONTINUOUS
 10
398.194006
 20
285.115385
 30
0.0
 11
397.606055
 21
283.5
 31
0.0
 12
401.913747
 22
283.5
 32
0.0
 13
401.913747
 23
283.5
 33
0.0
  0
SOLID
  5
163C8
  8
WAKU
  6
CONTINUOUS
 10
401.913747
 20
283.5
 30
0.0
 11
401.424776
 21
285.115385
 31
0.0
 12
398.194006
 22
285.115385
 32
0.0
 13
398.194006
 23
285.115385
 33
0.0
  0
SOLID
  5
163C9
  8
WAKU
  6
CONTINUOUS
 10
369.241303
 20
285.154132
 30
0.0
 11
369.251215
 21
284.778928
 31
0.0
 12
369.630358
 22
284.873087
 32
0.0
 13
369.630358
 23
284.873087
 33
0.0
  0
SOLID
  5
163CA
  8
WAKU
  6
CONTINUOUS
 10
369.635696
 20
285.180404
 30
0.0
 11
369.241303
 21
285.154132
 31
0.0
 12
369.630358
 22
284.873087
 32
0.0
 13
369.630358
 23
284.873087
 33
0.0
  0
SOLID
  5
163CB
  8
WAKU
  6
CONTINUOUS
 10
373.690335
 20
285.229744
 30
0.0
 11
372.237497
 21
284.486117
 31
0.0
 12
373.241532
 22
284.780941
 32
0.0
 13
373.241532
 23
284.780941
 33
0.0
  0
SOLID
  5
163CC
  8
WAKU
  6
CONTINUOUS
 10
371.98994
 20
285.251431
 30
0.0
 11
371.312263
 21
284.810332
 31
0.0
 12
372.194232
 22
284.918099
 32
0.0
 13
372.194232
 23
284.918099
 33
0.0
  0
SOLID
  5
163CD
  8
WAKU
  6
CONTINUOUS
 10
373.195965
 20
285.275232
 30
0.0
 11
372.237497
 21
284.486117
 31
0.0
 12
373.690335
 22
285.229744
 32
0.0
 13
373.690335
 23
285.229744
 33
0.0
  0
SOLID
  5
163CE
  8
WAKU
  6
CONTINUOUS
 10
372.686363
 20
285.326171
 30
0.0
 11
371.98994
 21
285.251431
 31
0.0
 12
372.194232
 22
284.918099
 32
0.0
 13
372.194232
 23
284.918099
 33
0.0
  0
SOLID
  5
163CF
  8
WAKU
  6
CONTINUOUS
 10
370.035293
 20
285.465154
 30
0.0
 11
369.863139
 21
284.988189
 31
0.0
 12
370.260168
 22
284.959969
 32
0.0
 13
370.260168
 23
284.959969
 33
0.0
  0
SOLID
  5
163D0
  8
WAKU
  6
CONTINUOUS
 10
369.73149
 20
285.576021
 30
0.0
 11
369.241303
 21
285.154132
 31
0.0
 12
369.635696
 22
285.180404
 32
0.0
 13
369.635696
 23
285.180404
 33
0.0
  0
SOLID
  5
163D1
  8
WAKU
  6
CONTINUOUS
 10
369.326146
 20
285.584287
 30
0.0
 11
369.241303
 21
285.154132
 31
0.0
 12
369.73149
 22
285.576021
 32
0.0
 13
369.73149
 23
285.576021
 33
0.0
  0
SOLID
  5
163D2
  8
WAKU
  6
CONTINUOUS
 10
370.530712
 20
285.590875
 30
0.0
 11
370.035293
 21
285.465154
 31
0.0
 12
370.260168
 22
284.959969
 32
0.0
 13
370.260168
 23
284.959969
 33
0.0
  0
SOLID
  5
163D3
  8
WAKU
  6
CONTINUOUS
 10
389.236144
 20
285.653846
 30
0.0
 11
383.067593
 21
283.5
 31
0.0
 12
388.452208
 22
283.5
 32
0.0
 13
388.452208
 23
283.5
 33
0.0
  0
SOLID
  5
163D4
  8
WAKU
  6
CONTINUOUS
 10
383.851529
 20
285.653846
 30
0.0
 11
383.067593
 21
283.5
 31
0.0
 12
389.236144
 22
285.653846
 32
0.0
 13
389.236144
 23
285.653846
 33
0.0
  0
SOLID
  5
163D5
  8
WAKU
  6
CONTINUOUS
 10
404.851529
 20
285.653846
 30
0.0
 11
404.067593
 21
283.5
 31
0.0
 12
409.452208
 22
283.5
 32
0.0
 13
409.452208
 23
283.5
 33
0.0
  0
SOLID
  5
163D6
  8
WAKU
  6
CONTINUOUS
 10
409.452208
 20
283.5
 30
0.0
 11
409.159221
 21
285.653846
 31
0.0
 12
404.851529
 22
285.653846
 32
0.0
 13
404.851529
 23
285.653846
 33
0.0
  0
SOLID
  5
163D7
  8
WAKU
  6
CONTINUOUS
 10
391.174606
 20
285.653846
 30
0.0
 11
390.39067
 21
283.5
 31
0.0
 12
395.452208
 22
283.5
 32
0.0
 13
395.452208
 23
283.5
 33
0.0
  0
SOLID
  5
163D8
  8
WAKU
  6
CONTINUOUS
 10
395.452208
 20
283.5
 30
0.0
 11
395.159221
 21
285.653846
 31
0.0
 12
391.174606
 22
285.653846
 32
0.0
 13
391.174606
 23
285.653846
 33
0.0
  0
SOLID
  5
163D9
  8
WAKU
  6
CONTINUOUS
 10
374.090681
 20
285.71052
 30
0.0
 11
373.195965
 21
285.275232
 31
0.0
 12
373.690335
 22
285.229744
 32
0.0
 13
373.690335
 23
285.229744
 33
0.0
  0
SOLID
  5
163DA
  8
WAKU
  6
CONTINUOUS
 10
373.145266
 20
285.785089
 30
0.0
 11
371.98994
 21
285.251431
 31
0.0
 12
372.686363
 22
285.326171
 32
0.0
 13
372.686363
 23
285.326171
 33
0.0
  0
SOLID
  5
163DB
  8
WAKU
  6
CONTINUOUS
 10
372.646296
 20
285.825506
 30
0.0
 11
371.98994
 21
285.251431
 31
0.0
 12
373.145266
 22
285.785089
 32
0.0
 13
373.145266
 23
285.785089
 33
0.0
  0
SOLID
  5
163DC
  8
WAKU
  6
CONTINUOUS
 10
370.297156
 20
285.966509
 30
0.0
 11
370.035293
 21
285.465154
 31
0.0
 12
370.530712
 22
285.590875
 32
0.0
 13
370.530712
 23
285.590875
 33
0.0
  0
SOLID
  5
163DD
  8
WAKU
  6
CONTINUOUS
 10
369.923519
 20
286.031028
 30
0.0
 11
369.326146
 21
285.584287
 31
0.0
 12
369.73149
 22
285.576021
 32
0.0
 13
369.73149
 23
285.576021
 33
0.0
  0
SOLID
  5
163DE
  8
WAKU
  6
CONTINUOUS
 10
369.502627
 20
286.053593
 30
0.0
 11
369.326146
 21
285.584287
 31
0.0
 12
369.923519
 22
286.031028
 32
0.0
 13
369.923519
 23
286.031028
 33
0.0
  0
SOLID
  5
163DF
  8
WAKU
  6
CONTINUOUS
 10
379.397145
 20
286.138462
 30
0.0
 11
378.436824
 21
283.5
 31
0.0
 12
379.513747
 22
283.5
 32
0.0
 13
379.513747
 23
283.5
 33
0.0
  0
SOLID
  5
163E0
  8
WAKU
  6
CONTINUOUS
 10
377.155205
 20
286.192308
 30
0.0
 11
376.175285
 21
283.5
 31
0.0
 12
379.397145
 22
286.138462
 32
0.0
 13
379.397145
 23
286.138462
 33
0.0
  0
SOLID
  5
163E1
  8
WAKU
  6
CONTINUOUS
 10
380.493667
 20
286.192308
 30
0.0
 11
377.155205
 21
286.192308
 31
0.0
 12
379.397145
 22
286.138462
 32
0.0
 13
379.397145
 23
286.138462
 33
0.0
  0
SOLID
  5
163E2
  8
WAKU
  6
CONTINUOUS
 10
380.493667
 20
286.192308
 30
0.0
 11
379.397145
 21
286.138462
 31
0.0
 12
379.513747
 22
283.5
 32
0.0
 13
379.513747
 23
283.5
 33
0.0
  0
SOLID
  5
163E3
  8
WAKU
  6
CONTINUOUS
 10
380.493667
 20
286.192308
 30
0.0
 11
381.775285
 21
283.5
 31
0.0
 12
382.755205
 22
286.192308
 32
0.0
 13
382.755205
 23
286.192308
 33
0.0
  0
SOLID
  5
163E4
  8
WAKU
  6
CONTINUOUS
 10
374.427865
 20
286.205609
 30
0.0
 11
373.195965
 21
285.275232
 31
0.0
 12
374.090681
 22
285.71052
 32
0.0
 13
374.090681
 23
285.71052
 33
0.0
  0
SOLID
  5
163E5
  8
WAKU
  6
CONTINUOUS
 10
373.98505
 20
286.233718
 30
0.0
 11
373.195965
 21
285.275232
 31
0.0
 12
374.427865
 22
286.205609
 32
0.0
 13
374.427865
 23
286.205609
 33
0.0
  0
SOLID
  5
163E6
  8
WAKU
  6
CONTINUOUS
 10
370.971896
 20
286.268471
 30
0.0
 11
370.297156
 21
285.966509
 31
0.0
 12
370.530712
 22
285.590875
 32
0.0
 13
370.530712
 23
285.590875
 33
0.0
  0
SOLID
  5
163E7
  8
WAKU
  6
CONTINUOUS
 10
373.553316
 20
286.277229
 30
0.0
 11
372.646296
 21
285.825506
 31
0.0
 12
373.145266
 22
285.785089
 32
0.0
 13
373.145266
 23
285.785089
 33
0.0
  0
SOLID
  5
163E8
  8
WAKU
  6
CONTINUOUS
 10
370.638671
 20
286.473
 30
0.0
 11
370.297156
 21
285.966509
 31
0.0
 12
370.971896
 22
286.268471
 32
0.0
 13
370.971896
 23
286.268471
 33
0.0
  0
SOLID
  5
163E9
  8
WAKU
  6
CONTINUOUS
 10
373.220238
 20
286.48192
 30
0.0
 11
372.646296
 21
285.825506
 31
0.0
 12
373.553316
 22
286.277229
 32
0.0
 13
373.553316
 23
286.277229
 33
0.0
  0
SOLID
  5
163EA
  8
WAKU
  6
CONTINUOUS
 10
370.207035
 20
286.51657
 30
0.0
 11
369.502627
 21
286.053593
 31
0.0
 12
369.923519
 22
286.031028
 32
0.0
 13
369.923519
 23
286.031028
 33
0.0
  0
SOLID
  5
163EB
  8
WAKU
  6
CONTINUOUS
 10
369.764265
 20
286.544812
 30
0.0
 11
369.502627
 21
286.053593
 31
0.0
 12
370.207035
 22
286.51657
 32
0.0
 13
370.207035
 23
286.51657
 33
0.0
  0
SOLID
  5
163EC
  8
WAKU
  6
CONTINUOUS
 10
374.689503
 20
286.696828
 30
0.0
 11
373.98505
 21
286.233718
 31
0.0
 12
374.427865
 22
286.205609
 32
0.0
 13
374.427865
 23
286.205609
 33
0.0
  0
SOLID
  5
163ED
  8
WAKU
  6
CONTINUOUS
 10
374.268507
 20
286.719278
 30
0.0
 11
373.98505
 21
286.233718
 31
0.0
 12
374.689503
 22
286.696828
 32
0.0
 13
374.689503
 23
286.696828
 33
0.0
  0
SOLID
  5
163EE
  8
WAKU
  6
CONTINUOUS
 10
373.894843
 20
286.783693
 30
0.0
 11
373.220238
 21
286.48192
 31
0.0
 12
373.553316
 22
286.277229
 32
0.0
 13
373.553316
 23
286.277229
 33
0.0
  0
SOLID
  5
163EF
  8
WAKU
  6
CONTINUOUS
 10
371.545827
 20
286.924893
 30
0.0
 11
370.638671
 21
286.473
 31
0.0
 12
370.971896
 22
286.268471
 32
0.0
 13
370.971896
 23
286.268471
 33
0.0
  0
SOLID
  5
163F0
  8
WAKU
  6
CONTINUOUS
 10
371.04672
 20
286.965174
 30
0.0
 11
370.638671
 21
286.473
 31
0.0
 12
371.545827
 22
286.924893
 32
0.0
 13
371.545827
 23
286.924893
 33
0.0
  0
SOLID
  5
163F1
  8
WAKU
  6
CONTINUOUS
 10
370.101449
 20
287.039901
 30
0.0
 11
369.764265
 21
286.544812
 31
0.0
 12
370.207035
 22
286.51657
 32
0.0
 13
370.207035
 23
286.51657
 33
0.0
  0
SOLID
  5
163F2
  8
WAKU
  6
CONTINUOUS
 10
373.661353
 20
287.159534
 30
0.0
 11
373.220238
 21
286.48192
 31
0.0
 12
373.894843
 22
286.783693
 32
0.0
 13
373.894843
 23
286.783693
 33
0.0
  0
SOLID
  5
163F3
  8
WAKU
  6
CONTINUOUS
 10
374.865984
 20
287.166134
 30
0.0
 11
374.268507
 21
286.719278
 31
0.0
 12
374.689503
 22
286.696828
 32
0.0
 13
374.689503
 23
286.696828
 33
0.0
  0
SOLID
  5
163F4
  8
WAKU
  6
CONTINUOUS
 10
374.46071
 20
287.174248
 30
0.0
 11
374.268507
 21
286.719278
 31
0.0
 12
374.865984
 22
287.166134
 32
0.0
 13
374.865984
 23
287.166134
 33
0.0
  0
SOLID
  5
163F5
  8
WAKU
  6
CONTINUOUS
 10
374.156732
 20
287.28503
 30
0.0
 11
373.661353
 21
287.159534
 31
0.0
 12
373.894843
 22
286.783693
 32
0.0
 13
373.894843
 23
286.783693
 33
0.0
  0
SOLID
  5
163F6
  8
WAKU
  6
CONTINUOUS
 10
371.505632
 20
287.424128
 30
0.0
 11
371.04672
 21
286.965174
 31
0.0
 12
371.545827
 22
286.924893
 32
0.0
 13
371.545827
 23
286.924893
 33
0.0
  0
SOLID
  5
163F7
  8
WAKU
  6
CONTINUOUS
 10
370.996098
 20
287.475108
 30
0.0
 11
370.101449
 21
287.039901
 31
0.0
 12
370.207035
 22
286.51657
 32
0.0
 13
370.207035
 23
286.51657
 33
0.0
  0
SOLID
  5
163F8
  8
WAKU
  6
CONTINUOUS
 10
372.202181
 20
287.498991
 30
0.0
 11
371.505632
 21
287.424128
 31
0.0
 12
371.545827
 22
286.924893
 32
0.0
 13
371.545827
 23
286.924893
 33
0.0
  0
SOLID
  5
163F9
  8
WAKU
  6
CONTINUOUS
 10
370.501795
 20
287.520677
 30
0.0
 11
370.101449
 21
287.039901
 31
0.0
 12
370.996098
 22
287.475108
 32
0.0
 13
370.996098
 23
287.475108
 33
0.0
  0
SOLID
  5
163FA
  8
WAKU
  6
CONTINUOUS
 10
374.556361
 20
287.569864
 30
0.0
 11
374.46071
 21
287.174248
 31
0.0
 12
374.865984
 22
287.166134
 32
0.0
 13
374.865984
 23
287.166134
 33
0.0
  0
SOLID
  5
163FB
  8
WAKU
  6
CONTINUOUS
 10
395.864763
 20
287.592308
 30
0.0
 11
395.159221
 21
285.653846
 31
0.0
 12
395.452208
 22
283.5
 32
0.0
 13
395.452208
 23
283.5
 33
0.0
  0
SOLID
  5
163FC
  8
WAKU
  6
CONTINUOUS
 10
393.172456
 20
287.592308
 30
0.0
 11
391.703565
 21
286.515385
 31
0.0
 12
392.780488
 22
286.515385
 32
0.0
 13
392.780488
 23
286.515385
 33
0.0
  0
SOLID
  5
163FD
  8
WAKU
  6
CONTINUOUS
 10
392.095533
 20
287.592308
 30
0.0
 11
391.703565
 21
286.515385
 31
0.0
 12
393.172456
 22
287.592308
 32
0.0
 13
393.172456
 23
287.592308
 33
0.0
  0
SOLID
  5
163FE
  8
WAKU
  6
CONTINUOUS
 10
391.28784
 20
287.592308
 30
0.0
 11
392.095533
 21
287.592308
 31
0.0
 12
393.172456
 22
287.592308
 32
0.0
 13
393.172456
 23
287.592308
 33
0.0
  0
SOLID
  5
163FF
  8
WAKU
  6
CONTINUOUS
 10
391.28784
 20
287.592308
 30
0.0
 11
393.172456
 21
287.592308
 31
0.0
 12
395.864763
 22
287.592308
 32
0.0
 13
395.864763
 23
287.592308
 33
0.0
  0
SOLID
  5
16400
  8
WAKU
  6
CONTINUOUS
 10
396.941687
 20
287.592308
 30
0.0
 11
391.28784
 21
287.592308
 31
0.0
 12
395.864763
 22
287.592308
 32
0.0
 13
395.864763
 23
287.592308
 33
0.0
  0
SOLID
  5
16401
  8
WAKU
  6
CONTINUOUS
 10
396.941687
 20
287.592308
 30
0.0
 11
395.864763
 21
287.592308
 31
0.0
 12
395.452208
 22
283.5
 32
0.0
 13
395.452208
 23
283.5
 33
0.0
  0
SOLID
  5
16402
  8
WAKU
  6
CONTINUOUS
 10
374.950827
 20
287.596289
 30
0.0
 11
374.556361
 21
287.569864
 31
0.0
 12
374.865984
 22
287.166134
 32
0.0
 13
374.865984
 23
287.166134
 33
0.0
  0
SOLID
  5
16403
  8
WAKU
  6
CONTINUOUS
 10
374.328925
 20
287.761987
 30
0.0
 11
373.661353
 21
287.159534
 31
0.0
 12
374.156732
 22
287.28503
 32
0.0
 13
374.156732
 23
287.28503
 33
0.0
  0
SOLID
  5
16404
  8
WAKU
  6
CONTINUOUS
 10
373.932071
 20
287.790402
 30
0.0
 11
373.661353
 21
287.159534
 31
0.0
 12
374.328925
 22
287.761987
 32
0.0
 13
374.328925
 23
287.761987
 33
0.0
  0
SOLID
  5
16405
  8
WAKU
  6
CONTINUOUS
 10
371.997783
 20
287.832235
 30
0.0
 11
371.505632
 21
287.424128
 31
0.0
 12
372.202181
 22
287.498991
 32
0.0
 13
372.202181
 23
287.498991
 33
0.0
  0
SOLID
  5
16406
  8
WAKU
  6
CONTINUOUS
 10
374.561802
 20
287.877253
 30
0.0
 11
374.556361
 21
287.569864
 31
0.0
 12
374.950827
 22
287.596289
 32
0.0
 13
374.950827
 23
287.596289
 33
0.0
  0
SOLID
  5
16407
  8
WAKU
  6
CONTINUOUS
 10
372.879878
 20
287.940057
 30
0.0
 11
371.997783
 21
287.832235
 31
0.0
 12
372.202181
 22
287.498991
 32
0.0
 13
372.202181
 23
287.498991
 33
0.0
  0
SOLID
  5
16408
  8
WAKU
  6
CONTINUOUS
 10
370.950599
 20
287.96948
 30
0.0
 11
370.501795
 21
287.520677
 31
0.0
 12
370.996098
 22
287.475108
 32
0.0
 13
370.996098
 23
287.475108
 33
0.0
  0
SOLID
  5
16409
  8
WAKU
  6
CONTINUOUS
 10
374.940915
 20
287.971493
 30
0.0
 11
374.561802
 21
287.877253
 31
0.0
 12
374.950827
 22
287.596289
 32
0.0
 13
374.950827
 23
287.596289
 33
0.0
  0
SOLID
  5
1640A
  8
WAKU
  6
CONTINUOUS
 10
374.502951
 20
288.077918
 30
0.0
 11
374.561802
 21
287.877253
 31
0.0
 12
374.940915
 22
287.971493
 32
0.0
 13
374.940915
 23
287.971493
 33
0.0
  0
SOLID
  5
1640B
  8
WAKU
  6
CONTINUOUS
 10
405.753055
 20
288.130769
 30
0.0
 11
405.282694
 21
286.838462
 31
0.0
 12
408.513463
 22
286.838462
 32
0.0
 13
408.513463
 23
286.838462
 33
0.0
  0
SOLID
  5
1640C
  8
WAKU
  6
CONTINUOUS
 10
408.983824
 20
288.130769
 30
0.0
 11
405.753055
 21
288.130769
 31
0.0
 12
408.513463
 22
286.838462
 32
0.0
 13
408.513463
 23
286.838462
 33
0.0
  0
SOLID
  5
1640D
  8
WAKU
  6
CONTINUOUS
 10
372.504269
 20
288.173821
 30
0.0
 11
371.997783
 21
287.832235
 31
0.0
 12
372.879878
 22
287.940057
 32
0.0
 13
372.879878
 23
287.940057
 33
0.0
  0
SOLID
  5
1640E
  8
WAKU
  6
CONTINUOUS
 10
374.40481
 20
288.196249
 30
0.0
 11
373.932071
 21
287.790402
 31
0.0
 12
374.328925
 22
287.761987
 32
0.0
 13
374.328925
 23
287.761987
 33
0.0
  0
SOLID
  5
1640F
  8
WAKU
  6
CONTINUOUS
 10
374.40481
 20
288.196249
 30
0.0
 11
374.502951
 21
288.077918
 31
0.0
 12
374.940915
 22
287.971493
 32
0.0
 13
374.940915
 23
287.971493
 33
0.0
  0
SOLID
  5
16410
  8
WAKU
  6
CONTINUOUS
 10
373.510738
 20
288.21124
 30
0.0
 11
372.504269
 21
288.173821
 31
0.0
 12
372.879878
 22
287.940057
 32
0.0
 13
372.879878
 23
287.940057
 33
0.0
  0
SOLID
  5
16411
  8
WAKU
  6
CONTINUOUS
 10
371.954587
 20
288.264284
 30
0.0
 11
370.950599
 21
287.96948
 31
0.0
 12
370.996098
 22
287.475108
 32
0.0
 13
370.996098
 23
287.475108
 33
0.0
  0
SOLID
  5
16412
  8
WAKU
  6
CONTINUOUS
 10
374.836612
 20
288.277967
 30
0.0
 11
374.40481
 21
288.196249
 31
0.0
 12
374.940915
 22
287.971493
 32
0.0
 13
374.940915
 23
287.971493
 33
0.0
  0
SOLID
  5
16413
  8
WAKU
  6
CONTINUOUS
 10
374.019229
 20
288.298569
 30
0.0
 11
372.504269
 21
288.173821
 31
0.0
 12
373.510738
 22
288.21124
 32
0.0
 13
373.510738
 23
288.21124
 33
0.0
  0
SOLID
  5
16414
  8
WAKU
  6
CONTINUOUS
 10
374.019229
 20
288.298569
 30
0.0
 11
374.40481
 21
288.196249
 31
0.0
 12
374.836612
 22
288.277967
 32
0.0
 13
374.836612
 23
288.277967
 33
0.0
  0
SOLID
  5
16415
  8
WAKU
  6
CONTINUOUS
 10
374.019229
 20
288.298569
 30
0.0
 11
373.932071
 21
287.790402
 31
0.0
 12
374.40481
 22
288.196249
 32
0.0
 13
374.40481
 23
288.196249
 33
0.0
  0
SOLID
  5
16416
  8
WAKU
  6
CONTINUOUS
 10
371.431374
 20
288.369826
 30
0.0
 11
370.950599
 21
287.96948
 31
0.0
 12
371.954587
 22
288.264284
 32
0.0
 13
371.954587
 23
288.264284
 33
0.0
  0
SOLID
  5
16417
  8
WAKU
  6
CONTINUOUS
 10
373.005639
 20
288.435768
 30
0.0
 11
372.504269
 21
288.173821
 31
0.0
 12
374.019229
 22
288.298569
 32
0.0
 13
374.019229
 23
288.298569
 33
0.0
  0
SOLID
  5
16418
  8
WAKU
  6
CONTINUOUS
 10
374.641749
 20
288.504452
 30
0.0
 11
373.005639
 21
288.435768
 31
0.0
 12
374.019229
 22
288.298569
 32
0.0
 13
374.019229
 23
288.298569
 33
0.0
  0
SOLID
  5
16419
  8
WAKU
  6
CONTINUOUS
 10
374.641749
 20
288.504452
 30
0.0
 11
374.019229
 21
288.298569
 31
0.0
 12
374.836612
 22
288.277967
 32
0.0
 13
374.836612
 23
288.277967
 33
0.0
  0
SOLID
  5
1641A
  8
WAKU
  6
CONTINUOUS
 10
372.440235
 20
288.547585
 30
0.0
 11
371.431374
 21
288.369826
 31
0.0
 12
371.954587
 22
288.264284
 32
0.0
 13
371.954587
 23
288.264284
 33
0.0
  0
SOLID
  5
1641B
  8
WAKU
  6
CONTINUOUS
 10
373.482636
 20
288.608014
 30
0.0
 11
373.005639
 21
288.435768
 31
0.0
 12
374.641749
 22
288.504452
 32
0.0
 13
374.641749
 23
288.504452
 33
0.0
  0
SOLID
  5
1641C
  8
WAKU
  6
CONTINUOUS
 10
374.363484
 20
288.64263
 30
0.0
 11
373.482636
 21
288.608014
 31
0.0
 12
374.641749
 22
288.504452
 32
0.0
 13
374.641749
 23
288.504452
 33
0.0
  0
SOLID
  5
1641D
  8
WAKU
  6
CONTINUOUS
 10
373.916941
 20
288.683944
 30
0.0
 11
373.482636
 21
288.608014
 31
0.0
 12
374.363484
 22
288.64263
 32
0.0
 13
374.363484
 23
288.64263
 33
0.0
  0
SOLID
  5
1641E
  8
WAKU
  6
CONTINUOUS
 10
371.926464
 20
288.70701
 30
0.0
 11
371.431374
 21
288.369826
 31
0.0
 12
372.440235
 22
288.547585
 32
0.0
 13
372.440235
 23
288.547585
 33
0.0
  0
SOLID
  5
1641F
  8
WAKU
  6
CONTINUOUS
 10
372.89514
 20
288.740065
 30
0.0
 11
371.926464
 21
288.70701
 31
0.0
 12
372.440235
 22
288.547585
 32
0.0
 13
372.440235
 23
288.547585
 33
0.0
  0
SOLID
  5
16420
  8
WAKU
  6
CONTINUOUS
 10
380.311313
 20
288.776923
 30
0.0
 11
377.155205
 21
286.192308
 31
0.0
 12
380.493667
 22
286.192308
 32
0.0
 13
380.493667
 23
286.192308
 33
0.0
  0
SOLID
  5
16421
  8
WAKU
  6
CONTINUOUS
 10
381.524851
 20
288.776923
 30
0.0
 11
378.095928
 21
288.776923
 31
0.0
 12
380.311313
 22
288.776923
 32
0.0
 13
380.311313
 23
288.776923
 33
0.0
  0
SOLID
  5
16422
  8
WAKU
  6
CONTINUOUS
 10
381.524851
 20
288.776923
 30
0.0
 11
380.311313
 21
288.776923
 31
0.0
 12
380.493667
 22
286.192308
 32
0.0
 13
380.493667
 23
286.192308
 33
0.0
  0
SOLID
  5
16423
  8
WAKU
  6
CONTINUOUS
 10
381.524851
 20
288.776923
 30
0.0
 11
380.493667
 21
286.192308
 31
0.0
 12
382.755205
 22
286.192308
 32
0.0
 13
382.755205
 23
286.192308
 33
0.0
  0
SOLID
  5
16424
  8
WAKU
  6
CONTINUOUS
 10
373.799148
 20
288.781929
 30
0.0
 11
373.916941
 21
288.683944
 31
0.0
 12
374.363484
 22
288.64263
 32
0.0
 13
374.363484
 23
288.64263
 33
0.0
  0
SOLID
  5
16425
  8
WAKU
  6
CONTINUOUS
 10
373.290857
 20
288.835581
 30
0.0
 11
371.926464
 21
288.70701
 31
0.0
 12
372.89514
 22
288.740065
 32
0.0
 13
372.89514
 23
288.740065
 33
0.0
  0
SOLID
  5
16426
  8
WAKU
  6
CONTINUOUS
 10
373.597996
 20
288.840902
 30
0.0
 11
373.799148
 21
288.781929
 31
0.0
 12
374.363484
 22
288.64263
 32
0.0
 13
374.363484
 23
288.64263
 33
0.0
  0
SOLID
  5
16427
  8
WAKU
  6
CONTINUOUS
 10
402.042817
 20
288.884615
 30
0.0
 11
400.181958
 21
286.730769
 31
0.0
 12
401.258881
 22
286.730769
 32
0.0
 13
401.258881
 23
286.730769
 33
0.0
  0
SOLID
  5
16428
  8
WAKU
  6
CONTINUOUS
 10
402.796663
 20
288.884615
 30
0.0
 11
401.424776
 21
285.115385
 31
0.0
 12
401.913747
 22
283.5
 32
0.0
 13
401.913747
 23
283.5
 33
0.0
  0
SOLID
  5
16429
  8
WAKU
  6
CONTINUOUS
 10
403.873587
 20
288.884615
 30
0.0
 11
402.796663
 21
288.884615
 31
0.0
 12
401.913747
 22
283.5
 32
0.0
 13
401.913747
 23
283.5
 33
0.0
  0
SOLID
  5
1642A
  8
WAKU
  6
CONTINUOUS
 10
400.965894
 20
288.884615
 30
0.0
 11
400.181958
 21
286.730769
 31
0.0
 12
402.042817
 22
288.884615
 32
0.0
 13
402.042817
 23
288.884615
 33
0.0
  0
SOLID
  5
1642B
  8
WAKU
  6
CONTINUOUS
 10
399.858881
 20
286.730769
 30
0.0
 11
400.642817
 21
288.884615
 31
0.0
 12
399.565894
 22
288.884615
 32
0.0
 13
399.565894
 23
288.884615
 33
0.0
  0
SOLID
  5
1642C
  8
WAKU
  6
CONTINUOUS
 10
399.565894
 20
288.884615
 30
0.0
 11
398.781958
 21
286.730769
 31
0.0
 12
399.858881
 22
286.730769
 32
0.0
 13
399.858881
 23
286.730769
 33
0.0
  0
SOLID
  5
1642D
  8
WAKU
  6
CONTINUOUS
 10
374.225306
 20
288.920895
 30
0.0
 11
373.597996
 21
288.840902
 31
0.0
 12
374.363484
 22
288.64263
 32
0.0
 13
374.363484
 23
288.64263
 33
0.0
  0
SOLID
  5
1642E
  8
WAKU
  6
CONTINUOUS
 10
372.417683
 20
288.968648
 30
0.0
 11
373.597996
 21
288.840902
 31
0.0
 12
374.225306
 22
288.920895
 32
0.0
 13
374.225306
 23
288.920895
 33
0.0
  0
SOLID
  5
1642F
  8
WAKU
  6
CONTINUOUS
 10
372.417683
 20
288.968648
 30
0.0
 11
373.290857
 21
288.835581
 31
0.0
 12
373.597996
 22
288.840902
 32
0.0
 13
373.597996
 23
288.840902
 33
0.0
  0
SOLID
  5
16430
  8
WAKU
  6
CONTINUOUS
 10
372.417683
 20
288.968648
 30
0.0
 11
371.926464
 21
288.70701
 31
0.0
 12
373.290857
 22
288.835581
 32
0.0
 13
373.290857
 23
288.835581
 33
0.0
  0
SOLID
  5
16431
  8
WAKU
  6
CONTINUOUS
 10
373.998821
 20
289.115757
 30
0.0
 11
372.417683
 21
288.968648
 31
0.0
 12
374.225306
 22
288.920895
 32
0.0
 13
374.225306
 23
288.920895
 33
0.0
  0
SOLID
  5
16432
  8
WAKU
  6
CONTINUOUS
 10
372.886988
 20
289.145129
 30
0.0
 11
372.417683
 21
288.968648
 31
0.0
 12
373.998821
 22
289.115757
 32
0.0
 13
373.998821
 23
289.115757
 33
0.0
  0
SOLID
  5
16433
  8
WAKU
  6
CONTINUOUS
 10
396.941687
 20
287.592308
 30
0.0
 11
396.452715
 21
289.207692
 31
0.0
 12
393.760408
 22
289.207692
 32
0.0
 13
393.760408
 23
289.207692
 33
0.0
  0
SOLID
  5
16434
  8
WAKU
  6
CONTINUOUS
 10
396.452715
 20
289.207692
 30
0.0
 11
396.941687
 21
287.592308
 31
0.0
 12
397.749379
 22
287.592308
 32
0.0
 13
397.749379
 23
287.592308
 33
0.0
  0
SOLID
  5
16435
  8
WAKU
  6
CONTINUOUS
 10
393.760408
 20
289.207692
 30
0.0
 11
391.28784
 21
287.592308
 31
0.0
 12
396.941687
 22
287.592308
 32
0.0
 13
396.941687
 23
287.592308
 33
0.0
  0
SOLID
  5
16436
  8
WAKU
  6
CONTINUOUS
 10
398.337331
 20
289.207692
 30
0.0
 11
396.452715
 21
289.207692
 31
0.0
 12
397.749379
 22
287.592308
 32
0.0
 13
397.749379
 23
287.592308
 33
0.0
  0
SOLID
  5
16437
  8
WAKU
  6
CONTINUOUS
 10
391.875792
 20
289.207692
 30
0.0
 11
391.28784
 21
287.592308
 31
0.0
 12
393.760408
 22
289.207692
 32
0.0
 13
393.760408
 23
289.207692
 33
0.0
  0
SOLID
  5
16438
  8
WAKU
  6
CONTINUOUS
 10
393.760408
 20
289.207692
 30
0.0
 11
392.683485
 21
289.207692
 31
0.0
 12
391.875792
 22
289.207692
 32
0.0
 13
391.875792
 23
289.207692
 33
0.0
  0
SOLID
  5
16439
  8
WAKU
  6
CONTINUOUS
 10
397.529638
 20
289.207692
 30
0.0
 11
396.452715
 21
289.207692
 31
0.0
 12
398.337331
 22
289.207692
 32
0.0
 13
398.337331
 23
289.207692
 33
0.0
  0
SOLID
  5
1643A
  8
WAKU
  6
CONTINUOUS
 10
373.692348
 20
289.22006
 30
0.0
 11
372.886988
 21
289.145129
 31
0.0
 12
373.998821
 22
289.115757
 32
0.0
 13
373.998821
 23
289.115757
 33
0.0
  0
SOLID
  5
1643B
  8
WAKU
  6
CONTINUOUS
 10
373.317143
 20
289.229972
 30
0.0
 11
372.886988
 21
289.145129
 31
0.0
 12
373.692348
 22
289.22006
 32
0.0
 13
373.692348
 23
289.22006
 33
0.0
  0
SOLID
  5
1643C
  8
WAKU
  6
CONTINUOUS
 10
378.723077
 20
290.5
 30
0.0
 11
381.524851
 21
288.776923
 31
0.0
 12
383.695928
 22
288.776923
 32
0.0
 13
383.695928
 23
288.776923
 33
0.0
  0
SOLID
  5
1643D
  8
WAKU
  6
CONTINUOUS
 10
378.723077
 20
290.5
 30
0.0
 11
378.095928
 21
288.776923
 31
0.0
 12
381.524851
 22
288.776923
 32
0.0
 13
381.524851
 23
288.776923
 33
0.0
  0
SOLID
  5
1643E
  8
WAKU
  6
CONTINUOUS
 10
372.249053
 20
290.5
 30
0.0
 11
367.971276
 21
290.5
 31
0.0
 12
367.971276
 22
286.222222
 32
0.0
 13
367.971276
 23
286.222222
 33
0.0
  0
SOLID
  5
1643F
  8
WAKU
  6
CONTINUOUS
 10
409.219005
 20
288.776923
 30
0.0
 11
409.846154
 21
290.5
 31
0.0
 12
406.615385
 22
290.5
 32
0.0
 13
406.615385
 23
290.5
 33
0.0
  0
SOLID
  5
16440
  8
WAKU
  6
CONTINUOUS
 10
406.615385
 20
290.5
 30
0.0
 11
405.988236
 21
288.776923
 31
0.0
 12
409.219005
 22
288.776923
 32
0.0
 13
409.219005
 23
288.776923
 33
0.0
  0
SOLID
  5
16441
  8
WAKU
  6
CONTINUOUS
 10
392.683485
 20
289.207692
 30
0.0
 11
394.230769
 21
290.5
 31
0.0
 12
393.153846
 22
290.5
 32
0.0
 13
393.153846
 23
290.5
 33
0.0
  0
SOLID
  5
16442
  8
WAKU
  6
CONTINUOUS
 10
394.230769
 20
290.5
 30
0.0
 11
392.683485
 21
289.207692
 31
0.0
 12
393.760408
 22
289.207692
 32
0.0
 13
393.760408
 23
289.207692
 33
0.0
  0
SOLID
  5
16443
  8
WAKU
  6
CONTINUOUS
 10
409.159221
 20
285.653846
 30
0.0
 11
412.0
 21
290.5
 31
0.0
 12
410.923077
 22
290.5
 32
0.0
 13
410.923077
 23
290.5
 33
0.0
  0
SOLID
  5
16444
  8
WAKU
  6
CONTINUOUS
 10
412.0
 20
290.5
 30
0.0
 11
409.159221
 21
285.653846
 31
0.0
 12
409.452208
 22
283.5
 32
0.0
 13
409.452208
 23
283.5
 33
0.0
  0
SOLID
  5
16445
  8
WAKU
  6
CONTINUOUS
 10
384.323077
 20
290.5
 30
0.0
 11
378.723077
 21
290.5
 31
0.0
 12
383.695928
 22
288.776923
 32
0.0
 13
383.695928
 23
288.776923
 33
0.0
  0
SOLID
  5
16446
  8
WAKU
  6
CONTINUOUS
 10
385.615385
 20
290.5
 30
0.0
 11
384.988236
 21
288.776923
 31
0.0
 12
390.372851
 22
288.776923
 32
0.0
 13
390.372851
 23
288.776923
 33
0.0
  0
SOLID
  5
16447
  8
WAKU
  6
CONTINUOUS
 10
396.923077
 20
290.5
 30
0.0
 11
396.452715
 21
289.207692
 31
0.0
 12
397.529638
 22
289.207692
 32
0.0
 13
397.529638
 23
289.207692
 33
0.0
  0
SOLID
  5
16448
  8
WAKU
  6
CONTINUOUS
 10
391.0
 20
290.5
 30
0.0
 11
385.615385
 21
290.5
 31
0.0
 12
390.372851
 22
288.776923
 32
0.0
 13
390.372851
 23
288.776923
 33
0.0
  0
SOLID
  5
16449
  8
WAKU
  6
CONTINUOUS
 10
398.0
 20
290.5
 30
0.0
 11
396.923077
 21
290.5
 31
0.0
 12
397.529638
 22
289.207692
 32
0.0
 13
397.529638
 23
289.207692
 33
0.0
  0
ENDBLK
  5
1644B
  8
0
  0
ENDSEC
  0
SECTION
  2
ENTITIES
  0
LINE
  5
43
  8
WAKU
 10
415.0
 20
292.0
 30
0.0
 11
415.0
 21
5.0
 31
0.0
  0
LINE
  5
46
  8
WAKU
 10
5.0
 20
292.0
 30
0.0
 11
5.0
 21
5.0
 31
0.0
  0
LINE
  5
55
  8
WAKU
 10
5.0
 20
5.0
 30
0.0
 11
415.0
 21
5.0
 31
0.0
  0
LINE
  5
571
  8
WAKU
 10
5.0
 20
292.0
 30
0.0
 11
415.0
 21
292.0
 31
0.0
  0
LINE
  5
572
  8
WAKU
 10
5.0
 20
282.0
 30
0.0
 11
415.0
 21
282.0
 31
0.0
  0
LINE
  5
CBC
  8
WAKU
  6
CONTINUOUS
 10
393.760408
 20
289.207692
 30
0.0
 11
396.452715
 21
289.207692
 31
0.0
  0
LINE
  5
CBD
  8
WAKU
  6
CONTINUOUS
 10
393.172456
 20
287.592308
 30
0.0
 11
395.864763
 21
287.592308
 31
0.0
  0
LINE
  5
CBE
  8
WAKU
  6
CONTINUOUS
 10
390.39067
 20
283.5
 30
0.0
 11
395.452208
 21
283.5
 31
0.0
  0
LINE
  5
CBF
  8
WAKU
  6
CONTINUOUS
 10
395.159221
 20
285.653846
 30
0.0
 11
395.864763
 21
287.592308
 31
0.0
  0
LINE
  5
CC0
  8
WAKU
  6
CONTINUOUS
 10
367.971276
 20
290.5
 30
0.0
 11
372.249053
 21
290.5
 31
0.0
  0
LINE
  5
CC1
  8
WAKU
  6
CONTINUOUS
 10
367.971276
 20
286.222222
 30
0.0
 11
372.249053
 21
290.5
 31
0.0
  0
LINE
  5
CC2
  8
WAKU
  6
CONTINUOUS
 10
367.971276
 20
290.5
 30
0.0
 11
367.971276
 21
286.222222
 31
0.0
  0
LINE
  5
CC3
  8
WAKU
  6
CONTINUOUS
 10
381.524851
 20
288.776923
 30
0.0
 11
383.695928
 21
288.776923
 31
0.0
  0
LINE
  5
CC4
  8
WAKU
  6
CONTINUOUS
 10
378.723077
 20
290.5
 30
0.0
 11
384.323077
 21
290.5
 31
0.0
  0
LINE
  5
CC5
  8
WAKU
  6
CONTINUOUS
 10
380.311313
 20
288.776923
 30
0.0
 11
377.155205
 21
286.192308
 31
0.0
  0
LINE
  5
CC6
  8
WAKU
  6
CONTINUOUS
 10
381.524851
 20
288.776923
 30
0.0
 11
382.755205
 21
286.192308
 31
0.0
  0
LINE
  5
CC7
  8
WAKU
  6
CONTINUOUS
 10
376.175285
 20
283.5
 30
0.0
 11
377.155205
 21
286.192308
 31
0.0
  0
LINE
  5
CC8
  8
WAKU
  6
CONTINUOUS
 10
379.397145
 20
286.138462
 30
0.0
 11
376.175285
 21
283.5
 31
0.0
  0
LINE
  5
CC9
  8
WAKU
  6
CONTINUOUS
 10
381.775285
 20
283.5
 30
0.0
 11
382.755205
 21
286.192308
 31
0.0
  0
LINE
  5
CCA
  8
WAKU
  6
CONTINUOUS
 10
380.493667
 20
286.192308
 30
0.0
 11
381.775285
 21
283.5
 31
0.0
  0
LINE
  5
CCB
  8
WAKU
  6
CONTINUOUS
 10
379.513747
 20
283.5
 30
0.0
 11
380.493667
 21
286.192308
 31
0.0
  0
LINE
  5
CCC
  8
WAKU
  6
CONTINUOUS
 10
378.436824
 20
283.5
 30
0.0
 11
379.513747
 21
283.5
 31
0.0
  0
LINE
  5
CCD
  8
WAKU
  6
CONTINUOUS
 10
378.436824
 20
283.5
 30
0.0
 11
379.397145
 21
286.138462
 31
0.0
  0
LINE
  5
CCE
  8
WAKU
  6
CONTINUOUS
 10
378.095928
 20
288.776923
 30
0.0
 11
380.311313
 21
288.776923
 31
0.0
  0
LINE
  5
CCF
  8
WAKU
  6
CONTINUOUS
 10
378.723077
 20
290.5
 30
0.0
 11
378.095928
 21
288.776923
 31
0.0
  0
LINE
  5
CD0
  8
WAKU
  6
CONTINUOUS
 10
392.780488
 20
286.515385
 30
0.0
 11
393.172456
 21
287.592308
 31
0.0
  0
LINE
  5
CD1
  8
WAKU
  6
CONTINUOUS
 10
391.703565
 20
286.515385
 30
0.0
 11
392.095533
 21
287.592308
 31
0.0
  0
LINE
  5
CD2
  8
WAKU
  6
CONTINUOUS
 10
388.452208
 20
283.5
 30
0.0
 11
389.236144
 21
285.653846
 31
0.0
  0
LINE
  5
CD3
  8
WAKU
  6
CONTINUOUS
 10
383.851529
 20
285.653846
 30
0.0
 11
389.236144
 21
285.653846
 31
0.0
  0
LINE
  5
CD4
  8
WAKU
  6
CONTINUOUS
 10
383.067593
 20
283.5
 30
0.0
 11
383.851529
 21
285.653846
 31
0.0
  0
LINE
  5
CD5
  8
WAKU
  6
CONTINUOUS
 10
383.067593
 20
283.5
 30
0.0
 11
388.452208
 21
283.5
 31
0.0
  0
LINE
  5
CD6
  8
WAKU
  6
CONTINUOUS
 10
391.174606
 20
285.653846
 30
0.0
 11
395.159221
 21
285.653846
 31
0.0
  0
LINE
  5
CD7
  8
WAKU
  6
CONTINUOUS
 10
391.703565
 20
286.515385
 30
0.0
 11
392.780488
 21
286.515385
 31
0.0
  0
LINE
  5
CD8
  8
WAKU
  6
CONTINUOUS
 10
390.39067
 20
283.5
 30
0.0
 11
391.174606
 21
285.653846
 31
0.0
  0
LINE
  5
CD9
  8
WAKU
  6
CONTINUOUS
 10
384.988236
 20
288.776923
 30
0.0
 11
390.372851
 21
288.776923
 31
0.0
  0
LINE
  5
CDA
  8
WAKU
  6
CONTINUOUS
 10
385.615385
 20
290.5
 30
0.0
 11
391.0
 21
290.5
 31
0.0
  0
LINE
  5
CDB
  8
WAKU
  6
CONTINUOUS
 10
384.988236
 20
288.776923
 30
0.0
 11
385.615385
 21
290.5
 31
0.0
  0
LINE
  5
CDC
  8
WAKU
  6
CONTINUOUS
 10
384.323077
 20
290.5
 30
0.0
 11
383.695928
 21
288.776923
 31
0.0
  0
LINE
  5
CDD
  8
WAKU
  6
CONTINUOUS
 10
393.153846
 20
290.5
 30
0.0
 11
394.230769
 21
290.5
 31
0.0
  0
LINE
  5
CDE
  8
WAKU
  6
CONTINUOUS
 10
393.760408
 20
289.207692
 30
0.0
 11
394.230769
 21
290.5
 31
0.0
  0
LINE
  5
CDF
  8
WAKU
  6
CONTINUOUS
 10
391.875792
 20
289.207692
 30
0.0
 11
392.683485
 21
289.207692
 31
0.0
  0
LINE
  5
CE0
  8
WAKU
  6
CONTINUOUS
 10
391.28784
 20
287.592308
 30
0.0
 11
392.095533
 21
287.592308
 31
0.0
  0
LINE
  5
CE1
  8
WAKU
  6
CONTINUOUS
 10
391.28784
 20
287.592308
 30
0.0
 11
391.875792
 21
289.207692
 31
0.0
  0
LINE
  5
CE2
  8
WAKU
  6
CONTINUOUS
 10
392.683485
 20
289.207692
 30
0.0
 11
393.153846
 21
290.5
 31
0.0
  0
LINE
  5
CE3
  8
WAKU
  6
CONTINUOUS
 10
390.372851
 20
288.776923
 30
0.0
 11
391.0
 21
290.5
 31
0.0
  0
LINE
  5
CE4
  8
WAKU
  6
CONTINUOUS
 10
405.753055
 20
288.130769
 30
0.0
 11
408.983824
 21
288.130769
 31
0.0
  0
LINE
  5
CE5
  8
WAKU
  6
CONTINUOUS
 10
405.282694
 20
286.838462
 30
0.0
 11
408.513463
 21
286.838462
 31
0.0
  0
LINE
  5
CE6
  8
WAKU
  6
CONTINUOUS
 10
409.452208
 20
283.5
 30
0.0
 11
404.067593
 21
283.5
 31
0.0
  0
LINE
  5
CE7
  8
WAKU
  6
CONTINUOUS
 10
404.851529
 20
285.653846
 30
0.0
 11
409.159221
 21
285.653846
 31
0.0
  0
LINE
  5
CE8
  8
WAKU
  6
CONTINUOUS
 10
405.988236
 20
288.776923
 30
0.0
 11
409.219005
 21
288.776923
 31
0.0
  0
LINE
  5
CE9
  8
WAKU
  6
CONTINUOUS
 10
406.615385
 20
290.5
 30
0.0
 11
409.846154
 21
290.5
 31
0.0
  0
LINE
  5
CEA
  8
WAKU
  6
CONTINUOUS
 10
398.781958
 20
286.730769
 30
0.0
 11
399.565894
 21
288.884615
 31
0.0
  0
LINE
  5
CEB
  8
WAKU
  6
CONTINUOUS
 10
400.181958
 20
286.730769
 30
0.0
 11
400.965894
 21
288.884615
 31
0.0
  0
LINE
  5
CEC
  8
WAKU
  6
CONTINUOUS
 10
399.858881
 20
286.730769
 30
0.0
 11
400.642817
 21
288.884615
 31
0.0
  0
LINE
  5
CED
  8
WAKU
  6
CONTINUOUS
 10
401.258881
 20
286.730769
 30
0.0
 11
402.042817
 21
288.884615
 31
0.0
  0
LINE
  5
CEE
  8
WAKU
  6
CONTINUOUS
 10
401.913747
 20
283.5
 30
0.0
 11
403.873587
 21
288.884615
 31
0.0
  0
LINE
  5
CEF
  8
WAKU
  6
CONTINUOUS
 10
401.424776
 20
285.115385
 30
0.0
 11
402.796663
 21
288.884615
 31
0.0
  0
LINE
  5
CF0
  8
WAKU
  6
CONTINUOUS
 10
395.452208
 20
283.5
 30
0.0
 11
396.941687
 21
287.592308
 31
0.0
  0
LINE
  5
CF1
  8
WAKU
  6
CONTINUOUS
 10
397.606055
 20
283.5
 30
0.0
 11
401.913747
 21
283.5
 31
0.0
  0
LINE
  5
CF2
  8
WAKU
  6
CONTINUOUS
 10
398.781958
 20
286.730769
 30
0.0
 11
399.858881
 21
286.730769
 31
0.0
  0
LINE
  5
CF3
  8
WAKU
  6
CONTINUOUS
 10
398.194006
 20
285.115385
 30
0.0
 11
401.424776
 21
285.115385
 31
0.0
  0
LINE
  5
CF4
  8
WAKU
  6
CONTINUOUS
 10
397.606055
 20
283.5
 30
0.0
 11
398.194006
 21
285.115385
 31
0.0
  0
LINE
  5
CF5
  8
WAKU
  6
CONTINUOUS
 10
400.181958
 20
286.730769
 30
0.0
 11
401.258881
 21
286.730769
 31
0.0
  0
LINE
  5
CF6
  8
WAKU
  6
CONTINUOUS
 10
404.067593
 20
283.5
 30
0.0
 11
404.851529
 21
285.653846
 31
0.0
  0
LINE
  5
CF7
  8
WAKU
  6
CONTINUOUS
 10
400.965894
 20
288.884615
 30
0.0
 11
402.042817
 21
288.884615
 31
0.0
  0
LINE
  5
CF8
  8
WAKU
  6
CONTINUOUS
 10
396.923077
 20
290.5
 30
0.0
 11
398.0
 21
290.5
 31
0.0
  0
LINE
  5
CF9
  8
WAKU
  6
CONTINUOUS
 10
397.529638
 20
289.207692
 30
0.0
 11
398.0
 21
290.5
 31
0.0
  0
LINE
  5
CFA
  8
WAKU
  6
CONTINUOUS
 10
397.529638
 20
289.207692
 30
0.0
 11
398.337331
 21
289.207692
 31
0.0
  0
LINE
  5
CFB
  8
WAKU
  6
CONTINUOUS
 10
396.941687
 20
287.592308
 30
0.0
 11
397.749379
 21
287.592308
 31
0.0
  0
LINE
  5
CFC
  8
WAKU
  6
CONTINUOUS
 10
397.749379
 20
287.592308
 30
0.0
 11
398.337331
 21
289.207692
 31
0.0
  0
LINE
  5
CFD
  8
WAKU
  6
CONTINUOUS
 10
399.565894
 20
288.884615
 30
0.0
 11
400.642817
 21
288.884615
 31
0.0
  0
LINE
  5
CFE
  8
WAKU
  6
CONTINUOUS
 10
396.452715
 20
289.207692
 30
0.0
 11
396.923077
 21
290.5
 31
0.0
  0
LINE
  5
CFF
  8
WAKU
  6
CONTINUOUS
 10
406.615385
 20
290.5
 30
0.0
 11
405.988236
 21
288.776923
 31
0.0
  0
LINE
  5
D00
  8
WAKU
  6
CONTINUOUS
 10
405.753055
 20
288.130769
 30
0.0
 11
405.282694
 21
286.838462
 31
0.0
  0
LINE
  5
D01
  8
WAKU
  6
CONTINUOUS
 10
402.796663
 20
288.884615
 30
0.0
 11
403.873587
 21
288.884615
 31
0.0
  0
LINE
  5
D02
  8
WAKU
  6
CONTINUOUS
 10
409.159221
 20
285.653846
 30
0.0
 11
410.923077
 21
290.5
 31
0.0
  0
LINE
  5
D03
  8
WAKU
  6
CONTINUOUS
 10
409.452208
 20
283.5
 30
0.0
 11
412.0
 21
290.5
 31
0.0
  0
LINE
  5
D04
  8
WAKU
  6
CONTINUOUS
 10
409.219005
 20
288.776923
 30
0.0
 11
409.846154
 21
290.5
 31
0.0
  0
LINE
  5
D05
  8
WAKU
  6
CONTINUOUS
 10
410.923077
 20
290.5
 30
0.0
 11
412.0
 21
290.5
 31
0.0
  0
LINE
  5
D06
  8
WAKU
  6
CONTINUOUS
 10
408.513463
 20
286.838462
 30
0.0
 11
408.983824
 21
288.130769
 31
0.0
  0
LINE
  5
D07
  8
WAKU
  6
CONTINUOUS
 10
369.828646
 20
284.107791
 30
0.0
 11
369.966824
 21
283.829526
 31
0.0
  0
LINE
  5
D08
  8
WAKU
  6
CONTINUOUS
 10
369.966824
 20
283.829526
 30
0.0
 11
370.193309
 21
283.634664
 31
0.0
  0
LINE
  5
D09
  8
WAKU
  6
CONTINUOUS
 10
370.193309
 20
283.634664
 30
0.0
 11
370.499782
 21
283.530361
 31
0.0
  0
LINE
  5
D0A
  8
WAKU
  6
CONTINUOUS
 10
370.499782
 20
283.530361
 30
0.0
 11
370.874987
 21
283.520449
 31
0.0
  0
LINE
  5
D0B
  8
WAKU
  6
CONTINUOUS
 10
370.874987
 20
283.520449
 30
0.0
 11
371.305142
 21
283.605291
 31
0.0
  0
LINE
  5
D0C
  8
WAKU
  6
CONTINUOUS
 10
371.305142
 20
283.605291
 30
0.0
 11
371.774448
 21
283.781773
 31
0.0
  0
LINE
  5
D0D
  8
WAKU
  6
CONTINUOUS
 10
371.774448
 20
283.781773
 30
0.0
 11
372.265666
 21
284.043411
 31
0.0
  0
LINE
  5
D0E
  8
WAKU
  6
CONTINUOUS
 10
372.265666
 20
284.043411
 30
0.0
 11
372.760756
 21
284.380595
 31
0.0
  0
LINE
  5
D0F
  8
WAKU
  6
CONTINUOUS
 10
372.760756
 20
284.380595
 30
0.0
 11
373.241532
 21
284.780941
 31
0.0
  0
LINE
  5
D10
  8
WAKU
  6
CONTINUOUS
 10
373.241532
 20
284.780941
 30
0.0
 11
373.690335
 21
285.229744
 31
0.0
  0
LINE
  5
D11
  8
WAKU
  6
CONTINUOUS
 10
373.690335
 20
285.229744
 30
0.0
 11
374.090681
 21
285.71052
 31
0.0
  0
LINE
  5
D12
  8
WAKU
  6
CONTINUOUS
 10
374.090681
 20
285.71052
 30
0.0
 11
374.427865
 21
286.205609
 31
0.0
  0
LINE
  5
D13
  8
WAKU
  6
CONTINUOUS
 10
374.427865
 20
286.205609
 30
0.0
 11
374.689503
 21
286.696828
 31
0.0
  0
LINE
  5
D14
  8
WAKU
  6
CONTINUOUS
 10
374.689503
 20
286.696828
 30
0.0
 11
374.865984
 21
287.166134
 31
0.0
  0
LINE
  5
D15
  8
WAKU
  6
CONTINUOUS
 10
374.865984
 20
287.166134
 30
0.0
 11
374.950827
 21
287.596289
 31
0.0
  0
LINE
  5
D16
  8
WAKU
  6
CONTINUOUS
 10
374.950827
 20
287.596289
 30
0.0
 11
374.940915
 21
287.971493
 31
0.0
  0
LINE
  5
D17
  8
WAKU
  6
CONTINUOUS
 10
374.940915
 20
287.971493
 30
0.0
 11
374.836612
 21
288.277967
 31
0.0
  0
LINE
  5
D18
  8
WAKU
  6
CONTINUOUS
 10
374.836612
 20
288.277967
 30
0.0
 11
374.641749
 21
288.504452
 31
0.0
  0
LINE
  5
D19
  8
WAKU
  6
CONTINUOUS
 10
374.641749
 20
288.504452
 30
0.0
 11
374.363484
 21
288.64263
 31
0.0
  0
LINE
  5
D1A
  8
WAKU
  6
CONTINUOUS
 10
373.916941
 20
288.683944
 30
0.0
 11
373.482636
 21
288.608014
 31
0.0
  0
LINE
  5
D1B
  8
WAKU
  6
CONTINUOUS
 10
373.482636
 20
288.608014
 30
0.0
 11
373.005639
 21
288.435768
 31
0.0
  0
LINE
  5
D1C
  8
WAKU
  6
CONTINUOUS
 10
373.005639
 20
288.435768
 30
0.0
 11
372.504269
 21
288.173821
 31
0.0
  0
LINE
  5
D1D
  8
WAKU
  6
CONTINUOUS
 10
372.504269
 20
288.173821
 30
0.0
 11
371.997783
 21
287.832235
 31
0.0
  0
LINE
  5
D1E
  8
WAKU
  6
CONTINUOUS
 10
371.997783
 20
287.832235
 30
0.0
 11
371.505632
 21
287.424128
 31
0.0
  0
LINE
  5
D1F
  8
WAKU
  6
CONTINUOUS
 10
371.505632
 20
287.424128
 30
0.0
 11
371.04672
 21
286.965174
 31
0.0
  0
LINE
  5
D20
  8
WAKU
  6
CONTINUOUS
 10
371.04672
 20
286.965174
 30
0.0
 11
370.638671
 21
286.473
 31
0.0
  0
LINE
  5
D21
  8
WAKU
  6
CONTINUOUS
 10
370.638671
 20
286.473
 30
0.0
 11
370.297156
 21
285.966509
 31
0.0
  0
LINE
  5
D22
  8
WAKU
  6
CONTINUOUS
 10
370.297156
 20
285.966509
 30
0.0
 11
370.035293
 21
285.465154
 31
0.0
  0
LINE
  5
D23
  8
WAKU
  6
CONTINUOUS
 10
370.035293
 20
285.465154
 30
0.0
 11
369.863139
 21
284.988189
 31
0.0
  0
LINE
  5
D24
  8
WAKU
  6
CONTINUOUS
 10
369.863139
 20
284.988189
 30
0.0
 11
369.787305
 21
284.553935
 31
0.0
  0
LINE
  5
D25
  8
WAKU
  6
CONTINUOUS
 10
370.172911
 20
284.451856
 30
0.0
 11
370.681395
 21
284.539195
 31
0.0
  0
LINE
  5
D26
  8
WAKU
  6
CONTINUOUS
 10
370.681395
 20
284.539195
 30
0.0
 11
371.312263
 21
284.810332
 31
0.0
  0
LINE
  5
D27
  8
WAKU
  6
CONTINUOUS
 10
371.312263
 20
284.810332
 30
0.0
 11
371.98994
 21
285.251431
 31
0.0
  0
LINE
  5
D28
  8
WAKU
  6
CONTINUOUS
 10
371.98994
 20
285.251431
 30
0.0
 11
372.646296
 21
285.825506
 31
0.0
  0
LINE
  5
D29
  8
WAKU
  6
CONTINUOUS
 10
372.646296
 20
285.825506
 30
0.0
 11
373.220238
 21
286.48192
 31
0.0
  0
LINE
  5
D2A
  8
WAKU
  6
CONTINUOUS
 10
373.220238
 20
286.48192
 30
0.0
 11
373.661353
 21
287.159534
 31
0.0
  0
LINE
  5
D2B
  8
WAKU
  6
CONTINUOUS
 10
373.661353
 20
287.159534
 30
0.0
 11
373.932071
 21
287.790402
 31
0.0
  0
LINE
  5
D2C
  8
WAKU
  6
CONTINUOUS
 10
373.932071
 20
287.790402
 30
0.0
 11
374.019229
 21
288.298569
 31
0.0
  0
LINE
  5
D2D
  8
WAKU
  6
CONTINUOUS
 10
373.916941
 20
288.683944
 30
0.0
 11
373.799148
 21
288.781929
 31
0.0
  0
LINE
  5
D2E
  8
WAKU
  6
CONTINUOUS
 10
373.799148
 20
288.781929
 30
0.0
 11
373.597996
 21
288.840902
 31
0.0
  0
LINE
  5
D2F
  8
WAKU
  6
CONTINUOUS
 10
373.597996
 20
288.840902
 30
0.0
 11
373.290857
 21
288.835581
 31
0.0
  0
LINE
  5
D30
  8
WAKU
  6
CONTINUOUS
 10
373.290857
 20
288.835581
 30
0.0
 11
372.89514
 21
288.740065
 31
0.0
  0
LINE
  5
D31
  8
WAKU
  6
CONTINUOUS
 10
372.89514
 20
288.740065
 30
0.0
 11
372.440235
 21
288.547585
 31
0.0
  0
LINE
  5
D32
  8
WAKU
  6
CONTINUOUS
 10
372.440235
 20
288.547585
 30
0.0
 11
371.954587
 21
288.264284
 31
0.0
  0
LINE
  5
D33
  8
WAKU
  6
CONTINUOUS
 10
371.954587
 20
288.264284
 30
0.0
 11
370.996098
 21
287.475108
 31
0.0
  0
LINE
  5
D34
  8
WAKU
  6
CONTINUOUS
 10
370.996098
 20
287.475108
 30
0.0
 11
370.207035
 21
286.51657
 31
0.0
  0
LINE
  5
D35
  8
WAKU
  6
CONTINUOUS
 10
370.207035
 20
286.51657
 30
0.0
 11
369.923519
 21
286.031028
 31
0.0
  0
LINE
  5
D36
  8
WAKU
  6
CONTINUOUS
 10
369.923519
 20
286.031028
 30
0.0
 11
369.73149
 21
285.576021
 31
0.0
  0
LINE
  5
D37
  8
WAKU
  6
CONTINUOUS
 10
369.73149
 20
285.576021
 30
0.0
 11
369.635696
 21
285.180404
 31
0.0
  0
LINE
  5
D38
  8
WAKU
  6
CONTINUOUS
 10
369.635696
 20
285.180404
 30
0.0
 11
369.630358
 21
284.873087
 31
0.0
  0
LINE
  5
D39
  8
WAKU
  6
CONTINUOUS
 10
369.630358
 20
284.873087
 30
0.0
 11
369.689155
 21
284.672435
 31
0.0
  0
LINE
  5
D3A
  8
WAKU
  6
CONTINUOUS
 10
369.689155
 20
284.672435
 30
0.0
 11
369.787305
 21
284.553935
 31
0.0
  0
LINE
  5
D3B
  8
WAKU
  6
CONTINUOUS
 10
370.275177
 20
284.066476
 30
0.0
 11
370.392927
 21
283.968568
 31
0.0
  0
LINE
  5
D3C
  8
WAKU
  6
CONTINUOUS
 10
370.392927
 20
283.968568
 30
0.0
 11
370.594177
 21
283.909498
 31
0.0
  0
LINE
  5
D3D
  8
WAKU
  6
CONTINUOUS
 10
370.594177
 20
283.909498
 30
0.0
 11
370.901294
 21
283.914863
 31
0.0
  0
LINE
  5
D3E
  8
WAKU
  6
CONTINUOUS
 10
370.901294
 20
283.914863
 30
0.0
 11
371.296984
 21
284.010368
 31
0.0
  0
LINE
  5
D3F
  8
WAKU
  6
CONTINUOUS
 10
371.296984
 20
284.010368
 30
0.0
 11
371.751882
 21
284.202798
 31
0.0
  0
LINE
  5
D40
  8
WAKU
  6
CONTINUOUS
 10
371.751882
 20
284.202798
 30
0.0
 11
372.237497
 21
284.486117
 31
0.0
  0
LINE
  5
D41
  8
WAKU
  6
CONTINUOUS
 10
372.237497
 20
284.486117
 30
0.0
 11
373.195965
 21
285.275232
 31
0.0
  0
LINE
  5
D42
  8
WAKU
  6
CONTINUOUS
 10
373.195965
 20
285.275232
 30
0.0
 11
373.98505
 21
286.233718
 31
0.0
  0
LINE
  5
D43
  8
WAKU
  6
CONTINUOUS
 10
373.98505
 20
286.233718
 30
0.0
 11
374.268507
 21
286.719278
 31
0.0
  0
LINE
  5
D44
  8
WAKU
  6
CONTINUOUS
 10
374.268507
 20
286.719278
 30
0.0
 11
374.46071
 21
287.174248
 31
0.0
  0
LINE
  5
D45
  8
WAKU
  6
CONTINUOUS
 10
374.46071
 20
287.174248
 30
0.0
 11
374.556361
 21
287.569864
 31
0.0
  0
LINE
  5
D46
  8
WAKU
  6
CONTINUOUS
 10
374.556361
 20
287.569864
 30
0.0
 11
374.561802
 21
287.877253
 31
0.0
  0
LINE
  5
D47
  8
WAKU
  6
CONTINUOUS
 10
374.561802
 20
287.877253
 30
0.0
 11
374.502951
 21
288.077918
 31
0.0
  0
LINE
  5
D48
  8
WAKU
  6
CONTINUOUS
 10
374.502951
 20
288.077918
 30
0.0
 11
374.40481
 21
288.196249
 31
0.0
  0
LINE
  5
D49
  8
WAKU
  6
CONTINUOUS
 10
374.019229
 20
288.298569
 30
0.0
 11
373.510738
 21
288.21124
 31
0.0
  0
LINE
  5
D4A
  8
WAKU
  6
CONTINUOUS
 10
373.510738
 20
288.21124
 30
0.0
 11
372.879878
 21
287.940057
 31
0.0
  0
LINE
  5
D4B
  8
WAKU
  6
CONTINUOUS
 10
372.879878
 20
287.940057
 30
0.0
 11
372.202181
 21
287.498991
 31
0.0
  0
LINE
  5
D4C
  8
WAKU
  6
CONTINUOUS
 10
372.202181
 20
287.498991
 30
0.0
 11
371.545827
 21
286.924893
 31
0.0
  0
LINE
  5
D4D
  8
WAKU
  6
CONTINUOUS
 10
371.545827
 20
286.924893
 30
0.0
 11
370.971896
 21
286.268471
 31
0.0
  0
LINE
  5
D4E
  8
WAKU
  6
CONTINUOUS
 10
370.971896
 20
286.268471
 30
0.0
 11
370.530712
 21
285.590875
 31
0.0
  0
LINE
  5
D4F
  8
WAKU
  6
CONTINUOUS
 10
370.530712
 20
285.590875
 30
0.0
 11
370.260168
 21
284.959969
 31
0.0
  0
LINE
  5
D50
  8
WAKU
  6
CONTINUOUS
 10
370.260168
 20
284.959969
 30
0.0
 11
370.172911
 21
284.451856
 31
0.0
  0
LINE
  5
D51
  8
WAKU
  6
CONTINUOUS
 10
370.275177
 20
284.066476
 30
0.0
 11
370.709458
 21
284.142397
 31
0.0
  0
LINE
  5
D52
  8
WAKU
  6
CONTINUOUS
 10
370.709458
 20
284.142397
 30
0.0
 11
371.186428
 21
284.314625
 31
0.0
  0
LINE
  5
D53
  8
WAKU
  6
CONTINUOUS
 10
371.186428
 20
284.314625
 30
0.0
 11
371.68777
 21
284.576545
 31
0.0
  0
LINE
  5
D54
  8
WAKU
  6
CONTINUOUS
 10
371.68777
 20
284.576545
 30
0.0
 11
372.194232
 21
284.918099
 31
0.0
  0
LINE
  5
D55
  8
WAKU
  6
CONTINUOUS
 10
372.194232
 20
284.918099
 30
0.0
 11
372.686363
 21
285.326171
 31
0.0
  0
LINE
  5
D56
  8
WAKU
  6
CONTINUOUS
 10
372.686363
 20
285.326171
 30
0.0
 11
373.145266
 21
285.785089
 31
0.0
  0
LINE
  5
D57
  8
WAKU
  6
CONTINUOUS
 10
373.145266
 20
285.785089
 30
0.0
 11
373.553316
 21
286.277229
 31
0.0
  0
LINE
  5
D58
  8
WAKU
  6
CONTINUOUS
 10
373.553316
 20
286.277229
 30
0.0
 11
373.894843
 21
286.783693
 31
0.0
  0
LINE
  5
D59
  8
WAKU
  6
CONTINUOUS
 10
373.894843
 20
286.783693
 30
0.0
 11
374.156732
 21
287.28503
 31
0.0
  0
LINE
  5
D5A
  8
WAKU
  6
CONTINUOUS
 10
374.156732
 20
287.28503
 30
0.0
 11
374.328925
 21
287.761987
 31
0.0
  0
LINE
  5
D5B
  8
WAKU
  6
CONTINUOUS
 10
374.328925
 20
287.761987
 30
0.0
 11
374.40481
 21
288.196249
 31
0.0
  0
LINE
  5
D5C
  8
WAKU
  6
CONTINUOUS
 10
374.363484
 20
288.64263
 30
0.0
 11
374.225306
 21
288.920895
 31
0.0
  0
LINE
  5
D5D
  8
WAKU
  6
CONTINUOUS
 10
374.225306
 20
288.920895
 30
0.0
 11
373.998821
 21
289.115757
 31
0.0
  0
LINE
  5
D5E
  8
WAKU
  6
CONTINUOUS
 10
373.998821
 20
289.115757
 30
0.0
 11
373.692348
 21
289.22006
 31
0.0
  0
LINE
  5
D5F
  8
WAKU
  6
CONTINUOUS
 10
373.692348
 20
289.22006
 30
0.0
 11
373.317143
 21
289.229972
 31
0.0
  0
LINE
  5
D60
  8
WAKU
  6
CONTINUOUS
 10
373.317143
 20
289.229972
 30
0.0
 11
372.886988
 21
289.145129
 31
0.0
  0
LINE
  5
D61
  8
WAKU
  6
CONTINUOUS
 10
372.886988
 20
289.145129
 30
0.0
 11
372.417683
 21
288.968648
 31
0.0
  0
LINE
  5
D62
  8
WAKU
  6
CONTINUOUS
 10
372.417683
 20
288.968648
 30
0.0
 11
371.926464
 21
288.70701
 31
0.0
  0
LINE
  5
D63
  8
WAKU
  6
CONTINUOUS
 10
371.926464
 20
288.70701
 30
0.0
 11
371.431374
 21
288.369826
 31
0.0
  0
LINE
  5
D64
  8
WAKU
  6
CONTINUOUS
 10
371.431374
 20
288.369826
 30
0.0
 11
370.950599
 21
287.96948
 31
0.0
  0
LINE
  5
D65
  8
WAKU
  6
CONTINUOUS
 10
370.950599
 20
287.96948
 30
0.0
 11
370.501795
 21
287.520677
 31
0.0
  0
LINE
  5
D66
  8
WAKU
  6
CONTINUOUS
 10
370.501795
 20
287.520677
 30
0.0
 11
370.101449
 21
287.039901
 31
0.0
  0
LINE
  5
D67
  8
WAKU
  6
CONTINUOUS
 10
370.101449
 20
287.039901
 30
0.0
 11
369.764265
 21
286.544812
 31
0.0
  0
LINE
  5
D68
  8
WAKU
  6
CONTINUOUS
 10
369.764265
 20
286.544812
 30
0.0
 11
369.502627
 21
286.053593
 31
0.0
  0
LINE
  5
D69
  8
WAKU
  6
CONTINUOUS
 10
369.502627
 20
286.053593
 30
0.0
 11
369.326146
 21
285.584287
 31
0.0
  0
LINE
  5
D6A
  8
WAKU
  6
CONTINUOUS
 10
369.326146
 20
285.584287
 30
0.0
 11
369.241303
 21
285.154132
 31
0.0
  0
LINE
  5
D6B
  8
WAKU
  6
CONTINUOUS
 10
369.241303
 20
285.154132
 30
0.0
 11
369.251215
 21
284.778928
 31
0.0
  0
LINE
  5
D6C
  8
WAKU
  6
CONTINUOUS
 10
369.251215
 20
284.778928
 30
0.0
 11
369.355518
 21
284.472454
 31
0.0
  0
LINE
  5
D6D
  8
WAKU
  6
CONTINUOUS
 10
369.355518
 20
284.472454
 30
0.0
 11
369.550381
 21
284.245969
 31
0.0
  0
LINE
  5
D6E
  8
WAKU
  6
CONTINUOUS
 10
369.550381
 20
284.245969
 30
0.0
 11
369.828646
 21
284.107791
 31
0.0
  0
INSERT
  5
D6F
  8
WAKU
  6
CONTINUOUS
  2
*U5
 10
0.0
 20
0.0
 30
0.0
1001
ACAD
1002
{
1000
R14_HATCH_DATA
1000
D6F
1011
1.0
1021
0.0
1031
0.0
1021
0.0
1031
0.0
1011
0.0
1021
0.0
1031
0.0
1021
1.0
1031
0.0
1011
0.0
1021
0.0
1031
0.0
1021
0.0
1031
1.0
1040
0.0
1010
0.0
1020
0.0
1030
1.0
1000
SOLID
1070
     1
1070
     1
1071
       15
1071
        7
1070
     0
1070
     1
1071
        3
1040
372.249053
1040
290.5
1040
367.971276
1040
290.5
1040
367.971276
1040
286.222222
1071
        3
1005
CC0
1005
CC2
1005
CC1
1071
        7
1070
     0
1070
     1
1071
       38
1040
373.998821
1040
289.115757
1040
373.692348
1040
289.22006
1040
373.317143
1040
289.229972
1040
372.886988
1040
289.145129
1040
372.417683
1040
288.968648
1040
371.926464
1040
288.70701
1040
371.431374
1040
288.369826
1040
370.950599
1040
287.96948
1040
370.501795
1040
287.520677
1040
370.101449
1040
287.039901
1040
369.764265
1040
286.544812
1040
369.502627
1040
286.053593
1040
369.326146
1040
285.584287
1040
369.241303
1040
285.154132
1040
369.251215
1040
284.778928
1040
369.355518
1040
284.472454
1040
369.550381
1040
284.245969
1040
369.828646
1040
284.107791
1040
369.966824
1040
283.829526
1040
370.193309
1040
283.634664
1040
370.499782
1040
283.530361
1040
370.874987
1040
283.520449
1040
371.305142
1040
283.605291
1040
371.774448
1040
283.781773
1040
372.265666
1040
284.043411
1040
372.760756
1040
284.380595
1040
373.241532
1040
284.780941
1040
373.690335
1040
285.229744
1040
374.090681
1040
285.71052
1040
374.427865
1040
286.205609
1040
374.689503
1040
286.696828
1040
374.865984
1040
287.166134
1040
374.950827
1040
287.596289
1040
374.940915
1040
287.971493
1040
374.836612
1040
288.277967
1040
374.641749
1040
288.504452
1040
374.363484
1040
288.64263
1040
374.225306
1040
288.920895
1071
       38
1005
D5D
1005
D5E
1005
D5F
1005
D60
1005
D61
1005
D62
1005
D63
1005
D64
1005
D65
1005
D66
1005
D67
1005
D68
1005
D69
1005
D6A
1005
D6B
1005
D6C
1005
D6D
1005
D6E
1005
D07
1005
D08
1005
D09
1005
D0A
1005
D0B
1005
D0C
1005
D0D
1005
D0E
1005
D0F
1005
D10
1005
D11
1005
D12
1005
D13
1005
D14
1005
D15
1005
D16
1005
D17
1005
D18
1005
D19
1005
D5C
1071
       22
1070
     0
1070
     1
1071
       25
1040
373.799148
1040
288.781929
1040
373.916941
1040
288.683944
1040
373.482636
1040
288.608014
1040
373.005639
1040
288.435768
1040
372.504269
1040
288.173821
1040
371.997783
1040
287.832235
1040
371.505632
1040
287.424128
1040
371.04672
1040
286.965174
1040
370.638671
1040
286.473
1040
370.297156
1040
285.966509
1040
370.035293
1040
285.465154
1040
369.863139
1040
284.988189
1040
369.787305
1040
284.553935
1040
369.689155
1040
284.672435
1040
369.630358
1040
284.873087
1040
369.635696
1040
285.180404
1040
369.73149
1040
285.576021
1040
369.923519
1040
286.031028
1040
370.207035
1040
286.51657
1040
370.996098
1040
287.475108
1040
371.954587
1040
288.264284
1040
372.440235
1040
288.547585
1040
372.89514
1040
288.740065
1040
373.290857
1040
288.835581
1040
373.597996
1040
288.840902
1071
       25
1005
D2D
1005
D1A
1005
D1B
1005
D1C
1005
D1D
1005
D1E
1005
D1F
1005
D20
1005
D21
1005
D22
1005
D23
1005
D24
1005
D3A
1005
D39
1005
D38
1005
D37
1005
D36
1005
D35
1005
D34
1005
D33
1005
D32
1005
D31
1005
D30
1005
D2F
1005
D2E
1071
       22
1070
     0
1070
     1
1071
       16
1040
374.019229
1040
288.298569
1040
373.932071
1040
287.790402
1040
373.661353
1040
287.159534
1040
373.220238
1040
286.48192
1040
372.646296
1040
285.825506
1040
371.98994
1040
285.251431
1040
371.312263
1040
284.810332
1040
370.681395
1040
284.539195
1040
370.172911
1040
284.451856
1040
370.260168
1040
284.959969
1040
370.530712
1040
285.590875
1040
370.971896
1040
286.268471
1040
371.545827
1040
286.924893
1040
372.202181
1040
287.498991
1040
372.879878
1040
287.940057
1040
373.510738
1040
288.21124
1071
       16
1005
D2C
1005
D2B
1005
D2A
1005
D29
1005
D28
1005
D27
1005
D26
1005
D25
1005
D50
1005
D4F
1005
D4E
1005
D4D
1005
D4C
1005
D4B
1005
D4A
1005
D49
1071
       22
1070
     0
1070
     1
1071
       25
1040
374.40481
1040
288.196249
1040
374.502951
1040
288.077918
1040
374.561802
1040
287.877253
1040
374.556361
1040
287.569864
1040
374.46071
1040
287.174248
1040
374.268507
1040
286.719278
1040
373.98505
1040
286.233718
1040
373.195965
1040
285.275232
1040
372.237497
1040
284.486117
1040
371.751882
1040
284.202798
1040
371.296984
1040
284.010368
1040
370.901294
1040
283.914863
1040
370.594177
1040
283.909498
1040
370.392927
1040
283.968568
1040
370.275177
1040
284.066476
1040
370.709458
1040
284.142397
1040
371.186428
1040
284.314625
1040
371.68777
1040
284.576545
1040
372.194232
1040
284.918099
1040
372.686363
1040
285.326171
1040
373.145266
1040
285.785089
1040
373.553316
1040
286.277229
1040
373.894843
1040
286.783693
1040
374.156732
1040
287.28503
1040
374.328925
1040
287.761987
1071
       25
1005
D48
1005
D47
1005
D46
1005
D45
1005
D44
1005
D43
1005
D42
1005
D41
1005
D40
1005
D3F
1005
D3E
1005
D3D
1005
D3C
1005
D3B
1005
D51
1005
D52
1005
D53
1005
D54
1005
D55
1005
D56
1005
D57
1005
D58
1005
D59
1005
D5A
1005
D5B
1071
        7
1070
     0
1070
     1
1071
       14
1040
378.723077
1040
290.5
1040
378.095928
1040
288.776923
1040
380.311313
1040
288.776923
1040
377.155205
1040
286.192308
1040
376.175285
1040
283.5
1040
379.397145
1040
286.138462
1040
378.436824
1040
283.5
1040
379.513747
1040
283.5
1040
380.493667
1040
286.192308
1040
381.775285
1040
283.5
1040
382.755205
1040
286.192308
1040
381.524851
1040
288.776923
1040
383.695928
1040
288.776923
1040
384.323077
1040
290.5
1071
       14
1005
CC4
1005
CCF
1005
CCE
1005
CC5
1005
CC7
1005
CC8
1005
CCD
1005
CCC
1005
CCB
1005
CCA
1005
CC9
1005
CC6
1005
CC3
1005
CDC
1071
        7
1070
     0
1070
     1
1071
        4
1040
385.615385
1040
290.5
1040
384.988236
1040
288.776923
1040
390.372851
1040
288.776923
1040
391.0
1040
290.5
1071
        4
1005
CDA
1005
CDB
1005
CD9
1005
CE3
1071
        7
1070
     0
1070
     1
1071
        4
1040
388.452208
1040
283.5
1040
389.236144
1040
285.653846
1040
383.851529
1040
285.653846
1040
383.067593
1040
283.5
1071
        4
1005
CD3
1005
CD4
1005
CD5
1005
CD2
1071
        7
1070
     0
1070
     1
1071
       22
1040
395.452208
1040
283.5
1040
396.941687
1040
287.592308
1040
397.749379
1040
287.592308
1040
398.337331
1040
289.207692
1040
397.529638
1040
289.207692
1040
398.0
1040
290.5
1040
396.923077
1040
290.5
1040
396.452715
1040
289.207692
1040
393.760408
1040
289.207692
1040
394.230769
1040
290.5
1040
393.153846
1040
290.5
1040
392.683485
1040
289.207692
1040
391.875792
1040
289.207692
1040
391.28784
1040
287.592308
1040
392.095533
1040
287.592308
1040
391.703565
1040
286.515385
1040
392.780488
1040
286.515385
1040
393.172456
1040
287.592308
1040
395.864763
1040
287.592308
1040
395.159221
1040
285.653846
1040
391.174606
1040
285.653846
1040
390.39067
1040
283.5
1071
       22
1005
CFB
1005
CFC
1005
CFA
1005
CF9
1005
CF8
1005
CFE
1005
CBC
1005
CDE
1005
CDD
1005
CE2
1005
CDF
1005
CE1
1005
CE0
1005
CD1
1005
CD7
1005
CD0
1005
CBD
1005
CBF
1005
CD6
1005
CD8
1005
CBE
1005
CF0
1071
        7
1070
     0
1070
     1
1071
        6
1040
398.194006
1040
285.115385
1040
397.606055
1040
283.5
1040
401.913747
1040
283.5
1040
403.873587
1040
288.884615
1040
402.796663
1040
288.884615
1040
401.424776
1040
285.115385
1071
        6
1005
D01
1005
CEF
1005
CF3
1005
CF4
1005
CF1
1005
CEE
1071
       23
1070
     0
1070
     1
1071
        4
1040
402.042817
1040
288.884615
1040
400.965894
1040
288.884615
1040
400.181958
1040
286.730769
1040
401.258881
1040
286.730769
1071
        4
1005
CF7
1005
CEB
1005
CF5
1005
CED
1071
       23
1070
     0
1070
     1
1071
        4
1040
400.642817
1040
288.884615
1040
399.565894
1040
288.884615
1040
398.781958
1040
286.730769
1040
399.858881
1040
286.730769
1071
        4
1005
CFD
1005
CEA
1005
CF2
1005
CEC
1071
       23
1070
     0
1070
     1
1071
        4
1040
406.615385
1040
290.5
1040
405.988236
1040
288.776923
1040
409.219005
1040
288.776923
1040
409.846154
1040
290.5
1071
        4
1005
CE9
1005
CFF
1005
CE8
1005
D04
1071
       23
1070
     0
1070
     1
1071
        4
1040
405.753055
1040
288.130769
1040
405.282694
1040
286.838462
1040
408.513463
1040
286.838462
1040
408.983824
1040
288.130769
1071
        4
1005
CE4
1005
D00
1005
CE5
1005
D06
1071
        7
1070
     0
1070
     1
1071
        6
1040
409.452208
1040
283.5
1040
412.0
1040
290.5
1040
410.923077
1040
290.5
1040
409.159221
1040
285.653846
1040
404.851529
1040
285.653846
1040
404.067593
1040
283.5
1071
        6
1005
D05
1005
D02
1005
CE7
1005
CF6
1005
CE6
1005
D03
1070
     0
1070
     1
1040
0.054099
1071
       15
1040
371.248373
1040
289.881409
1040
0.0
1040
373.901118
1040
288.907633
1040
0.0
1040
373.901118
1040
288.907633
1040
0.0
1040
373.901118
1040
288.907633
1040
0.0
1040
373.901118
1040
288.907633
1040
0.0
1040
380.3435
1040
289.82731
1040
0.0
1040
388.247597
1040
289.665014
1040
0.0
1040
386.515192
1040
284.146949
1040
0.0
1040
392.578609
1040
284.255146
1040
0.0
1040
400.536845
1040
284.309245
1040
0.0
1040
401.024083
1040
287.555166
1040
0.0
1040
399.72478
1040
287.609264
1040
0.0
1040
407.358189
1040
289.989606
1040
0.0
1040
407.141639
1040
287.501067
1040
0.0
1040
407.195776
1040
284.471541
1040
0.0
1002
}
  0
TEXT
  5
448D
  8
WAKU
  6
CONTINUOUS
 10
10.0
 20
285.5
 30
0.0
 40
3.0
  1
FNS-70
 41
0.868
  7
STANDARD
 11
10.0
 21
287.0
 31
0.0
 73
     2
  0
TEXT
  5
D570
  8
WAKU
  6
CONTINUOUS
 10
35.0
 20
284.5
 30
0.0
 40
5.0
  1
外動片引き断面詳細図　ＷＥタイプ（Fix部硝子溝20mm）
 41
0.913
  7
STANDARD
 11
35.0
 21
287.0
 31
0.0
 73
     2
  0
LINE
  5
10F71
  8
SUNPO
  6
CONTINUOUS
 10
55.5
 20
30.0
 30
0.0
 11
25.0
 21
30.0
 31
0.0
  0
LINE
  5
146F7
  8
DANMEN
  6
CONTINUOUS
 10
193.0
 20
162.350003
 30
0.0
 11
205.5
 21
162.350003
 31
0.0
  0
LINE
  5
146F8
  8
DANMEN
  6
CONTINUOUS
 10
193.0
 20
95.649991
 30
0.0
 11
205.5
 21
95.649991
 31
0.0
  0
LINE
  5
146F9
  8
DANMEN
  6
CONTINUOUS
 10
181.5
 20
163.999997
 30
0.0
 11
205.5
 21
163.999997
 31
0.0
  0
LINE
  5
146FA
  8
DANMEN
  6
CONTINUOUS
 10
181.5
 20
93.999997
 30
0.0
 11
205.5
 21
93.999997
 31
0.0
  0
LINE
  5
146FB
  8
DANMEN
  6
CONTINUOUS
 10
204.037291
 20
132.999997
 30
0.0
 11
208.46109
 21
132.999997
 31
0.0
  0
LINE
  5
146FC
  8
DANMEN
  6
CONTINUOUS
 10
203.134269
 20
134.949994
 30
0.0
 11
207.599997
 21
134.949994
 31
0.0
  0
LINE
  5
146FD
  8
DANMEN
  6
CONTINUOUS
 10
204.037291
 20
156.999997
 30
0.0
 11
208.46109
 21
156.999997
 31
0.0
  0
LINE
  5
146FE
  8
DANMEN
  6
CONTINUOUS
 10
203.134249
 20
155.049997
 30
0.0
 11
207.599997
 21
155.049997
 31
0.0
  0
LINE
  5
146FF
  8
DANMEN
  6
CONTINUOUS
 10
191.0
 20
156.999997
 30
0.0
 11
263.0
 21
156.999997
 31
0.0
  0
LINE
  5
14700
  8
DANMEN
  6
CONTINUOUS
 10
203.5
 20
129.999997
 30
0.0
 11
263.0
 21
129.999997
 31
0.0
  0
LINE
  5
14701
  8
DANMEN
  6
CONTINUOUS
 10
191.0
 20
137.499997
 30
0.0
 11
207.0
 21
137.499997
 31
0.0
  0
LINE
  5
14702
  8
DANMEN
  6
CONTINUOUS
 10
191.0
 20
146.499997
 30
0.0
 11
207.0
 21
146.499997
 31
0.0
  0
LINE
  5
14703
  8
DANMEN
  6
CONTINUOUS
 10
191.0
 20
151.499997
 30
0.0
 11
207.0
 21
151.499997
 31
0.0
  0
LINE
  5
14704
  8
DANMEN
  6
CONTINUOUS
 10
191.0
 20
104.999997
 30
0.0
 11
263.0
 21
104.999997
 31
0.0
  0
LINE
  5
14705
  8
DANMEN
  6
CONTINUOUS
 10
107.250009
 20
136.000005
 30
0.0
 11
107.250009
 21
119.000005
 31
0.0
  0
LINE
  5
14706
  8
DANMEN
  6
CONTINUOUS
 10
108.900009
 20
140.500005
 30
0.0
 11
108.900009
 21
117.350005
 31
0.0
  0
LINE
  5
14707
  8
DANMEN
  6
CONTINUOUS
 10
84.000009
 20
140.500005
 30
0.0
 11
84.000009
 21
99.500001
 31
0.0
  0
LINE
  5
14708
  8
DANMEN
  6
CONTINUOUS
 10
85.650009
 20
136.000005
 30
0.0
 11
85.650009
 21
119.000005
 31
0.0
  0
LINE
  5
1470D
  8
DANMEN
  6
CONTINUOUS
 10
191.0
 20
126.499997
 30
0.0
 11
191.0
 21
95.099997
 31
0.0
  0
LINE
  5
1470E
  8
DANMEN
  6
CONTINUOUS
 10
189.350006
 20
162.350003
 30
0.0
 11
189.350006
 21
95.649991
 31
0.0
  0
LINE
  5
1470F
  8
DANMEN
  6
CONTINUOUS
 10
45.0
 20
169.0
 30
0.0
 11
45.0
 21
42.765549
 31
0.0
  0
LINE
  5
14710
  8
DANMEN
  6
CONTINUOUS
 10
76.0
 20
169.0
 30
0.0
 11
76.0
 21
87.5
 31
0.0
  0
LINE
  5
14711
  8
DANMEN
  6
CONTINUOUS
 10
52.0
 20
169.0
 30
0.0
 11
52.0
 21
59.0
 31
0.0
  0
LINE
  5
14712
  8
DANMEN
  6
CONTINUOUS
 10
46.649994
 20
169.0
 30
0.0
 11
46.649994
 21
41.0
 31
0.0
  0
LINE
  5
14713
  8
DANMEN
  6
CONTINUOUS
 10
78.5
 20
169.0
 30
0.0
 11
78.5
 21
99.0
 31
0.0
  0
LINE
  5
14714
  8
DANMEN
  6
DASHED
 10
81.5
 20
169.0
 30
0.0
 11
81.5
 21
99.0
 31
0.0
  0
LINE
  5
14715
  8
DANMEN
  6
CONTINUOUS
 10
111.0
 20
169.0
 30
0.0
 11
111.0
 21
94.0
 31
0.0
  0
LINE
  5
14716
  8
DANMEN
  6
CONTINUOUS
 10
143.0
 20
169.0
 30
0.0
 11
143.0
 21
119.497915
 31
0.0
  0
LINE
  5
14717
  8
DANMEN
  6
CONTINUOUS
 10
101.569997
 20
119.000003
 30
0.0
 11
101.569997
 21
128.999999
 31
0.0
  0
LINE
  5
14718
  8
DANMEN
  6
CONTINUOUS
 10
91.569997
 20
119.000003
 30
0.0
 11
91.569997
 21
128.999999
 31
0.0
  0
LINE
  5
14719
  8
DANMEN
  6
CONTINUOUS
 10
101.569997
 20
128.999999
 30
0.0
 11
91.569997
 21
119.000003
 31
0.0
  0
LINE
  5
1471A
  8
DANMEN
  6
CONTINUOUS
 10
97.55285
 20
63.664289
 30
0.0
 11
71.943326
 21
52.392373
 31
0.0
  0
LINE
  5
1471B
  8
DANMEN
  6
CONTINUOUS
 10
96.5
 20
65.003636
 30
0.0
 11
71.5
 21
54.0
 31
0.0
  0
LINE
  5
1471F
  8
DANMEN
  6
CONTINUOUS
 10
58.5
 20
39.0
 30
0.0
 11
115.0
 21
39.0
 31
0.0
  0
LINE
  5
14720
  8
DANMEN
  6
CONTINUOUS
 10
68.0
 20
59.0
 30
0.0
 11
76.0
 21
59.0
 31
0.0
  0
LINE
  5
14721
  8
DANMEN
  6
CONTINUOUS
 10
57.0
 20
39.0
 30
0.0
 11
57.0
 21
30.5
 31
0.0
  0
LINE
  5
14722
  8
DANMEN
  6
CONTINUOUS
 10
58.5
 20
39.649994
 30
0.0
 11
58.5
 21
30.5
 31
0.0
  0
ARC
  5
14723
  8
DANMEN
  6
CONTINUOUS
 10
57.5
 20
30.5
 30
0.0
 40
0.5
 50
180.000019
 51
270.000001
  0
LINE
  5
14727
  8
DANMEN
  6
CONTINUOUS
 10
57.5
 20
30.0
 30
0.0
 11
58.0
 21
30.0
 31
0.0
  0
ARC
  5
14729
  8
DANMEN
  6
CONTINUOUS
 10
58.0
 20
30.5
 30
0.0
 40
0.5
 50
270.000018
 51
0.0
  0
LINE
  5
1472A
  8
DANMEN
  6
CONTINUOUS
 10
62.0
 20
109.0
 30
0.0
 11
62.0
 21
64.0
 31
0.0
  0
LINE
  5
1472B
  8
DANMEN
  6
CONTINUOUS
 10
66.0
 20
109.0
 30
0.0
 11
66.0
 21
64.0
 31
0.0
  0
LINE
  5
1472C
  8
DANMEN
  6
CONTINUOUS
 10
67.5
 20
109.0
 30
0.0
 11
67.5
 21
64.0
 31
0.0
  0
LINE
  5
1472D
  8
DANMEN
  6
CONTINUOUS
 10
60.5
 20
109.0
 30
0.0
 11
60.5
 21
64.0
 31
0.0
  0
LINE
  5
1472E
  8
DANMEN
  6
CONTINUOUS
 10
68.0
 20
104.5
 30
0.0
 11
68.0
 21
68.499985
 31
0.0
  0
LINE
  5
1472F
  8
DANMEN
  6
CONTINUOUS
 10
60.0
 20
104.499985
 30
0.0
 11
60.0
 21
68.499985
 31
0.0
  0
ARC
  5
14731
  8
DANMEN
  6
CONTINUOUS
 10
58.00999
 20
52.0
 30
0.0
 40
2.0
 50
90.0
 51
118.610582
  0
LINE
  5
14732
  8
DANMEN
  6
CONTINUOUS
 10
53.649994
 20
40.649994
 30
0.0
 11
57.5
 21
40.649994
 31
0.0
  0
LINE
  5
14733
  8
DANMEN
  6
CONTINUOUS
 10
57.920742
 20
52.35
 30
0.0
 11
53.649994
 21
50.020489
 31
0.0
  0
LINE
  5
14734
  8
DANMEN
  6
CONTINUOUS
 10
52.0
 20
50.406353
 30
0.0
 11
52.0
 21
41.0
 31
0.0
  0
LINE
  5
14735
  8
DANMEN
  6
CONTINUOUS
 10
53.649994
 20
50.020489
 30
0.0
 11
53.649994
 21
40.649994
 31
0.0
  0
LINE
  5
14736
  8
DANMEN
  6
CONTINUOUS
 10
42.276393
 20
42.661806
 30
0.0
 11
45.0
 21
41.300003
 31
0.0
  0
LINE
  5
14737
  8
DANMEN
  6
CONTINUOUS
 10
43.199997
 20
43.429842
 30
0.0
 11
45.823607
 21
42.118037
 31
0.0
  0
LINE
  5
14738
  8
DANMEN
  6
CONTINUOUS
 10
46.1
 20
41.0
 30
0.0
 11
52.0
 21
41.0
 31
0.0
  0
LINE
  5
14739
  8
DANMEN
  6
CONTINUOUS
 10
45.800003
 20
39.9
 30
0.0
 11
52.0
 21
39.9
 31
0.0
  0
LINE
  5
1473A
  8
DANMEN
  6
CONTINUOUS
 10
45.570786
 20
39.0
 30
0.0
 11
52.33287
 21
39.0
 31
0.0
  0
ARC
  5
1473B
  8
DANMEN
  6
CONTINUOUS
 10
45.399994
 20
39.399994
 30
0.0
 40
0.4
 50
180.000019
 51
359.999983
  0
LINE
  5
1473C
  8
DANMEN
  6
CONTINUOUS
 10
45.0
 20
41.300003
 30
0.0
 11
45.0
 21
39.399994
 31
0.0
  0
LINE
  5
14741
  8
DANMEN
  6
CONTINUOUS
 10
45.800003
 20
39.9
 30
0.0
 11
45.800003
 21
39.399994
 31
0.0
  0
LINE
  5
14743
  8
DANMEN
  6
CONTINUOUS
 10
46.1
 20
41.670823
 30
0.0
 11
46.1
 21
41.0
 31
0.0
  0
ARC
  5
14744
  8
DANMEN
  6
CONTINUOUS
 10
45.6
 20
41.670823
 30
0.0
 40
0.5
 50
0.0
 51
63.434949
  0
LINE
  5
14748
  8
DANMEN
  6
CONTINUOUS
 10
52.5
 20
39.0
 30
0.0
 11
57.0
 21
39.0
 31
0.0
  0
ARC
  5
1474A
  8
DANMEN
  6
CONTINUOUS
 10
52.5
 20
39.5
 30
0.0
 40
0.5
 50
180.000019
 51
270.000001
  0
LINE
  5
1474B
  8
DANMEN
  6
CONTINUOUS
 10
52.0
 20
39.9
 30
0.0
 11
52.0
 21
39.5
 31
0.0
  0
LINE
  5
14750
  8
DANMEN
  6
CONTINUOUS
 10
42.0
 20
48.399994
 30
0.0
 11
42.0
 21
43.10902
 31
0.0
  0
LINE
  5
14751
  8
DANMEN
  6
CONTINUOUS
 10
43.199997
 20
48.399994
 30
0.0
 11
43.199997
 21
43.429842
 31
0.0
  0
ARC
  5
14752
  8
DANMEN
  6
CONTINUOUS
 10
42.600006
 20
48.399994
 30
0.0
 40
0.6
 50
0.0
 51
180.000019
  0
ARC
  5
14754
  8
DANMEN
  6
CONTINUOUS
 10
42.5
 20
43.10902
 30
0.0
 40
0.5
 50
180.0
 51
243.434949
  0
LINE
  5
14758
  8
DANMEN
  6
CONTINUOUS
 10
57.052282
 20
53.755789
 30
0.0
 11
52.521146
 21
51.284248
 31
0.0
  0
ARC
  5
1475A
  8
DANMEN
  6
CONTINUOUS
 10
53.0
 20
50.406353
 30
0.0
 40
1.0
 50
118.610582
 51
180.0
  0
ARC
  5
1475D
  8
DANMEN
  6
CONTINUOUS
 10
57.5
 20
39.649994
 30
0.0
 40
1.0
 50
0.0
 51
89.999982
  0
LINE
  5
1475E
  8
DANMEN
  6
CONTINUOUS
 10
65.2
 20
52.3
 30
0.0
 11
66.8
 21
52.3
 31
0.0
  0
LINE
  5
1475F
  8
DANMEN
  6
CONTINUOUS
 10
57.920742
 20
52.35
 30
0.0
 11
61.7
 21
52.35
 31
0.0
  0
ARC
  5
14761
  8
DANMEN
  6
CONTINUOUS
 10
64.6
 20
48.7
 30
0.0
 40
0.3
 50
270.0
 51
0.0
  0
LINE
  5
14762
  8
DANMEN
  6
CONTINUOUS
 10
63.460621
 20
48.4
 30
0.0
 11
64.6
 21
48.4
 31
0.0
  0
LINE
  5
14763
  8
DANMEN
  6
CONTINUOUS
 10
64.2
 20
50.053939
 30
0.0
 11
64.2
 21
51.3
 31
0.0
  0
LINE
  5
14764
  8
DANMEN
  6
CONTINUOUS
 10
62.7
 20
49.969694
 30
0.0
 11
62.7
 21
51.35
 31
0.0
  0
ARC
  5
14765
  8
DANMEN
  6
CONTINUOUS
 10
65.2
 20
51.3
 30
0.0
 40
1.0
 50
90.0
 51
180.0
  0
LINE
  5
14766
  8
DANMEN
  6
CONTINUOUS
 10
64.9
 20
48.7
 30
0.0
 11
64.9
 21
48.963068
 31
0.0
  0
ARC
  5
14767
  8
DANMEN
  6
CONTINUOUS
 10
65.2
 20
50.053939
 30
0.0
 40
1.0
 50
180.0
 51
245.375682
  0
ARC
  5
14768
  8
DANMEN
  6
CONTINUOUS
 10
64.7
 20
48.963068
 30
0.0
 40
0.2
 50
0.0
 51
65.375682
  0
ARC
  5
14769
  8
DANMEN
  6
CONTINUOUS
 10
64.7
 20
49.969694
 30
0.0
 40
2.0
 50
180.0
 51
231.706523
  0
ARC
  5
1476A
  8
DANMEN
  6
CONTINUOUS
 10
61.7
 20
51.35
 30
0.0
 40
1.0
 50
0.0
 51
90.0
  0
LINE
  5
1476C
  8
DANMEN
  6
CONTINUOUS
 10
67.956524
 20
48.4
 30
0.0
 11
68.601274
 21
46.917076
 31
0.0
  0
ARC
  5
1476D
  8
DANMEN
  6
CONTINUOUS
 10
72.927452
 20
48.252808
 30
0.0
 40
0.5
 50
293.49856
 51
23.49856
  0
ARC
  5
1476E
  8
DANMEN
  6
CONTINUOUS
 10
69.518344
 20
47.315802
 30
0.0
 40
1.0
 50
203.49856
 51
293.49856
  0
LINE
  5
14772
  8
DANMEN
  6
CONTINUOUS
 10
73.126815
 20
47.794273
 30
0.0
 11
69.91707
 21
46.398732
 31
0.0
  0
LINE
  5
14774
  8
DANMEN
  6
CONTINUOUS
 10
69.3
 20
52.350006
 30
0.0
 11
71.741901
 21
52.350006
 31
0.0
  0
LINE
  5
14775
  8
DANMEN
  6
CONTINUOUS
 10
69.3
 20
49.448185
 30
0.0
 11
69.855268
 21
48.171069
 31
0.0
  0
ARC
  5
14777
  8
DANMEN
  6
CONTINUOUS
 10
67.4
 20
48.7
 30
0.0
 40
0.3
 50
180.0
 51
270.0
  0
LINE
  5
14778
  8
DANMEN
  6
CONTINUOUS
 10
67.4
 20
48.4
 30
0.0
 11
67.956524
 21
48.4
 31
0.0
  0
ARC
  5
14779
  8
DANMEN
  6
CONTINUOUS
 10
66.8
 20
51.3
 30
0.0
 40
1.0
 50
0.0
 51
90.0
  0
LINE
  5
1477A
  8
DANMEN
  6
CONTINUOUS
 10
67.8
 20
50.053939
 30
0.0
 11
67.8
 21
51.3
 31
0.0
  0
LINE
  5
1477B
  8
DANMEN
  6
CONTINUOUS
 10
69.3
 20
49.448185
 30
0.0
 11
69.3
 21
52.350006
 31
0.0
  0
ARC
  5
1477C
  8
DANMEN
  6
CONTINUOUS
 10
67.3
 20
48.963068
 30
0.0
 40
0.2
 50
114.624318
 51
180.0
  0
ARC
  5
1477D
  8
DANMEN
  6
CONTINUOUS
 10
66.8
 20
50.053939
 30
0.0
 40
1.0
 50
294.624318
 51
0.0
  0
LINE
  5
1477E
  8
DANMEN
  6
CONTINUOUS
 10
67.1
 20
48.7
 30
0.0
 11
67.1
 21
48.963068
 31
0.0
  0
ARC
  5
14782
  8
DANMEN
  6
CONTINUOUS
 10
71.741901
 20
52.850006
 30
0.0
 40
0.5
 50
270.0
 51
293.756476
  0
LINE
  5
14783
  8
DANMEN
  6
CONTINUOUS
 10
72.468917
 20
49.307438
 30
0.0
 11
69.855268
 21
48.171069
 31
0.0
  0
LINE
  5
14784
  8
DANMEN
  6
CONTINUOUS
 10
73.126816
 20
49.048266
 30
0.0
 11
73.385987
 21
48.452171
 31
0.0
  0
ARC
  5
14785
  8
DANMEN
  6
CONTINUOUS
 10
72.66828
 20
48.848903
 30
0.0
 40
0.5
 50
23.49856
 51
113.49856
  0
LINE
  5
1478A
  8
DANMEN
  6
CONTINUOUS
 10
55.649997
 20
59.0
 30
0.0
 11
60.0
 21
59.0
 31
0.0
  0
LINE
  5
1478D
  8
DANMEN
  6
CONTINUOUS
 10
52.0
 20
59.0
 30
0.0
 11
54.699999
 21
59.0
 31
0.0
  0
ARC
  5
1478F
  8
DANMEN
  6
CONTINUOUS
 10
54.699998
 20
59.5
 30
0.0
 40
0.5
 50
180.0
 51
270.0
  0
ARC
  5
147A1
  8
DANMEN
  6
CONTINUOUS
 10
64.0
 20
63.0
 30
0.0
 40
3.0
 50
48.189683
 51
131.810302
  0
ARC
  5
147A2
  8
DANMEN
  6
CONTINUOUS
 10
63.0
 20
65.29129
 30
0.0
 40
0.5
 50
113.578068
 51
179.999745
  0
ARC
  5
147A3
  8
DANMEN
  6
CONTINUOUS
 10
65.0
 20
65.29129
 30
0.0
 40
0.5
 50
0.000279
 51
66.42195
  0
ARC
  5
147A4
  8
DANMEN
  6
CONTINUOUS
 10
64.0
 20
65.0
 30
0.0
 40
4.0
 50
0.0
 51
180.000019
  0
LINE
  5
147A5
  8
DANMEN
  6
CONTINUOUS
 10
65.5
 20
54.0
 30
0.0
 11
71.5
 21
54.0
 31
0.0
  0
LINE
  5
147A6
  8
DANMEN
  6
CONTINUOUS
 10
65.5
 20
65.29129
 30
0.0
 11
65.5
 21
54.0
 31
0.0
  0
LINE
  5
147A7
  8
DANMEN
  6
CONTINUOUS
 10
63.850006
 20
61.847046
 30
0.0
 11
63.850006
 21
54.0
 31
0.0
  0
LINE
  5
147A8
  8
DANMEN
  6
CONTINUOUS
 10
60.0
 20
65.0
 30
0.0
 11
60.0
 21
59.0
 31
0.0
  0
LINE
  5
147A9
  8
DANMEN
  6
CONTINUOUS
 10
58.00999
 20
54.0
 30
0.0
 11
63.850006
 21
54.0
 31
0.0
  0
LINE
  5
147AD
  8
DANMEN
  6
CONTINUOUS
 10
60.5
 20
64.0
 30
0.0
 11
62.0
 21
64.0
 31
0.0
  0
LINE
  5
147AE
  8
DANMEN
  6
CONTINUOUS
 10
62.5
 20
65.29129
 30
0.0
 11
62.5
 21
64.152954
 31
0.0
  0
LINE
  5
147B1
  8
DANMEN
  6
CONTINUOUS
 10
63.764431
 20
62.126784
 30
0.0
 11
62.585579
 21
63.873223
 31
0.0
  0
ARC
  5
147B2
  8
DANMEN
  6
CONTINUOUS
 10
63.350006
 20
61.847046
 30
0.0
 40
0.5
 50
0.000664
 51
34.020021
  0
ARC
  5
147B3
  8
DANMEN
  6
CONTINUOUS
 10
63.0
 20
64.152954
 30
0.0
 40
0.5
 50
180.000309
 51
214.019733
  0
LINE
  5
147B4
  8
DANMEN
  6
CONTINUOUS
 10
68.0
 20
65.0
 30
0.0
 11
68.0
 21
59.0
 31
0.0
  0
LINE
  5
147B6
  8
DANMEN
  6
CONTINUOUS
 10
66.0
 20
64.0
 30
0.0
 11
67.5
 21
64.0
 31
0.0
  0
LINE
  5
147B8
  8
DANMEN
  6
CONTINUOUS
 10
59.999959
 20
68.499942
 30
0.0
 11
60.49996
 21
67.999941
 31
0.0
  0
ARC
  5
147BE
  8
DANMEN
  6
CONTINUOUS
 10
64.0
 20
63.0
 30
0.0
 40
3.0
 50
66.421841
 51
113.578178
  0
LINE
  5
147C7
  8
DANMEN
  6
CONTINUOUS
 10
67.499925
 20
67.99994
 30
0.0
 11
67.999925
 21
68.499939
 31
0.0
  0
ARC
  5
147F0
  8
DANMEN
  6
CONTINUOUS
 10
64.0
 20
110.5
 30
0.0
 40
3.5
 50
235.150098
 51
304.84989
  0
LINE
  5
147F1
  8
DANMEN
  6
CONTINUOUS
 10
59.999965
 20
104.499879
 30
0.0
 11
60.499965
 21
104.99988
 31
0.0
  0
LINE
  5
147F2
  8
DANMEN
  6
CONTINUOUS
 10
60.5
 20
109.0
 30
0.0
 11
62.0
 21
109.0
 31
0.0
  0
LINE
  5
147F7
  8
DANMEN
  6
CONTINUOUS
 10
67.499938
 20
104.999912
 30
0.0
 11
67.999938
 21
104.499912
 31
0.0
  0
LINE
  5
147F9
  8
DANMEN
  6
CONTINUOUS
 10
66.0
 20
109.0
 30
0.0
 11
67.5
 21
109.0
 31
0.0
  0
LINE
  5
14819
  8
DANMEN
  6
CONTINUOUS
 10
143.881386
 20
113.846997
 30
0.0
 11
112.517555
 21
110.997915
 31
0.0
  0
LINE
  5
1481A
  8
DANMEN
  6
CONTINUOUS
 10
114.517555
 20
119.497915
 30
0.0
 11
145.217555
 21
119.497915
 31
0.0
  0
LINE
  5
1481B
  8
DANMEN
  6
CONTINUOUS
 10
77.0826
 20
78.320122
 30
0.0
 11
77.780718
 21
77.0
 31
0.0
  0
LINE
  5
1481C
  8
DANMEN
  6
CONTINUOUS
 10
76.8174
 20
78.179877
 30
0.0
 11
77.6
 21
76.7
 31
0.0
  0
ARC
  5
1481D
  8
DANMEN
  6
CONTINUOUS
 10
76.282155
 20
77.336342
 30
0.0
 40
0.25
 50
179.716853
 51
357.49922
  0
LINE
  5
1481E
  8
DANMEN
  6
CONTINUOUS
 10
79.0
 20
78.7
 30
0.0
 11
79.0
 21
77.0
 31
0.0
  0
LINE
  5
1481F
  8
DANMEN
  6
CONTINUOUS
 10
80.2
 20
78.7
 30
0.0
 11
80.2
 21
77.0
 31
0.0
  0
LINE
  5
14820
  8
DANMEN
  6
CONTINUOUS
 10
96.5
 20
77.2
 30
0.0
 11
96.5
 21
65.003636
 31
0.0
  0
LINE
  5
14821
  8
DANMEN
  6
CONTINUOUS
 10
81.500003
 20
81.0
 30
0.0
 11
81.500003
 21
74.8
 31
0.0
  0
LINE
  5
14822
  8
DANMEN
  6
CONTINUOUS
 10
82.5
 20
80.2
 30
0.0
 11
82.5
 21
74.5
 31
0.0
  0
LINE
  5
14823
  8
DANMEN
  6
CONTINUOUS
 10
103.2
 20
75.666295
 30
0.0
 11
103.2
 21
79.35
 31
0.0
  0
ARC
  5
14824
  8
DANMEN
  6
CONTINUOUS
 10
99.2
 20
76.3
 30
0.0
 40
1.0
 50
90.0
 51
180.0
  0
ARC
  5
14825
  8
DANMEN
  6
CONTINUOUS
 10
100.7
 20
76.3
 30
0.0
 40
1.0
 50
0.0
 51
90.0
  0
ARC
  5
14826
  8
DANMEN
  6
CONTINUOUS
 10
85.0
 20
78.2
 30
0.0
 40
1.0
 50
180.0
 51
270.0
  0
LINE
  5
14827
  8
DANMEN
  6
CONTINUOUS
 10
96.5
 20
77.2
 30
0.0
 11
95.5
 21
76.5
 31
0.0
  0
LINE
  5
14828
  8
DANMEN
  6
CONTINUOUS
 10
89.5
 20
76.5
 30
0.0
 11
88.5
 21
77.2
 31
0.0
  0
LINE
  5
14829
  8
DANMEN
  6
CONTINUOUS
 10
115.0
 20
98.5
 30
0.0
 11
115.0
 21
64.5
 31
0.0
  0
LINE
  5
1482A
  8
DANMEN
  6
CONTINUOUS
 10
113.350006
 20
79.35
 30
0.0
 11
113.350006
 21
67.08182
 31
0.0
  0
LINE
  5
1482D
  8
DANMEN
  6
CONTINUOUS
 10
89.5
 20
76.5
 30
0.0
 11
95.5
 21
76.5
 31
0.0
  0
LINE
  5
1482E
  8
DANMEN
  6
CONTINUOUS
 10
76.0
 20
74.500007
 30
0.0
 11
76.0
 21
59.0
 31
0.0
  0
LINE
  5
1482F
  8
DANMEN
  6
CONTINUOUS
 10
79.5
 20
74.0
 30
0.0
 11
82.000003
 21
74.0
 31
0.0
  0
LINE
  5
14830
  8
DANMEN
  6
CONTINUOUS
 10
77.6
 20
76.7
 30
0.0
 11
78.4
 21
76.7
 31
0.0
  0
LINE
  5
14831
  8
DANMEN
  6
CONTINUOUS
 10
77.780719
 20
77.0
 30
0.0
 11
79.0
 21
77.0
 31
0.0
  0
ARC
  5
1483C
  8
DANMEN
  6
CONTINUOUS
 10
78.599999
 20
75.399999
 30
0.0
 40
0.2
 50
180.000019
 51
270.000001
  0
LINE
  5
1483E
  8
DANMEN
  6
CONTINUOUS
 10
78.4
 20
76.7
 30
0.0
 11
78.4
 21
75.399999
 31
0.0
  0
LINE
  5
14841
  8
DANMEN
  6
CONTINUOUS
 10
79.0
 20
76.199999
 30
0.0
 11
80.0
 21
76.199999
 31
0.0
  0
LINE
  5
14843
  8
DANMEN
  6
CONTINUOUS
 10
78.599999
 20
75.199999
 30
0.0
 11
79.0
 21
75.199999
 31
0.0
  0
LINE
  5
14844
  8
DANMEN
  6
CONTINUOUS
 10
80.0
 20
76.199999
 30
0.0
 11
80.0
 21
75.199999
 31
0.0
  0
LINE
  5
14845
  8
DANMEN
  6
CONTINUOUS
 10
80.2
 20
77.0
 30
0.0
 11
81.0
 21
76.2
 31
0.0
  0
LINE
  5
14847
  8
DANMEN
  6
CONTINUOUS
 10
81.0
 20
76.199999
 30
0.0
 11
81.0
 21
75.199999
 31
0.0
  0
ARC
  5
14848
  8
DANMEN
  6
CONTINUOUS
 10
80.2
 20
75.199999
 30
0.0
 40
0.2
 50
180.000019
 51
270.000001
  0
ARC
  5
1484A
  8
DANMEN
  6
CONTINUOUS
 10
80.8
 20
75.199999
 30
0.0
 40
0.2
 50
270.000018
 51
0.0
  0
LINE
  5
1484C
  8
DANMEN
  6
CONTINUOUS
 10
79.0
 20
76.199999
 30
0.0
 11
79.0
 21
75.199999
 31
0.0
  0
LINE
  5
1484D
  8
DANMEN
  6
CONTINUOUS
 10
80.2
 20
75.0
 30
0.0
 11
80.8
 21
75.0
 31
0.0
  0
LINE
  5
1484E
  8
DANMEN
  6
CONTINUOUS
 10
79.0
 20
75.699997
 30
0.0
 11
79.0
 21
74.5
 31
0.0
  0
LINE
  5
1484F
  8
DANMEN
  6
CONTINUOUS
 10
79.800003
 20
76.199997
 30
0.0
 11
79.800003
 21
74.8
 31
0.0
  0
ARC
  5
14850
  8
DANMEN
  6
CONTINUOUS
 10
79.5
 20
74.5
 30
0.0
 40
0.5
 50
180.000019
 51
270.000001
  0
ARC
  5
14851
  8
DANMEN
  6
CONTINUOUS
 10
79.5
 20
75.699997
 30
0.0
 40
0.5
 50
89.999982
 51
180.000019
  0
LINE
  5
14852
  8
DANMEN
  6
CONTINUOUS
 10
79.5
 20
76.199997
 30
0.0
 11
79.800003
 21
76.199997
 31
0.0
  0
LINE
  5
14853
  8
DANMEN
  6
CONTINUOUS
 10
79.800003
 20
74.8
 30
0.0
 11
81.5
 21
74.8
 31
0.0
  0
ARC
  5
14859
  8
DANMEN
  6
CONTINUOUS
 10
82.0
 20
74.5
 30
0.0
 40
0.5
 50
270.000018
 51
0.0
  0
LINE
  5
1485C
  8
DANMEN
  6
CONTINUOUS
 10
98.15
 20
71.3
 30
0.0
 11
98.15
 21
64.579555
 31
0.0
  0
ARC
  5
1485D
  8
DANMEN
  6
CONTINUOUS
 10
97.15
 20
64.579555
 30
0.0
 40
1.0
 50
293.756476
 51
0.0
  0
ARC
  5
1485F
  8
DANMEN
  6
CONTINUOUS
 10
99.2
 20
74.8
 30
0.0
 40
1.0
 50
180.0
 51
270.0
  0
ARC
  5
14860
  8
DANMEN
  6
CONTINUOUS
 10
99.15
 20
71.3
 30
0.0
 40
1.0
 50
90.0
 51
180.0
  0
LINE
  5
14861
  8
DANMEN
  6
CONTINUOUS
 10
98.2
 20
74.8
 30
0.0
 11
98.2
 21
76.3
 31
0.0
  0
ARC
  5
14864
  8
DANMEN
  6
CONTINUOUS
 10
102.45
 20
75.666295
 30
0.0
 40
0.75
 50
180.0
 51
0.0
  0
LINE
  5
14865
  8
DANMEN
  6
CONTINUOUS
 10
101.7
 20
75.666295
 30
0.0
 11
101.7
 21
76.3
 31
0.0
  0
LINE
  5
14866
  8
DANMEN
  6
CONTINUOUS
 10
99.2
 20
73.8
 30
0.0
 11
99.833705
 21
73.8
 31
0.0
  0
LINE
  5
14867
  8
DANMEN
  6
CONTINUOUS
 10
99.15
 20
72.3
 30
0.0
 11
99.833705
 21
72.3
 31
0.0
  0
ARC
  5
14868
  8
DANMEN
  6
CONTINUOUS
 10
99.833705
 20
73.05
 30
0.0
 40
0.75
 50
270.0
 51
90.0
  0
LINE
  5
1486A
  8
DANMEN
  6
CONTINUOUS
 10
115.0
 20
64.345612
 30
0.0
 11
115.0
 21
39.0
 31
0.0
  0
ARC
  5
1486B
  8
DANMEN
  6
CONTINUOUS
 10
110.41465
 20
65.260364
 30
0.0
 40
0.5
 50
113.49856
 51
203.49856
  0
ARC
  5
1486C
  8
DANMEN
  6
CONTINUOUS
 10
114.5
 20
64.5
 30
0.0
 40
0.5
 50
270.0
 51
0.0
  0
ARC
  5
1486D
  8
DANMEN
  6
CONTINUOUS
 10
110.673822
 20
64.664268
 30
0.0
 40
0.5
 50
203.49856
 51
293.49856
  0
LINE
  5
1486E
  8
DANMEN
  6
CONTINUOUS
 10
110.215287
 20
64.464905
 30
0.0
 11
109.956115
 21
65.061001
 31
0.0
  0
LINE
  5
14870
  8
DANMEN
  6
CONTINUOUS
 10
113.9
 20
64.0
 30
0.0
 11
114.5
 21
64.0
 31
0.0
  0
LINE
  5
14871
  8
DANMEN
  6
CONTINUOUS
 10
113.9
 20
64.759133
 30
0.0
 11
113.9
 21
64.0
 31
0.0
  0
LINE
  5
14873
  8
DANMEN
  6
CONTINUOUS
 10
113.200637
 20
65.217668
 30
0.0
 11
110.873185
 21
64.205733
 31
0.0
  0
ARC
  5
14874
  8
DANMEN
  6
CONTINUOUS
 10
113.4
 20
64.759133
 30
0.0
 40
0.5
 50
0.0
 51
113.49856
  0
LINE
  5
14876
  8
DANMEN
  6
CONTINUOUS
 10
113.350006
 20
67.08182
 30
0.0
 11
110.215287
 21
65.718899
 31
0.0
  0
LINE
  5
1487D
  8
DANMEN
  6
CONTINUOUS
 10
102.05
 20
81.0
 30
0.0
 11
113.35
 21
81.0
 31
0.0
  0
LINE
  5
1487E
  8
DANMEN
  6
CONTINUOUS
 10
103.2
 20
79.35
 30
0.0
 11
113.350006
 21
79.35
 31
0.0
  0
LINE
  5
1487F
  8
DANMEN
  6
CONTINUOUS
 10
102.0
 20
92.2
 30
0.0
 11
113.35
 21
92.2
 31
0.0
  0
LINE
  5
14880
  8
DANMEN
  6
CONTINUOUS
 10
104.0
 20
94.0
 30
0.0
 11
113.35
 21
94.0
 31
0.0
  0
LINE
  5
14881
  8
DANMEN
  6
CONTINUOUS
 10
108.900009
 20
117.350005
 30
0.0
 11
105.000009
 21
103.650007
 31
0.0
  0
LINE
  5
14882
  8
DANMEN
  6
CONTINUOUS
 10
85.650009
 20
119.000005
 30
0.0
 11
107.250009
 21
119.000005
 31
0.0
  0
LINE
  5
14883
  8
DANMEN
  6
CONTINUOUS
 10
107.003149
 20
116.713108
 30
0.0
 11
103.284455
 21
103.650007
 31
0.0
  0
ARC
  5
14884
  8
DANMEN
  6
CONTINUOUS
 10
106.522255
 20
116.850005
 30
0.0
 40
0.5
 50
344.109853
 51
90.0
  0
ARC
  5
14885
  8
DANMEN
  6
DASHED
 10
104.0
 20
99.699997
 30
0.0
 40
0.5
 50
0.0
 51
89.999982
  0
ARC
  5
14886
  8
DANMEN
  6
DASHED
 10
79.5
 20
99.699997
 30
0.0
 40
0.5
 50
90.0
 51
180.0
  0
LINE
  5
14887
  8
DANMEN
  6
CONTINUOUS
 10
103.100009
 20
99.169952
 30
0.0
 11
103.100009
 21
101.300006
 31
0.0
  0
LINE
  5
14888
  8
DANMEN
  6
CONTINUOUS
 10
102.186503
 20
99.014708
 30
0.0
 11
101.386649
 21
101.300005
 31
0.0
  0
LINE
  5
14889
  8
DANMEN
  6
CONTINUOUS
 10
101.729697
 20
98.200903
 30
0.0
 11
100.632822
 21
101.334831
 31
0.0
  0
LINE
  5
1488A
  8
DANMEN
  6
CONTINUOUS
 10
103.800009
 20
98.500007
 30
0.0
 11
103.800009
 21
102.000007
 31
0.0
  0
ARC
  5
1488B
  8
DANMEN
  6
CONTINUOUS
 10
87.000009
 20
99.650001
 30
0.0
 40
1.0
 50
0.0
 51
90.0
  0
LINE
  5
1488C
  8
DANMEN
  6
CONTINUOUS
 10
98.200009
 20
103.150006
 30
0.0
 11
98.200009
 21
97.350007
 31
0.0
  0
LINE
  5
1488D
  8
DANMEN
  6
CONTINUOUS
 10
103.800009
 20
99.500006
 30
0.0
 11
103.800009
 21
102.000007
 31
0.0
  0
LINE
  5
1488E
  8
DANMEN
  6
CONTINUOUS
 10
99.850009
 20
102.000007
 30
0.0
 11
99.850009
 21
98.500007
 31
0.0
  0
LINE
  5
1488F
  8
DANMEN
  6
CONTINUOUS
 10
105.000009
 20
99.000007
 30
0.0
 11
105.000009
 21
103.650007
 31
0.0
  0
LINE
  5
14890
  8
DANMEN
  6
DASHED
 10
100.0
 20
99.0
 30
0.0
 11
88.0
 21
99.0
 31
0.0
  0
LINE
  5
14891
  8
DANMEN
  6
DASHED
 10
104.0
 20
100.199997
 30
0.0
 11
79.5
 21
100.199997
 31
0.0
  0
LINE
  5
14892
  8
DANMEN
  6
CONTINUOUS
 10
85.8
 20
79.0
 30
0.0
 11
101.55
 21
79.0
 31
0.0
  0
LINE
  5
14893
  8
DANMEN
  6
CONTINUOUS
 10
84.0
 20
98.5
 30
0.0
 11
84.0
 21
82.0
 31
0.0
  0
LINE
  5
14894
  8
DANMEN
  6
CONTINUOUS
 10
85.8
 20
96.0
 30
0.0
 11
85.8
 21
79.0
 31
0.0
  0
LINE
  5
14895
  8
DANMEN
  6
CONTINUOUS
 10
76.0
 20
99.0
 30
0.0
 11
84.0
 21
82.0
 31
0.0
  0
LINE
  5
14896
  8
DANMEN
  6
CONTINUOUS
 10
84.0
 20
99.0
 30
0.0
 11
76.0
 21
82.0
 31
0.0
  0
LINE
  5
14897
  8
DANMEN
  6
CONTINUOUS
 10
79.5
 20
82.0
 30
0.0
 11
84.0
 21
82.0
 31
0.0
  0
LINE
  5
14898
  8
DANMEN
  6
CONTINUOUS
 10
77.386229
 20
81.2
 30
0.0
 11
78.2
 21
81.2
 31
0.0
  0
LINE
  5
14899
  8
DANMEN
  6
CONTINUOUS
 10
77.0
 20
82.0
 30
0.0
 11
79.0
 21
82.0
 31
0.0
  0
ARC
  5
1489B
  8
DANMEN
  6
CONTINUOUS
 10
88.020964
 20
76.823655
 30
0.0
 40
11.5
 50
157.632138
 51
177.49922
  0
ARC
  5
148A1
  8
DANMEN
  6
CONTINUOUS
 10
76.95
 20
78.25
 30
0.0
 40
0.15
 50
27.871157
 51
207.871179
  0
ARC
  5
148A3
  8
DANMEN
  6
CONTINUOUS
 10
88.032011
 20
77.27827
 30
0.0
 40
12.0
 50
156.828944
 51
179.716853
  0
ARC
  5
148A8
  8
DANMEN
  6
CONTINUOUS
 10
78.6
 20
79.1
 30
0.0
 40
0.4
 50
180.000019
 51
270.000001
  0
LINE
  5
148AA
  8
DANMEN
  6
CONTINUOUS
 10
78.2
 20
81.2
 30
0.0
 11
78.2
 21
79.1
 31
0.0
  0
LINE
  5
148B1
  8
DANMEN
  6
CONTINUOUS
 10
79.0
 20
82.0
 30
0.0
 11
79.0
 21
79.5
 31
0.0
  0
LINE
  5
148B2
  8
DANMEN
  6
CONTINUOUS
 10
78.6
 20
78.7
 30
0.0
 11
79.0
 21
78.7
 31
0.0
  0
LINE
  5
148B4
  8
DANMEN
  6
CONTINUOUS
 10
79.0
 20
79.5
 30
0.0
 11
80.0
 21
79.5
 31
0.0
  0
LINE
  5
148B5
  8
DANMEN
  6
CONTINUOUS
 10
81.0
 20
79.5
 30
0.0
 11
80.2
 21
78.7
 31
0.0
  0
ARC
  5
148B8
  8
DANMEN
  6
CONTINUOUS
 10
80.2
 20
80.5
 30
0.0
 40
0.2
 50
89.999982
 51
180.000019
  0
ARC
  5
148BA
  8
DANMEN
  6
CONTINUOUS
 10
80.8
 20
80.5
 30
0.0
 40
0.2
 50
0.0
 51
89.999982
  0
LINE
  5
148BC
  8
DANMEN
  6
CONTINUOUS
 10
80.0
 20
80.5
 30
0.0
 11
80.0
 21
79.5
 31
0.0
  0
LINE
  5
148BD
  8
DANMEN
  6
CONTINUOUS
 10
80.2
 20
80.699999
 30
0.0
 11
80.8
 21
80.699999
 31
0.0
  0
LINE
  5
148BE
  8
DANMEN
  6
CONTINUOUS
 10
81.0
 20
80.5
 30
0.0
 11
81.0
 21
79.5
 31
0.0
  0
LINE
  5
148BF
  8
DANMEN
  6
CONTINUOUS
 10
79.0
 20
81.5
 30
0.0
 11
79.0
 21
80.300003
 31
0.0
  0
LINE
  5
148C0
  8
DANMEN
  6
CONTINUOUS
 10
79.5
 20
79.800003
 30
0.0
 11
79.800003
 21
79.800003
 31
0.0
  0
LINE
  5
148C1
  8
DANMEN
  6
CONTINUOUS
 10
79.800003
 20
81.0
 30
0.0
 11
79.800003
 21
79.800003
 31
0.0
  0
ARC
  5
148C2
  8
DANMEN
  6
CONTINUOUS
 10
79.5
 20
80.300003
 30
0.0
 40
0.5
 50
180.000019
 51
270.000001
  0
LINE
  5
148C3
  8
DANMEN
  6
CONTINUOUS
 10
79.800003
 20
81.0
 30
0.0
 11
81.5
 21
81.0
 31
0.0
  0
ARC
  5
148C4
  8
DANMEN
  6
CONTINUOUS
 10
79.5
 20
81.5
 30
0.0
 40
0.5
 50
89.999982
 51
180.000019
  0
LINE
  5
148D0
  8
DANMEN
  6
CONTINUOUS
 10
85.0
 20
77.2
 30
0.0
 11
88.5
 21
77.2
 31
0.0
  0
LINE
  5
148D1
  8
DANMEN
  6
CONTINUOUS
 10
84.0
 20
78.2
 30
0.0
 11
84.0
 21
80.2
 31
0.0
  0
LINE
  5
148D4
  8
DANMEN
  6
CONTINUOUS
 10
82.5
 20
80.2
 30
0.0
 11
84.0
 21
80.2
 31
0.0
  0
LINE
  5
148DB
  8
DANMEN
  6
DASHED
 10
86.5
 20
99.0
 30
0.0
 11
80.714146
 21
99.0
 31
0.0
  0
LINE
  5
148DC
  8
DANMEN
  6
CONTINUOUS
 10
76.0
 20
99.0
 30
0.0
 11
84.0
 21
99.0
 31
0.0
  0
ARC
  5
148DD
  8
DANMEN
  6
DASHED
 10
80.714146
 20
98.0
 30
0.0
 40
1.0
 50
89.999982
 51
135.573244
  0
LINE
  5
148DE
  8
DANMEN
  6
DASHED
 10
80.0
 20
98.699997
 30
0.0
 11
79.5
 21
98.699997
 31
0.0
  0
LINE
  5
148DF
  8
DANMEN
  6
DASHED
 10
79.0
 20
99.699997
 30
0.0
 11
79.0
 21
99.199997
 31
0.0
  0
ARC
  5
148E0
  8
DANMEN
  6
DASHED
 10
79.5
 20
99.199997
 30
0.0
 40
0.5
 50
180.0
 51
270.0
  0
LINE
  5
148E5
  8
DANMEN
  6
DASHED
 10
86.023824
 20
95.382864
 30
0.0
 11
87.423825
 21
92.082833
 31
0.0
  0
LINE
  5
148E6
  8
DANMEN
  6
DASHED
 10
87.5
 20
94.399997
 30
0.0
 11
87.5
 21
98.5
 31
0.0
  0
LINE
  5
148E7
  8
DANMEN
  6
CONTINUOUS
 10
86.500009
 20
89.999998
 30
0.0
 11
86.500009
 21
99.000001
 31
0.0
  0
LINE
  5
148E8
  8
DANMEN
  6
CONTINUOUS
 10
88.000009
 20
99.649996
 30
0.0
 11
88.000009
 21
89.499998
 31
0.0
  0
LINE
  5
148E9
  8
DANMEN
  6
DASHED
 10
87.5
 20
94.399997
 30
0.0
 11
87.992312
 21
92.26748
 31
0.0
  0
ARC
  5
148EA
  8
DANMEN
  6
DASHED
 10
87.7
 20
92.199997
 30
0.0
 40
0.3
 50
202.988532
 51
12.999521
  0
ARC
  5
148EE
  8
DANMEN
  6
CONTINUOUS
 10
87.000009
 20
89.999998
 30
0.0
 40
0.5
 50
180.0
 51
270.0
  0
LINE
  5
148EF
  8
DANMEN
  6
CONTINUOUS
 10
88.000009
 20
89.499998
 30
0.0
 11
87.00001
 21
89.499998
 31
0.0
  0
ARC
  5
148F0
  8
DANMEN
  6
DASHED
 10
86.299999
 20
95.500028
 30
0.0
 40
0.3
 50
124.343976
 51
202.988532
  0
ARC
  5
148F1
  8
DANMEN
  6
CONTINUOUS
 10
86.0
 20
98.5
 30
0.0
 40
0.5
 50
0.0
 51
90.0
  0
LINE
  5
148F2
  8
DANMEN
  6
CONTINUOUS
 10
85.8
 20
96.0
 30
0.0
 11
86.5
 21
96.0
 31
0.0
  0
LINE
  5
148F3
  8
DANMEN
  6
CONTINUOUS
 10
84.500009
 20
99.000001
 30
0.0
 11
86.500009
 21
99.000001
 31
0.0
  0
LINE
  5
148F5
  8
DANMEN
  6
CONTINUOUS
 10
84.5
 20
99.0
 30
0.0
 11
86.0
 21
99.0
 31
0.0
  0
ARC
  5
148F6
  8
DANMEN
  6
CONTINUOUS
 10
84.5
 20
98.5
 30
0.0
 40
0.5
 50
90.0
 51
180.0
  0
ARC
  5
148F9
  8
DANMEN
  6
CONTINUOUS
 10
84.500009
 20
99.500001
 30
0.0
 40
0.5
 50
180.0
 51
270.0
  0
ARC
  5
148FB
  8
DANMEN
  6
DASHED
 10
88.0
 20
98.5
 30
0.0
 40
0.5
 50
90.0
 51
180.0
  0
LINE
  5
148FC
  8
DANMEN
  6
DASHED
 10
86.5
 20
99.0
 30
0.0
 11
86.5
 21
96.000035
 31
0.0
  0
LINE
  5
148FD
  8
DANMEN
  6
DASHED
 10
86.5
 20
96.000035
 30
0.0
 11
86.130743
 21
95.747729
 31
0.0
  0
LINE
  5
14901
  8
DANMEN
  6
CONTINUOUS
 10
86.5
 20
98.5
 30
0.0
 11
86.5
 21
96.0
 31
0.0
  0
ARC
  5
14904
  8
DANMEN
  6
DASHED
 10
100.3
 20
88.699997
 30
0.0
 40
0.3
 50
167.000479
 51
337.011468
  0
LINE
  5
14905
  8
DANMEN
  6
DASHED
 10
101.976176
 20
91.882864
 30
0.0
 11
100.576175
 21
88.582833
 31
0.0
  0
LINE
  5
14908
  8
DANMEN
  6
CONTINUOUS
 10
99.2
 20
77.3
 30
0.0
 11
100.7
 21
77.3
 31
0.0
  0
LINE
  5
14909
  8
DANMEN
  6
CONTINUOUS
 10
101.55
 20
79.0
 30
0.0
 11
101.55
 21
80.5
 31
0.0
  0
ARC
  5
1490A
  8
DANMEN
  6
CONTINUOUS
 10
102.05
 20
80.5
 30
0.0
 40
0.5
 50
90.0
 51
180.0
  0
ARC
  5
1490F
  8
DANMEN
  6
CONTINUOUS
 10
98.700009
 20
97.350007
 30
0.0
 40
0.5
 50
180.0
 51
270.0
  0
LINE
  5
14911
  8
DANMEN
  6
DASHED
 10
101.5
 20
99.0
 30
0.0
 11
101.5
 21
92.500035
 31
0.0
  0
LINE
  5
14912
  8
DANMEN
  6
DASHED
 10
100.5
 20
90.899997
 30
0.0
 11
100.5
 21
98.5
 31
0.0
  0
LINE
  5
14913
  8
DANMEN
  6
CONTINUOUS
 10
104.0
 20
98.0
 30
0.0
 11
104.0
 21
94.0
 31
0.0
  0
LINE
  5
14914
  8
DANMEN
  6
CONTINUOUS
 10
102.35
 20
93.2
 30
0.0
 11
102.35
 21
96.0
 31
0.0
  0
LINE
  5
14915
  8
DANMEN
  6
CONTINUOUS
 10
101.300009
 20
97.500007
 30
0.0
 11
101.300009
 21
90.000001
 31
0.0
  0
LINE
  5
14916
  8
DANMEN
  6
CONTINUOUS
 10
99.800009
 20
96.850007
 30
0.0
 11
99.800009
 21
89.500001
 31
0.0
  0
ARC
  5
14918
  8
DANMEN
  6
DASHED
 10
101.700001
 20
92.000028
 30
0.0
 40
0.3
 50
337.011468
 51
55.656024
  0
LINE
  5
14919
  8
DANMEN
  6
DASHED
 10
101.5
 20
92.500035
 30
0.0
 11
101.869257
 21
92.247729
 31
0.0
  0
LINE
  5
1491A
  8
DANMEN
  6
DASHED
 10
100.5
 20
90.899997
 30
0.0
 11
100.007688
 21
88.76748
 31
0.0
  0
LINE
  5
1491E
  8
DANMEN
  6
CONTINUOUS
 10
102.0
 20
93.2
 30
0.0
 11
102.35
 21
93.2
 31
0.0
  0
ARC
  5
1491F
  8
DANMEN
  6
CONTINUOUS
 10
102.0
 20
92.7
 30
0.0
 40
0.5
 50
90.0
 51
270.0
  0
ARC
  5
14923
  8
DANMEN
  6
CONTINUOUS
 10
100.800009
 20
90.000001
 30
0.0
 40
0.5
 50
270.0
 51
0.0
  0
LINE
  5
14924
  8
DANMEN
  6
CONTINUOUS
 10
100.800009
 20
89.500001
 30
0.0
 11
99.800009
 21
89.500001
 31
0.0
  0
LINE
  5
14926
  8
DANMEN
  6
DASHED
 10
101.5
 20
99.0
 30
0.0
 11
104.5
 21
99.0
 31
0.0
  0
ARC
  5
14927
  8
DANMEN
  6
CONTINUOUS
 10
102.630065
 20
99.169952
 30
0.0
 40
0.469945
 50
199.289966
 51
0.0
  0
LINE
  5
14928
  8
DANMEN
  6
CONTINUOUS
 10
102.10001
 20
98.300007
 30
0.0
 11
102.55001
 21
98.300007
 31
0.0
  0
LINE
  5
14929
  8
DANMEN
  6
CONTINUOUS
 10
102.0
 20
99.0
 30
0.0
 11
105.0
 21
99.0
 31
0.0
  0
ARC
  5
1492A
  8
DANMEN
  6
DASHED
 10
100.0
 20
98.5
 30
0.0
 40
0.5
 50
0.0
 51
90.0
  0
ARC
  5
1492D
  8
DANMEN
  6
CONTINUOUS
 10
102.012854
 20
98.300007
 30
0.0
 40
0.3
 50
199.29002
 51
270.000018
  0
LINE
  5
1492E
  8
DANMEN
  6
CONTINUOUS
 10
102.10001
 20
98.000007
 30
0.0
 11
102.10001
 21
98.300007
 31
0.0
  0
LINE
  5
1492F
  8
DANMEN
  6
CONTINUOUS
 10
102.012854
 20
98.000007
 30
0.0
 11
102.10001
 21
98.000007
 31
0.0
  0
LINE
  5
14930
  8
DANMEN
  6
CONTINUOUS
 10
102.35
 20
96.0
 30
0.0
 11
101.5
 21
96.0
 31
0.0
  0
LINE
  5
14931
  8
DANMEN
  6
CONTINUOUS
 10
101.5
 20
98.5
 30
0.0
 11
101.5
 21
96.0
 31
0.0
  0
ARC
  5
14932
  8
DANMEN
  6
CONTINUOUS
 10
102.0
 20
98.5
 30
0.0
 40
0.5
 50
89.999981
 51
180.000037
  0
LINE
  5
14936
  8
DANMEN
  6
CONTINUOUS
 10
99.850009
 20
98.500007
 30
0.0
 11
100.300009
 21
98.500007
 31
0.0
  0
LINE
  5
14937
  8
DANMEN
  6
CONTINUOUS
 10
98.700009
 20
96.850007
 30
0.0
 11
99.800009
 21
96.850007
 31
0.0
  0
ARC
  5
14938
  8
DANMEN
  6
CONTINUOUS
 10
100.300009
 20
97.500007
 30
0.0
 40
1.0
 50
0.0
 51
90.0
  0
LINE
  5
14939
  8
DANMEN
  6
DASHED
 10
104.5
 20
99.0
 30
0.0
 11
104.5
 21
99.699997
 31
0.0
  0
LINE
  5
1493D
  8
DANMEN
  6
CONTINUOUS
 10
102.85001
 20
98.300007
 30
0.0
 11
103.30001
 21
98.300007
 31
0.0
  0
ARC
  5
1493E
  8
DANMEN
  6
CONTINUOUS
 10
103.300009
 20
98.500007
 30
0.0
 40
0.5
 50
270.000127
 51
0.0
  0
LINE
  5
1493F
  8
DANMEN
  6
CONTINUOUS
 10
102.55001
 20
98.000007
 30
0.0
 11
102.85001
 21
98.000007
 31
0.0
  0
LINE
  5
14940
  8
DANMEN
  6
CONTINUOUS
 10
103.30001
 20
98.000008
 30
0.0
 11
103.30001
 21
98.300007
 31
0.0
  0
LINE
  5
14941
  8
DANMEN
  6
CONTINUOUS
 10
102.85001
 20
98.000007
 30
0.0
 11
102.85001
 21
98.300007
 31
0.0
  0
LINE
  5
14942
  8
DANMEN
  6
CONTINUOUS
 10
102.55001
 20
98.000007
 30
0.0
 11
102.55001
 21
98.300007
 31
0.0
  0
LINE
  5
14943
  8
DANMEN
  6
CONTINUOUS
 10
105.0
 20
99.0
 30
0.0
 11
105.0
 21
98.5
 31
0.0
  0
LINE
  5
14945
  8
DANMEN
  6
CONTINUOUS
 10
104.0
 20
98.0
 30
0.0
 11
104.5
 21
98.0
 31
0.0
  0
ARC
  5
14947
  8
DANMEN
  6
CONTINUOUS
 10
104.5
 20
98.5
 30
0.0
 40
0.5
 50
270.0
 51
0.0
  0
LINE
  5
14949
  8
DANMEN
  6
CONTINUOUS
 10
105.000009
 20
99.000007
 30
0.0
 11
104.300009
 21
99.000006
 31
0.0
  0
ARC
  5
1494A
  8
DANMEN
  6
CONTINUOUS
 10
104.300009
 20
99.500006
 30
0.0
 40
0.5
 50
180.0
 51
270.0
  0
ARC
  5
1494B
  8
DANMEN
  6
CONTINUOUS
 10
89.700003
 20
116.350005
 30
0.0
 40
1.0
 50
0.0
 51
90.0
  0
LINE
  5
1494C
  8
DANMEN
  6
CONTINUOUS
 10
85.650009
 20
117.350005
 30
0.0
 11
85.650009
 21
100.650001
 31
0.0
  0
LINE
  5
1494D
  8
DANMEN
  6
CONTINUOUS
 10
85.650009
 20
100.650001
 30
0.0
 11
87.000009
 21
100.650001
 31
0.0
  0
LINE
  5
1494E
  8
DANMEN
  6
CONTINUOUS
 10
89.700003
 20
117.350005
 30
0.0
 11
85.650009
 21
117.350005
 31
0.0
  0
ARC
  5
1494F
  8
DANMEN
  6
CONTINUOUS
 10
98.700009
 20
103.150006
 30
0.0
 40
0.5
 50
90.0
 51
180.0
  0
LINE
  5
14950
  8
DANMEN
  6
CONTINUOUS
 10
101.386649
 20
101.300006
 30
0.0
 11
103.100009
 21
101.300006
 31
0.0
  0
LINE
  5
14951
  8
DANMEN
  6
CONTINUOUS
 10
101.104751
 20
102.000007
 30
0.0
 11
103.800009
 21
102.000007
 31
0.0
  0
LINE
  5
14952
  8
DANMEN
  6
CONTINUOUS
 10
103.284455
 20
103.650007
 30
0.0
 11
98.700009
 21
103.650006
 31
0.0
  0
LINE
  5
14953
  8
DANMEN
  6
CONTINUOUS
 10
99.850009
 20
102.000007
 30
0.0
 11
103.800009
 21
102.000007
 31
0.0
  0
ARC
  5
14954
  8
DANMEN
  6
CONTINUOUS
 10
101.104751
 20
101.500007
 30
0.0
 40
0.5
 50
89.999945
 51
199.290075
  0
LINE
  5
14955
  8
DANMEN
  6
CONTINUOUS
 10
106.522255
 20
117.350005
 30
0.0
 11
98.300007
 21
117.350005
 31
0.0
  0
LINE
  5
14956
  8
DANMEN
  6
CONTINUOUS
 10
93.200006
 20
117.400001
 30
0.0
 11
94.800006
 21
117.400002
 31
0.0
  0
LINE
  5
14957
  8
DANMEN
  6
CONTINUOUS
 10
90.700002
 20
115.069697
 30
0.0
 11
90.700003
 21
116.350004
 31
0.0
  0
LINE
  5
14958
  8
DANMEN
  6
CONTINUOUS
 10
92.900002
 20
113.800002
 30
0.0
 11
92.900002
 21
114.06307
 31
0.0
  0
ARC
  5
14959
  8
DANMEN
  6
CONTINUOUS
 10
93.200002
 20
115.153941
 30
0.0
 40
1.0
 50
179.999974
 51
245.375656
  0
ARC
  5
1495A
  8
DANMEN
  6
CONTINUOUS
 10
92.700002
 20
114.06307
 30
0.0
 40
0.2
 50
359.999974
 51
65.375656
  0
LINE
  5
1495B
  8
DANMEN
  6
CONTINUOUS
 10
92.600002
 20
113.500002
 30
0.0
 11
91.460622
 21
113.500003
 31
0.0
  0
ARC
  5
1495C
  8
DANMEN
  6
CONTINUOUS
 10
92.600002
 20
113.800002
 30
0.0
 40
0.3
 50
269.999974
 51
359.999974
  0
LINE
  5
1495D
  8
DANMEN
  6
CONTINUOUS
 10
92.200002
 20
115.153941
 30
0.0
 11
92.200003
 21
116.400002
 31
0.0
  0
ARC
  5
1495E
  8
DANMEN
  6
CONTINUOUS
 10
92.700002
 20
115.069696
 30
0.0
 40
2.0
 50
179.999974
 51
231.706497
  0
ARC
  5
1495F
  8
DANMEN
  6
CONTINUOUS
 10
93.200003
 20
116.400002
 30
0.0
 40
1.0
 50
89.999974
 51
179.999974
  0
ARC
  5
14960
  8
DANMEN
  6
CONTINUOUS
 10
95.300007
 20
115.069696
 30
0.0
 40
2.0
 50
308.293503
 51
0.000026
  0
LINE
  5
14961
  8
DANMEN
  6
CONTINUOUS
 10
95.800007
 20
115.153941
 30
0.0
 11
95.800007
 21
116.400002
 31
0.0
  0
ARC
  5
14962
  8
DANMEN
  6
CONTINUOUS
 10
95.400008
 20
113.800002
 30
0.0
 40
0.3
 50
180.000026
 51
270.000026
  0
LINE
  5
14963
  8
DANMEN
  6
CONTINUOUS
 10
95.400008
 20
113.500002
 30
0.0
 11
96.539387
 21
113.500003
 31
0.0
  0
ARC
  5
14964
  8
DANMEN
  6
CONTINUOUS
 10
95.300008
 20
114.06307
 30
0.0
 40
0.2
 50
114.624344
 51
180.000026
  0
ARC
  5
14965
  8
DANMEN
  6
CONTINUOUS
 10
94.800007
 20
115.153941
 30
0.0
 40
1.0
 50
294.624344
 51
0.000026
  0
LINE
  5
14966
  8
DANMEN
  6
CONTINUOUS
 10
95.100008
 20
113.800002
 30
0.0
 11
95.100008
 21
114.06307
 31
0.0
  0
ARC
  5
14967
  8
DANMEN
  6
CONTINUOUS
 10
94.800007
 20
116.400002
 30
0.0
 40
1.0
 50
0.000026
 51
90.000026
  0
LINE
  5
14968
  8
DANMEN
  6
CONTINUOUS
 10
97.300007
 20
115.069697
 30
0.0
 11
97.300007
 21
116.350004
 31
0.0
  0
ARC
  5
14969
  8
DANMEN
  6
CONTINUOUS
 10
98.300007
 20
116.350005
 30
0.0
 40
1.0
 50
90.0
 51
180.0
  0
LINE
  5
1496A
  8
DANMEN
  6
CONTINUOUS
 10
111.31756
 20
111.00832
 30
0.0
 11
111.30001
 21
94.520979
 31
0.0
  0
LINE
  5
1496B
  8
DANMEN
  6
CONTINUOUS
 10
112.517555
 20
111.354639
 30
0.0
 11
112.004224
 21
95.029237
 31
0.0
  0
LINE
  5
1496C
  8
DANMEN
  6
CONTINUOUS
 10
111.017555
 20
110.997915
 30
0.0
 11
111.0
 21
94.5
 31
0.0
  0
LINE
  5
1496D
  8
DANMEN
  6
CONTINUOUS
 10
115.0
 20
111.294292
 30
0.0
 11
115.0
 21
99.0
 31
0.0
  0
LINE
  5
1496E
  8
DANMEN
  6
CONTINUOUS
 10
113.350006
 20
111.197827
 30
0.0
 11
113.350006
 21
99.0
 31
0.0
  0
LINE
  5
1496F
  8
DANMEN
  6
CONTINUOUS
 10
113.35
 20
92.2
 30
0.0
 11
113.35
 21
81.0
 31
0.0
  0
ARC
  5
14972
  8
DANMEN
  6
CONTINUOUS
 10
114.5
 20
98.5
 30
0.0
 40
0.5
 50
0.0
 51
90.0
  0
ARC
  5
14973
  8
DANMEN
  6
CONTINUOUS
 10
111.504277
 20
95.036483
 30
0.0
 40
0.5
 50
274.0
 51
359.16958
  0
LINE
  5
14974
  8
DANMEN
  6
CONTINUOUS
 10
113.35
 20
98.5
 30
0.0
 11
113.35
 21
94.0
 31
0.0
  0
LINE
  5
14978
  8
DANMEN
  6
CONTINUOUS
 10
111.0
 20
94.5
 30
0.0
 11
111.539155
 21
94.537701
 31
0.0
  0
LINE
  5
1497B
  8
DANMEN
  6
CONTINUOUS
 10
113.85
 20
99.0
 30
0.0
 11
114.5
 21
99.0
 31
0.0
  0
ARC
  5
1497C
  8
DANMEN
  6
CONTINUOUS
 10
113.85
 20
98.5
 30
0.0
 40
0.5
 50
90.0
 51
180.0
  0
LINE
  5
14980
  8
DANMEN
  6
CONTINUOUS
 10
112.517555
 20
117.497915
 30
0.0
 11
112.517555
 21
110.997915
 31
0.0
  0
LINE
  5
14981
  8
DANMEN
  6
CONTINUOUS
 10
111.317555
 20
115.497915
 30
0.0
 11
111.317555
 21
110.987367
 31
0.0
  0
LINE
  5
14982
  8
DANMEN
  6
CONTINUOUS
 10
111.017555
 20
115.497915
 30
0.0
 11
111.017555
 21
110.997915
 31
0.0
  0
ARC
  5
14986
  8
DANMEN
  6
CONTINUOUS
 10
114.517555
 20
117.497915
 30
0.0
 40
2.0
 50
89.999982
 51
180.000019
  0
LINE
  5
14989
  8
DANMEN
  6
CONTINUOUS
 10
111.017555
 20
115.497915
 30
0.0
 11
112.517555
 21
115.497915
 31
0.0
  0
LINE
  5
1498D
  8
DANMEN
  6
CONTINUOUS
 10
145.717555
 20
118.997915
 30
0.0
 11
145.717555
 21
115.840276
 31
0.0
  0
ARC
  5
1498F
  8
DANMEN
  6
CONTINUOUS
 10
143.717555
 20
115.840276
 30
0.0
 40
2.0
 50
274.698681
 51
0.0
  0
ARC
  5
14994
  8
DANMEN
  6
CONTINUOUS
 10
145.217555
 20
118.997915
 30
0.0
 40
0.5
 50
0.0
 51
89.999982
  0
LINE
  5
14996
  8
DANMEN
  6
CONTINUOUS
 10
182.649994
 20
95.649991
 30
0.0
 11
189.350006
 21
95.649991
 31
0.0
  0
ARC
  5
14997
  8
DANMEN
  6
CONTINUOUS
 10
181.5
 20
94.499997
 30
0.0
 40
0.5
 50
180.000036
 51
269.999963
  0
ARC
  5
1499C
  8
DANMEN
  6
CONTINUOUS
 10
181.5
 20
99.499997
 30
0.0
 40
0.5
 50
89.999982
 51
180.000019
  0
ARC
  5
1499D
  8
DANMEN
  6
CONTINUOUS
 10
182.149994
 20
99.499997
 30
0.0
 40
0.5
 50
359.999981
 51
89.999982
  0
LINE
  5
1499E
  8
DANMEN
  6
CONTINUOUS
 10
182.649994
 20
99.499997
 30
0.0
 11
182.649994
 21
95.649991
 31
0.0
  0
LINE
  5
1499F
  8
DANMEN
  6
CONTINUOUS
 10
181.0
 20
99.499997
 30
0.0
 11
181.0
 21
94.499997
 31
0.0
  0
LINE
  5
149A0
  8
DANMEN
  6
CONTINUOUS
 10
181.5
 20
99.999997
 30
0.0
 11
182.149994
 21
99.999997
 31
0.0
  0
LINE
  5
149A1
  8
DANMEN
  6
CONTINUOUS
 10
191.0
 20
95.099997
 30
0.0
 11
193.0
 21
95.099997
 31
0.0
  0
LINE
  5
149A5
  8
DANMEN
  6
CONTINUOUS
 10
193.0
 20
95.649991
 30
0.0
 11
193.0
 21
95.099997
 31
0.0
  0
ARC
  5
149A7
  8
DANMEN
  6
CONTINUOUS
 10
73.299985
 20
230.500092
 30
0.0
 40
0.5
 50
0.0
 51
89.999982
  0
ARC
  5
149A8
  8
DANMEN
  6
CONTINUOUS
 10
73.299985
 20
188.500092
 30
0.0
 40
0.5
 50
270.000018
 51
0.0
  0
LINE
  5
149A9
  8
DANMEN
  6
CONTINUOUS
 10
84.65
 20
251.600012
 30
0.0
 11
66.4
 21
251.600012
 31
0.0
  0
LINE
  5
149AA
  8
DANMEN
  6
CONTINUOUS
 10
84.0
 20
249.950012
 30
0.0
 11
68.5
 21
249.950012
 31
0.0
  0
LINE
  5
149AC
  8
DANMEN
  6
CONTINUOUS
 10
50.5
 20
258.0
 30
0.0
 11
109.5
 21
258.0
 31
0.0
  0
LINE
  5
149AD
  8
DANMEN
  6
CONTINUOUS
 10
68.0
 20
231.0
 30
0.0
 11
83.95
 21
231.0
 31
0.0
  0
LINE
  5
149AE
  8
DANMEN
  6
CONTINUOUS
 10
54.199985
 20
230.500092
 30
0.0
 11
54.199985
 21
188.500092
 31
0.0
  0
LINE
  5
149AF
  8
DANMEN
  6
CONTINUOUS
 10
55.299984
 20
223.000092
 30
0.0
 11
55.299984
 21
204.500092
 31
0.0
  0
LINE
  5
149B0
  8
DANMEN
  6
CONTINUOUS
 10
72.699988
 20
230.200092
 30
0.0
 11
72.699988
 21
204.500092
 31
0.0
  0
LINE
  5
149B1
  8
DANMEN
  6
CONTINUOUS
 10
45.0
 20
223.5
 30
0.0
 11
45.0
 21
172.0
 31
0.0
  0
LINE
  5
149B2
  8
DANMEN
  6
CONTINUOUS
 10
52.0
 20
231.0
 30
0.0
 11
52.0
 21
172.0
 31
0.0
  0
LINE
  5
149B3
  8
DANMEN
  6
CONTINUOUS
 10
46.649994
 20
223.5
 30
0.0
 11
46.649994
 21
172.0
 31
0.0
  0
LINE
  5
149B4
  8
DANMEN
  6
CONTINUOUS
 10
60.0
 20
224.258575
 30
0.0
 11
60.0
 21
212.0
 31
0.0
  0
LINE
  5
149B5
  8
DANMEN
  6
CONTINUOUS
 10
68.0
 20
231.0
 30
0.0
 11
68.0
 21
212.0
 31
0.0
  0
ARC
  5
149C2
  8
DANMEN
  6
CONTINUOUS
 10
57.500015
 20
162.999908
 30
0.0
 40
1.5
 50
90.000018
 51
180.0
  0
LINE
  5
149C3
  8
DANMEN
  6
CONTINUOUS
 10
56.000015
 20
162.0
 30
0.0
 11
56.000015
 21
169.0
 31
0.0
  0
LINE
  5
149D5
  8
DANMEN
  6
CONTINUOUS
 10
66.500009
 20
155.0
 30
0.0
 11
66.500009
 21
169.0
 31
0.0
  0
LINE
  5
149D6
  8
DANMEN
  6
CONTINUOUS
 10
61.500021
 20
154.999985
 30
0.0
 11
61.500021
 21
169.0
 31
0.0
  0
LINE
  5
149D7
  8
DANMEN
  6
CONTINUOUS
 10
66.000009
 20
155.0
 30
0.0
 11
66.000009
 21
169.0
 31
0.0
  0
LINE
  5
149D8
  8
DANMEN
  6
CONTINUOUS
 10
62.000021
 20
154.999985
 30
0.0
 11
62.000021
 21
169.0
 31
0.0
  0
LINE
  5
149DB
  8
DANMEN
  6
CONTINUOUS
 10
66.500009
 20
154.999985
 30
0.0
 11
61.500021
 21
154.999985
 31
0.0
  0
ARC
  5
149E3
  8
DANMEN
  6
CONTINUOUS
 10
60.000006
 20
165.999908
 30
0.0
 40
1.5
 50
269.999982
 51
359.999964
  0
LINE
  5
149E4
  8
DANMEN
  6
CONTINUOUS
 10
60.000006
 20
164.499908
 30
0.0
 11
57.500015
 21
164.499908
 31
0.0
  0
ARC
  5
149E5
  8
DANMEN
  6
CONTINUOUS
 10
70.500015
 20
162.999908
 30
0.0
 40
1.5
 50
359.999964
 51
90.000001
  0
LINE
  5
149E6
  8
DANMEN
  6
CONTINUOUS
 10
72.000015
 20
162.0
 30
0.0
 11
72.000015
 21
169.0
 31
0.0
  0
LINE
  5
149F5
  8
DANMEN
  6
CONTINUOUS
 10
70.500015
 20
164.499908
 30
0.0
 11
68.000009
 21
164.499908
 31
0.0
  0
ARC
  5
149F6
  8
DANMEN
  6
CONTINUOUS
 10
68.000009
 20
165.999908
 30
0.0
 40
1.5
 50
180.0
 51
269.999982
  0
LINE
  5
149F7
  8
DANMEN
  6
CONTINUOUS
 10
55.299984
 20
203.400095
 30
0.0
 11
55.299984
 21
189.100092
 31
0.0
  0
LINE
  5
149F8
  8
DANMEN
  6
CONTINUOUS
 10
72.699988
 20
203.400095
 30
0.0
 11
72.699988
 21
189.100092
 31
0.0
  0
LINE
  5
149F9
  8
DANMEN
  6
CONTINUOUS
 10
61.499991
 20
195.0
 30
0.0
 11
61.499991
 21
172.0
 31
0.0
  0
LINE
  5
149FA
  8
DANMEN
  6
CONTINUOUS
 10
66.499979
 20
195.000015
 30
0.0
 11
66.499979
 21
172.0
 31
0.0
  0
LINE
  5
149FB
  8
DANMEN
  6
CONTINUOUS
 10
61.999991
 20
195.0
 30
0.0
 11
61.999991
 21
172.0
 31
0.0
  0
LINE
  5
149FC
  8
DANMEN
  6
CONTINUOUS
 10
65.999979
 20
195.000015
 30
0.0
 11
65.999979
 21
172.0
 31
0.0
  0
ARC
  5
149FD
  8
DANMEN
  6
CONTINUOUS
 10
57.499985
 20
187.000092
 30
0.0
 40
1.5
 50
179.999964
 51
270.000001
  0
LINE
  5
149FE
  8
DANMEN
  6
CONTINUOUS
 10
56.0
 20
188.0
 30
0.0
 11
56.0
 21
172.0
 31
0.0
  0
ARC
  5
149FF
  8
DANMEN
  6
CONTINUOUS
 10
56.850116
 20
190.500092
 30
0.0
 40
0.5
 50
90.0
 51
173.990994
  0
LINE
  5
14A00
  8
DANMEN
  6
CONTINUOUS
 10
56.352863
 20
190.552434
 30
0.0
 11
56.199985
 21
189.100092
 31
0.0
  0
LINE
  5
14A03
  8
DANMEN
  6
CONTINUOUS
 10
55.299984
 20
189.100092
 30
0.0
 11
56.199985
 21
189.100092
 31
0.0
  0
LINE
  5
14A05
  8
DANMEN
  6
CONTINUOUS
 10
54.699985
 20
188.000092
 30
0.0
 11
56.499985
 21
188.000092
 31
0.0
  0
LINE
  5
14A06
  8
DANMEN
  6
CONTINUOUS
 10
56.999985
 20
191.000092
 30
0.0
 11
56.999985
 21
188.500092
 31
0.0
  0
LINE
  5
14A07
  8
DANMEN
  6
CONTINUOUS
 10
56.850116
 20
191.000092
 30
0.0
 11
56.999985
 21
191.000092
 31
0.0
  0
ARC
  5
14A0B
  8
DANMEN
  6
CONTINUOUS
 10
54.699985
 20
188.500092
 30
0.0
 40
0.5
 50
180.000019
 51
270.000001
  0
ARC
  5
14A0D
  8
DANMEN
  6
CONTINUOUS
 10
56.499985
 20
188.500092
 30
0.0
 40
0.5
 50
270.000018
 51
0.0
  0
LINE
  5
14A0E
  8
DANMEN
  6
CONTINUOUS
 10
72.0
 20
188.0
 30
0.0
 11
72.0
 21
172.0
 31
0.0
  0
ARC
  5
14A0F
  8
DANMEN
  6
CONTINUOUS
 10
59.999991
 20
184.000092
 30
0.0
 40
1.5
 50
0.0
 51
89.999982
  0
LINE
  5
14A10
  8
DANMEN
  6
CONTINUOUS
 10
57.499985
 20
185.500092
 30
0.0
 11
59.999991
 21
185.500092
 31
0.0
  0
LINE
  5
14A13
  8
DANMEN
  6
CONTINUOUS
 10
67.999994
 20
185.500092
 30
0.0
 11
70.499985
 21
185.500092
 31
0.0
  0
ARC
  5
14A14
  8
DANMEN
  6
CONTINUOUS
 10
67.999994
 20
184.000092
 30
0.0
 40
1.5
 50
89.999982
 51
179.999964
  0
ARC
  5
14A15
  8
DANMEN
  6
CONTINUOUS
 10
70.499985
 20
187.000092
 30
0.0
 40
1.5
 50
270.000018
 51
0.0
  0
ARC
  5
14A16
  8
DANMEN
  6
CONTINUOUS
 10
71.499985
 20
188.500092
 30
0.0
 40
0.5
 50
180.0
 51
270.0
  0
LINE
  5
14A18
  8
DANMEN
  6
CONTINUOUS
 10
71.149854
 20
191.000092
 30
0.0
 11
70.999985
 21
191.000092
 31
0.0
  0
LINE
  5
14A19
  8
DANMEN
  6
CONTINUOUS
 10
70.999985
 20
191.000092
 30
0.0
 11
70.999985
 21
188.500092
 31
0.0
  0
LINE
  5
14A1C
  8
DANMEN
  6
CONTINUOUS
 10
71.647106
 20
190.552434
 30
0.0
 11
71.799985
 21
189.100092
 31
0.0
  0
ARC
  5
14A1D
  8
DANMEN
  6
CONTINUOUS
 10
71.149854
 20
190.500092
 30
0.0
 40
0.5
 50
6.009006
 51
90.0
  0
LINE
  5
14A1E
  8
DANMEN
  6
CONTINUOUS
 10
72.699985
 20
189.100092
 30
0.0
 11
71.799985
 21
189.100092
 31
0.0
  0
LINE
  5
14A1F
  8
DANMEN
  6
CONTINUOUS
 10
71.499985
 20
188.000092
 30
0.0
 11
73.299985
 21
188.000092
 31
0.0
  0
LINE
  5
14A20
  8
DANMEN
  6
CONTINUOUS
 10
55.299984
 20
204.500092
 30
0.0
 11
60.999986
 21
204.500092
 31
0.0
  0
LINE
  5
14A21
  8
DANMEN
  6
CONTINUOUS
 10
55.299984
 20
203.400095
 30
0.0
 11
59.699986
 21
203.400095
 31
0.0
  0
LINE
  5
14A24
  8
DANMEN
  6
CONTINUOUS
 10
61.199986
 20
204.300092
 30
0.0
 11
66.799986
 21
204.300092
 31
0.0
  0
ARC
  5
14A25
  8
DANMEN
  6
CONTINUOUS
 10
64.799984
 20
201.800091
 30
0.0
 40
1.0
 50
359.999945
 51
89.999982
  0
ARC
  5
14A26
  8
DANMEN
  6
CONTINUOUS
 10
64.799984
 20
200.554031
 30
0.0
 40
1.0
 50
294.62438
 51
0.0
  0
LINE
  5
14A27
  8
DANMEN
  6
CONTINUOUS
 10
65.399984
 20
198.900092
 30
0.0
 11
66.539715
 21
198.900092
 31
0.0
  0
LINE
  5
14A28
  8
DANMEN
  6
CONTINUOUS
 10
61.499991
 20
195.000015
 30
0.0
 11
66.499979
 21
195.000015
 31
0.0
  0
ARC
  5
14A29
  8
DANMEN
  6
CONTINUOUS
 10
62.699986
 20
200.469509
 30
0.0
 40
2.0
 50
180.000019
 51
231.693677
  0
ARC
  5
14A2A
  8
DANMEN
  6
CONTINUOUS
 10
62.599986
 20
199.200092
 30
0.0
 40
0.3
 50
270.000018
 51
0.0
  0
ARC
  5
14A2B
  8
DANMEN
  6
CONTINUOUS
 10
65.399984
 20
199.200092
 30
0.0
 40
0.3
 50
180.000019
 51
270.000055
  0
LINE
  5
14A2C
  8
DANMEN
  6
CONTINUOUS
 10
61.460255
 20
198.900092
 30
0.0
 11
62.599986
 21
198.900092
 31
0.0
  0
LINE
  5
14A2D
  8
DANMEN
  6
CONTINUOUS
 10
60.999986
 20
204.500092
 30
0.0
 11
61.199986
 21
204.300092
 31
0.0
  0
ARC
  5
14A30
  8
DANMEN
  6
CONTINUOUS
 10
59.699986
 20
202.400095
 30
0.0
 40
1.0
 50
0.0
 51
90.0
  0
LINE
  5
14A31
  8
DANMEN
  6
CONTINUOUS
 10
60.699986
 20
202.400095
 30
0.0
 11
60.699986
 21
200.469509
 31
0.0
  0
LINE
  5
14A34
  8
DANMEN
  6
CONTINUOUS
 10
65.099984
 20
199.200092
 30
0.0
 11
65.099984
 21
199.463161
 31
0.0
  0
LINE
  5
14A35
  8
DANMEN
  6
CONTINUOUS
 10
62.199986
 20
201.80009
 30
0.0
 11
62.199986
 21
200.554031
 31
0.0
  0
LINE
  5
14A36
  8
DANMEN
  6
CONTINUOUS
 10
63.199986
 20
202.800091
 30
0.0
 11
64.799984
 21
202.800091
 31
0.0
  0
ARC
  5
14A37
  8
DANMEN
  6
CONTINUOUS
 10
63.199986
 20
201.800091
 30
0.0
 40
1.0
 50
89.999982
 51
180.000019
  0
LINE
  5
14A38
  8
DANMEN
  6
CONTINUOUS
 10
62.899985
 20
199.463161
 30
0.0
 11
62.899985
 21
199.200092
 31
0.0
  0
ARC
  5
14A39
  8
DANMEN
  6
CONTINUOUS
 10
63.199986
 20
200.554031
 30
0.0
 40
1.0
 50
180.000019
 51
245.375639
  0
ARC
  5
14A3A
  8
DANMEN
  6
CONTINUOUS
 10
62.699986
 20
199.463161
 30
0.0
 40
0.2
 50
0.0
 51
65.375675
  0
ARC
  5
14A3B
  8
DANMEN
  6
CONTINUOUS
 10
65.299984
 20
199.463161
 30
0.0
 40
0.2
 50
114.624344
 51
180.000019
  0
ARC
  5
14A3C
  8
DANMEN
  6
CONTINUOUS
 10
65.299984
 20
200.469509
 30
0.0
 40
2.0
 50
308.306342
 51
359.999945
  0
LINE
  5
14A3D
  8
DANMEN
  6
CONTINUOUS
 10
66.999986
 20
204.500092
 30
0.0
 11
72.699988
 21
204.500092
 31
0.0
  0
LINE
  5
14A3E
  8
DANMEN
  6
CONTINUOUS
 10
68.299984
 20
203.400095
 30
0.0
 11
72.699988
 21
203.400095
 31
0.0
  0
LINE
  5
14A3F
  8
DANMEN
  6
CONTINUOUS
 10
66.999986
 20
204.500092
 30
0.0
 11
66.799986
 21
204.300092
 31
0.0
  0
ARC
  5
14A42
  8
DANMEN
  6
CONTINUOUS
 10
68.299984
 20
202.400095
 30
0.0
 40
1.0
 50
90.0
 51
180.0
  0
LINE
  5
14A43
  8
DANMEN
  6
CONTINUOUS
 10
65.799984
 20
200.554031
 30
0.0
 11
65.799984
 21
201.80009
 31
0.0
  0
LINE
  5
14A44
  8
DANMEN
  6
CONTINUOUS
 10
67.299984
 20
200.469509
 30
0.0
 11
67.299984
 21
202.400095
 31
0.0
  0
ARC
  5
14A47
  8
DANMEN
  6
CONTINUOUS
 10
64.0
 20
212.0
 30
0.0
 40
4.0
 50
180.000019
 51
359.999983
  0
LINE
  5
14A48
  8
DANMEN
  6
CONTINUOUS
 10
63.6
 20
246.0
 30
0.0
 11
63.6
 21
235.101833
 31
0.0
  0
LINE
  5
14A49
  8
DANMEN
  6
CONTINUOUS
 10
65.25
 20
246.0
 30
0.0
 11
65.25
 21
225.061553
 31
0.0
  0
LINE
  5
14A4A
  8
DANMEN
  6
CONTINUOUS
 10
46.649994
 20
246.0
 30
0.0
 11
46.649994
 21
223.5
 31
0.0
  0
LINE
  5
14A4B
  8
DANMEN
  6
CONTINUOUS
 10
45.0
 20
257.5
 30
0.0
 11
45.0
 21
223.5
 31
0.0
  0
ARC
  5
14A4C
  8
DANMEN
  6
CONTINUOUS
 10
57.4
 20
224.199999
 30
0.0
 40
0.2
 50
180.0
 51
269.999982
  0
ARC
  5
14A4D
  8
DANMEN
  6
CONTINUOUS
 10
57.4
 20
229.5
 30
0.0
 40
0.2
 50
90.000018
 51
180.0
  0
LINE
  5
14A4E
  8
DANMEN
  6
CONTINUOUS
 10
57.2
 20
228.5
 30
0.0
 11
58.0
 21
227.7
 31
0.0
  0
LINE
  5
14A4F
  8
DANMEN
  6
CONTINUOUS
 10
58.0
 20
226.0
 30
0.0
 11
57.2
 21
225.2
 31
0.0
  0
LINE
  5
14A50
  8
DANMEN
  6
CONTINUOUS
 10
54.699985
 20
231.000092
 30
0.0
 11
58.699985
 21
231.000092
 31
0.0
  0
LINE
  5
14A51
  8
DANMEN
  6
CONTINUOUS
 10
55.299984
 20
223.000092
 30
0.0
 11
58.699985
 21
223.000092
 31
0.0
  0
LINE
  5
14A52
  8
DANMEN
  6
CONTINUOUS
 10
55.299984
 20
230.000092
 30
0.0
 11
58.399985
 21
230.000092
 31
0.0
  0
LINE
  5
14A53
  8
DANMEN
  6
CONTINUOUS
 10
55.299984
 20
223.800095
 30
0.0
 11
58.399985
 21
223.800095
 31
0.0
  0
LINE
  5
14A54
  8
DANMEN
  6
CONTINUOUS
 10
55.299984
 20
230.000092
 30
0.0
 11
55.299984
 21
223.800095
 31
0.0
  0
ARC
  5
14A56
  8
DANMEN
  6
CONTINUOUS
 10
45.5
 20
223.5
 30
0.0
 40
0.5
 50
180.000019
 51
270.000001
  0
ARC
  5
14A59
  8
DANMEN
  6
CONTINUOUS
 10
46.149994
 20
223.5
 30
0.0
 40
0.5
 50
270.000018
 51
0.0
  0
LINE
  5
14A5A
  8
DANMEN
  6
CONTINUOUS
 10
45.5
 20
223.0
 30
0.0
 11
46.149994
 21
223.0
 31
0.0
  0
LINE
  5
14A5D
  8
DANMEN
  6
CONTINUOUS
 10
57.2
 20
225.199999
 30
0.0
 11
57.2
 21
224.199999
 31
0.0
  0
LINE
  5
14A63
  8
DANMEN
  6
CONTINUOUS
 10
52.0
 20
231.0
 30
0.0
 11
55.0
 21
231.0
 31
0.0
  0
LINE
  5
14A64
  8
DANMEN
  6
CONTINUOUS
 10
57.2
 20
229.5
 30
0.0
 11
57.2
 21
228.5
 31
0.0
  0
ARC
  5
14A68
  8
DANMEN
  6
CONTINUOUS
 10
54.699985
 20
230.500092
 30
0.0
 40
0.5
 50
89.999982
 51
180.000019
  0
ARC
  5
14A6A
  8
DANMEN
  6
CONTINUOUS
 10
59.6
 20
228.1
 30
0.0
 40
0.4
 50
269.999999
 51
359.999981
  0
ARC
  5
14A6B
  8
DANMEN
  6
CONTINUOUS
 10
50.825654
 20
224.969002
 30
0.0
 40
12.0
 50
7.283147
 51
30.171056
  0
ARC
  5
14A6C
  8
DANMEN
  6
CONTINUOUS
 10
50.892022
 20
224.519121
 30
0.0
 40
11.5
 50
9.50078
 51
29.603137
  0
LINE
  5
14A6D
  8
DANMEN
  6
CONTINUOUS
 10
62.75
 20
232.898149
 30
0.0
 11
62.75
 21
225.061553
 31
0.0
  0
LINE
  5
14A6E
  8
DANMEN
  6
CONTINUOUS
 10
58.0
 20
224.0
 30
0.0
 11
57.4
 21
224.0
 31
0.0
  0
LINE
  5
14A6F
  8
DANMEN
  6
CONTINUOUS
 10
59.2
 20
225.199999
 30
0.0
 11
59.2
 21
224.199999
 31
0.0
  0
ARC
  5
14A71
  8
DANMEN
  6
CONTINUOUS
 10
58.0
 20
224.199999
 30
0.0
 40
0.2
 50
269.999999
 51
359.999981
  0
LINE
  5
14A72
  8
DANMEN
  6
CONTINUOUS
 10
58.2
 20
225.199999
 30
0.0
 11
58.2
 21
224.199999
 31
0.0
  0
LINE
  5
14A73
  8
DANMEN
  6
CONTINUOUS
 10
59.600001
 20
224.199999
 30
0.0
 11
59.2
 21
224.199999
 31
0.0
  0
LINE
  5
14A75
  8
DANMEN
  6
CONTINUOUS
 10
59.2
 20
225.199999
 30
0.0
 11
58.2
 21
225.199999
 31
0.0
  0
LINE
  5
14A78
  8
DANMEN
  6
CONTINUOUS
 10
59.8
 20
225.7
 30
0.0
 11
59.8
 21
224.399999
 31
0.0
  0
ARC
  5
14A7A
  8
DANMEN
  6
CONTINUOUS
 10
59.600001
 20
224.399999
 30
0.0
 40
0.2
 50
269.999999
 51
359.999981
  0
LINE
  5
14A7B
  8
DANMEN
  6
CONTINUOUS
 10
59.6
 20
227.7
 30
0.0
 11
59.2
 21
227.7
 31
0.0
  0
LINE
  5
14A7E
  8
DANMEN
  6
CONTINUOUS
 10
58.0
 20
227.7
 30
0.0
 11
58.0
 21
226.0
 31
0.0
  0
LINE
  5
14A81
  8
DANMEN
  6
CONTINUOUS
 10
59.2
 20
227.7
 30
0.0
 11
59.2
 21
226.0
 31
0.0
  0
ARC
  5
14A84
  8
DANMEN
  6
CONTINUOUS
 10
61.25
 20
227.25
 30
0.0
 40
0.15
 50
332.128821
 51
152.128843
  0
LINE
  5
14A88
  8
DANMEN
  6
CONTINUOUS
 10
60.419281
 20
226.0
 30
0.0
 11
59.2
 21
226.0
 31
0.0
  0
LINE
  5
14A89
  8
DANMEN
  6
CONTINUOUS
 10
60.6
 20
225.7
 30
0.0
 11
59.8
 21
225.7
 31
0.0
  0
LINE
  5
14A8B
  8
DANMEN
  6
CONTINUOUS
 10
61.3826
 20
227.179877
 30
0.0
 11
60.6
 21
225.7
 31
0.0
  0
LINE
  5
14A8C
  8
DANMEN
  6
CONTINUOUS
 10
61.1174
 20
227.320122
 30
0.0
 11
60.419282
 21
226.0
 31
0.0
  0
LINE
  5
14A91
  8
DANMEN
  6
CONTINUOUS
 10
58.399985
 20
225.200089
 30
0.0
 11
58.699985
 21
225.200089
 31
0.0
  0
LINE
  5
14A92
  8
DANMEN
  6
CONTINUOUS
 10
58.399985
 20
225.200089
 30
0.0
 11
58.399985
 21
223.800095
 31
0.0
  0
LINE
  5
14A93
  8
DANMEN
  6
CONTINUOUS
 10
59.199985
 20
224.700089
 30
0.0
 11
59.199985
 21
223.500092
 31
0.0
  0
ARC
  5
14A95
  8
DANMEN
  6
CONTINUOUS
 10
58.699985
 20
224.700089
 30
0.0
 40
0.5
 50
0.0
 51
89.999982
  0
ARC
  5
14A99
  8
DANMEN
  6
CONTINUOUS
 10
58.699985
 20
223.500092
 30
0.0
 40
0.5
 50
270.000018
 51
0.0
  0
ARC
  5
14A9A
  8
DANMEN
  6
CONTINUOUS
 10
62.480851
 20
226.458588
 30
0.0
 40
0.25
 50
189.50078
 51
7.283147
  0
ARC
  5
14AA2
  8
DANMEN
  6
CONTINUOUS
 10
64.75
 20
225.061553
 30
0.0
 40
0.5
 50
345.963757
 51
0.0
  0
ARC
  5
14AA3
  8
DANMEN
  6
CONTINUOUS
 10
63.25
 20
225.061553
 30
0.0
 40
0.5
 50
180.0
 51
194.036243
  0
ARC
  5
14AA4
  8
DANMEN
  6
CONTINUOUS
 10
64.359612
 20
223.5
 30
0.0
 40
0.5
 50
270.0
 51
345.963757
  0
ARC
  5
14AA5
  8
DANMEN
  6
CONTINUOUS
 10
63.640388
 20
223.5
 30
0.0
 40
0.5
 50
194.036243
 51
270.0
  0
LINE
  5
14AA6
  8
DANMEN
  6
CONTINUOUS
 10
63.155317
 20
223.378732
 30
0.0
 11
62.764929
 21
224.940285
 31
0.0
  0
LINE
  5
14AA7
  8
DANMEN
  6
CONTINUOUS
 10
65.235071
 20
224.940285
 30
0.0
 11
64.844683
 21
223.378732
 31
0.0
  0
LINE
  5
14AA8
  8
DANMEN
  6
CONTINUOUS
 10
63.640388
 20
223.0
 30
0.0
 11
64.359612
 21
223.0
 31
0.0
  0
LINE
  5
14AA9
  8
DANMEN
  6
CONTINUOUS
 10
63.560165
 20
234.906263
 30
0.0
 11
62.789835
 21
233.09372
 31
0.0
  0
LINE
  5
14AAB
  8
DANMEN
  6
CONTINUOUS
 10
61.2
 20
231.0
 30
0.0
 11
59.2
 21
231.0
 31
0.0
  0
LINE
  5
14AAC
  8
DANMEN
  6
CONTINUOUS
 10
58.0
 20
229.699999
 30
0.0
 11
57.4
 21
229.699999
 31
0.0
  0
LINE
  5
14AAD
  8
DANMEN
  6
CONTINUOUS
 10
58.2
 20
229.5
 30
0.0
 11
58.2
 21
228.5
 31
0.0
  0
ARC
  5
14AAF
  8
DANMEN
  6
CONTINUOUS
 10
58.0
 20
229.5
 30
0.0
 40
0.2
 50
359.999981
 51
90.000018
  0
LINE
  5
14AB0
  8
DANMEN
  6
CONTINUOUS
 10
59.2
 20
228.5
 30
0.0
 11
58.2
 21
228.5
 31
0.0
  0
LINE
  5
14AB2
  8
DANMEN
  6
CONTINUOUS
 10
59.2
 20
231.0
 30
0.0
 11
59.2
 21
228.5
 31
0.0
  0
LINE
  5
14AB5
  8
DANMEN
  6
CONTINUOUS
 10
60.0
 20
230.2
 30
0.0
 11
60.0
 21
228.1
 31
0.0
  0
LINE
  5
14AB8
  8
DANMEN
  6
CONTINUOUS
 10
60.890903
 20
230.2
 30
0.0
 11
60.0
 21
230.2
 31
0.0
  0
LINE
  5
14AB9
  8
DANMEN
  6
CONTINUOUS
 10
59.199985
 20
230.500092
 30
0.0
 11
59.199985
 21
229.300095
 31
0.0
  0
LINE
  5
14ABA
  8
DANMEN
  6
CONTINUOUS
 10
58.399985
 20
228.800095
 30
0.0
 11
58.699985
 21
228.800095
 31
0.0
  0
LINE
  5
14ABB
  8
DANMEN
  6
CONTINUOUS
 10
58.399985
 20
230.000092
 30
0.0
 11
58.399985
 21
228.800095
 31
0.0
  0
ARC
  5
14ABD
  8
DANMEN
  6
CONTINUOUS
 10
58.699985
 20
230.500092
 30
0.0
 40
0.5
 50
0.0
 51
89.999982
  0
ARC
  5
14AC1
  8
DANMEN
  6
CONTINUOUS
 10
58.699985
 20
229.300095
 30
0.0
 40
0.5
 50
270.000018
 51
0.0
  0
LINE
  5
14AC2
  8
DANMEN
  6
CONTINUOUS
 10
58.5
 20
231.0
 30
0.0
 11
59.2
 21
231.0
 31
0.0
  0
ARC
  5
14AC4
  8
DANMEN
  6
CONTINUOUS
 10
63.25
 20
232.898149
 30
0.0
 40
0.5
 50
156.974508
 51
180.0
  0
ARC
  5
14AC7
  8
DANMEN
  6
CONTINUOUS
 10
63.1
 20
235.101833
 30
0.0
 40
0.5
 50
336.974508
 51
0.0
  0
ARC
  5
14ACB
  8
DANMEN
  6
CONTINUOUS
 10
72.349985
 20
230.500092
 30
0.0
 40
0.5
 50
90.0
 51
180.0
  0
LINE
  5
14ACC
  8
DANMEN
  6
CONTINUOUS
 10
71.849985
 20
230.500092
 30
0.0
 11
71.849985
 21
230.200092
 31
0.0
  0
LINE
  5
14ACE
  8
DANMEN
  6
CONTINUOUS
 10
72.699988
 20
230.200092
 30
0.0
 11
71.849985
 21
230.200092
 31
0.0
  0
LINE
  5
14ACF
  8
DANMEN
  6
CONTINUOUS
 10
73.299983
 20
231.000092
 30
0.0
 11
72.349985
 21
231.000092
 31
0.0
  0
LINE
  5
14AD0
  8
DANMEN
  6
CONTINUOUS
 10
46.649994
 20
247.649994
 30
0.0
 11
60.699997
 21
247.649994
 31
0.0
  0
LINE
  5
14AD1
  8
DANMEN
  6
CONTINUOUS
 10
46.649994
 20
246.0
 30
0.0
 11
63.6
 21
246.0
 31
0.0
  0
LINE
  5
14AD2
  8
DANMEN
  6
CONTINUOUS
 10
46.649994
 20
256.350006
 30
0.0
 11
46.649994
 21
247.65
 31
0.0
  0
LINE
  5
14AD5
  8
DANMEN
  6
CONTINUOUS
 10
50.5
 20
258.0
 30
0.0
 11
45.5
 21
258.0
 31
0.0
  0
LINE
  5
14AD6
  8
DANMEN
  6
CONTINUOUS
 10
50.5
 20
256.350006
 30
0.0
 11
46.649994
 21
256.350006
 31
0.0
  0
ARC
  5
14AD7
  8
DANMEN
  6
CONTINUOUS
 10
45.5
 20
257.5
 30
0.0
 40
0.5
 50
90.0
 51
180.0
  0
LINE
  5
14AD8
  8
DANMEN
  6
CONTINUOUS
 10
51.0
 20
257.5
 30
0.0
 11
51.0
 21
256.850006
 31
0.0
  0
ARC
  5
14ADA
  8
DANMEN
  6
CONTINUOUS
 10
50.5
 20
256.850006
 30
0.0
 40
0.5
 50
269.999999
 51
359.999981
  0
ARC
  5
14ADD
  8
DANMEN
  6
CONTINUOUS
 10
50.5
 20
257.5
 30
0.0
 40
0.5
 50
359.999981
 51
90.000018
  0
LINE
  5
14ADE
  8
DANMEN
  6
CONTINUOUS
 10
63.9
 20
251.3
 30
0.0
 11
63.9
 21
251.036932
 31
0.0
  0
ARC
  5
14ADF
  8
DANMEN
  6
CONTINUOUS
 10
63.7
 20
250.030306
 30
0.0
 40
2.0
 50
128.293477
 51
180.0
  0
LINE
  5
14AE0
  8
DANMEN
  6
CONTINUOUS
 10
66.1
 20
251.300012
 30
0.0
 11
66.1
 21
251.036932
 31
0.0
  0
LINE
  5
14AE1
  8
DANMEN
  6
CONTINUOUS
 10
65.8
 20
247.7
 30
0.0
 11
64.2
 21
247.7
 31
0.0
  0
LINE
  5
14AE2
  8
DANMEN
  6
CONTINUOUS
 10
65.25
 20
246.0
 30
0.0
 11
69.5
 21
246.0
 31
0.0
  0
ARC
  5
14AE3
  8
DANMEN
  6
CONTINUOUS
 10
60.7
 20
248.649994
 30
0.0
 40
1.0
 50
270.0
 51
0.0
  0
ARC
  5
14AE7
  8
DANMEN
  6
CONTINUOUS
 10
64.2
 20
249.946061
 30
0.0
 40
1.0
 50
114.624318
 51
180.0
  0
ARC
  5
14AE8
  8
DANMEN
  6
CONTINUOUS
 10
63.7
 20
251.036932
 30
0.0
 40
0.2
 50
294.624318
 51
0.0
  0
LINE
  5
14AE9
  8
DANMEN
  6
CONTINUOUS
 10
61.7
 20
250.030306
 30
0.0
 11
61.7
 21
248.649994
 31
0.0
  0
LINE
  5
14AEA
  8
DANMEN
  6
CONTINUOUS
 10
63.2
 20
249.946061
 30
0.0
 11
63.2
 21
248.7
 31
0.0
  0
ARC
  5
14AEB
  8
DANMEN
  6
CONTINUOUS
 10
64.2
 20
248.7
 30
0.0
 40
1.0
 50
180.0
 51
270.0
  0
ARC
  5
14AEC
  8
DANMEN
  6
CONTINUOUS
 10
69.5
 20
246.5
 30
0.0
 40
0.5
 50
270.000018
 51
0.0
  0
LINE
  5
14AED
  8
DANMEN
  6
CONTINUOUS
 10
68.5
 20
246.8
 30
0.0
 11
70.0
 21
246.8
 31
0.0
  0
ARC
  5
14AF0
  8
DANMEN
  6
CONTINUOUS
 10
66.3
 20
251.036932
 30
0.0
 40
0.2
 50
180.0
 51
245.375682
  0
ARC
  5
14AF1
  8
DANMEN
  6
CONTINUOUS
 10
65.8
 20
249.946061
 30
0.0
 40
1.0
 50
0.0
 51
65.375682
  0
ARC
  5
14AF2
  8
DANMEN
  6
CONTINUOUS
 10
65.8
 20
248.7
 30
0.0
 40
1.0
 50
270.0
 51
0.0
  0
LINE
  5
14AF3
  8
DANMEN
  6
CONTINUOUS
 10
66.8
 20
249.946061
 30
0.0
 11
66.8
 21
248.7
 31
0.0
  0
LINE
  5
14AF4
  8
DANMEN
  6
CONTINUOUS
 10
68.5
 20
249.950012
 30
0.0
 11
68.5
 21
246.8
 31
0.0
  0
LINE
  5
14AF7
  8
DANMEN
  6
CONTINUOUS
 10
70.0
 20
246.8
 30
0.0
 11
70.0
 21
246.5
 31
0.0
  0
LINE
  5
14AF8
  8
DANMEN
  6
CONTINUOUS
 10
63.6
 20
251.6
 30
0.0
 11
62.460621
 21
251.6
 31
0.0
  0
ARC
  5
14AF9
  8
DANMEN
  6
CONTINUOUS
 10
63.6
 20
251.3
 30
0.0
 40
0.3
 50
0.0
 51
90.0
  0
ARC
  5
14AFA
  8
DANMEN
  6
CONTINUOUS
 10
66.4
 20
251.300012
 30
0.0
 40
0.3
 50
90.0
 51
180.0
  0
LINE
  5
14AFB
  8
DANMEN
  6
CONTINUOUS
 10
108.9
 20
188.499999
 30
0.0
 11
108.9
 21
222.499999
 31
0.0
  0
LINE
  5
14AFC
  8
DANMEN
  6
CONTINUOUS
 10
107.25
 20
214.149999
 30
0.0
 11
107.25
 21
221.349999
 31
0.0
  0
LINE
  5
14AFD
  8
DANMEN
  6
CONTINUOUS
 10
91.700002
 20
216.430304
 30
0.0
 11
91.700002
 21
215.649999
 31
0.0
  0
LINE
  5
14AFE
  8
DANMEN
  6
CONTINUOUS
 10
93.200002
 20
216.346059
 30
0.0
 11
93.200002
 21
215.099999
 31
0.0
  0
LINE
  5
14AFF
  8
DANMEN
  6
CONTINUOUS
 10
98.300002
 20
216.430307
 30
0.0
 11
98.300002
 21
215.150001
 31
0.0
  0
LINE
  5
14B00
  8
DANMEN
  6
CONTINUOUS
 10
96.800002
 20
216.346061
 30
0.0
 11
96.800002
 21
215.1
 31
0.0
  0
LINE
  5
14B01
  8
DANMEN
  6
CONTINUOUS
 10
85.65
 20
221.349999
 30
0.0
 11
85.65
 21
214.649999
 31
0.0
  0
LINE
  5
14B02
  8
DANMEN
  6
CONTINUOUS
 10
84.0
 20
204.999999
 30
0.0
 11
84.0
 21
222.500003
 31
0.0
  0
LINE
  5
14B03
  8
DANMEN
  6
CONTINUOUS
 10
111.31756
 20
206.49168
 30
0.0
 11
111.30001
 21
222.979021
 31
0.0
  0
LINE
  5
14B04
  8
DANMEN
  6
CONTINUOUS
 10
112.517555
 20
206.145361
 30
0.0
 11
112.004224
 21
222.470763
 31
0.0
  0
LINE
  5
14B05
  8
DANMEN
  6
CONTINUOUS
 10
111.017555
 20
206.502085
 30
0.0
 11
111.0
 21
223.0
 31
0.0
  0
LINE
  5
14B06
  8
DANMEN
  6
CONTINUOUS
 10
73.799985
 20
230.500092
 30
0.0
 11
73.799985
 21
188.500092
 31
0.0
  0
LINE
  5
14B07
  8
DANMEN
  6
CONTINUOUS
 10
76.0
 20
231.0
 30
0.0
 11
76.0
 21
172.0
 31
0.0
  0
LINE
  5
14B08
  8
DANMEN
  6
CONTINUOUS
 10
78.5
 20
231.0
 30
0.0
 11
78.5
 21
172.0
 31
0.0
  0
LINE
  5
14B09
  8
DANMEN
  6
DASHED
 10
81.5
 20
231.0
 30
0.0
 11
81.5
 21
181.867176
 31
0.0
  0
LINE
  5
14B0A
  8
DANMEN
  6
CONTINUOUS
 10
111.0
 20
172.0
 30
0.0
 11
111.0
 21
223.0
 31
0.0
  0
LINE
  5
14B0B
  8
DANMEN
  6
CONTINUOUS
 10
115.0
 20
205.90593
 30
0.0
 11
115.0
 21
223.0
 31
0.0
  0
LINE
  5
14B0C
  8
DANMEN
  6
CONTINUOUS
 10
113.350006
 20
206.302173
 30
0.0
 11
113.350006
 21
223.0
 31
0.0
  0
LINE
  5
14B0D
  8
DANMEN
  6
CONTINUOUS
 10
143.881386
 20
203.653003
 30
0.0
 11
112.517555
 21
206.502085
 31
0.0
  0
LINE
  5
14B0E
  8
DANMEN
  6
CONTINUOUS
 10
114.517555
 20
198.002085
 30
0.0
 11
145.217555
 21
198.002085
 31
0.0
  0
ARC
  5
14B0F
  8
DANMEN
  6
CONTINUOUS
 10
106.05
 20
142.150003
 30
0.0
 40
1.5
 50
0.0
 51
89.999982
  0
ARC
  5
14B10
  8
DANMEN
  6
CONTINUOUS
 10
107.000009
 20
140.500005
 30
0.0
 40
0.5
 50
90.0
 51
180.0
  0
LINE
  5
14B11
  8
DANMEN
  6
CONTINUOUS
 10
107.250009
 20
136.000005
 30
0.0
 11
106.500009
 21
136.000005
 31
0.0
  0
LINE
  5
14B12
  8
DANMEN
  6
CONTINUOUS
 10
92.55
 20
169.0
 30
0.0
 11
92.55
 21
128.999999
 31
0.0
  0
LINE
  5
14B13
  8
DANMEN
  6
CONTINUOUS
 10
93.05
 20
169.0
 30
0.0
 11
93.05
 21
128.999999
 31
0.0
  0
LINE
  5
14B14
  8
DANMEN
  6
CONTINUOUS
 10
85.55
 20
151.932962
 30
0.0
 11
85.55
 21
141.150003
 31
0.0
  0
LINE
  5
14B15
  8
DANMEN
  6
CONTINUOUS
 10
84.0
 20
151.971764
 30
0.0
 11
84.0
 21
141.150003
 31
0.0
  0
LINE
  5
14B16
  8
DANMEN
  6
CONTINUOUS
 10
100.55
 20
151.661345
 30
0.0
 11
100.55
 21
128.999999
 31
0.0
  0
LINE
  5
14B17
  8
DANMEN
  6
CONTINUOUS
 10
100.05
 20
151.661345
 30
0.0
 11
100.05
 21
128.999999
 31
0.0
  0
LINE
  5
14B18
  8
DANMEN
  6
CONTINUOUS
 10
87.05
 20
143.650003
 30
0.0
 11
91.050006
 21
143.650003
 31
0.0
  0
ARC
  5
14B19
  8
DANMEN
  6
CONTINUOUS
 10
86.000009
 20
140.500005
 30
0.0
 40
0.5
 50
0.0
 51
90.0
  0
ARC
  5
14B1A
  8
DANMEN
  6
CONTINUOUS
 10
84.500009
 20
140.500005
 30
0.0
 40
0.5
 50
90.0
 51
180.0
  0
LINE
  5
14B1B
  8
DANMEN
  6
CONTINUOUS
 10
85.650009
 20
136.000005
 30
0.0
 11
86.500009
 21
136.000005
 31
0.0
  0
LINE
  5
14B1C
  8
DANMEN
  6
CONTINUOUS
 10
86.500009
 20
140.500005
 30
0.0
 11
86.500009
 21
136.000005
 31
0.0
  0
ARC
  5
14B1D
  8
DANMEN
  6
CONTINUOUS
 10
87.05
 20
142.150003
 30
0.0
 40
1.5
 50
89.999999
 51
180.000036
  0
LINE
  5
14B1F
  8
DANMEN
  6
CONTINUOUS
 10
85.55
 20
141.150003
 30
0.0
 11
85.55
 21
142.150003
 31
0.0
  0
LINE
  5
14B20
  8
DANMEN
  6
CONTINUOUS
 10
84.500009
 20
141.000005
 30
0.0
 11
86.000009
 21
141.000005
 31
0.0
  0
LINE
  5
14B21
  8
DANMEN
  6
CONTINUOUS
 10
91.569997
 20
128.999999
 30
0.0
 11
101.569997
 21
128.999999
 31
0.0
  0
ARC
  5
14B22
  8
DANMEN
  6
CONTINUOUS
 10
91.050006
 20
145.150003
 30
0.0
 40
1.5
 50
270.000018
 51
0.0
  0
LINE
  5
14B24
  8
DANMEN
  6
CONTINUOUS
 10
106.500009
 20
140.500005
 30
0.0
 11
106.500009
 21
136.000005
 31
0.0
  0
LINE
  5
14B25
  8
DANMEN
  6
CONTINUOUS
 10
102.05001
 20
143.650003
 30
0.0
 11
106.05
 21
143.650003
 31
0.0
  0
ARC
  5
14B26
  8
DANMEN
  6
CONTINUOUS
 10
102.05001
 20
145.150003
 30
0.0
 40
1.5
 50
180.000036
 51
270.000018
  0
LINE
  5
14B27
  8
DANMEN
  6
CONTINUOUS
 10
85.55
 20
169.0
 30
0.0
 11
85.55
 21
154.932962
 31
0.0
  0
LINE
  5
14B28
  8
DANMEN
  6
CONTINUOUS
 10
84.0
 20
169.0
 30
0.0
 11
84.0
 21
154.971764
 31
0.0
  0
LINE
  5
14B2A
  8
DANMEN
  6
CONTINUOUS
 10
100.55
 20
169.0
 30
0.0
 11
100.55
 21
154.661345
 31
0.0
  0
LINE
  5
14B2B
  8
DANMEN
  6
CONTINUOUS
 10
100.05
 20
169.0
 30
0.0
 11
100.05
 21
154.661345
 31
0.0
  0
LINE
  5
14B2C
  8
DANMEN
  6
CONTINUOUS
 10
107.55
 20
151.499883
 30
0.0
 11
107.55
 21
141.150003
 31
0.0
  0
ARC
  5
14B2D
  8
DANMEN
  6
CONTINUOUS
 10
108.400009
 20
140.500005
 30
0.0
 40
0.5
 50
0.0
 51
90.0
  0
LINE
  5
14B30
  8
DANMEN
  6
CONTINUOUS
 10
107.55
 20
141.150003
 30
0.0
 11
107.55
 21
142.150003
 31
0.0
  0
LINE
  5
14B31
  8
DANMEN
  6
CONTINUOUS
 10
107.000009
 20
141.000005
 30
0.0
 11
108.400009
 21
141.000005
 31
0.0
  0
LINE
  5
14B32
  8
DANMEN
  6
CONTINUOUS
 10
107.55
 20
169.0
 30
0.0
 11
107.55
 21
154.499883
 31
0.0
  0
ARC
  5
14B33
  8
DANMEN
  6
CONTINUOUS
 10
106.05
 20
187.000003
 30
0.0
 40
1.5
 50
270.000002
 51
0.000038
  0
ARC
  5
14B34
  8
DANMEN
  6
CONTINUOUS
 10
107.0
 20
188.499999
 30
0.0
 40
0.5
 50
179.999981
 51
270.000018
  0
LINE
  5
14B35
  8
DANMEN
  6
CONTINUOUS
 10
106.5
 20
192.999999
 30
0.0
 11
107.25
 21
192.999999
 31
0.0
  0
LINE
  5
14B36
  8
DANMEN
  6
CONTINUOUS
 10
90.700006
 20
212.499999
 30
0.0
 11
107.25
 21
212.499999
 31
0.0
  0
LINE
  5
14B37
  8
DANMEN
  6
CONTINUOUS
 10
99.300002
 20
214.149999
 30
0.0
 11
107.25
 21
214.149999
 31
0.0
  0
LINE
  5
14B38
  8
DANMEN
  6
CONTINUOUS
 10
84.0
 20
188.500003
 30
0.0
 11
84.0
 21
204.999999
 31
0.0
  0
LINE
  5
14B39
  8
DANMEN
  6
CONTINUOUS
 10
85.95
 20
193.000002
 30
0.0
 11
85.95
 21
202.699999
 31
0.0
  0
LINE
  5
14B3A
  8
DANMEN
  6
CONTINUOUS
 10
93.05
 20
199.000007
 30
0.0
 11
93.05
 21
172.0
 31
0.0
  0
LINE
  5
14B3B
  8
DANMEN
  6
CONTINUOUS
 10
92.55
 20
199.000007
 30
0.0
 11
92.55
 21
172.0
 31
0.0
  0
LINE
  5
14B3C
  8
DANMEN
  6
CONTINUOUS
 10
100.55
 20
199.000007
 30
0.0
 11
100.55
 21
172.0
 31
0.0
  0
LINE
  5
14B3D
  8
DANMEN
  6
CONTINUOUS
 10
100.05
 20
199.000007
 30
0.0
 11
100.05
 21
172.0
 31
0.0
  0
LINE
  5
14B3E
  8
DANMEN
  6
CONTINUOUS
 10
91.049991
 20
185.500003
 30
0.0
 11
87.05
 21
185.500002
 31
0.0
  0
LINE
  5
14B3F
  8
DANMEN
  6
CONTINUOUS
 10
83.95
 20
172.0
 30
0.0
 11
83.95
 21
187.999999
 31
0.0
  0
LINE
  5
14B40
  8
DANMEN
  6
CONTINUOUS
 10
85.55
 20
188.000003
 30
0.0
 11
85.55
 21
172.0
 31
0.0
  0
LINE
  5
14B41
  8
DANMEN
  6
DASHED
 10
81.5
 20
178.867176
 30
0.0
 11
81.5
 21
172.0
 31
0.0
  0
LINE
  5
14B43
  8
DANMEN
  6
CONTINUOUS
 10
85.55
 20
188.000002
 30
0.0
 11
85.55
 21
187.000002
 31
0.0
  0
ARC
  5
14B44
  8
DANMEN
  6
CONTINUOUS
 10
87.05
 20
187.000002
 30
0.0
 40
1.5
 50
180.000002
 51
269.999984
  0
ARC
  5
14B46
  8
DANMEN
  6
CONTINUOUS
 10
86.0
 20
188.500002
 30
0.0
 40
0.5
 50
270.0
 51
0.0
  0
LINE
  5
14B47
  8
DANMEN
  6
CONTINUOUS
 10
85.95
 20
193.000002
 30
0.0
 11
86.5
 21
193.000002
 31
0.0
  0
LINE
  5
14B48
  8
DANMEN
  6
CONTINUOUS
 10
85.95
 20
191.000002
 30
0.0
 11
86.5
 21
191.000002
 31
0.0
  0
ARC
  5
14B49
  8
DANMEN
  6
CONTINUOUS
 10
86.45
 20
191.500002
 30
0.0
 40
0.5
 50
90.0
 51
180.0
  0
LINE
  5
14B4A
  8
DANMEN
  6
CONTINUOUS
 10
85.95
 20
191.000002
 30
0.0
 11
85.95
 21
191.500002
 31
0.0
  0
LINE
  5
14B4B
  8
DANMEN
  6
CONTINUOUS
 10
84.5
 20
188.000002
 30
0.0
 11
86.0
 21
188.000002
 31
0.0
  0
ARC
  5
14B4C
  8
DANMEN
  6
CONTINUOUS
 10
84.5
 20
188.500002
 30
0.0
 40
0.5
 50
179.999872
 51
269.999909
  0
LINE
  5
14B4F
  8
DANMEN
  6
CONTINUOUS
 10
86.5
 20
188.500003
 30
0.0
 11
86.5
 21
191.000002
 31
0.0
  0
LINE
  5
14B50
  8
DANMEN
  6
CONTINUOUS
 10
86.45
 20
192.000002
 30
0.0
 11
86.5
 21
192.000002
 31
0.0
  0
LINE
  5
14B51
  8
DANMEN
  6
CONTINUOUS
 10
86.5
 20
192.000002
 30
0.0
 11
86.5
 21
193.000002
 31
0.0
  0
ARC
  5
14B52
  8
DANMEN
  6
CONTINUOUS
 10
91.049991
 20
184.000003
 30
0.0
 40
1.5
 50
0.000038
 51
90.00002
  0
LINE
  5
14B54
  8
DANMEN
  6
CONTINUOUS
 10
106.05
 20
185.500003
 30
0.0
 11
102.049994
 21
185.500003
 31
0.0
  0
ARC
  5
14B55
  8
DANMEN
  6
CONTINUOUS
 10
102.049995
 20
184.000003
 30
0.0
 40
1.5
 50
90.00002
 51
180.000002
  0
LINE
  5
14B58
  8
DANMEN
  6
CONTINUOUS
 10
106.5
 20
188.499999
 30
0.0
 11
106.5
 21
192.999999
 31
0.0
  0
ARC
  5
14B59
  8
DANMEN
  6
CONTINUOUS
 10
90.309908
 20
207.499999
 30
0.0
 40
0.5
 50
191.309932
 51
270.0
  0
LINE
  5
14B5A
  8
DANMEN
  6
CONTINUOUS
 10
85.65
 20
214.649999
 30
0.0
 11
90.700002
 21
214.649999
 31
0.0
  0
LINE
  5
14B5B
  8
DANMEN
  6
CONTINUOUS
 10
87.7
 20
203.699999
 30
0.0
 11
87.7
 21
207.598916
 31
0.0
  0
LINE
  5
14B5C
  8
DANMEN
  6
CONTINUOUS
 10
85.5
 20
204.699999
 30
0.0
 11
85.5
 21
204.999999
 31
0.0
  0
LINE
  5
14B5D
  8
DANMEN
  6
CONTINUOUS
 10
86.5
 20
204.699999
 30
0.0
 11
86.5
 21
206.699999
 31
0.0
  0
LINE
  5
14B5E
  8
DANMEN
  6
CONTINUOUS
 10
85.5
 20
204.699999
 30
0.0
 11
86.5
 21
204.699999
 31
0.0
  0
ARC
  5
14B5F
  8
DANMEN
  6
CONTINUOUS
 10
86.45
 20
202.699999
 30
0.0
 40
0.5
 50
90.0
 51
180.0
  0
ARC
  5
14B60
  8
DANMEN
  6
CONTINUOUS
 10
87.2
 20
203.699999
 30
0.0
 40
0.5
 50
270.0
 51
0.0
  0
LINE
  5
14B61
  8
DANMEN
  6
CONTINUOUS
 10
86.45
 20
203.199999
 30
0.0
 11
87.2
 21
203.199999
 31
0.0
  0
LINE
  5
14B62
  8
DANMEN
  6
CONTINUOUS
 10
86.198117
 20
207.586879
 30
0.0
 11
88.401708
 21
210.563905
 31
0.0
  0
LINE
  5
14B63
  8
DANMEN
  6
CONTINUOUS
 10
89.7
 20
210.300894
 30
0.0
 11
89.7
 21
211.500894
 31
0.0
  0
LINE
  5
14B64
  8
DANMEN
  6
CONTINUOUS
 10
85.65
 20
206.999999
 30
0.0
 11
85.65
 21
212.999999
 31
0.0
  0
LINE
  5
14B65
  8
DANMEN
  6
CONTINUOUS
 10
89.500006
 20
208.999999
 30
0.0
 11
89.500006
 21
212.999999
 31
0.0
  0
LINE
  5
14B66
  8
DANMEN
  6
CONTINUOUS
 10
86.2
 20
206.999999
 30
0.0
 11
85.65
 21
206.999999
 31
0.0
  0
ARC
  5
14B67
  8
DANMEN
  6
CONTINUOUS
 10
85.707801
 20
205.499999
 30
0.0
 40
0.5
 50
270.0
 51
330.603827
  0
LINE
  5
14B68
  8
DANMEN
  6
CONTINUOUS
 10
84.0
 20
204.999999
 30
0.0
 11
85.5
 21
204.999999
 31
0.0
  0
LINE
  5
14B6B
  8
DANMEN
  6
CONTINUOUS
 10
84.0
 20
204.999999
 30
0.0
 11
85.707801
 21
204.999999
 31
0.0
  0
ARC
  5
14B6E
  8
DANMEN
  6
CONTINUOUS
 10
86.4
 20
207.265685
 30
0.0
 40
0.3
 50
180.0
 51
250.528779
  0
ARC
  5
14B70
  8
DANMEN
  6
CONTINUOUS
 10
86.2
 20
206.699999
 30
0.0
 40
0.3
 50
0.0
 51
70.528779
  0
ARC
  5
14B71
  8
DANMEN
  6
CONTINUOUS
 10
86.6
 20
207.289406
 30
0.0
 40
0.5
 50
143.491208
 51
180.0
  0
LINE
  5
14B72
  8
DANMEN
  6
CONTINUOUS
 10
87.7
 20
207.598916
 30
0.0
 11
89.7
 21
210.300894
 31
0.0
  0
LINE
  5
14B73
  8
DANMEN
  6
CONTINUOUS
 10
86.1
 20
207.265685
 30
0.0
 11
86.1
 21
207.289406
 31
0.0
  0
LINE
  5
14B74
  8
DANMEN
  6
CONTINUOUS
 10
89.500006
 20
208.999999
 30
0.0
 11
89.819618
 21
207.401941
 31
0.0
  0
ARC
  5
14B78
  8
DANMEN
  6
CONTINUOUS
 10
86.2
 20
206.699999
 30
0.0
 40
0.3
 50
0.0
 51
90.0
  0
LINE
  5
14B79
  8
DANMEN
  6
CONTINUOUS
 10
86.5
 20
205.996245
 30
0.0
 11
86.143425
 21
205.254577
 31
0.0
  0
LINE
  5
14B7A
  8
DANMEN
  6
CONTINUOUS
 10
86.5
 20
206.699999
 30
0.0
 11
86.5
 21
205.996245
 31
0.0
  0
LINE
  5
14B7D
  8
DANMEN
  6
CONTINUOUS
 10
85.65
 20
212.999999
 30
0.0
 11
89.500006
 21
212.999999
 31
0.0
  0
ARC
  5
14B81
  8
DANMEN
  6
CONTINUOUS
 10
88.099865
 20
211.757529
 30
0.0
 40
0.5
 50
180.0
 51
235.297378
  0
ARC
  5
14B82
  8
DANMEN
  6
CONTINUOUS
 10
88.160578
 20
210.742389
 30
0.0
 40
0.3
 50
323.491208
 51
55.297378
  0
LINE
  5
14B83
  8
DANMEN
  6
CONTINUOUS
 10
87.815206
 20
211.34647
 30
0.0
 11
88.331373
 21
210.989024
 31
0.0
  0
ARC
  5
14B84
  8
DANMEN
  6
CONTINUOUS
 10
88.099865
 20
212.000894
 30
0.0
 40
0.5
 50
90.0
 51
180.0
  0
ARC
  5
14B85
  8
DANMEN
  6
CONTINUOUS
 10
88.099734
 20
212.000894
 30
0.0
 40
0.5
 50
55.297378
 51
90.0
  0
LINE
  5
14B86
  8
DANMEN
  6
CONTINUOUS
 10
87.599865
 20
212.000894
 30
0.0
 11
87.599865
 21
211.757529
 31
0.0
  0
LINE
  5
14B87
  8
DANMEN
  6
CONTINUOUS
 10
88.099734
 20
212.500894
 30
0.0
 11
88.099865
 21
212.500894
 31
0.0
  0
LINE
  5
14B88
  8
DANMEN
  6
CONTINUOUS
 10
88.384393
 20
212.411953
 30
0.0
 11
89.7
 21
211.500894
 31
0.0
  0
LINE
  5
14B8B
  8
DANMEN
  6
CONTINUOUS
 10
92.55
 20
199.000007
 30
0.0
 11
100.55
 21
199.000007
 31
0.0
  0
ARC
  5
14B8C
  8
DANMEN
  6
CONTINUOUS
 10
99.300002
 20
215.149999
 30
0.0
 40
1.0
 50
180.0
 51
270.0
  0
LINE
  5
14B8D
  8
DANMEN
  6
CONTINUOUS
 10
90.700006
 20
206.999999
 30
0.0
 11
90.700006
 21
212.499999
 31
0.0
  0
LINE
  5
14B90
  8
DANMEN
  6
CONTINUOUS
 10
90.309908
 20
206.999999
 30
0.0
 11
90.700006
 21
206.999999
 31
0.0
  0
LINE
  5
14B91
  8
DANMEN
  6
CONTINUOUS
 10
95.800003
 20
214.1
 30
0.0
 11
94.200003
 21
214.099999
 31
0.0
  0
ARC
  5
14B94
  8
DANMEN
  6
CONTINUOUS
 10
90.700002
 20
215.649999
 30
0.0
 40
1.0
 50
270.0
 51
0.0
  0
ARC
  5
14B95
  8
DANMEN
  6
CONTINUOUS
 10
94.200002
 20
215.099999
 30
0.0
 40
1.0
 50
180.000026
 51
270.000026
  0
ARC
  5
14B97
  8
DANMEN
  6
CONTINUOUS
 10
95.800002
 20
215.1
 30
0.0
 40
1.0
 50
270.000026
 51
0.000026
  0
LINE
  5
14B9C
  8
DANMEN
  6
CONTINUOUS
 10
107.25
 20
192.999999
 30
0.0
 11
107.25
 21
212.499999
 31
0.0
  0
LINE
  5
14B9D
  8
DANMEN
  6
CONTINUOUS
 10
107.55
 20
172.0
 30
0.0
 11
107.55
 21
188.000003
 31
0.0
  0
LINE
  5
14B9E
  8
DANMEN
  6
CONTINUOUS
 10
107.55
 20
188.000003
 30
0.0
 11
107.55
 21
187.000003
 31
0.0
  0
ARC
  5
14BA1
  8
DANMEN
  6
CONTINUOUS
 10
108.4
 20
188.499999
 30
0.0
 40
0.5
 50
270.000018
 51
0.0
  0
LINE
  5
14BA2
  8
DANMEN
  6
CONTINUOUS
 10
107.0
 20
187.999999
 30
0.0
 11
108.4
 21
187.999999
 31
0.0
  0
LINE
  5
14BA5
  8
DANMEN
  6
CONTINUOUS
 10
112.517555
 20
200.002085
 30
0.0
 11
112.517555
 21
206.502085
 31
0.0
  0
LINE
  5
14BA6
  8
DANMEN
  6
CONTINUOUS
 10
111.317555
 20
202.002085
 30
0.0
 11
111.317555
 21
206.512633
 31
0.0
  0
LINE
  5
14BA7
  8
DANMEN
  6
CONTINUOUS
 10
111.017555
 20
202.002085
 30
0.0
 11
111.017555
 21
206.502085
 31
0.0
  0
ARC
  5
14BA8
  8
DANMEN
  6
CONTINUOUS
 10
114.517555
 20
200.002085
 30
0.0
 40
2.0
 50
179.999981
 51
270.000018
  0
LINE
  5
14BAC
  8
DANMEN
  6
CONTINUOUS
 10
111.017555
 20
202.002085
 30
0.0
 11
112.517555
 21
202.002085
 31
0.0
  0
LINE
  5
14BB4
  8
DANMEN
  6
CONTINUOUS
 10
191.0
 20
162.899997
 30
0.0
 11
191.0
 21
144.299997
 31
0.0
  0
LINE
  5
14BB5
  8
DANMEN
  6
CONTINUOUS
 10
195.682602
 20
129.999997
 30
0.0
 11
192.476376
 21
136.659116
 31
0.0
  0
LINE
  5
14BB6
  8
DANMEN
  6
CONTINUOUS
 10
196.122479
 20
130.699997
 30
0.0
 11
192.908279
 21
137.375677
 31
0.0
  0
LINE
  5
14BB7
  8
DANMEN
  6
CONTINUOUS
 10
191.0
 20
142.499997
 30
0.0
 11
191.0
 21
127.599997
 31
0.0
  0
ARC
  5
14BB8
  8
DANMEN
  6
CONTINUOUS
 10
195.0
 20
135.361184
 30
0.0
 40
1.0
 50
180.0
 51
261.469234
  0
LINE
  5
14BB9
  8
DANMEN
  6
CONTINUOUS
 10
203.134269
 20
134.949994
 30
0.0
 11
195.199997
 21
136.140135
 31
0.0
  0
LINE
  5
14BBA
  8
DANMEN
  6
CONTINUOUS
 10
195.682602
 20
129.999997
 30
0.0
 11
198.350004
 21
129.999997
 31
0.0
  0
LINE
  5
14BBB
  8
DANMEN
  6
CONTINUOUS
 10
196.122478
 20
130.699997
 30
0.0
 11
198.850004
 21
130.699997
 31
0.0
  0
LINE
  5
14BBC
  8
DANMEN
  6
CONTINUOUS
 10
191.0
 20
126.499997
 30
0.0
 11
203.5
 21
126.499997
 31
0.0
  0
LINE
  5
14BBD
  8
DANMEN
  6
CONTINUOUS
 10
196.5
 20
129.999997
 30
0.0
 11
197.699997
 21
129.999997
 31
0.0
  0
LINE
  5
14BBE
  8
DANMEN
  6
CONTINUOUS
 10
203.963121
 20
133.005529
 30
0.0
 11
194.85166
 21
134.372248
 31
0.0
  0
LINE
  5
14BBF
  8
DANMEN
  6
CONTINUOUS
 10
196.0
 20
129.499997
 30
0.0
 11
196.0
 21
127.599997
 31
0.0
  0
LINE
  5
14BC0
  8
DANMEN
  6
CONTINUOUS
 10
191.0
 20
127.599997
 30
0.0
 11
196.0
 21
127.599997
 31
0.0
  0
LINE
  5
14BC4
  8
DANMEN
  6
CONTINUOUS
 10
191.0
 20
129.999997
 30
0.0
 11
196.5
 21
129.999997
 31
0.0
  0
ARC
  5
14BC8
  8
DANMEN
  6
CONTINUOUS
 10
196.5
 20
129.499997
 30
0.0
 40
0.5
 50
90.000037
 51
180.000019
  0
LINE
  5
14BCC
  8
DANMEN
  6
CONTINUOUS
 10
198.350004
 20
129.999997
 30
0.0
 11
198.350004
 21
128.999997
 31
0.0
  0
LINE
  5
14BCD
  8
DANMEN
  6
CONTINUOUS
 10
201.650003
 20
129.999997
 30
0.0
 11
201.650003
 21
128.999997
 31
0.0
  0
LINE
  5
14BCE
  8
DANMEN
  6
CONTINUOUS
 10
198.200001
 20
129.499996
 30
0.0
 11
198.200003
 21
129.199993
 31
0.0
  0
LINE
  5
14BCF
  8
DANMEN
  6
CONTINUOUS
 10
201.800003
 20
129.500014
 30
0.0
 11
201.799998
 21
129.199995
 31
0.0
  0
LINE
  5
14BD0
  8
DANMEN
  6
CONTINUOUS
 10
204.0
 20
129.499997
 30
0.0
 11
204.0
 21
126.999997
 31
0.0
  0
LINE
  5
14BD1
  8
DANMEN
  6
CONTINUOUS
 10
200.850003
 20
128.799997
 30
0.0
 11
201.650003
 21
127.999997
 31
0.0
  0
LINE
  5
14BD2
  8
DANMEN
  6
CONTINUOUS
 10
196.8
 20
127.599997
 30
0.0
 11
202.999998
 21
127.599997
 31
0.0
  0
LINE
  5
14BD3
  8
DANMEN
  6
CONTINUOUS
 10
197.350003
 20
128.999997
 30
0.0
 11
198.350004
 21
128.999997
 31
0.0
  0
LINE
  5
14BD4
  8
DANMEN
  6
CONTINUOUS
 10
197.150003
 20
128.799997
 30
0.0
 11
197.150003
 21
128.199997
 31
0.0
  0
LINE
  5
14BD5
  8
DANMEN
  6
CONTINUOUS
 10
197.350003
 20
127.999997
 30
0.0
 11
198.350004
 21
127.999997
 31
0.0
  0
LINE
  5
14BD6
  8
DANMEN
  6
CONTINUOUS
 10
199.150004
 20
128.799997
 30
0.0
 11
198.350004
 21
127.999997
 31
0.0
  0
ARC
  5
14BD7
  8
DANMEN
  6
CONTINUOUS
 10
197.350003
 20
128.199997
 30
0.0
 40
0.2
 50
180.000019
 51
270.000001
  0
ARC
  5
14BD8
  8
DANMEN
  6
CONTINUOUS
 10
197.350003
 20
128.799997
 30
0.0
 40
0.2
 50
89.999982
 51
180.000019
  0
LINE
  5
14BD9
  8
DANMEN
  6
CONTINUOUS
 10
199.150004
 20
128.799997
 30
0.0
 11
200.850003
 21
128.799997
 31
0.0
  0
LINE
  5
14BDD
  8
DANMEN
  6
CONTINUOUS
 10
196.8
 20
129.199994
 30
0.0
 11
198.199997
 21
129.199994
 31
0.0
  0
LINE
  5
14BDE
  8
DANMEN
  6
CONTINUOUS
 10
196.8
 20
129.199994
 30
0.0
 11
196.8
 21
127.599997
 31
0.0
  0
LINE
  5
14BE1
  8
DANMEN
  6
CONTINUOUS
 10
202.850004
 20
128.799997
 30
0.0
 11
202.850004
 21
128.199997
 31
0.0
  0
LINE
  5
14BE2
  8
DANMEN
  6
CONTINUOUS
 10
201.650003
 20
127.999997
 30
0.0
 11
202.650004
 21
127.999997
 31
0.0
  0
ARC
  5
14BE3
  8
DANMEN
  6
CONTINUOUS
 10
202.650004
 20
128.799997
 30
0.0
 40
0.2
 50
0.0
 51
89.999982
  0
ARC
  5
14BE4
  8
DANMEN
  6
CONTINUOUS
 10
202.650004
 20
128.199997
 30
0.0
 40
0.2
 50
270.000018
 51
0.0
  0
LINE
  5
14BE5
  8
DANMEN
  6
CONTINUOUS
 10
201.650003
 20
128.999997
 30
0.0
 11
202.650004
 21
128.999997
 31
0.0
  0
ARC
  5
14BEA
  8
DANMEN
  6
CONTINUOUS
 10
203.5
 20
126.999997
 30
0.0
 40
0.5
 50
270.000018
 51
0.0
  0
LINE
  5
14BEB
  8
DANMEN
  6
CONTINUOUS
 10
201.800003
 20
129.199994
 30
0.0
 11
203.0
 21
129.199994
 31
0.0
  0
LINE
  5
14BEC
  8
DANMEN
  6
CONTINUOUS
 10
202.999998
 20
129.199994
 30
0.0
 11
202.999998
 21
127.599997
 31
0.0
  0
ARC
  5
14BEE
  8
DANMEN
  6
CONTINUOUS
 10
197.648588
 20
121.818665
 30
0.0
 40
12.0
 50
58.04287
 51
84.739832
  0
ARC
  5
14BEF
  8
DANMEN
  6
CONTINUOUS
 10
197.648588
 20
121.818665
 30
0.0
 40
11.5
 50
59.414823
 51
84.739832
  0
ARC
  5
14BF0
  8
DANMEN
  6
CONTINUOUS
 10
201.250004
 20
130.299997
 30
0.0
 40
0.4
 50
89.999982
 51
180.000019
  0
LINE
  5
14BF1
  8
DANMEN
  6
CONTINUOUS
 10
200.850003
 20
130.299997
 30
0.0
 11
200.850003
 21
129.999997
 31
0.0
  0
LINE
  5
14BF2
  8
DANMEN
  6
CONTINUOUS
 10
199.150004
 20
131.590135
 30
0.0
 11
199.150004
 21
129.999997
 31
0.0
  0
LINE
  5
14BF3
  8
DANMEN
  6
CONTINUOUS
 10
199.150004
 20
129.999997
 30
0.0
 11
200.850003
 21
129.999997
 31
0.0
  0
ARC
  5
14BF4
  8
DANMEN
  6
CONTINUOUS
 10
198.725814
 20
133.519181
 30
0.0
 40
0.25
 50
84.739832
 51
264.739796
  0
LINE
  5
14BF5
  8
DANMEN
  6
CONTINUOUS
 10
198.850004
 20
131.699996
 30
0.0
 11
198.850004
 21
130.699997
 31
0.0
  0
ARC
  5
14BF6
  8
DANMEN
  6
CONTINUOUS
 10
199.850004
 20
132.649998
 30
0.0
 40
0.15
 50
319.774489
 51
139.774466
  0
LINE
  5
14BF7
  8
DANMEN
  6
CONTINUOUS
 10
199.735478
 20
132.746867
 30
0.0
 11
198.850004
 21
131.699996
 31
0.0
  0
LINE
  5
14BF8
  8
DANMEN
  6
CONTINUOUS
 10
199.964531
 20
132.553128
 30
0.0
 11
199.150004
 21
131.590136
 31
0.0
  0
ARC
  5
14BFB
  8
DANMEN
  6
CONTINUOUS
 10
197.699997
 20
129.499997
 30
0.0
 40
0.5
 50
359.999981
 51
90.000037
  0
LINE
  5
14BFC
  8
DANMEN
  6
CONTINUOUS
 10
201.650003
 20
129.999997
 30
0.0
 11
204.000004
 21
129.999997
 31
0.0
  0
LINE
  5
14BFD
  8
DANMEN
  6
CONTINUOUS
 10
204.000004
 20
131.999997
 30
0.0
 11
204.000004
 21
129.999997
 31
0.0
  0
LINE
  5
14BFE
  8
DANMEN
  6
CONTINUOUS
 10
201.250004
 20
130.699997
 30
0.0
 11
203.500004
 21
130.699997
 31
0.0
  0
LINE
  5
14BFF
  8
DANMEN
  6
CONTINUOUS
 10
203.500004
 20
131.718712
 30
0.0
 11
203.500004
 21
130.699997
 31
0.0
  0
ARC
  5
14C03
  8
DANMEN
  6
CONTINUOUS
 10
202.300003
 20
129.499997
 30
0.0
 40
0.5
 50
90.0
 51
179.999149
  0
ARC
  5
14C05
  8
DANMEN
  6
CONTINUOUS
 10
203.5
 20
129.499997
 30
0.0
 40
0.5
 50
359.999981
 51
90.000037
  0
LINE
  5
14C06
  8
DANMEN
  6
CONTINUOUS
 10
202.300003
 20
129.999997
 30
0.0
 11
203.5
 21
129.999997
 31
0.0
  0
ARC
  5
14C08
  8
DANMEN
  6
CONTINUOUS
 10
204.037291
 20
133.499997
 30
0.0
 40
0.5
 50
261.469234
 51
270.0
  0
LINE
  5
14C0B
  8
DANMEN
  6
CONTINUOUS
 10
200.050996
 20
144.999997
 30
0.0
 11
195.850995
 21
144.299997
 31
0.0
  0
LINE
  5
14C0C
  8
DANMEN
  6
CONTINUOUS
 10
201.164402
 20
143.360736
 30
0.0
 11
196.081604
 21
142.513603
 31
0.0
  0
ARC
  5
14C0D
  8
DANMEN
  6
CONTINUOUS
 10
192.457778
 20
137.15877
 30
0.0
 40
0.5
 50
25.709831
 51
272.131619
  0
LINE
  5
14C0E
  8
DANMEN
  6
CONTINUOUS
 10
194.0
 20
136.999997
 30
0.0
 11
194.0
 21
135.361184
 31
0.0
  0
LINE
  5
14C0F
  8
DANMEN
  6
CONTINUOUS
 10
194.5
 20
137.499997
 30
0.0
 11
195.199997
 21
137.499997
 31
0.0
  0
ARC
  5
14C11
  8
DANMEN
  6
CONTINUOUS
 10
194.5
 20
136.999997
 30
0.0
 40
0.5
 50
89.999982
 51
180.000019
  0
LINE
  5
14C12
  8
DANMEN
  6
CONTINUOUS
 10
195.199997
 20
137.499997
 30
0.0
 11
195.199997
 21
136.140135
 31
0.0
  0
LINE
  5
14C15
  8
DANMEN
  6
CONTINUOUS
 10
191.0
 20
144.299997
 30
0.0
 11
195.850995
 21
144.299997
 31
0.0
  0
LINE
  5
14C16
  8
DANMEN
  6
CONTINUOUS
 10
191.0
 20
142.499997
 30
0.0
 11
195.917205
 21
142.499997
 31
0.0
  0
ARC
  5
14C1A
  8
DANMEN
  6
CONTINUOUS
 10
195.917205
 20
143.499997
 30
0.0
 40
1.0
 50
270.000018
 51
279.462343
  0
LINE
  5
14C1D
  8
DANMEN
  6
CONTINUOUS
 10
200.050996
 20
144.999997
 30
0.0
 11
201.5
 21
144.999997
 31
0.0
  0
ARC
  5
14C1F
  8
DANMEN
  6
CONTINUOUS
 10
201.5
 20
144.499997
 30
0.0
 40
0.5
 50
0.0
 51
89.999982
  0
ARC
  5
14C21
  8
DANMEN
  6
CONTINUOUS
 10
201.0
 20
144.347134
 30
0.0
 40
1.0
 50
279.462343
 51
0.000285
  0
LINE
  5
14C24
  8
DANMEN
  6
CONTINUOUS
 10
202.0
 20
144.499997
 30
0.0
 11
202.0
 21
144.347134
 31
0.0
  0
LINE
  5
14C25
  8
DANMEN
  6
CONTINUOUS
 10
182.649994
 20
162.350003
 30
0.0
 11
189.350006
 21
162.350003
 31
0.0
  0
ARC
  5
14C26
  8
DANMEN
  6
CONTINUOUS
 10
182.149994
 20
158.499997
 30
0.0
 40
0.5
 50
270.000018
 51
359.999981
  0
ARC
  5
14C27
  8
DANMEN
  6
CONTINUOUS
 10
181.5
 20
158.499997
 30
0.0
 40
0.5
 50
180.000036
 51
269.999963
  0
LINE
  5
14C2A
  8
DANMEN
  6
CONTINUOUS
 10
181.5
 20
157.999997
 30
0.0
 11
182.149994
 21
157.999997
 31
0.0
  0
ARC
  5
14C2C
  8
DANMEN
  6
CONTINUOUS
 10
181.5
 20
163.499997
 30
0.0
 40
0.5
 50
89.999982
 51
180.000019
  0
LINE
  5
14C2E
  8
DANMEN
  6
CONTINUOUS
 10
182.649994
 20
162.350003
 30
0.0
 11
182.649994
 21
158.499997
 31
0.0
  0
LINE
  5
14C2F
  8
DANMEN
  6
CONTINUOUS
 10
181.0
 20
163.499997
 30
0.0
 11
181.0
 21
158.499997
 31
0.0
  0
LINE
  5
14C30
  8
DANMEN
  6
CONTINUOUS
 10
203.963121
 20
156.994465
 30
0.0
 11
194.85166
 21
155.627746
 31
0.0
  0
LINE
  5
14C31
  8
DANMEN
  6
CONTINUOUS
 10
203.134249
 20
155.049997
 30
0.0
 11
195.199997
 21
153.859859
 31
0.0
  0
ARC
  5
14C32
  8
DANMEN
  6
CONTINUOUS
 10
194.5
 20
152.999997
 30
0.0
 40
0.5
 50
179.999964
 51
270.000001
  0
LINE
  5
14C33
  8
DANMEN
  6
CONTINUOUS
 10
195.199997
 20
152.499997
 30
0.0
 11
195.199997
 21
153.859859
 31
0.0
  0
LINE
  5
14C34
  8
DANMEN
  6
CONTINUOUS
 10
194.5
 20
152.499997
 30
0.0
 11
195.199997
 21
152.499997
 31
0.0
  0
LINE
  5
14C37
  8
DANMEN
  6
CONTINUOUS
 10
194.0
 20
152.999997
 30
0.0
 11
194.0
 21
154.63881
 31
0.0
  0
ARC
  5
14C38
  8
DANMEN
  6
CONTINUOUS
 10
195.0
 20
154.63881
 30
0.0
 40
1.0
 50
98.530766
 51
180.0
  0
ARC
  5
14C3C
  8
DANMEN
  6
CONTINUOUS
 10
204.037291
 20
156.499997
 30
0.0
 40
0.5
 50
90.0
 51
98.530766
  0
LINE
  5
14C3F
  8
DANMEN
  6
CONTINUOUS
 10
191.0
 20
162.899997
 30
0.0
 11
193.0
 21
162.899997
 31
0.0
  0
LINE
  5
14C43
  8
DANMEN
  6
CONTINUOUS
 10
193.0
 20
162.899997
 30
0.0
 11
193.0
 21
162.350003
 31
0.0
  0
LINE
  5
14C45
  8
DANMEN
  6
CONTINUOUS
 10
143.0
 20
172.0
 30
0.0
 11
143.0
 21
198.002085
 31
0.0
  0
LINE
  5
14C46
  8
DANMEN
  6
CONTINUOUS
 10
145.717555
 20
198.502085
 30
0.0
 11
145.717555
 21
201.659724
 31
0.0
  0
ARC
  5
14C48
  8
DANMEN
  6
CONTINUOUS
 10
145.217555
 20
198.502085
 30
0.0
 40
0.5
 50
270.000018
 51
360.0
  0
ARC
  5
14C4B
  8
DANMEN
  6
CONTINUOUS
 10
143.717555
 20
201.659724
 30
0.0
 40
2.0
 50
0.0
 51
85.301319
  0
LINE
  5
14C4F
  8
DANMEN
  6
CONTINUOUS
 10
100.8
 20
221.349999
 30
0.0
 11
107.25
 21
221.349999
 31
0.0
  0
LINE
  5
14C50
  8
DANMEN
  6
CONTINUOUS
 10
101.3
 20
222.999999
 30
0.0
 11
108.4
 21
222.999999
 31
0.0
  0
LINE
  5
14C51
  8
DANMEN
  6
CONTINUOUS
 10
99.3
 20
247.65
 30
0.0
 11
113.350006
 21
247.65
 31
0.0
  0
LINE
  5
14C52
  8
DANMEN
  6
CONTINUOUS
 10
102.0
 20
223.0
 30
0.0
 11
114.5
 21
223.0
 31
0.0
  0
LINE
  5
14C53
  8
DANMEN
  6
CONTINUOUS
 10
102.5
 20
224.65
 30
0.0
 11
113.350006
 21
224.65
 31
0.0
  0
LINE
  5
14C54
  8
DANMEN
  6
CONTINUOUS
 10
85.8
 20
246.0
 30
0.0
 11
113.350006
 21
246.0
 31
0.0
  0
LINE
  5
14C55
  8
DANMEN
  6
CONTINUOUS
 10
84.0
 20
246.0
 30
0.0
 11
84.0
 21
223.5
 31
0.0
  0
LINE
  5
14C56
  8
DANMEN
  6
CONTINUOUS
 10
85.8
 20
246.0
 30
0.0
 11
85.8
 21
226.0
 31
0.0
  0
LINE
  5
14C57
  8
DANMEN
  6
DASHED
 10
88.0
 20
223.0
 30
0.0
 11
100.0
 21
223.0
 31
0.0
  0
LINE
  5
14C58
  8
DANMEN
  6
DASHED
 10
84.5
 20
221.800003
 30
0.0
 11
103.5
 21
221.800003
 31
0.0
  0
LINE
  5
14C59
  8
DANMEN
  6
DASHED
 10
86.023824
 20
226.617136
 30
0.0
 11
87.423825
 21
229.917167
 31
0.0
  0
LINE
  5
14C5A
  8
DANMEN
  6
DASHED
 10
87.5
 20
227.600003
 30
0.0
 11
87.992312
 21
229.73252
 31
0.0
  0
LINE
  5
14C5B
  8
DANMEN
  6
CONTINUOUS
 10
88.0
 20
222.349999
 30
0.0
 11
88.0
 21
233.5
 31
0.0
  0
LINE
  5
14C5C
  8
DANMEN
  6
CONTINUOUS
 10
86.5
 20
223.000001
 30
0.0
 11
86.5
 21
233.0
 31
0.0
  0
ARC
  5
14C5D
  8
DANMEN
  6
DASHED
 10
84.5
 20
222.300003
 30
0.0
 40
0.5
 50
180.0
 51
269.999982
  0
ARC
  5
14C5E
  8
DANMEN
  6
CONTINUOUS
 10
87.0
 20
222.349999
 30
0.0
 40
1.0
 50
270.0
 51
0.0
  0
LINE
  5
14C5F
  8
DANMEN
  6
CONTINUOUS
 10
85.65
 20
221.349999
 30
0.0
 11
87.0
 21
221.349999
 31
0.0
  0
LINE
  5
14C64
  8
DANMEN
  6
DASHED
 10
86.5
 20
223.0
 30
0.0
 11
84.0
 21
223.0
 31
0.0
  0
ARC
  5
14C65
  8
DANMEN
  6
DASHED
 10
86.299999
 20
226.499972
 30
0.0
 40
0.3
 50
157.011468
 51
235.656024
  0
LINE
  5
14C66
  8
DANMEN
  6
CONTINUOUS
 10
84.5
 20
223.000003
 30
0.0
 11
86.5
 21
223.000003
 31
0.0
  0
LINE
  5
14C67
  8
DANMEN
  6
CONTINUOUS
 10
86.5
 20
226.0
 30
0.0
 11
85.8
 21
226.0
 31
0.0
  0
ARC
  5
14C68
  8
DANMEN
  6
CONTINUOUS
 10
86.0
 20
223.5
 30
0.0
 40
0.5
 50
270.0
 51
0.0
  0
LINE
  5
14C6B
  8
DANMEN
  6
DASHED
 10
84.0
 20
223.0
 30
0.0
 11
84.0
 21
222.300003
 31
0.0
  0
ARC
  5
14C6E
  8
DANMEN
  6
CONTINUOUS
 10
84.5
 20
222.500003
 30
0.0
 40
0.5
 50
90.0
 51
180.0
  0
ARC
  5
14C71
  8
DANMEN
  6
CONTINUOUS
 10
84.5
 20
223.5
 30
0.0
 40
0.5
 50
180.0
 51
270.0
  0
LINE
  5
14C72
  8
DANMEN
  6
CONTINUOUS
 10
86.0
 20
223.0
 30
0.0
 11
84.5
 21
223.0
 31
0.0
  0
LINE
  5
14C73
  8
DANMEN
  6
DASHED
 10
86.499991
 20
225.999972
 30
0.0
 11
86.130743
 21
226.252271
 31
0.0
  0
LINE
  5
14C74
  8
DANMEN
  6
DASHED
 10
86.5
 20
223.0
 30
0.0
 11
86.5
 21
225.999972
 31
0.0
  0
LINE
  5
14C75
  8
DANMEN
  6
DASHED
 10
87.5
 20
227.600003
 30
0.0
 11
87.5
 21
223.5
 31
0.0
  0
ARC
  5
14C76
  8
DANMEN
  6
DASHED
 10
88.0
 20
223.5
 30
0.0
 40
0.5
 50
180.0
 51
270.0
  0
LINE
  5
14C7E
  8
DANMEN
  6
CONTINUOUS
 10
86.5
 20
226.0
 30
0.0
 11
86.5
 21
223.5
 31
0.0
  0
ARC
  5
14C85
  8
DANMEN
  6
DASHED
 10
87.7
 20
229.800003
 30
0.0
 40
0.3
 50
347.000479
 51
157.011468
  0
LINE
  5
14C86
  8
DANMEN
  6
CONTINUOUS
 10
87.0
 20
233.5
 30
0.0
 11
88.0
 21
233.5
 31
0.0
  0
ARC
  5
14C87
  8
DANMEN
  6
CONTINUOUS
 10
87.0
 20
233.0
 30
0.0
 40
0.5
 50
90.0
 51
180.0
  0
LINE
  5
14C8A
  8
DANMEN
  6
DASHED
 10
100.5
 20
227.600003
 30
0.0
 11
100.007688
 21
229.73252
 31
0.0
  0
LINE
  5
14C8B
  8
DANMEN
  6
DASHED
 10
101.976176
 20
226.617136
 30
0.0
 11
100.576175
 21
229.917167
 31
0.0
  0
LINE
  5
14C8C
  8
DANMEN
  6
CONTINUOUS
 10
99.8
 20
222.349999
 30
0.0
 11
99.8
 21
233.500003
 31
0.0
  0
LINE
  5
14C8D
  8
DANMEN
  6
CONTINUOUS
 10
101.3
 20
222.999997
 30
0.0
 11
101.3
 21
233.000003
 31
0.0
  0
ARC
  5
14C8E
  8
DANMEN
  6
CONTINUOUS
 10
96.300002
 20
216.430306
 30
0.0
 40
2.0
 50
0.000026
 51
51.706549
  0
LINE
  5
14C8F
  8
DANMEN
  6
CONTINUOUS
 10
93.900001
 20
217.699999
 30
0.0
 11
93.900001
 21
217.436931
 31
0.0
  0
ARC
  5
14C90
  8
DANMEN
  6
CONTINUOUS
 10
94.200002
 20
216.34606
 30
0.0
 40
1.0
 50
114.624344
 51
180.000026
  0
ARC
  5
14C91
  8
DANMEN
  6
CONTINUOUS
 10
93.700001
 20
217.436931
 30
0.0
 40
0.2
 50
294.624344
 51
0.000026
  0
ARC
  5
14C92
  8
DANMEN
  6
CONTINUOUS
 10
93.700002
 20
216.430305
 30
0.0
 40
2.0
 50
128.293503
 51
180.000026
  0
LINE
  5
14C93
  8
DANMEN
  6
CONTINUOUS
 10
93.600001
 20
217.999999
 30
0.0
 11
92.460622
 21
217.999998
 31
0.0
  0
ARC
  5
14C94
  8
DANMEN
  6
CONTINUOUS
 10
93.600001
 20
217.699999
 30
0.0
 40
0.3
 50
0.000026
 51
90.000026
  0
ARC
  5
14C95
  8
DANMEN
  6
CONTINUOUS
 10
96.300001
 20
217.436932
 30
0.0
 40
0.2
 50
180.000026
 51
245.375708
  0
ARC
  5
14C96
  8
DANMEN
  6
CONTINUOUS
 10
95.800002
 20
216.346061
 30
0.0
 40
1.0
 50
0.000026
 51
65.375708
  0
LINE
  5
14C97
  8
DANMEN
  6
CONTINUOUS
 10
96.100001
 20
217.7
 30
0.0
 11
96.100001
 21
217.436932
 31
0.0
  0
ARC
  5
14C98
  8
DANMEN
  6
CONTINUOUS
 10
96.400001
 20
217.7
 30
0.0
 40
0.3
 50
90.000026
 51
180.000026
  0
LINE
  5
14C99
  8
DANMEN
  6
CONTINUOUS
 10
96.400001
 20
217.999999
 30
0.0
 11
97.53938
 21
217.999999
 31
0.0
  0
ARC
  5
14C9E
  8
DANMEN
  6
DASHED
 10
103.5
 20
222.300003
 30
0.0
 40
0.5
 50
270.000018
 51
0.0
  0
ARC
  5
14C9F
  8
DANMEN
  6
CONTINUOUS
 10
100.8
 20
222.349999
 30
0.0
 40
1.0
 50
180.0
 51
270.0
  0
LINE
  5
14CA3
  8
DANMEN
  6
DASHED
 10
101.5
 20
223.0
 30
0.0
 11
104.0
 21
223.0
 31
0.0
  0
LINE
  5
14CA4
  8
DANMEN
  6
DASHED
 10
101.5
 20
223.0
 30
0.0
 11
104.0
 21
223.0
 31
0.0
  0
LINE
  5
14CA5
  8
DANMEN
  6
CONTINUOUS
 10
102.206061
 20
225.642044
 30
0.0
 11
102.5
 21
224.65
 31
0.0
  0
ARC
  5
14CA8
  8
DANMEN
  6
DASHED
 10
100.0
 20
223.5
 30
0.0
 40
0.5
 50
270.0
 51
0.0
  0
LINE
  5
14CA9
  8
DANMEN
  6
DASHED
 10
100.5
 20
227.600003
 30
0.0
 11
100.5
 21
223.5
 31
0.0
  0
LINE
  5
14CAA
  8
DANMEN
  6
DASHED
 10
101.5
 20
223.0
 30
0.0
 11
101.5
 21
225.999972
 31
0.0
  0
LINE
  5
14CAB
  8
DANMEN
  6
DASHED
 10
101.500009
 20
225.999972
 30
0.0
 11
101.869257
 21
226.252271
 31
0.0
  0
ARC
  5
14CAC
  8
DANMEN
  6
DASHED
 10
101.700001
 20
226.499972
 30
0.0
 40
0.3
 50
304.343976
 51
22.988532
  0
ARC
  5
14CB2
  8
DANMEN
  6
CONTINUOUS
 10
101.726662
 20
225.5
 30
0.0
 40
0.5
 50
16.504361
 51
90.0
  0
LINE
  5
14CB5
  8
DANMEN
  6
CONTINUOUS
 10
101.726662
 20
226.0
 30
0.0
 11
101.5
 21
226.0
 31
0.0
  0
LINE
  5
14CB6
  8
DANMEN
  6
CONTINUOUS
 10
101.5
 20
226.0
 30
0.0
 11
101.5
 21
223.5
 31
0.0
  0
ARC
  5
14CB7
  8
DANMEN
  6
CONTINUOUS
 10
102.0
 20
223.5
 30
0.0
 40
0.5
 50
180.0
 51
270.0
  0
LINE
  5
14CBA
  8
DANMEN
  6
DASHED
 10
104.0
 20
223.0
 30
0.0
 11
104.0
 21
222.300003
 31
0.0
  0
ARC
  5
14CBE
  8
DANMEN
  6
DASHED
 10
100.3
 20
229.800003
 30
0.0
 40
0.3
 50
22.988532
 51
192.999521
  0
LINE
  5
14CBF
  8
DANMEN
  6
CONTINUOUS
 10
99.8
 20
233.500003
 30
0.0
 11
100.8
 21
233.500003
 31
0.0
  0
ARC
  5
14CC0
  8
DANMEN
  6
CONTINUOUS
 10
100.8
 20
233.000003
 30
0.0
 40
0.5
 50
0.0
 51
90.0
  0
LINE
  5
14CC4
  8
DANMEN
  6
CONTINUOUS
 10
85.65
 20
247.65
 30
0.0
 11
90.7
 21
247.65
 31
0.0
  0
ARC
  5
14CC5
  8
DANMEN
  6
CONTINUOUS
 10
84.65
 20
250.600012
 30
0.0
 40
1.0
 50
0.0
 51
90.0
  0
LINE
  5
14CCA
  8
DANMEN
  6
CONTINUOUS
 10
83.0
 20
246.0
 30
0.0
 11
84.0
 21
246.0
 31
0.0
  0
LINE
  5
14CCB
  8
DANMEN
  6
CONTINUOUS
 10
85.65
 20
250.600012
 30
0.0
 11
85.65
 21
247.65
 31
0.0
  0
ARC
  5
14CCC
  8
DANMEN
  6
CONTINUOUS
 10
83.0
 20
246.5
 30
0.0
 40
0.5
 50
180.000019
 51
270.000001
  0
LINE
  5
14CCD
  8
DANMEN
  6
CONTINUOUS
 10
82.5
 20
246.8
 30
0.0
 11
82.5
 21
246.5
 31
0.0
  0
LINE
  5
14CCE
  8
DANMEN
  6
CONTINUOUS
 10
82.5
 20
246.8
 30
0.0
 11
84.0
 21
246.8
 31
0.0
  0
LINE
  5
14CCF
  8
DANMEN
  6
CONTINUOUS
 10
84.0
 20
249.950012
 30
0.0
 11
84.0
 21
246.8
 31
0.0
  0
ARC
  5
14CD4
  8
DANMEN
  6
CONTINUOUS
 10
93.7
 20
250.030306
 30
0.0
 40
2.0
 50
128.293195
 51
180.0
  0
LINE
  5
14CD5
  8
DANMEN
  6
CONTINUOUS
 10
93.9
 20
251.036932
 30
0.0
 11
93.9
 21
251.3
 31
0.0
  0
ARC
  5
14CD6
  8
DANMEN
  6
CONTINUOUS
 10
96.3
 20
250.030306
 30
0.0
 40
2.0
 50
0.0
 51
51.706523
  0
LINE
  5
14CD7
  8
DANMEN
  6
CONTINUOUS
 10
96.1
 20
251.036932
 30
0.0
 11
96.1
 21
251.3
 31
0.0
  0
ARC
  5
14CD8
  8
DANMEN
  6
CONTINUOUS
 10
99.3
 20
248.65
 30
0.0
 40
1.0
 50
180.0
 51
270.0
  0
LINE
  5
14CD9
  8
DANMEN
  6
CONTINUOUS
 10
95.8
 20
247.7
 30
0.0
 11
94.2
 21
247.7
 31
0.0
  0
ARC
  5
14CDB
  8
DANMEN
  6
CONTINUOUS
 10
90.7
 20
248.65
 30
0.0
 40
1.0
 50
270.0
 51
0.0
  0
LINE
  5
14CDC
  8
DANMEN
  6
CONTINUOUS
 10
91.7
 20
250.030306
 30
0.0
 11
91.7
 21
248.65
 31
0.0
  0
ARC
  5
14CDD
  8
DANMEN
  6
CONTINUOUS
 10
94.2
 20
249.946061
 30
0.0
 40
1.0
 50
114.624318
 51
180.0
  0
ARC
  5
14CDE
  8
DANMEN
  6
CONTINUOUS
 10
93.7
 20
251.036932
 30
0.0
 40
0.2
 50
294.624318
 51
0.0
  0
LINE
  5
14CDF
  8
DANMEN
  6
CONTINUOUS
 10
93.2
 20
249.946061
 30
0.0
 11
93.2
 21
248.7
 31
0.0
  0
ARC
  5
14CE0
  8
DANMEN
  6
CONTINUOUS
 10
94.2
 20
248.7
 30
0.0
 40
1.0
 50
180.0
 51
270.0
  0
ARC
  5
14CE3
  8
DANMEN
  6
CONTINUOUS
 10
96.3
 20
251.036932
 30
0.0
 40
0.2
 50
180.0
 51
245.375682
  0
ARC
  5
14CE4
  8
DANMEN
  6
CONTINUOUS
 10
95.8
 20
249.946061
 30
0.0
 40
1.0
 50
0.0
 51
65.375682
  0
ARC
  5
14CE5
  8
DANMEN
  6
CONTINUOUS
 10
95.8
 20
248.7
 30
0.0
 40
1.0
 50
270.0
 51
0.0
  0
LINE
  5
14CE6
  8
DANMEN
  6
CONTINUOUS
 10
98.3
 20
250.030306
 30
0.0
 11
98.3
 21
248.65
 31
0.0
  0
LINE
  5
14CE7
  8
DANMEN
  6
CONTINUOUS
 10
96.8
 20
249.946061
 30
0.0
 11
96.8
 21
248.7
 31
0.0
  0
ARC
  5
14CE8
  8
DANMEN
  6
CONTINUOUS
 10
93.6
 20
251.3
 30
0.0
 40
0.3
 50
0.0
 51
90.0
  0
LINE
  5
14CE9
  8
DANMEN
  6
CONTINUOUS
 10
93.6
 20
251.600006
 30
0.0
 11
92.460628
 21
251.600006
 31
0.0
  0
LINE
  5
14CEA
  8
DANMEN
  6
CONTINUOUS
 10
97.539379
 20
251.6
 30
0.0
 11
96.4
 21
251.6
 31
0.0
  0
ARC
  5
14CEB
  8
DANMEN
  6
CONTINUOUS
 10
96.4
 20
251.3
 30
0.0
 40
0.3
 50
90.0
 51
180.0
  0
LINE
  5
14CEC
  8
DANMEN
  6
CONTINUOUS
 10
113.350006
 20
246.0
 30
0.0
 11
113.350006
 21
224.65
 31
0.0
  0
LINE
  5
14CED
  8
DANMEN
  6
CONTINUOUS
 10
115.0
 20
257.5
 30
0.0
 11
115.0
 21
223.5
 31
0.0
  0
ARC
  5
14CEE
  8
DANMEN
  6
CONTINUOUS
 10
114.5
 20
223.5
 30
0.0
 40
0.5
 50
270.000018
 51
0.0
  0
ARC
  5
14CF1
  8
DANMEN
  6
CONTINUOUS
 10
108.4
 20
222.499999
 30
0.0
 40
0.5
 50
0.0
 51
90.0
  0
ARC
  5
14CF3
  8
DANMEN
  6
CONTINUOUS
 10
111.504277
 20
222.463517
 30
0.0
 40
0.5
 50
0.83042
 51
86.0
  0
LINE
  5
14CF4
  8
DANMEN
  6
CONTINUOUS
 10
111.0
 20
223.0
 30
0.0
 11
111.539155
 21
222.962299
 31
0.0
  0
LINE
  5
14CFA
  8
DANMEN
  6
CONTINUOUS
 10
113.350006
 20
256.350006
 30
0.0
 11
113.350006
 21
247.65
 31
0.0
  0
ARC
  5
14CFD
  8
DANMEN
  6
CONTINUOUS
 10
114.5
 20
257.5
 30
0.0
 40
0.5
 50
0.0
 51
89.999982
  0
LINE
  5
14CFE
  8
DANMEN
  6
CONTINUOUS
 10
109.0
 20
257.5
 30
0.0
 11
109.0
 21
256.850006
 31
0.0
  0
LINE
  5
14CFF
  8
DANMEN
  6
CONTINUOUS
 10
109.5
 20
256.350006
 30
0.0
 11
113.350006
 21
256.350006
 31
0.0
  0
ARC
  5
14D00
  8
DANMEN
  6
CONTINUOUS
 10
109.5
 20
256.850006
 30
0.0
 40
0.5
 50
180.000019
 51
270.000001
  0
LINE
  5
14D03
  8
DANMEN
  6
CONTINUOUS
 10
109.5
 20
258.0
 30
0.0
 11
114.5
 21
258.0
 31
0.0
  0
ARC
  5
14D04
  8
DANMEN
  6
CONTINUOUS
 10
109.5
 20
257.5
 30
0.0
 40
0.5
 50
89.999982
 51
180.000019
  0
LINE
  5
14D08
  8
DANMEN
  6
CONTINUOUS
 10
304.0
 20
124.999997
 30
0.0
 11
304.0
 21
123.342196
 31
0.0
  0
LINE
  5
14D09
  8
DANMEN
  6
CONTINUOUS
 10
271.0
 20
67.999997
 30
0.0
 11
271.0
 21
129.499997
 31
0.0
  0
LINE
  5
14D0A
  8
DANMEN
  6
CONTINUOUS
 10
320.999997
 20
124.499997
 30
0.0
 11
320.999997
 21
122.999997
 31
0.0
  0
LINE
  5
14D0B
  8
DANMEN
  6
CONTINUOUS
 10
304.0
 20
124.999997
 30
0.0
 11
304.0
 21
123.499997
 31
0.0
  0
ARC
  5
14D0C
  8
DANMEN
  6
CONTINUOUS
 10
322.000003
 20
121.999997
 30
0.0
 40
1.5
 50
359.999994
 51
90.00003
  0
LINE
  5
14D0D
  8
DANMEN
  6
CONTINUOUS
 10
392.649994
 20
162.350006
 30
0.0
 11
392.649994
 21
95.649994
 31
0.0
  0
LINE
  5
14D0E
  8
DANMEN
  6
CONTINUOUS
 10
378.0
 20
124.999994
 30
0.0
 11
378.0
 21
123.292193
 31
0.0
  0
LINE
  5
14D0F
  8
DANMEN
  6
CONTINUOUS
 10
378.0
 20
125.0
 30
0.0
 11
378.0
 21
123.5
 31
0.0
  0
LINE
  5
14D10
  8
DANMEN
  6
CONTINUOUS
 10
361.000003
 20
124.5
 30
0.0
 11
361.000003
 21
123.0
 31
0.0
  0
ARC
  5
14D11
  8
DANMEN
  6
CONTINUOUS
 10
360.000001
 20
121.999997
 30
0.0
 40
1.5
 50
90.0
 51
179.999982
  0
LINE
  5
14D12
  8
SUNPO
  6
CONTINUOUS
 10
333.0
 20
125.0
 30
0.0
 11
333.0
 21
94.0
 31
0.0
  0
LINE
  5
14D13
  8
SUNPO
  6
CONTINUOUS
 10
355.855906
 20
122.5
 30
0.0
 11
355.855906
 21
125.0
 31
0.0
  0
LINE
  5
14D14
  8
SUNPO
  6
CONTINUOUS
 10
267.364825
 20
163.999997
 30
0.0
 11
267.364825
 21
93.999997
 31
0.0
  0
LINE
  5
14D15
  8
SUNPO
  6
CONTINUOUS
 10
156.0
 20
141.0
 30
0.0
 11
156.0
 21
99.0
 31
0.0
  0
LINE
  5
14D16
  8
SUNPO
  6
CONTINUOUS
 10
25.0
 20
59.0
 30
0.0
 11
25.0
 21
162.0
 31
0.0
  0
TEXT
  5
14D17
  8
SUNPO
  6
CONTINUOUS
 10
354.855906
 20
121.25
 30
0.0
 40
2.5
  1
2.5
 50
90.0
  0
LINE
  5
14D18
  8
SUNPO
  6
CONTINUOUS
 10
166.0
 20
150.593714
 30
0.0
 11
166.0
 21
99.0
 31
0.0
  0
LINE
  5
14D19
  8
SUNPO
  6
CONTINUOUS
 10
321.0
 20
49.5
 30
0.0
 11
330.111405
 21
52.81628
 31
0.0
  0
LINE
  5
14D1A
  8
SUNPO
  6
CONTINUOUS
 10
321.500004
 20
66.0
 30
0.0
 11
333.0
 21
66.0
 31
0.0
  0
TEXT
  5
14D1B
  8
SUNPO
  6
CONTINUOUS
 10
332.0
 20
104.694873
 30
0.0
 40
2.5
  1
31
 50
90.0
  0
TEXT
  5
14D1C
  8
SUNPO
  6
CONTINUOUS
 10
332.0
 20
77.916667
 30
0.0
 40
2.5
  1
28
 50
90.0
  0
LINE
  5
14D1D
  8
SUNPO
  6
CONTINUOUS
 10
314.552269
 20
37.5
 30
0.0
 11
376.0
 21
37.5
 31
0.0
  0
LINE
  5
14D1E
  8
SUNPO
  6
CONTINUOUS
 10
321.0
 20
49.5
 30
0.0
 11
376.0
 21
49.5
 31
0.0
  0
LINE
  5
14D1F
  8
SUNPO
  6
CONTINUOUS
 10
60.0
 20
30.0
 30
0.0
 11
166.0
 21
30.0
 31
0.0
  0
LINE
  5
14D22
  8
DANMEN
  6
CONTINUOUS
 10
339.5
 20
94.0
 30
0.0
 11
321.0
 21
94.0
 31
0.0
  0
LINE
  5
14D23
  8
DANMEN
  6
CONTINUOUS
 10
339.5
 20
95.65
 30
0.0
 11
321.0
 21
95.65
 31
0.0
  0
LINE
  5
14D24
  8
DANMEN
  6
CONTINUOUS
 10
309.000002
 20
115.999997
 30
0.0
 11
339.499997
 21
115.999997
 31
0.0
  0
LINE
  5
14D25
  8
DANMEN
  6
CONTINUOUS
 10
309.000002
 20
108.999997
 30
0.0
 11
339.499997
 21
108.999997
 31
0.0
  0
LINE
  5
14D26
  8
DANMEN
  6
CONTINUOUS
 10
309.000002
 20
108.499997
 30
0.0
 11
339.499997
 21
108.499997
 31
0.0
  0
LINE
  5
14D27
  8
DANMEN
  6
CONTINUOUS
 10
309.000002
 20
116.499997
 30
0.0
 11
339.499997
 21
116.499997
 31
0.0
  0
LINE
  5
14D28
  8
DANMEN
  6
CONTINUOUS
 10
339.499997
 20
123.499997
 30
0.0
 11
321.0
 21
123.499997
 31
0.0
  0
LINE
  5
14D29
  8
DANMEN
  6
CONTINUOUS
 10
339.499997
 20
100.099997
 30
0.0
 11
321.0
 21
100.099997
 31
0.0
  0
LINE
  5
14D2A
  8
DANMEN
  6
CONTINUOUS
 10
339.499997
 20
101.499997
 30
0.0
 11
321.0
 21
101.499997
 31
0.0
  0
ARC
  5
14D2C
  8
DANMEN
  6
CONTINUOUS
 10
273.0
 20
67.999997
 30
0.0
 40
2.0
 50
179.999981
 51
270.000018
  0
LINE
  5
14D2D
  8
DANMEN
  6
CONTINUOUS
 10
266.5
 20
105.0
 30
0.0
 11
271.0
 21
105.0
 31
0.0
  0
LINE
  5
14D2E
  8
DANMEN
  6
CONTINUOUS
 10
266.5
 20
94.0
 30
0.0
 11
271.0
 21
94.0
 31
0.0
  0
LINE
  5
14D2F
  8
DANMEN
  6
CONTINUOUS
 10
266.5
 20
95.65
 30
0.0
 11
271.0
 21
95.65
 31
0.0
  0
LINE
  5
14D30
  8
DANMEN
  6
CONTINUOUS
 10
205.5
 20
93.999997
 30
0.0
 11
263.0
 21
93.999997
 31
0.0
  0
LINE
  5
14D31
  8
DANMEN
  6
CONTINUOUS
 10
205.5
 20
95.649997
 30
0.0
 11
263.0
 21
95.649997
 31
0.0
  0
ARC
  5
14D32
  8
DANMEN
  6
CONTINUOUS
 10
205.5
 20
94.499997
 30
0.0
 40
0.5
 50
270.000018
 51
359.999981
  0
ARC
  5
14D35
  8
DANMEN
  6
CONTINUOUS
 10
205.5
 20
95.149991
 30
0.0
 40
0.5
 50
359.999981
 51
89.999982
  0
LINE
  5
14D36
  8
DANMEN
  6
CONTINUOUS
 10
206.0
 20
95.149991
 30
0.0
 11
206.0
 21
94.499997
 31
0.0
  0
LINE
  5
14D37
  8
DANMEN
  6
CONTINUOUS
 10
274.5
 20
87.999997
 30
0.0
 11
276.0
 21
72.999997
 31
0.0
  0
LINE
  5
14D38
  8
DANMEN
  6
CONTINUOUS
 10
317.5
 20
87.999997
 30
0.0
 11
316.0
 21
72.999997
 31
0.0
  0
LINE
  5
14D39
  8
DANMEN
  6
CONTINUOUS
 10
321.0
 20
67.999997
 30
0.0
 11
321.0
 21
101.999997
 31
0.0
  0
LINE
  5
14D3A
  8
DANMEN
  6
CONTINUOUS
 10
316.0
 20
72.999997
 30
0.0
 11
276.0
 21
72.999997
 31
0.0
  0
LINE
  5
14D3B
  8
DANMEN
  6
CONTINUOUS
 10
319.0
 20
65.999997
 30
0.0
 11
273.0
 21
65.999997
 31
0.0
  0
ARC
  5
14D3D
  8
DANMEN
  6
CONTINUOUS
 10
319.0
 20
67.999997
 30
0.0
 40
2.0
 50
270.000018
 51
0.0
  0
LINE
  5
14D3F
  8
DANMEN
  6
CONTINUOUS
 10
317.5
 20
97.999997
 30
0.0
 11
274.5
 21
97.999997
 31
0.0
  0
LINE
  5
14D40
  8
DANMEN
  6
CONTINUOUS
 10
303.211146
 20
122.60557
 30
0.0
 11
303.745423
 21
122.906572
 31
0.0
  0
LINE
  5
14D41
  8
DANMEN
  6
CONTINUOUS
 10
318.500003
 20
99.999994
 30
0.0
 11
296.0
 21
99.999994
 31
0.0
  0
LINE
  5
14D42
  8
DANMEN
  6
CONTINUOUS
 10
304.3
 20
122.499997
 30
0.0
 11
302.3
 21
122.499997
 31
0.0
  0
LINE
  5
14D43
  8
DANMEN
  6
CONTINUOUS
 10
305.3
 20
121.299997
 30
0.0
 11
301.401083
 21
121.299997
 31
0.0
  0
LINE
  5
14D44
  8
DANMEN
  6
CONTINUOUS
 10
296.0
 20
108.299991
 30
0.0
 11
309.0
 21
108.299991
 31
0.0
  0
LINE
  5
14D45
  8
DANMEN
  6
CONTINUOUS
 10
296.0
 20
118.299991
 30
0.0
 11
309.0
 21
118.299991
 31
0.0
  0
LINE
  5
14D46
  8
DANMEN
  6
CONTINUOUS
 10
309.0
 20
108.299991
 30
0.0
 11
296.0
 21
118.299991
 31
0.0
  0
LINE
  5
14D47
  8
DANMEN
  6
CONTINUOUS
 10
284.049997
 20
99.949994
 30
0.0
 11
284.049997
 21
102.999994
 31
0.0
  0
LINE
  5
14D48
  8
DANMEN
  6
CONTINUOUS
 10
296.0
 20
99.999994
 30
0.0
 11
296.0
 21
118.299991
 31
0.0
  0
LINE
  5
14D49
  8
DANMEN
  6
CONTINUOUS
 10
272.949997
 20
99.949994
 30
0.0
 11
272.949997
 21
122.049997
 31
0.0
  0
LINE
  5
14D4A
  8
DANMEN
  6
CONTINUOUS
 10
274.5
 20
97.999997
 30
0.0
 11
274.5
 21
87.999997
 31
0.0
  0
LINE
  5
14D4B
  8
DANMEN
  6
CONTINUOUS
 10
284.049997
 20
99.949994
 30
0.0
 11
272.949997
 21
99.949994
 31
0.0
  0
LINE
  5
14D4D
  8
DANMEN
  6
CONTINUOUS
 10
293.500003
 20
100.499994
 30
0.0
 11
285.249997
 21
100.499994
 31
0.0
  0
LINE
  5
14D4E
  8
DANMEN
  6
CONTINUOUS
 10
285.249997
 20
122.499997
 30
0.0
 11
293.500003
 21
122.499997
 31
0.0
  0
ARC
  5
14D4F
  8
DANMEN
  6
CONTINUOUS
 10
284.749997
 20
102.499994
 30
0.0
 40
0.5
 50
0.0
 51
90.0
  0
LINE
  5
14D50
  8
DANMEN
  6
CONTINUOUS
 10
284.749997
 20
102.999994
 30
0.0
 11
284.049997
 21
102.999994
 31
0.0
  0
LINE
  5
14D51
  8
DANMEN
  6
CONTINUOUS
 10
285.249997
 20
100.499994
 30
0.0
 11
285.249997
 21
102.499994
 31
0.0
  0
LINE
  5
14D52
  8
DANMEN
  6
CONTINUOUS
 10
284.050003
 20
123.049997
 30
0.0
 11
272.649997
 21
123.049997
 31
0.0
  0
LINE
  5
14D54
  8
DANMEN
  6
CONTINUOUS
 10
272.949997
 20
122.049997
 30
0.0
 11
272.649997
 21
122.049997
 31
0.0
  0
LINE
  5
14D55
  8
DANMEN
  6
CONTINUOUS
 10
272.649997
 20
122.049997
 30
0.0
 11
272.649997
 21
123.049997
 31
0.0
  0
ARC
  5
14D56
  8
DANMEN
  6
CONTINUOUS
 10
284.749997
 20
120.499994
 30
0.0
 40
0.5
 50
270.0
 51
0.0
  0
LINE
  5
14D57
  8
DANMEN
  6
CONTINUOUS
 10
285.249997
 20
120.499994
 30
0.0
 11
285.249997
 21
122.499997
 31
0.0
  0
LINE
  5
14D58
  8
DANMEN
  6
CONTINUOUS
 10
284.049997
 20
119.999994
 30
0.0
 11
284.049997
 21
123.049997
 31
0.0
  0
LINE
  5
14D59
  8
DANMEN
  6
CONTINUOUS
 10
284.749997
 20
119.999994
 30
0.0
 11
284.049997
 21
119.999994
 31
0.0
  0
LINE
  5
14D5C
  8
DANMEN
  6
CONTINUOUS
 10
293.500003
 20
100.499994
 30
0.0
 11
293.500003
 21
122.499997
 31
0.0
  0
LINE
  5
14D5E
  8
DANMEN
  6
CONTINUOUS
 10
302.0
 20
122.999997
 30
0.0
 11
296.0
 21
122.999997
 31
0.0
  0
LINE
  5
14D5F
  8
DANMEN
  6
CONTINUOUS
 10
302.0
 20
118.299991
 30
0.0
 11
296.0
 21
118.299991
 31
0.0
  0
LINE
  5
14D60
  8
DANMEN
  6
CONTINUOUS
 10
300.0
 20
119.499991
 30
0.0
 11
296.0
 21
119.499991
 31
0.0
  0
LINE
  5
14D61
  8
DANMEN
  6
CONTINUOUS
 10
301.401083
 20
121.299997
 30
0.0
 11
298.699105
 21
119.299997
 31
0.0
  0
LINE
  5
14D62
  8
DANMEN
  6
CONTINUOUS
 10
301.413121
 20
122.80188
 30
0.0
 11
298.436094
 21
120.598289
 31
0.0
  0
LINE
  5
14D63
  8
DANMEN
  6
CONTINUOUS
 10
296.0
 20
119.499991
 30
0.0
 11
296.0
 21
122.999997
 31
0.0
  0
LINE
  5
14D64
  8
DANMEN
  6
CONTINUOUS
 10
298.699105
 20
119.299997
 30
0.0
 11
297.499105
 21
119.299997
 31
0.0
  0
LINE
  5
14D65
  8
DANMEN
  6
CONTINUOUS
 10
296.588046
 20
120.615605
 30
0.0
 11
297.499105
 21
119.299997
 31
0.0
  0
LINE
  5
14D66
  8
DANMEN
  6
CONTINUOUS
 10
296.499105
 20
120.900263
 30
0.0
 11
296.499105
 21
120.900132
 31
0.0
  0
LINE
  5
14D67
  8
DANMEN
  6
CONTINUOUS
 10
296.999105
 20
121.400132
 30
0.0
 11
297.24247
 21
121.400132
 31
0.0
  0
ARC
  5
14D68
  8
DANMEN
  6
CONTINUOUS
 10
296.999105
 20
120.900263
 30
0.0
 40
0.5
 50
180.0
 51
214.702622
  0
ARC
  5
14D69
  8
DANMEN
  6
CONTINUOUS
 10
296.999105
 20
120.900132
 30
0.0
 40
0.5
 50
90.0
 51
180.0
  0
LINE
  5
14D6A
  8
DANMEN
  6
CONTINUOUS
 10
297.653529
 20
121.184791
 30
0.0
 11
298.010975
 21
120.668624
 31
0.0
  0
ARC
  5
14D6B
  8
DANMEN
  6
CONTINUOUS
 10
298.257611
 20
120.839419
 30
0.0
 40
0.3
 50
214.702622
 51
306.508792
  0
ARC
  5
14D6C
  8
DANMEN
  6
CONTINUOUS
 10
297.24247
 20
120.900132
 30
0.0
 40
0.5
 50
34.702622
 51
90.0
  0
ARC
  5
14D6D
  8
DANMEN
  6
CONTINUOUS
 10
301.5
 20
118.690089
 30
0.0
 40
0.5
 50
0.0
 51
78.690068
  0
LINE
  5
14D6E
  8
DANMEN
  6
CONTINUOUS
 10
302.0
 20
118.690089
 30
0.0
 11
302.0
 21
118.299991
 31
0.0
  0
LINE
  5
14D6F
  8
DANMEN
  6
CONTINUOUS
 10
302.3
 20
122.499997
 30
0.0
 11
302.763932
 21
122.499997
 31
0.0
  0
ARC
  5
14D70
  8
DANMEN
  6
CONTINUOUS
 10
302.763932
 20
123.499997
 30
0.0
 40
1.0
 50
270.0
 51
296.565051
  0
LINE
  5
14D71
  8
DANMEN
  6
CONTINUOUS
 10
302.0
 20
122.799997
 30
0.0
 11
302.0
 21
122.999997
 31
0.0
  0
ARC
  5
14D72
  8
DANMEN
  6
CONTINUOUS
 10
302.3
 20
122.799997
 30
0.0
 40
0.3
 50
180.0
 51
270.0
  0
LINE
  5
14D73
  8
DANMEN
  6
CONTINUOUS
 10
300.0
 20
119.499991
 30
0.0
 11
301.598058
 21
119.180379
 31
0.0
  0
LINE
  5
14D74
  8
DANMEN
  6
CONTINUOUS
 10
301.734315
 20
122.899997
 30
0.0
 11
301.710594
 21
122.899997
 31
0.0
  0
ARC
  5
14D75
  8
DANMEN
  6
CONTINUOUS
 10
301.710594
 20
122.399997
 30
0.0
 40
0.5
 50
90.0
 51
126.508792
  0
ARC
  5
14D76
  8
DANMEN
  6
CONTINUOUS
 10
302.3
 20
122.799997
 30
0.0
 40
0.3
 50
199.471221
 51
270.0
  0
ARC
  5
14D78
  8
DANMEN
  6
CONTINUOUS
 10
301.734315
 20
122.599997
 30
0.0
 40
0.3
 50
19.471221
 51
90.0
  0
LINE
  5
14D7A
  8
DANMEN
  6
CONTINUOUS
 10
318.500003
 20
99.999994
 30
0.0
 11
318.500003
 21
101.199994
 31
0.0
  0
LINE
  5
14D7B
  8
DANMEN
  6
CONTINUOUS
 10
317.5
 20
97.999997
 30
0.0
 11
317.5
 21
87.999997
 31
0.0
  0
LINE
  5
14D7D
  8
DANMEN
  6
CONTINUOUS
 10
320.5
 20
102.499997
 30
0.0
 11
316.0
 21
102.499997
 31
0.0
  0
LINE
  5
14D7E
  8
DANMEN
  6
CONTINUOUS
 10
320.499996
 20
122.499997
 30
0.0
 11
317.999997
 21
122.499997
 31
0.0
  0
LINE
  5
14D7F
  8
DANMEN
  6
CONTINUOUS
 10
309.000002
 20
108.499997
 30
0.0
 11
309.000002
 21
116.499997
 31
0.0
  0
LINE
  5
14D80
  8
DANMEN
  6
CONTINUOUS
 10
309.0
 20
118.299991
 30
0.0
 11
309.0
 21
108.299991
 31
0.0
  0
ARC
  5
14D82
  8
DANMEN
  6
CONTINUOUS
 10
316.5
 20
102.199994
 30
0.0
 40
0.5
 50
180.0
 51
270.0
  0
LINE
  5
14D83
  8
DANMEN
  6
CONTINUOUS
 10
318.500003
 20
101.199994
 30
0.0
 11
316.5
 21
101.699994
 31
0.0
  0
LINE
  5
14D84
  8
DANMEN
  6
CONTINUOUS
 10
316.0
 20
102.199994
 30
0.0
 11
316.0
 21
102.499997
 31
0.0
  0
LINE
  5
14D85
  8
DANMEN
  6
CONTINUOUS
 10
315.999997
 20
123.049997
 30
0.0
 11
306.3
 21
123.049997
 31
0.0
  0
ARC
  5
14D86
  8
DANMEN
  6
CONTINUOUS
 10
303.5
 20
123.342196
 30
0.0
 40
0.5
 50
299.396173
 51
0.0
  0
ARC
  5
14D87
  8
DANMEN
  6
CONTINUOUS
 10
306.3
 20
122.549997
 30
0.0
 40
0.5
 50
90.0
 51
180.0
  0
LINE
  5
14D88
  8
DANMEN
  6
CONTINUOUS
 10
305.8
 20
122.549997
 30
0.0
 11
305.8
 21
121.799997
 31
0.0
  0
LINE
  5
14D89
  8
DANMEN
  6
CONTINUOUS
 10
304.3
 20
123.499997
 30
0.0
 11
304.3
 21
122.499997
 31
0.0
  0
LINE
  5
14D8A
  8
DANMEN
  6
CONTINUOUS
 10
304.3
 20
123.499997
 30
0.0
 11
304.0
 21
123.499997
 31
0.0
  0
ARC
  5
14D8B
  8
DANMEN
  6
CONTINUOUS
 10
305.3
 20
121.799997
 30
0.0
 40
0.5
 50
270.0
 51
0.0
  0
ARC
  5
14D8C
  8
DANMEN
  6
CONTINUOUS
 10
317.499997
 20
122.549997
 30
0.0
 40
0.5
 50
90.0
 51
180.0
  0
LINE
  5
14D8D
  8
DANMEN
  6
CONTINUOUS
 10
317.999997
 20
123.049997
 30
0.0
 11
317.999997
 21
122.499997
 31
0.0
  0
LINE
  5
14D8E
  8
DANMEN
  6
CONTINUOUS
 10
317.999997
 20
123.049997
 30
0.0
 11
317.499997
 21
123.049997
 31
0.0
  0
LINE
  5
14D8F
  8
DANMEN
  6
CONTINUOUS
 10
316.999997
 20
122.499997
 30
0.0
 11
315.999997
 21
122.499997
 31
0.0
  0
LINE
  5
14D90
  8
DANMEN
  6
CONTINUOUS
 10
316.999997
 20
122.549997
 30
0.0
 11
316.999997
 21
122.499997
 31
0.0
  0
LINE
  5
14D91
  8
DANMEN
  6
CONTINUOUS
 10
315.999997
 20
123.049997
 30
0.0
 11
315.999997
 21
122.499997
 31
0.0
  0
LINE
  5
14D92
  8
DANMEN
  6
CONTINUOUS
 10
323.500001
 20
106.999987
 30
0.0
 11
323.500001
 21
102.999997
 31
0.0
  0
ARC
  5
14D93
  8
DANMEN
  6
CONTINUOUS
 10
320.5
 20
101.999997
 30
0.0
 40
0.5
 50
0.000019
 51
89.999982
  0
LINE
  5
14D96
  8
DANMEN
  6
CONTINUOUS
 10
321.000001
 20
101.499997
 30
0.0
 11
322.000001
 21
101.499997
 31
0.0
  0
ARC
  5
14D97
  8
DANMEN
  6
CONTINUOUS
 10
322.000001
 20
102.999997
 30
0.0
 40
1.5
 50
269.999994
 51
359.999977
  0
ARC
  5
14D98
  8
DANMEN
  6
CONTINUOUS
 10
325.000001
 20
106.999987
 30
0.0
 40
1.5
 50
90.00003
 51
180.000012
  0
ARC
  5
14D99
  8
DANMEN
  6
CONTINUOUS
 10
325.000002
 20
117.999991
 30
0.0
 40
1.5
 50
180.000012
 51
269.999994
  0
ARC
  5
14D9B
  8
DANMEN
  6
CONTINUOUS
 10
320.499997
 20
122.999997
 30
0.0
 40
0.5
 50
270.0
 51
0.0
  0
LINE
  5
14D9D
  8
DANMEN
  6
CONTINUOUS
 10
321.000003
 20
123.499997
 30
0.0
 11
322.000003
 21
123.499997
 31
0.0
  0
LINE
  5
14D9E
  8
DANMEN
  6
CONTINUOUS
 10
323.500003
 20
121.999997
 30
0.0
 11
323.500002
 21
117.999991
 31
0.0
  0
LINE
  5
14D9F
  8
SUNPO
  6
CONTINUOUS
 10
45.0
 20
37.5
 30
0.0
 11
45.0
 21
20.0
 31
0.0
  0
LINE
  5
14DA0
  8
SUNPO
  6
CONTINUOUS
 10
25.0
 20
30.0
 30
0.0
 11
25.0
 21
39.0
 31
0.0
  0
TEXT
  5
14DA3
  8
SUNPO
  6
CONTINUOUS
 10
49.333333
 20
21.0
 30
0.0
 40
2.5
  1
12
  0
LINE
  5
14DA4
  8
SUNPO
  6
CONTINUOUS
 10
45.0
 20
20.0
 30
0.0
 11
57.0
 21
20.0
 31
0.0
  0
LINE
  5
14DA6
  8
SUNPO
  6
CONTINUOUS
 10
57.0
 20
28.5
 30
0.0
 11
57.0
 21
20.0
 31
0.0
  0
LINE
  5
14DA8
  8
DANMEN
  6
CONTINUOUS
 10
376.0
 20
97.999994
 30
0.0
 11
361.5
 21
97.999994
 31
0.0
  0
LINE
  5
14DA9
  8
DANMEN
  6
CONTINUOUS
 10
377.15
 20
99.649991
 30
0.0
 11
362.2
 21
99.649991
 31
0.0
  0
LINE
  5
14DAA
  8
DANMEN
  6
CONTINUOUS
 10
366.000003
 20
123.05
 30
0.0
 11
375.7
 21
123.05
 31
0.0
  0
LINE
  5
14DAB
  8
DANMEN
  6
CONTINUOUS
 10
342.5
 20
94.0
 30
0.0
 11
376.0
 21
94.0
 31
0.0
  0
LINE
  5
14DAC
  8
DANMEN
  6
CONTINUOUS
 10
342.5
 20
95.65
 30
0.0
 11
376.0
 21
95.65
 31
0.0
  0
LINE
  5
14DAD
  8
DANMEN
  6
CONTINUOUS
 10
373.000001
 20
108.499997
 30
0.0
 11
342.5
 21
108.499997
 31
0.0
  0
LINE
  5
14DAE
  8
DANMEN
  6
CONTINUOUS
 10
373.000001
 20
116.499997
 30
0.0
 11
355.35104
 21
116.499997
 31
0.0
  0
LINE
  5
14DAF
  8
DANMEN
  6
CONTINUOUS
 10
373.000001
 20
115.999997
 30
0.0
 11
355.263872
 21
115.999997
 31
0.0
  0
LINE
  5
14DB0
  8
DANMEN
  6
CONTINUOUS
 10
373.000001
 20
108.999997
 30
0.0
 11
342.5
 21
108.999997
 31
0.0
  0
LINE
  5
14DB1
  8
DANMEN
  6
CONTINUOUS
 10
361.0
 20
98.499994
 30
0.0
 11
361.0
 21
101.999994
 31
0.0
  0
LINE
  5
14DB2
  8
DANMEN
  6
CONTINUOUS
 10
362.2
 20
99.649991
 30
0.0
 11
362.2
 21
101.499994
 31
0.0
  0
LINE
  5
14DB3
  8
DANMEN
  6
CONTINUOUS
 10
342.5
 20
100.1
 30
0.0
 11
352.176704
 21
100.1
 31
0.0
  0
LINE
  5
14DB4
  8
DANMEN
  6
CONTINUOUS
 10
355.176704
 20
100.1
 30
0.0
 11
361.0
 21
100.1
 31
0.0
  0
ARC
  5
14DB5
  8
DANMEN
  6
CONTINUOUS
 10
361.5
 20
98.499994
 30
0.0
 40
0.5
 50
180.0
 51
270.0
  0
LINE
  5
14DB6
  8
DANMEN
  6
CONTINUOUS
 10
342.5
 20
101.5
 30
0.0
 11
352.176704
 21
101.5
 31
0.0
  0
LINE
  5
14DB7
  8
DANMEN
  6
CONTINUOUS
 10
352.35104
 20
116.499997
 30
0.0
 11
342.5
 21
116.499997
 31
0.0
  0
LINE
  5
14DB8
  8
DANMEN
  6
CONTINUOUS
 10
352.263872
 20
115.999997
 30
0.0
 11
342.5
 21
115.999997
 31
0.0
  0
LINE
  5
14DB9
  8
DANMEN
  6
CONTINUOUS
 10
361.000001
 20
101.499997
 30
0.0
 11
360.000001
 21
101.499997
 31
0.0
  0
LINE
  5
14DBA
  8
DANMEN
  6
CONTINUOUS
 10
355.176704
 20
101.5
 30
0.0
 11
361.0
 21
101.5
 31
0.0
  0
LINE
  5
14DBB
  8
DANMEN
  6
CONTINUOUS
 10
358.500001
 20
102.999997
 30
0.0
 11
358.500001
 21
107.000003
 31
0.0
  0
ARC
  5
14DBD
  8
DANMEN
  6
CONTINUOUS
 10
360.000001
 20
102.999997
 30
0.0
 40
1.5
 50
179.999999
 51
270.000036
  0
ARC
  5
14DBE
  8
DANMEN
  6
CONTINUOUS
 10
357.000001
 20
107.000003
 30
0.0
 40
1.5
 50
0.000018
 51
90.0
  0
LINE
  5
14DBF
  8
DANMEN
  6
CONTINUOUS
 10
361.5
 20
102.499994
 30
0.0
 11
366.0
 21
102.499994
 31
0.0
  0
LINE
  5
14DC0
  8
DANMEN
  6
CONTINUOUS
 10
362.2
 20
101.499994
 30
0.0
 11
365.5
 21
101.499994
 31
0.0
  0
ARC
  5
14DC1
  8
DANMEN
  6
CONTINUOUS
 10
361.5
 20
101.999994
 30
0.0
 40
0.5
 50
90.000018
 51
179.999981
  0
LINE
  5
14DC2
  8
DANMEN
  6
CONTINUOUS
 10
366.0
 20
101.999994
 30
0.0
 11
366.0
 21
102.499994
 31
0.0
  0
ARC
  5
14DC3
  8
DANMEN
  6
CONTINUOUS
 10
365.5
 20
101.999994
 30
0.0
 40
0.5
 50
270.0
 51
0.0
  0
LINE
  5
14DC4
  8
DANMEN
  6
CONTINUOUS
 10
361.000001
 20
123.499997
 30
0.0
 11
360.000001
 21
123.499997
 31
0.0
  0
ARC
  5
14DC5
  8
DANMEN
  6
CONTINUOUS
 10
357.000001
 20
118.000006
 30
0.0
 40
1.5
 50
270.000036
 51
0.000018
  0
LINE
  5
14DC7
  8
DANMEN
  6
CONTINUOUS
 10
358.500001
 20
118.000006
 30
0.0
 11
358.500001
 21
121.999997
 31
0.0
  0
ARC
  5
14DC9
  8
DANMEN
  6
CONTINUOUS
 10
364.500003
 20
122.55
 30
0.0
 40
0.5
 50
0.0
 51
90.0
  0
LINE
  5
14DCA
  8
DANMEN
  6
CONTINUOUS
 10
361.500004
 20
122.5
 30
0.0
 11
364.000003
 21
122.5
 31
0.0
  0
ARC
  5
14DCB
  8
DANMEN
  6
CONTINUOUS
 10
361.500003
 20
123.0
 30
0.0
 40
0.5
 50
180.0
 51
270.0
  0
LINE
  5
14DCC
  8
DANMEN
  6
CONTINUOUS
 10
364.000003
 20
123.05
 30
0.0
 11
364.500003
 21
123.05
 31
0.0
  0
LINE
  5
14DCD
  8
DANMEN
  6
CONTINUOUS
 10
364.000003
 20
123.05
 30
0.0
 11
364.000003
 21
122.5
 31
0.0
  0
LINE
  5
14DCF
  8
DANMEN
  6
CONTINUOUS
 10
366.000003
 20
123.05
 30
0.0
 11
366.000003
 21
122.5
 31
0.0
  0
LINE
  5
14DD0
  8
DANMEN
  6
CONTINUOUS
 10
365.000003
 20
122.55
 30
0.0
 11
365.000003
 21
122.5
 31
0.0
  0
LINE
  5
14DD1
  8
DANMEN
  6
CONTINUOUS
 10
365.000003
 20
122.5
 30
0.0
 11
366.000003
 21
122.5
 31
0.0
  0
LINE
  5
14DD2
  8
DANMEN
  6
CONTINUOUS
 10
391.0
 20
123.349994
 30
0.0
 11
391.0
 21
95.199997
 31
0.0
  0
LINE
  5
14DD3
  8
DANMEN
  6
CONTINUOUS
 10
389.0
 20
95.649994
 30
0.0
 11
377.65
 21
95.649994
 31
0.0
  0
LINE
  5
14DD4
  8
DANMEN
  6
CONTINUOUS
 10
400.5
 20
94.0
 30
0.0
 11
376.5
 21
94.0
 31
0.0
  0
ARC
  5
14DD5
  8
DANMEN
  6
CONTINUOUS
 10
377.15
 20
99.149991
 30
0.0
 40
0.5
 50
0.0
 51
90.0
  0
ARC
  5
14DD6
  8
DANMEN
  6
CONTINUOUS
 10
376.5
 20
94.5
 30
0.0
 40
0.5
 50
179.999981
 51
269.999963
  0
LINE
  5
14DD8
  8
DANMEN
  6
CONTINUOUS
 10
376.0
 20
94.5
 30
0.0
 11
376.0
 21
97.999994
 31
0.0
  0
LINE
  5
14DD9
  8
DANMEN
  6
CONTINUOUS
 10
377.65
 20
95.649994
 30
0.0
 11
377.65
 21
99.149991
 31
0.0
  0
LINE
  5
14DDA
  8
DANMEN
  6
CONTINUOUS
 10
399.350006
 20
95.649994
 30
0.0
 11
392.649994
 21
95.649994
 31
0.0
  0
LINE
  5
14DDB
  8
DANMEN
  6
CONTINUOUS
 10
391.0
 20
95.199997
 30
0.0
 11
389.0
 21
95.199997
 31
0.0
  0
LINE
  5
14DDC
  8
DANMEN
  6
CONTINUOUS
 10
389.0
 20
95.199997
 30
0.0
 11
389.0
 21
95.649994
 31
0.0
  0
ARC
  5
14DDD
  8
DANMEN
  6
CONTINUOUS
 10
400.5
 20
94.5
 30
0.0
 40
0.5
 50
270.000018
 51
359.999981
  0
LINE
  5
14DDE
  8
DANMEN
  6
CONTINUOUS
 10
400.5
 20
100.0
 30
0.0
 11
399.850006
 21
100.0
 31
0.0
  0
LINE
  5
14DDF
  8
DANMEN
  6
CONTINUOUS
 10
401.0
 20
99.5
 30
0.0
 11
401.0
 21
94.5
 31
0.0
  0
LINE
  5
14DE0
  8
DANMEN
  6
CONTINUOUS
 10
399.350006
 20
99.5
 30
0.0
 11
399.350006
 21
95.649994
 31
0.0
  0
ARC
  5
14DE1
  8
DANMEN
  6
CONTINUOUS
 10
399.850006
 20
99.5
 30
0.0
 40
0.5
 50
90.000037
 51
180.000019
  0
ARC
  5
14DE2
  8
DANMEN
  6
CONTINUOUS
 10
400.5
 20
99.5
 30
0.0
 40
0.5
 50
359.999981
 51
90.000037
  0
LINE
  5
14DE3
  8
DANMEN
  6
CONTINUOUS
 10
382.0
 20
119.499988
 30
0.0
 11
386.0
 21
119.499988
 31
0.0
  0
LINE
  5
14DE4
  8
DANMEN
  6
CONTINUOUS
 10
380.0
 20
123.349994
 30
0.0
 11
386.0
 21
123.349994
 31
0.0
  0
LINE
  5
14DE5
  8
DANMEN
  6
CONTINUOUS
 10
380.0
 20
118.299988
 30
0.0
 11
386.3
 21
118.299988
 31
0.0
  0
ARC
  5
14DE6
  8
DANMEN
  6
CONTINUOUS
 10
385.000895
 20
120.900136
 30
0.0
 40
0.5
 50
0.0
 51
90.0
  0
ARC
  5
14DE7
  8
DANMEN
  6
CONTINUOUS
 10
385.000895
 20
120.900266
 30
0.0
 40
0.5
 50
325.297378
 51
0.0
  0
LINE
  5
14DE8
  8
DANMEN
  6
CONTINUOUS
 10
373.000001
 20
116.499997
 30
0.0
 11
373.000001
 21
108.499997
 31
0.0
  0
LINE
  5
14DE9
  8
DANMEN
  6
CONTINUOUS
 10
376.7
 20
121.3
 30
0.0
 11
380.598917
 21
121.3
 31
0.0
  0
ARC
  5
14DEA
  8
DANMEN
  6
CONTINUOUS
 10
376.7
 20
121.8
 30
0.0
 40
0.5
 50
180.0
 51
270.0
  0
LINE
  5
14DEB
  8
DANMEN
  6
CONTINUOUS
 10
376.2
 20
122.55
 30
0.0
 11
376.2
 21
121.8
 31
0.0
  0
ARC
  5
14DEC
  8
DANMEN
  6
CONTINUOUS
 10
375.7
 20
122.55
 30
0.0
 40
0.5
 50
0.0
 51
90.0
  0
LINE
  5
14DED
  8
DANMEN
  6
CONTINUOUS
 10
382.0
 20
119.499988
 30
0.0
 11
380.401942
 21
119.180376
 31
0.0
  0
LINE
  5
14DEE
  8
DANMEN
  6
CONTINUOUS
 10
380.586879
 20
122.801883
 30
0.0
 11
383.563906
 21
120.598292
 31
0.0
  0
LINE
  5
14DEF
  8
DANMEN
  6
CONTINUOUS
 10
380.598917
 20
121.3
 30
0.0
 11
383.300895
 21
119.3
 31
0.0
  0
LINE
  5
14DF0
  8
DANMEN
  6
CONTINUOUS
 10
378.808854
 20
122.605567
 30
0.0
 11
378.254577
 21
122.856569
 31
0.0
  0
ARC
  5
14DF1
  8
DANMEN
  6
CONTINUOUS
 10
380.5
 20
118.690086
 30
0.0
 40
0.5
 50
101.309932
 51
180.0
  0
LINE
  5
14DF2
  8
DANMEN
  6
CONTINUOUS
 10
380.0
 20
118.690086
 30
0.0
 11
380.0
 21
118.299988
 31
0.0
  0
ARC
  5
14DF3
  8
DANMEN
  6
CONTINUOUS
 10
379.7
 20
122.799994
 30
0.0
 40
0.3
 50
270.0
 51
0.0
  0
LINE
  5
14DF4
  8
DANMEN
  6
CONTINUOUS
 10
380.0
 20
122.799994
 30
0.0
 11
380.0
 21
123.349994
 31
0.0
  0
ARC
  5
14DF5
  8
DANMEN
  6
CONTINUOUS
 10
379.256068
 20
123.499994
 30
0.0
 40
1.0
 50
243.434949
 51
270.0
  0
LINE
  5
14DF6
  8
DANMEN
  6
CONTINUOUS
 10
379.7
 20
122.499994
 30
0.0
 11
379.256068
 21
122.499994
 31
0.0
  0
ARC
  5
14DF7
  8
DANMEN
  6
CONTINUOUS
 10
378.5
 20
123.292193
 30
0.0
 40
0.5
 50
180.0
 51
240.603827
  0
ARC
  5
14DF9
  8
DANMEN
  6
CONTINUOUS
 10
380.265685
 20
122.6
 30
0.0
 40
0.3
 50
90.0
 51
160.528779
  0
ARC
  5
14DFB
  8
DANMEN
  6
CONTINUOUS
 10
379.7
 20
122.8
 30
0.0
 40
0.3
 50
270.0
 51
340.528779
  0
ARC
  5
14DFC
  8
DANMEN
  6
CONTINUOUS
 10
380.289406
 20
122.4
 30
0.0
 40
0.5
 50
53.491208
 51
90.0
  0
LINE
  5
14DFD
  8
DANMEN
  6
CONTINUOUS
 10
380.265685
 20
122.9
 30
0.0
 11
380.289406
 21
122.9
 31
0.0
  0
LINE
  5
14DFE
  8
DANMEN
  6
CONTINUOUS
 10
377.7
 20
123.5
 30
0.0
 11
378.0
 21
123.5
 31
0.0
  0
LINE
  5
14DFF
  8
DANMEN
  6
CONTINUOUS
 10
377.7
 20
123.5
 30
0.0
 11
377.7
 21
122.5
 31
0.0
  0
LINE
  5
14E00
  8
DANMEN
  6
CONTINUOUS
 10
377.7
 20
122.5
 30
0.0
 11
379.7
 21
122.5
 31
0.0
  0
ARC
  5
14E01
  8
DANMEN
  6
CONTINUOUS
 10
384.75753
 20
120.900136
 30
0.0
 40
0.5
 50
90.0
 51
145.297378
  0
ARC
  5
14E02
  8
DANMEN
  6
CONTINUOUS
 10
383.742389
 20
120.839422
 30
0.0
 40
0.3
 50
233.491208
 51
325.297378
  0
LINE
  5
14E03
  8
DANMEN
  6
CONTINUOUS
 10
384.346471
 20
121.184794
 30
0.0
 11
383.989025
 21
120.668627
 31
0.0
  0
LINE
  5
14E04
  8
DANMEN
  6
CONTINUOUS
 10
385.000895
 20
121.400136
 30
0.0
 11
384.75753
 21
121.400136
 31
0.0
  0
LINE
  5
14E05
  8
DANMEN
  6
CONTINUOUS
 10
385.411954
 20
120.615608
 30
0.0
 11
384.500895
 21
119.3
 31
0.0
  0
LINE
  5
14E06
  8
DANMEN
  6
CONTINUOUS
 10
383.300895
 20
119.3
 30
0.0
 11
384.500895
 21
119.3
 31
0.0
  0
LINE
  5
14E07
  8
DANMEN
  6
CONTINUOUS
 10
391.0
 20
123.349994
 30
0.0
 11
387.3
 21
123.349994
 31
0.0
  0
ARC
  5
14E09
  8
DANMEN
  6
CONTINUOUS
 10
386.3
 20
119.299988
 30
0.0
 40
1.0
 50
270.0
 51
0.0
  0
LINE
  5
14E0A
  8
DANMEN
  6
CONTINUOUS
 10
387.3
 20
119.299988
 30
0.0
 11
387.3
 21
123.349994
 31
0.0
  0
LINE
  5
14E0B
  8
DANMEN
  6
CONTINUOUS
 10
386.0
 20
119.499988
 30
0.0
 11
386.0
 21
123.349994
 31
0.0
  0
LINE
  5
14E0C
  8
DANMEN
  6
CONTINUOUS
 10
385.500895
 20
120.900266
 30
0.0
 11
385.500895
 21
120.900136
 31
0.0
  0
LINE
  5
14E0E
  8
SUNPO
  6
CONTINUOUS
 10
43.5
 20
39.0
 30
0.0
 11
25.0
 21
39.0
 31
0.0
  0
LINE
  5
14E0F
  8
SUNPO
  6
CONTINUOUS
 10
25.0
 20
39.0
 30
0.0
 11
25.0
 21
59.0
 31
0.0
  0
TEXT
  5
14E10
  8
SUNPO
  6
CONTINUOUS
 10
24.0
 20
33.666667
 30
0.0
 40
2.5
  1
9
 50
90.0
  0
TEXT
  5
14E13
  8
SUNPO
  6
CONTINUOUS
 10
24.0
 20
47.125
 30
0.0
 40
2.5
  1
20
 50
90.0
  0
TEXT
  5
14E14
  8
SUNPO
  6
CONTINUOUS
 10
34.0
 20
43.333333
 30
0.0
 40
2.5
  1
12
 50
90.0
  0
TEXT
  5
14E17
  8
SUNPO
  6
CONTINUOUS
 10
34.0
 20
54.166667
 30
0.0
 40
2.5
  1
8
 50
90.0
  0
TEXT
  5
14E18
  8
SUNPO
  6
CONTINUOUS
 10
34.0
 20
61.666667
 30
0.0
 40
2.5
  1
7
 50
90.0
  0
LINE
  5
14E19
  8
SUNPO
  6
CONTINUOUS
 10
35.0
 20
51.0
 30
0.0
 11
35.0
 21
59.0
 31
0.0
  0
LINE
  5
14E1A
  8
SUNPO
  6
CONTINUOUS
 10
35.0
 20
51.0
 30
0.0
 11
35.0
 21
39.0
 31
0.0
  0
LINE
  5
14E1C
  8
SUNPO
  6
CONTINUOUS
 10
43.5
 20
51.0
 30
0.0
 11
35.0
 21
51.0
 31
0.0
  0
LINE
  5
14E1F
  8
SUNPO
  6
CONTINUOUS
 10
35.0
 20
66.0
 30
0.0
 11
35.0
 21
59.0
 31
0.0
  0
LINE
  5
14E22
  8
SUNPO
  6
CONTINUOUS
 10
43.5
 20
66.0
 30
0.0
 11
35.0
 21
66.0
 31
0.0
  0
TEXT
  5
14E24
  8
SUNPO
  6
CONTINUOUS
 10
24.0
 20
107.791667
 30
0.0
 40
2.5
  1
103
 50
90.0
  0
TEXT
  5
14E25
  8
SUNPO
  6
CONTINUOUS
 10
196.833333
 20
58.499997
 30
0.0
 40
2.5
  1
15
  0
LINE
  5
14E26
  8
SUNPO
  6
CONTINUOUS
 10
206.0
 20
37.499997
 30
0.0
 11
181.0
 21
37.499997
 31
0.0
  0
LINE
  5
14E27
  8
SUNPO
  6
CONTINUOUS
 10
206.0
 20
57.499997
 30
0.0
 11
191.0
 21
57.499997
 31
0.0
  0
LINE
  5
14E28
  8
SUNPO
  6
CONTINUOUS
 10
166.0
 20
39.0
 30
0.0
 11
166.0
 21
30.0
 31
0.0
  0
LINE
  5
14E2A
  8
SUNPO
  6
CONTINUOUS
 10
116.5
 20
64.0
 30
0.0
 11
156.0
 21
64.0
 31
0.0
  0
LINE
  5
14E2B
  8
SUNPO
  6
CONTINUOUS
 10
116.5
 20
39.0
 30
0.0
 11
166.0
 21
39.0
 31
0.0
  0
LINE
  5
14E2C
  8
SUNPO
  6
CONTINUOUS
 10
116.5
 20
99.0
 30
0.0
 11
166.0
 21
99.0
 31
0.0
  0
LINE
  5
14E2D
  8
SUNPO
  6
CONTINUOUS
 10
156.0
 20
99.0
 30
0.0
 11
156.0
 21
64.0
 31
0.0
  0
LINE
  5
14E2E
  8
SUNPO
  6
CONTINUOUS
 10
166.0
 20
99.0
 30
0.0
 11
166.0
 21
39.0
 31
0.0
  0
LINE
  5
14E2F
  8
SUNPO
  6
CONTINUOUS
 10
181.0
 20
92.499997
 30
0.0
 11
181.0
 21
37.499997
 31
0.0
  0
LINE
  5
14E30
  8
SUNPO
  6
CONTINUOUS
 10
191.0
 20
92.499997
 30
0.0
 11
191.0
 21
57.499997
 31
0.0
  0
LINE
  5
14E33
  8
SUNPO
  6
CONTINUOUS
 10
156.0
 20
64.0
 30
0.0
 11
156.0
 21
39.0
 31
0.0
  0
TEXT
  5
14E35
  8
SUNPO
  6
CONTINUOUS
 10
165.0
 20
33.666667
 30
0.0
 40
2.5
  1
9
 50
90.0
  0
TEXT
  5
14E36
  8
SUNPO
  6
CONTINUOUS
 10
155.0
 20
49.416667
 30
0.0
 40
2.5
  1
25
 50
90.0
  0
TEXT
  5
14E39
  8
SUNPO
  6
CONTINUOUS
 10
165.0
 20
67.125
 30
0.0
 40
2.5
  1
60
 50
90.0
  0
TEXT
  5
14E3B
  8
SUNPO
  6
CONTINUOUS
 10
191.416667
 20
38.499997
 30
0.0
 40
2.5
  1
25
  0
LINE
  5
14E3C
  8
SUNPO
  6
CONTINUOUS
 10
191.0
 20
57.499997
 30
0.0
 11
181.0
 21
57.499997
 31
0.0
  0
TEXT
  5
14E3E
  8
SUNPO
  6
CONTINUOUS
 10
184.541667
 20
58.499997
 30
0.0
 40
2.5
  1
10
  0
LINE
  5
14E41
  8
SUNPO
  6
CONTINUOUS
 10
161.0
 20
104.0
 30
0.0
 11
171.0
 21
104.0
 31
0.0
  0
LINE
  5
14E42
  8
SUNPO
  6
CONTINUOUS
 10
166.0
 20
99.0
 30
0.0
 11
161.0
 21
104.0
 31
0.0
  0
TEXT
  5
14E43
  8
SUNPO
  6
CONTINUOUS
 10
155.0
 20
79.416667
 30
0.0
 40
2.5
  1
35
 50
90.0
  0
TEXT
  5
14E47
  8
SUNPO
  6
CONTINUOUS
 10
155.0
 20
117.916667
 30
0.0
 40
2.5
  1
42
 50
90.0
  0
LINE
  5
14E48
  8
SUNPO
  6
CONTINUOUS
 10
171.0
 20
104.0
 30
0.0
 11
166.0
 21
99.0
 31
0.0
  0
LINE
  5
14E4B
  8
SUNPO
  6
CONTINUOUS
 10
271.0
 20
49.5
 30
0.0
 11
261.888595
 21
46.18372
 31
0.0
  0
LINE
  5
14E4C
  8
SUNPO
  6
CONTINUOUS
 10
206.000003
 20
37.5
 30
0.0
 11
285.978714
 21
37.5
 31
0.0
  0
LINE
  5
14E4D
  8
SUNPO
  6
CONTINUOUS
 10
271.0
 20
49.5
 30
0.0
 11
216.0
 21
49.5
 31
0.0
  0
LINE
  5
14E4E
  8
SUNPO
  6
CONTINUOUS
 10
266.0
 20
49.499997
 30
0.0
 11
206.0
 21
49.499997
 31
0.0
  0
LINE
  5
14E4F
  8
SUNPO
  6
CONTINUOUS
 10
259.0
 20
92.499997
 30
0.0
 11
259.0
 21
57.499997
 31
0.0
  0
LINE
  5
14E50
  8
SUNPO
  6
CONTINUOUS
 10
206.0
 20
92.499997
 30
0.0
 11
206.0
 21
37.499997
 31
0.0
  0
TEXT
  5
14E51
  8
SUNPO
  6
CONTINUOUS
 10
230.416667
 20
58.499997
 30
0.0
 40
2.5
  1
53
  0
LINE
  5
14E52
  8
SUNPO
  6
CONTINUOUS
 10
259.0
 20
57.499997
 30
0.0
 11
206.0
 21
57.499997
 31
0.0
  0
LINE
  5
14E53
  8
SUNPO
  6
CONTINUOUS
 10
215.111405
 20
52.816277
 30
0.0
 11
216.267949
 21
48.499997
 31
0.0
  0
LINE
  5
14E54
  8
SUNPO
  6
CONTINUOUS
 10
206.0
 20
37.499997
 30
0.0
 11
211.0
 21
42.499997
 31
0.0
  0
LINE
  5
14E55
  8
SUNPO
  6
CONTINUOUS
 10
211.0
 20
42.499997
 30
0.0
 11
211.0
 21
32.499997
 31
0.0
  0
LINE
  5
14E56
  8
SUNPO
  6
CONTINUOUS
 10
211.0
 20
32.499997
 30
0.0
 11
206.0
 21
37.499997
 31
0.0
  0
LINE
  5
14E59
  8
SUNPO
  6
CONTINUOUS
 10
206.0
 20
49.499997
 30
0.0
 11
215.111405
 21
52.816277
 31
0.0
  0
TEXT
  5
14E62
  8
SUNPO
  6
CONTINUOUS
 10
241.837473
 20
50.548399
 30
0.0
 40
2.0
  1
2
  0
TEXT
  5
14E63
  8
SUNPO
  6
CONTINUOUS
 10
241.837473
 20
50.548402
 30
0.0
 40
2.0
  1
2
  0
LINE
  5
14E64
  8
SUNPO
  6
CONTINUOUS
 10
261.888595
 20
46.18372
 30
0.0
 11
260.732051
 21
50.5
 31
0.0
  0
TEXT
  5
14E68
  8
SUNPO
  6
CONTINUOUS
 10
294.125
 20
50.5
 30
0.0
 40
2.5
  1
50
  0
LINE
  5
14E69
  8
SUNPO
  6
CONTINUOUS
 10
298.495514
 20
41.0
 30
0.0
 11
294.186113
 21
41.0
 31
0.0
  0
LINE
  5
14E6A
  8
SUNPO
  6
CONTINUOUS
 10
299.22756
 20
34.000001
 30
0.0
 11
295.186114
 21
40.999998
 31
0.0
  0
LINE
  5
14E6B
  8
SUNPO
  6
CONTINUOUS
 10
321.0
 20
49.5
 30
0.0
 11
271.0
 21
49.5
 31
0.0
  0
LINE
  5
14E6C
  8
SUNPO
  6
CONTINUOUS
 10
271.0
 20
64.5
 30
0.0
 11
271.0
 21
49.5
 31
0.0
  0
LINE
  5
14E6E
  8
SUNPO
  6
CONTINUOUS
 10
292.10634
 20
41.0
 30
0.0
 11
287.73099
 21
41.0
 31
0.0
  0
LINE
  5
14E6F
  8
SUNPO
  6
CONTINUOUS
 10
292.876776
 20
34.000001
 30
0.0
 11
288.835331
 21
40.999997
 31
0.0
  0
LINE
  5
14E70
  8
SUNPO
  6
CONTINUOUS
 10
295.186113
 20
41.0
 30
0.0
 11
295.186113
 21
34.000001
 31
0.0
  0
LINE
  5
14E71
  8
SUNPO
  6
CONTINUOUS
 10
295.186114
 20
34.0
 30
0.0
 11
291.144668
 21
40.999997
 31
0.0
  0
LINE
  5
14E72
  8
SUNPO
  6
CONTINUOUS
 10
296.186113
 20
34.0
 30
0.0
 11
291.708582
 21
34.0
 31
0.0
  0
LINE
  5
14E73
  8
SUNPO
  6
CONTINUOUS
 10
321.0
 20
64.5
 30
0.0
 11
321.0
 21
49.5
 31
0.0
  0
LINE
  5
14E74
  8
SUNPO
  6
CONTINUOUS
 10
310.26901
 20
39.0
 30
0.0
 11
305.26901
 21
39.0
 31
0.0
  0
LINE
  5
14E75
  8
SUNPO
  6
CONTINUOUS
 10
310.26901
 20
36.0
 30
0.0
 11
305.26901
 21
36.0
 31
0.0
  0
LINE
  5
14E76
  8
SUNPO
  6
CONTINUOUS
 10
301.536959
 20
34.000004
 30
0.0
 11
297.495515
 21
40.999997
 31
0.0
  0
LINE
  5
14E77
  8
SUNPO
  6
CONTINUOUS
 10
301.536961
 20
41.0
 30
0.0
 11
301.536961
 21
34.000003
 31
0.0
  0
LINE
  5
14E78
  8
SUNPO
  6
CONTINUOUS
 10
302.11431
 20
34.0
 30
0.0
 11
298.536562
 21
34.0
 31
0.0
  0
LINE
  5
14E79
  8
SUNPO
  6
CONTINUOUS
 10
302.495805
 20
41.0
 30
0.0
 11
300.459285
 21
41.0
 31
0.0
  0
TEXT
  5
14E7D
  8
SUNPO
  6
CONTINUOUS
 10
394.541667
 20
58.5
 30
0.0
 40
2.5
  1
10
  0
LINE
  5
14E7E
  8
SUNPO
  6
CONTINUOUS
 10
401.0
 20
37.5
 30
0.0
 11
376.0
 21
37.5
 31
0.0
  0
LINE
  5
14E7F
  8
SUNPO
  6
CONTINUOUS
 10
391.0
 20
57.5
 30
0.0
 11
401.0
 21
57.5
 31
0.0
  0
LINE
  5
14E80
  8
SUNPO
  6
CONTINUOUS
 10
333.0
 20
94.0
 30
0.0
 11
333.0
 21
66.0
 31
0.0
  0
LINE
  5
14E81
  8
SUNPO
  6
CONTINUOUS
 10
391.0
 20
92.5
 30
0.0
 11
391.0
 21
57.5
 31
0.0
  0
LINE
  5
14E82
  8
SUNPO
  6
CONTINUOUS
 10
361.0
 20
92.5
 30
0.0
 11
361.0
 21
57.5
 31
0.0
  0
LINE
  5
14E83
  8
SUNPO
  6
CONTINUOUS
 10
376.0
 20
92.5
 30
0.0
 11
376.0
 21
37.5
 31
0.0
  0
LINE
  5
14E84
  8
SUNPO
  6
CONTINUOUS
 10
376.0
 20
57.5
 30
0.0
 11
361.0
 21
57.5
 31
0.0
  0
LINE
  5
14E87
  8
SUNPO
  6
CONTINUOUS
 10
330.111405
 20
52.81628
 30
0.0
 11
331.267949
 21
48.5
 31
0.0
  0
TEXT
  5
14E89
  8
SUNPO
  6
CONTINUOUS
 10
350.372796
 20
50.484156
 30
0.0
 40
2.0
  1
1
 41
1.5
  0
LINE
  5
14E8C
  8
SUNPO
  6
CONTINUOUS
 10
371.0
 20
32.5
 30
0.0
 11
371.0
 21
42.5
 31
0.0
  0
LINE
  5
14E8D
  8
SUNPO
  6
CONTINUOUS
 10
371.0
 20
42.5
 30
0.0
 11
376.0
 21
37.5
 31
0.0
  0
LINE
  5
14E8E
  8
SUNPO
  6
CONTINUOUS
 10
376.0
 20
37.5
 30
0.0
 11
371.0
 21
32.5
 31
0.0
  0
LINE
  5
14E91
  8
SUNPO
  6
CONTINUOUS
 10
376.0
 20
49.5
 30
0.0
 11
366.888595
 21
46.18372
 31
0.0
  0
LINE
  5
14E92
  8
SUNPO
  6
CONTINUOUS
 10
366.888595
 20
46.18372
 30
0.0
 11
365.732051
 21
50.5
 31
0.0
  0
TEXT
  5
14E97
  8
SUNPO
  6
CONTINUOUS
 10
386.416667
 20
38.5
 30
0.0
 40
2.5
  1
25
  0
LINE
  5
14E98
  8
SUNPO
  6
CONTINUOUS
 10
391.0
 20
57.5
 30
0.0
 11
376.0
 21
57.5
 31
0.0
  0
TEXT
  5
14E99
  8
SUNPO
  6
CONTINUOUS
 10
366.833333
 20
58.5
 30
0.0
 40
2.5
  1
15
  0
TEXT
  5
14E9C
  8
SUNPO
  6
CONTINUOUS
 10
381.833333
 20
58.5
 30
0.0
 40
2.5
  1
15
  0
TEXT
  5
14E9F
  8
SUNPO
  6
CONTINUOUS
 10
354.855906
 20
97.749994
 30
0.0
 40
2.5
  1
4.5
 50
90.0
  0
LINE
  5
14EA0
  8
SUNPO
  6
CONTINUOUS
 10
355.855906
 20
97.999994
 30
0.0
 11
355.855906
 21
102.499994
 31
0.0
  0
LINE
  5
14EA3
  8
SUNPO
  6
CONTINUOUS
 10
355.855906
 20
94.0
 30
0.0
 11
355.855906
 21
88.013333
 31
0.0
  0
TEXT
  5
14EA4
  8
SUNPO
  6
CONTINUOUS
 10
354.855906
 20
89.013333
 30
0.0
 40
2.5
  1
4
 50
90.0
  0
LINE
  5
14EA5
  8
SUNPO
  6
CONTINUOUS
 10
355.855906
 20
97.999994
 30
0.0
 11
355.855906
 21
94.0
 31
0.0
  0
LINE
  5
14EA7
  8
SUNPO
  6
CONTINUOUS
 10
359.5
 20
97.999994
 30
0.0
 11
355.855906
 21
97.999994
 31
0.0
  0
LINE
  5
14EAA
  8
SUNPO
  6
CONTINUOUS
 10
355.855906
 20
102.499994
 30
0.0
 11
355.855906
 21
122.5
 31
0.0
  0
LINE
  5
14EAB
  8
SUNPO
  6
CONTINUOUS
 10
359.5
 20
102.499994
 30
0.0
 11
355.855906
 21
102.499994
 31
0.0
  0
TEXT
  5
14EAE
  8
SUNPO
  6
CONTINUOUS
 10
354.855906
 20
113.845249
 30
0.0
 40
2.5
  1
20
 50
90.0
  0
LINE
  5
14EAF
  8
SUNPO
  6
CONTINUOUS
 10
359.5
 20
122.5
 30
0.0
 11
355.855906
 21
122.5
 31
0.0
  0
LINE
  5
14EB2
  8
SUNPO
  6
CONTINUOUS
 10
401.0
 20
92.5
 30
0.0
 11
401.0
 21
37.5
 31
0.0
  0
TEXT
  5
14EB5
  8
SUNPO
  6
CONTINUOUS
 10
332.0
 20
128.166667
 30
0.0
 40
2.5
  1
8
 50
90.0
  0
TEXT
  5
14EB6
  8
SUNPO
  6
CONTINUOUS
 10
332.0
 20
159.666667
 30
0.0
 40
2.5
  1
7
 50
90.0
  0
TEXT
  5
14EB7
  8
SUNPO
  6
CONTINUOUS
 10
332.0
 20
147.225548
 30
0.0
 40
2.5
  1
24
 50
90.0
  0
LINE
  5
14EB8
  8
SUNPO
  6
CONTINUOUS
 10
317.350012
 20
133.0
 30
0.0
 11
333.0
 21
133.0
 31
0.0
  0
LINE
  5
14EB9
  8
SUNPO
  6
CONTINUOUS
 10
76.0
 20
168.0
 30
0.0
 11
52.0
 21
168.0
 31
0.0
  0
LINE
  5
14EBA
  8
SUNPO
  6
CONTINUOUS
 10
45.0
 20
178.0
 30
0.0
 11
115.0
 21
178.0
 31
0.0
  0
LINE
  5
14EBB
  8
DANMEN
  6
CONTINUOUS
 10
266.5
 20
157.0
 30
0.0
 11
339.5
 21
157.0
 31
0.0
  0
LINE
  5
14EBC
  8
DANMEN
  6
CONTINUOUS
 10
321.0
 20
146.5
 30
0.0
 11
339.5
 21
146.5
 31
0.0
  0
LINE
  5
14EBD
  8
DANMEN
  6
CONTINUOUS
 10
321.0
 20
143.5
 30
0.0
 11
339.5
 21
143.5
 31
0.0
  0
LINE
  5
14EBE
  8
DANMEN
  6
CONTINUOUS
 10
266.5
 20
167.0
 30
0.0
 11
339.5
 21
167.0
 31
0.0
  0
LINE
  5
14EBF
  8
DANMEN
  6
CONTINUOUS
 10
266.5
 20
165.800003
 30
0.0
 11
339.5
 21
165.800003
 31
0.0
  0
LINE
  5
14EC0
  8
DANMEN
  6
CONTINUOUS
 10
266.5
 20
162.800003
 30
0.0
 11
339.5
 21
162.800003
 31
0.0
  0
LINE
  5
14EC1
  8
DANMEN
  6
CONTINUOUS
 10
339.5
 20
125.0
 30
0.0
 11
320.999997
 21
125.0
 31
0.0
  0
LINE
  5
14EC2
  8
DANMEN
  6
CONTINUOUS
 10
321.0
 20
129.999997
 30
0.0
 11
339.5
 21
129.999997
 31
0.0
  0
LINE
  5
14EC3
  8
DANMEN
  6
CONTINUOUS
 10
278.0
 20
147.500006
 30
0.0
 11
267.0
 21
147.500006
 31
0.0
  0
LINE
  5
14EC4
  8
DANMEN
  6
CONTINUOUS
 10
278.0
 20
147.000006
 30
0.0
 11
267.0
 21
147.000006
 31
0.0
  0
LINE
  5
14EC5
  8
DANMEN
  6
CONTINUOUS
 10
278.000015
 20
143.000018
 30
0.0
 11
267.0
 21
143.000018
 31
0.0
  0
LINE
  5
14EC6
  8
DANMEN
  6
CONTINUOUS
 10
267.0
 20
132.999997
 30
0.0
 11
271.0
 21
132.999997
 31
0.0
  0
LINE
  5
14EC7
  8
DANMEN
  6
CONTINUOUS
 10
267.0
 20
129.999997
 30
0.0
 11
271.0
 21
129.999997
 31
0.0
  0
LINE
  5
14EC8
  8
DANMEN
  6
CONTINUOUS
 10
267.0
 20
135.199997
 30
0.0
 11
271.0
 21
135.199997
 31
0.0
  0
LINE
  5
14EC9
  8
DANMEN
  6
CONTINUOUS
 10
278.000015
 20
142.500018
 30
0.0
 11
267.0
 21
142.500018
 31
0.0
  0
LINE
  5
14ECA
  8
DANMEN
  6
CONTINUOUS
 10
271.000015
 20
137.000012
 30
0.0
 11
267.0
 21
137.000012
 31
0.0
  0
LINE
  5
14ECB
  8
DANMEN
  6
CONTINUOUS
 10
271.0
 20
152.999982
 30
0.0
 11
267.0
 21
152.999982
 31
0.0
  0
LINE
  5
14ECC
  8
DANMEN
  6
CONTINUOUS
 10
267.0
 20
154.799997
 30
0.0
 11
271.0
 21
154.799997
 31
0.0
  0
LINE
  5
14ECD
  8
DANMEN
  6
CONTINUOUS
 10
221.538905
 20
156.999997
 30
0.0
 11
258.5
 21
156.999997
 31
0.0
  0
LINE
  5
14ECE
  8
DANMEN
  6
CONTINUOUS
 10
221.53891
 20
132.999997
 30
0.0
 11
258.5
 21
132.999997
 31
0.0
  0
LINE
  5
14ECF
  8
DANMEN
  6
CONTINUOUS
 10
222.949982
 20
155.05
 30
0.0
 11
246.899985
 21
155.05
 31
0.0
  0
LINE
  5
14ED0
  8
DANMEN
  6
CONTINUOUS
 10
222.949982
 20
134.949994
 30
0.0
 11
246.899985
 21
134.949994
 31
0.0
  0
LINE
  5
14ED1
  8
DANMEN
  6
CONTINUOUS
 10
226.0
 20
166.999997
 30
0.0
 11
263.0
 21
166.999997
 31
0.0
  0
LINE
  5
14ED2
  8
DANMEN
  6
CONTINUOUS
 10
226.0
 20
165.8
 30
0.0
 11
263.0
 21
165.8
 31
0.0
  0
LINE
  5
14ED3
  8
DANMEN
  6
CONTINUOUS
 10
226.0
 20
162.8
 30
0.0
 11
263.0
 21
162.8
 31
0.0
  0
LINE
  5
14ED4
  8
DANMEN
  6
CONTINUOUS
 10
208.461095
 20
132.999997
 30
0.0
 11
253.5
 21
132.999997
 31
0.0
  0
LINE
  5
14ED5
  8
DANMEN
  6
CONTINUOUS
 10
208.949997
 20
151.05
 30
0.0
 11
208.949997
 21
138.949994
 31
0.0
  0
LINE
  5
14ED6
  8
DANMEN
  6
CONTINUOUS
 10
206.999997
 20
149.499997
 30
0.0
 11
206.999997
 21
140.499997
 31
0.0
  0
LINE
  5
14ED7
  8
DANMEN
  6
CONTINUOUS
 10
208.949997
 20
138.949994
 30
0.0
 11
221.949982
 21
138.949994
 31
0.0
  0
ARC
  5
14ED8
  8
DANMEN
  6
CONTINUOUS
 10
221.538905
 20
133.499997
 30
0.0
 40
0.5
 50
175.7108
 51
270.0
  0
LINE
  5
14ED9
  8
DANMEN
  6
CONTINUOUS
 10
208.699997
 20
136.999994
 30
0.0
 11
208.959695
 21
133.537392
 31
0.0
  0
LINE
  5
14EDA
  8
DANMEN
  6
CONTINUOUS
 10
221.040305
 20
133.537392
 30
0.0
 11
221.300003
 21
136.999994
 31
0.0
  0
LINE
  5
14EDB
  8
DANMEN
  6
CONTINUOUS
 10
207.599997
 20
134.949994
 30
0.0
 11
207.599997
 21
140.499997
 31
0.0
  0
ARC
  5
14EDE
  8
DANMEN
  6
CONTINUOUS
 10
208.461095
 20
133.499997
 30
0.0
 40
0.5
 50
270.0
 51
4.2892
  0
LINE
  5
14EE4
  8
DANMEN
  6
CONTINUOUS
 10
208.699997
 20
136.999994
 30
0.0
 11
221.300003
 21
136.999994
 31
0.0
  0
LINE
  5
14EE9
  8
DANMEN
  6
CONTINUOUS
 10
206.999997
 20
140.499997
 30
0.0
 11
207.599997
 21
140.499997
 31
0.0
  0
LINE
  5
14EEC
  8
DANMEN
  6
CONTINUOUS
 10
222.949982
 20
137.949994
 30
0.0
 11
222.949982
 21
134.949994
 31
0.0
  0
ARC
  5
14EEF
  8
DANMEN
  6
CONTINUOUS
 10
221.949982
 20
137.949994
 30
0.0
 40
1.0
 50
0.0
 51
89.999982
  0
LINE
  5
14EF0
  8
DANMEN
  6
CONTINUOUS
 10
208.949997
 20
151.05
 30
0.0
 11
221.949982
 21
151.05
 31
0.0
  0
ARC
  5
14EF1
  8
DANMEN
  6
CONTINUOUS
 10
221.538905
 20
156.499997
 30
0.0
 40
0.5
 50
90.0
 51
184.289197
  0
LINE
  5
14EF2
  8
DANMEN
  6
CONTINUOUS
 10
205.5
 20
163.999997
 30
0.0
 11
226.0
 21
163.999997
 31
0.0
  0
LINE
  5
14EF3
  8
DANMEN
  6
CONTINUOUS
 10
208.699997
 20
152.999997
 30
0.0
 11
221.300003
 21
152.999997
 31
0.0
  0
LINE
  5
14EF4
  8
DANMEN
  6
CONTINUOUS
 10
207.599997
 20
149.499997
 30
0.0
 11
207.599997
 21
155.05
 31
0.0
  0
LINE
  5
14EF8
  8
DANMEN
  6
CONTINUOUS
 10
206.999997
 20
149.499997
 30
0.0
 11
207.599997
 21
149.499997
 31
0.0
  0
LINE
  5
14EFC
  8
DANMEN
  6
CONTINUOUS
 10
208.959695
 20
156.462602
 30
0.0
 11
208.699997
 21
152.999997
 31
0.0
  0
ARC
  5
14EFD
  8
DANMEN
  6
CONTINUOUS
 10
208.461095
 20
156.499997
 30
0.0
 40
0.5
 50
355.710803
 51
90.0
  0
LINE
  5
14F03
  8
DANMEN
  6
CONTINUOUS
 10
221.300003
 20
152.999997
 30
0.0
 11
221.040305
 21
156.462602
 31
0.0
  0
ARC
  5
14F08
  8
DANMEN
  6
CONTINUOUS
 10
205.5
 20
163.499997
 30
0.0
 40
0.5
 50
359.999981
 51
89.999982
  0
ARC
  5
14F09
  8
DANMEN
  6
CONTINUOUS
 10
205.5
 20
162.850003
 30
0.0
 40
0.5
 50
270.000018
 51
359.999981
  0
LINE
  5
14F0A
  8
DANMEN
  6
CONTINUOUS
 10
206.0
 20
163.499997
 30
0.0
 11
206.0
 21
162.850003
 31
0.0
  0
LINE
  5
14F0B
  8
DANMEN
  6
CONTINUOUS
 10
222.949982
 20
155.05
 30
0.0
 11
222.949982
 21
152.05
 31
0.0
  0
ARC
  5
14F0D
  8
DANMEN
  6
CONTINUOUS
 10
221.949982
 20
152.05
 30
0.0
 40
1.0
 50
270.000018
 51
0.0
  0
LINE
  5
14F0F
  8
DANMEN
  6
CONTINUOUS
 10
226.0
 20
166.999997
 30
0.0
 11
226.0
 21
162.8
 31
0.0
  0
ARC
  5
14F10
  8
DANMEN
  6
CONTINUOUS
 10
230.399994
 20
166.399991
 30
0.0
 40
0.6
 50
270.000018
 51
90.000037
  0
LINE
  5
14F11
  8
DANMEN
  6
CONTINUOUS
 10
247.999985
 20
155.05
 30
0.0
 11
247.999985
 21
134.949994
 31
0.0
  0
LINE
  5
14F12
  8
DANMEN
  6
CONTINUOUS
 10
246.049988
 20
148.999997
 30
0.0
 11
246.049988
 21
140.999997
 31
0.0
  0
LINE
  5
14F13
  8
DANMEN
  6
CONTINUOUS
 10
251.999985
 20
142.499988
 30
0.0
 11
251.999985
 21
147.499991
 31
0.0
  0
LINE
  5
14F14
  8
DANMEN
  6
CONTINUOUS
 10
247.999985
 20
134.949994
 30
0.0
 11
257.9
 21
134.949994
 31
0.0
  0
LINE
  5
14F15
  8
DANMEN
  6
CONTINUOUS
 10
252.0
 20
142.999988
 30
0.0
 11
263.0
 21
142.999988
 31
0.0
  0
LINE
  5
14F16
  8
DANMEN
  6
CONTINUOUS
 10
252.0
 20
142.499988
 30
0.0
 11
263.0
 21
142.499988
 31
0.0
  0
LINE
  5
14F17
  8
DANMEN
  6
CONTINUOUS
 10
246.899985
 20
140.999997
 30
0.0
 11
246.899985
 21
134.949994
 31
0.0
  0
LINE
  5
14F1C
  8
DANMEN
  6
CONTINUOUS
 10
246.049988
 20
140.999997
 30
0.0
 11
246.899985
 21
140.999997
 31
0.0
  0
LINE
  5
14F1E
  8
DANMEN
  6
CONTINUOUS
 10
259.0
 20
133.499997
 30
0.0
 11
259.0
 21
137.499997
 31
0.0
  0
LINE
  5
14F1F
  8
DANMEN
  6
CONTINUOUS
 10
257.9
 20
134.949994
 30
0.0
 11
257.9
 21
137.199997
 31
0.0
  0
ARC
  5
14F22
  8
DANMEN
  6
CONTINUOUS
 10
258.5
 20
133.499997
 30
0.0
 40
0.5
 50
270.000018
 51
0.0
  0
ARC
  5
14F23
  8
DANMEN
  6
CONTINUOUS
 10
262.999908
 20
140.999988
 30
0.0
 40
1.5
 50
90.0
 51
179.999982
  0
LINE
  5
14F24
  8
DANMEN
  6
CONTINUOUS
 10
259.0
 20
137.000012
 30
0.0
 11
263.0
 21
137.000012
 31
0.0
  0
LINE
  5
14F25
  8
DANMEN
  6
CONTINUOUS
 10
259.0
 20
135.199997
 30
0.0
 11
263.0
 21
135.199997
 31
0.0
  0
LINE
  5
14F26
  8
DANMEN
  6
CONTINUOUS
 10
261.499908
 20
138.499982
 30
0.0
 11
261.499908
 21
140.999988
 31
0.0
  0
LINE
  5
14F27
  8
DANMEN
  6
CONTINUOUS
 10
256.0
 20
137.999997
 30
0.0
 11
258.5
 21
137.999997
 31
0.0
  0
ARC
  5
14F29
  8
DANMEN
  6
CONTINUOUS
 10
256.5
 20
137.850128
 30
0.0
 40
0.5
 50
180.0
 51
263.990994
  0
LINE
  5
14F2B
  8
DANMEN
  6
CONTINUOUS
 10
257.9
 20
137.199997
 30
0.0
 11
256.447658
 21
137.352875
 31
0.0
  0
LINE
  5
14F30
  8
DANMEN
  6
CONTINUOUS
 10
256.0
 20
137.850128
 30
0.0
 11
256.0
 21
137.999997
 31
0.0
  0
ARC
  5
14F32
  8
DANMEN
  6
CONTINUOUS
 10
258.5
 20
137.499997
 30
0.0
 40
0.5
 50
0.0
 51
89.999982
  0
ARC
  5
14F33
  8
DANMEN
  6
CONTINUOUS
 10
259.999908
 20
138.499982
 30
0.0
 40
1.5
 50
269.999964
 51
0.000001
  0
LINE
  5
14F36
  8
DANMEN
  6
CONTINUOUS
 10
268.500092
 20
141.000003
 30
0.0
 11
268.500092
 21
138.500012
 31
0.0
  0
ARC
  5
14F37
  8
DANMEN
  6
CONTINUOUS
 10
270.000092
 20
138.500012
 30
0.0
 40
1.5
 50
180.000018
 51
270.0
  0
ARC
  5
14F38
  8
DANMEN
  6
CONTINUOUS
 10
267.000092
 20
141.000003
 30
0.0
 40
1.5
 50
359.999982
 51
89.999964
  0
LINE
  5
14F39
  8
DANMEN
  6
CONTINUOUS
 10
247.999985
 20
155.05
 30
0.0
 11
257.9
 21
155.05
 31
0.0
  0
LINE
  5
14F3A
  8
DANMEN
  6
CONTINUOUS
 10
251.999985
 20
146.999976
 30
0.0
 11
263.0
 21
146.999976
 31
0.0
  0
LINE
  5
14F3B
  8
DANMEN
  6
CONTINUOUS
 10
251.999985
 20
147.499976
 30
0.0
 11
263.0
 21
147.499976
 31
0.0
  0
LINE
  5
14F3C
  8
DANMEN
  6
CONTINUOUS
 10
246.899985
 20
155.05
 30
0.0
 11
246.899985
 21
148.999997
 31
0.0
  0
LINE
  5
14F3F
  8
DANMEN
  6
CONTINUOUS
 10
246.049988
 20
148.999997
 30
0.0
 11
246.899985
 21
148.999997
 31
0.0
  0
ARC
  5
14F41
  8
DANMEN
  6
CONTINUOUS
 10
262.999908
 20
148.999991
 30
0.0
 40
1.5
 50
179.999982
 51
269.999964
  0
LINE
  5
14F42
  8
DANMEN
  6
CONTINUOUS
 10
258.999985
 20
152.999982
 30
0.0
 11
263.0
 21
152.999982
 31
0.0
  0
LINE
  5
14F43
  8
DANMEN
  6
CONTINUOUS
 10
259.0
 20
154.799997
 30
0.0
 11
263.0
 21
154.799997
 31
0.0
  0
LINE
  5
14F44
  8
DANMEN
  6
CONTINUOUS
 10
259.0
 20
156.499997
 30
0.0
 11
259.0
 21
152.499997
 31
0.0
  0
ARC
  5
14F45
  8
DANMEN
  6
CONTINUOUS
 10
259.999908
 20
151.499982
 30
0.0
 40
1.5
 50
0.000018
 51
90.0
  0
LINE
  5
14F46
  8
DANMEN
  6
CONTINUOUS
 10
259.0
 20
156.499997
 30
0.0
 11
259.0
 21
152.499997
 31
0.0
  0
ARC
  5
14F47
  8
DANMEN
  6
CONTINUOUS
 10
256.5
 20
152.149866
 30
0.0
 40
0.5
 50
96.009006
 51
180.0
  0
LINE
  5
14F48
  8
DANMEN
  6
CONTINUOUS
 10
256.0
 20
151.999997
 30
0.0
 11
258.5
 21
151.999997
 31
0.0
  0
LINE
  5
14F49
  8
DANMEN
  6
CONTINUOUS
 10
256.0
 20
152.149866
 30
0.0
 11
256.0
 21
151.999997
 31
0.0
  0
ARC
  5
14F4C
  8
DANMEN
  6
CONTINUOUS
 10
258.5
 20
152.499997
 30
0.0
 40
0.5
 50
270.000018
 51
0.0
  0
LINE
  5
14F4D
  8
DANMEN
  6
CONTINUOUS
 10
261.499908
 20
148.999991
 30
0.0
 11
261.499908
 21
151.499982
 31
0.0
  0
LINE
  5
14F50
  8
DANMEN
  6
CONTINUOUS
 10
257.9
 20
155.05
 30
0.0
 11
257.9
 21
152.799997
 31
0.0
  0
LINE
  5
14F52
  8
DANMEN
  6
CONTINUOUS
 10
257.9
 20
152.799997
 30
0.0
 11
256.447658
 21
152.647119
 31
0.0
  0
ARC
  5
14F57
  8
DANMEN
  6
CONTINUOUS
 10
258.5
 20
156.499997
 30
0.0
 40
0.5
 50
0.0
 51
89.999982
  0
ARC
  5
14F58
  8
DANMEN
  6
CONTINUOUS
 10
270.000092
 20
151.500012
 30
0.0
 40
1.5
 50
89.999964
 51
180.000001
  0
ARC
  5
14F59
  8
DANMEN
  6
CONTINUOUS
 10
267.000092
 20
149.000006
 30
0.0
 40
1.5
 50
270.0
 51
359.999982
  0
LINE
  5
14F5A
  8
DANMEN
  6
CONTINUOUS
 10
268.500092
 20
151.500012
 30
0.0
 11
268.500092
 21
149.000006
 31
0.0
  0
LINE
  5
14F5B
  8
DANMEN
  6
CONTINUOUS
 10
285.55
 20
124.999997
 30
0.0
 11
304.0
 21
124.999997
 31
0.0
  0
LINE
  5
14F5C
  8
DANMEN
  6
CONTINUOUS
 10
301.000092
 20
133.000012
 30
0.0
 11
319.800092
 21
133.000012
 31
0.0
  0
LINE
  5
14F5D
  8
DANMEN
  6
CONTINUOUS
 10
271.500092
 20
157.000012
 30
0.0
 11
320.000092
 21
157.000012
 31
0.0
  0
LINE
  5
14F5E
  8
DANMEN
  6
CONTINUOUS
 10
296.500092
 20
134.500015
 30
0.0
 11
306.950089
 21
134.500015
 31
0.0
  0
LINE
  5
14F5F
  8
DANMEN
  6
CONTINUOUS
 10
296.500092
 20
155.500015
 30
0.0
 11
306.950089
 21
155.500015
 31
0.0
  0
LINE
  5
14F60
  8
DANMEN
  6
CONTINUOUS
 10
301.0
 20
129.999997
 30
0.0
 11
319.8
 21
129.999997
 31
0.0
  0
LINE
  5
14F61
  8
DANMEN
  6
CONTINUOUS
 10
286.000092
 20
155.050015
 30
0.0
 11
286.000092
 21
134.950009
 31
0.0
  0
LINE
  5
14F62
  8
DANMEN
  6
CONTINUOUS
 10
287.950092
 20
155.500015
 30
0.0
 11
287.950092
 21
134.500015
 31
0.0
  0
LINE
  5
14F63
  8
DANMEN
  6
CONTINUOUS
 10
278.000015
 20
147.500006
 30
0.0
 11
278.000015
 21
142.500003
 31
0.0
  0
LINE
  5
14F64
  8
DANMEN
  6
CONTINUOUS
 10
295.250003
 20
130.499997
 30
0.0
 11
285.05
 21
130.499997
 31
0.0
  0
LINE
  5
14F65
  8
DANMEN
  6
CONTINUOUS
 10
289.050003
 20
128.999997
 30
0.0
 11
285.55
 21
128.999997
 31
0.0
  0
LINE
  5
14F66
  8
DANMEN
  6
CONTINUOUS
 10
271.500092
 20
133.000012
 30
0.0
 11
299.500092
 21
133.000012
 31
0.0
  0
LINE
  5
14F67
  8
DANMEN
  6
CONTINUOUS
 10
272.100092
 20
137.200012
 30
0.0
 11
272.100092
 21
134.100012
 31
0.0
  0
LINE
  5
14F68
  8
DANMEN
  6
CONTINUOUS
 10
271.000092
 20
137.500012
 30
0.0
 11
271.000092
 21
133.500012
 31
0.0
  0
LINE
  5
14F69
  8
DANMEN
  6
CONTINUOUS
 10
284.050003
 20
124.999997
 30
0.0
 11
277.75
 21
124.999997
 31
0.0
  0
LINE
  5
14F6A
  8
DANMEN
  6
CONTINUOUS
 10
274.000092
 20
134.950009
 30
0.0
 11
286.000092
 21
134.950009
 31
0.0
  0
LINE
  5
14F6B
  8
DANMEN
  6
CONTINUOUS
 10
272.2
 20
128.499997
 30
0.0
 11
272.2
 21
129.499997
 31
0.0
  0
LINE
  5
14F6C
  8
DANMEN
  6
CONTINUOUS
 10
277.650001
 20
133.499997
 30
0.0
 11
277.650001
 21
128.499997
 31
0.0
  0
LINE
  5
14F6D
  8
DANMEN
  6
CONTINUOUS
 10
277.250001
 20
133.217154
 30
0.0
 11
277.050001
 21
129.199997
 31
0.0
  0
LINE
  5
14F6E
  8
DANMEN
  6
CONTINUOUS
 10
274.8
 20
129.199997
 30
0.0
 11
274.7
 21
133.076391
 31
0.0
  0
LINE
  5
14F6F
  8
DANMEN
  6
CONTINUOUS
 10
274.3
 20
133.076391
 30
0.0
 11
274.2
 21
129.199997
 31
0.0
  0
LINE
  5
14F70
  8
DANMEN
  6
CONTINUOUS
 10
276.75
 20
124.999997
 30
0.0
 11
272.2
 21
124.999997
 31
0.0
  0
LINE
  5
14F71
  8
DANMEN
  6
CONTINUOUS
 10
273.9
 20
126.999997
 30
0.0
 11
275.1
 21
126.999997
 31
0.0
  0
LINE
  5
14F72
  8
DANMEN
  6
CONTINUOUS
 10
272.2
 20
124.999997
 30
0.0
 11
272.2
 21
127.699994
 31
0.0
  0
ARC
  5
14F73
  8
DANMEN
  6
CONTINUOUS
 10
272.75
 20
127.999997
 30
0.0
 40
0.5
 50
360.0
 51
89.999982
  0
LINE
  5
14F74
  8
DANMEN
  6
CONTINUOUS
 10
272.75
 20
128.499997
 30
0.0
 11
272.2
 21
128.499997
 31
0.0
  0
LINE
  5
14F75
  8
DANMEN
  6
CONTINUOUS
 10
273.25
 20
127.699994
 30
0.0
 11
272.2
 21
127.699994
 31
0.0
  0
LINE
  5
14F76
  8
DANMEN
  6
CONTINUOUS
 10
273.25
 20
127.699994
 30
0.0
 11
273.25
 21
127.999997
 31
0.0
  0
LINE
  5
14F77
  8
DANMEN
  6
CONTINUOUS
 10
272.8
 20
129.199997
 30
0.0
 11
274.2
 21
129.199997
 31
0.0
  0
LINE
  5
14F78
  8
DANMEN
  6
CONTINUOUS
 10
273.4
 20
128.499997
 30
0.0
 11
273.4
 21
127.499997
 31
0.0
  0
LINE
  5
14F79
  8
DANMEN
  6
CONTINUOUS
 10
272.599999
 20
127.499997
 30
0.0
 11
273.4
 21
127.499997
 31
0.0
  0
LINE
  5
14F7A
  8
DANMEN
  6
CONTINUOUS
 10
272.4
 20
127.299997
 30
0.0
 11
272.4
 21
126.499997
 31
0.0
  0
ARC
  5
14F7B
  8
DANMEN
  6
CONTINUOUS
 10
272.599999
 20
127.299997
 30
0.0
 40
0.2
 50
89.999982
 51
180.000019
  0
LINE
  5
14F7C
  8
DANMEN
  6
CONTINUOUS
 10
272.4
 20
128.499997
 30
0.0
 11
273.4
 21
128.499997
 31
0.0
  0
LINE
  5
14F81
  8
DANMEN
  6
CONTINUOUS
 10
272.4
 20
128.499997
 30
0.0
 11
272.4
 21
128.799997
 31
0.0
  0
LINE
  5
14F84
  8
DANMEN
  6
CONTINUOUS
 10
273.4
 20
126.499997
 30
0.0
 11
272.4
 21
126.499997
 31
0.0
  0
LINE
  5
14F87
  8
DANMEN
  6
CONTINUOUS
 10
273.9
 20
126.999997
 30
0.0
 11
273.4
 21
126.499997
 31
0.0
  0
ARC
  5
14F89
  8
DANMEN
  6
CONTINUOUS
 10
272.8
 20
128.799997
 30
0.0
 40
0.4
 50
90.0
 51
180.0
  0
ARC
  5
14F8F
  8
DANMEN
  6
CONTINUOUS
 10
277.25
 20
127.999997
 30
0.0
 40
0.5
 50
360.0
 51
89.999982
  0
ARC
  5
14F90
  8
DANMEN
  6
CONTINUOUS
 10
276.25
 20
127.999997
 30
0.0
 40
0.5
 50
89.999982
 51
180.000019
  0
LINE
  5
14F91
  8
DANMEN
  6
CONTINUOUS
 10
276.75
 20
124.999997
 30
0.0
 11
276.75
 21
127.699994
 31
0.0
  0
LINE
  5
14F92
  8
DANMEN
  6
CONTINUOUS
 10
276.75
 20
127.699994
 30
0.0
 11
275.75
 21
127.699994
 31
0.0
  0
LINE
  5
14F93
  8
DANMEN
  6
CONTINUOUS
 10
275.75
 20
127.699994
 30
0.0
 11
275.75
 21
127.999997
 31
0.0
  0
LINE
  5
14F94
  8
DANMEN
  6
CONTINUOUS
 10
277.75
 20
124.999997
 30
0.0
 11
277.75
 21
127.999997
 31
0.0
  0
LINE
  5
14F95
  8
DANMEN
  6
CONTINUOUS
 10
277.25
 20
128.499997
 30
0.0
 11
276.25
 21
128.499997
 31
0.0
  0
LINE
  5
14F96
  8
DANMEN
  6
CONTINUOUS
 10
275.6
 20
128.499997
 30
0.0
 11
275.6
 21
127.499997
 31
0.0
  0
LINE
  5
14F97
  8
DANMEN
  6
CONTINUOUS
 10
276.400001
 20
127.499997
 30
0.0
 11
275.6
 21
127.499997
 31
0.0
  0
LINE
  5
14F98
  8
DANMEN
  6
CONTINUOUS
 10
276.6
 20
127.299997
 30
0.0
 11
276.6
 21
126.499997
 31
0.0
  0
ARC
  5
14F99
  8
DANMEN
  6
CONTINUOUS
 10
276.400001
 20
127.299997
 30
0.0
 40
0.2
 50
359.999981
 51
90.000037
  0
LINE
  5
14FA0
  8
DANMEN
  6
CONTINUOUS
 10
274.8
 20
129.199997
 30
0.0
 11
277.050001
 21
129.199997
 31
0.0
  0
LINE
  5
14FA1
  8
DANMEN
  6
CONTINUOUS
 10
276.6
 20
126.499997
 30
0.0
 11
275.6
 21
126.499997
 31
0.0
  0
LINE
  5
14FA5
  8
DANMEN
  6
CONTINUOUS
 10
275.6
 20
126.499997
 30
0.0
 11
275.1
 21
126.999997
 31
0.0
  0
LINE
  5
14FA6
  8
DANMEN
  6
CONTINUOUS
 10
275.6
 20
128.499997
 30
0.0
 11
277.65
 21
128.499997
 31
0.0
  0
ARC
  5
14FAC
  8
DANMEN
  6
CONTINUOUS
 10
274.5
 20
133.299997
 30
0.0
 40
0.3
 50
311.810315
 51
228.189685
  0
ARC
  5
14FAD
  8
DANMEN
  6
CONTINUOUS
 10
271.7
 20
129.499997
 30
0.0
 40
0.5
 50
0.0
 51
90.0
  0
ARC
  5
14FAE
  8
DANMEN
  6
CONTINUOUS
 10
271.5
 20
129.499997
 30
0.0
 40
0.5
 50
90.0
 51
180.0
  0
LINE
  5
14FAF
  8
DANMEN
  6
CONTINUOUS
 10
271.5
 20
129.999997
 30
0.0
 11
271.7
 21
129.999997
 31
0.0
  0
LINE
  5
14FBB
  8
DANMEN
  6
CONTINUOUS
 10
272.100092
 20
134.100012
 30
0.0
 11
274.000092
 21
134.100012
 31
0.0
  0
LINE
  5
14FBC
  8
DANMEN
  6
CONTINUOUS
 10
274.000092
 20
134.950009
 30
0.0
 11
274.000092
 21
134.100012
 31
0.0
  0
ARC
  5
14FBD
  8
DANMEN
  6
CONTINUOUS
 10
271.500092
 20
133.500012
 30
0.0
 40
0.5
 50
180.000019
 51
270.000001
  0
ARC
  5
14FC1
  8
DANMEN
  6
CONTINUOUS
 10
277.35
 20
133.499997
 30
0.0
 40
0.3
 50
0.0
 51
250.528876
  0
LINE
  5
14FC8
  8
DANMEN
  6
CONTINUOUS
 10
284.050003
 20
124.999997
 30
0.0
 11
284.050003
 21
129.499997
 31
0.0
  0
LINE
  5
14FC9
  8
DANMEN
  6
CONTINUOUS
 10
285.55
 20
124.999997
 30
0.0
 11
285.55
 21
128.999997
 31
0.0
  0
ARC
  5
14FCA
  8
DANMEN
  6
CONTINUOUS
 10
285.05
 20
129.499997
 30
0.0
 40
1.0
 50
89.999982
 51
180.000019
  0
ARC
  5
14FCE
  8
DANMEN
  6
CONTINUOUS
 10
273.500092
 20
137.850143
 30
0.0
 40
0.5
 50
276.009006
 51
0.0
  0
LINE
  5
14FD1
  8
DANMEN
  6
CONTINUOUS
 10
272.100092
 20
137.200012
 30
0.0
 11
273.552434
 21
137.35289
 31
0.0
  0
ARC
  5
14FD5
  8
DANMEN
  6
CONTINUOUS
 10
271.500092
 20
137.500012
 30
0.0
 40
0.5
 50
89.999982
 51
180.000019
  0
LINE
  5
14FD7
  8
DANMEN
  6
CONTINUOUS
 10
274.000092
 20
137.850143
 30
0.0
 11
274.000092
 21
138.000012
 31
0.0
  0
LINE
  5
14FD8
  8
DANMEN
  6
CONTINUOUS
 10
271.500092
 20
138.000012
 30
0.0
 11
274.000092
 21
138.000012
 31
0.0
  0
LINE
  5
14FDC
  8
DANMEN
  6
CONTINUOUS
 10
289.550003
 20
128.199997
 30
0.0
 11
295.335148
 21
129.912333
 31
0.0
  0
LINE
  5
14FDD
  8
DANMEN
  6
CONTINUOUS
 10
289.800092
 20
127.500012
 30
0.0
 11
300.000092
 21
127.500012
 31
0.0
  0
LINE
  5
14FDE
  8
DANMEN
  6
CONTINUOUS
 10
295.500092
 20
129.800012
 30
0.0
 11
289.714946
 21
128.087676
 31
0.0
  0
LINE
  5
14FDF
  8
DANMEN
  6
CONTINUOUS
 10
287.950092
 20
134.500015
 30
0.0
 11
295.500092
 21
134.500015
 31
0.0
  0
LINE
  5
14FE0
  8
DANMEN
  6
CONTINUOUS
 10
289.550003
 20
128.199997
 30
0.0
 11
289.050003
 21
128.199997
 31
0.0
  0
LINE
  5
14FE1
  8
DANMEN
  6
CONTINUOUS
 10
289.050003
 20
128.999997
 30
0.0
 11
289.050003
 21
128.199997
 31
0.0
  0
ARC
  5
14FE4
  8
DANMEN
  6
CONTINUOUS
 10
289.800092
 20
127.800012
 30
0.0
 40
0.3
 50
106.488148
 51
270.0
  0
LINE
  5
14FE6
  8
DANMEN
  6
CONTINUOUS
 10
299.500092
 20
133.000012
 30
0.0
 11
299.500092
 21
129.000012
 31
0.0
  0
LINE
  5
14FE7
  8
DANMEN
  6
CONTINUOUS
 10
301.000092
 20
133.000012
 30
0.0
 11
301.000092
 21
128.500012
 31
0.0
  0
LINE
  5
14FE8
  8
DANMEN
  6
CONTINUOUS
 10
296.000092
 20
129.000012
 30
0.0
 11
296.000092
 21
129.800012
 31
0.0
  0
LINE
  5
14FE9
  8
DANMEN
  6
CONTINUOUS
 10
296.000092
 20
129.000012
 30
0.0
 11
299.500092
 21
129.000012
 31
0.0
  0
ARC
  5
14FEE
  8
DANMEN
  6
CONTINUOUS
 10
300.000092
 20
128.500012
 30
0.0
 40
1.0
 50
270.000018
 51
0.0
  0
ARC
  5
14FF1
  8
DANMEN
  6
CONTINUOUS
 10
295.250003
 20
130.199997
 30
0.0
 40
0.3
 50
286.488148
 51
90.0
  0
LINE
  5
14FF2
  8
DANMEN
  6
CONTINUOUS
 10
295.500092
 20
129.800012
 30
0.0
 11
296.000092
 21
129.800012
 31
0.0
  0
LINE
  5
14FF7
  8
DANMEN
  6
CONTINUOUS
 10
295.500092
 20
134.950015
 30
0.0
 11
296.500092
 21
134.950015
 31
0.0
  0
LINE
  5
14FFB
  8
DANMEN
  6
CONTINUOUS
 10
295.500092
 20
134.500015
 30
0.0
 11
295.500092
 21
134.950015
 31
0.0
  0
LINE
  5
14FFC
  8
DANMEN
  6
CONTINUOUS
 10
296.500092
 20
134.500015
 30
0.0
 11
296.500092
 21
134.950015
 31
0.0
  0
LINE
  5
14FFF
  8
DANMEN
  6
CONTINUOUS
 10
272.100092
 20
155.900012
 30
0.0
 11
284.011406
 21
155.900012
 31
0.0
  0
ARC
  5
15000
  8
DANMEN
  6
CONTINUOUS
 10
273.500092
 20
152.149881
 30
0.0
 40
0.5
 50
0.0
 51
83.990994
  0
LINE
  5
15001
  8
DANMEN
  6
CONTINUOUS
 10
271.000092
 20
156.500012
 30
0.0
 11
271.000092
 21
152.500012
 31
0.0
  0
ARC
  5
15003
  8
DANMEN
  6
CONTINUOUS
 10
271.500092
 20
152.500012
 30
0.0
 40
0.5
 50
180.000019
 51
270.000001
  0
LINE
  5
15005
  8
DANMEN
  6
CONTINUOUS
 10
274.000092
 20
152.149881
 30
0.0
 11
274.000092
 21
152.000012
 31
0.0
  0
LINE
  5
15006
  8
DANMEN
  6
CONTINUOUS
 10
271.500092
 20
152.000012
 30
0.0
 11
274.000092
 21
152.000012
 31
0.0
  0
LINE
  5
1500A
  8
DANMEN
  6
CONTINUOUS
 10
272.100092
 20
152.800012
 30
0.0
 11
273.552434
 21
152.647134
 31
0.0
  0
LINE
  5
1500C
  8
DANMEN
  6
CONTINUOUS
 10
272.100092
 20
155.900012
 30
0.0
 11
272.100092
 21
152.800012
 31
0.0
  0
ARC
  5
1500F
  8
DANMEN
  6
CONTINUOUS
 10
271.500092
 20
156.500012
 30
0.0
 40
0.5
 50
89.999982
 51
180.000019
  0
LINE
  5
15012
  8
DANMEN
  6
CONTINUOUS
 10
285.000092
 20
155.050012
 30
0.0
 11
286.000092
 21
155.050012
 31
0.0
  0
ARC
  5
15013
  8
DANMEN
  6
CONTINUOUS
 10
284.011406
 20
154.900012
 30
0.0
 40
1.0
 50
8.626927
 51
90.0
  0
LINE
  5
15015
  8
DANMEN
  6
CONTINUOUS
 10
287.950092
 20
155.500015
 30
0.0
 11
295.500092
 21
155.500015
 31
0.0
  0
LINE
  5
1501C
  8
DANMEN
  6
CONTINUOUS
 10
295.500092
 20
155.500015
 30
0.0
 11
295.500092
 21
155.050015
 31
0.0
  0
LINE
  5
1501D
  8
DANMEN
  6
CONTINUOUS
 10
296.500092
 20
155.500015
 30
0.0
 11
296.500092
 21
155.050015
 31
0.0
  0
LINE
  5
1501E
  8
DANMEN
  6
CONTINUOUS
 10
295.500092
 20
155.050015
 30
0.0
 11
296.500092
 21
155.050015
 31
0.0
  0
LINE
  5
1501F
  8
DANMEN
  6
CONTINUOUS
 10
321.000092
 20
156.000012
 30
0.0
 11
321.000092
 21
128.600012
 31
0.0
  0
LINE
  5
15020
  8
DANMEN
  6
CONTINUOUS
 10
319.050092
 20
155.500015
 30
0.0
 11
319.050092
 21
134.500015
 31
0.0
  0
LINE
  5
15021
  8
DANMEN
  6
CONTINUOUS
 10
320.499996
 20
124.999997
 30
0.0
 11
304.0
 21
124.999997
 31
0.0
  0
ARC
  5
15022
  8
DANMEN
  6
CONTINUOUS
 10
320.400092
 20
128.600012
 30
0.0
 40
0.6
 50
180.0
 51
0.0
  0
LINE
  5
15023
  8
DANMEN
  6
CONTINUOUS
 10
307.950089
 20
137.000012
 30
0.0
 11
307.950089
 21
134.500015
 31
0.0
  0
LINE
  5
15024
  8
DANMEN
  6
CONTINUOUS
 10
306.950089
 20
136.500012
 30
0.0
 11
306.950089
 21
134.500015
 31
0.0
  0
LINE
  5
15025
  8
DANMEN
  6
CONTINUOUS
 10
307.950089
 20
134.500015
 30
0.0
 11
315.500092
 21
134.500015
 31
0.0
  0
LINE
  5
15028
  8
DANMEN
  6
CONTINUOUS
 10
319.800092
 20
133.000012
 30
0.0
 11
319.800092
 21
128.600012
 31
0.0
  0
LINE
  5
1502A
  8
DANMEN
  6
CONTINUOUS
 10
315.500092
 20
134.950015
 30
0.0
 11
316.500092
 21
134.950015
 31
0.0
  0
LINE
  5
1502D
  8
DANMEN
  6
CONTINUOUS
 10
315.500092
 20
134.500015
 30
0.0
 11
315.500092
 21
134.950015
 31
0.0
  0
LINE
  5
15030
  8
DANMEN
  6
CONTINUOUS
 10
316.500092
 20
134.500015
 30
0.0
 11
319.050092
 21
134.500015
 31
0.0
  0
LINE
  5
15033
  8
DANMEN
  6
CONTINUOUS
 10
316.500092
 20
134.500015
 30
0.0
 11
316.500092
 21
134.950015
 31
0.0
  0
LINE
  5
15035
  8
DANMEN
  6
CONTINUOUS
 10
307.450089
 20
137.000012
 30
0.0
 11
307.950089
 21
137.000012
 31
0.0
  0
ARC
  5
15037
  8
DANMEN
  6
CONTINUOUS
 10
307.450089
 20
136.500012
 30
0.0
 40
0.5
 50
89.999982
 51
180.000019
  0
ARC
  5
15039
  8
DANMEN
  6
CONTINUOUS
 10
320.499997
 20
124.499997
 30
0.0
 40
0.5
 50
0.000091
 51
90.000128
  0
LINE
  5
1503B
  8
DANMEN
  6
CONTINUOUS
 10
307.950089
 20
155.500015
 30
0.0
 11
315.500092
 21
155.500015
 31
0.0
  0
LINE
  5
1503C
  8
DANMEN
  6
CONTINUOUS
 10
307.450089
 20
153.000012
 30
0.0
 11
307.950089
 21
153.000012
 31
0.0
  0
LINE
  5
1503D
  8
DANMEN
  6
CONTINUOUS
 10
306.950089
 20
155.500015
 30
0.0
 11
306.950089
 21
153.500012
 31
0.0
  0
ARC
  5
1503F
  8
DANMEN
  6
CONTINUOUS
 10
307.450089
 20
153.500012
 30
0.0
 40
0.5
 50
180.000019
 51
270.000001
  0
LINE
  5
15041
  8
DANMEN
  6
CONTINUOUS
 10
307.950089
 20
155.500015
 30
0.0
 11
307.950089
 21
153.000012
 31
0.0
  0
LINE
  5
15044
  8
DANMEN
  6
CONTINUOUS
 10
315.500092
 20
155.050015
 30
0.0
 11
316.500092
 21
155.050015
 31
0.0
  0
LINE
  5
15047
  8
DANMEN
  6
CONTINUOUS
 10
315.500092
 20
155.500015
 30
0.0
 11
315.500092
 21
155.050015
 31
0.0
  0
LINE
  5
15049
  8
DANMEN
  6
CONTINUOUS
 10
316.500092
 20
155.500015
 30
0.0
 11
319.050092
 21
155.500015
 31
0.0
  0
LINE
  5
1504C
  8
DANMEN
  6
CONTINUOUS
 10
316.500092
 20
155.500015
 30
0.0
 11
316.500092
 21
155.050015
 31
0.0
  0
ARC
  5
1504F
  8
DANMEN
  6
CONTINUOUS
 10
320.000092
 20
156.000012
 30
0.0
 40
1.0
 50
0.0
 51
89.999982
  0
LINE
  5
15050
  8
SUNPO
  6
CONTINUOUS
 10
25.0
 20
188.0
 30
0.0
 11
25.0
 21
223.0
 31
0.0
  0
LINE
  5
15051
  8
DANMEN
  6
CONTINUOUS
 10
361.500004
 20
125.0
 30
0.0
 11
378.0
 21
125.0
 31
0.0
  0
LINE
  5
15052
  8
DANMEN
  6
CONTINUOUS
 10
342.5
 20
157.0
 30
0.0
 11
391.0
 21
157.0
 31
0.0
  0
LINE
  5
15053
  8
DANMEN
  6
CONTINUOUS
 10
342.5
 20
130.0
 30
0.0
 11
391.0
 21
130.0
 31
0.0
  0
LINE
  5
15054
  8
DANMEN
  6
CONTINUOUS
 10
342.5
 20
146.5
 30
0.0
 11
391.0
 21
146.5
 31
0.0
  0
LINE
  5
15055
  8
DANMEN
  6
CONTINUOUS
 10
342.5
 20
143.5
 30
0.0
 11
391.0
 21
143.5
 31
0.0
  0
LINE
  5
15056
  8
DANMEN
  6
CONTINUOUS
 10
376.0
 20
164.0
 30
0.0
 11
356.0
 21
164.0
 31
0.0
  0
LINE
  5
15057
  8
DANMEN
  6
CONTINUOUS
 10
342.5
 20
123.500015
 30
0.0
 11
352.35104
 21
123.500015
 31
0.0
  0
LINE
  5
15058
  8
DANMEN
  6
CONTINUOUS
 10
342.5
 20
125.0
 30
0.0
 11
352.354875
 21
125.0
 31
0.0
  0
LINE
  5
15059
  8
DANMEN
  6
CONTINUOUS
 10
355.35104
 20
123.500015
 30
0.0
 11
361.0
 21
123.500015
 31
0.0
  0
LINE
  5
1505A
  8
DANMEN
  6
CONTINUOUS
 10
355.354875
 20
125.0
 30
0.0
 11
361.0
 21
125.0
 31
0.0
  0
ARC
  5
1505B
  8
DANMEN
  6
CONTINUOUS
 10
361.500003
 20
124.5
 30
0.0
 40
0.5
 50
89.999872
 51
179.999909
  0
LINE
  5
1505C
  8
DANMEN
  6
CONTINUOUS
 10
351.600006
 20
167.0
 30
0.0
 11
356.0
 21
167.0
 31
0.0
  0
LINE
  5
1505D
  8
DANMEN
  6
CONTINUOUS
 10
351.600006
 20
165.800003
 30
0.0
 11
356.0
 21
165.800003
 31
0.0
  0
LINE
  5
1505E
  8
DANMEN
  6
CONTINUOUS
 10
356.0
 20
162.800003
 30
0.0
 11
342.5
 21
162.800003
 31
0.0
  0
LINE
  5
1505F
  8
DANMEN
  6
CONTINUOUS
 10
351.600006
 20
167.0
 30
0.0
 11
342.5
 21
167.0
 31
0.0
  0
LINE
  5
15060
  8
DANMEN
  6
CONTINUOUS
 10
351.600006
 20
165.800003
 30
0.0
 11
342.5
 21
165.800003
 31
0.0
  0
ARC
  5
15061
  8
DANMEN
  6
CONTINUOUS
 10
351.600006
 20
166.399994
 30
0.0
 40
0.6
 50
89.999963
 51
269.999982
  0
LINE
  5
15066
  8
DANMEN
  6
CONTINUOUS
 10
356.0
 20
167.0
 30
0.0
 11
356.0
 21
162.800003
 31
0.0
  0
LINE
  5
15068
  8
DANMEN
  6
CONTINUOUS
 10
391.0
 20
162.800003
 30
0.0
 11
391.0
 21
124.999994
 31
0.0
  0
LINE
  5
15069
  8
DANMEN
  6
CONTINUOUS
 10
391.0
 20
124.999994
 30
0.0
 11
378.0
 21
124.999994
 31
0.0
  0
LINE
  5
1506A
  8
DANMEN
  6
CONTINUOUS
 10
400.5
 20
164.0
 30
0.0
 11
376.5
 21
164.0
 31
0.0
  0
LINE
  5
1506B
  8
DANMEN
  6
CONTINUOUS
 10
389.0
 20
162.350006
 30
0.0
 11
376.5
 21
162.350006
 31
0.0
  0
LINE
  5
1506C
  8
DANMEN
  6
CONTINUOUS
 10
376.0
 20
163.5
 30
0.0
 11
376.0
 21
162.850006
 31
0.0
  0
ARC
  5
1506D
  8
DANMEN
  6
CONTINUOUS
 10
376.5
 20
162.850006
 30
0.0
 40
0.5
 50
180.000019
 51
270.000001
  0
ARC
  5
1506E
  8
DANMEN
  6
CONTINUOUS
 10
376.5
 20
163.5
 30
0.0
 40
0.5
 50
90.000037
 51
180.000019
  0
ARC
  5
1506F
  8
DANMEN
  6
CONTINUOUS
 10
400.5
 20
158.5
 30
0.0
 40
0.5
 50
270.000018
 51
359.999981
  0
ARC
  5
15070
  8
DANMEN
  6
CONTINUOUS
 10
399.850006
 20
158.5
 30
0.0
 40
0.5
 50
180.000019
 51
270.000001
  0
LINE
  5
15071
  8
DANMEN
  6
CONTINUOUS
 10
400.5
 20
158.0
 30
0.0
 11
399.850006
 21
158.0
 31
0.0
  0
LINE
  5
15072
  8
DANMEN
  6
CONTINUOUS
 10
399.350006
 20
162.350006
 30
0.0
 11
392.649994
 21
162.350006
 31
0.0
  0
LINE
  5
15073
  8
DANMEN
  6
CONTINUOUS
 10
391.0
 20
162.800003
 30
0.0
 11
389.0
 21
162.800003
 31
0.0
  0
LINE
  5
15074
  8
DANMEN
  6
CONTINUOUS
 10
389.0
 20
162.800003
 30
0.0
 11
389.0
 21
162.350006
 31
0.0
  0
LINE
  5
15075
  8
DANMEN
  6
CONTINUOUS
 10
401.0
 20
163.5
 30
0.0
 11
401.0
 21
158.5
 31
0.0
  0
LINE
  5
15076
  8
DANMEN
  6
CONTINUOUS
 10
399.350006
 20
162.350006
 30
0.0
 11
399.350006
 21
158.5
 31
0.0
  0
ARC
  5
15077
  8
DANMEN
  6
CONTINUOUS
 10
400.5
 20
163.5
 30
0.0
 40
0.5
 50
0.0
 51
89.999982
  0
TEXT
  5
15078
  8
SUNPO
  6
CONTINUOUS
 10
61.916667
 20
169.0
 30
0.0
 40
2.5
  1
24
  0
TEXT
  5
15079
  8
SUNPO
  6
CONTINUOUS
 10
37.013333
 20
169.0
 30
0.0
 40
2.5
  1
3
  0
TEXT
  5
1507A
  8
SUNPO
  6
CONTINUOUS
 10
47.666667
 20
169.0
 30
0.0
 40
2.5
  1
7
  0
LINE
  5
1507B
  8
SUNPO
  6
CONTINUOUS
 10
43.5
 20
162.0
 30
0.0
 11
25.0
 21
162.0
 31
0.0
  0
LINE
  5
1507D
  8
SUNPO
  6
CONTINUOUS
 10
52.0
 20
168.0
 30
0.0
 11
45.0
 21
168.0
 31
0.0
  0
LINE
  5
1507E
  8
SUNPO
  6
CONTINUOUS
 10
45.0
 20
168.0
 30
0.0
 11
42.0
 21
168.0
 31
0.0
  0
LINE
  5
1507F
  8
SUNPO
  6
CONTINUOUS
 10
42.0
 20
159.5
 30
0.0
 11
42.0
 21
168.0
 31
0.0
  0
LINE
  5
15080
  8
SUNPO
  6
CONTINUOUS
 10
42.0
 20
168.0
 30
0.0
 11
36.013333
 21
168.0
 31
0.0
  0
LINE
  5
15086
  8
SUNPO
  6
CONTINUOUS
 10
43.5
 20
188.0
 30
0.0
 11
25.0
 21
188.0
 31
0.0
  0
TEXT
  5
15088
  8
SUNPO
  6
CONTINUOUS
 10
24.0
 20
203.416667
 30
0.0
 40
2.5
  1
35
 50
90.0
  0
LINE
  5
15090
  8
SUNPO
  6
CONTINUOUS
 10
43.5
 20
258.0
 30
0.0
 11
25.0
 21
258.0
 31
0.0
  0
LINE
  5
15091
  8
SUNPO
  6
CONTINUOUS
 10
43.5
 20
223.0
 30
0.0
 11
25.0
 21
223.0
 31
0.0
  0
TEXT
  5
15092
  8
SUNPO
  6
CONTINUOUS
 10
24.0
 20
238.416667
 30
0.0
 40
2.5
  1
35
 50
90.0
  0
LINE
  5
15093
  8
SUNPO
  6
CONTINUOUS
 10
25.0
 20
258.0
 30
0.0
 11
25.0
 21
223.0
 31
0.0
  0
LINE
  5
15097
  8
SUNPO
  6
CONTINUOUS
 10
194.0
 20
173.999997
 30
0.0
 11
259.0
 21
173.999997
 31
0.0
  0
LINE
  5
15098
  8
SUNPO
  6
CONTINUOUS
 10
156.0
 20
223.0
 30
0.0
 11
156.0
 21
188.0
 31
0.0
  0
LINE
  5
15099
  8
SUNPO
  6
CONTINUOUS
 10
166.0
 20
223.0
 30
0.0
 11
166.0
 21
172.061083
 31
0.0
  0
LINE
  5
1509A
  8
SUNPO
  6
CONTINUOUS
 10
116.5
 20
141.0
 30
0.0
 11
156.0
 21
141.0
 31
0.0
  0
LINE
  5
1509B
  8
SUNPO
  6
CONTINUOUS
 10
116.5
 20
162.0
 30
0.0
 11
156.0
 21
162.0
 31
0.0
  0
LINE
  5
1509C
  8
SUNPO
  6
CONTINUOUS
 10
143.0
 20
168.0
 30
0.0
 11
115.0
 21
168.0
 31
0.0
  0
LINE
  5
1509D
  8
SUNPO
  6
CONTINUOUS
 10
116.5
 20
188.0
 30
0.0
 11
156.0
 21
188.0
 31
0.0
  0
TEXT
  5
1509E
  8
SUNPO
  6
CONTINUOUS
 10
126.916667
 20
169.0
 30
0.0
 40
2.5
  1
28
  0
TEXT
  5
1509F
  8
SUNPO
  6
CONTINUOUS
 10
97.833333
 20
169.0
 30
0.0
 40
2.5
  1
31
  0
TEXT
  5
150A0
  8
SUNPO
  6
CONTINUOUS
 10
79.166667
 20
169.0
 30
0.0
 40
2.5
  1
8
  0
TEXT
  5
150A1
  8
SUNPO
  6
CONTINUOUS
 10
97.948596
 20
152.139205
 30
0.0
 40
2.5
  1
20
  0
LINE
  5
150A2
  8
SUNPO
  6
CONTINUOUS
 10
86.5
 20
151.139205
 30
0.0
 11
106.5
 21
151.139205
 31
0.0
  0
LINE
  5
150A3
  8
SUNPO
  6
CONTINUOUS
 10
84.0
 20
168.0
 30
0.0
 11
115.0
 21
168.0
 31
0.0
  0
LINE
  5
150A4
  8
SUNPO
  6
CONTINUOUS
 10
86.5
 20
142.0
 30
0.0
 11
86.5
 21
151.139205
 31
0.0
  0
TEXT
  5
150A8
  8
SUNPO
  6
CONTINUOUS
 10
82.75
 20
152.139205
 30
0.0
 40
2.5
  1
2.5
  0
LINE
  5
150A9
  8
SUNPO
  6
CONTINUOUS
 10
84.0
 20
168.0
 30
0.0
 11
76.0
 21
168.0
 31
0.0
  0
LINE
  5
150AE
  8
SUNPO
  6
CONTINUOUS
 10
84.0
 20
151.139205
 30
0.0
 11
86.5
 21
151.139205
 31
0.0
  0
LINE
  5
150AF
  8
SUNPO
  6
CONTINUOUS
 10
108.9
 20
142.0
 30
0.0
 11
108.9
 21
151.139205
 31
0.0
  0
LINE
  5
150B0
  8
SUNPO
  6
CONTINUOUS
 10
106.5
 20
142.0
 30
0.0
 11
106.5
 21
151.139205
 31
0.0
  0
LINE
  5
150B1
  8
SUNPO
  6
CONTINUOUS
 10
115.0
 20
125.997913
 30
0.0
 11
115.0
 21
168.0
 31
0.0
  0
TEXT
  5
150B2
  8
SUNPO
  6
CONTINUOUS
 10
112.22
 20
152.139205
 30
0.0
 40
2.5
  1
2.4
  0
LINE
  5
150B3
  8
SUNPO
  6
CONTINUOUS
 10
108.9
 20
151.139205
 30
0.0
 11
118.22
 21
151.139205
 31
0.0
  0
LINE
  5
150B4
  8
SUNPO
  6
CONTINUOUS
 10
106.5
 20
151.139205
 30
0.0
 11
108.9
 21
151.139205
 31
0.0
  0
TEXT
  5
150BA
  8
SUNPO
  6
CONTINUOUS
 10
79.443604
 20
179.0
 30
0.0
 40
2.5
  1
70
  0
LINE
  5
150BB
  8
SUNPO
  6
CONTINUOUS
 10
115.0
 20
194.559921
 30
0.0
 11
115.0
 21
178.0
 31
0.0
  0
LINE
  5
150BD
  8
SUNPO
  6
CONTINUOUS
 10
191.0
 20
165.499997
 30
0.0
 11
191.0
 21
173.999997
 31
0.0
  0
LINE
  5
150BE
  8
SUNPO
  6
CONTINUOUS
 10
194.0
 20
165.499997
 30
0.0
 11
194.0
 21
173.999997
 31
0.0
  0
LINE
  5
150BF
  8
SUNPO
  6
CONTINUOUS
 10
162.0
 20
156.141045
 30
0.0
 11
170.0
 21
156.141045
 31
0.0
  0
LINE
  5
150C0
  8
SUNPO
  6
CONTINUOUS
 10
162.0
 20
161.641045
 30
0.0
 11
170.0
 21
161.641045
 31
0.0
  0
LINE
  5
150C1
  8
SUNPO
  6
CONTINUOUS
 10
162.0
 20
154.141045
 30
0.0
 11
170.0
 21
154.141045
 31
0.0
  0
LINE
  5
150C2
  8
SUNPO
  6
CONTINUOUS
 10
156.0
 20
162.0
 30
0.0
 11
156.0
 21
141.0
 31
0.0
  0
TEXT
  5
150C6
  8
SUNPO
  6
CONTINUOUS
 10
155.0
 20
149.833333
 30
0.0
 40
2.5
  1
21
 50
90.0
  0
LINE
  5
150C7
  8
SUNPO
  6
CONTINUOUS
 10
162.0
 20
157.541039
 30
0.0
 11
162.0
 21
152.343696
 31
0.0
  0
LINE
  5
150C9
  8
SUNPO
  6
CONTINUOUS
 10
162.0
 20
163.653991
 30
0.0
 11
162.0
 21
159.920944
 31
0.0
  0
LINE
  5
150CA
  8
SUNPO
  6
CONTINUOUS
 10
164.799927
 20
169.656304
 30
0.0
 11
164.799927
 21
164.867761
 31
0.0
  0
LINE
  5
150CB
  8
SUNPO
  6
CONTINUOUS
 10
166.0
 20
161.641045
 30
0.0
 11
166.0
 21
156.141045
 31
0.0
  0
LINE
  5
150CC
  8
SUNPO
  6
CONTINUOUS
 10
170.0
 20
157.541039
 30
0.0
 11
170.0
 21
152.343696
 31
0.0
  0
LINE
  5
150CD
  8
SUNPO
  6
CONTINUOUS
 10
170.0
 20
163.653991
 30
0.0
 11
170.0
 21
159.920944
 31
0.0
  0
LINE
  5
150CF
  8
SUNPO
  6
CONTINUOUS
 10
167.199921
 20
169.656304
 30
0.0
 11
167.199921
 21
164.867761
 31
0.0
  0
TEXT
  5
150D1
  8
SUNPO
  6
CONTINUOUS
 10
155.0
 20
203.416667
 30
0.0
 40
2.5
  1
35
 50
90.0
  0
TEXT
  5
150D2
  8
SUNPO
  6
CONTINUOUS
 10
191.666667
 20
174.999997
 30
0.0
 40
2.5
  1
3
  0
LINE
  5
150D6
  8
SUNPO
  6
CONTINUOUS
 10
194.0
 20
173.999997
 30
0.0
 11
191.0
 21
173.999997
 31
0.0
  0
LINE
  5
150D7
  8
SUNPO
  6
CONTINUOUS
 10
116.5
 20
223.0
 30
0.0
 11
166.0
 21
223.0
 31
0.0
  0
LINE
  5
150D8
  8
SUNPO
  6
CONTINUOUS
 10
116.5
 20
258.0
 30
0.0
 11
166.0
 21
258.0
 31
0.0
  0
LINE
  5
150D9
  8
SUNPO
  6
CONTINUOUS
 10
116.5
 20
231.0
 30
0.0
 11
156.0
 21
231.0
 31
0.0
  0
LINE
  5
150DA
  8
SUNPO
  6
CONTINUOUS
 10
116.5
 20
246.0
 30
0.0
 11
156.0
 21
246.0
 31
0.0
  0
LINE
  5
150DC
  8
SUNPO
  6
CONTINUOUS
 10
171.0
 20
218.0
 30
0.0
 11
161.0
 21
218.0
 31
0.0
  0
LINE
  5
150DD
  8
SUNPO
  6
CONTINUOUS
 10
161.0
 20
218.0
 30
0.0
 11
166.0
 21
223.0
 31
0.0
  0
TEXT
  5
150DE
  8
SUNPO
  6
CONTINUOUS
 10
155.0
 20
236.833333
 30
0.0
 40
2.5
  1
15
 50
90.0
  0
TEXT
  5
150DF
  8
SUNPO
  6
CONTINUOUS
 10
165.0
 20
238.416667
 30
0.0
 40
2.5
  1
35
 50
90.0
  0
LINE
  5
150E0
  8
SUNPO
  6
CONTINUOUS
 10
156.0
 20
246.0
 30
0.0
 11
156.0
 21
231.0
 31
0.0
  0
LINE
  5
150E1
  8
SUNPO
  6
CONTINUOUS
 10
156.0
 20
231.0
 30
0.0
 11
156.0
 21
223.0
 31
0.0
  0
TEXT
  5
150E2
  8
SUNPO
  6
CONTINUOUS
 10
155.0
 20
226.166667
 30
0.0
 40
2.5
  1
8
 50
90.0
  0
LINE
  5
150E9
  8
SUNPO
  6
CONTINUOUS
 10
166.0
 20
258.0
 30
0.0
 11
166.0
 21
223.0
 31
0.0
  0
LINE
  5
150EA
  8
SUNPO
  6
CONTINUOUS
 10
166.0
 20
223.0
 30
0.0
 11
171.0
 21
218.0
 31
0.0
  0
LINE
  5
150ED
  8
SUNPO
  6
CONTINUOUS
 10
237.499999
 20
163.999997
 30
0.0
 11
267.364825
 21
163.999997
 31
0.0
  0
TEXT
  5
150EE
  8
SUNPO
  6
CONTINUOUS
 10
266.364825
 20
170.319997
 30
0.0
 40
2.5
  1
3
 50
90.0
  0
TEXT
  5
150EF
  8
SUNPO
  6
CONTINUOUS
 10
266.364825
 20
124.781491
 30
0.0
 40
2.5
  1
70
 50
90.0
  0
LINE
  5
150F0
  8
SUNPO
  6
CONTINUOUS
 10
227.499999
 20
163.999997
 30
0.0
 11
267.364825
 21
163.999997
 31
0.0
  0
LINE
  5
150F1
  8
SUNPO
  6
CONTINUOUS
 10
259.0
 20
168.499997
 30
0.0
 11
259.0
 21
173.999997
 31
0.0
  0
TEXT
  5
150F2
  8
SUNPO
  6
CONTINUOUS
 10
224.416667
 20
174.999997
 30
0.0
 40
2.5
  1
65
  0
LINE
  5
150F4
  8
SUNPO
  6
CONTINUOUS
 10
267.364825
 20
166.999997
 30
0.0
 11
267.364825
 21
172.986664
 31
0.0
  0
LINE
  5
150F7
  8
SUNPO
  6
CONTINUOUS
 10
267.364825
 20
163.999997
 30
0.0
 11
267.364825
 21
166.999997
 31
0.0
  0
LINE
  5
150F9
  8
SUNPO
  6
CONTINUOUS
 10
376.0
 20
174.0
 30
0.0
 11
401.0
 21
174.0
 31
0.0
  0
LINE
  5
150FA
  8
SUNPO
  6
CONTINUOUS
 10
376.0
 20
164.350006
 30
0.0
 11
376.0
 21
174.0
 31
0.0
  0
LINE
  5
150FB
  8
SUNPO
  6
CONTINUOUS
 10
333.0
 20
157.0
 30
0.0
 11
333.0
 21
133.0
 31
0.0
  0
LINE
  5
150FC
  8
SUNPO
  6
CONTINUOUS
 10
333.0
 20
125.0
 30
0.0
 11
333.0
 21
133.0
 31
0.0
  0
LINE
  5
15102
  8
SUNPO
  6
CONTINUOUS
 10
354.5
 20
164.0
 30
0.0
 11
333.0
 21
164.0
 31
0.0
  0
LINE
  5
15103
  8
SUNPO
  6
CONTINUOUS
 10
333.0
 20
157.0
 30
0.0
 11
333.0
 21
164.0
 31
0.0
  0
TEXT
  5
15108
  8
SUNPO
  6
CONTINUOUS
 10
386.416667
 20
175.0
 30
0.0
 40
2.5
  1
25
  0
LINE
  5
15109
  8
SUNPO
  6
CONTINUOUS
 10
401.0
 20
165.0
 30
0.0
 11
401.0
 21
174.0
 31
0.0
  0
ARC
  5
155B6
  8
SUNPO
  6
BYBLOCK
 10
25.0
 20
30.0
 30
0.0
 40
0.145
 50
90.0
 51
270.0
  0
ARC
  5
155B7
  8
SUNPO
  6
BYBLOCK
 10
25.0
 20
30.0
 30
0.0
 40
0.145
 50
270.0
 51
90.0
  0
ARC
  5
155B8
  8
SUNPO
  6
BYBLOCK
 10
45.0
 20
20.0
 30
0.0
 40
0.145
 50
0.0
 51
180.0
  0
ARC
  5
155B9
  8
SUNPO
  6
BYBLOCK
 10
45.0
 20
20.0
 30
0.0
 40
0.145
 50
180.0
 51
0.0
  0
ARC
  5
155BA
  8
SUNPO
  6
BYBLOCK
 10
25.0
 20
39.0
 30
0.0
 40
0.145
 50
90.0
 51
270.0
  0
ARC
  5
155BB
  8
SUNPO
  6
BYBLOCK
 10
25.0
 20
39.0
 30
0.0
 40
0.145
 50
270.0
 51
90.0
  0
ARC
  5
155BC
  8
SUNPO
  6
BYBLOCK
 10
25.0
 20
39.0
 30
0.0
 40
0.145
 50
270.0
 51
90.0
  0
ARC
  5
155BD
  8
SUNPO
  6
BYBLOCK
 10
25.0
 20
39.0
 30
0.0
 40
0.145
 50
90.0
 51
270.0
  0
ARC
  5
155BE
  8
SUNPO
  6
BYBLOCK
 10
25.0
 20
59.0
 30
0.0
 40
0.145
 50
90.0
 51
270.0
  0
ARC
  5
155BF
  8
SUNPO
  6
BYBLOCK
 10
25.0
 20
59.0
 30
0.0
 40
0.145
 50
270.0
 51
90.0
  0
ARC
  5
155C0
  8
SUNPO
  6
BYBLOCK
 10
25.0
 20
59.0
 30
0.0
 40
0.145
 50
270.0
 51
90.0
  0
ARC
  5
155C1
  8
SUNPO
  6
BYBLOCK
 10
25.0
 20
59.0
 30
0.0
 40
0.145
 50
90.0
 51
270.0
  0
ARC
  5
155C2
  8
SUNPO
  6
BYBLOCK
 10
35.0
 20
39.0
 30
0.0
 40
0.145
 50
90.0
 51
270.0
  0
ARC
  5
155C3
  8
SUNPO
  6
BYBLOCK
 10
35.0
 20
39.0
 30
0.0
 40
0.145
 50
270.0
 51
90.0
  0
ARC
  5
155C4
  8
SUNPO
  6
BYBLOCK
 10
35.0
 20
51.0
 30
0.0
 40
0.145
 50
90.0
 51
270.0
  0
ARC
  5
155C5
  8
SUNPO
  6
BYBLOCK
 10
35.0
 20
51.0
 30
0.0
 40
0.145
 50
270.0
 51
90.0
  0
ARC
  5
155C6
  8
SUNPO
  6
BYBLOCK
 10
35.0
 20
51.0
 30
0.0
 40
0.145
 50
270.0
 51
90.0
  0
ARC
  5
155C7
  8
SUNPO
  6
BYBLOCK
 10
35.0
 20
51.0
 30
0.0
 40
0.145
 50
90.0
 51
270.0
  0
ARC
  5
155C8
  8
SUNPO
  6
BYBLOCK
 10
35.0
 20
59.0
 30
0.0
 40
0.145
 50
90.0
 51
270.0
  0
ARC
  5
155C9
  8
SUNPO
  6
BYBLOCK
 10
35.0
 20
59.0
 30
0.0
 40
0.145
 50
270.0
 51
90.0
  0
ARC
  5
155CA
  8
SUNPO
  6
BYBLOCK
 10
35.0
 20
59.0
 30
0.0
 40
0.145
 50
270.0
 51
90.0
  0
ARC
  5
155CB
  8
SUNPO
  6
BYBLOCK
 10
35.0
 20
59.0
 30
0.0
 40
0.145
 50
90.0
 51
270.0
  0
ARC
  5
155CC
  8
SUNPO
  6
BYBLOCK
 10
35.0
 20
66.0
 30
0.0
 40
0.145
 50
270.0
 51
90.0
  0
ARC
  5
155CD
  8
SUNPO
  6
BYBLOCK
 10
35.0
 20
66.0
 30
0.0
 40
0.145
 50
90.0
 51
270.0
  0
ARC
  5
155CE
  8
SUNPO
  6
BYBLOCK
 10
57.0
 20
20.0
 30
0.0
 40
0.145
 50
180.0
 51
0.0
  0
ARC
  5
155CF
  8
SUNPO
  6
BYBLOCK
 10
57.0
 20
20.0
 30
0.0
 40
0.145
 50
0.0
 51
180.0
  0
ARC
  5
155D0
  8
SUNPO
  6
BYBLOCK
 10
25.0
 20
162.0
 30
0.0
 40
0.145
 50
270.0
 51
90.0
  0
ARC
  5
155D1
  8
SUNPO
  6
BYBLOCK
 10
25.0
 20
162.0
 30
0.0
 40
0.145
 50
90.0
 51
270.0
  0
ARC
  5
155D2
  8
SUNPO
  6
BYBLOCK
 10
45.0
 20
168.0
 30
0.0
 40
0.145
 50
0.0
 51
180.0
  0
ARC
  5
155D3
  8
SUNPO
  6
BYBLOCK
 10
45.0
 20
168.0
 30
0.0
 40
0.145
 50
180.0
 51
0.0
  0
ARC
  5
155D4
  8
SUNPO
  6
BYBLOCK
 10
45.0
 20
168.0
 30
0.0
 40
0.145
 50
180.0
 51
0.0
  0
ARC
  5
155D5
  8
SUNPO
  6
BYBLOCK
 10
45.0
 20
168.0
 30
0.0
 40
0.145
 50
0.0
 51
180.0
  0
ARC
  5
155D6
  8
SUNPO
  6
BYBLOCK
 10
42.0
 20
168.0
 30
0.0
 40
0.145
 50
0.0
 51
180.0
  0
ARC
  5
155D7
  8
SUNPO
  6
BYBLOCK
 10
42.0
 20
168.0
 30
0.0
 40
0.145
 50
180.0
 51
0.0
  0
ARC
  5
155D8
  8
SUNPO
  6
BYBLOCK
 10
52.0
 20
168.0
 30
0.0
 40
0.145
 50
180.0
 51
0.0
  0
ARC
  5
155D9
  8
SUNPO
  6
BYBLOCK
 10
52.0
 20
168.0
 30
0.0
 40
0.145
 50
0.0
 51
180.0
  0
ARC
  5
155DA
  8
SUNPO
  6
BYBLOCK
 10
52.0
 20
168.0
 30
0.0
 40
0.145
 50
0.0
 51
180.0
  0
ARC
  5
155DB
  8
SUNPO
  6
BYBLOCK
 10
52.0
 20
168.0
 30
0.0
 40
0.145
 50
180.0
 51
0.0
  0
ARC
  5
155DC
  8
SUNPO
  6
BYBLOCK
 10
25.0
 20
188.0
 30
0.0
 40
0.145
 50
90.0
 51
270.0
  0
ARC
  5
155DD
  8
SUNPO
  6
BYBLOCK
 10
25.0
 20
188.0
 30
0.0
 40
0.145
 50
270.0
 51
90.0
  0
ARC
  5
155DE
  8
SUNPO
  6
BYBLOCK
 10
45.0
 20
178.0
 30
0.0
 40
0.145
 50
0.0
 51
180.0
  0
ARC
  5
155DF
  8
SUNPO
  6
BYBLOCK
 10
45.0
 20
178.0
 30
0.0
 40
0.145
 50
180.0
 51
0.0
  0
ARC
  5
155E0
  8
SUNPO
  6
BYBLOCK
 10
76.0
 20
168.0
 30
0.0
 40
0.145
 50
0.0
 51
180.0
  0
ARC
  5
155E1
  8
SUNPO
  6
BYBLOCK
 10
76.0
 20
168.0
 30
0.0
 40
0.145
 50
180.0
 51
0.0
  0
ARC
  5
155E2
  8
SUNPO
  6
BYBLOCK
 10
76.0
 20
168.0
 30
0.0
 40
0.145
 50
180.0
 51
0.0
  0
ARC
  5
155E3
  8
SUNPO
  6
BYBLOCK
 10
76.0
 20
168.0
 30
0.0
 40
0.145
 50
0.0
 51
180.0
  0
ARC
  5
155E4
  8
SUNPO
  6
BYBLOCK
 10
84.0
 20
151.139205
 30
0.0
 40
0.145
 50
0.0
 51
180.0
  0
ARC
  5
155E5
  8
SUNPO
  6
BYBLOCK
 10
84.0
 20
151.139205
 30
0.0
 40
0.145
 50
180.0
 51
0.0
  0
ARC
  5
155E6
  8
SUNPO
  6
BYBLOCK
 10
86.5
 20
151.139205
 30
0.0
 40
0.145
 50
180.0
 51
0.0
  0
ARC
  5
155E7
  8
SUNPO
  6
BYBLOCK
 10
86.5
 20
151.139205
 30
0.0
 40
0.145
 50
0.0
 51
180.0
  0
ARC
  5
155E8
  8
SUNPO
  6
BYBLOCK
 10
86.5
 20
151.139205
 30
0.0
 40
0.145
 50
0.0
 51
180.0
  0
ARC
  5
155E9
  8
SUNPO
  6
BYBLOCK
 10
86.5
 20
151.139205
 30
0.0
 40
0.145
 50
180.0
 51
0.0
  0
ARC
  5
155EA
  8
SUNPO
  6
BYBLOCK
 10
84.0
 20
168.0
 30
0.0
 40
0.145
 50
180.0
 51
0.0
  0
ARC
  5
155EB
  8
SUNPO
  6
BYBLOCK
 10
84.0
 20
168.0
 30
0.0
 40
0.145
 50
0.0
 51
180.0
  0
ARC
  5
155EC
  8
SUNPO
  6
BYBLOCK
 10
84.0
 20
168.0
 30
0.0
 40
0.145
 50
0.0
 51
180.0
  0
ARC
  5
155ED
  8
SUNPO
  6
BYBLOCK
 10
84.0
 20
168.0
 30
0.0
 40
0.145
 50
180.0
 51
0.0
  0
ARC
  5
155EE
  8
SUNPO
  6
BYBLOCK
 10
25.0
 20
223.0
 30
0.0
 40
0.145
 50
90.0
 51
270.0
  0
ARC
  5
155EF
  8
SUNPO
  6
BYBLOCK
 10
25.0
 20
223.0
 30
0.0
 40
0.145
 50
270.0
 51
90.0
  0
ARC
  5
155F0
  8
SUNPO
  6
BYBLOCK
 10
25.0
 20
223.0
 30
0.0
 40
0.145
 50
270.0
 51
90.0
  0
ARC
  5
155F1
  8
SUNPO
  6
BYBLOCK
 10
25.0
 20
223.0
 30
0.0
 40
0.145
 50
90.0
 51
270.0
  0
ARC
  5
155F2
  8
SUNPO
  6
BYBLOCK
 10
25.0
 20
258.0
 30
0.0
 40
0.145
 50
270.0
 51
90.0
  0
ARC
  5
155F3
  8
SUNPO
  6
BYBLOCK
 10
25.0
 20
258.0
 30
0.0
 40
0.145
 50
90.0
 51
270.0
  0
ARC
  5
155F4
  8
SUNPO
  6
BYBLOCK
 10
181.0
 20
37.499997
 30
0.0
 40
0.15625
 50
0.0
 51
180.0
  0
ARC
  5
155F5
  8
SUNPO
  6
BYBLOCK
 10
181.0
 20
37.499997
 30
0.0
 40
0.15625
 50
180.0
 51
0.0
  0
ARC
  5
155F6
  8
SUNPO
  6
BYBLOCK
 10
166.0
 20
30.0
 30
0.0
 40
0.145
 50
90.0
 51
270.0
  0
ARC
  5
155F7
  8
SUNPO
  6
BYBLOCK
 10
166.0
 20
30.0
 30
0.0
 40
0.145
 50
270.0
 51
90.0
  0
ARC
  5
155F8
  8
SUNPO
  6
BYBLOCK
 10
156.0
 20
39.0
 30
0.0
 40
0.145
 50
90.0
 51
270.0
  0
ARC
  5
155F9
  8
SUNPO
  6
BYBLOCK
 10
156.0
 20
39.0
 30
0.0
 40
0.145
 50
270.0
 51
90.0
  0
ARC
  5
155FA
  8
SUNPO
  6
BYBLOCK
 10
166.0
 20
39.0
 30
0.0
 40
0.15625
 50
90.0
 51
270.0
  0
ARC
  5
155FB
  8
SUNPO
  6
BYBLOCK
 10
166.0
 20
39.0
 30
0.0
 40
0.15625
 50
270.0
 51
90.0
  0
ARC
  5
155FC
  8
SUNPO
  6
BYBLOCK
 10
166.0
 20
39.0
 30
0.0
 40
0.145
 50
270.0
 51
90.0
  0
ARC
  5
155FD
  8
SUNPO
  6
BYBLOCK
 10
166.0
 20
39.0
 30
0.0
 40
0.145
 50
90.0
 51
270.0
  0
ARC
  5
155FE
  8
SUNPO
  6
BYBLOCK
 10
156.0
 20
64.0
 30
0.0
 40
0.145
 50
90.0
 51
270.0
  0
ARC
  5
155FF
  8
SUNPO
  6
BYBLOCK
 10
156.0
 20
64.0
 30
0.0
 40
0.145
 50
270.0
 51
90.0
  0
ARC
  5
15600
  8
SUNPO
  6
BYBLOCK
 10
156.0
 20
64.0
 30
0.0
 40
0.145
 50
270.0
 51
90.0
  0
ARC
  5
15601
  8
SUNPO
  6
BYBLOCK
 10
156.0
 20
64.0
 30
0.0
 40
0.145
 50
90.0
 51
270.0
  0
ARC
  5
15602
  8
SUNPO
  6
BYBLOCK
 10
181.0
 20
57.499997
 30
0.0
 40
0.145
 50
0.0
 51
180.0
  0
ARC
  5
15603
  8
SUNPO
  6
BYBLOCK
 10
181.0
 20
57.499997
 30
0.0
 40
0.145
 50
180.0
 51
0.0
  0
ARC
  5
15604
  8
SUNPO
  6
BYBLOCK
 10
191.0
 20
57.499997
 30
0.0
 40
0.145
 50
180.0
 51
0.0
  0
ARC
  5
15605
  8
SUNPO
  6
BYBLOCK
 10
191.0
 20
57.499997
 30
0.0
 40
0.145
 50
0.0
 51
180.0
  0
ARC
  5
15606
  8
SUNPO
  6
BYBLOCK
 10
191.0
 20
57.499997
 30
0.0
 40
0.145
 50
0.0
 51
180.0
  0
ARC
  5
15607
  8
SUNPO
  6
BYBLOCK
 10
191.0
 20
57.499997
 30
0.0
 40
0.145
 50
180.0
 51
0.0
  0
ARC
  5
15608
  8
SUNPO
  6
BYBLOCK
 10
206.0
 20
57.499997
 30
0.0
 40
0.145
 50
0.0
 51
180.0
  0
ARC
  5
15609
  8
SUNPO
  6
BYBLOCK
 10
206.0
 20
57.499997
 30
0.0
 40
0.145
 50
180.0
 51
0.0
  0
ARC
  5
1560A
  8
SUNPO
  6
BYBLOCK
 10
206.0
 20
57.499997
 30
0.0
 40
0.145
 50
180.0
 51
0.0
  0
ARC
  5
1560B
  8
SUNPO
  6
BYBLOCK
 10
206.0
 20
57.499997
 30
0.0
 40
0.145
 50
0.0
 51
180.0
  0
LINE
  5
1560C
  8
SUNPO
  6
CONTINUOUS
 10
236.115372
 20
53.607266
 30
0.0
 11
237.028887
 21
54.230078
 31
0.0
210
0.0
220
0.0
230
-1.0
  0
LINE
  5
1560D
  8
SUNPO
  6
CONTINUOUS
 10
237.028887
 20
54.230078
 30
0.0
 11
237.499982
 21
54.26829
 31
0.0
210
0.0
220
0.0
230
-1.0
  0
LINE
  5
1560E
  8
SUNPO
  6
CONTINUOUS
 10
237.499982
 20
54.26829
 30
0.0
 11
237.3138
 21
53.755979
 31
0.0
210
0.0
220
0.0
230
-1.0
  0
LINE
  5
1560F
  8
SUNPO
  6
CONTINUOUS
 10
237.3138
 20
53.755979
 30
0.0
 11
236.420898
 21
51.776788
 31
0.0
210
0.0
220
0.0
230
-1.0
  0
LINE
  5
15610
  8
SUNPO
  6
CONTINUOUS
 10
236.420898
 20
51.776788
 30
0.0
 11
236.717461
 21
50.797813
 31
0.0
210
0.0
220
0.0
230
-1.0
  0
LINE
  5
15611
  8
SUNPO
  6
CONTINUOUS
 10
236.717461
 20
50.797813
 30
0.0
 11
237.678871
 21
51.101965
 31
0.0
210
0.0
220
0.0
230
-1.0
  0
LINE
  5
15612
  8
SUNPO
  6
CONTINUOUS
 10
237.678871
 20
51.101965
 30
0.0
 11
238.16436
 21
52.21945
 31
0.0
210
0.0
220
0.0
230
-1.0
  0
LINE
  5
15613
  8
SUNPO
  6
CONTINUOUS
 10
238.16436
 20
52.21945
 30
0.0
 11
238.27692
 21
52.72079
 31
0.0
210
0.0
220
0.0
230
-1.0
  0
LINE
  5
15614
  8
SUNPO
  6
CONTINUOUS
 10
238.27692
 20
52.72079
 30
0.0
 11
238.149498
 21
52.195162
 31
0.0
210
0.0
220
0.0
230
-1.0
  0
LINE
  5
15615
  8
SUNPO
  6
CONTINUOUS
 10
238.149498
 20
52.195162
 30
0.0
 11
238.099705
 21
51.129787
 31
0.0
210
0.0
220
0.0
230
-1.0
  0
LINE
  5
15616
  8
SUNPO
  6
CONTINUOUS
 10
238.099705
 20
51.129787
 30
0.0
 11
238.935643
 21
50.548463
 31
0.0
210
0.0
220
0.0
230
-1.0
  0
LINE
  5
15617
  8
SUNPO
  6
CONTINUOUS
 10
238.935643
 20
50.548463
 30
0.0
 11
240.251869
 21
52.154109
 31
0.0
210
0.0
220
0.0
230
-1.0
  0
LINE
  5
15618
  8
SUNPO
  6
CONTINUOUS
 10
240.251869
 20
52.154109
 30
0.0
 11
240.136626
 21
54.310485
 31
0.0
210
0.0
220
0.0
230
-1.0
  0
LINE
  5
15619
  8
SUNPO
  6
CONTINUOUS
 10
240.136626
 20
54.310485
 30
0.0
 11
242.274428
 21
54.073987
 31
0.0
210
0.0
220
0.0
230
-1.0
  0
LINE
  5
1561A
  8
SUNPO
  6
CONTINUOUS
 10
236.115372
 20
53.607269
 30
0.0
 11
237.028887
 21
54.230081
 31
0.0
210
0.0
220
0.0
230
-1.0
  0
LINE
  5
1561B
  8
SUNPO
  6
CONTINUOUS
 10
237.028887
 20
54.230081
 30
0.0
 11
237.499982
 21
54.268293
 31
0.0
210
0.0
220
0.0
230
-1.0
  0
LINE
  5
1561C
  8
SUNPO
  6
CONTINUOUS
 10
237.499982
 20
54.268293
 30
0.0
 11
237.3138
 21
53.755982
 31
0.0
210
0.0
220
0.0
230
-1.0
  0
LINE
  5
1561D
  8
SUNPO
  6
CONTINUOUS
 10
237.3138
 20
53.755982
 30
0.0
 11
236.420898
 21
51.776791
 31
0.0
210
0.0
220
0.0
230
-1.0
  0
LINE
  5
1561E
  8
SUNPO
  6
CONTINUOUS
 10
236.420898
 20
51.776791
 30
0.0
 11
236.717461
 21
50.797817
 31
0.0
210
0.0
220
0.0
230
-1.0
  0
LINE
  5
1561F
  8
SUNPO
  6
CONTINUOUS
 10
236.717461
 20
50.797817
 30
0.0
 11
237.678871
 21
51.101968
 31
0.0
210
0.0
220
0.0
230
-1.0
  0
LINE
  5
15620
  8
SUNPO
  6
CONTINUOUS
 10
237.678871
 20
51.101968
 30
0.0
 11
238.16436
 21
52.219453
 31
0.0
210
0.0
220
0.0
230
-1.0
  0
LINE
  5
15621
  8
SUNPO
  6
CONTINUOUS
 10
238.16436
 20
52.219453
 30
0.0
 11
238.27692
 21
52.720793
 31
0.0
210
0.0
220
0.0
230
-1.0
  0
LINE
  5
15622
  8
SUNPO
  6
CONTINUOUS
 10
238.27692
 20
52.720793
 30
0.0
 11
238.149498
 21
52.195165
 31
0.0
210
0.0
220
0.0
230
-1.0
  0
LINE
  5
15623
  8
SUNPO
  6
CONTINUOUS
 10
238.149498
 20
52.195165
 30
0.0
 11
238.099705
 21
51.12979
 31
0.0
210
0.0
220
0.0
230
-1.0
  0
LINE
  5
15624
  8
SUNPO
  6
CONTINUOUS
 10
238.099705
 20
51.12979
 30
0.0
 11
238.935643
 21
50.548466
 31
0.0
210
0.0
220
0.0
230
-1.0
  0
LINE
  5
15625
  8
SUNPO
  6
CONTINUOUS
 10
238.935643
 20
50.548466
 30
0.0
 11
240.251869
 21
52.154112
 31
0.0
210
0.0
220
0.0
230
-1.0
  0
LINE
  5
15626
  8
SUNPO
  6
CONTINUOUS
 10
240.251869
 20
52.154112
 30
0.0
 11
240.136626
 21
54.310488
 31
0.0
210
0.0
220
0.0
230
-1.0
  0
LINE
  5
15627
  8
SUNPO
  6
CONTINUOUS
 10
240.136626
 20
54.310488
 30
0.0
 11
242.274428
 21
54.07399
 31
0.0
210
0.0
220
0.0
230
-1.0
  0
ARC
  5
15628
  8
SUNPO
  6
BYBLOCK
 10
259.0
 20
57.499997
 30
0.0
 40
0.145
 50
180.0
 51
0.0
  0
ARC
  5
15629
  8
SUNPO
  6
BYBLOCK
 10
259.0
 20
57.499997
 30
0.0
 40
0.145
 50
0.0
 51
180.0
  0
LINE
  5
1562A
  8
SUNPO
  6
CONTINUOUS
 10
344.285372
 20
53.607269
 30
0.0
 11
345.198887
 21
54.230081
 31
0.0
210
0.0
220
0.0
230
-1.0
  0
LINE
  5
1562B
  8
SUNPO
  6
CONTINUOUS
 10
345.198887
 20
54.230081
 30
0.0
 11
345.669983
 21
54.268293
 31
0.0
210
0.0
220
0.0
230
-1.0
  0
LINE
  5
1562C
  8
SUNPO
  6
CONTINUOUS
 10
345.669983
 20
54.268293
 30
0.0
 11
345.4838
 21
53.755983
 31
0.0
210
0.0
220
0.0
230
-1.0
  0
LINE
  5
1562D
  8
SUNPO
  6
CONTINUOUS
 10
345.4838
 20
53.755983
 30
0.0
 11
344.590898
 21
51.776791
 31
0.0
210
0.0
220
0.0
230
-1.0
  0
LINE
  5
1562E
  8
SUNPO
  6
CONTINUOUS
 10
344.590898
 20
51.776791
 30
0.0
 11
344.887461
 21
50.797817
 31
0.0
210
0.0
220
0.0
230
-1.0
  0
LINE
  5
1562F
  8
SUNPO
  6
CONTINUOUS
 10
344.887461
 20
50.797817
 30
0.0
 11
345.848871
 21
51.101967
 31
0.0
210
0.0
220
0.0
230
-1.0
  0
LINE
  5
15630
  8
SUNPO
  6
CONTINUOUS
 10
345.848871
 20
51.101967
 30
0.0
 11
346.334361
 21
52.219451
 31
0.0
210
0.0
220
0.0
230
-1.0
  0
LINE
  5
15631
  8
SUNPO
  6
CONTINUOUS
 10
346.334361
 20
52.219451
 30
0.0
 11
346.446921
 21
52.720793
 31
0.0
210
0.0
220
0.0
230
-1.0
  0
LINE
  5
15632
  8
SUNPO
  6
CONTINUOUS
 10
346.446921
 20
52.720793
 30
0.0
 11
346.3195
 21
52.195166
 31
0.0
210
0.0
220
0.0
230
-1.0
  0
LINE
  5
15633
  8
SUNPO
  6
CONTINUOUS
 10
346.3195
 20
52.195166
 30
0.0
 11
346.269705
 21
51.12979
 31
0.0
210
0.0
220
0.0
230
-1.0
  0
LINE
  5
15634
  8
SUNPO
  6
CONTINUOUS
 10
346.269705
 20
51.12979
 30
0.0
 11
347.105643
 21
50.548466
 31
0.0
210
0.0
220
0.0
230
-1.0
  0
LINE
  5
15635
  8
SUNPO
  6
CONTINUOUS
 10
347.105643
 20
50.548466
 30
0.0
 11
348.42187
 21
52.154112
 31
0.0
210
0.0
220
0.0
230
-1.0
  0
LINE
  5
15636
  8
SUNPO
  6
CONTINUOUS
 10
348.42187
 20
52.154112
 30
0.0
 11
348.306626
 21
54.310488
 31
0.0
210
0.0
220
0.0
230
-1.0
  0
LINE
  5
15637
  8
SUNPO
  6
CONTINUOUS
 10
348.306626
 20
54.310488
 30
0.0
 11
350.444429
 21
54.07399
 31
0.0
210
0.0
220
0.0
230
-1.0
  0
ARC
  5
15638
  8
SUNPO
  6
BYBLOCK
 10
333.0
 20
66.0
 30
0.0
 40
0.145
 50
90.0
 51
270.0
  0
ARC
  5
15639
  8
SUNPO
  6
BYBLOCK
 10
333.0
 20
66.0
 30
0.0
 40
0.145
 50
270.0
 51
90.0
  0
ARC
  5
1563A
  8
SUNPO
  6
BYBLOCK
 10
361.0
 20
57.5
 30
0.0
 40
0.145
 50
0.0
 51
180.0
  0
ARC
  5
1563B
  8
SUNPO
  6
BYBLOCK
 10
361.0
 20
57.5
 30
0.0
 40
0.145
 50
180.0
 51
0.0
  0
ARC
  5
1563C
  8
SUNPO
  6
BYBLOCK
 10
376.0
 20
57.5
 30
0.0
 40
0.145
 50
0.0
 51
180.0
  0
ARC
  5
1563D
  8
SUNPO
  6
BYBLOCK
 10
376.0
 20
57.5
 30
0.0
 40
0.145
 50
180.0
 51
0.0
  0
ARC
  5
1563E
  8
SUNPO
  6
BYBLOCK
 10
376.0
 20
57.5
 30
0.0
 40
0.145
 50
180.0
 51
0.0
  0
ARC
  5
1563F
  8
SUNPO
  6
BYBLOCK
 10
376.0
 20
57.5
 30
0.0
 40
0.145
 50
0.0
 51
180.0
  0
ARC
  5
15640
  8
SUNPO
  6
BYBLOCK
 10
391.0
 20
57.5
 30
0.0
 40
0.145
 50
180.0
 51
0.0
  0
ARC
  5
15641
  8
SUNPO
  6
BYBLOCK
 10
391.0
 20
57.5
 30
0.0
 40
0.145
 50
0.0
 51
180.0
  0
ARC
  5
15642
  8
SUNPO
  6
BYBLOCK
 10
391.0
 20
57.5
 30
0.0
 40
0.145
 50
0.0
 51
180.0
  0
ARC
  5
15643
  8
SUNPO
  6
BYBLOCK
 10
391.0
 20
57.5
 30
0.0
 40
0.145
 50
180.0
 51
0.0
  0
ARC
  5
15644
  8
SUNPO
  6
BYBLOCK
 10
401.0
 20
37.5
 30
0.0
 40
0.145
 50
180.0
 51
0.0
  0
ARC
  5
15645
  8
SUNPO
  6
BYBLOCK
 10
401.0
 20
37.5
 30
0.0
 40
0.145
 50
0.0
 51
180.0
  0
ARC
  5
15646
  8
SUNPO
  6
BYBLOCK
 10
401.0
 20
57.5
 30
0.0
 40
0.145
 50
180.0
 51
0.0
  0
ARC
  5
15647
  8
SUNPO
  6
BYBLOCK
 10
401.0
 20
57.5
 30
0.0
 40
0.145
 50
0.0
 51
180.0
  0
ARC
  5
15648
  8
SUNPO
  6
BYBLOCK
 10
156.0
 20
99.0
 30
0.0
 40
0.145
 50
90.0
 51
270.0
  0
ARC
  5
15649
  8
SUNPO
  6
BYBLOCK
 10
156.0
 20
99.0
 30
0.0
 40
0.145
 50
270.0
 51
90.0
  0
ARC
  5
1564A
  8
SUNPO
  6
BYBLOCK
 10
156.0
 20
99.0
 30
0.0
 40
0.145
 50
270.0
 51
90.0
  0
ARC
  5
1564B
  8
SUNPO
  6
BYBLOCK
 10
156.0
 20
99.0
 30
0.0
 40
0.145
 50
90.0
 51
270.0
  0
ARC
  5
1564C
  8
SUNPO
  6
BYBLOCK
 10
106.5
 20
151.139205
 30
0.0
 40
0.145
 50
0.0
 51
180.0
  0
ARC
  5
1564D
  8
SUNPO
  6
BYBLOCK
 10
106.5
 20
151.139205
 30
0.0
 40
0.145
 50
180.0
 51
0.0
  0
ARC
  5
1564E
  8
SUNPO
  6
BYBLOCK
 10
106.5
 20
151.139205
 30
0.0
 40
0.145
 50
180.0
 51
0.0
  0
ARC
  5
1564F
  8
SUNPO
  6
BYBLOCK
 10
106.5
 20
151.139205
 30
0.0
 40
0.145
 50
0.0
 51
180.0
  0
ARC
  5
15650
  8
SUNPO
  6
BYBLOCK
 10
108.9
 20
151.139205
 30
0.0
 40
0.145
 50
180.0
 51
0.0
  0
ARC
  5
15651
  8
SUNPO
  6
BYBLOCK
 10
108.9
 20
151.139205
 30
0.0
 40
0.145
 50
0.0
 51
180.0
  0
ARC
  5
15652
  8
SUNPO
  6
BYBLOCK
 10
115.0
 20
168.0
 30
0.0
 40
0.145
 50
180.0
 51
0.0
  0
ARC
  5
15653
  8
SUNPO
  6
BYBLOCK
 10
115.0
 20
168.0
 30
0.0
 40
0.145
 50
0.0
 51
180.0
  0
ARC
  5
15654
  8
SUNPO
  6
BYBLOCK
 10
115.0
 20
168.0
 30
0.0
 40
0.145
 50
0.0
 51
180.0
  0
ARC
  5
15655
  8
SUNPO
  6
BYBLOCK
 10
115.0
 20
168.0
 30
0.0
 40
0.145
 50
180.0
 51
0.0
  0
ARC
  5
15656
  8
SUNPO
  6
BYBLOCK
 10
143.0
 20
168.0
 30
0.0
 40
0.145
 50
180.0
 51
0.0
  0
ARC
  5
15657
  8
SUNPO
  6
BYBLOCK
 10
143.0
 20
168.0
 30
0.0
 40
0.145
 50
0.0
 51
180.0
  0
ARC
  5
15658
  8
SUNPO
  6
BYBLOCK
 10
115.0
 20
178.0
 30
0.0
 40
0.145
 50
180.0
 51
0.0
  0
ARC
  5
15659
  8
SUNPO
  6
BYBLOCK
 10
115.0
 20
178.0
 30
0.0
 40
0.145
 50
0.0
 51
180.0
  0
ARC
  5
1565A
  8
SUNPO
  6
BYBLOCK
 10
156.0
 20
141.0
 30
0.0
 40
0.145
 50
270.0
 51
90.0
  0
ARC
  5
1565B
  8
SUNPO
  6
BYBLOCK
 10
156.0
 20
141.0
 30
0.0
 40
0.145
 50
90.0
 51
270.0
  0
ARC
  5
1565C
  8
SUNPO
  6
BYBLOCK
 10
156.0
 20
141.0
 30
0.0
 40
0.145
 50
90.0
 51
270.0
  0
ARC
  5
1565D
  8
SUNPO
  6
BYBLOCK
 10
156.0
 20
141.0
 30
0.0
 40
0.145
 50
270.0
 51
90.0
  0
ARC
  5
1565E
  8
SUNPO
  6
BYBLOCK
 10
156.0
 20
162.0
 30
0.0
 40
0.145
 50
270.0
 51
90.0
  0
ARC
  5
1565F
  8
SUNPO
  6
BYBLOCK
 10
156.0
 20
162.0
 30
0.0
 40
0.145
 50
90.0
 51
270.0
  0
ARC
  5
15660
  8
SUNPO
  6
BYBLOCK
 10
194.0
 20
173.999997
 30
0.0
 40
0.145
 50
180.0
 51
0.0
  0
ARC
  5
15661
  8
SUNPO
  6
BYBLOCK
 10
194.0
 20
173.999997
 30
0.0
 40
0.145
 50
0.0
 51
180.0
  0
ARC
  5
15662
  8
SUNPO
  6
BYBLOCK
 10
194.0
 20
173.999997
 30
0.0
 40
0.145
 50
0.0
 51
180.0
  0
ARC
  5
15663
  8
SUNPO
  6
BYBLOCK
 10
194.0
 20
173.999997
 30
0.0
 40
0.145
 50
180.0
 51
0.0
  0
ARC
  5
15664
  8
SUNPO
  6
BYBLOCK
 10
191.0
 20
173.999997
 30
0.0
 40
0.145
 50
0.0
 51
180.0
  0
ARC
  5
15665
  8
SUNPO
  6
BYBLOCK
 10
191.0
 20
173.999997
 30
0.0
 40
0.145
 50
180.0
 51
0.0
  0
ARC
  5
15666
  8
SUNPO
  6
BYBLOCK
 10
156.0
 20
188.0
 30
0.0
 40
0.145
 50
90.0
 51
270.0
  0
ARC
  5
15667
  8
SUNPO
  6
BYBLOCK
 10
156.0
 20
188.0
 30
0.0
 40
0.145
 50
270.0
 51
90.0
  0
ARC
  5
15668
  8
SUNPO
  6
BYBLOCK
 10
267.364825
 20
93.999997
 30
0.0
 40
0.145
 50
90.0
 51
270.0
  0
ARC
  5
15669
  8
SUNPO
  6
BYBLOCK
 10
267.364825
 20
93.999997
 30
0.0
 40
0.145
 50
270.0
 51
90.0
  0
ARC
  5
1566A
  8
SUNPO
  6
BYBLOCK
 10
259.0
 20
173.999997
 30
0.0
 40
0.145
 50
180.0
 51
0.0
  0
ARC
  5
1566B
  8
SUNPO
  6
BYBLOCK
 10
259.0
 20
173.999997
 30
0.0
 40
0.145
 50
0.0
 51
180.0
  0
ARC
  5
1566C
  8
SUNPO
  6
BYBLOCK
 10
267.364825
 20
163.999997
 30
0.0
 40
0.145
 50
270.0
 51
90.0
  0
ARC
  5
1566D
  8
SUNPO
  6
BYBLOCK
 10
267.364825
 20
163.999997
 30
0.0
 40
0.145
 50
90.0
 51
270.0
  0
ARC
  5
1566E
  8
SUNPO
  6
BYBLOCK
 10
267.364825
 20
163.999997
 30
0.0
 40
0.145
 50
90.0
 51
270.0
  0
ARC
  5
1566F
  8
SUNPO
  6
BYBLOCK
 10
267.364825
 20
163.999997
 30
0.0
 40
0.145
 50
270.0
 51
90.0
  0
ARC
  5
15670
  8
SUNPO
  6
BYBLOCK
 10
267.364825
 20
166.999997
 30
0.0
 40
0.145
 50
270.0
 51
90.0
  0
ARC
  5
15671
  8
SUNPO
  6
BYBLOCK
 10
267.364825
 20
166.999997
 30
0.0
 40
0.145
 50
90.0
 51
270.0
  0
ARC
  5
15672
  8
SUNPO
  6
BYBLOCK
 10
156.0
 20
223.0
 30
0.0
 40
0.145
 50
90.0
 51
270.0
  0
ARC
  5
15673
  8
SUNPO
  6
BYBLOCK
 10
156.0
 20
223.0
 30
0.0
 40
0.145
 50
270.0
 51
90.0
  0
ARC
  5
15674
  8
SUNPO
  6
BYBLOCK
 10
156.0
 20
223.0
 30
0.0
 40
0.145
 50
270.0
 51
90.0
  0
ARC
  5
15675
  8
SUNPO
  6
BYBLOCK
 10
156.0
 20
223.0
 30
0.0
 40
0.145
 50
90.0
 51
270.0
  0
ARC
  5
15676
  8
SUNPO
  6
BYBLOCK
 10
156.0
 20
231.0
 30
0.0
 40
0.145
 50
270.0
 51
90.0
  0
ARC
  5
15677
  8
SUNPO
  6
BYBLOCK
 10
156.0
 20
231.0
 30
0.0
 40
0.145
 50
90.0
 51
270.0
  0
ARC
  5
15678
  8
SUNPO
  6
BYBLOCK
 10
156.0
 20
231.0
 30
0.0
 40
0.145
 50
90.0
 51
270.0
  0
ARC
  5
15679
  8
SUNPO
  6
BYBLOCK
 10
156.0
 20
231.0
 30
0.0
 40
0.145
 50
270.0
 51
90.0
  0
ARC
  5
1567A
  8
SUNPO
  6
BYBLOCK
 10
156.0
 20
246.0
 30
0.0
 40
0.145
 50
270.0
 51
90.0
  0
ARC
  5
1567B
  8
SUNPO
  6
BYBLOCK
 10
156.0
 20
246.0
 30
0.0
 40
0.145
 50
90.0
 51
270.0
  0
ARC
  5
1567C
  8
SUNPO
  6
BYBLOCK
 10
166.0
 20
258.0
 30
0.0
 40
0.145
 50
270.0
 51
90.0
  0
ARC
  5
1567D
  8
SUNPO
  6
BYBLOCK
 10
166.0
 20
258.0
 30
0.0
 40
0.145
 50
90.0
 51
270.0
  0
ARC
  5
1567E
  8
SUNPO
  6
BYBLOCK
 10
333.0
 20
94.0
 30
0.0
 40
0.145
 50
270.0
 51
90.0
  0
ARC
  5
1567F
  8
SUNPO
  6
BYBLOCK
 10
333.0
 20
94.0
 30
0.0
 40
0.145
 50
90.0
 51
270.0
  0
ARC
  5
15680
  8
SUNPO
  6
BYBLOCK
 10
333.0
 20
94.0
 30
0.0
 40
0.145
 50
90.0
 51
270.0
  0
ARC
  5
15681
  8
SUNPO
  6
BYBLOCK
 10
333.0
 20
94.0
 30
0.0
 40
0.145
 50
270.0
 51
90.0
  0
ARC
  5
15682
  8
SUNPO
  6
BYBLOCK
 10
333.0
 20
125.0
 30
0.0
 40
0.145
 50
270.0
 51
90.0
  0
ARC
  5
15683
  8
SUNPO
  6
BYBLOCK
 10
333.0
 20
125.0
 30
0.0
 40
0.145
 50
90.0
 51
270.0
  0
ARC
  5
15684
  8
SUNPO
  6
BYBLOCK
 10
333.0
 20
125.0
 30
0.0
 40
0.145
 50
90.0
 51
270.0
  0
ARC
  5
15685
  8
SUNPO
  6
BYBLOCK
 10
333.0
 20
125.0
 30
0.0
 40
0.145
 50
270.0
 51
90.0
  0
ARC
  5
15686
  8
SUNPO
  6
BYBLOCK
 10
333.0
 20
133.0
 30
0.0
 40
0.145
 50
90.0
 51
270.0
  0
ARC
  5
15687
  8
SUNPO
  6
BYBLOCK
 10
333.0
 20
133.0
 30
0.0
 40
0.145
 50
270.0
 51
90.0
  0
ARC
  5
15688
  8
SUNPO
  6
BYBLOCK
 10
333.0
 20
133.0
 30
0.0
 40
0.145
 50
270.0
 51
90.0
  0
ARC
  5
15689
  8
SUNPO
  6
BYBLOCK
 10
333.0
 20
133.0
 30
0.0
 40
0.145
 50
90.0
 51
270.0
  0
ARC
  5
1568A
  8
SUNPO
  6
BYBLOCK
 10
355.855906
 20
94.0
 30
0.0
 40
0.145
 50
90.0
 51
270.0
  0
ARC
  5
1568B
  8
SUNPO
  6
BYBLOCK
 10
355.855906
 20
94.0
 30
0.0
 40
0.145
 50
270.0
 51
90.0
  0
ARC
  5
1568C
  8
SUNPO
  6
BYBLOCK
 10
355.855906
 20
102.499994
 30
0.0
 40
0.145
 50
90.0
 51
270.0
  0
ARC
  5
1568D
  8
SUNPO
  6
BYBLOCK
 10
355.855906
 20
102.499994
 30
0.0
 40
0.145
 50
270.0
 51
90.0
  0
ARC
  5
1568E
  8
SUNPO
  6
BYBLOCK
 10
355.855906
 20
102.499994
 30
0.0
 40
0.145
 50
270.0
 51
90.0
  0
ARC
  5
1568F
  8
SUNPO
  6
BYBLOCK
 10
355.855906
 20
102.499994
 30
0.0
 40
0.145
 50
90.0
 51
270.0
  0
ARC
  5
15690
  8
SUNPO
  6
BYBLOCK
 10
355.855906
 20
97.999994
 30
0.0
 40
0.145
 50
270.0
 51
90.0
  0
ARC
  5
15691
  8
SUNPO
  6
BYBLOCK
 10
355.855906
 20
97.999994
 30
0.0
 40
0.145
 50
90.0
 51
270.0
  0
ARC
  5
15692
  8
SUNPO
  6
BYBLOCK
 10
355.855906
 20
97.999994
 30
0.0
 40
0.145
 50
90.0
 51
270.0
  0
ARC
  5
15693
  8
SUNPO
  6
BYBLOCK
 10
355.855906
 20
97.999994
 30
0.0
 40
0.145
 50
270.0
 51
90.0
  0
ARC
  5
15694
  8
SUNPO
  6
BYBLOCK
 10
355.855906
 20
122.5
 30
0.0
 40
0.145
 50
90.0
 51
270.0
  0
ARC
  5
15695
  8
SUNPO
  6
BYBLOCK
 10
355.855906
 20
122.5
 30
0.0
 40
0.145
 50
270.0
 51
90.0
  0
ARC
  5
15696
  8
SUNPO
  6
BYBLOCK
 10
355.855906
 20
122.5
 30
0.0
 40
0.145
 50
270.0
 51
90.0
  0
ARC
  5
15697
  8
SUNPO
  6
BYBLOCK
 10
355.855906
 20
122.5
 30
0.0
 40
0.145
 50
90.0
 51
270.0
  0
ARC
  5
15698
  8
SUNPO
  6
BYBLOCK
 10
355.855906
 20
125.0
 30
0.0
 40
0.145
 50
270.0
 51
90.0
  0
ARC
  5
15699
  8
SUNPO
  6
BYBLOCK
 10
355.855906
 20
125.0
 30
0.0
 40
0.145
 50
90.0
 51
270.0
  0
ARC
  5
1569A
  8
SUNPO
  6
BYBLOCK
 10
333.0
 20
157.0
 30
0.0
 40
0.145
 50
270.0
 51
90.0
  0
ARC
  5
1569B
  8
SUNPO
  6
BYBLOCK
 10
333.0
 20
157.0
 30
0.0
 40
0.145
 50
90.0
 51
270.0
  0
ARC
  5
1569C
  8
SUNPO
  6
BYBLOCK
 10
333.0
 20
157.0
 30
0.0
 40
0.145
 50
90.0
 51
270.0
  0
ARC
  5
1569D
  8
SUNPO
  6
BYBLOCK
 10
333.0
 20
157.0
 30
0.0
 40
0.145
 50
270.0
 51
90.0
  0
ARC
  5
1569E
  8
SUNPO
  6
BYBLOCK
 10
333.0
 20
164.0
 30
0.0
 40
0.145
 50
270.0
 51
90.0
  0
ARC
  5
1569F
  8
SUNPO
  6
BYBLOCK
 10
333.0
 20
164.0
 30
0.0
 40
0.145
 50
90.0
 51
270.0
  0
ARC
  5
156A0
  8
SUNPO
  6
BYBLOCK
 10
376.0
 20
174.0
 30
0.0
 40
0.145
 50
0.0
 51
180.0
  0
ARC
  5
156A1
  8
SUNPO
  6
BYBLOCK
 10
376.0
 20
174.0
 30
0.0
 40
0.145
 50
180.0
 51
0.0
  0
ARC
  5
156A2
  8
SUNPO
  6
BYBLOCK
 10
401.0
 20
174.0
 30
0.0
 40
0.145
 50
180.0
 51
0.0
  0
ARC
  5
156A3
  8
SUNPO
  6
BYBLOCK
 10
401.0
 20
174.0
 30
0.0
 40
0.145
 50
0.0
 51
180.0
  0
LINE
  5
1615D
  8
DANMEN
  6
CONTINUOUS
 10
69.349998
 20
73.999996
 30
0.0
 11
69.349998
 21
74.299995
 31
0.0
  0
LINE
  5
1615E
  8
DANMEN
  6
CONTINUOUS
 10
69.349998
 20
74.299995
 30
0.0
 11
71.350001
 21
74.299997
 31
0.0
  0
LINE
  5
1615F
  8
DANMEN
  6
CONTINUOUS
 10
71.350001
 20
74.299992
 30
0.0
 11
71.850001
 21
74.000001
 31
0.0
  0
LINE
  5
16160
  8
DANMEN
  6
CONTINUOUS
 10
56.149998
 20
146.099996
 30
0.0
 11
56.149998
 21
145.100002
 31
0.0
  0
LINE
  5
16161
  8
DANMEN
  6
CONTINUOUS
 10
55.299997
 20
149.099996
 30
0.0
 11
56.149998
 21
146.099996
 31
0.0
  0
LINE
  5
16162
  8
DANMEN
  6
CONTINUOUS
 10
55.299997
 20
140.000002
 30
0.0
 11
56.149998
 21
143.000002
 31
0.0
  0
LINE
  5
16163
  8
DANMEN
  6
CONTINUOUS
 10
56.149998
 20
143.000002
 30
0.0
 11
56.149998
 21
143.999996
 31
0.0
  0
LINE
  5
16164
  8
DANMEN
  6
CONTINUOUS
 10
56.149998
 20
113.099996
 30
0.0
 11
56.149998
 21
112.100002
 31
0.0
  0
LINE
  5
16165
  8
DANMEN
  6
CONTINUOUS
 10
55.299997
 20
116.099996
 30
0.0
 11
56.149998
 21
113.099996
 31
0.0
  0
LINE
  5
16166
  8
DANMEN
  6
CONTINUOUS
 10
55.299997
 20
107.000002
 30
0.0
 11
56.149998
 21
110.000002
 31
0.0
  0
LINE
  5
16167
  8
DANMEN
  6
CONTINUOUS
 10
56.149998
 20
110.000002
 30
0.0
 11
56.149998
 21
110.999996
 31
0.0
  0
LINE
  5
16168
  8
DANMEN
  6
CONTINUOUS
 10
56.150001
 20
76.999997
 30
0.0
 11
56.150001
 21
75.000001
 31
0.0
  0
LINE
  5
16169
  8
DANMEN
  6
CONTINUOUS
 10
55.299998
 20
80.000008
 30
0.0
 11
56.150001
 21
76.999997
 31
0.0
  0
LINE
  5
1616A
  8
DANMEN
  6
CONTINUOUS
 10
58.650001
 20
73.999996
 30
0.0
 11
58.650001
 21
74.299995
 31
0.0
  0
LINE
  5
1616B
  8
DANMEN
  6
CONTINUOUS
 10
58.650001
 20
74.299995
 30
0.0
 11
56.649998
 21
74.299997
 31
0.0
  0
LINE
  5
1616C
  8
DANMEN
  6
CONTINUOUS
 10
56.150001
 20
71.999997
 30
0.0
 11
56.150001
 21
74.000003
 31
0.0
  0
LINE
  5
1616D
  8
DANMEN
  6
CONTINUOUS
 10
56.649998
 20
74.299992
 30
0.0
 11
56.149998
 21
74.000001
 31
0.0
  0
LINE
  5
1616E
  8
DANMEN
  6
CONTINUOUS
 10
55.299998
 20
68.999985
 30
0.0
 11
56.150001
 21
71.999997
 31
0.0
  0
LINE
  5
1616F
  8
DANMEN
  6
CONTINUOUS
 10
61.5
 20
73.999999
 30
0.0
 11
58.650001
 21
74.000001
 31
0.0
  0
ARC
  5
16170
  8
DANMEN
  6
CONTINUOUS
 10
72.350001
 20
71.499995
 30
0.0
 40
0.5
 50
180.0
 51
270.0
  0
ARC
  5
16171
  8
DANMEN
  6
CONTINUOUS
 10
72.350001
 20
62.5
 30
0.0
 40
0.5
 50
180.0
 51
270.0
  0
LINE
  5
16172
  8
DANMEN
  6
CONTINUOUS
 10
71.850001
 20
63.0
 30
0.0
 11
71.850001
 21
62.5
 31
0.0
  0
LINE
  5
16173
  8
DANMEN
  6
CONTINUOUS
 10
72.699998
 20
62.0
 30
0.0
 11
72.699998
 21
59.8
 31
0.0
  0
LINE
  5
16174
  8
DANMEN
  6
CONTINUOUS
 10
72.699998
 20
63.0
 30
0.0
 11
71.850001
 21
63.0
 31
0.0
  0
LINE
  5
16175
  8
DANMEN
  6
CONTINUOUS
 10
72.699998
 20
62.0
 30
0.0
 11
72.349998
 21
62.0
 31
0.0
  0
LINE
  5
16176
  8
DANMEN
  6
CONTINUOUS
 10
72.699998
 20
70.999995
 30
0.0
 11
72.350001
 21
70.999995
 31
0.0
  0
ARC
  5
16177
  8
DANMEN
  6
CONTINUOUS
 10
72.349998
 20
59.5
 30
0.0
 40
0.5
 50
180.0
 51
270.0
  0
ARC
  5
16178
  8
DANMEN
  6
CONTINUOUS
 10
73.299998
 20
59.5
 30
0.0
 40
0.5
 50
270.0
 51
0.0
  0
LINE
  5
16179
  8
DANMEN
  6
CONTINUOUS
 10
73.299998
 20
59.0
 30
0.0
 11
72.349998
 21
59.0
 31
0.0
  0
LINE
  5
1617A
  8
DANMEN
  6
CONTINUOUS
 10
72.699998
 20
59.8
 30
0.0
 11
71.849998
 21
59.8
 31
0.0
  0
LINE
  5
1617B
  8
DANMEN
  6
CONTINUOUS
 10
71.849998
 20
59.8
 30
0.0
 11
71.849998
 21
59.5
 31
0.0
  0
LINE
  5
1617C
  8
DANMEN
  6
CONTINUOUS
 10
72.699998
 20
70.999995
 30
0.0
 11
72.699998
 21
63.0
 31
0.0
  0
LINE
  5
1617D
  8
DANMEN
  6
CONTINUOUS
 10
71.850001
 20
74.000005
 30
0.0
 11
71.850001
 21
71.499995
 31
0.0
  0
LINE
  5
1617E
  8
DANMEN
  6
CONTINUOUS
 10
73.799998
 20
74.000006
 30
0.0
 11
73.799998
 21
59.5
 31
0.0
  0
ARC
  5
1617F
  8
DANMEN
  6
CONTINUOUS
 10
71.700001
 20
88.88869
 30
0.0
 40
1.0
 50
278.62675
 51
0.0
  0
ARC
  5
16180
  8
DANMEN
  6
CONTINUOUS
 10
72.349998
 20
87.400003
 30
0.0
 40
0.5
 50
180.0
 51
270.0
  0
LINE
  5
16181
  8
DANMEN
  6
CONTINUOUS
 10
71.849998
 20
87.900003
 30
0.0
 11
71.849998
 21
87.400003
 31
0.0
  0
LINE
  5
16182
  8
DANMEN
  6
CONTINUOUS
 10
69.349998
 20
74.000004
 30
0.0
 11
66.5
 21
74.000001
 31
0.0
  0
LINE
  5
16183
  8
DANMEN
  6
CONTINUOUS
 10
61.499999
 20
74.0
 30
0.0
 11
61.499999
 21
73.050003
 31
0.0
  0
LINE
  5
16184
  8
DANMEN
  6
CONTINUOUS
 10
66.499999
 20
74.0
 30
0.0
 11
66.499999
 21
73.050003
 31
0.0
  0
LINE
  5
16185
  8
DANMEN
  6
CONTINUOUS
 10
66.499999
 20
73.050001
 30
0.0
 11
61.499999
 21
73.049999
 31
0.0
  0
LINE
  5
16186
  8
DANMEN
  6
CONTINUOUS
 10
71.849995
 20
75.000006
 30
0.0
 11
56.149998
 21
75.000001
 31
0.0
  0
ARC
  5
16187
  8
DANMEN
  6
CONTINUOUS
 10
55.649998
 20
59.5
 30
0.0
 40
0.5
 50
270.0
 51
0.0
  0
ARC
  5
16188
  8
DANMEN
  6
CONTINUOUS
 10
54.699998
 20
59.5
 30
0.0
 40
0.5
 50
180.0
 51
270.0
  0
LINE
  5
16189
  8
DANMEN
  6
CONTINUOUS
 10
54.699998
 20
59.0
 30
0.0
 11
55.649998
 21
59.0
 31
0.0
  0
LINE
  5
1618A
  8
DANMEN
  6
CONTINUOUS
 10
71.000002
 20
161.5
 30
0.0
 11
71.000002
 21
159.0
 31
0.0
  0
ARC
  5
1618B
  8
DANMEN
  6
CONTINUOUS
 10
71.500002
 20
161.5
 30
0.0
 40
0.5
 50
90.000018
 51
180.0
  0
LINE
  5
1618C
  8
DANMEN
  6
CONTINUOUS
 10
71.149871
 20
159.0
 30
0.0
 11
71.000002
 21
159.0
 31
0.0
  0
LINE
  5
1618D
  8
DANMEN
  6
CONTINUOUS
 10
71.800002
 20
160.9
 30
0.0
 11
71.647124
 21
159.447658
 31
0.0
  0
ARC
  5
1618E
  8
DANMEN
  6
CONTINUOUS
 10
71.149871
 20
159.5
 30
0.0
 40
0.5
 50
270.0
 51
353.990994
  0
LINE
  5
1618F
  8
DANMEN
  6
CONTINUOUS
 10
72.700002
 20
160.9
 30
0.0
 11
71.800002
 21
160.9
 31
0.0
  0
LINE
  5
16190
  8
DANMEN
  6
CONTINUOUS
 10
73.300002
 20
162.0
 30
0.0
 11
71.500002
 21
162.0
 31
0.0
  0
ARC
  5
16191
  8
DANMEN
  6
CONTINUOUS
 10
56.850129
 20
159.5
 30
0.0
 40
0.5
 50
186.009006
 51
270.0
  0
LINE
  5
16192
  8
DANMEN
  6
CONTINUOUS
 10
56.199998
 20
160.9
 30
0.0
 11
56.352876
 21
159.447658
 31
0.0
  0
LINE
  5
16193
  8
DANMEN
  6
CONTINUOUS
 10
55.299998
 20
160.9
 30
0.0
 11
56.199998
 21
160.9
 31
0.0
  0
ARC
  5
16194
  8
DANMEN
  6
CONTINUOUS
 10
72.350001
 20
75.500005
 30
0.0
 40
0.5
 50
0.0
 51
90.0
  0
LINE
  5
16195
  8
DANMEN
  6
CONTINUOUS
 10
74.899998
 20
75.100006
 30
0.0
 11
72.850001
 21
75.100005
 31
0.0
  0
LINE
  5
16196
  8
DANMEN
  6
CONTINUOUS
 10
72.850001
 20
75.500005
 30
0.0
 11
72.850001
 21
75.100005
 31
0.0
  0
ARC
  5
16197
  8
DANMEN
  6
CONTINUOUS
 10
71.700001
 20
109.011314
 30
0.0
 40
1.0
 50
0.0
 51
81.373084
  0
LINE
  5
16198
  8
DANMEN
  6
CONTINUOUS
 10
71.850001
 20
111.0
 30
0.0
 11
71.850001
 21
110.0
 31
0.0
  0
ARC
  5
16199
  8
DANMEN
  6
CONTINUOUS
 10
60.799998
 20
145.0
 30
0.0
 40
1.0
 50
270.0
 51
0.0
  0
LINE
  5
1619A
  8
DANMEN
  6
CONTINUOUS
 10
61.799998
 20
149.9
 30
0.0
 11
61.799998
 21
145.0
 31
0.0
  0
LINE
  5
1619B
  8
DANMEN
  6
CONTINUOUS
 10
61.799998
 20
149.9
 30
0.0
 11
72.700001
 21
149.9
 31
0.0
  0
ARC
  5
1619C
  8
DANMEN
  6
CONTINUOUS
 10
68.199998
 20
115.9
 30
0.0
 40
1.0
 50
90.0
 51
180.0
  0
LINE
  5
1619D
  8
DANMEN
  6
CONTINUOUS
 10
68.199998
 20
116.9
 30
0.0
 11
72.700001
 21
116.9
 31
0.0
  0
LINE
  5
1619E
  8
DANMEN
  6
CONTINUOUS
 10
55.299998
 20
59.8
 30
0.0
 11
56.149998
 21
59.8
 31
0.0
  0
LINE
  5
1619F
  8
DANMEN
  6
CONTINUOUS
 10
56.149998
 20
59.8
 30
0.0
 11
56.149998
 21
59.5
 31
0.0
  0
ARC
  5
161A0
  8
DANMEN
  6
CONTINUOUS
 10
75.499995
 20
74.500007
 30
0.0
 40
0.5
 50
270.0
 51
0.0
  0
LINE
  5
161A1
  8
DANMEN
  6
CONTINUOUS
 10
75.499995
 20
74.000007
 30
0.0
 11
73.799998
 21
74.000006
 31
0.0
  0
LINE
  5
161A2
  8
DANMEN
  6
CONTINUOUS
 10
63.199998
 20
116.3
 30
0.0
 11
64.699998
 21
116.3
 31
0.0
  0
LINE
  5
161A3
  8
DANMEN
  6
CONTINUOUS
 10
62.199998
 20
113.8
 30
0.0
 11
62.199998
 21
115.3
 31
0.0
  0
LINE
  5
161A4
  8
DANMEN
  6
CONTINUOUS
 10
65.699998
 20
114.666295
 30
0.0
 11
65.699998
 21
115.3
 31
0.0
  0
LINE
  5
161A5
  8
DANMEN
  6
CONTINUOUS
 10
63.199998
 20
112.8
 30
0.0
 11
63.833703
 21
112.8
 31
0.0
  0
LINE
  5
161A6
  8
DANMEN
  6
CONTINUOUS
 10
62.199999
 20
111.3
 30
0.0
 11
63.833703
 21
111.3
 31
0.0
  0
LINE
  5
161A7
  8
DANMEN
  6
CONTINUOUS
 10
67.199998
 20
114.666295
 30
0.0
 11
67.199998
 21
115.9
 31
0.0
  0
ARC
  5
161A8
  8
DANMEN
  6
CONTINUOUS
 10
63.199998
 20
115.3
 30
0.0
 40
1.0
 50
90.0
 51
180.0
  0
ARC
  5
161A9
  8
DANMEN
  6
CONTINUOUS
 10
64.699998
 20
115.3
 30
0.0
 40
1.0
 50
0.0
 51
90.0
  0
ARC
  5
161AA
  8
DANMEN
  6
CONTINUOUS
 10
63.199998
 20
113.8
 30
0.0
 40
1.0
 50
180.0
 51
270.0
  0
ARC
  5
161AB
  8
DANMEN
  6
CONTINUOUS
 10
66.449998
 20
114.666295
 30
0.0
 40
0.75
 50
180.0
 51
0.0
  0
ARC
  5
161AC
  8
DANMEN
  6
CONTINUOUS
 10
63.833703
 20
112.05
 30
0.0
 40
0.75
 50
270.0
 51
90.0
  0
LINE
  5
161AD
  8
DANMEN
  6
CONTINUOUS
 10
72.350001
 20
76.000005
 30
0.0
 11
71.850001
 21
76.000005
 31
0.0
  0
LINE
  5
161AE
  8
DANMEN
  6
CONTINUOUS
 10
71.850001
 20
76.000005
 30
0.0
 11
71.850001
 21
75.000005
 31
0.0
  0
ARC
  5
161AF
  8
DANMEN
  6
CONTINUOUS
 10
69.799998
 20
111.699997
 30
0.0
 40
0.5
 50
89.999982
 51
180.000019
  0
LINE
  5
161B0
  8
DANMEN
  6
CONTINUOUS
 10
69.299998
 20
111.699997
 30
0.0
 11
69.299998
 21
111.0
 31
0.0
  0
ARC
  5
161B1
  8
DANMEN
  6
CONTINUOUS
 10
63.199998
 20
115.5
 30
0.0
 40
2.5
 50
89.999982
 51
180.000019
  0
ARC
  5
161B2
  8
DANMEN
  6
CONTINUOUS
 10
75.499995
 20
87.5
 30
0.0
 40
0.5
 50
0.0
 51
89.999982
  0
ARC
  5
161B3
  8
DANMEN
  6
CONTINUOUS
 10
61.699998
 20
150.0
 30
0.0
 40
1.0
 50
89.999982
 51
180.000019
  0
LINE
  5
161B4
  8
DANMEN
  6
CONTINUOUS
 10
56.149998
 20
144.0
 30
0.0
 11
60.799998
 21
144.0
 31
0.0
  0
LINE
  5
161B5
  8
DANMEN
  6
CONTINUOUS
 10
60.699998
 20
150.0
 30
0.0
 11
60.699998
 21
145.099997
 31
0.0
  0
LINE
  5
161B6
  8
DANMEN
  6
CONTINUOUS
 10
56.149998
 20
145.099997
 30
0.0
 11
60.699998
 21
145.099997
 31
0.0
  0
LINE
  5
161B7
  8
DANMEN
  6
CONTINUOUS
 10
62.199999
 20
111.300003
 30
0.0
 11
62.199999
 21
111.0
 31
0.0
  0
LINE
  5
161B8
  8
DANMEN
  6
CONTINUOUS
 10
56.149998
 20
112.099997
 30
0.0
 11
60.699998
 21
112.099997
 31
0.0
  0
LINE
  5
161B9
  8
DANMEN
  6
CONTINUOUS
 10
56.149998
 20
111.0
 30
0.0
 11
62.199999
 21
111.0
 31
0.0
  0
LINE
  5
161BA
  8
DANMEN
  6
CONTINUOUS
 10
74.899998
 20
86.900003
 30
0.0
 11
74.899998
 21
75.100006
 31
0.0
  0
LINE
  5
161BB
  8
DANMEN
  6
CONTINUOUS
 10
72.349998
 20
86.900003
 30
0.0
 11
74.899998
 21
86.900003
 31
0.0
  0
LINE
  5
161BC
  8
DANMEN
  6
CONTINUOUS
 10
73.799998
 20
88.0
 30
0.0
 11
75.499995
 21
88.0
 31
0.0
  0
LINE
  5
161BD
  8
DANMEN
  6
CONTINUOUS
 10
75.999995
 20
87.5
 30
0.0
 11
75.999995
 21
74.500007
 31
0.0
  0
LINE
  5
161BE
  8
DANMEN
  6
CONTINUOUS
 10
55.299998
 20
68.999985
 30
0.0
 11
55.299998
 21
59.8
 31
0.0
  0
LINE
  5
161BF
  8
DANMEN
  6
CONTINUOUS
 10
72.700001
 20
109.011314
 30
0.0
 11
72.700001
 21
88.88869
 31
0.0
  0
LINE
  5
161C0
  8
DANMEN
  6
CONTINUOUS
 10
69.799998
 20
112.199997
 30
0.0
 11
72.700001
 21
112.199997
 31
0.0
  0
LINE
  5
161C1
  8
DANMEN
  6
CONTINUOUS
 10
69.299998
 20
111.0
 30
0.0
 11
71.850001
 21
111.0
 31
0.0
  0
LINE
  5
161C2
  8
DANMEN
  6
CONTINUOUS
 10
60.699998
 20
115.5
 30
0.0
 11
60.699998
 21
112.099997
 31
0.0
  0
LINE
  5
161C3
  8
DANMEN
  6
CONTINUOUS
 10
72.700001
 20
116.9
 30
0.0
 11
72.700001
 21
112.199997
 31
0.0
  0
LINE
  5
161C4
  8
DANMEN
  6
CONTINUOUS
 10
55.299998
 20
107.000003
 30
0.0
 11
55.299998
 21
80.000008
 31
0.0
  0
LINE
  5
161C5
  8
DANMEN
  6
CONTINUOUS
 10
63.199998
 20
118.0
 30
0.0
 11
72.700001
 21
118.0
 31
0.0
  0
LINE
  5
161C6
  8
DANMEN
  6
CONTINUOUS
 10
55.299998
 20
140.000003
 30
0.0
 11
55.299998
 21
116.099995
 31
0.0
  0
LINE
  5
161C7
  8
DANMEN
  6
CONTINUOUS
 10
72.700001
 20
149.9
 30
0.0
 11
72.700001
 21
118.0
 31
0.0
  0
LINE
  5
161C8
  8
DANMEN
  6
CONTINUOUS
 10
73.799998
 20
161.5
 30
0.0
 11
73.799998
 21
88.0
 31
0.0
  0
LINE
  5
161C9
  8
DANMEN
  6
CONTINUOUS
 10
54.199998
 20
161.5
 30
0.0
 11
54.199998
 21
59.5
 31
0.0
  0
LINE
  5
161CA
  8
DANMEN
  6
CONTINUOUS
 10
61.699998
 20
151.0
 30
0.0
 11
72.700001
 21
151.0
 31
0.0
  0
LINE
  5
161CB
  8
DANMEN
  6
CONTINUOUS
 10
56.850129
 20
159.0
 30
0.0
 11
56.999998
 21
159.0
 31
0.0
  0
LINE
  5
161CC
  8
DANMEN
  6
CONTINUOUS
 10
55.299998
 20
160.9
 30
0.0
 11
55.299998
 21
149.099995
 31
0.0
  0
LINE
  5
161CD
  8
DANMEN
  6
CONTINUOUS
 10
72.700001
 20
160.9
 30
0.0
 11
72.700001
 21
151.0
 31
0.0
  0
ARC
  5
161CE
  8
DANMEN
  6
CONTINUOUS
 10
56.499998
 20
161.5
 30
0.0
 40
0.5
 50
0.0
 51
89.999982
  0
LINE
  5
161CF
  8
DANMEN
  6
CONTINUOUS
 10
56.999998
 20
161.5
 30
0.0
 11
56.999998
 21
159.0
 31
0.0
  0
ARC
  5
161D0
  8
DANMEN
  6
CONTINUOUS
 10
73.299998
 20
161.5
 30
0.0
 40
0.5
 50
0.0
 51
89.999982
  0
ARC
  5
161D1
  8
DANMEN
  6
CONTINUOUS
 10
54.699998
 20
161.5
 30
0.0
 40
0.5
 50
89.999982
 51
180.000019
  0
LINE
  5
161D2
  8
DANMEN
  6
CONTINUOUS
 10
54.699998
 20
162.0
 30
0.0
 11
56.499998
 21
162.0
 31
0.0
  0
ENDSEC
  0
EOF
