  0
SECTION
  2
HEADER
  9
$ACADVER
  1
AC1009
  9
$INSBASE
 10
0.0
 20
0.0
 30
0.0
  9
$EXTMIN
 10
5.0
 20
5.0
 30
0.0
  9
$EXTMAX
 10
415.0
 20
292.0
 30
0.0
  9
$LIMMIN
 10
-210.0
 20
-148.5
  9
$LIMMAX
 10
210.0
 20
148.5
  9
$ORTHOMODE
 70
     0
  9
$REGENMODE
 70
     1
  9
$FILLMODE
 70
     1
  9
$QTEXTMODE
 70
     0
  9
$MIRRTEXT
 70
     1
  9
$DRAGMODE
 70
     2
  9
$LTSCALE
 40
0.5
  9
$OSMODE
 70
   255
  9
$ATTMODE
 70
     1
  9
$TEXTSIZE
 40
2.5
  9
$TRACEWID
 40
0.05
  9
$TEXTSTYLE
  7
MX_NOTE_STANDARD
  9
$CLAYER
  8
0
  9
$CELTYPE
  6
CONTINUOUS
  9
$CECOLOR
 62
   256
  9
$DIMSCALE
 40
1.0
  9
$DIMASZ
 40
2.5
  9
$DIMEXO
 40
1.5
  9
$DIMDLI
 40
3.75
  9
$DIMRND
 40
0.0
  9
$DIMDLE
 40
0.0
  9
$DIMEXE
 40
0.0
  9
$DIMTP
 40
0.0
  9
$DIMTM
 40
0.0
  9
$DIMTXT
 40
2.5
  9
$DIMCEN
 40
2.5
  9
$DIMTSZ
 40
0.0
  9
$DIMTOL
 70
     0
  9
$DIMLIM
 70
     0
  9
$DIMTIH
 70
     0
  9
$DIMTOH
 70
     0
  9
$DIMSE1
 70
     0
  9
$DIMSE2
 70
     0
  9
$DIMTAD
 70
     1
  9
$DIMZIN
 70
     8
  9
$DIMBLK
  1

  9
$DIMASO
 70
     1
  9
$DIMSHO
 70
     1
  9
$DIMPOST
  1

  9
$DIMAPOST
  1

  9
$DIMALT
 70
     0
  9
$DIMALTD
 70
     4
  9
$DIMALTF
 40
0.0394
  9
$DIMLFAC
 40
1.0
  9
$DIMTOFL
 70
     1
  9
$DIMTVP
 40
0.0
  9
$DIMTIX
 70
     0
  9
$DIMSOXD
 70
     0
  9
$DIMSAH
 70
     0
  9
$DIMBLK1
  1

  9
$DIMBLK2
  1

  9
$DIMSTYLE
  2
MXDIMSTYLE
  9
$DIMCLRD
 70
     0
  9
$DIMCLRE
 70
     0
  9
$DIMCLRT
 70
     0
  9
$DIMTFAC
 40
1.0
  9
$DIMGAP
 40
1.0
  9
$LUNITS
 70
     2
  9
$LUPREC
 70
     4
  9
$SKETCHINC
 40
0.1
  9
$FILLETRAD
 40
0.0
  9
$AUNITS
 70
     0
  9
$AUPREC
 70
     0
  9
$MENU
  1
acad
  9
$ELEVATION
 40
0.0
  9
$PELEVATION
 40
0.0
  9
$THICKNESS
 40
0.0
  9
$LIMCHECK
 70
     0
  9
$BLIPMODE
 70
     0
  9
$CHAMFERA
 40
0.0
  9
$CHAMFERB
 40
0.0
  9
$SKPOLY
 70
     0
  9
$TDCREATE
 40
2452006.37162
  9
$TDUPDATE
 40
2452074.547187
  9
$TDINDWG
 40
0.134532
  9
$TDUSRTIMER
 40
0.134532
  9
$USRTIMER
 70
     1
  9
$ANGBASE
 50
0.0
  9
$ANGDIR
 70
     0
  9
$PDMODE
 70
     3
  9
$PDSIZE
 40
-100.0
  9
$PLINEWID
 40
0.0
  9
$COORDS
 70
     2
  9
$SPLFRAME
 70
     0
  9
$SPLINETYPE
 70
     6
  9
$SPLINESEGS
 70
     8
  9
$ATTDIA
 70
     0
  9
$ATTREQ
 70
     1
  9
$HANDLING
 70
     1
  9
$HANDSEED
  5
13629
  9
$SURFTAB1
 70
     6
  9
$SURFTAB2
 70
     6
  9
$SURFTYPE
 70
     6
  9
$SURFU
 70
     6
  9
$SURFV
 70
     6
  9
$UCSNAME
  2

  9
$UCSORG
 10
0.0
 20
0.0
 30
0.0
  9
$UCSXDIR
 10
1.0
 20
0.0
 30
0.0
  9
$UCSYDIR
 10
0.0
 20
1.0
 30
0.0
  9
$PUCSNAME
  2

  9
$PUCSORG
 10
0.0
 20
0.0
 30
0.0
  9
$PUCSXDIR
 10
1.0
 20
0.0
 30
0.0
  9
$PUCSYDIR
 10
0.0
 20
1.0
 30
0.0
  9
$USERI1
 70
     0
  9
$USERI2
 70
     0
  9
$USERI3
 70
     0
  9
$USERI4
 70
     0
  9
$USERI5
 70
     0
  9
$USERR1
 40
0.0
  9
$USERR2
 40
0.0
  9
$USERR3
 40
0.0
  9
$USERR4
 40
0.0
  9
$USERR5
 40
0.0
  9
$WORLDVIEW
 70
     1
  9
$SHADEDGE
 70
     3
  9
$SHADEDIF
 70
    70
  9
$TILEMODE
 70
     1
  9
$MAXACTVP
 70
    16
  9
$PLIMCHECK
 70
     0
  9
$PEXTMIN
 10
1.000000E+020
 20
1.000000E+020
 30
1.000000E+020
  9
$PEXTMAX
 10
-1.000000E+020
 20
-1.000000E+020
 30
-1.000000E+020
  9
$PLIMMIN
 10
0.0
 20
0.0
  9
$PLIMMAX
 10
12.0
 20
9.0
  9
$UNITMODE
 70
     0
  9
$VISRETAIN
 70
     0
  9
$PLINEGEN
 70
     1
  9
$PSLTSCALE
 70
     0
  0
ENDSEC
  0
SECTION
  2
TABLES
  0
TABLE
  2
VPORT
 70
     2
  0
VPORT
  2
*ACTIVE
 70
     0
 10
0.0
 20
0.0
 11
1.0
 21
1.0
 12
210.002939
 22
148.492688
 13
0.0
 23
0.0
 14
1.0
 24
1.0
 15
0.0
 25
0.0
 16
0.0
 26
0.0
 36
1.0
 17
0.0
 27
0.0
 37
0.0
 40
290.13352
 41
1.803957
 42
50.0
 43
0.0
 44
0.0
 50
0.0
 51
0.0
 71
     0
 72
   100
 73
     1
 74
     0
 75
     0
 76
     0
 77
     0
 78
     0
  0
ENDTAB
  0
TABLE
  2
LTYPE
 70
     2
  0
LTYPE
  2
CONTINUOUS
 70
     0
  3
Solid line
 72
    65
 73
     0
 40
0.0
  0
LTYPE
  2
DASHED
 70
     0
  3
Dashed __ __ __ __ __ __ __ __ __ __ __ __ __ _
 72
    65
 73
     2
 40
19.05
 49
12.7
 49
-6.35
  0
ENDTAB
  0
TABLE
  2
LAYER
 70
     4
  0
LAYER
  2
0
 70
     0
 62
     7
  6
CONTINUOUS
  0
LAYER
  2
SUNPO
 70
     0
 62
     1
  6
CONTINUOUS
  0
LAYER
  2
DANMEN
 70
     0
 62
     7
  6
CONTINUOUS
  0
LAYER
  2
WAKU
 70
     0
 62
     3
  6
CONTINUOUS
  0
ENDTAB
  0
TABLE
  2
STYLE
 70
     2
  0
STYLE
  2
MX_NOTE_STANDARD
 70
     0
 40
0.0
 41
1.0
 50
0.0
 71
     0
 42
2.5
  3
txt.shx
  4
extfont.shx
  0
STYLE
  2
STANDARD
 70
     0
 40
0.0
 41
1.0
 50
0.0
 71
     0
 42
0.2
  3
txt.shx
  4
bigfont.shx
  0
ENDTAB
  0
TABLE
  2
VIEW
 70
     0
  0
ENDTAB
  0
TABLE
  2
UCS
 70
     0
  0
ENDTAB
  0
TABLE
  2
APPID
 70
     1
  0
APPID
  2
ACAD
 70
     0
  0
ENDTAB
  0
TABLE
  2
DIMSTYLE
 70
     1
  0
DIMSTYLE
  2
MXDIMSTYLE
 70
     0
  3

  4

  5

  6

  7

 40
1.0
 41
2.5
 42
1.5
 43
3.75
 44
0.0
 45
0.0
 46
0.0
 47
0.0
 48
0.0
140
2.5
141
2.5
142
0.0
143
0.0394
144
1.0
145
0.0
146
1.0
147
1.0
 71
     0
 72
     0
 73
     0
 74
     0
 75
     0
 76
     0
 77
     1
 78
     8
170
     0
171
     4
172
     1
173
     0
174
     0
175
     0
176
     0
177
     0
178
     0
  0
ENDTAB
  0
ENDSEC
  0
SECTION
  2
BLOCKS
  0
BLOCK
  8
0
  2
$MODEL_SPACE
 70
     0
 10
0.0
 20
0.0
 30
0.0
  3
$MODEL_SPACE
  1

  0
ENDBLK
  5
1357D
  8
0
  0
BLOCK
 67
     1
  8
0
  2
$PAPER_SPACE
 70
     0
 10
0.0
 20
0.0
 30
0.0
  3
$PAPER_SPACE
  1

  0
ENDBLK
  5
1357B
 67
     1
  8
0
  0
BLOCK
  8
0
  2
*U5
 70
     1
 10
0.0
 20
0.0
 30
0.0
  3
*U5
  1

  0
SOLID
  5
13585
  8
WAKU
  6
CONTINUOUS
 10
371.305142
 20
283.605291
 30
0.0
 11
370.499782
 21
283.530361
 31
0.0
 12
370.874987
 22
283.520449
 32
0.0
 13
370.874987
 23
283.520449
 33
0.0
  0
SOLID
  5
13586
  8
WAKU
  6
CONTINUOUS
 10
370.193309
 20
283.634664
 30
0.0
 11
370.499782
 21
283.530361
 31
0.0
 12
371.305142
 22
283.605291
 32
0.0
 13
371.305142
 23
283.605291
 33
0.0
  0
SOLID
  5
13587
  8
WAKU
  6
CONTINUOUS
 10
371.774448
 20
283.781773
 30
0.0
 11
370.193309
 21
283.634664
 31
0.0
 12
371.305142
 22
283.605291
 32
0.0
 13
371.305142
 23
283.605291
 33
0.0
  0
SOLID
  5
13588
  8
WAKU
  6
CONTINUOUS
 10
369.966824
 20
283.829526
 30
0.0
 11
370.193309
 21
283.634664
 31
0.0
 12
371.774448
 22
283.781773
 32
0.0
 13
371.774448
 23
283.781773
 33
0.0
  0
SOLID
  5
13589
  8
WAKU
  6
CONTINUOUS
 10
370.594177
 20
283.909498
 30
0.0
 11
369.966824
 21
283.829526
 31
0.0
 12
371.774448
 22
283.781773
 32
0.0
 13
371.774448
 23
283.781773
 33
0.0
  0
SOLID
  5
1358A
  8
WAKU
  6
CONTINUOUS
 10
370.901294
 20
283.914863
 30
0.0
 11
370.594177
 21
283.909498
 31
0.0
 12
371.774448
 22
283.781773
 32
0.0
 13
371.774448
 23
283.781773
 33
0.0
  0
SOLID
  5
1358B
  8
WAKU
  6
CONTINUOUS
 10
370.392927
 20
283.968568
 30
0.0
 11
369.966824
 21
283.829526
 31
0.0
 12
370.594177
 22
283.909498
 32
0.0
 13
370.594177
 23
283.909498
 33
0.0
  0
SOLID
  5
1358C
  8
WAKU
  6
CONTINUOUS
 10
371.296984
 20
284.010368
 30
0.0
 11
370.901294
 21
283.914863
 31
0.0
 12
371.774448
 22
283.781773
 32
0.0
 13
371.774448
 23
283.781773
 33
0.0
  0
SOLID
  5
1358D
  8
WAKU
  6
CONTINUOUS
 10
372.265666
 20
284.043411
 30
0.0
 11
371.296984
 21
284.010368
 31
0.0
 12
371.774448
 22
283.781773
 32
0.0
 13
371.774448
 23
283.781773
 33
0.0
  0
SOLID
  5
1358E
  8
WAKU
  6
CONTINUOUS
 10
370.275177
 20
284.066476
 30
0.0
 11
369.966824
 21
283.829526
 31
0.0
 12
370.392927
 22
283.968568
 32
0.0
 13
370.392927
 23
283.968568
 33
0.0
  0
SOLID
  5
1358F
  8
WAKU
  6
CONTINUOUS
 10
369.828646
 20
284.107791
 30
0.0
 11
369.966824
 21
283.829526
 31
0.0
 12
370.275177
 22
284.066476
 32
0.0
 13
370.275177
 23
284.066476
 33
0.0
  0
SOLID
  5
13590
  8
WAKU
  6
CONTINUOUS
 10
370.709458
 20
284.142397
 30
0.0
 11
369.828646
 21
284.107791
 31
0.0
 12
370.275177
 22
284.066476
 32
0.0
 13
370.275177
 23
284.066476
 33
0.0
  0
SOLID
  5
13591
  8
WAKU
  6
CONTINUOUS
 10
371.751882
 20
284.202798
 30
0.0
 11
371.296984
 21
284.010368
 31
0.0
 12
372.265666
 22
284.043411
 32
0.0
 13
372.265666
 23
284.043411
 33
0.0
  0
SOLID
  5
13592
  8
WAKU
  6
CONTINUOUS
 10
369.550381
 20
284.245969
 30
0.0
 11
369.828646
 21
284.107791
 31
0.0
 12
370.709458
 22
284.142397
 32
0.0
 13
370.709458
 23
284.142397
 33
0.0
  0
SOLID
  5
13593
  8
WAKU
  6
CONTINUOUS
 10
371.186428
 20
284.314625
 30
0.0
 11
369.550381
 21
284.245969
 31
0.0
 12
370.709458
 22
284.142397
 32
0.0
 13
370.709458
 23
284.142397
 33
0.0
  0
SOLID
  5
13594
  8
WAKU
  6
CONTINUOUS
 10
372.760756
 20
284.380595
 30
0.0
 11
371.751882
 21
284.202798
 31
0.0
 12
372.265666
 22
284.043411
 32
0.0
 13
372.265666
 23
284.043411
 33
0.0
  0
SOLID
  5
13595
  8
WAKU
  6
CONTINUOUS
 10
370.172911
 20
284.451856
 30
0.0
 11
369.550381
 21
284.245969
 31
0.0
 12
371.186428
 22
284.314625
 32
0.0
 13
371.186428
 23
284.314625
 33
0.0
  0
SOLID
  5
13596
  8
WAKU
  6
CONTINUOUS
 10
369.355518
 20
284.472454
 30
0.0
 11
369.550381
 21
284.245969
 31
0.0
 12
370.172911
 22
284.451856
 32
0.0
 13
370.172911
 23
284.451856
 33
0.0
  0
SOLID
  5
13597
  8
WAKU
  6
CONTINUOUS
 10
372.237497
 20
284.486117
 30
0.0
 11
371.751882
 21
284.202798
 31
0.0
 12
372.760756
 22
284.380595
 32
0.0
 13
372.760756
 23
284.380595
 33
0.0
  0
SOLID
  5
13598
  8
WAKU
  6
CONTINUOUS
 10
370.681395
 20
284.539195
 30
0.0
 11
370.172911
 21
284.451856
 31
0.0
 12
371.186428
 22
284.314625
 32
0.0
 13
371.186428
 23
284.314625
 33
0.0
  0
SOLID
  5
13599
  8
WAKU
  6
CONTINUOUS
 10
369.787305
 20
284.553935
 30
0.0
 11
369.355518
 21
284.472454
 31
0.0
 12
370.172911
 22
284.451856
 32
0.0
 13
370.172911
 23
284.451856
 33
0.0
  0
SOLID
  5
1359A
  8
WAKU
  6
CONTINUOUS
 10
371.68777
 20
284.576545
 30
0.0
 11
370.681395
 21
284.539195
 31
0.0
 12
371.186428
 22
284.314625
 32
0.0
 13
371.186428
 23
284.314625
 33
0.0
  0
SOLID
  5
1359B
  8
WAKU
  6
CONTINUOUS
 10
369.689155
 20
284.672435
 30
0.0
 11
369.355518
 21
284.472454
 31
0.0
 12
369.787305
 22
284.553935
 32
0.0
 13
369.787305
 23
284.553935
 33
0.0
  0
SOLID
  5
1359C
  8
WAKU
  6
CONTINUOUS
 10
369.251215
 20
284.778928
 30
0.0
 11
369.355518
 21
284.472454
 31
0.0
 12
369.689155
 22
284.672435
 32
0.0
 13
369.689155
 23
284.672435
 33
0.0
  0
SOLID
  5
1359D
  8
WAKU
  6
CONTINUOUS
 10
373.241532
 20
284.780941
 30
0.0
 11
372.237497
 21
284.486117
 31
0.0
 12
372.760756
 22
284.380595
 32
0.0
 13
372.760756
 23
284.380595
 33
0.0
  0
SOLID
  5
1359E
  8
WAKU
  6
CONTINUOUS
 10
371.312263
 20
284.810332
 30
0.0
 11
370.681395
 21
284.539195
 31
0.0
 12
371.68777
 22
284.576545
 32
0.0
 13
371.68777
 23
284.576545
 33
0.0
  0
SOLID
  5
1359F
  8
WAKU
  6
CONTINUOUS
 10
369.630358
 20
284.873087
 30
0.0
 11
369.251215
 21
284.778928
 31
0.0
 12
369.689155
 22
284.672435
 32
0.0
 13
369.689155
 23
284.672435
 33
0.0
  0
SOLID
  5
135A0
  8
WAKU
  6
CONTINUOUS
 10
372.194232
 20
284.918099
 30
0.0
 11
371.312263
 21
284.810332
 31
0.0
 12
371.68777
 22
284.576545
 32
0.0
 13
371.68777
 23
284.576545
 33
0.0
  0
SOLID
  5
135A1
  8
WAKU
  6
CONTINUOUS
 10
370.260168
 20
284.959969
 30
0.0
 11
369.787305
 21
284.553935
 31
0.0
 12
370.172911
 22
284.451856
 32
0.0
 13
370.172911
 23
284.451856
 33
0.0
  0
SOLID
  5
135A2
  8
WAKU
  6
CONTINUOUS
 10
369.863139
 20
284.988189
 30
0.0
 11
369.787305
 21
284.553935
 31
0.0
 12
370.260168
 22
284.959969
 32
0.0
 13
370.260168
 23
284.959969
 33
0.0
  0
SOLID
  5
135A3
  8
WAKU
  6
CONTINUOUS
 10
398.194006
 20
285.115385
 30
0.0
 11
397.606055
 21
283.5
 31
0.0
 12
401.913747
 22
283.5
 32
0.0
 13
401.913747
 23
283.5
 33
0.0
  0
SOLID
  5
135A4
  8
WAKU
  6
CONTINUOUS
 10
401.913747
 20
283.5
 30
0.0
 11
401.424776
 21
285.115385
 31
0.0
 12
398.194006
 22
285.115385
 32
0.0
 13
398.194006
 23
285.115385
 33
0.0
  0
SOLID
  5
135A5
  8
WAKU
  6
CONTINUOUS
 10
369.241303
 20
285.154132
 30
0.0
 11
369.251215
 21
284.778928
 31
0.0
 12
369.630358
 22
284.873087
 32
0.0
 13
369.630358
 23
284.873087
 33
0.0
  0
SOLID
  5
135A6
  8
WAKU
  6
CONTINUOUS
 10
369.635696
 20
285.180404
 30
0.0
 11
369.241303
 21
285.154132
 31
0.0
 12
369.630358
 22
284.873087
 32
0.0
 13
369.630358
 23
284.873087
 33
0.0
  0
SOLID
  5
135A7
  8
WAKU
  6
CONTINUOUS
 10
373.690335
 20
285.229744
 30
0.0
 11
372.237497
 21
284.486117
 31
0.0
 12
373.241532
 22
284.780941
 32
0.0
 13
373.241532
 23
284.780941
 33
0.0
  0
SOLID
  5
135A8
  8
WAKU
  6
CONTINUOUS
 10
371.98994
 20
285.251431
 30
0.0
 11
371.312263
 21
284.810332
 31
0.0
 12
372.194232
 22
284.918099
 32
0.0
 13
372.194232
 23
284.918099
 33
0.0
  0
SOLID
  5
135A9
  8
WAKU
  6
CONTINUOUS
 10
373.195965
 20
285.275232
 30
0.0
 11
372.237497
 21
284.486117
 31
0.0
 12
373.690335
 22
285.229744
 32
0.0
 13
373.690335
 23
285.229744
 33
0.0
  0
SOLID
  5
135AA
  8
WAKU
  6
CONTINUOUS
 10
372.686363
 20
285.326171
 30
0.0
 11
371.98994
 21
285.251431
 31
0.0
 12
372.194232
 22
284.918099
 32
0.0
 13
372.194232
 23
284.918099
 33
0.0
  0
SOLID
  5
135AB
  8
WAKU
  6
CONTINUOUS
 10
370.035293
 20
285.465154
 30
0.0
 11
369.863139
 21
284.988189
 31
0.0
 12
370.260168
 22
284.959969
 32
0.0
 13
370.260168
 23
284.959969
 33
0.0
  0
SOLID
  5
135AC
  8
WAKU
  6
CONTINUOUS
 10
369.73149
 20
285.576021
 30
0.0
 11
369.241303
 21
285.154132
 31
0.0
 12
369.635696
 22
285.180404
 32
0.0
 13
369.635696
 23
285.180404
 33
0.0
  0
SOLID
  5
135AD
  8
WAKU
  6
CONTINUOUS
 10
369.326146
 20
285.584287
 30
0.0
 11
369.241303
 21
285.154132
 31
0.0
 12
369.73149
 22
285.576021
 32
0.0
 13
369.73149
 23
285.576021
 33
0.0
  0
SOLID
  5
135AE
  8
WAKU
  6
CONTINUOUS
 10
370.530712
 20
285.590875
 30
0.0
 11
370.035293
 21
285.465154
 31
0.0
 12
370.260168
 22
284.959969
 32
0.0
 13
370.260168
 23
284.959969
 33
0.0
  0
SOLID
  5
135AF
  8
WAKU
  6
CONTINUOUS
 10
389.236144
 20
285.653846
 30
0.0
 11
383.067593
 21
283.5
 31
0.0
 12
388.452208
 22
283.5
 32
0.0
 13
388.452208
 23
283.5
 33
0.0
  0
SOLID
  5
135B0
  8
WAKU
  6
CONTINUOUS
 10
383.851529
 20
285.653846
 30
0.0
 11
383.067593
 21
283.5
 31
0.0
 12
389.236144
 22
285.653846
 32
0.0
 13
389.236144
 23
285.653846
 33
0.0
  0
SOLID
  5
135B1
  8
WAKU
  6
CONTINUOUS
 10
404.851529
 20
285.653846
 30
0.0
 11
404.067593
 21
283.5
 31
0.0
 12
409.452208
 22
283.5
 32
0.0
 13
409.452208
 23
283.5
 33
0.0
  0
SOLID
  5
135B2
  8
WAKU
  6
CONTINUOUS
 10
409.452208
 20
283.5
 30
0.0
 11
409.159221
 21
285.653846
 31
0.0
 12
404.851529
 22
285.653846
 32
0.0
 13
404.851529
 23
285.653846
 33
0.0
  0
SOLID
  5
135B3
  8
WAKU
  6
CONTINUOUS
 10
391.174606
 20
285.653846
 30
0.0
 11
390.39067
 21
283.5
 31
0.0
 12
395.452208
 22
283.5
 32
0.0
 13
395.452208
 23
283.5
 33
0.0
  0
SOLID
  5
135B4
  8
WAKU
  6
CONTINUOUS
 10
395.452208
 20
283.5
 30
0.0
 11
395.159221
 21
285.653846
 31
0.0
 12
391.174606
 22
285.653846
 32
0.0
 13
391.174606
 23
285.653846
 33
0.0
  0
SOLID
  5
135B5
  8
WAKU
  6
CONTINUOUS
 10
374.090681
 20
285.71052
 30
0.0
 11
373.195965
 21
285.275232
 31
0.0
 12
373.690335
 22
285.229744
 32
0.0
 13
373.690335
 23
285.229744
 33
0.0
  0
SOLID
  5
135B6
  8
WAKU
  6
CONTINUOUS
 10
373.145266
 20
285.785089
 30
0.0
 11
371.98994
 21
285.251431
 31
0.0
 12
372.686363
 22
285.326171
 32
0.0
 13
372.686363
 23
285.326171
 33
0.0
  0
SOLID
  5
135B7
  8
WAKU
  6
CONTINUOUS
 10
372.646296
 20
285.825506
 30
0.0
 11
371.98994
 21
285.251431
 31
0.0
 12
373.145266
 22
285.785089
 32
0.0
 13
373.145266
 23
285.785089
 33
0.0
  0
SOLID
  5
135B8
  8
WAKU
  6
CONTINUOUS
 10
370.297156
 20
285.966509
 30
0.0
 11
370.035293
 21
285.465154
 31
0.0
 12
370.530712
 22
285.590875
 32
0.0
 13
370.530712
 23
285.590875
 33
0.0
  0
SOLID
  5
135B9
  8
WAKU
  6
CONTINUOUS
 10
369.923519
 20
286.031028
 30
0.0
 11
369.326146
 21
285.584287
 31
0.0
 12
369.73149
 22
285.576021
 32
0.0
 13
369.73149
 23
285.576021
 33
0.0
  0
SOLID
  5
135BA
  8
WAKU
  6
CONTINUOUS
 10
369.502627
 20
286.053593
 30
0.0
 11
369.326146
 21
285.584287
 31
0.0
 12
369.923519
 22
286.031028
 32
0.0
 13
369.923519
 23
286.031028
 33
0.0
  0
SOLID
  5
135BB
  8
WAKU
  6
CONTINUOUS
 10
379.397145
 20
286.138462
 30
0.0
 11
378.436824
 21
283.5
 31
0.0
 12
379.513747
 22
283.5
 32
0.0
 13
379.513747
 23
283.5
 33
0.0
  0
SOLID
  5
135BC
  8
WAKU
  6
CONTINUOUS
 10
377.155205
 20
286.192308
 30
0.0
 11
376.175285
 21
283.5
 31
0.0
 12
379.397145
 22
286.138462
 32
0.0
 13
379.397145
 23
286.138462
 33
0.0
  0
SOLID
  5
135BD
  8
WAKU
  6
CONTINUOUS
 10
380.493667
 20
286.192308
 30
0.0
 11
377.155205
 21
286.192308
 31
0.0
 12
379.397145
 22
286.138462
 32
0.0
 13
379.397145
 23
286.138462
 33
0.0
  0
SOLID
  5
135BE
  8
WAKU
  6
CONTINUOUS
 10
380.493667
 20
286.192308
 30
0.0
 11
379.397145
 21
286.138462
 31
0.0
 12
379.513747
 22
283.5
 32
0.0
 13
379.513747
 23
283.5
 33
0.0
  0
SOLID
  5
135BF
  8
WAKU
  6
CONTINUOUS
 10
380.493667
 20
286.192308
 30
0.0
 11
381.775285
 21
283.5
 31
0.0
 12
382.755205
 22
286.192308
 32
0.0
 13
382.755205
 23
286.192308
 33
0.0
  0
SOLID
  5
135C0
  8
WAKU
  6
CONTINUOUS
 10
374.427865
 20
286.205609
 30
0.0
 11
373.195965
 21
285.275232
 31
0.0
 12
374.090681
 22
285.71052
 32
0.0
 13
374.090681
 23
285.71052
 33
0.0
  0
SOLID
  5
135C1
  8
WAKU
  6
CONTINUOUS
 10
373.98505
 20
286.233718
 30
0.0
 11
373.195965
 21
285.275232
 31
0.0
 12
374.427865
 22
286.205609
 32
0.0
 13
374.427865
 23
286.205609
 33
0.0
  0
SOLID
  5
135C2
  8
WAKU
  6
CONTINUOUS
 10
370.971896
 20
286.268471
 30
0.0
 11
370.297156
 21
285.966509
 31
0.0
 12
370.530712
 22
285.590875
 32
0.0
 13
370.530712
 23
285.590875
 33
0.0
  0
SOLID
  5
135C3
  8
WAKU
  6
CONTINUOUS
 10
373.553316
 20
286.277229
 30
0.0
 11
372.646296
 21
285.825506
 31
0.0
 12
373.145266
 22
285.785089
 32
0.0
 13
373.145266
 23
285.785089
 33
0.0
  0
SOLID
  5
135C4
  8
WAKU
  6
CONTINUOUS
 10
370.638671
 20
286.473
 30
0.0
 11
370.297156
 21
285.966509
 31
0.0
 12
370.971896
 22
286.268471
 32
0.0
 13
370.971896
 23
286.268471
 33
0.0
  0
SOLID
  5
135C5
  8
WAKU
  6
CONTINUOUS
 10
373.220238
 20
286.48192
 30
0.0
 11
372.646296
 21
285.825506
 31
0.0
 12
373.553316
 22
286.277229
 32
0.0
 13
373.553316
 23
286.277229
 33
0.0
  0
SOLID
  5
135C6
  8
WAKU
  6
CONTINUOUS
 10
370.207035
 20
286.51657
 30
0.0
 11
369.502627
 21
286.053593
 31
0.0
 12
369.923519
 22
286.031028
 32
0.0
 13
369.923519
 23
286.031028
 33
0.0
  0
SOLID
  5
135C7
  8
WAKU
  6
CONTINUOUS
 10
369.764265
 20
286.544812
 30
0.0
 11
369.502627
 21
286.053593
 31
0.0
 12
370.207035
 22
286.51657
 32
0.0
 13
370.207035
 23
286.51657
 33
0.0
  0
SOLID
  5
135C8
  8
WAKU
  6
CONTINUOUS
 10
374.689503
 20
286.696828
 30
0.0
 11
373.98505
 21
286.233718
 31
0.0
 12
374.427865
 22
286.205609
 32
0.0
 13
374.427865
 23
286.205609
 33
0.0
  0
SOLID
  5
135C9
  8
WAKU
  6
CONTINUOUS
 10
374.268507
 20
286.719278
 30
0.0
 11
373.98505
 21
286.233718
 31
0.0
 12
374.689503
 22
286.696828
 32
0.0
 13
374.689503
 23
286.696828
 33
0.0
  0
SOLID
  5
135CA
  8
WAKU
  6
CONTINUOUS
 10
373.894843
 20
286.783693
 30
0.0
 11
373.220238
 21
286.48192
 31
0.0
 12
373.553316
 22
286.277229
 32
0.0
 13
373.553316
 23
286.277229
 33
0.0
  0
SOLID
  5
135CB
  8
WAKU
  6
CONTINUOUS
 10
371.545827
 20
286.924893
 30
0.0
 11
370.638671
 21
286.473
 31
0.0
 12
370.971896
 22
286.268471
 32
0.0
 13
370.971896
 23
286.268471
 33
0.0
  0
SOLID
  5
135CC
  8
WAKU
  6
CONTINUOUS
 10
371.04672
 20
286.965174
 30
0.0
 11
370.638671
 21
286.473
 31
0.0
 12
371.545827
 22
286.924893
 32
0.0
 13
371.545827
 23
286.924893
 33
0.0
  0
SOLID
  5
135CD
  8
WAKU
  6
CONTINUOUS
 10
370.101449
 20
287.039901
 30
0.0
 11
369.764265
 21
286.544812
 31
0.0
 12
370.207035
 22
286.51657
 32
0.0
 13
370.207035
 23
286.51657
 33
0.0
  0
SOLID
  5
135CE
  8
WAKU
  6
CONTINUOUS
 10
373.661353
 20
287.159534
 30
0.0
 11
373.220238
 21
286.48192
 31
0.0
 12
373.894843
 22
286.783693
 32
0.0
 13
373.894843
 23
286.783693
 33
0.0
  0
SOLID
  5
135CF
  8
WAKU
  6
CONTINUOUS
 10
374.865984
 20
287.166134
 30
0.0
 11
374.268507
 21
286.719278
 31
0.0
 12
374.689503
 22
286.696828
 32
0.0
 13
374.689503
 23
286.696828
 33
0.0
  0
SOLID
  5
135D0
  8
WAKU
  6
CONTINUOUS
 10
374.46071
 20
287.174248
 30
0.0
 11
374.268507
 21
286.719278
 31
0.0
 12
374.865984
 22
287.166134
 32
0.0
 13
374.865984
 23
287.166134
 33
0.0
  0
SOLID
  5
135D1
  8
WAKU
  6
CONTINUOUS
 10
374.156732
 20
287.28503
 30
0.0
 11
373.661353
 21
287.159534
 31
0.0
 12
373.894843
 22
286.783693
 32
0.0
 13
373.894843
 23
286.783693
 33
0.0
  0
SOLID
  5
135D2
  8
WAKU
  6
CONTINUOUS
 10
371.505632
 20
287.424128
 30
0.0
 11
371.04672
 21
286.965174
 31
0.0
 12
371.545827
 22
286.924893
 32
0.0
 13
371.545827
 23
286.924893
 33
0.0
  0
SOLID
  5
135D3
  8
WAKU
  6
CONTINUOUS
 10
370.996098
 20
287.475108
 30
0.0
 11
370.101449
 21
287.039901
 31
0.0
 12
370.207035
 22
286.51657
 32
0.0
 13
370.207035
 23
286.51657
 33
0.0
  0
SOLID
  5
135D4
  8
WAKU
  6
CONTINUOUS
 10
372.202181
 20
287.498991
 30
0.0
 11
371.505632
 21
287.424128
 31
0.0
 12
371.545827
 22
286.924893
 32
0.0
 13
371.545827
 23
286.924893
 33
0.0
  0
SOLID
  5
135D5
  8
WAKU
  6
CONTINUOUS
 10
370.501795
 20
287.520677
 30
0.0
 11
370.101449
 21
287.039901
 31
0.0
 12
370.996098
 22
287.475108
 32
0.0
 13
370.996098
 23
287.475108
 33
0.0
  0
SOLID
  5
135D6
  8
WAKU
  6
CONTINUOUS
 10
374.556361
 20
287.569864
 30
0.0
 11
374.46071
 21
287.174248
 31
0.0
 12
374.865984
 22
287.166134
 32
0.0
 13
374.865984
 23
287.166134
 33
0.0
  0
SOLID
  5
135D7
  8
WAKU
  6
CONTINUOUS
 10
395.864763
 20
287.592308
 30
0.0
 11
395.159221
 21
285.653846
 31
0.0
 12
395.452208
 22
283.5
 32
0.0
 13
395.452208
 23
283.5
 33
0.0
  0
SOLID
  5
135D8
  8
WAKU
  6
CONTINUOUS
 10
393.172456
 20
287.592308
 30
0.0
 11
391.703565
 21
286.515385
 31
0.0
 12
392.780488
 22
286.515385
 32
0.0
 13
392.780488
 23
286.515385
 33
0.0
  0
SOLID
  5
135D9
  8
WAKU
  6
CONTINUOUS
 10
392.095533
 20
287.592308
 30
0.0
 11
391.703565
 21
286.515385
 31
0.0
 12
393.172456
 22
287.592308
 32
0.0
 13
393.172456
 23
287.592308
 33
0.0
  0
SOLID
  5
135DA
  8
WAKU
  6
CONTINUOUS
 10
391.28784
 20
287.592308
 30
0.0
 11
392.095533
 21
287.592308
 31
0.0
 12
393.172456
 22
287.592308
 32
0.0
 13
393.172456
 23
287.592308
 33
0.0
  0
SOLID
  5
135DB
  8
WAKU
  6
CONTINUOUS
 10
391.28784
 20
287.592308
 30
0.0
 11
393.172456
 21
287.592308
 31
0.0
 12
395.864763
 22
287.592308
 32
0.0
 13
395.864763
 23
287.592308
 33
0.0
  0
SOLID
  5
135DC
  8
WAKU
  6
CONTINUOUS
 10
396.941687
 20
287.592308
 30
0.0
 11
391.28784
 21
287.592308
 31
0.0
 12
395.864763
 22
287.592308
 32
0.0
 13
395.864763
 23
287.592308
 33
0.0
  0
SOLID
  5
135DD
  8
WAKU
  6
CONTINUOUS
 10
396.941687
 20
287.592308
 30
0.0
 11
395.864763
 21
287.592308
 31
0.0
 12
395.452208
 22
283.5
 32
0.0
 13
395.452208
 23
283.5
 33
0.0
  0
SOLID
  5
135DE
  8
WAKU
  6
CONTINUOUS
 10
374.950827
 20
287.596289
 30
0.0
 11
374.556361
 21
287.569864
 31
0.0
 12
374.865984
 22
287.166134
 32
0.0
 13
374.865984
 23
287.166134
 33
0.0
  0
SOLID
  5
135DF
  8
WAKU
  6
CONTINUOUS
 10
374.328925
 20
287.761987
 30
0.0
 11
373.661353
 21
287.159534
 31
0.0
 12
374.156732
 22
287.28503
 32
0.0
 13
374.156732
 23
287.28503
 33
0.0
  0
SOLID
  5
135E0
  8
WAKU
  6
CONTINUOUS
 10
373.932071
 20
287.790402
 30
0.0
 11
373.661353
 21
287.159534
 31
0.0
 12
374.328925
 22
287.761987
 32
0.0
 13
374.328925
 23
287.761987
 33
0.0
  0
SOLID
  5
135E1
  8
WAKU
  6
CONTINUOUS
 10
371.997783
 20
287.832235
 30
0.0
 11
371.505632
 21
287.424128
 31
0.0
 12
372.202181
 22
287.498991
 32
0.0
 13
372.202181
 23
287.498991
 33
0.0
  0
SOLID
  5
135E2
  8
WAKU
  6
CONTINUOUS
 10
374.561802
 20
287.877253
 30
0.0
 11
374.556361
 21
287.569864
 31
0.0
 12
374.950827
 22
287.596289
 32
0.0
 13
374.950827
 23
287.596289
 33
0.0
  0
SOLID
  5
135E3
  8
WAKU
  6
CONTINUOUS
 10
372.879878
 20
287.940057
 30
0.0
 11
371.997783
 21
287.832235
 31
0.0
 12
372.202181
 22
287.498991
 32
0.0
 13
372.202181
 23
287.498991
 33
0.0
  0
SOLID
  5
135E4
  8
WAKU
  6
CONTINUOUS
 10
370.950599
 20
287.96948
 30
0.0
 11
370.501795
 21
287.520677
 31
0.0
 12
370.996098
 22
287.475108
 32
0.0
 13
370.996098
 23
287.475108
 33
0.0
  0
SOLID
  5
135E5
  8
WAKU
  6
CONTINUOUS
 10
374.940915
 20
287.971493
 30
0.0
 11
374.561802
 21
287.877253
 31
0.0
 12
374.950827
 22
287.596289
 32
0.0
 13
374.950827
 23
287.596289
 33
0.0
  0
SOLID
  5
135E6
  8
WAKU
  6
CONTINUOUS
 10
374.502951
 20
288.077918
 30
0.0
 11
374.561802
 21
287.877253
 31
0.0
 12
374.940915
 22
287.971493
 32
0.0
 13
374.940915
 23
287.971493
 33
0.0
  0
SOLID
  5
135E7
  8
WAKU
  6
CONTINUOUS
 10
405.753055
 20
288.130769
 30
0.0
 11
405.282694
 21
286.838462
 31
0.0
 12
408.513463
 22
286.838462
 32
0.0
 13
408.513463
 23
286.838462
 33
0.0
  0
SOLID
  5
135E8
  8
WAKU
  6
CONTINUOUS
 10
408.983824
 20
288.130769
 30
0.0
 11
405.753055
 21
288.130769
 31
0.0
 12
408.513463
 22
286.838462
 32
0.0
 13
408.513463
 23
286.838462
 33
0.0
  0
SOLID
  5
135E9
  8
WAKU
  6
CONTINUOUS
 10
372.504269
 20
288.173821
 30
0.0
 11
371.997783
 21
287.832235
 31
0.0
 12
372.879878
 22
287.940057
 32
0.0
 13
372.879878
 23
287.940057
 33
0.0
  0
SOLID
  5
135EA
  8
WAKU
  6
CONTINUOUS
 10
374.40481
 20
288.196249
 30
0.0
 11
373.932071
 21
287.790402
 31
0.0
 12
374.328925
 22
287.761987
 32
0.0
 13
374.328925
 23
287.761987
 33
0.0
  0
SOLID
  5
135EB
  8
WAKU
  6
CONTINUOUS
 10
374.40481
 20
288.196249
 30
0.0
 11
374.502951
 21
288.077918
 31
0.0
 12
374.940915
 22
287.971493
 32
0.0
 13
374.940915
 23
287.971493
 33
0.0
  0
SOLID
  5
135EC
  8
WAKU
  6
CONTINUOUS
 10
373.510738
 20
288.21124
 30
0.0
 11
372.504269
 21
288.173821
 31
0.0
 12
372.879878
 22
287.940057
 32
0.0
 13
372.879878
 23
287.940057
 33
0.0
  0
SOLID
  5
135ED
  8
WAKU
  6
CONTINUOUS
 10
371.954587
 20
288.264284
 30
0.0
 11
370.950599
 21
287.96948
 31
0.0
 12
370.996098
 22
287.475108
 32
0.0
 13
370.996098
 23
287.475108
 33
0.0
  0
SOLID
  5
135EE
  8
WAKU
  6
CONTINUOUS
 10
374.836612
 20
288.277967
 30
0.0
 11
374.40481
 21
288.196249
 31
0.0
 12
374.940915
 22
287.971493
 32
0.0
 13
374.940915
 23
287.971493
 33
0.0
  0
SOLID
  5
135EF
  8
WAKU
  6
CONTINUOUS
 10
374.019229
 20
288.298569
 30
0.0
 11
372.504269
 21
288.173821
 31
0.0
 12
373.510738
 22
288.21124
 32
0.0
 13
373.510738
 23
288.21124
 33
0.0
  0
SOLID
  5
135F0
  8
WAKU
  6
CONTINUOUS
 10
374.019229
 20
288.298569
 30
0.0
 11
374.40481
 21
288.196249
 31
0.0
 12
374.836612
 22
288.277967
 32
0.0
 13
374.836612
 23
288.277967
 33
0.0
  0
SOLID
  5
135F1
  8
WAKU
  6
CONTINUOUS
 10
374.019229
 20
288.298569
 30
0.0
 11
373.932071
 21
287.790402
 31
0.0
 12
374.40481
 22
288.196249
 32
0.0
 13
374.40481
 23
288.196249
 33
0.0
  0
SOLID
  5
135F2
  8
WAKU
  6
CONTINUOUS
 10
371.431374
 20
288.369826
 30
0.0
 11
370.950599
 21
287.96948
 31
0.0
 12
371.954587
 22
288.264284
 32
0.0
 13
371.954587
 23
288.264284
 33
0.0
  0
SOLID
  5
135F3
  8
WAKU
  6
CONTINUOUS
 10
373.005639
 20
288.435768
 30
0.0
 11
372.504269
 21
288.173821
 31
0.0
 12
374.019229
 22
288.298569
 32
0.0
 13
374.019229
 23
288.298569
 33
0.0
  0
SOLID
  5
135F4
  8
WAKU
  6
CONTINUOUS
 10
374.641749
 20
288.504452
 30
0.0
 11
373.005639
 21
288.435768
 31
0.0
 12
374.019229
 22
288.298569
 32
0.0
 13
374.019229
 23
288.298569
 33
0.0
  0
SOLID
  5
135F5
  8
WAKU
  6
CONTINUOUS
 10
374.641749
 20
288.504452
 30
0.0
 11
374.019229
 21
288.298569
 31
0.0
 12
374.836612
 22
288.277967
 32
0.0
 13
374.836612
 23
288.277967
 33
0.0
  0
SOLID
  5
135F6
  8
WAKU
  6
CONTINUOUS
 10
372.440235
 20
288.547585
 30
0.0
 11
371.431374
 21
288.369826
 31
0.0
 12
371.954587
 22
288.264284
 32
0.0
 13
371.954587
 23
288.264284
 33
0.0
  0
SOLID
  5
135F7
  8
WAKU
  6
CONTINUOUS
 10
373.482636
 20
288.608014
 30
0.0
 11
373.005639
 21
288.435768
 31
0.0
 12
374.641749
 22
288.504452
 32
0.0
 13
374.641749
 23
288.504452
 33
0.0
  0
SOLID
  5
135F8
  8
WAKU
  6
CONTINUOUS
 10
374.363484
 20
288.64263
 30
0.0
 11
373.482636
 21
288.608014
 31
0.0
 12
374.641749
 22
288.504452
 32
0.0
 13
374.641749
 23
288.504452
 33
0.0
  0
SOLID
  5
135F9
  8
WAKU
  6
CONTINUOUS
 10
373.916941
 20
288.683944
 30
0.0
 11
373.482636
 21
288.608014
 31
0.0
 12
374.363484
 22
288.64263
 32
0.0
 13
374.363484
 23
288.64263
 33
0.0
  0
SOLID
  5
135FA
  8
WAKU
  6
CONTINUOUS
 10
371.926464
 20
288.70701
 30
0.0
 11
371.431374
 21
288.369826
 31
0.0
 12
372.440235
 22
288.547585
 32
0.0
 13
372.440235
 23
288.547585
 33
0.0
  0
SOLID
  5
135FB
  8
WAKU
  6
CONTINUOUS
 10
372.89514
 20
288.740065
 30
0.0
 11
371.926464
 21
288.70701
 31
0.0
 12
372.440235
 22
288.547585
 32
0.0
 13
372.440235
 23
288.547585
 33
0.0
  0
SOLID
  5
135FC
  8
WAKU
  6
CONTINUOUS
 10
380.311313
 20
288.776923
 30
0.0
 11
377.155205
 21
286.192308
 31
0.0
 12
380.493667
 22
286.192308
 32
0.0
 13
380.493667
 23
286.192308
 33
0.0
  0
SOLID
  5
135FD
  8
WAKU
  6
CONTINUOUS
 10
381.524851
 20
288.776923
 30
0.0
 11
378.095928
 21
288.776923
 31
0.0
 12
380.311313
 22
288.776923
 32
0.0
 13
380.311313
 23
288.776923
 33
0.0
  0
SOLID
  5
135FE
  8
WAKU
  6
CONTINUOUS
 10
381.524851
 20
288.776923
 30
0.0
 11
380.311313
 21
288.776923
 31
0.0
 12
380.493667
 22
286.192308
 32
0.0
 13
380.493667
 23
286.192308
 33
0.0
  0
SOLID
  5
135FF
  8
WAKU
  6
CONTINUOUS
 10
381.524851
 20
288.776923
 30
0.0
 11
380.493667
 21
286.192308
 31
0.0
 12
382.755205
 22
286.192308
 32
0.0
 13
382.755205
 23
286.192308
 33
0.0
  0
SOLID
  5
13600
  8
WAKU
  6
CONTINUOUS
 10
373.799148
 20
288.781929
 30
0.0
 11
373.916941
 21
288.683944
 31
0.0
 12
374.363484
 22
288.64263
 32
0.0
 13
374.363484
 23
288.64263
 33
0.0
  0
SOLID
  5
13601
  8
WAKU
  6
CONTINUOUS
 10
373.290857
 20
288.835581
 30
0.0
 11
371.926464
 21
288.70701
 31
0.0
 12
372.89514
 22
288.740065
 32
0.0
 13
372.89514
 23
288.740065
 33
0.0
  0
SOLID
  5
13602
  8
WAKU
  6
CONTINUOUS
 10
373.597996
 20
288.840902
 30
0.0
 11
373.799148
 21
288.781929
 31
0.0
 12
374.363484
 22
288.64263
 32
0.0
 13
374.363484
 23
288.64263
 33
0.0
  0
SOLID
  5
13603
  8
WAKU
  6
CONTINUOUS
 10
402.042817
 20
288.884615
 30
0.0
 11
400.181958
 21
286.730769
 31
0.0
 12
401.258881
 22
286.730769
 32
0.0
 13
401.258881
 23
286.730769
 33
0.0
  0
SOLID
  5
13604
  8
WAKU
  6
CONTINUOUS
 10
402.796663
 20
288.884615
 30
0.0
 11
401.424776
 21
285.115385
 31
0.0
 12
401.913747
 22
283.5
 32
0.0
 13
401.913747
 23
283.5
 33
0.0
  0
SOLID
  5
13605
  8
WAKU
  6
CONTINUOUS
 10
403.873587
 20
288.884615
 30
0.0
 11
402.796663
 21
288.884615
 31
0.0
 12
401.913747
 22
283.5
 32
0.0
 13
401.913747
 23
283.5
 33
0.0
  0
SOLID
  5
13606
  8
WAKU
  6
CONTINUOUS
 10
400.965894
 20
288.884615
 30
0.0
 11
400.181958
 21
286.730769
 31
0.0
 12
402.042817
 22
288.884615
 32
0.0
 13
402.042817
 23
288.884615
 33
0.0
  0
SOLID
  5
13607
  8
WAKU
  6
CONTINUOUS
 10
399.858881
 20
286.730769
 30
0.0
 11
400.642817
 21
288.884615
 31
0.0
 12
399.565894
 22
288.884615
 32
0.0
 13
399.565894
 23
288.884615
 33
0.0
  0
SOLID
  5
13608
  8
WAKU
  6
CONTINUOUS
 10
399.565894
 20
288.884615
 30
0.0
 11
398.781958
 21
286.730769
 31
0.0
 12
399.858881
 22
286.730769
 32
0.0
 13
399.858881
 23
286.730769
 33
0.0
  0
SOLID
  5
13609
  8
WAKU
  6
CONTINUOUS
 10
374.225306
 20
288.920895
 30
0.0
 11
373.597996
 21
288.840902
 31
0.0
 12
374.363484
 22
288.64263
 32
0.0
 13
374.363484
 23
288.64263
 33
0.0
  0
SOLID
  5
1360A
  8
WAKU
  6
CONTINUOUS
 10
372.417683
 20
288.968648
 30
0.0
 11
373.597996
 21
288.840902
 31
0.0
 12
374.225306
 22
288.920895
 32
0.0
 13
374.225306
 23
288.920895
 33
0.0
  0
SOLID
  5
1360B
  8
WAKU
  6
CONTINUOUS
 10
372.417683
 20
288.968648
 30
0.0
 11
373.290857
 21
288.835581
 31
0.0
 12
373.597996
 22
288.840902
 32
0.0
 13
373.597996
 23
288.840902
 33
0.0
  0
SOLID
  5
1360C
  8
WAKU
  6
CONTINUOUS
 10
372.417683
 20
288.968648
 30
0.0
 11
371.926464
 21
288.70701
 31
0.0
 12
373.290857
 22
288.835581
 32
0.0
 13
373.290857
 23
288.835581
 33
0.0
  0
SOLID
  5
1360D
  8
WAKU
  6
CONTINUOUS
 10
373.998821
 20
289.115757
 30
0.0
 11
372.417683
 21
288.968648
 31
0.0
 12
374.225306
 22
288.920895
 32
0.0
 13
374.225306
 23
288.920895
 33
0.0
  0
SOLID
  5
1360E
  8
WAKU
  6
CONTINUOUS
 10
372.886988
 20
289.145129
 30
0.0
 11
372.417683
 21
288.968648
 31
0.0
 12
373.998821
 22
289.115757
 32
0.0
 13
373.998821
 23
289.115757
 33
0.0
  0
SOLID
  5
1360F
  8
WAKU
  6
CONTINUOUS
 10
396.941687
 20
287.592308
 30
0.0
 11
396.452715
 21
289.207692
 31
0.0
 12
393.760408
 22
289.207692
 32
0.0
 13
393.760408
 23
289.207692
 33
0.0
  0
SOLID
  5
13610
  8
WAKU
  6
CONTINUOUS
 10
396.452715
 20
289.207692
 30
0.0
 11
396.941687
 21
287.592308
 31
0.0
 12
397.749379
 22
287.592308
 32
0.0
 13
397.749379
 23
287.592308
 33
0.0
  0
SOLID
  5
13611
  8
WAKU
  6
CONTINUOUS
 10
393.760408
 20
289.207692
 30
0.0
 11
391.28784
 21
287.592308
 31
0.0
 12
396.941687
 22
287.592308
 32
0.0
 13
396.941687
 23
287.592308
 33
0.0
  0
SOLID
  5
13612
  8
WAKU
  6
CONTINUOUS
 10
398.337331
 20
289.207692
 30
0.0
 11
396.452715
 21
289.207692
 31
0.0
 12
397.749379
 22
287.592308
 32
0.0
 13
397.749379
 23
287.592308
 33
0.0
  0
SOLID
  5
13613
  8
WAKU
  6
CONTINUOUS
 10
391.875792
 20
289.207692
 30
0.0
 11
391.28784
 21
287.592308
 31
0.0
 12
393.760408
 22
289.207692
 32
0.0
 13
393.760408
 23
289.207692
 33
0.0
  0
SOLID
  5
13614
  8
WAKU
  6
CONTINUOUS
 10
393.760408
 20
289.207692
 30
0.0
 11
392.683485
 21
289.207692
 31
0.0
 12
391.875792
 22
289.207692
 32
0.0
 13
391.875792
 23
289.207692
 33
0.0
  0
SOLID
  5
13615
  8
WAKU
  6
CONTINUOUS
 10
397.529638
 20
289.207692
 30
0.0
 11
396.452715
 21
289.207692
 31
0.0
 12
398.337331
 22
289.207692
 32
0.0
 13
398.337331
 23
289.207692
 33
0.0
  0
SOLID
  5
13616
  8
WAKU
  6
CONTINUOUS
 10
373.692348
 20
289.22006
 30
0.0
 11
372.886988
 21
289.145129
 31
0.0
 12
373.998821
 22
289.115757
 32
0.0
 13
373.998821
 23
289.115757
 33
0.0
  0
SOLID
  5
13617
  8
WAKU
  6
CONTINUOUS
 10
373.317143
 20
289.229972
 30
0.0
 11
372.886988
 21
289.145129
 31
0.0
 12
373.692348
 22
289.22006
 32
0.0
 13
373.692348
 23
289.22006
 33
0.0
  0
SOLID
  5
13618
  8
WAKU
  6
CONTINUOUS
 10
378.723077
 20
290.5
 30
0.0
 11
381.524851
 21
288.776923
 31
0.0
 12
383.695928
 22
288.776923
 32
0.0
 13
383.695928
 23
288.776923
 33
0.0
  0
SOLID
  5
13619
  8
WAKU
  6
CONTINUOUS
 10
378.723077
 20
290.5
 30
0.0
 11
378.095928
 21
288.776923
 31
0.0
 12
381.524851
 22
288.776923
 32
0.0
 13
381.524851
 23
288.776923
 33
0.0
  0
SOLID
  5
1361A
  8
WAKU
  6
CONTINUOUS
 10
372.249053
 20
290.5
 30
0.0
 11
367.971276
 21
290.5
 31
0.0
 12
367.971276
 22
286.222222
 32
0.0
 13
367.971276
 23
286.222222
 33
0.0
  0
SOLID
  5
1361B
  8
WAKU
  6
CONTINUOUS
 10
409.219005
 20
288.776923
 30
0.0
 11
409.846154
 21
290.5
 31
0.0
 12
406.615385
 22
290.5
 32
0.0
 13
406.615385
 23
290.5
 33
0.0
  0
SOLID
  5
1361C
  8
WAKU
  6
CONTINUOUS
 10
406.615385
 20
290.5
 30
0.0
 11
405.988236
 21
288.776923
 31
0.0
 12
409.219005
 22
288.776923
 32
0.0
 13
409.219005
 23
288.776923
 33
0.0
  0
SOLID
  5
1361D
  8
WAKU
  6
CONTINUOUS
 10
392.683485
 20
289.207692
 30
0.0
 11
394.230769
 21
290.5
 31
0.0
 12
393.153846
 22
290.5
 32
0.0
 13
393.153846
 23
290.5
 33
0.0
  0
SOLID
  5
1361E
  8
WAKU
  6
CONTINUOUS
 10
394.230769
 20
290.5
 30
0.0
 11
392.683485
 21
289.207692
 31
0.0
 12
393.760408
 22
289.207692
 32
0.0
 13
393.760408
 23
289.207692
 33
0.0
  0
SOLID
  5
1361F
  8
WAKU
  6
CONTINUOUS
 10
409.159221
 20
285.653846
 30
0.0
 11
412.0
 21
290.5
 31
0.0
 12
410.923077
 22
290.5
 32
0.0
 13
410.923077
 23
290.5
 33
0.0
  0
SOLID
  5
13620
  8
WAKU
  6
CONTINUOUS
 10
412.0
 20
290.5
 30
0.0
 11
409.159221
 21
285.653846
 31
0.0
 12
409.452208
 22
283.5
 32
0.0
 13
409.452208
 23
283.5
 33
0.0
  0
SOLID
  5
13621
  8
WAKU
  6
CONTINUOUS
 10
384.323077
 20
290.5
 30
0.0
 11
378.723077
 21
290.5
 31
0.0
 12
383.695928
 22
288.776923
 32
0.0
 13
383.695928
 23
288.776923
 33
0.0
  0
SOLID
  5
13622
  8
WAKU
  6
CONTINUOUS
 10
385.615385
 20
290.5
 30
0.0
 11
384.988236
 21
288.776923
 31
0.0
 12
390.372851
 22
288.776923
 32
0.0
 13
390.372851
 23
288.776923
 33
0.0
  0
SOLID
  5
13623
  8
WAKU
  6
CONTINUOUS
 10
396.923077
 20
290.5
 30
0.0
 11
396.452715
 21
289.207692
 31
0.0
 12
397.529638
 22
289.207692
 32
0.0
 13
397.529638
 23
289.207692
 33
0.0
  0
SOLID
  5
13624
  8
WAKU
  6
CONTINUOUS
 10
391.0
 20
290.5
 30
0.0
 11
385.615385
 21
290.5
 31
0.0
 12
390.372851
 22
288.776923
 32
0.0
 13
390.372851
 23
288.776923
 33
0.0
  0
SOLID
  5
13625
  8
WAKU
  6
CONTINUOUS
 10
398.0
 20
290.5
 30
0.0
 11
396.923077
 21
290.5
 31
0.0
 12
397.529638
 22
289.207692
 32
0.0
 13
397.529638
 23
289.207692
 33
0.0
  0
ENDBLK
  5
13627
  8
0
  0
ENDSEC
  0
SECTION
  2
ENTITIES
  0
LINE
  5
43
  8
WAKU
 10
415.0
 20
292.0
 30
0.0
 11
415.0
 21
5.0
 31
0.0
  0
LINE
  5
46
  8
WAKU
 10
5.0
 20
292.0
 30
0.0
 11
5.0
 21
5.0
 31
0.0
  0
LINE
  5
55
  8
WAKU
 10
5.0
 20
5.0
 30
0.0
 11
415.0
 21
5.0
 31
0.0
  0
LINE
  5
571
  8
WAKU
 10
5.0
 20
292.0
 30
0.0
 11
415.0
 21
292.0
 31
0.0
  0
LINE
  5
572
  8
WAKU
 10
5.0
 20
282.0
 30
0.0
 11
415.0
 21
282.0
 31
0.0
  0
LINE
  5
CBC
  8
WAKU
  6
CONTINUOUS
 10
393.760408
 20
289.207692
 30
0.0
 11
396.452715
 21
289.207692
 31
0.0
  0
LINE
  5
CBD
  8
WAKU
  6
CONTINUOUS
 10
393.172456
 20
287.592308
 30
0.0
 11
395.864763
 21
287.592308
 31
0.0
  0
LINE
  5
CBE
  8
WAKU
  6
CONTINUOUS
 10
390.39067
 20
283.5
 30
0.0
 11
395.452208
 21
283.5
 31
0.0
  0
LINE
  5
CBF
  8
WAKU
  6
CONTINUOUS
 10
395.159221
 20
285.653846
 30
0.0
 11
395.864763
 21
287.592308
 31
0.0
  0
LINE
  5
CC0
  8
WAKU
  6
CONTINUOUS
 10
367.971276
 20
290.5
 30
0.0
 11
372.249053
 21
290.5
 31
0.0
  0
LINE
  5
CC1
  8
WAKU
  6
CONTINUOUS
 10
367.971276
 20
286.222222
 30
0.0
 11
372.249053
 21
290.5
 31
0.0
  0
LINE
  5
CC2
  8
WAKU
  6
CONTINUOUS
 10
367.971276
 20
290.5
 30
0.0
 11
367.971276
 21
286.222222
 31
0.0
  0
LINE
  5
CC3
  8
WAKU
  6
CONTINUOUS
 10
381.524851
 20
288.776923
 30
0.0
 11
383.695928
 21
288.776923
 31
0.0
  0
LINE
  5
CC4
  8
WAKU
  6
CONTINUOUS
 10
378.723077
 20
290.5
 30
0.0
 11
384.323077
 21
290.5
 31
0.0
  0
LINE
  5
CC5
  8
WAKU
  6
CONTINUOUS
 10
380.311313
 20
288.776923
 30
0.0
 11
377.155205
 21
286.192308
 31
0.0
  0
LINE
  5
CC6
  8
WAKU
  6
CONTINUOUS
 10
381.524851
 20
288.776923
 30
0.0
 11
382.755205
 21
286.192308
 31
0.0
  0
LINE
  5
CC7
  8
WAKU
  6
CONTINUOUS
 10
376.175285
 20
283.5
 30
0.0
 11
377.155205
 21
286.192308
 31
0.0
  0
LINE
  5
CC8
  8
WAKU
  6
CONTINUOUS
 10
379.397145
 20
286.138462
 30
0.0
 11
376.175285
 21
283.5
 31
0.0
  0
LINE
  5
CC9
  8
WAKU
  6
CONTINUOUS
 10
381.775285
 20
283.5
 30
0.0
 11
382.755205
 21
286.192308
 31
0.0
  0
LINE
  5
CCA
  8
WAKU
  6
CONTINUOUS
 10
380.493667
 20
286.192308
 30
0.0
 11
381.775285
 21
283.5
 31
0.0
  0
LINE
  5
CCB
  8
WAKU
  6
CONTINUOUS
 10
379.513747
 20
283.5
 30
0.0
 11
380.493667
 21
286.192308
 31
0.0
  0
LINE
  5
CCC
  8
WAKU
  6
CONTINUOUS
 10
378.436824
 20
283.5
 30
0.0
 11
379.513747
 21
283.5
 31
0.0
  0
LINE
  5
CCD
  8
WAKU
  6
CONTINUOUS
 10
378.436824
 20
283.5
 30
0.0
 11
379.397145
 21
286.138462
 31
0.0
  0
LINE
  5
CCE
  8
WAKU
  6
CONTINUOUS
 10
378.095928
 20
288.776923
 30
0.0
 11
380.311313
 21
288.776923
 31
0.0
  0
LINE
  5
CCF
  8
WAKU
  6
CONTINUOUS
 10
378.723077
 20
290.5
 30
0.0
 11
378.095928
 21
288.776923
 31
0.0
  0
LINE
  5
CD0
  8
WAKU
  6
CONTINUOUS
 10
392.780488
 20
286.515385
 30
0.0
 11
393.172456
 21
287.592308
 31
0.0
  0
LINE
  5
CD1
  8
WAKU
  6
CONTINUOUS
 10
391.703565
 20
286.515385
 30
0.0
 11
392.095533
 21
287.592308
 31
0.0
  0
LINE
  5
CD2
  8
WAKU
  6
CONTINUOUS
 10
388.452208
 20
283.5
 30
0.0
 11
389.236144
 21
285.653846
 31
0.0
  0
LINE
  5
CD3
  8
WAKU
  6
CONTINUOUS
 10
383.851529
 20
285.653846
 30
0.0
 11
389.236144
 21
285.653846
 31
0.0
  0
LINE
  5
CD4
  8
WAKU
  6
CONTINUOUS
 10
383.067593
 20
283.5
 30
0.0
 11
383.851529
 21
285.653846
 31
0.0
  0
LINE
  5
CD5
  8
WAKU
  6
CONTINUOUS
 10
383.067593
 20
283.5
 30
0.0
 11
388.452208
 21
283.5
 31
0.0
  0
LINE
  5
CD6
  8
WAKU
  6
CONTINUOUS
 10
391.174606
 20
285.653846
 30
0.0
 11
395.159221
 21
285.653846
 31
0.0
  0
LINE
  5
CD7
  8
WAKU
  6
CONTINUOUS
 10
391.703565
 20
286.515385
 30
0.0
 11
392.780488
 21
286.515385
 31
0.0
  0
LINE
  5
CD8
  8
WAKU
  6
CONTINUOUS
 10
390.39067
 20
283.5
 30
0.0
 11
391.174606
 21
285.653846
 31
0.0
  0
LINE
  5
CD9
  8
WAKU
  6
CONTINUOUS
 10
384.988236
 20
288.776923
 30
0.0
 11
390.372851
 21
288.776923
 31
0.0
  0
LINE
  5
CDA
  8
WAKU
  6
CONTINUOUS
 10
385.615385
 20
290.5
 30
0.0
 11
391.0
 21
290.5
 31
0.0
  0
LINE
  5
CDB
  8
WAKU
  6
CONTINUOUS
 10
384.988236
 20
288.776923
 30
0.0
 11
385.615385
 21
290.5
 31
0.0
  0
LINE
  5
CDC
  8
WAKU
  6
CONTINUOUS
 10
384.323077
 20
290.5
 30
0.0
 11
383.695928
 21
288.776923
 31
0.0
  0
LINE
  5
CDD
  8
WAKU
  6
CONTINUOUS
 10
393.153846
 20
290.5
 30
0.0
 11
394.230769
 21
290.5
 31
0.0
  0
LINE
  5
CDE
  8
WAKU
  6
CONTINUOUS
 10
393.760408
 20
289.207692
 30
0.0
 11
394.230769
 21
290.5
 31
0.0
  0
LINE
  5
CDF
  8
WAKU
  6
CONTINUOUS
 10
391.875792
 20
289.207692
 30
0.0
 11
392.683485
 21
289.207692
 31
0.0
  0
LINE
  5
CE0
  8
WAKU
  6
CONTINUOUS
 10
391.28784
 20
287.592308
 30
0.0
 11
392.095533
 21
287.592308
 31
0.0
  0
LINE
  5
CE1
  8
WAKU
  6
CONTINUOUS
 10
391.28784
 20
287.592308
 30
0.0
 11
391.875792
 21
289.207692
 31
0.0
  0
LINE
  5
CE2
  8
WAKU
  6
CONTINUOUS
 10
392.683485
 20
289.207692
 30
0.0
 11
393.153846
 21
290.5
 31
0.0
  0
LINE
  5
CE3
  8
WAKU
  6
CONTINUOUS
 10
390.372851
 20
288.776923
 30
0.0
 11
391.0
 21
290.5
 31
0.0
  0
LINE
  5
CE4
  8
WAKU
  6
CONTINUOUS
 10
405.753055
 20
288.130769
 30
0.0
 11
408.983824
 21
288.130769
 31
0.0
  0
LINE
  5
CE5
  8
WAKU
  6
CONTINUOUS
 10
405.282694
 20
286.838462
 30
0.0
 11
408.513463
 21
286.838462
 31
0.0
  0
LINE
  5
CE6
  8
WAKU
  6
CONTINUOUS
 10
409.452208
 20
283.5
 30
0.0
 11
404.067593
 21
283.5
 31
0.0
  0
LINE
  5
CE7
  8
WAKU
  6
CONTINUOUS
 10
404.851529
 20
285.653846
 30
0.0
 11
409.159221
 21
285.653846
 31
0.0
  0
LINE
  5
CE8
  8
WAKU
  6
CONTINUOUS
 10
405.988236
 20
288.776923
 30
0.0
 11
409.219005
 21
288.776923
 31
0.0
  0
LINE
  5
CE9
  8
WAKU
  6
CONTINUOUS
 10
406.615385
 20
290.5
 30
0.0
 11
409.846154
 21
290.5
 31
0.0
  0
LINE
  5
CEA
  8
WAKU
  6
CONTINUOUS
 10
398.781958
 20
286.730769
 30
0.0
 11
399.565894
 21
288.884615
 31
0.0
  0
LINE
  5
CEB
  8
WAKU
  6
CONTINUOUS
 10
400.181958
 20
286.730769
 30
0.0
 11
400.965894
 21
288.884615
 31
0.0
  0
LINE
  5
CEC
  8
WAKU
  6
CONTINUOUS
 10
399.858881
 20
286.730769
 30
0.0
 11
400.642817
 21
288.884615
 31
0.0
  0
LINE
  5
CED
  8
WAKU
  6
CONTINUOUS
 10
401.258881
 20
286.730769
 30
0.0
 11
402.042817
 21
288.884615
 31
0.0
  0
LINE
  5
CEE
  8
WAKU
  6
CONTINUOUS
 10
401.913747
 20
283.5
 30
0.0
 11
403.873587
 21
288.884615
 31
0.0
  0
LINE
  5
CEF
  8
WAKU
  6
CONTINUOUS
 10
401.424776
 20
285.115385
 30
0.0
 11
402.796663
 21
288.884615
 31
0.0
  0
LINE
  5
CF0
  8
WAKU
  6
CONTINUOUS
 10
395.452208
 20
283.5
 30
0.0
 11
396.941687
 21
287.592308
 31
0.0
  0
LINE
  5
CF1
  8
WAKU
  6
CONTINUOUS
 10
397.606055
 20
283.5
 30
0.0
 11
401.913747
 21
283.5
 31
0.0
  0
LINE
  5
CF2
  8
WAKU
  6
CONTINUOUS
 10
398.781958
 20
286.730769
 30
0.0
 11
399.858881
 21
286.730769
 31
0.0
  0
LINE
  5
CF3
  8
WAKU
  6
CONTINUOUS
 10
398.194006
 20
285.115385
 30
0.0
 11
401.424776
 21
285.115385
 31
0.0
  0
LINE
  5
CF4
  8
WAKU
  6
CONTINUOUS
 10
397.606055
 20
283.5
 30
0.0
 11
398.194006
 21
285.115385
 31
0.0
  0
LINE
  5
CF5
  8
WAKU
  6
CONTINUOUS
 10
400.181958
 20
286.730769
 30
0.0
 11
401.258881
 21
286.730769
 31
0.0
  0
LINE
  5
CF6
  8
WAKU
  6
CONTINUOUS
 10
404.067593
 20
283.5
 30
0.0
 11
404.851529
 21
285.653846
 31
0.0
  0
LINE
  5
CF7
  8
WAKU
  6
CONTINUOUS
 10
400.965894
 20
288.884615
 30
0.0
 11
402.042817
 21
288.884615
 31
0.0
  0
LINE
  5
CF8
  8
WAKU
  6
CONTINUOUS
 10
396.923077
 20
290.5
 30
0.0
 11
398.0
 21
290.5
 31
0.0
  0
LINE
  5
CF9
  8
WAKU
  6
CONTINUOUS
 10
397.529638
 20
289.207692
 30
0.0
 11
398.0
 21
290.5
 31
0.0
  0
LINE
  5
CFA
  8
WAKU
  6
CONTINUOUS
 10
397.529638
 20
289.207692
 30
0.0
 11
398.337331
 21
289.207692
 31
0.0
  0
LINE
  5
CFB
  8
WAKU
  6
CONTINUOUS
 10
396.941687
 20
287.592308
 30
0.0
 11
397.749379
 21
287.592308
 31
0.0
  0
LINE
  5
CFC
  8
WAKU
  6
CONTINUOUS
 10
397.749379
 20
287.592308
 30
0.0
 11
398.337331
 21
289.207692
 31
0.0
  0
LINE
  5
CFD
  8
WAKU
  6
CONTINUOUS
 10
399.565894
 20
288.884615
 30
0.0
 11
400.642817
 21
288.884615
 31
0.0
  0
LINE
  5
CFE
  8
WAKU
  6
CONTINUOUS
 10
396.452715
 20
289.207692
 30
0.0
 11
396.923077
 21
290.5
 31
0.0
  0
LINE
  5
CFF
  8
WAKU
  6
CONTINUOUS
 10
406.615385
 20
290.5
 30
0.0
 11
405.988236
 21
288.776923
 31
0.0
  0
LINE
  5
D00
  8
WAKU
  6
CONTINUOUS
 10
405.753055
 20
288.130769
 30
0.0
 11
405.282694
 21
286.838462
 31
0.0
  0
LINE
  5
D01
  8
WAKU
  6
CONTINUOUS
 10
402.796663
 20
288.884615
 30
0.0
 11
403.873587
 21
288.884615
 31
0.0
  0
LINE
  5
D02
  8
WAKU
  6
CONTINUOUS
 10
409.159221
 20
285.653846
 30
0.0
 11
410.923077
 21
290.5
 31
0.0
  0
LINE
  5
D03
  8
WAKU
  6
CONTINUOUS
 10
409.452208
 20
283.5
 30
0.0
 11
412.0
 21
290.5
 31
0.0
  0
LINE
  5
D04
  8
WAKU
  6
CONTINUOUS
 10
409.219005
 20
288.776923
 30
0.0
 11
409.846154
 21
290.5
 31
0.0
  0
LINE
  5
D05
  8
WAKU
  6
CONTINUOUS
 10
410.923077
 20
290.5
 30
0.0
 11
412.0
 21
290.5
 31
0.0
  0
LINE
  5
D06
  8
WAKU
  6
CONTINUOUS
 10
408.513463
 20
286.838462
 30
0.0
 11
408.983824
 21
288.130769
 31
0.0
  0
LINE
  5
D07
  8
WAKU
  6
CONTINUOUS
 10
369.828646
 20
284.107791
 30
0.0
 11
369.966824
 21
283.829526
 31
0.0
  0
LINE
  5
D08
  8
WAKU
  6
CONTINUOUS
 10
369.966824
 20
283.829526
 30
0.0
 11
370.193309
 21
283.634664
 31
0.0
  0
LINE
  5
D09
  8
WAKU
  6
CONTINUOUS
 10
370.193309
 20
283.634664
 30
0.0
 11
370.499782
 21
283.530361
 31
0.0
  0
LINE
  5
D0A
  8
WAKU
  6
CONTINUOUS
 10
370.499782
 20
283.530361
 30
0.0
 11
370.874987
 21
283.520449
 31
0.0
  0
LINE
  5
D0B
  8
WAKU
  6
CONTINUOUS
 10
370.874987
 20
283.520449
 30
0.0
 11
371.305142
 21
283.605291
 31
0.0
  0
LINE
  5
D0C
  8
WAKU
  6
CONTINUOUS
 10
371.305142
 20
283.605291
 30
0.0
 11
371.774448
 21
283.781773
 31
0.0
  0
LINE
  5
D0D
  8
WAKU
  6
CONTINUOUS
 10
371.774448
 20
283.781773
 30
0.0
 11
372.265666
 21
284.043411
 31
0.0
  0
LINE
  5
D0E
  8
WAKU
  6
CONTINUOUS
 10
372.265666
 20
284.043411
 30
0.0
 11
372.760756
 21
284.380595
 31
0.0
  0
LINE
  5
D0F
  8
WAKU
  6
CONTINUOUS
 10
372.760756
 20
284.380595
 30
0.0
 11
373.241532
 21
284.780941
 31
0.0
  0
LINE
  5
D10
  8
WAKU
  6
CONTINUOUS
 10
373.241532
 20
284.780941
 30
0.0
 11
373.690335
 21
285.229744
 31
0.0
  0
LINE
  5
D11
  8
WAKU
  6
CONTINUOUS
 10
373.690335
 20
285.229744
 30
0.0
 11
374.090681
 21
285.71052
 31
0.0
  0
LINE
  5
D12
  8
WAKU
  6
CONTINUOUS
 10
374.090681
 20
285.71052
 30
0.0
 11
374.427865
 21
286.205609
 31
0.0
  0
LINE
  5
D13
  8
WAKU
  6
CONTINUOUS
 10
374.427865
 20
286.205609
 30
0.0
 11
374.689503
 21
286.696828
 31
0.0
  0
LINE
  5
D14
  8
WAKU
  6
CONTINUOUS
 10
374.689503
 20
286.696828
 30
0.0
 11
374.865984
 21
287.166134
 31
0.0
  0
LINE
  5
D15
  8
WAKU
  6
CONTINUOUS
 10
374.865984
 20
287.166134
 30
0.0
 11
374.950827
 21
287.596289
 31
0.0
  0
LINE
  5
D16
  8
WAKU
  6
CONTINUOUS
 10
374.950827
 20
287.596289
 30
0.0
 11
374.940915
 21
287.971493
 31
0.0
  0
LINE
  5
D17
  8
WAKU
  6
CONTINUOUS
 10
374.940915
 20
287.971493
 30
0.0
 11
374.836612
 21
288.277967
 31
0.0
  0
LINE
  5
D18
  8
WAKU
  6
CONTINUOUS
 10
374.836612
 20
288.277967
 30
0.0
 11
374.641749
 21
288.504452
 31
0.0
  0
LINE
  5
D19
  8
WAKU
  6
CONTINUOUS
 10
374.641749
 20
288.504452
 30
0.0
 11
374.363484
 21
288.64263
 31
0.0
  0
LINE
  5
D1A
  8
WAKU
  6
CONTINUOUS
 10
373.916941
 20
288.683944
 30
0.0
 11
373.482636
 21
288.608014
 31
0.0
  0
LINE
  5
D1B
  8
WAKU
  6
CONTINUOUS
 10
373.482636
 20
288.608014
 30
0.0
 11
373.005639
 21
288.435768
 31
0.0
  0
LINE
  5
D1C
  8
WAKU
  6
CONTINUOUS
 10
373.005639
 20
288.435768
 30
0.0
 11
372.504269
 21
288.173821
 31
0.0
  0
LINE
  5
D1D
  8
WAKU
  6
CONTINUOUS
 10
372.504269
 20
288.173821
 30
0.0
 11
371.997783
 21
287.832235
 31
0.0
  0
LINE
  5
D1E
  8
WAKU
  6
CONTINUOUS
 10
371.997783
 20
287.832235
 30
0.0
 11
371.505632
 21
287.424128
 31
0.0
  0
LINE
  5
D1F
  8
WAKU
  6
CONTINUOUS
 10
371.505632
 20
287.424128
 30
0.0
 11
371.04672
 21
286.965174
 31
0.0
  0
LINE
  5
D20
  8
WAKU
  6
CONTINUOUS
 10
371.04672
 20
286.965174
 30
0.0
 11
370.638671
 21
286.473
 31
0.0
  0
LINE
  5
D21
  8
WAKU
  6
CONTINUOUS
 10
370.638671
 20
286.473
 30
0.0
 11
370.297156
 21
285.966509
 31
0.0
  0
LINE
  5
D22
  8
WAKU
  6
CONTINUOUS
 10
370.297156
 20
285.966509
 30
0.0
 11
370.035293
 21
285.465154
 31
0.0
  0
LINE
  5
D23
  8
WAKU
  6
CONTINUOUS
 10
370.035293
 20
285.465154
 30
0.0
 11
369.863139
 21
284.988189
 31
0.0
  0
LINE
  5
D24
  8
WAKU
  6
CONTINUOUS
 10
369.863139
 20
284.988189
 30
0.0
 11
369.787305
 21
284.553935
 31
0.0
  0
LINE
  5
D25
  8
WAKU
  6
CONTINUOUS
 10
370.172911
 20
284.451856
 30
0.0
 11
370.681395
 21
284.539195
 31
0.0
  0
LINE
  5
D26
  8
WAKU
  6
CONTINUOUS
 10
370.681395
 20
284.539195
 30
0.0
 11
371.312263
 21
284.810332
 31
0.0
  0
LINE
  5
D27
  8
WAKU
  6
CONTINUOUS
 10
371.312263
 20
284.810332
 30
0.0
 11
371.98994
 21
285.251431
 31
0.0
  0
LINE
  5
D28
  8
WAKU
  6
CONTINUOUS
 10
371.98994
 20
285.251431
 30
0.0
 11
372.646296
 21
285.825506
 31
0.0
  0
LINE
  5
D29
  8
WAKU
  6
CONTINUOUS
 10
372.646296
 20
285.825506
 30
0.0
 11
373.220238
 21
286.48192
 31
0.0
  0
LINE
  5
D2A
  8
WAKU
  6
CONTINUOUS
 10
373.220238
 20
286.48192
 30
0.0
 11
373.661353
 21
287.159534
 31
0.0
  0
LINE
  5
D2B
  8
WAKU
  6
CONTINUOUS
 10
373.661353
 20
287.159534
 30
0.0
 11
373.932071
 21
287.790402
 31
0.0
  0
LINE
  5
D2C
  8
WAKU
  6
CONTINUOUS
 10
373.932071
 20
287.790402
 30
0.0
 11
374.019229
 21
288.298569
 31
0.0
  0
LINE
  5
D2D
  8
WAKU
  6
CONTINUOUS
 10
373.916941
 20
288.683944
 30
0.0
 11
373.799148
 21
288.781929
 31
0.0
  0
LINE
  5
D2E
  8
WAKU
  6
CONTINUOUS
 10
373.799148
 20
288.781929
 30
0.0
 11
373.597996
 21
288.840902
 31
0.0
  0
LINE
  5
D2F
  8
WAKU
  6
CONTINUOUS
 10
373.597996
 20
288.840902
 30
0.0
 11
373.290857
 21
288.835581
 31
0.0
  0
LINE
  5
D30
  8
WAKU
  6
CONTINUOUS
 10
373.290857
 20
288.835581
 30
0.0
 11
372.89514
 21
288.740065
 31
0.0
  0
LINE
  5
D31
  8
WAKU
  6
CONTINUOUS
 10
372.89514
 20
288.740065
 30
0.0
 11
372.440235
 21
288.547585
 31
0.0
  0
LINE
  5
D32
  8
WAKU
  6
CONTINUOUS
 10
372.440235
 20
288.547585
 30
0.0
 11
371.954587
 21
288.264284
 31
0.0
  0
LINE
  5
D33
  8
WAKU
  6
CONTINUOUS
 10
371.954587
 20
288.264284
 30
0.0
 11
370.996098
 21
287.475108
 31
0.0
  0
LINE
  5
D34
  8
WAKU
  6
CONTINUOUS
 10
370.996098
 20
287.475108
 30
0.0
 11
370.207035
 21
286.51657
 31
0.0
  0
LINE
  5
D35
  8
WAKU
  6
CONTINUOUS
 10
370.207035
 20
286.51657
 30
0.0
 11
369.923519
 21
286.031028
 31
0.0
  0
LINE
  5
D36
  8
WAKU
  6
CONTINUOUS
 10
369.923519
 20
286.031028
 30
0.0
 11
369.73149
 21
285.576021
 31
0.0
  0
LINE
  5
D37
  8
WAKU
  6
CONTINUOUS
 10
369.73149
 20
285.576021
 30
0.0
 11
369.635696
 21
285.180404
 31
0.0
  0
LINE
  5
D38
  8
WAKU
  6
CONTINUOUS
 10
369.635696
 20
285.180404
 30
0.0
 11
369.630358
 21
284.873087
 31
0.0
  0
LINE
  5
D39
  8
WAKU
  6
CONTINUOUS
 10
369.630358
 20
284.873087
 30
0.0
 11
369.689155
 21
284.672435
 31
0.0
  0
LINE
  5
D3A
  8
WAKU
  6
CONTINUOUS
 10
369.689155
 20
284.672435
 30
0.0
 11
369.787305
 21
284.553935
 31
0.0
  0
LINE
  5
D3B
  8
WAKU
  6
CONTINUOUS
 10
370.275177
 20
284.066476
 30
0.0
 11
370.392927
 21
283.968568
 31
0.0
  0
LINE
  5
D3C
  8
WAKU
  6
CONTINUOUS
 10
370.392927
 20
283.968568
 30
0.0
 11
370.594177
 21
283.909498
 31
0.0
  0
LINE
  5
D3D
  8
WAKU
  6
CONTINUOUS
 10
370.594177
 20
283.909498
 30
0.0
 11
370.901294
 21
283.914863
 31
0.0
  0
LINE
  5
D3E
  8
WAKU
  6
CONTINUOUS
 10
370.901294
 20
283.914863
 30
0.0
 11
371.296984
 21
284.010368
 31
0.0
  0
LINE
  5
D3F
  8
WAKU
  6
CONTINUOUS
 10
371.296984
 20
284.010368
 30
0.0
 11
371.751882
 21
284.202798
 31
0.0
  0
LINE
  5
D40
  8
WAKU
  6
CONTINUOUS
 10
371.751882
 20
284.202798
 30
0.0
 11
372.237497
 21
284.486117
 31
0.0
  0
LINE
  5
D41
  8
WAKU
  6
CONTINUOUS
 10
372.237497
 20
284.486117
 30
0.0
 11
373.195965
 21
285.275232
 31
0.0
  0
LINE
  5
D42
  8
WAKU
  6
CONTINUOUS
 10
373.195965
 20
285.275232
 30
0.0
 11
373.98505
 21
286.233718
 31
0.0
  0
LINE
  5
D43
  8
WAKU
  6
CONTINUOUS
 10
373.98505
 20
286.233718
 30
0.0
 11
374.268507
 21
286.719278
 31
0.0
  0
LINE
  5
D44
  8
WAKU
  6
CONTINUOUS
 10
374.268507
 20
286.719278
 30
0.0
 11
374.46071
 21
287.174248
 31
0.0
  0
LINE
  5
D45
  8
WAKU
  6
CONTINUOUS
 10
374.46071
 20
287.174248
 30
0.0
 11
374.556361
 21
287.569864
 31
0.0
  0
LINE
  5
D46
  8
WAKU
  6
CONTINUOUS
 10
374.556361
 20
287.569864
 30
0.0
 11
374.561802
 21
287.877253
 31
0.0
  0
LINE
  5
D47
  8
WAKU
  6
CONTINUOUS
 10
374.561802
 20
287.877253
 30
0.0
 11
374.502951
 21
288.077918
 31
0.0
  0
LINE
  5
D48
  8
WAKU
  6
CONTINUOUS
 10
374.502951
 20
288.077918
 30
0.0
 11
374.40481
 21
288.196249
 31
0.0
  0
LINE
  5
D49
  8
WAKU
  6
CONTINUOUS
 10
374.019229
 20
288.298569
 30
0.0
 11
373.510738
 21
288.21124
 31
0.0
  0
LINE
  5
D4A
  8
WAKU
  6
CONTINUOUS
 10
373.510738
 20
288.21124
 30
0.0
 11
372.879878
 21
287.940057
 31
0.0
  0
LINE
  5
D4B
  8
WAKU
  6
CONTINUOUS
 10
372.879878
 20
287.940057
 30
0.0
 11
372.202181
 21
287.498991
 31
0.0
  0
LINE
  5
D4C
  8
WAKU
  6
CONTINUOUS
 10
372.202181
 20
287.498991
 30
0.0
 11
371.545827
 21
286.924893
 31
0.0
  0
LINE
  5
D4D
  8
WAKU
  6
CONTINUOUS
 10
371.545827
 20
286.924893
 30
0.0
 11
370.971896
 21
286.268471
 31
0.0
  0
LINE
  5
D4E
  8
WAKU
  6
CONTINUOUS
 10
370.971896
 20
286.268471
 30
0.0
 11
370.530712
 21
285.590875
 31
0.0
  0
LINE
  5
D4F
  8
WAKU
  6
CONTINUOUS
 10
370.530712
 20
285.590875
 30
0.0
 11
370.260168
 21
284.959969
 31
0.0
  0
LINE
  5
D50
  8
WAKU
  6
CONTINUOUS
 10
370.260168
 20
284.959969
 30
0.0
 11
370.172911
 21
284.451856
 31
0.0
  0
LINE
  5
D51
  8
WAKU
  6
CONTINUOUS
 10
370.275177
 20
284.066476
 30
0.0
 11
370.709458
 21
284.142397
 31
0.0
  0
LINE
  5
D52
  8
WAKU
  6
CONTINUOUS
 10
370.709458
 20
284.142397
 30
0.0
 11
371.186428
 21
284.314625
 31
0.0
  0
LINE
  5
D53
  8
WAKU
  6
CONTINUOUS
 10
371.186428
 20
284.314625
 30
0.0
 11
371.68777
 21
284.576545
 31
0.0
  0
LINE
  5
D54
  8
WAKU
  6
CONTINUOUS
 10
371.68777
 20
284.576545
 30
0.0
 11
372.194232
 21
284.918099
 31
0.0
  0
LINE
  5
D55
  8
WAKU
  6
CONTINUOUS
 10
372.194232
 20
284.918099
 30
0.0
 11
372.686363
 21
285.326171
 31
0.0
  0
LINE
  5
D56
  8
WAKU
  6
CONTINUOUS
 10
372.686363
 20
285.326171
 30
0.0
 11
373.145266
 21
285.785089
 31
0.0
  0
LINE
  5
D57
  8
WAKU
  6
CONTINUOUS
 10
373.145266
 20
285.785089
 30
0.0
 11
373.553316
 21
286.277229
 31
0.0
  0
LINE
  5
D58
  8
WAKU
  6
CONTINUOUS
 10
373.553316
 20
286.277229
 30
0.0
 11
373.894843
 21
286.783693
 31
0.0
  0
LINE
  5
D59
  8
WAKU
  6
CONTINUOUS
 10
373.894843
 20
286.783693
 30
0.0
 11
374.156732
 21
287.28503
 31
0.0
  0
LINE
  5
D5A
  8
WAKU
  6
CONTINUOUS
 10
374.156732
 20
287.28503
 30
0.0
 11
374.328925
 21
287.761987
 31
0.0
  0
LINE
  5
D5B
  8
WAKU
  6
CONTINUOUS
 10
374.328925
 20
287.761987
 30
0.0
 11
374.40481
 21
288.196249
 31
0.0
  0
LINE
  5
D5C
  8
WAKU
  6
CONTINUOUS
 10
374.363484
 20
288.64263
 30
0.0
 11
374.225306
 21
288.920895
 31
0.0
  0
LINE
  5
D5D
  8
WAKU
  6
CONTINUOUS
 10
374.225306
 20
288.920895
 30
0.0
 11
373.998821
 21
289.115757
 31
0.0
  0
LINE
  5
D5E
  8
WAKU
  6
CONTINUOUS
 10
373.998821
 20
289.115757
 30
0.0
 11
373.692348
 21
289.22006
 31
0.0
  0
LINE
  5
D5F
  8
WAKU
  6
CONTINUOUS
 10
373.692348
 20
289.22006
 30
0.0
 11
373.317143
 21
289.229972
 31
0.0
  0
LINE
  5
D60
  8
WAKU
  6
CONTINUOUS
 10
373.317143
 20
289.229972
 30
0.0
 11
372.886988
 21
289.145129
 31
0.0
  0
LINE
  5
D61
  8
WAKU
  6
CONTINUOUS
 10
372.886988
 20
289.145129
 30
0.0
 11
372.417683
 21
288.968648
 31
0.0
  0
LINE
  5
D62
  8
WAKU
  6
CONTINUOUS
 10
372.417683
 20
288.968648
 30
0.0
 11
371.926464
 21
288.70701
 31
0.0
  0
LINE
  5
D63
  8
WAKU
  6
CONTINUOUS
 10
371.926464
 20
288.70701
 30
0.0
 11
371.431374
 21
288.369826
 31
0.0
  0
LINE
  5
D64
  8
WAKU
  6
CONTINUOUS
 10
371.431374
 20
288.369826
 30
0.0
 11
370.950599
 21
287.96948
 31
0.0
  0
LINE
  5
D65
  8
WAKU
  6
CONTINUOUS
 10
370.950599
 20
287.96948
 30
0.0
 11
370.501795
 21
287.520677
 31
0.0
  0
LINE
  5
D66
  8
WAKU
  6
CONTINUOUS
 10
370.501795
 20
287.520677
 30
0.0
 11
370.101449
 21
287.039901
 31
0.0
  0
LINE
  5
D67
  8
WAKU
  6
CONTINUOUS
 10
370.101449
 20
287.039901
 30
0.0
 11
369.764265
 21
286.544812
 31
0.0
  0
LINE
  5
D68
  8
WAKU
  6
CONTINUOUS
 10
369.764265
 20
286.544812
 30
0.0
 11
369.502627
 21
286.053593
 31
0.0
  0
LINE
  5
D69
  8
WAKU
  6
CONTINUOUS
 10
369.502627
 20
286.053593
 30
0.0
 11
369.326146
 21
285.584287
 31
0.0
  0
LINE
  5
D6A
  8
WAKU
  6
CONTINUOUS
 10
369.326146
 20
285.584287
 30
0.0
 11
369.241303
 21
285.154132
 31
0.0
  0
LINE
  5
D6B
  8
WAKU
  6
CONTINUOUS
 10
369.241303
 20
285.154132
 30
0.0
 11
369.251215
 21
284.778928
 31
0.0
  0
LINE
  5
D6C
  8
WAKU
  6
CONTINUOUS
 10
369.251215
 20
284.778928
 30
0.0
 11
369.355518
 21
284.472454
 31
0.0
  0
LINE
  5
D6D
  8
WAKU
  6
CONTINUOUS
 10
369.355518
 20
284.472454
 30
0.0
 11
369.550381
 21
284.245969
 31
0.0
  0
LINE
  5
D6E
  8
WAKU
  6
CONTINUOUS
 10
369.550381
 20
284.245969
 30
0.0
 11
369.828646
 21
284.107791
 31
0.0
  0
INSERT
  5
D6F
  8
WAKU
  6
CONTINUOUS
  2
*U5
 10
0.0
 20
0.0
 30
0.0
1001
ACAD
1002
{
1000
R14_HATCH_DATA
1000
D6F
1011
1.0
1021
0.0
1031
0.0
1021
0.0
1031
0.0
1011
0.0
1021
0.0
1031
0.0
1021
1.0
1031
0.0
1011
0.0
1021
0.0
1031
0.0
1021
0.0
1031
1.0
1040
0.0
1010
0.0
1020
0.0
1030
1.0
1000
SOLID
1070
     1
1070
     1
1071
       15
1071
        7
1070
     0
1070
     1
1071
        3
1040
372.249053
1040
290.5
1040
367.971276
1040
290.5
1040
367.971276
1040
286.222222
1071
        3
1005
CC0
1005
CC2
1005
CC1
1071
        7
1070
     0
1070
     1
1071
       38
1040
373.998821
1040
289.115757
1040
373.692348
1040
289.22006
1040
373.317143
1040
289.229972
1040
372.886988
1040
289.145129
1040
372.417683
1040
288.968648
1040
371.926464
1040
288.70701
1040
371.431374
1040
288.369826
1040
370.950599
1040
287.96948
1040
370.501795
1040
287.520677
1040
370.101449
1040
287.039901
1040
369.764265
1040
286.544812
1040
369.502627
1040
286.053593
1040
369.326146
1040
285.584287
1040
369.241303
1040
285.154132
1040
369.251215
1040
284.778928
1040
369.355518
1040
284.472454
1040
369.550381
1040
284.245969
1040
369.828646
1040
284.107791
1040
369.966824
1040
283.829526
1040
370.193309
1040
283.634664
1040
370.499782
1040
283.530361
1040
370.874987
1040
283.520449
1040
371.305142
1040
283.605291
1040
371.774448
1040
283.781773
1040
372.265666
1040
284.043411
1040
372.760756
1040
284.380595
1040
373.241532
1040
284.780941
1040
373.690335
1040
285.229744
1040
374.090681
1040
285.71052
1040
374.427865
1040
286.205609
1040
374.689503
1040
286.696828
1040
374.865984
1040
287.166134
1040
374.950827
1040
287.596289
1040
374.940915
1040
287.971493
1040
374.836612
1040
288.277967
1040
374.641749
1040
288.504452
1040
374.363484
1040
288.64263
1040
374.225306
1040
288.920895
1071
       38
1005
D5D
1005
D5E
1005
D5F
1005
D60
1005
D61
1005
D62
1005
D63
1005
D64
1005
D65
1005
D66
1005
D67
1005
D68
1005
D69
1005
D6A
1005
D6B
1005
D6C
1005
D6D
1005
D6E
1005
D07
1005
D08
1005
D09
1005
D0A
1005
D0B
1005
D0C
1005
D0D
1005
D0E
1005
D0F
1005
D10
1005
D11
1005
D12
1005
D13
1005
D14
1005
D15
1005
D16
1005
D17
1005
D18
1005
D19
1005
D5C
1071
       22
1070
     0
1070
     1
1071
       25
1040
373.799148
1040
288.781929
1040
373.916941
1040
288.683944
1040
373.482636
1040
288.608014
1040
373.005639
1040
288.435768
1040
372.504269
1040
288.173821
1040
371.997783
1040
287.832235
1040
371.505632
1040
287.424128
1040
371.04672
1040
286.965174
1040
370.638671
1040
286.473
1040
370.297156
1040
285.966509
1040
370.035293
1040
285.465154
1040
369.863139
1040
284.988189
1040
369.787305
1040
284.553935
1040
369.689155
1040
284.672435
1040
369.630358
1040
284.873087
1040
369.635696
1040
285.180404
1040
369.73149
1040
285.576021
1040
369.923519
1040
286.031028
1040
370.207035
1040
286.51657
1040
370.996098
1040
287.475108
1040
371.954587
1040
288.264284
1040
372.440235
1040
288.547585
1040
372.89514
1040
288.740065
1040
373.290857
1040
288.835581
1040
373.597996
1040
288.840902
1071
       25
1005
D2D
1005
D1A
1005
D1B
1005
D1C
1005
D1D
1005
D1E
1005
D1F
1005
D20
1005
D21
1005
D22
1005
D23
1005
D24
1005
D3A
1005
D39
1005
D38
1005
D37
1005
D36
1005
D35
1005
D34
1005
D33
1005
D32
1005
D31
1005
D30
1005
D2F
1005
D2E
1071
       22
1070
     0
1070
     1
1071
       16
1040
374.019229
1040
288.298569
1040
373.932071
1040
287.790402
1040
373.661353
1040
287.159534
1040
373.220238
1040
286.48192
1040
372.646296
1040
285.825506
1040
371.98994
1040
285.251431
1040
371.312263
1040
284.810332
1040
370.681395
1040
284.539195
1040
370.172911
1040
284.451856
1040
370.260168
1040
284.959969
1040
370.530712
1040
285.590875
1040
370.971896
1040
286.268471
1040
371.545827
1040
286.924893
1040
372.202181
1040
287.498991
1040
372.879878
1040
287.940057
1040
373.510738
1040
288.21124
1071
       16
1005
D2C
1005
D2B
1005
D2A
1005
D29
1005
D28
1005
D27
1005
D26
1005
D25
1005
D50
1005
D4F
1005
D4E
1005
D4D
1005
D4C
1005
D4B
1005
D4A
1005
D49
1071
       22
1070
     0
1070
     1
1071
       25
1040
374.40481
1040
288.196249
1040
374.502951
1040
288.077918
1040
374.561802
1040
287.877253
1040
374.556361
1040
287.569864
1040
374.46071
1040
287.174248
1040
374.268507
1040
286.719278
1040
373.98505
1040
286.233718
1040
373.195965
1040
285.275232
1040
372.237497
1040
284.486117
1040
371.751882
1040
284.202798
1040
371.296984
1040
284.010368
1040
370.901294
1040
283.914863
1040
370.594177
1040
283.909498
1040
370.392927
1040
283.968568
1040
370.275177
1040
284.066476
1040
370.709458
1040
284.142397
1040
371.186428
1040
284.314625
1040
371.68777
1040
284.576545
1040
372.194232
1040
284.918099
1040
372.686363
1040
285.326171
1040
373.145266
1040
285.785089
1040
373.553316
1040
286.277229
1040
373.894843
1040
286.783693
1040
374.156732
1040
287.28503
1040
374.328925
1040
287.761987
1071
       25
1005
D48
1005
D47
1005
D46
1005
D45
1005
D44
1005
D43
1005
D42
1005
D41
1005
D40
1005
D3F
1005
D3E
1005
D3D
1005
D3C
1005
D3B
1005
D51
1005
D52
1005
D53
1005
D54
1005
D55
1005
D56
1005
D57
1005
D58
1005
D59
1005
D5A
1005
D5B
1071
        7
1070
     0
1070
     1
1071
       14
1040
378.723077
1040
290.5
1040
378.095928
1040
288.776923
1040
380.311313
1040
288.776923
1040
377.155205
1040
286.192308
1040
376.175285
1040
283.5
1040
379.397145
1040
286.138462
1040
378.436824
1040
283.5
1040
379.513747
1040
283.5
1040
380.493667
1040
286.192308
1040
381.775285
1040
283.5
1040
382.755205
1040
286.192308
1040
381.524851
1040
288.776923
1040
383.695928
1040
288.776923
1040
384.323077
1040
290.5
1071
       14
1005
CC4
1005
CCF
1005
CCE
1005
CC5
1005
CC7
1005
CC8
1005
CCD
1005
CCC
1005
CCB
1005
CCA
1005
CC9
1005
CC6
1005
CC3
1005
CDC
1071
        7
1070
     0
1070
     1
1071
        4
1040
385.615385
1040
290.5
1040
384.988236
1040
288.776923
1040
390.372851
1040
288.776923
1040
391.0
1040
290.5
1071
        4
1005
CDA
1005
CDB
1005
CD9
1005
CE3
1071
        7
1070
     0
1070
     1
1071
        4
1040
388.452208
1040
283.5
1040
389.236144
1040
285.653846
1040
383.851529
1040
285.653846
1040
383.067593
1040
283.5
1071
        4
1005
CD3
1005
CD4
1005
CD5
1005
CD2
1071
        7
1070
     0
1070
     1
1071
       22
1040
395.452208
1040
283.5
1040
396.941687
1040
287.592308
1040
397.749379
1040
287.592308
1040
398.337331
1040
289.207692
1040
397.529638
1040
289.207692
1040
398.0
1040
290.5
1040
396.923077
1040
290.5
1040
396.452715
1040
289.207692
1040
393.760408
1040
289.207692
1040
394.230769
1040
290.5
1040
393.153846
1040
290.5
1040
392.683485
1040
289.207692
1040
391.875792
1040
289.207692
1040
391.28784
1040
287.592308
1040
392.095533
1040
287.592308
1040
391.703565
1040
286.515385
1040
392.780488
1040
286.515385
1040
393.172456
1040
287.592308
1040
395.864763
1040
287.592308
1040
395.159221
1040
285.653846
1040
391.174606
1040
285.653846
1040
390.39067
1040
283.5
1071
       22
1005
CFB
1005
CFC
1005
CFA
1005
CF9
1005
CF8
1005
CFE
1005
CBC
1005
CDE
1005
CDD
1005
CE2
1005
CDF
1005
CE1
1005
CE0
1005
CD1
1005
CD7
1005
CD0
1005
CBD
1005
CBF
1005
CD6
1005
CD8
1005
CBE
1005
CF0
1071
        7
1070
     0
1070
     1
1071
        6
1040
398.194006
1040
285.115385
1040
397.606055
1040
283.5
1040
401.913747
1040
283.5
1040
403.873587
1040
288.884615
1040
402.796663
1040
288.884615
1040
401.424776
1040
285.115385
1071
        6
1005
D01
1005
CEF
1005
CF3
1005
CF4
1005
CF1
1005
CEE
1071
       23
1070
     0
1070
     1
1071
        4
1040
402.042817
1040
288.884615
1040
400.965894
1040
288.884615
1040
400.181958
1040
286.730769
1040
401.258881
1040
286.730769
1071
        4
1005
CF7
1005
CEB
1005
CF5
1005
CED
1071
       23
1070
     0
1070
     1
1071
        4
1040
400.642817
1040
288.884615
1040
399.565894
1040
288.884615
1040
398.781958
1040
286.730769
1040
399.858881
1040
286.730769
1071
        4
1005
CFD
1005
CEA
1005
CF2
1005
CEC
1071
       23
1070
     0
1070
     1
1071
        4
1040
406.615385
1040
290.5
1040
405.988236
1040
288.776923
1040
409.219005
1040
288.776923
1040
409.846154
1040
290.5
1071
        4
1005
CE9
1005
CFF
1005
CE8
1005
D04
1071
       23
1070
     0
1070
     1
1071
        4
1040
405.753055
1040
288.130769
1040
405.282694
1040
286.838462
1040
408.513463
1040
286.838462
1040
408.983824
1040
288.130769
1071
        4
1005
CE4
1005
D00
1005
CE5
1005
D06
1071
        7
1070
     0
1070
     1
1071
        6
1040
409.452208
1040
283.5
1040
412.0
1040
290.5
1040
410.923077
1040
290.5
1040
409.159221
1040
285.653846
1040
404.851529
1040
285.653846
1040
404.067593
1040
283.5
1071
        6
1005
D05
1005
D02
1005
CE7
1005
CF6
1005
CE6
1005
D03
1070
     0
1070
     1
1040
0.054099
1071
       15
1040
371.248373
1040
289.881409
1040
0.0
1040
373.901118
1040
288.907633
1040
0.0
1040
373.901118
1040
288.907633
1040
0.0
1040
373.901118
1040
288.907633
1040
0.0
1040
373.901118
1040
288.907633
1040
0.0
1040
380.3435
1040
289.82731
1040
0.0
1040
388.247597
1040
289.665014
1040
0.0
1040
386.515192
1040
284.146949
1040
0.0
1040
392.578609
1040
284.255146
1040
0.0
1040
400.536845
1040
284.309245
1040
0.0
1040
401.024083
1040
287.555166
1040
0.0
1040
399.72478
1040
287.609264
1040
0.0
1040
407.358189
1040
289.989606
1040
0.0
1040
407.141639
1040
287.501067
1040
0.0
1040
407.195776
1040
284.471541
1040
0.0
1002
}
  0
TEXT
  5
448D
  8
WAKU
  6
CONTINUOUS
 10
10.0
 20
285.5
 30
0.0
 40
3.0
  1
FNS-70
 41
0.868
  7
STANDARD
 11
10.0
 21
287.0
 31
0.0
 73
     2
  0
TEXT
  5
D570
  8
WAKU
  6
CONTINUOUS
 10
35.0
 20
284.5
 30
0.0
 40
5.0
  1
外動片引き断面詳細図　Ｅタイプ（Fix部硝子溝15mm）
 41
0.913
  7
STANDARD
 11
35.0
 21
287.0
 31
0.0
 73
     2
  0
LINE
  5
10F71
  8
SUNPO
  6
CONTINUOUS
 10
55.5
 20
30.0
 30
0.0
 11
25.0
 21
30.0
 31
0.0
  0
LINE
  5
11DC2
  8
DANMEN
  6
CONTINUOUS
 10
203.134249
 20
155.05
 30
0.0
 11
207.599997
 21
155.05
 31
0.0
  0
LINE
  5
11DC3
  8
DANMEN
  6
CONTINUOUS
 10
204.037291
 20
157.0
 30
0.0
 11
208.46109
 21
157.0
 31
0.0
  0
LINE
  5
11DC4
  8
DANMEN
  6
CONTINUOUS
 10
203.134269
 20
134.949997
 30
0.0
 11
207.599997
 21
134.949997
 31
0.0
  0
LINE
  5
11DC5
  8
DANMEN
  6
CONTINUOUS
 10
204.037291
 20
133.0
 30
0.0
 11
208.46109
 21
133.0
 31
0.0
  0
LINE
  5
11DC6
  8
DANMEN
  6
CONTINUOUS
 10
181.5
 20
94.0
 30
0.0
 11
205.5
 21
94.0
 31
0.0
  0
LINE
  5
11DC7
  8
DANMEN
  6
CONTINUOUS
 10
181.5
 20
164.0
 30
0.0
 11
205.5
 21
164.0
 31
0.0
  0
LINE
  5
11DC8
  8
DANMEN
  6
CONTINUOUS
 10
193.0
 20
95.649994
 30
0.0
 11
205.5
 21
95.649994
 31
0.0
  0
LINE
  5
11DC9
  8
DANMEN
  6
CONTINUOUS
 10
193.0
 20
162.350006
 30
0.0
 11
205.5
 21
162.350006
 31
0.0
  0
LINE
  5
11DCA
  8
DANMEN
  6
CONTINUOUS
 10
191.0
 20
157.0
 30
0.0
 11
263.0
 21
157.0
 31
0.0
  0
LINE
  5
11DCB
  8
DANMEN
  6
CONTINUOUS
 10
203.5
 20
130.0
 30
0.0
 11
263.0
 21
130.0
 31
0.0
  0
LINE
  5
11DCC
  8
DANMEN
  6
CONTINUOUS
 10
191.0
 20
137.5
 30
0.0
 11
207.0
 21
137.5
 31
0.0
  0
LINE
  5
11DCD
  8
DANMEN
  6
CONTINUOUS
 10
191.0
 20
146.5
 30
0.0
 11
207.0
 21
146.5
 31
0.0
  0
LINE
  5
11DCE
  8
DANMEN
  6
CONTINUOUS
 10
191.0
 20
151.5
 30
0.0
 11
207.0
 21
151.5
 31
0.0
  0
LINE
  5
11DCF
  8
DANMEN
  6
CONTINUOUS
 10
191.0
 20
105.0
 30
0.0
 11
263.0
 21
105.0
 31
0.0
  0
LINE
  5
11DD4
  8
DANMEN
  6
CONTINUOUS
 10
189.350006
 20
162.350006
 30
0.0
 11
189.350006
 21
95.649994
 31
0.0
  0
LINE
  5
11DD5
  8
DANMEN
  6
CONTINUOUS
 10
191.0
 20
126.5
 30
0.0
 11
191.0
 21
95.1
 31
0.0
  0
LINE
  5
11DD6
  8
DANMEN
  6
CONTINUOUS
 10
45.0
 20
169.0
 30
0.0
 11
45.0
 21
42.765549
 31
0.0
  0
LINE
  5
11DD7
  8
DANMEN
  6
CONTINUOUS
 10
76.0
 20
169.0
 30
0.0
 11
76.0
 21
87.5
 31
0.0
  0
LINE
  5
11DD8
  8
DANMEN
  6
CONTINUOUS
 10
52.0
 20
169.0
 30
0.0
 11
52.0
 21
59.0
 31
0.0
  0
LINE
  5
11DD9
  8
DANMEN
  6
CONTINUOUS
 10
46.649994
 20
169.0
 30
0.0
 11
46.649994
 21
41.0
 31
0.0
  0
LINE
  5
11DDA
  8
DANMEN
  6
CONTINUOUS
 10
78.5
 20
169.0
 30
0.0
 11
78.5
 21
99.0
 31
0.0
  0
LINE
  5
11DDB
  8
DANMEN
  6
DASHED
 10
81.5
 20
169.0
 30
0.0
 11
81.5
 21
99.0
 31
0.0
  0
LINE
  5
11DDC
  8
DANMEN
  6
CONTINUOUS
 10
96.499986
 20
92.0
 30
0.0
 11
96.499986
 21
169.0
 31
0.0
  0
LINE
  5
11DDD
  8
DANMEN
  6
CONTINUOUS
 10
91.499998
 20
92.0
 30
0.0
 11
91.499998
 21
169.0
 31
0.0
  0
LINE
  5
11DDE
  8
DANMEN
  6
CONTINUOUS
 10
91.999998
 20
92.0
 30
0.0
 11
91.999998
 21
169.0
 31
0.0
  0
LINE
  5
11DDF
  8
DANMEN
  6
CONTINUOUS
 10
95.999986
 20
92.0
 30
0.0
 11
95.999986
 21
169.0
 31
0.0
  0
LINE
  5
11DE0
  8
DANMEN
  6
CONTINUOUS
 10
84.0
 20
169.0
 30
0.0
 11
84.0
 21
99.0
 31
0.0
  0
LINE
  5
11DE1
  8
DANMEN
  6
CONTINUOUS
 10
104.0
 20
169.0
 30
0.0
 11
104.0
 21
99.0
 31
0.0
  0
LINE
  5
11DE2
  8
DANMEN
  6
CONTINUOUS
 10
102.000015
 20
169.0
 30
0.0
 11
102.000015
 21
99.0
 31
0.0
  0
LINE
  5
11DE3
  8
DANMEN
  6
CONTINUOUS
 10
85.999985
 20
169.0
 30
0.0
 11
85.999985
 21
99.0
 31
0.0
  0
LINE
  5
11DE4
  8
DANMEN
  6
CONTINUOUS
 10
111.0
 20
169.0
 30
0.0
 11
111.0
 21
94.0
 31
0.0
  0
LINE
  5
11DE5
  8
DANMEN
  6
CONTINUOUS
 10
143.0
 20
169.0
 30
0.0
 11
143.0
 21
119.497915
 31
0.0
  0
LINE
  5
11DE6
  8
DANMEN
  6
CONTINUOUS
 10
97.55285
 20
63.664289
 30
0.0
 11
71.943326
 21
52.392373
 31
0.0
  0
LINE
  5
11DE7
  8
DANMEN
  6
CONTINUOUS
 10
96.5
 20
65.003636
 30
0.0
 11
71.5
 21
54.0
 31
0.0
  0
LINE
  5
11DEB
  8
DANMEN
  6
CONTINUOUS
 10
58.5
 20
39.0
 30
0.0
 11
115.0
 21
39.0
 31
0.0
  0
LINE
  5
11DEC
  8
DANMEN
  6
CONTINUOUS
 10
68.0
 20
59.0
 30
0.0
 11
76.0
 21
59.0
 31
0.0
  0
LINE
  5
11DED
  8
DANMEN
  6
CONTINUOUS
 10
57.0
 20
39.0
 30
0.0
 11
57.0
 21
30.5
 31
0.0
  0
LINE
  5
11DEE
  8
DANMEN
  6
CONTINUOUS
 10
58.5
 20
39.649994
 30
0.0
 11
58.5
 21
30.5
 31
0.0
  0
ARC
  5
11DEF
  8
DANMEN
  6
CONTINUOUS
 10
57.5
 20
30.5
 30
0.0
 40
0.5
 50
180.000019
 51
270.000001
  0
LINE
  5
11DF3
  8
DANMEN
  6
CONTINUOUS
 10
57.5
 20
30.0
 30
0.0
 11
58.0
 21
30.0
 31
0.0
  0
ARC
  5
11DF5
  8
DANMEN
  6
CONTINUOUS
 10
58.0
 20
30.5
 30
0.0
 40
0.5
 50
270.000018
 51
0.0
  0
LINE
  5
11DF6
  8
DANMEN
  6
CONTINUOUS
 10
60.0
 20
104.499985
 30
0.0
 11
60.0
 21
68.499985
 31
0.0
  0
LINE
  5
11DF7
  8
DANMEN
  6
CONTINUOUS
 10
68.0
 20
104.5
 30
0.0
 11
68.0
 21
68.499985
 31
0.0
  0
LINE
  5
11DF8
  8
DANMEN
  6
CONTINUOUS
 10
60.5
 20
109.0
 30
0.0
 11
60.5
 21
64.0
 31
0.0
  0
LINE
  5
11DF9
  8
DANMEN
  6
CONTINUOUS
 10
67.5
 20
109.0
 30
0.0
 11
67.5
 21
64.0
 31
0.0
  0
LINE
  5
11DFA
  8
DANMEN
  6
CONTINUOUS
 10
66.0
 20
109.0
 30
0.0
 11
66.0
 21
64.0
 31
0.0
  0
LINE
  5
11DFB
  8
DANMEN
  6
CONTINUOUS
 10
62.0
 20
109.0
 30
0.0
 11
62.0
 21
64.0
 31
0.0
  0
ARC
  5
11DFD
  8
DANMEN
  6
CONTINUOUS
 10
58.00999
 20
52.0
 30
0.0
 40
2.0
 50
90.0
 51
118.610582
  0
LINE
  5
11DFE
  8
DANMEN
  6
CONTINUOUS
 10
53.649994
 20
40.649994
 30
0.0
 11
57.5
 21
40.649994
 31
0.0
  0
LINE
  5
11DFF
  8
DANMEN
  6
CONTINUOUS
 10
57.920742
 20
52.35
 30
0.0
 11
53.649994
 21
50.020489
 31
0.0
  0
LINE
  5
11E00
  8
DANMEN
  6
CONTINUOUS
 10
52.0
 20
50.406353
 30
0.0
 11
52.0
 21
41.0
 31
0.0
  0
LINE
  5
11E01
  8
DANMEN
  6
CONTINUOUS
 10
53.649994
 20
50.020489
 30
0.0
 11
53.649994
 21
40.649994
 31
0.0
  0
LINE
  5
11E02
  8
DANMEN
  6
CONTINUOUS
 10
42.276393
 20
42.661806
 30
0.0
 11
45.0
 21
41.300003
 31
0.0
  0
LINE
  5
11E03
  8
DANMEN
  6
CONTINUOUS
 10
43.199997
 20
43.429842
 30
0.0
 11
45.823607
 21
42.118037
 31
0.0
  0
LINE
  5
11E04
  8
DANMEN
  6
CONTINUOUS
 10
46.1
 20
41.0
 30
0.0
 11
52.0
 21
41.0
 31
0.0
  0
LINE
  5
11E05
  8
DANMEN
  6
CONTINUOUS
 10
45.800003
 20
39.9
 30
0.0
 11
52.0
 21
39.9
 31
0.0
  0
LINE
  5
11E06
  8
DANMEN
  6
CONTINUOUS
 10
45.570786
 20
39.0
 30
0.0
 11
52.33287
 21
39.0
 31
0.0
  0
ARC
  5
11E07
  8
DANMEN
  6
CONTINUOUS
 10
45.399994
 20
39.399994
 30
0.0
 40
0.4
 50
180.000019
 51
359.999983
  0
LINE
  5
11E08
  8
DANMEN
  6
CONTINUOUS
 10
45.0
 20
41.300003
 30
0.0
 11
45.0
 21
39.399994
 31
0.0
  0
LINE
  5
11E0D
  8
DANMEN
  6
CONTINUOUS
 10
45.800003
 20
39.9
 30
0.0
 11
45.800003
 21
39.399994
 31
0.0
  0
LINE
  5
11E0F
  8
DANMEN
  6
CONTINUOUS
 10
46.1
 20
41.670823
 30
0.0
 11
46.1
 21
41.0
 31
0.0
  0
ARC
  5
11E10
  8
DANMEN
  6
CONTINUOUS
 10
45.6
 20
41.670823
 30
0.0
 40
0.5
 50
0.0
 51
63.434949
  0
LINE
  5
11E14
  8
DANMEN
  6
CONTINUOUS
 10
52.5
 20
39.0
 30
0.0
 11
57.0
 21
39.0
 31
0.0
  0
ARC
  5
11E16
  8
DANMEN
  6
CONTINUOUS
 10
52.5
 20
39.5
 30
0.0
 40
0.5
 50
180.000019
 51
270.000001
  0
LINE
  5
11E17
  8
DANMEN
  6
CONTINUOUS
 10
52.0
 20
39.9
 30
0.0
 11
52.0
 21
39.5
 31
0.0
  0
LINE
  5
11E1C
  8
DANMEN
  6
CONTINUOUS
 10
42.0
 20
48.399994
 30
0.0
 11
42.0
 21
43.10902
 31
0.0
  0
LINE
  5
11E1D
  8
DANMEN
  6
CONTINUOUS
 10
43.199997
 20
48.399994
 30
0.0
 11
43.199997
 21
43.429842
 31
0.0
  0
ARC
  5
11E1E
  8
DANMEN
  6
CONTINUOUS
 10
42.600006
 20
48.399994
 30
0.0
 40
0.6
 50
0.0
 51
180.000019
  0
ARC
  5
11E20
  8
DANMEN
  6
CONTINUOUS
 10
42.5
 20
43.10902
 30
0.0
 40
0.5
 50
180.0
 51
243.434949
  0
LINE
  5
11E24
  8
DANMEN
  6
CONTINUOUS
 10
57.052282
 20
53.755789
 30
0.0
 11
52.521146
 21
51.284248
 31
0.0
  0
ARC
  5
11E26
  8
DANMEN
  6
CONTINUOUS
 10
53.0
 20
50.406353
 30
0.0
 40
1.0
 50
118.610582
 51
180.0
  0
ARC
  5
11E29
  8
DANMEN
  6
CONTINUOUS
 10
57.5
 20
39.649994
 30
0.0
 40
1.0
 50
0.0
 51
89.999982
  0
LINE
  5
11E2A
  8
DANMEN
  6
CONTINUOUS
 10
65.2
 20
52.3
 30
0.0
 11
66.8
 21
52.3
 31
0.0
  0
LINE
  5
11E2B
  8
DANMEN
  6
CONTINUOUS
 10
57.920742
 20
52.35
 30
0.0
 11
61.7
 21
52.35
 31
0.0
  0
ARC
  5
11E2D
  8
DANMEN
  6
CONTINUOUS
 10
64.6
 20
48.7
 30
0.0
 40
0.3
 50
270.0
 51
0.0
  0
LINE
  5
11E2E
  8
DANMEN
  6
CONTINUOUS
 10
63.460621
 20
48.4
 30
0.0
 11
64.6
 21
48.4
 31
0.0
  0
LINE
  5
11E2F
  8
DANMEN
  6
CONTINUOUS
 10
64.2
 20
50.053939
 30
0.0
 11
64.2
 21
51.3
 31
0.0
  0
LINE
  5
11E30
  8
DANMEN
  6
CONTINUOUS
 10
62.7
 20
49.969694
 30
0.0
 11
62.7
 21
51.35
 31
0.0
  0
ARC
  5
11E31
  8
DANMEN
  6
CONTINUOUS
 10
65.2
 20
51.3
 30
0.0
 40
1.0
 50
90.0
 51
180.0
  0
LINE
  5
11E32
  8
DANMEN
  6
CONTINUOUS
 10
64.9
 20
48.7
 30
0.0
 11
64.9
 21
48.963068
 31
0.0
  0
ARC
  5
11E33
  8
DANMEN
  6
CONTINUOUS
 10
65.2
 20
50.053939
 30
0.0
 40
1.0
 50
180.0
 51
245.375682
  0
ARC
  5
11E34
  8
DANMEN
  6
CONTINUOUS
 10
64.7
 20
48.963068
 30
0.0
 40
0.2
 50
0.0
 51
65.375682
  0
ARC
  5
11E35
  8
DANMEN
  6
CONTINUOUS
 10
64.7
 20
49.969694
 30
0.0
 40
2.0
 50
180.0
 51
231.706523
  0
ARC
  5
11E36
  8
DANMEN
  6
CONTINUOUS
 10
61.7
 20
51.35
 30
0.0
 40
1.0
 50
0.0
 51
90.0
  0
LINE
  5
11E38
  8
DANMEN
  6
CONTINUOUS
 10
67.956524
 20
48.4
 30
0.0
 11
68.601274
 21
46.917076
 31
0.0
  0
ARC
  5
11E39
  8
DANMEN
  6
CONTINUOUS
 10
72.927452
 20
48.252808
 30
0.0
 40
0.5
 50
293.49856
 51
23.49856
  0
ARC
  5
11E3A
  8
DANMEN
  6
CONTINUOUS
 10
69.518344
 20
47.315802
 30
0.0
 40
1.0
 50
203.49856
 51
293.49856
  0
LINE
  5
11E3E
  8
DANMEN
  6
CONTINUOUS
 10
73.126815
 20
47.794273
 30
0.0
 11
69.91707
 21
46.398732
 31
0.0
  0
LINE
  5
11E40
  8
DANMEN
  6
CONTINUOUS
 10
69.3
 20
52.350006
 30
0.0
 11
71.741901
 21
52.350006
 31
0.0
  0
LINE
  5
11E41
  8
DANMEN
  6
CONTINUOUS
 10
69.3
 20
49.448185
 30
0.0
 11
69.855268
 21
48.171069
 31
0.0
  0
ARC
  5
11E43
  8
DANMEN
  6
CONTINUOUS
 10
67.4
 20
48.7
 30
0.0
 40
0.3
 50
180.0
 51
270.0
  0
LINE
  5
11E44
  8
DANMEN
  6
CONTINUOUS
 10
67.4
 20
48.4
 30
0.0
 11
67.956524
 21
48.4
 31
0.0
  0
ARC
  5
11E45
  8
DANMEN
  6
CONTINUOUS
 10
66.8
 20
51.3
 30
0.0
 40
1.0
 50
0.0
 51
90.0
  0
LINE
  5
11E46
  8
DANMEN
  6
CONTINUOUS
 10
67.8
 20
50.053939
 30
0.0
 11
67.8
 21
51.3
 31
0.0
  0
LINE
  5
11E47
  8
DANMEN
  6
CONTINUOUS
 10
69.3
 20
49.448185
 30
0.0
 11
69.3
 21
52.350006
 31
0.0
  0
ARC
  5
11E48
  8
DANMEN
  6
CONTINUOUS
 10
67.3
 20
48.963068
 30
0.0
 40
0.2
 50
114.624318
 51
180.0
  0
ARC
  5
11E49
  8
DANMEN
  6
CONTINUOUS
 10
66.8
 20
50.053939
 30
0.0
 40
1.0
 50
294.624318
 51
0.0
  0
LINE
  5
11E4A
  8
DANMEN
  6
CONTINUOUS
 10
67.1
 20
48.7
 30
0.0
 11
67.1
 21
48.963068
 31
0.0
  0
ARC
  5
11E4E
  8
DANMEN
  6
CONTINUOUS
 10
71.741901
 20
52.850006
 30
0.0
 40
0.5
 50
270.0
 51
293.756476
  0
LINE
  5
11E4F
  8
DANMEN
  6
CONTINUOUS
 10
72.468917
 20
49.307438
 30
0.0
 11
69.855268
 21
48.171069
 31
0.0
  0
LINE
  5
11E50
  8
DANMEN
  6
CONTINUOUS
 10
73.126816
 20
49.048266
 30
0.0
 11
73.385987
 21
48.452171
 31
0.0
  0
ARC
  5
11E51
  8
DANMEN
  6
CONTINUOUS
 10
72.66828
 20
48.848903
 30
0.0
 40
0.5
 50
23.49856
 51
113.49856
  0
LINE
  5
11E56
  8
DANMEN
  6
CONTINUOUS
 10
55.649997
 20
59.0
 30
0.0
 11
60.0
 21
59.0
 31
0.0
  0
LINE
  5
11E59
  8
DANMEN
  6
CONTINUOUS
 10
52.0
 20
59.0
 30
0.0
 11
54.699999
 21
59.0
 31
0.0
  0
ARC
  5
11E6D
  8
DANMEN
  6
CONTINUOUS
 10
64.0
 20
63.0
 30
0.0
 40
3.0
 50
48.189683
 51
131.810302
  0
ARC
  5
11E6E
  8
DANMEN
  6
CONTINUOUS
 10
63.0
 20
65.29129
 30
0.0
 40
0.5
 50
113.578068
 51
179.999745
  0
ARC
  5
11E6F
  8
DANMEN
  6
CONTINUOUS
 10
65.0
 20
65.29129
 30
0.0
 40
0.5
 50
0.000279
 51
66.42195
  0
ARC
  5
11E70
  8
DANMEN
  6
CONTINUOUS
 10
64.0
 20
65.0
 30
0.0
 40
4.0
 50
0.0
 51
180.000019
  0
LINE
  5
11E71
  8
DANMEN
  6
CONTINUOUS
 10
65.5
 20
54.0
 30
0.0
 11
71.5
 21
54.0
 31
0.0
  0
LINE
  5
11E72
  8
DANMEN
  6
CONTINUOUS
 10
65.5
 20
65.29129
 30
0.0
 11
65.5
 21
54.0
 31
0.0
  0
LINE
  5
11E73
  8
DANMEN
  6
CONTINUOUS
 10
63.850006
 20
61.847046
 30
0.0
 11
63.850006
 21
54.0
 31
0.0
  0
LINE
  5
11E74
  8
DANMEN
  6
CONTINUOUS
 10
60.0
 20
65.0
 30
0.0
 11
60.0
 21
59.0
 31
0.0
  0
LINE
  5
11E75
  8
DANMEN
  6
CONTINUOUS
 10
58.00999
 20
54.0
 30
0.0
 11
63.850006
 21
54.0
 31
0.0
  0
LINE
  5
11E79
  8
DANMEN
  6
CONTINUOUS
 10
60.5
 20
64.0
 30
0.0
 11
62.0
 21
64.0
 31
0.0
  0
LINE
  5
11E7A
  8
DANMEN
  6
CONTINUOUS
 10
62.5
 20
65.29129
 30
0.0
 11
62.5
 21
64.152954
 31
0.0
  0
LINE
  5
11E7D
  8
DANMEN
  6
CONTINUOUS
 10
63.764431
 20
62.126784
 30
0.0
 11
62.585579
 21
63.873223
 31
0.0
  0
ARC
  5
11E7E
  8
DANMEN
  6
CONTINUOUS
 10
63.350006
 20
61.847046
 30
0.0
 40
0.5
 50
0.000664
 51
34.020021
  0
ARC
  5
11E7F
  8
DANMEN
  6
CONTINUOUS
 10
63.0
 20
64.152954
 30
0.0
 40
0.5
 50
180.000309
 51
214.019733
  0
LINE
  5
11E80
  8
DANMEN
  6
CONTINUOUS
 10
68.0
 20
65.0
 30
0.0
 11
68.0
 21
59.0
 31
0.0
  0
LINE
  5
11E82
  8
DANMEN
  6
CONTINUOUS
 10
66.0
 20
64.0
 30
0.0
 11
67.5
 21
64.0
 31
0.0
  0
LINE
  5
11E84
  8
DANMEN
  6
CONTINUOUS
 10
59.999959
 20
68.499942
 30
0.0
 11
60.49996
 21
67.999941
 31
0.0
  0
ARC
  5
11E8A
  8
DANMEN
  6
CONTINUOUS
 10
64.0
 20
63.0
 30
0.0
 40
3.0
 50
66.421841
 51
113.578178
  0
LINE
  5
11E93
  8
DANMEN
  6
CONTINUOUS
 10
67.499925
 20
67.99994
 30
0.0
 11
67.999925
 21
68.499939
 31
0.0
  0
ARC
  5
11EBC
  8
DANMEN
  6
CONTINUOUS
 10
64.0
 20
110.5
 30
0.0
 40
3.5
 50
235.150098
 51
304.84989
  0
LINE
  5
11EBD
  8
DANMEN
  6
CONTINUOUS
 10
59.999965
 20
104.499879
 30
0.0
 11
60.499965
 21
104.99988
 31
0.0
  0
LINE
  5
11EBE
  8
DANMEN
  6
CONTINUOUS
 10
60.5
 20
109.0
 30
0.0
 11
62.0
 21
109.0
 31
0.0
  0
LINE
  5
11EC3
  8
DANMEN
  6
CONTINUOUS
 10
67.499938
 20
104.999912
 30
0.0
 11
67.999938
 21
104.499912
 31
0.0
  0
LINE
  5
11EC5
  8
DANMEN
  6
CONTINUOUS
 10
66.0
 20
109.0
 30
0.0
 11
67.5
 21
109.0
 31
0.0
  0
LINE
  5
11EE5
  8
DANMEN
  6
CONTINUOUS
 10
143.881386
 20
113.846997
 30
0.0
 11
112.517555
 21
110.997915
 31
0.0
  0
LINE
  5
11EE6
  8
DANMEN
  6
CONTINUOUS
 10
114.517555
 20
119.497915
 30
0.0
 11
145.217555
 21
119.497915
 31
0.0
  0
LINE
  5
11EE7
  8
DANMEN
  6
CONTINUOUS
 10
77.0826
 20
78.320122
 30
0.0
 11
77.780718
 21
77.0
 31
0.0
  0
LINE
  5
11EE8
  8
DANMEN
  6
CONTINUOUS
 10
76.8174
 20
78.179877
 30
0.0
 11
77.6
 21
76.7
 31
0.0
  0
ARC
  5
11EE9
  8
DANMEN
  6
CONTINUOUS
 10
76.282155
 20
77.336342
 30
0.0
 40
0.25
 50
179.716853
 51
357.49922
  0
LINE
  5
11EEA
  8
DANMEN
  6
CONTINUOUS
 10
79.0
 20
78.7
 30
0.0
 11
79.0
 21
77.0
 31
0.0
  0
LINE
  5
11EEB
  8
DANMEN
  6
CONTINUOUS
 10
80.2
 20
78.7
 30
0.0
 11
80.2
 21
77.0
 31
0.0
  0
LINE
  5
11EEC
  8
DANMEN
  6
CONTINUOUS
 10
96.5
 20
77.2
 30
0.0
 11
96.5
 21
65.003636
 31
0.0
  0
LINE
  5
11EED
  8
DANMEN
  6
CONTINUOUS
 10
81.500003
 20
81.0
 30
0.0
 11
81.500003
 21
74.8
 31
0.0
  0
LINE
  5
11EEE
  8
DANMEN
  6
CONTINUOUS
 10
82.5
 20
80.2
 30
0.0
 11
82.5
 21
74.5
 31
0.0
  0
LINE
  5
11EEF
  8
DANMEN
  6
CONTINUOUS
 10
103.2
 20
75.666295
 30
0.0
 11
103.2
 21
79.35
 31
0.0
  0
ARC
  5
11EF0
  8
DANMEN
  6
CONTINUOUS
 10
99.2
 20
76.3
 30
0.0
 40
1.0
 50
90.0
 51
180.0
  0
ARC
  5
11EF1
  8
DANMEN
  6
CONTINUOUS
 10
100.7
 20
76.3
 30
0.0
 40
1.0
 50
0.0
 51
90.0
  0
ARC
  5
11EF2
  8
DANMEN
  6
CONTINUOUS
 10
85.0
 20
78.2
 30
0.0
 40
1.0
 50
180.0
 51
270.0
  0
LINE
  5
11EF3
  8
DANMEN
  6
CONTINUOUS
 10
96.5
 20
77.2
 30
0.0
 11
95.5
 21
76.5
 31
0.0
  0
LINE
  5
11EF4
  8
DANMEN
  6
CONTINUOUS
 10
89.5
 20
76.5
 30
0.0
 11
88.5
 21
77.2
 31
0.0
  0
LINE
  5
11EF5
  8
DANMEN
  6
CONTINUOUS
 10
115.0
 20
98.5
 30
0.0
 11
115.0
 21
64.5
 31
0.0
  0
LINE
  5
11EF6
  8
DANMEN
  6
CONTINUOUS
 10
113.350006
 20
79.35
 30
0.0
 11
113.350006
 21
67.08182
 31
0.0
  0
LINE
  5
11EF9
  8
DANMEN
  6
CONTINUOUS
 10
89.5
 20
76.5
 30
0.0
 11
95.5
 21
76.5
 31
0.0
  0
LINE
  5
11EFA
  8
DANMEN
  6
CONTINUOUS
 10
76.0
 20
74.500007
 30
0.0
 11
76.0
 21
59.0
 31
0.0
  0
LINE
  5
11EFB
  8
DANMEN
  6
CONTINUOUS
 10
79.5
 20
74.0
 30
0.0
 11
82.000003
 21
74.0
 31
0.0
  0
LINE
  5
11EFC
  8
DANMEN
  6
CONTINUOUS
 10
77.6
 20
76.7
 30
0.0
 11
78.4
 21
76.7
 31
0.0
  0
LINE
  5
11EFD
  8
DANMEN
  6
CONTINUOUS
 10
77.780719
 20
77.0
 30
0.0
 11
79.0
 21
77.0
 31
0.0
  0
ARC
  5
11F08
  8
DANMEN
  6
CONTINUOUS
 10
78.599999
 20
75.399999
 30
0.0
 40
0.2
 50
180.000019
 51
270.000001
  0
LINE
  5
11F0A
  8
DANMEN
  6
CONTINUOUS
 10
78.4
 20
76.7
 30
0.0
 11
78.4
 21
75.399999
 31
0.0
  0
LINE
  5
11F0D
  8
DANMEN
  6
CONTINUOUS
 10
79.0
 20
76.199999
 30
0.0
 11
80.0
 21
76.199999
 31
0.0
  0
LINE
  5
11F0F
  8
DANMEN
  6
CONTINUOUS
 10
78.599999
 20
75.199999
 30
0.0
 11
79.0
 21
75.199999
 31
0.0
  0
LINE
  5
11F10
  8
DANMEN
  6
CONTINUOUS
 10
80.0
 20
76.199999
 30
0.0
 11
80.0
 21
75.199999
 31
0.0
  0
LINE
  5
11F11
  8
DANMEN
  6
CONTINUOUS
 10
80.2
 20
77.0
 30
0.0
 11
81.0
 21
76.2
 31
0.0
  0
LINE
  5
11F13
  8
DANMEN
  6
CONTINUOUS
 10
81.0
 20
76.199999
 30
0.0
 11
81.0
 21
75.199999
 31
0.0
  0
ARC
  5
11F14
  8
DANMEN
  6
CONTINUOUS
 10
80.2
 20
75.199999
 30
0.0
 40
0.2
 50
180.000019
 51
270.000001
  0
ARC
  5
11F16
  8
DANMEN
  6
CONTINUOUS
 10
80.8
 20
75.199999
 30
0.0
 40
0.2
 50
270.000018
 51
0.0
  0
LINE
  5
11F18
  8
DANMEN
  6
CONTINUOUS
 10
79.0
 20
76.199999
 30
0.0
 11
79.0
 21
75.199999
 31
0.0
  0
LINE
  5
11F19
  8
DANMEN
  6
CONTINUOUS
 10
80.2
 20
75.0
 30
0.0
 11
80.8
 21
75.0
 31
0.0
  0
LINE
  5
11F1A
  8
DANMEN
  6
CONTINUOUS
 10
79.0
 20
75.699997
 30
0.0
 11
79.0
 21
74.5
 31
0.0
  0
LINE
  5
11F1B
  8
DANMEN
  6
CONTINUOUS
 10
79.800003
 20
76.199997
 30
0.0
 11
79.800003
 21
74.8
 31
0.0
  0
ARC
  5
11F1C
  8
DANMEN
  6
CONTINUOUS
 10
79.5
 20
74.5
 30
0.0
 40
0.5
 50
180.000019
 51
270.000001
  0
ARC
  5
11F1D
  8
DANMEN
  6
CONTINUOUS
 10
79.5
 20
75.699997
 30
0.0
 40
0.5
 50
89.999982
 51
180.000019
  0
LINE
  5
11F1E
  8
DANMEN
  6
CONTINUOUS
 10
79.5
 20
76.199997
 30
0.0
 11
79.800003
 21
76.199997
 31
0.0
  0
LINE
  5
11F1F
  8
DANMEN
  6
CONTINUOUS
 10
79.800003
 20
74.8
 30
0.0
 11
81.5
 21
74.8
 31
0.0
  0
ARC
  5
11F25
  8
DANMEN
  6
CONTINUOUS
 10
82.0
 20
74.5
 30
0.0
 40
0.5
 50
270.000018
 51
0.0
  0
LINE
  5
11F28
  8
DANMEN
  6
CONTINUOUS
 10
98.15
 20
71.3
 30
0.0
 11
98.15
 21
64.579555
 31
0.0
  0
ARC
  5
11F29
  8
DANMEN
  6
CONTINUOUS
 10
97.15
 20
64.579555
 30
0.0
 40
1.0
 50
293.756476
 51
0.0
  0
ARC
  5
11F2B
  8
DANMEN
  6
CONTINUOUS
 10
99.2
 20
74.8
 30
0.0
 40
1.0
 50
180.0
 51
270.0
  0
ARC
  5
11F2C
  8
DANMEN
  6
CONTINUOUS
 10
99.15
 20
71.3
 30
0.0
 40
1.0
 50
90.0
 51
180.0
  0
LINE
  5
11F2D
  8
DANMEN
  6
CONTINUOUS
 10
98.2
 20
74.8
 30
0.0
 11
98.2
 21
76.3
 31
0.0
  0
ARC
  5
11F30
  8
DANMEN
  6
CONTINUOUS
 10
102.45
 20
75.666295
 30
0.0
 40
0.75
 50
180.0
 51
0.0
  0
LINE
  5
11F31
  8
DANMEN
  6
CONTINUOUS
 10
101.7
 20
75.666295
 30
0.0
 11
101.7
 21
76.3
 31
0.0
  0
LINE
  5
11F32
  8
DANMEN
  6
CONTINUOUS
 10
99.2
 20
73.8
 30
0.0
 11
99.833705
 21
73.8
 31
0.0
  0
LINE
  5
11F33
  8
DANMEN
  6
CONTINUOUS
 10
99.15
 20
72.3
 30
0.0
 11
99.833705
 21
72.3
 31
0.0
  0
ARC
  5
11F34
  8
DANMEN
  6
CONTINUOUS
 10
99.833705
 20
73.05
 30
0.0
 40
0.75
 50
270.0
 51
90.0
  0
LINE
  5
11F36
  8
DANMEN
  6
CONTINUOUS
 10
115.0
 20
64.345612
 30
0.0
 11
115.0
 21
39.0
 31
0.0
  0
ARC
  5
11F37
  8
DANMEN
  6
CONTINUOUS
 10
110.41465
 20
65.260364
 30
0.0
 40
0.5
 50
113.49856
 51
203.49856
  0
ARC
  5
11F38
  8
DANMEN
  6
CONTINUOUS
 10
114.5
 20
64.5
 30
0.0
 40
0.5
 50
270.0
 51
0.0
  0
ARC
  5
11F39
  8
DANMEN
  6
CONTINUOUS
 10
110.673822
 20
64.664268
 30
0.0
 40
0.5
 50
203.49856
 51
293.49856
  0
LINE
  5
11F3A
  8
DANMEN
  6
CONTINUOUS
 10
110.215287
 20
64.464905
 30
0.0
 11
109.956115
 21
65.061001
 31
0.0
  0
LINE
  5
11F3C
  8
DANMEN
  6
CONTINUOUS
 10
113.9
 20
64.0
 30
0.0
 11
114.5
 21
64.0
 31
0.0
  0
LINE
  5
11F3D
  8
DANMEN
  6
CONTINUOUS
 10
113.9
 20
64.759133
 30
0.0
 11
113.9
 21
64.0
 31
0.0
  0
LINE
  5
11F3F
  8
DANMEN
  6
CONTINUOUS
 10
113.200637
 20
65.217668
 30
0.0
 11
110.873185
 21
64.205733
 31
0.0
  0
ARC
  5
11F40
  8
DANMEN
  6
CONTINUOUS
 10
113.4
 20
64.759133
 30
0.0
 40
0.5
 50
0.0
 51
113.49856
  0
LINE
  5
11F42
  8
DANMEN
  6
CONTINUOUS
 10
113.350006
 20
67.08182
 30
0.0
 11
110.215287
 21
65.718899
 31
0.0
  0
TEXT
  5
11F49
  8
SUNPO
  6
CONTINUOUS
 10
103.364674
 20
114.790488
 30
0.0
 40
2.5
  1
2.5
  0
LINE
  5
11F4A
  8
SUNPO
  6
CONTINUOUS
 10
104.0
 20
113.790488
 30
0.0
 11
109.614674
 21
113.790488
 31
0.0
  0
LINE
  5
11F4B
  8
DANMEN
  6
CONTINUOUS
 10
102.05
 20
81.0
 30
0.0
 11
113.35
 21
81.0
 31
0.0
  0
LINE
  5
11F4C
  8
DANMEN
  6
CONTINUOUS
 10
103.2
 20
79.35
 30
0.0
 11
113.350006
 21
79.35
 31
0.0
  0
LINE
  5
11F4D
  8
DANMEN
  6
CONTINUOUS
 10
102.0
 20
92.2
 30
0.0
 11
113.35
 21
92.2
 31
0.0
  0
LINE
  5
11F4E
  8
DANMEN
  6
CONTINUOUS
 10
104.0
 20
94.0
 30
0.0
 11
113.35
 21
94.0
 31
0.0
  0
ARC
  5
11F4F
  8
DANMEN
  6
DASHED
 10
104.0
 20
99.699997
 30
0.0
 40
0.5
 50
0.0
 51
89.999982
  0
ARC
  5
11F50
  8
DANMEN
  6
DASHED
 10
79.5
 20
99.699997
 30
0.0
 40
0.5
 50
90.0
 51
180.0
  0
ARC
  5
11F51
  8
DANMEN
  6
CONTINUOUS
 10
100.500015
 20
99.999908
 30
0.0
 40
1.5
 50
359.999964
 51
90.000001
  0
ARC
  5
11F52
  8
DANMEN
  6
CONTINUOUS
 10
87.500015
 20
99.999908
 30
0.0
 40
1.5
 50
90.000018
 51
180.0
  0
LINE
  5
11F53
  8
DANMEN
  6
DASHED
 10
100.0
 20
99.0
 30
0.0
 11
88.0
 21
99.0
 31
0.0
  0
LINE
  5
11F54
  8
DANMEN
  6
DASHED
 10
104.0
 20
100.199997
 30
0.0
 11
79.5
 21
100.199997
 31
0.0
  0
LINE
  5
11F55
  8
DANMEN
  6
CONTINUOUS
 10
85.8
 20
79.0
 30
0.0
 11
101.55
 21
79.0
 31
0.0
  0
LINE
  5
11F56
  8
DANMEN
  6
CONTINUOUS
 10
89.0
 20
92.0
 30
0.0
 11
99.0
 21
92.0
 31
0.0
  0
LINE
  5
11F57
  8
DANMEN
  6
CONTINUOUS
 10
99.0
 20
92.0
 30
0.0
 11
89.0
 21
79.0
 31
0.0
  0
LINE
  5
11F58
  8
DANMEN
  6
CONTINUOUS
 10
84.0
 20
98.5
 30
0.0
 11
84.0
 21
82.0
 31
0.0
  0
LINE
  5
11F59
  8
DANMEN
  6
CONTINUOUS
 10
85.8
 20
96.0
 30
0.0
 11
85.8
 21
79.0
 31
0.0
  0
LINE
  5
11F5A
  8
DANMEN
  6
CONTINUOUS
 10
76.0
 20
99.0
 30
0.0
 11
84.0
 21
82.0
 31
0.0
  0
LINE
  5
11F5B
  8
DANMEN
  6
CONTINUOUS
 10
84.0
 20
99.0
 30
0.0
 11
76.0
 21
82.0
 31
0.0
  0
LINE
  5
11F5C
  8
DANMEN
  6
CONTINUOUS
 10
84.0
 20
99.0
 30
0.0
 11
84.0
 21
82.0
 31
0.0
  0
LINE
  5
11F5D
  8
DANMEN
  6
CONTINUOUS
 10
89.0
 20
79.0
 30
0.0
 11
89.0
 21
92.0
 31
0.0
  0
LINE
  5
11F5E
  8
DANMEN
  6
CONTINUOUS
 10
79.5
 20
82.0
 30
0.0
 11
84.0
 21
82.0
 31
0.0
  0
LINE
  5
11F5F
  8
DANMEN
  6
CONTINUOUS
 10
76.0
 20
82.0
 30
0.0
 11
84.0
 21
82.0
 31
0.0
  0
LINE
  5
11F60
  8
DANMEN
  6
CONTINUOUS
 10
77.386229
 20
81.2
 30
0.0
 11
78.2
 21
81.2
 31
0.0
  0
LINE
  5
11F61
  8
DANMEN
  6
CONTINUOUS
 10
77.0
 20
82.0
 30
0.0
 11
79.0
 21
82.0
 31
0.0
  0
ARC
  5
11F63
  8
DANMEN
  6
CONTINUOUS
 10
88.020964
 20
76.823655
 30
0.0
 40
11.5
 50
157.632138
 51
177.49922
  0
ARC
  5
11F69
  8
DANMEN
  6
CONTINUOUS
 10
76.95
 20
78.25
 30
0.0
 40
0.15
 50
27.871157
 51
207.871179
  0
ARC
  5
11F6B
  8
DANMEN
  6
CONTINUOUS
 10
88.032011
 20
77.27827
 30
0.0
 40
12.0
 50
156.828944
 51
179.716853
  0
ARC
  5
11F70
  8
DANMEN
  6
CONTINUOUS
 10
78.6
 20
79.1
 30
0.0
 40
0.4
 50
180.000019
 51
270.000001
  0
LINE
  5
11F72
  8
DANMEN
  6
CONTINUOUS
 10
78.2
 20
81.2
 30
0.0
 11
78.2
 21
79.1
 31
0.0
  0
LINE
  5
11F79
  8
DANMEN
  6
CONTINUOUS
 10
79.0
 20
82.0
 30
0.0
 11
79.0
 21
79.5
 31
0.0
  0
LINE
  5
11F7A
  8
DANMEN
  6
CONTINUOUS
 10
78.6
 20
78.7
 30
0.0
 11
79.0
 21
78.7
 31
0.0
  0
LINE
  5
11F7C
  8
DANMEN
  6
CONTINUOUS
 10
79.0
 20
79.5
 30
0.0
 11
80.0
 21
79.5
 31
0.0
  0
LINE
  5
11F7D
  8
DANMEN
  6
CONTINUOUS
 10
81.0
 20
79.5
 30
0.0
 11
80.2
 21
78.7
 31
0.0
  0
ARC
  5
11F80
  8
DANMEN
  6
CONTINUOUS
 10
80.2
 20
80.5
 30
0.0
 40
0.2
 50
89.999982
 51
180.000019
  0
ARC
  5
11F82
  8
DANMEN
  6
CONTINUOUS
 10
80.8
 20
80.5
 30
0.0
 40
0.2
 50
0.0
 51
89.999982
  0
LINE
  5
11F84
  8
DANMEN
  6
CONTINUOUS
 10
80.0
 20
80.5
 30
0.0
 11
80.0
 21
79.5
 31
0.0
  0
LINE
  5
11F85
  8
DANMEN
  6
CONTINUOUS
 10
80.2
 20
80.699999
 30
0.0
 11
80.8
 21
80.699999
 31
0.0
  0
LINE
  5
11F86
  8
DANMEN
  6
CONTINUOUS
 10
81.0
 20
80.5
 30
0.0
 11
81.0
 21
79.5
 31
0.0
  0
LINE
  5
11F87
  8
DANMEN
  6
CONTINUOUS
 10
79.0
 20
81.5
 30
0.0
 11
79.0
 21
80.300003
 31
0.0
  0
LINE
  5
11F88
  8
DANMEN
  6
CONTINUOUS
 10
79.5
 20
79.800003
 30
0.0
 11
79.800003
 21
79.800003
 31
0.0
  0
LINE
  5
11F89
  8
DANMEN
  6
CONTINUOUS
 10
79.800003
 20
81.0
 30
0.0
 11
79.800003
 21
79.800003
 31
0.0
  0
ARC
  5
11F8A
  8
DANMEN
  6
CONTINUOUS
 10
79.5
 20
80.300003
 30
0.0
 40
0.5
 50
180.000019
 51
270.000001
  0
LINE
  5
11F8B
  8
DANMEN
  6
CONTINUOUS
 10
79.800003
 20
81.0
 30
0.0
 11
81.5
 21
81.0
 31
0.0
  0
ARC
  5
11F8C
  8
DANMEN
  6
CONTINUOUS
 10
79.5
 20
81.5
 30
0.0
 40
0.5
 50
89.999982
 51
180.000019
  0
LINE
  5
11F98
  8
DANMEN
  6
CONTINUOUS
 10
85.0
 20
77.2
 30
0.0
 11
88.5
 21
77.2
 31
0.0
  0
LINE
  5
11F99
  8
DANMEN
  6
CONTINUOUS
 10
84.0
 20
78.2
 30
0.0
 11
84.0
 21
80.2
 31
0.0
  0
LINE
  5
11F9C
  8
DANMEN
  6
CONTINUOUS
 10
82.5
 20
80.2
 30
0.0
 11
84.0
 21
80.2
 31
0.0
  0
LINE
  5
11FA3
  8
DANMEN
  6
DASHED
 10
86.5
 20
99.0
 30
0.0
 11
80.714146
 21
99.0
 31
0.0
  0
LINE
  5
11FA4
  8
DANMEN
  6
CONTINUOUS
 10
76.0
 20
99.0
 30
0.0
 11
84.0
 21
99.0
 31
0.0
  0
ARC
  5
11FA5
  8
DANMEN
  6
DASHED
 10
80.714146
 20
98.0
 30
0.0
 40
1.0
 50
89.999982
 51
135.573244
  0
LINE
  5
11FA6
  8
DANMEN
  6
DASHED
 10
80.0
 20
98.699997
 30
0.0
 11
79.5
 21
98.699997
 31
0.0
  0
LINE
  5
11FA7
  8
DANMEN
  6
DASHED
 10
79.0
 20
99.699997
 30
0.0
 11
79.0
 21
99.199997
 31
0.0
  0
ARC
  5
11FA8
  8
DANMEN
  6
DASHED
 10
79.5
 20
99.199997
 30
0.0
 40
0.5
 50
180.0
 51
270.0
  0
LINE
  5
11FAD
  8
DANMEN
  6
DASHED
 10
86.023824
 20
95.382864
 30
0.0
 11
87.423825
 21
92.082833
 31
0.0
  0
LINE
  5
11FAE
  8
DANMEN
  6
DASHED
 10
87.5
 20
94.399997
 30
0.0
 11
87.5
 21
98.5
 31
0.0
  0
LINE
  5
11FAF
  8
DANMEN
  6
DASHED
 10
87.5
 20
94.399997
 30
0.0
 11
87.992312
 21
92.26748
 31
0.0
  0
ARC
  5
11FB0
  8
DANMEN
  6
DASHED
 10
87.7
 20
92.199997
 30
0.0
 40
0.3
 50
202.988532
 51
12.999521
  0
ARC
  5
11FB4
  8
DANMEN
  6
DASHED
 10
86.299999
 20
95.500028
 30
0.0
 40
0.3
 50
124.343976
 51
202.988532
  0
ARC
  5
11FB5
  8
DANMEN
  6
CONTINUOUS
 10
86.0
 20
98.5
 30
0.0
 40
0.5
 50
0.0
 51
90.0
  0
LINE
  5
11FB6
  8
DANMEN
  6
CONTINUOUS
 10
85.8
 20
96.0
 30
0.0
 11
86.5
 21
96.0
 31
0.0
  0
LINE
  5
11FB8
  8
DANMEN
  6
CONTINUOUS
 10
84.5
 20
99.0
 30
0.0
 11
86.0
 21
99.0
 31
0.0
  0
ARC
  5
11FB9
  8
DANMEN
  6
CONTINUOUS
 10
84.5
 20
98.5
 30
0.0
 40
0.5
 50
90.0
 51
180.0
  0
ARC
  5
11FBD
  8
DANMEN
  6
DASHED
 10
88.0
 20
98.5
 30
0.0
 40
0.5
 50
90.0
 51
180.0
  0
LINE
  5
11FBE
  8
DANMEN
  6
DASHED
 10
86.5
 20
99.0
 30
0.0
 11
86.5
 21
96.000035
 31
0.0
  0
LINE
  5
11FBF
  8
DANMEN
  6
DASHED
 10
86.5
 20
96.000035
 30
0.0
 11
86.130743
 21
95.747729
 31
0.0
  0
LINE
  5
11FC3
  8
DANMEN
  6
CONTINUOUS
 10
86.5
 20
98.5
 30
0.0
 11
86.5
 21
96.0
 31
0.0
  0
ARC
  5
11FC6
  8
DANMEN
  6
DASHED
 10
100.3
 20
88.699997
 30
0.0
 40
0.3
 50
167.000479
 51
337.011468
  0
LINE
  5
11FC7
  8
DANMEN
  6
DASHED
 10
101.976176
 20
91.882864
 30
0.0
 11
100.576175
 21
88.582833
 31
0.0
  0
LINE
  5
11FC8
  8
DANMEN
  6
CONTINUOUS
 10
99.0
 20
79.0
 30
0.0
 11
99.0
 21
92.0
 31
0.0
  0
LINE
  5
11FCB
  8
DANMEN
  6
CONTINUOUS
 10
99.2
 20
77.3
 30
0.0
 11
100.7
 21
77.3
 31
0.0
  0
LINE
  5
11FCC
  8
DANMEN
  6
CONTINUOUS
 10
101.55
 20
79.0
 30
0.0
 11
101.55
 21
80.5
 31
0.0
  0
ARC
  5
11FCD
  8
DANMEN
  6
CONTINUOUS
 10
102.05
 20
80.5
 30
0.0
 40
0.5
 50
90.0
 51
180.0
  0
LINE
  5
11FD4
  8
DANMEN
  6
DASHED
 10
101.5
 20
99.0
 30
0.0
 11
101.5
 21
92.500035
 31
0.0
  0
LINE
  5
11FD5
  8
DANMEN
  6
DASHED
 10
100.5
 20
90.899997
 30
0.0
 11
100.5
 21
98.5
 31
0.0
  0
LINE
  5
11FD6
  8
DANMEN
  6
CONTINUOUS
 10
104.0
 20
98.0
 30
0.0
 11
104.0
 21
94.0
 31
0.0
  0
LINE
  5
11FD7
  8
DANMEN
  6
CONTINUOUS
 10
102.35
 20
93.2
 30
0.0
 11
102.35
 21
96.0
 31
0.0
  0
ARC
  5
11FD9
  8
DANMEN
  6
DASHED
 10
101.700001
 20
92.000028
 30
0.0
 40
0.3
 50
337.011468
 51
55.656024
  0
LINE
  5
11FDA
  8
DANMEN
  6
DASHED
 10
101.5
 20
92.500035
 30
0.0
 11
101.869257
 21
92.247729
 31
0.0
  0
LINE
  5
11FDB
  8
DANMEN
  6
DASHED
 10
100.5
 20
90.899997
 30
0.0
 11
100.007688
 21
88.76748
 31
0.0
  0
LINE
  5
11FDF
  8
DANMEN
  6
CONTINUOUS
 10
102.0
 20
93.2
 30
0.0
 11
102.35
 21
93.2
 31
0.0
  0
ARC
  5
11FE0
  8
DANMEN
  6
CONTINUOUS
 10
102.0
 20
92.7
 30
0.0
 40
0.5
 50
90.0
 51
270.0
  0
LINE
  5
11FE5
  8
DANMEN
  6
DASHED
 10
101.5
 20
99.0
 30
0.0
 11
104.5
 21
99.0
 31
0.0
  0
LINE
  5
11FE6
  8
DANMEN
  6
CONTINUOUS
 10
102.0
 20
99.0
 30
0.0
 11
105.0
 21
99.0
 31
0.0
  0
ARC
  5
11FE7
  8
DANMEN
  6
DASHED
 10
100.0
 20
98.5
 30
0.0
 40
0.5
 50
0.0
 51
90.0
  0
LINE
  5
11FEA
  8
DANMEN
  6
CONTINUOUS
 10
102.35
 20
96.0
 30
0.0
 11
101.5
 21
96.0
 31
0.0
  0
LINE
  5
11FEB
  8
DANMEN
  6
CONTINUOUS
 10
101.5
 20
98.5
 30
0.0
 11
101.5
 21
96.0
 31
0.0
  0
ARC
  5
11FEC
  8
DANMEN
  6
CONTINUOUS
 10
102.0
 20
98.5
 30
0.0
 40
0.5
 50
89.999981
 51
180.000037
  0
LINE
  5
11FF0
  8
DANMEN
  6
DASHED
 10
104.5
 20
99.0
 30
0.0
 11
104.5
 21
99.699997
 31
0.0
  0
LINE
  5
11FF3
  8
DANMEN
  6
CONTINUOUS
 10
105.0
 20
99.0
 30
0.0
 11
105.0
 21
98.5
 31
0.0
  0
LINE
  5
11FF5
  8
DANMEN
  6
CONTINUOUS
 10
104.0
 20
98.0
 30
0.0
 11
104.5
 21
98.0
 31
0.0
  0
ARC
  5
11FF7
  8
DANMEN
  6
CONTINUOUS
 10
104.5
 20
98.5
 30
0.0
 40
0.5
 50
270.0
 51
0.0
  0
ARC
  5
11FF9
  8
DANMEN
  6
CONTINUOUS
 10
90.000006
 20
102.999908
 30
0.0
 40
1.5
 50
269.999982
 51
359.999964
  0
LINE
  5
11FFA
  8
SUNPO
  6
CONTINUOUS
 10
86.5
 20
113.790488
 30
0.0
 11
101.5
 21
113.790488
 31
0.0
  0
LINE
  5
11FFB
  8
SUNPO
  6
CONTINUOUS
 10
86.5
 20
100.5
 30
0.0
 11
86.5
 21
113.790488
 31
0.0
  0
LINE
  5
11FFC
  8
SUNPO
  6
CONTINUOUS
 10
86.5
 20
100.5
 30
0.0
 11
86.5
 21
113.790488
 31
0.0
  0
LINE
  5
11FFD
  8
DANMEN
  6
CONTINUOUS
 10
84.0
 20
100.5
 30
0.0
 11
84.0
 21
113.790488
 31
0.0
  0
LINE
  5
11FFE
  8
DANMEN
  6
CONTINUOUS
 10
90.000006
 20
101.499908
 30
0.0
 11
87.500015
 21
101.499908
 31
0.0
  0
TEXT
  5
11FFF
  8
SUNPO
  6
CONTINUOUS
 10
80.1669
 20
114.790488
 30
0.0
 40
2.5
  1
2.5
  0
LINE
  5
12000
  8
SUNPO
  6
CONTINUOUS
 10
78.9169
 20
113.790488
 30
0.0
 11
84.0
 21
113.790488
 31
0.0
  0
LINE
  5
12001
  8
SUNPO
  6
CONTINUOUS
 10
84.0
 20
113.790488
 30
0.0
 11
86.5
 21
113.790488
 31
0.0
  0
LINE
  5
12002
  8
SUNPO
  6
CONTINUOUS
 10
84.0
 20
113.790488
 30
0.0
 11
84.0
 21
113.790488
 31
0.0
  0
ARC
  5
12003
  8
SUNPO
  6
BYBLOCK
 10
84.0
 20
113.790488
 30
0.0
 40
0.145
 50
0.0
 51
180.0
  0
ARC
  5
12004
  8
SUNPO
  6
BYBLOCK
 10
84.0
 20
113.790488
 30
0.0
 40
0.145
 50
180.0
 51
0.0
  0
LINE
  5
12005
  8
SUNPO
  6
CONTINUOUS
 10
86.5
 20
113.790488
 30
0.0
 11
86.5
 21
113.790488
 31
0.0
  0
ARC
  5
12006
  8
SUNPO
  6
BYBLOCK
 10
86.5
 20
113.790488
 30
0.0
 40
0.145
 50
180.0
 51
0.0
  0
ARC
  5
12007
  8
SUNPO
  6
BYBLOCK
 10
86.5
 20
113.790488
 30
0.0
 40
0.145
 50
0.0
 51
180.0
  0
ARC
  5
12008
  8
SUNPO
  6
BYBLOCK
 10
86.5
 20
113.790488
 30
0.0
 40
0.145
 50
180.0
 51
0.0
  0
ARC
  5
12009
  8
SUNPO
  6
BYBLOCK
 10
86.5
 20
113.790488
 30
0.0
 40
0.145
 50
0.0
 51
180.0
  0
LINE
  5
1200A
  8
DANMEN
  6
CONTINUOUS
 10
101.5
 20
100.5
 30
0.0
 11
101.5
 21
113.790488
 31
0.0
  0
LINE
  5
1200B
  8
DANMEN
  6
CONTINUOUS
 10
104.0
 20
100.5
 30
0.0
 11
104.0
 21
113.790488
 31
0.0
  0
LINE
  5
1200C
  8
SUNPO
  6
CONTINUOUS
 10
101.5
 20
100.5
 30
0.0
 11
101.5
 21
113.790488
 31
0.0
  0
LINE
  5
1200D
  8
DANMEN
  6
CONTINUOUS
 10
100.500015
 20
101.499908
 30
0.0
 11
98.000009
 21
101.499908
 31
0.0
  0
ARC
  5
1200E
  8
DANMEN
  6
CONTINUOUS
 10
98.000009
 20
102.999908
 30
0.0
 40
1.5
 50
180.0
 51
269.999982
  0
TEXT
  5
1200F
  8
SUNPO
  6
CONTINUOUS
 10
92.333333
 20
114.790488
 30
0.0
 40
2.5
  1
15
  0
LINE
  5
12010
  8
SUNPO
  6
CONTINUOUS
 10
101.5
 20
113.790488
 30
0.0
 11
104.0
 21
113.790488
 31
0.0
  0
LINE
  5
12011
  8
SUNPO
  6
CONTINUOUS
 10
101.5
 20
113.790488
 30
0.0
 11
101.5
 21
113.790488
 31
0.0
  0
ARC
  5
12012
  8
SUNPO
  6
BYBLOCK
 10
101.5
 20
113.790488
 30
0.0
 40
0.145
 50
0.0
 51
180.0
  0
ARC
  5
12013
  8
SUNPO
  6
BYBLOCK
 10
101.5
 20
113.790488
 30
0.0
 40
0.145
 50
180.0
 51
0.0
  0
ARC
  5
12014
  8
SUNPO
  6
BYBLOCK
 10
101.5
 20
113.790488
 30
0.0
 40
0.145
 50
0.0
 51
180.0
  0
ARC
  5
12015
  8
SUNPO
  6
BYBLOCK
 10
101.5
 20
113.790488
 30
0.0
 40
0.145
 50
180.0
 51
0.0
  0
LINE
  5
12016
  8
SUNPO
  6
CONTINUOUS
 10
104.0
 20
113.790488
 30
0.0
 11
104.0
 21
113.790488
 31
0.0
  0
ARC
  5
12017
  8
SUNPO
  6
BYBLOCK
 10
104.0
 20
113.790488
 30
0.0
 40
0.145
 50
180.0
 51
0.0
  0
ARC
  5
12018
  8
SUNPO
  6
BYBLOCK
 10
104.0
 20
113.790488
 30
0.0
 40
0.145
 50
0.0
 51
180.0
  0
LINE
  5
12019
  8
DANMEN
  6
CONTINUOUS
 10
111.31756
 20
111.00832
 30
0.0
 11
111.30001
 21
94.520979
 31
0.0
  0
LINE
  5
1201A
  8
DANMEN
  6
CONTINUOUS
 10
112.517555
 20
111.354639
 30
0.0
 11
112.004224
 21
95.029237
 31
0.0
  0
LINE
  5
1201B
  8
DANMEN
  6
CONTINUOUS
 10
111.017555
 20
110.997915
 30
0.0
 11
111.0
 21
94.5
 31
0.0
  0
LINE
  5
1201C
  8
DANMEN
  6
CONTINUOUS
 10
115.0
 20
111.59407
 30
0.0
 11
115.0
 21
99.0
 31
0.0
  0
LINE
  5
1201D
  8
DANMEN
  6
CONTINUOUS
 10
113.350006
 20
111.197827
 30
0.0
 11
113.350006
 21
99.0
 31
0.0
  0
LINE
  5
1201E
  8
DANMEN
  6
CONTINUOUS
 10
113.35
 20
92.2
 30
0.0
 11
113.35
 21
81.0
 31
0.0
  0
ARC
  5
12021
  8
DANMEN
  6
CONTINUOUS
 10
114.5
 20
98.5
 30
0.0
 40
0.5
 50
0.0
 51
90.0
  0
ARC
  5
12022
  8
DANMEN
  6
CONTINUOUS
 10
111.504277
 20
95.036483
 30
0.0
 40
0.5
 50
274.0
 51
359.16958
  0
LINE
  5
12023
  8
DANMEN
  6
CONTINUOUS
 10
113.35
 20
98.5
 30
0.0
 11
113.35
 21
94.0
 31
0.0
  0
LINE
  5
12027
  8
DANMEN
  6
CONTINUOUS
 10
111.0
 20
94.5
 30
0.0
 11
111.539155
 21
94.537701
 31
0.0
  0
LINE
  5
1202A
  8
DANMEN
  6
CONTINUOUS
 10
113.85
 20
99.0
 30
0.0
 11
114.5
 21
99.0
 31
0.0
  0
ARC
  5
1202B
  8
DANMEN
  6
CONTINUOUS
 10
113.85
 20
98.5
 30
0.0
 40
0.5
 50
90.0
 51
180.0
  0
LINE
  5
1202F
  8
DANMEN
  6
CONTINUOUS
 10
112.517555
 20
117.497915
 30
0.0
 11
112.517555
 21
110.997915
 31
0.0
  0
LINE
  5
12030
  8
DANMEN
  6
CONTINUOUS
 10
111.317555
 20
115.497915
 30
0.0
 11
111.317555
 21
110.987367
 31
0.0
  0
LINE
  5
12031
  8
DANMEN
  6
CONTINUOUS
 10
111.017555
 20
115.497915
 30
0.0
 11
111.017555
 21
110.997915
 31
0.0
  0
ARC
  5
12035
  8
DANMEN
  6
CONTINUOUS
 10
114.517555
 20
117.497915
 30
0.0
 40
2.0
 50
89.999982
 51
180.000019
  0
LINE
  5
12038
  8
DANMEN
  6
CONTINUOUS
 10
111.017555
 20
115.497915
 30
0.0
 11
112.517555
 21
115.497915
 31
0.0
  0
LINE
  5
1203C
  8
DANMEN
  6
CONTINUOUS
 10
145.717555
 20
118.997915
 30
0.0
 11
145.717555
 21
115.840276
 31
0.0
  0
ARC
  5
1203E
  8
DANMEN
  6
CONTINUOUS
 10
143.717555
 20
115.840276
 30
0.0
 40
2.0
 50
274.698681
 51
0.0
  0
ARC
  5
12043
  8
DANMEN
  6
CONTINUOUS
 10
145.217555
 20
118.997915
 30
0.0
 40
0.5
 50
0.0
 51
89.999982
  0
LINE
  5
12045
  8
DANMEN
  6
CONTINUOUS
 10
182.649994
 20
95.649994
 30
0.0
 11
189.350006
 21
95.649994
 31
0.0
  0
ARC
  5
12046
  8
DANMEN
  6
CONTINUOUS
 10
181.5
 20
94.5
 30
0.0
 40
0.5
 50
180.000036
 51
269.999963
  0
LINE
  5
12048
  8
DANMEN
  6
CONTINUOUS
 10
181.5
 20
100.0
 30
0.0
 11
182.149994
 21
100.0
 31
0.0
  0
LINE
  5
12049
  8
DANMEN
  6
CONTINUOUS
 10
181.0
 20
99.5
 30
0.0
 11
181.0
 21
94.5
 31
0.0
  0
LINE
  5
1204A
  8
DANMEN
  6
CONTINUOUS
 10
182.649994
 20
99.5
 30
0.0
 11
182.649994
 21
95.649994
 31
0.0
  0
ARC
  5
1204B
  8
DANMEN
  6
CONTINUOUS
 10
182.149994
 20
99.5
 30
0.0
 40
0.5
 50
359.999981
 51
89.999982
  0
ARC
  5
1204C
  8
DANMEN
  6
CONTINUOUS
 10
181.5
 20
99.5
 30
0.0
 40
0.5
 50
89.999982
 51
180.000019
  0
LINE
  5
12050
  8
DANMEN
  6
CONTINUOUS
 10
191.0
 20
95.1
 30
0.0
 11
193.0
 21
95.1
 31
0.0
  0
LINE
  5
12054
  8
DANMEN
  6
CONTINUOUS
 10
193.0
 20
95.649994
 30
0.0
 11
193.0
 21
95.1
 31
0.0
  0
ARC
  5
12056
  8
DANMEN
  6
CONTINUOUS
 10
73.299985
 20
188.500092
 30
0.0
 40
0.5
 50
270.000018
 51
0.0
  0
ARC
  5
12057
  8
DANMEN
  6
CONTINUOUS
 10
73.299985
 20
230.500092
 30
0.0
 40
0.5
 50
0.0
 51
89.999982
  0
LINE
  5
12058
  8
DANMEN
  6
CONTINUOUS
 10
84.65
 20
251.600012
 30
0.0
 11
66.4
 21
251.600012
 31
0.0
  0
LINE
  5
12059
  8
DANMEN
  6
CONTINUOUS
 10
84.0
 20
249.950012
 30
0.0
 11
68.5
 21
249.950012
 31
0.0
  0
LINE
  5
1205B
  8
DANMEN
  6
CONTINUOUS
 10
50.5
 20
258.0
 30
0.0
 11
109.5
 21
258.0
 31
0.0
  0
LINE
  5
1205C
  8
DANMEN
  6
CONTINUOUS
 10
68.0
 20
231.0
 30
0.0
 11
83.95
 21
231.0
 31
0.0
  0
LINE
  5
1205D
  8
DANMEN
  6
CONTINUOUS
 10
72.699988
 20
230.200092
 30
0.0
 11
72.699988
 21
204.500092
 31
0.0
  0
LINE
  5
1205E
  8
DANMEN
  6
CONTINUOUS
 10
55.299984
 20
223.000092
 30
0.0
 11
55.299984
 21
204.500092
 31
0.0
  0
LINE
  5
1205F
  8
DANMEN
  6
CONTINUOUS
 10
54.199985
 20
230.500092
 30
0.0
 11
54.199985
 21
188.500092
 31
0.0
  0
LINE
  5
12060
  8
DANMEN
  6
CONTINUOUS
 10
45.0
 20
223.5
 30
0.0
 11
45.0
 21
172.0
 31
0.0
  0
LINE
  5
12061
  8
DANMEN
  6
CONTINUOUS
 10
52.0
 20
231.0
 30
0.0
 11
52.0
 21
172.0
 31
0.0
  0
LINE
  5
12062
  8
DANMEN
  6
CONTINUOUS
 10
46.649994
 20
223.5
 30
0.0
 11
46.649994
 21
172.0
 31
0.0
  0
LINE
  5
12063
  8
DANMEN
  6
CONTINUOUS
 10
60.0
 20
224.258575
 30
0.0
 11
60.0
 21
212.0
 31
0.0
  0
LINE
  5
12064
  8
DANMEN
  6
CONTINUOUS
 10
68.0
 20
231.0
 30
0.0
 11
68.0
 21
212.0
 31
0.0
  0
ARC
  5
12071
  8
DANMEN
  6
CONTINUOUS
 10
57.500015
 20
162.999908
 30
0.0
 40
1.5
 50
90.000018
 51
180.0
  0
LINE
  5
12072
  8
DANMEN
  6
CONTINUOUS
 10
56.000015
 20
162.0
 30
0.0
 11
56.000015
 21
169.0
 31
0.0
  0
LINE
  5
12084
  8
DANMEN
  6
CONTINUOUS
 10
66.500009
 20
155.0
 30
0.0
 11
66.500009
 21
169.0
 31
0.0
  0
LINE
  5
12085
  8
DANMEN
  6
CONTINUOUS
 10
61.500021
 20
154.999985
 30
0.0
 11
61.500021
 21
169.0
 31
0.0
  0
LINE
  5
12086
  8
DANMEN
  6
CONTINUOUS
 10
66.000009
 20
155.0
 30
0.0
 11
66.000009
 21
169.0
 31
0.0
  0
LINE
  5
12087
  8
DANMEN
  6
CONTINUOUS
 10
62.000021
 20
154.999985
 30
0.0
 11
62.000021
 21
169.0
 31
0.0
  0
LINE
  5
1208A
  8
DANMEN
  6
CONTINUOUS
 10
66.500009
 20
154.999985
 30
0.0
 11
61.500021
 21
154.999985
 31
0.0
  0
ARC
  5
12092
  8
DANMEN
  6
CONTINUOUS
 10
60.000006
 20
165.999908
 30
0.0
 40
1.5
 50
269.999982
 51
359.999964
  0
LINE
  5
12093
  8
DANMEN
  6
CONTINUOUS
 10
60.000006
 20
164.499908
 30
0.0
 11
57.500015
 21
164.499908
 31
0.0
  0
ARC
  5
12094
  8
DANMEN
  6
CONTINUOUS
 10
70.500015
 20
162.999908
 30
0.0
 40
1.5
 50
359.999964
 51
90.000001
  0
LINE
  5
12095
  8
DANMEN
  6
CONTINUOUS
 10
71.999985
 20
162.0
 30
0.0
 11
71.999985
 21
169.0
 31
0.0
  0
LINE
  5
120A4
  8
DANMEN
  6
CONTINUOUS
 10
70.500015
 20
164.499908
 30
0.0
 11
68.000009
 21
164.499908
 31
0.0
  0
ARC
  5
120A5
  8
DANMEN
  6
CONTINUOUS
 10
68.000009
 20
165.999908
 30
0.0
 40
1.5
 50
180.0
 51
269.999982
  0
LINE
  5
120A6
  8
DANMEN
  6
CONTINUOUS
 10
72.699988
 20
203.400095
 30
0.0
 11
72.699988
 21
189.100092
 31
0.0
  0
LINE
  5
120A7
  8
DANMEN
  6
CONTINUOUS
 10
55.299984
 20
203.400095
 30
0.0
 11
55.299984
 21
189.100092
 31
0.0
  0
LINE
  5
120A8
  8
DANMEN
  6
CONTINUOUS
 10
61.499991
 20
195.0
 30
0.0
 11
61.499991
 21
172.0
 31
0.0
  0
LINE
  5
120A9
  8
DANMEN
  6
CONTINUOUS
 10
66.499979
 20
195.000015
 30
0.0
 11
66.499979
 21
172.0
 31
0.0
  0
LINE
  5
120AA
  8
DANMEN
  6
CONTINUOUS
 10
61.999991
 20
195.0
 30
0.0
 11
61.999991
 21
172.0
 31
0.0
  0
LINE
  5
120AB
  8
DANMEN
  6
CONTINUOUS
 10
65.999979
 20
195.000015
 30
0.0
 11
65.999979
 21
172.0
 31
0.0
  0
ARC
  5
120AC
  8
DANMEN
  6
CONTINUOUS
 10
57.499985
 20
187.000092
 30
0.0
 40
1.5
 50
179.999964
 51
270.000001
  0
LINE
  5
120AD
  8
DANMEN
  6
CONTINUOUS
 10
56.0
 20
188.0
 30
0.0
 11
56.0
 21
172.0
 31
0.0
  0
ARC
  5
120AE
  8
DANMEN
  6
CONTINUOUS
 10
56.499985
 20
188.500092
 30
0.0
 40
0.5
 50
270.000018
 51
0.0
  0
ARC
  5
120B0
  8
DANMEN
  6
CONTINUOUS
 10
54.699985
 20
188.500092
 30
0.0
 40
0.5
 50
180.000019
 51
270.000001
  0
LINE
  5
120B4
  8
DANMEN
  6
CONTINUOUS
 10
56.850116
 20
191.000092
 30
0.0
 11
56.999985
 21
191.000092
 31
0.0
  0
LINE
  5
120B5
  8
DANMEN
  6
CONTINUOUS
 10
56.999985
 20
191.000092
 30
0.0
 11
56.999985
 21
188.500092
 31
0.0
  0
LINE
  5
120B6
  8
DANMEN
  6
CONTINUOUS
 10
54.699985
 20
188.000092
 30
0.0
 11
56.499985
 21
188.000092
 31
0.0
  0
LINE
  5
120B8
  8
DANMEN
  6
CONTINUOUS
 10
55.299984
 20
189.100092
 30
0.0
 11
56.199985
 21
189.100092
 31
0.0
  0
LINE
  5
120BB
  8
DANMEN
  6
CONTINUOUS
 10
56.352863
 20
190.552434
 30
0.0
 11
56.199985
 21
189.100092
 31
0.0
  0
ARC
  5
120BC
  8
DANMEN
  6
CONTINUOUS
 10
56.850116
 20
190.500092
 30
0.0
 40
0.5
 50
90.0
 51
173.990994
  0
LINE
  5
120BD
  8
DANMEN
  6
CONTINUOUS
 10
72.0
 20
188.0
 30
0.0
 11
72.0
 21
172.0
 31
0.0
  0
ARC
  5
120BE
  8
DANMEN
  6
CONTINUOUS
 10
59.999991
 20
184.000092
 30
0.0
 40
1.5
 50
0.0
 51
89.999982
  0
LINE
  5
120BF
  8
DANMEN
  6
CONTINUOUS
 10
57.499985
 20
185.500092
 30
0.0
 11
59.999991
 21
185.500092
 31
0.0
  0
LINE
  5
120C2
  8
DANMEN
  6
CONTINUOUS
 10
67.999994
 20
185.500092
 30
0.0
 11
70.499985
 21
185.500092
 31
0.0
  0
ARC
  5
120C3
  8
DANMEN
  6
CONTINUOUS
 10
67.999994
 20
184.000092
 30
0.0
 40
1.5
 50
89.999982
 51
179.999964
  0
ARC
  5
120C4
  8
DANMEN
  6
CONTINUOUS
 10
70.499985
 20
187.000092
 30
0.0
 40
1.5
 50
270.000018
 51
0.0
  0
LINE
  5
120C5
  8
DANMEN
  6
CONTINUOUS
 10
71.499985
 20
188.000092
 30
0.0
 11
73.299985
 21
188.000092
 31
0.0
  0
LINE
  5
120C6
  8
DANMEN
  6
CONTINUOUS
 10
72.699985
 20
189.100092
 30
0.0
 11
71.799985
 21
189.100092
 31
0.0
  0
ARC
  5
120C7
  8
DANMEN
  6
CONTINUOUS
 10
71.149854
 20
190.500092
 30
0.0
 40
0.5
 50
6.009006
 51
90.0
  0
LINE
  5
120C8
  8
DANMEN
  6
CONTINUOUS
 10
71.647106
 20
190.552434
 30
0.0
 11
71.799985
 21
189.100092
 31
0.0
  0
LINE
  5
120CB
  8
DANMEN
  6
CONTINUOUS
 10
70.999985
 20
191.000092
 30
0.0
 11
70.999985
 21
188.500092
 31
0.0
  0
LINE
  5
120CC
  8
DANMEN
  6
CONTINUOUS
 10
71.149854
 20
191.000092
 30
0.0
 11
70.999985
 21
191.000092
 31
0.0
  0
ARC
  5
120CE
  8
DANMEN
  6
CONTINUOUS
 10
71.499985
 20
188.500092
 30
0.0
 40
0.5
 50
180.0
 51
270.0
  0
LINE
  5
120CF
  8
DANMEN
  6
CONTINUOUS
 10
55.299984
 20
203.400095
 30
0.0
 11
59.699986
 21
203.400095
 31
0.0
  0
LINE
  5
120D0
  8
DANMEN
  6
CONTINUOUS
 10
55.299984
 20
204.500092
 30
0.0
 11
60.999986
 21
204.500092
 31
0.0
  0
LINE
  5
120D3
  8
DANMEN
  6
CONTINUOUS
 10
65.399984
 20
198.900092
 30
0.0
 11
66.539715
 21
198.900092
 31
0.0
  0
ARC
  5
120D4
  8
DANMEN
  6
CONTINUOUS
 10
64.799984
 20
200.554031
 30
0.0
 40
1.0
 50
294.62438
 51
0.0
  0
ARC
  5
120D5
  8
DANMEN
  6
CONTINUOUS
 10
64.799984
 20
201.800091
 30
0.0
 40
1.0
 50
359.999945
 51
89.999982
  0
LINE
  5
120D6
  8
DANMEN
  6
CONTINUOUS
 10
61.199986
 20
204.300092
 30
0.0
 11
66.799986
 21
204.300092
 31
0.0
  0
LINE
  5
120D7
  8
DANMEN
  6
CONTINUOUS
 10
61.499991
 20
195.000015
 30
0.0
 11
66.499979
 21
195.000015
 31
0.0
  0
ARC
  5
120D8
  8
DANMEN
  6
CONTINUOUS
 10
65.399984
 20
199.200092
 30
0.0
 40
0.3
 50
180.000019
 51
270.000055
  0
ARC
  5
120D9
  8
DANMEN
  6
CONTINUOUS
 10
62.599986
 20
199.200092
 30
0.0
 40
0.3
 50
270.000018
 51
0.0
  0
ARC
  5
120DA
  8
DANMEN
  6
CONTINUOUS
 10
62.699986
 20
200.469509
 30
0.0
 40
2.0
 50
180.000019
 51
231.693677
  0
LINE
  5
120DB
  8
DANMEN
  6
CONTINUOUS
 10
61.460255
 20
198.900092
 30
0.0
 11
62.599986
 21
198.900092
 31
0.0
  0
LINE
  5
120DC
  8
DANMEN
  6
CONTINUOUS
 10
60.699986
 20
202.400095
 30
0.0
 11
60.699986
 21
200.469509
 31
0.0
  0
ARC
  5
120DD
  8
DANMEN
  6
CONTINUOUS
 10
59.699986
 20
202.400095
 30
0.0
 40
1.0
 50
0.0
 51
90.0
  0
LINE
  5
120E0
  8
DANMEN
  6
CONTINUOUS
 10
60.999986
 20
204.500092
 30
0.0
 11
61.199986
 21
204.300092
 31
0.0
  0
ARC
  5
120E1
  8
DANMEN
  6
CONTINUOUS
 10
65.299984
 20
199.463161
 30
0.0
 40
0.2
 50
114.624344
 51
180.000019
  0
ARC
  5
120E2
  8
DANMEN
  6
CONTINUOUS
 10
62.699986
 20
199.463161
 30
0.0
 40
0.2
 50
0.0
 51
65.375675
  0
ARC
  5
120E3
  8
DANMEN
  6
CONTINUOUS
 10
63.199986
 20
200.554031
 30
0.0
 40
1.0
 50
180.000019
 51
245.375639
  0
LINE
  5
120E4
  8
DANMEN
  6
CONTINUOUS
 10
62.899985
 20
199.463161
 30
0.0
 11
62.899985
 21
199.200092
 31
0.0
  0
ARC
  5
120E5
  8
DANMEN
  6
CONTINUOUS
 10
63.199986
 20
201.800091
 30
0.0
 40
1.0
 50
89.999982
 51
180.000019
  0
LINE
  5
120E6
  8
DANMEN
  6
CONTINUOUS
 10
63.199986
 20
202.800091
 30
0.0
 11
64.799984
 21
202.800091
 31
0.0
  0
LINE
  5
120E7
  8
DANMEN
  6
CONTINUOUS
 10
62.199986
 20
201.80009
 30
0.0
 11
62.199986
 21
200.554031
 31
0.0
  0
LINE
  5
120E8
  8
DANMEN
  6
CONTINUOUS
 10
65.099984
 20
199.200092
 30
0.0
 11
65.099984
 21
199.463161
 31
0.0
  0
ARC
  5
120EB
  8
DANMEN
  6
CONTINUOUS
 10
65.299984
 20
200.469509
 30
0.0
 40
2.0
 50
308.306342
 51
359.999945
  0
LINE
  5
120EC
  8
DANMEN
  6
CONTINUOUS
 10
68.299984
 20
203.400095
 30
0.0
 11
72.699988
 21
203.400095
 31
0.0
  0
LINE
  5
120ED
  8
DANMEN
  6
CONTINUOUS
 10
66.999986
 20
204.500092
 30
0.0
 11
72.699988
 21
204.500092
 31
0.0
  0
LINE
  5
120EE
  8
DANMEN
  6
CONTINUOUS
 10
67.299984
 20
200.469509
 30
0.0
 11
67.299984
 21
202.400095
 31
0.0
  0
LINE
  5
120EF
  8
DANMEN
  6
CONTINUOUS
 10
65.799984
 20
200.554031
 30
0.0
 11
65.799984
 21
201.80009
 31
0.0
  0
ARC
  5
120F0
  8
DANMEN
  6
CONTINUOUS
 10
68.299984
 20
202.400095
 30
0.0
 40
1.0
 50
90.0
 51
180.0
  0
LINE
  5
120F3
  8
DANMEN
  6
CONTINUOUS
 10
66.999986
 20
204.500092
 30
0.0
 11
66.799986
 21
204.300092
 31
0.0
  0
ARC
  5
120F6
  8
DANMEN
  6
CONTINUOUS
 10
64.0
 20
212.0
 30
0.0
 40
4.0
 50
180.000019
 51
359.999983
  0
LINE
  5
120F7
  8
DANMEN
  6
CONTINUOUS
 10
63.6
 20
246.0
 30
0.0
 11
63.6
 21
235.101833
 31
0.0
  0
LINE
  5
120F8
  8
DANMEN
  6
CONTINUOUS
 10
65.25
 20
246.0
 30
0.0
 11
65.25
 21
225.061553
 31
0.0
  0
LINE
  5
120F9
  8
DANMEN
  6
CONTINUOUS
 10
46.649994
 20
246.0
 30
0.0
 11
46.649994
 21
223.5
 31
0.0
  0
LINE
  5
120FA
  8
DANMEN
  6
CONTINUOUS
 10
45.0
 20
257.5
 30
0.0
 11
45.0
 21
223.5
 31
0.0
  0
ARC
  5
120FB
  8
DANMEN
  6
CONTINUOUS
 10
57.4
 20
224.199999
 30
0.0
 40
0.2
 50
180.0
 51
269.999982
  0
ARC
  5
120FC
  8
DANMEN
  6
CONTINUOUS
 10
57.4
 20
229.5
 30
0.0
 40
0.2
 50
90.000018
 51
180.0
  0
LINE
  5
120FD
  8
DANMEN
  6
CONTINUOUS
 10
57.2
 20
228.5
 30
0.0
 11
58.0
 21
227.7
 31
0.0
  0
LINE
  5
120FE
  8
DANMEN
  6
CONTINUOUS
 10
58.0
 20
226.0
 30
0.0
 11
57.2
 21
225.2
 31
0.0
  0
LINE
  5
120FF
  8
DANMEN
  6
CONTINUOUS
 10
55.299984
 20
223.800095
 30
0.0
 11
58.399985
 21
223.800095
 31
0.0
  0
LINE
  5
12100
  8
DANMEN
  6
CONTINUOUS
 10
55.299984
 20
230.000092
 30
0.0
 11
58.399985
 21
230.000092
 31
0.0
  0
LINE
  5
12101
  8
DANMEN
  6
CONTINUOUS
 10
55.299984
 20
223.000092
 30
0.0
 11
58.699985
 21
223.000092
 31
0.0
  0
LINE
  5
12102
  8
DANMEN
  6
CONTINUOUS
 10
54.699985
 20
231.000092
 30
0.0
 11
58.699985
 21
231.000092
 31
0.0
  0
LINE
  5
12103
  8
DANMEN
  6
CONTINUOUS
 10
55.299984
 20
230.000092
 30
0.0
 11
55.299984
 21
223.800095
 31
0.0
  0
ARC
  5
12105
  8
DANMEN
  6
CONTINUOUS
 10
45.5
 20
223.5
 30
0.0
 40
0.5
 50
180.000019
 51
270.000001
  0
ARC
  5
12108
  8
DANMEN
  6
CONTINUOUS
 10
46.149994
 20
223.5
 30
0.0
 40
0.5
 50
270.000018
 51
0.0
  0
LINE
  5
12109
  8
DANMEN
  6
CONTINUOUS
 10
45.5
 20
223.0
 30
0.0
 11
46.149994
 21
223.0
 31
0.0
  0
LINE
  5
1210C
  8
DANMEN
  6
CONTINUOUS
 10
57.2
 20
225.199999
 30
0.0
 11
57.2
 21
224.199999
 31
0.0
  0
LINE
  5
12112
  8
DANMEN
  6
CONTINUOUS
 10
52.0
 20
231.0
 30
0.0
 11
55.0
 21
231.0
 31
0.0
  0
LINE
  5
12113
  8
DANMEN
  6
CONTINUOUS
 10
57.2
 20
229.5
 30
0.0
 11
57.2
 21
228.5
 31
0.0
  0
ARC
  5
12117
  8
DANMEN
  6
CONTINUOUS
 10
54.699985
 20
230.500092
 30
0.0
 40
0.5
 50
89.999982
 51
180.000019
  0
ARC
  5
12119
  8
DANMEN
  6
CONTINUOUS
 10
59.6
 20
228.1
 30
0.0
 40
0.4
 50
269.999999
 51
359.999981
  0
ARC
  5
1211A
  8
DANMEN
  6
CONTINUOUS
 10
50.825654
 20
224.969002
 30
0.0
 40
12.0
 50
7.283147
 51
30.171056
  0
ARC
  5
1211B
  8
DANMEN
  6
CONTINUOUS
 10
50.892022
 20
224.519121
 30
0.0
 40
11.5
 50
9.50078
 51
29.603137
  0
LINE
  5
1211C
  8
DANMEN
  6
CONTINUOUS
 10
62.75
 20
232.898149
 30
0.0
 11
62.75
 21
225.061553
 31
0.0
  0
LINE
  5
1211D
  8
DANMEN
  6
CONTINUOUS
 10
58.0
 20
224.0
 30
0.0
 11
57.4
 21
224.0
 31
0.0
  0
LINE
  5
1211E
  8
DANMEN
  6
CONTINUOUS
 10
59.2
 20
225.199999
 30
0.0
 11
59.2
 21
224.199999
 31
0.0
  0
ARC
  5
12120
  8
DANMEN
  6
CONTINUOUS
 10
58.0
 20
224.199999
 30
0.0
 40
0.2
 50
269.999999
 51
359.999981
  0
LINE
  5
12121
  8
DANMEN
  6
CONTINUOUS
 10
58.2
 20
225.199999
 30
0.0
 11
58.2
 21
224.199999
 31
0.0
  0
LINE
  5
12122
  8
DANMEN
  6
CONTINUOUS
 10
59.600001
 20
224.199999
 30
0.0
 11
59.2
 21
224.199999
 31
0.0
  0
LINE
  5
12124
  8
DANMEN
  6
CONTINUOUS
 10
59.2
 20
225.199999
 30
0.0
 11
58.2
 21
225.199999
 31
0.0
  0
LINE
  5
12127
  8
DANMEN
  6
CONTINUOUS
 10
59.8
 20
225.7
 30
0.0
 11
59.8
 21
224.399999
 31
0.0
  0
ARC
  5
12129
  8
DANMEN
  6
CONTINUOUS
 10
59.600001
 20
224.399999
 30
0.0
 40
0.2
 50
269.999999
 51
359.999981
  0
LINE
  5
1212A
  8
DANMEN
  6
CONTINUOUS
 10
59.6
 20
227.7
 30
0.0
 11
59.2
 21
227.7
 31
0.0
  0
LINE
  5
1212D
  8
DANMEN
  6
CONTINUOUS
 10
58.0
 20
227.7
 30
0.0
 11
58.0
 21
226.0
 31
0.0
  0
LINE
  5
12130
  8
DANMEN
  6
CONTINUOUS
 10
59.2
 20
227.7
 30
0.0
 11
59.2
 21
226.0
 31
0.0
  0
ARC
  5
12133
  8
DANMEN
  6
CONTINUOUS
 10
61.25
 20
227.25
 30
0.0
 40
0.15
 50
332.128821
 51
152.128843
  0
LINE
  5
12137
  8
DANMEN
  6
CONTINUOUS
 10
60.419281
 20
226.0
 30
0.0
 11
59.2
 21
226.0
 31
0.0
  0
LINE
  5
12138
  8
DANMEN
  6
CONTINUOUS
 10
60.6
 20
225.7
 30
0.0
 11
59.8
 21
225.7
 31
0.0
  0
LINE
  5
1213A
  8
DANMEN
  6
CONTINUOUS
 10
61.3826
 20
227.179877
 30
0.0
 11
60.6
 21
225.7
 31
0.0
  0
LINE
  5
1213B
  8
DANMEN
  6
CONTINUOUS
 10
61.1174
 20
227.320122
 30
0.0
 11
60.419282
 21
226.0
 31
0.0
  0
ARC
  5
12140
  8
DANMEN
  6
CONTINUOUS
 10
58.699985
 20
223.500092
 30
0.0
 40
0.5
 50
270.000018
 51
0.0
  0
ARC
  5
12144
  8
DANMEN
  6
CONTINUOUS
 10
58.699985
 20
224.700089
 30
0.0
 40
0.5
 50
0.0
 51
89.999982
  0
LINE
  5
12146
  8
DANMEN
  6
CONTINUOUS
 10
59.199985
 20
224.700089
 30
0.0
 11
59.199985
 21
223.500092
 31
0.0
  0
LINE
  5
12147
  8
DANMEN
  6
CONTINUOUS
 10
58.399985
 20
225.200089
 30
0.0
 11
58.399985
 21
223.800095
 31
0.0
  0
LINE
  5
12148
  8
DANMEN
  6
CONTINUOUS
 10
58.399985
 20
225.200089
 30
0.0
 11
58.699985
 21
225.200089
 31
0.0
  0
ARC
  5
12149
  8
DANMEN
  6
CONTINUOUS
 10
62.480851
 20
226.458588
 30
0.0
 40
0.25
 50
189.50078
 51
7.283147
  0
ARC
  5
12151
  8
DANMEN
  6
CONTINUOUS
 10
64.75
 20
225.061553
 30
0.0
 40
0.5
 50
345.963757
 51
0.0
  0
ARC
  5
12152
  8
DANMEN
  6
CONTINUOUS
 10
63.25
 20
225.061553
 30
0.0
 40
0.5
 50
180.0
 51
194.036243
  0
ARC
  5
12153
  8
DANMEN
  6
CONTINUOUS
 10
64.359612
 20
223.5
 30
0.0
 40
0.5
 50
270.0
 51
345.963757
  0
ARC
  5
12154
  8
DANMEN
  6
CONTINUOUS
 10
63.640388
 20
223.5
 30
0.0
 40
0.5
 50
194.036243
 51
270.0
  0
LINE
  5
12155
  8
DANMEN
  6
CONTINUOUS
 10
63.155317
 20
223.378732
 30
0.0
 11
62.764929
 21
224.940285
 31
0.0
  0
LINE
  5
12156
  8
DANMEN
  6
CONTINUOUS
 10
65.235071
 20
224.940285
 30
0.0
 11
64.844683
 21
223.378732
 31
0.0
  0
LINE
  5
12157
  8
DANMEN
  6
CONTINUOUS
 10
63.640388
 20
223.0
 30
0.0
 11
64.359612
 21
223.0
 31
0.0
  0
LINE
  5
12158
  8
DANMEN
  6
CONTINUOUS
 10
63.560165
 20
234.906263
 30
0.0
 11
62.789835
 21
233.09372
 31
0.0
  0
LINE
  5
1215A
  8
DANMEN
  6
CONTINUOUS
 10
61.2
 20
231.0
 30
0.0
 11
59.2
 21
231.0
 31
0.0
  0
LINE
  5
1215B
  8
DANMEN
  6
CONTINUOUS
 10
58.0
 20
229.699999
 30
0.0
 11
57.4
 21
229.699999
 31
0.0
  0
LINE
  5
1215C
  8
DANMEN
  6
CONTINUOUS
 10
58.2
 20
229.5
 30
0.0
 11
58.2
 21
228.5
 31
0.0
  0
ARC
  5
1215E
  8
DANMEN
  6
CONTINUOUS
 10
58.0
 20
229.5
 30
0.0
 40
0.2
 50
359.999981
 51
90.000018
  0
LINE
  5
1215F
  8
DANMEN
  6
CONTINUOUS
 10
59.2
 20
228.5
 30
0.0
 11
58.2
 21
228.5
 31
0.0
  0
LINE
  5
12161
  8
DANMEN
  6
CONTINUOUS
 10
59.2
 20
231.0
 30
0.0
 11
59.2
 21
228.5
 31
0.0
  0
LINE
  5
12164
  8
DANMEN
  6
CONTINUOUS
 10
60.0
 20
230.2
 30
0.0
 11
60.0
 21
228.1
 31
0.0
  0
LINE
  5
12167
  8
DANMEN
  6
CONTINUOUS
 10
60.890903
 20
230.2
 30
0.0
 11
60.0
 21
230.2
 31
0.0
  0
ARC
  5
12168
  8
DANMEN
  6
CONTINUOUS
 10
58.699985
 20
229.300095
 30
0.0
 40
0.5
 50
270.000018
 51
0.0
  0
ARC
  5
1216C
  8
DANMEN
  6
CONTINUOUS
 10
58.699985
 20
230.500092
 30
0.0
 40
0.5
 50
0.0
 51
89.999982
  0
LINE
  5
1216E
  8
DANMEN
  6
CONTINUOUS
 10
58.399985
 20
230.000092
 30
0.0
 11
58.399985
 21
228.800095
 31
0.0
  0
LINE
  5
1216F
  8
DANMEN
  6
CONTINUOUS
 10
58.399985
 20
228.800095
 30
0.0
 11
58.699985
 21
228.800095
 31
0.0
  0
LINE
  5
12170
  8
DANMEN
  6
CONTINUOUS
 10
59.199985
 20
230.500092
 30
0.0
 11
59.199985
 21
229.300095
 31
0.0
  0
LINE
  5
12171
  8
DANMEN
  6
CONTINUOUS
 10
58.5
 20
231.0
 30
0.0
 11
59.2
 21
231.0
 31
0.0
  0
ARC
  5
12173
  8
DANMEN
  6
CONTINUOUS
 10
63.25
 20
232.898149
 30
0.0
 40
0.5
 50
156.974508
 51
180.0
  0
ARC
  5
12176
  8
DANMEN
  6
CONTINUOUS
 10
63.1
 20
235.101833
 30
0.0
 40
0.5
 50
336.974508
 51
0.0
  0
LINE
  5
12178
  8
DANMEN
  6
CONTINUOUS
 10
73.299983
 20
231.000092
 30
0.0
 11
72.349985
 21
231.000092
 31
0.0
  0
LINE
  5
12179
  8
DANMEN
  6
CONTINUOUS
 10
72.699988
 20
230.200092
 30
0.0
 11
71.849985
 21
230.200092
 31
0.0
  0
LINE
  5
1217B
  8
DANMEN
  6
CONTINUOUS
 10
71.849985
 20
230.500092
 30
0.0
 11
71.849985
 21
230.200092
 31
0.0
  0
ARC
  5
1217C
  8
DANMEN
  6
CONTINUOUS
 10
72.349985
 20
230.500092
 30
0.0
 40
0.5
 50
90.0
 51
180.0
  0
LINE
  5
1217F
  8
DANMEN
  6
CONTINUOUS
 10
46.649994
 20
247.649994
 30
0.0
 11
60.699997
 21
247.649994
 31
0.0
  0
LINE
  5
12180
  8
DANMEN
  6
CONTINUOUS
 10
46.649994
 20
246.0
 30
0.0
 11
63.6
 21
246.0
 31
0.0
  0
LINE
  5
12181
  8
DANMEN
  6
CONTINUOUS
 10
46.649994
 20
256.350006
 30
0.0
 11
46.649994
 21
247.65
 31
0.0
  0
LINE
  5
12184
  8
DANMEN
  6
CONTINUOUS
 10
50.5
 20
258.0
 30
0.0
 11
45.5
 21
258.0
 31
0.0
  0
LINE
  5
12185
  8
DANMEN
  6
CONTINUOUS
 10
50.5
 20
256.350006
 30
0.0
 11
46.649994
 21
256.350006
 31
0.0
  0
ARC
  5
12186
  8
DANMEN
  6
CONTINUOUS
 10
45.5
 20
257.5
 30
0.0
 40
0.5
 50
90.0
 51
180.0
  0
LINE
  5
12187
  8
DANMEN
  6
CONTINUOUS
 10
51.0
 20
257.5
 30
0.0
 11
51.0
 21
256.850006
 31
0.0
  0
ARC
  5
12189
  8
DANMEN
  6
CONTINUOUS
 10
50.5
 20
256.850006
 30
0.0
 40
0.5
 50
269.999999
 51
359.999981
  0
ARC
  5
1218C
  8
DANMEN
  6
CONTINUOUS
 10
50.5
 20
257.5
 30
0.0
 40
0.5
 50
359.999981
 51
90.000018
  0
LINE
  5
1218D
  8
DANMEN
  6
CONTINUOUS
 10
63.9
 20
251.3
 30
0.0
 11
63.9
 21
251.036932
 31
0.0
  0
ARC
  5
1218E
  8
DANMEN
  6
CONTINUOUS
 10
63.7
 20
250.030306
 30
0.0
 40
2.0
 50
128.293477
 51
180.0
  0
LINE
  5
1218F
  8
DANMEN
  6
CONTINUOUS
 10
66.1
 20
251.300012
 30
0.0
 11
66.1
 21
251.036932
 31
0.0
  0
LINE
  5
12190
  8
DANMEN
  6
CONTINUOUS
 10
65.8
 20
247.7
 30
0.0
 11
64.2
 21
247.7
 31
0.0
  0
LINE
  5
12191
  8
DANMEN
  6
CONTINUOUS
 10
65.25
 20
246.0
 30
0.0
 11
69.5
 21
246.0
 31
0.0
  0
ARC
  5
12192
  8
DANMEN
  6
CONTINUOUS
 10
60.7
 20
248.649994
 30
0.0
 40
1.0
 50
270.0
 51
0.0
  0
ARC
  5
12196
  8
DANMEN
  6
CONTINUOUS
 10
64.2
 20
249.946061
 30
0.0
 40
1.0
 50
114.624318
 51
180.0
  0
ARC
  5
12197
  8
DANMEN
  6
CONTINUOUS
 10
63.7
 20
251.036932
 30
0.0
 40
0.2
 50
294.624318
 51
0.0
  0
LINE
  5
12198
  8
DANMEN
  6
CONTINUOUS
 10
61.7
 20
250.030306
 30
0.0
 11
61.7
 21
248.649994
 31
0.0
  0
LINE
  5
12199
  8
DANMEN
  6
CONTINUOUS
 10
63.2
 20
249.946061
 30
0.0
 11
63.2
 21
248.7
 31
0.0
  0
ARC
  5
1219A
  8
DANMEN
  6
CONTINUOUS
 10
64.2
 20
248.7
 30
0.0
 40
1.0
 50
180.0
 51
270.0
  0
ARC
  5
1219B
  8
DANMEN
  6
CONTINUOUS
 10
69.5
 20
246.5
 30
0.0
 40
0.5
 50
270.000018
 51
0.0
  0
LINE
  5
1219C
  8
DANMEN
  6
CONTINUOUS
 10
68.5
 20
246.8
 30
0.0
 11
70.0
 21
246.8
 31
0.0
  0
ARC
  5
1219F
  8
DANMEN
  6
CONTINUOUS
 10
66.3
 20
251.036932
 30
0.0
 40
0.2
 50
180.0
 51
245.375682
  0
ARC
  5
121A0
  8
DANMEN
  6
CONTINUOUS
 10
65.8
 20
249.946061
 30
0.0
 40
1.0
 50
0.0
 51
65.375682
  0
ARC
  5
121A1
  8
DANMEN
  6
CONTINUOUS
 10
65.8
 20
248.7
 30
0.0
 40
1.0
 50
270.0
 51
0.0
  0
LINE
  5
121A2
  8
DANMEN
  6
CONTINUOUS
 10
66.8
 20
249.946061
 30
0.0
 11
66.8
 21
248.7
 31
0.0
  0
LINE
  5
121A3
  8
DANMEN
  6
CONTINUOUS
 10
68.5
 20
249.950012
 30
0.0
 11
68.5
 21
246.8
 31
0.0
  0
LINE
  5
121A6
  8
DANMEN
  6
CONTINUOUS
 10
70.0
 20
246.8
 30
0.0
 11
70.0
 21
246.5
 31
0.0
  0
LINE
  5
121A7
  8
DANMEN
  6
CONTINUOUS
 10
63.6
 20
251.6
 30
0.0
 11
62.460621
 21
251.6
 31
0.0
  0
ARC
  5
121A8
  8
DANMEN
  6
CONTINUOUS
 10
63.6
 20
251.3
 30
0.0
 40
0.3
 50
0.0
 51
90.0
  0
ARC
  5
121A9
  8
DANMEN
  6
CONTINUOUS
 10
66.4
 20
251.300012
 30
0.0
 40
0.3
 50
90.0
 51
180.0
  0
LINE
  5
121AA
  8
DANMEN
  6
CONTINUOUS
 10
111.31756
 20
206.49168
 30
0.0
 11
111.30001
 21
222.979021
 31
0.0
  0
LINE
  5
121AB
  8
DANMEN
  6
CONTINUOUS
 10
112.517555
 20
206.145361
 30
0.0
 11
112.004224
 21
222.470763
 31
0.0
  0
LINE
  5
121AC
  8
DANMEN
  6
CONTINUOUS
 10
111.017555
 20
206.502085
 30
0.0
 11
111.0
 21
223.0
 31
0.0
  0
LINE
  5
121AD
  8
DANMEN
  6
CONTINUOUS
 10
73.799985
 20
230.500092
 30
0.0
 11
73.799985
 21
188.500092
 31
0.0
  0
LINE
  5
121AE
  8
DANMEN
  6
CONTINUOUS
 10
76.0
 20
231.0
 30
0.0
 11
76.0
 21
172.0
 31
0.0
  0
LINE
  5
121AF
  8
DANMEN
  6
CONTINUOUS
 10
78.5
 20
231.0
 30
0.0
 11
78.5
 21
172.0
 31
0.0
  0
LINE
  5
121B0
  8
DANMEN
  6
DASHED
 10
81.5
 20
231.0
 30
0.0
 11
81.5
 21
172.0
 31
0.0
  0
LINE
  5
121B1
  8
DANMEN
  6
CONTINUOUS
 10
91.449998
 20
230.0
 30
0.0
 11
91.449998
 21
172.0
 31
0.0
  0
LINE
  5
121B2
  8
DANMEN
  6
CONTINUOUS
 10
96.449986
 20
230.0
 30
0.0
 11
96.449986
 21
172.0
 31
0.0
  0
LINE
  5
121B3
  8
DANMEN
  6
CONTINUOUS
 10
91.949998
 20
230.0
 30
0.0
 11
91.949998
 21
172.0
 31
0.0
  0
LINE
  5
121B4
  8
DANMEN
  6
CONTINUOUS
 10
95.949986
 20
230.0
 30
0.0
 11
95.949986
 21
172.0
 31
0.0
  0
LINE
  5
121B5
  8
DANMEN
  6
CONTINUOUS
 10
104.0
 20
172.0
 30
0.0
 11
104.0
 21
223.0
 31
0.0
  0
LINE
  5
121B6
  8
DANMEN
  6
CONTINUOUS
 10
83.95
 20
172.0
 30
0.0
 11
83.95
 21
223.0
 31
0.0
  0
LINE
  5
121B7
  8
DANMEN
  6
CONTINUOUS
 10
101.949985
 20
172.0
 30
0.0
 11
101.949985
 21
223.0
 31
0.0
  0
LINE
  5
121B8
  8
DANMEN
  6
CONTINUOUS
 10
86.000015
 20
172.0
 30
0.0
 11
86.000015
 21
223.0
 31
0.0
  0
LINE
  5
121B9
  8
DANMEN
  6
CONTINUOUS
 10
111.0
 20
172.0
 30
0.0
 11
111.0
 21
223.0
 31
0.0
  0
LINE
  5
121BA
  8
DANMEN
  6
CONTINUOUS
 10
115.0
 20
205.90593
 30
0.0
 11
115.0
 21
223.0
 31
0.0
  0
LINE
  5
121BB
  8
DANMEN
  6
CONTINUOUS
 10
113.350006
 20
206.302173
 30
0.0
 11
113.350006
 21
223.0
 31
0.0
  0
LINE
  5
121BC
  8
DANMEN
  6
CONTINUOUS
 10
143.881386
 20
203.653003
 30
0.0
 11
112.517555
 21
206.502085
 31
0.0
  0
LINE
  5
121BD
  8
DANMEN
  6
CONTINUOUS
 10
114.517555
 20
198.002085
 30
0.0
 11
145.217555
 21
198.002085
 31
0.0
  0
CIRCLE
  5
121BF
  8
DANMEN
  6
CONTINUOUS
 10
94.000023
 20
167.999863
 30
0.0
 40
0.25
  0
LINE
  5
121C1
  8
DANMEN
  6
CONTINUOUS
 10
112.517555
 20
200.002085
 30
0.0
 11
112.517555
 21
206.502085
 31
0.0
  0
LINE
  5
121C2
  8
DANMEN
  6
CONTINUOUS
 10
111.317555
 20
202.002085
 30
0.0
 11
111.317555
 21
206.512633
 31
0.0
  0
LINE
  5
121C3
  8
DANMEN
  6
CONTINUOUS
 10
111.017555
 20
202.002085
 30
0.0
 11
111.017555
 21
206.502085
 31
0.0
  0
ARC
  5
121C4
  8
DANMEN
  6
CONTINUOUS
 10
114.517555
 20
200.002085
 30
0.0
 40
2.0
 50
179.999981
 51
270.000018
  0
LINE
  5
121C8
  8
DANMEN
  6
CONTINUOUS
 10
111.017555
 20
202.002085
 30
0.0
 11
112.517555
 21
202.002085
 31
0.0
  0
LINE
  5
121CE
  8
DANMEN
  6
CONTINUOUS
 10
191.0
 20
162.9
 30
0.0
 11
191.0
 21
144.3
 31
0.0
  0
LINE
  5
121CF
  8
DANMEN
  6
CONTINUOUS
 10
196.122479
 20
130.7
 30
0.0
 11
192.908279
 21
137.37568
 31
0.0
  0
LINE
  5
121D0
  8
DANMEN
  6
CONTINUOUS
 10
195.682602
 20
130.0
 30
0.0
 11
192.476376
 21
136.659119
 31
0.0
  0
LINE
  5
121D1
  8
DANMEN
  6
CONTINUOUS
 10
203.134269
 20
134.949997
 30
0.0
 11
195.199997
 21
136.140138
 31
0.0
  0
ARC
  5
121D2
  8
DANMEN
  6
CONTINUOUS
 10
195.0
 20
135.361187
 30
0.0
 40
1.0
 50
180.0
 51
261.469234
  0
LINE
  5
121D3
  8
DANMEN
  6
CONTINUOUS
 10
191.0
 20
142.5
 30
0.0
 11
191.0
 21
127.6
 31
0.0
  0
LINE
  5
121D4
  8
DANMEN
  6
CONTINUOUS
 10
196.122478
 20
130.7
 30
0.0
 11
198.850004
 21
130.7
 31
0.0
  0
LINE
  5
121D5
  8
DANMEN
  6
CONTINUOUS
 10
195.682602
 20
130.0
 30
0.0
 11
198.350004
 21
130.0
 31
0.0
  0
LINE
  5
121D6
  8
DANMEN
  6
CONTINUOUS
 10
203.963121
 20
133.005532
 30
0.0
 11
194.85166
 21
134.372251
 31
0.0
  0
LINE
  5
121D7
  8
DANMEN
  6
CONTINUOUS
 10
196.5
 20
130.0
 30
0.0
 11
197.699997
 21
130.0
 31
0.0
  0
LINE
  5
121D8
  8
DANMEN
  6
CONTINUOUS
 10
191.0
 20
126.5
 30
0.0
 11
203.5
 21
126.5
 31
0.0
  0
LINE
  5
121D9
  8
DANMEN
  6
CONTINUOUS
 10
196.0
 20
129.5
 30
0.0
 11
196.0
 21
127.6
 31
0.0
  0
LINE
  5
121DA
  8
DANMEN
  6
CONTINUOUS
 10
191.0
 20
127.6
 30
0.0
 11
196.0
 21
127.6
 31
0.0
  0
LINE
  5
121DE
  8
DANMEN
  6
CONTINUOUS
 10
191.0
 20
130.0
 30
0.0
 11
196.5
 21
130.0
 31
0.0
  0
ARC
  5
121E4
  8
DANMEN
  6
CONTINUOUS
 10
196.5
 20
129.5
 30
0.0
 40
0.5
 50
90.000037
 51
180.000019
  0
LINE
  5
121E6
  8
DANMEN
  6
CONTINUOUS
 10
201.650003
 20
130.0
 30
0.0
 11
201.650003
 21
129.0
 31
0.0
  0
LINE
  5
121E7
  8
DANMEN
  6
CONTINUOUS
 10
198.350004
 20
130.0
 30
0.0
 11
198.350004
 21
129.0
 31
0.0
  0
LINE
  5
121E8
  8
DANMEN
  6
CONTINUOUS
 10
204.0
 20
129.5
 30
0.0
 11
204.0
 21
127.0
 31
0.0
  0
LINE
  5
121E9
  8
DANMEN
  6
CONTINUOUS
 10
201.800003
 20
129.500017
 30
0.0
 11
201.799998
 21
129.199998
 31
0.0
  0
LINE
  5
121EA
  8
DANMEN
  6
CONTINUOUS
 10
198.200001
 20
129.499999
 30
0.0
 11
198.200003
 21
129.199996
 31
0.0
  0
LINE
  5
121EB
  8
DANMEN
  6
CONTINUOUS
 10
200.850003
 20
128.8
 30
0.0
 11
201.650003
 21
128.0
 31
0.0
  0
LINE
  5
121EC
  8
DANMEN
  6
CONTINUOUS
 10
196.8
 20
127.6
 30
0.0
 11
202.999998
 21
127.6
 31
0.0
  0
LINE
  5
121EF
  8
DANMEN
  6
CONTINUOUS
 10
199.150004
 20
128.8
 30
0.0
 11
200.850003
 21
128.8
 31
0.0
  0
ARC
  5
121F0
  8
DANMEN
  6
CONTINUOUS
 10
197.350003
 20
128.8
 30
0.0
 40
0.2
 50
89.999982
 51
180.000019
  0
ARC
  5
121F1
  8
DANMEN
  6
CONTINUOUS
 10
197.350003
 20
128.2
 30
0.0
 40
0.2
 50
180.000019
 51
270.000001
  0
LINE
  5
121F2
  8
DANMEN
  6
CONTINUOUS
 10
199.150004
 20
128.8
 30
0.0
 11
198.350004
 21
128.0
 31
0.0
  0
LINE
  5
121F3
  8
DANMEN
  6
CONTINUOUS
 10
197.350003
 20
128.0
 30
0.0
 11
198.350004
 21
128.0
 31
0.0
  0
LINE
  5
121F4
  8
DANMEN
  6
CONTINUOUS
 10
197.150003
 20
128.8
 30
0.0
 11
197.150003
 21
128.2
 31
0.0
  0
LINE
  5
121F5
  8
DANMEN
  6
CONTINUOUS
 10
197.350003
 20
129.0
 30
0.0
 11
198.350004
 21
129.0
 31
0.0
  0
LINE
  5
121F8
  8
DANMEN
  6
CONTINUOUS
 10
196.8
 20
129.199997
 30
0.0
 11
196.8
 21
127.6
 31
0.0
  0
LINE
  5
121F9
  8
DANMEN
  6
CONTINUOUS
 10
196.8
 20
129.199997
 30
0.0
 11
198.199997
 21
129.199997
 31
0.0
  0
LINE
  5
121FC
  8
DANMEN
  6
CONTINUOUS
 10
201.650003
 20
129.0
 30
0.0
 11
202.650004
 21
129.0
 31
0.0
  0
ARC
  5
121FD
  8
DANMEN
  6
CONTINUOUS
 10
202.650004
 20
128.2
 30
0.0
 40
0.2
 50
270.000018
 51
0.0
  0
ARC
  5
121FE
  8
DANMEN
  6
CONTINUOUS
 10
202.650004
 20
128.8
 30
0.0
 40
0.2
 50
0.0
 51
89.999982
  0
LINE
  5
121FF
  8
DANMEN
  6
CONTINUOUS
 10
201.650003
 20
128.0
 30
0.0
 11
202.650004
 21
128.0
 31
0.0
  0
LINE
  5
12200
  8
DANMEN
  6
CONTINUOUS
 10
202.850004
 20
128.8
 30
0.0
 11
202.850004
 21
128.2
 31
0.0
  0
LINE
  5
12202
  8
DANMEN
  6
CONTINUOUS
 10
202.999998
 20
129.199997
 30
0.0
 11
202.999998
 21
127.6
 31
0.0
  0
LINE
  5
12203
  8
DANMEN
  6
CONTINUOUS
 10
201.800003
 20
129.199997
 30
0.0
 11
203.0
 21
129.199997
 31
0.0
  0
ARC
  5
12204
  8
DANMEN
  6
CONTINUOUS
 10
203.5
 20
127.0
 30
0.0
 40
0.5
 50
270.000018
 51
0.0
  0
ARC
  5
12208
  8
DANMEN
  6
CONTINUOUS
 10
201.250004
 20
130.3
 30
0.0
 40
0.4
 50
89.999982
 51
180.000019
  0
ARC
  5
12209
  8
DANMEN
  6
CONTINUOUS
 10
197.648588
 20
121.818668
 30
0.0
 40
11.5
 50
59.414823
 51
84.739832
  0
ARC
  5
1220A
  8
DANMEN
  6
CONTINUOUS
 10
197.648588
 20
121.818668
 30
0.0
 40
12.0
 50
58.04287
 51
84.739832
  0
LINE
  5
1220C
  8
DANMEN
  6
CONTINUOUS
 10
199.964531
 20
132.553131
 30
0.0
 11
199.150004
 21
131.590139
 31
0.0
  0
LINE
  5
1220D
  8
DANMEN
  6
CONTINUOUS
 10
199.735478
 20
132.74687
 30
0.0
 11
198.850004
 21
131.699999
 31
0.0
  0
ARC
  5
1220E
  8
DANMEN
  6
CONTINUOUS
 10
199.850004
 20
132.650001
 30
0.0
 40
0.15
 50
319.774489
 51
139.774466
  0
LINE
  5
1220F
  8
DANMEN
  6
CONTINUOUS
 10
198.850004
 20
131.699999
 30
0.0
 11
198.850004
 21
130.7
 31
0.0
  0
ARC
  5
12210
  8
DANMEN
  6
CONTINUOUS
 10
198.725814
 20
133.519184
 30
0.0
 40
0.25
 50
84.739832
 51
264.739796
  0
LINE
  5
12211
  8
DANMEN
  6
CONTINUOUS
 10
199.150004
 20
130.0
 30
0.0
 11
200.850003
 21
130.0
 31
0.0
  0
LINE
  5
12212
  8
DANMEN
  6
CONTINUOUS
 10
199.150004
 20
131.590138
 30
0.0
 11
199.150004
 21
130.0
 31
0.0
  0
LINE
  5
12213
  8
DANMEN
  6
CONTINUOUS
 10
200.850003
 20
130.3
 30
0.0
 11
200.850003
 21
130.0
 31
0.0
  0
ARC
  5
12214
  8
DANMEN
  6
CONTINUOUS
 10
197.699997
 20
129.5
 30
0.0
 40
0.5
 50
359.999981
 51
90.000037
  0
LINE
  5
12218
  8
DANMEN
  6
CONTINUOUS
 10
203.500004
 20
131.718715
 30
0.0
 11
203.500004
 21
130.7
 31
0.0
  0
LINE
  5
12219
  8
DANMEN
  6
CONTINUOUS
 10
201.250004
 20
130.7
 30
0.0
 11
203.500004
 21
130.7
 31
0.0
  0
LINE
  5
1221A
  8
DANMEN
  6
CONTINUOUS
 10
204.000004
 20
132.0
 30
0.0
 11
204.000004
 21
130.0
 31
0.0
  0
LINE
  5
1221B
  8
DANMEN
  6
CONTINUOUS
 10
201.650003
 20
130.0
 30
0.0
 11
204.000004
 21
130.0
 31
0.0
  0
ARC
  5
1221E
  8
DANMEN
  6
CONTINUOUS
 10
204.037291
 20
133.5
 30
0.0
 40
0.5
 50
261.469234
 51
270.0
  0
LINE
  5
12220
  8
DANMEN
  6
CONTINUOUS
 10
202.300003
 20
130.0
 30
0.0
 11
203.5
 21
130.0
 31
0.0
  0
ARC
  5
12221
  8
DANMEN
  6
CONTINUOUS
 10
203.5
 20
129.5
 30
0.0
 40
0.5
 50
359.999981
 51
90.000037
  0
ARC
  5
12223
  8
DANMEN
  6
CONTINUOUS
 10
202.300003
 20
129.5
 30
0.0
 40
0.5
 50
90.0
 51
179.999149
  0
LINE
  5
12225
  8
DANMEN
  6
CONTINUOUS
 10
201.164402
 20
143.360739
 30
0.0
 11
196.081604
 21
142.513606
 31
0.0
  0
LINE
  5
12226
  8
DANMEN
  6
CONTINUOUS
 10
200.050996
 20
145.0
 30
0.0
 11
195.850995
 21
144.3
 31
0.0
  0
ARC
  5
12227
  8
DANMEN
  6
CONTINUOUS
 10
192.457778
 20
137.158773
 30
0.0
 40
0.5
 50
25.709831
 51
272.131619
  0
LINE
  5
1222A
  8
DANMEN
  6
CONTINUOUS
 10
195.199997
 20
137.5
 30
0.0
 11
195.199997
 21
136.140138
 31
0.0
  0
ARC
  5
1222B
  8
DANMEN
  6
CONTINUOUS
 10
194.5
 20
137.0
 30
0.0
 40
0.5
 50
89.999982
 51
180.000019
  0
LINE
  5
1222D
  8
DANMEN
  6
CONTINUOUS
 10
194.5
 20
137.5
 30
0.0
 11
195.199997
 21
137.5
 31
0.0
  0
LINE
  5
1222E
  8
DANMEN
  6
CONTINUOUS
 10
194.0
 20
137.0
 30
0.0
 11
194.0
 21
135.361187
 31
0.0
  0
LINE
  5
1222F
  8
DANMEN
  6
CONTINUOUS
 10
191.0
 20
142.5
 30
0.0
 11
195.917205
 21
142.5
 31
0.0
  0
LINE
  5
12230
  8
DANMEN
  6
CONTINUOUS
 10
191.0
 20
144.3
 30
0.0
 11
195.850995
 21
144.3
 31
0.0
  0
ARC
  5
12235
  8
DANMEN
  6
CONTINUOUS
 10
195.917205
 20
143.5
 30
0.0
 40
1.0
 50
270.000018
 51
279.462343
  0
LINE
  5
12237
  8
DANMEN
  6
CONTINUOUS
 10
200.050996
 20
145.0
 30
0.0
 11
201.5
 21
145.0
 31
0.0
  0
LINE
  5
12239
  8
DANMEN
  6
CONTINUOUS
 10
202.0
 20
144.5
 30
0.0
 11
202.0
 21
144.347137
 31
0.0
  0
ARC
  5
1223C
  8
DANMEN
  6
CONTINUOUS
 10
201.0
 20
144.347137
 30
0.0
 40
1.0
 50
279.462343
 51
0.000285
  0
ARC
  5
1223E
  8
DANMEN
  6
CONTINUOUS
 10
201.5
 20
144.5
 30
0.0
 40
0.5
 50
0.0
 51
89.999982
  0
LINE
  5
1223F
  8
DANMEN
  6
CONTINUOUS
 10
182.649994
 20
162.350006
 30
0.0
 11
189.350006
 21
162.350006
 31
0.0
  0
ARC
  5
12240
  8
DANMEN
  6
CONTINUOUS
 10
181.5
 20
158.5
 30
0.0
 40
0.5
 50
180.000036
 51
269.999963
  0
ARC
  5
12241
  8
DANMEN
  6
CONTINUOUS
 10
182.149994
 20
158.5
 30
0.0
 40
0.5
 50
270.000018
 51
359.999981
  0
LINE
  5
12242
  8
DANMEN
  6
CONTINUOUS
 10
181.5
 20
158.0
 30
0.0
 11
182.149994
 21
158.0
 31
0.0
  0
LINE
  5
12245
  8
DANMEN
  6
CONTINUOUS
 10
181.0
 20
163.5
 30
0.0
 11
181.0
 21
158.5
 31
0.0
  0
LINE
  5
12246
  8
DANMEN
  6
CONTINUOUS
 10
182.649994
 20
162.350006
 30
0.0
 11
182.649994
 21
158.5
 31
0.0
  0
ARC
  5
12248
  8
DANMEN
  6
CONTINUOUS
 10
181.5
 20
163.5
 30
0.0
 40
0.5
 50
89.999982
 51
180.000019
  0
LINE
  5
1224A
  8
DANMEN
  6
CONTINUOUS
 10
203.134249
 20
155.05
 30
0.0
 11
195.199997
 21
153.859862
 31
0.0
  0
LINE
  5
1224B
  8
DANMEN
  6
CONTINUOUS
 10
203.963121
 20
156.994468
 30
0.0
 11
194.85166
 21
155.627749
 31
0.0
  0
LINE
  5
1224C
  8
DANMEN
  6
CONTINUOUS
 10
195.199997
 20
152.5
 30
0.0
 11
195.199997
 21
153.859862
 31
0.0
  0
ARC
  5
1224D
  8
DANMEN
  6
CONTINUOUS
 10
194.5
 20
153.0
 30
0.0
 40
0.5
 50
179.999964
 51
270.000001
  0
LINE
  5
12250
  8
DANMEN
  6
CONTINUOUS
 10
194.5
 20
152.5
 30
0.0
 11
195.199997
 21
152.5
 31
0.0
  0
ARC
  5
12253
  8
DANMEN
  6
CONTINUOUS
 10
195.0
 20
154.638813
 30
0.0
 40
1.0
 50
98.530766
 51
180.0
  0
LINE
  5
12254
  8
DANMEN
  6
CONTINUOUS
 10
194.0
 20
153.0
 30
0.0
 11
194.0
 21
154.638813
 31
0.0
  0
ARC
  5
12257
  8
DANMEN
  6
CONTINUOUS
 10
204.037291
 20
156.5
 30
0.0
 40
0.5
 50
90.0
 51
98.530766
  0
LINE
  5
12259
  8
DANMEN
  6
CONTINUOUS
 10
191.0
 20
162.9
 30
0.0
 11
193.0
 21
162.9
 31
0.0
  0
LINE
  5
1225D
  8
DANMEN
  6
CONTINUOUS
 10
193.0
 20
162.9
 30
0.0
 11
193.0
 21
162.350006
 31
0.0
  0
LINE
  5
1225F
  8
DANMEN
  6
CONTINUOUS
 10
143.0
 20
172.0
 30
0.0
 11
143.0
 21
198.002085
 31
0.0
  0
LINE
  5
12260
  8
DANMEN
  6
CONTINUOUS
 10
145.717555
 20
198.502085
 30
0.0
 11
145.717555
 21
201.659724
 31
0.0
  0
ARC
  5
12262
  8
DANMEN
  6
CONTINUOUS
 10
145.217555
 20
198.502085
 30
0.0
 40
0.5
 50
270.000018
 51
360.0
  0
ARC
  5
12265
  8
DANMEN
  6
CONTINUOUS
 10
143.717555
 20
201.659724
 30
0.0
 40
2.0
 50
0.0
 51
85.301319
  0
LINE
  5
12269
  8
DANMEN
  6
CONTINUOUS
 10
99.3
 20
247.65
 30
0.0
 11
113.350006
 21
247.65
 31
0.0
  0
LINE
  5
1226A
  8
DANMEN
  6
CONTINUOUS
 10
102.0
 20
223.0
 30
0.0
 11
114.5
 21
223.0
 31
0.0
  0
LINE
  5
1226B
  8
DANMEN
  6
CONTINUOUS
 10
102.5
 20
224.65
 30
0.0
 11
113.350006
 21
224.65
 31
0.0
  0
LINE
  5
1226C
  8
DANMEN
  6
CONTINUOUS
 10
85.8
 20
246.0
 30
0.0
 11
113.350006
 21
246.0
 31
0.0
  0
LINE
  5
1226D
  8
DANMEN
  6
CONTINUOUS
 10
84.0
 20
246.0
 30
0.0
 11
84.0
 21
223.5
 31
0.0
  0
LINE
  5
1226E
  8
DANMEN
  6
CONTINUOUS
 10
85.8
 20
246.0
 30
0.0
 11
85.8
 21
226.0
 31
0.0
  0
LINE
  5
1226F
  8
DANMEN
  6
DASHED
 10
88.0
 20
223.0
 30
0.0
 11
100.0
 21
223.0
 31
0.0
  0
LINE
  5
12270
  8
DANMEN
  6
DASHED
 10
84.5
 20
221.800003
 30
0.0
 11
103.5
 21
221.800003
 31
0.0
  0
ARC
  5
12271
  8
DANMEN
  6
CONTINUOUS
 10
89.949991
 20
219.250092
 30
0.0
 40
1.5
 50
0.0
 51
89.999982
  0
LINE
  5
12272
  8
DANMEN
  6
DASHED
 10
86.023824
 20
226.617136
 30
0.0
 11
87.423825
 21
229.917167
 31
0.0
  0
LINE
  5
12273
  8
DANMEN
  6
DASHED
 10
87.5
 20
227.600003
 30
0.0
 11
87.992312
 21
229.73252
 31
0.0
  0
ARC
  5
12274
  8
DANMEN
  6
DASHED
 10
84.5
 20
222.300003
 30
0.0
 40
0.5
 50
180.0
 51
269.999982
  0
ARC
  5
12275
  8
DANMEN
  6
CONTINUOUS
 10
87.449985
 20
222.250092
 30
0.0
 40
1.5
 50
179.999964
 51
270.000001
  0
LINE
  5
12277
  8
DANMEN
  6
CONTINUOUS
 10
87.449985
 20
220.750092
 30
0.0
 11
89.949991
 21
220.750092
 31
0.0
  0
LINE
  5
12278
  8
DANMEN
  6
DASHED
 10
86.5
 20
223.0
 30
0.0
 11
84.0
 21
223.0
 31
0.0
  0
ARC
  5
12279
  8
DANMEN
  6
DASHED
 10
86.299999
 20
226.499972
 30
0.0
 40
0.3
 50
157.011468
 51
235.656024
  0
LINE
  5
1227A
  8
DANMEN
  6
CONTINUOUS
 10
86.5
 20
226.0
 30
0.0
 11
85.8
 21
226.0
 31
0.0
  0
ARC
  5
1227B
  8
DANMEN
  6
CONTINUOUS
 10
86.0
 20
223.5
 30
0.0
 40
0.5
 50
270.0
 51
0.0
  0
LINE
  5
1227E
  8
DANMEN
  6
DASHED
 10
84.0
 20
223.0
 30
0.0
 11
84.0
 21
222.300003
 31
0.0
  0
ARC
  5
12282
  8
DANMEN
  6
CONTINUOUS
 10
84.5
 20
223.5
 30
0.0
 40
0.5
 50
180.0
 51
270.0
  0
LINE
  5
12283
  8
DANMEN
  6
CONTINUOUS
 10
86.0
 20
223.0
 30
0.0
 11
84.5
 21
223.0
 31
0.0
  0
LINE
  5
12284
  8
DANMEN
  6
DASHED
 10
86.499991
 20
225.999972
 30
0.0
 11
86.130743
 21
226.252271
 31
0.0
  0
LINE
  5
12285
  8
DANMEN
  6
DASHED
 10
86.5
 20
223.0
 30
0.0
 11
86.5
 21
225.999972
 31
0.0
  0
LINE
  5
12286
  8
DANMEN
  6
DASHED
 10
87.5
 20
227.600003
 30
0.0
 11
87.5
 21
223.5
 31
0.0
  0
ARC
  5
12287
  8
DANMEN
  6
DASHED
 10
88.0
 20
223.5
 30
0.0
 40
0.5
 50
180.0
 51
270.0
  0
LINE
  5
1228E
  8
DANMEN
  6
CONTINUOUS
 10
86.5
 20
226.0
 30
0.0
 11
86.5
 21
223.5
 31
0.0
  0
ARC
  5
12294
  8
DANMEN
  6
DASHED
 10
87.7
 20
229.800003
 30
0.0
 40
0.3
 50
347.000479
 51
157.011468
  0
LINE
  5
12295
  8
DANMEN
  6
DASHED
 10
100.5
 20
227.600003
 30
0.0
 11
100.007688
 21
229.73252
 31
0.0
  0
LINE
  5
12296
  8
DANMEN
  6
DASHED
 10
101.976176
 20
226.617136
 30
0.0
 11
100.576175
 21
229.917167
 31
0.0
  0
LINE
  5
12297
  8
DANMEN
  6
CONTINUOUS
 10
97.949994
 20
220.750092
 30
0.0
 11
100.449985
 21
220.750092
 31
0.0
  0
ARC
  5
12298
  8
DANMEN
  6
CONTINUOUS
 10
97.949994
 20
219.250092
 30
0.0
 40
1.5
 50
89.999982
 51
179.999964
  0
ARC
  5
1229D
  8
DANMEN
  6
DASHED
 10
103.5
 20
222.300003
 30
0.0
 40
0.5
 50
270.000018
 51
0.0
  0
ARC
  5
1229E
  8
DANMEN
  6
CONTINUOUS
 10
100.449985
 20
222.250092
 30
0.0
 40
1.5
 50
270.000018
 51
0.0
  0
LINE
  5
122A0
  8
DANMEN
  6
DASHED
 10
101.5
 20
223.0
 30
0.0
 11
104.0
 21
223.0
 31
0.0
  0
LINE
  5
122A1
  8
DANMEN
  6
DASHED
 10
101.5
 20
223.0
 30
0.0
 11
104.0
 21
223.0
 31
0.0
  0
LINE
  5
122A2
  8
DANMEN
  6
CONTINUOUS
 10
102.206061
 20
225.642044
 30
0.0
 11
102.5
 21
224.65
 31
0.0
  0
ARC
  5
122A5
  8
DANMEN
  6
DASHED
 10
100.0
 20
223.5
 30
0.0
 40
0.5
 50
270.0
 51
0.0
  0
LINE
  5
122A6
  8
DANMEN
  6
DASHED
 10
100.5
 20
227.600003
 30
0.0
 11
100.5
 21
223.5
 31
0.0
  0
LINE
  5
122A7
  8
DANMEN
  6
DASHED
 10
101.5
 20
223.0
 30
0.0
 11
101.5
 21
225.999972
 31
0.0
  0
LINE
  5
122A8
  8
DANMEN
  6
DASHED
 10
101.500009
 20
225.999972
 30
0.0
 11
101.869257
 21
226.252271
 31
0.0
  0
ARC
  5
122A9
  8
DANMEN
  6
DASHED
 10
101.700001
 20
226.499972
 30
0.0
 40
0.3
 50
304.343976
 51
22.988532
  0
ARC
  5
122AE
  8
DANMEN
  6
CONTINUOUS
 10
101.726662
 20
225.5
 30
0.0
 40
0.5
 50
16.504361
 51
90.0
  0
LINE
  5
122B1
  8
DANMEN
  6
CONTINUOUS
 10
101.726662
 20
226.0
 30
0.0
 11
101.5
 21
226.0
 31
0.0
  0
LINE
  5
122B2
  8
DANMEN
  6
CONTINUOUS
 10
101.5
 20
226.0
 30
0.0
 11
101.5
 21
223.5
 31
0.0
  0
ARC
  5
122B3
  8
DANMEN
  6
CONTINUOUS
 10
102.0
 20
223.5
 30
0.0
 40
0.5
 50
180.0
 51
270.0
  0
LINE
  5
122B6
  8
DANMEN
  6
DASHED
 10
104.0
 20
223.0
 30
0.0
 11
104.0
 21
222.300003
 31
0.0
  0
LINE
  5
122B8
  8
DANMEN
  6
CONTINUOUS
 10
91.449998
 20
230.0
 30
0.0
 11
96.449986
 21
230.0
 31
0.0
  0
ARC
  5
122BB
  8
DANMEN
  6
DASHED
 10
100.3
 20
229.800003
 30
0.0
 40
0.3
 50
22.988532
 51
192.999521
  0
LINE
  5
122BD
  8
DANMEN
  6
CONTINUOUS
 10
85.65
 20
247.65
 30
0.0
 11
90.7
 21
247.65
 31
0.0
  0
ARC
  5
122BE
  8
DANMEN
  6
CONTINUOUS
 10
84.65
 20
250.600012
 30
0.0
 40
1.0
 50
0.0
 51
90.0
  0
LINE
  5
122C3
  8
DANMEN
  6
CONTINUOUS
 10
83.0
 20
246.0
 30
0.0
 11
84.0
 21
246.0
 31
0.0
  0
LINE
  5
122C4
  8
DANMEN
  6
CONTINUOUS
 10
85.65
 20
250.600012
 30
0.0
 11
85.65
 21
247.65
 31
0.0
  0
ARC
  5
122C5
  8
DANMEN
  6
CONTINUOUS
 10
83.0
 20
246.5
 30
0.0
 40
0.5
 50
180.000019
 51
270.000001
  0
LINE
  5
122C6
  8
DANMEN
  6
CONTINUOUS
 10
82.5
 20
246.8
 30
0.0
 11
82.5
 21
246.5
 31
0.0
  0
LINE
  5
122C7
  8
DANMEN
  6
CONTINUOUS
 10
82.5
 20
246.8
 30
0.0
 11
84.0
 21
246.8
 31
0.0
  0
LINE
  5
122C8
  8
DANMEN
  6
CONTINUOUS
 10
84.0
 20
249.950012
 30
0.0
 11
84.0
 21
246.8
 31
0.0
  0
ARC
  5
122CD
  8
DANMEN
  6
CONTINUOUS
 10
93.7
 20
250.030306
 30
0.0
 40
2.0
 50
128.293195
 51
180.0
  0
LINE
  5
122CE
  8
DANMEN
  6
CONTINUOUS
 10
93.9
 20
251.036932
 30
0.0
 11
93.9
 21
251.3
 31
0.0
  0
ARC
  5
122CF
  8
DANMEN
  6
CONTINUOUS
 10
96.3
 20
250.030306
 30
0.0
 40
2.0
 50
0.0
 51
51.706523
  0
LINE
  5
122D0
  8
DANMEN
  6
CONTINUOUS
 10
96.1
 20
251.036932
 30
0.0
 11
96.1
 21
251.3
 31
0.0
  0
ARC
  5
122D1
  8
DANMEN
  6
CONTINUOUS
 10
99.3
 20
248.65
 30
0.0
 40
1.0
 50
180.0
 51
270.0
  0
LINE
  5
122D2
  8
DANMEN
  6
CONTINUOUS
 10
95.8
 20
247.7
 30
0.0
 11
94.2
 21
247.7
 31
0.0
  0
ARC
  5
122D4
  8
DANMEN
  6
CONTINUOUS
 10
90.7
 20
248.65
 30
0.0
 40
1.0
 50
270.0
 51
0.0
  0
LINE
  5
122D5
  8
DANMEN
  6
CONTINUOUS
 10
91.7
 20
250.030306
 30
0.0
 11
91.7
 21
248.65
 31
0.0
  0
ARC
  5
122D6
  8
DANMEN
  6
CONTINUOUS
 10
94.2
 20
249.946061
 30
0.0
 40
1.0
 50
114.624318
 51
180.0
  0
ARC
  5
122D7
  8
DANMEN
  6
CONTINUOUS
 10
93.7
 20
251.036932
 30
0.0
 40
0.2
 50
294.624318
 51
0.0
  0
LINE
  5
122D8
  8
DANMEN
  6
CONTINUOUS
 10
93.2
 20
249.946061
 30
0.0
 11
93.2
 21
248.7
 31
0.0
  0
ARC
  5
122D9
  8
DANMEN
  6
CONTINUOUS
 10
94.2
 20
248.7
 30
0.0
 40
1.0
 50
180.0
 51
270.0
  0
ARC
  5
122DC
  8
DANMEN
  6
CONTINUOUS
 10
96.3
 20
251.036932
 30
0.0
 40
0.2
 50
180.0
 51
245.375682
  0
ARC
  5
122DD
  8
DANMEN
  6
CONTINUOUS
 10
95.8
 20
249.946061
 30
0.0
 40
1.0
 50
0.0
 51
65.375682
  0
ARC
  5
122DE
  8
DANMEN
  6
CONTINUOUS
 10
95.8
 20
248.7
 30
0.0
 40
1.0
 50
270.0
 51
0.0
  0
LINE
  5
122DF
  8
DANMEN
  6
CONTINUOUS
 10
98.3
 20
250.030306
 30
0.0
 11
98.3
 21
248.65
 31
0.0
  0
LINE
  5
122E0
  8
DANMEN
  6
CONTINUOUS
 10
96.8
 20
249.946061
 30
0.0
 11
96.8
 21
248.7
 31
0.0
  0
ARC
  5
122E1
  8
DANMEN
  6
CONTINUOUS
 10
93.6
 20
251.3
 30
0.0
 40
0.3
 50
0.0
 51
90.0
  0
LINE
  5
122E2
  8
DANMEN
  6
CONTINUOUS
 10
93.6
 20
251.600006
 30
0.0
 11
92.460628
 21
251.600006
 31
0.0
  0
LINE
  5
122E3
  8
DANMEN
  6
CONTINUOUS
 10
97.539379
 20
251.6
 30
0.0
 11
96.4
 21
251.6
 31
0.0
  0
ARC
  5
122E4
  8
DANMEN
  6
CONTINUOUS
 10
96.4
 20
251.3
 30
0.0
 40
0.3
 50
90.0
 51
180.0
  0
LINE
  5
122E5
  8
DANMEN
  6
CONTINUOUS
 10
113.350006
 20
246.0
 30
0.0
 11
113.350006
 21
224.65
 31
0.0
  0
LINE
  5
122E6
  8
DANMEN
  6
CONTINUOUS
 10
115.0
 20
257.5
 30
0.0
 11
115.0
 21
223.5
 31
0.0
  0
ARC
  5
122E7
  8
DANMEN
  6
CONTINUOUS
 10
114.5
 20
223.5
 30
0.0
 40
0.5
 50
270.000018
 51
0.0
  0
ARC
  5
122E9
  8
DANMEN
  6
CONTINUOUS
 10
111.504277
 20
222.463517
 30
0.0
 40
0.5
 50
0.83042
 51
86.0
  0
LINE
  5
122EA
  8
DANMEN
  6
CONTINUOUS
 10
111.0
 20
223.0
 30
0.0
 11
111.539155
 21
222.962299
 31
0.0
  0
LINE
  5
122F0
  8
DANMEN
  6
CONTINUOUS
 10
113.350006
 20
256.350006
 30
0.0
 11
113.350006
 21
247.65
 31
0.0
  0
ARC
  5
122F3
  8
DANMEN
  6
CONTINUOUS
 10
114.5
 20
257.5
 30
0.0
 40
0.5
 50
0.0
 51
89.999982
  0
LINE
  5
122F4
  8
DANMEN
  6
CONTINUOUS
 10
109.0
 20
257.5
 30
0.0
 11
109.0
 21
256.850006
 31
0.0
  0
LINE
  5
122F5
  8
DANMEN
  6
CONTINUOUS
 10
109.5
 20
256.350006
 30
0.0
 11
113.350006
 21
256.350006
 31
0.0
  0
ARC
  5
122F6
  8
DANMEN
  6
CONTINUOUS
 10
109.5
 20
256.850006
 30
0.0
 40
0.5
 50
180.000019
 51
270.000001
  0
LINE
  5
122F9
  8
DANMEN
  6
CONTINUOUS
 10
109.5
 20
258.0
 30
0.0
 11
114.5
 21
258.0
 31
0.0
  0
ARC
  5
122FA
  8
DANMEN
  6
CONTINUOUS
 10
109.5
 20
257.5
 30
0.0
 40
0.5
 50
89.999982
 51
180.000019
  0
LINE
  5
122FE
  8
DANMEN
  6
CONTINUOUS
 10
304.0
 20
125.0
 30
0.0
 11
304.0
 21
123.292199
 31
0.0
  0
LINE
  5
122FF
  8
DANMEN
  6
CONTINUOUS
 10
271.0
 20
68.0
 30
0.0
 11
271.0
 21
129.5
 31
0.0
  0
LINE
  5
12300
  8
DANMEN
  6
CONTINUOUS
 10
304.0
 20
125.0
 30
0.0
 11
304.0
 21
123.5
 31
0.0
  0
LINE
  5
12301
  8
DANMEN
  6
CONTINUOUS
 10
320.999997
 20
124.5
 30
0.0
 11
320.999997
 21
123.0
 31
0.0
  0
LINE
  5
12302
  8
DANMEN
  6
CONTINUOUS
 10
383.0
 20
125.0
 30
0.0
 11
383.0
 21
123.5
 31
0.0
  0
LINE
  5
12303
  8
DANMEN
  6
CONTINUOUS
 10
366.000003
 20
124.5
 30
0.0
 11
366.000003
 21
123.0
 31
0.0
  0
LINE
  5
12304
  8
DANMEN
  6
CONTINUOUS
 10
383.0
 20
125.0
 30
0.0
 11
383.0
 21
123.292199
 31
0.0
  0
LINE
  5
12305
  8
DANMEN
  6
CONTINUOUS
 10
392.649994
 20
162.350006
 30
0.0
 11
392.649994
 21
95.649994
 31
0.0
  0
LINE
  5
12306
  8
SUNPO
  6
CONTINUOUS
 10
338.0
 20
125.0
 30
0.0
 11
338.0
 21
94.0
 31
0.0
  0
LINE
  5
12307
  8
SUNPO
  6
CONTINUOUS
 10
267.364825
 20
164.0
 30
0.0
 11
267.364825
 21
94.0
 31
0.0
  0
LINE
  5
12308
  8
SUNPO
  6
CONTINUOUS
 10
353.577611
 20
122.5
 30
0.0
 11
353.577611
 21
125.0
 31
0.0
  0
LINE
  5
12309
  8
SUNPO
  6
CONTINUOUS
 10
156.0
 20
162.0
 30
0.0
 11
156.0
 21
99.0
 31
0.0
  0
LINE
  5
1230A
  8
SUNPO
  6
CONTINUOUS
 10
25.0
 20
59.0
 30
0.0
 11
25.0
 21
162.0
 31
0.0
  0
LINE
  5
1230B
  8
SUNPO
  6
CONTINUOUS
 10
166.0
 20
155.593714
 30
0.0
 11
166.0
 21
99.0
 31
0.0
  0
LINE
  5
1230C
  8
SUNPO
  6
CONTINUOUS
 10
321.0
 20
49.5
 30
0.0
 11
330.111405
 21
52.81628
 31
0.0
  0
LINE
  5
1230D
  8
SUNPO
  6
CONTINUOUS
 10
320.5
 20
66.0
 30
0.0
 11
338.0
 21
66.0
 31
0.0
  0
LINE
  5
1230E
  8
SUNPO
  6
CONTINUOUS
 10
314.552269
 20
37.5
 30
0.0
 11
376.0
 21
37.5
 31
0.0
  0
LINE
  5
1230F
  8
SUNPO
  6
CONTINUOUS
 10
321.0
 20
49.5
 30
0.0
 11
376.0
 21
49.5
 31
0.0
  0
LINE
  5
12310
  8
SUNPO
  6
CONTINUOUS
 10
60.0
 20
30.0
 30
0.0
 11
166.0
 21
30.0
 31
0.0
  0
LINE
  5
12313
  8
DANMEN
  6
CONTINUOUS
 10
342.0
 20
117.000002
 30
0.0
 11
314.0
 21
117.000002
 31
0.0
  0
LINE
  5
12314
  8
DANMEN
  6
CONTINUOUS
 10
342.0
 20
117.500002
 30
0.0
 11
314.0
 21
117.500002
 31
0.0
  0
LINE
  5
12315
  8
DANMEN
  6
CONTINUOUS
 10
342.0
 20
113.000014
 30
0.0
 11
314.0
 21
113.000014
 31
0.0
  0
LINE
  5
12316
  8
DANMEN
  6
CONTINUOUS
 10
342.0
 20
112.500014
 30
0.0
 11
314.0
 21
112.500014
 31
0.0
  0
LINE
  5
12317
  8
DANMEN
  6
CONTINUOUS
 10
342.0
 20
123.0
 30
0.0
 11
321.0
 21
123.0
 31
0.0
  0
LINE
  5
12318
  8
DANMEN
  6
CONTINUOUS
 10
342.0
 20
107.0
 30
0.0
 11
321.0
 21
107.0
 31
0.0
  0
LINE
  5
12319
  8
DANMEN
  6
CONTINUOUS
 10
342.0
 20
105.0
 30
0.0
 11
321.0
 21
105.0
 31
0.0
  0
LINE
  5
1231A
  8
DANMEN
  6
CONTINUOUS
 10
342.0
 20
94.0
 30
0.0
 11
321.0
 21
94.0
 31
0.0
  0
LINE
  5
1231B
  8
DANMEN
  6
CONTINUOUS
 10
342.0
 20
95.65
 30
0.0
 11
321.0
 21
95.65
 31
0.0
  0
ARC
  5
1231D
  8
DANMEN
  6
CONTINUOUS
 10
273.0
 20
68.0
 30
0.0
 40
2.0
 50
179.999981
 51
270.000018
  0
LINE
  5
1231E
  8
DANMEN
  6
CONTINUOUS
 10
267.0
 20
95.65
 30
0.0
 11
271.0
 21
95.65
 31
0.0
  0
LINE
  5
1231F
  8
DANMEN
  6
CONTINUOUS
 10
267.0
 20
105.0
 30
0.0
 11
271.0
 21
105.0
 31
0.0
  0
LINE
  5
12320
  8
DANMEN
  6
CONTINUOUS
 10
267.0
 20
94.0
 30
0.0
 11
271.0
 21
94.0
 31
0.0
  0
LINE
  5
12321
  8
DANMEN
  6
CONTINUOUS
 10
205.5
 20
94.0
 30
0.0
 11
263.0
 21
94.0
 31
0.0
  0
LINE
  5
12322
  8
DANMEN
  6
CONTINUOUS
 10
205.5
 20
95.65
 30
0.0
 11
263.0
 21
95.65
 31
0.0
  0
ARC
  5
12323
  8
DANMEN
  6
CONTINUOUS
 10
205.5
 20
94.5
 30
0.0
 40
0.5
 50
270.000018
 51
359.999981
  0
LINE
  5
12325
  8
DANMEN
  6
CONTINUOUS
 10
206.0
 20
95.149994
 30
0.0
 11
206.0
 21
94.5
 31
0.0
  0
ARC
  5
12326
  8
DANMEN
  6
CONTINUOUS
 10
205.5
 20
95.149994
 30
0.0
 40
0.5
 50
359.999981
 51
89.999982
  0
LINE
  5
12328
  8
DANMEN
  6
CONTINUOUS
 10
321.0
 20
68.0
 30
0.0
 11
321.0
 21
107.0
 31
0.0
  0
LINE
  5
12329
  8
DANMEN
  6
CONTINUOUS
 10
317.5
 20
88.0
 30
0.0
 11
316.0
 21
73.0
 31
0.0
  0
LINE
  5
1232A
  8
DANMEN
  6
CONTINUOUS
 10
274.5
 20
88.0
 30
0.0
 11
276.0
 21
73.0
 31
0.0
  0
LINE
  5
1232B
  8
DANMEN
  6
CONTINUOUS
 10
319.0
 20
66.0
 30
0.0
 11
273.0
 21
66.0
 31
0.0
  0
LINE
  5
1232C
  8
DANMEN
  6
CONTINUOUS
 10
316.0
 20
73.0
 30
0.0
 11
276.0
 21
73.0
 31
0.0
  0
ARC
  5
1232E
  8
DANMEN
  6
CONTINUOUS
 10
319.0
 20
68.0
 30
0.0
 40
2.0
 50
270.000018
 51
0.0
  0
LINE
  5
12330
  8
DANMEN
  6
CONTINUOUS
 10
303.191146
 20
122.605573
 30
0.0
 11
303.745423
 21
122.856576
 31
0.0
  0
LINE
  5
12331
  8
DANMEN
  6
CONTINUOUS
 10
319.500003
 20
99.999997
 30
0.0
 11
296.0
 21
99.999997
 31
0.0
  0
LINE
  5
12332
  8
DANMEN
  6
CONTINUOUS
 10
317.5
 20
98.0
 30
0.0
 11
274.5
 21
98.0
 31
0.0
  0
LINE
  5
12333
  8
DANMEN
  6
CONTINUOUS
 10
305.3
 20
121.3
 30
0.0
 11
301.401083
 21
121.3
 31
0.0
  0
LINE
  5
12334
  8
DANMEN
  6
CONTINUOUS
 10
304.3
 20
122.5
 30
0.0
 11
302.3
 21
122.5
 31
0.0
  0
LINE
  5
12335
  8
DANMEN
  6
CONTINUOUS
 10
296.0
 20
108.299994
 30
0.0
 11
314.0
 21
108.299994
 31
0.0
  0
LINE
  5
12336
  8
DANMEN
  6
CONTINUOUS
 10
314.0
 20
108.299994
 30
0.0
 11
296.0
 21
118.299994
 31
0.0
  0
LINE
  5
12337
  8
DANMEN
  6
CONTINUOUS
 10
296.0
 20
118.299994
 30
0.0
 11
314.0
 21
118.299994
 31
0.0
  0
LINE
  5
12338
  8
DANMEN
  6
CONTINUOUS
 10
272.949997
 20
99.949997
 30
0.0
 11
272.949997
 21
122.05
 31
0.0
  0
LINE
  5
12339
  8
DANMEN
  6
CONTINUOUS
 10
296.0
 20
99.999997
 30
0.0
 11
296.0
 21
118.299994
 31
0.0
  0
LINE
  5
1233A
  8
DANMEN
  6
CONTINUOUS
 10
284.049997
 20
99.949997
 30
0.0
 11
284.049997
 21
102.999997
 31
0.0
  0
LINE
  5
1233B
  8
DANMEN
  6
CONTINUOUS
 10
274.5
 20
98.0
 30
0.0
 11
274.5
 21
88.0
 31
0.0
  0
LINE
  5
1233C
  8
DANMEN
  6
CONTINUOUS
 10
284.049997
 20
99.949997
 30
0.0
 11
272.949997
 21
99.949997
 31
0.0
  0
LINE
  5
1233E
  8
DANMEN
  6
CONTINUOUS
 10
285.249997
 20
122.5
 30
0.0
 11
293.700003
 21
122.5
 31
0.0
  0
LINE
  5
1233F
  8
DANMEN
  6
CONTINUOUS
 10
293.700003
 20
100.499997
 30
0.0
 11
285.249997
 21
100.499997
 31
0.0
  0
LINE
  5
12340
  8
DANMEN
  6
CONTINUOUS
 10
285.249997
 20
100.499997
 30
0.0
 11
285.249997
 21
102.499997
 31
0.0
  0
LINE
  5
12341
  8
DANMEN
  6
CONTINUOUS
 10
284.749997
 20
102.999997
 30
0.0
 11
284.049997
 21
102.999997
 31
0.0
  0
ARC
  5
12342
  8
DANMEN
  6
CONTINUOUS
 10
284.749997
 20
102.499997
 30
0.0
 40
0.5
 50
0.0
 51
90.0
  0
LINE
  5
12343
  8
DANMEN
  6
CONTINUOUS
 10
284.050003
 20
123.05
 30
0.0
 11
272.649997
 21
123.05
 31
0.0
  0
LINE
  5
12345
  8
DANMEN
  6
CONTINUOUS
 10
272.649997
 20
122.05
 30
0.0
 11
272.649997
 21
123.05
 31
0.0
  0
LINE
  5
12346
  8
DANMEN
  6
CONTINUOUS
 10
272.949997
 20
122.05
 30
0.0
 11
272.649997
 21
122.05
 31
0.0
  0
LINE
  5
12349
  8
DANMEN
  6
CONTINUOUS
 10
284.749997
 20
119.999997
 30
0.0
 11
284.049997
 21
119.999997
 31
0.0
  0
LINE
  5
1234A
  8
DANMEN
  6
CONTINUOUS
 10
284.049997
 20
119.999997
 30
0.0
 11
284.049997
 21
123.05
 31
0.0
  0
LINE
  5
1234B
  8
DANMEN
  6
CONTINUOUS
 10
285.249997
 20
120.499997
 30
0.0
 11
285.249997
 21
122.5
 31
0.0
  0
ARC
  5
1234C
  8
DANMEN
  6
CONTINUOUS
 10
284.749997
 20
120.499997
 30
0.0
 40
0.5
 50
270.0
 51
0.0
  0
LINE
  5
1234D
  8
DANMEN
  6
CONTINUOUS
 10
293.700003
 20
100.499997
 30
0.0
 11
293.700003
 21
122.5
 31
0.0
  0
LINE
  5
1234F
  8
DANMEN
  6
CONTINUOUS
 10
300.0
 20
119.499994
 30
0.0
 11
296.0
 21
119.499994
 31
0.0
  0
LINE
  5
12350
  8
DANMEN
  6
CONTINUOUS
 10
302.0
 20
123.05
 30
0.0
 11
296.0
 21
123.05
 31
0.0
  0
LINE
  5
12351
  8
DANMEN
  6
CONTINUOUS
 10
302.0
 20
118.299994
 30
0.0
 11
296.0
 21
118.299994
 31
0.0
  0
LINE
  5
12352
  8
DANMEN
  6
CONTINUOUS
 10
301.413121
 20
122.801883
 30
0.0
 11
298.436094
 21
120.598292
 31
0.0
  0
LINE
  5
12353
  8
DANMEN
  6
CONTINUOUS
 10
301.401083
 20
121.3
 30
0.0
 11
298.699105
 21
119.3
 31
0.0
  0
LINE
  5
12354
  8
DANMEN
  6
CONTINUOUS
 10
296.0
 20
119.499994
 30
0.0
 11
296.0
 21
123.05
 31
0.0
  0
ARC
  5
12355
  8
DANMEN
  6
CONTINUOUS
 10
297.24247
 20
120.900136
 30
0.0
 40
0.5
 50
34.702622
 51
90.0
  0
ARC
  5
12356
  8
DANMEN
  6
CONTINUOUS
 10
298.257611
 20
120.839422
 30
0.0
 40
0.3
 50
214.702622
 51
306.508792
  0
LINE
  5
12357
  8
DANMEN
  6
CONTINUOUS
 10
297.653529
 20
121.184794
 30
0.0
 11
298.010975
 21
120.668627
 31
0.0
  0
ARC
  5
12358
  8
DANMEN
  6
CONTINUOUS
 10
296.999105
 20
120.900136
 30
0.0
 40
0.5
 50
90.0
 51
180.0
  0
ARC
  5
12359
  8
DANMEN
  6
CONTINUOUS
 10
296.999105
 20
120.900266
 30
0.0
 40
0.5
 50
180.0
 51
214.702622
  0
LINE
  5
1235A
  8
DANMEN
  6
CONTINUOUS
 10
296.999105
 20
121.400136
 30
0.0
 11
297.24247
 21
121.400136
 31
0.0
  0
LINE
  5
1235B
  8
DANMEN
  6
CONTINUOUS
 10
296.499105
 20
120.900266
 30
0.0
 11
296.499105
 21
120.900136
 31
0.0
  0
LINE
  5
1235C
  8
DANMEN
  6
CONTINUOUS
 10
296.588046
 20
120.615608
 30
0.0
 11
297.499105
 21
119.3
 31
0.0
  0
LINE
  5
1235D
  8
DANMEN
  6
CONTINUOUS
 10
298.699105
 20
119.3
 30
0.0
 11
297.499105
 21
119.3
 31
0.0
  0
ARC
  5
1235E
  8
DANMEN
  6
CONTINUOUS
 10
301.5
 20
118.690092
 30
0.0
 40
0.5
 50
0.0
 51
78.690068
  0
LINE
  5
1235F
  8
DANMEN
  6
CONTINUOUS
 10
302.0
 20
118.690092
 30
0.0
 11
302.0
 21
118.299994
 31
0.0
  0
LINE
  5
12360
  8
DANMEN
  6
CONTINUOUS
 10
300.0
 20
119.499994
 30
0.0
 11
301.598058
 21
119.180382
 31
0.0
  0
ARC
  5
12361
  8
DANMEN
  6
CONTINUOUS
 10
302.3
 20
122.8
 30
0.0
 40
0.3
 50
180.0
 51
270.0
  0
LINE
  5
12362
  8
DANMEN
  6
CONTINUOUS
 10
302.0
 20
122.8
 30
0.0
 11
302.0
 21
123.05
 31
0.0
  0
ARC
  5
12363
  8
DANMEN
  6
CONTINUOUS
 10
302.743932
 20
123.5
 30
0.0
 40
1.0
 50
270.0
 51
296.565051
  0
LINE
  5
12364
  8
DANMEN
  6
CONTINUOUS
 10
302.3
 20
122.5
 30
0.0
 11
302.743932
 21
122.5
 31
0.0
  0
ARC
  5
1236C
  8
DANMEN
  6
CONTINUOUS
 10
301.734315
 20
122.6
 30
0.0
 40
0.3
 50
19.471221
 51
90.0
  0
ARC
  5
1236E
  8
DANMEN
  6
CONTINUOUS
 10
302.3
 20
122.8
 30
0.0
 40
0.3
 50
199.471221
 51
270.0
  0
ARC
  5
1236F
  8
DANMEN
  6
CONTINUOUS
 10
301.710594
 20
122.4
 30
0.0
 40
0.5
 50
90.0
 51
126.508792
  0
LINE
  5
12370
  8
DANMEN
  6
CONTINUOUS
 10
301.734315
 20
122.9
 30
0.0
 11
301.710594
 21
122.9
 31
0.0
  0
LINE
  5
12371
  8
DANMEN
  6
CONTINUOUS
 10
319.500003
 20
99.999997
 30
0.0
 11
319.500003
 21
101.999997
 31
0.0
  0
LINE
  5
12372
  8
DANMEN
  6
CONTINUOUS
 10
317.5
 20
98.0
 30
0.0
 11
317.5
 21
88.0
 31
0.0
  0
LINE
  5
12374
  8
DANMEN
  6
CONTINUOUS
 10
333.0
 20
94.0
 30
0.0
 11
321.0
 21
94.0
 31
0.0
  0
LINE
  5
12375
  8
DANMEN
  6
CONTINUOUS
 10
320.5
 20
107.5
 30
0.0
 11
318.0
 21
107.5
 31
0.0
  0
LINE
  5
12376
  8
DANMEN
  6
CONTINUOUS
 10
320.499996
 20
122.5
 30
0.0
 11
317.999997
 21
122.5
 31
0.0
  0
LINE
  5
12377
  8
DANMEN
  6
CONTINUOUS
 10
314.0
 20
118.299994
 30
0.0
 11
314.0
 21
108.299994
 31
0.0
  0
LINE
  5
12378
  8
DANMEN
  6
CONTINUOUS
 10
319.05
 20
101.999997
 30
0.0
 11
319.05
 21
106.699997
 31
0.0
  0
LINE
  5
12379
  8
DANMEN
  6
CONTINUOUS
 10
319.500003
 20
101.999997
 30
0.0
 11
319.05
 21
101.999997
 31
0.0
  0
LINE
  5
1237A
  8
DANMEN
  6
CONTINUOUS
 10
318.0
 20
107.199997
 30
0.0
 11
318.0
 21
107.5
 31
0.0
  0
LINE
  5
1237B
  8
DANMEN
  6
CONTINUOUS
 10
319.05
 20
106.699997
 30
0.0
 11
318.5
 21
106.699997
 31
0.0
  0
ARC
  5
1237C
  8
DANMEN
  6
CONTINUOUS
 10
318.5
 20
107.199997
 30
0.0
 40
0.5
 50
180.0
 51
270.0
  0
LINE
  5
1237D
  8
DANMEN
  6
CONTINUOUS
 10
315.999997
 20
123.05
 30
0.0
 11
306.3
 21
123.05
 31
0.0
  0
ARC
  5
1237E
  8
DANMEN
  6
CONTINUOUS
 10
303.5
 20
123.292199
 30
0.0
 40
0.5
 50
299.396173
 51
0.0
  0
ARC
  5
12380
  8
DANMEN
  6
CONTINUOUS
 10
305.3
 20
121.8
 30
0.0
 40
0.5
 50
270.0
 51
0.0
  0
LINE
  5
12381
  8
DANMEN
  6
CONTINUOUS
 10
304.3
 20
123.5
 30
0.0
 11
304.0
 21
123.5
 31
0.0
  0
LINE
  5
12382
  8
DANMEN
  6
CONTINUOUS
 10
304.3
 20
123.5
 30
0.0
 11
304.3
 21
122.5
 31
0.0
  0
LINE
  5
12383
  8
DANMEN
  6
CONTINUOUS
 10
305.8
 20
122.55
 30
0.0
 11
305.8
 21
121.8
 31
0.0
  0
ARC
  5
12384
  8
DANMEN
  6
CONTINUOUS
 10
306.3
 20
122.55
 30
0.0
 40
0.5
 50
90.0
 51
180.0
  0
LINE
  5
12385
  8
DANMEN
  6
CONTINUOUS
 10
314.0
 20
117.500002
 30
0.0
 11
314.0
 21
112.500014
 31
0.0
  0
LINE
  5
12386
  8
DANMEN
  6
CONTINUOUS
 10
315.999997
 20
123.05
 30
0.0
 11
315.999997
 21
122.5
 31
0.0
  0
LINE
  5
12387
  8
DANMEN
  6
CONTINUOUS
 10
316.999997
 20
122.55
 30
0.0
 11
316.999997
 21
122.5
 31
0.0
  0
LINE
  5
12388
  8
DANMEN
  6
CONTINUOUS
 10
316.999997
 20
122.5
 30
0.0
 11
315.999997
 21
122.5
 31
0.0
  0
LINE
  5
12389
  8
DANMEN
  6
CONTINUOUS
 10
317.999997
 20
123.05
 30
0.0
 11
317.499997
 21
123.05
 31
0.0
  0
LINE
  5
1238A
  8
DANMEN
  6
CONTINUOUS
 10
317.999997
 20
123.05
 30
0.0
 11
317.999997
 21
122.5
 31
0.0
  0
ARC
  5
1238B
  8
DANMEN
  6
CONTINUOUS
 10
317.499997
 20
122.55
 30
0.0
 40
0.5
 50
90.0
 51
180.0
  0
ARC
  5
1238C
  8
DANMEN
  6
CONTINUOUS
 10
325.0
 20
111.000006
 30
0.0
 40
1.5
 50
90.0
 51
179.999982
  0
LINE
  5
1238D
  8
DANMEN
  6
CONTINUOUS
 10
323.5
 20
108.5
 30
0.0
 11
323.5
 21
111.000006
 31
0.0
  0
ARC
  5
1238E
  8
DANMEN
  6
CONTINUOUS
 10
322.0
 20
108.5
 30
0.0
 40
1.5
 50
269.999964
 51
0.000001
  0
ARC
  5
1238F
  8
DANMEN
  6
CONTINUOUS
 10
320.5
 20
107.0
 30
0.0
 40
0.5
 50
0.000019
 51
89.999982
  0
ARC
  5
12390
  8
DANMEN
  6
CONTINUOUS
 10
325.0
 20
119.000009
 30
0.0
 40
1.5
 50
179.999982
 51
269.999964
  0
ARC
  5
12392
  8
DANMEN
  6
CONTINUOUS
 10
322.0
 20
121.5
 30
0.0
 40
1.5
 50
0.000018
 51
90.0
  0
LINE
  5
12393
  8
DANMEN
  6
CONTINUOUS
 10
323.5
 20
119.000009
 30
0.0
 11
323.5
 21
121.5
 31
0.0
  0
ARC
  5
12394
  8
DANMEN
  6
CONTINUOUS
 10
320.499997
 20
123.0
 30
0.0
 40
0.5
 50
270.0
 51
0.0
  0
LINE
  5
12395
  8
SUNPO
  6
CONTINUOUS
 10
45.0
 20
37.5
 30
0.0
 11
45.0
 21
20.0
 31
0.0
  0
LINE
  5
12396
  8
SUNPO
  6
CONTINUOUS
 10
25.0
 20
30.0
 30
0.0
 11
25.0
 21
39.0
 31
0.0
  0
ARC
  5
12398
  8
SUNPO
  6
BYBLOCK
 10
25.0
 20
30.0
 30
0.0
 40
0.145
 50
270.0
 51
90.0
  0
ARC
  5
12399
  8
SUNPO
  6
BYBLOCK
 10
25.0
 20
30.0
 30
0.0
 40
0.145
 50
90.0
 51
270.0
  0
TEXT
  5
1239A
  8
SUNPO
  6
CONTINUOUS
 10
49.333333
 20
21.0
 30
0.0
 40
2.5
  1
12
  0
LINE
  5
1239B
  8
SUNPO
  6
CONTINUOUS
 10
45.0
 20
20.0
 30
0.0
 11
57.0
 21
20.0
 31
0.0
  0
ARC
  5
1239C
  8
SUNPO
  6
BYBLOCK
 10
45.0
 20
20.0
 30
0.0
 40
0.145
 50
180.0
 51
0.0
  0
ARC
  5
1239D
  8
SUNPO
  6
BYBLOCK
 10
45.0
 20
20.0
 30
0.0
 40
0.145
 50
0.0
 51
180.0
  0
LINE
  5
1239E
  8
SUNPO
  6
CONTINUOUS
 10
57.0
 20
28.5
 30
0.0
 11
57.0
 21
20.0
 31
0.0
  0
ARC
  5
1239F
  8
SUNPO
  6
BYBLOCK
 10
57.0
 20
20.0
 30
0.0
 40
0.145
 50
0.0
 51
180.0
  0
ARC
  5
123A0
  8
SUNPO
  6
BYBLOCK
 10
57.0
 20
20.0
 30
0.0
 40
0.145
 50
180.0
 51
0.0
  0
LINE
  5
123A1
  8
DANMEN
  6
CONTINUOUS
 10
369.000003
 20
123.05
 30
0.0
 11
369.500003
 21
123.05
 31
0.0
  0
LINE
  5
123A2
  8
DANMEN
  6
CONTINUOUS
 10
366.5
 20
105.0
 30
0.0
 11
376.0
 21
105.0
 31
0.0
  0
LINE
  5
123A3
  8
DANMEN
  6
CONTINUOUS
 10
369.0
 20
106.65
 30
0.0
 11
377.15
 21
106.65
 31
0.0
  0
LINE
  5
123A4
  8
DANMEN
  6
CONTINUOUS
 10
373.0
 20
117.500002
 30
0.0
 11
345.0
 21
117.500002
 31
0.0
  0
LINE
  5
123A5
  8
DANMEN
  6
CONTINUOUS
 10
373.0
 20
112.500014
 30
0.0
 11
345.0
 21
112.500014
 31
0.0
  0
LINE
  5
123A6
  8
DANMEN
  6
CONTINUOUS
 10
373.0
 20
117.000002
 30
0.0
 11
345.0
 21
117.000002
 31
0.0
  0
LINE
  5
123A7
  8
DANMEN
  6
CONTINUOUS
 10
373.0
 20
113.000014
 30
0.0
 11
345.0
 21
113.000014
 31
0.0
  0
LINE
  5
123A8
  8
DANMEN
  6
CONTINUOUS
 10
345.0
 20
94.0
 30
0.0
 11
376.0
 21
94.0
 31
0.0
  0
LINE
  5
123A9
  8
DANMEN
  6
CONTINUOUS
 10
345.0
 20
95.65
 30
0.0
 11
376.0
 21
95.65
 31
0.0
  0
LINE
  5
123AA
  8
DANMEN
  6
CONTINUOUS
 10
345.0
 20
123.000015
 30
0.0
 11
366.0
 21
123.000015
 31
0.0
  0
LINE
  5
123AB
  8
DANMEN
  6
CONTINUOUS
 10
345.0
 20
107.000015
 30
0.0
 11
366.0
 21
107.000015
 31
0.0
  0
LINE
  5
123AC
  8
DANMEN
  6
CONTINUOUS
 10
345.0
 20
105.0
 30
0.0
 11
366.5
 21
105.0
 31
0.0
  0
ARC
  5
123AD
  8
DANMEN
  6
CONTINUOUS
 10
362.000092
 20
111.000006
 30
0.0
 40
1.5
 50
359.999982
 51
89.999964
  0
LINE
  5
123AE
  8
DANMEN
  6
CONTINUOUS
 10
366.0
 20
107.0
 30
0.0
 11
366.0
 21
105.5
 31
0.0
  0
ARC
  5
123AF
  8
DANMEN
  6
CONTINUOUS
 10
366.5
 20
105.5
 30
0.0
 40
0.5
 50
180.0
 51
269.999982
  0
ARC
  5
123B0
  8
DANMEN
  6
CONTINUOUS
 10
365.000092
 20
108.500015
 30
0.0
 40
1.5
 50
180.000018
 51
270.0
  0
LINE
  5
123B1
  8
DANMEN
  6
CONTINUOUS
 10
363.500092
 20
111.000006
 30
0.0
 11
363.500092
 21
108.500015
 31
0.0
  0
ARC
  5
123B2
  8
DANMEN
  6
CONTINUOUS
 10
366.5
 20
107.0
 30
0.0
 40
0.5
 50
89.999963
 51
180.000019
  0
LINE
  5
123B3
  8
DANMEN
  6
CONTINUOUS
 10
369.0
 20
107.5
 30
0.0
 11
369.0
 21
106.65
 31
0.0
  0
LINE
  5
123B4
  8
DANMEN
  6
CONTINUOUS
 10
366.5
 20
107.5
 30
0.0
 11
369.0
 21
107.5
 31
0.0
  0
ARC
  5
123B5
  8
DANMEN
  6
CONTINUOUS
 10
362.000092
 20
119.000009
 30
0.0
 40
1.5
 50
270.0
 51
359.999982
  0
ARC
  5
123B7
  8
DANMEN
  6
CONTINUOUS
 10
365.000092
 20
121.500015
 30
0.0
 40
1.5
 50
89.999964
 51
180.000001
  0
LINE
  5
123B8
  8
DANMEN
  6
CONTINUOUS
 10
363.500092
 20
121.500015
 30
0.0
 11
363.500092
 21
119.000009
 31
0.0
  0
LINE
  5
123B9
  8
DANMEN
  6
CONTINUOUS
 10
366.500004
 20
122.5
 30
0.0
 11
369.000003
 21
122.5
 31
0.0
  0
ARC
  5
123BA
  8
DANMEN
  6
CONTINUOUS
 10
366.500003
 20
123.0
 30
0.0
 40
0.5
 50
180.0
 51
270.0
  0
LINE
  5
123BB
  8
DANMEN
  6
CONTINUOUS
 10
369.000003
 20
123.05
 30
0.0
 11
369.000003
 21
122.5
 31
0.0
  0
LINE
  5
123BC
  8
DANMEN
  6
CONTINUOUS
 10
376.0
 20
105.0
 30
0.0
 11
376.0
 21
94.5
 31
0.0
  0
LINE
  5
123BD
  8
DANMEN
  6
CONTINUOUS
 10
391.0
 20
95.199997
 30
0.0
 11
391.0
 21
118.299994
 31
0.0
  0
LINE
  5
123BE
  8
DANMEN
  6
CONTINUOUS
 10
377.65
 20
106.15
 30
0.0
 11
377.65
 21
95.65
 31
0.0
  0
LINE
  5
123BF
  8
DANMEN
  6
CONTINUOUS
 10
376.5
 20
94.0
 30
0.0
 11
400.5
 21
94.0
 31
0.0
  0
LINE
  5
123C0
  8
DANMEN
  6
CONTINUOUS
 10
377.65
 20
95.65
 30
0.0
 11
389.0
 21
95.65
 31
0.0
  0
ARC
  5
123C1
  8
DANMEN
  6
CONTINUOUS
 10
376.5
 20
94.5
 30
0.0
 40
0.5
 50
180.0
 51
270.0
  0
LINE
  5
123C2
  8
DANMEN
  6
CONTINUOUS
 10
399.350006
 20
95.649994
 30
0.0
 11
392.649994
 21
95.649994
 31
0.0
  0
LINE
  5
123C3
  8
DANMEN
  6
CONTINUOUS
 10
391.0
 20
95.199997
 30
0.0
 11
389.0
 21
95.199997
 31
0.0
  0
LINE
  5
123C4
  8
DANMEN
  6
CONTINUOUS
 10
389.0
 20
95.199997
 30
0.0
 11
389.0
 21
95.649994
 31
0.0
  0
ARC
  5
123C5
  8
DANMEN
  6
CONTINUOUS
 10
400.5
 20
94.5
 30
0.0
 40
0.5
 50
270.000018
 51
359.999981
  0
ARC
  5
123C6
  8
DANMEN
  6
CONTINUOUS
 10
400.5
 20
99.5
 30
0.0
 40
0.5
 50
359.999981
 51
90.000037
  0
ARC
  5
123C7
  8
DANMEN
  6
CONTINUOUS
 10
399.850006
 20
99.5
 30
0.0
 40
0.5
 50
90.000037
 51
180.000019
  0
LINE
  5
123C8
  8
DANMEN
  6
CONTINUOUS
 10
399.350006
 20
99.5
 30
0.0
 11
399.350006
 21
95.649994
 31
0.0
  0
LINE
  5
123C9
  8
DANMEN
  6
CONTINUOUS
 10
401.0
 20
99.5
 30
0.0
 11
401.0
 21
94.5
 31
0.0
  0
LINE
  5
123CA
  8
DANMEN
  6
CONTINUOUS
 10
400.5
 20
100.0
 30
0.0
 11
399.850006
 21
100.0
 31
0.0
  0
ARC
  5
123CB
  8
DANMEN
  6
CONTINUOUS
 10
385.289406
 20
122.4
 30
0.0
 40
0.5
 50
53.491208
 51
90.0
  0
LINE
  5
123CC
  8
DANMEN
  6
CONTINUOUS
 10
381.7
 20
121.3
 30
0.0
 11
385.598917
 21
121.3
 31
0.0
  0
LINE
  5
123CD
  8
DANMEN
  6
CONTINUOUS
 10
387.0
 20
119.499994
 30
0.0
 11
385.401942
 21
119.180382
 31
0.0
  0
LINE
  5
123CE
  8
DANMEN
  6
CONTINUOUS
 10
385.0
 20
118.299994
 30
0.0
 11
391.0
 21
118.299994
 31
0.0
  0
LINE
  5
123CF
  8
DANMEN
  6
CONTINUOUS
 10
385.0
 20
123.35
 30
0.0
 11
391.0
 21
123.35
 31
0.0
  0
ARC
  5
123D0
  8
DANMEN
  6
CONTINUOUS
 10
377.15
 20
106.15
 30
0.0
 40
0.5
 50
0.0
 51
90.0
  0
LINE
  5
123D1
  8
DANMEN
  6
CONTINUOUS
 10
371.000003
 20
123.05
 30
0.0
 11
380.7
 21
123.05
 31
0.0
  0
LINE
  5
123D2
  8
DANMEN
  6
CONTINUOUS
 10
373.0
 20
117.500002
 30
0.0
 11
373.0
 21
112.500014
 31
0.0
  0
LINE
  5
123D3
  8
DANMEN
  6
CONTINUOUS
 10
371.000003
 20
123.05
 30
0.0
 11
371.000003
 21
122.5
 31
0.0
  0
LINE
  5
123D4
  8
DANMEN
  6
CONTINUOUS
 10
370.000003
 20
122.55
 30
0.0
 11
370.000003
 21
122.5
 31
0.0
  0
LINE
  5
123D5
  8
DANMEN
  6
CONTINUOUS
 10
370.000003
 20
122.5
 30
0.0
 11
371.000003
 21
122.5
 31
0.0
  0
ARC
  5
123D6
  8
DANMEN
  6
CONTINUOUS
 10
369.500003
 20
122.55
 30
0.0
 40
0.5
 50
0.0
 51
90.0
  0
ARC
  5
123D7
  8
DANMEN
  6
CONTINUOUS
 10
381.7
 20
121.8
 30
0.0
 40
0.5
 50
180.0
 51
270.0
  0
LINE
  5
123D8
  8
DANMEN
  6
CONTINUOUS
 10
381.2
 20
122.55
 30
0.0
 11
381.2
 21
121.8
 31
0.0
  0
ARC
  5
123D9
  8
DANMEN
  6
CONTINUOUS
 10
380.7
 20
122.55
 30
0.0
 40
0.5
 50
0.0
 51
90.0
  0
ARC
  5
123DB
  8
DANMEN
  6
CONTINUOUS
 10
385.265685
 20
122.6
 30
0.0
 40
0.3
 50
90.0
 51
160.528779
  0
ARC
  5
123DD
  8
DANMEN
  6
CONTINUOUS
 10
384.7
 20
122.8
 30
0.0
 40
0.3
 50
270.0
 51
340.528779
  0
LINE
  5
123DE
  8
DANMEN
  6
CONTINUOUS
 10
385.265685
 20
122.9
 30
0.0
 11
385.289406
 21
122.9
 31
0.0
  0
LINE
  5
123DF
  8
DANMEN
  6
CONTINUOUS
 10
382.7
 20
123.5
 30
0.0
 11
383.0
 21
123.5
 31
0.0
  0
LINE
  5
123E0
  8
DANMEN
  6
CONTINUOUS
 10
382.7
 20
123.5
 30
0.0
 11
382.7
 21
122.5
 31
0.0
  0
LINE
  5
123E1
  8
DANMEN
  6
CONTINUOUS
 10
382.7
 20
122.5
 30
0.0
 11
384.7
 21
122.5
 31
0.0
  0
ARC
  5
123E2
  8
DANMEN
  6
CONTINUOUS
 10
385.5
 20
118.690092
 30
0.0
 40
0.5
 50
101.309932
 51
180.0
  0
LINE
  5
123E3
  8
DANMEN
  6
CONTINUOUS
 10
385.0
 20
118.690092
 30
0.0
 11
385.0
 21
118.299994
 31
0.0
  0
ARC
  5
123E4
  8
DANMEN
  6
CONTINUOUS
 10
384.7
 20
122.8
 30
0.0
 40
0.3
 50
270.0
 51
0.0
  0
LINE
  5
123E5
  8
DANMEN
  6
CONTINUOUS
 10
385.0
 20
122.8
 30
0.0
 11
385.0
 21
123.35
 31
0.0
  0
LINE
  5
123E6
  8
DANMEN
  6
CONTINUOUS
 10
383.808854
 20
122.605573
 30
0.0
 11
383.254577
 21
122.856576
 31
0.0
  0
ARC
  5
123E7
  8
DANMEN
  6
CONTINUOUS
 10
384.256068
 20
123.5
 30
0.0
 40
1.0
 50
243.434949
 51
270.0
  0
ARC
  5
123E8
  8
DANMEN
  6
CONTINUOUS
 10
383.5
 20
123.292199
 30
0.0
 40
0.5
 50
180.0
 51
240.603827
  0
LINE
  5
123E9
  8
DANMEN
  6
CONTINUOUS
 10
384.7
 20
122.5
 30
0.0
 11
384.256068
 21
122.5
 31
0.0
  0
ARC
  5
123EA
  8
DANMEN
  6
CONTINUOUS
 10
389.75753
 20
120.900136
 30
0.0
 40
0.5
 50
90.0
 51
145.297378
  0
LINE
  5
123EB
  8
DANMEN
  6
CONTINUOUS
 10
390.411954
 20
120.615608
 30
0.0
 11
389.500895
 21
119.3
 31
0.0
  0
LINE
  5
123EC
  8
DANMEN
  6
CONTINUOUS
 10
387.0
 20
119.499994
 30
0.0
 11
391.0
 21
119.499994
 31
0.0
  0
ARC
  5
123ED
  8
DANMEN
  6
CONTINUOUS
 10
388.742389
 20
120.839422
 30
0.0
 40
0.3
 50
233.491208
 51
325.297378
  0
LINE
  5
123EE
  8
DANMEN
  6
CONTINUOUS
 10
389.346471
 20
121.184794
 30
0.0
 11
388.989025
 21
120.668627
 31
0.0
  0
LINE
  5
123EF
  8
DANMEN
  6
CONTINUOUS
 10
385.586879
 20
122.801883
 30
0.0
 11
388.563906
 21
120.598292
 31
0.0
  0
LINE
  5
123F0
  8
DANMEN
  6
CONTINUOUS
 10
385.598917
 20
121.3
 30
0.0
 11
388.300895
 21
119.3
 31
0.0
  0
LINE
  5
123F1
  8
DANMEN
  6
CONTINUOUS
 10
388.300895
 20
119.3
 30
0.0
 11
389.500895
 21
119.3
 31
0.0
  0
ARC
  5
123F2
  8
DANMEN
  6
CONTINUOUS
 10
390.000895
 20
120.900136
 30
0.0
 40
0.5
 50
0.0
 51
90.0
  0
ARC
  5
123F3
  8
DANMEN
  6
CONTINUOUS
 10
390.000895
 20
120.900266
 30
0.0
 40
0.5
 50
325.297378
 51
0.0
  0
LINE
  5
123F4
  8
DANMEN
  6
CONTINUOUS
 10
390.000895
 20
121.400136
 30
0.0
 11
389.75753
 21
121.400136
 31
0.0
  0
LINE
  5
123F5
  8
DANMEN
  6
CONTINUOUS
 10
390.500895
 20
120.900266
 30
0.0
 11
390.500895
 21
120.900136
 31
0.0
  0
LINE
  5
123F9
  8
DANMEN
  6
CONTINUOUS
 10
391.0
 20
119.499994
 30
0.0
 11
391.0
 21
123.35
 31
0.0
  0
LINE
  5
123FA
  8
SUNPO
  6
CONTINUOUS
 10
43.5
 20
39.0
 30
0.0
 11
25.0
 21
39.0
 31
0.0
  0
LINE
  5
123FB
  8
SUNPO
  6
CONTINUOUS
 10
43.5
 20
59.0
 30
0.0
 11
25.0
 21
59.0
 31
0.0
  0
LINE
  5
123FC
  8
SUNPO
  6
CONTINUOUS
 10
25.0
 20
39.0
 30
0.0
 11
25.0
 21
59.0
 31
0.0
  0
TEXT
  5
123FD
  8
SUNPO
  6
CONTINUOUS
 10
24.0
 20
33.666667
 30
0.0
 40
2.5
  1
9
 50
90.0
  0
ARC
  5
123FE
  8
SUNPO
  6
BYBLOCK
 10
25.0
 20
39.0
 30
0.0
 40
0.145
 50
270.0
 51
90.0
  0
ARC
  5
123FF
  8
SUNPO
  6
BYBLOCK
 10
25.0
 20
39.0
 30
0.0
 40
0.145
 50
90.0
 51
270.0
  0
ARC
  5
12400
  8
SUNPO
  6
BYBLOCK
 10
25.0
 20
39.0
 30
0.0
 40
0.145
 50
90.0
 51
270.0
  0
ARC
  5
12401
  8
SUNPO
  6
BYBLOCK
 10
25.0
 20
39.0
 30
0.0
 40
0.145
 50
270.0
 51
90.0
  0
TEXT
  5
12402
  8
SUNPO
  6
CONTINUOUS
 10
24.0
 20
47.125
 30
0.0
 40
2.5
  1
20
 50
90.0
  0
TEXT
  5
12403
  8
SUNPO
  6
CONTINUOUS
 10
34.0
 20
43.333333
 30
0.0
 40
2.5
  1
12
 50
90.0
  0
ARC
  5
12404
  8
SUNPO
  6
BYBLOCK
 10
25.0
 20
59.0
 30
0.0
 40
0.145
 50
90.0
 51
270.0
  0
ARC
  5
12405
  8
SUNPO
  6
BYBLOCK
 10
25.0
 20
59.0
 30
0.0
 40
0.145
 50
270.0
 51
90.0
  0
ARC
  5
12406
  8
SUNPO
  6
BYBLOCK
 10
25.0
 20
59.0
 30
0.0
 40
0.145
 50
270.0
 51
90.0
  0
ARC
  5
12407
  8
SUNPO
  6
BYBLOCK
 10
25.0
 20
59.0
 30
0.0
 40
0.145
 50
90.0
 51
270.0
  0
TEXT
  5
12408
  8
SUNPO
  6
CONTINUOUS
 10
34.0
 20
54.166667
 30
0.0
 40
2.5
  1
8
 50
90.0
  0
TEXT
  5
12409
  8
SUNPO
  6
CONTINUOUS
 10
34.0
 20
61.666667
 30
0.0
 40
2.5
  1
7
 50
90.0
  0
LINE
  5
1240A
  8
SUNPO
  6
CONTINUOUS
 10
35.0
 20
51.0
 30
0.0
 11
35.0
 21
59.0
 31
0.0
  0
LINE
  5
1240B
  8
SUNPO
  6
CONTINUOUS
 10
35.0
 20
51.0
 30
0.0
 11
35.0
 21
39.0
 31
0.0
  0
ARC
  5
1240C
  8
SUNPO
  6
BYBLOCK
 10
35.0
 20
39.0
 30
0.0
 40
0.145
 50
270.0
 51
90.0
  0
ARC
  5
1240D
  8
SUNPO
  6
BYBLOCK
 10
35.0
 20
39.0
 30
0.0
 40
0.145
 50
90.0
 51
270.0
  0
LINE
  5
1240E
  8
SUNPO
  6
CONTINUOUS
 10
43.5
 20
51.0
 30
0.0
 11
35.0
 21
51.0
 31
0.0
  0
ARC
  5
1240F
  8
SUNPO
  6
BYBLOCK
 10
35.0
 20
51.0
 30
0.0
 40
0.145
 50
270.0
 51
90.0
  0
ARC
  5
12410
  8
SUNPO
  6
BYBLOCK
 10
35.0
 20
51.0
 30
0.0
 40
0.145
 50
90.0
 51
270.0
  0
ARC
  5
12411
  8
SUNPO
  6
BYBLOCK
 10
35.0
 20
51.0
 30
0.0
 40
0.145
 50
90.0
 51
270.0
  0
ARC
  5
12412
  8
SUNPO
  6
BYBLOCK
 10
35.0
 20
51.0
 30
0.0
 40
0.145
 50
270.0
 51
90.0
  0
LINE
  5
12413
  8
SUNPO
  6
CONTINUOUS
 10
35.0
 20
66.0
 30
0.0
 11
35.0
 21
59.0
 31
0.0
  0
ARC
  5
12414
  8
SUNPO
  6
BYBLOCK
 10
35.0
 20
59.0
 30
0.0
 40
0.145
 50
270.0
 51
90.0
  0
ARC
  5
12415
  8
SUNPO
  6
BYBLOCK
 10
35.0
 20
59.0
 30
0.0
 40
0.145
 50
90.0
 51
270.0
  0
ARC
  5
12416
  8
SUNPO
  6
BYBLOCK
 10
35.0
 20
59.0
 30
0.0
 40
0.145
 50
90.0
 51
270.0
  0
ARC
  5
12417
  8
SUNPO
  6
BYBLOCK
 10
35.0
 20
59.0
 30
0.0
 40
0.145
 50
270.0
 51
90.0
  0
LINE
  5
12418
  8
SUNPO
  6
CONTINUOUS
 10
43.5
 20
66.0
 30
0.0
 11
35.0
 21
66.0
 31
0.0
  0
ARC
  5
12419
  8
SUNPO
  6
BYBLOCK
 10
35.0
 20
66.0
 30
0.0
 40
0.145
 50
90.0
 51
270.0
  0
ARC
  5
1241A
  8
SUNPO
  6
BYBLOCK
 10
35.0
 20
66.0
 30
0.0
 40
0.145
 50
270.0
 51
90.0
  0
TEXT
  5
1241B
  8
SUNPO
  6
CONTINUOUS
 10
24.0
 20
107.791667
 30
0.0
 40
2.5
  1
103
 50
90.0
  0
LINE
  5
1241C
  8
SUNPO
  6
CONTINUOUS
 10
206.0
 20
37.5
 30
0.0
 11
181.0
 21
37.5
 31
0.0
  0
LINE
  5
1241D
  8
SUNPO
  6
CONTINUOUS
 10
206.0
 20
57.5
 30
0.0
 11
191.0
 21
57.5
 31
0.0
  0
TEXT
  5
1241E
  8
SUNPO
  6
CONTINUOUS
 10
196.833333
 20
58.5
 30
0.0
 40
2.5
  1
15
  0
LINE
  5
1241F
  8
SUNPO
  6
CONTINUOUS
 10
166.0
 20
39.0
 30
0.0
 11
166.0
 21
30.0
 31
0.0
  0
ARC
  5
12420
  8
SUNPO
  6
BYBLOCK
 10
166.0
 20
30.0
 30
0.0
 40
0.145
 50
90.0
 51
270.0
  0
ARC
  5
12421
  8
SUNPO
  6
BYBLOCK
 10
166.0
 20
30.0
 30
0.0
 40
0.145
 50
270.0
 51
90.0
  0
LINE
  5
12422
  8
SUNPO
  6
CONTINUOUS
 10
116.5
 20
64.0
 30
0.0
 11
156.0
 21
64.0
 31
0.0
  0
LINE
  5
12423
  8
SUNPO
  6
CONTINUOUS
 10
116.5
 20
39.0
 30
0.0
 11
166.0
 21
39.0
 31
0.0
  0
LINE
  5
12424
  8
SUNPO
  6
CONTINUOUS
 10
116.5
 20
99.0
 30
0.0
 11
166.0
 21
99.0
 31
0.0
  0
LINE
  5
12425
  8
SUNPO
  6
CONTINUOUS
 10
156.0
 20
99.0
 30
0.0
 11
156.0
 21
64.0
 31
0.0
  0
LINE
  5
12426
  8
SUNPO
  6
CONTINUOUS
 10
166.0
 20
99.0
 30
0.0
 11
166.0
 21
39.0
 31
0.0
  0
LINE
  5
12427
  8
SUNPO
  6
CONTINUOUS
 10
181.0
 20
92.5
 30
0.0
 11
181.0
 21
37.5
 31
0.0
  0
LINE
  5
12428
  8
SUNPO
  6
CONTINUOUS
 10
191.0
 20
92.5
 30
0.0
 11
191.0
 21
57.5
 31
0.0
  0
ARC
  5
12429
  8
SUNPO
  6
BYBLOCK
 10
166.0
 20
39.0
 30
0.0
 40
0.15625
 50
90.0
 51
270.0
  0
ARC
  5
1242A
  8
SUNPO
  6
BYBLOCK
 10
166.0
 20
39.0
 30
0.0
 40
0.145
 50
90.0
 51
270.0
  0
LINE
  5
1242B
  8
SUNPO
  6
CONTINUOUS
 10
156.0
 20
64.0
 30
0.0
 11
156.0
 21
39.0
 31
0.0
  0
ARC
  5
1242C
  8
SUNPO
  6
BYBLOCK
 10
156.0
 20
39.0
 30
0.0
 40
0.145
 50
270.0
 51
90.0
  0
ARC
  5
1242D
  8
SUNPO
  6
BYBLOCK
 10
156.0
 20
39.0
 30
0.0
 40
0.145
 50
90.0
 51
270.0
  0
TEXT
  5
1242E
  8
SUNPO
  6
CONTINUOUS
 10
165.0
 20
33.666667
 30
0.0
 40
2.5
  1
9
 50
90.0
  0
TEXT
  5
1242F
  8
SUNPO
  6
CONTINUOUS
 10
155.0
 20
49.416667
 30
0.0
 40
2.5
  1
25
 50
90.0
  0
ARC
  5
12430
  8
SUNPO
  6
BYBLOCK
 10
156.0
 20
64.0
 30
0.0
 40
0.145
 50
270.0
 51
90.0
  0
ARC
  5
12431
  8
SUNPO
  6
BYBLOCK
 10
156.0
 20
64.0
 30
0.0
 40
0.145
 50
90.0
 51
270.0
  0
ARC
  5
12432
  8
SUNPO
  6
BYBLOCK
 10
156.0
 20
64.0
 30
0.0
 40
0.145
 50
90.0
 51
270.0
  0
ARC
  5
12433
  8
SUNPO
  6
BYBLOCK
 10
156.0
 20
64.0
 30
0.0
 40
0.145
 50
270.0
 51
90.0
  0
TEXT
  5
12434
  8
SUNPO
  6
CONTINUOUS
 10
165.0
 20
67.125
 30
0.0
 40
2.5
  1
60
 50
90.0
  0
ARC
  5
12435
  8
SUNPO
  6
BYBLOCK
 10
166.0
 20
39.0
 30
0.0
 40
0.15625
 50
270.0
 51
90.0
  0
ARC
  5
12436
  8
SUNPO
  6
BYBLOCK
 10
166.0
 20
39.0
 30
0.0
 40
0.145
 50
270.0
 51
90.0
  0
ARC
  5
12437
  8
SUNPO
  6
BYBLOCK
 10
181.0
 20
37.5
 30
0.0
 40
0.15625
 50
180.0
 51
0.0
  0
ARC
  5
12438
  8
SUNPO
  6
BYBLOCK
 10
181.0
 20
37.5
 30
0.0
 40
0.15625
 50
0.0
 51
180.0
  0
TEXT
  5
12439
  8
SUNPO
  6
CONTINUOUS
 10
191.416667
 20
38.5
 30
0.0
 40
2.5
  1
25
  0
LINE
  5
1243A
  8
SUNPO
  6
CONTINUOUS
 10
191.0
 20
57.5
 30
0.0
 11
181.0
 21
57.5
 31
0.0
  0
ARC
  5
1243B
  8
SUNPO
  6
BYBLOCK
 10
181.0
 20
57.5
 30
0.0
 40
0.145
 50
180.0
 51
0.0
  0
ARC
  5
1243C
  8
SUNPO
  6
BYBLOCK
 10
181.0
 20
57.5
 30
0.0
 40
0.145
 50
0.0
 51
180.0
  0
TEXT
  5
1243D
  8
SUNPO
  6
CONTINUOUS
 10
184.541667
 20
58.5
 30
0.0
 40
2.5
  1
10
  0
ARC
  5
1243E
  8
SUNPO
  6
BYBLOCK
 10
191.0
 20
57.5
 30
0.0
 40
0.145
 50
0.0
 51
180.0
  0
ARC
  5
1243F
  8
SUNPO
  6
BYBLOCK
 10
191.0
 20
57.5
 30
0.0
 40
0.145
 50
180.0
 51
0.0
  0
ARC
  5
12440
  8
SUNPO
  6
BYBLOCK
 10
191.0
 20
57.5
 30
0.0
 40
0.145
 50
180.0
 51
0.0
  0
ARC
  5
12441
  8
SUNPO
  6
BYBLOCK
 10
191.0
 20
57.5
 30
0.0
 40
0.145
 50
0.0
 51
180.0
  0
LINE
  5
12442
  8
SUNPO
  6
CONTINUOUS
 10
161.0
 20
104.0
 30
0.0
 11
171.0
 21
104.0
 31
0.0
  0
LINE
  5
12443
  8
SUNPO
  6
CONTINUOUS
 10
166.0
 20
99.0
 30
0.0
 11
161.0
 21
104.0
 31
0.0
  0
TEXT
  5
12444
  8
SUNPO
  6
CONTINUOUS
 10
155.0
 20
79.416667
 30
0.0
 40
2.5
  1
35
 50
90.0
  0
ARC
  5
12445
  8
SUNPO
  6
BYBLOCK
 10
156.0
 20
99.0
 30
0.0
 40
0.145
 50
90.0
 51
270.0
  0
ARC
  5
12446
  8
SUNPO
  6
BYBLOCK
 10
156.0
 20
99.0
 30
0.0
 40
0.145
 50
270.0
 51
90.0
  0
ARC
  5
12447
  8
SUNPO
  6
BYBLOCK
 10
156.0
 20
99.0
 30
0.0
 40
0.145
 50
270.0
 51
90.0
  0
ARC
  5
12448
  8
SUNPO
  6
BYBLOCK
 10
156.0
 20
99.0
 30
0.0
 40
0.145
 50
90.0
 51
270.0
  0
LINE
  5
1244A
  8
SUNPO
  6
CONTINUOUS
 10
171.0
 20
104.0
 30
0.0
 11
166.0
 21
99.0
 31
0.0
  0
LINE
  5
1244D
  8
SUNPO
  6
CONTINUOUS
 10
271.0
 20
49.5
 30
0.0
 11
261.888595
 21
46.18372
 31
0.0
  0
LINE
  5
1244E
  8
SUNPO
  6
CONTINUOUS
 10
206.0
 20
37.5
 30
0.0
 11
285.978714
 21
37.5
 31
0.0
  0
LINE
  5
1244F
  8
SUNPO
  6
CONTINUOUS
 10
271.0
 20
49.5
 30
0.0
 11
206.0
 21
49.5
 31
0.0
  0
LINE
  5
12450
  8
SUNPO
  6
CONTINUOUS
 10
259.0
 20
92.5
 30
0.0
 11
259.0
 21
57.5
 31
0.0
  0
LINE
  5
12451
  8
SUNPO
  6
CONTINUOUS
 10
206.0
 20
92.5
 30
0.0
 11
206.0
 21
37.5
 31
0.0
  0
LINE
  5
12452
  8
SUNPO
  6
CONTINUOUS
 10
259.0
 20
57.5
 30
0.0
 11
206.0
 21
57.5
 31
0.0
  0
TEXT
  5
12453
  8
SUNPO
  6
CONTINUOUS
 10
230.416667
 20
58.5
 30
0.0
 40
2.5
  1
53
  0
LINE
  5
12454
  8
SUNPO
  6
CONTINUOUS
 10
215.111405
 20
52.81628
 30
0.0
 11
216.267949
 21
48.5
 31
0.0
  0
LINE
  5
12455
  8
SUNPO
  6
CONTINUOUS
 10
211.0
 20
42.5
 30
0.0
 11
211.0
 21
32.5
 31
0.0
  0
LINE
  5
12456
  8
SUNPO
  6
CONTINUOUS
 10
206.0
 20
37.5
 30
0.0
 11
211.0
 21
42.5
 31
0.0
  0
LINE
  5
12457
  8
SUNPO
  6
CONTINUOUS
 10
211.0
 20
32.5
 30
0.0
 11
206.0
 21
37.5
 31
0.0
  0
LINE
  5
1245A
  8
SUNPO
  6
CONTINUOUS
 10
206.0
 20
49.5
 30
0.0
 11
215.111405
 21
52.81628
 31
0.0
  0
ARC
  5
1245F
  8
SUNPO
  6
BYBLOCK
 10
206.0
 20
57.5
 30
0.0
 40
0.145
 50
180.0
 51
0.0
  0
ARC
  5
12460
  8
SUNPO
  6
BYBLOCK
 10
206.0
 20
57.5
 30
0.0
 40
0.145
 50
0.0
 51
180.0
  0
ARC
  5
12461
  8
SUNPO
  6
BYBLOCK
 10
206.0
 20
57.5
 30
0.0
 40
0.145
 50
0.0
 51
180.0
  0
ARC
  5
12462
  8
SUNPO
  6
BYBLOCK
 10
206.0
 20
57.5
 30
0.0
 40
0.145
 50
180.0
 51
0.0
  0
TEXT
  5
12464
  8
SUNPO
  6
CONTINUOUS
 10
241.837473
 20
50.548402
 30
0.0
 40
2.0
  1
2
  0
LINE
  5
12465
  8
SUNPO
  6
CONTINUOUS
 10
261.888595
 20
46.18372
 30
0.0
 11
260.732051
 21
50.5
 31
0.0
  0
ARC
  5
12468
  8
SUNPO
  6
BYBLOCK
 10
259.0
 20
57.5
 30
0.0
 40
0.145
 50
0.0
 51
180.0
  0
ARC
  5
12469
  8
SUNPO
  6
BYBLOCK
 10
259.0
 20
57.5
 30
0.0
 40
0.145
 50
180.0
 51
0.0
  0
LINE
  5
1246A
  8
SUNPO
  6
CONTINUOUS
 10
298.495514
 20
41.0
 30
0.0
 11
294.186113
 21
41.0
 31
0.0
  0
LINE
  5
1246B
  8
SUNPO
  6
CONTINUOUS
 10
299.22756
 20
34.000001
 30
0.0
 11
295.186114
 21
40.999998
 31
0.0
  0
LINE
  5
1246C
  8
SUNPO
  6
CONTINUOUS
 10
321.0
 20
49.5
 30
0.0
 11
271.0
 21
49.5
 31
0.0
  0
TEXT
  5
1246D
  8
SUNPO
  6
CONTINUOUS
 10
294.125
 20
50.5
 30
0.0
 40
2.5
  1
50
  0
LINE
  5
1246E
  8
SUNPO
  6
CONTINUOUS
 10
271.0
 20
64.5
 30
0.0
 11
271.0
 21
49.5
 31
0.0
  0
LINE
  5
12470
  8
SUNPO
  6
CONTINUOUS
 10
292.10634
 20
41.0
 30
0.0
 11
287.73099
 21
41.0
 31
0.0
  0
LINE
  5
12471
  8
SUNPO
  6
CONTINUOUS
 10
292.876776
 20
34.000001
 30
0.0
 11
288.835331
 21
40.999997
 31
0.0
  0
LINE
  5
12472
  8
SUNPO
  6
CONTINUOUS
 10
295.186113
 20
41.0
 30
0.0
 11
295.186113
 21
34.000001
 31
0.0
  0
LINE
  5
12473
  8
SUNPO
  6
CONTINUOUS
 10
295.186114
 20
34.0
 30
0.0
 11
291.144668
 21
40.999997
 31
0.0
  0
LINE
  5
12474
  8
SUNPO
  6
CONTINUOUS
 10
296.186113
 20
34.0
 30
0.0
 11
291.708582
 21
34.0
 31
0.0
  0
LINE
  5
12475
  8
SUNPO
  6
CONTINUOUS
 10
321.0
 20
64.5
 30
0.0
 11
321.0
 21
49.5
 31
0.0
  0
LINE
  5
12476
  8
SUNPO
  6
CONTINUOUS
 10
310.26901
 20
39.0
 30
0.0
 11
305.26901
 21
39.0
 31
0.0
  0
LINE
  5
12477
  8
SUNPO
  6
CONTINUOUS
 10
310.26901
 20
36.0
 30
0.0
 11
305.26901
 21
36.0
 31
0.0
  0
LINE
  5
12478
  8
SUNPO
  6
CONTINUOUS
 10
301.536959
 20
34.000004
 30
0.0
 11
297.495515
 21
40.999997
 31
0.0
  0
LINE
  5
12479
  8
SUNPO
  6
CONTINUOUS
 10
301.536961
 20
41.0
 30
0.0
 11
301.536961
 21
34.000003
 31
0.0
  0
LINE
  5
1247A
  8
SUNPO
  6
CONTINUOUS
 10
302.11431
 20
34.0
 30
0.0
 11
298.536562
 21
34.0
 31
0.0
  0
LINE
  5
1247B
  8
SUNPO
  6
CONTINUOUS
 10
302.495805
 20
41.0
 30
0.0
 11
300.459285
 21
41.0
 31
0.0
  0
ARC
  5
1247E
  8
SUNPO
  6
BYBLOCK
 10
267.364825
 20
94.0
 30
0.0
 40
0.145
 50
270.0
 51
90.0
  0
ARC
  5
1247F
  8
SUNPO
  6
BYBLOCK
 10
267.364825
 20
94.0
 30
0.0
 40
0.145
 50
90.0
 51
270.0
  0
LINE
  5
12480
  8
SUNPO
  6
CONTINUOUS
 10
401.0
 20
37.5
 30
0.0
 11
376.0
 21
37.5
 31
0.0
  0
LINE
  5
12481
  8
SUNPO
  6
CONTINUOUS
 10
391.0
 20
57.5
 30
0.0
 11
401.0
 21
57.5
 31
0.0
  0
TEXT
  5
12482
  8
SUNPO
  6
CONTINUOUS
 10
394.541667
 20
58.5
 30
0.0
 40
2.5
  1
10
  0
LINE
  5
12483
  8
SUNPO
  6
CONTINUOUS
 10
391.0
 20
92.5
 30
0.0
 11
391.0
 21
57.5
 31
0.0
  0
LINE
  5
12484
  8
SUNPO
  6
CONTINUOUS
 10
366.0
 20
92.5
 30
0.0
 11
366.0
 21
57.5
 31
0.0
  0
LINE
  5
12485
  8
SUNPO
  6
CONTINUOUS
 10
376.0
 20
92.5
 30
0.0
 11
376.0
 21
37.5
 31
0.0
  0
LINE
  5
12486
  8
SUNPO
  6
CONTINUOUS
 10
338.0
 20
94.0
 30
0.0
 11
338.0
 21
66.0
 31
0.0
  0
LINE
  5
12489
  8
SUNPO
  6
CONTINUOUS
 10
330.111405
 20
52.81628
 30
0.0
 11
331.267949
 21
48.5
 31
0.0
  0
TEXT
  5
1248B
  8
SUNPO
  6
CONTINUOUS
 10
347.202796
 20
50.484156
 30
0.0
 40
2.0
  1
1
 41
1.5
  0
ARC
  5
1248C
  8
SUNPO
  6
BYBLOCK
 10
338.0
 20
66.0
 30
0.0
 40
0.145
 50
270.0
 51
90.0
  0
ARC
  5
1248D
  8
SUNPO
  6
BYBLOCK
 10
338.0
 20
66.0
 30
0.0
 40
0.145
 50
90.0
 51
270.0
  0
LINE
  5
1248E
  8
SUNPO
  6
CONTINUOUS
 10
371.0
 20
32.5
 30
0.0
 11
371.0
 21
42.5
 31
0.0
  0
LINE
  5
1248F
  8
SUNPO
  6
CONTINUOUS
 10
371.0
 20
42.5
 30
0.0
 11
376.0
 21
37.5
 31
0.0
  0
LINE
  5
12490
  8
SUNPO
  6
CONTINUOUS
 10
376.0
 20
37.5
 30
0.0
 11
371.0
 21
32.5
 31
0.0
  0
LINE
  5
12493
  8
SUNPO
  6
CONTINUOUS
 10
376.0
 20
49.5
 30
0.0
 11
366.888595
 21
46.18372
 31
0.0
  0
LINE
  5
12494
  8
SUNPO
  6
CONTINUOUS
 10
366.888595
 20
46.18372
 30
0.0
 11
365.732051
 21
50.5
 31
0.0
  0
TEXT
  5
12499
  8
SUNPO
  6
CONTINUOUS
 10
386.416667
 20
38.5
 30
0.0
 40
2.5
  1
25
  0
LINE
  5
1249A
  8
SUNPO
  6
CONTINUOUS
 10
391.0
 20
57.5
 30
0.0
 11
376.0
 21
57.5
 31
0.0
  0
LINE
  5
1249B
  8
SUNPO
  6
CONTINUOUS
 10
376.0
 20
57.5
 30
0.0
 11
366.0
 21
57.5
 31
0.0
  0
TEXT
  5
1249C
  8
SUNPO
  6
CONTINUOUS
 10
369.541667
 20
58.5
 30
0.0
 40
2.5
  1
10
  0
ARC
  5
1249D
  8
SUNPO
  6
BYBLOCK
 10
366.0
 20
57.5
 30
0.0
 40
0.145
 50
180.0
 51
0.0
  0
ARC
  5
1249E
  8
SUNPO
  6
BYBLOCK
 10
366.0
 20
57.5
 30
0.0
 40
0.145
 50
0.0
 51
180.0
  0
ARC
  5
1249F
  8
SUNPO
  6
BYBLOCK
 10
376.0
 20
57.5
 30
0.0
 40
0.145
 50
180.0
 51
0.0
  0
ARC
  5
124A0
  8
SUNPO
  6
BYBLOCK
 10
376.0
 20
57.5
 30
0.0
 40
0.145
 50
0.0
 51
180.0
  0
ARC
  5
124A1
  8
SUNPO
  6
BYBLOCK
 10
376.0
 20
57.5
 30
0.0
 40
0.145
 50
0.0
 51
180.0
  0
ARC
  5
124A2
  8
SUNPO
  6
BYBLOCK
 10
376.0
 20
57.5
 30
0.0
 40
0.145
 50
180.0
 51
0.0
  0
TEXT
  5
124A3
  8
SUNPO
  6
CONTINUOUS
 10
381.833333
 20
58.5
 30
0.0
 40
2.5
  1
15
  0
ARC
  5
124A4
  8
SUNPO
  6
BYBLOCK
 10
391.0
 20
57.5
 30
0.0
 40
0.145
 50
0.0
 51
180.0
  0
ARC
  5
124A5
  8
SUNPO
  6
BYBLOCK
 10
391.0
 20
57.5
 30
0.0
 40
0.145
 50
180.0
 51
0.0
  0
ARC
  5
124A6
  8
SUNPO
  6
BYBLOCK
 10
391.0
 20
57.5
 30
0.0
 40
0.145
 50
180.0
 51
0.0
  0
ARC
  5
124A7
  8
SUNPO
  6
BYBLOCK
 10
391.0
 20
57.5
 30
0.0
 40
0.145
 50
0.0
 51
180.0
  0
LINE
  5
124A8
  8
SUNPO
  6
CONTINUOUS
 10
364.5
 20
107.5
 30
0.0
 11
353.577611
 21
107.5
 31
0.0
  0
LINE
  5
124A9
  8
SUNPO
  6
CONTINUOUS
 10
364.5
 20
105.0
 30
0.0
 11
353.577611
 21
105.0
 31
0.0
  0
LINE
  5
124AA
  8
SUNPO
  6
CONTINUOUS
 10
364.5
 20
122.5
 30
0.0
 11
353.577611
 21
122.5
 31
0.0
  0
LINE
  5
124AB
  8
SUNPO
  6
CONTINUOUS
 10
364.5
 20
107.5
 30
0.0
 11
353.577611
 21
107.5
 31
0.0
  0
LINE
  5
124AC
  8
SUNPO
  6
CONTINUOUS
 10
364.5
 20
122.5
 30
0.0
 11
353.577611
 21
122.5
 31
0.0
  0
LINE
  5
124AD
  8
SUNPO
  6
CONTINUOUS
 10
353.577611
 20
105.0
 30
0.0
 11
353.577611
 21
95.68
 31
0.0
  0
TEXT
  5
124AE
  8
SUNPO
  6
CONTINUOUS
 10
352.577611
 20
96.68
 30
0.0
 40
2.5
  1
2.5
 50
90.0
  0
TEXT
  5
124AF
  8
SUNPO
  6
CONTINUOUS
 10
337.0
 20
77.916667
 30
0.0
 40
2.5
  1
28
 50
90.0
  0
ARC
  5
124B0
  8
SUNPO
  6
BYBLOCK
 10
338.0
 20
94.0
 30
0.0
 40
0.145
 50
90.0
 51
270.0
  0
ARC
  5
124B1
  8
SUNPO
  6
BYBLOCK
 10
338.0
 20
94.0
 30
0.0
 40
0.145
 50
270.0
 51
90.0
  0
ARC
  5
124B2
  8
SUNPO
  6
BYBLOCK
 10
338.0
 20
94.0
 30
0.0
 40
0.145
 50
270.0
 51
90.0
  0
ARC
  5
124B3
  8
SUNPO
  6
BYBLOCK
 10
338.0
 20
94.0
 30
0.0
 40
0.145
 50
90.0
 51
270.0
  0
TEXT
  5
124B4
  8
SUNPO
  6
CONTINUOUS
 10
337.0
 20
109.782096
 30
0.0
 40
2.5
  1
31
 50
90.0
  0
LINE
  5
124B5
  8
SUNPO
  6
CONTINUOUS
 10
353.577611
 20
107.5
 30
0.0
 11
353.577611
 21
122.5
 31
0.0
  0
LINE
  5
124B6
  8
SUNPO
  6
CONTINUOUS
 10
353.577611
 20
107.5
 30
0.0
 11
353.577611
 21
105.0
 31
0.0
  0
ARC
  5
124B7
  8
SUNPO
  6
BYBLOCK
 10
353.577611
 20
105.0
 30
0.0
 40
0.145
 50
270.0
 51
90.0
  0
ARC
  5
124B8
  8
SUNPO
  6
BYBLOCK
 10
353.577611
 20
105.0
 30
0.0
 40
0.145
 50
90.0
 51
270.0
  0
ARC
  5
124B9
  8
SUNPO
  6
BYBLOCK
 10
353.577611
 20
107.5
 30
0.0
 40
0.145
 50
90.0
 51
270.0
  0
ARC
  5
124BA
  8
SUNPO
  6
BYBLOCK
 10
353.577611
 20
107.5
 30
0.0
 40
0.145
 50
270.0
 51
90.0
  0
ARC
  5
124BB
  8
SUNPO
  6
BYBLOCK
 10
353.577611
 20
107.5
 30
0.0
 40
0.145
 50
270.0
 51
90.0
  0
ARC
  5
124BC
  8
SUNPO
  6
BYBLOCK
 10
353.577611
 20
107.5
 30
0.0
 40
0.145
 50
90.0
 51
270.0
  0
TEXT
  5
124BD
  8
SUNPO
  6
CONTINUOUS
 10
352.577611
 20
113.333333
 30
0.0
 40
2.5
  1
15
 50
90.0
  0
ARC
  5
124BE
  8
SUNPO
  6
BYBLOCK
 10
353.577611
 20
122.5
 30
0.0
 40
0.145
 50
90.0
 51
270.0
  0
ARC
  5
124BF
  8
SUNPO
  6
BYBLOCK
 10
353.577611
 20
122.5
 30
0.0
 40
0.145
 50
270.0
 51
90.0
  0
ARC
  5
124C0
  8
SUNPO
  6
BYBLOCK
 10
353.577611
 20
122.5
 30
0.0
 40
0.145
 50
270.0
 51
90.0
  0
ARC
  5
124C1
  8
SUNPO
  6
BYBLOCK
 10
353.577611
 20
122.5
 30
0.0
 40
0.145
 50
90.0
 51
270.0
  0
LINE
  5
124C2
  8
SUNPO
  6
CONTINUOUS
 10
401.0
 20
92.5
 30
0.0
 11
401.0
 21
37.5
 31
0.0
  0
ARC
  5
124C3
  8
SUNPO
  6
BYBLOCK
 10
401.0
 20
37.5
 30
0.0
 40
0.145
 50
0.0
 51
180.0
  0
ARC
  5
124C4
  8
SUNPO
  6
BYBLOCK
 10
401.0
 20
37.5
 30
0.0
 40
0.145
 50
180.0
 51
0.0
  0
ARC
  5
124C5
  8
SUNPO
  6
BYBLOCK
 10
401.0
 20
57.5
 30
0.0
 40
0.145
 50
0.0
 51
180.0
  0
ARC
  5
124C6
  8
SUNPO
  6
BYBLOCK
 10
401.0
 20
57.5
 30
0.0
 40
0.145
 50
180.0
 51
0.0
  0
LINE
  5
124C7
  8
SUNPO
  6
CONTINUOUS
 10
322.350012
 20
133.0
 30
0.0
 11
338.0
 21
133.0
 31
0.0
  0
LINE
  5
124C8
  8
SUNPO
  6
CONTINUOUS
 10
76.0
 20
168.0
 30
0.0
 11
52.0
 21
168.0
 31
0.0
  0
LINE
  5
124C9
  8
SUNPO
  6
CONTINUOUS
 10
45.0
 20
178.0
 30
0.0
 11
115.0
 21
178.0
 31
0.0
  0
LINE
  5
124CA
  8
DANMEN
  6
CONTINUOUS
 10
267.364825
 20
157.0
 30
0.0
 11
342.0
 21
157.0
 31
0.0
  0
LINE
  5
124CB
  8
DANMEN
  6
CONTINUOUS
 10
267.364825
 20
167.0
 30
0.0
 11
342.0
 21
167.0
 31
0.0
  0
LINE
  5
124CC
  8
DANMEN
  6
CONTINUOUS
 10
267.0
 20
165.800003
 30
0.0
 11
342.0
 21
165.800003
 31
0.0
  0
LINE
  5
124CD
  8
DANMEN
  6
CONTINUOUS
 10
267.0
 20
162.800003
 30
0.0
 11
342.0
 21
162.800003
 31
0.0
  0
LINE
  5
124CE
  8
DANMEN
  6
CONTINUOUS
 10
342.0
 20
125.0
 30
0.0
 11
321.0
 21
125.0
 31
0.0
  0
LINE
  5
124CF
  8
DANMEN
  6
CONTINUOUS
 10
342.0
 20
130.0
 30
0.0
 11
321.0
 21
130.0
 31
0.0
  0
LINE
  5
124D0
  8
DANMEN
  6
CONTINUOUS
 10
278.0
 20
147.500009
 30
0.0
 11
267.0
 21
147.500009
 31
0.0
  0
LINE
  5
124D1
  8
DANMEN
  6
CONTINUOUS
 10
278.0
 20
147.000009
 30
0.0
 11
267.0
 21
147.000009
 31
0.0
  0
LINE
  5
124D2
  8
DANMEN
  6
CONTINUOUS
 10
278.000015
 20
143.000021
 30
0.0
 11
267.0
 21
143.000021
 31
0.0
  0
LINE
  5
124D3
  8
DANMEN
  6
CONTINUOUS
 10
267.0
 20
133.0
 30
0.0
 11
276.5
 21
133.0
 31
0.0
  0
LINE
  5
124D4
  8
DANMEN
  6
CONTINUOUS
 10
267.0
 20
130.0
 30
0.0
 11
274.220638
 21
130.0
 31
0.0
  0
LINE
  5
124D5
  8
DANMEN
  6
CONTINUOUS
 10
267.0
 20
135.2
 30
0.0
 11
271.0
 21
135.2
 31
0.0
  0
LINE
  5
124D6
  8
DANMEN
  6
CONTINUOUS
 10
267.0
 20
154.8
 30
0.0
 11
271.0
 21
154.8
 31
0.0
  0
LINE
  5
124D7
  8
DANMEN
  6
CONTINUOUS
 10
278.000015
 20
142.500021
 30
0.0
 11
267.0
 21
142.500021
 31
0.0
  0
LINE
  5
124D8
  8
DANMEN
  6
CONTINUOUS
 10
271.000015
 20
137.000015
 30
0.0
 11
267.0
 21
137.000015
 31
0.0
  0
LINE
  5
124D9
  8
DANMEN
  6
CONTINUOUS
 10
271.0
 20
152.999985
 30
0.0
 11
267.0
 21
152.999985
 31
0.0
  0
LINE
  5
124DA
  8
DANMEN
  6
CONTINUOUS
 10
222.949982
 20
134.949997
 30
0.0
 11
246.899985
 21
134.949997
 31
0.0
  0
LINE
  5
124DB
  8
DANMEN
  6
CONTINUOUS
 10
222.949982
 20
155.050003
 30
0.0
 11
246.899985
 21
155.050003
 31
0.0
  0
LINE
  5
124DC
  8
DANMEN
  6
CONTINUOUS
 10
221.53891
 20
133.0
 30
0.0
 11
258.5
 21
133.0
 31
0.0
  0
LINE
  5
124DD
  8
DANMEN
  6
CONTINUOUS
 10
221.538905
 20
157.0
 30
0.0
 11
258.5
 21
157.0
 31
0.0
  0
LINE
  5
124DE
  8
DANMEN
  6
CONTINUOUS
 10
208.461095
 20
133.0
 30
0.0
 11
253.5
 21
133.0
 31
0.0
  0
LINE
  5
124DF
  8
DANMEN
  6
CONTINUOUS
 10
226.0
 20
167.0
 30
0.0
 11
263.0
 21
167.0
 31
0.0
  0
LINE
  5
124E0
  8
DANMEN
  6
CONTINUOUS
 10
226.0
 20
165.800003
 30
0.0
 11
263.0
 21
165.800003
 31
0.0
  0
LINE
  5
124E1
  8
DANMEN
  6
CONTINUOUS
 10
226.0
 20
162.800003
 30
0.0
 11
263.0
 21
162.800003
 31
0.0
  0
LINE
  5
124E2
  8
DANMEN
  6
CONTINUOUS
 10
206.999997
 20
149.5
 30
0.0
 11
206.999997
 21
140.5
 31
0.0
  0
LINE
  5
124E3
  8
DANMEN
  6
CONTINUOUS
 10
208.949997
 20
151.050003
 30
0.0
 11
208.949997
 21
138.949997
 31
0.0
  0
ARC
  5
124E4
  8
DANMEN
  6
CONTINUOUS
 10
221.538905
 20
133.5
 30
0.0
 40
0.5
 50
175.7108
 51
270.0
  0
LINE
  5
124E5
  8
DANMEN
  6
CONTINUOUS
 10
208.949997
 20
138.949997
 30
0.0
 11
221.949982
 21
138.949997
 31
0.0
  0
LINE
  5
124E6
  8
DANMEN
  6
CONTINUOUS
 10
207.599997
 20
134.949997
 30
0.0
 11
207.599997
 21
140.5
 31
0.0
  0
LINE
  5
124E7
  8
DANMEN
  6
CONTINUOUS
 10
221.040305
 20
133.537395
 30
0.0
 11
221.300003
 21
136.999997
 31
0.0
  0
LINE
  5
124E8
  8
DANMEN
  6
CONTINUOUS
 10
208.699997
 20
136.999997
 30
0.0
 11
208.959695
 21
133.537395
 31
0.0
  0
ARC
  5
124EB
  8
DANMEN
  6
CONTINUOUS
 10
208.461095
 20
133.5
 30
0.0
 40
0.5
 50
270.0
 51
4.2892
  0
LINE
  5
124F1
  8
DANMEN
  6
CONTINUOUS
 10
208.699997
 20
136.999997
 30
0.0
 11
221.300003
 21
136.999997
 31
0.0
  0
LINE
  5
124F2
  8
DANMEN
  6
CONTINUOUS
 10
206.999997
 20
140.5
 30
0.0
 11
207.599997
 21
140.5
 31
0.0
  0
LINE
  5
124F9
  8
DANMEN
  6
CONTINUOUS
 10
222.949982
 20
137.949997
 30
0.0
 11
222.949982
 21
134.949997
 31
0.0
  0
ARC
  5
124FB
  8
DANMEN
  6
CONTINUOUS
 10
221.949982
 20
137.949997
 30
0.0
 40
1.0
 50
0.0
 51
89.999982
  0
ARC
  5
124FD
  8
DANMEN
  6
CONTINUOUS
 10
221.538905
 20
156.5
 30
0.0
 40
0.5
 50
90.0
 51
184.289197
  0
LINE
  5
124FE
  8
DANMEN
  6
CONTINUOUS
 10
208.949997
 20
151.050003
 30
0.0
 11
221.949982
 21
151.050003
 31
0.0
  0
LINE
  5
124FF
  8
DANMEN
  6
CONTINUOUS
 10
205.5
 20
164.0
 30
0.0
 11
226.0
 21
164.0
 31
0.0
  0
LINE
  5
12500
  8
DANMEN
  6
CONTINUOUS
 10
208.699997
 20
153.0
 30
0.0
 11
221.300003
 21
153.0
 31
0.0
  0
LINE
  5
12501
  8
DANMEN
  6
CONTINUOUS
 10
207.599997
 20
149.5
 30
0.0
 11
207.599997
 21
155.050003
 31
0.0
  0
LINE
  5
12502
  8
DANMEN
  6
CONTINUOUS
 10
206.999997
 20
149.5
 30
0.0
 11
207.599997
 21
149.5
 31
0.0
  0
ARC
  5
12508
  8
DANMEN
  6
CONTINUOUS
 10
208.461095
 20
156.5
 30
0.0
 40
0.5
 50
355.710803
 51
90.0
  0
LINE
  5
12509
  8
DANMEN
  6
CONTINUOUS
 10
208.959695
 20
156.462605
 30
0.0
 11
208.699997
 21
153.0
 31
0.0
  0
LINE
  5
1250E
  8
DANMEN
  6
CONTINUOUS
 10
221.300003
 20
153.0
 30
0.0
 11
221.040305
 21
156.462605
 31
0.0
  0
LINE
  5
12512
  8
DANMEN
  6
CONTINUOUS
 10
206.0
 20
163.5
 30
0.0
 11
206.0
 21
162.850006
 31
0.0
  0
ARC
  5
12513
  8
DANMEN
  6
CONTINUOUS
 10
205.5
 20
162.850006
 30
0.0
 40
0.5
 50
270.000018
 51
359.999981
  0
ARC
  5
12514
  8
DANMEN
  6
CONTINUOUS
 10
205.5
 20
163.5
 30
0.0
 40
0.5
 50
359.999981
 51
89.999982
  0
LINE
  5
12518
  8
DANMEN
  6
CONTINUOUS
 10
222.949982
 20
155.050003
 30
0.0
 11
222.949982
 21
152.050003
 31
0.0
  0
ARC
  5
12519
  8
DANMEN
  6
CONTINUOUS
 10
221.949982
 20
152.050003
 30
0.0
 40
1.0
 50
270.000018
 51
0.0
  0
LINE
  5
1251C
  8
DANMEN
  6
CONTINUOUS
 10
226.0
 20
167.0
 30
0.0
 11
226.0
 21
162.800003
 31
0.0
  0
ARC
  5
1251D
  8
DANMEN
  6
CONTINUOUS
 10
230.399994
 20
166.399994
 30
0.0
 40
0.6
 50
270.000018
 51
90.000037
  0
LINE
  5
1251E
  8
DANMEN
  6
CONTINUOUS
 10
246.049988
 20
149.0
 30
0.0
 11
246.049988
 21
141.0
 31
0.0
  0
LINE
  5
1251F
  8
DANMEN
  6
CONTINUOUS
 10
247.999985
 20
155.050003
 30
0.0
 11
247.999985
 21
134.949997
 31
0.0
  0
LINE
  5
12520
  8
DANMEN
  6
CONTINUOUS
 10
251.999985
 20
142.499991
 30
0.0
 11
251.999985
 21
147.499994
 31
0.0
  0
LINE
  5
12521
  8
DANMEN
  6
CONTINUOUS
 10
247.999985
 20
134.949997
 30
0.0
 11
257.9
 21
134.949997
 31
0.0
  0
LINE
  5
12522
  8
DANMEN
  6
CONTINUOUS
 10
252.0
 20
142.999991
 30
0.0
 11
263.0
 21
142.999991
 31
0.0
  0
LINE
  5
12523
  8
DANMEN
  6
CONTINUOUS
 10
252.0
 20
142.499991
 30
0.0
 11
263.0
 21
142.499991
 31
0.0
  0
LINE
  5
12524
  8
DANMEN
  6
CONTINUOUS
 10
246.899985
 20
141.0
 30
0.0
 11
246.899985
 21
134.949997
 31
0.0
  0
LINE
  5
12527
  8
DANMEN
  6
CONTINUOUS
 10
246.049988
 20
141.0
 30
0.0
 11
246.899985
 21
141.0
 31
0.0
  0
LINE
  5
1252B
  8
DANMEN
  6
CONTINUOUS
 10
257.9
 20
134.949997
 30
0.0
 11
257.9
 21
137.2
 31
0.0
  0
LINE
  5
1252C
  8
DANMEN
  6
CONTINUOUS
 10
259.0
 20
133.5
 30
0.0
 11
259.0
 21
137.5
 31
0.0
  0
ARC
  5
1252E
  8
DANMEN
  6
CONTINUOUS
 10
258.5
 20
133.5
 30
0.0
 40
0.5
 50
270.000018
 51
0.0
  0
ARC
  5
12530
  8
DANMEN
  6
CONTINUOUS
 10
262.999908
 20
140.999991
 30
0.0
 40
1.5
 50
90.0
 51
179.999982
  0
LINE
  5
12531
  8
DANMEN
  6
CONTINUOUS
 10
259.0
 20
137.000015
 30
0.0
 11
263.0
 21
137.000015
 31
0.0
  0
LINE
  5
12532
  8
DANMEN
  6
CONTINUOUS
 10
259.0
 20
135.2
 30
0.0
 11
263.0
 21
135.2
 31
0.0
  0
LINE
  5
12533
  8
DANMEN
  6
CONTINUOUS
 10
261.499908
 20
138.499985
 30
0.0
 11
261.499908
 21
140.999991
 31
0.0
  0
LINE
  5
12534
  8
DANMEN
  6
CONTINUOUS
 10
256.0
 20
138.0
 30
0.0
 11
258.5
 21
138.0
 31
0.0
  0
LINE
  5
12535
  8
DANMEN
  6
CONTINUOUS
 10
256.0
 20
137.850131
 30
0.0
 11
256.0
 21
138.0
 31
0.0
  0
LINE
  5
1253A
  8
DANMEN
  6
CONTINUOUS
 10
257.9
 20
137.2
 30
0.0
 11
256.447658
 21
137.352878
 31
0.0
  0
ARC
  5
1253C
  8
DANMEN
  6
CONTINUOUS
 10
256.5
 20
137.850131
 30
0.0
 40
0.5
 50
180.0
 51
263.990994
  0
ARC
  5
1253E
  8
DANMEN
  6
CONTINUOUS
 10
259.999908
 20
138.499985
 30
0.0
 40
1.5
 50
269.999964
 51
0.000001
  0
ARC
  5
1253F
  8
DANMEN
  6
CONTINUOUS
 10
258.5
 20
137.5
 30
0.0
 40
0.5
 50
0.0
 51
89.999982
  0
LINE
  5
12543
  8
DANMEN
  6
CONTINUOUS
 10
268.500092
 20
141.000006
 30
0.0
 11
268.500092
 21
138.500015
 31
0.0
  0
ARC
  5
12544
  8
DANMEN
  6
CONTINUOUS
 10
270.000092
 20
138.500015
 30
0.0
 40
1.5
 50
180.000018
 51
270.0
  0
ARC
  5
12545
  8
DANMEN
  6
CONTINUOUS
 10
267.000092
 20
141.000006
 30
0.0
 40
1.5
 50
359.999982
 51
89.999964
  0
LINE
  5
12546
  8
DANMEN
  6
CONTINUOUS
 10
247.999985
 20
155.050003
 30
0.0
 11
257.9
 21
155.050003
 31
0.0
  0
LINE
  5
12547
  8
DANMEN
  6
CONTINUOUS
 10
251.999985
 20
146.999979
 30
0.0
 11
263.0
 21
146.999979
 31
0.0
  0
LINE
  5
12548
  8
DANMEN
  6
CONTINUOUS
 10
251.999985
 20
147.499979
 30
0.0
 11
263.0
 21
147.499979
 31
0.0
  0
LINE
  5
12549
  8
DANMEN
  6
CONTINUOUS
 10
246.899985
 20
155.050003
 30
0.0
 11
246.899985
 21
149.0
 31
0.0
  0
LINE
  5
1254A
  8
DANMEN
  6
CONTINUOUS
 10
246.049988
 20
149.0
 30
0.0
 11
246.899985
 21
149.0
 31
0.0
  0
ARC
  5
1254E
  8
DANMEN
  6
CONTINUOUS
 10
262.999908
 20
148.999994
 30
0.0
 40
1.5
 50
179.999982
 51
269.999964
  0
LINE
  5
1254F
  8
DANMEN
  6
CONTINUOUS
 10
258.999985
 20
152.999985
 30
0.0
 11
263.0
 21
152.999985
 31
0.0
  0
LINE
  5
12550
  8
DANMEN
  6
CONTINUOUS
 10
259.0
 20
154.8
 30
0.0
 11
263.0
 21
154.8
 31
0.0
  0
ARC
  5
12551
  8
DANMEN
  6
CONTINUOUS
 10
259.999908
 20
151.499985
 30
0.0
 40
1.5
 50
0.000018
 51
90.0
  0
ARC
  5
12552
  8
DANMEN
  6
CONTINUOUS
 10
256.5
 20
152.149869
 30
0.0
 40
0.5
 50
96.009006
 51
180.0
  0
LINE
  5
12553
  8
DANMEN
  6
CONTINUOUS
 10
259.0
 20
156.5
 30
0.0
 11
259.0
 21
152.5
 31
0.0
  0
LINE
  5
12554
  8
DANMEN
  6
CONTINUOUS
 10
259.0
 20
156.5
 30
0.0
 11
259.0
 21
152.5
 31
0.0
  0
LINE
  5
12555
  8
DANMEN
  6
CONTINUOUS
 10
256.0
 20
152.0
 30
0.0
 11
258.5
 21
152.0
 31
0.0
  0
LINE
  5
12557
  8
DANMEN
  6
CONTINUOUS
 10
256.0
 20
152.149869
 30
0.0
 11
256.0
 21
152.0
 31
0.0
  0
LINE
  5
12558
  8
DANMEN
  6
CONTINUOUS
 10
261.499908
 20
148.999994
 30
0.0
 11
261.499908
 21
151.499985
 31
0.0
  0
ARC
  5
12559
  8
DANMEN
  6
CONTINUOUS
 10
258.5
 20
152.5
 30
0.0
 40
0.5
 50
270.000018
 51
0.0
  0
LINE
  5
1255E
  8
DANMEN
  6
CONTINUOUS
 10
257.9
 20
152.8
 30
0.0
 11
256.447658
 21
152.647122
 31
0.0
  0
LINE
  5
12560
  8
DANMEN
  6
CONTINUOUS
 10
257.9
 20
155.050003
 30
0.0
 11
257.9
 21
152.8
 31
0.0
  0
ARC
  5
12563
  8
DANMEN
  6
CONTINUOUS
 10
258.5
 20
156.5
 30
0.0
 40
0.5
 50
0.0
 51
89.999982
  0
ARC
  5
12565
  8
DANMEN
  6
CONTINUOUS
 10
270.000092
 20
151.500015
 30
0.0
 40
1.5
 50
89.999964
 51
180.000001
  0
LINE
  5
12566
  8
DANMEN
  6
CONTINUOUS
 10
268.500092
 20
151.500015
 30
0.0
 11
268.500092
 21
149.000009
 31
0.0
  0
ARC
  5
12567
  8
DANMEN
  6
CONTINUOUS
 10
267.000092
 20
149.000009
 30
0.0
 40
1.5
 50
270.0
 51
359.999982
  0
LINE
  5
12568
  8
DANMEN
  6
CONTINUOUS
 10
296.500092
 20
155.500018
 30
0.0
 11
306.950089
 21
155.500018
 31
0.0
  0
LINE
  5
12569
  8
DANMEN
  6
CONTINUOUS
 10
296.500092
 20
134.500018
 30
0.0
 11
306.950089
 21
134.500018
 31
0.0
  0
LINE
  5
1256A
  8
DANMEN
  6
CONTINUOUS
 10
271.500092
 20
157.000015
 30
0.0
 11
320.000092
 21
157.000015
 31
0.0
  0
LINE
  5
1256B
  8
DANMEN
  6
CONTINUOUS
 10
301.000092
 20
133.000015
 30
0.0
 11
319.800092
 21
133.000015
 31
0.0
  0
LINE
  5
1256C
  8
DANMEN
  6
CONTINUOUS
 10
285.55
 20
125.0
 30
0.0
 11
304.0
 21
125.0
 31
0.0
  0
LINE
  5
1256D
  8
DANMEN
  6
CONTINUOUS
 10
301.0
 20
130.0
 30
0.0
 11
319.8
 21
130.0
 31
0.0
  0
LINE
  5
1256E
  8
DANMEN
  6
CONTINUOUS
 10
287.950092
 20
155.500018
 30
0.0
 11
287.950092
 21
134.500018
 31
0.0
  0
LINE
  5
1256F
  8
DANMEN
  6
CONTINUOUS
 10
286.000092
 20
155.050018
 30
0.0
 11
286.000092
 21
134.950012
 31
0.0
  0
LINE
  5
12570
  8
DANMEN
  6
CONTINUOUS
 10
278.000015
 20
147.500009
 30
0.0
 11
278.000015
 21
142.500006
 31
0.0
  0
LINE
  5
12571
  8
DANMEN
  6
CONTINUOUS
 10
271.500092
 20
133.000015
 30
0.0
 11
299.500092
 21
133.000015
 31
0.0
  0
LINE
  5
12572
  8
DANMEN
  6
CONTINUOUS
 10
289.050003
 20
129.0
 30
0.0
 11
285.55
 21
129.0
 31
0.0
  0
LINE
  5
12573
  8
DANMEN
  6
CONTINUOUS
 10
295.250003
 20
130.5
 30
0.0
 11
285.05
 21
130.5
 31
0.0
  0
LINE
  5
12574
  8
DANMEN
  6
CONTINUOUS
 10
271.000092
 20
137.500015
 30
0.0
 11
271.000092
 21
133.500015
 31
0.0
  0
LINE
  5
12575
  8
DANMEN
  6
CONTINUOUS
 10
272.100092
 20
137.200015
 30
0.0
 11
272.100092
 21
134.100015
 31
0.0
  0
LINE
  5
12576
  8
DANMEN
  6
CONTINUOUS
 10
274.000092
 20
134.950012
 30
0.0
 11
286.000092
 21
134.950012
 31
0.0
  0
LINE
  5
12577
  8
DANMEN
  6
CONTINUOUS
 10
284.050003
 20
125.0
 30
0.0
 11
277.75
 21
125.0
 31
0.0
  0
LINE
  5
12578
  8
DANMEN
  6
CONTINUOUS
 10
274.3
 20
133.076394
 30
0.0
 11
274.2
 21
129.2
 31
0.0
  0
LINE
  5
12579
  8
DANMEN
  6
CONTINUOUS
 10
274.8
 20
129.2
 30
0.0
 11
274.7
 21
133.076394
 31
0.0
  0
LINE
  5
1257A
  8
DANMEN
  6
CONTINUOUS
 10
277.250001
 20
133.217157
 30
0.0
 11
277.050001
 21
129.2
 31
0.0
  0
LINE
  5
1257B
  8
DANMEN
  6
CONTINUOUS
 10
277.650001
 20
133.5
 30
0.0
 11
277.650001
 21
128.5
 31
0.0
  0
LINE
  5
1257C
  8
DANMEN
  6
CONTINUOUS
 10
272.2
 20
128.5
 30
0.0
 11
272.2
 21
129.5
 31
0.0
  0
LINE
  5
1257D
  8
DANMEN
  6
CONTINUOUS
 10
273.9
 20
127.0
 30
0.0
 11
275.1
 21
127.0
 31
0.0
  0
LINE
  5
1257E
  8
DANMEN
  6
CONTINUOUS
 10
276.75
 20
125.0
 30
0.0
 11
272.2
 21
125.0
 31
0.0
  0
ARC
  5
12583
  8
DANMEN
  6
CONTINUOUS
 10
272.8
 20
128.8
 30
0.0
 40
0.4
 50
90.0
 51
180.0
  0
LINE
  5
12585
  8
DANMEN
  6
CONTINUOUS
 10
273.9
 20
127.0
 30
0.0
 11
273.4
 21
126.5
 31
0.0
  0
LINE
  5
12588
  8
DANMEN
  6
CONTINUOUS
 10
273.4
 20
126.5
 30
0.0
 11
272.4
 21
126.5
 31
0.0
  0
LINE
  5
1258B
  8
DANMEN
  6
CONTINUOUS
 10
272.4
 20
128.5
 30
0.0
 11
272.4
 21
128.8
 31
0.0
  0
LINE
  5
12590
  8
DANMEN
  6
CONTINUOUS
 10
272.4
 20
128.5
 30
0.0
 11
273.4
 21
128.5
 31
0.0
  0
ARC
  5
12591
  8
DANMEN
  6
CONTINUOUS
 10
272.599999
 20
127.3
 30
0.0
 40
0.2
 50
89.999982
 51
180.000019
  0
LINE
  5
12592
  8
DANMEN
  6
CONTINUOUS
 10
272.4
 20
127.3
 30
0.0
 11
272.4
 21
126.5
 31
0.0
  0
LINE
  5
12593
  8
DANMEN
  6
CONTINUOUS
 10
272.599999
 20
127.5
 30
0.0
 11
273.4
 21
127.5
 31
0.0
  0
LINE
  5
12594
  8
DANMEN
  6
CONTINUOUS
 10
273.4
 20
128.5
 30
0.0
 11
273.4
 21
127.5
 31
0.0
  0
LINE
  5
12595
  8
DANMEN
  6
CONTINUOUS
 10
272.8
 20
129.2
 30
0.0
 11
274.2
 21
129.2
 31
0.0
  0
LINE
  5
12597
  8
DANMEN
  6
CONTINUOUS
 10
273.25
 20
127.699997
 30
0.0
 11
273.25
 21
128.0
 31
0.0
  0
LINE
  5
12598
  8
DANMEN
  6
CONTINUOUS
 10
273.25
 20
127.699997
 30
0.0
 11
272.2
 21
127.699997
 31
0.0
  0
LINE
  5
12599
  8
DANMEN
  6
CONTINUOUS
 10
272.75
 20
128.5
 30
0.0
 11
272.2
 21
128.5
 31
0.0
  0
ARC
  5
1259A
  8
DANMEN
  6
CONTINUOUS
 10
272.75
 20
128.0
 30
0.0
 40
0.5
 50
360.0
 51
89.999982
  0
LINE
  5
1259B
  8
DANMEN
  6
CONTINUOUS
 10
272.2
 20
125.0
 30
0.0
 11
272.2
 21
127.699997
 31
0.0
  0
LINE
  5
125A1
  8
DANMEN
  6
CONTINUOUS
 10
275.6
 20
128.5
 30
0.0
 11
277.65
 21
128.5
 31
0.0
  0
LINE
  5
125A2
  8
DANMEN
  6
CONTINUOUS
 10
275.6
 20
126.5
 30
0.0
 11
275.1
 21
127.0
 31
0.0
  0
LINE
  5
125A6
  8
DANMEN
  6
CONTINUOUS
 10
276.6
 20
126.5
 30
0.0
 11
275.6
 21
126.5
 31
0.0
  0
LINE
  5
125A7
  8
DANMEN
  6
CONTINUOUS
 10
274.8
 20
129.2
 30
0.0
 11
277.050001
 21
129.2
 31
0.0
  0
ARC
  5
125AE
  8
DANMEN
  6
CONTINUOUS
 10
276.400001
 20
127.3
 30
0.0
 40
0.2
 50
359.999981
 51
90.000037
  0
LINE
  5
125AF
  8
DANMEN
  6
CONTINUOUS
 10
276.6
 20
127.3
 30
0.0
 11
276.6
 21
126.5
 31
0.0
  0
LINE
  5
125B0
  8
DANMEN
  6
CONTINUOUS
 10
276.400001
 20
127.5
 30
0.0
 11
275.6
 21
127.5
 31
0.0
  0
LINE
  5
125B1
  8
DANMEN
  6
CONTINUOUS
 10
275.6
 20
128.5
 30
0.0
 11
275.6
 21
127.5
 31
0.0
  0
LINE
  5
125B2
  8
DANMEN
  6
CONTINUOUS
 10
277.25
 20
128.5
 30
0.0
 11
276.25
 21
128.5
 31
0.0
  0
LINE
  5
125B3
  8
DANMEN
  6
CONTINUOUS
 10
277.75
 20
125.0
 30
0.0
 11
277.75
 21
128.0
 31
0.0
  0
LINE
  5
125B4
  8
DANMEN
  6
CONTINUOUS
 10
275.75
 20
127.699997
 30
0.0
 11
275.75
 21
128.0
 31
0.0
  0
LINE
  5
125B5
  8
DANMEN
  6
CONTINUOUS
 10
276.75
 20
127.699997
 30
0.0
 11
275.75
 21
127.699997
 31
0.0
  0
LINE
  5
125B6
  8
DANMEN
  6
CONTINUOUS
 10
276.75
 20
125.0
 30
0.0
 11
276.75
 21
127.699997
 31
0.0
  0
ARC
  5
125B7
  8
DANMEN
  6
CONTINUOUS
 10
276.25
 20
128.0
 30
0.0
 40
0.5
 50
89.999982
 51
180.000019
  0
ARC
  5
125B8
  8
DANMEN
  6
CONTINUOUS
 10
277.25
 20
128.0
 30
0.0
 40
0.5
 50
360.0
 51
89.999982
  0
ARC
  5
125B9
  8
DANMEN
  6
CONTINUOUS
 10
274.5
 20
133.3
 30
0.0
 40
0.3
 50
311.810315
 51
228.189685
  0
ARC
  5
125C2
  8
DANMEN
  6
CONTINUOUS
 10
271.500092
 20
133.500015
 30
0.0
 40
0.5
 50
180.000019
 51
270.000001
  0
LINE
  5
125C3
  8
DANMEN
  6
CONTINUOUS
 10
274.000092
 20
134.950012
 30
0.0
 11
274.000092
 21
134.100015
 31
0.0
  0
LINE
  5
125C4
  8
DANMEN
  6
CONTINUOUS
 10
272.100092
 20
134.100015
 30
0.0
 11
274.000092
 21
134.100015
 31
0.0
  0
LINE
  5
125C9
  8
DANMEN
  6
CONTINUOUS
 10
271.5
 20
130.0
 30
0.0
 11
271.7
 21
130.0
 31
0.0
  0
ARC
  5
125CA
  8
DANMEN
  6
CONTINUOUS
 10
271.5
 20
129.5
 30
0.0
 40
0.5
 50
90.0
 51
180.0
  0
ARC
  5
125CB
  8
DANMEN
  6
CONTINUOUS
 10
271.7
 20
129.5
 30
0.0
 40
0.5
 50
0.0
 51
90.0
  0
ARC
  5
125D2
  8
DANMEN
  6
CONTINUOUS
 10
277.35
 20
133.5
 30
0.0
 40
0.3
 50
0.0
 51
250.528876
  0
LINE
  5
125D5
  8
DANMEN
  6
CONTINUOUS
 10
277.106988
 20
130.0
 30
0.0
 11
274.768775
 21
130.0
 31
0.0
  0
LINE
  5
125D6
  8
DANMEN
  6
CONTINUOUS
 10
284.050003
 20
125.0
 30
0.0
 11
284.050003
 21
129.5
 31
0.0
  0
LINE
  5
125D7
  8
DANMEN
  6
CONTINUOUS
 10
285.55
 20
125.0
 30
0.0
 11
285.55
 21
129.0
 31
0.0
  0
ARC
  5
125D9
  8
DANMEN
  6
CONTINUOUS
 10
285.05
 20
129.5
 30
0.0
 40
1.0
 50
89.999982
 51
180.000019
  0
LINE
  5
125DA
  8
DANMEN
  6
CONTINUOUS
 10
271.500092
 20
138.000015
 30
0.0
 11
274.000092
 21
138.000015
 31
0.0
  0
LINE
  5
125DB
  8
DANMEN
  6
CONTINUOUS
 10
274.000092
 20
137.850146
 30
0.0
 11
274.000092
 21
138.000015
 31
0.0
  0
ARC
  5
125DD
  8
DANMEN
  6
CONTINUOUS
 10
271.500092
 20
137.500015
 30
0.0
 40
0.5
 50
89.999982
 51
180.000019
  0
LINE
  5
125E1
  8
DANMEN
  6
CONTINUOUS
 10
272.100092
 20
137.200015
 30
0.0
 11
273.552434
 21
137.352893
 31
0.0
  0
ARC
  5
125E4
  8
DANMEN
  6
CONTINUOUS
 10
273.500092
 20
137.850146
 30
0.0
 40
0.5
 50
276.009006
 51
0.0
  0
LINE
  5
125EA
  8
DANMEN
  6
CONTINUOUS
 10
287.950092
 20
134.500018
 30
0.0
 11
295.500092
 21
134.500018
 31
0.0
  0
LINE
  5
125EB
  8
DANMEN
  6
CONTINUOUS
 10
295.500092
 20
129.800015
 30
0.0
 11
289.714946
 21
128.087679
 31
0.0
  0
LINE
  5
125EC
  8
DANMEN
  6
CONTINUOUS
 10
289.800092
 20
127.500015
 30
0.0
 11
300.000092
 21
127.500015
 31
0.0
  0
LINE
  5
125ED
  8
DANMEN
  6
CONTINUOUS
 10
289.550003
 20
128.2
 30
0.0
 11
295.335148
 21
129.912336
 31
0.0
  0
ARC
  5
125EE
  8
DANMEN
  6
CONTINUOUS
 10
289.800092
 20
127.800015
 30
0.0
 40
0.3
 50
106.488148
 51
270.0
  0
LINE
  5
125F1
  8
DANMEN
  6
CONTINUOUS
 10
289.050003
 20
129.0
 30
0.0
 11
289.050003
 21
128.2
 31
0.0
  0
LINE
  5
125F2
  8
DANMEN
  6
CONTINUOUS
 10
289.550003
 20
128.2
 30
0.0
 11
289.050003
 21
128.2
 31
0.0
  0
LINE
  5
125F4
  8
DANMEN
  6
CONTINUOUS
 10
296.000092
 20
129.000015
 30
0.0
 11
296.000092
 21
129.800015
 31
0.0
  0
LINE
  5
125F5
  8
DANMEN
  6
CONTINUOUS
 10
301.000092
 20
133.000015
 30
0.0
 11
301.000092
 21
128.500015
 31
0.0
  0
LINE
  5
125F6
  8
DANMEN
  6
CONTINUOUS
 10
299.500092
 20
133.000015
 30
0.0
 11
299.500092
 21
129.000015
 31
0.0
  0
LINE
  5
125F7
  8
DANMEN
  6
CONTINUOUS
 10
296.000092
 20
129.000015
 30
0.0
 11
299.500092
 21
129.000015
 31
0.0
  0
ARC
  5
125FC
  8
DANMEN
  6
CONTINUOUS
 10
300.000092
 20
128.500015
 30
0.0
 40
1.0
 50
270.000018
 51
0.0
  0
LINE
  5
125FF
  8
DANMEN
  6
CONTINUOUS
 10
299.5
 20
130.0
 30
0.0
 11
295.47361
 21
130.0
 31
0.0
  0
LINE
  5
12600
  8
DANMEN
  6
CONTINUOUS
 10
296.500092
 20
134.500018
 30
0.0
 11
296.500092
 21
134.950018
 31
0.0
  0
LINE
  5
12601
  8
DANMEN
  6
CONTINUOUS
 10
295.500092
 20
134.500018
 30
0.0
 11
295.500092
 21
134.950018
 31
0.0
  0
LINE
  5
12605
  8
DANMEN
  6
CONTINUOUS
 10
295.500092
 20
134.950018
 30
0.0
 11
296.500092
 21
134.950018
 31
0.0
  0
LINE
  5
1260A
  8
DANMEN
  6
CONTINUOUS
 10
295.500092
 20
129.800015
 30
0.0
 11
296.000092
 21
129.800015
 31
0.0
  0
ARC
  5
1260B
  8
DANMEN
  6
CONTINUOUS
 10
295.250003
 20
130.2
 30
0.0
 40
0.3
 50
286.488148
 51
90.0
  0
LINE
  5
1260E
  8
DANMEN
  6
CONTINUOUS
 10
272.100092
 20
155.900015
 30
0.0
 11
284.011406
 21
155.900015
 31
0.0
  0
LINE
  5
1260F
  8
DANMEN
  6
CONTINUOUS
 10
271.000092
 20
156.500015
 30
0.0
 11
271.000092
 21
152.500015
 31
0.0
  0
ARC
  5
12610
  8
DANMEN
  6
CONTINUOUS
 10
273.500092
 20
152.149884
 30
0.0
 40
0.5
 50
0.0
 51
83.990994
  0
LINE
  5
12611
  8
DANMEN
  6
CONTINUOUS
 10
271.500092
 20
152.000015
 30
0.0
 11
274.000092
 21
152.000015
 31
0.0
  0
LINE
  5
12612
  8
DANMEN
  6
CONTINUOUS
 10
274.000092
 20
152.149884
 30
0.0
 11
274.000092
 21
152.000015
 31
0.0
  0
ARC
  5
12614
  8
DANMEN
  6
CONTINUOUS
 10
271.500092
 20
152.500015
 30
0.0
 40
0.5
 50
180.000019
 51
270.000001
  0
ARC
  5
12617
  8
DANMEN
  6
CONTINUOUS
 10
271.500092
 20
156.500015
 30
0.0
 40
0.5
 50
89.999982
 51
180.000019
  0
LINE
  5
1261A
  8
DANMEN
  6
CONTINUOUS
 10
272.100092
 20
155.900015
 30
0.0
 11
272.100092
 21
152.800015
 31
0.0
  0
LINE
  5
1261C
  8
DANMEN
  6
CONTINUOUS
 10
272.100092
 20
152.800015
 30
0.0
 11
273.552434
 21
152.647137
 31
0.0
  0
ARC
  5
12621
  8
DANMEN
  6
CONTINUOUS
 10
284.011406
 20
154.900015
 30
0.0
 40
1.0
 50
8.626927
 51
90.0
  0
LINE
  5
12622
  8
DANMEN
  6
CONTINUOUS
 10
285.000092
 20
155.050015
 30
0.0
 11
286.000092
 21
155.050015
 31
0.0
  0
LINE
  5
12624
  8
DANMEN
  6
CONTINUOUS
 10
287.950092
 20
155.500018
 30
0.0
 11
295.500092
 21
155.500018
 31
0.0
  0
LINE
  5
12626
  8
DANMEN
  6
CONTINUOUS
 10
295.500092
 20
155.050018
 30
0.0
 11
296.500092
 21
155.050018
 31
0.0
  0
LINE
  5
12627
  8
DANMEN
  6
CONTINUOUS
 10
296.500092
 20
155.500018
 30
0.0
 11
296.500092
 21
155.050018
 31
0.0
  0
LINE
  5
12628
  8
DANMEN
  6
CONTINUOUS
 10
295.500092
 20
155.500018
 30
0.0
 11
295.500092
 21
155.050018
 31
0.0
  0
LINE
  5
1262E
  8
DANMEN
  6
CONTINUOUS
 10
319.050092
 20
155.500018
 30
0.0
 11
319.050092
 21
134.500018
 31
0.0
  0
LINE
  5
1262F
  8
DANMEN
  6
CONTINUOUS
 10
321.000092
 20
156.000015
 30
0.0
 11
321.000092
 21
128.600015
 31
0.0
  0
ARC
  5
12630
  8
DANMEN
  6
CONTINUOUS
 10
320.400092
 20
128.600015
 30
0.0
 40
0.6
 50
180.0
 51
0.0
  0
LINE
  5
12631
  8
DANMEN
  6
CONTINUOUS
 10
320.499996
 20
125.0
 30
0.0
 11
304.0
 21
125.0
 31
0.0
  0
LINE
  5
12632
  8
DANMEN
  6
CONTINUOUS
 10
306.950089
 20
136.500015
 30
0.0
 11
306.950089
 21
134.500018
 31
0.0
  0
LINE
  5
12633
  8
DANMEN
  6
CONTINUOUS
 10
307.950089
 20
137.000015
 30
0.0
 11
307.950089
 21
134.500018
 31
0.0
  0
LINE
  5
12634
  8
DANMEN
  6
CONTINUOUS
 10
307.950089
 20
134.500018
 30
0.0
 11
315.500092
 21
134.500018
 31
0.0
  0
LINE
  5
12638
  8
DANMEN
  6
CONTINUOUS
 10
319.800092
 20
133.000015
 30
0.0
 11
319.800092
 21
128.600015
 31
0.0
  0
LINE
  5
1263A
  8
DANMEN
  6
CONTINUOUS
 10
315.500092
 20
134.950018
 30
0.0
 11
316.500092
 21
134.950018
 31
0.0
  0
LINE
  5
1263B
  8
DANMEN
  6
CONTINUOUS
 10
315.500092
 20
134.500018
 30
0.0
 11
315.500092
 21
134.950018
 31
0.0
  0
LINE
  5
1263F
  8
DANMEN
  6
CONTINUOUS
 10
316.500092
 20
134.500018
 30
0.0
 11
316.500092
 21
134.950018
 31
0.0
  0
LINE
  5
12642
  8
DANMEN
  6
CONTINUOUS
 10
316.500092
 20
134.500018
 30
0.0
 11
319.050092
 21
134.500018
 31
0.0
  0
LINE
  5
12645
  8
DANMEN
  6
CONTINUOUS
 10
307.450089
 20
137.000015
 30
0.0
 11
307.950089
 21
137.000015
 31
0.0
  0
ARC
  5
12646
  8
DANMEN
  6
CONTINUOUS
 10
307.450089
 20
136.500015
 30
0.0
 40
0.5
 50
89.999982
 51
180.000019
  0
ARC
  5
1264A
  8
DANMEN
  6
CONTINUOUS
 10
320.499997
 20
124.5
 30
0.0
 40
0.5
 50
0.000091
 51
90.000128
  0
LINE
  5
1264B
  8
DANMEN
  6
CONTINUOUS
 10
321.0
 20
146.5
 30
0.0
 11
334.432615
 21
146.5
 31
0.0
  0
LINE
  5
1264C
  8
DANMEN
  6
CONTINUOUS
 10
321.0
 20
143.5
 30
0.0
 11
334.710527
 21
143.5
 31
0.0
  0
LINE
  5
1264D
  8
DANMEN
  6
CONTINUOUS
 10
307.950089
 20
155.500018
 30
0.0
 11
315.500092
 21
155.500018
 31
0.0
  0
LINE
  5
1264E
  8
DANMEN
  6
CONTINUOUS
 10
307.450089
 20
153.000015
 30
0.0
 11
307.950089
 21
153.000015
 31
0.0
  0
ARC
  5
12650
  8
DANMEN
  6
CONTINUOUS
 10
307.450089
 20
153.500015
 30
0.0
 40
0.5
 50
180.000019
 51
270.000001
  0
LINE
  5
12652
  8
DANMEN
  6
CONTINUOUS
 10
306.950089
 20
155.500018
 30
0.0
 11
306.950089
 21
153.500015
 31
0.0
  0
LINE
  5
12655
  8
DANMEN
  6
CONTINUOUS
 10
307.950089
 20
155.500018
 30
0.0
 11
307.950089
 21
153.000015
 31
0.0
  0
LINE
  5
12656
  8
DANMEN
  6
CONTINUOUS
 10
315.500092
 20
155.050018
 30
0.0
 11
316.500092
 21
155.050018
 31
0.0
  0
LINE
  5
12657
  8
DANMEN
  6
CONTINUOUS
 10
315.500092
 20
155.500018
 30
0.0
 11
315.500092
 21
155.050018
 31
0.0
  0
LINE
  5
1265B
  8
DANMEN
  6
CONTINUOUS
 10
316.500092
 20
155.500018
 30
0.0
 11
316.500092
 21
155.050018
 31
0.0
  0
LINE
  5
1265E
  8
DANMEN
  6
CONTINUOUS
 10
316.500092
 20
155.500018
 30
0.0
 11
319.050092
 21
155.500018
 31
0.0
  0
ARC
  5
12660
  8
DANMEN
  6
CONTINUOUS
 10
320.000092
 20
156.000015
 30
0.0
 40
1.0
 50
0.0
 51
89.999982
  0
LINE
  5
12662
  8
SUNPO
  6
CONTINUOUS
 10
25.0
 20
188.0
 30
0.0
 11
25.0
 21
223.0
 31
0.0
  0
LINE
  5
12663
  8
DANMEN
  6
CONTINUOUS
 10
366.500004
 20
125.0
 30
0.0
 11
383.0
 21
125.0
 31
0.0
  0
LINE
  5
12664
  8
DANMEN
  6
CONTINUOUS
 10
345.0
 20
157.0
 30
0.0
 11
391.0
 21
157.0
 31
0.0
  0
LINE
  5
12665
  8
DANMEN
  6
CONTINUOUS
 10
345.0
 20
130.0
 30
0.0
 11
391.0
 21
130.0
 31
0.0
  0
LINE
  5
12666
  8
DANMEN
  6
CONTINUOUS
 10
345.0
 20
146.5
 30
0.0
 11
391.0
 21
146.5
 31
0.0
  0
LINE
  5
12667
  8
DANMEN
  6
CONTINUOUS
 10
345.0
 20
143.5
 30
0.0
 11
391.0
 21
143.5
 31
0.0
  0
LINE
  5
12668
  8
DANMEN
  6
CONTINUOUS
 10
376.0
 20
164.0
 30
0.0
 11
356.0
 21
164.0
 31
0.0
  0
LINE
  5
12669
  8
DANMEN
  6
CONTINUOUS
 10
345.0
 20
125.0
 30
0.0
 11
366.0
 21
125.0
 31
0.0
  0
LINE
  5
1266A
  8
DANMEN
  6
CONTINUOUS
 10
337.432615
 20
146.5
 30
0.0
 11
342.0
 21
146.5
 31
0.0
  0
LINE
  5
1266B
  8
DANMEN
  6
CONTINUOUS
 10
337.710527
 20
143.5
 30
0.0
 11
342.0
 21
143.5
 31
0.0
  0
ARC
  5
1266C
  8
DANMEN
  6
CONTINUOUS
 10
366.500003
 20
124.5
 30
0.0
 40
0.5
 50
89.999872
 51
179.999909
  0
LINE
  5
1266D
  8
DANMEN
  6
CONTINUOUS
 10
351.600006
 20
167.0
 30
0.0
 11
356.0
 21
167.0
 31
0.0
  0
LINE
  5
1266E
  8
DANMEN
  6
CONTINUOUS
 10
351.600006
 20
165.800003
 30
0.0
 11
356.0
 21
165.800003
 31
0.0
  0
LINE
  5
1266F
  8
DANMEN
  6
CONTINUOUS
 10
356.0
 20
162.800003
 30
0.0
 11
345.0
 21
162.800003
 31
0.0
  0
LINE
  5
12670
  8
DANMEN
  6
CONTINUOUS
 10
351.600006
 20
167.0
 30
0.0
 11
345.0
 21
167.0
 31
0.0
  0
LINE
  5
12671
  8
DANMEN
  6
CONTINUOUS
 10
351.600006
 20
165.800003
 30
0.0
 11
345.0
 21
165.800003
 31
0.0
  0
ARC
  5
12672
  8
DANMEN
  6
CONTINUOUS
 10
351.600006
 20
166.399994
 30
0.0
 40
0.6
 50
89.999963
 51
269.999982
  0
LINE
  5
12677
  8
DANMEN
  6
CONTINUOUS
 10
356.0
 20
167.0
 30
0.0
 11
356.0
 21
162.800003
 31
0.0
  0
LINE
  5
12679
  8
DANMEN
  6
CONTINUOUS
 10
391.0
 20
162.800003
 30
0.0
 11
391.0
 21
125.0
 31
0.0
  0
LINE
  5
1267A
  8
DANMEN
  6
CONTINUOUS
 10
391.0
 20
125.0
 30
0.0
 11
383.0
 21
125.0
 31
0.0
  0
LINE
  5
1267C
  8
DANMEN
  6
CONTINUOUS
 10
389.0
 20
162.350006
 30
0.0
 11
376.5
 21
162.350006
 31
0.0
  0
LINE
  5
1267D
  8
DANMEN
  6
CONTINUOUS
 10
400.5
 20
164.0
 30
0.0
 11
376.5
 21
164.0
 31
0.0
  0
ARC
  5
1267E
  8
DANMEN
  6
CONTINUOUS
 10
376.5
 20
163.5
 30
0.0
 40
0.5
 50
90.000037
 51
180.000019
  0
ARC
  5
1267F
  8
DANMEN
  6
CONTINUOUS
 10
376.5
 20
162.850006
 30
0.0
 40
0.5
 50
180.000019
 51
270.000001
  0
LINE
  5
12680
  8
DANMEN
  6
CONTINUOUS
 10
376.0
 20
163.5
 30
0.0
 11
376.0
 21
162.850006
 31
0.0
  0
ARC
  5
12681
  8
DANMEN
  6
CONTINUOUS
 10
399.850006
 20
158.5
 30
0.0
 40
0.5
 50
180.000019
 51
270.000001
  0
ARC
  5
12682
  8
DANMEN
  6
CONTINUOUS
 10
400.5
 20
158.5
 30
0.0
 40
0.5
 50
270.000018
 51
359.999981
  0
LINE
  5
12683
  8
DANMEN
  6
CONTINUOUS
 10
400.5
 20
158.0
 30
0.0
 11
399.850006
 21
158.0
 31
0.0
  0
LINE
  5
12684
  8
DANMEN
  6
CONTINUOUS
 10
399.350006
 20
162.350006
 30
0.0
 11
392.649994
 21
162.350006
 31
0.0
  0
LINE
  5
12685
  8
DANMEN
  6
CONTINUOUS
 10
391.0
 20
162.800003
 30
0.0
 11
389.0
 21
162.800003
 31
0.0
  0
LINE
  5
12686
  8
DANMEN
  6
CONTINUOUS
 10
389.0
 20
162.800003
 30
0.0
 11
389.0
 21
162.350006
 31
0.0
  0
ARC
  5
12687
  8
DANMEN
  6
CONTINUOUS
 10
400.5
 20
163.5
 30
0.0
 40
0.5
 50
0.0
 51
89.999982
  0
LINE
  5
12688
  8
DANMEN
  6
CONTINUOUS
 10
399.350006
 20
162.350006
 30
0.0
 11
399.350006
 21
158.5
 31
0.0
  0
LINE
  5
12689
  8
DANMEN
  6
CONTINUOUS
 10
401.0
 20
163.5
 30
0.0
 11
401.0
 21
158.5
 31
0.0
  0
TEXT
  5
1268A
  8
SUNPO
  6
CONTINUOUS
 10
61.916667
 20
169.0
 30
0.0
 40
2.5
  1
24
  0
TEXT
  5
1268B
  8
SUNPO
  6
CONTINUOUS
 10
37.013333
 20
169.0
 30
0.0
 40
2.5
  1
3
  0
TEXT
  5
1268C
  8
SUNPO
  6
CONTINUOUS
 10
47.666667
 20
169.0
 30
0.0
 40
2.5
  1
7
  0
LINE
  5
1268D
  8
SUNPO
  6
CONTINUOUS
 10
43.5
 20
162.0
 30
0.0
 11
25.0
 21
162.0
 31
0.0
  0
ARC
  5
1268E
  8
SUNPO
  6
BYBLOCK
 10
25.0
 20
162.0
 30
0.0
 40
0.145
 50
90.0
 51
270.0
  0
ARC
  5
1268F
  8
SUNPO
  6
BYBLOCK
 10
25.0
 20
162.0
 30
0.0
 40
0.145
 50
270.0
 51
90.0
  0
LINE
  5
12690
  8
SUNPO
  6
CONTINUOUS
 10
52.0
 20
168.0
 30
0.0
 11
45.0
 21
168.0
 31
0.0
  0
LINE
  5
12691
  8
SUNPO
  6
CONTINUOUS
 10
45.0
 20
168.0
 30
0.0
 11
42.0
 21
168.0
 31
0.0
  0
LINE
  5
12692
  8
SUNPO
  6
CONTINUOUS
 10
42.0
 20
159.5
 30
0.0
 11
42.0
 21
168.0
 31
0.0
  0
LINE
  5
12693
  8
SUNPO
  6
CONTINUOUS
 10
42.0
 20
168.0
 30
0.0
 11
36.013333
 21
168.0
 31
0.0
  0
ARC
  5
12694
  8
SUNPO
  6
BYBLOCK
 10
42.0
 20
168.0
 30
0.0
 40
0.145
 50
180.0
 51
0.0
  0
ARC
  5
12695
  8
SUNPO
  6
BYBLOCK
 10
42.0
 20
168.0
 30
0.0
 40
0.145
 50
0.0
 51
180.0
  0
ARC
  5
12696
  8
SUNPO
  6
BYBLOCK
 10
45.0
 20
168.0
 30
0.0
 40
0.145
 50
180.0
 51
0.0
  0
ARC
  5
12697
  8
SUNPO
  6
BYBLOCK
 10
45.0
 20
168.0
 30
0.0
 40
0.145
 50
0.0
 51
180.0
  0
ARC
  5
12698
  8
SUNPO
  6
BYBLOCK
 10
45.0
 20
168.0
 30
0.0
 40
0.145
 50
0.0
 51
180.0
  0
ARC
  5
12699
  8
SUNPO
  6
BYBLOCK
 10
45.0
 20
168.0
 30
0.0
 40
0.145
 50
180.0
 51
0.0
  0
ARC
  5
1269A
  8
SUNPO
  6
BYBLOCK
 10
52.0
 20
168.0
 30
0.0
 40
0.145
 50
0.0
 51
180.0
  0
ARC
  5
1269B
  8
SUNPO
  6
BYBLOCK
 10
52.0
 20
168.0
 30
0.0
 40
0.145
 50
180.0
 51
0.0
  0
ARC
  5
1269C
  8
SUNPO
  6
BYBLOCK
 10
52.0
 20
168.0
 30
0.0
 40
0.145
 50
180.0
 51
0.0
  0
ARC
  5
1269D
  8
SUNPO
  6
BYBLOCK
 10
52.0
 20
168.0
 30
0.0
 40
0.145
 50
0.0
 51
180.0
  0
LINE
  5
1269E
  8
SUNPO
  6
CONTINUOUS
 10
43.5
 20
188.0
 30
0.0
 11
25.0
 21
188.0
 31
0.0
  0
ARC
  5
1269F
  8
SUNPO
  6
BYBLOCK
 10
25.0
 20
188.0
 30
0.0
 40
0.145
 50
270.0
 51
90.0
  0
ARC
  5
126A0
  8
SUNPO
  6
BYBLOCK
 10
25.0
 20
188.0
 30
0.0
 40
0.145
 50
90.0
 51
270.0
  0
TEXT
  5
126A1
  8
SUNPO
  6
CONTINUOUS
 10
24.0
 20
203.416667
 30
0.0
 40
2.5
  1
35
 50
90.0
  0
ARC
  5
126A2
  8
SUNPO
  6
BYBLOCK
 10
45.0
 20
178.0
 30
0.0
 40
0.145
 50
180.0
 51
0.0
  0
ARC
  5
126A3
  8
SUNPO
  6
BYBLOCK
 10
45.0
 20
178.0
 30
0.0
 40
0.145
 50
0.0
 51
180.0
  0
LINE
  5
126AA
  8
SUNPO
  6
CONTINUOUS
 10
43.5
 20
258.0
 30
0.0
 11
25.0
 21
258.0
 31
0.0
  0
LINE
  5
126AB
  8
SUNPO
  6
CONTINUOUS
 10
43.5
 20
223.0
 30
0.0
 11
25.0
 21
223.0
 31
0.0
  0
LINE
  5
126AC
  8
SUNPO
  6
CONTINUOUS
 10
25.0
 20
258.0
 30
0.0
 11
25.0
 21
223.0
 31
0.0
  0
TEXT
  5
126AD
  8
SUNPO
  6
CONTINUOUS
 10
24.0
 20
238.416667
 30
0.0
 40
2.5
  1
35
 50
90.0
  0
ARC
  5
126AE
  8
SUNPO
  6
BYBLOCK
 10
25.0
 20
223.0
 30
0.0
 40
0.145
 50
270.0
 51
90.0
  0
ARC
  5
126AF
  8
SUNPO
  6
BYBLOCK
 10
25.0
 20
223.0
 30
0.0
 40
0.145
 50
90.0
 51
270.0
  0
ARC
  5
126B0
  8
SUNPO
  6
BYBLOCK
 10
25.0
 20
223.0
 30
0.0
 40
0.145
 50
90.0
 51
270.0
  0
ARC
  5
126B1
  8
SUNPO
  6
BYBLOCK
 10
25.0
 20
223.0
 30
0.0
 40
0.145
 50
270.0
 51
90.0
  0
ARC
  5
126B2
  8
SUNPO
  6
BYBLOCK
 10
25.0
 20
258.0
 30
0.0
 40
0.145
 50
90.0
 51
270.0
  0
ARC
  5
126B3
  8
SUNPO
  6
BYBLOCK
 10
25.0
 20
258.0
 30
0.0
 40
0.145
 50
270.0
 51
90.0
  0
LINE
  5
126B4
  8
SUNPO
  6
CONTINUOUS
 10
194.0
 20
174.0
 30
0.0
 11
259.0
 21
174.0
 31
0.0
  0
LINE
  5
126B5
  8
SUNPO
  6
CONTINUOUS
 10
156.0
 20
223.0
 30
0.0
 11
156.0
 21
188.0
 31
0.0
  0
LINE
  5
126B6
  8
SUNPO
  6
CONTINUOUS
 10
166.0
 20
223.0
 30
0.0
 11
166.0
 21
180.090187
 31
0.0
  0
LINE
  5
126B7
  8
SUNPO
  6
CONTINUOUS
 10
143.0
 20
168.0
 30
0.0
 11
115.0
 21
168.0
 31
0.0
  0
LINE
  5
126B8
  8
SUNPO
  6
CONTINUOUS
 10
116.5
 20
188.0
 30
0.0
 11
156.0
 21
188.0
 31
0.0
  0
LINE
  5
126B9
  8
SUNPO
  6
CONTINUOUS
 10
116.5
 20
162.0
 30
0.0
 11
156.0
 21
162.0
 31
0.0
  0
TEXT
  5
126BA
  8
SUNPO
  6
CONTINUOUS
 10
126.916667
 20
169.0
 30
0.0
 40
2.5
  1
28
  0
TEXT
  5
126BB
  8
SUNPO
  6
CONTINUOUS
 10
97.833333
 20
169.0
 30
0.0
 40
2.5
  1
31
  0
TEXT
  5
126BC
  8
SUNPO
  6
CONTINUOUS
 10
79.166667
 20
169.0
 30
0.0
 40
2.5
  1
8
  0
LINE
  5
126BD
  8
SUNPO
  6
CONTINUOUS
 10
84.0
 20
168.0
 30
0.0
 11
115.0
 21
168.0
 31
0.0
  0
LINE
  5
126BE
  8
SUNPO
  6
CONTINUOUS
 10
84.0
 20
168.0
 30
0.0
 11
76.0
 21
168.0
 31
0.0
  0
ARC
  5
126BF
  8
SUNPO
  6
BYBLOCK
 10
84.0
 20
168.0
 30
0.0
 40
0.145
 50
0.0
 51
180.0
  0
ARC
  5
126C0
  8
SUNPO
  6
BYBLOCK
 10
84.0
 20
168.0
 30
0.0
 40
0.145
 50
180.0
 51
0.0
  0
ARC
  5
126C1
  8
SUNPO
  6
BYBLOCK
 10
84.0
 20
168.0
 30
0.0
 40
0.145
 50
180.0
 51
0.0
  0
ARC
  5
126C2
  8
SUNPO
  6
BYBLOCK
 10
84.0
 20
168.0
 30
0.0
 40
0.145
 50
0.0
 51
180.0
  0
ARC
  5
126C3
  8
SUNPO
  6
BYBLOCK
 10
76.0
 20
168.0
 30
0.0
 40
0.145
 50
180.0
 51
0.0
  0
ARC
  5
126C4
  8
SUNPO
  6
BYBLOCK
 10
76.0
 20
168.0
 30
0.0
 40
0.145
 50
0.0
 51
180.0
  0
ARC
  5
126C5
  8
SUNPO
  6
BYBLOCK
 10
76.0
 20
168.0
 30
0.0
 40
0.145
 50
0.0
 51
180.0
  0
ARC
  5
126C6
  8
SUNPO
  6
BYBLOCK
 10
76.0
 20
168.0
 30
0.0
 40
0.145
 50
180.0
 51
0.0
  0
LINE
  5
126C7
  8
SUNPO
  6
CONTINUOUS
 10
115.0
 20
125.997913
 30
0.0
 11
115.0
 21
168.0
 31
0.0
  0
ARC
  5
126C8
  8
SUNPO
  6
BYBLOCK
 10
115.0
 20
168.0
 30
0.0
 40
0.145
 50
0.0
 51
180.0
  0
ARC
  5
126C9
  8
SUNPO
  6
BYBLOCK
 10
115.0
 20
168.0
 30
0.0
 40
0.145
 50
180.0
 51
0.0
  0
ARC
  5
126CA
  8
SUNPO
  6
BYBLOCK
 10
115.0
 20
168.0
 30
0.0
 40
0.145
 50
180.0
 51
0.0
  0
ARC
  5
126CB
  8
SUNPO
  6
BYBLOCK
 10
115.0
 20
168.0
 30
0.0
 40
0.145
 50
0.0
 51
180.0
  0
TEXT
  5
126CC
  8
SUNPO
  6
CONTINUOUS
 10
79.443604
 20
179.0
 30
0.0
 40
2.5
  1
70
  0
LINE
  5
126CD
  8
SUNPO
  6
CONTINUOUS
 10
115.0
 20
194.559921
 30
0.0
 11
115.0
 21
178.0
 31
0.0
  0
ARC
  5
126CE
  8
SUNPO
  6
BYBLOCK
 10
115.0
 20
178.0
 30
0.0
 40
0.145
 50
0.0
 51
180.0
  0
ARC
  5
126CF
  8
SUNPO
  6
BYBLOCK
 10
115.0
 20
178.0
 30
0.0
 40
0.145
 50
180.0
 51
0.0
  0
LINE
  5
126D0
  8
SUNPO
  6
CONTINUOUS
 10
191.0
 20
165.5
 30
0.0
 11
191.0
 21
174.0
 31
0.0
  0
LINE
  5
126D1
  8
SUNPO
  6
CONTINUOUS
 10
164.799927
 20
174.656304
 30
0.0
 11
164.799927
 21
169.867761
 31
0.0
  0
LINE
  5
126D2
  8
SUNPO
  6
CONTINUOUS
 10
167.199921
 20
174.656304
 30
0.0
 11
167.199921
 21
169.867761
 31
0.0
  0
LINE
  5
126D3
  8
SUNPO
  6
CONTINUOUS
 10
194.0
 20
165.5
 30
0.0
 11
194.0
 21
174.0
 31
0.0
  0
LINE
  5
126D4
  8
SUNPO
  6
CONTINUOUS
 10
162.0
 20
161.141045
 30
0.0
 11
170.0
 21
161.141045
 31
0.0
  0
LINE
  5
126D5
  8
SUNPO
  6
CONTINUOUS
 10
162.0
 20
166.641045
 30
0.0
 11
170.0
 21
166.641045
 31
0.0
  0
LINE
  5
126D6
  8
SUNPO
  6
CONTINUOUS
 10
162.0
 20
159.141045
 30
0.0
 11
170.0
 21
159.141045
 31
0.0
  0
TEXT
  5
126D7
  8
SUNPO
  6
CONTINUOUS
 10
155.0
 20
128.416667
 30
0.0
 40
2.5
  1
63
 50
90.0
  0
ARC
  5
126D8
  8
SUNPO
  6
BYBLOCK
 10
143.0
 20
168.0
 30
0.0
 40
0.145
 50
0.0
 51
180.0
  0
ARC
  5
126D9
  8
SUNPO
  6
BYBLOCK
 10
143.0
 20
168.0
 30
0.0
 40
0.145
 50
180.0
 51
0.0
  0
LINE
  5
126DA
  8
SUNPO
  6
CONTINUOUS
 10
162.0
 20
162.541039
 30
0.0
 11
162.0
 21
157.343696
 31
0.0
  0
ARC
  5
126DB
  8
SUNPO
  6
BYBLOCK
 10
156.0
 20
162.0
 30
0.0
 40
0.145
 50
90.0
 51
270.0
  0
ARC
  5
126DC
  8
SUNPO
  6
BYBLOCK
 10
156.0
 20
162.0
 30
0.0
 40
0.145
 50
270.0
 51
90.0
  0
LINE
  5
126DD
  8
SUNPO
  6
CONTINUOUS
 10
162.0
 20
168.653991
 30
0.0
 11
162.0
 21
164.920944
 31
0.0
  0
LINE
  5
126DE
  8
SUNPO
  6
CONTINUOUS
 10
170.0
 20
162.541039
 30
0.0
 11
170.0
 21
157.343696
 31
0.0
  0
LINE
  5
126DF
  8
SUNPO
  6
CONTINUOUS
 10
166.0
 20
166.641045
 30
0.0
 11
166.0
 21
161.141045
 31
0.0
  0
LINE
  5
126E0
  8
SUNPO
  6
CONTINUOUS
 10
170.0
 20
168.653991
 30
0.0
 11
170.0
 21
164.920944
 31
0.0
  0
ARC
  5
126E2
  8
SUNPO
  6
BYBLOCK
 10
156.0
 20
188.0
 30
0.0
 40
0.145
 50
270.0
 51
90.0
  0
ARC
  5
126E3
  8
SUNPO
  6
BYBLOCK
 10
156.0
 20
188.0
 30
0.0
 40
0.145
 50
90.0
 51
270.0
  0
TEXT
  5
126E4
  8
SUNPO
  6
CONTINUOUS
 10
155.0
 20
203.416667
 30
0.0
 40
2.5
  1
35
 50
90.0
  0
TEXT
  5
126E5
  8
SUNPO
  6
CONTINUOUS
 10
191.666667
 20
175.0
 30
0.0
 40
2.5
  1
3
  0
LINE
  5
126E6
  8
SUNPO
  6
CONTINUOUS
 10
194.0
 20
174.0
 30
0.0
 11
191.0
 21
174.0
 31
0.0
  0
ARC
  5
126E7
  8
SUNPO
  6
BYBLOCK
 10
191.0
 20
174.0
 30
0.0
 40
0.145
 50
180.0
 51
0.0
  0
ARC
  5
126E8
  8
SUNPO
  6
BYBLOCK
 10
191.0
 20
174.0
 30
0.0
 40
0.145
 50
0.0
 51
180.0
  0
ARC
  5
126E9
  8
SUNPO
  6
BYBLOCK
 10
194.0
 20
174.0
 30
0.0
 40
0.145
 50
0.0
 51
180.0
  0
ARC
  5
126EA
  8
SUNPO
  6
BYBLOCK
 10
194.0
 20
174.0
 30
0.0
 40
0.145
 50
180.0
 51
0.0
  0
ARC
  5
126EB
  8
SUNPO
  6
BYBLOCK
 10
194.0
 20
174.0
 30
0.0
 40
0.145
 50
180.0
 51
0.0
  0
ARC
  5
126EC
  8
SUNPO
  6
BYBLOCK
 10
194.0
 20
174.0
 30
0.0
 40
0.145
 50
0.0
 51
180.0
  0
LINE
  5
126ED
  8
SUNPO
  6
CONTINUOUS
 10
116.5
 20
223.0
 30
0.0
 11
166.0
 21
223.0
 31
0.0
  0
LINE
  5
126EE
  8
SUNPO
  6
CONTINUOUS
 10
116.5
 20
258.0
 30
0.0
 11
166.0
 21
258.0
 31
0.0
  0
LINE
  5
126EF
  8
SUNPO
  6
CONTINUOUS
 10
116.5
 20
231.0
 30
0.0
 11
156.0
 21
231.0
 31
0.0
  0
LINE
  5
126F0
  8
SUNPO
  6
CONTINUOUS
 10
116.5
 20
246.0
 30
0.0
 11
156.0
 21
246.0
 31
0.0
  0
LINE
  5
126F1
  8
SUNPO
  6
CONTINUOUS
 10
171.0
 20
218.0
 30
0.0
 11
161.0
 21
218.0
 31
0.0
  0
LINE
  5
126F2
  8
SUNPO
  6
CONTINUOUS
 10
161.0
 20
218.0
 30
0.0
 11
166.0
 21
223.0
 31
0.0
  0
ARC
  5
126F3
  8
SUNPO
  6
BYBLOCK
 10
166.0
 20
258.0
 30
0.0
 40
0.145
 50
90.0
 51
270.0
  0
LINE
  5
126F4
  8
SUNPO
  6
CONTINUOUS
 10
156.0
 20
246.0
 30
0.0
 11
156.0
 21
231.0
 31
0.0
  0
TEXT
  5
126F5
  8
SUNPO
  6
CONTINUOUS
 10
155.0
 20
236.833333
 30
0.0
 40
2.5
  1
15
 50
90.0
  0
TEXT
  5
126F6
  8
SUNPO
  6
CONTINUOUS
 10
165.0
 20
238.416667
 30
0.0
 40
2.5
  1
35
 50
90.0
  0
LINE
  5
126F7
  8
SUNPO
  6
CONTINUOUS
 10
156.0
 20
231.0
 30
0.0
 11
156.0
 21
223.0
 31
0.0
  0
TEXT
  5
126F8
  8
SUNPO
  6
CONTINUOUS
 10
155.0
 20
226.166667
 30
0.0
 40
2.5
  1
8
 50
90.0
  0
ARC
  5
126F9
  8
SUNPO
  6
BYBLOCK
 10
156.0
 20
223.0
 30
0.0
 40
0.145
 50
270.0
 51
90.0
  0
ARC
  5
126FA
  8
SUNPO
  6
BYBLOCK
 10
156.0
 20
223.0
 30
0.0
 40
0.145
 50
90.0
 51
270.0
  0
ARC
  5
126FB
  8
SUNPO
  6
BYBLOCK
 10
156.0
 20
223.0
 30
0.0
 40
0.145
 50
90.0
 51
270.0
  0
ARC
  5
126FC
  8
SUNPO
  6
BYBLOCK
 10
156.0
 20
223.0
 30
0.0
 40
0.145
 50
270.0
 51
90.0
  0
ARC
  5
126FE
  8
SUNPO
  6
BYBLOCK
 10
156.0
 20
231.0
 30
0.0
 40
0.145
 50
90.0
 51
270.0
  0
ARC
  5
126FF
  8
SUNPO
  6
BYBLOCK
 10
156.0
 20
231.0
 30
0.0
 40
0.145
 50
270.0
 51
90.0
  0
ARC
  5
12700
  8
SUNPO
  6
BYBLOCK
 10
156.0
 20
231.0
 30
0.0
 40
0.145
 50
270.0
 51
90.0
  0
ARC
  5
12701
  8
SUNPO
  6
BYBLOCK
 10
156.0
 20
231.0
 30
0.0
 40
0.145
 50
90.0
 51
270.0
  0
ARC
  5
12702
  8
SUNPO
  6
BYBLOCK
 10
156.0
 20
246.0
 30
0.0
 40
0.145
 50
90.0
 51
270.0
  0
ARC
  5
12703
  8
SUNPO
  6
BYBLOCK
 10
156.0
 20
246.0
 30
0.0
 40
0.145
 50
270.0
 51
90.0
  0
LINE
  5
12704
  8
SUNPO
  6
CONTINUOUS
 10
166.0
 20
258.0
 30
0.0
 11
166.0
 21
223.0
 31
0.0
  0
LINE
  5
12705
  8
SUNPO
  6
CONTINUOUS
 10
166.0
 20
223.0
 30
0.0
 11
171.0
 21
218.0
 31
0.0
  0
ARC
  5
12708
  8
SUNPO
  6
BYBLOCK
 10
166.0
 20
258.0
 30
0.0
 40
0.145
 50
270.0
 51
90.0
  0
LINE
  5
12709
  8
SUNPO
  6
CONTINUOUS
 10
227.499999
 20
164.0
 30
0.0
 11
267.364825
 21
164.0
 31
0.0
  0
LINE
  5
1270A
  8
SUNPO
  6
CONTINUOUS
 10
237.499999
 20
164.0
 30
0.0
 11
267.364825
 21
164.0
 31
0.0
  0
TEXT
  5
1270B
  8
SUNPO
  6
CONTINUOUS
 10
266.364825
 20
124.781494
 30
0.0
 40
2.5
  1
70
 50
90.0
  0
TEXT
  5
1270C
  8
SUNPO
  6
CONTINUOUS
 10
266.364825
 20
170.32
 30
0.0
 40
2.5
  1
3
 50
90.0
  0
LINE
  5
1270D
  8
SUNPO
  6
CONTINUOUS
 10
259.0
 20
168.5
 30
0.0
 11
259.0
 21
174.0
 31
0.0
  0
TEXT
  5
1270E
  8
SUNPO
  6
CONTINUOUS
 10
224.416667
 20
175.0
 30
0.0
 40
2.5
  1
65
  0
ARC
  5
1270F
  8
SUNPO
  6
BYBLOCK
 10
259.0
 20
174.0
 30
0.0
 40
0.145
 50
0.0
 51
180.0
  0
ARC
  5
12710
  8
SUNPO
  6
BYBLOCK
 10
259.0
 20
174.0
 30
0.0
 40
0.145
 50
180.0
 51
0.0
  0
LINE
  5
12711
  8
SUNPO
  6
CONTINUOUS
 10
267.364825
 20
167.0
 30
0.0
 11
267.364825
 21
172.986667
 31
0.0
  0
LINE
  5
12712
  8
SUNPO
  6
CONTINUOUS
 10
267.364825
 20
164.0
 30
0.0
 11
267.364825
 21
167.0
 31
0.0
  0
ARC
  5
12713
  8
SUNPO
  6
BYBLOCK
 10
267.364825
 20
164.0
 30
0.0
 40
0.145
 50
270.0
 51
90.0
  0
ARC
  5
12714
  8
SUNPO
  6
BYBLOCK
 10
267.364825
 20
164.0
 30
0.0
 40
0.145
 50
90.0
 51
270.0
  0
ARC
  5
12715
  8
SUNPO
  6
BYBLOCK
 10
267.364825
 20
164.0
 30
0.0
 40
0.145
 50
90.0
 51
270.0
  0
ARC
  5
12716
  8
SUNPO
  6
BYBLOCK
 10
267.364825
 20
164.0
 30
0.0
 40
0.145
 50
270.0
 51
90.0
  0
ARC
  5
12717
  8
SUNPO
  6
BYBLOCK
 10
267.364825
 20
167.0
 30
0.0
 40
0.145
 50
90.0
 51
270.0
  0
ARC
  5
12718
  8
SUNPO
  6
BYBLOCK
 10
267.364825
 20
167.0
 30
0.0
 40
0.145
 50
270.0
 51
90.0
  0
LINE
  5
12719
  8
SUNPO
  6
CONTINUOUS
 10
376.0
 20
174.0
 30
0.0
 11
401.0
 21
174.0
 31
0.0
  0
LINE
  5
1271A
  8
SUNPO
  6
CONTINUOUS
 10
376.0
 20
164.350006
 30
0.0
 11
376.0
 21
174.0
 31
0.0
  0
LINE
  5
1271B
  8
SUNPO
  6
CONTINUOUS
 10
364.5
 20
125.0
 30
0.0
 11
353.577611
 21
125.0
 31
0.0
  0
LINE
  5
1271C
  8
SUNPO
  6
CONTINUOUS
 10
338.0
 20
157.0
 30
0.0
 11
338.0
 21
133.0
 31
0.0
  0
TEXT
  5
1271D
  8
SUNPO
  6
CONTINUOUS
 10
337.0
 20
142.916667
 30
0.0
 40
2.5
  1
24
 50
90.0
  0
LINE
  5
1271E
  8
SUNPO
  6
CONTINUOUS
 10
338.0
 20
125.0
 30
0.0
 11
338.0
 21
133.0
 31
0.0
  0
TEXT
  5
1271F
  8
SUNPO
  6
CONTINUOUS
 10
337.0
 20
128.166667
 30
0.0
 40
2.5
  1
8
 50
90.0
  0
ARC
  5
12720
  8
SUNPO
  6
BYBLOCK
 10
338.0
 20
125.0
 30
0.0
 40
0.145
 50
270.0
 51
90.0
  0
ARC
  5
12721
  8
SUNPO
  6
BYBLOCK
 10
338.0
 20
125.0
 30
0.0
 40
0.145
 50
90.0
 51
270.0
  0
ARC
  5
12722
  8
SUNPO
  6
BYBLOCK
 10
338.0
 20
125.0
 30
0.0
 40
0.145
 50
90.0
 51
270.0
  0
ARC
  5
12723
  8
SUNPO
  6
BYBLOCK
 10
338.0
 20
125.0
 30
0.0
 40
0.145
 50
270.0
 51
90.0
  0
ARC
  5
12724
  8
SUNPO
  6
BYBLOCK
 10
338.0
 20
133.0
 30
0.0
 40
0.145
 50
270.0
 51
90.0
  0
ARC
  5
12725
  8
SUNPO
  6
BYBLOCK
 10
338.0
 20
133.0
 30
0.0
 40
0.145
 50
90.0
 51
270.0
  0
ARC
  5
12726
  8
SUNPO
  6
BYBLOCK
 10
338.0
 20
133.0
 30
0.0
 40
0.145
 50
90.0
 51
270.0
  0
ARC
  5
12727
  8
SUNPO
  6
BYBLOCK
 10
338.0
 20
133.0
 30
0.0
 40
0.145
 50
270.0
 51
90.0
  0
LINE
  5
12728
  8
SUNPO
  6
CONTINUOUS
 10
353.577611
 20
125.0
 30
0.0
 11
353.577611
 21
134.32
 31
0.0
  0
TEXT
  5
12729
  8
SUNPO
  6
CONTINUOUS
 10
352.577611
 20
128.32
 30
0.0
 40
2.5
  1
2.5
 50
90.0
  0
ARC
  5
1272A
  8
SUNPO
  6
BYBLOCK
 10
353.577611
 20
125.0
 30
0.0
 40
0.145
 50
90.0
 51
270.0
  0
ARC
  5
1272B
  8
SUNPO
  6
BYBLOCK
 10
353.577611
 20
125.0
 30
0.0
 40
0.145
 50
270.0
 51
90.0
  0
LINE
  5
1272C
  8
SUNPO
  6
CONTINUOUS
 10
354.5
 20
164.0
 30
0.0
 11
338.0
 21
164.0
 31
0.0
  0
LINE
  5
1272D
  8
SUNPO
  6
CONTINUOUS
 10
338.0
 20
157.0
 30
0.0
 11
338.0
 21
164.0
 31
0.0
  0
ARC
  5
1272E
  8
SUNPO
  6
BYBLOCK
 10
338.0
 20
157.0
 30
0.0
 40
0.145
 50
270.0
 51
90.0
  0
ARC
  5
1272F
  8
SUNPO
  6
BYBLOCK
 10
338.0
 20
157.0
 30
0.0
 40
0.145
 50
90.0
 51
270.0
  0
ARC
  5
12730
  8
SUNPO
  6
BYBLOCK
 10
338.0
 20
157.0
 30
0.0
 40
0.145
 50
90.0
 51
270.0
  0
ARC
  5
12731
  8
SUNPO
  6
BYBLOCK
 10
338.0
 20
157.0
 30
0.0
 40
0.145
 50
270.0
 51
90.0
  0
ARC
  5
12732
  8
SUNPO
  6
BYBLOCK
 10
338.0
 20
164.0
 30
0.0
 40
0.145
 50
90.0
 51
270.0
  0
ARC
  5
12733
  8
SUNPO
  6
BYBLOCK
 10
338.0
 20
164.0
 30
0.0
 40
0.145
 50
270.0
 51
90.0
  0
TEXT
  5
12734
  8
SUNPO
  6
CONTINUOUS
 10
337.0
 20
159.666667
 30
0.0
 40
2.5
  1
7
 50
90.0
  0
ARC
  5
12735
  8
SUNPO
  6
BYBLOCK
 10
376.0
 20
174.0
 30
0.0
 40
0.145
 50
180.0
 51
0.0
  0
ARC
  5
12736
  8
SUNPO
  6
BYBLOCK
 10
376.0
 20
174.0
 30
0.0
 40
0.145
 50
0.0
 51
180.0
  0
TEXT
  5
12737
  8
SUNPO
  6
CONTINUOUS
 10
386.416667
 20
175.0
 30
0.0
 40
2.5
  1
25
  0
LINE
  5
12738
  8
SUNPO
  6
CONTINUOUS
 10
401.0
 20
165.0
 30
0.0
 11
401.0
 21
174.0
 31
0.0
  0
ARC
  5
12739
  8
SUNPO
  6
BYBLOCK
 10
401.0
 20
174.0
 30
0.0
 40
0.145
 50
0.0
 51
180.0
  0
ARC
  5
1273A
  8
SUNPO
  6
BYBLOCK
 10
401.0
 20
174.0
 30
0.0
 40
0.145
 50
180.0
 51
0.0
  0
LINE
  5
12864
  8
SUNPO
  6
CONTINUOUS
 10
236.115372
 20
53.607269
 30
0.0
 11
237.028887
 21
54.230081
 31
0.0
210
0.0
220
0.0
230
-1.0
  0
LINE
  5
12865
  8
SUNPO
  6
CONTINUOUS
 10
237.028887
 20
54.230081
 30
0.0
 11
237.499982
 21
54.268293
 31
0.0
210
0.0
220
0.0
230
-1.0
  0
LINE
  5
12866
  8
SUNPO
  6
CONTINUOUS
 10
237.499982
 20
54.268293
 30
0.0
 11
237.3138
 21
53.755982
 31
0.0
210
0.0
220
0.0
230
-1.0
  0
LINE
  5
12867
  8
SUNPO
  6
CONTINUOUS
 10
237.3138
 20
53.755982
 30
0.0
 11
236.420898
 21
51.776791
 31
0.0
210
0.0
220
0.0
230
-1.0
  0
LINE
  5
12868
  8
SUNPO
  6
CONTINUOUS
 10
236.420898
 20
51.776791
 30
0.0
 11
236.717461
 21
50.797817
 31
0.0
210
0.0
220
0.0
230
-1.0
  0
LINE
  5
12869
  8
SUNPO
  6
CONTINUOUS
 10
236.717461
 20
50.797817
 30
0.0
 11
237.678871
 21
51.101968
 31
0.0
210
0.0
220
0.0
230
-1.0
  0
LINE
  5
1286A
  8
SUNPO
  6
CONTINUOUS
 10
237.678871
 20
51.101968
 30
0.0
 11
238.16436
 21
52.219453
 31
0.0
210
0.0
220
0.0
230
-1.0
  0
LINE
  5
1286B
  8
SUNPO
  6
CONTINUOUS
 10
238.16436
 20
52.219453
 30
0.0
 11
238.27692
 21
52.720793
 31
0.0
210
0.0
220
0.0
230
-1.0
  0
LINE
  5
1286C
  8
SUNPO
  6
CONTINUOUS
 10
238.27692
 20
52.720793
 30
0.0
 11
238.149498
 21
52.195165
 31
0.0
210
0.0
220
0.0
230
-1.0
  0
LINE
  5
1286D
  8
SUNPO
  6
CONTINUOUS
 10
238.149498
 20
52.195165
 30
0.0
 11
238.099705
 21
51.12979
 31
0.0
210
0.0
220
0.0
230
-1.0
  0
LINE
  5
1286E
  8
SUNPO
  6
CONTINUOUS
 10
238.099705
 20
51.12979
 30
0.0
 11
238.935643
 21
50.548466
 31
0.0
210
0.0
220
0.0
230
-1.0
  0
LINE
  5
1286F
  8
SUNPO
  6
CONTINUOUS
 10
238.935643
 20
50.548466
 30
0.0
 11
240.251869
 21
52.154112
 31
0.0
210
0.0
220
0.0
230
-1.0
  0
LINE
  5
12870
  8
SUNPO
  6
CONTINUOUS
 10
240.251869
 20
52.154112
 30
0.0
 11
240.136626
 21
54.310488
 31
0.0
210
0.0
220
0.0
230
-1.0
  0
LINE
  5
12871
  8
SUNPO
  6
CONTINUOUS
 10
240.136626
 20
54.310488
 30
0.0
 11
242.274428
 21
54.07399
 31
0.0
210
0.0
220
0.0
230
-1.0
  0
LINE
  5
12872
  8
SUNPO
  6
CONTINUOUS
 10
341.115372
 20
53.607269
 30
0.0
 11
342.028887
 21
54.230081
 31
0.0
210
0.0
220
0.0
230
-1.0
  0
LINE
  5
12873
  8
SUNPO
  6
CONTINUOUS
 10
342.028887
 20
54.230081
 30
0.0
 11
342.499983
 21
54.268293
 31
0.0
210
0.0
220
0.0
230
-1.0
  0
LINE
  5
12874
  8
SUNPO
  6
CONTINUOUS
 10
342.499983
 20
54.268293
 30
0.0
 11
342.3138
 21
53.755983
 31
0.0
210
0.0
220
0.0
230
-1.0
  0
LINE
  5
12875
  8
SUNPO
  6
CONTINUOUS
 10
342.3138
 20
53.755983
 30
0.0
 11
341.420898
 21
51.776791
 31
0.0
210
0.0
220
0.0
230
-1.0
  0
LINE
  5
12876
  8
SUNPO
  6
CONTINUOUS
 10
341.420898
 20
51.776791
 30
0.0
 11
341.717461
 21
50.797817
 31
0.0
210
0.0
220
0.0
230
-1.0
  0
LINE
  5
12877
  8
SUNPO
  6
CONTINUOUS
 10
341.717461
 20
50.797817
 30
0.0
 11
342.678871
 21
51.101967
 31
0.0
210
0.0
220
0.0
230
-1.0
  0
LINE
  5
12878
  8
SUNPO
  6
CONTINUOUS
 10
342.678871
 20
51.101967
 30
0.0
 11
343.164361
 21
52.219451
 31
0.0
210
0.0
220
0.0
230
-1.0
  0
LINE
  5
12879
  8
SUNPO
  6
CONTINUOUS
 10
343.164361
 20
52.219451
 30
0.0
 11
343.276921
 21
52.720793
 31
0.0
210
0.0
220
0.0
230
-1.0
  0
LINE
  5
1287A
  8
SUNPO
  6
CONTINUOUS
 10
343.276921
 20
52.720793
 30
0.0
 11
343.1495
 21
52.195166
 31
0.0
210
0.0
220
0.0
230
-1.0
  0
LINE
  5
1287B
  8
SUNPO
  6
CONTINUOUS
 10
343.1495
 20
52.195166
 30
0.0
 11
343.099705
 21
51.12979
 31
0.0
210
0.0
220
0.0
230
-1.0
  0
LINE
  5
1287C
  8
SUNPO
  6
CONTINUOUS
 10
343.099705
 20
51.12979
 30
0.0
 11
343.935643
 21
50.548466
 31
0.0
210
0.0
220
0.0
230
-1.0
  0
LINE
  5
1287D
  8
SUNPO
  6
CONTINUOUS
 10
343.935643
 20
50.548466
 30
0.0
 11
345.25187
 21
52.154112
 31
0.0
210
0.0
220
0.0
230
-1.0
  0
LINE
  5
1287E
  8
SUNPO
  6
CONTINUOUS
 10
345.25187
 20
52.154112
 30
0.0
 11
345.136626
 21
54.310488
 31
0.0
210
0.0
220
0.0
230
-1.0
  0
LINE
  5
1287F
  8
SUNPO
  6
CONTINUOUS
 10
345.136626
 20
54.310488
 30
0.0
 11
347.274429
 21
54.07399
 31
0.0
210
0.0
220
0.0
230
-1.0
  0
LINE
  5
13339
  8
DANMEN
  6
CONTINUOUS
 10
69.349998
 20
73.999996
 30
0.0
 11
69.349998
 21
74.299995
 31
0.0
  0
LINE
  5
1333A
  8
DANMEN
  6
CONTINUOUS
 10
69.349998
 20
74.299995
 30
0.0
 11
71.350001
 21
74.299997
 31
0.0
  0
LINE
  5
1333B
  8
DANMEN
  6
CONTINUOUS
 10
71.350001
 20
74.299992
 30
0.0
 11
71.850001
 21
74.000001
 31
0.0
  0
LINE
  5
1333C
  8
DANMEN
  6
CONTINUOUS
 10
56.149998
 20
146.099996
 30
0.0
 11
56.149998
 21
145.100002
 31
0.0
  0
LINE
  5
1333D
  8
DANMEN
  6
CONTINUOUS
 10
55.299997
 20
149.099996
 30
0.0
 11
56.149998
 21
146.099996
 31
0.0
  0
LINE
  5
1333E
  8
DANMEN
  6
CONTINUOUS
 10
55.299997
 20
140.000002
 30
0.0
 11
56.149998
 21
143.000002
 31
0.0
  0
LINE
  5
1333F
  8
DANMEN
  6
CONTINUOUS
 10
56.149998
 20
143.000002
 30
0.0
 11
56.149998
 21
143.999996
 31
0.0
  0
LINE
  5
13340
  8
DANMEN
  6
CONTINUOUS
 10
56.149998
 20
113.099996
 30
0.0
 11
56.149998
 21
112.100002
 31
0.0
  0
LINE
  5
13341
  8
DANMEN
  6
CONTINUOUS
 10
55.299997
 20
116.099996
 30
0.0
 11
56.149998
 21
113.099996
 31
0.0
  0
LINE
  5
13342
  8
DANMEN
  6
CONTINUOUS
 10
55.299997
 20
107.000002
 30
0.0
 11
56.149998
 21
110.000002
 31
0.0
  0
LINE
  5
13343
  8
DANMEN
  6
CONTINUOUS
 10
56.149998
 20
110.000002
 30
0.0
 11
56.149998
 21
110.999996
 31
0.0
  0
LINE
  5
13344
  8
DANMEN
  6
CONTINUOUS
 10
56.150001
 20
76.999997
 30
0.0
 11
56.150001
 21
75.000001
 31
0.0
  0
LINE
  5
13345
  8
DANMEN
  6
CONTINUOUS
 10
55.299998
 20
80.000008
 30
0.0
 11
56.150001
 21
76.999997
 31
0.0
  0
LINE
  5
13346
  8
DANMEN
  6
CONTINUOUS
 10
58.650001
 20
73.999996
 30
0.0
 11
58.650001
 21
74.299995
 31
0.0
  0
LINE
  5
13347
  8
DANMEN
  6
CONTINUOUS
 10
58.650001
 20
74.299995
 30
0.0
 11
56.649998
 21
74.299997
 31
0.0
  0
LINE
  5
13348
  8
DANMEN
  6
CONTINUOUS
 10
56.150001
 20
71.999997
 30
0.0
 11
56.150001
 21
74.000003
 31
0.0
  0
LINE
  5
13349
  8
DANMEN
  6
CONTINUOUS
 10
56.649998
 20
74.299992
 30
0.0
 11
56.149998
 21
74.000001
 31
0.0
  0
LINE
  5
1334A
  8
DANMEN
  6
CONTINUOUS
 10
55.299998
 20
68.999985
 30
0.0
 11
56.150001
 21
71.999997
 31
0.0
  0
LINE
  5
1334B
  8
DANMEN
  6
CONTINUOUS
 10
61.5
 20
73.999999
 30
0.0
 11
58.650001
 21
74.000001
 31
0.0
  0
ARC
  5
1334C
  8
DANMEN
  6
CONTINUOUS
 10
72.350001
 20
71.499995
 30
0.0
 40
0.5
 50
180.0
 51
270.0
  0
ARC
  5
1334D
  8
DANMEN
  6
CONTINUOUS
 10
72.350001
 20
62.5
 30
0.0
 40
0.5
 50
180.0
 51
270.0
  0
LINE
  5
1334E
  8
DANMEN
  6
CONTINUOUS
 10
71.850001
 20
63.0
 30
0.0
 11
71.850001
 21
62.5
 31
0.0
  0
LINE
  5
1334F
  8
DANMEN
  6
CONTINUOUS
 10
72.699998
 20
62.0
 30
0.0
 11
72.699998
 21
59.8
 31
0.0
  0
LINE
  5
13350
  8
DANMEN
  6
CONTINUOUS
 10
72.699998
 20
63.0
 30
0.0
 11
71.850001
 21
63.0
 31
0.0
  0
LINE
  5
13351
  8
DANMEN
  6
CONTINUOUS
 10
72.699998
 20
62.0
 30
0.0
 11
72.349998
 21
62.0
 31
0.0
  0
LINE
  5
13352
  8
DANMEN
  6
CONTINUOUS
 10
72.699998
 20
70.999995
 30
0.0
 11
72.350001
 21
70.999995
 31
0.0
  0
ARC
  5
13353
  8
DANMEN
  6
CONTINUOUS
 10
72.349998
 20
59.5
 30
0.0
 40
0.5
 50
180.0
 51
270.0
  0
ARC
  5
13354
  8
DANMEN
  6
CONTINUOUS
 10
73.299998
 20
59.5
 30
0.0
 40
0.5
 50
270.0
 51
0.0
  0
LINE
  5
13355
  8
DANMEN
  6
CONTINUOUS
 10
73.299998
 20
59.0
 30
0.0
 11
72.349998
 21
59.0
 31
0.0
  0
LINE
  5
13356
  8
DANMEN
  6
CONTINUOUS
 10
72.699998
 20
59.8
 30
0.0
 11
71.849998
 21
59.8
 31
0.0
  0
LINE
  5
13357
  8
DANMEN
  6
CONTINUOUS
 10
71.849998
 20
59.8
 30
0.0
 11
71.849998
 21
59.5
 31
0.0
  0
LINE
  5
13358
  8
DANMEN
  6
CONTINUOUS
 10
72.699998
 20
70.999995
 30
0.0
 11
72.699998
 21
63.0
 31
0.0
  0
LINE
  5
13359
  8
DANMEN
  6
CONTINUOUS
 10
71.850001
 20
74.000005
 30
0.0
 11
71.850001
 21
71.499995
 31
0.0
  0
LINE
  5
1335A
  8
DANMEN
  6
CONTINUOUS
 10
73.799998
 20
74.000006
 30
0.0
 11
73.799998
 21
59.5
 31
0.0
  0
ARC
  5
1335B
  8
DANMEN
  6
CONTINUOUS
 10
71.700001
 20
88.88869
 30
0.0
 40
1.0
 50
278.62675
 51
0.0
  0
ARC
  5
1335C
  8
DANMEN
  6
CONTINUOUS
 10
72.349998
 20
87.400003
 30
0.0
 40
0.5
 50
180.0
 51
270.0
  0
LINE
  5
1335D
  8
DANMEN
  6
CONTINUOUS
 10
71.849998
 20
87.900003
 30
0.0
 11
71.849998
 21
87.400003
 31
0.0
  0
LINE
  5
1335E
  8
DANMEN
  6
CONTINUOUS
 10
69.349998
 20
74.000004
 30
0.0
 11
66.5
 21
74.000001
 31
0.0
  0
LINE
  5
1335F
  8
DANMEN
  6
CONTINUOUS
 10
61.499999
 20
74.0
 30
0.0
 11
61.499999
 21
73.050003
 31
0.0
  0
LINE
  5
13360
  8
DANMEN
  6
CONTINUOUS
 10
66.499999
 20
74.0
 30
0.0
 11
66.499999
 21
73.050003
 31
0.0
  0
LINE
  5
13361
  8
DANMEN
  6
CONTINUOUS
 10
66.499999
 20
73.050001
 30
0.0
 11
61.499999
 21
73.049999
 31
0.0
  0
LINE
  5
13362
  8
DANMEN
  6
CONTINUOUS
 10
71.849995
 20
75.000006
 30
0.0
 11
56.149998
 21
75.000001
 31
0.0
  0
ARC
  5
13363
  8
DANMEN
  6
CONTINUOUS
 10
55.649998
 20
59.5
 30
0.0
 40
0.5
 50
270.0
 51
0.0
  0
ARC
  5
13364
  8
DANMEN
  6
CONTINUOUS
 10
54.699998
 20
59.5
 30
0.0
 40
0.5
 50
180.0
 51
270.0
  0
LINE
  5
13365
  8
DANMEN
  6
CONTINUOUS
 10
54.699998
 20
59.0
 30
0.0
 11
55.649998
 21
59.0
 31
0.0
  0
LINE
  5
13366
  8
DANMEN
  6
CONTINUOUS
 10
71.000002
 20
161.5
 30
0.0
 11
71.000002
 21
159.0
 31
0.0
  0
ARC
  5
13367
  8
DANMEN
  6
CONTINUOUS
 10
71.500002
 20
161.5
 30
0.0
 40
0.5
 50
90.000018
 51
180.0
  0
LINE
  5
13368
  8
DANMEN
  6
CONTINUOUS
 10
71.149871
 20
159.0
 30
0.0
 11
71.000002
 21
159.0
 31
0.0
  0
LINE
  5
13369
  8
DANMEN
  6
CONTINUOUS
 10
71.800002
 20
160.9
 30
0.0
 11
71.647124
 21
159.447658
 31
0.0
  0
ARC
  5
1336A
  8
DANMEN
  6
CONTINUOUS
 10
71.149871
 20
159.5
 30
0.0
 40
0.5
 50
270.0
 51
353.990994
  0
LINE
  5
1336B
  8
DANMEN
  6
CONTINUOUS
 10
72.700002
 20
160.9
 30
0.0
 11
71.800002
 21
160.9
 31
0.0
  0
LINE
  5
1336C
  8
DANMEN
  6
CONTINUOUS
 10
73.300002
 20
162.0
 30
0.0
 11
71.500002
 21
162.0
 31
0.0
  0
ARC
  5
1336D
  8
DANMEN
  6
CONTINUOUS
 10
56.850129
 20
159.5
 30
0.0
 40
0.5
 50
186.009006
 51
270.0
  0
LINE
  5
1336E
  8
DANMEN
  6
CONTINUOUS
 10
56.199998
 20
160.9
 30
0.0
 11
56.352876
 21
159.447658
 31
0.0
  0
LINE
  5
1336F
  8
DANMEN
  6
CONTINUOUS
 10
55.299998
 20
160.9
 30
0.0
 11
56.199998
 21
160.9
 31
0.0
  0
ARC
  5
13370
  8
DANMEN
  6
CONTINUOUS
 10
72.350001
 20
75.500005
 30
0.0
 40
0.5
 50
0.0
 51
90.0
  0
LINE
  5
13371
  8
DANMEN
  6
CONTINUOUS
 10
74.899998
 20
75.100006
 30
0.0
 11
72.850001
 21
75.100005
 31
0.0
  0
LINE
  5
13372
  8
DANMEN
  6
CONTINUOUS
 10
72.850001
 20
75.500005
 30
0.0
 11
72.850001
 21
75.100005
 31
0.0
  0
ARC
  5
13373
  8
DANMEN
  6
CONTINUOUS
 10
71.700001
 20
109.011314
 30
0.0
 40
1.0
 50
0.0
 51
81.373084
  0
LINE
  5
13374
  8
DANMEN
  6
CONTINUOUS
 10
71.850001
 20
111.0
 30
0.0
 11
71.850001
 21
110.0
 31
0.0
  0
ARC
  5
13375
  8
DANMEN
  6
CONTINUOUS
 10
60.799998
 20
145.0
 30
0.0
 40
1.0
 50
270.0
 51
0.0
  0
LINE
  5
13376
  8
DANMEN
  6
CONTINUOUS
 10
61.799998
 20
149.9
 30
0.0
 11
61.799998
 21
145.0
 31
0.0
  0
LINE
  5
13377
  8
DANMEN
  6
CONTINUOUS
 10
61.799998
 20
149.9
 30
0.0
 11
72.700001
 21
149.9
 31
0.0
  0
ARC
  5
13378
  8
DANMEN
  6
CONTINUOUS
 10
68.199998
 20
115.9
 30
0.0
 40
1.0
 50
90.0
 51
180.0
  0
LINE
  5
13379
  8
DANMEN
  6
CONTINUOUS
 10
68.199998
 20
116.9
 30
0.0
 11
72.700001
 21
116.9
 31
0.0
  0
LINE
  5
1337A
  8
DANMEN
  6
CONTINUOUS
 10
55.299998
 20
59.8
 30
0.0
 11
56.149998
 21
59.8
 31
0.0
  0
LINE
  5
1337B
  8
DANMEN
  6
CONTINUOUS
 10
56.149998
 20
59.8
 30
0.0
 11
56.149998
 21
59.5
 31
0.0
  0
ARC
  5
1337C
  8
DANMEN
  6
CONTINUOUS
 10
75.499995
 20
74.500007
 30
0.0
 40
0.5
 50
270.0
 51
0.0
  0
LINE
  5
1337D
  8
DANMEN
  6
CONTINUOUS
 10
75.499995
 20
74.000007
 30
0.0
 11
73.799998
 21
74.000006
 31
0.0
  0
LINE
  5
1337E
  8
DANMEN
  6
CONTINUOUS
 10
63.199998
 20
116.3
 30
0.0
 11
64.699998
 21
116.3
 31
0.0
  0
LINE
  5
1337F
  8
DANMEN
  6
CONTINUOUS
 10
62.199998
 20
113.8
 30
0.0
 11
62.199998
 21
115.3
 31
0.0
  0
LINE
  5
13380
  8
DANMEN
  6
CONTINUOUS
 10
65.699998
 20
114.666295
 30
0.0
 11
65.699998
 21
115.3
 31
0.0
  0
LINE
  5
13381
  8
DANMEN
  6
CONTINUOUS
 10
63.199998
 20
112.8
 30
0.0
 11
63.833703
 21
112.8
 31
0.0
  0
LINE
  5
13382
  8
DANMEN
  6
CONTINUOUS
 10
62.199999
 20
111.3
 30
0.0
 11
63.833703
 21
111.3
 31
0.0
  0
LINE
  5
13383
  8
DANMEN
  6
CONTINUOUS
 10
67.199998
 20
114.666295
 30
0.0
 11
67.199998
 21
115.9
 31
0.0
  0
ARC
  5
13384
  8
DANMEN
  6
CONTINUOUS
 10
63.199998
 20
115.3
 30
0.0
 40
1.0
 50
90.0
 51
180.0
  0
ARC
  5
13385
  8
DANMEN
  6
CONTINUOUS
 10
64.699998
 20
115.3
 30
0.0
 40
1.0
 50
0.0
 51
90.0
  0
ARC
  5
13386
  8
DANMEN
  6
CONTINUOUS
 10
63.199998
 20
113.8
 30
0.0
 40
1.0
 50
180.0
 51
270.0
  0
ARC
  5
13387
  8
DANMEN
  6
CONTINUOUS
 10
66.449998
 20
114.666295
 30
0.0
 40
0.75
 50
180.0
 51
0.0
  0
ARC
  5
13388
  8
DANMEN
  6
CONTINUOUS
 10
63.833703
 20
112.05
 30
0.0
 40
0.75
 50
270.0
 51
90.0
  0
LINE
  5
13389
  8
DANMEN
  6
CONTINUOUS
 10
72.350001
 20
76.000005
 30
0.0
 11
71.850001
 21
76.000005
 31
0.0
  0
LINE
  5
1338A
  8
DANMEN
  6
CONTINUOUS
 10
71.850001
 20
76.000005
 30
0.0
 11
71.850001
 21
75.000005
 31
0.0
  0
ARC
  5
1338B
  8
DANMEN
  6
CONTINUOUS
 10
69.799998
 20
111.699997
 30
0.0
 40
0.5
 50
89.999982
 51
180.000019
  0
LINE
  5
1338C
  8
DANMEN
  6
CONTINUOUS
 10
69.299998
 20
111.699997
 30
0.0
 11
69.299998
 21
111.0
 31
0.0
  0
ARC
  5
1338D
  8
DANMEN
  6
CONTINUOUS
 10
63.199998
 20
115.5
 30
0.0
 40
2.5
 50
89.999982
 51
180.000019
  0
ARC
  5
1338E
  8
DANMEN
  6
CONTINUOUS
 10
75.499995
 20
87.5
 30
0.0
 40
0.5
 50
0.0
 51
89.999982
  0
ARC
  5
1338F
  8
DANMEN
  6
CONTINUOUS
 10
61.699998
 20
150.0
 30
0.0
 40
1.0
 50
89.999982
 51
180.000019
  0
LINE
  5
13390
  8
DANMEN
  6
CONTINUOUS
 10
56.149998
 20
144.0
 30
0.0
 11
60.799998
 21
144.0
 31
0.0
  0
LINE
  5
13391
  8
DANMEN
  6
CONTINUOUS
 10
60.699998
 20
150.0
 30
0.0
 11
60.699998
 21
145.099997
 31
0.0
  0
LINE
  5
13392
  8
DANMEN
  6
CONTINUOUS
 10
56.149998
 20
145.099997
 30
0.0
 11
60.699998
 21
145.099997
 31
0.0
  0
LINE
  5
13393
  8
DANMEN
  6
CONTINUOUS
 10
62.199999
 20
111.300003
 30
0.0
 11
62.199999
 21
111.0
 31
0.0
  0
LINE
  5
13394
  8
DANMEN
  6
CONTINUOUS
 10
56.149998
 20
112.099997
 30
0.0
 11
60.699998
 21
112.099997
 31
0.0
  0
LINE
  5
13395
  8
DANMEN
  6
CONTINUOUS
 10
56.149998
 20
111.0
 30
0.0
 11
62.199999
 21
111.0
 31
0.0
  0
LINE
  5
13396
  8
DANMEN
  6
CONTINUOUS
 10
74.899998
 20
86.900003
 30
0.0
 11
74.899998
 21
75.100006
 31
0.0
  0
LINE
  5
13397
  8
DANMEN
  6
CONTINUOUS
 10
72.349998
 20
86.900003
 30
0.0
 11
74.899998
 21
86.900003
 31
0.0
  0
LINE
  5
13398
  8
DANMEN
  6
CONTINUOUS
 10
73.799998
 20
88.0
 30
0.0
 11
75.499995
 21
88.0
 31
0.0
  0
LINE
  5
13399
  8
DANMEN
  6
CONTINUOUS
 10
75.999995
 20
87.5
 30
0.0
 11
75.999995
 21
74.500007
 31
0.0
  0
LINE
  5
1339A
  8
DANMEN
  6
CONTINUOUS
 10
55.299998
 20
68.999985
 30
0.0
 11
55.299998
 21
59.8
 31
0.0
  0
LINE
  5
1339B
  8
DANMEN
  6
CONTINUOUS
 10
72.700001
 20
109.011314
 30
0.0
 11
72.700001
 21
88.88869
 31
0.0
  0
LINE
  5
1339C
  8
DANMEN
  6
CONTINUOUS
 10
69.799998
 20
112.199997
 30
0.0
 11
72.700001
 21
112.199997
 31
0.0
  0
LINE
  5
1339D
  8
DANMEN
  6
CONTINUOUS
 10
69.299998
 20
111.0
 30
0.0
 11
71.850001
 21
111.0
 31
0.0
  0
LINE
  5
1339E
  8
DANMEN
  6
CONTINUOUS
 10
60.699998
 20
115.5
 30
0.0
 11
60.699998
 21
112.099997
 31
0.0
  0
LINE
  5
1339F
  8
DANMEN
  6
CONTINUOUS
 10
72.700001
 20
116.9
 30
0.0
 11
72.700001
 21
112.199997
 31
0.0
  0
LINE
  5
133A0
  8
DANMEN
  6
CONTINUOUS
 10
55.299998
 20
107.000003
 30
0.0
 11
55.299998
 21
80.000008
 31
0.0
  0
LINE
  5
133A1
  8
DANMEN
  6
CONTINUOUS
 10
63.199998
 20
118.0
 30
0.0
 11
72.700001
 21
118.0
 31
0.0
  0
LINE
  5
133A2
  8
DANMEN
  6
CONTINUOUS
 10
55.299998
 20
140.000003
 30
0.0
 11
55.299998
 21
116.099995
 31
0.0
  0
LINE
  5
133A3
  8
DANMEN
  6
CONTINUOUS
 10
72.700001
 20
149.9
 30
0.0
 11
72.700001
 21
118.0
 31
0.0
  0
LINE
  5
133A4
  8
DANMEN
  6
CONTINUOUS
 10
73.799998
 20
161.5
 30
0.0
 11
73.799998
 21
88.0
 31
0.0
  0
LINE
  5
133A5
  8
DANMEN
  6
CONTINUOUS
 10
54.199998
 20
161.5
 30
0.0
 11
54.199998
 21
59.5
 31
0.0
  0
LINE
  5
133A6
  8
DANMEN
  6
CONTINUOUS
 10
61.699998
 20
151.0
 30
0.0
 11
72.700001
 21
151.0
 31
0.0
  0
LINE
  5
133A7
  8
DANMEN
  6
CONTINUOUS
 10
56.850129
 20
159.0
 30
0.0
 11
56.999998
 21
159.0
 31
0.0
  0
LINE
  5
133A8
  8
DANMEN
  6
CONTINUOUS
 10
55.299998
 20
160.9
 30
0.0
 11
55.299998
 21
149.099995
 31
0.0
  0
LINE
  5
133A9
  8
DANMEN
  6
CONTINUOUS
 10
72.700001
 20
160.9
 30
0.0
 11
72.700001
 21
151.0
 31
0.0
  0
ARC
  5
133AA
  8
DANMEN
  6
CONTINUOUS
 10
56.499998
 20
161.5
 30
0.0
 40
0.5
 50
0.0
 51
89.999982
  0
LINE
  5
133AB
  8
DANMEN
  6
CONTINUOUS
 10
56.999998
 20
161.5
 30
0.0
 11
56.999998
 21
159.0
 31
0.0
  0
ARC
  5
133AC
  8
DANMEN
  6
CONTINUOUS
 10
73.299998
 20
161.5
 30
0.0
 40
0.5
 50
0.0
 51
89.999982
  0
ARC
  5
133AD
  8
DANMEN
  6
CONTINUOUS
 10
54.699998
 20
161.5
 30
0.0
 40
0.5
 50
89.999982
 51
180.000019
  0
LINE
  5
133AE
  8
DANMEN
  6
CONTINUOUS
 10
54.699998
 20
162.0
 30
0.0
 11
56.499998
 21
162.0
 31
0.0
  0
ENDSEC
  0
EOF
