  0
SECTION
  2
HEADER
  9
$ACADVER
  1
AC1009
  9
$INSBASE
 10
0.0
 20
0.0
 30
0.0
  9
$EXTMIN
 10
5.0
 20
5.0
 30
0.0
  9
$EXTMAX
 10
415.0
 20
292.0
 30
0.0
  9
$LIMMIN
 10
-210.0
 20
-148.5
  9
$LIMMAX
 10
210.0
 20
148.5
  9
$ORTHOMODE
 70
     0
  9
$REGENMODE
 70
     1
  9
$FILLMODE
 70
     1
  9
$QTEXTMODE
 70
     0
  9
$MIRRTEXT
 70
     1
  9
$DRAGMODE
 70
     2
  9
$LTSCALE
 40
0.5
  9
$OSMODE
 70
   255
  9
$ATTMODE
 70
     1
  9
$TEXTSIZE
 40
2.5
  9
$TRACEWID
 40
0.05
  9
$TEXTSTYLE
  7
MX_NOTE_STANDARD
  9
$CLAYER
  8
0
  9
$CELTYPE
  6
CONTINUOUS
  9
$CECOLOR
 62
   256
  9
$DIMSCALE
 40
1.0
  9
$DIMASZ
 40
2.5
  9
$DIMEXO
 40
1.5
  9
$DIMDLI
 40
3.75
  9
$DIMRND
 40
0.0
  9
$DIMDLE
 40
0.0
  9
$DIMEXE
 40
0.0
  9
$DIMTP
 40
0.0
  9
$DIMTM
 40
0.0
  9
$DIMTXT
 40
2.5
  9
$DIMCEN
 40
2.5
  9
$DIMTSZ
 40
0.0
  9
$DIMTOL
 70
     0
  9
$DIMLIM
 70
     0
  9
$DIMTIH
 70
     0
  9
$DIMTOH
 70
     0
  9
$DIMSE1
 70
     0
  9
$DIMSE2
 70
     0
  9
$DIMTAD
 70
     1
  9
$DIMZIN
 70
     8
  9
$DIMBLK
  1

  9
$DIMASO
 70
     1
  9
$DIMSHO
 70
     1
  9
$DIMPOST
  1

  9
$DIMAPOST
  1

  9
$DIMALT
 70
     0
  9
$DIMALTD
 70
     4
  9
$DIMALTF
 40
0.0394
  9
$DIMLFAC
 40
1.0
  9
$DIMTOFL
 70
     1
  9
$DIMTVP
 40
0.0
  9
$DIMTIX
 70
     0
  9
$DIMSOXD
 70
     0
  9
$DIMSAH
 70
     0
  9
$DIMBLK1
  1

  9
$DIMBLK2
  1

  9
$DIMSTYLE
  2
MXDIMSTYLE
  9
$DIMCLRD
 70
     0
  9
$DIMCLRE
 70
     0
  9
$DIMCLRT
 70
     0
  9
$DIMTFAC
 40
1.0
  9
$DIMGAP
 40
1.0
  9
$LUNITS
 70
     2
  9
$LUPREC
 70
     4
  9
$SKETCHINC
 40
0.1
  9
$FILLETRAD
 40
0.0
  9
$AUNITS
 70
     0
  9
$AUPREC
 70
     0
  9
$MENU
  1
acad
  9
$ELEVATION
 40
0.0
  9
$PELEVATION
 40
0.0
  9
$THICKNESS
 40
0.0
  9
$LIMCHECK
 70
     0
  9
$BLIPMODE
 70
     0
  9
$CHAMFERA
 40
0.0
  9
$CHAMFERB
 40
0.0
  9
$SKPOLY
 70
     0
  9
$TDCREATE
 40
2452006.37162
  9
$TDUPDATE
 40
2452074.543586
  9
$TDINDWG
 40
0.130931
  9
$TDUSRTIMER
 40
0.130931
  9
$USRTIMER
 70
     1
  9
$ANGBASE
 50
0.0
  9
$ANGDIR
 70
     0
  9
$PDMODE
 70
     3
  9
$PDSIZE
 40
-100.0
  9
$PLINEWID
 40
0.0
  9
$COORDS
 70
     2
  9
$SPLFRAME
 70
     0
  9
$SPLINETYPE
 70
     6
  9
$SPLINESEGS
 70
     8
  9
$ATTDIA
 70
     0
  9
$ATTREQ
 70
     1
  9
$HANDLING
 70
     1
  9
$HANDSEED
  5
12370
  9
$SURFTAB1
 70
     6
  9
$SURFTAB2
 70
     6
  9
$SURFTYPE
 70
     6
  9
$SURFU
 70
     6
  9
$SURFV
 70
     6
  9
$UCSNAME
  2

  9
$UCSORG
 10
0.0
 20
0.0
 30
0.0
  9
$UCSXDIR
 10
1.0
 20
0.0
 30
0.0
  9
$UCSYDIR
 10
0.0
 20
1.0
 30
0.0
  9
$PUCSNAME
  2

  9
$PUCSORG
 10
0.0
 20
0.0
 30
0.0
  9
$PUCSXDIR
 10
1.0
 20
0.0
 30
0.0
  9
$PUCSYDIR
 10
0.0
 20
1.0
 30
0.0
  9
$USERI1
 70
     0
  9
$USERI2
 70
     0
  9
$USERI3
 70
     0
  9
$USERI4
 70
     0
  9
$USERI5
 70
     0
  9
$USERR1
 40
0.0
  9
$USERR2
 40
0.0
  9
$USERR3
 40
0.0
  9
$USERR4
 40
0.0
  9
$USERR5
 40
0.0
  9
$WORLDVIEW
 70
     1
  9
$SHADEDGE
 70
     3
  9
$SHADEDIF
 70
    70
  9
$TILEMODE
 70
     1
  9
$MAXACTVP
 70
    16
  9
$PLIMCHECK
 70
     0
  9
$PEXTMIN
 10
1.000000E+020
 20
1.000000E+020
 30
1.000000E+020
  9
$PEXTMAX
 10
-1.000000E+020
 20
-1.000000E+020
 30
-1.000000E+020
  9
$PLIMMIN
 10
0.0
 20
0.0
  9
$PLIMMAX
 10
12.0
 20
9.0
  9
$UNITMODE
 70
     0
  9
$VISRETAIN
 70
     0
  9
$PLINEGEN
 70
     1
  9
$PSLTSCALE
 70
     0
  0
ENDSEC
  0
SECTION
  2
TABLES
  0
TABLE
  2
VPORT
 70
     2
  0
VPORT
  2
*ACTIVE
 70
     0
 10
0.0
 20
0.0
 11
1.0
 21
1.0
 12
210.002939
 22
148.492688
 13
0.0
 23
0.0
 14
1.0
 24
1.0
 15
0.0
 25
0.0
 16
0.0
 26
0.0
 36
1.0
 17
0.0
 27
0.0
 37
0.0
 40
290.13352
 41
1.803957
 42
50.0
 43
0.0
 44
0.0
 50
0.0
 51
0.0
 71
     0
 72
   100
 73
     1
 74
     0
 75
     0
 76
     0
 77
     0
 78
     0
  0
ENDTAB
  0
TABLE
  2
LTYPE
 70
     2
  0
LTYPE
  2
CONTINUOUS
 70
     0
  3
Solid line
 72
    65
 73
     0
 40
0.0
  0
LTYPE
  2
DASHED
 70
     0
  3
Dashed __ __ __ __ __ __ __ __ __ __ __ __ __ _
 72
    65
 73
     2
 40
19.05
 49
12.7
 49
-6.35
  0
ENDTAB
  0
TABLE
  2
LAYER
 70
     4
  0
LAYER
  2
0
 70
     0
 62
     7
  6
CONTINUOUS
  0
LAYER
  2
SUNPO
 70
     0
 62
     1
  6
CONTINUOUS
  0
LAYER
  2
DANMEN
 70
     0
 62
     7
  6
CONTINUOUS
  0
LAYER
  2
WAKU
 70
     0
 62
     3
  6
CONTINUOUS
  0
ENDTAB
  0
TABLE
  2
STYLE
 70
     2
  0
STYLE
  2
MX_NOTE_STANDARD
 70
     0
 40
0.0
 41
1.0
 50
0.0
 71
     0
 42
2.5
  3
txt.shx
  4
extfont.shx
  0
STYLE
  2
STANDARD
 70
     0
 40
0.0
 41
1.0
 50
0.0
 71
     0
 42
0.2
  3
txt.shx
  4
bigfont.shx
  0
ENDTAB
  0
TABLE
  2
VIEW
 70
     0
  0
ENDTAB
  0
TABLE
  2
UCS
 70
     0
  0
ENDTAB
  0
TABLE
  2
APPID
 70
     1
  0
APPID
  2
ACAD
 70
     0
  0
ENDTAB
  0
TABLE
  2
DIMSTYLE
 70
     1
  0
DIMSTYLE
  2
MXDIMSTYLE
 70
     0
  3

  4

  5

  6

  7

 40
1.0
 41
2.5
 42
1.5
 43
3.75
 44
0.0
 45
0.0
 46
0.0
 47
0.0
 48
0.0
140
2.5
141
2.5
142
0.0
143
0.0394
144
1.0
145
0.0
146
1.0
147
1.0
 71
     0
 72
     0
 73
     0
 74
     0
 75
     0
 76
     0
 77
     1
 78
     8
170
     0
171
     4
172
     1
173
     0
174
     0
175
     0
176
     0
177
     0
178
     0
  0
ENDTAB
  0
ENDSEC
  0
SECTION
  2
BLOCKS
  0
BLOCK
  8
0
  2
$MODEL_SPACE
 70
     0
 10
0.0
 20
0.0
 30
0.0
  3
$MODEL_SPACE
  1

  0
ENDBLK
  5
122C4
  8
0
  0
BLOCK
 67
     1
  8
0
  2
$PAPER_SPACE
 70
     0
 10
0.0
 20
0.0
 30
0.0
  3
$PAPER_SPACE
  1

  0
ENDBLK
  5
122C2
 67
     1
  8
0
  0
BLOCK
  8
0
  2
*U5
 70
     1
 10
0.0
 20
0.0
 30
0.0
  3
*U5
  1

  0
SOLID
  5
122CC
  8
WAKU
  6
CONTINUOUS
 10
371.305142
 20
283.605291
 30
0.0
 11
370.499782
 21
283.530361
 31
0.0
 12
370.874987
 22
283.520449
 32
0.0
 13
370.874987
 23
283.520449
 33
0.0
  0
SOLID
  5
122CD
  8
WAKU
  6
CONTINUOUS
 10
370.193309
 20
283.634664
 30
0.0
 11
370.499782
 21
283.530361
 31
0.0
 12
371.305142
 22
283.605291
 32
0.0
 13
371.305142
 23
283.605291
 33
0.0
  0
SOLID
  5
122CE
  8
WAKU
  6
CONTINUOUS
 10
371.774448
 20
283.781773
 30
0.0
 11
370.193309
 21
283.634664
 31
0.0
 12
371.305142
 22
283.605291
 32
0.0
 13
371.305142
 23
283.605291
 33
0.0
  0
SOLID
  5
122CF
  8
WAKU
  6
CONTINUOUS
 10
369.966824
 20
283.829526
 30
0.0
 11
370.193309
 21
283.634664
 31
0.0
 12
371.774448
 22
283.781773
 32
0.0
 13
371.774448
 23
283.781773
 33
0.0
  0
SOLID
  5
122D0
  8
WAKU
  6
CONTINUOUS
 10
370.594177
 20
283.909498
 30
0.0
 11
369.966824
 21
283.829526
 31
0.0
 12
371.774448
 22
283.781773
 32
0.0
 13
371.774448
 23
283.781773
 33
0.0
  0
SOLID
  5
122D1
  8
WAKU
  6
CONTINUOUS
 10
370.901294
 20
283.914863
 30
0.0
 11
370.594177
 21
283.909498
 31
0.0
 12
371.774448
 22
283.781773
 32
0.0
 13
371.774448
 23
283.781773
 33
0.0
  0
SOLID
  5
122D2
  8
WAKU
  6
CONTINUOUS
 10
370.392927
 20
283.968568
 30
0.0
 11
369.966824
 21
283.829526
 31
0.0
 12
370.594177
 22
283.909498
 32
0.0
 13
370.594177
 23
283.909498
 33
0.0
  0
SOLID
  5
122D3
  8
WAKU
  6
CONTINUOUS
 10
371.296984
 20
284.010368
 30
0.0
 11
370.901294
 21
283.914863
 31
0.0
 12
371.774448
 22
283.781773
 32
0.0
 13
371.774448
 23
283.781773
 33
0.0
  0
SOLID
  5
122D4
  8
WAKU
  6
CONTINUOUS
 10
372.265666
 20
284.043411
 30
0.0
 11
371.296984
 21
284.010368
 31
0.0
 12
371.774448
 22
283.781773
 32
0.0
 13
371.774448
 23
283.781773
 33
0.0
  0
SOLID
  5
122D5
  8
WAKU
  6
CONTINUOUS
 10
370.275177
 20
284.066476
 30
0.0
 11
369.966824
 21
283.829526
 31
0.0
 12
370.392927
 22
283.968568
 32
0.0
 13
370.392927
 23
283.968568
 33
0.0
  0
SOLID
  5
122D6
  8
WAKU
  6
CONTINUOUS
 10
369.828646
 20
284.107791
 30
0.0
 11
369.966824
 21
283.829526
 31
0.0
 12
370.275177
 22
284.066476
 32
0.0
 13
370.275177
 23
284.066476
 33
0.0
  0
SOLID
  5
122D7
  8
WAKU
  6
CONTINUOUS
 10
370.709458
 20
284.142397
 30
0.0
 11
369.828646
 21
284.107791
 31
0.0
 12
370.275177
 22
284.066476
 32
0.0
 13
370.275177
 23
284.066476
 33
0.0
  0
SOLID
  5
122D8
  8
WAKU
  6
CONTINUOUS
 10
371.751882
 20
284.202798
 30
0.0
 11
371.296984
 21
284.010368
 31
0.0
 12
372.265666
 22
284.043411
 32
0.0
 13
372.265666
 23
284.043411
 33
0.0
  0
SOLID
  5
122D9
  8
WAKU
  6
CONTINUOUS
 10
369.550381
 20
284.245969
 30
0.0
 11
369.828646
 21
284.107791
 31
0.0
 12
370.709458
 22
284.142397
 32
0.0
 13
370.709458
 23
284.142397
 33
0.0
  0
SOLID
  5
122DA
  8
WAKU
  6
CONTINUOUS
 10
371.186428
 20
284.314625
 30
0.0
 11
369.550381
 21
284.245969
 31
0.0
 12
370.709458
 22
284.142397
 32
0.0
 13
370.709458
 23
284.142397
 33
0.0
  0
SOLID
  5
122DB
  8
WAKU
  6
CONTINUOUS
 10
372.760756
 20
284.380595
 30
0.0
 11
371.751882
 21
284.202798
 31
0.0
 12
372.265666
 22
284.043411
 32
0.0
 13
372.265666
 23
284.043411
 33
0.0
  0
SOLID
  5
122DC
  8
WAKU
  6
CONTINUOUS
 10
370.172911
 20
284.451856
 30
0.0
 11
369.550381
 21
284.245969
 31
0.0
 12
371.186428
 22
284.314625
 32
0.0
 13
371.186428
 23
284.314625
 33
0.0
  0
SOLID
  5
122DD
  8
WAKU
  6
CONTINUOUS
 10
369.355518
 20
284.472454
 30
0.0
 11
369.550381
 21
284.245969
 31
0.0
 12
370.172911
 22
284.451856
 32
0.0
 13
370.172911
 23
284.451856
 33
0.0
  0
SOLID
  5
122DE
  8
WAKU
  6
CONTINUOUS
 10
372.237497
 20
284.486117
 30
0.0
 11
371.751882
 21
284.202798
 31
0.0
 12
372.760756
 22
284.380595
 32
0.0
 13
372.760756
 23
284.380595
 33
0.0
  0
SOLID
  5
122DF
  8
WAKU
  6
CONTINUOUS
 10
370.681395
 20
284.539195
 30
0.0
 11
370.172911
 21
284.451856
 31
0.0
 12
371.186428
 22
284.314625
 32
0.0
 13
371.186428
 23
284.314625
 33
0.0
  0
SOLID
  5
122E0
  8
WAKU
  6
CONTINUOUS
 10
369.787305
 20
284.553935
 30
0.0
 11
369.355518
 21
284.472454
 31
0.0
 12
370.172911
 22
284.451856
 32
0.0
 13
370.172911
 23
284.451856
 33
0.0
  0
SOLID
  5
122E1
  8
WAKU
  6
CONTINUOUS
 10
371.68777
 20
284.576545
 30
0.0
 11
370.681395
 21
284.539195
 31
0.0
 12
371.186428
 22
284.314625
 32
0.0
 13
371.186428
 23
284.314625
 33
0.0
  0
SOLID
  5
122E2
  8
WAKU
  6
CONTINUOUS
 10
369.689155
 20
284.672435
 30
0.0
 11
369.355518
 21
284.472454
 31
0.0
 12
369.787305
 22
284.553935
 32
0.0
 13
369.787305
 23
284.553935
 33
0.0
  0
SOLID
  5
122E3
  8
WAKU
  6
CONTINUOUS
 10
369.251215
 20
284.778928
 30
0.0
 11
369.355518
 21
284.472454
 31
0.0
 12
369.689155
 22
284.672435
 32
0.0
 13
369.689155
 23
284.672435
 33
0.0
  0
SOLID
  5
122E4
  8
WAKU
  6
CONTINUOUS
 10
373.241532
 20
284.780941
 30
0.0
 11
372.237497
 21
284.486117
 31
0.0
 12
372.760756
 22
284.380595
 32
0.0
 13
372.760756
 23
284.380595
 33
0.0
  0
SOLID
  5
122E5
  8
WAKU
  6
CONTINUOUS
 10
371.312263
 20
284.810332
 30
0.0
 11
370.681395
 21
284.539195
 31
0.0
 12
371.68777
 22
284.576545
 32
0.0
 13
371.68777
 23
284.576545
 33
0.0
  0
SOLID
  5
122E6
  8
WAKU
  6
CONTINUOUS
 10
369.630358
 20
284.873087
 30
0.0
 11
369.251215
 21
284.778928
 31
0.0
 12
369.689155
 22
284.672435
 32
0.0
 13
369.689155
 23
284.672435
 33
0.0
  0
SOLID
  5
122E7
  8
WAKU
  6
CONTINUOUS
 10
372.194232
 20
284.918099
 30
0.0
 11
371.312263
 21
284.810332
 31
0.0
 12
371.68777
 22
284.576545
 32
0.0
 13
371.68777
 23
284.576545
 33
0.0
  0
SOLID
  5
122E8
  8
WAKU
  6
CONTINUOUS
 10
370.260168
 20
284.959969
 30
0.0
 11
369.787305
 21
284.553935
 31
0.0
 12
370.172911
 22
284.451856
 32
0.0
 13
370.172911
 23
284.451856
 33
0.0
  0
SOLID
  5
122E9
  8
WAKU
  6
CONTINUOUS
 10
369.863139
 20
284.988189
 30
0.0
 11
369.787305
 21
284.553935
 31
0.0
 12
370.260168
 22
284.959969
 32
0.0
 13
370.260168
 23
284.959969
 33
0.0
  0
SOLID
  5
122EA
  8
WAKU
  6
CONTINUOUS
 10
398.194006
 20
285.115385
 30
0.0
 11
397.606055
 21
283.5
 31
0.0
 12
401.913747
 22
283.5
 32
0.0
 13
401.913747
 23
283.5
 33
0.0
  0
SOLID
  5
122EB
  8
WAKU
  6
CONTINUOUS
 10
401.913747
 20
283.5
 30
0.0
 11
401.424776
 21
285.115385
 31
0.0
 12
398.194006
 22
285.115385
 32
0.0
 13
398.194006
 23
285.115385
 33
0.0
  0
SOLID
  5
122EC
  8
WAKU
  6
CONTINUOUS
 10
369.241303
 20
285.154132
 30
0.0
 11
369.251215
 21
284.778928
 31
0.0
 12
369.630358
 22
284.873087
 32
0.0
 13
369.630358
 23
284.873087
 33
0.0
  0
SOLID
  5
122ED
  8
WAKU
  6
CONTINUOUS
 10
369.635696
 20
285.180404
 30
0.0
 11
369.241303
 21
285.154132
 31
0.0
 12
369.630358
 22
284.873087
 32
0.0
 13
369.630358
 23
284.873087
 33
0.0
  0
SOLID
  5
122EE
  8
WAKU
  6
CONTINUOUS
 10
373.690335
 20
285.229744
 30
0.0
 11
372.237497
 21
284.486117
 31
0.0
 12
373.241532
 22
284.780941
 32
0.0
 13
373.241532
 23
284.780941
 33
0.0
  0
SOLID
  5
122EF
  8
WAKU
  6
CONTINUOUS
 10
371.98994
 20
285.251431
 30
0.0
 11
371.312263
 21
284.810332
 31
0.0
 12
372.194232
 22
284.918099
 32
0.0
 13
372.194232
 23
284.918099
 33
0.0
  0
SOLID
  5
122F0
  8
WAKU
  6
CONTINUOUS
 10
373.195965
 20
285.275232
 30
0.0
 11
372.237497
 21
284.486117
 31
0.0
 12
373.690335
 22
285.229744
 32
0.0
 13
373.690335
 23
285.229744
 33
0.0
  0
SOLID
  5
122F1
  8
WAKU
  6
CONTINUOUS
 10
372.686363
 20
285.326171
 30
0.0
 11
371.98994
 21
285.251431
 31
0.0
 12
372.194232
 22
284.918099
 32
0.0
 13
372.194232
 23
284.918099
 33
0.0
  0
SOLID
  5
122F2
  8
WAKU
  6
CONTINUOUS
 10
370.035293
 20
285.465154
 30
0.0
 11
369.863139
 21
284.988189
 31
0.0
 12
370.260168
 22
284.959969
 32
0.0
 13
370.260168
 23
284.959969
 33
0.0
  0
SOLID
  5
122F3
  8
WAKU
  6
CONTINUOUS
 10
369.73149
 20
285.576021
 30
0.0
 11
369.241303
 21
285.154132
 31
0.0
 12
369.635696
 22
285.180404
 32
0.0
 13
369.635696
 23
285.180404
 33
0.0
  0
SOLID
  5
122F4
  8
WAKU
  6
CONTINUOUS
 10
369.326146
 20
285.584287
 30
0.0
 11
369.241303
 21
285.154132
 31
0.0
 12
369.73149
 22
285.576021
 32
0.0
 13
369.73149
 23
285.576021
 33
0.0
  0
SOLID
  5
122F5
  8
WAKU
  6
CONTINUOUS
 10
370.530712
 20
285.590875
 30
0.0
 11
370.035293
 21
285.465154
 31
0.0
 12
370.260168
 22
284.959969
 32
0.0
 13
370.260168
 23
284.959969
 33
0.0
  0
SOLID
  5
122F6
  8
WAKU
  6
CONTINUOUS
 10
389.236144
 20
285.653846
 30
0.0
 11
383.067593
 21
283.5
 31
0.0
 12
388.452208
 22
283.5
 32
0.0
 13
388.452208
 23
283.5
 33
0.0
  0
SOLID
  5
122F7
  8
WAKU
  6
CONTINUOUS
 10
383.851529
 20
285.653846
 30
0.0
 11
383.067593
 21
283.5
 31
0.0
 12
389.236144
 22
285.653846
 32
0.0
 13
389.236144
 23
285.653846
 33
0.0
  0
SOLID
  5
122F8
  8
WAKU
  6
CONTINUOUS
 10
404.851529
 20
285.653846
 30
0.0
 11
404.067593
 21
283.5
 31
0.0
 12
409.452208
 22
283.5
 32
0.0
 13
409.452208
 23
283.5
 33
0.0
  0
SOLID
  5
122F9
  8
WAKU
  6
CONTINUOUS
 10
409.452208
 20
283.5
 30
0.0
 11
409.159221
 21
285.653846
 31
0.0
 12
404.851529
 22
285.653846
 32
0.0
 13
404.851529
 23
285.653846
 33
0.0
  0
SOLID
  5
122FA
  8
WAKU
  6
CONTINUOUS
 10
391.174606
 20
285.653846
 30
0.0
 11
390.39067
 21
283.5
 31
0.0
 12
395.452208
 22
283.5
 32
0.0
 13
395.452208
 23
283.5
 33
0.0
  0
SOLID
  5
122FB
  8
WAKU
  6
CONTINUOUS
 10
395.452208
 20
283.5
 30
0.0
 11
395.159221
 21
285.653846
 31
0.0
 12
391.174606
 22
285.653846
 32
0.0
 13
391.174606
 23
285.653846
 33
0.0
  0
SOLID
  5
122FC
  8
WAKU
  6
CONTINUOUS
 10
374.090681
 20
285.71052
 30
0.0
 11
373.195965
 21
285.275232
 31
0.0
 12
373.690335
 22
285.229744
 32
0.0
 13
373.690335
 23
285.229744
 33
0.0
  0
SOLID
  5
122FD
  8
WAKU
  6
CONTINUOUS
 10
373.145266
 20
285.785089
 30
0.0
 11
371.98994
 21
285.251431
 31
0.0
 12
372.686363
 22
285.326171
 32
0.0
 13
372.686363
 23
285.326171
 33
0.0
  0
SOLID
  5
122FE
  8
WAKU
  6
CONTINUOUS
 10
372.646296
 20
285.825506
 30
0.0
 11
371.98994
 21
285.251431
 31
0.0
 12
373.145266
 22
285.785089
 32
0.0
 13
373.145266
 23
285.785089
 33
0.0
  0
SOLID
  5
122FF
  8
WAKU
  6
CONTINUOUS
 10
370.297156
 20
285.966509
 30
0.0
 11
370.035293
 21
285.465154
 31
0.0
 12
370.530712
 22
285.590875
 32
0.0
 13
370.530712
 23
285.590875
 33
0.0
  0
SOLID
  5
12300
  8
WAKU
  6
CONTINUOUS
 10
369.923519
 20
286.031028
 30
0.0
 11
369.326146
 21
285.584287
 31
0.0
 12
369.73149
 22
285.576021
 32
0.0
 13
369.73149
 23
285.576021
 33
0.0
  0
SOLID
  5
12301
  8
WAKU
  6
CONTINUOUS
 10
369.502627
 20
286.053593
 30
0.0
 11
369.326146
 21
285.584287
 31
0.0
 12
369.923519
 22
286.031028
 32
0.0
 13
369.923519
 23
286.031028
 33
0.0
  0
SOLID
  5
12302
  8
WAKU
  6
CONTINUOUS
 10
379.397145
 20
286.138462
 30
0.0
 11
378.436824
 21
283.5
 31
0.0
 12
379.513747
 22
283.5
 32
0.0
 13
379.513747
 23
283.5
 33
0.0
  0
SOLID
  5
12303
  8
WAKU
  6
CONTINUOUS
 10
377.155205
 20
286.192308
 30
0.0
 11
376.175285
 21
283.5
 31
0.0
 12
379.397145
 22
286.138462
 32
0.0
 13
379.397145
 23
286.138462
 33
0.0
  0
SOLID
  5
12304
  8
WAKU
  6
CONTINUOUS
 10
380.493667
 20
286.192308
 30
0.0
 11
377.155205
 21
286.192308
 31
0.0
 12
379.397145
 22
286.138462
 32
0.0
 13
379.397145
 23
286.138462
 33
0.0
  0
SOLID
  5
12305
  8
WAKU
  6
CONTINUOUS
 10
380.493667
 20
286.192308
 30
0.0
 11
379.397145
 21
286.138462
 31
0.0
 12
379.513747
 22
283.5
 32
0.0
 13
379.513747
 23
283.5
 33
0.0
  0
SOLID
  5
12306
  8
WAKU
  6
CONTINUOUS
 10
380.493667
 20
286.192308
 30
0.0
 11
381.775285
 21
283.5
 31
0.0
 12
382.755205
 22
286.192308
 32
0.0
 13
382.755205
 23
286.192308
 33
0.0
  0
SOLID
  5
12307
  8
WAKU
  6
CONTINUOUS
 10
374.427865
 20
286.205609
 30
0.0
 11
373.195965
 21
285.275232
 31
0.0
 12
374.090681
 22
285.71052
 32
0.0
 13
374.090681
 23
285.71052
 33
0.0
  0
SOLID
  5
12308
  8
WAKU
  6
CONTINUOUS
 10
373.98505
 20
286.233718
 30
0.0
 11
373.195965
 21
285.275232
 31
0.0
 12
374.427865
 22
286.205609
 32
0.0
 13
374.427865
 23
286.205609
 33
0.0
  0
SOLID
  5
12309
  8
WAKU
  6
CONTINUOUS
 10
370.971896
 20
286.268471
 30
0.0
 11
370.297156
 21
285.966509
 31
0.0
 12
370.530712
 22
285.590875
 32
0.0
 13
370.530712
 23
285.590875
 33
0.0
  0
SOLID
  5
1230A
  8
WAKU
  6
CONTINUOUS
 10
373.553316
 20
286.277229
 30
0.0
 11
372.646296
 21
285.825506
 31
0.0
 12
373.145266
 22
285.785089
 32
0.0
 13
373.145266
 23
285.785089
 33
0.0
  0
SOLID
  5
1230B
  8
WAKU
  6
CONTINUOUS
 10
370.638671
 20
286.473
 30
0.0
 11
370.297156
 21
285.966509
 31
0.0
 12
370.971896
 22
286.268471
 32
0.0
 13
370.971896
 23
286.268471
 33
0.0
  0
SOLID
  5
1230C
  8
WAKU
  6
CONTINUOUS
 10
373.220238
 20
286.48192
 30
0.0
 11
372.646296
 21
285.825506
 31
0.0
 12
373.553316
 22
286.277229
 32
0.0
 13
373.553316
 23
286.277229
 33
0.0
  0
SOLID
  5
1230D
  8
WAKU
  6
CONTINUOUS
 10
370.207035
 20
286.51657
 30
0.0
 11
369.502627
 21
286.053593
 31
0.0
 12
369.923519
 22
286.031028
 32
0.0
 13
369.923519
 23
286.031028
 33
0.0
  0
SOLID
  5
1230E
  8
WAKU
  6
CONTINUOUS
 10
369.764265
 20
286.544812
 30
0.0
 11
369.502627
 21
286.053593
 31
0.0
 12
370.207035
 22
286.51657
 32
0.0
 13
370.207035
 23
286.51657
 33
0.0
  0
SOLID
  5
1230F
  8
WAKU
  6
CONTINUOUS
 10
374.689503
 20
286.696828
 30
0.0
 11
373.98505
 21
286.233718
 31
0.0
 12
374.427865
 22
286.205609
 32
0.0
 13
374.427865
 23
286.205609
 33
0.0
  0
SOLID
  5
12310
  8
WAKU
  6
CONTINUOUS
 10
374.268507
 20
286.719278
 30
0.0
 11
373.98505
 21
286.233718
 31
0.0
 12
374.689503
 22
286.696828
 32
0.0
 13
374.689503
 23
286.696828
 33
0.0
  0
SOLID
  5
12311
  8
WAKU
  6
CONTINUOUS
 10
373.894843
 20
286.783693
 30
0.0
 11
373.220238
 21
286.48192
 31
0.0
 12
373.553316
 22
286.277229
 32
0.0
 13
373.553316
 23
286.277229
 33
0.0
  0
SOLID
  5
12312
  8
WAKU
  6
CONTINUOUS
 10
371.545827
 20
286.924893
 30
0.0
 11
370.638671
 21
286.473
 31
0.0
 12
370.971896
 22
286.268471
 32
0.0
 13
370.971896
 23
286.268471
 33
0.0
  0
SOLID
  5
12313
  8
WAKU
  6
CONTINUOUS
 10
371.04672
 20
286.965174
 30
0.0
 11
370.638671
 21
286.473
 31
0.0
 12
371.545827
 22
286.924893
 32
0.0
 13
371.545827
 23
286.924893
 33
0.0
  0
SOLID
  5
12314
  8
WAKU
  6
CONTINUOUS
 10
370.101449
 20
287.039901
 30
0.0
 11
369.764265
 21
286.544812
 31
0.0
 12
370.207035
 22
286.51657
 32
0.0
 13
370.207035
 23
286.51657
 33
0.0
  0
SOLID
  5
12315
  8
WAKU
  6
CONTINUOUS
 10
373.661353
 20
287.159534
 30
0.0
 11
373.220238
 21
286.48192
 31
0.0
 12
373.894843
 22
286.783693
 32
0.0
 13
373.894843
 23
286.783693
 33
0.0
  0
SOLID
  5
12316
  8
WAKU
  6
CONTINUOUS
 10
374.865984
 20
287.166134
 30
0.0
 11
374.268507
 21
286.719278
 31
0.0
 12
374.689503
 22
286.696828
 32
0.0
 13
374.689503
 23
286.696828
 33
0.0
  0
SOLID
  5
12317
  8
WAKU
  6
CONTINUOUS
 10
374.46071
 20
287.174248
 30
0.0
 11
374.268507
 21
286.719278
 31
0.0
 12
374.865984
 22
287.166134
 32
0.0
 13
374.865984
 23
287.166134
 33
0.0
  0
SOLID
  5
12318
  8
WAKU
  6
CONTINUOUS
 10
374.156732
 20
287.28503
 30
0.0
 11
373.661353
 21
287.159534
 31
0.0
 12
373.894843
 22
286.783693
 32
0.0
 13
373.894843
 23
286.783693
 33
0.0
  0
SOLID
  5
12319
  8
WAKU
  6
CONTINUOUS
 10
371.505632
 20
287.424128
 30
0.0
 11
371.04672
 21
286.965174
 31
0.0
 12
371.545827
 22
286.924893
 32
0.0
 13
371.545827
 23
286.924893
 33
0.0
  0
SOLID
  5
1231A
  8
WAKU
  6
CONTINUOUS
 10
370.996098
 20
287.475108
 30
0.0
 11
370.101449
 21
287.039901
 31
0.0
 12
370.207035
 22
286.51657
 32
0.0
 13
370.207035
 23
286.51657
 33
0.0
  0
SOLID
  5
1231B
  8
WAKU
  6
CONTINUOUS
 10
372.202181
 20
287.498991
 30
0.0
 11
371.505632
 21
287.424128
 31
0.0
 12
371.545827
 22
286.924893
 32
0.0
 13
371.545827
 23
286.924893
 33
0.0
  0
SOLID
  5
1231C
  8
WAKU
  6
CONTINUOUS
 10
370.501795
 20
287.520677
 30
0.0
 11
370.101449
 21
287.039901
 31
0.0
 12
370.996098
 22
287.475108
 32
0.0
 13
370.996098
 23
287.475108
 33
0.0
  0
SOLID
  5
1231D
  8
WAKU
  6
CONTINUOUS
 10
374.556361
 20
287.569864
 30
0.0
 11
374.46071
 21
287.174248
 31
0.0
 12
374.865984
 22
287.166134
 32
0.0
 13
374.865984
 23
287.166134
 33
0.0
  0
SOLID
  5
1231E
  8
WAKU
  6
CONTINUOUS
 10
395.864763
 20
287.592308
 30
0.0
 11
395.159221
 21
285.653846
 31
0.0
 12
395.452208
 22
283.5
 32
0.0
 13
395.452208
 23
283.5
 33
0.0
  0
SOLID
  5
1231F
  8
WAKU
  6
CONTINUOUS
 10
393.172456
 20
287.592308
 30
0.0
 11
391.703565
 21
286.515385
 31
0.0
 12
392.780488
 22
286.515385
 32
0.0
 13
392.780488
 23
286.515385
 33
0.0
  0
SOLID
  5
12320
  8
WAKU
  6
CONTINUOUS
 10
392.095533
 20
287.592308
 30
0.0
 11
391.703565
 21
286.515385
 31
0.0
 12
393.172456
 22
287.592308
 32
0.0
 13
393.172456
 23
287.592308
 33
0.0
  0
SOLID
  5
12321
  8
WAKU
  6
CONTINUOUS
 10
391.28784
 20
287.592308
 30
0.0
 11
392.095533
 21
287.592308
 31
0.0
 12
393.172456
 22
287.592308
 32
0.0
 13
393.172456
 23
287.592308
 33
0.0
  0
SOLID
  5
12322
  8
WAKU
  6
CONTINUOUS
 10
391.28784
 20
287.592308
 30
0.0
 11
393.172456
 21
287.592308
 31
0.0
 12
395.864763
 22
287.592308
 32
0.0
 13
395.864763
 23
287.592308
 33
0.0
  0
SOLID
  5
12323
  8
WAKU
  6
CONTINUOUS
 10
396.941687
 20
287.592308
 30
0.0
 11
391.28784
 21
287.592308
 31
0.0
 12
395.864763
 22
287.592308
 32
0.0
 13
395.864763
 23
287.592308
 33
0.0
  0
SOLID
  5
12324
  8
WAKU
  6
CONTINUOUS
 10
396.941687
 20
287.592308
 30
0.0
 11
395.864763
 21
287.592308
 31
0.0
 12
395.452208
 22
283.5
 32
0.0
 13
395.452208
 23
283.5
 33
0.0
  0
SOLID
  5
12325
  8
WAKU
  6
CONTINUOUS
 10
374.950827
 20
287.596289
 30
0.0
 11
374.556361
 21
287.569864
 31
0.0
 12
374.865984
 22
287.166134
 32
0.0
 13
374.865984
 23
287.166134
 33
0.0
  0
SOLID
  5
12326
  8
WAKU
  6
CONTINUOUS
 10
374.328925
 20
287.761987
 30
0.0
 11
373.661353
 21
287.159534
 31
0.0
 12
374.156732
 22
287.28503
 32
0.0
 13
374.156732
 23
287.28503
 33
0.0
  0
SOLID
  5
12327
  8
WAKU
  6
CONTINUOUS
 10
373.932071
 20
287.790402
 30
0.0
 11
373.661353
 21
287.159534
 31
0.0
 12
374.328925
 22
287.761987
 32
0.0
 13
374.328925
 23
287.761987
 33
0.0
  0
SOLID
  5
12328
  8
WAKU
  6
CONTINUOUS
 10
371.997783
 20
287.832235
 30
0.0
 11
371.505632
 21
287.424128
 31
0.0
 12
372.202181
 22
287.498991
 32
0.0
 13
372.202181
 23
287.498991
 33
0.0
  0
SOLID
  5
12329
  8
WAKU
  6
CONTINUOUS
 10
374.561802
 20
287.877253
 30
0.0
 11
374.556361
 21
287.569864
 31
0.0
 12
374.950827
 22
287.596289
 32
0.0
 13
374.950827
 23
287.596289
 33
0.0
  0
SOLID
  5
1232A
  8
WAKU
  6
CONTINUOUS
 10
372.879878
 20
287.940057
 30
0.0
 11
371.997783
 21
287.832235
 31
0.0
 12
372.202181
 22
287.498991
 32
0.0
 13
372.202181
 23
287.498991
 33
0.0
  0
SOLID
  5
1232B
  8
WAKU
  6
CONTINUOUS
 10
370.950599
 20
287.96948
 30
0.0
 11
370.501795
 21
287.520677
 31
0.0
 12
370.996098
 22
287.475108
 32
0.0
 13
370.996098
 23
287.475108
 33
0.0
  0
SOLID
  5
1232C
  8
WAKU
  6
CONTINUOUS
 10
374.940915
 20
287.971493
 30
0.0
 11
374.561802
 21
287.877253
 31
0.0
 12
374.950827
 22
287.596289
 32
0.0
 13
374.950827
 23
287.596289
 33
0.0
  0
SOLID
  5
1232D
  8
WAKU
  6
CONTINUOUS
 10
374.502951
 20
288.077918
 30
0.0
 11
374.561802
 21
287.877253
 31
0.0
 12
374.940915
 22
287.971493
 32
0.0
 13
374.940915
 23
287.971493
 33
0.0
  0
SOLID
  5
1232E
  8
WAKU
  6
CONTINUOUS
 10
405.753055
 20
288.130769
 30
0.0
 11
405.282694
 21
286.838462
 31
0.0
 12
408.513463
 22
286.838462
 32
0.0
 13
408.513463
 23
286.838462
 33
0.0
  0
SOLID
  5
1232F
  8
WAKU
  6
CONTINUOUS
 10
408.983824
 20
288.130769
 30
0.0
 11
405.753055
 21
288.130769
 31
0.0
 12
408.513463
 22
286.838462
 32
0.0
 13
408.513463
 23
286.838462
 33
0.0
  0
SOLID
  5
12330
  8
WAKU
  6
CONTINUOUS
 10
372.504269
 20
288.173821
 30
0.0
 11
371.997783
 21
287.832235
 31
0.0
 12
372.879878
 22
287.940057
 32
0.0
 13
372.879878
 23
287.940057
 33
0.0
  0
SOLID
  5
12331
  8
WAKU
  6
CONTINUOUS
 10
374.40481
 20
288.196249
 30
0.0
 11
373.932071
 21
287.790402
 31
0.0
 12
374.328925
 22
287.761987
 32
0.0
 13
374.328925
 23
287.761987
 33
0.0
  0
SOLID
  5
12332
  8
WAKU
  6
CONTINUOUS
 10
374.40481
 20
288.196249
 30
0.0
 11
374.502951
 21
288.077918
 31
0.0
 12
374.940915
 22
287.971493
 32
0.0
 13
374.940915
 23
287.971493
 33
0.0
  0
SOLID
  5
12333
  8
WAKU
  6
CONTINUOUS
 10
373.510738
 20
288.21124
 30
0.0
 11
372.504269
 21
288.173821
 31
0.0
 12
372.879878
 22
287.940057
 32
0.0
 13
372.879878
 23
287.940057
 33
0.0
  0
SOLID
  5
12334
  8
WAKU
  6
CONTINUOUS
 10
371.954587
 20
288.264284
 30
0.0
 11
370.950599
 21
287.96948
 31
0.0
 12
370.996098
 22
287.475108
 32
0.0
 13
370.996098
 23
287.475108
 33
0.0
  0
SOLID
  5
12335
  8
WAKU
  6
CONTINUOUS
 10
374.836612
 20
288.277967
 30
0.0
 11
374.40481
 21
288.196249
 31
0.0
 12
374.940915
 22
287.971493
 32
0.0
 13
374.940915
 23
287.971493
 33
0.0
  0
SOLID
  5
12336
  8
WAKU
  6
CONTINUOUS
 10
374.019229
 20
288.298569
 30
0.0
 11
372.504269
 21
288.173821
 31
0.0
 12
373.510738
 22
288.21124
 32
0.0
 13
373.510738
 23
288.21124
 33
0.0
  0
SOLID
  5
12337
  8
WAKU
  6
CONTINUOUS
 10
374.019229
 20
288.298569
 30
0.0
 11
374.40481
 21
288.196249
 31
0.0
 12
374.836612
 22
288.277967
 32
0.0
 13
374.836612
 23
288.277967
 33
0.0
  0
SOLID
  5
12338
  8
WAKU
  6
CONTINUOUS
 10
374.019229
 20
288.298569
 30
0.0
 11
373.932071
 21
287.790402
 31
0.0
 12
374.40481
 22
288.196249
 32
0.0
 13
374.40481
 23
288.196249
 33
0.0
  0
SOLID
  5
12339
  8
WAKU
  6
CONTINUOUS
 10
371.431374
 20
288.369826
 30
0.0
 11
370.950599
 21
287.96948
 31
0.0
 12
371.954587
 22
288.264284
 32
0.0
 13
371.954587
 23
288.264284
 33
0.0
  0
SOLID
  5
1233A
  8
WAKU
  6
CONTINUOUS
 10
373.005639
 20
288.435768
 30
0.0
 11
372.504269
 21
288.173821
 31
0.0
 12
374.019229
 22
288.298569
 32
0.0
 13
374.019229
 23
288.298569
 33
0.0
  0
SOLID
  5
1233B
  8
WAKU
  6
CONTINUOUS
 10
374.641749
 20
288.504452
 30
0.0
 11
373.005639
 21
288.435768
 31
0.0
 12
374.019229
 22
288.298569
 32
0.0
 13
374.019229
 23
288.298569
 33
0.0
  0
SOLID
  5
1233C
  8
WAKU
  6
CONTINUOUS
 10
374.641749
 20
288.504452
 30
0.0
 11
374.019229
 21
288.298569
 31
0.0
 12
374.836612
 22
288.277967
 32
0.0
 13
374.836612
 23
288.277967
 33
0.0
  0
SOLID
  5
1233D
  8
WAKU
  6
CONTINUOUS
 10
372.440235
 20
288.547585
 30
0.0
 11
371.431374
 21
288.369826
 31
0.0
 12
371.954587
 22
288.264284
 32
0.0
 13
371.954587
 23
288.264284
 33
0.0
  0
SOLID
  5
1233E
  8
WAKU
  6
CONTINUOUS
 10
373.482636
 20
288.608014
 30
0.0
 11
373.005639
 21
288.435768
 31
0.0
 12
374.641749
 22
288.504452
 32
0.0
 13
374.641749
 23
288.504452
 33
0.0
  0
SOLID
  5
1233F
  8
WAKU
  6
CONTINUOUS
 10
374.363484
 20
288.64263
 30
0.0
 11
373.482636
 21
288.608014
 31
0.0
 12
374.641749
 22
288.504452
 32
0.0
 13
374.641749
 23
288.504452
 33
0.0
  0
SOLID
  5
12340
  8
WAKU
  6
CONTINUOUS
 10
373.916941
 20
288.683944
 30
0.0
 11
373.482636
 21
288.608014
 31
0.0
 12
374.363484
 22
288.64263
 32
0.0
 13
374.363484
 23
288.64263
 33
0.0
  0
SOLID
  5
12341
  8
WAKU
  6
CONTINUOUS
 10
371.926464
 20
288.70701
 30
0.0
 11
371.431374
 21
288.369826
 31
0.0
 12
372.440235
 22
288.547585
 32
0.0
 13
372.440235
 23
288.547585
 33
0.0
  0
SOLID
  5
12342
  8
WAKU
  6
CONTINUOUS
 10
372.89514
 20
288.740065
 30
0.0
 11
371.926464
 21
288.70701
 31
0.0
 12
372.440235
 22
288.547585
 32
0.0
 13
372.440235
 23
288.547585
 33
0.0
  0
SOLID
  5
12343
  8
WAKU
  6
CONTINUOUS
 10
380.311313
 20
288.776923
 30
0.0
 11
377.155205
 21
286.192308
 31
0.0
 12
380.493667
 22
286.192308
 32
0.0
 13
380.493667
 23
286.192308
 33
0.0
  0
SOLID
  5
12344
  8
WAKU
  6
CONTINUOUS
 10
381.524851
 20
288.776923
 30
0.0
 11
378.095928
 21
288.776923
 31
0.0
 12
380.311313
 22
288.776923
 32
0.0
 13
380.311313
 23
288.776923
 33
0.0
  0
SOLID
  5
12345
  8
WAKU
  6
CONTINUOUS
 10
381.524851
 20
288.776923
 30
0.0
 11
380.311313
 21
288.776923
 31
0.0
 12
380.493667
 22
286.192308
 32
0.0
 13
380.493667
 23
286.192308
 33
0.0
  0
SOLID
  5
12346
  8
WAKU
  6
CONTINUOUS
 10
381.524851
 20
288.776923
 30
0.0
 11
380.493667
 21
286.192308
 31
0.0
 12
382.755205
 22
286.192308
 32
0.0
 13
382.755205
 23
286.192308
 33
0.0
  0
SOLID
  5
12347
  8
WAKU
  6
CONTINUOUS
 10
373.799148
 20
288.781929
 30
0.0
 11
373.916941
 21
288.683944
 31
0.0
 12
374.363484
 22
288.64263
 32
0.0
 13
374.363484
 23
288.64263
 33
0.0
  0
SOLID
  5
12348
  8
WAKU
  6
CONTINUOUS
 10
373.290857
 20
288.835581
 30
0.0
 11
371.926464
 21
288.70701
 31
0.0
 12
372.89514
 22
288.740065
 32
0.0
 13
372.89514
 23
288.740065
 33
0.0
  0
SOLID
  5
12349
  8
WAKU
  6
CONTINUOUS
 10
373.597996
 20
288.840902
 30
0.0
 11
373.799148
 21
288.781929
 31
0.0
 12
374.363484
 22
288.64263
 32
0.0
 13
374.363484
 23
288.64263
 33
0.0
  0
SOLID
  5
1234A
  8
WAKU
  6
CONTINUOUS
 10
402.042817
 20
288.884615
 30
0.0
 11
400.181958
 21
286.730769
 31
0.0
 12
401.258881
 22
286.730769
 32
0.0
 13
401.258881
 23
286.730769
 33
0.0
  0
SOLID
  5
1234B
  8
WAKU
  6
CONTINUOUS
 10
402.796663
 20
288.884615
 30
0.0
 11
401.424776
 21
285.115385
 31
0.0
 12
401.913747
 22
283.5
 32
0.0
 13
401.913747
 23
283.5
 33
0.0
  0
SOLID
  5
1234C
  8
WAKU
  6
CONTINUOUS
 10
403.873587
 20
288.884615
 30
0.0
 11
402.796663
 21
288.884615
 31
0.0
 12
401.913747
 22
283.5
 32
0.0
 13
401.913747
 23
283.5
 33
0.0
  0
SOLID
  5
1234D
  8
WAKU
  6
CONTINUOUS
 10
400.965894
 20
288.884615
 30
0.0
 11
400.181958
 21
286.730769
 31
0.0
 12
402.042817
 22
288.884615
 32
0.0
 13
402.042817
 23
288.884615
 33
0.0
  0
SOLID
  5
1234E
  8
WAKU
  6
CONTINUOUS
 10
399.858881
 20
286.730769
 30
0.0
 11
400.642817
 21
288.884615
 31
0.0
 12
399.565894
 22
288.884615
 32
0.0
 13
399.565894
 23
288.884615
 33
0.0
  0
SOLID
  5
1234F
  8
WAKU
  6
CONTINUOUS
 10
399.565894
 20
288.884615
 30
0.0
 11
398.781958
 21
286.730769
 31
0.0
 12
399.858881
 22
286.730769
 32
0.0
 13
399.858881
 23
286.730769
 33
0.0
  0
SOLID
  5
12350
  8
WAKU
  6
CONTINUOUS
 10
374.225306
 20
288.920895
 30
0.0
 11
373.597996
 21
288.840902
 31
0.0
 12
374.363484
 22
288.64263
 32
0.0
 13
374.363484
 23
288.64263
 33
0.0
  0
SOLID
  5
12351
  8
WAKU
  6
CONTINUOUS
 10
372.417683
 20
288.968648
 30
0.0
 11
373.597996
 21
288.840902
 31
0.0
 12
374.225306
 22
288.920895
 32
0.0
 13
374.225306
 23
288.920895
 33
0.0
  0
SOLID
  5
12352
  8
WAKU
  6
CONTINUOUS
 10
372.417683
 20
288.968648
 30
0.0
 11
373.290857
 21
288.835581
 31
0.0
 12
373.597996
 22
288.840902
 32
0.0
 13
373.597996
 23
288.840902
 33
0.0
  0
SOLID
  5
12353
  8
WAKU
  6
CONTINUOUS
 10
372.417683
 20
288.968648
 30
0.0
 11
371.926464
 21
288.70701
 31
0.0
 12
373.290857
 22
288.835581
 32
0.0
 13
373.290857
 23
288.835581
 33
0.0
  0
SOLID
  5
12354
  8
WAKU
  6
CONTINUOUS
 10
373.998821
 20
289.115757
 30
0.0
 11
372.417683
 21
288.968648
 31
0.0
 12
374.225306
 22
288.920895
 32
0.0
 13
374.225306
 23
288.920895
 33
0.0
  0
SOLID
  5
12355
  8
WAKU
  6
CONTINUOUS
 10
372.886988
 20
289.145129
 30
0.0
 11
372.417683
 21
288.968648
 31
0.0
 12
373.998821
 22
289.115757
 32
0.0
 13
373.998821
 23
289.115757
 33
0.0
  0
SOLID
  5
12356
  8
WAKU
  6
CONTINUOUS
 10
396.941687
 20
287.592308
 30
0.0
 11
396.452715
 21
289.207692
 31
0.0
 12
393.760408
 22
289.207692
 32
0.0
 13
393.760408
 23
289.207692
 33
0.0
  0
SOLID
  5
12357
  8
WAKU
  6
CONTINUOUS
 10
396.452715
 20
289.207692
 30
0.0
 11
396.941687
 21
287.592308
 31
0.0
 12
397.749379
 22
287.592308
 32
0.0
 13
397.749379
 23
287.592308
 33
0.0
  0
SOLID
  5
12358
  8
WAKU
  6
CONTINUOUS
 10
393.760408
 20
289.207692
 30
0.0
 11
391.28784
 21
287.592308
 31
0.0
 12
396.941687
 22
287.592308
 32
0.0
 13
396.941687
 23
287.592308
 33
0.0
  0
SOLID
  5
12359
  8
WAKU
  6
CONTINUOUS
 10
398.337331
 20
289.207692
 30
0.0
 11
396.452715
 21
289.207692
 31
0.0
 12
397.749379
 22
287.592308
 32
0.0
 13
397.749379
 23
287.592308
 33
0.0
  0
SOLID
  5
1235A
  8
WAKU
  6
CONTINUOUS
 10
391.875792
 20
289.207692
 30
0.0
 11
391.28784
 21
287.592308
 31
0.0
 12
393.760408
 22
289.207692
 32
0.0
 13
393.760408
 23
289.207692
 33
0.0
  0
SOLID
  5
1235B
  8
WAKU
  6
CONTINUOUS
 10
393.760408
 20
289.207692
 30
0.0
 11
392.683485
 21
289.207692
 31
0.0
 12
391.875792
 22
289.207692
 32
0.0
 13
391.875792
 23
289.207692
 33
0.0
  0
SOLID
  5
1235C
  8
WAKU
  6
CONTINUOUS
 10
397.529638
 20
289.207692
 30
0.0
 11
396.452715
 21
289.207692
 31
0.0
 12
398.337331
 22
289.207692
 32
0.0
 13
398.337331
 23
289.207692
 33
0.0
  0
SOLID
  5
1235D
  8
WAKU
  6
CONTINUOUS
 10
373.692348
 20
289.22006
 30
0.0
 11
372.886988
 21
289.145129
 31
0.0
 12
373.998821
 22
289.115757
 32
0.0
 13
373.998821
 23
289.115757
 33
0.0
  0
SOLID
  5
1235E
  8
WAKU
  6
CONTINUOUS
 10
373.317143
 20
289.229972
 30
0.0
 11
372.886988
 21
289.145129
 31
0.0
 12
373.692348
 22
289.22006
 32
0.0
 13
373.692348
 23
289.22006
 33
0.0
  0
SOLID
  5
1235F
  8
WAKU
  6
CONTINUOUS
 10
378.723077
 20
290.5
 30
0.0
 11
381.524851
 21
288.776923
 31
0.0
 12
383.695928
 22
288.776923
 32
0.0
 13
383.695928
 23
288.776923
 33
0.0
  0
SOLID
  5
12360
  8
WAKU
  6
CONTINUOUS
 10
378.723077
 20
290.5
 30
0.0
 11
378.095928
 21
288.776923
 31
0.0
 12
381.524851
 22
288.776923
 32
0.0
 13
381.524851
 23
288.776923
 33
0.0
  0
SOLID
  5
12361
  8
WAKU
  6
CONTINUOUS
 10
372.249053
 20
290.5
 30
0.0
 11
367.971276
 21
290.5
 31
0.0
 12
367.971276
 22
286.222222
 32
0.0
 13
367.971276
 23
286.222222
 33
0.0
  0
SOLID
  5
12362
  8
WAKU
  6
CONTINUOUS
 10
409.219005
 20
288.776923
 30
0.0
 11
409.846154
 21
290.5
 31
0.0
 12
406.615385
 22
290.5
 32
0.0
 13
406.615385
 23
290.5
 33
0.0
  0
SOLID
  5
12363
  8
WAKU
  6
CONTINUOUS
 10
406.615385
 20
290.5
 30
0.0
 11
405.988236
 21
288.776923
 31
0.0
 12
409.219005
 22
288.776923
 32
0.0
 13
409.219005
 23
288.776923
 33
0.0
  0
SOLID
  5
12364
  8
WAKU
  6
CONTINUOUS
 10
392.683485
 20
289.207692
 30
0.0
 11
394.230769
 21
290.5
 31
0.0
 12
393.153846
 22
290.5
 32
0.0
 13
393.153846
 23
290.5
 33
0.0
  0
SOLID
  5
12365
  8
WAKU
  6
CONTINUOUS
 10
394.230769
 20
290.5
 30
0.0
 11
392.683485
 21
289.207692
 31
0.0
 12
393.760408
 22
289.207692
 32
0.0
 13
393.760408
 23
289.207692
 33
0.0
  0
SOLID
  5
12366
  8
WAKU
  6
CONTINUOUS
 10
409.159221
 20
285.653846
 30
0.0
 11
412.0
 21
290.5
 31
0.0
 12
410.923077
 22
290.5
 32
0.0
 13
410.923077
 23
290.5
 33
0.0
  0
SOLID
  5
12367
  8
WAKU
  6
CONTINUOUS
 10
412.0
 20
290.5
 30
0.0
 11
409.159221
 21
285.653846
 31
0.0
 12
409.452208
 22
283.5
 32
0.0
 13
409.452208
 23
283.5
 33
0.0
  0
SOLID
  5
12368
  8
WAKU
  6
CONTINUOUS
 10
384.323077
 20
290.5
 30
0.0
 11
378.723077
 21
290.5
 31
0.0
 12
383.695928
 22
288.776923
 32
0.0
 13
383.695928
 23
288.776923
 33
0.0
  0
SOLID
  5
12369
  8
WAKU
  6
CONTINUOUS
 10
385.615385
 20
290.5
 30
0.0
 11
384.988236
 21
288.776923
 31
0.0
 12
390.372851
 22
288.776923
 32
0.0
 13
390.372851
 23
288.776923
 33
0.0
  0
SOLID
  5
1236A
  8
WAKU
  6
CONTINUOUS
 10
396.923077
 20
290.5
 30
0.0
 11
396.452715
 21
289.207692
 31
0.0
 12
397.529638
 22
289.207692
 32
0.0
 13
397.529638
 23
289.207692
 33
0.0
  0
SOLID
  5
1236B
  8
WAKU
  6
CONTINUOUS
 10
391.0
 20
290.5
 30
0.0
 11
385.615385
 21
290.5
 31
0.0
 12
390.372851
 22
288.776923
 32
0.0
 13
390.372851
 23
288.776923
 33
0.0
  0
SOLID
  5
1236C
  8
WAKU
  6
CONTINUOUS
 10
398.0
 20
290.5
 30
0.0
 11
396.923077
 21
290.5
 31
0.0
 12
397.529638
 22
289.207692
 32
0.0
 13
397.529638
 23
289.207692
 33
0.0
  0
ENDBLK
  5
1236E
  8
0
  0
ENDSEC
  0
SECTION
  2
ENTITIES
  0
LINE
  5
43
  8
WAKU
 10
415.0
 20
292.0
 30
0.0
 11
415.0
 21
5.0
 31
0.0
  0
LINE
  5
46
  8
WAKU
 10
5.0
 20
292.0
 30
0.0
 11
5.0
 21
5.0
 31
0.0
  0
LINE
  5
55
  8
WAKU
 10
5.0
 20
5.0
 30
0.0
 11
415.0
 21
5.0
 31
0.0
  0
LINE
  5
571
  8
WAKU
 10
5.0
 20
292.0
 30
0.0
 11
415.0
 21
292.0
 31
0.0
  0
LINE
  5
572
  8
WAKU
 10
5.0
 20
282.0
 30
0.0
 11
415.0
 21
282.0
 31
0.0
  0
LINE
  5
CBC
  8
WAKU
  6
CONTINUOUS
 10
393.760408
 20
289.207692
 30
0.0
 11
396.452715
 21
289.207692
 31
0.0
  0
LINE
  5
CBD
  8
WAKU
  6
CONTINUOUS
 10
393.172456
 20
287.592308
 30
0.0
 11
395.864763
 21
287.592308
 31
0.0
  0
LINE
  5
CBE
  8
WAKU
  6
CONTINUOUS
 10
390.39067
 20
283.5
 30
0.0
 11
395.452208
 21
283.5
 31
0.0
  0
LINE
  5
CBF
  8
WAKU
  6
CONTINUOUS
 10
395.159221
 20
285.653846
 30
0.0
 11
395.864763
 21
287.592308
 31
0.0
  0
LINE
  5
CC0
  8
WAKU
  6
CONTINUOUS
 10
367.971276
 20
290.5
 30
0.0
 11
372.249053
 21
290.5
 31
0.0
  0
LINE
  5
CC1
  8
WAKU
  6
CONTINUOUS
 10
367.971276
 20
286.222222
 30
0.0
 11
372.249053
 21
290.5
 31
0.0
  0
LINE
  5
CC2
  8
WAKU
  6
CONTINUOUS
 10
367.971276
 20
290.5
 30
0.0
 11
367.971276
 21
286.222222
 31
0.0
  0
LINE
  5
CC3
  8
WAKU
  6
CONTINUOUS
 10
381.524851
 20
288.776923
 30
0.0
 11
383.695928
 21
288.776923
 31
0.0
  0
LINE
  5
CC4
  8
WAKU
  6
CONTINUOUS
 10
378.723077
 20
290.5
 30
0.0
 11
384.323077
 21
290.5
 31
0.0
  0
LINE
  5
CC5
  8
WAKU
  6
CONTINUOUS
 10
380.311313
 20
288.776923
 30
0.0
 11
377.155205
 21
286.192308
 31
0.0
  0
LINE
  5
CC6
  8
WAKU
  6
CONTINUOUS
 10
381.524851
 20
288.776923
 30
0.0
 11
382.755205
 21
286.192308
 31
0.0
  0
LINE
  5
CC7
  8
WAKU
  6
CONTINUOUS
 10
376.175285
 20
283.5
 30
0.0
 11
377.155205
 21
286.192308
 31
0.0
  0
LINE
  5
CC8
  8
WAKU
  6
CONTINUOUS
 10
379.397145
 20
286.138462
 30
0.0
 11
376.175285
 21
283.5
 31
0.0
  0
LINE
  5
CC9
  8
WAKU
  6
CONTINUOUS
 10
381.775285
 20
283.5
 30
0.0
 11
382.755205
 21
286.192308
 31
0.0
  0
LINE
  5
CCA
  8
WAKU
  6
CONTINUOUS
 10
380.493667
 20
286.192308
 30
0.0
 11
381.775285
 21
283.5
 31
0.0
  0
LINE
  5
CCB
  8
WAKU
  6
CONTINUOUS
 10
379.513747
 20
283.5
 30
0.0
 11
380.493667
 21
286.192308
 31
0.0
  0
LINE
  5
CCC
  8
WAKU
  6
CONTINUOUS
 10
378.436824
 20
283.5
 30
0.0
 11
379.513747
 21
283.5
 31
0.0
  0
LINE
  5
CCD
  8
WAKU
  6
CONTINUOUS
 10
378.436824
 20
283.5
 30
0.0
 11
379.397145
 21
286.138462
 31
0.0
  0
LINE
  5
CCE
  8
WAKU
  6
CONTINUOUS
 10
378.095928
 20
288.776923
 30
0.0
 11
380.311313
 21
288.776923
 31
0.0
  0
LINE
  5
CCF
  8
WAKU
  6
CONTINUOUS
 10
378.723077
 20
290.5
 30
0.0
 11
378.095928
 21
288.776923
 31
0.0
  0
LINE
  5
CD0
  8
WAKU
  6
CONTINUOUS
 10
392.780488
 20
286.515385
 30
0.0
 11
393.172456
 21
287.592308
 31
0.0
  0
LINE
  5
CD1
  8
WAKU
  6
CONTINUOUS
 10
391.703565
 20
286.515385
 30
0.0
 11
392.095533
 21
287.592308
 31
0.0
  0
LINE
  5
CD2
  8
WAKU
  6
CONTINUOUS
 10
388.452208
 20
283.5
 30
0.0
 11
389.236144
 21
285.653846
 31
0.0
  0
LINE
  5
CD3
  8
WAKU
  6
CONTINUOUS
 10
383.851529
 20
285.653846
 30
0.0
 11
389.236144
 21
285.653846
 31
0.0
  0
LINE
  5
CD4
  8
WAKU
  6
CONTINUOUS
 10
383.067593
 20
283.5
 30
0.0
 11
383.851529
 21
285.653846
 31
0.0
  0
LINE
  5
CD5
  8
WAKU
  6
CONTINUOUS
 10
383.067593
 20
283.5
 30
0.0
 11
388.452208
 21
283.5
 31
0.0
  0
LINE
  5
CD6
  8
WAKU
  6
CONTINUOUS
 10
391.174606
 20
285.653846
 30
0.0
 11
395.159221
 21
285.653846
 31
0.0
  0
LINE
  5
CD7
  8
WAKU
  6
CONTINUOUS
 10
391.703565
 20
286.515385
 30
0.0
 11
392.780488
 21
286.515385
 31
0.0
  0
LINE
  5
CD8
  8
WAKU
  6
CONTINUOUS
 10
390.39067
 20
283.5
 30
0.0
 11
391.174606
 21
285.653846
 31
0.0
  0
LINE
  5
CD9
  8
WAKU
  6
CONTINUOUS
 10
384.988236
 20
288.776923
 30
0.0
 11
390.372851
 21
288.776923
 31
0.0
  0
LINE
  5
CDA
  8
WAKU
  6
CONTINUOUS
 10
385.615385
 20
290.5
 30
0.0
 11
391.0
 21
290.5
 31
0.0
  0
LINE
  5
CDB
  8
WAKU
  6
CONTINUOUS
 10
384.988236
 20
288.776923
 30
0.0
 11
385.615385
 21
290.5
 31
0.0
  0
LINE
  5
CDC
  8
WAKU
  6
CONTINUOUS
 10
384.323077
 20
290.5
 30
0.0
 11
383.695928
 21
288.776923
 31
0.0
  0
LINE
  5
CDD
  8
WAKU
  6
CONTINUOUS
 10
393.153846
 20
290.5
 30
0.0
 11
394.230769
 21
290.5
 31
0.0
  0
LINE
  5
CDE
  8
WAKU
  6
CONTINUOUS
 10
393.760408
 20
289.207692
 30
0.0
 11
394.230769
 21
290.5
 31
0.0
  0
LINE
  5
CDF
  8
WAKU
  6
CONTINUOUS
 10
391.875792
 20
289.207692
 30
0.0
 11
392.683485
 21
289.207692
 31
0.0
  0
LINE
  5
CE0
  8
WAKU
  6
CONTINUOUS
 10
391.28784
 20
287.592308
 30
0.0
 11
392.095533
 21
287.592308
 31
0.0
  0
LINE
  5
CE1
  8
WAKU
  6
CONTINUOUS
 10
391.28784
 20
287.592308
 30
0.0
 11
391.875792
 21
289.207692
 31
0.0
  0
LINE
  5
CE2
  8
WAKU
  6
CONTINUOUS
 10
392.683485
 20
289.207692
 30
0.0
 11
393.153846
 21
290.5
 31
0.0
  0
LINE
  5
CE3
  8
WAKU
  6
CONTINUOUS
 10
390.372851
 20
288.776923
 30
0.0
 11
391.0
 21
290.5
 31
0.0
  0
LINE
  5
CE4
  8
WAKU
  6
CONTINUOUS
 10
405.753055
 20
288.130769
 30
0.0
 11
408.983824
 21
288.130769
 31
0.0
  0
LINE
  5
CE5
  8
WAKU
  6
CONTINUOUS
 10
405.282694
 20
286.838462
 30
0.0
 11
408.513463
 21
286.838462
 31
0.0
  0
LINE
  5
CE6
  8
WAKU
  6
CONTINUOUS
 10
409.452208
 20
283.5
 30
0.0
 11
404.067593
 21
283.5
 31
0.0
  0
LINE
  5
CE7
  8
WAKU
  6
CONTINUOUS
 10
404.851529
 20
285.653846
 30
0.0
 11
409.159221
 21
285.653846
 31
0.0
  0
LINE
  5
CE8
  8
WAKU
  6
CONTINUOUS
 10
405.988236
 20
288.776923
 30
0.0
 11
409.219005
 21
288.776923
 31
0.0
  0
LINE
  5
CE9
  8
WAKU
  6
CONTINUOUS
 10
406.615385
 20
290.5
 30
0.0
 11
409.846154
 21
290.5
 31
0.0
  0
LINE
  5
CEA
  8
WAKU
  6
CONTINUOUS
 10
398.781958
 20
286.730769
 30
0.0
 11
399.565894
 21
288.884615
 31
0.0
  0
LINE
  5
CEB
  8
WAKU
  6
CONTINUOUS
 10
400.181958
 20
286.730769
 30
0.0
 11
400.965894
 21
288.884615
 31
0.0
  0
LINE
  5
CEC
  8
WAKU
  6
CONTINUOUS
 10
399.858881
 20
286.730769
 30
0.0
 11
400.642817
 21
288.884615
 31
0.0
  0
LINE
  5
CED
  8
WAKU
  6
CONTINUOUS
 10
401.258881
 20
286.730769
 30
0.0
 11
402.042817
 21
288.884615
 31
0.0
  0
LINE
  5
CEE
  8
WAKU
  6
CONTINUOUS
 10
401.913747
 20
283.5
 30
0.0
 11
403.873587
 21
288.884615
 31
0.0
  0
LINE
  5
CEF
  8
WAKU
  6
CONTINUOUS
 10
401.424776
 20
285.115385
 30
0.0
 11
402.796663
 21
288.884615
 31
0.0
  0
LINE
  5
CF0
  8
WAKU
  6
CONTINUOUS
 10
395.452208
 20
283.5
 30
0.0
 11
396.941687
 21
287.592308
 31
0.0
  0
LINE
  5
CF1
  8
WAKU
  6
CONTINUOUS
 10
397.606055
 20
283.5
 30
0.0
 11
401.913747
 21
283.5
 31
0.0
  0
LINE
  5
CF2
  8
WAKU
  6
CONTINUOUS
 10
398.781958
 20
286.730769
 30
0.0
 11
399.858881
 21
286.730769
 31
0.0
  0
LINE
  5
CF3
  8
WAKU
  6
CONTINUOUS
 10
398.194006
 20
285.115385
 30
0.0
 11
401.424776
 21
285.115385
 31
0.0
  0
LINE
  5
CF4
  8
WAKU
  6
CONTINUOUS
 10
397.606055
 20
283.5
 30
0.0
 11
398.194006
 21
285.115385
 31
0.0
  0
LINE
  5
CF5
  8
WAKU
  6
CONTINUOUS
 10
400.181958
 20
286.730769
 30
0.0
 11
401.258881
 21
286.730769
 31
0.0
  0
LINE
  5
CF6
  8
WAKU
  6
CONTINUOUS
 10
404.067593
 20
283.5
 30
0.0
 11
404.851529
 21
285.653846
 31
0.0
  0
LINE
  5
CF7
  8
WAKU
  6
CONTINUOUS
 10
400.965894
 20
288.884615
 30
0.0
 11
402.042817
 21
288.884615
 31
0.0
  0
LINE
  5
CF8
  8
WAKU
  6
CONTINUOUS
 10
396.923077
 20
290.5
 30
0.0
 11
398.0
 21
290.5
 31
0.0
  0
LINE
  5
CF9
  8
WAKU
  6
CONTINUOUS
 10
397.529638
 20
289.207692
 30
0.0
 11
398.0
 21
290.5
 31
0.0
  0
LINE
  5
CFA
  8
WAKU
  6
CONTINUOUS
 10
397.529638
 20
289.207692
 30
0.0
 11
398.337331
 21
289.207692
 31
0.0
  0
LINE
  5
CFB
  8
WAKU
  6
CONTINUOUS
 10
396.941687
 20
287.592308
 30
0.0
 11
397.749379
 21
287.592308
 31
0.0
  0
LINE
  5
CFC
  8
WAKU
  6
CONTINUOUS
 10
397.749379
 20
287.592308
 30
0.0
 11
398.337331
 21
289.207692
 31
0.0
  0
LINE
  5
CFD
  8
WAKU
  6
CONTINUOUS
 10
399.565894
 20
288.884615
 30
0.0
 11
400.642817
 21
288.884615
 31
0.0
  0
LINE
  5
CFE
  8
WAKU
  6
CONTINUOUS
 10
396.452715
 20
289.207692
 30
0.0
 11
396.923077
 21
290.5
 31
0.0
  0
LINE
  5
CFF
  8
WAKU
  6
CONTINUOUS
 10
406.615385
 20
290.5
 30
0.0
 11
405.988236
 21
288.776923
 31
0.0
  0
LINE
  5
D00
  8
WAKU
  6
CONTINUOUS
 10
405.753055
 20
288.130769
 30
0.0
 11
405.282694
 21
286.838462
 31
0.0
  0
LINE
  5
D01
  8
WAKU
  6
CONTINUOUS
 10
402.796663
 20
288.884615
 30
0.0
 11
403.873587
 21
288.884615
 31
0.0
  0
LINE
  5
D02
  8
WAKU
  6
CONTINUOUS
 10
409.159221
 20
285.653846
 30
0.0
 11
410.923077
 21
290.5
 31
0.0
  0
LINE
  5
D03
  8
WAKU
  6
CONTINUOUS
 10
409.452208
 20
283.5
 30
0.0
 11
412.0
 21
290.5
 31
0.0
  0
LINE
  5
D04
  8
WAKU
  6
CONTINUOUS
 10
409.219005
 20
288.776923
 30
0.0
 11
409.846154
 21
290.5
 31
0.0
  0
LINE
  5
D05
  8
WAKU
  6
CONTINUOUS
 10
410.923077
 20
290.5
 30
0.0
 11
412.0
 21
290.5
 31
0.0
  0
LINE
  5
D06
  8
WAKU
  6
CONTINUOUS
 10
408.513463
 20
286.838462
 30
0.0
 11
408.983824
 21
288.130769
 31
0.0
  0
LINE
  5
D07
  8
WAKU
  6
CONTINUOUS
 10
369.828646
 20
284.107791
 30
0.0
 11
369.966824
 21
283.829526
 31
0.0
  0
LINE
  5
D08
  8
WAKU
  6
CONTINUOUS
 10
369.966824
 20
283.829526
 30
0.0
 11
370.193309
 21
283.634664
 31
0.0
  0
LINE
  5
D09
  8
WAKU
  6
CONTINUOUS
 10
370.193309
 20
283.634664
 30
0.0
 11
370.499782
 21
283.530361
 31
0.0
  0
LINE
  5
D0A
  8
WAKU
  6
CONTINUOUS
 10
370.499782
 20
283.530361
 30
0.0
 11
370.874987
 21
283.520449
 31
0.0
  0
LINE
  5
D0B
  8
WAKU
  6
CONTINUOUS
 10
370.874987
 20
283.520449
 30
0.0
 11
371.305142
 21
283.605291
 31
0.0
  0
LINE
  5
D0C
  8
WAKU
  6
CONTINUOUS
 10
371.305142
 20
283.605291
 30
0.0
 11
371.774448
 21
283.781773
 31
0.0
  0
LINE
  5
D0D
  8
WAKU
  6
CONTINUOUS
 10
371.774448
 20
283.781773
 30
0.0
 11
372.265666
 21
284.043411
 31
0.0
  0
LINE
  5
D0E
  8
WAKU
  6
CONTINUOUS
 10
372.265666
 20
284.043411
 30
0.0
 11
372.760756
 21
284.380595
 31
0.0
  0
LINE
  5
D0F
  8
WAKU
  6
CONTINUOUS
 10
372.760756
 20
284.380595
 30
0.0
 11
373.241532
 21
284.780941
 31
0.0
  0
LINE
  5
D10
  8
WAKU
  6
CONTINUOUS
 10
373.241532
 20
284.780941
 30
0.0
 11
373.690335
 21
285.229744
 31
0.0
  0
LINE
  5
D11
  8
WAKU
  6
CONTINUOUS
 10
373.690335
 20
285.229744
 30
0.0
 11
374.090681
 21
285.71052
 31
0.0
  0
LINE
  5
D12
  8
WAKU
  6
CONTINUOUS
 10
374.090681
 20
285.71052
 30
0.0
 11
374.427865
 21
286.205609
 31
0.0
  0
LINE
  5
D13
  8
WAKU
  6
CONTINUOUS
 10
374.427865
 20
286.205609
 30
0.0
 11
374.689503
 21
286.696828
 31
0.0
  0
LINE
  5
D14
  8
WAKU
  6
CONTINUOUS
 10
374.689503
 20
286.696828
 30
0.0
 11
374.865984
 21
287.166134
 31
0.0
  0
LINE
  5
D15
  8
WAKU
  6
CONTINUOUS
 10
374.865984
 20
287.166134
 30
0.0
 11
374.950827
 21
287.596289
 31
0.0
  0
LINE
  5
D16
  8
WAKU
  6
CONTINUOUS
 10
374.950827
 20
287.596289
 30
0.0
 11
374.940915
 21
287.971493
 31
0.0
  0
LINE
  5
D17
  8
WAKU
  6
CONTINUOUS
 10
374.940915
 20
287.971493
 30
0.0
 11
374.836612
 21
288.277967
 31
0.0
  0
LINE
  5
D18
  8
WAKU
  6
CONTINUOUS
 10
374.836612
 20
288.277967
 30
0.0
 11
374.641749
 21
288.504452
 31
0.0
  0
LINE
  5
D19
  8
WAKU
  6
CONTINUOUS
 10
374.641749
 20
288.504452
 30
0.0
 11
374.363484
 21
288.64263
 31
0.0
  0
LINE
  5
D1A
  8
WAKU
  6
CONTINUOUS
 10
373.916941
 20
288.683944
 30
0.0
 11
373.482636
 21
288.608014
 31
0.0
  0
LINE
  5
D1B
  8
WAKU
  6
CONTINUOUS
 10
373.482636
 20
288.608014
 30
0.0
 11
373.005639
 21
288.435768
 31
0.0
  0
LINE
  5
D1C
  8
WAKU
  6
CONTINUOUS
 10
373.005639
 20
288.435768
 30
0.0
 11
372.504269
 21
288.173821
 31
0.0
  0
LINE
  5
D1D
  8
WAKU
  6
CONTINUOUS
 10
372.504269
 20
288.173821
 30
0.0
 11
371.997783
 21
287.832235
 31
0.0
  0
LINE
  5
D1E
  8
WAKU
  6
CONTINUOUS
 10
371.997783
 20
287.832235
 30
0.0
 11
371.505632
 21
287.424128
 31
0.0
  0
LINE
  5
D1F
  8
WAKU
  6
CONTINUOUS
 10
371.505632
 20
287.424128
 30
0.0
 11
371.04672
 21
286.965174
 31
0.0
  0
LINE
  5
D20
  8
WAKU
  6
CONTINUOUS
 10
371.04672
 20
286.965174
 30
0.0
 11
370.638671
 21
286.473
 31
0.0
  0
LINE
  5
D21
  8
WAKU
  6
CONTINUOUS
 10
370.638671
 20
286.473
 30
0.0
 11
370.297156
 21
285.966509
 31
0.0
  0
LINE
  5
D22
  8
WAKU
  6
CONTINUOUS
 10
370.297156
 20
285.966509
 30
0.0
 11
370.035293
 21
285.465154
 31
0.0
  0
LINE
  5
D23
  8
WAKU
  6
CONTINUOUS
 10
370.035293
 20
285.465154
 30
0.0
 11
369.863139
 21
284.988189
 31
0.0
  0
LINE
  5
D24
  8
WAKU
  6
CONTINUOUS
 10
369.863139
 20
284.988189
 30
0.0
 11
369.787305
 21
284.553935
 31
0.0
  0
LINE
  5
D25
  8
WAKU
  6
CONTINUOUS
 10
370.172911
 20
284.451856
 30
0.0
 11
370.681395
 21
284.539195
 31
0.0
  0
LINE
  5
D26
  8
WAKU
  6
CONTINUOUS
 10
370.681395
 20
284.539195
 30
0.0
 11
371.312263
 21
284.810332
 31
0.0
  0
LINE
  5
D27
  8
WAKU
  6
CONTINUOUS
 10
371.312263
 20
284.810332
 30
0.0
 11
371.98994
 21
285.251431
 31
0.0
  0
LINE
  5
D28
  8
WAKU
  6
CONTINUOUS
 10
371.98994
 20
285.251431
 30
0.0
 11
372.646296
 21
285.825506
 31
0.0
  0
LINE
  5
D29
  8
WAKU
  6
CONTINUOUS
 10
372.646296
 20
285.825506
 30
0.0
 11
373.220238
 21
286.48192
 31
0.0
  0
LINE
  5
D2A
  8
WAKU
  6
CONTINUOUS
 10
373.220238
 20
286.48192
 30
0.0
 11
373.661353
 21
287.159534
 31
0.0
  0
LINE
  5
D2B
  8
WAKU
  6
CONTINUOUS
 10
373.661353
 20
287.159534
 30
0.0
 11
373.932071
 21
287.790402
 31
0.0
  0
LINE
  5
D2C
  8
WAKU
  6
CONTINUOUS
 10
373.932071
 20
287.790402
 30
0.0
 11
374.019229
 21
288.298569
 31
0.0
  0
LINE
  5
D2D
  8
WAKU
  6
CONTINUOUS
 10
373.916941
 20
288.683944
 30
0.0
 11
373.799148
 21
288.781929
 31
0.0
  0
LINE
  5
D2E
  8
WAKU
  6
CONTINUOUS
 10
373.799148
 20
288.781929
 30
0.0
 11
373.597996
 21
288.840902
 31
0.0
  0
LINE
  5
D2F
  8
WAKU
  6
CONTINUOUS
 10
373.597996
 20
288.840902
 30
0.0
 11
373.290857
 21
288.835581
 31
0.0
  0
LINE
  5
D30
  8
WAKU
  6
CONTINUOUS
 10
373.290857
 20
288.835581
 30
0.0
 11
372.89514
 21
288.740065
 31
0.0
  0
LINE
  5
D31
  8
WAKU
  6
CONTINUOUS
 10
372.89514
 20
288.740065
 30
0.0
 11
372.440235
 21
288.547585
 31
0.0
  0
LINE
  5
D32
  8
WAKU
  6
CONTINUOUS
 10
372.440235
 20
288.547585
 30
0.0
 11
371.954587
 21
288.264284
 31
0.0
  0
LINE
  5
D33
  8
WAKU
  6
CONTINUOUS
 10
371.954587
 20
288.264284
 30
0.0
 11
370.996098
 21
287.475108
 31
0.0
  0
LINE
  5
D34
  8
WAKU
  6
CONTINUOUS
 10
370.996098
 20
287.475108
 30
0.0
 11
370.207035
 21
286.51657
 31
0.0
  0
LINE
  5
D35
  8
WAKU
  6
CONTINUOUS
 10
370.207035
 20
286.51657
 30
0.0
 11
369.923519
 21
286.031028
 31
0.0
  0
LINE
  5
D36
  8
WAKU
  6
CONTINUOUS
 10
369.923519
 20
286.031028
 30
0.0
 11
369.73149
 21
285.576021
 31
0.0
  0
LINE
  5
D37
  8
WAKU
  6
CONTINUOUS
 10
369.73149
 20
285.576021
 30
0.0
 11
369.635696
 21
285.180404
 31
0.0
  0
LINE
  5
D38
  8
WAKU
  6
CONTINUOUS
 10
369.635696
 20
285.180404
 30
0.0
 11
369.630358
 21
284.873087
 31
0.0
  0
LINE
  5
D39
  8
WAKU
  6
CONTINUOUS
 10
369.630358
 20
284.873087
 30
0.0
 11
369.689155
 21
284.672435
 31
0.0
  0
LINE
  5
D3A
  8
WAKU
  6
CONTINUOUS
 10
369.689155
 20
284.672435
 30
0.0
 11
369.787305
 21
284.553935
 31
0.0
  0
LINE
  5
D3B
  8
WAKU
  6
CONTINUOUS
 10
370.275177
 20
284.066476
 30
0.0
 11
370.392927
 21
283.968568
 31
0.0
  0
LINE
  5
D3C
  8
WAKU
  6
CONTINUOUS
 10
370.392927
 20
283.968568
 30
0.0
 11
370.594177
 21
283.909498
 31
0.0
  0
LINE
  5
D3D
  8
WAKU
  6
CONTINUOUS
 10
370.594177
 20
283.909498
 30
0.0
 11
370.901294
 21
283.914863
 31
0.0
  0
LINE
  5
D3E
  8
WAKU
  6
CONTINUOUS
 10
370.901294
 20
283.914863
 30
0.0
 11
371.296984
 21
284.010368
 31
0.0
  0
LINE
  5
D3F
  8
WAKU
  6
CONTINUOUS
 10
371.296984
 20
284.010368
 30
0.0
 11
371.751882
 21
284.202798
 31
0.0
  0
LINE
  5
D40
  8
WAKU
  6
CONTINUOUS
 10
371.751882
 20
284.202798
 30
0.0
 11
372.237497
 21
284.486117
 31
0.0
  0
LINE
  5
D41
  8
WAKU
  6
CONTINUOUS
 10
372.237497
 20
284.486117
 30
0.0
 11
373.195965
 21
285.275232
 31
0.0
  0
LINE
  5
D42
  8
WAKU
  6
CONTINUOUS
 10
373.195965
 20
285.275232
 30
0.0
 11
373.98505
 21
286.233718
 31
0.0
  0
LINE
  5
D43
  8
WAKU
  6
CONTINUOUS
 10
373.98505
 20
286.233718
 30
0.0
 11
374.268507
 21
286.719278
 31
0.0
  0
LINE
  5
D44
  8
WAKU
  6
CONTINUOUS
 10
374.268507
 20
286.719278
 30
0.0
 11
374.46071
 21
287.174248
 31
0.0
  0
LINE
  5
D45
  8
WAKU
  6
CONTINUOUS
 10
374.46071
 20
287.174248
 30
0.0
 11
374.556361
 21
287.569864
 31
0.0
  0
LINE
  5
D46
  8
WAKU
  6
CONTINUOUS
 10
374.556361
 20
287.569864
 30
0.0
 11
374.561802
 21
287.877253
 31
0.0
  0
LINE
  5
D47
  8
WAKU
  6
CONTINUOUS
 10
374.561802
 20
287.877253
 30
0.0
 11
374.502951
 21
288.077918
 31
0.0
  0
LINE
  5
D48
  8
WAKU
  6
CONTINUOUS
 10
374.502951
 20
288.077918
 30
0.0
 11
374.40481
 21
288.196249
 31
0.0
  0
LINE
  5
D49
  8
WAKU
  6
CONTINUOUS
 10
374.019229
 20
288.298569
 30
0.0
 11
373.510738
 21
288.21124
 31
0.0
  0
LINE
  5
D4A
  8
WAKU
  6
CONTINUOUS
 10
373.510738
 20
288.21124
 30
0.0
 11
372.879878
 21
287.940057
 31
0.0
  0
LINE
  5
D4B
  8
WAKU
  6
CONTINUOUS
 10
372.879878
 20
287.940057
 30
0.0
 11
372.202181
 21
287.498991
 31
0.0
  0
LINE
  5
D4C
  8
WAKU
  6
CONTINUOUS
 10
372.202181
 20
287.498991
 30
0.0
 11
371.545827
 21
286.924893
 31
0.0
  0
LINE
  5
D4D
  8
WAKU
  6
CONTINUOUS
 10
371.545827
 20
286.924893
 30
0.0
 11
370.971896
 21
286.268471
 31
0.0
  0
LINE
  5
D4E
  8
WAKU
  6
CONTINUOUS
 10
370.971896
 20
286.268471
 30
0.0
 11
370.530712
 21
285.590875
 31
0.0
  0
LINE
  5
D4F
  8
WAKU
  6
CONTINUOUS
 10
370.530712
 20
285.590875
 30
0.0
 11
370.260168
 21
284.959969
 31
0.0
  0
LINE
  5
D50
  8
WAKU
  6
CONTINUOUS
 10
370.260168
 20
284.959969
 30
0.0
 11
370.172911
 21
284.451856
 31
0.0
  0
LINE
  5
D51
  8
WAKU
  6
CONTINUOUS
 10
370.275177
 20
284.066476
 30
0.0
 11
370.709458
 21
284.142397
 31
0.0
  0
LINE
  5
D52
  8
WAKU
  6
CONTINUOUS
 10
370.709458
 20
284.142397
 30
0.0
 11
371.186428
 21
284.314625
 31
0.0
  0
LINE
  5
D53
  8
WAKU
  6
CONTINUOUS
 10
371.186428
 20
284.314625
 30
0.0
 11
371.68777
 21
284.576545
 31
0.0
  0
LINE
  5
D54
  8
WAKU
  6
CONTINUOUS
 10
371.68777
 20
284.576545
 30
0.0
 11
372.194232
 21
284.918099
 31
0.0
  0
LINE
  5
D55
  8
WAKU
  6
CONTINUOUS
 10
372.194232
 20
284.918099
 30
0.0
 11
372.686363
 21
285.326171
 31
0.0
  0
LINE
  5
D56
  8
WAKU
  6
CONTINUOUS
 10
372.686363
 20
285.326171
 30
0.0
 11
373.145266
 21
285.785089
 31
0.0
  0
LINE
  5
D57
  8
WAKU
  6
CONTINUOUS
 10
373.145266
 20
285.785089
 30
0.0
 11
373.553316
 21
286.277229
 31
0.0
  0
LINE
  5
D58
  8
WAKU
  6
CONTINUOUS
 10
373.553316
 20
286.277229
 30
0.0
 11
373.894843
 21
286.783693
 31
0.0
  0
LINE
  5
D59
  8
WAKU
  6
CONTINUOUS
 10
373.894843
 20
286.783693
 30
0.0
 11
374.156732
 21
287.28503
 31
0.0
  0
LINE
  5
D5A
  8
WAKU
  6
CONTINUOUS
 10
374.156732
 20
287.28503
 30
0.0
 11
374.328925
 21
287.761987
 31
0.0
  0
LINE
  5
D5B
  8
WAKU
  6
CONTINUOUS
 10
374.328925
 20
287.761987
 30
0.0
 11
374.40481
 21
288.196249
 31
0.0
  0
LINE
  5
D5C
  8
WAKU
  6
CONTINUOUS
 10
374.363484
 20
288.64263
 30
0.0
 11
374.225306
 21
288.920895
 31
0.0
  0
LINE
  5
D5D
  8
WAKU
  6
CONTINUOUS
 10
374.225306
 20
288.920895
 30
0.0
 11
373.998821
 21
289.115757
 31
0.0
  0
LINE
  5
D5E
  8
WAKU
  6
CONTINUOUS
 10
373.998821
 20
289.115757
 30
0.0
 11
373.692348
 21
289.22006
 31
0.0
  0
LINE
  5
D5F
  8
WAKU
  6
CONTINUOUS
 10
373.692348
 20
289.22006
 30
0.0
 11
373.317143
 21
289.229972
 31
0.0
  0
LINE
  5
D60
  8
WAKU
  6
CONTINUOUS
 10
373.317143
 20
289.229972
 30
0.0
 11
372.886988
 21
289.145129
 31
0.0
  0
LINE
  5
D61
  8
WAKU
  6
CONTINUOUS
 10
372.886988
 20
289.145129
 30
0.0
 11
372.417683
 21
288.968648
 31
0.0
  0
LINE
  5
D62
  8
WAKU
  6
CONTINUOUS
 10
372.417683
 20
288.968648
 30
0.0
 11
371.926464
 21
288.70701
 31
0.0
  0
LINE
  5
D63
  8
WAKU
  6
CONTINUOUS
 10
371.926464
 20
288.70701
 30
0.0
 11
371.431374
 21
288.369826
 31
0.0
  0
LINE
  5
D64
  8
WAKU
  6
CONTINUOUS
 10
371.431374
 20
288.369826
 30
0.0
 11
370.950599
 21
287.96948
 31
0.0
  0
LINE
  5
D65
  8
WAKU
  6
CONTINUOUS
 10
370.950599
 20
287.96948
 30
0.0
 11
370.501795
 21
287.520677
 31
0.0
  0
LINE
  5
D66
  8
WAKU
  6
CONTINUOUS
 10
370.501795
 20
287.520677
 30
0.0
 11
370.101449
 21
287.039901
 31
0.0
  0
LINE
  5
D67
  8
WAKU
  6
CONTINUOUS
 10
370.101449
 20
287.039901
 30
0.0
 11
369.764265
 21
286.544812
 31
0.0
  0
LINE
  5
D68
  8
WAKU
  6
CONTINUOUS
 10
369.764265
 20
286.544812
 30
0.0
 11
369.502627
 21
286.053593
 31
0.0
  0
LINE
  5
D69
  8
WAKU
  6
CONTINUOUS
 10
369.502627
 20
286.053593
 30
0.0
 11
369.326146
 21
285.584287
 31
0.0
  0
LINE
  5
D6A
  8
WAKU
  6
CONTINUOUS
 10
369.326146
 20
285.584287
 30
0.0
 11
369.241303
 21
285.154132
 31
0.0
  0
LINE
  5
D6B
  8
WAKU
  6
CONTINUOUS
 10
369.241303
 20
285.154132
 30
0.0
 11
369.251215
 21
284.778928
 31
0.0
  0
LINE
  5
D6C
  8
WAKU
  6
CONTINUOUS
 10
369.251215
 20
284.778928
 30
0.0
 11
369.355518
 21
284.472454
 31
0.0
  0
LINE
  5
D6D
  8
WAKU
  6
CONTINUOUS
 10
369.355518
 20
284.472454
 30
0.0
 11
369.550381
 21
284.245969
 31
0.0
  0
LINE
  5
D6E
  8
WAKU
  6
CONTINUOUS
 10
369.550381
 20
284.245969
 30
0.0
 11
369.828646
 21
284.107791
 31
0.0
  0
INSERT
  5
D6F
  8
WAKU
  6
CONTINUOUS
  2
*U5
 10
0.0
 20
0.0
 30
0.0
1001
ACAD
1002
{
1000
R14_HATCH_DATA
1000
D6F
1011
1.0
1021
0.0
1031
0.0
1021
0.0
1031
0.0
1011
0.0
1021
0.0
1031
0.0
1021
1.0
1031
0.0
1011
0.0
1021
0.0
1031
0.0
1021
0.0
1031
1.0
1040
0.0
1010
0.0
1020
0.0
1030
1.0
1000
SOLID
1070
     1
1070
     1
1071
       15
1071
        7
1070
     0
1070
     1
1071
        3
1040
372.249053
1040
290.5
1040
367.971276
1040
290.5
1040
367.971276
1040
286.222222
1071
        3
1005
CC0
1005
CC2
1005
CC1
1071
        7
1070
     0
1070
     1
1071
       38
1040
373.998821
1040
289.115757
1040
373.692348
1040
289.22006
1040
373.317143
1040
289.229972
1040
372.886988
1040
289.145129
1040
372.417683
1040
288.968648
1040
371.926464
1040
288.70701
1040
371.431374
1040
288.369826
1040
370.950599
1040
287.96948
1040
370.501795
1040
287.520677
1040
370.101449
1040
287.039901
1040
369.764265
1040
286.544812
1040
369.502627
1040
286.053593
1040
369.326146
1040
285.584287
1040
369.241303
1040
285.154132
1040
369.251215
1040
284.778928
1040
369.355518
1040
284.472454
1040
369.550381
1040
284.245969
1040
369.828646
1040
284.107791
1040
369.966824
1040
283.829526
1040
370.193309
1040
283.634664
1040
370.499782
1040
283.530361
1040
370.874987
1040
283.520449
1040
371.305142
1040
283.605291
1040
371.774448
1040
283.781773
1040
372.265666
1040
284.043411
1040
372.760756
1040
284.380595
1040
373.241532
1040
284.780941
1040
373.690335
1040
285.229744
1040
374.090681
1040
285.71052
1040
374.427865
1040
286.205609
1040
374.689503
1040
286.696828
1040
374.865984
1040
287.166134
1040
374.950827
1040
287.596289
1040
374.940915
1040
287.971493
1040
374.836612
1040
288.277967
1040
374.641749
1040
288.504452
1040
374.363484
1040
288.64263
1040
374.225306
1040
288.920895
1071
       38
1005
D5D
1005
D5E
1005
D5F
1005
D60
1005
D61
1005
D62
1005
D63
1005
D64
1005
D65
1005
D66
1005
D67
1005
D68
1005
D69
1005
D6A
1005
D6B
1005
D6C
1005
D6D
1005
D6E
1005
D07
1005
D08
1005
D09
1005
D0A
1005
D0B
1005
D0C
1005
D0D
1005
D0E
1005
D0F
1005
D10
1005
D11
1005
D12
1005
D13
1005
D14
1005
D15
1005
D16
1005
D17
1005
D18
1005
D19
1005
D5C
1071
       22
1070
     0
1070
     1
1071
       25
1040
373.799148
1040
288.781929
1040
373.916941
1040
288.683944
1040
373.482636
1040
288.608014
1040
373.005639
1040
288.435768
1040
372.504269
1040
288.173821
1040
371.997783
1040
287.832235
1040
371.505632
1040
287.424128
1040
371.04672
1040
286.965174
1040
370.638671
1040
286.473
1040
370.297156
1040
285.966509
1040
370.035293
1040
285.465154
1040
369.863139
1040
284.988189
1040
369.787305
1040
284.553935
1040
369.689155
1040
284.672435
1040
369.630358
1040
284.873087
1040
369.635696
1040
285.180404
1040
369.73149
1040
285.576021
1040
369.923519
1040
286.031028
1040
370.207035
1040
286.51657
1040
370.996098
1040
287.475108
1040
371.954587
1040
288.264284
1040
372.440235
1040
288.547585
1040
372.89514
1040
288.740065
1040
373.290857
1040
288.835581
1040
373.597996
1040
288.840902
1071
       25
1005
D2D
1005
D1A
1005
D1B
1005
D1C
1005
D1D
1005
D1E
1005
D1F
1005
D20
1005
D21
1005
D22
1005
D23
1005
D24
1005
D3A
1005
D39
1005
D38
1005
D37
1005
D36
1005
D35
1005
D34
1005
D33
1005
D32
1005
D31
1005
D30
1005
D2F
1005
D2E
1071
       22
1070
     0
1070
     1
1071
       16
1040
374.019229
1040
288.298569
1040
373.932071
1040
287.790402
1040
373.661353
1040
287.159534
1040
373.220238
1040
286.48192
1040
372.646296
1040
285.825506
1040
371.98994
1040
285.251431
1040
371.312263
1040
284.810332
1040
370.681395
1040
284.539195
1040
370.172911
1040
284.451856
1040
370.260168
1040
284.959969
1040
370.530712
1040
285.590875
1040
370.971896
1040
286.268471
1040
371.545827
1040
286.924893
1040
372.202181
1040
287.498991
1040
372.879878
1040
287.940057
1040
373.510738
1040
288.21124
1071
       16
1005
D2C
1005
D2B
1005
D2A
1005
D29
1005
D28
1005
D27
1005
D26
1005
D25
1005
D50
1005
D4F
1005
D4E
1005
D4D
1005
D4C
1005
D4B
1005
D4A
1005
D49
1071
       22
1070
     0
1070
     1
1071
       25
1040
374.40481
1040
288.196249
1040
374.502951
1040
288.077918
1040
374.561802
1040
287.877253
1040
374.556361
1040
287.569864
1040
374.46071
1040
287.174248
1040
374.268507
1040
286.719278
1040
373.98505
1040
286.233718
1040
373.195965
1040
285.275232
1040
372.237497
1040
284.486117
1040
371.751882
1040
284.202798
1040
371.296984
1040
284.010368
1040
370.901294
1040
283.914863
1040
370.594177
1040
283.909498
1040
370.392927
1040
283.968568
1040
370.275177
1040
284.066476
1040
370.709458
1040
284.142397
1040
371.186428
1040
284.314625
1040
371.68777
1040
284.576545
1040
372.194232
1040
284.918099
1040
372.686363
1040
285.326171
1040
373.145266
1040
285.785089
1040
373.553316
1040
286.277229
1040
373.894843
1040
286.783693
1040
374.156732
1040
287.28503
1040
374.328925
1040
287.761987
1071
       25
1005
D48
1005
D47
1005
D46
1005
D45
1005
D44
1005
D43
1005
D42
1005
D41
1005
D40
1005
D3F
1005
D3E
1005
D3D
1005
D3C
1005
D3B
1005
D51
1005
D52
1005
D53
1005
D54
1005
D55
1005
D56
1005
D57
1005
D58
1005
D59
1005
D5A
1005
D5B
1071
        7
1070
     0
1070
     1
1071
       14
1040
378.723077
1040
290.5
1040
378.095928
1040
288.776923
1040
380.311313
1040
288.776923
1040
377.155205
1040
286.192308
1040
376.175285
1040
283.5
1040
379.397145
1040
286.138462
1040
378.436824
1040
283.5
1040
379.513747
1040
283.5
1040
380.493667
1040
286.192308
1040
381.775285
1040
283.5
1040
382.755205
1040
286.192308
1040
381.524851
1040
288.776923
1040
383.695928
1040
288.776923
1040
384.323077
1040
290.5
1071
       14
1005
CC4
1005
CCF
1005
CCE
1005
CC5
1005
CC7
1005
CC8
1005
CCD
1005
CCC
1005
CCB
1005
CCA
1005
CC9
1005
CC6
1005
CC3
1005
CDC
1071
        7
1070
     0
1070
     1
1071
        4
1040
385.615385
1040
290.5
1040
384.988236
1040
288.776923
1040
390.372851
1040
288.776923
1040
391.0
1040
290.5
1071
        4
1005
CDA
1005
CDB
1005
CD9
1005
CE3
1071
        7
1070
     0
1070
     1
1071
        4
1040
388.452208
1040
283.5
1040
389.236144
1040
285.653846
1040
383.851529
1040
285.653846
1040
383.067593
1040
283.5
1071
        4
1005
CD3
1005
CD4
1005
CD5
1005
CD2
1071
        7
1070
     0
1070
     1
1071
       22
1040
395.452208
1040
283.5
1040
396.941687
1040
287.592308
1040
397.749379
1040
287.592308
1040
398.337331
1040
289.207692
1040
397.529638
1040
289.207692
1040
398.0
1040
290.5
1040
396.923077
1040
290.5
1040
396.452715
1040
289.207692
1040
393.760408
1040
289.207692
1040
394.230769
1040
290.5
1040
393.153846
1040
290.5
1040
392.683485
1040
289.207692
1040
391.875792
1040
289.207692
1040
391.28784
1040
287.592308
1040
392.095533
1040
287.592308
1040
391.703565
1040
286.515385
1040
392.780488
1040
286.515385
1040
393.172456
1040
287.592308
1040
395.864763
1040
287.592308
1040
395.159221
1040
285.653846
1040
391.174606
1040
285.653846
1040
390.39067
1040
283.5
1071
       22
1005
CFB
1005
CFC
1005
CFA
1005
CF9
1005
CF8
1005
CFE
1005
CBC
1005
CDE
1005
CDD
1005
CE2
1005
CDF
1005
CE1
1005
CE0
1005
CD1
1005
CD7
1005
CD0
1005
CBD
1005
CBF
1005
CD6
1005
CD8
1005
CBE
1005
CF0
1071
        7
1070
     0
1070
     1
1071
        6
1040
398.194006
1040
285.115385
1040
397.606055
1040
283.5
1040
401.913747
1040
283.5
1040
403.873587
1040
288.884615
1040
402.796663
1040
288.884615
1040
401.424776
1040
285.115385
1071
        6
1005
D01
1005
CEF
1005
CF3
1005
CF4
1005
CF1
1005
CEE
1071
       23
1070
     0
1070
     1
1071
        4
1040
402.042817
1040
288.884615
1040
400.965894
1040
288.884615
1040
400.181958
1040
286.730769
1040
401.258881
1040
286.730769
1071
        4
1005
CF7
1005
CEB
1005
CF5
1005
CED
1071
       23
1070
     0
1070
     1
1071
        4
1040
400.642817
1040
288.884615
1040
399.565894
1040
288.884615
1040
398.781958
1040
286.730769
1040
399.858881
1040
286.730769
1071
        4
1005
CFD
1005
CEA
1005
CF2
1005
CEC
1071
       23
1070
     0
1070
     1
1071
        4
1040
406.615385
1040
290.5
1040
405.988236
1040
288.776923
1040
409.219005
1040
288.776923
1040
409.846154
1040
290.5
1071
        4
1005
CE9
1005
CFF
1005
CE8
1005
D04
1071
       23
1070
     0
1070
     1
1071
        4
1040
405.753055
1040
288.130769
1040
405.282694
1040
286.838462
1040
408.513463
1040
286.838462
1040
408.983824
1040
288.130769
1071
        4
1005
CE4
1005
D00
1005
CE5
1005
D06
1071
        7
1070
     0
1070
     1
1071
        6
1040
409.452208
1040
283.5
1040
412.0
1040
290.5
1040
410.923077
1040
290.5
1040
409.159221
1040
285.653846
1040
404.851529
1040
285.653846
1040
404.067593
1040
283.5
1071
        6
1005
D05
1005
D02
1005
CE7
1005
CF6
1005
CE6
1005
D03
1070
     0
1070
     1
1040
0.054099
1071
       15
1040
371.248373
1040
289.881409
1040
0.0
1040
373.901118
1040
288.907633
1040
0.0
1040
373.901118
1040
288.907633
1040
0.0
1040
373.901118
1040
288.907633
1040
0.0
1040
373.901118
1040
288.907633
1040
0.0
1040
380.3435
1040
289.82731
1040
0.0
1040
388.247597
1040
289.665014
1040
0.0
1040
386.515192
1040
284.146949
1040
0.0
1040
392.578609
1040
284.255146
1040
0.0
1040
400.536845
1040
284.309245
1040
0.0
1040
401.024083
1040
287.555166
1040
0.0
1040
399.72478
1040
287.609264
1040
0.0
1040
407.358189
1040
289.989606
1040
0.0
1040
407.141639
1040
287.501067
1040
0.0
1040
407.195776
1040
284.471541
1040
0.0
1002
}
  0
TEXT
  5
448D
  8
WAKU
  6
CONTINUOUS
 10
10.0
 20
285.5
 30
0.0
 40
3.0
  1
FNS-70
 41
0.868
  7
STANDARD
 11
10.0
 21
287.0
 31
0.0
 73
     2
  0
TEXT
  5
D570
  8
WAKU
  6
CONTINUOUS
 10
35.0
 20
284.5
 30
0.0
 40
5.0
  1
外動片引き断面詳細図　Ｄタイプ（Fix部硝子溝15mm）
 41
0.913
  7
STANDARD
 11
35.0
 21
287.0
 31
0.0
 73
     2
  0
LINE
  5
10A59
  8
DANMEN
  6
CONTINUOUS
 10
204.500002
 20
130.0
 30
0.0
 11
205.199998
 21
130.0
 31
0.0
  0
LINE
  5
10A5A
  8
DANMEN
  6
CONTINUOUS
 10
204.500002
 20
145.0
 30
0.0
 11
205.199998
 21
145.0
 31
0.0
  0
LINE
  5
10A5B
  8
DANMEN
  6
CONTINUOUS
 10
213.963123
 20
149.494468
 30
0.0
 11
204.851661
 21
148.127749
 31
0.0
  0
LINE
  5
10A5C
  8
DANMEN
  6
CONTINUOUS
 10
213.963123
 20
125.505532
 30
0.0
 11
204.851661
 21
126.872251
 31
0.0
  0
LINE
  5
10A5D
  8
DANMEN
  6
CONTINUOUS
 10
205.682602
 20
122.5
 30
0.0
 11
202.476376
 21
129.159119
 31
0.0
  0
LINE
  5
10A5E
  8
DANMEN
  6
CONTINUOUS
 10
206.122479
 20
123.2
 30
0.0
 11
202.908279
 21
129.87568
 31
0.0
  0
LINE
  5
10A5F
  8
DANMEN
  6
CONTINUOUS
 10
201.0
 20
136.8
 30
0.0
 11
205.850995
 21
136.8
 31
0.0
  0
LINE
  5
10A60
  8
DANMEN
  6
CONTINUOUS
 10
201.0
 20
135.0
 30
0.0
 11
205.917205
 21
135.0
 31
0.0
  0
LINE
  5
10A61
  8
DANMEN
  6
CONTINUOUS
 10
201.0
 20
119.0
 30
0.0
 11
213.5
 21
119.0
 31
0.0
  0
LINE
  5
10A62
  8
DANMEN
  6
CONTINUOUS
 10
203.0
 20
154.850006
 30
0.0
 11
215.5
 21
154.850006
 31
0.0
  0
LINE
  5
10A63
  8
DANMEN
  6
CONTINUOUS
 10
203.0
 20
88.149994
 30
0.0
 11
215.5
 21
88.149994
 31
0.0
  0
LINE
  5
10A64
  8
DANMEN
  6
CONTINUOUS
 10
191.5
 20
156.5
 30
0.0
 11
215.5
 21
156.5
 31
0.0
  0
LINE
  5
10A65
  8
DANMEN
  6
CONTINUOUS
 10
191.5
 20
86.5
 30
0.0
 11
215.5
 21
86.5
 31
0.0
  0
LINE
  5
10A66
  8
DANMEN
  6
CONTINUOUS
 10
201.0
 20
120.1
 30
0.0
 11
206.0
 21
120.1
 31
0.0
  0
LINE
  5
10A67
  8
DANMEN
  6
CONTINUOUS
 10
201.0
 20
130.0
 30
0.0
 11
217.0
 21
130.0
 31
0.0
  0
LINE
  5
10A68
  8
DANMEN
  6
CONTINUOUS
 10
201.0
 20
144.0
 30
0.0
 11
217.0
 21
144.0
 31
0.0
  0
LINE
  5
10A69
  8
DANMEN
  6
CONTINUOUS
 10
201.0
 20
139.0
 30
0.0
 11
217.0
 21
139.0
 31
0.0
  0
LINE
  5
10A6A
  8
DANMEN
  6
CONTINUOUS
 10
201.0
 20
119.0
 30
0.0
 11
214.0
 21
119.0
 31
0.0
  0
LINE
  5
10A6B
  8
DANMEN
  6
CONTINUOUS
 10
201.0
 20
97.5
 30
0.0
 11
263.5
 21
97.5
 31
0.0
  0
LINE
  5
10A6C
  8
DANMEN
  6
CONTINUOUS
 10
201.0
 20
149.5
 30
0.0
 11
263.5
 21
149.5
 31
0.0
  0
LINE
  5
10A6D
  8
DANMEN
  6
CONTINUOUS
 10
206.5
 20
122.5
 30
0.0
 11
201.0
 21
122.5
 31
0.0
  0
LINE
  5
10A72
  8
DANMEN
  6
CONTINUOUS
 10
201.0
 20
119.0
 30
0.0
 11
201.0
 21
87.6
 31
0.0
  0
LINE
  5
10A73
  8
DANMEN
  6
CONTINUOUS
 10
199.350006
 20
154.850006
 30
0.0
 11
199.350006
 21
88.149994
 31
0.0
  0
LINE
  5
10A74
  8
DANMEN
  6
CONTINUOUS
 10
143.0
 20
169.0
 30
0.0
 11
143.0
 21
119.497915
 31
0.0
  0
LINE
  5
10A75
  8
DANMEN
  6
CONTINUOUS
 10
111.0
 20
169.0
 30
0.0
 11
111.0
 21
94.0
 31
0.0
  0
LINE
  5
10A76
  8
DANMEN
  6
CONTINUOUS
 10
85.999985
 20
169.0
 30
0.0
 11
85.999985
 21
99.0
 31
0.0
  0
LINE
  5
10A77
  8
DANMEN
  6
CONTINUOUS
 10
102.000015
 20
169.0
 30
0.0
 11
102.000015
 21
99.0
 31
0.0
  0
LINE
  5
10A78
  8
DANMEN
  6
CONTINUOUS
 10
104.0
 20
169.0
 30
0.0
 11
104.0
 21
99.0
 31
0.0
  0
LINE
  5
10A79
  8
DANMEN
  6
CONTINUOUS
 10
84.0
 20
169.0
 30
0.0
 11
84.0
 21
99.0
 31
0.0
  0
LINE
  5
10A7A
  8
DANMEN
  6
CONTINUOUS
 10
95.999986
 20
92.0
 30
0.0
 11
95.999986
 21
169.0
 31
0.0
  0
LINE
  5
10A7B
  8
DANMEN
  6
CONTINUOUS
 10
91.999998
 20
92.0
 30
0.0
 11
91.999998
 21
169.0
 31
0.0
  0
LINE
  5
10A7C
  8
DANMEN
  6
CONTINUOUS
 10
91.499998
 20
92.0
 30
0.0
 11
91.499998
 21
169.0
 31
0.0
  0
LINE
  5
10A7D
  8
DANMEN
  6
CONTINUOUS
 10
96.499986
 20
92.0
 30
0.0
 11
96.499986
 21
169.0
 31
0.0
  0
LINE
  5
10A7E
  8
DANMEN
  6
DASHED
 10
81.5
 20
169.0
 30
0.0
 11
81.5
 21
99.0
 31
0.0
  0
LINE
  5
10A7F
  8
DANMEN
  6
CONTINUOUS
 10
78.5
 20
169.0
 30
0.0
 11
78.5
 21
99.0
 31
0.0
  0
LINE
  5
10A80
  8
DANMEN
  6
CONTINUOUS
 10
46.649994
 20
169.0
 30
0.0
 11
46.649994
 21
41.0
 31
0.0
  0
LINE
  5
10A81
  8
DANMEN
  6
CONTINUOUS
 10
52.0
 20
169.0
 30
0.0
 11
52.0
 21
59.0
 31
0.0
  0
LINE
  5
10A82
  8
DANMEN
  6
CONTINUOUS
 10
76.0
 20
169.0
 30
0.0
 11
76.0
 21
87.5
 31
0.0
  0
LINE
  5
10A83
  8
DANMEN
  6
CONTINUOUS
 10
45.0
 20
169.0
 30
0.0
 11
45.0
 21
42.765549
 31
0.0
  0
LINE
  5
10A84
  8
DANMEN
  6
CONTINUOUS
 10
97.55285
 20
63.664289
 30
0.0
 11
71.943326
 21
52.392373
 31
0.0
  0
LINE
  5
10A85
  8
DANMEN
  6
CONTINUOUS
 10
96.5
 20
65.003636
 30
0.0
 11
71.5
 21
54.0
 31
0.0
  0
LINE
  5
10A89
  8
DANMEN
  6
CONTINUOUS
 10
68.0
 20
59.0
 30
0.0
 11
76.0
 21
59.0
 31
0.0
  0
LINE
  5
10A8A
  8
DANMEN
  6
CONTINUOUS
 10
58.5
 20
39.0
 30
0.0
 11
115.0
 21
39.0
 31
0.0
  0
LINE
  5
10A8B
  8
DANMEN
  6
CONTINUOUS
 10
57.0
 20
39.0
 30
0.0
 11
57.0
 21
30.5
 31
0.0
  0
LINE
  5
10A8C
  8
DANMEN
  6
CONTINUOUS
 10
58.5
 20
39.649994
 30
0.0
 11
58.5
 21
30.5
 31
0.0
  0
ARC
  5
10A8D
  8
DANMEN
  6
CONTINUOUS
 10
57.5
 20
30.5
 30
0.0
 40
0.5
 50
180.000019
 51
270.000001
  0
LINE
  5
10A91
  8
DANMEN
  6
CONTINUOUS
 10
57.5
 20
30.0
 30
0.0
 11
58.0
 21
30.0
 31
0.0
  0
ARC
  5
10A93
  8
DANMEN
  6
CONTINUOUS
 10
58.0
 20
30.5
 30
0.0
 40
0.5
 50
270.000018
 51
0.0
  0
LINE
  5
10A94
  8
DANMEN
  6
CONTINUOUS
 10
62.0
 20
100.0
 30
0.0
 11
62.0
 21
64.0
 31
0.0
  0
LINE
  5
10A95
  8
DANMEN
  6
CONTINUOUS
 10
66.0
 20
100.0
 30
0.0
 11
66.0
 21
64.0
 31
0.0
  0
LINE
  5
10A96
  8
DANMEN
  6
CONTINUOUS
 10
67.5
 20
100.0
 30
0.0
 11
67.5
 21
64.0
 31
0.0
  0
LINE
  5
10A97
  8
DANMEN
  6
CONTINUOUS
 10
60.5
 20
100.0
 30
0.0
 11
60.5
 21
64.0
 31
0.0
  0
LINE
  5
10A98
  8
DANMEN
  6
CONTINUOUS
 10
68.0
 20
95.5
 30
0.0
 11
68.0
 21
68.499985
 31
0.0
  0
LINE
  5
10A99
  8
DANMEN
  6
CONTINUOUS
 10
60.0
 20
95.499985
 30
0.0
 11
60.0
 21
68.499985
 31
0.0
  0
ARC
  5
10A9B
  8
DANMEN
  6
CONTINUOUS
 10
58.00999
 20
52.0
 30
0.0
 40
2.0
 50
90.0
 51
118.610582
  0
LINE
  5
10A9C
  8
DANMEN
  6
CONTINUOUS
 10
53.649994
 20
40.649994
 30
0.0
 11
57.5
 21
40.649994
 31
0.0
  0
LINE
  5
10A9D
  8
DANMEN
  6
CONTINUOUS
 10
57.920742
 20
52.35
 30
0.0
 11
53.649994
 21
50.020489
 31
0.0
  0
LINE
  5
10A9E
  8
DANMEN
  6
CONTINUOUS
 10
52.0
 20
50.406353
 30
0.0
 11
52.0
 21
41.0
 31
0.0
  0
LINE
  5
10A9F
  8
DANMEN
  6
CONTINUOUS
 10
53.649994
 20
50.020489
 30
0.0
 11
53.649994
 21
40.649994
 31
0.0
  0
LINE
  5
10AA0
  8
DANMEN
  6
CONTINUOUS
 10
42.276393
 20
42.661806
 30
0.0
 11
45.0
 21
41.300003
 31
0.0
  0
LINE
  5
10AA1
  8
DANMEN
  6
CONTINUOUS
 10
43.199997
 20
43.429842
 30
0.0
 11
45.823607
 21
42.118037
 31
0.0
  0
LINE
  5
10AA2
  8
DANMEN
  6
CONTINUOUS
 10
46.1
 20
41.0
 30
0.0
 11
52.0
 21
41.0
 31
0.0
  0
LINE
  5
10AA3
  8
DANMEN
  6
CONTINUOUS
 10
45.800003
 20
39.9
 30
0.0
 11
52.0
 21
39.9
 31
0.0
  0
LINE
  5
10AA4
  8
DANMEN
  6
CONTINUOUS
 10
45.570786
 20
39.0
 30
0.0
 11
52.33287
 21
39.0
 31
0.0
  0
ARC
  5
10AA5
  8
DANMEN
  6
CONTINUOUS
 10
45.399994
 20
39.399994
 30
0.0
 40
0.4
 50
180.000019
 51
359.999983
  0
LINE
  5
10AA6
  8
DANMEN
  6
CONTINUOUS
 10
45.0
 20
41.300003
 30
0.0
 11
45.0
 21
39.399994
 31
0.0
  0
LINE
  5
10AAB
  8
DANMEN
  6
CONTINUOUS
 10
45.800003
 20
39.9
 30
0.0
 11
45.800003
 21
39.399994
 31
0.0
  0
LINE
  5
10AAD
  8
DANMEN
  6
CONTINUOUS
 10
46.1
 20
41.670823
 30
0.0
 11
46.1
 21
41.0
 31
0.0
  0
ARC
  5
10AAE
  8
DANMEN
  6
CONTINUOUS
 10
45.6
 20
41.670823
 30
0.0
 40
0.5
 50
0.0
 51
63.434949
  0
LINE
  5
10AB2
  8
DANMEN
  6
CONTINUOUS
 10
52.5
 20
39.0
 30
0.0
 11
57.0
 21
39.0
 31
0.0
  0
ARC
  5
10AB4
  8
DANMEN
  6
CONTINUOUS
 10
52.5
 20
39.5
 30
0.0
 40
0.5
 50
180.000019
 51
270.000001
  0
LINE
  5
10AB5
  8
DANMEN
  6
CONTINUOUS
 10
52.0
 20
39.9
 30
0.0
 11
52.0
 21
39.5
 31
0.0
  0
LINE
  5
10ABA
  8
DANMEN
  6
CONTINUOUS
 10
42.0
 20
48.399994
 30
0.0
 11
42.0
 21
43.10902
 31
0.0
  0
LINE
  5
10ABB
  8
DANMEN
  6
CONTINUOUS
 10
43.199997
 20
48.399994
 30
0.0
 11
43.199997
 21
43.429842
 31
0.0
  0
ARC
  5
10ABC
  8
DANMEN
  6
CONTINUOUS
 10
42.600006
 20
48.399994
 30
0.0
 40
0.6
 50
0.0
 51
180.000019
  0
ARC
  5
10ABE
  8
DANMEN
  6
CONTINUOUS
 10
42.5
 20
43.10902
 30
0.0
 40
0.5
 50
180.0
 51
243.434949
  0
LINE
  5
10AC2
  8
DANMEN
  6
CONTINUOUS
 10
57.052282
 20
53.755789
 30
0.0
 11
52.521146
 21
51.284248
 31
0.0
  0
ARC
  5
10AC4
  8
DANMEN
  6
CONTINUOUS
 10
53.0
 20
50.406353
 30
0.0
 40
1.0
 50
118.610582
 51
180.0
  0
ARC
  5
10AC7
  8
DANMEN
  6
CONTINUOUS
 10
57.5
 20
39.649994
 30
0.0
 40
1.0
 50
0.0
 51
89.999982
  0
LINE
  5
10AC8
  8
DANMEN
  6
CONTINUOUS
 10
65.2
 20
52.3
 30
0.0
 11
66.8
 21
52.3
 31
0.0
  0
LINE
  5
10AC9
  8
DANMEN
  6
CONTINUOUS
 10
57.920742
 20
52.35
 30
0.0
 11
61.7
 21
52.35
 31
0.0
  0
ARC
  5
10ACB
  8
DANMEN
  6
CONTINUOUS
 10
64.6
 20
48.7
 30
0.0
 40
0.3
 50
270.0
 51
0.0
  0
LINE
  5
10ACC
  8
DANMEN
  6
CONTINUOUS
 10
63.460621
 20
48.4
 30
0.0
 11
64.6
 21
48.4
 31
0.0
  0
LINE
  5
10ACD
  8
DANMEN
  6
CONTINUOUS
 10
64.2
 20
50.053939
 30
0.0
 11
64.2
 21
51.3
 31
0.0
  0
LINE
  5
10ACE
  8
DANMEN
  6
CONTINUOUS
 10
62.7
 20
49.969694
 30
0.0
 11
62.7
 21
51.35
 31
0.0
  0
ARC
  5
10ACF
  8
DANMEN
  6
CONTINUOUS
 10
65.2
 20
51.3
 30
0.0
 40
1.0
 50
90.0
 51
180.0
  0
LINE
  5
10AD0
  8
DANMEN
  6
CONTINUOUS
 10
64.9
 20
48.7
 30
0.0
 11
64.9
 21
48.963068
 31
0.0
  0
ARC
  5
10AD1
  8
DANMEN
  6
CONTINUOUS
 10
65.2
 20
50.053939
 30
0.0
 40
1.0
 50
180.0
 51
245.375682
  0
ARC
  5
10AD2
  8
DANMEN
  6
CONTINUOUS
 10
64.7
 20
48.963068
 30
0.0
 40
0.2
 50
0.0
 51
65.375682
  0
ARC
  5
10AD3
  8
DANMEN
  6
CONTINUOUS
 10
64.7
 20
49.969694
 30
0.0
 40
2.0
 50
180.0
 51
231.706523
  0
ARC
  5
10AD4
  8
DANMEN
  6
CONTINUOUS
 10
61.7
 20
51.35
 30
0.0
 40
1.0
 50
0.0
 51
90.0
  0
LINE
  5
10AD6
  8
DANMEN
  6
CONTINUOUS
 10
67.956524
 20
48.4
 30
0.0
 11
68.601274
 21
46.917076
 31
0.0
  0
ARC
  5
10AD7
  8
DANMEN
  6
CONTINUOUS
 10
72.927452
 20
48.252808
 30
0.0
 40
0.5
 50
293.49856
 51
23.49856
  0
ARC
  5
10AD8
  8
DANMEN
  6
CONTINUOUS
 10
69.518344
 20
47.315802
 30
0.0
 40
1.0
 50
203.49856
 51
293.49856
  0
LINE
  5
10ADC
  8
DANMEN
  6
CONTINUOUS
 10
73.126815
 20
47.794273
 30
0.0
 11
69.91707
 21
46.398732
 31
0.0
  0
LINE
  5
10ADE
  8
DANMEN
  6
CONTINUOUS
 10
69.3
 20
52.350006
 30
0.0
 11
71.741901
 21
52.350006
 31
0.0
  0
LINE
  5
10ADF
  8
DANMEN
  6
CONTINUOUS
 10
69.3
 20
49.448185
 30
0.0
 11
69.855268
 21
48.171069
 31
0.0
  0
ARC
  5
10AE1
  8
DANMEN
  6
CONTINUOUS
 10
67.4
 20
48.7
 30
0.0
 40
0.3
 50
180.0
 51
270.0
  0
LINE
  5
10AE2
  8
DANMEN
  6
CONTINUOUS
 10
67.4
 20
48.4
 30
0.0
 11
67.956524
 21
48.4
 31
0.0
  0
ARC
  5
10AE3
  8
DANMEN
  6
CONTINUOUS
 10
66.8
 20
51.3
 30
0.0
 40
1.0
 50
0.0
 51
90.0
  0
LINE
  5
10AE4
  8
DANMEN
  6
CONTINUOUS
 10
67.8
 20
50.053939
 30
0.0
 11
67.8
 21
51.3
 31
0.0
  0
LINE
  5
10AE5
  8
DANMEN
  6
CONTINUOUS
 10
69.3
 20
49.448185
 30
0.0
 11
69.3
 21
52.350006
 31
0.0
  0
ARC
  5
10AE6
  8
DANMEN
  6
CONTINUOUS
 10
67.3
 20
48.963068
 30
0.0
 40
0.2
 50
114.624318
 51
180.0
  0
ARC
  5
10AE7
  8
DANMEN
  6
CONTINUOUS
 10
66.8
 20
50.053939
 30
0.0
 40
1.0
 50
294.624318
 51
0.0
  0
LINE
  5
10AE8
  8
DANMEN
  6
CONTINUOUS
 10
67.1
 20
48.7
 30
0.0
 11
67.1
 21
48.963068
 31
0.0
  0
ARC
  5
10AEC
  8
DANMEN
  6
CONTINUOUS
 10
71.741901
 20
52.850006
 30
0.0
 40
0.5
 50
270.0
 51
293.756476
  0
LINE
  5
10AED
  8
DANMEN
  6
CONTINUOUS
 10
72.468917
 20
49.307438
 30
0.0
 11
69.855268
 21
48.171069
 31
0.0
  0
LINE
  5
10AEE
  8
DANMEN
  6
CONTINUOUS
 10
73.126816
 20
49.048266
 30
0.0
 11
73.385987
 21
48.452171
 31
0.0
  0
ARC
  5
10AEF
  8
DANMEN
  6
CONTINUOUS
 10
72.66828
 20
48.848903
 30
0.0
 40
0.5
 50
23.49856
 51
113.49856
  0
LINE
  5
10AF4
  8
DANMEN
  6
CONTINUOUS
 10
55.649997
 20
59.0
 30
0.0
 11
60.0
 21
59.0
 31
0.0
  0
LINE
  5
10AF7
  8
DANMEN
  6
CONTINUOUS
 10
52.0
 20
59.0
 30
0.0
 11
54.699999
 21
59.0
 31
0.0
  0
ARC
  5
10B0B
  8
DANMEN
  6
CONTINUOUS
 10
64.0
 20
63.0
 30
0.0
 40
3.0
 50
48.189683
 51
131.810302
  0
ARC
  5
10B0C
  8
DANMEN
  6
CONTINUOUS
 10
63.0
 20
65.29129
 30
0.0
 40
0.5
 50
113.578068
 51
179.999745
  0
ARC
  5
10B0D
  8
DANMEN
  6
CONTINUOUS
 10
65.0
 20
65.29129
 30
0.0
 40
0.5
 50
0.000279
 51
66.42195
  0
ARC
  5
10B0E
  8
DANMEN
  6
CONTINUOUS
 10
64.0
 20
65.0
 30
0.0
 40
4.0
 50
0.0
 51
180.000019
  0
LINE
  5
10B0F
  8
DANMEN
  6
CONTINUOUS
 10
65.5
 20
54.0
 30
0.0
 11
71.5
 21
54.0
 31
0.0
  0
LINE
  5
10B10
  8
DANMEN
  6
CONTINUOUS
 10
65.5
 20
65.29129
 30
0.0
 11
65.5
 21
54.0
 31
0.0
  0
LINE
  5
10B11
  8
DANMEN
  6
CONTINUOUS
 10
63.850006
 20
61.847046
 30
0.0
 11
63.850006
 21
54.0
 31
0.0
  0
LINE
  5
10B12
  8
DANMEN
  6
CONTINUOUS
 10
60.0
 20
65.0
 30
0.0
 11
60.0
 21
59.0
 31
0.0
  0
LINE
  5
10B13
  8
DANMEN
  6
CONTINUOUS
 10
58.00999
 20
54.0
 30
0.0
 11
63.850006
 21
54.0
 31
0.0
  0
LINE
  5
10B17
  8
DANMEN
  6
CONTINUOUS
 10
60.5
 20
64.0
 30
0.0
 11
62.0
 21
64.0
 31
0.0
  0
LINE
  5
10B18
  8
DANMEN
  6
CONTINUOUS
 10
62.5
 20
65.29129
 30
0.0
 11
62.5
 21
64.152954
 31
0.0
  0
LINE
  5
10B1B
  8
DANMEN
  6
CONTINUOUS
 10
63.764431
 20
62.126784
 30
0.0
 11
62.585579
 21
63.873223
 31
0.0
  0
ARC
  5
10B1C
  8
DANMEN
  6
CONTINUOUS
 10
63.350006
 20
61.847046
 30
0.0
 40
0.5
 50
0.000664
 51
34.020021
  0
ARC
  5
10B1D
  8
DANMEN
  6
CONTINUOUS
 10
63.0
 20
64.152954
 30
0.0
 40
0.5
 50
180.000309
 51
214.019733
  0
LINE
  5
10B1E
  8
DANMEN
  6
CONTINUOUS
 10
68.0
 20
65.0
 30
0.0
 11
68.0
 21
59.0
 31
0.0
  0
LINE
  5
10B20
  8
DANMEN
  6
CONTINUOUS
 10
66.0
 20
64.0
 30
0.0
 11
67.5
 21
64.0
 31
0.0
  0
LINE
  5
10B22
  8
DANMEN
  6
CONTINUOUS
 10
59.999959
 20
68.499942
 30
0.0
 11
60.49996
 21
67.999941
 31
0.0
  0
ARC
  5
10B28
  8
DANMEN
  6
CONTINUOUS
 10
64.0
 20
63.0
 30
0.0
 40
3.0
 50
66.421841
 51
113.578178
  0
LINE
  5
10B31
  8
DANMEN
  6
CONTINUOUS
 10
67.499925
 20
67.99994
 30
0.0
 11
67.999925
 21
68.499939
 31
0.0
  0
ARC
  5
10B52
  8
DANMEN
  6
CONTINUOUS
 10
64.0
 20
101.5
 30
0.0
 40
3.5
 50
235.150098
 51
304.84989
  0
LINE
  5
10B53
  8
DANMEN
  6
CONTINUOUS
 10
60.5
 20
100.0
 30
0.0
 11
62.0
 21
100.0
 31
0.0
  0
LINE
  5
10B54
  8
DANMEN
  6
CONTINUOUS
 10
59.999965
 20
95.499879
 30
0.0
 11
60.499965
 21
95.99988
 31
0.0
  0
LINE
  5
10B56
  8
DANMEN
  6
CONTINUOUS
 10
67.499938
 20
95.999912
 30
0.0
 11
67.999938
 21
95.499912
 31
0.0
  0
LINE
  5
10B57
  8
DANMEN
  6
CONTINUOUS
 10
66.0
 20
100.0
 30
0.0
 11
67.5
 21
100.0
 31
0.0
  0
LINE
  5
10B83
  8
DANMEN
  6
CONTINUOUS
 10
80.2
 20
78.7
 30
0.0
 11
80.2
 21
77.0
 31
0.0
  0
LINE
  5
10B84
  8
DANMEN
  6
CONTINUOUS
 10
79.0
 20
78.7
 30
0.0
 11
79.0
 21
77.0
 31
0.0
  0
ARC
  5
10B85
  8
DANMEN
  6
CONTINUOUS
 10
76.282155
 20
77.336342
 30
0.0
 40
0.25
 50
179.716853
 51
357.49922
  0
LINE
  5
10B86
  8
DANMEN
  6
CONTINUOUS
 10
76.8174
 20
78.179877
 30
0.0
 11
77.6
 21
76.7
 31
0.0
  0
LINE
  5
10B87
  8
DANMEN
  6
CONTINUOUS
 10
77.0826
 20
78.320122
 30
0.0
 11
77.780718
 21
77.0
 31
0.0
  0
LINE
  5
10B88
  8
DANMEN
  6
CONTINUOUS
 10
96.5
 20
77.2
 30
0.0
 11
96.5
 21
65.003636
 31
0.0
  0
LINE
  5
10B89
  8
DANMEN
  6
CONTINUOUS
 10
81.500003
 20
81.0
 30
0.0
 11
81.500003
 21
74.8
 31
0.0
  0
LINE
  5
10B8A
  8
DANMEN
  6
CONTINUOUS
 10
82.5
 20
80.2
 30
0.0
 11
82.5
 21
74.5
 31
0.0
  0
LINE
  5
10B8B
  8
DANMEN
  6
CONTINUOUS
 10
103.2
 20
75.666295
 30
0.0
 11
103.2
 21
79.35
 31
0.0
  0
ARC
  5
10B8C
  8
DANMEN
  6
CONTINUOUS
 10
99.2
 20
76.3
 30
0.0
 40
1.0
 50
90.0
 51
180.0
  0
ARC
  5
10B8D
  8
DANMEN
  6
CONTINUOUS
 10
100.7
 20
76.3
 30
0.0
 40
1.0
 50
0.0
 51
90.0
  0
ARC
  5
10B8E
  8
DANMEN
  6
CONTINUOUS
 10
85.0
 20
78.2
 30
0.0
 40
1.0
 50
180.0
 51
270.0
  0
LINE
  5
10B8F
  8
DANMEN
  6
CONTINUOUS
 10
96.5
 20
77.2
 30
0.0
 11
95.5
 21
76.5
 31
0.0
  0
LINE
  5
10B90
  8
DANMEN
  6
CONTINUOUS
 10
89.5
 20
76.5
 30
0.0
 11
88.5
 21
77.2
 31
0.0
  0
LINE
  5
10B91
  8
DANMEN
  6
CONTINUOUS
 10
115.0
 20
98.5
 30
0.0
 11
115.0
 21
64.5
 31
0.0
  0
LINE
  5
10B92
  8
DANMEN
  6
CONTINUOUS
 10
113.350006
 20
79.35
 30
0.0
 11
113.350006
 21
67.08182
 31
0.0
  0
LINE
  5
10B95
  8
DANMEN
  6
CONTINUOUS
 10
89.5
 20
76.5
 30
0.0
 11
95.5
 21
76.5
 31
0.0
  0
LINE
  5
10B96
  8
DANMEN
  6
CONTINUOUS
 10
76.0
 20
74.500007
 30
0.0
 11
76.0
 21
59.0
 31
0.0
  0
LINE
  5
10B97
  8
DANMEN
  6
CONTINUOUS
 10
79.5
 20
74.0
 30
0.0
 11
82.000003
 21
74.0
 31
0.0
  0
LINE
  5
10B98
  8
DANMEN
  6
CONTINUOUS
 10
77.780719
 20
77.0
 30
0.0
 11
79.0
 21
77.0
 31
0.0
  0
LINE
  5
10B99
  8
DANMEN
  6
CONTINUOUS
 10
77.6
 20
76.7
 30
0.0
 11
78.4
 21
76.7
 31
0.0
  0
LINE
  5
10BA1
  8
DANMEN
  6
CONTINUOUS
 10
80.2
 20
75.0
 30
0.0
 11
80.8
 21
75.0
 31
0.0
  0
LINE
  5
10BA2
  8
DANMEN
  6
CONTINUOUS
 10
79.0
 20
76.199999
 30
0.0
 11
79.0
 21
75.199999
 31
0.0
  0
ARC
  5
10BA4
  8
DANMEN
  6
CONTINUOUS
 10
80.8
 20
75.199999
 30
0.0
 40
0.2
 50
270.000018
 51
0.0
  0
ARC
  5
10BA6
  8
DANMEN
  6
CONTINUOUS
 10
80.2
 20
75.199999
 30
0.0
 40
0.2
 50
180.000019
 51
270.000001
  0
LINE
  5
10BA7
  8
DANMEN
  6
CONTINUOUS
 10
81.0
 20
76.199999
 30
0.0
 11
81.0
 21
75.199999
 31
0.0
  0
LINE
  5
10BA9
  8
DANMEN
  6
CONTINUOUS
 10
80.2
 20
77.0
 30
0.0
 11
81.0
 21
76.2
 31
0.0
  0
LINE
  5
10BAA
  8
DANMEN
  6
CONTINUOUS
 10
80.0
 20
76.199999
 30
0.0
 11
80.0
 21
75.199999
 31
0.0
  0
LINE
  5
10BAB
  8
DANMEN
  6
CONTINUOUS
 10
78.599999
 20
75.199999
 30
0.0
 11
79.0
 21
75.199999
 31
0.0
  0
LINE
  5
10BAD
  8
DANMEN
  6
CONTINUOUS
 10
79.0
 20
76.199999
 30
0.0
 11
80.0
 21
76.199999
 31
0.0
  0
LINE
  5
10BB0
  8
DANMEN
  6
CONTINUOUS
 10
78.4
 20
76.7
 30
0.0
 11
78.4
 21
75.399999
 31
0.0
  0
ARC
  5
10BB2
  8
DANMEN
  6
CONTINUOUS
 10
78.599999
 20
75.399999
 30
0.0
 40
0.2
 50
180.000019
 51
270.000001
  0
LINE
  5
10BB6
  8
DANMEN
  6
CONTINUOUS
 10
79.0
 20
75.699997
 30
0.0
 11
79.0
 21
74.5
 31
0.0
  0
LINE
  5
10BB7
  8
DANMEN
  6
CONTINUOUS
 10
79.800003
 20
76.199997
 30
0.0
 11
79.800003
 21
74.8
 31
0.0
  0
ARC
  5
10BB8
  8
DANMEN
  6
CONTINUOUS
 10
79.5
 20
74.5
 30
0.0
 40
0.5
 50
180.000019
 51
270.000001
  0
ARC
  5
10BB9
  8
DANMEN
  6
CONTINUOUS
 10
79.5
 20
75.699997
 30
0.0
 40
0.5
 50
89.999982
 51
180.000019
  0
LINE
  5
10BBA
  8
DANMEN
  6
CONTINUOUS
 10
79.5
 20
76.199997
 30
0.0
 11
79.800003
 21
76.199997
 31
0.0
  0
LINE
  5
10BBB
  8
DANMEN
  6
CONTINUOUS
 10
79.800003
 20
74.8
 30
0.0
 11
81.5
 21
74.8
 31
0.0
  0
ARC
  5
10BC1
  8
DANMEN
  6
CONTINUOUS
 10
82.0
 20
74.5
 30
0.0
 40
0.5
 50
270.000018
 51
0.0
  0
LINE
  5
10BC4
  8
DANMEN
  6
CONTINUOUS
 10
98.15
 20
71.3
 30
0.0
 11
98.15
 21
64.579555
 31
0.0
  0
ARC
  5
10BC5
  8
DANMEN
  6
CONTINUOUS
 10
97.15
 20
64.579555
 30
0.0
 40
1.0
 50
293.756476
 51
0.0
  0
ARC
  5
10BC7
  8
DANMEN
  6
CONTINUOUS
 10
99.2
 20
74.8
 30
0.0
 40
1.0
 50
180.0
 51
270.0
  0
ARC
  5
10BC8
  8
DANMEN
  6
CONTINUOUS
 10
99.15
 20
71.3
 30
0.0
 40
1.0
 50
90.0
 51
180.0
  0
LINE
  5
10BC9
  8
DANMEN
  6
CONTINUOUS
 10
98.2
 20
74.8
 30
0.0
 11
98.2
 21
76.3
 31
0.0
  0
ARC
  5
10BCC
  8
DANMEN
  6
CONTINUOUS
 10
102.45
 20
75.666295
 30
0.0
 40
0.75
 50
180.0
 51
0.0
  0
LINE
  5
10BCD
  8
DANMEN
  6
CONTINUOUS
 10
101.7
 20
75.666295
 30
0.0
 11
101.7
 21
76.3
 31
0.0
  0
LINE
  5
10BCE
  8
DANMEN
  6
CONTINUOUS
 10
99.2
 20
73.8
 30
0.0
 11
99.833705
 21
73.8
 31
0.0
  0
LINE
  5
10BCF
  8
DANMEN
  6
CONTINUOUS
 10
99.15
 20
72.3
 30
0.0
 11
99.833705
 21
72.3
 31
0.0
  0
ARC
  5
10BD0
  8
DANMEN
  6
CONTINUOUS
 10
99.833705
 20
73.05
 30
0.0
 40
0.75
 50
270.0
 51
90.0
  0
LINE
  5
10BD2
  8
DANMEN
  6
CONTINUOUS
 10
115.0
 20
64.345612
 30
0.0
 11
115.0
 21
39.0
 31
0.0
  0
ARC
  5
10BD3
  8
DANMEN
  6
CONTINUOUS
 10
110.41465
 20
65.260364
 30
0.0
 40
0.5
 50
113.49856
 51
203.49856
  0
ARC
  5
10BD4
  8
DANMEN
  6
CONTINUOUS
 10
114.5
 20
64.5
 30
0.0
 40
0.5
 50
270.0
 51
0.0
  0
ARC
  5
10BD5
  8
DANMEN
  6
CONTINUOUS
 10
110.673822
 20
64.664268
 30
0.0
 40
0.5
 50
203.49856
 51
293.49856
  0
LINE
  5
10BD6
  8
DANMEN
  6
CONTINUOUS
 10
110.215287
 20
64.464905
 30
0.0
 11
109.956115
 21
65.061001
 31
0.0
  0
LINE
  5
10BD8
  8
DANMEN
  6
CONTINUOUS
 10
113.9
 20
64.0
 30
0.0
 11
114.5
 21
64.0
 31
0.0
  0
LINE
  5
10BD9
  8
DANMEN
  6
CONTINUOUS
 10
113.9
 20
64.759133
 30
0.0
 11
113.9
 21
64.0
 31
0.0
  0
LINE
  5
10BDB
  8
DANMEN
  6
CONTINUOUS
 10
113.200637
 20
65.217668
 30
0.0
 11
110.873185
 21
64.205733
 31
0.0
  0
ARC
  5
10BDC
  8
DANMEN
  6
CONTINUOUS
 10
113.4
 20
64.759133
 30
0.0
 40
0.5
 50
0.0
 51
113.49856
  0
LINE
  5
10BDE
  8
DANMEN
  6
CONTINUOUS
 10
113.350006
 20
67.08182
 30
0.0
 11
110.215287
 21
65.718899
 31
0.0
  0
LINE
  5
10BE5
  8
DANMEN
  6
CONTINUOUS
 10
102.05
 20
81.0
 30
0.0
 11
113.35
 21
81.0
 31
0.0
  0
LINE
  5
10BE6
  8
DANMEN
  6
CONTINUOUS
 10
103.2
 20
79.35
 30
0.0
 11
113.350006
 21
79.35
 31
0.0
  0
LINE
  5
10BE7
  8
DANMEN
  6
CONTINUOUS
 10
102.0
 20
92.2
 30
0.0
 11
113.35
 21
92.2
 31
0.0
  0
LINE
  5
10BE8
  8
DANMEN
  6
CONTINUOUS
 10
104.0
 20
94.0
 30
0.0
 11
113.35
 21
94.0
 31
0.0
  0
ARC
  5
10BE9
  8
DANMEN
  6
DASHED
 10
104.0
 20
99.699997
 30
0.0
 40
0.5
 50
0.0
 51
89.999982
  0
ARC
  5
10BEA
  8
DANMEN
  6
DASHED
 10
79.5
 20
99.699997
 30
0.0
 40
0.5
 50
90.0
 51
180.0
  0
ARC
  5
10BEB
  8
DANMEN
  6
CONTINUOUS
 10
87.500015
 20
99.999908
 30
0.0
 40
1.5
 50
90.000018
 51
180.0
  0
ARC
  5
10BEC
  8
DANMEN
  6
CONTINUOUS
 10
100.500015
 20
99.999908
 30
0.0
 40
1.5
 50
359.999964
 51
90.000001
  0
LINE
  5
10BED
  8
DANMEN
  6
DASHED
 10
100.0
 20
99.0
 30
0.0
 11
88.0
 21
99.0
 31
0.0
  0
LINE
  5
10BEE
  8
DANMEN
  6
DASHED
 10
104.0
 20
100.199997
 30
0.0
 11
79.5
 21
100.199997
 31
0.0
  0
LINE
  5
10BEF
  8
DANMEN
  6
CONTINUOUS
 10
85.8
 20
79.0
 30
0.0
 11
101.55
 21
79.0
 31
0.0
  0
LINE
  5
10BF0
  8
DANMEN
  6
CONTINUOUS
 10
89.0
 20
92.0
 30
0.0
 11
99.0
 21
92.0
 31
0.0
  0
LINE
  5
10BF1
  8
DANMEN
  6
CONTINUOUS
 10
99.0
 20
92.0
 30
0.0
 11
89.0
 21
79.0
 31
0.0
  0
LINE
  5
10BF2
  8
DANMEN
  6
CONTINUOUS
 10
84.0
 20
98.5
 30
0.0
 11
84.0
 21
82.0
 31
0.0
  0
LINE
  5
10BF3
  8
DANMEN
  6
CONTINUOUS
 10
85.8
 20
96.0
 30
0.0
 11
85.8
 21
79.0
 31
0.0
  0
LINE
  5
10BF4
  8
DANMEN
  6
CONTINUOUS
 10
84.0
 20
99.0
 30
0.0
 11
84.0
 21
82.0
 31
0.0
  0
LINE
  5
10BF5
  8
DANMEN
  6
CONTINUOUS
 10
84.0
 20
99.0
 30
0.0
 11
76.0
 21
82.0
 31
0.0
  0
LINE
  5
10BF6
  8
DANMEN
  6
CONTINUOUS
 10
76.0
 20
99.0
 30
0.0
 11
84.0
 21
82.0
 31
0.0
  0
LINE
  5
10BF7
  8
DANMEN
  6
CONTINUOUS
 10
89.0
 20
79.0
 30
0.0
 11
89.0
 21
92.0
 31
0.0
  0
LINE
  5
10BF8
  8
DANMEN
  6
CONTINUOUS
 10
79.5
 20
82.0
 30
0.0
 11
84.0
 21
82.0
 31
0.0
  0
LINE
  5
10BF9
  8
DANMEN
  6
CONTINUOUS
 10
76.0
 20
82.0
 30
0.0
 11
84.0
 21
82.0
 31
0.0
  0
LINE
  5
10BFA
  8
DANMEN
  6
CONTINUOUS
 10
77.0
 20
82.0
 30
0.0
 11
79.0
 21
82.0
 31
0.0
  0
LINE
  5
10BFB
  8
DANMEN
  6
CONTINUOUS
 10
77.386229
 20
81.2
 30
0.0
 11
78.2
 21
81.2
 31
0.0
  0
ARC
  5
10BFE
  8
DANMEN
  6
CONTINUOUS
 10
88.032011
 20
77.27827
 30
0.0
 40
12.0
 50
156.828944
 51
179.716853
  0
ARC
  5
10C00
  8
DANMEN
  6
CONTINUOUS
 10
76.95
 20
78.25
 30
0.0
 40
0.15
 50
27.871157
 51
207.871179
  0
ARC
  5
10C06
  8
DANMEN
  6
CONTINUOUS
 10
88.020964
 20
76.823655
 30
0.0
 40
11.5
 50
157.632138
 51
177.49922
  0
LINE
  5
10C08
  8
DANMEN
  6
CONTINUOUS
 10
81.0
 20
80.5
 30
0.0
 11
81.0
 21
79.5
 31
0.0
  0
LINE
  5
10C09
  8
DANMEN
  6
CONTINUOUS
 10
80.2
 20
80.699999
 30
0.0
 11
80.8
 21
80.699999
 31
0.0
  0
LINE
  5
10C0A
  8
DANMEN
  6
CONTINUOUS
 10
80.0
 20
80.5
 30
0.0
 11
80.0
 21
79.5
 31
0.0
  0
ARC
  5
10C0C
  8
DANMEN
  6
CONTINUOUS
 10
80.8
 20
80.5
 30
0.0
 40
0.2
 50
0.0
 51
89.999982
  0
ARC
  5
10C0E
  8
DANMEN
  6
CONTINUOUS
 10
80.2
 20
80.5
 30
0.0
 40
0.2
 50
89.999982
 51
180.000019
  0
LINE
  5
10C11
  8
DANMEN
  6
CONTINUOUS
 10
81.0
 20
79.5
 30
0.0
 11
80.2
 21
78.7
 31
0.0
  0
LINE
  5
10C12
  8
DANMEN
  6
CONTINUOUS
 10
79.0
 20
79.5
 30
0.0
 11
80.0
 21
79.5
 31
0.0
  0
LINE
  5
10C14
  8
DANMEN
  6
CONTINUOUS
 10
78.6
 20
78.7
 30
0.0
 11
79.0
 21
78.7
 31
0.0
  0
LINE
  5
10C15
  8
DANMEN
  6
CONTINUOUS
 10
79.0
 20
82.0
 30
0.0
 11
79.0
 21
79.5
 31
0.0
  0
LINE
  5
10C1C
  8
DANMEN
  6
CONTINUOUS
 10
78.2
 20
81.2
 30
0.0
 11
78.2
 21
79.1
 31
0.0
  0
ARC
  5
10C1E
  8
DANMEN
  6
CONTINUOUS
 10
78.6
 20
79.1
 30
0.0
 40
0.4
 50
180.000019
 51
270.000001
  0
LINE
  5
10C21
  8
DANMEN
  6
CONTINUOUS
 10
79.0
 20
81.5
 30
0.0
 11
79.0
 21
80.300003
 31
0.0
  0
LINE
  5
10C22
  8
DANMEN
  6
CONTINUOUS
 10
79.5
 20
79.800003
 30
0.0
 11
79.800003
 21
79.800003
 31
0.0
  0
LINE
  5
10C23
  8
DANMEN
  6
CONTINUOUS
 10
79.800003
 20
81.0
 30
0.0
 11
79.800003
 21
79.800003
 31
0.0
  0
ARC
  5
10C24
  8
DANMEN
  6
CONTINUOUS
 10
79.5
 20
80.300003
 30
0.0
 40
0.5
 50
180.000019
 51
270.000001
  0
LINE
  5
10C25
  8
DANMEN
  6
CONTINUOUS
 10
79.800003
 20
81.0
 30
0.0
 11
81.5
 21
81.0
 31
0.0
  0
ARC
  5
10C26
  8
DANMEN
  6
CONTINUOUS
 10
79.5
 20
81.5
 30
0.0
 40
0.5
 50
89.999982
 51
180.000019
  0
LINE
  5
10C32
  8
DANMEN
  6
CONTINUOUS
 10
85.0
 20
77.2
 30
0.0
 11
88.5
 21
77.2
 31
0.0
  0
LINE
  5
10C33
  8
DANMEN
  6
CONTINUOUS
 10
84.0
 20
78.2
 30
0.0
 11
84.0
 21
80.2
 31
0.0
  0
LINE
  5
10C36
  8
DANMEN
  6
CONTINUOUS
 10
82.5
 20
80.2
 30
0.0
 11
84.0
 21
80.2
 31
0.0
  0
LINE
  5
10C3D
  8
DANMEN
  6
DASHED
 10
86.5
 20
99.0
 30
0.0
 11
80.714146
 21
99.0
 31
0.0
  0
LINE
  5
10C3E
  8
DANMEN
  6
CONTINUOUS
 10
76.0
 20
99.0
 30
0.0
 11
84.0
 21
99.0
 31
0.0
  0
ARC
  5
10C3F
  8
DANMEN
  6
DASHED
 10
80.714146
 20
98.0
 30
0.0
 40
1.0
 50
89.999982
 51
135.573244
  0
LINE
  5
10C40
  8
DANMEN
  6
DASHED
 10
80.0
 20
98.699997
 30
0.0
 11
79.5
 21
98.699997
 31
0.0
  0
LINE
  5
10C41
  8
DANMEN
  6
DASHED
 10
79.0
 20
99.699997
 30
0.0
 11
79.0
 21
99.199997
 31
0.0
  0
ARC
  5
10C42
  8
DANMEN
  6
DASHED
 10
79.5
 20
99.199997
 30
0.0
 40
0.5
 50
180.0
 51
270.0
  0
LINE
  5
10C47
  8
DANMEN
  6
DASHED
 10
86.023824
 20
95.382864
 30
0.0
 11
87.423825
 21
92.082833
 31
0.0
  0
LINE
  5
10C48
  8
DANMEN
  6
DASHED
 10
87.5
 20
94.399997
 30
0.0
 11
87.5
 21
98.5
 31
0.0
  0
LINE
  5
10C49
  8
DANMEN
  6
DASHED
 10
87.5
 20
94.399997
 30
0.0
 11
87.992312
 21
92.26748
 31
0.0
  0
ARC
  5
10C4A
  8
DANMEN
  6
DASHED
 10
87.7
 20
92.199997
 30
0.0
 40
0.3
 50
202.988532
 51
12.999521
  0
ARC
  5
10C4E
  8
DANMEN
  6
DASHED
 10
86.299999
 20
95.500028
 30
0.0
 40
0.3
 50
124.343976
 51
202.988532
  0
ARC
  5
10C4F
  8
DANMEN
  6
CONTINUOUS
 10
86.0
 20
98.5
 30
0.0
 40
0.5
 50
0.0
 51
90.0
  0
LINE
  5
10C50
  8
DANMEN
  6
CONTINUOUS
 10
85.8
 20
96.0
 30
0.0
 11
86.5
 21
96.0
 31
0.0
  0
LINE
  5
10C52
  8
DANMEN
  6
CONTINUOUS
 10
84.5
 20
99.0
 30
0.0
 11
86.0
 21
99.0
 31
0.0
  0
ARC
  5
10C53
  8
DANMEN
  6
CONTINUOUS
 10
84.5
 20
98.5
 30
0.0
 40
0.5
 50
90.0
 51
180.0
  0
ARC
  5
10C57
  8
DANMEN
  6
DASHED
 10
88.0
 20
98.5
 30
0.0
 40
0.5
 50
90.0
 51
180.0
  0
LINE
  5
10C58
  8
DANMEN
  6
DASHED
 10
86.5
 20
99.0
 30
0.0
 11
86.5
 21
96.000035
 31
0.0
  0
LINE
  5
10C59
  8
DANMEN
  6
DASHED
 10
86.5
 20
96.000035
 30
0.0
 11
86.130743
 21
95.747729
 31
0.0
  0
LINE
  5
10C5D
  8
DANMEN
  6
CONTINUOUS
 10
86.5
 20
98.5
 30
0.0
 11
86.5
 21
96.0
 31
0.0
  0
ARC
  5
10C60
  8
DANMEN
  6
DASHED
 10
100.3
 20
88.699997
 30
0.0
 40
0.3
 50
167.000479
 51
337.011468
  0
LINE
  5
10C61
  8
DANMEN
  6
DASHED
 10
101.976176
 20
91.882864
 30
0.0
 11
100.576175
 21
88.582833
 31
0.0
  0
LINE
  5
10C62
  8
DANMEN
  6
CONTINUOUS
 10
99.0
 20
79.0
 30
0.0
 11
99.0
 21
92.0
 31
0.0
  0
LINE
  5
10C65
  8
DANMEN
  6
CONTINUOUS
 10
99.2
 20
77.3
 30
0.0
 11
100.7
 21
77.3
 31
0.0
  0
LINE
  5
10C66
  8
DANMEN
  6
CONTINUOUS
 10
101.55
 20
79.0
 30
0.0
 11
101.55
 21
80.5
 31
0.0
  0
ARC
  5
10C67
  8
DANMEN
  6
CONTINUOUS
 10
102.05
 20
80.5
 30
0.0
 40
0.5
 50
90.0
 51
180.0
  0
LINE
  5
10C6E
  8
DANMEN
  6
DASHED
 10
101.5
 20
99.0
 30
0.0
 11
101.5
 21
92.500035
 31
0.0
  0
LINE
  5
10C6F
  8
DANMEN
  6
DASHED
 10
100.5
 20
90.899997
 30
0.0
 11
100.5
 21
98.5
 31
0.0
  0
LINE
  5
10C70
  8
DANMEN
  6
CONTINUOUS
 10
104.0
 20
98.0
 30
0.0
 11
104.0
 21
94.0
 31
0.0
  0
LINE
  5
10C71
  8
DANMEN
  6
CONTINUOUS
 10
102.35
 20
93.2
 30
0.0
 11
102.35
 21
96.0
 31
0.0
  0
ARC
  5
10C73
  8
DANMEN
  6
DASHED
 10
101.700001
 20
92.000028
 30
0.0
 40
0.3
 50
337.011468
 51
55.656024
  0
LINE
  5
10C74
  8
DANMEN
  6
DASHED
 10
101.5
 20
92.500035
 30
0.0
 11
101.869257
 21
92.247729
 31
0.0
  0
LINE
  5
10C75
  8
DANMEN
  6
DASHED
 10
100.5
 20
90.899997
 30
0.0
 11
100.007688
 21
88.76748
 31
0.0
  0
LINE
  5
10C79
  8
DANMEN
  6
CONTINUOUS
 10
102.0
 20
93.2
 30
0.0
 11
102.35
 21
93.2
 31
0.0
  0
ARC
  5
10C7A
  8
DANMEN
  6
CONTINUOUS
 10
102.0
 20
92.7
 30
0.0
 40
0.5
 50
90.0
 51
270.0
  0
LINE
  5
10C7F
  8
DANMEN
  6
DASHED
 10
101.5
 20
99.0
 30
0.0
 11
104.5
 21
99.0
 31
0.0
  0
LINE
  5
10C80
  8
DANMEN
  6
CONTINUOUS
 10
102.0
 20
99.0
 30
0.0
 11
105.0
 21
99.0
 31
0.0
  0
ARC
  5
10C81
  8
DANMEN
  6
DASHED
 10
100.0
 20
98.5
 30
0.0
 40
0.5
 50
0.0
 51
90.0
  0
LINE
  5
10C84
  8
DANMEN
  6
CONTINUOUS
 10
102.35
 20
96.0
 30
0.0
 11
101.5
 21
96.0
 31
0.0
  0
LINE
  5
10C85
  8
DANMEN
  6
CONTINUOUS
 10
101.5
 20
98.5
 30
0.0
 11
101.5
 21
96.0
 31
0.0
  0
ARC
  5
10C86
  8
DANMEN
  6
CONTINUOUS
 10
102.0
 20
98.5
 30
0.0
 40
0.5
 50
89.999981
 51
180.000037
  0
LINE
  5
10C8A
  8
DANMEN
  6
DASHED
 10
104.5
 20
99.0
 30
0.0
 11
104.5
 21
99.699997
 31
0.0
  0
LINE
  5
10C8D
  8
DANMEN
  6
CONTINUOUS
 10
105.0
 20
99.0
 30
0.0
 11
105.0
 21
98.5
 31
0.0
  0
LINE
  5
10C8F
  8
DANMEN
  6
CONTINUOUS
 10
104.0
 20
98.0
 30
0.0
 11
104.5
 21
98.0
 31
0.0
  0
ARC
  5
10C91
  8
DANMEN
  6
CONTINUOUS
 10
104.5
 20
98.5
 30
0.0
 40
0.5
 50
270.0
 51
0.0
  0
ARC
  5
10C93
  8
DANMEN
  6
CONTINUOUS
 10
90.000006
 20
102.999908
 30
0.0
 40
1.5
 50
269.999982
 51
359.999964
  0
LINE
  5
10C94
  8
DANMEN
  6
CONTINUOUS
 10
90.000006
 20
101.499908
 30
0.0
 11
87.500015
 21
101.499908
 31
0.0
  0
LINE
  5
10C95
  8
DANMEN
  6
CONTINUOUS
 10
100.500015
 20
101.499908
 30
0.0
 11
98.000009
 21
101.499908
 31
0.0
  0
ARC
  5
10C96
  8
DANMEN
  6
CONTINUOUS
 10
98.000009
 20
102.999908
 30
0.0
 40
1.5
 50
180.0
 51
269.999982
  0
LINE
  5
10C97
  8
DANMEN
  6
CONTINUOUS
 10
113.350006
 20
111.197827
 30
0.0
 11
113.350006
 21
99.0
 31
0.0
  0
LINE
  5
10C98
  8
DANMEN
  6
CONTINUOUS
 10
115.0
 20
111.59407
 30
0.0
 11
115.0
 21
99.0
 31
0.0
  0
LINE
  5
10C99
  8
DANMEN
  6
CONTINUOUS
 10
113.35
 20
92.2
 30
0.0
 11
113.35
 21
81.0
 31
0.0
  0
ARC
  5
10C9C
  8
DANMEN
  6
CONTINUOUS
 10
114.5
 20
98.5
 30
0.0
 40
0.5
 50
0.0
 51
90.0
  0
LINE
  5
10C9D
  8
DANMEN
  6
CONTINUOUS
 10
113.35
 20
98.5
 30
0.0
 11
113.35
 21
94.0
 31
0.0
  0
LINE
  5
10CA0
  8
DANMEN
  6
CONTINUOUS
 10
113.85
 20
99.0
 30
0.0
 11
114.5
 21
99.0
 31
0.0
  0
ARC
  5
10CA1
  8
DANMEN
  6
CONTINUOUS
 10
113.85
 20
98.5
 30
0.0
 40
0.5
 50
90.0
 51
180.0
  0
LINE
  5
10CA5
  8
DANMEN
  6
CONTINUOUS
 10
192.649994
 20
88.149994
 30
0.0
 11
199.350006
 21
88.149994
 31
0.0
  0
ARC
  5
10CA6
  8
DANMEN
  6
CONTINUOUS
 10
191.5
 20
87.0
 30
0.0
 40
0.5
 50
180.000036
 51
269.999963
  0
ARC
  5
10CA8
  8
DANMEN
  6
CONTINUOUS
 10
192.149994
 20
92.0
 30
0.0
 40
0.5
 50
359.999981
 51
89.999982
  0
ARC
  5
10CAC
  8
DANMEN
  6
CONTINUOUS
 10
191.5
 20
92.0
 30
0.0
 40
0.5
 50
89.999982
 51
180.000019
  0
LINE
  5
10CAD
  8
DANMEN
  6
CONTINUOUS
 10
192.649994
 20
92.0
 30
0.0
 11
192.649994
 21
88.149994
 31
0.0
  0
LINE
  5
10CAE
  8
DANMEN
  6
CONTINUOUS
 10
191.0
 20
92.0
 30
0.0
 11
191.0
 21
87.0
 31
0.0
  0
LINE
  5
10CAF
  8
DANMEN
  6
CONTINUOUS
 10
191.5
 20
92.5
 30
0.0
 11
192.149994
 21
92.5
 31
0.0
  0
LINE
  5
10CB2
  8
DANMEN
  6
CONTINUOUS
 10
203.0
 20
88.149994
 30
0.0
 11
203.0
 21
87.6
 31
0.0
  0
LINE
  5
10CB3
  8
DANMEN
  6
CONTINUOUS
 10
201.0
 20
87.6
 30
0.0
 11
203.0
 21
87.6
 31
0.0
  0
ARC
  5
10CB6
  8
DANMEN
  6
CONTINUOUS
 10
73.3
 20
188.5
 30
0.0
 40
0.5
 50
270.000018
 51
0.0
  0
ARC
  5
10CB7
  8
DANMEN
  6
CONTINUOUS
 10
73.3
 20
230.5
 30
0.0
 40
0.5
 50
0.0
 51
89.999982
  0
LINE
  5
10CB8
  8
DANMEN
  6
CONTINUOUS
 10
84.65
 20
251.600012
 30
0.0
 11
66.4
 21
251.600012
 31
0.0
  0
LINE
  5
10CB9
  8
DANMEN
  6
CONTINUOUS
 10
84.0
 20
249.950012
 30
0.0
 11
68.5
 21
249.950012
 31
0.0
  0
LINE
  5
10CBB
  8
DANMEN
  6
CONTINUOUS
 10
68.0
 20
231.0
 30
0.0
 11
83.95
 21
231.0
 31
0.0
  0
LINE
  5
10CBC
  8
DANMEN
  6
CONTINUOUS
 10
50.5
 20
258.0
 30
0.0
 11
109.5
 21
258.0
 31
0.0
  0
LINE
  5
10CBD
  8
DANMEN
  6
CONTINUOUS
 10
72.700003
 20
230.2
 30
0.0
 11
72.700003
 21
204.5
 31
0.0
  0
LINE
  5
10CBE
  8
DANMEN
  6
CONTINUOUS
 10
55.3
 20
223.0
 30
0.0
 11
55.3
 21
204.5
 31
0.0
  0
LINE
  5
10CBF
  8
DANMEN
  6
CONTINUOUS
 10
54.2
 20
230.5
 30
0.0
 11
54.2
 21
188.5
 31
0.0
  0
LINE
  5
10CC0
  8
DANMEN
  6
CONTINUOUS
 10
68.0
 20
231.0
 30
0.0
 11
68.0
 21
212.0
 31
0.0
  0
LINE
  5
10CC1
  8
DANMEN
  6
CONTINUOUS
 10
60.0
 20
224.258575
 30
0.0
 11
60.0
 21
212.0
 31
0.0
  0
LINE
  5
10CC2
  8
DANMEN
  6
CONTINUOUS
 10
46.649994
 20
223.5
 30
0.0
 11
46.649994
 21
172.0
 31
0.0
  0
LINE
  5
10CC3
  8
DANMEN
  6
CONTINUOUS
 10
52.0
 20
231.0
 30
0.0
 11
52.0
 21
172.0
 31
0.0
  0
LINE
  5
10CC4
  8
DANMEN
  6
CONTINUOUS
 10
45.0
 20
223.5
 30
0.0
 11
45.0
 21
172.0
 31
0.0
  0
LINE
  5
10CC7
  8
DANMEN
  6
CONTINUOUS
 10
66.500009
 20
146.0
 30
0.0
 11
66.500009
 21
169.0
 31
0.0
  0
LINE
  5
10CC8
  8
DANMEN
  6
CONTINUOUS
 10
61.500021
 20
145.999985
 30
0.0
 11
61.500021
 21
169.0
 31
0.0
  0
LINE
  5
10CC9
  8
DANMEN
  6
CONTINUOUS
 10
66.000009
 20
146.0
 30
0.0
 11
66.000009
 21
169.0
 31
0.0
  0
LINE
  5
10CCA
  8
DANMEN
  6
CONTINUOUS
 10
62.000021
 20
145.999985
 30
0.0
 11
62.000021
 21
169.0
 31
0.0
  0
LINE
  5
10CD5
  8
DANMEN
  6
CONTINUOUS
 10
66.500009
 20
145.999985
 30
0.0
 11
61.500006
 21
145.999985
 31
0.0
  0
ARC
  5
10CDE
  8
DANMEN
  6
CONTINUOUS
 10
57.5
 20
153.999908
 30
0.0
 40
1.5
 50
90.000018
 51
180.0
  0
LINE
  5
10CDF
  8
DANMEN
  6
CONTINUOUS
 10
56.000015
 20
153.0
 30
0.0
 11
56.000015
 21
169.0
 31
0.0
  0
LINE
  5
10CF0
  8
DANMEN
  6
CONTINUOUS
 10
72.000015
 20
153.0
 30
0.0
 11
72.000015
 21
169.0
 31
0.0
  0
ARC
  5
10CF1
  8
DANMEN
  6
CONTINUOUS
 10
59.999991
 20
156.999908
 30
0.0
 40
1.5
 50
269.999982
 51
359.999964
  0
LINE
  5
10CF2
  8
DANMEN
  6
CONTINUOUS
 10
59.999991
 20
155.499908
 30
0.0
 11
57.5
 21
155.499908
 31
0.0
  0
LINE
  5
10D01
  8
DANMEN
  6
CONTINUOUS
 10
70.5
 20
155.499908
 30
0.0
 11
67.999994
 21
155.499908
 31
0.0
  0
ARC
  5
10D02
  8
DANMEN
  6
CONTINUOUS
 10
67.999994
 20
156.999908
 30
0.0
 40
1.5
 50
180.0
 51
269.999982
  0
ARC
  5
10D03
  8
DANMEN
  6
CONTINUOUS
 10
70.5
 20
153.999908
 30
0.0
 40
1.5
 50
359.999964
 51
90.000001
  0
LINE
  5
10D06
  8
DANMEN
  6
CONTINUOUS
 10
72.700003
 20
203.400003
 30
0.0
 11
72.700003
 21
189.1
 31
0.0
  0
LINE
  5
10D07
  8
DANMEN
  6
CONTINUOUS
 10
55.3
 20
203.400003
 30
0.0
 11
55.3
 21
189.1
 31
0.0
  0
LINE
  5
10D08
  8
DANMEN
  6
CONTINUOUS
 10
61.499991
 20
195.0
 30
0.0
 11
61.499991
 21
172.0
 31
0.0
  0
LINE
  5
10D09
  8
DANMEN
  6
CONTINUOUS
 10
66.499979
 20
195.000015
 30
0.0
 11
66.499979
 21
172.0
 31
0.0
  0
LINE
  5
10D0A
  8
DANMEN
  6
CONTINUOUS
 10
61.999991
 20
195.0
 30
0.0
 11
61.999991
 21
172.0
 31
0.0
  0
LINE
  5
10D0B
  8
DANMEN
  6
CONTINUOUS
 10
65.999979
 20
195.000015
 30
0.0
 11
65.999979
 21
172.0
 31
0.0
  0
ARC
  5
10D0C
  8
DANMEN
  6
CONTINUOUS
 10
57.5
 20
187.0
 30
0.0
 40
1.5
 50
179.999964
 51
270.000001
  0
LINE
  5
10D0D
  8
DANMEN
  6
CONTINUOUS
 10
56.0
 20
188.0
 30
0.0
 11
56.0
 21
172.0
 31
0.0
  0
ARC
  5
10D0E
  8
DANMEN
  6
CONTINUOUS
 10
56.5
 20
188.5
 30
0.0
 40
0.5
 50
270.000018
 51
0.0
  0
ARC
  5
10D10
  8
DANMEN
  6
CONTINUOUS
 10
54.7
 20
188.5
 30
0.0
 40
0.5
 50
180.000019
 51
270.000001
  0
LINE
  5
10D14
  8
DANMEN
  6
CONTINUOUS
 10
56.850131
 20
191.0
 30
0.0
 11
57.0
 21
191.0
 31
0.0
  0
LINE
  5
10D15
  8
DANMEN
  6
CONTINUOUS
 10
57.0
 20
191.0
 30
0.0
 11
57.0
 21
188.5
 31
0.0
  0
LINE
  5
10D16
  8
DANMEN
  6
CONTINUOUS
 10
54.7
 20
188.0
 30
0.0
 11
56.5
 21
188.0
 31
0.0
  0
LINE
  5
10D18
  8
DANMEN
  6
CONTINUOUS
 10
55.3
 20
189.1
 30
0.0
 11
56.2
 21
189.1
 31
0.0
  0
LINE
  5
10D1B
  8
DANMEN
  6
CONTINUOUS
 10
56.352878
 20
190.552342
 30
0.0
 11
56.2
 21
189.1
 31
0.0
  0
ARC
  5
10D1C
  8
DANMEN
  6
CONTINUOUS
 10
56.850131
 20
190.5
 30
0.0
 40
0.5
 50
90.0
 51
173.990994
  0
LINE
  5
10D1D
  8
DANMEN
  6
CONTINUOUS
 10
72.0
 20
188.0
 30
0.0
 11
72.0
 21
172.0
 31
0.0
  0
ARC
  5
10D1E
  8
DANMEN
  6
CONTINUOUS
 10
60.000006
 20
184.0
 30
0.0
 40
1.5
 50
0.0
 51
89.999982
  0
LINE
  5
10D1F
  8
DANMEN
  6
CONTINUOUS
 10
57.5
 20
185.5
 30
0.0
 11
60.000006
 21
185.5
 31
0.0
  0
LINE
  5
10D22
  8
DANMEN
  6
CONTINUOUS
 10
68.000009
 20
185.5
 30
0.0
 11
70.5
 21
185.5
 31
0.0
  0
ARC
  5
10D23
  8
DANMEN
  6
CONTINUOUS
 10
68.000009
 20
184.0
 30
0.0
 40
1.5
 50
89.999982
 51
179.999964
  0
ARC
  5
10D24
  8
DANMEN
  6
CONTINUOUS
 10
70.5
 20
187.0
 30
0.0
 40
1.5
 50
270.000018
 51
0.0
  0
LINE
  5
10D25
  8
DANMEN
  6
CONTINUOUS
 10
71.5
 20
188.0
 30
0.0
 11
73.3
 21
188.0
 31
0.0
  0
LINE
  5
10D26
  8
DANMEN
  6
CONTINUOUS
 10
72.7
 20
189.1
 30
0.0
 11
71.8
 21
189.1
 31
0.0
  0
ARC
  5
10D27
  8
DANMEN
  6
CONTINUOUS
 10
71.149869
 20
190.5
 30
0.0
 40
0.5
 50
6.009006
 51
90.0
  0
LINE
  5
10D28
  8
DANMEN
  6
CONTINUOUS
 10
71.647122
 20
190.552342
 30
0.0
 11
71.8
 21
189.1
 31
0.0
  0
LINE
  5
10D2B
  8
DANMEN
  6
CONTINUOUS
 10
71.0
 20
191.0
 30
0.0
 11
71.0
 21
188.5
 31
0.0
  0
LINE
  5
10D2C
  8
DANMEN
  6
CONTINUOUS
 10
71.149869
 20
191.0
 30
0.0
 11
71.0
 21
191.0
 31
0.0
  0
ARC
  5
10D2E
  8
DANMEN
  6
CONTINUOUS
 10
71.5
 20
188.5
 30
0.0
 40
0.5
 50
180.0
 51
270.0
  0
LINE
  5
10D2F
  8
DANMEN
  6
CONTINUOUS
 10
55.3
 20
203.400003
 30
0.0
 11
59.700001
 21
203.400003
 31
0.0
  0
LINE
  5
10D30
  8
DANMEN
  6
CONTINUOUS
 10
55.3
 20
204.5
 30
0.0
 11
61.000001
 21
204.5
 31
0.0
  0
LINE
  5
10D33
  8
DANMEN
  6
CONTINUOUS
 10
65.399999
 20
198.900001
 30
0.0
 11
66.53973
 21
198.900001
 31
0.0
  0
ARC
  5
10D34
  8
DANMEN
  6
CONTINUOUS
 10
64.799999
 20
200.55394
 30
0.0
 40
1.0
 50
294.62438
 51
0.0
  0
ARC
  5
10D35
  8
DANMEN
  6
CONTINUOUS
 10
64.799999
 20
201.799999
 30
0.0
 40
1.0
 50
359.999945
 51
89.999982
  0
LINE
  5
10D36
  8
DANMEN
  6
CONTINUOUS
 10
61.200001
 20
204.3
 30
0.0
 11
66.800001
 21
204.3
 31
0.0
  0
LINE
  5
10D37
  8
DANMEN
  6
CONTINUOUS
 10
61.499991
 20
195.000015
 30
0.0
 11
66.499994
 21
195.000015
 31
0.0
  0
ARC
  5
10D38
  8
DANMEN
  6
CONTINUOUS
 10
65.399999
 20
199.200001
 30
0.0
 40
0.3
 50
180.000019
 51
270.000055
  0
ARC
  5
10D39
  8
DANMEN
  6
CONTINUOUS
 10
62.600001
 20
199.200001
 30
0.0
 40
0.3
 50
270.000018
 51
0.0
  0
ARC
  5
10D3A
  8
DANMEN
  6
CONTINUOUS
 10
62.700001
 20
200.469418
 30
0.0
 40
2.0
 50
180.000019
 51
231.693677
  0
LINE
  5
10D3B
  8
DANMEN
  6
CONTINUOUS
 10
61.46027
 20
198.900001
 30
0.0
 11
62.600001
 21
198.900001
 31
0.0
  0
LINE
  5
10D3C
  8
DANMEN
  6
CONTINUOUS
 10
60.700001
 20
202.400003
 30
0.0
 11
60.700001
 21
200.469418
 31
0.0
  0
ARC
  5
10D3D
  8
DANMEN
  6
CONTINUOUS
 10
59.700001
 20
202.400003
 30
0.0
 40
1.0
 50
0.0
 51
90.0
  0
LINE
  5
10D40
  8
DANMEN
  6
CONTINUOUS
 10
61.000001
 20
204.5
 30
0.0
 11
61.200001
 21
204.3
 31
0.0
  0
ARC
  5
10D41
  8
DANMEN
  6
CONTINUOUS
 10
65.299999
 20
199.463069
 30
0.0
 40
0.2
 50
114.624344
 51
180.000019
  0
ARC
  5
10D42
  8
DANMEN
  6
CONTINUOUS
 10
62.700001
 20
199.463069
 30
0.0
 40
0.2
 50
0.0
 51
65.375675
  0
ARC
  5
10D43
  8
DANMEN
  6
CONTINUOUS
 10
63.200001
 20
200.55394
 30
0.0
 40
1.0
 50
180.000019
 51
245.375639
  0
LINE
  5
10D44
  8
DANMEN
  6
CONTINUOUS
 10
62.900001
 20
199.463069
 30
0.0
 11
62.900001
 21
199.200001
 31
0.0
  0
ARC
  5
10D45
  8
DANMEN
  6
CONTINUOUS
 10
63.200001
 20
201.799999
 30
0.0
 40
1.0
 50
89.999982
 51
180.000019
  0
LINE
  5
10D46
  8
DANMEN
  6
CONTINUOUS
 10
63.200001
 20
202.799999
 30
0.0
 11
64.799999
 21
202.799999
 31
0.0
  0
LINE
  5
10D47
  8
DANMEN
  6
CONTINUOUS
 10
62.200001
 20
201.799998
 30
0.0
 11
62.200001
 21
200.55394
 31
0.0
  0
LINE
  5
10D48
  8
DANMEN
  6
CONTINUOUS
 10
65.1
 20
199.200001
 30
0.0
 11
65.1
 21
199.463069
 31
0.0
  0
ARC
  5
10D4B
  8
DANMEN
  6
CONTINUOUS
 10
65.299999
 20
200.469418
 30
0.0
 40
2.0
 50
308.306342
 51
359.999945
  0
LINE
  5
10D4C
  8
DANMEN
  6
CONTINUOUS
 10
68.299999
 20
203.400003
 30
0.0
 11
72.700003
 21
203.400003
 31
0.0
  0
LINE
  5
10D4D
  8
DANMEN
  6
CONTINUOUS
 10
67.000001
 20
204.5
 30
0.0
 11
72.700003
 21
204.5
 31
0.0
  0
LINE
  5
10D4E
  8
DANMEN
  6
CONTINUOUS
 10
67.299999
 20
200.469418
 30
0.0
 11
67.299999
 21
202.400003
 31
0.0
  0
LINE
  5
10D4F
  8
DANMEN
  6
CONTINUOUS
 10
65.799999
 20
200.55394
 30
0.0
 11
65.799999
 21
201.799998
 31
0.0
  0
ARC
  5
10D50
  8
DANMEN
  6
CONTINUOUS
 10
68.299999
 20
202.400003
 30
0.0
 40
1.0
 50
90.0
 51
180.0
  0
LINE
  5
10D53
  8
DANMEN
  6
CONTINUOUS
 10
67.000001
 20
204.5
 30
0.0
 11
66.800001
 21
204.3
 31
0.0
  0
ARC
  5
10D56
  8
DANMEN
  6
CONTINUOUS
 10
64.0
 20
212.0
 30
0.0
 40
4.0
 50
180.000019
 51
359.999983
  0
LINE
  5
10D57
  8
DANMEN
  6
CONTINUOUS
 10
63.6
 20
246.0
 30
0.0
 11
63.6
 21
235.101833
 31
0.0
  0
LINE
  5
10D58
  8
DANMEN
  6
CONTINUOUS
 10
65.25
 20
246.0
 30
0.0
 11
65.25
 21
225.061553
 31
0.0
  0
LINE
  5
10D59
  8
DANMEN
  6
CONTINUOUS
 10
46.649994
 20
246.0
 30
0.0
 11
46.649994
 21
223.5
 31
0.0
  0
LINE
  5
10D5A
  8
DANMEN
  6
CONTINUOUS
 10
45.0
 20
257.5
 30
0.0
 11
45.0
 21
223.5
 31
0.0
  0
LINE
  5
10D5B
  8
DANMEN
  6
CONTINUOUS
 10
58.0
 20
226.0
 30
0.0
 11
57.2
 21
225.2
 31
0.0
  0
LINE
  5
10D5C
  8
DANMEN
  6
CONTINUOUS
 10
57.2
 20
228.5
 30
0.0
 11
58.0
 21
227.7
 31
0.0
  0
ARC
  5
10D5D
  8
DANMEN
  6
CONTINUOUS
 10
57.4
 20
229.5
 30
0.0
 40
0.2
 50
90.000018
 51
180.0
  0
ARC
  5
10D5E
  8
DANMEN
  6
CONTINUOUS
 10
57.4
 20
224.199999
 30
0.0
 40
0.2
 50
180.0
 51
269.999982
  0
LINE
  5
10D5F
  8
DANMEN
  6
CONTINUOUS
 10
55.3
 20
223.800003
 30
0.0
 11
58.4
 21
223.800003
 31
0.0
  0
LINE
  5
10D60
  8
DANMEN
  6
CONTINUOUS
 10
55.3
 20
230.0
 30
0.0
 11
58.4
 21
230.0
 31
0.0
  0
LINE
  5
10D61
  8
DANMEN
  6
CONTINUOUS
 10
55.3
 20
223.0
 30
0.0
 11
58.7
 21
223.0
 31
0.0
  0
LINE
  5
10D62
  8
DANMEN
  6
CONTINUOUS
 10
54.7
 20
231.0
 30
0.0
 11
58.7
 21
231.0
 31
0.0
  0
LINE
  5
10D63
  8
DANMEN
  6
CONTINUOUS
 10
55.3
 20
230.0
 30
0.0
 11
55.3
 21
223.800003
 31
0.0
  0
ARC
  5
10D65
  8
DANMEN
  6
CONTINUOUS
 10
45.5
 20
223.5
 30
0.0
 40
0.5
 50
180.000019
 51
270.000001
  0
ARC
  5
10D68
  8
DANMEN
  6
CONTINUOUS
 10
46.149994
 20
223.5
 30
0.0
 40
0.5
 50
270.000018
 51
0.0
  0
LINE
  5
10D69
  8
DANMEN
  6
CONTINUOUS
 10
45.5
 20
223.0
 30
0.0
 11
46.149994
 21
223.0
 31
0.0
  0
LINE
  5
10D6C
  8
DANMEN
  6
CONTINUOUS
 10
57.2
 20
225.199999
 30
0.0
 11
57.2
 21
224.199999
 31
0.0
  0
LINE
  5
10D72
  8
DANMEN
  6
CONTINUOUS
 10
52.0
 20
231.0
 30
0.0
 11
55.0
 21
231.0
 31
0.0
  0
LINE
  5
10D75
  8
DANMEN
  6
CONTINUOUS
 10
57.2
 20
229.5
 30
0.0
 11
57.2
 21
228.5
 31
0.0
  0
ARC
  5
10D77
  8
DANMEN
  6
CONTINUOUS
 10
54.7
 20
230.5
 30
0.0
 40
0.5
 50
89.999982
 51
180.000019
  0
ARC
  5
10D79
  8
DANMEN
  6
CONTINUOUS
 10
50.892022
 20
224.519121
 30
0.0
 40
11.5
 50
9.50078
 51
29.603137
  0
ARC
  5
10D7A
  8
DANMEN
  6
CONTINUOUS
 10
50.825654
 20
224.969002
 30
0.0
 40
12.0
 50
7.283147
 51
30.171056
  0
ARC
  5
10D7B
  8
DANMEN
  6
CONTINUOUS
 10
59.6
 20
228.1
 30
0.0
 40
0.4
 50
269.999999
 51
359.999981
  0
LINE
  5
10D7C
  8
DANMEN
  6
CONTINUOUS
 10
62.75
 20
232.898149
 30
0.0
 11
62.75
 21
225.061553
 31
0.0
  0
LINE
  5
10D81
  8
DANMEN
  6
CONTINUOUS
 10
61.1174
 20
227.320122
 30
0.0
 11
60.419282
 21
226.0
 31
0.0
  0
LINE
  5
10D82
  8
DANMEN
  6
CONTINUOUS
 10
61.3826
 20
227.179877
 30
0.0
 11
60.6
 21
225.7
 31
0.0
  0
LINE
  5
10D84
  8
DANMEN
  6
CONTINUOUS
 10
60.6
 20
225.7
 30
0.0
 11
59.8
 21
225.7
 31
0.0
  0
LINE
  5
10D85
  8
DANMEN
  6
CONTINUOUS
 10
60.419281
 20
226.0
 30
0.0
 11
59.2
 21
226.0
 31
0.0
  0
ARC
  5
10D89
  8
DANMEN
  6
CONTINUOUS
 10
61.25
 20
227.25
 30
0.0
 40
0.15
 50
332.128821
 51
152.128843
  0
LINE
  5
10D8C
  8
DANMEN
  6
CONTINUOUS
 10
59.2
 20
227.7
 30
0.0
 11
59.2
 21
226.0
 31
0.0
  0
LINE
  5
10D8F
  8
DANMEN
  6
CONTINUOUS
 10
58.0
 20
227.7
 30
0.0
 11
58.0
 21
226.0
 31
0.0
  0
LINE
  5
10D92
  8
DANMEN
  6
CONTINUOUS
 10
59.6
 20
227.7
 30
0.0
 11
59.2
 21
227.7
 31
0.0
  0
ARC
  5
10D93
  8
DANMEN
  6
CONTINUOUS
 10
59.600001
 20
224.399999
 30
0.0
 40
0.2
 50
269.999999
 51
359.999981
  0
LINE
  5
10D95
  8
DANMEN
  6
CONTINUOUS
 10
59.8
 20
225.7
 30
0.0
 11
59.8
 21
224.399999
 31
0.0
  0
LINE
  5
10D98
  8
DANMEN
  6
CONTINUOUS
 10
59.2
 20
225.199999
 30
0.0
 11
58.2
 21
225.199999
 31
0.0
  0
LINE
  5
10D9A
  8
DANMEN
  6
CONTINUOUS
 10
59.600001
 20
224.199999
 30
0.0
 11
59.2
 21
224.199999
 31
0.0
  0
LINE
  5
10D9B
  8
DANMEN
  6
CONTINUOUS
 10
58.2
 20
225.199999
 30
0.0
 11
58.2
 21
224.199999
 31
0.0
  0
ARC
  5
10D9C
  8
DANMEN
  6
CONTINUOUS
 10
58.0
 20
224.199999
 30
0.0
 40
0.2
 50
269.999999
 51
359.999981
  0
LINE
  5
10D9E
  8
DANMEN
  6
CONTINUOUS
 10
59.2
 20
225.199999
 30
0.0
 11
59.2
 21
224.199999
 31
0.0
  0
LINE
  5
10D9F
  8
DANMEN
  6
CONTINUOUS
 10
58.0
 20
224.0
 30
0.0
 11
57.4
 21
224.0
 31
0.0
  0
ARC
  5
10DA0
  8
DANMEN
  6
CONTINUOUS
 10
58.7
 20
223.5
 30
0.0
 40
0.5
 50
270.000018
 51
0.0
  0
ARC
  5
10DA4
  8
DANMEN
  6
CONTINUOUS
 10
58.7
 20
224.699997
 30
0.0
 40
0.5
 50
0.0
 51
89.999982
  0
LINE
  5
10DA6
  8
DANMEN
  6
CONTINUOUS
 10
59.2
 20
224.699997
 30
0.0
 11
59.2
 21
223.5
 31
0.0
  0
LINE
  5
10DA7
  8
DANMEN
  6
CONTINUOUS
 10
58.4
 20
225.199997
 30
0.0
 11
58.4
 21
223.800003
 31
0.0
  0
LINE
  5
10DA8
  8
DANMEN
  6
CONTINUOUS
 10
58.4
 20
225.199997
 30
0.0
 11
58.7
 21
225.199997
 31
0.0
  0
ARC
  5
10DAC
  8
DANMEN
  6
CONTINUOUS
 10
62.480851
 20
226.458588
 30
0.0
 40
0.25
 50
189.50078
 51
7.283147
  0
ARC
  5
10DB1
  8
DANMEN
  6
CONTINUOUS
 10
64.75
 20
225.061553
 30
0.0
 40
0.5
 50
345.963757
 51
0.0
  0
ARC
  5
10DB2
  8
DANMEN
  6
CONTINUOUS
 10
63.25
 20
225.061553
 30
0.0
 40
0.5
 50
180.0
 51
194.036243
  0
ARC
  5
10DB3
  8
DANMEN
  6
CONTINUOUS
 10
64.359612
 20
223.5
 30
0.0
 40
0.5
 50
270.0
 51
345.963757
  0
ARC
  5
10DB4
  8
DANMEN
  6
CONTINUOUS
 10
63.640388
 20
223.5
 30
0.0
 40
0.5
 50
194.036243
 51
270.0
  0
LINE
  5
10DB5
  8
DANMEN
  6
CONTINUOUS
 10
63.155317
 20
223.378732
 30
0.0
 11
62.764929
 21
224.940285
 31
0.0
  0
LINE
  5
10DB6
  8
DANMEN
  6
CONTINUOUS
 10
65.235071
 20
224.940285
 30
0.0
 11
64.844683
 21
223.378732
 31
0.0
  0
LINE
  5
10DB7
  8
DANMEN
  6
CONTINUOUS
 10
63.640388
 20
223.0
 30
0.0
 11
64.359612
 21
223.0
 31
0.0
  0
LINE
  5
10DB8
  8
DANMEN
  6
CONTINUOUS
 10
63.560165
 20
234.906263
 30
0.0
 11
62.789835
 21
233.09372
 31
0.0
  0
LINE
  5
10DB9
  8
DANMEN
  6
CONTINUOUS
 10
60.890903
 20
230.2
 30
0.0
 11
60.0
 21
230.2
 31
0.0
  0
LINE
  5
10DBC
  8
DANMEN
  6
CONTINUOUS
 10
60.0
 20
230.2
 30
0.0
 11
60.0
 21
228.1
 31
0.0
  0
LINE
  5
10DBF
  8
DANMEN
  6
CONTINUOUS
 10
59.2
 20
231.0
 30
0.0
 11
59.2
 21
228.5
 31
0.0
  0
LINE
  5
10DC1
  8
DANMEN
  6
CONTINUOUS
 10
59.2
 20
228.5
 30
0.0
 11
58.2
 21
228.5
 31
0.0
  0
ARC
  5
10DC2
  8
DANMEN
  6
CONTINUOUS
 10
58.0
 20
229.5
 30
0.0
 40
0.2
 50
359.999981
 51
90.000018
  0
LINE
  5
10DC4
  8
DANMEN
  6
CONTINUOUS
 10
58.2
 20
229.5
 30
0.0
 11
58.2
 21
228.5
 31
0.0
  0
LINE
  5
10DC5
  8
DANMEN
  6
CONTINUOUS
 10
58.0
 20
229.699999
 30
0.0
 11
57.4
 21
229.699999
 31
0.0
  0
LINE
  5
10DC6
  8
DANMEN
  6
CONTINUOUS
 10
61.2
 20
231.0
 30
0.0
 11
59.2
 21
231.0
 31
0.0
  0
ARC
  5
10DC8
  8
DANMEN
  6
CONTINUOUS
 10
58.7
 20
229.300003
 30
0.0
 40
0.5
 50
270.000018
 51
0.0
  0
ARC
  5
10DCC
  8
DANMEN
  6
CONTINUOUS
 10
58.7
 20
230.5
 30
0.0
 40
0.5
 50
0.0
 51
89.999982
  0
LINE
  5
10DCE
  8
DANMEN
  6
CONTINUOUS
 10
58.4
 20
230.0
 30
0.0
 11
58.4
 21
228.800003
 31
0.0
  0
LINE
  5
10DCF
  8
DANMEN
  6
CONTINUOUS
 10
58.4
 20
228.800003
 30
0.0
 11
58.7
 21
228.800003
 31
0.0
  0
LINE
  5
10DD0
  8
DANMEN
  6
CONTINUOUS
 10
59.2
 20
230.5
 30
0.0
 11
59.2
 21
229.300003
 31
0.0
  0
LINE
  5
10DD1
  8
DANMEN
  6
CONTINUOUS
 10
58.5
 20
231.0
 30
0.0
 11
59.2
 21
231.0
 31
0.0
  0
ARC
  5
10DD3
  8
DANMEN
  6
CONTINUOUS
 10
63.25
 20
232.898149
 30
0.0
 40
0.5
 50
156.974508
 51
180.0
  0
ARC
  5
10DD6
  8
DANMEN
  6
CONTINUOUS
 10
63.1
 20
235.101833
 30
0.0
 40
0.5
 50
336.974508
 51
0.0
  0
LINE
  5
10DD8
  8
DANMEN
  6
CONTINUOUS
 10
73.299998
 20
231.0
 30
0.0
 11
72.35
 21
231.0
 31
0.0
  0
LINE
  5
10DD9
  8
DANMEN
  6
CONTINUOUS
 10
72.700003
 20
230.2
 30
0.0
 11
71.85
 21
230.2
 31
0.0
  0
LINE
  5
10DDB
  8
DANMEN
  6
CONTINUOUS
 10
71.85
 20
230.5
 30
0.0
 11
71.85
 21
230.2
 31
0.0
  0
ARC
  5
10DDC
  8
DANMEN
  6
CONTINUOUS
 10
72.35
 20
230.5
 30
0.0
 40
0.5
 50
90.0
 51
180.0
  0
LINE
  5
10DDF
  8
DANMEN
  6
CONTINUOUS
 10
46.649994
 20
247.649994
 30
0.0
 11
60.699997
 21
247.649994
 31
0.0
  0
LINE
  5
10DE0
  8
DANMEN
  6
CONTINUOUS
 10
46.649994
 20
246.0
 30
0.0
 11
63.6
 21
246.0
 31
0.0
  0
LINE
  5
10DE1
  8
DANMEN
  6
CONTINUOUS
 10
46.649994
 20
256.350006
 30
0.0
 11
46.649994
 21
247.65
 31
0.0
  0
LINE
  5
10DE4
  8
DANMEN
  6
CONTINUOUS
 10
50.5
 20
258.0
 30
0.0
 11
45.5
 21
258.0
 31
0.0
  0
LINE
  5
10DE5
  8
DANMEN
  6
CONTINUOUS
 10
50.5
 20
256.350006
 30
0.0
 11
46.649994
 21
256.350006
 31
0.0
  0
ARC
  5
10DE6
  8
DANMEN
  6
CONTINUOUS
 10
45.5
 20
257.5
 30
0.0
 40
0.5
 50
90.0
 51
180.0
  0
LINE
  5
10DE7
  8
DANMEN
  6
CONTINUOUS
 10
51.0
 20
257.5
 30
0.0
 11
51.0
 21
256.850006
 31
0.0
  0
ARC
  5
10DE9
  8
DANMEN
  6
CONTINUOUS
 10
50.5
 20
256.850006
 30
0.0
 40
0.5
 50
269.999999
 51
359.999981
  0
ARC
  5
10DEC
  8
DANMEN
  6
CONTINUOUS
 10
50.5
 20
257.5
 30
0.0
 40
0.5
 50
359.999981
 51
90.000018
  0
LINE
  5
10DED
  8
DANMEN
  6
CONTINUOUS
 10
63.9
 20
251.3
 30
0.0
 11
63.9
 21
251.036932
 31
0.0
  0
ARC
  5
10DEE
  8
DANMEN
  6
CONTINUOUS
 10
63.7
 20
250.030306
 30
0.0
 40
2.0
 50
128.293477
 51
180.0
  0
LINE
  5
10DEF
  8
DANMEN
  6
CONTINUOUS
 10
66.1
 20
251.300012
 30
0.0
 11
66.1
 21
251.036932
 31
0.0
  0
LINE
  5
10DF0
  8
DANMEN
  6
CONTINUOUS
 10
65.8
 20
247.7
 30
0.0
 11
64.2
 21
247.7
 31
0.0
  0
LINE
  5
10DF1
  8
DANMEN
  6
CONTINUOUS
 10
65.25
 20
246.0
 30
0.0
 11
69.5
 21
246.0
 31
0.0
  0
ARC
  5
10DF2
  8
DANMEN
  6
CONTINUOUS
 10
60.7
 20
248.649994
 30
0.0
 40
1.0
 50
270.0
 51
0.0
  0
ARC
  5
10DF6
  8
DANMEN
  6
CONTINUOUS
 10
64.2
 20
249.946061
 30
0.0
 40
1.0
 50
114.624318
 51
180.0
  0
ARC
  5
10DF7
  8
DANMEN
  6
CONTINUOUS
 10
63.7
 20
251.036932
 30
0.0
 40
0.2
 50
294.624318
 51
0.0
  0
LINE
  5
10DF8
  8
DANMEN
  6
CONTINUOUS
 10
61.7
 20
250.030306
 30
0.0
 11
61.7
 21
248.649994
 31
0.0
  0
LINE
  5
10DF9
  8
DANMEN
  6
CONTINUOUS
 10
63.2
 20
249.946061
 30
0.0
 11
63.2
 21
248.7
 31
0.0
  0
ARC
  5
10DFA
  8
DANMEN
  6
CONTINUOUS
 10
64.2
 20
248.7
 30
0.0
 40
1.0
 50
180.0
 51
270.0
  0
ARC
  5
10DFB
  8
DANMEN
  6
CONTINUOUS
 10
69.5
 20
246.5
 30
0.0
 40
0.5
 50
270.000018
 51
0.0
  0
LINE
  5
10DFC
  8
DANMEN
  6
CONTINUOUS
 10
68.5
 20
246.8
 30
0.0
 11
70.0
 21
246.8
 31
0.0
  0
ARC
  5
10DFF
  8
DANMEN
  6
CONTINUOUS
 10
66.3
 20
251.036932
 30
0.0
 40
0.2
 50
180.0
 51
245.375682
  0
ARC
  5
10E00
  8
DANMEN
  6
CONTINUOUS
 10
65.8
 20
249.946061
 30
0.0
 40
1.0
 50
0.0
 51
65.375682
  0
ARC
  5
10E01
  8
DANMEN
  6
CONTINUOUS
 10
65.8
 20
248.7
 30
0.0
 40
1.0
 50
270.0
 51
0.0
  0
LINE
  5
10E02
  8
DANMEN
  6
CONTINUOUS
 10
66.8
 20
249.946061
 30
0.0
 11
66.8
 21
248.7
 31
0.0
  0
LINE
  5
10E03
  8
DANMEN
  6
CONTINUOUS
 10
68.5
 20
249.950012
 30
0.0
 11
68.5
 21
246.8
 31
0.0
  0
LINE
  5
10E06
  8
DANMEN
  6
CONTINUOUS
 10
70.0
 20
246.8
 30
0.0
 11
70.0
 21
246.5
 31
0.0
  0
LINE
  5
10E07
  8
DANMEN
  6
CONTINUOUS
 10
63.6
 20
251.6
 30
0.0
 11
62.460621
 21
251.6
 31
0.0
  0
ARC
  5
10E08
  8
DANMEN
  6
CONTINUOUS
 10
63.6
 20
251.3
 30
0.0
 40
0.3
 50
0.0
 51
90.0
  0
ARC
  5
10E09
  8
DANMEN
  6
CONTINUOUS
 10
66.4
 20
251.300012
 30
0.0
 40
0.3
 50
90.0
 51
180.0
  0
LINE
  5
10E0A
  8
DANMEN
  6
CONTINUOUS
 10
111.017555
 20
206.502085
 30
0.0
 11
111.0
 21
223.0
 31
0.0
  0
LINE
  5
10E0B
  8
DANMEN
  6
CONTINUOUS
 10
112.517555
 20
206.145361
 30
0.0
 11
112.004224
 21
222.470763
 31
0.0
  0
LINE
  5
10E0C
  8
DANMEN
  6
CONTINUOUS
 10
111.31756
 20
206.49168
 30
0.0
 11
111.30001
 21
222.979021
 31
0.0
  0
LINE
  5
10E0D
  8
DANMEN
  6
CONTINUOUS
 10
73.8
 20
230.5
 30
0.0
 11
73.8
 21
188.5
 31
0.0
  0
LINE
  5
10E0E
  8
DANMEN
  6
CONTINUOUS
 10
113.350006
 20
206.302173
 30
0.0
 11
113.350006
 21
223.0
 31
0.0
  0
LINE
  5
10E0F
  8
DANMEN
  6
CONTINUOUS
 10
115.0
 20
205.90593
 30
0.0
 11
115.0
 21
223.0
 31
0.0
  0
LINE
  5
10E10
  8
DANMEN
  6
CONTINUOUS
 10
111.0
 20
172.0
 30
0.0
 11
111.0
 21
223.0
 31
0.0
  0
LINE
  5
10E11
  8
DANMEN
  6
CONTINUOUS
 10
86.000015
 20
172.0
 30
0.0
 11
86.000015
 21
223.0
 31
0.0
  0
LINE
  5
10E12
  8
DANMEN
  6
CONTINUOUS
 10
101.949985
 20
172.0
 30
0.0
 11
101.949985
 21
223.0
 31
0.0
  0
LINE
  5
10E13
  8
DANMEN
  6
CONTINUOUS
 10
83.95
 20
172.0
 30
0.0
 11
83.95
 21
223.0
 31
0.0
  0
LINE
  5
10E14
  8
DANMEN
  6
CONTINUOUS
 10
104.0
 20
172.0
 30
0.0
 11
104.0
 21
223.0
 31
0.0
  0
LINE
  5
10E15
  8
DANMEN
  6
CONTINUOUS
 10
95.949986
 20
230.0
 30
0.0
 11
95.949986
 21
172.0
 31
0.0
  0
LINE
  5
10E16
  8
DANMEN
  6
CONTINUOUS
 10
91.949998
 20
230.0
 30
0.0
 11
91.949998
 21
172.0
 31
0.0
  0
LINE
  5
10E17
  8
DANMEN
  6
CONTINUOUS
 10
96.449986
 20
230.0
 30
0.0
 11
96.449986
 21
172.0
 31
0.0
  0
LINE
  5
10E18
  8
DANMEN
  6
CONTINUOUS
 10
91.449998
 20
230.0
 30
0.0
 11
91.449998
 21
172.0
 31
0.0
  0
LINE
  5
10E19
  8
DANMEN
  6
DASHED
 10
81.5
 20
231.0
 30
0.0
 11
81.5
 21
172.0
 31
0.0
  0
LINE
  5
10E1A
  8
DANMEN
  6
CONTINUOUS
 10
78.5
 20
231.0
 30
0.0
 11
78.5
 21
172.0
 31
0.0
  0
LINE
  5
10E1B
  8
DANMEN
  6
CONTINUOUS
 10
76.0
 20
231.0
 30
0.0
 11
76.0
 21
172.0
 31
0.0
  0
LINE
  5
10E1C
  8
DANMEN
  6
CONTINUOUS
 10
114.517555
 20
198.002085
 30
0.0
 11
145.217555
 21
198.002085
 31
0.0
  0
LINE
  5
10E1D
  8
DANMEN
  6
CONTINUOUS
 10
143.881386
 20
203.653003
 30
0.0
 11
112.517555
 21
206.502085
 31
0.0
  0
LINE
  5
10E20
  8
DANMEN
  6
CONTINUOUS
 10
111.017555
 20
202.002085
 30
0.0
 11
111.017555
 21
206.502085
 31
0.0
  0
LINE
  5
10E21
  8
DANMEN
  6
CONTINUOUS
 10
111.317555
 20
202.002085
 30
0.0
 11
111.317555
 21
206.512633
 31
0.0
  0
LINE
  5
10E22
  8
DANMEN
  6
CONTINUOUS
 10
112.517555
 20
200.002085
 30
0.0
 11
112.517555
 21
206.502085
 31
0.0
  0
ARC
  5
10E23
  8
DANMEN
  6
CONTINUOUS
 10
114.517555
 20
200.002085
 30
0.0
 40
2.0
 50
179.999981
 51
270.000018
  0
LINE
  5
10E26
  8
DANMEN
  6
CONTINUOUS
 10
111.017555
 20
202.002085
 30
0.0
 11
112.517555
 21
202.002085
 31
0.0
  0
LINE
  5
10E2D
  8
DANMEN
  6
CONTINUOUS
 10
201.0
 20
155.4
 30
0.0
 11
201.0
 21
136.8
 31
0.0
  0
ARC
  5
10E2E
  8
DANMEN
  6
CONTINUOUS
 10
205.000002
 20
127.861187
 30
0.0
 40
1.0
 50
180.0
 51
261.469234
  0
LINE
  5
10E2F
  8
DANMEN
  6
CONTINUOUS
 10
201.0
 20
135.0
 30
0.0
 11
201.0
 21
120.1
 31
0.0
  0
LINE
  5
10E35
  8
DANMEN
  6
CONTINUOUS
 10
204.000002
 20
129.5
 30
0.0
 11
204.000002
 21
127.861187
 31
0.0
  0
ARC
  5
10E37
  8
DANMEN
  6
CONTINUOUS
 10
204.500002
 20
129.5
 30
0.0
 40
0.5
 50
89.999982
 51
180.000019
  0
ARC
  5
10E38
  8
DANMEN
  6
CONTINUOUS
 10
202.457778
 20
129.658773
 30
0.0
 40
0.5
 50
25.709831
 51
272.131619
  0
ARC
  5
10E3B
  8
DANMEN
  6
CONTINUOUS
 10
192.149994
 20
151.0
 30
0.0
 40
0.5
 50
270.000018
 51
359.999981
  0
ARC
  5
10E3C
  8
DANMEN
  6
CONTINUOUS
 10
191.5
 20
151.0
 30
0.0
 40
0.5
 50
180.000036
 51
269.999963
  0
LINE
  5
10E3F
  8
DANMEN
  6
CONTINUOUS
 10
191.5
 20
150.5
 30
0.0
 11
192.149994
 21
150.5
 31
0.0
  0
ARC
  5
10E40
  8
DANMEN
  6
CONTINUOUS
 10
204.500002
 20
145.5
 30
0.0
 40
0.5
 50
179.999964
 51
270.000001
  0
LINE
  5
10E42
  8
DANMEN
  6
CONTINUOUS
 10
204.000002
 20
145.5
 30
0.0
 11
204.000002
 21
147.138813
 31
0.0
  0
ARC
  5
10E43
  8
DANMEN
  6
CONTINUOUS
 10
205.000002
 20
147.138813
 30
0.0
 40
1.0
 50
98.530766
 51
180.0
  0
LINE
  5
10E45
  8
DANMEN
  6
CONTINUOUS
 10
192.649994
 20
154.850006
 30
0.0
 11
199.350006
 21
154.850006
 31
0.0
  0
ARC
  5
10E47
  8
DANMEN
  6
CONTINUOUS
 10
191.5
 20
156.0
 30
0.0
 40
0.5
 50
89.999982
 51
180.000019
  0
LINE
  5
10E49
  8
DANMEN
  6
CONTINUOUS
 10
192.649994
 20
154.850006
 30
0.0
 11
192.649994
 21
151.0
 31
0.0
  0
LINE
  5
10E4A
  8
DANMEN
  6
CONTINUOUS
 10
191.0
 20
156.0
 30
0.0
 11
191.0
 21
151.0
 31
0.0
  0
LINE
  5
10E4D
  8
DANMEN
  6
CONTINUOUS
 10
203.0
 20
155.4
 30
0.0
 11
203.0
 21
154.850006
 31
0.0
  0
LINE
  5
10E4E
  8
DANMEN
  6
CONTINUOUS
 10
201.0
 20
155.4
 30
0.0
 11
203.0
 21
155.4
 31
0.0
  0
LINE
  5
10E51
  8
DANMEN
  6
CONTINUOUS
 10
143.0
 20
172.0
 30
0.0
 11
143.0
 21
198.002085
 31
0.0
  0
LINE
  5
10E52
  8
DANMEN
  6
CONTINUOUS
 10
145.717555
 20
198.502085
 30
0.0
 11
145.717555
 21
201.659724
 31
0.0
  0
ARC
  5
10E54
  8
DANMEN
  6
CONTINUOUS
 10
145.217555
 20
198.502085
 30
0.0
 40
0.5
 50
270.000018
 51
360.0
  0
ARC
  5
10E59
  8
DANMEN
  6
CONTINUOUS
 10
143.717555
 20
201.659724
 30
0.0
 40
2.0
 50
0.0
 51
85.301319
  0
LINE
  5
10E5B
  8
DANMEN
  6
CONTINUOUS
 10
99.3
 20
247.65
 30
0.0
 11
113.350006
 21
247.65
 31
0.0
  0
LINE
  5
10E5C
  8
DANMEN
  6
CONTINUOUS
 10
102.0
 20
223.0
 30
0.0
 11
114.5
 21
223.0
 31
0.0
  0
LINE
  5
10E5D
  8
DANMEN
  6
CONTINUOUS
 10
102.5
 20
224.65
 30
0.0
 11
113.350006
 21
224.65
 31
0.0
  0
LINE
  5
10E5E
  8
DANMEN
  6
CONTINUOUS
 10
85.8
 20
246.0
 30
0.0
 11
113.350006
 21
246.0
 31
0.0
  0
LINE
  5
10E5F
  8
DANMEN
  6
CONTINUOUS
 10
84.0
 20
246.0
 30
0.0
 11
84.0
 21
223.5
 31
0.0
  0
LINE
  5
10E60
  8
DANMEN
  6
CONTINUOUS
 10
85.8
 20
246.0
 30
0.0
 11
85.8
 21
226.0
 31
0.0
  0
LINE
  5
10E61
  8
DANMEN
  6
DASHED
 10
88.0
 20
223.0
 30
0.0
 11
100.0
 21
223.0
 31
0.0
  0
LINE
  5
10E62
  8
DANMEN
  6
DASHED
 10
84.5
 20
221.800003
 30
0.0
 11
103.5
 21
221.800003
 31
0.0
  0
ARC
  5
10E63
  8
DANMEN
  6
CONTINUOUS
 10
89.949991
 20
219.250092
 30
0.0
 40
1.5
 50
0.0
 51
89.999982
  0
LINE
  5
10E64
  8
DANMEN
  6
DASHED
 10
86.023824
 20
226.617136
 30
0.0
 11
87.423825
 21
229.917167
 31
0.0
  0
LINE
  5
10E65
  8
DANMEN
  6
DASHED
 10
87.5
 20
227.600003
 30
0.0
 11
87.992312
 21
229.73252
 31
0.0
  0
ARC
  5
10E66
  8
DANMEN
  6
DASHED
 10
84.5
 20
222.300003
 30
0.0
 40
0.5
 50
180.0
 51
269.999982
  0
ARC
  5
10E67
  8
DANMEN
  6
CONTINUOUS
 10
87.449985
 20
222.250092
 30
0.0
 40
1.5
 50
179.999964
 51
270.000001
  0
LINE
  5
10E69
  8
DANMEN
  6
CONTINUOUS
 10
87.449985
 20
220.750092
 30
0.0
 11
89.949991
 21
220.750092
 31
0.0
  0
LINE
  5
10E6A
  8
DANMEN
  6
DASHED
 10
86.5
 20
223.0
 30
0.0
 11
84.0
 21
223.0
 31
0.0
  0
ARC
  5
10E6B
  8
DANMEN
  6
DASHED
 10
86.299999
 20
226.499972
 30
0.0
 40
0.3
 50
157.011468
 51
235.656024
  0
LINE
  5
10E6C
  8
DANMEN
  6
CONTINUOUS
 10
86.5
 20
226.0
 30
0.0
 11
85.8
 21
226.0
 31
0.0
  0
ARC
  5
10E6D
  8
DANMEN
  6
CONTINUOUS
 10
86.0
 20
223.5
 30
0.0
 40
0.5
 50
270.0
 51
0.0
  0
LINE
  5
10E70
  8
DANMEN
  6
DASHED
 10
84.0
 20
223.0
 30
0.0
 11
84.0
 21
222.300003
 31
0.0
  0
ARC
  5
10E74
  8
DANMEN
  6
CONTINUOUS
 10
84.5
 20
223.5
 30
0.0
 40
0.5
 50
180.0
 51
270.0
  0
LINE
  5
10E75
  8
DANMEN
  6
CONTINUOUS
 10
86.0
 20
223.0
 30
0.0
 11
84.5
 21
223.0
 31
0.0
  0
LINE
  5
10E76
  8
DANMEN
  6
DASHED
 10
86.499991
 20
225.999972
 30
0.0
 11
86.130743
 21
226.252271
 31
0.0
  0
LINE
  5
10E77
  8
DANMEN
  6
DASHED
 10
86.5
 20
223.0
 30
0.0
 11
86.5
 21
225.999972
 31
0.0
  0
LINE
  5
10E78
  8
DANMEN
  6
DASHED
 10
87.5
 20
227.600003
 30
0.0
 11
87.5
 21
223.5
 31
0.0
  0
ARC
  5
10E79
  8
DANMEN
  6
DASHED
 10
88.0
 20
223.5
 30
0.0
 40
0.5
 50
180.0
 51
270.0
  0
LINE
  5
10E80
  8
DANMEN
  6
CONTINUOUS
 10
86.5
 20
226.0
 30
0.0
 11
86.5
 21
223.5
 31
0.0
  0
ARC
  5
10E86
  8
DANMEN
  6
DASHED
 10
87.7
 20
229.800003
 30
0.0
 40
0.3
 50
347.000479
 51
157.011468
  0
LINE
  5
10E87
  8
DANMEN
  6
DASHED
 10
100.5
 20
227.600003
 30
0.0
 11
100.007688
 21
229.73252
 31
0.0
  0
LINE
  5
10E88
  8
DANMEN
  6
DASHED
 10
101.976176
 20
226.617136
 30
0.0
 11
100.576175
 21
229.917167
 31
0.0
  0
LINE
  5
10E89
  8
DANMEN
  6
CONTINUOUS
 10
97.949994
 20
220.750092
 30
0.0
 11
100.449985
 21
220.750092
 31
0.0
  0
ARC
  5
10E8A
  8
DANMEN
  6
CONTINUOUS
 10
97.949994
 20
219.250092
 30
0.0
 40
1.5
 50
89.999982
 51
179.999964
  0
ARC
  5
10E8F
  8
DANMEN
  6
DASHED
 10
103.5
 20
222.300003
 30
0.0
 40
0.5
 50
270.000018
 51
0.0
  0
ARC
  5
10E90
  8
DANMEN
  6
CONTINUOUS
 10
100.449985
 20
222.250092
 30
0.0
 40
1.5
 50
270.000018
 51
0.0
  0
LINE
  5
10E92
  8
DANMEN
  6
DASHED
 10
101.5
 20
223.0
 30
0.0
 11
104.0
 21
223.0
 31
0.0
  0
LINE
  5
10E93
  8
DANMEN
  6
DASHED
 10
101.5
 20
223.0
 30
0.0
 11
104.0
 21
223.0
 31
0.0
  0
LINE
  5
10E94
  8
DANMEN
  6
CONTINUOUS
 10
102.206061
 20
225.642044
 30
0.0
 11
102.5
 21
224.65
 31
0.0
  0
ARC
  5
10E97
  8
DANMEN
  6
DASHED
 10
100.0
 20
223.5
 30
0.0
 40
0.5
 50
270.0
 51
0.0
  0
LINE
  5
10E98
  8
DANMEN
  6
DASHED
 10
100.5
 20
227.600003
 30
0.0
 11
100.5
 21
223.5
 31
0.0
  0
LINE
  5
10E99
  8
DANMEN
  6
DASHED
 10
101.5
 20
223.0
 30
0.0
 11
101.5
 21
225.999972
 31
0.0
  0
LINE
  5
10E9A
  8
DANMEN
  6
DASHED
 10
101.500009
 20
225.999972
 30
0.0
 11
101.869257
 21
226.252271
 31
0.0
  0
ARC
  5
10E9B
  8
DANMEN
  6
DASHED
 10
101.700001
 20
226.499972
 30
0.0
 40
0.3
 50
304.343976
 51
22.988532
  0
ARC
  5
10EA0
  8
DANMEN
  6
CONTINUOUS
 10
101.726662
 20
225.5
 30
0.0
 40
0.5
 50
16.504361
 51
90.0
  0
LINE
  5
10EA3
  8
DANMEN
  6
CONTINUOUS
 10
101.726662
 20
226.0
 30
0.0
 11
101.5
 21
226.0
 31
0.0
  0
LINE
  5
10EA4
  8
DANMEN
  6
CONTINUOUS
 10
101.5
 20
226.0
 30
0.0
 11
101.5
 21
223.5
 31
0.0
  0
ARC
  5
10EA5
  8
DANMEN
  6
CONTINUOUS
 10
102.0
 20
223.5
 30
0.0
 40
0.5
 50
180.0
 51
270.0
  0
LINE
  5
10EA8
  8
DANMEN
  6
DASHED
 10
104.0
 20
223.0
 30
0.0
 11
104.0
 21
222.300003
 31
0.0
  0
LINE
  5
10EAA
  8
DANMEN
  6
CONTINUOUS
 10
91.449998
 20
230.0
 30
0.0
 11
96.449986
 21
230.0
 31
0.0
  0
ARC
  5
10EAD
  8
DANMEN
  6
DASHED
 10
100.3
 20
229.800003
 30
0.0
 40
0.3
 50
22.988532
 51
192.999521
  0
LINE
  5
10EAF
  8
DANMEN
  6
CONTINUOUS
 10
85.65
 20
247.65
 30
0.0
 11
90.7
 21
247.65
 31
0.0
  0
ARC
  5
10EB0
  8
DANMEN
  6
CONTINUOUS
 10
84.65
 20
250.600012
 30
0.0
 40
1.0
 50
0.0
 51
90.0
  0
LINE
  5
10EB5
  8
DANMEN
  6
CONTINUOUS
 10
83.0
 20
246.0
 30
0.0
 11
84.0
 21
246.0
 31
0.0
  0
LINE
  5
10EB6
  8
DANMEN
  6
CONTINUOUS
 10
85.65
 20
250.600012
 30
0.0
 11
85.65
 21
247.65
 31
0.0
  0
ARC
  5
10EB7
  8
DANMEN
  6
CONTINUOUS
 10
83.0
 20
246.5
 30
0.0
 40
0.5
 50
180.000019
 51
270.000001
  0
LINE
  5
10EB8
  8
DANMEN
  6
CONTINUOUS
 10
82.5
 20
246.8
 30
0.0
 11
82.5
 21
246.5
 31
0.0
  0
LINE
  5
10EB9
  8
DANMEN
  6
CONTINUOUS
 10
82.5
 20
246.8
 30
0.0
 11
84.0
 21
246.8
 31
0.0
  0
LINE
  5
10EBA
  8
DANMEN
  6
CONTINUOUS
 10
84.0
 20
249.950012
 30
0.0
 11
84.0
 21
246.8
 31
0.0
  0
ARC
  5
10EBF
  8
DANMEN
  6
CONTINUOUS
 10
93.7
 20
250.030306
 30
0.0
 40
2.0
 50
128.293195
 51
180.0
  0
LINE
  5
10EC0
  8
DANMEN
  6
CONTINUOUS
 10
93.9
 20
251.036932
 30
0.0
 11
93.9
 21
251.3
 31
0.0
  0
ARC
  5
10EC1
  8
DANMEN
  6
CONTINUOUS
 10
96.3
 20
250.030306
 30
0.0
 40
2.0
 50
0.0
 51
51.706523
  0
LINE
  5
10EC2
  8
DANMEN
  6
CONTINUOUS
 10
96.1
 20
251.036932
 30
0.0
 11
96.1
 21
251.3
 31
0.0
  0
ARC
  5
10EC3
  8
DANMEN
  6
CONTINUOUS
 10
99.3
 20
248.65
 30
0.0
 40
1.0
 50
180.0
 51
270.0
  0
LINE
  5
10EC4
  8
DANMEN
  6
CONTINUOUS
 10
95.8
 20
247.7
 30
0.0
 11
94.2
 21
247.7
 31
0.0
  0
ARC
  5
10EC6
  8
DANMEN
  6
CONTINUOUS
 10
90.7
 20
248.65
 30
0.0
 40
1.0
 50
270.0
 51
0.0
  0
LINE
  5
10EC7
  8
DANMEN
  6
CONTINUOUS
 10
91.7
 20
250.030306
 30
0.0
 11
91.7
 21
248.65
 31
0.0
  0
ARC
  5
10EC8
  8
DANMEN
  6
CONTINUOUS
 10
94.2
 20
249.946061
 30
0.0
 40
1.0
 50
114.624318
 51
180.0
  0
ARC
  5
10EC9
  8
DANMEN
  6
CONTINUOUS
 10
93.7
 20
251.036932
 30
0.0
 40
0.2
 50
294.624318
 51
0.0
  0
LINE
  5
10ECA
  8
DANMEN
  6
CONTINUOUS
 10
93.2
 20
249.946061
 30
0.0
 11
93.2
 21
248.7
 31
0.0
  0
ARC
  5
10ECB
  8
DANMEN
  6
CONTINUOUS
 10
94.2
 20
248.7
 30
0.0
 40
1.0
 50
180.0
 51
270.0
  0
ARC
  5
10ECE
  8
DANMEN
  6
CONTINUOUS
 10
96.3
 20
251.036932
 30
0.0
 40
0.2
 50
180.0
 51
245.375682
  0
ARC
  5
10ECF
  8
DANMEN
  6
CONTINUOUS
 10
95.8
 20
249.946061
 30
0.0
 40
1.0
 50
0.0
 51
65.375682
  0
ARC
  5
10ED0
  8
DANMEN
  6
CONTINUOUS
 10
95.8
 20
248.7
 30
0.0
 40
1.0
 50
270.0
 51
0.0
  0
LINE
  5
10ED1
  8
DANMEN
  6
CONTINUOUS
 10
98.3
 20
250.030306
 30
0.0
 11
98.3
 21
248.65
 31
0.0
  0
LINE
  5
10ED2
  8
DANMEN
  6
CONTINUOUS
 10
96.8
 20
249.946061
 30
0.0
 11
96.8
 21
248.7
 31
0.0
  0
ARC
  5
10ED3
  8
DANMEN
  6
CONTINUOUS
 10
93.6
 20
251.3
 30
0.0
 40
0.3
 50
0.0
 51
90.0
  0
LINE
  5
10ED4
  8
DANMEN
  6
CONTINUOUS
 10
93.6
 20
251.600006
 30
0.0
 11
92.460628
 21
251.600006
 31
0.0
  0
LINE
  5
10ED5
  8
DANMEN
  6
CONTINUOUS
 10
97.539379
 20
251.6
 30
0.0
 11
96.4
 21
251.6
 31
0.0
  0
ARC
  5
10ED6
  8
DANMEN
  6
CONTINUOUS
 10
96.4
 20
251.3
 30
0.0
 40
0.3
 50
90.0
 51
180.0
  0
LINE
  5
10ED7
  8
DANMEN
  6
CONTINUOUS
 10
113.350006
 20
246.0
 30
0.0
 11
113.350006
 21
224.65
 31
0.0
  0
LINE
  5
10ED8
  8
DANMEN
  6
CONTINUOUS
 10
115.0
 20
257.5
 30
0.0
 11
115.0
 21
223.5
 31
0.0
  0
ARC
  5
10ED9
  8
DANMEN
  6
CONTINUOUS
 10
114.5
 20
223.5
 30
0.0
 40
0.5
 50
270.000018
 51
0.0
  0
LINE
  5
10EDC
  8
DANMEN
  6
CONTINUOUS
 10
111.0
 20
223.0
 30
0.0
 11
111.539155
 21
222.962299
 31
0.0
  0
ARC
  5
10EDD
  8
DANMEN
  6
CONTINUOUS
 10
111.504277
 20
222.463517
 30
0.0
 40
0.5
 50
0.83042
 51
86.0
  0
LINE
  5
10EE2
  8
DANMEN
  6
CONTINUOUS
 10
113.350006
 20
256.350006
 30
0.0
 11
113.350006
 21
247.65
 31
0.0
  0
ARC
  5
10EE5
  8
DANMEN
  6
CONTINUOUS
 10
114.5
 20
257.5
 30
0.0
 40
0.5
 50
0.0
 51
89.999982
  0
LINE
  5
10EE6
  8
DANMEN
  6
CONTINUOUS
 10
109.0
 20
257.5
 30
0.0
 11
109.0
 21
256.850006
 31
0.0
  0
LINE
  5
10EE7
  8
DANMEN
  6
CONTINUOUS
 10
109.5
 20
256.350006
 30
0.0
 11
113.350006
 21
256.350006
 31
0.0
  0
ARC
  5
10EE8
  8
DANMEN
  6
CONTINUOUS
 10
109.5
 20
256.850006
 30
0.0
 40
0.5
 50
180.000019
 51
270.000001
  0
LINE
  5
10EEB
  8
DANMEN
  6
CONTINUOUS
 10
109.5
 20
258.0
 30
0.0
 11
114.5
 21
258.0
 31
0.0
  0
ARC
  5
10EEC
  8
DANMEN
  6
CONTINUOUS
 10
109.5
 20
257.5
 30
0.0
 40
0.5
 50
89.999982
 51
180.000019
  0
LINE
  5
10EF0
  8
DANMEN
  6
CONTINUOUS
 10
276.000003
 20
60.5
 30
0.0
 11
276.000003
 21
122.0
 31
0.0
  0
LINE
  5
10EF1
  8
DANMEN
  6
CONTINUOUS
 10
299.000003
 20
117.5
 30
0.0
 11
299.000003
 21
115.842199
 31
0.0
  0
LINE
  5
10EF2
  8
DANMEN
  6
CONTINUOUS
 10
316.0
 20
117.0
 30
0.0
 11
316.0
 21
115.5
 31
0.0
  0
LINE
  5
10EF3
  8
DANMEN
  6
CONTINUOUS
 10
299.000003
 20
117.5
 30
0.0
 11
299.000003
 21
116.0
 31
0.0
  0
LINE
  5
10EF4
  8
DANMEN
  6
CONTINUOUS
 10
392.649994
 20
154.850006
 30
0.0
 11
392.649994
 21
88.149994
 31
0.0
  0
LINE
  5
10EF5
  8
DANMEN
  6
CONTINUOUS
 10
383.0
 20
117.5
 30
0.0
 11
383.0
 21
115.792199
 31
0.0
  0
LINE
  5
10EF6
  8
DANMEN
  6
CONTINUOUS
 10
366.000003
 20
117.0
 30
0.0
 11
366.000003
 21
115.5
 31
0.0
  0
LINE
  5
10EF7
  8
DANMEN
  6
CONTINUOUS
 10
383.0
 20
117.5
 30
0.0
 11
383.0
 21
116.0
 31
0.0
  0
LINE
  5
10EF8
  8
SUNPO
  6
CONTINUOUS
 10
333.0
 20
117.5
 30
0.0
 11
333.0
 21
86.5
 31
0.0
  0
LINE
  5
10EF9
  8
SUNPO
  6
CONTINUOUS
 10
353.577611
 20
115.0
 30
0.0
 11
353.577611
 21
117.5
 31
0.0
  0
LINE
  5
10EFA
  8
SUNPO
  6
CONTINUOUS
 10
257.5
 20
86.5
 30
0.0
 11
257.5
 21
156.5
 31
0.0
  0
LINE
  5
10EFB
  8
SUNPO
  6
CONTINUOUS
 10
156.0
 20
99.0
 30
0.0
 11
156.0
 21
153.0
 31
0.0
  0
LINE
  5
10EFC
  8
SUNPO
  6
CONTINUOUS
 10
25.0
 20
59.0
 30
0.0
 11
25.0
 21
153.0
 31
0.0
  0
LINE
  5
10EFD
  8
SUNPO
  6
CONTINUOUS
 10
166.0
 20
155.593714
 30
0.0
 11
166.0
 21
99.0
 31
0.0
  0
TEXT
  5
10EFE
  8
SUNPO
  6
CONTINUOUS
 10
332.0
 20
102.282096
 30
0.0
 40
2.5
  1
31
 50
90.0
  0
TEXT
  5
10EFF
  8
SUNPO
  6
CONTINUOUS
 10
332.0
 20
70.416667
 30
0.0
 40
2.5
  1
28
 50
90.0
  0
LINE
  5
10F00
  8
SUNPO
  6
CONTINUOUS
 10
316.500004
 20
58.5
 30
0.0
 11
333.0
 21
58.5
 31
0.0
  0
LINE
  5
10F01
  8
SUNPO
  6
CONTINUOUS
 10
316.0
 20
42.0
 30
0.0
 11
376.0
 21
42.0
 31
0.0
  0
LINE
  5
10F02
  8
SUNPO
  6
CONTINUOUS
 10
314.552269
 20
30.0
 30
0.0
 11
376.0
 21
30.0
 31
0.0
  0
LINE
  5
10F03
  8
SUNPO
  6
CONTINUOUS
 10
60.0
 20
30.0
 30
0.0
 11
166.0
 21
30.0
 31
0.0
  0
LINE
  5
10F06
  8
DANMEN
  6
CONTINUOUS
 10
339.5
 20
88.15
 30
0.0
 11
316.0
 21
88.15
 31
0.0
  0
LINE
  5
10F07
  8
DANMEN
  6
CONTINUOUS
 10
339.5
 20
86.5
 30
0.0
 11
316.0
 21
86.5
 31
0.0
  0
LINE
  5
10F08
  8
DANMEN
  6
CONTINUOUS
 10
339.5
 20
86.5
 30
0.0
 11
316.0
 21
86.5
 31
0.0
  0
LINE
  5
10F09
  8
DANMEN
  6
CONTINUOUS
 10
339.5
 20
97.5
 30
0.0
 11
316.0
 21
97.5
 31
0.0
  0
LINE
  5
10F0A
  8
DANMEN
  6
CONTINUOUS
 10
339.5
 20
99.5
 30
0.0
 11
316.0
 21
99.5
 31
0.0
  0
LINE
  5
10F0B
  8
DANMEN
  6
CONTINUOUS
 10
339.5
 20
115.5
 30
0.0
 11
316.0
 21
115.5
 31
0.0
  0
LINE
  5
10F0C
  8
DANMEN
  6
CONTINUOUS
 10
339.5
 20
105.000014
 30
0.0
 11
309.0
 21
105.000014
 31
0.0
  0
LINE
  5
10F0D
  8
DANMEN
  6
CONTINUOUS
 10
339.5
 20
105.500014
 30
0.0
 11
309.0
 21
105.500014
 31
0.0
  0
LINE
  5
10F0E
  8
DANMEN
  6
CONTINUOUS
 10
339.5
 20
110.000002
 30
0.0
 11
309.0
 21
110.000002
 31
0.0
  0
LINE
  5
10F0F
  8
DANMEN
  6
CONTINUOUS
 10
339.5
 20
109.500002
 30
0.0
 11
309.0
 21
109.500002
 31
0.0
  0
LINE
  5
10F11
  8
DANMEN
  6
CONTINUOUS
 10
266.5
 20
88.15
 30
0.0
 11
276.0
 21
88.15
 31
0.0
  0
LINE
  5
10F12
  8
DANMEN
  6
CONTINUOUS
 10
266.5
 20
86.5
 30
0.0
 11
276.0
 21
86.5
 31
0.0
  0
LINE
  5
10F13
  8
DANMEN
  6
CONTINUOUS
 10
266.5
 20
97.5
 30
0.0
 11
276.0
 21
97.5
 31
0.0
  0
LINE
  5
10F14
  8
DANMEN
  6
CONTINUOUS
 10
216.0
 20
88.15
 30
0.0
 11
263.5
 21
88.15
 31
0.0
  0
LINE
  5
10F15
  8
DANMEN
  6
CONTINUOUS
 10
216.0
 20
86.5
 30
0.0
 11
263.5
 21
86.5
 31
0.0
  0
ARC
  5
10F16
  8
DANMEN
  6
CONTINUOUS
 10
215.5
 20
87.0
 30
0.0
 40
0.5
 50
270.000018
 51
359.999981
  0
ARC
  5
10F19
  8
DANMEN
  6
CONTINUOUS
 10
215.5
 20
87.649994
 30
0.0
 40
0.5
 50
359.999981
 51
89.999982
  0
LINE
  5
10F1A
  8
DANMEN
  6
CONTINUOUS
 10
216.0
 20
87.649994
 30
0.0
 11
216.0
 21
87.0
 31
0.0
  0
LINE
  5
10F1B
  8
DANMEN
  6
CONTINUOUS
 10
278.500003
 20
63.0
 30
0.0
 11
278.500003
 21
73.0
 31
0.0
  0
LINE
  5
10F1C
  8
DANMEN
  6
CONTINUOUS
 10
313.500003
 20
63.0
 30
0.0
 11
313.500003
 21
73.0
 31
0.0
  0
LINE
  5
10F1D
  8
DANMEN
  6
CONTINUOUS
 10
316.000003
 20
60.5
 30
0.0
 11
316.000003
 21
99.5
 31
0.0
  0
LINE
  5
10F1E
  8
DANMEN
  6
CONTINUOUS
 10
313.500003
 20
63.0
 30
0.0
 11
278.500003
 21
63.0
 31
0.0
  0
LINE
  5
10F1F
  8
DANMEN
  6
CONTINUOUS
 10
314.000003
 20
58.5
 30
0.0
 11
278.000003
 21
58.5
 31
0.0
  0
ARC
  5
10F20
  8
DANMEN
  6
CONTINUOUS
 10
278.000003
 20
60.5
 30
0.0
 40
2.0
 50
179.999981
 51
270.000018
  0
ARC
  5
10F21
  8
DANMEN
  6
CONTINUOUS
 10
314.000003
 20
60.5
 30
0.0
 40
2.0
 50
270.000018
 51
0.0
  0
LINE
  5
10F22
  8
DANMEN
  6
CONTINUOUS
 10
314.900006
 20
92.449997
 30
0.0
 11
291.000003
 21
92.449997
 31
0.0
  0
LINE
  5
10F23
  8
DANMEN
  6
CONTINUOUS
 10
314.000006
 20
90.5
 30
0.0
 11
278.0
 21
90.5
 31
0.0
  0
LINE
  5
10F24
  8
DANMEN
  6
CONTINUOUS
 10
311.0
 20
115.55
 30
0.0
 11
301.300003
 21
115.55
 31
0.0
  0
LINE
  5
10F25
  8
DANMEN
  6
CONTINUOUS
 10
291.000003
 20
100.799994
 30
0.0
 11
309.000003
 21
100.799994
 31
0.0
  0
LINE
  5
10F26
  8
DANMEN
  6
CONTINUOUS
 10
309.000003
 20
100.799994
 30
0.0
 11
291.000003
 21
110.799994
 31
0.0
  0
LINE
  5
10F27
  8
DANMEN
  6
CONTINUOUS
 10
291.000003
 20
110.799994
 30
0.0
 11
309.000003
 21
110.799994
 31
0.0
  0
LINE
  5
10F28
  8
DANMEN
  6
CONTINUOUS
 10
291.000003
 20
92.449997
 30
0.0
 11
291.000003
 21
110.799994
 31
0.0
  0
LINE
  5
10F29
  8
DANMEN
  6
CONTINUOUS
 10
289.050006
 20
92.449997
 30
0.0
 11
289.050006
 21
115.550003
 31
0.0
  0
LINE
  5
10F2A
  8
DANMEN
  6
CONTINUOUS
 10
277.95
 20
92.449997
 30
0.0
 11
277.95
 21
114.550003
 31
0.0
  0
LINE
  5
10F2B
  8
DANMEN
  6
CONTINUOUS
 10
289.050006
 20
92.449997
 30
0.0
 11
277.95
 21
92.449997
 31
0.0
  0
LINE
  5
10F2C
  8
DANMEN
  6
CONTINUOUS
 10
278.0
 20
90.5
 30
0.0
 11
278.500003
 21
73.0
 31
0.0
  0
LINE
  5
10F2D
  8
DANMEN
  6
CONTINUOUS
 10
289.050006
 20
115.550003
 30
0.0
 11
277.65
 21
115.550003
 31
0.0
  0
LINE
  5
10F2E
  8
DANMEN
  6
CONTINUOUS
 10
277.65
 20
114.550003
 30
0.0
 11
277.65
 21
115.550003
 31
0.0
  0
LINE
  5
10F2F
  8
DANMEN
  6
CONTINUOUS
 10
277.95
 20
114.550003
 30
0.0
 11
277.65
 21
114.550003
 31
0.0
  0
LINE
  5
10F30
  8
DANMEN
  6
CONTINUOUS
 10
297.000003
 20
110.799994
 30
0.0
 11
291.000003
 21
110.799994
 31
0.0
  0
LINE
  5
10F31
  8
DANMEN
  6
CONTINUOUS
 10
297.000003
 20
115.55
 30
0.0
 11
291.000003
 21
115.55
 31
0.0
  0
LINE
  5
10F32
  8
DANMEN
  6
CONTINUOUS
 10
295.000003
 20
111.999994
 30
0.0
 11
296.598061
 21
111.680382
 31
0.0
  0
LINE
  5
10F33
  8
DANMEN
  6
CONTINUOUS
 10
296.401086
 20
113.8
 30
0.0
 11
293.699108
 21
111.8
 31
0.0
  0
LINE
  5
10F34
  8
DANMEN
  6
CONTINUOUS
 10
296.413124
 20
115.301883
 30
0.0
 11
293.436097
 21
113.098292
 31
0.0
  0
LINE
  5
10F35
  8
DANMEN
  6
CONTINUOUS
 10
295.000003
 20
111.999994
 30
0.0
 11
291.000003
 21
111.999994
 31
0.0
  0
LINE
  5
10F36
  8
DANMEN
  6
CONTINUOUS
 10
291.000003
 20
111.999994
 30
0.0
 11
291.000003
 21
115.55
 31
0.0
  0
LINE
  5
10F37
  8
DANMEN
  6
CONTINUOUS
 10
293.699108
 20
111.8
 30
0.0
 11
292.499108
 21
111.8
 31
0.0
  0
LINE
  5
10F38
  8
DANMEN
  6
CONTINUOUS
 10
291.588049
 20
113.115608
 30
0.0
 11
292.499108
 21
111.8
 31
0.0
  0
LINE
  5
10F39
  8
DANMEN
  6
CONTINUOUS
 10
291.499108
 20
113.400266
 30
0.0
 11
291.499108
 21
113.400136
 31
0.0
  0
LINE
  5
10F3A
  8
DANMEN
  6
CONTINUOUS
 10
291.999108
 20
113.900136
 30
0.0
 11
292.242473
 21
113.900136
 31
0.0
  0
ARC
  5
10F3B
  8
DANMEN
  6
CONTINUOUS
 10
291.999108
 20
113.400266
 30
0.0
 40
0.5
 50
180.0
 51
214.702622
  0
ARC
  5
10F3C
  8
DANMEN
  6
CONTINUOUS
 10
291.999108
 20
113.400136
 30
0.0
 40
0.5
 50
90.0
 51
180.0
  0
LINE
  5
10F3D
  8
DANMEN
  6
CONTINUOUS
 10
292.653532
 20
113.684794
 30
0.0
 11
293.010978
 21
113.168627
 31
0.0
  0
ARC
  5
10F3E
  8
DANMEN
  6
CONTINUOUS
 10
293.257613
 20
113.339422
 30
0.0
 40
0.3
 50
214.702622
 51
306.508792
  0
ARC
  5
10F3F
  8
DANMEN
  6
CONTINUOUS
 10
292.242473
 20
113.400136
 30
0.0
 40
0.5
 50
34.702622
 51
90.0
  0
LINE
  5
10F40
  8
DANMEN
  6
CONTINUOUS
 10
300.300003
 20
113.8
 30
0.0
 11
296.401086
 21
113.8
 31
0.0
  0
ARC
  5
10F41
  8
DANMEN
  6
CONTINUOUS
 10
296.500003
 20
111.190092
 30
0.0
 40
0.5
 50
0.0
 51
78.690068
  0
LINE
  5
10F42
  8
DANMEN
  6
CONTINUOUS
 10
297.000003
 20
111.190092
 30
0.0
 11
297.000003
 21
110.799994
 31
0.0
  0
ARC
  5
10F43
  8
DANMEN
  6
CONTINUOUS
 10
297.300003
 20
115.3
 30
0.0
 40
0.3
 50
180.0
 51
270.0
  0
LINE
  5
10F44
  8
DANMEN
  6
CONTINUOUS
 10
297.000003
 20
115.3
 30
0.0
 11
297.000003
 21
115.55
 31
0.0
  0
LINE
  5
10F45
  8
DANMEN
  6
CONTINUOUS
 10
298.211148
 20
115.105573
 30
0.0
 11
298.745426
 21
115.406576
 31
0.0
  0
ARC
  5
10F46
  8
DANMEN
  6
CONTINUOUS
 10
297.763935
 20
116.0
 30
0.0
 40
1.0
 50
270.0
 51
296.565051
  0
ARC
  5
10F47
  8
DANMEN
  6
CONTINUOUS
 10
298.500003
 20
115.842199
 30
0.0
 40
0.5
 50
299.396173
 51
0.0
  0
LINE
  5
10F48
  8
DANMEN
  6
CONTINUOUS
 10
297.300003
 20
115.0
 30
0.0
 11
297.763935
 21
115.0
 31
0.0
  0
LINE
  5
10F49
  8
DANMEN
  6
CONTINUOUS
 10
299.300003
 20
115.0
 30
0.0
 11
297.300003
 21
115.0
 31
0.0
  0
LINE
  5
10F4A
  8
DANMEN
  6
CONTINUOUS
 10
299.300003
 20
116.0
 30
0.0
 11
299.300003
 21
115.0
 31
0.0
  0
LINE
  5
10F4B
  8
DANMEN
  6
CONTINUOUS
 10
299.300003
 20
116.0
 30
0.0
 11
299.000003
 21
116.0
 31
0.0
  0
LINE
  5
10F4C
  8
DANMEN
  6
CONTINUOUS
 10
296.734317
 20
115.4
 30
0.0
 11
296.710597
 21
115.4
 31
0.0
  0
ARC
  5
10F4D
  8
DANMEN
  6
CONTINUOUS
 10
296.710597
 20
114.9
 30
0.0
 40
0.5
 50
90.0
 51
126.508792
  0
ARC
  5
10F4E
  8
DANMEN
  6
CONTINUOUS
 10
297.300003
 20
115.3
 30
0.0
 40
0.3
 50
199.471221
 51
270.0
  0
ARC
  5
10F50
  8
DANMEN
  6
CONTINUOUS
 10
296.734317
 20
115.1
 30
0.0
 40
0.3
 50
19.471221
 51
90.0
  0
ARC
  5
10F52
  8
DANMEN
  6
CONTINUOUS
 10
301.300003
 20
115.05
 30
0.0
 40
0.5
 50
90.0
 51
180.0
  0
LINE
  5
10F53
  8
DANMEN
  6
CONTINUOUS
 10
300.800003
 20
115.05
 30
0.0
 11
300.800003
 21
114.3
 31
0.0
  0
ARC
  5
10F54
  8
DANMEN
  6
CONTINUOUS
 10
300.300003
 20
114.3
 30
0.0
 40
0.5
 50
270.0
 51
0.0
  0
LINE
  5
10F55
  8
DANMEN
  6
CONTINUOUS
 10
314.900003
 20
92.449997
 30
0.0
 11
314.900003
 21
94.449997
 31
0.0
  0
LINE
  5
10F56
  8
DANMEN
  6
CONTINUOUS
 10
314.000006
 20
90.5
 30
0.0
 11
313.500003
 21
73.0
 31
0.0
  0
ARC
  5
10F57
  8
DANMEN
  6
CONTINUOUS
 10
320.0
 20
103.500006
 30
0.0
 40
1.5
 50
90.0
 51
179.999982
  0
ARC
  5
10F58
  8
DANMEN
  6
CONTINUOUS
 10
320.0
 20
111.500009
 30
0.0
 40
1.5
 50
179.999982
 51
269.999964
  0
LINE
  5
10F59
  8
DANMEN
  6
CONTINUOUS
 10
309.000003
 20
110.799994
 30
0.0
 11
309.000003
 21
100.799994
 31
0.0
  0
LINE
  5
10F5A
  8
DANMEN
  6
CONTINUOUS
 10
314.050003
 20
94.449997
 30
0.0
 11
314.050003
 21
99.0
 31
0.0
  0
LINE
  5
10F5B
  8
DANMEN
  6
CONTINUOUS
 10
314.900006
 20
94.449997
 30
0.0
 11
314.050003
 21
94.449997
 31
0.0
  0
ARC
  5
10F5C
  8
DANMEN
  6
CONTINUOUS
 10
315.500003
 20
99.5
 30
0.0
 40
0.5
 50
0.000019
 51
89.999982
  0
LINE
  5
10F5D
  8
DANMEN
  6
CONTINUOUS
 10
313.000003
 20
99.5
 30
0.0
 11
313.000003
 21
100.0
 31
0.0
  0
LINE
  5
10F5E
  8
DANMEN
  6
CONTINUOUS
 10
314.050003
 20
99.0
 30
0.0
 11
313.500003
 21
99.0
 31
0.0
  0
ARC
  5
10F5F
  8
DANMEN
  6
CONTINUOUS
 10
313.500003
 20
99.5
 30
0.0
 40
0.5
 50
180.0
 51
270.0
  0
LINE
  5
10F60
  8
DANMEN
  6
CONTINUOUS
 10
315.500003
 20
100.0
 30
0.0
 11
313.000003
 21
100.0
 31
0.0
  0
ARC
  5
10F61
  8
DANMEN
  6
CONTINUOUS
 10
317.0
 20
101.0
 30
0.0
 40
1.5
 50
269.999964
 51
0.000001
  0
LINE
  5
10F62
  8
DANMEN
  6
CONTINUOUS
 10
318.5
 20
101.0
 30
0.0
 11
318.5
 21
103.500006
 31
0.0
  0
LINE
  5
10F63
  8
DANMEN
  6
CONTINUOUS
 10
312.0
 20
115.0
 30
0.0
 11
311.0
 21
115.0
 31
0.0
  0
LINE
  5
10F64
  8
DANMEN
  6
CONTINUOUS
 10
309.0
 20
110.000002
 30
0.0
 11
309.0
 21
104.999998
 31
0.0
  0
LINE
  5
10F65
  8
DANMEN
  6
CONTINUOUS
 10
311.0
 20
115.55
 30
0.0
 11
311.0
 21
115.0
 31
0.0
  0
ARC
  5
10F67
  8
DANMEN
  6
CONTINUOUS
 10
315.5
 20
115.5
 30
0.0
 40
0.5
 50
270.0
 51
0.0
  0
ARC
  5
10F68
  8
DANMEN
  6
CONTINUOUS
 10
312.5
 20
115.05
 30
0.0
 40
0.5
 50
90.0
 51
180.0
  0
LINE
  5
10F69
  8
DANMEN
  6
CONTINUOUS
 10
313.0
 20
115.55
 30
0.0
 11
313.0
 21
115.0
 31
0.0
  0
LINE
  5
10F6A
  8
DANMEN
  6
CONTINUOUS
 10
313.0
 20
115.55
 30
0.0
 11
312.5
 21
115.55
 31
0.0
  0
LINE
  5
10F6B
  8
DANMEN
  6
CONTINUOUS
 10
312.0
 20
115.05
 30
0.0
 11
312.0
 21
115.0
 31
0.0
  0
LINE
  5
10F6C
  8
DANMEN
  6
CONTINUOUS
 10
315.499999
 20
115.0
 30
0.0
 11
313.0
 21
115.0
 31
0.0
  0
LINE
  5
10F6D
  8
DANMEN
  6
CONTINUOUS
 10
318.5
 20
111.500009
 30
0.0
 11
318.5
 21
114.0
 31
0.0
  0
ARC
  5
10F6E
  8
DANMEN
  6
CONTINUOUS
 10
317.0
 20
114.0
 30
0.0
 40
1.5
 50
0.000018
 51
90.0
  0
LINE
  5
10F6F
  8
SUNPO
  6
CONTINUOUS
 10
25.0
 20
30.0
 30
0.0
 11
25.0
 21
39.0
 31
0.0
  0
LINE
  5
10F70
  8
SUNPO
  6
CONTINUOUS
 10
45.0
 20
37.5
 30
0.0
 11
45.0
 21
20.0
 31
0.0
  0
LINE
  5
10F71
  8
SUNPO
  6
CONTINUOUS
 10
55.5
 20
30.0
 30
0.0
 11
25.0
 21
30.0
 31
0.0
  0
ARC
  5
10F72
  8
SUNPO
  6
BYBLOCK
 10
25.0
 20
30.0
 30
0.0
 40
0.145
 50
270.0
 51
90.0
  0
ARC
  5
10F73
  8
SUNPO
  6
BYBLOCK
 10
25.0
 20
30.0
 30
0.0
 40
0.145
 50
90.0
 51
270.0
  0
TEXT
  5
10F74
  8
SUNPO
  6
CONTINUOUS
 10
49.333333
 20
21.0
 30
0.0
 40
2.5
  1
12
  0
LINE
  5
10F75
  8
SUNPO
  6
CONTINUOUS
 10
45.0
 20
20.0
 30
0.0
 11
57.0
 21
20.0
 31
0.0
  0
ARC
  5
10F76
  8
SUNPO
  6
BYBLOCK
 10
45.0
 20
20.0
 30
0.0
 40
0.145
 50
180.0
 51
0.0
  0
ARC
  5
10F77
  8
SUNPO
  6
BYBLOCK
 10
45.0
 20
20.0
 30
0.0
 40
0.145
 50
0.0
 51
180.0
  0
LINE
  5
10F78
  8
SUNPO
  6
CONTINUOUS
 10
57.0
 20
28.5
 30
0.0
 11
57.0
 21
20.0
 31
0.0
  0
ARC
  5
10F79
  8
SUNPO
  6
BYBLOCK
 10
57.0
 20
20.0
 30
0.0
 40
0.145
 50
0.0
 51
180.0
  0
ARC
  5
10F7A
  8
SUNPO
  6
BYBLOCK
 10
57.0
 20
20.0
 30
0.0
 40
0.145
 50
180.0
 51
0.0
  0
LINE
  5
10F7B
  8
DANMEN
  6
CONTINUOUS
 10
369.0
 20
99.15
 30
0.0
 11
377.15
 21
99.15
 31
0.0
  0
LINE
  5
10F7C
  8
DANMEN
  6
CONTINUOUS
 10
366.5
 20
97.5
 30
0.0
 11
376.0
 21
97.5
 31
0.0
  0
LINE
  5
10F7D
  8
DANMEN
  6
CONTINUOUS
 10
369.000003
 20
115.55
 30
0.0
 11
369.500003
 21
115.55
 31
0.0
  0
LINE
  5
10F7E
  8
DANMEN
  6
CONTINUOUS
 10
342.5
 20
88.15
 30
0.0
 11
376.0
 21
88.15
 31
0.0
  0
LINE
  5
10F7F
  8
DANMEN
  6
CONTINUOUS
 10
342.5
 20
86.5
 30
0.0
 11
376.0
 21
86.5
 31
0.0
  0
LINE
  5
10F80
  8
DANMEN
  6
CONTINUOUS
 10
373.0
 20
105.500014
 30
0.0
 11
342.5
 21
105.500014
 31
0.0
  0
LINE
  5
10F81
  8
DANMEN
  6
CONTINUOUS
 10
373.0
 20
109.500002
 30
0.0
 11
342.5
 21
109.500002
 31
0.0
  0
LINE
  5
10F82
  8
DANMEN
  6
CONTINUOUS
 10
373.0
 20
105.000014
 30
0.0
 11
342.5
 21
105.000014
 31
0.0
  0
LINE
  5
10F83
  8
DANMEN
  6
CONTINUOUS
 10
373.0
 20
110.000002
 30
0.0
 11
342.5
 21
110.000002
 31
0.0
  0
LINE
  5
10F84
  8
DANMEN
  6
CONTINUOUS
 10
342.5
 20
97.5
 30
0.0
 11
366.5
 21
97.5
 31
0.0
  0
LINE
  5
10F85
  8
DANMEN
  6
CONTINUOUS
 10
342.5
 20
99.500015
 30
0.0
 11
366.0
 21
99.500015
 31
0.0
  0
LINE
  5
10F86
  8
DANMEN
  6
CONTINUOUS
 10
342.5
 20
115.500015
 30
0.0
 11
366.0
 21
115.500015
 31
0.0
  0
ARC
  5
10F87
  8
DANMEN
  6
CONTINUOUS
 10
362.000092
 20
103.500006
 30
0.0
 40
1.5
 50
359.999982
 51
89.999964
  0
LINE
  5
10F88
  8
DANMEN
  6
CONTINUOUS
 10
366.0
 20
99.5
 30
0.0
 11
366.0
 21
98.0
 31
0.0
  0
ARC
  5
10F89
  8
DANMEN
  6
CONTINUOUS
 10
366.5
 20
98.0
 30
0.0
 40
0.5
 50
180.0
 51
269.999982
  0
ARC
  5
10F8A
  8
DANMEN
  6
CONTINUOUS
 10
365.000092
 20
101.000015
 30
0.0
 40
1.5
 50
180.000018
 51
270.0
  0
LINE
  5
10F8B
  8
DANMEN
  6
CONTINUOUS
 10
363.500092
 20
103.500006
 30
0.0
 11
363.500092
 21
101.000015
 31
0.0
  0
LINE
  5
10F8C
  8
DANMEN
  6
CONTINUOUS
 10
366.5
 20
100.0
 30
0.0
 11
369.0
 21
100.0
 31
0.0
  0
LINE
  5
10F8D
  8
DANMEN
  6
CONTINUOUS
 10
369.0
 20
100.0
 30
0.0
 11
369.0
 21
99.15
 31
0.0
  0
ARC
  5
10F8E
  8
DANMEN
  6
CONTINUOUS
 10
366.5
 20
99.5
 30
0.0
 40
0.5
 50
89.999963
 51
180.000019
  0
ARC
  5
10F8F
  8
DANMEN
  6
CONTINUOUS
 10
362.000092
 20
111.500009
 30
0.0
 40
1.5
 50
270.0
 51
359.999982
  0
ARC
  5
10F91
  8
DANMEN
  6
CONTINUOUS
 10
365.000092
 20
114.000015
 30
0.0
 40
1.5
 50
89.999964
 51
180.000001
  0
LINE
  5
10F92
  8
DANMEN
  6
CONTINUOUS
 10
363.500092
 20
114.000015
 30
0.0
 11
363.500092
 21
111.500009
 31
0.0
  0
LINE
  5
10F93
  8
DANMEN
  6
CONTINUOUS
 10
369.000003
 20
115.55
 30
0.0
 11
369.000003
 21
115.0
 31
0.0
  0
ARC
  5
10F94
  8
DANMEN
  6
CONTINUOUS
 10
366.500003
 20
115.5
 30
0.0
 40
0.5
 50
180.0
 51
270.0
  0
LINE
  5
10F95
  8
DANMEN
  6
CONTINUOUS
 10
366.500004
 20
115.0
 30
0.0
 11
369.000003
 21
115.0
 31
0.0
  0
LINE
  5
10F96
  8
DANMEN
  6
CONTINUOUS
 10
377.65
 20
98.65
 30
0.0
 11
377.65
 21
88.15
 31
0.0
  0
LINE
  5
10F97
  8
DANMEN
  6
CONTINUOUS
 10
391.0
 20
87.699997
 30
0.0
 11
391.0
 21
110.799994
 31
0.0
  0
LINE
  5
10F98
  8
DANMEN
  6
CONTINUOUS
 10
376.0
 20
97.5
 30
0.0
 11
376.0
 21
87.0
 31
0.0
  0
LINE
  5
10F99
  8
DANMEN
  6
CONTINUOUS
 10
377.65
 20
88.15
 30
0.0
 11
389.0
 21
88.15
 31
0.0
  0
LINE
  5
10F9A
  8
DANMEN
  6
CONTINUOUS
 10
376.5
 20
86.5
 30
0.0
 11
400.5
 21
86.5
 31
0.0
  0
ARC
  5
10F9B
  8
DANMEN
  6
CONTINUOUS
 10
376.5
 20
87.0
 30
0.0
 40
0.5
 50
180.0
 51
270.0
  0
LINE
  5
10F9C
  8
DANMEN
  6
CONTINUOUS
 10
399.350006
 20
88.149994
 30
0.0
 11
392.649994
 21
88.149994
 31
0.0
  0
LINE
  5
10F9D
  8
DANMEN
  6
CONTINUOUS
 10
391.0
 20
87.699997
 30
0.0
 11
389.0
 21
87.699997
 31
0.0
  0
LINE
  5
10F9E
  8
DANMEN
  6
CONTINUOUS
 10
389.0
 20
87.699997
 30
0.0
 11
389.0
 21
88.149994
 31
0.0
  0
ARC
  5
10F9F
  8
DANMEN
  6
CONTINUOUS
 10
400.5
 20
87.0
 30
0.0
 40
0.5
 50
270.000018
 51
359.999981
  0
LINE
  5
10FA0
  8
DANMEN
  6
CONTINUOUS
 10
400.5
 20
92.5
 30
0.0
 11
399.850006
 21
92.5
 31
0.0
  0
LINE
  5
10FA1
  8
DANMEN
  6
CONTINUOUS
 10
401.0
 20
92.0
 30
0.0
 11
401.0
 21
87.0
 31
0.0
  0
LINE
  5
10FA2
  8
DANMEN
  6
CONTINUOUS
 10
399.350006
 20
92.0
 30
0.0
 11
399.350006
 21
88.149994
 31
0.0
  0
ARC
  5
10FA3
  8
DANMEN
  6
CONTINUOUS
 10
399.850006
 20
92.0
 30
0.0
 40
0.5
 50
90.000037
 51
180.000019
  0
ARC
  5
10FA4
  8
DANMEN
  6
CONTINUOUS
 10
400.5
 20
92.0
 30
0.0
 40
0.5
 50
359.999981
 51
90.000037
  0
LINE
  5
10FA5
  8
DANMEN
  6
CONTINUOUS
 10
385.0
 20
115.85
 30
0.0
 11
391.0
 21
115.85
 31
0.0
  0
LINE
  5
10FA6
  8
DANMEN
  6
CONTINUOUS
 10
385.0
 20
110.799994
 30
0.0
 11
391.0
 21
110.799994
 31
0.0
  0
LINE
  5
10FA7
  8
DANMEN
  6
CONTINUOUS
 10
387.0
 20
111.999994
 30
0.0
 11
385.401942
 21
111.680382
 31
0.0
  0
LINE
  5
10FA8
  8
DANMEN
  6
CONTINUOUS
 10
381.7
 20
113.8
 30
0.0
 11
385.598917
 21
113.8
 31
0.0
  0
ARC
  5
10FA9
  8
DANMEN
  6
CONTINUOUS
 10
385.289406
 20
114.9
 30
0.0
 40
0.5
 50
53.491208
 51
90.0
  0
ARC
  5
10FAA
  8
DANMEN
  6
CONTINUOUS
 10
377.15
 20
98.65
 30
0.0
 40
0.5
 50
0.0
 51
90.0
  0
LINE
  5
10FAB
  8
DANMEN
  6
CONTINUOUS
 10
371.000003
 20
115.55
 30
0.0
 11
380.7
 21
115.55
 31
0.0
  0
LINE
  5
10FAC
  8
DANMEN
  6
CONTINUOUS
 10
373.0
 20
110.000002
 30
0.0
 11
373.0
 21
104.999998
 31
0.0
  0
ARC
  5
10FAD
  8
DANMEN
  6
CONTINUOUS
 10
369.500003
 20
115.05
 30
0.0
 40
0.5
 50
0.0
 51
90.0
  0
LINE
  5
10FAE
  8
DANMEN
  6
CONTINUOUS
 10
370.000003
 20
115.0
 30
0.0
 11
371.000003
 21
115.0
 31
0.0
  0
LINE
  5
10FAF
  8
DANMEN
  6
CONTINUOUS
 10
370.000003
 20
115.05
 30
0.0
 11
370.000003
 21
115.0
 31
0.0
  0
LINE
  5
10FB0
  8
DANMEN
  6
CONTINUOUS
 10
371.000003
 20
115.55
 30
0.0
 11
371.000003
 21
115.0
 31
0.0
  0
ARC
  5
10FB1
  8
DANMEN
  6
CONTINUOUS
 10
381.7
 20
114.3
 30
0.0
 40
0.5
 50
180.0
 51
270.0
  0
ARC
  5
10FB2
  8
DANMEN
  6
CONTINUOUS
 10
380.7
 20
115.05
 30
0.0
 40
0.5
 50
0.0
 51
90.0
  0
LINE
  5
10FB3
  8
DANMEN
  6
CONTINUOUS
 10
381.2
 20
115.05
 30
0.0
 11
381.2
 21
114.3
 31
0.0
  0
LINE
  5
10FB4
  8
DANMEN
  6
CONTINUOUS
 10
384.7
 20
115.0
 30
0.0
 11
384.256068
 21
115.0
 31
0.0
  0
ARC
  5
10FB5
  8
DANMEN
  6
CONTINUOUS
 10
383.5
 20
115.792199
 30
0.0
 40
0.5
 50
180.0
 51
240.603827
  0
ARC
  5
10FB6
  8
DANMEN
  6
CONTINUOUS
 10
384.256068
 20
116.0
 30
0.0
 40
1.0
 50
243.434949
 51
270.0
  0
LINE
  5
10FB7
  8
DANMEN
  6
CONTINUOUS
 10
383.808854
 20
115.105573
 30
0.0
 11
383.254577
 21
115.356576
 31
0.0
  0
LINE
  5
10FB8
  8
DANMEN
  6
CONTINUOUS
 10
385.0
 20
115.3
 30
0.0
 11
385.0
 21
115.85
 31
0.0
  0
ARC
  5
10FB9
  8
DANMEN
  6
CONTINUOUS
 10
384.7
 20
115.3
 30
0.0
 40
0.3
 50
270.0
 51
0.0
  0
LINE
  5
10FBA
  8
DANMEN
  6
CONTINUOUS
 10
385.0
 20
111.190092
 30
0.0
 11
385.0
 21
110.799994
 31
0.0
  0
ARC
  5
10FBB
  8
DANMEN
  6
CONTINUOUS
 10
385.5
 20
111.190092
 30
0.0
 40
0.5
 50
101.309932
 51
180.0
  0
LINE
  5
10FBC
  8
DANMEN
  6
CONTINUOUS
 10
382.7
 20
115.0
 30
0.0
 11
384.7
 21
115.0
 31
0.0
  0
LINE
  5
10FBD
  8
DANMEN
  6
CONTINUOUS
 10
382.7
 20
116.0
 30
0.0
 11
382.7
 21
115.0
 31
0.0
  0
LINE
  5
10FBE
  8
DANMEN
  6
CONTINUOUS
 10
382.7
 20
116.0
 30
0.0
 11
383.0
 21
116.0
 31
0.0
  0
LINE
  5
10FBF
  8
DANMEN
  6
CONTINUOUS
 10
385.265685
 20
115.4
 30
0.0
 11
385.289406
 21
115.4
 31
0.0
  0
ARC
  5
10FC0
  8
DANMEN
  6
CONTINUOUS
 10
384.7
 20
115.3
 30
0.0
 40
0.3
 50
270.0
 51
340.528779
  0
ARC
  5
10FC2
  8
DANMEN
  6
CONTINUOUS
 10
385.265685
 20
115.1
 30
0.0
 40
0.3
 50
90.0
 51
160.528779
  0
LINE
  5
10FC4
  8
DANMEN
  6
CONTINUOUS
 10
387.0
 20
111.999994
 30
0.0
 11
391.0
 21
111.999994
 31
0.0
  0
LINE
  5
10FC5
  8
DANMEN
  6
CONTINUOUS
 10
390.411954
 20
113.115608
 30
0.0
 11
389.500895
 21
111.8
 31
0.0
  0
ARC
  5
10FC6
  8
DANMEN
  6
CONTINUOUS
 10
389.75753
 20
113.400136
 30
0.0
 40
0.5
 50
90.0
 51
145.297378
  0
LINE
  5
10FC7
  8
DANMEN
  6
CONTINUOUS
 10
388.300895
 20
111.8
 30
0.0
 11
389.500895
 21
111.8
 31
0.0
  0
LINE
  5
10FC8
  8
DANMEN
  6
CONTINUOUS
 10
385.598917
 20
113.8
 30
0.0
 11
388.300895
 21
111.8
 31
0.0
  0
LINE
  5
10FC9
  8
DANMEN
  6
CONTINUOUS
 10
385.586879
 20
115.301883
 30
0.0
 11
388.563906
 21
113.098292
 31
0.0
  0
LINE
  5
10FCA
  8
DANMEN
  6
CONTINUOUS
 10
389.346471
 20
113.684794
 30
0.0
 11
388.989025
 21
113.168627
 31
0.0
  0
ARC
  5
10FCB
  8
DANMEN
  6
CONTINUOUS
 10
388.742389
 20
113.339422
 30
0.0
 40
0.3
 50
233.491208
 51
325.297378
  0
LINE
  5
10FCC
  8
DANMEN
  6
CONTINUOUS
 10
391.0
 20
111.999994
 30
0.0
 11
391.0
 21
115.85
 31
0.0
  0
LINE
  5
10FD0
  8
DANMEN
  6
CONTINUOUS
 10
390.500895
 20
113.400266
 30
0.0
 11
390.500895
 21
113.400136
 31
0.0
  0
LINE
  5
10FD1
  8
DANMEN
  6
CONTINUOUS
 10
390.000895
 20
113.900136
 30
0.0
 11
389.75753
 21
113.900136
 31
0.0
  0
ARC
  5
10FD2
  8
DANMEN
  6
CONTINUOUS
 10
390.000895
 20
113.400266
 30
0.0
 40
0.5
 50
325.297378
 51
0.0
  0
ARC
  5
10FD3
  8
DANMEN
  6
CONTINUOUS
 10
390.000895
 20
113.400136
 30
0.0
 40
0.5
 50
0.0
 51
90.0
  0
LINE
  5
10FD4
  8
SUNPO
  6
CONTINUOUS
 10
43.5
 20
39.0
 30
0.0
 11
25.0
 21
39.0
 31
0.0
  0
LINE
  5
10FD5
  8
SUNPO
  6
CONTINUOUS
 10
43.5
 20
59.0
 30
0.0
 11
25.0
 21
59.0
 31
0.0
  0
LINE
  5
10FD6
  8
SUNPO
  6
CONTINUOUS
 10
25.0
 20
39.0
 30
0.0
 11
25.0
 21
59.0
 31
0.0
  0
TEXT
  5
10FD7
  8
SUNPO
  6
CONTINUOUS
 10
24.0
 20
33.666667
 30
0.0
 40
2.5
  1
9
 50
90.0
  0
ARC
  5
10FD8
  8
SUNPO
  6
BYBLOCK
 10
25.0
 20
39.0
 30
0.0
 40
0.145
 50
270.0
 51
90.0
  0
ARC
  5
10FD9
  8
SUNPO
  6
BYBLOCK
 10
25.0
 20
39.0
 30
0.0
 40
0.145
 50
90.0
 51
270.0
  0
ARC
  5
10FDA
  8
SUNPO
  6
BYBLOCK
 10
25.0
 20
39.0
 30
0.0
 40
0.145
 50
90.0
 51
270.0
  0
ARC
  5
10FDB
  8
SUNPO
  6
BYBLOCK
 10
25.0
 20
39.0
 30
0.0
 40
0.145
 50
270.0
 51
90.0
  0
TEXT
  5
10FDC
  8
SUNPO
  6
CONTINUOUS
 10
24.0
 20
47.125
 30
0.0
 40
2.5
  1
20
 50
90.0
  0
TEXT
  5
10FDD
  8
SUNPO
  6
CONTINUOUS
 10
34.0
 20
43.333333
 30
0.0
 40
2.5
  1
12
 50
90.0
  0
ARC
  5
10FDE
  8
SUNPO
  6
BYBLOCK
 10
25.0
 20
59.0
 30
0.0
 40
0.145
 50
90.0
 51
270.0
  0
ARC
  5
10FDF
  8
SUNPO
  6
BYBLOCK
 10
25.0
 20
59.0
 30
0.0
 40
0.145
 50
270.0
 51
90.0
  0
ARC
  5
10FE0
  8
SUNPO
  6
BYBLOCK
 10
25.0
 20
59.0
 30
0.0
 40
0.145
 50
270.0
 51
90.0
  0
ARC
  5
10FE1
  8
SUNPO
  6
BYBLOCK
 10
25.0
 20
59.0
 30
0.0
 40
0.145
 50
90.0
 51
270.0
  0
TEXT
  5
10FE2
  8
SUNPO
  6
CONTINUOUS
 10
34.0
 20
54.166667
 30
0.0
 40
2.5
  1
8
 50
90.0
  0
TEXT
  5
10FE3
  8
SUNPO
  6
CONTINUOUS
 10
34.0
 20
61.666667
 30
0.0
 40
2.5
  1
7
 50
90.0
  0
LINE
  5
10FE4
  8
SUNPO
  6
CONTINUOUS
 10
35.0
 20
51.0
 30
0.0
 11
35.0
 21
59.0
 31
0.0
  0
LINE
  5
10FE5
  8
SUNPO
  6
CONTINUOUS
 10
35.0
 20
51.0
 30
0.0
 11
35.0
 21
39.0
 31
0.0
  0
ARC
  5
10FE6
  8
SUNPO
  6
BYBLOCK
 10
35.0
 20
39.0
 30
0.0
 40
0.145
 50
270.0
 51
90.0
  0
ARC
  5
10FE7
  8
SUNPO
  6
BYBLOCK
 10
35.0
 20
39.0
 30
0.0
 40
0.145
 50
90.0
 51
270.0
  0
LINE
  5
10FE8
  8
SUNPO
  6
CONTINUOUS
 10
43.5
 20
51.0
 30
0.0
 11
35.0
 21
51.0
 31
0.0
  0
ARC
  5
10FE9
  8
SUNPO
  6
BYBLOCK
 10
35.0
 20
51.0
 30
0.0
 40
0.145
 50
90.0
 51
270.0
  0
ARC
  5
10FEA
  8
SUNPO
  6
BYBLOCK
 10
35.0
 20
51.0
 30
0.0
 40
0.145
 50
270.0
 51
90.0
  0
ARC
  5
10FEB
  8
SUNPO
  6
BYBLOCK
 10
35.0
 20
51.0
 30
0.0
 40
0.145
 50
270.0
 51
90.0
  0
ARC
  5
10FEC
  8
SUNPO
  6
BYBLOCK
 10
35.0
 20
51.0
 30
0.0
 40
0.145
 50
90.0
 51
270.0
  0
LINE
  5
10FED
  8
SUNPO
  6
CONTINUOUS
 10
35.0
 20
66.0
 30
0.0
 11
35.0
 21
59.0
 31
0.0
  0
ARC
  5
10FEE
  8
SUNPO
  6
BYBLOCK
 10
35.0
 20
59.0
 30
0.0
 40
0.145
 50
90.0
 51
270.0
  0
ARC
  5
10FEF
  8
SUNPO
  6
BYBLOCK
 10
35.0
 20
59.0
 30
0.0
 40
0.145
 50
270.0
 51
90.0
  0
ARC
  5
10FF0
  8
SUNPO
  6
BYBLOCK
 10
35.0
 20
59.0
 30
0.0
 40
0.145
 50
270.0
 51
90.0
  0
ARC
  5
10FF1
  8
SUNPO
  6
BYBLOCK
 10
35.0
 20
59.0
 30
0.0
 40
0.145
 50
90.0
 51
270.0
  0
LINE
  5
10FF2
  8
SUNPO
  6
CONTINUOUS
 10
43.5
 20
66.0
 30
0.0
 11
35.0
 21
66.0
 31
0.0
  0
ARC
  5
10FF3
  8
SUNPO
  6
BYBLOCK
 10
35.0
 20
66.0
 30
0.0
 40
0.145
 50
90.0
 51
270.0
  0
ARC
  5
10FF4
  8
SUNPO
  6
BYBLOCK
 10
35.0
 20
66.0
 30
0.0
 40
0.145
 50
270.0
 51
90.0
  0
TEXT
  5
10FF5
  8
SUNPO
  6
CONTINUOUS
 10
24.0
 20
103.916667
 30
0.0
 40
2.5
  1
94
 50
90.0
  0
LINE
  5
10FF6
  8
SUNPO
  6
CONTINUOUS
 10
216.0
 20
30.0
 30
0.0
 11
191.0
 21
30.0
 31
0.0
  0
LINE
  5
10FF7
  8
SUNPO
  6
CONTINUOUS
 10
201.0
 20
50.0
 30
0.0
 11
191.0
 21
50.0
 31
0.0
  0
LINE
  5
10FF8
  8
SUNPO
  6
CONTINUOUS
 10
166.0
 20
39.0
 30
0.0
 11
166.0
 21
30.0
 31
0.0
  0
ARC
  5
10FF9
  8
SUNPO
  6
BYBLOCK
 10
166.0
 20
30.0
 30
0.0
 40
0.145
 50
90.0
 51
270.0
  0
ARC
  5
10FFA
  8
SUNPO
  6
BYBLOCK
 10
166.0
 20
30.0
 30
0.0
 40
0.145
 50
270.0
 51
90.0
  0
LINE
  5
10FFB
  8
SUNPO
  6
CONTINUOUS
 10
116.5
 20
39.0
 30
0.0
 11
166.0
 21
39.0
 31
0.0
  0
LINE
  5
10FFC
  8
SUNPO
  6
CONTINUOUS
 10
116.5
 20
99.0
 30
0.0
 11
166.0
 21
99.0
 31
0.0
  0
LINE
  5
10FFD
  8
SUNPO
  6
CONTINUOUS
 10
116.5
 20
64.0
 30
0.0
 11
156.0
 21
64.0
 31
0.0
  0
LINE
  5
10FFE
  8
SUNPO
  6
CONTINUOUS
 10
86.5
 20
113.790488
 30
0.0
 11
101.5
 21
113.790488
 31
0.0
  0
LINE
  5
10FFF
  8
SUNPO
  6
CONTINUOUS
 10
84.0
 20
113.790488
 30
0.0
 11
74.68
 21
113.790488
 31
0.0
  0
ARC
  5
11000
  8
SUNPO
  6
BYBLOCK
 10
84.0
 20
113.790488
 30
0.0
 40
0.145
 50
180.0
 51
0.0
  0
ARC
  5
11001
  8
SUNPO
  6
BYBLOCK
 10
84.0
 20
113.790488
 30
0.0
 40
0.145
 50
0.0
 51
180.0
  0
TEXT
  5
11002
  8
SUNPO
  6
CONTINUOUS
 10
75.68
 20
114.790488
 30
0.0
 40
2.5
  1
2.5
  0
LINE
  5
11003
  8
SUNPO
  6
CONTINUOUS
 10
86.5
 20
100.5
 30
0.0
 11
86.5
 21
113.790488
 31
0.0
  0
LINE
  5
11004
  8
SUNPO
  6
CONTINUOUS
 10
84.0
 20
100.5
 30
0.0
 11
84.0
 21
113.790488
 31
0.0
  0
LINE
  5
11005
  8
SUNPO
  6
CONTINUOUS
 10
86.5
 20
100.5
 30
0.0
 11
86.5
 21
113.790488
 31
0.0
  0
LINE
  5
11006
  8
SUNPO
  6
CONTINUOUS
 10
86.5
 20
113.790488
 30
0.0
 11
84.0
 21
113.790488
 31
0.0
  0
ARC
  5
11007
  8
SUNPO
  6
BYBLOCK
 10
86.5
 20
113.790488
 30
0.0
 40
0.145
 50
0.0
 51
180.0
  0
ARC
  5
11008
  8
SUNPO
  6
BYBLOCK
 10
86.5
 20
113.790488
 30
0.0
 40
0.145
 50
180.0
 51
0.0
  0
ARC
  5
11009
  8
SUNPO
  6
BYBLOCK
 10
86.5
 20
113.790488
 30
0.0
 40
0.145
 50
180.0
 51
0.0
  0
ARC
  5
1100A
  8
SUNPO
  6
BYBLOCK
 10
86.5
 20
113.790488
 30
0.0
 40
0.145
 50
0.0
 51
180.0
  0
TEXT
  5
1100B
  8
SUNPO
  6
CONTINUOUS
 10
92.333333
 20
114.790488
 30
0.0
 40
2.5
  1
15
  0
LINE
  5
1100C
  8
SUNPO
  6
CONTINUOUS
 10
104.0
 20
100.5
 30
0.0
 11
104.0
 21
113.790488
 31
0.0
  0
LINE
  5
1100D
  8
SUNPO
  6
CONTINUOUS
 10
101.5
 20
100.5
 30
0.0
 11
101.5
 21
113.790488
 31
0.0
  0
LINE
  5
1100E
  8
SUNPO
  6
CONTINUOUS
 10
101.5
 20
100.5
 30
0.0
 11
101.5
 21
113.790488
 31
0.0
  0
TEXT
  5
1100F
  8
SUNPO
  6
CONTINUOUS
 10
107.32
 20
114.790488
 30
0.0
 40
2.5
  1
2.5
  0
LINE
  5
11010
  8
SUNPO
  6
CONTINUOUS
 10
104.0
 20
113.790488
 30
0.0
 11
113.32
 21
113.790488
 31
0.0
  0
LINE
  5
11011
  8
SUNPO
  6
CONTINUOUS
 10
101.5
 20
113.790488
 30
0.0
 11
104.0
 21
113.790488
 31
0.0
  0
ARC
  5
11012
  8
SUNPO
  6
BYBLOCK
 10
104.0
 20
113.790488
 30
0.0
 40
0.145
 50
0.0
 51
180.0
  0
ARC
  5
11013
  8
SUNPO
  6
BYBLOCK
 10
104.0
 20
113.790488
 30
0.0
 40
0.145
 50
180.0
 51
0.0
  0
ARC
  5
11014
  8
SUNPO
  6
BYBLOCK
 10
101.5
 20
113.790488
 30
0.0
 40
0.145
 50
180.0
 51
0.0
  0
ARC
  5
11015
  8
SUNPO
  6
BYBLOCK
 10
101.5
 20
113.790488
 30
0.0
 40
0.145
 50
0.0
 51
180.0
  0
ARC
  5
11016
  8
SUNPO
  6
BYBLOCK
 10
101.5
 20
113.790488
 30
0.0
 40
0.145
 50
0.0
 51
180.0
  0
ARC
  5
11017
  8
SUNPO
  6
BYBLOCK
 10
101.5
 20
113.790488
 30
0.0
 40
0.145
 50
180.0
 51
0.0
  0
LINE
  5
11018
  8
SUNPO
  6
CONTINUOUS
 10
166.0
 20
99.0
 30
0.0
 11
166.0
 21
39.0
 31
0.0
  0
LINE
  5
11019
  8
SUNPO
  6
CONTINUOUS
 10
156.0
 20
99.0
 30
0.0
 11
156.0
 21
64.0
 31
0.0
  0
LINE
  5
1101A
  8
SUNPO
  6
CONTINUOUS
 10
191.0
 20
85.0
 30
0.0
 11
191.0
 21
30.0
 31
0.0
  0
ARC
  5
1101B
  8
SUNPO
  6
BYBLOCK
 10
166.0
 20
39.0
 30
0.0
 40
0.15625
 50
90.0
 51
270.0
  0
ARC
  5
1101C
  8
SUNPO
  6
BYBLOCK
 10
166.0
 20
39.0
 30
0.0
 40
0.145
 50
90.0
 51
270.0
  0
LINE
  5
1101D
  8
SUNPO
  6
CONTINUOUS
 10
156.0
 20
64.0
 30
0.0
 11
156.0
 21
39.0
 31
0.0
  0
ARC
  5
1101E
  8
SUNPO
  6
BYBLOCK
 10
156.0
 20
39.0
 30
0.0
 40
0.145
 50
270.0
 51
90.0
  0
ARC
  5
1101F
  8
SUNPO
  6
BYBLOCK
 10
156.0
 20
39.0
 30
0.0
 40
0.145
 50
90.0
 51
270.0
  0
TEXT
  5
11020
  8
SUNPO
  6
CONTINUOUS
 10
165.0
 20
33.666667
 30
0.0
 40
2.5
  1
9
 50
90.0
  0
TEXT
  5
11021
  8
SUNPO
  6
CONTINUOUS
 10
155.0
 20
49.416667
 30
0.0
 40
2.5
  1
25
 50
90.0
  0
ARC
  5
11022
  8
SUNPO
  6
BYBLOCK
 10
156.0
 20
64.0
 30
0.0
 40
0.145
 50
90.0
 51
270.0
  0
ARC
  5
11023
  8
SUNPO
  6
BYBLOCK
 10
156.0
 20
64.0
 30
0.0
 40
0.145
 50
270.0
 51
90.0
  0
ARC
  5
11024
  8
SUNPO
  6
BYBLOCK
 10
156.0
 20
64.0
 30
0.0
 40
0.145
 50
270.0
 51
90.0
  0
ARC
  5
11025
  8
SUNPO
  6
BYBLOCK
 10
156.0
 20
64.0
 30
0.0
 40
0.145
 50
90.0
 51
270.0
  0
TEXT
  5
11026
  8
SUNPO
  6
CONTINUOUS
 10
165.0
 20
67.125
 30
0.0
 40
2.5
  1
60
 50
90.0
  0
ARC
  5
11027
  8
SUNPO
  6
BYBLOCK
 10
166.0
 20
39.0
 30
0.0
 40
0.15625
 50
270.0
 51
90.0
  0
ARC
  5
11028
  8
SUNPO
  6
BYBLOCK
 10
166.0
 20
39.0
 30
0.0
 40
0.145
 50
270.0
 51
90.0
  0
ARC
  5
11029
  8
SUNPO
  6
BYBLOCK
 10
191.0
 20
30.0
 30
0.0
 40
0.15625
 50
180.0
 51
0.0
  0
ARC
  5
1102A
  8
SUNPO
  6
BYBLOCK
 10
191.0
 20
30.0
 30
0.0
 40
0.15625
 50
0.0
 51
180.0
  0
TEXT
  5
1102B
  8
SUNPO
  6
CONTINUOUS
 10
194.541667
 20
51.0
 30
0.0
 40
2.5
  1
10
  0
ARC
  5
1102C
  8
SUNPO
  6
BYBLOCK
 10
191.0
 20
50.0
 30
0.0
 40
0.145
 50
180.0
 51
0.0
  0
ARC
  5
1102D
  8
SUNPO
  6
BYBLOCK
 10
191.0
 20
50.0
 30
0.0
 40
0.145
 50
0.0
 51
180.0
  0
LINE
  5
1102E
  8
SUNPO
  6
CONTINUOUS
 10
166.0
 20
99.0
 30
0.0
 11
161.0
 21
104.0
 31
0.0
  0
LINE
  5
1102F
  8
SUNPO
  6
CONTINUOUS
 10
161.0
 20
104.0
 30
0.0
 11
171.0
 21
104.0
 31
0.0
  0
TEXT
  5
11030
  8
SUNPO
  6
CONTINUOUS
 10
155.0
 20
79.416667
 30
0.0
 40
2.5
  1
35
 50
90.0
  0
ARC
  5
11031
  8
SUNPO
  6
BYBLOCK
 10
156.0
 20
99.0
 30
0.0
 40
0.145
 50
90.0
 51
270.0
  0
ARC
  5
11032
  8
SUNPO
  6
BYBLOCK
 10
156.0
 20
99.0
 30
0.0
 40
0.145
 50
270.0
 51
90.0
  0
ARC
  5
11033
  8
SUNPO
  6
BYBLOCK
 10
156.0
 20
99.0
 30
0.0
 40
0.145
 50
270.0
 51
90.0
  0
ARC
  5
11034
  8
SUNPO
  6
BYBLOCK
 10
156.0
 20
99.0
 30
0.0
 40
0.145
 50
90.0
 51
270.0
  0
LINE
  5
11036
  8
SUNPO
  6
CONTINUOUS
 10
171.0
 20
104.0
 30
0.0
 11
166.0
 21
99.0
 31
0.0
  0
LINE
  5
11039
  8
SUNPO
  6
CONTINUOUS
 10
276.0
 20
42.0
 30
0.0
 11
216.0
 21
42.0
 31
0.0
  0
LINE
  5
1103A
  8
SUNPO
  6
CONTINUOUS
 10
216.0
 20
30.0
 30
0.0
 11
285.978714
 21
30.0
 31
0.0
  0
LINE
  5
1103B
  8
SUNPO
  6
CONTINUOUS
 10
201.0
 20
85.0
 30
0.0
 11
201.0
 21
50.0
 31
0.0
  0
LINE
  5
1103C
  8
SUNPO
  6
CONTINUOUS
 10
254.0
 20
85.0
 30
0.0
 11
254.0
 21
50.0
 31
0.0
  0
LINE
  5
1103D
  8
SUNPO
  6
CONTINUOUS
 10
216.0
 20
85.0
 30
0.0
 11
216.0
 21
30.0
 31
0.0
  0
LINE
  5
1103E
  8
SUNPO
  6
CONTINUOUS
 10
254.0
 20
50.0
 30
0.0
 11
216.0
 21
50.0
 31
0.0
  0
TEXT
  5
1103F
  8
SUNPO
  6
CONTINUOUS
 10
201.416667
 20
31.0
 30
0.0
 40
2.5
  1
25
  0
LINE
  5
11040
  8
SUNPO
  6
CONTINUOUS
 10
216.0
 20
30.0
 30
0.0
 11
221.0
 21
35.0
 31
0.0
  0
LINE
  5
11041
  8
SUNPO
  6
CONTINUOUS
 10
221.0
 20
35.0
 30
0.0
 11
221.0
 21
25.0
 31
0.0
  0
LINE
  5
11042
  8
SUNPO
  6
CONTINUOUS
 10
221.0
 20
25.0
 30
0.0
 11
216.0
 21
30.0
 31
0.0
  0
LINE
  5
11045
  8
SUNPO
  6
CONTINUOUS
 10
216.0
 20
42.0
 30
0.0
 11
225.111405
 21
45.31628
 31
0.0
  0
LINE
  5
11049
  8
SUNPO
  6
CONTINUOUS
 10
225.111405
 20
45.31628
 30
0.0
 11
226.267949
 21
41.0
 31
0.0
  0
LINE
  5
1104B
  8
SUNPO
  6
CONTINUOUS
 10
216.0
 20
50.0
 30
0.0
 11
201.0
 21
50.0
 31
0.0
  0
TEXT
  5
1104C
  8
SUNPO
  6
CONTINUOUS
 10
206.833333
 20
51.0
 30
0.0
 40
2.5
  1
15
  0
ARC
  5
1104D
  8
SUNPO
  6
BYBLOCK
 10
201.0
 20
50.0
 30
0.0
 40
0.145
 50
180.0
 51
0.0
  0
ARC
  5
1104E
  8
SUNPO
  6
BYBLOCK
 10
201.0
 20
50.0
 30
0.0
 40
0.145
 50
0.0
 51
180.0
  0
ARC
  5
1104F
  8
SUNPO
  6
BYBLOCK
 10
201.0
 20
50.0
 30
0.0
 40
0.145
 50
0.0
 51
180.0
  0
ARC
  5
11050
  8
SUNPO
  6
BYBLOCK
 10
201.0
 20
50.0
 30
0.0
 40
0.145
 50
180.0
 51
0.0
  0
ARC
  5
11051
  8
SUNPO
  6
BYBLOCK
 10
216.0
 20
50.0
 30
0.0
 40
0.145
 50
0.0
 51
180.0
  0
ARC
  5
11052
  8
SUNPO
  6
BYBLOCK
 10
216.0
 20
50.0
 30
0.0
 40
0.145
 50
180.0
 51
0.0
  0
ARC
  5
11053
  8
SUNPO
  6
BYBLOCK
 10
216.0
 20
50.0
 30
0.0
 40
0.145
 50
180.0
 51
0.0
  0
ARC
  5
11054
  8
SUNPO
  6
BYBLOCK
 10
216.0
 20
50.0
 30
0.0
 40
0.145
 50
0.0
 51
180.0
  0
TEXT
  5
11056
  8
SUNPO
  6
CONTINUOUS
 10
249.007473
 20
43.048402
 30
0.0
 40
2.0
  1
2
  0
TEXT
  5
11057
  8
SUNPO
  6
CONTINUOUS
 10
232.916667
 20
51.0
 30
0.0
 40
2.5
  1
38
  0
ARC
  5
11058
  8
SUNPO
  6
BYBLOCK
 10
254.0
 20
50.0
 30
0.0
 40
0.145
 50
0.0
 51
180.0
  0
ARC
  5
11059
  8
SUNPO
  6
BYBLOCK
 10
254.0
 20
50.0
 30
0.0
 40
0.145
 50
180.0
 51
0.0
  0
ARC
  5
1105A
  8
SUNPO
  6
BYBLOCK
 10
257.5
 20
86.5
 30
0.0
 40
0.145
 50
270.0
 51
90.0
  0
ARC
  5
1105B
  8
SUNPO
  6
BYBLOCK
 10
257.5
 20
86.5
 30
0.0
 40
0.145
 50
90.0
 51
270.0
  0
TEXT
  5
1105C
  8
SUNPO
  6
CONTINUOUS
 10
294.125
 20
43.0
 30
0.0
 40
2.5
  1
40
  0
LINE
  5
1105D
  8
SUNPO
  6
CONTINUOUS
 10
316.0
 20
42.0
 30
0.0
 11
276.0
 21
42.0
 31
0.0
  0
LINE
  5
1105E
  8
SUNPO
  6
CONTINUOUS
 10
299.22756
 20
26.500001
 30
0.0
 11
295.186114
 21
33.499998
 31
0.0
  0
LINE
  5
1105F
  8
SUNPO
  6
CONTINUOUS
 10
298.495514
 20
33.5
 30
0.0
 11
294.186113
 21
33.5
 31
0.0
  0
LINE
  5
11060
  8
SUNPO
  6
CONTINUOUS
 10
276.0
 20
57.0
 30
0.0
 11
276.0
 21
42.0
 31
0.0
  0
LINE
  5
11061
  8
SUNPO
  6
CONTINUOUS
 10
276.0
 20
42.0
 30
0.0
 11
266.888595
 21
38.68372
 31
0.0
  0
LINE
  5
11062
  8
SUNPO
  6
CONTINUOUS
 10
266.888595
 20
38.68372
 30
0.0
 11
265.732051
 21
43.0
 31
0.0
  0
LINE
  5
11066
  8
SUNPO
  6
CONTINUOUS
 10
292.876776
 20
26.500001
 30
0.0
 11
288.835331
 21
33.499997
 31
0.0
  0
LINE
  5
11067
  8
SUNPO
  6
CONTINUOUS
 10
292.10634
 20
33.5
 30
0.0
 11
287.73099
 21
33.5
 31
0.0
  0
LINE
  5
11068
  8
SUNPO
  6
CONTINUOUS
 10
295.186114
 20
26.5
 30
0.0
 11
291.144668
 21
33.499997
 31
0.0
  0
LINE
  5
11069
  8
SUNPO
  6
CONTINUOUS
 10
295.186113
 20
33.5
 30
0.0
 11
295.186113
 21
26.500001
 31
0.0
  0
LINE
  5
1106A
  8
SUNPO
  6
CONTINUOUS
 10
296.186113
 20
26.5
 30
0.0
 11
291.708582
 21
26.5
 31
0.0
  0
LINE
  5
1106B
  8
SUNPO
  6
CONTINUOUS
 10
316.0
 20
57.0
 30
0.0
 11
316.0
 21
42.0
 31
0.0
  0
LINE
  5
1106C
  8
SUNPO
  6
CONTINUOUS
 10
310.26901
 20
28.5
 30
0.0
 11
305.26901
 21
28.5
 31
0.0
  0
LINE
  5
1106D
  8
SUNPO
  6
CONTINUOUS
 10
310.26901
 20
31.5
 30
0.0
 11
305.26901
 21
31.5
 31
0.0
  0
LINE
  5
1106E
  8
SUNPO
  6
CONTINUOUS
 10
301.536961
 20
33.5
 30
0.0
 11
301.536961
 21
26.500003
 31
0.0
  0
LINE
  5
1106F
  8
SUNPO
  6
CONTINUOUS
 10
301.536959
 20
26.500004
 30
0.0
 11
297.495515
 21
33.499997
 31
0.0
  0
LINE
  5
11070
  8
SUNPO
  6
CONTINUOUS
 10
302.11431
 20
26.5
 30
0.0
 11
298.536562
 21
26.5
 31
0.0
  0
LINE
  5
11071
  8
SUNPO
  6
CONTINUOUS
 10
302.495805
 20
33.5
 30
0.0
 11
300.459285
 21
33.5
 31
0.0
  0
LINE
  5
11073
  8
SUNPO
  6
CONTINUOUS
 10
316.0
 20
42.0
 30
0.0
 11
325.111405
 21
45.31628
 31
0.0
  0
LINE
  5
11075
  8
SUNPO
  6
CONTINUOUS
 10
325.111405
 20
45.31628
 30
0.0
 11
326.267949
 21
41.0
 31
0.0
  0
TEXT
  5
11078
  8
SUNPO
  6
CONTINUOUS
 10
394.541667
 20
51.0
 30
0.0
 40
2.5
  1
10
  0
LINE
  5
11079
  8
SUNPO
  6
CONTINUOUS
 10
401.0
 20
30.0
 30
0.0
 11
376.0
 21
30.0
 31
0.0
  0
LINE
  5
1107A
  8
SUNPO
  6
CONTINUOUS
 10
391.0
 20
50.0
 30
0.0
 11
401.0
 21
50.0
 31
0.0
  0
LINE
  5
1107B
  8
SUNPO
  6
CONTINUOUS
 10
366.0
 20
85.0
 30
0.0
 11
366.0
 21
50.0
 31
0.0
  0
LINE
  5
1107C
  8
SUNPO
  6
CONTINUOUS
 10
391.0
 20
85.0
 30
0.0
 11
391.0
 21
50.0
 31
0.0
  0
LINE
  5
1107D
  8
SUNPO
  6
CONTINUOUS
 10
376.0
 20
85.0
 30
0.0
 11
376.0
 21
30.0
 31
0.0
  0
LINE
  5
1107E
  8
SUNPO
  6
CONTINUOUS
 10
333.0
 20
86.5
 30
0.0
 11
333.0
 21
58.5
 31
0.0
  0
TEXT
  5
11080
  8
SUNPO
  6
CONTINUOUS
 10
349.372796
 20
42.984156
 30
0.0
 40
2.0
  1
1
 41
1.5
  0
ARC
  5
11081
  8
SUNPO
  6
BYBLOCK
 10
333.0
 20
58.5
 30
0.0
 40
0.145
 50
270.0
 51
90.0
  0
ARC
  5
11082
  8
SUNPO
  6
BYBLOCK
 10
333.0
 20
58.5
 30
0.0
 40
0.145
 50
90.0
 51
270.0
  0
LINE
  5
11083
  8
SUNPO
  6
CONTINUOUS
 10
371.0
 20
35.0
 30
0.0
 11
376.0
 21
30.0
 31
0.0
  0
LINE
  5
11084
  8
SUNPO
  6
CONTINUOUS
 10
371.0
 20
25.0
 30
0.0
 11
371.0
 21
35.0
 31
0.0
  0
LINE
  5
11085
  8
SUNPO
  6
CONTINUOUS
 10
376.0
 20
30.0
 30
0.0
 11
371.0
 21
25.0
 31
0.0
  0
LINE
  5
11088
  8
SUNPO
  6
CONTINUOUS
 10
376.0
 20
42.0
 30
0.0
 11
366.888595
 21
38.68372
 31
0.0
  0
LINE
  5
11089
  8
SUNPO
  6
CONTINUOUS
 10
366.888595
 20
38.68372
 30
0.0
 11
365.732051
 21
43.0
 31
0.0
  0
TEXT
  5
1108E
  8
SUNPO
  6
CONTINUOUS
 10
386.416667
 20
31.0
 30
0.0
 40
2.5
  1
25
  0
LINE
  5
1108F
  8
SUNPO
  6
CONTINUOUS
 10
391.0
 20
50.0
 30
0.0
 11
376.0
 21
50.0
 31
0.0
  0
TEXT
  5
11090
  8
SUNPO
  6
CONTINUOUS
 10
369.541667
 20
51.0
 30
0.0
 40
2.5
  1
10
  0
LINE
  5
11091
  8
SUNPO
  6
CONTINUOUS
 10
376.0
 20
50.0
 30
0.0
 11
366.0
 21
50.0
 31
0.0
  0
ARC
  5
11092
  8
SUNPO
  6
BYBLOCK
 10
366.0
 20
50.0
 30
0.0
 40
0.145
 50
180.0
 51
0.0
  0
ARC
  5
11093
  8
SUNPO
  6
BYBLOCK
 10
366.0
 20
50.0
 30
0.0
 40
0.145
 50
0.0
 51
180.0
  0
ARC
  5
11094
  8
SUNPO
  6
BYBLOCK
 10
376.0
 20
50.0
 30
0.0
 40
0.145
 50
0.0
 51
180.0
  0
ARC
  5
11095
  8
SUNPO
  6
BYBLOCK
 10
376.0
 20
50.0
 30
0.0
 40
0.145
 50
180.0
 51
0.0
  0
ARC
  5
11096
  8
SUNPO
  6
BYBLOCK
 10
376.0
 20
50.0
 30
0.0
 40
0.145
 50
180.0
 51
0.0
  0
ARC
  5
11097
  8
SUNPO
  6
BYBLOCK
 10
376.0
 20
50.0
 30
0.0
 40
0.145
 50
0.0
 51
180.0
  0
TEXT
  5
11098
  8
SUNPO
  6
CONTINUOUS
 10
381.833333
 20
51.0
 30
0.0
 40
2.5
  1
15
  0
ARC
  5
11099
  8
SUNPO
  6
BYBLOCK
 10
391.0
 20
50.0
 30
0.0
 40
0.145
 50
0.0
 51
180.0
  0
ARC
  5
1109A
  8
SUNPO
  6
BYBLOCK
 10
391.0
 20
50.0
 30
0.0
 40
0.145
 50
180.0
 51
0.0
  0
ARC
  5
1109B
  8
SUNPO
  6
BYBLOCK
 10
391.0
 20
50.0
 30
0.0
 40
0.145
 50
180.0
 51
0.0
  0
ARC
  5
1109C
  8
SUNPO
  6
BYBLOCK
 10
391.0
 20
50.0
 30
0.0
 40
0.145
 50
0.0
 51
180.0
  0
LINE
  5
1109D
  8
SUNPO
  6
CONTINUOUS
 10
364.5
 20
100.0
 30
0.0
 11
353.577611
 21
100.0
 31
0.0
  0
LINE
  5
1109E
  8
SUNPO
  6
CONTINUOUS
 10
364.5
 20
97.5
 30
0.0
 11
353.577611
 21
97.5
 31
0.0
  0
LINE
  5
1109F
  8
SUNPO
  6
CONTINUOUS
 10
364.5
 20
115.0
 30
0.0
 11
353.577611
 21
115.0
 31
0.0
  0
LINE
  5
110A0
  8
SUNPO
  6
CONTINUOUS
 10
364.5
 20
100.0
 30
0.0
 11
353.577611
 21
100.0
 31
0.0
  0
LINE
  5
110A1
  8
SUNPO
  6
CONTINUOUS
 10
364.5
 20
115.0
 30
0.0
 11
353.577611
 21
115.0
 31
0.0
  0
TEXT
  5
110A2
  8
SUNPO
  6
CONTINUOUS
 10
352.577611
 20
89.18
 30
0.0
 40
2.5
  1
2.5
 50
90.0
  0
LINE
  5
110A3
  8
SUNPO
  6
CONTINUOUS
 10
353.577611
 20
97.5
 30
0.0
 11
353.577611
 21
88.18
 31
0.0
  0
ARC
  5
110A4
  8
SUNPO
  6
BYBLOCK
 10
333.0
 20
86.5
 30
0.0
 40
0.145
 50
90.0
 51
270.0
  0
ARC
  5
110A5
  8
SUNPO
  6
BYBLOCK
 10
333.0
 20
86.5
 30
0.0
 40
0.145
 50
270.0
 51
90.0
  0
ARC
  5
110A6
  8
SUNPO
  6
BYBLOCK
 10
333.0
 20
86.5
 30
0.0
 40
0.145
 50
270.0
 51
90.0
  0
ARC
  5
110A7
  8
SUNPO
  6
BYBLOCK
 10
333.0
 20
86.5
 30
0.0
 40
0.145
 50
90.0
 51
270.0
  0
LINE
  5
110A8
  8
SUNPO
  6
CONTINUOUS
 10
353.577611
 20
100.0
 30
0.0
 11
353.577611
 21
115.0
 31
0.0
  0
LINE
  5
110A9
  8
SUNPO
  6
CONTINUOUS
 10
353.577611
 20
100.0
 30
0.0
 11
353.577611
 21
97.5
 31
0.0
  0
ARC
  5
110AA
  8
SUNPO
  6
BYBLOCK
 10
353.577611
 20
97.5
 30
0.0
 40
0.145
 50
270.0
 51
90.0
  0
ARC
  5
110AB
  8
SUNPO
  6
BYBLOCK
 10
353.577611
 20
97.5
 30
0.0
 40
0.145
 50
90.0
 51
270.0
  0
ARC
  5
110AC
  8
SUNPO
  6
BYBLOCK
 10
353.577611
 20
100.0
 30
0.0
 40
0.145
 50
90.0
 51
270.0
  0
ARC
  5
110AD
  8
SUNPO
  6
BYBLOCK
 10
353.577611
 20
100.0
 30
0.0
 40
0.145
 50
270.0
 51
90.0
  0
ARC
  5
110AE
  8
SUNPO
  6
BYBLOCK
 10
353.577611
 20
100.0
 30
0.0
 40
0.145
 50
270.0
 51
90.0
  0
ARC
  5
110AF
  8
SUNPO
  6
BYBLOCK
 10
353.577611
 20
100.0
 30
0.0
 40
0.145
 50
90.0
 51
270.0
  0
TEXT
  5
110B0
  8
SUNPO
  6
CONTINUOUS
 10
352.577611
 20
105.833333
 30
0.0
 40
2.5
  1
15
 50
90.0
  0
ARC
  5
110B1
  8
SUNPO
  6
BYBLOCK
 10
353.577611
 20
115.0
 30
0.0
 40
0.145
 50
90.0
 51
270.0
  0
ARC
  5
110B2
  8
SUNPO
  6
BYBLOCK
 10
353.577611
 20
115.0
 30
0.0
 40
0.145
 50
270.0
 51
90.0
  0
ARC
  5
110B3
  8
SUNPO
  6
BYBLOCK
 10
353.577611
 20
115.0
 30
0.0
 40
0.145
 50
270.0
 51
90.0
  0
ARC
  5
110B4
  8
SUNPO
  6
BYBLOCK
 10
353.577611
 20
115.0
 30
0.0
 40
0.145
 50
90.0
 51
270.0
  0
LINE
  5
110B5
  8
SUNPO
  6
CONTINUOUS
 10
401.0
 20
85.0
 30
0.0
 11
401.0
 21
30.0
 31
0.0
  0
ARC
  5
110B6
  8
SUNPO
  6
BYBLOCK
 10
401.0
 20
30.0
 30
0.0
 40
0.145
 50
0.0
 51
180.0
  0
ARC
  5
110B7
  8
SUNPO
  6
BYBLOCK
 10
401.0
 20
30.0
 30
0.0
 40
0.145
 50
180.0
 51
0.0
  0
ARC
  5
110B8
  8
SUNPO
  6
BYBLOCK
 10
401.0
 20
50.0
 30
0.0
 40
0.145
 50
0.0
 51
180.0
  0
ARC
  5
110B9
  8
SUNPO
  6
BYBLOCK
 10
401.0
 20
50.0
 30
0.0
 40
0.145
 50
180.0
 51
0.0
  0
TEXT
  5
110BA
  8
SUNPO
  6
CONTINUOUS
 10
332.0
 20
120.666667
 30
0.0
 40
2.5
  1
8
 50
90.0
  0
TEXT
  5
110BB
  8
SUNPO
  6
CONTINUOUS
 10
332.0
 20
152.166667
 30
0.0
 40
2.5
  1
7
 50
90.0
  0
TEXT
  5
110BC
  8
SUNPO
  6
CONTINUOUS
 10
332.0
 20
135.416667
 30
0.0
 40
2.5
  1
24
 50
90.0
  0
LINE
  5
110BD
  8
SUNPO
  6
CONTINUOUS
 10
317.350012
 20
125.5
 30
0.0
 11
333.0
 21
125.5
 31
0.0
  0
LINE
  5
110BE
  8
SUNPO
  6
CONTINUOUS
 10
76.0
 20
168.0
 30
0.0
 11
52.0
 21
168.0
 31
0.0
  0
LINE
  5
110BF
  8
SUNPO
  6
CONTINUOUS
 10
45.0
 20
178.0
 30
0.0
 11
115.0
 21
178.0
 31
0.0
  0
LINE
  5
110C0
  8
DANMEN
  6
CONTINUOUS
 10
339.5
 20
117.5
 30
0.0
 11
316.0
 21
117.5
 31
0.0
  0
LINE
  5
110C1
  8
DANMEN
  6
CONTINUOUS
 10
266.5
 20
155.300003
 30
0.0
 11
339.5
 21
155.300003
 31
0.0
  0
LINE
  5
110C2
  8
DANMEN
  6
CONTINUOUS
 10
266.5
 20
158.300003
 30
0.0
 11
339.5
 21
158.300003
 31
0.0
  0
LINE
  5
110C3
  8
DANMEN
  6
CONTINUOUS
 10
266.5
 20
159.5
 30
0.0
 11
339.5
 21
159.5
 31
0.0
  0
LINE
  5
110C4
  8
DANMEN
  6
CONTINUOUS
 10
316.0
 20
136.0
 30
0.0
 11
339.5
 21
136.0
 31
0.0
  0
LINE
  5
110C5
  8
DANMEN
  6
CONTINUOUS
 10
316.0
 20
139.0
 30
0.0
 11
339.5
 21
139.0
 31
0.0
  0
LINE
  5
110C6
  8
DANMEN
  6
CONTINUOUS
 10
266.5
 20
149.5
 30
0.0
 11
339.5
 21
149.5
 31
0.0
  0
LINE
  5
110C7
  8
DANMEN
  6
CONTINUOUS
 10
339.5
 20
122.5
 30
0.0
 11
316.0
 21
122.5
 31
0.0
  0
LINE
  5
110C8
  8
DANMEN
  6
CONTINUOUS
 10
266.5
 20
127.7
 30
0.0
 11
276.0
 21
127.7
 31
0.0
  0
LINE
  5
110C9
  8
DANMEN
  6
CONTINUOUS
 10
266.5
 20
147.3
 30
0.0
 11
276.0
 21
147.3
 31
0.0
  0
LINE
  5
110CA
  8
DANMEN
  6
CONTINUOUS
 10
266.5
 20
145.5
 30
0.0
 11
276.0
 21
145.5
 31
0.0
  0
LINE
  5
110CB
  8
DANMEN
  6
CONTINUOUS
 10
266.5
 20
129.5
 30
0.0
 11
276.0
 21
129.5
 31
0.0
  0
LINE
  5
110CC
  8
DANMEN
  6
CONTINUOUS
 10
266.5
 20
122.5
 30
0.0
 11
276.0
 21
122.5
 31
0.0
  0
LINE
  5
110CD
  8
DANMEN
  6
CONTINUOUS
 10
266.5
 20
125.5
 30
0.0
 11
276.0
 21
125.5
 31
0.0
  0
LINE
  5
110CE
  8
DANMEN
  6
CONTINUOUS
 10
283.000018
 20
140.000009
 30
0.0
 11
266.500003
 21
140.000009
 31
0.0
  0
LINE
  5
110CF
  8
DANMEN
  6
CONTINUOUS
 10
283.000018
 20
135.000021
 30
0.0
 11
266.500003
 21
135.000021
 31
0.0
  0
LINE
  5
110D0
  8
DANMEN
  6
CONTINUOUS
 10
283.000018
 20
139.500009
 30
0.0
 11
266.500003
 21
139.500009
 31
0.0
  0
LINE
  5
110D1
  8
DANMEN
  6
CONTINUOUS
 10
283.000018
 20
135.500021
 30
0.0
 11
266.500003
 21
135.500021
 31
0.0
  0
LINE
  5
110D2
  8
DANMEN
  6
CONTINUOUS
 10
240.399994
 20
158.300003
 30
0.0
 11
236.0
 21
158.300003
 31
0.0
  0
LINE
  5
110D3
  8
DANMEN
  6
CONTINUOUS
 10
240.399994
 20
159.5
 30
0.0
 11
236.0
 21
159.5
 31
0.0
  0
LINE
  5
110D4
  8
DANMEN
  6
CONTINUOUS
 10
231.538906
 20
149.5
 30
0.0
 11
253.500002
 21
149.5
 31
0.0
  0
LINE
  5
110D5
  8
DANMEN
  6
CONTINUOUS
 10
231.538911
 20
125.5
 30
0.0
 11
253.500002
 21
125.5
 31
0.0
  0
LINE
  5
110D6
  8
DANMEN
  6
CONTINUOUS
 10
232.949983
 20
147.550003
 30
0.0
 11
241.899986
 21
147.550003
 31
0.0
  0
LINE
  5
110D7
  8
DANMEN
  6
CONTINUOUS
 10
232.949983
 20
127.449997
 30
0.0
 11
241.899986
 21
127.449997
 31
0.0
  0
LINE
  5
110D8
  8
DANMEN
  6
CONTINUOUS
 10
218.461095
 20
125.5
 30
0.0
 11
263.5
 21
125.5
 31
0.0
  0
LINE
  5
110D9
  8
DANMEN
  6
CONTINUOUS
 10
236.0
 20
155.300003
 30
0.0
 11
263.5
 21
155.300003
 31
0.0
  0
LINE
  5
110DA
  8
DANMEN
  6
CONTINUOUS
 10
214.0
 20
122.5
 30
0.0
 11
263.5
 21
122.5
 31
0.0
  0
LINE
  5
110DB
  8
DANMEN
  6
CONTINUOUS
 10
218.949998
 20
143.550003
 30
0.0
 11
218.949998
 21
131.449997
 31
0.0
  0
LINE
  5
110DC
  8
DANMEN
  6
CONTINUOUS
 10
216.999998
 20
142.0
 30
0.0
 11
216.999998
 21
133.0
 31
0.0
  0
LINE
  5
110DD
  8
DANMEN
  6
CONTINUOUS
 10
218.949998
 20
131.449997
 30
0.0
 11
231.949983
 21
131.449997
 31
0.0
  0
LINE
  5
110DE
  8
DANMEN
  6
CONTINUOUS
 10
218.699998
 20
129.499997
 30
0.0
 11
231.300005
 21
129.499997
 31
0.0
  0
LINE
  5
110DF
  8
DANMEN
  6
CONTINUOUS
 10
218.699998
 20
129.499997
 30
0.0
 11
218.959696
 21
126.037395
 31
0.0
  0
LINE
  5
110E0
  8
DANMEN
  6
CONTINUOUS
 10
217.599998
 20
127.449997
 30
0.0
 11
217.599998
 21
133.0
 31
0.0
  0
LINE
  5
110E1
  8
DANMEN
  6
CONTINUOUS
 10
213.134271
 20
127.449997
 30
0.0
 11
205.199998
 21
128.640138
 31
0.0
  0
LINE
  5
110E2
  8
DANMEN
  6
CONTINUOUS
 10
213.134271
 20
127.449997
 30
0.0
 11
217.599998
 21
127.449997
 31
0.0
  0
LINE
  5
110E3
  8
DANMEN
  6
CONTINUOUS
 10
211.650003
 20
122.5
 30
0.0
 11
214.000004
 21
122.5
 31
0.0
  0
LINE
  5
110E4
  8
DANMEN
  6
CONTINUOUS
 10
211.250004
 20
123.2
 30
0.0
 11
213.500004
 21
123.2
 31
0.0
  0
ARC
  5
110E5
  8
DANMEN
  6
CONTINUOUS
 10
207.648588
 20
114.318668
 30
0.0
 40
12.0
 50
58.04287
 51
84.739832
  0
ARC
  5
110E6
  8
DANMEN
  6
CONTINUOUS
 10
207.648588
 20
114.318668
 30
0.0
 40
11.5
 50
59.414823
 51
84.739832
  0
LINE
  5
110E7
  8
DANMEN
  6
CONTINUOUS
 10
212.300003
 20
122.5
 30
0.0
 11
213.5
 21
122.5
 31
0.0
  0
LINE
  5
110E8
  8
DANMEN
  6
CONTINUOUS
 10
208.350004
 20
122.5
 30
0.0
 11
208.350004
 21
121.5
 31
0.0
  0
LINE
  5
110E9
  8
DANMEN
  6
CONTINUOUS
 10
211.650003
 20
122.5
 30
0.0
 11
211.650003
 21
121.5
 31
0.0
  0
LINE
  5
110EA
  8
DANMEN
  6
CONTINUOUS
 10
208.200001
 20
121.999999
 30
0.0
 11
208.200003
 21
121.699996
 31
0.0
  0
LINE
  5
110EB
  8
DANMEN
  6
CONTINUOUS
 10
211.800003
 20
122.000017
 30
0.0
 11
211.799998
 21
121.699998
 31
0.0
  0
LINE
  5
110EC
  8
DANMEN
  6
CONTINUOUS
 10
206.0
 20
122.0
 30
0.0
 11
206.0
 21
120.1
 31
0.0
  0
LINE
  5
110ED
  8
DANMEN
  6
CONTINUOUS
 10
209.150004
 20
121.3
 30
0.0
 11
208.350004
 21
120.5
 31
0.0
  0
LINE
  5
110EE
  8
DANMEN
  6
CONTINUOUS
 10
206.8
 20
120.1
 30
0.0
 11
212.999998
 21
120.1
 31
0.0
  0
LINE
  5
110EF
  8
DANMEN
  6
CONTINUOUS
 10
207.350003
 20
121.5
 30
0.0
 11
208.350004
 21
121.5
 31
0.0
  0
LINE
  5
110F0
  8
DANMEN
  6
CONTINUOUS
 10
207.150003
 20
121.3
 30
0.0
 11
207.150003
 21
120.7
 31
0.0
  0
LINE
  5
110F1
  8
DANMEN
  6
CONTINUOUS
 10
207.350003
 20
120.5
 30
0.0
 11
208.350004
 21
120.5
 31
0.0
  0
ARC
  5
110F2
  8
DANMEN
  6
CONTINUOUS
 10
207.350003
 20
120.7
 30
0.0
 40
0.2
 50
180.000019
 51
270.000001
  0
ARC
  5
110F3
  8
DANMEN
  6
CONTINUOUS
 10
207.350003
 20
121.3
 30
0.0
 40
0.2
 50
89.999982
 51
180.000019
  0
LINE
  5
110F6
  8
DANMEN
  6
CONTINUOUS
 10
206.8
 20
121.699997
 30
0.0
 11
208.199997
 21
121.699997
 31
0.0
  0
LINE
  5
110F8
  8
DANMEN
  6
CONTINUOUS
 10
206.8
 20
121.699997
 30
0.0
 11
206.8
 21
120.1
 31
0.0
  0
LINE
  5
110FB
  8
DANMEN
  6
CONTINUOUS
 10
212.850004
 20
121.3
 30
0.0
 11
212.850004
 21
120.7
 31
0.0
  0
LINE
  5
110FC
  8
DANMEN
  6
CONTINUOUS
 10
210.850003
 20
121.3
 30
0.0
 11
211.650003
 21
120.5
 31
0.0
  0
LINE
  5
110FD
  8
DANMEN
  6
CONTINUOUS
 10
211.650003
 20
120.5
 30
0.0
 11
212.650004
 21
120.5
 31
0.0
  0
ARC
  5
110FE
  8
DANMEN
  6
CONTINUOUS
 10
212.650004
 20
121.3
 30
0.0
 40
0.2
 50
0.0
 51
89.999982
  0
ARC
  5
110FF
  8
DANMEN
  6
CONTINUOUS
 10
212.650004
 20
120.7
 30
0.0
 40
0.2
 50
270.000018
 51
0.0
  0
LINE
  5
11100
  8
DANMEN
  6
CONTINUOUS
 10
211.650003
 20
121.5
 30
0.0
 11
212.650004
 21
121.5
 31
0.0
  0
LINE
  5
11101
  8
DANMEN
  6
CONTINUOUS
 10
209.150004
 20
121.3
 30
0.0
 11
210.850003
 21
121.3
 31
0.0
  0
LINE
  5
11106
  8
DANMEN
  6
CONTINUOUS
 10
211.800003
 20
121.699997
 30
0.0
 11
213.0
 21
121.699997
 31
0.0
  0
LINE
  5
11107
  8
DANMEN
  6
CONTINUOUS
 10
212.999998
 20
121.699997
 30
0.0
 11
212.999998
 21
120.1
 31
0.0
  0
LINE
  5
11109
  8
DANMEN
  6
CONTINUOUS
 10
209.735478
 20
125.24687
 30
0.0
 11
208.850004
 21
124.199999
 31
0.0
  0
LINE
  5
1110A
  8
DANMEN
  6
CONTINUOUS
 10
205.682602
 20
122.5
 30
0.0
 11
208.350004
 21
122.5
 31
0.0
  0
ARC
  5
1110B
  8
DANMEN
  6
CONTINUOUS
 10
208.725814
 20
126.019184
 30
0.0
 40
0.25
 50
84.739832
 51
264.739796
  0
LINE
  5
1110C
  8
DANMEN
  6
CONTINUOUS
 10
206.122478
 20
123.2
 30
0.0
 11
208.850004
 21
123.2
 31
0.0
  0
LINE
  5
1110D
  8
DANMEN
  6
CONTINUOUS
 10
208.850004
 20
124.199999
 30
0.0
 11
208.850004
 21
123.2
 31
0.0
  0
ARC
  5
11112
  8
DANMEN
  6
CONTINUOUS
 10
207.699997
 20
122.0
 30
0.0
 40
0.5
 50
359.999981
 51
90.000037
  0
ARC
  5
11113
  8
DANMEN
  6
CONTINUOUS
 10
206.5
 20
122.0
 30
0.0
 40
0.5
 50
90.000037
 51
180.000019
  0
LINE
  5
11114
  8
DANMEN
  6
CONTINUOUS
 10
206.5
 20
122.5
 30
0.0
 11
207.699997
 21
122.5
 31
0.0
  0
LINE
  5
11116
  8
DANMEN
  6
CONTINUOUS
 10
210.850003
 20
122.8
 30
0.0
 11
210.850003
 21
122.5
 31
0.0
  0
LINE
  5
11117
  8
DANMEN
  6
CONTINUOUS
 10
209.150004
 20
124.090138
 30
0.0
 11
209.150004
 21
122.5
 31
0.0
  0
LINE
  5
11118
  8
DANMEN
  6
CONTINUOUS
 10
209.150004
 20
122.5
 30
0.0
 11
210.850003
 21
122.5
 31
0.0
  0
ARC
  5
11119
  8
DANMEN
  6
CONTINUOUS
 10
209.850004
 20
125.150001
 30
0.0
 40
0.15
 50
319.774489
 51
139.774466
  0
LINE
  5
1111A
  8
DANMEN
  6
CONTINUOUS
 10
209.964531
 20
125.053131
 30
0.0
 11
209.150004
 21
124.090139
 31
0.0
  0
ARC
  5
1111B
  8
DANMEN
  6
CONTINUOUS
 10
211.250004
 20
122.8
 30
0.0
 40
0.4
 50
89.999982
 51
180.000019
  0
ARC
  5
1111E
  8
DANMEN
  6
CONTINUOUS
 10
212.300003
 20
122.0
 30
0.0
 40
0.5
 50
90.0
 51
179.999149
  0
LINE
  5
1111F
  8
DANMEN
  6
CONTINUOUS
 10
214.0
 20
122.0
 30
0.0
 11
214.0
 21
119.5
 31
0.0
  0
LINE
  5
11120
  8
DANMEN
  6
CONTINUOUS
 10
214.0
 20
119.0
 30
0.0
 11
214.0
 21
122.5
 31
0.0
  0
ARC
  5
11122
  8
DANMEN
  6
CONTINUOUS
 10
213.5
 20
119.5
 30
0.0
 40
0.5
 50
270.000018
 51
0.0
  0
LINE
  5
11123
  8
DANMEN
  6
CONTINUOUS
 10
214.037293
 20
125.5
 30
0.0
 11
218.461092
 21
125.5
 31
0.0
  0
ARC
  5
11125
  8
DANMEN
  6
CONTINUOUS
 10
214.037293
 20
126.0
 30
0.0
 40
0.5
 50
261.469234
 51
270.0
  0
LINE
  5
11127
  8
DANMEN
  6
CONTINUOUS
 10
214.000004
 20
124.5
 30
0.0
 11
214.000004
 21
122.5
 31
0.0
  0
LINE
  5
11128
  8
DANMEN
  6
CONTINUOUS
 10
213.500004
 20
124.218715
 30
0.0
 11
213.500004
 21
123.2
 31
0.0
  0
ARC
  5
1112C
  8
DANMEN
  6
CONTINUOUS
 10
213.5
 20
122.0
 30
0.0
 40
0.5
 50
359.999981
 51
90.000037
  0
ARC
  5
1112F
  8
DANMEN
  6
CONTINUOUS
 10
218.461097
 20
126.0
 30
0.0
 40
0.5
 50
270.0
 51
4.2892
  0
LINE
  5
11132
  8
DANMEN
  6
CONTINUOUS
 10
205.199998
 20
130.0
 30
0.0
 11
205.199998
 21
128.640138
 31
0.0
  0
LINE
  5
11135
  8
DANMEN
  6
CONTINUOUS
 10
210.050996
 20
137.5
 30
0.0
 11
205.850995
 21
136.8
 31
0.0
  0
LINE
  5
11136
  8
DANMEN
  6
CONTINUOUS
 10
211.164402
 20
135.860739
 30
0.0
 11
206.081604
 21
135.013606
 31
0.0
  0
ARC
  5
11138
  8
DANMEN
  6
CONTINUOUS
 10
205.917205
 20
136.0
 30
0.0
 40
1.0
 50
270.000018
 51
279.462343
  0
ARC
  5
1113C
  8
DANMEN
  6
CONTINUOUS
 10
211.5
 20
137.0
 30
0.0
 40
0.5
 50
0.0
 51
89.999982
  0
ARC
  5
1113E
  8
DANMEN
  6
CONTINUOUS
 10
211.0
 20
136.847137
 30
0.0
 40
1.0
 50
279.462343
 51
0.000285
  0
LINE
  5
11141
  8
DANMEN
  6
CONTINUOUS
 10
210.050996
 20
137.5
 30
0.0
 11
211.5
 21
137.5
 31
0.0
  0
LINE
  5
11142
  8
DANMEN
  6
CONTINUOUS
 10
212.0
 20
137.0
 30
0.0
 11
212.0
 21
136.847137
 31
0.0
  0
LINE
  5
11143
  8
DANMEN
  6
CONTINUOUS
 10
216.999999
 20
133.0
 30
0.0
 11
217.599998
 21
133.0
 31
0.0
  0
LINE
  5
11149
  8
DANMEN
  6
CONTINUOUS
 10
232.949983
 20
130.449997
 30
0.0
 11
232.949983
 21
127.449997
 31
0.0
  0
LINE
  5
1114A
  8
DANMEN
  6
CONTINUOUS
 10
231.040307
 20
126.037395
 30
0.0
 11
231.300005
 21
129.499997
 31
0.0
  0
ARC
  5
1114E
  8
DANMEN
  6
CONTINUOUS
 10
231.538906
 20
126.0
 30
0.0
 40
0.5
 50
175.7108
 51
270.0
  0
ARC
  5
11151
  8
DANMEN
  6
CONTINUOUS
 10
231.949983
 20
130.449997
 30
0.0
 40
1.0
 50
0.0
 51
89.999982
  0
LINE
  5
11153
  8
DANMEN
  6
CONTINUOUS
 10
218.699998
 20
145.5
 30
0.0
 11
231.300005
 21
145.5
 31
0.0
  0
LINE
  5
11154
  8
DANMEN
  6
CONTINUOUS
 10
218.949998
 20
143.550003
 30
0.0
 11
231.949983
 21
143.550003
 31
0.0
  0
LINE
  5
11155
  8
DANMEN
  6
CONTINUOUS
 10
216.0
 20
156.5
 30
0.0
 11
236.0
 21
156.5
 31
0.0
  0
LINE
  5
11156
  8
DANMEN
  6
CONTINUOUS
 10
213.134251
 20
147.55
 30
0.0
 11
217.599998
 21
147.55
 31
0.0
  0
LINE
  5
11157
  8
DANMEN
  6
CONTINUOUS
 10
205.199998
 20
145.0
 30
0.0
 11
205.199998
 21
146.359862
 31
0.0
  0
LINE
  5
11159
  8
DANMEN
  6
CONTINUOUS
 10
213.134251
 20
147.55
 30
0.0
 11
205.199998
 21
146.359862
 31
0.0
  0
LINE
  5
1115C
  8
DANMEN
  6
CONTINUOUS
 10
217.599998
 20
142.0
 30
0.0
 11
217.599998
 21
147.550003
 31
0.0
  0
LINE
  5
1115D
  8
DANMEN
  6
CONTINUOUS
 10
216.999999
 20
142.0
 30
0.0
 11
217.599998
 21
142.0
 31
0.0
  0
LINE
  5
11161
  8
DANMEN
  6
CONTINUOUS
 10
214.037293
 20
149.5
 30
0.0
 11
218.461092
 21
149.5
 31
0.0
  0
ARC
  5
11163
  8
DANMEN
  6
CONTINUOUS
 10
214.037293
 20
149.0
 30
0.0
 40
0.5
 50
90.0
 51
98.530766
  0
LINE
  5
11168
  8
DANMEN
  6
CONTINUOUS
 10
218.959696
 20
148.962605
 30
0.0
 11
218.699998
 21
145.5
 31
0.0
  0
ARC
  5
11169
  8
DANMEN
  6
CONTINUOUS
 10
218.461097
 20
149.0
 30
0.0
 40
0.5
 50
355.710803
 51
90.0
  0
ARC
  5
1116F
  8
DANMEN
  6
CONTINUOUS
 10
215.5
 20
156.0
 30
0.0
 40
0.5
 50
359.999981
 51
89.999982
  0
ARC
  5
11170
  8
DANMEN
  6
CONTINUOUS
 10
215.5
 20
155.350006
 30
0.0
 40
0.5
 50
270.000018
 51
359.999981
  0
LINE
  5
11171
  8
DANMEN
  6
CONTINUOUS
 10
216.0
 20
156.0
 30
0.0
 11
216.0
 21
155.350006
 31
0.0
  0
LINE
  5
11172
  8
DANMEN
  6
CONTINUOUS
 10
232.949983
 20
147.550003
 30
0.0
 11
232.949983
 21
144.550003
 31
0.0
  0
ARC
  5
11174
  8
DANMEN
  6
CONTINUOUS
 10
231.949983
 20
144.550003
 30
0.0
 40
1.0
 50
270.000018
 51
0.0
  0
LINE
  5
11179
  8
DANMEN
  6
CONTINUOUS
 10
231.300005
 20
145.5
 30
0.0
 11
231.040307
 21
148.962605
 31
0.0
  0
ARC
  5
1117A
  8
DANMEN
  6
CONTINUOUS
 10
231.538906
 20
149.0
 30
0.0
 40
0.5
 50
90.0
 51
184.289197
  0
LINE
  5
1117C
  8
DANMEN
  6
CONTINUOUS
 10
236.0
 20
159.5
 30
0.0
 11
236.0
 21
155.300003
 31
0.0
  0
LINE
  5
1117E
  8
DANMEN
  6
CONTINUOUS
 10
242.999986
 20
147.550003
 30
0.0
 11
242.999986
 21
127.449997
 31
0.0
  0
LINE
  5
1117F
  8
DANMEN
  6
CONTINUOUS
 10
241.049989
 20
141.5
 30
0.0
 11
241.049989
 21
133.5
 31
0.0
  0
LINE
  5
11180
  8
DANMEN
  6
CONTINUOUS
 10
246.999985
 20
134.999991
 30
0.0
 11
246.999985
 21
139.999994
 31
0.0
  0
LINE
  5
11181
  8
DANMEN
  6
CONTINUOUS
 10
254.0
 20
129.500015
 30
0.0
 11
263.5
 21
129.500015
 31
0.0
  0
LINE
  5
11182
  8
DANMEN
  6
CONTINUOUS
 10
254.0
 20
127.7
 30
0.0
 11
263.5
 21
127.7
 31
0.0
  0
LINE
  5
11183
  8
DANMEN
  6
CONTINUOUS
 10
247.0
 20
134.999991
 30
0.0
 11
263.5
 21
134.999991
 31
0.0
  0
LINE
  5
11184
  8
DANMEN
  6
CONTINUOUS
 10
247.0
 20
135.499991
 30
0.0
 11
263.5
 21
135.499991
 31
0.0
  0
LINE
  5
11185
  8
DANMEN
  6
CONTINUOUS
 10
254.000002
 20
126.0
 30
0.0
 11
254.000002
 21
130.0
 31
0.0
  0
LINE
  5
11186
  8
DANMEN
  6
CONTINUOUS
 10
241.899986
 20
133.5
 30
0.0
 11
241.899986
 21
127.449997
 31
0.0
  0
LINE
  5
11187
  8
DANMEN
  6
CONTINUOUS
 10
252.900002
 20
127.449997
 30
0.0
 11
252.900002
 21
129.7
 31
0.0
  0
LINE
  5
11188
  8
DANMEN
  6
CONTINUOUS
 10
242.999986
 20
127.449997
 30
0.0
 11
252.900002
 21
127.449997
 31
0.0
  0
ARC
  5
1118B
  8
DANMEN
  6
CONTINUOUS
 10
253.500002
 20
126.0
 30
0.0
 40
0.5
 50
270.000018
 51
0.0
  0
LINE
  5
11190
  8
DANMEN
  6
CONTINUOUS
 10
241.049989
 20
133.5
 30
0.0
 11
241.899986
 21
133.5
 31
0.0
  0
ARC
  5
11193
  8
DANMEN
  6
CONTINUOUS
 10
253.500002
 20
130.0
 30
0.0
 40
0.5
 50
0.0
 51
89.999982
  0
LINE
  5
11194
  8
DANMEN
  6
CONTINUOUS
 10
251.000002
 20
130.5
 30
0.0
 11
253.500002
 21
130.5
 31
0.0
  0
ARC
  5
11196
  8
DANMEN
  6
CONTINUOUS
 10
251.500002
 20
130.350131
 30
0.0
 40
0.5
 50
180.0
 51
263.990994
  0
LINE
  5
11198
  8
DANMEN
  6
CONTINUOUS
 10
252.900002
 20
129.7
 30
0.0
 11
251.447659
 21
129.852878
 31
0.0
  0
LINE
  5
1119D
  8
DANMEN
  6
CONTINUOUS
 10
251.000002
 20
130.350131
 30
0.0
 11
251.000002
 21
130.5
 31
0.0
  0
LINE
  5
111A0
  8
DANMEN
  6
CONTINUOUS
 10
256.499908
 20
131.0
 30
0.0
 11
256.499908
 21
133.500006
 31
0.0
  0
ARC
  5
111A1
  8
DANMEN
  6
CONTINUOUS
 10
254.999908
 20
131.0
 30
0.0
 40
1.5
 50
269.999964
 51
0.000001
  0
ARC
  5
111A2
  8
DANMEN
  6
CONTINUOUS
 10
257.999908
 20
133.500006
 30
0.0
 40
1.5
 50
90.0
 51
179.999982
  0
LINE
  5
111A3
  8
DANMEN
  6
CONTINUOUS
 10
254.0
 20
147.3
 30
0.0
 11
263.5
 21
147.3
 31
0.0
  0
LINE
  5
111A4
  8
DANMEN
  6
CONTINUOUS
 10
254.0
 20
145.5
 30
0.0
 11
263.5
 21
145.5
 31
0.0
  0
LINE
  5
111A5
  8
DANMEN
  6
CONTINUOUS
 10
240.399994
 20
158.300003
 30
0.0
 11
263.5
 21
158.300003
 31
0.0
  0
LINE
  5
111A6
  8
DANMEN
  6
CONTINUOUS
 10
240.399994
 20
159.5
 30
0.0
 11
263.5
 21
159.5
 31
0.0
  0
LINE
  5
111A7
  8
DANMEN
  6
CONTINUOUS
 10
246.999985
 20
139.999979
 30
0.0
 11
263.5
 21
139.999979
 31
0.0
  0
LINE
  5
111A8
  8
DANMEN
  6
CONTINUOUS
 10
246.999985
 20
139.499979
 30
0.0
 11
263.5
 21
139.499979
 31
0.0
  0
LINE
  5
111A9
  8
DANMEN
  6
CONTINUOUS
 10
242.999986
 20
147.550003
 30
0.0
 11
252.900002
 21
147.550003
 31
0.0
  0
LINE
  5
111AA
  8
DANMEN
  6
CONTINUOUS
 10
241.899986
 20
147.550003
 30
0.0
 11
241.899986
 21
141.5
 31
0.0
  0
LINE
  5
111AD
  8
DANMEN
  6
CONTINUOUS
 10
241.049989
 20
141.5
 30
0.0
 11
241.899986
 21
141.5
 31
0.0
  0
LINE
  5
111AF
  8
DANMEN
  6
CONTINUOUS
 10
254.000002
 20
149.0
 30
0.0
 11
254.000002
 21
145.0
 31
0.0
  0
LINE
  5
111B0
  8
DANMEN
  6
CONTINUOUS
 10
254.000002
 20
149.0
 30
0.0
 11
254.000002
 21
145.0
 31
0.0
  0
ARC
  5
111B1
  8
DANMEN
  6
CONTINUOUS
 10
251.500002
 20
144.649869
 30
0.0
 40
0.5
 50
96.009006
 51
180.0
  0
LINE
  5
111B2
  8
DANMEN
  6
CONTINUOUS
 10
251.000002
 20
144.5
 30
0.0
 11
253.500002
 21
144.5
 31
0.0
  0
LINE
  5
111B3
  8
DANMEN
  6
CONTINUOUS
 10
251.000002
 20
144.649869
 30
0.0
 11
251.000002
 21
144.5
 31
0.0
  0
ARC
  5
111B6
  8
DANMEN
  6
CONTINUOUS
 10
253.500002
 20
145.0
 30
0.0
 40
0.5
 50
270.000018
 51
0.0
  0
ARC
  5
111B8
  8
DANMEN
  6
CONTINUOUS
 10
253.500002
 20
149.0
 30
0.0
 40
0.5
 50
0.0
 51
89.999982
  0
LINE
  5
111BB
  8
DANMEN
  6
CONTINUOUS
 10
252.900002
 20
147.550003
 30
0.0
 11
252.900002
 21
145.3
 31
0.0
  0
LINE
  5
111BD
  8
DANMEN
  6
CONTINUOUS
 10
252.900002
 20
145.3
 30
0.0
 11
251.447659
 21
145.147122
 31
0.0
  0
ARC
  5
111C5
  8
DANMEN
  6
CONTINUOUS
 10
240.399994
 20
158.899994
 30
0.0
 40
0.6
 50
270.000018
 51
90.000037
  0
ARC
  5
111C6
  8
DANMEN
  6
CONTINUOUS
 10
254.999908
 20
144.0
 30
0.0
 40
1.5
 50
0.000018
 51
90.0
  0
ARC
  5
111C7
  8
DANMEN
  6
CONTINUOUS
 10
257.999908
 20
141.500009
 30
0.0
 40
1.5
 50
179.999982
 51
269.999964
  0
LINE
  5
111C8
  8
DANMEN
  6
CONTINUOUS
 10
256.499908
 20
141.500009
 30
0.0
 11
256.499908
 21
144.0
 31
0.0
  0
LINE
  5
111C9
  8
DANMEN
  6
CONTINUOUS
 10
294.800003
 20
120.0
 30
0.0
 11
305.000003
 21
120.0
 31
0.0
  0
LINE
  5
111CA
  8
DANMEN
  6
CONTINUOUS
 10
301.000003
 20
121.5
 30
0.0
 11
304.500003
 21
121.5
 31
0.0
  0
LINE
  5
111CB
  8
DANMEN
  6
CONTINUOUS
 10
276.500003
 20
149.5
 30
0.0
 11
315.000003
 21
149.5
 31
0.0
  0
LINE
  5
111CC
  8
DANMEN
  6
CONTINUOUS
 10
276.500003
 20
125.5
 30
0.0
 11
304.500003
 21
125.5
 31
0.0
  0
LINE
  5
111CD
  8
DANMEN
  6
CONTINUOUS
 10
302.95
 20
148.000003
 30
0.0
 11
310.500003
 21
148.000003
 31
0.0
  0
LINE
  5
111CE
  8
DANMEN
  6
CONTINUOUS
 10
302.95
 20
127.000003
 30
0.0
 11
310.500003
 21
127.000003
 31
0.0
  0
LINE
  5
111CF
  8
DANMEN
  6
CONTINUOUS
 10
315.499999
 20
117.5
 30
0.0
 11
299.000003
 21
117.5
 31
0.0
  0
LINE
  5
111D0
  8
DANMEN
  6
CONTINUOUS
 10
304.500003
 20
122.5
 30
0.0
 11
300.473613
 21
122.5
 31
0.0
  0
LINE
  5
111D1
  8
DANMEN
  6
CONTINUOUS
 10
291.000003
 20
147.550003
 30
0.0
 11
291.000003
 21
127.449997
 31
0.0
  0
LINE
  5
111D2
  8
DANMEN
  6
CONTINUOUS
 10
292.950003
 20
148.000003
 30
0.0
 11
292.950003
 21
127.000003
 31
0.0
  0
LINE
  5
111D3
  8
DANMEN
  6
CONTINUOUS
 10
283.000018
 20
140.000009
 30
0.0
 11
283.000018
 21
135.000006
 31
0.0
  0
LINE
  5
111D4
  8
DANMEN
  6
CONTINUOUS
 10
279.000003
 20
127.449997
 30
0.0
 11
291.000003
 21
127.449997
 31
0.0
  0
LINE
  5
111D5
  8
DANMEN
  6
CONTINUOUS
 10
289.050006
 20
117.5
 30
0.0
 11
282.750003
 21
117.5
 31
0.0
  0
LINE
  5
111D6
  8
DANMEN
  6
CONTINUOUS
 10
277.100003
 20
129.7
 30
0.0
 11
277.100003
 21
126.6
 31
0.0
  0
LINE
  5
111D7
  8
DANMEN
  6
CONTINUOUS
 10
276.000003
 20
130.0
 30
0.0
 11
276.000003
 21
126.0
 31
0.0
  0
LINE
  5
111D8
  8
DANMEN
  6
CONTINUOUS
 10
277.8
 20
121.7
 30
0.0
 11
279.2
 21
121.7
 31
0.0
  0
LINE
  5
111D9
  8
DANMEN
  6
CONTINUOUS
 10
278.9
 20
119.5
 30
0.0
 11
278.4
 21
119.0
 31
0.0
  0
LINE
  5
111DA
  8
DANMEN
  6
CONTINUOUS
 10
277.100003
 20
126.6
 30
0.0
 11
279.000003
 21
126.6
 31
0.0
  0
LINE
  5
111DB
  8
DANMEN
  6
CONTINUOUS
 10
281.750003
 20
117.5
 30
0.0
 11
277.200003
 21
117.5
 31
0.0
  0
LINE
  5
111DC
  8
DANMEN
  6
CONTINUOUS
 10
279.206243
 20
122.5
 30
0.0
 11
277.200003
 21
122.5
 31
0.0
  0
LINE
  5
111DD
  8
DANMEN
  6
CONTINUOUS
 10
277.200003
 20
121.0
 30
0.0
 11
277.200003
 21
122.0
 31
0.0
  0
LINE
  5
111DE
  8
DANMEN
  6
CONTINUOUS
 10
278.4
 20
121.0
 30
0.0
 11
278.4
 21
120.0
 31
0.0
  0
LINE
  5
111DF
  8
DANMEN
  6
CONTINUOUS
 10
277.599999
 20
120.0
 30
0.0
 11
278.4
 21
120.0
 31
0.0
  0
LINE
  5
111E0
  8
DANMEN
  6
CONTINUOUS
 10
277.4
 20
119.8
 30
0.0
 11
277.4
 21
119.0
 31
0.0
  0
ARC
  5
111E1
  8
DANMEN
  6
CONTINUOUS
 10
277.599999
 20
119.8
 30
0.0
 40
0.2
 50
89.999982
 51
180.000019
  0
LINE
  5
111E2
  8
DANMEN
  6
CONTINUOUS
 10
277.4
 20
121.0
 30
0.0
 11
278.4
 21
121.0
 31
0.0
  0
LINE
  5
111E7
  8
DANMEN
  6
CONTINUOUS
 10
277.4
 20
121.0
 30
0.0
 11
277.4
 21
121.3
 31
0.0
  0
LINE
  5
111EA
  8
DANMEN
  6
CONTINUOUS
 10
278.4
 20
119.0
 30
0.0
 11
277.4
 21
119.0
 31
0.0
  0
ARC
  5
111ED
  8
DANMEN
  6
CONTINUOUS
 10
277.8
 20
121.3
 30
0.0
 40
0.4
 50
90.0
 51
180.0
  0
LINE
  5
111F0
  8
DANMEN
  6
CONTINUOUS
 10
277.200003
 20
117.5
 30
0.0
 11
277.200003
 21
120.199997
 31
0.0
  0
ARC
  5
111F1
  8
DANMEN
  6
CONTINUOUS
 10
277.750003
 20
120.5
 30
0.0
 40
0.5
 50
360.0
 51
89.999982
  0
LINE
  5
111F2
  8
DANMEN
  6
CONTINUOUS
 10
277.750003
 20
121.0
 30
0.0
 11
277.200003
 21
121.0
 31
0.0
  0
LINE
  5
111F3
  8
DANMEN
  6
CONTINUOUS
 10
278.250003
 20
120.199997
 30
0.0
 11
277.200003
 21
120.199997
 31
0.0
  0
LINE
  5
111F4
  8
DANMEN
  6
CONTINUOUS
 10
278.250003
 20
120.199997
 30
0.0
 11
278.250003
 21
120.5
 31
0.0
  0
ARC
  5
111F7
  8
DANMEN
  6
CONTINUOUS
 10
276.500003
 20
126.0
 30
0.0
 40
0.5
 50
180.000019
 51
270.000001
  0
ARC
  5
111F9
  8
DANMEN
  6
CONTINUOUS
 10
276.700003
 20
122.0
 30
0.0
 40
0.5
 50
0.0
 51
90.0
  0
ARC
  5
111FA
  8
DANMEN
  6
CONTINUOUS
 10
276.500003
 20
122.0
 30
0.0
 40
0.5
 50
90.0
 51
180.0
  0
LINE
  5
111FB
  8
DANMEN
  6
CONTINUOUS
 10
276.500003
 20
122.5
 30
0.0
 11
276.700003
 21
122.5
 31
0.0
  0
LINE
  5
111FC
  8
DANMEN
  6
CONTINUOUS
 10
282.650001
 20
126.0
 30
0.0
 11
282.650001
 21
121.0
 31
0.0
  0
LINE
  5
111FD
  8
DANMEN
  6
CONTINUOUS
 10
282.250001
 20
125.717157
 30
0.0
 11
282.050001
 21
121.7
 31
0.0
  0
LINE
  5
111FE
  8
DANMEN
  6
CONTINUOUS
 10
279.8
 20
121.7
 30
0.0
 11
279.7
 21
125.576394
 31
0.0
  0
LINE
  5
111FF
  8
DANMEN
  6
CONTINUOUS
 10
279.3
 20
125.576394
 30
0.0
 11
279.2
 21
121.7
 31
0.0
  0
LINE
  5
11200
  8
DANMEN
  6
CONTINUOUS
 10
280.6
 20
121.0
 30
0.0
 11
280.6
 21
120.0
 31
0.0
  0
LINE
  5
11201
  8
DANMEN
  6
CONTINUOUS
 10
281.400001
 20
120.0
 30
0.0
 11
280.6
 21
120.0
 31
0.0
  0
LINE
  5
11202
  8
DANMEN
  6
CONTINUOUS
 10
281.6
 20
119.8
 30
0.0
 11
281.6
 21
119.0
 31
0.0
  0
ARC
  5
11203
  8
DANMEN
  6
CONTINUOUS
 10
281.400001
 20
119.8
 30
0.0
 40
0.2
 50
359.999981
 51
90.000037
  0
LINE
  5
1120A
  8
DANMEN
  6
CONTINUOUS
 10
279.8
 20
121.7
 30
0.0
 11
282.050001
 21
121.7
 31
0.0
  0
LINE
  5
1120B
  8
DANMEN
  6
CONTINUOUS
 10
281.6
 20
119.0
 30
0.0
 11
280.6
 21
119.0
 31
0.0
  0
LINE
  5
1120C
  8
DANMEN
  6
CONTINUOUS
 10
278.9
 20
119.5
 30
0.0
 11
280.1
 21
119.5
 31
0.0
  0
LINE
  5
11211
  8
DANMEN
  6
CONTINUOUS
 10
280.6
 20
119.0
 30
0.0
 11
280.1
 21
119.5
 31
0.0
  0
LINE
  5
11212
  8
DANMEN
  6
CONTINUOUS
 10
280.6
 20
121.0
 30
0.0
 11
282.65
 21
121.0
 31
0.0
  0
ARC
  5
1121B
  8
DANMEN
  6
CONTINUOUS
 10
282.250003
 20
120.5
 30
0.0
 40
0.5
 50
360.0
 51
89.999982
  0
ARC
  5
1121C
  8
DANMEN
  6
CONTINUOUS
 10
281.250003
 20
120.5
 30
0.0
 40
0.5
 50
89.999982
 51
180.000019
  0
LINE
  5
1121D
  8
DANMEN
  6
CONTINUOUS
 10
281.750003
 20
117.5
 30
0.0
 11
281.750003
 21
120.199997
 31
0.0
  0
LINE
  5
1121E
  8
DANMEN
  6
CONTINUOUS
 10
281.750003
 20
120.199997
 30
0.0
 11
280.750003
 21
120.199997
 31
0.0
  0
LINE
  5
1121F
  8
DANMEN
  6
CONTINUOUS
 10
280.750003
 20
120.199997
 30
0.0
 11
280.750003
 21
120.5
 31
0.0
  0
LINE
  5
11220
  8
DANMEN
  6
CONTINUOUS
 10
282.750003
 20
117.5
 30
0.0
 11
282.750003
 21
120.5
 31
0.0
  0
LINE
  5
11221
  8
DANMEN
  6
CONTINUOUS
 10
282.250003
 20
121.0
 30
0.0
 11
281.250003
 21
121.0
 31
0.0
  0
ARC
  5
11222
  8
DANMEN
  6
CONTINUOUS
 10
279.5
 20
125.8
 30
0.0
 40
0.3
 50
311.810315
 51
228.189685
  0
ARC
  5
11226
  8
DANMEN
  6
CONTINUOUS
 10
282.35
 20
126.0
 30
0.0
 40
0.3
 50
0.0
 51
250.528876
  0
LINE
  5
11235
  8
DANMEN
  6
CONTINUOUS
 10
279.000003
 20
127.449997
 30
0.0
 11
279.000003
 21
126.6
 31
0.0
  0
LINE
  5
11236
  8
DANMEN
  6
CONTINUOUS
 10
282.10405
 20
122.5
 30
0.0
 11
279.706243
 21
122.5
 31
0.0
  0
ARC
  5
11237
  8
DANMEN
  6
CONTINUOUS
 10
278.500003
 20
130.350131
 30
0.0
 40
0.5
 50
276.009006
 51
0.0
  0
LINE
  5
11238
  8
DANMEN
  6
CONTINUOUS
 10
276.500003
 20
130.5
 30
0.0
 11
279.000003
 21
130.5
 31
0.0
  0
LINE
  5
11239
  8
DANMEN
  6
CONTINUOUS
 10
273.500003
 20
133.499991
 30
0.0
 11
273.500003
 21
131.0
 31
0.0
  0
ARC
  5
1123A
  8
DANMEN
  6
CONTINUOUS
 10
275.000003
 20
131.0
 30
0.0
 40
1.5
 50
180.000018
 51
270.0
  0
LINE
  5
1123D
  8
DANMEN
  6
CONTINUOUS
 10
277.100003
 20
129.7
 30
0.0
 11
278.552345
 21
129.852878
 31
0.0
  0
ARC
  5
1123F
  8
DANMEN
  6
CONTINUOUS
 10
276.500003
 20
130.0
 30
0.0
 40
0.5
 50
89.999982
 51
180.000019
  0
ARC
  5
11241
  8
DANMEN
  6
CONTINUOUS
 10
272.000003
 20
133.499991
 30
0.0
 40
1.5
 50
359.999982
 51
89.999964
  0
LINE
  5
11249
  8
DANMEN
  6
CONTINUOUS
 10
279.000003
 20
130.350131
 30
0.0
 11
279.000003
 21
130.5
 31
0.0
  0
LINE
  5
1124A
  8
DANMEN
  6
CONTINUOUS
 10
302.95
 20
129.5
 30
0.0
 11
302.95
 21
127.000003
 31
0.0
  0
LINE
  5
1124B
  8
DANMEN
  6
CONTINUOUS
 10
301.95
 20
129.0
 30
0.0
 11
301.95
 21
127.000003
 31
0.0
  0
LINE
  5
1124C
  8
DANMEN
  6
CONTINUOUS
 10
300.500003
 20
122.3
 30
0.0
 11
294.714858
 21
120.587664
 31
0.0
  0
LINE
  5
1124D
  8
DANMEN
  6
CONTINUOUS
 10
292.950003
 20
127.000003
 30
0.0
 11
295.500003
 21
127.000003
 31
0.0
  0
LINE
  5
1124E
  8
DANMEN
  6
CONTINUOUS
 10
294.550006
 20
120.7
 30
0.0
 11
300.335151
 21
122.412336
 31
0.0
  0
LINE
  5
1124F
  8
DANMEN
  6
CONTINUOUS
 10
300.250006
 20
123.0
 30
0.0
 11
290.050003
 21
123.0
 31
0.0
  0
LINE
  5
11250
  8
DANMEN
  6
CONTINUOUS
 10
290.550003
 20
117.5
 30
0.0
 11
299.000003
 21
117.5
 31
0.0
  0
LINE
  5
11251
  8
DANMEN
  6
CONTINUOUS
 10
289.050006
 20
117.5
 30
0.0
 11
289.050006
 21
122.0
 31
0.0
  0
LINE
  5
11252
  8
DANMEN
  6
CONTINUOUS
 10
294.050006
 20
121.5
 30
0.0
 11
290.550003
 21
121.5
 31
0.0
  0
LINE
  5
11253
  8
DANMEN
  6
CONTINUOUS
 10
290.550003
 20
117.5
 30
0.0
 11
290.550003
 21
121.5
 31
0.0
  0
ARC
  5
11256
  8
DANMEN
  6
CONTINUOUS
 10
294.800003
 20
120.3
 30
0.0
 40
0.3
 50
106.488148
 51
270.0
  0
LINE
  5
11257
  8
DANMEN
  6
CONTINUOUS
 10
294.550006
 20
120.7
 30
0.0
 11
294.050006
 21
120.7
 31
0.0
  0
LINE
  5
11258
  8
DANMEN
  6
CONTINUOUS
 10
294.050006
 20
121.5
 30
0.0
 11
294.050006
 21
120.7
 31
0.0
  0
ARC
  5
1125A
  8
DANMEN
  6
CONTINUOUS
 10
290.050003
 20
122.0
 30
0.0
 40
1.0
 50
89.999982
 51
180.000019
  0
LINE
  5
1125C
  8
DANMEN
  6
CONTINUOUS
 10
301.000003
 20
121.5
 30
0.0
 11
301.000003
 21
122.3
 31
0.0
  0
LINE
  5
1125F
  8
DANMEN
  6
CONTINUOUS
 10
296.500003
 20
127.000003
 30
0.0
 11
301.95
 21
127.000003
 31
0.0
  0
LINE
  5
11262
  8
DANMEN
  6
CONTINUOUS
 10
295.500003
 20
127.450003
 30
0.0
 11
296.500003
 21
127.450003
 31
0.0
  0
LINE
  5
11266
  8
DANMEN
  6
CONTINUOUS
 10
295.500003
 20
127.000003
 30
0.0
 11
295.500003
 21
127.450003
 31
0.0
  0
LINE
  5
11267
  8
DANMEN
  6
CONTINUOUS
 10
296.500003
 20
127.000003
 30
0.0
 11
296.500003
 21
127.450003
 31
0.0
  0
LINE
  5
11268
  8
DANMEN
  6
CONTINUOUS
 10
300.500003
 20
122.3
 30
0.0
 11
301.000003
 21
122.3
 31
0.0
  0
ARC
  5
1126D
  8
DANMEN
  6
CONTINUOUS
 10
300.250006
 20
122.7
 30
0.0
 40
0.3
 50
286.488148
 51
90.0
  0
LINE
  5
1126E
  8
DANMEN
  6
CONTINUOUS
 10
302.45
 20
129.5
 30
0.0
 11
302.95
 21
129.5
 31
0.0
  0
ARC
  5
11271
  8
DANMEN
  6
CONTINUOUS
 10
302.45
 20
129.0
 30
0.0
 40
0.5
 50
89.999982
 51
180.000019
  0
LINE
  5
11272
  8
DANMEN
  6
CONTINUOUS
 10
277.100003
 20
148.4
 30
0.0
 11
289.011317
 21
148.4
 31
0.0
  0
ARC
  5
11273
  8
DANMEN
  6
CONTINUOUS
 10
278.500003
 20
144.649869
 30
0.0
 40
0.5
 50
0.0
 51
83.990994
  0
LINE
  5
11274
  8
DANMEN
  6
CONTINUOUS
 10
276.500003
 20
144.5
 30
0.0
 11
279.000003
 21
144.5
 31
0.0
  0
ARC
  5
11275
  8
DANMEN
  6
CONTINUOUS
 10
275.000003
 20
144.0
 30
0.0
 40
1.5
 50
89.999964
 51
180.000001
  0
LINE
  5
11276
  8
DANMEN
  6
CONTINUOUS
 10
276.000003
 20
149.0
 30
0.0
 11
276.000003
 21
145.0
 31
0.0
  0
ARC
  5
11277
  8
DANMEN
  6
CONTINUOUS
 10
272.000003
 20
141.499994
 30
0.0
 40
1.5
 50
270.0
 51
359.999982
  0
LINE
  5
11278
  8
DANMEN
  6
CONTINUOUS
 10
273.500003
 20
144.0
 30
0.0
 11
273.500003
 21
141.499994
 31
0.0
  0
ARC
  5
11279
  8
DANMEN
  6
CONTINUOUS
 10
276.500003
 20
145.0
 30
0.0
 40
0.5
 50
180.000019
 51
270.000001
  0
LINE
  5
1127D
  8
DANMEN
  6
CONTINUOUS
 10
277.100003
 20
145.3
 30
0.0
 11
278.552345
 21
145.147122
 31
0.0
  0
LINE
  5
1127F
  8
DANMEN
  6
CONTINUOUS
 10
277.100003
 20
148.4
 30
0.0
 11
277.100003
 21
145.3
 31
0.0
  0
ARC
  5
11280
  8
DANMEN
  6
CONTINUOUS
 10
276.500003
 20
149.0
 30
0.0
 40
0.5
 50
89.999982
 51
180.000019
  0
LINE
  5
11283
  8
DANMEN
  6
CONTINUOUS
 10
279.000003
 20
144.649869
 30
0.0
 11
279.000003
 21
144.5
 31
0.0
  0
LINE
  5
11287
  8
DANMEN
  6
CONTINUOUS
 10
292.950003
 20
148.000003
 30
0.0
 11
295.500003
 21
148.000003
 31
0.0
  0
LINE
  5
11289
  8
DANMEN
  6
CONTINUOUS
 10
290.000003
 20
147.55
 30
0.0
 11
291.000003
 21
147.55
 31
0.0
  0
ARC
  5
1128A
  8
DANMEN
  6
CONTINUOUS
 10
289.011317
 20
147.4
 30
0.0
 40
1.0
 50
8.626927
 51
90.0
  0
LINE
  5
1128D
  8
DANMEN
  6
CONTINUOUS
 10
296.500003
 20
148.000003
 30
0.0
 11
301.95
 21
148.000003
 31
0.0
  0
LINE
  5
11293
  8
DANMEN
  6
CONTINUOUS
 10
295.500003
 20
148.000003
 30
0.0
 11
295.500003
 21
147.550003
 31
0.0
  0
LINE
  5
11294
  8
DANMEN
  6
CONTINUOUS
 10
296.500003
 20
148.000003
 30
0.0
 11
296.500003
 21
147.550003
 31
0.0
  0
LINE
  5
11295
  8
DANMEN
  6
CONTINUOUS
 10
295.500003
 20
147.550003
 30
0.0
 11
296.500003
 21
147.550003
 31
0.0
  0
LINE
  5
11296
  8
DANMEN
  6
CONTINUOUS
 10
302.45
 20
145.5
 30
0.0
 11
302.95
 21
145.5
 31
0.0
  0
LINE
  5
11297
  8
DANMEN
  6
CONTINUOUS
 10
302.95
 20
148.000003
 30
0.0
 11
302.95
 21
145.5
 31
0.0
  0
LINE
  5
11298
  8
DANMEN
  6
CONTINUOUS
 10
301.95
 20
148.000003
 30
0.0
 11
301.95
 21
146.0
 31
0.0
  0
ARC
  5
1129B
  8
DANMEN
  6
CONTINUOUS
 10
302.45
 20
146.0
 30
0.0
 40
0.5
 50
180.000019
 51
270.000001
  0
LINE
  5
1129E
  8
DANMEN
  6
CONTINUOUS
 10
316.000003
 20
148.5
 30
0.0
 11
316.000003
 21
121.1
 31
0.0
  0
LINE
  5
1129F
  8
DANMEN
  6
CONTINUOUS
 10
314.050003
 20
148.000003
 30
0.0
 11
314.050003
 21
127.000003
 31
0.0
  0
LINE
  5
112A0
  8
DANMEN
  6
CONTINUOUS
 10
306.000003
 20
125.5
 30
0.0
 11
314.800003
 21
125.5
 31
0.0
  0
LINE
  5
112A1
  8
DANMEN
  6
CONTINUOUS
 10
311.500003
 20
127.000003
 30
0.0
 11
314.050003
 21
127.000003
 31
0.0
  0
LINE
  5
112A2
  8
DANMEN
  6
CONTINUOUS
 10
306.0
 20
122.5
 30
0.0
 11
314.8
 21
122.5
 31
0.0
  0
LINE
  5
112A3
  8
DANMEN
  6
CONTINUOUS
 10
304.500003
 20
125.5
 30
0.0
 11
304.500003
 21
121.5
 31
0.0
  0
LINE
  5
112A4
  8
DANMEN
  6
CONTINUOUS
 10
306.000003
 20
125.5
 30
0.0
 11
306.000003
 21
121.0
 31
0.0
  0
ARC
  5
112A7
  8
DANMEN
  6
CONTINUOUS
 10
305.000003
 20
121.0
 30
0.0
 40
1.0
 50
270.000018
 51
0.0
  0
LINE
  5
112AE
  8
DANMEN
  6
CONTINUOUS
 10
310.500003
 20
127.450003
 30
0.0
 11
311.500003
 21
127.450003
 31
0.0
  0
LINE
  5
112B2
  8
DANMEN
  6
CONTINUOUS
 10
310.500003
 20
127.000003
 30
0.0
 11
310.500003
 21
127.450003
 31
0.0
  0
LINE
  5
112B3
  8
DANMEN
  6
CONTINUOUS
 10
311.500003
 20
127.000003
 30
0.0
 11
311.500003
 21
127.450003
 31
0.0
  0
LINE
  5
112B4
  8
DANMEN
  6
CONTINUOUS
 10
314.800003
 20
125.5
 30
0.0
 11
314.800003
 21
121.1
 31
0.0
  0
ARC
  5
112B5
  8
DANMEN
  6
CONTINUOUS
 10
315.400003
 20
121.1
 30
0.0
 40
0.6
 50
180.0
 51
0.0
  0
ARC
  5
112B6
  8
DANMEN
  6
CONTINUOUS
 10
315.5
 20
117.0
 30
0.0
 40
0.5
 50
0.000091
 51
90.000128
  0
LINE
  5
112BB
  8
DANMEN
  6
CONTINUOUS
 10
311.500003
 20
148.000003
 30
0.0
 11
314.050003
 21
148.000003
 31
0.0
  0
LINE
  5
112C1
  8
DANMEN
  6
CONTINUOUS
 10
310.500003
 20
148.000003
 30
0.0
 11
310.500003
 21
147.550003
 31
0.0
  0
LINE
  5
112C2
  8
DANMEN
  6
CONTINUOUS
 10
311.500003
 20
148.000003
 30
0.0
 11
311.500003
 21
147.550003
 31
0.0
  0
LINE
  5
112C3
  8
DANMEN
  6
CONTINUOUS
 10
310.500003
 20
147.550003
 30
0.0
 11
311.500003
 21
147.550003
 31
0.0
  0
ARC
  5
112C4
  8
DANMEN
  6
CONTINUOUS
 10
315.000003
 20
148.5
 30
0.0
 40
1.0
 50
0.0
 51
89.999982
  0
LINE
  5
112C7
  8
SUNPO
  6
CONTINUOUS
 10
25.0
 20
188.0
 30
0.0
 11
25.0
 21
223.0
 31
0.0
  0
LINE
  5
112C8
  8
DANMEN
  6
CONTINUOUS
 10
366.500004
 20
117.5
 30
0.0
 11
383.0
 21
117.5
 31
0.0
  0
LINE
  5
112C9
  8
DANMEN
  6
CONTINUOUS
 10
376.0
 20
156.5
 30
0.0
 11
356.0
 21
156.5
 31
0.0
  0
LINE
  5
112CA
  8
DANMEN
  6
CONTINUOUS
 10
342.5
 20
136.0
 30
0.0
 11
391.0
 21
136.0
 31
0.0
  0
LINE
  5
112CB
  8
DANMEN
  6
CONTINUOUS
 10
342.5
 20
139.0
 30
0.0
 11
391.0
 21
139.0
 31
0.0
  0
LINE
  5
112CC
  8
DANMEN
  6
CONTINUOUS
 10
342.5
 20
122.5
 30
0.0
 11
391.0
 21
122.5
 31
0.0
  0
LINE
  5
112CD
  8
DANMEN
  6
CONTINUOUS
 10
342.5
 20
149.5
 30
0.0
 11
391.0
 21
149.5
 31
0.0
  0
LINE
  5
112CE
  8
DANMEN
  6
CONTINUOUS
 10
342.5
 20
117.5
 30
0.0
 11
366.0
 21
117.5
 31
0.0
  0
ARC
  5
112CF
  8
DANMEN
  6
CONTINUOUS
 10
366.500003
 20
117.0
 30
0.0
 40
0.5
 50
89.999872
 51
179.999909
  0
LINE
  5
112D0
  8
DANMEN
  6
CONTINUOUS
 10
351.600006
 20
158.300003
 30
0.0
 11
356.0
 21
158.300003
 31
0.0
  0
LINE
  5
112D1
  8
DANMEN
  6
CONTINUOUS
 10
351.600006
 20
159.5
 30
0.0
 11
356.0
 21
159.5
 31
0.0
  0
LINE
  5
112D2
  8
DANMEN
  6
CONTINUOUS
 10
356.0
 20
155.300003
 30
0.0
 11
342.5
 21
155.300003
 31
0.0
  0
LINE
  5
112D3
  8
DANMEN
  6
CONTINUOUS
 10
351.600006
 20
158.300003
 30
0.0
 11
342.5
 21
158.300003
 31
0.0
  0
LINE
  5
112D4
  8
DANMEN
  6
CONTINUOUS
 10
351.600006
 20
159.5
 30
0.0
 11
342.5
 21
159.5
 31
0.0
  0
ARC
  5
112D9
  8
DANMEN
  6
CONTINUOUS
 10
351.600006
 20
158.899994
 30
0.0
 40
0.6
 50
89.999963
 51
269.999982
  0
LINE
  5
112DA
  8
DANMEN
  6
CONTINUOUS
 10
356.0
 20
159.5
 30
0.0
 11
356.0
 21
155.300003
 31
0.0
  0
LINE
  5
112DC
  8
DANMEN
  6
CONTINUOUS
 10
391.0
 20
155.300003
 30
0.0
 11
391.0
 21
117.5
 31
0.0
  0
LINE
  5
112DD
  8
DANMEN
  6
CONTINUOUS
 10
391.0
 20
117.5
 30
0.0
 11
383.0
 21
117.5
 31
0.0
  0
LINE
  5
112DF
  8
DANMEN
  6
CONTINUOUS
 10
400.5
 20
156.5
 30
0.0
 11
376.5
 21
156.5
 31
0.0
  0
LINE
  5
112E0
  8
DANMEN
  6
CONTINUOUS
 10
389.0
 20
154.850006
 30
0.0
 11
376.5
 21
154.850006
 31
0.0
  0
LINE
  5
112E1
  8
DANMEN
  6
CONTINUOUS
 10
376.0
 20
156.0
 30
0.0
 11
376.0
 21
155.350006
 31
0.0
  0
ARC
  5
112E2
  8
DANMEN
  6
CONTINUOUS
 10
376.5
 20
155.350006
 30
0.0
 40
0.5
 50
180.000019
 51
270.000001
  0
ARC
  5
112E3
  8
DANMEN
  6
CONTINUOUS
 10
376.5
 20
156.0
 30
0.0
 40
0.5
 50
90.000037
 51
180.000019
  0
ARC
  5
112E4
  8
DANMEN
  6
CONTINUOUS
 10
400.5
 20
151.0
 30
0.0
 40
0.5
 50
270.000018
 51
359.999981
  0
ARC
  5
112E5
  8
DANMEN
  6
CONTINUOUS
 10
399.850006
 20
151.0
 30
0.0
 40
0.5
 50
180.000019
 51
270.000001
  0
LINE
  5
112E6
  8
DANMEN
  6
CONTINUOUS
 10
400.5
 20
150.5
 30
0.0
 11
399.850006
 21
150.5
 31
0.0
  0
LINE
  5
112E7
  8
DANMEN
  6
CONTINUOUS
 10
399.350006
 20
154.850006
 30
0.0
 11
392.649994
 21
154.850006
 31
0.0
  0
LINE
  5
112E8
  8
DANMEN
  6
CONTINUOUS
 10
391.0
 20
155.300003
 30
0.0
 11
389.0
 21
155.300003
 31
0.0
  0
LINE
  5
112E9
  8
DANMEN
  6
CONTINUOUS
 10
389.0
 20
155.300003
 30
0.0
 11
389.0
 21
154.850006
 31
0.0
  0
LINE
  5
112EA
  8
DANMEN
  6
CONTINUOUS
 10
401.0
 20
156.0
 30
0.0
 11
401.0
 21
151.0
 31
0.0
  0
LINE
  5
112EB
  8
DANMEN
  6
CONTINUOUS
 10
399.350006
 20
154.850006
 30
0.0
 11
399.350006
 21
151.0
 31
0.0
  0
ARC
  5
112EC
  8
DANMEN
  6
CONTINUOUS
 10
400.5
 20
156.0
 30
0.0
 40
0.5
 50
0.0
 51
89.999982
  0
TEXT
  5
112ED
  8
SUNPO
  6
CONTINUOUS
 10
61.916667
 20
169.0
 30
0.0
 40
2.5
  1
24
  0
TEXT
  5
112EE
  8
SUNPO
  6
CONTINUOUS
 10
47.666667
 20
169.0
 30
0.0
 40
2.5
  1
7
  0
TEXT
  5
112EF
  8
SUNPO
  6
CONTINUOUS
 10
37.013333
 20
169.0
 30
0.0
 40
2.5
  1
3
  0
LINE
  5
112F0
  8
SUNPO
  6
CONTINUOUS
 10
43.5
 20
153.0
 30
0.0
 11
25.0
 21
153.0
 31
0.0
  0
ARC
  5
112F1
  8
SUNPO
  6
BYBLOCK
 10
25.0
 20
153.0
 30
0.0
 40
0.145
 50
90.0
 51
270.0
  0
ARC
  5
112F2
  8
SUNPO
  6
BYBLOCK
 10
25.0
 20
153.0
 30
0.0
 40
0.145
 50
270.0
 51
90.0
  0
LINE
  5
112F3
  8
SUNPO
  6
CONTINUOUS
 10
52.0
 20
168.0
 30
0.0
 11
45.0
 21
168.0
 31
0.0
  0
LINE
  5
112F4
  8
SUNPO
  6
CONTINUOUS
 10
45.0
 20
168.0
 30
0.0
 11
42.0
 21
168.0
 31
0.0
  0
LINE
  5
112F5
  8
SUNPO
  6
CONTINUOUS
 10
42.0
 20
159.5
 30
0.0
 11
42.0
 21
168.0
 31
0.0
  0
LINE
  5
112F6
  8
SUNPO
  6
CONTINUOUS
 10
42.0
 20
168.0
 30
0.0
 11
36.013333
 21
168.0
 31
0.0
  0
ARC
  5
112F7
  8
SUNPO
  6
BYBLOCK
 10
42.0
 20
168.0
 30
0.0
 40
0.145
 50
180.0
 51
0.0
  0
ARC
  5
112F8
  8
SUNPO
  6
BYBLOCK
 10
42.0
 20
168.0
 30
0.0
 40
0.145
 50
0.0
 51
180.0
  0
ARC
  5
112F9
  8
SUNPO
  6
BYBLOCK
 10
45.0
 20
168.0
 30
0.0
 40
0.145
 50
0.0
 51
180.0
  0
ARC
  5
112FA
  8
SUNPO
  6
BYBLOCK
 10
45.0
 20
168.0
 30
0.0
 40
0.145
 50
180.0
 51
0.0
  0
ARC
  5
112FB
  8
SUNPO
  6
BYBLOCK
 10
45.0
 20
168.0
 30
0.0
 40
0.145
 50
180.0
 51
0.0
  0
ARC
  5
112FC
  8
SUNPO
  6
BYBLOCK
 10
45.0
 20
168.0
 30
0.0
 40
0.145
 50
0.0
 51
180.0
  0
ARC
  5
112FD
  8
SUNPO
  6
BYBLOCK
 10
52.0
 20
168.0
 30
0.0
 40
0.145
 50
0.0
 51
180.0
  0
ARC
  5
112FE
  8
SUNPO
  6
BYBLOCK
 10
52.0
 20
168.0
 30
0.0
 40
0.145
 50
180.0
 51
0.0
  0
ARC
  5
112FF
  8
SUNPO
  6
BYBLOCK
 10
52.0
 20
168.0
 30
0.0
 40
0.145
 50
180.0
 51
0.0
  0
ARC
  5
11300
  8
SUNPO
  6
BYBLOCK
 10
52.0
 20
168.0
 30
0.0
 40
0.145
 50
0.0
 51
180.0
  0
LINE
  5
11301
  8
SUNPO
  6
CONTINUOUS
 10
43.5
 20
188.0
 30
0.0
 11
25.0
 21
188.0
 31
0.0
  0
ARC
  5
11302
  8
SUNPO
  6
BYBLOCK
 10
25.0
 20
188.0
 30
0.0
 40
0.145
 50
270.0
 51
90.0
  0
ARC
  5
11303
  8
SUNPO
  6
BYBLOCK
 10
25.0
 20
188.0
 30
0.0
 40
0.145
 50
90.0
 51
270.0
  0
TEXT
  5
11304
  8
SUNPO
  6
CONTINUOUS
 10
24.0
 20
203.416667
 30
0.0
 40
2.5
  1
35
 50
90.0
  0
ARC
  5
11305
  8
SUNPO
  6
BYBLOCK
 10
45.0
 20
178.0
 30
0.0
 40
0.145
 50
180.0
 51
0.0
  0
ARC
  5
11306
  8
SUNPO
  6
BYBLOCK
 10
45.0
 20
178.0
 30
0.0
 40
0.145
 50
0.0
 51
180.0
  0
LINE
  5
11307
  8
SUNPO
  6
CONTINUOUS
 10
43.5
 20
258.0
 30
0.0
 11
25.0
 21
258.0
 31
0.0
  0
LINE
  5
11308
  8
SUNPO
  6
CONTINUOUS
 10
43.5
 20
223.0
 30
0.0
 11
25.0
 21
223.0
 31
0.0
  0
TEXT
  5
11309
  8
SUNPO
  6
CONTINUOUS
 10
24.0
 20
238.416667
 30
0.0
 40
2.5
  1
35
 50
90.0
  0
LINE
  5
1130A
  8
SUNPO
  6
CONTINUOUS
 10
25.0
 20
258.0
 30
0.0
 11
25.0
 21
223.0
 31
0.0
  0
ARC
  5
1130B
  8
SUNPO
  6
BYBLOCK
 10
25.0
 20
223.0
 30
0.0
 40
0.145
 50
270.0
 51
90.0
  0
ARC
  5
1130C
  8
SUNPO
  6
BYBLOCK
 10
25.0
 20
223.0
 30
0.0
 40
0.145
 50
90.0
 51
270.0
  0
ARC
  5
1130D
  8
SUNPO
  6
BYBLOCK
 10
25.0
 20
223.0
 30
0.0
 40
0.145
 50
90.0
 51
270.0
  0
ARC
  5
1130E
  8
SUNPO
  6
BYBLOCK
 10
25.0
 20
223.0
 30
0.0
 40
0.145
 50
270.0
 51
90.0
  0
ARC
  5
1130F
  8
SUNPO
  6
BYBLOCK
 10
25.0
 20
258.0
 30
0.0
 40
0.145
 50
90.0
 51
270.0
  0
ARC
  5
11310
  8
SUNPO
  6
BYBLOCK
 10
25.0
 20
258.0
 30
0.0
 40
0.145
 50
270.0
 51
90.0
  0
LINE
  5
11311
  8
SUNPO
  6
CONTINUOUS
 10
156.0
 20
223.0
 30
0.0
 11
156.0
 21
188.0
 31
0.0
  0
LINE
  5
11312
  8
SUNPO
  6
CONTINUOUS
 10
166.0
 20
223.0
 30
0.0
 11
166.0
 21
180.090187
 31
0.0
  0
LINE
  5
11313
  8
SUNPO
  6
CONTINUOUS
 10
143.0
 20
168.0
 30
0.0
 11
115.0
 21
168.0
 31
0.0
  0
LINE
  5
11314
  8
SUNPO
  6
CONTINUOUS
 10
116.5
 20
188.0
 30
0.0
 11
156.0
 21
188.0
 31
0.0
  0
LINE
  5
11315
  8
SUNPO
  6
CONTINUOUS
 10
116.5
 20
153.0
 30
0.0
 11
156.0
 21
153.0
 31
0.0
  0
TEXT
  5
11316
  8
SUNPO
  6
CONTINUOUS
 10
126.916667
 20
169.0
 30
0.0
 40
2.5
  1
28
  0
TEXT
  5
11317
  8
SUNPO
  6
CONTINUOUS
 10
79.166667
 20
169.0
 30
0.0
 40
2.5
  1
8
  0
TEXT
  5
11318
  8
SUNPO
  6
CONTINUOUS
 10
97.833333
 20
169.0
 30
0.0
 40
2.5
  1
31
  0
LINE
  5
11319
  8
SUNPO
  6
CONTINUOUS
 10
84.0
 20
168.0
 30
0.0
 11
115.0
 21
168.0
 31
0.0
  0
LINE
  5
1131A
  8
SUNPO
  6
CONTINUOUS
 10
84.0
 20
168.0
 30
0.0
 11
76.0
 21
168.0
 31
0.0
  0
ARC
  5
1131B
  8
SUNPO
  6
BYBLOCK
 10
84.0
 20
168.0
 30
0.0
 40
0.145
 50
180.0
 51
0.0
  0
ARC
  5
1131C
  8
SUNPO
  6
BYBLOCK
 10
84.0
 20
168.0
 30
0.0
 40
0.145
 50
0.0
 51
180.0
  0
ARC
  5
1131D
  8
SUNPO
  6
BYBLOCK
 10
84.0
 20
168.0
 30
0.0
 40
0.145
 50
0.0
 51
180.0
  0
ARC
  5
1131E
  8
SUNPO
  6
BYBLOCK
 10
84.0
 20
168.0
 30
0.0
 40
0.145
 50
180.0
 51
0.0
  0
ARC
  5
1131F
  8
SUNPO
  6
BYBLOCK
 10
76.0
 20
168.0
 30
0.0
 40
0.145
 50
180.0
 51
0.0
  0
ARC
  5
11320
  8
SUNPO
  6
BYBLOCK
 10
76.0
 20
168.0
 30
0.0
 40
0.145
 50
0.0
 51
180.0
  0
ARC
  5
11321
  8
SUNPO
  6
BYBLOCK
 10
76.0
 20
168.0
 30
0.0
 40
0.145
 50
0.0
 51
180.0
  0
ARC
  5
11322
  8
SUNPO
  6
BYBLOCK
 10
76.0
 20
168.0
 30
0.0
 40
0.145
 50
180.0
 51
0.0
  0
LINE
  5
11323
  8
SUNPO
  6
CONTINUOUS
 10
115.0
 20
125.997913
 30
0.0
 11
115.0
 21
168.0
 31
0.0
  0
ARC
  5
11324
  8
SUNPO
  6
BYBLOCK
 10
115.0
 20
168.0
 30
0.0
 40
0.145
 50
0.0
 51
180.0
  0
ARC
  5
11325
  8
SUNPO
  6
BYBLOCK
 10
115.0
 20
168.0
 30
0.0
 40
0.145
 50
180.0
 51
0.0
  0
ARC
  5
11326
  8
SUNPO
  6
BYBLOCK
 10
115.0
 20
168.0
 30
0.0
 40
0.145
 50
180.0
 51
0.0
  0
ARC
  5
11327
  8
SUNPO
  6
BYBLOCK
 10
115.0
 20
168.0
 30
0.0
 40
0.145
 50
0.0
 51
180.0
  0
TEXT
  5
11328
  8
SUNPO
  6
CONTINUOUS
 10
79.443604
 20
179.0
 30
0.0
 40
2.5
  1
70
  0
LINE
  5
11329
  8
SUNPO
  6
CONTINUOUS
 10
115.0
 20
194.559921
 30
0.0
 11
115.0
 21
178.0
 31
0.0
  0
ARC
  5
1132A
  8
SUNPO
  6
BYBLOCK
 10
115.0
 20
178.0
 30
0.0
 40
0.145
 50
0.0
 51
180.0
  0
ARC
  5
1132B
  8
SUNPO
  6
BYBLOCK
 10
115.0
 20
178.0
 30
0.0
 40
0.145
 50
180.0
 51
0.0
  0
LINE
  5
1132C
  8
SUNPO
  6
CONTINUOUS
 10
167.199921
 20
174.656304
 30
0.0
 11
167.199921
 21
169.867761
 31
0.0
  0
LINE
  5
1132D
  8
SUNPO
  6
CONTINUOUS
 10
164.799927
 20
174.656304
 30
0.0
 11
164.799927
 21
169.867761
 31
0.0
  0
LINE
  5
1132E
  8
SUNPO
  6
CONTINUOUS
 10
162.0
 20
159.141045
 30
0.0
 11
170.0
 21
159.141045
 31
0.0
  0
LINE
  5
1132F
  8
SUNPO
  6
CONTINUOUS
 10
162.0
 20
166.641045
 30
0.0
 11
170.0
 21
166.641045
 31
0.0
  0
LINE
  5
11330
  8
SUNPO
  6
CONTINUOUS
 10
162.0
 20
161.141045
 30
0.0
 11
170.0
 21
161.141045
 31
0.0
  0
TEXT
  5
11331
  8
SUNPO
  6
CONTINUOUS
 10
155.0
 20
123.916667
 30
0.0
 40
2.5
  1
54
 50
90.0
  0
ARC
  5
11332
  8
SUNPO
  6
BYBLOCK
 10
143.0
 20
168.0
 30
0.0
 40
0.145
 50
0.0
 51
180.0
  0
ARC
  5
11333
  8
SUNPO
  6
BYBLOCK
 10
143.0
 20
168.0
 30
0.0
 40
0.145
 50
180.0
 51
0.0
  0
LINE
  5
11334
  8
SUNPO
  6
CONTINUOUS
 10
162.0
 20
162.541039
 30
0.0
 11
162.0
 21
157.343696
 31
0.0
  0
ARC
  5
11335
  8
SUNPO
  6
BYBLOCK
 10
156.0
 20
153.0
 30
0.0
 40
0.145
 50
90.0
 51
270.0
  0
ARC
  5
11336
  8
SUNPO
  6
BYBLOCK
 10
156.0
 20
153.0
 30
0.0
 40
0.145
 50
270.0
 51
90.0
  0
LINE
  5
11337
  8
SUNPO
  6
CONTINUOUS
 10
162.0
 20
168.653991
 30
0.0
 11
162.0
 21
164.920944
 31
0.0
  0
LINE
  5
11338
  8
SUNPO
  6
CONTINUOUS
 10
170.0
 20
162.541039
 30
0.0
 11
170.0
 21
157.343696
 31
0.0
  0
LINE
  5
11339
  8
SUNPO
  6
CONTINUOUS
 10
166.0
 20
166.641045
 30
0.0
 11
166.0
 21
161.141045
 31
0.0
  0
LINE
  5
1133B
  8
SUNPO
  6
CONTINUOUS
 10
170.0
 20
168.653991
 30
0.0
 11
170.0
 21
164.920944
 31
0.0
  0
ARC
  5
1133C
  8
SUNPO
  6
BYBLOCK
 10
156.0
 20
188.0
 30
0.0
 40
0.145
 50
270.0
 51
90.0
  0
ARC
  5
1133D
  8
SUNPO
  6
BYBLOCK
 10
156.0
 20
188.0
 30
0.0
 40
0.145
 50
90.0
 51
270.0
  0
TEXT
  5
1133E
  8
SUNPO
  6
CONTINUOUS
 10
155.0
 20
203.416667
 30
0.0
 40
2.5
  1
35
 50
90.0
  0
LINE
  5
1133F
  8
SUNPO
  6
CONTINUOUS
 10
116.5
 20
231.0
 30
0.0
 11
156.0
 21
231.0
 31
0.0
  0
LINE
  5
11340
  8
SUNPO
  6
CONTINUOUS
 10
116.5
 20
246.0
 30
0.0
 11
156.0
 21
246.0
 31
0.0
  0
LINE
  5
11341
  8
SUNPO
  6
CONTINUOUS
 10
116.5
 20
223.0
 30
0.0
 11
166.0
 21
223.0
 31
0.0
  0
LINE
  5
11342
  8
SUNPO
  6
CONTINUOUS
 10
116.5
 20
258.0
 30
0.0
 11
166.0
 21
258.0
 31
0.0
  0
LINE
  5
11343
  8
SUNPO
  6
CONTINUOUS
 10
161.0
 20
218.0
 30
0.0
 11
166.0
 21
223.0
 31
0.0
  0
LINE
  5
11344
  8
SUNPO
  6
CONTINUOUS
 10
171.0
 20
218.0
 30
0.0
 11
161.0
 21
218.0
 31
0.0
  0
ARC
  5
11345
  8
SUNPO
  6
BYBLOCK
 10
166.0
 20
258.0
 30
0.0
 40
0.145
 50
90.0
 51
270.0
  0
LINE
  5
11346
  8
SUNPO
  6
CONTINUOUS
 10
156.0
 20
246.0
 30
0.0
 11
156.0
 21
231.0
 31
0.0
  0
TEXT
  5
11347
  8
SUNPO
  6
CONTINUOUS
 10
165.0
 20
238.416667
 30
0.0
 40
2.5
  1
35
 50
90.0
  0
TEXT
  5
11348
  8
SUNPO
  6
CONTINUOUS
 10
155.0
 20
236.833333
 30
0.0
 40
2.5
  1
15
 50
90.0
  0
LINE
  5
11349
  8
SUNPO
  6
CONTINUOUS
 10
156.0
 20
231.0
 30
0.0
 11
156.0
 21
223.0
 31
0.0
  0
TEXT
  5
1134A
  8
SUNPO
  6
CONTINUOUS
 10
155.0
 20
226.166667
 30
0.0
 40
2.5
  1
8
 50
90.0
  0
ARC
  5
1134B
  8
SUNPO
  6
BYBLOCK
 10
156.0
 20
223.0
 30
0.0
 40
0.145
 50
270.0
 51
90.0
  0
ARC
  5
1134C
  8
SUNPO
  6
BYBLOCK
 10
156.0
 20
223.0
 30
0.0
 40
0.145
 50
90.0
 51
270.0
  0
ARC
  5
1134D
  8
SUNPO
  6
BYBLOCK
 10
156.0
 20
223.0
 30
0.0
 40
0.145
 50
90.0
 51
270.0
  0
ARC
  5
1134E
  8
SUNPO
  6
BYBLOCK
 10
156.0
 20
223.0
 30
0.0
 40
0.145
 50
270.0
 51
90.0
  0
ARC
  5
11350
  8
SUNPO
  6
BYBLOCK
 10
156.0
 20
231.0
 30
0.0
 40
0.145
 50
270.0
 51
90.0
  0
ARC
  5
11351
  8
SUNPO
  6
BYBLOCK
 10
156.0
 20
231.0
 30
0.0
 40
0.145
 50
90.0
 51
270.0
  0
ARC
  5
11352
  8
SUNPO
  6
BYBLOCK
 10
156.0
 20
231.0
 30
0.0
 40
0.145
 50
90.0
 51
270.0
  0
ARC
  5
11353
  8
SUNPO
  6
BYBLOCK
 10
156.0
 20
231.0
 30
0.0
 40
0.145
 50
270.0
 51
90.0
  0
ARC
  5
11354
  8
SUNPO
  6
BYBLOCK
 10
156.0
 20
246.0
 30
0.0
 40
0.145
 50
90.0
 51
270.0
  0
ARC
  5
11355
  8
SUNPO
  6
BYBLOCK
 10
156.0
 20
246.0
 30
0.0
 40
0.145
 50
270.0
 51
90.0
  0
LINE
  5
11356
  8
SUNPO
  6
CONTINUOUS
 10
166.0
 20
258.0
 30
0.0
 11
166.0
 21
223.0
 31
0.0
  0
LINE
  5
11357
  8
SUNPO
  6
CONTINUOUS
 10
166.0
 20
223.0
 30
0.0
 11
171.0
 21
218.0
 31
0.0
  0
ARC
  5
1135A
  8
SUNPO
  6
BYBLOCK
 10
166.0
 20
258.0
 30
0.0
 40
0.145
 50
270.0
 51
90.0
  0
LINE
  5
1135B
  8
SUNPO
  6
CONTINUOUS
 10
254.0
 20
158.0
 30
0.0
 11
254.0
 21
166.5
 31
0.0
  0
LINE
  5
1135C
  8
SUNPO
  6
CONTINUOUS
 10
204.0
 20
159.5
 30
0.0
 11
204.0
 21
166.5
 31
0.0
  0
LINE
  5
1135D
  8
SUNPO
  6
CONTINUOUS
 10
201.0
 20
158.0
 30
0.0
 11
201.0
 21
166.5
 31
0.0
  0
LINE
  5
1135E
  8
SUNPO
  6
CONTINUOUS
 10
257.5
 20
159.5
 30
0.0
 11
257.5
 21
165.486667
 31
0.0
  0
TEXT
  5
1135F
  8
SUNPO
  6
CONTINUOUS
 10
256.5
 20
116.985291
 30
0.0
 40
2.5
  1
70
 50
90.0
  0
LINE
  5
11360
  8
SUNPO
  6
CONTINUOUS
 10
237.5
 20
156.5
 30
0.0
 11
257.5
 21
156.5
 31
0.0
  0
LINE
  5
11361
  8
SUNPO
  6
CONTINUOUS
 10
257.5
 20
156.5
 30
0.0
 11
257.5
 21
159.5
 31
0.0
  0
ARC
  5
11362
  8
SUNPO
  6
BYBLOCK
 10
257.5
 20
156.5
 30
0.0
 40
0.145
 50
270.0
 51
90.0
  0
ARC
  5
11363
  8
SUNPO
  6
BYBLOCK
 10
257.5
 20
156.5
 30
0.0
 40
0.145
 50
90.0
 51
270.0
  0
ARC
  5
11364
  8
SUNPO
  6
BYBLOCK
 10
257.5
 20
156.5
 30
0.0
 40
0.145
 50
90.0
 51
270.0
  0
ARC
  5
11365
  8
SUNPO
  6
BYBLOCK
 10
257.5
 20
156.5
 30
0.0
 40
0.145
 50
270.0
 51
90.0
  0
ARC
  5
11366
  8
SUNPO
  6
BYBLOCK
 10
257.5
 20
159.5
 30
0.0
 40
0.145
 50
90.0
 51
270.0
  0
ARC
  5
11367
  8
SUNPO
  6
BYBLOCK
 10
257.5
 20
159.5
 30
0.0
 40
0.145
 50
270.0
 51
90.0
  0
LINE
  5
11368
  8
SUNPO
  6
CONTINUOUS
 10
204.0
 20
166.5
 30
0.0
 11
254.0
 21
166.5
 31
0.0
  0
TEXT
  5
11369
  8
SUNPO
  6
CONTINUOUS
 10
201.666667
 20
167.5
 30
0.0
 40
2.5
  1
3
  0
LINE
  5
1136A
  8
SUNPO
  6
CONTINUOUS
 10
204.0
 20
166.5
 30
0.0
 11
201.0
 21
166.5
 31
0.0
  0
ARC
  5
1136B
  8
SUNPO
  6
BYBLOCK
 10
201.0
 20
166.5
 30
0.0
 40
0.145
 50
180.0
 51
0.0
  0
ARC
  5
1136C
  8
SUNPO
  6
BYBLOCK
 10
201.0
 20
166.5
 30
0.0
 40
0.145
 50
0.0
 51
180.0
  0
ARC
  5
1136D
  8
SUNPO
  6
BYBLOCK
 10
204.0
 20
166.5
 30
0.0
 40
0.145
 50
180.0
 51
0.0
  0
ARC
  5
1136E
  8
SUNPO
  6
BYBLOCK
 10
204.0
 20
166.5
 30
0.0
 40
0.145
 50
0.0
 51
180.0
  0
ARC
  5
1136F
  8
SUNPO
  6
BYBLOCK
 10
204.0
 20
166.5
 30
0.0
 40
0.145
 50
0.0
 51
180.0
  0
ARC
  5
11370
  8
SUNPO
  6
BYBLOCK
 10
204.0
 20
166.5
 30
0.0
 40
0.145
 50
180.0
 51
0.0
  0
TEXT
  5
11371
  8
SUNPO
  6
CONTINUOUS
 10
227.125
 20
167.5
 30
0.0
 40
2.5
  1
50
  0
TEXT
  5
11372
  8
SUNPO
  6
CONTINUOUS
 10
256.5
 20
162.82
 30
0.0
 40
2.5
  1
3
 50
90.0
  0
ARC
  5
11373
  8
SUNPO
  6
BYBLOCK
 10
254.0
 20
166.5
 30
0.0
 40
0.145
 50
0.0
 51
180.0
  0
ARC
  5
11374
  8
SUNPO
  6
BYBLOCK
 10
254.0
 20
166.5
 30
0.0
 40
0.145
 50
180.0
 51
0.0
  0
LINE
  5
11375
  8
SUNPO
  6
CONTINUOUS
 10
376.0
 20
166.5
 30
0.0
 11
401.0
 21
166.5
 31
0.0
  0
LINE
  5
11376
  8
SUNPO
  6
CONTINUOUS
 10
376.0
 20
156.850006
 30
0.0
 11
376.0
 21
166.5
 31
0.0
  0
LINE
  5
11377
  8
SUNPO
  6
CONTINUOUS
 10
364.5
 20
117.5
 30
0.0
 11
353.577611
 21
117.5
 31
0.0
  0
LINE
  5
11378
  8
SUNPO
  6
CONTINUOUS
 10
333.0
 20
149.5
 30
0.0
 11
333.0
 21
125.5
 31
0.0
  0
LINE
  5
11379
  8
SUNPO
  6
CONTINUOUS
 10
333.0
 20
117.5
 30
0.0
 11
333.0
 21
125.5
 31
0.0
  0
ARC
  5
1137A
  8
SUNPO
  6
BYBLOCK
 10
333.0
 20
117.5
 30
0.0
 40
0.145
 50
270.0
 51
90.0
  0
ARC
  5
1137B
  8
SUNPO
  6
BYBLOCK
 10
333.0
 20
117.5
 30
0.0
 40
0.145
 50
90.0
 51
270.0
  0
ARC
  5
1137C
  8
SUNPO
  6
BYBLOCK
 10
333.0
 20
117.5
 30
0.0
 40
0.145
 50
90.0
 51
270.0
  0
ARC
  5
1137D
  8
SUNPO
  6
BYBLOCK
 10
333.0
 20
117.5
 30
0.0
 40
0.145
 50
270.0
 51
90.0
  0
ARC
  5
1137E
  8
SUNPO
  6
BYBLOCK
 10
333.0
 20
125.5
 30
0.0
 40
0.145
 50
270.0
 51
90.0
  0
ARC
  5
1137F
  8
SUNPO
  6
BYBLOCK
 10
333.0
 20
125.5
 30
0.0
 40
0.145
 50
90.0
 51
270.0
  0
ARC
  5
11380
  8
SUNPO
  6
BYBLOCK
 10
333.0
 20
125.5
 30
0.0
 40
0.145
 50
90.0
 51
270.0
  0
ARC
  5
11381
  8
SUNPO
  6
BYBLOCK
 10
333.0
 20
125.5
 30
0.0
 40
0.145
 50
270.0
 51
90.0
  0
LINE
  5
11382
  8
SUNPO
  6
CONTINUOUS
 10
353.577611
 20
117.5
 30
0.0
 11
353.577611
 21
126.82
 31
0.0
  0
TEXT
  5
11383
  8
SUNPO
  6
CONTINUOUS
 10
352.577611
 20
120.82
 30
0.0
 40
2.5
  1
2.5
 50
90.0
  0
ARC
  5
11384
  8
SUNPO
  6
BYBLOCK
 10
353.577611
 20
117.5
 30
0.0
 40
0.145
 50
90.0
 51
270.0
  0
ARC
  5
11385
  8
SUNPO
  6
BYBLOCK
 10
353.577611
 20
117.5
 30
0.0
 40
0.145
 50
270.0
 51
90.0
  0
LINE
  5
11386
  8
SUNPO
  6
CONTINUOUS
 10
354.5
 20
156.5
 30
0.0
 11
333.0
 21
156.5
 31
0.0
  0
LINE
  5
11387
  8
SUNPO
  6
CONTINUOUS
 10
333.0
 20
149.5
 30
0.0
 11
333.0
 21
156.5
 31
0.0
  0
ARC
  5
11388
  8
SUNPO
  6
BYBLOCK
 10
333.0
 20
149.5
 30
0.0
 40
0.145
 50
90.0
 51
270.0
  0
ARC
  5
11389
  8
SUNPO
  6
BYBLOCK
 10
333.0
 20
149.5
 30
0.0
 40
0.145
 50
270.0
 51
90.0
  0
ARC
  5
1138A
  8
SUNPO
  6
BYBLOCK
 10
333.0
 20
149.5
 30
0.0
 40
0.145
 50
270.0
 51
90.0
  0
ARC
  5
1138B
  8
SUNPO
  6
BYBLOCK
 10
333.0
 20
149.5
 30
0.0
 40
0.145
 50
90.0
 51
270.0
  0
ARC
  5
1138C
  8
SUNPO
  6
BYBLOCK
 10
333.0
 20
156.5
 30
0.0
 40
0.145
 50
90.0
 51
270.0
  0
ARC
  5
1138D
  8
SUNPO
  6
BYBLOCK
 10
333.0
 20
156.5
 30
0.0
 40
0.145
 50
270.0
 51
90.0
  0
ARC
  5
1138E
  8
SUNPO
  6
BYBLOCK
 10
376.0
 20
166.5
 30
0.0
 40
0.145
 50
180.0
 51
0.0
  0
ARC
  5
1138F
  8
SUNPO
  6
BYBLOCK
 10
376.0
 20
166.5
 30
0.0
 40
0.145
 50
0.0
 51
180.0
  0
TEXT
  5
11390
  8
SUNPO
  6
CONTINUOUS
 10
386.416667
 20
167.5
 30
0.0
 40
2.5
  1
25
  0
LINE
  5
11391
  8
SUNPO
  6
CONTINUOUS
 10
401.0
 20
157.5
 30
0.0
 11
401.0
 21
166.5
 31
0.0
  0
ARC
  5
11392
  8
SUNPO
  6
BYBLOCK
 10
401.0
 20
166.5
 30
0.0
 40
0.145
 50
0.0
 51
180.0
  0
ARC
  5
11393
  8
SUNPO
  6
BYBLOCK
 10
401.0
 20
166.5
 30
0.0
 40
0.145
 50
180.0
 51
0.0
  0
ARC
  5
113C0
  8
DANMEN
  6
CONTINUOUS
 10
143.717555
 20
115.840276
 30
0.0
 40
2.0
 50
274.698681
 51
0.0
  0
LINE
  5
113C1
  8
DANMEN
  6
CONTINUOUS
 10
143.881386
 20
113.846997
 30
0.0
 11
112.517555
 21
110.997915
 31
0.0
  0
LINE
  5
113C2
  8
DANMEN
  6
CONTINUOUS
 10
111.31756
 20
111.00832
 30
0.0
 11
111.30001
 21
94.520979
 31
0.0
  0
ARC
  5
113C4
  8
DANMEN
  6
CONTINUOUS
 10
111.504277
 20
95.036483
 30
0.0
 40
0.5
 50
274.0
 51
359.16958
  0
LINE
  5
113C5
  8
DANMEN
  6
CONTINUOUS
 10
111.0
 20
94.5
 30
0.0
 11
111.539155
 21
94.537701
 31
0.0
  0
LINE
  5
113C7
  8
DANMEN
  6
CONTINUOUS
 10
112.517555
 20
111.354639
 30
0.0
 11
112.004224
 21
95.029237
 31
0.0
  0
LINE
  5
113C9
  8
DANMEN
  6
CONTINUOUS
 10
111.017555
 20
110.997915
 30
0.0
 11
111.0
 21
94.5
 31
0.0
  0
ARC
  5
113CD
  8
DANMEN
  6
CONTINUOUS
 10
114.517555
 20
117.497915
 30
0.0
 40
2.0
 50
89.999982
 51
180.000019
  0
ARC
  5
113CF
  8
DANMEN
  6
CONTINUOUS
 10
145.217555
 20
118.997915
 30
0.0
 40
0.5
 50
0.0
 51
89.999982
  0
LINE
  5
113D1
  8
DANMEN
  6
CONTINUOUS
 10
112.517555
 20
117.497915
 30
0.0
 11
112.517555
 21
110.997915
 31
0.0
  0
LINE
  5
113D4
  8
DANMEN
  6
CONTINUOUS
 10
145.717555
 20
118.997915
 30
0.0
 11
145.717555
 21
115.840276
 31
0.0
  0
LINE
  5
113D6
  8
DANMEN
  6
CONTINUOUS
 10
111.317555
 20
115.497915
 30
0.0
 11
111.317555
 21
110.987367
 31
0.0
  0
LINE
  5
113D7
  8
DANMEN
  6
CONTINUOUS
 10
114.517555
 20
119.497915
 30
0.0
 11
145.217555
 21
119.497915
 31
0.0
  0
LINE
  5
113DA
  8
DANMEN
  6
CONTINUOUS
 10
111.017555
 20
115.497915
 30
0.0
 11
112.517555
 21
115.497915
 31
0.0
  0
LINE
  5
113DB
  8
DANMEN
  6
CONTINUOUS
 10
111.017555
 20
115.497915
 30
0.0
 11
111.017555
 21
110.997915
 31
0.0
  0
LINE
  5
11507
  8
SUNPO
  6
CONTINUOUS
 10
243.285372
 20
46.107269
 30
0.0
 11
244.198887
 21
46.730081
 31
0.0
210
0.0
220
0.0
230
-1.0
  0
LINE
  5
11508
  8
SUNPO
  6
CONTINUOUS
 10
244.198887
 20
46.730081
 30
0.0
 11
244.669982
 21
46.768293
 31
0.0
210
0.0
220
0.0
230
-1.0
  0
LINE
  5
11509
  8
SUNPO
  6
CONTINUOUS
 10
244.669982
 20
46.768293
 30
0.0
 11
244.4838
 21
46.255982
 31
0.0
210
0.0
220
0.0
230
-1.0
  0
LINE
  5
1150A
  8
SUNPO
  6
CONTINUOUS
 10
244.4838
 20
46.255982
 30
0.0
 11
243.590898
 21
44.276791
 31
0.0
210
0.0
220
0.0
230
-1.0
  0
LINE
  5
1150B
  8
SUNPO
  6
CONTINUOUS
 10
243.590898
 20
44.276791
 30
0.0
 11
243.887461
 21
43.297817
 31
0.0
210
0.0
220
0.0
230
-1.0
  0
LINE
  5
1150C
  8
SUNPO
  6
CONTINUOUS
 10
243.887461
 20
43.297817
 30
0.0
 11
244.848871
 21
43.601968
 31
0.0
210
0.0
220
0.0
230
-1.0
  0
LINE
  5
1150D
  8
SUNPO
  6
CONTINUOUS
 10
244.848871
 20
43.601968
 30
0.0
 11
245.33436
 21
44.719453
 31
0.0
210
0.0
220
0.0
230
-1.0
  0
LINE
  5
1150E
  8
SUNPO
  6
CONTINUOUS
 10
245.33436
 20
44.719453
 30
0.0
 11
245.44692
 21
45.220793
 31
0.0
210
0.0
220
0.0
230
-1.0
  0
LINE
  5
1150F
  8
SUNPO
  6
CONTINUOUS
 10
245.44692
 20
45.220793
 30
0.0
 11
245.319498
 21
44.695165
 31
0.0
210
0.0
220
0.0
230
-1.0
  0
LINE
  5
11510
  8
SUNPO
  6
CONTINUOUS
 10
245.319498
 20
44.695165
 30
0.0
 11
245.269705
 21
43.62979
 31
0.0
210
0.0
220
0.0
230
-1.0
  0
LINE
  5
11511
  8
SUNPO
  6
CONTINUOUS
 10
245.269705
 20
43.62979
 30
0.0
 11
246.105643
 21
43.048466
 31
0.0
210
0.0
220
0.0
230
-1.0
  0
LINE
  5
11512
  8
SUNPO
  6
CONTINUOUS
 10
246.105643
 20
43.048466
 30
0.0
 11
247.421869
 21
44.654112
 31
0.0
210
0.0
220
0.0
230
-1.0
  0
LINE
  5
11513
  8
SUNPO
  6
CONTINUOUS
 10
247.421869
 20
44.654112
 30
0.0
 11
247.306626
 21
46.810488
 31
0.0
210
0.0
220
0.0
230
-1.0
  0
LINE
  5
11514
  8
SUNPO
  6
CONTINUOUS
 10
247.306626
 20
46.810488
 30
0.0
 11
249.444428
 21
46.57399
 31
0.0
210
0.0
220
0.0
230
-1.0
  0
LINE
  5
11515
  8
SUNPO
  6
CONTINUOUS
 10
343.285372
 20
46.107269
 30
0.0
 11
344.198887
 21
46.730081
 31
0.0
210
0.0
220
0.0
230
-1.0
  0
LINE
  5
11516
  8
SUNPO
  6
CONTINUOUS
 10
344.198887
 20
46.730081
 30
0.0
 11
344.669983
 21
46.768293
 31
0.0
210
0.0
220
0.0
230
-1.0
  0
LINE
  5
11517
  8
SUNPO
  6
CONTINUOUS
 10
344.669983
 20
46.768293
 30
0.0
 11
344.4838
 21
46.255983
 31
0.0
210
0.0
220
0.0
230
-1.0
  0
LINE
  5
11518
  8
SUNPO
  6
CONTINUOUS
 10
344.4838
 20
46.255983
 30
0.0
 11
343.590898
 21
44.276791
 31
0.0
210
0.0
220
0.0
230
-1.0
  0
LINE
  5
11519
  8
SUNPO
  6
CONTINUOUS
 10
343.590898
 20
44.276791
 30
0.0
 11
343.887461
 21
43.297817
 31
0.0
210
0.0
220
0.0
230
-1.0
  0
LINE
  5
1151A
  8
SUNPO
  6
CONTINUOUS
 10
343.887461
 20
43.297817
 30
0.0
 11
344.848871
 21
43.601967
 31
0.0
210
0.0
220
0.0
230
-1.0
  0
LINE
  5
1151B
  8
SUNPO
  6
CONTINUOUS
 10
344.848871
 20
43.601967
 30
0.0
 11
345.334361
 21
44.719451
 31
0.0
210
0.0
220
0.0
230
-1.0
  0
LINE
  5
1151C
  8
SUNPO
  6
CONTINUOUS
 10
345.334361
 20
44.719451
 30
0.0
 11
345.446921
 21
45.220793
 31
0.0
210
0.0
220
0.0
230
-1.0
  0
LINE
  5
1151D
  8
SUNPO
  6
CONTINUOUS
 10
345.446921
 20
45.220793
 30
0.0
 11
345.3195
 21
44.695166
 31
0.0
210
0.0
220
0.0
230
-1.0
  0
LINE
  5
1151E
  8
SUNPO
  6
CONTINUOUS
 10
345.3195
 20
44.695166
 30
0.0
 11
345.269705
 21
43.62979
 31
0.0
210
0.0
220
0.0
230
-1.0
  0
LINE
  5
1151F
  8
SUNPO
  6
CONTINUOUS
 10
345.269705
 20
43.62979
 30
0.0
 11
346.105643
 21
43.048466
 31
0.0
210
0.0
220
0.0
230
-1.0
  0
LINE
  5
11520
  8
SUNPO
  6
CONTINUOUS
 10
346.105643
 20
43.048466
 30
0.0
 11
347.42187
 21
44.654112
 31
0.0
210
0.0
220
0.0
230
-1.0
  0
LINE
  5
11521
  8
SUNPO
  6
CONTINUOUS
 10
347.42187
 20
44.654112
 30
0.0
 11
347.306626
 21
46.810488
 31
0.0
210
0.0
220
0.0
230
-1.0
  0
LINE
  5
11522
  8
SUNPO
  6
CONTINUOUS
 10
347.306626
 20
46.810488
 30
0.0
 11
349.444429
 21
46.57399
 31
0.0
210
0.0
220
0.0
230
-1.0
  0
LINE
  5
11ED7
  8
DANMEN
  6
CONTINUOUS
 10
71.350001
 20
74.299987
 30
0.0
 11
71.850001
 21
73.999997
 31
0.0
  0
LINE
  5
11ED8
  8
DANMEN
  6
CONTINUOUS
 10
69.349998
 20
73.999991
 30
0.0
 11
69.349998
 21
74.29999
 31
0.0
  0
LINE
  5
11ED9
  8
DANMEN
  6
CONTINUOUS
 10
69.349998
 20
74.29999
 30
0.0
 11
71.350001
 21
74.299992
 31
0.0
  0
LINE
  5
11EDA
  8
DANMEN
  6
CONTINUOUS
 10
66.499999
 20
73.999994
 30
0.0
 11
69.349998
 21
73.999996
 31
0.0
  0
LINE
  5
11EDB
  8
DANMEN
  6
CONTINUOUS
 10
55.299998
 20
80.000003
 30
0.0
 11
56.150001
 21
76.999992
 31
0.0
  0
LINE
  5
11EDC
  8
DANMEN
  6
CONTINUOUS
 10
56.150001
 20
76.999992
 30
0.0
 11
56.150001
 21
75.000001
 31
0.0
  0
LINE
  5
11EDD
  8
DANMEN
  6
CONTINUOUS
 10
58.650001
 20
73.999991
 30
0.0
 11
58.650001
 21
74.29999
 31
0.0
  0
LINE
  5
11EDE
  8
DANMEN
  6
CONTINUOUS
 10
58.650001
 20
74.29999
 30
0.0
 11
56.649998
 21
74.299992
 31
0.0
  0
LINE
  5
11EDF
  8
DANMEN
  6
CONTINUOUS
 10
56.150001
 20
71.999992
 30
0.0
 11
56.150001
 21
73.999999
 31
0.0
  0
LINE
  5
11EE0
  8
DANMEN
  6
CONTINUOUS
 10
56.649998
 20
74.299987
 30
0.0
 11
56.149998
 21
73.999997
 31
0.0
  0
LINE
  5
11EE1
  8
DANMEN
  6
CONTINUOUS
 10
61.5
 20
73.999994
 30
0.0
 11
58.650001
 21
73.999996
 31
0.0
  0
LINE
  5
11EE2
  8
DANMEN
  6
CONTINUOUS
 10
55.299998
 20
68.999981
 30
0.0
 11
56.150001
 21
71.999992
 31
0.0
  0
LINE
  5
11EE3
  8
DANMEN
  6
CONTINUOUS
 10
56.149998
 20
101.000002
 30
0.0
 11
56.149998
 21
101.999996
 31
0.0
  0
LINE
  5
11EE4
  8
DANMEN
  6
CONTINUOUS
 10
55.299997
 20
107.099996
 30
0.0
 11
56.149998
 21
104.099996
 31
0.0
  0
LINE
  5
11EE5
  8
DANMEN
  6
CONTINUOUS
 10
56.149998
 20
104.099996
 30
0.0
 11
56.149998
 21
103.100002
 31
0.0
  0
LINE
  5
11EE6
  8
DANMEN
  6
CONTINUOUS
 10
55.299997
 20
98.000002
 30
0.0
 11
56.149998
 21
101.000002
 31
0.0
  0
LINE
  5
11EE7
  8
DANMEN
  6
CONTINUOUS
 10
56.149998
 20
134.000002
 30
0.0
 11
56.149998
 21
134.999996
 31
0.0
  0
LINE
  5
11EE8
  8
DANMEN
  6
CONTINUOUS
 10
55.299997
 20
140.099996
 30
0.0
 11
56.149998
 21
137.099996
 31
0.0
  0
LINE
  5
11EE9
  8
DANMEN
  6
CONTINUOUS
 10
56.149998
 20
137.099996
 30
0.0
 11
56.149998
 21
136.100002
 31
0.0
  0
LINE
  5
11EEA
  8
DANMEN
  6
CONTINUOUS
 10
55.299997
 20
131.000002
 30
0.0
 11
56.149998
 21
134.000002
 31
0.0
  0
ARC
  5
11EEB
  8
DANMEN
  6
CONTINUOUS
 10
71.700001
 20
88.88869
 30
0.0
 40
1.0
 50
278.62675
 51
0.0
  0
ARC
  5
11EEC
  8
DANMEN
  6
CONTINUOUS
 10
72.349998
 20
87.400003
 30
0.0
 40
0.5
 50
180.0
 51
270.0
  0
LINE
  5
11EED
  8
DANMEN
  6
CONTINUOUS
 10
71.849998
 20
87.900003
 30
0.0
 11
71.849998
 21
87.400003
 31
0.0
  0
LINE
  5
11EEE
  8
DANMEN
  6
CONTINUOUS
 10
61.499999
 20
74.0
 30
0.0
 11
61.499999
 21
73.050003
 31
0.0
  0
LINE
  5
11EEF
  8
DANMEN
  6
CONTINUOUS
 10
66.499999
 20
74.0
 30
0.0
 11
66.499999
 21
73.050003
 31
0.0
  0
LINE
  5
11EF0
  8
DANMEN
  6
CONTINUOUS
 10
66.499999
 20
73.050001
 30
0.0
 11
61.499999
 21
73.049999
 31
0.0
  0
LINE
  5
11EF1
  8
DANMEN
  6
CONTINUOUS
 10
71.849995
 20
75.000006
 30
0.0
 11
56.149998
 21
75.000001
 31
0.0
  0
ARC
  5
11EF2
  8
DANMEN
  6
CONTINUOUS
 10
55.649998
 20
59.5
 30
0.0
 40
0.5
 50
270.0
 51
0.0
  0
ARC
  5
11EF3
  8
DANMEN
  6
CONTINUOUS
 10
54.699998
 20
59.5
 30
0.0
 40
0.5
 50
180.0
 51
270.0
  0
LINE
  5
11EF4
  8
DANMEN
  6
CONTINUOUS
 10
54.699998
 20
59.0
 30
0.0
 11
55.649998
 21
59.0
 31
0.0
  0
LINE
  5
11EF5
  8
DANMEN
  6
CONTINUOUS
 10
71.000002
 20
152.5
 30
0.0
 11
71.000002
 21
150.0
 31
0.0
  0
ARC
  5
11EF6
  8
DANMEN
  6
CONTINUOUS
 10
71.500002
 20
152.5
 30
0.0
 40
0.5
 50
90.000018
 51
180.0
  0
LINE
  5
11EF7
  8
DANMEN
  6
CONTINUOUS
 10
71.149871
 20
150.0
 30
0.0
 11
71.000002
 21
150.0
 31
0.0
  0
LINE
  5
11EF8
  8
DANMEN
  6
CONTINUOUS
 10
71.800002
 20
151.9
 30
0.0
 11
71.647124
 21
150.447658
 31
0.0
  0
ARC
  5
11EF9
  8
DANMEN
  6
CONTINUOUS
 10
71.149871
 20
150.5
 30
0.0
 40
0.5
 50
270.0
 51
353.990994
  0
LINE
  5
11EFA
  8
DANMEN
  6
CONTINUOUS
 10
72.700002
 20
151.9
 30
0.0
 11
71.800002
 21
151.9
 31
0.0
  0
LINE
  5
11EFB
  8
DANMEN
  6
CONTINUOUS
 10
73.300002
 20
153.0
 30
0.0
 11
71.500002
 21
153.0
 31
0.0
  0
ARC
  5
11EFC
  8
DANMEN
  6
CONTINUOUS
 10
56.850129
 20
150.5
 30
0.0
 40
0.5
 50
186.009006
 51
270.0
  0
LINE
  5
11EFD
  8
DANMEN
  6
CONTINUOUS
 10
56.199998
 20
151.9
 30
0.0
 11
56.352876
 21
150.447658
 31
0.0
  0
LINE
  5
11EFE
  8
DANMEN
  6
CONTINUOUS
 10
55.299998
 20
151.9
 30
0.0
 11
56.199998
 21
151.9
 31
0.0
  0
ARC
  5
11EFF
  8
DANMEN
  6
CONTINUOUS
 10
72.350001
 20
75.500005
 30
0.0
 40
0.5
 50
0.0
 51
90.0
  0
LINE
  5
11F00
  8
DANMEN
  6
CONTINUOUS
 10
74.899998
 20
75.100006
 30
0.0
 11
72.850001
 21
75.100005
 31
0.0
  0
LINE
  5
11F01
  8
DANMEN
  6
CONTINUOUS
 10
72.850001
 20
75.500005
 30
0.0
 11
72.850001
 21
75.100005
 31
0.0
  0
ARC
  5
11F02
  8
DANMEN
  6
CONTINUOUS
 10
71.700001
 20
100.011314
 30
0.0
 40
1.0
 50
0.0
 51
81.373084
  0
LINE
  5
11F03
  8
DANMEN
  6
CONTINUOUS
 10
71.850001
 20
102.0
 30
0.0
 11
71.850001
 21
101.0
 31
0.0
  0
ARC
  5
11F04
  8
DANMEN
  6
CONTINUOUS
 10
60.799998
 20
136.0
 30
0.0
 40
1.0
 50
270.0
 51
0.0
  0
LINE
  5
11F05
  8
DANMEN
  6
CONTINUOUS
 10
61.799998
 20
140.9
 30
0.0
 11
61.799998
 21
136.0
 31
0.0
  0
LINE
  5
11F06
  8
DANMEN
  6
CONTINUOUS
 10
61.799998
 20
140.9
 30
0.0
 11
72.700001
 21
140.9
 31
0.0
  0
ARC
  5
11F07
  8
DANMEN
  6
CONTINUOUS
 10
68.199998
 20
106.9
 30
0.0
 40
1.0
 50
90.0
 51
180.0
  0
LINE
  5
11F08
  8
DANMEN
  6
CONTINUOUS
 10
68.199998
 20
107.9
 30
0.0
 11
72.700001
 21
107.9
 31
0.0
  0
LINE
  5
11F09
  8
DANMEN
  6
CONTINUOUS
 10
55.299998
 20
59.8
 30
0.0
 11
56.149998
 21
59.8
 31
0.0
  0
LINE
  5
11F0A
  8
DANMEN
  6
CONTINUOUS
 10
56.149998
 20
59.8
 30
0.0
 11
56.149998
 21
59.5
 31
0.0
  0
ARC
  5
11F0B
  8
DANMEN
  6
CONTINUOUS
 10
75.499995
 20
74.500007
 30
0.0
 40
0.5
 50
270.0
 51
0.0
  0
LINE
  5
11F0C
  8
DANMEN
  6
CONTINUOUS
 10
75.499995
 20
74.000007
 30
0.0
 11
73.799998
 21
74.000006
 31
0.0
  0
LINE
  5
11F0D
  8
DANMEN
  6
CONTINUOUS
 10
63.199998
 20
107.3
 30
0.0
 11
64.699998
 21
107.3
 31
0.0
  0
LINE
  5
11F0E
  8
DANMEN
  6
CONTINUOUS
 10
62.199998
 20
104.8
 30
0.0
 11
62.199998
 21
106.3
 31
0.0
  0
LINE
  5
11F0F
  8
DANMEN
  6
CONTINUOUS
 10
65.699998
 20
105.666295
 30
0.0
 11
65.699998
 21
106.3
 31
0.0
  0
LINE
  5
11F10
  8
DANMEN
  6
CONTINUOUS
 10
63.199998
 20
103.8
 30
0.0
 11
63.833703
 21
103.8
 31
0.0
  0
LINE
  5
11F11
  8
DANMEN
  6
CONTINUOUS
 10
62.199999
 20
102.3
 30
0.0
 11
63.833703
 21
102.3
 31
0.0
  0
LINE
  5
11F12
  8
DANMEN
  6
CONTINUOUS
 10
67.199998
 20
105.666295
 30
0.0
 11
67.199998
 21
106.9
 31
0.0
  0
ARC
  5
11F13
  8
DANMEN
  6
CONTINUOUS
 10
63.199998
 20
106.3
 30
0.0
 40
1.0
 50
90.0
 51
180.0
  0
ARC
  5
11F14
  8
DANMEN
  6
CONTINUOUS
 10
64.699998
 20
106.3
 30
0.0
 40
1.0
 50
0.0
 51
90.0
  0
ARC
  5
11F15
  8
DANMEN
  6
CONTINUOUS
 10
63.199998
 20
104.8
 30
0.0
 40
1.0
 50
180.0
 51
270.0
  0
ARC
  5
11F16
  8
DANMEN
  6
CONTINUOUS
 10
66.449998
 20
105.666295
 30
0.0
 40
0.75
 50
180.0
 51
0.0
  0
ARC
  5
11F17
  8
DANMEN
  6
CONTINUOUS
 10
63.833703
 20
103.05
 30
0.0
 40
0.75
 50
270.0
 51
90.0
  0
LINE
  5
11F18
  8
DANMEN
  6
CONTINUOUS
 10
72.350001
 20
76.000005
 30
0.0
 11
71.850001
 21
76.000005
 31
0.0
  0
LINE
  5
11F19
  8
DANMEN
  6
CONTINUOUS
 10
71.850001
 20
76.000005
 30
0.0
 11
71.850001
 21
75.000005
 31
0.0
  0
ARC
  5
11F1A
  8
DANMEN
  6
CONTINUOUS
 10
69.799998
 20
102.699997
 30
0.0
 40
0.5
 50
89.999982
 51
180.000019
  0
LINE
  5
11F1B
  8
DANMEN
  6
CONTINUOUS
 10
69.299998
 20
102.699997
 30
0.0
 11
69.299998
 21
102.0
 31
0.0
  0
ARC
  5
11F1C
  8
DANMEN
  6
CONTINUOUS
 10
63.199998
 20
106.5
 30
0.0
 40
2.5
 50
89.999982
 51
180.000019
  0
ARC
  5
11F1D
  8
DANMEN
  6
CONTINUOUS
 10
75.499995
 20
87.5
 30
0.0
 40
0.5
 50
0.0
 51
89.999982
  0
ARC
  5
11F1E
  8
DANMEN
  6
CONTINUOUS
 10
61.699998
 20
141.0
 30
0.0
 40
1.0
 50
89.999982
 51
180.000019
  0
LINE
  5
11F1F
  8
DANMEN
  6
CONTINUOUS
 10
56.149998
 20
135.0
 30
0.0
 11
60.799998
 21
135.0
 31
0.0
  0
LINE
  5
11F20
  8
DANMEN
  6
CONTINUOUS
 10
60.699998
 20
141.0
 30
0.0
 11
60.699998
 21
136.099997
 31
0.0
  0
LINE
  5
11F21
  8
DANMEN
  6
CONTINUOUS
 10
56.149998
 20
136.099997
 30
0.0
 11
60.699998
 21
136.099997
 31
0.0
  0
LINE
  5
11F22
  8
DANMEN
  6
CONTINUOUS
 10
62.199999
 20
102.300003
 30
0.0
 11
62.199999
 21
102.0
 31
0.0
  0
LINE
  5
11F23
  8
DANMEN
  6
CONTINUOUS
 10
56.149998
 20
103.099997
 30
0.0
 11
60.699998
 21
103.099997
 31
0.0
  0
LINE
  5
11F24
  8
DANMEN
  6
CONTINUOUS
 10
56.149998
 20
102.0
 30
0.0
 11
62.199999
 21
102.0
 31
0.0
  0
LINE
  5
11F25
  8
DANMEN
  6
CONTINUOUS
 10
74.899998
 20
86.900003
 30
0.0
 11
74.899998
 21
75.100006
 31
0.0
  0
LINE
  5
11F26
  8
DANMEN
  6
CONTINUOUS
 10
72.349998
 20
86.900003
 30
0.0
 11
74.899998
 21
86.900003
 31
0.0
  0
LINE
  5
11F27
  8
DANMEN
  6
CONTINUOUS
 10
73.799998
 20
88.0
 30
0.0
 11
75.499995
 21
88.0
 31
0.0
  0
LINE
  5
11F28
  8
DANMEN
  6
CONTINUOUS
 10
75.999995
 20
87.5
 30
0.0
 11
75.999995
 21
74.500007
 31
0.0
  0
LINE
  5
11F29
  8
DANMEN
  6
CONTINUOUS
 10
55.299998
 20
68.999981
 30
0.0
 11
55.299998
 21
59.8
 31
0.0
  0
LINE
  5
11F2A
  8
DANMEN
  6
CONTINUOUS
 10
72.700001
 20
100.011314
 30
0.0
 11
72.700001
 21
88.88869
 31
0.0
  0
LINE
  5
11F2B
  8
DANMEN
  6
CONTINUOUS
 10
69.799998
 20
103.199997
 30
0.0
 11
72.700001
 21
103.199997
 31
0.0
  0
LINE
  5
11F2C
  8
DANMEN
  6
CONTINUOUS
 10
69.299998
 20
102.0
 30
0.0
 11
71.850001
 21
102.0
 31
0.0
  0
LINE
  5
11F2D
  8
DANMEN
  6
CONTINUOUS
 10
60.699998
 20
106.5
 30
0.0
 11
60.699998
 21
103.099997
 31
0.0
  0
LINE
  5
11F2E
  8
DANMEN
  6
CONTINUOUS
 10
72.700001
 20
107.9
 30
0.0
 11
72.700001
 21
103.199997
 31
0.0
  0
LINE
  5
11F2F
  8
DANMEN
  6
CONTINUOUS
 10
55.299998
 20
98.000003
 30
0.0
 11
55.299998
 21
80.000003
 31
0.0
  0
LINE
  5
11F30
  8
DANMEN
  6
CONTINUOUS
 10
63.199998
 20
109.0
 30
0.0
 11
72.700001
 21
109.0
 31
0.0
  0
LINE
  5
11F31
  8
DANMEN
  6
CONTINUOUS
 10
55.299998
 20
131.000003
 30
0.0
 11
55.299998
 21
107.099995
 31
0.0
  0
LINE
  5
11F32
  8
DANMEN
  6
CONTINUOUS
 10
72.700001
 20
140.9
 30
0.0
 11
72.700001
 21
109.0
 31
0.0
  0
LINE
  5
11F33
  8
DANMEN
  6
CONTINUOUS
 10
73.799998
 20
152.5
 30
0.0
 11
73.799998
 21
88.0
 31
0.0
  0
LINE
  5
11F34
  8
DANMEN
  6
CONTINUOUS
 10
54.199998
 20
152.5
 30
0.0
 11
54.199998
 21
59.5
 31
0.0
  0
LINE
  5
11F35
  8
DANMEN
  6
CONTINUOUS
 10
61.699998
 20
142.0
 30
0.0
 11
72.700001
 21
142.0
 31
0.0
  0
LINE
  5
11F36
  8
DANMEN
  6
CONTINUOUS
 10
56.850129
 20
150.0
 30
0.0
 11
56.999998
 21
150.0
 31
0.0
  0
LINE
  5
11F37
  8
DANMEN
  6
CONTINUOUS
 10
55.299998
 20
151.9
 30
0.0
 11
55.299998
 21
140.099995
 31
0.0
  0
LINE
  5
11F38
  8
DANMEN
  6
CONTINUOUS
 10
72.700001
 20
151.9
 30
0.0
 11
72.700001
 21
142.0
 31
0.0
  0
ARC
  5
11F39
  8
DANMEN
  6
CONTINUOUS
 10
56.499998
 20
152.5
 30
0.0
 40
0.5
 50
0.0
 51
89.999982
  0
LINE
  5
11F3A
  8
DANMEN
  6
CONTINUOUS
 10
56.999998
 20
152.5
 30
0.0
 11
56.999998
 21
150.0
 31
0.0
  0
ARC
  5
11F3B
  8
DANMEN
  6
CONTINUOUS
 10
73.299998
 20
152.5
 30
0.0
 40
0.5
 50
0.0
 51
89.999982
  0
ARC
  5
11F3C
  8
DANMEN
  6
CONTINUOUS
 10
54.699998
 20
152.5
 30
0.0
 40
0.5
 50
89.999982
 51
180.000019
  0
LINE
  5
11F3D
  8
DANMEN
  6
CONTINUOUS
 10
54.699998
 20
153.0
 30
0.0
 11
56.499998
 21
153.0
 31
0.0
  0
LINE
  5
11F3E
  8
DANMEN
  6
CONTINUOUS
 10
71.850001
 20
74.000005
 30
0.0
 11
71.850001
 21
71.499995
 31
0.0
  0
LINE
  5
11F3F
  8
DANMEN
  6
CONTINUOUS
 10
73.799998
 20
74.000006
 30
0.0
 11
73.799998
 21
59.5
 31
0.0
  0
ARC
  5
11F40
  8
DANMEN
  6
CONTINUOUS
 10
72.350001
 20
71.499995
 30
0.0
 40
0.5
 50
180.0
 51
270.0
  0
ARC
  5
11F41
  8
DANMEN
  6
CONTINUOUS
 10
72.350001
 20
62.5
 30
0.0
 40
0.5
 50
180.0
 51
270.0
  0
LINE
  5
11F42
  8
DANMEN
  6
CONTINUOUS
 10
71.850001
 20
63.0
 30
0.0
 11
71.850001
 21
62.5
 31
0.0
  0
LINE
  5
11F43
  8
DANMEN
  6
CONTINUOUS
 10
72.699998
 20
62.0
 30
0.0
 11
72.699998
 21
59.8
 31
0.0
  0
LINE
  5
11F44
  8
DANMEN
  6
CONTINUOUS
 10
72.699998
 20
63.0
 30
0.0
 11
71.850001
 21
63.0
 31
0.0
  0
LINE
  5
11F45
  8
DANMEN
  6
CONTINUOUS
 10
72.699998
 20
62.0
 30
0.0
 11
72.349998
 21
62.0
 31
0.0
  0
LINE
  5
11F46
  8
DANMEN
  6
CONTINUOUS
 10
72.699998
 20
70.999995
 30
0.0
 11
72.350001
 21
70.999995
 31
0.0
  0
ARC
  5
11F47
  8
DANMEN
  6
CONTINUOUS
 10
72.349998
 20
59.5
 30
0.0
 40
0.5
 50
180.0
 51
270.0
  0
ARC
  5
11F48
  8
DANMEN
  6
CONTINUOUS
 10
73.299998
 20
59.5
 30
0.0
 40
0.5
 50
270.0
 51
0.0
  0
LINE
  5
11F49
  8
DANMEN
  6
CONTINUOUS
 10
73.299998
 20
59.0
 30
0.0
 11
72.349998
 21
59.0
 31
0.0
  0
LINE
  5
11F4A
  8
DANMEN
  6
CONTINUOUS
 10
72.699998
 20
59.8
 30
0.0
 11
71.849998
 21
59.8
 31
0.0
  0
LINE
  5
11F4B
  8
DANMEN
  6
CONTINUOUS
 10
71.849998
 20
59.8
 30
0.0
 11
71.849998
 21
59.5
 31
0.0
  0
LINE
  5
11F4C
  8
DANMEN
  6
CONTINUOUS
 10
72.699998
 20
70.999995
 30
0.0
 11
72.699998
 21
63.0
 31
0.0
  0
ENDSEC
  0
EOF
