  0
SECTION
  2
HEADER
  9
$ACADVER
  1
AC1009
  9
$INSBASE
 10
0.0
 20
0.0
 30
0.0
  9
$EXTMIN
 10
5.0
 20
5.0
 30
0.0
  9
$EXTMAX
 10
415.0
 20
292.0
 30
0.0
  9
$LIMMIN
 10
-210.0
 20
-148.5
  9
$LIMMAX
 10
210.0
 20
148.5
  9
$ORTHOMODE
 70
     1
  9
$REGENMODE
 70
     1
  9
$FILLMODE
 70
     1
  9
$QTEXTMODE
 70
     0
  9
$MIRRTEXT
 70
     1
  9
$DRAGMODE
 70
     2
  9
$LTSCALE
 40
0.5
  9
$OSMODE
 70
   255
  9
$ATTMODE
 70
     1
  9
$TEXTSIZE
 40
2.5
  9
$TRACEWID
 40
0.05
  9
$TEXTSTYLE
  7
MX_NOTE_STANDARD
  9
$CLAYER
  8
0
  9
$CELTYPE
  6
CONTINUOUS
  9
$CECOLOR
 62
   256
  9
$DIMSCALE
 40
1.0
  9
$DIMASZ
 40
2.5
  9
$DIMEXO
 40
1.5
  9
$DIMDLI
 40
3.75
  9
$DIMRND
 40
0.0
  9
$DIMDLE
 40
0.0
  9
$DIMEXE
 40
0.0
  9
$DIMTP
 40
0.0
  9
$DIMTM
 40
0.0
  9
$DIMTXT
 40
2.5
  9
$DIMCEN
 40
2.5
  9
$DIMTSZ
 40
0.0
  9
$DIMTOL
 70
     0
  9
$DIMLIM
 70
     0
  9
$DIMTIH
 70
     0
  9
$DIMTOH
 70
     0
  9
$DIMSE1
 70
     0
  9
$DIMSE2
 70
     0
  9
$DIMTAD
 70
     1
  9
$DIMZIN
 70
     8
  9
$DIMBLK
  1

  9
$DIMASO
 70
     1
  9
$DIMSHO
 70
     1
  9
$DIMPOST
  1

  9
$DIMAPOST
  1

  9
$DIMALT
 70
     0
  9
$DIMALTD
 70
     4
  9
$DIMALTF
 40
0.0394
  9
$DIMLFAC
 40
1.0
  9
$DIMTOFL
 70
     1
  9
$DIMTVP
 40
0.0
  9
$DIMTIX
 70
     0
  9
$DIMSOXD
 70
     0
  9
$DIMSAH
 70
     0
  9
$DIMBLK1
  1

  9
$DIMBLK2
  1

  9
$DIMSTYLE
  2
MXDIMSTYLE
  9
$DIMCLRD
 70
     0
  9
$DIMCLRE
 70
     0
  9
$DIMCLRT
 70
     0
  9
$DIMTFAC
 40
1.0
  9
$DIMGAP
 40
1.0
  9
$LUNITS
 70
     2
  9
$LUPREC
 70
     4
  9
$SKETCHINC
 40
0.1
  9
$FILLETRAD
 40
0.0
  9
$AUNITS
 70
     0
  9
$AUPREC
 70
     0
  9
$MENU
  1
acad
  9
$ELEVATION
 40
0.0
  9
$PELEVATION
 40
0.0
  9
$THICKNESS
 40
0.0
  9
$LIMCHECK
 70
     0
  9
$BLIPMODE
 70
     0
  9
$CHAMFERA
 40
0.0
  9
$CHAMFERB
 40
0.0
  9
$SKPOLY
 70
     0
  9
$TDCREATE
 40
2452006.37162
  9
$TDUPDATE
 40
2452074.487123
  9
$TDINDWG
 40
0.074468
  9
$TDUSRTIMER
 40
0.074468
  9
$USRTIMER
 70
     1
  9
$ANGBASE
 50
0.0
  9
$ANGDIR
 70
     0
  9
$PDMODE
 70
     3
  9
$PDSIZE
 40
-100.0
  9
$PLINEWID
 40
0.0
  9
$COORDS
 70
     2
  9
$SPLFRAME
 70
     0
  9
$SPLINETYPE
 70
     6
  9
$SPLINESEGS
 70
     8
  9
$ATTDIA
 70
     0
  9
$ATTREQ
 70
     1
  9
$HANDLING
 70
     1
  9
$HANDSEED
  5
10FA0
  9
$SURFTAB1
 70
     6
  9
$SURFTAB2
 70
     6
  9
$SURFTYPE
 70
     6
  9
$SURFU
 70
     6
  9
$SURFV
 70
     6
  9
$UCSNAME
  2

  9
$UCSORG
 10
0.0
 20
0.0
 30
0.0
  9
$UCSXDIR
 10
1.0
 20
0.0
 30
0.0
  9
$UCSYDIR
 10
0.0
 20
1.0
 30
0.0
  9
$PUCSNAME
  2

  9
$PUCSORG
 10
0.0
 20
0.0
 30
0.0
  9
$PUCSXDIR
 10
1.0
 20
0.0
 30
0.0
  9
$PUCSYDIR
 10
0.0
 20
1.0
 30
0.0
  9
$USERI1
 70
     0
  9
$USERI2
 70
     0
  9
$USERI3
 70
     0
  9
$USERI4
 70
     0
  9
$USERI5
 70
     0
  9
$USERR1
 40
0.0
  9
$USERR2
 40
0.0
  9
$USERR3
 40
0.0
  9
$USERR4
 40
0.0
  9
$USERR5
 40
0.0
  9
$WORLDVIEW
 70
     1
  9
$SHADEDGE
 70
     3
  9
$SHADEDIF
 70
    70
  9
$TILEMODE
 70
     1
  9
$MAXACTVP
 70
    16
  9
$PLIMCHECK
 70
     0
  9
$PEXTMIN
 10
1.000000E+020
 20
1.000000E+020
 30
1.000000E+020
  9
$PEXTMAX
 10
-1.000000E+020
 20
-1.000000E+020
 30
-1.000000E+020
  9
$PLIMMIN
 10
0.0
 20
0.0
  9
$PLIMMAX
 10
12.0
 20
9.0
  9
$UNITMODE
 70
     0
  9
$VISRETAIN
 70
     0
  9
$PLINEGEN
 70
     1
  9
$PSLTSCALE
 70
     0
  0
ENDSEC
  0
SECTION
  2
TABLES
  0
TABLE
  2
VPORT
 70
     2
  0
VPORT
  2
*ACTIVE
 70
     0
 10
0.0
 20
0.0
 11
1.0
 21
1.0
 12
210.002939
 22
148.492688
 13
0.0
 23
0.0
 14
1.0
 24
1.0
 15
0.0
 25
0.0
 16
0.0
 26
0.0
 36
1.0
 17
0.0
 27
0.0
 37
0.0
 40
290.13352
 41
1.803957
 42
50.0
 43
0.0
 44
0.0
 50
0.0
 51
0.0
 71
     0
 72
   100
 73
     1
 74
     0
 75
     0
 76
     0
 77
     0
 78
     0
  0
ENDTAB
  0
TABLE
  2
LTYPE
 70
     2
  0
LTYPE
  2
CONTINUOUS
 70
     0
  3
Solid line
 72
    65
 73
     0
 40
0.0
  0
LTYPE
  2
DASHED
 70
     0
  3
Dashed __ __ __ __ __ __ __ __ __ __ __ __ __ _
 72
    65
 73
     2
 40
19.05
 49
12.7
 49
-6.35
  0
ENDTAB
  0
TABLE
  2
LAYER
 70
     4
  0
LAYER
  2
0
 70
     0
 62
     7
  6
CONTINUOUS
  0
LAYER
  2
SUNPO
 70
     0
 62
     1
  6
CONTINUOUS
  0
LAYER
  2
DANMEN
 70
     0
 62
     7
  6
CONTINUOUS
  0
LAYER
  2
WAKU
 70
     0
 62
     3
  6
CONTINUOUS
  0
ENDTAB
  0
TABLE
  2
STYLE
 70
     2
  0
STYLE
  2
MX_NOTE_STANDARD
 70
     0
 40
0.0
 41
1.0
 50
0.0
 71
     0
 42
2.5
  3
txt.shx
  4
extfont.shx
  0
STYLE
  2
STANDARD
 70
     0
 40
0.0
 41
1.0
 50
0.0
 71
     0
 42
0.2
  3
txt.shx
  4
bigfont.shx
  0
ENDTAB
  0
TABLE
  2
VIEW
 70
     0
  0
ENDTAB
  0
TABLE
  2
UCS
 70
     0
  0
ENDTAB
  0
TABLE
  2
APPID
 70
     1
  0
APPID
  2
ACAD
 70
     0
  0
ENDTAB
  0
TABLE
  2
DIMSTYLE
 70
     1
  0
DIMSTYLE
  2
MXDIMSTYLE
 70
     0
  3

  4

  5

  6

  7

 40
1.0
 41
2.5
 42
1.5
 43
3.75
 44
0.0
 45
0.0
 46
0.0
 47
0.0
 48
0.0
140
2.5
141
2.5
142
0.0
143
0.0394
144
1.0
145
0.0
146
1.0
147
1.0
 71
     0
 72
     0
 73
     0
 74
     0
 75
     0
 76
     0
 77
     1
 78
     8
170
     0
171
     4
172
     1
173
     0
174
     0
175
     0
176
     0
177
     0
178
     0
  0
ENDTAB
  0
ENDSEC
  0
SECTION
  2
BLOCKS
  0
BLOCK
  8
0
  2
$MODEL_SPACE
 70
     0
 10
0.0
 20
0.0
 30
0.0
  3
$MODEL_SPACE
  1

  0
ENDBLK
  5
10EF4
  8
0
  0
BLOCK
 67
     1
  8
0
  2
$PAPER_SPACE
 70
     0
 10
0.0
 20
0.0
 30
0.0
  3
$PAPER_SPACE
  1

  0
ENDBLK
  5
10EF2
 67
     1
  8
0
  0
BLOCK
  8
0
  2
*U5
 70
     1
 10
0.0
 20
0.0
 30
0.0
  3
*U5
  1

  0
SOLID
  5
10EFC
  8
WAKU
  6
CONTINUOUS
 10
371.305142
 20
283.605291
 30
0.0
 11
370.499782
 21
283.530361
 31
0.0
 12
370.874987
 22
283.520449
 32
0.0
 13
370.874987
 23
283.520449
 33
0.0
  0
SOLID
  5
10EFD
  8
WAKU
  6
CONTINUOUS
 10
370.193309
 20
283.634664
 30
0.0
 11
370.499782
 21
283.530361
 31
0.0
 12
371.305142
 22
283.605291
 32
0.0
 13
371.305142
 23
283.605291
 33
0.0
  0
SOLID
  5
10EFE
  8
WAKU
  6
CONTINUOUS
 10
371.774448
 20
283.781773
 30
0.0
 11
370.193309
 21
283.634664
 31
0.0
 12
371.305142
 22
283.605291
 32
0.0
 13
371.305142
 23
283.605291
 33
0.0
  0
SOLID
  5
10EFF
  8
WAKU
  6
CONTINUOUS
 10
369.966824
 20
283.829526
 30
0.0
 11
370.193309
 21
283.634664
 31
0.0
 12
371.774448
 22
283.781773
 32
0.0
 13
371.774448
 23
283.781773
 33
0.0
  0
SOLID
  5
10F00
  8
WAKU
  6
CONTINUOUS
 10
370.594177
 20
283.909498
 30
0.0
 11
369.966824
 21
283.829526
 31
0.0
 12
371.774448
 22
283.781773
 32
0.0
 13
371.774448
 23
283.781773
 33
0.0
  0
SOLID
  5
10F01
  8
WAKU
  6
CONTINUOUS
 10
370.901294
 20
283.914863
 30
0.0
 11
370.594177
 21
283.909498
 31
0.0
 12
371.774448
 22
283.781773
 32
0.0
 13
371.774448
 23
283.781773
 33
0.0
  0
SOLID
  5
10F02
  8
WAKU
  6
CONTINUOUS
 10
370.392927
 20
283.968568
 30
0.0
 11
369.966824
 21
283.829526
 31
0.0
 12
370.594177
 22
283.909498
 32
0.0
 13
370.594177
 23
283.909498
 33
0.0
  0
SOLID
  5
10F03
  8
WAKU
  6
CONTINUOUS
 10
371.296984
 20
284.010368
 30
0.0
 11
370.901294
 21
283.914863
 31
0.0
 12
371.774448
 22
283.781773
 32
0.0
 13
371.774448
 23
283.781773
 33
0.0
  0
SOLID
  5
10F04
  8
WAKU
  6
CONTINUOUS
 10
372.265666
 20
284.043411
 30
0.0
 11
371.296984
 21
284.010368
 31
0.0
 12
371.774448
 22
283.781773
 32
0.0
 13
371.774448
 23
283.781773
 33
0.0
  0
SOLID
  5
10F05
  8
WAKU
  6
CONTINUOUS
 10
370.275177
 20
284.066476
 30
0.0
 11
369.966824
 21
283.829526
 31
0.0
 12
370.392927
 22
283.968568
 32
0.0
 13
370.392927
 23
283.968568
 33
0.0
  0
SOLID
  5
10F06
  8
WAKU
  6
CONTINUOUS
 10
369.828646
 20
284.107791
 30
0.0
 11
369.966824
 21
283.829526
 31
0.0
 12
370.275177
 22
284.066476
 32
0.0
 13
370.275177
 23
284.066476
 33
0.0
  0
SOLID
  5
10F07
  8
WAKU
  6
CONTINUOUS
 10
370.709458
 20
284.142397
 30
0.0
 11
369.828646
 21
284.107791
 31
0.0
 12
370.275177
 22
284.066476
 32
0.0
 13
370.275177
 23
284.066476
 33
0.0
  0
SOLID
  5
10F08
  8
WAKU
  6
CONTINUOUS
 10
371.751882
 20
284.202798
 30
0.0
 11
371.296984
 21
284.010368
 31
0.0
 12
372.265666
 22
284.043411
 32
0.0
 13
372.265666
 23
284.043411
 33
0.0
  0
SOLID
  5
10F09
  8
WAKU
  6
CONTINUOUS
 10
369.550381
 20
284.245969
 30
0.0
 11
369.828646
 21
284.107791
 31
0.0
 12
370.709458
 22
284.142397
 32
0.0
 13
370.709458
 23
284.142397
 33
0.0
  0
SOLID
  5
10F0A
  8
WAKU
  6
CONTINUOUS
 10
371.186428
 20
284.314625
 30
0.0
 11
369.550381
 21
284.245969
 31
0.0
 12
370.709458
 22
284.142397
 32
0.0
 13
370.709458
 23
284.142397
 33
0.0
  0
SOLID
  5
10F0B
  8
WAKU
  6
CONTINUOUS
 10
372.760756
 20
284.380595
 30
0.0
 11
371.751882
 21
284.202798
 31
0.0
 12
372.265666
 22
284.043411
 32
0.0
 13
372.265666
 23
284.043411
 33
0.0
  0
SOLID
  5
10F0C
  8
WAKU
  6
CONTINUOUS
 10
370.172911
 20
284.451856
 30
0.0
 11
369.550381
 21
284.245969
 31
0.0
 12
371.186428
 22
284.314625
 32
0.0
 13
371.186428
 23
284.314625
 33
0.0
  0
SOLID
  5
10F0D
  8
WAKU
  6
CONTINUOUS
 10
369.355518
 20
284.472454
 30
0.0
 11
369.550381
 21
284.245969
 31
0.0
 12
370.172911
 22
284.451856
 32
0.0
 13
370.172911
 23
284.451856
 33
0.0
  0
SOLID
  5
10F0E
  8
WAKU
  6
CONTINUOUS
 10
372.237497
 20
284.486117
 30
0.0
 11
371.751882
 21
284.202798
 31
0.0
 12
372.760756
 22
284.380595
 32
0.0
 13
372.760756
 23
284.380595
 33
0.0
  0
SOLID
  5
10F0F
  8
WAKU
  6
CONTINUOUS
 10
370.681395
 20
284.539195
 30
0.0
 11
370.172911
 21
284.451856
 31
0.0
 12
371.186428
 22
284.314625
 32
0.0
 13
371.186428
 23
284.314625
 33
0.0
  0
SOLID
  5
10F10
  8
WAKU
  6
CONTINUOUS
 10
369.787305
 20
284.553935
 30
0.0
 11
369.355518
 21
284.472454
 31
0.0
 12
370.172911
 22
284.451856
 32
0.0
 13
370.172911
 23
284.451856
 33
0.0
  0
SOLID
  5
10F11
  8
WAKU
  6
CONTINUOUS
 10
371.68777
 20
284.576545
 30
0.0
 11
370.681395
 21
284.539195
 31
0.0
 12
371.186428
 22
284.314625
 32
0.0
 13
371.186428
 23
284.314625
 33
0.0
  0
SOLID
  5
10F12
  8
WAKU
  6
CONTINUOUS
 10
369.689155
 20
284.672435
 30
0.0
 11
369.355518
 21
284.472454
 31
0.0
 12
369.787305
 22
284.553935
 32
0.0
 13
369.787305
 23
284.553935
 33
0.0
  0
SOLID
  5
10F13
  8
WAKU
  6
CONTINUOUS
 10
369.251215
 20
284.778928
 30
0.0
 11
369.355518
 21
284.472454
 31
0.0
 12
369.689155
 22
284.672435
 32
0.0
 13
369.689155
 23
284.672435
 33
0.0
  0
SOLID
  5
10F14
  8
WAKU
  6
CONTINUOUS
 10
373.241532
 20
284.780941
 30
0.0
 11
372.237497
 21
284.486117
 31
0.0
 12
372.760756
 22
284.380595
 32
0.0
 13
372.760756
 23
284.380595
 33
0.0
  0
SOLID
  5
10F15
  8
WAKU
  6
CONTINUOUS
 10
371.312263
 20
284.810332
 30
0.0
 11
370.681395
 21
284.539195
 31
0.0
 12
371.68777
 22
284.576545
 32
0.0
 13
371.68777
 23
284.576545
 33
0.0
  0
SOLID
  5
10F16
  8
WAKU
  6
CONTINUOUS
 10
369.630358
 20
284.873087
 30
0.0
 11
369.251215
 21
284.778928
 31
0.0
 12
369.689155
 22
284.672435
 32
0.0
 13
369.689155
 23
284.672435
 33
0.0
  0
SOLID
  5
10F17
  8
WAKU
  6
CONTINUOUS
 10
372.194232
 20
284.918099
 30
0.0
 11
371.312263
 21
284.810332
 31
0.0
 12
371.68777
 22
284.576545
 32
0.0
 13
371.68777
 23
284.576545
 33
0.0
  0
SOLID
  5
10F18
  8
WAKU
  6
CONTINUOUS
 10
370.260168
 20
284.959969
 30
0.0
 11
369.787305
 21
284.553935
 31
0.0
 12
370.172911
 22
284.451856
 32
0.0
 13
370.172911
 23
284.451856
 33
0.0
  0
SOLID
  5
10F19
  8
WAKU
  6
CONTINUOUS
 10
369.863139
 20
284.988189
 30
0.0
 11
369.787305
 21
284.553935
 31
0.0
 12
370.260168
 22
284.959969
 32
0.0
 13
370.260168
 23
284.959969
 33
0.0
  0
SOLID
  5
10F1A
  8
WAKU
  6
CONTINUOUS
 10
398.194006
 20
285.115385
 30
0.0
 11
397.606055
 21
283.5
 31
0.0
 12
401.913747
 22
283.5
 32
0.0
 13
401.913747
 23
283.5
 33
0.0
  0
SOLID
  5
10F1B
  8
WAKU
  6
CONTINUOUS
 10
401.913747
 20
283.5
 30
0.0
 11
401.424776
 21
285.115385
 31
0.0
 12
398.194006
 22
285.115385
 32
0.0
 13
398.194006
 23
285.115385
 33
0.0
  0
SOLID
  5
10F1C
  8
WAKU
  6
CONTINUOUS
 10
369.241303
 20
285.154132
 30
0.0
 11
369.251215
 21
284.778928
 31
0.0
 12
369.630358
 22
284.873087
 32
0.0
 13
369.630358
 23
284.873087
 33
0.0
  0
SOLID
  5
10F1D
  8
WAKU
  6
CONTINUOUS
 10
369.635696
 20
285.180404
 30
0.0
 11
369.241303
 21
285.154132
 31
0.0
 12
369.630358
 22
284.873087
 32
0.0
 13
369.630358
 23
284.873087
 33
0.0
  0
SOLID
  5
10F1E
  8
WAKU
  6
CONTINUOUS
 10
373.690335
 20
285.229744
 30
0.0
 11
372.237497
 21
284.486117
 31
0.0
 12
373.241532
 22
284.780941
 32
0.0
 13
373.241532
 23
284.780941
 33
0.0
  0
SOLID
  5
10F1F
  8
WAKU
  6
CONTINUOUS
 10
371.98994
 20
285.251431
 30
0.0
 11
371.312263
 21
284.810332
 31
0.0
 12
372.194232
 22
284.918099
 32
0.0
 13
372.194232
 23
284.918099
 33
0.0
  0
SOLID
  5
10F20
  8
WAKU
  6
CONTINUOUS
 10
373.195965
 20
285.275232
 30
0.0
 11
372.237497
 21
284.486117
 31
0.0
 12
373.690335
 22
285.229744
 32
0.0
 13
373.690335
 23
285.229744
 33
0.0
  0
SOLID
  5
10F21
  8
WAKU
  6
CONTINUOUS
 10
372.686363
 20
285.326171
 30
0.0
 11
371.98994
 21
285.251431
 31
0.0
 12
372.194232
 22
284.918099
 32
0.0
 13
372.194232
 23
284.918099
 33
0.0
  0
SOLID
  5
10F22
  8
WAKU
  6
CONTINUOUS
 10
370.035293
 20
285.465154
 30
0.0
 11
369.863139
 21
284.988189
 31
0.0
 12
370.260168
 22
284.959969
 32
0.0
 13
370.260168
 23
284.959969
 33
0.0
  0
SOLID
  5
10F23
  8
WAKU
  6
CONTINUOUS
 10
369.73149
 20
285.576021
 30
0.0
 11
369.241303
 21
285.154132
 31
0.0
 12
369.635696
 22
285.180404
 32
0.0
 13
369.635696
 23
285.180404
 33
0.0
  0
SOLID
  5
10F24
  8
WAKU
  6
CONTINUOUS
 10
369.326146
 20
285.584287
 30
0.0
 11
369.241303
 21
285.154132
 31
0.0
 12
369.73149
 22
285.576021
 32
0.0
 13
369.73149
 23
285.576021
 33
0.0
  0
SOLID
  5
10F25
  8
WAKU
  6
CONTINUOUS
 10
370.530712
 20
285.590875
 30
0.0
 11
370.035293
 21
285.465154
 31
0.0
 12
370.260168
 22
284.959969
 32
0.0
 13
370.260168
 23
284.959969
 33
0.0
  0
SOLID
  5
10F26
  8
WAKU
  6
CONTINUOUS
 10
389.236144
 20
285.653846
 30
0.0
 11
383.067593
 21
283.5
 31
0.0
 12
388.452208
 22
283.5
 32
0.0
 13
388.452208
 23
283.5
 33
0.0
  0
SOLID
  5
10F27
  8
WAKU
  6
CONTINUOUS
 10
383.851529
 20
285.653846
 30
0.0
 11
383.067593
 21
283.5
 31
0.0
 12
389.236144
 22
285.653846
 32
0.0
 13
389.236144
 23
285.653846
 33
0.0
  0
SOLID
  5
10F28
  8
WAKU
  6
CONTINUOUS
 10
404.851529
 20
285.653846
 30
0.0
 11
404.067593
 21
283.5
 31
0.0
 12
409.452208
 22
283.5
 32
0.0
 13
409.452208
 23
283.5
 33
0.0
  0
SOLID
  5
10F29
  8
WAKU
  6
CONTINUOUS
 10
409.452208
 20
283.5
 30
0.0
 11
409.159221
 21
285.653846
 31
0.0
 12
404.851529
 22
285.653846
 32
0.0
 13
404.851529
 23
285.653846
 33
0.0
  0
SOLID
  5
10F2A
  8
WAKU
  6
CONTINUOUS
 10
391.174606
 20
285.653846
 30
0.0
 11
390.39067
 21
283.5
 31
0.0
 12
395.452208
 22
283.5
 32
0.0
 13
395.452208
 23
283.5
 33
0.0
  0
SOLID
  5
10F2B
  8
WAKU
  6
CONTINUOUS
 10
395.452208
 20
283.5
 30
0.0
 11
395.159221
 21
285.653846
 31
0.0
 12
391.174606
 22
285.653846
 32
0.0
 13
391.174606
 23
285.653846
 33
0.0
  0
SOLID
  5
10F2C
  8
WAKU
  6
CONTINUOUS
 10
374.090681
 20
285.71052
 30
0.0
 11
373.195965
 21
285.275232
 31
0.0
 12
373.690335
 22
285.229744
 32
0.0
 13
373.690335
 23
285.229744
 33
0.0
  0
SOLID
  5
10F2D
  8
WAKU
  6
CONTINUOUS
 10
373.145266
 20
285.785089
 30
0.0
 11
371.98994
 21
285.251431
 31
0.0
 12
372.686363
 22
285.326171
 32
0.0
 13
372.686363
 23
285.326171
 33
0.0
  0
SOLID
  5
10F2E
  8
WAKU
  6
CONTINUOUS
 10
372.646296
 20
285.825506
 30
0.0
 11
371.98994
 21
285.251431
 31
0.0
 12
373.145266
 22
285.785089
 32
0.0
 13
373.145266
 23
285.785089
 33
0.0
  0
SOLID
  5
10F2F
  8
WAKU
  6
CONTINUOUS
 10
370.297156
 20
285.966509
 30
0.0
 11
370.035293
 21
285.465154
 31
0.0
 12
370.530712
 22
285.590875
 32
0.0
 13
370.530712
 23
285.590875
 33
0.0
  0
SOLID
  5
10F30
  8
WAKU
  6
CONTINUOUS
 10
369.923519
 20
286.031028
 30
0.0
 11
369.326146
 21
285.584287
 31
0.0
 12
369.73149
 22
285.576021
 32
0.0
 13
369.73149
 23
285.576021
 33
0.0
  0
SOLID
  5
10F31
  8
WAKU
  6
CONTINUOUS
 10
369.502627
 20
286.053593
 30
0.0
 11
369.326146
 21
285.584287
 31
0.0
 12
369.923519
 22
286.031028
 32
0.0
 13
369.923519
 23
286.031028
 33
0.0
  0
SOLID
  5
10F32
  8
WAKU
  6
CONTINUOUS
 10
379.397145
 20
286.138462
 30
0.0
 11
378.436824
 21
283.5
 31
0.0
 12
379.513747
 22
283.5
 32
0.0
 13
379.513747
 23
283.5
 33
0.0
  0
SOLID
  5
10F33
  8
WAKU
  6
CONTINUOUS
 10
377.155205
 20
286.192308
 30
0.0
 11
376.175285
 21
283.5
 31
0.0
 12
379.397145
 22
286.138462
 32
0.0
 13
379.397145
 23
286.138462
 33
0.0
  0
SOLID
  5
10F34
  8
WAKU
  6
CONTINUOUS
 10
380.493667
 20
286.192308
 30
0.0
 11
377.155205
 21
286.192308
 31
0.0
 12
379.397145
 22
286.138462
 32
0.0
 13
379.397145
 23
286.138462
 33
0.0
  0
SOLID
  5
10F35
  8
WAKU
  6
CONTINUOUS
 10
380.493667
 20
286.192308
 30
0.0
 11
379.397145
 21
286.138462
 31
0.0
 12
379.513747
 22
283.5
 32
0.0
 13
379.513747
 23
283.5
 33
0.0
  0
SOLID
  5
10F36
  8
WAKU
  6
CONTINUOUS
 10
380.493667
 20
286.192308
 30
0.0
 11
381.775285
 21
283.5
 31
0.0
 12
382.755205
 22
286.192308
 32
0.0
 13
382.755205
 23
286.192308
 33
0.0
  0
SOLID
  5
10F37
  8
WAKU
  6
CONTINUOUS
 10
374.427865
 20
286.205609
 30
0.0
 11
373.195965
 21
285.275232
 31
0.0
 12
374.090681
 22
285.71052
 32
0.0
 13
374.090681
 23
285.71052
 33
0.0
  0
SOLID
  5
10F38
  8
WAKU
  6
CONTINUOUS
 10
373.98505
 20
286.233718
 30
0.0
 11
373.195965
 21
285.275232
 31
0.0
 12
374.427865
 22
286.205609
 32
0.0
 13
374.427865
 23
286.205609
 33
0.0
  0
SOLID
  5
10F39
  8
WAKU
  6
CONTINUOUS
 10
370.971896
 20
286.268471
 30
0.0
 11
370.297156
 21
285.966509
 31
0.0
 12
370.530712
 22
285.590875
 32
0.0
 13
370.530712
 23
285.590875
 33
0.0
  0
SOLID
  5
10F3A
  8
WAKU
  6
CONTINUOUS
 10
373.553316
 20
286.277229
 30
0.0
 11
372.646296
 21
285.825506
 31
0.0
 12
373.145266
 22
285.785089
 32
0.0
 13
373.145266
 23
285.785089
 33
0.0
  0
SOLID
  5
10F3B
  8
WAKU
  6
CONTINUOUS
 10
370.638671
 20
286.473
 30
0.0
 11
370.297156
 21
285.966509
 31
0.0
 12
370.971896
 22
286.268471
 32
0.0
 13
370.971896
 23
286.268471
 33
0.0
  0
SOLID
  5
10F3C
  8
WAKU
  6
CONTINUOUS
 10
373.220238
 20
286.48192
 30
0.0
 11
372.646296
 21
285.825506
 31
0.0
 12
373.553316
 22
286.277229
 32
0.0
 13
373.553316
 23
286.277229
 33
0.0
  0
SOLID
  5
10F3D
  8
WAKU
  6
CONTINUOUS
 10
370.207035
 20
286.51657
 30
0.0
 11
369.502627
 21
286.053593
 31
0.0
 12
369.923519
 22
286.031028
 32
0.0
 13
369.923519
 23
286.031028
 33
0.0
  0
SOLID
  5
10F3E
  8
WAKU
  6
CONTINUOUS
 10
369.764265
 20
286.544812
 30
0.0
 11
369.502627
 21
286.053593
 31
0.0
 12
370.207035
 22
286.51657
 32
0.0
 13
370.207035
 23
286.51657
 33
0.0
  0
SOLID
  5
10F3F
  8
WAKU
  6
CONTINUOUS
 10
374.689503
 20
286.696828
 30
0.0
 11
373.98505
 21
286.233718
 31
0.0
 12
374.427865
 22
286.205609
 32
0.0
 13
374.427865
 23
286.205609
 33
0.0
  0
SOLID
  5
10F40
  8
WAKU
  6
CONTINUOUS
 10
374.268507
 20
286.719278
 30
0.0
 11
373.98505
 21
286.233718
 31
0.0
 12
374.689503
 22
286.696828
 32
0.0
 13
374.689503
 23
286.696828
 33
0.0
  0
SOLID
  5
10F41
  8
WAKU
  6
CONTINUOUS
 10
373.894843
 20
286.783693
 30
0.0
 11
373.220238
 21
286.48192
 31
0.0
 12
373.553316
 22
286.277229
 32
0.0
 13
373.553316
 23
286.277229
 33
0.0
  0
SOLID
  5
10F42
  8
WAKU
  6
CONTINUOUS
 10
371.545827
 20
286.924893
 30
0.0
 11
370.638671
 21
286.473
 31
0.0
 12
370.971896
 22
286.268471
 32
0.0
 13
370.971896
 23
286.268471
 33
0.0
  0
SOLID
  5
10F43
  8
WAKU
  6
CONTINUOUS
 10
371.04672
 20
286.965174
 30
0.0
 11
370.638671
 21
286.473
 31
0.0
 12
371.545827
 22
286.924893
 32
0.0
 13
371.545827
 23
286.924893
 33
0.0
  0
SOLID
  5
10F44
  8
WAKU
  6
CONTINUOUS
 10
370.101449
 20
287.039901
 30
0.0
 11
369.764265
 21
286.544812
 31
0.0
 12
370.207035
 22
286.51657
 32
0.0
 13
370.207035
 23
286.51657
 33
0.0
  0
SOLID
  5
10F45
  8
WAKU
  6
CONTINUOUS
 10
373.661353
 20
287.159534
 30
0.0
 11
373.220238
 21
286.48192
 31
0.0
 12
373.894843
 22
286.783693
 32
0.0
 13
373.894843
 23
286.783693
 33
0.0
  0
SOLID
  5
10F46
  8
WAKU
  6
CONTINUOUS
 10
374.865984
 20
287.166134
 30
0.0
 11
374.268507
 21
286.719278
 31
0.0
 12
374.689503
 22
286.696828
 32
0.0
 13
374.689503
 23
286.696828
 33
0.0
  0
SOLID
  5
10F47
  8
WAKU
  6
CONTINUOUS
 10
374.46071
 20
287.174248
 30
0.0
 11
374.268507
 21
286.719278
 31
0.0
 12
374.865984
 22
287.166134
 32
0.0
 13
374.865984
 23
287.166134
 33
0.0
  0
SOLID
  5
10F48
  8
WAKU
  6
CONTINUOUS
 10
374.156732
 20
287.28503
 30
0.0
 11
373.661353
 21
287.159534
 31
0.0
 12
373.894843
 22
286.783693
 32
0.0
 13
373.894843
 23
286.783693
 33
0.0
  0
SOLID
  5
10F49
  8
WAKU
  6
CONTINUOUS
 10
371.505632
 20
287.424128
 30
0.0
 11
371.04672
 21
286.965174
 31
0.0
 12
371.545827
 22
286.924893
 32
0.0
 13
371.545827
 23
286.924893
 33
0.0
  0
SOLID
  5
10F4A
  8
WAKU
  6
CONTINUOUS
 10
370.996098
 20
287.475108
 30
0.0
 11
370.101449
 21
287.039901
 31
0.0
 12
370.207035
 22
286.51657
 32
0.0
 13
370.207035
 23
286.51657
 33
0.0
  0
SOLID
  5
10F4B
  8
WAKU
  6
CONTINUOUS
 10
372.202181
 20
287.498991
 30
0.0
 11
371.505632
 21
287.424128
 31
0.0
 12
371.545827
 22
286.924893
 32
0.0
 13
371.545827
 23
286.924893
 33
0.0
  0
SOLID
  5
10F4C
  8
WAKU
  6
CONTINUOUS
 10
370.501795
 20
287.520677
 30
0.0
 11
370.101449
 21
287.039901
 31
0.0
 12
370.996098
 22
287.475108
 32
0.0
 13
370.996098
 23
287.475108
 33
0.0
  0
SOLID
  5
10F4D
  8
WAKU
  6
CONTINUOUS
 10
374.556361
 20
287.569864
 30
0.0
 11
374.46071
 21
287.174248
 31
0.0
 12
374.865984
 22
287.166134
 32
0.0
 13
374.865984
 23
287.166134
 33
0.0
  0
SOLID
  5
10F4E
  8
WAKU
  6
CONTINUOUS
 10
395.864763
 20
287.592308
 30
0.0
 11
395.159221
 21
285.653846
 31
0.0
 12
395.452208
 22
283.5
 32
0.0
 13
395.452208
 23
283.5
 33
0.0
  0
SOLID
  5
10F4F
  8
WAKU
  6
CONTINUOUS
 10
393.172456
 20
287.592308
 30
0.0
 11
391.703565
 21
286.515385
 31
0.0
 12
392.780488
 22
286.515385
 32
0.0
 13
392.780488
 23
286.515385
 33
0.0
  0
SOLID
  5
10F50
  8
WAKU
  6
CONTINUOUS
 10
392.095533
 20
287.592308
 30
0.0
 11
391.703565
 21
286.515385
 31
0.0
 12
393.172456
 22
287.592308
 32
0.0
 13
393.172456
 23
287.592308
 33
0.0
  0
SOLID
  5
10F51
  8
WAKU
  6
CONTINUOUS
 10
391.28784
 20
287.592308
 30
0.0
 11
392.095533
 21
287.592308
 31
0.0
 12
393.172456
 22
287.592308
 32
0.0
 13
393.172456
 23
287.592308
 33
0.0
  0
SOLID
  5
10F52
  8
WAKU
  6
CONTINUOUS
 10
391.28784
 20
287.592308
 30
0.0
 11
393.172456
 21
287.592308
 31
0.0
 12
395.864763
 22
287.592308
 32
0.0
 13
395.864763
 23
287.592308
 33
0.0
  0
SOLID
  5
10F53
  8
WAKU
  6
CONTINUOUS
 10
396.941687
 20
287.592308
 30
0.0
 11
391.28784
 21
287.592308
 31
0.0
 12
395.864763
 22
287.592308
 32
0.0
 13
395.864763
 23
287.592308
 33
0.0
  0
SOLID
  5
10F54
  8
WAKU
  6
CONTINUOUS
 10
396.941687
 20
287.592308
 30
0.0
 11
395.864763
 21
287.592308
 31
0.0
 12
395.452208
 22
283.5
 32
0.0
 13
395.452208
 23
283.5
 33
0.0
  0
SOLID
  5
10F55
  8
WAKU
  6
CONTINUOUS
 10
374.950827
 20
287.596289
 30
0.0
 11
374.556361
 21
287.569864
 31
0.0
 12
374.865984
 22
287.166134
 32
0.0
 13
374.865984
 23
287.166134
 33
0.0
  0
SOLID
  5
10F56
  8
WAKU
  6
CONTINUOUS
 10
374.328925
 20
287.761987
 30
0.0
 11
373.661353
 21
287.159534
 31
0.0
 12
374.156732
 22
287.28503
 32
0.0
 13
374.156732
 23
287.28503
 33
0.0
  0
SOLID
  5
10F57
  8
WAKU
  6
CONTINUOUS
 10
373.932071
 20
287.790402
 30
0.0
 11
373.661353
 21
287.159534
 31
0.0
 12
374.328925
 22
287.761987
 32
0.0
 13
374.328925
 23
287.761987
 33
0.0
  0
SOLID
  5
10F58
  8
WAKU
  6
CONTINUOUS
 10
371.997783
 20
287.832235
 30
0.0
 11
371.505632
 21
287.424128
 31
0.0
 12
372.202181
 22
287.498991
 32
0.0
 13
372.202181
 23
287.498991
 33
0.0
  0
SOLID
  5
10F59
  8
WAKU
  6
CONTINUOUS
 10
374.561802
 20
287.877253
 30
0.0
 11
374.556361
 21
287.569864
 31
0.0
 12
374.950827
 22
287.596289
 32
0.0
 13
374.950827
 23
287.596289
 33
0.0
  0
SOLID
  5
10F5A
  8
WAKU
  6
CONTINUOUS
 10
372.879878
 20
287.940057
 30
0.0
 11
371.997783
 21
287.832235
 31
0.0
 12
372.202181
 22
287.498991
 32
0.0
 13
372.202181
 23
287.498991
 33
0.0
  0
SOLID
  5
10F5B
  8
WAKU
  6
CONTINUOUS
 10
370.950599
 20
287.96948
 30
0.0
 11
370.501795
 21
287.520677
 31
0.0
 12
370.996098
 22
287.475108
 32
0.0
 13
370.996098
 23
287.475108
 33
0.0
  0
SOLID
  5
10F5C
  8
WAKU
  6
CONTINUOUS
 10
374.940915
 20
287.971493
 30
0.0
 11
374.561802
 21
287.877253
 31
0.0
 12
374.950827
 22
287.596289
 32
0.0
 13
374.950827
 23
287.596289
 33
0.0
  0
SOLID
  5
10F5D
  8
WAKU
  6
CONTINUOUS
 10
374.502951
 20
288.077918
 30
0.0
 11
374.561802
 21
287.877253
 31
0.0
 12
374.940915
 22
287.971493
 32
0.0
 13
374.940915
 23
287.971493
 33
0.0
  0
SOLID
  5
10F5E
  8
WAKU
  6
CONTINUOUS
 10
405.753055
 20
288.130769
 30
0.0
 11
405.282694
 21
286.838462
 31
0.0
 12
408.513463
 22
286.838462
 32
0.0
 13
408.513463
 23
286.838462
 33
0.0
  0
SOLID
  5
10F5F
  8
WAKU
  6
CONTINUOUS
 10
408.983824
 20
288.130769
 30
0.0
 11
405.753055
 21
288.130769
 31
0.0
 12
408.513463
 22
286.838462
 32
0.0
 13
408.513463
 23
286.838462
 33
0.0
  0
SOLID
  5
10F60
  8
WAKU
  6
CONTINUOUS
 10
372.504269
 20
288.173821
 30
0.0
 11
371.997783
 21
287.832235
 31
0.0
 12
372.879878
 22
287.940057
 32
0.0
 13
372.879878
 23
287.940057
 33
0.0
  0
SOLID
  5
10F61
  8
WAKU
  6
CONTINUOUS
 10
374.40481
 20
288.196249
 30
0.0
 11
373.932071
 21
287.790402
 31
0.0
 12
374.328925
 22
287.761987
 32
0.0
 13
374.328925
 23
287.761987
 33
0.0
  0
SOLID
  5
10F62
  8
WAKU
  6
CONTINUOUS
 10
374.40481
 20
288.196249
 30
0.0
 11
374.502951
 21
288.077918
 31
0.0
 12
374.940915
 22
287.971493
 32
0.0
 13
374.940915
 23
287.971493
 33
0.0
  0
SOLID
  5
10F63
  8
WAKU
  6
CONTINUOUS
 10
373.510738
 20
288.21124
 30
0.0
 11
372.504269
 21
288.173821
 31
0.0
 12
372.879878
 22
287.940057
 32
0.0
 13
372.879878
 23
287.940057
 33
0.0
  0
SOLID
  5
10F64
  8
WAKU
  6
CONTINUOUS
 10
371.954587
 20
288.264284
 30
0.0
 11
370.950599
 21
287.96948
 31
0.0
 12
370.996098
 22
287.475108
 32
0.0
 13
370.996098
 23
287.475108
 33
0.0
  0
SOLID
  5
10F65
  8
WAKU
  6
CONTINUOUS
 10
374.836612
 20
288.277967
 30
0.0
 11
374.40481
 21
288.196249
 31
0.0
 12
374.940915
 22
287.971493
 32
0.0
 13
374.940915
 23
287.971493
 33
0.0
  0
SOLID
  5
10F66
  8
WAKU
  6
CONTINUOUS
 10
374.019229
 20
288.298569
 30
0.0
 11
372.504269
 21
288.173821
 31
0.0
 12
373.510738
 22
288.21124
 32
0.0
 13
373.510738
 23
288.21124
 33
0.0
  0
SOLID
  5
10F67
  8
WAKU
  6
CONTINUOUS
 10
374.019229
 20
288.298569
 30
0.0
 11
374.40481
 21
288.196249
 31
0.0
 12
374.836612
 22
288.277967
 32
0.0
 13
374.836612
 23
288.277967
 33
0.0
  0
SOLID
  5
10F68
  8
WAKU
  6
CONTINUOUS
 10
374.019229
 20
288.298569
 30
0.0
 11
373.932071
 21
287.790402
 31
0.0
 12
374.40481
 22
288.196249
 32
0.0
 13
374.40481
 23
288.196249
 33
0.0
  0
SOLID
  5
10F69
  8
WAKU
  6
CONTINUOUS
 10
371.431374
 20
288.369826
 30
0.0
 11
370.950599
 21
287.96948
 31
0.0
 12
371.954587
 22
288.264284
 32
0.0
 13
371.954587
 23
288.264284
 33
0.0
  0
SOLID
  5
10F6A
  8
WAKU
  6
CONTINUOUS
 10
373.005639
 20
288.435768
 30
0.0
 11
372.504269
 21
288.173821
 31
0.0
 12
374.019229
 22
288.298569
 32
0.0
 13
374.019229
 23
288.298569
 33
0.0
  0
SOLID
  5
10F6B
  8
WAKU
  6
CONTINUOUS
 10
374.641749
 20
288.504452
 30
0.0
 11
373.005639
 21
288.435768
 31
0.0
 12
374.019229
 22
288.298569
 32
0.0
 13
374.019229
 23
288.298569
 33
0.0
  0
SOLID
  5
10F6C
  8
WAKU
  6
CONTINUOUS
 10
374.641749
 20
288.504452
 30
0.0
 11
374.019229
 21
288.298569
 31
0.0
 12
374.836612
 22
288.277967
 32
0.0
 13
374.836612
 23
288.277967
 33
0.0
  0
SOLID
  5
10F6D
  8
WAKU
  6
CONTINUOUS
 10
372.440235
 20
288.547585
 30
0.0
 11
371.431374
 21
288.369826
 31
0.0
 12
371.954587
 22
288.264284
 32
0.0
 13
371.954587
 23
288.264284
 33
0.0
  0
SOLID
  5
10F6E
  8
WAKU
  6
CONTINUOUS
 10
373.482636
 20
288.608014
 30
0.0
 11
373.005639
 21
288.435768
 31
0.0
 12
374.641749
 22
288.504452
 32
0.0
 13
374.641749
 23
288.504452
 33
0.0
  0
SOLID
  5
10F6F
  8
WAKU
  6
CONTINUOUS
 10
374.363484
 20
288.64263
 30
0.0
 11
373.482636
 21
288.608014
 31
0.0
 12
374.641749
 22
288.504452
 32
0.0
 13
374.641749
 23
288.504452
 33
0.0
  0
SOLID
  5
10F70
  8
WAKU
  6
CONTINUOUS
 10
373.916941
 20
288.683944
 30
0.0
 11
373.482636
 21
288.608014
 31
0.0
 12
374.363484
 22
288.64263
 32
0.0
 13
374.363484
 23
288.64263
 33
0.0
  0
SOLID
  5
10F71
  8
WAKU
  6
CONTINUOUS
 10
371.926464
 20
288.70701
 30
0.0
 11
371.431374
 21
288.369826
 31
0.0
 12
372.440235
 22
288.547585
 32
0.0
 13
372.440235
 23
288.547585
 33
0.0
  0
SOLID
  5
10F72
  8
WAKU
  6
CONTINUOUS
 10
372.89514
 20
288.740065
 30
0.0
 11
371.926464
 21
288.70701
 31
0.0
 12
372.440235
 22
288.547585
 32
0.0
 13
372.440235
 23
288.547585
 33
0.0
  0
SOLID
  5
10F73
  8
WAKU
  6
CONTINUOUS
 10
380.311313
 20
288.776923
 30
0.0
 11
377.155205
 21
286.192308
 31
0.0
 12
380.493667
 22
286.192308
 32
0.0
 13
380.493667
 23
286.192308
 33
0.0
  0
SOLID
  5
10F74
  8
WAKU
  6
CONTINUOUS
 10
381.524851
 20
288.776923
 30
0.0
 11
378.095928
 21
288.776923
 31
0.0
 12
380.311313
 22
288.776923
 32
0.0
 13
380.311313
 23
288.776923
 33
0.0
  0
SOLID
  5
10F75
  8
WAKU
  6
CONTINUOUS
 10
381.524851
 20
288.776923
 30
0.0
 11
380.311313
 21
288.776923
 31
0.0
 12
380.493667
 22
286.192308
 32
0.0
 13
380.493667
 23
286.192308
 33
0.0
  0
SOLID
  5
10F76
  8
WAKU
  6
CONTINUOUS
 10
381.524851
 20
288.776923
 30
0.0
 11
380.493667
 21
286.192308
 31
0.0
 12
382.755205
 22
286.192308
 32
0.0
 13
382.755205
 23
286.192308
 33
0.0
  0
SOLID
  5
10F77
  8
WAKU
  6
CONTINUOUS
 10
373.799148
 20
288.781929
 30
0.0
 11
373.916941
 21
288.683944
 31
0.0
 12
374.363484
 22
288.64263
 32
0.0
 13
374.363484
 23
288.64263
 33
0.0
  0
SOLID
  5
10F78
  8
WAKU
  6
CONTINUOUS
 10
373.290857
 20
288.835581
 30
0.0
 11
371.926464
 21
288.70701
 31
0.0
 12
372.89514
 22
288.740065
 32
0.0
 13
372.89514
 23
288.740065
 33
0.0
  0
SOLID
  5
10F79
  8
WAKU
  6
CONTINUOUS
 10
373.597996
 20
288.840902
 30
0.0
 11
373.799148
 21
288.781929
 31
0.0
 12
374.363484
 22
288.64263
 32
0.0
 13
374.363484
 23
288.64263
 33
0.0
  0
SOLID
  5
10F7A
  8
WAKU
  6
CONTINUOUS
 10
402.042817
 20
288.884615
 30
0.0
 11
400.181958
 21
286.730769
 31
0.0
 12
401.258881
 22
286.730769
 32
0.0
 13
401.258881
 23
286.730769
 33
0.0
  0
SOLID
  5
10F7B
  8
WAKU
  6
CONTINUOUS
 10
402.796663
 20
288.884615
 30
0.0
 11
401.424776
 21
285.115385
 31
0.0
 12
401.913747
 22
283.5
 32
0.0
 13
401.913747
 23
283.5
 33
0.0
  0
SOLID
  5
10F7C
  8
WAKU
  6
CONTINUOUS
 10
403.873587
 20
288.884615
 30
0.0
 11
402.796663
 21
288.884615
 31
0.0
 12
401.913747
 22
283.5
 32
0.0
 13
401.913747
 23
283.5
 33
0.0
  0
SOLID
  5
10F7D
  8
WAKU
  6
CONTINUOUS
 10
400.965894
 20
288.884615
 30
0.0
 11
400.181958
 21
286.730769
 31
0.0
 12
402.042817
 22
288.884615
 32
0.0
 13
402.042817
 23
288.884615
 33
0.0
  0
SOLID
  5
10F7E
  8
WAKU
  6
CONTINUOUS
 10
399.858881
 20
286.730769
 30
0.0
 11
400.642817
 21
288.884615
 31
0.0
 12
399.565894
 22
288.884615
 32
0.0
 13
399.565894
 23
288.884615
 33
0.0
  0
SOLID
  5
10F7F
  8
WAKU
  6
CONTINUOUS
 10
399.565894
 20
288.884615
 30
0.0
 11
398.781958
 21
286.730769
 31
0.0
 12
399.858881
 22
286.730769
 32
0.0
 13
399.858881
 23
286.730769
 33
0.0
  0
SOLID
  5
10F80
  8
WAKU
  6
CONTINUOUS
 10
374.225306
 20
288.920895
 30
0.0
 11
373.597996
 21
288.840902
 31
0.0
 12
374.363484
 22
288.64263
 32
0.0
 13
374.363484
 23
288.64263
 33
0.0
  0
SOLID
  5
10F81
  8
WAKU
  6
CONTINUOUS
 10
372.417683
 20
288.968648
 30
0.0
 11
373.597996
 21
288.840902
 31
0.0
 12
374.225306
 22
288.920895
 32
0.0
 13
374.225306
 23
288.920895
 33
0.0
  0
SOLID
  5
10F82
  8
WAKU
  6
CONTINUOUS
 10
372.417683
 20
288.968648
 30
0.0
 11
373.290857
 21
288.835581
 31
0.0
 12
373.597996
 22
288.840902
 32
0.0
 13
373.597996
 23
288.840902
 33
0.0
  0
SOLID
  5
10F83
  8
WAKU
  6
CONTINUOUS
 10
372.417683
 20
288.968648
 30
0.0
 11
371.926464
 21
288.70701
 31
0.0
 12
373.290857
 22
288.835581
 32
0.0
 13
373.290857
 23
288.835581
 33
0.0
  0
SOLID
  5
10F84
  8
WAKU
  6
CONTINUOUS
 10
373.998821
 20
289.115757
 30
0.0
 11
372.417683
 21
288.968648
 31
0.0
 12
374.225306
 22
288.920895
 32
0.0
 13
374.225306
 23
288.920895
 33
0.0
  0
SOLID
  5
10F85
  8
WAKU
  6
CONTINUOUS
 10
372.886988
 20
289.145129
 30
0.0
 11
372.417683
 21
288.968648
 31
0.0
 12
373.998821
 22
289.115757
 32
0.0
 13
373.998821
 23
289.115757
 33
0.0
  0
SOLID
  5
10F86
  8
WAKU
  6
CONTINUOUS
 10
396.941687
 20
287.592308
 30
0.0
 11
396.452715
 21
289.207692
 31
0.0
 12
393.760408
 22
289.207692
 32
0.0
 13
393.760408
 23
289.207692
 33
0.0
  0
SOLID
  5
10F87
  8
WAKU
  6
CONTINUOUS
 10
396.452715
 20
289.207692
 30
0.0
 11
396.941687
 21
287.592308
 31
0.0
 12
397.749379
 22
287.592308
 32
0.0
 13
397.749379
 23
287.592308
 33
0.0
  0
SOLID
  5
10F88
  8
WAKU
  6
CONTINUOUS
 10
393.760408
 20
289.207692
 30
0.0
 11
391.28784
 21
287.592308
 31
0.0
 12
396.941687
 22
287.592308
 32
0.0
 13
396.941687
 23
287.592308
 33
0.0
  0
SOLID
  5
10F89
  8
WAKU
  6
CONTINUOUS
 10
398.337331
 20
289.207692
 30
0.0
 11
396.452715
 21
289.207692
 31
0.0
 12
397.749379
 22
287.592308
 32
0.0
 13
397.749379
 23
287.592308
 33
0.0
  0
SOLID
  5
10F8A
  8
WAKU
  6
CONTINUOUS
 10
391.875792
 20
289.207692
 30
0.0
 11
391.28784
 21
287.592308
 31
0.0
 12
393.760408
 22
289.207692
 32
0.0
 13
393.760408
 23
289.207692
 33
0.0
  0
SOLID
  5
10F8B
  8
WAKU
  6
CONTINUOUS
 10
393.760408
 20
289.207692
 30
0.0
 11
392.683485
 21
289.207692
 31
0.0
 12
391.875792
 22
289.207692
 32
0.0
 13
391.875792
 23
289.207692
 33
0.0
  0
SOLID
  5
10F8C
  8
WAKU
  6
CONTINUOUS
 10
397.529638
 20
289.207692
 30
0.0
 11
396.452715
 21
289.207692
 31
0.0
 12
398.337331
 22
289.207692
 32
0.0
 13
398.337331
 23
289.207692
 33
0.0
  0
SOLID
  5
10F8D
  8
WAKU
  6
CONTINUOUS
 10
373.692348
 20
289.22006
 30
0.0
 11
372.886988
 21
289.145129
 31
0.0
 12
373.998821
 22
289.115757
 32
0.0
 13
373.998821
 23
289.115757
 33
0.0
  0
SOLID
  5
10F8E
  8
WAKU
  6
CONTINUOUS
 10
373.317143
 20
289.229972
 30
0.0
 11
372.886988
 21
289.145129
 31
0.0
 12
373.692348
 22
289.22006
 32
0.0
 13
373.692348
 23
289.22006
 33
0.0
  0
SOLID
  5
10F8F
  8
WAKU
  6
CONTINUOUS
 10
378.723077
 20
290.5
 30
0.0
 11
381.524851
 21
288.776923
 31
0.0
 12
383.695928
 22
288.776923
 32
0.0
 13
383.695928
 23
288.776923
 33
0.0
  0
SOLID
  5
10F90
  8
WAKU
  6
CONTINUOUS
 10
378.723077
 20
290.5
 30
0.0
 11
378.095928
 21
288.776923
 31
0.0
 12
381.524851
 22
288.776923
 32
0.0
 13
381.524851
 23
288.776923
 33
0.0
  0
SOLID
  5
10F91
  8
WAKU
  6
CONTINUOUS
 10
372.249053
 20
290.5
 30
0.0
 11
367.971276
 21
290.5
 31
0.0
 12
367.971276
 22
286.222222
 32
0.0
 13
367.971276
 23
286.222222
 33
0.0
  0
SOLID
  5
10F92
  8
WAKU
  6
CONTINUOUS
 10
409.219005
 20
288.776923
 30
0.0
 11
409.846154
 21
290.5
 31
0.0
 12
406.615385
 22
290.5
 32
0.0
 13
406.615385
 23
290.5
 33
0.0
  0
SOLID
  5
10F93
  8
WAKU
  6
CONTINUOUS
 10
406.615385
 20
290.5
 30
0.0
 11
405.988236
 21
288.776923
 31
0.0
 12
409.219005
 22
288.776923
 32
0.0
 13
409.219005
 23
288.776923
 33
0.0
  0
SOLID
  5
10F94
  8
WAKU
  6
CONTINUOUS
 10
392.683485
 20
289.207692
 30
0.0
 11
394.230769
 21
290.5
 31
0.0
 12
393.153846
 22
290.5
 32
0.0
 13
393.153846
 23
290.5
 33
0.0
  0
SOLID
  5
10F95
  8
WAKU
  6
CONTINUOUS
 10
394.230769
 20
290.5
 30
0.0
 11
392.683485
 21
289.207692
 31
0.0
 12
393.760408
 22
289.207692
 32
0.0
 13
393.760408
 23
289.207692
 33
0.0
  0
SOLID
  5
10F96
  8
WAKU
  6
CONTINUOUS
 10
409.159221
 20
285.653846
 30
0.0
 11
412.0
 21
290.5
 31
0.0
 12
410.923077
 22
290.5
 32
0.0
 13
410.923077
 23
290.5
 33
0.0
  0
SOLID
  5
10F97
  8
WAKU
  6
CONTINUOUS
 10
412.0
 20
290.5
 30
0.0
 11
409.159221
 21
285.653846
 31
0.0
 12
409.452208
 22
283.5
 32
0.0
 13
409.452208
 23
283.5
 33
0.0
  0
SOLID
  5
10F98
  8
WAKU
  6
CONTINUOUS
 10
384.323077
 20
290.5
 30
0.0
 11
378.723077
 21
290.5
 31
0.0
 12
383.695928
 22
288.776923
 32
0.0
 13
383.695928
 23
288.776923
 33
0.0
  0
SOLID
  5
10F99
  8
WAKU
  6
CONTINUOUS
 10
385.615385
 20
290.5
 30
0.0
 11
384.988236
 21
288.776923
 31
0.0
 12
390.372851
 22
288.776923
 32
0.0
 13
390.372851
 23
288.776923
 33
0.0
  0
SOLID
  5
10F9A
  8
WAKU
  6
CONTINUOUS
 10
396.923077
 20
290.5
 30
0.0
 11
396.452715
 21
289.207692
 31
0.0
 12
397.529638
 22
289.207692
 32
0.0
 13
397.529638
 23
289.207692
 33
0.0
  0
SOLID
  5
10F9B
  8
WAKU
  6
CONTINUOUS
 10
391.0
 20
290.5
 30
0.0
 11
385.615385
 21
290.5
 31
0.0
 12
390.372851
 22
288.776923
 32
0.0
 13
390.372851
 23
288.776923
 33
0.0
  0
SOLID
  5
10F9C
  8
WAKU
  6
CONTINUOUS
 10
398.0
 20
290.5
 30
0.0
 11
396.923077
 21
290.5
 31
0.0
 12
397.529638
 22
289.207692
 32
0.0
 13
397.529638
 23
289.207692
 33
0.0
  0
ENDBLK
  5
10F9E
  8
0
  0
ENDSEC
  0
SECTION
  2
ENTITIES
  0
LINE
  5
43
  8
WAKU
 10
415.0
 20
292.0
 30
0.0
 11
415.0
 21
5.0
 31
0.0
  0
LINE
  5
46
  8
WAKU
 10
5.0
 20
292.0
 30
0.0
 11
5.0
 21
5.0
 31
0.0
  0
LINE
  5
55
  8
WAKU
 10
5.0
 20
5.0
 30
0.0
 11
415.0
 21
5.0
 31
0.0
  0
LINE
  5
571
  8
WAKU
 10
5.0
 20
292.0
 30
0.0
 11
415.0
 21
292.0
 31
0.0
  0
LINE
  5
572
  8
WAKU
 10
5.0
 20
282.0
 30
0.0
 11
415.0
 21
282.0
 31
0.0
  0
LINE
  5
CBC
  8
WAKU
  6
CONTINUOUS
 10
393.760408
 20
289.207692
 30
0.0
 11
396.452715
 21
289.207692
 31
0.0
  0
LINE
  5
CBD
  8
WAKU
  6
CONTINUOUS
 10
393.172456
 20
287.592308
 30
0.0
 11
395.864763
 21
287.592308
 31
0.0
  0
LINE
  5
CBE
  8
WAKU
  6
CONTINUOUS
 10
390.39067
 20
283.5
 30
0.0
 11
395.452208
 21
283.5
 31
0.0
  0
LINE
  5
CBF
  8
WAKU
  6
CONTINUOUS
 10
395.159221
 20
285.653846
 30
0.0
 11
395.864763
 21
287.592308
 31
0.0
  0
LINE
  5
CC0
  8
WAKU
  6
CONTINUOUS
 10
367.971276
 20
290.5
 30
0.0
 11
372.249053
 21
290.5
 31
0.0
  0
LINE
  5
CC1
  8
WAKU
  6
CONTINUOUS
 10
367.971276
 20
286.222222
 30
0.0
 11
372.249053
 21
290.5
 31
0.0
  0
LINE
  5
CC2
  8
WAKU
  6
CONTINUOUS
 10
367.971276
 20
290.5
 30
0.0
 11
367.971276
 21
286.222222
 31
0.0
  0
LINE
  5
CC3
  8
WAKU
  6
CONTINUOUS
 10
381.524851
 20
288.776923
 30
0.0
 11
383.695928
 21
288.776923
 31
0.0
  0
LINE
  5
CC4
  8
WAKU
  6
CONTINUOUS
 10
378.723077
 20
290.5
 30
0.0
 11
384.323077
 21
290.5
 31
0.0
  0
LINE
  5
CC5
  8
WAKU
  6
CONTINUOUS
 10
380.311313
 20
288.776923
 30
0.0
 11
377.155205
 21
286.192308
 31
0.0
  0
LINE
  5
CC6
  8
WAKU
  6
CONTINUOUS
 10
381.524851
 20
288.776923
 30
0.0
 11
382.755205
 21
286.192308
 31
0.0
  0
LINE
  5
CC7
  8
WAKU
  6
CONTINUOUS
 10
376.175285
 20
283.5
 30
0.0
 11
377.155205
 21
286.192308
 31
0.0
  0
LINE
  5
CC8
  8
WAKU
  6
CONTINUOUS
 10
379.397145
 20
286.138462
 30
0.0
 11
376.175285
 21
283.5
 31
0.0
  0
LINE
  5
CC9
  8
WAKU
  6
CONTINUOUS
 10
381.775285
 20
283.5
 30
0.0
 11
382.755205
 21
286.192308
 31
0.0
  0
LINE
  5
CCA
  8
WAKU
  6
CONTINUOUS
 10
380.493667
 20
286.192308
 30
0.0
 11
381.775285
 21
283.5
 31
0.0
  0
LINE
  5
CCB
  8
WAKU
  6
CONTINUOUS
 10
379.513747
 20
283.5
 30
0.0
 11
380.493667
 21
286.192308
 31
0.0
  0
LINE
  5
CCC
  8
WAKU
  6
CONTINUOUS
 10
378.436824
 20
283.5
 30
0.0
 11
379.513747
 21
283.5
 31
0.0
  0
LINE
  5
CCD
  8
WAKU
  6
CONTINUOUS
 10
378.436824
 20
283.5
 30
0.0
 11
379.397145
 21
286.138462
 31
0.0
  0
LINE
  5
CCE
  8
WAKU
  6
CONTINUOUS
 10
378.095928
 20
288.776923
 30
0.0
 11
380.311313
 21
288.776923
 31
0.0
  0
LINE
  5
CCF
  8
WAKU
  6
CONTINUOUS
 10
378.723077
 20
290.5
 30
0.0
 11
378.095928
 21
288.776923
 31
0.0
  0
LINE
  5
CD0
  8
WAKU
  6
CONTINUOUS
 10
392.780488
 20
286.515385
 30
0.0
 11
393.172456
 21
287.592308
 31
0.0
  0
LINE
  5
CD1
  8
WAKU
  6
CONTINUOUS
 10
391.703565
 20
286.515385
 30
0.0
 11
392.095533
 21
287.592308
 31
0.0
  0
LINE
  5
CD2
  8
WAKU
  6
CONTINUOUS
 10
388.452208
 20
283.5
 30
0.0
 11
389.236144
 21
285.653846
 31
0.0
  0
LINE
  5
CD3
  8
WAKU
  6
CONTINUOUS
 10
383.851529
 20
285.653846
 30
0.0
 11
389.236144
 21
285.653846
 31
0.0
  0
LINE
  5
CD4
  8
WAKU
  6
CONTINUOUS
 10
383.067593
 20
283.5
 30
0.0
 11
383.851529
 21
285.653846
 31
0.0
  0
LINE
  5
CD5
  8
WAKU
  6
CONTINUOUS
 10
383.067593
 20
283.5
 30
0.0
 11
388.452208
 21
283.5
 31
0.0
  0
LINE
  5
CD6
  8
WAKU
  6
CONTINUOUS
 10
391.174606
 20
285.653846
 30
0.0
 11
395.159221
 21
285.653846
 31
0.0
  0
LINE
  5
CD7
  8
WAKU
  6
CONTINUOUS
 10
391.703565
 20
286.515385
 30
0.0
 11
392.780488
 21
286.515385
 31
0.0
  0
LINE
  5
CD8
  8
WAKU
  6
CONTINUOUS
 10
390.39067
 20
283.5
 30
0.0
 11
391.174606
 21
285.653846
 31
0.0
  0
LINE
  5
CD9
  8
WAKU
  6
CONTINUOUS
 10
384.988236
 20
288.776923
 30
0.0
 11
390.372851
 21
288.776923
 31
0.0
  0
LINE
  5
CDA
  8
WAKU
  6
CONTINUOUS
 10
385.615385
 20
290.5
 30
0.0
 11
391.0
 21
290.5
 31
0.0
  0
LINE
  5
CDB
  8
WAKU
  6
CONTINUOUS
 10
384.988236
 20
288.776923
 30
0.0
 11
385.615385
 21
290.5
 31
0.0
  0
LINE
  5
CDC
  8
WAKU
  6
CONTINUOUS
 10
384.323077
 20
290.5
 30
0.0
 11
383.695928
 21
288.776923
 31
0.0
  0
LINE
  5
CDD
  8
WAKU
  6
CONTINUOUS
 10
393.153846
 20
290.5
 30
0.0
 11
394.230769
 21
290.5
 31
0.0
  0
LINE
  5
CDE
  8
WAKU
  6
CONTINUOUS
 10
393.760408
 20
289.207692
 30
0.0
 11
394.230769
 21
290.5
 31
0.0
  0
LINE
  5
CDF
  8
WAKU
  6
CONTINUOUS
 10
391.875792
 20
289.207692
 30
0.0
 11
392.683485
 21
289.207692
 31
0.0
  0
LINE
  5
CE0
  8
WAKU
  6
CONTINUOUS
 10
391.28784
 20
287.592308
 30
0.0
 11
392.095533
 21
287.592308
 31
0.0
  0
LINE
  5
CE1
  8
WAKU
  6
CONTINUOUS
 10
391.28784
 20
287.592308
 30
0.0
 11
391.875792
 21
289.207692
 31
0.0
  0
LINE
  5
CE2
  8
WAKU
  6
CONTINUOUS
 10
392.683485
 20
289.207692
 30
0.0
 11
393.153846
 21
290.5
 31
0.0
  0
LINE
  5
CE3
  8
WAKU
  6
CONTINUOUS
 10
390.372851
 20
288.776923
 30
0.0
 11
391.0
 21
290.5
 31
0.0
  0
LINE
  5
CE4
  8
WAKU
  6
CONTINUOUS
 10
405.753055
 20
288.130769
 30
0.0
 11
408.983824
 21
288.130769
 31
0.0
  0
LINE
  5
CE5
  8
WAKU
  6
CONTINUOUS
 10
405.282694
 20
286.838462
 30
0.0
 11
408.513463
 21
286.838462
 31
0.0
  0
LINE
  5
CE6
  8
WAKU
  6
CONTINUOUS
 10
409.452208
 20
283.5
 30
0.0
 11
404.067593
 21
283.5
 31
0.0
  0
LINE
  5
CE7
  8
WAKU
  6
CONTINUOUS
 10
404.851529
 20
285.653846
 30
0.0
 11
409.159221
 21
285.653846
 31
0.0
  0
LINE
  5
CE8
  8
WAKU
  6
CONTINUOUS
 10
405.988236
 20
288.776923
 30
0.0
 11
409.219005
 21
288.776923
 31
0.0
  0
LINE
  5
CE9
  8
WAKU
  6
CONTINUOUS
 10
406.615385
 20
290.5
 30
0.0
 11
409.846154
 21
290.5
 31
0.0
  0
LINE
  5
CEA
  8
WAKU
  6
CONTINUOUS
 10
398.781958
 20
286.730769
 30
0.0
 11
399.565894
 21
288.884615
 31
0.0
  0
LINE
  5
CEB
  8
WAKU
  6
CONTINUOUS
 10
400.181958
 20
286.730769
 30
0.0
 11
400.965894
 21
288.884615
 31
0.0
  0
LINE
  5
CEC
  8
WAKU
  6
CONTINUOUS
 10
399.858881
 20
286.730769
 30
0.0
 11
400.642817
 21
288.884615
 31
0.0
  0
LINE
  5
CED
  8
WAKU
  6
CONTINUOUS
 10
401.258881
 20
286.730769
 30
0.0
 11
402.042817
 21
288.884615
 31
0.0
  0
LINE
  5
CEE
  8
WAKU
  6
CONTINUOUS
 10
401.913747
 20
283.5
 30
0.0
 11
403.873587
 21
288.884615
 31
0.0
  0
LINE
  5
CEF
  8
WAKU
  6
CONTINUOUS
 10
401.424776
 20
285.115385
 30
0.0
 11
402.796663
 21
288.884615
 31
0.0
  0
LINE
  5
CF0
  8
WAKU
  6
CONTINUOUS
 10
395.452208
 20
283.5
 30
0.0
 11
396.941687
 21
287.592308
 31
0.0
  0
LINE
  5
CF1
  8
WAKU
  6
CONTINUOUS
 10
397.606055
 20
283.5
 30
0.0
 11
401.913747
 21
283.5
 31
0.0
  0
LINE
  5
CF2
  8
WAKU
  6
CONTINUOUS
 10
398.781958
 20
286.730769
 30
0.0
 11
399.858881
 21
286.730769
 31
0.0
  0
LINE
  5
CF3
  8
WAKU
  6
CONTINUOUS
 10
398.194006
 20
285.115385
 30
0.0
 11
401.424776
 21
285.115385
 31
0.0
  0
LINE
  5
CF4
  8
WAKU
  6
CONTINUOUS
 10
397.606055
 20
283.5
 30
0.0
 11
398.194006
 21
285.115385
 31
0.0
  0
LINE
  5
CF5
  8
WAKU
  6
CONTINUOUS
 10
400.181958
 20
286.730769
 30
0.0
 11
401.258881
 21
286.730769
 31
0.0
  0
LINE
  5
CF6
  8
WAKU
  6
CONTINUOUS
 10
404.067593
 20
283.5
 30
0.0
 11
404.851529
 21
285.653846
 31
0.0
  0
LINE
  5
CF7
  8
WAKU
  6
CONTINUOUS
 10
400.965894
 20
288.884615
 30
0.0
 11
402.042817
 21
288.884615
 31
0.0
  0
LINE
  5
CF8
  8
WAKU
  6
CONTINUOUS
 10
396.923077
 20
290.5
 30
0.0
 11
398.0
 21
290.5
 31
0.0
  0
LINE
  5
CF9
  8
WAKU
  6
CONTINUOUS
 10
397.529638
 20
289.207692
 30
0.0
 11
398.0
 21
290.5
 31
0.0
  0
LINE
  5
CFA
  8
WAKU
  6
CONTINUOUS
 10
397.529638
 20
289.207692
 30
0.0
 11
398.337331
 21
289.207692
 31
0.0
  0
LINE
  5
CFB
  8
WAKU
  6
CONTINUOUS
 10
396.941687
 20
287.592308
 30
0.0
 11
397.749379
 21
287.592308
 31
0.0
  0
LINE
  5
CFC
  8
WAKU
  6
CONTINUOUS
 10
397.749379
 20
287.592308
 30
0.0
 11
398.337331
 21
289.207692
 31
0.0
  0
LINE
  5
CFD
  8
WAKU
  6
CONTINUOUS
 10
399.565894
 20
288.884615
 30
0.0
 11
400.642817
 21
288.884615
 31
0.0
  0
LINE
  5
CFE
  8
WAKU
  6
CONTINUOUS
 10
396.452715
 20
289.207692
 30
0.0
 11
396.923077
 21
290.5
 31
0.0
  0
LINE
  5
CFF
  8
WAKU
  6
CONTINUOUS
 10
406.615385
 20
290.5
 30
0.0
 11
405.988236
 21
288.776923
 31
0.0
  0
LINE
  5
D00
  8
WAKU
  6
CONTINUOUS
 10
405.753055
 20
288.130769
 30
0.0
 11
405.282694
 21
286.838462
 31
0.0
  0
LINE
  5
D01
  8
WAKU
  6
CONTINUOUS
 10
402.796663
 20
288.884615
 30
0.0
 11
403.873587
 21
288.884615
 31
0.0
  0
LINE
  5
D02
  8
WAKU
  6
CONTINUOUS
 10
409.159221
 20
285.653846
 30
0.0
 11
410.923077
 21
290.5
 31
0.0
  0
LINE
  5
D03
  8
WAKU
  6
CONTINUOUS
 10
409.452208
 20
283.5
 30
0.0
 11
412.0
 21
290.5
 31
0.0
  0
LINE
  5
D04
  8
WAKU
  6
CONTINUOUS
 10
409.219005
 20
288.776923
 30
0.0
 11
409.846154
 21
290.5
 31
0.0
  0
LINE
  5
D05
  8
WAKU
  6
CONTINUOUS
 10
410.923077
 20
290.5
 30
0.0
 11
412.0
 21
290.5
 31
0.0
  0
LINE
  5
D06
  8
WAKU
  6
CONTINUOUS
 10
408.513463
 20
286.838462
 30
0.0
 11
408.983824
 21
288.130769
 31
0.0
  0
LINE
  5
D07
  8
WAKU
  6
CONTINUOUS
 10
369.828646
 20
284.107791
 30
0.0
 11
369.966824
 21
283.829526
 31
0.0
  0
LINE
  5
D08
  8
WAKU
  6
CONTINUOUS
 10
369.966824
 20
283.829526
 30
0.0
 11
370.193309
 21
283.634664
 31
0.0
  0
LINE
  5
D09
  8
WAKU
  6
CONTINUOUS
 10
370.193309
 20
283.634664
 30
0.0
 11
370.499782
 21
283.530361
 31
0.0
  0
LINE
  5
D0A
  8
WAKU
  6
CONTINUOUS
 10
370.499782
 20
283.530361
 30
0.0
 11
370.874987
 21
283.520449
 31
0.0
  0
LINE
  5
D0B
  8
WAKU
  6
CONTINUOUS
 10
370.874987
 20
283.520449
 30
0.0
 11
371.305142
 21
283.605291
 31
0.0
  0
LINE
  5
D0C
  8
WAKU
  6
CONTINUOUS
 10
371.305142
 20
283.605291
 30
0.0
 11
371.774448
 21
283.781773
 31
0.0
  0
LINE
  5
D0D
  8
WAKU
  6
CONTINUOUS
 10
371.774448
 20
283.781773
 30
0.0
 11
372.265666
 21
284.043411
 31
0.0
  0
LINE
  5
D0E
  8
WAKU
  6
CONTINUOUS
 10
372.265666
 20
284.043411
 30
0.0
 11
372.760756
 21
284.380595
 31
0.0
  0
LINE
  5
D0F
  8
WAKU
  6
CONTINUOUS
 10
372.760756
 20
284.380595
 30
0.0
 11
373.241532
 21
284.780941
 31
0.0
  0
LINE
  5
D10
  8
WAKU
  6
CONTINUOUS
 10
373.241532
 20
284.780941
 30
0.0
 11
373.690335
 21
285.229744
 31
0.0
  0
LINE
  5
D11
  8
WAKU
  6
CONTINUOUS
 10
373.690335
 20
285.229744
 30
0.0
 11
374.090681
 21
285.71052
 31
0.0
  0
LINE
  5
D12
  8
WAKU
  6
CONTINUOUS
 10
374.090681
 20
285.71052
 30
0.0
 11
374.427865
 21
286.205609
 31
0.0
  0
LINE
  5
D13
  8
WAKU
  6
CONTINUOUS
 10
374.427865
 20
286.205609
 30
0.0
 11
374.689503
 21
286.696828
 31
0.0
  0
LINE
  5
D14
  8
WAKU
  6
CONTINUOUS
 10
374.689503
 20
286.696828
 30
0.0
 11
374.865984
 21
287.166134
 31
0.0
  0
LINE
  5
D15
  8
WAKU
  6
CONTINUOUS
 10
374.865984
 20
287.166134
 30
0.0
 11
374.950827
 21
287.596289
 31
0.0
  0
LINE
  5
D16
  8
WAKU
  6
CONTINUOUS
 10
374.950827
 20
287.596289
 30
0.0
 11
374.940915
 21
287.971493
 31
0.0
  0
LINE
  5
D17
  8
WAKU
  6
CONTINUOUS
 10
374.940915
 20
287.971493
 30
0.0
 11
374.836612
 21
288.277967
 31
0.0
  0
LINE
  5
D18
  8
WAKU
  6
CONTINUOUS
 10
374.836612
 20
288.277967
 30
0.0
 11
374.641749
 21
288.504452
 31
0.0
  0
LINE
  5
D19
  8
WAKU
  6
CONTINUOUS
 10
374.641749
 20
288.504452
 30
0.0
 11
374.363484
 21
288.64263
 31
0.0
  0
LINE
  5
D1A
  8
WAKU
  6
CONTINUOUS
 10
373.916941
 20
288.683944
 30
0.0
 11
373.482636
 21
288.608014
 31
0.0
  0
LINE
  5
D1B
  8
WAKU
  6
CONTINUOUS
 10
373.482636
 20
288.608014
 30
0.0
 11
373.005639
 21
288.435768
 31
0.0
  0
LINE
  5
D1C
  8
WAKU
  6
CONTINUOUS
 10
373.005639
 20
288.435768
 30
0.0
 11
372.504269
 21
288.173821
 31
0.0
  0
LINE
  5
D1D
  8
WAKU
  6
CONTINUOUS
 10
372.504269
 20
288.173821
 30
0.0
 11
371.997783
 21
287.832235
 31
0.0
  0
LINE
  5
D1E
  8
WAKU
  6
CONTINUOUS
 10
371.997783
 20
287.832235
 30
0.0
 11
371.505632
 21
287.424128
 31
0.0
  0
LINE
  5
D1F
  8
WAKU
  6
CONTINUOUS
 10
371.505632
 20
287.424128
 30
0.0
 11
371.04672
 21
286.965174
 31
0.0
  0
LINE
  5
D20
  8
WAKU
  6
CONTINUOUS
 10
371.04672
 20
286.965174
 30
0.0
 11
370.638671
 21
286.473
 31
0.0
  0
LINE
  5
D21
  8
WAKU
  6
CONTINUOUS
 10
370.638671
 20
286.473
 30
0.0
 11
370.297156
 21
285.966509
 31
0.0
  0
LINE
  5
D22
  8
WAKU
  6
CONTINUOUS
 10
370.297156
 20
285.966509
 30
0.0
 11
370.035293
 21
285.465154
 31
0.0
  0
LINE
  5
D23
  8
WAKU
  6
CONTINUOUS
 10
370.035293
 20
285.465154
 30
0.0
 11
369.863139
 21
284.988189
 31
0.0
  0
LINE
  5
D24
  8
WAKU
  6
CONTINUOUS
 10
369.863139
 20
284.988189
 30
0.0
 11
369.787305
 21
284.553935
 31
0.0
  0
LINE
  5
D25
  8
WAKU
  6
CONTINUOUS
 10
370.172911
 20
284.451856
 30
0.0
 11
370.681395
 21
284.539195
 31
0.0
  0
LINE
  5
D26
  8
WAKU
  6
CONTINUOUS
 10
370.681395
 20
284.539195
 30
0.0
 11
371.312263
 21
284.810332
 31
0.0
  0
LINE
  5
D27
  8
WAKU
  6
CONTINUOUS
 10
371.312263
 20
284.810332
 30
0.0
 11
371.98994
 21
285.251431
 31
0.0
  0
LINE
  5
D28
  8
WAKU
  6
CONTINUOUS
 10
371.98994
 20
285.251431
 30
0.0
 11
372.646296
 21
285.825506
 31
0.0
  0
LINE
  5
D29
  8
WAKU
  6
CONTINUOUS
 10
372.646296
 20
285.825506
 30
0.0
 11
373.220238
 21
286.48192
 31
0.0
  0
LINE
  5
D2A
  8
WAKU
  6
CONTINUOUS
 10
373.220238
 20
286.48192
 30
0.0
 11
373.661353
 21
287.159534
 31
0.0
  0
LINE
  5
D2B
  8
WAKU
  6
CONTINUOUS
 10
373.661353
 20
287.159534
 30
0.0
 11
373.932071
 21
287.790402
 31
0.0
  0
LINE
  5
D2C
  8
WAKU
  6
CONTINUOUS
 10
373.932071
 20
287.790402
 30
0.0
 11
374.019229
 21
288.298569
 31
0.0
  0
LINE
  5
D2D
  8
WAKU
  6
CONTINUOUS
 10
373.916941
 20
288.683944
 30
0.0
 11
373.799148
 21
288.781929
 31
0.0
  0
LINE
  5
D2E
  8
WAKU
  6
CONTINUOUS
 10
373.799148
 20
288.781929
 30
0.0
 11
373.597996
 21
288.840902
 31
0.0
  0
LINE
  5
D2F
  8
WAKU
  6
CONTINUOUS
 10
373.597996
 20
288.840902
 30
0.0
 11
373.290857
 21
288.835581
 31
0.0
  0
LINE
  5
D30
  8
WAKU
  6
CONTINUOUS
 10
373.290857
 20
288.835581
 30
0.0
 11
372.89514
 21
288.740065
 31
0.0
  0
LINE
  5
D31
  8
WAKU
  6
CONTINUOUS
 10
372.89514
 20
288.740065
 30
0.0
 11
372.440235
 21
288.547585
 31
0.0
  0
LINE
  5
D32
  8
WAKU
  6
CONTINUOUS
 10
372.440235
 20
288.547585
 30
0.0
 11
371.954587
 21
288.264284
 31
0.0
  0
LINE
  5
D33
  8
WAKU
  6
CONTINUOUS
 10
371.954587
 20
288.264284
 30
0.0
 11
370.996098
 21
287.475108
 31
0.0
  0
LINE
  5
D34
  8
WAKU
  6
CONTINUOUS
 10
370.996098
 20
287.475108
 30
0.0
 11
370.207035
 21
286.51657
 31
0.0
  0
LINE
  5
D35
  8
WAKU
  6
CONTINUOUS
 10
370.207035
 20
286.51657
 30
0.0
 11
369.923519
 21
286.031028
 31
0.0
  0
LINE
  5
D36
  8
WAKU
  6
CONTINUOUS
 10
369.923519
 20
286.031028
 30
0.0
 11
369.73149
 21
285.576021
 31
0.0
  0
LINE
  5
D37
  8
WAKU
  6
CONTINUOUS
 10
369.73149
 20
285.576021
 30
0.0
 11
369.635696
 21
285.180404
 31
0.0
  0
LINE
  5
D38
  8
WAKU
  6
CONTINUOUS
 10
369.635696
 20
285.180404
 30
0.0
 11
369.630358
 21
284.873087
 31
0.0
  0
LINE
  5
D39
  8
WAKU
  6
CONTINUOUS
 10
369.630358
 20
284.873087
 30
0.0
 11
369.689155
 21
284.672435
 31
0.0
  0
LINE
  5
D3A
  8
WAKU
  6
CONTINUOUS
 10
369.689155
 20
284.672435
 30
0.0
 11
369.787305
 21
284.553935
 31
0.0
  0
LINE
  5
D3B
  8
WAKU
  6
CONTINUOUS
 10
370.275177
 20
284.066476
 30
0.0
 11
370.392927
 21
283.968568
 31
0.0
  0
LINE
  5
D3C
  8
WAKU
  6
CONTINUOUS
 10
370.392927
 20
283.968568
 30
0.0
 11
370.594177
 21
283.909498
 31
0.0
  0
LINE
  5
D3D
  8
WAKU
  6
CONTINUOUS
 10
370.594177
 20
283.909498
 30
0.0
 11
370.901294
 21
283.914863
 31
0.0
  0
LINE
  5
D3E
  8
WAKU
  6
CONTINUOUS
 10
370.901294
 20
283.914863
 30
0.0
 11
371.296984
 21
284.010368
 31
0.0
  0
LINE
  5
D3F
  8
WAKU
  6
CONTINUOUS
 10
371.296984
 20
284.010368
 30
0.0
 11
371.751882
 21
284.202798
 31
0.0
  0
LINE
  5
D40
  8
WAKU
  6
CONTINUOUS
 10
371.751882
 20
284.202798
 30
0.0
 11
372.237497
 21
284.486117
 31
0.0
  0
LINE
  5
D41
  8
WAKU
  6
CONTINUOUS
 10
372.237497
 20
284.486117
 30
0.0
 11
373.195965
 21
285.275232
 31
0.0
  0
LINE
  5
D42
  8
WAKU
  6
CONTINUOUS
 10
373.195965
 20
285.275232
 30
0.0
 11
373.98505
 21
286.233718
 31
0.0
  0
LINE
  5
D43
  8
WAKU
  6
CONTINUOUS
 10
373.98505
 20
286.233718
 30
0.0
 11
374.268507
 21
286.719278
 31
0.0
  0
LINE
  5
D44
  8
WAKU
  6
CONTINUOUS
 10
374.268507
 20
286.719278
 30
0.0
 11
374.46071
 21
287.174248
 31
0.0
  0
LINE
  5
D45
  8
WAKU
  6
CONTINUOUS
 10
374.46071
 20
287.174248
 30
0.0
 11
374.556361
 21
287.569864
 31
0.0
  0
LINE
  5
D46
  8
WAKU
  6
CONTINUOUS
 10
374.556361
 20
287.569864
 30
0.0
 11
374.561802
 21
287.877253
 31
0.0
  0
LINE
  5
D47
  8
WAKU
  6
CONTINUOUS
 10
374.561802
 20
287.877253
 30
0.0
 11
374.502951
 21
288.077918
 31
0.0
  0
LINE
  5
D48
  8
WAKU
  6
CONTINUOUS
 10
374.502951
 20
288.077918
 30
0.0
 11
374.40481
 21
288.196249
 31
0.0
  0
LINE
  5
D49
  8
WAKU
  6
CONTINUOUS
 10
374.019229
 20
288.298569
 30
0.0
 11
373.510738
 21
288.21124
 31
0.0
  0
LINE
  5
D4A
  8
WAKU
  6
CONTINUOUS
 10
373.510738
 20
288.21124
 30
0.0
 11
372.879878
 21
287.940057
 31
0.0
  0
LINE
  5
D4B
  8
WAKU
  6
CONTINUOUS
 10
372.879878
 20
287.940057
 30
0.0
 11
372.202181
 21
287.498991
 31
0.0
  0
LINE
  5
D4C
  8
WAKU
  6
CONTINUOUS
 10
372.202181
 20
287.498991
 30
0.0
 11
371.545827
 21
286.924893
 31
0.0
  0
LINE
  5
D4D
  8
WAKU
  6
CONTINUOUS
 10
371.545827
 20
286.924893
 30
0.0
 11
370.971896
 21
286.268471
 31
0.0
  0
LINE
  5
D4E
  8
WAKU
  6
CONTINUOUS
 10
370.971896
 20
286.268471
 30
0.0
 11
370.530712
 21
285.590875
 31
0.0
  0
LINE
  5
D4F
  8
WAKU
  6
CONTINUOUS
 10
370.530712
 20
285.590875
 30
0.0
 11
370.260168
 21
284.959969
 31
0.0
  0
LINE
  5
D50
  8
WAKU
  6
CONTINUOUS
 10
370.260168
 20
284.959969
 30
0.0
 11
370.172911
 21
284.451856
 31
0.0
  0
LINE
  5
D51
  8
WAKU
  6
CONTINUOUS
 10
370.275177
 20
284.066476
 30
0.0
 11
370.709458
 21
284.142397
 31
0.0
  0
LINE
  5
D52
  8
WAKU
  6
CONTINUOUS
 10
370.709458
 20
284.142397
 30
0.0
 11
371.186428
 21
284.314625
 31
0.0
  0
LINE
  5
D53
  8
WAKU
  6
CONTINUOUS
 10
371.186428
 20
284.314625
 30
0.0
 11
371.68777
 21
284.576545
 31
0.0
  0
LINE
  5
D54
  8
WAKU
  6
CONTINUOUS
 10
371.68777
 20
284.576545
 30
0.0
 11
372.194232
 21
284.918099
 31
0.0
  0
LINE
  5
D55
  8
WAKU
  6
CONTINUOUS
 10
372.194232
 20
284.918099
 30
0.0
 11
372.686363
 21
285.326171
 31
0.0
  0
LINE
  5
D56
  8
WAKU
  6
CONTINUOUS
 10
372.686363
 20
285.326171
 30
0.0
 11
373.145266
 21
285.785089
 31
0.0
  0
LINE
  5
D57
  8
WAKU
  6
CONTINUOUS
 10
373.145266
 20
285.785089
 30
0.0
 11
373.553316
 21
286.277229
 31
0.0
  0
LINE
  5
D58
  8
WAKU
  6
CONTINUOUS
 10
373.553316
 20
286.277229
 30
0.0
 11
373.894843
 21
286.783693
 31
0.0
  0
LINE
  5
D59
  8
WAKU
  6
CONTINUOUS
 10
373.894843
 20
286.783693
 30
0.0
 11
374.156732
 21
287.28503
 31
0.0
  0
LINE
  5
D5A
  8
WAKU
  6
CONTINUOUS
 10
374.156732
 20
287.28503
 30
0.0
 11
374.328925
 21
287.761987
 31
0.0
  0
LINE
  5
D5B
  8
WAKU
  6
CONTINUOUS
 10
374.328925
 20
287.761987
 30
0.0
 11
374.40481
 21
288.196249
 31
0.0
  0
LINE
  5
D5C
  8
WAKU
  6
CONTINUOUS
 10
374.363484
 20
288.64263
 30
0.0
 11
374.225306
 21
288.920895
 31
0.0
  0
LINE
  5
D5D
  8
WAKU
  6
CONTINUOUS
 10
374.225306
 20
288.920895
 30
0.0
 11
373.998821
 21
289.115757
 31
0.0
  0
LINE
  5
D5E
  8
WAKU
  6
CONTINUOUS
 10
373.998821
 20
289.115757
 30
0.0
 11
373.692348
 21
289.22006
 31
0.0
  0
LINE
  5
D5F
  8
WAKU
  6
CONTINUOUS
 10
373.692348
 20
289.22006
 30
0.0
 11
373.317143
 21
289.229972
 31
0.0
  0
LINE
  5
D60
  8
WAKU
  6
CONTINUOUS
 10
373.317143
 20
289.229972
 30
0.0
 11
372.886988
 21
289.145129
 31
0.0
  0
LINE
  5
D61
  8
WAKU
  6
CONTINUOUS
 10
372.886988
 20
289.145129
 30
0.0
 11
372.417683
 21
288.968648
 31
0.0
  0
LINE
  5
D62
  8
WAKU
  6
CONTINUOUS
 10
372.417683
 20
288.968648
 30
0.0
 11
371.926464
 21
288.70701
 31
0.0
  0
LINE
  5
D63
  8
WAKU
  6
CONTINUOUS
 10
371.926464
 20
288.70701
 30
0.0
 11
371.431374
 21
288.369826
 31
0.0
  0
LINE
  5
D64
  8
WAKU
  6
CONTINUOUS
 10
371.431374
 20
288.369826
 30
0.0
 11
370.950599
 21
287.96948
 31
0.0
  0
LINE
  5
D65
  8
WAKU
  6
CONTINUOUS
 10
370.950599
 20
287.96948
 30
0.0
 11
370.501795
 21
287.520677
 31
0.0
  0
LINE
  5
D66
  8
WAKU
  6
CONTINUOUS
 10
370.501795
 20
287.520677
 30
0.0
 11
370.101449
 21
287.039901
 31
0.0
  0
LINE
  5
D67
  8
WAKU
  6
CONTINUOUS
 10
370.101449
 20
287.039901
 30
0.0
 11
369.764265
 21
286.544812
 31
0.0
  0
LINE
  5
D68
  8
WAKU
  6
CONTINUOUS
 10
369.764265
 20
286.544812
 30
0.0
 11
369.502627
 21
286.053593
 31
0.0
  0
LINE
  5
D69
  8
WAKU
  6
CONTINUOUS
 10
369.502627
 20
286.053593
 30
0.0
 11
369.326146
 21
285.584287
 31
0.0
  0
LINE
  5
D6A
  8
WAKU
  6
CONTINUOUS
 10
369.326146
 20
285.584287
 30
0.0
 11
369.241303
 21
285.154132
 31
0.0
  0
LINE
  5
D6B
  8
WAKU
  6
CONTINUOUS
 10
369.241303
 20
285.154132
 30
0.0
 11
369.251215
 21
284.778928
 31
0.0
  0
LINE
  5
D6C
  8
WAKU
  6
CONTINUOUS
 10
369.251215
 20
284.778928
 30
0.0
 11
369.355518
 21
284.472454
 31
0.0
  0
LINE
  5
D6D
  8
WAKU
  6
CONTINUOUS
 10
369.355518
 20
284.472454
 30
0.0
 11
369.550381
 21
284.245969
 31
0.0
  0
LINE
  5
D6E
  8
WAKU
  6
CONTINUOUS
 10
369.550381
 20
284.245969
 30
0.0
 11
369.828646
 21
284.107791
 31
0.0
  0
INSERT
  5
D6F
  8
WAKU
  6
CONTINUOUS
  2
*U5
 10
0.0
 20
0.0
 30
0.0
1001
ACAD
1002
{
1000
R14_HATCH_DATA
1000
D6F
1011
1.0
1021
0.0
1031
0.0
1021
0.0
1031
0.0
1011
0.0
1021
0.0
1031
0.0
1021
1.0
1031
0.0
1011
0.0
1021
0.0
1031
0.0
1021
0.0
1031
1.0
1040
0.0
1010
0.0
1020
0.0
1030
1.0
1000
SOLID
1070
     1
1070
     1
1071
       15
1071
        7
1070
     0
1070
     1
1071
        3
1040
372.249053
1040
290.5
1040
367.971276
1040
290.5
1040
367.971276
1040
286.222222
1071
        3
1005
CC0
1005
CC2
1005
CC1
1071
        7
1070
     0
1070
     1
1071
       38
1040
373.998821
1040
289.115757
1040
373.692348
1040
289.22006
1040
373.317143
1040
289.229972
1040
372.886988
1040
289.145129
1040
372.417683
1040
288.968648
1040
371.926464
1040
288.70701
1040
371.431374
1040
288.369826
1040
370.950599
1040
287.96948
1040
370.501795
1040
287.520677
1040
370.101449
1040
287.039901
1040
369.764265
1040
286.544812
1040
369.502627
1040
286.053593
1040
369.326146
1040
285.584287
1040
369.241303
1040
285.154132
1040
369.251215
1040
284.778928
1040
369.355518
1040
284.472454
1040
369.550381
1040
284.245969
1040
369.828646
1040
284.107791
1040
369.966824
1040
283.829526
1040
370.193309
1040
283.634664
1040
370.499782
1040
283.530361
1040
370.874987
1040
283.520449
1040
371.305142
1040
283.605291
1040
371.774448
1040
283.781773
1040
372.265666
1040
284.043411
1040
372.760756
1040
284.380595
1040
373.241532
1040
284.780941
1040
373.690335
1040
285.229744
1040
374.090681
1040
285.71052
1040
374.427865
1040
286.205609
1040
374.689503
1040
286.696828
1040
374.865984
1040
287.166134
1040
374.950827
1040
287.596289
1040
374.940915
1040
287.971493
1040
374.836612
1040
288.277967
1040
374.641749
1040
288.504452
1040
374.363484
1040
288.64263
1040
374.225306
1040
288.920895
1071
       38
1005
D5D
1005
D5E
1005
D5F
1005
D60
1005
D61
1005
D62
1005
D63
1005
D64
1005
D65
1005
D66
1005
D67
1005
D68
1005
D69
1005
D6A
1005
D6B
1005
D6C
1005
D6D
1005
D6E
1005
D07
1005
D08
1005
D09
1005
D0A
1005
D0B
1005
D0C
1005
D0D
1005
D0E
1005
D0F
1005
D10
1005
D11
1005
D12
1005
D13
1005
D14
1005
D15
1005
D16
1005
D17
1005
D18
1005
D19
1005
D5C
1071
       22
1070
     0
1070
     1
1071
       25
1040
373.799148
1040
288.781929
1040
373.916941
1040
288.683944
1040
373.482636
1040
288.608014
1040
373.005639
1040
288.435768
1040
372.504269
1040
288.173821
1040
371.997783
1040
287.832235
1040
371.505632
1040
287.424128
1040
371.04672
1040
286.965174
1040
370.638671
1040
286.473
1040
370.297156
1040
285.966509
1040
370.035293
1040
285.465154
1040
369.863139
1040
284.988189
1040
369.787305
1040
284.553935
1040
369.689155
1040
284.672435
1040
369.630358
1040
284.873087
1040
369.635696
1040
285.180404
1040
369.73149
1040
285.576021
1040
369.923519
1040
286.031028
1040
370.207035
1040
286.51657
1040
370.996098
1040
287.475108
1040
371.954587
1040
288.264284
1040
372.440235
1040
288.547585
1040
372.89514
1040
288.740065
1040
373.290857
1040
288.835581
1040
373.597996
1040
288.840902
1071
       25
1005
D2D
1005
D1A
1005
D1B
1005
D1C
1005
D1D
1005
D1E
1005
D1F
1005
D20
1005
D21
1005
D22
1005
D23
1005
D24
1005
D3A
1005
D39
1005
D38
1005
D37
1005
D36
1005
D35
1005
D34
1005
D33
1005
D32
1005
D31
1005
D30
1005
D2F
1005
D2E
1071
       22
1070
     0
1070
     1
1071
       16
1040
374.019229
1040
288.298569
1040
373.932071
1040
287.790402
1040
373.661353
1040
287.159534
1040
373.220238
1040
286.48192
1040
372.646296
1040
285.825506
1040
371.98994
1040
285.251431
1040
371.312263
1040
284.810332
1040
370.681395
1040
284.539195
1040
370.172911
1040
284.451856
1040
370.260168
1040
284.959969
1040
370.530712
1040
285.590875
1040
370.971896
1040
286.268471
1040
371.545827
1040
286.924893
1040
372.202181
1040
287.498991
1040
372.879878
1040
287.940057
1040
373.510738
1040
288.21124
1071
       16
1005
D2C
1005
D2B
1005
D2A
1005
D29
1005
D28
1005
D27
1005
D26
1005
D25
1005
D50
1005
D4F
1005
D4E
1005
D4D
1005
D4C
1005
D4B
1005
D4A
1005
D49
1071
       22
1070
     0
1070
     1
1071
       25
1040
374.40481
1040
288.196249
1040
374.502951
1040
288.077918
1040
374.561802
1040
287.877253
1040
374.556361
1040
287.569864
1040
374.46071
1040
287.174248
1040
374.268507
1040
286.719278
1040
373.98505
1040
286.233718
1040
373.195965
1040
285.275232
1040
372.237497
1040
284.486117
1040
371.751882
1040
284.202798
1040
371.296984
1040
284.010368
1040
370.901294
1040
283.914863
1040
370.594177
1040
283.909498
1040
370.392927
1040
283.968568
1040
370.275177
1040
284.066476
1040
370.709458
1040
284.142397
1040
371.186428
1040
284.314625
1040
371.68777
1040
284.576545
1040
372.194232
1040
284.918099
1040
372.686363
1040
285.326171
1040
373.145266
1040
285.785089
1040
373.553316
1040
286.277229
1040
373.894843
1040
286.783693
1040
374.156732
1040
287.28503
1040
374.328925
1040
287.761987
1071
       25
1005
D48
1005
D47
1005
D46
1005
D45
1005
D44
1005
D43
1005
D42
1005
D41
1005
D40
1005
D3F
1005
D3E
1005
D3D
1005
D3C
1005
D3B
1005
D51
1005
D52
1005
D53
1005
D54
1005
D55
1005
D56
1005
D57
1005
D58
1005
D59
1005
D5A
1005
D5B
1071
        7
1070
     0
1070
     1
1071
       14
1040
378.723077
1040
290.5
1040
378.095928
1040
288.776923
1040
380.311313
1040
288.776923
1040
377.155205
1040
286.192308
1040
376.175285
1040
283.5
1040
379.397145
1040
286.138462
1040
378.436824
1040
283.5
1040
379.513747
1040
283.5
1040
380.493667
1040
286.192308
1040
381.775285
1040
283.5
1040
382.755205
1040
286.192308
1040
381.524851
1040
288.776923
1040
383.695928
1040
288.776923
1040
384.323077
1040
290.5
1071
       14
1005
CC4
1005
CCF
1005
CCE
1005
CC5
1005
CC7
1005
CC8
1005
CCD
1005
CCC
1005
CCB
1005
CCA
1005
CC9
1005
CC6
1005
CC3
1005
CDC
1071
        7
1070
     0
1070
     1
1071
        4
1040
385.615385
1040
290.5
1040
384.988236
1040
288.776923
1040
390.372851
1040
288.776923
1040
391.0
1040
290.5
1071
        4
1005
CDA
1005
CDB
1005
CD9
1005
CE3
1071
        7
1070
     0
1070
     1
1071
        4
1040
388.452208
1040
283.5
1040
389.236144
1040
285.653846
1040
383.851529
1040
285.653846
1040
383.067593
1040
283.5
1071
        4
1005
CD3
1005
CD4
1005
CD5
1005
CD2
1071
        7
1070
     0
1070
     1
1071
       22
1040
395.452208
1040
283.5
1040
396.941687
1040
287.592308
1040
397.749379
1040
287.592308
1040
398.337331
1040
289.207692
1040
397.529638
1040
289.207692
1040
398.0
1040
290.5
1040
396.923077
1040
290.5
1040
396.452715
1040
289.207692
1040
393.760408
1040
289.207692
1040
394.230769
1040
290.5
1040
393.153846
1040
290.5
1040
392.683485
1040
289.207692
1040
391.875792
1040
289.207692
1040
391.28784
1040
287.592308
1040
392.095533
1040
287.592308
1040
391.703565
1040
286.515385
1040
392.780488
1040
286.515385
1040
393.172456
1040
287.592308
1040
395.864763
1040
287.592308
1040
395.159221
1040
285.653846
1040
391.174606
1040
285.653846
1040
390.39067
1040
283.5
1071
       22
1005
CFB
1005
CFC
1005
CFA
1005
CF9
1005
CF8
1005
CFE
1005
CBC
1005
CDE
1005
CDD
1005
CE2
1005
CDF
1005
CE1
1005
CE0
1005
CD1
1005
CD7
1005
CD0
1005
CBD
1005
CBF
1005
CD6
1005
CD8
1005
CBE
1005
CF0
1071
        7
1070
     0
1070
     1
1071
        6
1040
398.194006
1040
285.115385
1040
397.606055
1040
283.5
1040
401.913747
1040
283.5
1040
403.873587
1040
288.884615
1040
402.796663
1040
288.884615
1040
401.424776
1040
285.115385
1071
        6
1005
D01
1005
CEF
1005
CF3
1005
CF4
1005
CF1
1005
CEE
1071
       23
1070
     0
1070
     1
1071
        4
1040
402.042817
1040
288.884615
1040
400.965894
1040
288.884615
1040
400.181958
1040
286.730769
1040
401.258881
1040
286.730769
1071
        4
1005
CF7
1005
CEB
1005
CF5
1005
CED
1071
       23
1070
     0
1070
     1
1071
        4
1040
400.642817
1040
288.884615
1040
399.565894
1040
288.884615
1040
398.781958
1040
286.730769
1040
399.858881
1040
286.730769
1071
        4
1005
CFD
1005
CEA
1005
CF2
1005
CEC
1071
       23
1070
     0
1070
     1
1071
        4
1040
406.615385
1040
290.5
1040
405.988236
1040
288.776923
1040
409.219005
1040
288.776923
1040
409.846154
1040
290.5
1071
        4
1005
CE9
1005
CFF
1005
CE8
1005
D04
1071
       23
1070
     0
1070
     1
1071
        4
1040
405.753055
1040
288.130769
1040
405.282694
1040
286.838462
1040
408.513463
1040
286.838462
1040
408.983824
1040
288.130769
1071
        4
1005
CE4
1005
D00
1005
CE5
1005
D06
1071
        7
1070
     0
1070
     1
1071
        6
1040
409.452208
1040
283.5
1040
412.0
1040
290.5
1040
410.923077
1040
290.5
1040
409.159221
1040
285.653846
1040
404.851529
1040
285.653846
1040
404.067593
1040
283.5
1071
        6
1005
D05
1005
D02
1005
CE7
1005
CF6
1005
CE6
1005
D03
1070
     0
1070
     1
1040
0.054099
1071
       15
1040
371.248373
1040
289.881409
1040
0.0
1040
373.901118
1040
288.907633
1040
0.0
1040
373.901118
1040
288.907633
1040
0.0
1040
373.901118
1040
288.907633
1040
0.0
1040
373.901118
1040
288.907633
1040
0.0
1040
380.3435
1040
289.82731
1040
0.0
1040
388.247597
1040
289.665014
1040
0.0
1040
386.515192
1040
284.146949
1040
0.0
1040
392.578609
1040
284.255146
1040
0.0
1040
400.536845
1040
284.309245
1040
0.0
1040
401.024083
1040
287.555166
1040
0.0
1040
399.72478
1040
287.609264
1040
0.0
1040
407.358189
1040
289.989606
1040
0.0
1040
407.141639
1040
287.501067
1040
0.0
1040
407.195776
1040
284.471541
1040
0.0
1002
}
  0
TEXT
  5
448D
  8
WAKU
  6
CONTINUOUS
 10
10.0
 20
285.5
 30
0.0
 40
3.0
  1
FNS-70
 41
0.868
  7
STANDARD
 11
10.0
 21
287.0
 31
0.0
 73
     2
  0
TEXT
  5
D570
  8
WAKU
  6
CONTINUOUS
 10
35.0
 20
284.5
 30
0.0
 40
5.0
  1
外動片引き断面詳細図　Ｃタイプ（Fix部硝子溝15mm）
 41
0.913
  7
STANDARD
 11
35.0
 21
287.0
 31
0.0
 73
     2
  0
LINE
  5
D7D3
  8
SUNPO
  6
CONTINUOUS
 10
41.5
 20
25.0
 30
0.0
 11
23.0
 21
25.0
 31
0.0
  0
LINE
  5
F74B
  8
DANMEN
  6
CONTINUOUS
 10
211.963123
 20
128.005532
 30
0.0
 11
202.851661
 21
129.372251
 31
0.0
  0
LINE
  5
F74C
  8
DANMEN
  6
CONTINUOUS
 10
211.963123
 20
151.994468
 30
0.0
 11
202.851661
 21
150.627749
 31
0.0
  0
LINE
  5
F74D
  8
DANMEN
  6
CONTINUOUS
 10
202.500002
 20
147.5
 30
0.0
 11
203.199998
 21
147.5
 31
0.0
  0
LINE
  5
F74E
  8
DANMEN
  6
CONTINUOUS
 10
202.500002
 20
132.5
 30
0.0
 11
203.199998
 21
132.5
 31
0.0
  0
LINE
  5
F74F
  8
DANMEN
  6
CONTINUOUS
 10
199.0
 20
122.6
 30
0.0
 11
204.0
 21
122.6
 31
0.0
  0
LINE
  5
F750
  8
DANMEN
  6
CONTINUOUS
 10
189.5
 20
89.0
 30
0.0
 11
213.5
 21
89.0
 31
0.0
  0
LINE
  5
F751
  8
DANMEN
  6
CONTINUOUS
 10
189.5
 20
159.0
 30
0.0
 11
213.5
 21
159.0
 31
0.0
  0
LINE
  5
F752
  8
DANMEN
  6
CONTINUOUS
 10
201.0
 20
90.649994
 30
0.0
 11
213.5
 21
90.649994
 31
0.0
  0
LINE
  5
F753
  8
DANMEN
  6
CONTINUOUS
 10
201.0
 20
157.350006
 30
0.0
 11
213.5
 21
157.350006
 31
0.0
  0
LINE
  5
F754
  8
DANMEN
  6
CONTINUOUS
 10
199.0
 20
121.5
 30
0.0
 11
211.5
 21
121.5
 31
0.0
  0
LINE
  5
F755
  8
DANMEN
  6
CONTINUOUS
 10
199.0
 20
137.5
 30
0.0
 11
203.917205
 21
137.5
 31
0.0
  0
LINE
  5
F756
  8
DANMEN
  6
CONTINUOUS
 10
199.0
 20
139.3
 30
0.0
 11
203.850995
 21
139.3
 31
0.0
  0
LINE
  5
F757
  8
DANMEN
  6
CONTINUOUS
 10
204.122479
 20
125.7
 30
0.0
 11
200.908279
 21
132.37568
 31
0.0
  0
LINE
  5
F758
  8
DANMEN
  6
CONTINUOUS
 10
203.682602
 20
125.0
 30
0.0
 11
200.476376
 21
131.659119
 31
0.0
  0
LINE
  5
F759
  8
DANMEN
  6
CONTINUOUS
 10
199.0
 20
152.0
 30
0.0
 11
261.5
 21
152.0
 31
0.0
  0
LINE
  5
F75A
  8
DANMEN
  6
CONTINUOUS
 10
199.0
 20
100.0
 30
0.0
 11
261.5
 21
100.0
 31
0.0
  0
LINE
  5
F75B
  8
DANMEN
  6
CONTINUOUS
 10
199.0
 20
121.5
 30
0.0
 11
212.0
 21
121.5
 31
0.0
  0
LINE
  5
F75C
  8
DANMEN
  6
CONTINUOUS
 10
199.0
 20
141.5
 30
0.0
 11
215.0
 21
141.5
 31
0.0
  0
LINE
  5
F75D
  8
DANMEN
  6
CONTINUOUS
 10
199.0
 20
146.5
 30
0.0
 11
215.0
 21
146.5
 31
0.0
  0
LINE
  5
F75E
  8
DANMEN
  6
CONTINUOUS
 10
199.0
 20
132.5
 30
0.0
 11
215.0
 21
132.5
 31
0.0
  0
LINE
  5
F75F
  8
DANMEN
  6
CONTINUOUS
 10
204.5
 20
125.0
 30
0.0
 11
199.0
 21
125.0
 31
0.0
  0
LINE
  5
F764
  8
DANMEN
  6
CONTINUOUS
 10
197.350006
 20
157.350006
 30
0.0
 11
197.350006
 21
90.649994
 31
0.0
  0
LINE
  5
F765
  8
DANMEN
  6
CONTINUOUS
 10
199.0
 20
121.5
 30
0.0
 11
199.0
 21
90.1
 31
0.0
  0
LINE
  5
F766
  8
DANMEN
  6
CONTINUOUS
 10
43.0
 20
164.0
 30
0.0
 11
43.0
 21
37.765549
 31
0.0
  0
LINE
  5
F767
  8
DANMEN
  6
CONTINUOUS
 10
74.0
 20
164.0
 30
0.0
 11
74.0
 21
82.5
 31
0.0
  0
LINE
  5
F768
  8
DANMEN
  6
CONTINUOUS
 10
50.0
 20
164.0
 30
0.0
 11
50.0
 21
54.0
 31
0.0
  0
LINE
  5
F769
  8
DANMEN
  6
CONTINUOUS
 10
44.649994
 20
164.0
 30
0.0
 11
44.649994
 21
36.0
 31
0.0
  0
LINE
  5
F76A
  8
DANMEN
  6
CONTINUOUS
 10
76.5
 20
164.0
 30
0.0
 11
76.5
 21
94.0
 31
0.0
  0
LINE
  5
F76B
  8
DANMEN
  6
DASHED
 10
79.5
 20
164.0
 30
0.0
 11
79.5
 21
94.0
 31
0.0
  0
LINE
  5
F76C
  8
DANMEN
  6
CONTINUOUS
 10
94.499986
 20
87.0
 30
0.0
 11
94.499986
 21
164.0
 31
0.0
  0
LINE
  5
F76D
  8
DANMEN
  6
CONTINUOUS
 10
89.499998
 20
87.0
 30
0.0
 11
89.499998
 21
164.0
 31
0.0
  0
LINE
  5
F76E
  8
DANMEN
  6
CONTINUOUS
 10
89.999998
 20
87.0
 30
0.0
 11
89.999998
 21
164.0
 31
0.0
  0
LINE
  5
F76F
  8
DANMEN
  6
CONTINUOUS
 10
93.999986
 20
87.0
 30
0.0
 11
93.999986
 21
164.0
 31
0.0
  0
LINE
  5
F770
  8
DANMEN
  6
CONTINUOUS
 10
82.0
 20
164.0
 30
0.0
 11
82.0
 21
94.0
 31
0.0
  0
LINE
  5
F771
  8
DANMEN
  6
CONTINUOUS
 10
102.0
 20
164.0
 30
0.0
 11
102.0
 21
94.0
 31
0.0
  0
LINE
  5
F772
  8
DANMEN
  6
CONTINUOUS
 10
100.000015
 20
164.0
 30
0.0
 11
100.000015
 21
94.0
 31
0.0
  0
LINE
  5
F773
  8
DANMEN
  6
CONTINUOUS
 10
83.999985
 20
164.0
 30
0.0
 11
83.999985
 21
94.0
 31
0.0
  0
LINE
  5
F774
  8
DANMEN
  6
CONTINUOUS
 10
109.0
 20
164.0
 30
0.0
 11
109.0
 21
89.0
 31
0.0
  0
LINE
  5
F775
  8
DANMEN
  6
CONTINUOUS
 10
133.5
 20
164.0
 30
0.0
 11
133.5
 21
114.497915
 31
0.0
  0
LINE
  5
F776
  8
DANMEN
  6
CONTINUOUS
 10
95.55285
 20
58.664289
 30
0.0
 11
69.943326
 21
47.392373
 31
0.0
  0
LINE
  5
F777
  8
DANMEN
  6
CONTINUOUS
 10
94.5
 20
60.003636
 30
0.0
 11
69.5
 21
49.0
 31
0.0
  0
LINE
  5
F77B
  8
DANMEN
  6
CONTINUOUS
 10
56.5
 20
34.0
 30
0.0
 11
113.0
 21
34.0
 31
0.0
  0
LINE
  5
F77C
  8
DANMEN
  6
CONTINUOUS
 10
66.0
 20
54.0
 30
0.0
 11
74.0
 21
54.0
 31
0.0
  0
LINE
  5
F77D
  8
DANMEN
  6
CONTINUOUS
 10
55.0
 20
34.0
 30
0.0
 11
55.0
 21
25.5
 31
0.0
  0
LINE
  5
F77E
  8
DANMEN
  6
CONTINUOUS
 10
56.5
 20
34.649994
 30
0.0
 11
56.5
 21
25.5
 31
0.0
  0
ARC
  5
F77F
  8
DANMEN
  6
CONTINUOUS
 10
55.5
 20
25.5
 30
0.0
 40
0.5
 50
180.000019
 51
270.000001
  0
LINE
  5
F783
  8
DANMEN
  6
CONTINUOUS
 10
55.5
 20
25.0
 30
0.0
 11
56.0
 21
25.0
 31
0.0
  0
ARC
  5
F785
  8
DANMEN
  6
CONTINUOUS
 10
56.0
 20
25.5
 30
0.0
 40
0.5
 50
270.000018
 51
0.0
  0
LINE
  5
F786
  8
DANMEN
  6
CONTINUOUS
 10
58.0
 20
90.499985
 30
0.0
 11
58.0
 21
63.499985
 31
0.0
  0
LINE
  5
F787
  8
DANMEN
  6
CONTINUOUS
 10
66.0
 20
90.5
 30
0.0
 11
66.0
 21
63.499985
 31
0.0
  0
LINE
  5
F788
  8
DANMEN
  6
CONTINUOUS
 10
58.5
 20
95.0
 30
0.0
 11
58.5
 21
59.0
 31
0.0
  0
LINE
  5
F789
  8
DANMEN
  6
CONTINUOUS
 10
65.5
 20
95.0
 30
0.0
 11
65.5
 21
59.0
 31
0.0
  0
LINE
  5
F78A
  8
DANMEN
  6
CONTINUOUS
 10
64.0
 20
95.0
 30
0.0
 11
64.0
 21
59.0
 31
0.0
  0
LINE
  5
F78B
  8
DANMEN
  6
CONTINUOUS
 10
60.0
 20
95.0
 30
0.0
 11
60.0
 21
59.0
 31
0.0
  0
ARC
  5
F78D
  8
DANMEN
  6
CONTINUOUS
 10
56.00999
 20
47.0
 30
0.0
 40
2.0
 50
90.0
 51
118.610582
  0
LINE
  5
F78E
  8
DANMEN
  6
CONTINUOUS
 10
51.649994
 20
35.649994
 30
0.0
 11
55.5
 21
35.649994
 31
0.0
  0
LINE
  5
F78F
  8
DANMEN
  6
CONTINUOUS
 10
55.920742
 20
47.35
 30
0.0
 11
51.649994
 21
45.020489
 31
0.0
  0
LINE
  5
F790
  8
DANMEN
  6
CONTINUOUS
 10
50.0
 20
45.406353
 30
0.0
 11
50.0
 21
36.0
 31
0.0
  0
LINE
  5
F791
  8
DANMEN
  6
CONTINUOUS
 10
51.649994
 20
45.020489
 30
0.0
 11
51.649994
 21
35.649994
 31
0.0
  0
LINE
  5
F792
  8
DANMEN
  6
CONTINUOUS
 10
40.276393
 20
37.661806
 30
0.0
 11
43.0
 21
36.300003
 31
0.0
  0
LINE
  5
F793
  8
DANMEN
  6
CONTINUOUS
 10
41.199997
 20
38.429842
 30
0.0
 11
43.823607
 21
37.118037
 31
0.0
  0
LINE
  5
F794
  8
DANMEN
  6
CONTINUOUS
 10
44.1
 20
36.0
 30
0.0
 11
50.0
 21
36.0
 31
0.0
  0
LINE
  5
F795
  8
DANMEN
  6
CONTINUOUS
 10
43.800003
 20
34.9
 30
0.0
 11
50.0
 21
34.9
 31
0.0
  0
LINE
  5
F796
  8
DANMEN
  6
CONTINUOUS
 10
43.570786
 20
34.0
 30
0.0
 11
50.33287
 21
34.0
 31
0.0
  0
ARC
  5
F797
  8
DANMEN
  6
CONTINUOUS
 10
43.399994
 20
34.399994
 30
0.0
 40
0.4
 50
180.000019
 51
359.999983
  0
LINE
  5
F798
  8
DANMEN
  6
CONTINUOUS
 10
43.0
 20
36.300003
 30
0.0
 11
43.0
 21
34.399994
 31
0.0
  0
LINE
  5
F79D
  8
DANMEN
  6
CONTINUOUS
 10
43.800003
 20
34.9
 30
0.0
 11
43.800003
 21
34.399994
 31
0.0
  0
LINE
  5
F79F
  8
DANMEN
  6
CONTINUOUS
 10
44.1
 20
36.670823
 30
0.0
 11
44.1
 21
36.0
 31
0.0
  0
ARC
  5
F7A0
  8
DANMEN
  6
CONTINUOUS
 10
43.6
 20
36.670823
 30
0.0
 40
0.5
 50
0.0
 51
63.434949
  0
LINE
  5
F7A4
  8
DANMEN
  6
CONTINUOUS
 10
50.5
 20
34.0
 30
0.0
 11
55.0
 21
34.0
 31
0.0
  0
ARC
  5
F7A6
  8
DANMEN
  6
CONTINUOUS
 10
50.5
 20
34.5
 30
0.0
 40
0.5
 50
180.000019
 51
270.000001
  0
LINE
  5
F7A7
  8
DANMEN
  6
CONTINUOUS
 10
50.0
 20
34.9
 30
0.0
 11
50.0
 21
34.5
 31
0.0
  0
LINE
  5
F7AC
  8
DANMEN
  6
CONTINUOUS
 10
40.0
 20
43.399994
 30
0.0
 11
40.0
 21
38.10902
 31
0.0
  0
LINE
  5
F7AD
  8
DANMEN
  6
CONTINUOUS
 10
41.199997
 20
43.399994
 30
0.0
 11
41.199997
 21
38.429842
 31
0.0
  0
ARC
  5
F7AE
  8
DANMEN
  6
CONTINUOUS
 10
40.600006
 20
43.399994
 30
0.0
 40
0.6
 50
0.0
 51
180.000019
  0
ARC
  5
F7B0
  8
DANMEN
  6
CONTINUOUS
 10
40.5
 20
38.10902
 30
0.0
 40
0.5
 50
180.0
 51
243.434949
  0
LINE
  5
F7B4
  8
DANMEN
  6
CONTINUOUS
 10
55.052282
 20
48.755789
 30
0.0
 11
50.521146
 21
46.284248
 31
0.0
  0
ARC
  5
F7B6
  8
DANMEN
  6
CONTINUOUS
 10
51.0
 20
45.406353
 30
0.0
 40
1.0
 50
118.610582
 51
180.0
  0
ARC
  5
F7B9
  8
DANMEN
  6
CONTINUOUS
 10
55.5
 20
34.649994
 30
0.0
 40
1.0
 50
0.0
 51
89.999982
  0
LINE
  5
F7BA
  8
DANMEN
  6
CONTINUOUS
 10
63.2
 20
47.3
 30
0.0
 11
64.8
 21
47.3
 31
0.0
  0
LINE
  5
F7BB
  8
DANMEN
  6
CONTINUOUS
 10
55.920742
 20
47.35
 30
0.0
 11
59.7
 21
47.35
 31
0.0
  0
ARC
  5
F7BD
  8
DANMEN
  6
CONTINUOUS
 10
62.6
 20
43.7
 30
0.0
 40
0.3
 50
270.0
 51
0.0
  0
LINE
  5
F7BE
  8
DANMEN
  6
CONTINUOUS
 10
61.460621
 20
43.4
 30
0.0
 11
62.6
 21
43.4
 31
0.0
  0
LINE
  5
F7BF
  8
DANMEN
  6
CONTINUOUS
 10
62.2
 20
45.053939
 30
0.0
 11
62.2
 21
46.3
 31
0.0
  0
LINE
  5
F7C0
  8
DANMEN
  6
CONTINUOUS
 10
60.7
 20
44.969694
 30
0.0
 11
60.7
 21
46.35
 31
0.0
  0
ARC
  5
F7C1
  8
DANMEN
  6
CONTINUOUS
 10
63.2
 20
46.3
 30
0.0
 40
1.0
 50
90.0
 51
180.0
  0
LINE
  5
F7C2
  8
DANMEN
  6
CONTINUOUS
 10
62.9
 20
43.7
 30
0.0
 11
62.9
 21
43.963068
 31
0.0
  0
ARC
  5
F7C3
  8
DANMEN
  6
CONTINUOUS
 10
63.2
 20
45.053939
 30
0.0
 40
1.0
 50
180.0
 51
245.375682
  0
ARC
  5
F7C4
  8
DANMEN
  6
CONTINUOUS
 10
62.7
 20
43.963068
 30
0.0
 40
0.2
 50
0.0
 51
65.375682
  0
ARC
  5
F7C5
  8
DANMEN
  6
CONTINUOUS
 10
62.7
 20
44.969694
 30
0.0
 40
2.0
 50
180.0
 51
231.706523
  0
ARC
  5
F7C6
  8
DANMEN
  6
CONTINUOUS
 10
59.7
 20
46.35
 30
0.0
 40
1.0
 50
0.0
 51
90.0
  0
LINE
  5
F7C8
  8
DANMEN
  6
CONTINUOUS
 10
65.956524
 20
43.4
 30
0.0
 11
66.601274
 21
41.917076
 31
0.0
  0
ARC
  5
F7C9
  8
DANMEN
  6
CONTINUOUS
 10
70.927452
 20
43.252808
 30
0.0
 40
0.5
 50
293.49856
 51
23.49856
  0
ARC
  5
F7CA
  8
DANMEN
  6
CONTINUOUS
 10
67.518344
 20
42.315802
 30
0.0
 40
1.0
 50
203.49856
 51
293.49856
  0
LINE
  5
F7CE
  8
DANMEN
  6
CONTINUOUS
 10
71.126815
 20
42.794273
 30
0.0
 11
67.91707
 21
41.398732
 31
0.0
  0
LINE
  5
F7D0
  8
DANMEN
  6
CONTINUOUS
 10
67.3
 20
47.350006
 30
0.0
 11
69.741901
 21
47.350006
 31
0.0
  0
LINE
  5
F7D1
  8
DANMEN
  6
CONTINUOUS
 10
67.3
 20
44.448185
 30
0.0
 11
67.855268
 21
43.171069
 31
0.0
  0
ARC
  5
F7D3
  8
DANMEN
  6
CONTINUOUS
 10
65.4
 20
43.7
 30
0.0
 40
0.3
 50
180.0
 51
270.0
  0
LINE
  5
F7D4
  8
DANMEN
  6
CONTINUOUS
 10
65.4
 20
43.4
 30
0.0
 11
65.956524
 21
43.4
 31
0.0
  0
ARC
  5
F7D5
  8
DANMEN
  6
CONTINUOUS
 10
64.8
 20
46.3
 30
0.0
 40
1.0
 50
0.0
 51
90.0
  0
LINE
  5
F7D6
  8
DANMEN
  6
CONTINUOUS
 10
65.8
 20
45.053939
 30
0.0
 11
65.8
 21
46.3
 31
0.0
  0
LINE
  5
F7D7
  8
DANMEN
  6
CONTINUOUS
 10
67.3
 20
44.448185
 30
0.0
 11
67.3
 21
47.350006
 31
0.0
  0
ARC
  5
F7D8
  8
DANMEN
  6
CONTINUOUS
 10
65.3
 20
43.963068
 30
0.0
 40
0.2
 50
114.624318
 51
180.0
  0
ARC
  5
F7D9
  8
DANMEN
  6
CONTINUOUS
 10
64.8
 20
45.053939
 30
0.0
 40
1.0
 50
294.624318
 51
0.0
  0
LINE
  5
F7DA
  8
DANMEN
  6
CONTINUOUS
 10
65.1
 20
43.7
 30
0.0
 11
65.1
 21
43.963068
 31
0.0
  0
ARC
  5
F7DE
  8
DANMEN
  6
CONTINUOUS
 10
69.741901
 20
47.850006
 30
0.0
 40
0.5
 50
270.0
 51
293.756476
  0
LINE
  5
F7DF
  8
DANMEN
  6
CONTINUOUS
 10
70.468917
 20
44.307438
 30
0.0
 11
67.855268
 21
43.171069
 31
0.0
  0
LINE
  5
F7E0
  8
DANMEN
  6
CONTINUOUS
 10
71.126816
 20
44.048266
 30
0.0
 11
71.385987
 21
43.452171
 31
0.0
  0
ARC
  5
F7E1
  8
DANMEN
  6
CONTINUOUS
 10
70.66828
 20
43.848903
 30
0.0
 40
0.5
 50
23.49856
 51
113.49856
  0
LINE
  5
F7E6
  8
DANMEN
  6
CONTINUOUS
 10
53.649997
 20
54.0
 30
0.0
 11
58.0
 21
54.0
 31
0.0
  0
LINE
  5
F7E9
  8
DANMEN
  6
CONTINUOUS
 10
50.0
 20
54.0
 30
0.0
 11
52.699999
 21
54.0
 31
0.0
  0
ARC
  5
F7FD
  8
DANMEN
  6
CONTINUOUS
 10
62.0
 20
58.0
 30
0.0
 40
3.0
 50
48.189683
 51
131.810302
  0
ARC
  5
F7FE
  8
DANMEN
  6
CONTINUOUS
 10
61.0
 20
60.29129
 30
0.0
 40
0.5
 50
113.578068
 51
179.999745
  0
ARC
  5
F7FF
  8
DANMEN
  6
CONTINUOUS
 10
63.0
 20
60.29129
 30
0.0
 40
0.5
 50
0.000279
 51
66.42195
  0
ARC
  5
F800
  8
DANMEN
  6
CONTINUOUS
 10
62.0
 20
60.0
 30
0.0
 40
4.0
 50
0.0
 51
180.000019
  0
LINE
  5
F801
  8
DANMEN
  6
CONTINUOUS
 10
63.5
 20
49.0
 30
0.0
 11
69.5
 21
49.0
 31
0.0
  0
LINE
  5
F802
  8
DANMEN
  6
CONTINUOUS
 10
63.5
 20
60.29129
 30
0.0
 11
63.5
 21
49.0
 31
0.0
  0
LINE
  5
F803
  8
DANMEN
  6
CONTINUOUS
 10
61.850006
 20
56.847046
 30
0.0
 11
61.850006
 21
49.0
 31
0.0
  0
LINE
  5
F804
  8
DANMEN
  6
CONTINUOUS
 10
58.0
 20
60.0
 30
0.0
 11
58.0
 21
54.0
 31
0.0
  0
LINE
  5
F805
  8
DANMEN
  6
CONTINUOUS
 10
56.00999
 20
49.0
 30
0.0
 11
61.850006
 21
49.0
 31
0.0
  0
LINE
  5
F809
  8
DANMEN
  6
CONTINUOUS
 10
58.5
 20
59.0
 30
0.0
 11
60.0
 21
59.0
 31
0.0
  0
LINE
  5
F80A
  8
DANMEN
  6
CONTINUOUS
 10
60.5
 20
60.29129
 30
0.0
 11
60.5
 21
59.152954
 31
0.0
  0
LINE
  5
F80D
  8
DANMEN
  6
CONTINUOUS
 10
61.764431
 20
57.126784
 30
0.0
 11
60.585579
 21
58.873223
 31
0.0
  0
ARC
  5
F80E
  8
DANMEN
  6
CONTINUOUS
 10
61.350006
 20
56.847046
 30
0.0
 40
0.5
 50
0.000664
 51
34.020021
  0
ARC
  5
F80F
  8
DANMEN
  6
CONTINUOUS
 10
61.0
 20
59.152954
 30
0.0
 40
0.5
 50
180.000309
 51
214.019733
  0
LINE
  5
F810
  8
DANMEN
  6
CONTINUOUS
 10
66.0
 20
60.0
 30
0.0
 11
66.0
 21
54.0
 31
0.0
  0
LINE
  5
F812
  8
DANMEN
  6
CONTINUOUS
 10
64.0
 20
59.0
 30
0.0
 11
65.5
 21
59.0
 31
0.0
  0
LINE
  5
F814
  8
DANMEN
  6
CONTINUOUS
 10
57.999959
 20
63.499942
 30
0.0
 11
58.49996
 21
62.999941
 31
0.0
  0
ARC
  5
F81A
  8
DANMEN
  6
CONTINUOUS
 10
62.0
 20
58.0
 30
0.0
 40
3.0
 50
66.421841
 51
113.578178
  0
LINE
  5
F823
  8
DANMEN
  6
CONTINUOUS
 10
65.499925
 20
62.99994
 30
0.0
 11
65.999925
 21
63.499939
 31
0.0
  0
ARC
  5
F844
  8
DANMEN
  6
CONTINUOUS
 10
62.0
 20
96.5
 30
0.0
 40
3.5
 50
235.150098
 51
304.84989
  0
LINE
  5
F845
  8
DANMEN
  6
CONTINUOUS
 10
58.5
 20
95.0
 30
0.0
 11
60.0
 21
95.0
 31
0.0
  0
LINE
  5
F846
  8
DANMEN
  6
CONTINUOUS
 10
57.999965
 20
90.499879
 30
0.0
 11
58.499965
 21
90.99988
 31
0.0
  0
LINE
  5
F848
  8
DANMEN
  6
CONTINUOUS
 10
64.0
 20
95.0
 30
0.0
 11
65.5
 21
95.0
 31
0.0
  0
LINE
  5
F849
  8
DANMEN
  6
CONTINUOUS
 10
65.499938
 20
90.999912
 30
0.0
 11
65.999938
 21
90.499912
 31
0.0
  0
LINE
  5
F875
  8
DANMEN
  6
CONTINUOUS
 10
75.0826
 20
73.320122
 30
0.0
 11
75.780718
 21
72.0
 31
0.0
  0
LINE
  5
F876
  8
DANMEN
  6
CONTINUOUS
 10
74.8174
 20
73.179877
 30
0.0
 11
75.6
 21
71.7
 31
0.0
  0
ARC
  5
F877
  8
DANMEN
  6
CONTINUOUS
 10
74.282155
 20
72.336342
 30
0.0
 40
0.25
 50
179.716853
 51
357.49922
  0
LINE
  5
F878
  8
DANMEN
  6
CONTINUOUS
 10
77.0
 20
73.7
 30
0.0
 11
77.0
 21
72.0
 31
0.0
  0
LINE
  5
F879
  8
DANMEN
  6
CONTINUOUS
 10
78.2
 20
73.7
 30
0.0
 11
78.2
 21
72.0
 31
0.0
  0
LINE
  5
F87A
  8
DANMEN
  6
CONTINUOUS
 10
94.5
 20
72.2
 30
0.0
 11
94.5
 21
60.003636
 31
0.0
  0
LINE
  5
F87B
  8
DANMEN
  6
CONTINUOUS
 10
79.500003
 20
76.0
 30
0.0
 11
79.500003
 21
69.8
 31
0.0
  0
LINE
  5
F87C
  8
DANMEN
  6
CONTINUOUS
 10
80.5
 20
75.2
 30
0.0
 11
80.5
 21
69.5
 31
0.0
  0
LINE
  5
F87D
  8
DANMEN
  6
CONTINUOUS
 10
101.2
 20
70.666295
 30
0.0
 11
101.2
 21
74.35
 31
0.0
  0
ARC
  5
F87E
  8
DANMEN
  6
CONTINUOUS
 10
97.2
 20
71.3
 30
0.0
 40
1.0
 50
90.0
 51
180.0
  0
ARC
  5
F87F
  8
DANMEN
  6
CONTINUOUS
 10
98.7
 20
71.3
 30
0.0
 40
1.0
 50
0.0
 51
90.0
  0
ARC
  5
F880
  8
DANMEN
  6
CONTINUOUS
 10
83.0
 20
73.2
 30
0.0
 40
1.0
 50
180.0
 51
270.0
  0
LINE
  5
F881
  8
DANMEN
  6
CONTINUOUS
 10
94.5
 20
72.2
 30
0.0
 11
93.5
 21
71.5
 31
0.0
  0
LINE
  5
F882
  8
DANMEN
  6
CONTINUOUS
 10
87.5
 20
71.5
 30
0.0
 11
86.5
 21
72.2
 31
0.0
  0
LINE
  5
F883
  8
DANMEN
  6
CONTINUOUS
 10
113.0
 20
93.5
 30
0.0
 11
113.0
 21
59.5
 31
0.0
  0
LINE
  5
F884
  8
DANMEN
  6
CONTINUOUS
 10
111.350006
 20
74.35
 30
0.0
 11
111.350006
 21
62.08182
 31
0.0
  0
LINE
  5
F887
  8
DANMEN
  6
CONTINUOUS
 10
87.5
 20
71.5
 30
0.0
 11
93.5
 21
71.5
 31
0.0
  0
LINE
  5
F888
  8
DANMEN
  6
CONTINUOUS
 10
74.0
 20
69.500007
 30
0.0
 11
74.0
 21
54.0
 31
0.0
  0
LINE
  5
F889
  8
DANMEN
  6
CONTINUOUS
 10
77.5
 20
69.0
 30
0.0
 11
80.000003
 21
69.0
 31
0.0
  0
LINE
  5
F88A
  8
DANMEN
  6
CONTINUOUS
 10
75.6
 20
71.7
 30
0.0
 11
76.4
 21
71.7
 31
0.0
  0
LINE
  5
F88B
  8
DANMEN
  6
CONTINUOUS
 10
75.780719
 20
72.0
 30
0.0
 11
77.0
 21
72.0
 31
0.0
  0
ARC
  5
F896
  8
DANMEN
  6
CONTINUOUS
 10
76.599999
 20
70.399999
 30
0.0
 40
0.2
 50
180.000019
 51
270.000001
  0
LINE
  5
F898
  8
DANMEN
  6
CONTINUOUS
 10
76.4
 20
71.7
 30
0.0
 11
76.4
 21
70.399999
 31
0.0
  0
LINE
  5
F89B
  8
DANMEN
  6
CONTINUOUS
 10
77.0
 20
71.199999
 30
0.0
 11
78.0
 21
71.199999
 31
0.0
  0
LINE
  5
F89D
  8
DANMEN
  6
CONTINUOUS
 10
76.599999
 20
70.199999
 30
0.0
 11
77.0
 21
70.199999
 31
0.0
  0
LINE
  5
F89E
  8
DANMEN
  6
CONTINUOUS
 10
78.0
 20
71.199999
 30
0.0
 11
78.0
 21
70.199999
 31
0.0
  0
LINE
  5
F89F
  8
DANMEN
  6
CONTINUOUS
 10
78.2
 20
72.0
 30
0.0
 11
79.0
 21
71.2
 31
0.0
  0
LINE
  5
F8A1
  8
DANMEN
  6
CONTINUOUS
 10
79.0
 20
71.199999
 30
0.0
 11
79.0
 21
70.199999
 31
0.0
  0
ARC
  5
F8A2
  8
DANMEN
  6
CONTINUOUS
 10
78.2
 20
70.199999
 30
0.0
 40
0.2
 50
180.000019
 51
270.000001
  0
ARC
  5
F8A4
  8
DANMEN
  6
CONTINUOUS
 10
78.8
 20
70.199999
 30
0.0
 40
0.2
 50
270.000018
 51
0.0
  0
LINE
  5
F8A6
  8
DANMEN
  6
CONTINUOUS
 10
77.0
 20
71.199999
 30
0.0
 11
77.0
 21
70.199999
 31
0.0
  0
LINE
  5
F8A7
  8
DANMEN
  6
CONTINUOUS
 10
78.2
 20
70.0
 30
0.0
 11
78.8
 21
70.0
 31
0.0
  0
LINE
  5
F8A8
  8
DANMEN
  6
CONTINUOUS
 10
77.0
 20
70.699997
 30
0.0
 11
77.0
 21
69.5
 31
0.0
  0
LINE
  5
F8A9
  8
DANMEN
  6
CONTINUOUS
 10
77.800003
 20
71.199997
 30
0.0
 11
77.800003
 21
69.8
 31
0.0
  0
ARC
  5
F8AA
  8
DANMEN
  6
CONTINUOUS
 10
77.5
 20
69.5
 30
0.0
 40
0.5
 50
180.000019
 51
270.000001
  0
ARC
  5
F8AB
  8
DANMEN
  6
CONTINUOUS
 10
77.5
 20
70.699997
 30
0.0
 40
0.5
 50
89.999982
 51
180.000019
  0
LINE
  5
F8AC
  8
DANMEN
  6
CONTINUOUS
 10
77.5
 20
71.199997
 30
0.0
 11
77.800003
 21
71.199997
 31
0.0
  0
LINE
  5
F8AD
  8
DANMEN
  6
CONTINUOUS
 10
77.800003
 20
69.8
 30
0.0
 11
79.5
 21
69.8
 31
0.0
  0
ARC
  5
F8B3
  8
DANMEN
  6
CONTINUOUS
 10
80.0
 20
69.5
 30
0.0
 40
0.5
 50
270.000018
 51
0.0
  0
LINE
  5
F8B6
  8
DANMEN
  6
CONTINUOUS
 10
96.15
 20
66.3
 30
0.0
 11
96.15
 21
59.579555
 31
0.0
  0
ARC
  5
F8B7
  8
DANMEN
  6
CONTINUOUS
 10
95.15
 20
59.579555
 30
0.0
 40
1.0
 50
293.756476
 51
0.0
  0
ARC
  5
F8B9
  8
DANMEN
  6
CONTINUOUS
 10
97.2
 20
69.8
 30
0.0
 40
1.0
 50
180.0
 51
270.0
  0
ARC
  5
F8BA
  8
DANMEN
  6
CONTINUOUS
 10
97.15
 20
66.3
 30
0.0
 40
1.0
 50
90.0
 51
180.0
  0
LINE
  5
F8BB
  8
DANMEN
  6
CONTINUOUS
 10
96.2
 20
69.8
 30
0.0
 11
96.2
 21
71.3
 31
0.0
  0
ARC
  5
F8BE
  8
DANMEN
  6
CONTINUOUS
 10
100.45
 20
70.666295
 30
0.0
 40
0.75
 50
180.0
 51
0.0
  0
LINE
  5
F8BF
  8
DANMEN
  6
CONTINUOUS
 10
99.7
 20
70.666295
 30
0.0
 11
99.7
 21
71.3
 31
0.0
  0
LINE
  5
F8C0
  8
DANMEN
  6
CONTINUOUS
 10
97.2
 20
68.8
 30
0.0
 11
97.833705
 21
68.8
 31
0.0
  0
LINE
  5
F8C1
  8
DANMEN
  6
CONTINUOUS
 10
97.15
 20
67.3
 30
0.0
 11
97.833705
 21
67.3
 31
0.0
  0
ARC
  5
F8C2
  8
DANMEN
  6
CONTINUOUS
 10
97.833705
 20
68.05
 30
0.0
 40
0.75
 50
270.0
 51
90.0
  0
LINE
  5
F8C4
  8
DANMEN
  6
CONTINUOUS
 10
113.0
 20
59.345612
 30
0.0
 11
113.0
 21
34.0
 31
0.0
  0
ARC
  5
F8C5
  8
DANMEN
  6
CONTINUOUS
 10
108.41465
 20
60.260364
 30
0.0
 40
0.5
 50
113.49856
 51
203.49856
  0
ARC
  5
F8C6
  8
DANMEN
  6
CONTINUOUS
 10
112.5
 20
59.5
 30
0.0
 40
0.5
 50
270.0
 51
0.0
  0
ARC
  5
F8C7
  8
DANMEN
  6
CONTINUOUS
 10
108.673822
 20
59.664268
 30
0.0
 40
0.5
 50
203.49856
 51
293.49856
  0
LINE
  5
F8C8
  8
DANMEN
  6
CONTINUOUS
 10
108.215287
 20
59.464905
 30
0.0
 11
107.956115
 21
60.061001
 31
0.0
  0
LINE
  5
F8CA
  8
DANMEN
  6
CONTINUOUS
 10
111.9
 20
59.0
 30
0.0
 11
112.5
 21
59.0
 31
0.0
  0
LINE
  5
F8CB
  8
DANMEN
  6
CONTINUOUS
 10
111.9
 20
59.759133
 30
0.0
 11
111.9
 21
59.0
 31
0.0
  0
LINE
  5
F8CD
  8
DANMEN
  6
CONTINUOUS
 10
111.200637
 20
60.217668
 30
0.0
 11
108.873185
 21
59.205733
 31
0.0
  0
ARC
  5
F8CE
  8
DANMEN
  6
CONTINUOUS
 10
111.4
 20
59.759133
 30
0.0
 40
0.5
 50
0.0
 51
113.49856
  0
LINE
  5
F8D0
  8
DANMEN
  6
CONTINUOUS
 10
111.350006
 20
62.08182
 30
0.0
 11
108.215287
 21
60.718899
 31
0.0
  0
TEXT
  5
F8D7
  8
SUNPO
  6
CONTINUOUS
 10
101.364674
 20
109.790488
 30
0.0
 40
2.5
  1
2.5
  0
LINE
  5
F8D8
  8
SUNPO
  6
CONTINUOUS
 10
102.0
 20
108.790488
 30
0.0
 11
107.614674
 21
108.790488
 31
0.0
  0
LINE
  5
F8D9
  8
DANMEN
  6
CONTINUOUS
 10
100.05
 20
76.0
 30
0.0
 11
111.35
 21
76.0
 31
0.0
  0
LINE
  5
F8DA
  8
DANMEN
  6
CONTINUOUS
 10
101.2
 20
74.35
 30
0.0
 11
111.350006
 21
74.35
 31
0.0
  0
LINE
  5
F8DB
  8
DANMEN
  6
CONTINUOUS
 10
100.0
 20
87.2
 30
0.0
 11
111.35
 21
87.2
 31
0.0
  0
LINE
  5
F8DC
  8
DANMEN
  6
CONTINUOUS
 10
102.0
 20
89.0
 30
0.0
 11
111.35
 21
89.0
 31
0.0
  0
ARC
  5
F8DD
  8
DANMEN
  6
DASHED
 10
102.0
 20
94.699997
 30
0.0
 40
0.5
 50
0.0
 51
89.999982
  0
ARC
  5
F8DE
  8
DANMEN
  6
DASHED
 10
77.5
 20
94.699997
 30
0.0
 40
0.5
 50
90.0
 51
180.0
  0
ARC
  5
F8DF
  8
DANMEN
  6
CONTINUOUS
 10
98.500052
 20
94.99967
 30
0.0
 40
1.5
 50
359.997866
 51
89.997902
  0
ARC
  5
F8E0
  8
DANMEN
  6
CONTINUOUS
 10
85.500052
 20
95.000146
 30
0.0
 40
1.5
 50
89.99792
 51
179.997902
  0
LINE
  5
F8E1
  8
DANMEN
  6
DASHED
 10
98.0
 20
94.0
 30
0.0
 11
86.0
 21
94.0
 31
0.0
  0
LINE
  5
F8E2
  8
DANMEN
  6
DASHED
 10
102.0
 20
95.199997
 30
0.0
 11
77.5
 21
95.199997
 31
0.0
  0
LINE
  5
F8E3
  8
DANMEN
  6
CONTINUOUS
 10
83.8
 20
74.0
 30
0.0
 11
99.55
 21
74.0
 31
0.0
  0
LINE
  5
F8E4
  8
DANMEN
  6
CONTINUOUS
 10
87.0
 20
87.0
 30
0.0
 11
97.0
 21
87.0
 31
0.0
  0
LINE
  5
F8E5
  8
DANMEN
  6
CONTINUOUS
 10
97.0
 20
87.0
 30
0.0
 11
87.0
 21
74.0
 31
0.0
  0
LINE
  5
F8E6
  8
DANMEN
  6
CONTINUOUS
 10
82.0
 20
93.5
 30
0.0
 11
82.0
 21
77.0
 31
0.0
  0
LINE
  5
F8E7
  8
DANMEN
  6
CONTINUOUS
 10
83.8
 20
91.0
 30
0.0
 11
83.8
 21
74.0
 31
0.0
  0
LINE
  5
F8E8
  8
DANMEN
  6
CONTINUOUS
 10
74.0
 20
94.0
 30
0.0
 11
82.0
 21
77.0
 31
0.0
  0
LINE
  5
F8E9
  8
DANMEN
  6
CONTINUOUS
 10
82.0
 20
94.0
 30
0.0
 11
74.0
 21
77.0
 31
0.0
  0
LINE
  5
F8EA
  8
DANMEN
  6
CONTINUOUS
 10
82.0
 20
94.0
 30
0.0
 11
82.0
 21
77.0
 31
0.0
  0
LINE
  5
F8EB
  8
DANMEN
  6
CONTINUOUS
 10
87.0
 20
74.0
 30
0.0
 11
87.0
 21
87.0
 31
0.0
  0
LINE
  5
F8EC
  8
DANMEN
  6
CONTINUOUS
 10
77.5
 20
77.0
 30
0.0
 11
82.0
 21
77.0
 31
0.0
  0
LINE
  5
F8ED
  8
DANMEN
  6
CONTINUOUS
 10
74.0
 20
77.0
 30
0.0
 11
82.0
 21
77.0
 31
0.0
  0
LINE
  5
F8EE
  8
DANMEN
  6
CONTINUOUS
 10
75.386229
 20
76.2
 30
0.0
 11
76.2
 21
76.2
 31
0.0
  0
LINE
  5
F8EF
  8
DANMEN
  6
CONTINUOUS
 10
75.0
 20
77.0
 30
0.0
 11
77.0
 21
77.0
 31
0.0
  0
ARC
  5
F8F1
  8
DANMEN
  6
CONTINUOUS
 10
86.020964
 20
71.823655
 30
0.0
 40
11.5
 50
157.632138
 51
177.49922
  0
ARC
  5
F8F7
  8
DANMEN
  6
CONTINUOUS
 10
74.95
 20
73.25
 30
0.0
 40
0.15
 50
27.871157
 51
207.871179
  0
ARC
  5
F8F9
  8
DANMEN
  6
CONTINUOUS
 10
86.032011
 20
72.27827
 30
0.0
 40
12.0
 50
156.828944
 51
179.716853
  0
ARC
  5
F8FE
  8
DANMEN
  6
CONTINUOUS
 10
76.6
 20
74.1
 30
0.0
 40
0.4
 50
180.000019
 51
270.000001
  0
LINE
  5
F900
  8
DANMEN
  6
CONTINUOUS
 10
76.2
 20
76.2
 30
0.0
 11
76.2
 21
74.1
 31
0.0
  0
LINE
  5
F907
  8
DANMEN
  6
CONTINUOUS
 10
77.0
 20
77.0
 30
0.0
 11
77.0
 21
74.5
 31
0.0
  0
LINE
  5
F908
  8
DANMEN
  6
CONTINUOUS
 10
76.6
 20
73.7
 30
0.0
 11
77.0
 21
73.7
 31
0.0
  0
LINE
  5
F90A
  8
DANMEN
  6
CONTINUOUS
 10
77.0
 20
74.5
 30
0.0
 11
78.0
 21
74.5
 31
0.0
  0
LINE
  5
F90B
  8
DANMEN
  6
CONTINUOUS
 10
79.0
 20
74.5
 30
0.0
 11
78.2
 21
73.7
 31
0.0
  0
ARC
  5
F90E
  8
DANMEN
  6
CONTINUOUS
 10
78.2
 20
75.5
 30
0.0
 40
0.2
 50
89.999982
 51
180.000019
  0
ARC
  5
F910
  8
DANMEN
  6
CONTINUOUS
 10
78.8
 20
75.5
 30
0.0
 40
0.2
 50
0.0
 51
89.999982
  0
LINE
  5
F912
  8
DANMEN
  6
CONTINUOUS
 10
78.0
 20
75.5
 30
0.0
 11
78.0
 21
74.5
 31
0.0
  0
LINE
  5
F913
  8
DANMEN
  6
CONTINUOUS
 10
78.2
 20
75.699999
 30
0.0
 11
78.8
 21
75.699999
 31
0.0
  0
LINE
  5
F914
  8
DANMEN
  6
CONTINUOUS
 10
79.0
 20
75.5
 30
0.0
 11
79.0
 21
74.5
 31
0.0
  0
LINE
  5
F915
  8
DANMEN
  6
CONTINUOUS
 10
77.0
 20
76.5
 30
0.0
 11
77.0
 21
75.300003
 31
0.0
  0
LINE
  5
F916
  8
DANMEN
  6
CONTINUOUS
 10
77.5
 20
74.800003
 30
0.0
 11
77.800003
 21
74.800003
 31
0.0
  0
LINE
  5
F917
  8
DANMEN
  6
CONTINUOUS
 10
77.800003
 20
76.0
 30
0.0
 11
77.800003
 21
74.800003
 31
0.0
  0
ARC
  5
F918
  8
DANMEN
  6
CONTINUOUS
 10
77.5
 20
75.300003
 30
0.0
 40
0.5
 50
180.000019
 51
270.000001
  0
LINE
  5
F919
  8
DANMEN
  6
CONTINUOUS
 10
77.800003
 20
76.0
 30
0.0
 11
79.5
 21
76.0
 31
0.0
  0
ARC
  5
F91A
  8
DANMEN
  6
CONTINUOUS
 10
77.5
 20
76.5
 30
0.0
 40
0.5
 50
89.999982
 51
180.000019
  0
LINE
  5
F926
  8
DANMEN
  6
CONTINUOUS
 10
83.0
 20
72.2
 30
0.0
 11
86.5
 21
72.2
 31
0.0
  0
LINE
  5
F927
  8
DANMEN
  6
CONTINUOUS
 10
82.0
 20
73.2
 30
0.0
 11
82.0
 21
75.2
 31
0.0
  0
LINE
  5
F92A
  8
DANMEN
  6
CONTINUOUS
 10
80.5
 20
75.2
 30
0.0
 11
82.0
 21
75.2
 31
0.0
  0
LINE
  5
F931
  8
DANMEN
  6
DASHED
 10
84.5
 20
94.0
 30
0.0
 11
78.714146
 21
94.0
 31
0.0
  0
LINE
  5
F932
  8
DANMEN
  6
CONTINUOUS
 10
74.0
 20
94.0
 30
0.0
 11
82.0
 21
94.0
 31
0.0
  0
ARC
  5
F933
  8
DANMEN
  6
DASHED
 10
78.714146
 20
93.0
 30
0.0
 40
1.0
 50
89.999982
 51
135.573244
  0
LINE
  5
F934
  8
DANMEN
  6
DASHED
 10
78.0
 20
93.699997
 30
0.0
 11
77.5
 21
93.699997
 31
0.0
  0
LINE
  5
F935
  8
DANMEN
  6
DASHED
 10
77.0
 20
94.699997
 30
0.0
 11
77.0
 21
94.199997
 31
0.0
  0
ARC
  5
F936
  8
DANMEN
  6
DASHED
 10
77.5
 20
94.199997
 30
0.0
 40
0.5
 50
180.0
 51
270.0
  0
LINE
  5
F93B
  8
DANMEN
  6
DASHED
 10
84.023824
 20
90.382864
 30
0.0
 11
85.423825
 21
87.082833
 31
0.0
  0
LINE
  5
F93C
  8
DANMEN
  6
DASHED
 10
85.5
 20
89.399997
 30
0.0
 11
85.5
 21
93.5
 31
0.0
  0
LINE
  5
F93D
  8
DANMEN
  6
DASHED
 10
85.5
 20
89.399997
 30
0.0
 11
85.992312
 21
87.26748
 31
0.0
  0
ARC
  5
F93E
  8
DANMEN
  6
DASHED
 10
85.7
 20
87.199997
 30
0.0
 40
0.3
 50
202.988532
 51
12.999521
  0
ARC
  5
F942
  8
DANMEN
  6
DASHED
 10
84.299999
 20
90.500028
 30
0.0
 40
0.3
 50
124.343976
 51
202.988532
  0
ARC
  5
F943
  8
DANMEN
  6
CONTINUOUS
 10
84.0
 20
93.5
 30
0.0
 40
0.5
 50
0.0
 51
90.0
  0
LINE
  5
F944
  8
DANMEN
  6
CONTINUOUS
 10
83.8
 20
91.0
 30
0.0
 11
84.5
 21
91.0
 31
0.0
  0
LINE
  5
F946
  8
DANMEN
  6
CONTINUOUS
 10
82.5
 20
94.0
 30
0.0
 11
84.0
 21
94.0
 31
0.0
  0
ARC
  5
F947
  8
DANMEN
  6
CONTINUOUS
 10
82.5
 20
93.5
 30
0.0
 40
0.5
 50
90.0
 51
180.0
  0
ARC
  5
F94B
  8
DANMEN
  6
DASHED
 10
86.0
 20
93.5
 30
0.0
 40
0.5
 50
90.0
 51
180.0
  0
LINE
  5
F94C
  8
DANMEN
  6
DASHED
 10
84.5
 20
94.0
 30
0.0
 11
84.5
 21
91.000035
 31
0.0
  0
LINE
  5
F94D
  8
DANMEN
  6
DASHED
 10
84.5
 20
91.000035
 30
0.0
 11
84.130743
 21
90.747729
 31
0.0
  0
LINE
  5
F952
  8
DANMEN
  6
CONTINUOUS
 10
84.5
 20
93.5
 30
0.0
 11
84.5
 21
91.0
 31
0.0
  0
ARC
  5
F955
  8
DANMEN
  6
DASHED
 10
98.3
 20
83.699997
 30
0.0
 40
0.3
 50
167.000479
 51
337.011468
  0
LINE
  5
F956
  8
DANMEN
  6
DASHED
 10
99.976176
 20
86.882864
 30
0.0
 11
98.576175
 21
83.582833
 31
0.0
  0
LINE
  5
F957
  8
DANMEN
  6
CONTINUOUS
 10
97.0
 20
74.0
 30
0.0
 11
97.0
 21
87.0
 31
0.0
  0
LINE
  5
F95A
  8
DANMEN
  6
CONTINUOUS
 10
97.2
 20
72.3
 30
0.0
 11
98.7
 21
72.3
 31
0.0
  0
LINE
  5
F95B
  8
DANMEN
  6
CONTINUOUS
 10
99.55
 20
74.0
 30
0.0
 11
99.55
 21
75.5
 31
0.0
  0
ARC
  5
F95C
  8
DANMEN
  6
CONTINUOUS
 10
100.05
 20
75.5
 30
0.0
 40
0.5
 50
90.0
 51
180.0
  0
LINE
  5
F963
  8
DANMEN
  6
DASHED
 10
99.5
 20
94.0
 30
0.0
 11
99.5
 21
87.500035
 31
0.0
  0
LINE
  5
F964
  8
DANMEN
  6
DASHED
 10
98.5
 20
85.899997
 30
0.0
 11
98.5
 21
93.5
 31
0.0
  0
LINE
  5
F965
  8
DANMEN
  6
CONTINUOUS
 10
102.0
 20
93.0
 30
0.0
 11
102.0
 21
89.0
 31
0.0
  0
LINE
  5
F966
  8
DANMEN
  6
CONTINUOUS
 10
100.35
 20
88.2
 30
0.0
 11
100.35
 21
91.0
 31
0.0
  0
ARC
  5
F968
  8
DANMEN
  6
DASHED
 10
99.700001
 20
87.000028
 30
0.0
 40
0.3
 50
337.011468
 51
55.656024
  0
LINE
  5
F969
  8
DANMEN
  6
DASHED
 10
99.5
 20
87.500035
 30
0.0
 11
99.869257
 21
87.247729
 31
0.0
  0
LINE
  5
F96A
  8
DANMEN
  6
DASHED
 10
98.5
 20
85.899997
 30
0.0
 11
98.007688
 21
83.76748
 31
0.0
  0
LINE
  5
F96E
  8
DANMEN
  6
CONTINUOUS
 10
100.0
 20
88.2
 30
0.0
 11
100.35
 21
88.2
 31
0.0
  0
ARC
  5
F96F
  8
DANMEN
  6
CONTINUOUS
 10
100.0
 20
87.7
 30
0.0
 40
0.5
 50
90.0
 51
270.0
  0
LINE
  5
F974
  8
DANMEN
  6
DASHED
 10
99.5
 20
94.0
 30
0.0
 11
102.5
 21
94.0
 31
0.0
  0
LINE
  5
F975
  8
DANMEN
  6
CONTINUOUS
 10
100.0
 20
94.0
 30
0.0
 11
103.0
 21
94.0
 31
0.0
  0
ARC
  5
F976
  8
DANMEN
  6
DASHED
 10
98.0
 20
93.5
 30
0.0
 40
0.5
 50
0.0
 51
90.0
  0
LINE
  5
F979
  8
DANMEN
  6
CONTINUOUS
 10
100.35
 20
91.0
 30
0.0
 11
99.5
 21
91.0
 31
0.0
  0
LINE
  5
F97A
  8
DANMEN
  6
CONTINUOUS
 10
99.5
 20
93.5
 30
0.0
 11
99.5
 21
91.0
 31
0.0
  0
ARC
  5
F97B
  8
DANMEN
  6
CONTINUOUS
 10
100.0
 20
93.5
 30
0.0
 40
0.5
 50
89.999981
 51
180.000037
  0
LINE
  5
F97F
  8
DANMEN
  6
DASHED
 10
102.5
 20
94.0
 30
0.0
 11
102.5
 21
94.699997
 31
0.0
  0
LINE
  5
F982
  8
DANMEN
  6
CONTINUOUS
 10
103.0
 20
94.0
 30
0.0
 11
103.0
 21
93.5
 31
0.0
  0
LINE
  5
F984
  8
DANMEN
  6
CONTINUOUS
 10
102.0
 20
93.0
 30
0.0
 11
102.5
 21
93.0
 31
0.0
  0
ARC
  5
F986
  8
DANMEN
  6
CONTINUOUS
 10
102.5
 20
93.5
 30
0.0
 40
0.5
 50
270.0
 51
0.0
  0
ARC
  5
F988
  8
DANMEN
  6
CONTINUOUS
 10
88.000153
 20
98.000055
 30
0.0
 40
1.5
 50
269.997884
 51
359.997866
  0
LINE
  5
F989
  8
SUNPO
  6
CONTINUOUS
 10
84.5
 20
108.790488
 30
0.0
 11
99.5
 21
108.790488
 31
0.0
  0
LINE
  5
F98A
  8
DANMEN
  6
CONTINUOUS
 10
84.5
 20
95.5
 30
0.0
 11
84.5
 21
108.790488
 31
0.0
  0
LINE
  5
F98B
  8
SUNPO
  6
CONTINUOUS
 10
84.5
 20
95.5
 30
0.0
 11
84.5
 21
108.790488
 31
0.0
  0
LINE
  5
F98C
  8
DANMEN
  6
CONTINUOUS
 10
82.0
 20
95.5
 30
0.0
 11
82.0
 21
108.790488
 31
0.0
  0
LINE
  5
F98D
  8
DANMEN
  6
CONTINUOUS
 10
88.000098
 20
96.500055
 30
0.0
 11
85.500107
 21
96.500146
 31
0.0
  0
TEXT
  5
F98E
  8
SUNPO
  6
CONTINUOUS
 10
78.1669
 20
109.790488
 30
0.0
 40
2.5
  1
2.5
  0
LINE
  5
F98F
  8
SUNPO
  6
CONTINUOUS
 10
76.9169
 20
108.790488
 30
0.0
 11
82.0
 21
108.790488
 31
0.0
  0
LINE
  5
F990
  8
SUNPO
  6
CONTINUOUS
 10
82.0
 20
108.790488
 30
0.0
 11
84.5
 21
108.790488
 31
0.0
  0
LINE
  5
F991
  8
SUNPO
  6
CONTINUOUS
 10
82.0
 20
108.790488
 30
0.0
 11
82.0
 21
108.790488
 31
0.0
  0
ARC
  5
F992
  8
SUNPO
  6
BYBLOCK
 10
82.0
 20
108.790488
 30
0.0
 40
0.145
 50
0.0
 51
180.0
  0
ARC
  5
F993
  8
SUNPO
  6
BYBLOCK
 10
82.0
 20
108.790488
 30
0.0
 40
0.145
 50
180.0
 51
0.0
  0
LINE
  5
F994
  8
SUNPO
  6
CONTINUOUS
 10
84.5
 20
108.790488
 30
0.0
 11
84.5
 21
108.790488
 31
0.0
  0
ARC
  5
F995
  8
SUNPO
  6
BYBLOCK
 10
84.5
 20
108.790488
 30
0.0
 40
0.145
 50
180.0
 51
0.0
  0
ARC
  5
F996
  8
SUNPO
  6
BYBLOCK
 10
84.5
 20
108.790488
 30
0.0
 40
0.145
 50
0.0
 51
180.0
  0
ARC
  5
F997
  8
SUNPO
  6
BYBLOCK
 10
84.5
 20
108.790488
 30
0.0
 40
0.145
 50
180.0
 51
0.0
  0
ARC
  5
F998
  8
SUNPO
  6
BYBLOCK
 10
84.5
 20
108.790488
 30
0.0
 40
0.145
 50
0.0
 51
180.0
  0
LINE
  5
F999
  8
DANMEN
  6
CONTINUOUS
 10
99.5
 20
95.5
 30
0.0
 11
99.5
 21
108.790488
 31
0.0
  0
LINE
  5
F99A
  8
DANMEN
  6
CONTINUOUS
 10
102.0
 20
95.5
 30
0.0
 11
102.0
 21
108.790488
 31
0.0
  0
LINE
  5
F99B
  8
SUNPO
  6
CONTINUOUS
 10
99.5
 20
95.5
 30
0.0
 11
99.5
 21
108.790488
 31
0.0
  0
LINE
  5
F99C
  8
DANMEN
  6
CONTINUOUS
 10
98.500107
 20
96.49967
 30
0.0
 11
96.000101
 21
96.499762
 31
0.0
  0
ARC
  5
F99D
  8
DANMEN
  6
CONTINUOUS
 10
96.000156
 20
97.999762
 30
0.0
 40
1.5
 50
179.997902
 51
269.997884
  0
TEXT
  5
F99E
  8
SUNPO
  6
CONTINUOUS
 10
90.333333
 20
109.790488
 30
0.0
 40
2.5
  1
15
  0
LINE
  5
F99F
  8
SUNPO
  6
CONTINUOUS
 10
99.5
 20
108.790488
 30
0.0
 11
102.0
 21
108.790488
 31
0.0
  0
LINE
  5
F9A0
  8
SUNPO
  6
CONTINUOUS
 10
99.5
 20
108.790488
 30
0.0
 11
99.5
 21
108.790488
 31
0.0
  0
ARC
  5
F9A1
  8
SUNPO
  6
BYBLOCK
 10
99.5
 20
108.790488
 30
0.0
 40
0.145
 50
0.0
 51
180.0
  0
ARC
  5
F9A2
  8
SUNPO
  6
BYBLOCK
 10
99.5
 20
108.790488
 30
0.0
 40
0.145
 50
180.0
 51
0.0
  0
ARC
  5
F9A3
  8
SUNPO
  6
BYBLOCK
 10
99.5
 20
108.790488
 30
0.0
 40
0.145
 50
0.0
 51
180.0
  0
ARC
  5
F9A4
  8
SUNPO
  6
BYBLOCK
 10
99.5
 20
108.790488
 30
0.0
 40
0.145
 50
180.0
 51
0.0
  0
LINE
  5
F9A5
  8
SUNPO
  6
CONTINUOUS
 10
102.0
 20
108.790488
 30
0.0
 11
102.0
 21
108.790488
 31
0.0
  0
ARC
  5
F9A6
  8
SUNPO
  6
BYBLOCK
 10
102.0
 20
108.790488
 30
0.0
 40
0.145
 50
180.0
 51
0.0
  0
ARC
  5
F9A7
  8
SUNPO
  6
BYBLOCK
 10
102.0
 20
108.790488
 30
0.0
 40
0.145
 50
0.0
 51
180.0
  0
LINE
  5
F9A8
  8
DANMEN
  6
CONTINUOUS
 10
109.31756
 20
106.00832
 30
0.0
 11
109.30001
 21
89.520979
 31
0.0
  0
LINE
  5
F9A9
  8
DANMEN
  6
CONTINUOUS
 10
110.517555
 20
106.354639
 30
0.0
 11
110.004224
 21
90.029237
 31
0.0
  0
LINE
  5
F9AA
  8
DANMEN
  6
CONTINUOUS
 10
109.017555
 20
105.997915
 30
0.0
 11
109.0
 21
89.5
 31
0.0
  0
LINE
  5
F9AB
  8
DANMEN
  6
CONTINUOUS
 10
113.0
 20
106.59407
 30
0.0
 11
113.0
 21
94.0
 31
0.0
  0
LINE
  5
F9AC
  8
DANMEN
  6
CONTINUOUS
 10
111.350006
 20
106.197827
 30
0.0
 11
111.350006
 21
94.0
 31
0.0
  0
LINE
  5
F9AD
  8
DANMEN
  6
CONTINUOUS
 10
111.35
 20
87.2
 30
0.0
 11
111.35
 21
76.0
 31
0.0
  0
ARC
  5
F9B0
  8
DANMEN
  6
CONTINUOUS
 10
112.5
 20
93.5
 30
0.0
 40
0.5
 50
0.0
 51
90.0
  0
ARC
  5
F9B1
  8
DANMEN
  6
CONTINUOUS
 10
109.504277
 20
90.036483
 30
0.0
 40
0.5
 50
274.0
 51
359.16958
  0
LINE
  5
F9B2
  8
DANMEN
  6
CONTINUOUS
 10
111.35
 20
93.5
 30
0.0
 11
111.35
 21
89.0
 31
0.0
  0
LINE
  5
F9B6
  8
DANMEN
  6
CONTINUOUS
 10
109.0
 20
89.5
 30
0.0
 11
109.539155
 21
89.537701
 31
0.0
  0
LINE
  5
F9B9
  8
DANMEN
  6
CONTINUOUS
 10
111.85
 20
94.0
 30
0.0
 11
112.5
 21
94.0
 31
0.0
  0
ARC
  5
F9BA
  8
DANMEN
  6
CONTINUOUS
 10
111.85
 20
93.5
 30
0.0
 40
0.5
 50
90.0
 51
180.0
  0
LINE
  5
F9BE
  8
DANMEN
  6
CONTINUOUS
 10
134.381386
 20
108.846997
 30
0.0
 11
110.517555
 21
105.997915
 31
0.0
  0
LINE
  5
F9BF
  8
DANMEN
  6
CONTINUOUS
 10
112.517555
 20
114.497915
 30
0.0
 11
135.717555
 21
114.497915
 31
0.0
  0
LINE
  5
F9C0
  8
DANMEN
  6
CONTINUOUS
 10
110.517555
 20
112.497915
 30
0.0
 11
110.517555
 21
105.997915
 31
0.0
  0
LINE
  5
F9C1
  8
DANMEN
  6
CONTINUOUS
 10
109.317555
 20
110.497915
 30
0.0
 11
109.317555
 21
105.987367
 31
0.0
  0
LINE
  5
F9C2
  8
DANMEN
  6
CONTINUOUS
 10
109.017555
 20
110.497915
 30
0.0
 11
109.017555
 21
105.997915
 31
0.0
  0
ARC
  5
F9C6
  8
DANMEN
  6
CONTINUOUS
 10
112.517555
 20
112.497915
 30
0.0
 40
2.0
 50
89.999982
 51
180.000019
  0
LINE
  5
F9C9
  8
DANMEN
  6
CONTINUOUS
 10
109.017555
 20
110.497915
 30
0.0
 11
110.517555
 21
110.497915
 31
0.0
  0
LINE
  5
F9CD
  8
DANMEN
  6
CONTINUOUS
 10
136.217555
 20
113.997915
 30
0.0
 11
136.217555
 21
110.840276
 31
0.0
  0
ARC
  5
F9CF
  8
DANMEN
  6
CONTINUOUS
 10
134.217555
 20
110.840276
 30
0.0
 40
2.0
 50
274.698681
 51
0.0
  0
ARC
  5
F9D4
  8
DANMEN
  6
CONTINUOUS
 10
135.717555
 20
113.997915
 30
0.0
 40
0.5
 50
0.0
 51
89.999982
  0
LINE
  5
F9D6
  8
DANMEN
  6
CONTINUOUS
 10
190.649994
 20
90.649994
 30
0.0
 11
197.350006
 21
90.649994
 31
0.0
  0
ARC
  5
F9D7
  8
DANMEN
  6
CONTINUOUS
 10
189.5
 20
89.5
 30
0.0
 40
0.5
 50
180.000036
 51
269.999963
  0
ARC
  5
F9D9
  8
DANMEN
  6
CONTINUOUS
 10
190.149994
 20
94.5
 30
0.0
 40
0.5
 50
359.999981
 51
89.999982
  0
LINE
  5
F9DA
  8
DANMEN
  6
CONTINUOUS
 10
189.5
 20
95.0
 30
0.0
 11
190.149994
 21
95.0
 31
0.0
  0
LINE
  5
F9DB
  8
DANMEN
  6
CONTINUOUS
 10
189.0
 20
94.5
 30
0.0
 11
189.0
 21
89.5
 31
0.0
  0
LINE
  5
F9DC
  8
DANMEN
  6
CONTINUOUS
 10
190.649994
 20
94.5
 30
0.0
 11
190.649994
 21
90.649994
 31
0.0
  0
ARC
  5
F9DD
  8
DANMEN
  6
CONTINUOUS
 10
189.5
 20
94.5
 30
0.0
 40
0.5
 50
89.999982
 51
180.000019
  0
LINE
  5
F9E4
  8
DANMEN
  6
CONTINUOUS
 10
199.0
 20
90.1
 30
0.0
 11
201.0
 21
90.1
 31
0.0
  0
LINE
  5
F9E5
  8
DANMEN
  6
CONTINUOUS
 10
201.0
 20
90.649994
 30
0.0
 11
201.0
 21
90.1
 31
0.0
  0
ARC
  5
F9E7
  8
DANMEN
  6
CONTINUOUS
 10
71.3
 20
183.5
 30
0.0
 40
0.5
 50
270.000018
 51
0.0
  0
ARC
  5
F9E8
  8
DANMEN
  6
CONTINUOUS
 10
71.3
 20
225.5
 30
0.0
 40
0.5
 50
0.0
 51
89.999982
  0
LINE
  5
F9E9
  8
DANMEN
  6
CONTINUOUS
 10
82.65
 20
246.600012
 30
0.0
 11
64.4
 21
246.600012
 31
0.0
  0
LINE
  5
F9EA
  8
DANMEN
  6
CONTINUOUS
 10
82.0
 20
244.950012
 30
0.0
 11
66.5
 21
244.950012
 31
0.0
  0
LINE
  5
F9EB
  8
SUNPO
  6
CONTINUOUS
 10
43.0
 20
173.0
 30
0.0
 11
113.0
 21
173.0
 31
0.0
  0
LINE
  5
F9ED
  8
DANMEN
  6
CONTINUOUS
 10
48.5
 20
253.0
 30
0.0
 11
107.5
 21
253.0
 31
0.0
  0
LINE
  5
F9EE
  8
DANMEN
  6
CONTINUOUS
 10
66.0
 20
226.0
 30
0.0
 11
81.95
 21
226.0
 31
0.0
  0
LINE
  5
F9EF
  8
DANMEN
  6
CONTINUOUS
 10
70.700003
 20
225.2
 30
0.0
 11
70.700003
 21
199.5
 31
0.0
  0
LINE
  5
F9F0
  8
DANMEN
  6
CONTINUOUS
 10
53.3
 20
218.0
 30
0.0
 11
53.3
 21
199.5
 31
0.0
  0
LINE
  5
F9F1
  8
DANMEN
  6
CONTINUOUS
 10
52.2
 20
225.5
 30
0.0
 11
52.2
 21
183.5
 31
0.0
  0
LINE
  5
F9F2
  8
DANMEN
  6
CONTINUOUS
 10
43.0
 20
218.5
 30
0.0
 11
43.0
 21
167.0
 31
0.0
  0
LINE
  5
F9F3
  8
DANMEN
  6
CONTINUOUS
 10
50.0
 20
226.0
 30
0.0
 11
50.0
 21
167.0
 31
0.0
  0
LINE
  5
F9F4
  8
DANMEN
  6
CONTINUOUS
 10
44.649994
 20
218.5
 30
0.0
 11
44.649994
 21
167.0
 31
0.0
  0
LINE
  5
F9F5
  8
DANMEN
  6
CONTINUOUS
 10
58.0
 20
219.258575
 30
0.0
 11
58.0
 21
207.0
 31
0.0
  0
LINE
  5
F9F6
  8
DANMEN
  6
CONTINUOUS
 10
66.0
 20
226.0
 30
0.0
 11
66.0
 21
207.0
 31
0.0
  0
LINE
  5
F9F9
  8
DANMEN
  6
CONTINUOUS
 10
64.500009
 20
141.0
 30
0.0
 11
64.500009
 21
164.0
 31
0.0
  0
LINE
  5
F9FA
  8
DANMEN
  6
CONTINUOUS
 10
59.500021
 20
140.999985
 30
0.0
 11
59.500021
 21
164.0
 31
0.0
  0
LINE
  5
F9FB
  8
DANMEN
  6
CONTINUOUS
 10
64.000009
 20
141.0
 30
0.0
 11
64.000009
 21
164.0
 31
0.0
  0
LINE
  5
F9FC
  8
DANMEN
  6
CONTINUOUS
 10
60.000021
 20
140.999985
 30
0.0
 11
60.000021
 21
164.0
 31
0.0
  0
LINE
  5
FA07
  8
DANMEN
  6
CONTINUOUS
 10
64.500009
 20
140.999985
 30
0.0
 11
59.500006
 21
140.999985
 31
0.0
  0
ARC
  5
FA10
  8
DANMEN
  6
CONTINUOUS
 10
55.5
 20
148.999908
 30
0.0
 40
1.5
 50
90.000018
 51
180.0
  0
LINE
  5
FA11
  8
DANMEN
  6
CONTINUOUS
 10
54.000015
 20
148.0
 30
0.0
 11
54.000015
 21
164.0
 31
0.0
  0
LINE
  5
FA22
  8
DANMEN
  6
CONTINUOUS
 10
70.0
 20
148.0
 30
0.0
 11
70.0
 21
164.0
 31
0.0
  0
ARC
  5
FA23
  8
DANMEN
  6
CONTINUOUS
 10
57.999991
 20
151.999908
 30
0.0
 40
1.5
 50
269.999982
 51
359.999964
  0
LINE
  5
FA24
  8
DANMEN
  6
CONTINUOUS
 10
57.999991
 20
150.499908
 30
0.0
 11
55.5
 21
150.499908
 31
0.0
  0
LINE
  5
FA34
  8
DANMEN
  6
CONTINUOUS
 10
68.5
 20
150.499908
 30
0.0
 11
65.999994
 21
150.499908
 31
0.0
  0
ARC
  5
FA35
  8
DANMEN
  6
CONTINUOUS
 10
65.999994
 20
151.999908
 30
0.0
 40
1.5
 50
180.0
 51
269.999982
  0
ARC
  5
FA36
  8
DANMEN
  6
CONTINUOUS
 10
68.5
 20
148.999908
 30
0.0
 40
1.5
 50
359.999964
 51
90.000001
  0
LINE
  5
FA39
  8
DANMEN
  6
CONTINUOUS
 10
70.700003
 20
198.400003
 30
0.0
 11
70.700003
 21
184.1
 31
0.0
  0
LINE
  5
FA3A
  8
DANMEN
  6
CONTINUOUS
 10
53.3
 20
198.400003
 30
0.0
 11
53.3
 21
184.1
 31
0.0
  0
LINE
  5
FA3B
  8
DANMEN
  6
CONTINUOUS
 10
59.499991
 20
190.0
 30
0.0
 11
59.499991
 21
167.0
 31
0.0
  0
LINE
  5
FA3C
  8
DANMEN
  6
CONTINUOUS
 10
64.499979
 20
190.000015
 30
0.0
 11
64.499979
 21
167.0
 31
0.0
  0
LINE
  5
FA3D
  8
DANMEN
  6
CONTINUOUS
 10
59.999991
 20
190.0
 30
0.0
 11
59.999991
 21
167.0
 31
0.0
  0
LINE
  5
FA3E
  8
DANMEN
  6
CONTINUOUS
 10
63.999979
 20
190.000015
 30
0.0
 11
63.999979
 21
167.0
 31
0.0
  0
ARC
  5
FA3F
  8
DANMEN
  6
CONTINUOUS
 10
55.5
 20
182.0
 30
0.0
 40
1.5
 50
179.999964
 51
270.000001
  0
LINE
  5
FA40
  8
DANMEN
  6
CONTINUOUS
 10
54.0
 20
183.0
 30
0.0
 11
54.0
 21
167.0
 31
0.0
  0
ARC
  5
FA41
  8
SUNPO
  6
BYBLOCK
 10
43.0
 20
173.0
 30
0.0
 40
0.145
 50
180.0
 51
0.0
  0
ARC
  5
FA42
  8
SUNPO
  6
BYBLOCK
 10
43.0
 20
173.0
 30
0.0
 40
0.145
 50
0.0
 51
180.0
  0
ARC
  5
FA43
  8
DANMEN
  6
CONTINUOUS
 10
54.5
 20
183.5
 30
0.0
 40
0.5
 50
270.000018
 51
0.0
  0
ARC
  5
FA45
  8
DANMEN
  6
CONTINUOUS
 10
52.7
 20
183.5
 30
0.0
 40
0.5
 50
180.000019
 51
270.000001
  0
LINE
  5
FA49
  8
DANMEN
  6
CONTINUOUS
 10
54.850131
 20
186.0
 30
0.0
 11
55.0
 21
186.0
 31
0.0
  0
LINE
  5
FA4A
  8
DANMEN
  6
CONTINUOUS
 10
55.0
 20
186.0
 30
0.0
 11
55.0
 21
183.5
 31
0.0
  0
LINE
  5
FA4B
  8
DANMEN
  6
CONTINUOUS
 10
52.7
 20
183.0
 30
0.0
 11
54.5
 21
183.0
 31
0.0
  0
LINE
  5
FA4D
  8
DANMEN
  6
CONTINUOUS
 10
53.3
 20
184.1
 30
0.0
 11
54.2
 21
184.1
 31
0.0
  0
LINE
  5
FA50
  8
DANMEN
  6
CONTINUOUS
 10
54.352878
 20
185.552342
 30
0.0
 11
54.2
 21
184.1
 31
0.0
  0
ARC
  5
FA51
  8
DANMEN
  6
CONTINUOUS
 10
54.850131
 20
185.5
 30
0.0
 40
0.5
 50
90.0
 51
173.990994
  0
LINE
  5
FA52
  8
DANMEN
  6
CONTINUOUS
 10
70.0
 20
183.0
 30
0.0
 11
70.0
 21
167.0
 31
0.0
  0
ARC
  5
FA53
  8
DANMEN
  6
CONTINUOUS
 10
58.000006
 20
179.0
 30
0.0
 40
1.5
 50
0.0
 51
89.999982
  0
LINE
  5
FA54
  8
DANMEN
  6
CONTINUOUS
 10
55.5
 20
180.5
 30
0.0
 11
58.000006
 21
180.5
 31
0.0
  0
LINE
  5
FA57
  8
DANMEN
  6
CONTINUOUS
 10
66.000009
 20
180.5
 30
0.0
 11
68.5
 21
180.5
 31
0.0
  0
ARC
  5
FA58
  8
DANMEN
  6
CONTINUOUS
 10
66.000009
 20
179.0
 30
0.0
 40
1.5
 50
89.999982
 51
179.999964
  0
ARC
  5
FA59
  8
DANMEN
  6
CONTINUOUS
 10
68.5
 20
182.0
 30
0.0
 40
1.5
 50
270.000018
 51
0.0
  0
LINE
  5
FA5B
  8
DANMEN
  6
CONTINUOUS
 10
69.5
 20
183.0
 30
0.0
 11
71.3
 21
183.0
 31
0.0
  0
LINE
  5
FA5C
  8
DANMEN
  6
CONTINUOUS
 10
70.7
 20
184.1
 30
0.0
 11
69.8
 21
184.1
 31
0.0
  0
ARC
  5
FA5D
  8
DANMEN
  6
CONTINUOUS
 10
69.149869
 20
185.5
 30
0.0
 40
0.5
 50
6.009006
 51
90.0
  0
LINE
  5
FA5E
  8
DANMEN
  6
CONTINUOUS
 10
69.647122
 20
185.552342
 30
0.0
 11
69.8
 21
184.1
 31
0.0
  0
LINE
  5
FA61
  8
DANMEN
  6
CONTINUOUS
 10
69.0
 20
186.0
 30
0.0
 11
69.0
 21
183.5
 31
0.0
  0
LINE
  5
FA62
  8
DANMEN
  6
CONTINUOUS
 10
69.149869
 20
186.0
 30
0.0
 11
69.0
 21
186.0
 31
0.0
  0
ARC
  5
FA64
  8
DANMEN
  6
CONTINUOUS
 10
69.5
 20
183.5
 30
0.0
 40
0.5
 50
180.0
 51
270.0
  0
LINE
  5
FA65
  8
DANMEN
  6
CONTINUOUS
 10
53.3
 20
198.400003
 30
0.0
 11
57.700001
 21
198.400003
 31
0.0
  0
LINE
  5
FA66
  8
DANMEN
  6
CONTINUOUS
 10
53.3
 20
199.5
 30
0.0
 11
59.000001
 21
199.5
 31
0.0
  0
LINE
  5
FA69
  8
DANMEN
  6
CONTINUOUS
 10
63.399999
 20
193.900001
 30
0.0
 11
64.53973
 21
193.900001
 31
0.0
  0
ARC
  5
FA6A
  8
DANMEN
  6
CONTINUOUS
 10
62.799999
 20
195.55394
 30
0.0
 40
1.0
 50
294.62438
 51
0.0
  0
ARC
  5
FA6B
  8
DANMEN
  6
CONTINUOUS
 10
62.799999
 20
196.799999
 30
0.0
 40
1.0
 50
359.999945
 51
89.999982
  0
LINE
  5
FA6C
  8
DANMEN
  6
CONTINUOUS
 10
59.200001
 20
199.3
 30
0.0
 11
64.800001
 21
199.3
 31
0.0
  0
LINE
  5
FA6D
  8
DANMEN
  6
CONTINUOUS
 10
59.499991
 20
190.000015
 30
0.0
 11
64.499994
 21
190.000015
 31
0.0
  0
ARC
  5
FA6E
  8
DANMEN
  6
CONTINUOUS
 10
63.399999
 20
194.200001
 30
0.0
 40
0.3
 50
180.000019
 51
270.000055
  0
ARC
  5
FA6F
  8
DANMEN
  6
CONTINUOUS
 10
60.600001
 20
194.200001
 30
0.0
 40
0.3
 50
270.000018
 51
0.0
  0
ARC
  5
FA70
  8
DANMEN
  6
CONTINUOUS
 10
60.700001
 20
195.469418
 30
0.0
 40
2.0
 50
180.000019
 51
231.693677
  0
LINE
  5
FA71
  8
DANMEN
  6
CONTINUOUS
 10
59.46027
 20
193.900001
 30
0.0
 11
60.600001
 21
193.900001
 31
0.0
  0
LINE
  5
FA72
  8
DANMEN
  6
CONTINUOUS
 10
58.700001
 20
197.400003
 30
0.0
 11
58.700001
 21
195.469418
 31
0.0
  0
ARC
  5
FA73
  8
DANMEN
  6
CONTINUOUS
 10
57.700001
 20
197.400003
 30
0.0
 40
1.0
 50
0.0
 51
90.0
  0
LINE
  5
FA76
  8
DANMEN
  6
CONTINUOUS
 10
59.000001
 20
199.5
 30
0.0
 11
59.200001
 21
199.3
 31
0.0
  0
ARC
  5
FA77
  8
DANMEN
  6
CONTINUOUS
 10
63.299999
 20
194.463069
 30
0.0
 40
0.2
 50
114.624344
 51
180.000019
  0
ARC
  5
FA78
  8
DANMEN
  6
CONTINUOUS
 10
60.700001
 20
194.463069
 30
0.0
 40
0.2
 50
0.0
 51
65.375675
  0
ARC
  5
FA79
  8
DANMEN
  6
CONTINUOUS
 10
61.200001
 20
195.55394
 30
0.0
 40
1.0
 50
180.000019
 51
245.375639
  0
LINE
  5
FA7A
  8
DANMEN
  6
CONTINUOUS
 10
60.900001
 20
194.463069
 30
0.0
 11
60.900001
 21
194.200001
 31
0.0
  0
ARC
  5
FA7B
  8
DANMEN
  6
CONTINUOUS
 10
61.200001
 20
196.799999
 30
0.0
 40
1.0
 50
89.999982
 51
180.000019
  0
LINE
  5
FA7C
  8
DANMEN
  6
CONTINUOUS
 10
61.200001
 20
197.799999
 30
0.0
 11
62.799999
 21
197.799999
 31
0.0
  0
LINE
  5
FA7D
  8
DANMEN
  6
CONTINUOUS
 10
60.200001
 20
196.799998
 30
0.0
 11
60.200001
 21
195.55394
 31
0.0
  0
LINE
  5
FA7E
  8
DANMEN
  6
CONTINUOUS
 10
63.1
 20
194.200001
 30
0.0
 11
63.1
 21
194.463069
 31
0.0
  0
ARC
  5
FA81
  8
DANMEN
  6
CONTINUOUS
 10
63.299999
 20
195.469418
 30
0.0
 40
2.0
 50
308.306342
 51
359.999945
  0
LINE
  5
FA82
  8
DANMEN
  6
CONTINUOUS
 10
66.299999
 20
198.400003
 30
0.0
 11
70.700003
 21
198.400003
 31
0.0
  0
LINE
  5
FA83
  8
DANMEN
  6
CONTINUOUS
 10
65.000001
 20
199.5
 30
0.0
 11
70.700003
 21
199.5
 31
0.0
  0
LINE
  5
FA84
  8
DANMEN
  6
CONTINUOUS
 10
65.299999
 20
195.469418
 30
0.0
 11
65.299999
 21
197.400003
 31
0.0
  0
LINE
  5
FA85
  8
DANMEN
  6
CONTINUOUS
 10
63.799999
 20
195.55394
 30
0.0
 11
63.799999
 21
196.799998
 31
0.0
  0
ARC
  5
FA86
  8
DANMEN
  6
CONTINUOUS
 10
66.299999
 20
197.400003
 30
0.0
 40
1.0
 50
90.0
 51
180.0
  0
LINE
  5
FA89
  8
DANMEN
  6
CONTINUOUS
 10
65.000001
 20
199.5
 30
0.0
 11
64.800001
 21
199.3
 31
0.0
  0
ARC
  5
FA8C
  8
DANMEN
  6
CONTINUOUS
 10
62.0
 20
207.0
 30
0.0
 40
4.0
 50
180.000019
 51
359.999983
  0
LINE
  5
FA8D
  8
DANMEN
  6
CONTINUOUS
 10
61.6
 20
241.0
 30
0.0
 11
61.6
 21
230.101833
 31
0.0
  0
LINE
  5
FA8E
  8
DANMEN
  6
CONTINUOUS
 10
63.25
 20
241.0
 30
0.0
 11
63.25
 21
220.061553
 31
0.0
  0
LINE
  5
FA8F
  8
DANMEN
  6
CONTINUOUS
 10
44.649994
 20
241.0
 30
0.0
 11
44.649994
 21
218.5
 31
0.0
  0
LINE
  5
FA90
  8
DANMEN
  6
CONTINUOUS
 10
43.0
 20
252.5
 30
0.0
 11
43.0
 21
218.5
 31
0.0
  0
ARC
  5
FA91
  8
DANMEN
  6
CONTINUOUS
 10
55.4
 20
219.199999
 30
0.0
 40
0.2
 50
180.0
 51
269.999982
  0
ARC
  5
FA92
  8
DANMEN
  6
CONTINUOUS
 10
55.4
 20
224.5
 30
0.0
 40
0.2
 50
90.000018
 51
180.0
  0
LINE
  5
FA93
  8
DANMEN
  6
CONTINUOUS
 10
55.2
 20
223.5
 30
0.0
 11
56.0
 21
222.7
 31
0.0
  0
LINE
  5
FA94
  8
DANMEN
  6
CONTINUOUS
 10
56.0
 20
221.0
 30
0.0
 11
55.2
 21
220.2
 31
0.0
  0
LINE
  5
FA95
  8
DANMEN
  6
CONTINUOUS
 10
53.3
 20
218.800003
 30
0.0
 11
56.4
 21
218.800003
 31
0.0
  0
LINE
  5
FA96
  8
DANMEN
  6
CONTINUOUS
 10
53.3
 20
225.0
 30
0.0
 11
56.4
 21
225.0
 31
0.0
  0
LINE
  5
FA97
  8
DANMEN
  6
CONTINUOUS
 10
53.3
 20
218.0
 30
0.0
 11
56.7
 21
218.0
 31
0.0
  0
LINE
  5
FA98
  8
DANMEN
  6
CONTINUOUS
 10
52.7
 20
226.0
 30
0.0
 11
56.7
 21
226.0
 31
0.0
  0
LINE
  5
FA99
  8
DANMEN
  6
CONTINUOUS
 10
53.3
 20
225.0
 30
0.0
 11
53.3
 21
218.800003
 31
0.0
  0
ARC
  5
FA9B
  8
DANMEN
  6
CONTINUOUS
 10
43.5
 20
218.5
 30
0.0
 40
0.5
 50
180.000019
 51
270.000001
  0
ARC
  5
FA9E
  8
DANMEN
  6
CONTINUOUS
 10
44.149994
 20
218.5
 30
0.0
 40
0.5
 50
270.000018
 51
0.0
  0
LINE
  5
FA9F
  8
DANMEN
  6
CONTINUOUS
 10
43.5
 20
218.0
 30
0.0
 11
44.149994
 21
218.0
 31
0.0
  0
LINE
  5
FAA2
  8
DANMEN
  6
CONTINUOUS
 10
55.2
 20
220.199999
 30
0.0
 11
55.2
 21
219.199999
 31
0.0
  0
LINE
  5
FAA8
  8
DANMEN
  6
CONTINUOUS
 10
50.0
 20
226.0
 30
0.0
 11
53.0
 21
226.0
 31
0.0
  0
LINE
  5
FAA9
  8
DANMEN
  6
CONTINUOUS
 10
55.2
 20
224.5
 30
0.0
 11
55.2
 21
223.5
 31
0.0
  0
ARC
  5
FAAD
  8
DANMEN
  6
CONTINUOUS
 10
52.7
 20
225.5
 30
0.0
 40
0.5
 50
89.999982
 51
180.000019
  0
ARC
  5
FAAF
  8
DANMEN
  6
CONTINUOUS
 10
57.6
 20
223.1
 30
0.0
 40
0.4
 50
269.999999
 51
359.999981
  0
ARC
  5
FAB0
  8
DANMEN
  6
CONTINUOUS
 10
48.825654
 20
219.969002
 30
0.0
 40
12.0
 50
7.283147
 51
30.171056
  0
ARC
  5
FAB1
  8
DANMEN
  6
CONTINUOUS
 10
48.892022
 20
219.519121
 30
0.0
 40
11.5
 50
9.50078
 51
29.603137
  0
LINE
  5
FAB2
  8
DANMEN
  6
CONTINUOUS
 10
60.75
 20
227.898149
 30
0.0
 11
60.75
 21
220.061553
 31
0.0
  0
LINE
  5
FAB3
  8
DANMEN
  6
CONTINUOUS
 10
56.0
 20
219.0
 30
0.0
 11
55.4
 21
219.0
 31
0.0
  0
LINE
  5
FAB4
  8
DANMEN
  6
CONTINUOUS
 10
57.2
 20
220.199999
 30
0.0
 11
57.2
 21
219.199999
 31
0.0
  0
ARC
  5
FAB6
  8
DANMEN
  6
CONTINUOUS
 10
56.0
 20
219.199999
 30
0.0
 40
0.2
 50
269.999999
 51
359.999981
  0
LINE
  5
FAB7
  8
DANMEN
  6
CONTINUOUS
 10
56.2
 20
220.199999
 30
0.0
 11
56.2
 21
219.199999
 31
0.0
  0
LINE
  5
FAB8
  8
DANMEN
  6
CONTINUOUS
 10
57.600001
 20
219.199999
 30
0.0
 11
57.2
 21
219.199999
 31
0.0
  0
LINE
  5
FABA
  8
DANMEN
  6
CONTINUOUS
 10
57.2
 20
220.199999
 30
0.0
 11
56.2
 21
220.199999
 31
0.0
  0
LINE
  5
FABD
  8
DANMEN
  6
CONTINUOUS
 10
57.8
 20
220.7
 30
0.0
 11
57.8
 21
219.399999
 31
0.0
  0
ARC
  5
FABF
  8
DANMEN
  6
CONTINUOUS
 10
57.600001
 20
219.399999
 30
0.0
 40
0.2
 50
269.999999
 51
359.999981
  0
LINE
  5
FAC0
  8
DANMEN
  6
CONTINUOUS
 10
57.6
 20
222.7
 30
0.0
 11
57.2
 21
222.7
 31
0.0
  0
LINE
  5
FAC3
  8
DANMEN
  6
CONTINUOUS
 10
56.0
 20
222.7
 30
0.0
 11
56.0
 21
221.0
 31
0.0
  0
LINE
  5
FAC6
  8
DANMEN
  6
CONTINUOUS
 10
57.2
 20
222.7
 30
0.0
 11
57.2
 21
221.0
 31
0.0
  0
ARC
  5
FAC9
  8
DANMEN
  6
CONTINUOUS
 10
59.25
 20
222.25
 30
0.0
 40
0.15
 50
332.128821
 51
152.128843
  0
LINE
  5
FACD
  8
DANMEN
  6
CONTINUOUS
 10
58.419281
 20
221.0
 30
0.0
 11
57.2
 21
221.0
 31
0.0
  0
LINE
  5
FACE
  8
DANMEN
  6
CONTINUOUS
 10
58.6
 20
220.7
 30
0.0
 11
57.8
 21
220.7
 31
0.0
  0
LINE
  5
FAD0
  8
DANMEN
  6
CONTINUOUS
 10
59.3826
 20
222.179877
 30
0.0
 11
58.6
 21
220.7
 31
0.0
  0
LINE
  5
FAD1
  8
DANMEN
  6
CONTINUOUS
 10
59.1174
 20
222.320122
 30
0.0
 11
58.419282
 21
221.0
 31
0.0
  0
ARC
  5
FAD6
  8
DANMEN
  6
CONTINUOUS
 10
56.7
 20
218.5
 30
0.0
 40
0.5
 50
270.000018
 51
0.0
  0
ARC
  5
FADA
  8
DANMEN
  6
CONTINUOUS
 10
56.7
 20
219.699997
 30
0.0
 40
0.5
 50
0.0
 51
89.999982
  0
LINE
  5
FADC
  8
DANMEN
  6
CONTINUOUS
 10
57.2
 20
219.699997
 30
0.0
 11
57.2
 21
218.5
 31
0.0
  0
LINE
  5
FADD
  8
DANMEN
  6
CONTINUOUS
 10
56.4
 20
220.199997
 30
0.0
 11
56.4
 21
218.800003
 31
0.0
  0
LINE
  5
FADE
  8
DANMEN
  6
CONTINUOUS
 10
56.4
 20
220.199997
 30
0.0
 11
56.7
 21
220.199997
 31
0.0
  0
ARC
  5
FADF
  8
DANMEN
  6
CONTINUOUS
 10
60.480851
 20
221.458588
 30
0.0
 40
0.25
 50
189.50078
 51
7.283147
  0
ARC
  5
FAE7
  8
DANMEN
  6
CONTINUOUS
 10
62.75
 20
220.061553
 30
0.0
 40
0.5
 50
345.963757
 51
0.0
  0
ARC
  5
FAE8
  8
DANMEN
  6
CONTINUOUS
 10
61.25
 20
220.061553
 30
0.0
 40
0.5
 50
180.0
 51
194.036243
  0
ARC
  5
FAE9
  8
DANMEN
  6
CONTINUOUS
 10
62.359612
 20
218.5
 30
0.0
 40
0.5
 50
270.0
 51
345.963757
  0
ARC
  5
FAEA
  8
DANMEN
  6
CONTINUOUS
 10
61.640388
 20
218.5
 30
0.0
 40
0.5
 50
194.036243
 51
270.0
  0
LINE
  5
FAEB
  8
DANMEN
  6
CONTINUOUS
 10
61.155317
 20
218.378732
 30
0.0
 11
60.764929
 21
219.940285
 31
0.0
  0
LINE
  5
FAEC
  8
DANMEN
  6
CONTINUOUS
 10
63.235071
 20
219.940285
 30
0.0
 11
62.844683
 21
218.378732
 31
0.0
  0
LINE
  5
FAED
  8
DANMEN
  6
CONTINUOUS
 10
61.640388
 20
218.0
 30
0.0
 11
62.359612
 21
218.0
 31
0.0
  0
LINE
  5
FAEE
  8
DANMEN
  6
CONTINUOUS
 10
61.560165
 20
229.906263
 30
0.0
 11
60.789835
 21
228.09372
 31
0.0
  0
LINE
  5
FAF0
  8
DANMEN
  6
CONTINUOUS
 10
59.2
 20
226.0
 30
0.0
 11
57.2
 21
226.0
 31
0.0
  0
LINE
  5
FAF1
  8
DANMEN
  6
CONTINUOUS
 10
56.0
 20
224.699999
 30
0.0
 11
55.4
 21
224.699999
 31
0.0
  0
LINE
  5
FAF2
  8
DANMEN
  6
CONTINUOUS
 10
56.2
 20
224.5
 30
0.0
 11
56.2
 21
223.5
 31
0.0
  0
ARC
  5
FAF4
  8
DANMEN
  6
CONTINUOUS
 10
56.0
 20
224.5
 30
0.0
 40
0.2
 50
359.999981
 51
90.000018
  0
LINE
  5
FAF5
  8
DANMEN
  6
CONTINUOUS
 10
57.2
 20
223.5
 30
0.0
 11
56.2
 21
223.5
 31
0.0
  0
LINE
  5
FAF7
  8
DANMEN
  6
CONTINUOUS
 10
57.2
 20
226.0
 30
0.0
 11
57.2
 21
223.5
 31
0.0
  0
LINE
  5
FAFA
  8
DANMEN
  6
CONTINUOUS
 10
58.0
 20
225.2
 30
0.0
 11
58.0
 21
223.1
 31
0.0
  0
LINE
  5
FAFD
  8
DANMEN
  6
CONTINUOUS
 10
58.890903
 20
225.2
 30
0.0
 11
58.0
 21
225.2
 31
0.0
  0
ARC
  5
FAFE
  8
DANMEN
  6
CONTINUOUS
 10
56.7
 20
224.300003
 30
0.0
 40
0.5
 50
270.000018
 51
0.0
  0
ARC
  5
FB02
  8
DANMEN
  6
CONTINUOUS
 10
56.7
 20
225.5
 30
0.0
 40
0.5
 50
0.0
 51
89.999982
  0
LINE
  5
FB04
  8
DANMEN
  6
CONTINUOUS
 10
56.4
 20
225.0
 30
0.0
 11
56.4
 21
223.800003
 31
0.0
  0
LINE
  5
FB05
  8
DANMEN
  6
CONTINUOUS
 10
56.4
 20
223.800003
 30
0.0
 11
56.7
 21
223.800003
 31
0.0
  0
LINE
  5
FB06
  8
DANMEN
  6
CONTINUOUS
 10
57.2
 20
225.5
 30
0.0
 11
57.2
 21
224.300003
 31
0.0
  0
LINE
  5
FB07
  8
DANMEN
  6
CONTINUOUS
 10
56.5
 20
226.0
 30
0.0
 11
57.2
 21
226.0
 31
0.0
  0
ARC
  5
FB09
  8
DANMEN
  6
CONTINUOUS
 10
61.25
 20
227.898149
 30
0.0
 40
0.5
 50
156.974508
 51
180.0
  0
ARC
  5
FB0C
  8
DANMEN
  6
CONTINUOUS
 10
61.1
 20
230.101833
 30
0.0
 40
0.5
 50
336.974508
 51
0.0
  0
LINE
  5
FB0E
  8
DANMEN
  6
CONTINUOUS
 10
71.299998
 20
226.0
 30
0.0
 11
70.35
 21
226.0
 31
0.0
  0
LINE
  5
FB0F
  8
DANMEN
  6
CONTINUOUS
 10
70.700003
 20
225.2
 30
0.0
 11
69.85
 21
225.2
 31
0.0
  0
LINE
  5
FB11
  8
DANMEN
  6
CONTINUOUS
 10
69.85
 20
225.5
 30
0.0
 11
69.85
 21
225.2
 31
0.0
  0
ARC
  5
FB12
  8
DANMEN
  6
CONTINUOUS
 10
70.35
 20
225.5
 30
0.0
 40
0.5
 50
90.0
 51
180.0
  0
LINE
  5
FB15
  8
DANMEN
  6
CONTINUOUS
 10
44.649994
 20
242.649994
 30
0.0
 11
58.699997
 21
242.649994
 31
0.0
  0
LINE
  5
FB16
  8
DANMEN
  6
CONTINUOUS
 10
44.649994
 20
241.0
 30
0.0
 11
61.6
 21
241.0
 31
0.0
  0
LINE
  5
FB17
  8
DANMEN
  6
CONTINUOUS
 10
44.649994
 20
251.350006
 30
0.0
 11
44.649994
 21
242.65
 31
0.0
  0
LINE
  5
FB1A
  8
DANMEN
  6
CONTINUOUS
 10
48.5
 20
253.0
 30
0.0
 11
43.5
 21
253.0
 31
0.0
  0
LINE
  5
FB1B
  8
DANMEN
  6
CONTINUOUS
 10
48.5
 20
251.350006
 30
0.0
 11
44.649994
 21
251.350006
 31
0.0
  0
ARC
  5
FB1C
  8
DANMEN
  6
CONTINUOUS
 10
43.5
 20
252.5
 30
0.0
 40
0.5
 50
90.0
 51
180.0
  0
LINE
  5
FB1D
  8
DANMEN
  6
CONTINUOUS
 10
49.0
 20
252.5
 30
0.0
 11
49.0
 21
251.850006
 31
0.0
  0
ARC
  5
FB1F
  8
DANMEN
  6
CONTINUOUS
 10
48.5
 20
251.850006
 30
0.0
 40
0.5
 50
269.999999
 51
359.999981
  0
ARC
  5
FB22
  8
DANMEN
  6
CONTINUOUS
 10
48.5
 20
252.5
 30
0.0
 40
0.5
 50
359.999981
 51
90.000018
  0
LINE
  5
FB23
  8
DANMEN
  6
CONTINUOUS
 10
61.9
 20
246.3
 30
0.0
 11
61.9
 21
246.036932
 31
0.0
  0
ARC
  5
FB24
  8
DANMEN
  6
CONTINUOUS
 10
61.7
 20
245.030306
 30
0.0
 40
2.0
 50
128.293477
 51
180.0
  0
LINE
  5
FB25
  8
DANMEN
  6
CONTINUOUS
 10
64.1
 20
246.300012
 30
0.0
 11
64.1
 21
246.036932
 31
0.0
  0
LINE
  5
FB26
  8
DANMEN
  6
CONTINUOUS
 10
63.8
 20
242.7
 30
0.0
 11
62.2
 21
242.7
 31
0.0
  0
LINE
  5
FB27
  8
DANMEN
  6
CONTINUOUS
 10
63.25
 20
241.0
 30
0.0
 11
67.5
 21
241.0
 31
0.0
  0
ARC
  5
FB28
  8
DANMEN
  6
CONTINUOUS
 10
58.7
 20
243.649994
 30
0.0
 40
1.0
 50
270.0
 51
0.0
  0
ARC
  5
FB2C
  8
DANMEN
  6
CONTINUOUS
 10
62.2
 20
244.946061
 30
0.0
 40
1.0
 50
114.624318
 51
180.0
  0
ARC
  5
FB2D
  8
DANMEN
  6
CONTINUOUS
 10
61.7
 20
246.036932
 30
0.0
 40
0.2
 50
294.624318
 51
0.0
  0
LINE
  5
FB2E
  8
DANMEN
  6
CONTINUOUS
 10
59.7
 20
245.030306
 30
0.0
 11
59.7
 21
243.649994
 31
0.0
  0
LINE
  5
FB2F
  8
DANMEN
  6
CONTINUOUS
 10
61.2
 20
244.946061
 30
0.0
 11
61.2
 21
243.7
 31
0.0
  0
ARC
  5
FB30
  8
DANMEN
  6
CONTINUOUS
 10
62.2
 20
243.7
 30
0.0
 40
1.0
 50
180.0
 51
270.0
  0
ARC
  5
FB31
  8
DANMEN
  6
CONTINUOUS
 10
67.5
 20
241.5
 30
0.0
 40
0.5
 50
270.000018
 51
0.0
  0
LINE
  5
FB32
  8
DANMEN
  6
CONTINUOUS
 10
66.5
 20
241.8
 30
0.0
 11
68.0
 21
241.8
 31
0.0
  0
ARC
  5
FB35
  8
DANMEN
  6
CONTINUOUS
 10
64.3
 20
246.036932
 30
0.0
 40
0.2
 50
180.0
 51
245.375682
  0
ARC
  5
FB36
  8
DANMEN
  6
CONTINUOUS
 10
63.8
 20
244.946061
 30
0.0
 40
1.0
 50
0.0
 51
65.375682
  0
ARC
  5
FB37
  8
DANMEN
  6
CONTINUOUS
 10
63.8
 20
243.7
 30
0.0
 40
1.0
 50
270.0
 51
0.0
  0
LINE
  5
FB38
  8
DANMEN
  6
CONTINUOUS
 10
64.8
 20
244.946061
 30
0.0
 11
64.8
 21
243.7
 31
0.0
  0
LINE
  5
FB39
  8
DANMEN
  6
CONTINUOUS
 10
66.5
 20
244.950012
 30
0.0
 11
66.5
 21
241.8
 31
0.0
  0
LINE
  5
FB3C
  8
DANMEN
  6
CONTINUOUS
 10
68.0
 20
241.8
 30
0.0
 11
68.0
 21
241.5
 31
0.0
  0
LINE
  5
FB3D
  8
DANMEN
  6
CONTINUOUS
 10
61.6
 20
246.6
 30
0.0
 11
60.460621
 21
246.6
 31
0.0
  0
ARC
  5
FB3E
  8
DANMEN
  6
CONTINUOUS
 10
61.6
 20
246.3
 30
0.0
 40
0.3
 50
0.0
 51
90.0
  0
ARC
  5
FB3F
  8
DANMEN
  6
CONTINUOUS
 10
64.4
 20
246.300012
 30
0.0
 40
0.3
 50
90.0
 51
180.0
  0
LINE
  5
FB40
  8
DANMEN
  6
CONTINUOUS
 10
109.31756
 20
201.49168
 30
0.0
 11
109.30001
 21
217.979021
 31
0.0
  0
LINE
  5
FB41
  8
DANMEN
  6
CONTINUOUS
 10
110.517555
 20
201.145361
 30
0.0
 11
110.004224
 21
217.470763
 31
0.0
  0
LINE
  5
FB42
  8
DANMEN
  6
CONTINUOUS
 10
109.017555
 20
201.502085
 30
0.0
 11
109.0
 21
218.0
 31
0.0
  0
LINE
  5
FB43
  8
DANMEN
  6
CONTINUOUS
 10
71.8
 20
225.5
 30
0.0
 11
71.8
 21
183.5
 31
0.0
  0
LINE
  5
FB44
  8
DANMEN
  6
CONTINUOUS
 10
74.0
 20
226.0
 30
0.0
 11
74.0
 21
167.0
 31
0.0
  0
LINE
  5
FB45
  8
DANMEN
  6
CONTINUOUS
 10
76.5
 20
226.0
 30
0.0
 11
76.5
 21
167.0
 31
0.0
  0
LINE
  5
FB46
  8
DANMEN
  6
DASHED
 10
79.5
 20
226.0
 30
0.0
 11
79.5
 21
167.0
 31
0.0
  0
LINE
  5
FB47
  8
DANMEN
  6
CONTINUOUS
 10
89.449998
 20
225.0
 30
0.0
 11
89.449998
 21
167.0
 31
0.0
  0
LINE
  5
FB48
  8
DANMEN
  6
CONTINUOUS
 10
94.449986
 20
225.0
 30
0.0
 11
94.449986
 21
167.0
 31
0.0
  0
LINE
  5
FB49
  8
DANMEN
  6
CONTINUOUS
 10
89.949998
 20
225.0
 30
0.0
 11
89.949998
 21
167.0
 31
0.0
  0
LINE
  5
FB4A
  8
DANMEN
  6
CONTINUOUS
 10
93.949986
 20
225.0
 30
0.0
 11
93.949986
 21
167.0
 31
0.0
  0
LINE
  5
FB4B
  8
DANMEN
  6
CONTINUOUS
 10
102.0
 20
167.0
 30
0.0
 11
102.0
 21
218.0
 31
0.0
  0
LINE
  5
FB4C
  8
DANMEN
  6
CONTINUOUS
 10
81.95
 20
167.0
 30
0.0
 11
81.95
 21
218.0
 31
0.0
  0
LINE
  5
FB4D
  8
DANMEN
  6
CONTINUOUS
 10
99.949985
 20
167.0
 30
0.0
 11
99.949985
 21
218.0
 31
0.0
  0
LINE
  5
FB4E
  8
DANMEN
  6
CONTINUOUS
 10
84.000015
 20
167.0
 30
0.0
 11
84.000015
 21
218.0
 31
0.0
  0
LINE
  5
FB4F
  8
DANMEN
  6
CONTINUOUS
 10
109.0
 20
167.0
 30
0.0
 11
109.0
 21
218.0
 31
0.0
  0
LINE
  5
FB50
  8
DANMEN
  6
CONTINUOUS
 10
113.0
 20
200.90593
 30
0.0
 11
113.0
 21
218.0
 31
0.0
  0
LINE
  5
FB51
  8
DANMEN
  6
CONTINUOUS
 10
111.350006
 20
201.302173
 30
0.0
 11
111.350006
 21
218.0
 31
0.0
  0
TEXT
  5
FB53
  8
SUNPO
  6
CONTINUOUS
 10
77.443604
 20
174.0
 30
0.0
 40
2.5
  1
70
  0
LINE
  5
FB55
  8
SUNPO
  6
CONTINUOUS
 10
113.0
 20
189.559921
 30
0.0
 11
113.0
 21
173.0
 31
0.0
  0
LINE
  5
FB56
  8
DANMEN
  6
CONTINUOUS
 10
133.5
 20
167.0
 30
0.0
 11
133.5
 21
193.002085
 31
0.0
  0
ARC
  5
FB57
  8
SUNPO
  6
BYBLOCK
 10
113.0
 20
173.0
 30
0.0
 40
0.145
 50
0.0
 51
180.0
  0
ARC
  5
FB58
  8
SUNPO
  6
BYBLOCK
 10
113.0
 20
173.0
 30
0.0
 40
0.145
 50
180.0
 51
0.0
  0
LINE
  5
FB59
  8
DANMEN
  6
CONTINUOUS
 10
134.381386
 20
198.653003
 30
0.0
 11
110.517555
 21
201.502085
 31
0.0
  0
LINE
  5
FB5A
  8
DANMEN
  6
CONTINUOUS
 10
112.517555
 20
193.002085
 30
0.0
 11
135.717555
 21
193.002085
 31
0.0
  0
LINE
  5
FB5B
  8
DANMEN
  6
CONTINUOUS
 10
110.517555
 20
195.002085
 30
0.0
 11
110.517555
 21
201.502085
 31
0.0
  0
LINE
  5
FB5C
  8
DANMEN
  6
CONTINUOUS
 10
109.317555
 20
197.002085
 30
0.0
 11
109.317555
 21
201.512633
 31
0.0
  0
LINE
  5
FB5D
  8
DANMEN
  6
CONTINUOUS
 10
109.017555
 20
197.002085
 30
0.0
 11
109.017555
 21
201.502085
 31
0.0
  0
ARC
  5
FB5E
  8
DANMEN
  6
CONTINUOUS
 10
112.517555
 20
195.002085
 30
0.0
 40
2.0
 50
179.999981
 51
270.000018
  0
LINE
  5
FB62
  8
DANMEN
  6
CONTINUOUS
 10
109.017555
 20
197.002085
 30
0.0
 11
110.517555
 21
197.002085
 31
0.0
  0
LINE
  5
FB68
  8
DANMEN
  6
CONTINUOUS
 10
136.217555
 20
193.502085
 30
0.0
 11
136.217555
 21
196.659724
 31
0.0
  0
ARC
  5
FB6A
  8
DANMEN
  6
CONTINUOUS
 10
135.717555
 20
193.502085
 30
0.0
 40
0.5
 50
270.000018
 51
360.0
  0
ARC
  5
FB6D
  8
DANMEN
  6
CONTINUOUS
 10
134.217555
 20
196.659724
 30
0.0
 40
2.0
 50
0.0
 51
85.301319
  0
LINE
  5
FB71
  8
DANMEN
  6
CONTINUOUS
 10
199.0
 20
157.9
 30
0.0
 11
199.0
 21
139.3
 31
0.0
  0
ARC
  5
FB72
  8
DANMEN
  6
CONTINUOUS
 10
203.000002
 20
130.361187
 30
0.0
 40
1.0
 50
180.0
 51
261.469234
  0
LINE
  5
FB73
  8
DANMEN
  6
CONTINUOUS
 10
199.0
 20
137.5
 30
0.0
 11
199.0
 21
122.6
 31
0.0
  0
ARC
  5
FB79
  8
DANMEN
  6
CONTINUOUS
 10
202.500002
 20
132.0
 30
0.0
 40
0.5
 50
89.999982
 51
180.000019
  0
LINE
  5
FB7B
  8
DANMEN
  6
CONTINUOUS
 10
202.000002
 20
132.0
 30
0.0
 11
202.000002
 21
130.361187
 31
0.0
  0
ARC
  5
FB7C
  8
DANMEN
  6
CONTINUOUS
 10
200.457778
 20
132.158773
 30
0.0
 40
0.5
 50
25.709831
 51
272.131619
  0
ARC
  5
FB7F
  8
DANMEN
  6
CONTINUOUS
 10
189.5
 20
153.5
 30
0.0
 40
0.5
 50
180.000036
 51
269.999963
  0
ARC
  5
FB80
  8
DANMEN
  6
CONTINUOUS
 10
190.149994
 20
153.5
 30
0.0
 40
0.5
 50
270.000018
 51
359.999981
  0
LINE
  5
FB81
  8
DANMEN
  6
CONTINUOUS
 10
189.5
 20
153.0
 30
0.0
 11
190.149994
 21
153.0
 31
0.0
  0
ARC
  5
FB84
  8
DANMEN
  6
CONTINUOUS
 10
202.500002
 20
148.0
 30
0.0
 40
0.5
 50
179.999964
 51
270.000001
  0
ARC
  5
FB87
  8
DANMEN
  6
CONTINUOUS
 10
203.000002
 20
149.638813
 30
0.0
 40
1.0
 50
98.530766
 51
180.0
  0
LINE
  5
FB88
  8
DANMEN
  6
CONTINUOUS
 10
202.000002
 20
148.0
 30
0.0
 11
202.000002
 21
149.638813
 31
0.0
  0
LINE
  5
FB89
  8
DANMEN
  6
CONTINUOUS
 10
190.649994
 20
157.350006
 30
0.0
 11
197.350006
 21
157.350006
 31
0.0
  0
LINE
  5
FB8A
  8
DANMEN
  6
CONTINUOUS
 10
189.0
 20
158.5
 30
0.0
 11
189.0
 21
153.5
 31
0.0
  0
LINE
  5
FB8B
  8
DANMEN
  6
CONTINUOUS
 10
190.649994
 20
157.350006
 30
0.0
 11
190.649994
 21
153.5
 31
0.0
  0
ARC
  5
FB8D
  8
DANMEN
  6
CONTINUOUS
 10
189.5
 20
158.5
 30
0.0
 40
0.5
 50
89.999982
 51
180.000019
  0
LINE
  5
FB92
  8
DANMEN
  6
CONTINUOUS
 10
199.0
 20
157.9
 30
0.0
 11
201.0
 21
157.9
 31
0.0
  0
LINE
  5
FB93
  8
DANMEN
  6
CONTINUOUS
 10
201.0
 20
157.9
 30
0.0
 11
201.0
 21
157.350006
 31
0.0
  0
LINE
  5
FB95
  8
DANMEN
  6
CONTINUOUS
 10
97.3
 20
242.65
 30
0.0
 11
111.350006
 21
242.65
 31
0.0
  0
LINE
  5
FB96
  8
DANMEN
  6
CONTINUOUS
 10
100.0
 20
218.0
 30
0.0
 11
112.5
 21
218.0
 31
0.0
  0
LINE
  5
FB97
  8
DANMEN
  6
CONTINUOUS
 10
100.5
 20
219.65
 30
0.0
 11
111.350006
 21
219.65
 31
0.0
  0
LINE
  5
FB98
  8
DANMEN
  6
CONTINUOUS
 10
83.8
 20
241.0
 30
0.0
 11
111.350006
 21
241.0
 31
0.0
  0
LINE
  5
FB99
  8
DANMEN
  6
CONTINUOUS
 10
82.0
 20
241.0
 30
0.0
 11
82.0
 21
218.5
 31
0.0
  0
LINE
  5
FB9A
  8
DANMEN
  6
CONTINUOUS
 10
83.8
 20
241.0
 30
0.0
 11
83.8
 21
221.0
 31
0.0
  0
LINE
  5
FB9B
  8
DANMEN
  6
DASHED
 10
86.0
 20
218.0
 30
0.0
 11
98.0
 21
218.0
 31
0.0
  0
LINE
  5
FB9C
  8
DANMEN
  6
DASHED
 10
82.5
 20
216.800003
 30
0.0
 11
101.5
 21
216.800003
 31
0.0
  0
ARC
  5
FB9D
  8
DANMEN
  6
CONTINUOUS
 10
87.827711
 20
214.376229
 30
0.0
 40
1.5
 50
358.220552
 51
88.220534
  0
LINE
  5
FB9E
  8
DANMEN
  6
DASHED
 10
84.023824
 20
221.617136
 30
0.0
 11
85.423825
 21
224.917167
 31
0.0
  0
LINE
  5
FB9F
  8
DANMEN
  6
DASHED
 10
85.5
 20
222.600003
 30
0.0
 11
85.992312
 21
224.73252
 31
0.0
  0
ARC
  5
FBA0
  8
DANMEN
  6
DASHED
 10
82.5
 20
217.300003
 30
0.0
 40
0.5
 50
180.0
 51
269.999982
  0
ARC
  5
FBA1
  8
DANMEN
  6
CONTINUOUS
 10
85.422067
 20
217.452413
 30
0.0
 40
1.5
 50
178.220516
 51
268.220553
  0
LINE
  5
FBA3
  8
DANMEN
  6
CONTINUOUS
 10
85.375489
 20
215.953137
 30
0.0
 11
87.874289
 21
215.875506
 31
0.0
  0
LINE
  5
FBA4
  8
DANMEN
  6
DASHED
 10
84.5
 20
218.0
 30
0.0
 11
82.0
 21
218.0
 31
0.0
  0
ARC
  5
FBA5
  8
DANMEN
  6
DASHED
 10
84.299999
 20
221.499972
 30
0.0
 40
0.3
 50
157.011468
 51
235.656024
  0
LINE
  5
FBA6
  8
DANMEN
  6
CONTINUOUS
 10
84.5
 20
221.0
 30
0.0
 11
83.8
 21
221.0
 31
0.0
  0
ARC
  5
FBA7
  8
DANMEN
  6
CONTINUOUS
 10
84.0
 20
218.5
 30
0.0
 40
0.5
 50
270.0
 51
0.0
  0
LINE
  5
FBAA
  8
DANMEN
  6
DASHED
 10
82.0
 20
218.0
 30
0.0
 11
82.0
 21
217.300003
 31
0.0
  0
ARC
  5
FBAE
  8
DANMEN
  6
CONTINUOUS
 10
82.5
 20
218.5
 30
0.0
 40
0.5
 50
180.0
 51
270.0
  0
LINE
  5
FBAF
  8
DANMEN
  6
CONTINUOUS
 10
84.0
 20
218.0
 30
0.0
 11
82.5
 21
218.0
 31
0.0
  0
LINE
  5
FBB0
  8
DANMEN
  6
DASHED
 10
84.499991
 20
220.999972
 30
0.0
 11
84.130743
 21
221.252271
 31
0.0
  0
LINE
  5
FBB1
  8
DANMEN
  6
DASHED
 10
84.5
 20
218.0
 30
0.0
 11
84.5
 21
220.999972
 31
0.0
  0
LINE
  5
FBB2
  8
DANMEN
  6
DASHED
 10
85.5
 20
222.600003
 30
0.0
 11
85.5
 21
218.5
 31
0.0
  0
ARC
  5
FBB3
  8
DANMEN
  6
DASHED
 10
86.0
 20
218.5
 30
0.0
 40
0.5
 50
180.0
 51
270.0
  0
LINE
  5
FBBA
  8
DANMEN
  6
CONTINUOUS
 10
84.5
 20
221.0
 30
0.0
 11
84.5
 21
218.5
 31
0.0
  0
ARC
  5
FBC0
  8
DANMEN
  6
DASHED
 10
85.7
 20
224.800003
 30
0.0
 40
0.3
 50
347.000479
 51
157.011468
  0
LINE
  5
FBC1
  8
DANMEN
  6
DASHED
 10
98.5
 20
222.600003
 30
0.0
 11
98.007688
 21
224.73252
 31
0.0
  0
LINE
  5
FBC2
  8
DANMEN
  6
DASHED
 10
99.976176
 20
221.617136
 30
0.0
 11
98.576175
 21
224.917167
 31
0.0
  0
LINE
  5
FBC3
  8
DANMEN
  6
CONTINUOUS
 10
95.870434
 20
215.627088
 30
0.0
 11
98.36922
 21
215.549458
 31
0.0
  0
ARC
  5
FBC4
  8
DANMEN
  6
CONTINUOUS
 10
95.823856
 20
214.127811
 30
0.0
 40
1.5
 50
88.220534
 51
178.220516
  0
ARC
  5
FBC9
  8
DANMEN
  6
DASHED
 10
101.5
 20
217.300003
 30
0.0
 40
0.5
 50
270.000018
 51
0.0
  0
ARC
  5
FBCA
  8
DANMEN
  6
CONTINUOUS
 10
98.415798
 20
217.048734
 30
0.0
 40
1.5
 50
268.22057
 51
358.220552
  0
LINE
  5
FBCC
  8
DANMEN
  6
DASHED
 10
99.5
 20
218.0
 30
0.0
 11
102.0
 21
218.0
 31
0.0
  0
LINE
  5
FBCD
  8
DANMEN
  6
DASHED
 10
99.5
 20
218.0
 30
0.0
 11
102.0
 21
218.0
 31
0.0
  0
LINE
  5
FBCE
  8
DANMEN
  6
CONTINUOUS
 10
100.206061
 20
220.642044
 30
0.0
 11
100.5
 21
219.65
 31
0.0
  0
ARC
  5
FBD1
  8
DANMEN
  6
DASHED
 10
98.0
 20
218.5
 30
0.0
 40
0.5
 50
270.0
 51
0.0
  0
LINE
  5
FBD2
  8
DANMEN
  6
DASHED
 10
98.5
 20
222.600003
 30
0.0
 11
98.5
 21
218.5
 31
0.0
  0
LINE
  5
FBD3
  8
DANMEN
  6
DASHED
 10
99.5
 20
218.0
 30
0.0
 11
99.5
 21
220.999972
 31
0.0
  0
LINE
  5
FBD4
  8
DANMEN
  6
DASHED
 10
99.500009
 20
220.999972
 30
0.0
 11
99.869257
 21
221.252271
 31
0.0
  0
ARC
  5
FBD5
  8
DANMEN
  6
DASHED
 10
99.700001
 20
221.499972
 30
0.0
 40
0.3
 50
304.343976
 51
22.988532
  0
ARC
  5
FBDB
  8
DANMEN
  6
CONTINUOUS
 10
99.726662
 20
220.5
 30
0.0
 40
0.5
 50
16.504361
 51
90.0
  0
LINE
  5
FBDE
  8
DANMEN
  6
CONTINUOUS
 10
99.726662
 20
221.0
 30
0.0
 11
99.5
 21
221.0
 31
0.0
  0
LINE
  5
FBDF
  8
DANMEN
  6
CONTINUOUS
 10
99.5
 20
221.0
 30
0.0
 11
99.5
 21
218.5
 31
0.0
  0
ARC
  5
FBE0
  8
DANMEN
  6
CONTINUOUS
 10
100.0
 20
218.5
 30
0.0
 40
0.5
 50
180.0
 51
270.0
  0
LINE
  5
FBE3
  8
DANMEN
  6
DASHED
 10
102.0
 20
218.0
 30
0.0
 11
102.0
 21
217.300003
 31
0.0
  0
LINE
  5
FBE5
  8
DANMEN
  6
CONTINUOUS
 10
89.449998
 20
225.0
 30
0.0
 11
94.450002
 21
225.0
 31
0.0
  0
ARC
  5
FBE8
  8
DANMEN
  6
DASHED
 10
98.3
 20
224.800003
 30
0.0
 40
0.3
 50
22.988532
 51
192.999521
  0
LINE
  5
FBEA
  8
DANMEN
  6
CONTINUOUS
 10
83.65
 20
242.65
 30
0.0
 11
88.7
 21
242.65
 31
0.0
  0
ARC
  5
FBEB
  8
DANMEN
  6
CONTINUOUS
 10
82.65
 20
245.600012
 30
0.0
 40
1.0
 50
0.0
 51
90.0
  0
LINE
  5
FBF0
  8
DANMEN
  6
CONTINUOUS
 10
81.0
 20
241.0
 30
0.0
 11
82.0
 21
241.0
 31
0.0
  0
LINE
  5
FBF1
  8
DANMEN
  6
CONTINUOUS
 10
83.65
 20
245.600012
 30
0.0
 11
83.65
 21
242.65
 31
0.0
  0
ARC
  5
FBF2
  8
DANMEN
  6
CONTINUOUS
 10
81.0
 20
241.5
 30
0.0
 40
0.5
 50
180.000019
 51
270.000001
  0
LINE
  5
FBF3
  8
DANMEN
  6
CONTINUOUS
 10
80.5
 20
241.8
 30
0.0
 11
80.5
 21
241.5
 31
0.0
  0
LINE
  5
FBF4
  8
DANMEN
  6
CONTINUOUS
 10
80.5
 20
241.8
 30
0.0
 11
82.0
 21
241.8
 31
0.0
  0
LINE
  5
FBF5
  8
DANMEN
  6
CONTINUOUS
 10
82.0
 20
244.950012
 30
0.0
 11
82.0
 21
241.8
 31
0.0
  0
ARC
  5
FBFA
  8
DANMEN
  6
CONTINUOUS
 10
91.7
 20
245.030306
 30
0.0
 40
2.0
 50
128.293195
 51
180.0
  0
LINE
  5
FBFB
  8
DANMEN
  6
CONTINUOUS
 10
91.9
 20
246.036932
 30
0.0
 11
91.9
 21
246.3
 31
0.0
  0
ARC
  5
FBFC
  8
DANMEN
  6
CONTINUOUS
 10
94.3
 20
245.030306
 30
0.0
 40
2.0
 50
0.0
 51
51.706523
  0
LINE
  5
FBFD
  8
DANMEN
  6
CONTINUOUS
 10
94.1
 20
246.036932
 30
0.0
 11
94.1
 21
246.3
 31
0.0
  0
ARC
  5
FBFE
  8
DANMEN
  6
CONTINUOUS
 10
97.3
 20
243.65
 30
0.0
 40
1.0
 50
180.0
 51
270.0
  0
LINE
  5
FBFF
  8
DANMEN
  6
CONTINUOUS
 10
93.8
 20
242.7
 30
0.0
 11
92.2
 21
242.7
 31
0.0
  0
ARC
  5
FC01
  8
DANMEN
  6
CONTINUOUS
 10
88.7
 20
243.65
 30
0.0
 40
1.0
 50
270.0
 51
0.0
  0
LINE
  5
FC02
  8
DANMEN
  6
CONTINUOUS
 10
89.7
 20
245.030306
 30
0.0
 11
89.7
 21
243.65
 31
0.0
  0
ARC
  5
FC03
  8
DANMEN
  6
CONTINUOUS
 10
92.2
 20
244.946061
 30
0.0
 40
1.0
 50
114.624318
 51
180.0
  0
ARC
  5
FC04
  8
DANMEN
  6
CONTINUOUS
 10
91.7
 20
246.036932
 30
0.0
 40
0.2
 50
294.624318
 51
0.0
  0
LINE
  5
FC05
  8
DANMEN
  6
CONTINUOUS
 10
91.2
 20
244.946061
 30
0.0
 11
91.2
 21
243.7
 31
0.0
  0
ARC
  5
FC06
  8
DANMEN
  6
CONTINUOUS
 10
92.2
 20
243.7
 30
0.0
 40
1.0
 50
180.0
 51
270.0
  0
ARC
  5
FC09
  8
DANMEN
  6
CONTINUOUS
 10
94.3
 20
246.036932
 30
0.0
 40
0.2
 50
180.0
 51
245.375682
  0
ARC
  5
FC0A
  8
DANMEN
  6
CONTINUOUS
 10
93.8
 20
244.946061
 30
0.0
 40
1.0
 50
0.0
 51
65.375682
  0
ARC
  5
FC0B
  8
DANMEN
  6
CONTINUOUS
 10
93.8
 20
243.7
 30
0.0
 40
1.0
 50
270.0
 51
0.0
  0
LINE
  5
FC0C
  8
DANMEN
  6
CONTINUOUS
 10
96.3
 20
245.030306
 30
0.0
 11
96.3
 21
243.65
 31
0.0
  0
LINE
  5
FC0D
  8
DANMEN
  6
CONTINUOUS
 10
94.8
 20
244.946061
 30
0.0
 11
94.8
 21
243.7
 31
0.0
  0
ARC
  5
FC0E
  8
DANMEN
  6
CONTINUOUS
 10
91.6
 20
246.3
 30
0.0
 40
0.3
 50
0.0
 51
90.0
  0
LINE
  5
FC0F
  8
DANMEN
  6
CONTINUOUS
 10
91.6
 20
246.600006
 30
0.0
 11
90.460628
 21
246.600006
 31
0.0
  0
LINE
  5
FC10
  8
DANMEN
  6
CONTINUOUS
 10
95.539379
 20
246.6
 30
0.0
 11
94.4
 21
246.6
 31
0.0
  0
ARC
  5
FC11
  8
DANMEN
  6
CONTINUOUS
 10
94.4
 20
246.3
 30
0.0
 40
0.3
 50
90.0
 51
180.0
  0
LINE
  5
FC12
  8
DANMEN
  6
CONTINUOUS
 10
111.350006
 20
241.0
 30
0.0
 11
111.350006
 21
219.65
 31
0.0
  0
LINE
  5
FC13
  8
DANMEN
  6
CONTINUOUS
 10
113.0
 20
252.5
 30
0.0
 11
113.0
 21
218.5
 31
0.0
  0
ARC
  5
FC14
  8
DANMEN
  6
CONTINUOUS
 10
112.5
 20
218.5
 30
0.0
 40
0.5
 50
270.000018
 51
0.0
  0
ARC
  5
FC16
  8
DANMEN
  6
CONTINUOUS
 10
109.504277
 20
217.463517
 30
0.0
 40
0.5
 50
0.83042
 51
86.0
  0
LINE
  5
FC17
  8
DANMEN
  6
CONTINUOUS
 10
109.0
 20
218.0
 30
0.0
 11
109.539155
 21
217.962299
 31
0.0
  0
LINE
  5
FC1D
  8
DANMEN
  6
CONTINUOUS
 10
111.350006
 20
251.350006
 30
0.0
 11
111.350006
 21
242.65
 31
0.0
  0
ARC
  5
FC20
  8
DANMEN
  6
CONTINUOUS
 10
112.5
 20
252.5
 30
0.0
 40
0.5
 50
0.0
 51
89.999982
  0
LINE
  5
FC21
  8
DANMEN
  6
CONTINUOUS
 10
107.0
 20
252.5
 30
0.0
 11
107.0
 21
251.850006
 31
0.0
  0
LINE
  5
FC22
  8
DANMEN
  6
CONTINUOUS
 10
107.5
 20
251.350006
 30
0.0
 11
111.350006
 21
251.350006
 31
0.0
  0
ARC
  5
FC23
  8
DANMEN
  6
CONTINUOUS
 10
107.5
 20
251.850006
 30
0.0
 40
0.5
 50
180.000019
 51
270.000001
  0
LINE
  5
FC26
  8
DANMEN
  6
CONTINUOUS
 10
107.5
 20
253.0
 30
0.0
 11
112.5
 21
253.0
 31
0.0
  0
ARC
  5
FC27
  8
DANMEN
  6
CONTINUOUS
 10
107.5
 20
252.5
 30
0.0
 40
0.5
 50
89.999982
 51
180.000019
  0
LINE
  5
FC2B
  8
DANMEN
  6
CONTINUOUS
 10
297.0
 20
120.0
 30
0.0
 11
297.0
 21
118.342199
 31
0.0
  0
LINE
  5
FC2C
  8
DANMEN
  6
CONTINUOUS
 10
274.0
 20
72.5
 30
0.0
 11
274.0
 21
124.5
 31
0.0
  0
LINE
  5
FC2D
  8
DANMEN
  6
CONTINUOUS
 10
313.999997
 20
119.5
 30
0.0
 11
313.999997
 21
118.0
 31
0.0
  0
LINE
  5
FC2E
  8
DANMEN
  6
CONTINUOUS
 10
297.0
 20
120.0
 30
0.0
 11
297.0
 21
118.5
 31
0.0
  0
LINE
  5
FC2F
  8
DANMEN
  6
CONTINUOUS
 10
364.000003
 20
119.5
 30
0.0
 11
364.000003
 21
118.0
 31
0.0
  0
LINE
  5
FC30
  8
DANMEN
  6
CONTINUOUS
 10
381.0
 20
120.0
 30
0.0
 11
381.0
 21
118.5
 31
0.0
  0
LINE
  5
FC31
  8
DANMEN
  6
CONTINUOUS
 10
390.649994
 20
157.350006
 30
0.0
 11
390.649994
 21
90.649994
 31
0.0
  0
LINE
  5
FC32
  8
DANMEN
  6
CONTINUOUS
 10
381.0
 20
120.0
 30
0.0
 11
381.0
 21
118.292199
 31
0.0
  0
LINE
  5
FC33
  8
SUNPO
  6
CONTINUOUS
 10
351.577611
 20
117.5
 30
0.0
 11
351.577611
 21
120.0
 31
0.0
  0
LINE
  5
FC34
  8
SUNPO
  6
CONTINUOUS
 10
331.0
 20
120.0
 30
0.0
 11
331.0
 21
89.0
 31
0.0
  0
LINE
  5
FC35
  8
SUNPO
  6
CONTINUOUS
 10
255.5
 20
89.0
 30
0.0
 11
255.5
 21
159.0
 31
0.0
  0
LINE
  5
FC36
  8
SUNPO
  6
CONTINUOUS
 10
146.5
 20
148.0
 30
0.0
 11
146.5
 21
94.0
 31
0.0
  0
LINE
  5
FC37
  8
SUNPO
  6
CONTINUOUS
 10
23.0
 20
54.0
 30
0.0
 11
23.0
 21
148.0
 31
0.0
  0
LINE
  5
FC38
  8
SUNPO
  6
CONTINUOUS
 10
156.5
 20
145.593714
 30
0.0
 11
156.5
 21
94.0
 31
0.0
  0
TEXT
  5
FC39
  8
SUNPO
  6
CONTINUOUS
 10
330.0
 20
103.215772
 30
0.0
 40
2.5
  1
31
 50
90.0
  0
TEXT
  5
FC3A
  8
SUNPO
  6
CONTINUOUS
 10
330.0
 20
76.416667
 30
0.0
 40
2.5
  1
18.5
 50
90.0
  0
LINE
  5
FC3B
  8
SUNPO
  6
CONTINUOUS
 10
313.5
 20
70.5
 30
0.0
 11
331.0
 21
70.5
 31
0.0
  0
LINE
  5
FC3C
  8
SUNPO
  6
CONTINUOUS
 10
312.552269
 20
40.0
 30
0.0
 11
374.0
 21
40.0
 31
0.0
  0
LINE
  5
FC3D
  8
SUNPO
  6
CONTINUOUS
 10
314.0
 20
52.0
 30
0.0
 11
374.0
 21
52.0
 31
0.0
  0
LINE
  5
FC3E
  8
SUNPO
  6
CONTINUOUS
 10
58.0
 20
25.0
 30
0.0
 11
156.5
 21
25.0
 31
0.0
  0
LINE
  5
FC41
  8
DANMEN
  6
CONTINUOUS
 10
337.5
 20
112.000002
 30
0.0
 11
307.0
 21
112.000002
 31
0.0
  0
LINE
  5
FC42
  8
DANMEN
  6
CONTINUOUS
 10
337.5
 20
112.500002
 30
0.0
 11
307.0
 21
112.500002
 31
0.0
  0
LINE
  5
FC43
  8
DANMEN
  6
CONTINUOUS
 10
337.5
 20
108.000014
 30
0.0
 11
307.0
 21
108.000014
 31
0.0
  0
LINE
  5
FC44
  8
DANMEN
  6
CONTINUOUS
 10
337.5
 20
107.500014
 30
0.0
 11
307.0
 21
107.500014
 31
0.0
  0
LINE
  5
FC45
  8
DANMEN
  6
CONTINUOUS
 10
337.5
 20
118.0
 30
0.0
 11
314.0
 21
118.0
 31
0.0
  0
LINE
  5
FC46
  8
DANMEN
  6
CONTINUOUS
 10
337.5
 20
102.0
 30
0.0
 11
314.0
 21
102.0
 31
0.0
  0
LINE
  5
FC47
  8
DANMEN
  6
CONTINUOUS
 10
337.5
 20
100.0
 30
0.0
 11
314.0
 21
100.0
 31
0.0
  0
LINE
  5
FC48
  8
DANMEN
  6
CONTINUOUS
 10
337.5
 20
89.0
 30
0.0
 11
314.0
 21
89.0
 31
0.0
  0
LINE
  5
FC49
  8
DANMEN
  6
CONTINUOUS
 10
337.5
 20
89.0
 30
0.0
 11
314.0
 21
89.0
 31
0.0
  0
LINE
  5
FC4A
  8
DANMEN
  6
CONTINUOUS
 10
337.5
 20
90.65
 30
0.0
 11
314.0
 21
90.65
 31
0.0
  0
LINE
  5
FC4C
  8
DANMEN
  6
CONTINUOUS
 10
264.5
 20
100.0
 30
0.0
 11
274.0
 21
100.0
 31
0.0
  0
LINE
  5
FC4D
  8
DANMEN
  6
CONTINUOUS
 10
264.5
 20
89.0
 30
0.0
 11
274.0
 21
89.0
 31
0.0
  0
LINE
  5
FC4E
  8
DANMEN
  6
CONTINUOUS
 10
264.5
 20
90.65
 30
0.0
 11
274.0
 21
90.65
 31
0.0
  0
LINE
  5
FC4F
  8
DANMEN
  6
CONTINUOUS
 10
214.0
 20
89.0
 30
0.0
 11
261.5
 21
89.0
 31
0.0
  0
LINE
  5
FC50
  8
DANMEN
  6
CONTINUOUS
 10
214.0
 20
90.65
 30
0.0
 11
261.5
 21
90.65
 31
0.0
  0
ARC
  5
FC51
  8
DANMEN
  6
CONTINUOUS
 10
213.5
 20
89.5
 30
0.0
 40
0.5
 50
270.000018
 51
359.999981
  0
LINE
  5
FC53
  8
DANMEN
  6
CONTINUOUS
 10
214.0
 20
90.149994
 30
0.0
 11
214.0
 21
89.5
 31
0.0
  0
ARC
  5
FC54
  8
DANMEN
  6
CONTINUOUS
 10
213.5
 20
90.149994
 30
0.0
 40
0.5
 50
359.999981
 51
89.999982
  0
ARC
  5
FC56
  8
DANMEN
  6
CONTINUOUS
 10
312.0
 20
72.5
 30
0.0
 40
2.0
 50
270.000018
 51
0.0
  0
ARC
  5
FC57
  8
DANMEN
  6
CONTINUOUS
 10
276.0
 20
72.5
 30
0.0
 40
2.0
 50
179.999981
 51
270.000018
  0
LINE
  5
FC58
  8
DANMEN
  6
CONTINUOUS
 10
312.0
 20
70.5
 30
0.0
 11
276.0
 21
70.5
 31
0.0
  0
LINE
  5
FC59
  8
DANMEN
  6
CONTINUOUS
 10
312.000003
 20
74.5
 30
0.0
 11
275.999997
 21
74.5
 31
0.0
  0
LINE
  5
FC5A
  8
DANMEN
  6
CONTINUOUS
 10
312.900003
 20
94.949997
 30
0.0
 11
289.0
 21
94.949997
 31
0.0
  0
LINE
  5
FC5B
  8
DANMEN
  6
CONTINUOUS
 10
312.000003
 20
93.0
 30
0.0
 11
275.999997
 21
93.0
 31
0.0
  0
LINE
  5
FC5C
  8
DANMEN
  6
CONTINUOUS
 10
308.999997
 20
118.05
 30
0.0
 11
299.3
 21
118.05
 31
0.0
  0
LINE
  5
FC5D
  8
DANMEN
  6
CONTINUOUS
 10
289.0
 20
103.299994
 30
0.0
 11
307.0
 21
103.299994
 31
0.0
  0
LINE
  5
FC5E
  8
DANMEN
  6
CONTINUOUS
 10
307.0
 20
103.299994
 30
0.0
 11
289.0
 21
113.299994
 31
0.0
  0
LINE
  5
FC5F
  8
DANMEN
  6
CONTINUOUS
 10
289.0
 20
113.299994
 30
0.0
 11
307.0
 21
113.299994
 31
0.0
  0
LINE
  5
FC60
  8
DANMEN
  6
CONTINUOUS
 10
289.0
 20
94.949997
 30
0.0
 11
289.0
 21
113.299994
 31
0.0
  0
LINE
  5
FC61
  8
DANMEN
  6
CONTINUOUS
 10
287.050003
 20
94.949997
 30
0.0
 11
287.050003
 21
118.050003
 31
0.0
  0
LINE
  5
FC62
  8
DANMEN
  6
CONTINUOUS
 10
275.949997
 20
94.949997
 30
0.0
 11
275.949997
 21
117.050003
 31
0.0
  0
LINE
  5
FC63
  8
DANMEN
  6
CONTINUOUS
 10
287.050003
 20
94.949997
 30
0.0
 11
275.949997
 21
94.949997
 31
0.0
  0
LINE
  5
FC64
  8
DANMEN
  6
CONTINUOUS
 10
275.999997
 20
74.5
 30
0.0
 11
275.999997
 21
93.0
 31
0.0
  0
LINE
  5
FC65
  8
DANMEN
  6
CONTINUOUS
 10
287.050003
 20
118.050003
 30
0.0
 11
275.649997
 21
118.050003
 31
0.0
  0
LINE
  5
FC66
  8
DANMEN
  6
CONTINUOUS
 10
275.949997
 20
117.050003
 30
0.0
 11
275.649997
 21
117.050003
 31
0.0
  0
LINE
  5
FC67
  8
DANMEN
  6
CONTINUOUS
 10
275.649997
 20
117.050003
 30
0.0
 11
275.649997
 21
118.050003
 31
0.0
  0
LINE
  5
FC68
  8
DANMEN
  6
CONTINUOUS
 10
293.0
 20
114.499994
 30
0.0
 11
294.598058
 21
114.180382
 31
0.0
  0
LINE
  5
FC69
  8
DANMEN
  6
CONTINUOUS
 10
295.0
 20
113.299994
 30
0.0
 11
289.0
 21
113.299994
 31
0.0
  0
LINE
  5
FC6A
  8
DANMEN
  6
CONTINUOUS
 10
295.0
 20
118.05
 30
0.0
 11
289.0
 21
118.05
 31
0.0
  0
LINE
  5
FC6B
  8
DANMEN
  6
CONTINUOUS
 10
294.401083
 20
116.3
 30
0.0
 11
291.699105
 21
114.3
 31
0.0
  0
LINE
  5
FC6C
  8
DANMEN
  6
CONTINUOUS
 10
294.413121
 20
117.801883
 30
0.0
 11
291.436094
 21
115.598292
 31
0.0
  0
LINE
  5
FC6D
  8
DANMEN
  6
CONTINUOUS
 10
293.0
 20
114.499994
 30
0.0
 11
289.0
 21
114.499994
 31
0.0
  0
LINE
  5
FC6E
  8
DANMEN
  6
CONTINUOUS
 10
289.0
 20
114.499994
 30
0.0
 11
289.0
 21
118.05
 31
0.0
  0
LINE
  5
FC6F
  8
DANMEN
  6
CONTINUOUS
 10
291.699105
 20
114.3
 30
0.0
 11
290.499105
 21
114.3
 31
0.0
  0
LINE
  5
FC70
  8
DANMEN
  6
CONTINUOUS
 10
289.588046
 20
115.615608
 30
0.0
 11
290.499105
 21
114.3
 31
0.0
  0
LINE
  5
FC71
  8
DANMEN
  6
CONTINUOUS
 10
289.499105
 20
115.900266
 30
0.0
 11
289.499105
 21
115.900136
 31
0.0
  0
LINE
  5
FC72
  8
DANMEN
  6
CONTINUOUS
 10
289.999105
 20
116.400136
 30
0.0
 11
290.24247
 21
116.400136
 31
0.0
  0
ARC
  5
FC73
  8
DANMEN
  6
CONTINUOUS
 10
289.999105
 20
115.900266
 30
0.0
 40
0.5
 50
180.0
 51
214.702622
  0
ARC
  5
FC74
  8
DANMEN
  6
CONTINUOUS
 10
289.999105
 20
115.900136
 30
0.0
 40
0.5
 50
90.0
 51
180.0
  0
LINE
  5
FC75
  8
DANMEN
  6
CONTINUOUS
 10
290.653529
 20
116.184794
 30
0.0
 11
291.010975
 21
115.668627
 31
0.0
  0
ARC
  5
FC76
  8
DANMEN
  6
CONTINUOUS
 10
291.257611
 20
115.839422
 30
0.0
 40
0.3
 50
214.702622
 51
306.508792
  0
ARC
  5
FC77
  8
DANMEN
  6
CONTINUOUS
 10
290.24247
 20
115.900136
 30
0.0
 40
0.5
 50
34.702622
 51
90.0
  0
LINE
  5
FC78
  8
DANMEN
  6
CONTINUOUS
 10
298.3
 20
116.3
 30
0.0
 11
294.401083
 21
116.3
 31
0.0
  0
ARC
  5
FC79
  8
DANMEN
  6
CONTINUOUS
 10
294.5
 20
113.690092
 30
0.0
 40
0.5
 50
0.0
 51
78.690068
  0
LINE
  5
FC7A
  8
DANMEN
  6
CONTINUOUS
 10
295.0
 20
113.690092
 30
0.0
 11
295.0
 21
113.299994
 31
0.0
  0
LINE
  5
FC7B
  8
DANMEN
  6
CONTINUOUS
 10
295.3
 20
117.5
 30
0.0
 11
295.763932
 21
117.5
 31
0.0
  0
ARC
  5
FC7C
  8
DANMEN
  6
CONTINUOUS
 10
296.5
 20
118.342199
 30
0.0
 40
0.5
 50
299.396173
 51
0.0
  0
ARC
  5
FC7D
  8
DANMEN
  6
CONTINUOUS
 10
295.763932
 20
118.5
 30
0.0
 40
1.0
 50
270.0
 51
296.565051
  0
LINE
  5
FC7E
  8
DANMEN
  6
CONTINUOUS
 10
296.211146
 20
117.605573
 30
0.0
 11
296.745423
 21
117.906576
 31
0.0
  0
LINE
  5
FC7F
  8
DANMEN
  6
CONTINUOUS
 10
295.0
 20
117.8
 30
0.0
 11
295.0
 21
118.05
 31
0.0
  0
ARC
  5
FC80
  8
DANMEN
  6
CONTINUOUS
 10
295.3
 20
117.8
 30
0.0
 40
0.3
 50
180.0
 51
270.0
  0
LINE
  5
FC81
  8
DANMEN
  6
CONTINUOUS
 10
297.3
 20
117.5
 30
0.0
 11
295.3
 21
117.5
 31
0.0
  0
LINE
  5
FC82
  8
DANMEN
  6
CONTINUOUS
 10
297.3
 20
118.5
 30
0.0
 11
297.3
 21
117.5
 31
0.0
  0
LINE
  5
FC83
  8
DANMEN
  6
CONTINUOUS
 10
297.3
 20
118.5
 30
0.0
 11
297.0
 21
118.5
 31
0.0
  0
LINE
  5
FC84
  8
DANMEN
  6
CONTINUOUS
 10
294.734315
 20
117.9
 30
0.0
 11
294.710594
 21
117.9
 31
0.0
  0
ARC
  5
FC85
  8
DANMEN
  6
CONTINUOUS
 10
294.710594
 20
117.4
 30
0.0
 40
0.5
 50
90.0
 51
126.508792
  0
ARC
  5
FC86
  8
DANMEN
  6
CONTINUOUS
 10
295.3
 20
117.8
 30
0.0
 40
0.3
 50
199.471221
 51
270.0
  0
ARC
  5
FC88
  8
DANMEN
  6
CONTINUOUS
 10
294.734315
 20
117.6
 30
0.0
 40
0.3
 50
19.471221
 51
90.0
  0
ARC
  5
FC8A
  8
DANMEN
  6
CONTINUOUS
 10
299.3
 20
117.55
 30
0.0
 40
0.5
 50
90.0
 51
180.0
  0
LINE
  5
FC8B
  8
DANMEN
  6
CONTINUOUS
 10
298.8
 20
117.55
 30
0.0
 11
298.8
 21
116.8
 31
0.0
  0
ARC
  5
FC8C
  8
DANMEN
  6
CONTINUOUS
 10
298.3
 20
116.8
 30
0.0
 40
0.5
 50
270.0
 51
0.0
  0
LINE
  5
FC8D
  8
DANMEN
  6
CONTINUOUS
 10
312.9
 20
94.949997
 30
0.0
 11
312.9
 21
96.949997
 31
0.0
  0
LINE
  5
FC8E
  8
DANMEN
  6
CONTINUOUS
 10
314.0
 20
72.5
 30
0.0
 11
314.0
 21
102.0
 31
0.0
  0
LINE
  5
FC8F
  8
DANMEN
  6
CONTINUOUS
 10
312.000003
 20
74.5
 30
0.0
 11
312.000003
 21
93.0
 31
0.0
  0
ARC
  5
FC90
  8
DANMEN
  6
CONTINUOUS
 10
318.0
 20
114.000009
 30
0.0
 40
1.5
 50
179.999982
 51
269.999964
  0
ARC
  5
FC91
  8
DANMEN
  6
CONTINUOUS
 10
318.0
 20
106.000006
 30
0.0
 40
1.5
 50
90.0
 51
179.999982
  0
LINE
  5
FC92
  8
DANMEN
  6
CONTINUOUS
 10
307.0
 20
113.299994
 30
0.0
 11
307.0
 21
103.299994
 31
0.0
  0
LINE
  5
FC93
  8
DANMEN
  6
CONTINUOUS
 10
312.05
 20
96.949997
 30
0.0
 11
312.05
 21
101.5
 31
0.0
  0
LINE
  5
FC94
  8
DANMEN
  6
CONTINUOUS
 10
312.900003
 20
96.949997
 30
0.0
 11
312.05
 21
96.949997
 31
0.0
  0
ARC
  5
FC95
  8
DANMEN
  6
CONTINUOUS
 10
313.5
 20
102.0
 30
0.0
 40
0.5
 50
0.000019
 51
89.999982
  0
LINE
  5
FC96
  8
DANMEN
  6
CONTINUOUS
 10
313.5
 20
102.5
 30
0.0
 11
311.0
 21
102.5
 31
0.0
  0
ARC
  5
FC97
  8
DANMEN
  6
CONTINUOUS
 10
311.5
 20
102.0
 30
0.0
 40
0.5
 50
180.0
 51
270.0
  0
LINE
  5
FC98
  8
DANMEN
  6
CONTINUOUS
 10
312.05
 20
101.5
 30
0.0
 11
311.5
 21
101.5
 31
0.0
  0
LINE
  5
FC99
  8
DANMEN
  6
CONTINUOUS
 10
311.0
 20
102.0
 30
0.0
 11
311.0
 21
102.5
 31
0.0
  0
LINE
  5
FC9A
  8
DANMEN
  6
CONTINUOUS
 10
316.5
 20
103.5
 30
0.0
 11
316.5
 21
106.000006
 31
0.0
  0
ARC
  5
FC9B
  8
DANMEN
  6
CONTINUOUS
 10
315.0
 20
103.5
 30
0.0
 40
1.5
 50
269.999964
 51
0.000001
  0
LINE
  5
FC9C
  8
DANMEN
  6
CONTINUOUS
 10
309.999997
 20
117.5
 30
0.0
 11
308.999997
 21
117.5
 31
0.0
  0
LINE
  5
FC9D
  8
DANMEN
  6
CONTINUOUS
 10
307.0
 20
112.500002
 30
0.0
 11
307.0
 21
107.499998
 31
0.0
  0
LINE
  5
FC9E
  8
DANMEN
  6
CONTINUOUS
 10
308.999997
 20
118.05
 30
0.0
 11
308.999997
 21
117.5
 31
0.0
  0
ARC
  5
FCA0
  8
DANMEN
  6
CONTINUOUS
 10
313.499997
 20
118.0
 30
0.0
 40
0.5
 50
270.0
 51
0.0
  0
ARC
  5
FCA1
  8
DANMEN
  6
CONTINUOUS
 10
310.499997
 20
117.55
 30
0.0
 40
0.5
 50
90.0
 51
180.0
  0
LINE
  5
FCA2
  8
DANMEN
  6
CONTINUOUS
 10
310.999997
 20
118.05
 30
0.0
 11
310.999997
 21
117.5
 31
0.0
  0
LINE
  5
FCA3
  8
DANMEN
  6
CONTINUOUS
 10
310.999997
 20
118.05
 30
0.0
 11
310.499997
 21
118.05
 31
0.0
  0
LINE
  5
FCA4
  8
DANMEN
  6
CONTINUOUS
 10
309.999997
 20
117.55
 30
0.0
 11
309.999997
 21
117.5
 31
0.0
  0
LINE
  5
FCA5
  8
DANMEN
  6
CONTINUOUS
 10
313.499996
 20
117.5
 30
0.0
 11
310.999997
 21
117.5
 31
0.0
  0
ARC
  5
FCA6
  8
DANMEN
  6
CONTINUOUS
 10
315.0
 20
116.5
 30
0.0
 40
1.5
 50
0.000018
 51
90.0
  0
LINE
  5
FCA7
  8
DANMEN
  6
CONTINUOUS
 10
316.5
 20
114.000009
 30
0.0
 11
316.5
 21
116.5
 31
0.0
  0
LINE
  5
FCA9
  8
SUNPO
  6
CONTINUOUS
 10
23.0
 20
25.0
 30
0.0
 11
23.0
 21
34.0
 31
0.0
  0
LINE
  5
FCAA
  8
SUNPO
  6
CONTINUOUS
 10
43.0
 20
32.5
 30
0.0
 11
43.0
 21
15.0
 31
0.0
  0
ARC
  5
FCAC
  8
SUNPO
  6
BYBLOCK
 10
23.0
 20
25.0
 30
0.0
 40
0.145
 50
270.0
 51
90.0
  0
ARC
  5
FCAD
  8
SUNPO
  6
BYBLOCK
 10
23.0
 20
25.0
 30
0.0
 40
0.145
 50
90.0
 51
270.0
  0
TEXT
  5
FCAE
  8
SUNPO
  6
CONTINUOUS
 10
47.333333
 20
16.0
 30
0.0
 40
2.5
  1
12
  0
LINE
  5
FCAF
  8
SUNPO
  6
CONTINUOUS
 10
43.0
 20
15.0
 30
0.0
 11
55.0
 21
15.0
 31
0.0
  0
ARC
  5
FCB0
  8
SUNPO
  6
BYBLOCK
 10
55.0
 20
15.0
 30
0.0
 40
0.145
 50
180.0
 51
0.0
  0
ARC
  5
FCB1
  8
SUNPO
  6
BYBLOCK
 10
55.0
 20
15.0
 30
0.0
 40
0.145
 50
0.0
 51
180.0
  0
LINE
  5
FCB2
  8
SUNPO
  6
CONTINUOUS
 10
55.0
 20
23.5
 30
0.0
 11
55.0
 21
15.0
 31
0.0
  0
LINE
  5
FCB5
  8
DANMEN
  6
CONTINUOUS
 10
367.000003
 20
118.05
 30
0.0
 11
367.500003
 21
118.05
 31
0.0
  0
LINE
  5
FCB6
  8
DANMEN
  6
CONTINUOUS
 10
367.0
 20
101.65
 30
0.0
 11
375.15
 21
101.65
 31
0.0
  0
LINE
  5
FCB7
  8
DANMEN
  6
CONTINUOUS
 10
364.5
 20
100.0
 30
0.0
 11
374.0
 21
100.0
 31
0.0
  0
LINE
  5
FCB8
  8
DANMEN
  6
CONTINUOUS
 10
371.0
 20
112.500002
 30
0.0
 11
340.5
 21
112.500002
 31
0.0
  0
LINE
  5
FCB9
  8
DANMEN
  6
CONTINUOUS
 10
371.0
 20
107.500014
 30
0.0
 11
340.5
 21
107.500014
 31
0.0
  0
LINE
  5
FCBA
  8
DANMEN
  6
CONTINUOUS
 10
371.0
 20
112.000002
 30
0.0
 11
340.5
 21
112.000002
 31
0.0
  0
LINE
  5
FCBB
  8
DANMEN
  6
CONTINUOUS
 10
371.0
 20
108.000014
 30
0.0
 11
340.5
 21
108.000014
 31
0.0
  0
LINE
  5
FCBC
  8
DANMEN
  6
CONTINUOUS
 10
340.5
 20
89.0
 30
0.0
 11
374.0
 21
89.0
 31
0.0
  0
LINE
  5
FCBD
  8
DANMEN
  6
CONTINUOUS
 10
340.5
 20
90.65
 30
0.0
 11
374.0
 21
90.65
 31
0.0
  0
LINE
  5
FCBE
  8
DANMEN
  6
CONTINUOUS
 10
340.5
 20
118.000015
 30
0.0
 11
364.0
 21
118.000015
 31
0.0
  0
LINE
  5
FCBF
  8
DANMEN
  6
CONTINUOUS
 10
340.5
 20
102.000015
 30
0.0
 11
364.0
 21
102.000015
 31
0.0
  0
LINE
  5
FCC0
  8
DANMEN
  6
CONTINUOUS
 10
340.5
 20
100.0
 30
0.0
 11
364.5
 21
100.0
 31
0.0
  0
ARC
  5
FCC1
  8
DANMEN
  6
CONTINUOUS
 10
360.000046
 20
106.000052
 30
0.0
 40
1.5
 50
359.999326
 51
89.999308
  0
LINE
  5
FCC2
  8
DANMEN
  6
CONTINUOUS
 10
364.0
 20
102.0
 30
0.0
 11
364.0
 21
100.5
 31
0.0
  0
ARC
  5
FCC3
  8
DANMEN
  6
CONTINUOUS
 10
364.5
 20
100.5
 30
0.0
 40
0.5
 50
180.0
 51
269.999982
  0
ARC
  5
FCC4
  8
DANMEN
  6
CONTINUOUS
 10
363.000017
 20
103.500027
 30
0.0
 40
1.5
 50
179.999362
 51
269.999344
  0
LINE
  5
FCC5
  8
DANMEN
  6
CONTINUOUS
 10
361.500046
 20
106.000035
 30
0.0
 11
361.500017
 21
103.500044
 31
0.0
  0
LINE
  5
FCC7
  8
DANMEN
  6
CONTINUOUS
 10
364.5
 20
102.5
 30
0.0
 11
367.0
 21
102.5
 31
0.0
  0
LINE
  5
FCC8
  8
DANMEN
  6
CONTINUOUS
 10
367.0
 20
102.5
 30
0.0
 11
367.0
 21
101.65
 31
0.0
  0
ARC
  5
FCC9
  8
DANMEN
  6
CONTINUOUS
 10
364.5
 20
102.0
 30
0.0
 40
0.5
 50
89.999963
 51
180.000019
  0
ARC
  5
FCCA
  8
DANMEN
  6
CONTINUOUS
 10
360.000137
 20
114.000055
 30
0.0
 40
1.5
 50
269.999344
 51
359.999326
  0
ARC
  5
FCCC
  8
DANMEN
  6
CONTINUOUS
 10
363.000166
 20
116.500027
 30
0.0
 40
1.5
 50
89.999308
 51
179.999345
  0
LINE
  5
FCCD
  8
DANMEN
  6
CONTINUOUS
 10
361.500166
 20
116.500044
 30
0.0
 11
361.500137
 21
114.000038
 31
0.0
  0
LINE
  5
FCCE
  8
DANMEN
  6
CONTINUOUS
 10
367.000003
 20
118.05
 30
0.0
 11
367.000003
 21
117.5
 31
0.0
  0
ARC
  5
FCCF
  8
DANMEN
  6
CONTINUOUS
 10
364.500003
 20
118.0
 30
0.0
 40
0.5
 50
180.0
 51
270.0
  0
LINE
  5
FCD0
  8
DANMEN
  6
CONTINUOUS
 10
364.500004
 20
117.5
 30
0.0
 11
367.000003
 21
117.5
 31
0.0
  0
LINE
  5
FCD1
  8
DANMEN
  6
CONTINUOUS
 10
375.65
 20
101.15
 30
0.0
 11
375.65
 21
90.65
 31
0.0
  0
LINE
  5
FCD2
  8
DANMEN
  6
CONTINUOUS
 10
389.0
 20
90.199997
 30
0.0
 11
389.0
 21
113.299994
 31
0.0
  0
LINE
  5
FCD3
  8
DANMEN
  6
CONTINUOUS
 10
374.0
 20
100.0
 30
0.0
 11
374.0
 21
89.5
 31
0.0
  0
LINE
  5
FCD4
  8
DANMEN
  6
CONTINUOUS
 10
375.65
 20
90.65
 30
0.0
 11
387.0
 21
90.65
 31
0.0
  0
LINE
  5
FCD5
  8
DANMEN
  6
CONTINUOUS
 10
374.5
 20
89.0
 30
0.0
 11
398.5
 21
89.0
 31
0.0
  0
ARC
  5
FCD6
  8
DANMEN
  6
CONTINUOUS
 10
374.5
 20
89.5
 30
0.0
 40
0.5
 50
180.0
 51
270.0
  0
LINE
  5
FCD7
  8
DANMEN
  6
CONTINUOUS
 10
397.350006
 20
90.649994
 30
0.0
 11
390.649994
 21
90.649994
 31
0.0
  0
LINE
  5
FCD8
  8
DANMEN
  6
CONTINUOUS
 10
389.0
 20
90.199997
 30
0.0
 11
387.0
 21
90.199997
 31
0.0
  0
LINE
  5
FCD9
  8
DANMEN
  6
CONTINUOUS
 10
387.0
 20
90.199997
 30
0.0
 11
387.0
 21
90.649994
 31
0.0
  0
ARC
  5
FCDA
  8
DANMEN
  6
CONTINUOUS
 10
398.5
 20
89.5
 30
0.0
 40
0.5
 50
270.000018
 51
359.999981
  0
LINE
  5
FCDB
  8
DANMEN
  6
CONTINUOUS
 10
398.5
 20
95.0
 30
0.0
 11
397.850006
 21
95.0
 31
0.0
  0
LINE
  5
FCDC
  8
DANMEN
  6
CONTINUOUS
 10
399.0
 20
94.5
 30
0.0
 11
399.0
 21
89.5
 31
0.0
  0
LINE
  5
FCDD
  8
DANMEN
  6
CONTINUOUS
 10
397.350006
 20
94.5
 30
0.0
 11
397.350006
 21
90.649994
 31
0.0
  0
ARC
  5
FCDE
  8
DANMEN
  6
CONTINUOUS
 10
397.850006
 20
94.5
 30
0.0
 40
0.5
 50
90.000037
 51
180.000019
  0
ARC
  5
FCDF
  8
DANMEN
  6
CONTINUOUS
 10
398.5
 20
94.5
 30
0.0
 40
0.5
 50
359.999981
 51
90.000037
  0
LINE
  5
FCE0
  8
DANMEN
  6
CONTINUOUS
 10
379.7
 20
116.3
 30
0.0
 11
383.598917
 21
116.3
 31
0.0
  0
ARC
  5
FCE1
  8
DANMEN
  6
CONTINUOUS
 10
383.289406
 20
117.4
 30
0.0
 40
0.5
 50
53.491208
 51
90.0
  0
LINE
  5
FCE2
  8
DANMEN
  6
CONTINUOUS
 10
383.0
 20
118.35
 30
0.0
 11
389.0
 21
118.35
 31
0.0
  0
LINE
  5
FCE3
  8
DANMEN
  6
CONTINUOUS
 10
383.0
 20
113.299994
 30
0.0
 11
389.0
 21
113.299994
 31
0.0
  0
LINE
  5
FCE4
  8
DANMEN
  6
CONTINUOUS
 10
385.0
 20
114.499994
 30
0.0
 11
383.401942
 21
114.180382
 31
0.0
  0
ARC
  5
FCE5
  8
DANMEN
  6
CONTINUOUS
 10
375.15
 20
101.15
 30
0.0
 40
0.5
 50
0.0
 51
90.0
  0
LINE
  5
FCE6
  8
DANMEN
  6
CONTINUOUS
 10
369.000003
 20
118.05
 30
0.0
 11
378.7
 21
118.05
 31
0.0
  0
LINE
  5
FCE7
  8
DANMEN
  6
CONTINUOUS
 10
371.0
 20
112.500002
 30
0.0
 11
371.0
 21
107.499998
 31
0.0
  0
ARC
  5
FCE8
  8
DANMEN
  6
CONTINUOUS
 10
367.500003
 20
117.55
 30
0.0
 40
0.5
 50
0.0
 51
90.0
  0
LINE
  5
FCE9
  8
DANMEN
  6
CONTINUOUS
 10
368.000003
 20
117.5
 30
0.0
 11
369.000003
 21
117.5
 31
0.0
  0
LINE
  5
FCEA
  8
DANMEN
  6
CONTINUOUS
 10
368.000003
 20
117.55
 30
0.0
 11
368.000003
 21
117.5
 31
0.0
  0
LINE
  5
FCEB
  8
DANMEN
  6
CONTINUOUS
 10
369.000003
 20
118.05
 30
0.0
 11
369.000003
 21
117.5
 31
0.0
  0
ARC
  5
FCEC
  8
DANMEN
  6
CONTINUOUS
 10
379.7
 20
116.8
 30
0.0
 40
0.5
 50
180.0
 51
270.0
  0
ARC
  5
FCED
  8
DANMEN
  6
CONTINUOUS
 10
378.7
 20
117.55
 30
0.0
 40
0.5
 50
0.0
 51
90.0
  0
LINE
  5
FCEE
  8
DANMEN
  6
CONTINUOUS
 10
379.2
 20
117.55
 30
0.0
 11
379.2
 21
116.8
 31
0.0
  0
LINE
  5
FCEF
  8
DANMEN
  6
CONTINUOUS
 10
380.7
 20
117.5
 30
0.0
 11
382.7
 21
117.5
 31
0.0
  0
LINE
  5
FCF0
  8
DANMEN
  6
CONTINUOUS
 10
380.7
 20
118.5
 30
0.0
 11
380.7
 21
117.5
 31
0.0
  0
LINE
  5
FCF1
  8
DANMEN
  6
CONTINUOUS
 10
380.7
 20
118.5
 30
0.0
 11
381.0
 21
118.5
 31
0.0
  0
LINE
  5
FCF2
  8
DANMEN
  6
CONTINUOUS
 10
383.265685
 20
117.9
 30
0.0
 11
383.289406
 21
117.9
 31
0.0
  0
ARC
  5
FCF3
  8
DANMEN
  6
CONTINUOUS
 10
382.7
 20
117.8
 30
0.0
 40
0.3
 50
270.0
 51
340.528779
  0
ARC
  5
FCF5
  8
DANMEN
  6
CONTINUOUS
 10
383.265685
 20
117.6
 30
0.0
 40
0.3
 50
90.0
 51
160.528779
  0
LINE
  5
FCF7
  8
DANMEN
  6
CONTINUOUS
 10
382.7
 20
117.5
 30
0.0
 11
382.256068
 21
117.5
 31
0.0
  0
ARC
  5
FCF8
  8
DANMEN
  6
CONTINUOUS
 10
381.5
 20
118.292199
 30
0.0
 40
0.5
 50
180.0
 51
240.603827
  0
ARC
  5
FCF9
  8
DANMEN
  6
CONTINUOUS
 10
382.256068
 20
118.5
 30
0.0
 40
1.0
 50
243.434949
 51
270.0
  0
LINE
  5
FCFA
  8
DANMEN
  6
CONTINUOUS
 10
381.808854
 20
117.605573
 30
0.0
 11
381.254577
 21
117.856576
 31
0.0
  0
LINE
  5
FCFB
  8
DANMEN
  6
CONTINUOUS
 10
383.0
 20
117.8
 30
0.0
 11
383.0
 21
118.35
 31
0.0
  0
ARC
  5
FCFC
  8
DANMEN
  6
CONTINUOUS
 10
382.7
 20
117.8
 30
0.0
 40
0.3
 50
270.0
 51
0.0
  0
LINE
  5
FCFD
  8
DANMEN
  6
CONTINUOUS
 10
383.0
 20
113.690092
 30
0.0
 11
383.0
 21
113.299994
 31
0.0
  0
ARC
  5
FCFE
  8
DANMEN
  6
CONTINUOUS
 10
383.5
 20
113.690092
 30
0.0
 40
0.5
 50
101.309932
 51
180.0
  0
LINE
  5
FCFF
  8
DANMEN
  6
CONTINUOUS
 10
388.411954
 20
115.615608
 30
0.0
 11
387.500895
 21
114.3
 31
0.0
  0
ARC
  5
FD00
  8
DANMEN
  6
CONTINUOUS
 10
387.75753
 20
115.900136
 30
0.0
 40
0.5
 50
90.0
 51
145.297378
  0
LINE
  5
FD01
  8
DANMEN
  6
CONTINUOUS
 10
385.0
 20
114.499994
 30
0.0
 11
389.0
 21
114.499994
 31
0.0
  0
LINE
  5
FD02
  8
DANMEN
  6
CONTINUOUS
 10
386.300895
 20
114.3
 30
0.0
 11
387.500895
 21
114.3
 31
0.0
  0
LINE
  5
FD03
  8
DANMEN
  6
CONTINUOUS
 10
383.598917
 20
116.3
 30
0.0
 11
386.300895
 21
114.3
 31
0.0
  0
LINE
  5
FD04
  8
DANMEN
  6
CONTINUOUS
 10
383.586879
 20
117.801883
 30
0.0
 11
386.563906
 21
115.598292
 31
0.0
  0
LINE
  5
FD05
  8
DANMEN
  6
CONTINUOUS
 10
387.346471
 20
116.184794
 30
0.0
 11
386.989025
 21
115.668627
 31
0.0
  0
ARC
  5
FD06
  8
DANMEN
  6
CONTINUOUS
 10
386.742389
 20
115.839422
 30
0.0
 40
0.3
 50
233.491208
 51
325.297378
  0
LINE
  5
FD07
  8
DANMEN
  6
CONTINUOUS
 10
388.500895
 20
115.900266
 30
0.0
 11
388.500895
 21
115.900136
 31
0.0
  0
LINE
  5
FD08
  8
DANMEN
  6
CONTINUOUS
 10
388.000895
 20
116.400136
 30
0.0
 11
387.75753
 21
116.400136
 31
0.0
  0
ARC
  5
FD09
  8
DANMEN
  6
CONTINUOUS
 10
388.000895
 20
115.900266
 30
0.0
 40
0.5
 50
325.297378
 51
0.0
  0
ARC
  5
FD0A
  8
DANMEN
  6
CONTINUOUS
 10
388.000895
 20
115.900136
 30
0.0
 40
0.5
 50
0.0
 51
90.0
  0
LINE
  5
FD0B
  8
DANMEN
  6
CONTINUOUS
 10
389.0
 20
114.499994
 30
0.0
 11
389.0
 21
118.35
 31
0.0
  0
LINE
  5
FD0F
  8
SUNPO
  6
CONTINUOUS
 10
41.5
 20
34.0
 30
0.0
 11
23.0
 21
34.0
 31
0.0
  0
LINE
  5
FD10
  8
SUNPO
  6
CONTINUOUS
 10
41.5
 20
54.0
 30
0.0
 11
23.0
 21
54.0
 31
0.0
  0
LINE
  5
FD11
  8
SUNPO
  6
CONTINUOUS
 10
23.0
 20
34.0
 30
0.0
 11
23.0
 21
54.0
 31
0.0
  0
TEXT
  5
FD12
  8
SUNPO
  6
CONTINUOUS
 10
22.0
 20
28.666667
 30
0.0
 40
2.5
  1
9
 50
90.0
  0
ARC
  5
FD13
  8
SUNPO
  6
BYBLOCK
 10
23.0
 20
34.0
 30
0.0
 40
0.145
 50
270.0
 51
90.0
  0
ARC
  5
FD14
  8
SUNPO
  6
BYBLOCK
 10
23.0
 20
34.0
 30
0.0
 40
0.145
 50
90.0
 51
270.0
  0
ARC
  5
FD15
  8
SUNPO
  6
BYBLOCK
 10
23.0
 20
34.0
 30
0.0
 40
0.145
 50
90.0
 51
270.0
  0
ARC
  5
FD16
  8
SUNPO
  6
BYBLOCK
 10
23.0
 20
34.0
 30
0.0
 40
0.145
 50
270.0
 51
90.0
  0
TEXT
  5
FD17
  8
SUNPO
  6
CONTINUOUS
 10
22.0
 20
42.125
 30
0.0
 40
2.5
  1
20
 50
90.0
  0
TEXT
  5
FD18
  8
SUNPO
  6
CONTINUOUS
 10
32.0
 20
38.333333
 30
0.0
 40
2.5
  1
12
 50
90.0
  0
ARC
  5
FD19
  8
SUNPO
  6
BYBLOCK
 10
23.0
 20
54.0
 30
0.0
 40
0.145
 50
90.0
 51
270.0
  0
ARC
  5
FD1A
  8
SUNPO
  6
BYBLOCK
 10
23.0
 20
54.0
 30
0.0
 40
0.145
 50
270.0
 51
90.0
  0
ARC
  5
FD1B
  8
SUNPO
  6
BYBLOCK
 10
23.0
 20
54.0
 30
0.0
 40
0.145
 50
270.0
 51
90.0
  0
ARC
  5
FD1C
  8
SUNPO
  6
BYBLOCK
 10
23.0
 20
54.0
 30
0.0
 40
0.145
 50
90.0
 51
270.0
  0
TEXT
  5
FD1D
  8
SUNPO
  6
CONTINUOUS
 10
32.0
 20
49.166667
 30
0.0
 40
2.5
  1
8
 50
90.0
  0
TEXT
  5
FD1E
  8
SUNPO
  6
CONTINUOUS
 10
32.0
 20
56.666667
 30
0.0
 40
2.5
  1
7
 50
90.0
  0
LINE
  5
FD1F
  8
SUNPO
  6
CONTINUOUS
 10
33.0
 20
46.0
 30
0.0
 11
33.0
 21
54.0
 31
0.0
  0
LINE
  5
FD20
  8
SUNPO
  6
CONTINUOUS
 10
33.0
 20
46.0
 30
0.0
 11
33.0
 21
34.0
 31
0.0
  0
ARC
  5
FD21
  8
SUNPO
  6
BYBLOCK
 10
33.0
 20
34.0
 30
0.0
 40
0.145
 50
270.0
 51
90.0
  0
ARC
  5
FD22
  8
SUNPO
  6
BYBLOCK
 10
33.0
 20
34.0
 30
0.0
 40
0.145
 50
90.0
 51
270.0
  0
LINE
  5
FD23
  8
SUNPO
  6
CONTINUOUS
 10
41.5
 20
46.0
 30
0.0
 11
33.0
 21
46.0
 31
0.0
  0
ARC
  5
FD24
  8
SUNPO
  6
BYBLOCK
 10
33.0
 20
46.0
 30
0.0
 40
0.145
 50
270.0
 51
90.0
  0
ARC
  5
FD25
  8
SUNPO
  6
BYBLOCK
 10
33.0
 20
46.0
 30
0.0
 40
0.145
 50
90.0
 51
270.0
  0
ARC
  5
FD26
  8
SUNPO
  6
BYBLOCK
 10
33.0
 20
46.0
 30
0.0
 40
0.145
 50
90.0
 51
270.0
  0
ARC
  5
FD27
  8
SUNPO
  6
BYBLOCK
 10
33.0
 20
46.0
 30
0.0
 40
0.145
 50
270.0
 51
90.0
  0
LINE
  5
FD28
  8
SUNPO
  6
CONTINUOUS
 10
33.0
 20
61.0
 30
0.0
 11
33.0
 21
54.0
 31
0.0
  0
ARC
  5
FD29
  8
SUNPO
  6
BYBLOCK
 10
33.0
 20
54.0
 30
0.0
 40
0.145
 50
270.0
 51
90.0
  0
ARC
  5
FD2A
  8
SUNPO
  6
BYBLOCK
 10
33.0
 20
54.0
 30
0.0
 40
0.145
 50
90.0
 51
270.0
  0
ARC
  5
FD2B
  8
SUNPO
  6
BYBLOCK
 10
33.0
 20
54.0
 30
0.0
 40
0.145
 50
90.0
 51
270.0
  0
ARC
  5
FD2C
  8
SUNPO
  6
BYBLOCK
 10
33.0
 20
54.0
 30
0.0
 40
0.145
 50
270.0
 51
90.0
  0
LINE
  5
FD2D
  8
SUNPO
  6
CONTINUOUS
 10
41.5
 20
61.0
 30
0.0
 11
33.0
 21
61.0
 31
0.0
  0
ARC
  5
FD2E
  8
SUNPO
  6
BYBLOCK
 10
33.0
 20
61.0
 30
0.0
 40
0.145
 50
90.0
 51
270.0
  0
ARC
  5
FD2F
  8
SUNPO
  6
BYBLOCK
 10
33.0
 20
61.0
 30
0.0
 40
0.145
 50
270.0
 51
90.0
  0
TEXT
  5
FD30
  8
SUNPO
  6
CONTINUOUS
 10
22.0
 20
98.916667
 30
0.0
 40
2.5
  1
94
 50
90.0
  0
LINE
  5
FD31
  8
SUNPO
  6
CONTINUOUS
 10
214.0
 20
40.0
 30
0.0
 11
189.0
 21
40.0
 31
0.0
  0
LINE
  5
FD32
  8
SUNPO
  6
CONTINUOUS
 10
199.0
 20
60.0
 30
0.0
 11
189.0
 21
60.0
 31
0.0
  0
LINE
  5
FD33
  8
SUNPO
  6
CONTINUOUS
 10
156.5
 20
34.0
 30
0.0
 11
156.5
 21
25.0
 31
0.0
  0
ARC
  5
FD34
  8
SUNPO
  6
BYBLOCK
 10
156.5
 20
25.0
 30
0.0
 40
0.145
 50
270.0
 51
90.0
  0
ARC
  5
FD35
  8
SUNPO
  6
BYBLOCK
 10
156.5
 20
25.0
 30
0.0
 40
0.145
 50
90.0
 51
270.0
  0
LINE
  5
FD36
  8
SUNPO
  6
CONTINUOUS
 10
114.5
 20
59.0
 30
0.0
 11
146.5
 21
59.0
 31
0.0
  0
LINE
  5
FD37
  8
SUNPO
  6
CONTINUOUS
 10
114.5
 20
34.0
 30
0.0
 11
156.5
 21
34.0
 31
0.0
  0
LINE
  5
FD38
  8
SUNPO
  6
CONTINUOUS
 10
114.5
 20
94.0
 30
0.0
 11
156.5
 21
94.0
 31
0.0
  0
LINE
  5
FD39
  8
SUNPO
  6
CONTINUOUS
 10
146.5
 20
94.0
 30
0.0
 11
146.5
 21
59.0
 31
0.0
  0
LINE
  5
FD3A
  8
SUNPO
  6
CONTINUOUS
 10
156.5
 20
94.0
 30
0.0
 11
156.5
 21
34.0
 31
0.0
  0
LINE
  5
FD3B
  8
SUNPO
  6
CONTINUOUS
 10
189.0
 20
87.5
 30
0.0
 11
189.0
 21
40.0
 31
0.0
  0
LINE
  5
FD3C
  8
SUNPO
  6
CONTINUOUS
 10
146.5
 20
59.0
 30
0.0
 11
146.5
 21
34.0
 31
0.0
  0
ARC
  5
FD3D
  8
SUNPO
  6
BYBLOCK
 10
146.5
 20
34.0
 30
0.0
 40
0.145
 50
270.0
 51
90.0
  0
ARC
  5
FD3E
  8
SUNPO
  6
BYBLOCK
 10
146.5
 20
34.0
 30
0.0
 40
0.145
 50
90.0
 51
270.0
  0
TEXT
  5
FD3F
  8
SUNPO
  6
CONTINUOUS
 10
145.5
 20
44.416667
 30
0.0
 40
2.5
  1
25
 50
90.0
  0
TEXT
  5
FD40
  8
SUNPO
  6
CONTINUOUS
 10
155.5
 20
28.666667
 30
0.0
 40
2.5
  1
9
 50
90.0
  0
ARC
  5
FD41
  8
SUNPO
  6
BYBLOCK
 10
156.5
 20
34.0
 30
0.0
 40
0.15625
 50
270.0
 51
90.0
  0
ARC
  5
FD42
  8
SUNPO
  6
BYBLOCK
 10
156.5
 20
34.0
 30
0.0
 40
0.15625
 50
90.0
 51
270.0
  0
ARC
  5
FD43
  8
SUNPO
  6
BYBLOCK
 10
156.5
 20
34.0
 30
0.0
 40
0.145
 50
90.0
 51
270.0
  0
ARC
  5
FD44
  8
SUNPO
  6
BYBLOCK
 10
156.5
 20
34.0
 30
0.0
 40
0.145
 50
270.0
 51
90.0
  0
ARC
  5
FD45
  8
SUNPO
  6
BYBLOCK
 10
146.5
 20
59.0
 30
0.0
 40
0.145
 50
270.0
 51
90.0
  0
ARC
  5
FD46
  8
SUNPO
  6
BYBLOCK
 10
146.5
 20
59.0
 30
0.0
 40
0.145
 50
90.0
 51
270.0
  0
ARC
  5
FD47
  8
SUNPO
  6
BYBLOCK
 10
146.5
 20
59.0
 30
0.0
 40
0.145
 50
90.0
 51
270.0
  0
ARC
  5
FD48
  8
SUNPO
  6
BYBLOCK
 10
146.5
 20
59.0
 30
0.0
 40
0.145
 50
270.0
 51
90.0
  0
TEXT
  5
FD49
  8
SUNPO
  6
CONTINUOUS
 10
155.5
 20
62.125
 30
0.0
 40
2.5
  1
60
 50
90.0
  0
ARC
  5
FD4A
  8
SUNPO
  6
BYBLOCK
 10
189.0
 20
40.0
 30
0.0
 40
0.15625
 50
180.0
 51
0.0
  0
ARC
  5
FD4B
  8
SUNPO
  6
BYBLOCK
 10
189.0
 20
40.0
 30
0.0
 40
0.15625
 50
0.0
 51
180.0
  0
ARC
  5
FD4C
  8
SUNPO
  6
BYBLOCK
 10
189.0
 20
60.0
 30
0.0
 40
0.145
 50
180.0
 51
0.0
  0
ARC
  5
FD4D
  8
SUNPO
  6
BYBLOCK
 10
189.0
 20
60.0
 30
0.0
 40
0.145
 50
0.0
 51
180.0
  0
TEXT
  5
FD4E
  8
SUNPO
  6
CONTINUOUS
 10
192.541667
 20
61.0
 30
0.0
 40
2.5
  1
10
  0
LINE
  5
FD4F
  8
SUNPO
  6
CONTINUOUS
 10
161.5
 20
99.0
 30
0.0
 11
156.5
 21
94.0
 31
0.0
  0
LINE
  5
FD50
  8
SUNPO
  6
CONTINUOUS
 10
156.5
 20
94.0
 30
0.0
 11
151.5
 21
99.0
 31
0.0
  0
TEXT
  5
FD51
  8
SUNPO
  6
CONTINUOUS
 10
145.5
 20
74.416667
 30
0.0
 40
2.5
  1
35
 50
90.0
  0
ARC
  5
FD52
  8
SUNPO
  6
BYBLOCK
 10
146.5
 20
94.0
 30
0.0
 40
0.145
 50
90.0
 51
270.0
  0
ARC
  5
FD53
  8
SUNPO
  6
BYBLOCK
 10
146.5
 20
94.0
 30
0.0
 40
0.145
 50
270.0
 51
90.0
  0
ARC
  5
FD54
  8
SUNPO
  6
BYBLOCK
 10
146.5
 20
94.0
 30
0.0
 40
0.145
 50
270.0
 51
90.0
  0
ARC
  5
FD55
  8
SUNPO
  6
BYBLOCK
 10
146.5
 20
94.0
 30
0.0
 40
0.145
 50
90.0
 51
270.0
  0
LINE
  5
FD57
  8
SUNPO
  6
CONTINUOUS
 10
151.5
 20
99.0
 30
0.0
 11
161.5
 21
99.0
 31
0.0
  0
LINE
  5
FD5A
  8
SUNPO
  6
CONTINUOUS
 10
214.0
 20
40.0
 30
0.0
 11
283.978714
 21
40.0
 31
0.0
  0
LINE
  5
FD5B
  8
SUNPO
  6
CONTINUOUS
 10
274.0
 20
52.0
 30
0.0
 11
214.0
 21
52.0
 31
0.0
  0
LINE
  5
FD5C
  8
SUNPO
  6
CONTINUOUS
 10
252.0
 20
87.5
 30
0.0
 11
252.0
 21
60.0
 31
0.0
  0
LINE
  5
FD5D
  8
SUNPO
  6
CONTINUOUS
 10
199.0
 20
87.5
 30
0.0
 11
199.0
 21
60.0
 31
0.0
  0
LINE
  5
FD5E
  8
SUNPO
  6
CONTINUOUS
 10
214.0
 20
87.5
 30
0.0
 11
214.0
 21
40.0
 31
0.0
  0
LINE
  5
FD5F
  8
SUNPO
  6
CONTINUOUS
 10
252.0
 20
60.0
 30
0.0
 11
214.0
 21
60.0
 31
0.0
  0
TEXT
  5
FD60
  8
SUNPO
  6
CONTINUOUS
 10
199.416667
 20
41.0
 30
0.0
 40
2.5
  1
25
  0
LINE
  5
FD61
  8
SUNPO
  6
CONTINUOUS
 10
219.0
 20
45.0
 30
0.0
 11
219.0
 21
35.0
 31
0.0
  0
LINE
  5
FD62
  8
SUNPO
  6
CONTINUOUS
 10
219.0
 20
35.0
 30
0.0
 11
214.0
 21
40.0
 31
0.0
  0
LINE
  5
FD64
  8
SUNPO
  6
CONTINUOUS
 10
214.0
 20
40.0
 30
0.0
 11
219.0
 21
45.0
 31
0.0
  0
LINE
  5
FD67
  8
SUNPO
  6
CONTINUOUS
 10
214.0
 20
60.0
 30
0.0
 11
199.0
 21
60.0
 31
0.0
  0
ARC
  5
FD68
  8
SUNPO
  6
BYBLOCK
 10
199.0
 20
60.0
 30
0.0
 40
0.145
 50
180.0
 51
0.0
  0
ARC
  5
FD69
  8
SUNPO
  6
BYBLOCK
 10
199.0
 20
60.0
 30
0.0
 40
0.145
 50
0.0
 51
180.0
  0
ARC
  5
FD6A
  8
SUNPO
  6
BYBLOCK
 10
199.0
 20
60.0
 30
0.0
 40
0.145
 50
0.0
 51
180.0
  0
ARC
  5
FD6B
  8
SUNPO
  6
BYBLOCK
 10
199.0
 20
60.0
 30
0.0
 40
0.145
 50
180.0
 51
0.0
  0
TEXT
  5
FD6C
  8
SUNPO
  6
CONTINUOUS
 10
204.833333
 20
61.0
 30
0.0
 40
2.5
  1
15
  0
LINE
  5
FD6D
  8
SUNPO
  6
CONTINUOUS
 10
214.0
 20
52.0
 30
0.0
 11
223.111405
 21
55.31628
 31
0.0
  0
ARC
  5
FD6F
  8
SUNPO
  6
BYBLOCK
 10
214.0
 20
60.0
 30
0.0
 40
0.145
 50
180.0
 51
0.0
  0
ARC
  5
FD70
  8
SUNPO
  6
BYBLOCK
 10
214.0
 20
60.0
 30
0.0
 40
0.145
 50
0.0
 51
180.0
  0
ARC
  5
FD71
  8
SUNPO
  6
BYBLOCK
 10
214.0
 20
60.0
 30
0.0
 40
0.145
 50
0.0
 51
180.0
  0
ARC
  5
FD72
  8
SUNPO
  6
BYBLOCK
 10
214.0
 20
60.0
 30
0.0
 40
0.145
 50
180.0
 51
0.0
  0
LINE
  5
FD73
  8
SUNPO
  6
CONTINUOUS
 10
223.111405
 20
55.31628
 30
0.0
 11
224.267949
 21
51.0
 31
0.0
  0
TEXT
  5
FD77
  8
SUNPO
  6
CONTINUOUS
 10
230.916667
 20
61.0
 30
0.0
 40
2.5
  1
38
  0
TEXT
  5
FD78
  8
SUNPO
  6
CONTINUOUS
 10
247.007473
 20
53.048402
 30
0.0
 40
2.0
  1
2
  0
ARC
  5
FD79
  8
SUNPO
  6
BYBLOCK
 10
252.0
 20
60.0
 30
0.0
 40
0.145
 50
0.0
 51
180.0
  0
ARC
  5
FD7A
  8
SUNPO
  6
BYBLOCK
 10
252.0
 20
60.0
 30
0.0
 40
0.145
 50
180.0
 51
0.0
  0
ARC
  5
FD7B
  8
SUNPO
  6
BYBLOCK
 10
255.5
 20
89.0
 30
0.0
 40
0.145
 50
270.0
 51
90.0
  0
ARC
  5
FD7C
  8
SUNPO
  6
BYBLOCK
 10
255.5
 20
89.0
 30
0.0
 40
0.145
 50
90.0
 51
270.0
  0
TEXT
  5
FD7D
  8
SUNPO
  6
CONTINUOUS
 10
292.125
 20
53.0
 30
0.0
 40
2.5
  1
40
  0
LINE
  5
FD7E
  8
SUNPO
  6
CONTINUOUS
 10
296.495514
 20
43.5
 30
0.0
 11
292.186113
 21
43.5
 31
0.0
  0
LINE
  5
FD7F
  8
SUNPO
  6
CONTINUOUS
 10
297.22756
 20
36.500001
 30
0.0
 11
293.186114
 21
43.499998
 31
0.0
  0
LINE
  5
FD80
  8
SUNPO
  6
CONTINUOUS
 10
314.0
 20
52.0
 30
0.0
 11
274.0
 21
52.0
 31
0.0
  0
LINE
  5
FD81
  8
SUNPO
  6
CONTINUOUS
 10
264.888595
 20
48.68372
 30
0.0
 11
263.732051
 21
53.0
 31
0.0
  0
LINE
  5
FD82
  8
SUNPO
  6
CONTINUOUS
 10
274.0
 20
52.0
 30
0.0
 11
264.888595
 21
48.68372
 31
0.0
  0
LINE
  5
FD84
  8
SUNPO
  6
CONTINUOUS
 10
293.186113
 20
43.5
 30
0.0
 11
293.186113
 21
36.500001
 31
0.0
  0
LINE
  5
FD85
  8
SUNPO
  6
CONTINUOUS
 10
293.186114
 20
36.5
 30
0.0
 11
289.144668
 21
43.499997
 31
0.0
  0
LINE
  5
FD86
  8
SUNPO
  6
CONTINUOUS
 10
290.876776
 20
36.500001
 30
0.0
 11
286.835331
 21
43.499997
 31
0.0
  0
LINE
  5
FD87
  8
SUNPO
  6
CONTINUOUS
 10
294.186113
 20
36.5
 30
0.0
 11
289.708582
 21
36.5
 31
0.0
  0
LINE
  5
FD88
  8
SUNPO
  6
CONTINUOUS
 10
290.10634
 20
43.5
 30
0.0
 11
285.73099
 21
43.5
 31
0.0
  0
LINE
  5
FD89
  8
SUNPO
  6
CONTINUOUS
 10
274.0
 20
67.0
 30
0.0
 11
274.0
 21
52.0
 31
0.0
  0
LINE
  5
FD8C
  8
SUNPO
  6
CONTINUOUS
 10
299.536959
 20
36.500004
 30
0.0
 11
295.495515
 21
43.499997
 31
0.0
  0
LINE
  5
FD8D
  8
SUNPO
  6
CONTINUOUS
 10
299.536961
 20
43.5
 30
0.0
 11
299.536961
 21
36.500003
 31
0.0
  0
LINE
  5
FD8E
  8
SUNPO
  6
CONTINUOUS
 10
300.11431
 20
36.5
 30
0.0
 11
296.536562
 21
36.5
 31
0.0
  0
LINE
  5
FD8F
  8
SUNPO
  6
CONTINUOUS
 10
308.26901
 20
41.5
 30
0.0
 11
303.26901
 21
41.5
 31
0.0
  0
LINE
  5
FD90
  8
SUNPO
  6
CONTINUOUS
 10
308.26901
 20
38.5
 30
0.0
 11
303.26901
 21
38.5
 31
0.0
  0
LINE
  5
FD92
  8
SUNPO
  6
CONTINUOUS
 10
300.495805
 20
43.5
 30
0.0
 11
298.459285
 21
43.5
 31
0.0
  0
LINE
  5
FD93
  8
SUNPO
  6
CONTINUOUS
 10
314.0
 20
67.0
 30
0.0
 11
314.0
 21
52.0
 31
0.0
  0
LINE
  5
FD94
  8
SUNPO
  6
CONTINUOUS
 10
314.0
 20
52.0
 30
0.0
 11
323.111405
 21
55.31628
 31
0.0
  0
LINE
  5
FD96
  8
SUNPO
  6
CONTINUOUS
 10
323.111405
 20
55.31628
 30
0.0
 11
324.267949
 21
51.0
 31
0.0
  0
TEXT
  5
FD99
  8
SUNPO
  6
CONTINUOUS
 10
392.541667
 20
61.0
 30
0.0
 40
2.5
  1
10
  0
LINE
  5
FD9A
  8
SUNPO
  6
CONTINUOUS
 10
399.0
 20
40.0
 30
0.0
 11
374.0
 21
40.0
 31
0.0
  0
LINE
  5
FD9B
  8
SUNPO
  6
CONTINUOUS
 10
389.0
 20
60.0
 30
0.0
 11
399.0
 21
60.0
 31
0.0
  0
LINE
  5
FD9C
  8
SUNPO
  6
CONTINUOUS
 10
389.0
 20
87.5
 30
0.0
 11
389.0
 21
60.0
 31
0.0
  0
LINE
  5
FD9D
  8
SUNPO
  6
CONTINUOUS
 10
364.0
 20
87.5
 30
0.0
 11
364.0
 21
60.0
 31
0.0
  0
LINE
  5
FD9E
  8
SUNPO
  6
CONTINUOUS
 10
374.0
 20
87.5
 30
0.0
 11
374.0
 21
40.0
 31
0.0
  0
LINE
  5
FD9F
  8
SUNPO
  6
CONTINUOUS
 10
331.0
 20
70.5
 30
0.0
 11
331.0
 21
89.0
 31
0.0
  0
ARC
  5
FDA1
  8
SUNPO
  6
BYBLOCK
 10
331.0
 20
70.5
 30
0.0
 40
0.145
 50
270.0
 51
90.0
  0
ARC
  5
FDA2
  8
SUNPO
  6
BYBLOCK
 10
331.0
 20
70.5
 30
0.0
 40
0.145
 50
90.0
 51
270.0
  0
TEXT
  5
FDA3
  8
SUNPO
  6
CONTINUOUS
 10
347.372796
 20
52.984156
 30
0.0
 40
2.0
  1
1
 41
1.5
  0
LINE
  5
FDA4
  8
SUNPO
  6
CONTINUOUS
 10
364.888595
 20
48.68372
 30
0.0
 11
363.732051
 21
53.0
 31
0.0
  0
LINE
  5
FDA5
  8
SUNPO
  6
CONTINUOUS
 10
374.0
 20
52.0
 30
0.0
 11
364.888595
 21
48.68372
 31
0.0
  0
LINE
  5
FDA6
  8
SUNPO
  6
CONTINUOUS
 10
369.0
 20
35.0
 30
0.0
 11
369.0
 21
45.0
 31
0.0
  0
LINE
  5
FDA7
  8
SUNPO
  6
CONTINUOUS
 10
374.0
 20
40.0
 30
0.0
 11
369.0
 21
35.0
 31
0.0
  0
LINE
  5
FDA9
  8
SUNPO
  6
CONTINUOUS
 10
369.0
 20
45.0
 30
0.0
 11
374.0
 21
40.0
 31
0.0
  0
TEXT
  5
FDAD
  8
SUNPO
  6
CONTINUOUS
 10
384.416667
 20
41.0
 30
0.0
 40
2.5
  1
25
  0
LINE
  5
FDAE
  8
SUNPO
  6
CONTINUOUS
 10
389.0
 20
60.0
 30
0.0
 11
374.0
 21
60.0
 31
0.0
  0
LINE
  5
FDAF
  8
SUNPO
  6
CONTINUOUS
 10
374.0
 20
60.0
 30
0.0
 11
364.0
 21
60.0
 31
0.0
  0
ARC
  5
FDB1
  8
SUNPO
  6
BYBLOCK
 10
364.0
 20
60.0
 30
0.0
 40
0.145
 50
180.0
 51
0.0
  0
ARC
  5
FDB2
  8
SUNPO
  6
BYBLOCK
 10
364.0
 20
60.0
 30
0.0
 40
0.145
 50
0.0
 51
180.0
  0
ARC
  5
FDB4
  8
SUNPO
  6
BYBLOCK
 10
374.0
 20
60.0
 30
0.0
 40
0.145
 50
180.0
 51
0.0
  0
ARC
  5
FDB5
  8
SUNPO
  6
BYBLOCK
 10
374.0
 20
60.0
 30
0.0
 40
0.145
 50
0.0
 51
180.0
  0
ARC
  5
FDB6
  8
SUNPO
  6
BYBLOCK
 10
374.0
 20
60.0
 30
0.0
 40
0.145
 50
0.0
 51
180.0
  0
ARC
  5
FDB7
  8
SUNPO
  6
BYBLOCK
 10
374.0
 20
60.0
 30
0.0
 40
0.145
 50
180.0
 51
0.0
  0
TEXT
  5
FDB8
  8
SUNPO
  6
CONTINUOUS
 10
367.541667
 20
61.0
 30
0.0
 40
2.5
  1
10
  0
ARC
  5
FDB9
  8
SUNPO
  6
BYBLOCK
 10
389.0
 20
60.0
 30
0.0
 40
0.145
 50
0.0
 51
180.0
  0
ARC
  5
FDBA
  8
SUNPO
  6
BYBLOCK
 10
389.0
 20
60.0
 30
0.0
 40
0.145
 50
180.0
 51
0.0
  0
ARC
  5
FDBB
  8
SUNPO
  6
BYBLOCK
 10
389.0
 20
60.0
 30
0.0
 40
0.145
 50
180.0
 51
0.0
  0
ARC
  5
FDBC
  8
SUNPO
  6
BYBLOCK
 10
389.0
 20
60.0
 30
0.0
 40
0.145
 50
0.0
 51
180.0
  0
TEXT
  5
FDBD
  8
SUNPO
  6
CONTINUOUS
 10
379.833333
 20
61.0
 30
0.0
 40
2.5
  1
15
  0
LINE
  5
FDBE
  8
SUNPO
  6
CONTINUOUS
 10
362.5
 20
102.5
 30
0.0
 11
351.577611
 21
102.5
 31
0.0
  0
LINE
  5
FDBF
  8
SUNPO
  6
CONTINUOUS
 10
362.5
 20
100.0
 30
0.0
 11
351.577611
 21
100.0
 31
0.0
  0
LINE
  5
FDC0
  8
SUNPO
  6
CONTINUOUS
 10
362.5
 20
117.5
 30
0.0
 11
351.577611
 21
117.5
 31
0.0
  0
LINE
  5
FDC1
  8
SUNPO
  6
CONTINUOUS
 10
362.5
 20
102.5
 30
0.0
 11
351.577611
 21
102.5
 31
0.0
  0
LINE
  5
FDC2
  8
SUNPO
  6
CONTINUOUS
 10
362.5
 20
117.5
 30
0.0
 11
351.577611
 21
117.5
 31
0.0
  0
TEXT
  5
FDC3
  8
SUNPO
  6
CONTINUOUS
 10
350.577611
 20
91.68
 30
0.0
 40
2.5
  1
2.5
 50
90.0
  0
LINE
  5
FDC4
  8
SUNPO
  6
CONTINUOUS
 10
351.577611
 20
100.0
 30
0.0
 11
351.577611
 21
90.68
 31
0.0
  0
ARC
  5
FDC5
  8
SUNPO
  6
BYBLOCK
 10
331.0
 20
89.0
 30
0.0
 40
0.145
 50
90.0
 51
270.0
  0
ARC
  5
FDC6
  8
SUNPO
  6
BYBLOCK
 10
331.0
 20
89.0
 30
0.0
 40
0.145
 50
270.0
 51
90.0
  0
ARC
  5
FDC7
  8
SUNPO
  6
BYBLOCK
 10
331.0
 20
89.0
 30
0.0
 40
0.145
 50
270.0
 51
90.0
  0
ARC
  5
FDC8
  8
SUNPO
  6
BYBLOCK
 10
331.0
 20
89.0
 30
0.0
 40
0.145
 50
90.0
 51
270.0
  0
LINE
  5
FDC9
  8
SUNPO
  6
CONTINUOUS
 10
351.577611
 20
102.5
 30
0.0
 11
351.577611
 21
117.5
 31
0.0
  0
LINE
  5
FDCA
  8
SUNPO
  6
CONTINUOUS
 10
351.577611
 20
102.5
 30
0.0
 11
351.577611
 21
100.0
 31
0.0
  0
ARC
  5
FDCB
  8
SUNPO
  6
BYBLOCK
 10
351.577611
 20
100.0
 30
0.0
 40
0.145
 50
270.0
 51
90.0
  0
ARC
  5
FDCC
  8
SUNPO
  6
BYBLOCK
 10
351.577611
 20
100.0
 30
0.0
 40
0.145
 50
90.0
 51
270.0
  0
ARC
  5
FDCD
  8
SUNPO
  6
BYBLOCK
 10
351.577611
 20
102.5
 30
0.0
 40
0.145
 50
90.0
 51
270.0
  0
ARC
  5
FDCE
  8
SUNPO
  6
BYBLOCK
 10
351.577611
 20
102.5
 30
0.0
 40
0.145
 50
270.0
 51
90.0
  0
ARC
  5
FDCF
  8
SUNPO
  6
BYBLOCK
 10
351.577611
 20
102.5
 30
0.0
 40
0.145
 50
270.0
 51
90.0
  0
ARC
  5
FDD0
  8
SUNPO
  6
BYBLOCK
 10
351.577611
 20
102.5
 30
0.0
 40
0.145
 50
90.0
 51
270.0
  0
TEXT
  5
FDD1
  8
SUNPO
  6
CONTINUOUS
 10
350.577611
 20
108.333333
 30
0.0
 40
2.5
  1
15
 50
90.0
  0
ARC
  5
FDD2
  8
SUNPO
  6
BYBLOCK
 10
351.577611
 20
117.5
 30
0.0
 40
0.145
 50
90.0
 51
270.0
  0
ARC
  5
FDD3
  8
SUNPO
  6
BYBLOCK
 10
351.577611
 20
117.5
 30
0.0
 40
0.145
 50
270.0
 51
90.0
  0
ARC
  5
FDD4
  8
SUNPO
  6
BYBLOCK
 10
351.577611
 20
117.5
 30
0.0
 40
0.145
 50
270.0
 51
90.0
  0
ARC
  5
FDD5
  8
SUNPO
  6
BYBLOCK
 10
351.577611
 20
117.5
 30
0.0
 40
0.145
 50
90.0
 51
270.0
  0
LINE
  5
FDD6
  8
SUNPO
  6
CONTINUOUS
 10
399.0
 20
87.5
 30
0.0
 11
399.0
 21
40.0
 31
0.0
  0
ARC
  5
FDD7
  8
SUNPO
  6
BYBLOCK
 10
399.0
 20
40.0
 30
0.0
 40
0.145
 50
0.0
 51
180.0
  0
ARC
  5
FDD8
  8
SUNPO
  6
BYBLOCK
 10
399.0
 20
40.0
 30
0.0
 40
0.145
 50
180.0
 51
0.0
  0
ARC
  5
FDD9
  8
SUNPO
  6
BYBLOCK
 10
399.0
 20
60.0
 30
0.0
 40
0.145
 50
0.0
 51
180.0
  0
ARC
  5
FDDA
  8
SUNPO
  6
BYBLOCK
 10
399.0
 20
60.0
 30
0.0
 40
0.145
 50
180.0
 51
0.0
  0
TEXT
  5
FDDB
  8
SUNPO
  6
CONTINUOUS
 10
330.0
 20
154.666667
 30
0.0
 40
2.5
  1
7
 50
90.0
  0
TEXT
  5
FDDC
  8
SUNPO
  6
CONTINUOUS
 10
330.0
 20
137.916667
 30
0.0
 40
2.5
  1
24
 50
90.0
  0
TEXT
  5
FDDD
  8
SUNPO
  6
CONTINUOUS
 10
330.0
 20
123.166667
 30
0.0
 40
2.5
  1
8
 50
90.0
  0
LINE
  5
FDDE
  8
SUNPO
  6
CONTINUOUS
 10
315.350012
 20
128.0
 30
0.0
 11
331.0
 21
128.0
 31
0.0
  0
LINE
  5
FDDF
  8
SUNPO
  6
CONTINUOUS
 10
74.0
 20
163.0
 30
0.0
 11
50.0
 21
163.0
 31
0.0
  0
LINE
  5
FDE0
  8
DANMEN
  6
CONTINUOUS
 10
264.5
 20
152.0
 30
0.0
 11
337.5
 21
152.0
 31
0.0
  0
LINE
  5
FDE1
  8
DANMEN
  6
CONTINUOUS
 10
314.0
 20
141.5
 30
0.0
 11
337.5
 21
141.5
 31
0.0
  0
LINE
  5
FDE2
  8
DANMEN
  6
CONTINUOUS
 10
314.0
 20
138.5
 30
0.0
 11
337.5
 21
138.5
 31
0.0
  0
LINE
  5
FDE3
  8
DANMEN
  6
CONTINUOUS
 10
264.5
 20
162.0
 30
0.0
 11
337.5
 21
162.0
 31
0.0
  0
LINE
  5
FDE4
  8
DANMEN
  6
CONTINUOUS
 10
264.5
 20
160.800003
 30
0.0
 11
337.5
 21
160.800003
 31
0.0
  0
LINE
  5
FDE5
  8
DANMEN
  6
CONTINUOUS
 10
264.5
 20
157.800003
 30
0.0
 11
337.5
 21
157.800003
 31
0.0
  0
LINE
  5
FDE6
  8
DANMEN
  6
CONTINUOUS
 10
337.5
 20
120.0
 30
0.0
 11
314.0
 21
120.0
 31
0.0
  0
LINE
  5
FDE7
  8
DANMEN
  6
CONTINUOUS
 10
337.5
 20
125.0
 30
0.0
 11
314.0
 21
125.0
 31
0.0
  0
LINE
  5
FDE8
  8
DANMEN
  6
CONTINUOUS
 10
264.5
 20
128.0
 30
0.0
 11
274.0
 21
128.0
 31
0.0
  0
LINE
  5
FDE9
  8
DANMEN
  6
CONTINUOUS
 10
264.5
 20
125.0
 30
0.0
 11
274.0
 21
125.0
 31
0.0
  0
LINE
  5
FDEA
  8
DANMEN
  6
CONTINUOUS
 10
264.5
 20
132.0
 30
0.0
 11
274.0
 21
132.0
 31
0.0
  0
LINE
  5
FDEB
  8
DANMEN
  6
CONTINUOUS
 10
264.5
 20
148.0
 30
0.0
 11
274.0
 21
148.0
 31
0.0
  0
LINE
  5
FDEC
  8
DANMEN
  6
CONTINUOUS
 10
264.5
 20
149.8
 30
0.0
 11
274.0
 21
149.8
 31
0.0
  0
LINE
  5
FDED
  8
DANMEN
  6
CONTINUOUS
 10
264.5
 20
130.2
 30
0.0
 11
274.0
 21
130.2
 31
0.0
  0
LINE
  5
FDEE
  8
DANMEN
  6
CONTINUOUS
 10
281.000015
 20
142.500009
 30
0.0
 11
264.5
 21
142.500009
 31
0.0
  0
LINE
  5
FDEF
  8
DANMEN
  6
CONTINUOUS
 10
281.000015
 20
137.500021
 30
0.0
 11
264.5
 21
137.500021
 31
0.0
  0
LINE
  5
FDF0
  8
DANMEN
  6
CONTINUOUS
 10
281.000015
 20
142.000009
 30
0.0
 11
264.5
 21
142.000009
 31
0.0
  0
LINE
  5
FDF1
  8
DANMEN
  6
CONTINUOUS
 10
281.000015
 20
138.000021
 30
0.0
 11
264.5
 21
138.000021
 31
0.0
  0
LINE
  5
FDF2
  8
DANMEN
  6
CONTINUOUS
 10
238.399994
 20
162.0
 30
0.0
 11
234.0
 21
162.0
 31
0.0
  0
LINE
  5
FDF3
  8
DANMEN
  6
CONTINUOUS
 10
238.399994
 20
160.800003
 30
0.0
 11
234.0
 21
160.800003
 31
0.0
  0
LINE
  5
FDF4
  8
DANMEN
  6
CONTINUOUS
 10
230.949983
 20
129.949997
 30
0.0
 11
239.899986
 21
129.949997
 31
0.0
  0
LINE
  5
FDF5
  8
DANMEN
  6
CONTINUOUS
 10
230.949983
 20
150.050003
 30
0.0
 11
239.899986
 21
150.050003
 31
0.0
  0
LINE
  5
FDF6
  8
DANMEN
  6
CONTINUOUS
 10
229.538911
 20
128.0
 30
0.0
 11
251.500002
 21
128.0
 31
0.0
  0
LINE
  5
FDF7
  8
DANMEN
  6
CONTINUOUS
 10
229.538906
 20
152.0
 30
0.0
 11
251.500002
 21
152.0
 31
0.0
  0
LINE
  5
FDF8
  8
DANMEN
  6
CONTINUOUS
 10
212.0
 20
125.0
 30
0.0
 11
261.5
 21
125.0
 31
0.0
  0
LINE
  5
FDF9
  8
DANMEN
  6
CONTINUOUS
 10
234.0
 20
157.800003
 30
0.0
 11
261.5
 21
157.800003
 31
0.0
  0
LINE
  5
FDFA
  8
DANMEN
  6
CONTINUOUS
 10
216.461095
 20
128.0
 30
0.0
 11
261.5
 21
128.0
 31
0.0
  0
LINE
  5
FDFB
  8
DANMEN
  6
CONTINUOUS
 10
214.999998
 20
144.5
 30
0.0
 11
214.999998
 21
135.5
 31
0.0
  0
LINE
  5
FDFC
  8
DANMEN
  6
CONTINUOUS
 10
216.949998
 20
146.050003
 30
0.0
 11
216.949998
 21
133.949997
 31
0.0
  0
LINE
  5
FDFD
  8
DANMEN
  6
CONTINUOUS
 10
216.699998
 20
131.999997
 30
0.0
 11
229.300005
 21
131.999997
 31
0.0
  0
LINE
  5
FDFE
  8
DANMEN
  6
CONTINUOUS
 10
216.949998
 20
133.949997
 30
0.0
 11
229.949983
 21
133.949997
 31
0.0
  0
LINE
  5
FDFF
  8
DANMEN
  6
CONTINUOUS
 10
211.134271
 20
129.949997
 30
0.0
 11
203.199998
 21
131.140138
 31
0.0
  0
LINE
  5
FE00
  8
DANMEN
  6
CONTINUOUS
 10
215.599998
 20
129.949997
 30
0.0
 11
215.599998
 21
135.5
 31
0.0
  0
LINE
  5
FE01
  8
DANMEN
  6
CONTINUOUS
 10
216.699998
 20
131.999997
 30
0.0
 11
216.959696
 21
128.537395
 31
0.0
  0
LINE
  5
FE02
  8
DANMEN
  6
CONTINUOUS
 10
211.134271
 20
129.949997
 30
0.0
 11
215.599998
 21
129.949997
 31
0.0
  0
LINE
  5
FE03
  8
DANMEN
  6
CONTINUOUS
 10
210.300003
 20
125.0
 30
0.0
 11
211.5
 21
125.0
 31
0.0
  0
ARC
  5
FE04
  8
DANMEN
  6
CONTINUOUS
 10
205.648588
 20
116.818668
 30
0.0
 40
11.5
 50
59.414823
 51
84.739832
  0
ARC
  5
FE05
  8
DANMEN
  6
CONTINUOUS
 10
205.648588
 20
116.818668
 30
0.0
 40
12.0
 50
58.04287
 51
84.739832
  0
LINE
  5
FE06
  8
DANMEN
  6
CONTINUOUS
 10
209.250004
 20
125.7
 30
0.0
 11
211.500004
 21
125.7
 31
0.0
  0
LINE
  5
FE07
  8
DANMEN
  6
CONTINUOUS
 10
209.650003
 20
125.0
 30
0.0
 11
212.000004
 21
125.0
 31
0.0
  0
LINE
  5
FE08
  8
DANMEN
  6
CONTINUOUS
 10
204.0
 20
124.5
 30
0.0
 11
204.0
 21
122.6
 31
0.0
  0
LINE
  5
FE09
  8
DANMEN
  6
CONTINUOUS
 10
209.800003
 20
124.500017
 30
0.0
 11
209.799998
 21
124.199998
 31
0.0
  0
LINE
  5
FE0A
  8
DANMEN
  6
CONTINUOUS
 10
206.200001
 20
124.499999
 30
0.0
 11
206.200003
 21
124.199996
 31
0.0
  0
LINE
  5
FE0B
  8
DANMEN
  6
CONTINUOUS
 10
209.650003
 20
125.0
 30
0.0
 11
209.650003
 21
124.0
 31
0.0
  0
LINE
  5
FE0C
  8
DANMEN
  6
CONTINUOUS
 10
206.350004
 20
125.0
 30
0.0
 11
206.350004
 21
124.0
 31
0.0
  0
LINE
  5
FE0D
  8
DANMEN
  6
CONTINUOUS
 10
204.8
 20
122.6
 30
0.0
 11
210.999998
 21
122.6
 31
0.0
  0
LINE
  5
FE0E
  8
DANMEN
  6
CONTINUOUS
 10
207.150004
 20
123.8
 30
0.0
 11
206.350004
 21
123.0
 31
0.0
  0
LINE
  5
FE11
  8
DANMEN
  6
CONTINUOUS
 10
204.8
 20
124.199997
 30
0.0
 11
204.8
 21
122.6
 31
0.0
  0
LINE
  5
FE13
  8
DANMEN
  6
CONTINUOUS
 10
204.8
 20
124.199997
 30
0.0
 11
206.199997
 21
124.199997
 31
0.0
  0
ARC
  5
FE16
  8
DANMEN
  6
CONTINUOUS
 10
205.350003
 20
123.8
 30
0.0
 40
0.2
 50
89.999982
 51
180.000019
  0
ARC
  5
FE17
  8
DANMEN
  6
CONTINUOUS
 10
205.350003
 20
123.2
 30
0.0
 40
0.2
 50
180.000019
 51
270.000001
  0
LINE
  5
FE18
  8
DANMEN
  6
CONTINUOUS
 10
205.350003
 20
123.0
 30
0.0
 11
206.350004
 21
123.0
 31
0.0
  0
LINE
  5
FE19
  8
DANMEN
  6
CONTINUOUS
 10
205.150003
 20
123.8
 30
0.0
 11
205.150003
 21
123.2
 31
0.0
  0
LINE
  5
FE1A
  8
DANMEN
  6
CONTINUOUS
 10
205.350003
 20
124.0
 30
0.0
 11
206.350004
 21
124.0
 31
0.0
  0
LINE
  5
FE1C
  8
DANMEN
  6
CONTINUOUS
 10
210.999998
 20
124.199997
 30
0.0
 11
210.999998
 21
122.6
 31
0.0
  0
LINE
  5
FE1D
  8
DANMEN
  6
CONTINUOUS
 10
209.800003
 20
124.199997
 30
0.0
 11
211.0
 21
124.199997
 31
0.0
  0
LINE
  5
FE22
  8
DANMEN
  6
CONTINUOUS
 10
207.150004
 20
123.8
 30
0.0
 11
208.850003
 21
123.8
 31
0.0
  0
LINE
  5
FE23
  8
DANMEN
  6
CONTINUOUS
 10
209.650003
 20
124.0
 30
0.0
 11
210.650004
 21
124.0
 31
0.0
  0
ARC
  5
FE24
  8
DANMEN
  6
CONTINUOUS
 10
210.650004
 20
123.2
 30
0.0
 40
0.2
 50
270.000018
 51
0.0
  0
ARC
  5
FE25
  8
DANMEN
  6
CONTINUOUS
 10
210.650004
 20
123.8
 30
0.0
 40
0.2
 50
0.0
 51
89.999982
  0
LINE
  5
FE26
  8
DANMEN
  6
CONTINUOUS
 10
209.650003
 20
123.0
 30
0.0
 11
210.650004
 21
123.0
 31
0.0
  0
LINE
  5
FE27
  8
DANMEN
  6
CONTINUOUS
 10
208.850003
 20
123.8
 30
0.0
 11
209.650003
 21
123.0
 31
0.0
  0
LINE
  5
FE28
  8
DANMEN
  6
CONTINUOUS
 10
210.850004
 20
123.8
 30
0.0
 11
210.850004
 21
123.2
 31
0.0
  0
LINE
  5
FE29
  8
DANMEN
  6
CONTINUOUS
 10
207.735478
 20
127.74687
 30
0.0
 11
206.850004
 21
126.699999
 31
0.0
  0
LINE
  5
FE2A
  8
DANMEN
  6
CONTINUOUS
 10
204.5
 20
125.0
 30
0.0
 11
205.699997
 21
125.0
 31
0.0
  0
ARC
  5
FE2B
  8
DANMEN
  6
CONTINUOUS
 10
204.5
 20
124.5
 30
0.0
 40
0.5
 50
90.000037
 51
180.000019
  0
ARC
  5
FE2C
  8
DANMEN
  6
CONTINUOUS
 10
205.699997
 20
124.5
 30
0.0
 40
0.5
 50
359.999981
 51
90.000037
  0
LINE
  5
FE31
  8
DANMEN
  6
CONTINUOUS
 10
206.850004
 20
126.699999
 30
0.0
 11
206.850004
 21
125.7
 31
0.0
  0
LINE
  5
FE32
  8
DANMEN
  6
CONTINUOUS
 10
204.122478
 20
125.7
 30
0.0
 11
206.850004
 21
125.7
 31
0.0
  0
ARC
  5
FE33
  8
DANMEN
  6
CONTINUOUS
 10
206.725814
 20
128.519184
 30
0.0
 40
0.25
 50
84.739832
 51
264.739796
  0
LINE
  5
FE34
  8
DANMEN
  6
CONTINUOUS
 10
203.682602
 20
125.0
 30
0.0
 11
206.350004
 21
125.0
 31
0.0
  0
ARC
  5
FE36
  8
DANMEN
  6
CONTINUOUS
 10
210.300003
 20
124.5
 30
0.0
 40
0.5
 50
90.0
 51
179.999149
  0
ARC
  5
FE39
  8
DANMEN
  6
CONTINUOUS
 10
209.250004
 20
125.3
 30
0.0
 40
0.4
 50
89.999982
 51
180.000019
  0
LINE
  5
FE3A
  8
DANMEN
  6
CONTINUOUS
 10
207.964531
 20
127.553131
 30
0.0
 11
207.150004
 21
126.590139
 31
0.0
  0
ARC
  5
FE3B
  8
DANMEN
  6
CONTINUOUS
 10
207.850004
 20
127.650001
 30
0.0
 40
0.15
 50
319.774489
 51
139.774466
  0
LINE
  5
FE3C
  8
DANMEN
  6
CONTINUOUS
 10
207.150004
 20
125.0
 30
0.0
 11
208.850003
 21
125.0
 31
0.0
  0
LINE
  5
FE3D
  8
DANMEN
  6
CONTINUOUS
 10
207.150004
 20
126.590138
 30
0.0
 11
207.150004
 21
125.0
 31
0.0
  0
LINE
  5
FE3E
  8
DANMEN
  6
CONTINUOUS
 10
208.850003
 20
125.3
 30
0.0
 11
208.850003
 21
125.0
 31
0.0
  0
LINE
  5
FE3F
  8
DANMEN
  6
CONTINUOUS
 10
212.0
 20
124.5
 30
0.0
 11
212.0
 21
122.0
 31
0.0
  0
LINE
  5
FE40
  8
DANMEN
  6
CONTINUOUS
 10
212.0
 20
121.5
 30
0.0
 11
212.0
 21
125.0
 31
0.0
  0
ARC
  5
FE41
  8
DANMEN
  6
CONTINUOUS
 10
211.5
 20
122.0
 30
0.0
 40
0.5
 50
270.000018
 51
0.0
  0
LINE
  5
FE43
  8
DANMEN
  6
CONTINUOUS
 10
212.037293
 20
128.0
 30
0.0
 11
216.461092
 21
128.0
 31
0.0
  0
ARC
  5
FE45
  8
DANMEN
  6
CONTINUOUS
 10
212.037293
 20
128.5
 30
0.0
 40
0.5
 50
261.469234
 51
270.0
  0
ARC
  5
FE47
  8
DANMEN
  6
CONTINUOUS
 10
211.5
 20
124.5
 30
0.0
 40
0.5
 50
359.999981
 51
90.000037
  0
LINE
  5
FE4B
  8
DANMEN
  6
CONTINUOUS
 10
211.500004
 20
126.718715
 30
0.0
 11
211.500004
 21
125.7
 31
0.0
  0
LINE
  5
FE4C
  8
DANMEN
  6
CONTINUOUS
 10
212.000004
 20
127.0
 30
0.0
 11
212.000004
 21
125.0
 31
0.0
  0
ARC
  5
FE4F
  8
DANMEN
  6
CONTINUOUS
 10
216.461097
 20
128.5
 30
0.0
 40
0.5
 50
270.0
 51
4.2892
  0
LINE
  5
FE54
  8
DANMEN
  6
CONTINUOUS
 10
203.199998
 20
132.5
 30
0.0
 11
203.199998
 21
131.140138
 31
0.0
  0
LINE
  5
FE55
  8
DANMEN
  6
CONTINUOUS
 10
209.164402
 20
138.360739
 30
0.0
 11
204.081604
 21
137.513606
 31
0.0
  0
LINE
  5
FE56
  8
DANMEN
  6
CONTINUOUS
 10
208.050996
 20
140.0
 30
0.0
 11
203.850995
 21
139.3
 31
0.0
  0
ARC
  5
FE59
  8
DANMEN
  6
CONTINUOUS
 10
203.917205
 20
138.5
 30
0.0
 40
1.0
 50
270.000018
 51
279.462343
  0
LINE
  5
FE5B
  8
DANMEN
  6
CONTINUOUS
 10
210.0
 20
139.5
 30
0.0
 11
210.0
 21
139.347137
 31
0.0
  0
LINE
  5
FE5C
  8
DANMEN
  6
CONTINUOUS
 10
208.050996
 20
140.0
 30
0.0
 11
209.5
 21
140.0
 31
0.0
  0
ARC
  5
FE5F
  8
DANMEN
  6
CONTINUOUS
 10
209.0
 20
139.347137
 30
0.0
 40
1.0
 50
279.462343
 51
0.000285
  0
ARC
  5
FE61
  8
DANMEN
  6
CONTINUOUS
 10
209.5
 20
139.5
 30
0.0
 40
0.5
 50
0.0
 51
89.999982
  0
LINE
  5
FE63
  8
DANMEN
  6
CONTINUOUS
 10
214.999999
 20
135.5
 30
0.0
 11
215.599998
 21
135.5
 31
0.0
  0
LINE
  5
FE69
  8
DANMEN
  6
CONTINUOUS
 10
229.040307
 20
128.537395
 30
0.0
 11
229.300005
 21
131.999997
 31
0.0
  0
LINE
  5
FE6A
  8
DANMEN
  6
CONTINUOUS
 10
230.949983
 20
132.949997
 30
0.0
 11
230.949983
 21
129.949997
 31
0.0
  0
ARC
  5
FE6C
  8
DANMEN
  6
CONTINUOUS
 10
229.538906
 20
128.5
 30
0.0
 40
0.5
 50
175.7108
 51
270.0
  0
ARC
  5
FE71
  8
DANMEN
  6
CONTINUOUS
 10
229.949983
 20
132.949997
 30
0.0
 40
1.0
 50
0.0
 51
89.999982
  0
LINE
  5
FE73
  8
DANMEN
  6
CONTINUOUS
 10
216.949998
 20
146.050003
 30
0.0
 11
229.949983
 21
146.050003
 31
0.0
  0
LINE
  5
FE74
  8
DANMEN
  6
CONTINUOUS
 10
216.699998
 20
148.0
 30
0.0
 11
229.300005
 21
148.0
 31
0.0
  0
LINE
  5
FE75
  8
DANMEN
  6
CONTINUOUS
 10
214.0
 20
159.0
 30
0.0
 11
234.0
 21
159.0
 31
0.0
  0
LINE
  5
FE76
  8
DANMEN
  6
CONTINUOUS
 10
211.134251
 20
150.05
 30
0.0
 11
215.599998
 21
150.05
 31
0.0
  0
LINE
  5
FE77
  8
DANMEN
  6
CONTINUOUS
 10
203.199998
 20
147.5
 30
0.0
 11
203.199998
 21
148.859862
 31
0.0
  0
LINE
  5
FE79
  8
DANMEN
  6
CONTINUOUS
 10
211.134251
 20
150.05
 30
0.0
 11
203.199998
 21
148.859862
 31
0.0
  0
LINE
  5
FE7C
  8
DANMEN
  6
CONTINUOUS
 10
215.599998
 20
144.5
 30
0.0
 11
215.599998
 21
150.050003
 31
0.0
  0
LINE
  5
FE7D
  8
DANMEN
  6
CONTINUOUS
 10
214.999999
 20
144.5
 30
0.0
 11
215.599998
 21
144.5
 31
0.0
  0
LINE
  5
FE81
  8
DANMEN
  6
CONTINUOUS
 10
212.037293
 20
152.0
 30
0.0
 11
216.461092
 21
152.0
 31
0.0
  0
ARC
  5
FE83
  8
DANMEN
  6
CONTINUOUS
 10
212.037293
 20
151.5
 30
0.0
 40
0.5
 50
90.0
 51
98.530766
  0
ARC
  5
FE87
  8
DANMEN
  6
CONTINUOUS
 10
216.461097
 20
151.5
 30
0.0
 40
0.5
 50
355.710803
 51
90.0
  0
LINE
  5
FE88
  8
DANMEN
  6
CONTINUOUS
 10
216.959696
 20
151.462605
 30
0.0
 11
216.699998
 21
148.0
 31
0.0
  0
LINE
  5
FE8C
  8
DANMEN
  6
CONTINUOUS
 10
214.0
 20
158.5
 30
0.0
 11
214.0
 21
157.850006
 31
0.0
  0
ARC
  5
FE8D
  8
DANMEN
  6
CONTINUOUS
 10
213.5
 20
157.850006
 30
0.0
 40
0.5
 50
270.000018
 51
359.999981
  0
ARC
  5
FE8E
  8
DANMEN
  6
CONTINUOUS
 10
213.5
 20
158.5
 30
0.0
 40
0.5
 50
359.999981
 51
89.999982
  0
LINE
  5
FE92
  8
DANMEN
  6
CONTINUOUS
 10
230.949983
 20
150.050003
 30
0.0
 11
230.949983
 21
147.050003
 31
0.0
  0
ARC
  5
FE93
  8
DANMEN
  6
CONTINUOUS
 10
229.949983
 20
147.050003
 30
0.0
 40
1.0
 50
270.000018
 51
0.0
  0
ARC
  5
FE96
  8
DANMEN
  6
CONTINUOUS
 10
229.538906
 20
151.5
 30
0.0
 40
0.5
 50
90.0
 51
184.289197
  0
LINE
  5
FE97
  8
DANMEN
  6
CONTINUOUS
 10
229.300005
 20
148.0
 30
0.0
 11
229.040307
 21
151.462605
 31
0.0
  0
LINE
  5
FE9C
  8
DANMEN
  6
CONTINUOUS
 10
234.0
 20
162.0
 30
0.0
 11
234.0
 21
157.800003
 31
0.0
  0
LINE
  5
FE9E
  8
DANMEN
  6
CONTINUOUS
 10
239.049989
 20
144.0
 30
0.0
 11
239.049989
 21
136.0
 31
0.0
  0
LINE
  5
FE9F
  8
DANMEN
  6
CONTINUOUS
 10
240.999986
 20
150.050003
 30
0.0
 11
240.999986
 21
129.949997
 31
0.0
  0
LINE
  5
FEA0
  8
DANMEN
  6
CONTINUOUS
 10
244.999985
 20
137.499991
 30
0.0
 11
244.999985
 21
142.499994
 31
0.0
  0
LINE
  5
FEA1
  8
DANMEN
  6
CONTINUOUS
 10
245.0
 20
137.499991
 30
0.0
 11
261.5
 21
137.499991
 31
0.0
  0
LINE
  5
FEA2
  8
DANMEN
  6
CONTINUOUS
 10
245.0
 20
137.999991
 30
0.0
 11
261.5
 21
137.999991
 31
0.0
  0
LINE
  5
FEA3
  8
DANMEN
  6
CONTINUOUS
 10
252.0
 20
130.2
 30
0.0
 11
261.5
 21
130.2
 31
0.0
  0
LINE
  5
FEA4
  8
DANMEN
  6
CONTINUOUS
 10
252.0
 20
132.000015
 30
0.0
 11
261.5
 21
132.000015
 31
0.0
  0
LINE
  5
FEA5
  8
DANMEN
  6
CONTINUOUS
 10
250.900002
 20
129.949997
 30
0.0
 11
250.900002
 21
132.2
 31
0.0
  0
LINE
  5
FEA6
  8
DANMEN
  6
CONTINUOUS
 10
239.899986
 20
136.0
 30
0.0
 11
239.899986
 21
129.949997
 31
0.0
  0
LINE
  5
FEA7
  8
DANMEN
  6
CONTINUOUS
 10
252.000002
 20
128.5
 30
0.0
 11
252.000002
 21
132.5
 31
0.0
  0
LINE
  5
FEA8
  8
DANMEN
  6
CONTINUOUS
 10
240.999986
 20
129.949997
 30
0.0
 11
250.900002
 21
129.949997
 31
0.0
  0
ARC
  5
FEAB
  8
DANMEN
  6
CONTINUOUS
 10
251.500002
 20
128.5
 30
0.0
 40
0.5
 50
270.000018
 51
0.0
  0
LINE
  5
FEAE
  8
DANMEN
  6
CONTINUOUS
 10
239.049989
 20
136.0
 30
0.0
 11
239.899986
 21
136.0
 31
0.0
  0
LINE
  5
FEB2
  8
DANMEN
  6
CONTINUOUS
 10
249.000002
 20
132.850131
 30
0.0
 11
249.000002
 21
133.0
 31
0.0
  0
LINE
  5
FEB7
  8
DANMEN
  6
CONTINUOUS
 10
250.900002
 20
132.2
 30
0.0
 11
249.447659
 21
132.352878
 31
0.0
  0
ARC
  5
FEB9
  8
DANMEN
  6
CONTINUOUS
 10
249.500002
 20
132.850131
 30
0.0
 40
0.5
 50
180.0
 51
263.990994
  0
LINE
  5
FEBB
  8
DANMEN
  6
CONTINUOUS
 10
249.000002
 20
133.0
 30
0.0
 11
251.500002
 21
133.0
 31
0.0
  0
ARC
  5
FEBC
  8
DANMEN
  6
CONTINUOUS
 10
251.500002
 20
132.5
 30
0.0
 40
0.5
 50
0.0
 51
89.999982
  0
LINE
  5
FEC0
  8
DANMEN
  6
CONTINUOUS
 10
254.499833
 20
133.499971
 30
0.0
 11
254.499862
 21
135.999977
 31
0.0
  0
ARC
  5
FEC1
  8
DANMEN
  6
CONTINUOUS
 10
252.999833
 20
133.499988
 30
0.0
 40
1.5
 50
269.999297
 51
359.999334
  0
ARC
  5
FEC2
  8
DANMEN
  6
CONTINUOUS
 10
255.999862
 20
135.99996
 30
0.0
 40
1.5
 50
89.999333
 51
179.999315
  0
LINE
  5
FEC3
  8
DANMEN
  6
CONTINUOUS
 10
238.399994
 20
162.0
 30
0.0
 11
261.5
 21
162.0
 31
0.0
  0
LINE
  5
FEC4
  8
DANMEN
  6
CONTINUOUS
 10
238.399994
 20
160.800003
 30
0.0
 11
261.5
 21
160.800003
 31
0.0
  0
LINE
  5
FEC5
  8
DANMEN
  6
CONTINUOUS
 10
244.999985
 20
142.499979
 30
0.0
 11
261.5
 21
142.499979
 31
0.0
  0
LINE
  5
FEC6
  8
DANMEN
  6
CONTINUOUS
 10
244.999985
 20
141.999979
 30
0.0
 11
261.5
 21
141.999979
 31
0.0
  0
LINE
  5
FEC7
  8
DANMEN
  6
CONTINUOUS
 10
252.0
 20
148.0
 30
0.0
 11
261.5
 21
148.0
 31
0.0
  0
LINE
  5
FEC8
  8
DANMEN
  6
CONTINUOUS
 10
252.0
 20
149.8
 30
0.0
 11
261.5
 21
149.8
 31
0.0
  0
LINE
  5
FEC9
  8
DANMEN
  6
CONTINUOUS
 10
240.999986
 20
150.050003
 30
0.0
 11
250.900002
 21
150.050003
 31
0.0
  0
LINE
  5
FECA
  8
DANMEN
  6
CONTINUOUS
 10
239.899986
 20
150.050003
 30
0.0
 11
239.899986
 21
144.0
 31
0.0
  0
LINE
  5
FECB
  8
DANMEN
  6
CONTINUOUS
 10
239.049989
 20
144.0
 30
0.0
 11
239.899986
 21
144.0
 31
0.0
  0
ARC
  5
FECF
  8
DANMEN
  6
CONTINUOUS
 10
249.500002
 20
147.149869
 30
0.0
 40
0.5
 50
96.009006
 51
180.0
  0
LINE
  5
FED0
  8
DANMEN
  6
CONTINUOUS
 10
252.000002
 20
151.5
 30
0.0
 11
252.000002
 21
147.5
 31
0.0
  0
LINE
  5
FED1
  8
DANMEN
  6
CONTINUOUS
 10
252.000002
 20
151.5
 30
0.0
 11
252.000002
 21
147.5
 31
0.0
  0
ARC
  5
FED3
  8
DANMEN
  6
CONTINUOUS
 10
251.500002
 20
147.5
 30
0.0
 40
0.5
 50
270.000018
 51
0.0
  0
LINE
  5
FED6
  8
DANMEN
  6
CONTINUOUS
 10
249.000002
 20
147.149869
 30
0.0
 11
249.000002
 21
147.0
 31
0.0
  0
LINE
  5
FED7
  8
DANMEN
  6
CONTINUOUS
 10
249.000002
 20
147.0
 30
0.0
 11
251.500002
 21
147.0
 31
0.0
  0
LINE
  5
FEDB
  8
DANMEN
  6
CONTINUOUS
 10
250.900002
 20
147.8
 30
0.0
 11
249.447659
 21
147.647122
 31
0.0
  0
LINE
  5
FEDD
  8
DANMEN
  6
CONTINUOUS
 10
250.900002
 20
150.050003
 30
0.0
 11
250.900002
 21
147.8
 31
0.0
  0
ARC
  5
FEE0
  8
DANMEN
  6
CONTINUOUS
 10
251.500002
 20
151.5
 30
0.0
 40
0.5
 50
0.0
 51
89.999982
  0
ARC
  5
FEE2
  8
DANMEN
  6
CONTINUOUS
 10
238.399994
 20
161.399994
 30
0.0
 40
0.6
 50
270.000018
 51
90.000037
  0
ARC
  5
FEE7
  8
DANMEN
  6
CONTINUOUS
 10
252.999984
 20
146.499988
 30
0.0
 40
1.5
 50
359.999351
 51
89.999333
  0
LINE
  5
FEE8
  8
DANMEN
  6
CONTINUOUS
 10
254.499955
 20
143.99998
 30
0.0
 11
254.499984
 21
146.499971
 31
0.0
  0
ARC
  5
FEE9
  8
DANMEN
  6
CONTINUOUS
 10
255.999955
 20
143.999963
 30
0.0
 40
1.5
 50
179.999315
 51
269.999297
  0
LINE
  5
FEEA
  8
DANMEN
  6
CONTINUOUS
 10
300.949997
 20
129.500003
 30
0.0
 11
308.5
 21
129.500003
 31
0.0
  0
LINE
  5
FEEB
  8
DANMEN
  6
CONTINUOUS
 10
300.949997
 20
150.500003
 30
0.0
 11
308.5
 21
150.500003
 31
0.0
  0
LINE
  5
FEEC
  8
DANMEN
  6
CONTINUOUS
 10
274.5
 20
128.0
 30
0.0
 11
302.5
 21
128.0
 31
0.0
  0
LINE
  5
FEED
  8
DANMEN
  6
CONTINUOUS
 10
274.5
 20
152.0
 30
0.0
 11
313.0
 21
152.0
 31
0.0
  0
LINE
  5
FEEE
  8
DANMEN
  6
CONTINUOUS
 10
299.0
 20
124.0
 30
0.0
 11
302.5
 21
124.0
 31
0.0
  0
LINE
  5
FEEF
  8
DANMEN
  6
CONTINUOUS
 10
292.8
 20
122.5
 30
0.0
 11
303.0
 21
122.5
 31
0.0
  0
LINE
  5
FEF0
  8
DANMEN
  6
CONTINUOUS
 10
313.499996
 20
120.0
 30
0.0
 11
297.0
 21
120.0
 31
0.0
  0
LINE
  5
FEF1
  8
DANMEN
  6
CONTINUOUS
 10
302.5
 20
125.0
 30
0.0
 11
298.47361
 21
125.0
 31
0.0
  0
LINE
  5
FEF2
  8
DANMEN
  6
CONTINUOUS
 10
290.95
 20
150.500003
 30
0.0
 11
290.95
 21
129.500003
 31
0.0
  0
LINE
  5
FEF3
  8
DANMEN
  6
CONTINUOUS
 10
289.0
 20
150.050003
 30
0.0
 11
289.0
 21
129.949997
 31
0.0
  0
LINE
  5
FEF4
  8
DANMEN
  6
CONTINUOUS
 10
281.000015
 20
142.500009
 30
0.0
 11
281.000015
 21
137.500006
 31
0.0
  0
LINE
  5
FEF5
  8
DANMEN
  6
CONTINUOUS
 10
277.0
 20
129.949997
 30
0.0
 11
289.0
 21
129.949997
 31
0.0
  0
LINE
  5
FEF6
  8
DANMEN
  6
CONTINUOUS
 10
287.050003
 20
120.0
 30
0.0
 11
280.75
 21
120.0
 31
0.0
  0
LINE
  5
FEF7
  8
DANMEN
  6
CONTINUOUS
 10
274.0
 20
132.5
 30
0.0
 11
274.0
 21
128.5
 31
0.0
  0
LINE
  5
FEF8
  8
DANMEN
  6
CONTINUOUS
 10
275.1
 20
132.2
 30
0.0
 11
275.1
 21
129.1
 31
0.0
  0
LINE
  5
FEF9
  8
DANMEN
  6
CONTINUOUS
 10
276.9
 20
122.0
 30
0.0
 11
276.4
 21
121.5
 31
0.0
  0
LINE
  5
FEFA
  8
DANMEN
  6
CONTINUOUS
 10
275.8
 20
124.2
 30
0.0
 11
277.2
 21
124.2
 31
0.0
  0
LINE
  5
FEFB
  8
DANMEN
  6
CONTINUOUS
 10
275.1
 20
129.1
 30
0.0
 11
277.0
 21
129.1
 31
0.0
  0
LINE
  5
FEFC
  8
DANMEN
  6
CONTINUOUS
 10
279.75
 20
120.0
 30
0.0
 11
275.2
 21
120.0
 31
0.0
  0
LINE
  5
FEFD
  8
DANMEN
  6
CONTINUOUS
 10
277.220638
 20
125.0
 30
0.0
 11
275.2
 21
125.0
 31
0.0
  0
LINE
  5
FEFE
  8
DANMEN
  6
CONTINUOUS
 10
275.2
 20
123.5
 30
0.0
 11
275.2
 21
124.5
 31
0.0
  0
ARC
  5
FF00
  8
DANMEN
  6
CONTINUOUS
 10
275.8
 20
123.8
 30
0.0
 40
0.4
 50
90.0
 51
180.0
  0
LINE
  5
FF03
  8
DANMEN
  6
CONTINUOUS
 10
276.4
 20
121.5
 30
0.0
 11
275.4
 21
121.5
 31
0.0
  0
LINE
  5
FF06
  8
DANMEN
  6
CONTINUOUS
 10
275.4
 20
123.5
 30
0.0
 11
275.4
 21
123.8
 31
0.0
  0
LINE
  5
FF0B
  8
DANMEN
  6
CONTINUOUS
 10
275.4
 20
123.5
 30
0.0
 11
276.4
 21
123.5
 31
0.0
  0
ARC
  5
FF0C
  8
DANMEN
  6
CONTINUOUS
 10
275.599999
 20
122.3
 30
0.0
 40
0.2
 50
89.999982
 51
180.000019
  0
LINE
  5
FF0D
  8
DANMEN
  6
CONTINUOUS
 10
275.4
 20
122.3
 30
0.0
 11
275.4
 21
121.5
 31
0.0
  0
LINE
  5
FF0E
  8
DANMEN
  6
CONTINUOUS
 10
275.599999
 20
122.5
 30
0.0
 11
276.4
 21
122.5
 31
0.0
  0
LINE
  5
FF0F
  8
DANMEN
  6
CONTINUOUS
 10
276.4
 20
123.5
 30
0.0
 11
276.4
 21
122.5
 31
0.0
  0
LINE
  5
FF11
  8
DANMEN
  6
CONTINUOUS
 10
275.2
 20
120.0
 30
0.0
 11
275.2
 21
122.699997
 31
0.0
  0
ARC
  5
FF12
  8
DANMEN
  6
CONTINUOUS
 10
275.75
 20
123.0
 30
0.0
 40
0.5
 50
360.0
 51
89.999982
  0
LINE
  5
FF13
  8
DANMEN
  6
CONTINUOUS
 10
275.75
 20
123.5
 30
0.0
 11
275.2
 21
123.5
 31
0.0
  0
LINE
  5
FF14
  8
DANMEN
  6
CONTINUOUS
 10
276.25
 20
122.699997
 30
0.0
 11
275.2
 21
122.699997
 31
0.0
  0
LINE
  5
FF15
  8
DANMEN
  6
CONTINUOUS
 10
276.25
 20
122.699997
 30
0.0
 11
276.25
 21
123.0
 31
0.0
  0
ARC
  5
FF17
  8
DANMEN
  6
CONTINUOUS
 10
274.5
 20
128.5
 30
0.0
 40
0.5
 50
180.000019
 51
270.000001
  0
ARC
  5
FF1A
  8
DANMEN
  6
CONTINUOUS
 10
274.7
 20
124.5
 30
0.0
 40
0.5
 50
0.0
 51
90.0
  0
ARC
  5
FF1B
  8
DANMEN
  6
CONTINUOUS
 10
274.5
 20
124.5
 30
0.0
 40
0.5
 50
90.0
 51
180.0
  0
LINE
  5
FF1C
  8
DANMEN
  6
CONTINUOUS
 10
274.5
 20
125.0
 30
0.0
 11
274.7
 21
125.0
 31
0.0
  0
LINE
  5
FF1D
  8
DANMEN
  6
CONTINUOUS
 10
277.3
 20
128.076394
 30
0.0
 11
277.2
 21
124.2
 31
0.0
  0
LINE
  5
FF1E
  8
DANMEN
  6
CONTINUOUS
 10
277.8
 20
124.2
 30
0.0
 11
277.7
 21
128.076394
 31
0.0
  0
LINE
  5
FF1F
  8
DANMEN
  6
CONTINUOUS
 10
280.250001
 20
128.217157
 30
0.0
 11
280.050001
 21
124.2
 31
0.0
  0
LINE
  5
FF20
  8
DANMEN
  6
CONTINUOUS
 10
280.650001
 20
128.5
 30
0.0
 11
280.650001
 21
123.5
 31
0.0
  0
LINE
  5
FF29
  8
DANMEN
  6
CONTINUOUS
 10
278.6
 20
123.5
 30
0.0
 11
280.65
 21
123.5
 31
0.0
  0
LINE
  5
FF2A
  8
DANMEN
  6
CONTINUOUS
 10
278.6
 20
121.5
 30
0.0
 11
278.1
 21
122.0
 31
0.0
  0
LINE
  5
FF2F
  8
DANMEN
  6
CONTINUOUS
 10
276.9
 20
122.0
 30
0.0
 11
278.1
 21
122.0
 31
0.0
  0
LINE
  5
FF30
  8
DANMEN
  6
CONTINUOUS
 10
279.6
 20
121.5
 30
0.0
 11
278.6
 21
121.5
 31
0.0
  0
LINE
  5
FF31
  8
DANMEN
  6
CONTINUOUS
 10
277.8
 20
124.2
 30
0.0
 11
280.050001
 21
124.2
 31
0.0
  0
ARC
  5
FF38
  8
DANMEN
  6
CONTINUOUS
 10
279.400001
 20
122.3
 30
0.0
 40
0.2
 50
359.999981
 51
90.000037
  0
LINE
  5
FF39
  8
DANMEN
  6
CONTINUOUS
 10
279.6
 20
122.3
 30
0.0
 11
279.6
 21
121.5
 31
0.0
  0
LINE
  5
FF3A
  8
DANMEN
  6
CONTINUOUS
 10
279.400001
 20
122.5
 30
0.0
 11
278.6
 21
122.5
 31
0.0
  0
LINE
  5
FF3B
  8
DANMEN
  6
CONTINUOUS
 10
278.6
 20
123.5
 30
0.0
 11
278.6
 21
122.5
 31
0.0
  0
ARC
  5
FF3C
  8
DANMEN
  6
CONTINUOUS
 10
280.25
 20
123.0
 30
0.0
 40
0.5
 50
360.0
 51
89.999982
  0
ARC
  5
FF3D
  8
DANMEN
  6
CONTINUOUS
 10
279.25
 20
123.0
 30
0.0
 40
0.5
 50
89.999982
 51
180.000019
  0
LINE
  5
FF3E
  8
DANMEN
  6
CONTINUOUS
 10
279.75
 20
120.0
 30
0.0
 11
279.75
 21
122.699997
 31
0.0
  0
LINE
  5
FF3F
  8
DANMEN
  6
CONTINUOUS
 10
279.75
 20
122.699997
 30
0.0
 11
278.75
 21
122.699997
 31
0.0
  0
LINE
  5
FF40
  8
DANMEN
  6
CONTINUOUS
 10
278.75
 20
122.699997
 30
0.0
 11
278.75
 21
123.0
 31
0.0
  0
LINE
  5
FF41
  8
DANMEN
  6
CONTINUOUS
 10
280.75
 20
120.0
 30
0.0
 11
280.75
 21
123.0
 31
0.0
  0
LINE
  5
FF42
  8
DANMEN
  6
CONTINUOUS
 10
280.25
 20
123.5
 30
0.0
 11
279.25
 21
123.5
 31
0.0
  0
ARC
  5
FF4F
  8
DANMEN
  6
CONTINUOUS
 10
280.35
 20
128.5
 30
0.0
 40
0.3
 50
0.0
 51
250.528876
  0
ARC
  5
FF53
  8
DANMEN
  6
CONTINUOUS
 10
277.5
 20
128.3
 30
0.0
 40
0.3
 50
311.810315
 51
228.189685
  0
LINE
  5
FF54
  8
DANMEN
  6
CONTINUOUS
 10
277.0
 20
129.949997
 30
0.0
 11
277.0
 21
129.1
 31
0.0
  0
LINE
  5
FF57
  8
DANMEN
  6
CONTINUOUS
 10
280.08983
 20
125.0
 30
0.0
 11
277.779362
 21
125.0
 31
0.0
  0
LINE
  5
FF58
  8
DANMEN
  6
CONTINUOUS
 10
274.5
 20
133.0
 30
0.0
 11
277.0
 21
133.0
 31
0.0
  0
ARC
  5
FF59
  8
DANMEN
  6
CONTINUOUS
 10
276.5
 20
132.850131
 30
0.0
 40
0.5
 50
276.009006
 51
0.0
  0
LINE
  5
FF5A
  8
DANMEN
  6
CONTINUOUS
 10
271.5
 20
135.999991
 30
0.0
 11
271.5
 21
133.5
 31
0.0
  0
ARC
  5
FF5B
  8
DANMEN
  6
CONTINUOUS
 10
273.0
 20
133.5
 30
0.0
 40
1.5
 50
180.000018
 51
270.0
  0
ARC
  5
FF5E
  8
DANMEN
  6
CONTINUOUS
 10
274.5
 20
132.5
 30
0.0
 40
0.5
 50
89.999982
 51
180.000019
  0
LINE
  5
FF60
  8
DANMEN
  6
CONTINUOUS
 10
275.1
 20
132.2
 30
0.0
 11
276.552342
 21
132.352878
 31
0.0
  0
ARC
  5
FF63
  8
DANMEN
  6
CONTINUOUS
 10
270.0
 20
135.999991
 30
0.0
 40
1.5
 50
359.999982
 51
89.999964
  0
LINE
  5
FF67
  8
DANMEN
  6
CONTINUOUS
 10
277.0
 20
132.850131
 30
0.0
 11
277.0
 21
133.0
 31
0.0
  0
LINE
  5
FF6C
  8
DANMEN
  6
CONTINUOUS
 10
299.949997
 20
131.5
 30
0.0
 11
299.949997
 21
129.500003
 31
0.0
  0
LINE
  5
FF6D
  8
DANMEN
  6
CONTINUOUS
 10
300.949997
 20
132.0
 30
0.0
 11
300.949997
 21
129.500003
 31
0.0
  0
LINE
  5
FF6E
  8
DANMEN
  6
CONTINUOUS
 10
290.95
 20
129.500003
 30
0.0
 11
293.5
 21
129.500003
 31
0.0
  0
LINE
  5
FF6F
  8
DANMEN
  6
CONTINUOUS
 10
298.5
 20
124.8
 30
0.0
 11
292.714855
 21
123.087664
 31
0.0
  0
LINE
  5
FF70
  8
DANMEN
  6
CONTINUOUS
 10
288.550003
 20
120.0
 30
0.0
 11
297.0
 21
120.0
 31
0.0
  0
LINE
  5
FF71
  8
DANMEN
  6
CONTINUOUS
 10
292.550003
 20
123.2
 30
0.0
 11
298.335148
 21
124.912336
 31
0.0
  0
LINE
  5
FF72
  8
DANMEN
  6
CONTINUOUS
 10
298.250003
 20
125.5
 30
0.0
 11
288.05
 21
125.5
 31
0.0
  0
LINE
  5
FF73
  8
DANMEN
  6
CONTINUOUS
 10
287.050003
 20
120.0
 30
0.0
 11
287.050003
 21
124.5
 31
0.0
  0
LINE
  5
FF74
  8
DANMEN
  6
CONTINUOUS
 10
292.050003
 20
124.0
 30
0.0
 11
288.55
 21
124.0
 31
0.0
  0
LINE
  5
FF75
  8
DANMEN
  6
CONTINUOUS
 10
288.55
 20
120.0
 30
0.0
 11
288.55
 21
124.0
 31
0.0
  0
ARC
  5
FF76
  8
DANMEN
  6
CONTINUOUS
 10
292.8
 20
122.8
 30
0.0
 40
0.3
 50
106.488148
 51
270.0
  0
LINE
  5
FF79
  8
DANMEN
  6
CONTINUOUS
 10
292.550003
 20
123.2
 30
0.0
 11
292.050003
 21
123.2
 31
0.0
  0
LINE
  5
FF7A
  8
DANMEN
  6
CONTINUOUS
 10
292.050003
 20
124.0
 30
0.0
 11
292.050003
 21
123.2
 31
0.0
  0
ARC
  5
FF7C
  8
DANMEN
  6
CONTINUOUS
 10
288.05
 20
124.5
 30
0.0
 40
1.0
 50
89.999982
 51
180.000019
  0
LINE
  5
FF7E
  8
DANMEN
  6
CONTINUOUS
 10
299.0
 20
124.0
 30
0.0
 11
299.0
 21
124.8
 31
0.0
  0
LINE
  5
FF81
  8
DANMEN
  6
CONTINUOUS
 10
294.5
 20
129.500003
 30
0.0
 11
299.949997
 21
129.500003
 31
0.0
  0
LINE
  5
FF82
  8
DANMEN
  6
CONTINUOUS
 10
294.5
 20
129.500003
 30
0.0
 11
294.5
 21
129.950003
 31
0.0
  0
LINE
  5
FF83
  8
DANMEN
  6
CONTINUOUS
 10
293.5
 20
129.500003
 30
0.0
 11
293.5
 21
129.950003
 31
0.0
  0
LINE
  5
FF87
  8
DANMEN
  6
CONTINUOUS
 10
293.5
 20
129.950003
 30
0.0
 11
294.5
 21
129.950003
 31
0.0
  0
LINE
  5
FF8E
  8
DANMEN
  6
CONTINUOUS
 10
298.5
 20
124.8
 30
0.0
 11
299.0
 21
124.8
 31
0.0
  0
ARC
  5
FF8F
  8
DANMEN
  6
CONTINUOUS
 10
298.250003
 20
125.2
 30
0.0
 40
0.3
 50
286.488148
 51
90.0
  0
ARC
  5
FF90
  8
DANMEN
  6
CONTINUOUS
 10
300.449997
 20
131.5
 30
0.0
 40
0.5
 50
89.999982
 51
180.000019
  0
LINE
  5
FF93
  8
DANMEN
  6
CONTINUOUS
 10
300.449997
 20
132.0
 30
0.0
 11
300.949997
 21
132.0
 31
0.0
  0
LINE
  5
FF94
  8
DANMEN
  6
CONTINUOUS
 10
275.1
 20
150.9
 30
0.0
 11
287.011314
 21
150.9
 31
0.0
  0
LINE
  5
FF95
  8
DANMEN
  6
CONTINUOUS
 10
274.5
 20
147.0
 30
0.0
 11
277.0
 21
147.0
 31
0.0
  0
ARC
  5
FF96
  8
DANMEN
  6
CONTINUOUS
 10
276.5
 20
147.149869
 30
0.0
 40
0.5
 50
0.0
 51
83.990994
  0
ARC
  5
FF97
  8
DANMEN
  6
CONTINUOUS
 10
273.0
 20
146.5
 30
0.0
 40
1.5
 50
89.999964
 51
180.000001
  0
LINE
  5
FF98
  8
DANMEN
  6
CONTINUOUS
 10
274.0
 20
151.5
 30
0.0
 11
274.0
 21
147.5
 31
0.0
  0
LINE
  5
FF99
  8
DANMEN
  6
CONTINUOUS
 10
271.5
 20
146.5
 30
0.0
 11
271.5
 21
143.999994
 31
0.0
  0
ARC
  5
FF9A
  8
DANMEN
  6
CONTINUOUS
 10
270.0
 20
143.999994
 30
0.0
 40
1.5
 50
270.0
 51
359.999982
  0
ARC
  5
FF9C
  8
DANMEN
  6
CONTINUOUS
 10
274.5
 20
147.5
 30
0.0
 40
0.5
 50
180.000019
 51
270.000001
  0
ARC
  5
FF9E
  8
DANMEN
  6
CONTINUOUS
 10
274.5
 20
151.5
 30
0.0
 40
0.5
 50
89.999982
 51
180.000019
  0
LINE
  5
FF9F
  8
DANMEN
  6
CONTINUOUS
 10
275.1
 20
150.9
 30
0.0
 11
275.1
 21
147.8
 31
0.0
  0
LINE
  5
FFA1
  8
DANMEN
  6
CONTINUOUS
 10
275.1
 20
147.8
 30
0.0
 11
276.552342
 21
147.647122
 31
0.0
  0
LINE
  5
FFA4
  8
DANMEN
  6
CONTINUOUS
 10
277.0
 20
147.149869
 30
0.0
 11
277.0
 21
147.0
 31
0.0
  0
LINE
  5
FFA9
  8
DANMEN
  6
CONTINUOUS
 10
290.95
 20
150.500003
 30
0.0
 11
293.5
 21
150.500003
 31
0.0
  0
ARC
  5
FFAB
  8
DANMEN
  6
CONTINUOUS
 10
287.011314
 20
149.9
 30
0.0
 40
1.0
 50
8.626927
 51
90.0
  0
LINE
  5
FFAC
  8
DANMEN
  6
CONTINUOUS
 10
288.0
 20
150.05
 30
0.0
 11
289.0
 21
150.05
 31
0.0
  0
LINE
  5
FFAF
  8
DANMEN
  6
CONTINUOUS
 10
294.5
 20
150.500003
 30
0.0
 11
299.949997
 21
150.500003
 31
0.0
  0
LINE
  5
FFB0
  8
DANMEN
  6
CONTINUOUS
 10
293.5
 20
150.050003
 30
0.0
 11
294.5
 21
150.050003
 31
0.0
  0
LINE
  5
FFB1
  8
DANMEN
  6
CONTINUOUS
 10
294.5
 20
150.500003
 30
0.0
 11
294.5
 21
150.050003
 31
0.0
  0
LINE
  5
FFB2
  8
DANMEN
  6
CONTINUOUS
 10
293.5
 20
150.500003
 30
0.0
 11
293.5
 21
150.050003
 31
0.0
  0
ARC
  5
FFBA
  8
DANMEN
  6
CONTINUOUS
 10
300.449997
 20
148.5
 30
0.0
 40
0.5
 50
180.000019
 51
270.000001
  0
LINE
  5
FFBD
  8
DANMEN
  6
CONTINUOUS
 10
299.949997
 20
150.500003
 30
0.0
 11
299.949997
 21
148.5
 31
0.0
  0
LINE
  5
FFBE
  8
DANMEN
  6
CONTINUOUS
 10
300.949997
 20
150.500003
 30
0.0
 11
300.949997
 21
148.0
 31
0.0
  0
LINE
  5
FFBF
  8
DANMEN
  6
CONTINUOUS
 10
300.449997
 20
148.0
 30
0.0
 11
300.949997
 21
148.0
 31
0.0
  0
LINE
  5
FFC0
  8
DANMEN
  6
CONTINUOUS
 10
312.05
 20
150.500003
 30
0.0
 11
312.05
 21
129.500003
 31
0.0
  0
LINE
  5
FFC1
  8
DANMEN
  6
CONTINUOUS
 10
314.0
 20
151.0
 30
0.0
 11
314.0
 21
123.6
 31
0.0
  0
LINE
  5
FFC2
  8
DANMEN
  6
CONTINUOUS
 10
309.5
 20
129.500003
 30
0.0
 11
312.05
 21
129.500003
 31
0.0
  0
LINE
  5
FFC3
  8
DANMEN
  6
CONTINUOUS
 10
304.0
 20
128.0
 30
0.0
 11
312.8
 21
128.0
 31
0.0
  0
LINE
  5
FFC4
  8
DANMEN
  6
CONTINUOUS
 10
304.0
 20
125.0
 30
0.0
 11
312.8
 21
125.0
 31
0.0
  0
LINE
  5
FFC5
  8
DANMEN
  6
CONTINUOUS
 10
304.0
 20
128.0
 30
0.0
 11
304.0
 21
123.5
 31
0.0
  0
LINE
  5
FFC6
  8
DANMEN
  6
CONTINUOUS
 10
302.5
 20
128.0
 30
0.0
 11
302.5
 21
124.0
 31
0.0
  0
ARC
  5
FFC9
  8
DANMEN
  6
CONTINUOUS
 10
303.0
 20
123.5
 30
0.0
 40
1.0
 50
270.000018
 51
0.0
  0
LINE
  5
FFCE
  8
DANMEN
  6
CONTINUOUS
 10
309.5
 20
129.500003
 30
0.0
 11
309.5
 21
129.950003
 31
0.0
  0
LINE
  5
FFCF
  8
DANMEN
  6
CONTINUOUS
 10
308.5
 20
129.500003
 30
0.0
 11
308.5
 21
129.950003
 31
0.0
  0
LINE
  5
FFD3
  8
DANMEN
  6
CONTINUOUS
 10
308.5
 20
129.950003
 30
0.0
 11
309.5
 21
129.950003
 31
0.0
  0
LINE
  5
FFD6
  8
DANMEN
  6
CONTINUOUS
 10
312.8
 20
128.0
 30
0.0
 11
312.8
 21
123.6
 31
0.0
  0
ARC
  5
FFD7
  8
DANMEN
  6
CONTINUOUS
 10
313.4
 20
123.6
 30
0.0
 40
0.6
 50
180.0
 51
0.0
  0
ARC
  5
FFD8
  8
DANMEN
  6
CONTINUOUS
 10
313.499997
 20
119.5
 30
0.0
 40
0.5
 50
0.000091
 51
90.000128
  0
LINE
  5
FFDD
  8
DANMEN
  6
CONTINUOUS
 10
309.5
 20
150.500003
 30
0.0
 11
312.05
 21
150.500003
 31
0.0
  0
LINE
  5
FFDE
  8
DANMEN
  6
CONTINUOUS
 10
308.5
 20
150.050003
 30
0.0
 11
309.5
 21
150.050003
 31
0.0
  0
LINE
  5
FFDF
  8
DANMEN
  6
CONTINUOUS
 10
309.5
 20
150.500003
 30
0.0
 11
309.5
 21
150.050003
 31
0.0
  0
LINE
  5
FFE0
  8
DANMEN
  6
CONTINUOUS
 10
308.5
 20
150.500003
 30
0.0
 11
308.5
 21
150.050003
 31
0.0
  0
ARC
  5
FFE6
  8
DANMEN
  6
CONTINUOUS
 10
313.0
 20
151.0
 30
0.0
 40
1.0
 50
0.0
 51
89.999982
  0
LINE
  5
FFE9
  8
SUNPO
  6
CONTINUOUS
 10
23.0
 20
183.0
 30
0.0
 11
23.0
 21
218.0
 31
0.0
  0
LINE
  5
FFEA
  8
DANMEN
  6
CONTINUOUS
 10
364.500004
 20
120.0
 30
0.0
 11
381.0
 21
120.0
 31
0.0
  0
LINE
  5
FFEB
  8
DANMEN
  6
CONTINUOUS
 10
340.5
 20
152.0
 30
0.0
 11
389.0
 21
152.0
 31
0.0
  0
LINE
  5
FFEC
  8
DANMEN
  6
CONTINUOUS
 10
340.5
 20
125.0
 30
0.0
 11
389.0
 21
125.0
 31
0.0
  0
LINE
  5
FFED
  8
DANMEN
  6
CONTINUOUS
 10
340.5
 20
141.5
 30
0.0
 11
389.0
 21
141.5
 31
0.0
  0
LINE
  5
FFEE
  8
DANMEN
  6
CONTINUOUS
 10
340.5
 20
138.5
 30
0.0
 11
389.0
 21
138.5
 31
0.0
  0
LINE
  5
FFEF
  8
DANMEN
  6
CONTINUOUS
 10
374.0
 20
159.0
 30
0.0
 11
354.0
 21
159.0
 31
0.0
  0
LINE
  5
FFF0
  8
DANMEN
  6
CONTINUOUS
 10
340.5
 20
120.0
 30
0.0
 11
364.0
 21
120.0
 31
0.0
  0
ARC
  5
FFF1
  8
DANMEN
  6
CONTINUOUS
 10
364.500003
 20
119.5
 30
0.0
 40
0.5
 50
89.999872
 51
179.999909
  0
LINE
  5
FFF2
  8
DANMEN
  6
CONTINUOUS
 10
349.600006
 20
162.0
 30
0.0
 11
354.0
 21
162.0
 31
0.0
  0
LINE
  5
FFF3
  8
DANMEN
  6
CONTINUOUS
 10
349.600006
 20
160.800003
 30
0.0
 11
354.0
 21
160.800003
 31
0.0
  0
LINE
  5
FFF4
  8
DANMEN
  6
CONTINUOUS
 10
354.0
 20
157.800003
 30
0.0
 11
340.5
 21
157.800003
 31
0.0
  0
LINE
  5
FFF5
  8
DANMEN
  6
CONTINUOUS
 10
349.600006
 20
162.0
 30
0.0
 11
340.5
 21
162.0
 31
0.0
  0
LINE
  5
FFF6
  8
DANMEN
  6
CONTINUOUS
 10
349.600006
 20
160.800003
 30
0.0
 11
340.5
 21
160.800003
 31
0.0
  0
ARC
  5
FFF7
  8
DANMEN
  6
CONTINUOUS
 10
349.600006
 20
161.399994
 30
0.0
 40
0.6
 50
89.999963
 51
269.999982
  0
LINE
  5
FFFC
  8
DANMEN
  6
CONTINUOUS
 10
354.0
 20
162.0
 30
0.0
 11
354.0
 21
157.800003
 31
0.0
  0
LINE
  5
FFFE
  8
DANMEN
  6
CONTINUOUS
 10
389.0
 20
157.800003
 30
0.0
 11
389.0
 21
120.0
 31
0.0
  0
LINE
  5
FFFF
  8
DANMEN
  6
CONTINUOUS
 10
389.0
 20
120.0
 30
0.0
 11
381.0
 21
120.0
 31
0.0
  0
LINE
  5
10001
  8
DANMEN
  6
CONTINUOUS
 10
398.5
 20
159.0
 30
0.0
 11
374.5
 21
159.0
 31
0.0
  0
LINE
  5
10002
  8
DANMEN
  6
CONTINUOUS
 10
387.0
 20
157.350006
 30
0.0
 11
374.5
 21
157.350006
 31
0.0
  0
LINE
  5
10003
  8
DANMEN
  6
CONTINUOUS
 10
374.0
 20
158.5
 30
0.0
 11
374.0
 21
157.850006
 31
0.0
  0
ARC
  5
10004
  8
DANMEN
  6
CONTINUOUS
 10
374.5
 20
157.850006
 30
0.0
 40
0.5
 50
180.000019
 51
270.000001
  0
ARC
  5
10005
  8
DANMEN
  6
CONTINUOUS
 10
374.5
 20
158.5
 30
0.0
 40
0.5
 50
90.000037
 51
180.000019
  0
ARC
  5
10006
  8
DANMEN
  6
CONTINUOUS
 10
398.5
 20
153.5
 30
0.0
 40
0.5
 50
270.000018
 51
359.999981
  0
ARC
  5
10007
  8
DANMEN
  6
CONTINUOUS
 10
397.850006
 20
153.5
 30
0.0
 40
0.5
 50
180.000019
 51
270.000001
  0
LINE
  5
10008
  8
DANMEN
  6
CONTINUOUS
 10
398.5
 20
153.0
 30
0.0
 11
397.850006
 21
153.0
 31
0.0
  0
LINE
  5
10009
  8
DANMEN
  6
CONTINUOUS
 10
397.350006
 20
157.350006
 30
0.0
 11
390.649994
 21
157.350006
 31
0.0
  0
LINE
  5
1000A
  8
DANMEN
  6
CONTINUOUS
 10
389.0
 20
157.800003
 30
0.0
 11
387.0
 21
157.800003
 31
0.0
  0
LINE
  5
1000B
  8
DANMEN
  6
CONTINUOUS
 10
387.0
 20
157.800003
 30
0.0
 11
387.0
 21
157.350006
 31
0.0
  0
LINE
  5
1000C
  8
DANMEN
  6
CONTINUOUS
 10
399.0
 20
158.5
 30
0.0
 11
399.0
 21
153.5
 31
0.0
  0
LINE
  5
1000D
  8
DANMEN
  6
CONTINUOUS
 10
397.350006
 20
157.350006
 30
0.0
 11
397.350006
 21
153.5
 31
0.0
  0
ARC
  5
1000E
  8
DANMEN
  6
CONTINUOUS
 10
398.5
 20
158.5
 30
0.0
 40
0.5
 50
0.0
 51
89.999982
  0
TEXT
  5
1000F
  8
SUNPO
  6
CONTINUOUS
 10
59.916667
 20
164.0
 30
0.0
 40
2.5
  1
24
  0
TEXT
  5
10010
  8
SUNPO
  6
CONTINUOUS
 10
35.013333
 20
164.0
 30
0.0
 40
2.5
  1
3
  0
TEXT
  5
10011
  8
SUNPO
  6
CONTINUOUS
 10
45.666667
 20
164.0
 30
0.0
 40
2.5
  1
7
  0
LINE
  5
10012
  8
SUNPO
  6
CONTINUOUS
 10
41.5
 20
148.0
 30
0.0
 11
23.0
 21
148.0
 31
0.0
  0
ARC
  5
10013
  8
SUNPO
  6
BYBLOCK
 10
23.0
 20
148.0
 30
0.0
 40
0.145
 50
90.0
 51
270.0
  0
ARC
  5
10014
  8
SUNPO
  6
BYBLOCK
 10
23.0
 20
148.0
 30
0.0
 40
0.145
 50
270.0
 51
90.0
  0
LINE
  5
10015
  8
SUNPO
  6
CONTINUOUS
 10
50.0
 20
163.0
 30
0.0
 11
43.0
 21
163.0
 31
0.0
  0
LINE
  5
10016
  8
SUNPO
  6
CONTINUOUS
 10
43.0
 20
163.0
 30
0.0
 11
40.0
 21
163.0
 31
0.0
  0
LINE
  5
10017
  8
SUNPO
  6
CONTINUOUS
 10
40.0
 20
154.5
 30
0.0
 11
40.0
 21
163.0
 31
0.0
  0
LINE
  5
10018
  8
SUNPO
  6
CONTINUOUS
 10
40.0
 20
163.0
 30
0.0
 11
34.013333
 21
163.0
 31
0.0
  0
ARC
  5
10019
  8
SUNPO
  6
BYBLOCK
 10
40.0
 20
163.0
 30
0.0
 40
0.145
 50
180.0
 51
0.0
  0
ARC
  5
1001A
  8
SUNPO
  6
BYBLOCK
 10
40.0
 20
163.0
 30
0.0
 40
0.145
 50
0.0
 51
180.0
  0
ARC
  5
1001B
  8
SUNPO
  6
BYBLOCK
 10
43.0
 20
163.0
 30
0.0
 40
0.145
 50
180.0
 51
0.0
  0
ARC
  5
1001C
  8
SUNPO
  6
BYBLOCK
 10
43.0
 20
163.0
 30
0.0
 40
0.145
 50
0.0
 51
180.0
  0
ARC
  5
1001D
  8
SUNPO
  6
BYBLOCK
 10
43.0
 20
163.0
 30
0.0
 40
0.145
 50
0.0
 51
180.0
  0
ARC
  5
1001E
  8
SUNPO
  6
BYBLOCK
 10
43.0
 20
163.0
 30
0.0
 40
0.145
 50
180.0
 51
0.0
  0
ARC
  5
1001F
  8
SUNPO
  6
BYBLOCK
 10
50.0
 20
163.0
 30
0.0
 40
0.145
 50
0.0
 51
180.0
  0
ARC
  5
10020
  8
SUNPO
  6
BYBLOCK
 10
50.0
 20
163.0
 30
0.0
 40
0.145
 50
180.0
 51
0.0
  0
ARC
  5
10021
  8
SUNPO
  6
BYBLOCK
 10
50.0
 20
163.0
 30
0.0
 40
0.145
 50
180.0
 51
0.0
  0
ARC
  5
10022
  8
SUNPO
  6
BYBLOCK
 10
50.0
 20
163.0
 30
0.0
 40
0.145
 50
0.0
 51
180.0
  0
LINE
  5
10023
  8
SUNPO
  6
CONTINUOUS
 10
41.5
 20
183.0
 30
0.0
 11
23.0
 21
183.0
 31
0.0
  0
ARC
  5
10024
  8
SUNPO
  6
BYBLOCK
 10
23.0
 20
183.0
 30
0.0
 40
0.145
 50
270.0
 51
90.0
  0
ARC
  5
10025
  8
SUNPO
  6
BYBLOCK
 10
23.0
 20
183.0
 30
0.0
 40
0.145
 50
90.0
 51
270.0
  0
TEXT
  5
10026
  8
SUNPO
  6
CONTINUOUS
 10
22.0
 20
198.416667
 30
0.0
 40
2.5
  1
35
 50
90.0
  0
LINE
  5
10027
  8
SUNPO
  6
CONTINUOUS
 10
41.5
 20
253.0
 30
0.0
 11
23.0
 21
253.0
 31
0.0
  0
LINE
  5
10028
  8
SUNPO
  6
CONTINUOUS
 10
41.5
 20
218.0
 30
0.0
 11
23.0
 21
218.0
 31
0.0
  0
TEXT
  5
10029
  8
SUNPO
  6
CONTINUOUS
 10
22.0
 20
233.416667
 30
0.0
 40
2.5
  1
35
 50
90.0
  0
LINE
  5
1002A
  8
SUNPO
  6
CONTINUOUS
 10
23.0
 20
253.0
 30
0.0
 11
23.0
 21
218.0
 31
0.0
  0
ARC
  5
1002B
  8
SUNPO
  6
BYBLOCK
 10
23.0
 20
218.0
 30
0.0
 40
0.145
 50
270.0
 51
90.0
  0
ARC
  5
1002C
  8
SUNPO
  6
BYBLOCK
 10
23.0
 20
218.0
 30
0.0
 40
0.145
 50
90.0
 51
270.0
  0
ARC
  5
1002D
  8
SUNPO
  6
BYBLOCK
 10
23.0
 20
218.0
 30
0.0
 40
0.145
 50
90.0
 51
270.0
  0
ARC
  5
1002E
  8
SUNPO
  6
BYBLOCK
 10
23.0
 20
218.0
 30
0.0
 40
0.145
 50
270.0
 51
90.0
  0
ARC
  5
1002F
  8
SUNPO
  6
BYBLOCK
 10
23.0
 20
253.0
 30
0.0
 40
0.145
 50
90.0
 51
270.0
  0
ARC
  5
10030
  8
SUNPO
  6
BYBLOCK
 10
23.0
 20
253.0
 30
0.0
 40
0.145
 50
270.0
 51
90.0
  0
LINE
  5
10031
  8
SUNPO
  6
CONTINUOUS
 10
146.5
 20
218.0
 30
0.0
 11
146.5
 21
183.0
 31
0.0
  0
LINE
  5
10032
  8
SUNPO
  6
CONTINUOUS
 10
156.5
 20
218.0
 30
0.0
 11
156.5
 21
167.061083
 31
0.0
  0
LINE
  5
10033
  8
SUNPO
  6
CONTINUOUS
 10
133.5
 20
163.0
 30
0.0
 11
113.0
 21
163.0
 31
0.0
  0
LINE
  5
10034
  8
SUNPO
  6
CONTINUOUS
 10
114.5
 20
183.0
 30
0.0
 11
146.5
 21
183.0
 31
0.0
  0
LINE
  5
10035
  8
SUNPO
  6
CONTINUOUS
 10
114.5
 20
148.0
 30
0.0
 11
146.5
 21
148.0
 31
0.0
  0
TEXT
  5
10036
  8
SUNPO
  6
CONTINUOUS
 10
95.833333
 20
164.0
 30
0.0
 40
2.5
  1
31
  0
TEXT
  5
10037
  8
SUNPO
  6
CONTINUOUS
 10
77.166667
 20
164.0
 30
0.0
 40
2.5
  1
8
  0
TEXT
  5
10038
  8
SUNPO
  6
CONTINUOUS
 10
119.708333
 20
164.0
 30
0.0
 40
2.5
  1
20.5
  0
LINE
  5
10039
  8
SUNPO
  6
CONTINUOUS
 10
82.0
 20
163.0
 30
0.0
 11
113.0
 21
163.0
 31
0.0
  0
LINE
  5
1003A
  8
SUNPO
  6
CONTINUOUS
 10
82.0
 20
163.0
 30
0.0
 11
74.0
 21
163.0
 31
0.0
  0
ARC
  5
1003B
  8
SUNPO
  6
BYBLOCK
 10
82.0
 20
163.0
 30
0.0
 40
0.145
 50
0.0
 51
180.0
  0
ARC
  5
1003C
  8
SUNPO
  6
BYBLOCK
 10
82.0
 20
163.0
 30
0.0
 40
0.145
 50
180.0
 51
0.0
  0
ARC
  5
1003D
  8
SUNPO
  6
BYBLOCK
 10
82.0
 20
163.0
 30
0.0
 40
0.145
 50
180.0
 51
0.0
  0
ARC
  5
1003E
  8
SUNPO
  6
BYBLOCK
 10
82.0
 20
163.0
 30
0.0
 40
0.145
 50
0.0
 51
180.0
  0
ARC
  5
1003F
  8
SUNPO
  6
BYBLOCK
 10
74.0
 20
163.0
 30
0.0
 40
0.145
 50
180.0
 51
0.0
  0
ARC
  5
10040
  8
SUNPO
  6
BYBLOCK
 10
74.0
 20
163.0
 30
0.0
 40
0.145
 50
0.0
 51
180.0
  0
ARC
  5
10041
  8
SUNPO
  6
BYBLOCK
 10
74.0
 20
163.0
 30
0.0
 40
0.145
 50
0.0
 51
180.0
  0
ARC
  5
10042
  8
SUNPO
  6
BYBLOCK
 10
74.0
 20
163.0
 30
0.0
 40
0.145
 50
180.0
 51
0.0
  0
LINE
  5
10043
  8
SUNPO
  6
CONTINUOUS
 10
113.0
 20
120.997913
 30
0.0
 11
113.0
 21
163.0
 31
0.0
  0
ARC
  5
10044
  8
SUNPO
  6
BYBLOCK
 10
113.0
 20
163.0
 30
0.0
 40
0.145
 50
0.0
 51
180.0
  0
ARC
  5
10045
  8
SUNPO
  6
BYBLOCK
 10
113.0
 20
163.0
 30
0.0
 40
0.145
 50
180.0
 51
0.0
  0
ARC
  5
10046
  8
SUNPO
  6
BYBLOCK
 10
113.0
 20
163.0
 30
0.0
 40
0.145
 50
180.0
 51
0.0
  0
ARC
  5
10047
  8
SUNPO
  6
BYBLOCK
 10
113.0
 20
163.0
 30
0.0
 40
0.145
 50
0.0
 51
180.0
  0
TEXT
  5
10048
  8
SUNPO
  6
CONTINUOUS
 10
145.5
 20
118.916667
 30
0.0
 40
2.5
  1
54
 50
90.0
  0
ARC
  5
10049
  8
SUNPO
  6
BYBLOCK
 10
146.5
 20
148.0
 30
0.0
 40
0.145
 50
90.0
 51
270.0
  0
ARC
  5
1004A
  8
SUNPO
  6
BYBLOCK
 10
146.5
 20
148.0
 30
0.0
 40
0.145
 50
270.0
 51
90.0
  0
ARC
  5
1004B
  8
SUNPO
  6
BYBLOCK
 10
133.5
 20
163.0
 30
0.0
 40
0.145
 50
0.0
 51
180.0
  0
ARC
  5
1004C
  8
SUNPO
  6
BYBLOCK
 10
133.5
 20
163.0
 30
0.0
 40
0.145
 50
180.0
 51
0.0
  0
LINE
  5
1004D
  8
SUNPO
  6
CONTINUOUS
 10
156.5
 20
156.641045
 30
0.0
 11
156.5
 21
151.141045
 31
0.0
  0
LINE
  5
1004E
  8
SUNPO
  6
CONTINUOUS
 10
152.5
 20
151.141045
 30
0.0
 11
160.5
 21
151.141045
 31
0.0
  0
LINE
  5
1004F
  8
SUNPO
  6
CONTINUOUS
 10
152.5
 20
149.141045
 30
0.0
 11
160.5
 21
149.141045
 31
0.0
  0
LINE
  5
10050
  8
SUNPO
  6
CONTINUOUS
 10
152.5
 20
152.541039
 30
0.0
 11
152.5
 21
147.343696
 31
0.0
  0
LINE
  5
10051
  8
SUNPO
  6
CONTINUOUS
 10
160.5
 20
152.541039
 30
0.0
 11
160.5
 21
147.343696
 31
0.0
  0
LINE
  5
10052
  8
SUNPO
  6
CONTINUOUS
 10
152.5
 20
156.641045
 30
0.0
 11
160.5
 21
156.641045
 31
0.0
  0
LINE
  5
10053
  8
SUNPO
  6
CONTINUOUS
 10
152.5
 20
158.653991
 30
0.0
 11
152.5
 21
154.920944
 31
0.0
  0
LINE
  5
10054
  8
SUNPO
  6
CONTINUOUS
 10
155.299927
 20
164.656304
 30
0.0
 11
155.299927
 21
159.867761
 31
0.0
  0
LINE
  5
10056
  8
SUNPO
  6
CONTINUOUS
 10
160.5
 20
158.653991
 30
0.0
 11
160.5
 21
154.920944
 31
0.0
  0
LINE
  5
10057
  8
SUNPO
  6
CONTINUOUS
 10
157.699921
 20
164.656304
 30
0.0
 11
157.699921
 21
159.867761
 31
0.0
  0
ARC
  5
10058
  8
SUNPO
  6
BYBLOCK
 10
146.5
 20
183.0
 30
0.0
 40
0.145
 50
270.0
 51
90.0
  0
ARC
  5
10059
  8
SUNPO
  6
BYBLOCK
 10
146.5
 20
183.0
 30
0.0
 40
0.145
 50
90.0
 51
270.0
  0
TEXT
  5
1005A
  8
SUNPO
  6
CONTINUOUS
 10
145.5
 20
198.416667
 30
0.0
 40
2.5
  1
35
 50
90.0
  0
LINE
  5
1005B
  8
SUNPO
  6
CONTINUOUS
 10
114.5
 20
218.0
 30
0.0
 11
156.5
 21
218.0
 31
0.0
  0
LINE
  5
1005C
  8
SUNPO
  6
CONTINUOUS
 10
114.5
 20
253.0
 30
0.0
 11
156.5
 21
253.0
 31
0.0
  0
LINE
  5
1005D
  8
SUNPO
  6
CONTINUOUS
 10
114.5
 20
226.0
 30
0.0
 11
146.5
 21
226.0
 31
0.0
  0
LINE
  5
1005E
  8
SUNPO
  6
CONTINUOUS
 10
114.5
 20
241.0
 30
0.0
 11
146.5
 21
241.0
 31
0.0
  0
LINE
  5
1005F
  8
SUNPO
  6
CONTINUOUS
 10
156.5
 20
253.0
 30
0.0
 11
156.5
 21
218.0
 31
0.0
  0
LINE
  5
10060
  8
SUNPO
  6
CONTINUOUS
 10
146.5
 20
241.0
 30
0.0
 11
146.5
 21
226.0
 31
0.0
  0
TEXT
  5
10061
  8
SUNPO
  6
CONTINUOUS
 10
145.5
 20
231.833333
 30
0.0
 40
2.5
  1
15
 50
90.0
  0
TEXT
  5
10062
  8
SUNPO
  6
CONTINUOUS
 10
155.5
 20
233.416667
 30
0.0
 40
2.5
  1
35
 50
90.0
  0
LINE
  5
10063
  8
SUNPO
  6
CONTINUOUS
 10
146.5
 20
226.0
 30
0.0
 11
146.5
 21
218.0
 31
0.0
  0
TEXT
  5
10064
  8
SUNPO
  6
CONTINUOUS
 10
145.5
 20
221.166667
 30
0.0
 40
2.5
  1
8
 50
90.0
  0
ARC
  5
10065
  8
SUNPO
  6
BYBLOCK
 10
146.5
 20
218.0
 30
0.0
 40
0.145
 50
270.0
 51
90.0
  0
ARC
  5
10066
  8
SUNPO
  6
BYBLOCK
 10
146.5
 20
218.0
 30
0.0
 40
0.145
 50
90.0
 51
270.0
  0
ARC
  5
10067
  8
SUNPO
  6
BYBLOCK
 10
146.5
 20
218.0
 30
0.0
 40
0.145
 50
90.0
 51
270.0
  0
ARC
  5
10068
  8
SUNPO
  6
BYBLOCK
 10
146.5
 20
218.0
 30
0.0
 40
0.145
 50
270.0
 51
90.0
  0
ARC
  5
10069
  8
SUNPO
  6
BYBLOCK
 10
146.5
 20
226.0
 30
0.0
 40
0.145
 50
90.0
 51
270.0
  0
ARC
  5
1006A
  8
SUNPO
  6
BYBLOCK
 10
146.5
 20
226.0
 30
0.0
 40
0.145
 50
270.0
 51
90.0
  0
ARC
  5
1006B
  8
SUNPO
  6
BYBLOCK
 10
146.5
 20
226.0
 30
0.0
 40
0.145
 50
270.0
 51
90.0
  0
ARC
  5
1006C
  8
SUNPO
  6
BYBLOCK
 10
146.5
 20
226.0
 30
0.0
 40
0.145
 50
90.0
 51
270.0
  0
LINE
  5
1006D
  8
SUNPO
  6
CONTINUOUS
 10
161.5
 20
213.0
 30
0.0
 11
151.5
 21
213.0
 31
0.0
  0
LINE
  5
1006E
  8
SUNPO
  6
CONTINUOUS
 10
151.5
 20
213.0
 30
0.0
 11
156.5
 21
218.0
 31
0.0
  0
LINE
  5
10070
  8
SUNPO
  6
CONTINUOUS
 10
156.5
 20
218.0
 30
0.0
 11
161.5
 21
213.0
 31
0.0
  0
ARC
  5
10073
  8
SUNPO
  6
BYBLOCK
 10
146.5
 20
241.0
 30
0.0
 40
0.145
 50
90.0
 51
270.0
  0
ARC
  5
10074
  8
SUNPO
  6
BYBLOCK
 10
146.5
 20
241.0
 30
0.0
 40
0.145
 50
270.0
 51
90.0
  0
ARC
  5
10075
  8
SUNPO
  6
BYBLOCK
 10
156.5
 20
253.0
 30
0.0
 40
0.145
 50
90.0
 51
270.0
  0
ARC
  5
10076
  8
SUNPO
  6
BYBLOCK
 10
156.5
 20
253.0
 30
0.0
 40
0.145
 50
270.0
 51
90.0
  0
LINE
  5
10077
  8
SUNPO
  6
CONTINUOUS
 10
252.0
 20
160.5
 30
0.0
 11
252.0
 21
169.0
 31
0.0
  0
LINE
  5
10078
  8
SUNPO
  6
CONTINUOUS
 10
202.0
 20
162.0
 30
0.0
 11
202.0
 21
169.0
 31
0.0
  0
LINE
  5
10079
  8
SUNPO
  6
CONTINUOUS
 10
199.0
 20
160.5
 30
0.0
 11
199.0
 21
169.0
 31
0.0
  0
LINE
  5
1007A
  8
SUNPO
  6
CONTINUOUS
 10
255.5
 20
162.0
 30
0.0
 11
255.5
 21
167.986667
 31
0.0
  0
TEXT
  5
1007B
  8
SUNPO
  6
CONTINUOUS
 10
254.5
 20
119.485291
 30
0.0
 40
2.5
  1
70
 50
90.0
  0
LINE
  5
1007C
  8
SUNPO
  6
CONTINUOUS
 10
235.5
 20
159.0
 30
0.0
 11
255.5
 21
159.0
 31
0.0
  0
LINE
  5
1007D
  8
SUNPO
  6
CONTINUOUS
 10
255.5
 20
159.0
 30
0.0
 11
255.5
 21
162.0
 31
0.0
  0
ARC
  5
1007E
  8
SUNPO
  6
BYBLOCK
 10
255.5
 20
159.0
 30
0.0
 40
0.145
 50
270.0
 51
90.0
  0
ARC
  5
1007F
  8
SUNPO
  6
BYBLOCK
 10
255.5
 20
159.0
 30
0.0
 40
0.145
 50
90.0
 51
270.0
  0
ARC
  5
10080
  8
SUNPO
  6
BYBLOCK
 10
255.5
 20
159.0
 30
0.0
 40
0.145
 50
90.0
 51
270.0
  0
ARC
  5
10081
  8
SUNPO
  6
BYBLOCK
 10
255.5
 20
159.0
 30
0.0
 40
0.145
 50
270.0
 51
90.0
  0
ARC
  5
10082
  8
SUNPO
  6
BYBLOCK
 10
255.5
 20
162.0
 30
0.0
 40
0.145
 50
90.0
 51
270.0
  0
ARC
  5
10083
  8
SUNPO
  6
BYBLOCK
 10
255.5
 20
162.0
 30
0.0
 40
0.145
 50
270.0
 51
90.0
  0
LINE
  5
10084
  8
SUNPO
  6
CONTINUOUS
 10
202.0
 20
169.0
 30
0.0
 11
252.0
 21
169.0
 31
0.0
  0
TEXT
  5
10085
  8
SUNPO
  6
CONTINUOUS
 10
199.666667
 20
170.0
 30
0.0
 40
2.5
  1
3
  0
LINE
  5
10086
  8
SUNPO
  6
CONTINUOUS
 10
202.0
 20
169.0
 30
0.0
 11
199.0
 21
169.0
 31
0.0
  0
ARC
  5
10087
  8
SUNPO
  6
BYBLOCK
 10
199.0
 20
169.0
 30
0.0
 40
0.145
 50
180.0
 51
0.0
  0
ARC
  5
10088
  8
SUNPO
  6
BYBLOCK
 10
199.0
 20
169.0
 30
0.0
 40
0.145
 50
0.0
 51
180.0
  0
ARC
  5
10089
  8
SUNPO
  6
BYBLOCK
 10
202.0
 20
169.0
 30
0.0
 40
0.145
 50
180.0
 51
0.0
  0
ARC
  5
1008A
  8
SUNPO
  6
BYBLOCK
 10
202.0
 20
169.0
 30
0.0
 40
0.145
 50
0.0
 51
180.0
  0
ARC
  5
1008B
  8
SUNPO
  6
BYBLOCK
 10
202.0
 20
169.0
 30
0.0
 40
0.145
 50
0.0
 51
180.0
  0
ARC
  5
1008C
  8
SUNPO
  6
BYBLOCK
 10
202.0
 20
169.0
 30
0.0
 40
0.145
 50
180.0
 51
0.0
  0
TEXT
  5
1008D
  8
SUNPO
  6
CONTINUOUS
 10
225.125
 20
170.0
 30
0.0
 40
2.5
  1
50
  0
TEXT
  5
1008E
  8
SUNPO
  6
CONTINUOUS
 10
254.5
 20
165.32
 30
0.0
 40
2.5
  1
3
 50
90.0
  0
ARC
  5
1008F
  8
SUNPO
  6
BYBLOCK
 10
252.0
 20
169.0
 30
0.0
 40
0.145
 50
0.0
 51
180.0
  0
ARC
  5
10090
  8
SUNPO
  6
BYBLOCK
 10
252.0
 20
169.0
 30
0.0
 40
0.145
 50
180.0
 51
0.0
  0
LINE
  5
10091
  8
SUNPO
  6
CONTINUOUS
 10
374.0
 20
169.0
 30
0.0
 11
399.0
 21
169.0
 31
0.0
  0
LINE
  5
10092
  8
SUNPO
  6
CONTINUOUS
 10
374.0
 20
159.350006
 30
0.0
 11
374.0
 21
169.0
 31
0.0
  0
LINE
  5
10093
  8
SUNPO
  6
CONTINUOUS
 10
362.5
 20
120.0
 30
0.0
 11
351.577611
 21
120.0
 31
0.0
  0
LINE
  5
10094
  8
SUNPO
  6
CONTINUOUS
 10
331.0
 20
152.0
 30
0.0
 11
331.0
 21
128.0
 31
0.0
  0
LINE
  5
10095
  8
SUNPO
  6
CONTINUOUS
 10
331.0
 20
120.0
 30
0.0
 11
331.0
 21
128.0
 31
0.0
  0
ARC
  5
10096
  8
SUNPO
  6
BYBLOCK
 10
331.0
 20
120.0
 30
0.0
 40
0.145
 50
270.0
 51
90.0
  0
ARC
  5
10097
  8
SUNPO
  6
BYBLOCK
 10
331.0
 20
120.0
 30
0.0
 40
0.145
 50
90.0
 51
270.0
  0
ARC
  5
10098
  8
SUNPO
  6
BYBLOCK
 10
331.0
 20
120.0
 30
0.0
 40
0.145
 50
90.0
 51
270.0
  0
ARC
  5
10099
  8
SUNPO
  6
BYBLOCK
 10
331.0
 20
120.0
 30
0.0
 40
0.145
 50
270.0
 51
90.0
  0
ARC
  5
1009A
  8
SUNPO
  6
BYBLOCK
 10
331.0
 20
128.0
 30
0.0
 40
0.145
 50
90.0
 51
270.0
  0
ARC
  5
1009B
  8
SUNPO
  6
BYBLOCK
 10
331.0
 20
128.0
 30
0.0
 40
0.145
 50
270.0
 51
90.0
  0
ARC
  5
1009C
  8
SUNPO
  6
BYBLOCK
 10
331.0
 20
128.0
 30
0.0
 40
0.145
 50
270.0
 51
90.0
  0
ARC
  5
1009D
  8
SUNPO
  6
BYBLOCK
 10
331.0
 20
128.0
 30
0.0
 40
0.145
 50
90.0
 51
270.0
  0
LINE
  5
1009E
  8
SUNPO
  6
CONTINUOUS
 10
351.577611
 20
120.0
 30
0.0
 11
351.577611
 21
129.32
 31
0.0
  0
TEXT
  5
1009F
  8
SUNPO
  6
CONTINUOUS
 10
350.577611
 20
123.32
 30
0.0
 40
2.5
  1
2.5
 50
90.0
  0
ARC
  5
100A0
  8
SUNPO
  6
BYBLOCK
 10
351.577611
 20
120.0
 30
0.0
 40
0.145
 50
90.0
 51
270.0
  0
ARC
  5
100A1
  8
SUNPO
  6
BYBLOCK
 10
351.577611
 20
120.0
 30
0.0
 40
0.145
 50
270.0
 51
90.0
  0
LINE
  5
100A2
  8
SUNPO
  6
CONTINUOUS
 10
352.5
 20
159.0
 30
0.0
 11
331.0
 21
159.0
 31
0.0
  0
LINE
  5
100A3
  8
SUNPO
  6
CONTINUOUS
 10
331.0
 20
152.0
 30
0.0
 11
331.0
 21
159.0
 31
0.0
  0
ARC
  5
100A4
  8
SUNPO
  6
BYBLOCK
 10
331.0
 20
152.0
 30
0.0
 40
0.145
 50
90.0
 51
270.0
  0
ARC
  5
100A5
  8
SUNPO
  6
BYBLOCK
 10
331.0
 20
152.0
 30
0.0
 40
0.145
 50
270.0
 51
90.0
  0
ARC
  5
100A6
  8
SUNPO
  6
BYBLOCK
 10
331.0
 20
152.0
 30
0.0
 40
0.145
 50
270.0
 51
90.0
  0
ARC
  5
100A7
  8
SUNPO
  6
BYBLOCK
 10
331.0
 20
152.0
 30
0.0
 40
0.145
 50
90.0
 51
270.0
  0
ARC
  5
100A8
  8
SUNPO
  6
BYBLOCK
 10
331.0
 20
159.0
 30
0.0
 40
0.145
 50
90.0
 51
270.0
  0
ARC
  5
100A9
  8
SUNPO
  6
BYBLOCK
 10
331.0
 20
159.0
 30
0.0
 40
0.145
 50
270.0
 51
90.0
  0
ARC
  5
100AA
  8
SUNPO
  6
BYBLOCK
 10
374.0
 20
169.0
 30
0.0
 40
0.145
 50
180.0
 51
0.0
  0
ARC
  5
100AB
  8
SUNPO
  6
BYBLOCK
 10
374.0
 20
169.0
 30
0.0
 40
0.145
 50
0.0
 51
180.0
  0
TEXT
  5
100AC
  8
SUNPO
  6
CONTINUOUS
 10
384.416667
 20
170.0
 30
0.0
 40
2.5
  1
25
  0
LINE
  5
100AD
  8
SUNPO
  6
CONTINUOUS
 10
399.0
 20
160.0
 30
0.0
 11
399.0
 21
169.0
 31
0.0
  0
ARC
  5
100AE
  8
SUNPO
  6
BYBLOCK
 10
399.0
 20
169.0
 30
0.0
 40
0.145
 50
0.0
 51
180.0
  0
ARC
  5
100AF
  8
SUNPO
  6
BYBLOCK
 10
399.0
 20
169.0
 30
0.0
 40
0.145
 50
180.0
 51
0.0
  0
ARC
  5
100B0
  8
SUNPO
  6
BYBLOCK
 10
43.0
 20
15.0
 30
0.0
 40
0.145
 50
0.0
 51
180.0
  0
ARC
  5
100B1
  8
SUNPO
  6
BYBLOCK
 10
43.0
 20
15.0
 30
0.0
 40
0.145
 50
180.0
 51
0.0
  0
LINE
  5
101DB
  8
SUNPO
  6
CONTINUOUS
 10
241.285372
 20
56.107269
 30
0.0
 11
242.198887
 21
56.730081
 31
0.0
210
0.0
220
0.0
230
-1.0
  0
LINE
  5
101DC
  8
SUNPO
  6
CONTINUOUS
 10
242.198887
 20
56.730081
 30
0.0
 11
242.669982
 21
56.768293
 31
0.0
210
0.0
220
0.0
230
-1.0
  0
LINE
  5
101DD
  8
SUNPO
  6
CONTINUOUS
 10
242.669982
 20
56.768293
 30
0.0
 11
242.4838
 21
56.255982
 31
0.0
210
0.0
220
0.0
230
-1.0
  0
LINE
  5
101DE
  8
SUNPO
  6
CONTINUOUS
 10
242.4838
 20
56.255982
 30
0.0
 11
241.590898
 21
54.276791
 31
0.0
210
0.0
220
0.0
230
-1.0
  0
LINE
  5
101DF
  8
SUNPO
  6
CONTINUOUS
 10
241.590898
 20
54.276791
 30
0.0
 11
241.887461
 21
53.297817
 31
0.0
210
0.0
220
0.0
230
-1.0
  0
LINE
  5
101E0
  8
SUNPO
  6
CONTINUOUS
 10
241.887461
 20
53.297817
 30
0.0
 11
242.848871
 21
53.601968
 31
0.0
210
0.0
220
0.0
230
-1.0
  0
LINE
  5
101E1
  8
SUNPO
  6
CONTINUOUS
 10
242.848871
 20
53.601968
 30
0.0
 11
243.33436
 21
54.719453
 31
0.0
210
0.0
220
0.0
230
-1.0
  0
LINE
  5
101E2
  8
SUNPO
  6
CONTINUOUS
 10
243.33436
 20
54.719453
 30
0.0
 11
243.44692
 21
55.220793
 31
0.0
210
0.0
220
0.0
230
-1.0
  0
LINE
  5
101E3
  8
SUNPO
  6
CONTINUOUS
 10
243.44692
 20
55.220793
 30
0.0
 11
243.319498
 21
54.695165
 31
0.0
210
0.0
220
0.0
230
-1.0
  0
LINE
  5
101E4
  8
SUNPO
  6
CONTINUOUS
 10
243.319498
 20
54.695165
 30
0.0
 11
243.269705
 21
53.62979
 31
0.0
210
0.0
220
0.0
230
-1.0
  0
LINE
  5
101E5
  8
SUNPO
  6
CONTINUOUS
 10
243.269705
 20
53.62979
 30
0.0
 11
244.105643
 21
53.048466
 31
0.0
210
0.0
220
0.0
230
-1.0
  0
LINE
  5
101E6
  8
SUNPO
  6
CONTINUOUS
 10
244.105643
 20
53.048466
 30
0.0
 11
245.421869
 21
54.654112
 31
0.0
210
0.0
220
0.0
230
-1.0
  0
LINE
  5
101E7
  8
SUNPO
  6
CONTINUOUS
 10
245.421869
 20
54.654112
 30
0.0
 11
245.306626
 21
56.810488
 31
0.0
210
0.0
220
0.0
230
-1.0
  0
LINE
  5
101E8
  8
SUNPO
  6
CONTINUOUS
 10
245.306626
 20
56.810488
 30
0.0
 11
247.444428
 21
56.57399
 31
0.0
210
0.0
220
0.0
230
-1.0
  0
LINE
  5
101E9
  8
SUNPO
  6
CONTINUOUS
 10
341.285372
 20
56.107269
 30
0.0
 11
342.198887
 21
56.730081
 31
0.0
210
0.0
220
0.0
230
-1.0
  0
LINE
  5
101EA
  8
SUNPO
  6
CONTINUOUS
 10
342.198887
 20
56.730081
 30
0.0
 11
342.669983
 21
56.768293
 31
0.0
210
0.0
220
0.0
230
-1.0
  0
LINE
  5
101EB
  8
SUNPO
  6
CONTINUOUS
 10
342.669983
 20
56.768293
 30
0.0
 11
342.4838
 21
56.255983
 31
0.0
210
0.0
220
0.0
230
-1.0
  0
LINE
  5
101EC
  8
SUNPO
  6
CONTINUOUS
 10
342.4838
 20
56.255983
 30
0.0
 11
341.590898
 21
54.276791
 31
0.0
210
0.0
220
0.0
230
-1.0
  0
LINE
  5
101ED
  8
SUNPO
  6
CONTINUOUS
 10
341.590898
 20
54.276791
 30
0.0
 11
341.887461
 21
53.297817
 31
0.0
210
0.0
220
0.0
230
-1.0
  0
LINE
  5
101EE
  8
SUNPO
  6
CONTINUOUS
 10
341.887461
 20
53.297817
 30
0.0
 11
342.848871
 21
53.601967
 31
0.0
210
0.0
220
0.0
230
-1.0
  0
LINE
  5
101EF
  8
SUNPO
  6
CONTINUOUS
 10
342.848871
 20
53.601967
 30
0.0
 11
343.334361
 21
54.719451
 31
0.0
210
0.0
220
0.0
230
-1.0
  0
LINE
  5
101F0
  8
SUNPO
  6
CONTINUOUS
 10
343.334361
 20
54.719451
 30
0.0
 11
343.446921
 21
55.220793
 31
0.0
210
0.0
220
0.0
230
-1.0
  0
LINE
  5
101F1
  8
SUNPO
  6
CONTINUOUS
 10
343.446921
 20
55.220793
 30
0.0
 11
343.3195
 21
54.695166
 31
0.0
210
0.0
220
0.0
230
-1.0
  0
LINE
  5
101F2
  8
SUNPO
  6
CONTINUOUS
 10
343.3195
 20
54.695166
 30
0.0
 11
343.269705
 21
53.62979
 31
0.0
210
0.0
220
0.0
230
-1.0
  0
LINE
  5
101F3
  8
SUNPO
  6
CONTINUOUS
 10
343.269705
 20
53.62979
 30
0.0
 11
344.105643
 21
53.048466
 31
0.0
210
0.0
220
0.0
230
-1.0
  0
LINE
  5
101F4
  8
SUNPO
  6
CONTINUOUS
 10
344.105643
 20
53.048466
 30
0.0
 11
345.42187
 21
54.654112
 31
0.0
210
0.0
220
0.0
230
-1.0
  0
LINE
  5
101F5
  8
SUNPO
  6
CONTINUOUS
 10
345.42187
 20
54.654112
 30
0.0
 11
345.306626
 21
56.810488
 31
0.0
210
0.0
220
0.0
230
-1.0
  0
LINE
  5
101F6
  8
SUNPO
  6
CONTINUOUS
 10
345.306626
 20
56.810488
 30
0.0
 11
347.444429
 21
56.57399
 31
0.0
210
0.0
220
0.0
230
-1.0
  0
LINE
  5
10BAB
  8
DANMEN
  6
CONTINUOUS
 10
69.350001
 20
69.299987
 30
0.0
 11
69.850001
 21
68.999997
 31
0.0
  0
LINE
  5
10BAC
  8
DANMEN
  6
CONTINUOUS
 10
67.349998
 20
68.999991
 30
0.0
 11
67.349998
 21
69.29999
 31
0.0
  0
LINE
  5
10BAD
  8
DANMEN
  6
CONTINUOUS
 10
67.349998
 20
69.29999
 30
0.0
 11
69.350001
 21
69.299992
 31
0.0
  0
LINE
  5
10BAE
  8
DANMEN
  6
CONTINUOUS
 10
64.499999
 20
68.999994
 30
0.0
 11
67.349998
 21
68.999996
 31
0.0
  0
LINE
  5
10BAF
  8
DANMEN
  6
CONTINUOUS
 10
53.299998
 20
75.000003
 30
0.0
 11
54.150001
 21
71.999992
 31
0.0
  0
LINE
  5
10BB0
  8
DANMEN
  6
CONTINUOUS
 10
54.150001
 20
71.999992
 30
0.0
 11
54.150001
 21
70.000001
 31
0.0
  0
LINE
  5
10BB1
  8
DANMEN
  6
CONTINUOUS
 10
56.650001
 20
68.999991
 30
0.0
 11
56.650001
 21
69.29999
 31
0.0
  0
LINE
  5
10BB2
  8
DANMEN
  6
CONTINUOUS
 10
56.650001
 20
69.29999
 30
0.0
 11
54.649998
 21
69.299992
 31
0.0
  0
LINE
  5
10BB3
  8
DANMEN
  6
CONTINUOUS
 10
54.150001
 20
66.999992
 30
0.0
 11
54.150001
 21
68.999999
 31
0.0
  0
LINE
  5
10BB4
  8
DANMEN
  6
CONTINUOUS
 10
54.649998
 20
69.299987
 30
0.0
 11
54.149998
 21
68.999997
 31
0.0
  0
LINE
  5
10BB5
  8
DANMEN
  6
CONTINUOUS
 10
59.5
 20
68.999994
 30
0.0
 11
56.650001
 21
68.999996
 31
0.0
  0
LINE
  5
10BB6
  8
DANMEN
  6
CONTINUOUS
 10
53.299998
 20
63.999981
 30
0.0
 11
54.150001
 21
66.999992
 31
0.0
  0
LINE
  5
10BB7
  8
DANMEN
  6
CONTINUOUS
 10
54.149998
 20
96.000002
 30
0.0
 11
54.149998
 21
96.999996
 31
0.0
  0
LINE
  5
10BB8
  8
DANMEN
  6
CONTINUOUS
 10
53.299997
 20
102.099996
 30
0.0
 11
54.149998
 21
99.099996
 31
0.0
  0
LINE
  5
10BB9
  8
DANMEN
  6
CONTINUOUS
 10
54.149998
 20
99.099996
 30
0.0
 11
54.149998
 21
98.100002
 31
0.0
  0
LINE
  5
10BBA
  8
DANMEN
  6
CONTINUOUS
 10
53.299997
 20
93.000002
 30
0.0
 11
54.149998
 21
96.000002
 31
0.0
  0
LINE
  5
10BBB
  8
DANMEN
  6
CONTINUOUS
 10
54.149998
 20
129.000002
 30
0.0
 11
54.149998
 21
129.999996
 31
0.0
  0
LINE
  5
10BBC
  8
DANMEN
  6
CONTINUOUS
 10
53.299997
 20
135.099996
 30
0.0
 11
54.149998
 21
132.099996
 31
0.0
  0
LINE
  5
10BBD
  8
DANMEN
  6
CONTINUOUS
 10
54.149998
 20
132.099996
 30
0.0
 11
54.149998
 21
131.100002
 31
0.0
  0
LINE
  5
10BBE
  8
DANMEN
  6
CONTINUOUS
 10
53.299997
 20
126.000002
 30
0.0
 11
54.149998
 21
129.000002
 31
0.0
  0
ARC
  5
10BBF
  8
DANMEN
  6
CONTINUOUS
 10
69.700001
 20
83.88869
 30
0.0
 40
1.0
 50
278.62675
 51
0.0
  0
ARC
  5
10BC0
  8
DANMEN
  6
CONTINUOUS
 10
70.349998
 20
82.400003
 30
0.0
 40
0.5
 50
180.0
 51
270.0
  0
LINE
  5
10BC1
  8
DANMEN
  6
CONTINUOUS
 10
69.849998
 20
82.900003
 30
0.0
 11
69.849998
 21
82.400003
 31
0.0
  0
LINE
  5
10BC2
  8
DANMEN
  6
CONTINUOUS
 10
59.499999
 20
69.0
 30
0.0
 11
59.499999
 21
68.050003
 31
0.0
  0
LINE
  5
10BC3
  8
DANMEN
  6
CONTINUOUS
 10
64.499999
 20
69.0
 30
0.0
 11
64.499999
 21
68.050003
 31
0.0
  0
LINE
  5
10BC4
  8
DANMEN
  6
CONTINUOUS
 10
64.499999
 20
68.050001
 30
0.0
 11
59.499999
 21
68.049999
 31
0.0
  0
LINE
  5
10BC5
  8
DANMEN
  6
CONTINUOUS
 10
69.849995
 20
70.000006
 30
0.0
 11
54.149998
 21
70.000001
 31
0.0
  0
ARC
  5
10BC6
  8
DANMEN
  6
CONTINUOUS
 10
53.649998
 20
54.5
 30
0.0
 40
0.5
 50
270.0
 51
0.0
  0
ARC
  5
10BC7
  8
DANMEN
  6
CONTINUOUS
 10
52.699998
 20
54.5
 30
0.0
 40
0.5
 50
180.0
 51
270.0
  0
LINE
  5
10BC8
  8
DANMEN
  6
CONTINUOUS
 10
52.699998
 20
54.0
 30
0.0
 11
53.649998
 21
54.0
 31
0.0
  0
LINE
  5
10BC9
  8
DANMEN
  6
CONTINUOUS
 10
69.000002
 20
147.5
 30
0.0
 11
69.000002
 21
145.0
 31
0.0
  0
ARC
  5
10BCA
  8
DANMEN
  6
CONTINUOUS
 10
69.500002
 20
147.5
 30
0.0
 40
0.5
 50
90.000018
 51
180.0
  0
LINE
  5
10BCB
  8
DANMEN
  6
CONTINUOUS
 10
69.149871
 20
145.0
 30
0.0
 11
69.000002
 21
145.0
 31
0.0
  0
LINE
  5
10BCC
  8
DANMEN
  6
CONTINUOUS
 10
69.800002
 20
146.9
 30
0.0
 11
69.647124
 21
145.447658
 31
0.0
  0
ARC
  5
10BCD
  8
DANMEN
  6
CONTINUOUS
 10
69.149871
 20
145.5
 30
0.0
 40
0.5
 50
270.0
 51
353.990994
  0
LINE
  5
10BCE
  8
DANMEN
  6
CONTINUOUS
 10
70.700002
 20
146.9
 30
0.0
 11
69.800002
 21
146.9
 31
0.0
  0
LINE
  5
10BCF
  8
DANMEN
  6
CONTINUOUS
 10
71.300002
 20
148.0
 30
0.0
 11
69.500002
 21
148.0
 31
0.0
  0
ARC
  5
10BD0
  8
DANMEN
  6
CONTINUOUS
 10
54.850129
 20
145.5
 30
0.0
 40
0.5
 50
186.009006
 51
270.0
  0
LINE
  5
10BD1
  8
DANMEN
  6
CONTINUOUS
 10
54.199998
 20
146.9
 30
0.0
 11
54.352876
 21
145.447658
 31
0.0
  0
LINE
  5
10BD2
  8
DANMEN
  6
CONTINUOUS
 10
53.299998
 20
146.9
 30
0.0
 11
54.199998
 21
146.9
 31
0.0
  0
ARC
  5
10BD3
  8
DANMEN
  6
CONTINUOUS
 10
70.350001
 20
70.500005
 30
0.0
 40
0.5
 50
0.0
 51
90.0
  0
LINE
  5
10BD4
  8
DANMEN
  6
CONTINUOUS
 10
72.899998
 20
70.100006
 30
0.0
 11
70.850001
 21
70.100005
 31
0.0
  0
LINE
  5
10BD5
  8
DANMEN
  6
CONTINUOUS
 10
70.850001
 20
70.500005
 30
0.0
 11
70.850001
 21
70.100005
 31
0.0
  0
ARC
  5
10BD6
  8
DANMEN
  6
CONTINUOUS
 10
69.700001
 20
95.011314
 30
0.0
 40
1.0
 50
0.0
 51
81.373084
  0
LINE
  5
10BD7
  8
DANMEN
  6
CONTINUOUS
 10
69.850001
 20
97.0
 30
0.0
 11
69.850001
 21
96.0
 31
0.0
  0
ARC
  5
10BD8
  8
DANMEN
  6
CONTINUOUS
 10
58.799998
 20
131.0
 30
0.0
 40
1.0
 50
270.0
 51
0.0
  0
LINE
  5
10BD9
  8
DANMEN
  6
CONTINUOUS
 10
59.799998
 20
135.9
 30
0.0
 11
59.799998
 21
131.0
 31
0.0
  0
LINE
  5
10BDA
  8
DANMEN
  6
CONTINUOUS
 10
59.799998
 20
135.9
 30
0.0
 11
70.700001
 21
135.9
 31
0.0
  0
ARC
  5
10BDB
  8
DANMEN
  6
CONTINUOUS
 10
66.199998
 20
101.9
 30
0.0
 40
1.0
 50
90.0
 51
180.0
  0
LINE
  5
10BDC
  8
DANMEN
  6
CONTINUOUS
 10
66.199998
 20
102.9
 30
0.0
 11
70.700001
 21
102.9
 31
0.0
  0
LINE
  5
10BDD
  8
DANMEN
  6
CONTINUOUS
 10
53.299998
 20
54.8
 30
0.0
 11
54.149998
 21
54.8
 31
0.0
  0
LINE
  5
10BDE
  8
DANMEN
  6
CONTINUOUS
 10
54.149998
 20
54.8
 30
0.0
 11
54.149998
 21
54.5
 31
0.0
  0
ARC
  5
10BDF
  8
DANMEN
  6
CONTINUOUS
 10
73.499995
 20
69.500007
 30
0.0
 40
0.5
 50
270.0
 51
0.0
  0
LINE
  5
10BE0
  8
DANMEN
  6
CONTINUOUS
 10
73.499995
 20
69.000007
 30
0.0
 11
71.799998
 21
69.000006
 31
0.0
  0
LINE
  5
10BE1
  8
DANMEN
  6
CONTINUOUS
 10
61.199998
 20
102.3
 30
0.0
 11
62.699998
 21
102.3
 31
0.0
  0
LINE
  5
10BE2
  8
DANMEN
  6
CONTINUOUS
 10
60.199998
 20
99.8
 30
0.0
 11
60.199998
 21
101.3
 31
0.0
  0
LINE
  5
10BE3
  8
DANMEN
  6
CONTINUOUS
 10
63.699998
 20
100.666295
 30
0.0
 11
63.699998
 21
101.3
 31
0.0
  0
LINE
  5
10BE4
  8
DANMEN
  6
CONTINUOUS
 10
61.199998
 20
98.8
 30
0.0
 11
61.833703
 21
98.8
 31
0.0
  0
LINE
  5
10BE5
  8
DANMEN
  6
CONTINUOUS
 10
60.199999
 20
97.3
 30
0.0
 11
61.833703
 21
97.3
 31
0.0
  0
LINE
  5
10BE6
  8
DANMEN
  6
CONTINUOUS
 10
65.199998
 20
100.666295
 30
0.0
 11
65.199998
 21
101.9
 31
0.0
  0
ARC
  5
10BE7
  8
DANMEN
  6
CONTINUOUS
 10
61.199998
 20
101.3
 30
0.0
 40
1.0
 50
90.0
 51
180.0
  0
ARC
  5
10BE8
  8
DANMEN
  6
CONTINUOUS
 10
62.699998
 20
101.3
 30
0.0
 40
1.0
 50
0.0
 51
90.0
  0
ARC
  5
10BE9
  8
DANMEN
  6
CONTINUOUS
 10
61.199998
 20
99.8
 30
0.0
 40
1.0
 50
180.0
 51
270.0
  0
ARC
  5
10BEA
  8
DANMEN
  6
CONTINUOUS
 10
64.449998
 20
100.666295
 30
0.0
 40
0.75
 50
180.0
 51
0.0
  0
ARC
  5
10BEB
  8
DANMEN
  6
CONTINUOUS
 10
61.833703
 20
98.05
 30
0.0
 40
0.75
 50
270.0
 51
90.0
  0
LINE
  5
10BEC
  8
DANMEN
  6
CONTINUOUS
 10
70.350001
 20
71.000005
 30
0.0
 11
69.850001
 21
71.000005
 31
0.0
  0
LINE
  5
10BED
  8
DANMEN
  6
CONTINUOUS
 10
69.850001
 20
71.000005
 30
0.0
 11
69.850001
 21
70.000005
 31
0.0
  0
ARC
  5
10BEE
  8
DANMEN
  6
CONTINUOUS
 10
67.799998
 20
97.699997
 30
0.0
 40
0.5
 50
89.999982
 51
180.000019
  0
LINE
  5
10BEF
  8
DANMEN
  6
CONTINUOUS
 10
67.299998
 20
97.699997
 30
0.0
 11
67.299998
 21
97.0
 31
0.0
  0
ARC
  5
10BF0
  8
DANMEN
  6
CONTINUOUS
 10
61.199998
 20
101.5
 30
0.0
 40
2.5
 50
89.999982
 51
180.000019
  0
ARC
  5
10BF1
  8
DANMEN
  6
CONTINUOUS
 10
73.499995
 20
82.5
 30
0.0
 40
0.5
 50
0.0
 51
89.999982
  0
ARC
  5
10BF2
  8
DANMEN
  6
CONTINUOUS
 10
59.699998
 20
136.0
 30
0.0
 40
1.0
 50
89.999982
 51
180.000019
  0
LINE
  5
10BF3
  8
DANMEN
  6
CONTINUOUS
 10
54.149998
 20
130.0
 30
0.0
 11
58.799998
 21
130.0
 31
0.0
  0
LINE
  5
10BF4
  8
DANMEN
  6
CONTINUOUS
 10
58.699998
 20
136.0
 30
0.0
 11
58.699998
 21
131.099997
 31
0.0
  0
LINE
  5
10BF5
  8
DANMEN
  6
CONTINUOUS
 10
54.149998
 20
131.099997
 30
0.0
 11
58.699998
 21
131.099997
 31
0.0
  0
LINE
  5
10BF6
  8
DANMEN
  6
CONTINUOUS
 10
60.199999
 20
97.300003
 30
0.0
 11
60.199999
 21
97.0
 31
0.0
  0
LINE
  5
10BF7
  8
DANMEN
  6
CONTINUOUS
 10
54.149998
 20
98.099997
 30
0.0
 11
58.699998
 21
98.099997
 31
0.0
  0
LINE
  5
10BF8
  8
DANMEN
  6
CONTINUOUS
 10
54.149998
 20
97.0
 30
0.0
 11
60.199999
 21
97.0
 31
0.0
  0
LINE
  5
10BF9
  8
DANMEN
  6
CONTINUOUS
 10
72.899998
 20
81.900003
 30
0.0
 11
72.899998
 21
70.100006
 31
0.0
  0
LINE
  5
10BFA
  8
DANMEN
  6
CONTINUOUS
 10
70.349998
 20
81.900003
 30
0.0
 11
72.899998
 21
81.900003
 31
0.0
  0
LINE
  5
10BFB
  8
DANMEN
  6
CONTINUOUS
 10
71.799998
 20
83.0
 30
0.0
 11
73.499995
 21
83.0
 31
0.0
  0
LINE
  5
10BFC
  8
DANMEN
  6
CONTINUOUS
 10
73.999995
 20
82.5
 30
0.0
 11
73.999995
 21
69.500007
 31
0.0
  0
LINE
  5
10BFD
  8
DANMEN
  6
CONTINUOUS
 10
53.299998
 20
63.999981
 30
0.0
 11
53.299998
 21
54.8
 31
0.0
  0
LINE
  5
10BFE
  8
DANMEN
  6
CONTINUOUS
 10
70.700001
 20
95.011314
 30
0.0
 11
70.700001
 21
83.88869
 31
0.0
  0
LINE
  5
10BFF
  8
DANMEN
  6
CONTINUOUS
 10
67.799998
 20
98.199997
 30
0.0
 11
70.700001
 21
98.199997
 31
0.0
  0
LINE
  5
10C00
  8
DANMEN
  6
CONTINUOUS
 10
67.299998
 20
97.0
 30
0.0
 11
69.850001
 21
97.0
 31
0.0
  0
LINE
  5
10C01
  8
DANMEN
  6
CONTINUOUS
 10
58.699998
 20
101.5
 30
0.0
 11
58.699998
 21
98.099997
 31
0.0
  0
LINE
  5
10C02
  8
DANMEN
  6
CONTINUOUS
 10
70.700001
 20
102.9
 30
0.0
 11
70.700001
 21
98.199997
 31
0.0
  0
LINE
  5
10C03
  8
DANMEN
  6
CONTINUOUS
 10
53.299998
 20
93.000003
 30
0.0
 11
53.299998
 21
75.000003
 31
0.0
  0
LINE
  5
10C04
  8
DANMEN
  6
CONTINUOUS
 10
61.199998
 20
104.0
 30
0.0
 11
70.700001
 21
104.0
 31
0.0
  0
LINE
  5
10C05
  8
DANMEN
  6
CONTINUOUS
 10
53.299998
 20
126.000003
 30
0.0
 11
53.299998
 21
102.099995
 31
0.0
  0
LINE
  5
10C06
  8
DANMEN
  6
CONTINUOUS
 10
70.700001
 20
135.9
 30
0.0
 11
70.700001
 21
104.0
 31
0.0
  0
LINE
  5
10C07
  8
DANMEN
  6
CONTINUOUS
 10
71.799998
 20
147.5
 30
0.0
 11
71.799998
 21
83.0
 31
0.0
  0
LINE
  5
10C08
  8
DANMEN
  6
CONTINUOUS
 10
52.199998
 20
147.5
 30
0.0
 11
52.199998
 21
54.5
 31
0.0
  0
LINE
  5
10C09
  8
DANMEN
  6
CONTINUOUS
 10
59.699998
 20
137.0
 30
0.0
 11
70.700001
 21
137.0
 31
0.0
  0
LINE
  5
10C0A
  8
DANMEN
  6
CONTINUOUS
 10
54.850129
 20
145.0
 30
0.0
 11
54.999998
 21
145.0
 31
0.0
  0
LINE
  5
10C0B
  8
DANMEN
  6
CONTINUOUS
 10
53.299998
 20
146.9
 30
0.0
 11
53.299998
 21
135.099995
 31
0.0
  0
LINE
  5
10C0C
  8
DANMEN
  6
CONTINUOUS
 10
70.700001
 20
146.9
 30
0.0
 11
70.700001
 21
137.0
 31
0.0
  0
ARC
  5
10C0D
  8
DANMEN
  6
CONTINUOUS
 10
54.499998
 20
147.5
 30
0.0
 40
0.5
 50
0.0
 51
89.999982
  0
LINE
  5
10C0E
  8
DANMEN
  6
CONTINUOUS
 10
54.999998
 20
147.5
 30
0.0
 11
54.999998
 21
145.0
 31
0.0
  0
ARC
  5
10C0F
  8
DANMEN
  6
CONTINUOUS
 10
71.299998
 20
147.5
 30
0.0
 40
0.5
 50
0.0
 51
89.999982
  0
ARC
  5
10C10
  8
DANMEN
  6
CONTINUOUS
 10
52.699998
 20
147.5
 30
0.0
 40
0.5
 50
89.999982
 51
180.000019
  0
LINE
  5
10C11
  8
DANMEN
  6
CONTINUOUS
 10
52.699998
 20
148.0
 30
0.0
 11
54.499998
 21
148.0
 31
0.0
  0
LINE
  5
10C12
  8
DANMEN
  6
CONTINUOUS
 10
69.850001
 20
69.000005
 30
0.0
 11
69.850001
 21
66.499995
 31
0.0
  0
LINE
  5
10C13
  8
DANMEN
  6
CONTINUOUS
 10
71.799998
 20
69.000006
 30
0.0
 11
71.799998
 21
54.5
 31
0.0
  0
ARC
  5
10C14
  8
DANMEN
  6
CONTINUOUS
 10
70.350001
 20
66.499995
 30
0.0
 40
0.5
 50
180.0
 51
270.0
  0
ARC
  5
10C15
  8
DANMEN
  6
CONTINUOUS
 10
70.350001
 20
57.5
 30
0.0
 40
0.5
 50
180.0
 51
270.0
  0
LINE
  5
10C16
  8
DANMEN
  6
CONTINUOUS
 10
69.850001
 20
58.0
 30
0.0
 11
69.850001
 21
57.5
 31
0.0
  0
LINE
  5
10C17
  8
DANMEN
  6
CONTINUOUS
 10
70.699998
 20
57.0
 30
0.0
 11
70.699998
 21
54.8
 31
0.0
  0
LINE
  5
10C18
  8
DANMEN
  6
CONTINUOUS
 10
70.699998
 20
58.0
 30
0.0
 11
69.850001
 21
58.0
 31
0.0
  0
LINE
  5
10C19
  8
DANMEN
  6
CONTINUOUS
 10
70.699998
 20
57.0
 30
0.0
 11
70.349998
 21
57.0
 31
0.0
  0
LINE
  5
10C1A
  8
DANMEN
  6
CONTINUOUS
 10
70.699998
 20
65.999995
 30
0.0
 11
70.350001
 21
65.999995
 31
0.0
  0
ARC
  5
10C1B
  8
DANMEN
  6
CONTINUOUS
 10
70.349998
 20
54.5
 30
0.0
 40
0.5
 50
180.0
 51
270.0
  0
ARC
  5
10C1C
  8
DANMEN
  6
CONTINUOUS
 10
71.299998
 20
54.5
 30
0.0
 40
0.5
 50
270.0
 51
0.0
  0
LINE
  5
10C1D
  8
DANMEN
  6
CONTINUOUS
 10
71.299998
 20
54.0
 30
0.0
 11
70.349998
 21
54.0
 31
0.0
  0
LINE
  5
10C1E
  8
DANMEN
  6
CONTINUOUS
 10
70.699998
 20
54.8
 30
0.0
 11
69.849998
 21
54.8
 31
0.0
  0
LINE
  5
10C1F
  8
DANMEN
  6
CONTINUOUS
 10
69.849998
 20
54.8
 30
0.0
 11
69.849998
 21
54.5
 31
0.0
  0
LINE
  5
10C20
  8
DANMEN
  6
CONTINUOUS
 10
70.699998
 20
65.999995
 30
0.0
 11
70.699998
 21
58.0
 31
0.0
  0
ENDSEC
  0
EOF
