  0
SECTION
  2
HEADER
  9
$ACADVER
  1
AC1009
  9
$INSBASE
 10
0.0
 20
0.0
 30
0.0
  9
$EXTMIN
 10
5.0
 20
5.0
 30
0.0
  9
$EXTMAX
 10
415.0
 20
292.0
 30
0.0
  9
$LIMMIN
 10
-210.0
 20
-148.5
  9
$LIMMAX
 10
210.0
 20
148.5
  9
$ORTHOMODE
 70
     0
  9
$REGENMODE
 70
     1
  9
$FILLMODE
 70
     1
  9
$QTEXTMODE
 70
     0
  9
$MIRRTEXT
 70
     1
  9
$DRAGMODE
 70
     2
  9
$LTSCALE
 40
0.5
  9
$OSMODE
 70
   255
  9
$ATTMODE
 70
     1
  9
$TEXTSIZE
 40
2.5
  9
$TRACEWID
 40
0.05
  9
$TEXTSTYLE
  7
STANDARD
  9
$CLAYER
  8
0
  9
$CELTYPE
  6
CONTINUOUS
  9
$CECOLOR
 62
   256
  9
$DIMSCALE
 40
1.0
  9
$DIMASZ
 40
2.5
  9
$DIMEXO
 40
1.5
  9
$DIMDLI
 40
3.75
  9
$DIMRND
 40
0.0
  9
$DIMDLE
 40
0.0
  9
$DIMEXE
 40
0.0
  9
$DIMTP
 40
0.0
  9
$DIMTM
 40
0.0
  9
$DIMTXT
 40
2.5
  9
$DIMCEN
 40
2.5
  9
$DIMTSZ
 40
0.0
  9
$DIMTOL
 70
     0
  9
$DIMLIM
 70
     0
  9
$DIMTIH
 70
     0
  9
$DIMTOH
 70
     0
  9
$DIMSE1
 70
     0
  9
$DIMSE2
 70
     0
  9
$DIMTAD
 70
     1
  9
$DIMZIN
 70
     8
  9
$DIMBLK
  1

  9
$DIMASO
 70
     1
  9
$DIMSHO
 70
     1
  9
$DIMPOST
  1

  9
$DIMAPOST
  1

  9
$DIMALT
 70
     0
  9
$DIMALTD
 70
     4
  9
$DIMALTF
 40
0.0394
  9
$DIMLFAC
 40
1.0
  9
$DIMTOFL
 70
     1
  9
$DIMTVP
 40
0.0
  9
$DIMTIX
 70
     0
  9
$DIMSOXD
 70
     0
  9
$DIMSAH
 70
     0
  9
$DIMBLK1
  1

  9
$DIMBLK2
  1

  9
$DIMSTYLE
  2
MXDIMSTYLE
  9
$DIMCLRD
 70
     0
  9
$DIMCLRE
 70
     0
  9
$DIMCLRT
 70
     0
  9
$DIMTFAC
 40
1.0
  9
$DIMGAP
 40
1.0
  9
$LUNITS
 70
     2
  9
$LUPREC
 70
     4
  9
$SKETCHINC
 40
0.1
  9
$FILLETRAD
 40
0.0
  9
$AUNITS
 70
     0
  9
$AUPREC
 70
     0
  9
$MENU
  1
acad
  9
$ELEVATION
 40
0.0
  9
$PELEVATION
 40
0.0
  9
$THICKNESS
 40
0.0
  9
$LIMCHECK
 70
     0
  9
$BLIPMODE
 70
     0
  9
$CHAMFERA
 40
0.0
  9
$CHAMFERB
 40
0.0
  9
$SKPOLY
 70
     0
  9
$TDCREATE
 40
2452201.694663
  9
$TDUPDATE
 40
2452201.694663
  9
$TDINDWG
 40
0.0
  9
$TDUSRTIMER
 40
0.0
  9
$USRTIMER
 70
     1
  9
$ANGBASE
 50
0.0
  9
$ANGDIR
 70
     0
  9
$PDMODE
 70
     3
  9
$PDSIZE
 40
-100.0
  9
$PLINEWID
 40
0.0
  9
$COORDS
 70
     2
  9
$SPLFRAME
 70
     0
  9
$SPLINETYPE
 70
     6
  9
$SPLINESEGS
 70
     8
  9
$ATTDIA
 70
     0
  9
$ATTREQ
 70
     1
  9
$HANDLING
 70
     1
  9
$HANDSEED
  5
E982
  9
$SURFTAB1
 70
     6
  9
$SURFTAB2
 70
     6
  9
$SURFTYPE
 70
     6
  9
$SURFU
 70
     6
  9
$SURFV
 70
     6
  9
$UCSNAME
  2

  9
$UCSORG
 10
0.0
 20
0.0
 30
0.0
  9
$UCSXDIR
 10
1.0
 20
0.0
 30
0.0
  9
$UCSYDIR
 10
0.0
 20
1.0
 30
0.0
  9
$PUCSNAME
  2

  9
$PUCSORG
 10
0.0
 20
0.0
 30
0.0
  9
$PUCSXDIR
 10
1.0
 20
0.0
 30
0.0
  9
$PUCSYDIR
 10
0.0
 20
1.0
 30
0.0
  9
$USERI1
 70
     0
  9
$USERI2
 70
     0
  9
$USERI3
 70
     0
  9
$USERI4
 70
     0
  9
$USERI5
 70
     0
  9
$USERR1
 40
0.0
  9
$USERR2
 40
0.0
  9
$USERR3
 40
0.0
  9
$USERR4
 40
0.0
  9
$USERR5
 40
0.0
  9
$WORLDVIEW
 70
     1
  9
$SHADEDGE
 70
     3
  9
$SHADEDIF
 70
    70
  9
$TILEMODE
 70
     1
  9
$MAXACTVP
 70
    16
  9
$PLIMCHECK
 70
     0
  9
$PEXTMIN
 10
1.000000E+020
 20
1.000000E+020
 30
1.000000E+020
  9
$PEXTMAX
 10
-1.000000E+020
 20
-1.000000E+020
 30
-1.000000E+020
  9
$PLIMMIN
 10
0.0
 20
0.0
  9
$PLIMMAX
 10
12.0
 20
9.0
  9
$UNITMODE
 70
     0
  9
$VISRETAIN
 70
     0
  9
$PLINEGEN
 70
     1
  9
$PSLTSCALE
 70
     0
  0
ENDSEC
  0
SECTION
  2
TABLES
  0
TABLE
  2
VPORT
 70
     2
  0
VPORT
  2
*ACTIVE
 70
     0
 10
0.0
 20
0.0
 11
1.0
 21
1.0
 12
210.015757
 22
148.501753
 13
0.0
 23
0.0
 14
1.0
 24
1.0
 15
0.0
 25
0.0
 16
0.0
 26
0.0
 36
1.0
 17
0.0
 27
0.0
 37
0.0
 40
290.142375
 41
1.803957
 42
50.0
 43
0.0
 44
0.0
 50
0.0
 51
0.0
 71
     0
 72
   100
 73
     1
 74
     0
 75
     0
 76
     0
 77
     0
 78
     0
  0
ENDTAB
  0
TABLE
  2
LTYPE
 70
     2
  0
LTYPE
  2
CONTINUOUS
 70
     0
  3
Solid line
 72
    65
 73
     0
 40
0.0
  0
LTYPE
  2
DASHED
 70
     0
  3
Dashed __ __ __ __ __ __ __ __ __ __ __ __ __ _
 72
    65
 73
     2
 40
19.05
 49
12.7
 49
-6.35
  0
ENDTAB
  0
TABLE
  2
LAYER
 70
     4
  0
LAYER
  2
0
 70
     0
 62
     7
  6
CONTINUOUS
  0
LAYER
  2
SUNPO
 70
     0
 62
     1
  6
CONTINUOUS
  0
LAYER
  2
DANMEN
 70
     0
 62
     7
  6
CONTINUOUS
  0
LAYER
  2
WAKU
 70
     0
 62
     3
  6
CONTINUOUS
  0
ENDTAB
  0
TABLE
  2
STYLE
 70
     2
  0
STYLE
  2
STANDARD
 70
     0
 40
0.0
 41
1.0
 50
0.0
 71
     0
 42
0.2
  3
txt.shx
  4
bigfont.shx
  0
STYLE
  2
MX_NOTE_STANDARD
 70
     0
 40
0.0
 41
1.0
 50
0.0
 71
     0
 42
2.5
  3
txt.shx
  4
extfont.shx
  0
ENDTAB
  0
TABLE
  2
VIEW
 70
     0
  0
ENDTAB
  0
TABLE
  2
UCS
 70
     0
  0
ENDTAB
  0
TABLE
  2
APPID
 70
     1
  0
APPID
  2
ACAD
 70
     0
  0
ENDTAB
  0
TABLE
  2
DIMSTYLE
 70
     1
  0
DIMSTYLE
  2
MXDIMSTYLE
 70
     0
  3

  4

  5

  6

  7

 40
1.0
 41
2.5
 42
1.5
 43
3.75
 44
0.0
 45
0.0
 46
0.0
 47
0.0
 48
0.0
140
2.5
141
2.5
142
0.0
143
0.0394
144
1.0
145
0.0
146
1.0
147
1.0
 71
     0
 72
     0
 73
     0
 74
     0
 75
     0
 76
     0
 77
     1
 78
     8
170
     0
171
     4
172
     1
173
     0
174
     0
175
     0
176
     0
177
     0
178
     0
  0
ENDTAB
  0
ENDSEC
  0
SECTION
  2
BLOCKS
  0
BLOCK
  8
0
  2
$MODEL_SPACE
 70
     0
 10
0.0
 20
0.0
 30
0.0
  3
$MODEL_SPACE
  1

  0
ENDBLK
  5
E8B6
  8
0
  0
BLOCK
 67
     1
  8
0
  2
$PAPER_SPACE
 70
     0
 10
0.0
 20
0.0
 30
0.0
  3
$PAPER_SPACE
  1

  0
ENDBLK
  5
E8B4
 67
     1
  8
0
  0
BLOCK
  8
0
  2
*U4
 70
     1
 10
0.0
 20
0.0
 30
0.0
  3
*U4
  1

  0
SOLID
  5
E8BE
  8
WAKU
  6
CONTINUOUS
 10
371.305142
 20
283.605291
 30
0.0
 11
370.499782
 21
283.530361
 31
0.0
 12
370.874987
 22
283.520449
 32
0.0
 13
370.874987
 23
283.520449
 33
0.0
  0
SOLID
  5
E8BF
  8
WAKU
  6
CONTINUOUS
 10
370.193309
 20
283.634664
 30
0.0
 11
370.499782
 21
283.530361
 31
0.0
 12
371.305142
 22
283.605291
 32
0.0
 13
371.305142
 23
283.605291
 33
0.0
  0
SOLID
  5
E8C0
  8
WAKU
  6
CONTINUOUS
 10
371.774448
 20
283.781773
 30
0.0
 11
370.193309
 21
283.634664
 31
0.0
 12
371.305142
 22
283.605291
 32
0.0
 13
371.305142
 23
283.605291
 33
0.0
  0
SOLID
  5
E8C1
  8
WAKU
  6
CONTINUOUS
 10
369.966824
 20
283.829526
 30
0.0
 11
370.193309
 21
283.634664
 31
0.0
 12
371.774448
 22
283.781773
 32
0.0
 13
371.774448
 23
283.781773
 33
0.0
  0
SOLID
  5
E8C2
  8
WAKU
  6
CONTINUOUS
 10
370.594177
 20
283.909498
 30
0.0
 11
369.966824
 21
283.829526
 31
0.0
 12
371.774448
 22
283.781773
 32
0.0
 13
371.774448
 23
283.781773
 33
0.0
  0
SOLID
  5
E8C3
  8
WAKU
  6
CONTINUOUS
 10
370.901294
 20
283.914863
 30
0.0
 11
370.594177
 21
283.909498
 31
0.0
 12
371.774448
 22
283.781773
 32
0.0
 13
371.774448
 23
283.781773
 33
0.0
  0
SOLID
  5
E8C4
  8
WAKU
  6
CONTINUOUS
 10
370.392927
 20
283.968568
 30
0.0
 11
369.966824
 21
283.829526
 31
0.0
 12
370.594177
 22
283.909498
 32
0.0
 13
370.594177
 23
283.909498
 33
0.0
  0
SOLID
  5
E8C5
  8
WAKU
  6
CONTINUOUS
 10
371.296984
 20
284.010368
 30
0.0
 11
370.901294
 21
283.914863
 31
0.0
 12
371.774448
 22
283.781773
 32
0.0
 13
371.774448
 23
283.781773
 33
0.0
  0
SOLID
  5
E8C6
  8
WAKU
  6
CONTINUOUS
 10
372.265666
 20
284.043411
 30
0.0
 11
371.296984
 21
284.010368
 31
0.0
 12
371.774448
 22
283.781773
 32
0.0
 13
371.774448
 23
283.781773
 33
0.0
  0
SOLID
  5
E8C7
  8
WAKU
  6
CONTINUOUS
 10
370.275177
 20
284.066476
 30
0.0
 11
369.966824
 21
283.829526
 31
0.0
 12
370.392927
 22
283.968568
 32
0.0
 13
370.392927
 23
283.968568
 33
0.0
  0
SOLID
  5
E8C8
  8
WAKU
  6
CONTINUOUS
 10
369.828646
 20
284.107791
 30
0.0
 11
369.966824
 21
283.829526
 31
0.0
 12
370.275177
 22
284.066476
 32
0.0
 13
370.275177
 23
284.066476
 33
0.0
  0
SOLID
  5
E8C9
  8
WAKU
  6
CONTINUOUS
 10
370.709458
 20
284.142397
 30
0.0
 11
369.828646
 21
284.107791
 31
0.0
 12
370.275177
 22
284.066476
 32
0.0
 13
370.275177
 23
284.066476
 33
0.0
  0
SOLID
  5
E8CA
  8
WAKU
  6
CONTINUOUS
 10
371.751882
 20
284.202798
 30
0.0
 11
371.296984
 21
284.010368
 31
0.0
 12
372.265666
 22
284.043411
 32
0.0
 13
372.265666
 23
284.043411
 33
0.0
  0
SOLID
  5
E8CB
  8
WAKU
  6
CONTINUOUS
 10
369.550381
 20
284.245969
 30
0.0
 11
369.828646
 21
284.107791
 31
0.0
 12
370.709458
 22
284.142397
 32
0.0
 13
370.709458
 23
284.142397
 33
0.0
  0
SOLID
  5
E8CC
  8
WAKU
  6
CONTINUOUS
 10
371.186428
 20
284.314625
 30
0.0
 11
369.550381
 21
284.245969
 31
0.0
 12
370.709458
 22
284.142397
 32
0.0
 13
370.709458
 23
284.142397
 33
0.0
  0
SOLID
  5
E8CD
  8
WAKU
  6
CONTINUOUS
 10
372.760756
 20
284.380595
 30
0.0
 11
371.751882
 21
284.202798
 31
0.0
 12
372.265666
 22
284.043411
 32
0.0
 13
372.265666
 23
284.043411
 33
0.0
  0
SOLID
  5
E8CE
  8
WAKU
  6
CONTINUOUS
 10
370.172911
 20
284.451856
 30
0.0
 11
369.550381
 21
284.245969
 31
0.0
 12
371.186428
 22
284.314625
 32
0.0
 13
371.186428
 23
284.314625
 33
0.0
  0
SOLID
  5
E8CF
  8
WAKU
  6
CONTINUOUS
 10
369.355518
 20
284.472454
 30
0.0
 11
369.550381
 21
284.245969
 31
0.0
 12
370.172911
 22
284.451856
 32
0.0
 13
370.172911
 23
284.451856
 33
0.0
  0
SOLID
  5
E8D0
  8
WAKU
  6
CONTINUOUS
 10
372.237497
 20
284.486117
 30
0.0
 11
371.751882
 21
284.202798
 31
0.0
 12
372.760756
 22
284.380595
 32
0.0
 13
372.760756
 23
284.380595
 33
0.0
  0
SOLID
  5
E8D1
  8
WAKU
  6
CONTINUOUS
 10
370.681395
 20
284.539195
 30
0.0
 11
370.172911
 21
284.451856
 31
0.0
 12
371.186428
 22
284.314625
 32
0.0
 13
371.186428
 23
284.314625
 33
0.0
  0
SOLID
  5
E8D2
  8
WAKU
  6
CONTINUOUS
 10
369.787305
 20
284.553935
 30
0.0
 11
369.355518
 21
284.472454
 31
0.0
 12
370.172911
 22
284.451856
 32
0.0
 13
370.172911
 23
284.451856
 33
0.0
  0
SOLID
  5
E8D3
  8
WAKU
  6
CONTINUOUS
 10
371.68777
 20
284.576545
 30
0.0
 11
370.681395
 21
284.539195
 31
0.0
 12
371.186428
 22
284.314625
 32
0.0
 13
371.186428
 23
284.314625
 33
0.0
  0
SOLID
  5
E8D4
  8
WAKU
  6
CONTINUOUS
 10
369.689155
 20
284.672435
 30
0.0
 11
369.355518
 21
284.472454
 31
0.0
 12
369.787305
 22
284.553935
 32
0.0
 13
369.787305
 23
284.553935
 33
0.0
  0
SOLID
  5
E8D5
  8
WAKU
  6
CONTINUOUS
 10
369.251215
 20
284.778928
 30
0.0
 11
369.355518
 21
284.472454
 31
0.0
 12
369.689155
 22
284.672435
 32
0.0
 13
369.689155
 23
284.672435
 33
0.0
  0
SOLID
  5
E8D6
  8
WAKU
  6
CONTINUOUS
 10
373.241532
 20
284.780941
 30
0.0
 11
372.237497
 21
284.486117
 31
0.0
 12
372.760756
 22
284.380595
 32
0.0
 13
372.760756
 23
284.380595
 33
0.0
  0
SOLID
  5
E8D7
  8
WAKU
  6
CONTINUOUS
 10
371.312263
 20
284.810332
 30
0.0
 11
370.681395
 21
284.539195
 31
0.0
 12
371.68777
 22
284.576545
 32
0.0
 13
371.68777
 23
284.576545
 33
0.0
  0
SOLID
  5
E8D8
  8
WAKU
  6
CONTINUOUS
 10
369.630358
 20
284.873087
 30
0.0
 11
369.251215
 21
284.778928
 31
0.0
 12
369.689155
 22
284.672435
 32
0.0
 13
369.689155
 23
284.672435
 33
0.0
  0
SOLID
  5
E8D9
  8
WAKU
  6
CONTINUOUS
 10
372.194232
 20
284.918099
 30
0.0
 11
371.312263
 21
284.810332
 31
0.0
 12
371.68777
 22
284.576545
 32
0.0
 13
371.68777
 23
284.576545
 33
0.0
  0
SOLID
  5
E8DA
  8
WAKU
  6
CONTINUOUS
 10
370.260168
 20
284.959969
 30
0.0
 11
369.787305
 21
284.553935
 31
0.0
 12
370.172911
 22
284.451856
 32
0.0
 13
370.172911
 23
284.451856
 33
0.0
  0
SOLID
  5
E8DB
  8
WAKU
  6
CONTINUOUS
 10
369.863139
 20
284.988189
 30
0.0
 11
369.787305
 21
284.553935
 31
0.0
 12
370.260168
 22
284.959969
 32
0.0
 13
370.260168
 23
284.959969
 33
0.0
  0
SOLID
  5
E8DC
  8
WAKU
  6
CONTINUOUS
 10
398.194006
 20
285.115385
 30
0.0
 11
397.606055
 21
283.5
 31
0.0
 12
401.913747
 22
283.5
 32
0.0
 13
401.913747
 23
283.5
 33
0.0
  0
SOLID
  5
E8DD
  8
WAKU
  6
CONTINUOUS
 10
401.913747
 20
283.5
 30
0.0
 11
401.424776
 21
285.115385
 31
0.0
 12
398.194006
 22
285.115385
 32
0.0
 13
398.194006
 23
285.115385
 33
0.0
  0
SOLID
  5
E8DE
  8
WAKU
  6
CONTINUOUS
 10
369.241303
 20
285.154132
 30
0.0
 11
369.251215
 21
284.778928
 31
0.0
 12
369.630358
 22
284.873087
 32
0.0
 13
369.630358
 23
284.873087
 33
0.0
  0
SOLID
  5
E8DF
  8
WAKU
  6
CONTINUOUS
 10
369.635696
 20
285.180404
 30
0.0
 11
369.241303
 21
285.154132
 31
0.0
 12
369.630358
 22
284.873087
 32
0.0
 13
369.630358
 23
284.873087
 33
0.0
  0
SOLID
  5
E8E0
  8
WAKU
  6
CONTINUOUS
 10
373.690335
 20
285.229744
 30
0.0
 11
372.237497
 21
284.486117
 31
0.0
 12
373.241532
 22
284.780941
 32
0.0
 13
373.241532
 23
284.780941
 33
0.0
  0
SOLID
  5
E8E1
  8
WAKU
  6
CONTINUOUS
 10
371.98994
 20
285.251431
 30
0.0
 11
371.312263
 21
284.810332
 31
0.0
 12
372.194232
 22
284.918099
 32
0.0
 13
372.194232
 23
284.918099
 33
0.0
  0
SOLID
  5
E8E2
  8
WAKU
  6
CONTINUOUS
 10
373.195965
 20
285.275232
 30
0.0
 11
372.237497
 21
284.486117
 31
0.0
 12
373.690335
 22
285.229744
 32
0.0
 13
373.690335
 23
285.229744
 33
0.0
  0
SOLID
  5
E8E3
  8
WAKU
  6
CONTINUOUS
 10
372.686363
 20
285.326171
 30
0.0
 11
371.98994
 21
285.251431
 31
0.0
 12
372.194232
 22
284.918099
 32
0.0
 13
372.194232
 23
284.918099
 33
0.0
  0
SOLID
  5
E8E4
  8
WAKU
  6
CONTINUOUS
 10
370.035293
 20
285.465154
 30
0.0
 11
369.863139
 21
284.988189
 31
0.0
 12
370.260168
 22
284.959969
 32
0.0
 13
370.260168
 23
284.959969
 33
0.0
  0
SOLID
  5
E8E5
  8
WAKU
  6
CONTINUOUS
 10
369.73149
 20
285.576021
 30
0.0
 11
369.241303
 21
285.154132
 31
0.0
 12
369.635696
 22
285.180404
 32
0.0
 13
369.635696
 23
285.180404
 33
0.0
  0
SOLID
  5
E8E6
  8
WAKU
  6
CONTINUOUS
 10
369.326146
 20
285.584287
 30
0.0
 11
369.241303
 21
285.154132
 31
0.0
 12
369.73149
 22
285.576021
 32
0.0
 13
369.73149
 23
285.576021
 33
0.0
  0
SOLID
  5
E8E7
  8
WAKU
  6
CONTINUOUS
 10
370.530712
 20
285.590875
 30
0.0
 11
370.035293
 21
285.465154
 31
0.0
 12
370.260168
 22
284.959969
 32
0.0
 13
370.260168
 23
284.959969
 33
0.0
  0
SOLID
  5
E8E8
  8
WAKU
  6
CONTINUOUS
 10
388.452208
 20
283.5
 30
0.0
 11
389.236144
 21
285.653846
 31
0.0
 12
383.851529
 22
285.653846
 32
0.0
 13
383.851529
 23
285.653846
 33
0.0
  0
SOLID
  5
E8E9
  8
WAKU
  6
CONTINUOUS
 10
383.851529
 20
285.653846
 30
0.0
 11
383.067593
 21
283.5
 31
0.0
 12
388.452208
 22
283.5
 32
0.0
 13
388.452208
 23
283.5
 33
0.0
  0
SOLID
  5
E8EA
  8
WAKU
  6
CONTINUOUS
 10
391.174606
 20
285.653846
 30
0.0
 11
390.39067
 21
283.5
 31
0.0
 12
395.452208
 22
283.5
 32
0.0
 13
395.452208
 23
283.5
 33
0.0
  0
SOLID
  5
E8EB
  8
WAKU
  6
CONTINUOUS
 10
395.452208
 20
283.5
 30
0.0
 11
395.159221
 21
285.653846
 31
0.0
 12
391.174606
 22
285.653846
 32
0.0
 13
391.174606
 23
285.653846
 33
0.0
  0
SOLID
  5
E8EC
  8
WAKU
  6
CONTINUOUS
 10
404.851529
 20
285.653846
 30
0.0
 11
404.067593
 21
283.5
 31
0.0
 12
409.452208
 22
283.5
 32
0.0
 13
409.452208
 23
283.5
 33
0.0
  0
SOLID
  5
E8ED
  8
WAKU
  6
CONTINUOUS
 10
409.452208
 20
283.5
 30
0.0
 11
409.159221
 21
285.653846
 31
0.0
 12
404.851529
 22
285.653846
 32
0.0
 13
404.851529
 23
285.653846
 33
0.0
  0
SOLID
  5
E8EE
  8
WAKU
  6
CONTINUOUS
 10
374.090681
 20
285.71052
 30
0.0
 11
373.195965
 21
285.275232
 31
0.0
 12
373.690335
 22
285.229744
 32
0.0
 13
373.690335
 23
285.229744
 33
0.0
  0
SOLID
  5
E8EF
  8
WAKU
  6
CONTINUOUS
 10
373.145266
 20
285.785089
 30
0.0
 11
371.98994
 21
285.251431
 31
0.0
 12
372.686363
 22
285.326171
 32
0.0
 13
372.686363
 23
285.326171
 33
0.0
  0
SOLID
  5
E8F0
  8
WAKU
  6
CONTINUOUS
 10
372.646296
 20
285.825506
 30
0.0
 11
371.98994
 21
285.251431
 31
0.0
 12
373.145266
 22
285.785089
 32
0.0
 13
373.145266
 23
285.785089
 33
0.0
  0
SOLID
  5
E8F1
  8
WAKU
  6
CONTINUOUS
 10
370.297156
 20
285.966509
 30
0.0
 11
370.035293
 21
285.465154
 31
0.0
 12
370.530712
 22
285.590875
 32
0.0
 13
370.530712
 23
285.590875
 33
0.0
  0
SOLID
  5
E8F2
  8
WAKU
  6
CONTINUOUS
 10
369.923519
 20
286.031028
 30
0.0
 11
369.326146
 21
285.584287
 31
0.0
 12
369.73149
 22
285.576021
 32
0.0
 13
369.73149
 23
285.576021
 33
0.0
  0
SOLID
  5
E8F3
  8
WAKU
  6
CONTINUOUS
 10
369.502627
 20
286.053593
 30
0.0
 11
369.326146
 21
285.584287
 31
0.0
 12
369.923519
 22
286.031028
 32
0.0
 13
369.923519
 23
286.031028
 33
0.0
  0
SOLID
  5
E8F4
  8
WAKU
  6
CONTINUOUS
 10
379.397145
 20
286.138462
 30
0.0
 11
378.436824
 21
283.5
 31
0.0
 12
379.513747
 22
283.5
 32
0.0
 13
379.513747
 23
283.5
 33
0.0
  0
SOLID
  5
E8F5
  8
WAKU
  6
CONTINUOUS
 10
380.493667
 20
286.192308
 30
0.0
 11
379.397145
 21
286.138462
 31
0.0
 12
379.513747
 22
283.5
 32
0.0
 13
379.513747
 23
283.5
 33
0.0
  0
SOLID
  5
E8F6
  8
WAKU
  6
CONTINUOUS
 10
382.755205
 20
286.192308
 30
0.0
 11
380.493667
 21
286.192308
 31
0.0
 12
381.775285
 22
283.5
 32
0.0
 13
381.775285
 23
283.5
 33
0.0
  0
SOLID
  5
E8F7
  8
WAKU
  6
CONTINUOUS
 10
377.155205
 20
286.192308
 30
0.0
 11
380.493667
 21
286.192308
 31
0.0
 12
382.755205
 22
286.192308
 32
0.0
 13
382.755205
 23
286.192308
 33
0.0
  0
SOLID
  5
E8F8
  8
WAKU
  6
CONTINUOUS
 10
377.155205
 20
286.192308
 30
0.0
 11
379.397145
 21
286.138462
 31
0.0
 12
380.493667
 22
286.192308
 32
0.0
 13
380.493667
 23
286.192308
 33
0.0
  0
SOLID
  5
E8F9
  8
WAKU
  6
CONTINUOUS
 10
377.155205
 20
286.192308
 30
0.0
 11
376.175285
 21
283.5
 31
0.0
 12
379.397145
 22
286.138462
 32
0.0
 13
379.397145
 23
286.138462
 33
0.0
  0
SOLID
  5
E8FA
  8
WAKU
  6
CONTINUOUS
 10
374.427865
 20
286.205609
 30
0.0
 11
373.195965
 21
285.275232
 31
0.0
 12
374.090681
 22
285.71052
 32
0.0
 13
374.090681
 23
285.71052
 33
0.0
  0
SOLID
  5
E8FB
  8
WAKU
  6
CONTINUOUS
 10
373.98505
 20
286.233718
 30
0.0
 11
373.195965
 21
285.275232
 31
0.0
 12
374.427865
 22
286.205609
 32
0.0
 13
374.427865
 23
286.205609
 33
0.0
  0
SOLID
  5
E8FC
  8
WAKU
  6
CONTINUOUS
 10
370.971896
 20
286.268471
 30
0.0
 11
370.297156
 21
285.966509
 31
0.0
 12
370.530712
 22
285.590875
 32
0.0
 13
370.530712
 23
285.590875
 33
0.0
  0
SOLID
  5
E8FD
  8
WAKU
  6
CONTINUOUS
 10
373.553316
 20
286.277229
 30
0.0
 11
372.646296
 21
285.825506
 31
0.0
 12
373.145266
 22
285.785089
 32
0.0
 13
373.145266
 23
285.785089
 33
0.0
  0
SOLID
  5
E8FE
  8
WAKU
  6
CONTINUOUS
 10
370.638671
 20
286.473
 30
0.0
 11
370.297156
 21
285.966509
 31
0.0
 12
370.971896
 22
286.268471
 32
0.0
 13
370.971896
 23
286.268471
 33
0.0
  0
SOLID
  5
E8FF
  8
WAKU
  6
CONTINUOUS
 10
373.220238
 20
286.48192
 30
0.0
 11
372.646296
 21
285.825506
 31
0.0
 12
373.553316
 22
286.277229
 32
0.0
 13
373.553316
 23
286.277229
 33
0.0
  0
SOLID
  5
E900
  8
WAKU
  6
CONTINUOUS
 10
370.207035
 20
286.51657
 30
0.0
 11
369.502627
 21
286.053593
 31
0.0
 12
369.923519
 22
286.031028
 32
0.0
 13
369.923519
 23
286.031028
 33
0.0
  0
SOLID
  5
E901
  8
WAKU
  6
CONTINUOUS
 10
369.764265
 20
286.544812
 30
0.0
 11
369.502627
 21
286.053593
 31
0.0
 12
370.207035
 22
286.51657
 32
0.0
 13
370.207035
 23
286.51657
 33
0.0
  0
SOLID
  5
E902
  8
WAKU
  6
CONTINUOUS
 10
374.689503
 20
286.696828
 30
0.0
 11
373.98505
 21
286.233718
 31
0.0
 12
374.427865
 22
286.205609
 32
0.0
 13
374.427865
 23
286.205609
 33
0.0
  0
SOLID
  5
E903
  8
WAKU
  6
CONTINUOUS
 10
374.268507
 20
286.719278
 30
0.0
 11
373.98505
 21
286.233718
 31
0.0
 12
374.689503
 22
286.696828
 32
0.0
 13
374.689503
 23
286.696828
 33
0.0
  0
SOLID
  5
E904
  8
WAKU
  6
CONTINUOUS
 10
373.894843
 20
286.783693
 30
0.0
 11
373.220238
 21
286.48192
 31
0.0
 12
373.553316
 22
286.277229
 32
0.0
 13
373.553316
 23
286.277229
 33
0.0
  0
SOLID
  5
E905
  8
WAKU
  6
CONTINUOUS
 10
371.545827
 20
286.924893
 30
0.0
 11
370.638671
 21
286.473
 31
0.0
 12
370.971896
 22
286.268471
 32
0.0
 13
370.971896
 23
286.268471
 33
0.0
  0
SOLID
  5
E906
  8
WAKU
  6
CONTINUOUS
 10
371.04672
 20
286.965174
 30
0.0
 11
370.638671
 21
286.473
 31
0.0
 12
371.545827
 22
286.924893
 32
0.0
 13
371.545827
 23
286.924893
 33
0.0
  0
SOLID
  5
E907
  8
WAKU
  6
CONTINUOUS
 10
370.101449
 20
287.039901
 30
0.0
 11
369.764265
 21
286.544812
 31
0.0
 12
370.207035
 22
286.51657
 32
0.0
 13
370.207035
 23
286.51657
 33
0.0
  0
SOLID
  5
E908
  8
WAKU
  6
CONTINUOUS
 10
373.661353
 20
287.159534
 30
0.0
 11
373.220238
 21
286.48192
 31
0.0
 12
373.894843
 22
286.783693
 32
0.0
 13
373.894843
 23
286.783693
 33
0.0
  0
SOLID
  5
E909
  8
WAKU
  6
CONTINUOUS
 10
374.865984
 20
287.166134
 30
0.0
 11
374.268507
 21
286.719278
 31
0.0
 12
374.689503
 22
286.696828
 32
0.0
 13
374.689503
 23
286.696828
 33
0.0
  0
SOLID
  5
E90A
  8
WAKU
  6
CONTINUOUS
 10
374.46071
 20
287.174248
 30
0.0
 11
374.268507
 21
286.719278
 31
0.0
 12
374.865984
 22
287.166134
 32
0.0
 13
374.865984
 23
287.166134
 33
0.0
  0
SOLID
  5
E90B
  8
WAKU
  6
CONTINUOUS
 10
374.156732
 20
287.28503
 30
0.0
 11
373.661353
 21
287.159534
 31
0.0
 12
373.894843
 22
286.783693
 32
0.0
 13
373.894843
 23
286.783693
 33
0.0
  0
SOLID
  5
E90C
  8
WAKU
  6
CONTINUOUS
 10
371.505632
 20
287.424128
 30
0.0
 11
371.04672
 21
286.965174
 31
0.0
 12
371.545827
 22
286.924893
 32
0.0
 13
371.545827
 23
286.924893
 33
0.0
  0
SOLID
  5
E90D
  8
WAKU
  6
CONTINUOUS
 10
370.996098
 20
287.475108
 30
0.0
 11
370.101449
 21
287.039901
 31
0.0
 12
370.207035
 22
286.51657
 32
0.0
 13
370.207035
 23
286.51657
 33
0.0
  0
SOLID
  5
E90E
  8
WAKU
  6
CONTINUOUS
 10
372.202181
 20
287.498991
 30
0.0
 11
371.505632
 21
287.424128
 31
0.0
 12
371.545827
 22
286.924893
 32
0.0
 13
371.545827
 23
286.924893
 33
0.0
  0
SOLID
  5
E90F
  8
WAKU
  6
CONTINUOUS
 10
370.501795
 20
287.520677
 30
0.0
 11
370.101449
 21
287.039901
 31
0.0
 12
370.996098
 22
287.475108
 32
0.0
 13
370.996098
 23
287.475108
 33
0.0
  0
SOLID
  5
E910
  8
WAKU
  6
CONTINUOUS
 10
374.556361
 20
287.569864
 30
0.0
 11
374.46071
 21
287.174248
 31
0.0
 12
374.865984
 22
287.166134
 32
0.0
 13
374.865984
 23
287.166134
 33
0.0
  0
SOLID
  5
E911
  8
WAKU
  6
CONTINUOUS
 10
393.172456
 20
287.592308
 30
0.0
 11
391.703565
 21
286.515385
 31
0.0
 12
392.780488
 22
286.515385
 32
0.0
 13
392.780488
 23
286.515385
 33
0.0
  0
SOLID
  5
E912
  8
WAKU
  6
CONTINUOUS
 10
395.864763
 20
287.592308
 30
0.0
 11
395.159221
 21
285.653846
 31
0.0
 12
395.452208
 22
283.5
 32
0.0
 13
395.452208
 23
283.5
 33
0.0
  0
SOLID
  5
E913
  8
WAKU
  6
CONTINUOUS
 10
396.941687
 20
287.592308
 30
0.0
 11
393.172456
 21
287.592308
 31
0.0
 12
395.864763
 22
287.592308
 32
0.0
 13
395.864763
 23
287.592308
 33
0.0
  0
SOLID
  5
E914
  8
WAKU
  6
CONTINUOUS
 10
396.941687
 20
287.592308
 30
0.0
 11
395.864763
 21
287.592308
 31
0.0
 12
395.452208
 22
283.5
 32
0.0
 13
395.452208
 23
283.5
 33
0.0
  0
SOLID
  5
E915
  8
WAKU
  6
CONTINUOUS
 10
392.095533
 20
287.592308
 30
0.0
 11
396.941687
 21
287.592308
 31
0.0
 12
397.749379
 22
287.592308
 32
0.0
 13
397.749379
 23
287.592308
 33
0.0
  0
SOLID
  5
E916
  8
WAKU
  6
CONTINUOUS
 10
392.095533
 20
287.592308
 30
0.0
 11
393.172456
 21
287.592308
 31
0.0
 12
396.941687
 22
287.592308
 32
0.0
 13
396.941687
 23
287.592308
 33
0.0
  0
SOLID
  5
E917
  8
WAKU
  6
CONTINUOUS
 10
392.095533
 20
287.592308
 30
0.0
 11
391.703565
 21
286.515385
 31
0.0
 12
393.172456
 22
287.592308
 32
0.0
 13
393.172456
 23
287.592308
 33
0.0
  0
SOLID
  5
E918
  8
WAKU
  6
CONTINUOUS
 10
374.950827
 20
287.596289
 30
0.0
 11
374.556361
 21
287.569864
 31
0.0
 12
374.865984
 22
287.166134
 32
0.0
 13
374.865984
 23
287.166134
 33
0.0
  0
SOLID
  5
E919
  8
WAKU
  6
CONTINUOUS
 10
374.328925
 20
287.761987
 30
0.0
 11
373.661353
 21
287.159534
 31
0.0
 12
374.156732
 22
287.28503
 32
0.0
 13
374.156732
 23
287.28503
 33
0.0
  0
SOLID
  5
E91A
  8
WAKU
  6
CONTINUOUS
 10
373.932071
 20
287.790402
 30
0.0
 11
373.661353
 21
287.159534
 31
0.0
 12
374.328925
 22
287.761987
 32
0.0
 13
374.328925
 23
287.761987
 33
0.0
  0
SOLID
  5
E91B
  8
WAKU
  6
CONTINUOUS
 10
371.997783
 20
287.832235
 30
0.0
 11
371.505632
 21
287.424128
 31
0.0
 12
372.202181
 22
287.498991
 32
0.0
 13
372.202181
 23
287.498991
 33
0.0
  0
SOLID
  5
E91C
  8
WAKU
  6
CONTINUOUS
 10
374.561802
 20
287.877253
 30
0.0
 11
374.556361
 21
287.569864
 31
0.0
 12
374.950827
 22
287.596289
 32
0.0
 13
374.950827
 23
287.596289
 33
0.0
  0
SOLID
  5
E91D
  8
WAKU
  6
CONTINUOUS
 10
372.879878
 20
287.940057
 30
0.0
 11
371.997783
 21
287.832235
 31
0.0
 12
372.202181
 22
287.498991
 32
0.0
 13
372.202181
 23
287.498991
 33
0.0
  0
SOLID
  5
E91E
  8
WAKU
  6
CONTINUOUS
 10
370.950599
 20
287.96948
 30
0.0
 11
370.501795
 21
287.520677
 31
0.0
 12
370.996098
 22
287.475108
 32
0.0
 13
370.996098
 23
287.475108
 33
0.0
  0
SOLID
  5
E91F
  8
WAKU
  6
CONTINUOUS
 10
374.940915
 20
287.971493
 30
0.0
 11
374.561802
 21
287.877253
 31
0.0
 12
374.950827
 22
287.596289
 32
0.0
 13
374.950827
 23
287.596289
 33
0.0
  0
SOLID
  5
E920
  8
WAKU
  6
CONTINUOUS
 10
374.502951
 20
288.077918
 30
0.0
 11
374.561802
 21
287.877253
 31
0.0
 12
374.940915
 22
287.971493
 32
0.0
 13
374.940915
 23
287.971493
 33
0.0
  0
SOLID
  5
E921
  8
WAKU
  6
CONTINUOUS
 10
408.513463
 20
286.838462
 30
0.0
 11
408.983824
 21
288.130769
 31
0.0
 12
405.753055
 22
288.130769
 32
0.0
 13
405.753055
 23
288.130769
 33
0.0
  0
SOLID
  5
E922
  8
WAKU
  6
CONTINUOUS
 10
405.753055
 20
288.130769
 30
0.0
 11
405.282694
 21
286.838462
 31
0.0
 12
408.513463
 22
286.838462
 32
0.0
 13
408.513463
 23
286.838462
 33
0.0
  0
SOLID
  5
E923
  8
WAKU
  6
CONTINUOUS
 10
372.504269
 20
288.173821
 30
0.0
 11
371.997783
 21
287.832235
 31
0.0
 12
372.879878
 22
287.940057
 32
0.0
 13
372.879878
 23
287.940057
 33
0.0
  0
SOLID
  5
E924
  8
WAKU
  6
CONTINUOUS
 10
374.40481
 20
288.196249
 30
0.0
 11
373.932071
 21
287.790402
 31
0.0
 12
374.328925
 22
287.761987
 32
0.0
 13
374.328925
 23
287.761987
 33
0.0
  0
SOLID
  5
E925
  8
WAKU
  6
CONTINUOUS
 10
374.40481
 20
288.196249
 30
0.0
 11
374.502951
 21
288.077918
 31
0.0
 12
374.940915
 22
287.971493
 32
0.0
 13
374.940915
 23
287.971493
 33
0.0
  0
SOLID
  5
E926
  8
WAKU
  6
CONTINUOUS
 10
373.510738
 20
288.21124
 30
0.0
 11
372.504269
 21
288.173821
 31
0.0
 12
372.879878
 22
287.940057
 32
0.0
 13
372.879878
 23
287.940057
 33
0.0
  0
SOLID
  5
E927
  8
WAKU
  6
CONTINUOUS
 10
371.954587
 20
288.264284
 30
0.0
 11
370.950599
 21
287.96948
 31
0.0
 12
370.996098
 22
287.475108
 32
0.0
 13
370.996098
 23
287.475108
 33
0.0
  0
SOLID
  5
E928
  8
WAKU
  6
CONTINUOUS
 10
374.836612
 20
288.277967
 30
0.0
 11
374.40481
 21
288.196249
 31
0.0
 12
374.940915
 22
287.971493
 32
0.0
 13
374.940915
 23
287.971493
 33
0.0
  0
SOLID
  5
E929
  8
WAKU
  6
CONTINUOUS
 10
374.019229
 20
288.298569
 30
0.0
 11
372.504269
 21
288.173821
 31
0.0
 12
373.510738
 22
288.21124
 32
0.0
 13
373.510738
 23
288.21124
 33
0.0
  0
SOLID
  5
E92A
  8
WAKU
  6
CONTINUOUS
 10
374.019229
 20
288.298569
 30
0.0
 11
374.40481
 21
288.196249
 31
0.0
 12
374.836612
 22
288.277967
 32
0.0
 13
374.836612
 23
288.277967
 33
0.0
  0
SOLID
  5
E92B
  8
WAKU
  6
CONTINUOUS
 10
374.019229
 20
288.298569
 30
0.0
 11
373.932071
 21
287.790402
 31
0.0
 12
374.40481
 22
288.196249
 32
0.0
 13
374.40481
 23
288.196249
 33
0.0
  0
SOLID
  5
E92C
  8
WAKU
  6
CONTINUOUS
 10
371.431374
 20
288.369826
 30
0.0
 11
370.950599
 21
287.96948
 31
0.0
 12
371.954587
 22
288.264284
 32
0.0
 13
371.954587
 23
288.264284
 33
0.0
  0
SOLID
  5
E92D
  8
WAKU
  6
CONTINUOUS
 10
373.005639
 20
288.435768
 30
0.0
 11
372.504269
 21
288.173821
 31
0.0
 12
374.019229
 22
288.298569
 32
0.0
 13
374.019229
 23
288.298569
 33
0.0
  0
SOLID
  5
E92E
  8
WAKU
  6
CONTINUOUS
 10
374.641749
 20
288.504452
 30
0.0
 11
373.005639
 21
288.435768
 31
0.0
 12
374.019229
 22
288.298569
 32
0.0
 13
374.019229
 23
288.298569
 33
0.0
  0
SOLID
  5
E92F
  8
WAKU
  6
CONTINUOUS
 10
374.641749
 20
288.504452
 30
0.0
 11
374.019229
 21
288.298569
 31
0.0
 12
374.836612
 22
288.277967
 32
0.0
 13
374.836612
 23
288.277967
 33
0.0
  0
SOLID
  5
E930
  8
WAKU
  6
CONTINUOUS
 10
372.440235
 20
288.547585
 30
0.0
 11
371.431374
 21
288.369826
 31
0.0
 12
371.954587
 22
288.264284
 32
0.0
 13
371.954587
 23
288.264284
 33
0.0
  0
SOLID
  5
E931
  8
WAKU
  6
CONTINUOUS
 10
373.482636
 20
288.608014
 30
0.0
 11
373.005639
 21
288.435768
 31
0.0
 12
374.641749
 22
288.504452
 32
0.0
 13
374.641749
 23
288.504452
 33
0.0
  0
SOLID
  5
E932
  8
WAKU
  6
CONTINUOUS
 10
374.363484
 20
288.64263
 30
0.0
 11
373.482636
 21
288.608014
 31
0.0
 12
374.641749
 22
288.504452
 32
0.0
 13
374.641749
 23
288.504452
 33
0.0
  0
SOLID
  5
E933
  8
WAKU
  6
CONTINUOUS
 10
373.916941
 20
288.683944
 30
0.0
 11
373.482636
 21
288.608014
 31
0.0
 12
374.363484
 22
288.64263
 32
0.0
 13
374.363484
 23
288.64263
 33
0.0
  0
SOLID
  5
E934
  8
WAKU
  6
CONTINUOUS
 10
371.926464
 20
288.70701
 30
0.0
 11
371.431374
 21
288.369826
 31
0.0
 12
372.440235
 22
288.547585
 32
0.0
 13
372.440235
 23
288.547585
 33
0.0
  0
SOLID
  5
E935
  8
WAKU
  6
CONTINUOUS
 10
372.89514
 20
288.740065
 30
0.0
 11
371.926464
 21
288.70701
 31
0.0
 12
372.440235
 22
288.547585
 32
0.0
 13
372.440235
 23
288.547585
 33
0.0
  0
SOLID
  5
E936
  8
WAKU
  6
CONTINUOUS
 10
381.524851
 20
288.776923
 30
0.0
 11
377.155205
 21
286.192308
 31
0.0
 12
382.755205
 22
286.192308
 32
0.0
 13
382.755205
 23
286.192308
 33
0.0
  0
SOLID
  5
E937
  8
WAKU
  6
CONTINUOUS
 10
380.311313
 20
288.776923
 30
0.0
 11
381.524851
 21
288.776923
 31
0.0
 12
383.695928
 22
288.776923
 32
0.0
 13
383.695928
 23
288.776923
 33
0.0
  0
SOLID
  5
E938
  8
WAKU
  6
CONTINUOUS
 10
380.311313
 20
288.776923
 30
0.0
 11
377.155205
 21
286.192308
 31
0.0
 12
381.524851
 22
288.776923
 32
0.0
 13
381.524851
 23
288.776923
 33
0.0
  0
SOLID
  5
E939
  8
WAKU
  6
CONTINUOUS
 10
373.799148
 20
288.781929
 30
0.0
 11
373.916941
 21
288.683944
 31
0.0
 12
374.363484
 22
288.64263
 32
0.0
 13
374.363484
 23
288.64263
 33
0.0
  0
SOLID
  5
E93A
  8
WAKU
  6
CONTINUOUS
 10
373.290857
 20
288.835581
 30
0.0
 11
371.926464
 21
288.70701
 31
0.0
 12
372.89514
 22
288.740065
 32
0.0
 13
372.89514
 23
288.740065
 33
0.0
  0
SOLID
  5
E93B
  8
WAKU
  6
CONTINUOUS
 10
373.597996
 20
288.840902
 30
0.0
 11
373.799148
 21
288.781929
 31
0.0
 12
374.363484
 22
288.64263
 32
0.0
 13
374.363484
 23
288.64263
 33
0.0
  0
SOLID
  5
E93C
  8
WAKU
  6
CONTINUOUS
 10
401.258881
 20
286.730769
 30
0.0
 11
402.042817
 21
288.884615
 31
0.0
 12
400.965894
 22
288.884615
 32
0.0
 13
400.965894
 23
288.884615
 33
0.0
  0
SOLID
  5
E93D
  8
WAKU
  6
CONTINUOUS
 10
400.965894
 20
288.884615
 30
0.0
 11
400.181958
 21
286.730769
 31
0.0
 12
401.258881
 22
286.730769
 32
0.0
 13
401.258881
 23
286.730769
 33
0.0
  0
SOLID
  5
E93E
  8
WAKU
  6
CONTINUOUS
 10
401.424776
 20
285.115385
 30
0.0
 11
403.873587
 21
288.884615
 31
0.0
 12
402.796663
 22
288.884615
 32
0.0
 13
402.796663
 23
288.884615
 33
0.0
  0
SOLID
  5
E93F
  8
WAKU
  6
CONTINUOUS
 10
403.873587
 20
288.884615
 30
0.0
 11
401.424776
 21
285.115385
 31
0.0
 12
401.913747
 22
283.5
 32
0.0
 13
401.913747
 23
283.5
 33
0.0
  0
SOLID
  5
E940
  8
WAKU
  6
CONTINUOUS
 10
399.858881
 20
286.730769
 30
0.0
 11
400.642817
 21
288.884615
 31
0.0
 12
399.565894
 22
288.884615
 32
0.0
 13
399.565894
 23
288.884615
 33
0.0
  0
SOLID
  5
E941
  8
WAKU
  6
CONTINUOUS
 10
399.565894
 20
288.884615
 30
0.0
 11
398.781958
 21
286.730769
 31
0.0
 12
399.858881
 22
286.730769
 32
0.0
 13
399.858881
 23
286.730769
 33
0.0
  0
SOLID
  5
E942
  8
WAKU
  6
CONTINUOUS
 10
374.225306
 20
288.920895
 30
0.0
 11
373.597996
 21
288.840902
 31
0.0
 12
374.363484
 22
288.64263
 32
0.0
 13
374.363484
 23
288.64263
 33
0.0
  0
SOLID
  5
E943
  8
WAKU
  6
CONTINUOUS
 10
372.417683
 20
288.968648
 30
0.0
 11
373.597996
 21
288.840902
 31
0.0
 12
374.225306
 22
288.920895
 32
0.0
 13
374.225306
 23
288.920895
 33
0.0
  0
SOLID
  5
E944
  8
WAKU
  6
CONTINUOUS
 10
372.417683
 20
288.968648
 30
0.0
 11
373.290857
 21
288.835581
 31
0.0
 12
373.597996
 22
288.840902
 32
0.0
 13
373.597996
 23
288.840902
 33
0.0
  0
SOLID
  5
E945
  8
WAKU
  6
CONTINUOUS
 10
372.417683
 20
288.968648
 30
0.0
 11
371.926464
 21
288.70701
 31
0.0
 12
373.290857
 22
288.835581
 32
0.0
 13
373.290857
 23
288.835581
 33
0.0
  0
SOLID
  5
E946
  8
WAKU
  6
CONTINUOUS
 10
373.998821
 20
289.115757
 30
0.0
 11
372.417683
 21
288.968648
 31
0.0
 12
374.225306
 22
288.920895
 32
0.0
 13
374.225306
 23
288.920895
 33
0.0
  0
SOLID
  5
E947
  8
WAKU
  6
CONTINUOUS
 10
372.886988
 20
289.145129
 30
0.0
 11
372.417683
 21
288.968648
 31
0.0
 12
373.998821
 22
289.115757
 32
0.0
 13
373.998821
 23
289.115757
 33
0.0
  0
SOLID
  5
E948
  8
WAKU
  6
CONTINUOUS
 10
398.337331
 20
289.207692
 30
0.0
 11
391.28784
 21
287.592308
 31
0.0
 12
392.095533
 22
287.592308
 32
0.0
 13
392.095533
 23
287.592308
 33
0.0
  0
SOLID
  5
E949
  8
WAKU
  6
CONTINUOUS
 10
398.337331
 20
289.207692
 30
0.0
 11
392.095533
 21
287.592308
 31
0.0
 12
397.749379
 22
287.592308
 32
0.0
 13
397.749379
 23
287.592308
 33
0.0
  0
SOLID
  5
E94A
  8
WAKU
  6
CONTINUOUS
 10
391.28784
 20
287.592308
 30
0.0
 11
398.337331
 21
289.207692
 31
0.0
 12
397.529638
 22
289.207692
 32
0.0
 13
397.529638
 23
289.207692
 33
0.0
  0
SOLID
  5
E94B
  8
WAKU
  6
CONTINUOUS
 10
391.875792
 20
289.207692
 30
0.0
 11
391.28784
 21
287.592308
 31
0.0
 12
397.529638
 22
289.207692
 32
0.0
 13
397.529638
 23
289.207692
 33
0.0
  0
SOLID
  5
E94C
  8
WAKU
  6
CONTINUOUS
 10
397.529638
 20
289.207692
 30
0.0
 11
392.683485
 21
289.207692
 31
0.0
 12
391.875792
 22
289.207692
 32
0.0
 13
391.875792
 23
289.207692
 33
0.0
  0
SOLID
  5
E94D
  8
WAKU
  6
CONTINUOUS
 10
393.760408
 20
289.207692
 30
0.0
 11
392.683485
 21
289.207692
 31
0.0
 12
397.529638
 22
289.207692
 32
0.0
 13
397.529638
 23
289.207692
 33
0.0
  0
SOLID
  5
E94E
  8
WAKU
  6
CONTINUOUS
 10
397.529638
 20
289.207692
 30
0.0
 11
396.452715
 21
289.207692
 31
0.0
 12
393.760408
 22
289.207692
 32
0.0
 13
393.760408
 23
289.207692
 33
0.0
  0
SOLID
  5
E94F
  8
WAKU
  6
CONTINUOUS
 10
373.692348
 20
289.22006
 30
0.0
 11
372.886988
 21
289.145129
 31
0.0
 12
373.998821
 22
289.115757
 32
0.0
 13
373.998821
 23
289.115757
 33
0.0
  0
SOLID
  5
E950
  8
WAKU
  6
CONTINUOUS
 10
373.317143
 20
289.229972
 30
0.0
 11
372.886988
 21
289.145129
 31
0.0
 12
373.692348
 22
289.22006
 32
0.0
 13
373.692348
 23
289.22006
 33
0.0
  0
SOLID
  5
E951
  8
WAKU
  6
CONTINUOUS
 10
367.971276
 20
286.222222
 30
0.0
 11
372.249053
 21
290.5
 31
0.0
 12
367.971276
 22
290.5
 32
0.0
 13
367.971276
 23
290.5
 33
0.0
  0
SOLID
  5
E952
  8
WAKU
  6
CONTINUOUS
 10
409.219005
 20
288.776923
 30
0.0
 11
409.846154
 21
290.5
 31
0.0
 12
406.615385
 22
290.5
 32
0.0
 13
406.615385
 23
290.5
 33
0.0
  0
SOLID
  5
E953
  8
WAKU
  6
CONTINUOUS
 10
406.615385
 20
290.5
 30
0.0
 11
405.988236
 21
288.776923
 31
0.0
 12
409.219005
 22
288.776923
 32
0.0
 13
409.219005
 23
288.776923
 33
0.0
  0
SOLID
  5
E954
  8
WAKU
  6
CONTINUOUS
 10
409.159221
 20
285.653846
 30
0.0
 11
412.0
 21
290.5
 31
0.0
 12
410.923077
 22
290.5
 32
0.0
 13
410.923077
 23
290.5
 33
0.0
  0
SOLID
  5
E955
  8
WAKU
  6
CONTINUOUS
 10
412.0
 20
290.5
 30
0.0
 11
409.159221
 21
285.653846
 31
0.0
 12
409.452208
 22
283.5
 32
0.0
 13
409.452208
 23
283.5
 33
0.0
  0
SOLID
  5
E956
  8
WAKU
  6
CONTINUOUS
 10
378.095928
 20
288.776923
 30
0.0
 11
384.323077
 21
290.5
 31
0.0
 12
378.723077
 22
290.5
 32
0.0
 13
378.723077
 23
290.5
 33
0.0
  0
SOLID
  5
E957
  8
WAKU
  6
CONTINUOUS
 10
384.323077
 20
290.5
 30
0.0
 11
378.095928
 21
288.776923
 31
0.0
 12
380.311313
 22
288.776923
 32
0.0
 13
380.311313
 23
288.776923
 33
0.0
  0
SOLID
  5
E958
  8
WAKU
  6
CONTINUOUS
 10
384.323077
 20
290.5
 30
0.0
 11
380.311313
 21
288.776923
 31
0.0
 12
383.695928
 22
288.776923
 32
0.0
 13
383.695928
 23
288.776923
 33
0.0
  0
SOLID
  5
E959
  8
WAKU
  6
CONTINUOUS
 10
390.372851
 20
288.776923
 30
0.0
 11
391.0
 21
290.5
 31
0.0
 12
385.615385
 22
290.5
 32
0.0
 13
385.615385
 23
290.5
 33
0.0
  0
SOLID
  5
E95A
  8
WAKU
  6
CONTINUOUS
 10
385.615385
 20
290.5
 30
0.0
 11
384.988236
 21
288.776923
 31
0.0
 12
390.372851
 22
288.776923
 32
0.0
 13
390.372851
 23
288.776923
 33
0.0
  0
SOLID
  5
E95B
  8
WAKU
  6
CONTINUOUS
 10
393.760408
 20
289.207692
 30
0.0
 11
394.230769
 21
290.5
 31
0.0
 12
393.153846
 22
290.5
 32
0.0
 13
393.153846
 23
290.5
 33
0.0
  0
SOLID
  5
E95C
  8
WAKU
  6
CONTINUOUS
 10
393.153846
 20
290.5
 30
0.0
 11
392.683485
 21
289.207692
 31
0.0
 12
393.760408
 22
289.207692
 32
0.0
 13
393.760408
 23
289.207692
 33
0.0
  0
SOLID
  5
E95D
  8
WAKU
  6
CONTINUOUS
 10
396.452715
 20
289.207692
 30
0.0
 11
398.0
 21
290.5
 31
0.0
 12
396.923077
 22
290.5
 32
0.0
 13
396.923077
 23
290.5
 33
0.0
  0
SOLID
  5
E95E
  8
WAKU
  6
CONTINUOUS
 10
398.0
 20
290.5
 30
0.0
 11
396.452715
 21
289.207692
 31
0.0
 12
397.529638
 22
289.207692
 32
0.0
 13
397.529638
 23
289.207692
 33
0.0
  0
ENDBLK
  5
E960
  8
0
  0
ENDSEC
  0
SECTION
  2
ENTITIES
  0
LINE
  5
43
  8
WAKU
 10
415.0
 20
292.0
 30
0.0
 11
415.0
 21
5.0
 31
0.0
  0
LINE
  5
46
  8
WAKU
 10
5.0
 20
292.0
 30
0.0
 11
5.0
 21
5.0
 31
0.0
  0
LINE
  5
55
  8
WAKU
 10
5.0
 20
5.0
 30
0.0
 11
415.0
 21
5.0
 31
0.0
  0
LINE
  5
571
  8
WAKU
 10
5.0
 20
292.0
 30
0.0
 11
415.0
 21
292.0
 31
0.0
  0
LINE
  5
572
  8
WAKU
 10
5.0
 20
282.0
 30
0.0
 11
415.0
 21
282.0
 31
0.0
  0
LINE
  5
CBC
  8
WAKU
  6
CONTINUOUS
 10
393.760408
 20
289.207692
 30
0.0
 11
396.452715
 21
289.207692
 31
0.0
  0
LINE
  5
CBD
  8
WAKU
  6
CONTINUOUS
 10
393.172456
 20
287.592308
 30
0.0
 11
395.864763
 21
287.592308
 31
0.0
  0
LINE
  5
CBE
  8
WAKU
  6
CONTINUOUS
 10
390.39067
 20
283.5
 30
0.0
 11
395.452208
 21
283.5
 31
0.0
  0
LINE
  5
CBF
  8
WAKU
  6
CONTINUOUS
 10
395.159221
 20
285.653846
 30
0.0
 11
395.864763
 21
287.592308
 31
0.0
  0
LINE
  5
CC0
  8
WAKU
  6
CONTINUOUS
 10
367.971276
 20
290.5
 30
0.0
 11
372.249053
 21
290.5
 31
0.0
  0
LINE
  5
CC1
  8
WAKU
  6
CONTINUOUS
 10
367.971276
 20
286.222222
 30
0.0
 11
372.249053
 21
290.5
 31
0.0
  0
LINE
  5
CC2
  8
WAKU
  6
CONTINUOUS
 10
367.971276
 20
290.5
 30
0.0
 11
367.971276
 21
286.222222
 31
0.0
  0
LINE
  5
CC3
  8
WAKU
  6
CONTINUOUS
 10
381.524851
 20
288.776923
 30
0.0
 11
383.695928
 21
288.776923
 31
0.0
  0
LINE
  5
CC4
  8
WAKU
  6
CONTINUOUS
 10
378.723077
 20
290.5
 30
0.0
 11
384.323077
 21
290.5
 31
0.0
  0
LINE
  5
CC5
  8
WAKU
  6
CONTINUOUS
 10
380.311313
 20
288.776923
 30
0.0
 11
377.155205
 21
286.192308
 31
0.0
  0
LINE
  5
CC6
  8
WAKU
  6
CONTINUOUS
 10
381.524851
 20
288.776923
 30
0.0
 11
382.755205
 21
286.192308
 31
0.0
  0
LINE
  5
CC7
  8
WAKU
  6
CONTINUOUS
 10
376.175285
 20
283.5
 30
0.0
 11
377.155205
 21
286.192308
 31
0.0
  0
LINE
  5
CC8
  8
WAKU
  6
CONTINUOUS
 10
379.397145
 20
286.138462
 30
0.0
 11
376.175285
 21
283.5
 31
0.0
  0
LINE
  5
CC9
  8
WAKU
  6
CONTINUOUS
 10
381.775285
 20
283.5
 30
0.0
 11
382.755205
 21
286.192308
 31
0.0
  0
LINE
  5
CCA
  8
WAKU
  6
CONTINUOUS
 10
380.493667
 20
286.192308
 30
0.0
 11
381.775285
 21
283.5
 31
0.0
  0
LINE
  5
CCB
  8
WAKU
  6
CONTINUOUS
 10
379.513747
 20
283.5
 30
0.0
 11
380.493667
 21
286.192308
 31
0.0
  0
LINE
  5
CCC
  8
WAKU
  6
CONTINUOUS
 10
378.436824
 20
283.5
 30
0.0
 11
379.513747
 21
283.5
 31
0.0
  0
LINE
  5
CCD
  8
WAKU
  6
CONTINUOUS
 10
378.436824
 20
283.5
 30
0.0
 11
379.397145
 21
286.138462
 31
0.0
  0
LINE
  5
CCE
  8
WAKU
  6
CONTINUOUS
 10
378.095928
 20
288.776923
 30
0.0
 11
380.311313
 21
288.776923
 31
0.0
  0
LINE
  5
CCF
  8
WAKU
  6
CONTINUOUS
 10
378.723077
 20
290.5
 30
0.0
 11
378.095928
 21
288.776923
 31
0.0
  0
LINE
  5
CD0
  8
WAKU
  6
CONTINUOUS
 10
392.780488
 20
286.515385
 30
0.0
 11
393.172456
 21
287.592308
 31
0.0
  0
LINE
  5
CD1
  8
WAKU
  6
CONTINUOUS
 10
391.703565
 20
286.515385
 30
0.0
 11
392.095533
 21
287.592308
 31
0.0
  0
LINE
  5
CD2
  8
WAKU
  6
CONTINUOUS
 10
388.452208
 20
283.5
 30
0.0
 11
389.236144
 21
285.653846
 31
0.0
  0
LINE
  5
CD3
  8
WAKU
  6
CONTINUOUS
 10
383.851529
 20
285.653846
 30
0.0
 11
389.236144
 21
285.653846
 31
0.0
  0
LINE
  5
CD4
  8
WAKU
  6
CONTINUOUS
 10
383.067593
 20
283.5
 30
0.0
 11
383.851529
 21
285.653846
 31
0.0
  0
LINE
  5
CD5
  8
WAKU
  6
CONTINUOUS
 10
383.067593
 20
283.5
 30
0.0
 11
388.452208
 21
283.5
 31
0.0
  0
LINE
  5
CD6
  8
WAKU
  6
CONTINUOUS
 10
391.174606
 20
285.653846
 30
0.0
 11
395.159221
 21
285.653846
 31
0.0
  0
LINE
  5
CD7
  8
WAKU
  6
CONTINUOUS
 10
391.703565
 20
286.515385
 30
0.0
 11
392.780488
 21
286.515385
 31
0.0
  0
LINE
  5
CD8
  8
WAKU
  6
CONTINUOUS
 10
390.39067
 20
283.5
 30
0.0
 11
391.174606
 21
285.653846
 31
0.0
  0
LINE
  5
CD9
  8
WAKU
  6
CONTINUOUS
 10
384.988236
 20
288.776923
 30
0.0
 11
390.372851
 21
288.776923
 31
0.0
  0
LINE
  5
CDA
  8
WAKU
  6
CONTINUOUS
 10
385.615385
 20
290.5
 30
0.0
 11
391.0
 21
290.5
 31
0.0
  0
LINE
  5
CDB
  8
WAKU
  6
CONTINUOUS
 10
384.988236
 20
288.776923
 30
0.0
 11
385.615385
 21
290.5
 31
0.0
  0
LINE
  5
CDC
  8
WAKU
  6
CONTINUOUS
 10
384.323077
 20
290.5
 30
0.0
 11
383.695928
 21
288.776923
 31
0.0
  0
LINE
  5
CDD
  8
WAKU
  6
CONTINUOUS
 10
393.153846
 20
290.5
 30
0.0
 11
394.230769
 21
290.5
 31
0.0
  0
LINE
  5
CDE
  8
WAKU
  6
CONTINUOUS
 10
393.760408
 20
289.207692
 30
0.0
 11
394.230769
 21
290.5
 31
0.0
  0
LINE
  5
CDF
  8
WAKU
  6
CONTINUOUS
 10
391.875792
 20
289.207692
 30
0.0
 11
392.683485
 21
289.207692
 31
0.0
  0
LINE
  5
CE0
  8
WAKU
  6
CONTINUOUS
 10
391.28784
 20
287.592308
 30
0.0
 11
392.095533
 21
287.592308
 31
0.0
  0
LINE
  5
CE1
  8
WAKU
  6
CONTINUOUS
 10
391.28784
 20
287.592308
 30
0.0
 11
391.875792
 21
289.207692
 31
0.0
  0
LINE
  5
CE2
  8
WAKU
  6
CONTINUOUS
 10
392.683485
 20
289.207692
 30
0.0
 11
393.153846
 21
290.5
 31
0.0
  0
LINE
  5
CE3
  8
WAKU
  6
CONTINUOUS
 10
390.372851
 20
288.776923
 30
0.0
 11
391.0
 21
290.5
 31
0.0
  0
LINE
  5
CE4
  8
WAKU
  6
CONTINUOUS
 10
405.753055
 20
288.130769
 30
0.0
 11
408.983824
 21
288.130769
 31
0.0
  0
LINE
  5
CE5
  8
WAKU
  6
CONTINUOUS
 10
405.282694
 20
286.838462
 30
0.0
 11
408.513463
 21
286.838462
 31
0.0
  0
LINE
  5
CE6
  8
WAKU
  6
CONTINUOUS
 10
409.452208
 20
283.5
 30
0.0
 11
404.067593
 21
283.5
 31
0.0
  0
LINE
  5
CE7
  8
WAKU
  6
CONTINUOUS
 10
404.851529
 20
285.653846
 30
0.0
 11
409.159221
 21
285.653846
 31
0.0
  0
LINE
  5
CE8
  8
WAKU
  6
CONTINUOUS
 10
405.988236
 20
288.776923
 30
0.0
 11
409.219005
 21
288.776923
 31
0.0
  0
LINE
  5
CE9
  8
WAKU
  6
CONTINUOUS
 10
406.615385
 20
290.5
 30
0.0
 11
409.846154
 21
290.5
 31
0.0
  0
LINE
  5
CEA
  8
WAKU
  6
CONTINUOUS
 10
398.781958
 20
286.730769
 30
0.0
 11
399.565894
 21
288.884615
 31
0.0
  0
LINE
  5
CEB
  8
WAKU
  6
CONTINUOUS
 10
400.181958
 20
286.730769
 30
0.0
 11
400.965894
 21
288.884615
 31
0.0
  0
LINE
  5
CEC
  8
WAKU
  6
CONTINUOUS
 10
399.858881
 20
286.730769
 30
0.0
 11
400.642817
 21
288.884615
 31
0.0
  0
LINE
  5
CED
  8
WAKU
  6
CONTINUOUS
 10
401.258881
 20
286.730769
 30
0.0
 11
402.042817
 21
288.884615
 31
0.0
  0
LINE
  5
CEE
  8
WAKU
  6
CONTINUOUS
 10
401.913747
 20
283.5
 30
0.0
 11
403.873587
 21
288.884615
 31
0.0
  0
LINE
  5
CEF
  8
WAKU
  6
CONTINUOUS
 10
401.424776
 20
285.115385
 30
0.0
 11
402.796663
 21
288.884615
 31
0.0
  0
LINE
  5
CF0
  8
WAKU
  6
CONTINUOUS
 10
395.452208
 20
283.5
 30
0.0
 11
396.941687
 21
287.592308
 31
0.0
  0
LINE
  5
CF1
  8
WAKU
  6
CONTINUOUS
 10
397.606055
 20
283.5
 30
0.0
 11
401.913747
 21
283.5
 31
0.0
  0
LINE
  5
CF2
  8
WAKU
  6
CONTINUOUS
 10
398.781958
 20
286.730769
 30
0.0
 11
399.858881
 21
286.730769
 31
0.0
  0
LINE
  5
CF3
  8
WAKU
  6
CONTINUOUS
 10
398.194006
 20
285.115385
 30
0.0
 11
401.424776
 21
285.115385
 31
0.0
  0
LINE
  5
CF4
  8
WAKU
  6
CONTINUOUS
 10
397.606055
 20
283.5
 30
0.0
 11
398.194006
 21
285.115385
 31
0.0
  0
LINE
  5
CF5
  8
WAKU
  6
CONTINUOUS
 10
400.181958
 20
286.730769
 30
0.0
 11
401.258881
 21
286.730769
 31
0.0
  0
LINE
  5
CF6
  8
WAKU
  6
CONTINUOUS
 10
404.067593
 20
283.5
 30
0.0
 11
404.851529
 21
285.653846
 31
0.0
  0
LINE
  5
CF7
  8
WAKU
  6
CONTINUOUS
 10
400.965894
 20
288.884615
 30
0.0
 11
402.042817
 21
288.884615
 31
0.0
  0
LINE
  5
CF8
  8
WAKU
  6
CONTINUOUS
 10
396.923077
 20
290.5
 30
0.0
 11
398.0
 21
290.5
 31
0.0
  0
LINE
  5
CF9
  8
WAKU
  6
CONTINUOUS
 10
397.529638
 20
289.207692
 30
0.0
 11
398.0
 21
290.5
 31
0.0
  0
LINE
  5
CFA
  8
WAKU
  6
CONTINUOUS
 10
397.529638
 20
289.207692
 30
0.0
 11
398.337331
 21
289.207692
 31
0.0
  0
LINE
  5
CFB
  8
WAKU
  6
CONTINUOUS
 10
396.941687
 20
287.592308
 30
0.0
 11
397.749379
 21
287.592308
 31
0.0
  0
LINE
  5
CFC
  8
WAKU
  6
CONTINUOUS
 10
397.749379
 20
287.592308
 30
0.0
 11
398.337331
 21
289.207692
 31
0.0
  0
LINE
  5
CFD
  8
WAKU
  6
CONTINUOUS
 10
399.565894
 20
288.884615
 30
0.0
 11
400.642817
 21
288.884615
 31
0.0
  0
LINE
  5
CFE
  8
WAKU
  6
CONTINUOUS
 10
396.452715
 20
289.207692
 30
0.0
 11
396.923077
 21
290.5
 31
0.0
  0
LINE
  5
CFF
  8
WAKU
  6
CONTINUOUS
 10
406.615385
 20
290.5
 30
0.0
 11
405.988236
 21
288.776923
 31
0.0
  0
LINE
  5
D00
  8
WAKU
  6
CONTINUOUS
 10
405.753055
 20
288.130769
 30
0.0
 11
405.282694
 21
286.838462
 31
0.0
  0
LINE
  5
D01
  8
WAKU
  6
CONTINUOUS
 10
402.796663
 20
288.884615
 30
0.0
 11
403.873587
 21
288.884615
 31
0.0
  0
LINE
  5
D02
  8
WAKU
  6
CONTINUOUS
 10
409.159221
 20
285.653846
 30
0.0
 11
410.923077
 21
290.5
 31
0.0
  0
LINE
  5
D03
  8
WAKU
  6
CONTINUOUS
 10
409.452208
 20
283.5
 30
0.0
 11
412.0
 21
290.5
 31
0.0
  0
LINE
  5
D04
  8
WAKU
  6
CONTINUOUS
 10
409.219005
 20
288.776923
 30
0.0
 11
409.846154
 21
290.5
 31
0.0
  0
LINE
  5
D05
  8
WAKU
  6
CONTINUOUS
 10
410.923077
 20
290.5
 30
0.0
 11
412.0
 21
290.5
 31
0.0
  0
LINE
  5
D06
  8
WAKU
  6
CONTINUOUS
 10
408.513463
 20
286.838462
 30
0.0
 11
408.983824
 21
288.130769
 31
0.0
  0
LINE
  5
D07
  8
WAKU
  6
CONTINUOUS
 10
369.828646
 20
284.107791
 30
0.0
 11
369.966824
 21
283.829526
 31
0.0
  0
LINE
  5
D08
  8
WAKU
  6
CONTINUOUS
 10
369.966824
 20
283.829526
 30
0.0
 11
370.193309
 21
283.634664
 31
0.0
  0
LINE
  5
D09
  8
WAKU
  6
CONTINUOUS
 10
370.193309
 20
283.634664
 30
0.0
 11
370.499782
 21
283.530361
 31
0.0
  0
LINE
  5
D0A
  8
WAKU
  6
CONTINUOUS
 10
370.499782
 20
283.530361
 30
0.0
 11
370.874987
 21
283.520449
 31
0.0
  0
LINE
  5
D0B
  8
WAKU
  6
CONTINUOUS
 10
370.874987
 20
283.520449
 30
0.0
 11
371.305142
 21
283.605291
 31
0.0
  0
LINE
  5
D0C
  8
WAKU
  6
CONTINUOUS
 10
371.305142
 20
283.605291
 30
0.0
 11
371.774448
 21
283.781773
 31
0.0
  0
LINE
  5
D0D
  8
WAKU
  6
CONTINUOUS
 10
371.774448
 20
283.781773
 30
0.0
 11
372.265666
 21
284.043411
 31
0.0
  0
LINE
  5
D0E
  8
WAKU
  6
CONTINUOUS
 10
372.265666
 20
284.043411
 30
0.0
 11
372.760756
 21
284.380595
 31
0.0
  0
LINE
  5
D0F
  8
WAKU
  6
CONTINUOUS
 10
372.760756
 20
284.380595
 30
0.0
 11
373.241532
 21
284.780941
 31
0.0
  0
LINE
  5
D10
  8
WAKU
  6
CONTINUOUS
 10
373.241532
 20
284.780941
 30
0.0
 11
373.690335
 21
285.229744
 31
0.0
  0
LINE
  5
D11
  8
WAKU
  6
CONTINUOUS
 10
373.690335
 20
285.229744
 30
0.0
 11
374.090681
 21
285.71052
 31
0.0
  0
LINE
  5
D12
  8
WAKU
  6
CONTINUOUS
 10
374.090681
 20
285.71052
 30
0.0
 11
374.427865
 21
286.205609
 31
0.0
  0
LINE
  5
D13
  8
WAKU
  6
CONTINUOUS
 10
374.427865
 20
286.205609
 30
0.0
 11
374.689503
 21
286.696828
 31
0.0
  0
LINE
  5
D14
  8
WAKU
  6
CONTINUOUS
 10
374.689503
 20
286.696828
 30
0.0
 11
374.865984
 21
287.166134
 31
0.0
  0
LINE
  5
D15
  8
WAKU
  6
CONTINUOUS
 10
374.865984
 20
287.166134
 30
0.0
 11
374.950827
 21
287.596289
 31
0.0
  0
LINE
  5
D16
  8
WAKU
  6
CONTINUOUS
 10
374.950827
 20
287.596289
 30
0.0
 11
374.940915
 21
287.971493
 31
0.0
  0
LINE
  5
D17
  8
WAKU
  6
CONTINUOUS
 10
374.940915
 20
287.971493
 30
0.0
 11
374.836612
 21
288.277967
 31
0.0
  0
LINE
  5
D18
  8
WAKU
  6
CONTINUOUS
 10
374.836612
 20
288.277967
 30
0.0
 11
374.641749
 21
288.504452
 31
0.0
  0
LINE
  5
D19
  8
WAKU
  6
CONTINUOUS
 10
374.641749
 20
288.504452
 30
0.0
 11
374.363484
 21
288.64263
 31
0.0
  0
LINE
  5
D1A
  8
WAKU
  6
CONTINUOUS
 10
373.916941
 20
288.683944
 30
0.0
 11
373.482636
 21
288.608014
 31
0.0
  0
LINE
  5
D1B
  8
WAKU
  6
CONTINUOUS
 10
373.482636
 20
288.608014
 30
0.0
 11
373.005639
 21
288.435768
 31
0.0
  0
LINE
  5
D1C
  8
WAKU
  6
CONTINUOUS
 10
373.005639
 20
288.435768
 30
0.0
 11
372.504269
 21
288.173821
 31
0.0
  0
LINE
  5
D1D
  8
WAKU
  6
CONTINUOUS
 10
372.504269
 20
288.173821
 30
0.0
 11
371.997783
 21
287.832235
 31
0.0
  0
LINE
  5
D1E
  8
WAKU
  6
CONTINUOUS
 10
371.997783
 20
287.832235
 30
0.0
 11
371.505632
 21
287.424128
 31
0.0
  0
LINE
  5
D1F
  8
WAKU
  6
CONTINUOUS
 10
371.505632
 20
287.424128
 30
0.0
 11
371.04672
 21
286.965174
 31
0.0
  0
LINE
  5
D20
  8
WAKU
  6
CONTINUOUS
 10
371.04672
 20
286.965174
 30
0.0
 11
370.638671
 21
286.473
 31
0.0
  0
LINE
  5
D21
  8
WAKU
  6
CONTINUOUS
 10
370.638671
 20
286.473
 30
0.0
 11
370.297156
 21
285.966509
 31
0.0
  0
LINE
  5
D22
  8
WAKU
  6
CONTINUOUS
 10
370.297156
 20
285.966509
 30
0.0
 11
370.035293
 21
285.465154
 31
0.0
  0
LINE
  5
D23
  8
WAKU
  6
CONTINUOUS
 10
370.035293
 20
285.465154
 30
0.0
 11
369.863139
 21
284.988189
 31
0.0
  0
LINE
  5
D24
  8
WAKU
  6
CONTINUOUS
 10
369.863139
 20
284.988189
 30
0.0
 11
369.787305
 21
284.553935
 31
0.0
  0
LINE
  5
D25
  8
WAKU
  6
CONTINUOUS
 10
370.172911
 20
284.451856
 30
0.0
 11
370.681395
 21
284.539195
 31
0.0
  0
LINE
  5
D26
  8
WAKU
  6
CONTINUOUS
 10
370.681395
 20
284.539195
 30
0.0
 11
371.312263
 21
284.810332
 31
0.0
  0
LINE
  5
D27
  8
WAKU
  6
CONTINUOUS
 10
371.312263
 20
284.810332
 30
0.0
 11
371.98994
 21
285.251431
 31
0.0
  0
LINE
  5
D28
  8
WAKU
  6
CONTINUOUS
 10
371.98994
 20
285.251431
 30
0.0
 11
372.646296
 21
285.825506
 31
0.0
  0
LINE
  5
D29
  8
WAKU
  6
CONTINUOUS
 10
372.646296
 20
285.825506
 30
0.0
 11
373.220238
 21
286.48192
 31
0.0
  0
LINE
  5
D2A
  8
WAKU
  6
CONTINUOUS
 10
373.220238
 20
286.48192
 30
0.0
 11
373.661353
 21
287.159534
 31
0.0
  0
LINE
  5
D2B
  8
WAKU
  6
CONTINUOUS
 10
373.661353
 20
287.159534
 30
0.0
 11
373.932071
 21
287.790402
 31
0.0
  0
LINE
  5
D2C
  8
WAKU
  6
CONTINUOUS
 10
373.932071
 20
287.790402
 30
0.0
 11
374.019229
 21
288.298569
 31
0.0
  0
LINE
  5
D2D
  8
WAKU
  6
CONTINUOUS
 10
373.916941
 20
288.683944
 30
0.0
 11
373.799148
 21
288.781929
 31
0.0
  0
LINE
  5
D2E
  8
WAKU
  6
CONTINUOUS
 10
373.799148
 20
288.781929
 30
0.0
 11
373.597996
 21
288.840902
 31
0.0
  0
LINE
  5
D2F
  8
WAKU
  6
CONTINUOUS
 10
373.597996
 20
288.840902
 30
0.0
 11
373.290857
 21
288.835581
 31
0.0
  0
LINE
  5
D30
  8
WAKU
  6
CONTINUOUS
 10
373.290857
 20
288.835581
 30
0.0
 11
372.89514
 21
288.740065
 31
0.0
  0
LINE
  5
D31
  8
WAKU
  6
CONTINUOUS
 10
372.89514
 20
288.740065
 30
0.0
 11
372.440235
 21
288.547585
 31
0.0
  0
LINE
  5
D32
  8
WAKU
  6
CONTINUOUS
 10
372.440235
 20
288.547585
 30
0.0
 11
371.954587
 21
288.264284
 31
0.0
  0
LINE
  5
D33
  8
WAKU
  6
CONTINUOUS
 10
371.954587
 20
288.264284
 30
0.0
 11
370.996098
 21
287.475108
 31
0.0
  0
LINE
  5
D34
  8
WAKU
  6
CONTINUOUS
 10
370.996098
 20
287.475108
 30
0.0
 11
370.207035
 21
286.51657
 31
0.0
  0
LINE
  5
D35
  8
WAKU
  6
CONTINUOUS
 10
370.207035
 20
286.51657
 30
0.0
 11
369.923519
 21
286.031028
 31
0.0
  0
LINE
  5
D36
  8
WAKU
  6
CONTINUOUS
 10
369.923519
 20
286.031028
 30
0.0
 11
369.73149
 21
285.576021
 31
0.0
  0
LINE
  5
D37
  8
WAKU
  6
CONTINUOUS
 10
369.73149
 20
285.576021
 30
0.0
 11
369.635696
 21
285.180404
 31
0.0
  0
LINE
  5
D38
  8
WAKU
  6
CONTINUOUS
 10
369.635696
 20
285.180404
 30
0.0
 11
369.630358
 21
284.873087
 31
0.0
  0
LINE
  5
D39
  8
WAKU
  6
CONTINUOUS
 10
369.630358
 20
284.873087
 30
0.0
 11
369.689155
 21
284.672435
 31
0.0
  0
LINE
  5
D3A
  8
WAKU
  6
CONTINUOUS
 10
369.689155
 20
284.672435
 30
0.0
 11
369.787305
 21
284.553935
 31
0.0
  0
LINE
  5
D3B
  8
WAKU
  6
CONTINUOUS
 10
370.275177
 20
284.066476
 30
0.0
 11
370.392927
 21
283.968568
 31
0.0
  0
LINE
  5
D3C
  8
WAKU
  6
CONTINUOUS
 10
370.392927
 20
283.968568
 30
0.0
 11
370.594177
 21
283.909498
 31
0.0
  0
LINE
  5
D3D
  8
WAKU
  6
CONTINUOUS
 10
370.594177
 20
283.909498
 30
0.0
 11
370.901294
 21
283.914863
 31
0.0
  0
LINE
  5
D3E
  8
WAKU
  6
CONTINUOUS
 10
370.901294
 20
283.914863
 30
0.0
 11
371.296984
 21
284.010368
 31
0.0
  0
LINE
  5
D3F
  8
WAKU
  6
CONTINUOUS
 10
371.296984
 20
284.010368
 30
0.0
 11
371.751882
 21
284.202798
 31
0.0
  0
LINE
  5
D40
  8
WAKU
  6
CONTINUOUS
 10
371.751882
 20
284.202798
 30
0.0
 11
372.237497
 21
284.486117
 31
0.0
  0
LINE
  5
D41
  8
WAKU
  6
CONTINUOUS
 10
372.237497
 20
284.486117
 30
0.0
 11
373.195965
 21
285.275232
 31
0.0
  0
LINE
  5
D42
  8
WAKU
  6
CONTINUOUS
 10
373.195965
 20
285.275232
 30
0.0
 11
373.98505
 21
286.233718
 31
0.0
  0
LINE
  5
D43
  8
WAKU
  6
CONTINUOUS
 10
373.98505
 20
286.233718
 30
0.0
 11
374.268507
 21
286.719278
 31
0.0
  0
LINE
  5
D44
  8
WAKU
  6
CONTINUOUS
 10
374.268507
 20
286.719278
 30
0.0
 11
374.46071
 21
287.174248
 31
0.0
  0
LINE
  5
D45
  8
WAKU
  6
CONTINUOUS
 10
374.46071
 20
287.174248
 30
0.0
 11
374.556361
 21
287.569864
 31
0.0
  0
LINE
  5
D46
  8
WAKU
  6
CONTINUOUS
 10
374.556361
 20
287.569864
 30
0.0
 11
374.561802
 21
287.877253
 31
0.0
  0
LINE
  5
D47
  8
WAKU
  6
CONTINUOUS
 10
374.561802
 20
287.877253
 30
0.0
 11
374.502951
 21
288.077918
 31
0.0
  0
LINE
  5
D48
  8
WAKU
  6
CONTINUOUS
 10
374.502951
 20
288.077918
 30
0.0
 11
374.40481
 21
288.196249
 31
0.0
  0
LINE
  5
D49
  8
WAKU
  6
CONTINUOUS
 10
374.019229
 20
288.298569
 30
0.0
 11
373.510738
 21
288.21124
 31
0.0
  0
LINE
  5
D4A
  8
WAKU
  6
CONTINUOUS
 10
373.510738
 20
288.21124
 30
0.0
 11
372.879878
 21
287.940057
 31
0.0
  0
LINE
  5
D4B
  8
WAKU
  6
CONTINUOUS
 10
372.879878
 20
287.940057
 30
0.0
 11
372.202181
 21
287.498991
 31
0.0
  0
LINE
  5
D4C
  8
WAKU
  6
CONTINUOUS
 10
372.202181
 20
287.498991
 30
0.0
 11
371.545827
 21
286.924893
 31
0.0
  0
LINE
  5
D4D
  8
WAKU
  6
CONTINUOUS
 10
371.545827
 20
286.924893
 30
0.0
 11
370.971896
 21
286.268471
 31
0.0
  0
LINE
  5
D4E
  8
WAKU
  6
CONTINUOUS
 10
370.971896
 20
286.268471
 30
0.0
 11
370.530712
 21
285.590875
 31
0.0
  0
LINE
  5
D4F
  8
WAKU
  6
CONTINUOUS
 10
370.530712
 20
285.590875
 30
0.0
 11
370.260168
 21
284.959969
 31
0.0
  0
LINE
  5
D50
  8
WAKU
  6
CONTINUOUS
 10
370.260168
 20
284.959969
 30
0.0
 11
370.172911
 21
284.451856
 31
0.0
  0
LINE
  5
D51
  8
WAKU
  6
CONTINUOUS
 10
370.275177
 20
284.066476
 30
0.0
 11
370.709458
 21
284.142397
 31
0.0
  0
LINE
  5
D52
  8
WAKU
  6
CONTINUOUS
 10
370.709458
 20
284.142397
 30
0.0
 11
371.186428
 21
284.314625
 31
0.0
  0
LINE
  5
D53
  8
WAKU
  6
CONTINUOUS
 10
371.186428
 20
284.314625
 30
0.0
 11
371.68777
 21
284.576545
 31
0.0
  0
LINE
  5
D54
  8
WAKU
  6
CONTINUOUS
 10
371.68777
 20
284.576545
 30
0.0
 11
372.194232
 21
284.918099
 31
0.0
  0
LINE
  5
D55
  8
WAKU
  6
CONTINUOUS
 10
372.194232
 20
284.918099
 30
0.0
 11
372.686363
 21
285.326171
 31
0.0
  0
LINE
  5
D56
  8
WAKU
  6
CONTINUOUS
 10
372.686363
 20
285.326171
 30
0.0
 11
373.145266
 21
285.785089
 31
0.0
  0
LINE
  5
D57
  8
WAKU
  6
CONTINUOUS
 10
373.145266
 20
285.785089
 30
0.0
 11
373.553316
 21
286.277229
 31
0.0
  0
LINE
  5
D58
  8
WAKU
  6
CONTINUOUS
 10
373.553316
 20
286.277229
 30
0.0
 11
373.894843
 21
286.783693
 31
0.0
  0
LINE
  5
D59
  8
WAKU
  6
CONTINUOUS
 10
373.894843
 20
286.783693
 30
0.0
 11
374.156732
 21
287.28503
 31
0.0
  0
LINE
  5
D5A
  8
WAKU
  6
CONTINUOUS
 10
374.156732
 20
287.28503
 30
0.0
 11
374.328925
 21
287.761987
 31
0.0
  0
LINE
  5
D5B
  8
WAKU
  6
CONTINUOUS
 10
374.328925
 20
287.761987
 30
0.0
 11
374.40481
 21
288.196249
 31
0.0
  0
LINE
  5
D5C
  8
WAKU
  6
CONTINUOUS
 10
374.363484
 20
288.64263
 30
0.0
 11
374.225306
 21
288.920895
 31
0.0
  0
LINE
  5
D5D
  8
WAKU
  6
CONTINUOUS
 10
374.225306
 20
288.920895
 30
0.0
 11
373.998821
 21
289.115757
 31
0.0
  0
LINE
  5
D5E
  8
WAKU
  6
CONTINUOUS
 10
373.998821
 20
289.115757
 30
0.0
 11
373.692348
 21
289.22006
 31
0.0
  0
LINE
  5
D5F
  8
WAKU
  6
CONTINUOUS
 10
373.692348
 20
289.22006
 30
0.0
 11
373.317143
 21
289.229972
 31
0.0
  0
LINE
  5
D60
  8
WAKU
  6
CONTINUOUS
 10
373.317143
 20
289.229972
 30
0.0
 11
372.886988
 21
289.145129
 31
0.0
  0
LINE
  5
D61
  8
WAKU
  6
CONTINUOUS
 10
372.886988
 20
289.145129
 30
0.0
 11
372.417683
 21
288.968648
 31
0.0
  0
LINE
  5
D62
  8
WAKU
  6
CONTINUOUS
 10
372.417683
 20
288.968648
 30
0.0
 11
371.926464
 21
288.70701
 31
0.0
  0
LINE
  5
D63
  8
WAKU
  6
CONTINUOUS
 10
371.926464
 20
288.70701
 30
0.0
 11
371.431374
 21
288.369826
 31
0.0
  0
LINE
  5
D64
  8
WAKU
  6
CONTINUOUS
 10
371.431374
 20
288.369826
 30
0.0
 11
370.950599
 21
287.96948
 31
0.0
  0
LINE
  5
D65
  8
WAKU
  6
CONTINUOUS
 10
370.950599
 20
287.96948
 30
0.0
 11
370.501795
 21
287.520677
 31
0.0
  0
LINE
  5
D66
  8
WAKU
  6
CONTINUOUS
 10
370.501795
 20
287.520677
 30
0.0
 11
370.101449
 21
287.039901
 31
0.0
  0
LINE
  5
D67
  8
WAKU
  6
CONTINUOUS
 10
370.101449
 20
287.039901
 30
0.0
 11
369.764265
 21
286.544812
 31
0.0
  0
LINE
  5
D68
  8
WAKU
  6
CONTINUOUS
 10
369.764265
 20
286.544812
 30
0.0
 11
369.502627
 21
286.053593
 31
0.0
  0
LINE
  5
D69
  8
WAKU
  6
CONTINUOUS
 10
369.502627
 20
286.053593
 30
0.0
 11
369.326146
 21
285.584287
 31
0.0
  0
LINE
  5
D6A
  8
WAKU
  6
CONTINUOUS
 10
369.326146
 20
285.584287
 30
0.0
 11
369.241303
 21
285.154132
 31
0.0
  0
LINE
  5
D6B
  8
WAKU
  6
CONTINUOUS
 10
369.241303
 20
285.154132
 30
0.0
 11
369.251215
 21
284.778928
 31
0.0
  0
LINE
  5
D6C
  8
WAKU
  6
CONTINUOUS
 10
369.251215
 20
284.778928
 30
0.0
 11
369.355518
 21
284.472454
 31
0.0
  0
LINE
  5
D6D
  8
WAKU
  6
CONTINUOUS
 10
369.355518
 20
284.472454
 30
0.0
 11
369.550381
 21
284.245969
 31
0.0
  0
LINE
  5
D6E
  8
WAKU
  6
CONTINUOUS
 10
369.550381
 20
284.245969
 30
0.0
 11
369.828646
 21
284.107791
 31
0.0
  0
INSERT
  5
D6F
  8
WAKU
  6
CONTINUOUS
  2
*U4
 10
0.0
 20
0.0
 30
0.0
1001
ACAD
1002
{
1000
R14_HATCH_DATA
1000
D6F
1011
1.0
1021
0.0
1031
0.0
1021
0.0
1031
0.0
1011
0.0
1021
0.0
1031
0.0
1021
1.0
1031
0.0
1011
0.0
1021
0.0
1031
0.0
1021
0.0
1031
1.0
1040
0.0
1010
0.0
1020
0.0
1030
1.0
1000
SOLID
1070
     1
1070
     1
1071
       15
1071
        7
1070
     0
1070
     1
1071
        3
1040
372.249053
1040
290.5
1040
367.971276
1040
290.5
1040
367.971276
1040
286.222222
1071
        3
1005
CC0
1005
CC2
1005
CC1
1071
        7
1070
     0
1070
     1
1071
       38
1040
373.998821
1040
289.115757
1040
373.692348
1040
289.22006
1040
373.317143
1040
289.229972
1040
372.886988
1040
289.145129
1040
372.417683
1040
288.968648
1040
371.926464
1040
288.70701
1040
371.431374
1040
288.369826
1040
370.950599
1040
287.96948
1040
370.501795
1040
287.520677
1040
370.101449
1040
287.039901
1040
369.764265
1040
286.544812
1040
369.502627
1040
286.053593
1040
369.326146
1040
285.584287
1040
369.241303
1040
285.154132
1040
369.251215
1040
284.778928
1040
369.355518
1040
284.472454
1040
369.550381
1040
284.245969
1040
369.828646
1040
284.107791
1040
369.966824
1040
283.829526
1040
370.193309
1040
283.634664
1040
370.499782
1040
283.530361
1040
370.874987
1040
283.520449
1040
371.305142
1040
283.605291
1040
371.774448
1040
283.781773
1040
372.265666
1040
284.043411
1040
372.760756
1040
284.380595
1040
373.241532
1040
284.780941
1040
373.690335
1040
285.229744
1040
374.090681
1040
285.71052
1040
374.427865
1040
286.205609
1040
374.689503
1040
286.696828
1040
374.865984
1040
287.166134
1040
374.950827
1040
287.596289
1040
374.940915
1040
287.971493
1040
374.836612
1040
288.277967
1040
374.641749
1040
288.504452
1040
374.363484
1040
288.64263
1040
374.225306
1040
288.920895
1071
       38
1005
D5D
1005
D5E
1005
D5F
1005
D60
1005
D61
1005
D62
1005
D63
1005
D64
1005
D65
1005
D66
1005
D67
1005
D68
1005
D69
1005
D6A
1005
D6B
1005
D6C
1005
D6D
1005
D6E
1005
D07
1005
D08
1005
D09
1005
D0A
1005
D0B
1005
D0C
1005
D0D
1005
D0E
1005
D0F
1005
D10
1005
D11
1005
D12
1005
D13
1005
D14
1005
D15
1005
D16
1005
D17
1005
D18
1005
D19
1005
D5C
1071
       22
1070
     0
1070
     1
1071
       25
1040
373.799148
1040
288.781929
1040
373.916941
1040
288.683944
1040
373.482636
1040
288.608014
1040
373.005639
1040
288.435768
1040
372.504269
1040
288.173821
1040
371.997783
1040
287.832235
1040
371.505632
1040
287.424128
1040
371.04672
1040
286.965174
1040
370.638671
1040
286.473
1040
370.297156
1040
285.966509
1040
370.035293
1040
285.465154
1040
369.863139
1040
284.988189
1040
369.787305
1040
284.553935
1040
369.689155
1040
284.672435
1040
369.630358
1040
284.873087
1040
369.635696
1040
285.180404
1040
369.73149
1040
285.576021
1040
369.923519
1040
286.031028
1040
370.207035
1040
286.51657
1040
370.996098
1040
287.475108
1040
371.954587
1040
288.264284
1040
372.440235
1040
288.547585
1040
372.89514
1040
288.740065
1040
373.290857
1040
288.835581
1040
373.597996
1040
288.840902
1071
       25
1005
D2D
1005
D1A
1005
D1B
1005
D1C
1005
D1D
1005
D1E
1005
D1F
1005
D20
1005
D21
1005
D22
1005
D23
1005
D24
1005
D3A
1005
D39
1005
D38
1005
D37
1005
D36
1005
D35
1005
D34
1005
D33
1005
D32
1005
D31
1005
D30
1005
D2F
1005
D2E
1071
       22
1070
     0
1070
     1
1071
       16
1040
374.019229
1040
288.298569
1040
373.932071
1040
287.790402
1040
373.661353
1040
287.159534
1040
373.220238
1040
286.48192
1040
372.646296
1040
285.825506
1040
371.98994
1040
285.251431
1040
371.312263
1040
284.810332
1040
370.681395
1040
284.539195
1040
370.172911
1040
284.451856
1040
370.260168
1040
284.959969
1040
370.530712
1040
285.590875
1040
370.971896
1040
286.268471
1040
371.545827
1040
286.924893
1040
372.202181
1040
287.498991
1040
372.879878
1040
287.940057
1040
373.510738
1040
288.21124
1071
       16
1005
D2C
1005
D2B
1005
D2A
1005
D29
1005
D28
1005
D27
1005
D26
1005
D25
1005
D50
1005
D4F
1005
D4E
1005
D4D
1005
D4C
1005
D4B
1005
D4A
1005
D49
1071
       22
1070
     0
1070
     1
1071
       25
1040
374.40481
1040
288.196249
1040
374.502951
1040
288.077918
1040
374.561802
1040
287.877253
1040
374.556361
1040
287.569864
1040
374.46071
1040
287.174248
1040
374.268507
1040
286.719278
1040
373.98505
1040
286.233718
1040
373.195965
1040
285.275232
1040
372.237497
1040
284.486117
1040
371.751882
1040
284.202798
1040
371.296984
1040
284.010368
1040
370.901294
1040
283.914863
1040
370.594177
1040
283.909498
1040
370.392927
1040
283.968568
1040
370.275177
1040
284.066476
1040
370.709458
1040
284.142397
1040
371.186428
1040
284.314625
1040
371.68777
1040
284.576545
1040
372.194232
1040
284.918099
1040
372.686363
1040
285.326171
1040
373.145266
1040
285.785089
1040
373.553316
1040
286.277229
1040
373.894843
1040
286.783693
1040
374.156732
1040
287.28503
1040
374.328925
1040
287.761987
1071
       25
1005
D48
1005
D47
1005
D46
1005
D45
1005
D44
1005
D43
1005
D42
1005
D41
1005
D40
1005
D3F
1005
D3E
1005
D3D
1005
D3C
1005
D3B
1005
D51
1005
D52
1005
D53
1005
D54
1005
D55
1005
D56
1005
D57
1005
D58
1005
D59
1005
D5A
1005
D5B
1071
        7
1070
     0
1070
     1
1071
       14
1040
378.723077
1040
290.5
1040
378.095928
1040
288.776923
1040
380.311313
1040
288.776923
1040
377.155205
1040
286.192308
1040
376.175285
1040
283.5
1040
379.397145
1040
286.138462
1040
378.436824
1040
283.5
1040
379.513747
1040
283.5
1040
380.493667
1040
286.192308
1040
381.775285
1040
283.5
1040
382.755205
1040
286.192308
1040
381.524851
1040
288.776923
1040
383.695928
1040
288.776923
1040
384.323077
1040
290.5
1071
       14
1005
CC4
1005
CCF
1005
CCE
1005
CC5
1005
CC7
1005
CC8
1005
CCD
1005
CCC
1005
CCB
1005
CCA
1005
CC9
1005
CC6
1005
CC3
1005
CDC
1071
        7
1070
     0
1070
     1
1071
        4
1040
385.615385
1040
290.5
1040
384.988236
1040
288.776923
1040
390.372851
1040
288.776923
1040
391.0
1040
290.5
1071
        4
1005
CDA
1005
CDB
1005
CD9
1005
CE3
1071
        7
1070
     0
1070
     1
1071
        4
1040
388.452208
1040
283.5
1040
389.236144
1040
285.653846
1040
383.851529
1040
285.653846
1040
383.067593
1040
283.5
1071
        4
1005
CD3
1005
CD4
1005
CD5
1005
CD2
1071
        7
1070
     0
1070
     1
1071
       22
1040
395.452208
1040
283.5
1040
396.941687
1040
287.592308
1040
397.749379
1040
287.592308
1040
398.337331
1040
289.207692
1040
397.529638
1040
289.207692
1040
398.0
1040
290.5
1040
396.923077
1040
290.5
1040
396.452715
1040
289.207692
1040
393.760408
1040
289.207692
1040
394.230769
1040
290.5
1040
393.153846
1040
290.5
1040
392.683485
1040
289.207692
1040
391.875792
1040
289.207692
1040
391.28784
1040
287.592308
1040
392.095533
1040
287.592308
1040
391.703565
1040
286.515385
1040
392.780488
1040
286.515385
1040
393.172456
1040
287.592308
1040
395.864763
1040
287.592308
1040
395.159221
1040
285.653846
1040
391.174606
1040
285.653846
1040
390.39067
1040
283.5
1071
       22
1005
CFB
1005
CFC
1005
CFA
1005
CF9
1005
CF8
1005
CFE
1005
CBC
1005
CDE
1005
CDD
1005
CE2
1005
CDF
1005
CE1
1005
CE0
1005
CD1
1005
CD7
1005
CD0
1005
CBD
1005
CBF
1005
CD6
1005
CD8
1005
CBE
1005
CF0
1071
        7
1070
     0
1070
     1
1071
        6
1040
398.194006
1040
285.115385
1040
397.606055
1040
283.5
1040
401.913747
1040
283.5
1040
403.873587
1040
288.884615
1040
402.796663
1040
288.884615
1040
401.424776
1040
285.115385
1071
        6
1005
D01
1005
CEF
1005
CF3
1005
CF4
1005
CF1
1005
CEE
1071
       23
1070
     0
1070
     1
1071
        4
1040
402.042817
1040
288.884615
1040
400.965894
1040
288.884615
1040
400.181958
1040
286.730769
1040
401.258881
1040
286.730769
1071
        4
1005
CF7
1005
CEB
1005
CF5
1005
CED
1071
       23
1070
     0
1070
     1
1071
        4
1040
400.642817
1040
288.884615
1040
399.565894
1040
288.884615
1040
398.781958
1040
286.730769
1040
399.858881
1040
286.730769
1071
        4
1005
CFD
1005
CEA
1005
CF2
1005
CEC
1071
       23
1070
     0
1070
     1
1071
        4
1040
406.615385
1040
290.5
1040
405.988236
1040
288.776923
1040
409.219005
1040
288.776923
1040
409.846154
1040
290.5
1071
        4
1005
CE9
1005
CFF
1005
CE8
1005
D04
1071
       23
1070
     0
1070
     1
1071
        4
1040
405.753055
1040
288.130769
1040
405.282694
1040
286.838462
1040
408.513463
1040
286.838462
1040
408.983824
1040
288.130769
1071
        4
1005
CE4
1005
D00
1005
CE5
1005
D06
1071
        7
1070
     0
1070
     1
1071
        6
1040
409.452208
1040
283.5
1040
412.0
1040
290.5
1040
410.923077
1040
290.5
1040
409.159221
1040
285.653846
1040
404.851529
1040
285.653846
1040
404.067593
1040
283.5
1071
        6
1005
D05
1005
D02
1005
CE7
1005
CF6
1005
CE6
1005
D03
1070
     0
1070
     1
1040
0.054099
1071
       15
1040
371.248373
1040
289.881409
1040
0.0
1040
373.901118
1040
288.907633
1040
0.0
1040
373.901118
1040
288.907633
1040
0.0
1040
373.901118
1040
288.907633
1040
0.0
1040
373.901118
1040
288.907633
1040
0.0
1040
380.3435
1040
289.82731
1040
0.0
1040
388.247597
1040
289.665014
1040
0.0
1040
386.515192
1040
284.146949
1040
0.0
1040
392.578609
1040
284.255146
1040
0.0
1040
400.536845
1040
284.309245
1040
0.0
1040
401.024083
1040
287.555166
1040
0.0
1040
399.72478
1040
287.609264
1040
0.0
1040
407.358189
1040
289.989606
1040
0.0
1040
407.141639
1040
287.501067
1040
0.0
1040
407.195776
1040
284.471541
1040
0.0
1002
}
  0
TEXT
  5
448D
  8
WAKU
  6
CONTINUOUS
 10
10.0
 20
285.5
 30
0.0
 40
3.0
  1
FNS-70
 41
0.868
 11
10.0
 21
287.0
 31
0.0
 73
     2
  0
LINE
  5
D0D3
  8
DANMEN
  6
CONTINUOUS
 10
211.963123
 20
103.005532
 30
0.0
 11
202.851661
 21
104.372251
 31
0.0
  0
LINE
  5
D0D4
  8
DANMEN
  6
CONTINUOUS
 10
211.963123
 20
126.994468
 30
0.0
 11
202.851661
 21
125.627749
 31
0.0
  0
LINE
  5
D0D5
  8
DANMEN
  6
CONTINUOUS
 10
202.500002
 20
107.5
 30
0.0
 11
203.199998
 21
107.5
 31
0.0
  0
LINE
  5
D0D6
  8
DANMEN
  6
CONTINUOUS
 10
202.500002
 20
122.5
 30
0.0
 11
203.199998
 21
122.5
 31
0.0
  0
LINE
  5
D0D7
  8
DANMEN
  6
CONTINUOUS
 10
199.0
 20
97.6
 30
0.0
 11
204.0
 21
97.6
 31
0.0
  0
LINE
  5
D0D8
  8
DANMEN
  6
CONTINUOUS
 10
189.5
 20
64.0
 30
0.0
 11
213.5
 21
64.0
 31
0.0
  0
LINE
  5
D0D9
  8
DANMEN
  6
CONTINUOUS
 10
189.5
 20
134.0
 30
0.0
 11
213.5
 21
134.0
 31
0.0
  0
LINE
  5
D0DA
  8
DANMEN
  6
CONTINUOUS
 10
201.0
 20
65.649994
 30
0.0
 11
213.5
 21
65.649994
 31
0.0
  0
LINE
  5
D0DB
  8
DANMEN
  6
CONTINUOUS
 10
201.0
 20
132.350006
 30
0.0
 11
213.5
 21
132.350006
 31
0.0
  0
LINE
  5
D0DC
  8
DANMEN
  6
CONTINUOUS
 10
199.0
 20
96.5
 30
0.0
 11
211.5
 21
96.5
 31
0.0
  0
LINE
  5
D0DD
  8
DANMEN
  6
CONTINUOUS
 10
199.0
 20
112.5
 30
0.0
 11
203.917205
 21
112.5
 31
0.0
  0
LINE
  5
D0DE
  8
DANMEN
  6
CONTINUOUS
 10
199.0
 20
114.3
 30
0.0
 11
203.850995
 21
114.3
 31
0.0
  0
LINE
  5
D0DF
  8
DANMEN
  6
CONTINUOUS
 10
204.122479
 20
100.7
 30
0.0
 11
200.908279
 21
107.37568
 31
0.0
  0
LINE
  5
D0E0
  8
DANMEN
  6
CONTINUOUS
 10
203.682602
 20
100.0
 30
0.0
 11
200.476376
 21
106.659119
 31
0.0
  0
LINE
  5
D0E1
  8
DANMEN
  6
CONTINUOUS
 10
199.0
 20
116.5
 30
0.0
 11
215.0
 21
116.5
 31
0.0
  0
LINE
  5
D0E2
  8
DANMEN
  6
CONTINUOUS
 10
199.0
 20
127.0
 30
0.0
 11
256.500001
 21
127.0
 31
0.0
  0
LINE
  5
D0E3
  8
DANMEN
  6
CONTINUOUS
 10
199.0
 20
74.0
 30
0.0
 11
256.500001
 21
74.0
 31
0.0
  0
LINE
  5
D0E4
  8
DANMEN
  6
CONTINUOUS
 10
199.0
 20
96.5
 30
0.0
 11
212.0
 21
96.5
 31
0.0
  0
LINE
  5
D0E5
  8
DANMEN
  6
CONTINUOUS
 10
204.0
 20
99.5
 30
0.0
 11
199.0
 21
99.5
 31
0.0
  0
LINE
  5
D0EA
  8
DANMEN
  6
CONTINUOUS
 10
189.0
 20
133.5
 30
0.0
 11
189.0
 21
128.5
 31
0.0
  0
LINE
  5
D0EB
  8
DANMEN
  6
CONTINUOUS
 10
199.0
 20
132.9
 30
0.0
 11
199.0
 21
114.3
 31
0.0
  0
LINE
  5
D0EC
  8
DANMEN
  6
CONTINUOUS
 10
190.649994
 20
132.350006
 30
0.0
 11
190.649994
 21
128.5
 31
0.0
  0
LINE
  5
D0ED
  8
DANMEN
  6
CONTINUOUS
 10
197.350006
 20
132.350006
 30
0.0
 11
197.350006
 21
65.649994
 31
0.0
  0
LINE
  5
D0EE
  8
DANMEN
  6
CONTINUOUS
 10
43.0
 20
159.0
 30
0.0
 11
43.0
 21
37.765549
 31
0.0
  0
LINE
  5
D0EF
  8
DANMEN
  6
CONTINUOUS
 10
74.0
 20
159.0
 30
0.0
 11
74.0
 21
82.5
 31
0.0
  0
LINE
  5
D0F0
  8
DANMEN
  6
CONTINUOUS
 10
50.0
 20
159.0
 30
0.0
 11
50.0
 21
54.0
 31
0.0
  0
LINE
  5
D0F1
  8
DANMEN
  6
CONTINUOUS
 10
44.649994
 20
159.0
 30
0.0
 11
44.649994
 21
36.0
 31
0.0
  0
LINE
  5
D0F2
  8
DANMEN
  6
CONTINUOUS
 10
76.5
 20
159.0
 30
0.0
 11
76.5
 21
94.0
 31
0.0
  0
LINE
  5
D0F3
  8
DANMEN
  6
DASHED
 10
79.5
 20
159.0
 30
0.0
 11
79.5
 21
94.0
 31
0.0
  0
LINE
  5
D0F4
  8
DANMEN
  6
CONTINUOUS
 10
82.0
 20
159.0
 30
0.0
 11
82.0
 21
94.0
 31
0.0
  0
LINE
  5
D0F5
  8
DANMEN
  6
CONTINUOUS
 10
102.0
 20
159.0
 30
0.0
 11
102.0
 21
94.0
 31
0.0
  0
LINE
  5
D0F6
  8
DANMEN
  6
CONTINUOUS
 10
100.000015
 20
159.0
 30
0.0
 11
100.000015
 21
94.0
 31
0.0
  0
LINE
  5
D0F7
  8
DANMEN
  6
CONTINUOUS
 10
83.999985
 20
159.0
 30
0.0
 11
83.999985
 21
94.0
 31
0.0
  0
LINE
  5
D0F8
  8
DANMEN
  6
CONTINUOUS
 10
109.0
 20
159.0
 30
0.0
 11
109.0
 21
89.0
 31
0.0
  0
LINE
  5
D0F9
  8
DANMEN
  6
CONTINUOUS
 10
113.0
 20
159.0
 30
0.0
 11
113.0
 21
94.0
 31
0.0
  0
LINE
  5
D0FA
  8
DANMEN
  6
CONTINUOUS
 10
111.350006
 20
159.0
 30
0.0
 11
111.350006
 21
94.0
 31
0.0
  0
LINE
  5
D0FB
  8
DANMEN
  6
CONTINUOUS
 10
90.000021
 20
87.0
 30
0.0
 11
90.000021
 21
159.0
 31
0.0
  0
LINE
  5
D0FC
  8
DANMEN
  6
CONTINUOUS
 10
94.000009
 20
87.0
 30
0.0
 11
94.000009
 21
159.0
 31
0.0
  0
LINE
  5
D0FD
  8
DANMEN
  6
CONTINUOUS
 10
89.500021
 20
87.0
 30
0.0
 11
89.500021
 21
159.0
 31
0.0
  0
LINE
  5
D0FE
  8
DANMEN
  6
CONTINUOUS
 10
94.500009
 20
87.0
 30
0.0
 11
94.500009
 21
159.0
 31
0.0
  0
LINE
  5
D102
  8
DANMEN
  6
CONTINUOUS
 10
56.5
 20
34.0
 30
0.0
 11
113.0
 21
34.0
 31
0.0
  0
LINE
  5
D103
  8
DANMEN
  6
CONTINUOUS
 10
66.0
 20
54.0
 30
0.0
 11
74.0
 21
54.0
 31
0.0
  0
LINE
  5
D104
  8
DANMEN
  6
CONTINUOUS
 10
95.55285
 20
58.664289
 30
0.0
 11
69.943326
 21
47.392373
 31
0.0
  0
LINE
  5
D105
  8
DANMEN
  6
CONTINUOUS
 10
94.5
 20
60.003636
 30
0.0
 11
69.5
 21
49.0
 31
0.0
  0
LINE
  5
D106
  8
DANMEN
  6
CONTINUOUS
 10
55.0
 20
34.0
 30
0.0
 11
55.0
 21
25.5
 31
0.0
  0
LINE
  5
D107
  8
DANMEN
  6
CONTINUOUS
 10
56.5
 20
34.649994
 30
0.0
 11
56.5
 21
25.5
 31
0.0
  0
ARC
  5
D108
  8
DANMEN
  6
CONTINUOUS
 10
55.5
 20
25.5
 30
0.0
 40
0.5
 50
180.000019
 51
270.000001
  0
LINE
  5
D10C
  8
DANMEN
  6
CONTINUOUS
 10
55.5
 20
25.0
 30
0.0
 11
56.0
 21
25.0
 31
0.0
  0
ARC
  5
D10E
  8
DANMEN
  6
CONTINUOUS
 10
56.0
 20
25.5
 30
0.0
 40
0.5
 50
270.000018
 51
0.0
  0
LINE
  5
D110
  8
DANMEN
  6
CONTINUOUS
 10
60.0
 20
83.0
 30
0.0
 11
60.0
 21
59.0
 31
0.0
  0
LINE
  5
D111
  8
DANMEN
  6
CONTINUOUS
 10
64.0
 20
83.0
 30
0.0
 11
64.0
 21
59.0
 31
0.0
  0
LINE
  5
D112
  8
DANMEN
  6
CONTINUOUS
 10
65.5
 20
83.0
 30
0.0
 11
65.5
 21
59.0
 31
0.0
  0
LINE
  5
D113
  8
DANMEN
  6
CONTINUOUS
 10
58.5
 20
83.0
 30
0.0
 11
58.5
 21
59.0
 31
0.0
  0
LINE
  5
D114
  8
DANMEN
  6
CONTINUOUS
 10
66.0
 20
78.5
 30
0.0
 11
66.0
 21
63.499985
 31
0.0
  0
LINE
  5
D115
  8
DANMEN
  6
CONTINUOUS
 10
58.0
 20
78.499985
 30
0.0
 11
58.0
 21
63.499985
 31
0.0
  0
ARC
  5
D116
  8
DANMEN
  6
CONTINUOUS
 10
56.00999
 20
47.0
 30
0.0
 40
2.0
 50
90.0
 51
118.610582
  0
LINE
  5
D117
  8
DANMEN
  6
CONTINUOUS
 10
55.920742
 20
47.35
 30
0.0
 11
51.649994
 21
45.020489
 31
0.0
  0
LINE
  5
D118
  8
DANMEN
  6
CONTINUOUS
 10
51.649994
 20
35.649994
 30
0.0
 11
55.5
 21
35.649994
 31
0.0
  0
LINE
  5
D119
  8
DANMEN
  6
CONTINUOUS
 10
40.276393
 20
37.661806
 30
0.0
 11
43.0
 21
36.300003
 31
0.0
  0
LINE
  5
D11A
  8
DANMEN
  6
CONTINUOUS
 10
41.199997
 20
38.429842
 30
0.0
 11
43.823607
 21
37.118037
 31
0.0
  0
LINE
  5
D11B
  8
DANMEN
  6
CONTINUOUS
 10
50.0
 20
45.406353
 30
0.0
 11
50.0
 21
36.0
 31
0.0
  0
LINE
  5
D11C
  8
DANMEN
  6
CONTINUOUS
 10
51.649994
 20
45.020489
 30
0.0
 11
51.649994
 21
35.649994
 31
0.0
  0
LINE
  5
D11D
  8
DANMEN
  6
CONTINUOUS
 10
43.800003
 20
34.9
 30
0.0
 11
50.0
 21
34.9
 31
0.0
  0
LINE
  5
D11E
  8
DANMEN
  6
CONTINUOUS
 10
43.570786
 20
34.0
 30
0.0
 11
50.33287
 21
34.0
 31
0.0
  0
LINE
  5
D11F
  8
DANMEN
  6
CONTINUOUS
 10
44.1
 20
36.0
 30
0.0
 11
50.0
 21
36.0
 31
0.0
  0
ARC
  5
D120
  8
DANMEN
  6
CONTINUOUS
 10
43.399994
 20
34.399994
 30
0.0
 40
0.4
 50
180.000019
 51
359.999983
  0
LINE
  5
D124
  8
DANMEN
  6
CONTINUOUS
 10
43.0
 20
36.300003
 30
0.0
 11
43.0
 21
34.399994
 31
0.0
  0
LINE
  5
D126
  8
DANMEN
  6
CONTINUOUS
 10
44.1
 20
36.670823
 30
0.0
 11
44.1
 21
36.0
 31
0.0
  0
ARC
  5
D127
  8
DANMEN
  6
CONTINUOUS
 10
43.6
 20
36.670823
 30
0.0
 40
0.5
 50
0.0
 51
63.434949
  0
LINE
  5
D12B
  8
DANMEN
  6
CONTINUOUS
 10
43.800003
 20
34.9
 30
0.0
 11
43.800003
 21
34.399994
 31
0.0
  0
LINE
  5
D12D
  8
DANMEN
  6
CONTINUOUS
 10
50.5
 20
34.0
 30
0.0
 11
55.0
 21
34.0
 31
0.0
  0
ARC
  5
D131
  8
DANMEN
  6
CONTINUOUS
 10
50.5
 20
34.5
 30
0.0
 40
0.5
 50
180.000019
 51
270.000001
  0
LINE
  5
D132
  8
DANMEN
  6
CONTINUOUS
 10
50.0
 20
34.9
 30
0.0
 11
50.0
 21
34.5
 31
0.0
  0
LINE
  5
D135
  8
DANMEN
  6
CONTINUOUS
 10
40.0
 20
43.399994
 30
0.0
 11
40.0
 21
38.10902
 31
0.0
  0
LINE
  5
D136
  8
DANMEN
  6
CONTINUOUS
 10
41.199997
 20
43.399994
 30
0.0
 11
41.199997
 21
38.429842
 31
0.0
  0
ARC
  5
D137
  8
DANMEN
  6
CONTINUOUS
 10
40.600006
 20
43.399994
 30
0.0
 40
0.6
 50
0.0
 51
180.000019
  0
ARC
  5
D139
  8
DANMEN
  6
CONTINUOUS
 10
40.5
 20
38.10902
 30
0.0
 40
0.5
 50
180.0
 51
243.434949
  0
LINE
  5
D13D
  8
DANMEN
  6
CONTINUOUS
 10
55.052282
 20
48.755789
 30
0.0
 11
50.521146
 21
46.284248
 31
0.0
  0
ARC
  5
D13E
  8
DANMEN
  6
CONTINUOUS
 10
51.0
 20
45.406353
 30
0.0
 40
1.0
 50
118.610582
 51
180.0
  0
ARC
  5
D142
  8
DANMEN
  6
CONTINUOUS
 10
55.5
 20
34.649994
 30
0.0
 40
1.0
 50
0.0
 51
89.999982
  0
LINE
  5
D143
  8
DANMEN
  6
CONTINUOUS
 10
63.2
 20
47.3
 30
0.0
 11
64.8
 21
47.3
 31
0.0
  0
LINE
  5
D144
  8
DANMEN
  6
CONTINUOUS
 10
55.920742
 20
47.35
 30
0.0
 11
59.7
 21
47.35
 31
0.0
  0
ARC
  5
D146
  8
DANMEN
  6
CONTINUOUS
 10
62.7
 20
44.969694
 30
0.0
 40
2.0
 50
180.0
 51
231.706523
  0
ARC
  5
D147
  8
DANMEN
  6
CONTINUOUS
 10
59.7
 20
46.35
 30
0.0
 40
1.0
 50
0.0
 51
90.0
  0
ARC
  5
D149
  8
DANMEN
  6
CONTINUOUS
 10
62.6
 20
43.7
 30
0.0
 40
0.3
 50
270.0
 51
0.0
  0
LINE
  5
D14A
  8
DANMEN
  6
CONTINUOUS
 10
61.460621
 20
43.4
 30
0.0
 11
62.6
 21
43.4
 31
0.0
  0
LINE
  5
D14B
  8
DANMEN
  6
CONTINUOUS
 10
62.2
 20
45.053939
 30
0.0
 11
62.2
 21
46.3
 31
0.0
  0
LINE
  5
D14C
  8
DANMEN
  6
CONTINUOUS
 10
60.7
 20
44.969694
 30
0.0
 11
60.7
 21
46.35
 31
0.0
  0
ARC
  5
D14D
  8
DANMEN
  6
CONTINUOUS
 10
63.2
 20
46.3
 30
0.0
 40
1.0
 50
90.0
 51
180.0
  0
LINE
  5
D14E
  8
DANMEN
  6
CONTINUOUS
 10
62.9
 20
43.7
 30
0.0
 11
62.9
 21
43.963068
 31
0.0
  0
ARC
  5
D14F
  8
DANMEN
  6
CONTINUOUS
 10
63.2
 20
45.053939
 30
0.0
 40
1.0
 50
180.0
 51
245.375682
  0
ARC
  5
D150
  8
DANMEN
  6
CONTINUOUS
 10
62.7
 20
43.963068
 30
0.0
 40
0.2
 50
0.0
 51
65.375682
  0
LINE
  5
D151
  8
DANMEN
  6
CONTINUOUS
 10
65.956524
 20
43.4
 30
0.0
 11
66.601274
 21
41.917076
 31
0.0
  0
ARC
  5
D152
  8
DANMEN
  6
CONTINUOUS
 10
70.927452
 20
43.252808
 30
0.0
 40
0.5
 50
293.49856
 51
23.49856
  0
ARC
  5
D153
  8
DANMEN
  6
CONTINUOUS
 10
67.518344
 20
42.315802
 30
0.0
 40
1.0
 50
203.49856
 51
293.49856
  0
LINE
  5
D157
  8
DANMEN
  6
CONTINUOUS
 10
71.126815
 20
42.794273
 30
0.0
 11
67.91707
 21
41.398732
 31
0.0
  0
LINE
  5
D159
  8
DANMEN
  6
CONTINUOUS
 10
67.3
 20
44.448185
 30
0.0
 11
67.855268
 21
43.171069
 31
0.0
  0
LINE
  5
D15A
  8
DANMEN
  6
CONTINUOUS
 10
67.3
 20
47.350006
 30
0.0
 11
69.741901
 21
47.350006
 31
0.0
  0
LINE
  5
D15B
  8
DANMEN
  6
CONTINUOUS
 10
65.8
 20
45.053939
 30
0.0
 11
65.8
 21
46.3
 31
0.0
  0
LINE
  5
D15C
  8
DANMEN
  6
CONTINUOUS
 10
67.3
 20
44.448185
 30
0.0
 11
67.3
 21
47.350006
 31
0.0
  0
ARC
  5
D15D
  8
DANMEN
  6
CONTINUOUS
 10
65.3
 20
43.963068
 30
0.0
 40
0.2
 50
114.624318
 51
180.0
  0
ARC
  5
D15E
  8
DANMEN
  6
CONTINUOUS
 10
64.8
 20
45.053939
 30
0.0
 40
1.0
 50
294.624318
 51
0.0
  0
LINE
  5
D15F
  8
DANMEN
  6
CONTINUOUS
 10
65.1
 20
43.7
 30
0.0
 11
65.1
 21
43.963068
 31
0.0
  0
ARC
  5
D164
  8
DANMEN
  6
CONTINUOUS
 10
65.4
 20
43.7
 30
0.0
 40
0.3
 50
180.0
 51
270.0
  0
LINE
  5
D165
  8
DANMEN
  6
CONTINUOUS
 10
65.4
 20
43.4
 30
0.0
 11
65.956524
 21
43.4
 31
0.0
  0
ARC
  5
D166
  8
DANMEN
  6
CONTINUOUS
 10
64.8
 20
46.3
 30
0.0
 40
1.0
 50
0.0
 51
90.0
  0
LINE
  5
D167
  8
DANMEN
  6
CONTINUOUS
 10
70.468917
 20
44.307438
 30
0.0
 11
67.855268
 21
43.171069
 31
0.0
  0
LINE
  5
D168
  8
DANMEN
  6
CONTINUOUS
 10
71.126816
 20
44.048266
 30
0.0
 11
71.385987
 21
43.452171
 31
0.0
  0
ARC
  5
D169
  8
DANMEN
  6
CONTINUOUS
 10
70.66828
 20
43.848903
 30
0.0
 40
0.5
 50
23.49856
 51
113.49856
  0
ARC
  5
D16C
  8
DANMEN
  6
CONTINUOUS
 10
69.741901
 20
47.850006
 30
0.0
 40
0.5
 50
270.0
 51
293.756476
  0
LINE
  5
D16D
  8
DANMEN
  6
CONTINUOUS
 10
53.649997
 20
54.0
 30
0.0
 11
58.0
 21
54.0
 31
0.0
  0
LINE
  5
D170
  8
DANMEN
  6
CONTINUOUS
 10
50.0
 20
54.0
 30
0.0
 11
52.699999
 21
54.0
 31
0.0
  0
ARC
  5
D185
  8
DANMEN
  6
CONTINUOUS
 10
62.0
 20
60.0
 30
0.0
 40
4.0
 50
0.0
 51
180.000019
  0
ARC
  5
D186
  8
DANMEN
  6
CONTINUOUS
 10
62.0
 20
58.0
 30
0.0
 40
3.0
 50
48.189683
 51
131.810302
  0
ARC
  5
D187
  8
DANMEN
  6
CONTINUOUS
 10
61.0
 20
60.29129
 30
0.0
 40
0.5
 50
113.578068
 51
179.999745
  0
ARC
  5
D188
  8
DANMEN
  6
CONTINUOUS
 10
63.0
 20
60.29129
 30
0.0
 40
0.5
 50
0.000279
 51
66.42195
  0
LINE
  5
D189
  8
DANMEN
  6
CONTINUOUS
 10
63.5
 20
49.0
 30
0.0
 11
69.5
 21
49.0
 31
0.0
  0
LINE
  5
D18A
  8
DANMEN
  6
CONTINUOUS
 10
58.0
 20
60.0
 30
0.0
 11
58.0
 21
54.0
 31
0.0
  0
LINE
  5
D18B
  8
DANMEN
  6
CONTINUOUS
 10
63.5
 20
60.29129
 30
0.0
 11
63.5
 21
49.0
 31
0.0
  0
LINE
  5
D18C
  8
DANMEN
  6
CONTINUOUS
 10
61.850006
 20
56.847046
 30
0.0
 11
61.850006
 21
49.0
 31
0.0
  0
LINE
  5
D18D
  8
DANMEN
  6
CONTINUOUS
 10
56.00999
 20
49.0
 30
0.0
 11
61.850006
 21
49.0
 31
0.0
  0
LINE
  5
D191
  8
DANMEN
  6
CONTINUOUS
 10
58.5
 20
59.0
 30
0.0
 11
60.0
 21
59.0
 31
0.0
  0
LINE
  5
D192
  8
DANMEN
  6
CONTINUOUS
 10
60.5
 20
60.29129
 30
0.0
 11
60.5
 21
59.152954
 31
0.0
  0
LINE
  5
D195
  8
DANMEN
  6
CONTINUOUS
 10
61.764431
 20
57.126784
 30
0.0
 11
60.585579
 21
58.873223
 31
0.0
  0
ARC
  5
D196
  8
DANMEN
  6
CONTINUOUS
 10
61.350006
 20
56.847046
 30
0.0
 40
0.5
 50
0.000664
 51
34.020021
  0
ARC
  5
D197
  8
DANMEN
  6
CONTINUOUS
 10
61.0
 20
59.152954
 30
0.0
 40
0.5
 50
180.000309
 51
214.019733
  0
LINE
  5
D198
  8
DANMEN
  6
CONTINUOUS
 10
66.0
 20
60.0
 30
0.0
 11
66.0
 21
54.0
 31
0.0
  0
LINE
  5
D19A
  8
DANMEN
  6
CONTINUOUS
 10
64.0
 20
59.0
 30
0.0
 11
65.5
 21
59.0
 31
0.0
  0
LINE
  5
D19B
  8
DANMEN
  6
CONTINUOUS
 10
57.999959
 20
63.499942
 30
0.0
 11
58.49996
 21
62.999941
 31
0.0
  0
ARC
  5
D1A1
  8
DANMEN
  6
CONTINUOUS
 10
62.0
 20
58.0
 30
0.0
 40
3.0
 50
66.421841
 51
113.578178
  0
LINE
  5
D1A5
  8
DANMEN
  6
CONTINUOUS
 10
65.499925
 20
62.99994
 30
0.0
 11
65.999925
 21
63.499939
 31
0.0
  0
ARC
  5
D1BE
  8
DANMEN
  6
CONTINUOUS
 10
62.0
 20
84.5
 30
0.0
 40
3.5
 50
235.150098
 51
304.84989
  0
LINE
  5
D1BF
  8
DANMEN
  6
CONTINUOUS
 10
58.5
 20
83.0
 30
0.0
 11
60.0
 21
83.0
 31
0.0
  0
LINE
  5
D1C0
  8
DANMEN
  6
CONTINUOUS
 10
57.999965
 20
78.499883
 30
0.0
 11
58.499965
 21
78.999883
 31
0.0
  0
LINE
  5
D1C1
  8
DANMEN
  6
CONTINUOUS
 10
65.499938
 20
78.999915
 30
0.0
 11
65.999938
 21
78.499915
 31
0.0
  0
LINE
  5
D1C2
  8
DANMEN
  6
CONTINUOUS
 10
64.0
 20
83.0
 30
0.0
 11
65.5
 21
83.0
 31
0.0
  0
LINE
  5
D1F2
  8
DANMEN
  6
CONTINUOUS
 10
75.0826
 20
73.320122
 30
0.0
 11
75.780718
 21
72.0
 31
0.0
  0
LINE
  5
D1F3
  8
DANMEN
  6
CONTINUOUS
 10
74.8174
 20
73.179877
 30
0.0
 11
75.6
 21
71.7
 31
0.0
  0
ARC
  5
D1F4
  8
DANMEN
  6
CONTINUOUS
 10
74.282155
 20
72.336342
 30
0.0
 40
0.25
 50
179.716853
 51
357.49922
  0
LINE
  5
D1F5
  8
DANMEN
  6
CONTINUOUS
 10
77.0
 20
73.7
 30
0.0
 11
77.0
 21
72.0
 31
0.0
  0
LINE
  5
D1F6
  8
DANMEN
  6
CONTINUOUS
 10
78.2
 20
73.7
 30
0.0
 11
78.2
 21
72.0
 31
0.0
  0
LINE
  5
D1F7
  8
DANMEN
  6
CONTINUOUS
 10
94.5
 20
72.2
 30
0.0
 11
94.5
 21
60.003636
 31
0.0
  0
LINE
  5
D1F8
  8
DANMEN
  6
CONTINUOUS
 10
79.500003
 20
76.0
 30
0.0
 11
79.500003
 21
69.8
 31
0.0
  0
LINE
  5
D1F9
  8
DANMEN
  6
CONTINUOUS
 10
80.5
 20
75.2
 30
0.0
 11
80.5
 21
69.5
 31
0.0
  0
LINE
  5
D1FA
  8
DANMEN
  6
CONTINUOUS
 10
101.2
 20
70.666295
 30
0.0
 11
101.2
 21
74.35
 31
0.0
  0
ARC
  5
D1FB
  8
DANMEN
  6
CONTINUOUS
 10
97.2
 20
71.3
 30
0.0
 40
1.0
 50
90.0
 51
180.0
  0
ARC
  5
D1FC
  8
DANMEN
  6
CONTINUOUS
 10
98.7
 20
71.3
 30
0.0
 40
1.0
 50
0.0
 51
90.0
  0
ARC
  5
D1FD
  8
DANMEN
  6
CONTINUOUS
 10
83.0
 20
73.2
 30
0.0
 40
1.0
 50
180.0
 51
270.0
  0
LINE
  5
D1FE
  8
DANMEN
  6
CONTINUOUS
 10
94.5
 20
72.2
 30
0.0
 11
93.5
 21
71.5
 31
0.0
  0
LINE
  5
D1FF
  8
DANMEN
  6
CONTINUOUS
 10
87.5
 20
71.5
 30
0.0
 11
86.5
 21
72.2
 31
0.0
  0
LINE
  5
D200
  8
DANMEN
  6
CONTINUOUS
 10
113.0
 20
93.5
 30
0.0
 11
113.0
 21
59.5
 31
0.0
  0
LINE
  5
D201
  8
DANMEN
  6
CONTINUOUS
 10
111.350006
 20
74.35
 30
0.0
 11
111.350006
 21
62.08182
 31
0.0
  0
LINE
  5
D202
  8
DANMEN
  6
CONTINUOUS
 10
87.5
 20
71.5
 30
0.0
 11
93.5
 21
71.5
 31
0.0
  0
LINE
  5
D203
  8
DANMEN
  6
CONTINUOUS
 10
74.0
 20
69.500007
 30
0.0
 11
74.0
 21
54.0
 31
0.0
  0
LINE
  5
D204
  8
DANMEN
  6
CONTINUOUS
 10
77.5
 20
69.0
 30
0.0
 11
80.000003
 21
69.0
 31
0.0
  0
LINE
  5
D205
  8
DANMEN
  6
CONTINUOUS
 10
75.6
 20
71.7
 30
0.0
 11
76.4
 21
71.7
 31
0.0
  0
LINE
  5
D206
  8
DANMEN
  6
CONTINUOUS
 10
75.780719
 20
72.0
 30
0.0
 11
77.0
 21
72.0
 31
0.0
  0
ARC
  5
D211
  8
DANMEN
  6
CONTINUOUS
 10
76.599999
 20
70.399999
 30
0.0
 40
0.2
 50
180.000019
 51
270.000001
  0
LINE
  5
D213
  8
DANMEN
  6
CONTINUOUS
 10
76.4
 20
71.7
 30
0.0
 11
76.4
 21
70.399999
 31
0.0
  0
LINE
  5
D216
  8
DANMEN
  6
CONTINUOUS
 10
77.0
 20
71.199999
 30
0.0
 11
78.0
 21
71.199999
 31
0.0
  0
LINE
  5
D218
  8
DANMEN
  6
CONTINUOUS
 10
76.599999
 20
70.199999
 30
0.0
 11
77.0
 21
70.199999
 31
0.0
  0
LINE
  5
D219
  8
DANMEN
  6
CONTINUOUS
 10
78.0
 20
71.199999
 30
0.0
 11
78.0
 21
70.199999
 31
0.0
  0
LINE
  5
D21A
  8
DANMEN
  6
CONTINUOUS
 10
78.2
 20
72.0
 30
0.0
 11
79.0
 21
71.2
 31
0.0
  0
LINE
  5
D21C
  8
DANMEN
  6
CONTINUOUS
 10
79.0
 20
71.199999
 30
0.0
 11
79.0
 21
70.199999
 31
0.0
  0
ARC
  5
D21D
  8
DANMEN
  6
CONTINUOUS
 10
78.2
 20
70.199999
 30
0.0
 40
0.2
 50
180.000019
 51
270.000001
  0
ARC
  5
D21F
  8
DANMEN
  6
CONTINUOUS
 10
78.8
 20
70.199999
 30
0.0
 40
0.2
 50
270.000018
 51
0.0
  0
LINE
  5
D221
  8
DANMEN
  6
CONTINUOUS
 10
77.0
 20
71.199999
 30
0.0
 11
77.0
 21
70.199999
 31
0.0
  0
LINE
  5
D222
  8
DANMEN
  6
CONTINUOUS
 10
78.2
 20
70.0
 30
0.0
 11
78.8
 21
70.0
 31
0.0
  0
LINE
  5
D223
  8
DANMEN
  6
CONTINUOUS
 10
77.0
 20
70.699997
 30
0.0
 11
77.0
 21
69.5
 31
0.0
  0
LINE
  5
D224
  8
DANMEN
  6
CONTINUOUS
 10
77.800003
 20
71.199997
 30
0.0
 11
77.800003
 21
69.8
 31
0.0
  0
ARC
  5
D225
  8
DANMEN
  6
CONTINUOUS
 10
77.5
 20
69.5
 30
0.0
 40
0.5
 50
180.000019
 51
270.000001
  0
ARC
  5
D226
  8
DANMEN
  6
CONTINUOUS
 10
77.5
 20
70.699997
 30
0.0
 40
0.5
 50
89.999982
 51
180.000019
  0
LINE
  5
D227
  8
DANMEN
  6
CONTINUOUS
 10
77.5
 20
71.199997
 30
0.0
 11
77.800003
 21
71.199997
 31
0.0
  0
LINE
  5
D228
  8
DANMEN
  6
CONTINUOUS
 10
77.800003
 20
69.8
 30
0.0
 11
79.5
 21
69.8
 31
0.0
  0
ARC
  5
D22E
  8
DANMEN
  6
CONTINUOUS
 10
80.0
 20
69.5
 30
0.0
 40
0.5
 50
270.000018
 51
0.0
  0
LINE
  5
D231
  8
DANMEN
  6
CONTINUOUS
 10
96.15
 20
66.3
 30
0.0
 11
96.15
 21
59.579555
 31
0.0
  0
ARC
  5
D233
  8
DANMEN
  6
CONTINUOUS
 10
95.15
 20
59.579555
 30
0.0
 40
1.0
 50
293.756476
 51
0.0
  0
ARC
  5
D234
  8
DANMEN
  6
CONTINUOUS
 10
97.2
 20
69.8
 30
0.0
 40
1.0
 50
180.0
 51
270.0
  0
ARC
  5
D235
  8
DANMEN
  6
CONTINUOUS
 10
97.15
 20
66.3
 30
0.0
 40
1.0
 50
90.0
 51
180.0
  0
LINE
  5
D236
  8
DANMEN
  6
CONTINUOUS
 10
96.2
 20
69.8
 30
0.0
 11
96.2
 21
71.3
 31
0.0
  0
ARC
  5
D239
  8
DANMEN
  6
CONTINUOUS
 10
100.45
 20
70.666295
 30
0.0
 40
0.75
 50
180.0
 51
0.0
  0
LINE
  5
D23A
  8
DANMEN
  6
CONTINUOUS
 10
99.7
 20
70.666295
 30
0.0
 11
99.7
 21
71.3
 31
0.0
  0
LINE
  5
D23B
  8
DANMEN
  6
CONTINUOUS
 10
97.2
 20
68.8
 30
0.0
 11
97.833705
 21
68.8
 31
0.0
  0
LINE
  5
D23C
  8
DANMEN
  6
CONTINUOUS
 10
97.15
 20
67.3
 30
0.0
 11
97.833705
 21
67.3
 31
0.0
  0
ARC
  5
D23D
  8
DANMEN
  6
CONTINUOUS
 10
97.833705
 20
68.05
 30
0.0
 40
0.75
 50
270.0
 51
90.0
  0
LINE
  5
D23F
  8
DANMEN
  6
CONTINUOUS
 10
113.0
 20
59.345612
 30
0.0
 11
113.0
 21
34.0
 31
0.0
  0
ARC
  5
D240
  8
DANMEN
  6
CONTINUOUS
 10
108.41465
 20
60.260364
 30
0.0
 40
0.5
 50
113.49856
 51
203.49856
  0
ARC
  5
D241
  8
DANMEN
  6
CONTINUOUS
 10
112.5
 20
59.5
 30
0.0
 40
0.5
 50
270.0
 51
0.0
  0
ARC
  5
D242
  8
DANMEN
  6
CONTINUOUS
 10
108.673822
 20
59.664268
 30
0.0
 40
0.5
 50
203.49856
 51
293.49856
  0
LINE
  5
D243
  8
DANMEN
  6
CONTINUOUS
 10
108.215287
 20
59.464905
 30
0.0
 11
107.956115
 21
60.061001
 31
0.0
  0
LINE
  5
D245
  8
DANMEN
  6
CONTINUOUS
 10
111.9
 20
59.0
 30
0.0
 11
112.5
 21
59.0
 31
0.0
  0
LINE
  5
D246
  8
DANMEN
  6
CONTINUOUS
 10
111.9
 20
59.759133
 30
0.0
 11
111.9
 21
59.0
 31
0.0
  0
LINE
  5
D248
  8
DANMEN
  6
CONTINUOUS
 10
111.200637
 20
60.217668
 30
0.0
 11
108.873185
 21
59.205733
 31
0.0
  0
ARC
  5
D249
  8
DANMEN
  6
CONTINUOUS
 10
111.4
 20
59.759133
 30
0.0
 40
0.5
 50
0.0
 51
113.49856
  0
LINE
  5
D24B
  8
DANMEN
  6
CONTINUOUS
 10
111.350006
 20
62.08182
 30
0.0
 11
108.215287
 21
60.718899
 31
0.0
  0
TEXT
  5
D252
  8
SUNPO
  6
CONTINUOUS
 10
101.364674
 20
109.790488
 30
0.0
 40
2.5
  1
2.5
  0
LINE
  5
D253
  8
SUNPO
  6
CONTINUOUS
 10
102.0
 20
108.790488
 30
0.0
 11
107.614674
 21
108.790488
 31
0.0
  0
LINE
  5
D254
  8
DANMEN
  6
CONTINUOUS
 10
100.05
 20
76.0
 30
0.0
 11
111.35
 21
76.0
 31
0.0
  0
LINE
  5
D255
  8
DANMEN
  6
CONTINUOUS
 10
101.2
 20
74.35
 30
0.0
 11
111.350006
 21
74.35
 31
0.0
  0
LINE
  5
D256
  8
DANMEN
  6
CONTINUOUS
 10
100.0
 20
87.2
 30
0.0
 11
111.35
 21
87.2
 31
0.0
  0
LINE
  5
D257
  8
DANMEN
  6
CONTINUOUS
 10
102.0
 20
89.0
 30
0.0
 11
111.35
 21
89.0
 31
0.0
  0
ARC
  5
D258
  8
DANMEN
  6
DASHED
 10
77.5
 20
94.699997
 30
0.0
 40
0.5
 50
90.0
 51
180.0
  0
ARC
  5
D259
  8
DANMEN
  6
DASHED
 10
102.0
 20
94.699997
 30
0.0
 40
0.5
 50
0.0
 51
89.999982
  0
ARC
  5
D25A
  8
DANMEN
  6
CONTINUOUS
 10
98.500015
 20
94.999908
 30
0.0
 40
1.5
 50
359.999964
 51
90.000001
  0
ARC
  5
D25B
  8
DANMEN
  6
CONTINUOUS
 10
85.500015
 20
94.999908
 30
0.0
 40
1.5
 50
90.000018
 51
180.0
  0
LINE
  5
D25C
  8
DANMEN
  6
CONTINUOUS
 10
87.0
 20
87.0
 30
0.0
 11
97.0
 21
87.0
 31
0.0
  0
LINE
  5
D25D
  8
DANMEN
  6
CONTINUOUS
 10
97.0
 20
87.0
 30
0.0
 11
87.0
 21
74.0
 31
0.0
  0
LINE
  5
D25E
  8
DANMEN
  6
DASHED
 10
102.0
 20
95.199997
 30
0.0
 11
77.5
 21
95.199997
 31
0.0
  0
LINE
  5
D25F
  8
DANMEN
  6
DASHED
 10
98.0
 20
94.0
 30
0.0
 11
86.0
 21
94.0
 31
0.0
  0
LINE
  5
D260
  8
DANMEN
  6
CONTINUOUS
 10
83.8
 20
74.0
 30
0.0
 11
99.55
 21
74.0
 31
0.0
  0
LINE
  5
D261
  8
DANMEN
  6
CONTINUOUS
 10
74.0
 20
94.0
 30
0.0
 11
82.0
 21
77.0
 31
0.0
  0
LINE
  5
D262
  8
DANMEN
  6
CONTINUOUS
 10
82.0
 20
94.0
 30
0.0
 11
74.0
 21
77.0
 31
0.0
  0
LINE
  5
D263
  8
DANMEN
  6
CONTINUOUS
 10
82.0
 20
94.0
 30
0.0
 11
82.0
 21
77.0
 31
0.0
  0
LINE
  5
D264
  8
DANMEN
  6
CONTINUOUS
 10
87.0
 20
74.0
 30
0.0
 11
87.0
 21
87.0
 31
0.0
  0
LINE
  5
D265
  8
DANMEN
  6
CONTINUOUS
 10
82.0
 20
93.5
 30
0.0
 11
82.0
 21
77.0
 31
0.0
  0
LINE
  5
D266
  8
DANMEN
  6
CONTINUOUS
 10
83.8
 20
91.0
 30
0.0
 11
83.8
 21
74.0
 31
0.0
  0
LINE
  5
D267
  8
DANMEN
  6
CONTINUOUS
 10
74.0
 20
77.0
 30
0.0
 11
82.0
 21
77.0
 31
0.0
  0
LINE
  5
D268
  8
DANMEN
  6
CONTINUOUS
 10
77.5
 20
77.0
 30
0.0
 11
82.0
 21
77.0
 31
0.0
  0
LINE
  5
D269
  8
DANMEN
  6
CONTINUOUS
 10
75.386229
 20
76.2
 30
0.0
 11
76.2
 21
76.2
 31
0.0
  0
LINE
  5
D26A
  8
DANMEN
  6
CONTINUOUS
 10
75.0
 20
77.0
 30
0.0
 11
77.0
 21
77.0
 31
0.0
  0
ARC
  5
D26C
  8
DANMEN
  6
CONTINUOUS
 10
86.020964
 20
71.823655
 30
0.0
 40
11.5
 50
157.632138
 51
177.49922
  0
ARC
  5
D272
  8
DANMEN
  6
CONTINUOUS
 10
74.95
 20
73.25
 30
0.0
 40
0.15
 50
27.871157
 51
207.871179
  0
ARC
  5
D274
  8
DANMEN
  6
CONTINUOUS
 10
86.032011
 20
72.27827
 30
0.0
 40
12.0
 50
156.828944
 51
179.716853
  0
ARC
  5
D279
  8
DANMEN
  6
CONTINUOUS
 10
76.6
 20
74.1
 30
0.0
 40
0.4
 50
180.000019
 51
270.000001
  0
LINE
  5
D27B
  8
DANMEN
  6
CONTINUOUS
 10
76.2
 20
76.2
 30
0.0
 11
76.2
 21
74.1
 31
0.0
  0
LINE
  5
D282
  8
DANMEN
  6
CONTINUOUS
 10
77.0
 20
77.0
 30
0.0
 11
77.0
 21
74.5
 31
0.0
  0
LINE
  5
D283
  8
DANMEN
  6
CONTINUOUS
 10
76.6
 20
73.7
 30
0.0
 11
77.0
 21
73.7
 31
0.0
  0
LINE
  5
D285
  8
DANMEN
  6
CONTINUOUS
 10
77.0
 20
74.5
 30
0.0
 11
78.0
 21
74.5
 31
0.0
  0
LINE
  5
D286
  8
DANMEN
  6
CONTINUOUS
 10
79.0
 20
74.5
 30
0.0
 11
78.2
 21
73.7
 31
0.0
  0
ARC
  5
D289
  8
DANMEN
  6
CONTINUOUS
 10
78.2
 20
75.5
 30
0.0
 40
0.2
 50
89.999982
 51
180.000019
  0
ARC
  5
D28B
  8
DANMEN
  6
CONTINUOUS
 10
78.8
 20
75.5
 30
0.0
 40
0.2
 50
0.0
 51
89.999982
  0
LINE
  5
D28D
  8
DANMEN
  6
CONTINUOUS
 10
78.0
 20
75.5
 30
0.0
 11
78.0
 21
74.5
 31
0.0
  0
LINE
  5
D28E
  8
DANMEN
  6
CONTINUOUS
 10
78.2
 20
75.699999
 30
0.0
 11
78.8
 21
75.699999
 31
0.0
  0
LINE
  5
D28F
  8
DANMEN
  6
CONTINUOUS
 10
79.0
 20
75.5
 30
0.0
 11
79.0
 21
74.5
 31
0.0
  0
LINE
  5
D290
  8
DANMEN
  6
CONTINUOUS
 10
77.0
 20
76.5
 30
0.0
 11
77.0
 21
75.300003
 31
0.0
  0
LINE
  5
D291
  8
DANMEN
  6
CONTINUOUS
 10
77.5
 20
74.800003
 30
0.0
 11
77.800003
 21
74.800003
 31
0.0
  0
LINE
  5
D292
  8
DANMEN
  6
CONTINUOUS
 10
77.800003
 20
76.0
 30
0.0
 11
77.800003
 21
74.800003
 31
0.0
  0
ARC
  5
D293
  8
DANMEN
  6
CONTINUOUS
 10
77.5
 20
75.300003
 30
0.0
 40
0.5
 50
180.000019
 51
270.000001
  0
LINE
  5
D294
  8
DANMEN
  6
CONTINUOUS
 10
77.800003
 20
76.0
 30
0.0
 11
79.5
 21
76.0
 31
0.0
  0
ARC
  5
D295
  8
DANMEN
  6
CONTINUOUS
 10
77.5
 20
76.5
 30
0.0
 40
0.5
 50
89.999982
 51
180.000019
  0
LINE
  5
D2A1
  8
DANMEN
  6
CONTINUOUS
 10
83.0
 20
72.2
 30
0.0
 11
86.5
 21
72.2
 31
0.0
  0
LINE
  5
D2A2
  8
DANMEN
  6
CONTINUOUS
 10
82.0
 20
73.2
 30
0.0
 11
82.0
 21
75.2
 31
0.0
  0
LINE
  5
D2A5
  8
DANMEN
  6
CONTINUOUS
 10
80.5
 20
75.2
 30
0.0
 11
82.0
 21
75.2
 31
0.0
  0
LINE
  5
D2AC
  8
DANMEN
  6
CONTINUOUS
 10
74.0
 20
94.0
 30
0.0
 11
82.0
 21
94.0
 31
0.0
  0
LINE
  5
D2AD
  8
DANMEN
  6
DASHED
 10
84.5
 20
94.0
 30
0.0
 11
78.714146
 21
94.0
 31
0.0
  0
ARC
  5
D2B2
  8
DANMEN
  6
DASHED
 10
77.5
 20
94.199997
 30
0.0
 40
0.5
 50
180.0
 51
270.0
  0
LINE
  5
D2B3
  8
DANMEN
  6
DASHED
 10
77.0
 20
94.699997
 30
0.0
 11
77.0
 21
94.199997
 31
0.0
  0
LINE
  5
D2B4
  8
DANMEN
  6
DASHED
 10
78.0
 20
93.699997
 30
0.0
 11
77.5
 21
93.699997
 31
0.0
  0
ARC
  5
D2B5
  8
DANMEN
  6
DASHED
 10
78.714146
 20
93.0
 30
0.0
 40
1.0
 50
89.999982
 51
135.573244
  0
LINE
  5
D2B6
  8
DANMEN
  6
DASHED
 10
85.5
 20
89.399997
 30
0.0
 11
85.5
 21
93.5
 31
0.0
  0
LINE
  5
D2B7
  8
DANMEN
  6
DASHED
 10
84.023824
 20
90.382864
 30
0.0
 11
85.423825
 21
87.082833
 31
0.0
  0
ARC
  5
D2BB
  8
DANMEN
  6
DASHED
 10
85.7
 20
87.199997
 30
0.0
 40
0.3
 50
202.988532
 51
12.999521
  0
LINE
  5
D2BC
  8
DANMEN
  6
DASHED
 10
85.5
 20
89.399997
 30
0.0
 11
85.992312
 21
87.26748
 31
0.0
  0
ARC
  5
D2BD
  8
DANMEN
  6
DASHED
 10
84.299999
 20
90.500028
 30
0.0
 40
0.3
 50
124.343976
 51
202.988532
  0
ARC
  5
D2BE
  8
DANMEN
  6
CONTINUOUS
 10
84.0
 20
93.5
 30
0.0
 40
0.5
 50
0.0
 51
90.0
  0
LINE
  5
D2BF
  8
DANMEN
  6
CONTINUOUS
 10
83.8
 20
91.0
 30
0.0
 11
84.5
 21
91.0
 31
0.0
  0
LINE
  5
D2C1
  8
DANMEN
  6
CONTINUOUS
 10
82.5
 20
94.0
 30
0.0
 11
84.0
 21
94.0
 31
0.0
  0
ARC
  5
D2C2
  8
DANMEN
  6
CONTINUOUS
 10
82.5
 20
93.5
 30
0.0
 40
0.5
 50
90.0
 51
180.0
  0
LINE
  5
D2C8
  8
DANMEN
  6
DASHED
 10
84.5
 20
91.000035
 30
0.0
 11
84.130743
 21
90.747729
 31
0.0
  0
LINE
  5
D2C9
  8
DANMEN
  6
DASHED
 10
84.5
 20
94.0
 30
0.0
 11
84.5
 21
91.000035
 31
0.0
  0
ARC
  5
D2CA
  8
DANMEN
  6
DASHED
 10
86.0
 20
93.5
 30
0.0
 40
0.5
 50
90.0
 51
180.0
  0
LINE
  5
D2CC
  8
DANMEN
  6
CONTINUOUS
 10
84.5
 20
93.5
 30
0.0
 11
84.5
 21
91.0
 31
0.0
  0
LINE
  5
D2CF
  8
DANMEN
  6
CONTINUOUS
 10
97.0
 20
74.0
 30
0.0
 11
97.0
 21
87.0
 31
0.0
  0
LINE
  5
D2D0
  8
DANMEN
  6
DASHED
 10
99.976176
 20
86.882864
 30
0.0
 11
98.576175
 21
83.582833
 31
0.0
  0
ARC
  5
D2D1
  8
DANMEN
  6
DASHED
 10
98.3
 20
83.699997
 30
0.0
 40
0.3
 50
167.000479
 51
337.011468
  0
LINE
  5
D2D4
  8
DANMEN
  6
CONTINUOUS
 10
97.2
 20
72.3
 30
0.0
 11
98.7
 21
72.3
 31
0.0
  0
LINE
  5
D2D5
  8
DANMEN
  6
CONTINUOUS
 10
99.55
 20
74.0
 30
0.0
 11
99.55
 21
75.5
 31
0.0
  0
ARC
  5
D2D6
  8
DANMEN
  6
CONTINUOUS
 10
100.05
 20
75.5
 30
0.0
 40
0.5
 50
90.0
 51
180.0
  0
LINE
  5
D2DD
  8
DANMEN
  6
DASHED
 10
98.5
 20
85.899997
 30
0.0
 11
98.5
 21
93.5
 31
0.0
  0
LINE
  5
D2DE
  8
DANMEN
  6
DASHED
 10
99.5
 20
94.0
 30
0.0
 11
99.5
 21
87.500035
 31
0.0
  0
LINE
  5
D2DF
  8
DANMEN
  6
CONTINUOUS
 10
102.0
 20
93.0
 30
0.0
 11
102.0
 21
89.0
 31
0.0
  0
LINE
  5
D2E0
  8
DANMEN
  6
CONTINUOUS
 10
100.35
 20
88.2
 30
0.0
 11
100.35
 21
91.0
 31
0.0
  0
LINE
  5
D2E4
  8
DANMEN
  6
DASHED
 10
98.5
 20
85.899997
 30
0.0
 11
98.007688
 21
83.76748
 31
0.0
  0
LINE
  5
D2E5
  8
DANMEN
  6
DASHED
 10
99.5
 20
87.500035
 30
0.0
 11
99.869257
 21
87.247729
 31
0.0
  0
ARC
  5
D2E6
  8
DANMEN
  6
DASHED
 10
99.700001
 20
87.000028
 30
0.0
 40
0.3
 50
337.011468
 51
55.656024
  0
LINE
  5
D2E8
  8
DANMEN
  6
CONTINUOUS
 10
100.0
 20
88.2
 30
0.0
 11
100.35
 21
88.2
 31
0.0
  0
ARC
  5
D2E9
  8
DANMEN
  6
CONTINUOUS
 10
100.0
 20
87.7
 30
0.0
 40
0.5
 50
90.0
 51
270.0
  0
LINE
  5
D2EE
  8
DANMEN
  6
DASHED
 10
99.5
 20
94.0
 30
0.0
 11
102.5
 21
94.0
 31
0.0
  0
LINE
  5
D2EF
  8
DANMEN
  6
CONTINUOUS
 10
100.0
 20
94.0
 30
0.0
 11
103.0
 21
94.0
 31
0.0
  0
ARC
  5
D2F2
  8
DANMEN
  6
DASHED
 10
98.0
 20
93.5
 30
0.0
 40
0.5
 50
0.0
 51
90.0
  0
LINE
  5
D2F3
  8
DANMEN
  6
CONTINUOUS
 10
100.35
 20
91.0
 30
0.0
 11
99.5
 21
91.0
 31
0.0
  0
LINE
  5
D2F4
  8
DANMEN
  6
CONTINUOUS
 10
99.5
 20
93.5
 30
0.0
 11
99.5
 21
91.0
 31
0.0
  0
ARC
  5
D2F5
  8
DANMEN
  6
CONTINUOUS
 10
100.0
 20
93.5
 30
0.0
 40
0.5
 50
89.999981
 51
180.000037
  0
LINE
  5
D2FB
  8
DANMEN
  6
DASHED
 10
102.5
 20
94.0
 30
0.0
 11
102.5
 21
94.699997
 31
0.0
  0
LINE
  5
D2FC
  8
DANMEN
  6
CONTINUOUS
 10
103.0
 20
94.0
 30
0.0
 11
103.0
 21
93.5
 31
0.0
  0
LINE
  5
D2FE
  8
DANMEN
  6
CONTINUOUS
 10
102.0
 20
93.0
 30
0.0
 11
102.5
 21
93.0
 31
0.0
  0
ARC
  5
D300
  8
DANMEN
  6
CONTINUOUS
 10
102.5
 20
93.5
 30
0.0
 40
0.5
 50
270.0
 51
0.0
  0
ARC
  5
D302
  8
DANMEN
  6
CONTINUOUS
 10
88.000006
 20
97.999908
 30
0.0
 40
1.5
 50
269.999982
 51
359.999964
  0
LINE
  5
D303
  8
SUNPO
  6
CONTINUOUS
 10
84.5
 20
108.790488
 30
0.0
 11
99.5
 21
108.790488
 31
0.0
  0
LINE
  5
D304
  8
DANMEN
  6
CONTINUOUS
 10
84.5
 20
95.5
 30
0.0
 11
84.5
 21
108.790488
 31
0.0
  0
LINE
  5
D305
  8
SUNPO
  6
CONTINUOUS
 10
84.5
 20
95.5
 30
0.0
 11
84.5
 21
108.790488
 31
0.0
  0
LINE
  5
D306
  8
DANMEN
  6
CONTINUOUS
 10
82.0
 20
95.5
 30
0.0
 11
82.0
 21
108.790488
 31
0.0
  0
LINE
  5
D307
  8
DANMEN
  6
CONTINUOUS
 10
88.000006
 20
96.499908
 30
0.0
 11
85.500015
 21
96.499908
 31
0.0
  0
TEXT
  5
D308
  8
SUNPO
  6
CONTINUOUS
 10
78.1669
 20
109.790488
 30
0.0
 40
2.5
  1
2.5
  0
LINE
  5
D309
  8
SUNPO
  6
CONTINUOUS
 10
76.9169
 20
108.790488
 30
0.0
 11
82.0
 21
108.790488
 31
0.0
  0
LINE
  5
D30A
  8
SUNPO
  6
CONTINUOUS
 10
82.0
 20
108.790488
 30
0.0
 11
84.5
 21
108.790488
 31
0.0
  0
ARC
  5
D30B
  8
SUNPO
  6
BYBLOCK
 10
82.0
 20
108.790488
 30
0.0
 40
0.145
 50
0.0
 51
180.0
  0
ARC
  5
D30C
  8
SUNPO
  6
BYBLOCK
 10
82.0
 20
108.790488
 30
0.0
 40
0.145
 50
180.0
 51
0.0
  0
LINE
  5
D30D
  8
SUNPO
  6
CONTINUOUS
 10
82.0
 20
108.790488
 30
0.0
 11
82.0
 21
108.790488
 31
0.0
  0
ARC
  5
D30E
  8
SUNPO
  6
BYBLOCK
 10
84.5
 20
108.790488
 30
0.0
 40
0.145
 50
180.0
 51
0.0
  0
ARC
  5
D30F
  8
SUNPO
  6
BYBLOCK
 10
84.5
 20
108.790488
 30
0.0
 40
0.145
 50
0.0
 51
180.0
  0
ARC
  5
D310
  8
SUNPO
  6
BYBLOCK
 10
84.5
 20
108.790488
 30
0.0
 40
0.145
 50
180.0
 51
0.0
  0
ARC
  5
D311
  8
SUNPO
  6
BYBLOCK
 10
84.5
 20
108.790488
 30
0.0
 40
0.145
 50
0.0
 51
180.0
  0
LINE
  5
D312
  8
SUNPO
  6
CONTINUOUS
 10
84.5
 20
108.790488
 30
0.0
 11
84.5
 21
108.790488
 31
0.0
  0
LINE
  5
D313
  8
DANMEN
  6
CONTINUOUS
 10
99.5
 20
95.5
 30
0.0
 11
99.5
 21
108.790488
 31
0.0
  0
LINE
  5
D314
  8
DANMEN
  6
CONTINUOUS
 10
102.0
 20
95.5
 30
0.0
 11
102.0
 21
108.790488
 31
0.0
  0
LINE
  5
D315
  8
SUNPO
  6
CONTINUOUS
 10
99.5
 20
95.5
 30
0.0
 11
99.5
 21
108.790488
 31
0.0
  0
LINE
  5
D316
  8
DANMEN
  6
CONTINUOUS
 10
98.500015
 20
96.499908
 30
0.0
 11
96.000009
 21
96.499908
 31
0.0
  0
ARC
  5
D317
  8
DANMEN
  6
CONTINUOUS
 10
96.000009
 20
97.999908
 30
0.0
 40
1.5
 50
180.0
 51
269.999982
  0
TEXT
  5
D318
  8
SUNPO
  6
CONTINUOUS
 10
90.333333
 20
109.790488
 30
0.0
 40
2.5
  1
15
  0
LINE
  5
D319
  8
SUNPO
  6
CONTINUOUS
 10
99.5
 20
108.790488
 30
0.0
 11
102.0
 21
108.790488
 31
0.0
  0
ARC
  5
D31A
  8
SUNPO
  6
BYBLOCK
 10
99.5
 20
108.790488
 30
0.0
 40
0.145
 50
0.0
 51
180.0
  0
ARC
  5
D31B
  8
SUNPO
  6
BYBLOCK
 10
99.5
 20
108.790488
 30
0.0
 40
0.145
 50
180.0
 51
0.0
  0
ARC
  5
D31C
  8
SUNPO
  6
BYBLOCK
 10
99.5
 20
108.790488
 30
0.0
 40
0.145
 50
0.0
 51
180.0
  0
ARC
  5
D31D
  8
SUNPO
  6
BYBLOCK
 10
99.5
 20
108.790488
 30
0.0
 40
0.145
 50
180.0
 51
0.0
  0
LINE
  5
D31E
  8
SUNPO
  6
CONTINUOUS
 10
99.5
 20
108.790488
 30
0.0
 11
99.5
 21
108.790488
 31
0.0
  0
ARC
  5
D31F
  8
SUNPO
  6
BYBLOCK
 10
102.0
 20
108.790488
 30
0.0
 40
0.145
 50
180.0
 51
0.0
  0
ARC
  5
D320
  8
SUNPO
  6
BYBLOCK
 10
102.0
 20
108.790488
 30
0.0
 40
0.145
 50
0.0
 51
180.0
  0
LINE
  5
D321
  8
SUNPO
  6
CONTINUOUS
 10
102.0
 20
108.790488
 30
0.0
 11
102.0
 21
108.790488
 31
0.0
  0
LINE
  5
D322
  8
DANMEN
  6
CONTINUOUS
 10
111.35
 20
87.2
 30
0.0
 11
111.35
 21
76.0
 31
0.0
  0
ARC
  5
D325
  8
DANMEN
  6
CONTINUOUS
 10
112.5
 20
93.5
 30
0.0
 40
0.5
 50
0.0
 51
90.0
  0
LINE
  5
D326
  8
DANMEN
  6
CONTINUOUS
 10
111.35
 20
93.5
 30
0.0
 11
111.35
 21
89.0
 31
0.0
  0
LINE
  5
D329
  8
DANMEN
  6
CONTINUOUS
 10
111.85
 20
94.0
 30
0.0
 11
112.5
 21
94.0
 31
0.0
  0
ARC
  5
D32A
  8
DANMEN
  6
CONTINUOUS
 10
111.85
 20
93.5
 30
0.0
 40
0.5
 50
90.0
 51
180.0
  0
LINE
  5
D32E
  8
DANMEN
  6
CONTINUOUS
 10
199.0
 20
96.5
 30
0.0
 11
199.0
 21
65.1
 31
0.0
  0
LINE
  5
D32F
  8
DANMEN
  6
CONTINUOUS
 10
190.649994
 20
65.649994
 30
0.0
 11
197.350006
 21
65.649994
 31
0.0
  0
LINE
  5
D330
  8
DANMEN
  6
CONTINUOUS
 10
189.0
 20
69.5
 30
0.0
 11
189.0
 21
64.5
 31
0.0
  0
ARC
  5
D331
  8
DANMEN
  6
CONTINUOUS
 10
189.5
 20
64.5
 30
0.0
 40
0.5
 50
180.000036
 51
269.999963
  0
ARC
  5
D333
  8
DANMEN
  6
CONTINUOUS
 10
190.149994
 20
69.5
 30
0.0
 40
0.5
 50
359.999981
 51
89.999982
  0
LINE
  5
D334
  8
DANMEN
  6
CONTINUOUS
 10
189.5
 20
70.0
 30
0.0
 11
190.149994
 21
70.0
 31
0.0
  0
LINE
  5
D335
  8
DANMEN
  6
CONTINUOUS
 10
190.649994
 20
69.5
 30
0.0
 11
190.649994
 21
65.649994
 31
0.0
  0
ARC
  5
D336
  8
DANMEN
  6
CONTINUOUS
 10
189.5
 20
69.5
 30
0.0
 40
0.5
 50
89.999982
 51
180.000019
  0
LINE
  5
D33D
  8
DANMEN
  6
CONTINUOUS
 10
199.0
 20
65.1
 30
0.0
 11
201.0
 21
65.1
 31
0.0
  0
LINE
  5
D33E
  8
DANMEN
  6
CONTINUOUS
 10
201.0
 20
65.649994
 30
0.0
 11
201.0
 21
65.1
 31
0.0
  0
ARC
  5
D340
  8
DANMEN
  6
CONTINUOUS
 10
203.000002
 20
105.361187
 30
0.0
 40
1.0
 50
180.0
 51
261.469234
  0
LINE
  5
D341
  8
DANMEN
  6
CONTINUOUS
 10
199.0
 20
112.5
 30
0.0
 11
199.0
 21
97.6
 31
0.0
  0
ARC
  5
D347
  8
DANMEN
  6
CONTINUOUS
 10
202.500002
 20
107.0
 30
0.0
 40
0.5
 50
89.999999
 51
180.000036
  0
LINE
  5
D349
  8
DANMEN
  6
CONTINUOUS
 10
202.000002
 20
107.0
 30
0.0
 11
202.000002
 21
105.361187
 31
0.0
  0
ARC
  5
D34A
  8
DANMEN
  6
CONTINUOUS
 10
200.457778
 20
107.158773
 30
0.0
 40
0.5
 50
25.709831
 51
272.131619
  0
ARC
  5
D34D
  8
DANMEN
  6
CONTINUOUS
 10
190.149994
 20
128.5
 30
0.0
 40
0.5
 50
270.000018
 51
359.999981
  0
LINE
  5
D34E
  8
DANMEN
  6
CONTINUOUS
 10
189.5
 20
128.0
 30
0.0
 11
190.149994
 21
128.0
 31
0.0
  0
ARC
  5
D34F
  8
DANMEN
  6
CONTINUOUS
 10
189.5
 20
128.5
 30
0.0
 40
0.5
 50
180.000036
 51
269.999963
  0
ARC
  5
D352
  8
DANMEN
  6
CONTINUOUS
 10
202.500002
 20
123.0
 30
0.0
 40
0.5
 50
179.999964
 51
270.000001
  0
ARC
  5
D355
  8
DANMEN
  6
CONTINUOUS
 10
203.000002
 20
124.638813
 30
0.0
 40
1.0
 50
98.530766
 51
180.0
  0
LINE
  5
D357
  8
DANMEN
  6
CONTINUOUS
 10
202.000002
 20
123.0
 30
0.0
 11
202.000002
 21
124.638813
 31
0.0
  0
LINE
  5
D359
  8
DANMEN
  6
CONTINUOUS
 10
48.5
 20
253.0
 30
0.0
 11
107.5
 21
253.0
 31
0.0
  0
LINE
  5
D35A
  8
DANMEN
  6
CONTINUOUS
 10
66.0
 20
226.0
 30
0.0
 11
81.95
 21
226.0
 31
0.0
  0
ARC
  5
D35B
  8
DANMEN
  6
CONTINUOUS
 10
71.299985
 20
225.500092
 30
0.0
 40
0.5
 50
0.0
 51
89.999982
  0
ARC
  5
D35C
  8
DANMEN
  6
CONTINUOUS
 10
71.299985
 20
183.500092
 30
0.0
 40
0.5
 50
270.000018
 51
0.0
  0
LINE
  5
D35D
  8
DANMEN
  6
CONTINUOUS
 10
82.0
 20
244.950012
 30
0.0
 11
66.5
 21
244.950012
 31
0.0
  0
LINE
  5
D35E
  8
DANMEN
  6
CONTINUOUS
 10
82.65
 20
246.600012
 30
0.0
 11
64.4
 21
246.600012
 31
0.0
  0
LINE
  5
D35F
  8
DANMEN
  6
CONTINUOUS
 10
43.0
 20
218.5
 30
0.0
 11
43.0
 21
162.0
 31
0.0
  0
LINE
  5
D360
  8
DANMEN
  6
CONTINUOUS
 10
50.0
 20
226.0
 30
0.0
 11
50.0
 21
162.0
 31
0.0
  0
LINE
  5
D361
  8
DANMEN
  6
CONTINUOUS
 10
44.649994
 20
218.5
 30
0.0
 11
44.649994
 21
162.0
 31
0.0
  0
LINE
  5
D362
  8
DANMEN
  6
CONTINUOUS
 10
58.0
 20
219.258575
 30
0.0
 11
58.0
 21
207.0
 31
0.0
  0
LINE
  5
D363
  8
DANMEN
  6
CONTINUOUS
 10
66.0
 20
226.0
 30
0.0
 11
66.0
 21
207.0
 31
0.0
  0
LINE
  5
D364
  8
DANMEN
  6
CONTINUOUS
 10
52.199985
 20
225.500092
 30
0.0
 11
52.199985
 21
183.500092
 31
0.0
  0
LINE
  5
D365
  8
DANMEN
  6
CONTINUOUS
 10
53.299984
 20
218.000092
 30
0.0
 11
53.299984
 21
199.500092
 31
0.0
  0
LINE
  5
D366
  8
DANMEN
  6
CONTINUOUS
 10
70.699988
 20
225.200092
 30
0.0
 11
70.699988
 21
199.500092
 31
0.0
  0
LINE
  5
D367
  8
DANMEN
  6
CONTINUOUS
 10
63.999979
 20
190.000015
 30
0.0
 11
63.999979
 21
162.0
 31
0.0
  0
LINE
  5
D368
  8
DANMEN
  6
CONTINUOUS
 10
59.999991
 20
190.0
 30
0.0
 11
59.999991
 21
162.0
 31
0.0
  0
LINE
  5
D369
  8
DANMEN
  6
CONTINUOUS
 10
64.499979
 20
190.000015
 30
0.0
 11
64.499979
 21
162.0
 31
0.0
  0
LINE
  5
D36A
  8
DANMEN
  6
CONTINUOUS
 10
59.499991
 20
190.0
 30
0.0
 11
59.499991
 21
162.0
 31
0.0
  0
LINE
  5
D36B
  8
DANMEN
  6
CONTINUOUS
 10
70.0
 20
183.0
 30
0.0
 11
70.0
 21
162.0
 31
0.0
  0
LINE
  5
D36C
  8
DANMEN
  6
CONTINUOUS
 10
54.0
 20
183.0
 30
0.0
 11
54.0
 21
162.0
 31
0.0
  0
LINE
  5
D36D
  8
DANMEN
  6
CONTINUOUS
 10
70.000015
 20
159.0
 30
0.0
 11
70.000015
 21
136.0
 31
0.0
  0
LINE
  5
D36E
  8
DANMEN
  6
CONTINUOUS
 10
60.000021
 20
128.999985
 30
0.0
 11
60.000021
 21
159.0
 31
0.0
  0
LINE
  5
D36F
  8
DANMEN
  6
CONTINUOUS
 10
64.000009
 20
129.0
 30
0.0
 11
64.000009
 21
159.0
 31
0.0
  0
LINE
  5
D370
  8
DANMEN
  6
CONTINUOUS
 10
59.500021
 20
128.999985
 30
0.0
 11
59.500021
 21
159.0
 31
0.0
  0
LINE
  5
D371
  8
DANMEN
  6
CONTINUOUS
 10
64.500009
 20
129.0
 30
0.0
 11
64.500009
 21
159.0
 31
0.0
  0
LINE
  5
D372
  8
DANMEN
  6
CONTINUOUS
 10
54.000015
 20
159.0
 30
0.0
 11
54.000015
 21
136.0
 31
0.0
  0
ARC
  5
D374
  8
DANMEN
  6
CONTINUOUS
 10
55.500015
 20
136.999908
 30
0.0
 40
1.5
 50
90.000018
 51
180.0
  0
LINE
  5
D38A
  8
DANMEN
  6
CONTINUOUS
 10
64.500009
 20
128.999985
 30
0.0
 11
59.500006
 21
128.999985
 31
0.0
  0
ARC
  5
D393
  8
DANMEN
  6
CONTINUOUS
 10
58.000006
 20
139.999908
 30
0.0
 40
1.5
 50
269.999982
 51
359.999964
  0
LINE
  5
D394
  8
DANMEN
  6
CONTINUOUS
 10
58.000006
 20
138.499908
 30
0.0
 11
55.500015
 21
138.499908
 31
0.0
  0
LINE
  5
D3A3
  8
DANMEN
  6
CONTINUOUS
 10
68.500015
 20
138.499908
 30
0.0
 11
66.000009
 21
138.499908
 31
0.0
  0
ARC
  5
D3A4
  8
DANMEN
  6
CONTINUOUS
 10
66.000009
 20
139.999908
 30
0.0
 40
1.5
 50
180.0
 51
269.999982
  0
ARC
  5
D3A7
  8
DANMEN
  6
CONTINUOUS
 10
68.500015
 20
136.999908
 30
0.0
 40
1.5
 50
359.999964
 51
90.000001
  0
LINE
  5
D3A8
  8
DANMEN
  6
CONTINUOUS
 10
53.299984
 20
198.400095
 30
0.0
 11
53.299984
 21
184.100092
 31
0.0
  0
LINE
  5
D3A9
  8
DANMEN
  6
CONTINUOUS
 10
70.699988
 20
198.400095
 30
0.0
 11
70.699988
 21
184.100092
 31
0.0
  0
ARC
  5
D3AA
  8
DANMEN
  6
CONTINUOUS
 10
55.499985
 20
182.000092
 30
0.0
 40
1.5
 50
179.999964
 51
270.000001
  0
ARC
  5
D3AB
  8
DANMEN
  6
CONTINUOUS
 10
54.850116
 20
185.500092
 30
0.0
 40
0.5
 50
90.0
 51
173.990994
  0
LINE
  5
D3AC
  8
DANMEN
  6
CONTINUOUS
 10
54.352863
 20
185.552434
 30
0.0
 11
54.199985
 21
184.100092
 31
0.0
  0
LINE
  5
D3AF
  8
DANMEN
  6
CONTINUOUS
 10
53.299984
 20
184.100092
 30
0.0
 11
54.199985
 21
184.100092
 31
0.0
  0
LINE
  5
D3B1
  8
DANMEN
  6
CONTINUOUS
 10
52.699985
 20
183.000092
 30
0.0
 11
54.499985
 21
183.000092
 31
0.0
  0
LINE
  5
D3B2
  8
DANMEN
  6
CONTINUOUS
 10
54.999985
 20
186.000092
 30
0.0
 11
54.999985
 21
183.500092
 31
0.0
  0
LINE
  5
D3B3
  8
DANMEN
  6
CONTINUOUS
 10
54.850116
 20
186.000092
 30
0.0
 11
54.999985
 21
186.000092
 31
0.0
  0
ARC
  5
D3B7
  8
DANMEN
  6
CONTINUOUS
 10
52.699985
 20
183.500092
 30
0.0
 40
0.5
 50
180.000019
 51
270.000001
  0
ARC
  5
D3B9
  8
DANMEN
  6
CONTINUOUS
 10
54.499985
 20
183.500092
 30
0.0
 40
0.5
 50
270.000018
 51
0.0
  0
ARC
  5
D3BA
  8
DANMEN
  6
CONTINUOUS
 10
57.999991
 20
179.000092
 30
0.0
 40
1.5
 50
0.0
 51
89.999982
  0
LINE
  5
D3BB
  8
DANMEN
  6
CONTINUOUS
 10
55.499985
 20
180.500092
 30
0.0
 11
57.999991
 21
180.500092
 31
0.0
  0
LINE
  5
D3BE
  8
DANMEN
  6
CONTINUOUS
 10
65.999994
 20
180.500092
 30
0.0
 11
68.499985
 21
180.500092
 31
0.0
  0
ARC
  5
D3BF
  8
DANMEN
  6
CONTINUOUS
 10
65.999994
 20
179.000092
 30
0.0
 40
1.5
 50
89.999982
 51
179.999964
  0
ARC
  5
D3C0
  8
DANMEN
  6
CONTINUOUS
 10
68.499985
 20
182.000092
 30
0.0
 40
1.5
 50
270.000018
 51
0.0
  0
ARC
  5
D3C1
  8
DANMEN
  6
CONTINUOUS
 10
69.499985
 20
183.500092
 30
0.0
 40
0.5
 50
180.0
 51
270.0
  0
LINE
  5
D3C3
  8
DANMEN
  6
CONTINUOUS
 10
69.149854
 20
186.000092
 30
0.0
 11
68.999985
 21
186.000092
 31
0.0
  0
LINE
  5
D3C4
  8
DANMEN
  6
CONTINUOUS
 10
68.999985
 20
186.000092
 30
0.0
 11
68.999985
 21
183.500092
 31
0.0
  0
LINE
  5
D3C7
  8
DANMEN
  6
CONTINUOUS
 10
69.647106
 20
185.552434
 30
0.0
 11
69.799985
 21
184.100092
 31
0.0
  0
ARC
  5
D3C8
  8
DANMEN
  6
CONTINUOUS
 10
69.149854
 20
185.500092
 30
0.0
 40
0.5
 50
6.009006
 51
90.0
  0
LINE
  5
D3C9
  8
DANMEN
  6
CONTINUOUS
 10
70.699985
 20
184.100092
 30
0.0
 11
69.799985
 21
184.100092
 31
0.0
  0
LINE
  5
D3CA
  8
DANMEN
  6
CONTINUOUS
 10
69.499985
 20
183.000092
 30
0.0
 11
71.299985
 21
183.000092
 31
0.0
  0
LINE
  5
D3CB
  8
DANMEN
  6
CONTINUOUS
 10
53.299984
 20
199.500092
 30
0.0
 11
58.999986
 21
199.500092
 31
0.0
  0
LINE
  5
D3CC
  8
DANMEN
  6
CONTINUOUS
 10
53.299984
 20
198.400095
 30
0.0
 11
57.699986
 21
198.400095
 31
0.0
  0
LINE
  5
D3CF
  8
DANMEN
  6
CONTINUOUS
 10
59.499991
 20
190.000015
 30
0.0
 11
64.499994
 21
190.000015
 31
0.0
  0
LINE
  5
D3D0
  8
DANMEN
  6
CONTINUOUS
 10
59.199986
 20
199.300092
 30
0.0
 11
64.799986
 21
199.300092
 31
0.0
  0
ARC
  5
D3D1
  8
DANMEN
  6
CONTINUOUS
 10
62.799984
 20
196.800091
 30
0.0
 40
1.0
 50
359.999945
 51
89.999982
  0
ARC
  5
D3D2
  8
DANMEN
  6
CONTINUOUS
 10
62.799984
 20
195.554031
 30
0.0
 40
1.0
 50
294.62438
 51
0.0
  0
LINE
  5
D3D3
  8
DANMEN
  6
CONTINUOUS
 10
63.399984
 20
193.900092
 30
0.0
 11
64.539715
 21
193.900092
 31
0.0
  0
ARC
  5
D3D4
  8
DANMEN
  6
CONTINUOUS
 10
60.699986
 20
195.469509
 30
0.0
 40
2.0
 50
180.000019
 51
231.693677
  0
ARC
  5
D3D5
  8
DANMEN
  6
CONTINUOUS
 10
60.599986
 20
194.200092
 30
0.0
 40
0.3
 50
270.000018
 51
0.0
  0
ARC
  5
D3D6
  8
DANMEN
  6
CONTINUOUS
 10
63.399984
 20
194.200092
 30
0.0
 40
0.3
 50
180.000019
 51
270.000055
  0
LINE
  5
D3D7
  8
DANMEN
  6
CONTINUOUS
 10
59.460255
 20
193.900092
 30
0.0
 11
60.599986
 21
193.900092
 31
0.0
  0
LINE
  5
D3D8
  8
DANMEN
  6
CONTINUOUS
 10
58.999986
 20
199.500092
 30
0.0
 11
59.199986
 21
199.300092
 31
0.0
  0
ARC
  5
D3DB
  8
DANMEN
  6
CONTINUOUS
 10
57.699986
 20
197.400095
 30
0.0
 40
1.0
 50
0.0
 51
90.0
  0
LINE
  5
D3DC
  8
DANMEN
  6
CONTINUOUS
 10
58.699986
 20
197.400095
 30
0.0
 11
58.699986
 21
195.469509
 31
0.0
  0
LINE
  5
D3DF
  8
DANMEN
  6
CONTINUOUS
 10
63.099984
 20
194.200092
 30
0.0
 11
63.099984
 21
194.463161
 31
0.0
  0
LINE
  5
D3E0
  8
DANMEN
  6
CONTINUOUS
 10
60.199986
 20
196.80009
 30
0.0
 11
60.199986
 21
195.554031
 31
0.0
  0
LINE
  5
D3E1
  8
DANMEN
  6
CONTINUOUS
 10
61.199986
 20
197.800091
 30
0.0
 11
62.799984
 21
197.800091
 31
0.0
  0
ARC
  5
D3E2
  8
DANMEN
  6
CONTINUOUS
 10
61.199986
 20
196.800091
 30
0.0
 40
1.0
 50
89.999982
 51
180.000019
  0
LINE
  5
D3E3
  8
DANMEN
  6
CONTINUOUS
 10
60.899985
 20
194.463161
 30
0.0
 11
60.899985
 21
194.200092
 31
0.0
  0
ARC
  5
D3E4
  8
DANMEN
  6
CONTINUOUS
 10
61.199986
 20
195.554031
 30
0.0
 40
1.0
 50
180.000019
 51
245.375639
  0
ARC
  5
D3E5
  8
DANMEN
  6
CONTINUOUS
 10
60.699986
 20
194.463161
 30
0.0
 40
0.2
 50
0.0
 51
65.375675
  0
ARC
  5
D3E6
  8
DANMEN
  6
CONTINUOUS
 10
63.299984
 20
194.463161
 30
0.0
 40
0.2
 50
114.624344
 51
180.000019
  0
ARC
  5
D3E7
  8
DANMEN
  6
CONTINUOUS
 10
63.299984
 20
195.469509
 30
0.0
 40
2.0
 50
308.306342
 51
359.999945
  0
LINE
  5
D3E8
  8
DANMEN
  6
CONTINUOUS
 10
64.999986
 20
199.500092
 30
0.0
 11
70.699988
 21
199.500092
 31
0.0
  0
LINE
  5
D3E9
  8
DANMEN
  6
CONTINUOUS
 10
66.299984
 20
198.400095
 30
0.0
 11
70.699988
 21
198.400095
 31
0.0
  0
LINE
  5
D3EA
  8
DANMEN
  6
CONTINUOUS
 10
64.999986
 20
199.500092
 30
0.0
 11
64.799986
 21
199.300092
 31
0.0
  0
ARC
  5
D3ED
  8
DANMEN
  6
CONTINUOUS
 10
66.299984
 20
197.400095
 30
0.0
 40
1.0
 50
90.0
 51
180.0
  0
LINE
  5
D3EE
  8
DANMEN
  6
CONTINUOUS
 10
63.799984
 20
195.554031
 30
0.0
 11
63.799984
 21
196.80009
 31
0.0
  0
LINE
  5
D3EF
  8
DANMEN
  6
CONTINUOUS
 10
65.299984
 20
195.469509
 30
0.0
 11
65.299984
 21
197.400095
 31
0.0
  0
ARC
  5
D3F2
  8
DANMEN
  6
CONTINUOUS
 10
62.0
 20
207.0
 30
0.0
 40
4.0
 50
180.000019
 51
359.999983
  0
LINE
  5
D3F3
  8
DANMEN
  6
CONTINUOUS
 10
43.0
 20
252.5
 30
0.0
 11
43.0
 21
218.5
 31
0.0
  0
LINE
  5
D3F4
  8
DANMEN
  6
CONTINUOUS
 10
44.649994
 20
241.0
 30
0.0
 11
44.649994
 21
218.5
 31
0.0
  0
LINE
  5
D3F5
  8
DANMEN
  6
CONTINUOUS
 10
63.25
 20
241.0
 30
0.0
 11
63.25
 21
220.061553
 31
0.0
  0
LINE
  5
D3F6
  8
DANMEN
  6
CONTINUOUS
 10
61.6
 20
241.0
 30
0.0
 11
61.6
 21
230.101833
 31
0.0
  0
ARC
  5
D3F7
  8
DANMEN
  6
CONTINUOUS
 10
55.4
 20
219.199999
 30
0.0
 40
0.2
 50
180.0
 51
269.999982
  0
ARC
  5
D3F8
  8
DANMEN
  6
CONTINUOUS
 10
55.4
 20
224.5
 30
0.0
 40
0.2
 50
90.000018
 51
180.0
  0
LINE
  5
D3F9
  8
DANMEN
  6
CONTINUOUS
 10
55.2
 20
223.5
 30
0.0
 11
56.0
 21
222.7
 31
0.0
  0
LINE
  5
D3FA
  8
DANMEN
  6
CONTINUOUS
 10
56.0
 20
221.0
 30
0.0
 11
55.2
 21
220.2
 31
0.0
  0
LINE
  5
D3FB
  8
DANMEN
  6
CONTINUOUS
 10
52.699985
 20
226.000092
 30
0.0
 11
56.699985
 21
226.000092
 31
0.0
  0
LINE
  5
D3FC
  8
DANMEN
  6
CONTINUOUS
 10
53.299984
 20
218.000092
 30
0.0
 11
56.699985
 21
218.000092
 31
0.0
  0
LINE
  5
D3FD
  8
DANMEN
  6
CONTINUOUS
 10
53.299984
 20
225.000092
 30
0.0
 11
56.399985
 21
225.000092
 31
0.0
  0
LINE
  5
D3FE
  8
DANMEN
  6
CONTINUOUS
 10
53.299984
 20
218.800095
 30
0.0
 11
56.399985
 21
218.800095
 31
0.0
  0
LINE
  5
D3FF
  8
DANMEN
  6
CONTINUOUS
 10
53.299984
 20
225.000092
 30
0.0
 11
53.299984
 21
218.800095
 31
0.0
  0
ARC
  5
D401
  8
DANMEN
  6
CONTINUOUS
 10
43.5
 20
218.5
 30
0.0
 40
0.5
 50
180.000019
 51
270.000001
  0
LINE
  5
D403
  8
DANMEN
  6
CONTINUOUS
 10
43.5
 20
218.0
 30
0.0
 11
44.149994
 21
218.0
 31
0.0
  0
ARC
  5
D404
  8
DANMEN
  6
CONTINUOUS
 10
44.149994
 20
218.5
 30
0.0
 40
0.5
 50
270.000018
 51
0.0
  0
LINE
  5
D408
  8
DANMEN
  6
CONTINUOUS
 10
55.2
 20
220.199999
 30
0.0
 11
55.2
 21
219.199999
 31
0.0
  0
LINE
  5
D40E
  8
DANMEN
  6
CONTINUOUS
 10
50.0
 20
226.0
 30
0.0
 11
53.0
 21
226.0
 31
0.0
  0
LINE
  5
D40F
  8
DANMEN
  6
CONTINUOUS
 10
55.2
 20
224.5
 30
0.0
 11
55.2
 21
223.5
 31
0.0
  0
ARC
  5
D413
  8
DANMEN
  6
CONTINUOUS
 10
52.699985
 20
225.500092
 30
0.0
 40
0.5
 50
89.999982
 51
180.000019
  0
ARC
  5
D415
  8
DANMEN
  6
CONTINUOUS
 10
57.6
 20
223.1
 30
0.0
 40
0.4
 50
269.999999
 51
359.999981
  0
ARC
  5
D416
  8
DANMEN
  6
CONTINUOUS
 10
48.825654
 20
219.969002
 30
0.0
 40
12.0
 50
7.283147
 51
30.171056
  0
ARC
  5
D417
  8
DANMEN
  6
CONTINUOUS
 10
48.892022
 20
219.519121
 30
0.0
 40
11.5
 50
9.50078
 51
29.603137
  0
LINE
  5
D418
  8
DANMEN
  6
CONTINUOUS
 10
60.75
 20
227.898149
 30
0.0
 11
60.75
 21
220.061553
 31
0.0
  0
LINE
  5
D419
  8
DANMEN
  6
CONTINUOUS
 10
56.0
 20
219.0
 30
0.0
 11
55.4
 21
219.0
 31
0.0
  0
LINE
  5
D41A
  8
DANMEN
  6
CONTINUOUS
 10
57.2
 20
220.199999
 30
0.0
 11
57.2
 21
219.199999
 31
0.0
  0
ARC
  5
D41C
  8
DANMEN
  6
CONTINUOUS
 10
56.0
 20
219.199999
 30
0.0
 40
0.2
 50
269.999999
 51
359.999981
  0
LINE
  5
D41D
  8
DANMEN
  6
CONTINUOUS
 10
56.2
 20
220.199999
 30
0.0
 11
56.2
 21
219.199999
 31
0.0
  0
LINE
  5
D41E
  8
DANMEN
  6
CONTINUOUS
 10
57.600001
 20
219.199999
 30
0.0
 11
57.2
 21
219.199999
 31
0.0
  0
LINE
  5
D420
  8
DANMEN
  6
CONTINUOUS
 10
57.2
 20
220.199999
 30
0.0
 11
56.2
 21
220.199999
 31
0.0
  0
LINE
  5
D423
  8
DANMEN
  6
CONTINUOUS
 10
57.8
 20
220.7
 30
0.0
 11
57.8
 21
219.399999
 31
0.0
  0
ARC
  5
D425
  8
DANMEN
  6
CONTINUOUS
 10
57.600001
 20
219.399999
 30
0.0
 40
0.2
 50
269.999999
 51
359.999981
  0
LINE
  5
D426
  8
DANMEN
  6
CONTINUOUS
 10
57.6
 20
222.7
 30
0.0
 11
57.2
 21
222.7
 31
0.0
  0
LINE
  5
D429
  8
DANMEN
  6
CONTINUOUS
 10
56.0
 20
222.7
 30
0.0
 11
56.0
 21
221.0
 31
0.0
  0
LINE
  5
D42C
  8
DANMEN
  6
CONTINUOUS
 10
57.2
 20
222.7
 30
0.0
 11
57.2
 21
221.0
 31
0.0
  0
ARC
  5
D42F
  8
DANMEN
  6
CONTINUOUS
 10
59.25
 20
222.25
 30
0.0
 40
0.15
 50
332.128821
 51
152.128843
  0
LINE
  5
D433
  8
DANMEN
  6
CONTINUOUS
 10
58.419281
 20
221.0
 30
0.0
 11
57.2
 21
221.0
 31
0.0
  0
LINE
  5
D434
  8
DANMEN
  6
CONTINUOUS
 10
58.6
 20
220.7
 30
0.0
 11
57.8
 21
220.7
 31
0.0
  0
LINE
  5
D436
  8
DANMEN
  6
CONTINUOUS
 10
59.3826
 20
222.179877
 30
0.0
 11
58.6
 21
220.7
 31
0.0
  0
LINE
  5
D437
  8
DANMEN
  6
CONTINUOUS
 10
59.1174
 20
222.320122
 30
0.0
 11
58.419282
 21
221.0
 31
0.0
  0
LINE
  5
D43C
  8
DANMEN
  6
CONTINUOUS
 10
56.399985
 20
220.200089
 30
0.0
 11
56.699985
 21
220.200089
 31
0.0
  0
LINE
  5
D43D
  8
DANMEN
  6
CONTINUOUS
 10
56.399985
 20
220.200089
 30
0.0
 11
56.399985
 21
218.800095
 31
0.0
  0
LINE
  5
D43E
  8
DANMEN
  6
CONTINUOUS
 10
57.199985
 20
219.700089
 30
0.0
 11
57.199985
 21
218.500092
 31
0.0
  0
ARC
  5
D440
  8
DANMEN
  6
CONTINUOUS
 10
56.699985
 20
219.700089
 30
0.0
 40
0.5
 50
0.0
 51
89.999982
  0
ARC
  5
D444
  8
DANMEN
  6
CONTINUOUS
 10
56.699985
 20
218.500092
 30
0.0
 40
0.5
 50
270.000018
 51
0.0
  0
ARC
  5
D445
  8
DANMEN
  6
CONTINUOUS
 10
60.480851
 20
221.458588
 30
0.0
 40
0.25
 50
189.50078
 51
7.283147
  0
LINE
  5
D449
  8
DANMEN
  6
CONTINUOUS
 10
61.640388
 20
218.0
 30
0.0
 11
62.359612
 21
218.0
 31
0.0
  0
LINE
  5
D44A
  8
DANMEN
  6
CONTINUOUS
 10
63.235071
 20
219.940285
 30
0.0
 11
62.844683
 21
218.378732
 31
0.0
  0
LINE
  5
D44B
  8
DANMEN
  6
CONTINUOUS
 10
61.155317
 20
218.378732
 30
0.0
 11
60.764929
 21
219.940285
 31
0.0
  0
ARC
  5
D44C
  8
DANMEN
  6
CONTINUOUS
 10
61.640388
 20
218.5
 30
0.0
 40
0.5
 50
194.036243
 51
270.0
  0
ARC
  5
D44D
  8
DANMEN
  6
CONTINUOUS
 10
62.359612
 20
218.5
 30
0.0
 40
0.5
 50
270.0
 51
345.963757
  0
ARC
  5
D44E
  8
DANMEN
  6
CONTINUOUS
 10
61.25
 20
220.061553
 30
0.0
 40
0.5
 50
180.0
 51
194.036243
  0
ARC
  5
D44F
  8
DANMEN
  6
CONTINUOUS
 10
62.75
 20
220.061553
 30
0.0
 40
0.5
 50
345.963757
 51
0.0
  0
LINE
  5
D454
  8
DANMEN
  6
CONTINUOUS
 10
61.560165
 20
229.906263
 30
0.0
 11
60.789835
 21
228.09372
 31
0.0
  0
LINE
  5
D455
  8
DANMEN
  6
CONTINUOUS
 10
56.5
 20
226.0
 30
0.0
 11
57.2
 21
226.0
 31
0.0
  0
LINE
  5
D457
  8
DANMEN
  6
CONTINUOUS
 10
59.2
 20
226.0
 30
0.0
 11
57.2
 21
226.0
 31
0.0
  0
LINE
  5
D458
  8
DANMEN
  6
CONTINUOUS
 10
56.0
 20
224.699999
 30
0.0
 11
55.4
 21
224.699999
 31
0.0
  0
LINE
  5
D459
  8
DANMEN
  6
CONTINUOUS
 10
56.2
 20
224.5
 30
0.0
 11
56.2
 21
223.5
 31
0.0
  0
ARC
  5
D45B
  8
DANMEN
  6
CONTINUOUS
 10
56.0
 20
224.5
 30
0.0
 40
0.2
 50
359.999981
 51
90.000018
  0
LINE
  5
D45C
  8
DANMEN
  6
CONTINUOUS
 10
57.2
 20
223.5
 30
0.0
 11
56.2
 21
223.5
 31
0.0
  0
LINE
  5
D45E
  8
DANMEN
  6
CONTINUOUS
 10
57.2
 20
226.0
 30
0.0
 11
57.2
 21
223.5
 31
0.0
  0
LINE
  5
D461
  8
DANMEN
  6
CONTINUOUS
 10
58.0
 20
225.2
 30
0.0
 11
58.0
 21
223.1
 31
0.0
  0
LINE
  5
D464
  8
DANMEN
  6
CONTINUOUS
 10
58.890903
 20
225.2
 30
0.0
 11
58.0
 21
225.2
 31
0.0
  0
LINE
  5
D465
  8
DANMEN
  6
CONTINUOUS
 10
57.199985
 20
225.500092
 30
0.0
 11
57.199985
 21
224.300095
 31
0.0
  0
LINE
  5
D466
  8
DANMEN
  6
CONTINUOUS
 10
56.399985
 20
223.800095
 30
0.0
 11
56.699985
 21
223.800095
 31
0.0
  0
LINE
  5
D467
  8
DANMEN
  6
CONTINUOUS
 10
56.399985
 20
225.000092
 30
0.0
 11
56.399985
 21
223.800095
 31
0.0
  0
ARC
  5
D469
  8
DANMEN
  6
CONTINUOUS
 10
56.699985
 20
225.500092
 30
0.0
 40
0.5
 50
0.0
 51
89.999982
  0
ARC
  5
D46D
  8
DANMEN
  6
CONTINUOUS
 10
56.699985
 20
224.300095
 30
0.0
 40
0.5
 50
270.000018
 51
0.0
  0
ARC
  5
D46F
  8
DANMEN
  6
CONTINUOUS
 10
61.25
 20
227.898149
 30
0.0
 40
0.5
 50
156.974508
 51
180.0
  0
ARC
  5
D472
  8
DANMEN
  6
CONTINUOUS
 10
61.1
 20
230.101833
 30
0.0
 40
0.5
 50
336.974508
 51
0.0
  0
ARC
  5
D476
  8
DANMEN
  6
CONTINUOUS
 10
70.349985
 20
225.500092
 30
0.0
 40
0.5
 50
90.0
 51
180.0
  0
LINE
  5
D477
  8
DANMEN
  6
CONTINUOUS
 10
69.849985
 20
225.500092
 30
0.0
 11
69.849985
 21
225.200092
 31
0.0
  0
LINE
  5
D479
  8
DANMEN
  6
CONTINUOUS
 10
70.699988
 20
225.200092
 30
0.0
 11
69.849985
 21
225.200092
 31
0.0
  0
LINE
  5
D47A
  8
DANMEN
  6
CONTINUOUS
 10
71.299983
 20
226.000092
 30
0.0
 11
70.349985
 21
226.000092
 31
0.0
  0
LINE
  5
D47B
  8
DANMEN
  6
CONTINUOUS
 10
44.649994
 20
241.0
 30
0.0
 11
61.6
 21
241.0
 31
0.0
  0
LINE
  5
D47C
  8
DANMEN
  6
CONTINUOUS
 10
44.649994
 20
242.649994
 30
0.0
 11
58.699997
 21
242.649994
 31
0.0
  0
LINE
  5
D47D
  8
DANMEN
  6
CONTINUOUS
 10
44.649994
 20
251.350006
 30
0.0
 11
44.649994
 21
242.65
 31
0.0
  0
LINE
  5
D480
  8
DANMEN
  6
CONTINUOUS
 10
48.5
 20
251.350006
 30
0.0
 11
44.649994
 21
251.350006
 31
0.0
  0
LINE
  5
D481
  8
DANMEN
  6
CONTINUOUS
 10
48.5
 20
253.0
 30
0.0
 11
43.5
 21
253.0
 31
0.0
  0
ARC
  5
D482
  8
DANMEN
  6
CONTINUOUS
 10
43.5
 20
252.5
 30
0.0
 40
0.5
 50
90.0
 51
180.0
  0
LINE
  5
D483
  8
DANMEN
  6
CONTINUOUS
 10
49.0
 20
252.5
 30
0.0
 11
49.0
 21
251.850006
 31
0.0
  0
ARC
  5
D484
  8
DANMEN
  6
CONTINUOUS
 10
48.5
 20
251.850006
 30
0.0
 40
0.5
 50
269.999999
 51
359.999981
  0
ARC
  5
D486
  8
DANMEN
  6
CONTINUOUS
 10
48.5
 20
252.5
 30
0.0
 40
0.5
 50
359.999981
 51
90.000018
  0
LINE
  5
D489
  8
DANMEN
  6
CONTINUOUS
 10
64.1
 20
246.300012
 30
0.0
 11
64.1
 21
246.036932
 31
0.0
  0
ARC
  5
D48A
  8
DANMEN
  6
CONTINUOUS
 10
61.7
 20
245.030306
 30
0.0
 40
2.0
 50
128.293477
 51
180.0
  0
LINE
  5
D48B
  8
DANMEN
  6
CONTINUOUS
 10
61.9
 20
246.3
 30
0.0
 11
61.9
 21
246.036932
 31
0.0
  0
LINE
  5
D48C
  8
DANMEN
  6
CONTINUOUS
 10
63.25
 20
241.0
 30
0.0
 11
67.5
 21
241.0
 31
0.0
  0
LINE
  5
D48D
  8
DANMEN
  6
CONTINUOUS
 10
63.8
 20
242.7
 30
0.0
 11
62.2
 21
242.7
 31
0.0
  0
ARC
  5
D48E
  8
DANMEN
  6
CONTINUOUS
 10
58.7
 20
243.649994
 30
0.0
 40
1.0
 50
270.0
 51
0.0
  0
ARC
  5
D48F
  8
DANMEN
  6
CONTINUOUS
 10
62.2
 20
243.7
 30
0.0
 40
1.0
 50
180.0
 51
270.0
  0
LINE
  5
D490
  8
DANMEN
  6
CONTINUOUS
 10
61.2
 20
244.946061
 30
0.0
 11
61.2
 21
243.7
 31
0.0
  0
LINE
  5
D491
  8
DANMEN
  6
CONTINUOUS
 10
59.7
 20
245.030306
 30
0.0
 11
59.7
 21
243.649994
 31
0.0
  0
ARC
  5
D492
  8
DANMEN
  6
CONTINUOUS
 10
61.7
 20
246.036932
 30
0.0
 40
0.2
 50
294.624318
 51
0.0
  0
ARC
  5
D493
  8
DANMEN
  6
CONTINUOUS
 10
62.2
 20
244.946061
 30
0.0
 40
1.0
 50
114.624318
 51
180.0
  0
LINE
  5
D497
  8
DANMEN
  6
CONTINUOUS
 10
66.5
 20
241.8
 30
0.0
 11
68.0
 21
241.8
 31
0.0
  0
ARC
  5
D498
  8
DANMEN
  6
CONTINUOUS
 10
67.5
 20
241.5
 30
0.0
 40
0.5
 50
270.000018
 51
0.0
  0
LINE
  5
D499
  8
DANMEN
  6
CONTINUOUS
 10
66.5
 20
244.950012
 30
0.0
 11
66.5
 21
241.8
 31
0.0
  0
LINE
  5
D49A
  8
DANMEN
  6
CONTINUOUS
 10
64.8
 20
244.946061
 30
0.0
 11
64.8
 21
243.7
 31
0.0
  0
ARC
  5
D49B
  8
DANMEN
  6
CONTINUOUS
 10
63.8
 20
243.7
 30
0.0
 40
1.0
 50
270.0
 51
0.0
  0
ARC
  5
D49C
  8
DANMEN
  6
CONTINUOUS
 10
63.8
 20
244.946061
 30
0.0
 40
1.0
 50
0.0
 51
65.375682
  0
ARC
  5
D49D
  8
DANMEN
  6
CONTINUOUS
 10
64.3
 20
246.036932
 30
0.0
 40
0.2
 50
180.0
 51
245.375682
  0
LINE
  5
D4A0
  8
DANMEN
  6
CONTINUOUS
 10
68.0
 20
241.8
 30
0.0
 11
68.0
 21
241.5
 31
0.0
  0
ARC
  5
D4A3
  8
DANMEN
  6
CONTINUOUS
 10
61.6
 20
246.3
 30
0.0
 40
0.3
 50
0.0
 51
90.0
  0
LINE
  5
D4A4
  8
DANMEN
  6
CONTINUOUS
 10
61.6
 20
246.6
 30
0.0
 11
60.460621
 21
246.6
 31
0.0
  0
ARC
  5
D4A5
  8
DANMEN
  6
CONTINUOUS
 10
64.4
 20
246.300012
 30
0.0
 40
0.3
 50
90.0
 51
180.0
  0
LINE
  5
D4A6
  8
DANMEN
  6
CONTINUOUS
 10
74.0
 20
226.0
 30
0.0
 11
74.0
 21
162.0
 31
0.0
  0
LINE
  5
D4A7
  8
DANMEN
  6
CONTINUOUS
 10
76.5
 20
226.0
 30
0.0
 11
76.5
 21
162.0
 31
0.0
  0
LINE
  5
D4A8
  8
DANMEN
  6
DASHED
 10
79.5
 20
226.0
 30
0.0
 11
79.5
 21
162.0
 31
0.0
  0
LINE
  5
D4A9
  8
DANMEN
  6
CONTINUOUS
 10
102.0
 20
162.0
 30
0.0
 11
102.0
 21
218.0
 31
0.0
  0
LINE
  5
D4AA
  8
DANMEN
  6
CONTINUOUS
 10
81.95
 20
162.0
 30
0.0
 11
81.95
 21
218.0
 31
0.0
  0
LINE
  5
D4AB
  8
DANMEN
  6
CONTINUOUS
 10
99.949985
 20
162.0
 30
0.0
 11
99.949985
 21
218.0
 31
0.0
  0
LINE
  5
D4AC
  8
DANMEN
  6
CONTINUOUS
 10
84.000015
 20
162.0
 30
0.0
 11
84.000015
 21
218.0
 31
0.0
  0
LINE
  5
D4AD
  8
DANMEN
  6
CONTINUOUS
 10
109.0
 20
162.0
 30
0.0
 11
109.0
 21
218.0
 31
0.0
  0
LINE
  5
D4AE
  8
DANMEN
  6
CONTINUOUS
 10
111.350006
 20
162.0
 30
0.0
 11
111.350006
 21
218.0
 31
0.0
  0
LINE
  5
D4AF
  8
DANMEN
  6
CONTINUOUS
 10
113.0
 20
162.0
 30
0.0
 11
113.0
 21
218.0
 31
0.0
  0
LINE
  5
D4B0
  8
DANMEN
  6
CONTINUOUS
 10
93.949979
 20
225.0
 30
0.0
 11
93.949979
 21
162.0
 31
0.0
  0
LINE
  5
D4B1
  8
DANMEN
  6
CONTINUOUS
 10
89.949991
 20
225.0
 30
0.0
 11
89.949991
 21
162.0
 31
0.0
  0
LINE
  5
D4B2
  8
DANMEN
  6
CONTINUOUS
 10
94.449979
 20
225.0
 30
0.0
 11
94.449979
 21
162.0
 31
0.0
  0
LINE
  5
D4B3
  8
DANMEN
  6
CONTINUOUS
 10
89.449991
 20
225.0
 30
0.0
 11
89.449991
 21
162.0
 31
0.0
  0
LINE
  5
D4B4
  8
DANMEN
  6
CONTINUOUS
 10
71.799985
 20
225.500092
 30
0.0
 11
71.799985
 21
183.500092
 31
0.0
  0
LINE
  5
D4B7
  8
DANMEN
  6
CONTINUOUS
 10
190.649994
 20
132.350006
 30
0.0
 11
197.350006
 21
132.350006
 31
0.0
  0
ARC
  5
D4B9
  8
DANMEN
  6
CONTINUOUS
 10
189.5
 20
133.5
 30
0.0
 40
0.5
 50
89.999982
 51
180.000019
  0
LINE
  5
D4BE
  8
DANMEN
  6
CONTINUOUS
 10
199.0
 20
132.9
 30
0.0
 11
201.0
 21
132.9
 31
0.0
  0
LINE
  5
D4BF
  8
DANMEN
  6
CONTINUOUS
 10
201.0
 20
132.9
 30
0.0
 11
201.0
 21
132.350006
 31
0.0
  0
LINE
  5
D4C1
  8
DANMEN
  6
CONTINUOUS
 10
83.8
 20
241.0
 30
0.0
 11
111.350006
 21
241.0
 31
0.0
  0
LINE
  5
D4C2
  8
DANMEN
  6
CONTINUOUS
 10
100.5
 20
219.65
 30
0.0
 11
111.350006
 21
219.65
 31
0.0
  0
LINE
  5
D4C3
  8
DANMEN
  6
CONTINUOUS
 10
100.0
 20
218.0
 30
0.0
 11
112.5
 21
218.0
 31
0.0
  0
LINE
  5
D4C4
  8
DANMEN
  6
CONTINUOUS
 10
97.3
 20
242.65
 30
0.0
 11
111.350006
 21
242.65
 31
0.0
  0
LINE
  5
D4C5
  8
DANMEN
  6
CONTINUOUS
 10
83.8
 20
241.0
 30
0.0
 11
83.8
 21
221.0
 31
0.0
  0
LINE
  5
D4C6
  8
DANMEN
  6
CONTINUOUS
 10
82.0
 20
241.0
 30
0.0
 11
82.0
 21
218.5
 31
0.0
  0
LINE
  5
D4C7
  8
DANMEN
  6
DASHED
 10
82.5
 20
216.800003
 30
0.0
 11
101.5
 21
216.800003
 31
0.0
  0
LINE
  5
D4C8
  8
DANMEN
  6
DASHED
 10
86.0
 20
218.0
 30
0.0
 11
98.0
 21
218.0
 31
0.0
  0
ARC
  5
D4C9
  8
DANMEN
  6
CONTINUOUS
 10
87.949991
 20
214.250092
 30
0.0
 40
1.5
 50
0.0
 51
89.999982
  0
LINE
  5
D4CA
  8
DANMEN
  6
DASHED
 10
85.5
 20
222.600003
 30
0.0
 11
85.992312
 21
224.73252
 31
0.0
  0
LINE
  5
D4CB
  8
DANMEN
  6
DASHED
 10
84.023824
 20
221.617136
 30
0.0
 11
85.423825
 21
224.917167
 31
0.0
  0
ARC
  5
D4CC
  8
DANMEN
  6
DASHED
 10
82.5
 20
217.300003
 30
0.0
 40
0.5
 50
180.0
 51
269.999982
  0
ARC
  5
D4CD
  8
DANMEN
  6
CONTINUOUS
 10
85.449985
 20
217.250092
 30
0.0
 40
1.5
 50
179.999964
 51
270.000001
  0
LINE
  5
D4CF
  8
DANMEN
  6
CONTINUOUS
 10
85.449985
 20
215.750092
 30
0.0
 11
87.949991
 21
215.750092
 31
0.0
  0
ARC
  5
D4D0
  8
DANMEN
  6
DASHED
 10
84.299999
 20
221.499972
 30
0.0
 40
0.3
 50
157.011468
 51
235.656024
  0
LINE
  5
D4D1
  8
DANMEN
  6
DASHED
 10
84.5
 20
218.0
 30
0.0
 11
82.0
 21
218.0
 31
0.0
  0
ARC
  5
D4D2
  8
DANMEN
  6
CONTINUOUS
 10
84.0
 20
218.5
 30
0.0
 40
0.5
 50
270.0
 51
0.0
  0
LINE
  5
D4D3
  8
DANMEN
  6
CONTINUOUS
 10
84.5
 20
221.0
 30
0.0
 11
83.8
 21
221.0
 31
0.0
  0
LINE
  5
D4D5
  8
DANMEN
  6
DASHED
 10
82.0
 20
218.0
 30
0.0
 11
82.0
 21
217.300003
 31
0.0
  0
LINE
  5
D4D8
  8
DANMEN
  6
CONTINUOUS
 10
84.0
 20
218.0
 30
0.0
 11
82.5
 21
218.0
 31
0.0
  0
ARC
  5
D4D9
  8
DANMEN
  6
CONTINUOUS
 10
82.5
 20
218.5
 30
0.0
 40
0.5
 50
180.0
 51
270.0
  0
ARC
  5
D4E0
  8
DANMEN
  6
DASHED
 10
86.0
 20
218.5
 30
0.0
 40
0.5
 50
180.0
 51
270.0
  0
LINE
  5
D4E1
  8
DANMEN
  6
DASHED
 10
85.5
 20
222.600003
 30
0.0
 11
85.5
 21
218.5
 31
0.0
  0
LINE
  5
D4E2
  8
DANMEN
  6
DASHED
 10
84.5
 20
218.0
 30
0.0
 11
84.5
 21
220.999972
 31
0.0
  0
LINE
  5
D4E3
  8
DANMEN
  6
DASHED
 10
84.499991
 20
220.999972
 30
0.0
 11
84.130743
 21
221.252271
 31
0.0
  0
LINE
  5
D4E4
  8
DANMEN
  6
CONTINUOUS
 10
84.5
 20
221.0
 30
0.0
 11
84.5
 21
218.5
 31
0.0
  0
ARC
  5
D4E9
  8
DANMEN
  6
DASHED
 10
85.7
 20
224.800003
 30
0.0
 40
0.3
 50
347.000479
 51
157.011468
  0
LINE
  5
D4ED
  8
DANMEN
  6
DASHED
 10
99.976176
 20
221.617136
 30
0.0
 11
98.576175
 21
224.917167
 31
0.0
  0
LINE
  5
D4EE
  8
DANMEN
  6
DASHED
 10
98.5
 20
222.600003
 30
0.0
 11
98.007688
 21
224.73252
 31
0.0
  0
LINE
  5
D4EF
  8
DANMEN
  6
CONTINUOUS
 10
95.949994
 20
215.750092
 30
0.0
 11
98.449985
 21
215.750092
 31
0.0
  0
ARC
  5
D4F0
  8
DANMEN
  6
CONTINUOUS
 10
95.949994
 20
214.250092
 30
0.0
 40
1.5
 50
89.999982
 51
179.999964
  0
ARC
  5
D4F5
  8
DANMEN
  6
DASHED
 10
101.5
 20
217.300003
 30
0.0
 40
0.5
 50
270.000018
 51
0.0
  0
ARC
  5
D4F6
  8
DANMEN
  6
CONTINUOUS
 10
98.449985
 20
217.250092
 30
0.0
 40
1.5
 50
270.000018
 51
0.0
  0
LINE
  5
D4F8
  8
DANMEN
  6
DASHED
 10
99.5
 20
218.0
 30
0.0
 11
102.0
 21
218.0
 31
0.0
  0
LINE
  5
D4F9
  8
DANMEN
  6
DASHED
 10
99.5
 20
218.0
 30
0.0
 11
102.0
 21
218.0
 31
0.0
  0
LINE
  5
D4FA
  8
DANMEN
  6
CONTINUOUS
 10
100.206061
 20
220.642044
 30
0.0
 11
100.5
 21
219.65
 31
0.0
  0
ARC
  5
D4FF
  8
DANMEN
  6
DASHED
 10
99.700001
 20
221.499972
 30
0.0
 40
0.3
 50
304.343976
 51
22.988532
  0
LINE
  5
D500
  8
DANMEN
  6
DASHED
 10
99.500009
 20
220.999972
 30
0.0
 11
99.869257
 21
221.252271
 31
0.0
  0
LINE
  5
D501
  8
DANMEN
  6
DASHED
 10
99.5
 20
218.0
 30
0.0
 11
99.5
 21
220.999972
 31
0.0
  0
LINE
  5
D502
  8
DANMEN
  6
DASHED
 10
98.5
 20
222.600003
 30
0.0
 11
98.5
 21
218.5
 31
0.0
  0
ARC
  5
D503
  8
DANMEN
  6
DASHED
 10
98.0
 20
218.5
 30
0.0
 40
0.5
 50
270.0
 51
0.0
  0
ARC
  5
D507
  8
DANMEN
  6
CONTINUOUS
 10
100.0
 20
218.5
 30
0.0
 40
0.5
 50
180.0
 51
270.0
  0
LINE
  5
D508
  8
DANMEN
  6
CONTINUOUS
 10
99.5
 20
221.0
 30
0.0
 11
99.5
 21
218.5
 31
0.0
  0
LINE
  5
D509
  8
DANMEN
  6
CONTINUOUS
 10
99.726662
 20
221.0
 30
0.0
 11
99.5
 21
221.0
 31
0.0
  0
ARC
  5
D50C
  8
DANMEN
  6
CONTINUOUS
 10
99.726662
 20
220.5
 30
0.0
 40
0.5
 50
16.504361
 51
90.0
  0
LINE
  5
D50D
  8
DANMEN
  6
DASHED
 10
102.0
 20
218.0
 30
0.0
 11
102.0
 21
217.300003
 31
0.0
  0
LINE
  5
D510
  8
DANMEN
  6
CONTINUOUS
 10
89.449991
 20
225.0
 30
0.0
 11
94.449979
 21
225.0
 31
0.0
  0
ARC
  5
D511
  8
DANMEN
  6
DASHED
 10
98.3
 20
224.800003
 30
0.0
 40
0.3
 50
22.988532
 51
192.999521
  0
LINE
  5
D515
  8
DANMEN
  6
CONTINUOUS
 10
83.65
 20
242.65
 30
0.0
 11
88.7
 21
242.65
 31
0.0
  0
ARC
  5
D516
  8
DANMEN
  6
CONTINUOUS
 10
82.65
 20
245.600012
 30
0.0
 40
1.0
 50
0.0
 51
90.0
  0
LINE
  5
D51A
  8
DANMEN
  6
CONTINUOUS
 10
82.0
 20
244.950012
 30
0.0
 11
82.0
 21
241.8
 31
0.0
  0
LINE
  5
D51B
  8
DANMEN
  6
CONTINUOUS
 10
80.5
 20
241.8
 30
0.0
 11
82.0
 21
241.8
 31
0.0
  0
LINE
  5
D51C
  8
DANMEN
  6
CONTINUOUS
 10
80.5
 20
241.8
 30
0.0
 11
80.5
 21
241.5
 31
0.0
  0
ARC
  5
D51D
  8
DANMEN
  6
CONTINUOUS
 10
81.0
 20
241.5
 30
0.0
 40
0.5
 50
180.000019
 51
270.000001
  0
LINE
  5
D51E
  8
DANMEN
  6
CONTINUOUS
 10
83.65
 20
245.600012
 30
0.0
 11
83.65
 21
242.65
 31
0.0
  0
LINE
  5
D51F
  8
DANMEN
  6
CONTINUOUS
 10
81.0
 20
241.0
 30
0.0
 11
82.0
 21
241.0
 31
0.0
  0
LINE
  5
D525
  8
DANMEN
  6
CONTINUOUS
 10
94.1
 20
246.036932
 30
0.0
 11
94.1
 21
246.3
 31
0.0
  0
ARC
  5
D526
  8
DANMEN
  6
CONTINUOUS
 10
94.3
 20
245.030306
 30
0.0
 40
2.0
 50
0.0
 51
51.706523
  0
LINE
  5
D527
  8
DANMEN
  6
CONTINUOUS
 10
91.9
 20
246.036932
 30
0.0
 11
91.9
 21
246.3
 31
0.0
  0
ARC
  5
D528
  8
DANMEN
  6
CONTINUOUS
 10
91.7
 20
245.030306
 30
0.0
 40
2.0
 50
128.293195
 51
180.0
  0
ARC
  5
D529
  8
DANMEN
  6
CONTINUOUS
 10
97.3
 20
243.65
 30
0.0
 40
1.0
 50
180.0
 51
270.0
  0
LINE
  5
D52A
  8
DANMEN
  6
CONTINUOUS
 10
93.8
 20
242.7
 30
0.0
 11
92.2
 21
242.7
 31
0.0
  0
ARC
  5
D52B
  8
DANMEN
  6
CONTINUOUS
 10
92.2
 20
243.7
 30
0.0
 40
1.0
 50
180.0
 51
270.0
  0
LINE
  5
D52C
  8
DANMEN
  6
CONTINUOUS
 10
91.2
 20
244.946061
 30
0.0
 11
91.2
 21
243.7
 31
0.0
  0
ARC
  5
D52D
  8
DANMEN
  6
CONTINUOUS
 10
91.7
 20
246.036932
 30
0.0
 40
0.2
 50
294.624318
 51
0.0
  0
ARC
  5
D52E
  8
DANMEN
  6
CONTINUOUS
 10
92.2
 20
244.946061
 30
0.0
 40
1.0
 50
114.624318
 51
180.0
  0
LINE
  5
D52F
  8
DANMEN
  6
CONTINUOUS
 10
89.7
 20
245.030306
 30
0.0
 11
89.7
 21
243.65
 31
0.0
  0
ARC
  5
D530
  8
DANMEN
  6
CONTINUOUS
 10
88.7
 20
243.65
 30
0.0
 40
1.0
 50
270.0
 51
0.0
  0
LINE
  5
D532
  8
DANMEN
  6
CONTINUOUS
 10
94.8
 20
244.946061
 30
0.0
 11
94.8
 21
243.7
 31
0.0
  0
LINE
  5
D533
  8
DANMEN
  6
CONTINUOUS
 10
96.3
 20
245.030306
 30
0.0
 11
96.3
 21
243.65
 31
0.0
  0
ARC
  5
D534
  8
DANMEN
  6
CONTINUOUS
 10
93.8
 20
243.7
 30
0.0
 40
1.0
 50
270.0
 51
0.0
  0
ARC
  5
D535
  8
DANMEN
  6
CONTINUOUS
 10
93.8
 20
244.946061
 30
0.0
 40
1.0
 50
0.0
 51
65.375682
  0
ARC
  5
D536
  8
DANMEN
  6
CONTINUOUS
 10
94.3
 20
246.036932
 30
0.0
 40
0.2
 50
180.0
 51
245.375682
  0
LINE
  5
D539
  8
DANMEN
  6
CONTINUOUS
 10
91.6
 20
246.600006
 30
0.0
 11
90.460628
 21
246.600006
 31
0.0
  0
ARC
  5
D53A
  8
DANMEN
  6
CONTINUOUS
 10
91.6
 20
246.3
 30
0.0
 40
0.3
 50
0.0
 51
90.0
  0
ARC
  5
D53B
  8
DANMEN
  6
CONTINUOUS
 10
94.4
 20
246.3
 30
0.0
 40
0.3
 50
90.0
 51
180.0
  0
LINE
  5
D53C
  8
DANMEN
  6
CONTINUOUS
 10
95.539379
 20
246.6
 30
0.0
 11
94.4
 21
246.6
 31
0.0
  0
LINE
  5
D53D
  8
DANMEN
  6
CONTINUOUS
 10
113.0
 20
252.5
 30
0.0
 11
113.0
 21
218.5
 31
0.0
  0
LINE
  5
D53E
  8
DANMEN
  6
CONTINUOUS
 10
111.350006
 20
241.0
 30
0.0
 11
111.350006
 21
219.65
 31
0.0
  0
ARC
  5
D53F
  8
DANMEN
  6
CONTINUOUS
 10
112.5
 20
218.5
 30
0.0
 40
0.5
 50
270.000018
 51
0.0
  0
LINE
  5
D543
  8
DANMEN
  6
CONTINUOUS
 10
111.350006
 20
251.350006
 30
0.0
 11
111.350006
 21
242.65
 31
0.0
  0
ARC
  5
D546
  8
DANMEN
  6
CONTINUOUS
 10
112.5
 20
252.5
 30
0.0
 40
0.5
 50
0.0
 51
89.999982
  0
LINE
  5
D547
  8
DANMEN
  6
CONTINUOUS
 10
107.0
 20
252.5
 30
0.0
 11
107.0
 21
251.850006
 31
0.0
  0
LINE
  5
D548
  8
DANMEN
  6
CONTINUOUS
 10
107.5
 20
251.350006
 30
0.0
 11
111.350006
 21
251.350006
 31
0.0
  0
ARC
  5
D54A
  8
DANMEN
  6
CONTINUOUS
 10
107.5
 20
251.850006
 30
0.0
 40
0.5
 50
180.000019
 51
270.000001
  0
LINE
  5
D54C
  8
DANMEN
  6
CONTINUOUS
 10
107.5
 20
253.0
 30
0.0
 11
112.5
 21
253.0
 31
0.0
  0
ARC
  5
D54F
  8
DANMEN
  6
CONTINUOUS
 10
107.5
 20
252.5
 30
0.0
 40
0.5
 50
89.999982
 51
180.000019
  0
LINE
  5
D551
  8
SUNPO
  6
CONTINUOUS
 10
148.0
 20
145.593714
 30
0.0
 11
148.0
 21
94.0
 31
0.0
  0
LINE
  5
D552
  8
DANMEN
  6
CONTINUOUS
 10
390.649994
 20
132.350006
 30
0.0
 11
390.649994
 21
65.649994
 31
0.0
  0
LINE
  5
D553
  8
DANMEN
  6
CONTINUOUS
 10
397.350006
 20
132.350006
 30
0.0
 11
397.350006
 21
128.5
 31
0.0
  0
LINE
  5
D554
  8
DANMEN
  6
CONTINUOUS
 10
389.0
 20
132.800003
 30
0.0
 11
389.0
 21
95.0
 31
0.0
  0
LINE
  5
D555
  8
DANMEN
  6
CONTINUOUS
 10
399.0
 20
133.5
 30
0.0
 11
399.0
 21
128.5
 31
0.0
  0
LINE
  5
D556
  8
SUNPO
  6
CONTINUOUS
 10
255.5
 20
64.0
 30
0.0
 11
255.5
 21
134.0
 31
0.0
  0
LINE
  5
D557
  8
SUNPO
  6
CONTINUOUS
 10
331.0
 20
127.0
 30
0.0
 11
331.0
 21
134.0
 31
0.0
  0
LINE
  5
D558
  8
SUNPO
  6
CONTINUOUS
 10
138.0
 20
136.0
 30
0.0
 11
138.0
 21
94.0
 31
0.0
  0
LINE
  5
D559
  8
SUNPO
  6
CONTINUOUS
 10
23.0
 20
54.0
 30
0.0
 11
23.0
 21
136.0
 31
0.0
  0
LINE
  5
D55A
  8
SUNPO
  6
CONTINUOUS
 10
312.552269
 20
25.0
 30
0.0
 11
374.0
 21
25.0
 31
0.0
  0
LINE
  5
D55B
  8
SUNPO
  6
CONTINUOUS
 10
314.0
 20
37.0
 30
0.0
 11
374.0
 21
37.0
 31
0.0
  0
TEXT
  5
D55C
  8
SUNPO
  6
CONTINUOUS
 10
330.0
 20
78.490822
 30
0.0
 40
2.5
  1
31
 50
90.0
  0
TEXT
  5
D55D
  8
SUNPO
  6
CONTINUOUS
 10
330.0
 20
112.916667
 30
0.0
 40
2.5
  1
24
 50
90.0
  0
TEXT
  5
D55E
  8
SUNPO
  6
CONTINUOUS
 10
330.0
 20
98.166667
 30
0.0
 40
2.5
  1
8
 50
90.0
  0
LINE
  5
D55F
  8
SUNPO
  6
CONTINUOUS
 10
315.350012
 20
103.0
 30
0.0
 11
331.0
 21
103.0
 31
0.0
  0
LINE
  5
D560
  8
SUNPO
  6
CONTINUOUS
 10
56.5
 20
25.0
 30
0.0
 11
148.0
 21
25.0
 31
0.0
  0
LINE
  5
D561
  8
DANMEN
  6
CONTINUOUS
 10
259.500001
 20
127.0
 30
0.0
 11
337.5
 21
127.0
 31
0.0
  0
LINE
  5
D562
  8
DANMEN
  6
CONTINUOUS
 10
337.5
 20
95.0
 30
0.0
 11
314.0
 21
95.0
 31
0.0
  0
LINE
  5
D563
  8
DANMEN
  6
CONTINUOUS
 10
337.5
 20
93.0
 30
0.0
 11
314.0
 21
93.0
 31
0.0
  0
LINE
  5
D564
  8
DANMEN
  6
CONTINUOUS
 10
337.5
 20
77.0
 30
0.0
 11
314.0
 21
77.0
 31
0.0
  0
LINE
  5
D565
  8
DANMEN
  6
CONTINUOUS
 10
259.500001
 20
64.0
 30
0.0
 11
337.5
 21
64.0
 31
0.0
  0
LINE
  5
D566
  8
DANMEN
  6
CONTINUOUS
 10
337.5
 20
74.0
 30
0.0
 11
314.0
 21
74.0
 31
0.0
  0
LINE
  5
D567
  8
DANMEN
  6
CONTINUOUS
 10
259.500001
 20
65.65
 30
0.0
 11
337.5
 21
65.65
 31
0.0
  0
LINE
  5
D568
  8
DANMEN
  6
CONTINUOUS
 10
330.432756
 20
113.5
 30
0.0
 11
337.5
 21
113.5
 31
0.0
  0
LINE
  5
D569
  8
DANMEN
  6
CONTINUOUS
 10
330.432756
 20
116.5
 30
0.0
 11
337.5
 21
116.5
 31
0.0
  0
LINE
  5
D56A
  8
DANMEN
  6
CONTINUOUS
 10
314.0
 20
100.0
 30
0.0
 11
337.5
 21
100.0
 31
0.0
  0
LINE
  5
D56B
  8
DANMEN
  6
CONTINUOUS
 10
307.0
 20
86.999994
 30
0.0
 11
337.5
 21
86.999994
 31
0.0
  0
LINE
  5
D56C
  8
DANMEN
  6
CONTINUOUS
 10
307.0
 20
83.000006
 30
0.0
 11
337.5
 21
83.000006
 31
0.0
  0
LINE
  5
D56D
  8
DANMEN
  6
CONTINUOUS
 10
307.0
 20
87.499994
 30
0.0
 11
337.5
 21
87.499994
 31
0.0
  0
LINE
  5
D56E
  8
DANMEN
  6
CONTINUOUS
 10
307.0
 20
82.500006
 30
0.0
 11
337.5
 21
82.500006
 31
0.0
  0
TEXT
  5
D570
  8
WAKU
  6
CONTINUOUS
 10
35.0
 20
284.5
 30
0.0
 40
5.0
  1
外動片引き断面詳細図　Ａタイプ（Fix部硝子溝15mm）
 41
0.913
 11
35.0
 21
287.0
 31
0.0
 73
     2
  0
LINE
  5
D572
  8
DANMEN
  6
CONTINUOUS
 10
259.500001
 20
103.0
 30
0.0
 11
274.0
 21
103.0
 31
0.0
  0
LINE
  5
D573
  8
DANMEN
  6
CONTINUOUS
 10
259.500001
 20
100.0
 30
0.0
 11
274.0
 21
100.0
 31
0.0
  0
LINE
  5
D574
  8
DANMEN
  6
CONTINUOUS
 10
259.500001
 20
107.0
 30
0.0
 11
274.0
 21
107.0
 31
0.0
  0
LINE
  5
D575
  8
DANMEN
  6
CONTINUOUS
 10
259.500001
 20
123.0
 30
0.0
 11
274.0
 21
123.0
 31
0.0
  0
LINE
  5
D576
  8
DANMEN
  6
CONTINUOUS
 10
259.500001
 20
124.8
 30
0.0
 11
274.0
 21
124.8
 31
0.0
  0
LINE
  5
D577
  8
DANMEN
  6
CONTINUOUS
 10
259.500001
 20
105.2
 30
0.0
 11
274.0
 21
105.2
 31
0.0
  0
LINE
  5
D578
  8
DANMEN
  6
CONTINUOUS
 10
259.500001
 20
74.0
 30
0.0
 11
274.0
 21
74.0
 31
0.0
  0
LINE
  5
D579
  8
DANMEN
  6
CONTINUOUS
 10
281.000018
 20
113.000024
 30
0.0
 11
259.500001
 21
113.000024
 31
0.0
  0
LINE
  5
D57A
  8
DANMEN
  6
CONTINUOUS
 10
281.000003
 20
117.000012
 30
0.0
 11
259.500001
 21
117.000012
 31
0.0
  0
LINE
  5
D57B
  8
DANMEN
  6
CONTINUOUS
 10
281.000018
 20
112.500024
 30
0.0
 11
259.500001
 21
112.500024
 31
0.0
  0
LINE
  5
D57C
  8
DANMEN
  6
CONTINUOUS
 10
281.000003
 20
117.500012
 30
0.0
 11
259.500001
 21
117.500012
 31
0.0
  0
LINE
  5
D57D
  8
DANMEN
  6
CONTINUOUS
 10
214.0
 20
64.0
 30
0.0
 11
256.500001
 21
64.0
 31
0.0
  0
LINE
  5
D57E
  8
DANMEN
  6
CONTINUOUS
 10
214.0
 20
65.65
 30
0.0
 11
256.500001
 21
65.65
 31
0.0
  0
LINE
  5
D57F
  8
DANMEN
  6
CONTINUOUS
 10
214.0
 20
65.149994
 30
0.0
 11
214.0
 21
64.5
 31
0.0
  0
ARC
  5
D580
  8
DANMEN
  6
CONTINUOUS
 10
213.5
 20
64.5
 30
0.0
 40
0.5
 50
270.000018
 51
359.999981
  0
ARC
  5
D582
  8
DANMEN
  6
CONTINUOUS
 10
213.5
 20
65.149994
 30
0.0
 40
0.5
 50
359.999981
 51
89.999982
  0
LINE
  5
D584
  8
DANMEN
  6
CONTINUOUS
 10
232.988672
 20
104.1
 30
0.0
 11
240.900002
 21
104.1
 31
0.0
  0
LINE
  5
D585
  8
DANMEN
  6
CONTINUOUS
 10
232.988672
 20
125.9
 30
0.0
 11
240.900002
 21
125.9
 31
0.0
  0
LINE
  5
D586
  8
DANMEN
  6
CONTINUOUS
 10
229.538891
 20
127.0
 30
0.0
 11
241.500002
 21
127.0
 31
0.0
  0
LINE
  5
D587
  8
DANMEN
  6
CONTINUOUS
 10
229.538896
 20
103.0
 30
0.0
 11
241.500002
 21
103.0
 31
0.0
  0
LINE
  5
D588
  8
DANMEN
  6
CONTINUOUS
 10
212.0
 20
100.0
 30
0.0
 11
256.500001
 21
100.0
 31
0.0
  0
LINE
  5
D589
  8
DANMEN
  6
CONTINUOUS
 10
234.999986
 20
116.999979
 30
0.0
 11
256.500001
 21
116.999979
 31
0.0
  0
LINE
  5
D58A
  8
DANMEN
  6
CONTINUOUS
 10
235.000002
 20
112.999991
 30
0.0
 11
256.500001
 21
112.999991
 31
0.0
  0
LINE
  5
D58B
  8
DANMEN
  6
CONTINUOUS
 10
234.999986
 20
117.499979
 30
0.0
 11
256.500001
 21
117.499979
 31
0.0
  0
LINE
  5
D58C
  8
DANMEN
  6
CONTINUOUS
 10
235.000002
 20
112.499991
 30
0.0
 11
256.500001
 21
112.499991
 31
0.0
  0
LINE
  5
D58D
  8
DANMEN
  6
CONTINUOUS
 10
211.134271
 20
104.949997
 30
0.0
 11
203.199998
 21
106.140138
 31
0.0
  0
LINE
  5
D58E
  8
DANMEN
  6
CONTINUOUS
 10
215.599998
 20
104.949997
 30
0.0
 11
215.599998
 21
110.5
 31
0.0
  0
LINE
  5
D58F
  8
DANMEN
  6
CONTINUOUS
 10
230.999986
 20
125.050003
 30
0.0
 11
230.999986
 21
104.949997
 31
0.0
  0
LINE
  5
D590
  8
DANMEN
  6
CONTINUOUS
 10
216.699998
 20
107.0
 30
0.0
 11
216.959696
 21
103.537395
 31
0.0
  0
LINE
  5
D591
  8
DANMEN
  6
CONTINUOUS
 10
229.299989
 20
107.0
 30
0.0
 11
229.040291
 21
103.537395
 31
0.0
  0
LINE
  5
D592
  8
DANMEN
  6
CONTINUOUS
 10
211.134271
 20
104.949997
 30
0.0
 11
215.599998
 21
104.949997
 31
0.0
  0
LINE
  5
D593
  8
DANMEN
  6
CONTINUOUS
 10
210.300003
 20
100.0
 30
0.0
 11
211.5
 21
100.0
 31
0.0
  0
ARC
  5
D594
  8
DANMEN
  6
CONTINUOUS
 10
205.648588
 20
91.818668
 30
0.0
 40
11.5
 50
59.414823
 51
84.739832
  0
ARC
  5
D595
  8
DANMEN
  6
CONTINUOUS
 10
205.648588
 20
91.818668
 30
0.0
 40
12.0
 50
58.04287
 51
84.739832
  0
LINE
  5
D596
  8
DANMEN
  6
CONTINUOUS
 10
209.250004
 20
100.7
 30
0.0
 11
211.500004
 21
100.7
 31
0.0
  0
LINE
  5
D597
  8
DANMEN
  6
CONTINUOUS
 10
209.650003
 20
100.0
 30
0.0
 11
212.000004
 21
100.0
 31
0.0
  0
LINE
  5
D598
  8
DANMEN
  6
CONTINUOUS
 10
204.0
 20
99.5
 30
0.0
 11
204.0
 21
97.6
 31
0.0
  0
LINE
  5
D599
  8
DANMEN
  6
CONTINUOUS
 10
209.800003
 20
99.500017
 30
0.0
 11
209.799998
 21
99.199998
 31
0.0
  0
LINE
  5
D59A
  8
DANMEN
  6
CONTINUOUS
 10
206.200001
 20
99.499999
 30
0.0
 11
206.200003
 21
99.199996
 31
0.0
  0
LINE
  5
D59B
  8
DANMEN
  6
CONTINUOUS
 10
209.650003
 20
100.0
 30
0.0
 11
209.650003
 21
99.0
 31
0.0
  0
LINE
  5
D59C
  8
DANMEN
  6
CONTINUOUS
 10
206.350004
 20
100.0
 30
0.0
 11
206.350004
 21
99.0
 31
0.0
  0
LINE
  5
D59D
  8
DANMEN
  6
CONTINUOUS
 10
204.8
 20
97.6
 30
0.0
 11
210.999998
 21
97.6
 31
0.0
  0
LINE
  5
D59E
  8
DANMEN
  6
CONTINUOUS
 10
207.150004
 20
98.8
 30
0.0
 11
206.350004
 21
98.0
 31
0.0
  0
LINE
  5
D5A1
  8
DANMEN
  6
CONTINUOUS
 10
204.8
 20
99.199997
 30
0.0
 11
204.8
 21
97.6
 31
0.0
  0
LINE
  5
D5A3
  8
DANMEN
  6
CONTINUOUS
 10
204.8
 20
99.199997
 30
0.0
 11
206.199997
 21
99.199997
 31
0.0
  0
ARC
  5
D5A6
  8
DANMEN
  6
CONTINUOUS
 10
205.350003
 20
98.8
 30
0.0
 40
0.2
 50
89.999982
 51
180.000019
  0
ARC
  5
D5A7
  8
DANMEN
  6
CONTINUOUS
 10
205.350003
 20
98.2
 30
0.0
 40
0.2
 50
180.000019
 51
270.000001
  0
LINE
  5
D5A8
  8
DANMEN
  6
CONTINUOUS
 10
205.350003
 20
98.0
 30
0.0
 11
206.350004
 21
98.0
 31
0.0
  0
LINE
  5
D5A9
  8
DANMEN
  6
CONTINUOUS
 10
205.150003
 20
98.8
 30
0.0
 11
205.150003
 21
98.2
 31
0.0
  0
LINE
  5
D5AA
  8
DANMEN
  6
CONTINUOUS
 10
205.350003
 20
99.0
 30
0.0
 11
206.350004
 21
99.0
 31
0.0
  0
LINE
  5
D5AC
  8
DANMEN
  6
CONTINUOUS
 10
210.999998
 20
99.199997
 30
0.0
 11
210.999998
 21
97.6
 31
0.0
  0
LINE
  5
D5AD
  8
DANMEN
  6
CONTINUOUS
 10
209.800003
 20
99.199997
 30
0.0
 11
211.0
 21
99.199997
 31
0.0
  0
LINE
  5
D5B2
  8
DANMEN
  6
CONTINUOUS
 10
207.150004
 20
98.8
 30
0.0
 11
208.850003
 21
98.8
 31
0.0
  0
LINE
  5
D5B3
  8
DANMEN
  6
CONTINUOUS
 10
209.650003
 20
99.0
 30
0.0
 11
210.650004
 21
99.0
 31
0.0
  0
ARC
  5
D5B4
  8
DANMEN
  6
CONTINUOUS
 10
210.650004
 20
98.2
 30
0.0
 40
0.2
 50
270.000018
 51
0.0
  0
ARC
  5
D5B5
  8
DANMEN
  6
CONTINUOUS
 10
210.650004
 20
98.8
 30
0.0
 40
0.2
 50
0.0
 51
89.999982
  0
LINE
  5
D5B6
  8
DANMEN
  6
CONTINUOUS
 10
209.650003
 20
98.0
 30
0.0
 11
210.650004
 21
98.0
 31
0.0
  0
LINE
  5
D5B7
  8
DANMEN
  6
CONTINUOUS
 10
208.850003
 20
98.8
 30
0.0
 11
209.650003
 21
98.0
 31
0.0
  0
LINE
  5
D5B8
  8
DANMEN
  6
CONTINUOUS
 10
210.850004
 20
98.8
 30
0.0
 11
210.850004
 21
98.2
 31
0.0
  0
LINE
  5
D5B9
  8
DANMEN
  6
CONTINUOUS
 10
207.735478
 20
102.74687
 30
0.0
 11
206.850004
 21
101.699999
 31
0.0
  0
LINE
  5
D5BA
  8
DANMEN
  6
CONTINUOUS
 10
204.5
 20
100.0
 30
0.0
 11
205.699997
 21
100.0
 31
0.0
  0
ARC
  5
D5BB
  8
DANMEN
  6
CONTINUOUS
 10
204.5
 20
99.5
 30
0.0
 40
0.5
 50
90.000037
 51
180.000019
  0
ARC
  5
D5BC
  8
DANMEN
  6
CONTINUOUS
 10
205.699997
 20
99.5
 30
0.0
 40
0.5
 50
359.999981
 51
90.000037
  0
LINE
  5
D5C1
  8
DANMEN
  6
CONTINUOUS
 10
206.850004
 20
101.699999
 30
0.0
 11
206.850004
 21
100.7
 31
0.0
  0
LINE
  5
D5C2
  8
DANMEN
  6
CONTINUOUS
 10
204.122478
 20
100.7
 30
0.0
 11
206.850004
 21
100.7
 31
0.0
  0
ARC
  5
D5C3
  8
DANMEN
  6
CONTINUOUS
 10
206.725814
 20
103.519184
 30
0.0
 40
0.25
 50
84.739832
 51
264.739796
  0
LINE
  5
D5C4
  8
DANMEN
  6
CONTINUOUS
 10
203.682602
 20
100.0
 30
0.0
 11
206.350004
 21
100.0
 31
0.0
  0
ARC
  5
D5C6
  8
DANMEN
  6
CONTINUOUS
 10
210.300003
 20
99.5
 30
0.0
 40
0.5
 50
90.0
 51
179.999149
  0
ARC
  5
D5C9
  8
DANMEN
  6
CONTINUOUS
 10
209.250004
 20
100.3
 30
0.0
 40
0.4
 50
89.999982
 51
180.000019
  0
LINE
  5
D5CA
  8
DANMEN
  6
CONTINUOUS
 10
207.964531
 20
102.553131
 30
0.0
 11
207.150004
 21
101.590139
 31
0.0
  0
ARC
  5
D5CB
  8
DANMEN
  6
CONTINUOUS
 10
207.850004
 20
102.650001
 30
0.0
 40
0.15
 50
319.774489
 51
139.774466
  0
LINE
  5
D5CC
  8
DANMEN
  6
CONTINUOUS
 10
207.150004
 20
100.0
 30
0.0
 11
208.850003
 21
100.0
 31
0.0
  0
LINE
  5
D5CD
  8
DANMEN
  6
CONTINUOUS
 10
207.150004
 20
101.590138
 30
0.0
 11
207.150004
 21
100.0
 31
0.0
  0
LINE
  5
D5CE
  8
DANMEN
  6
CONTINUOUS
 10
208.850003
 20
100.3
 30
0.0
 11
208.850003
 21
100.0
 31
0.0
  0
LINE
  5
D5CF
  8
DANMEN
  6
CONTINUOUS
 10
212.0
 20
99.5
 30
0.0
 11
212.0
 21
97.0
 31
0.0
  0
LINE
  5
D5D0
  8
DANMEN
  6
CONTINUOUS
 10
212.0
 20
96.5
 30
0.0
 11
212.0
 21
100.0
 31
0.0
  0
ARC
  5
D5D1
  8
DANMEN
  6
CONTINUOUS
 10
211.5
 20
97.0
 30
0.0
 40
0.5
 50
270.000018
 51
0.0
  0
LINE
  5
D5D3
  8
DANMEN
  6
CONTINUOUS
 10
212.037293
 20
103.0
 30
0.0
 11
216.461092
 21
103.0
 31
0.0
  0
ARC
  5
D5D5
  8
DANMEN
  6
CONTINUOUS
 10
212.037293
 20
103.5
 30
0.0
 40
0.5
 50
261.469234
 51
270.0
  0
ARC
  5
D5D7
  8
DANMEN
  6
CONTINUOUS
 10
211.5
 20
99.5
 30
0.0
 40
0.5
 50
359.999981
 51
90.000037
  0
LINE
  5
D5DB
  8
DANMEN
  6
CONTINUOUS
 10
211.500004
 20
101.718715
 30
0.0
 11
211.500004
 21
100.7
 31
0.0
  0
LINE
  5
D5DC
  8
DANMEN
  6
CONTINUOUS
 10
212.000004
 20
102.0
 30
0.0
 11
212.000004
 21
100.0
 31
0.0
  0
ARC
  5
D5E0
  8
DANMEN
  6
CONTINUOUS
 10
216.461097
 20
103.5
 30
0.0
 40
0.5
 50
270.0
 51
4.289197
  0
LINE
  5
D5E2
  8
DANMEN
  6
CONTINUOUS
 10
230.999986
 20
104.95
 30
0.0
 11
231.999986
 21
104.95
 31
0.0
  0
ARC
  5
D5E6
  8
DANMEN
  6
CONTINUOUS
 10
229.538891
 20
103.5
 30
0.0
 40
0.5
 50
175.710803
 51
270.0
  0
ARC
  5
D5E9
  8
DANMEN
  6
CONTINUOUS
 10
232.988672
 20
105.1
 30
0.0
 40
1.0
 50
188.626927
 51
270.0
  0
LINE
  5
D5EA
  8
DANMEN
  6
CONTINUOUS
 10
216.949998
 20
108.1
 30
0.0
 11
220.000002
 21
108.1
 31
0.0
  0
LINE
  5
D5EB
  8
DANMEN
  6
CONTINUOUS
 10
216.949998
 20
121.9
 30
0.0
 11
220.000002
 21
121.9
 31
0.0
  0
LINE
  5
D5EC
  8
DANMEN
  6
CONTINUOUS
 10
216.699998
 20
123.0
 30
0.0
 11
229.299989
 21
123.0
 31
0.0
  0
LINE
  5
D5ED
  8
DANMEN
  6
CONTINUOUS
 10
216.699998
 20
107.0
 30
0.0
 11
229.299989
 21
107.0
 31
0.0
  0
LINE
  5
D5EE
  8
DANMEN
  6
CONTINUOUS
 10
214.999998
 20
119.5
 30
0.0
 11
214.999998
 21
110.5
 31
0.0
  0
LINE
  5
D5EF
  8
DANMEN
  6
CONTINUOUS
 10
216.949998
 20
121.9
 30
0.0
 11
216.949998
 21
108.1
 31
0.0
  0
LINE
  5
D5F2
  8
DANMEN
  6
CONTINUOUS
 10
203.199998
 20
107.5
 30
0.0
 11
203.199998
 21
106.140138
 31
0.0
  0
LINE
  5
D5F3
  8
DANMEN
  6
CONTINUOUS
 10
209.164402
 20
113.360739
 30
0.0
 11
204.081604
 21
112.513606
 31
0.0
  0
LINE
  5
D5F4
  8
DANMEN
  6
CONTINUOUS
 10
208.050996
 20
115.0
 30
0.0
 11
203.850995
 21
114.3
 31
0.0
  0
ARC
  5
D5F7
  8
DANMEN
  6
CONTINUOUS
 10
203.917205
 20
113.5
 30
0.0
 40
1.0
 50
270.000018
 51
279.462343
  0
LINE
  5
D5F9
  8
DANMEN
  6
CONTINUOUS
 10
210.0
 20
114.5
 30
0.0
 11
210.0
 21
114.347137
 31
0.0
  0
LINE
  5
D5FA
  8
DANMEN
  6
CONTINUOUS
 10
208.050996
 20
115.0
 30
0.0
 11
209.5
 21
115.0
 31
0.0
  0
ARC
  5
D5FD
  8
DANMEN
  6
CONTINUOUS
 10
209.0
 20
114.347137
 30
0.0
 40
1.0
 50
279.462343
 51
0.000285
  0
ARC
  5
D5FF
  8
DANMEN
  6
CONTINUOUS
 10
209.5
 20
114.5
 30
0.0
 40
0.5
 50
0.0
 51
89.999982
  0
LINE
  5
D601
  8
DANMEN
  6
CONTINUOUS
 10
214.999999
 20
110.5
 30
0.0
 11
215.599998
 21
110.5
 31
0.0
  0
LINE
  5
D607
  8
DANMEN
  6
CONTINUOUS
 10
211.134271
 20
125.050003
 30
0.0
 11
215.599998
 21
125.050003
 31
0.0
  0
LINE
  5
D608
  8
DANMEN
  6
CONTINUOUS
 10
203.199998
 20
122.5
 30
0.0
 11
203.199998
 21
123.859862
 31
0.0
  0
LINE
  5
D60A
  8
DANMEN
  6
CONTINUOUS
 10
211.134271
 20
125.050003
 30
0.0
 11
203.199998
 21
123.859862
 31
0.0
  0
LINE
  5
D60D
  8
DANMEN
  6
CONTINUOUS
 10
215.599998
 20
119.5
 30
0.0
 11
215.599998
 21
125.050003
 31
0.0
  0
LINE
  5
D60E
  8
DANMEN
  6
CONTINUOUS
 10
214.999999
 20
119.5
 30
0.0
 11
215.599998
 21
119.5
 31
0.0
  0
LINE
  5
D612
  8
DANMEN
  6
CONTINUOUS
 10
212.037293
 20
127.0
 30
0.0
 11
216.461092
 21
127.0
 31
0.0
  0
ARC
  5
D614
  8
DANMEN
  6
CONTINUOUS
 10
212.037293
 20
126.5
 30
0.0
 40
0.5
 50
90.0
 51
98.530766
  0
LINE
  5
D619
  8
DANMEN
  6
CONTINUOUS
 10
216.959696
 20
126.462605
 30
0.0
 11
216.699998
 21
123.0
 31
0.0
  0
ARC
  5
D61A
  8
DANMEN
  6
CONTINUOUS
 10
216.461097
 20
126.5
 30
0.0
 40
0.5
 50
355.710803
 51
90.0
  0
LINE
  5
D61B
  8
DANMEN
  6
CONTINUOUS
 10
229.049989
 20
119.0
 30
0.0
 11
229.049989
 21
111.0
 31
0.0
  0
LINE
  5
D61C
  8
DANMEN
  6
CONTINUOUS
 10
234.999986
 20
112.499991
 30
0.0
 11
234.999986
 21
117.499994
 31
0.0
  0
LINE
  5
D61D
  8
DANMEN
  6
CONTINUOUS
 10
226.000002
 20
108.1
 30
0.0
 11
229.899986
 21
108.1
 31
0.0
  0
LINE
  5
D61E
  8
DANMEN
  6
CONTINUOUS
 10
221.000002
 20
108.1
 30
0.0
 11
225.000002
 21
108.1
 31
0.0
  0
LINE
  5
D624
  8
DANMEN
  6
CONTINUOUS
 10
221.000002
 20
108.1
 30
0.0
 11
221.000002
 21
108.95
 31
0.0
  0
LINE
  5
D625
  8
DANMEN
  6
CONTINUOUS
 10
220.000002
 20
108.1
 30
0.0
 11
220.000002
 21
108.95
 31
0.0
  0
LINE
  5
D626
  8
DANMEN
  6
CONTINUOUS
 10
220.000002
 20
108.95
 30
0.0
 11
221.000002
 21
108.95
 31
0.0
  0
LINE
  5
D629
  8
DANMEN
  6
CONTINUOUS
 10
225.000002
 20
108.95
 30
0.0
 11
226.000002
 21
108.95
 31
0.0
  0
LINE
  5
D62C
  8
DANMEN
  6
CONTINUOUS
 10
226.000002
 20
108.1
 30
0.0
 11
226.000002
 21
108.95
 31
0.0
  0
LINE
  5
D62D
  8
DANMEN
  6
CONTINUOUS
 10
225.000002
 20
108.1
 30
0.0
 11
225.000002
 21
108.95
 31
0.0
  0
LINE
  5
D631
  8
DANMEN
  6
CONTINUOUS
 10
229.899986
 20
111.0
 30
0.0
 11
229.899986
 21
108.1
 31
0.0
  0
LINE
  5
D633
  8
DANMEN
  6
CONTINUOUS
 10
229.049989
 20
111.0
 30
0.0
 11
229.899986
 21
111.0
 31
0.0
  0
LINE
  5
D636
  8
DANMEN
  6
CONTINUOUS
 10
226.000002
 20
121.9
 30
0.0
 11
229.899986
 21
121.9
 31
0.0
  0
LINE
  5
D637
  8
DANMEN
  6
CONTINUOUS
 10
221.000002
 20
121.9
 30
0.0
 11
225.000002
 21
121.9
 31
0.0
  0
LINE
  5
D63A
  8
DANMEN
  6
CONTINUOUS
 10
220.000002
 20
121.05
 30
0.0
 11
221.000002
 21
121.05
 31
0.0
  0
LINE
  5
D63D
  8
DANMEN
  6
CONTINUOUS
 10
221.000002
 20
121.9
 30
0.0
 11
221.000002
 21
121.05
 31
0.0
  0
LINE
  5
D63E
  8
DANMEN
  6
CONTINUOUS
 10
220.000002
 20
121.9
 30
0.0
 11
220.000002
 21
121.05
 31
0.0
  0
LINE
  5
D643
  8
DANMEN
  6
CONTINUOUS
 10
225.000002
 20
121.05
 30
0.0
 11
226.000002
 21
121.05
 31
0.0
  0
LINE
  5
D644
  8
DANMEN
  6
CONTINUOUS
 10
226.000002
 20
121.9
 30
0.0
 11
226.000002
 21
121.05
 31
0.0
  0
LINE
  5
D645
  8
DANMEN
  6
CONTINUOUS
 10
225.000002
 20
121.9
 30
0.0
 11
225.000002
 21
121.05
 31
0.0
  0
LINE
  5
D649
  8
DANMEN
  6
CONTINUOUS
 10
229.049989
 20
119.0
 30
0.0
 11
229.899986
 21
119.0
 31
0.0
  0
LINE
  5
D64A
  8
DANMEN
  6
CONTINUOUS
 10
229.899986
 20
121.9
 30
0.0
 11
229.899986
 21
119.0
 31
0.0
  0
LINE
  5
D64B
  8
DANMEN
  6
CONTINUOUS
 10
230.999986
 20
125.05
 30
0.0
 11
231.999986
 21
125.05
 31
0.0
  0
LINE
  5
D650
  8
DANMEN
  6
CONTINUOUS
 10
229.040291
 20
126.462605
 30
0.0
 11
229.299989
 21
123.0
 31
0.0
  0
ARC
  5
D651
  8
DANMEN
  6
CONTINUOUS
 10
229.538891
 20
126.5
 30
0.0
 40
0.5
 50
90.0
 51
184.289197
  0
ARC
  5
D653
  8
DANMEN
  6
CONTINUOUS
 10
232.988672
 20
124.9
 30
0.0
 40
1.0
 50
90.0
 51
171.373073
  0
LINE
  5
D655
  8
DANMEN
  6
CONTINUOUS
 10
242.000002
 20
103.5
 30
0.0
 11
242.000002
 21
107.5
 31
0.0
  0
LINE
  5
D656
  8
DANMEN
  6
CONTINUOUS
 10
240.900002
 20
104.1
 30
0.0
 11
240.900002
 21
107.2
 31
0.0
  0
LINE
  5
D657
  8
DANMEN
  6
CONTINUOUS
 10
242.0
 20
103.0
 30
0.0
 11
256.500001
 21
103.0
 31
0.0
  0
LINE
  5
D658
  8
DANMEN
  6
CONTINUOUS
 10
242.000002
 20
105.2
 30
0.0
 11
256.500001
 21
105.2
 31
0.0
  0
ARC
  5
D65A
  8
DANMEN
  6
CONTINUOUS
 10
241.500002
 20
103.5
 30
0.0
 40
0.5
 50
270.000018
 51
0.0
  0
LINE
  5
D65B
  8
DANMEN
  6
CONTINUOUS
 10
242.000002
 20
123.0
 30
0.0
 11
256.500001
 21
123.0
 31
0.0
  0
LINE
  5
D65C
  8
DANMEN
  6
CONTINUOUS
 10
242.000002
 20
107.0
 30
0.0
 11
256.500001
 21
107.0
 31
0.0
  0
LINE
  5
D65D
  8
DANMEN
  6
CONTINUOUS
 10
242.000002
 20
124.8
 30
0.0
 11
256.500001
 21
124.8
 31
0.0
  0
ARC
  5
D65E
  8
DANMEN
  6
CONTINUOUS
 10
242.99991
 20
108.499985
 30
0.0
 40
1.5
 50
269.999964
 51
0.000001
  0
LINE
  5
D65F
  8
DANMEN
  6
CONTINUOUS
 10
239.000002
 20
108.0
 30
0.0
 11
241.500002
 21
108.0
 31
0.0
  0
LINE
  5
D660
  8
DANMEN
  6
CONTINUOUS
 10
239.447659
 20
107.352878
 30
0.0
 11
240.900002
 21
107.2
 31
0.0
  0
LINE
  5
D662
  8
DANMEN
  6
CONTINUOUS
 10
239.000002
 20
107.850131
 30
0.0
 11
239.000002
 21
108.0
 31
0.0
  0
ARC
  5
D664
  8
DANMEN
  6
CONTINUOUS
 10
239.500002
 20
107.850131
 30
0.0
 40
0.5
 50
180.0
 51
263.990994
  0
ARC
  5
D666
  8
DANMEN
  6
CONTINUOUS
 10
241.500002
 20
107.5
 30
0.0
 40
0.5
 50
0.0
 51
89.999982
  0
ARC
  5
D66B
  8
DANMEN
  6
CONTINUOUS
 10
245.99991
 20
110.999991
 30
0.0
 40
1.5
 50
90.0
 51
179.999982
  0
LINE
  5
D66C
  8
DANMEN
  6
CONTINUOUS
 10
244.49991
 20
108.499985
 30
0.0
 11
244.49991
 21
110.999991
 31
0.0
  0
ARC
  5
D66D
  8
DANMEN
  6
CONTINUOUS
 10
242.99991
 20
121.499985
 30
0.0
 40
1.5
 50
0.000018
 51
90.0
  0
ARC
  5
D66E
  8
DANMEN
  6
CONTINUOUS
 10
239.500002
 20
122.149869
 30
0.0
 40
0.5
 50
96.009006
 51
180.0
  0
LINE
  5
D66F
  8
DANMEN
  6
CONTINUOUS
 10
239.447659
 20
122.647122
 30
0.0
 11
240.900002
 21
122.8
 31
0.0
  0
LINE
  5
D670
  8
DANMEN
  6
CONTINUOUS
 10
242.000002
 20
126.5
 30
0.0
 11
242.000002
 21
122.5
 31
0.0
  0
LINE
  5
D671
  8
DANMEN
  6
CONTINUOUS
 10
239.000002
 20
122.0
 30
0.0
 11
241.500002
 21
122.0
 31
0.0
  0
LINE
  5
D674
  8
DANMEN
  6
CONTINUOUS
 10
239.000002
 20
122.149869
 30
0.0
 11
239.000002
 21
122.0
 31
0.0
  0
ARC
  5
D677
  8
DANMEN
  6
CONTINUOUS
 10
241.500002
 20
122.5
 30
0.0
 40
0.5
 50
270.000018
 51
0.0
  0
LINE
  5
D679
  8
DANMEN
  6
CONTINUOUS
 10
240.900002
 20
125.9
 30
0.0
 11
240.900002
 21
122.8
 31
0.0
  0
ARC
  5
D67B
  8
DANMEN
  6
CONTINUOUS
 10
241.500002
 20
126.5
 30
0.0
 40
0.5
 50
0.0
 51
89.999982
  0
LINE
  5
D67C
  8
DANMEN
  6
CONTINUOUS
 10
244.49991
 20
118.999994
 30
0.0
 11
244.49991
 21
121.499985
 31
0.0
  0
ARC
  5
D67D
  8
DANMEN
  6
CONTINUOUS
 10
245.99991
 20
118.999994
 30
0.0
 40
1.5
 50
179.999982
 51
269.999964
  0
LINE
  5
D67E
  8
DANMEN
  6
CONTINUOUS
 10
307.000003
 20
78.299994
 30
0.0
 11
289.000003
 21
88.299994
 31
0.0
  0
LINE
  5
D67F
  8
DANMEN
  6
CONTINUOUS
 10
307.000003
 20
88.299994
 30
0.0
 11
307.000003
 21
78.299994
 31
0.0
  0
LINE
  5
D680
  8
DANMEN
  6
CONTINUOUS
 10
275.95
 20
69.949997
 30
0.0
 11
275.95
 21
92.050003
 31
0.0
  0
LINE
  5
D681
  8
DANMEN
  6
CONTINUOUS
 10
274.000003
 20
69.0
 30
0.0
 11
274.000003
 21
99.5
 31
0.0
  0
LINE
  5
D682
  8
DANMEN
  6
CONTINUOUS
 10
287.050006
 20
69.949997
 30
0.0
 11
287.050006
 21
93.050003
 31
0.0
  0
LINE
  5
D683
  8
DANMEN
  6
CONTINUOUS
 10
289.000003
 20
69.949997
 30
0.0
 11
289.000003
 21
88.299994
 31
0.0
  0
ARC
  5
D684
  8
DANMEN
  6
CONTINUOUS
 10
318.0
 20
81.000006
 30
0.0
 40
1.5
 50
90.0
 51
179.999982
  0
LINE
  5
D685
  8
DANMEN
  6
CONTINUOUS
 10
289.000003
 20
78.299994
 30
0.0
 11
307.000003
 21
78.299994
 31
0.0
  0
LINE
  5
D686
  8
DANMEN
  6
CONTINUOUS
 10
313.500003
 20
68.0
 30
0.0
 11
275.000003
 21
68.0
 31
0.0
  0
LINE
  5
D687
  8
DANMEN
  6
CONTINUOUS
 10
312.800006
 20
69.949997
 30
0.0
 11
289.000003
 21
69.949997
 31
0.0
  0
LINE
  5
D688
  8
DANMEN
  6
CONTINUOUS
 10
287.050006
 20
69.949997
 30
0.0
 11
275.95
 21
69.949997
 31
0.0
  0
ARC
  5
D689
  8
DANMEN
  6
CONTINUOUS
 10
275.000003
 20
69.0
 30
0.0
 40
1.0
 50
180.0
 51
270.0
  0
LINE
  5
D68A
  8
DANMEN
  6
CONTINUOUS
 10
314.000003
 20
68.5
 30
0.0
 11
314.000003
 21
77.0
 31
0.0
  0
LINE
  5
D68B
  8
DANMEN
  6
CONTINUOUS
 10
312.800006
 20
69.949997
 30
0.0
 11
312.800006
 21
71.949997
 31
0.0
  0
ARC
  5
D68C
  8
DANMEN
  6
CONTINUOUS
 10
313.500003
 20
68.5
 30
0.0
 40
0.5
 50
270.0
 51
0.0
  0
LINE
  5
D68D
  8
DANMEN
  6
CONTINUOUS
 10
312.050003
 20
71.949997
 30
0.0
 11
312.050003
 21
76.5
 31
0.0
  0
LINE
  5
D68E
  8
DANMEN
  6
CONTINUOUS
 10
312.800006
 20
71.949997
 30
0.0
 11
312.050003
 21
71.949997
 31
0.0
  0
ARC
  5
D68F
  8
DANMEN
  6
CONTINUOUS
 10
313.500003
 20
77.0
 30
0.0
 40
0.5
 50
0.000019
 51
89.999982
  0
LINE
  5
D690
  8
DANMEN
  6
CONTINUOUS
 10
313.500003
 20
77.5
 30
0.0
 11
311.000003
 21
77.5
 31
0.0
  0
LINE
  5
D691
  8
DANMEN
  6
CONTINUOUS
 10
311.000003
 20
77.0
 30
0.0
 11
311.000003
 21
77.5
 31
0.0
  0
LINE
  5
D692
  8
DANMEN
  6
CONTINUOUS
 10
312.050003
 20
76.5
 30
0.0
 11
311.500003
 21
76.5
 31
0.0
  0
ARC
  5
D693
  8
DANMEN
  6
CONTINUOUS
 10
311.500003
 20
77.0
 30
0.0
 40
0.5
 50
180.0
 51
270.0
  0
LINE
  5
D694
  8
DANMEN
  6
CONTINUOUS
 10
316.5
 20
78.5
 30
0.0
 11
316.5
 21
81.000006
 31
0.0
  0
ARC
  5
D695
  8
DANMEN
  6
CONTINUOUS
 10
315.0
 20
78.5
 30
0.0
 40
1.5
 50
269.999964
 51
0.000001
  0
LINE
  5
D696
  8
DANMEN
  6
CONTINUOUS
 10
289.000003
 20
88.299994
 30
0.0
 11
307.000003
 21
88.299994
 31
0.0
  0
LINE
  5
D697
  8
DANMEN
  6
CONTINUOUS
 10
302.500003
 20
100.0
 30
0.0
 11
298.473613
 21
100.0
 31
0.0
  0
LINE
  5
D698
  8
DANMEN
  6
CONTINUOUS
 10
300.95
 20
104.500003
 30
0.0
 11
308.500003
 21
104.500003
 31
0.0
  0
LINE
  5
D699
  8
DANMEN
  6
CONTINUOUS
 10
300.95
 20
125.500003
 30
0.0
 11
308.500003
 21
125.500003
 31
0.0
  0
LINE
  5
D69A
  8
DANMEN
  6
CONTINUOUS
 10
274.500003
 20
103.0
 30
0.0
 11
302.500003
 21
103.0
 31
0.0
  0
LINE
  5
D69B
  8
DANMEN
  6
CONTINUOUS
 10
274.500003
 20
127.0
 30
0.0
 11
313.000003
 21
127.0
 31
0.0
  0
LINE
  5
D69C
  8
DANMEN
  6
CONTINUOUS
 10
299.000003
 20
99.0
 30
0.0
 11
302.500003
 21
99.0
 31
0.0
  0
LINE
  5
D69D
  8
DANMEN
  6
CONTINUOUS
 10
292.800003
 20
97.5
 30
0.0
 11
303.000003
 21
97.5
 31
0.0
  0
LINE
  5
D69E
  8
DANMEN
  6
CONTINUOUS
 10
313.499999
 20
95.0
 30
0.0
 11
297.000003
 21
95.0
 31
0.0
  0
LINE
  5
D69F
  8
DANMEN
  6
CONTINUOUS
 10
309.0
 20
93.05
 30
0.0
 11
299.300003
 21
93.05
 31
0.0
  0
LINE
  5
D6A0
  8
DANMEN
  6
CONTINUOUS
 10
290.950003
 20
125.500003
 30
0.0
 11
290.950003
 21
104.500003
 31
0.0
  0
LINE
  5
D6A1
  8
DANMEN
  6
CONTINUOUS
 10
274.000003
 20
107.5
 30
0.0
 11
274.000003
 21
103.5
 31
0.0
  0
LINE
  5
D6A2
  8
DANMEN
  6
CONTINUOUS
 10
275.100003
 20
107.2
 30
0.0
 11
275.100003
 21
104.1
 31
0.0
  0
LINE
  5
D6A3
  8
DANMEN
  6
CONTINUOUS
 10
299.95
 20
106.5
 30
0.0
 11
299.95
 21
104.500003
 31
0.0
  0
LINE
  5
D6A4
  8
DANMEN
  6
CONTINUOUS
 10
300.95
 20
107.0
 30
0.0
 11
300.95
 21
104.500003
 31
0.0
  0
LINE
  5
D6A5
  8
DANMEN
  6
CONTINUOUS
 10
289.000003
 20
125.050003
 30
0.0
 11
289.000003
 21
104.949997
 31
0.0
  0
LINE
  5
D6A6
  8
DANMEN
  6
CONTINUOUS
 10
277.000003
 20
104.949997
 30
0.0
 11
289.000003
 21
104.949997
 31
0.0
  0
LINE
  5
D6A7
  8
DANMEN
  6
CONTINUOUS
 10
287.050006
 20
95.0
 30
0.0
 11
280.750003
 21
95.0
 31
0.0
  0
LINE
  5
D6A8
  8
DANMEN
  6
CONTINUOUS
 10
287.050006
 20
93.050003
 30
0.0
 11
275.65
 21
93.050003
 31
0.0
  0
LINE
  5
D6A9
  8
DANMEN
  6
CONTINUOUS
 10
275.95
 20
92.050003
 30
0.0
 11
275.65
 21
92.050003
 31
0.0
  0
LINE
  5
D6AA
  8
DANMEN
  6
CONTINUOUS
 10
275.65
 20
92.050003
 30
0.0
 11
275.65
 21
93.050003
 31
0.0
  0
LINE
  5
D6AB
  8
DANMEN
  6
CONTINUOUS
 10
277.220638
 20
100.0
 30
0.0
 11
275.200003
 21
100.0
 31
0.0
  0
LINE
  5
D6AC
  8
DANMEN
  6
CONTINUOUS
 10
276.9
 20
97.0
 30
0.0
 11
276.4
 21
96.5
 31
0.0
  0
LINE
  5
D6AD
  8
DANMEN
  6
CONTINUOUS
 10
275.8
 20
99.2
 30
0.0
 11
277.2
 21
99.2
 31
0.0
  0
LINE
  5
D6AE
  8
DANMEN
  6
CONTINUOUS
 10
275.100003
 20
104.1
 30
0.0
 11
277.000003
 21
104.1
 31
0.0
  0
LINE
  5
D6AF
  8
DANMEN
  6
CONTINUOUS
 10
279.750003
 20
95.0
 30
0.0
 11
275.200003
 21
95.0
 31
0.0
  0
LINE
  5
D6B0
  8
DANMEN
  6
CONTINUOUS
 10
275.200003
 20
98.5
 30
0.0
 11
275.200003
 21
99.5
 31
0.0
  0
ARC
  5
D6B2
  8
DANMEN
  6
CONTINUOUS
 10
275.8
 20
98.8
 30
0.0
 40
0.4
 50
90.0
 51
180.0
  0
LINE
  5
D6B5
  8
DANMEN
  6
CONTINUOUS
 10
276.4
 20
96.5
 30
0.0
 11
275.4
 21
96.5
 31
0.0
  0
LINE
  5
D6B8
  8
DANMEN
  6
CONTINUOUS
 10
275.4
 20
98.5
 30
0.0
 11
275.4
 21
98.8
 31
0.0
  0
LINE
  5
D6BD
  8
DANMEN
  6
CONTINUOUS
 10
275.4
 20
98.5
 30
0.0
 11
276.4
 21
98.5
 31
0.0
  0
ARC
  5
D6BE
  8
DANMEN
  6
CONTINUOUS
 10
275.599999
 20
97.3
 30
0.0
 40
0.2
 50
89.999982
 51
180.000019
  0
LINE
  5
D6BF
  8
DANMEN
  6
CONTINUOUS
 10
275.4
 20
97.3
 30
0.0
 11
275.4
 21
96.5
 31
0.0
  0
LINE
  5
D6C0
  8
DANMEN
  6
CONTINUOUS
 10
275.599999
 20
97.5
 30
0.0
 11
276.4
 21
97.5
 31
0.0
  0
LINE
  5
D6C1
  8
DANMEN
  6
CONTINUOUS
 10
276.4
 20
98.5
 30
0.0
 11
276.4
 21
97.5
 31
0.0
  0
LINE
  5
D6C3
  8
DANMEN
  6
CONTINUOUS
 10
276.250003
 20
97.699997
 30
0.0
 11
276.250003
 21
98.0
 31
0.0
  0
LINE
  5
D6C4
  8
DANMEN
  6
CONTINUOUS
 10
276.250003
 20
97.699997
 30
0.0
 11
275.200003
 21
97.699997
 31
0.0
  0
LINE
  5
D6C5
  8
DANMEN
  6
CONTINUOUS
 10
275.750003
 20
98.5
 30
0.0
 11
275.200003
 21
98.5
 31
0.0
  0
ARC
  5
D6C6
  8
DANMEN
  6
CONTINUOUS
 10
275.750003
 20
98.0
 30
0.0
 40
0.5
 50
0.0
 51
89.999982
  0
LINE
  5
D6C7
  8
DANMEN
  6
CONTINUOUS
 10
275.200003
 20
95.0
 30
0.0
 11
275.200003
 21
97.699997
 31
0.0
  0
ARC
  5
D6C9
  8
DANMEN
  6
CONTINUOUS
 10
274.500003
 20
103.5
 30
0.0
 40
0.5
 50
180.000019
 51
270.000001
  0
LINE
  5
D6CC
  8
DANMEN
  6
CONTINUOUS
 10
274.500003
 20
100.0
 30
0.0
 11
274.700003
 21
100.0
 31
0.0
  0
ARC
  5
D6CD
  8
DANMEN
  6
CONTINUOUS
 10
274.500003
 20
99.5
 30
0.0
 40
0.5
 50
90.0
 51
180.0
  0
ARC
  5
D6CE
  8
DANMEN
  6
CONTINUOUS
 10
274.700003
 20
99.5
 30
0.0
 40
0.5
 50
0.0
 51
90.0
  0
LINE
  5
D6CF
  8
DANMEN
  6
CONTINUOUS
 10
277.3
 20
103.076394
 30
0.0
 11
277.2
 21
99.2
 31
0.0
  0
LINE
  5
D6D0
  8
DANMEN
  6
CONTINUOUS
 10
277.8
 20
99.2
 30
0.0
 11
277.7
 21
103.076394
 31
0.0
  0
LINE
  5
D6D1
  8
DANMEN
  6
CONTINUOUS
 10
280.250001
 20
103.217157
 30
0.0
 11
280.050001
 21
99.2
 31
0.0
  0
LINE
  5
D6D2
  8
DANMEN
  6
CONTINUOUS
 10
280.650001
 20
103.5
 30
0.0
 11
280.650001
 21
98.5
 31
0.0
  0
LINE
  5
D6DB
  8
DANMEN
  6
CONTINUOUS
 10
278.6
 20
98.5
 30
0.0
 11
280.65
 21
98.5
 31
0.0
  0
LINE
  5
D6DC
  8
DANMEN
  6
CONTINUOUS
 10
278.6
 20
96.5
 30
0.0
 11
278.1
 21
97.0
 31
0.0
  0
LINE
  5
D6E1
  8
DANMEN
  6
CONTINUOUS
 10
276.9
 20
97.0
 30
0.0
 11
278.1
 21
97.0
 31
0.0
  0
LINE
  5
D6E2
  8
DANMEN
  6
CONTINUOUS
 10
279.6
 20
96.5
 30
0.0
 11
278.6
 21
96.5
 31
0.0
  0
LINE
  5
D6E3
  8
DANMEN
  6
CONTINUOUS
 10
277.8
 20
99.2
 30
0.0
 11
280.050001
 21
99.2
 31
0.0
  0
ARC
  5
D6EA
  8
DANMEN
  6
CONTINUOUS
 10
279.400001
 20
97.3
 30
0.0
 40
0.2
 50
359.999981
 51
90.000037
  0
LINE
  5
D6EB
  8
DANMEN
  6
CONTINUOUS
 10
279.6
 20
97.3
 30
0.0
 11
279.6
 21
96.5
 31
0.0
  0
LINE
  5
D6EC
  8
DANMEN
  6
CONTINUOUS
 10
279.400001
 20
97.5
 30
0.0
 11
278.6
 21
97.5
 31
0.0
  0
LINE
  5
D6ED
  8
DANMEN
  6
CONTINUOUS
 10
278.6
 20
98.5
 30
0.0
 11
278.6
 21
97.5
 31
0.0
  0
LINE
  5
D6EE
  8
DANMEN
  6
CONTINUOUS
 10
280.250003
 20
98.5
 30
0.0
 11
279.250003
 21
98.5
 31
0.0
  0
LINE
  5
D6EF
  8
DANMEN
  6
CONTINUOUS
 10
280.750003
 20
95.0
 30
0.0
 11
280.750003
 21
98.0
 31
0.0
  0
LINE
  5
D6F0
  8
DANMEN
  6
CONTINUOUS
 10
278.750003
 20
97.699997
 30
0.0
 11
278.750003
 21
98.0
 31
0.0
  0
LINE
  5
D6F1
  8
DANMEN
  6
CONTINUOUS
 10
279.750003
 20
97.699997
 30
0.0
 11
278.750003
 21
97.699997
 31
0.0
  0
LINE
  5
D6F2
  8
DANMEN
  6
CONTINUOUS
 10
279.750003
 20
95.0
 30
0.0
 11
279.750003
 21
97.699997
 31
0.0
  0
ARC
  5
D6F3
  8
DANMEN
  6
CONTINUOUS
 10
279.250003
 20
98.0
 30
0.0
 40
0.5
 50
89.999982
 51
180.000019
  0
ARC
  5
D6F4
  8
DANMEN
  6
CONTINUOUS
 10
280.250003
 20
98.0
 30
0.0
 40
0.5
 50
0.0
 51
89.999982
  0
LINE
  5
D6F5
  8
DANMEN
  6
CONTINUOUS
 10
280.08983
 20
100.0
 30
0.0
 11
277.783483
 21
100.0
 31
0.0
  0
ARC
  5
D702
  8
DANMEN
  6
CONTINUOUS
 10
280.35
 20
103.5
 30
0.0
 40
0.3
 50
0.0
 51
250.528876
  0
ARC
  5
D706
  8
DANMEN
  6
CONTINUOUS
 10
277.5
 20
103.3
 30
0.0
 40
0.3
 50
311.810315
 51
228.189685
  0
LINE
  5
D707
  8
DANMEN
  6
CONTINUOUS
 10
277.000003
 20
104.949997
 30
0.0
 11
277.000003
 21
104.1
 31
0.0
  0
LINE
  5
D70A
  8
DANMEN
  6
CONTINUOUS
 10
297.000003
 20
95.0
 30
0.0
 11
297.000003
 21
93.5
 31
0.0
  0
LINE
  5
D70B
  8
DANMEN
  6
CONTINUOUS
 10
297.000003
 20
95.0
 30
0.0
 11
297.000003
 21
93.292199
 31
0.0
  0
LINE
  5
D70C
  8
DANMEN
  6
CONTINUOUS
 10
294.413123
 20
92.801883
 30
0.0
 11
291.436097
 21
90.598292
 31
0.0
  0
LINE
  5
D70D
  8
DANMEN
  6
CONTINUOUS
 10
294.401086
 20
91.3
 30
0.0
 11
291.699108
 21
89.3
 31
0.0
  0
LINE
  5
D70E
  8
DANMEN
  6
CONTINUOUS
 10
293.000003
 20
89.499994
 30
0.0
 11
294.598061
 21
89.180382
 31
0.0
  0
LINE
  5
D70F
  8
DANMEN
  6
CONTINUOUS
 10
295.000003
 20
88.299994
 30
0.0
 11
289.000003
 21
88.299994
 31
0.0
  0
LINE
  5
D710
  8
DANMEN
  6
CONTINUOUS
 10
295.000003
 20
93.05
 30
0.0
 11
289.000003
 21
93.05
 31
0.0
  0
LINE
  5
D711
  8
DANMEN
  6
CONTINUOUS
 10
293.000003
 20
89.499994
 30
0.0
 11
289.000003
 21
89.499994
 31
0.0
  0
LINE
  5
D713
  8
DANMEN
  6
CONTINUOUS
 10
289.000003
 20
89.499994
 30
0.0
 11
289.000003
 21
93.05
 31
0.0
  0
ARC
  5
D714
  8
DANMEN
  6
CONTINUOUS
 10
290.242473
 20
90.900136
 30
0.0
 40
0.5
 50
34.702622
 51
90.0
  0
ARC
  5
D715
  8
DANMEN
  6
CONTINUOUS
 10
291.257613
 20
90.839422
 30
0.0
 40
0.3
 50
214.702622
 51
306.508792
  0
LINE
  5
D716
  8
DANMEN
  6
CONTINUOUS
 10
290.653532
 20
91.184794
 30
0.0
 11
291.010978
 21
90.668627
 31
0.0
  0
ARC
  5
D717
  8
DANMEN
  6
CONTINUOUS
 10
289.999108
 20
90.900136
 30
0.0
 40
0.5
 50
90.0
 51
180.0
  0
ARC
  5
D718
  8
DANMEN
  6
CONTINUOUS
 10
289.999108
 20
90.900266
 30
0.0
 40
0.5
 50
180.0
 51
214.702622
  0
LINE
  5
D719
  8
DANMEN
  6
CONTINUOUS
 10
289.999108
 20
91.400136
 30
0.0
 11
290.242473
 21
91.400136
 31
0.0
  0
LINE
  5
D71A
  8
DANMEN
  6
CONTINUOUS
 10
289.499108
 20
90.900266
 30
0.0
 11
289.499108
 21
90.900136
 31
0.0
  0
LINE
  5
D71B
  8
DANMEN
  6
CONTINUOUS
 10
289.588049
 20
90.615608
 30
0.0
 11
290.499108
 21
89.3
 31
0.0
  0
LINE
  5
D71C
  8
DANMEN
  6
CONTINUOUS
 10
291.699108
 20
89.3
 30
0.0
 11
290.499108
 21
89.3
 31
0.0
  0
LINE
  5
D71D
  8
DANMEN
  6
CONTINUOUS
 10
298.300003
 20
91.3
 30
0.0
 11
294.401086
 21
91.3
 31
0.0
  0
ARC
  5
D71F
  8
DANMEN
  6
CONTINUOUS
 10
294.734317
 20
92.6
 30
0.0
 40
0.3
 50
19.471221
 51
90.0
  0
ARC
  5
D721
  8
DANMEN
  6
CONTINUOUS
 10
295.300003
 20
92.8
 30
0.0
 40
0.3
 50
199.471221
 51
270.0
  0
ARC
  5
D722
  8
DANMEN
  6
CONTINUOUS
 10
294.710597
 20
92.4
 30
0.0
 40
0.5
 50
90.0
 51
126.508792
  0
LINE
  5
D723
  8
DANMEN
  6
CONTINUOUS
 10
294.734317
 20
92.9
 30
0.0
 11
294.710597
 21
92.9
 31
0.0
  0
LINE
  5
D724
  8
DANMEN
  6
CONTINUOUS
 10
297.300003
 20
93.5
 30
0.0
 11
297.000003
 21
93.5
 31
0.0
  0
LINE
  5
D725
  8
DANMEN
  6
CONTINUOUS
 10
297.300003
 20
93.5
 30
0.0
 11
297.300003
 21
92.5
 31
0.0
  0
LINE
  5
D726
  8
DANMEN
  6
CONTINUOUS
 10
297.300003
 20
92.5
 30
0.0
 11
295.300003
 21
92.5
 31
0.0
  0
ARC
  5
D727
  8
DANMEN
  6
CONTINUOUS
 10
294.500003
 20
88.690092
 30
0.0
 40
0.5
 50
0.0
 51
78.690068
  0
LINE
  5
D728
  8
DANMEN
  6
CONTINUOUS
 10
295.000003
 20
88.690092
 30
0.0
 11
295.000003
 21
88.299994
 31
0.0
  0
ARC
  5
D729
  8
DANMEN
  6
CONTINUOUS
 10
295.300003
 20
92.8
 30
0.0
 40
0.3
 50
180.0
 51
270.0
  0
LINE
  5
D72A
  8
DANMEN
  6
CONTINUOUS
 10
295.000003
 20
92.8
 30
0.0
 11
295.000003
 21
93.05
 31
0.0
  0
LINE
  5
D72B
  8
DANMEN
  6
CONTINUOUS
 10
296.191148
 20
92.605573
 30
0.0
 11
296.745426
 21
92.856576
 31
0.0
  0
ARC
  5
D72C
  8
DANMEN
  6
CONTINUOUS
 10
295.743935
 20
93.5
 30
0.0
 40
1.0
 50
270.0
 51
296.565051
  0
ARC
  5
D72D
  8
DANMEN
  6
CONTINUOUS
 10
296.500003
 20
93.292199
 30
0.0
 40
0.5
 50
299.396173
 51
0.0
  0
LINE
  5
D72E
  8
DANMEN
  6
CONTINUOUS
 10
295.300003
 20
92.5
 30
0.0
 11
295.743935
 21
92.5
 31
0.0
  0
ARC
  5
D72F
  8
DANMEN
  6
CONTINUOUS
 10
298.300003
 20
91.8
 30
0.0
 40
0.5
 50
270.0
 51
0.0
  0
LINE
  5
D730
  8
DANMEN
  6
CONTINUOUS
 10
298.800003
 20
92.55
 30
0.0
 11
298.800003
 21
91.8
 31
0.0
  0
ARC
  5
D731
  8
DANMEN
  6
CONTINUOUS
 10
299.300003
 20
92.55
 30
0.0
 40
0.5
 50
90.0
 51
180.0
  0
LINE
  5
D732
  8
DANMEN
  6
CONTINUOUS
 10
290.950003
 20
104.500003
 30
0.0
 11
293.500003
 21
104.500003
 31
0.0
  0
LINE
  5
D733
  8
DANMEN
  6
CONTINUOUS
 10
298.500003
 20
99.8
 30
0.0
 11
292.714858
 21
98.087664
 31
0.0
  0
LINE
  5
D734
  8
DANMEN
  6
CONTINUOUS
 10
288.550003
 20
95.0
 30
0.0
 11
297.000003
 21
95.0
 31
0.0
  0
LINE
  5
D735
  8
DANMEN
  6
CONTINUOUS
 10
298.250006
 20
100.5
 30
0.0
 11
288.050003
 21
100.5
 31
0.0
  0
LINE
  5
D736
  8
DANMEN
  6
CONTINUOUS
 10
292.550006
 20
98.2
 30
0.0
 11
298.335151
 21
99.912336
 31
0.0
  0
LINE
  5
D737
  8
DANMEN
  6
CONTINUOUS
 10
287.050006
 20
95.0
 30
0.0
 11
287.050006
 21
99.5
 31
0.0
  0
LINE
  5
D738
  8
DANMEN
  6
CONTINUOUS
 10
292.050006
 20
99.0
 30
0.0
 11
288.550003
 21
99.0
 31
0.0
  0
LINE
  5
D739
  8
DANMEN
  6
CONTINUOUS
 10
288.550003
 20
95.0
 30
0.0
 11
288.550003
 21
99.0
 31
0.0
  0
ARC
  5
D73A
  8
DANMEN
  6
CONTINUOUS
 10
292.800003
 20
97.8
 30
0.0
 40
0.3
 50
106.488148
 51
270.0
  0
LINE
  5
D73D
  8
DANMEN
  6
CONTINUOUS
 10
292.050006
 20
99.0
 30
0.0
 11
292.050006
 21
98.2
 31
0.0
  0
LINE
  5
D73E
  8
DANMEN
  6
CONTINUOUS
 10
292.550006
 20
98.2
 30
0.0
 11
292.050006
 21
98.2
 31
0.0
  0
ARC
  5
D740
  8
DANMEN
  6
CONTINUOUS
 10
288.050003
 20
99.5
 30
0.0
 40
1.0
 50
89.999982
 51
180.000019
  0
LINE
  5
D742
  8
DANMEN
  6
CONTINUOUS
 10
299.000003
 20
99.0
 30
0.0
 11
299.000003
 21
99.8
 31
0.0
  0
LINE
  5
D745
  8
DANMEN
  6
CONTINUOUS
 10
294.500003
 20
104.500003
 30
0.0
 11
299.95
 21
104.500003
 31
0.0
  0
LINE
  5
D746
  8
DANMEN
  6
CONTINUOUS
 10
294.500003
 20
104.500003
 30
0.0
 11
294.500003
 21
104.950003
 31
0.0
  0
LINE
  5
D747
  8
DANMEN
  6
CONTINUOUS
 10
293.500003
 20
104.500003
 30
0.0
 11
293.500003
 21
104.950003
 31
0.0
  0
LINE
  5
D74B
  8
DANMEN
  6
CONTINUOUS
 10
293.500003
 20
104.950003
 30
0.0
 11
294.500003
 21
104.950003
 31
0.0
  0
LINE
  5
D752
  8
DANMEN
  6
CONTINUOUS
 10
298.500003
 20
99.8
 30
0.0
 11
299.000003
 21
99.8
 31
0.0
  0
ARC
  5
D753
  8
DANMEN
  6
CONTINUOUS
 10
298.250006
 20
100.2
 30
0.0
 40
0.3
 50
286.488148
 51
90.0
  0
LINE
  5
D754
  8
DANMEN
  6
CONTINUOUS
 10
275.100003
 20
125.9
 30
0.0
 11
287.011317
 21
125.9
 31
0.0
  0
LINE
  5
D755
  8
DANMEN
  6
CONTINUOUS
 10
281.000018
 20
117.500012
 30
0.0
 11
281.000018
 21
112.500009
 31
0.0
  0
LINE
  5
D756
  8
DANMEN
  6
CONTINUOUS
 10
274.500003
 20
108.0
 30
0.0
 11
277.000003
 21
108.0
 31
0.0
  0
ARC
  5
D757
  8
DANMEN
  6
CONTINUOUS
 10
276.500003
 20
107.850131
 30
0.0
 40
0.5
 50
276.009006
 51
0.0
  0
ARC
  5
D758
  8
DANMEN
  6
CONTINUOUS
 10
270.000094
 20
111.000009
 30
0.0
 40
1.5
 50
359.999982
 51
89.999964
  0
ARC
  5
D759
  8
DANMEN
  6
CONTINUOUS
 10
273.000094
 20
108.500018
 30
0.0
 40
1.5
 50
180.000018
 51
270.0
  0
LINE
  5
D75A
  8
DANMEN
  6
CONTINUOUS
 10
271.500094
 20
111.000009
 30
0.0
 11
271.500094
 21
108.500018
 31
0.0
  0
ARC
  5
D75C
  8
DANMEN
  6
CONTINUOUS
 10
274.500003
 20
107.5
 30
0.0
 40
0.5
 50
89.999982
 51
180.000019
  0
LINE
  5
D75E
  8
DANMEN
  6
CONTINUOUS
 10
275.100003
 20
107.2
 30
0.0
 11
276.552345
 21
107.352878
 31
0.0
  0
LINE
  5
D764
  8
DANMEN
  6
CONTINUOUS
 10
277.000003
 20
107.850131
 30
0.0
 11
277.000003
 21
108.0
 31
0.0
  0
LINE
  5
D769
  8
DANMEN
  6
CONTINUOUS
 10
274.500003
 20
122.0
 30
0.0
 11
277.000003
 21
122.0
 31
0.0
  0
ARC
  5
D76A
  8
DANMEN
  6
CONTINUOUS
 10
276.500003
 20
122.149869
 30
0.0
 40
0.5
 50
0.0
 51
83.990994
  0
ARC
  5
D76B
  8
DANMEN
  6
CONTINUOUS
 10
273.000094
 20
121.500018
 30
0.0
 40
1.5
 50
89.999964
 51
180.000001
  0
LINE
  5
D76C
  8
DANMEN
  6
CONTINUOUS
 10
274.000003
 20
126.5
 30
0.0
 11
274.000003
 21
122.5
 31
0.0
  0
LINE
  5
D76D
  8
DANMEN
  6
CONTINUOUS
 10
275.100003
 20
122.8
 30
0.0
 11
276.552345
 21
122.647122
 31
0.0
  0
LINE
  5
D76E
  8
DANMEN
  6
CONTINUOUS
 10
271.500094
 20
121.500018
 30
0.0
 11
271.500094
 21
119.000012
 31
0.0
  0
ARC
  5
D76F
  8
DANMEN
  6
CONTINUOUS
 10
270.000094
 20
119.000012
 30
0.0
 40
1.5
 50
270.0
 51
359.999982
  0
ARC
  5
D771
  8
DANMEN
  6
CONTINUOUS
 10
274.500003
 20
122.5
 30
0.0
 40
0.5
 50
180.000019
 51
270.000001
  0
ARC
  5
D773
  8
DANMEN
  6
CONTINUOUS
 10
274.500003
 20
126.5
 30
0.0
 40
0.5
 50
89.999982
 51
180.000019
  0
LINE
  5
D774
  8
DANMEN
  6
CONTINUOUS
 10
275.100003
 20
125.9
 30
0.0
 11
275.100003
 21
122.8
 31
0.0
  0
LINE
  5
D778
  8
DANMEN
  6
CONTINUOUS
 10
277.000003
 20
122.149869
 30
0.0
 11
277.000003
 21
122.0
 31
0.0
  0
ARC
  5
D77D
  8
DANMEN
  6
CONTINUOUS
 10
300.45
 20
106.5
 30
0.0
 40
0.5
 50
89.999982
 51
180.000019
  0
LINE
  5
D780
  8
DANMEN
  6
CONTINUOUS
 10
300.45
 20
107.0
 30
0.0
 11
300.95
 21
107.0
 31
0.0
  0
LINE
  5
D781
  8
DANMEN
  6
CONTINUOUS
 10
290.950003
 20
125.500003
 30
0.0
 11
293.500003
 21
125.500003
 31
0.0
  0
ARC
  5
D783
  8
DANMEN
  6
CONTINUOUS
 10
287.011317
 20
124.9
 30
0.0
 40
1.0
 50
8.626927
 51
90.0
  0
LINE
  5
D784
  8
DANMEN
  6
CONTINUOUS
 10
288.000003
 20
125.05
 30
0.0
 11
289.000003
 21
125.05
 31
0.0
  0
LINE
  5
D787
  8
DANMEN
  6
CONTINUOUS
 10
294.500003
 20
125.500003
 30
0.0
 11
299.95
 21
125.500003
 31
0.0
  0
LINE
  5
D788
  8
DANMEN
  6
CONTINUOUS
 10
293.500003
 20
125.050003
 30
0.0
 11
294.500003
 21
125.050003
 31
0.0
  0
LINE
  5
D789
  8
DANMEN
  6
CONTINUOUS
 10
294.500003
 20
125.500003
 30
0.0
 11
294.500003
 21
125.050003
 31
0.0
  0
LINE
  5
D78A
  8
DANMEN
  6
CONTINUOUS
 10
293.500003
 20
125.500003
 30
0.0
 11
293.500003
 21
125.050003
 31
0.0
  0
ARC
  5
D792
  8
DANMEN
  6
CONTINUOUS
 10
300.45
 20
123.5
 30
0.0
 40
0.5
 50
180.000019
 51
270.000001
  0
LINE
  5
D795
  8
DANMEN
  6
CONTINUOUS
 10
299.95
 20
125.500003
 30
0.0
 11
299.95
 21
123.5
 31
0.0
  0
LINE
  5
D796
  8
DANMEN
  6
CONTINUOUS
 10
300.95
 20
125.500003
 30
0.0
 11
300.95
 21
123.0
 31
0.0
  0
LINE
  5
D797
  8
DANMEN
  6
CONTINUOUS
 10
300.45
 20
123.0
 30
0.0
 11
300.95
 21
123.0
 31
0.0
  0
LINE
  5
D798
  8
DANMEN
  6
CONTINUOUS
 10
312.050003
 20
125.500003
 30
0.0
 11
312.050003
 21
104.500003
 31
0.0
  0
LINE
  5
D799
  8
DANMEN
  6
CONTINUOUS
 10
314.000003
 20
126.0
 30
0.0
 11
314.000003
 21
98.6
 31
0.0
  0
ARC
  5
D79A
  8
DANMEN
  6
CONTINUOUS
 10
318.0
 20
89.000009
 30
0.0
 40
1.5
 50
179.999982
 51
269.999964
  0
LINE
  5
D79B
  8
DANMEN
  6
CONTINUOUS
 10
314.0
 20
94.5
 30
0.0
 11
314.0
 21
93.0
 31
0.0
  0
LINE
  5
D79C
  8
DANMEN
  6
CONTINUOUS
 10
310.0
 20
92.5
 30
0.0
 11
309.0
 21
92.5
 31
0.0
  0
LINE
  5
D79D
  8
DANMEN
  6
CONTINUOUS
 10
307.0
 20
87.499994
 30
0.0
 11
307.0
 21
82.500006
 31
0.0
  0
LINE
  5
D79E
  8
DANMEN
  6
CONTINUOUS
 10
309.0
 20
93.05
 30
0.0
 11
309.0
 21
92.5
 31
0.0
  0
ARC
  5
D7A0
  8
DANMEN
  6
CONTINUOUS
 10
313.5
 20
93.0
 30
0.0
 40
0.5
 50
270.0
 51
0.0
  0
LINE
  5
D7A1
  8
DANMEN
  6
CONTINUOUS
 10
313.499999
 20
92.5
 30
0.0
 11
311.0
 21
92.5
 31
0.0
  0
LINE
  5
D7A2
  8
DANMEN
  6
CONTINUOUS
 10
310.0
 20
92.55
 30
0.0
 11
310.0
 21
92.5
 31
0.0
  0
LINE
  5
D7A3
  8
DANMEN
  6
CONTINUOUS
 10
311.0
 20
93.05
 30
0.0
 11
310.5
 21
93.05
 31
0.0
  0
LINE
  5
D7A4
  8
DANMEN
  6
CONTINUOUS
 10
311.0
 20
93.05
 30
0.0
 11
311.0
 21
92.5
 31
0.0
  0
ARC
  5
D7A5
  8
DANMEN
  6
CONTINUOUS
 10
310.5
 20
92.55
 30
0.0
 40
0.5
 50
90.0
 51
180.0
  0
ARC
  5
D7A6
  8
DANMEN
  6
CONTINUOUS
 10
315.0
 20
91.5
 30
0.0
 40
1.5
 50
0.000018
 51
90.0
  0
LINE
  5
D7A7
  8
DANMEN
  6
CONTINUOUS
 10
316.5
 20
89.000009
 30
0.0
 11
316.5
 21
91.5
 31
0.0
  0
LINE
  5
D7A8
  8
DANMEN
  6
CONTINUOUS
 10
304.0
 20
100.0
 30
0.0
 11
312.8
 21
100.0
 31
0.0
  0
LINE
  5
D7A9
  8
DANMEN
  6
CONTINUOUS
 10
309.500003
 20
104.500003
 30
0.0
 11
312.050003
 21
104.500003
 31
0.0
  0
LINE
  5
D7AA
  8
DANMEN
  6
CONTINUOUS
 10
304.000003
 20
103.0
 30
0.0
 11
312.800003
 21
103.0
 31
0.0
  0
LINE
  5
D7AB
  8
DANMEN
  6
CONTINUOUS
 10
304.000003
 20
103.0
 30
0.0
 11
304.000003
 21
98.5
 31
0.0
  0
LINE
  5
D7AC
  8
DANMEN
  6
CONTINUOUS
 10
302.500003
 20
103.0
 30
0.0
 11
302.500003
 21
99.0
 31
0.0
  0
ARC
  5
D7AF
  8
DANMEN
  6
CONTINUOUS
 10
303.000003
 20
98.5
 30
0.0
 40
1.0
 50
270.000018
 51
0.0
  0
LINE
  5
D7B4
  8
DANMEN
  6
CONTINUOUS
 10
309.500003
 20
104.500003
 30
0.0
 11
309.500003
 21
104.950003
 31
0.0
  0
LINE
  5
D7B5
  8
DANMEN
  6
CONTINUOUS
 10
308.500003
 20
104.500003
 30
0.0
 11
308.500003
 21
104.950003
 31
0.0
  0
LINE
  5
D7B9
  8
DANMEN
  6
CONTINUOUS
 10
308.500003
 20
104.950003
 30
0.0
 11
309.500003
 21
104.950003
 31
0.0
  0
LINE
  5
D7BC
  8
DANMEN
  6
CONTINUOUS
 10
312.800003
 20
103.0
 30
0.0
 11
312.800003
 21
98.6
 31
0.0
  0
ARC
  5
D7BD
  8
DANMEN
  6
CONTINUOUS
 10
313.400003
 20
98.6
 30
0.0
 40
0.6
 50
180.0
 51
0.0
  0
ARC
  5
D7BE
  8
DANMEN
  6
CONTINUOUS
 10
313.5
 20
94.5
 30
0.0
 40
0.5
 50
0.000091
 51
90.000128
  0
LINE
  5
D7C3
  8
DANMEN
  6
CONTINUOUS
 10
314.0
 20
116.5
 30
0.0
 11
327.432756
 21
116.5
 31
0.0
  0
LINE
  5
D7C4
  8
DANMEN
  6
CONTINUOUS
 10
314.0
 20
113.5
 30
0.0
 11
327.432756
 21
113.5
 31
0.0
  0
LINE
  5
D7C5
  8
DANMEN
  6
CONTINUOUS
 10
309.500003
 20
125.500003
 30
0.0
 11
312.050003
 21
125.500003
 31
0.0
  0
LINE
  5
D7C6
  8
DANMEN
  6
CONTINUOUS
 10
308.500003
 20
125.050003
 30
0.0
 11
309.500003
 21
125.050003
 31
0.0
  0
LINE
  5
D7C7
  8
DANMEN
  6
CONTINUOUS
 10
309.500003
 20
125.500003
 30
0.0
 11
309.500003
 21
125.050003
 31
0.0
  0
LINE
  5
D7C8
  8
DANMEN
  6
CONTINUOUS
 10
308.500003
 20
125.500003
 30
0.0
 11
308.500003
 21
125.050003
 31
0.0
  0
ARC
  5
D7CE
  8
DANMEN
  6
CONTINUOUS
 10
313.000003
 20
126.0
 30
0.0
 40
1.0
 50
0.0
 51
89.999982
  0
LINE
  5
D7D1
  8
SUNPO
  6
CONTINUOUS
 10
43.0
 20
32.5
 30
0.0
 11
43.0
 21
15.0
 31
0.0
  0
LINE
  5
D7D2
  8
SUNPO
  6
CONTINUOUS
 10
23.0
 20
25.0
 30
0.0
 11
23.0
 21
34.0
 31
0.0
  0
LINE
  5
D7D3
  8
SUNPO
  6
CONTINUOUS
 10
41.5
 20
25.0
 30
0.0
 11
23.0
 21
25.0
 31
0.0
  0
ARC
  5
D7D4
  8
SUNPO
  6
BYBLOCK
 10
23.0
 20
25.0
 30
0.0
 40
0.145
 50
270.0
 51
90.0
  0
ARC
  5
D7D5
  8
SUNPO
  6
BYBLOCK
 10
23.0
 20
25.0
 30
0.0
 40
0.145
 50
90.0
 51
270.0
  0
TEXT
  5
D7D6
  8
SUNPO
  6
CONTINUOUS
 10
47.333333
 20
16.0
 30
0.0
 40
2.5
  1
12
  0
LINE
  5
D7D7
  8
SUNPO
  6
CONTINUOUS
 10
43.0
 20
15.0
 30
0.0
 11
55.0
 21
15.0
 31
0.0
  0
ARC
  5
D7D8
  8
SUNPO
  6
BYBLOCK
 10
43.0
 20
15.0
 30
0.0
 40
0.145
 50
180.0
 51
0.0
  0
ARC
  5
D7D9
  8
SUNPO
  6
BYBLOCK
 10
43.0
 20
15.0
 30
0.0
 40
0.145
 50
0.0
 51
180.0
  0
LINE
  5
D7DA
  8
SUNPO
  6
CONTINUOUS
 10
55.0
 20
23.5
 30
0.0
 11
55.0
 21
15.0
 31
0.0
  0
ARC
  5
D7DB
  8
SUNPO
  6
BYBLOCK
 10
55.0
 20
15.0
 30
0.0
 40
0.145
 50
0.0
 51
180.0
  0
ARC
  5
D7DC
  8
SUNPO
  6
BYBLOCK
 10
55.0
 20
15.0
 30
0.0
 40
0.145
 50
180.0
 51
0.0
  0
ARC
  5
D7DD
  8
DANMEN
  6
CONTINUOUS
 10
360.000092
 20
81.000006
 30
0.0
 40
1.5
 50
359.999982
 51
89.999964
  0
LINE
  5
D7DE
  8
DANMEN
  6
CONTINUOUS
 10
389.0
 20
65.199997
 30
0.0
 11
389.0
 21
88.299994
 31
0.0
  0
LINE
  5
D7DF
  8
DANMEN
  6
CONTINUOUS
 10
340.5
 20
64.0
 30
0.0
 11
374.0
 21
64.0
 31
0.0
  0
LINE
  5
D7E0
  8
DANMEN
  6
CONTINUOUS
 10
340.5
 20
74.0
 30
0.0
 11
374.0
 21
74.0
 31
0.0
  0
LINE
  5
D7E1
  8
DANMEN
  6
CONTINUOUS
 10
340.5
 20
65.65
 30
0.0
 11
374.0
 21
65.65
 31
0.0
  0
LINE
  5
D7E2
  8
DANMEN
  6
CONTINUOUS
 10
364.5
 20
75.0
 30
0.0
 11
374.0
 21
75.0
 31
0.0
  0
LINE
  5
D7E3
  8
DANMEN
  6
CONTINUOUS
 10
367.0
 20
76.65
 30
0.0
 11
375.15
 21
76.65
 31
0.0
  0
LINE
  5
D7E4
  8
DANMEN
  6
CONTINUOUS
 10
340.5
 20
77.000015
 30
0.0
 11
364.0
 21
77.000015
 31
0.0
  0
LINE
  5
D7E5
  8
DANMEN
  6
CONTINUOUS
 10
364.0
 20
77.0
 30
0.0
 11
364.0
 21
75.5
 31
0.0
  0
ARC
  5
D7E6
  8
DANMEN
  6
CONTINUOUS
 10
364.5
 20
75.5
 30
0.0
 40
0.5
 50
180.0
 51
269.999982
  0
ARC
  5
D7E7
  8
DANMEN
  6
CONTINUOUS
 10
363.000092
 20
78.500015
 30
0.0
 40
1.5
 50
180.000018
 51
270.0
  0
LINE
  5
D7E8
  8
DANMEN
  6
CONTINUOUS
 10
361.500092
 20
81.000006
 30
0.0
 11
361.500092
 21
78.500015
 31
0.0
  0
ARC
  5
D7E9
  8
DANMEN
  6
CONTINUOUS
 10
364.5
 20
77.0
 30
0.0
 40
0.5
 50
89.999963
 51
180.000019
  0
LINE
  5
D7EA
  8
DANMEN
  6
CONTINUOUS
 10
367.0
 20
77.5
 30
0.0
 11
367.0
 21
76.65
 31
0.0
  0
LINE
  5
D7EB
  8
DANMEN
  6
CONTINUOUS
 10
364.5
 20
77.5
 30
0.0
 11
367.0
 21
77.5
 31
0.0
  0
LINE
  5
D7EC
  8
DANMEN
  6
CONTINUOUS
 10
374.5
 20
64.0
 30
0.0
 11
398.5
 21
64.0
 31
0.0
  0
LINE
  5
D7ED
  8
DANMEN
  6
CONTINUOUS
 10
375.65
 20
65.65
 30
0.0
 11
387.0
 21
65.65
 31
0.0
  0
LINE
  5
D7EE
  8
DANMEN
  6
CONTINUOUS
 10
374.0
 20
75.0
 30
0.0
 11
374.0
 21
64.5
 31
0.0
  0
LINE
  5
D7EF
  8
DANMEN
  6
CONTINUOUS
 10
375.65
 20
76.15
 30
0.0
 11
375.65
 21
65.65
 31
0.0
  0
ARC
  5
D7F0
  8
DANMEN
  6
CONTINUOUS
 10
374.5
 20
64.5
 30
0.0
 40
0.5
 50
180.0
 51
270.0
  0
ARC
  5
D7F1
  8
DANMEN
  6
CONTINUOUS
 10
375.15
 20
76.15
 30
0.0
 40
0.5
 50
0.0
 51
90.0
  0
LINE
  5
D7F2
  8
DANMEN
  6
CONTINUOUS
 10
397.350006
 20
65.649994
 30
0.0
 11
390.649994
 21
65.649994
 31
0.0
  0
LINE
  5
D7F3
  8
DANMEN
  6
CONTINUOUS
 10
389.0
 20
65.199997
 30
0.0
 11
387.0
 21
65.199997
 31
0.0
  0
LINE
  5
D7F4
  8
DANMEN
  6
CONTINUOUS
 10
387.0
 20
65.199997
 30
0.0
 11
387.0
 21
65.649994
 31
0.0
  0
LINE
  5
D7F5
  8
DANMEN
  6
CONTINUOUS
 10
399.0
 20
69.5
 30
0.0
 11
399.0
 21
64.5
 31
0.0
  0
ARC
  5
D7F6
  8
DANMEN
  6
CONTINUOUS
 10
398.5
 20
64.5
 30
0.0
 40
0.5
 50
270.000018
 51
359.999981
  0
ARC
  5
D7F7
  8
DANMEN
  6
CONTINUOUS
 10
398.5
 20
69.5
 30
0.0
 40
0.5
 50
359.999981
 51
90.000037
  0
ARC
  5
D7F8
  8
DANMEN
  6
CONTINUOUS
 10
397.850006
 20
69.5
 30
0.0
 40
0.5
 50
90.000037
 51
180.000019
  0
LINE
  5
D7F9
  8
DANMEN
  6
CONTINUOUS
 10
397.350006
 20
69.5
 30
0.0
 11
397.350006
 21
65.649994
 31
0.0
  0
LINE
  5
D7FA
  8
DANMEN
  6
CONTINUOUS
 10
398.5
 20
70.0
 30
0.0
 11
397.850006
 21
70.0
 31
0.0
  0
LINE
  5
D7FB
  8
DANMEN
  6
CONTINUOUS
 10
340.5
 20
127.0
 30
0.0
 11
389.0
 21
127.0
 31
0.0
  0
LINE
  5
D7FC
  8
DANMEN
  6
CONTINUOUS
 10
340.5
 20
100.0
 30
0.0
 11
389.0
 21
100.0
 31
0.0
  0
LINE
  5
D7FD
  8
DANMEN
  6
CONTINUOUS
 10
340.5
 20
116.5
 30
0.0
 11
389.0
 21
116.5
 31
0.0
  0
LINE
  5
D7FE
  8
DANMEN
  6
CONTINUOUS
 10
340.5
 20
113.5
 30
0.0
 11
389.0
 21
113.5
 31
0.0
  0
LINE
  5
D7FF
  8
DANMEN
  6
CONTINUOUS
 10
371.0
 20
83.000021
 30
0.0
 11
340.5
 21
83.000021
 31
0.0
  0
LINE
  5
D800
  8
DANMEN
  6
CONTINUOUS
 10
371.0
 20
87.000009
 30
0.0
 11
340.5
 21
87.000009
 31
0.0
  0
LINE
  5
D801
  8
DANMEN
  6
CONTINUOUS
 10
371.0
 20
82.500021
 30
0.0
 11
340.5
 21
82.500021
 31
0.0
  0
LINE
  5
D802
  8
DANMEN
  6
CONTINUOUS
 10
371.0
 20
87.500009
 30
0.0
 11
340.5
 21
87.500009
 31
0.0
  0
LINE
  5
D803
  8
DANMEN
  6
CONTINUOUS
 10
367.000003
 20
93.05
 30
0.0
 11
367.500003
 21
93.05
 31
0.0
  0
LINE
  5
D804
  8
DANMEN
  6
CONTINUOUS
 10
364.500004
 20
95.0
 30
0.0
 11
381.0
 21
95.0
 31
0.0
  0
LINE
  5
D805
  8
DANMEN
 10
363.1
 20
96.558846
 30
0.0
 11
357.510116
 21
106.240809
 31
0.0
1001
ACAD
1000
DSTYLE
1002
{
1070
   341
1005
0
1070
    41
1040
1.8
1070
   173
1070
     1
1070
   343
1005
0
1070
   344
1005
0
1002
}
  0
LINE
  5
D806
  8
DANMEN
  6
CONTINUOUS
 10
340.5
 20
95.0
 30
0.0
 11
364.0
 21
95.0
 31
0.0
  0
LINE
  5
D807
  8
DANMEN
  6
CONTINUOUS
 10
340.5
 20
93.000015
 30
0.0
 11
364.0
 21
93.000015
 31
0.0
  0
LINE
  5
D808
  8
DANMEN
  6
CONTINUOUS
 10
364.000003
 20
94.5
 30
0.0
 11
364.000003
 21
93.0
 31
0.0
  0
ARC
  5
D809
  8
DANMEN
  6
CONTINUOUS
 10
360.000092
 20
89.000009
 30
0.0
 40
1.5
 50
270.0
 51
359.999982
  0
ARC
  5
D80B
  8
DANMEN
  6
CONTINUOUS
 10
363.000092
 20
91.500015
 30
0.0
 40
1.5
 50
89.999964
 51
180.000001
  0
LINE
  5
D80C
  8
DANMEN
  6
CONTINUOUS
 10
361.500092
 20
91.500015
 30
0.0
 11
361.500092
 21
89.000009
 31
0.0
  0
LINE
  5
D80D
  8
DANMEN
  6
CONTINUOUS
 10
364.500004
 20
92.5
 30
0.0
 11
367.000003
 21
92.5
 31
0.0
  0
ARC
  5
D80E
  8
DANMEN
  6
CONTINUOUS
 10
364.500003
 20
93.0
 30
0.0
 40
0.5
 50
180.0
 51
270.0
  0
LINE
  5
D80F
  8
DANMEN
  6
CONTINUOUS
 10
367.000003
 20
93.05
 30
0.0
 11
367.000003
 21
92.5
 31
0.0
  0
LINE
  5
D810
  8
DANMEN
  6
BYBLOCK
 10
364.0
 20
95.0
 30
0.0
 11
362.840192
 21
96.408845
 31
0.0
  0
LINE
  5
D811
  8
DANMEN
  6
BYBLOCK
 10
364.0
 20
95.0
 30
0.0
 11
363.1
 21
96.558846
 31
0.0
  0
LINE
  5
D812
  8
DANMEN
  6
BYBLOCK
 10
363.359808
 20
96.708846
 30
0.0
 11
364.0
 21
95.0
 31
0.0
  0
ARC
  5
D813
  8
DANMEN
  6
CONTINUOUS
 10
364.500003
 20
94.5
 30
0.0
 40
0.5
 50
89.999872
 51
179.999909
  0
LINE
  5
D814
  8
DANMEN
 10
357.510116
 20
106.240809
 30
0.0
 11
340.835362
 21
106.240809
 31
0.0
1001
ACAD
1000
DSTYLE
1002
{
1070
   341
1005
0
1070
    41
1040
1.8
1070
   173
1070
     1
1070
   343
1005
0
1070
   344
1005
0
1002
}
  0
ARC
  5
D815
  8
DANMEN
  6
CONTINUOUS
 10
383.289406
 20
92.4
 30
0.0
 40
0.5
 50
53.491208
 51
90.0
  0
LINE
  5
D816
  8
DANMEN
  6
CONTINUOUS
 10
379.7
 20
91.3
 30
0.0
 11
383.598917
 21
91.3
 31
0.0
  0
LINE
  5
D817
  8
DANMEN
  6
CONTINUOUS
 10
385.0
 20
89.499994
 30
0.0
 11
383.401942
 21
89.180382
 31
0.0
  0
LINE
  5
D818
  8
DANMEN
  6
CONTINUOUS
 10
383.0
 20
88.299994
 30
0.0
 11
389.0
 21
88.299994
 31
0.0
  0
LINE
  5
D819
  8
DANMEN
  6
CONTINUOUS
 10
383.0
 20
93.35
 30
0.0
 11
389.0
 21
93.35
 31
0.0
  0
LINE
  5
D81A
  8
DANMEN
  6
CONTINUOUS
 10
389.0
 20
95.0
 30
0.0
 11
381.0
 21
95.0
 31
0.0
  0
LINE
  5
D81B
  8
DANMEN
  6
CONTINUOUS
 10
381.0
 20
95.0
 30
0.0
 11
381.0
 21
93.5
 31
0.0
  0
LINE
  5
D81C
  8
DANMEN
  6
CONTINUOUS
 10
381.0
 20
95.0
 30
0.0
 11
381.0
 21
93.292199
 31
0.0
  0
LINE
  5
D81D
  8
DANMEN
  6
CONTINUOUS
 10
369.000003
 20
93.05
 30
0.0
 11
378.7
 21
93.05
 31
0.0
  0
LINE
  5
D81E
  8
DANMEN
  6
CONTINUOUS
 10
371.0
 20
87.500009
 30
0.0
 11
371.0
 21
82.500021
 31
0.0
  0
LINE
  5
D81F
  8
DANMEN
  6
CONTINUOUS
 10
369.000003
 20
93.05
 30
0.0
 11
369.000003
 21
92.5
 31
0.0
  0
LINE
  5
D820
  8
DANMEN
  6
CONTINUOUS
 10
368.000003
 20
92.55
 30
0.0
 11
368.000003
 21
92.5
 31
0.0
  0
LINE
  5
D821
  8
DANMEN
  6
CONTINUOUS
 10
368.000003
 20
92.5
 30
0.0
 11
369.000003
 21
92.5
 31
0.0
  0
ARC
  5
D822
  8
DANMEN
  6
CONTINUOUS
 10
367.500003
 20
92.55
 30
0.0
 40
0.5
 50
0.0
 51
90.0
  0
ARC
  5
D823
  8
DANMEN
  6
CONTINUOUS
 10
379.7
 20
91.8
 30
0.0
 40
0.5
 50
180.0
 51
270.0
  0
LINE
  5
D824
  8
DANMEN
  6
CONTINUOUS
 10
379.2
 20
92.55
 30
0.0
 11
379.2
 21
91.8
 31
0.0
  0
ARC
  5
D825
  8
DANMEN
  6
CONTINUOUS
 10
378.7
 20
92.55
 30
0.0
 40
0.5
 50
0.0
 51
90.0
  0
ARC
  5
D827
  8
DANMEN
  6
CONTINUOUS
 10
383.265685
 20
92.6
 30
0.0
 40
0.3
 50
90.0
 51
160.528779
  0
ARC
  5
D829
  8
DANMEN
  6
CONTINUOUS
 10
382.7
 20
92.8
 30
0.0
 40
0.3
 50
270.0
 51
340.528779
  0
LINE
  5
D82A
  8
DANMEN
  6
CONTINUOUS
 10
383.265685
 20
92.9
 30
0.0
 11
383.289406
 21
92.9
 31
0.0
  0
LINE
  5
D82B
  8
DANMEN
  6
CONTINUOUS
 10
380.7
 20
93.5
 30
0.0
 11
381.0
 21
93.5
 31
0.0
  0
LINE
  5
D82C
  8
DANMEN
  6
CONTINUOUS
 10
380.7
 20
93.5
 30
0.0
 11
380.7
 21
92.5
 31
0.0
  0
LINE
  5
D82D
  8
DANMEN
  6
CONTINUOUS
 10
380.7
 20
92.5
 30
0.0
 11
382.7
 21
92.5
 31
0.0
  0
ARC
  5
D82E
  8
DANMEN
  6
CONTINUOUS
 10
383.5
 20
88.690092
 30
0.0
 40
0.5
 50
101.309932
 51
180.0
  0
LINE
  5
D82F
  8
DANMEN
  6
CONTINUOUS
 10
383.0
 20
88.690092
 30
0.0
 11
383.0
 21
88.299994
 31
0.0
  0
ARC
  5
D830
  8
DANMEN
  6
CONTINUOUS
 10
382.7
 20
92.8
 30
0.0
 40
0.3
 50
270.0
 51
0.0
  0
LINE
  5
D831
  8
DANMEN
  6
CONTINUOUS
 10
383.0
 20
92.8
 30
0.0
 11
383.0
 21
93.35
 31
0.0
  0
LINE
  5
D832
  8
DANMEN
  6
CONTINUOUS
 10
381.808854
 20
92.605573
 30
0.0
 11
381.254577
 21
92.856576
 31
0.0
  0
ARC
  5
D833
  8
DANMEN
  6
CONTINUOUS
 10
382.256068
 20
93.5
 30
0.0
 40
1.0
 50
243.434949
 51
270.0
  0
ARC
  5
D834
  8
DANMEN
  6
CONTINUOUS
 10
381.5
 20
93.292199
 30
0.0
 40
0.5
 50
180.0
 51
240.603827
  0
LINE
  5
D835
  8
DANMEN
  6
CONTINUOUS
 10
382.7
 20
92.5
 30
0.0
 11
382.256068
 21
92.5
 31
0.0
  0
ARC
  5
D836
  8
DANMEN
  6
CONTINUOUS
 10
387.75753
 20
90.900136
 30
0.0
 40
0.5
 50
90.0
 51
145.297378
  0
LINE
  5
D837
  8
DANMEN
  6
CONTINUOUS
 10
388.411954
 20
90.615608
 30
0.0
 11
387.500895
 21
89.3
 31
0.0
  0
LINE
  5
D838
  8
DANMEN
  6
CONTINUOUS
 10
385.0
 20
89.499994
 30
0.0
 11
389.0
 21
89.499994
 31
0.0
  0
ARC
  5
D839
  8
DANMEN
  6
CONTINUOUS
 10
386.742389
 20
90.839422
 30
0.0
 40
0.3
 50
233.491208
 51
325.297378
  0
LINE
  5
D83A
  8
DANMEN
  6
CONTINUOUS
 10
387.346471
 20
91.184794
 30
0.0
 11
386.989025
 21
90.668627
 31
0.0
  0
LINE
  5
D83B
  8
DANMEN
  6
CONTINUOUS
 10
383.586879
 20
92.801883
 30
0.0
 11
386.563906
 21
90.598292
 31
0.0
  0
LINE
  5
D83C
  8
DANMEN
  6
CONTINUOUS
 10
383.598917
 20
91.3
 30
0.0
 11
386.300895
 21
89.3
 31
0.0
  0
LINE
  5
D83D
  8
DANMEN
  6
CONTINUOUS
 10
386.300895
 20
89.3
 30
0.0
 11
387.500895
 21
89.3
 31
0.0
  0
ARC
  5
D83E
  8
DANMEN
  6
CONTINUOUS
 10
388.000895
 20
90.900136
 30
0.0
 40
0.5
 50
0.0
 51
90.0
  0
ARC
  5
D83F
  8
DANMEN
  6
CONTINUOUS
 10
388.000895
 20
90.900266
 30
0.0
 40
0.5
 50
325.297378
 51
0.0
  0
LINE
  5
D840
  8
DANMEN
  6
CONTINUOUS
 10
388.000895
 20
91.400136
 30
0.0
 11
387.75753
 21
91.400136
 31
0.0
  0
LINE
  5
D841
  8
DANMEN
  6
CONTINUOUS
 10
388.500895
 20
90.900266
 30
0.0
 11
388.500895
 21
90.900136
 31
0.0
  0
LINE
  5
D845
  8
DANMEN
  6
CONTINUOUS
 10
389.0
 20
89.499994
 30
0.0
 11
389.0
 21
93.35
 31
0.0
  0
ARC
  5
D847
  8
DANMEN
  6
CONTINUOUS
 10
397.850006
 20
128.5
 30
0.0
 40
0.5
 50
180.000019
 51
270.000001
  0
ARC
  5
D848
  8
DANMEN
  6
CONTINUOUS
 10
398.5
 20
128.5
 30
0.0
 40
0.5
 50
270.000018
 51
359.999981
  0
LINE
  5
D849
  8
DANMEN
  6
CONTINUOUS
 10
398.5
 20
128.0
 30
0.0
 11
397.850006
 21
128.0
 31
0.0
  0
LINE
  5
D84A
  8
SUNPO
  6
CONTINUOUS
 10
41.5
 20
34.0
 30
0.0
 11
23.0
 21
34.0
 31
0.0
  0
LINE
  5
D84B
  8
SUNPO
  6
CONTINUOUS
 10
41.5
 20
54.0
 30
0.0
 11
23.0
 21
54.0
 31
0.0
  0
LINE
  5
D84C
  8
SUNPO
  6
CONTINUOUS
 10
23.0
 20
34.0
 30
0.0
 11
23.0
 21
54.0
 31
0.0
  0
TEXT
  5
D84D
  8
SUNPO
  6
CONTINUOUS
 10
22.0
 20
28.666667
 30
0.0
 40
2.5
  1
9
 50
90.0
  0
ARC
  5
D84E
  8
SUNPO
  6
BYBLOCK
 10
23.0
 20
34.0
 30
0.0
 40
0.145
 50
270.0
 51
90.0
  0
ARC
  5
D84F
  8
SUNPO
  6
BYBLOCK
 10
23.0
 20
34.0
 30
0.0
 40
0.145
 50
90.0
 51
270.0
  0
ARC
  5
D850
  8
SUNPO
  6
BYBLOCK
 10
23.0
 20
34.0
 30
0.0
 40
0.145
 50
90.0
 51
270.0
  0
ARC
  5
D851
  8
SUNPO
  6
BYBLOCK
 10
23.0
 20
34.0
 30
0.0
 40
0.145
 50
270.0
 51
90.0
  0
TEXT
  5
D852
  8
SUNPO
  6
CONTINUOUS
 10
22.0
 20
42.125
 30
0.0
 40
2.5
  1
20
 50
90.0
  0
TEXT
  5
D853
  8
SUNPO
  6
CONTINUOUS
 10
32.0
 20
38.333333
 30
0.0
 40
2.5
  1
12
 50
90.0
  0
ARC
  5
D854
  8
SUNPO
  6
BYBLOCK
 10
23.0
 20
54.0
 30
0.0
 40
0.145
 50
90.0
 51
270.0
  0
ARC
  5
D855
  8
SUNPO
  6
BYBLOCK
 10
23.0
 20
54.0
 30
0.0
 40
0.145
 50
270.0
 51
90.0
  0
ARC
  5
D856
  8
SUNPO
  6
BYBLOCK
 10
23.0
 20
54.0
 30
0.0
 40
0.145
 50
270.0
 51
90.0
  0
ARC
  5
D857
  8
SUNPO
  6
BYBLOCK
 10
23.0
 20
54.0
 30
0.0
 40
0.145
 50
90.0
 51
270.0
  0
TEXT
  5
D858
  8
SUNPO
  6
CONTINUOUS
 10
32.0
 20
49.166667
 30
0.0
 40
2.5
  1
8
 50
90.0
  0
TEXT
  5
D859
  8
SUNPO
  6
CONTINUOUS
 10
32.0
 20
56.666667
 30
0.0
 40
2.5
  1
7
 50
90.0
  0
LINE
  5
D85A
  8
SUNPO
  6
CONTINUOUS
 10
33.0
 20
46.0
 30
0.0
 11
33.0
 21
54.0
 31
0.0
  0
LINE
  5
D85B
  8
SUNPO
  6
CONTINUOUS
 10
33.0
 20
46.0
 30
0.0
 11
33.0
 21
34.0
 31
0.0
  0
ARC
  5
D85C
  8
SUNPO
  6
BYBLOCK
 10
33.0
 20
34.0
 30
0.0
 40
0.145
 50
270.0
 51
90.0
  0
ARC
  5
D85D
  8
SUNPO
  6
BYBLOCK
 10
33.0
 20
34.0
 30
0.0
 40
0.145
 50
90.0
 51
270.0
  0
LINE
  5
D85E
  8
SUNPO
  6
CONTINUOUS
 10
41.5
 20
46.0
 30
0.0
 11
33.0
 21
46.0
 31
0.0
  0
ARC
  5
D85F
  8
SUNPO
  6
BYBLOCK
 10
33.0
 20
46.0
 30
0.0
 40
0.145
 50
270.0
 51
90.0
  0
ARC
  5
D860
  8
SUNPO
  6
BYBLOCK
 10
33.0
 20
46.0
 30
0.0
 40
0.145
 50
90.0
 51
270.0
  0
ARC
  5
D861
  8
SUNPO
  6
BYBLOCK
 10
33.0
 20
46.0
 30
0.0
 40
0.145
 50
90.0
 51
270.0
  0
ARC
  5
D862
  8
SUNPO
  6
BYBLOCK
 10
33.0
 20
46.0
 30
0.0
 40
0.145
 50
270.0
 51
90.0
  0
LINE
  5
D863
  8
SUNPO
  6
CONTINUOUS
 10
33.0
 20
61.0
 30
0.0
 11
33.0
 21
54.0
 31
0.0
  0
ARC
  5
D864
  8
SUNPO
  6
BYBLOCK
 10
33.0
 20
54.0
 30
0.0
 40
0.145
 50
270.0
 51
90.0
  0
ARC
  5
D865
  8
SUNPO
  6
BYBLOCK
 10
33.0
 20
54.0
 30
0.0
 40
0.145
 50
90.0
 51
270.0
  0
ARC
  5
D866
  8
SUNPO
  6
BYBLOCK
 10
33.0
 20
54.0
 30
0.0
 40
0.145
 50
90.0
 51
270.0
  0
ARC
  5
D867
  8
SUNPO
  6
BYBLOCK
 10
33.0
 20
54.0
 30
0.0
 40
0.145
 50
270.0
 51
90.0
  0
LINE
  5
D868
  8
SUNPO
  6
CONTINUOUS
 10
41.5
 20
61.0
 30
0.0
 11
33.0
 21
61.0
 31
0.0
  0
ARC
  5
D869
  8
SUNPO
  6
BYBLOCK
 10
33.0
 20
61.0
 30
0.0
 40
0.145
 50
90.0
 51
270.0
  0
ARC
  5
D86A
  8
SUNPO
  6
BYBLOCK
 10
33.0
 20
61.0
 30
0.0
 40
0.145
 50
270.0
 51
90.0
  0
TEXT
  5
D86B
  8
SUNPO
  6
CONTINUOUS
 10
22.0
 20
92.916667
 30
0.0
 40
2.5
  1
82
 50
90.0
  0
LINE
  5
D86C
  8
SUNPO
  6
CONTINUOUS
 10
214.0
 20
25.0
 30
0.0
 11
189.0
 21
25.0
 31
0.0
  0
LINE
  5
D86D
  8
SUNPO
  6
CONTINUOUS
 10
199.0
 20
45.0
 30
0.0
 11
189.0
 21
45.0
 31
0.0
  0
LINE
  5
D86E
  8
SUNPO
  6
CONTINUOUS
 10
189.0
 20
62.5
 30
0.0
 11
189.0
 21
25.0
 31
0.0
  0
LINE
  5
D86F
  8
SUNPO
  6
CONTINUOUS
 10
148.0
 20
34.0
 30
0.0
 11
148.0
 21
25.0
 31
0.0
  0
ARC
  5
D870
  8
SUNPO
  6
BYBLOCK
 10
148.0
 20
25.0
 30
0.0
 40
0.145
 50
270.0
 51
90.0
  0
ARC
  5
D871
  8
SUNPO
  6
BYBLOCK
 10
148.0
 20
25.0
 30
0.0
 40
0.145
 50
90.0
 51
270.0
  0
ARC
  5
D872
  8
SUNPO
  6
BYBLOCK
 10
189.0
 20
25.0
 30
0.0
 40
0.15625
 50
180.0
 51
0.0
  0
ARC
  5
D873
  8
SUNPO
  6
BYBLOCK
 10
189.0
 20
25.0
 30
0.0
 40
0.15625
 50
0.0
 51
180.0
  0
LINE
  5
D874
  8
SUNPO
  6
CONTINUOUS
 10
114.5
 20
59.0
 30
0.0
 11
138.0
 21
59.0
 31
0.0
  0
LINE
  5
D875
  8
SUNPO
  6
CONTINUOUS
 10
114.5
 20
34.0
 30
0.0
 11
148.0
 21
34.0
 31
0.0
  0
LINE
  5
D876
  8
SUNPO
  6
CONTINUOUS
 10
114.5
 20
94.0
 30
0.0
 11
148.0
 21
94.0
 31
0.0
  0
LINE
  5
D877
  8
SUNPO
  6
CONTINUOUS
 10
138.0
 20
94.0
 30
0.0
 11
138.0
 21
59.0
 31
0.0
  0
LINE
  5
D878
  8
SUNPO
  6
CONTINUOUS
 10
148.0
 20
94.0
 30
0.0
 11
148.0
 21
34.0
 31
0.0
  0
LINE
  5
D879
  8
SUNPO
  6
CONTINUOUS
 10
138.0
 20
59.0
 30
0.0
 11
138.0
 21
34.0
 31
0.0
  0
ARC
  5
D87A
  8
SUNPO
  6
BYBLOCK
 10
138.0
 20
34.0
 30
0.0
 40
0.145
 50
270.0
 51
90.0
  0
ARC
  5
D87B
  8
SUNPO
  6
BYBLOCK
 10
138.0
 20
34.0
 30
0.0
 40
0.145
 50
90.0
 51
270.0
  0
TEXT
  5
D87C
  8
SUNPO
  6
CONTINUOUS
 10
147.0
 20
28.666667
 30
0.0
 40
2.5
  1
9
 50
90.0
  0
TEXT
  5
D87D
  8
SUNPO
  6
CONTINUOUS
 10
137.0
 20
44.416667
 30
0.0
 40
2.5
  1
25
 50
90.0
  0
ARC
  5
D87E
  8
SUNPO
  6
BYBLOCK
 10
148.0
 20
34.0
 30
0.0
 40
0.15625
 50
270.0
 51
90.0
  0
ARC
  5
D87F
  8
SUNPO
  6
BYBLOCK
 10
148.0
 20
34.0
 30
0.0
 40
0.15625
 50
90.0
 51
270.0
  0
ARC
  5
D880
  8
SUNPO
  6
BYBLOCK
 10
148.0
 20
34.0
 30
0.0
 40
0.145
 50
90.0
 51
270.0
  0
ARC
  5
D881
  8
SUNPO
  6
BYBLOCK
 10
148.0
 20
34.0
 30
0.0
 40
0.145
 50
270.0
 51
90.0
  0
ARC
  5
D882
  8
SUNPO
  6
BYBLOCK
 10
138.0
 20
59.0
 30
0.0
 40
0.145
 50
270.0
 51
90.0
  0
ARC
  5
D883
  8
SUNPO
  6
BYBLOCK
 10
138.0
 20
59.0
 30
0.0
 40
0.145
 50
90.0
 51
270.0
  0
ARC
  5
D884
  8
SUNPO
  6
BYBLOCK
 10
138.0
 20
59.0
 30
0.0
 40
0.145
 50
90.0
 51
270.0
  0
ARC
  5
D885
  8
SUNPO
  6
BYBLOCK
 10
138.0
 20
59.0
 30
0.0
 40
0.145
 50
270.0
 51
90.0
  0
TEXT
  5
D886
  8
SUNPO
  6
CONTINUOUS
 10
147.0
 20
62.125
 30
0.0
 40
2.5
  1
60
 50
90.0
  0
TEXT
  5
D887
  8
SUNPO
  6
CONTINUOUS
 10
192.541667
 20
46.0
 30
0.0
 40
2.5
  1
10
  0
ARC
  5
D888
  8
SUNPO
  6
BYBLOCK
 10
189.0
 20
45.0
 30
0.0
 40
0.145
 50
180.0
 51
0.0
  0
ARC
  5
D889
  8
SUNPO
  6
BYBLOCK
 10
189.0
 20
45.0
 30
0.0
 40
0.145
 50
0.0
 51
180.0
  0
LINE
  5
D88A
  8
SUNPO
  6
CONTINUOUS
 10
153.0
 20
99.0
 30
0.0
 11
148.0
 21
94.0
 31
0.0
  0
LINE
  5
D88B
  8
SUNPO
  6
CONTINUOUS
 10
148.0
 20
94.0
 30
0.0
 11
143.0
 21
99.0
 31
0.0
  0
TEXT
  5
D88C
  8
SUNPO
  6
CONTINUOUS
 10
137.0
 20
74.416667
 30
0.0
 40
2.5
  1
35
 50
90.0
  0
ARC
  5
D88D
  8
SUNPO
  6
BYBLOCK
 10
138.0
 20
94.0
 30
0.0
 40
0.145
 50
90.0
 51
270.0
  0
ARC
  5
D88E
  8
SUNPO
  6
BYBLOCK
 10
138.0
 20
94.0
 30
0.0
 40
0.145
 50
270.0
 51
90.0
  0
ARC
  5
D88F
  8
SUNPO
  6
BYBLOCK
 10
138.0
 20
94.0
 30
0.0
 40
0.145
 50
270.0
 51
90.0
  0
ARC
  5
D890
  8
SUNPO
  6
BYBLOCK
 10
138.0
 20
94.0
 30
0.0
 40
0.145
 50
90.0
 51
270.0
  0
LINE
  5
D892
  8
SUNPO
  6
CONTINUOUS
 10
143.0
 20
99.0
 30
0.0
 11
153.0
 21
99.0
 31
0.0
  0
TEXT
  5
D894
  8
SUNPO
  6
CONTINUOUS
 10
137.0
 20
112.916667
 30
0.0
 40
2.5
  1
42
 50
90.0
  0
LINE
  5
D896
  8
SUNPO
  6
CONTINUOUS
 10
264.888595
 20
33.68372
 30
0.0
 11
263.732051
 21
38.0
 31
0.0
  0
LINE
  5
D897
  8
SUNPO
  6
CONTINUOUS
 10
274.0
 20
37.0
 30
0.0
 11
264.888595
 21
33.68372
 31
0.0
  0
LINE
  5
D898
  8
SUNPO
  6
CONTINUOUS
 10
214.0
 20
62.5
 30
0.0
 11
214.0
 21
25.0
 31
0.0
  0
LINE
  5
D899
  8
SUNPO
  6
CONTINUOUS
 10
214.0
 20
25.0
 30
0.0
 11
283.978714
 21
25.0
 31
0.0
  0
TEXT
  5
D89A
  8
SUNPO
  6
CONTINUOUS
 10
199.416667
 20
26.0
 30
0.0
 40
2.5
  1
25
  0
LINE
  5
D89B
  8
SUNPO
  6
CONTINUOUS
 10
296.495514
 20
28.5
 30
0.0
 11
292.186113
 21
28.5
 31
0.0
  0
LINE
  5
D89C
  8
SUNPO
  6
CONTINUOUS
 10
297.22756
 20
21.500001
 30
0.0
 11
293.186114
 21
28.499998
 31
0.0
  0
LINE
  5
D89E
  8
SUNPO
  6
CONTINUOUS
 10
293.186113
 20
28.5
 30
0.0
 11
293.186113
 21
21.500001
 31
0.0
  0
LINE
  5
D89F
  8
SUNPO
  6
CONTINUOUS
 10
293.186114
 20
21.5
 30
0.0
 11
289.144668
 21
28.499997
 31
0.0
  0
LINE
  5
D8A0
  8
SUNPO
  6
CONTINUOUS
 10
290.876776
 20
21.500001
 30
0.0
 11
286.835331
 21
28.499997
 31
0.0
  0
LINE
  5
D8A1
  8
SUNPO
  6
CONTINUOUS
 10
294.186113
 20
21.5
 30
0.0
 11
289.708582
 21
21.5
 31
0.0
  0
LINE
  5
D8A2
  8
SUNPO
  6
CONTINUOUS
 10
290.10634
 20
28.5
 30
0.0
 11
285.73099
 21
28.5
 31
0.0
  0
LINE
  5
D8A3
  8
SUNPO
  6
CONTINUOUS
 10
299.536959
 20
21.500004
 30
0.0
 11
295.495515
 21
28.499997
 31
0.0
  0
LINE
  5
D8A4
  8
SUNPO
  6
CONTINUOUS
 10
299.536961
 20
28.5
 30
0.0
 11
299.536961
 21
21.500003
 31
0.0
  0
LINE
  5
D8A5
  8
SUNPO
  6
CONTINUOUS
 10
308.26901
 20
23.5
 30
0.0
 11
303.26901
 21
23.5
 31
0.0
  0
LINE
  5
D8A6
  8
SUNPO
  6
CONTINUOUS
 10
300.11431
 20
21.5
 30
0.0
 11
296.536562
 21
21.5
 31
0.0
  0
LINE
  5
D8A7
  8
SUNPO
  6
CONTINUOUS
 10
308.26901
 20
26.5
 30
0.0
 11
303.26901
 21
26.5
 31
0.0
  0
LINE
  5
D8A8
  8
SUNPO
  6
CONTINUOUS
 10
300.495805
 20
28.5
 30
0.0
 11
298.459285
 21
28.5
 31
0.0
  0
LINE
  5
D8AA
  8
SUNPO
  6
CONTINUOUS
 10
274.0
 20
37.0
 30
0.0
 11
214.0
 21
37.0
 31
0.0
  0
TEXT
  5
D8AB
  8
SUNPO
  6
CONTINUOUS
 10
225.916667
 20
46.0
 30
0.0
 40
2.5
  1
28
  0
LINE
  5
D8AC
  8
SUNPO
  6
CONTINUOUS
 10
214.0
 20
45.0
 30
0.0
 11
242.0
 21
45.0
 31
0.0
  0
LINE
  5
D8AD
  8
SUNPO
  6
CONTINUOUS
 10
199.0
 20
62.5
 30
0.0
 11
199.0
 21
45.0
 31
0.0
  0
LINE
  5
D8AE
  8
SUNPO
  6
CONTINUOUS
 10
214.0
 20
45.0
 30
0.0
 11
199.0
 21
45.0
 31
0.0
  0
TEXT
  5
D8AF
  8
SUNPO
  6
CONTINUOUS
 10
204.833333
 20
46.0
 30
0.0
 40
2.5
  1
15
  0
ARC
  5
D8B0
  8
SUNPO
  6
BYBLOCK
 10
199.0
 20
45.0
 30
0.0
 40
0.145
 50
180.0
 51
0.0
  0
ARC
  5
D8B1
  8
SUNPO
  6
BYBLOCK
 10
199.0
 20
45.0
 30
0.0
 40
0.145
 50
0.0
 51
180.0
  0
ARC
  5
D8B2
  8
SUNPO
  6
BYBLOCK
 10
199.0
 20
45.0
 30
0.0
 40
0.145
 50
0.0
 51
180.0
  0
ARC
  5
D8B3
  8
SUNPO
  6
BYBLOCK
 10
199.0
 20
45.0
 30
0.0
 40
0.145
 50
180.0
 51
0.0
  0
LINE
  5
D8B4
  8
SUNPO
  6
CONTINUOUS
 10
214.0
 20
37.0
 30
0.0
 11
223.111405
 21
40.31628
 31
0.0
  0
ARC
  5
D8B6
  8
SUNPO
  6
BYBLOCK
 10
214.0
 20
45.0
 30
0.0
 40
0.145
 50
180.0
 51
0.0
  0
ARC
  5
D8B7
  8
SUNPO
  6
BYBLOCK
 10
214.0
 20
45.0
 30
0.0
 40
0.145
 50
0.0
 51
180.0
  0
ARC
  5
D8B8
  8
SUNPO
  6
BYBLOCK
 10
214.0
 20
45.0
 30
0.0
 40
0.145
 50
0.0
 51
180.0
  0
ARC
  5
D8B9
  8
SUNPO
  6
BYBLOCK
 10
214.0
 20
45.0
 30
0.0
 40
0.145
 50
180.0
 51
0.0
  0
LINE
  5
D8BB
  8
SUNPO
  6
CONTINUOUS
 10
223.111405
 20
40.31628
 30
0.0
 11
224.267949
 21
36.0
 31
0.0
  0
LINE
  5
D8BD
  8
SUNPO
  6
CONTINUOUS
 10
242.0
 20
62.5
 30
0.0
 11
242.0
 21
45.0
 31
0.0
  0
POLYLINE
  5
D8BE
  8
SUNPO
  6
CONTINUOUS
 66
     1
 10
0.0
 20
0.0
 30
0.0
 70
   128
210
0.0
220
0.0
230
-1.0
  0
VERTEX
  5
E961
  8
SUNPO
  6
CONTINUOUS
 10
-241.285372
 20
41.107269
 30
0.0
  0
VERTEX
  5
E962
  8
SUNPO
  6
CONTINUOUS
 10
-242.198887
 20
41.730081
 30
0.0
  0
VERTEX
  5
E963
  8
SUNPO
  6
CONTINUOUS
 10
-242.669982
 20
41.768293
 30
0.0
  0
VERTEX
  5
E964
  8
SUNPO
  6
CONTINUOUS
 10
-242.4838
 20
41.255982
 30
0.0
  0
VERTEX
  5
E965
  8
SUNPO
  6
CONTINUOUS
 10
-241.590898
 20
39.276791
 30
0.0
  0
VERTEX
  5
E966
  8
SUNPO
  6
CONTINUOUS
 10
-241.887461
 20
38.297817
 30
0.0
  0
VERTEX
  5
E967
  8
SUNPO
  6
CONTINUOUS
 10
-242.848871
 20
38.601968
 30
0.0
  0
VERTEX
  5
E968
  8
SUNPO
  6
CONTINUOUS
 10
-243.33436
 20
39.719453
 30
0.0
  0
VERTEX
  5
E969
  8
SUNPO
  6
CONTINUOUS
 10
-243.44692
 20
40.220793
 30
0.0
  0
VERTEX
  5
E96A
  8
SUNPO
  6
CONTINUOUS
 10
-243.319498
 20
39.695165
 30
0.0
  0
VERTEX
  5
E96B
  8
SUNPO
  6
CONTINUOUS
 10
-243.269705
 20
38.62979
 30
0.0
  0
VERTEX
  5
E96C
  8
SUNPO
  6
CONTINUOUS
 10
-244.105643
 20
38.048466
 30
0.0
  0
VERTEX
  5
E96D
  8
SUNPO
  6
CONTINUOUS
 10
-245.421869
 20
39.654112
 30
0.0
  0
VERTEX
  5
E96E
  8
SUNPO
  6
CONTINUOUS
 10
-245.306626
 20
41.810488
 30
0.0
  0
VERTEX
  5
E96F
  8
SUNPO
  6
CONTINUOUS
 10
-247.444428
 20
41.57399
 30
0.0
  0
SEQEND
  5
E970
  8
SUNPO
  6
CONTINUOUS
  0
ARC
  5
D8C0
  8
SUNPO
  6
BYBLOCK
 10
242.0
 20
45.0
 30
0.0
 40
0.145
 50
0.0
 51
180.0
  0
ARC
  5
D8C1
  8
SUNPO
  6
BYBLOCK
 10
242.0
 20
45.0
 30
0.0
 40
0.145
 50
180.0
 51
0.0
  0
TEXT
  5
D8C2
  8
SUNPO
  6
CONTINUOUS
 10
247.007473
 20
38.048402
 30
0.0
 40
2.0
  1
2
  0
ARC
  5
D8C3
  8
SUNPO
  6
BYBLOCK
 10
255.5
 20
64.0
 30
0.0
 40
0.145
 50
270.0
 51
90.0
  0
ARC
  5
D8C4
  8
SUNPO
  6
BYBLOCK
 10
255.5
 20
64.0
 30
0.0
 40
0.145
 50
90.0
 51
270.0
  0
TEXT
  5
D8C5
  8
SUNPO
  6
CONTINUOUS
 10
254.5
 20
94.485291
 30
0.0
 40
2.5
  1
70
 50
90.0
  0
TEXT
  5
D8C6
  8
SUNPO
  6
CONTINUOUS
 10
292.125
 20
38.0
 30
0.0
 40
2.5
  1
40
  0
LINE
  5
D8C7
  8
SUNPO
  6
CONTINUOUS
 10
314.0
 20
37.0
 30
0.0
 11
274.0
 21
37.0
 31
0.0
  0
LINE
  5
D8C8
  8
SUNPO
  6
CONTINUOUS
 10
274.0
 20
62.5
 30
0.0
 11
274.0
 21
37.0
 31
0.0
  0
LINE
  5
D8CB
  8
SUNPO
  6
CONTINUOUS
 10
314.0
 20
62.5
 30
0.0
 11
314.0
 21
37.0
 31
0.0
  0
LINE
  5
D8CC
  8
SUNPO
  6
CONTINUOUS
 10
314.0
 20
37.0
 30
0.0
 11
323.111405
 21
40.31628
 31
0.0
  0
LINE
  5
D8CE
  8
SUNPO
  6
CONTINUOUS
 10
323.111405
 20
40.31628
 30
0.0
 11
324.267949
 21
36.0
 31
0.0
  0
LINE
  5
D8D1
  8
SUNPO
  6
CONTINUOUS
 10
374.0
 20
62.5
 30
0.0
 11
374.0
 21
25.0
 31
0.0
  0
LINE
  5
D8D2
  8
SUNPO
  6
CONTINUOUS
 10
399.0
 20
62.5
 30
0.0
 11
399.0
 21
25.0
 31
0.0
  0
LINE
  5
D8D3
  8
SUNPO
  6
CONTINUOUS
 10
364.888595
 20
33.68372
 30
0.0
 11
363.732051
 21
38.0
 31
0.0
  0
LINE
  5
D8D4
  8
SUNPO
  6
CONTINUOUS
 10
374.0
 20
37.0
 30
0.0
 11
364.888595
 21
33.68372
 31
0.0
  0
LINE
  5
D8D5
  8
SUNPO
  6
CONTINUOUS
 10
399.0
 20
25.0
 30
0.0
 11
374.0
 21
25.0
 31
0.0
  0
TEXT
  5
D8D7
  8
SUNPO
  6
CONTINUOUS
 10
384.416667
 20
26.0
 30
0.0
 40
2.5
  1
25
  0
ARC
  5
D8D8
  8
SUNPO
  6
BYBLOCK
 10
399.0
 20
25.0
 30
0.0
 40
0.145
 50
0.0
 51
180.0
  0
ARC
  5
D8D9
  8
SUNPO
  6
BYBLOCK
 10
399.0
 20
25.0
 30
0.0
 40
0.145
 50
180.0
 51
0.0
  0
TEXT
  5
D8DA
  8
SUNPO
  6
CONTINUOUS
 10
392.541667
 20
46.0
 30
0.0
 40
2.5
  1
10
  0
LINE
  5
D8DB
  8
SUNPO
  6
CONTINUOUS
 10
389.0
 20
45.0
 30
0.0
 11
399.0
 21
45.0
 31
0.0
  0
LINE
  5
D8DC
  8
SUNPO
  6
CONTINUOUS
 10
351.577611
 20
77.5
 30
0.0
 11
351.577611
 21
92.5
 31
0.0
  0
LINE
  5
D8DD
  8
SUNPO
  6
CONTINUOUS
 10
331.0
 20
95.0
 30
0.0
 11
331.0
 21
64.0
 31
0.0
  0
LINE
  5
D8DE
  8
SUNPO
  6
CONTINUOUS
 10
362.5
 20
77.5
 30
0.0
 11
351.577611
 21
77.5
 31
0.0
  0
POLYLINE
  5
D8DF
  8
SUNPO
  6
CONTINUOUS
 66
     1
 10
0.0
 20
0.0
 30
0.0
 70
   128
210
0.0
220
0.0
230
-1.0
  0
VERTEX
  5
E971
  8
SUNPO
  6
CONTINUOUS
 10
-341.285372
 20
41.107269
 30
0.0
  0
VERTEX
  5
E972
  8
SUNPO
  6
CONTINUOUS
 10
-342.198887
 20
41.730081
 30
0.0
  0
VERTEX
  5
E973
  8
SUNPO
  6
CONTINUOUS
 10
-342.669983
 20
41.768293
 30
0.0
  0
VERTEX
  5
E974
  8
SUNPO
  6
CONTINUOUS
 10
-342.4838
 20
41.255983
 30
0.0
  0
VERTEX
  5
E975
  8
SUNPO
  6
CONTINUOUS
 10
-341.590898
 20
39.276791
 30
0.0
  0
VERTEX
  5
E976
  8
SUNPO
  6
CONTINUOUS
 10
-341.887461
 20
38.297817
 30
0.0
  0
VERTEX
  5
E977
  8
SUNPO
  6
CONTINUOUS
 10
-342.848871
 20
38.601967
 30
0.0
  0
VERTEX
  5
E978
  8
SUNPO
  6
CONTINUOUS
 10
-343.334361
 20
39.719451
 30
0.0
  0
VERTEX
  5
E979
  8
SUNPO
  6
CONTINUOUS
 10
-343.446921
 20
40.220793
 30
0.0
  0
VERTEX
  5
E97A
  8
SUNPO
  6
CONTINUOUS
 10
-343.3195
 20
39.695166
 30
0.0
  0
VERTEX
  5
E97B
  8
SUNPO
  6
CONTINUOUS
 10
-343.269705
 20
38.62979
 30
0.0
  0
VERTEX
  5
E97C
  8
SUNPO
  6
CONTINUOUS
 10
-344.105643
 20
38.048466
 30
0.0
  0
VERTEX
  5
E97D
  8
SUNPO
  6
CONTINUOUS
 10
-345.42187
 20
39.654112
 30
0.0
  0
VERTEX
  5
E97E
  8
SUNPO
  6
CONTINUOUS
 10
-345.306626
 20
41.810488
 30
0.0
  0
VERTEX
  5
E97F
  8
SUNPO
  6
CONTINUOUS
 10
-347.444429
 20
41.57399
 30
0.0
  0
SEQEND
  5
E980
  8
SUNPO
  6
CONTINUOUS
  0
TEXT
  5
D8E0
  8
SUNPO
  6
CONTINUOUS
 10
347.372796
 20
37.984156
 30
0.0
 40
2.0
  1
1
 41
1.5
  0
ARC
  5
D8E1
  8
SUNPO
  6
BYBLOCK
 10
331.0
 20
64.0
 30
0.0
 40
0.145
 50
270.0
 51
90.0
  0
ARC
  5
D8E2
  8
SUNPO
  6
BYBLOCK
 10
331.0
 20
64.0
 30
0.0
 40
0.145
 50
90.0
 51
270.0
  0
TEXT
  5
D8E3
  8
SUNPO
  6
CONTINUOUS
 10
350.577611
 20
66.71645
 30
0.0
 40
2.5
  1
13.5
 50
90.0
  0
LINE
  5
D8E4
  8
SUNPO
  6
CONTINUOUS
 10
351.577611
 20
64.0
 30
0.0
 11
351.577611
 21
77.5
 31
0.0
  0
ARC
  5
D8E5
  8
SUNPO
  6
BYBLOCK
 10
351.577611
 20
64.0
 30
0.0
 40
0.145
 50
270.0
 51
90.0
  0
ARC
  5
D8E6
  8
SUNPO
  6
BYBLOCK
 10
351.577611
 20
64.0
 30
0.0
 40
0.145
 50
90.0
 51
270.0
  0
ARC
  5
D8E7
  8
SUNPO
  6
BYBLOCK
 10
351.577611
 20
77.5
 30
0.0
 40
0.145
 50
90.0
 51
270.0
  0
ARC
  5
D8E8
  8
SUNPO
  6
BYBLOCK
 10
351.577611
 20
77.5
 30
0.0
 40
0.145
 50
270.0
 51
90.0
  0
ARC
  5
D8E9
  8
SUNPO
  6
BYBLOCK
 10
351.577611
 20
77.5
 30
0.0
 40
0.145
 50
270.0
 51
90.0
  0
ARC
  5
D8EA
  8
SUNPO
  6
BYBLOCK
 10
351.577611
 20
77.5
 30
0.0
 40
0.145
 50
90.0
 51
270.0
  0
LINE
  5
D8EB
  8
SUNPO
  6
CONTINUOUS
 10
389.0
 20
62.5
 30
0.0
 11
389.0
 21
45.0
 31
0.0
  0
LINE
  5
D8EC
  8
SUNPO
  6
CONTINUOUS
 10
364.0
 20
62.5
 30
0.0
 11
364.0
 21
45.0
 31
0.0
  0
LINE
  5
D8ED
  8
SUNPO
  6
CONTINUOUS
 10
374.0
 20
45.0
 30
0.0
 11
389.0
 21
45.0
 31
0.0
  0
TEXT
  5
D8EE
  8
SUNPO
  6
CONTINUOUS
 10
367.541667
 20
46.0
 30
0.0
 40
2.5
  1
10
  0
LINE
  5
D8EF
  8
SUNPO
  6
CONTINUOUS
 10
374.0
 20
45.0
 30
0.0
 11
364.0
 21
45.0
 31
0.0
  0
ARC
  5
D8F1
  8
SUNPO
  6
BYBLOCK
 10
364.0
 20
45.0
 30
0.0
 40
0.145
 50
180.0
 51
0.0
  0
ARC
  5
D8F2
  8
SUNPO
  6
BYBLOCK
 10
364.0
 20
45.0
 30
0.0
 40
0.145
 50
0.0
 51
180.0
  0
ARC
  5
D8F4
  8
SUNPO
  6
BYBLOCK
 10
374.0
 20
45.0
 30
0.0
 40
0.145
 50
180.0
 51
0.0
  0
ARC
  5
D8F5
  8
SUNPO
  6
BYBLOCK
 10
374.0
 20
45.0
 30
0.0
 40
0.145
 50
0.0
 51
180.0
  0
ARC
  5
D8F6
  8
SUNPO
  6
BYBLOCK
 10
374.0
 20
45.0
 30
0.0
 40
0.145
 50
0.0
 51
180.0
  0
ARC
  5
D8F7
  8
SUNPO
  6
BYBLOCK
 10
374.0
 20
45.0
 30
0.0
 40
0.145
 50
180.0
 51
0.0
  0
TEXT
  5
D8F8
  8
SUNPO
  6
CONTINUOUS
 10
379.833333
 20
46.0
 30
0.0
 40
2.5
  1
15
  0
ARC
  5
D8F9
  8
SUNPO
  6
BYBLOCK
 10
389.0
 20
45.0
 30
0.0
 40
0.145
 50
0.0
 51
180.0
  0
ARC
  5
D8FA
  8
SUNPO
  6
BYBLOCK
 10
389.0
 20
45.0
 30
0.0
 40
0.145
 50
180.0
 51
0.0
  0
ARC
  5
D8FB
  8
SUNPO
  6
BYBLOCK
 10
389.0
 20
45.0
 30
0.0
 40
0.145
 50
180.0
 51
0.0
  0
ARC
  5
D8FC
  8
SUNPO
  6
BYBLOCK
 10
389.0
 20
45.0
 30
0.0
 40
0.145
 50
0.0
 51
180.0
  0
LINE
  5
D8FD
  8
SUNPO
  6
CONTINUOUS
 10
362.5
 20
95.0
 30
0.0
 11
351.577611
 21
95.0
 31
0.0
  0
LINE
  5
D8FE
  8
SUNPO
  6
CONTINUOUS
 10
362.5
 20
92.5
 30
0.0
 11
351.577611
 21
92.5
 31
0.0
  0
LINE
  5
D8FF
  8
SUNPO
  6
CONTINUOUS
 10
362.5
 20
92.5
 30
0.0
 11
351.577611
 21
92.5
 31
0.0
  0
LINE
  5
D900
  8
SUNPO
  6
CONTINUOUS
 10
331.0
 20
127.0
 30
0.0
 11
331.0
 21
103.0
 31
0.0
  0
LINE
  5
D901
  8
SUNPO
  6
CONTINUOUS
 10
331.0
 20
95.0
 30
0.0
 11
331.0
 21
103.0
 31
0.0
  0
ARC
  5
D902
  8
SUNPO
  6
BYBLOCK
 10
331.0
 20
95.0
 30
0.0
 40
0.145
 50
270.0
 51
90.0
  0
ARC
  5
D903
  8
SUNPO
  6
BYBLOCK
 10
331.0
 20
95.0
 30
0.0
 40
0.145
 50
90.0
 51
270.0
  0
ARC
  5
D904
  8
SUNPO
  6
BYBLOCK
 10
331.0
 20
95.0
 30
0.0
 40
0.145
 50
90.0
 51
270.0
  0
ARC
  5
D905
  8
SUNPO
  6
BYBLOCK
 10
331.0
 20
95.0
 30
0.0
 40
0.145
 50
270.0
 51
90.0
  0
ARC
  5
D906
  8
SUNPO
  6
BYBLOCK
 10
331.0
 20
103.0
 30
0.0
 40
0.145
 50
90.0
 51
270.0
  0
ARC
  5
D907
  8
SUNPO
  6
BYBLOCK
 10
331.0
 20
103.0
 30
0.0
 40
0.145
 50
270.0
 51
90.0
  0
ARC
  5
D908
  8
SUNPO
  6
BYBLOCK
 10
331.0
 20
103.0
 30
0.0
 40
0.145
 50
270.0
 51
90.0
  0
ARC
  5
D909
  8
SUNPO
  6
BYBLOCK
 10
331.0
 20
103.0
 30
0.0
 40
0.145
 50
90.0
 51
270.0
  0
LINE
  5
D90A
  8
SUNPO
  6
CONTINUOUS
 10
351.577611
 20
92.5
 30
0.0
 11
351.577611
 21
95.0
 31
0.0
  0
TEXT
  5
D90B
  8
SUNPO
  6
CONTINUOUS
 10
350.577611
 20
83.15645
 30
0.0
 40
2.5
  1
15
 50
90.0
  0
ARC
  5
D90C
  8
SUNPO
  6
BYBLOCK
 10
351.577611
 20
92.5
 30
0.0
 40
0.145
 50
270.0
 51
90.0
  0
ARC
  5
D90D
  8
SUNPO
  6
BYBLOCK
 10
351.577611
 20
92.5
 30
0.0
 40
0.145
 50
90.0
 51
270.0
  0
ARC
  5
D90E
  8
SUNPO
  6
BYBLOCK
 10
351.577611
 20
92.5
 30
0.0
 40
0.145
 50
90.0
 51
270.0
  0
ARC
  5
D90F
  8
SUNPO
  6
BYBLOCK
 10
351.577611
 20
92.5
 30
0.0
 40
0.145
 50
270.0
 51
90.0
  0
TEXT
  5
D910
  8
SUNPO
  6
CONTINUOUS
 10
350.577611
 20
98.32
 30
0.0
 40
2.5
  1
2.5
 50
90.0
  0
LINE
  5
D911
  8
SUNPO
  6
CONTINUOUS
 10
351.577611
 20
95.0
 30
0.0
 11
351.577611
 21
104.32
 31
0.0
  0
ARC
  5
D912
  8
SUNPO
  6
BYBLOCK
 10
351.577611
 20
95.0
 30
0.0
 40
0.145
 50
90.0
 51
270.0
  0
ARC
  5
D913
  8
SUNPO
  6
BYBLOCK
 10
351.577611
 20
95.0
 30
0.0
 40
0.145
 50
270.0
 51
90.0
  0
ARC
  5
D914
  8
SUNPO
  6
BYBLOCK
 10
331.0
 20
127.0
 30
0.0
 40
0.145
 50
90.0
 51
270.0
  0
ARC
  5
D915
  8
SUNPO
  6
BYBLOCK
 10
331.0
 20
127.0
 30
0.0
 40
0.145
 50
270.0
 51
90.0
  0
ARC
  5
D916
  8
SUNPO
  6
BYBLOCK
 10
331.0
 20
127.0
 30
0.0
 40
0.145
 50
270.0
 51
90.0
  0
ARC
  5
D917
  8
SUNPO
  6
BYBLOCK
 10
331.0
 20
127.0
 30
0.0
 40
0.145
 50
90.0
 51
270.0
  0
ARC
  5
D918
  8
SUNPO
  6
BYBLOCK
 10
399.0
 20
45.0
 30
0.0
 40
0.145
 50
0.0
 51
180.0
  0
ARC
  5
D919
  8
SUNPO
  6
BYBLOCK
 10
399.0
 20
45.0
 30
0.0
 40
0.145
 50
180.0
 51
0.0
  0
TEXT
  5
D91A
  8
SUNPO
  6
CONTINUOUS
 10
330.0
 20
129.666667
 30
0.0
 40
2.5
  1
7
 50
90.0
  0
LINE
  5
D91B
  8
SUNPO
  6
CONTINUOUS
 10
74.0
 20
158.0
 30
0.0
 11
50.0
 21
158.0
 31
0.0
  0
LINE
  5
D91C
  8
SUNPO
  6
CONTINUOUS
 10
43.0
 20
173.0
 30
0.0
 11
113.0
 21
173.0
 31
0.0
  0
LINE
  5
D91D
  8
DANMEN
  6
CONTINUOUS
 10
259.500001
 20
137.0
 30
0.0
 11
337.5
 21
137.0
 31
0.0
  0
LINE
  5
D91E
  8
DANMEN
  6
CONTINUOUS
 10
259.500001
 20
135.800003
 30
0.0
 11
337.5
 21
135.800003
 31
0.0
  0
LINE
  5
D91F
  8
DANMEN
  6
CONTINUOUS
 10
259.500001
 20
132.800003
 30
0.0
 11
337.5
 21
132.800003
 31
0.0
  0
LINE
  5
D920
  8
DANMEN
  6
CONTINUOUS
 10
234.0
 20
132.800003
 30
0.0
 11
256.500001
 21
132.800003
 31
0.0
  0
LINE
  5
D921
  8
DANMEN
  6
CONTINUOUS
 10
238.399994
 20
137.0
 30
0.0
 11
234.0
 21
137.0
 31
0.0
  0
LINE
  5
D922
  8
DANMEN
  6
CONTINUOUS
 10
238.399994
 20
135.800003
 30
0.0
 11
234.0
 21
135.800003
 31
0.0
  0
LINE
  5
D923
  8
DANMEN
  6
CONTINUOUS
 10
214.0
 20
134.0
 30
0.0
 11
234.0
 21
134.0
 31
0.0
  0
LINE
  5
D924
  8
DANMEN
  6
CONTINUOUS
 10
214.0
 20
133.5
 30
0.0
 11
214.0
 21
132.850006
 31
0.0
  0
ARC
  5
D925
  8
DANMEN
  6
CONTINUOUS
 10
213.5
 20
132.850006
 30
0.0
 40
0.5
 50
270.000018
 51
359.999981
  0
ARC
  5
D926
  8
DANMEN
  6
CONTINUOUS
 10
213.5
 20
133.5
 30
0.0
 40
0.5
 50
359.999981
 51
89.999982
  0
LINE
  5
D92A
  8
DANMEN
  6
CONTINUOUS
 10
234.0
 20
137.0
 30
0.0
 11
234.0
 21
132.800003
 31
0.0
  0
LINE
  5
D92C
  8
DANMEN
  6
CONTINUOUS
 10
238.399994
 20
137.0
 30
0.0
 11
256.500001
 21
137.0
 31
0.0
  0
LINE
  5
D92D
  8
DANMEN
  6
CONTINUOUS
 10
238.399994
 20
135.800003
 30
0.0
 11
256.500001
 21
135.800003
 31
0.0
  0
ARC
  5
D92E
  8
DANMEN
  6
CONTINUOUS
 10
238.399994
 20
136.399994
 30
0.0
 40
0.6
 50
270.000018
 51
90.000037
  0
LINE
  5
D933
  8
SUNPO
  6
CONTINUOUS
 10
23.0
 20
183.0
 30
0.0
 11
23.0
 21
218.0
 31
0.0
  0
LINE
  5
D934
  8
DANMEN
  6
CONTINUOUS
 10
374.0
 20
134.0
 30
0.0
 11
354.0
 21
134.0
 31
0.0
  0
LINE
  5
D935
  8
DANMEN
  6
CONTINUOUS
 10
354.0
 20
132.800003
 30
0.0
 11
340.5
 21
132.800003
 31
0.0
  0
LINE
  5
D936
  8
DANMEN
  6
CONTINUOUS
 10
349.600006
 20
137.0
 30
0.0
 11
354.0
 21
137.0
 31
0.0
  0
LINE
  5
D937
  8
DANMEN
  6
CONTINUOUS
 10
349.600006
 20
135.800003
 30
0.0
 11
354.0
 21
135.800003
 31
0.0
  0
LINE
  5
D938
  8
DANMEN
  6
CONTINUOUS
 10
349.600006
 20
137.0
 30
0.0
 11
340.5
 21
137.0
 31
0.0
  0
LINE
  5
D939
  8
DANMEN
  6
CONTINUOUS
 10
349.600006
 20
135.800003
 30
0.0
 11
340.5
 21
135.800003
 31
0.0
  0
ARC
  5
D93A
  8
DANMEN
  6
CONTINUOUS
 10
349.600006
 20
136.399994
 30
0.0
 40
0.6
 50
89.999963
 51
269.999982
  0
LINE
  5
D93F
  8
DANMEN
  6
CONTINUOUS
 10
354.0
 20
137.0
 30
0.0
 11
354.0
 21
132.800003
 31
0.0
  0
LINE
  5
D941
  8
DANMEN
  6
CONTINUOUS
 10
387.0
 20
132.350006
 30
0.0
 11
374.5
 21
132.350006
 31
0.0
  0
LINE
  5
D942
  8
DANMEN
  6
CONTINUOUS
 10
398.5
 20
134.0
 30
0.0
 11
374.5
 21
134.0
 31
0.0
  0
ARC
  5
D943
  8
DANMEN
  6
CONTINUOUS
 10
374.5
 20
133.5
 30
0.0
 40
0.5
 50
90.000037
 51
180.000019
  0
ARC
  5
D944
  8
DANMEN
  6
CONTINUOUS
 10
374.5
 20
132.850006
 30
0.0
 40
0.5
 50
180.000019
 51
270.000001
  0
LINE
  5
D945
  8
DANMEN
  6
CONTINUOUS
 10
374.0
 20
133.5
 30
0.0
 11
374.0
 21
132.850006
 31
0.0
  0
LINE
  5
D946
  8
DANMEN
  6
CONTINUOUS
 10
397.350006
 20
132.350006
 30
0.0
 11
390.649994
 21
132.350006
 31
0.0
  0
LINE
  5
D947
  8
DANMEN
  6
CONTINUOUS
 10
389.0
 20
132.800003
 30
0.0
 11
387.0
 21
132.800003
 31
0.0
  0
LINE
  5
D948
  8
DANMEN
  6
CONTINUOUS
 10
387.0
 20
132.800003
 30
0.0
 11
387.0
 21
132.350006
 31
0.0
  0
ARC
  5
D949
  8
DANMEN
  6
CONTINUOUS
 10
398.5
 20
133.5
 30
0.0
 40
0.5
 50
0.0
 51
89.999982
  0
LINE
  5
D94A
  8
SUNPO
  6
CONTINUOUS
 10
41.5
 20
136.0
 30
0.0
 11
23.0
 21
136.0
 31
0.0
  0
ARC
  5
D94B
  8
SUNPO
  6
BYBLOCK
 10
23.0
 20
136.0
 30
0.0
 40
0.145
 50
90.0
 51
270.0
  0
ARC
  5
D94C
  8
SUNPO
  6
BYBLOCK
 10
23.0
 20
136.0
 30
0.0
 40
0.145
 50
270.0
 51
90.0
  0
LINE
  5
D94D
  8
SUNPO
  6
CONTINUOUS
 10
50.0
 20
158.0
 30
0.0
 11
43.0
 21
158.0
 31
0.0
  0
TEXT
  5
D94E
  8
SUNPO
  6
CONTINUOUS
 10
45.666667
 20
159.0
 30
0.0
 40
2.5
  1
7
  0
ARC
  5
D94F
  8
SUNPO
  6
BYBLOCK
 10
43.0
 20
158.0
 30
0.0
 40
0.145
 50
180.0
 51
0.0
  0
ARC
  5
D950
  8
SUNPO
  6
BYBLOCK
 10
43.0
 20
158.0
 30
0.0
 40
0.145
 50
0.0
 51
180.0
  0
ARC
  5
D951
  8
SUNPO
  6
BYBLOCK
 10
50.0
 20
158.0
 30
0.0
 40
0.145
 50
0.0
 51
180.0
  0
ARC
  5
D952
  8
SUNPO
  6
BYBLOCK
 10
50.0
 20
158.0
 30
0.0
 40
0.145
 50
180.0
 51
0.0
  0
ARC
  5
D953
  8
SUNPO
  6
BYBLOCK
 10
50.0
 20
158.0
 30
0.0
 40
0.145
 50
180.0
 51
0.0
  0
ARC
  5
D954
  8
SUNPO
  6
BYBLOCK
 10
50.0
 20
158.0
 30
0.0
 40
0.145
 50
0.0
 51
180.0
  0
TEXT
  5
D955
  8
SUNPO
  6
CONTINUOUS
 10
59.916667
 20
159.0
 30
0.0
 40
2.5
  1
24
  0
LINE
  5
D956
  8
SUNPO
  6
CONTINUOUS
 10
41.5
 20
183.0
 30
0.0
 11
23.0
 21
183.0
 31
0.0
  0
ARC
  5
D957
  8
SUNPO
  6
BYBLOCK
 10
23.0
 20
183.0
 30
0.0
 40
0.145
 50
270.0
 51
90.0
  0
ARC
  5
D958
  8
SUNPO
  6
BYBLOCK
 10
23.0
 20
183.0
 30
0.0
 40
0.145
 50
90.0
 51
270.0
  0
TEXT
  5
D959
  8
SUNPO
  6
CONTINUOUS
 10
22.0
 20
198.416667
 30
0.0
 40
2.5
  1
35
 50
90.0
  0
ARC
  5
D95A
  8
SUNPO
  6
BYBLOCK
 10
43.0
 20
173.0
 30
0.0
 40
0.145
 50
180.0
 51
0.0
  0
ARC
  5
D95B
  8
SUNPO
  6
BYBLOCK
 10
43.0
 20
173.0
 30
0.0
 40
0.145
 50
0.0
 51
180.0
  0
LINE
  5
D962
  8
SUNPO
  6
CONTINUOUS
 10
41.5
 20
253.0
 30
0.0
 11
23.0
 21
253.0
 31
0.0
  0
LINE
  5
D963
  8
SUNPO
  6
CONTINUOUS
 10
41.5
 20
218.0
 30
0.0
 11
23.0
 21
218.0
 31
0.0
  0
TEXT
  5
D964
  8
SUNPO
  6
CONTINUOUS
 10
22.0
 20
233.416667
 30
0.0
 40
2.5
  1
35
 50
90.0
  0
LINE
  5
D965
  8
SUNPO
  6
CONTINUOUS
 10
23.0
 20
253.0
 30
0.0
 11
23.0
 21
218.0
 31
0.0
  0
ARC
  5
D966
  8
SUNPO
  6
BYBLOCK
 10
23.0
 20
218.0
 30
0.0
 40
0.145
 50
270.0
 51
90.0
  0
ARC
  5
D967
  8
SUNPO
  6
BYBLOCK
 10
23.0
 20
218.0
 30
0.0
 40
0.145
 50
90.0
 51
270.0
  0
ARC
  5
D968
  8
SUNPO
  6
BYBLOCK
 10
23.0
 20
218.0
 30
0.0
 40
0.145
 50
90.0
 51
270.0
  0
ARC
  5
D969
  8
SUNPO
  6
BYBLOCK
 10
23.0
 20
218.0
 30
0.0
 40
0.145
 50
270.0
 51
90.0
  0
ARC
  5
D96A
  8
SUNPO
  6
BYBLOCK
 10
23.0
 20
253.0
 30
0.0
 40
0.145
 50
90.0
 51
270.0
  0
ARC
  5
D96B
  8
SUNPO
  6
BYBLOCK
 10
23.0
 20
253.0
 30
0.0
 40
0.145
 50
270.0
 51
90.0
  0
LINE
  5
D96C
  8
SUNPO
  6
CONTINUOUS
 10
148.0
 20
218.0
 30
0.0
 11
148.0
 21
166.935971
 31
0.0
  0
LINE
  5
D96D
  8
SUNPO
  6
CONTINUOUS
 10
138.0
 20
218.0
 30
0.0
 11
138.0
 21
183.0
 31
0.0
  0
LINE
  5
D96E
  8
SUNPO
  6
CONTINUOUS
 10
114.5
 20
183.0
 30
0.0
 11
138.0
 21
183.0
 31
0.0
  0
LINE
  5
D96F
  8
SUNPO
  6
CONTINUOUS
 10
114.5
 20
136.0
 30
0.0
 11
138.0
 21
136.0
 31
0.0
  0
TEXT
  5
D970
  8
SUNPO
  6
CONTINUOUS
 10
95.833333
 20
159.0
 30
0.0
 40
2.5
  1
31
  0
LINE
  5
D971
  8
SUNPO
  6
CONTINUOUS
 10
82.0
 20
158.0
 30
0.0
 11
113.0
 21
158.0
 31
0.0
  0
ARC
  5
D972
  8
SUNPO
  6
BYBLOCK
 10
82.0
 20
158.0
 30
0.0
 40
0.145
 50
0.0
 51
180.0
  0
ARC
  5
D973
  8
SUNPO
  6
BYBLOCK
 10
82.0
 20
158.0
 30
0.0
 40
0.145
 50
180.0
 51
0.0
  0
ARC
  5
D974
  8
SUNPO
  6
BYBLOCK
 10
82.0
 20
158.0
 30
0.0
 40
0.145
 50
180.0
 51
0.0
  0
ARC
  5
D975
  8
SUNPO
  6
BYBLOCK
 10
82.0
 20
158.0
 30
0.0
 40
0.145
 50
0.0
 51
180.0
  0
LINE
  5
D976
  8
SUNPO
  6
CONTINUOUS
 10
82.0
 20
158.0
 30
0.0
 11
74.0
 21
158.0
 31
0.0
  0
TEXT
  5
D977
  8
SUNPO
  6
CONTINUOUS
 10
77.166667
 20
159.0
 30
0.0
 40
2.5
  1
8
  0
ARC
  5
D978
  8
SUNPO
  6
BYBLOCK
 10
74.0
 20
158.0
 30
0.0
 40
0.145
 50
180.0
 51
0.0
  0
ARC
  5
D979
  8
SUNPO
  6
BYBLOCK
 10
74.0
 20
158.0
 30
0.0
 40
0.145
 50
0.0
 51
180.0
  0
ARC
  5
D97A
  8
SUNPO
  6
BYBLOCK
 10
74.0
 20
158.0
 30
0.0
 40
0.145
 50
0.0
 51
180.0
  0
ARC
  5
D97B
  8
SUNPO
  6
BYBLOCK
 10
74.0
 20
158.0
 30
0.0
 40
0.145
 50
180.0
 51
0.0
  0
LINE
  5
D97C
  8
SUNPO
  6
CONTINUOUS
 10
113.0
 20
151.24161
 30
0.0
 11
113.0
 21
158.0
 31
0.0
  0
ARC
  5
D97D
  8
SUNPO
  6
BYBLOCK
 10
113.0
 20
158.0
 30
0.0
 40
0.145
 50
0.0
 51
180.0
  0
ARC
  5
D97E
  8
SUNPO
  6
BYBLOCK
 10
113.0
 20
158.0
 30
0.0
 40
0.145
 50
180.0
 51
0.0
  0
TEXT
  5
D97F
  8
SUNPO
  6
CONTINUOUS
 10
77.443604
 20
174.0
 30
0.0
 40
2.5
  1
70
  0
ARC
  5
D980
  8
SUNPO
  6
BYBLOCK
 10
113.0
 20
173.0
 30
0.0
 40
0.145
 50
0.0
 51
180.0
  0
ARC
  5
D981
  8
SUNPO
  6
BYBLOCK
 10
113.0
 20
173.0
 30
0.0
 40
0.145
 50
180.0
 51
0.0
  0
ARC
  5
D982
  8
SUNPO
  6
BYBLOCK
 10
138.0
 20
136.0
 30
0.0
 40
0.145
 50
90.0
 51
270.0
  0
ARC
  5
D983
  8
SUNPO
  6
BYBLOCK
 10
138.0
 20
136.0
 30
0.0
 40
0.145
 50
270.0
 51
90.0
  0
LINE
  5
D984
  8
SUNPO
  6
CONTINUOUS
 10
144.0
 20
151.141045
 30
0.0
 11
152.0
 21
151.141045
 31
0.0
  0
LINE
  5
D985
  8
SUNPO
  6
CONTINUOUS
 10
144.0
 20
156.641045
 30
0.0
 11
152.0
 21
156.641045
 31
0.0
  0
LINE
  5
D986
  8
SUNPO
  6
CONTINUOUS
 10
144.0
 20
149.141045
 30
0.0
 11
152.0
 21
149.141045
 31
0.0
  0
LINE
  5
D987
  8
SUNPO
  6
CONTINUOUS
 10
144.0
 20
152.541039
 30
0.0
 11
144.0
 21
147.343696
 31
0.0
  0
LINE
  5
D988
  8
SUNPO
  6
CONTINUOUS
 10
144.0
 20
158.653991
 30
0.0
 11
144.0
 21
154.920944
 31
0.0
  0
LINE
  5
D989
  8
SUNPO
  6
CONTINUOUS
 10
146.799927
 20
164.656304
 30
0.0
 11
146.799927
 21
159.867761
 31
0.0
  0
LINE
  5
D98A
  8
SUNPO
  6
CONTINUOUS
 10
148.0
 20
156.641045
 30
0.0
 11
148.0
 21
151.141045
 31
0.0
  0
LINE
  5
D98B
  8
SUNPO
  6
CONTINUOUS
 10
152.0
 20
152.541039
 30
0.0
 11
152.0
 21
147.343696
 31
0.0
  0
LINE
  5
D98D
  8
SUNPO
  6
CONTINUOUS
 10
152.0
 20
158.653991
 30
0.0
 11
152.0
 21
154.920944
 31
0.0
  0
LINE
  5
D98E
  8
SUNPO
  6
CONTINUOUS
 10
149.199921
 20
164.656304
 30
0.0
 11
149.199921
 21
159.867761
 31
0.0
  0
ARC
  5
D98F
  8
SUNPO
  6
BYBLOCK
 10
138.0
 20
183.0
 30
0.0
 40
0.145
 50
270.0
 51
90.0
  0
ARC
  5
D990
  8
SUNPO
  6
BYBLOCK
 10
138.0
 20
183.0
 30
0.0
 40
0.145
 50
90.0
 51
270.0
  0
TEXT
  5
D991
  8
SUNPO
  6
CONTINUOUS
 10
137.0
 20
198.416667
 30
0.0
 40
2.5
  1
35
 50
90.0
  0
LINE
  5
D992
  8
SUNPO
  6
CONTINUOUS
 10
114.5
 20
218.0
 30
0.0
 11
148.0
 21
218.0
 31
0.0
  0
LINE
  5
D993
  8
SUNPO
  6
CONTINUOUS
 10
114.5
 20
253.0
 30
0.0
 11
148.0
 21
253.0
 31
0.0
  0
LINE
  5
D994
  8
SUNPO
  6
CONTINUOUS
 10
114.5
 20
226.0
 30
0.0
 11
138.0
 21
226.0
 31
0.0
  0
LINE
  5
D995
  8
SUNPO
  6
CONTINUOUS
 10
114.5
 20
241.0
 30
0.0
 11
138.0
 21
241.0
 31
0.0
  0
TEXT
  5
D996
  8
SUNPO
  6
CONTINUOUS
 10
137.0
 20
231.833333
 30
0.0
 40
2.5
  1
15
 50
90.0
  0
TEXT
  5
D997
  8
SUNPO
  6
CONTINUOUS
 10
147.0
 20
233.416667
 30
0.0
 40
2.5
  1
35
 50
90.0
  0
LINE
  5
D998
  8
SUNPO
  6
CONTINUOUS
 10
148.0
 20
253.0
 30
0.0
 11
148.0
 21
218.0
 31
0.0
  0
LINE
  5
D999
  8
SUNPO
  6
CONTINUOUS
 10
138.0
 20
241.0
 30
0.0
 11
138.0
 21
226.0
 31
0.0
  0
LINE
  5
D99A
  8
SUNPO
  6
CONTINUOUS
 10
153.0
 20
213.0
 30
0.0
 11
143.0
 21
213.0
 31
0.0
  0
LINE
  5
D99B
  8
SUNPO
  6
CONTINUOUS
 10
143.0
 20
213.0
 30
0.0
 11
148.0
 21
218.0
 31
0.0
  0
LINE
  5
D99C
  8
SUNPO
  6
CONTINUOUS
 10
138.0
 20
226.0
 30
0.0
 11
138.0
 21
218.0
 31
0.0
  0
TEXT
  5
D99D
  8
SUNPO
  6
CONTINUOUS
 10
137.0
 20
221.166667
 30
0.0
 40
2.5
  1
8
 50
90.0
  0
ARC
  5
D99E
  8
SUNPO
  6
BYBLOCK
 10
138.0
 20
218.0
 30
0.0
 40
0.145
 50
270.0
 51
90.0
  0
ARC
  5
D99F
  8
SUNPO
  6
BYBLOCK
 10
138.0
 20
218.0
 30
0.0
 40
0.145
 50
90.0
 51
270.0
  0
ARC
  5
D9A0
  8
SUNPO
  6
BYBLOCK
 10
138.0
 20
218.0
 30
0.0
 40
0.145
 50
90.0
 51
270.0
  0
ARC
  5
D9A1
  8
SUNPO
  6
BYBLOCK
 10
138.0
 20
218.0
 30
0.0
 40
0.145
 50
270.0
 51
90.0
  0
ARC
  5
D9A3
  8
SUNPO
  6
BYBLOCK
 10
138.0
 20
226.0
 30
0.0
 40
0.145
 50
90.0
 51
270.0
  0
ARC
  5
D9A4
  8
SUNPO
  6
BYBLOCK
 10
138.0
 20
226.0
 30
0.0
 40
0.145
 50
270.0
 51
90.0
  0
ARC
  5
D9A5
  8
SUNPO
  6
BYBLOCK
 10
138.0
 20
226.0
 30
0.0
 40
0.145
 50
270.0
 51
90.0
  0
ARC
  5
D9A6
  8
SUNPO
  6
BYBLOCK
 10
138.0
 20
226.0
 30
0.0
 40
0.145
 50
90.0
 51
270.0
  0
LINE
  5
D9A7
  8
SUNPO
  6
CONTINUOUS
 10
148.0
 20
218.0
 30
0.0
 11
153.0
 21
213.0
 31
0.0
  0
ARC
  5
D9AA
  8
SUNPO
  6
BYBLOCK
 10
138.0
 20
241.0
 30
0.0
 40
0.145
 50
90.0
 51
270.0
  0
ARC
  5
D9AB
  8
SUNPO
  6
BYBLOCK
 10
138.0
 20
241.0
 30
0.0
 40
0.145
 50
270.0
 51
90.0
  0
ARC
  5
D9AC
  8
SUNPO
  6
BYBLOCK
 10
148.0
 20
253.0
 30
0.0
 40
0.145
 50
90.0
 51
270.0
  0
ARC
  5
D9AD
  8
SUNPO
  6
BYBLOCK
 10
148.0
 20
253.0
 30
0.0
 40
0.145
 50
270.0
 51
90.0
  0
LINE
  5
D9AE
  8
SUNPO
  6
CONTINUOUS
 10
202.0
 20
144.0
 30
0.0
 11
242.0
 21
144.0
 31
0.0
  0
LINE
  5
D9AF
  8
SUNPO
  6
CONTINUOUS
 10
202.0
 20
135.5
 30
0.0
 11
202.0
 21
144.0
 31
0.0
  0
LINE
  5
D9B0
  8
SUNPO
  6
CONTINUOUS
 10
199.0
 20
135.5
 30
0.0
 11
199.0
 21
144.0
 31
0.0
  0
TEXT
  5
D9B1
  8
SUNPO
  6
CONTINUOUS
 10
199.666667
 20
145.0
 30
0.0
 40
2.5
  1
3
  0
LINE
  5
D9B2
  8
SUNPO
  6
CONTINUOUS
 10
202.0
 20
144.0
 30
0.0
 11
199.0
 21
144.0
 31
0.0
  0
ARC
  5
D9B3
  8
SUNPO
  6
BYBLOCK
 10
199.0
 20
144.0
 30
0.0
 40
0.145
 50
180.0
 51
0.0
  0
ARC
  5
D9B4
  8
SUNPO
  6
BYBLOCK
 10
199.0
 20
144.0
 30
0.0
 40
0.145
 50
0.0
 51
180.0
  0
ARC
  5
D9B5
  8
SUNPO
  6
BYBLOCK
 10
202.0
 20
144.0
 30
0.0
 40
0.145
 50
180.0
 51
0.0
  0
ARC
  5
D9B6
  8
SUNPO
  6
BYBLOCK
 10
202.0
 20
144.0
 30
0.0
 40
0.145
 50
0.0
 51
180.0
  0
ARC
  5
D9B7
  8
SUNPO
  6
BYBLOCK
 10
202.0
 20
144.0
 30
0.0
 40
0.145
 50
0.0
 51
180.0
  0
ARC
  5
D9B8
  8
SUNPO
  6
BYBLOCK
 10
202.0
 20
144.0
 30
0.0
 40
0.145
 50
180.0
 51
0.0
  0
TEXT
  5
D9B9
  8
SUNPO
  6
CONTINUOUS
 10
220.125
 20
145.0
 30
0.0
 40
2.5
  1
40
  0
LINE
  5
D9BA
  8
SUNPO
  6
CONTINUOUS
 10
235.5
 20
134.0
 30
0.0
 11
255.5
 21
134.0
 31
0.0
  0
LINE
  5
D9BB
  8
SUNPO
  6
CONTINUOUS
 10
242.0
 20
135.5
 30
0.0
 11
242.0
 21
144.0
 31
0.0
  0
ARC
  5
D9BC
  8
SUNPO
  6
BYBLOCK
 10
242.0
 20
144.0
 30
0.0
 40
0.145
 50
0.0
 51
180.0
  0
ARC
  5
D9BD
  8
SUNPO
  6
BYBLOCK
 10
242.0
 20
144.0
 30
0.0
 40
0.145
 50
180.0
 51
0.0
  0
LINE
  5
D9BE
  8
SUNPO
  6
CONTINUOUS
 10
255.5
 20
137.0
 30
0.0
 11
255.5
 21
142.986667
 31
0.0
  0
LINE
  5
D9BF
  8
SUNPO
  6
CONTINUOUS
 10
255.5
 20
134.0
 30
0.0
 11
255.5
 21
137.0
 31
0.0
  0
ARC
  5
D9C0
  8
SUNPO
  6
BYBLOCK
 10
255.5
 20
134.0
 30
0.0
 40
0.145
 50
270.0
 51
90.0
  0
ARC
  5
D9C1
  8
SUNPO
  6
BYBLOCK
 10
255.5
 20
134.0
 30
0.0
 40
0.145
 50
90.0
 51
270.0
  0
ARC
  5
D9C2
  8
SUNPO
  6
BYBLOCK
 10
255.5
 20
134.0
 30
0.0
 40
0.145
 50
90.0
 51
270.0
  0
ARC
  5
D9C3
  8
SUNPO
  6
BYBLOCK
 10
255.5
 20
134.0
 30
0.0
 40
0.145
 50
270.0
 51
90.0
  0
ARC
  5
D9C4
  8
SUNPO
  6
BYBLOCK
 10
255.5
 20
137.0
 30
0.0
 40
0.145
 50
90.0
 51
270.0
  0
ARC
  5
D9C5
  8
SUNPO
  6
BYBLOCK
 10
255.5
 20
137.0
 30
0.0
 40
0.145
 50
270.0
 51
90.0
  0
TEXT
  5
D9C6
  8
SUNPO
  6
CONTINUOUS
 10
254.5
 20
140.32
 30
0.0
 40
2.5
  1
3
 50
90.0
  0
LINE
  5
D9C7
  8
SUNPO
  6
CONTINUOUS
 10
374.0
 20
144.0
 30
0.0
 11
399.0
 21
144.0
 31
0.0
  0
LINE
  5
D9C8
  8
SUNPO
  6
CONTINUOUS
 10
352.5
 20
134.0
 30
0.0
 11
331.0
 21
134.0
 31
0.0
  0
ARC
  5
D9C9
  8
SUNPO
  6
BYBLOCK
 10
331.0
 20
134.0
 30
0.0
 40
0.145
 50
90.0
 51
270.0
  0
ARC
  5
D9CA
  8
SUNPO
  6
BYBLOCK
 10
331.0
 20
134.0
 30
0.0
 40
0.145
 50
270.0
 51
90.0
  0
LINE
  5
D9CB
  8
SUNPO
  6
CONTINUOUS
 10
374.0
 20
134.350006
 30
0.0
 11
374.0
 21
144.0
 31
0.0
  0
ARC
  5
D9CC
  8
SUNPO
  6
BYBLOCK
 10
374.0
 20
144.0
 30
0.0
 40
0.145
 50
180.0
 51
0.0
  0
ARC
  5
D9CD
  8
SUNPO
  6
BYBLOCK
 10
374.0
 20
144.0
 30
0.0
 40
0.145
 50
0.0
 51
180.0
  0
TEXT
  5
D9CE
  8
SUNPO
  6
CONTINUOUS
 10
384.416667
 20
145.0
 30
0.0
 40
2.5
  1
25
  0
LINE
  5
D9CF
  8
SUNPO
  6
CONTINUOUS
 10
399.0
 20
135.0
 30
0.0
 11
399.0
 21
144.0
 31
0.0
  0
ARC
  5
D9D0
  8
SUNPO
  6
BYBLOCK
 10
399.0
 20
144.0
 30
0.0
 40
0.145
 50
0.0
 51
180.0
  0
ARC
  5
D9D1
  8
SUNPO
  6
BYBLOCK
 10
399.0
 20
144.0
 30
0.0
 40
0.145
 50
180.0
 51
0.0
  0
LINE
  5
E257
  8
DANMEN
  6
CONTINUOUS
 10
67.349998
 20
68.999996
 30
0.0
 11
67.349998
 21
69.299995
 31
0.0
  0
LINE
  5
E258
  8
DANMEN
  6
CONTINUOUS
 10
67.349998
 20
69.299995
 30
0.0
 11
69.350001
 21
69.299997
 31
0.0
  0
LINE
  5
E259
  8
DANMEN
  6
CONTINUOUS
 10
69.350001
 20
69.299992
 30
0.0
 11
69.849998
 21
69.000003
 31
0.0
  0
LINE
  5
E25A
  8
DANMEN
  6
CONTINUOUS
 10
56.650001
 20
68.999996
 30
0.0
 11
56.650001
 21
69.299995
 31
0.0
  0
LINE
  5
E25B
  8
DANMEN
  6
CONTINUOUS
 10
56.650001
 20
69.299995
 30
0.0
 11
54.649998
 21
69.299997
 31
0.0
  0
LINE
  5
E25C
  8
DANMEN
  6
CONTINUOUS
 10
54.150001
 20
71.999997
 30
0.0
 11
54.150001
 21
70.000001
 31
0.0
  0
LINE
  5
E25D
  8
DANMEN
  6
CONTINUOUS
 10
53.299998
 20
75.000008
 30
0.0
 11
54.150001
 21
71.999997
 31
0.0
  0
LINE
  5
E25E
  8
DANMEN
  6
CONTINUOUS
 10
54.150001
 20
66.999997
 30
0.0
 11
54.150001
 21
69.000003
 31
0.0
  0
LINE
  5
E25F
  8
DANMEN
  6
CONTINUOUS
 10
53.299998
 20
63.999985
 30
0.0
 11
54.150001
 21
66.999997
 31
0.0
  0
LINE
  5
E260
  8
DANMEN
  6
CONTINUOUS
 10
54.149998
 20
87.099996
 30
0.0
 11
54.149998
 21
86.100002
 31
0.0
  0
LINE
  5
E261
  8
DANMEN
  6
CONTINUOUS
 10
53.299997
 20
90.099996
 30
0.0
 11
54.149998
 21
87.099996
 31
0.0
  0
LINE
  5
E262
  8
DANMEN
  6
CONTINUOUS
 10
54.149998
 20
84.000002
 30
0.0
 11
54.149998
 21
84.999996
 31
0.0
  0
LINE
  5
E263
  8
DANMEN
  6
CONTINUOUS
 10
53.299997
 20
81.000002
 30
0.0
 11
54.149998
 21
84.000002
 31
0.0
  0
LINE
  5
E264
  8
DANMEN
  6
CONTINUOUS
 10
54.149998
 20
120.099996
 30
0.0
 11
54.149998
 21
119.100002
 31
0.0
  0
LINE
  5
E265
  8
DANMEN
  6
CONTINUOUS
 10
53.299997
 20
123.099996
 30
0.0
 11
54.149998
 21
120.099996
 31
0.0
  0
LINE
  5
E266
  8
DANMEN
  6
CONTINUOUS
 10
54.149998
 20
117.000002
 30
0.0
 11
54.149998
 21
117.999996
 31
0.0
  0
LINE
  5
E267
  8
DANMEN
  6
CONTINUOUS
 10
53.299997
 20
114.000002
 30
0.0
 11
54.149998
 21
117.000002
 31
0.0
  0
LINE
  5
E268
  8
DANMEN
  6
CONTINUOUS
 10
54.649998
 20
69.299992
 30
0.0
 11
54.150001
 21
69.000003
 31
0.0
  0
ARC
  5
E269
  8
DANMEN
  6
CONTINUOUS
 10
53.649998
 20
54.5
 30
0.0
 40
0.5
 50
270.0
 51
0.0
  0
ARC
  5
E26A
  8
DANMEN
  6
CONTINUOUS
 10
52.699998
 20
54.5
 30
0.0
 40
0.5
 50
180.0
 51
270.0
  0
LINE
  5
E26B
  8
DANMEN
  6
CONTINUOUS
 10
52.699998
 20
54.0
 30
0.0
 11
53.649998
 21
54.0
 31
0.0
  0
LINE
  5
E26C
  8
DANMEN
  6
CONTINUOUS
 10
69.000002
 20
135.5
 30
0.0
 11
69.000002
 21
133.0
 31
0.0
  0
ARC
  5
E26D
  8
DANMEN
  6
CONTINUOUS
 10
69.500002
 20
135.5
 30
0.0
 40
0.5
 50
90.000018
 51
180.0
  0
LINE
  5
E26E
  8
DANMEN
  6
CONTINUOUS
 10
69.149871
 20
133.0
 30
0.0
 11
69.000002
 21
133.0
 31
0.0
  0
LINE
  5
E26F
  8
DANMEN
  6
CONTINUOUS
 10
69.800002
 20
134.9
 30
0.0
 11
69.647124
 21
133.447658
 31
0.0
  0
ARC
  5
E270
  8
DANMEN
  6
CONTINUOUS
 10
69.149871
 20
133.5
 30
0.0
 40
0.5
 50
270.0
 51
353.990994
  0
LINE
  5
E271
  8
DANMEN
  6
CONTINUOUS
 10
70.700002
 20
134.9
 30
0.0
 11
69.800002
 21
134.9
 31
0.0
  0
LINE
  5
E272
  8
DANMEN
  6
CONTINUOUS
 10
71.300002
 20
136.0
 30
0.0
 11
69.500002
 21
136.0
 31
0.0
  0
ARC
  5
E273
  8
DANMEN
  6
CONTINUOUS
 10
54.850129
 20
133.5
 30
0.0
 40
0.5
 50
186.009006
 51
270.0
  0
LINE
  5
E274
  8
DANMEN
  6
CONTINUOUS
 10
54.199998
 20
134.9
 30
0.0
 11
54.352876
 21
133.447658
 31
0.0
  0
LINE
  5
E275
  8
DANMEN
  6
CONTINUOUS
 10
53.299998
 20
134.9
 30
0.0
 11
54.199998
 21
134.9
 31
0.0
  0
ARC
  5
E276
  8
DANMEN
  6
CONTINUOUS
 10
69.700001
 20
83.011314
 30
0.0
 40
1.0
 50
0.0
 51
81.373084
  0
LINE
  5
E277
  8
DANMEN
  6
CONTINUOUS
 10
69.850001
 20
85.0
 30
0.0
 11
69.850001
 21
84.0
 31
0.0
  0
ARC
  5
E278
  8
DANMEN
  6
CONTINUOUS
 10
71.200001
 20
82.400003
 30
0.0
 40
0.5
 50
180.0
 51
270.0
  0
ARC
  5
E279
  8
DANMEN
  6
CONTINUOUS
 10
58.799998
 20
119.0
 30
0.0
 40
1.0
 50
270.0
 51
0.0
  0
LINE
  5
E27A
  8
DANMEN
  6
CONTINUOUS
 10
59.799998
 20
123.9
 30
0.0
 11
59.799998
 21
119.0
 31
0.0
  0
LINE
  5
E27B
  8
DANMEN
  6
CONTINUOUS
 10
59.799998
 20
123.9
 30
0.0
 11
70.700001
 21
123.9
 31
0.0
  0
ARC
  5
E27C
  8
DANMEN
  6
CONTINUOUS
 10
66.199998
 20
89.9
 30
0.0
 40
1.0
 50
90.0
 51
180.0
  0
LINE
  5
E27D
  8
DANMEN
  6
CONTINUOUS
 10
66.199998
 20
90.9
 30
0.0
 11
70.700001
 21
90.9
 31
0.0
  0
LINE
  5
E27E
  8
DANMEN
  6
CONTINUOUS
 10
53.299998
 20
54.8
 30
0.0
 11
54.149998
 21
54.8
 31
0.0
  0
LINE
  5
E27F
  8
DANMEN
  6
CONTINUOUS
 10
54.149998
 20
54.8
 30
0.0
 11
54.149998
 21
54.5
 31
0.0
  0
ARC
  5
E280
  8
DANMEN
  6
CONTINUOUS
 10
73.499995
 20
69.500007
 30
0.0
 40
0.5
 50
270.0
 51
0.0
  0
LINE
  5
E281
  8
DANMEN
  6
CONTINUOUS
 10
61.199998
 20
90.3
 30
0.0
 11
62.699998
 21
90.3
 31
0.0
  0
LINE
  5
E282
  8
DANMEN
  6
CONTINUOUS
 10
60.199998
 20
87.8
 30
0.0
 11
60.199998
 21
89.3
 31
0.0
  0
LINE
  5
E283
  8
DANMEN
  6
CONTINUOUS
 10
63.699998
 20
88.666295
 30
0.0
 11
63.699998
 21
89.3
 31
0.0
  0
LINE
  5
E284
  8
DANMEN
  6
CONTINUOUS
 10
61.199998
 20
86.8
 30
0.0
 11
61.833703
 21
86.8
 31
0.0
  0
LINE
  5
E285
  8
DANMEN
  6
CONTINUOUS
 10
60.199999
 20
85.3
 30
0.0
 11
61.833703
 21
85.3
 31
0.0
  0
LINE
  5
E286
  8
DANMEN
  6
CONTINUOUS
 10
65.199998
 20
88.666295
 30
0.0
 11
65.199998
 21
89.9
 31
0.0
  0
ARC
  5
E287
  8
DANMEN
  6
CONTINUOUS
 10
61.199998
 20
89.3
 30
0.0
 40
1.0
 50
90.0
 51
180.0
  0
ARC
  5
E288
  8
DANMEN
  6
CONTINUOUS
 10
62.699998
 20
89.3
 30
0.0
 40
1.0
 50
0.0
 51
90.0
  0
ARC
  5
E289
  8
DANMEN
  6
CONTINUOUS
 10
61.199998
 20
87.8
 30
0.0
 40
1.0
 50
180.0
 51
270.0
  0
ARC
  5
E28A
  8
DANMEN
  6
CONTINUOUS
 10
64.449998
 20
88.666295
 30
0.0
 40
0.75
 50
180.0
 51
0.0
  0
ARC
  5
E28B
  8
DANMEN
  6
CONTINUOUS
 10
61.833703
 20
86.05
 30
0.0
 40
0.75
 50
270.0
 51
90.0
  0
ARC
  5
E28C
  8
DANMEN
  6
CONTINUOUS
 10
67.799998
 20
85.699997
 30
0.0
 40
0.5
 50
89.999982
 51
180.000019
  0
LINE
  5
E28D
  8
DANMEN
  6
CONTINUOUS
 10
67.299998
 20
85.699997
 30
0.0
 11
67.299998
 21
85.0
 31
0.0
  0
ARC
  5
E28E
  8
DANMEN
  6
CONTINUOUS
 10
61.199998
 20
89.5
 30
0.0
 40
2.5
 50
89.999982
 51
180.000019
  0
ARC
  5
E28F
  8
DANMEN
  6
CONTINUOUS
 10
73.499995
 20
82.5
 30
0.0
 40
0.5
 50
0.0
 51
89.999982
  0
ARC
  5
E290
  8
DANMEN
  6
CONTINUOUS
 10
59.699998
 20
124.0
 30
0.0
 40
1.0
 50
89.999982
 51
180.000019
  0
LINE
  5
E291
  8
DANMEN
  6
CONTINUOUS
 10
54.149998
 20
118.0
 30
0.0
 11
58.799998
 21
118.0
 31
0.0
  0
LINE
  5
E292
  8
DANMEN
  6
CONTINUOUS
 10
58.699998
 20
124.0
 30
0.0
 11
58.699998
 21
119.099997
 31
0.0
  0
LINE
  5
E293
  8
DANMEN
  6
CONTINUOUS
 10
54.149998
 20
119.099997
 30
0.0
 11
58.699998
 21
119.099997
 31
0.0
  0
LINE
  5
E294
  8
DANMEN
  6
CONTINUOUS
 10
60.199999
 20
85.300003
 30
0.0
 11
60.199999
 21
85.0
 31
0.0
  0
LINE
  5
E295
  8
DANMEN
  6
CONTINUOUS
 10
54.149998
 20
86.099997
 30
0.0
 11
58.699998
 21
86.099997
 31
0.0
  0
LINE
  5
E296
  8
DANMEN
  6
CONTINUOUS
 10
54.149998
 20
85.0
 30
0.0
 11
60.199999
 21
85.0
 31
0.0
  0
LINE
  5
E297
  8
DANMEN
  6
CONTINUOUS
 10
72.899998
 20
81.900003
 30
0.0
 11
72.899998
 21
70.100006
 31
0.0
  0
LINE
  5
E298
  8
DANMEN
  6
CONTINUOUS
 10
71.200001
 20
81.900003
 30
0.0
 11
72.899998
 21
81.900003
 31
0.0
  0
LINE
  5
E299
  8
DANMEN
  6
CONTINUOUS
 10
71.799998
 20
83.0
 30
0.0
 11
73.499995
 21
83.0
 31
0.0
  0
LINE
  5
E29A
  8
DANMEN
  6
CONTINUOUS
 10
73.999995
 20
82.5
 30
0.0
 11
73.999995
 21
69.500007
 31
0.0
  0
LINE
  5
E29B
  8
DANMEN
  6
CONTINUOUS
 10
53.299998
 20
63.999985
 30
0.0
 11
53.299998
 21
54.8
 31
0.0
  0
LINE
  5
E29C
  8
DANMEN
  6
CONTINUOUS
 10
70.700001
 20
83.011314
 30
0.0
 11
70.700001
 21
82.400003
 31
0.0
  0
LINE
  5
E29D
  8
DANMEN
  6
CONTINUOUS
 10
67.799998
 20
86.199997
 30
0.0
 11
70.700001
 21
86.199997
 31
0.0
  0
LINE
  5
E29E
  8
DANMEN
  6
CONTINUOUS
 10
67.299998
 20
85.0
 30
0.0
 11
69.850001
 21
85.0
 31
0.0
  0
LINE
  5
E29F
  8
DANMEN
  6
CONTINUOUS
 10
58.699998
 20
89.5
 30
0.0
 11
58.699998
 21
86.099997
 31
0.0
  0
LINE
  5
E2A0
  8
DANMEN
  6
CONTINUOUS
 10
70.700001
 20
90.9
 30
0.0
 11
70.700001
 21
86.199997
 31
0.0
  0
LINE
  5
E2A1
  8
DANMEN
  6
CONTINUOUS
 10
53.299998
 20
81.000003
 30
0.0
 11
53.299998
 21
75.000008
 31
0.0
  0
LINE
  5
E2A2
  8
DANMEN
  6
CONTINUOUS
 10
61.199998
 20
92.0
 30
0.0
 11
70.700001
 21
92.0
 31
0.0
  0
LINE
  5
E2A3
  8
DANMEN
  6
CONTINUOUS
 10
53.299998
 20
114.000003
 30
0.0
 11
53.299998
 21
90.099995
 31
0.0
  0
LINE
  5
E2A4
  8
DANMEN
  6
CONTINUOUS
 10
70.700001
 20
123.9
 30
0.0
 11
70.700001
 21
92.0
 31
0.0
  0
LINE
  5
E2A5
  8
DANMEN
  6
CONTINUOUS
 10
71.799998
 20
135.5
 30
0.0
 11
71.799998
 21
83.0
 31
0.0
  0
LINE
  5
E2A6
  8
DANMEN
  6
CONTINUOUS
 10
52.199998
 20
135.5
 30
0.0
 11
52.199998
 21
54.5
 31
0.0
  0
LINE
  5
E2A7
  8
DANMEN
  6
CONTINUOUS
 10
59.699998
 20
125.0
 30
0.0
 11
70.700001
 21
125.0
 31
0.0
  0
LINE
  5
E2A8
  8
DANMEN
  6
CONTINUOUS
 10
54.850129
 20
133.0
 30
0.0
 11
54.999998
 21
133.0
 31
0.0
  0
LINE
  5
E2A9
  8
DANMEN
  6
CONTINUOUS
 10
53.299998
 20
134.9
 30
0.0
 11
53.299998
 21
123.099995
 31
0.0
  0
LINE
  5
E2AA
  8
DANMEN
  6
CONTINUOUS
 10
70.700001
 20
134.9
 30
0.0
 11
70.700001
 21
125.0
 31
0.0
  0
ARC
  5
E2AB
  8
DANMEN
  6
CONTINUOUS
 10
54.499998
 20
135.5
 30
0.0
 40
0.5
 50
0.0
 51
89.999982
  0
LINE
  5
E2AC
  8
DANMEN
  6
CONTINUOUS
 10
54.999998
 20
135.5
 30
0.0
 11
54.999998
 21
133.0
 31
0.0
  0
ARC
  5
E2AD
  8
DANMEN
  6
CONTINUOUS
 10
71.299998
 20
135.5
 30
0.0
 40
0.5
 50
0.0
 51
89.999982
  0
ARC
  5
E2AE
  8
DANMEN
  6
CONTINUOUS
 10
52.699998
 20
135.5
 30
0.0
 40
0.5
 50
89.999982
 51
180.000019
  0
LINE
  5
E2AF
  8
DANMEN
  6
CONTINUOUS
 10
52.699998
 20
136.0
 30
0.0
 11
54.499998
 21
136.0
 31
0.0
  0
LINE
  5
E2B0
  8
DANMEN
  6
CONTINUOUS
 10
73.499995
 20
69.000007
 30
0.0
 11
71.799998
 21
69.000006
 31
0.0
  0
LINE
  5
E2B1
  8
DANMEN
  6
CONTINUOUS
 10
72.899998
 20
70.100006
 30
0.0
 11
70.850001
 21
70.100005
 31
0.0
  0
LINE
  5
E2B2
  8
DANMEN
  6
CONTINUOUS
 10
69.850001
 20
69.000005
 30
0.0
 11
69.850001
 21
66.499995
 31
0.0
  0
LINE
  5
E2B3
  8
DANMEN
  6
CONTINUOUS
 10
59.5
 20
68.999999
 30
0.0
 11
56.650001
 21
69.000001
 31
0.0
  0
LINE
  5
E2B4
  8
DANMEN
  6
CONTINUOUS
 10
67.349998
 20
69.000004
 30
0.0
 11
64.5
 21
69.000001
 31
0.0
  0
LINE
  5
E2B5
  8
DANMEN
  6
CONTINUOUS
 10
59.499999
 20
69.0
 30
0.0
 11
59.499999
 21
68.050003
 31
0.0
  0
LINE
  5
E2B6
  8
DANMEN
  6
CONTINUOUS
 10
64.499999
 20
69.0
 30
0.0
 11
64.499999
 21
68.050003
 31
0.0
  0
LINE
  5
E2B7
  8
DANMEN
  6
CONTINUOUS
 10
64.499999
 20
68.050001
 30
0.0
 11
59.499999
 21
68.049999
 31
0.0
  0
LINE
  5
E2B8
  8
DANMEN
  6
CONTINUOUS
 10
69.849995
 20
70.000006
 30
0.0
 11
54.150001
 21
70.000001
 31
0.0
  0
ARC
  5
E2B9
  8
DANMEN
  6
CONTINUOUS
 10
70.350001
 20
70.500005
 30
0.0
 40
0.5
 50
0.0
 51
90.0
  0
LINE
  5
E2BA
  8
DANMEN
  6
CONTINUOUS
 10
70.850001
 20
70.500005
 30
0.0
 11
70.850001
 21
70.100005
 31
0.0
  0
LINE
  5
E2BB
  8
DANMEN
  6
CONTINUOUS
 10
70.350001
 20
71.000005
 30
0.0
 11
69.850001
 21
71.000005
 31
0.0
  0
LINE
  5
E2BC
  8
DANMEN
  6
CONTINUOUS
 10
69.850001
 20
71.000005
 30
0.0
 11
69.850001
 21
70.000005
 31
0.0
  0
LINE
  5
E2BD
  8
DANMEN
  6
CONTINUOUS
 10
70.699998
 20
65.999995
 30
0.0
 11
70.699998
 21
58.0
 31
0.0
  0
LINE
  5
E2BE
  8
DANMEN
  6
CONTINUOUS
 10
71.799998
 20
69.000006
 30
0.0
 11
71.799998
 21
54.5
 31
0.0
  0
LINE
  5
E2BF
  8
DANMEN
  6
CONTINUOUS
 10
69.849998
 20
54.8
 30
0.0
 11
69.849998
 21
54.5
 31
0.0
  0
LINE
  5
E2C0
  8
DANMEN
  6
CONTINUOUS
 10
70.699998
 20
54.8
 30
0.0
 11
69.849998
 21
54.8
 31
0.0
  0
LINE
  5
E2C1
  8
DANMEN
  6
CONTINUOUS
 10
71.299998
 20
54.0
 30
0.0
 11
70.349998
 21
54.0
 31
0.0
  0
ARC
  5
E2C2
  8
DANMEN
  6
CONTINUOUS
 10
71.299998
 20
54.5
 30
0.0
 40
0.5
 50
270.0
 51
0.0
  0
ARC
  5
E2C3
  8
DANMEN
  6
CONTINUOUS
 10
70.349998
 20
54.5
 30
0.0
 40
0.5
 50
180.0
 51
270.0
  0
LINE
  5
E2C4
  8
DANMEN
  6
CONTINUOUS
 10
70.699998
 20
65.999995
 30
0.0
 11
70.350001
 21
65.999995
 31
0.0
  0
LINE
  5
E2C5
  8
DANMEN
  6
CONTINUOUS
 10
70.699998
 20
57.0
 30
0.0
 11
70.349998
 21
57.0
 31
0.0
  0
LINE
  5
E2C6
  8
DANMEN
  6
CONTINUOUS
 10
70.699998
 20
58.0
 30
0.0
 11
69.850001
 21
58.0
 31
0.0
  0
LINE
  5
E2C7
  8
DANMEN
  6
CONTINUOUS
 10
70.699998
 20
57.0
 30
0.0
 11
70.699998
 21
54.8
 31
0.0
  0
LINE
  5
E2C8
  8
DANMEN
  6
CONTINUOUS
 10
69.850001
 20
58.0
 30
0.0
 11
69.850001
 21
57.5
 31
0.0
  0
ARC
  5
E2C9
  8
DANMEN
  6
CONTINUOUS
 10
70.350001
 20
57.5
 30
0.0
 40
0.5
 50
180.0
 51
270.0
  0
ARC
  5
E2CA
  8
DANMEN
  6
CONTINUOUS
 10
70.350001
 20
66.499995
 30
0.0
 40
0.5
 50
180.0
 51
270.0
  0
ENDSEC
  0
EOF
